  0
SECTION
  2
HEADER
  9
$ACADVER
  1
AC1009
  9
$INSBASE
 10
0.0
 20
0.0
 30
0.0
  9
$EXTMIN
 10
867.99324330406671
 20
327.38164749855792
 30
-0.0000000000000058
  9
$EXTMAX
 10
32765.33210850941
 20
22484.553276491992
 30
0.0000000000000104
  9
$LIMMIN
 10
0.0
 20
0.0
  9
$LIMMAX
 10
33600.0
 20
23760.0
  9
$ORTHOMODE
 70
     1
  9
$REGENMODE
 70
     1
  9
$FILLMODE
 70
     1
  9
$QTEXTMODE
 70
     0
  9
$MIRRTEXT
 70
     0
  9
$DRAGMODE
 70
     2
  9
$LTSCALE
 40
80.0
  9
$OSMODE
 70
  3071
  9
$ATTMODE
 70
     1
  9
$TEXTSIZE
 40
0.2
  9
$TRACEWID
 40
0.05
  9
$TEXTSTYLE
  7
00
  9
$CLAYER
  8
0
  9
$CELTYPE
  6
BYLAYER
  9
$CECOLOR
 62
   256
  9
$DIMSCALE
 40
80.0
  9
$DIMASZ
 40
3.0
  9
$DIMEXO
 40
1.0
  9
$DIMDLI
 40
0.38
  9
$DIMRND
 40
0.5
  9
$DIMDLE
 40
0.0
  9
$DIMEXE
 40
1.0
  9
$DIMTP
 40
0.0
  9
$DIMTM
 40
0.0
  9
$DIMTXT
 40
2.0
  9
$DIMCEN
 40
0.09
  9
$DIMTSZ
 40
0.0
  9
$DIMTOL
 70
     0
  9
$DIMLIM
 70
     0
  9
$DIMTIH
 70
     0
  9
$DIMTOH
 70
     0
  9
$DIMSE1
 70
     0
  9
$DIMSE2
 70
     0
  9
$DIMTAD
 70
     1
  9
$DIMZIN
 70
     8
  9
$DIMBLK
  1
DOTSMALL
  9
$DIMASO
 70
     1
  9
$DIMSHO
 70
     1
  9
$DIMPOST
  1

  9
$DIMAPOST
  1

  9
$DIMALT
 70
     0
  9
$DIMALTD
 70
     2
  9
$DIMALTF
 40
25.399999999999999
  9
$DIMLFAC
 40
1.0
  9
$DIMTOFL
 70
     1
  9
$DIMTVP
 40
0.0
  9
$DIMTIX
 70
     0
  9
$DIMSOXD
 70
     0
  9
$DIMSAH
 70
     0
  9
$DIMBLK1
  1

  9
$DIMBLK2
  1

  9
$DIMSTYLE
  2
SUNPOU
  9
$DIMCLRD
 70
     4
  9
$DIMCLRE
 70
     4
  9
$DIMCLRT
 70
     7
  9
$DIMTFAC
 40
1.0
  9
$DIMGAP
 40
1.0
  9
$LUNITS
 70
     2
  9
$LUPREC
 70
     4
  9
$SKETCHINC
 40
0.1
  9
$FILLETRAD
 40
0.0
  9
$AUNITS
 70
     0
  9
$AUPREC
 70
     0
  9
$MENU
  1
acad
  9
$ELEVATION
 40
0.0
  9
$PELEVATION
 40
0.0
  9
$THICKNESS
 40
0.0
  9
$LIMCHECK
 70
     0
  9
$BLIPMODE
 70
     1
  9
$CHAMFERA
 40
0.0
  9
$CHAMFERB
 40
0.0
  9
$SKPOLY
 70
     0
  9
$TDCREATE
 40
2311940.075052408
  9
$TDUPDATE
 40
2458942.4584356132
  9
$TDINDWG
 40
0.4156067014
  9
$TDUSRTIMER
 40
0.4156062963
  9
$USRTIMER
 70
     1
  9
$ANGBASE
 50
0.0
  9
$ANGDIR
 70
     0
  9
$PDMODE
 70
     0
  9
$PDSIZE
 40
0.0
  9
$PLINEWID
 40
0.0
  9
$COORDS
 70
     1
  9
$SPLFRAME
 70
     0
  9
$SPLINETYPE
 70
     6
  9
$SPLINESEGS
 70
     8
  9
$ATTDIA
 70
     1
  9
$ATTREQ
 70
     1
  9
$HANDLING
 70
     1
  9
$HANDSEED
  5
14FDD
  9
$SURFTAB1
 70
     6
  9
$SURFTAB2
 70
     6
  9
$SURFTYPE
 70
     6
  9
$SURFU
 70
     6
  9
$SURFV
 70
     6
  9
$UCSNAME
  2

  9
$UCSORG
 10
0.0
 20
0.0
 30
0.0
  9
$UCSXDIR
 10
1.0
 20
0.0
 30
0.0
  9
$UCSYDIR
 10
0.0
 20
1.0
 30
0.0
  9
$PUCSNAME
  2

  9
$PUCSORG
 10
0.0
 20
0.0
 30
0.0
  9
$PUCSXDIR
 10
1.0
 20
0.0
 30
0.0
  9
$PUCSYDIR
 10
0.0
 20
1.0
 30
0.0
  9
$USERI1
 70
     0
  9
$USERI2
 70
     0
  9
$USERI3
 70
     0
  9
$USERI4
 70
     0
  9
$USERI5
 70
     0
  9
$USERR1
 40
0.0
  9
$USERR2
 40
0.0
  9
$USERR3
 40
0.0
  9
$USERR4
 40
0.0
  9
$USERR5
 40
0.0
  9
$WORLDVIEW
 70
     1
  9
$SHADEDGE
 70
     3
  9
$SHADEDIF
 70
    70
  9
$TILEMODE
 70
     1
  9
$MAXACTVP
 70
    16
  9
$PLIMCHECK
 70
     0
  9
$PEXTMIN
 10
1.0000000000000000E+020
 20
1.0000000000000000E+020
 30
1.0000000000000000E+020
  9
$PEXTMAX
 10
-1.0000000000000000E+020
 20
-1.0000000000000000E+020
 30
-1.0000000000000000E+020
  9
$PLIMMIN
 10
0.0
 20
0.0
  9
$PLIMMAX
 10
12.0
 20
9.0
  9
$UNITMODE
 70
     0
  9
$VISRETAIN
 70
     0
  9
$PLINEGEN
 70
     1
  9
$PSLTSCALE
 70
     0
  0
ENDSEC
  0
SECTION
  2
TABLES
  0
TABLE
  2
VPORT
 70
     1
  0
VPORT
  2
*ACTIVE
 70
     0
 10
0.0
 20
0.0
 11
1.0
 21
1.0
 12
16800.0
 22
11880.0
 13
0.0
 23
0.0
 14
1.0
 24
1.0
 15
0.0
 25
0.0
 16
0.0
 26
0.0
 36
1.0
 17
0.0
 27
0.0
 37
0.0
 40
23981.023255813951
 41
2.195652173913043
 42
50.0
 43
0.0
 44
0.0
 50
0.0
 51
0.0
 71
     0
 72
 10000
 73
     1
 74
     1
 75
     0
 76
     0
 77
     0
 78
     0
  0
ENDTAB
  0
TABLE
  2
LTYPE
 70
     6
  0
LTYPE
  2
CONTINUOUS
 70
     0
  3
Solid line
 72
    65
 73
     0
 40
0.0
  0
LTYPE
  2
DASHED3
 70
     0
  3
------  ------  ------  ------  
 72
    65
 73
     2
 40
5.0
 49
3.75
 49
-1.25
  0
LTYPE
  2
CENTER2
 70
     0
  3
----------  --  ----------  --  
 72
    65
 73
     4
 40
20.0
 49
12.5
 49
-2.5
 49
2.5
 49
-2.5
  0
LTYPE
  2
HIDE-M
 70
     0
  3

 72
    65
 73
     2
 40
2.0
 49
1.0
 49
-1.0
  0
LTYPE
  2
1PL-M
 70
     0
  3

 72
    65
 73
     4
 40
15.0
 49
12.0
 49
-1.0
 49
1.0
 49
-1.0
  0
LTYPE
  2
PHANTOM2
 70
     0
  3
___ _ _ ___ _ _ ___ _ _ ___ _ _
 72
    65
 73
     6
 40
1.25
 49
0.625
 49
-0.125
 49
0.125
 49
-0.125
 49
0.125
 49
-0.125
  0
ENDTAB
  0
TABLE
  2
LAYER
 70
    24
  0
LAYER
  2
0
 70
     0
 62
     7
  6
CONTINUOUS
  0
LAYER
  2
SUNPOU
 70
     0
 62
     4
  6
CONTINUOUS
  0
LAYER
  2
0-1
 70
     0
 62
     7
  6
CONTINUOUS
  0
LAYER
  2
0-2
 70
     0
 62
     7
  6
CONTINUOUS
  0
LAYER
  2
0-5
 70
     0
 62
     7
  6
CONTINUOUS
  0
LAYER
  2
0-6
 70
     0
 62
     7
  6
CONTINUOUS
  0
LAYER
  2
2-0
 70
     0
 62
     7
  6
CONTINUOUS
  0
LAYER
  2
0-8
 70
     0
 62
     7
  6
CONTINUOUS
  0
LAYER
  2
YODOROGO
 70
     0
 62
   130
  6
CONTINUOUS
  0
LAYER
  2
WAKUSEN-01
 70
     0
 62
    50
  6
CONTINUOUS
  0
LAYER
  2
WAKUSEN-02
 70
     0
 62
   130
  6
CONTINUOUS
  0
LAYER
  2
WAKUMOJI-01
 70
     0
 62
   130
  6
CONTINUOUS
  0
LAYER
  2
FILENAME
 70
     0
 62
     7
  6
CONTINUOUS
  0
LAYER
  2
NAME
 70
     0
 62
    20
  6
CONTINUOUS
  0
LAYER
  2
0-4
 70
     0
 62
     7
  6
CONTINUOUS
  0
LAYER
  2
1-前柱P
 70
     0
 62
     3
  6
CONTINUOUS
  0
LAYER
  2
1-前柱カバ-P
 70
     0
 62
     3
  6
CONTINUOUS
  0
LAYER
  2
1-桁前P28
 70
     0
 62
     3
  6
CONTINUOUS
  0
LAYER
  2
1-後柱P
 70
     0
 62
     3
  6
CONTINUOUS
  0
LAYER
  2
1-中柱P
 70
     0
 62
     3
  6
CONTINUOUS
  0
LAYER
  2
1-後柱カバ-P
 70
     0
 62
     7
  6
CONTINUOUS
  0
LAYER
  2
1-中柱カバ-P
 70
     0
 62
     7
  6
CONTINUOUS
  0
ENDTAB
  0
TABLE
  2
STYLE
 70
     5
  0
STYLE
  2
STANDARD
 70
     0
 40
0.0
 41
1.0
 50
0.0
 71
     0
 42
0.0
  3
txt
  4
BIGFONT
  0
STYLE
  2
00
 70
     0
 40
0.0
 41
0.6666666666666666
 50
0.0
 71
     0
 42
0.2
  3
ROMANS
  4
BIGFONT
  0
STYLE
  2
01
 70
     0
 40
3.0
 41
1.0
 50
0.0
 71
     0
 42
0.2
  3
ROMANS
  4
BIGFONT
  0
STYLE
  2
WAKUMOJI
 70
     0
 40
3.0
 41
1.0
 50
0.0
 71
     0
 42
3.0
  3
SIMPLEX
  4
BIGFONT
  0
STYLE
  2
FILENAME
 70
     0
 40
200.0
 41
1.0
 50
0.0
 71
     0
 42
200.0
  3
romans
  4
bigfont
  0
ENDTAB
  0
TABLE
  2
VIEW
 70
     0
  0
ENDTAB
  0
TABLE
  2
UCS
 70
     0
  0
ENDTAB
  0
TABLE
  2
APPID
 70
    17
  0
APPID
  2
ACAD
 70
     0
  0
APPID
  2
ACADANNOTATIVE
 70
     0
  0
APPID
  2
ACAD_PSEXT
 70
     0
  0
APPID
  2
DCO15
 70
     0
  0
APPID
  2
ACAD_MLEADERVER
 70
     0
  0
APPID
  2
AUTOCAD_POSTSCRIPT_FIGURE
 70
     0
  0
APPID
  2
ACAD_EXEMPT_FROM_CAD_STANDARDS
 70
     0
  0
APPID
  2
ACLAYERTOOLS
 70
     0
  0
APPID
  2
ACAD_DSTYLE_DIMJAG
 70
     0
  0
APPID
  2
ACAD_DSTYLE_DIMTALN
 70
     0
  0
APPID
  2
ACAECLAYERSTANDARD
 70
     0
  0
APPID
  2
ACAD_DSTYLE_DIMBREAK
 70
     0
  0
APPID
  2
ACAD_DSTYLE_DIM_LINETYPE
 70
     0
  0
APPID
  2
ACAD_DSTYLE_DIM_EXT1_LINETYPE
 70
     0
  0
APPID
  2
ACAD_DSTYLE_DIM_EXT2_LINETYPE
 70
     0
  0
APPID
  2
ACAD_DSTYLE_DIMFLIPARROW_W
 70
     0
  0
APPID
  2
ACAD_NAV_VCDISPLAY
 70
     0
  0
ENDTAB
  0
TABLE
  2
DIMSTYLE
 70
     2
  0
DIMSTYLE
  2
SUNPOU
 70
     0
  3

  4

  5

  6

  7

 40
80.0
 41
3.0
 42
1.0
 43
0.38
 44
1.0
 45
0.5
 46
0.0
 47
0.0
 48
0.0
140
2.0
141
0.09
142
0.0
143
25.399999999999999
144
1.0
145
0.0
146
1.0
147
1.0
 71
     0
 72
     0
 73
     0
 74
     0
 75
     0
 76
     0
 77
     1
 78
     8
170
     0
171
     2
172
     1
173
     0
174
     0
175
     0
176
     4
177
     4
178
     7
  0
ENDTAB
  0
ENDSEC
  0
SECTION
  2
BLOCKS
  0
BLOCK
  8
0
  2
$MODEL_SPACE
 70
     0
 10
0.0
 20
0.0
 30
0.0
  3
$MODEL_SPACE
  1

  0
ENDBLK
  5
13F26
  8
0
  0
BLOCK
 67
     1
  8
0
  2
$PAPER_SPACE
 70
     0
 10
0.0
 20
0.0
 30
0.0
  3
$PAPER_SPACE
  1

  0
ENDBLK
  5
13F22
 67
     1
  8
0
  0
BLOCK
  8
0
  2
_DOTSMALL
 70
     0
 10
0.0
 20
0.0
 30
0.0
  3
_DOTSMALL
  1

  0
POLYLINE
  5
13F62
  8
0
  6
BYBLOCK
 62
     0
 66
     1
 10
0.0
 20
0.0
 30
0.0
 70
     1
 40
0.5
 41
0.5
  0
VERTEX
  5
14FA5
  8
0
  6
BYBLOCK
 62
     0
 10
-0.0625
 20
0.0
 30
0.0
 42
1.0
  0
VERTEX
  5
14FA6
  8
0
  6
BYBLOCK
 62
     0
 10
0.0625
 20
0.0
 30
0.0
 42
1.0
  0
SEQEND
  5
14FA7
  8
0
  6
BYBLOCK
 62
     0
  0
ENDBLK
  5
13F66
  8
0
  0
ENDSEC
  0
SECTION
  2
ENTITIES
  0
CIRCLE
  5
13F67
  8
0-5
  6
CONTINUOUS
 62
     4
 10
15128.71667799999
 20
1375.999982000001
 30
0.0
 40
20.0
  0
ARC
  5
13F68
  8
0-5
  6
CONTINUOUS
 62
     4
 10
15128.71667799999
 20
1375.999982000001
 30
0.0
 40
20.0
 50
180.0
 51
0.0
  0
ARC
  5
13F69
  8
0-5
  6
CONTINUOUS
 62
     4
 10
15128.71667799999
 20
1375.999982000001
 30
0.0
 40
20.0
 50
0.0
 51
179.99998500000001
  0
CIRCLE
  5
13F6A
  8
0-5
  6
CONTINUOUS
 62
     4
 10
15128.71667799999
 20
1775.999321999999
 30
0.0
 40
20.0
  0
ARC
  5
13F6B
  8
0-5
  6
CONTINUOUS
 62
     4
 10
15128.71667799999
 20
1775.999321999999
 30
0.0
 40
20.0
 50
180.0
 51
0.0
  0
ARC
  5
13F6C
  8
0-5
  6
CONTINUOUS
 62
     4
 10
15128.71667799999
 20
1775.999321999999
 30
0.0
 40
20.0
 50
0.0
 51
179.99998500000001
  0
TEXT
  5
13F6D
  8
0-5
  6
CONTINUOUS
 62
     7
 10
16661.217403999992
 20
1655.999792000001
 30
0.0
 40
160.0
  1
H
  0
TEXT
  5
13F6E
  8
0-5
  6
CONTINUOUS
 62
     7
 10
15176.146933
 20
1655.999792000001
 30
0.0
 40
160.0
  1
（ ）内寸法ハ、  タイプヲ示ス。
  0
TEXT
  5
13F6F
  8
0-5
  6
CONTINUOUS
 62
     7
 10
15288.716216000001
 20
1255.999462
 30
0.0
 40
160.0
  1
有効高サハ、基礎高サヲ含ミマセン。
  0
TEXT
  5
13F70
  8
2-0
  6
CONTINUOUS
 62
     7
 10
22773.572501657331
 20
11251.104441999991
 30
0.0
 40
160.0
  1
平　面　図
 72
     4
 11
23226.905834990659
 21
11325.77110866666
 31
0.0
  0
TEXT
  5
13F71
  8
2-0
  6
CONTINUOUS
 62
     7
 10
9548.7421762069662
 20
11156.81700299998
 30
0.0
 40
160.0
  1
小 屋 伏 図
 72
     4
 11
10050.0755095403
 21
11236.81700299998
 31
0.0
  0
TEXT
  5
13F72
  8
2-0
  6
CONTINUOUS
 62
     7
 10
22442.673665428068
 20
3292.802588999999
 30
0.0
 40
160.0
  1
正 面 立 面 図
 72
     4
 11
23088.006998761401
 21
3372.802588999999
 31
0.0
  0
TEXT
  5
13F73
  8
2-0
  6
CONTINUOUS
 62
     7
 10
9309.2069363103456
 20
3264.0669070000022
 30
0.0
 40
160.0
  1
側 面 立 面 図
 50
0.000139
 72
     4
 11
9954.5400755611681
 21
3344.0684725833762
 31
0.0
  0
TEXT
  5
13F77
  8
2-0
  6
CONTINUOUS
 62
     7
 10
11306.032260698779
 20
3291.2638415833758
 30
0.0
 40
160.0
  1
1
 72
     4
 11
11332.698927365451
 21
3371.2638415833749
 31
0.0
  0
TEXT
  5
13F78
  8
2-0
  6
CONTINUOUS
 62
     7
 10
11549.12097794948
 20
3211.2653095833762
 30
0.0
 40
160.0
  1
80
 72
     4
 11
11669.12097794948
 21
3291.2653095833762
 31
0.0
  0
TEXT
  5
13F79
  8
2-0
  6
CONTINUOUS
 62
     7
 10
10807.03422669879
 20
3264.0684725833762
 30
0.0
 40
160.0
  1
(S=  /   )
 72
     4
 11
11367.03422669879
 21
3344.0684725833762
 31
0.0
  0
TEXT
  5
13F7A
  8
2-0
  6
CONTINUOUS
 62
     7
 10
24439.499183899021
 20
3319.9979579999999
 30
0.0
 40
160.0
  1
1
 72
     4
 11
24466.165850565689
 21
3399.9979579999999
 31
0.0
  0
TEXT
  5
13F7B
  8
2-0
  6
CONTINUOUS
 62
     7
 10
24682.587901149709
 20
3239.9994260000021
 30
0.0
 40
160.0
  1
80
 72
     4
 11
24802.587901149709
 21
3319.9994260000012
 31
0.0
  0
TEXT
  5
13F7C
  8
2-0
  6
CONTINUOUS
 62
     7
 10
23940.50114989901
 20
3292.802588999999
 30
0.0
 40
160.0
  1
(S=  /   )
 72
     4
 11
24500.50114989901
 21
3372.802588999999
 31
0.0
  0
TEXT
  5
13F7D
  8
2-0
  6
CONTINUOUS
 62
     7
 10
24578.39802012829
 20
11272.96647766667
 30
0.0
 40
160.0
  1
1
 72
     4
 11
24605.064686794962
 21
11352.96647766667
 31
0.0
  0
TEXT
  5
13F7E
  8
2-0
  6
CONTINUOUS
 62
     7
 10
24821.486737378978
 20
11192.967945666671
 30
0.0
 40
160.0
  1
80
 72
     4
 11
24941.486737378978
 21
11272.967945666671
 31
0.0
  0
TEXT
  5
13F7F
  8
2-0
  6
CONTINUOUS
 62
     7
 10
24079.399986128301
 20
11245.77110866666
 30
0.0
 40
160.0
  1
(S=  /   )
 72
     4
 11
24639.399986128301
 21
11325.77110866666
 31
0.0
  0
TEXT
  5
13F80
  8
2-0
  6
CONTINUOUS
 62
     7
 10
11401.56769467792
 20
11184.012371999979
 30
0.0
 40
160.0
  1
1
 72
     4
 11
11428.23436134459
 21
11264.012371999979
 31
0.0
  0
TEXT
  5
13F81
  8
2-0
  6
CONTINUOUS
 62
     7
 10
11644.656411928619
 20
11104.01383999998
 30
0.0
 40
160.0
  1
80
 72
     4
 11
11764.656411928619
 21
11184.01383999998
 31
0.0
  0
TEXT
  5
13F82
  8
2-0
  6
CONTINUOUS
 62
     7
 10
10902.56966067792
 20
11156.81700299998
 30
0.0
 40
160.0
  1
(S=  /   )
 72
     4
 11
11462.56966067792
 21
11236.81700299998
 31
0.0
  0
LINE
  5
13F88
  8
0-5
  6
CONTINUOUS
 62
     4
 10
14968.46984450223
 20
6241.1883740000021
 30
0.0
 11
15088.47024050224
 21
6449.0353509999959
 31
0.0
  0
LINE
  5
13F89
  8
0-5
  6
CONTINUOUS
 62
     4
 10
14848.47142750224
 20
6449.0353509999959
 30
0.0
 11
14968.46984450223
 21
6241.1883740000021
 31
0.0
  0
LINE
  5
13F8A
  8
0-5
  6
CONTINUOUS
 62
     4
 10
15088.47024050224
 20
6449.0353509999959
 30
0.0
 11
14848.47142750224
 21
6449.0353509999959
 31
0.0
  0
LINE
  5
13F8B
  8
0-5
  6
CONTINUOUS
 62
     4
 10
13707.239453310351
 20
6241.1883740000021
 30
0.0
 11
15387.20342531035
 21
6241.1883740000021
 31
0.0
  0
LINE
  5
13F8C
  8
0-5
  6
CONTINUOUS
 62
     4
 10
13707.239453310351
 20
6141.1885390000007
 30
0.0
 11
19646.353690217049
 21
6141.1885390000007
 31
0.0
  0
TEXT
  5
13F8D
  8
0-5
  6
CONTINUOUS
 62
     7
 10
14509.377915502229
 20
6529.0346249999966
 30
0.0
 40
160.0
  1
布基礎天端
 72
     4
 11
14968.044582168901
 21
6609.0346249999984
 31
0.0
  0
LINE
  5
13F8E
  8
0-5
  6
CONTINUOUS
 62
     4
 10
18152.541505013789
 20
6349.0350210000024
 30
0.0
 11
18272.53992101378
 21
6141.1885390000007
 31
0.0
  0
LINE
  5
13F8F
  8
0-5
  6
CONTINUOUS
 62
     4
 10
18272.53992101378
 20
6141.1885390000007
 30
0.0
 11
18392.54031701378
 21
6349.0350210000024
 31
0.0
  0
LINE
  5
13F90
  8
0-5
  6
CONTINUOUS
 62
     4
 10
18392.54031701378
 20
6349.0350210000024
 30
0.0
 11
18152.541505013789
 21
6349.0350210000024
 31
0.0
  0
TEXT
  5
13F91
  8
0-5
  6
CONTINUOUS
 62
     7
 10
18152.541505013789
 20
6429.0347900000024
 30
0.0
 40
160.0
  1
G.L
 72
     4
 11
18312.541505013789
 21
6509.0347900000043
 31
0.0
  0
LINE
  5
13F92
  8
0-1
  6
CONTINUOUS
 62
     3
 10
11715.71912648855
 20
8152.2344180000064
 30
0.0
 11
11715.71912648855
 21
6291.1885390000007
 31
0.0
  0
LINE
  5
13F93
  8
0-1
  6
CONTINUOUS
 62
     3
 10
11752.717318488551
 20
8152.2344180000064
 30
0.0
 11
11752.717318488551
 21
6291.1885390000007
 31
0.0
  0
LINE
  5
13F94
  8
0-1
  6
CONTINUOUS
 62
     3
 10
11015.71978648856
 20
8152.2344180000064
 30
0.0
 11
11015.71978648856
 21
6291.1885390000007
 31
0.0
  0
LINE
  5
13F95
  8
0-1
  6
CONTINUOUS
 62
     3
 10
11052.71797848855
 20
8152.2344180000064
 30
0.0
 11
11052.71797848855
 21
6291.1885390000007
 31
0.0
  0
LINE
  5
13F96
  8
0-1
  6
CONTINUOUS
 62
     3
 10
11394.219575488571
 20
6291.1885390000007
 30
0.0
 11
11394.219575488571
 21
8152.2344180000064
 31
0.0
  0
LINE
  5
13F97
  8
0-1
  6
CONTINUOUS
 62
     3
 10
11374.21851948855
 20
6291.1885390000007
 30
0.0
 11
11374.21851948855
 21
8152.2344180000064
 31
0.0
  0
LINE
  5
13F98
  8
0-1
  6
CONTINUOUS
 62
     3
 10
11444.21825548856
 20
6291.1885390000007
 30
0.0
 11
11444.21825548856
 21
8152.2344180000064
 31
0.0
  0
LINE
  5
13F99
  8
0-1
  6
CONTINUOUS
 62
     3
 10
11324.218849488559
 20
6291.1885390000007
 30
0.0
 11
11324.218849488559
 21
8152.2344180000064
 31
0.0
  0
LINE
  5
13F9A
  8
0-1
  6
CONTINUOUS
 62
     3
 10
11191.21895548857
 20
6291.1885390000007
 30
0.0
 11
11191.21895548857
 21
8152.2344180000064
 31
0.0
  0
LINE
  5
13F9B
  8
0-1
  6
CONTINUOUS
 62
     3
 10
11176.219153488561
 20
6291.1885390000007
 30
0.0
 11
11176.219153488561
 21
8152.2344180000064
 31
0.0
  0
LINE
  5
13F9C
  8
0-1
  6
CONTINUOUS
 62
     3
 10
11577.219140488571
 20
6291.1885390000007
 30
0.0
 11
11577.219140488571
 21
8152.2344180000064
 31
0.0
  0
LINE
  5
13F9D
  8
0-1
  6
CONTINUOUS
 62
     3
 10
11592.217952488551
 20
6291.1885390000007
 30
0.0
 11
11592.217952488551
 21
8152.2344180000064
 31
0.0
  0
LINE
  5
13F9E
  8
0-1
  6
CONTINUOUS
 62
     3
 10
11876.21849348855
 20
6291.1885390000007
 30
0.0
 11
11876.21849348855
 21
8152.2344180000064
 31
0.0
  0
LINE
  5
13F9F
  8
0-1
  6
CONTINUOUS
 62
     3
 10
11891.21928548856
 20
6291.1885390000007
 30
0.0
 11
11891.21928548856
 21
8152.2344180000064
 31
0.0
  0
LINE
  5
13FA0
  8
0-1
  6
CONTINUOUS
 62
     3
 10
12024.218189488571
 20
6291.1885390000007
 30
0.0
 11
12024.218189488571
 21
8152.2344180000064
 31
0.0
  0
LINE
  5
13FA1
  8
0-1
  6
CONTINUOUS
 62
     3
 10
12144.219575488551
 20
6291.1885390000007
 30
0.0
 11
12144.219575488551
 21
8152.2344180000064
 31
0.0
  0
LINE
  5
13FA2
  8
0-1
  6
CONTINUOUS
 62
     3
 10
12074.216870488541
 20
6291.1885390000007
 30
0.0
 11
12074.216870488541
 21
8152.2344180000064
 31
0.0
  0
LINE
  5
13FA3
  8
0-1
  6
CONTINUOUS
 62
     3
 10
12094.21792548855
 20
6291.1885390000007
 30
0.0
 11
12094.21792548855
 21
8152.2344180000064
 31
0.0
  0
LINE
  5
13FA4
  8
0-1
  6
CONTINUOUS
 62
     3
 10
10892.21960148857
 20
6291.1885390000007
 30
0.0
 11
10892.21960148857
 21
8152.2344180000064
 31
0.0
  0
LINE
  5
13FA5
  8
0-1
  6
CONTINUOUS
 62
     3
 10
10877.218810488561
 20
6291.1885390000007
 30
0.0
 11
10877.218810488561
 21
8152.2344180000064
 31
0.0
  0
LINE
  5
13FA6
  8
0-1
  6
CONTINUOUS
 62
     3
 10
10744.21792548855
 20
6291.1885390000007
 30
0.0
 11
10744.21792548855
 21
8152.2344180000064
 31
0.0
  0
LINE
  5
13FA7
  8
0-1
  6
CONTINUOUS
 62
     3
 10
10476.21882348856
 20
6291.1885390000007
 30
0.0
 11
10476.21882348856
 21
8152.2344180000064
 31
0.0
  0
LINE
  5
13FA8
  8
0-1
  6
CONTINUOUS
 62
     3
 10
10491.21763548856
 20
6291.1885390000007
 30
0.0
 11
10491.21763548856
 21
8152.2344180000064
 31
0.0
  0
LINE
  5
13FA9
  8
0-1
  6
CONTINUOUS
 62
     3
 10
10624.21851948857
 20
6291.1885390000007
 30
0.0
 11
10624.21851948857
 21
8152.2344180000064
 31
0.0
  0
LINE
  5
13FAA
  8
0-1
  6
CONTINUOUS
 62
     3
 10
10674.218189488571
 20
6291.1885390000007
 30
0.0
 11
10674.218189488571
 21
8152.2344180000064
 31
0.0
  0
LINE
  5
13FAB
  8
0-1
  6
CONTINUOUS
 62
     3
 10
10694.21726648856
 20
6291.1885390000007
 30
0.0
 11
10694.21726648856
 21
8152.2344180000064
 31
0.0
  0
LINE
  5
13FAC
  8
0-1
  6
CONTINUOUS
 62
     3
 10
9866.2182954885648
 20
6291.1885390000007
 30
0.0
 11
9866.2182954885648
 21
8152.2344180000064
 31
0.0
  0
LINE
  5
13FAD
  8
0-1
  6
CONTINUOUS
 62
     3
 10
9886.2173714885557
 20
6291.1885390000007
 30
0.0
 11
9886.2173714885557
 21
8152.2344180000064
 31
0.0
  0
LINE
  5
13FAE
  8
0-1
  6
CONTINUOUS
 62
     3
 10
9816.2176354885778
 20
6291.1885390000007
 30
0.0
 11
9816.2176354885778
 21
8152.2344180000064
 31
0.0
  0
LINE
  5
13FAF
  8
0-1
  6
CONTINUOUS
 62
     3
 10
9936.2180314885645
 20
6291.1885390000007
 30
0.0
 11
9936.2180314885645
 21
8152.2344180000064
 31
0.0
  0
LINE
  5
13FB0
  8
0-1
  6
CONTINUOUS
 62
     3
 10
10069.21792548857
 20
6291.1885390000007
 30
0.0
 11
10069.21792548857
 21
8152.2344180000064
 31
0.0
  0
LINE
  5
13FB1
  8
0-1
  6
CONTINUOUS
 62
     3
 10
10084.21970748857
 20
6291.1885390000007
 30
0.0
 11
10084.21970748857
 21
8152.2344180000064
 31
0.0
  0
LINE
  5
13FB2
  8
0-1
  6
CONTINUOUS
 62
     3
 10
9683.2177414885682
 20
6291.1885390000007
 30
0.0
 11
9683.2177414885682
 21
8152.2344180000064
 31
0.0
  0
LINE
  5
13FB3
  8
0-1
  6
CONTINUOUS
 62
     3
 10
9668.2189284885644
 20
6291.1885390000007
 30
0.0
 11
9668.2189284885644
 21
8152.2344180000064
 31
0.0
  0
LINE
  5
13FB4
  8
0-1
  6
CONTINUOUS
 62
     3
 10
7984.2187174885767
 20
6291.1885390000007
 30
0.0
 11
7984.2187174885767
 21
8152.2344180000064
 31
0.0
  0
LINE
  5
13FB5
  8
0-1
  6
CONTINUOUS
 62
     3
 10
7969.2189154885573
 20
6291.1885390000007
 30
0.0
 11
7969.2189154885573
 21
8152.2344180000064
 31
0.0
  0
LINE
  5
13FB6
  8
0-1
  6
CONTINUOUS
 62
     3
 10
7836.2180314885618
 20
6291.1885390000007
 30
0.0
 11
7836.2180314885618
 21
8152.2344180000064
 31
0.0
  0
LINE
  5
13FB7
  8
0-1
  6
CONTINUOUS
 62
     3
 10
7716.2186254885601
 20
6291.1885390000007
 30
0.0
 11
7716.2186254885601
 21
8152.2344180000064
 31
0.0
  0
LINE
  5
13FB8
  8
0-1
  6
CONTINUOUS
 62
     3
 10
7786.2173714885566
 20
6291.1885390000007
 30
0.0
 11
7786.2173714885566
 21
8152.2344180000064
 31
0.0
  0
LINE
  5
13FB9
  8
0-1
  6
CONTINUOUS
 62
     3
 10
7766.2182954885629
 20
6291.1885390000007
 30
0.0
 11
7766.2182954885629
 21
8152.2344180000064
 31
0.0
  0
LINE
  5
13FBA
  8
0-1
  6
CONTINUOUS
 62
     3
 10
8466.2176354885578
 20
6291.1885390000007
 30
0.0
 11
8466.2176354885578
 21
8152.2344180000064
 31
0.0
  0
LINE
  5
13FBB
  8
0-1
  6
CONTINUOUS
 62
     3
 10
8486.2186914885533
 20
6291.1885390000007
 30
0.0
 11
8486.2186914885533
 21
8152.2344180000064
 31
0.0
  0
LINE
  5
13FBC
  8
0-1
  6
CONTINUOUS
 62
     3
 10
8416.2189554885554
 20
6291.1885390000007
 30
0.0
 11
8416.2189554885554
 21
8152.2344180000064
 31
0.0
  0
LINE
  5
13FBD
  8
0-1
  6
CONTINUOUS
 62
     3
 10
8536.2173714885575
 20
6291.1885390000007
 30
0.0
 11
8536.2173714885575
 21
8152.2344180000064
 31
0.0
  0
LINE
  5
13FBE
  8
0-1
  6
CONTINUOUS
 62
     3
 10
8669.2182554885658
 20
6291.1885390000007
 30
0.0
 11
8669.2182554885658
 21
8152.2344180000064
 31
0.0
  0
LINE
  5
13FBF
  8
0-1
  6
CONTINUOUS
 62
     3
 10
8684.2180574885697
 20
6291.1885390000007
 30
0.0
 11
8684.2180574885697
 21
8152.2344180000064
 31
0.0
  0
LINE
  5
13FC0
  8
0-1
  6
CONTINUOUS
 62
     3
 10
8283.220050488555
 20
6291.1885390000007
 30
0.0
 11
8283.220050488555
 21
8152.2344180000064
 31
0.0
  0
LINE
  5
13FC1
  8
0-1
  6
CONTINUOUS
 62
     3
 10
8268.2182694885541
 20
6291.1885390000007
 30
0.0
 11
8268.2182694885541
 21
8152.2344180000064
 31
0.0
  0
LINE
  5
13FC2
  8
0-1
  6
CONTINUOUS
 62
     3
 10
8968.2176094885672
 20
6291.1885390000007
 30
0.0
 11
8968.2176094885672
 21
8152.2344180000064
 31
0.0
  0
LINE
  5
13FC3
  8
0-1
  6
CONTINUOUS
 62
     3
 10
8983.2193904885626
 20
6291.1885390000007
 30
0.0
 11
8983.2193904885626
 21
8152.2344180000064
 31
0.0
  0
LINE
  5
13FC4
  8
0-1
  6
CONTINUOUS
 62
     3
 10
9384.2173984885594
 20
6291.1885390000007
 30
0.0
 11
9384.2173984885594
 21
8152.2344180000064
 31
0.0
  0
LINE
  5
13FC5
  8
0-1
  6
CONTINUOUS
 62
     3
 10
9369.2185854885665
 20
6291.1885390000007
 30
0.0
 11
9369.2185854885665
 21
8152.2344180000064
 31
0.0
  0
LINE
  5
13FC6
  8
0-1
  6
CONTINUOUS
 62
     3
 10
9236.2196814885538
 20
6291.1885390000007
 30
0.0
 11
9236.2196814885538
 21
8152.2344180000064
 31
0.0
  0
LINE
  5
13FC7
  8
0-1
  6
CONTINUOUS
 62
     3
 10
9116.2182954885648
 20
6291.1885390000007
 30
0.0
 11
9116.2182954885648
 21
8152.2344180000064
 31
0.0
  0
LINE
  5
13FC8
  8
0-1
  6
CONTINUOUS
 62
     3
 10
9186.2180314885773
 20
6291.1885390000007
 30
0.0
 11
9186.2180314885773
 21
8152.2344180000064
 31
0.0
  0
LINE
  5
13FC9
  8
0-1
  6
CONTINUOUS
 62
     3
 10
9166.2189554885554
 20
6291.1885390000007
 30
0.0
 11
9166.2189554885554
 21
8152.2344180000064
 31
0.0
  0
LINE
  5
13FCA
  8
0-1
  6
CONTINUOUS
 62
     3
 10
9507.7175824885653
 20
8152.2344180000064
 30
0.0
 11
9507.7175824885653
 21
6291.1885390000007
 31
0.0
  0
LINE
  5
13FCB
  8
0-1
  6
CONTINUOUS
 62
     3
 10
9544.718744488564
 20
8152.2344180000064
 30
0.0
 11
9544.718744488564
 21
6291.1885390000007
 31
0.0
  0
LINE
  5
13FCC
  8
0-1
  6
CONTINUOUS
 62
     3
 10
8107.7198924885579
 20
8152.2344180000064
 30
0.0
 11
8107.7198924885579
 21
6291.1885390000007
 31
0.0
  0
LINE
  5
13FCD
  8
0-1
  6
CONTINUOUS
 62
     3
 10
8144.7190744885747
 20
8152.2344180000064
 30
0.0
 11
8144.7190744885747
 21
6291.1885390000007
 31
0.0
  0
LINE
  5
13FCE
  8
0-1
  6
CONTINUOUS
 62
     3
 10
8807.7182424885686
 20
8152.2344180000064
 30
0.0
 11
8807.7182424885686
 21
6291.1885390000007
 31
0.0
  0
LINE
  5
13FCF
  8
0-1
  6
CONTINUOUS
 62
     3
 10
8844.7184144885614
 20
8152.2344180000064
 30
0.0
 11
8844.7184144885614
 21
6291.1885390000007
 31
0.0
  0
LINE
  5
13FD0
  8
0-1
  6
CONTINUOUS
 62
     3
 10
7307.2187704885737
 20
6241.1883740000021
 30
0.0
 11
7307.2187704885737
 21
6141.1885390000007
 31
0.0
  0
LINE
  5
13FD1
  8
0-1
  6
CONTINUOUS
 62
     3
 10
7339.7195614885704
 20
8455.5174490000027
 30
0.0
 11
7339.7195614885704
 21
6241.1883740000021
 31
0.0
  0
LINE
  5
13FD2
  8
0-1
  6
CONTINUOUS
 62
     3
 10
7319.7187704885764
 20
8456.0984379999973
 30
0.0
 11
7319.7187704885764
 21
6241.1883740000021
 31
0.0
  0
LINE
  5
13FD3
  8
0-1
  6
CONTINUOUS
 62
     3
 10
7434.718638488579
 20
8152.2344180000064
 30
0.0
 11
7434.718638488579
 21
6241.1883740000021
 31
0.0
  0
LINE
  5
13FD4
  8
0-1
  6
CONTINUOUS
 62
     3
 10
10280.21877048856
 20
8356.9898809999977
 30
0.0
 11
10280.21877048856
 21
8152.2344180000064
 31
0.0
  0
LINE
  5
13FD5
  8
0-1
  6
CONTINUOUS
 62
     3
 10
10352.718638488561
 20
8152.2344180000064
 30
0.0
 11
10352.718638488561
 21
6241.1883740000021
 31
0.0
  0
LINE
  5
13FD6
  8
0-1
  6
CONTINUOUS
 62
     3
 10
10207.719892488571
 20
8152.2344180000064
 30
0.0
 11
10207.719892488571
 21
6241.1883740000021
 31
0.0
  0
LINE
  5
13FD7
  8
0-1
  6
CONTINUOUS
 62
     3
 10
10207.719892488571
 20
6291.1885390000007
 30
0.0
 11
7434.718638488579
 21
6291.1885390000007
 31
0.0
  0
LINE
  5
13FD8
  8
0-1
  6
CONTINUOUS
 62
     3
 10
12897.71877048856
 20
6141.1885390000007
 30
0.0
 11
12897.71877048856
 21
6241.1883740000021
 31
0.0
  0
LINE
  5
13FD9
  8
0-1
  6
CONTINUOUS
 62
     3
 10
12870.21896848856
 20
8268.990877000002
 30
0.0
 11
12870.21896848856
 21
6241.1883740000021
 31
0.0
  0
LINE
  5
13FDA
  8
0-1
  6
CONTINUOUS
 62
     3
 10
12890.21877048856
 20
8268.3741496838102
 30
0.0
 11
12890.21877048856
 21
6241.1883740000021
 31
0.0
  0
LINE
  5
13FDB
  8
0-1
  6
CONTINUOUS
 62
     3
 10
12897.71877048856
 20
6241.1883740000021
 30
0.0
 11
7307.2187704885737
 21
6241.1883740000021
 31
0.0
  0
LINE
  5
13FDC
  8
0-1
  6
CONTINUOUS
 62
     3
 10
12775.219891488559
 20
6291.1885390000007
 30
0.0
 11
10352.718638488561
 21
6291.1885390000007
 31
0.0
  0
LINE
  5
13FDD
  8
0-1
  6
CONTINUOUS
 62
     3
 10
13580.21982548857
 20
6141.1885390000007
 30
0.0
 11
7307.2187704885737
 21
6141.1885390000007
 31
0.0
  0
LINE
  5
13FDE
  8
0-1
  6
CONTINUOUS
 62
     3
 10
12870.21896848856
 20
8152.2344180000064
 30
0.0
 11
7339.7195614885704
 21
8152.2344180000064
 31
0.0
  0
LINE
  5
13FDF
  8
0-1
  6
CONTINUOUS
 62
     3
 10
13064.52059448856
 20
8303.1736990000027
 30
0.0
 11
7234.0291054885683
 21
8498.6897600000066
 31
0.0
  0
LINE
  5
13FE0
  8
0-1
  6
CONTINUOUS
 62
     3
 10
7235.5295804885682
 20
8548.6686450000016
 30
0.0
 11
13066.02007948856
 21
8353.151595000003
 31
0.0
  0
LINE
  5
13FE1
  8
0-1
  6
CONTINUOUS
 62
     3
 10
13069.11010748855
 20
8356.0604969999968
 30
0.0
 11
13070.07017448857
 21
8388.0460529999982
 31
0.0
  0
LINE
  5
13FE2
  8
0-1
  6
CONTINUOUS
 62
     3
 10
13065.22134348856
 20
8393.1932959999976
 30
0.0
 11
7215.760128488565
 21
8589.2804480000032
 31
0.0
  0
LINE
  5
13FE3
  8
0-1
  6
CONTINUOUS
 62
     3
 10
7211.8555284885661
 20
8459.338910000004
 30
0.0
 11
13061.320702488551
 21
8263.2522529999969
 31
0.0
  0
LINE
  5
13FE4
  8
0-1
  6
CONTINUOUS
 62
     3
 10
13066.46844048855
 20
8268.099599000001
 30
0.0
 11
13067.42751748857
 21
8300.0856499999973
 31
0.0
  0
LINE
  5
13FE5
  8
0-1
  6
CONTINUOUS
 62
     3
 10
13067.75908648857
 20
8311.0803909999977
 30
0.0
 11
13068.77952848856
 21
8345.0647660000086
 31
0.0
  0
LINE
  5
13FE6
  8
0-1
  6
CONTINUOUS
 62
     3
 10
13065.87062548856
 20
8348.1538049999999
 30
0.0
 11
7235.3781474885709
 21
8543.6713500000023
 31
0.0
  0
LINE
  5
13FE7
  8
0-1
  6
CONTINUOUS
 62
     3
 10
7234.1785594885732
 20
8503.6880440000004
 30
0.0
 11
13064.669057488571
 21
8308.1719839999969
 31
0.0
  0
LINE
  5
13FE8
  8
0-1
  6
CONTINUOUS
 62
     3
 10
10280.21877048856
 20
8356.9898809999977
 30
0.0
 11
10284.12139148855
 21
8486.9314189999968
 31
0.0
  0
LINE
  5
13FE9
  8
0-1
  6
CONTINUOUS
 62
     3
 10
7244.8224304885644
 20
8458.3481610000017
 30
0.0
 11
7248.7240614885659
 21
8588.2896989999972
 31
0.0
  0
LINE
  5
13FEA
  8
0-1
  6
CONTINUOUS
 62
     3
 10
13052.72860148857
 20
8393.5684149999979
 30
0.0
 11
13048.82598048856
 21
8263.6273720000008
 31
0.0
  0
LINE
  5
13FEB
  8
0-5
  6
CONTINUOUS
 62
     4
 10
7362.2187704885728
 20
4461.1889349999938
 30
0.0
 11
7362.2187704885728
 21
4301.1893970000001
 31
0.0
  0
LINE
  5
13FEC
  8
0-5
  6
CONTINUOUS
 62
     4
 10
10280.21877048856
 20
4461.1889349999938
 30
0.0
 11
10280.21877048856
 21
4301.1893970000001
 31
0.0
  0
LINE
  5
13FED
  8
0-5
  6
CONTINUOUS
 62
     4
 10
12847.71877048856
 20
4461.1889349999938
 30
0.0
 11
12847.71877048856
 21
4301.1893970000001
 31
0.0
  0
LINE
  5
13FEE
  8
2-0
  6
CENTER2
 62
     6
 10
7362.2187704885728
 20
5878.536116000002
 30
0.0
 11
7362.2187704885728
 21
6935.6787139999988
 31
0.0
  0
LINE
  5
13FEF
  8
2-0
  6
CENTER2
 62
     6
 10
10280.21877048856
 20
5878.536116000002
 30
0.0
 11
10280.21877048856
 21
6935.6787139999988
 31
0.0
  0
LINE
  5
13FF0
  8
2-0
  6
CENTER2
 62
     6
 10
12847.71877048856
 20
5878.536116000002
 30
0.0
 11
12847.71877048856
 21
6935.6787139999988
 31
0.0
  0
ARC
  5
13FF1
  8
0-1
  6
CONTINUOUS
 62
     3
 10
7234.7793434885743
 20
8523.680191999998
 30
0.0
 40
24.999998999999999
 50
88.280013999973988
 51
268.2800139999739
  0
ARC
  5
13FF2
  8
0-1
  6
CONTINUOUS
 62
     3
 10
13066.11014748856
 20
8356.1505650000017
 30
0.0
 40
3.0
 50
268.2800139999739
 51
358.28001399998629
  0
ARC
  5
13FF3
  8
0-1
  6
CONTINUOUS
 62
     3
 10
13065.072879488551
 20
8388.1955070000022
 30
0.0
 40
5.0
 50
358.28001399998629
 51
88.280013999973988
  0
ARC
  5
13FF4
  8
0-1
  6
CONTINUOUS
 62
     3
 10
7239.7766374885814
 20
8523.5297490000066
 30
0.0
 40
69.999999000000003
 50
110.0668030000945
 51
246.49322500021299
  0
ARC
  5
13FF5
  8
0-1
  6
CONTINUOUS
 62
     3
 10
13061.46916648855
 20
8268.2500430000073
 30
0.0
 40
5.0
 50
268.2800139999739
 51
358.28001399998629
  0
ARC
  5
13FF6
  8
0-1
  6
CONTINUOUS
 62
     3
 10
13064.43052548856
 20
8300.1752229999984
 30
0.0
 40
3.0
 50
358.28001399998629
 51
88.280013999973988
  0
ARC
  5
13FF7
  8
0-1
  6
CONTINUOUS
 62
     3
 10
13064.44636248857
 20
8350.697981000003
 30
0.0
 40
2.5
 50
88.280013999973988
 51
268.2800139999739
  0
ARC
  5
13FF8
  8
0-1
  6
CONTINUOUS
 62
     3
 10
13063.09633048855
 20
8305.7178750000003
 30
0.0
 40
2.5
 50
88.280013999973988
 51
268.2800139999739
  0
ARC
  5
13FF9
  8
0-1
  6
CONTINUOUS
 62
     3
 10
13065.78055748857
 20
8345.1553289999974
 30
0.0
 40
3.0
 50
358.28001399998629
 51
88.280013999973988
  0
ARC
  5
13FFA
  8
0-1
  6
CONTINUOUS
 62
     3
 10
7234.7793434885743
 20
8523.680191999998
 30
0.0
 40
20.0
 50
88.280013999973988
 51
268.2800139999739
  0
ARC
  5
13FFB
  8
0-1
  6
CONTINUOUS
 62
     3
 10
13064.76011548858
 20
8311.1699640000006
 30
0.0
 40
3.0
 50
268.2800139999739
 51
358.28001399998629
  0
LINE
  5
13FFC
  8
SUNPOU
  6
CONTINUOUS
 10
13070.21877048856
 20
9389.1900500000029
 30
0.0
 11
13575.00664038198
 21
9389.1900500000029
 31
0.0
  0
LINE
  5
13FFD
  8
0-1
  6
CONTINUOUS
 62
     3
 10
7568.2179394885588
 20
6291.1885389999989
 30
0.0
 11
7568.2179394885588
 21
8152.2344180000036
 31
0.0
  0
LINE
  5
13FFE
  8
0-1
  6
CONTINUOUS
 62
     3
 10
7583.2197204885597
 20
6291.1885389999989
 30
0.0
 11
7583.2197204885597
 21
8152.2344180000036
 31
0.0
  0
LINE
  5
13FFF
  8
0-1
  6
CONTINUOUS
 62
     3
 10
12415.72143648856
 20
8152.2344180000036
 30
0.0
 11
12415.72143648856
 21
6291.1885389999989
 31
0.0
  0
LINE
  5
14000
  8
0-1
  6
CONTINUOUS
 62
     3
 10
12452.719628488559
 20
8152.2344180000036
 30
0.0
 11
12452.719628488559
 21
6291.1885389999989
 31
0.0
  0
LINE
  5
14001
  8
0-1
  6
CONTINUOUS
 62
     3
 10
12591.22060548857
 20
6291.1885389999989
 30
0.0
 11
12591.22060548857
 21
8152.2344180000036
 31
0.0
  0
LINE
  5
14002
  8
0-1
  6
CONTINUOUS
 62
     3
 10
12576.22080348857
 20
6291.1885389999989
 30
0.0
 11
12576.22080348857
 21
8152.2344180000036
 31
0.0
  0
LINE
  5
14003
  8
0-1
  6
CONTINUOUS
 62
     3
 10
12292.22125148856
 20
6291.1885389999989
 30
0.0
 11
12292.22125148856
 21
8152.2344180000036
 31
0.0
  0
LINE
  5
14004
  8
0-1
  6
CONTINUOUS
 62
     3
 10
12277.220460488559
 20
6291.1885389999989
 30
0.0
 11
12277.220460488559
 21
8152.2344180000036
 31
0.0
  0
LINE
  5
14005
  8
0-1
  6
CONTINUOUS
 62
     3
 10
12775.219891488559
 20
8152.2344180000064
 30
0.0
 11
12775.219891488559
 21
6241.1883740000021
 31
0.0
  0
LINE
  5
14006
  8
0-1
  6
CONTINUOUS
 62
     3
 10
28592.915581013789
 20
8132.6883740000021
 30
0.0
 11
25409.41215001381
 21
8132.6883740000021
 31
0.0
  0
LINE
  5
14007
  8
0-1
  6
CONTINUOUS
 62
     3
 10
28592.915581013789
 20
8326.1887430000024
 30
0.0
 11
25409.41215001381
 21
8326.1887430000024
 31
0.0
  0
LINE
  5
14008
  8
0-1
  6
CONTINUOUS
 62
     3
 10
28720.911886013801
 20
8264.0026619999971
 30
0.0
 11
28720.911886013801
 21
8589.6883999999973
 31
0.0
  0
LINE
  5
14009
  8
0-1
  6
CONTINUOUS
 62
     3
 10
25324.413601013799
 20
8459.6884660000014
 30
0.0
 11
28720.911886013801
 21
8459.6884660000014
 31
0.0
  0
LINE
  5
1400A
  8
0-1
  6
CONTINUOUS
 62
     3
 10
28720.911886013801
 20
8589.6883999999973
 30
0.0
 11
25344.410698013809
 21
8589.6883999999973
 31
0.0
  0
LINE
  5
1400B
  8
0-1
  6
CONTINUOUS
 62
     3
 10
25316.9132050138
 20
6241.1883740000021
 30
0.0
 11
25416.912546013798
 21
6241.1883740000021
 31
0.0
  0
LINE
  5
1400C
  8
0-1
  6
CONTINUOUS
 62
     3
 10
25416.912546013798
 20
6241.1883740000021
 30
0.0
 11
25416.912546013798
 21
6141.1885390000007
 31
0.0
  0
LINE
  5
1400D
  8
0-1
  6
CONTINUOUS
 62
     3
 10
25316.9132050138
 20
6141.1885390000007
 30
0.0
 11
25316.9132050138
 21
6241.1883740000021
 31
0.0
  0
LINE
  5
1400E
  8
0-1
  6
CONTINUOUS
 62
     3
 10
25409.41215001381
 20
8459.6884660000014
 30
0.0
 11
25409.41215001381
 21
6241.1883740000021
 31
0.0
  0
LINE
  5
1400F
  8
0-1
  6
CONTINUOUS
 62
     3
 10
25460.911886013801
 20
8132.6883740000021
 30
0.0
 11
25460.911886013801
 21
6141.1885390000007
 31
0.0
  0
LINE
  5
14010
  8
0-1
  6
CONTINUOUS
 62
     3
 10
25344.410698013809
 20
8589.6883999999973
 30
0.0
 11
25344.410698013809
 21
6241.1883740000021
 31
0.0
  0
LINE
  5
14011
  8
0-1
  6
CONTINUOUS
 62
     3
 10
25324.411886013801
 20
8459.6884660000014
 30
0.0
 11
25324.411886013801
 21
6241.1883740000021
 31
0.0
  0
LINE
  5
14012
  8
0-1
  6
CONTINUOUS
 62
     3
 10
28720.911886013801
 20
8264.0026619999971
 30
0.0
 11
28677.911886013819
 21
8264.0026619999971
 31
0.0
  0
LINE
  5
14013
  8
0-1
  6
CONTINUOUS
 62
     3
 10
28685.414525013792
 20
6241.1883740000021
 30
0.0
 11
28585.415185013801
 21
6241.1883740000021
 31
0.0
  0
LINE
  5
14014
  8
0-1
  6
CONTINUOUS
 62
     3
 10
28585.415185013801
 20
6241.1883740000021
 30
0.0
 11
28585.415185013801
 21
6141.1885390000007
 31
0.0
  0
LINE
  5
14015
  8
0-1
  6
CONTINUOUS
 62
     3
 10
28685.414525013792
 20
6141.1885390000007
 30
0.0
 11
28685.414525013792
 21
6241.1883740000021
 31
0.0
  0
LINE
  5
14016
  8
0-1
  6
CONTINUOUS
 62
     3
 10
28541.411886013801
 20
8132.6883740000021
 30
0.0
 11
28541.411886013801
 21
6141.1885390000007
 31
0.0
  0
LINE
  5
14017
  8
0-1
  6
CONTINUOUS
 62
     3
 10
28592.915581013789
 20
8459.6884660000014
 30
0.0
 11
28592.915581013789
 21
6241.1883740000021
 31
0.0
  0
LINE
  5
14018
  8
0-1
  6
CONTINUOUS
 62
     3
 10
28657.915053013799
 20
8589.6883999999973
 30
0.0
 11
28657.915053013799
 21
6241.1883740000021
 31
0.0
  0
LINE
  5
14019
  8
0-1
  6
CONTINUOUS
 62
     3
 10
28677.911886013819
 20
8459.6884660000014
 30
0.0
 11
28677.911886013819
 21
6241.1883740000021
 31
0.0
  0
LINE
  5
1401A
  8
0-1
  6
CONTINUOUS
 62
     3
 10
28541.411886013801
 20
6661.1892649999991
 30
0.0
 11
25460.911886013801
 21
6661.1892649999991
 31
0.0
  0
LINE
  5
1401B
  8
0-1
  6
CONTINUOUS
 62
     3
 10
28541.411886013801
 20
6596.1888030000027
 30
0.0
 11
25460.911886013801
 21
6596.1888030000027
 31
0.0
  0
LINE
  5
1401C
  8
0-1
  6
CONTINUOUS
 62
     3
 10
28541.411886013801
 20
6531.1888360000003
 30
0.0
 11
25460.911886013801
 21
6531.1888360000003
 31
0.0
  0
LINE
  5
1401D
  8
0-1
  6
CONTINUOUS
 62
     3
 10
28541.411886013801
 20
6466.1883740000039
 30
0.0
 11
25460.911886013801
 21
6466.1883740000039
 31
0.0
  0
LINE
  5
1401E
  8
0-1
  6
CONTINUOUS
 62
     3
 10
28541.411886013801
 20
6401.1889020000071
 30
0.0
 11
25460.911886013801
 21
6401.1889020000071
 31
0.0
  0
LINE
  5
1401F
  8
0-1
  6
CONTINUOUS
 62
     3
 10
28541.411886013801
 20
6336.1889349999956
 30
0.0
 11
25460.911886013801
 21
6336.1889349999956
 31
0.0
  0
LINE
  5
14020
  8
0-1
  6
CONTINUOUS
 62
     3
 10
28541.411886013801
 20
6271.1889680000004
 30
0.0
 11
25460.911886013801
 21
6271.1889680000004
 31
0.0
  0
LINE
  5
14021
  8
0-1
  6
CONTINUOUS
 62
     3
 10
28541.411886013801
 20
6206.1885060000041
 30
0.0
 11
25460.911886013801
 21
6206.1885060000041
 31
0.0
  0
LINE
  5
14022
  8
0-1
  6
CONTINUOUS
 62
     3
 10
28541.411886013801
 20
8026.1885719999982
 30
0.0
 11
25460.911886013801
 21
8026.1885719999982
 31
0.0
  0
LINE
  5
14023
  8
0-1
  6
CONTINUOUS
 62
     3
 10
28541.411886013801
 20
7961.1886050000021
 30
0.0
 11
25460.911886013801
 21
7961.1886050000021
 31
0.0
  0
LINE
  5
14024
  8
0-1
  6
CONTINUOUS
 62
     3
 10
28541.411886013801
 20
7896.1891330000062
 30
0.0
 11
25460.911886013801
 21
7896.1891330000062
 31
0.0
  0
LINE
  5
14025
  8
0-1
  6
CONTINUOUS
 62
     3
 10
28541.411886013801
 20
7831.1891659999937
 30
0.0
 11
25460.911886013801
 21
7831.1891659999937
 31
0.0
  0
LINE
  5
14026
  8
0-1
  6
CONTINUOUS
 62
     3
 10
28541.411886013801
 20
7766.1891989999967
 30
0.0
 11
25460.911886013801
 21
7766.1891989999967
 31
0.0
  0
LINE
  5
14027
  8
0-1
  6
CONTINUOUS
 62
     3
 10
28541.411886013801
 20
7701.1887370000022
 30
0.0
 11
25460.911886013801
 21
7701.1887370000022
 31
0.0
  0
LINE
  5
14028
  8
0-1
  6
CONTINUOUS
 62
     3
 10
28541.411886013801
 20
7636.1887700000007
 30
0.0
 11
25460.911886013801
 21
7636.1887700000007
 31
0.0
  0
LINE
  5
14029
  8
0-1
  6
CONTINUOUS
 62
     3
 10
28541.411886013801
 20
7571.1892980000011
 30
0.0
 11
25460.911886013801
 21
7571.1892980000011
 31
0.0
  0
LINE
  5
1402A
  8
0-1
  6
CONTINUOUS
 62
     3
 10
28541.411886013801
 20
7506.1893309999978
 30
0.0
 11
25460.911886013801
 21
7506.1893309999978
 31
0.0
  0
LINE
  5
1402B
  8
0-1
  6
CONTINUOUS
 62
     3
 10
28541.411886013801
 20
7441.1888690000023
 30
0.0
 11
25460.911886013801
 21
7441.1888690000023
 31
0.0
  0
LINE
  5
1402C
  8
0-1
  6
CONTINUOUS
 62
     3
 10
28541.411886013801
 20
7376.188901999999
 30
0.0
 11
25460.911886013801
 21
7376.188901999999
 31
0.0
  0
LINE
  5
1402D
  8
0-1
  6
CONTINUOUS
 62
     3
 10
28541.411886013801
 20
7311.1889350000029
 30
0.0
 11
25460.911886013801
 21
7311.1889350000029
 31
0.0
  0
LINE
  5
1402E
  8
0-1
  6
CONTINUOUS
 62
     3
 10
28541.411886013801
 20
7246.1884730000029
 30
0.0
 11
25460.911886013801
 21
7246.1884730000029
 31
0.0
  0
LINE
  5
1402F
  8
0-1
  6
CONTINUOUS
 62
     3
 10
28541.411886013801
 20
7181.1885060000041
 30
0.0
 11
25460.911886013801
 21
7181.1885060000041
 31
0.0
  0
LINE
  5
14030
  8
0-1
  6
CONTINUOUS
 62
     3
 10
28541.411886013801
 20
7116.1890340000009
 30
0.0
 11
25460.911886013801
 21
7116.1890340000009
 31
0.0
  0
LINE
  5
14031
  8
0-1
  6
CONTINUOUS
 62
     3
 10
28541.411886013801
 20
7051.1890669999966
 30
0.0
 11
25460.911886013801
 21
7051.1890669999966
 31
0.0
  0
LINE
  5
14032
  8
0-1
  6
CONTINUOUS
 62
     3
 10
28541.411886013801
 20
6986.1891000000032
 30
0.0
 11
25460.911886013801
 21
6986.1891000000032
 31
0.0
  0
LINE
  5
14033
  8
0-1
  6
CONTINUOUS
 62
     3
 10
28541.411886013801
 20
6921.1886380000051
 30
0.0
 11
25460.911886013801
 21
6921.1886380000051
 31
0.0
  0
LINE
  5
14034
  8
0-1
  6
CONTINUOUS
 62
     3
 10
28541.411886013801
 20
6856.1886710000017
 30
0.0
 11
25460.911886013801
 21
6856.1886710000017
 31
0.0
  0
LINE
  5
14035
  8
0-1
  6
CONTINUOUS
 62
     3
 10
28541.411886013801
 20
6791.1891989999967
 30
0.0
 11
25460.911886013801
 21
6791.1891989999967
 31
0.0
  0
LINE
  5
14036
  8
0-1
  6
CONTINUOUS
 62
     3
 10
28541.411886013801
 20
6726.1892320000024
 30
0.0
 11
25460.911886013801
 21
6726.1892320000024
 31
0.0
  0
LINE
  5
14037
  8
0-1
  6
CONTINUOUS
 62
     3
 10
28541.411886013801
 20
8080.6485920000023
 30
0.0
 11
25460.911886013801
 21
8080.6485920000023
 31
0.0
  0
LINE
  5
14038
  8
0-1
  6
CONTINUOUS
 62
     3
 10
28685.414525013792
 20
6141.1885390000007
 30
0.0
 11
19755.4335098886
 21
6141.1885390000007
 31
0.0
  0
LINE
  5
14039
  8
0-1
  6
CONTINUOUS
 62
     3
 10
28566.912625013782
 20
8335.1891200000064
 30
0.0
 11
28289.483095013798
 21
8335.1891200000064
 31
0.0
  0
LINE
  5
1403A
  8
0-1
  6
CONTINUOUS
 62
     3
 10
28566.912625013782
 20
8377.1885650000022
 30
0.0
 11
28257.486157013791
 21
8377.1885650000022
 31
0.0
  0
LINE
  5
1403B
  8
0-1
  6
CONTINUOUS
 62
     3
 10
28571.912888013791
 20
8340.1888889999937
 30
0.0
 11
28571.912888013791
 21
8372.1892910000006
 31
0.0
  0
LINE
  5
1403C
  8
0-1
  6
CONTINUOUS
 62
     3
 10
28592.915581013789
 20
8386.1884470000077
 30
0.0
 11
25409.41215001381
 21
8386.1884470000077
 31
0.0
  0
LINE
  5
1403D
  8
0-1
  6
CONTINUOUS
 62
     3
 10
28285.949655013799
 20
8336.6529740000005
 30
0.0
 11
28253.948757013801
 21
8368.653376000002
 31
0.0
  0
LINE
  5
1403E
  8
0-1
  6
CONTINUOUS
 62
     3
 10
28571.912888013791
 20
8368.7889730000006
 30
0.0
 11
28253.820089013821
 21
8368.7889730000006
 31
0.0
  0
LINE
  5
1403F
  8
0-1
  6
CONTINUOUS
 62
     3
 10
28571.912888013791
 20
8360.3888860000006
 30
0.0
 11
28262.213247013791
 21
8360.3888860000006
 31
0.0
  0
LINE
  5
14040
  8
0-1
  6
CONTINUOUS
 62
     3
 10
28571.912888013791
 20
8351.9892939999972
 30
0.0
 11
28270.6123450138
 21
8351.9892939999972
 31
0.0
  0
LINE
  5
14041
  8
0-1
  6
CONTINUOUS
 62
     3
 10
28571.912888013791
 20
8343.5892070000027
 30
0.0
 11
28279.015401013789
 21
8343.5892070000027
 31
0.0
  0
LINE
  5
14042
  8
0-1
  6
CONTINUOUS
 62
     3
 10
25430.4128620138
 20
8368.7889730000006
 30
0.0
 11
25748.505662013798
 21
8368.7889730000006
 31
0.0
  0
LINE
  5
14043
  8
0-1
  6
CONTINUOUS
 62
     3
 10
25430.4128620138
 20
8360.3888860000006
 30
0.0
 11
25740.110524013799
 21
8360.3888860000006
 31
0.0
  0
LINE
  5
14044
  8
0-1
  6
CONTINUOUS
 62
     3
 10
25430.4128620138
 20
8351.9892939999972
 30
0.0
 11
25731.711427013801
 21
8351.9892939999972
 31
0.0
  0
LINE
  5
14045
  8
0-1
  6
CONTINUOUS
 62
     3
 10
25430.4128620138
 20
8343.5892070000027
 30
0.0
 11
25723.31232901381
 21
8343.5892070000027
 31
0.0
  0
LINE
  5
14046
  8
0-1
  6
CONTINUOUS
 62
     3
 10
25435.413126013809
 20
8377.1885650000022
 30
0.0
 11
25744.839594013822
 21
8377.1885650000022
 31
0.0
  0
LINE
  5
14047
  8
0-1
  6
CONTINUOUS
 62
     3
 10
25435.413126013809
 20
8335.1891200000064
 30
0.0
 11
25712.84265501381
 21
8335.1891200000064
 31
0.0
  0
LINE
  5
14048
  8
0-1
  6
CONTINUOUS
 62
     3
 10
25430.4128620138
 20
8340.1888889999937
 30
0.0
 11
25430.4128620138
 21
8372.1892910000006
 31
0.0
  0
LINE
  5
14049
  8
0-1
  6
CONTINUOUS
 62
     3
 10
25716.378076013789
 20
8336.6529740000005
 30
0.0
 11
25748.3750140138
 21
8368.653376000002
 31
0.0
  0
LINE
  5
1404A
  8
0-2
  6
CONTINUOUS
 62
     4
 10
26637.473845513789
 20
6888.415233000007
 30
0.0
 11
26737.473185513802
 21
6888.415233000007
 31
0.0
  0
LINE
  5
1404B
  8
0-2
  6
CONTINUOUS
 62
     4
 10
27364.85784551379
 20
6888.415233000007
 30
0.0
 11
27264.858505513799
 21
6888.415233000007
 31
0.0
  0
LINE
  5
1404C
  8
0-5
  6
CONTINUOUS
 62
     4
 10
25366.911886013801
 20
4461.1889349999938
 30
0.0
 11
25366.911886013801
 21
4301.1893970000001
 31
0.0
  0
LINE
  5
1404D
  8
0-5
  6
CONTINUOUS
 62
     4
 10
28635.411886013819
 20
4461.1889349999938
 30
0.0
 11
28635.411886013819
 21
4301.1893970000001
 31
0.0
  0
LINE
  5
1404E
  8
2-0
  6
CENTER2
 62
     6
 10
25366.911886013801
 20
5878.536116000002
 30
0.0
 11
25366.911886013801
 21
6915.6791430000003
 31
0.0
  0
LINE
  5
1404F
  8
2-0
  6
CENTER2
 62
     6
 10
28635.411886013819
 20
5878.536116000002
 30
0.0
 11
28635.411886013819
 21
6915.6791430000003
 31
0.0
  0
ARC
  5
14050
  8
0-1
  6
CONTINUOUS
 62
     3
 10
28566.912625013782
 20
8372.1892910000006
 30
0.0
 40
5.0
 50
0.000000000000007
 51
90.0
  0
ARC
  5
14051
  8
0-1
  6
CONTINUOUS
 62
     3
 10
28566.912625013782
 20
8340.1888889999937
 30
0.0
 40
5.0
 50
270.00001499981897
 51
0.000000000000007
  0
ARC
  5
14052
  8
0-1
  6
CONTINUOUS
 62
     3
 10
28289.483095013798
 20
8340.1888889999937
 30
0.0
 40
5.0
 50
225.00001499972311
 51
270.00001499981897
  0
ARC
  5
14053
  8
0-1
  6
CONTINUOUS
 62
     3
 10
28257.486157013791
 20
8372.1892910000006
 30
0.0
 40
5.0
 50
90.0
 51
225.00001499972311
  0
ARC
  5
14054
  8
0-1
  6
CONTINUOUS
 62
     3
 10
25435.413126013809
 20
8340.1888889999937
 30
0.0
 40
5.0
 50
180.0
 51
270.00001499981897
  0
ARC
  5
14055
  8
0-1
  6
CONTINUOUS
 62
     3
 10
25435.413126013809
 20
8372.1892910000006
 30
0.0
 40
5.0
 50
90.0
 51
180.0
  0
ARC
  5
14056
  8
0-1
  6
CONTINUOUS
 62
     3
 10
25744.839594013822
 20
8372.1892910000006
 30
0.0
 40
5.0
 50
315.00001500002242
 51
90.0
  0
ARC
  5
14057
  8
0-1
  6
CONTINUOUS
 62
     3
 10
25712.84265501381
 20
8340.1888889999937
 30
0.0
 40
5.0
 50
270.00001499981897
 51
315.00001500002242
  0
CIRCLE
  5
14058
  8
0-5
  6
CONTINUOUS
 62
     4
 10
25366.911886013801
 20
4101.1882420000011
 30
0.0
 40
199.9999949999999
  0
CIRCLE
  5
14059
  8
0-5
  6
CONTINUOUS
 62
     4
 10
28635.411886013819
 20
4101.1882420000011
 30
0.0
 40
199.9999949999999
  0
TEXT
  5
1405A
  8
0-5
  6
CONTINUOUS
 62
     7
 10
25312.158094347142
 20
4011.7132600000009
 30
0.0
 40
160.0
  1
2
 72
     4
 11
25365.49142768047
 21
4091.7132600000009
 31
0.0
  0
TEXT
  5
1405B
  8
0-5
  6
CONTINUOUS
 62
     7
 10
29703.12223333757
 20
7183.4790480839811
 30
0.0
 40
160.0
  1
(2131.5)
 50
90.0
 72
     4
 11
29623.12223333757
 21
7636.8123814173141
 31
0.0
  0
TEXT
  5
1405C
  8
0-5
  6
CONTINUOUS
 62
     7
 10
28607.324760013798
 20
4011.7132600000009
 30
0.0
 40
160.0
  1
3
 72
     4
 11
28660.65809334713
 21
4091.7132600000009
 31
0.0
  0
CIRCLE
  5
1405D
  8
0-4
  6
CONTINUOUS
 62
     4
 10
27001.16386551379
 20
6627.2449749999987
 30
0.0
 40
18.487504999999981
  0
LINE
  5
1405E
  8
1-前柱カバ-P
 10
20409.41188601379
 20
8459.6884660000014
 30
0.0
 11
20409.41188601379
 21
6141.1885390000007
 31
0.0
  0
LINE
  5
1405F
  8
1-前柱カバ-P
 10
20324.411886013801
 20
8589.6883999999973
 30
0.0
 11
20324.411886013801
 21
6141.1885390000007
 31
0.0
  0
LINE
  5
14060
  8
0-1
  6
CONTINUOUS
 62
     3
 10
20281.411886013801
 20
8459.6884660000087
 30
0.0
 11
25409.41215001381
 21
8459.6884660000014
 31
0.0
  0
LINE
  5
14061
  8
0-1
  6
CONTINUOUS
 62
     3
 10
25344.410698013809
 20
8589.6883999999973
 30
0.0
 11
20281.411886013801
 21
8589.6883999999973
 31
0.0
  0
LINE
  5
14062
  8
0-1
  6
CONTINUOUS
 62
     3
 10
20281.411886013801
 20
8264.0026620000026
 30
0.0
 11
20281.411886013801
 21
8589.6883999999973
 31
0.0
  0
LINE
  5
14063
  8
0-1
  6
CONTINUOUS
 62
     3
 10
20281.411886013801
 20
8264.0026620000026
 30
0.0
 11
20324.411886013801
 21
8264.0026620000026
 31
0.0
  0
LINE
  5
14064
  8
2-0
  6
CENTER2
 62
     6
 10
20366.911886013801
 20
5878.536116000002
 30
0.0
 11
20366.911886013801
 21
6915.6791430000003
 31
0.0
  0
LINE
  5
14065
  8
1-桁前P28
 10
20409.41188601379
 20
8262.0026620000026
 30
0.0
 11
25324.411886013801
 21
8262.0026620000026
 31
0.0
  0
LINE
  5
14066
  8
0-5
  6
CONTINUOUS
 62
     4
 10
20366.911886013801
 20
4461.1889349999938
 30
0.0
 11
20366.911886013801
 21
4301.1893970000001
 31
0.0
  0
CIRCLE
  5
14067
  8
0-5
  6
CONTINUOUS
 62
     4
 10
20366.911886013801
 20
4101.1882420000011
 30
0.0
 40
199.9999949999999
  0
TEXT
  5
14068
  8
0-5
  6
CONTINUOUS
 62
     7
 10
20338.824761013781
 20
4011.7132600000009
 30
0.0
 40
160.0
  1
1
 72
     4
 11
20365.491427680448
 21
4091.7132600000009
 31
0.0
  0
TEXT
  5
14069
  8
0-5
  6
CONTINUOUS
 62
     7
 10
19327.05158554214
 20
7249.4069272529232
 30
0.0
 40
160.0
  1
(2260）
 50
90.0
 72
     4
 11
19247.05158554214
 21
7641.4069272529223
 31
0.0
  0
CIRCLE
  5
1406A
  8
0-5
  6
CONTINUOUS
 62
     4
 10
7362.2187704885728
 20
4101.189402
 30
0.0
 40
199.9999949999999
  0
TEXT
  5
1406B
  8
0-5
  6
CONTINUOUS
 62
     7
 10
7313.5424084885708
 20
4009.571342999996
 30
0.0
 40
160.0
  1
A
 72
     4
 11
7366.8757418219038
 21
4089.5713429999969
 31
0.0
  0
CIRCLE
  5
1406C
  8
0-5
  6
CONTINUOUS
 62
     4
 10
10280.21877048856
 20
4101.1894020000009
 30
0.0
 40
199.9999949999999
  0
TEXT
  5
1406D
  8
0-5
  6
CONTINUOUS
 62
     7
 10
10231.54240848856
 20
4009.571344000009
 30
0.0
 40
160.0
  1
B
 72
     4
 11
10284.875741821899
 21
4089.571344000009
 31
0.0
  0
CIRCLE
  5
1406E
  8
0-5
  6
CONTINUOUS
 62
     4
 10
12847.71877048856
 20
4101.1894020000009
 30
0.0
 40
199.9999949999999
  0
TEXT
  5
1406F
  8
0-5
  6
CONTINUOUS
 62
     7
 10
12799.042408488551
 20
4009.571343000001
 30
0.0
 40
160.0
  1
C
 72
     4
 11
12852.37574182189
 21
4089.5713430000019
 31
0.0
  0
LINE
  5
141CA
  8
2-0
  6
CENTER2
 62
     6
 10
30677.912809013771
 20
19317.986978000001
 30
0.0
 11
29931.32304916409
 21
19317.986978000001
 31
0.0
  0
LINE
  5
141CB
  8
2-0
  6
CENTER2
 62
     6
 10
29771.32304916409
 20
19317.986978000001
 30
0.0
 11
20062.30705006186
 21
19317.986978000001
 31
0.0
  0
LINE
  5
141CC
  8
2-0
  6
CENTER2
 62
     6
 10
30677.9128090138
 20
16750.486978000001
 30
0.0
 11
30274.75219675574
 21
16750.486978000001
 31
0.0
  0
LINE
  5
141CD
  8
2-0
  6
CENTER2
 62
     6
 10
29477.91478901379
 20
16750.486978000001
 30
0.0
 11
20062.30705006186
 21
16750.486978000001
 31
0.0
  0
LINE
  5
141CE
  8
2-0
  6
CENTER2
 62
     6
 10
30677.912809013771
 20
13832.486978000001
 30
0.0
 11
29953.059130006772
 21
13832.486978000001
 31
0.0
  0
LINE
  5
141CF
  8
2-0
  6
CENTER2
 62
     6
 10
29798.92678839415
 20
13832.486978000001
 30
0.0
 11
20062.30705006186
 21
13832.48697800001
 31
0.0
  0
CIRCLE
  5
141D0
  8
0-5
  6
CONTINUOUS
 62
     4
 10
25366.91188601379
 20
21160.487902000001
 30
0.0
 40
199.9999949999999
  0
CIRCLE
  5
141D1
  8
0-5
  6
CONTINUOUS
 62
     4
 10
30877.913469013769
 20
19317.986978000001
 30
0.0
 40
199.9999949999999
  0
CIRCLE
  5
141D2
  8
0-5
  6
CONTINUOUS
 62
     4
 10
30877.91346901378
 20
16750.486978000001
 30
0.0
 40
199.9999949999999
  0
CIRCLE
  5
141D3
  8
0-5
  6
CONTINUOUS
 62
     4
 10
30877.913469013769
 20
13832.486978000001
 30
0.0
 40
199.9999949999999
  0
CIRCLE
  5
141D4
  8
0-5
  6
CONTINUOUS
 62
     4
 10
20366.911886013801
 20
21160.489216000002
 30
0.0
 40
199.9999949999999
  0
TEXT
  5
141D5
  8
0-5
  6
CONTINUOUS
 62
     7
 10
25314.91556334712
 20
21074.262051999998
 30
0.0
 40
160.0
  1
2
 72
     4
 11
25368.248896680449
 21
21154.262051999998
 31
0.0
  0
TEXT
  5
141D6
  8
0-5
  6
CONTINUOUS
 62
     7
 10
20368.248896680449
 20
21074.263366000021
 30
0.0
 40
160.0
  1
1
 72
     4
 11
20394.91556334712
 21
21154.263366000021
 31
0.0
  0
TEXT
  5
141D7
  8
0-5
  6
CONTINUOUS
 62
     7
 10
30819.92316434711
 20
19226.368919
 30
0.0
 40
160.0
  1
C
 72
     4
 11
30873.256497680439
 21
19306.368919
 31
0.0
  0
TEXT
  5
141D8
  8
0-5
  6
CONTINUOUS
 62
     7
 10
30819.92316434711
 20
16658.868920000012
 30
0.0
 40
160.0
  1
B
 72
     4
 11
30873.256497680439
 21
16738.868920000012
 31
0.0
  0
TEXT
  5
141D9
  8
0-5
  6
CONTINUOUS
 62
     7
 10
30819.92316434711
 20
13740.868919
 30
0.0
 40
160.0
  1
A
 72
     4
 11
30873.256497680439
 21
13820.868919
 31
0.0
  0
LINE
  5
141DA
  8
2-0
  6
CENTER2
 62
     6
 10
20366.911886013801
 20
20960.489221
 30
0.0
 11
20366.911886013801
 21
13474.73309953157
 31
0.0
  0
CIRCLE
  5
141DB
  8
0-5
  6
CONTINUOUS
 62
     4
 10
28635.41188601379
 20
21160.489216000002
 30
0.0
 40
199.9999949999999
  0
TEXT
  5
141DC
  8
0-5
  6
CONTINUOUS
 62
     7
 10
28583.41556334712
 20
21074.263366000021
 30
0.0
 40
160.0
  1
3
 72
     4
 11
28636.748896680449
 21
21154.263366000021
 31
0.0
  0
ARC
  5
141DD
  8
1-後柱P
  6
HIDE-M
 62
     6
 10
20363.311886013791
 20
19249.936978000002
 30
0.0
 40
2.6000000000000001
 50
270.0
 51
0.000000000000007
  0
LINE
  5
141DE
  8
1-後柱P
  6
HIDE-M
 62
     6
 10
20374.911886013801
 20
19247.887587846799
 30
0.0
 11
20374.911886013801
 21
19251.536978
 31
0.0
  0
LINE
  5
141DF
  8
1-後柱P
  6
HIDE-M
 62
     6
 10
20364.911886013801
 20
19247.887587846799
 30
0.0
 11
20364.911886013801
 21
19251.536978
 31
0.0
  0
LINE
  5
141E0
  8
1-後柱P
  6
1PL-M
 62
     6
 10
20369.911886013801
 20
19242.33697800001
 30
0.0
 11
20369.911886013801
 21
19256.536978
 31
0.0
  0
ARC
  5
141E1
  8
1-後柱P
  6
HIDE-M
 62
     6
 10
20376.511886013792
 20
19249.936978000002
 30
0.0
 40
2.6000000000000001
 50
180.0
 51
270.0
  0
LINE
  5
141E2
  8
1-後柱P
  6
HIDE-M
 62
     6
 10
20365.911886013801
 20
19249.936978000002
 30
0.0
 11
20365.911886013801
 21
19251.536978
 31
0.0
  0
LINE
  5
141E3
  8
1-後柱P
  6
HIDE-M
 62
     6
 10
20373.911886013801
 20
19249.936978000002
 30
0.0
 11
20373.911886013801
 21
19251.536978
 31
0.0
  0
LINE
  5
141E4
  8
1-後柱P
 10
20356.011886013792
 20
19362.236978000001
 30
0.0
 11
20377.811886013791
 21
19362.236978000001
 31
0.0
  0
LINE
  5
141E5
  8
1-後柱P
 10
20407.811886013791
 20
19324.936978000002
 30
0.0
 11
20407.811886013791
 21
19332.236978000001
 31
0.0
  0
ARC
  5
141E6
  8
1-後柱P
 10
20377.811886013791
 20
19332.236978000001
 30
0.0
 40
30.0
 50
0.000000000000007
 51
90.0
  0
ARC
  5
141E7
  8
1-後柱P
 10
20377.811886013791
 20
19332.236978000001
 30
0.0
 40
31.600000000000001
 50
0.000000000000007
 51
90.0
  0
LINE
  5
141E8
  8
1-後柱P
 10
20356.011886013792
 20
19363.83697800001
 30
0.0
 11
20377.811886013791
 21
19363.83697800001
 31
0.0
  0
LINE
  5
141E9
  8
1-後柱P
 10
20409.41188601379
 20
19324.936978000002
 30
0.0
 11
20409.41188601379
 21
19332.236978000001
 31
0.0
  0
LINE
  5
141EA
  8
1-後柱P
 10
20386.41188601379
 20
19303.33697800001
 30
0.0
 11
20386.41188601379
 21
19313.33697800001
 31
0.0
  0
LINE
  5
141EB
  8
1-後柱P
 10
20384.811886013791
 20
19313.33697800001
 30
0.0
 11
20384.811886013791
 21
19303.33697800001
 31
0.0
  0
LINE
  5
141EC
  8
1-後柱P
 10
20326.011886013792
 20
19324.936978000002
 30
0.0
 11
20326.011886013792
 21
19332.236978000001
 31
0.0
  0
ARC
  5
141ED
  8
1-後柱P
 10
20356.011886013792
 20
19332.236978000001
 30
0.0
 40
30.0
 50
90.0
 51
180.0
  0
ARC
  5
141EE
  8
1-後柱P
 10
20356.011886013792
 20
19332.236978000001
 30
0.0
 40
31.600000000000001
 50
90.0
 51
180.0
  0
LINE
  5
141EF
  8
1-後柱P
 10
20324.411886013801
 20
19324.936978000002
 30
0.0
 11
20324.411886013801
 21
19332.236978000001
 31
0.0
  0
LINE
  5
141F0
  8
1-後柱P
 10
20331.011886013792
 20
19318.33697800001
 30
0.0
 11
20342.411886013801
 21
19318.33697800001
 31
0.0
  0
ARC
  5
141F1
  8
1-後柱P
 10
20331.011886013792
 20
19324.936978000002
 30
0.0
 40
6.599999999999997
 50
180.0
 51
270.0
  0
ARC
  5
141F2
  8
1-後柱P
 10
20342.411886013801
 20
19313.33697800001
 30
0.0
 40
5.0
 50
0.000000000000007
 51
90.0
  0
LINE
  5
141F3
  8
1-後柱P
 10
20331.011886013792
 20
19319.936978000002
 30
0.0
 11
20342.411886013801
 21
19319.936978000002
 31
0.0
  0
ARC
  5
141F4
  8
1-後柱P
 10
20331.011886013792
 20
19324.936978000002
 30
0.0
 40
5.0
 50
180.0
 51
270.0
  0
LINE
  5
141F5
  8
1-後柱P
 10
20347.411886013801
 20
19313.33697800001
 30
0.0
 11
20347.411886013801
 21
19253.936978000002
 31
0.0
  0
LINE
  5
141F6
  8
1-後柱P
 10
20349.011886013792
 20
19313.33697800001
 30
0.0
 11
20349.011886013792
 21
19253.936978000002
 31
0.0
  0
ARC
  5
141F7
  8
1-後柱P
 10
20342.411886013801
 20
19313.33697800001
 30
0.0
 40
6.599999999999997
 50
0.000000000000007
 51
90.0
  0
LINE
  5
141F8
  8
1-後柱P
 10
20354.011886013792
 20
19247.33697800001
 30
0.0
 11
20387.411886013801
 21
19247.33697800001
 31
0.0
  0
ARC
  5
141F9
  8
1-後柱P
 10
20354.011886013792
 20
19253.936978000002
 30
0.0
 40
6.599999999999997
 50
180.0
 51
270.0
  0
LINE
  5
141FA
  8
1-後柱P
 10
20354.011886013792
 20
19248.936978000002
 30
0.0
 11
20387.411886013801
 21
19248.936978000002
 31
0.0
  0
ARC
  5
141FB
  8
1-後柱P
 10
20354.011886013792
 20
19253.936978000002
 30
0.0
 40
5.0
 50
180.0
 51
270.0
  0
LINE
  5
141FC
  8
1-後柱P
 10
20387.411886013801
 20
19248.936978000002
 30
0.0
 11
20387.411886013801
 21
19247.33697800001
 31
0.0
  0
LINE
  5
141FD
  8
1-後柱P
 10
20402.811886013791
 20
19318.33697800001
 30
0.0
 11
20391.411886013801
 21
19318.33697800001
 31
0.0
  0
ARC
  5
141FE
  8
1-後柱P
 10
20402.811886013791
 20
19324.936978000002
 30
0.0
 40
6.599999999999997
 50
270.0
 51
0.000000000000007
  0
ARC
  5
141FF
  8
1-後柱P
 10
20391.411886013801
 20
19313.33697800001
 30
0.0
 40
5.0
 50
90.0
 51
180.0
  0
LINE
  5
14200
  8
1-後柱P
 10
20391.411886013801
 20
19319.936978000002
 30
0.0
 11
20402.811886013791
 21
19319.936978000002
 31
0.0
  0
ARC
  5
14201
  8
1-後柱P
 10
20391.411886013801
 20
19313.33697800001
 30
0.0
 40
6.599999999999997
 50
90.0
 51
180.0
  0
ARC
  5
14202
  8
1-後柱P
 10
20402.811886013791
 20
19324.936978000002
 30
0.0
 40
5.0
 50
270.0
 51
0.000000000000007
  0
LINE
  5
14203
  8
1-後柱P
 10
20386.41188601379
 20
19303.33697800001
 30
0.0
 11
20384.811886013791
 21
19303.33697800001
 31
0.0
  0
LINE
  5
14204
  8
1-後柱カバ-P
 10
20409.41188601379
 20
19311.636977999999
 30
0.0
 11
20409.41188601379
 21
19252.33697800001
 31
0.0
  0
ARC
  5
14205
  8
1-後柱カバ-P
 10
20402.811886013791
 20
19252.33697800001
 30
0.0
 40
6.599999999999997
 50
270.0
 51
0.000000000000007
  0
LINE
  5
14206
  8
1-後柱カバ-P
 10
20407.811886013791
 20
19311.636977999999
 30
0.0
 11
20407.811886013791
 21
19252.33697800001
 31
0.0
  0
ARC
  5
14207
  8
1-後柱カバ-P
 10
20402.811886013791
 20
19311.636977999999
 30
0.0
 40
5.0
 50
0.000000000000007
 51
90.0
  0
LINE
  5
14208
  8
1-後柱カバ-P
 10
20402.811886013791
 20
19245.736978000001
 30
0.0
 11
20331.011886013792
 21
19245.736978000001
 31
0.0
  0
ARC
  5
14209
  8
1-後柱カバ-P
 10
20331.011886013792
 20
19252.33697800001
 30
0.0
 40
6.599999999999997
 50
180.0
 51
270.0
  0
LINE
  5
1420A
  8
1-後柱カバ-P
 10
20402.811886013791
 20
19247.33697800001
 30
0.0
 11
20331.011886013792
 21
19247.33697800001
 31
0.0
  0
ARC
  5
1420B
  8
1-後柱カバ-P
 10
20331.011886013792
 20
19252.33697800001
 30
0.0
 40
5.0
 50
180.0
 51
270.0
  0
ARC
  5
1420C
  8
1-後柱カバ-P
 10
20402.811886013791
 20
19252.33697800001
 30
0.0
 40
5.0
 50
270.0
 51
0.000000000000007
  0
LINE
  5
1420D
  8
1-後柱カバ-P
 10
20324.411886013801
 20
19252.33697800001
 30
0.0
 11
20324.411886013801
 21
19311.636977999999
 31
0.0
  0
LINE
  5
1420E
  8
1-後柱カバ-P
 10
20326.011886013792
 20
19252.33697800001
 30
0.0
 11
20326.011886013792
 21
19311.636977999999
 31
0.0
  0
ARC
  5
1420F
  8
1-後柱カバ-P
 10
20331.011886013792
 20
19311.636977999999
 30
0.0
 40
5.0
 50
90.0
 51
180.0
  0
LINE
  5
14210
  8
1-後柱カバ-P
  6
1PL-M
 62
     6
 10
20366.911886013801
 20
19253.236978000001
 30
0.0
 11
20366.911886013801
 21
19240.236978000001
 31
0.0
  0
LINE
  5
14211
  8
1-後柱カバ-P
  6
HIDE-M
 62
     6
 10
20373.911886013801
 20
19245.736978000001
 30
0.0
 11
20373.911886013801
 21
19247.33697800001
 31
0.0
  0
LINE
  5
14212
  8
1-後柱カバ-P
  6
HIDE-M
 62
     6
 10
20359.91188601379
 20
19245.736978000001
 30
0.0
 11
20359.91188601379
 21
19247.33697800001
 31
0.0
  0
ARC
  5
14213
  8
1-後柱カバ-P
 10
20402.811886013791
 20
19311.636977999999
 30
0.0
 40
6.599999999999997
 50
0.000000000000007
 51
90.0
  0
ARC
  5
14214
  8
1-後柱カバ-P
 10
20331.011886013792
 20
19311.636977999999
 30
0.0
 40
6.599999999999997
 50
90.0
 51
180.0
  0
LINE
  5
14215
  8
1-後柱カバ-P
 10
20339.411886013801
 20
19318.236978000001
 30
0.0
 11
20331.011886013792
 21
19318.236978000001
 31
0.0
  0
LINE
  5
14216
  8
1-後柱カバ-P
 10
20394.411886013801
 20
19318.236978000001
 30
0.0
 11
20402.811886013791
 21
19318.236978000001
 31
0.0
  0
LINE
  5
14217
  8
1-後柱カバ-P
 10
20339.411886013801
 20
19316.63697800001
 30
0.0
 11
20331.011886013792
 21
19316.63697800001
 31
0.0
  0
LINE
  5
14218
  8
1-後柱カバ-P
 10
20394.411886013801
 20
19316.63697800001
 30
0.0
 11
20402.811886013791
 21
19316.63697800001
 31
0.0
  0
LINE
  5
14219
  8
1-後柱カバ-P
 10
20394.411886013801
 20
19316.63697800001
 30
0.0
 11
20394.411886013801
 21
19318.236978000001
 31
0.0
  0
LINE
  5
1421A
  8
1-後柱カバ-P
 10
20339.411886013801
 20
19318.236978000001
 30
0.0
 11
20339.411886013801
 21
19316.63697800001
 31
0.0
  0
LINE
  5
1421B
  8
1-後柱カバ-P
  6
HIDE-M
 62
     6
 10
20335.511886013792
 20
19297.236978000001
 30
0.0
 11
20323.911886013801
 21
19297.236978000001
 31
0.0
  0
LINE
  5
1421C
  8
1-後柱カバ-P
  6
HIDE-M
 62
     6
 10
20335.511886013792
 20
19289.236978000001
 30
0.0
 11
20323.911886013801
 21
19289.236978000001
 31
0.0
  0
LINE
  5
1421D
  8
1-後柱カバ-P
  6
HIDE-M
 62
     6
 10
20335.511886013792
 20
19296.236978000001
 30
0.0
 11
20323.911886013801
 21
19296.236978000001
 31
0.0
  0
LINE
  5
1421E
  8
1-後柱カバ-P
  6
HIDE-M
 62
     6
 10
20335.511886013792
 20
19290.236978000001
 30
0.0
 11
20323.911886013801
 21
19290.236978000001
 31
0.0
  0
LINE
  5
1421F
  8
1-後柱カバ-P
 10
20334.511886013792
 20
19287.736978000001
 30
0.0
 11
20327.511886013792
 21
19287.736978000001
 31
0.0
  0
LINE
  5
14220
  8
1-後柱カバ-P
 10
20327.511886013792
 20
19298.736978000001
 30
0.0
 11
20334.511886013792
 21
19298.736978000001
 31
0.0
  0
LINE
  5
14221
  8
1-後柱カバ-P
 10
20327.511886013792
 20
19299.486978000001
 30
0.0
 11
20327.511886013792
 21
19286.986978000001
 31
0.0
  0
LINE
  5
14222
  8
1-後柱カバ-P
 10
20323.911886013801
 20
19299.236978000001
 30
0.0
 11
20323.911886013801
 21
19287.236978000001
 31
0.0
  0
LINE
  5
14223
  8
1-後柱カバ-P
  6
HIDE-M
 62
     6
 10
20326.011886013792
 20
19287.736978000001
 30
0.0
 11
20324.411886013801
 21
19287.736978000001
 31
0.0
  0
LINE
  5
14224
  8
1-後柱カバ-P
 10
20323.911886013801
 20
19287.236978000001
 30
0.0
 11
20324.411886013801
 21
19287.736978000001
 31
0.0
  0
ARC
  5
14225
  8
1-後柱カバ-P
 10
20326.761886013792
 20
19286.986978000001
 30
0.0
 40
0.75
 50
180.0
 51
0.000000000000007
  0
LINE
  5
14226
  8
1-後柱カバ-P
  6
HIDE-M
 62
     6
 10
20324.411886013801
 20
19298.736978000001
 30
0.0
 11
20326.011886013792
 21
19298.736978000001
 31
0.0
  0
LINE
  5
14227
  8
1-後柱カバ-P
 10
20323.911886013801
 20
19299.236978000001
 30
0.0
 11
20324.411886013801
 21
19298.736978000001
 31
0.0
  0
ARC
  5
14228
  8
1-後柱カバ-P
 10
20326.761886013792
 20
19299.486978000001
 30
0.0
 40
0.75
 50
0.000000000000007
 51
180.0
  0
LINE
  5
14229
  8
1-後柱カバ-P
 10
20335.511886013792
 20
19297.736978000001
 30
0.0
 11
20335.511886013792
 21
19288.736978000001
 31
0.0
  0
ARC
  5
1422A
  8
1-後柱カバ-P
 10
20334.511886013792
 20
19288.736978000001
 30
0.0
 40
1.0
 50
270.0
 51
0.000000000000007
  0
ARC
  5
1422B
  8
1-後柱カバ-P
 10
20334.511886013792
 20
19297.736978000001
 30
0.0
 40
1.0
 50
0.000000000000007
 51
90.0
  0
LINE
  5
1422C
  8
1-後柱カバ-P
  6
1PL-M
 62
     6
 10
20340.511886013792
 20
19293.236978000001
 30
0.0
 11
20318.911886013801
 21
19293.236978000001
 31
0.0
  0
LINE
  5
1422D
  8
1-後柱カバ-P
 10
20334.511886013792
 20
19277.736978000001
 30
0.0
 11
20327.511886013792
 21
19277.736978000001
 31
0.0
  0
LINE
  5
1422E
  8
1-後柱カバ-P
 10
20323.911886013801
 20
19285.236978000001
 30
0.0
 11
20323.911886013801
 21
19277.236978000001
 31
0.0
  0
LINE
  5
1422F
  8
1-後柱カバ-P
  6
HIDE-M
 62
     6
 10
20326.011886013792
 20
19277.736978000001
 30
0.0
 11
20324.411886013801
 21
19277.736978000001
 31
0.0
  0
LINE
  5
14230
  8
1-後柱カバ-P
 10
20323.911886013801
 20
19277.236978000001
 30
0.0
 11
20324.411886013801
 21
19277.736978000001
 31
0.0
  0
ARC
  5
14231
  8
1-後柱カバ-P
 10
20326.761886013792
 20
19276.986978000001
 30
0.0
 40
0.75
 50
180.0
 51
0.000000000000007
  0
LINE
  5
14232
  8
1-後柱カバ-P
 10
20335.511886013792
 20
19286.736978000001
 30
0.0
 11
20335.511886013792
 21
19278.736978000001
 31
0.0
  0
ARC
  5
14233
  8
1-後柱カバ-P
 10
20334.511886013792
 20
19278.736978000001
 30
0.0
 40
1.0
 50
270.0
 51
0.000000000000007
  0
LINE
  5
14234
  8
1-後柱カバ-P
  6
1PL-M
 62
     6
 10
20340.511886013792
 20
19283.236978000001
 30
0.0
 11
20318.911886013801
 21
19283.236978000001
 31
0.0
  0
LINE
  5
14235
  8
1-後柱カバ-P
 10
20327.511886013792
 20
19284.986978000001
 30
0.0
 11
20327.511886013792
 21
19276.986978000001
 31
0.0
  0
LINE
  5
14236
  8
1-後柱カバ-P
  6
HIDE-M
 62
     6
 10
20398.311886013791
 20
19297.236978000001
 30
0.0
 11
20409.911886013801
 21
19297.236978000001
 31
0.0
  0
LINE
  5
14237
  8
1-後柱カバ-P
  6
HIDE-M
 62
     6
 10
20398.311886013791
 20
19289.236978000001
 30
0.0
 11
20409.911886013801
 21
19289.236978000001
 31
0.0
  0
LINE
  5
14238
  8
1-後柱カバ-P
  6
HIDE-M
 62
     6
 10
20398.311886013791
 20
19296.236978000001
 30
0.0
 11
20409.911886013801
 21
19296.236978000001
 31
0.0
  0
LINE
  5
14239
  8
1-後柱カバ-P
  6
HIDE-M
 62
     6
 10
20398.311886013791
 20
19290.236978000001
 30
0.0
 11
20409.911886013801
 21
19290.236978000001
 31
0.0
  0
LINE
  5
1423A
  8
1-後柱カバ-P
 10
20399.311886013791
 20
19287.736978000001
 30
0.0
 11
20406.311886013791
 21
19287.736978000001
 31
0.0
  0
LINE
  5
1423B
  8
1-後柱カバ-P
 10
20406.311886013791
 20
19298.736978000001
 30
0.0
 11
20399.311886013791
 21
19298.736978000001
 31
0.0
  0
LINE
  5
1423C
  8
1-後柱カバ-P
 10
20406.311886013791
 20
19299.486978000001
 30
0.0
 11
20406.311886013791
 21
19286.986978000001
 31
0.0
  0
LINE
  5
1423D
  8
1-後柱カバ-P
 10
20409.911886013801
 20
19299.236978000001
 30
0.0
 11
20409.911886013801
 21
19287.236978000001
 31
0.0
  0
LINE
  5
1423E
  8
1-後柱カバ-P
  6
HIDE-M
 62
     6
 10
20407.811886013791
 20
19287.736978000001
 30
0.0
 11
20409.41188601379
 21
19287.736978000001
 31
0.0
  0
LINE
  5
1423F
  8
1-後柱カバ-P
 10
20409.911886013801
 20
19287.236978000001
 30
0.0
 11
20409.41188601379
 21
19287.736978000001
 31
0.0
  0
ARC
  5
14240
  8
1-後柱カバ-P
 10
20407.061886013791
 20
19286.986978000001
 30
0.0
 40
0.75
 50
180.0
 51
0.000000000000007
  0
LINE
  5
14241
  8
1-後柱カバ-P
  6
HIDE-M
 62
     6
 10
20409.41188601379
 20
19298.736978000001
 30
0.0
 11
20407.811886013791
 21
19298.736978000001
 31
0.0
  0
LINE
  5
14242
  8
1-後柱カバ-P
 10
20409.911886013801
 20
19299.236978000001
 30
0.0
 11
20409.41188601379
 21
19298.736978000001
 31
0.0
  0
ARC
  5
14243
  8
1-後柱カバ-P
 10
20407.061886013791
 20
19299.486978000001
 30
0.0
 40
0.75
 50
0.000000000000007
 51
180.0
  0
LINE
  5
14244
  8
1-後柱カバ-P
 10
20398.311886013791
 20
19297.736978000001
 30
0.0
 11
20398.311886013791
 21
19288.736978000001
 31
0.0
  0
ARC
  5
14245
  8
1-後柱カバ-P
 10
20399.311886013791
 20
19288.736978000001
 30
0.0
 40
1.0
 50
180.0
 51
270.0
  0
ARC
  5
14246
  8
1-後柱カバ-P
 10
20399.311886013791
 20
19297.736978000001
 30
0.0
 40
1.0
 50
90.0
 51
180.0
  0
LINE
  5
14247
  8
1-後柱カバ-P
  6
1PL-M
 62
     6
 10
20393.311886013791
 20
19293.236978000001
 30
0.0
 11
20414.911886013801
 21
19293.236978000001
 31
0.0
  0
LINE
  5
14248
  8
1-後柱カバ-P
 10
20399.311886013791
 20
19277.736978000001
 30
0.0
 11
20406.311886013791
 21
19277.736978000001
 31
0.0
  0
LINE
  5
14249
  8
1-後柱カバ-P
 10
20409.911886013801
 20
19285.236978000001
 30
0.0
 11
20409.911886013801
 21
19277.236978000001
 31
0.0
  0
LINE
  5
1424A
  8
1-後柱カバ-P
  6
HIDE-M
 62
     6
 10
20407.811886013791
 20
19277.736978000001
 30
0.0
 11
20409.41188601379
 21
19277.736978000001
 31
0.0
  0
LINE
  5
1424B
  8
1-後柱カバ-P
 10
20409.911886013801
 20
19277.236978000001
 30
0.0
 11
20409.41188601379
 21
19277.736978000001
 31
0.0
  0
ARC
  5
1424C
  8
1-後柱カバ-P
 10
20407.061886013791
 20
19276.986978000001
 30
0.0
 40
0.75
 50
180.0
 51
0.000000000000007
  0
LINE
  5
1424D
  8
1-後柱カバ-P
 10
20398.311886013791
 20
19286.736978000001
 30
0.0
 11
20398.311886013791
 21
19278.736978000001
 31
0.0
  0
ARC
  5
1424E
  8
1-後柱カバ-P
 10
20399.311886013791
 20
19278.736978000001
 30
0.0
 40
1.0
 50
180.0
 51
270.0
  0
LINE
  5
1424F
  8
1-後柱カバ-P
  6
1PL-M
 62
     6
 10
20393.311886013791
 20
19283.236978000001
 30
0.0
 11
20414.911886013801
 21
19283.236978000001
 31
0.0
  0
LINE
  5
14250
  8
1-後柱カバ-P
 10
20406.311886013791
 20
19284.986978000001
 30
0.0
 11
20406.311886013791
 21
19276.986978000001
 31
0.0
  0
LINE
  5
14251
  8
1-後柱カバ-P
  6
HIDE-M
 62
     6
 10
20335.511886013792
 20
19279.236978000001
 30
0.0
 11
20323.911886013801
 21
19279.236978000001
 31
0.0
  0
LINE
  5
14252
  8
1-後柱カバ-P
  6
HIDE-M
 62
     6
 10
20335.511886013792
 20
19280.236978000001
 30
0.0
 11
20323.911886013801
 21
19280.236978000001
 31
0.0
  0
LINE
  5
14253
  8
1-後柱カバ-P
  6
HIDE-M
 62
     6
 10
20398.311886013791
 20
19279.236978000001
 30
0.0
 11
20409.911886013801
 21
19279.236978000001
 31
0.0
  0
LINE
  5
14254
  8
1-後柱カバ-P
  6
HIDE-M
 62
     6
 10
20398.311886013791
 20
19280.236978000001
 30
0.0
 11
20409.911886013801
 21
19280.236978000001
 31
0.0
  0
LINE
  5
14255
  8
1-中柱P
 10
20331.01188601381
 20
16679.486978000001
 30
0.0
 11
20402.811886013798
 21
16679.486978000001
 31
0.0
  0
ARC
  5
14256
  8
1-中柱P
 10
20331.01188601381
 20
16684.486978000001
 30
0.0
 40
5.0
 50
180.0
 51
270.0
  0
ARC
  5
14257
  8
1-中柱P
 10
20402.811886013798
 20
16684.486978000001
 30
0.0
 40
5.0
 50
270.0
 51
0.000000000000007
  0
LINE
  5
14258
  8
1-中柱P
 10
20331.01188601381
 20
16677.886977999999
 30
0.0
 11
20402.811886013798
 21
16677.886977999999
 31
0.0
  0
ARC
  5
14259
  8
1-中柱P
 10
20331.01188601381
 20
16684.486978000001
 30
0.0
 40
6.599999999999997
 50
180.0
 51
270.0
  0
LINE
  5
1425A
  8
1-中柱P
 10
20409.41188601379
 20
16743.786978
 30
0.0
 11
20409.41188601379
 21
16684.486978000001
 31
0.0
  0
ARC
  5
1425B
  8
1-中柱P
 10
20402.811886013798
 20
16684.486978000001
 30
0.0
 40
6.599999999999997
 50
270.0
 51
0.000000000000007
  0
LINE
  5
1425C
  8
1-中柱P
 10
20407.811886013809
 20
16684.486978000001
 30
0.0
 11
20407.811886013809
 21
16743.786978
 31
0.0
  0
ARC
  5
1425D
  8
1-中柱P
 10
20402.811886013798
 20
16743.786978
 30
0.0
 40
5.0
 50
0.000000000000007
 51
90.0
  0
LINE
  5
1425E
  8
1-中柱P
 10
20324.411886013801
 20
16743.786978
 30
0.0
 11
20324.411886013801
 21
16684.486978000001
 31
0.0
  0
LINE
  5
1425F
  8
1-中柱P
 10
20326.011886013792
 20
16684.486978000001
 30
0.0
 11
20326.011886013792
 21
16743.786978
 31
0.0
  0
LINE
  5
14260
  8
1-中柱P
 10
20331.01188601381
 20
16750.38697800001
 30
0.0
 11
20339.411886013801
 21
16750.38697800001
 31
0.0
  0
ARC
  5
14261
  8
1-中柱P
 10
20331.01188601381
 20
16743.786978
 30
0.0
 40
6.599999999999997
 50
90.0
 51
180.0
  0
LINE
  5
14262
  8
1-中柱P
 10
20331.01188601381
 20
16748.786978
 30
0.0
 11
20339.411886013801
 21
16748.786978
 31
0.0
  0
ARC
  5
14263
  8
1-中柱P
 10
20339.411886013801
 20
16755.38697800001
 30
0.0
 40
6.599999999999997
 50
270.0
 51
0.000000000000007
  0
ARC
  5
14264
  8
1-中柱P
 10
20331.01188601381
 20
16743.786978
 30
0.0
 40
5.0
 50
90.0
 51
180.0
  0
LINE
  5
14265
  8
1-中柱P
 10
20344.411886013801
 20
16755.38697800001
 30
0.0
 11
20344.411886013801
 21
16814.786978000011
 31
0.0
  0
ARC
  5
14266
  8
1-中柱P
 10
20339.411886013801
 20
16755.38697800001
 30
0.0
 40
5.0
 50
270.0
 51
0.000000000000007
  0
LINE
  5
14267
  8
1-中柱P
 10
20346.011886013799
 20
16755.38697800001
 30
0.0
 11
20346.011886013799
 21
16814.786978000011
 31
0.0
  0
LINE
  5
14268
  8
1-中柱P
 10
20351.011886013792
 20
16821.38697800001
 30
0.0
 11
20384.411886013801
 21
16821.38697800001
 31
0.0
  0
ARC
  5
14269
  8
1-中柱P
 10
20351.011886013792
 20
16814.786978000011
 30
0.0
 40
6.599999999999997
 50
90.0
 51
180.0
  0
LINE
  5
1426A
  8
1-中柱P
 10
20351.011886013792
 20
16819.786978000011
 30
0.0
 11
20384.411886013801
 21
16819.786978000011
 31
0.0
  0
ARC
  5
1426B
  8
1-中柱P
 10
20351.011886013792
 20
16814.786978000011
 30
0.0
 40
5.0
 50
90.0
 51
180.0
  0
LINE
  5
1426C
  8
1-中柱P
 10
20384.411886013801
 20
16819.786978000011
 30
0.0
 11
20384.411886013801
 21
16821.38697800001
 31
0.0
  0
LINE
  5
1426D
  8
1-中柱P
 10
20402.811886013798
 20
16750.38697800001
 30
0.0
 11
20394.411886013801
 21
16750.38697800001
 31
0.0
  0
ARC
  5
1426E
  8
1-中柱P
 10
20402.811886013798
 20
16743.786978
 30
0.0
 40
6.599999999999997
 50
0.000000000000007
 51
90.0
  0
ARC
  5
1426F
  8
1-中柱P
 10
20394.411886013801
 20
16755.38697800001
 30
0.0
 40
5.0
 50
180.0
 51
270.0
  0
LINE
  5
14270
  8
1-中柱P
 10
20394.411886013801
 20
16748.786978
 30
0.0
 11
20402.811886013798
 21
16748.786978
 31
0.0
  0
ARC
  5
14271
  8
1-中柱P
 10
20394.411886013801
 20
16755.38697800001
 30
0.0
 40
6.599999999999997
 50
180.0
 51
270.0
  0
ARC
  5
14272
  8
1-中柱P
  6
HIDE-M
 62
     6
 10
20360.311886013809
 20
16818.786978000011
 30
0.0
 40
2.6000000000000001
 50
0.000000000000007
 51
90.0
  0
LINE
  5
14273
  8
1-中柱P
  6
HIDE-M
 62
     6
 10
20371.911886013801
 20
16820.836368153181
 30
0.0
 11
20371.911886013801
 21
16817.186978000002
 31
0.0
  0
LINE
  5
14274
  8
1-中柱P
  6
HIDE-M
 62
     6
 10
20361.91188601379
 20
16820.836368153181
 30
0.0
 11
20361.91188601379
 21
16817.186978000002
 31
0.0
  0
LINE
  5
14275
  8
1-中柱P
  6
1PL-M
 62
     6
 10
20366.911886013801
 20
16826.386977999999
 30
0.0
 11
20366.911886013801
 21
16812.186978000009
 31
0.0
  0
ARC
  5
14276
  8
1-中柱P
  6
HIDE-M
 62
     6
 10
20373.511886013792
 20
16818.786978000011
 30
0.0
 40
2.6000000000000001
 50
90.0
 51
180.0
  0
LINE
  5
14277
  8
1-中柱P
  6
HIDE-M
 62
     6
 10
20362.911886013801
 20
16818.786978000011
 30
0.0
 11
20362.911886013801
 21
16817.186978000002
 31
0.0
  0
LINE
  5
14278
  8
1-中柱P
  6
HIDE-M
 62
     6
 10
20370.911886013801
 20
16818.786978000011
 30
0.0
 11
20370.911886013801
 21
16817.186978000002
 31
0.0
  0
LINE
  5
14279
  8
1-中柱P
 10
20387.811886013798
 20
16755.38697800001
 30
0.0
 11
20387.811886013798
 21
16765.386977999999
 31
0.0
  0
LINE
  5
1427A
  8
1-中柱P
 10
20389.411886013801
 20
16755.38697800001
 30
0.0
 11
20389.411886013801
 21
16765.386977999999
 31
0.0
  0
LINE
  5
1427B
  8
1-中柱P
 10
20387.811886013798
 20
16765.386977999999
 30
0.0
 11
20389.411886013801
 21
16765.386977999999
 31
0.0
  0
LINE
  5
1427C
  8
1-中柱P
  6
1PL-M
 62
     6
 10
20339.411886013801
 20
16786.38697800001
 30
0.0
 11
20353.611886013779
 21
16786.38697800001
 31
0.0
  0
LINE
  5
1427D
  8
1-中柱P
  6
HIDE-M
 62
     6
 10
20335.511886013792
 20
16729.386977999999
 30
0.0
 11
20323.911886013801
 21
16729.386977999999
 31
0.0
  0
LINE
  5
1427E
  8
1-中柱P
  6
HIDE-M
 62
     6
 10
20335.511886013792
 20
16721.38697800001
 30
0.0
 11
20323.911886013801
 21
16721.38697800001
 31
0.0
  0
LINE
  5
1427F
  8
1-中柱P
  6
HIDE-M
 62
     6
 10
20335.511886013792
 20
16728.386977999999
 30
0.0
 11
20323.911886013801
 21
16728.386977999999
 31
0.0
  0
LINE
  5
14280
  8
1-中柱P
  6
HIDE-M
 62
     6
 10
20335.511886013792
 20
16722.38697800001
 30
0.0
 11
20323.911886013801
 21
16722.38697800001
 31
0.0
  0
LINE
  5
14281
  8
1-中柱P
 10
20334.511886013799
 20
16719.88697800001
 30
0.0
 11
20327.511886013799
 21
16719.88697800001
 31
0.0
  0
LINE
  5
14282
  8
1-中柱P
 10
20327.511886013799
 20
16730.886977999999
 30
0.0
 11
20334.511886013799
 21
16730.886977999999
 31
0.0
  0
LINE
  5
14283
  8
1-中柱P
 10
20327.511886013799
 20
16731.63697800001
 30
0.0
 11
20327.511886013799
 21
16719.13697800001
 31
0.0
  0
LINE
  5
14284
  8
1-中柱P
 10
20323.911886013801
 20
16731.38697800001
 30
0.0
 11
20323.911886013801
 21
16719.386977999999
 31
0.0
  0
LINE
  5
14285
  8
1-中柱P
  6
HIDE-M
 62
     6
 10
20326.011886013792
 20
16719.88697800001
 30
0.0
 11
20324.411886013801
 21
16719.88697800001
 31
0.0
  0
LINE
  5
14286
  8
1-中柱P
 10
20323.911886013801
 20
16719.386977999999
 30
0.0
 11
20324.411886013801
 21
16719.88697800001
 31
0.0
  0
ARC
  5
14287
  8
1-中柱P
 10
20326.761886013799
 20
16719.13697800001
 30
0.0
 40
0.75
 50
180.0
 51
0.000000000000007
  0
LINE
  5
14288
  8
1-中柱P
  6
HIDE-M
 62
     6
 10
20324.411886013801
 20
16730.886977999999
 30
0.0
 11
20326.011886013792
 21
16730.886977999999
 31
0.0
  0
LINE
  5
14289
  8
1-中柱P
 10
20323.911886013801
 20
16731.38697800001
 30
0.0
 11
20324.411886013801
 21
16730.886977999999
 31
0.0
  0
ARC
  5
1428A
  8
1-中柱P
 10
20326.761886013799
 20
16731.63697800001
 30
0.0
 40
0.75
 50
0.000000000000007
 51
180.0
  0
LINE
  5
1428B
  8
1-中柱P
 10
20335.511886013792
 20
16729.88697800001
 30
0.0
 11
20335.511886013792
 21
16720.88697800001
 31
0.0
  0
ARC
  5
1428C
  8
1-中柱P
 10
20334.511886013799
 20
16720.88697800001
 30
0.0
 40
1.0
 50
270.0
 51
0.000000000000007
  0
ARC
  5
1428D
  8
1-中柱P
 10
20334.511886013799
 20
16729.88697800001
 30
0.0
 40
1.0
 50
0.000000000000007
 51
90.0
  0
LINE
  5
1428E
  8
1-中柱P
  6
1PL-M
 62
     6
 10
20340.51188601381
 20
16725.38697800001
 30
0.0
 11
20318.911886013801
 21
16725.38697800001
 31
0.0
  0
LINE
  5
1428F
  8
1-中柱P
 10
20334.511886013799
 20
16709.88697800001
 30
0.0
 11
20327.511886013799
 21
16709.88697800001
 31
0.0
  0
LINE
  5
14290
  8
1-中柱P
 10
20323.911886013801
 20
16717.38697800001
 30
0.0
 11
20323.911886013801
 21
16709.386977999999
 31
0.0
  0
LINE
  5
14291
  8
1-中柱P
  6
HIDE-M
 62
     6
 10
20326.011886013792
 20
16709.88697800001
 30
0.0
 11
20324.411886013801
 21
16709.88697800001
 31
0.0
  0
LINE
  5
14292
  8
1-中柱P
 10
20323.911886013801
 20
16709.386977999999
 30
0.0
 11
20324.411886013801
 21
16709.88697800001
 31
0.0
  0
ARC
  5
14293
  8
1-中柱P
 10
20326.761886013799
 20
16709.136977999999
 30
0.0
 40
0.75
 50
180.0
 51
0.000000000000007
  0
LINE
  5
14294
  8
1-中柱P
 10
20335.511886013792
 20
16718.886977999999
 30
0.0
 11
20335.511886013792
 21
16710.88697800001
 31
0.0
  0
ARC
  5
14295
  8
1-中柱P
 10
20334.511886013799
 20
16710.88697800001
 30
0.0
 40
1.0
 50
270.0
 51
0.000000000000007
  0
LINE
  5
14296
  8
1-中柱P
  6
1PL-M
 62
     6
 10
20340.51188601381
 20
16715.38697800001
 30
0.0
 11
20318.911886013801
 21
16715.38697800001
 31
0.0
  0
LINE
  5
14297
  8
1-中柱P
 10
20327.511886013799
 20
16717.13697800001
 30
0.0
 11
20327.511886013799
 21
16709.136977999999
 31
0.0
  0
LINE
  5
14298
  8
1-中柱P
  6
HIDE-M
 62
     6
 10
20335.511886013792
 20
16711.38697800001
 30
0.0
 11
20323.911886013801
 21
16711.38697800001
 31
0.0
  0
LINE
  5
14299
  8
1-中柱P
  6
HIDE-M
 62
     6
 10
20335.511886013792
 20
16712.38697800001
 30
0.0
 11
20323.911886013801
 21
16712.38697800001
 31
0.0
  0
LINE
  5
1429A
  8
1-中柱P
  6
HIDE-M
 62
     6
 10
20398.311886013809
 20
16729.386977999999
 30
0.0
 11
20409.911886013801
 21
16729.386977999999
 31
0.0
  0
LINE
  5
1429B
  8
1-中柱P
  6
HIDE-M
 62
     6
 10
20398.311886013809
 20
16721.38697800001
 30
0.0
 11
20409.911886013801
 21
16721.38697800001
 31
0.0
  0
LINE
  5
1429C
  8
1-中柱P
  6
HIDE-M
 62
     6
 10
20398.311886013809
 20
16728.386977999999
 30
0.0
 11
20409.911886013801
 21
16728.386977999999
 31
0.0
  0
LINE
  5
1429D
  8
1-中柱P
  6
HIDE-M
 62
     6
 10
20398.311886013809
 20
16722.38697800001
 30
0.0
 11
20409.911886013801
 21
16722.38697800001
 31
0.0
  0
LINE
  5
1429E
  8
1-中柱P
 10
20399.311886013798
 20
16719.88697800001
 30
0.0
 11
20406.311886013809
 21
16719.88697800001
 31
0.0
  0
LINE
  5
1429F
  8
1-中柱P
 10
20406.311886013809
 20
16730.886977999999
 30
0.0
 11
20399.311886013798
 21
16730.886977999999
 31
0.0
  0
LINE
  5
142A0
  8
1-中柱P
 10
20406.311886013809
 20
16731.63697800001
 30
0.0
 11
20406.311886013809
 21
16719.13697800001
 31
0.0
  0
LINE
  5
142A1
  8
1-中柱P
 10
20409.911886013801
 20
16731.38697800001
 30
0.0
 11
20409.911886013801
 21
16719.386977999999
 31
0.0
  0
LINE
  5
142A2
  8
1-中柱P
  6
HIDE-M
 62
     6
 10
20407.811886013809
 20
16719.88697800001
 30
0.0
 11
20409.41188601379
 21
16719.88697800001
 31
0.0
  0
LINE
  5
142A3
  8
1-中柱P
 10
20409.911886013801
 20
16719.386977999999
 30
0.0
 11
20409.41188601379
 21
16719.88697800001
 31
0.0
  0
ARC
  5
142A4
  8
1-中柱P
 10
20407.061886013798
 20
16719.13697800001
 30
0.0
 40
0.75
 50
180.0
 51
0.000000000000007
  0
LINE
  5
142A5
  8
1-中柱P
  6
HIDE-M
 62
     6
 10
20409.41188601379
 20
16730.886977999999
 30
0.0
 11
20407.811886013809
 21
16730.886977999999
 31
0.0
  0
LINE
  5
142A6
  8
1-中柱P
 10
20409.911886013801
 20
16731.38697800001
 30
0.0
 11
20409.41188601379
 21
16730.886977999999
 31
0.0
  0
ARC
  5
142A7
  8
1-中柱P
 10
20407.061886013798
 20
16731.63697800001
 30
0.0
 40
0.75
 50
0.000000000000007
 51
180.0
  0
LINE
  5
142A8
  8
1-中柱P
 10
20398.311886013809
 20
16729.88697800001
 30
0.0
 11
20398.311886013809
 21
16720.88697800001
 31
0.0
  0
ARC
  5
142A9
  8
1-中柱P
 10
20399.311886013798
 20
16720.88697800001
 30
0.0
 40
1.0
 50
180.0
 51
270.0
  0
ARC
  5
142AA
  8
1-中柱P
 10
20399.311886013798
 20
16729.88697800001
 30
0.0
 40
1.0
 50
90.0
 51
180.0
  0
LINE
  5
142AB
  8
1-中柱P
  6
1PL-M
 62
     6
 10
20393.311886013798
 20
16725.38697800001
 30
0.0
 11
20414.911886013801
 21
16725.38697800001
 31
0.0
  0
LINE
  5
142AC
  8
1-中柱P
 10
20399.311886013798
 20
16709.88697800001
 30
0.0
 11
20406.311886013809
 21
16709.88697800001
 31
0.0
  0
LINE
  5
142AD
  8
1-中柱P
 10
20409.911886013801
 20
16717.38697800001
 30
0.0
 11
20409.911886013801
 21
16709.386977999999
 31
0.0
  0
LINE
  5
142AE
  8
1-中柱P
  6
HIDE-M
 62
     6
 10
20407.811886013809
 20
16709.88697800001
 30
0.0
 11
20409.41188601379
 21
16709.88697800001
 31
0.0
  0
LINE
  5
142AF
  8
1-中柱P
 10
20409.911886013801
 20
16709.386977999999
 30
0.0
 11
20409.41188601379
 21
16709.88697800001
 31
0.0
  0
ARC
  5
142B0
  8
1-中柱P
 10
20407.061886013798
 20
16709.136977999999
 30
0.0
 40
0.75
 50
180.0
 51
0.000000000000007
  0
LINE
  5
142B1
  8
1-中柱P
 10
20398.311886013809
 20
16718.886977999999
 30
0.0
 11
20398.311886013809
 21
16710.88697800001
 31
0.0
  0
ARC
  5
142B2
  8
1-中柱P
 10
20399.311886013798
 20
16710.88697800001
 30
0.0
 40
1.0
 50
180.0
 51
270.0
  0
LINE
  5
142B3
  8
1-中柱P
  6
1PL-M
 62
     6
 10
20393.311886013798
 20
16715.38697800001
 30
0.0
 11
20414.911886013801
 21
16715.38697800001
 31
0.0
  0
LINE
  5
142B4
  8
1-中柱P
 10
20406.311886013809
 20
16717.13697800001
 30
0.0
 11
20406.311886013809
 21
16709.136977999999
 31
0.0
  0
LINE
  5
142B5
  8
1-中柱P
  6
HIDE-M
 62
     6
 10
20398.311886013809
 20
16711.38697800001
 30
0.0
 11
20409.911886013801
 21
16711.38697800001
 31
0.0
  0
LINE
  5
142B6
  8
1-中柱P
  6
HIDE-M
 62
     6
 10
20398.311886013809
 20
16712.38697800001
 30
0.0
 11
20409.911886013801
 21
16712.38697800001
 31
0.0
  0
LINE
  5
142B7
  8
1-中柱カバ-P
 10
20409.41188601379
 20
16757.08697800001
 30
0.0
 11
20409.41188601379
 21
16816.38697800001
 31
0.0
  0
ARC
  5
142B8
  8
1-中柱カバ-P
 10
20402.811886013798
 20
16816.38697800001
 30
0.0
 40
6.599999999999997
 50
0.000000000000007
 51
90.0
  0
LINE
  5
142B9
  8
1-中柱カバ-P
 10
20407.811886013809
 20
16757.08697800001
 30
0.0
 11
20407.811886013809
 21
16816.38697800001
 31
0.0
  0
ARC
  5
142BA
  8
1-中柱カバ-P
 10
20402.811886013798
 20
16757.08697800001
 30
0.0
 40
5.0
 50
270.0
 51
0.000000000000007
  0
LINE
  5
142BB
  8
1-中柱カバ-P
 10
20402.811886013798
 20
16822.986978000001
 30
0.0
 11
20331.01188601381
 21
16822.986978000001
 31
0.0
  0
ARC
  5
142BC
  8
1-中柱カバ-P
 10
20331.01188601381
 20
16816.38697800001
 30
0.0
 40
6.599999999999997
 50
90.0
 51
180.0
  0
LINE
  5
142BD
  8
1-中柱カバ-P
 10
20402.811886013798
 20
16821.38697800001
 30
0.0
 11
20331.01188601381
 21
16821.38697800001
 31
0.0
  0
ARC
  5
142BE
  8
1-中柱カバ-P
 10
20331.01188601381
 20
16816.38697800001
 30
0.0
 40
5.0
 50
90.0
 51
180.0
  0
ARC
  5
142BF
  8
1-中柱カバ-P
 10
20402.811886013798
 20
16816.38697800001
 30
0.0
 40
5.0
 50
0.000000000000007
 51
90.0
  0
LINE
  5
142C0
  8
1-中柱カバ-P
 10
20324.411886013801
 20
16816.38697800001
 30
0.0
 11
20324.411886013801
 21
16757.08697800001
 31
0.0
  0
LINE
  5
142C1
  8
1-中柱カバ-P
 10
20326.011886013792
 20
16816.38697800001
 30
0.0
 11
20326.011886013792
 21
16757.08697800001
 31
0.0
  0
ARC
  5
142C2
  8
1-中柱カバ-P
 10
20331.01188601381
 20
16757.08697800001
 30
0.0
 40
5.0
 50
180.0
 51
270.0
  0
LINE
  5
142C3
  8
1-中柱カバ-P
  6
1PL-M
 62
     6
 10
20366.911886013801
 20
16815.486978000001
 30
0.0
 11
20366.911886013801
 21
16828.486978000001
 31
0.0
  0
LINE
  5
142C4
  8
1-中柱カバ-P
  6
HIDE-M
 62
     6
 10
20373.911886013801
 20
16822.986978000001
 30
0.0
 11
20373.911886013801
 21
16821.38697800001
 31
0.0
  0
LINE
  5
142C5
  8
1-中柱カバ-P
  6
HIDE-M
 62
     6
 10
20359.91188601379
 20
16822.986978000001
 30
0.0
 11
20359.91188601379
 21
16821.38697800001
 31
0.0
  0
ARC
  5
142C6
  8
1-中柱カバ-P
 10
20402.811886013798
 20
16757.08697800001
 30
0.0
 40
6.599999999999997
 50
270.0
 51
0.000000000000007
  0
ARC
  5
142C7
  8
1-中柱カバ-P
 10
20331.01188601381
 20
16757.08697800001
 30
0.0
 40
6.599999999999997
 50
180.0
 51
270.0
  0
LINE
  5
142C8
  8
1-中柱カバ-P
 10
20339.411886013801
 20
16750.486978000001
 30
0.0
 11
20331.01188601381
 21
16750.486978000001
 31
0.0
  0
LINE
  5
142C9
  8
1-中柱カバ-P
 10
20394.411886013801
 20
16750.486978000001
 30
0.0
 11
20402.811886013798
 21
16750.486978000001
 31
0.0
  0
LINE
  5
142CA
  8
1-中柱カバ-P
 10
20339.411886013801
 20
16752.08697800001
 30
0.0
 11
20331.01188601381
 21
16752.08697800001
 31
0.0
  0
LINE
  5
142CB
  8
1-中柱カバ-P
 10
20394.411886013801
 20
16752.08697800001
 30
0.0
 11
20402.811886013798
 21
16752.08697800001
 31
0.0
  0
LINE
  5
142CC
  8
1-中柱カバ-P
 10
20394.411886013801
 20
16752.08697800001
 30
0.0
 11
20394.411886013801
 21
16750.486978000001
 31
0.0
  0
LINE
  5
142CD
  8
1-中柱カバ-P
 10
20339.411886013801
 20
16750.486978000001
 30
0.0
 11
20339.411886013801
 21
16752.08697800001
 31
0.0
  0
LINE
  5
142CE
  8
1-中柱カバ-P
  6
HIDE-M
 62
     6
 10
20335.511886013792
 20
16771.486978000001
 30
0.0
 11
20323.911886013801
 21
16771.486978000001
 31
0.0
  0
LINE
  5
142CF
  8
1-中柱カバ-P
  6
HIDE-M
 62
     6
 10
20335.511886013792
 20
16779.486978000001
 30
0.0
 11
20323.911886013801
 21
16779.486978000001
 31
0.0
  0
LINE
  5
142D0
  8
1-中柱カバ-P
  6
HIDE-M
 62
     6
 10
20335.511886013792
 20
16772.486978000001
 30
0.0
 11
20323.911886013801
 21
16772.486978000001
 31
0.0
  0
LINE
  5
142D1
  8
1-中柱カバ-P
  6
HIDE-M
 62
     6
 10
20335.511886013792
 20
16778.486978000001
 30
0.0
 11
20323.911886013801
 21
16778.486978000001
 31
0.0
  0
LINE
  5
142D2
  8
1-中柱カバ-P
 10
20334.511886013799
 20
16780.986978000001
 30
0.0
 11
20327.511886013799
 21
16780.986978000001
 31
0.0
  0
LINE
  5
142D3
  8
1-中柱カバ-P
 10
20327.511886013799
 20
16769.986978000001
 30
0.0
 11
20334.511886013799
 21
16769.986978000001
 31
0.0
  0
LINE
  5
142D4
  8
1-中柱カバ-P
 10
20327.511886013799
 20
16769.236978000001
 30
0.0
 11
20327.511886013799
 21
16781.736978000001
 31
0.0
  0
LINE
  5
142D5
  8
1-中柱カバ-P
 10
20323.911886013801
 20
16769.486978000001
 30
0.0
 11
20323.911886013801
 21
16781.486978000001
 31
0.0
  0
LINE
  5
142D6
  8
1-中柱カバ-P
  6
HIDE-M
 62
     6
 10
20326.011886013792
 20
16780.986978000001
 30
0.0
 11
20324.411886013801
 21
16780.986978000001
 31
0.0
  0
LINE
  5
142D7
  8
1-中柱カバ-P
 10
20323.911886013801
 20
16781.486978000001
 30
0.0
 11
20324.411886013801
 21
16780.986978000001
 31
0.0
  0
ARC
  5
142D8
  8
1-中柱カバ-P
 10
20326.761886013799
 20
16781.736978000001
 30
0.0
 40
0.75
 50
0.000000000000007
 51
180.0
  0
LINE
  5
142D9
  8
1-中柱カバ-P
  6
HIDE-M
 62
     6
 10
20324.411886013801
 20
16769.986978000001
 30
0.0
 11
20326.011886013792
 21
16769.986978000001
 31
0.0
  0
LINE
  5
142DA
  8
1-中柱カバ-P
 10
20323.911886013801
 20
16769.486978000001
 30
0.0
 11
20324.411886013801
 21
16769.986978000001
 31
0.0
  0
ARC
  5
142DB
  8
1-中柱カバ-P
 10
20326.761886013799
 20
16769.236978000001
 30
0.0
 40
0.75
 50
180.0
 51
0.000000000000007
  0
LINE
  5
142DC
  8
1-中柱カバ-P
 10
20335.511886013792
 20
16770.986978000001
 30
0.0
 11
20335.511886013792
 21
16779.986978000001
 31
0.0
  0
ARC
  5
142DD
  8
1-中柱カバ-P
 10
20334.511886013799
 20
16779.986978000001
 30
0.0
 40
1.0
 50
0.000000000000007
 51
90.0
  0
ARC
  5
142DE
  8
1-中柱カバ-P
 10
20334.511886013799
 20
16770.986978000001
 30
0.0
 40
1.0
 50
270.0
 51
0.000000000000007
  0
LINE
  5
142DF
  8
1-中柱カバ-P
  6
1PL-M
 62
     6
 10
20340.51188601381
 20
16775.486978000001
 30
0.0
 11
20318.911886013801
 21
16775.486978000001
 31
0.0
  0
LINE
  5
142E0
  8
1-中柱カバ-P
 10
20334.511886013799
 20
16790.986978000001
 30
0.0
 11
20327.511886013799
 21
16790.986978000001
 31
0.0
  0
LINE
  5
142E1
  8
1-中柱カバ-P
 10
20323.911886013801
 20
16783.486978000001
 30
0.0
 11
20323.911886013801
 21
16791.486978000001
 31
0.0
  0
LINE
  5
142E2
  8
1-中柱カバ-P
  6
HIDE-M
 62
     6
 10
20326.011886013792
 20
16790.986978000001
 30
0.0
 11
20324.411886013801
 21
16790.986978000001
 31
0.0
  0
LINE
  5
142E3
  8
1-中柱カバ-P
 10
20323.911886013801
 20
16791.486978000001
 30
0.0
 11
20324.411886013801
 21
16790.986978000001
 31
0.0
  0
ARC
  5
142E4
  8
1-中柱カバ-P
 10
20326.761886013799
 20
16791.736978000001
 30
0.0
 40
0.75
 50
0.000000000000007
 51
180.0
  0
LINE
  5
142E5
  8
1-中柱カバ-P
 10
20335.511886013792
 20
16781.986978000001
 30
0.0
 11
20335.511886013792
 21
16789.986978000001
 31
0.0
  0
ARC
  5
142E6
  8
1-中柱カバ-P
 10
20334.511886013799
 20
16789.986978000001
 30
0.0
 40
1.0
 50
0.000000000000007
 51
90.0
  0
LINE
  5
142E7
  8
1-中柱カバ-P
  6
1PL-M
 62
     6
 10
20340.51188601381
 20
16785.486978000001
 30
0.0
 11
20318.911886013801
 21
16785.486978000001
 31
0.0
  0
LINE
  5
142E8
  8
1-中柱カバ-P
 10
20327.511886013799
 20
16783.736978000001
 30
0.0
 11
20327.511886013799
 21
16791.736978000001
 31
0.0
  0
LINE
  5
142E9
  8
1-中柱カバ-P
  6
HIDE-M
 62
     6
 10
20398.311886013809
 20
16771.486978000001
 30
0.0
 11
20409.911886013801
 21
16771.486978000001
 31
0.0
  0
LINE
  5
142EA
  8
1-中柱カバ-P
  6
HIDE-M
 62
     6
 10
20398.311886013809
 20
16779.486978000001
 30
0.0
 11
20409.911886013801
 21
16779.486978000001
 31
0.0
  0
LINE
  5
142EB
  8
1-中柱カバ-P
  6
HIDE-M
 62
     6
 10
20398.311886013809
 20
16772.486978000001
 30
0.0
 11
20409.911886013801
 21
16772.486978000001
 31
0.0
  0
LINE
  5
142EC
  8
1-中柱カバ-P
  6
HIDE-M
 62
     6
 10
20398.311886013809
 20
16778.486978000001
 30
0.0
 11
20409.911886013801
 21
16778.486978000001
 31
0.0
  0
LINE
  5
142ED
  8
1-中柱カバ-P
 10
20399.311886013798
 20
16780.986978000001
 30
0.0
 11
20406.311886013809
 21
16780.986978000001
 31
0.0
  0
LINE
  5
142EE
  8
1-中柱カバ-P
 10
20406.311886013809
 20
16769.986978000001
 30
0.0
 11
20399.311886013798
 21
16769.986978000001
 31
0.0
  0
LINE
  5
142EF
  8
1-中柱カバ-P
 10
20406.311886013809
 20
16769.236978000001
 30
0.0
 11
20406.311886013809
 21
16781.736978000001
 31
0.0
  0
LINE
  5
142F0
  8
1-中柱カバ-P
 10
20409.911886013801
 20
16769.486978000001
 30
0.0
 11
20409.911886013801
 21
16781.486978000001
 31
0.0
  0
LINE
  5
142F1
  8
1-中柱カバ-P
  6
HIDE-M
 62
     6
 10
20407.811886013809
 20
16780.986978000001
 30
0.0
 11
20409.41188601379
 21
16780.986978000001
 31
0.0
  0
LINE
  5
142F2
  8
1-中柱カバ-P
 10
20409.911886013801
 20
16781.486978000001
 30
0.0
 11
20409.41188601379
 21
16780.986978000001
 31
0.0
  0
ARC
  5
142F3
  8
1-中柱カバ-P
 10
20407.061886013798
 20
16781.736978000001
 30
0.0
 40
0.75
 50
0.000000000000007
 51
180.0
  0
LINE
  5
142F4
  8
1-中柱カバ-P
  6
HIDE-M
 62
     6
 10
20409.41188601379
 20
16769.986978000001
 30
0.0
 11
20407.811886013809
 21
16769.986978000001
 31
0.0
  0
LINE
  5
142F5
  8
1-中柱カバ-P
 10
20409.911886013801
 20
16769.486978000001
 30
0.0
 11
20409.41188601379
 21
16769.986978000001
 31
0.0
  0
ARC
  5
142F6
  8
1-中柱カバ-P
 10
20407.061886013798
 20
16769.236978000001
 30
0.0
 40
0.75
 50
180.0
 51
0.000000000000007
  0
LINE
  5
142F7
  8
1-中柱カバ-P
 10
20398.311886013809
 20
16770.986978000001
 30
0.0
 11
20398.311886013809
 21
16779.986978000001
 31
0.0
  0
ARC
  5
142F8
  8
1-中柱カバ-P
 10
20399.311886013798
 20
16779.986978000001
 30
0.0
 40
1.0
 50
90.0
 51
180.0
  0
ARC
  5
142F9
  8
1-中柱カバ-P
 10
20399.311886013798
 20
16770.986978000001
 30
0.0
 40
1.0
 50
180.0
 51
270.0
  0
LINE
  5
142FA
  8
1-中柱カバ-P
  6
1PL-M
 62
     6
 10
20393.311886013798
 20
16775.486978000001
 30
0.0
 11
20414.911886013801
 21
16775.486978000001
 31
0.0
  0
LINE
  5
142FB
  8
1-中柱カバ-P
 10
20399.311886013798
 20
16790.986978000001
 30
0.0
 11
20406.311886013809
 21
16790.986978000001
 31
0.0
  0
LINE
  5
142FC
  8
1-中柱カバ-P
 10
20409.911886013801
 20
16783.486978000001
 30
0.0
 11
20409.911886013801
 21
16791.486978000001
 31
0.0
  0
LINE
  5
142FD
  8
1-中柱カバ-P
  6
HIDE-M
 62
     6
 10
20407.811886013809
 20
16790.986978000001
 30
0.0
 11
20409.41188601379
 21
16790.986978000001
 31
0.0
  0
LINE
  5
142FE
  8
1-中柱カバ-P
 10
20409.911886013801
 20
16791.486978000001
 30
0.0
 11
20409.41188601379
 21
16790.986978000001
 31
0.0
  0
ARC
  5
142FF
  8
1-中柱カバ-P
 10
20407.061886013798
 20
16791.736978000001
 30
0.0
 40
0.75
 50
0.000000000000007
 51
180.0
  0
LINE
  5
14300
  8
1-中柱カバ-P
 10
20398.311886013809
 20
16781.986978000001
 30
0.0
 11
20398.311886013809
 21
16789.986978000001
 31
0.0
  0
ARC
  5
14301
  8
1-中柱カバ-P
 10
20399.311886013798
 20
16789.986978000001
 30
0.0
 40
1.0
 50
90.0
 51
180.0
  0
LINE
  5
14302
  8
1-中柱カバ-P
  6
1PL-M
 62
     6
 10
20393.311886013798
 20
16785.486978000001
 30
0.0
 11
20414.911886013801
 21
16785.486978000001
 31
0.0
  0
LINE
  5
14303
  8
1-中柱カバ-P
 10
20406.311886013809
 20
16783.736978000001
 30
0.0
 11
20406.311886013809
 21
16791.736978000001
 31
0.0
  0
LINE
  5
14304
  8
1-中柱カバ-P
  6
HIDE-M
 62
     6
 10
20335.511886013792
 20
16789.486978000001
 30
0.0
 11
20323.911886013801
 21
16789.486978000001
 31
0.0
  0
LINE
  5
14305
  8
1-中柱カバ-P
  6
HIDE-M
 62
     6
 10
20335.511886013792
 20
16788.486978000001
 30
0.0
 11
20323.911886013801
 21
16788.486978000001
 31
0.0
  0
LINE
  5
14306
  8
1-中柱カバ-P
  6
HIDE-M
 62
     6
 10
20398.311886013809
 20
16789.486978000001
 30
0.0
 11
20409.911886013801
 21
16789.486978000001
 31
0.0
  0
LINE
  5
14307
  8
1-中柱カバ-P
  6
HIDE-M
 62
     6
 10
20398.311886013809
 20
16788.486978000001
 30
0.0
 11
20409.911886013801
 21
16788.486978000001
 31
0.0
  0
ARC
  5
14308
  8
1-前柱P
  6
HIDE-M
 62
     6
 10
20370.511886013792
 20
13900.88697800001
 30
0.0
 40
2.6000000000000001
 50
90.0
 51
180.0
  0
LINE
  5
14309
  8
1-前柱P
  6
HIDE-M
 62
     6
 10
20358.911886013801
 20
13902.9363681532
 30
0.0
 11
20358.911886013801
 21
13899.286978
 31
0.0
  0
LINE
  5
1430A
  8
1-前柱P
  6
HIDE-M
 62
     6
 10
20368.911886013801
 20
13902.9363681532
 30
0.0
 11
20368.911886013801
 21
13899.286978
 31
0.0
  0
LINE
  5
1430B
  8
1-前柱P
  6
1PL-M
 62
     6
 10
20363.911886013801
 20
13908.486978000001
 30
0.0
 11
20363.911886013801
 21
13894.286978
 31
0.0
  0
ARC
  5
1430C
  8
1-前柱P
  6
HIDE-M
 62
     6
 10
20357.311886013791
 20
13900.88697800001
 30
0.0
 40
2.6000000000000001
 50
0.000000000000007
 51
90.0
  0
LINE
  5
1430D
  8
1-前柱P
  6
HIDE-M
 62
     6
 10
20367.911886013801
 20
13900.88697800001
 30
0.0
 11
20367.911886013801
 21
13899.286978
 31
0.0
  0
LINE
  5
1430E
  8
1-前柱P
  6
HIDE-M
 62
     6
 10
20359.91188601379
 20
13900.88697800001
 30
0.0
 11
20359.91188601379
 21
13899.286978
 31
0.0
  0
LINE
  5
1430F
  8
1-前柱P
 10
20377.811886013791
 20
13788.58697800001
 30
0.0
 11
20356.011886013792
 21
13788.58697800001
 31
0.0
  0
LINE
  5
14310
  8
1-前柱P
 10
20326.011886013792
 20
13825.88697800001
 30
0.0
 11
20326.011886013792
 21
13818.586977999999
 31
0.0
  0
ARC
  5
14311
  8
1-前柱P
 10
20356.011886013792
 20
13818.586977999999
 30
0.0
 40
30.0
 50
180.0
 51
270.0
  0
ARC
  5
14312
  8
1-前柱P
 10
20356.011886013792
 20
13818.586977999999
 30
0.0
 40
31.600000000000001
 50
180.0
 51
270.0
  0
LINE
  5
14313
  8
1-前柱P
 10
20377.811886013791
 20
13786.986978000001
 30
0.0
 11
20356.011886013792
 21
13786.986978000001
 31
0.0
  0
LINE
  5
14314
  8
1-前柱P
 10
20324.411886013801
 20
13825.88697800001
 30
0.0
 11
20324.411886013801
 21
13818.586977999999
 31
0.0
  0
LINE
  5
14315
  8
1-前柱P
 10
20347.411886013801
 20
13847.486978000001
 30
0.0
 11
20347.411886013801
 21
13837.486978000001
 31
0.0
  0
LINE
  5
14316
  8
1-前柱P
 10
20349.011886013792
 20
13837.486978000001
 30
0.0
 11
20349.011886013792
 21
13847.486978000001
 31
0.0
  0
LINE
  5
14317
  8
1-前柱P
 10
20407.811886013791
 20
13825.88697800001
 30
0.0
 11
20407.811886013791
 21
13818.586977999999
 31
0.0
  0
ARC
  5
14318
  8
1-前柱P
 10
20377.811886013791
 20
13818.586977999999
 30
0.0
 40
30.0
 50
270.0
 51
0.000000000000007
  0
ARC
  5
14319
  8
1-前柱P
 10
20377.811886013791
 20
13818.586977999999
 30
0.0
 40
31.600000000000001
 50
270.0
 51
0.000000000000007
  0
LINE
  5
1431A
  8
1-前柱P
 10
20409.41188601379
 20
13825.88697800001
 30
0.0
 11
20409.41188601379
 21
13818.586977999999
 31
0.0
  0
LINE
  5
1431B
  8
1-前柱P
 10
20402.811886013791
 20
13832.486978000001
 30
0.0
 11
20391.411886013801
 21
13832.486978000001
 31
0.0
  0
ARC
  5
1431C
  8
1-前柱P
 10
20402.811886013791
 20
13825.88697800001
 30
0.0
 40
6.599999999999997
 50
0.000000000000007
 51
90.0
  0
ARC
  5
1431D
  8
1-前柱P
 10
20391.411886013801
 20
13837.486978000001
 30
0.0
 40
5.0
 50
180.0
 51
270.0
  0
LINE
  5
1431E
  8
1-前柱P
 10
20402.811886013791
 20
13830.886978
 30
0.0
 11
20391.411886013801
 21
13830.886978
 31
0.0
  0
ARC
  5
1431F
  8
1-前柱P
 10
20402.811886013791
 20
13825.88697800001
 30
0.0
 40
5.0
 50
0.000000000000007
 51
90.0
  0
LINE
  5
14320
  8
1-前柱P
 10
20386.41188601379
 20
13837.486978000001
 30
0.0
 11
20386.41188601379
 21
13896.886978
 31
0.0
  0
LINE
  5
14321
  8
1-前柱P
 10
20384.811886013791
 20
13837.486978000001
 30
0.0
 11
20384.811886013791
 21
13896.886978
 31
0.0
  0
ARC
  5
14322
  8
1-前柱P
 10
20391.411886013801
 20
13837.486978000001
 30
0.0
 40
6.599999999999997
 50
180.0
 51
270.0
  0
LINE
  5
14323
  8
1-前柱P
 10
20379.811886013791
 20
13903.486978000001
 30
0.0
 11
20346.41188601379
 21
13903.486978000001
 31
0.0
  0
ARC
  5
14324
  8
1-前柱P
 10
20379.811886013791
 20
13896.886978
 30
0.0
 40
6.599999999999997
 50
0.000000000000007
 51
90.0
  0
LINE
  5
14325
  8
1-前柱P
 10
20379.811886013791
 20
13901.88697800001
 30
0.0
 11
20346.41188601379
 21
13901.88697800001
 31
0.0
  0
ARC
  5
14326
  8
1-前柱P
 10
20379.811886013791
 20
13896.886978
 30
0.0
 40
5.0
 50
0.000000000000007
 51
90.0
  0
LINE
  5
14327
  8
1-前柱P
 10
20346.41188601379
 20
13901.88697800001
 30
0.0
 11
20346.41188601379
 21
13903.486978000001
 31
0.0
  0
LINE
  5
14328
  8
1-前柱P
 10
20331.011886013792
 20
13832.486978000001
 30
0.0
 11
20342.411886013801
 21
13832.486978000001
 31
0.0
  0
ARC
  5
14329
  8
1-前柱P
 10
20331.011886013792
 20
13825.88697800001
 30
0.0
 40
6.599999999999997
 50
90.0
 51
180.0
  0
ARC
  5
1432A
  8
1-前柱P
 10
20342.411886013801
 20
13837.486978000001
 30
0.0
 40
5.0
 50
270.0
 51
0.000000000000007
  0
LINE
  5
1432B
  8
1-前柱P
 10
20342.411886013801
 20
13830.886978
 30
0.0
 11
20331.011886013792
 21
13830.886978
 31
0.0
  0
ARC
  5
1432C
  8
1-前柱P
 10
20342.411886013801
 20
13837.486978000001
 30
0.0
 40
6.599999999999997
 50
270.0
 51
0.000000000000007
  0
ARC
  5
1432D
  8
1-前柱P
 10
20331.011886013792
 20
13825.88697800001
 30
0.0
 40
5.0
 50
90.0
 51
180.0
  0
LINE
  5
1432E
  8
1-前柱P
 10
20347.411886013801
 20
13847.486978000001
 30
0.0
 11
20349.011886013792
 21
13847.486978000001
 31
0.0
  0
LINE
  5
1432F
  8
1-前柱カバ-P
 10
20324.411886013801
 20
13839.186977999991
 30
0.0
 11
20324.411886013801
 21
13898.486978000001
 31
0.0
  0
ARC
  5
14330
  8
1-前柱カバ-P
 10
20331.011886013792
 20
13898.486978000001
 30
0.0
 40
6.599999999999997
 50
90.0
 51
180.0
  0
LINE
  5
14331
  8
1-前柱カバ-P
 10
20326.011886013792
 20
13839.186977999991
 30
0.0
 11
20326.011886013792
 21
13898.486978000001
 31
0.0
  0
ARC
  5
14332
  8
1-前柱カバ-P
 10
20331.011886013792
 20
13839.186977999991
 30
0.0
 40
5.0
 50
180.0
 51
270.0
  0
LINE
  5
14333
  8
1-前柱カバ-P
 10
20331.011886013792
 20
13905.086977999999
 30
0.0
 11
20402.811886013791
 21
13905.086977999999
 31
0.0
  0
ARC
  5
14334
  8
1-前柱カバ-P
 10
20402.811886013791
 20
13898.486978000001
 30
0.0
 40
6.599999999999997
 50
0.000000000000007
 51
90.0
  0
LINE
  5
14335
  8
1-前柱カバ-P
 10
20331.011886013792
 20
13903.486978000001
 30
0.0
 11
20402.811886013791
 21
13903.486978000001
 31
0.0
  0
ARC
  5
14336
  8
1-前柱カバ-P
 10
20402.811886013791
 20
13898.486978000001
 30
0.0
 40
5.0
 50
0.000000000000007
 51
90.0
  0
ARC
  5
14337
  8
1-前柱カバ-P
 10
20331.011886013792
 20
13898.486978000001
 30
0.0
 40
5.0
 50
90.0
 51
180.0
  0
LINE
  5
14338
  8
1-前柱カバ-P
 10
20409.41188601379
 20
13898.486978000001
 30
0.0
 11
20409.41188601379
 21
13839.186977999991
 31
0.0
  0
LINE
  5
14339
  8
1-前柱カバ-P
 10
20407.811886013791
 20
13898.486978000001
 30
0.0
 11
20407.811886013791
 21
13839.186977999991
 31
0.0
  0
ARC
  5
1433A
  8
1-前柱カバ-P
 10
20402.811886013791
 20
13839.186977999991
 30
0.0
 40
5.0
 50
270.0
 51
0.000000000000007
  0
LINE
  5
1433B
  8
1-前柱カバ-P
  6
1PL-M
 62
     6
 10
20366.911886013801
 20
13897.586977999999
 30
0.0
 11
20366.911886013801
 21
13910.58697800001
 31
0.0
  0
LINE
  5
1433C
  8
1-前柱カバ-P
  6
HIDE-M
 62
     6
 10
20359.91188601379
 20
13905.086977999999
 30
0.0
 11
20359.91188601379
 21
13903.486978000001
 31
0.0
  0
LINE
  5
1433D
  8
1-前柱カバ-P
  6
HIDE-M
 62
     6
 10
20373.911886013801
 20
13905.086977999999
 30
0.0
 11
20373.911886013801
 21
13903.486978000001
 31
0.0
  0
ARC
  5
1433E
  8
1-前柱カバ-P
 10
20331.011886013792
 20
13839.186977999991
 30
0.0
 40
6.599999999999997
 50
180.0
 51
270.0
  0
ARC
  5
1433F
  8
1-前柱カバ-P
 10
20402.811886013791
 20
13839.186977999991
 30
0.0
 40
6.599999999999997
 50
270.0
 51
0.000000000000007
  0
LINE
  5
14340
  8
1-前柱カバ-P
 10
20394.411886013801
 20
13832.586977999999
 30
0.0
 11
20402.811886013791
 21
13832.586977999999
 31
0.0
  0
LINE
  5
14341
  8
1-前柱カバ-P
 10
20339.411886013801
 20
13832.586977999999
 30
0.0
 11
20331.011886013792
 21
13832.586977999999
 31
0.0
  0
LINE
  5
14342
  8
1-前柱カバ-P
 10
20394.411886013801
 20
13834.186978
 30
0.0
 11
20402.811886013791
 21
13834.186978
 31
0.0
  0
LINE
  5
14343
  8
1-前柱カバ-P
 10
20339.411886013801
 20
13834.186978
 30
0.0
 11
20331.011886013792
 21
13834.186978
 31
0.0
  0
LINE
  5
14344
  8
1-前柱カバ-P
 10
20339.411886013801
 20
13834.186978
 30
0.0
 11
20339.411886013801
 21
13832.586977999999
 31
0.0
  0
LINE
  5
14345
  8
1-前柱カバ-P
 10
20394.411886013801
 20
13832.586977999999
 30
0.0
 11
20394.411886013801
 21
13834.186978
 31
0.0
  0
LINE
  5
14346
  8
1-前柱カバ-P
  6
HIDE-M
 62
     6
 10
20398.311886013791
 20
13853.586977999999
 30
0.0
 11
20409.911886013801
 21
13853.586977999999
 31
0.0
  0
LINE
  5
14347
  8
1-前柱カバ-P
  6
HIDE-M
 62
     6
 10
20398.311886013791
 20
13861.586977999999
 30
0.0
 11
20409.911886013801
 21
13861.586977999999
 31
0.0
  0
LINE
  5
14348
  8
1-前柱カバ-P
  6
HIDE-M
 62
     6
 10
20398.311886013791
 20
13854.586977999999
 30
0.0
 11
20409.911886013801
 21
13854.586977999999
 31
0.0
  0
LINE
  5
14349
  8
1-前柱カバ-P
  6
HIDE-M
 62
     6
 10
20398.311886013791
 20
13860.586977999999
 30
0.0
 11
20409.911886013801
 21
13860.586977999999
 31
0.0
  0
LINE
  5
1434A
  8
1-前柱カバ-P
 10
20399.311886013791
 20
13863.086977999999
 30
0.0
 11
20406.311886013791
 21
13863.086977999999
 31
0.0
  0
LINE
  5
1434B
  8
1-前柱カバ-P
 10
20406.311886013791
 20
13852.08697799999
 30
0.0
 11
20399.311886013791
 21
13852.08697799999
 31
0.0
  0
LINE
  5
1434C
  8
1-前柱カバ-P
 10
20406.311886013791
 20
13851.33697800001
 30
0.0
 11
20406.311886013791
 21
13863.83697800001
 31
0.0
  0
LINE
  5
1434D
  8
1-前柱カバ-P
 10
20409.911886013801
 20
13851.58697800001
 30
0.0
 11
20409.911886013801
 21
13863.58697799999
 31
0.0
  0
LINE
  5
1434E
  8
1-前柱カバ-P
  6
HIDE-M
 62
     6
 10
20407.811886013791
 20
13863.086977999999
 30
0.0
 11
20409.41188601379
 21
13863.086977999999
 31
0.0
  0
LINE
  5
1434F
  8
1-前柱カバ-P
 10
20409.911886013801
 20
13863.58697799999
 30
0.0
 11
20409.41188601379
 21
13863.086977999999
 31
0.0
  0
ARC
  5
14350
  8
1-前柱カバ-P
 10
20407.061886013791
 20
13863.83697800001
 30
0.0
 40
0.75
 50
0.000000000000007
 51
180.0
  0
LINE
  5
14351
  8
1-前柱カバ-P
  6
HIDE-M
 62
     6
 10
20409.41188601379
 20
13852.08697799999
 30
0.0
 11
20407.811886013791
 21
13852.08697799999
 31
0.0
  0
LINE
  5
14352
  8
1-前柱カバ-P
 10
20409.911886013801
 20
13851.58697800001
 30
0.0
 11
20409.41188601379
 21
13852.08697799999
 31
0.0
  0
ARC
  5
14353
  8
1-前柱カバ-P
 10
20407.061886013791
 20
13851.33697800001
 30
0.0
 40
0.75
 50
180.0
 51
0.000000000000007
  0
LINE
  5
14354
  8
1-前柱カバ-P
 10
20398.311886013791
 20
13853.08697799999
 30
0.0
 11
20398.311886013791
 21
13862.086977999999
 31
0.0
  0
ARC
  5
14355
  8
1-前柱カバ-P
 10
20399.311886013791
 20
13862.086977999999
 30
0.0
 40
1.0
 50
90.0
 51
180.0
  0
ARC
  5
14356
  8
1-前柱カバ-P
 10
20399.311886013791
 20
13853.08697799999
 30
0.0
 40
1.0
 50
180.0
 51
270.0
  0
LINE
  5
14357
  8
1-前柱カバ-P
  6
1PL-M
 62
     6
 10
20393.311886013791
 20
13857.586977999999
 30
0.0
 11
20414.911886013801
 21
13857.586977999999
 31
0.0
  0
LINE
  5
14358
  8
1-前柱カバ-P
 10
20399.311886013791
 20
13873.08697799999
 30
0.0
 11
20406.311886013791
 21
13873.08697799999
 31
0.0
  0
LINE
  5
14359
  8
1-前柱カバ-P
 10
20409.911886013801
 20
13865.58697799999
 30
0.0
 11
20409.911886013801
 21
13873.586977999999
 31
0.0
  0
LINE
  5
1435A
  8
1-前柱カバ-P
  6
HIDE-M
 62
     6
 10
20407.811886013791
 20
13873.08697799999
 30
0.0
 11
20409.41188601379
 21
13873.08697799999
 31
0.0
  0
LINE
  5
1435B
  8
1-前柱カバ-P
 10
20409.911886013801
 20
13873.586977999999
 30
0.0
 11
20409.41188601379
 21
13873.08697799999
 31
0.0
  0
ARC
  5
1435C
  8
1-前柱カバ-P
 10
20407.061886013791
 20
13873.836977999999
 30
0.0
 40
0.75
 50
0.000000000000007
 51
180.0
  0
LINE
  5
1435D
  8
1-前柱カバ-P
 10
20398.311886013791
 20
13864.086977999999
 30
0.0
 11
20398.311886013791
 21
13872.086977999999
 31
0.0
  0
ARC
  5
1435E
  8
1-前柱カバ-P
 10
20399.311886013791
 20
13872.086977999999
 30
0.0
 40
1.0
 50
90.0
 51
180.0
  0
LINE
  5
1435F
  8
1-前柱カバ-P
  6
1PL-M
 62
     6
 10
20393.311886013791
 20
13867.58697800001
 30
0.0
 11
20414.911886013801
 21
13867.58697800001
 31
0.0
  0
LINE
  5
14360
  8
1-前柱カバ-P
 10
20406.311886013791
 20
13865.83697800001
 30
0.0
 11
20406.311886013791
 21
13873.836977999999
 31
0.0
  0
LINE
  5
14361
  8
1-前柱カバ-P
  6
HIDE-M
 62
     6
 10
20335.511886013792
 20
13853.586977999999
 30
0.0
 11
20323.911886013801
 21
13853.586977999999
 31
0.0
  0
LINE
  5
14362
  8
1-前柱カバ-P
  6
HIDE-M
 62
     6
 10
20335.511886013792
 20
13861.586977999999
 30
0.0
 11
20323.911886013801
 21
13861.586977999999
 31
0.0
  0
LINE
  5
14363
  8
1-前柱カバ-P
  6
HIDE-M
 62
     6
 10
20335.511886013792
 20
13854.586977999999
 30
0.0
 11
20323.911886013801
 21
13854.586977999999
 31
0.0
  0
LINE
  5
14364
  8
1-前柱カバ-P
  6
HIDE-M
 62
     6
 10
20335.511886013792
 20
13860.586977999999
 30
0.0
 11
20323.911886013801
 21
13860.586977999999
 31
0.0
  0
LINE
  5
14365
  8
1-前柱カバ-P
 10
20334.511886013792
 20
13863.086977999999
 30
0.0
 11
20327.511886013792
 21
13863.086977999999
 31
0.0
  0
LINE
  5
14366
  8
1-前柱カバ-P
 10
20327.511886013792
 20
13852.08697799999
 30
0.0
 11
20334.511886013792
 21
13852.08697799999
 31
0.0
  0
LINE
  5
14367
  8
1-前柱カバ-P
 10
20327.511886013792
 20
13851.33697800001
 30
0.0
 11
20327.511886013792
 21
13863.83697800001
 31
0.0
  0
LINE
  5
14368
  8
1-前柱カバ-P
 10
20323.911886013801
 20
13851.58697800001
 30
0.0
 11
20323.911886013801
 21
13863.58697799999
 31
0.0
  0
LINE
  5
14369
  8
1-前柱カバ-P
  6
HIDE-M
 62
     6
 10
20326.011886013792
 20
13863.086977999999
 30
0.0
 11
20324.411886013801
 21
13863.086977999999
 31
0.0
  0
LINE
  5
1436A
  8
1-前柱カバ-P
 10
20323.911886013801
 20
13863.58697799999
 30
0.0
 11
20324.411886013801
 21
13863.086977999999
 31
0.0
  0
ARC
  5
1436B
  8
1-前柱カバ-P
 10
20326.761886013792
 20
13863.83697800001
 30
0.0
 40
0.75
 50
0.000000000000007
 51
180.0
  0
LINE
  5
1436C
  8
1-前柱カバ-P
  6
HIDE-M
 62
     6
 10
20324.411886013801
 20
13852.08697799999
 30
0.0
 11
20326.011886013792
 21
13852.08697799999
 31
0.0
  0
LINE
  5
1436D
  8
1-前柱カバ-P
 10
20323.911886013801
 20
13851.58697800001
 30
0.0
 11
20324.411886013801
 21
13852.08697799999
 31
0.0
  0
ARC
  5
1436E
  8
1-前柱カバ-P
 10
20326.761886013792
 20
13851.33697800001
 30
0.0
 40
0.75
 50
180.0
 51
0.000000000000007
  0
LINE
  5
1436F
  8
1-前柱カバ-P
 10
20335.511886013792
 20
13853.08697799999
 30
0.0
 11
20335.511886013792
 21
13862.086977999999
 31
0.0
  0
ARC
  5
14370
  8
1-前柱カバ-P
 10
20334.511886013792
 20
13862.086977999999
 30
0.0
 40
1.0
 50
0.000000000000007
 51
90.0
  0
ARC
  5
14371
  8
1-前柱カバ-P
 10
20334.511886013792
 20
13853.08697799999
 30
0.0
 40
1.0
 50
270.0
 51
0.000000000000007
  0
LINE
  5
14372
  8
1-前柱カバ-P
  6
1PL-M
 62
     6
 10
20340.511886013792
 20
13857.586977999999
 30
0.0
 11
20318.911886013801
 21
13857.586977999999
 31
0.0
  0
LINE
  5
14373
  8
1-前柱カバ-P
 10
20334.511886013792
 20
13873.08697799999
 30
0.0
 11
20327.511886013792
 21
13873.08697799999
 31
0.0
  0
LINE
  5
14374
  8
1-前柱カバ-P
 10
20323.911886013801
 20
13865.58697799999
 30
0.0
 11
20323.911886013801
 21
13873.586977999999
 31
0.0
  0
LINE
  5
14375
  8
1-前柱カバ-P
  6
HIDE-M
 62
     6
 10
20326.011886013792
 20
13873.08697799999
 30
0.0
 11
20324.411886013801
 21
13873.08697799999
 31
0.0
  0
LINE
  5
14376
  8
1-前柱カバ-P
 10
20323.911886013801
 20
13873.586977999999
 30
0.0
 11
20324.411886013801
 21
13873.08697799999
 31
0.0
  0
ARC
  5
14377
  8
1-前柱カバ-P
 10
20326.761886013792
 20
13873.836977999999
 30
0.0
 40
0.75
 50
0.000000000000007
 51
180.0
  0
LINE
  5
14378
  8
1-前柱カバ-P
 10
20335.511886013792
 20
13864.086977999999
 30
0.0
 11
20335.511886013792
 21
13872.086977999999
 31
0.0
  0
ARC
  5
14379
  8
1-前柱カバ-P
 10
20334.511886013792
 20
13872.086977999999
 30
0.0
 40
1.0
 50
0.000000000000007
 51
90.0
  0
LINE
  5
1437A
  8
1-前柱カバ-P
  6
1PL-M
 62
     6
 10
20340.511886013792
 20
13867.58697800001
 30
0.0
 11
20318.911886013801
 21
13867.58697800001
 31
0.0
  0
LINE
  5
1437B
  8
1-前柱カバ-P
 10
20327.511886013792
 20
13865.83697800001
 30
0.0
 11
20327.511886013792
 21
13873.836977999999
 31
0.0
  0
LINE
  5
1437C
  8
1-前柱カバ-P
  6
HIDE-M
 62
     6
 10
20398.311886013791
 20
13871.58697800001
 30
0.0
 11
20409.911886013801
 21
13871.58697800001
 31
0.0
  0
LINE
  5
1437D
  8
1-前柱カバ-P
  6
HIDE-M
 62
     6
 10
20398.311886013791
 20
13870.58697800001
 30
0.0
 11
20409.911886013801
 21
13870.58697800001
 31
0.0
  0
LINE
  5
1437E
  8
1-前柱カバ-P
  6
HIDE-M
 62
     6
 10
20335.511886013792
 20
13871.58697800001
 30
0.0
 11
20323.911886013801
 21
13871.58697800001
 31
0.0
  0
LINE
  5
1437F
  8
1-前柱カバ-P
  6
HIDE-M
 62
     6
 10
20335.511886013792
 20
13870.58697800001
 30
0.0
 11
20323.911886013801
 21
13870.58697800001
 31
0.0
  0
LINE
  5
14383
  8
0-6
  6
CONTINUOUS
 62
     6
 10
21807.746337523349
 20
13192.487836
 30
0.0
 11
20807.74699652339
 21
13192.487836
 31
0.0
  0
TEXT
  5
14384
  8
0-6
  6
CONTINUOUS
 62
     7
 10
20911.746073523369
 20
13272.48809999999
 30
0.0
 40
160.0
  1
前柱（P）
 72
     4
 11
21311.746073523369
 21
13352.48809999999
 31
0.0
  0
LINE
  5
14385
  8
0-6
  6
CONTINUOUS
 62
     6
 10
20402.67063270196
 20
13778.486978000001
 30
0.0
 11
20807.74699652339
 21
13192.487836
 31
0.0
  0
LINE
  5
14386
  8
0-6
  6
CONTINUOUS
 62
     6
 10
21807.746337523349
 20
16080.048635954119
 30
0.0
 11
20807.74699652339
 21
16080.048635954119
 31
0.0
  0
TEXT
  5
14387
  8
0-6
  6
CONTINUOUS
 62
     7
 10
20911.746073523369
 20
16160.048899954099
 30
0.0
 40
160.0
  1
中柱（P）
 72
     4
 11
21311.746073523369
 21
16240.048899954099
 31
0.0
  0
LINE
  5
14388
  8
0-6
  6
CONTINUOUS
 62
     6
 10
20402.67063270196
 20
16666.047777954122
 30
0.0
 11
20807.74699652339
 21
16080.048635954119
 31
0.0
  0
LINE
  5
14389
  8
0-6
  6
CONTINUOUS
 62
     6
 10
22148.808227992879
 20
14393.477715828871
 30
0.0
 11
20692.8082279929
 21
14393.47771582888
 31
0.0
  0
TEXT
  5
1438A
  8
0-6
  6
CONTINUOUS
 62
     7
 10
20732.80295474048
 20
14473.47797982886
 30
0.0
 40
160.0
  1
前柱カバー（P）
 72
     4
 11
21420.80295474048
 21
14553.47797982886
 31
0.0
  0
LINE
  5
1438B
  8
0-6
  6
CONTINUOUS
 62
     6
 10
20393.570632701962
 20
13905.086977999999
 30
0.0
 11
20692.8082279929
 21
14393.47771582888
 31
0.0
  0
LINE
  5
1438C
  8
0-6
  6
CONTINUOUS
 62
     6
 10
22148.808227992879
 20
17300.97727982888
 30
0.0
 11
20692.8082279929
 21
17300.97727982888
 31
0.0
  0
TEXT
  5
1438D
  8
0-6
  6
CONTINUOUS
 62
     7
 10
20732.80295474048
 20
17380.977543828871
 30
0.0
 40
160.0
  1
中柱カバー（P）
 72
     4
 11
21420.80295474048
 21
17460.977543828871
 31
0.0
  0
LINE
  5
1438E
  8
0-6
  6
CONTINUOUS
 62
     6
 10
20393.570632701962
 20
16812.586542000001
 30
0.0
 11
20692.8082279929
 21
17300.97727982888
 31
0.0
  0
LINE
  5
1438F
  8
0-6
  6
CONTINUOUS
 62
     6
 10
21807.746337523349
 20
19957.42434304587
 30
0.0
 11
20807.74699652339
 21
19957.42434304587
 31
0.0
  0
TEXT
  5
14390
  8
0-6
  6
CONTINUOUS
 62
     7
 10
20911.746073523369
 20
20037.424607045861
 30
0.0
 40
160.0
  1
後柱（P）
 72
     4
 11
21311.746073523369
 21
20117.424607045861
 31
0.0
  0
LINE
  5
14391
  8
0-6
  6
CONTINUOUS
 62
     6
 10
20402.67063270196
 20
19371.42520104588
 30
0.0
 11
20807.74699652339
 21
19957.42434304587
 31
0.0
  0
LINE
  5
14392
  8
0-6
  6
CONTINUOUS
 62
     6
 10
22148.808227992911
 20
18736.495699171119
 30
0.0
 11
20692.808227992911
 21
18736.495699171119
 31
0.0
  0
TEXT
  5
14393
  8
0-6
  6
CONTINUOUS
 62
     7
 10
20732.80295474048
 20
18816.49596317111
 30
0.0
 40
160.0
  1
後柱カバー（P）
 72
     4
 11
21420.80295474048
 21
18896.49596317111
 31
0.0
  0
LINE
  5
14394
  8
0-6
  6
CONTINUOUS
 62
     6
 10
20393.570632701962
 20
19224.886437000001
 30
0.0
 11
20692.808227992911
 21
18736.495699171119
 31
0.0
  0
LINE
  5
143D4
  8
0-1
  6
CONTINUOUS
 62
     3
 10
15032.720021282659
 20
16684.985315999991
 30
0.0
 11
11764.220021282659
 21
16684.985315999991
 31
0.0
  0
LINE
  5
143D5
  8
0-1
  6
CONTINUOUS
 62
     3
 10
11764.220021282659
 20
16684.985315999991
 30
0.0
 11
9191.8491705138676
 21
16684.985315999998
 31
0.0
  0
LINE
  5
143D6
  8
2-0
  6
DASHED3
 62
     6
 10
9191.8491705138676
 20
16684.985315999998
 30
0.0
 11
6764.2200212826647
 21
16684.985315999991
 31
0.0
  0
LINE
  5
143D7
  8
0-1
  6
CONTINUOUS
 62
     3
 10
11817.219652282651
 20
13775.48635799998
 30
0.0
 11
11817.219652282651
 21
17768.23311058123
 31
0.0
  0
LINE
  5
143D8
  8
0-1
  6
CONTINUOUS
 62
     3
 10
14982.71940128264
 20
13651.48634400001
 30
0.0
 11
14982.71940128264
 21
18788.083582700088
 31
0.0
  0
LINE
  5
143D9
  8
0-1
  6
CONTINUOUS
 62
     3
 10
14982.71940128264
 20
18788.08358270011
 30
0.0
 11
14982.71940128264
 21
19461.985685
 31
0.0
  0
LINE
  5
143DA
  8
0-1
  6
CONTINUOUS
 62
     3
 10
15118.220021282659
 20
13619.486437
 30
0.0
 11
15117.86215617541
 21
19128.44774771684
 31
0.0
  0
LINE
  5
143DB
  8
0-1
  6
CONTINUOUS
 62
     3
 10
15117.86215617541
 20
19128.44774771684
 30
0.0
 11
15118.220021282659
 21
19509.987031000001
 31
0.0
  0
LINE
  5
143DC
  8
0-1
  6
CONTINUOUS
 62
     3
 10
15075.219295282641
 20
13775.48635799998
 30
0.0
 11
6721.7187672826576
 21
13775.48635799998
 31
0.0
  0
LINE
  5
143DD
  8
0-1
  6
CONTINUOUS
 62
     3
 10
15032.720021282659
 20
13854.485974999991
 30
0.0
 11
6764.2200212826647
 21
13854.485974999991
 31
0.0
  0
LINE
  5
143DE
  8
0-1
  6
CONTINUOUS
 62
     3
 10
15118.220021282659
 20
13619.48643699999
 30
0.0
 11
6678.7200212826629
 21
13619.486437
 31
0.0
  0
LINE
  5
143DF
  8
0-1
  6
CONTINUOUS
 62
     3
 10
15118.21794255139
 20
13651.48634400001
 30
0.0
 11
6678.7200212826629
 21
13651.486344000001
 31
0.0
  0
LINE
  5
143E0
  8
0-1
  6
CONTINUOUS
 62
     3
 10
11764.220021282659
 20
13775.48635799998
 30
0.0
 11
11764.220021282659
 21
17746.365060417251
 31
0.0
  0
LINE
  5
143E1
  8
0-1
  6
CONTINUOUS
 62
     3
 10
11721.71876728264
 20
13775.48635799998
 30
0.0
 11
11721.71876728264
 21
17728.828720315101
 31
0.0
  0
LINE
  5
143E2
  8
0-1
  6
CONTINUOUS
 62
     3
 10
15032.720021282659
 20
13775.48635799998
 30
0.0
 11
15032.362156175401
 21
19094.407866403199
 31
0.0
  0
LINE
  5
143E3
  8
0-1
  6
CONTINUOUS
 62
     3
 10
15075.219295282641
 20
13775.48635799998
 30
0.0
 11
15074.861430175401
 21
19111.94338954231
 31
0.0
  0
LINE
  5
143E4
  8
0-1
  6
CONTINUOUS
 62
     3
 10
13111.71889928264
 20
18302.353328711521
 30
0.0
 11
13111.71889928264
 21
19461.985685
 31
0.0
  0
LINE
  5
143E5
  8
0-1
  6
CONTINUOUS
 62
     3
 10
13074.717738282659
 20
18287.08636874209
 30
0.0
 11
13074.717738282659
 21
19461.985685
 31
0.0
  0
LINE
  5
143E6
  8
0-1
  6
CONTINUOUS
 62
     3
 10
12911.719229282649
 20
18219.831946322141
 30
0.0
 11
12911.719229282649
 21
19461.985685
 31
0.0
  0
LINE
  5
143E7
  8
0-1
  6
CONTINUOUS
 62
     3
 10
12874.720048282639
 20
18204.565803315701
 30
0.0
 11
12874.720048282639
 21
19461.985685
 31
0.0
  0
LINE
  5
143E8
  8
0-1
  6
CONTINUOUS
 62
     3
 10
12711.718570282639
 20
18137.31015586208
 30
0.0
 11
12711.718570282639
 21
19461.985685
 31
0.0
  0
LINE
  5
143E9
  8
0-1
  6
CONTINUOUS
 62
     3
 10
12674.718398282639
 20
18122.043603961509
 30
0.0
 11
12674.718398282639
 21
19461.985685
 31
0.0
  0
LINE
  5
143EA
  8
0-1
  6
CONTINUOUS
 62
     3
 10
12511.71889928264
 20
18054.788773058321
 30
0.0
 11
12511.71889928264
 21
19461.985685
 31
0.0
  0
LINE
  5
143EB
  8
0-1
  6
CONTINUOUS
 62
     3
 10
12474.717738282659
 20
18039.521813088861
 30
0.0
 11
12474.717738282659
 21
19461.985685
 31
0.0
  0
LINE
  5
143EC
  8
0-1
  6
CONTINUOUS
 62
     3
 10
12311.71922928264
 20
17972.267390667181
 30
0.0
 11
12311.71922928264
 21
19461.985685
 31
0.0
  0
LINE
  5
143ED
  8
0-1
  6
CONTINUOUS
 62
     3
 10
12274.719058282661
 20
17957.000839179222
 30
0.0
 11
12274.719058282661
 21
19461.985685
 31
0.0
  0
LINE
  5
143EE
  8
0-1
  6
CONTINUOUS
 62
     3
 10
12111.718570282659
 20
17889.745600207119
 30
0.0
 11
12111.718570282659
 21
19461.985685
 31
0.0
  0
LINE
  5
143EF
  8
0-1
  6
CONTINUOUS
 62
     3
 10
12074.718398282639
 20
17874.479048306552
 30
0.0
 11
12074.718398282639
 21
19461.985685
 31
0.0
  0
LINE
  5
143F0
  8
0-1
  6
CONTINUOUS
 62
     3
 10
15032.720021282659
 20
16774.988087000002
 30
0.0
 11
11764.220021282659
 21
16774.988087000002
 31
0.0
  0
LINE
  5
143F1
  8
0-1
  6
CONTINUOUS
 62
     3
 10
11764.220021282659
 20
16774.988087000002
 30
0.0
 11
9409.9808107930403
 21
16774.988087000002
 31
0.0
  0
LINE
  5
143F2
  8
2-0
  6
DASHED3
 62
     6
 10
9409.9808107930403
 20
16774.988087000002
 30
0.0
 11
6764.2200212826647
 21
16774.988087000002
 31
0.0
  0
LINE
  5
143F3
  8
0-1
  6
CONTINUOUS
 62
     3
 10
11834.21912163882
 20
16729.987612658861
 30
0.0
 11
14962.719295282641
 21
13811.985710999999
 31
0.0
  0
LINE
  5
143F4
  8
0-1
  6
CONTINUOUS
 62
     3
 10
14962.719295282641
 20
16729.985711000001
 30
0.0
 11
11834.21876728264
 21
13811.985710999999
 31
0.0
  0
LINE
  5
143F5
  8
0-1
  6
CONTINUOUS
 62
     3
 10
14395.67419195221
 20
18832.123031227831
 30
0.0
 11
11834.21912163882
 21
16729.987612658861
 31
0.0
  0
LINE
  5
143F6
  8
0-1
  6
CONTINUOUS
 62
     3
 10
13068.511387045301
 20
18284.525581098231
 30
0.0
 11
14962.719295282641
 21
16729.985711000001
 31
0.0
  0
LINE
  5
143F7
  8
0-1
  6
CONTINUOUS
 62
     3
 10
15099.86338317543
 20
19121.112951351512
 30
0.0
 11
15100.221248282671
 21
19502.48663499999
 31
0.0
  0
LINE
  5
143F8
  8
0-1
  6
CONTINUOUS
 62
     3
 10
15044.720496282651
 20
19484.987690000002
 30
0.0
 11
15044.720496282651
 21
19514.987293999991
 31
0.0
  0
LINE
  5
143F9
  8
0-1
  6
CONTINUOUS
 62
     3
 10
15118.220021282659
 20
19514.987293999991
 30
0.0
 11
15118.220021282659
 21
19479.985446999988
 31
0.0
  0
LINE
  5
143FA
  8
0-1
  6
CONTINUOUS
 62
     3
 10
15049.720760282669
 20
19519.985579
 30
0.0
 11
15113.220747282659
 21
19519.985579
 31
0.0
  0
LINE
  5
143FB
  8
0-1
  6
CONTINUOUS
 62
     3
 10
15100.221248282671
 20
19502.48663499999
 30
0.0
 11
15118.220021282659
 21
19502.48663499999
 31
0.0
  0
LINE
  5
143FC
  8
0-1
  6
CONTINUOUS
 62
     3
 10
15100.221248282671
 20
19479.985446999988
 30
0.0
 11
15049.720760282669
 21
19479.985446999988
 31
0.0
  0
LINE
  5
143FD
  8
0-6
  6
CONTINUOUS
 62
     6
 10
12633.876685145269
 20
19237.71018799999
 30
0.0
 11
12489.97558214528
 21
19749.985842999991
 31
0.0
  0
LINE
  5
143FE
  8
0-6
  6
CONTINUOUS
 62
     6
 10
13153.71806014528
 20
19465.663629999999
 30
0.0
 11
13047.022998145279
 21
19343.487743000002
 31
0.0
  0
LINE
  5
143FF
  8
0-6
  6
CONTINUOUS
 62
     6
 10
13047.022998145279
 20
19343.487743000002
 30
0.0
 11
13108.32868814528
 21
19493.663919999992
 31
0.0
  0
LINE
  5
14400
  8
0-6
  6
CONTINUOUS
 62
     6
 10
13047.022998145279
 20
19343.487743000002
 30
0.0
 11
13153.71806014528
 21
19465.663629999999
 31
0.0
  0
LINE
  5
14401
  8
0-6
  6
CONTINUOUS
 62
     6
 10
13153.71806014528
 20
19465.663629999999
 30
0.0
 11
13108.32868814528
 21
19493.663919999992
 31
0.0
  0
LINE
  5
14402
  8
0-6
  6
CONTINUOUS
 62
     6
 10
13108.32868814528
 20
19493.663919999992
 30
0.0
 11
13047.022998145279
 21
19343.487743000002
 31
0.0
  0
LINE
  5
14403
  8
0-6
  6
CONTINUOUS
 62
     6
 10
13108.32868814528
 20
19493.663919999992
 30
0.0
 11
13153.71806014528
 21
19465.663629999999
 31
0.0
  0
LINE
  5
14404
  8
0-6
  6
CONTINUOUS
 62
     6
 10
13047.022998145279
 20
19343.487743000002
 30
0.0
 11
13340.95082514529
 21
19749.985842999991
 31
0.0
  0
LINE
  5
14405
  8
0-6
  6
CONTINUOUS
 62
     6
 10
12659.764829145281
 20
19244.109971999991
 30
0.0
 11
12672.26647914527
 21
19082.385282999989
 31
0.0
  0
LINE
  5
14406
  8
0-6
  6
CONTINUOUS
 62
     6
 10
12672.26647914527
 20
19082.385282999989
 30
0.0
 11
12607.991510145281
 21
19231.314364000002
 31
0.0
  0
LINE
  5
14407
  8
0-6
  6
CONTINUOUS
 62
     6
 10
12672.26647914527
 20
19082.385282999989
 30
0.0
 11
12659.764829145281
 21
19244.109971999991
 31
0.0
  0
LINE
  5
14408
  8
0-6
  6
CONTINUOUS
 62
     6
 10
12659.764829145281
 20
19244.109971999991
 30
0.0
 11
12607.991510145281
 21
19231.314364000002
 31
0.0
  0
LINE
  5
14409
  8
0-6
  6
CONTINUOUS
 62
     6
 10
12607.991510145281
 20
19231.314364000002
 30
0.0
 11
12672.26647914527
 21
19082.385282999989
 31
0.0
  0
LINE
  5
1440A
  8
0-6
  6
CONTINUOUS
 62
     6
 10
12607.991510145281
 20
19231.314364000002
 30
0.0
 11
12659.764829145281
 21
19244.109971999991
 31
0.0
  0
LINE
  5
1440B
  8
0-6
  6
CONTINUOUS
 62
     6
 10
12489.97558214528
 20
19749.985842999991
 30
0.0
 11
11972.286934145281
 21
19749.985842999991
 31
0.0
  0
LINE
  5
1440C
  8
0-6
  6
CONTINUOUS
 62
     6
 10
14889.903694282641
 20
18164.289045663922
 30
0.0
 11
14979.71940128264
 21
18299.361496663922
 31
0.0
  0
LINE
  5
1440D
  8
0-6
  6
CONTINUOUS
 62
     6
 10
14979.71940128264
 20
18299.361496663922
 30
0.0
 11
14938.56521028263
 21
18142.46089466392
 31
0.0
  0
LINE
  5
1440E
  8
0-6
  6
CONTINUOUS
 62
     6
 10
14979.71940128264
 20
18299.361496663922
 30
0.0
 11
14889.903694282641
 21
18164.289045663922
 31
0.0
  0
LINE
  5
1440F
  8
0-6
  6
CONTINUOUS
 62
     6
 10
14889.903694282641
 20
18164.289045663922
 30
0.0
 11
14938.56521028263
 21
18142.46089466392
 31
0.0
  0
LINE
  5
14410
  8
0-6
  6
CONTINUOUS
 62
     6
 10
14938.56521028263
 20
18142.46089466392
 30
0.0
 11
14979.71940128264
 21
18299.361496663922
 31
0.0
  0
LINE
  5
14411
  8
0-6
  6
CONTINUOUS
 62
     6
 10
14938.56521028263
 20
18142.46089466392
 30
0.0
 11
14889.903694282641
 21
18164.289045663922
 31
0.0
  0
LINE
  5
14412
  8
0-6
  6
CONTINUOUS
 62
     6
 10
14140.952474145281
 20
19749.985842999991
 30
0.0
 11
13340.95082514529
 21
19749.985842999991
 31
0.0
  0
LINE
  5
14413
  8
0-6
  6
CONTINUOUS
 62
     6
 10
14815.193694282651
 20
17932.58243666391
 30
0.0
 11
14295.19296828263
 21
17932.58243666391
 31
0.0
  0
LINE
  5
14414
  8
0-6
  6
CONTINUOUS
 62
     6
 10
13831.9457162168
 20
13999.376837
 30
0.0
 11
13749.0583242168
 21
14176.315115999991
 31
0.0
  0
LINE
  5
14415
  8
0-6
  6
CONTINUOUS
 62
     6
 10
13749.0583242168
 20
14176.315115999991
 30
0.0
 11
12949.057664216811
 21
14176.315115999991
 31
0.0
  0
LINE
  5
14416
  8
0-6
  6
CONTINUOUS
 62
     6
 10
13224.902589216799
 20
13489.93981199999
 30
0.0
 11
13331.17304421679
 21
13612.48685899999
 31
0.0
  0
LINE
  5
14417
  8
0-6
  6
CONTINUOUS
 62
     6
 10
13331.17304421679
 20
13612.48685899999
 30
0.0
 11
13270.3909362168
 21
13462.09788299998
 31
0.0
  0
LINE
  5
14418
  8
0-6
  6
CONTINUOUS
 62
     6
 10
13331.17304421679
 20
13612.48685899999
 30
0.0
 11
13224.902589216799
 21
13489.93981199999
 31
0.0
  0
LINE
  5
14419
  8
0-6
  6
CONTINUOUS
 62
     6
 10
13224.902589216799
 20
13489.93981199999
 30
0.0
 11
13270.3909362168
 21
13462.09788299998
 31
0.0
  0
LINE
  5
1441A
  8
0-6
  6
CONTINUOUS
 62
     6
 10
13270.3909362168
 20
13462.09788299998
 30
0.0
 11
13331.17304421679
 21
13612.48685899999
 31
0.0
  0
LINE
  5
1441B
  8
0-6
  6
CONTINUOUS
 62
     6
 10
13270.3909362168
 20
13462.09788299998
 30
0.0
 11
13224.902589216799
 21
13489.93981199999
 31
0.0
  0
LINE
  5
1441C
  8
0-6
  6
CONTINUOUS
 62
     6
 10
13856.092873216799
 20
14010.68879599998
 30
0.0
 11
13899.818459216811
 21
13854.485974999991
 31
0.0
  0
LINE
  5
1441D
  8
0-6
  6
CONTINUOUS
 62
     6
 10
13899.818459216811
 20
13854.485974999991
 30
0.0
 11
13807.797568216791
 21
13988.06388799999
 31
0.0
  0
LINE
  5
1441E
  8
0-6
  6
CONTINUOUS
 62
     6
 10
13899.818459216811
 20
13854.485974999991
 30
0.0
 11
13856.092873216799
 21
14010.68879599998
 31
0.0
  0
LINE
  5
1441F
  8
0-6
  6
CONTINUOUS
 62
     6
 10
13856.092873216799
 20
14010.68879599998
 30
0.0
 11
13807.797568216791
 21
13988.06388799999
 31
0.0
  0
LINE
  5
14420
  8
0-6
  6
CONTINUOUS
 62
     6
 10
13807.797568216791
 20
13988.06388799999
 30
0.0
 11
13899.818459216811
 21
13854.485974999991
 31
0.0
  0
LINE
  5
14421
  8
0-6
  6
CONTINUOUS
 62
     6
 10
13807.797568216791
 20
13988.06388799999
 30
0.0
 11
13856.092873216799
 21
14010.68879599998
 31
0.0
  0
LINE
  5
14422
  8
0-6
  6
CONTINUOUS
 62
     6
 10
12841.534174216789
 20
12812.48718899999
 30
0.0
 11
11978.95400321679
 21
12812.48718899999
 31
0.0
  0
LINE
  5
14423
  8
0-6
  6
CONTINUOUS
 62
     6
 10
13247.646267216811
 20
13476.018847999991
 30
0.0
 11
12841.534174216789
 21
12812.48718899999
 31
0.0
  0
LINE
  5
14424
  8
0-6
  6
CONTINUOUS
 62
     6
 10
15137.670731282649
 20
13861.776687
 30
0.0
 11
15115.220021282659
 21
14022.42253799999
 31
0.0
  0
LINE
  5
14425
  8
0-6
  6
CONTINUOUS
 62
     6
 10
15115.220021282659
 20
14022.42253799999
 30
0.0
 11
15188.557225282661
 21
13877.741504
 31
0.0
  0
LINE
  5
14426
  8
0-6
  6
CONTINUOUS
 62
     6
 10
15115.220021282659
 20
14022.42253799999
 30
0.0
 11
15137.670731282649
 21
13861.776687
 31
0.0
  0
LINE
  5
14427
  8
0-6
  6
CONTINUOUS
 62
     6
 10
15137.670731282649
 20
13861.776687
 30
0.0
 11
15188.557225282661
 21
13877.741504
 31
0.0
  0
LINE
  5
14428
  8
0-6
  6
CONTINUOUS
 62
     6
 10
15188.557225282661
 20
13877.741504
 30
0.0
 11
15115.220021282659
 21
14022.42253799999
 31
0.0
  0
LINE
  5
14429
  8
0-6
  6
CONTINUOUS
 62
     6
 10
15188.557225282661
 20
13877.741504
 30
0.0
 11
15137.670731282649
 21
13861.776687
 31
0.0
  0
LINE
  5
1442A
  8
0-6
  6
CONTINUOUS
 62
     6
 10
16829.854272282661
 20
11999.48618599998
 30
0.0
 11
15749.854668282651
 21
11999.48618599998
 31
0.0
  0
LINE
  5
1442B
  8
0-6
  6
CONTINUOUS
 62
     6
 10
15163.114473282671
 20
13869.75810599999
 30
0.0
 11
15749.854668282651
 21
11999.48618599998
 31
0.0
  0
LINE
  5
1442C
  8
0-6
  6
CONTINUOUS
 62
     6
 10
14914.23395728264
 20
18153.375959663921
 30
0.0
 11
14815.193694282651
 21
17932.58243666391
 31
0.0
  0
LINE
  5
1442D
  8
0-6
  6
CONTINUOUS
 62
     6
 10
6681.7200212826629
 20
19519.985579
 30
0.0
 11
6590.0326792826463
 21
19653.79311699999
 31
0.0
  0
LINE
  5
1442E
  8
0-6
  6
CONTINUOUS
 62
     6
 10
6551.5914182826609
 20
19616.825606999992
 30
0.0
 11
6681.7200212826629
 21
19519.985579
 31
0.0
  0
LINE
  5
1442F
  8
0-6
  6
CONTINUOUS
 62
     6
 10
6551.5914182826609
 20
19616.825606999992
 30
0.0
 11
6590.0326792826463
 21
19653.79311699999
 31
0.0
  0
LINE
  5
14430
  8
0-6
  6
CONTINUOUS
 62
     6
 10
6570.8115532826478
 20
19635.308372
 30
0.0
 11
6053.8226652826552
 21
20139.986634999979
 31
0.0
  0
LINE
  5
14431
  8
0-6
  6
CONTINUOUS
 62
     6
 10
6053.8226652826552
 20
20139.986634999979
 30
0.0
 11
4378.823325282644
 21
20139.986634999979
 31
0.0
  0
LINE
  5
14432
  8
2-0
  6
DASHED3
 62
     6
 10
15032.720021282659
 20
19258.487215000001
 30
0.0
 11
6764.2200212826647
 21
19258.487215000001
 31
0.0
  0
LINE
  5
14433
  8
2-0
  6
DASHED3
 62
     6
 10
15074.861430175401
 20
19111.94338954231
 30
0.0
 11
15075.219295282641
 21
19343.487743000002
 31
0.0
  0
LINE
  5
14434
  8
2-0
  6
DASHED3
 62
     6
 10
15032.362156175401
 20
19094.407866403199
 30
0.0
 11
15032.720021282659
 21
19343.487743000002
 31
0.0
  0
LINE
  5
14435
  8
2-0
  6
DASHED3
 62
     6
 10
15075.219295282641
 20
19343.487743000002
 30
0.0
 11
6764.2200212826647
 21
19343.487743000002
 31
0.0
  0
LINE
  5
14436
  8
2-0
  6
DASHED3
 62
     6
 10
11764.220021282659
 20
17746.365060417251
 30
0.0
 11
11764.220021282659
 21
19343.487743000002
 31
0.0
  0
LINE
  5
14437
  8
2-0
  6
DASHED3
 62
     6
 10
11721.71876728264
 20
17728.828720315101
 30
0.0
 11
11721.71876728264
 21
19343.487743000002
 31
0.0
  0
LINE
  5
14438
  8
2-0
  6
DASHED3
 62
     6
 10
14962.719295282641
 20
19297.485711000001
 30
0.0
 11
14395.67419195221
 21
18832.123031227831
 31
0.0
  0
LINE
  5
14439
  8
2-0
  6
DASHED3
 62
     6
 10
11834.21876728264
 20
19297.485711000001
 30
0.0
 11
13068.5113870449
 21
18284.525581098551
 31
0.0
  0
LINE
  5
1443A
  8
2-0
  6
CENTER2
 62
     6
 10
11764.220021282659
 20
20539.987954
 30
0.0
 11
11764.220021282659
 21
19561.985025000002
 31
0.0
  0
LINE
  5
1443B
  8
2-0
  6
CENTER2
 62
     6
 10
16362.220126282649
 20
19297.485711000001
 30
0.0
 11
14715.720905282649
 21
19297.485711000001
 31
0.0
  0
LINE
  5
1443C
  8
0-8
  6
CONTINUOUS
 62
     6
 10
15032.720021282659
 20
20539.987954
 30
0.0
 11
15032.720021282659
 21
19589.987293999991
 31
0.0
  0
LINE
  5
1443D
  8
2-0
  6
CENTER2
 62
     6
 10
16362.220126282649
 20
16729.985711000001
 30
0.0
 11
6592.4205732826631
 21
16729.985711000001
 31
0.0
  0
LINE
  5
1443E
  8
2-0
  6
CENTER2
 62
     6
 10
16362.220126282649
 20
13811.985710999999
 30
0.0
 11
14715.720905282649
 21
13811.985710999999
 31
0.0
  0
ARC
  5
1443F
  8
0-1
  6
CONTINUOUS
 62
     3
 10
15049.720760282669
 20
19484.987690000002
 30
0.0
 40
5.0
 50
180.0
 51
270.00001499981897
  0
ARC
  5
14440
  8
0-1
  6
CONTINUOUS
 62
     3
 10
15049.71805896518
 20
19514.988412922321
 30
0.0
 40
4.99729880777691
 50
89.969028448215099
 51
180.01282883628079
  0
ARC
  5
14441
  8
0-1
  6
CONTINUOUS
 62
     3
 10
15113.223673758899
 20
19514.988506186131
 30
0.0
 40
4.9970736707893684
 50
359.98610123534661
 51
90.033554587674416
  0
CIRCLE
  5
14442
  8
0-5
  6
CONTINUOUS
 62
     4
 10
16562.219797282651
 20
19297.485711000001
 30
0.0
 40
199.9999949999999
  0
CIRCLE
  5
14443
  8
0-5
  6
CONTINUOUS
 62
     4
 10
16562.219797282651
 20
16729.985711000001
 30
0.0
 40
199.9999949999999
  0
CIRCLE
  5
14444
  8
0-5
  6
CONTINUOUS
 62
     4
 10
16562.219797282651
 20
13811.985710999999
 30
0.0
 40
199.9999949999999
  0
TEXT
  5
14445
  8
0-5
  6
CONTINUOUS
 62
     7
 10
16509.012998615992
 20
19217.897186999999
 30
0.0
 40
160.0
  1
C
 72
     4
 11
16562.34633194932
 21
19297.897186999999
 31
0.0
  0
TEXT
  5
14446
  8
0-5
  6
CONTINUOUS
 62
     7
 10
16509.012998615992
 20
16650.398176999981
 30
0.0
 40
160.0
  1
B
 72
     4
 11
16562.34633194932
 21
16730.398176999981
 31
0.0
  0
TEXT
  5
14447
  8
0-5
  6
CONTINUOUS
 62
     7
 10
16509.012998615992
 20
13732.397187
 30
0.0
 40
160.0
  1
A
 72
     4
 11
16562.34633194932
 21
13812.397187
 31
0.0
  0
TEXT
  5
14448
  8
0-6
  6
CONTINUOUS
 62
     7
 10
12068.641984811929
 20
19829.98610699999
 30
0.0
 40
160.0
  1
屋根
 72
     4
 11
12239.308651478599
 21
19909.98610699999
 31
0.0
  0
TEXT
  5
14449
  8
0-6
  6
CONTINUOUS
 62
     7
 10
13420.95122014528
 20
19829.98610699999
 30
0.0
 40
160.0
  1
桁（後）
 72
     4
 11
13740.95122014528
 21
19909.98610699999
 31
0.0
  0
TEXT
  5
1444A
  8
0-6
  6
CONTINUOUS
 62
     7
 10
13029.059050216811
 20
14256.31538
 30
0.0
 40
160.0
  1
桁（前）
 72
     4
 11
13349.059050216811
 21
14336.31538
 31
0.0
  0
TEXT
  5
1444B
  8
0-6
  6
CONTINUOUS
 62
     7
 10
12036.201566883459
 20
12892.48646299999
 30
0.0
 40
160.0
  1
鼻隠し前
 72
     4
 11
12398.868233550131
 21
12972.48646299999
 31
0.0
  0
TEXT
  5
1444C
  8
0-6
  6
CONTINUOUS
 62
     7
 10
15917.85400828266
 20
12079.485459999991
 30
0.0
 40
160.0
  1
ケラバ 左
 72
     4
 11
16333.85400828266
 21
12159.485459999991
 31
0.0
  0
TEXT
  5
1444D
  8
0-6
  6
CONTINUOUS
 62
     7
 10
14393.8600969493
 20
18012.582700663908
 30
0.0
 40
160.0
  1
上枠
 72
     4
 11
14564.52676361597
 21
18092.582700663908
 31
0.0
  0
TEXT
  5
1444E
  8
0-6
  6
CONTINUOUS
 62
     7
 10
4480.4890679493146
 20
20219.984918999991
 30
0.0
 40
160.0
  1
鼻隠しコーナー後
 72
     4
 11
5227.1557346159816
 21
20299.984918999991
 31
0.0
  0
LINE
  5
1444F
  8
2-0
  6
CENTER2
 62
     6
 10
6764.2200212826647
 20
20539.987954
 30
0.0
 11
6764.2200212826647
 21
19589.987293999991
 31
0.0
  0
LINE
  5
14450
  8
0-1
  6
CONTINUOUS
 62
     3
 10
6696.7197832826632
 20
16564.44994129907
 30
0.0
 11
6696.7197832826587
 21
19502.48663499999
 31
0.0
  0
LINE
  5
14451
  8
0-1
  6
CONTINUOUS
 62
     3
 10
6696.7197832826587
 20
19502.48663499999
 30
0.0
 11
6678.7200212826629
 21
19502.48663499999
 31
0.0
  0
LINE
  5
14452
  8
0-1
  6
CONTINUOUS
 62
     3
 10
6752.2205352826522
 20
19484.987690000002
 30
0.0
 11
6752.2205352826522
 21
19514.987293999991
 31
0.0
  0
LINE
  5
14453
  8
0-1
  6
CONTINUOUS
 62
     3
 10
6696.7197832826587
 20
19479.985446999988
 30
0.0
 11
6747.2192812826488
 21
19479.985446999988
 31
0.0
  0
LINE
  5
14454
  8
0-1
  6
CONTINUOUS
 62
     3
 10
6678.7200212826629
 20
19514.987293999991
 30
0.0
 11
6678.7200212826629
 21
19479.985446999988
 31
0.0
  0
LINE
  5
14455
  8
0-1
  6
CONTINUOUS
 62
     3
 10
6747.2192812826488
 20
19519.985579
 30
0.0
 11
6683.7212742826723
 21
19519.985579
 31
0.0
  0
ARC
  5
14456
  8
0-1
  6
CONTINUOUS
 62
     3
 10
6683.7212742826723
 20
19514.987293999991
 30
0.0
 40
5.0
 50
90.0
 51
180.0
  0
ARC
  5
14457
  8
0-1
  6
CONTINUOUS
 62
     3
 10
6747.2192812826488
 20
19514.987293999991
 30
0.0
 40
5.0
 50
0.000000000000007
 51
90.0
  0
ARC
  5
14458
  8
0-1
  6
CONTINUOUS
 62
     3
 10
6747.2192812826488
 20
19484.987690000002
 30
0.0
 40
5.0
 50
270.00001499981897
 51
0.000000000000007
  0
LINE
  5
14459
  8
0-1
  6
CONTINUOUS
 62
     3
 10
11764.220021282659
 20
13775.48635799998
 30
0.0
 11
11764.220021282659
 21
13619.486437
 31
0.0
  0
LINE
  5
1445A
  8
0-1
  6
CONTINUOUS
 62
     3
 10
15326.995556492009
 20
19216.393297534021
 30
0.0
 11
11355.42156793801
 21
17577.69171465941
 31
0.0
  0
LINE
  5
1445B
  8
0-1
  6
CONTINUOUS
 62
     3
 10
10431.01896229237
 20
17196.276180804489
 30
0.0
 11
6393.3758590190273
 21
15530.313979545879
 31
0.0
  0
LINE
  5
1445C
  8
0-1
  6
CONTINUOUS
 62
     3
 10
6814.2196522826516
 20
13651.48634400001
 30
0.0
 11
6814.2196522826516
 21
16612.931850858091
 31
0.0
  0
LINE
  5
1445D
  8
0-1
  6
CONTINUOUS
 62
     3
 10
6678.7200212826629
 20
13619.486437
 30
0.0
 11
6678.7200212826629
 21
16557.02310283003
 31
0.0
  0
LINE
  5
1445E
  8
0-1
  6
CONTINUOUS
 62
     3
 10
6764.2200212826647
 20
13775.48635799998
 30
0.0
 11
6764.2200212826647
 21
16591.063800694112
 31
0.0
  0
LINE
  5
1445F
  8
0-1
  6
CONTINUOUS
 62
     3
 10
6721.7187672826576
 20
13775.48635799998
 30
0.0
 11
6721.7187672826576
 21
16573.527460591959
 31
0.0
  0
LINE
  5
14460
  8
0-1
  6
CONTINUOUS
 62
     3
 10
6814.2196522826516
 20
16612.931850858091
 30
0.0
 11
6814.2196522826516
 21
19461.985685
 31
0.0
  0
LINE
  5
14461
  8
0-1
  6
CONTINUOUS
 62
     3
 10
6678.7200212826629
 20
16557.02310283004
 30
0.0
 11
6678.7200212826629
 21
19502.48663499999
 31
0.0
  0
LINE
  5
14462
  8
2-0
  6
DASHED3
 62
     6
 10
6764.2200212826647
 20
16591.063800694112
 30
0.0
 11
6764.2200212826647
 21
19489.987954
 31
0.0
  0
LINE
  5
14463
  8
2-0
  6
DASHED3
 62
     6
 10
6721.7187672826576
 20
16573.527460591959
 30
0.0
 11
6721.7187672826576
 21
19479.985446999988
 31
0.0
  0
LINE
  5
14464
  8
0-1
  6
CONTINUOUS
 62
     3
 10
11911.717910282639
 20
17807.22380933446
 30
0.0
 11
11911.717910282639
 21
19461.985685
 31
0.0
  0
LINE
  5
14465
  8
0-1
  6
CONTINUOUS
 62
     3
 10
11874.717738282639
 20
17791.957257433889
 30
0.0
 11
11874.717738282639
 21
19461.985685
 31
0.0
  0
LINE
  5
14466
  8
0-1
  6
CONTINUOUS
 62
     3
 10
11711.71725028264
 20
17724.70201846179
 30
0.0
 11
11711.71725028264
 21
19461.985685
 31
0.0
  0
LINE
  5
14467
  8
0-1
  6
CONTINUOUS
 62
     3
 10
11674.717078282631
 20
17709.435466561219
 30
0.0
 11
11674.717078282631
 21
19461.985685
 31
0.0
  0
LINE
  5
14468
  8
0-1
  6
CONTINUOUS
 62
     3
 10
11511.71659028262
 20
17642.180227589099
 30
0.0
 11
11511.71659028262
 21
19461.985685
 31
0.0
  0
LINE
  5
14469
  8
0-1
  6
CONTINUOUS
 62
     3
 10
11474.71641828262
 20
17626.913675688538
 30
0.0
 11
11474.71641828262
 21
19461.985685
 31
0.0
  0
LINE
  5
1446A
  8
0-1
  6
CONTINUOUS
 62
     3
 10
11311.715930282609
 20
17683.61714701321
 30
0.0
 11
11311.715930282609
 21
19461.985685
 31
0.0
  0
LINE
  5
1446B
  8
0-1
  6
CONTINUOUS
 62
     3
 10
11274.7157582826
 20
17773.291143927981
 30
0.0
 11
11274.7157582826
 21
19461.985685
 31
0.0
  0
LINE
  5
1446C
  8
0-1
  6
CONTINUOUS
 62
     3
 10
11111.715270282601
 20
17638.213552947622
 30
0.0
 11
11111.715270282601
 21
19461.985685
 31
0.0
  0
LINE
  5
1446D
  8
0-1
  6
CONTINUOUS
 62
     3
 10
11074.715098282601
 20
17595.670312558748
 30
0.0
 11
11074.715098282601
 21
19461.985685
 31
0.0
  0
LINE
  5
1446E
  8
0-1
  6
CONTINUOUS
 62
     3
 10
10911.714610282599
 20
17408.250401524641
 30
0.0
 11
10911.714610282599
 21
19461.985685
 31
0.0
  0
LINE
  5
1446F
  8
0-1
  6
CONTINUOUS
 62
     3
 10
10874.71443828259
 20
17365.707161135771
 30
0.0
 11
10874.71443828259
 21
19461.985685
 31
0.0
  0
LINE
  5
14470
  8
0-1
  6
CONTINUOUS
 62
     3
 10
10711.71395028259
 20
17178.287250101661
 30
0.0
 11
10711.71395028259
 21
19461.985685
 31
0.0
  0
LINE
  5
14471
  8
0-1
  6
CONTINUOUS
 62
     3
 10
10674.713778282579
 20
17135.74400971278
 30
0.0
 11
10674.713778282579
 21
19461.985685
 31
0.0
  0
LINE
  5
14472
  8
0-1
  6
CONTINUOUS
 62
     3
 10
10511.71329028258
 20
17000.69523749184
 30
0.0
 11
10511.71329028258
 21
19461.985685
 31
0.0
  0
LINE
  5
14473
  8
0-1
  6
CONTINUOUS
 62
     3
 10
10474.713118282571
 20
17090.373517523742
 30
0.0
 11
10474.713118282571
 21
19461.985685
 31
0.0
  0
LINE
  5
14474
  8
0-1
  6
CONTINUOUS
 62
     3
 10
10311.712630282571
 20
17147.049482353101
 30
0.0
 11
10311.712630282571
 21
19461.985685
 31
0.0
  0
LINE
  5
14475
  8
0-1
  6
CONTINUOUS
 62
     3
 10
10274.712458282551
 20
17131.782930452518
 30
0.0
 11
10274.712458282551
 21
19461.985685
 31
0.0
  0
LINE
  5
14476
  8
0-1
  6
CONTINUOUS
 62
     3
 10
10111.711970282549
 20
17064.527691480431
 30
0.0
 11
10111.711970282549
 21
19461.985685
 31
0.0
  0
LINE
  5
14477
  8
0-1
  6
CONTINUOUS
 62
     3
 10
10074.71179828256
 20
17049.261139579859
 30
0.0
 11
10074.71179828256
 21
19461.985685
 31
0.0
  0
LINE
  5
14478
  8
0-6
  6
CONTINUOUS
 62
     6
 10
6717.6414778917706
 20
15048.65966837642
 30
0.0
 11
6425.9102093331603
 21
14731.4454005524
 31
0.0
  0
LINE
  5
14479
  8
0-1
  6
CONTINUOUS
 62
     3
 10
11355.42210569778
 20
17577.690411339281
 30
0.0
 11
11260.068085374271
 21
17808.791394445481
 31
0.0
  0
LINE
  5
1447A
  8
0-1
  6
CONTINUOUS
 62
     3
 10
10526.368553191051
 20
16965.174895287859
 30
0.0
 11
10431.01790351353
 21
17196.278746994321
 31
0.0
  0
LINE
  5
1447B
  8
0-1
  6
CONTINUOUS
 62
     3
 10
10526.368553191051
 20
16965.174895287859
 30
0.0
 11
11260.068085374271
 21
17808.791394445481
 31
0.0
  0
LINE
  5
1447C
  8
0-6
  6
CONTINUOUS
 62
     6
 10
13790.89635332181
 20
16191.26463663741
 30
0.0
 11
12910.897409321789
 21
16191.26463663741
 31
0.0
  0
LINE
  5
1447D
  8
0-6
  6
CONTINUOUS
 62
     6
 10
13968.658490670199
 20
16021.24750896709
 30
0.0
 11
13790.89635332181
 21
16191.26463663741
 31
0.0
  0
LINE
  5
1447E
  8
0-6
  6
CONTINUOUS
 62
     6
 10
14084.286130670191
 20
15910.65774496708
 30
0.0
 11
13987.08879867018
 21
16040.52010196708
 31
0.0
  0
LINE
  5
1447F
  8
0-6
  6
CONTINUOUS
 62
     6
 10
13950.227193670211
 20
16001.974915967079
 30
0.0
 11
14084.286130670191
 21
15910.65774496708
 31
0.0
  0
LINE
  5
14480
  8
0-6
  6
CONTINUOUS
 62
     6
 10
13950.227193670211
 20
16001.974915967079
 30
0.0
 11
13987.08879867018
 21
16040.52010196708
 31
0.0
  0
TEXT
  5
14481
  8
0-6
  6
CONTINUOUS
 62
     7
 10
12985.56176598847
 20
16271.264900637419
 30
0.0
 40
160.0
  1
ブレース
 72
     4
 11
13348.22843265514
 21
16356.598233970761
 31
0.0
  0
LINE
  5
14482
  8
0-6
  6
CONTINUOUS
 62
     6
 10
12692.447654420041
 20
16784.988192000001
 30
0.0
 11
12811.745272752391
 21
17100.58053000001
 31
0.0
  0
LINE
  5
14483
  8
0-6
  6
CONTINUOUS
 62
     6
 10
13612.31603375238
 20
17100.58053000001
 30
0.0
 11
12811.745272752391
 21
17100.58053000001
 31
0.0
  0
TEXT
  5
14484
  8
0-6
  6
CONTINUOUS
 62
     7
 10
12891.74566875239
 20
17180.580794000001
 30
0.0
 40
160.0
  1
桁（中）
 72
     4
 11
13211.74566875239
 21
17260.580794000001
 31
0.0
  0
LINE
  5
14485
  8
0-6
  6
CONTINUOUS
 62
     6
 10
9754.2652631477413
 20
15227.80431279082
 30
0.0
 11
8874.2663191477277
 21
15227.80431279082
 31
0.0
  0
LINE
  5
14486
  8
0-6
  6
CONTINUOUS
 62
     6
 10
8506.5246135731068
 20
15695.652619424
 30
0.0
 11
8874.2663191477277
 21
15227.80431279082
 31
0.0
  0
TEXT
  5
14487
  8
0-6
  6
CONTINUOUS
 62
     7
 10
8948.9306758143939
 20
15307.804576790821
 30
0.0
 40
160.0
  1
ブレース
 72
     4
 11
9311.5973424810618
 21
15393.13791012416
 31
0.0
  0
LINE
  5
14488
  8
SUNPOU
  6
CONTINUOUS
 10
15962.219797282651
 20
19519.98359950001
 30
0.0
 11
15962.219797282651
 21
20316.950867278461
 31
0.0
  0
LINE
  5
14489
  8
SUNPOU
  6
CONTINUOUS
 10
15962.219797282671
 20
12878.173846847811
 30
0.0
 11
15962.219797282671
 21
13619.486437
 31
0.0
  0
LINE
  5
1448A
  8
0-1
  6
CONTINUOUS
 62
     3
 10
15041.721485282669
 20
19509.98900999999
 30
0.0
 11
6755.2205352826568
 21
19509.98900999999
 31
0.0
  0
LINE
  5
1448B
  8
0-1
  6
CONTINUOUS
 62
     3
 10
15097.221248282671
 20
19461.985685
 30
0.0
 11
6699.7197832826632
 21
19461.985685
 31
0.0
  0
LINE
  5
1448C
  8
0-1
  6
CONTINUOUS
 62
     3
 10
9911.711310282557
 20
16982.005900607772
 30
0.0
 11
9911.711310282557
 21
19461.985685
 31
0.0
  0
LINE
  5
1448D
  8
0-1
  6
CONTINUOUS
 62
     3
 10
9874.7111382825497
 20
16966.739348707219
 30
0.0
 11
9874.7111382825497
 21
19461.985685
 31
0.0
  0
LINE
  5
1448E
  8
0-1
  6
CONTINUOUS
 62
     3
 10
9711.7106502825536
 20
16899.484109735109
 30
0.0
 11
9711.7106502825463
 21
19461.985685
 31
0.0
  0
LINE
  5
1448F
  8
0-1
  6
CONTINUOUS
 62
     3
 10
9674.7104782825409
 20
16884.217557834541
 30
0.0
 11
9674.7104782825409
 21
19461.985685
 31
0.0
  0
LINE
  5
14490
  8
0-1
  6
CONTINUOUS
 62
     3
 10
9511.7099902825412
 20
16816.962318862439
 30
0.0
 11
9511.7099902825412
 21
19461.985685
 31
0.0
  0
LINE
  5
14491
  8
0-1
  6
CONTINUOUS
 62
     3
 10
9474.7098182825321
 20
16801.695766961871
 30
0.0
 11
9474.7098182825321
 21
19461.985685
 31
0.0
  0
LINE
  5
14492
  8
0-1
  6
CONTINUOUS
 62
     3
 10
9311.7093302825306
 20
16734.44052798978
 30
0.0
 11
9311.7093302825306
 21
19461.985685
 31
0.0
  0
LINE
  5
14493
  8
0-1
  6
CONTINUOUS
 62
     3
 10
9274.7091582825196
 20
16719.173976089201
 30
0.0
 11
9274.7091582825233
 21
19461.985685
 31
0.0
  0
LINE
  5
14494
  8
0-1
  6
CONTINUOUS
 62
     3
 10
9111.7086702825218
 20
16651.91873711711
 30
0.0
 11
9111.7086702825218
 21
19461.985685
 31
0.0
  0
LINE
  5
14495
  8
0-1
  6
CONTINUOUS
 62
     3
 10
9074.7084982825163
 20
16636.652185216539
 30
0.0
 11
9074.7084982825163
 21
19461.985685
 31
0.0
  0
LINE
  5
14496
  8
0-1
  6
CONTINUOUS
 62
     3
 10
8911.7080102825093
 20
16569.396946244451
 30
0.0
 11
8911.708010282513
 21
19461.985685
 31
0.0
  0
LINE
  5
14497
  8
0-1
  6
CONTINUOUS
 62
     3
 10
8874.7078382824984
 20
16554.13039434388
 30
0.0
 11
8874.7078382825057
 21
19461.985685
 31
0.0
  0
LINE
  5
14498
  8
0-1
  6
CONTINUOUS
 62
     3
 10
8711.7073502825042
 20
16486.875155371781
 30
0.0
 11
8711.7073502825042
 21
19461.985685
 31
0.0
  0
LINE
  5
14499
  8
0-1
  6
CONTINUOUS
 62
     3
 10
8674.7071782824969
 20
16471.60860347121
 30
0.0
 11
8674.7071782824969
 21
19461.985685
 31
0.0
  0
LINE
  5
1449A
  8
0-1
  6
CONTINUOUS
 62
     3
 10
8511.7066902824972
 20
16404.353364499111
 30
0.0
 11
8511.7066902824972
 21
19461.985685
 31
0.0
  0
LINE
  5
1449B
  8
0-1
  6
CONTINUOUS
 62
     3
 10
8474.7065182824881
 20
16389.08681259854
 30
0.0
 11
8474.7065182824881
 21
19461.985685
 31
0.0
  0
LINE
  5
1449C
  8
0-1
  6
CONTINUOUS
 62
     3
 10
8311.7060302824866
 20
16321.831573626439
 30
0.0
 11
8311.7060302824866
 21
19461.985685
 31
0.0
  0
LINE
  5
1449D
  8
0-1
  6
CONTINUOUS
 62
     3
 10
8274.7058582824848
 20
16306.565021725881
 30
0.0
 11
8274.7058582824775
 21
19461.985685
 31
0.0
  0
LINE
  5
1449E
  8
0-1
  6
CONTINUOUS
 62
     3
 10
8111.7053702824769
 20
16239.30978275376
 30
0.0
 11
8111.7053702824769
 21
19461.985685
 31
0.0
  0
LINE
  5
1449F
  8
0-1
  6
CONTINUOUS
 62
     3
 10
8074.7051982824714
 20
16224.043230853211
 30
0.0
 11
8074.7051982824714
 21
19461.985685
 31
0.0
  0
LINE
  5
144A0
  8
0-1
  6
CONTINUOUS
 62
     3
 10
7911.7047102824663
 20
16156.78799188111
 30
0.0
 11
7911.7047102824672
 21
19461.985685
 31
0.0
  0
LINE
  5
144A1
  8
0-1
  6
CONTINUOUS
 62
     3
 10
7874.7045382824608
 20
16141.521439980541
 30
0.0
 11
7874.7045382824608
 21
19461.985685
 31
0.0
  0
LINE
  5
144A2
  8
0-1
  6
CONTINUOUS
 62
     3
 10
7711.7040502824602
 20
16074.26620100843
 30
0.0
 11
7711.7040502824602
 21
19461.985685
 31
0.0
  0
LINE
  5
144A3
  8
0-1
  6
CONTINUOUS
 62
     3
 10
7674.703878282452
 20
16058.99964910786
 30
0.0
 11
7674.703878282452
 21
19461.985685
 31
0.0
  0
LINE
  5
144A4
  8
0-1
  6
CONTINUOUS
 62
     3
 10
7511.7033902824533
 20
15991.744410135771
 30
0.0
 11
7511.7033902824533
 21
19461.985685
 31
0.0
  0
LINE
  5
144A5
  8
0-1
  6
CONTINUOUS
 62
     3
 10
7474.703218282446
 20
15976.477858235199
 30
0.0
 11
7474.703218282446
 21
19461.985685
 31
0.0
  0
LINE
  5
144A6
  8
0-1
  6
CONTINUOUS
 62
     3
 10
7311.7027302824417
 20
15909.222619263101
 30
0.0
 11
7311.7027302824417
 21
19461.985685
 31
0.0
  0
LINE
  5
144A7
  8
0-1
  6
CONTINUOUS
 62
     3
 10
7274.7025582824344
 20
15893.95606736254
 30
0.0
 11
7274.7025582824344
 21
19461.985685
 31
0.0
  0
LINE
  5
144A8
  8
0-1
  6
CONTINUOUS
 62
     3
 10
7111.7020702824329
 20
15826.700828390431
 30
0.0
 11
7111.7020702824329
 21
19461.985685
 31
0.0
  0
LINE
  5
144A9
  8
0-1
  6
CONTINUOUS
 62
     3
 10
7074.7018982824256
 20
15811.434276489859
 30
0.0
 11
7074.7018982824256
 21
19461.985685
 31
0.0
  0
LINE
  5
144AA
  8
0-1
  6
CONTINUOUS
 62
     3
 10
6911.7014102824251
 20
15744.179037517761
 30
0.0
 11
6911.7014102824251
 21
19461.985685
 31
0.0
  0
LINE
  5
144AB
  8
0-1
  6
CONTINUOUS
 62
     3
 10
6874.7012382824178
 20
15728.9124856172
 30
0.0
 11
6874.7012382824178
 21
19461.985685
 31
0.0
  0
LINE
  5
144AC
  8
0-1
  6
CONTINUOUS
 62
     3
 10
11704.719652282651
 20
13811.985710999999
 30
0.0
 11
9455.719652282658
 21
16729.985711000001
 31
0.0
  0
LINE
  5
144AD
  8
2-0
  6
DASHED3
 62
     6
 10
7596.6825912038721
 20
16026.807473662449
 30
0.0
 11
7054.7196522826562
 21
16729.985711000001
 31
0.0
  0
LINE
  5
144AE
  8
0-1
  6
CONTINUOUS
 62
     3
 10
9455.7196522826562
 20
13811.985710999999
 30
0.0
 11
11704.719652282651
 21
16729.985711000001
 31
0.0
  0
LINE
  5
144AF
  8
2-0
  6
DASHED3
 62
     6
 10
11704.719652282651
 20
19295.703218508079
 30
0.0
 11
9517.0959019007332
 21
16819.184586890031
 31
0.0
  0
LINE
  5
144B0
  8
2-0
  6
DASHED3
 62
     6
 10
9455.719652282658
 20
19295.703218508079
 30
0.0
 11
11010.558701673401
 21
17521.9025202515
 31
0.0
  0
LINE
  5
144B1
  8
0-1
  6
CONTINUOUS
 62
     3
 10
11010.558701673401
 20
17521.9025202515
 30
0.0
 11
11704.719652282651
 21
16729.985711000001
 31
0.0
  0
LINE
  5
144B2
  8
0-1
  6
CONTINUOUS
 62
     3
 10
9455.719652282658
 20
16729.985711000001
 30
0.0
 11
9517.0959019007332
 21
16819.184586890031
 31
0.0
  0
LINE
  5
144B3
  8
2-0
  6
DASHED3
 62
     6
 10
9303.7196522826562
 20
19295.703218508079
 30
0.0
 11
7054.7196522826562
 21
16729.985711000001
 31
0.0
  0
LINE
  5
144B4
  8
2-0
  6
DASHED3
 62
     6
 10
7054.7196522826562
 20
19295.703218508079
 30
0.0
 11
9303.7196522826562
 21
16729.985711000001
 31
0.0
  0
LINE
  5
144B5
  8
0-1
  6
CONTINUOUS
 62
     3
 10
9303.7196522826562
 20
13811.985710999999
 30
0.0
 11
7596.6825912038721
 21
16026.807473662449
 31
0.0
  0
LINE
  5
144B6
  8
0-1
  6
CONTINUOUS
 62
     3
 10
7054.7196522826562
 20
13811.985710999999
 30
0.0
 11
9303.7196522826562
 21
16729.985711000001
 31
0.0
  0
LINE
  5
144B7
  8
0-6
  6
CONTINUOUS
 62
     6
 10
6238.111803044073
 20
13699.21626313892
 30
0.0
 11
3596.867336135304
 21
13699.21626313892
 31
0.0
  0
TEXT
  5
144B8
  8
0-6
  6
CONTINUOUS
 62
     7
 10
3670.5134346940649
 20
13779.216527138909
 30
0.0
 40
160.0
  1
桁前（PU）+ 桁補強（PU）
 72
     4
 11
4918.5134346940649
 21
13859.216527138909
 31
0.0
  0
LINE
  5
144B9
  8
0-6
  6
CONTINUOUS
 62
     6
 10
6238.111803044073
 20
13699.21626313892
 30
0.0
 11
7683.4832336661493
 21
13273.28637377761
 31
0.0
  0
LINE
  5
144BA
  8
0-6
  6
CONTINUOUS
 62
     6
 10
7683.4832336661493
 20
13273.28637377761
 30
0.0
 11
8060.4256971616951
 21
13775.48635799994
 31
0.0
  0
LINE
  5
144BB
  8
0-6
  6
CONTINUOUS
 62
     6
 10
6117.7770744716718
 20
16650.257437065851
 30
0.0
 11
3637.4657710303768
 21
16650.257437065851
 31
0.0
  0
TEXT
  5
144BC
  8
0-6
  6
CONTINUOUS
 62
     7
 10
3721.2668604859841
 20
16730.257701065839
 30
0.0
 40
160.0
  1
桁（PU）+ 桁補強（PU）
 72
     4
 11
4873.2668604859828
 21
16810.257701065839
 31
0.0
  0
LINE
  5
144BD
  8
0-6
  6
CONTINUOUS
 62
     6
 10
6117.7770744716772
 20
16650.257437065851
 30
0.0
 11
7563.148505093749
 21
16224.327547704541
 31
0.0
  0
LINE
  5
144BE
  8
0-6
  6
CONTINUOUS
 62
     6
 10
7563.148505093749
 20
16224.327547704541
 30
0.0
 11
7940.0909685892912
 21
16726.52753192688
 31
0.0
  0
LINE
  5
144BF
  8
0-6
  6
CONTINUOUS
 62
     6
 10
6117.777074471669
 20
19182.217120138921
 30
0.0
 11
3637.4657710303732
 21
19182.217120138921
 31
0.0
  0
TEXT
  5
144C0
  8
0-6
  6
CONTINUOUS
 62
     7
 10
3721.2668604859791
 20
19262.217384138909
 30
0.0
 40
160.0
  1
桁（PU）+ 桁補強（PU）
 72
     4
 11
4873.2668604859791
 21
19342.217384138909
 31
0.0
  0
LINE
  5
144C1
  8
0-6
  6
CONTINUOUS
 62
     6
 10
6117.7770744716718
 20
19182.217120138921
 30
0.0
 11
7563.148505093749
 21
18756.287230777609
 31
0.0
  0
LINE
  5
144C2
  8
0-6
  6
CONTINUOUS
 62
     6
 10
7563.148505093749
 20
18756.287230777609
 30
0.0
 11
7940.0909685892912
 21
19258.48721499995
 31
0.0
  0
CIRCLE
  5
144C3
  8
0-5
  6
CONTINUOUS
 62
     4
 10
6764.2200212826647
 20
20739.986634999979
 30
0.0
 40
199.9999949999999
  0
TEXT
  5
144C4
  8
0-5
  6
CONTINUOUS
 62
     7
 10
6737.5533546159968
 20
20659.986634999979
 30
0.0
 40
160.0
  1
1
 72
     4
 11
6764.2200212826647
 21
20739.986634999979
 31
0.0
  0
CIRCLE
  5
144C5
  8
0-5
  6
CONTINUOUS
 62
     4
 10
11764.220021282659
 20
20739.986634999979
 30
0.0
 40
199.9999949999999
  0
TEXT
  5
144C6
  8
0-5
  6
CONTINUOUS
 62
     7
 10
11710.502815282671
 20
20650.771712000002
 30
0.0
 40
160.0
  1
2
 72
     4
 11
11763.836148615999
 21
20730.771712000002
 31
0.0
  0
CIRCLE
  5
144C7
  8
0-5
  6
CONTINUOUS
 62
     4
 10
15032.720021282659
 20
20739.986634999979
 30
0.0
 40
199.9999949999999
  0
TEXT
  5
144C8
  8
0-5
  6
CONTINUOUS
 62
     7
 10
14979.002815282671
 20
20650.771712000002
 30
0.0
 40
160.0
  1
3
 72
     4
 11
15032.33614861601
 21
20730.771712000002
 31
0.0
  0
LINE
  5
144C9
  8
0-6
  6
CONTINUOUS
 62
     6
 10
10518.031048927911
 20
19652.391617999991
 30
0.0
 11
10474.729079927891
 21
19627.390297999991
 31
0.0
  0
LINE
  5
144CA
  8
0-6
  6
CONTINUOUS
 62
     6
 10
10518.031048927911
 20
19652.391617999991
 30
0.0
 11
10571.379074927911
 21
19509.98900999999
 31
0.0
  0
LINE
  5
144CB
  8
0-6
  6
CONTINUOUS
 62
     6
 10
10474.729079927891
 20
19627.390297999991
 30
0.0
 11
10518.031048927911
 21
19652.391617999991
 31
0.0
  0
LINE
  5
144CC
  8
0-6
  6
CONTINUOUS
 62
     6
 10
10571.379074927911
 20
19509.98900999999
 30
0.0
 11
10474.729079927891
 21
19627.390297999991
 31
0.0
  0
LINE
  5
144CD
  8
0-6
  6
CONTINUOUS
 62
     6
 10
10571.379074927911
 20
19509.98900999999
 30
0.0
 11
10518.031048927911
 21
19652.391617999991
 31
0.0
  0
LINE
  5
144CE
  8
0-6
  6
CONTINUOUS
 62
     6
 10
10474.729079927891
 20
19627.390297999991
 30
0.0
 11
10571.379074927911
 21
19509.98900999999
 31
0.0
  0
LINE
  5
144CF
  8
0-6
  6
CONTINUOUS
 62
     6
 10
10496.3810539279
 20
19639.892938000001
 30
0.0
 11
10270.79523725822
 21
20063.562777731098
 31
0.0
  0
TEXT
  5
144D0
  8
0-6
  6
CONTINUOUS
 62
     7
 10
10097.12403392791
 20
20619.988217999999
 30
0.0
 40
160.0
  1
鼻隠し後
 72
     4
 11
10459.79070059458
 21
20699.988217999999
 31
0.0
  0
LINE
  5
144D1
  8
0-6
  6
CONTINUOUS
 62
     6
 10
10017.121789927911
 20
20539.987954
 30
0.0
 11
10859.5613489279
 21
20539.987954
 31
0.0
  0
LINE
  5
144D2
  8
0-6
  6
CONTINUOUS
 62
     6
 10
10202.7613782057
 20
20191.337456683399
 30
0.0
 11
10017.121789927911
 21
20539.987954
 31
0.0
  0
TEXT
  5
144D3
  8
0-6
  6
CONTINUOUS
 62
     7
 10
5475.1177281903547
 20
14811.4446745524
 30
0.0
 40
160.0
  1
梁（P）前
 72
     4
 11
5917.7843948570217
 21
14891.4446745524
 31
0.0
  0
LINE
  5
144D4
  8
0-6
  6
CONTINUOUS
 62
     6
 10
5410.9200400083137
 20
14731.4454005524
 30
0.0
 11
6425.9102093331603
 21
14731.4454005524
 31
0.0
  0
LINE
  5
144E6
  8
0-1
  6
CONTINUOUS
 62
     3
 10
13711.71889928264
 20
18549.91788436587
 30
0.0
 11
13711.71889928264
 21
19461.985685
 31
0.0
  0
LINE
  5
144E7
  8
0-1
  6
CONTINUOUS
 62
     3
 10
13674.717738282659
 20
18534.650924396439
 30
0.0
 11
13674.717738282659
 21
19461.985685
 31
0.0
  0
LINE
  5
144E8
  8
0-1
  6
CONTINUOUS
 62
     3
 10
13511.719229282649
 20
18467.39650197493
 30
0.0
 11
13511.719229282649
 21
19461.985685
 31
0.0
  0
LINE
  5
144E9
  8
0-1
  6
CONTINUOUS
 62
     3
 10
13474.720048282639
 20
18452.130358968509
 30
0.0
 11
13474.720048282639
 21
19461.985685
 31
0.0
  0
LINE
  5
144EA
  8
0-1
  6
CONTINUOUS
 62
     3
 10
13311.718570282639
 20
18384.874711515062
 30
0.0
 11
13311.718570282639
 21
19461.985685
 31
0.0
  0
LINE
  5
144EB
  8
0-1
  6
CONTINUOUS
 62
     3
 10
13274.71839828263
 20
18369.608159614541
 30
0.0
 11
13274.71839828263
 21
19461.985685
 31
0.0
  0
LINE
  5
144EC
  8
0-1
  6
CONTINUOUS
 62
     3
 10
14311.71889928264
 20
18797.48244002022
 30
0.0
 11
14311.71889928264
 21
19461.985685
 31
0.0
  0
LINE
  5
144ED
  8
0-1
  6
CONTINUOUS
 62
     3
 10
14274.717738282659
 20
18782.215480050789
 30
0.0
 11
14274.717738282659
 21
19461.985685
 31
0.0
  0
LINE
  5
144EE
  8
0-1
  6
CONTINUOUS
 62
     3
 10
14111.719229282649
 20
18714.96105762928
 30
0.0
 11
14111.719229282649
 21
19461.985685
 31
0.0
  0
LINE
  5
144EF
  8
0-1
  6
CONTINUOUS
 62
     3
 10
14074.720048282639
 20
18699.694914622869
 30
0.0
 11
14074.720048282639
 21
19461.985685
 31
0.0
  0
LINE
  5
144F0
  8
0-1
  6
CONTINUOUS
 62
     3
 10
13911.718570282639
 20
18632.439267169411
 30
0.0
 11
13911.718570282639
 21
19461.985685
 31
0.0
  0
LINE
  5
144F1
  8
0-1
  6
CONTINUOUS
 62
     3
 10
13874.718398282639
 20
18617.172715268891
 30
0.0
 11
13874.718398282639
 21
19461.985685
 31
0.0
  0
LINE
  5
144F2
  8
0-1
  6
CONTINUOUS
 62
     3
 10
14911.71889928264
 20
19045.04699567458
 30
0.0
 11
14911.71889928264
 21
19461.985685
 31
0.0
  0
LINE
  5
144F3
  8
0-1
  6
CONTINUOUS
 62
     3
 10
14874.717738282659
 20
19029.780035705149
 30
0.0
 11
14874.717738282659
 21
19461.985685
 31
0.0
  0
LINE
  5
144F4
  8
0-1
  6
CONTINUOUS
 62
     3
 10
14711.719229282649
 20
18962.52561328364
 30
0.0
 11
14711.719229282649
 21
19461.985685
 31
0.0
  0
LINE
  5
144F5
  8
0-1
  6
CONTINUOUS
 62
     3
 10
14674.720048282639
 20
18947.25947027724
 30
0.0
 11
14674.720048282639
 21
19461.985685
 31
0.0
  0
LINE
  5
144F6
  8
0-1
  6
CONTINUOUS
 62
     3
 10
14511.71857028263
 20
18880.003822823772
 30
0.0
 11
14511.71857028263
 21
19461.985685
 31
0.0
  0
LINE
  5
144F7
  8
0-1
  6
CONTINUOUS
 62
     3
 10
14474.718398282639
 20
18864.73727092324
 30
0.0
 11
14474.718398282639
 21
19461.985685
 31
0.0
  0
LINE
  5
144FA
  8
WAKUSEN-01
 10
868.00000000000193
 20
22484.000000000011
 30
0.0
 11
32764.000000000011
 21
22484.000000000011
 31
0.0
  0
LINE
  5
144FD
  8
WAKUSEN-01
 10
20560.0
 20
2484.0
 30
0.0
 11
32764.0
 21
2484.0
 31
0.0
  0
LINE
  5
144FE
  8
WAKUSEN-02
 10
20560.0
 20
1655.9999999999991
 30
0.0
 11
26868.0
 21
1655.9999999999991
 31
0.0
  0
TEXT
  5
144FF
  8
WAKUMOJI-01
 10
20670.260259962761
 20
2125.9030093393221
 30
0.0
 40
240.0
  1
名　称
  7
WAKUMOJI
  0
TEXT
  5
14500
  8
WAKUMOJI-01
 10
20656.505485091919
 20
1319.12897497982
 30
0.0
 40
240.0
  1
機種名
  7
WAKUMOJI
  0
LINE
  5
14503
  8
YODOROGO
 10
29977.604341291921
 20
1995.7494964292871
 30
0.0
 11
29829.604341291921
 21
1995.7494964292871
 31
0.0
1001
AUTOCAD_POSTSCRIPT_FIGURE
1002
{
1000
PSFILL
1000
Grayscale
1000
Grayscale
1070
    25
1002
}
  0
LINE
  5
14504
  8
YODOROGO
 10
29829.604341291921
 20
1947.749496429288
 30
0.0
 11
29977.604341291921
 21
1947.749496429288
 31
0.0
1001
AUTOCAD_POSTSCRIPT_FIGURE
1002
{
1000
PSFILL
1000
Grayscale
1000
Grayscale
1070
    25
1002
}
  0
LINE
  5
14505
  8
YODOROGO
 10
29977.604341291921
 20
1907.7494964292871
 30
0.0
 11
29829.604341291921
 21
1907.7494964292871
 31
0.0
1001
AUTOCAD_POSTSCRIPT_FIGURE
1002
{
1000
PSFILL
1000
Grayscale
1000
Grayscale
1070
    25
1002
}
  0
LINE
  5
14506
  8
YODOROGO
 10
29829.604341291921
 20
1859.749496429288
 30
0.0
 11
29977.604341291921
 21
1859.749496429288
 31
0.0
1001
AUTOCAD_POSTSCRIPT_FIGURE
1002
{
1000
PSFILL
1000
Grayscale
1000
Grayscale
1070
    25
1002
}
  0
LINE
  5
14507
  8
YODOROGO
 10
29977.604341291921
 20
1819.7494964292871
 30
0.0
 11
29829.604341291921
 21
1819.7494964292871
 31
0.0
1001
AUTOCAD_POSTSCRIPT_FIGURE
1002
{
1000
PSFILL
1000
Grayscale
1000
Grayscale
1070
    25
1002
}
  0
LINE
  5
14508
  8
YODOROGO
 10
29921.60434129191
 20
1707.749496429288
 30
0.0
 11
29977.604341291921
 21
1707.749496429288
 31
0.0
1001
AUTOCAD_POSTSCRIPT_FIGURE
1002
{
1000
PSFILL
1000
Grayscale
1000
Grayscale
1070
    25
1002
}
  0
LINE
  5
14509
  8
YODOROGO
 10
29737.604341291921
 20
1427.749496429288
 30
0.0
 11
29937.604341291932
 21
1481.3393349155101
 31
0.0
  0
LINE
  5
1450A
  8
YODOROGO
 10
29949.60434129191
 20
1707.749496429288
 30
0.0
 11
29885.604341291921
 21
1707.749496429288
 31
0.0
  0
ARC
  5
1450B
  8
YODOROGO
 10
30254.34774982791
 20
1807.864609233261
 30
0.0
 40
381.88686420564721
 50
213.96111677667841
 51
264.47872074317792
  0
ARC
  5
1450C
  8
YODOROGO
 10
30254.347749827921
 20
1807.864609233302
 30
0.0
 40
381.8868642056816
 50
208.14114420486601
 51
212.9210361185994
  0
LINE
  5
1450D
  8
YODOROGO
 10
29771.409872985321
 20
1556.807661346234
 30
0.0
 11
29933.78413250855
 21
1600.3157130570869
 31
0.0
  0
LINE
  5
1450E
  8
YODOROGO
 10
29737.604341291921
 20
1427.749496429288
 30
0.0
 11
29937.604341291932
 21
1481.3393349155101
 31
0.0
  0
LINE
  5
1450F
  8
YODOROGO
 10
29949.60434129191
 20
1707.749496429288
 30
0.0
 11
29885.604341291921
 21
1707.749496429288
 31
0.0
  0
ARC
  5
14510
  8
YODOROGO
 10
30254.34774982791
 20
1807.864609233261
 30
0.0
 40
381.88686420564721
 50
213.96111677667841
 51
264.47872074317792
  0
LINE
  5
14511
  8
YODOROGO
 10
28793.60434129191
 20
1819.7494964292871
 30
0.0
 11
28433.60434129191
 21
1819.7494964292871
 31
0.0
  0
LINE
  5
14512
  8
YODOROGO
 10
28513.60434129191
 20
1427.749496429288
 30
0.0
 11
28793.60434129191
 21
1427.749496429288
 31
0.0
  0
LINE
  5
14513
  8
YODOROGO
 10
28729.604341291921
 20
1923.7494964292871
 30
0.0
 11
28497.60434129191
 21
1923.7494964292871
 31
0.0
  0
LINE
  5
14514
  8
YODOROGO
 10
28585.604341291921
 20
2027.749496429288
 30
0.0
 11
28657.604341291921
 21
2027.749496429288
 31
0.0
  0
LINE
  5
14515
  8
YODOROGO
 10
28433.60434129191
 20
1707.749496429288
 30
0.0
 11
28433.60434129191
 21
1507.749496429288
 31
0.0
  0
LINE
  5
14516
  8
YODOROGO
 10
28497.60434129191
 20
1563.7494964292871
 30
0.0
 11
28497.60434129191
 21
1707.749496429288
 31
0.0
  0
LINE
  5
14517
  8
YODOROGO
 10
28585.604341291921
 20
1747.74949642929
 30
0.0
 11
28585.604341291921
 21
1547.749496429288
 31
0.0
  0
LINE
  5
14518
  8
YODOROGO
 10
27857.604341291921
 20
1683.749496429288
 30
0.0
 11
27777.604341291921
 21
1619.9724140445701
 31
0.0
  0
LINE
  5
14519
  8
YODOROGO
 10
27937.604341291921
 20
1619.9724140445701
 30
0.0
 11
27857.604341291921
 21
1683.749496429288
 31
0.0
  0
LINE
  5
1451A
  8
YODOROGO
 10
27857.604341291921
 20
1707.749496429288
 30
0.0
 11
27937.604341291921
 21
1643.9724140445701
 31
0.0
  0
LINE
  5
1451B
  8
YODOROGO
 10
27777.604341291921
 20
1643.9724140445701
 30
0.0
 11
27857.604341291921
 21
1707.749496429288
 31
0.0
  0
LINE
  5
1451C
  8
YODOROGO
 10
28040.913204016892
 20
1659.749496429288
 30
0.0
 11
28040.913204016892
 21
1683.7494964292871
 31
0.0
  0
LINE
  5
1451D
  8
YODOROGO
 10
27977.604341291921
 20
1683.7494964292871
 30
0.0
 11
27977.604341291921
 21
1667.749496429285
 31
0.0
  0
LINE
  5
1451E
  8
YODOROGO
 10
28098.135520230931
 20
1707.749496429288
 30
0.0
 11
28098.135520230931
 21
1655.5036372746561
 31
0.0
1001
AUTOCAD_POSTSCRIPT_FIGURE
1002
{
1000
PSFILL
1000
Grayscale
1000
Grayscale
1070
   100
1002
}
  0
LINE
  5
1451F
  8
YODOROGO
 10
28082.135520230921
 20
1655.5036372746561
 30
0.0
 11
28082.135520230921
 21
1707.749496429288
 31
0.0
1001
AUTOCAD_POSTSCRIPT_FIGURE
1002
{
1000
PSFILL
1000
Grayscale
1000
Grayscale
1070
   100
1002
}
  0
LINE
  5
14520
  8
YODOROGO
 10
27809.604341291921
 20
1608.771904043258
 30
0.0
 11
27809.604341291921
 21
1632.771904043258
 31
0.0
  0
LINE
  5
14521
  8
YODOROGO
 10
27905.604341291921
 20
1608.771904043258
 30
0.0
 11
27809.604341291921
 21
1608.771904043258
 31
0.0
  0
LINE
  5
14522
  8
YODOROGO
 10
27905.604341291921
 20
1632.771904043258
 30
0.0
 11
27905.604341291921
 21
1608.771904043258
 31
0.0
  0
LINE
  5
14523
  8
YODOROGO
 10
27809.604341291921
 20
1632.771904043258
 30
0.0
 11
27905.604341291921
 21
1632.771904043258
 31
0.0
  0
LINE
  5
14524
  8
YODOROGO
 10
27824.509588915738
 20
1568.5028573704751
 30
0.0
 11
27785.604341291921
 21
1475.7494964292871
 31
0.0
1001
AUTOCAD_POSTSCRIPT_FIGURE
1002
{
1000
PSFILL
1000
Grayscale
1000
Grayscale
1070
   100
1002
}
  0
LINE
  5
14525
  8
YODOROGO
 10
27777.604341291921
 20
1568.5028573704751
 30
0.0
 11
27824.509588915738
 21
1568.5028573704751
 31
0.0
1001
AUTOCAD_POSTSCRIPT_FIGURE
1002
{
1000
PSFILL
1000
Grayscale
1000
Grayscale
1070
   100
1002
}
  0
LINE
  5
14526
  8
YODOROGO
 10
27777.604341291921
 20
1588.5028573704751
 30
0.0
 11
27777.604341291921
 21
1568.5028573704751
 31
0.0
1001
AUTOCAD_POSTSCRIPT_FIGURE
1002
{
1000
PSFILL
1000
Grayscale
1000
Grayscale
1070
   100
1002
}
  0
LINE
  5
14527
  8
YODOROGO
 10
27937.604341291921
 20
1588.5028573704751
 30
0.0
 11
27777.604341291921
 21
1588.5028573704751
 31
0.0
1001
AUTOCAD_POSTSCRIPT_FIGURE
1002
{
1000
PSFILL
1000
Grayscale
1000
Grayscale
1070
   100
1002
}
  0
LINE
  5
14528
  8
YODOROGO
 10
27937.604341291921
 20
1568.5028573704751
 30
0.0
 11
27937.604341291921
 21
1588.5028573704751
 31
0.0
1001
AUTOCAD_POSTSCRIPT_FIGURE
1002
{
1000
PSFILL
1000
Grayscale
1000
Grayscale
1070
   100
1002
}
  0
LINE
  5
14529
  8
YODOROGO
 10
27844.50958891576
 20
1568.5028573704751
 30
0.0
 11
27937.604341291921
 21
1568.5028573704751
 31
0.0
1001
AUTOCAD_POSTSCRIPT_FIGURE
1002
{
1000
PSFILL
1000
Grayscale
1000
Grayscale
1070
   100
1002
}
  0
LINE
  5
1452A
  8
YODOROGO
 10
27815.546718284771
 20
1495.7494964292871
 30
0.0
 11
27844.50958891576
 21
1568.5028573704751
 31
0.0
1001
AUTOCAD_POSTSCRIPT_FIGURE
1002
{
1000
PSFILL
1000
Grayscale
1000
Grayscale
1070
   100
1002
}
  0
LINE
  5
1452B
  8
YODOROGO
 10
27902.054790808648
 20
1495.7494964292871
 30
0.0
 11
27815.546718284771
 21
1495.7494964292871
 31
0.0
1001
AUTOCAD_POSTSCRIPT_FIGURE
1002
{
1000
PSFILL
1000
Grayscale
1000
Grayscale
1070
   100
1002
}
  0
LINE
  5
1452C
  8
YODOROGO
 10
27885.065004790951
 20
1536.2338106976929
 30
0.0
 11
27902.054790808648
 21
1495.7494964292871
 31
0.0
1001
AUTOCAD_POSTSCRIPT_FIGURE
1002
{
1000
PSFILL
1000
Grayscale
1000
Grayscale
1070
   100
1002
}
  0
LINE
  5
1452D
  8
YODOROGO
 10
27901.065004790951
 20
1536.2338106976929
 30
0.0
 11
27885.065004790951
 21
1536.2338106976929
 31
0.0
1001
AUTOCAD_POSTSCRIPT_FIGURE
1002
{
1000
PSFILL
1000
Grayscale
1000
Grayscale
1070
   100
1002
}
  0
LINE
  5
1452E
  8
YODOROGO
 10
27929.604341291921
 20
1475.7494964292871
 30
0.0
 11
27901.065004790951
 21
1536.2338106976929
 31
0.0
1001
AUTOCAD_POSTSCRIPT_FIGURE
1002
{
1000
PSFILL
1000
Grayscale
1000
Grayscale
1070
   100
1002
}
  0
LINE
  5
1452F
  8
YODOROGO
 10
27785.604341291921
 20
1475.7494964292871
 30
0.0
 11
27929.604341291921
 21
1475.7494964292871
 31
0.0
1001
AUTOCAD_POSTSCRIPT_FIGURE
1002
{
1000
PSFILL
1000
Grayscale
1000
Grayscale
1070
   100
1002
}
  0
LINE
  5
14530
  8
YODOROGO
 10
27777.604341291921
 20
1619.9724140445701
 30
0.0
 11
27777.604341291921
 21
1643.9724140445701
 31
0.0
  0
LINE
  5
14531
  8
YODOROGO
 10
27937.604341291921
 20
1643.9724140445701
 30
0.0
 11
27937.604341291921
 21
1619.9724140445701
 31
0.0
  0
ARC
  5
14532
  8
YODOROGO
 10
28225.940442146959
 20
1600.877765325326
 30
0.0
 40
175.9999999999998
 50
280.3644312771313
 51
3.5414836592180561
  0
ARC
  5
14533
  8
YODOROGO
 10
28235.756030759301
 20
1633.5978069619041
 30
0.0
 40
111.9999999999982
 50
281.24905825041549
 51
348.75094174958321
  0
LINE
  5
14534
  8
YODOROGO
 10
28257.604341291921
 20
1523.7494964292871
 30
0.0
 11
28257.604341291921
 21
1427.749496429288
 31
0.0
  0
LINE
  5
14535
  8
YODOROGO
 10
28020.088903736902
 20
1610.650565061914
 30
0.0
 11
28040.913204016892
 21
1659.749496429288
 31
0.0
  0
LINE
  5
14536
  8
YODOROGO
 10
28041.604341291921
 20
1583.120489948401
 30
0.0
 11
28020.088903736902
 21
1610.650565061914
 31
0.0
  0
LINE
  5
14537
  8
YODOROGO
 10
28041.604341291921
 20
1563.120489948398
 30
0.0
 11
28041.604341291921
 21
1583.120489948401
 31
0.0
  0
LINE
  5
14538
  8
YODOROGO
 10
28017.604341291921
 20
1585.2370637495301
 30
0.0
 11
28041.604341291921
 21
1563.120489948398
 31
0.0
  0
LINE
  5
14539
  8
YODOROGO
 10
28017.604341291921
 20
1475.7494964292871
 30
0.0
 11
28017.604341291921
 21
1585.2370637495301
 31
0.0
  0
LINE
  5
1453A
  8
YODOROGO
 10
28001.604341291921
 20
1475.7494964292871
 30
0.0
 11
28017.604341291921
 21
1475.7494964292871
 31
0.0
  0
LINE
  5
1453B
  8
YODOROGO
 10
28001.604341291921
 20
1580.0053496897469
 30
0.0
 11
28001.604341291921
 21
1475.7494964292871
 31
0.0
  0
LINE
  5
1453C
  8
YODOROGO
 10
27977.604341291921
 20
1532.7680790334291
 30
0.0
 11
28001.604341291921
 21
1580.0053496897469
 31
0.0
  0
LINE
  5
1453D
  8
YODOROGO
 10
27977.604341291921
 20
1556.76807903343
 30
0.0
 11
27977.604341291921
 21
1532.7680790334291
 31
0.0
  0
LINE
  5
1453E
  8
YODOROGO
 10
28025.828774291349
 20
1667.749496429285
 30
0.0
 11
27977.604341291921
 21
1556.76807903343
 31
0.0
  0
LINE
  5
1453F
  8
YODOROGO
 10
27977.604341291921
 20
1667.749496429285
 30
0.0
 11
28025.828774291349
 21
1667.749496429285
 31
0.0
  0
LINE
  5
14540
  8
YODOROGO
 10
28050.135520230899
 20
1655.5036372746561
 30
0.0
 11
28082.135520230921
 21
1655.5036372746561
 31
0.0
1001
AUTOCAD_POSTSCRIPT_FIGURE
1002
{
1000
PSFILL
1000
Grayscale
1000
Grayscale
1070
   100
1002
}
  0
LINE
  5
14541
  8
YODOROGO
 10
28050.135520230899
 20
1631.5036372746561
 30
0.0
 11
28050.135520230899
 21
1655.5036372746561
 31
0.0
1001
AUTOCAD_POSTSCRIPT_FIGURE
1002
{
1000
PSFILL
1000
Grayscale
1000
Grayscale
1070
   100
1002
}
  0
LINE
  5
14542
  8
YODOROGO
 10
28082.135520230921
 20
1631.5036372746561
 30
0.0
 11
28050.135520230899
 21
1631.5036372746561
 31
0.0
1001
AUTOCAD_POSTSCRIPT_FIGURE
1002
{
1000
PSFILL
1000
Grayscale
1000
Grayscale
1070
   100
1002
}
  0
LINE
  5
14543
  8
YODOROGO
 10
28082.135520230921
 20
1499.749496429288
 30
0.0
 11
28082.135520230921
 21
1631.5036372746561
 31
0.0
1001
AUTOCAD_POSTSCRIPT_FIGURE
1002
{
1000
PSFILL
1000
Grayscale
1000
Grayscale
1070
   100
1002
}
  0
LINE
  5
14544
  8
YODOROGO
 10
28050.135520230921
 20
1499.749496429288
 30
0.0
 11
28082.135520230921
 21
1499.749496429288
 31
0.0
1001
AUTOCAD_POSTSCRIPT_FIGURE
1002
{
1000
PSFILL
1000
Grayscale
1000
Grayscale
1070
   100
1002
}
  0
LINE
  5
14545
  8
YODOROGO
 10
28050.135520230921
 20
1475.7494964292871
 30
0.0
 11
28050.135520230921
 21
1499.749496429288
 31
0.0
1001
AUTOCAD_POSTSCRIPT_FIGURE
1002
{
1000
PSFILL
1000
Grayscale
1000
Grayscale
1070
   100
1002
}
  0
LINE
  5
14546
  8
YODOROGO
 10
28137.604341291921
 20
1475.7494964292871
 30
0.0
 11
28050.135520230921
 21
1475.7494964292871
 31
0.0
1001
AUTOCAD_POSTSCRIPT_FIGURE
1002
{
1000
PSFILL
1000
Grayscale
1000
Grayscale
1070
   100
1002
}
  0
LINE
  5
14547
  8
YODOROGO
 10
28137.604341291921
 20
1499.749496429288
 30
0.0
 11
28137.604341291921
 21
1475.7494964292871
 31
0.0
1001
AUTOCAD_POSTSCRIPT_FIGURE
1002
{
1000
PSFILL
1000
Grayscale
1000
Grayscale
1070
   100
1002
}
  0
LINE
  5
14548
  8
YODOROGO
 10
28098.135520230931
 20
1499.749496429288
 30
0.0
 11
28137.604341291921
 21
1499.749496429288
 31
0.0
1001
AUTOCAD_POSTSCRIPT_FIGURE
1002
{
1000
PSFILL
1000
Grayscale
1000
Grayscale
1070
   100
1002
}
  0
LINE
  5
14549
  8
YODOROGO
 10
28098.135520230931
 20
1631.5036372746561
 30
0.0
 11
28098.135520230931
 21
1499.749496429288
 31
0.0
1001
AUTOCAD_POSTSCRIPT_FIGURE
1002
{
1000
PSFILL
1000
Grayscale
1000
Grayscale
1070
   100
1002
}
  0
LINE
  5
1454A
  8
YODOROGO
 10
28137.604341291921
 20
1631.5036372746561
 30
0.0
 11
28098.135520230931
 21
1631.5036372746561
 31
0.0
1001
AUTOCAD_POSTSCRIPT_FIGURE
1002
{
1000
PSFILL
1000
Grayscale
1000
Grayscale
1070
   100
1002
}
  0
LINE
  5
1454B
  8
YODOROGO
 10
28137.604341291921
 20
1655.5036372746561
 30
0.0
 11
28137.604341291921
 21
1631.5036372746561
 31
0.0
1001
AUTOCAD_POSTSCRIPT_FIGURE
1002
{
1000
PSFILL
1000
Grayscale
1000
Grayscale
1070
   100
1002
}
  0
LINE
  5
1454C
  8
YODOROGO
 10
28098.135520230931
 20
1655.5036372746561
 30
0.0
 11
28137.604341291921
 21
1655.5036372746561
 31
0.0
1001
AUTOCAD_POSTSCRIPT_FIGURE
1002
{
1000
PSFILL
1000
Grayscale
1000
Grayscale
1070
   100
1002
}
  0
LINE
  5
1454D
  8
YODOROGO
 10
28401.60434129191
 20
1667.749496429288
 30
0.0
 11
28345.604341291921
 21
1667.749496429288
 31
0.0
  0
LINE
  5
1454E
  8
YODOROGO
 10
28401.60434129191
 20
1611.749496429288
 30
0.0
 11
28401.60434129191
 21
1667.749496429288
 31
0.0
  0
LINE
  5
1454F
  8
YODOROGO
 10
28345.604341291921
 20
1667.749496429288
 30
0.0
 11
28345.604341291921
 21
1611.749496429288
 31
0.0
  0
ARC
  5
14550
  8
YODOROGO
 10
28513.60434129191
 20
1507.749496429288
 30
0.0
 40
80.0
 50
180.0
 51
270.0
  0
ARC
  5
14551
  8
YODOROGO
 10
28537.604341291921
 20
1563.7494964292871
 30
0.0
 40
40.0
 50
180.0
 51
270.0
  0
LINE
  5
14552
  8
YODOROGO
 10
28561.604341291932
 20
1523.7494964292871
 30
0.0
 11
28537.604341291921
 21
1523.7494964292871
 31
0.0
  0
ARC
  5
14553
  8
YODOROGO
 10
28561.604341291932
 20
1547.749496429285
 30
0.0
 40
23.999999999996358
 50
270.0
 51
0.0000000000054281
  0
LINE
  5
14554
  8
YODOROGO
 10
27801.604341291921
 20
1890.786580793706
 30
0.0
 11
27777.604341291921
 21
1843.776747951672
 31
0.0
1001
AUTOCAD_POSTSCRIPT_FIGURE
1002
{
1000
PSFILL
1000
Grayscale
1000
Grayscale
1070
   100
1002
}
  0
LINE
  5
14555
  8
YODOROGO
 10
27801.604341291921
 20
1747.749496429286
 30
0.0
 11
27801.604341291921
 21
1890.786580793706
 31
0.0
1001
AUTOCAD_POSTSCRIPT_FIGURE
1002
{
1000
PSFILL
1000
Grayscale
1000
Grayscale
1070
   100
1002
}
  0
LINE
  5
14556
  8
YODOROGO
 10
27817.604341291921
 20
1747.749496429286
 30
0.0
 11
27801.604341291921
 21
1747.749496429286
 31
0.0
1001
AUTOCAD_POSTSCRIPT_FIGURE
1002
{
1000
PSFILL
1000
Grayscale
1000
Grayscale
1070
   100
1002
}
  0
LINE
  5
14557
  8
YODOROGO
 10
27817.604341291921
 20
1893.7713320852661
 30
0.0
 11
27817.604341291921
 21
1747.749496429286
 31
0.0
1001
AUTOCAD_POSTSCRIPT_FIGURE
1002
{
1000
PSFILL
1000
Grayscale
1000
Grayscale
1070
   100
1002
}
  0
LINE
  5
14558
  8
YODOROGO
 10
27841.604341291921
 20
1867.6547582841361
 30
0.0
 11
27817.604341291921
 21
1893.7713320852661
 31
0.0
1001
AUTOCAD_POSTSCRIPT_FIGURE
1002
{
1000
PSFILL
1000
Grayscale
1000
Grayscale
1070
   100
1002
}
  0
LINE
  5
14559
  8
YODOROGO
 10
27841.604341291921
 20
1883.6547582841361
 30
0.0
 11
27841.604341291921
 21
1867.6547582841361
 31
0.0
1001
AUTOCAD_POSTSCRIPT_FIGURE
1002
{
1000
PSFILL
1000
Grayscale
1000
Grayscale
1070
   100
1002
}
  0
LINE
  5
1455A
  8
YODOROGO
 10
27817.604341291921
 20
1917.7713320852649
 30
0.0
 11
27841.604341291921
 21
1883.6547582841361
 31
0.0
1001
AUTOCAD_POSTSCRIPT_FIGURE
1002
{
1000
PSFILL
1000
Grayscale
1000
Grayscale
1070
   100
1002
}
  0
LINE
  5
1455B
  8
YODOROGO
 10
27817.604341291921
 20
1939.749496429288
 30
0.0
 11
27817.604341291921
 21
1917.7713320852649
 31
0.0
1001
AUTOCAD_POSTSCRIPT_FIGURE
1002
{
1000
PSFILL
1000
Grayscale
1000
Grayscale
1070
   100
1002
}
  0
LINE
  5
1455C
  8
YODOROGO
 10
27889.604341291921
 20
1939.749496429288
 30
0.0
 11
27817.604341291921
 21
1939.749496429288
 31
0.0
1001
AUTOCAD_POSTSCRIPT_FIGURE
1002
{
1000
PSFILL
1000
Grayscale
1000
Grayscale
1070
   100
1002
}
  0
LINE
  5
1455D
  8
YODOROGO
 10
27889.604341291921
 20
1900.5683489363
 30
0.0
 11
27889.604341291921
 21
1939.749496429288
 31
0.0
1001
AUTOCAD_POSTSCRIPT_FIGURE
1002
{
1000
PSFILL
1000
Grayscale
1000
Grayscale
1070
   100
1002
}
  0
LINE
  5
1455E
  8
YODOROGO
 10
27857.604341291921
 20
1900.5683489363
 30
0.0
 11
27889.604341291921
 21
1900.5683489363
 31
0.0
1001
AUTOCAD_POSTSCRIPT_FIGURE
1002
{
1000
PSFILL
1000
Grayscale
1000
Grayscale
1070
   100
1002
}
  0
LINE
  5
1455F
  8
YODOROGO
 10
27857.604341291921
 20
1884.568348936298
 30
0.0
 11
27857.604341291921
 21
1900.5683489363
 31
0.0
1001
AUTOCAD_POSTSCRIPT_FIGURE
1002
{
1000
PSFILL
1000
Grayscale
1000
Grayscale
1070
   100
1002
}
  0
LINE
  5
14560
  8
YODOROGO
 10
27889.604341291921
 20
1884.568348936298
 30
0.0
 11
27857.604341291921
 21
1884.568348936298
 31
0.0
1001
AUTOCAD_POSTSCRIPT_FIGURE
1002
{
1000
PSFILL
1000
Grayscale
1000
Grayscale
1070
   100
1002
}
  0
LINE
  5
14561
  8
YODOROGO
 10
27889.604341291921
 20
1879.6191779644371
 30
0.0
 11
27889.604341291921
 21
1884.568348936298
 31
0.0
1001
AUTOCAD_POSTSCRIPT_FIGURE
1002
{
1000
PSFILL
1000
Grayscale
1000
Grayscale
1070
   100
1002
}
  0
LINE
  5
14562
  8
YODOROGO
 10
27849.604341291921
 20
1812.974981161417
 30
0.0
 11
27889.604341291921
 21
1879.6191779644371
 31
0.0
1001
AUTOCAD_POSTSCRIPT_FIGURE
1002
{
1000
PSFILL
1000
Grayscale
1000
Grayscale
1070
   100
1002
}
  0
LINE
  5
14563
  8
YODOROGO
 10
27849.604341291921
 20
1796.9749811614161
 30
0.0
 11
27849.604341291921
 21
1812.974981161417
 31
0.0
1001
AUTOCAD_POSTSCRIPT_FIGURE
1002
{
1000
PSFILL
1000
Grayscale
1000
Grayscale
1070
   100
1002
}
  0
LINE
  5
14564
  8
YODOROGO
 10
27889.604341291921
 20
1847.6191779644359
 30
0.0
 11
27849.604341291921
 21
1796.9749811614161
 31
0.0
1001
AUTOCAD_POSTSCRIPT_FIGURE
1002
{
1000
PSFILL
1000
Grayscale
1000
Grayscale
1070
   100
1002
}
  0
LINE
  5
14565
  8
YODOROGO
 10
27889.604341291921
 20
1747.749496429286
 30
0.0
 11
27889.604341291921
 21
1847.6191779644359
 31
0.0
1001
AUTOCAD_POSTSCRIPT_FIGURE
1002
{
1000
PSFILL
1000
Grayscale
1000
Grayscale
1070
   100
1002
}
  0
LINE
  5
14566
  8
YODOROGO
 10
27905.604341291921
 20
1747.749496429286
 30
0.0
 11
27889.604341291921
 21
1747.749496429286
 31
0.0
1001
AUTOCAD_POSTSCRIPT_FIGURE
1002
{
1000
PSFILL
1000
Grayscale
1000
Grayscale
1070
   100
1002
}
  0
LINE
  5
14567
  8
YODOROGO
 10
27905.604341291921
 20
1849.409012158806
 30
0.0
 11
27905.604341291921
 21
1747.749496429286
 31
0.0
1001
AUTOCAD_POSTSCRIPT_FIGURE
1002
{
1000
PSFILL
1000
Grayscale
1000
Grayscale
1070
   100
1002
}
  0
LINE
  5
14568
  8
YODOROGO
 10
27937.604341291921
 20
1796.9749811614161
 30
0.0
 11
27905.604341291921
 21
1849.409012158806
 31
0.0
1001
AUTOCAD_POSTSCRIPT_FIGURE
1002
{
1000
PSFILL
1000
Grayscale
1000
Grayscale
1070
   100
1002
}
  0
LINE
  5
14569
  8
YODOROGO
 10
27937.604341291921
 20
1812.974981161417
 30
0.0
 11
27937.604341291921
 21
1796.9749811614161
 31
0.0
1001
AUTOCAD_POSTSCRIPT_FIGURE
1002
{
1000
PSFILL
1000
Grayscale
1000
Grayscale
1070
   100
1002
}
  0
LINE
  5
1456A
  8
YODOROGO
 10
27905.604341291921
 20
1881.4090121588081
 30
0.0
 11
27937.604341291921
 21
1812.974981161417
 31
0.0
1001
AUTOCAD_POSTSCRIPT_FIGURE
1002
{
1000
PSFILL
1000
Grayscale
1000
Grayscale
1070
   100
1002
}
  0
LINE
  5
1456B
  8
YODOROGO
 10
27905.604341291939
 20
1884.5683489363
 30
0.0
 11
27905.604341291921
 21
1881.4090121588081
 31
0.0
1001
AUTOCAD_POSTSCRIPT_FIGURE
1002
{
1000
PSFILL
1000
Grayscale
1000
Grayscale
1070
   100
1002
}
  0
LINE
  5
1456C
  8
YODOROGO
 10
27937.604341291921
 20
1884.568348936298
 30
0.0
 11
27905.604341291939
 21
1884.5683489363
 31
0.0
1001
AUTOCAD_POSTSCRIPT_FIGURE
1002
{
1000
PSFILL
1000
Grayscale
1000
Grayscale
1070
   100
1002
}
  0
LINE
  5
1456D
  8
YODOROGO
 10
27937.604341291921
 20
1900.5683489363
 30
0.0
 11
27937.604341291921
 21
1884.568348936298
 31
0.0
1001
AUTOCAD_POSTSCRIPT_FIGURE
1002
{
1000
PSFILL
1000
Grayscale
1000
Grayscale
1070
   100
1002
}
  0
LINE
  5
1456E
  8
YODOROGO
 10
27905.604341291921
 20
1900.5683489363
 30
0.0
 11
27937.604341291921
 21
1900.5683489363
 31
0.0
1001
AUTOCAD_POSTSCRIPT_FIGURE
1002
{
1000
PSFILL
1000
Grayscale
1000
Grayscale
1070
   100
1002
}
  0
LINE
  5
1456F
  8
YODOROGO
 10
27905.604341291921
 20
1939.749496429288
 30
0.0
 11
27905.604341291921
 21
1900.5683489363
 31
0.0
1001
AUTOCAD_POSTSCRIPT_FIGURE
1002
{
1000
PSFILL
1000
Grayscale
1000
Grayscale
1070
   100
1002
}
  0
LINE
  5
14570
  8
YODOROGO
 10
27937.604341291921
 20
1939.749496429288
 30
0.0
 11
27905.604341291921
 21
1939.749496429288
 31
0.0
1001
AUTOCAD_POSTSCRIPT_FIGURE
1002
{
1000
PSFILL
1000
Grayscale
1000
Grayscale
1070
   100
1002
}
  0
LINE
  5
14571
  8
YODOROGO
 10
27937.604341291921
 20
1955.7494964292871
 30
0.0
 11
27937.604341291921
 21
1939.749496429288
 31
0.0
1001
AUTOCAD_POSTSCRIPT_FIGURE
1002
{
1000
PSFILL
1000
Grayscale
1000
Grayscale
1070
   100
1002
}
  0
LINE
  5
14572
  8
YODOROGO
 10
27905.604341291921
 20
1955.7494964292871
 30
0.0
 11
27937.604341291921
 21
1955.7494964292871
 31
0.0
1001
AUTOCAD_POSTSCRIPT_FIGURE
1002
{
1000
PSFILL
1000
Grayscale
1000
Grayscale
1070
   100
1002
}
  0
LINE
  5
14573
  8
YODOROGO
 10
27905.604341291921
 20
1979.749496429288
 30
0.0
 11
27905.604341291921
 21
1955.7494964292871
 31
0.0
1001
AUTOCAD_POSTSCRIPT_FIGURE
1002
{
1000
PSFILL
1000
Grayscale
1000
Grayscale
1070
   100
1002
}
  0
LINE
  5
14574
  8
YODOROGO
 10
27889.604341291921
 20
1979.749496429288
 30
0.0
 11
27905.604341291921
 21
1979.749496429288
 31
0.0
1001
AUTOCAD_POSTSCRIPT_FIGURE
1002
{
1000
PSFILL
1000
Grayscale
1000
Grayscale
1070
   100
1002
}
  0
LINE
  5
14575
  8
YODOROGO
 10
27889.604341291921
 20
1955.7494964292871
 30
0.0
 11
27889.604341291921
 21
1979.749496429288
 31
0.0
1001
AUTOCAD_POSTSCRIPT_FIGURE
1002
{
1000
PSFILL
1000
Grayscale
1000
Grayscale
1070
   100
1002
}
  0
LINE
  5
14576
  8
YODOROGO
 10
27865.604341291921
 20
1955.7494964292871
 30
0.0
 11
27889.604341291921
 21
1955.7494964292871
 31
0.0
1001
AUTOCAD_POSTSCRIPT_FIGURE
1002
{
1000
PSFILL
1000
Grayscale
1000
Grayscale
1070
   100
1002
}
  0
LINE
  5
14577
  8
YODOROGO
 10
27865.604341291921
 20
1979.749496429288
 30
0.0
 11
27865.604341291921
 21
1955.7494964292871
 31
0.0
1001
AUTOCAD_POSTSCRIPT_FIGURE
1002
{
1000
PSFILL
1000
Grayscale
1000
Grayscale
1070
   100
1002
}
  0
LINE
  5
14578
  8
YODOROGO
 10
27849.604341291921
 20
1979.749496429288
 30
0.0
 11
27865.604341291921
 21
1979.749496429288
 31
0.0
1001
AUTOCAD_POSTSCRIPT_FIGURE
1002
{
1000
PSFILL
1000
Grayscale
1000
Grayscale
1070
   100
1002
}
  0
LINE
  5
14579
  8
YODOROGO
 10
27849.604341291921
 20
1955.7494964292871
 30
0.0
 11
27849.604341291921
 21
1979.749496429288
 31
0.0
1001
AUTOCAD_POSTSCRIPT_FIGURE
1002
{
1000
PSFILL
1000
Grayscale
1000
Grayscale
1070
   100
1002
}
  0
LINE
  5
1457A
  8
YODOROGO
 10
27817.604341291921
 20
1955.7494964292871
 30
0.0
 11
27849.604341291921
 21
1955.7494964292871
 31
0.0
1001
AUTOCAD_POSTSCRIPT_FIGURE
1002
{
1000
PSFILL
1000
Grayscale
1000
Grayscale
1070
   100
1002
}
  0
LINE
  5
1457B
  8
YODOROGO
 10
27817.604341291921
 20
1979.749496429288
 30
0.0
 11
27817.604341291921
 21
1955.7494964292871
 31
0.0
1001
AUTOCAD_POSTSCRIPT_FIGURE
1002
{
1000
PSFILL
1000
Grayscale
1000
Grayscale
1070
   100
1002
}
  0
LINE
  5
1457C
  8
YODOROGO
 10
27801.604341291921
 20
1979.749496429288
 30
0.0
 11
27817.604341291921
 21
1979.749496429288
 31
0.0
1001
AUTOCAD_POSTSCRIPT_FIGURE
1002
{
1000
PSFILL
1000
Grayscale
1000
Grayscale
1070
   100
1002
}
  0
LINE
  5
1457D
  8
YODOROGO
 10
27801.604341291921
 20
1955.7494964292871
 30
0.0
 11
27801.604341291921
 21
1979.749496429288
 31
0.0
1001
AUTOCAD_POSTSCRIPT_FIGURE
1002
{
1000
PSFILL
1000
Grayscale
1000
Grayscale
1070
   100
1002
}
  0
LINE
  5
1457E
  8
YODOROGO
 10
27777.604341291921
 20
1955.7494964292871
 30
0.0
 11
27801.604341291921
 21
1955.7494964292871
 31
0.0
1001
AUTOCAD_POSTSCRIPT_FIGURE
1002
{
1000
PSFILL
1000
Grayscale
1000
Grayscale
1070
   100
1002
}
  0
LINE
  5
1457F
  8
YODOROGO
 10
27777.604341291921
 20
1939.749496429288
 30
0.0
 11
27777.604341291921
 21
1955.7494964292871
 31
0.0
1001
AUTOCAD_POSTSCRIPT_FIGURE
1002
{
1000
PSFILL
1000
Grayscale
1000
Grayscale
1070
   100
1002
}
  0
LINE
  5
14580
  8
YODOROGO
 10
27801.604341291921
 20
1939.749496429288
 30
0.0
 11
27777.604341291921
 21
1939.749496429288
 31
0.0
1001
AUTOCAD_POSTSCRIPT_FIGURE
1002
{
1000
PSFILL
1000
Grayscale
1000
Grayscale
1070
   100
1002
}
  0
LINE
  5
14581
  8
YODOROGO
 10
27801.604341291921
 20
1914.7865807937051
 30
0.0
 11
27801.604341291921
 21
1939.749496429288
 31
0.0
1001
AUTOCAD_POSTSCRIPT_FIGURE
1002
{
1000
PSFILL
1000
Grayscale
1000
Grayscale
1070
   100
1002
}
  0
LINE
  5
14582
  8
YODOROGO
 10
27777.604341291921
 20
1859.776747951671
 30
0.0
 11
27801.604341291921
 21
1914.7865807937051
 31
0.0
1001
AUTOCAD_POSTSCRIPT_FIGURE
1002
{
1000
PSFILL
1000
Grayscale
1000
Grayscale
1070
   100
1002
}
  0
LINE
  5
14583
  8
YODOROGO
 10
27777.604341291921
 20
1843.776747951672
 30
0.0
 11
27777.604341291921
 21
1859.776747951671
 31
0.0
1001
AUTOCAD_POSTSCRIPT_FIGURE
1002
{
1000
PSFILL
1000
Grayscale
1000
Grayscale
1070
   100
1002
}
  0
LINE
  5
14584
  8
YODOROGO
 10
28257.604341291921
 20
1867.7494964292871
 30
0.0
 11
28401.60434129191
 21
1824.877625640306
 31
0.0
1001
AUTOCAD_POSTSCRIPT_FIGURE
1002
{
1000
PSFILL
1000
Grayscale
1000
Grayscale
1070
   100
1002
}
  0
LINE
  5
14585
  8
YODOROGO
 10
28401.60434129191
 20
1752.877625640306
 30
0.0
 11
28257.604341291921
 21
1795.7494964292871
 31
0.0
1001
AUTOCAD_POSTSCRIPT_FIGURE
1002
{
1000
PSFILL
1000
Grayscale
1000
Grayscale
1070
   100
1002
}
  0
LINE
  5
14586
  8
YODOROGO
 10
28401.60434129191
 20
1984.877625640306
 30
0.0
 11
28257.604341291921
 21
2027.749496429288
 31
0.0
1001
AUTOCAD_POSTSCRIPT_FIGURE
1002
{
1000
PSFILL
1000
Grayscale
1000
Grayscale
1070
   100
1002
}
  0
LINE
  5
14587
  8
YODOROGO
 10
28257.604341291921
 20
1959.749496429288
 30
0.0
 11
28401.60434129191
 21
1916.8776256403071
 31
0.0
1001
AUTOCAD_POSTSCRIPT_FIGURE
1002
{
1000
PSFILL
1000
Grayscale
1000
Grayscale
1070
   100
1002
}
  0
LINE
  5
14588
  8
YODOROGO
 10
28257.604341291921
 20
1795.7494964292871
 30
0.0
 11
28257.604341291921
 21
1867.7494964292871
 31
0.0
1001
AUTOCAD_POSTSCRIPT_FIGURE
1002
{
1000
PSFILL
1000
Grayscale
1000
Grayscale
1070
   100
1002
}
  0
LINE
  5
14589
  8
YODOROGO
 10
28257.604341291921
 20
2027.749496429288
 30
0.0
 11
28257.604341291921
 21
1959.749496429288
 31
0.0
1001
AUTOCAD_POSTSCRIPT_FIGURE
1002
{
1000
PSFILL
1000
Grayscale
1000
Grayscale
1070
   100
1002
}
  0
LINE
  5
1458A
  8
YODOROGO
 10
28080.236320206739
 20
1939.749496429288
 30
0.0
 11
28129.60434129191
 21
1747.749496429286
 31
0.0
1001
AUTOCAD_POSTSCRIPT_FIGURE
1002
{
1000
PSFILL
1000
Grayscale
1000
Grayscale
1070
   100
1002
}
  0
LINE
  5
1458B
  8
YODOROGO
 10
27977.604341291921
 20
1939.749496429288
 30
0.0
 11
28080.236320206739
 21
1939.749496429288
 31
0.0
1001
AUTOCAD_POSTSCRIPT_FIGURE
1002
{
1000
PSFILL
1000
Grayscale
1000
Grayscale
1070
   100
1002
}
  0
LINE
  5
1458C
  8
YODOROGO
 10
27977.604341291921
 20
1955.7494964292871
 30
0.0
 11
27977.604341291921
 21
1939.749496429288
 31
0.0
1001
AUTOCAD_POSTSCRIPT_FIGURE
1002
{
1000
PSFILL
1000
Grayscale
1000
Grayscale
1070
   100
1002
}
  0
LINE
  5
1458D
  8
YODOROGO
 10
28076.60687851991
 20
1955.7494964292871
 30
0.0
 11
27977.604341291921
 21
1955.7494964292871
 31
0.0
1001
AUTOCAD_POSTSCRIPT_FIGURE
1002
{
1000
PSFILL
1000
Grayscale
1000
Grayscale
1070
   100
1002
}
  0
LINE
  5
1458E
  8
YODOROGO
 10
28071.162715989711
 20
1979.749496429288
 30
0.0
 11
28076.60687851991
 21
1955.7494964292871
 31
0.0
1001
AUTOCAD_POSTSCRIPT_FIGURE
1002
{
1000
PSFILL
1000
Grayscale
1000
Grayscale
1070
   100
1002
}
  0
LINE
  5
1458F
  8
YODOROGO
 10
28091.162715989711
 20
1979.749496429288
 30
0.0
 11
28071.162715989711
 21
1979.749496429288
 31
0.0
1001
AUTOCAD_POSTSCRIPT_FIGURE
1002
{
1000
PSFILL
1000
Grayscale
1000
Grayscale
1070
   100
1002
}
  0
LINE
  5
14590
  8
YODOROGO
 10
28095.806878519939
 20
1955.7494964292871
 30
0.0
 11
28091.162715989711
 21
1979.749496429288
 31
0.0
1001
AUTOCAD_POSTSCRIPT_FIGURE
1002
{
1000
PSFILL
1000
Grayscale
1000
Grayscale
1070
   100
1002
}
  0
LINE
  5
14591
  8
YODOROGO
 10
28121.604341291921
 20
1955.7494964292871
 30
0.0
 11
28095.806878519939
 21
1955.7494964292871
 31
0.0
1001
AUTOCAD_POSTSCRIPT_FIGURE
1002
{
1000
PSFILL
1000
Grayscale
1000
Grayscale
1070
   100
1002
}
  0
LINE
  5
14592
  8
YODOROGO
 10
28121.604341291921
 20
1979.749496429288
 30
0.0
 11
28121.604341291921
 21
1955.7494964292871
 31
0.0
1001
AUTOCAD_POSTSCRIPT_FIGURE
1002
{
1000
PSFILL
1000
Grayscale
1000
Grayscale
1070
   100
1002
}
  0
LINE
  5
14593
  8
YODOROGO
 10
28137.604341291921
 20
1979.749496429288
 30
0.0
 11
28121.604341291921
 21
1979.749496429288
 31
0.0
1001
AUTOCAD_POSTSCRIPT_FIGURE
1002
{
1000
PSFILL
1000
Grayscale
1000
Grayscale
1070
   100
1002
}
  0
LINE
  5
14594
  8
YODOROGO
 10
28137.604341291921
 20
1955.7494964292871
 30
0.0
 11
28137.604341291921
 21
1979.749496429288
 31
0.0
1001
AUTOCAD_POSTSCRIPT_FIGURE
1002
{
1000
PSFILL
1000
Grayscale
1000
Grayscale
1070
   100
1002
}
  0
LINE
  5
14595
  8
YODOROGO
 10
28137.604341291921
 20
1939.749496429288
 30
0.0
 11
28137.604341291921
 21
1955.7494964292871
 31
0.0
1001
AUTOCAD_POSTSCRIPT_FIGURE
1002
{
1000
PSFILL
1000
Grayscale
1000
Grayscale
1070
   100
1002
}
  0
LINE
  5
14596
  8
YODOROGO
 10
28098.902986873411
 20
1939.749496429288
 30
0.0
 11
28137.604341291921
 21
1939.749496429288
 31
0.0
1001
AUTOCAD_POSTSCRIPT_FIGURE
1002
{
1000
PSFILL
1000
Grayscale
1000
Grayscale
1070
   100
1002
}
  0
LINE
  5
14597
  8
YODOROGO
 10
28137.604341291921
 20
1747.749496429286
 30
0.0
 11
28098.902986873411
 21
1939.749496429288
 31
0.0
1001
AUTOCAD_POSTSCRIPT_FIGURE
1002
{
1000
PSFILL
1000
Grayscale
1000
Grayscale
1070
   100
1002
}
  0
LINE
  5
14598
  8
YODOROGO
 10
28129.60434129191
 20
1747.749496429286
 30
0.0
 11
28137.604341291921
 21
1747.749496429286
 31
0.0
1001
AUTOCAD_POSTSCRIPT_FIGURE
1002
{
1000
PSFILL
1000
Grayscale
1000
Grayscale
1070
   100
1002
}
  0
LINE
  5
14599
  8
YODOROGO
 10
28078.06921993379
 20
1775.7407762987939
 30
0.0
 11
27977.604341291921
 21
1747.749496429286
 31
0.0
  0
LINE
  5
1459A
  8
YODOROGO
 10
28078.06921993379
 20
1798.6689795290731
 30
0.0
 11
28078.06921993379
 21
1775.7407762987939
 31
0.0
  0
LINE
  5
1459B
  8
YODOROGO
 10
28033.83678061287
 20
1786.816933133767
 30
0.0
 11
28078.06921993379
 21
1798.6689795290731
 31
0.0
  0
LINE
  5
1459C
  8
YODOROGO
 10
28033.83678061287
 20
1872.5683489362989
 30
0.0
 11
28033.83678061287
 21
1786.816933133767
 31
0.0
  0
LINE
  5
1459D
  8
YODOROGO
 10
28078.06921993379
 20
1872.5683489362989
 30
0.0
 11
28033.83678061287
 21
1872.5683489362989
 31
0.0
  0
LINE
  5
1459E
  8
YODOROGO
 10
28078.06921993379
 20
1892.568348936298
 30
0.0
 11
28078.06921993379
 21
1872.5683489362989
 31
0.0
  0
LINE
  5
1459F
  8
YODOROGO
 10
27977.604341291921
 20
1892.568348936298
 30
0.0
 11
28078.06921993379
 21
1892.568348936298
 31
0.0
  0
LINE
  5
145A0
  8
YODOROGO
 10
27977.604341291921
 20
1872.5683489362989
 30
0.0
 11
27977.604341291921
 21
1892.568348936298
 31
0.0
  0
LINE
  5
145A1
  8
YODOROGO
 10
28021.836780612852
 20
1872.5683489362989
 30
0.0
 11
27977.604341291921
 21
1872.5683489362989
 31
0.0
  0
LINE
  5
145A2
  8
YODOROGO
 10
28021.836780612852
 20
1784.673339594317
 30
0.0
 11
28021.836780612852
 21
1872.5683489362989
 31
0.0
  0
LINE
  5
145A3
  8
YODOROGO
 10
27977.604341291921
 20
1771.749496429286
 30
0.0
 11
28021.836780612852
 21
1784.673339594317
 31
0.0
  0
LINE
  5
145A4
  8
YODOROGO
 10
27977.604341291921
 20
1747.749496429286
 30
0.0
 11
27977.604341291921
 21
1771.749496429286
 31
0.0
  0
LINE
  5
145A5
  8
YODOROGO
 10
28001.604341291921
 20
1707.749496429288
 30
0.0
 11
28001.604341291921
 21
1683.7494964292871
 31
0.0
  0
LINE
  5
145A6
  8
YODOROGO
 10
28017.604341291921
 20
1707.749496429288
 30
0.0
 11
28001.604341291921
 21
1707.749496429288
 31
0.0
  0
LINE
  5
145A7
  8
YODOROGO
 10
28017.604341291921
 20
1683.7494964292871
 30
0.0
 11
28017.604341291921
 21
1707.749496429288
 31
0.0
  0
LINE
  5
145A8
  8
YODOROGO
 10
28040.913204016892
 20
1683.7494964292871
 30
0.0
 11
28017.604341291921
 21
1683.7494964292871
 31
0.0
  0
LINE
  5
145A9
  8
YODOROGO
 10
28001.604341291921
 20
1683.7494964292871
 30
0.0
 11
27977.604341291921
 21
1683.7494964292871
 31
0.0
  0
LINE
  5
145AA
  8
YODOROGO
 10
28082.135520230921
 20
1707.749496429288
 30
0.0
 11
28098.135520230931
 21
1707.749496429288
 31
0.0
1001
AUTOCAD_POSTSCRIPT_FIGURE
1002
{
1000
PSFILL
1000
Grayscale
1000
Grayscale
1070
   100
1002
}
  0
LINE
  5
145AB
  8
YODOROGO
 10
28401.60434129191
 20
1824.877625640306
 30
0.0
 11
28401.60434129191
 21
1752.877625640306
 31
0.0
1001
AUTOCAD_POSTSCRIPT_FIGURE
1002
{
1000
PSFILL
1000
Grayscale
1000
Grayscale
1070
   100
1002
}
  0
LINE
  5
145AC
  8
YODOROGO
 10
28401.60434129191
 20
1916.8776256403071
 30
0.0
 11
28401.60434129191
 21
1984.877625640306
 31
0.0
1001
AUTOCAD_POSTSCRIPT_FIGURE
1002
{
1000
PSFILL
1000
Grayscale
1000
Grayscale
1070
   100
1002
}
  0
LINE
  5
145AD
  8
YODOROGO
 10
28433.60434129191
 20
1819.7494964292871
 30
0.0
 11
28433.60434129191
 21
1747.74949642929
 31
0.0
  0
LINE
  5
145AE
  8
YODOROGO
 10
28497.60434129191
 20
1707.749496429288
 30
0.0
 11
28433.60434129191
 21
1707.749496429288
 31
0.0
  0
LINE
  5
145AF
  8
YODOROGO
 10
28433.60434129191
 20
1747.74949642929
 30
0.0
 11
28585.604341291921
 21
1747.74949642929
 31
0.0
  0
LINE
  5
145B0
  8
YODOROGO
 10
28497.60434129191
 20
1867.7494964292871
 30
0.0
 11
28433.60434129191
 21
1867.7494964292871
 31
0.0
  0
LINE
  5
145B1
  8
YODOROGO
 10
28497.60434129191
 20
1923.7494964292871
 30
0.0
 11
28497.60434129191
 21
1867.7494964292871
 31
0.0
  0
LINE
  5
145B2
  8
YODOROGO
 10
28585.604341291921
 20
1987.7494964292871
 30
0.0
 11
28585.604341291921
 21
2027.749496429288
 31
0.0
  0
LINE
  5
145B3
  8
YODOROGO
 10
28433.60434129191
 20
1987.7494964292871
 30
0.0
 11
28585.604341291921
 21
1987.7494964292871
 31
0.0
  0
LINE
  5
145B4
  8
YODOROGO
 10
28433.60434129191
 20
1867.7494964292871
 30
0.0
 11
28433.60434129191
 21
1987.7494964292871
 31
0.0
  0
LINE
  5
145B5
  8
YODOROGO
 10
29001.60434129191
 20
2027.749496429288
 30
0.0
 11
29001.60434129191
 21
1619.749496429288
 31
0.0
  0
LINE
  5
145B6
  8
YODOROGO
 10
29073.604341291921
 20
1579.749496429288
 30
0.0
 11
29073.604341291921
 21
2027.749496429288
 31
0.0
  0
LINE
  5
145B7
  8
YODOROGO
 10
29261.604341291921
 20
1491.749496429286
 30
0.0
 11
29261.604341291921
 21
2007.749496429288
 31
0.0
  0
LINE
  5
145B8
  8
YODOROGO
 10
29197.604341291921
 20
2007.749496429288
 30
0.0
 11
29197.604341291921
 21
1491.749496429286
 31
0.0
  0
LINE
  5
145B9
  8
YODOROGO
 10
29385.604341291921
 20
2027.749496429288
 30
0.0
 11
29385.604341291921
 21
1427.749496429288
 31
0.0
  0
LINE
  5
145BA
  8
YODOROGO
 10
29457.604341291921
 20
1427.749496429288
 30
0.0
 11
29457.604341291921
 21
2027.749496429288
 31
0.0
  0
LINE
  5
145BB
  8
YODOROGO
 10
28657.604341291921
 20
1667.749496429288
 30
0.0
 11
28657.604341291921
 21
1747.74949642929
 31
0.0
  0
LINE
  5
145BC
  8
YODOROGO
 10
29885.604341291921
 20
1707.749496429288
 30
0.0
 11
29885.604341291921
 21
1667.749496429288
 31
0.0
  0
LINE
  5
145BD
  8
YODOROGO
 10
29885.604341291921
 20
1707.749496429288
 30
0.0
 11
29885.604341291921
 21
1667.749496429288
 31
0.0
  0
ARC
  5
145BE
  8
YODOROGO
 10
28906.911576186842
 20
1618.217864442272
 30
0.0
 40
94.705151178741644
 50
274.05244162907098
 51
0.9266642149310712
  0
ARC
  5
145BF
  8
YODOROGO
 10
28909.186170719819
 20
1592.61072861044
 30
0.0
 40
164.92042356085511
 50
271.53512106537772
 51
355.52727750585052
  0
LINE
  5
145C0
  8
YODOROGO
 10
28913.604341291921
 20
1523.7494964292871
 30
0.0
 11
28913.604341291921
 21
1427.749496429288
 31
0.0
  0
LINE
  5
145C1
  8
YODOROGO
 10
28793.60434129191
 20
1667.749496429288
 30
0.0
 11
28657.604341291921
 21
1667.749496429288
 31
0.0
  0
LINE
  5
145C2
  8
YODOROGO
 10
28793.60434129191
 20
1603.749496429288
 30
0.0
 11
28793.60434129191
 21
1667.749496429288
 31
0.0
  0
LINE
  5
145C3
  8
YODOROGO
 10
28657.604341291921
 20
1603.749496429288
 30
0.0
 11
28793.60434129191
 21
1603.749496429288
 31
0.0
  0
LINE
  5
145C4
  8
YODOROGO
 10
28657.604341291921
 20
1523.7494964292871
 30
0.0
 11
28657.604341291921
 21
1603.749496429288
 31
0.0
  0
LINE
  5
145C5
  8
YODOROGO
 10
28793.60434129191
 20
1523.7494964292871
 30
0.0
 11
28657.604341291921
 21
1523.7494964292871
 31
0.0
  0
LINE
  5
145C6
  8
YODOROGO
 10
28793.60434129191
 20
1427.749496429288
 30
0.0
 11
28793.60434129191
 21
1523.7494964292871
 31
0.0
  0
LINE
  5
145C7
  8
YODOROGO
 10
29197.604341291921
 20
1491.749496429286
 30
0.0
 11
29261.604341291921
 21
1491.749496429286
 31
0.0
  0
LINE
  5
145C8
  8
YODOROGO
 10
29385.604341291921
 20
1427.749496429288
 30
0.0
 11
29457.604341291921
 21
1427.749496429288
 31
0.0
  0
LINE
  5
145C9
  8
YODOROGO
 10
29737.604341291921
 20
1528.4414521705639
 30
0.0
 11
29737.604341291921
 21
1427.749496429288
 31
0.0
  0
LINE
  5
145CA
  8
YODOROGO
 10
29617.604341291921
 20
1427.749496429288
 30
0.0
 11
29737.604341291921
 21
1528.4414521705639
 31
0.0
  0
LINE
  5
145CB
  8
YODOROGO
 10
29617.604341291921
 20
1547.749496429288
 30
0.0
 11
29617.604341291921
 21
1427.749496429288
 31
0.0
  0
LINE
  5
145CC
  8
YODOROGO
 10
29712.944628699472
 20
1627.749496429288
 30
0.0
 11
29617.604341291921
 21
1547.749496429288
 31
0.0
  0
LINE
  5
145CD
  8
YODOROGO
 10
29617.604341291921
 20
1627.749496429288
 30
0.0
 11
29712.944628699472
 21
1627.749496429288
 31
0.0
  0
LINE
  5
145CE
  8
YODOROGO
 10
29617.604341291921
 20
1667.749496429288
 30
0.0
 11
29617.604341291921
 21
1627.749496429288
 31
0.0
  0
LINE
  5
145CF
  8
YODOROGO
 10
29885.604341291921
 20
1667.749496429288
 30
0.0
 11
29617.604341291921
 21
1667.749496429288
 31
0.0
  0
LINE
  5
145D0
  8
YODOROGO
 10
29917.604341291921
 20
1627.749496429288
 30
0.0
 11
29777.604341291921
 21
1627.749496429288
 31
0.0
  0
LINE
  5
145D1
  8
YODOROGO
 10
29777.604341291921
 20
1562.0054374176559
 30
0.0
 11
29771.409872985321
 21
1556.807661346234
 31
0.0
  0
LINE
  5
145D2
  8
YODOROGO
 10
29777.604341291921
 20
1627.749496429288
 30
0.0
 11
29777.604341291921
 21
1562.0054374176559
 31
0.0
  0
LINE
  5
145D3
  8
YODOROGO
 10
29737.604341291921
 20
1528.4414521705639
 30
0.0
 11
29737.604341291921
 21
1427.749496429288
 31
0.0
  0
LINE
  5
145D4
  8
YODOROGO
 10
29617.604341291921
 20
1427.749496429288
 30
0.0
 11
29737.604341291921
 21
1528.4414521705639
 31
0.0
  0
LINE
  5
145D5
  8
YODOROGO
 10
29617.604341291921
 20
1547.749496429288
 30
0.0
 11
29617.604341291921
 21
1427.749496429288
 31
0.0
  0
LINE
  5
145D6
  8
YODOROGO
 10
29712.944628699472
 20
1627.749496429288
 30
0.0
 11
29617.604341291921
 21
1547.749496429288
 31
0.0
  0
LINE
  5
145D7
  8
YODOROGO
 10
29617.604341291921
 20
1627.749496429288
 30
0.0
 11
29712.944628699472
 21
1627.749496429288
 31
0.0
  0
LINE
  5
145D8
  8
YODOROGO
 10
29617.604341291921
 20
1667.749496429288
 30
0.0
 11
29617.604341291921
 21
1627.749496429288
 31
0.0
  0
LINE
  5
145D9
  8
YODOROGO
 10
29885.604341291921
 20
1667.749496429288
 30
0.0
 11
29617.604341291921
 21
1667.749496429288
 31
0.0
  0
LINE
  5
145DA
  8
YODOROGO
 10
28793.60434129191
 20
1747.74949642929
 30
0.0
 11
28793.60434129191
 21
1819.7494964292871
 31
0.0
  0
LINE
  5
145DB
  8
YODOROGO
 10
28657.604341291921
 20
1747.74949642929
 30
0.0
 11
28793.60434129191
 21
1747.74949642929
 31
0.0
  0
LINE
  5
145DC
  8
YODOROGO
 10
28729.604341291921
 20
1867.7494964292871
 30
0.0
 11
28729.604341291921
 21
1923.7494964292871
 31
0.0
  0
LINE
  5
145DD
  8
YODOROGO
 10
28793.60434129191
 20
1867.7494964292871
 30
0.0
 11
28729.604341291921
 21
1867.7494964292871
 31
0.0
  0
LINE
  5
145DE
  8
YODOROGO
 10
28793.60434129191
 20
1947.749496429288
 30
0.0
 11
28793.60434129191
 21
1867.7494964292871
 31
0.0
  0
ARC
  5
145DF
  8
YODOROGO
 10
28753.60434129191
 20
1947.749496429288
 30
0.0
 40
40.0
 50
0.0
 51
90.0
  0
LINE
  5
145E0
  8
YODOROGO
 10
28657.604341291921
 20
1987.7494964292871
 30
0.0
 11
28753.60434129191
 21
1987.7494964292871
 31
0.0
  0
LINE
  5
145E1
  8
YODOROGO
 10
28657.604341291921
 20
2027.749496429288
 30
0.0
 11
28657.604341291921
 21
1987.7494964292871
 31
0.0
  0
LINE
  5
145E2
  8
YODOROGO
 10
29073.604341291921
 20
2027.749496429288
 30
0.0
 11
29001.60434129191
 21
2027.749496429288
 31
0.0
  0
LINE
  5
145E3
  8
YODOROGO
 10
29261.604341291921
 20
2007.749496429288
 30
0.0
 11
29197.604341291921
 21
2007.749496429288
 31
0.0
  0
LINE
  5
145E4
  8
YODOROGO
 10
29457.604341291921
 20
2027.749496429288
 30
0.0
 11
29385.604341291921
 21
2027.749496429288
 31
0.0
  0
LINE
  5
145E5
  8
YODOROGO
 10
29673.604341291921
 20
1707.749496429288
 30
0.0
 11
29673.604341291921
 21
1771.7494964292871
 31
0.0
1001
AUTOCAD_POSTSCRIPT_FIGURE
1002
{
1000
PSFILL
1000
Grayscale
1000
Grayscale
1070
    25
1002
}
  0
LINE
  5
145E6
  8
YODOROGO
 10
29617.604341291921
 20
1707.749496429288
 30
0.0
 11
29673.604341291921
 21
1707.749496429288
 31
0.0
1001
AUTOCAD_POSTSCRIPT_FIGURE
1002
{
1000
PSFILL
1000
Grayscale
1000
Grayscale
1070
    25
1002
}
  0
LINE
  5
145E7
  8
YODOROGO
 10
29617.604341291921
 20
1819.7494964292871
 30
0.0
 11
29617.604341291921
 21
1707.749496429288
 31
0.0
1001
AUTOCAD_POSTSCRIPT_FIGURE
1002
{
1000
PSFILL
1000
Grayscale
1000
Grayscale
1070
    25
1002
}
  0
LINE
  5
145E8
  8
YODOROGO
 10
29765.604341291921
 20
1819.7494964292871
 30
0.0
 11
29617.604341291921
 21
1819.7494964292871
 31
0.0
1001
AUTOCAD_POSTSCRIPT_FIGURE
1002
{
1000
PSFILL
1000
Grayscale
1000
Grayscale
1070
    25
1002
}
  0
LINE
  5
145E9
  8
YODOROGO
 10
29765.604341291921
 20
1859.749496429288
 30
0.0
 11
29765.604341291921
 21
1819.7494964292871
 31
0.0
1001
AUTOCAD_POSTSCRIPT_FIGURE
1002
{
1000
PSFILL
1000
Grayscale
1000
Grayscale
1070
    25
1002
}
  0
LINE
  5
145EA
  8
YODOROGO
 10
29617.604341291921
 20
1859.749496429288
 30
0.0
 11
29765.604341291921
 21
1859.749496429288
 31
0.0
1001
AUTOCAD_POSTSCRIPT_FIGURE
1002
{
1000
PSFILL
1000
Grayscale
1000
Grayscale
1070
    25
1002
}
  0
LINE
  5
145EB
  8
YODOROGO
 10
29617.604341291921
 20
1907.7494964292871
 30
0.0
 11
29617.604341291921
 21
1859.749496429288
 31
0.0
1001
AUTOCAD_POSTSCRIPT_FIGURE
1002
{
1000
PSFILL
1000
Grayscale
1000
Grayscale
1070
    25
1002
}
  0
LINE
  5
145EC
  8
YODOROGO
 10
29765.604341291921
 20
1907.7494964292871
 30
0.0
 11
29617.604341291921
 21
1907.7494964292871
 31
0.0
1001
AUTOCAD_POSTSCRIPT_FIGURE
1002
{
1000
PSFILL
1000
Grayscale
1000
Grayscale
1070
    25
1002
}
  0
LINE
  5
145ED
  8
YODOROGO
 10
29765.604341291921
 20
1947.749496429288
 30
0.0
 11
29765.604341291921
 21
1907.7494964292871
 31
0.0
1001
AUTOCAD_POSTSCRIPT_FIGURE
1002
{
1000
PSFILL
1000
Grayscale
1000
Grayscale
1070
    25
1002
}
  0
LINE
  5
145EE
  8
YODOROGO
 10
29617.604341291921
 20
1947.749496429288
 30
0.0
 11
29765.604341291921
 21
1947.749496429288
 31
0.0
1001
AUTOCAD_POSTSCRIPT_FIGURE
1002
{
1000
PSFILL
1000
Grayscale
1000
Grayscale
1070
    25
1002
}
  0
LINE
  5
145EF
  8
YODOROGO
 10
29617.604341291921
 20
2027.749496429288
 30
0.0
 11
29617.604341291921
 21
1947.749496429288
 31
0.0
1001
AUTOCAD_POSTSCRIPT_FIGURE
1002
{
1000
PSFILL
1000
Grayscale
1000
Grayscale
1070
    25
1002
}
  0
LINE
  5
145F0
  8
YODOROGO
 10
29665.604341291921
 20
2027.749496429288
 30
0.0
 11
29617.604341291921
 21
2027.749496429288
 31
0.0
1001
AUTOCAD_POSTSCRIPT_FIGURE
1002
{
1000
PSFILL
1000
Grayscale
1000
Grayscale
1070
    25
1002
}
  0
LINE
  5
145F1
  8
YODOROGO
 10
29665.604341291921
 20
1995.7494964292871
 30
0.0
 11
29665.604341291921
 21
2027.749496429288
 31
0.0
1001
AUTOCAD_POSTSCRIPT_FIGURE
1002
{
1000
PSFILL
1000
Grayscale
1000
Grayscale
1070
    25
1002
}
  0
LINE
  5
145F2
  8
YODOROGO
 10
29765.604341291921
 20
1995.7494964292871
 30
0.0
 11
29665.604341291921
 21
1995.7494964292871
 31
0.0
1001
AUTOCAD_POSTSCRIPT_FIGURE
1002
{
1000
PSFILL
1000
Grayscale
1000
Grayscale
1070
    25
1002
}
  0
LINE
  5
145F3
  8
YODOROGO
 10
29765.604341291921
 20
2027.749496429288
 30
0.0
 11
29765.604341291921
 21
1995.7494964292871
 31
0.0
1001
AUTOCAD_POSTSCRIPT_FIGURE
1002
{
1000
PSFILL
1000
Grayscale
1000
Grayscale
1070
    25
1002
}
  0
LINE
  5
145F4
  8
YODOROGO
 10
29829.604341291921
 20
2027.749496429288
 30
0.0
 11
29765.604341291921
 21
2027.749496429288
 31
0.0
1001
AUTOCAD_POSTSCRIPT_FIGURE
1002
{
1000
PSFILL
1000
Grayscale
1000
Grayscale
1070
    25
1002
}
  0
LINE
  5
145F5
  8
YODOROGO
 10
29829.604341291921
 20
1995.7494964292871
 30
0.0
 11
29829.604341291921
 21
2027.749496429288
 31
0.0
1001
AUTOCAD_POSTSCRIPT_FIGURE
1002
{
1000
PSFILL
1000
Grayscale
1000
Grayscale
1070
    25
1002
}
  0
LINE
  5
145F6
  8
YODOROGO
 10
29829.604341291921
 20
1907.7494964292871
 30
0.0
 11
29829.604341291921
 21
1947.749496429288
 31
0.0
1001
AUTOCAD_POSTSCRIPT_FIGURE
1002
{
1000
PSFILL
1000
Grayscale
1000
Grayscale
1070
    25
1002
}
  0
LINE
  5
145F7
  8
YODOROGO
 10
29829.604341291921
 20
1819.7494964292871
 30
0.0
 11
29829.604341291921
 21
1859.749496429288
 31
0.0
1001
AUTOCAD_POSTSCRIPT_FIGURE
1002
{
1000
PSFILL
1000
Grayscale
1000
Grayscale
1070
    25
1002
}
  0
LINE
  5
145F8
  8
YODOROGO
 10
29921.60434129191
 20
1771.7494964292871
 30
0.0
 11
29921.60434129191
 21
1707.749496429288
 31
0.0
1001
AUTOCAD_POSTSCRIPT_FIGURE
1002
{
1000
PSFILL
1000
Grayscale
1000
Grayscale
1070
    25
1002
}
  0
LINE
  5
145F9
  8
YODOROGO
 10
29829.604341291921
 20
1771.7494964292871
 30
0.0
 11
29921.60434129191
 21
1771.7494964292871
 31
0.0
1001
AUTOCAD_POSTSCRIPT_FIGURE
1002
{
1000
PSFILL
1000
Grayscale
1000
Grayscale
1070
    25
1002
}
  0
LINE
  5
145FA
  8
YODOROGO
 10
29829.604341291921
 20
1707.749496429288
 30
0.0
 11
29829.604341291921
 21
1771.7494964292871
 31
0.0
1001
AUTOCAD_POSTSCRIPT_FIGURE
1002
{
1000
PSFILL
1000
Grayscale
1000
Grayscale
1070
    25
1002
}
  0
LINE
  5
145FB
  8
YODOROGO
 10
29765.604341291921
 20
1707.749496429288
 30
0.0
 11
29829.604341291921
 21
1707.749496429288
 31
0.0
1001
AUTOCAD_POSTSCRIPT_FIGURE
1002
{
1000
PSFILL
1000
Grayscale
1000
Grayscale
1070
    25
1002
}
  0
LINE
  5
145FC
  8
YODOROGO
 10
29765.604341291921
 20
1771.7494964292871
 30
0.0
 11
29765.604341291921
 21
1707.749496429288
 31
0.0
1001
AUTOCAD_POSTSCRIPT_FIGURE
1002
{
1000
PSFILL
1000
Grayscale
1000
Grayscale
1070
    25
1002
}
  0
LINE
  5
145FD
  8
YODOROGO
 10
29673.604341291921
 20
1771.7494964292871
 30
0.0
 11
29765.604341291921
 21
1771.7494964292871
 31
0.0
1001
AUTOCAD_POSTSCRIPT_FIGURE
1002
{
1000
PSFILL
1000
Grayscale
1000
Grayscale
1070
    25
1002
}
  0
ARC
  5
145FE
  8
YODOROGO
 10
31059.517893357912
 20
1602.6807375155761
 30
0.0
 40
178.22128111072141
 50
281.02627495425338
 51
357.77113575573799
  0
LINE
  5
145FF
  8
YODOROGO
 10
31413.604341291921
 20
1907.7494964292871
 30
0.0
 11
31165.604341291921
 21
1907.7494964292871
 31
0.0
  0
LINE
  5
14600
  8
YODOROGO
 10
31413.604341291921
 20
2027.749496429288
 30
0.0
 11
31165.604341291921
 21
2027.749496429288
 31
0.0
  0
LINE
  5
14601
  8
YODOROGO
 10
31165.604341291921
 20
1963.749496429286
 30
0.0
 11
31413.604341291921
 21
1963.749496429286
 31
0.0
  0
LINE
  5
14602
  8
YODOROGO
 10
30791.604341291921
 20
1563.7494964292871
 30
0.0
 11
30791.604341291921
 21
1755.7494964292871
 31
0.0
  0
LINE
  5
14603
  8
YODOROGO
 10
30763.604341291921
 20
1691.749496429288
 30
0.0
 11
30763.604341291921
 21
1563.7494964292871
 31
0.0
  0
LINE
  5
14604
  8
YODOROGO
 10
30723.604341291921
 20
1491.749496429288
 30
0.0
 11
30723.604341291921
 21
1691.749496429288
 31
0.0
  0
LINE
  5
14605
  8
YODOROGO
 10
30899.604341291932
 20
1691.749496429288
 30
0.0
 11
30899.604341291932
 21
1491.749496429288
 31
0.0
  0
LINE
  5
14606
  8
YODOROGO
 10
30859.604341291932
 20
1563.7494964292871
 30
0.0
 11
30859.604341291932
 21
1691.749496429288
 31
0.0
  0
LINE
  5
14607
  8
YODOROGO
 10
30831.604341291921
 20
1755.7494964292871
 30
0.0
 11
30831.604341291921
 21
1563.7494964292871
 31
0.0
  0
LINE
  5
14608
  8
YODOROGO
 10
30973.604341291921
 20
2027.749496429288
 30
0.0
 11
30973.604341291921
 21
1467.749496429288
 31
0.0
  0
LINE
  5
14609
  8
YODOROGO
 10
30645.604341291921
 20
1427.749496429288
 30
0.0
 11
30645.604341291921
 21
2027.749496429288
 31
0.0
  0
LINE
  5
1460A
  8
YODOROGO
 10
30697.604341291932
 20
1963.749496429286
 30
0.0
 11
30697.604341291932
 21
1427.749496429288
 31
0.0
  0
LINE
  5
1460B
  8
YODOROGO
 10
30925.604341291921
 20
1547.749496429288
 30
0.0
 11
30925.604341291921
 21
1963.749496429286
 31
0.0
  0
LINE
  5
1460C
  8
YODOROGO
 10
30381.604341291932
 20
1627.749496429288
 30
0.0
 11
30381.604341291932
 21
1679.749496429288
 31
0.0
  0
LINE
  5
1460D
  8
YODOROGO
 10
30617.604341291921
 20
1679.749496429288
 30
0.0
 11
30617.604341291921
 21
1627.749496429288
 31
0.0
  0
LINE
  5
1460E
  8
YODOROGO
 10
31165.604341291921
 20
1907.7494964292871
 30
0.0
 11
31165.604341291921
 21
1635.7494964292871
 31
0.0
  0
LINE
  5
1460F
  8
YODOROGO
 10
29949.60434129191
 20
1667.749496429288
 30
0.0
 11
29949.60434129191
 21
1707.749496429288
 31
0.0
  0
LINE
  5
14610
  8
YODOROGO
 10
29949.60434129191
 20
1667.749496429288
 30
0.0
 11
29949.60434129191
 21
1707.749496429288
 31
0.0
  0
ARC
  5
14611
  8
YODOROGO
 10
30537.604341291921
 20
1507.749496429288
 30
0.0
 40
80.0
 50
270.0
 51
0.0
  0
LINE
  5
14612
  8
YODOROGO
 10
30569.604341291921
 20
1599.7494964292871
 30
0.0
 11
30617.604341291921
 21
1599.7494964292871
 31
0.0
  0
LINE
  5
14613
  8
YODOROGO
 10
30617.604341291921
 20
1627.749496429288
 30
0.0
 11
30529.604341291939
 21
1627.749496429288
 31
0.0
  0
LINE
  5
14614
  8
YODOROGO
 10
30217.604341291921
 20
1667.749496429288
 30
0.0
 11
29949.60434129191
 21
1667.749496429288
 31
0.0
  0
LINE
  5
14615
  8
YODOROGO
 10
30217.604341291921
 20
1627.749496429288
 30
0.0
 11
30217.604341291921
 21
1667.749496429288
 31
0.0
  0
LINE
  5
14616
  8
YODOROGO
 10
30017.604341291921
 20
1627.749496429288
 30
0.0
 11
30217.604341291921
 21
1627.749496429288
 31
0.0
  0
ARC
  5
14617
  8
YODOROGO
 10
30230.05882870136
 20
1868.885714952901
 30
0.0
 40
321.37763628522822
 50
228.6181454618993
 51
245.660289248906
  0
LINE
  5
14618
  8
YODOROGO
 10
30105.604341291921
 20
1603.749496429288
 30
0.0
 11
30097.604341291972
 21
1576.0728158699001
 31
0.0
  0
LINE
  5
14619
  8
YODOROGO
 10
30189.604341291921
 20
1603.749496429288
 30
0.0
 11
30105.604341291921
 21
1603.749496429288
 31
0.0
  0
LINE
  5
1461A
  8
YODOROGO
 10
30177.604341291921
 20
1551.817722473427
 30
0.0
 11
30189.604341291921
 21
1603.749496429288
 31
0.0
  0
ARC
  5
1461B
  8
YODOROGO
 10
30230.058828700468
 20
1868.885714953002
 30
0.0
 40
321.37763628529081
 50
260.60629297969911
 51
267.77903556555862
  0
LINE
  5
1461C
  8
YODOROGO
 10
30217.604341291921
 20
1427.749496429285
 30
0.0
 11
30217.604341291921
 21
1547.749496429288
 31
0.0
  0
LINE
  5
1461D
  8
YODOROGO
 10
29937.604341291932
 20
1481.3393349155101
 30
0.0
 11
29937.604341291921
 21
1594.531090531141
 31
0.0
  0
LINE
  5
1461E
  8
YODOROGO
 10
30217.604341291921
 20
1667.749496429288
 30
0.0
 11
29949.60434129191
 21
1667.749496429288
 31
0.0
  0
LINE
  5
1461F
  8
YODOROGO
 10
30217.604341291921
 20
1627.749496429288
 30
0.0
 11
30217.604341291921
 21
1667.749496429288
 31
0.0
  0
LINE
  5
14620
  8
YODOROGO
 10
30017.604341291921
 20
1627.749496429288
 30
0.0
 11
30217.604341291921
 21
1627.749496429288
 31
0.0
  0
ARC
  5
14621
  8
YODOROGO
 10
30230.05882870136
 20
1868.885714952901
 30
0.0
 40
321.37763628522822
 50
228.6181454618993
 51
245.660289248906
  0
LINE
  5
14622
  8
YODOROGO
 10
30105.604341291921
 20
1603.749496429288
 30
0.0
 11
30097.604341291972
 21
1576.0728158699001
 31
0.0
  0
LINE
  5
14623
  8
YODOROGO
 10
30189.604341291921
 20
1603.749496429288
 30
0.0
 11
30105.604341291921
 21
1603.749496429288
 31
0.0
  0
LINE
  5
14624
  8
YODOROGO
 10
30177.604341291921
 20
1551.817722473427
 30
0.0
 11
30189.604341291921
 21
1603.749496429288
 31
0.0
  0
ARC
  5
14625
  8
YODOROGO
 10
30230.058828700468
 20
1868.885714953002
 30
0.0
 40
321.37763628529081
 50
260.60629297969911
 51
267.77903556555862
  0
LINE
  5
14626
  8
YODOROGO
 10
30217.604341291921
 20
1427.749496429285
 30
0.0
 11
30217.604341291921
 21
1547.749496429288
 31
0.0
  0
LINE
  5
14627
  8
YODOROGO
 10
29937.604341291932
 20
1481.3393349155101
 30
0.0
 11
29937.604341291921
 21
1594.531090531141
 31
0.0
  0
LINE
  5
14628
  8
YODOROGO
 10
30433.604341291939
 20
1573.749496429288
 30
0.0
 11
30381.604341291932
 21
1573.749496429288
 31
0.0
  0
LINE
  5
14629
  8
YODOROGO
 10
30433.604341291939
 20
1601.749496429285
 30
0.0
 11
30433.604341291939
 21
1573.749496429288
 31
0.0
  0
LINE
  5
1462A
  8
YODOROGO
 10
30381.604341291932
 20
1601.749496429285
 30
0.0
 11
30433.604341291939
 21
1601.749496429285
 31
0.0
  0
LINE
  5
1462B
  8
YODOROGO
 10
30381.604341291932
 20
1573.749496429288
 30
0.0
 11
30381.604341291932
 21
1601.749496429285
 31
0.0
  0
LINE
  5
1462C
  8
YODOROGO
 10
30429.604341291921
 20
1577.7494964292871
 30
0.0
 11
30385.604341291939
 21
1577.7494964292871
 31
0.0
  0
LINE
  5
1462D
  8
YODOROGO
 10
30429.604341291921
 20
1597.749496429288
 30
0.0
 11
30429.604341291921
 21
1577.7494964292871
 31
0.0
  0
LINE
  5
1462E
  8
YODOROGO
 10
30385.604341291939
 20
1597.749496429288
 30
0.0
 11
30429.604341291921
 21
1597.749496429288
 31
0.0
  0
LINE
  5
1462F
  8
YODOROGO
 10
30385.604341291939
 20
1577.7494964292871
 30
0.0
 11
30385.604341291939
 21
1597.749496429288
 31
0.0
  0
LINE
  5
14630
  8
YODOROGO
 10
30425.604341291921
 20
1581.749496429286
 30
0.0
 11
30389.604341291939
 21
1581.749496429286
 31
0.0
  0
LINE
  5
14631
  8
YODOROGO
 10
30425.604341291939
 20
1593.749496429288
 30
0.0
 11
30425.604341291921
 21
1581.749496429286
 31
0.0
  0
LINE
  5
14632
  8
YODOROGO
 10
30389.604341291939
 20
1593.749496429288
 30
0.0
 11
30425.604341291939
 21
1593.749496429288
 31
0.0
  0
LINE
  5
14633
  8
YODOROGO
 10
30389.604341291939
 20
1581.749496429286
 30
0.0
 11
30389.604341291939
 21
1593.749496429288
 31
0.0
  0
LINE
  5
14634
  8
YODOROGO
 10
30421.604341291932
 20
1585.7494964292871
 30
0.0
 11
30393.604341291939
 21
1585.7494964292871
 31
0.0
  0
LINE
  5
14635
  8
YODOROGO
 10
30421.604341291932
 20
1589.749496429288
 30
0.0
 11
30421.604341291932
 21
1585.7494964292871
 31
0.0
  0
LINE
  5
14636
  8
YODOROGO
 10
30393.604341291939
 20
1589.749496429288
 30
0.0
 11
30421.604341291932
 21
1589.749496429288
 31
0.0
  0
LINE
  5
14637
  8
YODOROGO
 10
30393.604341291939
 20
1585.7494964292871
 30
0.0
 11
30393.604341291939
 21
1589.749496429288
 31
0.0
  0
LINE
  5
14638
  8
YODOROGO
 10
30465.604341291921
 20
1627.749496429288
 30
0.0
 11
30381.604341291932
 21
1627.749496429288
 31
0.0
  0
LINE
  5
14639
  8
YODOROGO
 10
30465.604341291921
 20
1547.749496429288
 30
0.0
 11
30465.604341291921
 21
1627.749496429288
 31
0.0
  0
LINE
  5
1463A
  8
YODOROGO
 10
30381.604341291932
 20
1547.749496429288
 30
0.0
 11
30465.604341291921
 21
1547.749496429288
 31
0.0
  0
LINE
  5
1463B
  8
YODOROGO
 10
30381.604341291932
 20
1427.749496429288
 30
0.0
 11
30381.604341291932
 21
1547.749496429288
 31
0.0
  0
LINE
  5
1463C
  8
YODOROGO
 10
30537.604341291921
 20
1427.749496429288
 30
0.0
 11
30381.604341291932
 21
1427.749496429288
 31
0.0
  0
LINE
  5
1463D
  8
YODOROGO
 10
30569.604341291921
 20
1571.749496429285
 30
0.0
 11
30569.604341291921
 21
1599.7494964292871
 31
0.0
  0
ARC
  5
1463E
  8
YODOROGO
 10
30545.604341291921
 20
1571.749496429291
 30
0.0
 40
24.000000000003752
 50
270.0
 51
359.99999999998772
  0
LINE
  5
1463F
  8
YODOROGO
 10
30529.604341291939
 20
1547.749496429288
 30
0.0
 11
30545.604341291921
 21
1547.749496429288
 31
0.0
  0
LINE
  5
14640
  8
YODOROGO
 10
30529.604341291939
 20
1627.749496429288
 30
0.0
 11
30529.604341291939
 21
1547.749496429288
 31
0.0
  0
LINE
  5
14641
  8
YODOROGO
 10
30899.604341291932
 20
1547.749496429288
 30
0.0
 11
30925.604341291921
 21
1547.749496429288
 31
0.0
  0
LINE
  5
14642
  8
YODOROGO
 10
30933.604341291921
 20
1427.749496429288
 30
0.0
 11
30899.604341291932
 21
1427.749496429288
 31
0.0
  0
LINE
  5
14643
  8
YODOROGO
 10
30763.604341291921
 20
1563.7494964292871
 30
0.0
 11
30791.604341291921
 21
1563.7494964292871
 31
0.0
  0
LINE
  5
14644
  8
YODOROGO
 10
30899.604341291932
 20
1491.749496429288
 30
0.0
 11
30723.604341291921
 21
1491.749496429288
 31
0.0
  0
LINE
  5
14645
  8
YODOROGO
 10
30831.604341291921
 20
1563.7494964292871
 30
0.0
 11
30859.604341291932
 21
1563.7494964292871
 31
0.0
  0
LINE
  5
14646
  8
YODOROGO
 10
30899.604341291932
 20
1427.749496429288
 30
0.0
 11
30899.604341291932
 21
1547.749496429288
 31
0.0
  0
LINE
  5
14647
  8
YODOROGO
 10
30697.604341291932
 20
1427.749496429288
 30
0.0
 11
30645.604341291921
 21
1427.749496429288
 31
0.0
  0
LINE
  5
14648
  8
YODOROGO
 10
30617.604341291921
 20
1599.7494964292871
 30
0.0
 11
30617.604341291921
 21
1507.749496429288
 31
0.0
  0
ARC
  5
14649
  8
YODOROGO
 10
30933.604341291921
 20
1467.749496429288
 30
0.0
 40
40.0
 50
270.0
 51
0.0
  0
LINE
  5
1464A
  8
YODOROGO
 10
31093.604341291921
 20
1523.7494964292871
 30
0.0
 11
31093.604341291921
 21
1427.749496429288
 31
0.0
  0
ARC
  5
1464B
  8
YODOROGO
 10
31039.721395566768
 20
1637.5313901097329
 30
0.0
 40
125.8955565916754
 50
295.34052442160112
 51
359.18902303418679
  0
LINE
  5
1464C
  8
YODOROGO
 10
30617.604341291921
 20
1859.749496429288
 30
0.0
 11
30497.604341291921
 21
1939.749496429288
 31
0.0
  0
LINE
  5
1464D
  8
YODOROGO
 10
30497.604341291921
 20
2027.749496429288
 30
0.0
 11
30617.604341291921
 21
1947.749496429288
 31
0.0
  0
LINE
  5
1464E
  8
YODOROGO
 10
30529.604341291939
 20
1679.749496429288
 30
0.0
 11
30617.604341291921
 21
1679.749496429288
 31
0.0
  0
LINE
  5
1464F
  8
YODOROGO
 10
30617.604341291921
 20
1735.7494964292871
 30
0.0
 11
30529.604341291939
 21
1735.7494964292871
 31
0.0
  0
LINE
  5
14650
  8
YODOROGO
 10
30381.604341291932
 20
1795.7494964292871
 30
0.0
 11
30617.604341291921
 21
1795.7494964292871
 31
0.0
  0
LINE
  5
14651
  8
YODOROGO
 10
30081.604341291939
 20
2027.749496429288
 30
0.0
 11
30021.604341291921
 21
2027.749496429288
 31
0.0
  0
LINE
  5
14652
  8
YODOROGO
 10
30081.604341291939
 20
1827.7494964292871
 30
0.0
 11
30081.604341291939
 21
2027.749496429288
 31
0.0
  0
LINE
  5
14653
  8
YODOROGO
 10
30021.604341291921
 20
1827.7494964292871
 30
0.0
 11
30081.604341291939
 21
1827.7494964292871
 31
0.0
  0
LINE
  5
14654
  8
YODOROGO
 10
30021.604341291921
 20
2027.749496429288
 30
0.0
 11
30021.604341291921
 21
1827.7494964292871
 31
0.0
  0
LINE
  5
14655
  8
YODOROGO
 10
30161.604341291939
 20
2027.749496429288
 30
0.0
 11
30217.604341291921
 21
2027.749496429288
 31
0.0
  0
LINE
  5
14656
  8
YODOROGO
 10
30161.604341291939
 20
1811.749496429288
 30
0.0
 11
30161.604341291939
 21
2027.749496429288
 31
0.0
  0
ARC
  5
14657
  8
YODOROGO
 10
30121.604341291939
 20
1811.749496429288
 30
0.0
 40
40.0
 50
270.0
 51
0.0
  0
LINE
  5
14658
  8
YODOROGO
 10
30021.604341291921
 20
1771.7494964292871
 30
0.0
 11
30121.604341291939
 21
1771.7494964292871
 31
0.0
  0
LINE
  5
14659
  8
YODOROGO
 10
30021.604341291921
 20
1707.749496429288
 30
0.0
 11
30021.604341291921
 21
1771.7494964292871
 31
0.0
  0
LINE
  5
1465A
  8
YODOROGO
 10
30137.604341291921
 20
1707.749496429288
 30
0.0
 11
30021.604341291921
 21
1707.749496429288
 31
0.0
  0
ARC
  5
1465B
  8
YODOROGO
 10
30137.604341291921
 20
1787.7494964292871
 30
0.0
 40
80.0
 50
270.0
 51
0.0
  0
LINE
  5
1465C
  8
YODOROGO
 10
30217.604341291921
 20
2027.749496429288
 30
0.0
 11
30217.604341291921
 21
1787.7494964292871
 31
0.0
  0
LINE
  5
1465D
  8
YODOROGO
 10
29977.604341291921
 20
1947.749496429288
 30
0.0
 11
29977.604341291921
 21
1995.7494964292871
 31
0.0
1001
AUTOCAD_POSTSCRIPT_FIGURE
1002
{
1000
PSFILL
1000
Grayscale
1000
Grayscale
1070
    25
1002
}
  0
LINE
  5
1465E
  8
YODOROGO
 10
29977.604341291921
 20
1859.749496429288
 30
0.0
 11
29977.604341291921
 21
1907.7494964292871
 31
0.0
1001
AUTOCAD_POSTSCRIPT_FIGURE
1002
{
1000
PSFILL
1000
Grayscale
1000
Grayscale
1070
    25
1002
}
  0
LINE
  5
1465F
  8
YODOROGO
 10
29977.604341291921
 20
1707.749496429288
 30
0.0
 11
29977.604341291921
 21
1819.7494964292871
 31
0.0
1001
AUTOCAD_POSTSCRIPT_FIGURE
1002
{
1000
PSFILL
1000
Grayscale
1000
Grayscale
1070
    25
1002
}
  0
LINE
  5
14660
  8
YODOROGO
 10
30381.604341291932
 20
1907.7494964292871
 30
0.0
 11
30497.604341291921
 21
2027.749496429288
 31
0.0
  0
LINE
  5
14661
  8
YODOROGO
 10
30381.604341291932
 20
1819.7494964292871
 30
0.0
 11
30381.604341291932
 21
1907.7494964292871
 31
0.0
  0
LINE
  5
14662
  8
YODOROGO
 10
30497.604341291921
 20
1939.749496429288
 30
0.0
 11
30381.604341291932
 21
1819.7494964292871
 31
0.0
  0
LINE
  5
14663
  8
YODOROGO
 10
30465.604341291921
 20
1679.749496429288
 30
0.0
 11
30465.604341291921
 21
1735.7494964292871
 31
0.0
  0
LINE
  5
14664
  8
YODOROGO
 10
30381.604341291932
 20
1679.749496429288
 30
0.0
 11
30465.604341291921
 21
1679.749496429288
 31
0.0
  0
LINE
  5
14665
  8
YODOROGO
 10
30529.604341291939
 20
1735.7494964292871
 30
0.0
 11
30529.604341291939
 21
1679.749496429288
 31
0.0
  0
LINE
  5
14666
  8
YODOROGO
 10
30381.604341291932
 20
1735.7494964292871
 30
0.0
 11
30381.604341291932
 21
1795.7494964292871
 31
0.0
  0
LINE
  5
14667
  8
YODOROGO
 10
30465.604341291921
 20
1735.7494964292871
 30
0.0
 11
30381.604341291932
 21
1735.7494964292871
 31
0.0
  0
LINE
  5
14668
  8
YODOROGO
 10
30645.604341291921
 20
2027.749496429288
 30
0.0
 11
30973.604341291921
 21
2027.749496429288
 31
0.0
  0
LINE
  5
14669
  8
YODOROGO
 10
30925.604341291921
 20
1963.749496429286
 30
0.0
 11
30697.604341291932
 21
1963.749496429286
 31
0.0
  0
LINE
  5
1466A
  8
YODOROGO
 10
30873.604341291921
 20
1819.7494964292871
 30
0.0
 11
30899.604341291932
 21
1819.7494964292871
 31
0.0
  0
LINE
  5
1466B
  8
YODOROGO
 10
30899.604341291932
 20
1939.749496429288
 30
0.0
 11
30873.604341291921
 21
1819.7494964292871
 31
0.0
  0
LINE
  5
1466C
  8
YODOROGO
 10
30851.604341291939
 20
1939.749496429288
 30
0.0
 11
30899.604341291932
 21
1939.749496429288
 31
0.0
  0
LINE
  5
1466D
  8
YODOROGO
 10
30825.604341291921
 20
1819.7494964292871
 30
0.0
 11
30851.604341291939
 21
1939.749496429288
 31
0.0
  0
LINE
  5
1466E
  8
YODOROGO
 10
30797.604341291921
 20
1819.7494964292871
 30
0.0
 11
30825.604341291921
 21
1819.7494964292871
 31
0.0
  0
LINE
  5
1466F
  8
YODOROGO
 10
30771.604341291939
 20
1939.749496429288
 30
0.0
 11
30797.604341291921
 21
1819.7494964292871
 31
0.0
  0
LINE
  5
14670
  8
YODOROGO
 10
30723.604341291921
 20
1939.749496429288
 30
0.0
 11
30771.604341291939
 21
1939.749496429288
 31
0.0
  0
LINE
  5
14671
  8
YODOROGO
 10
30749.604341291921
 20
1819.7494964292871
 30
0.0
 11
30723.604341291921
 21
1939.749496429288
 31
0.0
  0
LINE
  5
14672
  8
YODOROGO
 10
30723.604341291921
 20
1819.7494964292871
 30
0.0
 11
30749.604341291921
 21
1819.7494964292871
 31
0.0
  0
LINE
  5
14673
  8
YODOROGO
 10
30723.604341291921
 20
1755.7494964292871
 30
0.0
 11
30723.604341291921
 21
1819.7494964292871
 31
0.0
  0
LINE
  5
14674
  8
YODOROGO
 10
30899.604341291932
 20
1755.7494964292871
 30
0.0
 11
30723.604341291921
 21
1755.7494964292871
 31
0.0
  0
LINE
  5
14675
  8
YODOROGO
 10
30899.604341291932
 20
1819.7494964292871
 30
0.0
 11
30899.604341291932
 21
1755.7494964292871
 31
0.0
  0
LINE
  5
14676
  8
YODOROGO
 10
30617.604341291921
 20
1947.749496429288
 30
0.0
 11
30617.604341291921
 21
1859.749496429288
 31
0.0
  0
LINE
  5
14677
  8
YODOROGO
 10
30791.604341291921
 20
1755.7494964292871
 30
0.0
 11
30831.604341291921
 21
1755.7494964292871
 31
0.0
  0
LINE
  5
14678
  8
YODOROGO
 10
30723.604341291921
 20
1691.749496429288
 30
0.0
 11
30763.604341291921
 21
1691.749496429288
 31
0.0
  0
LINE
  5
14679
  8
YODOROGO
 10
30859.604341291932
 20
1691.749496429288
 30
0.0
 11
30899.604341291932
 21
1691.749496429288
 31
0.0
  0
LINE
  5
1467A
  8
YODOROGO
 10
30617.604341291921
 20
1795.7494964292871
 30
0.0
 11
30617.604341291921
 21
1735.7494964292871
 31
0.0
  0
LINE
  5
1467B
  8
YODOROGO
 10
31165.604341291921
 20
2027.749496429288
 30
0.0
 11
31165.604341291921
 21
1963.749496429286
 31
0.0
  0
LINE
  5
1467C
  8
YODOROGO
 10
31533.604341291921
 20
1595.7494964292871
 30
0.0
 11
31533.60434129191
 21
1811.749496429288
 31
0.0
  0
LINE
  5
1467D
  8
YODOROGO
 10
31461.60434129191
 20
1987.7494964292871
 30
0.0
 11
31461.60434129191
 21
1635.7494964292871
 31
0.0
  0
LINE
  5
1467E
  8
YODOROGO
 10
31653.604341291921
 20
1427.749496429288
 30
0.0
 11
31653.60434129191
 21
1811.749496429288
 31
0.0
  0
LINE
  5
1467F
  8
YODOROGO
 10
31589.604341291921
 20
1811.749496429288
 30
0.0
 11
31589.604341291921
 21
1427.749496429288
 31
0.0
  0
LINE
  5
14680
  8
YODOROGO
 10
31237.604341291921
 20
1595.7494964292871
 30
0.0
 11
31237.604341291921
 21
1707.749496429288
 31
0.0
  0
ARC
  5
14681
  8
YODOROGO
 10
31353.914865116069
 20
1607.790351288558
 30
0.0
 40
180.0924485759885
 50
268.62849102169793
 51
356.16638457330322
  0
LINE
  5
14682
  8
YODOROGO
 10
31349.604341291939
 20
1527.749496429288
 30
0.0
 11
31349.604341291939
 21
1427.749496429288
 31
0.0
  0
ARC
  5
14683
  8
YODOROGO
 10
31351.518075724562
 20
1637.838957017655
 30
0.0
 40
110.1060929836122
 50
269.00410209305932
 51
358.91264455492478
  0
LINE
  5
14684
  8
YODOROGO
 10
31589.604341291921
 20
1427.749496429288
 30
0.0
 11
31653.604341291921
 21
1427.749496429288
 31
0.0
  0
LINE
  5
14685
  8
YODOROGO
 10
31533.60434129191
 20
1811.749496429288
 30
0.0
 11
31589.604341291921
 21
1811.749496429288
 31
0.0
  0
LINE
  5
14686
  8
YODOROGO
 10
31621.604341291939
 20
1987.7494964292871
 30
0.0
 11
31461.60434129191
 21
1987.7494964292871
 31
0.0
  0
LINE
  5
14687
  8
YODOROGO
 10
31533.60434129191
 20
1915.7494964292871
 30
0.0
 11
31661.604341291939
 21
1915.7494964292871
 31
0.0
  0
LINE
  5
14688
  8
YODOROGO
 10
31701.604341291939
 20
1875.7494964292871
 30
0.0
 11
31533.60434129191
 21
1875.7494964292871
 31
0.0
  0
LINE
  5
14689
  8
YODOROGO
 10
31237.604341291921
 20
1779.749496429288
 30
0.0
 11
31349.604341291939
 21
1779.749496429288
 31
0.0
  0
LINE
  5
1468A
  8
YODOROGO
 10
31237.604341291921
 20
1835.7494964292871
 30
0.0
 11
31237.604341291921
 21
1779.749496429288
 31
0.0
  0
LINE
  5
1468B
  8
YODOROGO
 10
31349.604341291939
 20
1835.7494964292871
 30
0.0
 11
31237.604341291921
 21
1835.7494964292871
 31
0.0
  0
LINE
  5
1468C
  8
YODOROGO
 10
31349.604341291939
 20
1779.749496429288
 30
0.0
 11
31349.604341291939
 21
1835.7494964292871
 31
0.0
  0
LINE
  5
1468D
  8
YODOROGO
 10
31533.60434129191
 20
1875.7494964292871
 30
0.0
 11
31533.60434129191
 21
1915.7494964292871
 31
0.0
  0
LINE
  5
1468E
  8
YODOROGO
 10
31413.604341291921
 20
1707.749496429288
 30
0.0
 11
31413.604341291921
 21
1907.7494964292871
 31
0.0
  0
LINE
  5
1468F
  8
YODOROGO
 10
31237.604341291921
 20
1707.749496429288
 30
0.0
 11
31413.604341291921
 21
1707.749496429288
 31
0.0
  0
LINE
  5
14690
  8
YODOROGO
 10
31413.604341291921
 20
1963.749496429286
 30
0.0
 11
31413.604341291921
 21
2027.749496429288
 31
0.0
  0
ARC
  5
14691
  8
YODOROGO
 10
31621.604341291939
 20
2003.749496429285
 30
0.0
 40
15.999999999994539
 50
270.0
 51
0.0000000000081422
  0
LINE
  5
14692
  8
YODOROGO
 10
31637.604341291921
 20
2027.749496429288
 30
0.0
 11
31637.604341291921
 21
2003.7494964292871
 31
0.0
  0
LINE
  5
14693
  8
YODOROGO
 10
31701.604341291939
 20
2027.749496429288
 30
0.0
 11
31637.604341291921
 21
2027.749496429288
 31
0.0
  0
LINE
  5
14694
  8
YODOROGO
 10
31701.604341291939
 20
1955.7494964292871
 30
0.0
 11
31701.604341291939
 21
2027.749496429288
 31
0.0
  0
ARC
  5
14695
  8
YODOROGO
 10
31661.604341291939
 20
1955.7494964292871
 30
0.0
 40
40.0
 50
270.0
 51
0.0
  0
LINE
  5
14696
  8
YODOROGO
 10
31701.604341291939
 20
1811.749496429288
 30
0.0
 11
31701.604341291939
 21
1875.7494964292871
 31
0.0
  0
LINE
  5
14697
  8
YODOROGO
 10
31653.60434129191
 20
1811.749496429288
 30
0.0
 11
31701.604341291939
 21
1811.749496429288
 31
0.0
  0
LINE
  5
14698
  8
SUNPOU
  6
CONTINUOUS
 62
     4
 10
26475.411886013779
 20
19440.486978000001
 30
0.0
 11
26475.411886013779
 21
20240.487902000001
 31
0.0
  0
LINE
  5
14699
  8
SUNPOU
  6
CONTINUOUS
 62
     4
 10
25774.41188601379
 20
19440.486978000001
 30
0.0
 11
25774.41188601379
 21
20240.487902000001
 31
0.0
  0
LINE
  5
1469A
  8
SUNPOU
  6
CONTINUOUS
 62
     4
 10
26475.411886013779
 20
20160.487902000001
 30
0.0
 11
25774.41188601379
 21
20160.487902000001
 31
0.0
  0
LINE
  5
1469B
  8
0-6
  6
CONTINUOUS
 62
     6
 10
7865.3712235186458
 20
19114.51522062123
 30
0.0
 11
7940.0909685892766
 21
19258.48721499995
 31
0.0
  0
LINE
  5
1469C
  8
0-6
  6
CONTINUOUS
 62
     6
 10
7940.0909685892766
 20
19258.48721499995
 30
0.0
 11
7822.7149256056218
 21
19146.53022532248
 31
0.0
  0
LINE
  5
1469D
  8
0-6
  6
CONTINUOUS
 62
     6
 10
7822.7149256056218
 20
19146.53022532248
 30
0.0
 11
7865.3712235186458
 21
19114.51522062123
 31
0.0
  0
LINE
  5
1469E
  8
0-6
  6
CONTINUOUS
 62
     6
 10
7865.3712235186458
 20
16582.555537548149
 30
0.0
 11
7940.0909685892766
 21
16726.52753192688
 31
0.0
  0
LINE
  5
1469F
  8
0-6
  6
CONTINUOUS
 62
     6
 10
7940.0909685892766
 20
16726.52753192688
 30
0.0
 11
7822.7149256056218
 21
16614.57054224941
 31
0.0
  0
LINE
  5
146A0
  8
0-6
  6
CONTINUOUS
 62
     6
 10
7822.7149256056218
 20
16614.57054224941
 30
0.0
 11
7865.3712235186458
 21
16582.555537548149
 31
0.0
  0
LINE
  5
146A1
  8
0-6
  6
CONTINUOUS
 62
     6
 10
7985.7059520910489
 20
13631.51436362122
 30
0.0
 11
8060.4256971616787
 21
13775.48635799994
 31
0.0
  0
LINE
  5
146A2
  8
0-6
  6
CONTINUOUS
 62
     6
 10
8060.4256971616787
 20
13775.48635799994
 30
0.0
 11
7943.049654178023
 21
13663.529368322481
 31
0.0
  0
LINE
  5
146A3
  8
0-6
  6
CONTINUOUS
 62
     6
 10
7943.049654178023
 20
13663.529368322481
 30
0.0
 11
7985.7059520910489
 21
13631.51436362122
 31
0.0
  0
LINE
  5
146A4
  8
SUNPOU
  6
CONTINUOUS
 62
     4
 10
15195.220021282659
 20
13619.48643699999
 30
0.0
 11
16042.219797282651
 21
13619.48643699999
 31
0.0
  0
LINE
  5
146A5
  8
SUNPOU
  6
CONTINUOUS
 62
     4
 10
15962.219797282651
 20
13811.985710999999
 30
0.0
 11
15962.219797282651
 21
13619.48643699999
 31
0.0
  0
LINE
  5
146A6
  8
SUNPOU
  6
CONTINUOUS
 62
     4
 10
15962.219797282651
 20
16729.985711000001
 30
0.0
 11
15962.219797282651
 21
13811.985710999999
 31
0.0
  0
LINE
  5
146A7
  8
SUNPOU
  6
CONTINUOUS
 62
     4
 10
15962.219797282651
 20
19297.485711000001
 30
0.0
 11
15962.219797282651
 21
16729.985711000001
 31
0.0
  0
LINE
  5
146A8
  8
SUNPOU
  6
CONTINUOUS
 62
     4
 10
15882.219797282651
 20
19297.485711000001
 30
0.0
 11
15922.219797282651
 21
19297.485711000001
 31
0.0
  0
LINE
  5
146A9
  8
SUNPOU
  6
CONTINUOUS
 62
     4
 10
15190.220747282659
 20
19519.985579
 30
0.0
 11
16002.219797282651
 21
19519.985579
 31
0.0
  0
LINE
  5
146AA
  8
SUNPOU
  6
CONTINUOUS
 62
     4
 10
15962.219797282651
 20
19297.485711000001
 30
0.0
 11
15962.219797282651
 21
19519.985579
 31
0.0
  0
LINE
  5
146AB
  8
SUNPOU
  6
CONTINUOUS
 62
     4
 10
15121.721485282669
 20
19509.98900999999
 30
0.0
 11
15642.220456282639
 21
19509.98900999999
 31
0.0
  0
LINE
  5
146AC
  8
SUNPOU
  6
CONTINUOUS
 62
     4
 10
15190.220747282659
 20
19519.985579
 30
0.0
 11
15642.220456282639
 21
19519.985579
 31
0.0
  0
LINE
  5
146AD
  8
SUNPOU
  6
CONTINUOUS
 62
     4
 10
15562.220456282639
 20
19509.98900999999
 30
0.0
 11
15562.220456282639
 21
19269.98900999999
 31
0.0
  0
LINE
  5
146AE
  8
SUNPOU
  6
CONTINUOUS
 62
     4
 10
15562.220456282639
 20
19519.985579
 30
0.0
 11
15562.220456282639
 21
19759.985579
 31
0.0
  0
LINE
  5
146AF
  8
SUNPOU
  6
CONTINUOUS
 62
     4
 10
15562.220456282639
 20
19509.98900999999
 30
0.0
 11
15562.220456282639
 21
19519.985579
 31
0.0
  0
LINE
  5
146B0
  8
SUNPOU
  6
CONTINUOUS
 62
     4
 10
6764.2200212826647
 20
20144.987624000001
 30
0.0
 11
6764.2200212826647
 21
20219.986634999979
 31
0.0
  0
LINE
  5
146B1
  8
SUNPOU
  6
CONTINUOUS
 62
     4
 10
6678.7200212826629
 20
19594.987293999991
 30
0.0
 11
6678.7200212826629
 21
20219.986634999979
 31
0.0
  0
LINE
  5
146B2
  8
SUNPOU
  6
CONTINUOUS
 62
     4
 10
6764.2200212826647
 20
20139.986634999979
 30
0.0
 11
7004.2200212826638
 21
20139.986634999979
 31
0.0
  0
LINE
  5
146B3
  8
SUNPOU
  6
CONTINUOUS
 62
     4
 10
6681.7200212826629
 20
20139.986634999979
 30
0.0
 11
6441.7200212826638
 21
20139.986634999979
 31
0.0
  0
LINE
  5
146B4
  8
SUNPOU
  6
CONTINUOUS
 62
     4
 10
6764.2200212826647
 20
20139.986634999979
 30
0.0
 11
6681.7200212826629
 21
20139.986634999979
 31
0.0
  0
LINE
  5
146B5
  8
SUNPOU
  6
CONTINUOUS
 62
     4
 10
11764.220021282659
 20
20144.987624000001
 30
0.0
 11
11764.220021282659
 21
20219.986634999979
 31
0.0
  0
LINE
  5
146B6
  8
SUNPOU
  6
CONTINUOUS
 62
     4
 10
6764.2200212826647
 20
20144.987624000001
 30
0.0
 11
6764.2200212826647
 21
20219.986634999979
 31
0.0
  0
LINE
  5
146B7
  8
SUNPOU
  6
CONTINUOUS
 62
     4
 10
11764.220021282659
 20
20139.986634999979
 30
0.0
 11
6764.2200212826647
 21
20139.986634999979
 31
0.0
  0
LINE
  5
146B8
  8
SUNPOU
  6
CONTINUOUS
 62
     4
 10
15032.720021282659
 20
19669.987293999991
 30
0.0
 11
15032.720021282659
 21
20219.986634999979
 31
0.0
  0
LINE
  5
146B9
  8
SUNPOU
  6
CONTINUOUS
 62
     4
 10
11764.220021282659
 20
20144.987624000001
 30
0.0
 11
11764.220021282659
 21
20219.986634999979
 31
0.0
  0
LINE
  5
146BA
  8
SUNPOU
  6
CONTINUOUS
 62
     4
 10
15032.720021282659
 20
20139.986634999979
 30
0.0
 11
11764.220021282659
 21
20139.986634999979
 31
0.0
  0
LINE
  5
146BB
  8
SUNPOU
  6
CONTINUOUS
 62
     4
 10
15032.720021282659
 20
19669.987293999991
 30
0.0
 11
15032.720021282659
 21
20219.986634999979
 31
0.0
  0
LINE
  5
146BC
  8
SUNPOU
  6
CONTINUOUS
 62
     4
 10
15118.220021282659
 20
19589.987031000001
 30
0.0
 11
15118.220021282659
 21
20219.986634999979
 31
0.0
  0
LINE
  5
146BD
  8
SUNPOU
  6
CONTINUOUS
 62
     4
 10
15032.720021282659
 20
20139.986634999979
 30
0.0
 11
14792.720021282659
 21
20139.986634999979
 31
0.0
  0
LINE
  5
146BE
  8
SUNPOU
  6
CONTINUOUS
 62
     4
 10
15115.220021282659
 20
20139.986634999979
 30
0.0
 11
15355.220021282659
 21
20139.986634999979
 31
0.0
  0
LINE
  5
146BF
  8
SUNPOU
  6
CONTINUOUS
 62
     4
 10
15032.720021282659
 20
20139.986634999979
 30
0.0
 11
15115.220021282659
 21
20139.986634999979
 31
0.0
  0
LINE
  5
146C0
  8
SUNPOU
  6
CONTINUOUS
 62
     4
 10
15118.220021282659
 20
13539.48643699999
 30
0.0
 11
15118.220021282659
 21
12249.48564499999
 31
0.0
  0
LINE
  5
146C1
  8
SUNPOU
  6
CONTINUOUS
 62
     4
 10
6678.7200212826629
 20
13539.48643699999
 30
0.0
 11
6678.7200212826629
 21
12249.48564499999
 31
0.0
  0
LINE
  5
146C2
  8
SUNPOU
  6
CONTINUOUS
 62
     4
 10
15115.220021282659
 20
12329.48564499999
 30
0.0
 11
6681.7200212826629
 21
12329.48564499999
 31
0.0
  0
LINE
  5
146C3
  8
0-6
  6
CONTINUOUS
 62
     6
 10
8626.3793404796452
 20
15586.32152246877
 30
0.0
 11
8506.524613573114
 21
15695.652619424
 31
0.0
  0
LINE
  5
146C4
  8
0-6
  6
CONTINUOUS
 62
     6
 10
8506.524613573114
 20
15695.652619424
 30
0.0
 11
8584.4500116099043
 21
15553.363910581451
 31
0.0
  0
LINE
  5
146C5
  8
0-6
  6
CONTINUOUS
 62
     6
 10
8584.4500116099043
 20
15553.363910581451
 30
0.0
 11
8626.3793404796452
 21
15586.32152246877
 31
0.0
  0
LINE
  5
146C6
  8
0-6
  6
CONTINUOUS
 62
     6
 10
12724.0873007888
 20
16944.10254427827
 30
0.0
 11
12692.447654420041
 21
16784.988192000001
 31
0.0
  0
LINE
  5
146C7
  8
0-6
  6
CONTINUOUS
 62
     6
 10
12692.447654420041
 20
16784.988192000001
 30
0.0
 11
12773.973780322411
 21
16925.24486784335
 31
0.0
  0
LINE
  5
146C8
  8
0-6
  6
CONTINUOUS
 62
     6
 10
12773.973780322411
 20
16925.24486784335
 30
0.0
 11
12724.0873007888
 21
16944.10254427827
 31
0.0
  0
LINE
  5
146C9
  8
0-6
  6
CONTINUOUS
 62
     6
 10
6590.6821887502392
 20
14947.702675703889
 30
0.0
 11
6717.6414778917706
 21
15048.65966837642
 31
0.0
  0
LINE
  5
146CA
  8
0-6
  6
CONTINUOUS
 62
     6
 10
6717.6414778917706
 20
15048.65966837642
 30
0.0
 11
6630.2872820970997
 21
14911.98213737295
 31
0.0
  0
LINE
  5
146CB
  8
0-6
  6
CONTINUOUS
 62
     6
 10
6630.2872820970997
 20
14911.98213737295
 30
0.0
 11
6590.6821887502392
 21
14947.702675703889
 31
0.0
  0
LINE
  5
146CC
  8
0-6
  6
CONTINUOUS
 62
     6
 10
20499.898656649919
 20
19102.390205253349
 30
0.0
 11
20393.570632701962
 21
19224.886437000001
 31
0.0
  0
LINE
  5
146CD
  8
0-6
  6
CONTINUOUS
 62
     6
 10
20393.570632701962
 20
19224.886437000001
 30
0.0
 11
20454.422752295199
 21
19074.52513032455
 31
0.0
  0
LINE
  5
146CE
  8
0-6
  6
CONTINUOUS
 62
     6
 10
20454.422752295199
 20
19074.52513032455
 30
0.0
 11
20499.898656649919
 21
19102.390205253349
 31
0.0
  0
LINE
  5
146CF
  8
0-6
  6
CONTINUOUS
 62
     6
 10
20471.714311143951
 20
19518.203761932691
 30
0.0
 11
20402.67063270196
 21
19371.42520104588
 31
0.0
  0
LINE
  5
146D0
  8
0-6
  6
CONTINUOUS
 62
     6
 10
20402.67063270196
 20
19371.42520104588
 30
0.0
 11
20515.587632881099
 21
19487.87799867084
 31
0.0
  0
LINE
  5
146D1
  8
0-6
  6
CONTINUOUS
 62
     6
 10
20515.587632881099
 20
19487.87799867084
 30
0.0
 11
20471.714311143951
 21
19518.203761932691
 31
0.0
  0
LINE
  5
146D2
  8
0-6
  6
CONTINUOUS
 62
     6
 10
20499.898656649919
 20
16935.08277374665
 30
0.0
 11
20393.570632701962
 21
16812.586542000001
 31
0.0
  0
LINE
  5
146D3
  8
0-6
  6
CONTINUOUS
 62
     6
 10
20393.570632701962
 20
16812.586542000001
 30
0.0
 11
20454.422752295199
 21
16962.947848675441
 31
0.0
  0
LINE
  5
146D4
  8
0-6
  6
CONTINUOUS
 62
     6
 10
20454.422752295199
 20
16962.947848675441
 30
0.0
 11
20499.898656649919
 21
16935.08277374665
 31
0.0
  0
LINE
  5
146D5
  8
0-6
  6
CONTINUOUS
 62
     6
 10
20499.898656649919
 20
14027.58320974665
 30
0.0
 11
20393.570632701962
 21
13905.086977999999
 31
0.0
  0
LINE
  5
146D6
  8
0-6
  6
CONTINUOUS
 62
     6
 10
20393.570632701962
 20
13905.086977999999
 30
0.0
 11
20454.422752295199
 21
14055.448284675451
 31
0.0
  0
LINE
  5
146D7
  8
0-6
  6
CONTINUOUS
 62
     6
 10
20454.422752295199
 20
14055.448284675451
 30
0.0
 11
20499.898656649919
 21
14027.58320974665
 31
0.0
  0
LINE
  5
146D8
  8
0-6
  6
CONTINUOUS
 62
     6
 10
20471.714311143951
 20
16519.2692170673
 30
0.0
 11
20402.67063270196
 21
16666.047777954122
 31
0.0
  0
LINE
  5
146D9
  8
0-6
  6
CONTINUOUS
 62
     6
 10
20402.67063270196
 20
16666.047777954122
 30
0.0
 11
20515.587632881099
 21
16549.594980329151
 31
0.0
  0
LINE
  5
146DA
  8
0-6
  6
CONTINUOUS
 62
     6
 10
20515.587632881099
 20
16549.594980329151
 30
0.0
 11
20471.714311143951
 21
16519.2692170673
 31
0.0
  0
LINE
  5
146DB
  8
0-6
  6
CONTINUOUS
 62
     6
 10
20471.714311143951
 20
13631.708417113179
 30
0.0
 11
20402.67063270196
 21
13778.486978000001
 31
0.0
  0
LINE
  5
146DC
  8
0-6
  6
CONTINUOUS
 62
     6
 10
20402.67063270196
 20
13778.486978000001
 30
0.0
 11
20515.587632881099
 21
13662.03418037502
 31
0.0
  0
LINE
  5
146DD
  8
0-6
  6
CONTINUOUS
 62
     6
 10
20515.587632881099
 20
13662.03418037502
 30
0.0
 11
20471.714311143951
 21
13631.708417113179
 31
0.0
  0
LINE
  5
146F6
  8
SUNPOU
  6
CONTINUOUS
 62
     4
 10
25366.91188601379
 20
19440.486978000001
 30
0.0
 11
25366.91188601379
 21
20240.487902000001
 31
0.0
  0
LINE
  5
146F7
  8
SUNPOU
  6
CONTINUOUS
 62
     4
 10
25324.411886013779
 20
19440.486978000001
 30
0.0
 11
25324.411886013779
 21
20240.487902000001
 31
0.0
  0
LINE
  5
146F8
  8
SUNPOU
  6
CONTINUOUS
 62
     4
 10
25366.91188601379
 20
20160.487902000001
 30
0.0
 11
25606.91188601379
 21
20160.487902000001
 31
0.0
  0
LINE
  5
146F9
  8
SUNPOU
  6
CONTINUOUS
 62
     4
 10
25324.411886013779
 20
20160.487902000001
 30
0.0
 11
25084.411886013779
 21
20160.487902000001
 31
0.0
  0
LINE
  5
146FA
  8
SUNPOU
  6
CONTINUOUS
 62
     4
 10
25366.91188601379
 20
20160.487902000001
 30
0.0
 11
25324.411886013779
 21
20160.487902000001
 31
0.0
  0
LINE
  5
146FB
  8
SUNPOU
  6
CONTINUOUS
 62
     4
 10
25774.41188601379
 20
19440.486978000001
 30
0.0
 11
25774.41188601379
 21
20240.487902000001
 31
0.0
  0
LINE
  5
146FC
  8
SUNPOU
  6
CONTINUOUS
 62
     4
 10
25366.91188601379
 20
19440.486978000001
 30
0.0
 11
25366.91188601379
 21
20240.487902000001
 31
0.0
  0
LINE
  5
146FD
  8
SUNPOU
  6
CONTINUOUS
 62
     4
 10
25774.41188601379
 20
20160.487902000001
 30
0.0
 11
25366.91188601379
 21
20160.487902000001
 31
0.0
  0
LINE
  5
146FE
  8
SUNPOU
  6
CONTINUOUS
 62
     4
 10
27176.411886013779
 20
19440.486978000001
 30
0.0
 11
27176.411886013779
 21
20240.487902000001
 31
0.0
  0
LINE
  5
146FF
  8
SUNPOU
  6
CONTINUOUS
 62
     4
 10
26475.411886013779
 20
19440.486978000001
 30
0.0
 11
26475.411886013779
 21
20240.487902000001
 31
0.0
  0
LINE
  5
14700
  8
SUNPOU
  6
CONTINUOUS
 62
     4
 10
27176.411886013779
 20
20160.487902000001
 30
0.0
 11
26475.411886013779
 21
20160.487902000001
 31
0.0
  0
LINE
  5
14701
  8
SUNPOU
  6
CONTINUOUS
 62
     4
 10
27877.411886013779
 20
19440.486978000001
 30
0.0
 11
27877.411886013779
 21
20240.487902000001
 31
0.0
  0
LINE
  5
14702
  8
SUNPOU
  6
CONTINUOUS
 62
     4
 10
27176.411886013779
 20
19440.486978000001
 30
0.0
 11
27176.411886013779
 21
20240.487902000001
 31
0.0
  0
LINE
  5
14703
  8
SUNPOU
  6
CONTINUOUS
 62
     4
 10
27877.411886013779
 20
20160.487902000001
 30
0.0
 11
27176.411886013779
 21
20160.487902000001
 31
0.0
  0
LINE
  5
14704
  8
SUNPOU
  6
CONTINUOUS
 62
     4
 10
28635.41188601379
 20
19520.489484999991
 30
0.0
 11
28635.41188601379
 21
20240.487902000001
 31
0.0
  0
LINE
  5
14705
  8
SUNPOU
  6
CONTINUOUS
 62
     4
 10
27877.411886013779
 20
19440.486978000001
 30
0.0
 11
27877.411886013779
 21
20240.487902000001
 31
0.0
  0
LINE
  5
14706
  8
SUNPOU
  6
CONTINUOUS
 62
     4
 10
28635.41188601379
 20
20160.487902000001
 30
0.0
 11
27877.411886013779
 21
20160.487902000001
 31
0.0
  0
LINE
  5
14707
  8
SUNPOU
  6
CONTINUOUS
 62
     4
 10
28635.41188601379
 20
19520.489484999991
 30
0.0
 11
28635.41188601379
 21
20240.487902000001
 31
0.0
  0
LINE
  5
14708
  8
SUNPOU
  6
CONTINUOUS
 62
     4
 10
28677.911886013779
 20
19440.486978000001
 30
0.0
 11
28677.911886013779
 21
20240.487902000001
 31
0.0
  0
LINE
  5
14709
  8
SUNPOU
  6
CONTINUOUS
 62
     4
 10
28635.41188601379
 20
20160.487902000001
 30
0.0
 11
28395.411886013801
 21
20160.487902000001
 31
0.0
  0
LINE
  5
1470A
  8
SUNPOU
  6
CONTINUOUS
 62
     4
 10
28677.911886013779
 20
20160.487902000001
 30
0.0
 11
28917.91188601379
 21
20160.487902000001
 31
0.0
  0
LINE
  5
1470B
  8
SUNPOU
  6
CONTINUOUS
 62
     4
 10
28635.41188601379
 20
20160.487902000001
 30
0.0
 11
28677.911886013779
 21
20160.487902000001
 31
0.0
  0
LINE
  5
14719
  8
SUNPOU
  6
CONTINUOUS
 62
     4
 10
25366.91188601379
 20
20560.487902000001
 30
0.0
 11
20366.911886013801
 21
20560.487902000001
 31
0.0
  0
LINE
  5
1471A
  8
SUNPOU
  6
CONTINUOUS
 62
     4
 10
28635.41188601379
 20
20560.487902000001
 30
0.0
 11
25366.91188601379
 21
20560.487902000001
 31
0.0
  0
LINE
  5
1471B
  8
SUNPOU
  6
CONTINUOUS
 62
     4
 10
20366.911886013801
 20
19684.936751877329
 30
0.0
 11
20366.911886013801
 21
20240.487902000001
 31
0.0
  0
LINE
  5
1471C
  8
SUNPOU
  6
CONTINUOUS
 62
     4
 10
20409.414129013781
 20
19523.837242000001
 30
0.0
 11
20409.414129013781
 21
20240.487902000001
 31
0.0
  0
LINE
  5
1471D
  8
SUNPOU
  6
CONTINUOUS
 62
     4
 10
20366.911886013801
 20
20160.487902000001
 30
0.0
 11
20126.911886013801
 21
20160.487902000001
 31
0.0
  0
LINE
  5
1471E
  8
SUNPOU
  6
CONTINUOUS
 62
     4
 10
20409.414129013781
 20
20160.487902000001
 30
0.0
 11
20649.414129013789
 21
20160.487902000001
 31
0.0
  0
LINE
  5
1471F
  8
SUNPOU
  6
CONTINUOUS
 62
     4
 10
20366.911886013801
 20
20160.487902000001
 30
0.0
 11
20409.414129013781
 21
20160.487902000001
 31
0.0
  0
LINE
  5
14720
  8
SUNPOU
  6
CONTINUOUS
 62
     4
 10
20366.911886013801
 20
19684.936751877329
 30
0.0
 11
20366.911886013801
 21
20240.487902000001
 31
0.0
  0
LINE
  5
14721
  8
SUNPOU
  6
CONTINUOUS
 62
     4
 10
20324.413601013799
 20
19520.489484999991
 30
0.0
 11
20324.413601013799
 21
20240.487902000001
 31
0.0
  0
LINE
  5
14722
  8
SUNPOU
  6
CONTINUOUS
 62
     4
 10
20366.911886013801
 20
20160.487902000001
 30
0.0
 11
20606.911886013801
 21
20160.487902000001
 31
0.0
  0
LINE
  5
14723
  8
SUNPOU
  6
CONTINUOUS
 62
     4
 10
20324.413601013799
 20
20160.487902000001
 30
0.0
 11
20084.413601013799
 21
20160.487902000001
 31
0.0
  0
LINE
  5
14724
  8
SUNPOU
  6
CONTINUOUS
 62
     4
 10
20366.911886013801
 20
20160.487902000001
 30
0.0
 11
20324.413601013799
 21
20160.487902000001
 31
0.0
  0
LINE
  5
14725
  8
SUNPOU
  6
CONTINUOUS
 62
     4
 10
19982.30705006186
 20
16750.486978000001
 30
0.0
 11
19069.06826164516
 21
16750.486978000001
 31
0.0
  0
LINE
  5
14726
  8
SUNPOU
  6
CONTINUOUS
 62
     4
 10
19982.30705006186
 20
19317.986978000001
 30
0.0
 11
19069.06826164516
 21
19317.986978000001
 31
0.0
  0
LINE
  5
14727
  8
SUNPOU
  6
CONTINUOUS
 62
     4
 10
19149.06826164516
 20
16750.486978000001
 30
0.0
 11
19149.06826164516
 21
19317.986978000001
 31
0.0
  0
LINE
  5
14728
  8
SUNPOU
  6
CONTINUOUS
 62
     4
 10
19982.30705006186
 20
13832.48697800001
 30
0.0
 11
19069.06826164516
 21
13832.48697800001
 31
0.0
  0
LINE
  5
14729
  8
SUNPOU
  6
CONTINUOUS
 62
     4
 10
19982.30705006186
 20
16750.486978000001
 30
0.0
 11
19069.06826164516
 21
16750.486978000001
 31
0.0
  0
LINE
  5
1472A
  8
SUNPOU
  6
CONTINUOUS
 62
     4
 10
19149.06826164516
 20
13832.48697800001
 30
0.0
 11
19149.06826164516
 21
16750.486978000001
 31
0.0
  0
ARC
  5
14742
  8
1-前柱P
 10
20357.311886013791
 20
13900.88697800001
 30
0.0
 40
1.0
 50
0.0
 51
90.0
  0
LINE
  5
14743
  8
1-前柱P
 10
20358.311886013791
 20
13900.88697800001
 30
0.0
 11
20358.311886013791
 21
13899.286978
 31
0.0
  0
LINE
  5
14744
  8
1-前柱P
 10
20358.311886013791
 20
13899.286978
 30
0.0
 11
20369.511886013792
 21
13899.286978
 31
0.0
  0
LINE
  5
14745
  8
1-前柱P
 10
20369.511886013792
 20
13899.286978
 30
0.0
 11
20369.511886013799
 21
13900.88697800001
 31
0.0
  0
ARC
  5
14746
  8
1-前柱P
 10
20370.511886013792
 20
13900.88697800001
 30
0.0
 40
1.0
 50
90.0
 51
180.0
  0
ARC
  5
14747
  8
1-中柱P
 10
20373.511886013792
 20
16818.786978000011
 30
0.0
 40
1.0
 50
90.0
 51
180.0
  0
LINE
  5
14748
  8
1-中柱P
 10
20372.511886013799
 20
16818.786978000011
 30
0.0
 11
20372.511886013799
 21
16817.186978000002
 31
0.0
  0
LINE
  5
14749
  8
1-中柱P
 10
20372.511886013799
 20
16817.186978000002
 30
0.0
 11
20361.311886013798
 21
16817.186978000002
 31
0.0
  0
LINE
  5
1474A
  8
1-中柱P
 10
20361.311886013798
 20
16817.186978000002
 30
0.0
 11
20361.311886013798
 21
16818.786978000011
 31
0.0
  0
ARC
  5
1474B
  8
1-中柱P
 10
20360.311886013809
 20
16818.786978000011
 30
0.0
 40
1.0
 50
0.0
 51
90.0
  0
ARC
  5
1474C
  8
1-後柱P
 10
20376.511886013792
 20
19249.936978000002
 30
0.0
 40
1.0
 50
180.0
 51
270.0
  0
LINE
  5
1474D
  8
1-後柱P
 10
20375.511886013792
 20
19249.936978000002
 30
0.0
 11
20375.511886013792
 21
19251.536978
 31
0.0
  0
LINE
  5
1474E
  8
1-後柱P
 10
20375.511886013792
 20
19251.536978
 30
0.0
 11
20364.311886013791
 21
19251.536978
 31
0.0
  0
LINE
  5
1474F
  8
1-後柱P
 10
20364.311886013791
 20
19251.536978
 30
0.0
 11
20364.311886013791
 21
19249.936978000002
 31
0.0
  0
ARC
  5
14750
  8
1-後柱P
 10
20363.311886013791
 20
19249.936978000002
 30
0.0
 40
1.0
 50
270.0
 51
0.0
  0
LINE
  5
14751
  8
SUNPOU
  6
CONTINUOUS
 62
     4
 10
28720.911886013801
 20
8669.6883999999955
 30
0.0
 11
28720.911886013801
 21
9869.1329740000037
 31
0.0
  0
LINE
  5
14752
  8
SUNPOU
  6
CONTINUOUS
 62
     4
 10
20281.411886013801
 20
8669.6883999999955
 30
0.0
 11
20281.411886013801
 21
9869.1329740000037
 31
0.0
  0
LINE
  5
14753
  8
SUNPOU
  6
CONTINUOUS
 62
     4
 10
28717.911886013801
 20
9789.1329740000037
 30
0.0
 11
20284.411886013801
 21
9789.1329740000037
 31
0.0
  0
LINE
  5
14754
  8
SUNPOU
  6
CONTINUOUS
 62
     4
 10
20324.411886013801
 20
8669.6883999999955
 30
0.0
 11
20324.411886013801
 21
9469.1900500000029
 31
0.0
  0
LINE
  5
14755
  8
SUNPOU
  6
CONTINUOUS
 62
     4
 10
20281.411886013801
 20
8669.6883999999955
 30
0.0
 11
20281.411886013801
 21
9469.1900500000029
 31
0.0
  0
LINE
  5
14756
  8
SUNPOU
  6
CONTINUOUS
 62
     4
 10
20324.411886013801
 20
9389.1900500000029
 30
0.0
 11
20564.411886013801
 21
9389.1900500000029
 31
0.0
  0
LINE
  5
14757
  8
SUNPOU
  6
CONTINUOUS
 62
     4
 10
20284.411886013801
 20
9389.1900500000029
 30
0.0
 11
20044.411886013801
 21
9389.1900500000029
 31
0.0
  0
LINE
  5
14758
  8
SUNPOU
  6
CONTINUOUS
 62
     4
 10
20324.411886013801
 20
9389.1900500000029
 30
0.0
 11
20284.411886013801
 21
9389.1900500000029
 31
0.0
  0
LINE
  5
14759
  8
SUNPOU
  6
CONTINUOUS
 62
     4
 10
28677.911886013819
 20
8539.6884659999996
 30
0.0
 11
28677.911886013819
 21
9469.1900500000029
 31
0.0
  0
LINE
  5
1475A
  8
SUNPOU
  6
CONTINUOUS
 62
     4
 10
28720.911886013801
 20
8669.6883999999955
 30
0.0
 11
28720.911886013801
 21
9469.1900500000029
 31
0.0
  0
LINE
  5
1475B
  8
SUNPOU
  6
CONTINUOUS
 62
     4
 10
28677.911886013819
 20
9389.1900500000029
 30
0.0
 11
28437.911886013819
 21
9389.1900500000029
 31
0.0
  0
LINE
  5
1475C
  8
SUNPOU
  6
CONTINUOUS
 62
     4
 10
28717.911886013801
 20
9389.1900500000029
 30
0.0
 11
28957.911886013819
 21
9389.1900500000029
 31
0.0
  0
LINE
  5
1475D
  8
SUNPOU
  6
CONTINUOUS
 62
     4
 10
28677.911886013819
 20
9389.1900500000029
 30
0.0
 11
28717.911886013801
 21
9389.1900500000029
 31
0.0
  0
LINE
  5
1475E
  8
SUNPOU
  6
CONTINUOUS
 62
     4
 10
25324.411886013801
 20
8539.6884659999996
 30
0.0
 11
25324.411886013801
 21
9469.1900500000029
 31
0.0
  0
LINE
  5
1475F
  8
SUNPOU
  6
CONTINUOUS
 62
     4
 10
28677.911886013819
 20
8539.6884659999996
 30
0.0
 11
28677.911886013819
 21
9469.1900500000029
 31
0.0
  0
LINE
  5
14760
  8
SUNPOU
  6
CONTINUOUS
 62
     4
 10
25324.411886013801
 20
9389.1900500000029
 30
0.0
 11
28677.911886013819
 21
9389.1900500000029
 31
0.0
  0
LINE
  5
14761
  8
SUNPOU
  6
CONTINUOUS
 62
     4
 10
28765.414525013792
 20
6241.1883740000021
 30
0.0
 11
30239.141167015729
 21
6241.1883740000021
 31
0.0
  0
LINE
  5
14762
  8
SUNPOU
  6
CONTINUOUS
 62
     4
 10
28797.911886013819
 20
8589.6883999999973
 30
0.0
 11
30239.141167015729
 21
8589.6883999999973
 31
0.0
  0
LINE
  5
14763
  8
SUNPOU
  6
CONTINUOUS
 62
     4
 10
30159.141167015729
 20
6241.1883740000021
 30
0.0
 11
30159.141167015729
 21
8589.6883999999973
 31
0.0
  0
LINE
  5
14764
  8
SUNPOU
  6
CONTINUOUS
 62
     4
 10
28765.414525013792
 20
6241.1883740000021
 30
0.0
 11
29565.415185013811
 21
6241.1883740000021
 31
0.0
  0
LINE
  5
14765
  8
SUNPOU
  6
CONTINUOUS
 62
     4
 10
28672.915581013789
 20
8132.6883740000021
 30
0.0
 11
29565.415185013811
 21
8132.6883740000021
 31
0.0
  0
LINE
  5
14766
  8
SUNPOU
  6
CONTINUOUS
 62
     4
 10
29485.415185013811
 20
6241.1883740000021
 30
0.0
 11
29485.415185013811
 21
8132.6883740000021
 31
0.0
  0
LINE
  5
14767
  8
SUNPOU
  6
CONTINUOUS
 62
     4
 10
25321.411886013801
 20
6161.1883740000021
 30
0.0
 11
25321.411886013801
 21
5261.188374000003
 31
0.0
  0
LINE
  5
14768
  8
SUNPOU
  6
CONTINUOUS
 62
     4
 10
20409.41188601379
 20
6061.1885389999989
 30
0.0
 11
20409.41188601379
 21
5261.188374000003
 31
0.0
  0
LINE
  5
14769
  8
SUNPOU
  6
CONTINUOUS
 62
     4
 10
25321.411886013801
 20
5341.188374000003
 30
0.0
 11
20409.41188601379
 21
5341.188374000003
 31
0.0
  0
LINE
  5
1476A
  8
SUNPOU
  6
CONTINUOUS
 62
     4
 10
28677.871933066272
 20
6161.1883740000021
 30
0.0
 11
28677.871933066272
 21
4461.1887040000574
 31
0.0
  0
LINE
  5
1476B
  8
SUNPOU
  6
CONTINUOUS
 62
     4
 10
20324.411886013801
 20
6061.1885389999989
 30
0.0
 11
20324.411886013801
 21
4461.1887040000574
 31
0.0
  0
LINE
  5
1476C
  8
SUNPOU
  6
CONTINUOUS
 62
     4
 10
28677.871933066272
 20
4541.1887040000556
 30
0.0
 11
20324.411886013801
 21
4541.1887040000556
 31
0.0
  0
LINE
  5
1476D
  8
SUNPOU
  6
CONTINUOUS
 62
     4
 10
28635.411886013819
 20
5798.5361160000011
 30
0.0
 11
28635.411886013819
 21
4861.1885389999998
 31
0.0
  0
LINE
  5
1476E
  8
SUNPOU
  6
CONTINUOUS
 62
     4
 10
28677.871933066272
 20
6161.1883740000021
 30
0.0
 11
28677.871933066272
 21
4861.1885389999998
 31
0.0
  0
LINE
  5
1476F
  8
SUNPOU
  6
CONTINUOUS
 62
     4
 10
28635.411886013819
 20
4941.1885390000016
 30
0.0
 11
28395.411886013819
 21
4941.1885390000016
 31
0.0
  0
LINE
  5
14770
  8
SUNPOU
  6
CONTINUOUS
 62
     4
 10
28677.871933066272
 20
4941.1885390000016
 30
0.0
 11
28917.871933066279
 21
4941.1885390000016
 31
0.0
  0
LINE
  5
14771
  8
SUNPOU
  6
CONTINUOUS
 62
     4
 10
28635.411886013819
 20
4941.1885390000016
 30
0.0
 11
28677.871933066272
 21
4941.1885390000016
 31
0.0
  0
LINE
  5
14772
  8
SUNPOU
  6
CONTINUOUS
 62
     4
 10
25366.911886013801
 20
5798.5361160000011
 30
0.0
 11
25366.911886013801
 21
4861.1885389999998
 31
0.0
  0
LINE
  5
14773
  8
SUNPOU
  6
CONTINUOUS
 62
     4
 10
28635.411886013819
 20
5798.5361160000011
 30
0.0
 11
28635.411886013819
 21
4861.1885389999998
 31
0.0
  0
LINE
  5
14774
  8
SUNPOU
  6
CONTINUOUS
 62
     4
 10
25366.911886013801
 20
4941.1885390000016
 30
0.0
 11
28635.411886013819
 21
4941.1885390000016
 31
0.0
  0
LINE
  5
14775
  8
SUNPOU
  6
CONTINUOUS
 62
     4
 10
28541.411886013801
 20
6061.1885389999989
 30
0.0
 11
28541.411886013801
 21
5261.188374000003
 31
0.0
  0
LINE
  5
14776
  8
SUNPOU
  6
CONTINUOUS
 62
     4
 10
25460.911886013801
 20
6061.1885389999989
 30
0.0
 11
25460.911886013801
 21
5261.188374000003
 31
0.0
  0
LINE
  5
14777
  8
SUNPOU
  6
CONTINUOUS
 62
     4
 10
28541.411886013801
 20
5341.188374000003
 30
0.0
 11
25460.911886013801
 21
5341.188374000003
 31
0.0
  0
LINE
  5
14778
  8
SUNPOU
  6
CONTINUOUS
 62
     4
 10
20366.911886013801
 20
5798.5361160000011
 30
0.0
 11
20366.911886013801
 21
4861.1885389999998
 31
0.0
  0
LINE
  5
14779
  8
SUNPOU
  6
CONTINUOUS
 62
     4
 10
20324.411886013801
 20
6061.1885389999989
 30
0.0
 11
20324.411886013801
 21
4861.1885389999998
 31
0.0
  0
LINE
  5
1477A
  8
SUNPOU
  6
CONTINUOUS
 62
     4
 10
20366.911886013801
 20
4941.1885390000016
 30
0.0
 11
20606.911886013801
 21
4941.1885390000016
 31
0.0
  0
LINE
  5
1477B
  8
SUNPOU
  6
CONTINUOUS
 62
     4
 10
20324.411886013801
 20
4941.1885390000016
 30
0.0
 11
20084.411886013801
 21
4941.1885390000016
 31
0.0
  0
LINE
  5
1477C
  8
SUNPOU
  6
CONTINUOUS
 62
     4
 10
20366.911886013801
 20
4941.1885390000016
 30
0.0
 11
20324.411886013801
 21
4941.1885390000016
 31
0.0
  0
LINE
  5
1477D
  8
SUNPOU
  6
CONTINUOUS
 62
     4
 10
25366.911886013801
 20
5798.5361160000011
 30
0.0
 11
25366.911886013801
 21
4861.1885389999998
 31
0.0
  0
LINE
  5
1477E
  8
SUNPOU
  6
CONTINUOUS
 62
     4
 10
20366.911886013801
 20
5798.5361160000011
 30
0.0
 11
20366.911886013801
 21
4861.1885389999998
 31
0.0
  0
LINE
  5
1477F
  8
SUNPOU
  6
CONTINUOUS
 62
     4
 10
25366.911886013801
 20
4941.1885390000016
 30
0.0
 11
20366.911886013801
 21
4941.1885390000016
 31
0.0
  0
LINE
  5
14780
  8
SUNPOU
  6
CONTINUOUS
 62
     4
 10
25324.411886013801
 20
8539.6884659999996
 30
0.0
 11
25324.411886013801
 21
9469.1900500000029
 31
0.0
  0
LINE
  5
14781
  8
SUNPOU
  6
CONTINUOUS
 62
     4
 10
20324.411886013801
 20
8669.6883999999955
 30
0.0
 11
20324.411886013801
 21
9469.1900500000029
 31
0.0
  0
LINE
  5
14782
  8
SUNPOU
  6
CONTINUOUS
 62
     4
 10
25324.411886013801
 20
9389.1900500000029
 30
0.0
 11
20324.411886013801
 21
9389.1900500000029
 31
0.0
  0
LINE
  5
14783
  8
SUNPOU
  6
CONTINUOUS
 62
     4
 10
20244.411886013801
 20
6242.0026620000026
 30
0.0
 11
19034.589487719411
 21
6242.0026620000026
 31
0.0
  0
LINE
  5
14784
  8
SUNPOU
  6
CONTINUOUS
 62
     4
 10
20204.411886013801
 20
8262.0026620000026
 30
0.0
 11
19034.589487719411
 21
8262.0026620000026
 31
0.0
  0
LINE
  5
14785
  8
SUNPOU
  6
CONTINUOUS
 62
     4
 10
19114.589487719411
 20
6242.0026620000026
 30
0.0
 11
19114.589487719411
 21
8262.0026620000026
 31
0.0
  0
LINE
  5
14786
  8
SUNPOU
  6
CONTINUOUS
 62
     4
 10
13070.21877048856
 20
8478.188374000003
 30
0.0
 11
13070.21877048856
 21
9869.1883999999955
 31
0.0
  0
LINE
  5
14787
  8
SUNPOU
  6
CONTINUOUS
 62
     4
 10
7169.7187704885728
 20
8610.0781974124311
 30
0.0
 11
7169.7187704885728
 21
9869.1883999999955
 31
0.0
  0
LINE
  5
14788
  8
SUNPOU
  6
CONTINUOUS
 62
     4
 10
13070.21877048856
 20
9789.1883999999955
 30
0.0
 11
7169.7187704885728
 21
9789.1883999999955
 31
0.0
  0
LINE
  5
14789
  8
SUNPOU
  6
CONTINUOUS
 62
     4
 10
7319.7187704885764
 20
8536.0984379999973
 30
0.0
 11
7319.7187704885764
 21
9469.1900500000029
 31
0.0
  0
LINE
  5
1478A
  8
SUNPOU
  6
CONTINUOUS
 62
     4
 10
7169.7187704885728
 20
8610.0781974124311
 30
0.0
 11
7169.7187704885728
 21
9469.1900500000029
 31
0.0
  0
LINE
  5
1478B
  8
SUNPOU
  6
CONTINUOUS
 62
     4
 10
7319.7187704885764
 20
9389.1900500000029
 30
0.0
 11
7559.7187704885719
 21
9389.1900500000029
 31
0.0
  0
LINE
  5
1478C
  8
SUNPOU
  6
CONTINUOUS
 62
     4
 10
7169.7187704885728
 20
9389.1900500000029
 30
0.0
 11
6929.7187704885728
 21
9389.1900500000029
 31
0.0
  0
LINE
  5
1478D
  8
SUNPOU
  6
CONTINUOUS
 62
     4
 10
7319.7187704885764
 20
9389.1900500000029
 30
0.0
 11
7169.7187704885728
 21
9389.1900500000029
 31
0.0
  0
LINE
  5
1478E
  8
SUNPOU
  6
CONTINUOUS
 62
     4
 10
12890.21877048856
 20
8348.3741496838102
 30
0.0
 11
12890.21877048856
 21
9469.1900500000029
 31
0.0
  0
LINE
  5
1478F
  8
SUNPOU
  6
CONTINUOUS
 62
     4
 10
7319.7187704885764
 20
8536.0984379999973
 30
0.0
 11
7319.7187704885764
 21
9469.1900500000029
 31
0.0
  0
LINE
  5
14790
  8
SUNPOU
  6
CONTINUOUS
 62
     4
 10
12890.21877048856
 20
9389.1900500000029
 30
0.0
 11
7319.7187704885764
 21
9389.1900500000029
 31
0.0
  0
LINE
  5
14791
  8
SUNPOU
  6
CONTINUOUS
 62
     4
 10
13070.21877048856
 20
8478.188374000003
 30
0.0
 11
13070.21877048856
 21
9469.1900500000029
 31
0.0
  0
LINE
  5
14792
  8
SUNPOU
  6
CONTINUOUS
 62
     4
 10
12890.21877048856
 20
8348.3741496838102
 30
0.0
 11
12890.21877048856
 21
9469.1900500000029
 31
0.0
  0
LINE
  5
14793
  8
SUNPOU
  6
CONTINUOUS
 62
     4
 10
13070.21877048856
 20
9389.1900500000029
 30
0.0
 11
12890.21877048856
 21
9389.1900500000029
 31
0.0
  0
LINE
  5
14794
  8
SUNPOU
  6
CONTINUOUS
 62
     4
 10
7227.2187704885728
 20
6241.1883740000021
 30
0.0
 11
6149.7183744885688
 21
6241.1883740000021
 31
0.0
  0
LINE
  5
14795
  8
SUNPOU
  6
CONTINUOUS
 62
     4
 10
7134.9115108891847
 20
8589.688374000003
 30
0.0
 11
6149.7183744885688
 21
8589.688374000003
 31
0.0
  0
LINE
  5
14796
  8
SUNPOU
  6
CONTINUOUS
 62
     4
 10
6229.7183744885697
 20
6241.1883740000021
 30
0.0
 11
6229.7183744885697
 21
8589.688374000003
 31
0.0
  0
LINE
  5
14797
  8
SUNPOU
  6
CONTINUOUS
 62
     4
 10
12977.71877048856
 20
6241.1883740000021
 30
0.0
 11
14060.219166488559
 21
6241.1883740000021
 31
0.0
  0
LINE
  5
14798
  8
SUNPOU
  6
CONTINUOUS
 62
     4
 10
13150.21877048856
 20
8397.1883740000048
 30
0.0
 11
14060.219166488559
 21
8397.1883740000048
 31
0.0
  0
LINE
  5
14799
  8
SUNPOU
  6
CONTINUOUS
 62
     4
 10
13980.219166488559
 20
6241.1883740000021
 30
0.0
 11
13980.219166488559
 21
8397.1883740000048
 31
0.0
  0
LINE
  5
1479A
  8
SUNPOU
  6
CONTINUOUS
 62
     4
 10
12890.21877048856
 20
6161.1883740000021
 30
0.0
 11
12890.21877048856
 21
4461.1887039999992
 31
0.0
  0
LINE
  5
1479B
  8
SUNPOU
  6
CONTINUOUS
 62
     4
 10
7319.7187704885764
 20
6161.1883740000021
 30
0.0
 11
7319.7187704885764
 21
4461.1887039999992
 31
0.0
  0
LINE
  5
1479C
  8
SUNPOU
  6
CONTINUOUS
 62
     4
 10
12890.21877048856
 20
4541.1887039999983
 30
0.0
 11
7319.7187704885764
 21
4541.1887039999983
 31
0.0
  0
LINE
  5
1479D
  8
SUNPOU
  6
CONTINUOUS
 62
     4
 10
7362.2187704885728
 20
5798.5361160000011
 30
0.0
 11
7362.2187704885728
 21
4861.1885389999998
 31
0.0
  0
LINE
  5
1479E
  8
SUNPOU
  6
CONTINUOUS
 62
     4
 10
7319.7187704885764
 20
6161.1883740000021
 30
0.0
 11
7319.7187704885764
 21
4861.1885389999998
 31
0.0
  0
LINE
  5
1479F
  8
SUNPOU
  6
CONTINUOUS
 62
     4
 10
7362.2187704885728
 20
4941.1885390000016
 30
0.0
 11
7602.2187704885728
 21
4941.1885390000016
 31
0.0
  0
LINE
  5
147A0
  8
SUNPOU
  6
CONTINUOUS
 62
     4
 10
7319.7187704885764
 20
4941.1885390000016
 30
0.0
 11
7079.7187704885728
 21
4941.1885390000016
 31
0.0
  0
LINE
  5
147A1
  8
SUNPOU
  6
CONTINUOUS
 62
     4
 10
7362.2187704885728
 20
4941.1885390000016
 30
0.0
 11
7319.7187704885764
 21
4941.1885390000016
 31
0.0
  0
LINE
  5
147A2
  8
SUNPOU
  6
CONTINUOUS
 62
     4
 10
12847.71877048856
 20
5798.5361160000011
 30
0.0
 11
12847.71877048856
 21
4861.1885389999998
 31
0.0
  0
LINE
  5
147A3
  8
SUNPOU
  6
CONTINUOUS
 62
     4
 10
12890.21877048856
 20
6161.1883740000021
 30
0.0
 11
12890.21877048856
 21
4861.1885389999998
 31
0.0
  0
LINE
  5
147A4
  8
SUNPOU
  6
CONTINUOUS
 62
     4
 10
12847.71877048856
 20
4941.1885390000016
 30
0.0
 11
12607.71877048856
 21
4941.1885390000016
 31
0.0
  0
LINE
  5
147A5
  8
SUNPOU
  6
CONTINUOUS
 62
     4
 10
12890.21877048856
 20
4941.1885390000016
 30
0.0
 11
13130.21877048856
 21
4941.1885390000016
 31
0.0
  0
LINE
  5
147A6
  8
SUNPOU
  6
CONTINUOUS
 62
     4
 10
12847.71877048856
 20
4941.1885390000016
 30
0.0
 11
12890.21877048856
 21
4941.1885390000016
 31
0.0
  0
LINE
  5
147A7
  8
SUNPOU
  6
CONTINUOUS
 62
     4
 10
10280.21877048856
 20
5798.5361160000011
 30
0.0
 11
10280.21877048856
 21
4861.1885389999998
 31
0.0
  0
LINE
  5
147A8
  8
SUNPOU
  6
CONTINUOUS
 62
     4
 10
12847.71877048856
 20
5798.5361160000011
 30
0.0
 11
12847.71877048856
 21
4861.1885389999998
 31
0.0
  0
LINE
  5
147A9
  8
SUNPOU
  6
CONTINUOUS
 62
     4
 10
10280.21877048856
 20
4941.1885390000016
 30
0.0
 11
12847.71877048856
 21
4941.1885390000016
 31
0.0
  0
LINE
  5
147AA
  8
SUNPOU
  6
CONTINUOUS
 62
     4
 10
10280.21877048856
 20
5798.5361160000011
 30
0.0
 11
10280.21877048856
 21
4861.1885389999998
 31
0.0
  0
LINE
  5
147AB
  8
SUNPOU
  6
CONTINUOUS
 62
     4
 10
7362.2187704885728
 20
5798.5361160000011
 30
0.0
 11
7362.2187704885728
 21
4861.1885389999998
 31
0.0
  0
LINE
  5
147AC
  8
SUNPOU
  6
CONTINUOUS
 62
     4
 10
10280.21877048856
 20
4941.1885390000016
 30
0.0
 11
7362.2187704885728
 21
4941.1885390000016
 31
0.0
  0
TEXT
  5
147AD
  8
0
  6
CONTINUOUS
 62
     7
 10
8554.5521038219049
 20
5021.1885389999998
 30
0.0
 40
160.0
  1
2918
  0
TEXT
  5
147AE
  8
0
  6
CONTINUOUS
 62
     7
 10
11163.96877048856
 20
5021.1885389999998
 30
0.0
 40
160.0
  1
2567.5
  0
TEXT
  5
147AF
  8
0
  6
CONTINUOUS
 62
     7
 10
12992.20838448856
 20
5022.1790569999976
 30
0.0
 40
160.0
  1
42.5
  0
TEXT
  5
147B0
  8
0
  6
CONTINUOUS
 62
     7
 10
6719.7171204885672
 20
5021.1883080000007
 30
0.0
 40
160.0
  1
42.5
  0
TEXT
  5
147B1
  8
0
  6
CONTINUOUS
 62
     7
 10
9718.3021038219085
 20
4621.1887039999983
 30
0.0
 40
160.0
  1
5570.5
  0
TEXT
  5
147B2
  8
0
  6
CONTINUOUS
 62
     7
 10
13900.219166488559
 20
6540.521707333337
 30
0.0
 40
160.0
  1
2156（2396）
 50
90.0
  0
TEXT
  5
147B3
  8
0
  6
CONTINUOUS
 62
     7
 10
6149.7183744885679
 20
6396.7717073333361
 30
0.0
 40
160.0
  1
2348.5（2588.5）
 50
90.0
  0
TEXT
  5
147B4
  8
0
  6
CONTINUOUS
 62
     7
 10
13177.89391895699
 20
9469.1900500000029
 30
0.0
 40
160.0
  1
180
  0
TEXT
  5
147B5
  8
0
  6
CONTINUOUS
 62
     7
 10
9718.3021038219085
 20
9469.1900500000029
 30
0.0
 40
160.0
  1
5570.5
  0
TEXT
  5
147B6
  8
0
  6
CONTINUOUS
 62
     7
 10
6756.3854371552388
 20
9469.1900500000029
 30
0.0
 40
160.0
  1
150
  0
TEXT
  5
147B7
  8
0
  6
CONTINUOUS
 62
     7
 10
9746.6354371552407
 20
9869.1883999999955
 30
0.0
 40
160.0
  1
5900.5
  0
TEXT
  5
147B8
  8
0
  6
CONTINUOUS
 62
     7
 10
19034.589487719411
 20
6589.0026620000071
 30
0.0
 40
160.0
  1
有効高サ2020
 50
90.0
  0
TEXT
  5
147B9
  8
0
  6
CONTINUOUS
 62
     7
 10
22571.078552680468
 20
9469.1900500000029
 30
0.0
 40
160.0
  1
5000
  0
TEXT
  5
147BA
  8
0
  6
CONTINUOUS
 62
     7
 10
22613.578552680461
 20
5021.1885389999998
 30
0.0
 40
160.0
  1
5000
  0
TEXT
  5
147BB
  8
0
  6
CONTINUOUS
 62
     7
 10
19724.41122601381
 20
5021.1883080000007
 30
0.0
 40
160.0
  1
42.5
  0
TEXT
  5
147BC
  8
0
  6
CONTINUOUS
 62
     7
 10
26147.828552680468
 20
5421.188374000003
 30
0.0
 40
160.0
  1
有効開口巾3080.5
  0
TEXT
  5
147BD
  8
0
  6
CONTINUOUS
 62
     7
 10
26601.161886013811
 20
5021.1885389999998
 30
0.0
 40
160.0
  1
3268.5
  0
TEXT
  5
147BE
  8
0
  6
CONTINUOUS
 62
     7
 10
28777.73491701379
 20
5028.7357170000014
 30
0.0
 40
160.0
  1
42.5
  0
TEXT
  5
147BF
  8
0
  6
CONTINUOUS
 62
     7
 10
24101.141909540031
 20
4621.1887040000584
 30
0.0
 40
160.0
  1
8353.5
  0
TEXT
  5
147C0
  8
0
  6
CONTINUOUS
 62
     7
 10
22118.745219347129
 20
5421.188374000003
 30
0.0
 40
160.0
  1
有効開口巾4912
  0
TEXT
  5
147C1
  8
0
  6
CONTINUOUS
 62
     7
 10
29405.415185013811
 20
6264.2717073333424
 30
0.0
 40
160.0
  1
有効開口高サ1891.5
 50
90.0
  0
TEXT
  5
147C2
  8
0
  6
CONTINUOUS
 62
     7
 10
30079.141167015729
 20
6396.7717203333377
 30
0.0
 40
160.0
  1
2348.5（2588.5）
 50
90.0
  0
TEXT
  5
147C3
  8
0
  6
CONTINUOUS
 62
     7
 10
26601.161886013811
 20
9469.1900500000029
 30
0.0
 40
160.0
  1
3353.5
  0
TEXT
  5
147C4
  8
0
  6
CONTINUOUS
 62
     7
 10
28807.719872013819
 20
9469.1893240000027
 30
0.0
 40
160.0
  1
43
  0
TEXT
  5
147C5
  8
0
  6
CONTINUOUS
 62
     7
 10
19906.946066013781
 20
9469.1893240000027
 30
0.0
 40
160.0
  1
43
  0
TEXT
  5
147C6
  8
0
  6
CONTINUOUS
 62
     7
 10
24101.161886013811
 20
9869.1329740000037
 30
0.0
 40
160.0
  1
8439.5
  0
TEXT
  5
147CC
  8
0
  6
CONTINUOUS
 62
     7
 10
19069.06826164516
 20
15024.820311333329
 30
0.0
 40
160.0
  1
2918
 50
90.0
  0
TEXT
  5
147CD
  8
0
  6
CONTINUOUS
 62
     7
 10
19069.06826164516
 20
17634.236978000012
 30
0.0
 40
160.0
  1
2567.5
 50
90.0
  0
TEXT
  5
147CE
  8
0
  6
CONTINUOUS
 62
     7
 10
19745.989958013812
 20
20240.486185999991
 30
0.0
 40
160.0
  1
42.5
  0
TEXT
  5
147CF
  8
0
  6
CONTINUOUS
 62
     7
 10
20424.085925013791
 20
20259.830042000001
 30
0.0
 40
160.0
  1
42.5
  0
TEXT
  5
147D0
  8
0
  6
CONTINUOUS
 62
     7
 10
26601.161886013779
 20
20640.487902000001
 30
0.0
 40
160.0
  1
3268.5
  0
TEXT
  5
147D1
  8
0
  6
CONTINUOUS
 62
     7
 10
22613.578552680461
 20
20640.487902000001
 30
0.0
 40
160.0
  1
5000
  0
TEXT
  5
147D5
  8
0
  6
CONTINUOUS
 62
     7
 10
28692.58592501378
 20
20259.830042000001
 30
0.0
 40
160.0
  1
42.5
  0
TEXT
  5
147D6
  8
0
  6
CONTINUOUS
 62
     7
 10
28043.64915447155
 20
20250.156494457999
 30
0.0
 40
160.0
  1
758
  0
TEXT
  5
147D7
  8
0
  6
CONTINUOUS
 62
     7
 10
27353.0692279664
 20
20241.80990257661
 30
0.0
 40
160.0
  1
701
  0
TEXT
  5
147D8
  8
0
  6
CONTINUOUS
 62
     7
 10
26652.57855268045
 20
20240.487902000001
 30
0.0
 40
160.0
  1
701
  0
TEXT
  5
147D9
  8
0
  6
CONTINUOUS
 62
     7
 10
25427.995219347111
 20
20240.487902000001
 30
0.0
 40
160.0
  1
407.5
  0
TEXT
  5
147DA
  8
0
  6
CONTINUOUS
 62
     7
 10
24745.989958013801
 20
20240.487902000001
 30
0.0
 40
160.0
  1
42.5
  0
TEXT
  5
147E3
  8
0
  6
CONTINUOUS
 62
     7
 10
10023.803354616
 20
12409.48564499999
 30
0.0
 40
160.0
  1
ケラバ外寸8439.5
  0
TEXT
  5
147E4
  8
0
  6
CONTINUOUS
 62
     7
 10
15127.867165282651
 20
20219.984918999991
 30
0.0
 40
160.0
  1
85.5
  0
TEXT
  5
147E5
  8
0
  6
CONTINUOUS
 62
     7
 10
12998.470021282659
 20
20219.986634999979
 30
0.0
 40
160.0
  1
3268.5
  0
TEXT
  5
147E6
  8
0
  6
CONTINUOUS
 62
     7
 10
9010.8866879493307
 20
20219.986634999979
 30
0.0
 40
160.0
  1
5000
  0
TEXT
  5
147E7
  8
0
  6
CONTINUOUS
 62
     7
 10
6137.872233282651
 20
20219.984918999991
 30
0.0
 40
160.0
  1
85.5
  0
TEXT
  5
147E8
  8
0
  6
CONTINUOUS
 62
     7
 10
15505.439162889221
 20
19691.414439666671
 30
0.0
 40
160.0
  1
10
 50
90.0
  0
TEXT
  5
147E9
  8
0
  6
CONTINUOUS
 62
     7
 10
15882.219797282651
 20
19598.467233389241
 30
0.0
 40
160.0
  1
222.5
 50
90.0
  0
TEXT
  5
147EA
  8
0
  6
CONTINUOUS
 62
     7
 10
15882.219797282651
 20
17613.735711000001
 30
0.0
 40
160.0
  1
2567.5
 50
90.0
  0
TEXT
  5
147EB
  8
0
  6
CONTINUOUS
 62
     7
 10
15882.219797282651
 20
15004.319044333341
 30
0.0
 40
160.0
  1
2918
 50
90.0
  0
TEXT
  5
147EC
  8
0
  6
CONTINUOUS
 62
     7
 10
15882.219797282671
 20
12955.49680859056
 30
0.0
 40
160.0
  1
192.5
 50
90.0
  0
TEXT
  5
147ED
  8
0
  6
CONTINUOUS
 62
     7
 10
25951.75355429879
 20
19908.406520597
 30
0.0
 40
160.0
  1
701
  0
ARC
  5
147EE
  8
0
  6
BYBLOCK
 62
     0
 10
26475.411886013779
 20
20160.487902000001
 30
0.0
 40
15.0
 50
180.0
 51
0.0
  0
ARC
  5
147EF
  8
0
  6
BYBLOCK
 62
     0
 10
26475.411886013779
 20
20160.487902000001
 30
0.0
 40
15.0
 50
0.0
 51
180.0
  0
ARC
  5
147F0
  8
0
  6
BYBLOCK
 62
     0
 10
25774.41188601379
 20
20160.487902000001
 30
0.0
 40
15.0
 50
0.0
 51
180.0
  0
ARC
  5
147F1
  8
0
  6
BYBLOCK
 62
     0
 10
25774.41188601379
 20
20160.487902000001
 30
0.0
 40
15.0
 50
180.0
 51
0.0
  0
ARC
  5
147F2
  8
0
  6
BYBLOCK
 62
     0
 10
15962.219797282651
 20
13811.985710999999
 30
0.0
 40
15.0
 50
270.0
 51
90.0
  0
ARC
  5
147F3
  8
0
  6
BYBLOCK
 62
     0
 10
15962.219797282651
 20
13811.985710999999
 30
0.0
 40
15.0
 50
90.0
 51
270.0
  0
ARC
  5
147F4
  8
0
  6
BYBLOCK
 62
     0
 10
15962.219797282651
 20
13619.48643699999
 30
0.0
 40
15.0
 50
90.0
 51
270.0
  0
ARC
  5
147F5
  8
0
  6
BYBLOCK
 62
     0
 10
15962.219797282651
 20
13619.48643699999
 30
0.0
 40
15.0
 50
270.0
 51
90.0
  0
ARC
  5
147F6
  8
0
  6
BYBLOCK
 62
     0
 10
15962.219797282651
 20
16729.985711000001
 30
0.0
 40
15.0
 50
270.0
 51
90.0
  0
ARC
  5
147F7
  8
0
  6
BYBLOCK
 62
     0
 10
15962.219797282651
 20
16729.985711000001
 30
0.0
 40
15.0
 50
90.0
 51
270.0
  0
ARC
  5
147F8
  8
0
  6
BYBLOCK
 62
     0
 10
15962.219797282651
 20
13811.985710999999
 30
0.0
 40
15.0
 50
90.0
 51
270.0
  0
ARC
  5
147F9
  8
0
  6
BYBLOCK
 62
     0
 10
15962.219797282651
 20
13811.985710999999
 30
0.0
 40
15.0
 50
270.0
 51
90.0
  0
ARC
  5
147FA
  8
0
  6
BYBLOCK
 62
     0
 10
15962.219797282651
 20
19297.485711000001
 30
0.0
 40
15.0
 50
270.0
 51
90.0
  0
ARC
  5
147FB
  8
0
  6
BYBLOCK
 62
     0
 10
15962.219797282651
 20
19297.485711000001
 30
0.0
 40
15.0
 50
90.0
 51
270.0
  0
ARC
  5
147FC
  8
0
  6
BYBLOCK
 62
     0
 10
15962.219797282651
 20
16729.985711000001
 30
0.0
 40
15.0
 50
90.0
 51
270.0
  0
ARC
  5
147FD
  8
0
  6
BYBLOCK
 62
     0
 10
15962.219797282651
 20
16729.985711000001
 30
0.0
 40
15.0
 50
270.0
 51
90.0
  0
ARC
  5
147FE
  8
0
  6
BYBLOCK
 62
     0
 10
15962.219797282651
 20
19297.485711000001
 30
0.0
 40
15.0
 50
90.0
 51
270.0
  0
ARC
  5
147FF
  8
0
  6
BYBLOCK
 62
     0
 10
15962.219797282651
 20
19297.485711000001
 30
0.0
 40
15.0
 50
270.0
 51
90.0
  0
ARC
  5
14800
  8
0
  6
BYBLOCK
 62
     0
 10
15962.219797282651
 20
19519.985579
 30
0.0
 40
15.0
 50
270.0
 51
90.0
  0
ARC
  5
14801
  8
0
  6
BYBLOCK
 62
     0
 10
15962.219797282651
 20
19519.985579
 30
0.0
 40
15.0
 50
90.0
 51
270.0
  0
ARC
  5
14802
  8
0
  6
BYBLOCK
 62
     0
 10
15562.220456282639
 20
19509.98900999999
 30
0.0
 40
15.0
 50
270.0
 51
90.0
  0
ARC
  5
14803
  8
0
  6
BYBLOCK
 62
     0
 10
15562.220456282639
 20
19509.98900999999
 30
0.0
 40
15.0
 50
90.0
 51
270.0
  0
ARC
  5
14804
  8
0
  6
BYBLOCK
 62
     0
 10
15562.220456282639
 20
19519.985579
 30
0.0
 40
15.0
 50
90.0
 51
270.0
  0
ARC
  5
14805
  8
0
  6
BYBLOCK
 62
     0
 10
15562.220456282639
 20
19519.985579
 30
0.0
 40
15.0
 50
270.0
 51
90.0
  0
ARC
  5
14806
  8
0
  6
BYBLOCK
 62
     0
 10
6764.2200212826647
 20
20139.986634999979
 30
0.0
 40
15.0
 50
0.0
 51
180.0
  0
ARC
  5
14807
  8
0
  6
BYBLOCK
 62
     0
 10
6764.2200212826647
 20
20139.986634999979
 30
0.0
 40
15.0
 50
180.0
 51
0.0
  0
ARC
  5
14808
  8
0
  6
BYBLOCK
 62
     0
 10
6678.7200212826629
 20
20139.986634999979
 30
0.0
 40
15.0
 50
180.0
 51
0.0
  0
ARC
  5
14809
  8
0
  6
BYBLOCK
 62
     0
 10
6678.7200212826629
 20
20139.986634999979
 30
0.0
 40
15.0
 50
0.0
 51
180.0
  0
ARC
  5
1480A
  8
0
  6
BYBLOCK
 62
     0
 10
11764.220021282659
 20
20139.986634999979
 30
0.0
 40
15.0
 50
180.0
 51
0.0
  0
ARC
  5
1480B
  8
0
  6
BYBLOCK
 62
     0
 10
11764.220021282659
 20
20139.986634999979
 30
0.0
 40
15.0
 50
0.0
 51
180.0
  0
ARC
  5
1480C
  8
0
  6
BYBLOCK
 62
     0
 10
6764.2200212826647
 20
20139.986634999979
 30
0.0
 40
15.0
 50
0.0
 51
180.0
  0
ARC
  5
1480D
  8
0
  6
BYBLOCK
 62
     0
 10
6764.2200212826647
 20
20139.986634999979
 30
0.0
 40
15.0
 50
180.0
 51
0.0
  0
ARC
  5
1480E
  8
0
  6
BYBLOCK
 62
     0
 10
15032.720021282659
 20
20139.986634999979
 30
0.0
 40
15.0
 50
180.0
 51
0.0
  0
ARC
  5
1480F
  8
0
  6
BYBLOCK
 62
     0
 10
15032.720021282659
 20
20139.986634999979
 30
0.0
 40
15.0
 50
0.0
 51
180.0
  0
ARC
  5
14810
  8
0
  6
BYBLOCK
 62
     0
 10
11764.220021282659
 20
20139.986634999979
 30
0.0
 40
15.0
 50
0.0
 51
180.0
  0
ARC
  5
14811
  8
0
  6
BYBLOCK
 62
     0
 10
11764.220021282659
 20
20139.986634999979
 30
0.0
 40
15.0
 50
180.0
 51
0.0
  0
ARC
  5
14812
  8
0
  6
BYBLOCK
 62
     0
 10
15032.720021282659
 20
20139.986634999979
 30
0.0
 40
15.0
 50
180.0
 51
0.0
  0
ARC
  5
14813
  8
0
  6
BYBLOCK
 62
     0
 10
15032.720021282659
 20
20139.986634999979
 30
0.0
 40
15.0
 50
0.0
 51
180.0
  0
ARC
  5
14814
  8
0
  6
BYBLOCK
 62
     0
 10
15118.220021282659
 20
20139.986634999979
 30
0.0
 40
15.0
 50
0.0
 51
180.0
  0
ARC
  5
14815
  8
0
  6
BYBLOCK
 62
     0
 10
15118.220021282659
 20
20139.986634999979
 30
0.0
 40
15.0
 50
180.0
 51
0.0
  0
ARC
  5
14816
  8
0
  6
BYBLOCK
 62
     0
 10
15118.220021282659
 20
12329.48564499999
 30
0.0
 40
15.0
 50
180.0
 51
0.0
  0
ARC
  5
14817
  8
0
  6
BYBLOCK
 62
     0
 10
15118.220021282659
 20
12329.48564499999
 30
0.0
 40
15.0
 50
0.0
 51
180.0
  0
ARC
  5
14818
  8
0
  6
BYBLOCK
 62
     0
 10
6678.7200212826629
 20
12329.48564499999
 30
0.0
 40
15.0
 50
0.0
 51
180.0
  0
ARC
  5
14819
  8
0
  6
BYBLOCK
 62
     0
 10
6678.7200212826629
 20
12329.48564499999
 30
0.0
 40
15.0
 50
180.0
 51
0.0
  0
ARC
  5
1483A
  8
0
  6
BYBLOCK
 62
     0
 10
25366.91188601379
 20
20160.487902000001
 30
0.0
 40
15.0
 50
0.0
 51
180.0
  0
ARC
  5
1483B
  8
0
  6
BYBLOCK
 62
     0
 10
25366.91188601379
 20
20160.487902000001
 30
0.0
 40
15.0
 50
180.0
 51
0.0
  0
ARC
  5
1483C
  8
0
  6
BYBLOCK
 62
     0
 10
25324.411886013779
 20
20160.487902000001
 30
0.0
 40
15.0
 50
180.0
 51
0.0
  0
ARC
  5
1483D
  8
0
  6
BYBLOCK
 62
     0
 10
25324.411886013779
 20
20160.487902000001
 30
0.0
 40
15.0
 50
0.0
 51
180.0
  0
ARC
  5
1483E
  8
0
  6
BYBLOCK
 62
     0
 10
25774.41188601379
 20
20160.487902000001
 30
0.0
 40
15.0
 50
180.0
 51
0.0
  0
ARC
  5
1483F
  8
0
  6
BYBLOCK
 62
     0
 10
25774.41188601379
 20
20160.487902000001
 30
0.0
 40
15.0
 50
0.0
 51
180.0
  0
ARC
  5
14840
  8
0
  6
BYBLOCK
 62
     0
 10
25366.91188601379
 20
20160.487902000001
 30
0.0
 40
15.0
 50
0.0
 51
180.0
  0
ARC
  5
14841
  8
0
  6
BYBLOCK
 62
     0
 10
25366.91188601379
 20
20160.487902000001
 30
0.0
 40
15.0
 50
180.0
 51
0.0
  0
ARC
  5
14842
  8
0
  6
BYBLOCK
 62
     0
 10
27176.411886013779
 20
20160.487902000001
 30
0.0
 40
15.0
 50
180.0
 51
0.0
  0
ARC
  5
14843
  8
0
  6
BYBLOCK
 62
     0
 10
27176.411886013779
 20
20160.487902000001
 30
0.0
 40
15.0
 50
0.0
 51
180.0
  0
ARC
  5
14844
  8
0
  6
BYBLOCK
 62
     0
 10
26475.411886013779
 20
20160.487902000001
 30
0.0
 40
15.0
 50
0.0
 51
180.0
  0
ARC
  5
14845
  8
0
  6
BYBLOCK
 62
     0
 10
26475.411886013779
 20
20160.487902000001
 30
0.0
 40
15.0
 50
180.0
 51
0.0
  0
ARC
  5
14846
  8
0
  6
BYBLOCK
 62
     0
 10
27877.411886013779
 20
20160.487902000001
 30
0.0
 40
15.0
 50
180.0
 51
0.0
  0
ARC
  5
14847
  8
0
  6
BYBLOCK
 62
     0
 10
27877.411886013779
 20
20160.487902000001
 30
0.0
 40
15.0
 50
0.0
 51
180.0
  0
ARC
  5
14848
  8
0
  6
BYBLOCK
 62
     0
 10
27176.411886013779
 20
20160.487902000001
 30
0.0
 40
15.0
 50
0.0
 51
180.0
  0
ARC
  5
14849
  8
0
  6
BYBLOCK
 62
     0
 10
27176.411886013779
 20
20160.487902000001
 30
0.0
 40
15.0
 50
180.0
 51
0.0
  0
ARC
  5
1484A
  8
0
  6
BYBLOCK
 62
     0
 10
28635.41188601379
 20
20160.487902000001
 30
0.0
 40
15.0
 50
180.0
 51
0.0
  0
ARC
  5
1484B
  8
0
  6
BYBLOCK
 62
     0
 10
28635.41188601379
 20
20160.487902000001
 30
0.0
 40
15.0
 50
0.0
 51
180.0
  0
ARC
  5
1484C
  8
0
  6
BYBLOCK
 62
     0
 10
27877.411886013779
 20
20160.487902000001
 30
0.0
 40
15.0
 50
0.0
 51
180.0
  0
ARC
  5
1484D
  8
0
  6
BYBLOCK
 62
     0
 10
27877.411886013779
 20
20160.487902000001
 30
0.0
 40
15.0
 50
180.0
 51
0.0
  0
ARC
  5
1484E
  8
0
  6
BYBLOCK
 62
     0
 10
28635.41188601379
 20
20160.487902000001
 30
0.0
 40
15.0
 50
180.0
 51
0.0
  0
ARC
  5
1484F
  8
0
  6
BYBLOCK
 62
     0
 10
28635.41188601379
 20
20160.487902000001
 30
0.0
 40
15.0
 50
0.0
 51
180.0
  0
ARC
  5
14850
  8
0
  6
BYBLOCK
 62
     0
 10
28677.911886013779
 20
20160.487902000001
 30
0.0
 40
15.0
 50
0.0
 51
180.0
  0
ARC
  5
14851
  8
0
  6
BYBLOCK
 62
     0
 10
28677.911886013779
 20
20160.487902000001
 30
0.0
 40
15.0
 50
180.0
 51
0.0
  0
ARC
  5
1485E
  8
0
  6
BYBLOCK
 62
     0
 10
25366.91188601379
 20
20560.487902000001
 30
0.0
 40
15.0
 50
180.0
 51
0.0
  0
ARC
  5
1485F
  8
0
  6
BYBLOCK
 62
     0
 10
25366.91188601379
 20
20560.487902000001
 30
0.0
 40
15.0
 50
0.0
 51
180.0
  0
ARC
  5
14860
  8
0
  6
BYBLOCK
 62
     0
 10
20366.911886013801
 20
20560.487902000001
 30
0.0
 40
15.0
 50
0.0
 51
180.0
  0
ARC
  5
14861
  8
0
  6
BYBLOCK
 62
     0
 10
20366.911886013801
 20
20560.487902000001
 30
0.0
 40
15.0
 50
180.0
 51
0.0
  0
ARC
  5
14862
  8
0
  6
BYBLOCK
 62
     0
 10
28635.41188601379
 20
20560.487902000001
 30
0.0
 40
15.0
 50
180.0
 51
0.0
  0
ARC
  5
14863
  8
0
  6
BYBLOCK
 62
     0
 10
28635.41188601379
 20
20560.487902000001
 30
0.0
 40
15.0
 50
0.0
 51
180.0
  0
ARC
  5
14864
  8
0
  6
BYBLOCK
 62
     0
 10
25366.91188601379
 20
20560.487902000001
 30
0.0
 40
15.0
 50
0.0
 51
180.0
  0
ARC
  5
14865
  8
0
  6
BYBLOCK
 62
     0
 10
25366.91188601379
 20
20560.487902000001
 30
0.0
 40
15.0
 50
180.0
 51
0.0
  0
ARC
  5
14866
  8
0
  6
BYBLOCK
 62
     0
 10
20366.911886013801
 20
20160.487902000001
 30
0.0
 40
15.0
 50
180.0
 51
0.0
  0
ARC
  5
14867
  8
0
  6
BYBLOCK
 62
     0
 10
20366.911886013801
 20
20160.487902000001
 30
0.0
 40
15.0
 50
0.0
 51
180.0
  0
ARC
  5
14868
  8
0
  6
BYBLOCK
 62
     0
 10
20409.414129013781
 20
20160.487902000001
 30
0.0
 40
15.0
 50
0.0
 51
180.0
  0
ARC
  5
14869
  8
0
  6
BYBLOCK
 62
     0
 10
20409.414129013781
 20
20160.487902000001
 30
0.0
 40
15.0
 50
180.0
 51
0.0
  0
ARC
  5
1486A
  8
0
  6
BYBLOCK
 62
     0
 10
20366.911886013801
 20
20160.487902000001
 30
0.0
 40
15.0
 50
0.0
 51
180.0
  0
ARC
  5
1486B
  8
0
  6
BYBLOCK
 62
     0
 10
20366.911886013801
 20
20160.487902000001
 30
0.0
 40
15.0
 50
180.0
 51
0.0
  0
ARC
  5
1486C
  8
0
  6
BYBLOCK
 62
     0
 10
20324.413601013799
 20
20160.487902000001
 30
0.0
 40
15.0
 50
180.0
 51
0.0
  0
ARC
  5
1486D
  8
0
  6
BYBLOCK
 62
     0
 10
20324.413601013799
 20
20160.487902000001
 30
0.0
 40
15.0
 50
0.0
 51
180.0
  0
ARC
  5
1486E
  8
0
  6
BYBLOCK
 62
     0
 10
19149.06826164516
 20
16750.486978000001
 30
0.0
 40
15.0
 50
90.0
 51
270.0
  0
ARC
  5
1486F
  8
0
  6
BYBLOCK
 62
     0
 10
19149.06826164516
 20
16750.486978000001
 30
0.0
 40
15.0
 50
270.0
 51
90.0
  0
ARC
  5
14870
  8
0
  6
BYBLOCK
 62
     0
 10
19149.06826164516
 20
19317.986978000001
 30
0.0
 40
15.0
 50
270.0
 51
90.0
  0
ARC
  5
14871
  8
0
  6
BYBLOCK
 62
     0
 10
19149.06826164516
 20
19317.986978000001
 30
0.0
 40
15.0
 50
90.0
 51
270.0
  0
ARC
  5
14872
  8
0
  6
BYBLOCK
 62
     0
 10
19149.06826164516
 20
13832.48697800001
 30
0.0
 40
15.0
 50
90.0
 51
270.0
  0
ARC
  5
14873
  8
0
  6
BYBLOCK
 62
     0
 10
19149.06826164516
 20
13832.48697800001
 30
0.0
 40
15.0
 50
270.0
 51
90.0
  0
ARC
  5
14874
  8
0
  6
BYBLOCK
 62
     0
 10
19149.06826164516
 20
16750.486978000001
 30
0.0
 40
15.0
 50
270.0
 51
90.0
  0
ARC
  5
14875
  8
0
  6
BYBLOCK
 62
     0
 10
19149.06826164516
 20
16750.486978000001
 30
0.0
 40
15.0
 50
90.0
 51
270.0
  0
ARC
  5
1488A
  8
0
  6
BYBLOCK
 62
     0
 10
28720.911886013801
 20
9789.1329740000037
 30
0.0
 40
15.0
 50
180.0
 51
0.0
  0
ARC
  5
1488B
  8
0
  6
BYBLOCK
 62
     0
 10
28720.911886013801
 20
9789.1329740000037
 30
0.0
 40
15.0
 50
0.0
 51
180.0
  0
ARC
  5
1488C
  8
0
  6
BYBLOCK
 62
     0
 10
20281.411886013801
 20
9789.1329740000037
 30
0.0
 40
15.0
 50
0.0
 51
180.0
  0
ARC
  5
1488D
  8
0
  6
BYBLOCK
 62
     0
 10
20281.411886013801
 20
9789.1329740000037
 30
0.0
 40
15.0
 50
180.0
 51
0.0
  0
ARC
  5
1488E
  8
0
  6
BYBLOCK
 62
     0
 10
20324.411886013801
 20
9389.1900500000029
 30
0.0
 40
15.0
 50
0.0
 51
180.0
  0
ARC
  5
1488F
  8
0
  6
BYBLOCK
 62
     0
 10
20324.411886013801
 20
9389.1900500000029
 30
0.0
 40
15.0
 50
180.0
 51
0.0
  0
ARC
  5
14890
  8
0
  6
BYBLOCK
 62
     0
 10
20281.411886013801
 20
9389.1900500000029
 30
0.0
 40
15.0
 50
180.0
 51
0.0
  0
ARC
  5
14891
  8
0
  6
BYBLOCK
 62
     0
 10
20281.411886013801
 20
9389.1900500000029
 30
0.0
 40
15.0
 50
0.0
 51
180.0
  0
ARC
  5
14892
  8
0
  6
BYBLOCK
 62
     0
 10
28677.911886013819
 20
9389.1900500000029
 30
0.0
 40
15.0
 50
180.0
 51
0.0
  0
ARC
  5
14893
  8
0
  6
BYBLOCK
 62
     0
 10
28677.911886013819
 20
9389.1900500000029
 30
0.0
 40
15.0
 50
0.0
 51
180.0
  0
ARC
  5
14894
  8
0
  6
BYBLOCK
 62
     0
 10
28720.911886013801
 20
9389.1900500000029
 30
0.0
 40
15.0
 50
0.0
 51
180.0
  0
ARC
  5
14895
  8
0
  6
BYBLOCK
 62
     0
 10
28720.911886013801
 20
9389.1900500000029
 30
0.0
 40
15.0
 50
180.0
 51
0.0
  0
ARC
  5
14896
  8
0
  6
BYBLOCK
 62
     0
 10
25324.411886013801
 20
9389.1900500000029
 30
0.0
 40
15.0
 50
0.0
 51
180.0
  0
ARC
  5
14897
  8
0
  6
BYBLOCK
 62
     0
 10
25324.411886013801
 20
9389.1900500000029
 30
0.0
 40
15.0
 50
180.0
 51
0.0
  0
ARC
  5
14898
  8
0
  6
BYBLOCK
 62
     0
 10
28677.911886013819
 20
9389.1900500000029
 30
0.0
 40
15.0
 50
180.0
 51
0.0
  0
ARC
  5
14899
  8
0
  6
BYBLOCK
 62
     0
 10
28677.911886013819
 20
9389.1900500000029
 30
0.0
 40
15.0
 50
0.0
 51
180.0
  0
ARC
  5
1489A
  8
0
  6
BYBLOCK
 62
     0
 10
30159.141167015729
 20
6241.1883740000021
 30
0.0
 40
15.0
 50
90.0
 51
270.0
  0
ARC
  5
1489B
  8
0
  6
BYBLOCK
 62
     0
 10
30159.141167015729
 20
6241.1883740000021
 30
0.0
 40
15.0
 50
270.0
 51
90.0
  0
ARC
  5
1489C
  8
0
  6
BYBLOCK
 62
     0
 10
30159.141167015729
 20
8589.6883999999973
 30
0.0
 40
15.0
 50
270.0
 51
90.0
  0
ARC
  5
1489D
  8
0
  6
BYBLOCK
 62
     0
 10
30159.141167015729
 20
8589.6883999999973
 30
0.0
 40
15.0
 50
90.0
 51
270.0
  0
ARC
  5
1489E
  8
0
  6
BYBLOCK
 62
     0
 10
29485.415185013811
 20
6241.1883740000021
 30
0.0
 40
15.0
 50
90.0
 51
270.0
  0
ARC
  5
1489F
  8
0
  6
BYBLOCK
 62
     0
 10
29485.415185013811
 20
6241.1883740000021
 30
0.0
 40
15.0
 50
270.0
 51
90.0
  0
ARC
  5
148A0
  8
0
  6
BYBLOCK
 62
     0
 10
29485.415185013811
 20
8132.6883740000021
 30
0.0
 40
15.0
 50
270.0
 51
90.0
  0
ARC
  5
148A1
  8
0
  6
BYBLOCK
 62
     0
 10
29485.415185013811
 20
8132.6883740000021
 30
0.0
 40
15.0
 50
90.0
 51
270.0
  0
ARC
  5
148A2
  8
0
  6
BYBLOCK
 62
     0
 10
25321.411886013801
 20
5341.188374000003
 30
0.0
 40
15.0
 50
180.0
 51
0.0
  0
ARC
  5
148A3
  8
0
  6
BYBLOCK
 62
     0
 10
25321.411886013801
 20
5341.188374000003
 30
0.0
 40
15.0
 50
0.0
 51
180.0
  0
ARC
  5
148A4
  8
0
  6
BYBLOCK
 62
     0
 10
20409.41188601379
 20
5341.188374000003
 30
0.0
 40
15.0
 50
0.0
 51
180.0
  0
ARC
  5
148A5
  8
0
  6
BYBLOCK
 62
     0
 10
20409.41188601379
 20
5341.188374000003
 30
0.0
 40
15.0
 50
180.0
 51
0.0
  0
ARC
  5
148A6
  8
0
  6
BYBLOCK
 62
     0
 10
28677.871933066272
 20
4541.1887040000556
 30
0.0
 40
15.0
 50
180.0
 51
0.0
  0
ARC
  5
148A7
  8
0
  6
BYBLOCK
 62
     0
 10
28677.871933066272
 20
4541.1887040000556
 30
0.0
 40
15.0
 50
0.0
 51
180.0
  0
ARC
  5
148A8
  8
0
  6
BYBLOCK
 62
     0
 10
20324.411886013801
 20
4541.1887040000556
 30
0.0
 40
15.0
 50
0.0
 51
180.0
  0
ARC
  5
148A9
  8
0
  6
BYBLOCK
 62
     0
 10
20324.411886013801
 20
4541.1887040000556
 30
0.0
 40
15.0
 50
180.0
 51
0.0
  0
ARC
  5
148AA
  8
0
  6
BYBLOCK
 62
     0
 10
28635.411886013819
 20
4941.1885390000016
 30
0.0
 40
15.0
 50
180.0
 51
0.0
  0
ARC
  5
148AB
  8
0
  6
BYBLOCK
 62
     0
 10
28635.411886013819
 20
4941.1885390000016
 30
0.0
 40
15.0
 50
0.0
 51
180.0
  0
ARC
  5
148AC
  8
0
  6
BYBLOCK
 62
     0
 10
28677.871933066272
 20
4941.1885390000016
 30
0.0
 40
15.0
 50
0.0
 51
180.0
  0
ARC
  5
148AD
  8
0
  6
BYBLOCK
 62
     0
 10
28677.871933066272
 20
4941.1885390000016
 30
0.0
 40
15.0
 50
180.0
 51
0.0
  0
ARC
  5
148AE
  8
0
  6
BYBLOCK
 62
     0
 10
25366.911886013801
 20
4941.1885390000016
 30
0.0
 40
15.0
 50
0.0
 51
180.0
  0
ARC
  5
148AF
  8
0
  6
BYBLOCK
 62
     0
 10
25366.911886013801
 20
4941.1885390000016
 30
0.0
 40
15.0
 50
180.0
 51
0.0
  0
ARC
  5
148B0
  8
0
  6
BYBLOCK
 62
     0
 10
28635.411886013819
 20
4941.1885390000016
 30
0.0
 40
15.0
 50
180.0
 51
0.0
  0
ARC
  5
148B1
  8
0
  6
BYBLOCK
 62
     0
 10
28635.411886013819
 20
4941.1885390000016
 30
0.0
 40
15.0
 50
0.0
 51
180.0
  0
ARC
  5
148B2
  8
0
  6
BYBLOCK
 62
     0
 10
28541.411886013801
 20
5341.188374000003
 30
0.0
 40
15.0
 50
180.0
 51
0.0
  0
ARC
  5
148B3
  8
0
  6
BYBLOCK
 62
     0
 10
28541.411886013801
 20
5341.188374000003
 30
0.0
 40
15.0
 50
0.0
 51
180.0
  0
ARC
  5
148B4
  8
0
  6
BYBLOCK
 62
     0
 10
25460.911886013801
 20
5341.188374000003
 30
0.0
 40
15.0
 50
0.0
 51
180.0
  0
ARC
  5
148B5
  8
0
  6
BYBLOCK
 62
     0
 10
25460.911886013801
 20
5341.188374000003
 30
0.0
 40
15.0
 50
180.0
 51
0.0
  0
ARC
  5
148B6
  8
0
  6
BYBLOCK
 62
     0
 10
20366.911886013801
 20
4941.1885390000016
 30
0.0
 40
15.0
 50
0.0
 51
180.0
  0
ARC
  5
148B7
  8
0
  6
BYBLOCK
 62
     0
 10
20366.911886013801
 20
4941.1885390000016
 30
0.0
 40
15.0
 50
180.0
 51
0.0
  0
ARC
  5
148B8
  8
0
  6
BYBLOCK
 62
     0
 10
20324.411886013801
 20
4941.1885390000016
 30
0.0
 40
15.0
 50
180.0
 51
0.0
  0
ARC
  5
148B9
  8
0
  6
BYBLOCK
 62
     0
 10
20324.411886013801
 20
4941.1885390000016
 30
0.0
 40
15.0
 50
0.0
 51
180.0
  0
ARC
  5
148BA
  8
0
  6
BYBLOCK
 62
     0
 10
25366.911886013801
 20
4941.1885390000016
 30
0.0
 40
15.0
 50
180.0
 51
0.0
  0
ARC
  5
148BB
  8
0
  6
BYBLOCK
 62
     0
 10
25366.911886013801
 20
4941.1885390000016
 30
0.0
 40
15.0
 50
0.0
 51
180.0
  0
ARC
  5
148BC
  8
0
  6
BYBLOCK
 62
     0
 10
20366.911886013801
 20
4941.1885390000016
 30
0.0
 40
15.0
 50
0.0
 51
180.0
  0
ARC
  5
148BD
  8
0
  6
BYBLOCK
 62
     0
 10
20366.911886013801
 20
4941.1885390000016
 30
0.0
 40
15.0
 50
180.0
 51
0.0
  0
ARC
  5
148BE
  8
0
  6
BYBLOCK
 62
     0
 10
25324.411886013801
 20
9389.1900500000029
 30
0.0
 40
15.0
 50
180.0
 51
0.0
  0
ARC
  5
148BF
  8
0
  6
BYBLOCK
 62
     0
 10
25324.411886013801
 20
9389.1900500000029
 30
0.0
 40
15.0
 50
0.0
 51
180.0
  0
ARC
  5
148C0
  8
0
  6
BYBLOCK
 62
     0
 10
20324.411886013801
 20
9389.1900500000029
 30
0.0
 40
15.0
 50
0.0
 51
180.0
  0
ARC
  5
148C1
  8
0
  6
BYBLOCK
 62
     0
 10
20324.411886013801
 20
9389.1900500000029
 30
0.0
 40
15.0
 50
180.0
 51
0.0
  0
ARC
  5
148C2
  8
0
  6
BYBLOCK
 62
     0
 10
19114.589487719411
 20
6242.0026620000026
 30
0.0
 40
15.0
 50
90.0
 51
270.0
  0
ARC
  5
148C3
  8
0
  6
BYBLOCK
 62
     0
 10
19114.589487719411
 20
6242.0026620000026
 30
0.0
 40
15.0
 50
270.0
 51
90.0
  0
ARC
  5
148C4
  8
0
  6
BYBLOCK
 62
     0
 10
19114.589487719411
 20
8262.0026620000026
 30
0.0
 40
15.0
 50
270.0
 51
90.0
  0
ARC
  5
148C5
  8
0
  6
BYBLOCK
 62
     0
 10
19114.589487719411
 20
8262.0026620000026
 30
0.0
 40
15.0
 50
90.0
 51
270.0
  0
ARC
  5
148C6
  8
0
  6
BYBLOCK
 62
     0
 10
13070.21877048856
 20
9789.1883999999955
 30
0.0
 40
15.0
 50
180.0
 51
0.0
  0
ARC
  5
148C7
  8
0
  6
BYBLOCK
 62
     0
 10
13070.21877048856
 20
9789.1883999999955
 30
0.0
 40
15.0
 50
0.0
 51
180.0
  0
ARC
  5
148C8
  8
0
  6
BYBLOCK
 62
     0
 10
7169.7187704885728
 20
9789.1883999999955
 30
0.0
 40
15.0
 50
0.0
 51
180.0
  0
ARC
  5
148C9
  8
0
  6
BYBLOCK
 62
     0
 10
7169.7187704885728
 20
9789.1883999999955
 30
0.0
 40
15.0
 50
180.0
 51
0.0
  0
ARC
  5
148CA
  8
0
  6
BYBLOCK
 62
     0
 10
7319.7187704885764
 20
9389.1900500000029
 30
0.0
 40
15.0
 50
0.0
 51
180.0
  0
ARC
  5
148CB
  8
0
  6
BYBLOCK
 62
     0
 10
7319.7187704885764
 20
9389.1900500000029
 30
0.0
 40
15.0
 50
180.0
 51
0.0
  0
ARC
  5
148CC
  8
0
  6
BYBLOCK
 62
     0
 10
7169.7187704885728
 20
9389.1900500000029
 30
0.0
 40
15.0
 50
180.0
 51
0.0
  0
ARC
  5
148CD
  8
0
  6
BYBLOCK
 62
     0
 10
7169.7187704885728
 20
9389.1900500000029
 30
0.0
 40
15.0
 50
0.0
 51
180.0
  0
ARC
  5
148CE
  8
0
  6
BYBLOCK
 62
     0
 10
12890.21877048856
 20
9389.1900500000029
 30
0.0
 40
15.0
 50
180.0
 51
0.0
  0
ARC
  5
148CF
  8
0
  6
BYBLOCK
 62
     0
 10
12890.21877048856
 20
9389.1900500000029
 30
0.0
 40
15.0
 50
0.0
 51
180.0
  0
ARC
  5
148D0
  8
0
  6
BYBLOCK
 62
     0
 10
7319.7187704885764
 20
9389.1900500000029
 30
0.0
 40
15.0
 50
0.0
 51
180.0
  0
ARC
  5
148D1
  8
0
  6
BYBLOCK
 62
     0
 10
7319.7187704885764
 20
9389.1900500000029
 30
0.0
 40
15.0
 50
180.0
 51
0.0
  0
ARC
  5
148D2
  8
0
  6
BYBLOCK
 62
     0
 10
13070.21877048856
 20
9389.1900500000029
 30
0.0
 40
15.0
 50
180.0
 51
0.0
  0
ARC
  5
148D3
  8
0
  6
BYBLOCK
 62
     0
 10
13070.21877048856
 20
9389.1900500000029
 30
0.0
 40
15.0
 50
0.0
 51
180.0
  0
ARC
  5
148D4
  8
0
  6
BYBLOCK
 62
     0
 10
12890.21877048856
 20
9389.1900500000029
 30
0.0
 40
15.0
 50
0.0
 51
180.0
  0
ARC
  5
148D5
  8
0
  6
BYBLOCK
 62
     0
 10
12890.21877048856
 20
9389.1900500000029
 30
0.0
 40
15.0
 50
180.0
 51
0.0
  0
ARC
  5
148D6
  8
0
  6
BYBLOCK
 62
     0
 10
6229.7183744885697
 20
6241.1883740000021
 30
0.0
 40
15.0
 50
90.0
 51
270.0
  0
ARC
  5
148D7
  8
0
  6
BYBLOCK
 62
     0
 10
6229.7183744885697
 20
6241.1883740000021
 30
0.0
 40
15.0
 50
270.0
 51
90.0
  0
ARC
  5
148D8
  8
0
  6
BYBLOCK
 62
     0
 10
6229.7183744885697
 20
8589.688374000003
 30
0.0
 40
15.0
 50
270.0
 51
90.0
  0
ARC
  5
148D9
  8
0
  6
BYBLOCK
 62
     0
 10
6229.7183744885697
 20
8589.688374000003
 30
0.0
 40
15.0
 50
90.0
 51
270.0
  0
ARC
  5
148DA
  8
0
  6
BYBLOCK
 62
     0
 10
13980.219166488559
 20
6241.1883740000021
 30
0.0
 40
15.0
 50
90.0
 51
270.0
  0
ARC
  5
148DB
  8
0
  6
BYBLOCK
 62
     0
 10
13980.219166488559
 20
6241.1883740000021
 30
0.0
 40
15.0
 50
270.0
 51
90.0
  0
ARC
  5
148DC
  8
0
  6
BYBLOCK
 62
     0
 10
13980.219166488559
 20
8397.1883740000048
 30
0.0
 40
15.0
 50
270.0
 51
90.0
  0
ARC
  5
148DD
  8
0
  6
BYBLOCK
 62
     0
 10
13980.219166488559
 20
8397.1883740000048
 30
0.0
 40
15.0
 50
90.0
 51
270.0
  0
ARC
  5
148DE
  8
0
  6
BYBLOCK
 62
     0
 10
12890.21877048856
 20
4541.1887039999983
 30
0.0
 40
15.0
 50
180.0
 51
0.0
  0
ARC
  5
148DF
  8
0
  6
BYBLOCK
 62
     0
 10
12890.21877048856
 20
4541.1887039999983
 30
0.0
 40
15.0
 50
0.0
 51
180.0
  0
ARC
  5
148E0
  8
0
  6
BYBLOCK
 62
     0
 10
7319.7187704885764
 20
4541.1887039999983
 30
0.0
 40
15.0
 50
0.0
 51
180.0
  0
ARC
  5
148E1
  8
0
  6
BYBLOCK
 62
     0
 10
7319.7187704885764
 20
4541.1887039999983
 30
0.0
 40
15.0
 50
180.0
 51
0.0
  0
ARC
  5
148E2
  8
0
  6
BYBLOCK
 62
     0
 10
7362.2187704885728
 20
4941.1885390000016
 30
0.0
 40
15.0
 50
0.0
 51
180.0
  0
ARC
  5
148E3
  8
0
  6
BYBLOCK
 62
     0
 10
7362.2187704885728
 20
4941.1885390000016
 30
0.0
 40
15.0
 50
180.0
 51
0.0
  0
ARC
  5
148E4
  8
0
  6
BYBLOCK
 62
     0
 10
7319.7187704885764
 20
4941.1885390000016
 30
0.0
 40
15.0
 50
180.0
 51
0.0
  0
ARC
  5
148E5
  8
0
  6
BYBLOCK
 62
     0
 10
7319.7187704885764
 20
4941.1885390000016
 30
0.0
 40
15.0
 50
0.0
 51
180.0
  0
ARC
  5
148E6
  8
0
  6
BYBLOCK
 62
     0
 10
12847.71877048856
 20
4941.1885390000016
 30
0.0
 40
15.0
 50
180.0
 51
0.0
  0
ARC
  5
148E7
  8
0
  6
BYBLOCK
 62
     0
 10
12847.71877048856
 20
4941.1885390000016
 30
0.0
 40
15.0
 50
0.0
 51
180.0
  0
ARC
  5
148E8
  8
0
  6
BYBLOCK
 62
     0
 10
12890.21877048856
 20
4941.1885390000016
 30
0.0
 40
15.0
 50
0.0
 51
180.0
  0
ARC
  5
148E9
  8
0
  6
BYBLOCK
 62
     0
 10
12890.21877048856
 20
4941.1885390000016
 30
0.0
 40
15.0
 50
180.0
 51
0.0
  0
ARC
  5
148EA
  8
0
  6
BYBLOCK
 62
     0
 10
10280.21877048856
 20
4941.1885390000016
 30
0.0
 40
15.0
 50
0.0
 51
180.0
  0
ARC
  5
148EB
  8
0
  6
BYBLOCK
 62
     0
 10
10280.21877048856
 20
4941.1885390000016
 30
0.0
 40
15.0
 50
180.0
 51
0.0
  0
ARC
  5
148EC
  8
0
  6
BYBLOCK
 62
     0
 10
12847.71877048856
 20
4941.1885390000016
 30
0.0
 40
15.0
 50
180.0
 51
0.0
  0
ARC
  5
148ED
  8
0
  6
BYBLOCK
 62
     0
 10
12847.71877048856
 20
4941.1885390000016
 30
0.0
 40
15.0
 50
0.0
 51
180.0
  0
ARC
  5
148EE
  8
0
  6
BYBLOCK
 62
     0
 10
10280.21877048856
 20
4941.1885390000016
 30
0.0
 40
15.0
 50
180.0
 51
0.0
  0
ARC
  5
148EF
  8
0
  6
BYBLOCK
 62
     0
 10
10280.21877048856
 20
4941.1885390000016
 30
0.0
 40
15.0
 50
0.0
 51
180.0
  0
ARC
  5
148F0
  8
0
  6
BYBLOCK
 62
     0
 10
7362.2187704885728
 20
4941.1885390000016
 30
0.0
 40
15.0
 50
0.0
 51
180.0
  0
ARC
  5
148F1
  8
0
  6
BYBLOCK
 62
     0
 10
7362.2187704885728
 20
4941.1885390000016
 30
0.0
 40
15.0
 50
180.0
 51
0.0
  0
TEXT
  5
149CC
  8
NAME
 10
21595.82616625919
 20
1076.6369801169251
 30
0.0
 40
360.0
  1
VGC-3355（H）+VKC-5055（H）型-L（単棟）
 41
0.45
  0
TEXT
  5
149CD
  8
NAME
 10
21933.552716389011
 20
1876.0
 30
0.0
 40
360.0
  1
ヨドガレージ ラヴィージュ
 41
0.75
  7
01
  0
LINE
  5
149CE
  8
NAME
  6
CONTINUOUS
 10
26067.886878884299
 20
2236.0
 30
0.0
 11
26067.886878884299
 21
1876.0
 31
0.0
  0
LINE
  5
149CF
  8
NAME
  6
CONTINUOUS
 10
26167.886878884299
 20
2236.0
 30
0.0
 11
26167.886878884299
 21
1876.0
 31
0.0
  0
LINE
  5
149D0
  8
NAME
  6
CONTINUOUS
 10
26267.88687888431
 20
2236.0
 30
0.0
 11
26267.88687888431
 21
1876.0
 31
0.0
  0
LINE
  5
149D1
  8
NAME
  6
CONTINUOUS
 10
26007.886878884299
 20
2236.0
 30
0.0
 11
26327.886878884299
 21
2236.0
 31
0.0
  0
LINE
  5
149D2
  8
NAME
  6
CONTINUOUS
 10
26327.886878884299
 20
1876.0
 30
0.0
 11
26007.886878884299
 21
1876.0
 31
0.0
  0
LINE
  5
149DE
  8
2-0
  6
CENTER2
 62
     6
 10
25366.911886013801
 20
20960.489221
 30
0.0
 11
25366.911886013801
 21
13474.73309953157
 31
0.0
  0
LINE
  5
149E1
  8
2-0
  6
CENTER2
 62
     6
 10
28635.411886013801
 20
20960.489221
 30
0.0
 11
28635.411886013801
 21
13474.73309953157
 31
0.0
  0
LINE
  5
14C36
  8
2-0
  6
CONTINUOUS
 62
     6
 10
26952.252970013789
 20
13192.48585600001
 30
0.0
 11
27952.24637201376
 21
13192.48585600001
 31
0.0
  0
LINE
  5
14C37
  8
2-0
  6
CONTINUOUS
 62
     6
 10
28420.186749013788
 20
13662.90657000001
 30
0.0
 11
27952.24637201376
 21
13192.48585600001
 31
0.0
  0
LINE
  5
14C38
  8
2-0
  6
CONTINUOUS
 62
     6
 10
28381.546546013778
 20
16854.514217000022
 30
0.0
 11
28076.85112801379
 21
16958.167748000029
 31
0.0
  0
LINE
  5
14C39
  8
2-0
  6
CONTINUOUS
 62
     6
 10
28536.568585013771
 20
16364.892173000029
 30
0.0
 11
28076.85112801379
 21
16120.978862000011
 31
0.0
  0
LINE
  5
14C3A
  8
2-0
  6
CONTINUOUS
 62
     6
 10
27156.848093013788
 20
16120.978862000011
 30
0.0
 11
28076.85112801379
 21
16120.978862000011
 31
0.0
  0
LINE
  5
14C3B
  8
2-0
  6
CONTINUOUS
 62
     6
 10
26876.857066013788
 20
16958.167748000029
 30
0.0
 11
28076.85112801379
 21
16958.167748000029
 31
0.0
  0
LINE
  5
14C3C
  8
2-0
  6
CONTINUOUS
 62
     6
 10
28452.745870013801
 20
13984.590216000001
 30
0.0
 11
28076.85112801379
 21
14165.53405100001
 31
0.0
  0
LINE
  5
14C3D
  8
2-0
  6
CONTINUOUS
 62
     6
 10
27556.849412013791
 20
14165.53405100001
 30
0.0
 11
28076.85112801379
 21
14165.53405100001
 31
0.0
  0
LINE
  5
14C3E
  8
2-0
  6
CONTINUOUS
 62
     3
 10
28647.912546013791
 20
19251.485052000018
 30
0.0
 11
28647.912546013791
 21
19245.489090000021
 31
0.0
  0
LINE
  5
14C3F
  8
2-0
  6
CONTINUOUS
 62
     3
 10
28647.912546013791
 20
19245.489090000021
 30
0.0
 11
28677.91017001378
 21
19245.489090000021
 31
0.0
  0
LINE
  5
14C40
  8
2-0
  6
CONTINUOUS
 62
     3
 10
28677.91017001378
 20
19275.488694000011
 30
0.0
 11
28596.908270013781
 21
19275.488694000011
 31
0.0
  0
LINE
  5
14C41
  8
2-0
  6
CONTINUOUS
 62
     3
 10
28647.912546013791
 20
19235.19163400001
 30
0.0
 11
28677.91017001378
 21
19235.19163400001
 31
0.0
  0
LINE
  5
14C42
  8
2-0
  6
CONTINUOUS
 62
     3
 10
28647.912546013791
 20
19253.193376000028
 30
0.0
 11
28647.912546013791
 21
19235.19163400001
 31
0.0
  0
LINE
  5
14C43
  8
2-0
  6
CONTINUOUS
 62
     3
 10
28672.909906013789
 20
19253.193376000028
 30
0.0
 11
28647.912546013791
 21
19253.193376000028
 31
0.0
  0
LINE
  5
14C44
  8
2-0
  6
CONTINUOUS
 62
     3
 10
28672.909906013789
 20
19248.18519400002
 30
0.0
 11
28672.909906013789
 21
19253.193376000028
 31
0.0
  0
LINE
  5
14C45
  8
2-0
  6
CONTINUOUS
 62
     3
 10
28665.9083490138
 20
19248.18519400002
 30
0.0
 11
28672.909906013789
 21
19248.18519400002
 31
0.0
  0
LINE
  5
14C46
  8
2-0
  6
CONTINUOUS
 62
     3
 10
28565.612081013802
 20
19348.485421000009
 30
0.0
 11
28565.612081013802
 21
19355.49093700002
 31
0.0
  0
LINE
  5
14C47
  8
2-0
  6
CONTINUOUS
 62
     3
 10
28565.612081013802
 20
19355.49093700002
 30
0.0
 11
28570.612345013771
 21
19355.49093700002
 31
0.0
  0
LINE
  5
14C48
  8
2-0
  6
CONTINUOUS
 62
     3
 10
28570.612345013771
 20
19355.49093700002
 30
0.0
 11
28570.612345013771
 21
19330.481700000018
 31
0.0
  0
LINE
  5
14C49
  8
2-0
  6
CONTINUOUS
 62
     3
 10
28570.612345013771
 20
19330.481700000018
 30
0.0
 11
28552.61060301376
 21
19330.481700000018
 31
0.0
  0
LINE
  5
14C4A
  8
2-0
  6
CONTINUOUS
 62
     3
 10
28552.61060301376
 20
19330.481700000018
 30
0.0
 11
28552.61060301376
 21
19360.48526300002
 31
0.0
  0
LINE
  5
14C4B
  8
2-0
  6
CONTINUOUS
 62
     3
 10
28562.908059013789
 20
19360.48526300002
 30
0.0
 11
28677.91017001378
 21
19360.48526300002
 31
0.0
  0
LINE
  5
14C4C
  8
2-0
  6
CONTINUOUS
 62
     3
 10
28562.908059013789
 20
19330.481700000018
 30
0.0
 11
28562.908059013789
 21
19360.48526300002
 31
0.0
  0
LINE
  5
14C4D
  8
2-0
  6
CONTINUOUS
 62
     3
 10
28568.909959013788
 20
19330.481700000018
 30
0.0
 11
28562.908059013789
 21
19330.481700000018
 31
0.0
  0
LINE
  5
14C4E
  8
2-0
  6
CONTINUOUS
 62
     3
 10
28665.9083490138
 20
18894.888371500001
 30
0.0
 11
28672.909906013789
 21
18894.888371500001
 31
0.0
  0
LINE
  5
14C4F
  8
2-0
  6
CONTINUOUS
 62
     3
 10
28672.909906013789
 20
18894.888371500001
 30
0.0
 11
28672.909906013789
 21
18899.8886355
 31
0.0
  0
LINE
  5
14C50
  8
2-0
  6
CONTINUOUS
 62
     3
 10
28672.909906013789
 20
18899.8886355
 30
0.0
 11
28647.912546013791
 21
18899.8886355
 31
0.0
  0
LINE
  5
14C51
  8
2-0
  6
CONTINUOUS
 62
     3
 10
28647.912546013791
 20
18899.8886355
 30
0.0
 11
28647.912546013791
 21
18881.892831500008
 31
0.0
  0
LINE
  5
14C52
  8
2-0
  6
CONTINUOUS
 62
     3
 10
28647.912546013791
 20
18881.892831500008
 30
0.0
 11
28677.91017001378
 21
18881.892831500008
 31
0.0
  0
LINE
  5
14C53
  8
2-0
  6
CONTINUOUS
 62
     3
 10
28647.912546013791
 20
18897.98433849998
 30
0.0
 11
28647.912546013791
 21
18891.986397500012
 31
0.0
  0
LINE
  5
14C54
  8
2-0
  6
CONTINUOUS
 62
     3
 10
28647.912546013791
 20
18891.986397500012
 30
0.0
 11
28677.91017001378
 21
18891.986397500012
 31
0.0
  0
LINE
  5
14C55
  8
2-0
  6
CONTINUOUS
 62
     3
 10
28677.91017001378
 20
18891.986397500012
 30
0.0
 11
28677.91017001378
 21
18928.987558500012
 31
0.0
  0
LINE
  5
14C56
  8
2-0
  6
CONTINUOUS
 62
     3
 10
28647.912546013791
 20
18928.987558500012
 30
0.0
 11
28677.91017001378
 21
18928.987558500012
 31
0.0
  0
LINE
  5
14C57
  8
2-0
  6
CONTINUOUS
 62
     3
 10
28647.912546013791
 20
18922.98367849999
 30
0.0
 11
28647.912546013791
 21
18928.987558500012
 31
0.0
  0
LINE
  5
14C58
  8
2-0
  6
CONTINUOUS
 62
     3
 10
28647.912546013791
 20
18939.083103500001
 30
0.0
 11
28677.91017001378
 21
18939.083103500001
 31
0.0
  0
LINE
  5
14C59
  8
2-0
  6
CONTINUOUS
 62
     3
 10
28647.912546013791
 20
18921.081361500001
 30
0.0
 11
28647.912546013791
 21
18939.083103500001
 31
0.0
  0
LINE
  5
14C5A
  8
2-0
  6
CONTINUOUS
 62
     3
 10
28672.909906013789
 20
18921.081361500001
 30
0.0
 11
28647.912546013791
 21
18921.081361500001
 31
0.0
  0
LINE
  5
14C5B
  8
2-0
  6
CONTINUOUS
 62
     3
 10
28672.909906013789
 20
18926.08162550001
 30
0.0
 11
28672.909906013789
 21
18921.081361500001
 31
0.0
  0
LINE
  5
14C5C
  8
2-0
  6
CONTINUOUS
 62
     3
 10
28665.9083490138
 20
18926.08162550001
 30
0.0
 11
28672.909906013789
 21
18926.08162550001
 31
0.0
  0
LINE
  5
14C5D
  8
2-0
  6
CONTINUOUS
 62
     3
 10
28665.9083490138
 20
18193.887382000012
 30
0.0
 11
28672.909906013789
 21
18193.887382000012
 31
0.0
  0
LINE
  5
14C5E
  8
2-0
  6
CONTINUOUS
 62
     3
 10
28672.909906013789
 20
18193.887382000012
 30
0.0
 11
28672.909906013789
 21
18198.893584000009
 31
0.0
  0
LINE
  5
14C5F
  8
2-0
  6
CONTINUOUS
 62
     3
 10
28672.909906013789
 20
18198.893584000009
 30
0.0
 11
28647.912546013791
 21
18198.893584000009
 31
0.0
  0
LINE
  5
14C60
  8
2-0
  6
CONTINUOUS
 62
     3
 10
28647.912546013791
 20
18198.893584000009
 30
0.0
 11
28647.912546013791
 21
18180.891842000008
 31
0.0
  0
LINE
  5
14C61
  8
2-0
  6
CONTINUOUS
 62
     3
 10
28647.912546013791
 20
18180.891842000008
 30
0.0
 11
28677.91017001378
 21
18180.891842000008
 31
0.0
  0
LINE
  5
14C62
  8
2-0
  6
CONTINUOUS
 62
     3
 10
28647.912546013791
 20
18196.983348999998
 30
0.0
 11
28647.912546013791
 21
18190.987387000008
 31
0.0
  0
LINE
  5
14C63
  8
2-0
  6
CONTINUOUS
 62
     3
 10
28647.912546013791
 20
18190.987387000008
 30
0.0
 11
28677.91017001378
 21
18190.987387000008
 31
0.0
  0
LINE
  5
14C64
  8
2-0
  6
CONTINUOUS
 62
     3
 10
28677.91017001378
 20
18190.987387000008
 30
0.0
 11
28677.91017001378
 21
18227.986569000001
 31
0.0
  0
LINE
  5
14C65
  8
2-0
  6
CONTINUOUS
 62
     3
 10
28647.912546013791
 20
18227.986569000001
 30
0.0
 11
28677.91017001378
 21
18227.986569000001
 31
0.0
  0
LINE
  5
14C66
  8
2-0
  6
CONTINUOUS
 62
     3
 10
28647.912546013791
 20
18221.990607000011
 30
0.0
 11
28647.912546013791
 21
18227.986569000001
 31
0.0
  0
LINE
  5
14C67
  8
2-0
  6
CONTINUOUS
 62
     3
 10
28647.912546013791
 20
18238.082114000012
 30
0.0
 11
28677.91017001378
 21
18238.082114000012
 31
0.0
  0
LINE
  5
14C68
  8
2-0
  6
CONTINUOUS
 62
     3
 10
28647.912546013791
 20
18220.080372
 30
0.0
 11
28647.912546013791
 21
18238.082114000012
 31
0.0
  0
LINE
  5
14C69
  8
2-0
  6
CONTINUOUS
 62
     3
 10
28672.909906013789
 20
18220.080372
 30
0.0
 11
28647.912546013791
 21
18220.080372
 31
0.0
  0
LINE
  5
14C6A
  8
2-0
  6
CONTINUOUS
 62
     3
 10
28672.909906013789
 20
18225.086574000012
 30
0.0
 11
28672.909906013789
 21
18220.080372
 31
0.0
  0
LINE
  5
14C6B
  8
2-0
  6
CONTINUOUS
 62
     3
 10
28665.9083490138
 20
18225.086574000012
 30
0.0
 11
28672.909906013789
 21
18225.086574000012
 31
0.0
  0
LINE
  5
14C6C
  8
2-0
  6
CONTINUOUS
 62
     3
 10
28665.9083490138
 20
17524.08063600001
 30
0.0
 11
28672.909906013789
 21
17524.08063600001
 31
0.0
  0
LINE
  5
14C6D
  8
2-0
  6
CONTINUOUS
 62
     3
 10
28672.909906013789
 20
17524.08063600001
 30
0.0
 11
28672.909906013789
 21
17519.092249000019
 31
0.0
  0
LINE
  5
14C6E
  8
2-0
  6
CONTINUOUS
 62
     3
 10
28672.909906013789
 20
17519.092249000019
 30
0.0
 11
28647.912546013791
 21
17519.092249000019
 31
0.0
  0
LINE
  5
14C6F
  8
2-0
  6
CONTINUOUS
 62
     3
 10
28647.912546013791
 20
17519.092249000019
 30
0.0
 11
28647.912546013791
 21
17537.08805200001
 31
0.0
  0
LINE
  5
14C70
  8
2-0
  6
CONTINUOUS
 62
     3
 10
28647.912546013791
 20
17537.08805200001
 30
0.0
 11
28677.91017001378
 21
17537.08805200001
 31
0.0
  0
LINE
  5
14C71
  8
2-0
  6
CONTINUOUS
 62
     3
 10
28647.912546013791
 20
17520.990607
 30
0.0
 11
28647.912546013791
 21
17526.986569000001
 31
0.0
  0
LINE
  5
14C72
  8
2-0
  6
CONTINUOUS
 62
     3
 10
28647.912546013791
 20
17526.986569000001
 30
0.0
 11
28677.91017001378
 21
17526.986569000001
 31
0.0
  0
LINE
  5
14C73
  8
2-0
  6
CONTINUOUS
 62
     3
 10
28677.91017001378
 20
17526.986569000001
 30
0.0
 11
28677.91017001378
 21
17489.987387000019
 31
0.0
  0
LINE
  5
14C74
  8
2-0
  6
CONTINUOUS
 62
     3
 10
28647.912546013791
 20
17489.987387000019
 30
0.0
 11
28677.91017001378
 21
17489.987387000019
 31
0.0
  0
LINE
  5
14C75
  8
2-0
  6
CONTINUOUS
 62
     3
 10
28647.912546013791
 20
17495.989288000001
 30
0.0
 11
28647.912546013791
 21
17489.987387000019
 31
0.0
  0
LINE
  5
14C76
  8
2-0
  6
CONTINUOUS
 62
     3
 10
28647.912546013791
 20
17479.897781
 30
0.0
 11
28677.91017001378
 21
17479.897781
 31
0.0
  0
LINE
  5
14C77
  8
2-0
  6
CONTINUOUS
 62
     3
 10
28647.912546013791
 20
17497.893584000009
 30
0.0
 11
28647.912546013791
 21
17479.897781
 31
0.0
  0
LINE
  5
14C78
  8
2-0
  6
CONTINUOUS
 62
     3
 10
28672.909906013789
 20
17497.893584000009
 30
0.0
 11
28647.912546013791
 21
17497.893584000009
 31
0.0
  0
LINE
  5
14C79
  8
2-0
  6
CONTINUOUS
 62
     3
 10
28672.909906013789
 20
17492.89332100001
 30
0.0
 11
28672.909906013789
 21
17497.893584000009
 31
0.0
  0
LINE
  5
14C7A
  8
2-0
  6
CONTINUOUS
 62
     3
 10
28665.9083490138
 20
17492.89332100001
 30
0.0
 11
28672.909906013789
 21
17492.89332100001
 31
0.0
  0
LINE
  5
14C7B
  8
2-0
  6
CONTINUOUS
 62
     3
 10
28675.0240320138
 20
16772.984207000009
 30
0.0
 11
28675.0240320138
 21
16792.985262000009
 31
0.0
  0
LINE
  5
14C7C
  8
2-0
  6
CONTINUOUS
 62
     3
 10
28675.0240320138
 20
16792.985262000009
 30
0.0
 11
28590.027463013779
 21
16792.985262000009
 31
0.0
  0
LINE
  5
14C7D
  8
2-0
  6
CONTINUOUS
 62
     3
 10
28665.9083490138
 20
16819.59197200002
 30
0.0
 11
28672.909906013789
 21
16819.59197200002
 31
0.0
  0
LINE
  5
14C7E
  8
2-0
  6
CONTINUOUS
 62
     3
 10
28672.909906013789
 20
16819.59197200002
 30
0.0
 11
28672.909906013789
 21
16814.59764600002
 31
0.0
  0
LINE
  5
14C7F
  8
2-0
  6
CONTINUOUS
 62
     3
 10
28672.909906013789
 20
16814.59764600002
 30
0.0
 11
28647.912546013791
 21
16814.59764600002
 31
0.0
  0
LINE
  5
14C80
  8
2-0
  6
CONTINUOUS
 62
     3
 10
28647.912546013791
 20
16814.59764600002
 30
0.0
 11
28647.912546013791
 21
16832.593450000011
 31
0.0
  0
LINE
  5
14C81
  8
2-0
  6
CONTINUOUS
 62
     3
 10
28647.912546013791
 20
16832.593450000011
 30
0.0
 11
28677.91017001378
 21
16832.593450000011
 31
0.0
  0
LINE
  5
14C82
  8
2-0
  6
CONTINUOUS
 62
     3
 10
28647.912546013791
 20
16822.98486600001
 30
0.0
 11
28647.912546013791
 21
16816.982966
 31
0.0
  0
LINE
  5
14C83
  8
2-0
  6
CONTINUOUS
 62
     3
 10
28677.91017001378
 20
16822.98486600001
 30
0.0
 11
28647.912546013791
 21
16822.98486600001
 31
0.0
  0
LINE
  5
14C84
  8
2-0
  6
CONTINUOUS
 62
     3
 10
28677.91017001378
 20
16832.593450000011
 30
0.0
 11
28677.91017001378
 21
17479.897781
 31
0.0
  0
LINE
  5
14C85
  8
2-0
  6
CONTINUOUS
 62
     3
 10
28677.91017001378
 20
17537.08805200001
 30
0.0
 11
28677.91017001378
 21
18180.891842000008
 31
0.0
  0
LINE
  5
14C86
  8
2-0
  6
CONTINUOUS
 62
     3
 10
28677.91017001378
 20
16677.983151000019
 30
0.0
 11
28647.912546013791
 21
16677.983151000019
 31
0.0
  0
LINE
  5
14C87
  8
2-0
  6
CONTINUOUS
 62
     3
 10
28647.912546013791
 20
16677.983151000019
 30
0.0
 11
28647.912546013791
 21
16683.985051000011
 31
0.0
  0
LINE
  5
14C88
  8
2-0
  6
CONTINUOUS
 62
     3
 10
28590.027463013779
 20
16707.988694
 30
0.0
 11
28675.0240320138
 21
16707.988694
 31
0.0
  0
LINE
  5
14C89
  8
2-0
  6
CONTINUOUS
 62
     3
 10
28675.0240320138
 20
16707.988694
 30
0.0
 11
28675.0240320138
 21
16727.98381100002
 31
0.0
  0
LINE
  5
14C8A
  8
2-0
  6
CONTINUOUS
 62
     3
 10
28647.912546013791
 20
16668.37456800001
 30
0.0
 11
28677.91017001378
 21
16668.37456800001
 31
0.0
  0
LINE
  5
14C8B
  8
2-0
  6
CONTINUOUS
 62
     3
 10
28647.912546013791
 20
16686.37037099999
 30
0.0
 11
28647.912546013791
 21
16668.37456800001
 31
0.0
  0
LINE
  5
14C8C
  8
2-0
  6
CONTINUOUS
 62
     3
 10
28672.909906013789
 20
16686.37037099999
 30
0.0
 11
28647.912546013791
 21
16686.37037099999
 31
0.0
  0
LINE
  5
14C8D
  8
2-0
  6
CONTINUOUS
 62
     3
 10
28672.909906013789
 20
16681.370107000021
 30
0.0
 11
28672.909906013789
 21
16686.37037099999
 31
0.0
  0
LINE
  5
14C8E
  8
2-0
  6
CONTINUOUS
 62
     3
 10
28665.9083490138
 20
16681.370107000021
 30
0.0
 11
28672.909906013789
 21
16681.370107000021
 31
0.0
  0
LINE
  5
14C8F
  8
2-0
  6
CONTINUOUS
 62
     3
 10
28665.9083490138
 20
15976.88787649999
 30
0.0
 11
28672.909906013789
 21
15976.88787649999
 31
0.0
  0
LINE
  5
14C90
  8
2-0
  6
CONTINUOUS
 62
     3
 10
28672.909906013789
 20
15976.88787649999
 30
0.0
 11
28672.909906013789
 21
15981.888140499999
 31
0.0
  0
LINE
  5
14C91
  8
2-0
  6
CONTINUOUS
 62
     3
 10
28672.909906013789
 20
15981.888140499999
 30
0.0
 11
28647.912546013791
 21
15981.888140499999
 31
0.0
  0
LINE
  5
14C92
  8
2-0
  6
CONTINUOUS
 62
     3
 10
28647.912546013791
 20
15981.888140499999
 30
0.0
 11
28647.912546013791
 21
15963.88639850001
 31
0.0
  0
LINE
  5
14C93
  8
2-0
  6
CONTINUOUS
 62
     3
 10
28647.912546013791
 20
15963.88639850001
 30
0.0
 11
28677.91017001378
 21
15963.88639850001
 31
0.0
  0
LINE
  5
14C94
  8
2-0
  6
CONTINUOUS
 62
     3
 10
28647.912546013791
 20
15979.983843500009
 30
0.0
 11
28647.912546013791
 21
15973.98689250001
 31
0.0
  0
LINE
  5
14C95
  8
2-0
  6
CONTINUOUS
 62
     3
 10
28647.912546013791
 20
15973.98689250001
 30
0.0
 11
28677.91017001378
 21
15973.98689250001
 31
0.0
  0
LINE
  5
14C96
  8
2-0
  6
CONTINUOUS
 62
     3
 10
28677.91017001378
 20
15973.98689250001
 30
0.0
 11
28677.91017001378
 21
16010.98706350001
 31
0.0
  0
LINE
  5
14C97
  8
2-0
  6
CONTINUOUS
 62
     3
 10
28647.912546013791
 20
16010.98706350001
 30
0.0
 11
28677.91017001378
 21
16010.98706350001
 31
0.0
  0
LINE
  5
14C98
  8
2-0
  6
CONTINUOUS
 62
     3
 10
28647.912546013791
 20
16004.984173500001
 30
0.0
 11
28647.912546013791
 21
16010.98706350001
 31
0.0
  0
LINE
  5
14C99
  8
2-0
  6
CONTINUOUS
 62
     3
 10
28647.912546013791
 20
16021.08260850001
 30
0.0
 11
28677.91017001378
 21
16021.08260850001
 31
0.0
  0
LINE
  5
14C9A
  8
2-0
  6
CONTINUOUS
 62
     3
 10
28647.912546013791
 20
16003.074927500011
 30
0.0
 11
28647.912546013791
 21
16021.08260850001
 31
0.0
  0
LINE
  5
14C9B
  8
2-0
  6
CONTINUOUS
 62
     3
 10
28672.909906013789
 20
16003.074927500011
 30
0.0
 11
28647.912546013791
 21
16003.074927500011
 31
0.0
  0
LINE
  5
14C9C
  8
2-0
  6
CONTINUOUS
 62
     3
 10
28672.909906013789
 20
16008.08113050001
 30
0.0
 11
28672.909906013789
 21
16003.074927500011
 31
0.0
  0
LINE
  5
14C9D
  8
2-0
  6
CONTINUOUS
 62
     3
 10
28665.9083490138
 20
16008.08113050001
 30
0.0
 11
28672.909906013789
 21
16008.08113050001
 31
0.0
  0
LINE
  5
14C9E
  8
2-0
  6
CONTINUOUS
 62
     3
 10
28665.9083490138
 20
15307.321147000021
 30
0.0
 11
28672.909906013789
 21
15307.321147000021
 31
0.0
  0
LINE
  5
14C9F
  8
2-0
  6
CONTINUOUS
 62
     3
 10
28672.909906013789
 20
15307.321147000021
 30
0.0
 11
28672.909906013789
 21
15302.326822000019
 31
0.0
  0
LINE
  5
14CA0
  8
2-0
  6
CONTINUOUS
 62
     3
 10
28672.909906013789
 20
15302.326822000019
 30
0.0
 11
28647.912546013791
 21
15302.326822000019
 31
0.0
  0
LINE
  5
14CA1
  8
2-0
  6
CONTINUOUS
 62
     3
 10
28647.912546013791
 20
15302.326822000019
 30
0.0
 11
28647.912546013791
 21
15320.322625000021
 31
0.0
  0
LINE
  5
14CA2
  8
2-0
  6
CONTINUOUS
 62
     3
 10
28647.912546013791
 20
15320.322625000021
 30
0.0
 11
28677.91017001378
 21
15320.322625000021
 31
0.0
  0
LINE
  5
14CA3
  8
2-0
  6
CONTINUOUS
 62
     3
 10
28647.912546013791
 20
15304.22518000001
 30
0.0
 11
28647.912546013791
 21
15310.227080000021
 31
0.0
  0
LINE
  5
14CA4
  8
2-0
  6
CONTINUOUS
 62
     3
 10
28647.912546013791
 20
15310.227080000021
 30
0.0
 11
28677.91017001378
 21
15310.227080000021
 31
0.0
  0
LINE
  5
14CA5
  8
2-0
  6
CONTINUOUS
 62
     3
 10
28677.91017001378
 20
15273.22789900003
 30
0.0
 11
28677.91017001378
 21
15310.227080000021
 31
0.0
  0
LINE
  5
14CA6
  8
2-0
  6
CONTINUOUS
 62
     3
 10
28647.912546013791
 20
15273.22789900003
 30
0.0
 11
28677.91017001378
 21
15273.22789900003
 31
0.0
  0
LINE
  5
14CA7
  8
2-0
  6
CONTINUOUS
 62
     3
 10
28647.912546013791
 20
15279.224850000021
 30
0.0
 11
28647.912546013791
 21
15273.22789900003
 31
0.0
  0
LINE
  5
14CA8
  8
2-0
  6
CONTINUOUS
 62
     3
 10
28647.912546013791
 20
15263.126415000021
 30
0.0
 11
28677.91017001378
 21
15263.126415000021
 31
0.0
  0
LINE
  5
14CA9
  8
2-0
  6
CONTINUOUS
 62
     3
 10
28647.912546013791
 20
15281.134096000011
 30
0.0
 11
28647.912546013791
 21
15263.126415000021
 31
0.0
  0
LINE
  5
14CAA
  8
2-0
  6
CONTINUOUS
 62
     3
 10
28672.909906013789
 20
15281.134096000011
 30
0.0
 11
28647.912546013791
 21
15281.134096000011
 31
0.0
  0
LINE
  5
14CAB
  8
2-0
  6
CONTINUOUS
 62
     3
 10
28672.909906013789
 20
15276.13383200003
 30
0.0
 11
28672.909906013789
 21
15281.134096000011
 31
0.0
  0
LINE
  5
14CAC
  8
2-0
  6
CONTINUOUS
 62
     3
 10
28665.9083490138
 20
15276.13383200003
 30
0.0
 11
28672.909906013789
 21
15276.13383200003
 31
0.0
  0
LINE
  5
14CAD
  8
2-0
  6
CONTINUOUS
 62
     3
 10
28677.91017001378
 20
16668.37456800001
 30
0.0
 11
28677.91017001378
 21
16021.08260850001
 31
0.0
  0
LINE
  5
14CAE
  8
2-0
  6
CONTINUOUS
 62
     3
 10
28677.91017001378
 20
16822.98486600001
 30
0.0
 11
28677.91017001378
 21
16677.983151000019
 31
0.0
  0
LINE
  5
14CAF
  8
2-0
  6
CONTINUOUS
 62
     3
 10
28590.027463013779
 20
16792.985262000009
 30
0.0
 11
28590.027463013779
 21
16707.988694
 31
0.0
  0
LINE
  5
14CB0
  8
2-0
  6
CONTINUOUS
 62
     6
 10
27051.818796013791
 20
18561.43252749999
 30
0.0
 11
28076.85112801379
 21
18561.43252749999
 31
0.0
  0
LINE
  5
14CB1
  8
2-0
  6
CONTINUOUS
 62
     3
 10
28665.9083490138
 20
14574.89282500001
 30
0.0
 11
28672.909906013789
 21
14574.89282500001
 31
0.0
  0
LINE
  5
14CB2
  8
2-0
  6
CONTINUOUS
 62
     3
 10
28672.909906013789
 20
14574.89282500001
 30
0.0
 11
28672.909906013789
 21
14579.887151000021
 31
0.0
  0
LINE
  5
14CB3
  8
2-0
  6
CONTINUOUS
 62
     3
 10
28672.909906013789
 20
14579.887151000021
 30
0.0
 11
28647.912546013791
 21
14579.887151000021
 31
0.0
  0
LINE
  5
14CB4
  8
2-0
  6
CONTINUOUS
 62
     3
 10
28647.912546013791
 20
14579.887151000021
 30
0.0
 11
28647.912546013791
 21
14561.89134700001
 31
0.0
  0
LINE
  5
14CB5
  8
2-0
  6
CONTINUOUS
 62
     3
 10
28647.912546013791
 20
14561.89134700001
 30
0.0
 11
28677.91017001378
 21
14561.89134700001
 31
0.0
  0
LINE
  5
14CB6
  8
2-0
  6
CONTINUOUS
 62
     3
 10
28647.912546013791
 20
14577.989782000021
 30
0.0
 11
28647.912546013791
 21
14571.986892000021
 31
0.0
  0
LINE
  5
14CB7
  8
2-0
  6
CONTINUOUS
 62
     3
 10
28647.912546013791
 20
14571.986892000021
 30
0.0
 11
28677.91017001378
 21
14571.986892000021
 31
0.0
  0
LINE
  5
14CB8
  8
2-0
  6
CONTINUOUS
 62
     3
 10
28677.91017001378
 20
14571.986892000021
 30
0.0
 11
28677.91017001378
 21
14608.987064000001
 31
0.0
  0
LINE
  5
14CB9
  8
2-0
  6
CONTINUOUS
 62
     3
 10
28647.912546013791
 20
14608.987064000001
 30
0.0
 11
28677.91017001378
 21
14608.987064000001
 31
0.0
  0
LINE
  5
14CBA
  8
2-0
  6
CONTINUOUS
 62
     3
 10
28647.912546013791
 20
14602.99011200001
 30
0.0
 11
28647.912546013791
 21
14608.987064000001
 31
0.0
  0
LINE
  5
14CBB
  8
2-0
  6
CONTINUOUS
 62
     3
 10
28647.912546013791
 20
14619.087557000021
 30
0.0
 11
28677.91017001378
 21
14619.087557000021
 31
0.0
  0
LINE
  5
14CBC
  8
2-0
  6
CONTINUOUS
 62
     3
 10
28647.912546013791
 20
14601.08086600002
 30
0.0
 11
28647.912546013791
 21
14619.087557000021
 31
0.0
  0
LINE
  5
14CBD
  8
2-0
  6
CONTINUOUS
 62
     3
 10
28672.909906013789
 20
14601.08086600002
 30
0.0
 11
28647.912546013791
 21
14601.08086600002
 31
0.0
  0
LINE
  5
14CBE
  8
2-0
  6
CONTINUOUS
 62
     3
 10
28672.909906013789
 20
14606.086079000021
 30
0.0
 11
28672.909906013789
 21
14601.08086600002
 31
0.0
  0
LINE
  5
14CBF
  8
2-0
  6
CONTINUOUS
 62
     3
 10
28665.9083490138
 20
14606.086079000021
 30
0.0
 11
28672.909906013789
 21
14606.086079000021
 31
0.0
  0
LINE
  5
14CC0
  8
2-0
  6
CONTINUOUS
 62
     3
 10
28647.912546013791
 20
13898.988905000009
 30
0.0
 11
28647.912546013791
 21
13904.99377400001
 31
0.0
  0
LINE
  5
14CC1
  8
2-0
  6
CONTINUOUS
 62
     3
 10
28647.912546013791
 20
13904.99377400001
 30
0.0
 11
28677.91017001378
 21
13904.99377400001
 31
0.0
  0
LINE
  5
14CC2
  8
2-0
  6
CONTINUOUS
 62
     3
 10
28677.91017001378
 20
13904.99377400001
 30
0.0
 11
28677.91017001378
 21
13789.989683000011
 31
0.0
  0
LINE
  5
14CC3
  8
2-0
  6
CONTINUOUS
 62
     3
 10
28677.91017001378
 20
13789.989683000011
 30
0.0
 11
28592.911622013791
 21
13789.989683000011
 31
0.0
  0
LINE
  5
14CC4
  8
2-0
  6
CONTINUOUS
 62
     3
 10
28592.911622013791
 20
13789.989683000011
 30
0.0
 11
28592.911622013791
 21
13874.985262000009
 31
0.0
  0
LINE
  5
14CC5
  8
2-0
  6
CONTINUOUS
 62
     3
 10
28592.911622013791
 20
13874.985262000009
 30
0.0
 11
28624.910540013789
 21
13874.985262000009
 31
0.0
  0
LINE
  5
14CC6
  8
2-0
  6
CONTINUOUS
 62
     3
 10
28665.9083490138
 20
13902.023507000011
 30
0.0
 11
28672.909906013789
 21
13902.023507000011
 31
0.0
  0
LINE
  5
14CC7
  8
2-0
  6
CONTINUOUS
 62
     3
 10
28672.909906013789
 20
13902.023507000011
 30
0.0
 11
28672.909906013789
 21
13897.02621199999
 31
0.0
  0
LINE
  5
14CC8
  8
2-0
  6
CONTINUOUS
 62
     3
 10
28672.909906013789
 20
13897.02621199999
 30
0.0
 11
28647.912546013791
 21
13897.02621199999
 31
0.0
  0
LINE
  5
14CC9
  8
2-0
  6
CONTINUOUS
 62
     3
 10
28647.912546013791
 20
13897.02621199999
 30
0.0
 11
28647.912546013791
 21
13915.024985000009
 31
0.0
  0
LINE
  5
14CCA
  8
2-0
  6
CONTINUOUS
 62
     3
 10
28647.912546013791
 20
13915.024985000009
 30
0.0
 11
28677.91017001378
 21
13915.024985000009
 31
0.0
  0
LINE
  5
14CCB
  8
2-0
  6
CENTER2
 62
     6
 10
28635.411886013801
 20
13592.492125000001
 30
0.0
 11
28635.411886013801
 21
14748.36088300003
 31
0.0
  0
LINE
  5
14CCC
  8
2-0
  6
CONTINUOUS
 62
     3
 10
28677.91017001378
 20
18238.082114000012
 30
0.0
 11
28677.91017001378
 21
18881.892831500008
 31
0.0
  0
LINE
  5
14CCD
  8
2-0
  6
CONTINUOUS
 62
     6
 10
29370.415053013781
 20
20090.488166000039
 30
0.0
 11
30570.409115013768
 21
20090.488166000039
 31
0.0
  0
LINE
  5
14CCE
  8
2-0
  6
CONTINUOUS
 62
     6
 10
28508.382220013769
 20
18803.587035500012
 30
0.0
 11
28076.85112801379
 21
18561.43252749999
 31
0.0
  0
LINE
  5
14CCF
  8
2-0
  6
CONTINUOUS
 62
     6
 10
28829.95105401376
 20
19503.16500300002
 30
0.0
 11
29370.415053013781
 21
20090.488166000039
 31
0.0
  0
LINE
  5
14CD0
  8
2-0
  6
CONTINUOUS
 62
     3
 10
28677.91017001378
 20
15963.88639850001
 30
0.0
 11
28677.91017001378
 21
15320.322625000021
 31
0.0
  0
LINE
  5
14CD1
  8
2-0
  6
CONTINUOUS
 62
     6
 10
28495.32531501379
 20
18826.84637950001
 30
0.0
 11
28647.912546013791
 21
18881.892831500008
 31
0.0
  0
LINE
  5
14CD2
  8
2-0
  6
CONTINUOUS
 62
     6
 10
28647.912546013791
 20
18881.892831500008
 30
0.0
 11
28521.431206013789
 21
18780.333631499991
 31
0.0
  0
LINE
  5
14CD3
  8
2-0
  6
CONTINUOUS
 62
     6
 10
28495.32531501379
 20
18826.84637950001
 30
0.0
 11
28521.431206013789
 21
18780.333631499991
 31
0.0
  0
LINE
  5
14CD4
  8
2-0
  6
CONTINUOUS
 62
     6
 10
28521.431206013789
 20
18780.333631499991
 30
0.0
 11
28647.912546013791
 21
18881.892831500008
 31
0.0
  0
LINE
  5
14CD5
  8
2-0
  6
CONTINUOUS
 62
     6
 10
28647.912546013791
 20
18881.892831500008
 30
0.0
 11
28495.32531501379
 21
18826.84637950001
 31
0.0
  0
LINE
  5
14CD6
  8
2-0
  6
CONTINUOUS
 62
     6
 10
28495.32531501379
 20
18826.84637950001
 30
0.0
 11
28647.912546013791
 21
18881.892831500008
 31
0.0
  0
LINE
  5
14CD7
  8
2-0
  6
CONTINUOUS
 62
     6
 10
28521.431206013789
 20
18780.333631499991
 30
0.0
 11
28647.912546013791
 21
18881.892831500008
 31
0.0
  0
LINE
  5
14CD8
  8
2-0
  6
CONTINUOUS
 62
     6
 10
28521.431206013789
 20
18780.333631499991
 30
0.0
 11
28495.32531501379
 21
18826.84637950001
 31
0.0
  0
LINE
  5
14CD9
  8
2-0
  6
CONTINUOUS
 62
     6
 10
28849.56808301379
 20
19485.10387600003
 30
0.0
 11
28721.606063013802
 21
19385.42125800002
 31
0.0
  0
LINE
  5
14CDA
  8
2-0
  6
CONTINUOUS
 62
     6
 10
28721.606063013802
 20
19385.42125800002
 30
0.0
 11
28810.320168013772
 21
19521.218213000029
 31
0.0
  0
LINE
  5
14CDB
  8
2-0
  6
CONTINUOUS
 62
     6
 10
28849.56808301379
 20
19485.10387600003
 30
0.0
 11
28810.320168013772
 21
19521.218213000029
 31
0.0
  0
LINE
  5
14CDC
  8
2-0
  6
CONTINUOUS
 62
     6
 10
28810.320168013772
 20
19521.218213000029
 30
0.0
 11
28721.606063013802
 21
19385.42125800002
 31
0.0
  0
LINE
  5
14CDD
  8
2-0
  6
CONTINUOUS
 62
     6
 10
28721.606063013802
 20
19385.42125800002
 30
0.0
 11
28849.56808301379
 21
19485.10387600003
 31
0.0
  0
LINE
  5
14CDE
  8
2-0
  6
CONTINUOUS
 62
     6
 10
28849.56808301379
 20
19485.10387600003
 30
0.0
 11
28721.606063013802
 21
19385.42125800002
 31
0.0
  0
LINE
  5
14CDF
  8
2-0
  6
CONTINUOUS
 62
     6
 10
28810.320168013772
 20
19521.218213000029
 30
0.0
 11
28721.606063013802
 21
19385.42125800002
 31
0.0
  0
LINE
  5
14CE0
  8
2-0
  6
CONTINUOUS
 62
     6
 10
28810.320168013772
 20
19521.218213000029
 30
0.0
 11
28849.56808301379
 21
19485.10387600003
 31
0.0
  0
LINE
  5
14CE1
  8
2-0
  6
CONTINUOUS
 62
     6
 10
28401.272449013792
 20
13681.716945
 30
0.0
 11
28533.019308013801
 21
13776.34387200001
 31
0.0
  0
LINE
  5
14CE2
  8
2-0
  6
CONTINUOUS
 62
     6
 10
28533.019308013801
 20
13776.34387200001
 30
0.0
 11
28439.089172013792
 21
13644.10510199999
 31
0.0
  0
LINE
  5
14CE3
  8
2-0
  6
CONTINUOUS
 62
     6
 10
28401.272449013792
 20
13681.716945
 30
0.0
 11
28439.089172013792
 21
13644.10510199999
 31
0.0
  0
LINE
  5
14CE4
  8
2-0
  6
CONTINUOUS
 62
     6
 10
28439.089172013792
 20
13644.10510199999
 30
0.0
 11
28533.019308013801
 21
13776.34387200001
 31
0.0
  0
LINE
  5
14CE5
  8
2-0
  6
CONTINUOUS
 62
     6
 10
28533.019308013801
 20
13776.34387200001
 30
0.0
 11
28401.272449013792
 21
13681.716945
 31
0.0
  0
LINE
  5
14CE6
  8
2-0
  6
CONTINUOUS
 62
     6
 10
28401.272449013792
 20
13681.716945
 30
0.0
 11
28533.019308013801
 21
13776.34387200001
 31
0.0
  0
LINE
  5
14CE7
  8
2-0
  6
CONTINUOUS
 62
     6
 10
28439.089172013792
 20
13644.10510199999
 30
0.0
 11
28533.019308013801
 21
13776.34387200001
 31
0.0
  0
LINE
  5
14CE8
  8
2-0
  6
CONTINUOUS
 62
     6
 10
28439.089172013792
 20
13644.10510199999
 30
0.0
 11
28401.272449013792
 21
13681.716945
 31
0.0
  0
LINE
  5
14CE9
  8
2-0
  6
CONTINUOUS
 62
     6
 10
28464.308238013789
 20
14008.621571999989
 30
0.0
 11
28596.908270013781
 21
13915.193243999989
 31
0.0
  0
LINE
  5
14CEA
  8
2-0
  6
CONTINUOUS
 62
     6
 10
28596.908270013781
 20
13915.193243999989
 30
0.0
 11
28441.175584013788
 21
13960.56875800001
 31
0.0
  0
LINE
  5
14CEB
  8
2-0
  6
CONTINUOUS
 62
     6
 10
28464.308238013789
 20
14008.621571999989
 30
0.0
 11
28441.175584013788
 21
13960.56875800001
 31
0.0
  0
LINE
  5
14CEC
  8
2-0
  6
CONTINUOUS
 62
     6
 10
28441.175584013788
 20
13960.56875800001
 30
0.0
 11
28596.908270013781
 21
13915.193243999989
 31
0.0
  0
LINE
  5
14CED
  8
2-0
  6
CONTINUOUS
 62
     6
 10
28596.908270013781
 20
13915.193243999989
 30
0.0
 11
28464.308238013789
 21
14008.621571999989
 31
0.0
  0
LINE
  5
14CEE
  8
2-0
  6
CONTINUOUS
 62
     6
 10
28464.308238013789
 20
14008.621571999989
 30
0.0
 11
28596.908270013781
 21
13915.193243999989
 31
0.0
  0
LINE
  5
14CEF
  8
2-0
  6
CONTINUOUS
 62
     6
 10
28441.175584013788
 20
13960.56875800001
 30
0.0
 11
28596.908270013781
 21
13915.193243999989
 31
0.0
  0
LINE
  5
14CF0
  8
2-0
  6
CONTINUOUS
 62
     6
 10
28441.175584013788
 20
13960.56875800001
 30
0.0
 11
28464.308238013789
 21
14008.621571999989
 31
0.0
  0
LINE
  5
14CF1
  8
2-0
  6
CONTINUOUS
 62
     6
 10
28524.071884013789
 20
16388.442505000021
 30
0.0
 11
28677.91017001378
 21
16439.876336000019
 31
0.0
  0
LINE
  5
14CF2
  8
2-0
  6
CONTINUOUS
 62
     6
 10
28677.91017001378
 20
16439.876336000019
 30
0.0
 11
28549.07518301376
 21
16341.33590100002
 31
0.0
  0
LINE
  5
14CF3
  8
2-0
  6
CONTINUOUS
 62
     6
 10
28524.071884013789
 20
16388.442505000021
 30
0.0
 11
28549.07518301376
 21
16341.33590100002
 31
0.0
  0
LINE
  5
14CF4
  8
2-0
  6
CONTINUOUS
 62
     6
 10
28549.07518301376
 20
16341.33590100002
 30
0.0
 11
28677.91017001378
 21
16439.876336000019
 31
0.0
  0
LINE
  5
14CF5
  8
2-0
  6
CONTINUOUS
 62
     6
 10
28677.91017001378
 20
16439.876336000019
 30
0.0
 11
28524.071884013789
 21
16388.442505000021
 31
0.0
  0
LINE
  5
14CF6
  8
2-0
  6
CONTINUOUS
 62
     6
 10
28524.071884013789
 20
16388.442505000021
 30
0.0
 11
28677.91017001378
 21
16439.876336000019
 31
0.0
  0
LINE
  5
14CF7
  8
2-0
  6
CONTINUOUS
 62
     6
 10
28549.07518301376
 20
16341.33590100002
 30
0.0
 11
28677.91017001378
 21
16439.876336000019
 31
0.0
  0
LINE
  5
14CF8
  8
2-0
  6
CONTINUOUS
 62
     6
 10
28549.07518301376
 20
16341.33590100002
 30
0.0
 11
28524.071884013789
 21
16388.442505000021
 31
0.0
  0
LINE
  5
14CF9
  8
2-0
  6
CONTINUOUS
 62
     6
 10
28390.13567701379
 20
16879.760997000019
 30
0.0
 11
28533.019308013801
 21
16802.98536800002
 31
0.0
  0
LINE
  5
14CFA
  8
2-0
  6
CONTINUOUS
 62
     6
 10
28533.019308013801
 20
16802.98536800002
 30
0.0
 11
28372.957415013781
 21
16829.267437000031
 31
0.0
  0
LINE
  5
14CFB
  8
2-0
  6
CONTINUOUS
 62
     6
 10
28390.13567701379
 20
16879.760997000019
 30
0.0
 11
28372.957415013781
 21
16829.267437000031
 31
0.0
  0
LINE
  5
14CFC
  8
2-0
  6
CONTINUOUS
 62
     6
 10
28372.957415013781
 20
16829.267437000031
 30
0.0
 11
28533.019308013801
 21
16802.98536800002
 31
0.0
  0
LINE
  5
14CFD
  8
2-0
  6
CONTINUOUS
 62
     6
 10
28533.019308013801
 20
16802.98536800002
 30
0.0
 11
28390.13567701379
 21
16879.760997000019
 31
0.0
  0
LINE
  5
14CFE
  8
2-0
  6
CONTINUOUS
 62
     6
 10
28390.13567701379
 20
16879.760997000019
 30
0.0
 11
28533.019308013801
 21
16802.98536800002
 31
0.0
  0
LINE
  5
14CFF
  8
2-0
  6
CONTINUOUS
 62
     6
 10
28372.957415013781
 20
16829.267437000031
 30
0.0
 11
28533.019308013801
 21
16802.98536800002
 31
0.0
  0
LINE
  5
14D00
  8
2-0
  6
CONTINUOUS
 62
     6
 10
28372.957415013781
 20
16829.267437000031
 30
0.0
 11
28390.13567701379
 21
16879.760997000019
 31
0.0
  0
LINE
  5
14D01
  8
2-0
  6
CONTINUOUS
 62
     3
 10
25354.413206013789
 20
19251.485052000018
 30
0.0
 11
25354.413206013789
 21
19245.489090000021
 31
0.0
  0
LINE
  5
14D02
  8
2-0
  6
CONTINUOUS
 62
     3
 10
25354.413206013789
 20
19245.489090000021
 30
0.0
 11
25324.415581013789
 21
19245.489090000021
 31
0.0
  0
LINE
  5
14D03
  8
2-0
  6
CONTINUOUS
 62
     3
 10
25324.415581013789
 20
19245.489090000021
 30
0.0
 11
25324.415581013789
 21
19360.48526300002
 31
0.0
  0
LINE
  5
14D04
  8
2-0
  6
CONTINUOUS
 62
     3
 10
25324.415581013789
 20
19275.488694000011
 30
0.0
 11
25405.413522013801
 21
19275.488694000011
 31
0.0
  0
LINE
  5
14D05
  8
2-0
  6
CONTINUOUS
 62
     3
 10
25354.413206013789
 20
19235.19163400001
 30
0.0
 11
25324.415581013789
 21
19235.19163400001
 31
0.0
  0
LINE
  5
14D06
  8
2-0
  6
CONTINUOUS
 62
     3
 10
25354.413206013789
 20
19253.193376000028
 30
0.0
 11
25354.413206013789
 21
19235.19163400001
 31
0.0
  0
LINE
  5
14D07
  8
2-0
  6
CONTINUOUS
 62
     3
 10
25329.419804013789
 20
19253.193376000028
 30
0.0
 11
25354.413206013789
 21
19253.193376000028
 31
0.0
  0
LINE
  5
14D08
  8
2-0
  6
CONTINUOUS
 62
     3
 10
25329.419804013789
 20
19248.18519400002
 30
0.0
 11
25329.419804013789
 21
19253.193376000028
 31
0.0
  0
LINE
  5
14D09
  8
2-0
  6
CONTINUOUS
 62
     3
 10
25336.417402013769
 20
19248.18519400002
 30
0.0
 11
25329.419804013789
 21
19248.18519400002
 31
0.0
  0
LINE
  5
14D0A
  8
2-0
  6
CONTINUOUS
 62
     3
 10
25436.711691013788
 20
19348.485421000009
 30
0.0
 11
25436.711691013788
 21
19355.49093700002
 31
0.0
  0
LINE
  5
14D0B
  8
2-0
  6
CONTINUOUS
 62
     3
 10
25436.711691013788
 20
19355.49093700002
 30
0.0
 11
25431.709447013789
 21
19355.49093700002
 31
0.0
  0
LINE
  5
14D0C
  8
2-0
  6
CONTINUOUS
 62
     3
 10
25431.709447013789
 20
19355.49093700002
 30
0.0
 11
25431.709447013789
 21
19330.481700000018
 31
0.0
  0
LINE
  5
14D0D
  8
2-0
  6
CONTINUOUS
 62
     3
 10
25431.709447013789
 20
19330.481700000018
 30
0.0
 11
25449.71712801377
 21
19330.481700000018
 31
0.0
  0
LINE
  5
14D0E
  8
2-0
  6
CONTINUOUS
 62
     3
 10
25449.71712801377
 20
19330.481700000018
 30
0.0
 11
25449.71712801377
 21
19360.48526300002
 31
0.0
  0
LINE
  5
14D0F
  8
2-0
  6
CONTINUOUS
 62
     3
 10
25439.417692013802
 20
19360.48526300002
 30
0.0
 11
25324.415581013789
 21
19360.48526300002
 31
0.0
  0
LINE
  5
14D10
  8
2-0
  6
CONTINUOUS
 62
     3
 10
25439.417692013802
 20
19330.481700000018
 30
0.0
 11
25439.417692013802
 21
19360.48526300002
 31
0.0
  0
LINE
  5
14D11
  8
2-0
  6
CONTINUOUS
 62
     3
 10
25433.413813013791
 20
19330.481700000018
 30
0.0
 11
25439.417692013802
 21
19330.481700000018
 31
0.0
  0
LINE
  5
14D12
  8
2-0
  6
CONTINUOUS
 62
     3
 10
25354.413206013789
 20
19251.485052000018
 30
0.0
 11
25354.413206013789
 21
19245.489090000021
 31
0.0
  0
LINE
  5
14D13
  8
2-0
  6
CONTINUOUS
 62
     3
 10
25354.413206013789
 20
19245.489090000021
 30
0.0
 11
25324.415581013789
 21
19245.489090000021
 31
0.0
  0
LINE
  5
14D14
  8
2-0
  6
CONTINUOUS
 62
     3
 10
25324.415581013789
 20
19245.489090000021
 30
0.0
 11
25324.415581013789
 21
19360.48526300002
 31
0.0
  0
LINE
  5
14D15
  8
2-0
  6
CONTINUOUS
 62
     3
 10
25324.415581013789
 20
19275.488694000011
 30
0.0
 11
25405.413522013801
 21
19275.488694000011
 31
0.0
  0
LINE
  5
14D16
  8
2-0
  6
CONTINUOUS
 62
     3
 10
25354.413206013789
 20
19235.19163400001
 30
0.0
 11
25324.415581013789
 21
19235.19163400001
 31
0.0
  0
LINE
  5
14D17
  8
2-0
  6
CONTINUOUS
 62
     3
 10
25354.413206013789
 20
19253.193376000028
 30
0.0
 11
25354.413206013789
 21
19235.19163400001
 31
0.0
  0
LINE
  5
14D18
  8
2-0
  6
CONTINUOUS
 62
     3
 10
25329.419804013789
 20
19253.193376000028
 30
0.0
 11
25354.413206013789
 21
19253.193376000028
 31
0.0
  0
LINE
  5
14D19
  8
2-0
  6
CONTINUOUS
 62
     3
 10
25329.419804013789
 20
19248.18519400002
 30
0.0
 11
25329.419804013789
 21
19253.193376000028
 31
0.0
  0
LINE
  5
14D1A
  8
2-0
  6
CONTINUOUS
 62
     3
 10
25336.417402013769
 20
19248.18519400002
 30
0.0
 11
25329.419804013789
 21
19248.18519400002
 31
0.0
  0
LINE
  5
14D1B
  8
2-0
  6
CONTINUOUS
 62
     3
 10
25336.417402013769
 20
18894.888371500001
 30
0.0
 11
25329.419804013789
 21
18894.888371500001
 31
0.0
  0
LINE
  5
14D1C
  8
2-0
  6
CONTINUOUS
 62
     3
 10
25329.419804013789
 20
18894.888371500001
 30
0.0
 11
25329.419804013789
 21
18899.8886355
 31
0.0
  0
LINE
  5
14D1D
  8
2-0
  6
CONTINUOUS
 62
     3
 10
25329.419804013789
 20
18899.8886355
 30
0.0
 11
25354.413206013789
 21
18899.8886355
 31
0.0
  0
LINE
  5
14D1E
  8
2-0
  6
CONTINUOUS
 62
     3
 10
25354.413206013789
 20
18899.8886355
 30
0.0
 11
25354.413206013789
 21
18881.892831500001
 31
0.0
  0
LINE
  5
14D1F
  8
2-0
  6
CONTINUOUS
 62
     3
 10
25354.413206013789
 20
18881.892831500001
 30
0.0
 11
25324.415581013789
 21
18881.892831500001
 31
0.0
  0
LINE
  5
14D20
  8
2-0
  6
CONTINUOUS
 62
     3
 10
25354.413206013789
 20
18897.984338499969
 30
0.0
 11
25354.413206013789
 21
18891.986397500001
 31
0.0
  0
LINE
  5
14D21
  8
2-0
  6
CONTINUOUS
 62
     3
 10
25354.413206013789
 20
18891.986397500001
 30
0.0
 11
25324.415581013789
 21
18891.986397500001
 31
0.0
  0
LINE
  5
14D22
  8
2-0
  6
CONTINUOUS
 62
     3
 10
25324.415581013789
 20
18891.986397500001
 30
0.0
 11
25324.415581013789
 21
18928.987558500012
 31
0.0
  0
LINE
  5
14D23
  8
2-0
  6
CONTINUOUS
 62
     3
 10
25354.413206013789
 20
18928.987558500012
 30
0.0
 11
25324.415581013789
 21
18928.987558500012
 31
0.0
  0
LINE
  5
14D24
  8
2-0
  6
CONTINUOUS
 62
     3
 10
25354.413206013789
 20
18922.98367849999
 30
0.0
 11
25354.413206013789
 21
18928.987558500012
 31
0.0
  0
LINE
  5
14D25
  8
2-0
  6
CONTINUOUS
 62
     3
 10
25354.413206013789
 20
18939.08310349999
 30
0.0
 11
25324.415581013789
 21
18939.08310349999
 31
0.0
  0
LINE
  5
14D26
  8
2-0
  6
CONTINUOUS
 62
     3
 10
25354.413206013789
 20
18921.081361500001
 30
0.0
 11
25354.413206013789
 21
18939.08310349999
 31
0.0
  0
LINE
  5
14D27
  8
2-0
  6
CONTINUOUS
 62
     3
 10
25329.419804013789
 20
18921.081361500001
 30
0.0
 11
25354.413206013789
 21
18921.081361500001
 31
0.0
  0
LINE
  5
14D28
  8
2-0
  6
CONTINUOUS
 62
     3
 10
25329.419804013789
 20
18926.081625499999
 30
0.0
 11
25329.419804013789
 21
18921.081361500001
 31
0.0
  0
LINE
  5
14D29
  8
2-0
  6
CONTINUOUS
 62
     3
 10
25336.417402013769
 20
18926.081625499999
 30
0.0
 11
25329.419804013789
 21
18926.081625499999
 31
0.0
  0
LINE
  5
14D2A
  8
2-0
  6
CONTINUOUS
 62
     3
 10
25336.417402013769
 20
18193.887382000012
 30
0.0
 11
25329.419804013789
 21
18193.887382000012
 31
0.0
  0
LINE
  5
14D2B
  8
2-0
  6
CONTINUOUS
 62
     3
 10
25329.419804013789
 20
18193.887382000012
 30
0.0
 11
25329.419804013789
 21
18198.893584000001
 31
0.0
  0
LINE
  5
14D2C
  8
2-0
  6
CONTINUOUS
 62
     3
 10
25329.419804013789
 20
18198.893584000001
 30
0.0
 11
25354.413206013789
 21
18198.893584000001
 31
0.0
  0
LINE
  5
14D2D
  8
2-0
  6
CONTINUOUS
 62
     3
 10
25354.413206013789
 20
18198.893584000001
 30
0.0
 11
25354.413206013789
 21
18180.891842000008
 31
0.0
  0
LINE
  5
14D2E
  8
2-0
  6
CONTINUOUS
 62
     3
 10
25354.413206013789
 20
18180.891842000008
 30
0.0
 11
25324.415581013789
 21
18180.891842000008
 31
0.0
  0
LINE
  5
14D2F
  8
2-0
  6
CONTINUOUS
 62
     3
 10
25354.413206013789
 20
18196.983348999998
 30
0.0
 11
25354.413206013789
 21
18190.987387000001
 31
0.0
  0
LINE
  5
14D30
  8
2-0
  6
CONTINUOUS
 62
     3
 10
25354.413206013789
 20
18190.987387000001
 30
0.0
 11
25324.415581013789
 21
18190.987387000001
 31
0.0
  0
LINE
  5
14D31
  8
2-0
  6
CONTINUOUS
 62
     3
 10
25324.415581013789
 20
18190.987387000001
 30
0.0
 11
25324.415581013789
 21
18227.986569000001
 31
0.0
  0
LINE
  5
14D32
  8
2-0
  6
CONTINUOUS
 62
     3
 10
25354.413206013789
 20
18227.986569000001
 30
0.0
 11
25324.415581013789
 21
18227.986569000001
 31
0.0
  0
LINE
  5
14D33
  8
2-0
  6
CONTINUOUS
 62
     3
 10
25354.413206013789
 20
18221.990607
 30
0.0
 11
25354.413206013789
 21
18227.986569000001
 31
0.0
  0
LINE
  5
14D34
  8
2-0
  6
CONTINUOUS
 62
     3
 10
25354.413206013789
 20
18238.082114000012
 30
0.0
 11
25324.415581013789
 21
18238.082114000012
 31
0.0
  0
LINE
  5
14D35
  8
2-0
  6
CONTINUOUS
 62
     3
 10
25354.413206013789
 20
18220.080371999989
 30
0.0
 11
25354.413206013789
 21
18238.082114000012
 31
0.0
  0
LINE
  5
14D36
  8
2-0
  6
CONTINUOUS
 62
     3
 10
25329.419804013789
 20
18220.080371999989
 30
0.0
 11
25354.413206013789
 21
18220.080371999989
 31
0.0
  0
LINE
  5
14D37
  8
2-0
  6
CONTINUOUS
 62
     3
 10
25329.419804013789
 20
18225.086574000001
 30
0.0
 11
25329.419804013789
 21
18220.080371999989
 31
0.0
  0
LINE
  5
14D38
  8
2-0
  6
CONTINUOUS
 62
     3
 10
25336.417402013769
 20
18225.086574000001
 30
0.0
 11
25329.419804013789
 21
18225.086574000001
 31
0.0
  0
LINE
  5
14D39
  8
2-0
  6
CONTINUOUS
 62
     3
 10
25336.417402013769
 20
17524.080635999999
 30
0.0
 11
25329.419804013789
 21
17524.080635999999
 31
0.0
  0
LINE
  5
14D3A
  8
2-0
  6
CONTINUOUS
 62
     3
 10
25329.419804013789
 20
17524.080635999999
 30
0.0
 11
25329.419804013789
 21
17519.092249000008
 31
0.0
  0
LINE
  5
14D3B
  8
2-0
  6
CONTINUOUS
 62
     3
 10
25329.419804013789
 20
17519.092249000008
 30
0.0
 11
25354.413206013789
 21
17519.092249000008
 31
0.0
  0
LINE
  5
14D3C
  8
2-0
  6
CONTINUOUS
 62
     3
 10
25354.413206013789
 20
17519.092249000008
 30
0.0
 11
25354.413206013789
 21
17537.08805200001
 31
0.0
  0
LINE
  5
14D3D
  8
2-0
  6
CONTINUOUS
 62
     3
 10
25354.413206013789
 20
17537.08805200001
 30
0.0
 11
25324.415581013789
 21
17537.08805200001
 31
0.0
  0
LINE
  5
14D3E
  8
2-0
  6
CONTINUOUS
 62
     3
 10
25354.413206013789
 20
17520.990607
 30
0.0
 11
25354.413206013789
 21
17526.98656899999
 31
0.0
  0
LINE
  5
14D3F
  8
2-0
  6
CONTINUOUS
 62
     3
 10
25354.413206013789
 20
17526.98656899999
 30
0.0
 11
25324.415581013789
 21
17526.98656899999
 31
0.0
  0
LINE
  5
14D40
  8
2-0
  6
CONTINUOUS
 62
     3
 10
25324.415581013789
 20
17526.98656899999
 30
0.0
 11
25324.415581013789
 21
17489.987387000008
 31
0.0
  0
LINE
  5
14D41
  8
2-0
  6
CONTINUOUS
 62
     3
 10
25354.413206013789
 20
17489.987387000008
 30
0.0
 11
25324.415581013789
 21
17489.987387000008
 31
0.0
  0
LINE
  5
14D42
  8
2-0
  6
CONTINUOUS
 62
     3
 10
25354.413206013789
 20
17495.989288000001
 30
0.0
 11
25354.413206013789
 21
17489.987387000008
 31
0.0
  0
LINE
  5
14D43
  8
2-0
  6
CONTINUOUS
 62
     3
 10
25354.413206013789
 20
17479.897781
 30
0.0
 11
25324.415581013789
 21
17479.897781
 31
0.0
  0
LINE
  5
14D44
  8
2-0
  6
CONTINUOUS
 62
     3
 10
25354.413206013789
 20
17497.893584000001
 30
0.0
 11
25354.413206013789
 21
17479.897781
 31
0.0
  0
LINE
  5
14D45
  8
2-0
  6
CONTINUOUS
 62
     3
 10
25329.419804013789
 20
17497.893584000001
 30
0.0
 11
25354.413206013789
 21
17497.893584000001
 31
0.0
  0
LINE
  5
14D46
  8
2-0
  6
CONTINUOUS
 62
     3
 10
25329.419804013789
 20
17492.893321
 30
0.0
 11
25329.419804013789
 21
17497.893584000001
 31
0.0
  0
LINE
  5
14D47
  8
2-0
  6
CONTINUOUS
 62
     3
 10
25336.417402013769
 20
17492.893321
 30
0.0
 11
25329.419804013789
 21
17492.893321
 31
0.0
  0
LINE
  5
14D48
  8
2-0
  6
CONTINUOUS
 62
     3
 10
25327.301719013791
 20
16772.984207000009
 30
0.0
 11
25327.301719013791
 21
16792.985262000009
 31
0.0
  0
LINE
  5
14D49
  8
2-0
  6
CONTINUOUS
 62
     3
 10
25327.301719013791
 20
16792.985262000009
 30
0.0
 11
25412.302247013798
 21
16792.985262000009
 31
0.0
  0
LINE
  5
14D4A
  8
2-0
  6
CONTINUOUS
 62
     3
 10
25336.417402013769
 20
16819.59197200002
 30
0.0
 11
25329.419804013789
 21
16819.59197200002
 31
0.0
  0
LINE
  5
14D4B
  8
2-0
  6
CONTINUOUS
 62
     3
 10
25329.419804013789
 20
16819.59197200002
 30
0.0
 11
25329.419804013789
 21
16814.59764600002
 31
0.0
  0
LINE
  5
14D4C
  8
2-0
  6
CONTINUOUS
 62
     3
 10
25329.419804013789
 20
16814.59764600002
 30
0.0
 11
25354.413206013789
 21
16814.59764600002
 31
0.0
  0
LINE
  5
14D4D
  8
2-0
  6
CONTINUOUS
 62
     3
 10
25354.413206013789
 20
16814.59764600002
 30
0.0
 11
25354.413206013789
 21
16832.593450000011
 31
0.0
  0
LINE
  5
14D4E
  8
2-0
  6
CONTINUOUS
 62
     3
 10
25354.413206013789
 20
16832.593450000011
 30
0.0
 11
25324.415581013789
 21
16832.593450000011
 31
0.0
  0
LINE
  5
14D4F
  8
2-0
  6
CONTINUOUS
 62
     3
 10
25354.413206013789
 20
16822.98486600001
 30
0.0
 11
25354.413206013789
 21
16816.982966
 31
0.0
  0
LINE
  5
14D50
  8
2-0
  6
CONTINUOUS
 62
     3
 10
25324.415581013789
 20
16822.98486600001
 30
0.0
 11
25354.413206013789
 21
16822.98486600001
 31
0.0
  0
LINE
  5
14D51
  8
2-0
  6
CONTINUOUS
 62
     3
 10
25324.415581013789
 20
16832.593450000011
 30
0.0
 11
25324.415581013789
 21
17479.897781
 31
0.0
  0
LINE
  5
14D52
  8
2-0
  6
CONTINUOUS
 62
     3
 10
25324.415581013789
 20
17537.08805200001
 30
0.0
 11
25324.415581013789
 21
18180.891842000008
 31
0.0
  0
LINE
  5
14D53
  8
2-0
  6
CONTINUOUS
 62
     3
 10
25324.415581013789
 20
16677.983151000019
 30
0.0
 11
25354.413206013789
 21
16677.983151000019
 31
0.0
  0
LINE
  5
14D54
  8
2-0
  6
CONTINUOUS
 62
     3
 10
25354.413206013789
 20
16677.983151000019
 30
0.0
 11
25354.413206013789
 21
16683.985051000011
 31
0.0
  0
LINE
  5
14D55
  8
2-0
  6
CONTINUOUS
 62
     3
 10
25412.302247013798
 20
16707.988694
 30
0.0
 11
25327.301719013791
 21
16707.988694
 31
0.0
  0
LINE
  5
14D56
  8
2-0
  6
CONTINUOUS
 62
     3
 10
25327.301719013791
 20
16707.988694
 30
0.0
 11
25327.301719013791
 21
16727.98381100002
 31
0.0
  0
LINE
  5
14D57
  8
2-0
  6
CONTINUOUS
 62
     3
 10
25354.413206013789
 20
16668.37456800001
 30
0.0
 11
25324.415581013789
 21
16668.37456800001
 31
0.0
  0
LINE
  5
14D58
  8
2-0
  6
CONTINUOUS
 62
     3
 10
25354.413206013789
 20
16686.37037099999
 30
0.0
 11
25354.413206013789
 21
16668.37456800001
 31
0.0
  0
LINE
  5
14D59
  8
2-0
  6
CONTINUOUS
 62
     3
 10
25329.419804013789
 20
16686.37037099999
 30
0.0
 11
25354.413206013789
 21
16686.37037099999
 31
0.0
  0
LINE
  5
14D5A
  8
2-0
  6
CONTINUOUS
 62
     3
 10
25329.419804013789
 20
16681.370107000021
 30
0.0
 11
25329.419804013789
 21
16686.37037099999
 31
0.0
  0
LINE
  5
14D5B
  8
2-0
  6
CONTINUOUS
 62
     3
 10
25336.417402013769
 20
16681.370107000021
 30
0.0
 11
25329.419804013789
 21
16681.370107000021
 31
0.0
  0
LINE
  5
14D5C
  8
2-0
  6
CONTINUOUS
 62
     3
 10
25336.417402013769
 20
15976.88787649999
 30
0.0
 11
25329.419804013789
 21
15976.88787649999
 31
0.0
  0
LINE
  5
14D5D
  8
2-0
  6
CONTINUOUS
 62
     3
 10
25329.419804013789
 20
15976.88787649999
 30
0.0
 11
25329.419804013789
 21
15981.888140499999
 31
0.0
  0
LINE
  5
14D5E
  8
2-0
  6
CONTINUOUS
 62
     3
 10
25329.419804013789
 20
15981.888140499999
 30
0.0
 11
25354.413206013789
 21
15981.888140499999
 31
0.0
  0
LINE
  5
14D5F
  8
2-0
  6
CONTINUOUS
 62
     3
 10
25354.413206013789
 20
15981.888140499999
 30
0.0
 11
25354.413206013789
 21
15963.88639850001
 31
0.0
  0
LINE
  5
14D60
  8
2-0
  6
CONTINUOUS
 62
     3
 10
25354.413206013789
 20
15963.88639850001
 30
0.0
 11
25324.415581013789
 21
15963.88639850001
 31
0.0
  0
LINE
  5
14D61
  8
2-0
  6
CONTINUOUS
 62
     3
 10
25354.413206013789
 20
15979.983843500009
 30
0.0
 11
25354.413206013789
 21
15973.98689250001
 31
0.0
  0
LINE
  5
14D62
  8
2-0
  6
CONTINUOUS
 62
     3
 10
25354.413206013789
 20
15973.98689250001
 30
0.0
 11
25324.415581013789
 21
15973.98689250001
 31
0.0
  0
LINE
  5
14D63
  8
2-0
  6
CONTINUOUS
 62
     3
 10
25324.415581013789
 20
15973.98689250001
 30
0.0
 11
25324.415581013789
 21
16010.98706350001
 31
0.0
  0
LINE
  5
14D64
  8
2-0
  6
CONTINUOUS
 62
     3
 10
25354.413206013789
 20
16010.98706350001
 30
0.0
 11
25324.415581013789
 21
16010.98706350001
 31
0.0
  0
LINE
  5
14D65
  8
2-0
  6
CONTINUOUS
 62
     3
 10
25354.413206013789
 20
16004.984173500001
 30
0.0
 11
25354.413206013789
 21
16010.98706350001
 31
0.0
  0
LINE
  5
14D66
  8
2-0
  6
CONTINUOUS
 62
     3
 10
25354.413206013789
 20
16021.08260850001
 30
0.0
 11
25324.415581013789
 21
16021.08260850001
 31
0.0
  0
LINE
  5
14D67
  8
2-0
  6
CONTINUOUS
 62
     3
 10
25354.413206013789
 20
16003.074927500011
 30
0.0
 11
25354.413206013789
 21
16021.08260850001
 31
0.0
  0
LINE
  5
14D68
  8
2-0
  6
CONTINUOUS
 62
     3
 10
25329.419804013789
 20
16003.074927500011
 30
0.0
 11
25354.413206013789
 21
16003.074927500011
 31
0.0
  0
LINE
  5
14D69
  8
2-0
  6
CONTINUOUS
 62
     3
 10
25329.419804013789
 20
16008.08113050001
 30
0.0
 11
25329.419804013789
 21
16003.074927500011
 31
0.0
  0
LINE
  5
14D6A
  8
2-0
  6
CONTINUOUS
 62
     3
 10
25336.417402013769
 20
16008.08113050001
 30
0.0
 11
25329.419804013789
 21
16008.08113050001
 31
0.0
  0
LINE
  5
14D6B
  8
2-0
  6
CONTINUOUS
 62
     3
 10
25336.417402013769
 20
15307.321147000021
 30
0.0
 11
25329.419804013789
 21
15307.321147000021
 31
0.0
  0
LINE
  5
14D6C
  8
2-0
  6
CONTINUOUS
 62
     3
 10
25329.419804013789
 20
15307.321147000021
 30
0.0
 11
25329.419804013789
 21
15302.326822000019
 31
0.0
  0
LINE
  5
14D6D
  8
2-0
  6
CONTINUOUS
 62
     3
 10
25329.419804013789
 20
15302.326822000019
 30
0.0
 11
25354.413206013789
 21
15302.326822000019
 31
0.0
  0
LINE
  5
14D6E
  8
2-0
  6
CONTINUOUS
 62
     3
 10
25354.413206013789
 20
15302.326822000019
 30
0.0
 11
25354.413206013789
 21
15320.322625000021
 31
0.0
  0
LINE
  5
14D6F
  8
2-0
  6
CONTINUOUS
 62
     3
 10
25354.413206013789
 20
15320.322625000021
 30
0.0
 11
25324.415581013789
 21
15320.322625000021
 31
0.0
  0
LINE
  5
14D70
  8
2-0
  6
CONTINUOUS
 62
     3
 10
25354.413206013789
 20
15304.22518000001
 30
0.0
 11
25354.413206013789
 21
15310.227080000021
 31
0.0
  0
LINE
  5
14D71
  8
2-0
  6
CONTINUOUS
 62
     3
 10
25354.413206013789
 20
15310.227080000021
 30
0.0
 11
25324.415581013789
 21
15310.227080000021
 31
0.0
  0
LINE
  5
14D72
  8
2-0
  6
CONTINUOUS
 62
     3
 10
25324.415581013789
 20
15273.22789900003
 30
0.0
 11
25324.415581013789
 21
15310.227080000021
 31
0.0
  0
LINE
  5
14D73
  8
2-0
  6
CONTINUOUS
 62
     3
 10
25354.413206013789
 20
15273.22789900003
 30
0.0
 11
25324.415581013789
 21
15273.22789900003
 31
0.0
  0
LINE
  5
14D74
  8
2-0
  6
CONTINUOUS
 62
     3
 10
25354.413206013789
 20
15279.22485000001
 30
0.0
 11
25354.413206013789
 21
15273.22789900003
 31
0.0
  0
LINE
  5
14D75
  8
2-0
  6
CONTINUOUS
 62
     3
 10
25354.413206013789
 20
15263.12641500001
 30
0.0
 11
25324.415581013789
 21
15263.12641500001
 31
0.0
  0
LINE
  5
14D76
  8
2-0
  6
CONTINUOUS
 62
     3
 10
25354.413206013789
 20
15281.134096000011
 30
0.0
 11
25354.413206013789
 21
15263.12641500001
 31
0.0
  0
LINE
  5
14D77
  8
2-0
  6
CONTINUOUS
 62
     3
 10
25329.419804013789
 20
15281.134096000011
 30
0.0
 11
25354.413206013789
 21
15281.134096000011
 31
0.0
  0
LINE
  5
14D78
  8
2-0
  6
CONTINUOUS
 62
     3
 10
25329.419804013789
 20
15276.13383200003
 30
0.0
 11
25329.419804013789
 21
15281.134096000011
 31
0.0
  0
LINE
  5
14D79
  8
2-0
  6
CONTINUOUS
 62
     3
 10
25336.417402013769
 20
15276.13383200003
 30
0.0
 11
25329.419804013789
 21
15276.13383200003
 31
0.0
  0
LINE
  5
14D7A
  8
2-0
  6
CONTINUOUS
 62
     3
 10
25324.415581013789
 20
16668.37456800001
 30
0.0
 11
25324.415581013789
 21
16021.08260850001
 31
0.0
  0
LINE
  5
14D7B
  8
2-0
  6
CONTINUOUS
 62
     3
 10
25324.415581013789
 20
16822.98486600001
 30
0.0
 11
25324.415581013789
 21
16677.983151000019
 31
0.0
  0
LINE
  5
14D7C
  8
2-0
  6
CONTINUOUS
 62
     3
 10
25412.302247013798
 20
16792.985262000009
 30
0.0
 11
25412.302247013798
 21
16707.988694
 31
0.0
  0
LINE
  5
14D7D
  8
2-0
  6
CONTINUOUS
 62
     3
 10
25336.417402013769
 20
14574.89282500001
 30
0.0
 11
25329.419804013789
 21
14574.89282500001
 31
0.0
  0
LINE
  5
14D7E
  8
2-0
  6
CONTINUOUS
 62
     3
 10
25329.419804013789
 20
14574.89282500001
 30
0.0
 11
25329.419804013789
 21
14579.887151000021
 31
0.0
  0
LINE
  5
14D7F
  8
2-0
  6
CONTINUOUS
 62
     3
 10
25329.419804013789
 20
14579.887151000021
 30
0.0
 11
25354.413206013789
 21
14579.887151000021
 31
0.0
  0
LINE
  5
14D80
  8
2-0
  6
CONTINUOUS
 62
     3
 10
25354.413206013789
 20
14579.887151000021
 30
0.0
 11
25354.413206013789
 21
14561.891347000021
 31
0.0
  0
LINE
  5
14D81
  8
2-0
  6
CONTINUOUS
 62
     3
 10
25354.413206013789
 20
14561.891347000021
 30
0.0
 11
25324.415581013789
 21
14561.891347000021
 31
0.0
  0
LINE
  5
14D82
  8
2-0
  6
CONTINUOUS
 62
     3
 10
25354.413206013789
 20
14577.989782000021
 30
0.0
 11
25354.413206013789
 21
14571.986892000021
 31
0.0
  0
LINE
  5
14D83
  8
2-0
  6
CONTINUOUS
 62
     3
 10
25354.413206013789
 20
14571.986892000021
 30
0.0
 11
25324.415581013789
 21
14571.986892000021
 31
0.0
  0
LINE
  5
14D84
  8
2-0
  6
CONTINUOUS
 62
     3
 10
25324.415581013789
 20
14571.986892000021
 30
0.0
 11
25324.415581013789
 21
14608.987064000001
 31
0.0
  0
LINE
  5
14D85
  8
2-0
  6
CONTINUOUS
 62
     3
 10
25354.413206013789
 20
14608.987064000001
 30
0.0
 11
25324.415581013789
 21
14608.987064000001
 31
0.0
  0
LINE
  5
14D86
  8
2-0
  6
CONTINUOUS
 62
     3
 10
25354.413206013789
 20
14602.99011200001
 30
0.0
 11
25354.413206013789
 21
14608.987064000001
 31
0.0
  0
LINE
  5
14D87
  8
2-0
  6
CONTINUOUS
 62
     3
 10
25354.413206013789
 20
14619.087557000021
 30
0.0
 11
25324.415581013789
 21
14619.087557000021
 31
0.0
  0
LINE
  5
14D88
  8
2-0
  6
CONTINUOUS
 62
     3
 10
25354.413206013789
 20
14601.08086600002
 30
0.0
 11
25354.413206013789
 21
14619.087557000021
 31
0.0
  0
LINE
  5
14D89
  8
2-0
  6
CONTINUOUS
 62
     3
 10
25329.419804013789
 20
14601.08086600002
 30
0.0
 11
25354.413206013789
 21
14601.08086600002
 31
0.0
  0
LINE
  5
14D8A
  8
2-0
  6
CONTINUOUS
 62
     3
 10
25329.419804013789
 20
14606.086079000021
 30
0.0
 11
25329.419804013789
 21
14601.08086600002
 31
0.0
  0
LINE
  5
14D8B
  8
2-0
  6
CONTINUOUS
 62
     3
 10
25336.417402013769
 20
14606.086079000021
 30
0.0
 11
25329.419804013789
 21
14606.086079000021
 31
0.0
  0
LINE
  5
14D8C
  8
2-0
  6
CONTINUOUS
 62
     3
 10
25354.413206013789
 20
13898.988905000009
 30
0.0
 11
25354.413206013789
 21
13904.99377400001
 31
0.0
  0
LINE
  5
14D8D
  8
2-0
  6
CONTINUOUS
 62
     3
 10
25354.413206013789
 20
13904.99377400001
 30
0.0
 11
25324.415581013789
 21
13904.99377400001
 31
0.0
  0
LINE
  5
14D8E
  8
2-0
  6
CONTINUOUS
 62
     3
 10
25324.415581013789
 20
13904.99377400001
 30
0.0
 11
25324.415581013789
 21
13789.989683000011
 31
0.0
  0
LINE
  5
14D8F
  8
2-0
  6
CONTINUOUS
 62
     3
 10
25324.415581013789
 20
13789.989683000011
 30
0.0
 11
25409.414129013781
 21
13789.989683000011
 31
0.0
  0
LINE
  5
14D90
  8
2-0
  6
CONTINUOUS
 62
     3
 10
25409.414129013781
 20
13789.989683000011
 30
0.0
 11
25409.414129013781
 21
13874.985262000009
 31
0.0
  0
LINE
  5
14D91
  8
2-0
  6
CONTINUOUS
 62
     3
 10
25409.414129013781
 20
13874.985262000009
 30
0.0
 11
25377.417191013781
 21
13874.985262000009
 31
0.0
  0
LINE
  5
14D92
  8
2-0
  6
CONTINUOUS
 62
     3
 10
25336.417402013769
 20
13902.023507000011
 30
0.0
 11
25329.419804013789
 21
13902.023507000011
 31
0.0
  0
LINE
  5
14D93
  8
2-0
  6
CONTINUOUS
 62
     3
 10
25329.419804013789
 20
13902.023507000011
 30
0.0
 11
25329.419804013789
 21
13897.02621199999
 31
0.0
  0
LINE
  5
14D94
  8
2-0
  6
CONTINUOUS
 62
     3
 10
25329.419804013789
 20
13897.02621199999
 30
0.0
 11
25354.413206013789
 21
13897.02621199999
 31
0.0
  0
LINE
  5
14D95
  8
2-0
  6
CONTINUOUS
 62
     3
 10
25354.413206013789
 20
13897.02621199999
 30
0.0
 11
25354.413206013789
 21
13915.024985000009
 31
0.0
  0
LINE
  5
14D96
  8
2-0
  6
CONTINUOUS
 62
     3
 10
25354.413206013789
 20
13915.024985000009
 30
0.0
 11
25324.415581013789
 21
13915.024985000009
 31
0.0
  0
LINE
  5
14D97
  8
2-0
  6
CONTINUOUS
 62
     3
 10
25324.415581013789
 20
14619.087557000021
 30
0.0
 11
25324.415581013789
 21
15263.12641500001
 31
0.0
  0
LINE
  5
14D98
  8
2-0
  6
CONTINUOUS
 62
     3
 10
25324.415581013789
 20
18238.082114000012
 30
0.0
 11
25324.415581013789
 21
18881.892831500001
 31
0.0
  0
LINE
  5
14D99
  8
2-0
  6
CONTINUOUS
 62
     3
 10
25324.415581013789
 20
15963.88639850001
 30
0.0
 11
25324.415581013789
 21
15320.322625000021
 31
0.0
  0
LINE
  5
14D9A
  8
2-0
  6
CONTINUOUS
 62
     3
 10
28677.91017001378
 20
19245.489090000021
 30
0.0
 11
28677.91017001378
 21
19360.48526300002
 31
0.0
  0
LINE
  5
14D9B
  8
2-0
  6
CONTINUOUS
 62
     3
 10
25324.415581013789
 20
19275.488694000011
 30
0.0
 11
28596.908270013781
 21
19275.488694000011
 31
0.0
  0
LINE
  5
14D9C
  8
2-0
  6
CONTINUOUS
 62
     3
 10
25324.415581013789
 20
13915.024985000009
 30
0.0
 11
25324.415581013789
 21
14561.891347000021
 31
0.0
  0
LINE
  5
14D9D
  8
2-0
  6
CONTINUOUS
 62
     3
 10
28677.91017001378
 20
19235.19163400001
 30
0.0
 11
28677.91017001378
 21
18939.083103500001
 31
0.0
  0
LINE
  5
14D9E
  8
2-0
  6
CONTINUOUS
 62
     3
 10
25324.415581013789
 20
19235.19163400001
 30
0.0
 11
25324.415581013789
 21
18939.08310349999
 31
0.0
  0
LINE
  5
14D9F
  8
2-0
  6
CONTINUOUS
 62
     3
 10
25405.413522013801
 20
13874.985262000009
 30
0.0
 11
25405.413522013801
 21
19360.48526300002
 31
0.0
  0
LINE
  5
14DA0
  8
2-0
  6
CONTINUOUS
 62
     3
 10
28596.908270013781
 20
13874.985262000009
 30
0.0
 11
28596.908270013781
 21
19360.48526300002
 31
0.0
  0
TEXT
  5
14DA1
  8
2-0
  6
CONTINUOUS
 62
     7
 10
27032.257193013778
 20
13272.48810000001
 30
0.0
 40
160.0
  1
前柱（右）
 50
0.000213
 72
     4
 11
27448.256895606799
 21
13352.489646500801
 31
0.0
  0
TEXT
  5
14DA2
  8
2-0
  6
CONTINUOUS
 62
     7
 10
27236.852316013781
 20
16200.980116000041
 30
0.0
 40
160.0
  1
壁パネル
 50
359.99982299999999
 72
     4
 11
27599.519229817339
 21
16280.978995637901
 31
0.0
  0
TEXT
  5
14DA3
  8
2-0
  6
CONTINUOUS
 62
     7
 10
26956.849412013769
 20
17038.168012000009
 30
0.0
 40
160.0
  1
中柱（左右）
 50
0.000354
 72
     4
 11
27474.182251059989
 21
17118.171208324671
 31
0.0
  0
TEXT
  5
14DA4
  8
2-0
  6
CONTINUOUS
 62
     7
 10
27636.85165601379
 20
14245.52936600001
 30
0.0
 40
160.0
  1
下枠
 50
0.001063
 72
     4
 11
27807.516838423078
 21
14325.532532339301
 31
0.0
  0
TEXT
  5
14DA5
  8
2-0
  6
CONTINUOUS
 62
     7
 10
27131.8170800138
 20
18641.436750500001
 30
0.0
 40
160.0
  1
間柱（側）
 72
     4
 11
27553.150413347132
 21
18721.436750500001
 31
0.0
  0
TEXT
  5
14DA6
  8
2-0
  6
CONTINUOUS
 62
     7
 10
29450.40739901378
 20
20170.484471000011
 30
0.0
 40
160.0
  1
後柱（左右）
 50
0.000354
 72
     4
 11
29962.406904726759
 21
20250.48763437285
 31
0.0
  0
LINE
  5
14DA7
  8
2-0
  6
CONTINUOUS
 62
     3
 10
27895.912467013772
 20
19360.48526300002
 30
0.0
 11
27858.9113050138
 21
19360.48526300002
 31
0.0
  0
LINE
  5
14DA8
  8
2-0
  6
CONTINUOUS
 62
     3
 10
27895.912467013772
 20
19330.481700000018
 30
0.0
 11
27895.912467013772
 21
19360.48526300002
 31
0.0
  0
LINE
  5
14DA9
  8
2-0
  6
CONTINUOUS
 62
     3
 10
27889.912546013758
 20
19330.481700000018
 30
0.0
 11
27895.912467013772
 21
19330.481700000018
 31
0.0
  0
LINE
  5
14DAA
  8
2-0
  6
CONTINUOUS
 62
     3
 10
27906.009991013801
 20
19330.481700000018
 30
0.0
 11
27906.009991013801
 21
19360.48526300002
 31
0.0
  0
LINE
  5
14DAB
  8
2-0
  6
CONTINUOUS
 62
     3
 10
27888.006270013801
 20
19330.481700000018
 30
0.0
 11
27906.009991013801
 21
19330.481700000018
 31
0.0
  0
LINE
  5
14DAC
  8
2-0
  6
CONTINUOUS
 62
     3
 10
27888.006270013801
 20
19355.49093700002
 30
0.0
 11
27888.006270013801
 21
19330.481700000018
 31
0.0
  0
LINE
  5
14DAD
  8
2-0
  6
CONTINUOUS
 62
     3
 10
27893.006534013799
 20
19355.49093700002
 30
0.0
 11
27888.006270013801
 21
19355.49093700002
 31
0.0
  0
LINE
  5
14DAE
  8
2-0
  6
CONTINUOUS
 62
     3
 10
27893.006534013799
 20
19348.485421000009
 30
0.0
 11
27893.006534013799
 21
19355.49093700002
 31
0.0
  0
LINE
  5
14DAF
  8
2-0
  6
CONTINUOUS
 62
     3
 10
27861.817239013781
 20
19348.485421000009
 30
0.0
 11
27861.817239013781
 21
19355.49093700002
 31
0.0
  0
LINE
  5
14DB0
  8
2-0
  6
CONTINUOUS
 62
     3
 10
27861.817239013781
 20
19355.49093700002
 30
0.0
 11
27866.817503013801
 21
19355.49093700002
 31
0.0
  0
LINE
  5
14DB1
  8
2-0
  6
CONTINUOUS
 62
     3
 10
27866.817503013801
 20
19355.49093700002
 30
0.0
 11
27866.817503013801
 21
19330.481700000018
 31
0.0
  0
LINE
  5
14DB2
  8
2-0
  6
CONTINUOUS
 62
     3
 10
27866.817503013801
 20
19330.481700000018
 30
0.0
 11
27848.817740013801
 21
19330.481700000018
 31
0.0
  0
LINE
  5
14DB3
  8
2-0
  6
CONTINUOUS
 62
     3
 10
27848.817740013801
 20
19330.481700000018
 30
0.0
 11
27848.817740013801
 21
19360.48526300002
 31
0.0
  0
LINE
  5
14DB4
  8
2-0
  6
CONTINUOUS
 62
     3
 10
27864.911226013792
 20
19330.481700000018
 30
0.0
 11
27858.9113050138
 21
19330.481700000018
 31
0.0
  0
LINE
  5
14DB5
  8
2-0
  6
CONTINUOUS
 62
     3
 10
27858.9113050138
 20
19330.481700000018
 30
0.0
 11
27858.9113050138
 21
19360.48526300002
 31
0.0
  0
LINE
  5
14DB6
  8
2-0
  6
CONTINUOUS
 62
     3
 10
26491.0015845138
 20
19348.485421000009
 30
0.0
 11
26491.0015845138
 21
19355.49093700002
 31
0.0
  0
LINE
  5
14DB7
  8
2-0
  6
CONTINUOUS
 62
     3
 10
26491.0015845138
 20
19355.49093700002
 30
0.0
 11
26486.00132051378
 21
19355.49093700002
 31
0.0
  0
LINE
  5
14DB8
  8
2-0
  6
CONTINUOUS
 62
     3
 10
26486.00132051378
 20
19355.49093700002
 30
0.0
 11
26486.00132051378
 21
19330.481700000018
 31
0.0
  0
LINE
  5
14DB9
  8
2-0
  6
CONTINUOUS
 62
     3
 10
26486.00132051378
 20
19330.481700000018
 30
0.0
 11
26504.0070215138
 21
19330.481700000018
 31
0.0
  0
LINE
  5
14DBA
  8
2-0
  6
CONTINUOUS
 62
     3
 10
26504.0070215138
 20
19330.481700000018
 30
0.0
 11
26504.0070215138
 21
19360.48526300002
 31
0.0
  0
LINE
  5
14DBB
  8
2-0
  6
CONTINUOUS
 62
     3
 10
26487.90957651379
 20
19330.481700000018
 30
0.0
 11
26493.911476513778
 21
19330.481700000018
 31
0.0
  0
LINE
  5
14DBC
  8
2-0
  6
CONTINUOUS
 62
     3
 10
26493.911476513778
 20
19330.481700000018
 30
0.0
 11
26493.911476513778
 21
19360.48526300002
 31
0.0
  0
LINE
  5
14DBD
  8
2-0
  6
CONTINUOUS
 62
     3
 10
26456.91229551379
 20
19360.48526300002
 30
0.0
 11
26493.911476513778
 21
19360.48526300002
 31
0.0
  0
LINE
  5
14DBE
  8
2-0
  6
CONTINUOUS
 62
     3
 10
26456.91229551379
 20
19330.481700000018
 30
0.0
 11
26456.91229551379
 21
19360.48526300002
 31
0.0
  0
LINE
  5
14DBF
  8
2-0
  6
CONTINUOUS
 62
     3
 10
26462.90627751379
 20
19330.481700000018
 30
0.0
 11
26456.91229551379
 21
19330.481700000018
 31
0.0
  0
LINE
  5
14DC0
  8
2-0
  6
CONTINUOUS
 62
     3
 10
26446.816750513801
 20
19330.481700000018
 30
0.0
 11
26446.816750513801
 21
19360.48526300002
 31
0.0
  0
LINE
  5
14DC1
  8
2-0
  6
CONTINUOUS
 62
     3
 10
26464.812553513791
 20
19330.481700000018
 30
0.0
 11
26446.816750513801
 21
19330.481700000018
 31
0.0
  0
LINE
  5
14DC2
  8
2-0
  6
CONTINUOUS
 62
     3
 10
26464.812553513791
 20
19355.49093700002
 30
0.0
 11
26464.812553513791
 21
19330.481700000018
 31
0.0
  0
LINE
  5
14DC3
  8
2-0
  6
CONTINUOUS
 62
     3
 10
26459.812289513779
 20
19355.49093700002
 30
0.0
 11
26464.812553513791
 21
19355.49093700002
 31
0.0
  0
LINE
  5
14DC4
  8
2-0
  6
CONTINUOUS
 62
     3
 10
26459.812289513779
 20
19348.485421000009
 30
0.0
 11
26459.812289513779
 21
19355.49093700002
 31
0.0
  0
LINE
  5
14DC5
  8
2-0
  6
CONTINUOUS
 62
     3
 10
27160.811300513789
 20
19348.485421000009
 30
0.0
 11
27160.811300513789
 21
19355.49093700002
 31
0.0
  0
LINE
  5
14DC6
  8
2-0
  6
CONTINUOUS
 62
     3
 10
27160.811300513789
 20
19355.49093700002
 30
0.0
 11
27165.811563513798
 21
19355.49093700002
 31
0.0
  0
LINE
  5
14DC7
  8
2-0
  6
CONTINUOUS
 62
     3
 10
27165.811563513798
 20
19355.49093700002
 30
0.0
 11
27165.811563513798
 21
19330.481700000018
 31
0.0
  0
LINE
  5
14DC8
  8
2-0
  6
CONTINUOUS
 62
     3
 10
27165.811563513798
 20
19330.481700000018
 30
0.0
 11
27147.817740513769
 21
19330.481700000018
 31
0.0
  0
LINE
  5
14DC9
  8
2-0
  6
CONTINUOUS
 62
     3
 10
27147.817740513769
 20
19330.481700000018
 30
0.0
 11
27147.817740513769
 21
19360.48526300002
 31
0.0
  0
LINE
  5
14DCA
  8
2-0
  6
CONTINUOUS
 62
     3
 10
27163.909246513769
 20
19330.481700000018
 30
0.0
 11
27157.91130551379
 21
19330.481700000018
 31
0.0
  0
LINE
  5
14DCB
  8
2-0
  6
CONTINUOUS
 62
     3
 10
27157.91130551379
 20
19330.481700000018
 30
0.0
 11
27157.91130551379
 21
19360.48526300002
 31
0.0
  0
LINE
  5
14DCC
  8
2-0
  6
CONTINUOUS
 62
     3
 10
27194.912466513801
 20
19360.48526300002
 30
0.0
 11
27157.91130551379
 21
19360.48526300002
 31
0.0
  0
LINE
  5
14DCD
  8
2-0
  6
CONTINUOUS
 62
     3
 10
27194.912466513801
 20
19330.481700000018
 30
0.0
 11
27194.912466513801
 21
19360.48526300002
 31
0.0
  0
LINE
  5
14DCE
  8
2-0
  6
CONTINUOUS
 62
     3
 10
27188.9066075138
 20
19330.481700000018
 30
0.0
 11
27194.912466513801
 21
19330.481700000018
 31
0.0
  0
LINE
  5
14DCF
  8
2-0
  6
CONTINUOUS
 62
     3
 10
27205.0060315138
 20
19330.481700000018
 30
0.0
 11
27205.0060315138
 21
19360.48526300002
 31
0.0
  0
LINE
  5
14DD0
  8
2-0
  6
CONTINUOUS
 62
     3
 10
27187.010228513791
 20
19330.481700000018
 30
0.0
 11
27205.0060315138
 21
19330.481700000018
 31
0.0
  0
LINE
  5
14DD1
  8
2-0
  6
CONTINUOUS
 62
     3
 10
27187.010228513791
 20
19355.49093700002
 30
0.0
 11
27187.010228513791
 21
19330.481700000018
 31
0.0
  0
LINE
  5
14DD2
  8
2-0
  6
CONTINUOUS
 62
     3
 10
27192.0005945138
 20
19355.49093700002
 30
0.0
 11
27187.010228513791
 21
19355.49093700002
 31
0.0
  0
LINE
  5
14DD3
  8
2-0
  6
CONTINUOUS
 62
     3
 10
27192.0005945138
 20
19348.485421000009
 30
0.0
 11
27192.0005945138
 21
19355.49093700002
 31
0.0
  0
LINE
  5
14DD4
  8
2-0
  6
CONTINUOUS
 62
     3
 10
26504.0070215138
 20
19360.48526300002
 30
0.0
 11
27147.817740513769
 21
19360.48526300002
 31
0.0
  0
LINE
  5
14DD5
  8
2-0
  6
CONTINUOUS
 62
     3
 10
25803.210912013801
 20
19360.48526300002
 30
0.0
 11
26446.816750513801
 21
19360.48526300002
 31
0.0
  0
LINE
  5
14DD6
  8
2-0
  6
CONTINUOUS
 62
     3
 10
28553.295516013801
 20
19360.48526300002
 30
0.0
 11
27906.009991013801
 21
19360.48526300002
 31
0.0
  0
LINE
  5
14DD7
  8
2-0
  6
CONTINUOUS
 62
     3
 10
27848.817740013801
 20
19360.48526300002
 30
0.0
 11
27205.0060315138
 21
19360.48526300002
 31
0.0
  0
LINE
  5
14DD8
  8
2-0
  6
CONTINUOUS
 62
     3
 10
25790.00356401379
 20
19348.485421000009
 30
0.0
 11
25790.00356401379
 21
19355.49093700002
 31
0.0
  0
LINE
  5
14DD9
  8
2-0
  6
CONTINUOUS
 62
     3
 10
25790.00356401379
 20
19355.49093700002
 30
0.0
 11
25785.003300013788
 21
19355.49093700002
 31
0.0
  0
LINE
  5
14DDA
  8
2-0
  6
CONTINUOUS
 62
     3
 10
25785.003300013788
 20
19355.49093700002
 30
0.0
 11
25785.003300013788
 21
19330.481700000018
 31
0.0
  0
LINE
  5
14DDB
  8
2-0
  6
CONTINUOUS
 62
     3
 10
25785.003300013788
 20
19330.481700000018
 30
0.0
 11
25803.0050420138
 21
19330.481700000018
 31
0.0
  0
LINE
  5
14DDC
  8
2-0
  6
CONTINUOUS
 62
     3
 10
25803.0050420138
 20
19330.481700000018
 30
0.0
 11
25803.0050420138
 21
19360.48526300002
 31
0.0
  0
LINE
  5
14DDD
  8
2-0
  6
CONTINUOUS
 62
     3
 10
25786.90561701381
 20
19330.481700000018
 30
0.0
 11
25792.909497013788
 21
19330.481700000018
 31
0.0
  0
LINE
  5
14DDE
  8
2-0
  6
CONTINUOUS
 62
     3
 10
25792.909497013788
 20
19330.481700000018
 30
0.0
 11
25792.909497013788
 21
19360.48526300002
 31
0.0
  0
LINE
  5
14DDF
  8
2-0
  6
CONTINUOUS
 62
     3
 10
25755.91427501378
 20
19360.48526300002
 30
0.0
 11
25792.909497013788
 21
19360.48526300002
 31
0.0
  0
LINE
  5
14DE0
  8
2-0
  6
CONTINUOUS
 62
     3
 10
25755.91427501378
 20
19330.481700000018
 30
0.0
 11
25755.91427501378
 21
19360.48526300002
 31
0.0
  0
LINE
  5
14DE1
  8
2-0
  6
CONTINUOUS
 62
     3
 10
25761.908257013802
 20
19330.481700000018
 30
0.0
 11
25755.91427501378
 21
19330.481700000018
 31
0.0
  0
LINE
  5
14DE2
  8
2-0
  6
CONTINUOUS
 62
     3
 10
25745.818730013802
 20
19330.481700000018
 30
0.0
 11
25745.818730013802
 21
19360.48526300002
 31
0.0
  0
LINE
  5
14DE3
  8
2-0
  6
CONTINUOUS
 62
     3
 10
25763.81453301381
 20
19330.481700000018
 30
0.0
 11
25745.818730013802
 21
19330.481700000018
 31
0.0
  0
LINE
  5
14DE4
  8
2-0
  6
CONTINUOUS
 62
     3
 10
25763.81453301381
 20
19355.49093700002
 30
0.0
 11
25763.81453301381
 21
19330.481700000018
 31
0.0
  0
LINE
  5
14DE5
  8
2-0
  6
CONTINUOUS
 62
     3
 10
25758.816249013798
 20
19355.49093700002
 30
0.0
 11
25763.81453301381
 21
19355.49093700002
 31
0.0
  0
LINE
  5
14DE6
  8
2-0
  6
CONTINUOUS
 62
     3
 10
25758.816249013798
 20
19348.485421000009
 30
0.0
 11
25758.816249013798
 21
19355.49093700002
 31
0.0
  0
LINE
  5
14DE7
  8
2-0
  6
CONTINUOUS
 62
     3
 10
25449.71712801377
 20
19360.48526300002
 30
0.0
 11
25745.818730013802
 21
19360.48526300002
 31
0.0
  0
LINE
  5
14DE8
  8
2-0
  6
CONTINUOUS
 62
     3
 10
28677.91017001378
 20
15263.126415000021
 30
0.0
 11
28677.91017001378
 21
14619.087557000021
 31
0.0
  0
LINE
  5
14DE9
  8
2-0
  6
CONTINUOUS
 62
     3
 10
28677.91017001378
 20
14561.89134700001
 30
0.0
 11
28677.91017001378
 21
13915.024985000009
 31
0.0
  0
LINE
  5
14DEA
  8
0-6
  6
CONTINUOUS
 62
     6
 10
25718.23614451379
 20
18649.16703500002
 30
0.0
 11
26743.27639451381
 21
18649.16703500002
 31
0.0
  0
LINE
  5
14DEB
  8
0-6
  6
CONTINUOUS
 62
     6
 10
27043.2011725138
 20
19206.520287000028
 30
0.0
 11
27147.816750513801
 21
19330.481700000018
 31
0.0
  0
LINE
  5
14DEC
  8
0-6
  6
CONTINUOUS
 62
     6
 10
27147.816750513801
 20
19330.481700000018
 30
0.0
 11
27089.058700513779
 21
19179.290030000018
 31
0.0
  0
LINE
  5
14DED
  8
0-6
  6
CONTINUOUS
 62
     6
 10
27147.816750513801
 20
19330.481700000018
 30
0.0
 11
27043.2011725138
 21
19206.520287000028
 31
0.0
  0
LINE
  5
14DEE
  8
0-6
  6
CONTINUOUS
 62
     6
 10
27043.2011725138
 20
19206.520287000028
 30
0.0
 11
27089.058700513779
 21
19179.290030000018
 31
0.0
  0
LINE
  5
14DEF
  8
0-6
  6
CONTINUOUS
 62
     6
 10
27089.058700513779
 20
19179.290030000018
 30
0.0
 11
27147.816750513801
 21
19330.481700000018
 31
0.0
  0
LINE
  5
14DF0
  8
0-6
  6
CONTINUOUS
 62
     6
 10
27089.058700513779
 20
19179.290030000018
 30
0.0
 11
27043.2011725138
 21
19206.520287000028
 31
0.0
  0
LINE
  5
14DF1
  8
0-6
  6
CONTINUOUS
 62
     6
 10
27066.1299365138
 20
19192.90713800002
 30
0.0
 11
26743.27639451381
 21
18649.16703500002
 31
0.0
  0
TEXT
  5
14DF2
  8
0-6
  6
CONTINUOUS
 62
     7
 10
25798.2364085138
 20
18729.16927900002
 30
0.0
 40
160.0
  1
間柱（後）
 72
     4
 11
26219.569741847132
 21
18809.16927900002
 31
0.0
  0
LINE
  5
14DF3
  8
SUNPOU
  6
CONTINUOUS
 62
     4
 10
28757.91017001378
 20
18910.486978000001
 30
0.0
 11
29807.911490013779
 21
18910.48697799999
 31
0.0
  0
LINE
  5
14DF4
  8
SUNPOU
  6
CONTINUOUS
 62
     4
 10
29607.911490013779
 20
19317.986978000012
 30
0.0
 11
29807.911490013779
 21
19317.98697799999
 31
0.0
  0
LINE
  5
14DF5
  8
SUNPOU
  6
CONTINUOUS
 62
     4
 10
29727.911490013779
 20
18910.48697799999
 30
0.0
 11
29727.911490013779
 21
19317.98697799999
 31
0.0
  0
LINE
  5
14DF6
  8
SUNPOU
  6
CONTINUOUS
 62
     4
 10
25366.911886013801
 20
13832.486978000001
 30
0.0
 11
25366.911886013801
 21
12781.038893999999
 31
0.0
  0
LINE
  5
14DF7
  8
SUNPOU
  6
CONTINUOUS
 62
     4
 10
25324.409643013802
 20
13709.989683000011
 30
0.0
 11
25324.409643013802
 21
12781.038893999999
 31
0.0
  0
LINE
  5
14DF8
  8
SUNPOU
  6
CONTINUOUS
 62
     4
 10
25366.911886013801
 20
12861.03889400001
 30
0.0
 11
25606.911886013801
 21
12861.03889400001
 31
0.0
  0
LINE
  5
14DF9
  8
SUNPOU
  6
CONTINUOUS
 62
     4
 10
25324.409643013802
 20
12861.03889400001
 30
0.0
 11
25084.409643013802
 21
12861.03889400001
 31
0.0
  0
LINE
  5
14DFA
  8
SUNPOU
  6
CONTINUOUS
 62
     4
 10
25366.911886013801
 20
12861.03889400001
 30
0.0
 11
25324.409643013802
 21
12861.03889400001
 31
0.0
  0
LINE
  5
14DFB
  8
SUNPOU
  6
CONTINUOUS
 62
     4
 10
28635.411886013801
 20
13832.486978000001
 30
0.0
 11
28635.411886013801
 21
12781.038893999999
 31
0.0
  0
LINE
  5
14DFC
  8
SUNPOU
  6
CONTINUOUS
 62
     4
 10
28677.914129013789
 20
13709.989683000011
 30
0.0
 11
28677.914129013789
 21
12781.038893999999
 31
0.0
  0
LINE
  5
14DFD
  8
SUNPOU
  6
CONTINUOUS
 62
     4
 10
28635.411886013801
 20
12861.03889400001
 30
0.0
 11
28395.411886013801
 21
12861.03889400001
 31
0.0
  0
LINE
  5
14DFE
  8
SUNPOU
  6
CONTINUOUS
 62
     4
 10
28677.914129013789
 20
12861.03889400001
 30
0.0
 11
28917.914129013789
 21
12861.03889400001
 31
0.0
  0
LINE
  5
14DFF
  8
SUNPOU
  6
CONTINUOUS
 62
     4
 10
28635.411886013801
 20
12861.03889400001
 30
0.0
 11
28677.914129013789
 21
12861.03889400001
 31
0.0
  0
LINE
  5
14E00
  8
SUNPOU
  6
CONTINUOUS
 62
     4
 10
28635.411886013801
 20
13832.486978000001
 30
0.0
 11
28635.411886013801
 21
12781.038893999999
 31
0.0
  0
LINE
  5
14E01
  8
SUNPOU
  6
CONTINUOUS
 62
     4
 10
28592.909643013791
 20
13709.989683000011
 30
0.0
 11
28592.909643013791
 21
12781.038893999999
 31
0.0
  0
LINE
  5
14E02
  8
SUNPOU
  6
CONTINUOUS
 62
     4
 10
28635.411886013801
 20
12861.03889400001
 30
0.0
 11
28875.411886013801
 21
12861.03889400001
 31
0.0
  0
LINE
  5
14E03
  8
SUNPOU
  6
CONTINUOUS
 62
     4
 10
28592.909643013791
 20
12861.03889400001
 30
0.0
 11
28352.909643013791
 21
12861.03889400001
 31
0.0
  0
LINE
  5
14E04
  8
SUNPOU
  6
CONTINUOUS
 62
     4
 10
28635.411886013801
 20
12861.03889400001
 30
0.0
 11
28592.909643013791
 21
12861.03889400001
 31
0.0
  0
LINE
  5
14E05
  8
SUNPOU
  6
CONTINUOUS
 62
     4
 10
25366.911886013801
 20
13832.486978000001
 30
0.0
 11
25366.911886013801
 21
12781.038893999999
 31
0.0
  0
LINE
  5
14E06
  8
SUNPOU
  6
CONTINUOUS
 62
     4
 10
25409.414129013781
 20
13709.989683000011
 30
0.0
 11
25409.414129013781
 21
12781.038893999999
 31
0.0
  0
LINE
  5
14E07
  8
SUNPOU
  6
CONTINUOUS
 62
     4
 10
25366.911886013801
 20
12861.03889400001
 30
0.0
 11
25126.911886013801
 21
12861.03889400001
 31
0.0
  0
LINE
  5
14E08
  8
SUNPOU
  6
CONTINUOUS
 62
     4
 10
25409.414129013781
 20
12861.03889400001
 30
0.0
 11
25649.414129013781
 21
12861.03889400001
 31
0.0
  0
LINE
  5
14E09
  8
SUNPOU
  6
CONTINUOUS
 62
     4
 10
25366.911886013801
 20
12861.03889400001
 30
0.0
 11
25409.414129013781
 21
12861.03889400001
 31
0.0
  0
LINE
  5
14E0A
  8
SUNPOU
  6
CONTINUOUS
 62
     4
 10
25324.409643013802
 20
13709.989683000011
 30
0.0
 11
25324.409643013802
 21
12381.038893999999
 31
0.0
  0
LINE
  5
14E0B
  8
SUNPOU
  6
CONTINUOUS
 62
     4
 10
28677.914129013789
 20
13709.989683000011
 30
0.0
 11
28677.914129013789
 21
12381.038893999999
 31
0.0
  0
LINE
  5
14E0C
  8
SUNPOU
  6
CONTINUOUS
 62
     4
 10
25324.409643013802
 20
12461.038893999999
 30
0.0
 11
28677.914129013789
 21
12461.038893999999
 31
0.0
  0
LINE
  5
14E0D
  8
SUNPOU
  6
CONTINUOUS
 62
     4
 10
28757.91017001378
 20
14590.48697800001
 30
0.0
 11
29807.911490013779
 21
14590.48697800001
 31
0.0
  0
LINE
  5
14E0E
  8
SUNPOU
  6
CONTINUOUS
 62
     4
 10
29607.911490013779
 20
13832.486978000001
 30
0.0
 11
29807.911490013779
 21
13832.486978000001
 31
0.0
  0
LINE
  5
14E0F
  8
SUNPOU
  6
CONTINUOUS
 62
     4
 10
29727.911490013779
 20
14590.48697800001
 30
0.0
 11
29727.911490013779
 21
13832.486978000001
 31
0.0
  0
LINE
  5
14E10
  8
SUNPOU
  6
CONTINUOUS
 62
     4
 10
28757.91017001378
 20
15291.72748950003
 30
0.0
 11
29807.911490013779
 21
15291.72748950003
 31
0.0
  0
LINE
  5
14E11
  8
SUNPOU
  6
CONTINUOUS
 62
     4
 10
28757.91017001378
 20
14590.48697800001
 30
0.0
 11
29807.911490013779
 21
14590.48697800001
 31
0.0
  0
LINE
  5
14E12
  8
SUNPOU
  6
CONTINUOUS
 62
     4
 10
29727.911490013779
 20
15291.72748950003
 30
0.0
 11
29727.911490013779
 21
14590.48697800001
 31
0.0
  0
LINE
  5
14E13
  8
SUNPOU
  6
CONTINUOUS
 62
     4
 10
28757.91017001378
 20
15992.48697800001
 30
0.0
 11
29807.911490013779
 21
15992.48697800001
 31
0.0
  0
LINE
  5
14E14
  8
SUNPOU
  6
CONTINUOUS
 62
     4
 10
28757.91017001378
 20
15291.72748950003
 30
0.0
 11
29807.911490013779
 21
15291.72748950003
 31
0.0
  0
LINE
  5
14E15
  8
SUNPOU
  6
CONTINUOUS
 62
     4
 10
29727.911490013779
 20
15992.48697800001
 30
0.0
 11
29727.911490013779
 21
15291.72748950003
 31
0.0
  0
LINE
  5
14E16
  8
SUNPOU
  6
CONTINUOUS
 62
     4
 10
29607.911490013779
 20
16750.486978000012
 30
0.0
 11
29807.911490013779
 21
16750.486978000012
 31
0.0
  0
LINE
  5
14E17
  8
SUNPOU
  6
CONTINUOUS
 62
     4
 10
28757.91017001378
 20
15992.48697800001
 30
0.0
 11
29807.911490013779
 21
15992.48697800001
 31
0.0
  0
LINE
  5
14E18
  8
SUNPOU
  6
CONTINUOUS
 62
     4
 10
29727.911490013779
 20
16750.486978000012
 30
0.0
 11
29727.911490013779
 21
15992.48697800001
 31
0.0
  0
LINE
  5
14E19
  8
SUNPOU
  6
CONTINUOUS
 62
     4
 10
28757.91017001378
 20
17508.486978000012
 30
0.0
 11
29807.911490013779
 21
17508.48697799999
 31
0.0
  0
LINE
  5
14E1A
  8
SUNPOU
  6
CONTINUOUS
 62
     4
 10
29607.911490013779
 20
16750.486978000012
 30
0.0
 11
29807.911490013779
 21
16750.486978000012
 31
0.0
  0
LINE
  5
14E1B
  8
SUNPOU
  6
CONTINUOUS
 62
     4
 10
29727.911490013779
 20
17508.48697799999
 30
0.0
 11
29727.911490013779
 21
16750.486978000012
 31
0.0
  0
LINE
  5
14E1C
  8
SUNPOU
  6
CONTINUOUS
 62
     4
 10
28757.91017001378
 20
18209.486978000012
 30
0.0
 11
29807.911490013779
 21
18209.486978000001
 31
0.0
  0
LINE
  5
14E1D
  8
SUNPOU
  6
CONTINUOUS
 62
     4
 10
28757.91017001378
 20
17508.486978000012
 30
0.0
 11
29807.911490013779
 21
17508.48697799999
 31
0.0
  0
LINE
  5
14E1E
  8
SUNPOU
  6
CONTINUOUS
 62
     4
 10
29727.911490013779
 20
18209.486978000001
 30
0.0
 11
29727.911490013779
 21
17508.48697799999
 31
0.0
  0
LINE
  5
14E1F
  8
SUNPOU
  6
CONTINUOUS
 62
     4
 10
28757.91017001378
 20
18910.486978000001
 30
0.0
 11
29807.911490013779
 21
18910.48697799999
 31
0.0
  0
LINE
  5
14E20
  8
SUNPOU
  6
CONTINUOUS
 62
     4
 10
28757.91017001378
 20
18209.486978000012
 30
0.0
 11
29807.911490013779
 21
18209.486978000001
 31
0.0
  0
LINE
  5
14E21
  8
SUNPOU
  6
CONTINUOUS
 62
     4
 10
29727.911490013779
 20
18910.48697799999
 30
0.0
 11
29727.911490013779
 21
18209.486978000001
 31
0.0
  0
LINE
  5
14E22
  8
SUNPOU
  6
CONTINUOUS
 62
     4
 10
29607.911490013779
 20
19317.986978000012
 30
0.0
 11
29807.911490013779
 21
19317.98697799999
 31
0.0
  0
LINE
  5
14E23
  8
SUNPOU
  6
CONTINUOUS
 62
     4
 10
29607.911490013779
 20
13832.486978000001
 30
0.0
 11
29807.911490013779
 21
13832.486978000001
 31
0.0
  0
LINE
  5
14E24
  8
SUNPOU
  6
CONTINUOUS
 62
     4
 10
28757.91017001378
 20
19360.484273000009
 30
0.0
 11
30207.91149001379
 21
19360.484273000009
 31
0.0
  0
LINE
  5
14E25
  8
SUNPOU
  6
CONTINUOUS
 62
     4
 10
28757.91017001378
 20
13789.989683000011
 30
0.0
 11
30207.91149001379
 21
13789.989683000011
 31
0.0
  0
LINE
  5
14E26
  8
SUNPOU
  6
CONTINUOUS
 62
     4
 10
30127.91149001379
 20
19360.484273000009
 30
0.0
 11
30127.91149001379
 21
13789.989683000011
 31
0.0
  0
LINE
  5
14E27
  8
SUNPOU
  6
CONTINUOUS
 62
     4
 10
29607.911490013779
 20
19317.986978000012
 30
0.0
 11
29807.911490013779
 21
19317.98697799999
 31
0.0
  0
LINE
  5
14E28
  8
SUNPOU
  6
CONTINUOUS
 62
     4
 10
28757.91017001378
 20
19360.484273000009
 30
0.0
 11
29807.911490013779
 21
19360.484273000009
 31
0.0
  0
LINE
  5
14E29
  8
SUNPOU
  6
CONTINUOUS
 62
     4
 10
29727.911490013779
 20
19317.98697799999
 30
0.0
 11
29727.911490013779
 21
19077.98697799999
 31
0.0
  0
LINE
  5
14E2A
  8
SUNPOU
  6
CONTINUOUS
 62
     4
 10
29727.911490013779
 20
19360.484273000009
 30
0.0
 11
29727.911490013779
 21
19600.484273000009
 31
0.0
  0
LINE
  5
14E2B
  8
SUNPOU
  6
CONTINUOUS
 62
     4
 10
29727.911490013779
 20
19317.98697799999
 30
0.0
 11
29727.911490013779
 21
19360.484273000009
 31
0.0
  0
LINE
  5
14E2C
  8
SUNPOU
  6
CONTINUOUS
 62
     4
 10
29607.911490013779
 20
13832.486978000001
 30
0.0
 11
29807.911490013779
 21
13832.486978000001
 31
0.0
  0
LINE
  5
14E2D
  8
SUNPOU
  6
CONTINUOUS
 62
     4
 10
28757.91017001378
 20
13789.989683000011
 30
0.0
 11
29807.911490013779
 21
13789.989683000011
 31
0.0
  0
LINE
  5
14E2E
  8
SUNPOU
  6
CONTINUOUS
 62
     4
 10
29727.911490013779
 20
13832.486978000001
 30
0.0
 11
29727.911490013779
 21
14072.486978000001
 31
0.0
  0
LINE
  5
14E2F
  8
SUNPOU
  6
CONTINUOUS
 62
     4
 10
29727.911490013779
 20
13789.989683000011
 30
0.0
 11
29727.911490013779
 21
13549.989683000011
 31
0.0
  0
LINE
  5
14E30
  8
SUNPOU
  6
CONTINUOUS
 62
     4
 10
29727.911490013779
 20
13832.486978000001
 30
0.0
 11
29727.911490013779
 21
13789.989683000011
 31
0.0
  0
TEXT
  5
14E31
  8
0
  6
CONTINUOUS
 62
     7
 10
29647.911490013779
 20
13216.433446603211
 30
0.0
 40
160.0
  1
42.5
 50
90.0
  0
TEXT
  5
14E32
  8
0
  6
CONTINUOUS
 62
     7
 10
29647.911490013779
 20
19454.0405093968
 30
0.0
 40
160.0
  1
42.5
 50
90.0
  0
TEXT
  5
14E33
  8
0
  6
CONTINUOUS
 62
     7
 10
30047.91149001379
 20
16188.570311333349
 30
0.0
 40
160.0
  1
5570.5
 50
90.0
  0
TEXT
  5
14E34
  8
0
  6
CONTINUOUS
 62
     7
 10
29647.911490013779
 20
18386.65364466668
 30
0.0
 40
160.0
  1
701
 50
90.0
  0
TEXT
  5
14E35
  8
0
  6
CONTINUOUS
 62
     7
 10
29647.911490013779
 20
17685.65364466668
 30
0.0
 40
160.0
  1
701
 50
90.0
  0
TEXT
  5
14E36
  8
0
  6
CONTINUOUS
 62
     7
 10
29647.911490013779
 20
16916.15364466668
 30
0.0
 40
160.0
  1
758
 50
90.0
  0
TEXT
  5
14E37
  8
0
  6
CONTINUOUS
 62
     7
 10
29647.911490013779
 20
16158.15364466668
 30
0.0
 40
160.0
  1
758
 50
90.0
  0
TEXT
  5
14E38
  8
0
  6
CONTINUOUS
 62
     7
 10
29647.911490013779
 20
15468.773900416691
 30
0.0
 40
160.0
  1
701
 50
90.0
  0
TEXT
  5
14E39
  8
0
  6
CONTINUOUS
 62
     7
 10
29647.911490013779
 20
14767.773900416691
 30
0.0
 40
160.0
  1
701
 50
90.0
  0
TEXT
  5
14E3A
  8
0
  6
CONTINUOUS
 62
     7
 10
29647.911490013779
 20
13998.153644666671
 30
0.0
 40
160.0
  1
758
 50
90.0
  0
TEXT
  5
14E3B
  8
0
  6
CONTINUOUS
 62
     7
 10
26601.16188601379
 20
12541.038893999999
 30
0.0
 40
160.0
  1
3353.5
  0
TEXT
  5
14E3C
  8
0
  6
CONTINUOUS
 62
     7
 10
25484.96555839587
 20
12941.03889400001
 30
0.0
 40
160.0
  1
42.5
  0
TEXT
  5
14E3D
  8
0
  6
CONTINUOUS
 62
     7
 10
28037.358213631702
 20
12941.03889400001
 30
0.0
 40
160.0
  1
42.5
  0
TEXT
  5
14E3E
  8
0
  6
CONTINUOUS
 62
     7
 10
28753.465558395881
 20
12941.03889400001
 30
0.0
 40
160.0
  1
42.5
  0
TEXT
  5
14E3F
  8
0
  6
CONTINUOUS
 62
     7
 10
24768.858213631702
 20
12941.03889400001
 30
0.0
 40
160.0
  1
42.5
  0
TEXT
  5
14E40
  8
0
  6
CONTINUOUS
 62
     7
 10
30007.911490013779
 20
18619.864945643221
 30
0.0
 40
160.0
  1
407.5
 50
90.0
  0
ARC
  5
14E41
  8
0
  6
BYBLOCK
 62
     0
 10
29727.911490013779
 20
18910.48697799999
 30
0.0
 40
15.0
 50
90.0
 51
270.0
  0
ARC
  5
14E42
  8
0
  6
BYBLOCK
 62
     0
 10
29727.911490013779
 20
18910.48697799999
 30
0.0
 40
15.0
 50
270.0
 51
90.0
  0
ARC
  5
14E43
  8
0
  6
BYBLOCK
 62
     0
 10
29727.911490013779
 20
19317.98697799999
 30
0.0
 40
15.0
 50
270.0
 51
90.0
  0
ARC
  5
14E44
  8
0
  6
BYBLOCK
 62
     0
 10
29727.911490013779
 20
19317.98697799999
 30
0.0
 40
15.0
 50
90.0
 51
270.0
  0
ARC
  5
14E45
  8
0
  6
BYBLOCK
 62
     0
 10
25366.911886013801
 20
12861.03889400001
 30
0.0
 40
15.0
 50
0.0
 51
180.0
  0
ARC
  5
14E46
  8
0
  6
BYBLOCK
 62
     0
 10
25366.911886013801
 20
12861.03889400001
 30
0.0
 40
15.0
 50
180.0
 51
0.0
  0
ARC
  5
14E47
  8
0
  6
BYBLOCK
 62
     0
 10
25324.409643013802
 20
12861.03889400001
 30
0.0
 40
15.0
 50
180.0
 51
0.0
  0
ARC
  5
14E48
  8
0
  6
BYBLOCK
 62
     0
 10
25324.409643013802
 20
12861.03889400001
 30
0.0
 40
15.0
 50
0.0
 51
180.0
  0
ARC
  5
14E49
  8
0
  6
BYBLOCK
 62
     0
 10
28635.411886013801
 20
12861.03889400001
 30
0.0
 40
15.0
 50
180.0
 51
0.0
  0
ARC
  5
14E4A
  8
0
  6
BYBLOCK
 62
     0
 10
28635.411886013801
 20
12861.03889400001
 30
0.0
 40
15.0
 50
0.0
 51
180.0
  0
ARC
  5
14E4B
  8
0
  6
BYBLOCK
 62
     0
 10
28677.914129013789
 20
12861.03889400001
 30
0.0
 40
15.0
 50
0.0
 51
180.0
  0
ARC
  5
14E4C
  8
0
  6
BYBLOCK
 62
     0
 10
28677.914129013789
 20
12861.03889400001
 30
0.0
 40
15.0
 50
180.0
 51
0.0
  0
ARC
  5
14E4D
  8
0
  6
BYBLOCK
 62
     0
 10
28635.411886013801
 20
12861.03889400001
 30
0.0
 40
15.0
 50
0.0
 51
180.0
  0
ARC
  5
14E4E
  8
0
  6
BYBLOCK
 62
     0
 10
28635.411886013801
 20
12861.03889400001
 30
0.0
 40
15.0
 50
180.0
 51
0.0
  0
ARC
  5
14E4F
  8
0
  6
BYBLOCK
 62
     0
 10
28592.909643013791
 20
12861.03889400001
 30
0.0
 40
15.0
 50
180.0
 51
0.0
  0
ARC
  5
14E50
  8
0
  6
BYBLOCK
 62
     0
 10
28592.909643013791
 20
12861.03889400001
 30
0.0
 40
15.0
 50
0.0
 51
180.0
  0
ARC
  5
14E51
  8
0
  6
BYBLOCK
 62
     0
 10
25366.911886013801
 20
12861.03889400001
 30
0.0
 40
15.0
 50
180.0
 51
0.0
  0
ARC
  5
14E52
  8
0
  6
BYBLOCK
 62
     0
 10
25366.911886013801
 20
12861.03889400001
 30
0.0
 40
15.0
 50
0.0
 51
180.0
  0
ARC
  5
14E53
  8
0
  6
BYBLOCK
 62
     0
 10
25409.414129013781
 20
12861.03889400001
 30
0.0
 40
15.0
 50
0.0
 51
180.0
  0
ARC
  5
14E54
  8
0
  6
BYBLOCK
 62
     0
 10
25409.414129013781
 20
12861.03889400001
 30
0.0
 40
15.0
 50
180.0
 51
0.0
  0
ARC
  5
14E55
  8
0
  6
BYBLOCK
 62
     0
 10
25324.409643013802
 20
12461.038893999999
 30
0.0
 40
15.0
 50
0.0
 51
180.0
  0
ARC
  5
14E56
  8
0
  6
BYBLOCK
 62
     0
 10
25324.409643013802
 20
12461.038893999999
 30
0.0
 40
15.0
 50
180.0
 51
0.0
  0
ARC
  5
14E57
  8
0
  6
BYBLOCK
 62
     0
 10
28677.914129013789
 20
12461.038893999999
 30
0.0
 40
15.0
 50
180.0
 51
0.0
  0
ARC
  5
14E58
  8
0
  6
BYBLOCK
 62
     0
 10
28677.914129013789
 20
12461.038893999999
 30
0.0
 40
15.0
 50
0.0
 51
180.0
  0
ARC
  5
14E59
  8
0
  6
BYBLOCK
 62
     0
 10
29727.911490013779
 20
14590.48697800001
 30
0.0
 40
15.0
 50
270.0
 51
90.0
  0
ARC
  5
14E5A
  8
0
  6
BYBLOCK
 62
     0
 10
29727.911490013779
 20
14590.48697800001
 30
0.0
 40
15.0
 50
90.0
 51
270.0
  0
ARC
  5
14E5B
  8
0
  6
BYBLOCK
 62
     0
 10
29727.911490013779
 20
13832.486978000001
 30
0.0
 40
15.0
 50
90.0
 51
270.0
  0
ARC
  5
14E5C
  8
0
  6
BYBLOCK
 62
     0
 10
29727.911490013779
 20
13832.486978000001
 30
0.0
 40
15.0
 50
270.0
 51
90.0
  0
ARC
  5
14E5D
  8
0
  6
BYBLOCK
 62
     0
 10
29727.911490013779
 20
15291.72748950003
 30
0.0
 40
15.0
 50
270.0
 51
90.0
  0
ARC
  5
14E5E
  8
0
  6
BYBLOCK
 62
     0
 10
29727.911490013779
 20
15291.72748950003
 30
0.0
 40
15.0
 50
90.0
 51
270.0
  0
ARC
  5
14E5F
  8
0
  6
BYBLOCK
 62
     0
 10
29727.911490013779
 20
14590.48697800001
 30
0.0
 40
15.0
 50
90.0
 51
270.0
  0
ARC
  5
14E60
  8
0
  6
BYBLOCK
 62
     0
 10
29727.911490013779
 20
14590.48697800001
 30
0.0
 40
15.0
 50
270.0
 51
90.0
  0
ARC
  5
14E61
  8
0
  6
BYBLOCK
 62
     0
 10
29727.911490013779
 20
15992.48697800001
 30
0.0
 40
15.0
 50
270.0
 51
90.0
  0
ARC
  5
14E62
  8
0
  6
BYBLOCK
 62
     0
 10
29727.911490013779
 20
15992.48697800001
 30
0.0
 40
15.0
 50
90.0
 51
270.0
  0
ARC
  5
14E63
  8
0
  6
BYBLOCK
 62
     0
 10
29727.911490013779
 20
15291.72748950003
 30
0.0
 40
15.0
 50
90.0
 51
270.0
  0
ARC
  5
14E64
  8
0
  6
BYBLOCK
 62
     0
 10
29727.911490013779
 20
15291.72748950003
 30
0.0
 40
15.0
 50
270.0
 51
90.0
  0
ARC
  5
14E65
  8
0
  6
BYBLOCK
 62
     0
 10
29727.911490013779
 20
16750.486978000012
 30
0.0
 40
15.0
 50
270.0
 51
90.0
  0
ARC
  5
14E66
  8
0
  6
BYBLOCK
 62
     0
 10
29727.911490013779
 20
16750.486978000012
 30
0.0
 40
15.0
 50
90.0
 51
270.0
  0
ARC
  5
14E67
  8
0
  6
BYBLOCK
 62
     0
 10
29727.911490013779
 20
15992.48697800001
 30
0.0
 40
15.0
 50
90.0
 51
270.0
  0
ARC
  5
14E68
  8
0
  6
BYBLOCK
 62
     0
 10
29727.911490013779
 20
15992.48697800001
 30
0.0
 40
15.0
 50
270.0
 51
90.0
  0
ARC
  5
14E69
  8
0
  6
BYBLOCK
 62
     0
 10
29727.911490013779
 20
17508.48697799999
 30
0.0
 40
15.0
 50
270.0
 51
90.0
  0
ARC
  5
14E6A
  8
0
  6
BYBLOCK
 62
     0
 10
29727.911490013779
 20
17508.48697799999
 30
0.0
 40
15.0
 50
90.0
 51
270.0
  0
ARC
  5
14E6B
  8
0
  6
BYBLOCK
 62
     0
 10
29727.911490013779
 20
16750.486978000012
 30
0.0
 40
15.0
 50
90.0
 51
270.0
  0
ARC
  5
14E6C
  8
0
  6
BYBLOCK
 62
     0
 10
29727.911490013779
 20
16750.486978000012
 30
0.0
 40
15.0
 50
270.0
 51
90.0
  0
ARC
  5
14E6D
  8
0
  6
BYBLOCK
 62
     0
 10
29727.911490013779
 20
18209.486978000001
 30
0.0
 40
15.0
 50
270.0
 51
90.0
  0
ARC
  5
14E6E
  8
0
  6
BYBLOCK
 62
     0
 10
29727.911490013779
 20
18209.486978000001
 30
0.0
 40
15.0
 50
90.0
 51
270.0
  0
ARC
  5
14E6F
  8
0
  6
BYBLOCK
 62
     0
 10
29727.911490013779
 20
17508.48697799999
 30
0.0
 40
15.0
 50
90.0
 51
270.0
  0
ARC
  5
14E70
  8
0
  6
BYBLOCK
 62
     0
 10
29727.911490013779
 20
17508.48697799999
 30
0.0
 40
15.0
 50
270.0
 51
90.0
  0
ARC
  5
14E71
  8
0
  6
BYBLOCK
 62
     0
 10
29727.911490013779
 20
18910.48697799999
 30
0.0
 40
15.0
 50
270.0
 51
90.0
  0
ARC
  5
14E72
  8
0
  6
BYBLOCK
 62
     0
 10
29727.911490013779
 20
18910.48697799999
 30
0.0
 40
15.0
 50
90.0
 51
270.0
  0
ARC
  5
14E73
  8
0
  6
BYBLOCK
 62
     0
 10
29727.911490013779
 20
18209.486978000001
 30
0.0
 40
15.0
 50
90.0
 51
270.0
  0
ARC
  5
14E74
  8
0
  6
BYBLOCK
 62
     0
 10
29727.911490013779
 20
18209.486978000001
 30
0.0
 40
15.0
 50
270.0
 51
90.0
  0
ARC
  5
14E75
  8
0
  6
BYBLOCK
 62
     0
 10
29727.911490013779
 20
19317.98697799999
 30
0.0
 40
15.0
 50
270.0
 51
90.0
  0
ARC
  5
14E76
  8
0
  6
BYBLOCK
 62
     0
 10
29727.911490013779
 20
19317.98697799999
 30
0.0
 40
15.0
 50
90.0
 51
270.0
  0
ARC
  5
14E77
  8
0
  6
BYBLOCK
 62
     0
 10
29727.911490013779
 20
13832.486978000001
 30
0.0
 40
15.0
 50
90.0
 51
270.0
  0
ARC
  5
14E78
  8
0
  6
BYBLOCK
 62
     0
 10
29727.911490013779
 20
13832.486978000001
 30
0.0
 40
15.0
 50
270.0
 51
90.0
  0
ARC
  5
14E79
  8
0
  6
BYBLOCK
 62
     0
 10
30127.91149001379
 20
19360.484273000009
 30
0.0
 40
15.0
 50
270.0
 51
90.0
  0
ARC
  5
14E7A
  8
0
  6
BYBLOCK
 62
     0
 10
30127.91149001379
 20
19360.484273000009
 30
0.0
 40
15.0
 50
90.0
 51
270.0
  0
ARC
  5
14E7B
  8
0
  6
BYBLOCK
 62
     0
 10
30127.91149001379
 20
13789.989683000011
 30
0.0
 40
15.0
 50
90.0
 51
270.0
  0
ARC
  5
14E7C
  8
0
  6
BYBLOCK
 62
     0
 10
30127.91149001379
 20
13789.989683000011
 30
0.0
 40
15.0
 50
270.0
 51
90.0
  0
ARC
  5
14E7D
  8
0
  6
BYBLOCK
 62
     0
 10
29727.911490013779
 20
19317.98697799999
 30
0.0
 40
15.0
 50
270.0
 51
90.0
  0
ARC
  5
14E7E
  8
0
  6
BYBLOCK
 62
     0
 10
29727.911490013779
 20
19317.98697799999
 30
0.0
 40
15.0
 50
90.0
 51
270.0
  0
ARC
  5
14E7F
  8
0
  6
BYBLOCK
 62
     0
 10
29727.911490013779
 20
19360.484273000009
 30
0.0
 40
15.0
 50
90.0
 51
270.0
  0
ARC
  5
14E80
  8
0
  6
BYBLOCK
 62
     0
 10
29727.911490013779
 20
19360.484273000009
 30
0.0
 40
15.0
 50
270.0
 51
90.0
  0
ARC
  5
14E81
  8
0
  6
BYBLOCK
 62
     0
 10
29727.911490013779
 20
13832.486978000001
 30
0.0
 40
15.0
 50
90.0
 51
270.0
  0
ARC
  5
14E82
  8
0
  6
BYBLOCK
 62
     0
 10
29727.911490013779
 20
13832.486978000001
 30
0.0
 40
15.0
 50
270.0
 51
90.0
  0
ARC
  5
14E83
  8
0
  6
BYBLOCK
 62
     0
 10
29727.911490013779
 20
13789.989683000011
 30
0.0
 40
15.0
 50
270.0
 51
90.0
  0
ARC
  5
14E84
  8
0
  6
BYBLOCK
 62
     0
 10
29727.911490013779
 20
13789.989683000011
 30
0.0
 40
15.0
 50
90.0
 51
270.0
  0
TEXT
  5
14F8D
  8
FILENAME
  6
CONTINUOUS
 10
26518.285714285721
 20
348.0
 30
0.0
 40
200.0
  1
＜VGC-3355+VKC-5055-L-1-A_0.DXF ＞
  7
FILENAME
 72
     2
 11
32764.0
 21
348.0
 31
0.0
  0
LINE
  5
14F92
  8
WAKUSEN-01
 10
868.00000000000193
 20
827.99999999999955
 30
0.0
 11
32764.000000000011
 21
827.99999999999943
 31
0.0
  0
LINE
  5
14F93
  8
WAKUSEN-01
 10
868.00000000000193
 20
827.99999999999955
 30
0.0
 11
868.00000000000193
 21
22484.000000000011
 31
0.0
  0
LINE
  5
14F94
  8
WAKUSEN-01
 10
32764.000000000011
 20
827.99999999999943
 30
0.0
 11
32764.000000000011
 21
22484.000000000011
 31
0.0
  0
LINE
  5
14F95
  8
WAKUSEN-01
 10
20560.0
 20
827.99999999999716
 30
0.0
 11
20560.0
 21
2484.0
 31
0.0
  0
LINE
  5
14F96
  8
WAKUSEN-02
 10
26868.0
 20
827.99999999999261
 30
0.0
 11
26868.0
 21
2484.0
 31
0.0
  0
ENDSEC
  0
EOF
