  0
SECTION
  2
HEADER
  9
$ACADVER
  1
AC1009
  9
$INSBASE
 10
0.0
 20
0.0
 30
0.0
  9
$EXTMIN
 10
867.99324330406671
 20
327.38164749855792
 30
-0.0000000000112498
  9
$EXTMAX
 10
32765.33210850941
 20
22484.553276491992
 30
0.0000000000002956
  9
$LIMMIN
 10
0.0
 20
0.0
  9
$LIMMAX
 10
33600.0
 20
23760.0
  9
$ORTHOMODE
 70
     1
  9
$REGENMODE
 70
     1
  9
$FILLMODE
 70
     1
  9
$QTEXTMODE
 70
     0
  9
$MIRRTEXT
 70
     0
  9
$DRAGMODE
 70
     2
  9
$LTSCALE
 40
80.0
  9
$OSMODE
 70
  3071
  9
$ATTMODE
 70
     1
  9
$TEXTSIZE
 40
0.2
  9
$TRACEWID
 40
0.05
  9
$TEXTSTYLE
  7
00
  9
$CLAYER
  8
0
  9
$CELTYPE
  6
BYLAYER
  9
$CECOLOR
 62
   256
  9
$DIMSCALE
 40
80.0
  9
$DIMASZ
 40
3.0
  9
$DIMEXO
 40
1.0
  9
$DIMDLI
 40
0.38
  9
$DIMRND
 40
0.5
  9
$DIMDLE
 40
0.0
  9
$DIMEXE
 40
1.0
  9
$DIMTP
 40
0.0
  9
$DIMTM
 40
0.0
  9
$DIMTXT
 40
2.0
  9
$DIMCEN
 40
0.09
  9
$DIMTSZ
 40
0.0
  9
$DIMTOL
 70
     0
  9
$DIMLIM
 70
     0
  9
$DIMTIH
 70
     0
  9
$DIMTOH
 70
     0
  9
$DIMSE1
 70
     0
  9
$DIMSE2
 70
     0
  9
$DIMTAD
 70
     1
  9
$DIMZIN
 70
     8
  9
$DIMBLK
  1
DOTSMALL
  9
$DIMASO
 70
     1
  9
$DIMSHO
 70
     1
  9
$DIMPOST
  1

  9
$DIMAPOST
  1

  9
$DIMALT
 70
     0
  9
$DIMALTD
 70
     2
  9
$DIMALTF
 40
25.399999999999999
  9
$DIMLFAC
 40
1.0
  9
$DIMTOFL
 70
     1
  9
$DIMTVP
 40
0.0
  9
$DIMTIX
 70
     0
  9
$DIMSOXD
 70
     0
  9
$DIMSAH
 70
     0
  9
$DIMBLK1
  1

  9
$DIMBLK2
  1

  9
$DIMSTYLE
  2
SUNPOU
  9
$DIMCLRD
 70
     4
  9
$DIMCLRE
 70
     4
  9
$DIMCLRT
 70
     7
  9
$DIMTFAC
 40
1.0
  9
$DIMGAP
 40
1.0
  9
$LUNITS
 70
     2
  9
$LUPREC
 70
     4
  9
$SKETCHINC
 40
0.1
  9
$FILLETRAD
 40
0.0
  9
$AUNITS
 70
     0
  9
$AUPREC
 70
     0
  9
$MENU
  1
acad
  9
$ELEVATION
 40
0.0
  9
$PELEVATION
 40
0.0
  9
$THICKNESS
 40
0.0
  9
$LIMCHECK
 70
     0
  9
$BLIPMODE
 70
     1
  9
$CHAMFERA
 40
0.0
  9
$CHAMFERB
 40
0.0
  9
$SKPOLY
 70
     0
  9
$TDCREATE
 40
2311940.075052408
  9
$TDUPDATE
 40
2458942.4566749539
  9
$TDINDWG
 40
0.377850625
  9
$TDUSRTIMER
 40
0.3778501157
  9
$USRTIMER
 70
     1
  9
$ANGBASE
 50
0.0
  9
$ANGDIR
 70
     0
  9
$PDMODE
 70
     0
  9
$PDSIZE
 40
0.0
  9
$PLINEWID
 40
0.0
  9
$COORDS
 70
     1
  9
$SPLFRAME
 70
     0
  9
$SPLINETYPE
 70
     6
  9
$SPLINESEGS
 70
     8
  9
$ATTDIA
 70
     1
  9
$ATTREQ
 70
     1
  9
$HANDLING
 70
     1
  9
$HANDSEED
  5
13899
  9
$SURFTAB1
 70
     6
  9
$SURFTAB2
 70
     6
  9
$SURFTYPE
 70
     6
  9
$SURFU
 70
     6
  9
$SURFV
 70
     6
  9
$UCSNAME
  2

  9
$UCSORG
 10
0.0
 20
0.0
 30
0.0
  9
$UCSXDIR
 10
1.0
 20
0.0
 30
0.0
  9
$UCSYDIR
 10
0.0
 20
1.0
 30
0.0
  9
$PUCSNAME
  2

  9
$PUCSORG
 10
0.0
 20
0.0
 30
0.0
  9
$PUCSXDIR
 10
1.0
 20
0.0
 30
0.0
  9
$PUCSYDIR
 10
0.0
 20
1.0
 30
0.0
  9
$USERI1
 70
     0
  9
$USERI2
 70
     0
  9
$USERI3
 70
     0
  9
$USERI4
 70
     0
  9
$USERI5
 70
     0
  9
$USERR1
 40
0.0
  9
$USERR2
 40
0.0
  9
$USERR3
 40
0.0
  9
$USERR4
 40
0.0
  9
$USERR5
 40
0.0
  9
$WORLDVIEW
 70
     1
  9
$SHADEDGE
 70
     3
  9
$SHADEDIF
 70
    70
  9
$TILEMODE
 70
     1
  9
$MAXACTVP
 70
    16
  9
$PLIMCHECK
 70
     0
  9
$PEXTMIN
 10
1.0000000000000000E+020
 20
1.0000000000000000E+020
 30
1.0000000000000000E+020
  9
$PEXTMAX
 10
-1.0000000000000000E+020
 20
-1.0000000000000000E+020
 30
-1.0000000000000000E+020
  9
$PLIMMIN
 10
0.0
 20
0.0
  9
$PLIMMAX
 10
12.0
 20
9.0
  9
$UNITMODE
 70
     0
  9
$VISRETAIN
 70
     0
  9
$PLINEGEN
 70
     1
  9
$PSLTSCALE
 70
     0
  0
ENDSEC
  0
SECTION
  2
TABLES
  0
TABLE
  2
VPORT
 70
     1
  0
VPORT
  2
*ACTIVE
 70
     0
 10
0.0
 20
0.0
 11
1.0
 21
1.0
 12
16800.0
 22
11880.0
 13
0.0
 23
0.0
 14
1.0
 24
1.0
 15
0.0
 25
0.0
 16
0.0
 26
0.0
 36
1.0
 17
0.0
 27
0.0
 37
0.0
 40
23981.023255813951
 41
2.195652173913043
 42
50.0
 43
0.0
 44
0.0
 50
0.0
 51
0.0
 71
     0
 72
 10000
 73
     1
 74
     1
 75
     0
 76
     0
 77
     0
 78
     0
  0
ENDTAB
  0
TABLE
  2
LTYPE
 70
     6
  0
LTYPE
  2
CONTINUOUS
 70
     0
  3
Solid line
 72
    65
 73
     0
 40
0.0
  0
LTYPE
  2
DASHED3
 70
     0
  3
------  ------  ------  ------  
 72
    65
 73
     2
 40
5.0
 49
3.75
 49
-1.25
  0
LTYPE
  2
CENTER2
 70
     0
  3
----------  --  ----------  --  
 72
    65
 73
     4
 40
20.0
 49
12.5
 49
-2.5
 49
2.5
 49
-2.5
  0
LTYPE
  2
HIDE-M
 70
     0
  3

 72
    65
 73
     2
 40
2.0
 49
1.0
 49
-1.0
  0
LTYPE
  2
1PL-M
 70
     0
  3

 72
    65
 73
     4
 40
15.0
 49
12.0
 49
-1.0
 49
1.0
 49
-1.0
  0
LTYPE
  2
PHANTOM2
 70
     0
  3
___ _ _ ___ _ _ ___ _ _ ___ _ _
 72
    65
 73
     6
 40
1.25
 49
0.625
 49
-0.125
 49
0.125
 49
-0.125
 49
0.125
 49
-0.125
  0
ENDTAB
  0
TABLE
  2
LAYER
 70
    24
  0
LAYER
  2
0
 70
     0
 62
     7
  6
CONTINUOUS
  0
LAYER
  2
SUNPOU
 70
     0
 62
     4
  6
CONTINUOUS
  0
LAYER
  2
0-1
 70
     0
 62
     7
  6
CONTINUOUS
  0
LAYER
  2
0-2
 70
     0
 62
     7
  6
CONTINUOUS
  0
LAYER
  2
0-5
 70
     0
 62
     7
  6
CONTINUOUS
  0
LAYER
  2
0-6
 70
     0
 62
     7
  6
CONTINUOUS
  0
LAYER
  2
2-0
 70
     0
 62
     7
  6
CONTINUOUS
  0
LAYER
  2
0-8
 70
     0
 62
     7
  6
CONTINUOUS
  0
LAYER
  2
YODOROGO
 70
     0
 62
   130
  6
CONTINUOUS
  0
LAYER
  2
WAKUSEN-01
 70
     0
 62
    50
  6
CONTINUOUS
  0
LAYER
  2
WAKUSEN-02
 70
     0
 62
   130
  6
CONTINUOUS
  0
LAYER
  2
WAKUMOJI-01
 70
     0
 62
   130
  6
CONTINUOUS
  0
LAYER
  2
FILENAME
 70
     0
 62
     7
  6
CONTINUOUS
  0
LAYER
  2
NAME
 70
     0
 62
    20
  6
CONTINUOUS
  0
LAYER
  2
0-4
 70
     0
 62
     7
  6
CONTINUOUS
  0
LAYER
  2
1-前柱P
 70
     0
 62
     3
  6
CONTINUOUS
  0
LAYER
  2
1-前柱カバ-P
 70
     0
 62
     3
  6
CONTINUOUS
  0
LAYER
  2
1-桁前P28
 70
     0
 62
     3
  6
CONTINUOUS
  0
LAYER
  2
1-後柱P
 70
     0
 62
     3
  6
CONTINUOUS
  0
LAYER
  2
1-中柱P
 70
     0
 62
     3
  6
CONTINUOUS
  0
LAYER
  2
1-後柱カバ-P
 70
     0
 62
     7
  6
CONTINUOUS
  0
LAYER
  2
1-中柱カバ-P
 70
     0
 62
     7
  6
CONTINUOUS
  0
ENDTAB
  0
TABLE
  2
STYLE
 70
     5
  0
STYLE
  2
STANDARD
 70
     0
 40
0.0
 41
1.0
 50
0.0
 71
     0
 42
0.0
  3
txt
  4
BIGFONT
  0
STYLE
  2
00
 70
     0
 40
0.0
 41
0.6666666666666666
 50
0.0
 71
     0
 42
0.2
  3
ROMANS
  4
BIGFONT
  0
STYLE
  2
01
 70
     0
 40
3.0
 41
1.0
 50
0.0
 71
     0
 42
0.2
  3
ROMANS
  4
BIGFONT
  0
STYLE
  2
WAKUMOJI
 70
     0
 40
3.0
 41
1.0
 50
0.0
 71
     0
 42
3.0
  3
SIMPLEX
  4
BIGFONT
  0
STYLE
  2
FILENAME
 70
     0
 40
200.0
 41
1.0
 50
0.0
 71
     0
 42
200.0
  3
romans
  4
bigfont
  0
ENDTAB
  0
TABLE
  2
VIEW
 70
     0
  0
ENDTAB
  0
TABLE
  2
UCS
 70
     0
  0
ENDTAB
  0
TABLE
  2
APPID
 70
    17
  0
APPID
  2
ACAD
 70
     0
  0
APPID
  2
ACADANNOTATIVE
 70
     0
  0
APPID
  2
ACAD_PSEXT
 70
     0
  0
APPID
  2
DCO15
 70
     0
  0
APPID
  2
ACAD_MLEADERVER
 70
     0
  0
APPID
  2
AUTOCAD_POSTSCRIPT_FIGURE
 70
     0
  0
APPID
  2
ACAD_EXEMPT_FROM_CAD_STANDARDS
 70
     0
  0
APPID
  2
ACLAYERTOOLS
 70
     0
  0
APPID
  2
ACAD_DSTYLE_DIMJAG
 70
     0
  0
APPID
  2
ACAD_DSTYLE_DIMTALN
 70
     0
  0
APPID
  2
ACAECLAYERSTANDARD
 70
     0
  0
APPID
  2
ACAD_DSTYLE_DIMBREAK
 70
     0
  0
APPID
  2
ACAD_DSTYLE_DIM_LINETYPE
 70
     0
  0
APPID
  2
ACAD_DSTYLE_DIM_EXT1_LINETYPE
 70
     0
  0
APPID
  2
ACAD_DSTYLE_DIM_EXT2_LINETYPE
 70
     0
  0
APPID
  2
ACAD_DSTYLE_DIMFLIPARROW_W
 70
     0
  0
APPID
  2
ACAD_NAV_VCDISPLAY
 70
     0
  0
ENDTAB
  0
TABLE
  2
DIMSTYLE
 70
     2
  0
DIMSTYLE
  2
SUNPOU
 70
     0
  3

  4

  5

  6

  7

 40
80.0
 41
3.0
 42
1.0
 43
0.38
 44
1.0
 45
0.5
 46
0.0
 47
0.0
 48
0.0
140
2.0
141
0.09
142
0.0
143
25.399999999999999
144
1.0
145
0.0
146
1.0
147
1.0
 71
     0
 72
     0
 73
     0
 74
     0
 75
     0
 76
     0
 77
     1
 78
     8
170
     0
171
     2
172
     1
173
     0
174
     0
175
     0
176
     4
177
     4
178
     7
  0
ENDTAB
  0
ENDSEC
  0
SECTION
  2
BLOCKS
  0
BLOCK
  8
0
  2
$MODEL_SPACE
 70
     0
 10
0.0
 20
0.0
 30
0.0
  3
$MODEL_SPACE
  1

  0
ENDBLK
  5
11A70
  8
0
  0
BLOCK
 67
     1
  8
0
  2
$PAPER_SPACE
 70
     0
 10
0.0
 20
0.0
 30
0.0
  3
$PAPER_SPACE
  1

  0
ENDBLK
  5
11A6C
 67
     1
  8
0
  0
BLOCK
  8
0
  2
_DOTSMALL
 70
     0
 10
0.0
 20
0.0
 30
0.0
  3
_DOTSMALL
  1

  0
POLYLINE
  5
11AAC
  8
0
  6
BYBLOCK
 62
     0
 66
     1
 10
0.0
 20
0.0
 30
0.0
 70
     1
 40
0.5
 41
0.5
  0
VERTEX
  5
13861
  8
0
  6
BYBLOCK
 62
     0
 10
-0.0625
 20
0.0
 30
0.0
 42
1.0
  0
VERTEX
  5
13862
  8
0
  6
BYBLOCK
 62
     0
 10
0.0625
 20
0.0
 30
0.0
 42
1.0
  0
SEQEND
  5
13863
  8
0
  6
BYBLOCK
 62
     0
  0
ENDBLK
  5
11AB0
  8
0
  0
ENDSEC
  0
SECTION
  2
ENTITIES
  0
LINE
  5
11AB1
  8
0-1
  6
CONTINUOUS
 62
     3
 10
7199.5628415859474
 20
16684.985315999991
 30
0.0
 11
10468.06284158595
 21
16684.985315999991
 31
0.0
  0
LINE
  5
11AB2
  8
0-1
  6
CONTINUOUS
 62
     3
 10
10415.063210585949
 20
13775.48635799998
 30
0.0
 11
10415.063210585949
 21
17768.23311058123
 31
0.0
  0
LINE
  5
11AB3
  8
0-1
  6
CONTINUOUS
 62
     3
 10
7249.5634615859544
 20
13651.48634400001
 30
0.0
 11
7249.5634615859544
 21
18933.259367313171
 31
0.0
  0
LINE
  5
11AB4
  8
0-1
  6
CONTINUOUS
 62
     3
 10
7114.0628415859483
 20
13619.486437
 30
0.0
 11
7114.0628415859483
 21
19134.283276124461
 31
0.0
  0
LINE
  5
11AB5
  8
0-1
  6
CONTINUOUS
 62
     3
 10
7157.0635675859558
 20
13775.48635799998
 30
0.0
 11
13310.564095585951
 21
13775.48635799998
 31
0.0
  0
LINE
  5
11AB6
  8
0-1
  6
CONTINUOUS
 62
     3
 10
7199.5628415859474
 20
13854.485974999991
 30
0.0
 11
13268.06284158595
 21
13854.485974999991
 31
0.0
  0
LINE
  5
11AB7
  8
0-1
  6
CONTINUOUS
 62
     3
 10
7114.0628415859483
 20
13619.48643699999
 30
0.0
 11
13353.56284158593
 21
13619.486437
 31
0.0
  0
LINE
  5
11AB8
  8
0-1
  6
CONTINUOUS
 62
     3
 10
7114.0628415859483
 20
13651.48634400001
 30
0.0
 11
13353.56284158593
 21
13651.486344000001
 31
0.0
  0
LINE
  5
11AB9
  8
0-1
  6
CONTINUOUS
 62
     3
 10
10468.06284158595
 20
13775.48635799998
 30
0.0
 11
10468.06284158595
 21
17746.365060417251
 31
0.0
  0
LINE
  5
11ABA
  8
0-1
  6
CONTINUOUS
 62
     3
 10
10510.564095585951
 20
13775.48635799998
 30
0.0
 11
10510.564095585951
 21
17728.828720315101
 31
0.0
  0
LINE
  5
11ABB
  8
0-1
  6
CONTINUOUS
 62
     3
 10
7199.5628415859474
 20
13775.48635799998
 30
0.0
 11
7199.5628415859474
 21
19100.243394810808
 31
0.0
  0
LINE
  5
11ABC
  8
0-1
  6
CONTINUOUS
 62
     3
 10
7157.0635675859558
 20
13775.48635799998
 30
0.0
 11
7157.0635675859558
 21
19117.77891794993
 31
0.0
  0
LINE
  5
11ABD
  8
0-1
  6
CONTINUOUS
 62
     3
 10
9120.5639635859588
 20
18312.353433713281
 30
0.0
 11
9120.5639635859588
 21
19461.985685
 31
0.0
  0
LINE
  5
11ABE
  8
0-1
  6
CONTINUOUS
 62
     3
 10
9157.5651245859481
 20
18297.08647374381
 30
0.0
 11
9157.5651245859481
 21
19461.985685
 31
0.0
  0
LINE
  5
11ABF
  8
0-1
  6
CONTINUOUS
 62
     3
 10
9320.5636335859526
 20
18219.831946322141
 30
0.0
 11
9320.5636335859526
 21
19461.985685
 31
0.0
  0
LINE
  5
11AC0
  8
0-1
  6
CONTINUOUS
 62
     3
 10
9357.5628145859591
 20
18204.565803315701
 30
0.0
 11
9357.5628145859591
 21
19461.985685
 31
0.0
  0
LINE
  5
11AC1
  8
0-1
  6
CONTINUOUS
 62
     3
 10
9520.5642925859574
 20
18137.31015586208
 30
0.0
 11
9520.5642925859574
 21
19461.985685
 31
0.0
  0
LINE
  5
11AC2
  8
0-1
  6
CONTINUOUS
 62
     3
 10
9557.5644645859556
 20
18122.043603961509
 30
0.0
 11
9557.5644645859556
 21
19461.985685
 31
0.0
  0
LINE
  5
11AC3
  8
0-1
  6
CONTINUOUS
 62
     3
 10
9720.5639635859588
 20
18054.788773058321
 30
0.0
 11
9720.5639635859588
 21
19461.985685
 31
0.0
  0
LINE
  5
11AC4
  8
0-1
  6
CONTINUOUS
 62
     3
 10
9757.5651245859517
 20
18039.521813088861
 30
0.0
 11
9757.5651245859517
 21
19461.985685
 31
0.0
  0
LINE
  5
11AC5
  8
0-1
  6
CONTINUOUS
 62
     3
 10
9920.5636335859635
 20
17972.267390667181
 30
0.0
 11
9920.5636335859635
 21
19461.985685
 31
0.0
  0
LINE
  5
11AC6
  8
0-1
  6
CONTINUOUS
 62
     3
 10
9957.5638045859523
 20
17957.000839179222
 30
0.0
 11
9957.5638045859523
 21
19461.985685
 31
0.0
  0
LINE
  5
11AC7
  8
0-1
  6
CONTINUOUS
 62
     3
 10
10120.564292585939
 20
17889.745600207119
 30
0.0
 11
10120.564292585939
 21
19461.985685
 31
0.0
  0
LINE
  5
11AC8
  8
0-1
  6
CONTINUOUS
 62
     3
 10
10157.56446458595
 20
17874.479048306552
 30
0.0
 11
10157.56446458595
 21
19461.985685
 31
0.0
  0
LINE
  5
11AC9
  8
0-1
  6
CONTINUOUS
 62
     3
 10
7199.5628415859474
 20
16774.988087000002
 30
0.0
 11
10468.06284158595
 21
16774.988087000002
 31
0.0
  0
LINE
  5
11ACA
  8
0-1
  6
CONTINUOUS
 62
     3
 10
10398.06374122978
 20
16729.987612658861
 30
0.0
 11
7269.5635675859539
 21
13811.985710999999
 31
0.0
  0
LINE
  5
11ACB
  8
0-1
  6
CONTINUOUS
 62
     3
 10
7269.5635675859539
 20
16729.985711000001
 30
0.0
 11
10398.064095585951
 21
13811.985710999999
 31
0.0
  0
LINE
  5
11ACC
  8
0-1
  6
CONTINUOUS
 62
     3
 10
7826.0159272683022
 20
18840.81628603466
 30
0.0
 11
10398.06374122978
 21
16729.987612658861
 31
0.0
  0
LINE
  5
11ACD
  8
0-1
  6
CONTINUOUS
 62
     3
 10
9165.7372904736985
 20
18286.138887239529
 30
0.0
 11
7269.5635675859539
 21
16729.985711000001
 31
0.0
  0
LINE
  5
11ACE
  8
0-1
  6
CONTINUOUS
 62
     3
 10
7132.0616145859321
 20
19126.948479759121
 30
0.0
 11
7132.0616145859349
 21
19502.48663499999
 31
0.0
  0
LINE
  5
11ACF
  8
0-1
  6
CONTINUOUS
 62
     3
 10
7187.5623665859493
 20
19484.987690000002
 30
0.0
 11
7187.5623665859493
 21
19514.987293999991
 31
0.0
  0
LINE
  5
11AD0
  8
0-1
  6
CONTINUOUS
 62
     3
 10
7114.0628415859483
 20
19514.987293999991
 30
0.0
 11
7114.0628415859483
 21
19479.985446999988
 31
0.0
  0
LINE
  5
11AD1
  8
0-1
  6
CONTINUOUS
 62
     3
 10
7182.5621025859373
 20
19519.985579
 30
0.0
 11
7119.0621155859426
 21
19519.985579
 31
0.0
  0
LINE
  5
11AD2
  8
0-1
  6
CONTINUOUS
 62
     3
 10
7132.0616145859349
 20
19502.48663499999
 30
0.0
 11
7114.0628415859483
 21
19502.48663499999
 31
0.0
  0
LINE
  5
11AD3
  8
0-1
  6
CONTINUOUS
 62
     3
 10
7132.0616145859349
 20
19479.985446999988
 30
0.0
 11
7182.5621025859373
 21
19479.985446999988
 31
0.0
  0
LINE
  5
11AD4
  8
0-6
  6
CONTINUOUS
 62
     6
 10
9598.4061777233328
 20
19237.71018799999
 30
0.0
 11
9742.3072807233239
 21
19749.985842999991
 31
0.0
  0
LINE
  5
11AD5
  8
0-6
  6
CONTINUOUS
 62
     6
 10
9078.5648027233237
 20
19465.663629999999
 30
0.0
 11
9185.2598647233335
 21
19343.487743000002
 31
0.0
  0
LINE
  5
11AD6
  8
0-6
  6
CONTINUOUS
 62
     6
 10
9185.2598647233335
 20
19343.487743000002
 30
0.0
 11
9123.9541747233234
 21
19493.663919999992
 31
0.0
  0
LINE
  5
11AD7
  8
0-6
  6
CONTINUOUS
 62
     6
 10
9185.2598647233335
 20
19343.487743000002
 30
0.0
 11
9078.5648027233237
 21
19465.663629999999
 31
0.0
  0
LINE
  5
11AD8
  8
0-6
  6
CONTINUOUS
 62
     6
 10
9078.5648027233237
 20
19465.663629999999
 30
0.0
 11
9123.9541747233234
 21
19493.663919999992
 31
0.0
  0
LINE
  5
11AD9
  8
0-6
  6
CONTINUOUS
 62
     6
 10
9123.9541747233234
 20
19493.663919999992
 30
0.0
 11
9185.2598647233335
 21
19343.487743000002
 31
0.0
  0
LINE
  5
11ADA
  8
0-6
  6
CONTINUOUS
 62
     6
 10
9123.9541747233234
 20
19493.663919999992
 30
0.0
 11
9078.5648027233237
 21
19465.663629999999
 31
0.0
  0
LINE
  5
11ADB
  8
0-6
  6
CONTINUOUS
 62
     6
 10
9185.2598647233335
 20
19343.487743000002
 30
0.0
 11
8891.3320377233267
 21
19749.985842999991
 31
0.0
  0
LINE
  5
11ADC
  8
0-6
  6
CONTINUOUS
 62
     6
 10
9572.5180337233323
 20
19244.109971999991
 30
0.0
 11
9560.016383723334
 21
19082.385282999989
 31
0.0
  0
LINE
  5
11ADD
  8
0-6
  6
CONTINUOUS
 62
     6
 10
9560.016383723334
 20
19082.385282999989
 30
0.0
 11
9624.2913527233322
 21
19231.314364000002
 31
0.0
  0
LINE
  5
11ADE
  8
0-6
  6
CONTINUOUS
 62
     6
 10
9560.016383723334
 20
19082.385282999989
 30
0.0
 11
9572.5180337233323
 21
19244.109971999991
 31
0.0
  0
LINE
  5
11ADF
  8
0-6
  6
CONTINUOUS
 62
     6
 10
9572.5180337233323
 20
19244.109971999991
 30
0.0
 11
9624.2913527233322
 21
19231.314364000002
 31
0.0
  0
LINE
  5
11AE0
  8
0-6
  6
CONTINUOUS
 62
     6
 10
9624.2913527233322
 20
19231.314364000002
 30
0.0
 11
9560.016383723334
 21
19082.385282999989
 31
0.0
  0
LINE
  5
11AE1
  8
0-6
  6
CONTINUOUS
 62
     6
 10
9624.2913527233322
 20
19231.314364000002
 30
0.0
 11
9572.5180337233323
 21
19244.109971999991
 31
0.0
  0
LINE
  5
11AE2
  8
0-6
  6
CONTINUOUS
 62
     6
 10
9742.3072807233239
 20
19749.985842999991
 30
0.0
 11
10259.995928723331
 21
19749.985842999991
 31
0.0
  0
LINE
  5
11AE3
  8
0-6
  6
CONTINUOUS
 62
     6
 10
7342.3791685859651
 20
18164.289045663922
 30
0.0
 11
7252.5634615859572
 21
18299.361496663922
 31
0.0
  0
LINE
  5
11AE4
  8
0-6
  6
CONTINUOUS
 62
     6
 10
7252.5634615859572
 20
18299.361496663922
 30
0.0
 11
7293.717652585965
 21
18142.46089466392
 31
0.0
  0
LINE
  5
11AE5
  8
0-6
  6
CONTINUOUS
 62
     6
 10
7252.5634615859572
 20
18299.361496663922
 30
0.0
 11
7342.3791685859651
 21
18164.289045663922
 31
0.0
  0
LINE
  5
11AE6
  8
0-6
  6
CONTINUOUS
 62
     6
 10
7342.3791685859651
 20
18164.289045663922
 30
0.0
 11
7293.717652585965
 21
18142.46089466392
 31
0.0
  0
LINE
  5
11AE7
  8
0-6
  6
CONTINUOUS
 62
     6
 10
7293.717652585965
 20
18142.46089466392
 30
0.0
 11
7252.5634615859572
 21
18299.361496663922
 31
0.0
  0
LINE
  5
11AE8
  8
0-6
  6
CONTINUOUS
 62
     6
 10
7293.717652585965
 20
18142.46089466392
 30
0.0
 11
7342.3791685859651
 21
18164.289045663922
 31
0.0
  0
LINE
  5
11AE9
  8
0-6
  6
CONTINUOUS
 62
     6
 10
8091.330388723326
 20
19749.985842999991
 30
0.0
 11
8891.3320377233267
 21
19749.985842999991
 31
0.0
  0
LINE
  5
11AEA
  8
0-6
  6
CONTINUOUS
 62
     6
 10
7417.0891685859542
 20
17932.58243666391
 30
0.0
 11
7937.0898945859681
 21
17932.58243666391
 31
0.0
  0
LINE
  5
11AEB
  8
0-6
  6
CONTINUOUS
 62
     6
 10
8400.3371466518056
 20
13999.376837
 30
0.0
 11
8483.2245386518116
 21
14176.315115999991
 31
0.0
  0
LINE
  5
11AEC
  8
0-6
  6
CONTINUOUS
 62
     6
 10
8483.2245386518116
 20
14176.315115999991
 30
0.0
 11
9283.2251986517986
 21
14176.315115999991
 31
0.0
  0
LINE
  5
11AED
  8
0-6
  6
CONTINUOUS
 62
     6
 10
9007.3802736518101
 20
13489.93981199999
 30
0.0
 11
8901.1098186518047
 21
13612.48685899999
 31
0.0
  0
LINE
  5
11AEE
  8
0-6
  6
CONTINUOUS
 62
     6
 10
8901.1098186518047
 20
13612.48685899999
 30
0.0
 11
8961.8919266518078
 21
13462.09788299998
 31
0.0
  0
LINE
  5
11AEF
  8
0-6
  6
CONTINUOUS
 62
     6
 10
8901.1098186518047
 20
13612.48685899999
 30
0.0
 11
9007.3802736518101
 21
13489.93981199999
 31
0.0
  0
LINE
  5
11AF0
  8
0-6
  6
CONTINUOUS
 62
     6
 10
9007.3802736518101
 20
13489.93981199999
 30
0.0
 11
8961.8919266518078
 21
13462.09788299998
 31
0.0
  0
LINE
  5
11AF1
  8
0-6
  6
CONTINUOUS
 62
     6
 10
8961.8919266518078
 20
13462.09788299998
 30
0.0
 11
8901.1098186518047
 21
13612.48685899999
 31
0.0
  0
LINE
  5
11AF2
  8
0-6
  6
CONTINUOUS
 62
     6
 10
8961.8919266518078
 20
13462.09788299998
 30
0.0
 11
9007.3802736518101
 21
13489.93981199999
 31
0.0
  0
LINE
  5
11AF3
  8
0-6
  6
CONTINUOUS
 62
     6
 10
8376.1899896518007
 20
14010.68879599998
 30
0.0
 11
8332.4644036518002
 21
13854.485974999991
 31
0.0
  0
LINE
  5
11AF4
  8
0-6
  6
CONTINUOUS
 62
     6
 10
8332.4644036518002
 20
13854.485974999991
 30
0.0
 11
8424.4852946518076
 21
13988.06388799999
 31
0.0
  0
LINE
  5
11AF5
  8
0-6
  6
CONTINUOUS
 62
     6
 10
8332.4644036518002
 20
13854.485974999991
 30
0.0
 11
8376.1899896518007
 21
14010.68879599998
 31
0.0
  0
LINE
  5
11AF6
  8
0-6
  6
CONTINUOUS
 62
     6
 10
8376.1899896518007
 20
14010.68879599998
 30
0.0
 11
8424.4852946518076
 21
13988.06388799999
 31
0.0
  0
LINE
  5
11AF7
  8
0-6
  6
CONTINUOUS
 62
     6
 10
8424.4852946518076
 20
13988.06388799999
 30
0.0
 11
8332.4644036518002
 21
13854.485974999991
 31
0.0
  0
LINE
  5
11AF8
  8
0-6
  6
CONTINUOUS
 62
     6
 10
8424.4852946518076
 20
13988.06388799999
 30
0.0
 11
8376.1899896518007
 21
14010.68879599998
 31
0.0
  0
LINE
  5
11AF9
  8
0-6
  6
CONTINUOUS
 62
     6
 10
9390.7486886518072
 20
12812.48718899999
 30
0.0
 11
10253.3288596518
 21
12812.48718899999
 31
0.0
  0
LINE
  5
11AFA
  8
0-6
  6
CONTINUOUS
 62
     6
 10
8984.6365956517984
 20
13476.018847999991
 30
0.0
 11
9390.7486886518072
 21
12812.48718899999
 31
0.0
  0
LINE
  5
11AFB
  8
0-6
  6
CONTINUOUS
 62
     6
 10
7094.6121315859482
 20
13861.776687
 30
0.0
 11
7117.0628415859474
 21
14022.42253799999
 31
0.0
  0
LINE
  5
11AFC
  8
0-6
  6
CONTINUOUS
 62
     6
 10
7117.0628415859474
 20
14022.42253799999
 30
0.0
 11
7043.7256375859361
 21
13877.741504
 31
0.0
  0
LINE
  5
11AFD
  8
0-6
  6
CONTINUOUS
 62
     6
 10
7117.0628415859474
 20
14022.42253799999
 30
0.0
 11
7094.6121315859482
 21
13861.776687
 31
0.0
  0
LINE
  5
11AFE
  8
0-6
  6
CONTINUOUS
 62
     6
 10
7094.6121315859482
 20
13861.776687
 30
0.0
 11
7043.7256375859361
 21
13877.741504
 31
0.0
  0
LINE
  5
11AFF
  8
0-6
  6
CONTINUOUS
 62
     6
 10
7043.7256375859361
 20
13877.741504
 30
0.0
 11
7117.0628415859474
 21
14022.42253799999
 31
0.0
  0
LINE
  5
11B00
  8
0-6
  6
CONTINUOUS
 62
     6
 10
7043.7256375859361
 20
13877.741504
 30
0.0
 11
7094.6121315859482
 21
13861.776687
 31
0.0
  0
LINE
  5
11B01
  8
0-6
  6
CONTINUOUS
 62
     6
 10
5402.428590585946
 20
11999.48618599998
 30
0.0
 11
6482.4281945859484
 21
11999.48618599998
 31
0.0
  0
LINE
  5
11B02
  8
0-6
  6
CONTINUOUS
 62
     6
 10
7069.1683895859378
 20
13869.75810599999
 30
0.0
 11
6482.4281945859484
 21
11999.48618599998
 31
0.0
  0
LINE
  5
11B03
  8
0-6
  6
CONTINUOUS
 62
     6
 10
7318.0489055859534
 20
18153.375959663921
 30
0.0
 11
7417.0891685859542
 21
17932.58243666391
 31
0.0
  0
LINE
  5
11B04
  8
0-6
  6
CONTINUOUS
 62
     6
 10
13350.56284158595
 20
19519.985579
 30
0.0
 11
13442.250183585949
 21
19653.79311699999
 31
0.0
  0
LINE
  5
11B05
  8
0-6
  6
CONTINUOUS
 62
     6
 10
13480.69144458594
 20
19616.825606999992
 30
0.0
 11
13350.56284158595
 21
19519.985579
 31
0.0
  0
LINE
  5
11B06
  8
0-6
  6
CONTINUOUS
 62
     6
 10
13480.69144458594
 20
19616.825606999992
 30
0.0
 11
13442.250183585949
 21
19653.79311699999
 31
0.0
  0
LINE
  5
11B07
  8
0-6
  6
CONTINUOUS
 62
     6
 10
13461.47130958595
 20
19635.308372
 30
0.0
 11
13978.46019758595
 21
20139.986634999979
 31
0.0
  0
LINE
  5
11B08
  8
0-6
  6
CONTINUOUS
 62
     6
 10
13978.46019758595
 20
20139.986634999979
 30
0.0
 11
15653.45953758595
 21
20139.986634999979
 31
0.0
  0
LINE
  5
11B09
  8
2-0
  6
DASHED3
 62
     6
 10
7199.5628415859474
 20
19258.487215000001
 30
0.0
 11
13268.06284158593
 21
19258.487215000001
 31
0.0
  0
LINE
  5
11B0A
  8
2-0
  6
DASHED3
 62
     6
 10
7157.0635675859558
 20
19117.77891794993
 30
0.0
 11
7157.0635675859558
 21
19343.487743000002
 31
0.0
  0
LINE
  5
11B0B
  8
2-0
  6
DASHED3
 62
     6
 10
7199.5628415859474
 20
19100.24339481083
 30
0.0
 11
7199.5628415859474
 21
19343.487743000002
 31
0.0
  0
LINE
  5
11B0C
  8
2-0
  6
DASHED3
 62
     6
 10
7157.0635675859558
 20
19343.487743000002
 30
0.0
 11
13268.06284158593
 21
19343.487743000002
 31
0.0
  0
LINE
  5
11B0D
  8
2-0
  6
DASHED3
 62
     6
 10
10468.06284158595
 20
17746.365060417251
 30
0.0
 11
10468.06284158595
 21
19343.487743000002
 31
0.0
  0
LINE
  5
11B0E
  8
2-0
  6
DASHED3
 62
     6
 10
10510.564095585951
 20
17728.828720315101
 30
0.0
 11
10510.564095585951
 21
19343.487743000002
 31
0.0
  0
LINE
  5
11B0F
  8
2-0
  6
DASHED3
 62
     6
 10
7269.5635675859539
 20
19297.485711000001
 30
0.0
 11
7826.015927268304
 21
18840.81628603466
 31
0.0
  0
LINE
  5
11B10
  8
2-0
  6
DASHED3
 62
     6
 10
10398.064095585951
 20
19297.485711000001
 30
0.0
 11
9165.7372904736985
 21
18286.138887239529
 31
0.0
  0
LINE
  5
11B11
  8
2-0
  6
CENTER2
 62
     6
 10
10468.06284158595
 20
20539.987954
 30
0.0
 11
10468.06284158595
 21
19561.985025000002
 31
0.0
  0
LINE
  5
11B12
  8
2-0
  6
CENTER2
 62
     6
 10
5870.0627365859536
 20
19297.485711000001
 30
0.0
 11
7516.5619575859419
 21
19297.485711000001
 31
0.0
  0
LINE
  5
11B13
  8
0-8
  6
CONTINUOUS
 62
     6
 10
7199.5628415859474
 20
20539.987954
 30
0.0
 11
7199.5628415859474
 21
19589.987293999991
 31
0.0
  0
LINE
  5
11B14
  8
2-0
  6
CENTER2
 62
     6
 10
5870.0627365859536
 20
16729.985711000001
 30
0.0
 11
13439.86228958595
 21
16729.985711000001
 31
0.0
  0
LINE
  5
11B15
  8
2-0
  6
CENTER2
 62
     6
 10
5870.0627365859536
 20
13811.985710999999
 30
0.0
 11
7516.5619575859419
 21
13811.985710999999
 31
0.0
  0
ARC
  5
11B16
  8
0-1
  6
CONTINUOUS
 62
     3
 10
7182.5621025859373
 20
19484.987690000002
 30
0.0
 40
5.0
 50
269.9999850001808
 51
0.0
  0
ARC
  5
11B17
  8
0-1
  6
CONTINUOUS
 62
     3
 10
7182.5648039034277
 20
19514.988412922321
 30
0.0
 40
4.99729880777691
 50
359.9871711637191
 51
90.030971551784916
  0
ARC
  5
11B18
  8
0-1
  6
CONTINUOUS
 62
     3
 10
7119.0591891097101
 20
19514.98850618611
 30
0.0
 40
4.9970736707893684
 50
89.966445412325555
 51
180.01389876465331
  0
CIRCLE
  5
11B19
  8
0-5
  6
CONTINUOUS
 62
     4
 10
10468.06284158595
 20
20739.986634999979
 30
0.0
 40
199.9999949999999
  0
CIRCLE
  5
11B1A
  8
0-5
  6
CONTINUOUS
 62
     4
 10
7199.5628415859474
 20
20739.986634999979
 30
0.0
 40
199.9999949999999
  0
CIRCLE
  5
11B1B
  8
0-5
  6
CONTINUOUS
 62
     4
 10
5670.0630655859559
 20
19297.485711000001
 30
0.0
 40
199.9999949999999
  0
CIRCLE
  5
11B1C
  8
0-5
  6
CONTINUOUS
 62
     4
 10
5670.0630655859559
 20
16729.985711000001
 30
0.0
 40
199.9999949999999
  0
CIRCLE
  5
11B1D
  8
0-5
  6
CONTINUOUS
 62
     4
 10
5670.0630655859559
 20
13811.985710999999
 30
0.0
 40
199.9999949999999
  0
CIRCLE
  5
11B1E
  8
0-5
  6
CONTINUOUS
 62
     4
 10
15128.71667799999
 20
1375.999982000001
 30
0.0
 40
20.0
  0
ARC
  5
11B1F
  8
0-5
  6
CONTINUOUS
 62
     4
 10
15128.71667799999
 20
1375.999982000001
 30
0.0
 40
20.0
 50
180.0
 51
0.0
  0
ARC
  5
11B20
  8
0-5
  6
CONTINUOUS
 62
     4
 10
15128.71667799999
 20
1375.999982000001
 30
0.0
 40
20.0
 50
0.0
 51
179.99998500000001
  0
CIRCLE
  5
11B21
  8
0-5
  6
CONTINUOUS
 62
     4
 10
15128.71667799999
 20
1775.999321999999
 30
0.0
 40
20.0
  0
ARC
  5
11B22
  8
0-5
  6
CONTINUOUS
 62
     4
 10
15128.71667799999
 20
1775.999321999999
 30
0.0
 40
20.0
 50
180.0
 51
0.0
  0
ARC
  5
11B23
  8
0-5
  6
CONTINUOUS
 62
     4
 10
15128.71667799999
 20
1775.999321999999
 30
0.0
 40
20.0
 50
0.0
 51
179.99998500000001
  0
TEXT
  5
11B24
  8
0-5
  6
CONTINUOUS
 62
     7
 10
10414.345635585951
 20
20650.771712000002
 30
0.0
 40
160.0
  1
2
 72
     4
 11
10467.67896891929
 21
20730.771712000002
 31
0.0
  0
TEXT
  5
11B25
  8
0-5
  6
CONTINUOUS
 62
     7
 10
7145.8436565859574
 20
20650.771712000002
 30
0.0
 40
160.0
  1
1
 72
     4
 11
7172.5103232526226
 21
20730.771712000002
 31
0.0
  0
TEXT
  5
11B26
  8
0-5
  6
CONTINUOUS
 62
     7
 10
5616.603197585956
 20
19217.897186999999
 30
0.0
 40
160.0
  1
C
 72
     4
 11
5669.9365309192899
 21
19297.897186999999
 31
0.0
  0
TEXT
  5
11B27
  8
0-5
  6
CONTINUOUS
 62
     7
 10
5616.603197585956
 20
16650.398176999981
 30
0.0
 40
160.0
  1
B
 72
     4
 11
5669.9365309192899
 21
16730.398176999981
 31
0.0
  0
TEXT
  5
11B28
  8
0-5
  6
CONTINUOUS
 62
     7
 10
5616.603197585956
 20
13732.397187
 30
0.0
 40
160.0
  1
A
 72
     4
 11
5669.9365309192899
 21
13812.397187
 31
0.0
  0
TEXT
  5
11B29
  8
0-5
  6
CONTINUOUS
 62
     7
 10
16661.217403999992
 20
1655.999792000001
 30
0.0
 40
160.0
  1
H
  0
TEXT
  5
11B2A
  8
0-5
  6
CONTINUOUS
 62
     7
 10
15176.146933
 20
1655.999792000001
 30
0.0
 40
160.0
  1
（ ）内寸法ハ、  タイプヲ示ス。
  0
TEXT
  5
11B2B
  8
0-5
  6
CONTINUOUS
 62
     7
 10
15288.716216000001
 20
1255.999462
 30
0.0
 40
160.0
  1
有効高サハ、基礎高サヲ含ミマセン。
  0
TEXT
  5
11B2C
  8
0-6
  6
CONTINUOUS
 62
     7
 10
9822.3075447233296
 20
19829.98610699999
 30
0.0
 40
160.0
  1
屋根
 72
     4
 11
9992.9742113899974
 21
19909.98610699999
 31
0.0
  0
TEXT
  5
11B2D
  8
0-6
  6
CONTINUOUS
 62
     7
 10
8171.3316427233303
 20
19829.98610699999
 30
0.0
 40
160.0
  1
桁（後）
 72
     4
 11
8491.3316427233312
 21
19909.98610699999
 31
0.0
  0
TEXT
  5
11B2E
  8
0-6
  6
CONTINUOUS
 62
     7
 10
8563.2238126517987
 20
14256.31538
 30
0.0
 40
160.0
  1
桁（前）
 72
     4
 11
8883.2238126517987
 21
14336.31538
 31
0.0
  0
TEXT
  5
11B2F
  8
0-6
  6
CONTINUOUS
 62
     7
 10
9470.7479626518143
 20
12892.48646299999
 30
0.0
 40
160.0
  1
鼻隠し前
 72
     4
 11
9833.4146293184804
 21
12972.48646299999
 31
0.0
  0
TEXT
  5
11B30
  8
0-6
  6
CONTINUOUS
 62
     7
 10
5482.4288545859472
 20
12079.485459999991
 30
0.0
 40
160.0
  1
ケラバ 左
 72
     4
 11
5898.4288545859463
 21
12159.485459999991
 31
0.0
  0
TEXT
  5
11B31
  8
0-6
  6
CONTINUOUS
 62
     7
 10
7497.089432585969
 20
18012.582700663908
 30
0.0
 40
160.0
  1
上枠
 72
     4
 11
7667.7560992526351
 21
18092.582700663908
 31
0.0
  0
TEXT
  5
11B32
  8
0-6
  6
CONTINUOUS
 62
     7
 10
14058.460461585961
 20
20219.984918999991
 30
0.0
 40
160.0
  1
鼻隠しコーナー後
 72
     4
 11
14805.12712825263
 21
20299.984918999991
 31
0.0
  0
TEXT
  5
11B33
  8
2-0
  6
CONTINUOUS
 62
     7
 10
23073.43991546092
 20
11251.104441999991
 30
0.0
 40
160.0
  1
平　面　図
 72
     4
 11
23526.773248794249
 21
11325.77110866666
 31
0.0
  0
TEXT
  5
11B34
  8
2-0
  6
CONTINUOUS
 62
     7
 10
9275.8641181217226
 20
11156.81700299998
 30
0.0
 40
160.0
  1
小 屋 伏 図
 72
     4
 11
9777.1974514550566
 21
11236.81700299998
 31
0.0
  0
TEXT
  5
11B35
  8
2-0
  6
CONTINUOUS
 62
     7
 10
22742.541079231629
 20
3292.802588999999
 30
0.0
 40
160.0
  1
正 面 立 面 図
 72
     4
 11
23387.874412564961
 21
3372.802588999999
 31
0.0
  0
TEXT
  5
11B36
  8
2-0
  6
CONTINUOUS
 62
     7
 10
8709.4721087031467
 20
3264.0669070000022
 30
0.0
 40
160.0
  1
側 面 立 面 図
 50
0.000139
 72
     4
 11
9354.8052479539692
 21
3344.0684725833762
 31
0.0
  0
TEXT
  5
11B3A
  8
2-0
  6
CONTINUOUS
 62
     7
 10
10706.29743309158
 20
3291.2638415833758
 30
0.0
 40
160.0
  1
1
 72
     4
 11
10732.96409975825
 21
3371.2638415833749
 31
0.0
  0
TEXT
  5
11B3B
  8
2-0
  6
CONTINUOUS
 62
     7
 10
10949.38615034227
 20
3211.2653095833762
 30
0.0
 40
160.0
  1
80
 72
     4
 11
11069.38615034227
 21
3291.2653095833762
 31
0.0
  0
TEXT
  5
11B3C
  8
2-0
  6
CONTINUOUS
 62
     7
 10
10207.29939909158
 20
3264.0684725833762
 30
0.0
 40
160.0
  1
(S=  /   )
 72
     4
 11
10767.29939909158
 21
3344.0684725833762
 31
0.0
  0
TEXT
  5
11B3D
  8
2-0
  6
CONTINUOUS
 62
     7
 10
24739.366597702621
 20
3319.9979579999999
 30
0.0
 40
160.0
  1
1
 72
     4
 11
24766.033264369278
 21
3399.9979579999999
 31
0.0
  0
TEXT
  5
11B3E
  8
2-0
  6
CONTINUOUS
 62
     7
 10
24982.455314953291
 20
3239.9994260000021
 30
0.0
 40
160.0
  1
80
 72
     4
 11
25102.455314953291
 21
3319.9994260000012
 31
0.0
  0
TEXT
  5
11B3F
  8
2-0
  6
CONTINUOUS
 62
     7
 10
24240.368563702599
 20
3292.802588999999
 30
0.0
 40
160.0
  1
(S=  /   )
 72
     4
 11
24800.368563702599
 21
3372.802588999999
 31
0.0
  0
TEXT
  5
11B40
  8
2-0
  6
CONTINUOUS
 62
     7
 10
24878.26543393188
 20
11272.96647766667
 30
0.0
 40
160.0
  1
1
 72
     4
 11
24904.932100598551
 21
11352.96647766667
 31
0.0
  0
TEXT
  5
11B41
  8
2-0
  6
CONTINUOUS
 62
     7
 10
25121.354151182572
 20
11192.967945666671
 30
0.0
 40
160.0
  1
80
 72
     4
 11
25241.354151182572
 21
11272.967945666671
 31
0.0
  0
TEXT
  5
11B42
  8
2-0
  6
CONTINUOUS
 62
     7
 10
24379.267399931879
 20
11245.77110866666
 30
0.0
 40
160.0
  1
(S=  /   )
 72
     4
 11
24939.267399931879
 21
11325.77110866666
 31
0.0
  0
TEXT
  5
11B43
  8
2-0
  6
CONTINUOUS
 62
     7
 10
11128.68963659268
 20
11184.012371999979
 30
0.0
 40
160.0
  1
1
 72
     4
 11
11155.35630325935
 21
11264.012371999979
 31
0.0
  0
TEXT
  5
11B44
  8
2-0
  6
CONTINUOUS
 62
     7
 10
11371.77835384336
 20
11104.01383999998
 30
0.0
 40
160.0
  1
80
 72
     4
 11
11491.77835384336
 21
11184.01383999998
 31
0.0
  0
TEXT
  5
11B45
  8
2-0
  6
CONTINUOUS
 62
     7
 10
10629.69160259268
 20
11156.81700299998
 30
0.0
 40
160.0
  1
(S=  /   )
 72
     4
 11
11189.69160259268
 21
11236.81700299998
 31
0.0
  0
LINE
  5
11B46
  8
2-0
  6
CENTER2
 62
     6
 10
13268.06284158595
 20
20539.987954
 30
0.0
 11
13268.06284158595
 21
19589.987293999991
 31
0.0
  0
CIRCLE
  5
11B47
  8
0-5
  6
CONTINUOUS
 62
     4
 10
13268.06284158595
 20
20739.986634999979
 30
0.0
 40
199.9999949999999
  0
TEXT
  5
11B48
  8
0-5
  6
CONTINUOUS
 62
     7
 10
13214.34563558594
 20
20650.771712000002
 30
0.0
 40
160.0
  1
3
 72
     4
 11
13267.678968919279
 21
20730.771712000002
 31
0.0
  0
LINE
  5
11B49
  8
0-1
  6
CONTINUOUS
 62
     3
 10
13335.563079585951
 20
16564.44994129907
 30
0.0
 11
13335.563079585951
 21
19502.48663499999
 31
0.0
  0
LINE
  5
11B4A
  8
0-1
  6
CONTINUOUS
 62
     3
 10
13335.563079585951
 20
19502.48663499999
 30
0.0
 11
13353.562841585939
 21
19502.48663499999
 31
0.0
  0
LINE
  5
11B4B
  8
0-1
  6
CONTINUOUS
 62
     3
 10
13280.06232758596
 20
19484.987690000002
 30
0.0
 11
13280.06232758596
 21
19514.987293999991
 31
0.0
  0
LINE
  5
11B4C
  8
0-1
  6
CONTINUOUS
 62
     3
 10
13335.563079585951
 20
19479.985446999988
 30
0.0
 11
13285.06358158595
 21
19479.985446999988
 31
0.0
  0
LINE
  5
11B4D
  8
0-1
  6
CONTINUOUS
 62
     3
 10
13353.562841585939
 20
19514.987293999991
 30
0.0
 11
13353.562841585939
 21
19479.985446999988
 31
0.0
  0
LINE
  5
11B4E
  8
0-1
  6
CONTINUOUS
 62
     3
 10
13285.06358158595
 20
19519.985579
 30
0.0
 11
13348.561588585941
 21
19519.985579
 31
0.0
  0
ARC
  5
11B4F
  8
0-1
  6
CONTINUOUS
 62
     3
 10
13348.561588585941
 20
19514.987293999991
 30
0.0
 40
5.0
 50
0.0
 51
90.0
  0
ARC
  5
11B50
  8
0-1
  6
CONTINUOUS
 62
     3
 10
13285.06358158595
 20
19514.987293999991
 30
0.0
 40
5.0
 50
90.0
 51
180.0
  0
ARC
  5
11B51
  8
0-1
  6
CONTINUOUS
 62
     3
 10
13285.06358158595
 20
19484.987690000002
 30
0.0
 40
5.0
 50
180.0
 51
269.9999850001808
  0
LINE
  5
11B52
  8
0-1
  6
CONTINUOUS
 62
     3
 10
10468.06284158595
 20
13775.48635799998
 30
0.0
 11
10468.06284158595
 21
13619.486437
 31
0.0
  0
LINE
  5
11B53
  8
0-1
  6
CONTINUOUS
 62
     3
 10
6949.676188738601
 20
19203.6423631418
 30
0.0
 11
10876.86129493059
 21
17577.69171465941
 31
0.0
  0
LINE
  5
11B54
  8
0-1
  6
CONTINUOUS
 62
     3
 10
13218.06321058596
 20
13651.48634400001
 30
0.0
 11
13218.06321058596
 21
16612.931850858091
 31
0.0
  0
LINE
  5
11B55
  8
0-1
  6
CONTINUOUS
 62
     3
 10
13353.562841585939
 20
13619.486437
 30
0.0
 11
13353.562841585939
 21
16557.02310283003
 31
0.0
  0
LINE
  5
11B56
  8
0-1
  6
CONTINUOUS
 62
     3
 10
13268.06284158595
 20
13775.48635799998
 30
0.0
 11
13268.06284158595
 21
16591.063800694112
 31
0.0
  0
LINE
  5
11B57
  8
0-1
  6
CONTINUOUS
 62
     3
 10
13310.564095585951
 20
13775.48635799998
 30
0.0
 11
13310.564095585951
 21
16573.527460591959
 31
0.0
  0
LINE
  5
11B58
  8
0-1
  6
CONTINUOUS
 62
     3
 10
13218.06321058596
 20
16612.931850858091
 30
0.0
 11
13218.06321058596
 21
19461.985685
 31
0.0
  0
LINE
  5
11B59
  8
0-1
  6
CONTINUOUS
 62
     3
 10
13353.562841585939
 20
16557.02310283004
 30
0.0
 11
13353.562841585939
 21
19502.48663499999
 31
0.0
  0
LINE
  5
11B5A
  8
2-0
  6
DASHED3
 62
     6
 10
13268.06284158595
 20
16591.063800694112
 30
0.0
 11
13268.06284158593
 21
19489.987954
 31
0.0
  0
LINE
  5
11B5B
  8
2-0
  6
DASHED3
 62
     6
 10
13310.564095585951
 20
16573.527460591959
 30
0.0
 11
13310.564095585951
 21
19479.985446999988
 31
0.0
  0
LINE
  5
11B5C
  8
0-1
  6
CONTINUOUS
 62
     3
 10
7114.0628415859483
 20
19134.283276124461
 30
0.0
 11
7114.0628415859483
 21
19509.987031000001
 31
0.0
  0
LINE
  5
11B5D
  8
0-1
  6
CONTINUOUS
 62
     3
 10
7249.5634615859544
 20
18933.259367313181
 30
0.0
 11
7249.5634615859544
 21
19461.985685
 31
0.0
  0
LINE
  5
11B5E
  8
0-1
  6
CONTINUOUS
 62
     3
 10
10320.56495258595
 20
17807.22380933446
 30
0.0
 11
10320.56495258595
 21
19461.985685
 31
0.0
  0
LINE
  5
11B5F
  8
0-1
  6
CONTINUOUS
 62
     3
 10
10357.56512458595
 20
17791.957257433889
 30
0.0
 11
10357.56512458595
 21
19461.985685
 31
0.0
  0
LINE
  5
11B60
  8
0-1
  6
CONTINUOUS
 62
     3
 10
10520.56561258597
 20
17724.70201846179
 30
0.0
 11
10520.56561258597
 21
19461.985685
 31
0.0
  0
LINE
  5
11B61
  8
0-1
  6
CONTINUOUS
 62
     3
 10
10557.565784585961
 20
17709.435466561219
 30
0.0
 11
10557.565784585961
 21
19461.985685
 31
0.0
  0
LINE
  5
11B62
  8
0-1
  6
CONTINUOUS
 62
     3
 10
10720.56627258598
 20
17642.180227589099
 30
0.0
 11
10720.56627258598
 21
19461.985685
 31
0.0
  0
LINE
  5
11B63
  8
0-1
  6
CONTINUOUS
 62
     3
 10
10757.56644458598
 20
17626.913675688538
 30
0.0
 11
10757.56644458598
 21
19461.985685
 31
0.0
  0
LINE
  5
11B64
  8
0-1
  6
CONTINUOUS
 62
     3
 10
10920.566932585991
 20
17683.61714701321
 30
0.0
 11
10920.566932585991
 21
19461.985685
 31
0.0
  0
LINE
  5
11B65
  8
0-1
  6
CONTINUOUS
 62
     3
 10
10957.567104585991
 20
17773.291143927981
 30
0.0
 11
10957.567104585991
 21
19461.985685
 31
0.0
  0
LINE
  5
11B66
  8
0-1
  6
CONTINUOUS
 62
     3
 10
11120.567592586
 20
17638.213552947622
 30
0.0
 11
11120.567592586
 21
19461.985685
 31
0.0
  0
LINE
  5
11B67
  8
0-1
  6
CONTINUOUS
 62
     3
 10
11157.567764586
 20
17595.670312558748
 30
0.0
 11
11157.567764586
 21
19461.985685
 31
0.0
  0
LINE
  5
11B68
  8
0-1
  6
CONTINUOUS
 62
     3
 10
11320.568252585999
 20
17408.250401524641
 30
0.0
 11
11320.568252585999
 21
19461.985685
 31
0.0
  0
LINE
  5
11B69
  8
0-1
  6
CONTINUOUS
 62
     3
 10
11357.568424585999
 20
17365.707161135771
 30
0.0
 11
11357.568424585999
 21
19461.985685
 31
0.0
  0
LINE
  5
11B6A
  8
0-1
  6
CONTINUOUS
 62
     3
 10
11520.568912586021
 20
17178.287250101661
 30
0.0
 11
11520.568912586021
 21
19461.985685
 31
0.0
  0
LINE
  5
11B6B
  8
0-1
  6
CONTINUOUS
 62
     3
 10
11557.56908458603
 20
17135.74400971278
 30
0.0
 11
11557.56908458603
 21
19461.985685
 31
0.0
  0
LINE
  5
11B6C
  8
0-1
  6
CONTINUOUS
 62
     3
 10
11720.56957258603
 20
17000.69523749184
 30
0.0
 11
11720.56957258603
 21
19461.985685
 31
0.0
  0
LINE
  5
11B6D
  8
0-1
  6
CONTINUOUS
 62
     3
 10
11757.569744586021
 20
17090.373517523742
 30
0.0
 11
11757.569744586021
 21
19461.985685
 31
0.0
  0
LINE
  5
11B6E
  8
0-1
  6
CONTINUOUS
 62
     3
 10
11920.57023258602
 20
17147.049482353101
 30
0.0
 11
11920.57023258602
 21
19461.985685
 31
0.0
  0
LINE
  5
11B6F
  8
0-1
  6
CONTINUOUS
 62
     3
 10
11957.570404586029
 20
17131.782930452511
 30
0.0
 11
11957.570404586029
 21
19461.985685
 31
0.0
  0
LINE
  5
11B70
  8
0-1
  6
CONTINUOUS
 62
     3
 10
12120.57089258604
 20
17064.527691480431
 30
0.0
 11
12120.57089258604
 21
19461.985685
 31
0.0
  0
LINE
  5
11B71
  8
0-1
  6
CONTINUOUS
 62
     3
 10
12157.571064586051
 20
17049.261139579859
 30
0.0
 11
12157.571064586051
 21
19461.985685
 31
0.0
  0
LINE
  5
11B72
  8
0-1
  6
CONTINUOUS
 62
     3
 10
12320.571552586051
 20
16982.00590060775
 30
0.0
 11
12320.571552586051
 21
19461.985685
 31
0.0
  0
LINE
  5
11B73
  8
0-1
  6
CONTINUOUS
 62
     3
 10
12357.57172458606
 20
16966.739348707179
 30
0.0
 11
12357.57172458606
 21
19461.985685
 31
0.0
  0
LINE
  5
11B74
  8
0-1
  6
CONTINUOUS
 62
     3
 10
12520.572212586059
 20
16899.48410973508
 30
0.0
 11
12520.572212586059
 21
19461.985685
 31
0.0
  0
LINE
  5
11B75
  8
0-1
  6
CONTINUOUS
 62
     3
 10
12557.572384586059
 20
16884.217557834509
 30
0.0
 11
12557.572384586059
 21
19461.985685
 31
0.0
  0
LINE
  5
11B76
  8
2-0
  6
DASHED3
 62
     6
 10
12822.302052075571
 20
16774.988087000002
 30
0.0
 11
13268.06284158595
 21
16774.988087000002
 31
0.0
  0
LINE
  5
11B77
  8
2-0
  6
DASHED3
 62
     6
 10
13040.433692354751
 20
16684.985315999991
 30
0.0
 11
13268.06284158595
 21
16684.985315999991
 31
0.0
  0
LINE
  5
11B78
  8
0-1
  6
CONTINUOUS
 62
     3
 10
10468.06284158595
 20
16684.985315999991
 30
0.0
 11
13040.433692354751
 21
16684.985315999991
 31
0.0
  0
LINE
  5
11B79
  8
0-1
  6
CONTINUOUS
 62
     3
 10
10468.06284158595
 20
16774.988087000002
 30
0.0
 11
12822.302052075571
 21
16774.988087000002
 31
0.0
  0
LINE
  5
11B7A
  8
0-1
  6
CONTINUOUS
 62
     3
 10
10527.563210585949
 20
13811.985710999999
 30
0.0
 11
13124.960916471829
 21
16650.10874153451
 31
0.0
  0
LINE
  5
11B7B
  8
0-1
  6
CONTINUOUS
 62
     3
 10
13198.062841585939
 20
13811.985710999999
 30
0.0
 11
10527.563210585949
 21
16729.985711000001
 31
0.0
  0
LINE
  5
11B7C
  8
0-6
  6
CONTINUOUS
 62
     6
 10
13215.06321058596
 20
14173.92499017764
 30
0.0
 11
12315.625801163171
 21
12841.99802927388
 31
0.0
  0
LINE
  5
11B7D
  8
2-0
  6
DASHED3
 62
     6
 10
10527.563210585949
 20
19297.485711000001
 30
0.0
 11
13198.062841585939
 21
16729.985711000001
 31
0.0
  0
LINE
  5
11B7E
  8
2-0
  6
DASHED3
 62
     6
 10
13198.062841585939
 20
19297.485711000001
 30
0.0
 11
11280.708026831589
 21
17454.08216593436
 31
0.0
  0
LINE
  5
11B7F
  8
0-1
  6
CONTINUOUS
 62
     3
 10
11280.708026831589
 20
17454.08216593436
 30
0.0
 11
10527.563210585949
 21
16729.985711000001
 31
0.0
  0
LINE
  5
11B80
  8
0-1
  6
CONTINUOUS
 62
     3
 10
10876.86075717082
 20
17577.690411339281
 30
0.0
 11
10972.214777494341
 21
17808.791394445481
 31
0.0
  0
LINE
  5
11B81
  8
0-1
  6
CONTINUOUS
 62
     3
 10
11705.914309677561
 20
16965.174895287859
 30
0.0
 11
11801.26495935508
 21
17196.278746994321
 31
0.0
  0
LINE
  5
11B82
  8
0-1
  6
CONTINUOUS
 62
     3
 10
11705.914309677561
 20
16965.174895287859
 30
0.0
 11
10972.214777494341
 21
17808.791394445481
 31
0.0
  0
LINE
  5
11B83
  8
0-1
  6
CONTINUOUS
 62
     3
 10
11801.26390057623
 20
17196.276180804489
 30
0.0
 11
13633.148438517081
 21
16440.42671139364
 31
0.0
  0
LINE
  5
11B84
  8
0-6
  6
CONTINUOUS
 62
     6
 10
8479.3190601982697
 20
16155.884370017549
 30
0.0
 11
9359.3180041982796
 21
16155.884370017549
 31
0.0
  0
LINE
  5
11B85
  8
0-6
  6
CONTINUOUS
 62
     6
 10
8301.5569228498807
 20
15985.867242347231
 30
0.0
 11
8479.3190601982697
 21
16155.884370017549
 31
0.0
  0
LINE
  5
11B86
  8
0-6
  6
CONTINUOUS
 62
     6
 10
8185.9292828498901
 20
15875.27747834722
 30
0.0
 11
8283.1266148498944
 21
16005.13983534724
 31
0.0
  0
LINE
  5
11B87
  8
0-6
  6
CONTINUOUS
 62
     6
 10
8319.9882198498799
 20
15966.59464934722
 30
0.0
 11
8185.9292828498901
 21
15875.27747834722
 31
0.0
  0
LINE
  5
11B88
  8
0-6
  6
CONTINUOUS
 62
     6
 10
8319.9882198498799
 20
15966.59464934722
 30
0.0
 11
8283.1266148498944
 21
16005.13983534724
 31
0.0
  0
TEXT
  5
11B89
  8
0-6
  6
CONTINUOUS
 62
     7
 10
8559.3203141982813
 20
16235.884634017561
 30
0.0
 40
160.0
  1
ブレース
 72
     4
 11
8921.9869808649473
 21
16321.2179673509
 31
0.0
  0
LINE
  5
11B8A
  8
0-6
  6
CONTINUOUS
 62
     6
 10
9539.835208448565
 20
16784.988192000001
 30
0.0
 11
9420.5375901162115
 21
17100.58053000001
 31
0.0
  0
LINE
  5
11B8B
  8
0-6
  6
CONTINUOUS
 62
     6
 10
8619.9668291162197
 20
17100.58053000001
 30
0.0
 11
9420.5375901162115
 21
17100.58053000001
 31
0.0
  0
TEXT
  5
11B8C
  8
0-6
  6
CONTINUOUS
 62
     7
 10
8700.5371941162084
 20
17180.580794000001
 30
0.0
 40
160.0
  1
桁（中）
 72
     4
 11
9020.5371941162084
 21
17260.580794000001
 31
0.0
  0
LINE
  5
11B8D
  8
0-6
  6
CONTINUOUS
 62
     6
 10
11229.450637809359
 20
14131.818919369951
 30
0.0
 11
12109.44958180936
 21
14131.818919369951
 31
0.0
  0
LINE
  5
11B8E
  8
0-6
  6
CONTINUOUS
 62
     6
 10
12477.19128738399
 20
14599.66722600313
 30
0.0
 11
12109.44958180936
 21
14131.818919369951
 31
0.0
  0
TEXT
  5
11B8F
  8
0-6
  6
CONTINUOUS
 62
     7
 10
11309.451891809371
 20
14211.819183369949
 30
0.0
 40
160.0
  1
ブレース
 72
     4
 11
11672.118558476041
 21
14297.15251670328
 31
0.0
  0
LINE
  5
11B90
  8
0-6
  6
CONTINUOUS
 62
     6
 10
11452.94422019639
 20
16153.814839600391
 30
0.0
 11
12245.79515761909
 21
16153.814839600391
 31
0.0
  0
TEXT
  5
11B91
  8
0-6
  6
CONTINUOUS
 62
     7
 10
11535.56397904995
 20
16233.81510360038
 30
0.0
 40
160.0
  1
桁（P）
 72
     4
 11
11839.56397904995
 21
16313.81510360038
 31
0.0
  0
LINE
  5
11B92
  8
0-6
  6
CONTINUOUS
 62
     6
 10
11452.94422019639
 20
16153.814839600391
 30
0.0
 11
11137.652969581821
 21
16684.985315999991
 31
0.0
  0
LINE
  5
11B93
  8
2-0
  6
DASHED3
 62
     6
 10
13124.960916471829
 20
16650.10874153451
 30
0.0
 11
13198.062841585939
 21
16729.985711000001
 31
0.0
  0
LINE
  5
11B99
  8
SUNPOU
  6
CONTINUOUS
 10
6270.0630655859568
 20
19519.98359950001
 30
0.0
 11
6270.0630655859568
 21
20316.950867278461
 31
0.0
  0
LINE
  5
11B9A
  8
SUNPOU
  6
CONTINUOUS
 10
6270.0630655859422
 20
12878.173846847811
 30
0.0
 11
6270.0630655859422
 21
13619.486437
 31
0.0
  0
LINE
  5
11B9B
  8
0-1
  6
CONTINUOUS
 62
     3
 10
8581.505060703159
 20
8152.2344180000064
 30
0.0
 11
8581.505060703159
 21
6291.1885390000007
 31
0.0
  0
LINE
  5
11B9C
  8
0-1
  6
CONTINUOUS
 62
     3
 10
8544.5068687031599
 20
8152.2344180000064
 30
0.0
 11
8544.5068687031599
 21
6291.1885390000007
 31
0.0
  0
LINE
  5
11B9D
  8
0-1
  6
CONTINUOUS
 62
     3
 10
9281.504400703152
 20
8152.2344180000064
 30
0.0
 11
9281.504400703152
 21
6291.1885390000007
 31
0.0
  0
LINE
  5
11B9E
  8
0-1
  6
CONTINUOUS
 62
     3
 10
9244.5062087031547
 20
8152.2344180000064
 30
0.0
 11
9244.5062087031547
 21
6291.1885390000007
 31
0.0
  0
LINE
  5
11B9F
  8
0-1
  6
CONTINUOUS
 62
     3
 10
8903.0046117031452
 20
6291.1885390000007
 30
0.0
 11
8903.0046117031452
 21
8152.2344180000064
 31
0.0
  0
LINE
  5
11BA0
  8
0-1
  6
CONTINUOUS
 62
     3
 10
8923.0056677031607
 20
6291.1885390000007
 30
0.0
 11
8923.0056677031607
 21
8152.2344180000064
 31
0.0
  0
LINE
  5
11BA1
  8
0-1
  6
CONTINUOUS
 62
     3
 10
8853.0059317031555
 20
6291.1885390000007
 30
0.0
 11
8853.0059317031555
 21
8152.2344180000064
 31
0.0
  0
LINE
  5
11BA2
  8
0-1
  6
CONTINUOUS
 62
     3
 10
8973.0053377031581
 20
6291.1885390000007
 30
0.0
 11
8973.0053377031581
 21
8152.2344180000064
 31
0.0
  0
LINE
  5
11BA3
  8
0-1
  6
CONTINUOUS
 62
     3
 10
9106.0052317031514
 20
6291.1885390000007
 30
0.0
 11
9106.0052317031514
 21
8152.2344180000064
 31
0.0
  0
LINE
  5
11BA4
  8
0-1
  6
CONTINUOUS
 62
     3
 10
9121.0050337031553
 20
6291.1885390000007
 30
0.0
 11
9121.0050337031553
 21
8152.2344180000064
 31
0.0
  0
LINE
  5
11BA5
  8
0-1
  6
CONTINUOUS
 62
     3
 10
8720.0050467031542
 20
6291.1885390000007
 30
0.0
 11
8720.0050467031542
 21
8152.2344180000064
 31
0.0
  0
LINE
  5
11BA6
  8
0-1
  6
CONTINUOUS
 62
     3
 10
8705.0062347031635
 20
6291.1885390000007
 30
0.0
 11
8705.0062347031635
 21
8152.2344180000064
 31
0.0
  0
LINE
  5
11BA7
  8
0-1
  6
CONTINUOUS
 62
     3
 10
8421.0056937031623
 20
6291.1885390000007
 30
0.0
 11
8421.0056937031623
 21
8152.2344180000064
 31
0.0
  0
LINE
  5
11BA8
  8
0-1
  6
CONTINUOUS
 62
     3
 10
8406.0049017031542
 20
6291.1885390000007
 30
0.0
 11
8406.0049017031542
 21
8152.2344180000064
 31
0.0
  0
LINE
  5
11BA9
  8
0-1
  6
CONTINUOUS
 62
     3
 10
8273.0059977031488
 20
6291.1885390000007
 30
0.0
 11
8273.0059977031488
 21
8152.2344180000064
 31
0.0
  0
LINE
  5
11BAA
  8
0-1
  6
CONTINUOUS
 62
     3
 10
8153.0046117031579
 20
6291.1885390000007
 30
0.0
 11
8153.0046117031579
 21
8152.2344180000064
 31
0.0
  0
LINE
  5
11BAB
  8
0-1
  6
CONTINUOUS
 62
     3
 10
8223.0073167031642
 20
6291.1885390000007
 30
0.0
 11
8223.0073167031642
 21
8152.2344180000064
 31
0.0
  0
LINE
  5
11BAC
  8
0-1
  6
CONTINUOUS
 62
     3
 10
8203.0062617031672
 20
6291.1885390000007
 30
0.0
 11
8203.0062617031672
 21
8152.2344180000064
 31
0.0
  0
LINE
  5
11BAD
  8
0-1
  6
CONTINUOUS
 62
     3
 10
9405.004585703151
 20
6291.1885390000007
 30
0.0
 11
9405.004585703151
 21
8152.2344180000064
 31
0.0
  0
LINE
  5
11BAE
  8
0-1
  6
CONTINUOUS
 62
     3
 10
9420.0053767031641
 20
6291.1885390000007
 30
0.0
 11
9420.0053767031641
 21
8152.2344180000064
 31
0.0
  0
LINE
  5
11BAF
  8
0-1
  6
CONTINUOUS
 62
     3
 10
9553.0062617031635
 20
6291.1885390000007
 30
0.0
 11
9553.0062617031635
 21
8152.2344180000064
 31
0.0
  0
LINE
  5
11BB0
  8
0-1
  6
CONTINUOUS
 62
     3
 10
9821.0053637031597
 20
6291.1885390000007
 30
0.0
 11
9821.0053637031597
 21
8152.2344180000064
 31
0.0
  0
LINE
  5
11BB1
  8
0-1
  6
CONTINUOUS
 62
     3
 10
9806.0065517031635
 20
6291.1885390000007
 30
0.0
 11
9806.0065517031635
 21
8152.2344180000064
 31
0.0
  0
LINE
  5
11BB2
  8
0-1
  6
CONTINUOUS
 62
     3
 10
9673.0056677031516
 20
6291.1885390000007
 30
0.0
 11
9673.0056677031516
 21
8152.2344180000064
 31
0.0
  0
LINE
  5
11BB3
  8
0-1
  6
CONTINUOUS
 62
     3
 10
9623.0059977031488
 20
6291.1885390000007
 30
0.0
 11
9623.0059977031488
 21
8152.2344180000064
 31
0.0
  0
LINE
  5
11BB4
  8
0-1
  6
CONTINUOUS
 62
     3
 10
9603.0069207031647
 20
6291.1885390000007
 30
0.0
 11
9603.0069207031647
 21
8152.2344180000064
 31
0.0
  0
LINE
  5
11BB5
  8
0-1
  6
CONTINUOUS
 62
     3
 10
10431.005891703149
 20
6291.1885390000007
 30
0.0
 11
10431.005891703149
 21
8152.2344180000064
 31
0.0
  0
LINE
  5
11BB6
  8
0-1
  6
CONTINUOUS
 62
     3
 10
10411.006815703149
 20
6291.1885390000007
 30
0.0
 11
10411.006815703149
 21
8152.2344180000064
 31
0.0
  0
LINE
  5
11BB7
  8
0-1
  6
CONTINUOUS
 62
     3
 10
10481.00655170314
 20
6291.1885390000007
 30
0.0
 11
10481.00655170314
 21
8152.2344180000064
 31
0.0
  0
LINE
  5
11BB8
  8
0-1
  6
CONTINUOUS
 62
     3
 10
10361.006155703149
 20
6291.1885390000007
 30
0.0
 11
10361.006155703149
 21
8152.2344180000064
 31
0.0
  0
LINE
  5
11BB9
  8
0-1
  6
CONTINUOUS
 62
     3
 10
10228.006261703151
 20
6291.1885390000007
 30
0.0
 11
10228.006261703151
 21
8152.2344180000064
 31
0.0
  0
LINE
  5
11BBA
  8
0-1
  6
CONTINUOUS
 62
     3
 10
10213.004479703141
 20
6291.1885390000007
 30
0.0
 11
10213.004479703141
 21
8152.2344180000064
 31
0.0
  0
LINE
  5
11BBB
  8
0-1
  6
CONTINUOUS
 62
     3
 10
10614.00644570314
 20
6291.1885390000007
 30
0.0
 11
10614.00644570314
 21
8152.2344180000064
 31
0.0
  0
LINE
  5
11BBC
  8
0-1
  6
CONTINUOUS
 62
     3
 10
10629.005258703161
 20
6291.1885390000007
 30
0.0
 11
10629.005258703161
 21
8152.2344180000064
 31
0.0
  0
LINE
  5
11BBD
  8
0-1
  6
CONTINUOUS
 62
     3
 10
12313.00546970313
 20
6291.1885390000007
 30
0.0
 11
12313.00546970313
 21
8152.2344180000064
 31
0.0
  0
LINE
  5
11BBE
  8
0-1
  6
CONTINUOUS
 62
     3
 10
12328.00527170315
 20
6291.1885390000007
 30
0.0
 11
12328.00527170315
 21
8152.2344180000064
 31
0.0
  0
LINE
  5
11BBF
  8
0-1
  6
CONTINUOUS
 62
     3
 10
12461.006155703149
 20
6291.1885390000007
 30
0.0
 11
12461.006155703149
 21
8152.2344180000064
 31
0.0
  0
LINE
  5
11BC0
  8
0-1
  6
CONTINUOUS
 62
     3
 10
12581.005561703159
 20
6291.1885390000007
 30
0.0
 11
12581.005561703159
 21
8152.2344180000064
 31
0.0
  0
LINE
  5
11BC1
  8
0-1
  6
CONTINUOUS
 62
     3
 10
12511.006815703149
 20
6291.1885390000007
 30
0.0
 11
12511.006815703149
 21
8152.2344180000064
 31
0.0
  0
LINE
  5
11BC2
  8
0-1
  6
CONTINUOUS
 62
     3
 10
12531.00589170314
 20
6291.1885390000007
 30
0.0
 11
12531.00589170314
 21
8152.2344180000064
 31
0.0
  0
LINE
  5
11BC3
  8
0-1
  6
CONTINUOUS
 62
     3
 10
11831.00655170316
 20
6291.1885390000007
 30
0.0
 11
11831.00655170316
 21
8152.2344180000064
 31
0.0
  0
LINE
  5
11BC4
  8
0-1
  6
CONTINUOUS
 62
     3
 10
11811.00549570317
 20
6291.1885390000007
 30
0.0
 11
11811.00549570317
 21
8152.2344180000064
 31
0.0
  0
LINE
  5
11BC5
  8
0-1
  6
CONTINUOUS
 62
     3
 10
11881.00523170315
 20
6291.1885390000007
 30
0.0
 11
11881.00523170315
 21
8152.2344180000064
 31
0.0
  0
LINE
  5
11BC6
  8
0-1
  6
CONTINUOUS
 62
     3
 10
11761.006815703149
 20
6291.1885390000007
 30
0.0
 11
11761.006815703149
 21
8152.2344180000064
 31
0.0
  0
LINE
  5
11BC7
  8
0-1
  6
CONTINUOUS
 62
     3
 10
11628.00593170315
 20
6291.1885390000007
 30
0.0
 11
11628.00593170315
 21
8152.2344180000064
 31
0.0
  0
LINE
  5
11BC8
  8
0-1
  6
CONTINUOUS
 62
     3
 10
11613.006129703141
 20
6291.1885390000007
 30
0.0
 11
11613.006129703141
 21
8152.2344180000064
 31
0.0
  0
LINE
  5
11BC9
  8
0-1
  6
CONTINUOUS
 62
     3
 10
12014.004136703161
 20
6291.1885390000007
 30
0.0
 11
12014.004136703161
 21
8152.2344180000064
 31
0.0
  0
LINE
  5
11BCA
  8
0-1
  6
CONTINUOUS
 62
     3
 10
12029.005917703151
 20
6291.1885390000007
 30
0.0
 11
12029.005917703151
 21
8152.2344180000064
 31
0.0
  0
LINE
  5
11BCB
  8
0-1
  6
CONTINUOUS
 62
     3
 10
11329.00657770314
 20
6291.1885390000007
 30
0.0
 11
11329.00657770314
 21
8152.2344180000064
 31
0.0
  0
LINE
  5
11BCC
  8
0-1
  6
CONTINUOUS
 62
     3
 10
11314.004796703141
 20
6291.1885390000007
 30
0.0
 11
11314.004796703141
 21
8152.2344180000064
 31
0.0
  0
LINE
  5
11BCD
  8
0-1
  6
CONTINUOUS
 62
     3
 10
10913.00678870316
 20
6291.1885390000007
 30
0.0
 11
10913.00678870316
 21
8152.2344180000064
 31
0.0
  0
LINE
  5
11BCE
  8
0-1
  6
CONTINUOUS
 62
     3
 10
10928.00560170314
 20
6291.1885390000007
 30
0.0
 11
10928.00560170314
 21
8152.2344180000064
 31
0.0
  0
LINE
  5
11BCF
  8
0-1
  6
CONTINUOUS
 62
     3
 10
11061.004505703149
 20
6291.1885390000007
 30
0.0
 11
11061.004505703149
 21
8152.2344180000064
 31
0.0
  0
LINE
  5
11BD0
  8
0-1
  6
CONTINUOUS
 62
     3
 10
11181.00589170314
 20
6291.1885390000007
 30
0.0
 11
11181.00589170314
 21
8152.2344180000064
 31
0.0
  0
LINE
  5
11BD1
  8
0-1
  6
CONTINUOUS
 62
     3
 10
11111.00615570314
 20
6291.1885390000007
 30
0.0
 11
11111.00615570314
 21
8152.2344180000064
 31
0.0
  0
LINE
  5
11BD2
  8
0-1
  6
CONTINUOUS
 62
     3
 10
11131.00523170315
 20
6291.1885390000007
 30
0.0
 11
11131.00523170315
 21
8152.2344180000064
 31
0.0
  0
LINE
  5
11BD3
  8
0-1
  6
CONTINUOUS
 62
     3
 10
10789.50660470316
 20
8152.2344180000064
 30
0.0
 11
10789.50660470316
 21
6291.1885390000007
 31
0.0
  0
LINE
  5
11BD4
  8
0-1
  6
CONTINUOUS
 62
     3
 10
10752.50544270315
 20
8152.2344180000064
 30
0.0
 11
10752.50544270315
 21
6291.1885390000007
 31
0.0
  0
LINE
  5
11BD5
  8
0-1
  6
CONTINUOUS
 62
     3
 10
12189.504294703151
 20
8152.2344180000064
 30
0.0
 11
12189.504294703151
 21
6291.1885390000007
 31
0.0
  0
LINE
  5
11BD6
  8
0-1
  6
CONTINUOUS
 62
     3
 10
12152.50511270314
 20
8152.2344180000064
 30
0.0
 11
12152.50511270314
 21
6291.1885390000007
 31
0.0
  0
LINE
  5
11BD7
  8
0-1
  6
CONTINUOUS
 62
     3
 10
11489.505944703151
 20
8152.2344180000064
 30
0.0
 11
11489.505944703151
 21
6291.1885390000007
 31
0.0
  0
LINE
  5
11BD8
  8
0-1
  6
CONTINUOUS
 62
     3
 10
11452.50577270316
 20
8152.2344180000064
 30
0.0
 11
11452.50577270316
 21
6291.1885390000007
 31
0.0
  0
LINE
  5
11BD9
  8
0-1
  6
CONTINUOUS
 62
     3
 10
12990.005416703139
 20
6241.1883740000021
 30
0.0
 11
12990.005416703139
 21
6141.1885390000007
 31
0.0
  0
LINE
  5
11BDA
  8
0-1
  6
CONTINUOUS
 62
     3
 10
12957.50462570315
 20
8455.5174490000027
 30
0.0
 11
12957.50462570315
 21
6241.1883740000021
 31
0.0
  0
LINE
  5
11BDB
  8
0-1
  6
CONTINUOUS
 62
     3
 10
12977.50541670315
 20
8456.0984379999973
 30
0.0
 11
12977.50541670315
 21
6241.1883740000021
 31
0.0
  0
LINE
  5
11BDC
  8
0-1
  6
CONTINUOUS
 62
     3
 10
12862.50554870314
 20
8152.2344180000064
 30
0.0
 11
12862.50554870314
 21
6241.1883740000021
 31
0.0
  0
LINE
  5
11BDD
  8
0-1
  6
CONTINUOUS
 62
     3
 10
10017.005416703139
 20
8356.9898809999977
 30
0.0
 11
10017.005416703139
 21
8152.2344180000064
 31
0.0
  0
LINE
  5
11BDE
  8
0-1
  6
CONTINUOUS
 62
     3
 10
9944.5055487031641
 20
8152.2344180000064
 30
0.0
 11
9944.5055487031641
 21
6241.1883740000021
 31
0.0
  0
LINE
  5
11BDF
  8
0-1
  6
CONTINUOUS
 62
     3
 10
10089.50429470314
 20
8152.2344180000064
 30
0.0
 11
10089.50429470314
 21
6241.1883740000021
 31
0.0
  0
LINE
  5
11BE0
  8
0-1
  6
CONTINUOUS
 62
     3
 10
10089.50429470314
 20
6291.1885390000007
 30
0.0
 11
12862.50554870314
 21
6291.1885390000007
 31
0.0
  0
LINE
  5
11BE1
  8
0-1
  6
CONTINUOUS
 62
     3
 10
7399.5054167031458
 20
6141.1885390000007
 30
0.0
 11
7399.5054167031458
 21
6241.1883740000021
 31
0.0
  0
LINE
  5
11BE2
  8
0-1
  6
CONTINUOUS
 62
     3
 10
7427.0052187031542
 20
8268.990877000002
 30
0.0
 11
7427.0052187031542
 21
6241.1883740000021
 31
0.0
  0
LINE
  5
11BE3
  8
0-1
  6
CONTINUOUS
 62
     3
 10
7407.0054167031503
 20
8268.3741496838102
 30
0.0
 11
7407.0054167031503
 21
6241.1883740000021
 31
0.0
  0
LINE
  5
11BE4
  8
0-1
  6
CONTINUOUS
 62
     3
 10
7399.5054167031458
 20
6241.1883740000021
 30
0.0
 11
12990.005416703139
 21
6241.1883740000021
 31
0.0
  0
LINE
  5
11BE5
  8
0-1
  6
CONTINUOUS
 62
     3
 10
7522.0042957031546
 20
6291.1885390000007
 30
0.0
 11
9944.5055487031641
 21
6291.1885390000007
 31
0.0
  0
LINE
  5
11BE6
  8
0-1
  6
CONTINUOUS
 62
     3
 10
6717.0043617031479
 20
6141.1885390000007
 30
0.0
 11
12990.005416703139
 21
6141.1885390000007
 31
0.0
  0
LINE
  5
11BE7
  8
0-1
  6
CONTINUOUS
 62
     3
 10
7427.0052187031542
 20
8152.2344180000064
 30
0.0
 11
12957.50462570315
 21
8152.2344180000064
 31
0.0
  0
LINE
  5
11BE8
  8
0-1
  6
CONTINUOUS
 62
     3
 10
7232.7035927031557
 20
8303.1736990000027
 30
0.0
 11
13063.19508170315
 21
8498.6897600000066
 31
0.0
  0
LINE
  5
11BE9
  8
0-1
  6
CONTINUOUS
 62
     3
 10
13061.69460670314
 20
8548.6686450000016
 30
0.0
 11
7231.2041077031454
 21
8353.151595000003
 31
0.0
  0
LINE
  5
11BEA
  8
0-1
  6
CONTINUOUS
 62
     3
 10
7228.1140797031549
 20
8356.0604969999968
 30
0.0
 11
7227.1540127031449
 21
8388.0460529999982
 31
0.0
  0
LINE
  5
11BEB
  8
0-1
  6
CONTINUOUS
 62
     3
 10
7232.0028437031579
 20
8393.1932959999976
 30
0.0
 11
13081.46405870315
 21
8589.2804480000032
 31
0.0
  0
LINE
  5
11BEC
  8
0-1
  6
CONTINUOUS
 62
     3
 10
13085.36865870315
 20
8459.338910000004
 30
0.0
 11
7235.903484703158
 21
8263.2522529999969
 31
0.0
  0
LINE
  5
11BED
  8
0-1
  6
CONTINUOUS
 62
     3
 10
7230.7557467031602
 20
8268.099599000001
 30
0.0
 11
7229.7966697031497
 21
8300.0856499999973
 31
0.0
  0
LINE
  5
11BEE
  8
0-1
  6
CONTINUOUS
 62
     3
 10
7229.4651007031498
 20
8311.0803909999977
 30
0.0
 11
7228.4446587031571
 21
8345.0647660000086
 31
0.0
  0
LINE
  5
11BEF
  8
0-1
  6
CONTINUOUS
 62
     3
 10
7231.3535617031584
 20
8348.1538049999999
 30
0.0
 11
13061.846039703139
 21
8543.6713500000023
 31
0.0
  0
LINE
  5
11BF0
  8
0-1
  6
CONTINUOUS
 62
     3
 10
13063.04562770315
 20
8503.6880440000004
 30
0.0
 11
7232.5551297031498
 21
8308.1719839999969
 31
0.0
  0
LINE
  5
11BF1
  8
0-1
  6
CONTINUOUS
 62
     3
 10
10017.005416703139
 20
8356.9898809999977
 30
0.0
 11
10013.102795703149
 21
8486.9314189999968
 31
0.0
  0
LINE
  5
11BF2
  8
0-1
  6
CONTINUOUS
 62
     3
 10
13052.40175670315
 20
8458.3481610000017
 30
0.0
 11
13048.500125703151
 21
8588.2896989999972
 31
0.0
  0
LINE
  5
11BF3
  8
0-1
  6
CONTINUOUS
 62
     3
 10
7244.4955857031518
 20
8393.5684149999979
 30
0.0
 11
7248.3982067031557
 21
8263.6273720000008
 31
0.0
  0
LINE
  5
11BF4
  8
0-5
  6
CONTINUOUS
 62
     4
 10
14695.090404703151
 20
6241.1883740000021
 30
0.0
 11
14815.090800703139
 21
6449.0353509999959
 31
0.0
  0
LINE
  5
11BF5
  8
0-5
  6
CONTINUOUS
 62
     4
 10
14575.091987703139
 20
6449.0353509999959
 30
0.0
 11
14695.090404703151
 21
6241.1883740000021
 31
0.0
  0
LINE
  5
11BF6
  8
0-5
  6
CONTINUOUS
 62
     4
 10
14815.090800703139
 20
6449.0353509999959
 30
0.0
 11
14575.091987703139
 21
6449.0353509999959
 31
0.0
  0
LINE
  5
11BF7
  8
0-5
  6
CONTINUOUS
 62
     4
 10
13070.00271170314
 20
6241.1883740000021
 30
0.0
 11
14787.46859770314
 21
6241.1883740000021
 31
0.0
  0
LINE
  5
11BF8
  8
0-5
  6
CONTINUOUS
 62
     4
 10
13070.00271170314
 20
6141.1885390000007
 30
0.0
 11
20193.78101581736
 21
6141.1885390000007
 31
0.0
  0
LINE
  5
11BF9
  8
0-5
  6
CONTINUOUS
 62
     4
 10
12935.005416703139
 20
4461.1889349999938
 30
0.0
 11
12935.005416703139
 21
4301.1893970000001
 31
0.0
  0
LINE
  5
11BFA
  8
0-5
  6
CONTINUOUS
 62
     4
 10
10017.005416703139
 20
4461.1889349999938
 30
0.0
 11
10017.005416703139
 21
4301.1893970000001
 31
0.0
  0
LINE
  5
11BFB
  8
0-5
  6
CONTINUOUS
 62
     4
 10
7449.5054167031458
 20
4461.1889349999938
 30
0.0
 11
7449.5054167031458
 21
4301.1893970000001
 31
0.0
  0
LINE
  5
11BFC
  8
2-0
  6
CENTER2
 62
     6
 10
12935.005416703139
 20
5878.536116000002
 30
0.0
 11
12935.005416703139
 21
6935.6787139999988
 31
0.0
  0
LINE
  5
11BFD
  8
2-0
  6
CENTER2
 62
     6
 10
10017.005416703139
 20
5878.536116000002
 30
0.0
 11
10017.005416703139
 21
6935.6787139999988
 31
0.0
  0
LINE
  5
11BFE
  8
2-0
  6
CENTER2
 62
     6
 10
7449.5054167031458
 20
5878.536116000002
 30
0.0
 11
7449.5054167031458
 21
6935.6787139999988
 31
0.0
  0
ARC
  5
11BFF
  8
0-1
  6
CONTINUOUS
 62
     3
 10
13062.444843703141
 20
8523.680191999998
 30
0.0
 40
24.999998999999999
 50
271.71998600002598
 51
91.719986000025997
  0
ARC
  5
11C00
  8
0-1
  6
CONTINUOUS
 62
     3
 10
7231.1140397031568
 20
8356.1505650000017
 30
0.0
 40
3.0
 50
181.71998600001371
 51
271.71998600002598
  0
ARC
  5
11C01
  8
0-1
  6
CONTINUOUS
 62
     3
 10
7232.151307703155
 20
8388.1955070000022
 30
0.0
 40
5.0
 50
91.719986000025997
 51
181.71998600001371
  0
ARC
  5
11C02
  8
0-1
  6
CONTINUOUS
 62
     3
 10
13057.44754970314
 20
8523.5297490000066
 30
0.0
 40
69.999999000000003
 50
293.50677499978701
 51
69.933196999905391
  0
ARC
  5
11C03
  8
0-1
  6
CONTINUOUS
 62
     3
 10
7235.7550207031618
 20
8268.2500430000073
 30
0.0
 40
5.0
 50
181.71998600001371
 51
271.71998600002598
  0
ARC
  5
11C04
  8
0-1
  6
CONTINUOUS
 62
     3
 10
7232.7936617031519
 20
8300.1752229999984
 30
0.0
 40
3.0
 50
91.719986000025997
 51
181.71998600001371
  0
ARC
  5
11C05
  8
0-1
  6
CONTINUOUS
 62
     3
 10
7232.7778247031547
 20
8350.697981000003
 30
0.0
 40
2.5
 50
271.71998600002598
 51
91.719986000025997
  0
ARC
  5
11C06
  8
0-1
  6
CONTINUOUS
 62
     3
 10
7234.1278567031568
 20
8305.7178750000003
 30
0.0
 40
2.5
 50
271.71998600002598
 51
91.719986000025997
  0
ARC
  5
11C07
  8
0-1
  6
CONTINUOUS
 62
     3
 10
7231.4436297031498
 20
8345.1553289999974
 30
0.0
 40
3.0
 50
91.719986000025997
 51
181.71998600001371
  0
ARC
  5
11C08
  8
0-1
  6
CONTINUOUS
 62
     3
 10
13062.444843703141
 20
8523.680191999998
 30
0.0
 40
20.0
 50
271.71998600002598
 51
91.719986000025997
  0
ARC
  5
11C09
  8
0-1
  6
CONTINUOUS
 62
     3
 10
7232.4640717031498
 20
8311.1699640000006
 30
0.0
 40
3.0
 50
181.71998600001371
 51
271.71998600002598
  0
CIRCLE
  5
11C0A
  8
0-5
  6
CONTINUOUS
 62
     4
 10
10017.005416703139
 20
4101.1882420000011
 30
0.0
 40
199.9999949999999
  0
CIRCLE
  5
11C0B
  8
0-5
  6
CONTINUOUS
 62
     4
 10
12935.005416703139
 20
4101.1882420000011
 30
0.0
 40
199.9999949999999
  0
CIRCLE
  5
11C0C
  8
0-5
  6
CONTINUOUS
 62
     4
 10
7449.5054167031458
 20
4101.1882420000011
 30
0.0
 40
199.9999949999999
  0
TEXT
  5
11C0D
  8
0-5
  6
CONTINUOUS
 62
     7
 10
14235.99847570314
 20
6529.0346249999966
 30
0.0
 40
160.0
  1
布基礎天端
 72
     4
 11
14694.665142369809
 21
6609.0346249999984
 31
0.0
  0
TEXT
  5
11C0E
  8
0-5
  6
CONTINUOUS
 62
     7
 10
12888.04925670316
 20
4017.9774460000021
 30
0.0
 40
160.0
  1
A
 72
     4
 11
12941.38259003649
 21
4097.9774460000026
 31
0.0
  0
TEXT
  5
11C0F
  8
0-5
  6
CONTINUOUS
 62
     7
 10
9970.049256703147
 20
4017.9774460000021
 30
0.0
 40
160.0
  1
B
 72
     4
 11
10023.382590036481
 21
4097.9774460000026
 31
0.0
  0
TEXT
  5
11C10
  8
0-5
  6
CONTINUOUS
 62
     7
 10
7402.549256703157
 20
4017.9774460000021
 30
0.0
 40
160.0
  1
C
 72
     4
 11
7455.8825900364909
 21
4097.9774460000026
 31
0.0
  0
LINE
  5
11C11
  8
SUNPOU
  6
CONTINUOUS
 10
7227.0054167031494
 20
9389.1900500000029
 30
0.0
 11
6722.2175468097421
 21
9389.1900500000029
 31
0.0
  0
LINE
  5
11C12
  8
0-1
  6
CONTINUOUS
 62
     3
 10
12729.00624770315
 20
6291.1885389999989
 30
0.0
 11
12729.00624770315
 21
8152.2344180000036
 31
0.0
  0
LINE
  5
11C13
  8
0-1
  6
CONTINUOUS
 62
     3
 10
12714.004466703151
 20
6291.1885389999989
 30
0.0
 11
12714.004466703151
 21
8152.2344180000036
 31
0.0
  0
LINE
  5
11C14
  8
0-1
  6
CONTINUOUS
 62
     3
 10
7881.5027507031482
 20
8152.2344180000036
 30
0.0
 11
7881.5027507031482
 21
6291.1885389999989
 31
0.0
  0
LINE
  5
11C15
  8
0-1
  6
CONTINUOUS
 62
     3
 10
7844.5045587031491
 20
8152.2344180000036
 30
0.0
 11
7844.5045587031491
 21
6291.1885389999989
 31
0.0
  0
LINE
  5
11C16
  8
0-1
  6
CONTINUOUS
 62
     3
 10
7706.0035817031458
 20
6291.1885389999989
 30
0.0
 11
7706.0035817031458
 21
8152.2344180000036
 31
0.0
  0
LINE
  5
11C17
  8
0-1
  6
CONTINUOUS
 62
     3
 10
7721.0033837031569
 20
6291.1885389999989
 30
0.0
 11
7721.0033837031569
 21
8152.2344180000036
 31
0.0
  0
LINE
  5
11C18
  8
0-1
  6
CONTINUOUS
 62
     3
 10
8005.0029357031508
 20
6291.1885389999989
 30
0.0
 11
8005.0029357031508
 21
8152.2344180000036
 31
0.0
  0
LINE
  5
11C19
  8
0-1
  6
CONTINUOUS
 62
     3
 10
8020.0037267031566
 20
6291.1885389999989
 30
0.0
 11
8020.0037267031566
 21
8152.2344180000036
 31
0.0
  0
LINE
  5
11C1A
  8
0-1
  6
CONTINUOUS
 62
     3
 10
7522.0042957031546
 20
8152.2344180000064
 30
0.0
 11
7522.0042957031546
 21
6241.1883740000021
 31
0.0
  0
LINE
  5
11D75
  8
2-0
  6
CENTER2
 62
     6
 10
18302.282876817349
 20
19317.986978000001
 30
0.0
 11
18622.282216817359
 21
19317.986978000001
 31
0.0
  0
LINE
  5
11D76
  8
2-0
  6
CENTER2
 62
     6
 10
18782.282216817359
 20
19317.986978000001
 30
0.0
 11
26717.888635769279
 21
19317.986978000001
 31
0.0
  0
LINE
  5
11D77
  8
2-0
  6
CENTER2
 62
     6
 10
18302.282876817349
 20
16750.486978000001
 30
0.0
 11
18531.084237813211
 21
16750.486978000001
 31
0.0
  0
LINE
  5
11D78
  8
2-0
  6
CENTER2
 62
     6
 10
19167.46566585968
 20
16750.486978000001
 30
0.0
 11
26717.888635769279
 21
16750.486978000001
 31
0.0
  0
LINE
  5
11D79
  8
2-0
  6
CENTER2
 62
     6
 10
18302.282876817349
 20
13832.486978000001
 30
0.0
 11
18622.282216817359
 21
13832.486978000001
 31
0.0
  0
LINE
  5
11D7A
  8
2-0
  6
CENTER2
 62
     6
 10
18782.282216817359
 20
13832.486978000001
 30
0.0
 11
26717.888635769279
 21
13832.48697800001
 31
0.0
  0
CIRCLE
  5
11D7B
  8
0-5
  6
CONTINUOUS
 62
     4
 10
23613.283799817342
 20
21160.487902000001
 30
0.0
 40
199.9999949999999
  0
CIRCLE
  5
11D7C
  8
0-5
  6
CONTINUOUS
 62
     4
 10
18102.28221681737
 20
19317.986978000001
 30
0.0
 40
199.9999949999999
  0
CIRCLE
  5
11D7D
  8
0-5
  6
CONTINUOUS
 62
     4
 10
18102.282216817359
 20
16750.486978000001
 30
0.0
 40
199.9999949999999
  0
CIRCLE
  5
11D7E
  8
0-5
  6
CONTINUOUS
 62
     4
 10
18102.28221681737
 20
13832.486978000001
 30
0.0
 40
199.9999949999999
  0
CIRCLE
  5
11D7F
  8
0-5
  6
CONTINUOUS
 62
     4
 10
20344.783799817342
 20
21160.487902000001
 30
0.0
 40
199.9999949999999
  0
TEXT
  5
11D80
  8
0-5
  6
CONTINUOUS
 62
     7
 10
23558.61345581734
 20
21074.262051999998
 30
0.0
 40
160.0
  1
2
 72
     4
 11
23611.946789150668
 21
21154.262051999998
 31
0.0
  0
TEXT
  5
11D81
  8
0-5
  6
CONTINUOUS
 62
     7
 10
20290.11345581734
 20
21074.262051999998
 30
0.0
 40
160.0
  1
1
 72
     4
 11
20316.780122484011
 21
21154.262051999998
 31
0.0
  0
TEXT
  5
11D82
  8
0-5
  6
CONTINUOUS
 62
     7
 10
18053.605854817371
 20
19226.368919
 30
0.0
 40
160.0
  1
C
 72
     4
 11
18106.9391881507
 21
19306.368919
 31
0.0
  0
TEXT
  5
11D83
  8
0-5
  6
CONTINUOUS
 62
     7
 10
18053.605854817371
 20
16658.868920000012
 30
0.0
 40
160.0
  1
B
 72
     4
 11
18106.9391881507
 21
16738.868920000012
 31
0.0
  0
TEXT
  5
11D84
  8
0-5
  6
CONTINUOUS
 62
     7
 10
18053.605854817371
 20
13740.868919
 30
0.0
 40
160.0
  1
A
 72
     4
 11
18106.9391881507
 21
13820.868919
 31
0.0
  0
LINE
  5
11D85
  8
2-0
  6
CENTER2
 62
     6
 10
26413.283799817349
 20
20960.489221
 30
0.0
 11
26413.283799817349
 21
13474.73309953157
 31
0.0
  0
CIRCLE
  5
11D86
  8
0-5
  6
CONTINUOUS
 62
     4
 10
26413.283799817349
 20
21160.487902000001
 30
0.0
 40
199.9999949999999
  0
TEXT
  5
11D87
  8
0-5
  6
CONTINUOUS
 62
     7
 10
26358.613455817351
 20
21074.262051999998
 30
0.0
 40
160.0
  1
3
 72
     4
 11
26411.946789150679
 21
21154.262051999998
 31
0.0
  0
ARC
  5
11D88
  8
1-後柱P
  6
HIDE-M
 62
     6
 10
26416.883799817359
 20
19249.936978000002
 30
0.0
 40
2.6000000000000001
 50
180.0
 51
270.0
  0
LINE
  5
11D89
  8
1-後柱P
  6
HIDE-M
 62
     6
 10
26405.283799817349
 20
19247.887587846799
 30
0.0
 11
26405.283799817349
 21
19251.536978
 31
0.0
  0
LINE
  5
11D8A
  8
1-後柱P
  6
HIDE-M
 62
     6
 10
26415.283799817349
 20
19247.887587846799
 30
0.0
 11
26415.283799817349
 21
19251.536978
 31
0.0
  0
LINE
  5
11D8B
  8
1-後柱P
  6
1PL-M
 62
     6
 10
26410.283799817342
 20
19242.33697800001
 30
0.0
 11
26410.283799817342
 21
19256.536978
 31
0.0
  0
ARC
  5
11D8C
  8
1-後柱P
  6
HIDE-M
 62
     6
 10
26403.683799817351
 20
19249.936978000002
 30
0.0
 40
2.6000000000000001
 50
270.0
 51
0.0
  0
LINE
  5
11D8D
  8
1-後柱P
  6
HIDE-M
 62
     6
 10
26414.283799817342
 20
19249.936978000002
 30
0.0
 11
26414.283799817342
 21
19251.536978
 31
0.0
  0
LINE
  5
11D8E
  8
1-後柱P
  6
HIDE-M
 62
     6
 10
26406.283799817342
 20
19249.936978000002
 30
0.0
 11
26406.283799817342
 21
19251.536978
 31
0.0
  0
LINE
  5
11D8F
  8
1-後柱P
 10
26424.183799817361
 20
19362.236978000001
 30
0.0
 11
26402.383799817351
 21
19362.236978000001
 31
0.0
  0
LINE
  5
11D90
  8
1-後柱P
 10
26372.383799817351
 20
19324.936978000002
 30
0.0
 11
26372.383799817351
 21
19332.236978000001
 31
0.0
  0
ARC
  5
11D91
  8
1-後柱P
 10
26402.383799817351
 20
19332.236978000001
 30
0.0
 40
30.0
 50
90.0
 51
180.0
  0
ARC
  5
11D92
  8
1-後柱P
 10
26402.383799817351
 20
19332.236978000001
 30
0.0
 40
31.600000000000001
 50
90.0
 51
180.0
  0
LINE
  5
11D93
  8
1-後柱P
 10
26424.183799817361
 20
19363.83697800001
 30
0.0
 11
26402.383799817351
 21
19363.83697800001
 31
0.0
  0
LINE
  5
11D94
  8
1-後柱P
 10
26370.783799817349
 20
19324.936978000002
 30
0.0
 11
26370.783799817349
 21
19332.236978000001
 31
0.0
  0
LINE
  5
11D95
  8
1-後柱P
 10
26393.783799817349
 20
19303.33697800001
 30
0.0
 11
26393.783799817349
 21
19313.33697800001
 31
0.0
  0
LINE
  5
11D96
  8
1-後柱P
 10
26395.383799817351
 20
19313.33697800001
 30
0.0
 11
26395.383799817351
 21
19303.33697800001
 31
0.0
  0
LINE
  5
11D97
  8
1-後柱P
 10
26454.183799817361
 20
19324.936978000002
 30
0.0
 11
26454.183799817361
 21
19332.236978000001
 31
0.0
  0
ARC
  5
11D98
  8
1-後柱P
 10
26424.183799817361
 20
19332.236978000001
 30
0.0
 40
30.0
 50
0.0
 51
90.0
  0
ARC
  5
11D99
  8
1-後柱P
 10
26424.183799817361
 20
19332.236978000001
 30
0.0
 40
31.600000000000001
 50
0.0
 51
90.0
  0
LINE
  5
11D9A
  8
1-後柱P
 10
26455.783799817342
 20
19324.936978000002
 30
0.0
 11
26455.783799817342
 21
19332.236978000001
 31
0.0
  0
LINE
  5
11D9B
  8
1-後柱P
 10
26449.183799817351
 20
19318.33697800001
 30
0.0
 11
26437.783799817349
 21
19318.33697800001
 31
0.0
  0
ARC
  5
11D9C
  8
1-後柱P
 10
26449.183799817351
 20
19324.936978000002
 30
0.0
 40
6.599999999999997
 50
270.0
 51
0.0
  0
ARC
  5
11D9D
  8
1-後柱P
 10
26437.783799817349
 20
19313.33697800001
 30
0.0
 40
5.0
 50
90.0
 51
180.0
  0
LINE
  5
11D9E
  8
1-後柱P
 10
26449.183799817351
 20
19319.936978000002
 30
0.0
 11
26437.783799817349
 21
19319.936978000002
 31
0.0
  0
ARC
  5
11D9F
  8
1-後柱P
 10
26449.183799817351
 20
19324.936978000002
 30
0.0
 40
5.0
 50
270.0
 51
0.0
  0
LINE
  5
11DA0
  8
1-後柱P
 10
26432.783799817342
 20
19313.33697800001
 30
0.0
 11
26432.783799817342
 21
19253.936978000002
 31
0.0
  0
LINE
  5
11DA1
  8
1-後柱P
 10
26431.183799817351
 20
19313.33697800001
 30
0.0
 11
26431.183799817351
 21
19253.936978000002
 31
0.0
  0
ARC
  5
11DA2
  8
1-後柱P
 10
26437.783799817349
 20
19313.33697800001
 30
0.0
 40
6.599999999999997
 50
90.0
 51
180.0
  0
LINE
  5
11DA3
  8
1-後柱P
 10
26426.183799817351
 20
19247.33697800001
 30
0.0
 11
26392.783799817342
 21
19247.33697800001
 31
0.0
  0
ARC
  5
11DA4
  8
1-後柱P
 10
26426.183799817351
 20
19253.936978000002
 30
0.0
 40
6.599999999999997
 50
270.0
 51
0.0
  0
LINE
  5
11DA5
  8
1-後柱P
 10
26426.183799817351
 20
19248.936978000002
 30
0.0
 11
26392.783799817342
 21
19248.936978000002
 31
0.0
  0
ARC
  5
11DA6
  8
1-後柱P
 10
26426.183799817351
 20
19253.936978000002
 30
0.0
 40
5.0
 50
270.0
 51
0.0
  0
LINE
  5
11DA7
  8
1-後柱P
 10
26392.783799817342
 20
19248.936978000002
 30
0.0
 11
26392.783799817342
 21
19247.33697800001
 31
0.0
  0
LINE
  5
11DA8
  8
1-後柱P
 10
26377.383799817351
 20
19318.33697800001
 30
0.0
 11
26388.783799817349
 21
19318.33697800001
 31
0.0
  0
ARC
  5
11DA9
  8
1-後柱P
 10
26377.383799817351
 20
19324.936978000002
 30
0.0
 40
6.599999999999997
 50
180.0
 51
270.0
  0
ARC
  5
11DAA
  8
1-後柱P
 10
26388.783799817349
 20
19313.33697800001
 30
0.0
 40
5.0
 50
0.0
 51
90.0
  0
LINE
  5
11DAB
  8
1-後柱P
 10
26388.783799817349
 20
19319.936978000002
 30
0.0
 11
26377.383799817351
 21
19319.936978000002
 31
0.0
  0
ARC
  5
11DAC
  8
1-後柱P
 10
26388.783799817349
 20
19313.33697800001
 30
0.0
 40
6.599999999999997
 50
0.0
 51
90.0
  0
ARC
  5
11DAD
  8
1-後柱P
 10
26377.383799817351
 20
19324.936978000002
 30
0.0
 40
5.0
 50
180.0
 51
270.0
  0
LINE
  5
11DAE
  8
1-後柱P
 10
26393.783799817349
 20
19303.33697800001
 30
0.0
 11
26395.383799817351
 21
19303.33697800001
 31
0.0
  0
LINE
  5
11DAF
  8
1-後柱カバ-P
 10
26370.783799817349
 20
19311.636977999999
 30
0.0
 11
26370.783799817349
 21
19252.33697800001
 31
0.0
  0
ARC
  5
11DB0
  8
1-後柱カバ-P
 10
26377.383799817351
 20
19252.33697800001
 30
0.0
 40
6.599999999999997
 50
180.0
 51
270.0
  0
LINE
  5
11DB1
  8
1-後柱カバ-P
 10
26372.383799817351
 20
19311.636977999999
 30
0.0
 11
26372.383799817351
 21
19252.33697800001
 31
0.0
  0
ARC
  5
11DB2
  8
1-後柱カバ-P
 10
26377.383799817351
 20
19311.636977999999
 30
0.0
 40
5.0
 50
90.0
 51
180.0
  0
LINE
  5
11DB3
  8
1-後柱カバ-P
 10
26377.383799817351
 20
19245.736978000001
 30
0.0
 11
26449.183799817351
 21
19245.736978000001
 31
0.0
  0
ARC
  5
11DB4
  8
1-後柱カバ-P
 10
26449.183799817351
 20
19252.33697800001
 30
0.0
 40
6.599999999999997
 50
270.0
 51
0.0
  0
LINE
  5
11DB5
  8
1-後柱カバ-P
 10
26377.383799817351
 20
19247.33697800001
 30
0.0
 11
26449.183799817351
 21
19247.33697800001
 31
0.0
  0
ARC
  5
11DB6
  8
1-後柱カバ-P
 10
26449.183799817351
 20
19252.33697800001
 30
0.0
 40
5.0
 50
270.0
 51
0.0
  0
ARC
  5
11DB7
  8
1-後柱カバ-P
 10
26377.383799817351
 20
19252.33697800001
 30
0.0
 40
5.0
 50
180.0
 51
270.0
  0
LINE
  5
11DB8
  8
1-後柱カバ-P
 10
26455.783799817342
 20
19252.33697800001
 30
0.0
 11
26455.783799817342
 21
19311.636977999999
 31
0.0
  0
LINE
  5
11DB9
  8
1-後柱カバ-P
 10
26454.183799817361
 20
19252.33697800001
 30
0.0
 11
26454.183799817361
 21
19311.636977999999
 31
0.0
  0
ARC
  5
11DBA
  8
1-後柱カバ-P
 10
26449.183799817351
 20
19311.636977999999
 30
0.0
 40
5.0
 50
0.0
 51
90.0
  0
LINE
  5
11DBB
  8
1-後柱カバ-P
  6
1PL-M
 62
     6
 10
26413.283799817349
 20
19253.236978000001
 30
0.0
 11
26413.283799817349
 21
19240.236978000001
 31
0.0
  0
LINE
  5
11DBC
  8
1-後柱カバ-P
  6
HIDE-M
 62
     6
 10
26406.283799817342
 20
19245.736978000001
 30
0.0
 11
26406.283799817342
 21
19247.33697800001
 31
0.0
  0
LINE
  5
11DBD
  8
1-後柱カバ-P
  6
HIDE-M
 62
     6
 10
26420.283799817349
 20
19245.736978000001
 30
0.0
 11
26420.283799817349
 21
19247.33697800001
 31
0.0
  0
ARC
  5
11DBE
  8
1-後柱カバ-P
 10
26377.383799817351
 20
19311.636977999999
 30
0.0
 40
6.599999999999997
 50
90.0
 51
180.0
  0
ARC
  5
11DBF
  8
1-後柱カバ-P
 10
26449.183799817351
 20
19311.636977999999
 30
0.0
 40
6.599999999999997
 50
0.0
 51
90.0
  0
LINE
  5
11DC0
  8
1-後柱カバ-P
 10
26440.783799817342
 20
19318.236978000001
 30
0.0
 11
26449.183799817351
 21
19318.236978000001
 31
0.0
  0
LINE
  5
11DC1
  8
1-後柱カバ-P
 10
26385.783799817342
 20
19318.236978000001
 30
0.0
 11
26377.383799817351
 21
19318.236978000001
 31
0.0
  0
LINE
  5
11DC2
  8
1-後柱カバ-P
 10
26440.783799817342
 20
19316.63697800001
 30
0.0
 11
26449.183799817351
 21
19316.63697800001
 31
0.0
  0
LINE
  5
11DC3
  8
1-後柱カバ-P
 10
26385.783799817342
 20
19316.63697800001
 30
0.0
 11
26377.383799817351
 21
19316.63697800001
 31
0.0
  0
LINE
  5
11DC4
  8
1-後柱カバ-P
 10
26385.783799817342
 20
19316.63697800001
 30
0.0
 11
26385.783799817342
 21
19318.236978000001
 31
0.0
  0
LINE
  5
11DC5
  8
1-後柱カバ-P
 10
26440.783799817342
 20
19318.236978000001
 30
0.0
 11
26440.783799817342
 21
19316.63697800001
 31
0.0
  0
LINE
  5
11DC6
  8
1-後柱カバ-P
  6
HIDE-M
 62
     6
 10
26444.683799817361
 20
19297.236978000001
 30
0.0
 11
26456.283799817342
 21
19297.236978000001
 31
0.0
  0
LINE
  5
11DC7
  8
1-後柱カバ-P
  6
HIDE-M
 62
     6
 10
26444.683799817361
 20
19289.236978000001
 30
0.0
 11
26456.283799817342
 21
19289.236978000001
 31
0.0
  0
LINE
  5
11DC8
  8
1-後柱カバ-P
  6
HIDE-M
 62
     6
 10
26444.683799817361
 20
19296.236978000001
 30
0.0
 11
26456.283799817342
 21
19296.236978000001
 31
0.0
  0
LINE
  5
11DC9
  8
1-後柱カバ-P
  6
HIDE-M
 62
     6
 10
26444.683799817361
 20
19290.236978000001
 30
0.0
 11
26456.283799817342
 21
19290.236978000001
 31
0.0
  0
LINE
  5
11DCA
  8
1-後柱カバ-P
 10
26445.683799817351
 20
19287.736978000001
 30
0.0
 11
26452.683799817361
 21
19287.736978000001
 31
0.0
  0
LINE
  5
11DCB
  8
1-後柱カバ-P
 10
26452.683799817361
 20
19298.736978000001
 30
0.0
 11
26445.683799817351
 21
19298.736978000001
 31
0.0
  0
LINE
  5
11DCC
  8
1-後柱カバ-P
 10
26452.683799817361
 20
19299.486978000001
 30
0.0
 11
26452.683799817361
 21
19286.986978000001
 31
0.0
  0
LINE
  5
11DCD
  8
1-後柱カバ-P
 10
26456.283799817342
 20
19299.236978000001
 30
0.0
 11
26456.283799817342
 21
19287.236978000001
 31
0.0
  0
LINE
  5
11DCE
  8
1-後柱カバ-P
  6
HIDE-M
 62
     6
 10
26454.183799817361
 20
19287.736978000001
 30
0.0
 11
26455.783799817342
 21
19287.736978000001
 31
0.0
  0
LINE
  5
11DCF
  8
1-後柱カバ-P
 10
26456.283799817342
 20
19287.236978000001
 30
0.0
 11
26455.783799817342
 21
19287.736978000001
 31
0.0
  0
ARC
  5
11DD0
  8
1-後柱カバ-P
 10
26453.433799817351
 20
19286.986978000001
 30
0.0
 40
0.75
 50
180.0
 51
0.0
  0
LINE
  5
11DD1
  8
1-後柱カバ-P
  6
HIDE-M
 62
     6
 10
26455.783799817342
 20
19298.736978000001
 30
0.0
 11
26454.183799817361
 21
19298.736978000001
 31
0.0
  0
LINE
  5
11DD2
  8
1-後柱カバ-P
 10
26456.283799817342
 20
19299.236978000001
 30
0.0
 11
26455.783799817342
 21
19298.736978000001
 31
0.0
  0
ARC
  5
11DD3
  8
1-後柱カバ-P
 10
26453.433799817351
 20
19299.486978000001
 30
0.0
 40
0.75
 50
0.0
 51
180.0
  0
LINE
  5
11DD4
  8
1-後柱カバ-P
 10
26444.683799817361
 20
19297.736978000001
 30
0.0
 11
26444.683799817361
 21
19288.736978000001
 31
0.0
  0
ARC
  5
11DD5
  8
1-後柱カバ-P
 10
26445.683799817351
 20
19288.736978000001
 30
0.0
 40
1.0
 50
180.0
 51
270.0
  0
ARC
  5
11DD6
  8
1-後柱カバ-P
 10
26445.683799817351
 20
19297.736978000001
 30
0.0
 40
1.0
 50
90.0
 51
180.0
  0
LINE
  5
11DD7
  8
1-後柱カバ-P
  6
1PL-M
 62
     6
 10
26439.683799817351
 20
19293.236978000001
 30
0.0
 11
26461.283799817349
 21
19293.236978000001
 31
0.0
  0
LINE
  5
11DD8
  8
1-後柱カバ-P
 10
26445.683799817351
 20
19277.736978000001
 30
0.0
 11
26452.683799817361
 21
19277.736978000001
 31
0.0
  0
LINE
  5
11DD9
  8
1-後柱カバ-P
 10
26456.283799817342
 20
19285.236978000001
 30
0.0
 11
26456.283799817342
 21
19277.236978000001
 31
0.0
  0
LINE
  5
11DDA
  8
1-後柱カバ-P
  6
HIDE-M
 62
     6
 10
26454.183799817361
 20
19277.736978000001
 30
0.0
 11
26455.783799817342
 21
19277.736978000001
 31
0.0
  0
LINE
  5
11DDB
  8
1-後柱カバ-P
 10
26456.283799817342
 20
19277.236978000001
 30
0.0
 11
26455.783799817342
 21
19277.736978000001
 31
0.0
  0
ARC
  5
11DDC
  8
1-後柱カバ-P
 10
26453.433799817351
 20
19276.986978000001
 30
0.0
 40
0.75
 50
180.0
 51
0.0
  0
LINE
  5
11DDD
  8
1-後柱カバ-P
 10
26444.683799817361
 20
19286.736978000001
 30
0.0
 11
26444.683799817361
 21
19278.736978000001
 31
0.0
  0
ARC
  5
11DDE
  8
1-後柱カバ-P
 10
26445.683799817351
 20
19278.736978000001
 30
0.0
 40
1.0
 50
180.0
 51
270.0
  0
LINE
  5
11DDF
  8
1-後柱カバ-P
  6
1PL-M
 62
     6
 10
26439.683799817351
 20
19283.236978000001
 30
0.0
 11
26461.283799817349
 21
19283.236978000001
 31
0.0
  0
LINE
  5
11DE0
  8
1-後柱カバ-P
 10
26452.683799817361
 20
19284.986978000001
 30
0.0
 11
26452.683799817361
 21
19276.986978000001
 31
0.0
  0
LINE
  5
11DE1
  8
1-後柱カバ-P
  6
HIDE-M
 62
     6
 10
26381.883799817351
 20
19297.236978000001
 30
0.0
 11
26370.283799817342
 21
19297.236978000001
 31
0.0
  0
LINE
  5
11DE2
  8
1-後柱カバ-P
  6
HIDE-M
 62
     6
 10
26381.883799817351
 20
19289.236978000001
 30
0.0
 11
26370.283799817342
 21
19289.236978000001
 31
0.0
  0
LINE
  5
11DE3
  8
1-後柱カバ-P
  6
HIDE-M
 62
     6
 10
26381.883799817351
 20
19296.236978000001
 30
0.0
 11
26370.283799817342
 21
19296.236978000001
 31
0.0
  0
LINE
  5
11DE4
  8
1-後柱カバ-P
  6
HIDE-M
 62
     6
 10
26381.883799817351
 20
19290.236978000001
 30
0.0
 11
26370.283799817342
 21
19290.236978000001
 31
0.0
  0
LINE
  5
11DE5
  8
1-後柱カバ-P
 10
26380.883799817359
 20
19287.736978000001
 30
0.0
 11
26373.883799817351
 21
19287.736978000001
 31
0.0
  0
LINE
  5
11DE6
  8
1-後柱カバ-P
 10
26373.883799817351
 20
19298.736978000001
 30
0.0
 11
26380.883799817359
 21
19298.736978000001
 31
0.0
  0
LINE
  5
11DE7
  8
1-後柱カバ-P
 10
26373.883799817351
 20
19299.486978000001
 30
0.0
 11
26373.883799817351
 21
19286.986978000001
 31
0.0
  0
LINE
  5
11DE8
  8
1-後柱カバ-P
 10
26370.283799817342
 20
19299.236978000001
 30
0.0
 11
26370.283799817342
 21
19287.236978000001
 31
0.0
  0
LINE
  5
11DE9
  8
1-後柱カバ-P
  6
HIDE-M
 62
     6
 10
26372.383799817351
 20
19287.736978000001
 30
0.0
 11
26370.783799817349
 21
19287.736978000001
 31
0.0
  0
LINE
  5
11DEA
  8
1-後柱カバ-P
 10
26370.283799817342
 20
19287.236978000001
 30
0.0
 11
26370.783799817349
 21
19287.736978000001
 31
0.0
  0
ARC
  5
11DEB
  8
1-後柱カバ-P
 10
26373.133799817359
 20
19286.986978000001
 30
0.0
 40
0.75
 50
180.0
 51
0.0
  0
LINE
  5
11DEC
  8
1-後柱カバ-P
  6
HIDE-M
 62
     6
 10
26370.783799817349
 20
19298.736978000001
 30
0.0
 11
26372.383799817351
 21
19298.736978000001
 31
0.0
  0
LINE
  5
11DED
  8
1-後柱カバ-P
 10
26370.283799817342
 20
19299.236978000001
 30
0.0
 11
26370.783799817349
 21
19298.736978000001
 31
0.0
  0
ARC
  5
11DEE
  8
1-後柱カバ-P
 10
26373.133799817359
 20
19299.486978000001
 30
0.0
 40
0.75
 50
0.0
 51
180.0
  0
LINE
  5
11DEF
  8
1-後柱カバ-P
 10
26381.883799817351
 20
19297.736978000001
 30
0.0
 11
26381.883799817351
 21
19288.736978000001
 31
0.0
  0
ARC
  5
11DF0
  8
1-後柱カバ-P
 10
26380.883799817359
 20
19288.736978000001
 30
0.0
 40
1.0
 50
270.0
 51
0.0
  0
ARC
  5
11DF1
  8
1-後柱カバ-P
 10
26380.883799817359
 20
19297.736978000001
 30
0.0
 40
1.0
 50
0.0
 51
90.0
  0
LINE
  5
11DF2
  8
1-後柱カバ-P
  6
1PL-M
 62
     6
 10
26386.883799817351
 20
19293.236978000001
 30
0.0
 11
26365.283799817349
 21
19293.236978000001
 31
0.0
  0
LINE
  5
11DF3
  8
1-後柱カバ-P
 10
26380.883799817359
 20
19277.736978000001
 30
0.0
 11
26373.883799817351
 21
19277.736978000001
 31
0.0
  0
LINE
  5
11DF4
  8
1-後柱カバ-P
 10
26370.283799817342
 20
19285.236978000001
 30
0.0
 11
26370.283799817342
 21
19277.236978000001
 31
0.0
  0
LINE
  5
11DF5
  8
1-後柱カバ-P
  6
HIDE-M
 62
     6
 10
26372.383799817351
 20
19277.736978000001
 30
0.0
 11
26370.783799817349
 21
19277.736978000001
 31
0.0
  0
LINE
  5
11DF6
  8
1-後柱カバ-P
 10
26370.283799817342
 20
19277.236978000001
 30
0.0
 11
26370.783799817349
 21
19277.736978000001
 31
0.0
  0
ARC
  5
11DF7
  8
1-後柱カバ-P
 10
26373.133799817359
 20
19276.986978000001
 30
0.0
 40
0.75
 50
180.0
 51
0.0
  0
LINE
  5
11DF8
  8
1-後柱カバ-P
 10
26381.883799817351
 20
19286.736978000001
 30
0.0
 11
26381.883799817351
 21
19278.736978000001
 31
0.0
  0
ARC
  5
11DF9
  8
1-後柱カバ-P
 10
26380.883799817359
 20
19278.736978000001
 30
0.0
 40
1.0
 50
270.0
 51
0.0
  0
LINE
  5
11DFA
  8
1-後柱カバ-P
  6
1PL-M
 62
     6
 10
26386.883799817351
 20
19283.236978000001
 30
0.0
 11
26365.283799817349
 21
19283.236978000001
 31
0.0
  0
LINE
  5
11DFB
  8
1-後柱カバ-P
 10
26373.883799817351
 20
19284.986978000001
 30
0.0
 11
26373.883799817351
 21
19276.986978000001
 31
0.0
  0
LINE
  5
11DFC
  8
1-後柱カバ-P
  6
HIDE-M
 62
     6
 10
26444.683799817361
 20
19279.236978000001
 30
0.0
 11
26456.283799817342
 21
19279.236978000001
 31
0.0
  0
LINE
  5
11DFD
  8
1-後柱カバ-P
  6
HIDE-M
 62
     6
 10
26444.683799817361
 20
19280.236978000001
 30
0.0
 11
26456.283799817342
 21
19280.236978000001
 31
0.0
  0
LINE
  5
11DFE
  8
1-後柱カバ-P
  6
HIDE-M
 62
     6
 10
26381.883799817351
 20
19279.236978000001
 30
0.0
 11
26370.283799817342
 21
19279.236978000001
 31
0.0
  0
LINE
  5
11DFF
  8
1-後柱カバ-P
  6
HIDE-M
 62
     6
 10
26381.883799817351
 20
19280.236978000001
 30
0.0
 11
26370.283799817342
 21
19280.236978000001
 31
0.0
  0
LINE
  5
11E00
  8
1-中柱P
 10
26449.183799817351
 20
16679.486978000001
 30
0.0
 11
26377.38379981734
 21
16679.486978000001
 31
0.0
  0
ARC
  5
11E01
  8
1-中柱P
 10
26449.183799817351
 20
16684.486978000001
 30
0.0
 40
5.0
 50
270.0
 51
0.0
  0
ARC
  5
11E02
  8
1-中柱P
 10
26377.38379981734
 20
16684.486978000001
 30
0.0
 40
5.0
 50
180.0
 51
270.0
  0
LINE
  5
11E03
  8
1-中柱P
 10
26449.183799817351
 20
16677.886977999999
 30
0.0
 11
26377.38379981734
 21
16677.886977999999
 31
0.0
  0
ARC
  5
11E04
  8
1-中柱P
 10
26449.183799817351
 20
16684.486978000001
 30
0.0
 40
6.599999999999997
 50
270.0
 51
0.0
  0
LINE
  5
11E05
  8
1-中柱P
 10
26370.783799817349
 20
16743.786978
 30
0.0
 11
26370.783799817349
 21
16684.486978000001
 31
0.0
  0
ARC
  5
11E06
  8
1-中柱P
 10
26377.38379981734
 20
16684.486978000001
 30
0.0
 40
6.599999999999997
 50
180.0
 51
270.0
  0
LINE
  5
11E07
  8
1-中柱P
 10
26372.38379981734
 20
16684.486978000001
 30
0.0
 11
26372.38379981734
 21
16743.786978
 31
0.0
  0
ARC
  5
11E08
  8
1-中柱P
 10
26377.38379981734
 20
16743.786978
 30
0.0
 40
5.0
 50
90.0
 51
180.0
  0
LINE
  5
11E09
  8
1-中柱P
 10
26455.783799817342
 20
16743.786978
 30
0.0
 11
26455.783799817342
 21
16684.486978000001
 31
0.0
  0
LINE
  5
11E0A
  8
1-中柱P
 10
26454.183799817329
 20
16684.486978000001
 30
0.0
 11
26454.183799817329
 21
16743.786978
 31
0.0
  0
LINE
  5
11E0B
  8
1-中柱P
 10
26449.183799817351
 20
16750.38697800001
 30
0.0
 11
26440.783799817342
 21
16750.38697800001
 31
0.0
  0
ARC
  5
11E0C
  8
1-中柱P
 10
26449.183799817351
 20
16743.786978
 30
0.0
 40
6.599999999999997
 50
0.0
 51
90.0
  0
LINE
  5
11E0D
  8
1-中柱P
 10
26449.183799817351
 20
16748.786978
 30
0.0
 11
26440.783799817342
 21
16748.786978
 31
0.0
  0
ARC
  5
11E0E
  8
1-中柱P
 10
26440.783799817342
 20
16755.38697800001
 30
0.0
 40
6.599999999999997
 50
180.0
 51
270.0
  0
ARC
  5
11E0F
  8
1-中柱P
 10
26449.183799817351
 20
16743.786978
 30
0.0
 40
5.0
 50
0.0
 51
90.0
  0
LINE
  5
11E10
  8
1-中柱P
 10
26435.783799817349
 20
16755.38697800001
 30
0.0
 11
26435.783799817349
 21
16814.786978000011
 31
0.0
  0
ARC
  5
11E11
  8
1-中柱P
 10
26440.783799817342
 20
16755.38697800001
 30
0.0
 40
5.0
 50
180.0
 51
270.0
  0
LINE
  5
11E12
  8
1-中柱P
 10
26434.183799817351
 20
16755.38697800001
 30
0.0
 11
26434.183799817351
 21
16814.786978000011
 31
0.0
  0
LINE
  5
11E13
  8
1-中柱P
 10
26429.183799817329
 20
16821.38697800001
 30
0.0
 11
26395.783799817349
 21
16821.38697800001
 31
0.0
  0
ARC
  5
11E14
  8
1-中柱P
 10
26429.183799817329
 20
16814.786978000011
 30
0.0
 40
6.599999999999997
 50
0.0
 51
90.0
  0
LINE
  5
11E15
  8
1-中柱P
 10
26429.183799817329
 20
16819.786978000011
 30
0.0
 11
26395.783799817349
 21
16819.786978000011
 31
0.0
  0
ARC
  5
11E16
  8
1-中柱P
 10
26429.183799817329
 20
16814.786978000011
 30
0.0
 40
5.0
 50
0.0
 51
90.0
  0
LINE
  5
11E17
  8
1-中柱P
 10
26395.783799817349
 20
16819.786978000011
 30
0.0
 11
26395.783799817349
 21
16821.38697800001
 31
0.0
  0
LINE
  5
11E18
  8
1-中柱P
 10
26377.38379981734
 20
16750.38697800001
 30
0.0
 11
26385.783799817342
 21
16750.38697800001
 31
0.0
  0
ARC
  5
11E19
  8
1-中柱P
 10
26377.38379981734
 20
16743.786978
 30
0.0
 40
6.599999999999997
 50
90.0
 51
180.0
  0
ARC
  5
11E1A
  8
1-中柱P
 10
26385.783799817342
 20
16755.38697800001
 30
0.0
 40
5.0
 50
270.0
 51
0.0
  0
LINE
  5
11E1B
  8
1-中柱P
 10
26385.783799817342
 20
16748.786978
 30
0.0
 11
26377.38379981734
 21
16748.786978
 31
0.0
  0
ARC
  5
11E1C
  8
1-中柱P
 10
26385.783799817342
 20
16755.38697800001
 30
0.0
 40
6.599999999999997
 50
270.0
 51
0.0
  0
ARC
  5
11E1D
  8
1-中柱P
  6
HIDE-M
 62
     6
 10
26419.88379981734
 20
16818.786978000011
 30
0.0
 40
2.6000000000000001
 50
90.0
 51
180.0
  0
LINE
  5
11E1E
  8
1-中柱P
  6
HIDE-M
 62
     6
 10
26408.283799817342
 20
16820.836368153181
 30
0.0
 11
26408.283799817342
 21
16817.186978000002
 31
0.0
  0
LINE
  5
11E1F
  8
1-中柱P
  6
HIDE-M
 62
     6
 10
26418.283799817349
 20
16820.836368153181
 30
0.0
 11
26418.283799817349
 21
16817.186978000002
 31
0.0
  0
LINE
  5
11E20
  8
1-中柱P
  6
1PL-M
 62
     6
 10
26413.283799817349
 20
16826.386977999999
 30
0.0
 11
26413.283799817349
 21
16812.186978000009
 31
0.0
  0
ARC
  5
11E21
  8
1-中柱P
  6
HIDE-M
 62
     6
 10
26406.683799817329
 20
16818.786978000011
 30
0.0
 40
2.6000000000000001
 50
0.0
 51
90.0
  0
LINE
  5
11E22
  8
1-中柱P
  6
HIDE-M
 62
     6
 10
26417.283799817349
 20
16818.786978000011
 30
0.0
 11
26417.283799817349
 21
16817.186978000002
 31
0.0
  0
LINE
  5
11E23
  8
1-中柱P
  6
HIDE-M
 62
     6
 10
26409.283799817349
 20
16818.786978000011
 30
0.0
 11
26409.283799817349
 21
16817.186978000002
 31
0.0
  0
LINE
  5
11E24
  8
1-中柱P
 10
26392.38379981734
 20
16755.38697800001
 30
0.0
 11
26392.38379981734
 21
16765.386977999999
 31
0.0
  0
LINE
  5
11E25
  8
1-中柱P
 10
26390.783799817349
 20
16755.38697800001
 30
0.0
 11
26390.783799817349
 21
16765.386977999999
 31
0.0
  0
LINE
  5
11E26
  8
1-中柱P
 10
26392.38379981734
 20
16765.386977999999
 30
0.0
 11
26390.783799817349
 21
16765.386977999999
 31
0.0
  0
LINE
  5
11E27
  8
1-中柱P
  6
1PL-M
 62
     6
 10
26440.783799817342
 20
16786.38697800001
 30
0.0
 11
26426.583799817341
 21
16786.38697800001
 31
0.0
  0
LINE
  5
11E28
  8
1-中柱P
  6
HIDE-M
 62
     6
 10
26444.683799817329
 20
16729.386977999999
 30
0.0
 11
26456.283799817342
 21
16729.386977999999
 31
0.0
  0
LINE
  5
11E29
  8
1-中柱P
  6
HIDE-M
 62
     6
 10
26444.683799817329
 20
16721.38697800001
 30
0.0
 11
26456.283799817342
 21
16721.38697800001
 31
0.0
  0
LINE
  5
11E2A
  8
1-中柱P
  6
HIDE-M
 62
     6
 10
26444.683799817329
 20
16728.386977999999
 30
0.0
 11
26456.283799817342
 21
16728.386977999999
 31
0.0
  0
LINE
  5
11E2B
  8
1-中柱P
  6
HIDE-M
 62
     6
 10
26444.683799817329
 20
16722.38697800001
 30
0.0
 11
26456.283799817342
 21
16722.38697800001
 31
0.0
  0
LINE
  5
11E2C
  8
1-中柱P
 10
26445.68379981734
 20
16719.88697800001
 30
0.0
 11
26452.68379981734
 21
16719.88697800001
 31
0.0
  0
LINE
  5
11E2D
  8
1-中柱P
 10
26452.68379981734
 20
16730.886977999999
 30
0.0
 11
26445.68379981734
 21
16730.886977999999
 31
0.0
  0
LINE
  5
11E2E
  8
1-中柱P
 10
26452.68379981734
 20
16731.63697800001
 30
0.0
 11
26452.68379981734
 21
16719.13697800001
 31
0.0
  0
LINE
  5
11E2F
  8
1-中柱P
 10
26456.283799817342
 20
16731.38697800001
 30
0.0
 11
26456.283799817342
 21
16719.386977999999
 31
0.0
  0
LINE
  5
11E30
  8
1-中柱P
  6
HIDE-M
 62
     6
 10
26454.183799817329
 20
16719.88697800001
 30
0.0
 11
26455.783799817342
 21
16719.88697800001
 31
0.0
  0
LINE
  5
11E31
  8
1-中柱P
 10
26456.283799817342
 20
16719.386977999999
 30
0.0
 11
26455.783799817342
 21
16719.88697800001
 31
0.0
  0
ARC
  5
11E32
  8
1-中柱P
 10
26453.43379981734
 20
16719.13697800001
 30
0.0
 40
0.75
 50
180.0
 51
0.0
  0
LINE
  5
11E33
  8
1-中柱P
  6
HIDE-M
 62
     6
 10
26455.783799817342
 20
16730.886977999999
 30
0.0
 11
26454.183799817329
 21
16730.886977999999
 31
0.0
  0
LINE
  5
11E34
  8
1-中柱P
 10
26456.283799817342
 20
16731.38697800001
 30
0.0
 11
26455.783799817342
 21
16730.886977999999
 31
0.0
  0
ARC
  5
11E35
  8
1-中柱P
 10
26453.43379981734
 20
16731.63697800001
 30
0.0
 40
0.75
 50
0.0
 51
180.0
  0
LINE
  5
11E36
  8
1-中柱P
 10
26444.683799817329
 20
16729.88697800001
 30
0.0
 11
26444.683799817329
 21
16720.88697800001
 31
0.0
  0
ARC
  5
11E37
  8
1-中柱P
 10
26445.68379981734
 20
16720.88697800001
 30
0.0
 40
1.0
 50
180.0
 51
270.0
  0
ARC
  5
11E38
  8
1-中柱P
 10
26445.68379981734
 20
16729.88697800001
 30
0.0
 40
1.0
 50
90.0
 51
180.0
  0
LINE
  5
11E39
  8
1-中柱P
  6
1PL-M
 62
     6
 10
26439.683799817351
 20
16725.38697800001
 30
0.0
 11
26461.283799817349
 21
16725.38697800001
 31
0.0
  0
LINE
  5
11E3A
  8
1-中柱P
 10
26445.68379981734
 20
16709.88697800001
 30
0.0
 11
26452.68379981734
 21
16709.88697800001
 31
0.0
  0
LINE
  5
11E3B
  8
1-中柱P
 10
26456.283799817342
 20
16717.38697800001
 30
0.0
 11
26456.283799817342
 21
16709.386977999999
 31
0.0
  0
LINE
  5
11E3C
  8
1-中柱P
  6
HIDE-M
 62
     6
 10
26454.183799817329
 20
16709.88697800001
 30
0.0
 11
26455.783799817342
 21
16709.88697800001
 31
0.0
  0
LINE
  5
11E3D
  8
1-中柱P
 10
26456.283799817342
 20
16709.386977999999
 30
0.0
 11
26455.783799817342
 21
16709.88697800001
 31
0.0
  0
ARC
  5
11E3E
  8
1-中柱P
 10
26453.43379981734
 20
16709.136977999999
 30
0.0
 40
0.75
 50
180.0
 51
0.0
  0
LINE
  5
11E3F
  8
1-中柱P
 10
26444.683799817329
 20
16718.886977999999
 30
0.0
 11
26444.683799817329
 21
16710.88697800001
 31
0.0
  0
ARC
  5
11E40
  8
1-中柱P
 10
26445.68379981734
 20
16710.88697800001
 30
0.0
 40
1.0
 50
180.0
 51
270.0
  0
LINE
  5
11E41
  8
1-中柱P
  6
1PL-M
 62
     6
 10
26439.683799817351
 20
16715.38697800001
 30
0.0
 11
26461.283799817349
 21
16715.38697800001
 31
0.0
  0
LINE
  5
11E42
  8
1-中柱P
 10
26452.68379981734
 20
16717.13697800001
 30
0.0
 11
26452.68379981734
 21
16709.136977999999
 31
0.0
  0
LINE
  5
11E43
  8
1-中柱P
  6
HIDE-M
 62
     6
 10
26444.683799817329
 20
16711.38697800001
 30
0.0
 11
26456.283799817342
 21
16711.38697800001
 31
0.0
  0
LINE
  5
11E44
  8
1-中柱P
  6
HIDE-M
 62
     6
 10
26444.683799817329
 20
16712.38697800001
 30
0.0
 11
26456.283799817342
 21
16712.38697800001
 31
0.0
  0
LINE
  5
11E45
  8
1-中柱P
  6
HIDE-M
 62
     6
 10
26381.88379981734
 20
16729.386977999999
 30
0.0
 11
26370.283799817342
 21
16729.386977999999
 31
0.0
  0
LINE
  5
11E46
  8
1-中柱P
  6
HIDE-M
 62
     6
 10
26381.88379981734
 20
16721.38697800001
 30
0.0
 11
26370.283799817342
 21
16721.38697800001
 31
0.0
  0
LINE
  5
11E47
  8
1-中柱P
  6
HIDE-M
 62
     6
 10
26381.88379981734
 20
16728.386977999999
 30
0.0
 11
26370.283799817342
 21
16728.386977999999
 31
0.0
  0
LINE
  5
11E48
  8
1-中柱P
  6
HIDE-M
 62
     6
 10
26381.88379981734
 20
16722.38697800001
 30
0.0
 11
26370.283799817342
 21
16722.38697800001
 31
0.0
  0
LINE
  5
11E49
  8
1-中柱P
 10
26380.88379981734
 20
16719.88697800001
 30
0.0
 11
26373.88379981734
 21
16719.88697800001
 31
0.0
  0
LINE
  5
11E4A
  8
1-中柱P
 10
26373.88379981734
 20
16730.886977999999
 30
0.0
 11
26380.88379981734
 21
16730.886977999999
 31
0.0
  0
LINE
  5
11E4B
  8
1-中柱P
 10
26373.88379981734
 20
16731.63697800001
 30
0.0
 11
26373.88379981734
 21
16719.13697800001
 31
0.0
  0
LINE
  5
11E4C
  8
1-中柱P
 10
26370.283799817342
 20
16731.38697800001
 30
0.0
 11
26370.283799817342
 21
16719.386977999999
 31
0.0
  0
LINE
  5
11E4D
  8
1-中柱P
  6
HIDE-M
 62
     6
 10
26372.38379981734
 20
16719.88697800001
 30
0.0
 11
26370.783799817349
 21
16719.88697800001
 31
0.0
  0
LINE
  5
11E4E
  8
1-中柱P
 10
26370.283799817342
 20
16719.386977999999
 30
0.0
 11
26370.783799817349
 21
16719.88697800001
 31
0.0
  0
ARC
  5
11E4F
  8
1-中柱P
 10
26373.13379981734
 20
16719.13697800001
 30
0.0
 40
0.75
 50
180.0
 51
0.0
  0
LINE
  5
11E50
  8
1-中柱P
  6
HIDE-M
 62
     6
 10
26370.783799817349
 20
16730.886977999999
 30
0.0
 11
26372.38379981734
 21
16730.886977999999
 31
0.0
  0
LINE
  5
11E51
  8
1-中柱P
 10
26370.283799817342
 20
16731.38697800001
 30
0.0
 11
26370.783799817349
 21
16730.886977999999
 31
0.0
  0
ARC
  5
11E52
  8
1-中柱P
 10
26373.13379981734
 20
16731.63697800001
 30
0.0
 40
0.75
 50
0.0
 51
180.0
  0
LINE
  5
11E53
  8
1-中柱P
 10
26381.88379981734
 20
16729.88697800001
 30
0.0
 11
26381.88379981734
 21
16720.88697800001
 31
0.0
  0
ARC
  5
11E54
  8
1-中柱P
 10
26380.88379981734
 20
16720.88697800001
 30
0.0
 40
1.0
 50
270.0
 51
0.0
  0
ARC
  5
11E55
  8
1-中柱P
 10
26380.88379981734
 20
16729.88697800001
 30
0.0
 40
1.0
 50
0.0
 51
90.0
  0
LINE
  5
11E56
  8
1-中柱P
  6
1PL-M
 62
     6
 10
26386.88379981734
 20
16725.38697800001
 30
0.0
 11
26365.283799817349
 21
16725.38697800001
 31
0.0
  0
LINE
  5
11E57
  8
1-中柱P
 10
26380.88379981734
 20
16709.88697800001
 30
0.0
 11
26373.88379981734
 21
16709.88697800001
 31
0.0
  0
LINE
  5
11E58
  8
1-中柱P
 10
26370.283799817342
 20
16717.38697800001
 30
0.0
 11
26370.283799817342
 21
16709.386977999999
 31
0.0
  0
LINE
  5
11E59
  8
1-中柱P
  6
HIDE-M
 62
     6
 10
26372.38379981734
 20
16709.88697800001
 30
0.0
 11
26370.783799817349
 21
16709.88697800001
 31
0.0
  0
LINE
  5
11E5A
  8
1-中柱P
 10
26370.283799817342
 20
16709.386977999999
 30
0.0
 11
26370.783799817349
 21
16709.88697800001
 31
0.0
  0
ARC
  5
11E5B
  8
1-中柱P
 10
26373.13379981734
 20
16709.136977999999
 30
0.0
 40
0.75
 50
180.0
 51
0.0
  0
LINE
  5
11E5C
  8
1-中柱P
 10
26381.88379981734
 20
16718.886977999999
 30
0.0
 11
26381.88379981734
 21
16710.88697800001
 31
0.0
  0
ARC
  5
11E5D
  8
1-中柱P
 10
26380.88379981734
 20
16710.88697800001
 30
0.0
 40
1.0
 50
270.0
 51
0.0
  0
LINE
  5
11E5E
  8
1-中柱P
  6
1PL-M
 62
     6
 10
26386.88379981734
 20
16715.38697800001
 30
0.0
 11
26365.283799817349
 21
16715.38697800001
 31
0.0
  0
LINE
  5
11E5F
  8
1-中柱P
 10
26373.88379981734
 20
16717.13697800001
 30
0.0
 11
26373.88379981734
 21
16709.136977999999
 31
0.0
  0
LINE
  5
11E60
  8
1-中柱P
  6
HIDE-M
 62
     6
 10
26381.88379981734
 20
16711.38697800001
 30
0.0
 11
26370.283799817342
 21
16711.38697800001
 31
0.0
  0
LINE
  5
11E61
  8
1-中柱P
  6
HIDE-M
 62
     6
 10
26381.88379981734
 20
16712.38697800001
 30
0.0
 11
26370.283799817342
 21
16712.38697800001
 31
0.0
  0
LINE
  5
11E62
  8
1-中柱カバ-P
 10
26370.783799817349
 20
16757.08697800001
 30
0.0
 11
26370.783799817349
 21
16816.38697800001
 31
0.0
  0
ARC
  5
11E63
  8
1-中柱カバ-P
 10
26377.38379981734
 20
16816.38697800001
 30
0.0
 40
6.599999999999997
 50
90.0
 51
180.0
  0
LINE
  5
11E64
  8
1-中柱カバ-P
 10
26372.38379981734
 20
16757.08697800001
 30
0.0
 11
26372.38379981734
 21
16816.38697800001
 31
0.0
  0
ARC
  5
11E65
  8
1-中柱カバ-P
 10
26377.38379981734
 20
16757.08697800001
 30
0.0
 40
5.0
 50
180.0
 51
270.0
  0
LINE
  5
11E66
  8
1-中柱カバ-P
 10
26377.38379981734
 20
16822.986978000001
 30
0.0
 11
26449.183799817351
 21
16822.986978000001
 31
0.0
  0
ARC
  5
11E67
  8
1-中柱カバ-P
 10
26449.183799817351
 20
16816.38697800001
 30
0.0
 40
6.599999999999997
 50
0.0
 51
90.0
  0
LINE
  5
11E68
  8
1-中柱カバ-P
 10
26377.38379981734
 20
16821.38697800001
 30
0.0
 11
26449.183799817351
 21
16821.38697800001
 31
0.0
  0
ARC
  5
11E69
  8
1-中柱カバ-P
 10
26449.183799817351
 20
16816.38697800001
 30
0.0
 40
5.0
 50
0.0
 51
90.0
  0
ARC
  5
11E6A
  8
1-中柱カバ-P
 10
26377.38379981734
 20
16816.38697800001
 30
0.0
 40
5.0
 50
90.0
 51
180.0
  0
LINE
  5
11E6B
  8
1-中柱カバ-P
 10
26455.783799817342
 20
16816.38697800001
 30
0.0
 11
26455.783799817342
 21
16757.08697800001
 31
0.0
  0
LINE
  5
11E6C
  8
1-中柱カバ-P
 10
26454.183799817329
 20
16816.38697800001
 30
0.0
 11
26454.183799817329
 21
16757.08697800001
 31
0.0
  0
ARC
  5
11E6D
  8
1-中柱カバ-P
 10
26449.183799817351
 20
16757.08697800001
 30
0.0
 40
5.0
 50
270.0
 51
0.0
  0
LINE
  5
11E6E
  8
1-中柱カバ-P
  6
1PL-M
 62
     6
 10
26413.283799817349
 20
16815.486978000001
 30
0.0
 11
26413.283799817349
 21
16828.486978000001
 31
0.0
  0
LINE
  5
11E6F
  8
1-中柱カバ-P
  6
HIDE-M
 62
     6
 10
26406.283799817342
 20
16822.986978000001
 30
0.0
 11
26406.283799817342
 21
16821.38697800001
 31
0.0
  0
LINE
  5
11E70
  8
1-中柱カバ-P
  6
HIDE-M
 62
     6
 10
26420.283799817349
 20
16822.986978000001
 30
0.0
 11
26420.283799817349
 21
16821.38697800001
 31
0.0
  0
ARC
  5
11E71
  8
1-中柱カバ-P
 10
26377.38379981734
 20
16757.08697800001
 30
0.0
 40
6.599999999999997
 50
180.0
 51
270.0
  0
ARC
  5
11E72
  8
1-中柱カバ-P
 10
26449.183799817351
 20
16757.08697800001
 30
0.0
 40
6.599999999999997
 50
270.0
 51
0.0
  0
LINE
  5
11E73
  8
1-中柱カバ-P
 10
26440.783799817342
 20
16750.486978000001
 30
0.0
 11
26449.183799817351
 21
16750.486978000001
 31
0.0
  0
LINE
  5
11E74
  8
1-中柱カバ-P
 10
26385.783799817342
 20
16750.486978000001
 30
0.0
 11
26377.38379981734
 21
16750.486978000001
 31
0.0
  0
LINE
  5
11E75
  8
1-中柱カバ-P
 10
26440.783799817342
 20
16752.08697800001
 30
0.0
 11
26449.183799817351
 21
16752.08697800001
 31
0.0
  0
LINE
  5
11E76
  8
1-中柱カバ-P
 10
26385.783799817342
 20
16752.08697800001
 30
0.0
 11
26377.38379981734
 21
16752.08697800001
 31
0.0
  0
LINE
  5
11E77
  8
1-中柱カバ-P
 10
26385.783799817342
 20
16752.08697800001
 30
0.0
 11
26385.783799817342
 21
16750.486978000001
 31
0.0
  0
LINE
  5
11E78
  8
1-中柱カバ-P
 10
26440.783799817342
 20
16750.486978000001
 30
0.0
 11
26440.783799817342
 21
16752.08697800001
 31
0.0
  0
LINE
  5
11E79
  8
1-中柱カバ-P
  6
HIDE-M
 62
     6
 10
26444.683799817329
 20
16771.486978000001
 30
0.0
 11
26456.283799817342
 21
16771.486978000001
 31
0.0
  0
LINE
  5
11E7A
  8
1-中柱カバ-P
  6
HIDE-M
 62
     6
 10
26444.683799817329
 20
16779.486978000001
 30
0.0
 11
26456.283799817342
 21
16779.486978000001
 31
0.0
  0
LINE
  5
11E7B
  8
1-中柱カバ-P
  6
HIDE-M
 62
     6
 10
26444.683799817329
 20
16772.486978000001
 30
0.0
 11
26456.283799817342
 21
16772.486978000001
 31
0.0
  0
LINE
  5
11E7C
  8
1-中柱カバ-P
  6
HIDE-M
 62
     6
 10
26444.683799817329
 20
16778.486978000001
 30
0.0
 11
26456.283799817342
 21
16778.486978000001
 31
0.0
  0
LINE
  5
11E7D
  8
1-中柱カバ-P
 10
26445.68379981734
 20
16780.986978000001
 30
0.0
 11
26452.68379981734
 21
16780.986978000001
 31
0.0
  0
LINE
  5
11E7E
  8
1-中柱カバ-P
 10
26452.68379981734
 20
16769.986978000001
 30
0.0
 11
26445.68379981734
 21
16769.986978000001
 31
0.0
  0
LINE
  5
11E7F
  8
1-中柱カバ-P
 10
26452.68379981734
 20
16769.236978000001
 30
0.0
 11
26452.68379981734
 21
16781.736978000001
 31
0.0
  0
LINE
  5
11E80
  8
1-中柱カバ-P
 10
26456.283799817342
 20
16769.486978000001
 30
0.0
 11
26456.283799817342
 21
16781.486978000001
 31
0.0
  0
LINE
  5
11E81
  8
1-中柱カバ-P
  6
HIDE-M
 62
     6
 10
26454.183799817329
 20
16780.986978000001
 30
0.0
 11
26455.783799817342
 21
16780.986978000001
 31
0.0
  0
LINE
  5
11E82
  8
1-中柱カバ-P
 10
26456.283799817342
 20
16781.486978000001
 30
0.0
 11
26455.783799817342
 21
16780.986978000001
 31
0.0
  0
ARC
  5
11E83
  8
1-中柱カバ-P
 10
26453.43379981734
 20
16781.736978000001
 30
0.0
 40
0.75
 50
0.0
 51
180.0
  0
LINE
  5
11E84
  8
1-中柱カバ-P
  6
HIDE-M
 62
     6
 10
26455.783799817342
 20
16769.986978000001
 30
0.0
 11
26454.183799817329
 21
16769.986978000001
 31
0.0
  0
LINE
  5
11E85
  8
1-中柱カバ-P
 10
26456.283799817342
 20
16769.486978000001
 30
0.0
 11
26455.783799817342
 21
16769.986978000001
 31
0.0
  0
ARC
  5
11E86
  8
1-中柱カバ-P
 10
26453.43379981734
 20
16769.236978000001
 30
0.0
 40
0.75
 50
180.0
 51
0.0
  0
LINE
  5
11E87
  8
1-中柱カバ-P
 10
26444.683799817329
 20
16770.986978000001
 30
0.0
 11
26444.683799817329
 21
16779.986978000001
 31
0.0
  0
ARC
  5
11E88
  8
1-中柱カバ-P
 10
26445.68379981734
 20
16779.986978000001
 30
0.0
 40
1.0
 50
90.0
 51
180.0
  0
ARC
  5
11E89
  8
1-中柱カバ-P
 10
26445.68379981734
 20
16770.986978000001
 30
0.0
 40
1.0
 50
180.0
 51
270.0
  0
LINE
  5
11E8A
  8
1-中柱カバ-P
  6
1PL-M
 62
     6
 10
26439.683799817351
 20
16775.486978000001
 30
0.0
 11
26461.283799817349
 21
16775.486978000001
 31
0.0
  0
LINE
  5
11E8B
  8
1-中柱カバ-P
 10
26445.68379981734
 20
16790.986978000001
 30
0.0
 11
26452.68379981734
 21
16790.986978000001
 31
0.0
  0
LINE
  5
11E8C
  8
1-中柱カバ-P
 10
26456.283799817342
 20
16783.486978000001
 30
0.0
 11
26456.283799817342
 21
16791.486978000001
 31
0.0
  0
LINE
  5
11E8D
  8
1-中柱カバ-P
  6
HIDE-M
 62
     6
 10
26454.183799817329
 20
16790.986978000001
 30
0.0
 11
26455.783799817342
 21
16790.986978000001
 31
0.0
  0
LINE
  5
11E8E
  8
1-中柱カバ-P
 10
26456.283799817342
 20
16791.486978000001
 30
0.0
 11
26455.783799817342
 21
16790.986978000001
 31
0.0
  0
ARC
  5
11E8F
  8
1-中柱カバ-P
 10
26453.43379981734
 20
16791.736978000001
 30
0.0
 40
0.75
 50
0.0
 51
180.0
  0
LINE
  5
11E90
  8
1-中柱カバ-P
 10
26444.683799817329
 20
16781.986978000001
 30
0.0
 11
26444.683799817329
 21
16789.986978000001
 31
0.0
  0
ARC
  5
11E91
  8
1-中柱カバ-P
 10
26445.68379981734
 20
16789.986978000001
 30
0.0
 40
1.0
 50
90.0
 51
180.0
  0
LINE
  5
11E92
  8
1-中柱カバ-P
  6
1PL-M
 62
     6
 10
26439.683799817351
 20
16785.486978000001
 30
0.0
 11
26461.283799817349
 21
16785.486978000001
 31
0.0
  0
LINE
  5
11E93
  8
1-中柱カバ-P
 10
26452.68379981734
 20
16783.736978000001
 30
0.0
 11
26452.68379981734
 21
16791.736978000001
 31
0.0
  0
LINE
  5
11E94
  8
1-中柱カバ-P
  6
HIDE-M
 62
     6
 10
26381.88379981734
 20
16771.486978000001
 30
0.0
 11
26370.283799817342
 21
16771.486978000001
 31
0.0
  0
LINE
  5
11E95
  8
1-中柱カバ-P
  6
HIDE-M
 62
     6
 10
26381.88379981734
 20
16779.486978000001
 30
0.0
 11
26370.283799817342
 21
16779.486978000001
 31
0.0
  0
LINE
  5
11E96
  8
1-中柱カバ-P
  6
HIDE-M
 62
     6
 10
26381.88379981734
 20
16772.486978000001
 30
0.0
 11
26370.283799817342
 21
16772.486978000001
 31
0.0
  0
LINE
  5
11E97
  8
1-中柱カバ-P
  6
HIDE-M
 62
     6
 10
26381.88379981734
 20
16778.486978000001
 30
0.0
 11
26370.283799817342
 21
16778.486978000001
 31
0.0
  0
LINE
  5
11E98
  8
1-中柱カバ-P
 10
26380.88379981734
 20
16780.986978000001
 30
0.0
 11
26373.88379981734
 21
16780.986978000001
 31
0.0
  0
LINE
  5
11E99
  8
1-中柱カバ-P
 10
26373.88379981734
 20
16769.986978000001
 30
0.0
 11
26380.88379981734
 21
16769.986978000001
 31
0.0
  0
LINE
  5
11E9A
  8
1-中柱カバ-P
 10
26373.88379981734
 20
16769.236978000001
 30
0.0
 11
26373.88379981734
 21
16781.736978000001
 31
0.0
  0
LINE
  5
11E9B
  8
1-中柱カバ-P
 10
26370.283799817342
 20
16769.486978000001
 30
0.0
 11
26370.283799817342
 21
16781.486978000001
 31
0.0
  0
LINE
  5
11E9C
  8
1-中柱カバ-P
  6
HIDE-M
 62
     6
 10
26372.38379981734
 20
16780.986978000001
 30
0.0
 11
26370.783799817349
 21
16780.986978000001
 31
0.0
  0
LINE
  5
11E9D
  8
1-中柱カバ-P
 10
26370.283799817342
 20
16781.486978000001
 30
0.0
 11
26370.783799817349
 21
16780.986978000001
 31
0.0
  0
ARC
  5
11E9E
  8
1-中柱カバ-P
 10
26373.13379981734
 20
16781.736978000001
 30
0.0
 40
0.75
 50
0.0
 51
180.0
  0
LINE
  5
11E9F
  8
1-中柱カバ-P
  6
HIDE-M
 62
     6
 10
26370.783799817349
 20
16769.986978000001
 30
0.0
 11
26372.38379981734
 21
16769.986978000001
 31
0.0
  0
LINE
  5
11EA0
  8
1-中柱カバ-P
 10
26370.283799817342
 20
16769.486978000001
 30
0.0
 11
26370.783799817349
 21
16769.986978000001
 31
0.0
  0
ARC
  5
11EA1
  8
1-中柱カバ-P
 10
26373.13379981734
 20
16769.236978000001
 30
0.0
 40
0.75
 50
180.0
 51
0.0
  0
LINE
  5
11EA2
  8
1-中柱カバ-P
 10
26381.88379981734
 20
16770.986978000001
 30
0.0
 11
26381.88379981734
 21
16779.986978000001
 31
0.0
  0
ARC
  5
11EA3
  8
1-中柱カバ-P
 10
26380.88379981734
 20
16779.986978000001
 30
0.0
 40
1.0
 50
0.0
 51
90.0
  0
ARC
  5
11EA4
  8
1-中柱カバ-P
 10
26380.88379981734
 20
16770.986978000001
 30
0.0
 40
1.0
 50
270.0
 51
0.0
  0
LINE
  5
11EA5
  8
1-中柱カバ-P
  6
1PL-M
 62
     6
 10
26386.88379981734
 20
16775.486978000001
 30
0.0
 11
26365.283799817349
 21
16775.486978000001
 31
0.0
  0
LINE
  5
11EA6
  8
1-中柱カバ-P
 10
26380.88379981734
 20
16790.986978000001
 30
0.0
 11
26373.88379981734
 21
16790.986978000001
 31
0.0
  0
LINE
  5
11EA7
  8
1-中柱カバ-P
 10
26370.283799817342
 20
16783.486978000001
 30
0.0
 11
26370.283799817342
 21
16791.486978000001
 31
0.0
  0
LINE
  5
11EA8
  8
1-中柱カバ-P
  6
HIDE-M
 62
     6
 10
26372.38379981734
 20
16790.986978000001
 30
0.0
 11
26370.783799817349
 21
16790.986978000001
 31
0.0
  0
LINE
  5
11EA9
  8
1-中柱カバ-P
 10
26370.283799817342
 20
16791.486978000001
 30
0.0
 11
26370.783799817349
 21
16790.986978000001
 31
0.0
  0
ARC
  5
11EAA
  8
1-中柱カバ-P
 10
26373.13379981734
 20
16791.736978000001
 30
0.0
 40
0.75
 50
0.0
 51
180.0
  0
LINE
  5
11EAB
  8
1-中柱カバ-P
 10
26381.88379981734
 20
16781.986978000001
 30
0.0
 11
26381.88379981734
 21
16789.986978000001
 31
0.0
  0
ARC
  5
11EAC
  8
1-中柱カバ-P
 10
26380.88379981734
 20
16789.986978000001
 30
0.0
 40
1.0
 50
0.0
 51
90.0
  0
LINE
  5
11EAD
  8
1-中柱カバ-P
  6
1PL-M
 62
     6
 10
26386.88379981734
 20
16785.486978000001
 30
0.0
 11
26365.283799817349
 21
16785.486978000001
 31
0.0
  0
LINE
  5
11EAE
  8
1-中柱カバ-P
 10
26373.88379981734
 20
16783.736978000001
 30
0.0
 11
26373.88379981734
 21
16791.736978000001
 31
0.0
  0
LINE
  5
11EAF
  8
1-中柱カバ-P
  6
HIDE-M
 62
     6
 10
26444.683799817329
 20
16789.486978000001
 30
0.0
 11
26456.283799817342
 21
16789.486978000001
 31
0.0
  0
LINE
  5
11EB0
  8
1-中柱カバ-P
  6
HIDE-M
 62
     6
 10
26444.683799817329
 20
16788.486978000001
 30
0.0
 11
26456.283799817342
 21
16788.486978000001
 31
0.0
  0
LINE
  5
11EB1
  8
1-中柱カバ-P
  6
HIDE-M
 62
     6
 10
26381.88379981734
 20
16789.486978000001
 30
0.0
 11
26370.283799817342
 21
16789.486978000001
 31
0.0
  0
LINE
  5
11EB2
  8
1-中柱カバ-P
  6
HIDE-M
 62
     6
 10
26381.88379981734
 20
16788.486978000001
 30
0.0
 11
26370.283799817342
 21
16788.486978000001
 31
0.0
  0
ARC
  5
11EB3
  8
1-前柱P
  6
HIDE-M
 62
     6
 10
26409.68379981734
 20
13900.88697800001
 30
0.0
 40
2.6000000000000001
 50
0.0
 51
90.0
  0
LINE
  5
11EB4
  8
1-前柱P
  6
HIDE-M
 62
     6
 10
26421.283799817342
 20
13902.9363681532
 30
0.0
 11
26421.283799817342
 21
13899.286978
 31
0.0
  0
LINE
  5
11EB5
  8
1-前柱P
  6
HIDE-M
 62
     6
 10
26411.283799817349
 20
13902.9363681532
 30
0.0
 11
26411.283799817349
 21
13899.286978
 31
0.0
  0
LINE
  5
11EB6
  8
1-前柱P
  6
1PL-M
 62
     6
 10
26416.283799817342
 20
13908.486978000001
 30
0.0
 11
26416.283799817342
 21
13894.286978
 31
0.0
  0
ARC
  5
11EB7
  8
1-前柱P
  6
HIDE-M
 62
     6
 10
26422.883799817359
 20
13900.88697800001
 30
0.0
 40
2.6000000000000001
 50
90.0
 51
180.0
  0
LINE
  5
11EB8
  8
1-前柱P
  6
HIDE-M
 62
     6
 10
26412.283799817342
 20
13900.88697800001
 30
0.0
 11
26412.283799817342
 21
13899.286978
 31
0.0
  0
LINE
  5
11EB9
  8
1-前柱P
  6
HIDE-M
 62
     6
 10
26420.283799817349
 20
13900.88697800001
 30
0.0
 11
26420.283799817349
 21
13899.286978
 31
0.0
  0
LINE
  5
11EBA
  8
1-前柱P
 10
26402.383799817351
 20
13788.58697800001
 30
0.0
 11
26424.183799817361
 21
13788.58697800001
 31
0.0
  0
LINE
  5
11EBB
  8
1-前柱P
 10
26454.183799817361
 20
13825.88697800001
 30
0.0
 11
26454.183799817361
 21
13818.586977999999
 31
0.0
  0
ARC
  5
11EBC
  8
1-前柱P
 10
26424.183799817361
 20
13818.586977999999
 30
0.0
 40
30.0
 50
270.0
 51
0.0
  0
ARC
  5
11EBD
  8
1-前柱P
 10
26424.183799817361
 20
13818.586977999999
 30
0.0
 40
31.600000000000001
 50
270.0
 51
0.0
  0
LINE
  5
11EBE
  8
1-前柱P
 10
26402.383799817351
 20
13786.986978000001
 30
0.0
 11
26424.183799817361
 21
13786.986978000001
 31
0.0
  0
LINE
  5
11EBF
  8
1-前柱P
 10
26455.783799817342
 20
13825.88697800001
 30
0.0
 11
26455.783799817342
 21
13818.586977999999
 31
0.0
  0
LINE
  5
11EC0
  8
1-前柱P
 10
26432.783799817342
 20
13847.486978000001
 30
0.0
 11
26432.783799817342
 21
13837.486978000001
 31
0.0
  0
LINE
  5
11EC1
  8
1-前柱P
 10
26431.183799817351
 20
13837.486978000001
 30
0.0
 11
26431.183799817351
 21
13847.486978000001
 31
0.0
  0
LINE
  5
11EC2
  8
1-前柱P
 10
26372.383799817351
 20
13825.88697800001
 30
0.0
 11
26372.383799817351
 21
13818.586977999999
 31
0.0
  0
ARC
  5
11EC3
  8
1-前柱P
 10
26402.383799817351
 20
13818.586977999999
 30
0.0
 40
30.0
 50
180.0
 51
270.0
  0
ARC
  5
11EC4
  8
1-前柱P
 10
26402.383799817351
 20
13818.586977999999
 30
0.0
 40
31.600000000000001
 50
180.0
 51
270.0
  0
LINE
  5
11EC5
  8
1-前柱P
 10
26370.783799817349
 20
13825.88697800001
 30
0.0
 11
26370.783799817349
 21
13818.586977999999
 31
0.0
  0
LINE
  5
11EC6
  8
1-前柱P
 10
26377.383799817351
 20
13832.486978000001
 30
0.0
 11
26388.783799817349
 21
13832.486978000001
 31
0.0
  0
ARC
  5
11EC7
  8
1-前柱P
 10
26377.383799817351
 20
13825.88697800001
 30
0.0
 40
6.599999999999997
 50
90.0
 51
180.0
  0
ARC
  5
11EC8
  8
1-前柱P
 10
26388.783799817349
 20
13837.486978000001
 30
0.0
 40
5.0
 50
270.0
 51
0.0
  0
LINE
  5
11EC9
  8
1-前柱P
 10
26377.383799817351
 20
13830.886978
 30
0.0
 11
26388.783799817349
 21
13830.886978
 31
0.0
  0
ARC
  5
11ECA
  8
1-前柱P
 10
26377.383799817351
 20
13825.88697800001
 30
0.0
 40
5.0
 50
90.0
 51
180.0
  0
LINE
  5
11ECB
  8
1-前柱P
 10
26393.783799817349
 20
13837.486978000001
 30
0.0
 11
26393.783799817349
 21
13896.886978
 31
0.0
  0
LINE
  5
11ECC
  8
1-前柱P
 10
26395.383799817351
 20
13837.486978000001
 30
0.0
 11
26395.383799817351
 21
13896.886978
 31
0.0
  0
ARC
  5
11ECD
  8
1-前柱P
 10
26388.783799817349
 20
13837.486978000001
 30
0.0
 40
6.599999999999997
 50
270.0
 51
0.0
  0
LINE
  5
11ECE
  8
1-前柱P
 10
26400.383799817351
 20
13903.486978000001
 30
0.0
 11
26433.783799817349
 21
13903.486978000001
 31
0.0
  0
ARC
  5
11ECF
  8
1-前柱P
 10
26400.383799817351
 20
13896.886978
 30
0.0
 40
6.599999999999997
 50
90.0
 51
180.0
  0
LINE
  5
11ED0
  8
1-前柱P
 10
26400.383799817351
 20
13901.88697800001
 30
0.0
 11
26433.783799817349
 21
13901.88697800001
 31
0.0
  0
ARC
  5
11ED1
  8
1-前柱P
 10
26400.383799817351
 20
13896.886978
 30
0.0
 40
5.0
 50
90.0
 51
180.0
  0
LINE
  5
11ED2
  8
1-前柱P
 10
26433.783799817349
 20
13901.88697800001
 30
0.0
 11
26433.783799817349
 21
13903.486978000001
 31
0.0
  0
LINE
  5
11ED3
  8
1-前柱P
 10
26449.183799817351
 20
13832.486978000001
 30
0.0
 11
26437.783799817349
 21
13832.486978000001
 31
0.0
  0
ARC
  5
11ED4
  8
1-前柱P
 10
26449.183799817351
 20
13825.88697800001
 30
0.0
 40
6.599999999999997
 50
0.0
 51
90.0
  0
ARC
  5
11ED5
  8
1-前柱P
 10
26437.783799817349
 20
13837.486978000001
 30
0.0
 40
5.0
 50
180.0
 51
270.0
  0
LINE
  5
11ED6
  8
1-前柱P
 10
26437.783799817349
 20
13830.886978
 30
0.0
 11
26449.183799817351
 21
13830.886978
 31
0.0
  0
ARC
  5
11ED7
  8
1-前柱P
 10
26437.783799817349
 20
13837.486978000001
 30
0.0
 40
6.599999999999997
 50
180.0
 51
270.0
  0
ARC
  5
11ED8
  8
1-前柱P
 10
26449.183799817351
 20
13825.88697800001
 30
0.0
 40
5.0
 50
0.0
 51
90.0
  0
LINE
  5
11ED9
  8
1-前柱P
 10
26432.783799817342
 20
13847.486978000001
 30
0.0
 11
26431.183799817351
 21
13847.486978000001
 31
0.0
  0
LINE
  5
11EDA
  8
1-前柱カバ-P
 10
26455.783799817342
 20
13839.186977999991
 30
0.0
 11
26455.783799817342
 21
13898.486978000001
 31
0.0
  0
ARC
  5
11EDB
  8
1-前柱カバ-P
 10
26449.183799817351
 20
13898.486978000001
 30
0.0
 40
6.599999999999997
 50
0.0
 51
90.0
  0
LINE
  5
11EDC
  8
1-前柱カバ-P
 10
26454.183799817361
 20
13839.186977999991
 30
0.0
 11
26454.183799817361
 21
13898.486978000001
 31
0.0
  0
ARC
  5
11EDD
  8
1-前柱カバ-P
 10
26449.183799817351
 20
13839.186977999991
 30
0.0
 40
5.0
 50
270.0
 51
0.0
  0
LINE
  5
11EDE
  8
1-前柱カバ-P
 10
26449.183799817351
 20
13905.086977999999
 30
0.0
 11
26377.383799817351
 21
13905.086977999999
 31
0.0
  0
ARC
  5
11EDF
  8
1-前柱カバ-P
 10
26377.383799817351
 20
13898.486978000001
 30
0.0
 40
6.599999999999997
 50
90.0
 51
180.0
  0
LINE
  5
11EE0
  8
1-前柱カバ-P
 10
26449.183799817351
 20
13903.486978000001
 30
0.0
 11
26377.383799817351
 21
13903.486978000001
 31
0.0
  0
ARC
  5
11EE1
  8
1-前柱カバ-P
 10
26377.383799817351
 20
13898.486978000001
 30
0.0
 40
5.0
 50
90.0
 51
180.0
  0
ARC
  5
11EE2
  8
1-前柱カバ-P
 10
26449.183799817351
 20
13898.486978000001
 30
0.0
 40
5.0
 50
0.0
 51
90.0
  0
LINE
  5
11EE3
  8
1-前柱カバ-P
 10
26370.783799817349
 20
13898.486978000001
 30
0.0
 11
26370.783799817349
 21
13839.186977999991
 31
0.0
  0
LINE
  5
11EE4
  8
1-前柱カバ-P
 10
26372.383799817351
 20
13898.486978000001
 30
0.0
 11
26372.383799817351
 21
13839.186977999991
 31
0.0
  0
ARC
  5
11EE5
  8
1-前柱カバ-P
 10
26377.383799817351
 20
13839.186977999991
 30
0.0
 40
5.0
 50
180.0
 51
270.0
  0
LINE
  5
11EE6
  8
1-前柱カバ-P
  6
1PL-M
 62
     6
 10
26413.283799817349
 20
13897.586977999999
 30
0.0
 11
26413.283799817349
 21
13910.58697800001
 31
0.0
  0
LINE
  5
11EE7
  8
1-前柱カバ-P
  6
HIDE-M
 62
     6
 10
26420.283799817349
 20
13905.086977999999
 30
0.0
 11
26420.283799817349
 21
13903.486978000001
 31
0.0
  0
LINE
  5
11EE8
  8
1-前柱カバ-P
  6
HIDE-M
 62
     6
 10
26406.283799817342
 20
13905.086977999999
 30
0.0
 11
26406.283799817342
 21
13903.486978000001
 31
0.0
  0
ARC
  5
11EE9
  8
1-前柱カバ-P
 10
26449.183799817351
 20
13839.186977999991
 30
0.0
 40
6.599999999999997
 50
270.0
 51
0.0
  0
ARC
  5
11EEA
  8
1-前柱カバ-P
 10
26377.383799817351
 20
13839.186977999991
 30
0.0
 40
6.599999999999997
 50
180.0
 51
270.0
  0
LINE
  5
11EEB
  8
1-前柱カバ-P
 10
26385.783799817342
 20
13832.586977999999
 30
0.0
 11
26377.383799817351
 21
13832.586977999999
 31
0.0
  0
LINE
  5
11EEC
  8
1-前柱カバ-P
 10
26440.783799817342
 20
13832.586977999999
 30
0.0
 11
26449.183799817351
 21
13832.586977999999
 31
0.0
  0
LINE
  5
11EED
  8
1-前柱カバ-P
 10
26385.783799817342
 20
13834.186978
 30
0.0
 11
26377.383799817351
 21
13834.186978
 31
0.0
  0
LINE
  5
11EEE
  8
1-前柱カバ-P
 10
26440.783799817342
 20
13834.186978
 30
0.0
 11
26449.183799817351
 21
13834.186978
 31
0.0
  0
LINE
  5
11EEF
  8
1-前柱カバ-P
 10
26440.783799817342
 20
13834.186978
 30
0.0
 11
26440.783799817342
 21
13832.586977999999
 31
0.0
  0
LINE
  5
11EF0
  8
1-前柱カバ-P
 10
26385.783799817342
 20
13832.586977999999
 30
0.0
 11
26385.783799817342
 21
13834.186978
 31
0.0
  0
LINE
  5
11EF1
  8
1-前柱カバ-P
  6
HIDE-M
 62
     6
 10
26381.883799817351
 20
13853.586977999999
 30
0.0
 11
26370.283799817342
 21
13853.586977999999
 31
0.0
  0
LINE
  5
11EF2
  8
1-前柱カバ-P
  6
HIDE-M
 62
     6
 10
26381.883799817351
 20
13861.586977999999
 30
0.0
 11
26370.283799817342
 21
13861.586977999999
 31
0.0
  0
LINE
  5
11EF3
  8
1-前柱カバ-P
  6
HIDE-M
 62
     6
 10
26381.883799817351
 20
13854.586977999999
 30
0.0
 11
26370.283799817342
 21
13854.586977999999
 31
0.0
  0
LINE
  5
11EF4
  8
1-前柱カバ-P
  6
HIDE-M
 62
     6
 10
26381.883799817351
 20
13860.586977999999
 30
0.0
 11
26370.283799817342
 21
13860.586977999999
 31
0.0
  0
LINE
  5
11EF5
  8
1-前柱カバ-P
 10
26380.883799817359
 20
13863.086977999999
 30
0.0
 11
26373.883799817351
 21
13863.086977999999
 31
0.0
  0
LINE
  5
11EF6
  8
1-前柱カバ-P
 10
26373.883799817351
 20
13852.08697799999
 30
0.0
 11
26380.883799817359
 21
13852.08697799999
 31
0.0
  0
LINE
  5
11EF7
  8
1-前柱カバ-P
 10
26373.883799817351
 20
13851.33697800001
 30
0.0
 11
26373.883799817351
 21
13863.83697800001
 31
0.0
  0
LINE
  5
11EF8
  8
1-前柱カバ-P
 10
26370.283799817342
 20
13851.58697800001
 30
0.0
 11
26370.283799817342
 21
13863.58697799999
 31
0.0
  0
LINE
  5
11EF9
  8
1-前柱カバ-P
  6
HIDE-M
 62
     6
 10
26372.383799817351
 20
13863.086977999999
 30
0.0
 11
26370.783799817349
 21
13863.086977999999
 31
0.0
  0
LINE
  5
11EFA
  8
1-前柱カバ-P
 10
26370.283799817342
 20
13863.58697799999
 30
0.0
 11
26370.783799817349
 21
13863.086977999999
 31
0.0
  0
ARC
  5
11EFB
  8
1-前柱カバ-P
 10
26373.133799817359
 20
13863.83697800001
 30
0.0
 40
0.75
 50
0.0
 51
180.0
  0
LINE
  5
11EFC
  8
1-前柱カバ-P
  6
HIDE-M
 62
     6
 10
26370.783799817349
 20
13852.08697799999
 30
0.0
 11
26372.383799817351
 21
13852.08697799999
 31
0.0
  0
LINE
  5
11EFD
  8
1-前柱カバ-P
 10
26370.283799817342
 20
13851.58697800001
 30
0.0
 11
26370.783799817349
 21
13852.08697799999
 31
0.0
  0
ARC
  5
11EFE
  8
1-前柱カバ-P
 10
26373.133799817359
 20
13851.33697800001
 30
0.0
 40
0.75
 50
180.0
 51
0.0
  0
LINE
  5
11EFF
  8
1-前柱カバ-P
 10
26381.883799817351
 20
13853.08697799999
 30
0.0
 11
26381.883799817351
 21
13862.086977999999
 31
0.0
  0
ARC
  5
11F00
  8
1-前柱カバ-P
 10
26380.883799817359
 20
13862.086977999999
 30
0.0
 40
1.0
 50
0.0
 51
90.0
  0
ARC
  5
11F01
  8
1-前柱カバ-P
 10
26380.883799817359
 20
13853.08697799999
 30
0.0
 40
1.0
 50
270.0
 51
0.0
  0
LINE
  5
11F02
  8
1-前柱カバ-P
  6
1PL-M
 62
     6
 10
26386.883799817351
 20
13857.586977999999
 30
0.0
 11
26365.283799817349
 21
13857.586977999999
 31
0.0
  0
LINE
  5
11F03
  8
1-前柱カバ-P
 10
26380.883799817359
 20
13873.08697799999
 30
0.0
 11
26373.883799817351
 21
13873.08697799999
 31
0.0
  0
LINE
  5
11F04
  8
1-前柱カバ-P
 10
26370.283799817342
 20
13865.58697799999
 30
0.0
 11
26370.283799817342
 21
13873.586977999999
 31
0.0
  0
LINE
  5
11F05
  8
1-前柱カバ-P
  6
HIDE-M
 62
     6
 10
26372.383799817351
 20
13873.08697799999
 30
0.0
 11
26370.783799817349
 21
13873.08697799999
 31
0.0
  0
LINE
  5
11F06
  8
1-前柱カバ-P
 10
26370.283799817342
 20
13873.586977999999
 30
0.0
 11
26370.783799817349
 21
13873.08697799999
 31
0.0
  0
ARC
  5
11F07
  8
1-前柱カバ-P
 10
26373.133799817359
 20
13873.836977999999
 30
0.0
 40
0.75
 50
0.0
 51
180.0
  0
LINE
  5
11F08
  8
1-前柱カバ-P
 10
26381.883799817351
 20
13864.086977999999
 30
0.0
 11
26381.883799817351
 21
13872.086977999999
 31
0.0
  0
ARC
  5
11F09
  8
1-前柱カバ-P
 10
26380.883799817359
 20
13872.086977999999
 30
0.0
 40
1.0
 50
0.0
 51
90.0
  0
LINE
  5
11F0A
  8
1-前柱カバ-P
  6
1PL-M
 62
     6
 10
26386.883799817351
 20
13867.58697800001
 30
0.0
 11
26365.283799817349
 21
13867.58697800001
 31
0.0
  0
LINE
  5
11F0B
  8
1-前柱カバ-P
 10
26373.883799817351
 20
13865.83697800001
 30
0.0
 11
26373.883799817351
 21
13873.836977999999
 31
0.0
  0
LINE
  5
11F0C
  8
1-前柱カバ-P
  6
HIDE-M
 62
     6
 10
26444.683799817361
 20
13853.586977999999
 30
0.0
 11
26456.283799817342
 21
13853.586977999999
 31
0.0
  0
LINE
  5
11F0D
  8
1-前柱カバ-P
  6
HIDE-M
 62
     6
 10
26444.683799817361
 20
13861.586977999999
 30
0.0
 11
26456.283799817342
 21
13861.586977999999
 31
0.0
  0
LINE
  5
11F0E
  8
1-前柱カバ-P
  6
HIDE-M
 62
     6
 10
26444.683799817361
 20
13854.586977999999
 30
0.0
 11
26456.283799817342
 21
13854.586977999999
 31
0.0
  0
LINE
  5
11F0F
  8
1-前柱カバ-P
  6
HIDE-M
 62
     6
 10
26444.683799817361
 20
13860.586977999999
 30
0.0
 11
26456.283799817342
 21
13860.586977999999
 31
0.0
  0
LINE
  5
11F10
  8
1-前柱カバ-P
 10
26445.683799817351
 20
13863.086977999999
 30
0.0
 11
26452.683799817361
 21
13863.086977999999
 31
0.0
  0
LINE
  5
11F11
  8
1-前柱カバ-P
 10
26452.683799817361
 20
13852.08697799999
 30
0.0
 11
26445.683799817351
 21
13852.08697799999
 31
0.0
  0
LINE
  5
11F12
  8
1-前柱カバ-P
 10
26452.683799817361
 20
13851.33697800001
 30
0.0
 11
26452.683799817361
 21
13863.83697800001
 31
0.0
  0
LINE
  5
11F13
  8
1-前柱カバ-P
 10
26456.283799817342
 20
13851.58697800001
 30
0.0
 11
26456.283799817342
 21
13863.58697799999
 31
0.0
  0
LINE
  5
11F14
  8
1-前柱カバ-P
  6
HIDE-M
 62
     6
 10
26454.183799817361
 20
13863.086977999999
 30
0.0
 11
26455.783799817342
 21
13863.086977999999
 31
0.0
  0
LINE
  5
11F15
  8
1-前柱カバ-P
 10
26456.283799817342
 20
13863.58697799999
 30
0.0
 11
26455.783799817342
 21
13863.086977999999
 31
0.0
  0
ARC
  5
11F16
  8
1-前柱カバ-P
 10
26453.433799817351
 20
13863.83697800001
 30
0.0
 40
0.75
 50
0.0
 51
180.0
  0
LINE
  5
11F17
  8
1-前柱カバ-P
  6
HIDE-M
 62
     6
 10
26455.783799817342
 20
13852.08697799999
 30
0.0
 11
26454.183799817361
 21
13852.08697799999
 31
0.0
  0
LINE
  5
11F18
  8
1-前柱カバ-P
 10
26456.283799817342
 20
13851.58697800001
 30
0.0
 11
26455.783799817342
 21
13852.08697799999
 31
0.0
  0
ARC
  5
11F19
  8
1-前柱カバ-P
 10
26453.433799817351
 20
13851.33697800001
 30
0.0
 40
0.75
 50
180.0
 51
0.0
  0
LINE
  5
11F1A
  8
1-前柱カバ-P
 10
26444.683799817361
 20
13853.08697799999
 30
0.0
 11
26444.683799817361
 21
13862.086977999999
 31
0.0
  0
ARC
  5
11F1B
  8
1-前柱カバ-P
 10
26445.683799817351
 20
13862.086977999999
 30
0.0
 40
1.0
 50
90.0
 51
180.0
  0
ARC
  5
11F1C
  8
1-前柱カバ-P
 10
26445.683799817351
 20
13853.08697799999
 30
0.0
 40
1.0
 50
180.0
 51
270.0
  0
LINE
  5
11F1D
  8
1-前柱カバ-P
  6
1PL-M
 62
     6
 10
26439.683799817351
 20
13857.586977999999
 30
0.0
 11
26461.283799817349
 21
13857.586977999999
 31
0.0
  0
LINE
  5
11F1E
  8
1-前柱カバ-P
 10
26445.683799817351
 20
13873.08697799999
 30
0.0
 11
26452.683799817361
 21
13873.08697799999
 31
0.0
  0
LINE
  5
11F1F
  8
1-前柱カバ-P
 10
26456.283799817342
 20
13865.58697799999
 30
0.0
 11
26456.283799817342
 21
13873.586977999999
 31
0.0
  0
LINE
  5
11F20
  8
1-前柱カバ-P
  6
HIDE-M
 62
     6
 10
26454.183799817361
 20
13873.08697799999
 30
0.0
 11
26455.783799817342
 21
13873.08697799999
 31
0.0
  0
LINE
  5
11F21
  8
1-前柱カバ-P
 10
26456.283799817342
 20
13873.586977999999
 30
0.0
 11
26455.783799817342
 21
13873.08697799999
 31
0.0
  0
ARC
  5
11F22
  8
1-前柱カバ-P
 10
26453.433799817351
 20
13873.836977999999
 30
0.0
 40
0.75
 50
0.0
 51
180.0
  0
LINE
  5
11F23
  8
1-前柱カバ-P
 10
26444.683799817361
 20
13864.086977999999
 30
0.0
 11
26444.683799817361
 21
13872.086977999999
 31
0.0
  0
ARC
  5
11F24
  8
1-前柱カバ-P
 10
26445.683799817351
 20
13872.086977999999
 30
0.0
 40
1.0
 50
90.0
 51
180.0
  0
LINE
  5
11F25
  8
1-前柱カバ-P
  6
1PL-M
 62
     6
 10
26439.683799817351
 20
13867.58697800001
 30
0.0
 11
26461.283799817349
 21
13867.58697800001
 31
0.0
  0
LINE
  5
11F26
  8
1-前柱カバ-P
 10
26452.683799817361
 20
13865.83697800001
 30
0.0
 11
26452.683799817361
 21
13873.836977999999
 31
0.0
  0
LINE
  5
11F27
  8
1-前柱カバ-P
  6
HIDE-M
 62
     6
 10
26381.883799817351
 20
13871.58697800001
 30
0.0
 11
26370.283799817342
 21
13871.58697800001
 31
0.0
  0
LINE
  5
11F28
  8
1-前柱カバ-P
  6
HIDE-M
 62
     6
 10
26381.883799817351
 20
13870.58697800001
 30
0.0
 11
26370.283799817342
 21
13870.58697800001
 31
0.0
  0
LINE
  5
11F29
  8
1-前柱カバ-P
  6
HIDE-M
 62
     6
 10
26444.683799817361
 20
13871.58697800001
 30
0.0
 11
26456.283799817342
 21
13871.58697800001
 31
0.0
  0
LINE
  5
11F2A
  8
1-前柱カバ-P
  6
HIDE-M
 62
     6
 10
26444.683799817361
 20
13870.58697800001
 30
0.0
 11
26456.283799817342
 21
13870.58697800001
 31
0.0
  0
LINE
  5
11F2E
  8
0-6
  6
CONTINUOUS
 62
     6
 10
24972.449348307771
 20
13192.487836
 30
0.0
 11
25972.448689307759
 21
13192.487836
 31
0.0
  0
TEXT
  5
11F2F
  8
0-6
  6
CONTINUOUS
 62
     7
 10
25068.44961230777
 20
13272.48809999999
 30
0.0
 40
160.0
  1
前柱（P）
 72
     4
 11
25468.44961230777
 21
13352.48809999999
 31
0.0
  0
LINE
  5
11F30
  8
0-6
  6
CONTINUOUS
 62
     6
 10
26377.525053129171
 20
13778.486978000001
 30
0.0
 11
25972.448689307759
 21
13192.487836
 31
0.0
  0
LINE
  5
11F31
  8
0-6
  6
CONTINUOUS
 62
     6
 10
24972.449348307771
 20
16080.048635954119
 30
0.0
 11
25972.448689307759
 21
16080.048635954119
 31
0.0
  0
TEXT
  5
11F32
  8
0-6
  6
CONTINUOUS
 62
     7
 10
25068.44961230777
 20
16160.048899954099
 30
0.0
 40
160.0
  1
中柱（P）
 72
     4
 11
25468.44961230777
 21
16240.048899954099
 31
0.0
  0
LINE
  5
11F33
  8
0-6
  6
CONTINUOUS
 62
     6
 10
26377.525053129171
 20
16666.047777954122
 30
0.0
 11
25972.448689307759
 21
16080.048635954119
 31
0.0
  0
LINE
  5
11F34
  8
0-6
  6
CONTINUOUS
 62
     6
 10
24631.387457838238
 20
14393.477715828871
 30
0.0
 11
26087.38745783826
 21
14393.47771582888
 31
0.0
  0
TEXT
  5
11F35
  8
0-6
  6
CONTINUOUS
 62
     7
 10
24671.392731090651
 20
14473.47797982886
 30
0.0
 40
160.0
  1
前柱カバー（P）
 72
     4
 11
25359.392731090651
 21
14553.47797982886
 31
0.0
  0
LINE
  5
11F36
  8
0-6
  6
CONTINUOUS
 62
     6
 10
26386.625053129199
 20
13905.086977999999
 30
0.0
 11
26087.38745783826
 21
14393.47771582888
 31
0.0
  0
LINE
  5
11F37
  8
0-6
  6
CONTINUOUS
 62
     6
 10
24631.387457838238
 20
17300.97727982888
 30
0.0
 11
26087.38745783826
 21
17300.97727982888
 31
0.0
  0
TEXT
  5
11F38
  8
0-6
  6
CONTINUOUS
 62
     7
 10
24671.392731090651
 20
17380.977543828871
 30
0.0
 40
160.0
  1
中柱カバー（P）
 72
     4
 11
25359.392731090651
 21
17460.977543828871
 31
0.0
  0
LINE
  5
11F39
  8
0-6
  6
CONTINUOUS
 62
     6
 10
26386.625053129199
 20
16812.586542000001
 30
0.0
 11
26087.38745783826
 21
17300.97727982888
 31
0.0
  0
LINE
  5
11F3A
  8
0-6
  6
CONTINUOUS
 62
     6
 10
24972.449348307771
 20
19957.42434304587
 30
0.0
 11
25972.448689307759
 21
19957.42434304587
 31
0.0
  0
TEXT
  5
11F3B
  8
0-6
  6
CONTINUOUS
 62
     7
 10
25068.44961230777
 20
20037.424607045861
 30
0.0
 40
160.0
  1
後柱（P）
 72
     4
 11
25468.44961230777
 21
20117.424607045861
 31
0.0
  0
LINE
  5
11F3C
  8
0-6
  6
CONTINUOUS
 62
     6
 10
26377.525053129171
 20
19371.42520104588
 30
0.0
 11
25972.448689307759
 21
19957.42434304587
 31
0.0
  0
LINE
  5
11F3D
  8
0-6
  6
CONTINUOUS
 62
     6
 10
24631.387457838238
 20
18736.495699171119
 30
0.0
 11
26087.387457838238
 21
18736.495699171119
 31
0.0
  0
TEXT
  5
11F3E
  8
0-6
  6
CONTINUOUS
 62
     7
 10
24671.392731090651
 20
18816.49596317111
 30
0.0
 40
160.0
  1
後柱カバー（P）
 72
     4
 11
25359.392731090651
 21
18896.49596317111
 31
0.0
  0
LINE
  5
11F3F
  8
0-6
  6
CONTINUOUS
 62
     6
 10
26386.625053129199
 20
19224.886437000001
 30
0.0
 11
26087.387457838238
 21
18736.495699171119
 31
0.0
  0
LINE
  5
11F4E
  8
0-6
  6
CONTINUOUS
 62
     6
 10
20555.34915081735
 20
13662.905580000001
 30
0.0
 11
21023.283588817361
 21
13192.487836
 31
0.0
  0
LINE
  5
11F4F
  8
0-6
  6
CONTINUOUS
 62
     6
 10
21023.283588817361
 20
13192.487836
 30
0.0
 11
22023.282929817331
 21
13192.487836
 31
0.0
  0
LINE
  5
11F68
  8
0-6
  6
CONTINUOUS
 62
     6
 10
20574.257511817359
 20
13681.71001699999
 30
0.0
 11
20442.512632817361
 21
13776.34090299998
 31
0.0
  0
LINE
  5
11F69
  8
0-6
  6
CONTINUOUS
 62
     6
 10
20442.512632817361
 20
13776.34090299998
 30
0.0
 11
20536.444748817361
 21
13644.099163999999
 31
0.0
  0
LINE
  5
11F6A
  8
0-6
  6
CONTINUOUS
 62
     6
 10
20442.512632817361
 20
13776.34090299998
 30
0.0
 11
20574.257511817359
 21
13681.71001699999
 31
0.0
  0
LINE
  5
11F6B
  8
0-6
  6
CONTINUOUS
 62
     6
 10
20574.257511817359
 20
13681.71001699999
 30
0.0
 11
20536.444748817361
 21
13644.099163999999
 31
0.0
  0
LINE
  5
11F6C
  8
0-6
  6
CONTINUOUS
 62
     6
 10
20536.444748817361
 20
13644.099163999999
 30
0.0
 11
20442.512632817361
 21
13776.34090299998
 31
0.0
  0
LINE
  5
11F6D
  8
0-6
  6
CONTINUOUS
 62
     6
 10
20536.444748817361
 20
13644.099163999999
 30
0.0
 11
20574.257511817359
 21
13681.71001699999
 31
0.0
  0
TEXT
  5
11F75
  8
0-6
  6
CONTINUOUS
 62
     7
 10
21103.283852817342
 20
13272.48809999999
 30
0.0
 40
160.0
  1
前柱（左）
 72
     4
 11
21519.283852817342
 21
13352.48809999999
 31
0.0
  0
LINE
  5
11F7F
  8
0-1
  6
CONTINUOUS
 62
     3
 10
20366.278243817389
 20
8132.6883740000021
 30
0.0
 11
23549.781674817361
 21
8132.6883740000021
 31
0.0
  0
LINE
  5
11F80
  8
0-1
  6
CONTINUOUS
 62
     3
 10
20366.278243817389
 20
8326.1887430000024
 30
0.0
 11
23549.781674817361
 21
8326.1887430000024
 31
0.0
  0
LINE
  5
11F81
  8
0-1
  6
CONTINUOUS
 62
     3
 10
20238.281938817359
 20
8264.0026619999971
 30
0.0
 11
20238.281938817359
 21
8589.6883999999973
 31
0.0
  0
LINE
  5
11F82
  8
0-1
  6
CONTINUOUS
 62
     3
 10
23634.780223817372
 20
8459.6884660000014
 30
0.0
 11
20238.281938817359
 21
8459.6884660000014
 31
0.0
  0
LINE
  5
11F83
  8
0-1
  6
CONTINUOUS
 62
     3
 10
20238.281938817359
 20
8589.6883999999973
 30
0.0
 11
23614.783126817361
 21
8589.6883999999973
 31
0.0
  0
LINE
  5
11F84
  8
0-1
  6
CONTINUOUS
 62
     3
 10
23642.280619817371
 20
6241.1883740000021
 30
0.0
 11
23542.28127881738
 21
6241.1883740000021
 31
0.0
  0
LINE
  5
11F85
  8
0-1
  6
CONTINUOUS
 62
     3
 10
23542.28127881738
 20
6241.1883740000021
 30
0.0
 11
23542.28127881738
 21
6141.1885390000007
 31
0.0
  0
LINE
  5
11F86
  8
0-1
  6
CONTINUOUS
 62
     3
 10
23642.280619817371
 20
6141.1885390000007
 30
0.0
 11
23642.280619817371
 21
6241.1883740000021
 31
0.0
  0
LINE
  5
11F87
  8
0-1
  6
CONTINUOUS
 62
     3
 10
23549.781674817361
 20
8459.6884660000014
 30
0.0
 11
23549.781674817361
 21
6241.1883740000021
 31
0.0
  0
LINE
  5
11F88
  8
0-1
  6
CONTINUOUS
 62
     3
 10
23498.281938817359
 20
8132.6883740000021
 30
0.0
 11
23498.281938817359
 21
6141.1885390000007
 31
0.0
  0
LINE
  5
11F89
  8
0-1
  6
CONTINUOUS
 62
     3
 10
23614.783126817361
 20
8589.6883999999973
 30
0.0
 11
23614.783126817361
 21
6241.1883740000021
 31
0.0
  0
LINE
  5
11F8A
  8
0-1
  6
CONTINUOUS
 62
     3
 10
23634.78193881737
 20
8459.6884660000014
 30
0.0
 11
23634.78193881737
 21
6241.1883740000021
 31
0.0
  0
LINE
  5
11F8B
  8
0-1
  6
CONTINUOUS
 62
     3
 10
20238.281938817359
 20
8264.0026619999971
 30
0.0
 11
20281.281938817359
 21
8264.0026619999971
 31
0.0
  0
LINE
  5
11F8C
  8
0-1
  6
CONTINUOUS
 62
     3
 10
20273.779299817372
 20
6241.1883740000021
 30
0.0
 11
20373.778639817381
 21
6241.1883740000021
 31
0.0
  0
LINE
  5
11F8D
  8
0-1
  6
CONTINUOUS
 62
     3
 10
20373.778639817381
 20
6241.1883740000021
 30
0.0
 11
20373.778639817381
 21
6141.1885390000007
 31
0.0
  0
LINE
  5
11F8E
  8
0-1
  6
CONTINUOUS
 62
     3
 10
20273.779299817372
 20
6141.1885390000007
 30
0.0
 11
20273.779299817372
 21
6241.1883740000021
 31
0.0
  0
LINE
  5
11F8F
  8
0-1
  6
CONTINUOUS
 62
     3
 10
20417.781938817359
 20
8132.6883740000021
 30
0.0
 11
20417.781938817359
 21
6141.1885390000007
 31
0.0
  0
LINE
  5
11F90
  8
0-1
  6
CONTINUOUS
 62
     3
 10
20366.278243817389
 20
8459.6884660000014
 30
0.0
 11
20366.278243817389
 21
6241.1883740000021
 31
0.0
  0
LINE
  5
11F91
  8
0-1
  6
CONTINUOUS
 62
     3
 10
20301.278771817371
 20
8589.6883999999973
 30
0.0
 11
20301.278771817371
 21
6241.1883740000021
 31
0.0
  0
LINE
  5
11F92
  8
0-1
  6
CONTINUOUS
 62
     3
 10
20281.281938817359
 20
8459.6884660000014
 30
0.0
 11
20281.281938817359
 21
6241.1883740000021
 31
0.0
  0
LINE
  5
11F93
  8
0-1
  6
CONTINUOUS
 62
     3
 10
20417.781938817359
 20
6661.1892649999991
 30
0.0
 11
23498.281938817359
 21
6661.1892649999991
 31
0.0
  0
LINE
  5
11F94
  8
0-1
  6
CONTINUOUS
 62
     3
 10
20417.781938817359
 20
6596.1888030000027
 30
0.0
 11
23498.281938817359
 21
6596.1888030000027
 31
0.0
  0
LINE
  5
11F95
  8
0-1
  6
CONTINUOUS
 62
     3
 10
20417.781938817359
 20
6531.1888360000003
 30
0.0
 11
23498.281938817359
 21
6531.1888360000003
 31
0.0
  0
LINE
  5
11F96
  8
0-1
  6
CONTINUOUS
 62
     3
 10
20417.781938817359
 20
6466.1883740000039
 30
0.0
 11
23498.281938817359
 21
6466.1883740000039
 31
0.0
  0
LINE
  5
11F97
  8
0-1
  6
CONTINUOUS
 62
     3
 10
20417.781938817359
 20
6401.1889020000071
 30
0.0
 11
23498.281938817359
 21
6401.1889020000071
 31
0.0
  0
LINE
  5
11F98
  8
0-1
  6
CONTINUOUS
 62
     3
 10
20417.781938817359
 20
6336.1889349999956
 30
0.0
 11
23498.281938817359
 21
6336.1889349999956
 31
0.0
  0
LINE
  5
11F99
  8
0-1
  6
CONTINUOUS
 62
     3
 10
20417.781938817359
 20
6271.1889680000004
 30
0.0
 11
23498.281938817359
 21
6271.1889680000004
 31
0.0
  0
LINE
  5
11F9A
  8
0-1
  6
CONTINUOUS
 62
     3
 10
20417.781938817359
 20
6206.1885060000041
 30
0.0
 11
23498.281938817359
 21
6206.1885060000041
 31
0.0
  0
LINE
  5
11F9B
  8
0-1
  6
CONTINUOUS
 62
     3
 10
20417.781938817359
 20
8026.1885719999982
 30
0.0
 11
23498.281938817359
 21
8026.1885719999982
 31
0.0
  0
LINE
  5
11F9C
  8
0-1
  6
CONTINUOUS
 62
     3
 10
20417.781938817359
 20
7961.1886050000021
 30
0.0
 11
23498.281938817359
 21
7961.1886050000021
 31
0.0
  0
LINE
  5
11F9D
  8
0-1
  6
CONTINUOUS
 62
     3
 10
20417.781938817359
 20
7896.1891330000062
 30
0.0
 11
23498.281938817359
 21
7896.1891330000062
 31
0.0
  0
LINE
  5
11F9E
  8
0-1
  6
CONTINUOUS
 62
     3
 10
20417.781938817359
 20
7831.1891659999937
 30
0.0
 11
23498.281938817359
 21
7831.1891659999937
 31
0.0
  0
LINE
  5
11F9F
  8
0-1
  6
CONTINUOUS
 62
     3
 10
20417.781938817359
 20
7766.1891989999967
 30
0.0
 11
23498.281938817359
 21
7766.1891989999967
 31
0.0
  0
LINE
  5
11FA0
  8
0-1
  6
CONTINUOUS
 62
     3
 10
20417.781938817359
 20
7701.1887370000022
 30
0.0
 11
23498.281938817359
 21
7701.1887370000022
 31
0.0
  0
LINE
  5
11FA1
  8
0-1
  6
CONTINUOUS
 62
     3
 10
20417.781938817359
 20
7636.1887699999979
 30
0.0
 11
23498.281938817359
 21
7636.1887699999979
 31
0.0
  0
LINE
  5
11FA2
  8
0-1
  6
CONTINUOUS
 62
     3
 10
20417.781938817359
 20
7571.1892980000011
 30
0.0
 11
23498.281938817359
 21
7571.1892980000011
 31
0.0
  0
LINE
  5
11FA3
  8
0-1
  6
CONTINUOUS
 62
     3
 10
20417.781938817359
 20
7506.1893309999978
 30
0.0
 11
23498.281938817359
 21
7506.1893309999978
 31
0.0
  0
LINE
  5
11FA4
  8
0-1
  6
CONTINUOUS
 62
     3
 10
20417.781938817359
 20
7441.1888690000023
 30
0.0
 11
23498.281938817359
 21
7441.1888690000023
 31
0.0
  0
LINE
  5
11FA5
  8
0-1
  6
CONTINUOUS
 62
     3
 10
20417.781938817359
 20
7376.188901999999
 30
0.0
 11
23498.281938817359
 21
7376.188901999999
 31
0.0
  0
LINE
  5
11FA6
  8
0-1
  6
CONTINUOUS
 62
     3
 10
20417.781938817359
 20
7311.1889350000029
 30
0.0
 11
23498.281938817359
 21
7311.1889350000029
 31
0.0
  0
LINE
  5
11FA7
  8
0-1
  6
CONTINUOUS
 62
     3
 10
20417.781938817359
 20
7246.1884730000029
 30
0.0
 11
23498.281938817359
 21
7246.1884730000029
 31
0.0
  0
LINE
  5
11FA8
  8
0-1
  6
CONTINUOUS
 62
     3
 10
20417.781938817359
 20
7181.1885060000041
 30
0.0
 11
23498.281938817359
 21
7181.1885060000041
 31
0.0
  0
LINE
  5
11FA9
  8
0-1
  6
CONTINUOUS
 62
     3
 10
20417.781938817359
 20
7116.1890340000009
 30
0.0
 11
23498.281938817359
 21
7116.1890340000009
 31
0.0
  0
LINE
  5
11FAA
  8
0-1
  6
CONTINUOUS
 62
     3
 10
20417.781938817359
 20
7051.1890669999966
 30
0.0
 11
23498.281938817359
 21
7051.1890669999966
 31
0.0
  0
LINE
  5
11FAB
  8
0-1
  6
CONTINUOUS
 62
     3
 10
20417.781938817359
 20
6986.1891000000032
 30
0.0
 11
23498.281938817359
 21
6986.1891000000032
 31
0.0
  0
LINE
  5
11FAC
  8
0-1
  6
CONTINUOUS
 62
     3
 10
20417.781938817359
 20
6921.1886380000051
 30
0.0
 11
23498.281938817359
 21
6921.1886380000051
 31
0.0
  0
LINE
  5
11FAD
  8
0-1
  6
CONTINUOUS
 62
     3
 10
20417.781938817359
 20
6856.1886710000017
 30
0.0
 11
23498.281938817359
 21
6856.1886710000017
 31
0.0
  0
LINE
  5
11FAE
  8
0-1
  6
CONTINUOUS
 62
     3
 10
20417.781938817359
 20
6791.1891989999967
 30
0.0
 11
23498.281938817359
 21
6791.1891989999967
 31
0.0
  0
LINE
  5
11FAF
  8
0-1
  6
CONTINUOUS
 62
     3
 10
20417.781938817359
 20
6726.1892320000024
 30
0.0
 11
23498.281938817359
 21
6726.1892320000024
 31
0.0
  0
LINE
  5
11FB0
  8
0-1
  6
CONTINUOUS
 62
     3
 10
20417.781938817359
 20
8080.6485920000023
 30
0.0
 11
23498.281938817359
 21
8080.6485920000023
 31
0.0
  0
LINE
  5
11FB1
  8
0-1
  6
CONTINUOUS
 62
     3
 10
20273.779299817372
 20
6141.1885390000007
 30
0.0
 11
27003.760314942559
 21
6141.1885390000007
 31
0.0
  0
LINE
  5
11FB2
  8
0-1
  6
CONTINUOUS
 62
     3
 10
20392.281199817378
 20
8335.1891200000064
 30
0.0
 11
20669.71072981738
 21
8335.1891200000064
 31
0.0
  0
LINE
  5
11FB3
  8
0-1
  6
CONTINUOUS
 62
     3
 10
20392.281199817378
 20
8377.1885650000022
 30
0.0
 11
20701.707667817391
 21
8377.1885650000022
 31
0.0
  0
LINE
  5
11FB4
  8
0-1
  6
CONTINUOUS
 62
     3
 10
20387.28093681738
 20
8340.1888889999937
 30
0.0
 11
20387.28093681738
 21
8372.1892910000006
 31
0.0
  0
LINE
  5
11FB5
  8
0-1
  6
CONTINUOUS
 62
     3
 10
20366.278243817389
 20
8386.1884470000077
 30
0.0
 11
23549.781674817361
 21
8386.1884470000077
 31
0.0
  0
LINE
  5
11FB6
  8
0-1
  6
CONTINUOUS
 62
     3
 10
20673.244169817372
 20
8336.6529740000005
 30
0.0
 11
20705.245067817381
 21
8368.653376000002
 31
0.0
  0
LINE
  5
11FB7
  8
0-1
  6
CONTINUOUS
 62
     3
 10
20387.28093681738
 20
8368.7889730000006
 30
0.0
 11
20705.37373581736
 21
8368.7889730000006
 31
0.0
  0
LINE
  5
11FB8
  8
0-1
  6
CONTINUOUS
 62
     3
 10
20387.28093681738
 20
8360.3888860000006
 30
0.0
 11
20696.98057781739
 21
8360.3888860000006
 31
0.0
  0
LINE
  5
11FB9
  8
0-1
  6
CONTINUOUS
 62
     3
 10
20387.28093681738
 20
8351.9892939999972
 30
0.0
 11
20688.581479817381
 21
8351.9892939999972
 31
0.0
  0
LINE
  5
11FBA
  8
0-1
  6
CONTINUOUS
 62
     3
 10
20387.28093681738
 20
8343.5892070000027
 30
0.0
 11
20680.17842381739
 21
8343.5892070000027
 31
0.0
  0
LINE
  5
11FBB
  8
0-1
  6
CONTINUOUS
 62
     3
 10
23528.78096281736
 20
8368.7889730000006
 30
0.0
 11
23210.688162817361
 21
8368.7889730000006
 31
0.0
  0
LINE
  5
11FBC
  8
0-1
  6
CONTINUOUS
 62
     3
 10
23528.78096281736
 20
8360.3888860000006
 30
0.0
 11
23219.083300817379
 21
8360.3888860000006
 31
0.0
  0
LINE
  5
11FBD
  8
0-1
  6
CONTINUOUS
 62
     3
 10
23528.78096281736
 20
8351.9892939999972
 30
0.0
 11
23227.482397817359
 21
8351.9892939999972
 31
0.0
  0
LINE
  5
11FBE
  8
0-1
  6
CONTINUOUS
 62
     3
 10
23528.78096281736
 20
8343.5892070000027
 30
0.0
 11
23235.88149581735
 21
8343.5892070000027
 31
0.0
  0
LINE
  5
11FBF
  8
0-1
  6
CONTINUOUS
 62
     3
 10
23523.780698817369
 20
8377.1885650000022
 30
0.0
 11
23214.35423081736
 21
8377.1885650000022
 31
0.0
  0
LINE
  5
11FC0
  8
0-1
  6
CONTINUOUS
 62
     3
 10
23523.780698817369
 20
8335.1891200000064
 30
0.0
 11
23246.351169817361
 21
8335.1891200000064
 31
0.0
  0
LINE
  5
11FC1
  8
0-1
  6
CONTINUOUS
 62
     3
 10
23528.78096281736
 20
8340.1888889999937
 30
0.0
 11
23528.78096281736
 21
8372.1892910000006
 31
0.0
  0
LINE
  5
11FC2
  8
0-1
  6
CONTINUOUS
 62
     3
 10
23242.81574881736
 20
8336.6529740000005
 30
0.0
 11
23210.818810817382
 21
8368.653376000002
 31
0.0
  0
LINE
  5
11FC3
  8
0-2
  6
CONTINUOUS
 62
     4
 10
22321.7199793174
 20
6888.415233000007
 30
0.0
 11
22221.720639317391
 21
6888.415233000007
 31
0.0
  0
LINE
  5
11FC4
  8
0-2
  6
CONTINUOUS
 62
     4
 10
21594.33597931738
 20
6888.415233000007
 30
0.0
 11
21694.335319317372
 21
6888.415233000007
 31
0.0
  0
LINE
  5
11FC5
  8
0-5
  6
CONTINUOUS
 62
     4
 10
23592.28193881737
 20
4461.1889349999938
 30
0.0
 11
23592.28193881737
 21
4301.1893970000001
 31
0.0
  0
LINE
  5
11FC6
  8
0-5
  6
CONTINUOUS
 62
     4
 10
18101.908918817349
 20
6349.0350210000024
 30
0.0
 11
18221.90733481737
 21
6141.1885390000007
 31
0.0
  0
LINE
  5
11FC7
  8
0-5
  6
CONTINUOUS
 62
     4
 10
18221.90733481737
 20
6141.1885390000007
 30
0.0
 11
18341.907730817369
 21
6349.0350210000024
 31
0.0
  0
LINE
  5
11FC8
  8
0-5
  6
CONTINUOUS
 62
     4
 10
18341.907730817369
 20
6349.0350210000024
 30
0.0
 11
18101.908918817349
 21
6349.0350210000024
 31
0.0
  0
LINE
  5
11FC9
  8
0-5
  6
CONTINUOUS
 62
     4
 10
20323.781938817359
 20
4461.1889349999938
 30
0.0
 11
20323.781938817359
 21
4301.1893970000001
 31
0.0
  0
LINE
  5
11FCA
  8
2-0
  6
CENTER2
 62
     6
 10
23592.28193881737
 20
5878.536116000002
 30
0.0
 11
23592.28193881737
 21
6915.6791430000003
 31
0.0
  0
LINE
  5
11FCB
  8
2-0
  6
CENTER2
 62
     6
 10
20323.781938817359
 20
5878.536116000002
 30
0.0
 11
20323.781938817359
 21
6915.6791430000003
 31
0.0
  0
ARC
  5
11FCC
  8
0-1
  6
CONTINUOUS
 62
     3
 10
20392.281199817378
 20
8372.1892910000006
 30
0.0
 40
5.0
 50
90.0
 51
180.0
  0
ARC
  5
11FCD
  8
0-1
  6
CONTINUOUS
 62
     3
 10
20392.281199817378
 20
8340.1888889999937
 30
0.0
 40
5.0
 50
180.0
 51
269.9999850001808
  0
ARC
  5
11FCE
  8
0-1
  6
CONTINUOUS
 62
     3
 10
20669.71072981738
 20
8340.1888889999937
 30
0.0
 40
5.0
 50
269.9999850001808
 51
314.99998500027681
  0
ARC
  5
11FCF
  8
0-1
  6
CONTINUOUS
 62
     3
 10
20701.707667817391
 20
8372.1892910000006
 30
0.0
 40
5.0
 50
314.99998500027681
 51
90.0
  0
ARC
  5
11FD0
  8
0-1
  6
CONTINUOUS
 62
     3
 10
23523.780698817369
 20
8340.1888889999937
 30
0.0
 40
5.0
 50
269.9999850001808
 51
0.0
  0
ARC
  5
11FD1
  8
0-1
  6
CONTINUOUS
 62
     3
 10
23523.780698817369
 20
8372.1892910000006
 30
0.0
 40
5.0
 50
0.0
 51
90.0
  0
ARC
  5
11FD2
  8
0-1
  6
CONTINUOUS
 62
     3
 10
23214.35423081736
 20
8372.1892910000006
 30
0.0
 40
5.0
 50
90.0
 51
224.99998499997761
  0
ARC
  5
11FD3
  8
0-1
  6
CONTINUOUS
 62
     3
 10
23246.351169817361
 20
8340.1888889999937
 30
0.0
 40
5.0
 50
224.99998499997761
 51
269.9999850001808
  0
CIRCLE
  5
11FD4
  8
0-5
  6
CONTINUOUS
 62
     4
 10
23592.28193881737
 20
4101.1882420000011
 30
0.0
 40
199.9999949999999
  0
CIRCLE
  5
11FD5
  8
0-5
  6
CONTINUOUS
 62
     4
 10
20323.781938817359
 20
4101.1882420000011
 30
0.0
 40
199.9999949999999
  0
TEXT
  5
11FD6
  8
0-5
  6
CONTINUOUS
 62
     7
 10
23540.369063817361
 20
4011.7132600000009
 30
0.0
 40
160.0
  1
2
 72
     4
 11
23593.70239715069
 21
4091.7132600000009
 31
0.0
  0
TEXT
  5
11FD7
  8
0-5
  6
CONTINUOUS
 62
     7
 10
19713.781411817381
 20
6988.0104361594431
 30
0.0
 40
160.0
  1
(2131.5)
 50
90.0
 72
     4
 11
19633.781411817381
 21
7441.3437694927761
 31
0.0
  0
TEXT
  5
11FD8
  8
0-5
  6
CONTINUOUS
 62
     7
 10
18101.908918817349
 20
6429.0347900000024
 30
0.0
 40
160.0
  1
G.L
 72
     4
 11
18261.90891881736
 21
6509.0347900000043
 31
0.0
  0
TEXT
  5
11FD9
  8
0-5
  6
CONTINUOUS
 62
     7
 10
20271.869064817369
 20
4011.7132600000009
 30
0.0
 40
160.0
  1
1
 72
     4
 11
20298.53573148404
 21
4091.7132600000009
 31
0.0
  0
CIRCLE
  5
11FDA
  8
0-4
  6
CONTINUOUS
 62
     4
 10
21958.02995931737
 20
6627.2449749999987
 30
0.0
 40
18.487504999999981
  0
LINE
  5
11FDB
  8
1-前柱カバ-P
 10
26349.781938817381
 20
8459.6884660000014
 30
0.0
 11
26349.781938817381
 21
6141.1885390000007
 31
0.0
  0
LINE
  5
11FDC
  8
1-前柱カバ-P
 10
26434.78193881737
 20
8589.6883999999973
 30
0.0
 11
26434.78193881737
 21
6141.1885390000007
 31
0.0
  0
LINE
  5
11FDD
  8
0-1
  6
CONTINUOUS
 62
     3
 10
26477.78193881737
 20
8459.6884660000087
 30
0.0
 11
23549.781674817361
 21
8459.6884660000014
 31
0.0
  0
LINE
  5
11FDE
  8
0-1
  6
CONTINUOUS
 62
     3
 10
23614.783126817361
 20
8589.6883999999973
 30
0.0
 11
26477.78193881737
 21
8589.6883999999973
 31
0.0
  0
LINE
  5
11FDF
  8
0-1
  6
CONTINUOUS
 62
     3
 10
26477.78193881737
 20
8264.0026620000026
 30
0.0
 11
26477.78193881737
 21
8589.6883999999973
 31
0.0
  0
LINE
  5
11FE0
  8
0-1
  6
CONTINUOUS
 62
     3
 10
26477.78193881737
 20
8264.0026620000026
 30
0.0
 11
26434.78193881737
 21
8264.0026620000026
 31
0.0
  0
LINE
  5
11FE1
  8
2-0
  6
CENTER2
 62
     6
 10
26392.28193881737
 20
5878.536116000002
 30
0.0
 11
26392.28193881737
 21
6915.6791430000003
 31
0.0
  0
LINE
  5
11FE2
  8
1-桁前P28
 10
26349.781938817381
 20
8262.0026620000026
 30
0.0
 11
23634.78193881737
 21
8262.0026620000026
 31
0.0
  0
LINE
  5
11FE3
  8
0-5
  6
CONTINUOUS
 62
     4
 10
26392.28193881737
 20
4461.1889349999938
 30
0.0
 11
26392.28193881737
 21
4301.1893970000001
 31
0.0
  0
CIRCLE
  5
11FE4
  8
0-5
  6
CONTINUOUS
 62
     4
 10
26392.28193881737
 20
4101.1882420000011
 30
0.0
 40
199.9999949999999
  0
TEXT
  5
11FE5
  8
0-5
  6
CONTINUOUS
 62
     7
 10
26340.369063817379
 20
4011.7132600000009
 30
0.0
 40
160.0
  1
3
 72
     4
 11
26393.702397150711
 21
4091.7132600000009
 31
0.0
  0
TEXT
  5
11FE6
  8
0-5
  6
CONTINUOUS
 62
     7
 10
27884.607109111748
 20
7249.4069272529232
 30
0.0
 40
160.0
  1
(2260）
 50
90.0
 72
     4
 11
27804.607109111748
 21
7641.4069272529223
 31
0.0
  0
LINE
  5
11FE7
  8
0-1
  6
CONTINUOUS
 62
     3
 10
12720.57287258607
 20
16816.962318862439
 30
0.0
 11
12720.57287258607
 21
19461.985685
 31
0.0
  0
LINE
  5
11FE8
  8
0-1
  6
CONTINUOUS
 62
     3
 10
12757.57304458607
 20
16801.695766961871
 30
0.0
 11
12757.57304458607
 21
19461.985685
 31
0.0
  0
LINE
  5
11FE9
  8
0-1
  6
CONTINUOUS
 62
     3
 10
12920.57353258607
 20
16734.44052798978
 30
0.0
 11
12920.57353258607
 21
19461.985685
 31
0.0
  0
LINE
  5
11FEA
  8
0-1
  6
CONTINUOUS
 62
     3
 10
12957.57370458607
 20
16719.173976089201
 30
0.0
 11
12957.57370458607
 21
19461.985685
 31
0.0
  0
LINE
  5
11FEB
  8
0-1
  6
CONTINUOUS
 62
     3
 10
13120.574192586069
 20
16651.91873711711
 30
0.0
 11
13120.574192586069
 21
19461.985685
 31
0.0
  0
LINE
  5
11FEC
  8
0-1
  6
CONTINUOUS
 62
     3
 10
13157.574364586089
 20
16636.652185216539
 30
0.0
 11
13157.574364586089
 21
19461.985685
 31
0.0
  0
LINE
  5
11FED
  8
0-1
  6
CONTINUOUS
 62
     3
 10
8320.5642935859578
 20
18636.061171321009
 30
0.0
 11
8320.5642935859578
 21
19461.985685
 31
0.0
  0
LINE
  5
11FEE
  8
0-1
  6
CONTINUOUS
 62
     3
 10
8357.5654545859506
 20
18620.741786037201
 30
0.0
 11
8357.5654545859506
 21
19461.985685
 31
0.0
  0
LINE
  5
11FEF
  8
0-1
  6
CONTINUOUS
 62
     3
 10
8520.5639635859479
 20
18553.256418211698
 30
0.0
 11
8520.5639635859479
 21
19461.985685
 31
0.0
  0
LINE
  5
11FF0
  8
0-1
  6
CONTINUOUS
 62
     3
 10
8557.5631445859617
 20
18537.937852696319
 30
0.0
 11
8557.5631445859617
 21
19461.985685
 31
0.0
  0
LINE
  5
11FF1
  8
0-1
  6
CONTINUOUS
 62
     3
 10
8720.5646225859546
 20
18470.45125563223
 30
0.0
 11
8720.5646225859546
 21
19461.985685
 31
0.0
  0
LINE
  5
11FF2
  8
0-1
  6
CONTINUOUS
 62
     3
 10
8757.5647945859582
 20
18455.132279818601
 30
0.0
 11
8757.5647945859582
 21
19461.985685
 31
0.0
  0
LINE
  5
11FF3
  8
0-1
  6
CONTINUOUS
 62
     3
 10
8920.5642935859596
 20
18387.646502108881
 30
0.0
 11
8920.5642935859596
 21
19461.985685
 31
0.0
  0
LINE
  5
11FF4
  8
0-1
  6
CONTINUOUS
 62
     3
 10
8957.5654545859488
 20
18372.327116825101
 30
0.0
 11
8957.5654545859488
 21
19461.985685
 31
0.0
  0
LINE
  5
11FF5
  8
0-1
  6
CONTINUOUS
 62
     3
 10
7920.5639635859479
 20
18801.671087423831
 30
0.0
 11
7920.5639635859479
 21
19461.985685
 31
0.0
  0
LINE
  5
11FF6
  8
0-1
  6
CONTINUOUS
 62
     3
 10
7957.5631445859581
 20
18786.35252190844
 30
0.0
 11
7957.5631445859581
 21
19461.985685
 31
0.0
  0
LINE
  5
11FF7
  8
0-1
  6
CONTINUOUS
 62
     3
 10
8120.5646225859573
 20
18718.865924844351
 30
0.0
 11
8120.5646225859573
 21
19461.985685
 31
0.0
  0
LINE
  5
11FF8
  8
0-1
  6
CONTINUOUS
 62
     3
 10
8157.5647945859546
 20
18703.546949030719
 30
0.0
 11
8157.5647945859546
 21
19461.985685
 31
0.0
  0
LINE
  5
11FF9
  8
0-6
  6
CONTINUOUS
 62
     6
 10
10315.716614720321
 20
13120.3158676004
 30
0.0
 11
11108.56755214302
 21
13120.3158676004
 31
0.0
  0
TEXT
  5
11FFA
  8
0-6
  6
CONTINUOUS
 62
     7
 10
10302.33637357386
 20
13200.31613160041
 30
0.0
 40
160.0
  1
桁前（P）
 72
     4
 11
10702.33637357386
 21
13280.31613160041
 31
0.0
  0
LINE
  5
11FFB
  8
0-6
  6
CONTINUOUS
 62
     6
 10
13532.59398239045
 20
18807.832879197998
 30
0.0
 11
14325.44491981313
 21
18807.832879197998
 31
0.0
  0
TEXT
  5
11FFC
  8
0-6
  6
CONTINUOUS
 62
     7
 10
13615.21374124399
 20
18887.83314319803
 30
0.0
 40
160.0
  1
桁（P）
 72
     4
 11
13919.21374124399
 21
18967.83314319803
 31
0.0
  0
LINE
  5
11FFD
  8
0-6
  6
CONTINUOUS
 62
     6
 10
13532.59398239045
 20
18807.832879197998
 30
0.0
 11
12883.370407627879
 21
19258.487215000001
 31
0.0
  0
LINE
  5
11FFE
  8
0-1
  6
CONTINUOUS
 62
     3
 10
7190.5613775859347
 20
19509.98900999999
 30
0.0
 11
13277.06232758596
 21
19509.98900999999
 31
0.0
  0
LINE
  5
11FFF
  8
0-1
  6
CONTINUOUS
 62
     3
 10
7135.0616145859349
 20
19461.985685
 30
0.0
 11
13332.563079585951
 21
19461.985685
 31
0.0
  0
LINE
  5
12000
  8
0-6
  6
CONTINUOUS
 62
     6
 10
11438.988320956911
 20
19652.391617999991
 30
0.0
 11
11395.686351956891
 21
19627.390297999991
 31
0.0
  0
LINE
  5
12001
  8
0-6
  6
CONTINUOUS
 62
     6
 10
11438.988320956911
 20
19652.391617999991
 30
0.0
 11
11492.336346956899
 21
19509.98900999999
 31
0.0
  0
LINE
  5
12002
  8
0-6
  6
CONTINUOUS
 62
     6
 10
11395.686351956891
 20
19627.390297999991
 30
0.0
 11
11438.988320956911
 21
19652.391617999991
 31
0.0
  0
LINE
  5
12003
  8
0-6
  6
CONTINUOUS
 62
     6
 10
11492.336346956899
 20
19509.98900999999
 30
0.0
 11
11395.686351956891
 21
19627.390297999991
 31
0.0
  0
LINE
  5
12004
  8
0-6
  6
CONTINUOUS
 62
     6
 10
11492.336346956899
 20
19509.98900999999
 30
0.0
 11
11438.988320956911
 21
19652.391617999991
 31
0.0
  0
LINE
  5
12005
  8
0-6
  6
CONTINUOUS
 62
     6
 10
11395.686351956891
 20
19627.390297999991
 30
0.0
 11
11492.336346956899
 21
19509.98900999999
 31
0.0
  0
LINE
  5
12006
  8
0-6
  6
CONTINUOUS
 62
     6
 10
11417.3383259569
 20
19639.892938000001
 30
0.0
 11
11191.752509287209
 21
20063.562777731098
 31
0.0
  0
TEXT
  5
12007
  8
0-6
  6
CONTINUOUS
 62
     7
 10
11018.081305956901
 20
20619.988217999999
 30
0.0
 40
160.0
  1
鼻隠し後
 72
     4
 11
11380.747972623571
 21
20699.988217999999
 31
0.0
  0
LINE
  5
12008
  8
0-6
  6
CONTINUOUS
 62
     6
 10
10938.079061956911
 20
20539.987954
 30
0.0
 11
11780.518620956909
 21
20539.987954
 31
0.0
  0
LINE
  5
12009
  8
0-6
  6
CONTINUOUS
 62
     6
 10
11123.71865023469
 20
20191.337456683399
 30
0.0
 11
10938.079061956911
 21
20539.987954
 31
0.0
  0
LINE
  5
1200A
  8
0-6
  6
CONTINUOUS
 62
     6
 10
11108.56755214302
 20
13120.3158676004
 30
0.0
 11
11423.858802757601
 21
13651.48634400001
 31
0.0
  0
TEXT
  5
1200B
  8
0-6
  6
CONTINUOUS
 62
     7
 10
11364.83332002036
 20
12921.997303273891
 30
0.0
 40
160.0
  1
梁（P）前
 72
     4
 11
11807.499986687029
 21
13001.997303273891
 31
0.0
  0
LINE
  5
1200C
  8
0-6
  6
CONTINUOUS
 62
     6
 10
11300.63563183832
 20
12841.99802927388
 30
0.0
 11
12315.625801163171
 21
12841.99802927388
 31
0.0
  0
LINE
  5
1201E
  8
0-1
  6
CONTINUOUS
 62
     3
 10
7520.5636335859408
 20
18967.281003526648
 30
0.0
 11
7520.5636335859408
 21
19461.985685
 31
0.0
  0
LINE
  5
1201F
  8
0-1
  6
CONTINUOUS
 62
     3
 10
7557.5628145859482
 20
18951.96243801124
 30
0.0
 11
7557.5628145859482
 21
19461.985685
 31
0.0
  0
LINE
  5
12020
  8
0-1
  6
CONTINUOUS
 62
     3
 10
7720.5642925859474
 20
18884.475840947161
 30
0.0
 11
7720.5642925859474
 21
19461.985685
 31
0.0
  0
LINE
  5
12021
  8
0-1
  6
CONTINUOUS
 62
     3
 10
7757.5644645859484
 20
18869.15686513354
 30
0.0
 11
7757.5644645859456
 21
19461.985685
 31
0.0
  0
LINE
  5
12022
  8
0-1
  6
CONTINUOUS
 62
     3
 10
7320.5629745859378
 20
19050.08616610611
 30
0.0
 11
7320.562974585936
 21
19461.985685
 31
0.0
  0
LINE
  5
12023
  8
0-1
  6
CONTINUOUS
 62
     3
 10
7357.5621555859416
 20
19034.767600590741
 30
0.0
 11
7357.5621555859416
 21
19461.985685
 31
0.0
  0
LINE
  5
12026
  8
WAKUSEN-01
 10
868.00000000000193
 20
22484.000000000011
 30
0.0
 11
32764.000000000011
 21
22484.000000000011
 31
0.0
  0
LINE
  5
12029
  8
WAKUSEN-01
 10
20560.0
 20
2484.0
 30
0.0
 11
32764.0
 21
2484.0
 31
0.0
  0
LINE
  5
1202A
  8
WAKUSEN-02
 10
20560.0
 20
1655.9999999999991
 30
0.0
 11
26868.0
 21
1655.9999999999991
 31
0.0
  0
TEXT
  5
1202B
  8
WAKUMOJI-01
 10
20670.260259962761
 20
2125.9030093393221
 30
0.0
 40
240.0
  1
名　称
  7
WAKUMOJI
  0
TEXT
  5
1202C
  8
WAKUMOJI-01
 10
20656.505485091919
 20
1319.12897497982
 30
0.0
 40
240.0
  1
機種名
  7
WAKUMOJI
  0
LINE
  5
1202F
  8
YODOROGO
 10
29977.604341291921
 20
1995.7494964292871
 30
0.0
 11
29829.604341291921
 21
1995.7494964292871
 31
0.0
1001
AUTOCAD_POSTSCRIPT_FIGURE
1002
{
1000
PSFILL
1000
Grayscale
1000
Grayscale
1070
    25
1002
}
  0
LINE
  5
12030
  8
YODOROGO
 10
29829.604341291921
 20
1947.749496429288
 30
0.0
 11
29977.604341291921
 21
1947.749496429288
 31
0.0
1001
AUTOCAD_POSTSCRIPT_FIGURE
1002
{
1000
PSFILL
1000
Grayscale
1000
Grayscale
1070
    25
1002
}
  0
LINE
  5
12031
  8
YODOROGO
 10
29977.604341291921
 20
1907.7494964292871
 30
0.0
 11
29829.604341291921
 21
1907.7494964292871
 31
0.0
1001
AUTOCAD_POSTSCRIPT_FIGURE
1002
{
1000
PSFILL
1000
Grayscale
1000
Grayscale
1070
    25
1002
}
  0
LINE
  5
12032
  8
YODOROGO
 10
29829.604341291921
 20
1859.749496429288
 30
0.0
 11
29977.604341291921
 21
1859.749496429288
 31
0.0
1001
AUTOCAD_POSTSCRIPT_FIGURE
1002
{
1000
PSFILL
1000
Grayscale
1000
Grayscale
1070
    25
1002
}
  0
LINE
  5
12033
  8
YODOROGO
 10
29977.604341291921
 20
1819.7494964292871
 30
0.0
 11
29829.604341291921
 21
1819.7494964292871
 31
0.0
1001
AUTOCAD_POSTSCRIPT_FIGURE
1002
{
1000
PSFILL
1000
Grayscale
1000
Grayscale
1070
    25
1002
}
  0
LINE
  5
12034
  8
YODOROGO
 10
29921.60434129191
 20
1707.749496429288
 30
0.0
 11
29977.604341291921
 21
1707.749496429288
 31
0.0
1001
AUTOCAD_POSTSCRIPT_FIGURE
1002
{
1000
PSFILL
1000
Grayscale
1000
Grayscale
1070
    25
1002
}
  0
LINE
  5
12035
  8
YODOROGO
 10
29737.604341291921
 20
1427.749496429288
 30
0.0
 11
29937.604341291932
 21
1481.3393349155101
 31
0.0
  0
LINE
  5
12036
  8
YODOROGO
 10
29949.60434129191
 20
1707.749496429288
 30
0.0
 11
29885.604341291921
 21
1707.749496429288
 31
0.0
  0
ARC
  5
12037
  8
YODOROGO
 10
30254.34774982791
 20
1807.864609233261
 30
0.0
 40
381.88686420564721
 50
213.96111677667841
 51
264.47872074317792
  0
ARC
  5
12038
  8
YODOROGO
 10
30254.347749827921
 20
1807.864609233302
 30
0.0
 40
381.8868642056816
 50
208.14114420486601
 51
212.9210361185994
  0
LINE
  5
12039
  8
YODOROGO
 10
29771.409872985321
 20
1556.807661346234
 30
0.0
 11
29933.78413250855
 21
1600.3157130570869
 31
0.0
  0
LINE
  5
1203A
  8
YODOROGO
 10
29737.604341291921
 20
1427.749496429288
 30
0.0
 11
29937.604341291932
 21
1481.3393349155101
 31
0.0
  0
LINE
  5
1203B
  8
YODOROGO
 10
29949.60434129191
 20
1707.749496429288
 30
0.0
 11
29885.604341291921
 21
1707.749496429288
 31
0.0
  0
ARC
  5
1203C
  8
YODOROGO
 10
30254.34774982791
 20
1807.864609233261
 30
0.0
 40
381.88686420564721
 50
213.96111677667841
 51
264.47872074317792
  0
LINE
  5
1203D
  8
YODOROGO
 10
28793.60434129191
 20
1819.7494964292871
 30
0.0
 11
28433.60434129191
 21
1819.7494964292871
 31
0.0
  0
LINE
  5
1203E
  8
YODOROGO
 10
28513.60434129191
 20
1427.749496429288
 30
0.0
 11
28793.60434129191
 21
1427.749496429288
 31
0.0
  0
LINE
  5
1203F
  8
YODOROGO
 10
28729.604341291921
 20
1923.7494964292871
 30
0.0
 11
28497.60434129191
 21
1923.7494964292871
 31
0.0
  0
LINE
  5
12040
  8
YODOROGO
 10
28585.604341291921
 20
2027.749496429288
 30
0.0
 11
28657.604341291921
 21
2027.749496429288
 31
0.0
  0
LINE
  5
12041
  8
YODOROGO
 10
28433.60434129191
 20
1707.749496429288
 30
0.0
 11
28433.60434129191
 21
1507.749496429288
 31
0.0
  0
LINE
  5
12042
  8
YODOROGO
 10
28497.60434129191
 20
1563.7494964292871
 30
0.0
 11
28497.60434129191
 21
1707.749496429288
 31
0.0
  0
LINE
  5
12043
  8
YODOROGO
 10
28585.604341291921
 20
1747.74949642929
 30
0.0
 11
28585.604341291921
 21
1547.749496429288
 31
0.0
  0
LINE
  5
12044
  8
YODOROGO
 10
27857.604341291921
 20
1683.749496429288
 30
0.0
 11
27777.604341291921
 21
1619.9724140445701
 31
0.0
  0
LINE
  5
12045
  8
YODOROGO
 10
27937.604341291921
 20
1619.9724140445701
 30
0.0
 11
27857.604341291921
 21
1683.749496429288
 31
0.0
  0
LINE
  5
12046
  8
YODOROGO
 10
27857.604341291921
 20
1707.749496429288
 30
0.0
 11
27937.604341291921
 21
1643.9724140445701
 31
0.0
  0
LINE
  5
12047
  8
YODOROGO
 10
27777.604341291921
 20
1643.9724140445701
 30
0.0
 11
27857.604341291921
 21
1707.749496429288
 31
0.0
  0
LINE
  5
12048
  8
YODOROGO
 10
28040.913204016892
 20
1659.749496429288
 30
0.0
 11
28040.913204016892
 21
1683.7494964292871
 31
0.0
  0
LINE
  5
12049
  8
YODOROGO
 10
27977.604341291921
 20
1683.7494964292871
 30
0.0
 11
27977.604341291921
 21
1667.749496429285
 31
0.0
  0
LINE
  5
1204A
  8
YODOROGO
 10
28098.135520230931
 20
1707.749496429288
 30
0.0
 11
28098.135520230931
 21
1655.5036372746561
 31
0.0
1001
AUTOCAD_POSTSCRIPT_FIGURE
1002
{
1000
PSFILL
1000
Grayscale
1000
Grayscale
1070
   100
1002
}
  0
LINE
  5
1204B
  8
YODOROGO
 10
28082.135520230921
 20
1655.5036372746561
 30
0.0
 11
28082.135520230921
 21
1707.749496429288
 31
0.0
1001
AUTOCAD_POSTSCRIPT_FIGURE
1002
{
1000
PSFILL
1000
Grayscale
1000
Grayscale
1070
   100
1002
}
  0
LINE
  5
1204C
  8
YODOROGO
 10
27809.604341291921
 20
1608.771904043258
 30
0.0
 11
27809.604341291921
 21
1632.771904043258
 31
0.0
  0
LINE
  5
1204D
  8
YODOROGO
 10
27905.604341291921
 20
1608.771904043258
 30
0.0
 11
27809.604341291921
 21
1608.771904043258
 31
0.0
  0
LINE
  5
1204E
  8
YODOROGO
 10
27905.604341291921
 20
1632.771904043258
 30
0.0
 11
27905.604341291921
 21
1608.771904043258
 31
0.0
  0
LINE
  5
1204F
  8
YODOROGO
 10
27809.604341291921
 20
1632.771904043258
 30
0.0
 11
27905.604341291921
 21
1632.771904043258
 31
0.0
  0
LINE
  5
12050
  8
YODOROGO
 10
27824.509588915738
 20
1568.5028573704751
 30
0.0
 11
27785.604341291921
 21
1475.7494964292871
 31
0.0
1001
AUTOCAD_POSTSCRIPT_FIGURE
1002
{
1000
PSFILL
1000
Grayscale
1000
Grayscale
1070
   100
1002
}
  0
LINE
  5
12051
  8
YODOROGO
 10
27777.604341291921
 20
1568.5028573704751
 30
0.0
 11
27824.509588915738
 21
1568.5028573704751
 31
0.0
1001
AUTOCAD_POSTSCRIPT_FIGURE
1002
{
1000
PSFILL
1000
Grayscale
1000
Grayscale
1070
   100
1002
}
  0
LINE
  5
12052
  8
YODOROGO
 10
27777.604341291921
 20
1588.5028573704751
 30
0.0
 11
27777.604341291921
 21
1568.5028573704751
 31
0.0
1001
AUTOCAD_POSTSCRIPT_FIGURE
1002
{
1000
PSFILL
1000
Grayscale
1000
Grayscale
1070
   100
1002
}
  0
LINE
  5
12053
  8
YODOROGO
 10
27937.604341291921
 20
1588.5028573704751
 30
0.0
 11
27777.604341291921
 21
1588.5028573704751
 31
0.0
1001
AUTOCAD_POSTSCRIPT_FIGURE
1002
{
1000
PSFILL
1000
Grayscale
1000
Grayscale
1070
   100
1002
}
  0
LINE
  5
12054
  8
YODOROGO
 10
27937.604341291921
 20
1568.5028573704751
 30
0.0
 11
27937.604341291921
 21
1588.5028573704751
 31
0.0
1001
AUTOCAD_POSTSCRIPT_FIGURE
1002
{
1000
PSFILL
1000
Grayscale
1000
Grayscale
1070
   100
1002
}
  0
LINE
  5
12055
  8
YODOROGO
 10
27844.509588915738
 20
1568.5028573704751
 30
0.0
 11
27937.604341291921
 21
1568.5028573704751
 31
0.0
1001
AUTOCAD_POSTSCRIPT_FIGURE
1002
{
1000
PSFILL
1000
Grayscale
1000
Grayscale
1070
   100
1002
}
  0
LINE
  5
12056
  8
YODOROGO
 10
27815.546718284771
 20
1495.7494964292871
 30
0.0
 11
27844.509588915738
 21
1568.5028573704751
 31
0.0
1001
AUTOCAD_POSTSCRIPT_FIGURE
1002
{
1000
PSFILL
1000
Grayscale
1000
Grayscale
1070
   100
1002
}
  0
LINE
  5
12057
  8
YODOROGO
 10
27902.054790808648
 20
1495.7494964292871
 30
0.0
 11
27815.546718284771
 21
1495.7494964292871
 31
0.0
1001
AUTOCAD_POSTSCRIPT_FIGURE
1002
{
1000
PSFILL
1000
Grayscale
1000
Grayscale
1070
   100
1002
}
  0
LINE
  5
12058
  8
YODOROGO
 10
27885.065004790951
 20
1536.2338106976929
 30
0.0
 11
27902.054790808648
 21
1495.7494964292871
 31
0.0
1001
AUTOCAD_POSTSCRIPT_FIGURE
1002
{
1000
PSFILL
1000
Grayscale
1000
Grayscale
1070
   100
1002
}
  0
LINE
  5
12059
  8
YODOROGO
 10
27901.065004790951
 20
1536.2338106976929
 30
0.0
 11
27885.065004790951
 21
1536.2338106976929
 31
0.0
1001
AUTOCAD_POSTSCRIPT_FIGURE
1002
{
1000
PSFILL
1000
Grayscale
1000
Grayscale
1070
   100
1002
}
  0
LINE
  5
1205A
  8
YODOROGO
 10
27929.604341291921
 20
1475.7494964292871
 30
0.0
 11
27901.065004790951
 21
1536.2338106976929
 31
0.0
1001
AUTOCAD_POSTSCRIPT_FIGURE
1002
{
1000
PSFILL
1000
Grayscale
1000
Grayscale
1070
   100
1002
}
  0
LINE
  5
1205B
  8
YODOROGO
 10
27785.604341291921
 20
1475.7494964292871
 30
0.0
 11
27929.604341291921
 21
1475.7494964292871
 31
0.0
1001
AUTOCAD_POSTSCRIPT_FIGURE
1002
{
1000
PSFILL
1000
Grayscale
1000
Grayscale
1070
   100
1002
}
  0
LINE
  5
1205C
  8
YODOROGO
 10
27777.604341291921
 20
1619.9724140445701
 30
0.0
 11
27777.604341291921
 21
1643.9724140445701
 31
0.0
  0
LINE
  5
1205D
  8
YODOROGO
 10
27937.604341291921
 20
1643.9724140445701
 30
0.0
 11
27937.604341291921
 21
1619.9724140445701
 31
0.0
  0
ARC
  5
1205E
  8
YODOROGO
 10
28225.940442146959
 20
1600.877765325326
 30
0.0
 40
175.9999999999998
 50
280.3644312771313
 51
3.5414836592180561
  0
ARC
  5
1205F
  8
YODOROGO
 10
28235.756030759301
 20
1633.5978069619041
 30
0.0
 40
111.9999999999982
 50
281.24905825041549
 51
348.75094174958321
  0
LINE
  5
12060
  8
YODOROGO
 10
28257.604341291921
 20
1523.7494964292871
 30
0.0
 11
28257.604341291921
 21
1427.749496429288
 31
0.0
  0
LINE
  5
12061
  8
YODOROGO
 10
28020.088903736909
 20
1610.650565061914
 30
0.0
 11
28040.913204016892
 21
1659.749496429288
 31
0.0
  0
LINE
  5
12062
  8
YODOROGO
 10
28041.604341291921
 20
1583.120489948401
 30
0.0
 11
28020.088903736909
 21
1610.650565061914
 31
0.0
  0
LINE
  5
12063
  8
YODOROGO
 10
28041.604341291921
 20
1563.120489948398
 30
0.0
 11
28041.604341291921
 21
1583.120489948401
 31
0.0
  0
LINE
  5
12064
  8
YODOROGO
 10
28017.604341291921
 20
1585.2370637495301
 30
0.0
 11
28041.604341291921
 21
1563.120489948398
 31
0.0
  0
LINE
  5
12065
  8
YODOROGO
 10
28017.604341291921
 20
1475.7494964292871
 30
0.0
 11
28017.604341291921
 21
1585.2370637495301
 31
0.0
  0
LINE
  5
12066
  8
YODOROGO
 10
28001.604341291921
 20
1475.7494964292871
 30
0.0
 11
28017.604341291921
 21
1475.7494964292871
 31
0.0
  0
LINE
  5
12067
  8
YODOROGO
 10
28001.604341291921
 20
1580.0053496897469
 30
0.0
 11
28001.604341291921
 21
1475.7494964292871
 31
0.0
  0
LINE
  5
12068
  8
YODOROGO
 10
27977.604341291921
 20
1532.7680790334291
 30
0.0
 11
28001.604341291921
 21
1580.0053496897469
 31
0.0
  0
LINE
  5
12069
  8
YODOROGO
 10
27977.604341291921
 20
1556.76807903343
 30
0.0
 11
27977.604341291921
 21
1532.7680790334291
 31
0.0
  0
LINE
  5
1206A
  8
YODOROGO
 10
28025.828774291349
 20
1667.749496429285
 30
0.0
 11
27977.604341291921
 21
1556.76807903343
 31
0.0
  0
LINE
  5
1206B
  8
YODOROGO
 10
27977.604341291921
 20
1667.749496429285
 30
0.0
 11
28025.828774291349
 21
1667.749496429285
 31
0.0
  0
LINE
  5
1206C
  8
YODOROGO
 10
28050.135520230899
 20
1655.5036372746561
 30
0.0
 11
28082.135520230921
 21
1655.5036372746561
 31
0.0
1001
AUTOCAD_POSTSCRIPT_FIGURE
1002
{
1000
PSFILL
1000
Grayscale
1000
Grayscale
1070
   100
1002
}
  0
LINE
  5
1206D
  8
YODOROGO
 10
28050.135520230899
 20
1631.5036372746561
 30
0.0
 11
28050.135520230899
 21
1655.5036372746561
 31
0.0
1001
AUTOCAD_POSTSCRIPT_FIGURE
1002
{
1000
PSFILL
1000
Grayscale
1000
Grayscale
1070
   100
1002
}
  0
LINE
  5
1206E
  8
YODOROGO
 10
28082.135520230921
 20
1631.5036372746561
 30
0.0
 11
28050.135520230899
 21
1631.5036372746561
 31
0.0
1001
AUTOCAD_POSTSCRIPT_FIGURE
1002
{
1000
PSFILL
1000
Grayscale
1000
Grayscale
1070
   100
1002
}
  0
LINE
  5
1206F
  8
YODOROGO
 10
28082.135520230921
 20
1499.749496429288
 30
0.0
 11
28082.135520230921
 21
1631.5036372746561
 31
0.0
1001
AUTOCAD_POSTSCRIPT_FIGURE
1002
{
1000
PSFILL
1000
Grayscale
1000
Grayscale
1070
   100
1002
}
  0
LINE
  5
12070
  8
YODOROGO
 10
28050.135520230921
 20
1499.749496429288
 30
0.0
 11
28082.135520230921
 21
1499.749496429288
 31
0.0
1001
AUTOCAD_POSTSCRIPT_FIGURE
1002
{
1000
PSFILL
1000
Grayscale
1000
Grayscale
1070
   100
1002
}
  0
LINE
  5
12071
  8
YODOROGO
 10
28050.135520230921
 20
1475.7494964292871
 30
0.0
 11
28050.135520230921
 21
1499.749496429288
 31
0.0
1001
AUTOCAD_POSTSCRIPT_FIGURE
1002
{
1000
PSFILL
1000
Grayscale
1000
Grayscale
1070
   100
1002
}
  0
LINE
  5
12072
  8
YODOROGO
 10
28137.604341291921
 20
1475.7494964292871
 30
0.0
 11
28050.135520230921
 21
1475.7494964292871
 31
0.0
1001
AUTOCAD_POSTSCRIPT_FIGURE
1002
{
1000
PSFILL
1000
Grayscale
1000
Grayscale
1070
   100
1002
}
  0
LINE
  5
12073
  8
YODOROGO
 10
28137.604341291921
 20
1499.749496429288
 30
0.0
 11
28137.604341291921
 21
1475.7494964292871
 31
0.0
1001
AUTOCAD_POSTSCRIPT_FIGURE
1002
{
1000
PSFILL
1000
Grayscale
1000
Grayscale
1070
   100
1002
}
  0
LINE
  5
12074
  8
YODOROGO
 10
28098.135520230931
 20
1499.749496429288
 30
0.0
 11
28137.604341291921
 21
1499.749496429288
 31
0.0
1001
AUTOCAD_POSTSCRIPT_FIGURE
1002
{
1000
PSFILL
1000
Grayscale
1000
Grayscale
1070
   100
1002
}
  0
LINE
  5
12075
  8
YODOROGO
 10
28098.135520230931
 20
1631.5036372746561
 30
0.0
 11
28098.135520230931
 21
1499.749496429288
 31
0.0
1001
AUTOCAD_POSTSCRIPT_FIGURE
1002
{
1000
PSFILL
1000
Grayscale
1000
Grayscale
1070
   100
1002
}
  0
LINE
  5
12076
  8
YODOROGO
 10
28137.604341291921
 20
1631.5036372746561
 30
0.0
 11
28098.135520230931
 21
1631.5036372746561
 31
0.0
1001
AUTOCAD_POSTSCRIPT_FIGURE
1002
{
1000
PSFILL
1000
Grayscale
1000
Grayscale
1070
   100
1002
}
  0
LINE
  5
12077
  8
YODOROGO
 10
28137.604341291921
 20
1655.5036372746561
 30
0.0
 11
28137.604341291921
 21
1631.5036372746561
 31
0.0
1001
AUTOCAD_POSTSCRIPT_FIGURE
1002
{
1000
PSFILL
1000
Grayscale
1000
Grayscale
1070
   100
1002
}
  0
LINE
  5
12078
  8
YODOROGO
 10
28098.135520230931
 20
1655.5036372746561
 30
0.0
 11
28137.604341291921
 21
1655.5036372746561
 31
0.0
1001
AUTOCAD_POSTSCRIPT_FIGURE
1002
{
1000
PSFILL
1000
Grayscale
1000
Grayscale
1070
   100
1002
}
  0
LINE
  5
12079
  8
YODOROGO
 10
28401.60434129191
 20
1667.749496429288
 30
0.0
 11
28345.604341291921
 21
1667.749496429288
 31
0.0
  0
LINE
  5
1207A
  8
YODOROGO
 10
28401.60434129191
 20
1611.749496429288
 30
0.0
 11
28401.60434129191
 21
1667.749496429288
 31
0.0
  0
LINE
  5
1207B
  8
YODOROGO
 10
28345.604341291921
 20
1667.749496429288
 30
0.0
 11
28345.604341291921
 21
1611.749496429288
 31
0.0
  0
ARC
  5
1207C
  8
YODOROGO
 10
28513.60434129191
 20
1507.749496429288
 30
0.0
 40
80.0
 50
180.0
 51
270.0
  0
ARC
  5
1207D
  8
YODOROGO
 10
28537.604341291921
 20
1563.7494964292871
 30
0.0
 40
40.0
 50
180.0
 51
270.0
  0
LINE
  5
1207E
  8
YODOROGO
 10
28561.604341291932
 20
1523.7494964292871
 30
0.0
 11
28537.604341291921
 21
1523.7494964292871
 31
0.0
  0
ARC
  5
1207F
  8
YODOROGO
 10
28561.604341291932
 20
1547.749496429285
 30
0.0
 40
23.999999999996358
 50
270.0
 51
0.0000000000054281
  0
LINE
  5
12080
  8
YODOROGO
 10
27801.604341291921
 20
1890.786580793706
 30
0.0
 11
27777.604341291921
 21
1843.776747951672
 31
0.0
1001
AUTOCAD_POSTSCRIPT_FIGURE
1002
{
1000
PSFILL
1000
Grayscale
1000
Grayscale
1070
   100
1002
}
  0
LINE
  5
12081
  8
YODOROGO
 10
27801.604341291921
 20
1747.749496429286
 30
0.0
 11
27801.604341291921
 21
1890.786580793706
 31
0.0
1001
AUTOCAD_POSTSCRIPT_FIGURE
1002
{
1000
PSFILL
1000
Grayscale
1000
Grayscale
1070
   100
1002
}
  0
LINE
  5
12082
  8
YODOROGO
 10
27817.604341291921
 20
1747.749496429286
 30
0.0
 11
27801.604341291921
 21
1747.749496429286
 31
0.0
1001
AUTOCAD_POSTSCRIPT_FIGURE
1002
{
1000
PSFILL
1000
Grayscale
1000
Grayscale
1070
   100
1002
}
  0
LINE
  5
12083
  8
YODOROGO
 10
27817.604341291921
 20
1893.7713320852661
 30
0.0
 11
27817.604341291921
 21
1747.749496429286
 31
0.0
1001
AUTOCAD_POSTSCRIPT_FIGURE
1002
{
1000
PSFILL
1000
Grayscale
1000
Grayscale
1070
   100
1002
}
  0
LINE
  5
12084
  8
YODOROGO
 10
27841.604341291921
 20
1867.6547582841361
 30
0.0
 11
27817.604341291921
 21
1893.7713320852661
 31
0.0
1001
AUTOCAD_POSTSCRIPT_FIGURE
1002
{
1000
PSFILL
1000
Grayscale
1000
Grayscale
1070
   100
1002
}
  0
LINE
  5
12085
  8
YODOROGO
 10
27841.604341291921
 20
1883.6547582841361
 30
0.0
 11
27841.604341291921
 21
1867.6547582841361
 31
0.0
1001
AUTOCAD_POSTSCRIPT_FIGURE
1002
{
1000
PSFILL
1000
Grayscale
1000
Grayscale
1070
   100
1002
}
  0
LINE
  5
12086
  8
YODOROGO
 10
27817.604341291921
 20
1917.7713320852649
 30
0.0
 11
27841.604341291921
 21
1883.6547582841361
 31
0.0
1001
AUTOCAD_POSTSCRIPT_FIGURE
1002
{
1000
PSFILL
1000
Grayscale
1000
Grayscale
1070
   100
1002
}
  0
LINE
  5
12087
  8
YODOROGO
 10
27817.604341291921
 20
1939.749496429288
 30
0.0
 11
27817.604341291921
 21
1917.7713320852649
 31
0.0
1001
AUTOCAD_POSTSCRIPT_FIGURE
1002
{
1000
PSFILL
1000
Grayscale
1000
Grayscale
1070
   100
1002
}
  0
LINE
  5
12088
  8
YODOROGO
 10
27889.604341291921
 20
1939.749496429288
 30
0.0
 11
27817.604341291921
 21
1939.749496429288
 31
0.0
1001
AUTOCAD_POSTSCRIPT_FIGURE
1002
{
1000
PSFILL
1000
Grayscale
1000
Grayscale
1070
   100
1002
}
  0
LINE
  5
12089
  8
YODOROGO
 10
27889.604341291921
 20
1900.5683489363
 30
0.0
 11
27889.604341291921
 21
1939.749496429288
 31
0.0
1001
AUTOCAD_POSTSCRIPT_FIGURE
1002
{
1000
PSFILL
1000
Grayscale
1000
Grayscale
1070
   100
1002
}
  0
LINE
  5
1208A
  8
YODOROGO
 10
27857.604341291921
 20
1900.5683489363
 30
0.0
 11
27889.604341291921
 21
1900.5683489363
 31
0.0
1001
AUTOCAD_POSTSCRIPT_FIGURE
1002
{
1000
PSFILL
1000
Grayscale
1000
Grayscale
1070
   100
1002
}
  0
LINE
  5
1208B
  8
YODOROGO
 10
27857.604341291921
 20
1884.568348936298
 30
0.0
 11
27857.604341291921
 21
1900.5683489363
 31
0.0
1001
AUTOCAD_POSTSCRIPT_FIGURE
1002
{
1000
PSFILL
1000
Grayscale
1000
Grayscale
1070
   100
1002
}
  0
LINE
  5
1208C
  8
YODOROGO
 10
27889.604341291921
 20
1884.568348936298
 30
0.0
 11
27857.604341291921
 21
1884.568348936298
 31
0.0
1001
AUTOCAD_POSTSCRIPT_FIGURE
1002
{
1000
PSFILL
1000
Grayscale
1000
Grayscale
1070
   100
1002
}
  0
LINE
  5
1208D
  8
YODOROGO
 10
27889.604341291921
 20
1879.6191779644371
 30
0.0
 11
27889.604341291921
 21
1884.568348936298
 31
0.0
1001
AUTOCAD_POSTSCRIPT_FIGURE
1002
{
1000
PSFILL
1000
Grayscale
1000
Grayscale
1070
   100
1002
}
  0
LINE
  5
1208E
  8
YODOROGO
 10
27849.604341291921
 20
1812.974981161417
 30
0.0
 11
27889.604341291921
 21
1879.6191779644371
 31
0.0
1001
AUTOCAD_POSTSCRIPT_FIGURE
1002
{
1000
PSFILL
1000
Grayscale
1000
Grayscale
1070
   100
1002
}
  0
LINE
  5
1208F
  8
YODOROGO
 10
27849.604341291921
 20
1796.9749811614161
 30
0.0
 11
27849.604341291921
 21
1812.974981161417
 31
0.0
1001
AUTOCAD_POSTSCRIPT_FIGURE
1002
{
1000
PSFILL
1000
Grayscale
1000
Grayscale
1070
   100
1002
}
  0
LINE
  5
12090
  8
YODOROGO
 10
27889.604341291921
 20
1847.6191779644359
 30
0.0
 11
27849.604341291921
 21
1796.9749811614161
 31
0.0
1001
AUTOCAD_POSTSCRIPT_FIGURE
1002
{
1000
PSFILL
1000
Grayscale
1000
Grayscale
1070
   100
1002
}
  0
LINE
  5
12091
  8
YODOROGO
 10
27889.604341291921
 20
1747.749496429286
 30
0.0
 11
27889.604341291921
 21
1847.6191779644359
 31
0.0
1001
AUTOCAD_POSTSCRIPT_FIGURE
1002
{
1000
PSFILL
1000
Grayscale
1000
Grayscale
1070
   100
1002
}
  0
LINE
  5
12092
  8
YODOROGO
 10
27905.604341291921
 20
1747.749496429286
 30
0.0
 11
27889.604341291921
 21
1747.749496429286
 31
0.0
1001
AUTOCAD_POSTSCRIPT_FIGURE
1002
{
1000
PSFILL
1000
Grayscale
1000
Grayscale
1070
   100
1002
}
  0
LINE
  5
12093
  8
YODOROGO
 10
27905.604341291921
 20
1849.409012158806
 30
0.0
 11
27905.604341291921
 21
1747.749496429286
 31
0.0
1001
AUTOCAD_POSTSCRIPT_FIGURE
1002
{
1000
PSFILL
1000
Grayscale
1000
Grayscale
1070
   100
1002
}
  0
LINE
  5
12094
  8
YODOROGO
 10
27937.604341291921
 20
1796.9749811614161
 30
0.0
 11
27905.604341291921
 21
1849.409012158806
 31
0.0
1001
AUTOCAD_POSTSCRIPT_FIGURE
1002
{
1000
PSFILL
1000
Grayscale
1000
Grayscale
1070
   100
1002
}
  0
LINE
  5
12095
  8
YODOROGO
 10
27937.604341291921
 20
1812.974981161417
 30
0.0
 11
27937.604341291921
 21
1796.9749811614161
 31
0.0
1001
AUTOCAD_POSTSCRIPT_FIGURE
1002
{
1000
PSFILL
1000
Grayscale
1000
Grayscale
1070
   100
1002
}
  0
LINE
  5
12096
  8
YODOROGO
 10
27905.604341291921
 20
1881.4090121588081
 30
0.0
 11
27937.604341291921
 21
1812.974981161417
 31
0.0
1001
AUTOCAD_POSTSCRIPT_FIGURE
1002
{
1000
PSFILL
1000
Grayscale
1000
Grayscale
1070
   100
1002
}
  0
LINE
  5
12097
  8
YODOROGO
 10
27905.604341291921
 20
1884.5683489363
 30
0.0
 11
27905.604341291921
 21
1881.4090121588081
 31
0.0
1001
AUTOCAD_POSTSCRIPT_FIGURE
1002
{
1000
PSFILL
1000
Grayscale
1000
Grayscale
1070
   100
1002
}
  0
LINE
  5
12098
  8
YODOROGO
 10
27937.604341291921
 20
1884.568348936298
 30
0.0
 11
27905.604341291921
 21
1884.5683489363
 31
0.0
1001
AUTOCAD_POSTSCRIPT_FIGURE
1002
{
1000
PSFILL
1000
Grayscale
1000
Grayscale
1070
   100
1002
}
  0
LINE
  5
12099
  8
YODOROGO
 10
27937.604341291921
 20
1900.5683489363
 30
0.0
 11
27937.604341291921
 21
1884.568348936298
 31
0.0
1001
AUTOCAD_POSTSCRIPT_FIGURE
1002
{
1000
PSFILL
1000
Grayscale
1000
Grayscale
1070
   100
1002
}
  0
LINE
  5
1209A
  8
YODOROGO
 10
27905.604341291921
 20
1900.5683489363
 30
0.0
 11
27937.604341291921
 21
1900.5683489363
 31
0.0
1001
AUTOCAD_POSTSCRIPT_FIGURE
1002
{
1000
PSFILL
1000
Grayscale
1000
Grayscale
1070
   100
1002
}
  0
LINE
  5
1209B
  8
YODOROGO
 10
27905.604341291921
 20
1939.749496429288
 30
0.0
 11
27905.604341291921
 21
1900.5683489363
 31
0.0
1001
AUTOCAD_POSTSCRIPT_FIGURE
1002
{
1000
PSFILL
1000
Grayscale
1000
Grayscale
1070
   100
1002
}
  0
LINE
  5
1209C
  8
YODOROGO
 10
27937.604341291921
 20
1939.749496429288
 30
0.0
 11
27905.604341291921
 21
1939.749496429288
 31
0.0
1001
AUTOCAD_POSTSCRIPT_FIGURE
1002
{
1000
PSFILL
1000
Grayscale
1000
Grayscale
1070
   100
1002
}
  0
LINE
  5
1209D
  8
YODOROGO
 10
27937.604341291921
 20
1955.7494964292871
 30
0.0
 11
27937.604341291921
 21
1939.749496429288
 31
0.0
1001
AUTOCAD_POSTSCRIPT_FIGURE
1002
{
1000
PSFILL
1000
Grayscale
1000
Grayscale
1070
   100
1002
}
  0
LINE
  5
1209E
  8
YODOROGO
 10
27905.604341291921
 20
1955.7494964292871
 30
0.0
 11
27937.604341291921
 21
1955.7494964292871
 31
0.0
1001
AUTOCAD_POSTSCRIPT_FIGURE
1002
{
1000
PSFILL
1000
Grayscale
1000
Grayscale
1070
   100
1002
}
  0
LINE
  5
1209F
  8
YODOROGO
 10
27905.604341291921
 20
1979.749496429288
 30
0.0
 11
27905.604341291921
 21
1955.7494964292871
 31
0.0
1001
AUTOCAD_POSTSCRIPT_FIGURE
1002
{
1000
PSFILL
1000
Grayscale
1000
Grayscale
1070
   100
1002
}
  0
LINE
  5
120A0
  8
YODOROGO
 10
27889.604341291921
 20
1979.749496429288
 30
0.0
 11
27905.604341291921
 21
1979.749496429288
 31
0.0
1001
AUTOCAD_POSTSCRIPT_FIGURE
1002
{
1000
PSFILL
1000
Grayscale
1000
Grayscale
1070
   100
1002
}
  0
LINE
  5
120A1
  8
YODOROGO
 10
27889.604341291921
 20
1955.7494964292871
 30
0.0
 11
27889.604341291921
 21
1979.749496429288
 31
0.0
1001
AUTOCAD_POSTSCRIPT_FIGURE
1002
{
1000
PSFILL
1000
Grayscale
1000
Grayscale
1070
   100
1002
}
  0
LINE
  5
120A2
  8
YODOROGO
 10
27865.604341291921
 20
1955.7494964292871
 30
0.0
 11
27889.604341291921
 21
1955.7494964292871
 31
0.0
1001
AUTOCAD_POSTSCRIPT_FIGURE
1002
{
1000
PSFILL
1000
Grayscale
1000
Grayscale
1070
   100
1002
}
  0
LINE
  5
120A3
  8
YODOROGO
 10
27865.604341291921
 20
1979.749496429288
 30
0.0
 11
27865.604341291921
 21
1955.7494964292871
 31
0.0
1001
AUTOCAD_POSTSCRIPT_FIGURE
1002
{
1000
PSFILL
1000
Grayscale
1000
Grayscale
1070
   100
1002
}
  0
LINE
  5
120A4
  8
YODOROGO
 10
27849.604341291921
 20
1979.749496429288
 30
0.0
 11
27865.604341291921
 21
1979.749496429288
 31
0.0
1001
AUTOCAD_POSTSCRIPT_FIGURE
1002
{
1000
PSFILL
1000
Grayscale
1000
Grayscale
1070
   100
1002
}
  0
LINE
  5
120A5
  8
YODOROGO
 10
27849.604341291921
 20
1955.7494964292871
 30
0.0
 11
27849.604341291921
 21
1979.749496429288
 31
0.0
1001
AUTOCAD_POSTSCRIPT_FIGURE
1002
{
1000
PSFILL
1000
Grayscale
1000
Grayscale
1070
   100
1002
}
  0
LINE
  5
120A6
  8
YODOROGO
 10
27817.604341291921
 20
1955.7494964292871
 30
0.0
 11
27849.604341291921
 21
1955.7494964292871
 31
0.0
1001
AUTOCAD_POSTSCRIPT_FIGURE
1002
{
1000
PSFILL
1000
Grayscale
1000
Grayscale
1070
   100
1002
}
  0
LINE
  5
120A7
  8
YODOROGO
 10
27817.604341291921
 20
1979.749496429288
 30
0.0
 11
27817.604341291921
 21
1955.7494964292871
 31
0.0
1001
AUTOCAD_POSTSCRIPT_FIGURE
1002
{
1000
PSFILL
1000
Grayscale
1000
Grayscale
1070
   100
1002
}
  0
LINE
  5
120A8
  8
YODOROGO
 10
27801.604341291921
 20
1979.749496429288
 30
0.0
 11
27817.604341291921
 21
1979.749496429288
 31
0.0
1001
AUTOCAD_POSTSCRIPT_FIGURE
1002
{
1000
PSFILL
1000
Grayscale
1000
Grayscale
1070
   100
1002
}
  0
LINE
  5
120A9
  8
YODOROGO
 10
27801.604341291921
 20
1955.7494964292871
 30
0.0
 11
27801.604341291921
 21
1979.749496429288
 31
0.0
1001
AUTOCAD_POSTSCRIPT_FIGURE
1002
{
1000
PSFILL
1000
Grayscale
1000
Grayscale
1070
   100
1002
}
  0
LINE
  5
120AA
  8
YODOROGO
 10
27777.604341291921
 20
1955.7494964292871
 30
0.0
 11
27801.604341291921
 21
1955.7494964292871
 31
0.0
1001
AUTOCAD_POSTSCRIPT_FIGURE
1002
{
1000
PSFILL
1000
Grayscale
1000
Grayscale
1070
   100
1002
}
  0
LINE
  5
120AB
  8
YODOROGO
 10
27777.604341291921
 20
1939.749496429288
 30
0.0
 11
27777.604341291921
 21
1955.7494964292871
 31
0.0
1001
AUTOCAD_POSTSCRIPT_FIGURE
1002
{
1000
PSFILL
1000
Grayscale
1000
Grayscale
1070
   100
1002
}
  0
LINE
  5
120AC
  8
YODOROGO
 10
27801.604341291921
 20
1939.749496429288
 30
0.0
 11
27777.604341291921
 21
1939.749496429288
 31
0.0
1001
AUTOCAD_POSTSCRIPT_FIGURE
1002
{
1000
PSFILL
1000
Grayscale
1000
Grayscale
1070
   100
1002
}
  0
LINE
  5
120AD
  8
YODOROGO
 10
27801.604341291921
 20
1914.7865807937051
 30
0.0
 11
27801.604341291921
 21
1939.749496429288
 31
0.0
1001
AUTOCAD_POSTSCRIPT_FIGURE
1002
{
1000
PSFILL
1000
Grayscale
1000
Grayscale
1070
   100
1002
}
  0
LINE
  5
120AE
  8
YODOROGO
 10
27777.604341291921
 20
1859.776747951671
 30
0.0
 11
27801.604341291921
 21
1914.7865807937051
 31
0.0
1001
AUTOCAD_POSTSCRIPT_FIGURE
1002
{
1000
PSFILL
1000
Grayscale
1000
Grayscale
1070
   100
1002
}
  0
LINE
  5
120AF
  8
YODOROGO
 10
27777.604341291921
 20
1843.776747951672
 30
0.0
 11
27777.604341291921
 21
1859.776747951671
 31
0.0
1001
AUTOCAD_POSTSCRIPT_FIGURE
1002
{
1000
PSFILL
1000
Grayscale
1000
Grayscale
1070
   100
1002
}
  0
LINE
  5
120B0
  8
YODOROGO
 10
28257.604341291921
 20
1867.7494964292871
 30
0.0
 11
28401.60434129191
 21
1824.877625640306
 31
0.0
1001
AUTOCAD_POSTSCRIPT_FIGURE
1002
{
1000
PSFILL
1000
Grayscale
1000
Grayscale
1070
   100
1002
}
  0
LINE
  5
120B1
  8
YODOROGO
 10
28401.60434129191
 20
1752.877625640306
 30
0.0
 11
28257.604341291921
 21
1795.7494964292871
 31
0.0
1001
AUTOCAD_POSTSCRIPT_FIGURE
1002
{
1000
PSFILL
1000
Grayscale
1000
Grayscale
1070
   100
1002
}
  0
LINE
  5
120B2
  8
YODOROGO
 10
28401.60434129191
 20
1984.877625640306
 30
0.0
 11
28257.604341291921
 21
2027.749496429288
 31
0.0
1001
AUTOCAD_POSTSCRIPT_FIGURE
1002
{
1000
PSFILL
1000
Grayscale
1000
Grayscale
1070
   100
1002
}
  0
LINE
  5
120B3
  8
YODOROGO
 10
28257.604341291921
 20
1959.749496429288
 30
0.0
 11
28401.60434129191
 21
1916.8776256403071
 31
0.0
1001
AUTOCAD_POSTSCRIPT_FIGURE
1002
{
1000
PSFILL
1000
Grayscale
1000
Grayscale
1070
   100
1002
}
  0
LINE
  5
120B4
  8
YODOROGO
 10
28257.604341291921
 20
1795.7494964292871
 30
0.0
 11
28257.604341291921
 21
1867.7494964292871
 31
0.0
1001
AUTOCAD_POSTSCRIPT_FIGURE
1002
{
1000
PSFILL
1000
Grayscale
1000
Grayscale
1070
   100
1002
}
  0
LINE
  5
120B5
  8
YODOROGO
 10
28257.604341291921
 20
2027.749496429288
 30
0.0
 11
28257.604341291921
 21
1959.749496429288
 31
0.0
1001
AUTOCAD_POSTSCRIPT_FIGURE
1002
{
1000
PSFILL
1000
Grayscale
1000
Grayscale
1070
   100
1002
}
  0
LINE
  5
120B6
  8
YODOROGO
 10
28080.236320206739
 20
1939.749496429288
 30
0.0
 11
28129.60434129191
 21
1747.749496429286
 31
0.0
1001
AUTOCAD_POSTSCRIPT_FIGURE
1002
{
1000
PSFILL
1000
Grayscale
1000
Grayscale
1070
   100
1002
}
  0
LINE
  5
120B7
  8
YODOROGO
 10
27977.604341291921
 20
1939.749496429288
 30
0.0
 11
28080.236320206739
 21
1939.749496429288
 31
0.0
1001
AUTOCAD_POSTSCRIPT_FIGURE
1002
{
1000
PSFILL
1000
Grayscale
1000
Grayscale
1070
   100
1002
}
  0
LINE
  5
120B8
  8
YODOROGO
 10
27977.604341291921
 20
1955.7494964292871
 30
0.0
 11
27977.604341291921
 21
1939.749496429288
 31
0.0
1001
AUTOCAD_POSTSCRIPT_FIGURE
1002
{
1000
PSFILL
1000
Grayscale
1000
Grayscale
1070
   100
1002
}
  0
LINE
  5
120B9
  8
YODOROGO
 10
28076.60687851991
 20
1955.7494964292871
 30
0.0
 11
27977.604341291921
 21
1955.7494964292871
 31
0.0
1001
AUTOCAD_POSTSCRIPT_FIGURE
1002
{
1000
PSFILL
1000
Grayscale
1000
Grayscale
1070
   100
1002
}
  0
LINE
  5
120BA
  8
YODOROGO
 10
28071.162715989711
 20
1979.749496429288
 30
0.0
 11
28076.60687851991
 21
1955.7494964292871
 31
0.0
1001
AUTOCAD_POSTSCRIPT_FIGURE
1002
{
1000
PSFILL
1000
Grayscale
1000
Grayscale
1070
   100
1002
}
  0
LINE
  5
120BB
  8
YODOROGO
 10
28091.162715989711
 20
1979.749496429288
 30
0.0
 11
28071.162715989711
 21
1979.749496429288
 31
0.0
1001
AUTOCAD_POSTSCRIPT_FIGURE
1002
{
1000
PSFILL
1000
Grayscale
1000
Grayscale
1070
   100
1002
}
  0
LINE
  5
120BC
  8
YODOROGO
 10
28095.806878519939
 20
1955.7494964292871
 30
0.0
 11
28091.162715989711
 21
1979.749496429288
 31
0.0
1001
AUTOCAD_POSTSCRIPT_FIGURE
1002
{
1000
PSFILL
1000
Grayscale
1000
Grayscale
1070
   100
1002
}
  0
LINE
  5
120BD
  8
YODOROGO
 10
28121.604341291921
 20
1955.7494964292871
 30
0.0
 11
28095.806878519939
 21
1955.7494964292871
 31
0.0
1001
AUTOCAD_POSTSCRIPT_FIGURE
1002
{
1000
PSFILL
1000
Grayscale
1000
Grayscale
1070
   100
1002
}
  0
LINE
  5
120BE
  8
YODOROGO
 10
28121.604341291921
 20
1979.749496429288
 30
0.0
 11
28121.604341291921
 21
1955.7494964292871
 31
0.0
1001
AUTOCAD_POSTSCRIPT_FIGURE
1002
{
1000
PSFILL
1000
Grayscale
1000
Grayscale
1070
   100
1002
}
  0
LINE
  5
120BF
  8
YODOROGO
 10
28137.604341291921
 20
1979.749496429288
 30
0.0
 11
28121.604341291921
 21
1979.749496429288
 31
0.0
1001
AUTOCAD_POSTSCRIPT_FIGURE
1002
{
1000
PSFILL
1000
Grayscale
1000
Grayscale
1070
   100
1002
}
  0
LINE
  5
120C0
  8
YODOROGO
 10
28137.604341291921
 20
1955.7494964292871
 30
0.0
 11
28137.604341291921
 21
1979.749496429288
 31
0.0
1001
AUTOCAD_POSTSCRIPT_FIGURE
1002
{
1000
PSFILL
1000
Grayscale
1000
Grayscale
1070
   100
1002
}
  0
LINE
  5
120C1
  8
YODOROGO
 10
28137.604341291921
 20
1939.749496429288
 30
0.0
 11
28137.604341291921
 21
1955.7494964292871
 31
0.0
1001
AUTOCAD_POSTSCRIPT_FIGURE
1002
{
1000
PSFILL
1000
Grayscale
1000
Grayscale
1070
   100
1002
}
  0
LINE
  5
120C2
  8
YODOROGO
 10
28098.902986873411
 20
1939.749496429288
 30
0.0
 11
28137.604341291921
 21
1939.749496429288
 31
0.0
1001
AUTOCAD_POSTSCRIPT_FIGURE
1002
{
1000
PSFILL
1000
Grayscale
1000
Grayscale
1070
   100
1002
}
  0
LINE
  5
120C3
  8
YODOROGO
 10
28137.604341291921
 20
1747.749496429286
 30
0.0
 11
28098.902986873411
 21
1939.749496429288
 31
0.0
1001
AUTOCAD_POSTSCRIPT_FIGURE
1002
{
1000
PSFILL
1000
Grayscale
1000
Grayscale
1070
   100
1002
}
  0
LINE
  5
120C4
  8
YODOROGO
 10
28129.60434129191
 20
1747.749496429286
 30
0.0
 11
28137.604341291921
 21
1747.749496429286
 31
0.0
1001
AUTOCAD_POSTSCRIPT_FIGURE
1002
{
1000
PSFILL
1000
Grayscale
1000
Grayscale
1070
   100
1002
}
  0
LINE
  5
120C5
  8
YODOROGO
 10
28078.06921993379
 20
1775.7407762987939
 30
0.0
 11
27977.604341291921
 21
1747.749496429286
 31
0.0
  0
LINE
  5
120C6
  8
YODOROGO
 10
28078.06921993379
 20
1798.6689795290731
 30
0.0
 11
28078.06921993379
 21
1775.7407762987939
 31
0.0
  0
LINE
  5
120C7
  8
YODOROGO
 10
28033.83678061287
 20
1786.816933133767
 30
0.0
 11
28078.06921993379
 21
1798.6689795290731
 31
0.0
  0
LINE
  5
120C8
  8
YODOROGO
 10
28033.83678061287
 20
1872.5683489362989
 30
0.0
 11
28033.83678061287
 21
1786.816933133767
 31
0.0
  0
LINE
  5
120C9
  8
YODOROGO
 10
28078.06921993379
 20
1872.5683489362989
 30
0.0
 11
28033.83678061287
 21
1872.5683489362989
 31
0.0
  0
LINE
  5
120CA
  8
YODOROGO
 10
28078.06921993379
 20
1892.568348936298
 30
0.0
 11
28078.06921993379
 21
1872.5683489362989
 31
0.0
  0
LINE
  5
120CB
  8
YODOROGO
 10
27977.604341291921
 20
1892.568348936298
 30
0.0
 11
28078.06921993379
 21
1892.568348936298
 31
0.0
  0
LINE
  5
120CC
  8
YODOROGO
 10
27977.604341291921
 20
1872.5683489362989
 30
0.0
 11
27977.604341291921
 21
1892.568348936298
 31
0.0
  0
LINE
  5
120CD
  8
YODOROGO
 10
28021.836780612852
 20
1872.5683489362989
 30
0.0
 11
27977.604341291921
 21
1872.5683489362989
 31
0.0
  0
LINE
  5
120CE
  8
YODOROGO
 10
28021.836780612852
 20
1784.673339594317
 30
0.0
 11
28021.836780612852
 21
1872.5683489362989
 31
0.0
  0
LINE
  5
120CF
  8
YODOROGO
 10
27977.604341291921
 20
1771.749496429286
 30
0.0
 11
28021.836780612852
 21
1784.673339594317
 31
0.0
  0
LINE
  5
120D0
  8
YODOROGO
 10
27977.604341291921
 20
1747.749496429286
 30
0.0
 11
27977.604341291921
 21
1771.749496429286
 31
0.0
  0
LINE
  5
120D1
  8
YODOROGO
 10
28001.604341291921
 20
1707.749496429288
 30
0.0
 11
28001.604341291921
 21
1683.7494964292871
 31
0.0
  0
LINE
  5
120D2
  8
YODOROGO
 10
28017.604341291921
 20
1707.749496429288
 30
0.0
 11
28001.604341291921
 21
1707.749496429288
 31
0.0
  0
LINE
  5
120D3
  8
YODOROGO
 10
28017.604341291921
 20
1683.7494964292871
 30
0.0
 11
28017.604341291921
 21
1707.749496429288
 31
0.0
  0
LINE
  5
120D4
  8
YODOROGO
 10
28040.913204016892
 20
1683.7494964292871
 30
0.0
 11
28017.604341291921
 21
1683.7494964292871
 31
0.0
  0
LINE
  5
120D5
  8
YODOROGO
 10
28001.604341291921
 20
1683.7494964292871
 30
0.0
 11
27977.604341291921
 21
1683.7494964292871
 31
0.0
  0
LINE
  5
120D6
  8
YODOROGO
 10
28082.135520230921
 20
1707.749496429288
 30
0.0
 11
28098.135520230931
 21
1707.749496429288
 31
0.0
1001
AUTOCAD_POSTSCRIPT_FIGURE
1002
{
1000
PSFILL
1000
Grayscale
1000
Grayscale
1070
   100
1002
}
  0
LINE
  5
120D7
  8
YODOROGO
 10
28401.60434129191
 20
1824.877625640306
 30
0.0
 11
28401.60434129191
 21
1752.877625640306
 31
0.0
1001
AUTOCAD_POSTSCRIPT_FIGURE
1002
{
1000
PSFILL
1000
Grayscale
1000
Grayscale
1070
   100
1002
}
  0
LINE
  5
120D8
  8
YODOROGO
 10
28401.60434129191
 20
1916.8776256403071
 30
0.0
 11
28401.60434129191
 21
1984.877625640306
 31
0.0
1001
AUTOCAD_POSTSCRIPT_FIGURE
1002
{
1000
PSFILL
1000
Grayscale
1000
Grayscale
1070
   100
1002
}
  0
LINE
  5
120D9
  8
YODOROGO
 10
28433.60434129191
 20
1819.7494964292871
 30
0.0
 11
28433.60434129191
 21
1747.74949642929
 31
0.0
  0
LINE
  5
120DA
  8
YODOROGO
 10
28497.60434129191
 20
1707.749496429288
 30
0.0
 11
28433.60434129191
 21
1707.749496429288
 31
0.0
  0
LINE
  5
120DB
  8
YODOROGO
 10
28433.60434129191
 20
1747.74949642929
 30
0.0
 11
28585.604341291921
 21
1747.74949642929
 31
0.0
  0
LINE
  5
120DC
  8
YODOROGO
 10
28497.60434129191
 20
1867.7494964292871
 30
0.0
 11
28433.60434129191
 21
1867.7494964292871
 31
0.0
  0
LINE
  5
120DD
  8
YODOROGO
 10
28497.60434129191
 20
1923.7494964292871
 30
0.0
 11
28497.60434129191
 21
1867.7494964292871
 31
0.0
  0
LINE
  5
120DE
  8
YODOROGO
 10
28585.604341291921
 20
1987.7494964292871
 30
0.0
 11
28585.604341291921
 21
2027.749496429288
 31
0.0
  0
LINE
  5
120DF
  8
YODOROGO
 10
28433.60434129191
 20
1987.7494964292871
 30
0.0
 11
28585.604341291921
 21
1987.7494964292871
 31
0.0
  0
LINE
  5
120E0
  8
YODOROGO
 10
28433.60434129191
 20
1867.7494964292871
 30
0.0
 11
28433.60434129191
 21
1987.7494964292871
 31
0.0
  0
LINE
  5
120E1
  8
YODOROGO
 10
29001.60434129191
 20
2027.749496429288
 30
0.0
 11
29001.60434129191
 21
1619.749496429288
 31
0.0
  0
LINE
  5
120E2
  8
YODOROGO
 10
29073.604341291921
 20
1579.749496429288
 30
0.0
 11
29073.604341291921
 21
2027.749496429288
 31
0.0
  0
LINE
  5
120E3
  8
YODOROGO
 10
29261.604341291921
 20
1491.749496429286
 30
0.0
 11
29261.604341291921
 21
2007.749496429288
 31
0.0
  0
LINE
  5
120E4
  8
YODOROGO
 10
29197.604341291921
 20
2007.749496429288
 30
0.0
 11
29197.604341291921
 21
1491.749496429286
 31
0.0
  0
LINE
  5
120E5
  8
YODOROGO
 10
29385.604341291921
 20
2027.749496429288
 30
0.0
 11
29385.604341291921
 21
1427.749496429288
 31
0.0
  0
LINE
  5
120E6
  8
YODOROGO
 10
29457.604341291921
 20
1427.749496429288
 30
0.0
 11
29457.604341291921
 21
2027.749496429288
 31
0.0
  0
LINE
  5
120E7
  8
YODOROGO
 10
28657.604341291921
 20
1667.749496429288
 30
0.0
 11
28657.604341291921
 21
1747.74949642929
 31
0.0
  0
LINE
  5
120E8
  8
YODOROGO
 10
29885.604341291921
 20
1707.749496429288
 30
0.0
 11
29885.604341291921
 21
1667.749496429288
 31
0.0
  0
LINE
  5
120E9
  8
YODOROGO
 10
29885.604341291921
 20
1707.749496429288
 30
0.0
 11
29885.604341291921
 21
1667.749496429288
 31
0.0
  0
ARC
  5
120EA
  8
YODOROGO
 10
28906.911576186842
 20
1618.217864442272
 30
0.0
 40
94.705151178741644
 50
274.05244162907098
 51
0.9266642149310712
  0
ARC
  5
120EB
  8
YODOROGO
 10
28909.186170719819
 20
1592.61072861044
 30
0.0
 40
164.92042356085511
 50
271.5351210653775
 51
355.52727750585052
  0
LINE
  5
120EC
  8
YODOROGO
 10
28913.604341291921
 20
1523.7494964292871
 30
0.0
 11
28913.604341291921
 21
1427.749496429288
 31
0.0
  0
LINE
  5
120ED
  8
YODOROGO
 10
28793.60434129191
 20
1667.749496429288
 30
0.0
 11
28657.604341291921
 21
1667.749496429288
 31
0.0
  0
LINE
  5
120EE
  8
YODOROGO
 10
28793.60434129191
 20
1603.7494964292871
 30
0.0
 11
28793.60434129191
 21
1667.749496429288
 31
0.0
  0
LINE
  5
120EF
  8
YODOROGO
 10
28657.604341291921
 20
1603.7494964292871
 30
0.0
 11
28793.60434129191
 21
1603.7494964292871
 31
0.0
  0
LINE
  5
120F0
  8
YODOROGO
 10
28657.604341291921
 20
1523.7494964292871
 30
0.0
 11
28657.604341291921
 21
1603.7494964292871
 31
0.0
  0
LINE
  5
120F1
  8
YODOROGO
 10
28793.60434129191
 20
1523.7494964292871
 30
0.0
 11
28657.604341291921
 21
1523.7494964292871
 31
0.0
  0
LINE
  5
120F2
  8
YODOROGO
 10
28793.60434129191
 20
1427.749496429288
 30
0.0
 11
28793.60434129191
 21
1523.7494964292871
 31
0.0
  0
LINE
  5
120F3
  8
YODOROGO
 10
29197.604341291921
 20
1491.749496429286
 30
0.0
 11
29261.604341291921
 21
1491.749496429286
 31
0.0
  0
LINE
  5
120F4
  8
YODOROGO
 10
29385.604341291921
 20
1427.749496429288
 30
0.0
 11
29457.604341291921
 21
1427.749496429288
 31
0.0
  0
LINE
  5
120F5
  8
YODOROGO
 10
29737.604341291921
 20
1528.4414521705639
 30
0.0
 11
29737.604341291921
 21
1427.749496429288
 31
0.0
  0
LINE
  5
120F6
  8
YODOROGO
 10
29617.604341291921
 20
1427.749496429288
 30
0.0
 11
29737.604341291921
 21
1528.4414521705639
 31
0.0
  0
LINE
  5
120F7
  8
YODOROGO
 10
29617.604341291921
 20
1547.749496429288
 30
0.0
 11
29617.604341291921
 21
1427.749496429288
 31
0.0
  0
LINE
  5
120F8
  8
YODOROGO
 10
29712.94462869945
 20
1627.749496429288
 30
0.0
 11
29617.604341291921
 21
1547.749496429288
 31
0.0
  0
LINE
  5
120F9
  8
YODOROGO
 10
29617.604341291921
 20
1627.749496429288
 30
0.0
 11
29712.94462869945
 21
1627.749496429288
 31
0.0
  0
LINE
  5
120FA
  8
YODOROGO
 10
29617.604341291921
 20
1667.749496429288
 30
0.0
 11
29617.604341291921
 21
1627.749496429288
 31
0.0
  0
LINE
  5
120FB
  8
YODOROGO
 10
29885.604341291921
 20
1667.749496429288
 30
0.0
 11
29617.604341291921
 21
1667.749496429288
 31
0.0
  0
LINE
  5
120FC
  8
YODOROGO
 10
29917.604341291921
 20
1627.749496429288
 30
0.0
 11
29777.604341291921
 21
1627.749496429288
 31
0.0
  0
LINE
  5
120FD
  8
YODOROGO
 10
29777.604341291921
 20
1562.0054374176559
 30
0.0
 11
29771.409872985321
 21
1556.807661346234
 31
0.0
  0
LINE
  5
120FE
  8
YODOROGO
 10
29777.604341291921
 20
1627.749496429288
 30
0.0
 11
29777.604341291921
 21
1562.0054374176559
 31
0.0
  0
LINE
  5
120FF
  8
YODOROGO
 10
29737.604341291921
 20
1528.4414521705639
 30
0.0
 11
29737.604341291921
 21
1427.749496429288
 31
0.0
  0
LINE
  5
12100
  8
YODOROGO
 10
29617.604341291921
 20
1427.749496429288
 30
0.0
 11
29737.604341291921
 21
1528.4414521705639
 31
0.0
  0
LINE
  5
12101
  8
YODOROGO
 10
29617.604341291921
 20
1547.749496429288
 30
0.0
 11
29617.604341291921
 21
1427.749496429288
 31
0.0
  0
LINE
  5
12102
  8
YODOROGO
 10
29712.94462869945
 20
1627.749496429288
 30
0.0
 11
29617.604341291921
 21
1547.749496429288
 31
0.0
  0
LINE
  5
12103
  8
YODOROGO
 10
29617.604341291921
 20
1627.749496429288
 30
0.0
 11
29712.94462869945
 21
1627.749496429288
 31
0.0
  0
LINE
  5
12104
  8
YODOROGO
 10
29617.604341291921
 20
1667.749496429288
 30
0.0
 11
29617.604341291921
 21
1627.749496429288
 31
0.0
  0
LINE
  5
12105
  8
YODOROGO
 10
29885.604341291921
 20
1667.749496429288
 30
0.0
 11
29617.604341291921
 21
1667.749496429288
 31
0.0
  0
LINE
  5
12106
  8
YODOROGO
 10
28793.60434129191
 20
1747.74949642929
 30
0.0
 11
28793.60434129191
 21
1819.7494964292871
 31
0.0
  0
LINE
  5
12107
  8
YODOROGO
 10
28657.604341291921
 20
1747.74949642929
 30
0.0
 11
28793.60434129191
 21
1747.74949642929
 31
0.0
  0
LINE
  5
12108
  8
YODOROGO
 10
28729.604341291921
 20
1867.7494964292871
 30
0.0
 11
28729.604341291921
 21
1923.7494964292871
 31
0.0
  0
LINE
  5
12109
  8
YODOROGO
 10
28793.60434129191
 20
1867.7494964292871
 30
0.0
 11
28729.604341291921
 21
1867.7494964292871
 31
0.0
  0
LINE
  5
1210A
  8
YODOROGO
 10
28793.60434129191
 20
1947.749496429288
 30
0.0
 11
28793.60434129191
 21
1867.7494964292871
 31
0.0
  0
ARC
  5
1210B
  8
YODOROGO
 10
28753.60434129191
 20
1947.749496429288
 30
0.0
 40
40.0
 50
0.0
 51
90.0
  0
LINE
  5
1210C
  8
YODOROGO
 10
28657.604341291921
 20
1987.7494964292871
 30
0.0
 11
28753.60434129191
 21
1987.7494964292871
 31
0.0
  0
LINE
  5
1210D
  8
YODOROGO
 10
28657.604341291921
 20
2027.749496429288
 30
0.0
 11
28657.604341291921
 21
1987.7494964292871
 31
0.0
  0
LINE
  5
1210E
  8
YODOROGO
 10
29073.604341291921
 20
2027.749496429288
 30
0.0
 11
29001.60434129191
 21
2027.749496429288
 31
0.0
  0
LINE
  5
1210F
  8
YODOROGO
 10
29261.604341291921
 20
2007.749496429288
 30
0.0
 11
29197.604341291921
 21
2007.749496429288
 31
0.0
  0
LINE
  5
12110
  8
YODOROGO
 10
29457.604341291921
 20
2027.749496429288
 30
0.0
 11
29385.604341291921
 21
2027.749496429288
 31
0.0
  0
LINE
  5
12111
  8
YODOROGO
 10
29673.604341291921
 20
1707.749496429288
 30
0.0
 11
29673.604341291921
 21
1771.7494964292871
 31
0.0
1001
AUTOCAD_POSTSCRIPT_FIGURE
1002
{
1000
PSFILL
1000
Grayscale
1000
Grayscale
1070
    25
1002
}
  0
LINE
  5
12112
  8
YODOROGO
 10
29617.604341291921
 20
1707.749496429288
 30
0.0
 11
29673.604341291921
 21
1707.749496429288
 31
0.0
1001
AUTOCAD_POSTSCRIPT_FIGURE
1002
{
1000
PSFILL
1000
Grayscale
1000
Grayscale
1070
    25
1002
}
  0
LINE
  5
12113
  8
YODOROGO
 10
29617.604341291921
 20
1819.7494964292871
 30
0.0
 11
29617.604341291921
 21
1707.749496429288
 31
0.0
1001
AUTOCAD_POSTSCRIPT_FIGURE
1002
{
1000
PSFILL
1000
Grayscale
1000
Grayscale
1070
    25
1002
}
  0
LINE
  5
12114
  8
YODOROGO
 10
29765.604341291921
 20
1819.7494964292871
 30
0.0
 11
29617.604341291921
 21
1819.7494964292871
 31
0.0
1001
AUTOCAD_POSTSCRIPT_FIGURE
1002
{
1000
PSFILL
1000
Grayscale
1000
Grayscale
1070
    25
1002
}
  0
LINE
  5
12115
  8
YODOROGO
 10
29765.604341291921
 20
1859.749496429288
 30
0.0
 11
29765.604341291921
 21
1819.7494964292871
 31
0.0
1001
AUTOCAD_POSTSCRIPT_FIGURE
1002
{
1000
PSFILL
1000
Grayscale
1000
Grayscale
1070
    25
1002
}
  0
LINE
  5
12116
  8
YODOROGO
 10
29617.604341291921
 20
1859.749496429288
 30
0.0
 11
29765.604341291921
 21
1859.749496429288
 31
0.0
1001
AUTOCAD_POSTSCRIPT_FIGURE
1002
{
1000
PSFILL
1000
Grayscale
1000
Grayscale
1070
    25
1002
}
  0
LINE
  5
12117
  8
YODOROGO
 10
29617.604341291921
 20
1907.7494964292871
 30
0.0
 11
29617.604341291921
 21
1859.749496429288
 31
0.0
1001
AUTOCAD_POSTSCRIPT_FIGURE
1002
{
1000
PSFILL
1000
Grayscale
1000
Grayscale
1070
    25
1002
}
  0
LINE
  5
12118
  8
YODOROGO
 10
29765.604341291921
 20
1907.7494964292871
 30
0.0
 11
29617.604341291921
 21
1907.7494964292871
 31
0.0
1001
AUTOCAD_POSTSCRIPT_FIGURE
1002
{
1000
PSFILL
1000
Grayscale
1000
Grayscale
1070
    25
1002
}
  0
LINE
  5
12119
  8
YODOROGO
 10
29765.604341291921
 20
1947.749496429288
 30
0.0
 11
29765.604341291921
 21
1907.7494964292871
 31
0.0
1001
AUTOCAD_POSTSCRIPT_FIGURE
1002
{
1000
PSFILL
1000
Grayscale
1000
Grayscale
1070
    25
1002
}
  0
LINE
  5
1211A
  8
YODOROGO
 10
29617.604341291921
 20
1947.749496429288
 30
0.0
 11
29765.604341291921
 21
1947.749496429288
 31
0.0
1001
AUTOCAD_POSTSCRIPT_FIGURE
1002
{
1000
PSFILL
1000
Grayscale
1000
Grayscale
1070
    25
1002
}
  0
LINE
  5
1211B
  8
YODOROGO
 10
29617.604341291921
 20
2027.749496429288
 30
0.0
 11
29617.604341291921
 21
1947.749496429288
 31
0.0
1001
AUTOCAD_POSTSCRIPT_FIGURE
1002
{
1000
PSFILL
1000
Grayscale
1000
Grayscale
1070
    25
1002
}
  0
LINE
  5
1211C
  8
YODOROGO
 10
29665.604341291921
 20
2027.749496429288
 30
0.0
 11
29617.604341291921
 21
2027.749496429288
 31
0.0
1001
AUTOCAD_POSTSCRIPT_FIGURE
1002
{
1000
PSFILL
1000
Grayscale
1000
Grayscale
1070
    25
1002
}
  0
LINE
  5
1211D
  8
YODOROGO
 10
29665.604341291921
 20
1995.7494964292871
 30
0.0
 11
29665.604341291921
 21
2027.749496429288
 31
0.0
1001
AUTOCAD_POSTSCRIPT_FIGURE
1002
{
1000
PSFILL
1000
Grayscale
1000
Grayscale
1070
    25
1002
}
  0
LINE
  5
1211E
  8
YODOROGO
 10
29765.604341291921
 20
1995.7494964292871
 30
0.0
 11
29665.604341291921
 21
1995.7494964292871
 31
0.0
1001
AUTOCAD_POSTSCRIPT_FIGURE
1002
{
1000
PSFILL
1000
Grayscale
1000
Grayscale
1070
    25
1002
}
  0
LINE
  5
1211F
  8
YODOROGO
 10
29765.604341291921
 20
2027.749496429288
 30
0.0
 11
29765.604341291921
 21
1995.7494964292871
 31
0.0
1001
AUTOCAD_POSTSCRIPT_FIGURE
1002
{
1000
PSFILL
1000
Grayscale
1000
Grayscale
1070
    25
1002
}
  0
LINE
  5
12120
  8
YODOROGO
 10
29829.604341291921
 20
2027.749496429288
 30
0.0
 11
29765.604341291921
 21
2027.749496429288
 31
0.0
1001
AUTOCAD_POSTSCRIPT_FIGURE
1002
{
1000
PSFILL
1000
Grayscale
1000
Grayscale
1070
    25
1002
}
  0
LINE
  5
12121
  8
YODOROGO
 10
29829.604341291921
 20
1995.7494964292871
 30
0.0
 11
29829.604341291921
 21
2027.749496429288
 31
0.0
1001
AUTOCAD_POSTSCRIPT_FIGURE
1002
{
1000
PSFILL
1000
Grayscale
1000
Grayscale
1070
    25
1002
}
  0
LINE
  5
12122
  8
YODOROGO
 10
29829.604341291921
 20
1907.7494964292871
 30
0.0
 11
29829.604341291921
 21
1947.749496429288
 31
0.0
1001
AUTOCAD_POSTSCRIPT_FIGURE
1002
{
1000
PSFILL
1000
Grayscale
1000
Grayscale
1070
    25
1002
}
  0
LINE
  5
12123
  8
YODOROGO
 10
29829.604341291921
 20
1819.7494964292871
 30
0.0
 11
29829.604341291921
 21
1859.749496429288
 31
0.0
1001
AUTOCAD_POSTSCRIPT_FIGURE
1002
{
1000
PSFILL
1000
Grayscale
1000
Grayscale
1070
    25
1002
}
  0
LINE
  5
12124
  8
YODOROGO
 10
29921.60434129191
 20
1771.7494964292871
 30
0.0
 11
29921.60434129191
 21
1707.749496429288
 31
0.0
1001
AUTOCAD_POSTSCRIPT_FIGURE
1002
{
1000
PSFILL
1000
Grayscale
1000
Grayscale
1070
    25
1002
}
  0
LINE
  5
12125
  8
YODOROGO
 10
29829.604341291921
 20
1771.7494964292871
 30
0.0
 11
29921.60434129191
 21
1771.7494964292871
 31
0.0
1001
AUTOCAD_POSTSCRIPT_FIGURE
1002
{
1000
PSFILL
1000
Grayscale
1000
Grayscale
1070
    25
1002
}
  0
LINE
  5
12126
  8
YODOROGO
 10
29829.604341291921
 20
1707.749496429288
 30
0.0
 11
29829.604341291921
 21
1771.7494964292871
 31
0.0
1001
AUTOCAD_POSTSCRIPT_FIGURE
1002
{
1000
PSFILL
1000
Grayscale
1000
Grayscale
1070
    25
1002
}
  0
LINE
  5
12127
  8
YODOROGO
 10
29765.604341291921
 20
1707.749496429288
 30
0.0
 11
29829.604341291921
 21
1707.749496429288
 31
0.0
1001
AUTOCAD_POSTSCRIPT_FIGURE
1002
{
1000
PSFILL
1000
Grayscale
1000
Grayscale
1070
    25
1002
}
  0
LINE
  5
12128
  8
YODOROGO
 10
29765.604341291921
 20
1771.7494964292871
 30
0.0
 11
29765.604341291921
 21
1707.749496429288
 31
0.0
1001
AUTOCAD_POSTSCRIPT_FIGURE
1002
{
1000
PSFILL
1000
Grayscale
1000
Grayscale
1070
    25
1002
}
  0
LINE
  5
12129
  8
YODOROGO
 10
29673.604341291921
 20
1771.7494964292871
 30
0.0
 11
29765.604341291921
 21
1771.7494964292871
 31
0.0
1001
AUTOCAD_POSTSCRIPT_FIGURE
1002
{
1000
PSFILL
1000
Grayscale
1000
Grayscale
1070
    25
1002
}
  0
ARC
  5
1212A
  8
YODOROGO
 10
31059.517893357912
 20
1602.6807375155761
 30
0.0
 40
178.22128111072141
 50
281.02627495425338
 51
357.77113575573799
  0
LINE
  5
1212B
  8
YODOROGO
 10
31413.604341291921
 20
1907.7494964292871
 30
0.0
 11
31165.604341291921
 21
1907.7494964292871
 31
0.0
  0
LINE
  5
1212C
  8
YODOROGO
 10
31413.604341291921
 20
2027.749496429288
 30
0.0
 11
31165.604341291921
 21
2027.749496429288
 31
0.0
  0
LINE
  5
1212D
  8
YODOROGO
 10
31165.604341291921
 20
1963.749496429286
 30
0.0
 11
31413.604341291921
 21
1963.749496429286
 31
0.0
  0
LINE
  5
1212E
  8
YODOROGO
 10
30791.604341291921
 20
1563.7494964292871
 30
0.0
 11
30791.604341291921
 21
1755.7494964292871
 31
0.0
  0
LINE
  5
1212F
  8
YODOROGO
 10
30763.604341291921
 20
1691.749496429288
 30
0.0
 11
30763.604341291921
 21
1563.7494964292871
 31
0.0
  0
LINE
  5
12130
  8
YODOROGO
 10
30723.604341291921
 20
1491.749496429288
 30
0.0
 11
30723.604341291921
 21
1691.749496429288
 31
0.0
  0
LINE
  5
12131
  8
YODOROGO
 10
30899.604341291932
 20
1691.749496429288
 30
0.0
 11
30899.604341291932
 21
1491.749496429288
 31
0.0
  0
LINE
  5
12132
  8
YODOROGO
 10
30859.604341291932
 20
1563.7494964292871
 30
0.0
 11
30859.604341291932
 21
1691.749496429288
 31
0.0
  0
LINE
  5
12133
  8
YODOROGO
 10
30831.604341291921
 20
1755.7494964292871
 30
0.0
 11
30831.604341291921
 21
1563.7494964292871
 31
0.0
  0
LINE
  5
12134
  8
YODOROGO
 10
30973.604341291921
 20
2027.749496429288
 30
0.0
 11
30973.604341291921
 21
1467.749496429288
 31
0.0
  0
LINE
  5
12135
  8
YODOROGO
 10
30645.604341291921
 20
1427.749496429288
 30
0.0
 11
30645.604341291921
 21
2027.749496429288
 31
0.0
  0
LINE
  5
12136
  8
YODOROGO
 10
30697.604341291932
 20
1963.749496429286
 30
0.0
 11
30697.604341291932
 21
1427.749496429288
 31
0.0
  0
LINE
  5
12137
  8
YODOROGO
 10
30925.604341291921
 20
1547.749496429288
 30
0.0
 11
30925.604341291921
 21
1963.749496429286
 31
0.0
  0
LINE
  5
12138
  8
YODOROGO
 10
30381.604341291932
 20
1627.749496429288
 30
0.0
 11
30381.604341291932
 21
1679.749496429288
 31
0.0
  0
LINE
  5
12139
  8
YODOROGO
 10
30617.604341291921
 20
1679.749496429288
 30
0.0
 11
30617.604341291921
 21
1627.749496429288
 31
0.0
  0
LINE
  5
1213A
  8
YODOROGO
 10
31165.604341291921
 20
1907.7494964292871
 30
0.0
 11
31165.604341291921
 21
1635.7494964292871
 31
0.0
  0
LINE
  5
1213B
  8
YODOROGO
 10
29949.60434129191
 20
1667.749496429288
 30
0.0
 11
29949.60434129191
 21
1707.749496429288
 31
0.0
  0
LINE
  5
1213C
  8
YODOROGO
 10
29949.60434129191
 20
1667.749496429288
 30
0.0
 11
29949.60434129191
 21
1707.749496429288
 31
0.0
  0
ARC
  5
1213D
  8
YODOROGO
 10
30537.604341291921
 20
1507.749496429288
 30
0.0
 40
80.0
 50
270.0
 51
0.0
  0
LINE
  5
1213E
  8
YODOROGO
 10
30569.604341291921
 20
1599.7494964292871
 30
0.0
 11
30617.604341291921
 21
1599.7494964292871
 31
0.0
  0
LINE
  5
1213F
  8
YODOROGO
 10
30617.604341291921
 20
1627.749496429288
 30
0.0
 11
30529.604341291939
 21
1627.749496429288
 31
0.0
  0
LINE
  5
12140
  8
YODOROGO
 10
30217.604341291921
 20
1667.749496429288
 30
0.0
 11
29949.60434129191
 21
1667.749496429288
 31
0.0
  0
LINE
  5
12141
  8
YODOROGO
 10
30217.604341291921
 20
1627.749496429288
 30
0.0
 11
30217.604341291921
 21
1667.749496429288
 31
0.0
  0
LINE
  5
12142
  8
YODOROGO
 10
30017.604341291921
 20
1627.749496429288
 30
0.0
 11
30217.604341291921
 21
1627.749496429288
 31
0.0
  0
ARC
  5
12143
  8
YODOROGO
 10
30230.05882870136
 20
1868.885714952901
 30
0.0
 40
321.37763628522822
 50
228.6181454618993
 51
245.660289248906
  0
LINE
  5
12144
  8
YODOROGO
 10
30105.604341291921
 20
1603.7494964292871
 30
0.0
 11
30097.60434129195
 21
1576.0728158699001
 31
0.0
  0
LINE
  5
12145
  8
YODOROGO
 10
30189.604341291921
 20
1603.7494964292871
 30
0.0
 11
30105.604341291921
 21
1603.7494964292871
 31
0.0
  0
LINE
  5
12146
  8
YODOROGO
 10
30177.604341291921
 20
1551.817722473427
 30
0.0
 11
30189.604341291921
 21
1603.7494964292871
 31
0.0
  0
ARC
  5
12147
  8
YODOROGO
 10
30230.05882870045
 20
1868.885714953002
 30
0.0
 40
321.37763628529081
 50
260.60629297969911
 51
267.77903556555862
  0
LINE
  5
12148
  8
YODOROGO
 10
30217.604341291921
 20
1427.749496429285
 30
0.0
 11
30217.604341291921
 21
1547.749496429288
 31
0.0
  0
LINE
  5
12149
  8
YODOROGO
 10
29937.604341291932
 20
1481.3393349155101
 30
0.0
 11
29937.604341291921
 21
1594.531090531141
 31
0.0
  0
LINE
  5
1214A
  8
YODOROGO
 10
30217.604341291921
 20
1667.749496429288
 30
0.0
 11
29949.60434129191
 21
1667.749496429288
 31
0.0
  0
LINE
  5
1214B
  8
YODOROGO
 10
30217.604341291921
 20
1627.749496429288
 30
0.0
 11
30217.604341291921
 21
1667.749496429288
 31
0.0
  0
LINE
  5
1214C
  8
YODOROGO
 10
30017.604341291921
 20
1627.749496429288
 30
0.0
 11
30217.604341291921
 21
1627.749496429288
 31
0.0
  0
ARC
  5
1214D
  8
YODOROGO
 10
30230.05882870136
 20
1868.885714952901
 30
0.0
 40
321.37763628522822
 50
228.6181454618993
 51
245.660289248906
  0
LINE
  5
1214E
  8
YODOROGO
 10
30105.604341291921
 20
1603.7494964292871
 30
0.0
 11
30097.60434129195
 21
1576.0728158699001
 31
0.0
  0
LINE
  5
1214F
  8
YODOROGO
 10
30189.604341291921
 20
1603.7494964292871
 30
0.0
 11
30105.604341291921
 21
1603.7494964292871
 31
0.0
  0
LINE
  5
12150
  8
YODOROGO
 10
30177.604341291921
 20
1551.817722473427
 30
0.0
 11
30189.604341291921
 21
1603.7494964292871
 31
0.0
  0
ARC
  5
12151
  8
YODOROGO
 10
30230.05882870045
 20
1868.885714953002
 30
0.0
 40
321.37763628529081
 50
260.60629297969911
 51
267.77903556555862
  0
LINE
  5
12152
  8
YODOROGO
 10
30217.604341291921
 20
1427.749496429285
 30
0.0
 11
30217.604341291921
 21
1547.749496429288
 31
0.0
  0
LINE
  5
12153
  8
YODOROGO
 10
29937.604341291932
 20
1481.3393349155101
 30
0.0
 11
29937.604341291921
 21
1594.531090531141
 31
0.0
  0
LINE
  5
12154
  8
YODOROGO
 10
30433.604341291921
 20
1573.749496429288
 30
0.0
 11
30381.604341291932
 21
1573.749496429288
 31
0.0
  0
LINE
  5
12155
  8
YODOROGO
 10
30433.604341291921
 20
1601.749496429285
 30
0.0
 11
30433.604341291921
 21
1573.749496429288
 31
0.0
  0
LINE
  5
12156
  8
YODOROGO
 10
30381.604341291932
 20
1601.749496429285
 30
0.0
 11
30433.604341291921
 21
1601.749496429285
 31
0.0
  0
LINE
  5
12157
  8
YODOROGO
 10
30381.604341291932
 20
1573.749496429288
 30
0.0
 11
30381.604341291932
 21
1601.749496429285
 31
0.0
  0
LINE
  5
12158
  8
YODOROGO
 10
30429.604341291921
 20
1577.7494964292871
 30
0.0
 11
30385.604341291921
 21
1577.7494964292871
 31
0.0
  0
LINE
  5
12159
  8
YODOROGO
 10
30429.604341291921
 20
1597.749496429288
 30
0.0
 11
30429.604341291921
 21
1577.7494964292871
 31
0.0
  0
LINE
  5
1215A
  8
YODOROGO
 10
30385.604341291921
 20
1597.749496429288
 30
0.0
 11
30429.604341291921
 21
1597.749496429288
 31
0.0
  0
LINE
  5
1215B
  8
YODOROGO
 10
30385.604341291921
 20
1577.7494964292871
 30
0.0
 11
30385.604341291921
 21
1597.749496429288
 31
0.0
  0
LINE
  5
1215C
  8
YODOROGO
 10
30425.604341291921
 20
1581.749496429286
 30
0.0
 11
30389.604341291921
 21
1581.749496429286
 31
0.0
  0
LINE
  5
1215D
  8
YODOROGO
 10
30425.604341291921
 20
1593.749496429288
 30
0.0
 11
30425.604341291921
 21
1581.749496429286
 31
0.0
  0
LINE
  5
1215E
  8
YODOROGO
 10
30389.604341291921
 20
1593.749496429288
 30
0.0
 11
30425.604341291921
 21
1593.749496429288
 31
0.0
  0
LINE
  5
1215F
  8
YODOROGO
 10
30389.604341291921
 20
1581.749496429286
 30
0.0
 11
30389.604341291921
 21
1593.749496429288
 31
0.0
  0
LINE
  5
12160
  8
YODOROGO
 10
30421.604341291932
 20
1585.7494964292871
 30
0.0
 11
30393.604341291921
 21
1585.7494964292871
 31
0.0
  0
LINE
  5
12161
  8
YODOROGO
 10
30421.604341291932
 20
1589.749496429288
 30
0.0
 11
30421.604341291932
 21
1585.7494964292871
 31
0.0
  0
LINE
  5
12162
  8
YODOROGO
 10
30393.604341291921
 20
1589.749496429288
 30
0.0
 11
30421.604341291932
 21
1589.749496429288
 31
0.0
  0
LINE
  5
12163
  8
YODOROGO
 10
30393.604341291921
 20
1585.7494964292871
 30
0.0
 11
30393.604341291921
 21
1589.749496429288
 31
0.0
  0
LINE
  5
12164
  8
YODOROGO
 10
30465.604341291921
 20
1627.749496429288
 30
0.0
 11
30381.604341291932
 21
1627.749496429288
 31
0.0
  0
LINE
  5
12165
  8
YODOROGO
 10
30465.604341291921
 20
1547.749496429288
 30
0.0
 11
30465.604341291921
 21
1627.749496429288
 31
0.0
  0
LINE
  5
12166
  8
YODOROGO
 10
30381.604341291932
 20
1547.749496429288
 30
0.0
 11
30465.604341291921
 21
1547.749496429288
 31
0.0
  0
LINE
  5
12167
  8
YODOROGO
 10
30381.604341291932
 20
1427.749496429288
 30
0.0
 11
30381.604341291932
 21
1547.749496429288
 31
0.0
  0
LINE
  5
12168
  8
YODOROGO
 10
30537.604341291921
 20
1427.749496429288
 30
0.0
 11
30381.604341291932
 21
1427.749496429288
 31
0.0
  0
LINE
  5
12169
  8
YODOROGO
 10
30569.604341291921
 20
1571.749496429285
 30
0.0
 11
30569.604341291921
 21
1599.7494964292871
 31
0.0
  0
ARC
  5
1216A
  8
YODOROGO
 10
30545.604341291921
 20
1571.749496429291
 30
0.0
 40
24.000000000003752
 50
270.0
 51
359.99999999998772
  0
LINE
  5
1216B
  8
YODOROGO
 10
30529.604341291939
 20
1547.749496429288
 30
0.0
 11
30545.604341291921
 21
1547.749496429288
 31
0.0
  0
LINE
  5
1216C
  8
YODOROGO
 10
30529.604341291939
 20
1627.749496429288
 30
0.0
 11
30529.604341291939
 21
1547.749496429288
 31
0.0
  0
LINE
  5
1216D
  8
YODOROGO
 10
30899.604341291932
 20
1547.749496429288
 30
0.0
 11
30925.604341291921
 21
1547.749496429288
 31
0.0
  0
LINE
  5
1216E
  8
YODOROGO
 10
30933.604341291921
 20
1427.749496429288
 30
0.0
 11
30899.604341291932
 21
1427.749496429288
 31
0.0
  0
LINE
  5
1216F
  8
YODOROGO
 10
30763.604341291921
 20
1563.7494964292871
 30
0.0
 11
30791.604341291921
 21
1563.7494964292871
 31
0.0
  0
LINE
  5
12170
  8
YODOROGO
 10
30899.604341291932
 20
1491.749496429288
 30
0.0
 11
30723.604341291921
 21
1491.749496429288
 31
0.0
  0
LINE
  5
12171
  8
YODOROGO
 10
30831.604341291921
 20
1563.7494964292871
 30
0.0
 11
30859.604341291932
 21
1563.7494964292871
 31
0.0
  0
LINE
  5
12172
  8
YODOROGO
 10
30899.604341291932
 20
1427.749496429288
 30
0.0
 11
30899.604341291932
 21
1547.749496429288
 31
0.0
  0
LINE
  5
12173
  8
YODOROGO
 10
30697.604341291932
 20
1427.749496429288
 30
0.0
 11
30645.604341291921
 21
1427.749496429288
 31
0.0
  0
LINE
  5
12174
  8
YODOROGO
 10
30617.604341291921
 20
1599.7494964292871
 30
0.0
 11
30617.604341291921
 21
1507.749496429288
 31
0.0
  0
ARC
  5
12175
  8
YODOROGO
 10
30933.604341291921
 20
1467.749496429288
 30
0.0
 40
40.0
 50
270.0
 51
0.0
  0
LINE
  5
12176
  8
YODOROGO
 10
31093.604341291921
 20
1523.7494964292871
 30
0.0
 11
31093.604341291921
 21
1427.749496429288
 31
0.0
  0
ARC
  5
12177
  8
YODOROGO
 10
31039.721395566768
 20
1637.5313901097329
 30
0.0
 40
125.8955565916754
 50
295.34052442160112
 51
359.18902303418679
  0
LINE
  5
12178
  8
YODOROGO
 10
30617.604341291921
 20
1859.749496429288
 30
0.0
 11
30497.604341291921
 21
1939.749496429288
 31
0.0
  0
LINE
  5
12179
  8
YODOROGO
 10
30497.604341291921
 20
2027.749496429288
 30
0.0
 11
30617.604341291921
 21
1947.749496429288
 31
0.0
  0
LINE
  5
1217A
  8
YODOROGO
 10
30529.604341291939
 20
1679.749496429288
 30
0.0
 11
30617.604341291921
 21
1679.749496429288
 31
0.0
  0
LINE
  5
1217B
  8
YODOROGO
 10
30617.604341291921
 20
1735.7494964292871
 30
0.0
 11
30529.604341291939
 21
1735.7494964292871
 31
0.0
  0
LINE
  5
1217C
  8
YODOROGO
 10
30381.604341291932
 20
1795.7494964292871
 30
0.0
 11
30617.604341291921
 21
1795.7494964292871
 31
0.0
  0
LINE
  5
1217D
  8
YODOROGO
 10
30081.604341291921
 20
2027.749496429288
 30
0.0
 11
30021.604341291921
 21
2027.749496429288
 31
0.0
  0
LINE
  5
1217E
  8
YODOROGO
 10
30081.604341291921
 20
1827.7494964292871
 30
0.0
 11
30081.604341291921
 21
2027.749496429288
 31
0.0
  0
LINE
  5
1217F
  8
YODOROGO
 10
30021.604341291921
 20
1827.7494964292871
 30
0.0
 11
30081.604341291921
 21
1827.7494964292871
 31
0.0
  0
LINE
  5
12180
  8
YODOROGO
 10
30021.604341291921
 20
2027.749496429288
 30
0.0
 11
30021.604341291921
 21
1827.7494964292871
 31
0.0
  0
LINE
  5
12181
  8
YODOROGO
 10
30161.604341291921
 20
2027.749496429288
 30
0.0
 11
30217.604341291921
 21
2027.749496429288
 31
0.0
  0
LINE
  5
12182
  8
YODOROGO
 10
30161.604341291921
 20
1811.749496429288
 30
0.0
 11
30161.604341291921
 21
2027.749496429288
 31
0.0
  0
ARC
  5
12183
  8
YODOROGO
 10
30121.604341291921
 20
1811.749496429288
 30
0.0
 40
40.0
 50
270.0
 51
0.0
  0
LINE
  5
12184
  8
YODOROGO
 10
30021.604341291921
 20
1771.7494964292871
 30
0.0
 11
30121.604341291921
 21
1771.7494964292871
 31
0.0
  0
LINE
  5
12185
  8
YODOROGO
 10
30021.604341291921
 20
1707.749496429288
 30
0.0
 11
30021.604341291921
 21
1771.7494964292871
 31
0.0
  0
LINE
  5
12186
  8
YODOROGO
 10
30137.604341291921
 20
1707.749496429288
 30
0.0
 11
30021.604341291921
 21
1707.749496429288
 31
0.0
  0
ARC
  5
12187
  8
YODOROGO
 10
30137.604341291921
 20
1787.7494964292871
 30
0.0
 40
80.0
 50
270.0
 51
0.0
  0
LINE
  5
12188
  8
YODOROGO
 10
30217.604341291921
 20
2027.749496429288
 30
0.0
 11
30217.604341291921
 21
1787.7494964292871
 31
0.0
  0
LINE
  5
12189
  8
YODOROGO
 10
29977.604341291921
 20
1947.749496429288
 30
0.0
 11
29977.604341291921
 21
1995.7494964292871
 31
0.0
1001
AUTOCAD_POSTSCRIPT_FIGURE
1002
{
1000
PSFILL
1000
Grayscale
1000
Grayscale
1070
    25
1002
}
  0
LINE
  5
1218A
  8
YODOROGO
 10
29977.604341291921
 20
1859.749496429288
 30
0.0
 11
29977.604341291921
 21
1907.7494964292871
 31
0.0
1001
AUTOCAD_POSTSCRIPT_FIGURE
1002
{
1000
PSFILL
1000
Grayscale
1000
Grayscale
1070
    25
1002
}
  0
LINE
  5
1218B
  8
YODOROGO
 10
29977.604341291921
 20
1707.749496429288
 30
0.0
 11
29977.604341291921
 21
1819.7494964292871
 31
0.0
1001
AUTOCAD_POSTSCRIPT_FIGURE
1002
{
1000
PSFILL
1000
Grayscale
1000
Grayscale
1070
    25
1002
}
  0
LINE
  5
1218C
  8
YODOROGO
 10
30381.604341291932
 20
1907.7494964292871
 30
0.0
 11
30497.604341291921
 21
2027.749496429288
 31
0.0
  0
LINE
  5
1218D
  8
YODOROGO
 10
30381.604341291932
 20
1819.7494964292871
 30
0.0
 11
30381.604341291932
 21
1907.7494964292871
 31
0.0
  0
LINE
  5
1218E
  8
YODOROGO
 10
30497.604341291921
 20
1939.749496429288
 30
0.0
 11
30381.604341291932
 21
1819.7494964292871
 31
0.0
  0
LINE
  5
1218F
  8
YODOROGO
 10
30465.604341291921
 20
1679.749496429288
 30
0.0
 11
30465.604341291921
 21
1735.7494964292871
 31
0.0
  0
LINE
  5
12190
  8
YODOROGO
 10
30381.604341291932
 20
1679.749496429288
 30
0.0
 11
30465.604341291921
 21
1679.749496429288
 31
0.0
  0
LINE
  5
12191
  8
YODOROGO
 10
30529.604341291939
 20
1735.7494964292871
 30
0.0
 11
30529.604341291939
 21
1679.749496429288
 31
0.0
  0
LINE
  5
12192
  8
YODOROGO
 10
30381.604341291932
 20
1735.7494964292871
 30
0.0
 11
30381.604341291932
 21
1795.7494964292871
 31
0.0
  0
LINE
  5
12193
  8
YODOROGO
 10
30465.604341291921
 20
1735.7494964292871
 30
0.0
 11
30381.604341291932
 21
1735.7494964292871
 31
0.0
  0
LINE
  5
12194
  8
YODOROGO
 10
30645.604341291921
 20
2027.749496429288
 30
0.0
 11
30973.604341291921
 21
2027.749496429288
 31
0.0
  0
LINE
  5
12195
  8
YODOROGO
 10
30925.604341291921
 20
1963.749496429286
 30
0.0
 11
30697.604341291932
 21
1963.749496429286
 31
0.0
  0
LINE
  5
12196
  8
YODOROGO
 10
30873.604341291921
 20
1819.7494964292871
 30
0.0
 11
30899.604341291932
 21
1819.7494964292871
 31
0.0
  0
LINE
  5
12197
  8
YODOROGO
 10
30899.604341291932
 20
1939.749496429288
 30
0.0
 11
30873.604341291921
 21
1819.7494964292871
 31
0.0
  0
LINE
  5
12198
  8
YODOROGO
 10
30851.604341291939
 20
1939.749496429288
 30
0.0
 11
30899.604341291932
 21
1939.749496429288
 31
0.0
  0
LINE
  5
12199
  8
YODOROGO
 10
30825.604341291921
 20
1819.7494964292871
 30
0.0
 11
30851.604341291939
 21
1939.749496429288
 31
0.0
  0
LINE
  5
1219A
  8
YODOROGO
 10
30797.604341291921
 20
1819.7494964292871
 30
0.0
 11
30825.604341291921
 21
1819.7494964292871
 31
0.0
  0
LINE
  5
1219B
  8
YODOROGO
 10
30771.604341291939
 20
1939.749496429288
 30
0.0
 11
30797.604341291921
 21
1819.7494964292871
 31
0.0
  0
LINE
  5
1219C
  8
YODOROGO
 10
30723.604341291921
 20
1939.749496429288
 30
0.0
 11
30771.604341291939
 21
1939.749496429288
 31
0.0
  0
LINE
  5
1219D
  8
YODOROGO
 10
30749.604341291921
 20
1819.7494964292871
 30
0.0
 11
30723.604341291921
 21
1939.749496429288
 31
0.0
  0
LINE
  5
1219E
  8
YODOROGO
 10
30723.604341291921
 20
1819.7494964292871
 30
0.0
 11
30749.604341291921
 21
1819.7494964292871
 31
0.0
  0
LINE
  5
1219F
  8
YODOROGO
 10
30723.604341291921
 20
1755.7494964292871
 30
0.0
 11
30723.604341291921
 21
1819.7494964292871
 31
0.0
  0
LINE
  5
121A0
  8
YODOROGO
 10
30899.604341291932
 20
1755.7494964292871
 30
0.0
 11
30723.604341291921
 21
1755.7494964292871
 31
0.0
  0
LINE
  5
121A1
  8
YODOROGO
 10
30899.604341291932
 20
1819.7494964292871
 30
0.0
 11
30899.604341291932
 21
1755.7494964292871
 31
0.0
  0
LINE
  5
121A2
  8
YODOROGO
 10
30617.604341291921
 20
1947.749496429288
 30
0.0
 11
30617.604341291921
 21
1859.749496429288
 31
0.0
  0
LINE
  5
121A3
  8
YODOROGO
 10
30791.604341291921
 20
1755.7494964292871
 30
0.0
 11
30831.604341291921
 21
1755.7494964292871
 31
0.0
  0
LINE
  5
121A4
  8
YODOROGO
 10
30723.604341291921
 20
1691.749496429288
 30
0.0
 11
30763.604341291921
 21
1691.749496429288
 31
0.0
  0
LINE
  5
121A5
  8
YODOROGO
 10
30859.604341291932
 20
1691.749496429288
 30
0.0
 11
30899.604341291932
 21
1691.749496429288
 31
0.0
  0
LINE
  5
121A6
  8
YODOROGO
 10
30617.604341291921
 20
1795.7494964292871
 30
0.0
 11
30617.604341291921
 21
1735.7494964292871
 31
0.0
  0
LINE
  5
121A7
  8
YODOROGO
 10
31165.604341291921
 20
2027.749496429288
 30
0.0
 11
31165.604341291921
 21
1963.749496429286
 31
0.0
  0
LINE
  5
121A8
  8
YODOROGO
 10
31533.604341291921
 20
1595.7494964292871
 30
0.0
 11
31533.60434129191
 21
1811.749496429288
 31
0.0
  0
LINE
  5
121A9
  8
YODOROGO
 10
31461.60434129191
 20
1987.7494964292871
 30
0.0
 11
31461.60434129191
 21
1635.7494964292871
 31
0.0
  0
LINE
  5
121AA
  8
YODOROGO
 10
31653.604341291921
 20
1427.749496429288
 30
0.0
 11
31653.60434129191
 21
1811.749496429288
 31
0.0
  0
LINE
  5
121AB
  8
YODOROGO
 10
31589.604341291921
 20
1811.749496429288
 30
0.0
 11
31589.604341291921
 21
1427.749496429288
 31
0.0
  0
LINE
  5
121AC
  8
YODOROGO
 10
31237.604341291921
 20
1595.7494964292871
 30
0.0
 11
31237.604341291921
 21
1707.749496429288
 31
0.0
  0
ARC
  5
121AD
  8
YODOROGO
 10
31353.914865116069
 20
1607.790351288558
 30
0.0
 40
180.0924485759885
 50
268.62849102169793
 51
356.16638457330322
  0
LINE
  5
121AE
  8
YODOROGO
 10
31349.604341291939
 20
1527.749496429288
 30
0.0
 11
31349.604341291939
 21
1427.749496429288
 31
0.0
  0
ARC
  5
121AF
  8
YODOROGO
 10
31351.518075724562
 20
1637.838957017655
 30
0.0
 40
110.1060929836122
 50
269.00410209305932
 51
358.91264455492478
  0
LINE
  5
121B0
  8
YODOROGO
 10
31589.604341291921
 20
1427.749496429288
 30
0.0
 11
31653.604341291921
 21
1427.749496429288
 31
0.0
  0
LINE
  5
121B1
  8
YODOROGO
 10
31533.60434129191
 20
1811.749496429288
 30
0.0
 11
31589.604341291921
 21
1811.749496429288
 31
0.0
  0
LINE
  5
121B2
  8
YODOROGO
 10
31621.604341291939
 20
1987.7494964292871
 30
0.0
 11
31461.60434129191
 21
1987.7494964292871
 31
0.0
  0
LINE
  5
121B3
  8
YODOROGO
 10
31533.60434129191
 20
1915.7494964292871
 30
0.0
 11
31661.604341291939
 21
1915.7494964292871
 31
0.0
  0
LINE
  5
121B4
  8
YODOROGO
 10
31701.604341291939
 20
1875.7494964292871
 30
0.0
 11
31533.60434129191
 21
1875.7494964292871
 31
0.0
  0
LINE
  5
121B5
  8
YODOROGO
 10
31237.604341291921
 20
1779.749496429288
 30
0.0
 11
31349.604341291939
 21
1779.749496429288
 31
0.0
  0
LINE
  5
121B6
  8
YODOROGO
 10
31237.604341291921
 20
1835.7494964292871
 30
0.0
 11
31237.604341291921
 21
1779.749496429288
 31
0.0
  0
LINE
  5
121B7
  8
YODOROGO
 10
31349.604341291939
 20
1835.7494964292871
 30
0.0
 11
31237.604341291921
 21
1835.7494964292871
 31
0.0
  0
LINE
  5
121B8
  8
YODOROGO
 10
31349.604341291939
 20
1779.749496429288
 30
0.0
 11
31349.604341291939
 21
1835.7494964292871
 31
0.0
  0
LINE
  5
121B9
  8
YODOROGO
 10
31533.60434129191
 20
1875.7494964292871
 30
0.0
 11
31533.60434129191
 21
1915.7494964292871
 31
0.0
  0
LINE
  5
121BA
  8
YODOROGO
 10
31413.604341291921
 20
1707.749496429288
 30
0.0
 11
31413.604341291921
 21
1907.7494964292871
 31
0.0
  0
LINE
  5
121BB
  8
YODOROGO
 10
31237.604341291921
 20
1707.749496429288
 30
0.0
 11
31413.604341291921
 21
1707.749496429288
 31
0.0
  0
LINE
  5
121BC
  8
YODOROGO
 10
31413.604341291921
 20
1963.749496429286
 30
0.0
 11
31413.604341291921
 21
2027.749496429288
 31
0.0
  0
ARC
  5
121BD
  8
YODOROGO
 10
31621.604341291939
 20
2003.749496429285
 30
0.0
 40
15.999999999994539
 50
270.0
 51
0.0000000000081422
  0
LINE
  5
121BE
  8
YODOROGO
 10
31637.604341291921
 20
2027.749496429288
 30
0.0
 11
31637.604341291921
 21
2003.7494964292871
 31
0.0
  0
LINE
  5
121BF
  8
YODOROGO
 10
31701.604341291939
 20
2027.749496429288
 30
0.0
 11
31637.604341291921
 21
2027.749496429288
 31
0.0
  0
LINE
  5
121C0
  8
YODOROGO
 10
31701.604341291939
 20
1955.7494964292871
 30
0.0
 11
31701.604341291939
 21
2027.749496429288
 31
0.0
  0
ARC
  5
121C1
  8
YODOROGO
 10
31661.604341291939
 20
1955.7494964292871
 30
0.0
 40
40.0
 50
270.0
 51
0.0
  0
LINE
  5
121C2
  8
YODOROGO
 10
31701.604341291939
 20
1811.749496429288
 30
0.0
 11
31701.604341291939
 21
1875.7494964292871
 31
0.0
  0
LINE
  5
121C3
  8
YODOROGO
 10
31653.60434129191
 20
1811.749496429288
 30
0.0
 11
31701.604341291939
 21
1811.749496429288
 31
0.0
  0
LINE
  5
121C4
  8
SUNPOU
  6
CONTINUOUS
 62
     4
 10
20752.283799817349
 20
19440.486978000001
 30
0.0
 11
20752.283799817349
 21
20240.487902000001
 31
0.0
  0
LINE
  5
121C5
  8
SUNPOU
  6
CONTINUOUS
 62
     4
 10
21453.283799817349
 20
19440.486978000001
 30
0.0
 11
21453.283799817349
 21
20240.487902000001
 31
0.0
  0
LINE
  5
121C6
  8
SUNPOU
  6
CONTINUOUS
 62
     4
 10
20752.283799817349
 20
20160.487902000001
 30
0.0
 11
21453.283799817349
 21
20160.487902000001
 31
0.0
  0
LINE
  5
121C7
  8
0-6
  6
CONTINUOUS
 62
     6
 10
11365.10880412886
 20
13500.268349090669
 30
0.0
 11
11423.858802757581
 21
13651.48634400001
 31
0.0
  0
LINE
  5
121C8
  8
0-6
  6
CONTINUOUS
 62
     6
 10
11423.858802757581
 20
13651.48634400001
 30
0.0
 11
11319.247811070771
 21
13527.49043785156
 31
0.0
  0
LINE
  5
121C9
  8
0-6
  6
CONTINUOUS
 62
     6
 10
11319.247811070771
 20
13527.49043785156
 30
0.0
 11
11365.10880412886
 21
13500.268349090669
 31
0.0
  0
LINE
  5
121CA
  8
0-6
  6
CONTINUOUS
 62
     6
 10
12999.62141612603
 20
19145.331802639641
 30
0.0
 11
12883.370407627899
 21
19258.48721499999
 31
0.0
  0
LINE
  5
121CB
  8
0-6
  6
CONTINUOUS
 62
     6
 10
12883.370407627899
 20
19258.48721499999
 30
0.0
 11
13030.03271290768
 21
19189.143054948159
 31
0.0
  0
LINE
  5
121CC
  8
0-6
  6
CONTINUOUS
 62
     6
 10
13030.03271290768
 20
19189.143054948159
 30
0.0
 11
12999.62141612603
 21
19145.331802639641
 31
0.0
  0
LINE
  5
121CD
  8
SUNPOU
  6
CONTINUOUS
 62
     4
 10
20238.281938817359
 20
8669.6883999999955
 30
0.0
 11
20238.281938817359
 21
9869.1329740000037
 31
0.0
  0
LINE
  5
121CE
  8
SUNPOU
  6
CONTINUOUS
 62
     4
 10
26477.78193881737
 20
8669.6883999999955
 30
0.0
 11
26477.78193881737
 21
9869.1329740000037
 31
0.0
  0
LINE
  5
121CF
  8
SUNPOU
  6
CONTINUOUS
 62
     4
 10
20241.281938817359
 20
9789.1329740000037
 30
0.0
 11
26474.78193881737
 21
9789.1329740000037
 31
0.0
  0
LINE
  5
121D0
  8
SUNPOU
  6
CONTINUOUS
 62
     4
 10
26434.78193881737
 20
8669.6883999999955
 30
0.0
 11
26434.78193881737
 21
9469.1900500000029
 31
0.0
  0
LINE
  5
121D1
  8
SUNPOU
  6
CONTINUOUS
 62
     4
 10
26477.78193881737
 20
8669.6883999999955
 30
0.0
 11
26477.78193881737
 21
9469.1900500000029
 31
0.0
  0
LINE
  5
121D2
  8
SUNPOU
  6
CONTINUOUS
 62
     4
 10
26434.78193881737
 20
9389.1900500000029
 30
0.0
 11
26194.78193881737
 21
9389.1900500000029
 31
0.0
  0
LINE
  5
121D3
  8
SUNPOU
  6
CONTINUOUS
 62
     4
 10
26474.78193881737
 20
9389.1900500000029
 30
0.0
 11
26714.78193881737
 21
9389.1900500000029
 31
0.0
  0
LINE
  5
121D4
  8
SUNPOU
  6
CONTINUOUS
 62
     4
 10
26434.78193881737
 20
9389.1900500000029
 30
0.0
 11
26474.78193881737
 21
9389.1900500000029
 31
0.0
  0
LINE
  5
121D5
  8
SUNPOU
  6
CONTINUOUS
 62
     4
 10
20281.281938817359
 20
8539.6884659999996
 30
0.0
 11
20281.281938817359
 21
9469.1900500000029
 31
0.0
  0
LINE
  5
121D6
  8
SUNPOU
  6
CONTINUOUS
 62
     4
 10
20238.281938817359
 20
8669.6883999999955
 30
0.0
 11
20238.281938817359
 21
9469.1900500000029
 31
0.0
  0
LINE
  5
121D7
  8
SUNPOU
  6
CONTINUOUS
 62
     4
 10
20281.281938817359
 20
9389.1900500000029
 30
0.0
 11
20521.281938817359
 21
9389.1900500000029
 31
0.0
  0
LINE
  5
121D8
  8
SUNPOU
  6
CONTINUOUS
 62
     4
 10
20241.281938817359
 20
9389.1900500000029
 30
0.0
 11
20001.281938817359
 21
9389.1900500000029
 31
0.0
  0
LINE
  5
121D9
  8
SUNPOU
  6
CONTINUOUS
 62
     4
 10
20281.281938817359
 20
9389.1900500000029
 30
0.0
 11
20241.281938817359
 21
9389.1900500000029
 31
0.0
  0
LINE
  5
121DA
  8
SUNPOU
  6
CONTINUOUS
 62
     4
 10
23634.78193881737
 20
8539.6884659999996
 30
0.0
 11
23634.78193881737
 21
9469.1900500000029
 31
0.0
  0
LINE
  5
121DB
  8
SUNPOU
  6
CONTINUOUS
 62
     4
 10
20281.281938817359
 20
8539.6884659999996
 30
0.0
 11
20281.281938817359
 21
9469.1900500000029
 31
0.0
  0
LINE
  5
121DC
  8
SUNPOU
  6
CONTINUOUS
 62
     4
 10
23634.78193881737
 20
9389.1900500000029
 30
0.0
 11
20281.281938817359
 21
9389.1900500000029
 31
0.0
  0
LINE
  5
121DD
  8
SUNPOU
  6
CONTINUOUS
 62
     4
 10
20193.779299817372
 20
6241.1883740000021
 30
0.0
 11
18993.77929981735
 21
6241.1883740000021
 31
0.0
  0
LINE
  5
121DE
  8
SUNPOU
  6
CONTINUOUS
 62
     4
 10
20161.281938817359
 20
8589.6883999999973
 30
0.0
 11
18993.77929981735
 21
8589.6883999999973
 31
0.0
  0
LINE
  5
121DF
  8
SUNPOU
  6
CONTINUOUS
 62
     4
 10
19073.779299817361
 20
6241.1883740000021
 30
0.0
 11
19073.779299817361
 21
8589.6883999999973
 31
0.0
  0
LINE
  5
121E0
  8
SUNPOU
  6
CONTINUOUS
 62
     4
 10
20193.779299817372
 20
6241.1883740000021
 30
0.0
 11
19393.778639817381
 21
6241.1883740000021
 31
0.0
  0
LINE
  5
121E1
  8
SUNPOU
  6
CONTINUOUS
 62
     4
 10
20286.278243817389
 20
8132.6883740000021
 30
0.0
 11
19393.778639817381
 21
8132.6883740000021
 31
0.0
  0
LINE
  5
121E2
  8
SUNPOU
  6
CONTINUOUS
 62
     4
 10
19473.778639817381
 20
6241.1883740000021
 30
0.0
 11
19473.778639817381
 21
8132.6883740000021
 31
0.0
  0
LINE
  5
121E3
  8
SUNPOU
  6
CONTINUOUS
 62
     4
 10
23637.78193881737
 20
6161.1883740000021
 30
0.0
 11
23637.78193881737
 21
5261.188374000003
 31
0.0
  0
LINE
  5
121E4
  8
SUNPOU
  6
CONTINUOUS
 62
     4
 10
26349.781938817381
 20
6061.1885389999989
 30
0.0
 11
26349.781938817381
 21
5261.188374000003
 31
0.0
  0
LINE
  5
121E5
  8
SUNPOU
  6
CONTINUOUS
 62
     4
 10
23637.78193881737
 20
5341.188374000003
 30
0.0
 11
26349.781938817381
 21
5341.188374000003
 31
0.0
  0
LINE
  5
121E6
  8
SUNPOU
  6
CONTINUOUS
 62
     4
 10
20281.32189176491
 20
6161.1883740000021
 30
0.0
 11
20281.32189176491
 21
4461.1887040000574
 31
0.0
  0
LINE
  5
121E7
  8
SUNPOU
  6
CONTINUOUS
 62
     4
 10
26434.78193881737
 20
6061.1885389999989
 30
0.0
 11
26434.78193881737
 21
4461.1887040000574
 31
0.0
  0
LINE
  5
121E8
  8
SUNPOU
  6
CONTINUOUS
 62
     4
 10
20281.32189176491
 20
4541.1887040000556
 30
0.0
 11
26434.78193881737
 21
4541.1887040000556
 31
0.0
  0
LINE
  5
121E9
  8
SUNPOU
  6
CONTINUOUS
 62
     4
 10
20323.781938817359
 20
5798.5361160000011
 30
0.0
 11
20323.781938817359
 21
4861.1885389999998
 31
0.0
  0
LINE
  5
121EA
  8
SUNPOU
  6
CONTINUOUS
 62
     4
 10
20281.32189176491
 20
6161.1883740000021
 30
0.0
 11
20281.32189176491
 21
4861.1885389999998
 31
0.0
  0
LINE
  5
121EB
  8
SUNPOU
  6
CONTINUOUS
 62
     4
 10
20323.781938817359
 20
4941.1885390000016
 30
0.0
 11
20563.781938817359
 21
4941.1885390000016
 31
0.0
  0
LINE
  5
121EC
  8
SUNPOU
  6
CONTINUOUS
 62
     4
 10
20281.32189176491
 20
4941.1885390000016
 30
0.0
 11
20041.32189176491
 21
4941.1885390000016
 31
0.0
  0
LINE
  5
121ED
  8
SUNPOU
  6
CONTINUOUS
 62
     4
 10
20323.781938817359
 20
4941.1885390000016
 30
0.0
 11
20281.32189176491
 21
4941.1885390000016
 31
0.0
  0
LINE
  5
121EE
  8
SUNPOU
  6
CONTINUOUS
 62
     4
 10
23592.28193881737
 20
5798.5361160000011
 30
0.0
 11
23592.28193881737
 21
4861.1885389999998
 31
0.0
  0
LINE
  5
121EF
  8
SUNPOU
  6
CONTINUOUS
 62
     4
 10
20323.781938817359
 20
5798.5361160000011
 30
0.0
 11
20323.781938817359
 21
4861.1885389999998
 31
0.0
  0
LINE
  5
121F0
  8
SUNPOU
  6
CONTINUOUS
 62
     4
 10
23592.28193881737
 20
4941.1885390000016
 30
0.0
 11
20323.781938817359
 21
4941.1885390000016
 31
0.0
  0
LINE
  5
121F1
  8
SUNPOU
  6
CONTINUOUS
 62
     4
 10
20417.781938817359
 20
6061.1885389999989
 30
0.0
 11
20417.781938817359
 21
5261.188374000003
 31
0.0
  0
LINE
  5
121F2
  8
SUNPOU
  6
CONTINUOUS
 62
     4
 10
23498.281938817359
 20
6061.1885389999989
 30
0.0
 11
23498.281938817359
 21
5261.188374000003
 31
0.0
  0
LINE
  5
121F3
  8
SUNPOU
  6
CONTINUOUS
 62
     4
 10
20417.781938817359
 20
5341.188374000003
 30
0.0
 11
23498.281938817359
 21
5341.188374000003
 31
0.0
  0
LINE
  5
121F4
  8
SUNPOU
  6
CONTINUOUS
 62
     4
 10
26392.28193881737
 20
5798.5361160000011
 30
0.0
 11
26392.28193881737
 21
4861.1885389999998
 31
0.0
  0
LINE
  5
121F5
  8
SUNPOU
  6
CONTINUOUS
 62
     4
 10
26434.78193881737
 20
6061.1885389999989
 30
0.0
 11
26434.78193881737
 21
4861.1885389999998
 31
0.0
  0
LINE
  5
121F6
  8
SUNPOU
  6
CONTINUOUS
 62
     4
 10
26392.28193881737
 20
4941.1885390000016
 30
0.0
 11
26152.28193881737
 21
4941.1885390000016
 31
0.0
  0
LINE
  5
121F7
  8
SUNPOU
  6
CONTINUOUS
 62
     4
 10
26434.78193881737
 20
4941.1885390000016
 30
0.0
 11
26674.78193881737
 21
4941.1885390000016
 31
0.0
  0
LINE
  5
121F8
  8
SUNPOU
  6
CONTINUOUS
 62
     4
 10
26392.28193881737
 20
4941.1885390000016
 30
0.0
 11
26434.78193881737
 21
4941.1885390000016
 31
0.0
  0
LINE
  5
121F9
  8
SUNPOU
  6
CONTINUOUS
 62
     4
 10
23592.28193881737
 20
5798.5361160000011
 30
0.0
 11
23592.28193881737
 21
4861.1885389999998
 31
0.0
  0
LINE
  5
121FA
  8
SUNPOU
  6
CONTINUOUS
 62
     4
 10
26392.28193881737
 20
5798.5361160000011
 30
0.0
 11
26392.28193881737
 21
4861.1885389999998
 31
0.0
  0
LINE
  5
121FB
  8
SUNPOU
  6
CONTINUOUS
 62
     4
 10
23592.28193881737
 20
4941.1885390000016
 30
0.0
 11
26392.28193881737
 21
4941.1885390000016
 31
0.0
  0
LINE
  5
121FC
  8
SUNPOU
  6
CONTINUOUS
 62
     4
 10
23634.78193881737
 20
8539.6884659999996
 30
0.0
 11
23634.78193881737
 21
9469.1900500000029
 31
0.0
  0
LINE
  5
121FD
  8
SUNPOU
  6
CONTINUOUS
 62
     4
 10
26434.78193881737
 20
8669.6883999999955
 30
0.0
 11
26434.78193881737
 21
9469.1900500000029
 31
0.0
  0
LINE
  5
121FE
  8
SUNPOU
  6
CONTINUOUS
 62
     4
 10
23634.78193881737
 20
9389.1900500000029
 30
0.0
 11
26434.78193881737
 21
9389.1900500000029
 31
0.0
  0
LINE
  5
121FF
  8
SUNPOU
  6
CONTINUOUS
 62
     4
 10
26514.78193881737
 20
6242.0026620000026
 30
0.0
 11
27724.604337111748
 21
6242.0026619999999
 31
0.0
  0
LINE
  5
12200
  8
SUNPOU
  6
CONTINUOUS
 62
     4
 10
26554.78193881737
 20
8262.0026620000026
 30
0.0
 11
27724.604337111759
 21
8262.0026620000026
 31
0.0
  0
LINE
  5
12201
  8
SUNPOU
  6
CONTINUOUS
 62
     4
 10
27644.604337111748
 20
6242.0026619999999
 30
0.0
 11
27644.604337111759
 21
8262.0026620000026
 31
0.0
  0
LINE
  5
12202
  8
0-6
  6
CONTINUOUS
 62
     6
 10
26280.29702918122
 20
19102.390205253349
 30
0.0
 11
26386.625053129199
 21
19224.886437000001
 31
0.0
  0
LINE
  5
12203
  8
0-6
  6
CONTINUOUS
 62
     6
 10
26386.625053129199
 20
19224.886437000001
 30
0.0
 11
26325.772933535922
 21
19074.52513032455
 31
0.0
  0
LINE
  5
12204
  8
0-6
  6
CONTINUOUS
 62
     6
 10
26325.772933535922
 20
19074.52513032455
 30
0.0
 11
26280.29702918122
 21
19102.390205253349
 31
0.0
  0
LINE
  5
12205
  8
0-6
  6
CONTINUOUS
 62
     6
 10
26308.481374687199
 20
19518.20376193268
 30
0.0
 11
26377.525053129171
 21
19371.42520104588
 31
0.0
  0
LINE
  5
12206
  8
0-6
  6
CONTINUOUS
 62
     6
 10
26377.525053129171
 20
19371.42520104588
 30
0.0
 11
26264.608052950021
 21
19487.87799867084
 31
0.0
  0
LINE
  5
12207
  8
0-6
  6
CONTINUOUS
 62
     6
 10
26264.608052950021
 20
19487.87799867084
 30
0.0
 11
26308.481374687199
 21
19518.20376193268
 31
0.0
  0
LINE
  5
12208
  8
0-6
  6
CONTINUOUS
 62
     6
 10
26280.29702918122
 20
16935.08277374665
 30
0.0
 11
26386.625053129199
 21
16812.586542000001
 31
0.0
  0
LINE
  5
12209
  8
0-6
  6
CONTINUOUS
 62
     6
 10
26386.625053129199
 20
16812.586542000001
 30
0.0
 11
26325.772933535922
 21
16962.947848675441
 31
0.0
  0
LINE
  5
1220A
  8
0-6
  6
CONTINUOUS
 62
     6
 10
26325.772933535922
 20
16962.947848675441
 30
0.0
 11
26280.29702918122
 21
16935.08277374665
 31
0.0
  0
LINE
  5
1220B
  8
0-6
  6
CONTINUOUS
 62
     6
 10
26280.29702918122
 20
14027.58320974665
 30
0.0
 11
26386.625053129199
 21
13905.086977999999
 31
0.0
  0
LINE
  5
1220C
  8
0-6
  6
CONTINUOUS
 62
     6
 10
26386.625053129199
 20
13905.086977999999
 30
0.0
 11
26325.772933535922
 21
14055.448284675451
 31
0.0
  0
LINE
  5
1220D
  8
0-6
  6
CONTINUOUS
 62
     6
 10
26325.772933535922
 20
14055.448284675451
 30
0.0
 11
26280.29702918122
 21
14027.58320974665
 31
0.0
  0
LINE
  5
1220E
  8
0-6
  6
CONTINUOUS
 62
     6
 10
26308.481374687199
 20
16519.2692170673
 30
0.0
 11
26377.525053129171
 21
16666.047777954122
 31
0.0
  0
LINE
  5
1220F
  8
0-6
  6
CONTINUOUS
 62
     6
 10
26377.525053129171
 20
16666.047777954122
 30
0.0
 11
26264.608052950021
 21
16549.594980329151
 31
0.0
  0
LINE
  5
12210
  8
0-6
  6
CONTINUOUS
 62
     6
 10
26264.608052950021
 20
16549.594980329151
 30
0.0
 11
26308.481374687199
 21
16519.2692170673
 31
0.0
  0
LINE
  5
12211
  8
0-6
  6
CONTINUOUS
 62
     6
 10
26308.481374687199
 20
13631.708417113179
 30
0.0
 11
26377.525053129171
 21
13778.486978000001
 31
0.0
  0
LINE
  5
12212
  8
0-6
  6
CONTINUOUS
 62
     6
 10
26377.525053129171
 20
13778.486978000001
 30
0.0
 11
26264.608052950021
 21
13662.03418037502
 31
0.0
  0
LINE
  5
12213
  8
0-6
  6
CONTINUOUS
 62
     6
 10
26264.608052950021
 20
13662.03418037502
 30
0.0
 11
26308.481374687199
 21
13631.708417113179
 31
0.0
  0
LINE
  5
1222C
  8
SUNPOU
  6
CONTINUOUS
 62
     4
 10
23613.283799817342
 20
19440.486978000001
 30
0.0
 11
23613.283799817342
 21
20240.487902000001
 31
0.0
  0
LINE
  5
1222D
  8
SUNPOU
  6
CONTINUOUS
 62
     4
 10
23655.783799817349
 20
19440.486978000001
 30
0.0
 11
23655.783799817349
 21
20240.487902000001
 31
0.0
  0
LINE
  5
1222E
  8
SUNPOU
  6
CONTINUOUS
 62
     4
 10
23613.283799817342
 20
20160.487902000001
 30
0.0
 11
23373.283799817342
 21
20160.487902000001
 31
0.0
  0
LINE
  5
1222F
  8
SUNPOU
  6
CONTINUOUS
 62
     4
 10
23655.783799817349
 20
20160.487902000001
 30
0.0
 11
23895.783799817349
 21
20160.487902000001
 31
0.0
  0
LINE
  5
12230
  8
SUNPOU
  6
CONTINUOUS
 62
     4
 10
23613.283799817342
 20
20160.487902000001
 30
0.0
 11
23655.783799817349
 21
20160.487902000001
 31
0.0
  0
LINE
  5
12231
  8
SUNPOU
  6
CONTINUOUS
 62
     4
 10
22855.283799817349
 20
19440.486978000001
 30
0.0
 11
22855.283799817349
 21
20240.487902000001
 31
0.0
  0
LINE
  5
12232
  8
SUNPOU
  6
CONTINUOUS
 62
     4
 10
23613.283799817342
 20
19440.486978000001
 30
0.0
 11
23613.283799817342
 21
20240.487902000001
 31
0.0
  0
LINE
  5
12233
  8
SUNPOU
  6
CONTINUOUS
 62
     4
 10
22855.283799817349
 20
20160.487902000001
 30
0.0
 11
23613.283799817342
 21
20160.487902000001
 31
0.0
  0
LINE
  5
12234
  8
SUNPOU
  6
CONTINUOUS
 62
     4
 10
22154.283799817349
 20
19440.486978000001
 30
0.0
 11
22154.283799817349
 21
20240.487902000001
 31
0.0
  0
LINE
  5
12235
  8
SUNPOU
  6
CONTINUOUS
 62
     4
 10
22855.283799817349
 20
19440.486978000001
 30
0.0
 11
22855.283799817349
 21
20240.487902000001
 31
0.0
  0
LINE
  5
12236
  8
SUNPOU
  6
CONTINUOUS
 62
     4
 10
22154.283799817349
 20
20160.487902000001
 30
0.0
 11
22855.283799817349
 21
20160.487902000001
 31
0.0
  0
LINE
  5
12237
  8
SUNPOU
  6
CONTINUOUS
 62
     4
 10
21453.283799817349
 20
19440.486978000001
 30
0.0
 11
21453.283799817349
 21
20240.487902000001
 31
0.0
  0
LINE
  5
12238
  8
SUNPOU
  6
CONTINUOUS
 62
     4
 10
22154.283799817349
 20
19440.486978000001
 30
0.0
 11
22154.283799817349
 21
20240.487902000001
 31
0.0
  0
LINE
  5
12239
  8
SUNPOU
  6
CONTINUOUS
 62
     4
 10
21453.283799817349
 20
20160.487902000001
 30
0.0
 11
22154.283799817349
 21
20160.487902000001
 31
0.0
  0
LINE
  5
1223A
  8
SUNPOU
  6
CONTINUOUS
 62
     4
 10
20344.783799817342
 20
19520.489484999991
 30
0.0
 11
20344.783799817342
 21
20240.487902000001
 31
0.0
  0
LINE
  5
1223B
  8
SUNPOU
  6
CONTINUOUS
 62
     4
 10
20752.283799817349
 20
19440.486978000001
 30
0.0
 11
20752.283799817349
 21
20240.487902000001
 31
0.0
  0
LINE
  5
1223C
  8
SUNPOU
  6
CONTINUOUS
 62
     4
 10
20344.783799817342
 20
20160.487902000001
 30
0.0
 11
20752.283799817349
 21
20160.487902000001
 31
0.0
  0
LINE
  5
1223D
  8
SUNPOU
  6
CONTINUOUS
 62
     4
 10
20344.783799817342
 20
19520.489484999991
 30
0.0
 11
20344.783799817342
 21
20240.487902000001
 31
0.0
  0
LINE
  5
1223E
  8
SUNPOU
  6
CONTINUOUS
 62
     4
 10
20302.283799817349
 20
19440.486978000001
 30
0.0
 11
20302.283799817349
 21
20240.487902000001
 31
0.0
  0
LINE
  5
1223F
  8
SUNPOU
  6
CONTINUOUS
 62
     4
 10
20344.783799817342
 20
20160.487902000001
 30
0.0
 11
20584.783799817342
 21
20160.487902000001
 31
0.0
  0
LINE
  5
12240
  8
SUNPOU
  6
CONTINUOUS
 62
     4
 10
20302.283799817349
 20
20160.487902000001
 30
0.0
 11
20062.283799817349
 21
20160.487902000001
 31
0.0
  0
LINE
  5
12241
  8
SUNPOU
  6
CONTINUOUS
 62
     4
 10
20344.783799817342
 20
20160.487902000001
 30
0.0
 11
20302.283799817349
 21
20160.487902000001
 31
0.0
  0
LINE
  5
1224F
  8
SUNPOU
  6
CONTINUOUS
 62
     4
 10
23613.283799817342
 20
20560.487902000001
 30
0.0
 11
26413.283799817349
 21
20560.487902000001
 31
0.0
  0
LINE
  5
12250
  8
SUNPOU
  6
CONTINUOUS
 62
     4
 10
20344.783799817342
 20
20560.487902000001
 30
0.0
 11
23613.283799817342
 21
20560.487902000001
 31
0.0
  0
LINE
  5
12251
  8
SUNPOU
  6
CONTINUOUS
 62
     4
 10
26413.283799817349
 20
19684.936751877329
 30
0.0
 11
26413.283799817349
 21
20240.487902000001
 31
0.0
  0
LINE
  5
12252
  8
SUNPOU
  6
CONTINUOUS
 62
     4
 10
26370.78155681735
 20
19523.837242000001
 30
0.0
 11
26370.78155681735
 21
20240.487902000001
 31
0.0
  0
LINE
  5
12253
  8
SUNPOU
  6
CONTINUOUS
 62
     4
 10
26413.283799817349
 20
20160.487902000001
 30
0.0
 11
26653.283799817349
 21
20160.487902000001
 31
0.0
  0
LINE
  5
12254
  8
SUNPOU
  6
CONTINUOUS
 62
     4
 10
26370.78155681735
 20
20160.487902000001
 30
0.0
 11
26130.78155681735
 21
20160.487902000001
 31
0.0
  0
LINE
  5
12255
  8
SUNPOU
  6
CONTINUOUS
 62
     4
 10
26413.283799817349
 20
20160.487902000001
 30
0.0
 11
26370.78155681735
 21
20160.487902000001
 31
0.0
  0
LINE
  5
12256
  8
SUNPOU
  6
CONTINUOUS
 62
     4
 10
26413.283799817349
 20
19684.936751877329
 30
0.0
 11
26413.283799817349
 21
20240.487902000001
 31
0.0
  0
LINE
  5
12257
  8
SUNPOU
  6
CONTINUOUS
 62
     4
 10
26455.78208481734
 20
19520.489484999991
 30
0.0
 11
26455.78208481734
 21
20240.487902000001
 31
0.0
  0
LINE
  5
12258
  8
SUNPOU
  6
CONTINUOUS
 62
     4
 10
26413.283799817349
 20
20160.487902000001
 30
0.0
 11
26173.283799817349
 21
20160.487902000001
 31
0.0
  0
LINE
  5
12259
  8
SUNPOU
  6
CONTINUOUS
 62
     4
 10
26455.78208481734
 20
20160.487902000001
 30
0.0
 11
26695.78208481734
 21
20160.487902000001
 31
0.0
  0
LINE
  5
1225A
  8
SUNPOU
  6
CONTINUOUS
 62
     4
 10
26413.283799817349
 20
20160.487902000001
 30
0.0
 11
26455.78208481734
 21
20160.487902000001
 31
0.0
  0
LINE
  5
1225B
  8
SUNPOU
  6
CONTINUOUS
 62
     4
 10
26797.888635769279
 20
16750.486978000001
 30
0.0
 11
27711.127424185968
 21
16750.486978000001
 31
0.0
  0
LINE
  5
1225C
  8
SUNPOU
  6
CONTINUOUS
 62
     4
 10
26797.888635769279
 20
19317.986978000001
 30
0.0
 11
27711.127424185968
 21
19317.986978000001
 31
0.0
  0
LINE
  5
1225D
  8
SUNPOU
  6
CONTINUOUS
 62
     4
 10
27631.127424185968
 20
16750.486978000001
 30
0.0
 11
27631.127424185968
 21
19317.986978000001
 31
0.0
  0
LINE
  5
1225E
  8
SUNPOU
  6
CONTINUOUS
 62
     4
 10
26797.888635769279
 20
13832.48697800001
 30
0.0
 11
27711.127424185968
 21
13832.48697800001
 31
0.0
  0
LINE
  5
1225F
  8
SUNPOU
  6
CONTINUOUS
 62
     4
 10
26797.888635769279
 20
16750.486978000001
 30
0.0
 11
27711.127424185968
 21
16750.486978000001
 31
0.0
  0
LINE
  5
12260
  8
SUNPOU
  6
CONTINUOUS
 62
     4
 10
27631.127424185968
 20
13832.48697800001
 30
0.0
 11
27631.127424185968
 21
16750.486978000001
 31
0.0
  0
ARC
  5
12278
  8
1-前柱P
 10
26422.883799817359
 20
13900.88697800001
 30
0.0
 40
1.0
 50
90.0
 51
180.0
  0
LINE
  5
12279
  8
1-前柱P
 10
26421.883799817351
 20
13900.88697800001
 30
0.0
 11
26421.883799817351
 21
13899.286978
 31
0.0
  0
LINE
  5
1227A
  8
1-前柱P
 10
26421.883799817351
 20
13899.286978
 30
0.0
 11
26410.683799817361
 21
13899.286978
 31
0.0
  0
LINE
  5
1227B
  8
1-前柱P
 10
26410.683799817361
 20
13899.286978
 30
0.0
 11
26410.68379981734
 21
13900.88697800001
 31
0.0
  0
ARC
  5
1227C
  8
1-前柱P
 10
26409.68379981734
 20
13900.88697800001
 30
0.0
 40
1.0
 50
0.0
 51
90.0
  0
ARC
  5
1227D
  8
1-中柱P
 10
26406.683799817329
 20
16818.786978000011
 30
0.0
 40
1.0
 50
0.0
 51
90.0
  0
LINE
  5
1227E
  8
1-中柱P
 10
26407.68379981734
 20
16818.786978000011
 30
0.0
 11
26407.68379981734
 21
16817.186978000002
 31
0.0
  0
LINE
  5
1227F
  8
1-中柱P
 10
26407.68379981734
 20
16817.186978000002
 30
0.0
 11
26418.88379981734
 21
16817.186978000002
 31
0.0
  0
LINE
  5
12280
  8
1-中柱P
 10
26418.88379981734
 20
16817.186978000002
 30
0.0
 11
26418.88379981734
 21
16818.786978000011
 31
0.0
  0
ARC
  5
12281
  8
1-中柱P
 10
26419.88379981734
 20
16818.786978000011
 30
0.0
 40
1.0
 50
90.0
 51
180.0
  0
ARC
  5
12282
  8
1-後柱P
 10
26403.683799817351
 20
19249.936978000002
 30
0.0
 40
1.0
 50
270.0
 51
0.0
  0
LINE
  5
12283
  8
1-後柱P
 10
26404.683799817361
 20
19249.936978000002
 30
0.0
 11
26404.683799817361
 21
19251.536978
 31
0.0
  0
LINE
  5
12284
  8
1-後柱P
 10
26404.683799817361
 20
19251.536978
 30
0.0
 11
26415.883799817351
 21
19251.536978
 31
0.0
  0
LINE
  5
12285
  8
1-後柱P
 10
26415.883799817351
 20
19251.536978
 30
0.0
 11
26415.883799817351
 21
19249.936978000002
 31
0.0
  0
ARC
  5
12286
  8
1-後柱P
 10
26416.883799817359
 20
19249.936978000002
 30
0.0
 40
1.0
 50
180.0
 51
270.0
  0
LINE
  5
12287
  8
SUNPOU
  6
CONTINUOUS
 62
     4
 10
7227.0054167031494
 20
8478.188374000003
 30
0.0
 11
7227.0054167031494
 21
9869.1883999999955
 31
0.0
  0
LINE
  5
12288
  8
SUNPOU
  6
CONTINUOUS
 62
     4
 10
13127.505416703139
 20
8610.0781974124311
 30
0.0
 11
13127.505416703139
 21
9869.1883999999955
 31
0.0
  0
LINE
  5
12289
  8
SUNPOU
  6
CONTINUOUS
 62
     4
 10
7227.0054167031494
 20
9789.1883999999955
 30
0.0
 11
13127.505416703139
 21
9789.1883999999955
 31
0.0
  0
LINE
  5
1228A
  8
SUNPOU
  6
CONTINUOUS
 62
     4
 10
12977.50541670315
 20
8536.0984379999973
 30
0.0
 11
12977.50541670315
 21
9469.1900500000029
 31
0.0
  0
LINE
  5
1228B
  8
SUNPOU
  6
CONTINUOUS
 62
     4
 10
13127.505416703139
 20
8610.0781974124311
 30
0.0
 11
13127.505416703139
 21
9469.1900500000029
 31
0.0
  0
LINE
  5
1228C
  8
SUNPOU
  6
CONTINUOUS
 62
     4
 10
12977.50541670315
 20
9389.1900500000029
 30
0.0
 11
12737.505416703139
 21
9389.1900500000029
 31
0.0
  0
LINE
  5
1228D
  8
SUNPOU
  6
CONTINUOUS
 62
     4
 10
13127.505416703139
 20
9389.1900500000029
 30
0.0
 11
13367.505416703139
 21
9389.1900500000029
 31
0.0
  0
LINE
  5
1228E
  8
SUNPOU
  6
CONTINUOUS
 62
     4
 10
12977.50541670315
 20
9389.1900500000029
 30
0.0
 11
13127.505416703139
 21
9389.1900500000029
 31
0.0
  0
LINE
  5
1228F
  8
SUNPOU
  6
CONTINUOUS
 62
     4
 10
7407.0054167031503
 20
8348.3741496838102
 30
0.0
 11
7407.0054167031503
 21
9469.1900500000029
 31
0.0
  0
LINE
  5
12290
  8
SUNPOU
  6
CONTINUOUS
 62
     4
 10
12977.50541670315
 20
8536.0984379999973
 30
0.0
 11
12977.50541670315
 21
9469.1900500000029
 31
0.0
  0
LINE
  5
12291
  8
SUNPOU
  6
CONTINUOUS
 62
     4
 10
7407.0054167031503
 20
9389.1900500000029
 30
0.0
 11
12977.50541670315
 21
9389.1900500000029
 31
0.0
  0
LINE
  5
12292
  8
SUNPOU
  6
CONTINUOUS
 62
     4
 10
7227.0054167031494
 20
8478.188374000003
 30
0.0
 11
7227.0054167031494
 21
9469.1900500000029
 31
0.0
  0
LINE
  5
12293
  8
SUNPOU
  6
CONTINUOUS
 62
     4
 10
7407.0054167031503
 20
8348.3741496838102
 30
0.0
 11
7407.0054167031503
 21
9469.1900500000029
 31
0.0
  0
LINE
  5
12294
  8
SUNPOU
  6
CONTINUOUS
 62
     4
 10
7227.0054167031494
 20
9389.1900500000029
 30
0.0
 11
7407.0054167031503
 21
9389.1900500000029
 31
0.0
  0
LINE
  5
12295
  8
SUNPOU
  6
CONTINUOUS
 62
     4
 10
13070.005416703139
 20
6241.1883740000021
 30
0.0
 11
14147.505812703141
 21
6241.1883740000021
 31
0.0
  0
LINE
  5
12296
  8
SUNPOU
  6
CONTINUOUS
 62
     4
 10
13162.312676302519
 20
8589.688374000003
 30
0.0
 11
14147.505812703141
 21
8589.688374000003
 31
0.0
  0
LINE
  5
12297
  8
SUNPOU
  6
CONTINUOUS
 62
     4
 10
14067.505812703141
 20
6241.1883740000021
 30
0.0
 11
14067.505812703141
 21
8589.688374000003
 31
0.0
  0
LINE
  5
12298
  8
SUNPOU
  6
CONTINUOUS
 62
     4
 10
7319.505416703144
 20
6241.1883740000021
 30
0.0
 11
6237.00502070316
 21
6241.1883740000021
 31
0.0
  0
LINE
  5
12299
  8
SUNPOU
  6
CONTINUOUS
 62
     4
 10
7147.0054167031494
 20
8397.1883740000048
 30
0.0
 11
6237.00502070316
 21
8397.1883740000048
 31
0.0
  0
LINE
  5
1229A
  8
SUNPOU
  6
CONTINUOUS
 62
     4
 10
6317.00502070316
 20
6241.1883740000021
 30
0.0
 11
6317.00502070316
 21
8397.1883740000048
 31
0.0
  0
LINE
  5
1229B
  8
SUNPOU
  6
CONTINUOUS
 62
     4
 10
7407.0054167031503
 20
6161.1883740000021
 30
0.0
 11
7407.0054167031503
 21
4461.1887039999992
 31
0.0
  0
LINE
  5
1229C
  8
SUNPOU
  6
CONTINUOUS
 62
     4
 10
12977.50541670315
 20
6161.1883740000021
 30
0.0
 11
12977.50541670315
 21
4461.1887039999992
 31
0.0
  0
LINE
  5
1229D
  8
SUNPOU
  6
CONTINUOUS
 62
     4
 10
7407.0054167031503
 20
4541.1887039999983
 30
0.0
 11
12977.50541670315
 21
4541.1887039999983
 31
0.0
  0
LINE
  5
1229E
  8
SUNPOU
  6
CONTINUOUS
 62
     4
 10
12935.005416703139
 20
5798.5361160000011
 30
0.0
 11
12935.005416703139
 21
4861.1885389999998
 31
0.0
  0
LINE
  5
1229F
  8
SUNPOU
  6
CONTINUOUS
 62
     4
 10
12977.50541670315
 20
6161.1883740000021
 30
0.0
 11
12977.50541670315
 21
4861.1885389999998
 31
0.0
  0
LINE
  5
122A0
  8
SUNPOU
  6
CONTINUOUS
 62
     4
 10
12935.005416703139
 20
4941.1885390000016
 30
0.0
 11
12695.005416703139
 21
4941.1885390000016
 31
0.0
  0
LINE
  5
122A1
  8
SUNPOU
  6
CONTINUOUS
 62
     4
 10
12977.50541670315
 20
4941.1885390000016
 30
0.0
 11
13217.505416703139
 21
4941.1885390000016
 31
0.0
  0
LINE
  5
122A2
  8
SUNPOU
  6
CONTINUOUS
 62
     4
 10
12935.005416703139
 20
4941.1885390000016
 30
0.0
 11
12977.50541670315
 21
4941.1885390000016
 31
0.0
  0
LINE
  5
122A3
  8
SUNPOU
  6
CONTINUOUS
 62
     4
 10
7449.5054167031458
 20
5798.5361160000011
 30
0.0
 11
7449.5054167031458
 21
4861.1885389999998
 31
0.0
  0
LINE
  5
122A4
  8
SUNPOU
  6
CONTINUOUS
 62
     4
 10
7407.0054167031503
 20
6161.1883740000021
 30
0.0
 11
7407.0054167031503
 21
4861.1885389999998
 31
0.0
  0
LINE
  5
122A5
  8
SUNPOU
  6
CONTINUOUS
 62
     4
 10
7449.5054167031458
 20
4941.1885390000016
 30
0.0
 11
7689.5054167031476
 21
4941.1885390000016
 31
0.0
  0
LINE
  5
122A6
  8
SUNPOU
  6
CONTINUOUS
 62
     4
 10
7407.0054167031503
 20
4941.1885390000016
 30
0.0
 11
7167.0054167031476
 21
4941.1885390000016
 31
0.0
  0
LINE
  5
122A7
  8
SUNPOU
  6
CONTINUOUS
 62
     4
 10
7449.5054167031458
 20
4941.1885390000016
 30
0.0
 11
7407.0054167031503
 21
4941.1885390000016
 31
0.0
  0
LINE
  5
122A8
  8
SUNPOU
  6
CONTINUOUS
 62
     4
 10
10017.005416703139
 20
5798.5361160000011
 30
0.0
 11
10017.005416703139
 21
4861.1885389999998
 31
0.0
  0
LINE
  5
122A9
  8
SUNPOU
  6
CONTINUOUS
 62
     4
 10
7449.5054167031458
 20
5798.5361160000011
 30
0.0
 11
7449.5054167031458
 21
4861.1885389999998
 31
0.0
  0
LINE
  5
122AA
  8
SUNPOU
  6
CONTINUOUS
 62
     4
 10
10017.005416703139
 20
4941.1885390000016
 30
0.0
 11
7449.5054167031458
 21
4941.1885390000016
 31
0.0
  0
LINE
  5
122AB
  8
SUNPOU
  6
CONTINUOUS
 62
     4
 10
10017.005416703139
 20
5798.5361160000011
 30
0.0
 11
10017.005416703139
 21
4861.1885389999998
 31
0.0
  0
LINE
  5
122AC
  8
SUNPOU
  6
CONTINUOUS
 62
     4
 10
12935.005416703139
 20
5798.5361160000011
 30
0.0
 11
12935.005416703139
 21
4861.1885389999998
 31
0.0
  0
LINE
  5
122AD
  8
SUNPOU
  6
CONTINUOUS
 62
     4
 10
10017.005416703139
 20
4941.1885390000016
 30
0.0
 11
12935.005416703139
 21
4941.1885390000016
 31
0.0
  0
LINE
  5
122AE
  8
SUNPOU
  6
CONTINUOUS
 62
     4
 10
7037.0628415859474
 20
13619.48643699999
 30
0.0
 11
6190.063065585955
 21
13619.48643699999
 31
0.0
  0
LINE
  5
122AF
  8
SUNPOU
  6
CONTINUOUS
 62
     4
 10
6270.0630655859541
 20
13811.985710999999
 30
0.0
 11
6270.0630655859541
 21
13619.48643699999
 31
0.0
  0
LINE
  5
122B0
  8
SUNPOU
  6
CONTINUOUS
 62
     4
 10
6270.0630655859559
 20
16729.985711000001
 30
0.0
 11
6270.0630655859541
 21
13811.985710999999
 31
0.0
  0
LINE
  5
122B1
  8
SUNPOU
  6
CONTINUOUS
 62
     4
 10
6270.0630655859568
 20
19297.485711000001
 30
0.0
 11
6270.0630655859559
 21
16729.985711000001
 31
0.0
  0
LINE
  5
122B2
  8
SUNPOU
  6
CONTINUOUS
 62
     4
 10
6190.0630655859568
 20
19297.485711000001
 30
0.0
 11
6230.0630655859568
 21
19297.485711000001
 31
0.0
  0
LINE
  5
122B3
  8
SUNPOU
  6
CONTINUOUS
 62
     4
 10
7042.0621155859453
 20
19519.985579
 30
0.0
 11
6230.0630655859568
 21
19519.985579
 31
0.0
  0
LINE
  5
122B4
  8
SUNPOU
  6
CONTINUOUS
 62
     4
 10
6270.0630655859568
 20
19297.485711000001
 30
0.0
 11
6270.0630655859568
 21
19519.985579
 31
0.0
  0
LINE
  5
122B5
  8
SUNPOU
  6
CONTINUOUS
 62
     4
 10
7110.5613775859347
 20
19509.98900999999
 30
0.0
 11
6590.0624065859556
 21
19509.98900999999
 31
0.0
  0
LINE
  5
122B6
  8
SUNPOU
  6
CONTINUOUS
 62
     4
 10
7042.0621155859453
 20
19519.985579
 30
0.0
 11
6590.0624065859556
 21
19519.985579
 31
0.0
  0
LINE
  5
122B7
  8
SUNPOU
  6
CONTINUOUS
 62
     4
 10
6670.0624065859538
 20
19509.98900999999
 30
0.0
 11
6670.0624065859538
 21
19269.98900999999
 31
0.0
  0
LINE
  5
122B8
  8
SUNPOU
  6
CONTINUOUS
 62
     4
 10
6670.0624065859538
 20
19519.985579
 30
0.0
 11
6670.0624065859538
 21
19759.985579
 31
0.0
  0
LINE
  5
122B9
  8
SUNPOU
  6
CONTINUOUS
 62
     4
 10
6670.0624065859538
 20
19509.98900999999
 30
0.0
 11
6670.0624065859538
 21
19519.985579
 31
0.0
  0
LINE
  5
122BA
  8
SUNPOU
  6
CONTINUOUS
 62
     4
 10
13268.06284158595
 20
20144.987624000001
 30
0.0
 11
13268.06284158595
 21
20219.986634999979
 31
0.0
  0
LINE
  5
122BB
  8
SUNPOU
  6
CONTINUOUS
 62
     4
 10
13353.562841585939
 20
19594.987293999991
 30
0.0
 11
13353.562841585939
 21
20219.986634999979
 31
0.0
  0
LINE
  5
122BC
  8
SUNPOU
  6
CONTINUOUS
 62
     4
 10
13268.06284158595
 20
20139.986634999979
 30
0.0
 11
13028.06284158595
 21
20139.986634999979
 31
0.0
  0
LINE
  5
122BD
  8
SUNPOU
  6
CONTINUOUS
 62
     4
 10
13350.562841585939
 20
20139.986634999979
 30
0.0
 11
13590.562841585939
 21
20139.986634999979
 31
0.0
  0
LINE
  5
122BE
  8
SUNPOU
  6
CONTINUOUS
 62
     4
 10
13268.06284158595
 20
20139.986634999979
 30
0.0
 11
13350.562841585939
 21
20139.986634999979
 31
0.0
  0
LINE
  5
122BF
  8
SUNPOU
  6
CONTINUOUS
 62
     4
 10
10468.06284158595
 20
20144.987624000001
 30
0.0
 11
10468.06284158595
 21
20219.986634999979
 31
0.0
  0
LINE
  5
122C0
  8
SUNPOU
  6
CONTINUOUS
 62
     4
 10
13268.06284158595
 20
20144.987624000001
 30
0.0
 11
13268.06284158595
 21
20219.986634999979
 31
0.0
  0
LINE
  5
122C1
  8
SUNPOU
  6
CONTINUOUS
 62
     4
 10
10468.06284158595
 20
20139.986634999979
 30
0.0
 11
13268.06284158595
 21
20139.986634999979
 31
0.0
  0
LINE
  5
122C2
  8
SUNPOU
  6
CONTINUOUS
 62
     4
 10
7199.5628415859474
 20
19669.987293999991
 30
0.0
 11
7199.5628415859474
 21
20219.986634999979
 31
0.0
  0
LINE
  5
122C3
  8
SUNPOU
  6
CONTINUOUS
 62
     4
 10
10468.06284158595
 20
20144.987624000001
 30
0.0
 11
10468.06284158595
 21
20219.986634999979
 31
0.0
  0
LINE
  5
122C4
  8
SUNPOU
  6
CONTINUOUS
 62
     4
 10
7199.5628415859474
 20
20139.986634999979
 30
0.0
 11
10468.06284158595
 21
20139.986634999979
 31
0.0
  0
LINE
  5
122C5
  8
SUNPOU
  6
CONTINUOUS
 62
     4
 10
7199.5628415859474
 20
19669.987293999991
 30
0.0
 11
7199.5628415859474
 21
20219.986634999979
 31
0.0
  0
LINE
  5
122C6
  8
SUNPOU
  6
CONTINUOUS
 62
     4
 10
7114.0628415859483
 20
19589.987031000001
 30
0.0
 11
7114.0628415859483
 21
20219.986634999979
 31
0.0
  0
LINE
  5
122C7
  8
SUNPOU
  6
CONTINUOUS
 62
     4
 10
7199.5628415859474
 20
20139.986634999979
 30
0.0
 11
7439.5628415859464
 21
20139.986634999979
 31
0.0
  0
LINE
  5
122C8
  8
SUNPOU
  6
CONTINUOUS
 62
     4
 10
7117.0628415859474
 20
20139.986634999979
 30
0.0
 11
6877.0628415859464
 21
20139.986634999979
 31
0.0
  0
LINE
  5
122C9
  8
SUNPOU
  6
CONTINUOUS
 62
     4
 10
7199.5628415859474
 20
20139.986634999979
 30
0.0
 11
7117.0628415859474
 21
20139.986634999979
 31
0.0
  0
LINE
  5
122CA
  8
SUNPOU
  6
CONTINUOUS
 62
     4
 10
7114.0628415859483
 20
13539.48643699999
 30
0.0
 11
7114.0628415859483
 21
12249.48564499999
 31
0.0
  0
LINE
  5
122CB
  8
SUNPOU
  6
CONTINUOUS
 62
     4
 10
13353.562841585939
 20
13539.48643699999
 30
0.0
 11
13353.562841585939
 21
12249.48564499999
 31
0.0
  0
LINE
  5
122CC
  8
SUNPOU
  6
CONTINUOUS
 62
     4
 10
7117.0628415859474
 20
12329.48564499999
 30
0.0
 11
13350.562841585939
 21
12329.48564499999
 31
0.0
  0
LINE
  5
122CD
  8
0-6
  6
CONTINUOUS
 62
     6
 10
11196.40296821055
 20
16533.767321090651
 30
0.0
 11
11137.652969581821
 21
16684.985315999991
 31
0.0
  0
LINE
  5
122CE
  8
0-6
  6
CONTINUOUS
 62
     6
 10
11137.652969581821
 20
16684.985315999991
 30
0.0
 11
11242.26396126866
 21
16560.989409851562
 31
0.0
  0
LINE
  5
122CF
  8
0-6
  6
CONTINUOUS
 62
     6
 10
11242.26396126866
 20
16560.989409851562
 30
0.0
 11
11196.40296821055
 21
16533.767321090651
 31
0.0
  0
LINE
  5
122D0
  8
0-6
  6
CONTINUOUS
 62
     6
 10
12357.33656047745
 20
14490.33612904789
 30
0.0
 11
12477.19128738397
 21
14599.667226003119
 31
0.0
  0
LINE
  5
122D1
  8
0-6
  6
CONTINUOUS
 62
     6
 10
12477.19128738397
 20
14599.667226003119
 30
0.0
 11
12399.265889347191
 21
14457.37851716056
 31
0.0
  0
LINE
  5
122D2
  8
0-6
  6
CONTINUOUS
 62
     6
 10
12399.265889347191
 20
14457.37851716056
 30
0.0
 11
12357.33656047745
 21
14490.33612904789
 31
0.0
  0
LINE
  5
122D3
  8
0-6
  6
CONTINUOUS
 62
     6
 10
9508.1955620798144
 20
16944.10254427827
 30
0.0
 11
9539.835208448565
 21
16784.988192000001
 31
0.0
  0
LINE
  5
122D4
  8
0-6
  6
CONTINUOUS
 62
     6
 10
9539.835208448565
 20
16784.988192000001
 30
0.0
 11
9458.3090825462023
 21
16925.24486784335
 31
0.0
  0
LINE
  5
122D5
  8
0-6
  6
CONTINUOUS
 62
     6
 10
9458.3090825462023
 20
16925.24486784335
 30
0.0
 11
9508.1955620798144
 21
16944.10254427827
 31
0.0
  0
LINE
  5
122D6
  8
0-6
  6
CONTINUOUS
 62
     6
 10
13146.1888538154
 20
14027.066900689009
 30
0.0
 11
13215.06321058596
 21
14173.92499017764
 31
0.0
  0
LINE
  5
122D7
  8
0-6
  6
CONTINUOUS
 62
     6
 10
13215.06321058596
 20
14173.92499017764
 30
0.0
 11
13102.280587369891
 21
14057.342045864831
 31
0.0
  0
LINE
  5
122D8
  8
0-6
  6
CONTINUOUS
 62
     6
 10
13102.280587369891
 20
14057.342045864831
 30
0.0
 11
13146.1888538154
 21
14027.066900689009
 31
0.0
  0
TEXT
  5
122D9
  8
0
  6
CONTINUOUS
 62
     7
 10
9359.1461749192786
 20
12409.48564499999
 30
0.0
 40
160.0
  1
ケラバ外寸6239.5
  0
TEXT
  5
122DA
  8
0
  6
CONTINUOUS
 62
     7
 10
6624.4156975859578
 20
20219.984918999991
 30
0.0
 40
160.0
  1
85.5
  0
TEXT
  5
122DB
  8
0
  6
CONTINUOUS
 62
     7
 10
8433.8128415859464
 20
20219.986634999979
 30
0.0
 40
160.0
  1
3268.5
  0
TEXT
  5
122DC
  8
0
  6
CONTINUOUS
 62
     7
 10
11601.39617491928
 20
20219.986634999979
 30
0.0
 40
160.0
  1
2800
  0
TEXT
  5
122DD
  8
0
  6
CONTINUOUS
 62
     7
 10
13414.410629585949
 20
20219.984918999991
 30
0.0
 40
160.0
  1
85.5
  0
TEXT
  5
122DE
  8
0
  6
CONTINUOUS
 62
     7
 10
6590.0631315859573
 20
19691.414439666671
 30
0.0
 40
160.0
  1
10
 50
90.0
  0
TEXT
  5
122DF
  8
0
  6
CONTINUOUS
 62
     7
 10
6190.0630655859568
 20
19598.467233389241
 30
0.0
 40
160.0
  1
222.5
 50
90.0
  0
TEXT
  5
122E0
  8
0
  6
CONTINUOUS
 62
     7
 10
6190.0630655859522
 20
17613.735711000001
 30
0.0
 40
160.0
  1
2567.5
 50
90.0
  0
TEXT
  5
122E1
  8
0
  6
CONTINUOUS
 62
     7
 10
6190.0630655859522
 20
15004.319044333341
 30
0.0
 40
160.0
  1
2918
 50
90.0
  0
TEXT
  5
122E2
  8
0
  6
CONTINUOUS
 62
     7
 10
6190.0630655859422
 20
12955.49680859056
 30
0.0
 40
160.0
  1
192.5
 50
90.0
  0
TEXT
  5
122E3
  8
0
  6
CONTINUOUS
 62
     7
 10
11209.33875003647
 20
5021.1885389999998
 30
0.0
 40
160.0
  1
2918
  0
TEXT
  5
122E4
  8
0
  6
CONTINUOUS
 62
     7
 10
8333.2554167031485
 20
5021.1885389999998
 30
0.0
 40
160.0
  1
2567.5
  0
TEXT
  5
122E5
  8
0
  6
CONTINUOUS
 62
     7
 10
6825.0158027031566
 20
5022.1790570000003
 30
0.0
 40
160.0
  1
42.5
  0
TEXT
  5
122E6
  8
0
  6
CONTINUOUS
 62
     7
 10
13097.50706670314
 20
5021.1883080000007
 30
0.0
 40
160.0
  1
42.5
  0
TEXT
  5
122E7
  8
0
  6
CONTINUOUS
 62
     7
 10
9805.5887500364843
 20
4621.1887039999983
 30
0.0
 40
160.0
  1
5570.5
  0
TEXT
  5
122E8
  8
0
  6
CONTINUOUS
 62
     7
 10
6237.0050207031582
 20
6540.521707333337
 30
0.0
 40
160.0
  1
2156（2396）
 50
90.0
  0
TEXT
  5
122E9
  8
0
  6
CONTINUOUS
 62
     7
 10
13987.50581270315
 20
6396.7717073333361
 30
0.0
 40
160.0
  1
2348.5（2588.5）
 50
90.0
  0
TEXT
  5
122EA
  8
0
  6
CONTINUOUS
 62
     7
 10
6772.6636015680506
 20
9469.1900500000029
 30
0.0
 40
160.0
  1
180
  0
TEXT
  5
122EB
  8
0
  6
CONTINUOUS
 62
     7
 10
9805.5887500364843
 20
9469.1900500000029
 30
0.0
 40
160.0
  1
5570.5
  0
TEXT
  5
122EC
  8
0
  6
CONTINUOUS
 62
     7
 10
13194.1720833698
 20
9469.1900500000029
 30
0.0
 40
160.0
  1
150
  0
TEXT
  5
122ED
  8
0
  6
CONTINUOUS
 62
     7
 10
9803.9220833698164
 20
9869.1883999999955
 30
0.0
 40
160.0
  1
5900.5
  0
TEXT
  5
122F3
  8
0
  6
CONTINUOUS
 62
     7
 10
27551.127424185968
 20
15024.820311333329
 30
0.0
 40
160.0
  1
2918
 50
90.0
  0
TEXT
  5
122F4
  8
0
  6
CONTINUOUS
 62
     7
 10
27551.127424185968
 20
17634.236978000012
 30
0.0
 40
160.0
  1
2567.5
 50
90.0
  0
TEXT
  5
122F5
  8
0
  6
CONTINUOUS
 62
     7
 10
26554.205727817331
 20
20240.486185999991
 30
0.0
 40
160.0
  1
42.5
  0
TEXT
  5
122F6
  8
0
  6
CONTINUOUS
 62
     7
 10
25876.109760817359
 20
20259.830042000001
 30
0.0
 40
160.0
  1
42.5
  0
TEXT
  5
122F7
  8
0
  6
CONTINUOUS
 62
     7
 10
21579.033799817349
 20
20640.487902000001
 30
0.0
 40
160.0
  1
3268.5
  0
TEXT
  5
122F8
  8
0
  6
CONTINUOUS
 62
     7
 10
24746.61713315067
 20
20640.487902000001
 30
0.0
 40
160.0
  1
2800
  0
TEXT
  5
122FC
  8
0
  6
CONTINUOUS
 62
     7
 10
19807.609760817359
 20
20259.830042000001
 30
0.0
 40
160.0
  1
42.5
  0
TEXT
  5
122FD
  8
0
  6
CONTINUOUS
 62
     7
 10
20416.546531359581
 20
20250.156494457999
 30
0.0
 40
160.0
  1
407.5
  0
TEXT
  5
122FE
  8
0
  6
CONTINUOUS
 62
     7
 10
21630.959791198082
 20
20241.80990257661
 30
0.0
 40
160.0
  1
701
  0
TEXT
  5
122FF
  8
0
  6
CONTINUOUS
 62
     7
 10
22331.45046648401
 20
20240.487902000001
 30
0.0
 40
160.0
  1
701
  0
TEXT
  5
12300
  8
0
  6
CONTINUOUS
 62
     7
 10
23020.95046648401
 20
20240.487902000001
 30
0.0
 40
160.0
  1
758
  0
TEXT
  5
12301
  8
0
  6
CONTINUOUS
 62
     7
 10
23754.205727817331
 20
20240.487902000001
 30
0.0
 40
160.0
  1
42.5
  0
TEXT
  5
1230A
  8
0
  6
CONTINUOUS
 62
     7
 10
27564.604337111748
 20
6589.0026620000071
 30
0.0
 40
160.0
  1
有効高サ2020
 50
90.0
  0
TEXT
  5
1230B
  8
0
  6
CONTINUOUS
 62
     7
 10
24768.11527215071
 20
9469.1900500000029
 30
0.0
 40
160.0
  1
2800
  0
TEXT
  5
1230C
  8
0
  6
CONTINUOUS
 62
     7
 10
24725.615272150699
 20
5021.1885389999998
 30
0.0
 40
160.0
  1
2800
  0
TEXT
  5
1230D
  8
0
  6
CONTINUOUS
 62
     7
 10
26554.782598817372
 20
5021.1883080000007
 30
0.0
 40
160.0
  1
42.5
  0
TEXT
  5
1230E
  8
0
  6
CONTINUOUS
 62
     7
 10
21104.698605484031
 20
5421.188374000003
 30
0.0
 40
160.0
  1
有効開口巾3080.5
  0
TEXT
  5
1230F
  8
0
  6
CONTINUOUS
 62
     7
 10
21558.031938817359
 20
5021.1885389999998
 30
0.0
 40
160.0
  1
3268.5
  0
TEXT
  5
12310
  8
0
  6
CONTINUOUS
 62
     7
 10
19701.458907817381
 20
5028.7357170000014
 30
0.0
 40
160.0
  1
42.5
  0
TEXT
  5
12311
  8
0
  6
CONTINUOUS
 62
     7
 10
22984.718581957801
 20
4621.1887040000584
 30
0.0
 40
160.0
  1
6153.5
  0
TEXT
  5
12312
  8
0
  6
CONTINUOUS
 62
     7
 10
24247.115272150699
 20
5421.188374000003
 30
0.0
 40
160.0
  1
有効開口巾2712
  0
TEXT
  5
12313
  8
0
  6
CONTINUOUS
 62
     7
 10
19393.778639817381
 20
6264.2717073333397
 30
0.0
 40
160.0
  1
有効開口高サ1891.5
 50
90.0
  0
TEXT
  5
12314
  8
0
  6
CONTINUOUS
 62
     7
 10
18993.77929981735
 20
6396.7717203333359
 30
0.0
 40
160.0
  1
2348.5（2588.5）
 50
90.0
  0
TEXT
  5
12315
  8
0
  6
CONTINUOUS
 62
     7
 10
21558.031938817359
 20
9469.1900500000029
 30
0.0
 40
160.0
  1
3353.5
  0
TEXT
  5
12316
  8
0
  6
CONTINUOUS
 62
     7
 10
19911.47395281736
 20
9469.1893240000027
 30
0.0
 40
160.0
  1
43
  0
TEXT
  5
12317
  8
0
  6
CONTINUOUS
 62
     7
 10
26612.247758817401
 20
9469.1893240000027
 30
0.0
 40
160.0
  1
43
  0
TEXT
  5
12318
  8
0
  6
CONTINUOUS
 62
     7
 10
22958.031938817381
 20
9869.1329740000037
 30
0.0
 40
160.0
  1
6239.5
  0
TEXT
  5
12319
  8
0
  6
CONTINUOUS
 62
     7
 10
20934.824799141901
 20
19920.046800881792
 30
0.0
 40
160.0
  1
701
  0
ARC
  5
1231A
  8
0
  6
BYBLOCK
 62
     0
 10
20752.283799817349
 20
20160.487902000001
 30
0.0
 40
15.0
 50
0.0
 51
180.0
  0
ARC
  5
1231B
  8
0
  6
BYBLOCK
 62
     0
 10
20752.283799817349
 20
20160.487902000001
 30
0.0
 40
15.0
 50
180.0
 51
0.0
  0
ARC
  5
1231C
  8
0
  6
BYBLOCK
 62
     0
 10
21453.283799817349
 20
20160.487902000001
 30
0.0
 40
15.0
 50
180.0
 51
0.0
  0
ARC
  5
1231D
  8
0
  6
BYBLOCK
 62
     0
 10
21453.283799817349
 20
20160.487902000001
 30
0.0
 40
15.0
 50
0.0
 51
180.0
  0
ARC
  5
1231E
  8
0
  6
BYBLOCK
 62
     0
 10
20238.281938817359
 20
9789.1329740000037
 30
0.0
 40
15.0
 50
0.0
 51
180.0
  0
ARC
  5
1231F
  8
0
  6
BYBLOCK
 62
     0
 10
20238.281938817359
 20
9789.1329740000037
 30
0.0
 40
15.0
 50
180.0
 51
0.0
  0
ARC
  5
12320
  8
0
  6
BYBLOCK
 62
     0
 10
26477.78193881737
 20
9789.1329740000037
 30
0.0
 40
15.0
 50
180.0
 51
0.0
  0
ARC
  5
12321
  8
0
  6
BYBLOCK
 62
     0
 10
26477.78193881737
 20
9789.1329740000037
 30
0.0
 40
15.0
 50
0.0
 51
180.0
  0
ARC
  5
12322
  8
0
  6
BYBLOCK
 62
     0
 10
26434.78193881737
 20
9389.1900500000029
 30
0.0
 40
15.0
 50
180.0
 51
0.0
  0
ARC
  5
12323
  8
0
  6
BYBLOCK
 62
     0
 10
26434.78193881737
 20
9389.1900500000029
 30
0.0
 40
15.0
 50
0.0
 51
180.0
  0
ARC
  5
12324
  8
0
  6
BYBLOCK
 62
     0
 10
26477.78193881737
 20
9389.1900500000029
 30
0.0
 40
15.0
 50
0.0
 51
180.0
  0
ARC
  5
12325
  8
0
  6
BYBLOCK
 62
     0
 10
26477.78193881737
 20
9389.1900500000029
 30
0.0
 40
15.0
 50
180.0
 51
0.0
  0
ARC
  5
12326
  8
0
  6
BYBLOCK
 62
     0
 10
20281.281938817359
 20
9389.1900500000029
 30
0.0
 40
15.0
 50
0.0
 51
180.0
  0
ARC
  5
12327
  8
0
  6
BYBLOCK
 62
     0
 10
20281.281938817359
 20
9389.1900500000029
 30
0.0
 40
15.0
 50
180.0
 51
0.0
  0
ARC
  5
12328
  8
0
  6
BYBLOCK
 62
     0
 10
20238.281938817359
 20
9389.1900500000029
 30
0.0
 40
15.0
 50
180.0
 51
0.0
  0
ARC
  5
12329
  8
0
  6
BYBLOCK
 62
     0
 10
20238.281938817359
 20
9389.1900500000029
 30
0.0
 40
15.0
 50
0.0
 51
180.0
  0
ARC
  5
1232A
  8
0
  6
BYBLOCK
 62
     0
 10
23634.78193881737
 20
9389.1900500000029
 30
0.0
 40
15.0
 50
180.0
 51
0.0
  0
ARC
  5
1232B
  8
0
  6
BYBLOCK
 62
     0
 10
23634.78193881737
 20
9389.1900500000029
 30
0.0
 40
15.0
 50
0.0
 51
180.0
  0
ARC
  5
1232C
  8
0
  6
BYBLOCK
 62
     0
 10
20281.281938817359
 20
9389.1900500000029
 30
0.0
 40
15.0
 50
0.0
 51
180.0
  0
ARC
  5
1232D
  8
0
  6
BYBLOCK
 62
     0
 10
20281.281938817359
 20
9389.1900500000029
 30
0.0
 40
15.0
 50
180.0
 51
0.0
  0
ARC
  5
1232E
  8
0
  6
BYBLOCK
 62
     0
 10
19073.779299817361
 20
6241.1883740000021
 30
0.0
 40
15.0
 50
90.0
 51
270.0
  0
ARC
  5
1232F
  8
0
  6
BYBLOCK
 62
     0
 10
19073.779299817361
 20
6241.1883740000021
 30
0.0
 40
15.0
 50
270.0
 51
90.0
  0
ARC
  5
12330
  8
0
  6
BYBLOCK
 62
     0
 10
19073.779299817361
 20
8589.6883999999973
 30
0.0
 40
15.0
 50
270.0
 51
90.0
  0
ARC
  5
12331
  8
0
  6
BYBLOCK
 62
     0
 10
19073.779299817361
 20
8589.6883999999973
 30
0.0
 40
15.0
 50
90.0
 51
270.0
  0
ARC
  5
12332
  8
0
  6
BYBLOCK
 62
     0
 10
19473.778639817381
 20
6241.1883740000021
 30
0.0
 40
15.0
 50
90.0
 51
270.0
  0
ARC
  5
12333
  8
0
  6
BYBLOCK
 62
     0
 10
19473.778639817381
 20
6241.1883740000021
 30
0.0
 40
15.0
 50
270.0
 51
90.0
  0
ARC
  5
12334
  8
0
  6
BYBLOCK
 62
     0
 10
19473.778639817381
 20
8132.6883740000021
 30
0.0
 40
15.0
 50
270.0
 51
90.0
  0
ARC
  5
12335
  8
0
  6
BYBLOCK
 62
     0
 10
19473.778639817381
 20
8132.6883740000021
 30
0.0
 40
15.0
 50
90.0
 51
270.0
  0
ARC
  5
12336
  8
0
  6
BYBLOCK
 62
     0
 10
23637.78193881737
 20
5341.188374000003
 30
0.0
 40
15.0
 50
0.0
 51
180.0
  0
ARC
  5
12337
  8
0
  6
BYBLOCK
 62
     0
 10
23637.78193881737
 20
5341.188374000003
 30
0.0
 40
15.0
 50
180.0
 51
0.0
  0
ARC
  5
12338
  8
0
  6
BYBLOCK
 62
     0
 10
26349.781938817381
 20
5341.188374000003
 30
0.0
 40
15.0
 50
180.0
 51
0.0
  0
ARC
  5
12339
  8
0
  6
BYBLOCK
 62
     0
 10
26349.781938817381
 20
5341.188374000003
 30
0.0
 40
15.0
 50
0.0
 51
180.0
  0
ARC
  5
1233A
  8
0
  6
BYBLOCK
 62
     0
 10
20281.32189176491
 20
4541.1887040000556
 30
0.0
 40
15.0
 50
0.0
 51
180.0
  0
ARC
  5
1233B
  8
0
  6
BYBLOCK
 62
     0
 10
20281.32189176491
 20
4541.1887040000556
 30
0.0
 40
15.0
 50
180.0
 51
0.0
  0
ARC
  5
1233C
  8
0
  6
BYBLOCK
 62
     0
 10
26434.78193881737
 20
4541.1887040000556
 30
0.0
 40
15.0
 50
180.0
 51
0.0
  0
ARC
  5
1233D
  8
0
  6
BYBLOCK
 62
     0
 10
26434.78193881737
 20
4541.1887040000556
 30
0.0
 40
15.0
 50
0.0
 51
180.0
  0
ARC
  5
1233E
  8
0
  6
BYBLOCK
 62
     0
 10
20323.781938817359
 20
4941.1885390000016
 30
0.0
 40
15.0
 50
0.0
 51
180.0
  0
ARC
  5
1233F
  8
0
  6
BYBLOCK
 62
     0
 10
20323.781938817359
 20
4941.1885390000016
 30
0.0
 40
15.0
 50
180.0
 51
0.0
  0
ARC
  5
12340
  8
0
  6
BYBLOCK
 62
     0
 10
20281.32189176491
 20
4941.1885390000016
 30
0.0
 40
15.0
 50
180.0
 51
0.0
  0
ARC
  5
12341
  8
0
  6
BYBLOCK
 62
     0
 10
20281.32189176491
 20
4941.1885390000016
 30
0.0
 40
15.0
 50
0.0
 51
180.0
  0
ARC
  5
12342
  8
0
  6
BYBLOCK
 62
     0
 10
23592.28193881737
 20
4941.1885390000016
 30
0.0
 40
15.0
 50
180.0
 51
0.0
  0
ARC
  5
12343
  8
0
  6
BYBLOCK
 62
     0
 10
23592.28193881737
 20
4941.1885390000016
 30
0.0
 40
15.0
 50
0.0
 51
180.0
  0
ARC
  5
12344
  8
0
  6
BYBLOCK
 62
     0
 10
20323.781938817359
 20
4941.1885390000016
 30
0.0
 40
15.0
 50
0.0
 51
180.0
  0
ARC
  5
12345
  8
0
  6
BYBLOCK
 62
     0
 10
20323.781938817359
 20
4941.1885390000016
 30
0.0
 40
15.0
 50
180.0
 51
0.0
  0
ARC
  5
12346
  8
0
  6
BYBLOCK
 62
     0
 10
20417.781938817359
 20
5341.188374000003
 30
0.0
 40
15.0
 50
0.0
 51
180.0
  0
ARC
  5
12347
  8
0
  6
BYBLOCK
 62
     0
 10
20417.781938817359
 20
5341.188374000003
 30
0.0
 40
15.0
 50
180.0
 51
0.0
  0
ARC
  5
12348
  8
0
  6
BYBLOCK
 62
     0
 10
23498.281938817359
 20
5341.188374000003
 30
0.0
 40
15.0
 50
180.0
 51
0.0
  0
ARC
  5
12349
  8
0
  6
BYBLOCK
 62
     0
 10
23498.281938817359
 20
5341.188374000003
 30
0.0
 40
15.0
 50
0.0
 51
180.0
  0
ARC
  5
1234A
  8
0
  6
BYBLOCK
 62
     0
 10
26392.28193881737
 20
4941.1885390000016
 30
0.0
 40
15.0
 50
180.0
 51
0.0
  0
ARC
  5
1234B
  8
0
  6
BYBLOCK
 62
     0
 10
26392.28193881737
 20
4941.1885390000016
 30
0.0
 40
15.0
 50
0.0
 51
180.0
  0
ARC
  5
1234C
  8
0
  6
BYBLOCK
 62
     0
 10
26434.78193881737
 20
4941.1885390000016
 30
0.0
 40
15.0
 50
0.0
 51
180.0
  0
ARC
  5
1234D
  8
0
  6
BYBLOCK
 62
     0
 10
26434.78193881737
 20
4941.1885390000016
 30
0.0
 40
15.0
 50
180.0
 51
0.0
  0
ARC
  5
1234E
  8
0
  6
BYBLOCK
 62
     0
 10
23592.28193881737
 20
4941.1885390000016
 30
0.0
 40
15.0
 50
0.0
 51
180.0
  0
ARC
  5
1234F
  8
0
  6
BYBLOCK
 62
     0
 10
23592.28193881737
 20
4941.1885390000016
 30
0.0
 40
15.0
 50
180.0
 51
0.0
  0
ARC
  5
12350
  8
0
  6
BYBLOCK
 62
     0
 10
26392.28193881737
 20
4941.1885390000016
 30
0.0
 40
15.0
 50
180.0
 51
0.0
  0
ARC
  5
12351
  8
0
  6
BYBLOCK
 62
     0
 10
26392.28193881737
 20
4941.1885390000016
 30
0.0
 40
15.0
 50
0.0
 51
180.0
  0
ARC
  5
12352
  8
0
  6
BYBLOCK
 62
     0
 10
23634.78193881737
 20
9389.1900500000029
 30
0.0
 40
15.0
 50
0.0
 51
180.0
  0
ARC
  5
12353
  8
0
  6
BYBLOCK
 62
     0
 10
23634.78193881737
 20
9389.1900500000029
 30
0.0
 40
15.0
 50
180.0
 51
0.0
  0
ARC
  5
12354
  8
0
  6
BYBLOCK
 62
     0
 10
26434.78193881737
 20
9389.1900500000029
 30
0.0
 40
15.0
 50
180.0
 51
0.0
  0
ARC
  5
12355
  8
0
  6
BYBLOCK
 62
     0
 10
26434.78193881737
 20
9389.1900500000029
 30
0.0
 40
15.0
 50
0.0
 51
180.0
  0
ARC
  5
12356
  8
0
  6
BYBLOCK
 62
     0
 10
27644.604337111748
 20
6242.0026619999999
 30
0.0
 40
15.0
 50
90.0
 51
270.0
  0
ARC
  5
12357
  8
0
  6
BYBLOCK
 62
     0
 10
27644.604337111748
 20
6242.0026619999999
 30
0.0
 40
15.0
 50
270.0
 51
90.0
  0
ARC
  5
12358
  8
0
  6
BYBLOCK
 62
     0
 10
27644.604337111759
 20
8262.0026620000026
 30
0.0
 40
15.0
 50
270.0
 51
90.0
  0
ARC
  5
12359
  8
0
  6
BYBLOCK
 62
     0
 10
27644.604337111759
 20
8262.0026620000026
 30
0.0
 40
15.0
 50
90.0
 51
270.0
  0
ARC
  5
1237A
  8
0
  6
BYBLOCK
 62
     0
 10
23613.283799817342
 20
20160.487902000001
 30
0.0
 40
15.0
 50
180.0
 51
0.0
  0
ARC
  5
1237B
  8
0
  6
BYBLOCK
 62
     0
 10
23613.283799817342
 20
20160.487902000001
 30
0.0
 40
15.0
 50
0.0
 51
180.0
  0
ARC
  5
1237C
  8
0
  6
BYBLOCK
 62
     0
 10
23655.783799817349
 20
20160.487902000001
 30
0.0
 40
15.0
 50
0.0
 51
180.0
  0
ARC
  5
1237D
  8
0
  6
BYBLOCK
 62
     0
 10
23655.783799817349
 20
20160.487902000001
 30
0.0
 40
15.0
 50
180.0
 51
0.0
  0
ARC
  5
1237E
  8
0
  6
BYBLOCK
 62
     0
 10
22855.283799817349
 20
20160.487902000001
 30
0.0
 40
15.0
 50
0.0
 51
180.0
  0
ARC
  5
1237F
  8
0
  6
BYBLOCK
 62
     0
 10
22855.283799817349
 20
20160.487902000001
 30
0.0
 40
15.0
 50
180.0
 51
0.0
  0
ARC
  5
12380
  8
0
  6
BYBLOCK
 62
     0
 10
23613.283799817342
 20
20160.487902000001
 30
0.0
 40
15.0
 50
180.0
 51
0.0
  0
ARC
  5
12381
  8
0
  6
BYBLOCK
 62
     0
 10
23613.283799817342
 20
20160.487902000001
 30
0.0
 40
15.0
 50
0.0
 51
180.0
  0
ARC
  5
12382
  8
0
  6
BYBLOCK
 62
     0
 10
22154.283799817349
 20
20160.487902000001
 30
0.0
 40
15.0
 50
0.0
 51
180.0
  0
ARC
  5
12383
  8
0
  6
BYBLOCK
 62
     0
 10
22154.283799817349
 20
20160.487902000001
 30
0.0
 40
15.0
 50
180.0
 51
0.0
  0
ARC
  5
12384
  8
0
  6
BYBLOCK
 62
     0
 10
22855.283799817349
 20
20160.487902000001
 30
0.0
 40
15.0
 50
180.0
 51
0.0
  0
ARC
  5
12385
  8
0
  6
BYBLOCK
 62
     0
 10
22855.283799817349
 20
20160.487902000001
 30
0.0
 40
15.0
 50
0.0
 51
180.0
  0
ARC
  5
12386
  8
0
  6
BYBLOCK
 62
     0
 10
21453.283799817349
 20
20160.487902000001
 30
0.0
 40
15.0
 50
0.0
 51
180.0
  0
ARC
  5
12387
  8
0
  6
BYBLOCK
 62
     0
 10
21453.283799817349
 20
20160.487902000001
 30
0.0
 40
15.0
 50
180.0
 51
0.0
  0
ARC
  5
12388
  8
0
  6
BYBLOCK
 62
     0
 10
22154.283799817349
 20
20160.487902000001
 30
0.0
 40
15.0
 50
180.0
 51
0.0
  0
ARC
  5
12389
  8
0
  6
BYBLOCK
 62
     0
 10
22154.283799817349
 20
20160.487902000001
 30
0.0
 40
15.0
 50
0.0
 51
180.0
  0
ARC
  5
1238A
  8
0
  6
BYBLOCK
 62
     0
 10
20344.783799817342
 20
20160.487902000001
 30
0.0
 40
15.0
 50
0.0
 51
180.0
  0
ARC
  5
1238B
  8
0
  6
BYBLOCK
 62
     0
 10
20344.783799817342
 20
20160.487902000001
 30
0.0
 40
15.0
 50
180.0
 51
0.0
  0
ARC
  5
1238C
  8
0
  6
BYBLOCK
 62
     0
 10
20752.283799817349
 20
20160.487902000001
 30
0.0
 40
15.0
 50
180.0
 51
0.0
  0
ARC
  5
1238D
  8
0
  6
BYBLOCK
 62
     0
 10
20752.283799817349
 20
20160.487902000001
 30
0.0
 40
15.0
 50
0.0
 51
180.0
  0
ARC
  5
1238E
  8
0
  6
BYBLOCK
 62
     0
 10
20344.783799817342
 20
20160.487902000001
 30
0.0
 40
15.0
 50
0.0
 51
180.0
  0
ARC
  5
1238F
  8
0
  6
BYBLOCK
 62
     0
 10
20344.783799817342
 20
20160.487902000001
 30
0.0
 40
15.0
 50
180.0
 51
0.0
  0
ARC
  5
12390
  8
0
  6
BYBLOCK
 62
     0
 10
20302.283799817349
 20
20160.487902000001
 30
0.0
 40
15.0
 50
180.0
 51
0.0
  0
ARC
  5
12391
  8
0
  6
BYBLOCK
 62
     0
 10
20302.283799817349
 20
20160.487902000001
 30
0.0
 40
15.0
 50
0.0
 51
180.0
  0
ARC
  5
1239E
  8
0
  6
BYBLOCK
 62
     0
 10
23613.283799817342
 20
20560.487902000001
 30
0.0
 40
15.0
 50
0.0
 51
180.0
  0
ARC
  5
1239F
  8
0
  6
BYBLOCK
 62
     0
 10
23613.283799817342
 20
20560.487902000001
 30
0.0
 40
15.0
 50
180.0
 51
0.0
  0
ARC
  5
123A0
  8
0
  6
BYBLOCK
 62
     0
 10
26413.283799817349
 20
20560.487902000001
 30
0.0
 40
15.0
 50
180.0
 51
0.0
  0
ARC
  5
123A1
  8
0
  6
BYBLOCK
 62
     0
 10
26413.283799817349
 20
20560.487902000001
 30
0.0
 40
15.0
 50
0.0
 51
180.0
  0
ARC
  5
123A2
  8
0
  6
BYBLOCK
 62
     0
 10
20344.783799817342
 20
20560.487902000001
 30
0.0
 40
15.0
 50
0.0
 51
180.0
  0
ARC
  5
123A3
  8
0
  6
BYBLOCK
 62
     0
 10
20344.783799817342
 20
20560.487902000001
 30
0.0
 40
15.0
 50
180.0
 51
0.0
  0
ARC
  5
123A4
  8
0
  6
BYBLOCK
 62
     0
 10
23613.283799817342
 20
20560.487902000001
 30
0.0
 40
15.0
 50
180.0
 51
0.0
  0
ARC
  5
123A5
  8
0
  6
BYBLOCK
 62
     0
 10
23613.283799817342
 20
20560.487902000001
 30
0.0
 40
15.0
 50
0.0
 51
180.0
  0
ARC
  5
123A6
  8
0
  6
BYBLOCK
 62
     0
 10
26413.283799817349
 20
20160.487902000001
 30
0.0
 40
15.0
 50
0.0
 51
180.0
  0
ARC
  5
123A7
  8
0
  6
BYBLOCK
 62
     0
 10
26413.283799817349
 20
20160.487902000001
 30
0.0
 40
15.0
 50
180.0
 51
0.0
  0
ARC
  5
123A8
  8
0
  6
BYBLOCK
 62
     0
 10
26370.78155681735
 20
20160.487902000001
 30
0.0
 40
15.0
 50
180.0
 51
0.0
  0
ARC
  5
123A9
  8
0
  6
BYBLOCK
 62
     0
 10
26370.78155681735
 20
20160.487902000001
 30
0.0
 40
15.0
 50
0.0
 51
180.0
  0
ARC
  5
123AA
  8
0
  6
BYBLOCK
 62
     0
 10
26413.283799817349
 20
20160.487902000001
 30
0.0
 40
15.0
 50
180.0
 51
0.0
  0
ARC
  5
123AB
  8
0
  6
BYBLOCK
 62
     0
 10
26413.283799817349
 20
20160.487902000001
 30
0.0
 40
15.0
 50
0.0
 51
180.0
  0
ARC
  5
123AC
  8
0
  6
BYBLOCK
 62
     0
 10
26455.78208481734
 20
20160.487902000001
 30
0.0
 40
15.0
 50
0.0
 51
180.0
  0
ARC
  5
123AD
  8
0
  6
BYBLOCK
 62
     0
 10
26455.78208481734
 20
20160.487902000001
 30
0.0
 40
15.0
 50
180.0
 51
0.0
  0
ARC
  5
123AE
  8
0
  6
BYBLOCK
 62
     0
 10
27631.127424185968
 20
16750.486978000001
 30
0.0
 40
15.0
 50
90.0
 51
270.0
  0
ARC
  5
123AF
  8
0
  6
BYBLOCK
 62
     0
 10
27631.127424185968
 20
16750.486978000001
 30
0.0
 40
15.0
 50
270.0
 51
90.0
  0
ARC
  5
123B0
  8
0
  6
BYBLOCK
 62
     0
 10
27631.127424185968
 20
19317.986978000001
 30
0.0
 40
15.0
 50
270.0
 51
90.0
  0
ARC
  5
123B1
  8
0
  6
BYBLOCK
 62
     0
 10
27631.127424185968
 20
19317.986978000001
 30
0.0
 40
15.0
 50
90.0
 51
270.0
  0
ARC
  5
123B2
  8
0
  6
BYBLOCK
 62
     0
 10
27631.127424185968
 20
13832.48697800001
 30
0.0
 40
15.0
 50
90.0
 51
270.0
  0
ARC
  5
123B3
  8
0
  6
BYBLOCK
 62
     0
 10
27631.127424185968
 20
13832.48697800001
 30
0.0
 40
15.0
 50
270.0
 51
90.0
  0
ARC
  5
123B4
  8
0
  6
BYBLOCK
 62
     0
 10
27631.127424185968
 20
16750.486978000001
 30
0.0
 40
15.0
 50
270.0
 51
90.0
  0
ARC
  5
123B5
  8
0
  6
BYBLOCK
 62
     0
 10
27631.127424185968
 20
16750.486978000001
 30
0.0
 40
15.0
 50
90.0
 51
270.0
  0
ARC
  5
123CA
  8
0
  6
BYBLOCK
 62
     0
 10
7227.0054167031494
 20
9789.1883999999955
 30
0.0
 40
15.0
 50
0.0
 51
180.0
  0
ARC
  5
123CB
  8
0
  6
BYBLOCK
 62
     0
 10
7227.0054167031494
 20
9789.1883999999955
 30
0.0
 40
15.0
 50
180.0
 51
0.0
  0
ARC
  5
123CC
  8
0
  6
BYBLOCK
 62
     0
 10
13127.505416703139
 20
9789.1883999999955
 30
0.0
 40
15.0
 50
180.0
 51
0.0
  0
ARC
  5
123CD
  8
0
  6
BYBLOCK
 62
     0
 10
13127.505416703139
 20
9789.1883999999955
 30
0.0
 40
15.0
 50
0.0
 51
180.0
  0
ARC
  5
123CE
  8
0
  6
BYBLOCK
 62
     0
 10
12977.50541670315
 20
9389.1900500000029
 30
0.0
 40
15.0
 50
180.0
 51
0.0
  0
ARC
  5
123CF
  8
0
  6
BYBLOCK
 62
     0
 10
12977.50541670315
 20
9389.1900500000029
 30
0.0
 40
15.0
 50
0.0
 51
180.0
  0
ARC
  5
123D0
  8
0
  6
BYBLOCK
 62
     0
 10
13127.505416703139
 20
9389.1900500000029
 30
0.0
 40
15.0
 50
0.0
 51
180.0
  0
ARC
  5
123D1
  8
0
  6
BYBLOCK
 62
     0
 10
13127.505416703139
 20
9389.1900500000029
 30
0.0
 40
15.0
 50
180.0
 51
0.0
  0
ARC
  5
123D2
  8
0
  6
BYBLOCK
 62
     0
 10
7407.0054167031503
 20
9389.1900500000029
 30
0.0
 40
15.0
 50
0.0
 51
180.0
  0
ARC
  5
123D3
  8
0
  6
BYBLOCK
 62
     0
 10
7407.0054167031503
 20
9389.1900500000029
 30
0.0
 40
15.0
 50
180.0
 51
0.0
  0
ARC
  5
123D4
  8
0
  6
BYBLOCK
 62
     0
 10
12977.50541670315
 20
9389.1900500000029
 30
0.0
 40
15.0
 50
180.0
 51
0.0
  0
ARC
  5
123D5
  8
0
  6
BYBLOCK
 62
     0
 10
12977.50541670315
 20
9389.1900500000029
 30
0.0
 40
15.0
 50
0.0
 51
180.0
  0
ARC
  5
123D6
  8
0
  6
BYBLOCK
 62
     0
 10
7227.0054167031494
 20
9389.1900500000029
 30
0.0
 40
15.0
 50
0.0
 51
180.0
  0
ARC
  5
123D7
  8
0
  6
BYBLOCK
 62
     0
 10
7227.0054167031494
 20
9389.1900500000029
 30
0.0
 40
15.0
 50
180.0
 51
0.0
  0
ARC
  5
123D8
  8
0
  6
BYBLOCK
 62
     0
 10
7407.0054167031503
 20
9389.1900500000029
 30
0.0
 40
15.0
 50
180.0
 51
0.0
  0
ARC
  5
123D9
  8
0
  6
BYBLOCK
 62
     0
 10
7407.0054167031503
 20
9389.1900500000029
 30
0.0
 40
15.0
 50
0.0
 51
180.0
  0
ARC
  5
123DA
  8
0
  6
BYBLOCK
 62
     0
 10
14067.505812703141
 20
6241.1883740000021
 30
0.0
 40
15.0
 50
90.0
 51
270.0
  0
ARC
  5
123DB
  8
0
  6
BYBLOCK
 62
     0
 10
14067.505812703141
 20
6241.1883740000021
 30
0.0
 40
15.0
 50
270.0
 51
90.0
  0
ARC
  5
123DC
  8
0
  6
BYBLOCK
 62
     0
 10
14067.505812703141
 20
8589.688374000003
 30
0.0
 40
15.0
 50
270.0
 51
90.0
  0
ARC
  5
123DD
  8
0
  6
BYBLOCK
 62
     0
 10
14067.505812703141
 20
8589.688374000003
 30
0.0
 40
15.0
 50
90.0
 51
270.0
  0
ARC
  5
123DE
  8
0
  6
BYBLOCK
 62
     0
 10
6317.00502070316
 20
6241.1883740000021
 30
0.0
 40
15.0
 50
90.0
 51
270.0
  0
ARC
  5
123DF
  8
0
  6
BYBLOCK
 62
     0
 10
6317.00502070316
 20
6241.1883740000021
 30
0.0
 40
15.0
 50
270.0
 51
90.0
  0
ARC
  5
123E0
  8
0
  6
BYBLOCK
 62
     0
 10
6317.00502070316
 20
8397.1883740000048
 30
0.0
 40
15.0
 50
270.0
 51
90.0
  0
ARC
  5
123E1
  8
0
  6
BYBLOCK
 62
     0
 10
6317.00502070316
 20
8397.1883740000048
 30
0.0
 40
15.0
 50
90.0
 51
270.0
  0
ARC
  5
123E2
  8
0
  6
BYBLOCK
 62
     0
 10
7407.0054167031503
 20
4541.1887039999983
 30
0.0
 40
15.0
 50
0.0
 51
180.0
  0
ARC
  5
123E3
  8
0
  6
BYBLOCK
 62
     0
 10
7407.0054167031503
 20
4541.1887039999983
 30
0.0
 40
15.0
 50
180.0
 51
0.0
  0
ARC
  5
123E4
  8
0
  6
BYBLOCK
 62
     0
 10
12977.50541670315
 20
4541.1887039999983
 30
0.0
 40
15.0
 50
180.0
 51
0.0
  0
ARC
  5
123E5
  8
0
  6
BYBLOCK
 62
     0
 10
12977.50541670315
 20
4541.1887039999983
 30
0.0
 40
15.0
 50
0.0
 51
180.0
  0
ARC
  5
123E6
  8
0
  6
BYBLOCK
 62
     0
 10
12935.005416703139
 20
4941.1885390000016
 30
0.0
 40
15.0
 50
180.0
 51
0.0
  0
ARC
  5
123E7
  8
0
  6
BYBLOCK
 62
     0
 10
12935.005416703139
 20
4941.1885390000016
 30
0.0
 40
15.0
 50
0.0
 51
180.0
  0
ARC
  5
123E8
  8
0
  6
BYBLOCK
 62
     0
 10
12977.50541670315
 20
4941.1885390000016
 30
0.0
 40
15.0
 50
0.0
 51
180.0
  0
ARC
  5
123E9
  8
0
  6
BYBLOCK
 62
     0
 10
12977.50541670315
 20
4941.1885390000016
 30
0.0
 40
15.0
 50
180.0
 51
0.0
  0
ARC
  5
123EA
  8
0
  6
BYBLOCK
 62
     0
 10
7449.5054167031458
 20
4941.1885390000016
 30
0.0
 40
15.0
 50
0.0
 51
180.0
  0
ARC
  5
123EB
  8
0
  6
BYBLOCK
 62
     0
 10
7449.5054167031458
 20
4941.1885390000016
 30
0.0
 40
15.0
 50
180.0
 51
0.0
  0
ARC
  5
123EC
  8
0
  6
BYBLOCK
 62
     0
 10
7407.0054167031503
 20
4941.1885390000016
 30
0.0
 40
15.0
 50
180.0
 51
0.0
  0
ARC
  5
123ED
  8
0
  6
BYBLOCK
 62
     0
 10
7407.0054167031503
 20
4941.1885390000016
 30
0.0
 40
15.0
 50
0.0
 51
180.0
  0
ARC
  5
123EE
  8
0
  6
BYBLOCK
 62
     0
 10
10017.005416703139
 20
4941.1885390000016
 30
0.0
 40
15.0
 50
180.0
 51
0.0
  0
ARC
  5
123EF
  8
0
  6
BYBLOCK
 62
     0
 10
10017.005416703139
 20
4941.1885390000016
 30
0.0
 40
15.0
 50
0.0
 51
180.0
  0
ARC
  5
123F0
  8
0
  6
BYBLOCK
 62
     0
 10
7449.5054167031458
 20
4941.1885390000016
 30
0.0
 40
15.0
 50
0.0
 51
180.0
  0
ARC
  5
123F1
  8
0
  6
BYBLOCK
 62
     0
 10
7449.5054167031458
 20
4941.1885390000016
 30
0.0
 40
15.0
 50
180.0
 51
0.0
  0
ARC
  5
123F2
  8
0
  6
BYBLOCK
 62
     0
 10
10017.005416703139
 20
4941.1885390000016
 30
0.0
 40
15.0
 50
0.0
 51
180.0
  0
ARC
  5
123F3
  8
0
  6
BYBLOCK
 62
     0
 10
10017.005416703139
 20
4941.1885390000016
 30
0.0
 40
15.0
 50
180.0
 51
0.0
  0
ARC
  5
123F4
  8
0
  6
BYBLOCK
 62
     0
 10
12935.005416703139
 20
4941.1885390000016
 30
0.0
 40
15.0
 50
180.0
 51
0.0
  0
ARC
  5
123F5
  8
0
  6
BYBLOCK
 62
     0
 10
12935.005416703139
 20
4941.1885390000016
 30
0.0
 40
15.0
 50
0.0
 51
180.0
  0
ARC
  5
123F6
  8
0
  6
BYBLOCK
 62
     0
 10
6270.0630655859541
 20
13811.985710999999
 30
0.0
 40
15.0
 50
270.0
 51
90.0
  0
ARC
  5
123F7
  8
0
  6
BYBLOCK
 62
     0
 10
6270.0630655859541
 20
13811.985710999999
 30
0.0
 40
15.0
 50
90.0
 51
270.0
  0
ARC
  5
123F8
  8
0
  6
BYBLOCK
 62
     0
 10
6270.0630655859541
 20
13619.48643699999
 30
0.0
 40
15.0
 50
90.0
 51
270.0
  0
ARC
  5
123F9
  8
0
  6
BYBLOCK
 62
     0
 10
6270.0630655859541
 20
13619.48643699999
 30
0.0
 40
15.0
 50
270.0
 51
90.0
  0
ARC
  5
123FA
  8
0
  6
BYBLOCK
 62
     0
 10
6270.0630655859559
 20
16729.985711000001
 30
0.0
 40
15.0
 50
270.0
 51
90.0
  0
ARC
  5
123FB
  8
0
  6
BYBLOCK
 62
     0
 10
6270.0630655859559
 20
16729.985711000001
 30
0.0
 40
15.0
 50
90.0
 51
270.0
  0
ARC
  5
123FC
  8
0
  6
BYBLOCK
 62
     0
 10
6270.0630655859541
 20
13811.985710999999
 30
0.0
 40
15.0
 50
90.0
 51
270.0
  0
ARC
  5
123FD
  8
0
  6
BYBLOCK
 62
     0
 10
6270.0630655859541
 20
13811.985710999999
 30
0.0
 40
15.0
 50
270.0
 51
90.0
  0
ARC
  5
123FE
  8
0
  6
BYBLOCK
 62
     0
 10
6270.0630655859568
 20
19297.485711000001
 30
0.0
 40
15.0
 50
270.0
 51
90.0
  0
ARC
  5
123FF
  8
0
  6
BYBLOCK
 62
     0
 10
6270.0630655859568
 20
19297.485711000001
 30
0.0
 40
15.0
 50
90.0
 51
270.0
  0
ARC
  5
12400
  8
0
  6
BYBLOCK
 62
     0
 10
6270.0630655859559
 20
16729.985711000001
 30
0.0
 40
15.0
 50
90.0
 51
270.0
  0
ARC
  5
12401
  8
0
  6
BYBLOCK
 62
     0
 10
6270.0630655859559
 20
16729.985711000001
 30
0.0
 40
15.0
 50
270.0
 51
90.0
  0
ARC
  5
12402
  8
0
  6
BYBLOCK
 62
     0
 10
6270.0630655859568
 20
19297.485711000001
 30
0.0
 40
15.0
 50
90.0
 51
270.0
  0
ARC
  5
12403
  8
0
  6
BYBLOCK
 62
     0
 10
6270.0630655859568
 20
19297.485711000001
 30
0.0
 40
15.0
 50
270.0
 51
90.0
  0
ARC
  5
12404
  8
0
  6
BYBLOCK
 62
     0
 10
6270.0630655859568
 20
19519.985579
 30
0.0
 40
15.0
 50
270.0
 51
90.0
  0
ARC
  5
12405
  8
0
  6
BYBLOCK
 62
     0
 10
6270.0630655859568
 20
19519.985579
 30
0.0
 40
15.0
 50
90.0
 51
270.0
  0
ARC
  5
12406
  8
0
  6
BYBLOCK
 62
     0
 10
6670.0624065859538
 20
19509.98900999999
 30
0.0
 40
15.0
 50
270.0
 51
90.0
  0
ARC
  5
12407
  8
0
  6
BYBLOCK
 62
     0
 10
6670.0624065859538
 20
19509.98900999999
 30
0.0
 40
15.0
 50
90.0
 51
270.0
  0
ARC
  5
12408
  8
0
  6
BYBLOCK
 62
     0
 10
6670.0624065859538
 20
19519.985579
 30
0.0
 40
15.0
 50
90.0
 51
270.0
  0
ARC
  5
12409
  8
0
  6
BYBLOCK
 62
     0
 10
6670.0624065859538
 20
19519.985579
 30
0.0
 40
15.0
 50
270.0
 51
90.0
  0
ARC
  5
1240A
  8
0
  6
BYBLOCK
 62
     0
 10
13268.06284158595
 20
20139.986634999979
 30
0.0
 40
15.0
 50
180.0
 51
0.0
  0
ARC
  5
1240B
  8
0
  6
BYBLOCK
 62
     0
 10
13268.06284158595
 20
20139.986634999979
 30
0.0
 40
15.0
 50
0.0
 51
180.0
  0
ARC
  5
1240C
  8
0
  6
BYBLOCK
 62
     0
 10
13353.562841585939
 20
20139.986634999979
 30
0.0
 40
15.0
 50
0.0
 51
180.0
  0
ARC
  5
1240D
  8
0
  6
BYBLOCK
 62
     0
 10
13353.562841585939
 20
20139.986634999979
 30
0.0
 40
15.0
 50
180.0
 51
0.0
  0
ARC
  5
1240E
  8
0
  6
BYBLOCK
 62
     0
 10
10468.06284158595
 20
20139.986634999979
 30
0.0
 40
15.0
 50
0.0
 51
180.0
  0
ARC
  5
1240F
  8
0
  6
BYBLOCK
 62
     0
 10
10468.06284158595
 20
20139.986634999979
 30
0.0
 40
15.0
 50
180.0
 51
0.0
  0
ARC
  5
12410
  8
0
  6
BYBLOCK
 62
     0
 10
13268.06284158595
 20
20139.986634999979
 30
0.0
 40
15.0
 50
180.0
 51
0.0
  0
ARC
  5
12411
  8
0
  6
BYBLOCK
 62
     0
 10
13268.06284158595
 20
20139.986634999979
 30
0.0
 40
15.0
 50
0.0
 51
180.0
  0
ARC
  5
12412
  8
0
  6
BYBLOCK
 62
     0
 10
7199.5628415859474
 20
20139.986634999979
 30
0.0
 40
15.0
 50
0.0
 51
180.0
  0
ARC
  5
12413
  8
0
  6
BYBLOCK
 62
     0
 10
7199.5628415859474
 20
20139.986634999979
 30
0.0
 40
15.0
 50
180.0
 51
0.0
  0
ARC
  5
12414
  8
0
  6
BYBLOCK
 62
     0
 10
10468.06284158595
 20
20139.986634999979
 30
0.0
 40
15.0
 50
180.0
 51
0.0
  0
ARC
  5
12415
  8
0
  6
BYBLOCK
 62
     0
 10
10468.06284158595
 20
20139.986634999979
 30
0.0
 40
15.0
 50
0.0
 51
180.0
  0
ARC
  5
12416
  8
0
  6
BYBLOCK
 62
     0
 10
7199.5628415859474
 20
20139.986634999979
 30
0.0
 40
15.0
 50
0.0
 51
180.0
  0
ARC
  5
12417
  8
0
  6
BYBLOCK
 62
     0
 10
7199.5628415859474
 20
20139.986634999979
 30
0.0
 40
15.0
 50
180.0
 51
0.0
  0
ARC
  5
12418
  8
0
  6
BYBLOCK
 62
     0
 10
7114.0628415859483
 20
20139.986634999979
 30
0.0
 40
15.0
 50
180.0
 51
0.0
  0
ARC
  5
12419
  8
0
  6
BYBLOCK
 62
     0
 10
7114.0628415859483
 20
20139.986634999979
 30
0.0
 40
15.0
 50
0.0
 51
180.0
  0
ARC
  5
1241A
  8
0
  6
BYBLOCK
 62
     0
 10
7114.0628415859483
 20
12329.48564499999
 30
0.0
 40
15.0
 50
0.0
 51
180.0
  0
ARC
  5
1241B
  8
0
  6
BYBLOCK
 62
     0
 10
7114.0628415859483
 20
12329.48564499999
 30
0.0
 40
15.0
 50
180.0
 51
0.0
  0
ARC
  5
1241C
  8
0
  6
BYBLOCK
 62
     0
 10
13353.562841585939
 20
12329.48564499999
 30
0.0
 40
15.0
 50
180.0
 51
0.0
  0
ARC
  5
1241D
  8
0
  6
BYBLOCK
 62
     0
 10
13353.562841585939
 20
12329.48564499999
 30
0.0
 40
15.0
 50
0.0
 51
180.0
  0
TEXT
  5
124F8
  8
NAME
 10
21595.82616625919
 20
1076.6369801169251
 30
0.0
 40
360.0
  1
VGC-3355（H）+VKC-2855（H）型-R（単棟）
 41
0.45
  0
TEXT
  5
124F9
  8
NAME
 10
21933.552716389011
 20
1876.0
 30
0.0
 40
360.0
  1
ヨドガレージ ラヴィージュ
 41
0.75
  7
01
  0
LINE
  5
124FA
  8
NAME
  6
CONTINUOUS
 10
26067.886878884299
 20
2236.0
 30
0.0
 11
26067.886878884299
 21
1876.0
 31
0.0
  0
LINE
  5
124FB
  8
NAME
  6
CONTINUOUS
 10
26167.886878884299
 20
2236.0
 30
0.0
 11
26167.886878884299
 21
1876.0
 31
0.0
  0
LINE
  5
124FC
  8
NAME
  6
CONTINUOUS
 10
26267.88687888431
 20
2236.0
 30
0.0
 11
26267.88687888431
 21
1876.0
 31
0.0
  0
LINE
  5
124FD
  8
NAME
  6
CONTINUOUS
 10
26007.886878884299
 20
2236.0
 30
0.0
 11
26327.886878884299
 21
2236.0
 31
0.0
  0
LINE
  5
124FE
  8
NAME
  6
CONTINUOUS
 10
26327.886878884299
 20
1876.0
 30
0.0
 11
26007.886878884299
 21
1876.0
 31
0.0
  0
LINE
  5
1353B
  8
2-0
  6
CONTINUOUS
 62
     6
 10
20598.649139817349
 20
16854.514217000022
 30
0.0
 11
20903.344557817349
 21
16958.167748000029
 31
0.0
  0
LINE
  5
1353C
  8
2-0
  6
CONTINUOUS
 62
     6
 10
20443.627100817361
 20
16364.892173000029
 30
0.0
 11
20903.344557817349
 21
16120.978862000011
 31
0.0
  0
LINE
  5
1353D
  8
2-0
  6
CONTINUOUS
 62
     6
 10
21823.347592817339
 20
16120.978862000011
 30
0.0
 11
20903.344557817349
 21
16120.978862000011
 31
0.0
  0
LINE
  5
1353E
  8
2-0
  6
CONTINUOUS
 62
     6
 10
22103.33861981735
 20
16958.167748000029
 30
0.0
 11
20903.344557817349
 21
16958.167748000029
 31
0.0
  0
LINE
  5
1353F
  8
2-0
  6
CONTINUOUS
 62
     6
 10
20527.449815817341
 20
13984.590216000001
 30
0.0
 11
20903.344557817349
 21
14165.53405100001
 31
0.0
  0
LINE
  5
13540
  8
2-0
  6
CONTINUOUS
 62
     6
 10
21423.346273817351
 20
14165.53405100001
 30
0.0
 11
20903.344557817349
 21
14165.53405100001
 31
0.0
  0
LINE
  5
13541
  8
2-0
  6
CONTINUOUS
 62
     3
 10
23625.782480817361
 20
19251.485052000018
 30
0.0
 11
23625.782480817361
 21
19245.489090000021
 31
0.0
  0
LINE
  5
13542
  8
2-0
  6
CONTINUOUS
 62
     3
 10
23625.782480817361
 20
19245.489090000021
 30
0.0
 11
23655.78010481735
 21
19245.489090000021
 31
0.0
  0
LINE
  5
13543
  8
2-0
  6
CONTINUOUS
 62
     3
 10
23655.78010481735
 20
19275.488694000011
 30
0.0
 11
23574.77820481735
 21
19275.488694000011
 31
0.0
  0
LINE
  5
13544
  8
2-0
  6
CONTINUOUS
 62
     3
 10
23625.782480817361
 20
19235.19163400001
 30
0.0
 11
23655.78010481735
 21
19235.19163400001
 31
0.0
  0
LINE
  5
13545
  8
2-0
  6
CONTINUOUS
 62
     3
 10
23625.782480817361
 20
19253.193376000028
 30
0.0
 11
23625.782480817361
 21
19235.19163400001
 31
0.0
  0
LINE
  5
13546
  8
2-0
  6
CONTINUOUS
 62
     3
 10
23650.779840817358
 20
19253.193376000028
 30
0.0
 11
23625.782480817361
 21
19253.193376000028
 31
0.0
  0
LINE
  5
13547
  8
2-0
  6
CONTINUOUS
 62
     3
 10
23650.779840817358
 20
19248.18519400002
 30
0.0
 11
23650.779840817358
 21
19253.193376000028
 31
0.0
  0
LINE
  5
13548
  8
2-0
  6
CONTINUOUS
 62
     3
 10
23643.77828381737
 20
19248.18519400002
 30
0.0
 11
23650.779840817358
 21
19248.18519400002
 31
0.0
  0
LINE
  5
13549
  8
2-0
  6
CONTINUOUS
 62
     3
 10
23543.482015817379
 20
19348.485421000009
 30
0.0
 11
23543.482015817379
 21
19355.49093700002
 31
0.0
  0
LINE
  5
1354A
  8
2-0
  6
CONTINUOUS
 62
     3
 10
23543.482015817379
 20
19355.49093700002
 30
0.0
 11
23548.482279817341
 21
19355.49093700002
 31
0.0
  0
LINE
  5
1354B
  8
2-0
  6
CONTINUOUS
 62
     3
 10
23548.482279817341
 20
19355.49093700002
 30
0.0
 11
23548.482279817341
 21
19330.481700000018
 31
0.0
  0
LINE
  5
1354C
  8
2-0
  6
CONTINUOUS
 62
     3
 10
23548.482279817341
 20
19330.481700000018
 30
0.0
 11
23530.48053781733
 21
19330.481700000018
 31
0.0
  0
LINE
  5
1354D
  8
2-0
  6
CONTINUOUS
 62
     3
 10
23530.48053781733
 20
19330.481700000018
 30
0.0
 11
23530.48053781733
 21
19360.48526300002
 31
0.0
  0
LINE
  5
1354E
  8
2-0
  6
CONTINUOUS
 62
     3
 10
23540.777993817359
 20
19360.48526300002
 30
0.0
 11
23655.78010481735
 21
19360.48526300002
 31
0.0
  0
LINE
  5
1354F
  8
2-0
  6
CONTINUOUS
 62
     3
 10
23540.777993817359
 20
19330.481700000018
 30
0.0
 11
23540.777993817359
 21
19360.48526300002
 31
0.0
  0
LINE
  5
13550
  8
2-0
  6
CONTINUOUS
 62
     3
 10
23546.779893817358
 20
19330.481700000018
 30
0.0
 11
23540.777993817359
 21
19330.481700000018
 31
0.0
  0
LINE
  5
13551
  8
2-0
  6
CONTINUOUS
 62
     3
 10
23643.77828381737
 20
18894.888371500001
 30
0.0
 11
23650.779840817358
 21
18894.888371500001
 31
0.0
  0
LINE
  5
13552
  8
2-0
  6
CONTINUOUS
 62
     3
 10
23650.779840817358
 20
18894.888371500001
 30
0.0
 11
23650.779840817358
 21
18899.8886355
 31
0.0
  0
LINE
  5
13553
  8
2-0
  6
CONTINUOUS
 62
     3
 10
23650.779840817358
 20
18899.8886355
 30
0.0
 11
23625.782480817361
 21
18899.8886355
 31
0.0
  0
LINE
  5
13554
  8
2-0
  6
CONTINUOUS
 62
     3
 10
23625.782480817361
 20
18899.8886355
 30
0.0
 11
23625.782480817361
 21
18881.892831500008
 31
0.0
  0
LINE
  5
13555
  8
2-0
  6
CONTINUOUS
 62
     3
 10
23625.782480817361
 20
18881.892831500008
 30
0.0
 11
23655.78010481735
 21
18881.892831500008
 31
0.0
  0
LINE
  5
13556
  8
2-0
  6
CONTINUOUS
 62
     3
 10
23625.782480817361
 20
18897.98433849998
 30
0.0
 11
23625.782480817361
 21
18891.986397500012
 31
0.0
  0
LINE
  5
13557
  8
2-0
  6
CONTINUOUS
 62
     3
 10
23625.782480817361
 20
18891.986397500012
 30
0.0
 11
23655.78010481735
 21
18891.986397500012
 31
0.0
  0
LINE
  5
13558
  8
2-0
  6
CONTINUOUS
 62
     3
 10
23655.78010481735
 20
18891.986397500012
 30
0.0
 11
23655.78010481735
 21
18928.987558500012
 31
0.0
  0
LINE
  5
13559
  8
2-0
  6
CONTINUOUS
 62
     3
 10
23625.782480817361
 20
18928.987558500012
 30
0.0
 11
23655.78010481735
 21
18928.987558500012
 31
0.0
  0
LINE
  5
1355A
  8
2-0
  6
CONTINUOUS
 62
     3
 10
23625.782480817361
 20
18922.98367849999
 30
0.0
 11
23625.782480817361
 21
18928.987558500012
 31
0.0
  0
LINE
  5
1355B
  8
2-0
  6
CONTINUOUS
 62
     3
 10
23625.782480817361
 20
18939.083103500001
 30
0.0
 11
23655.78010481735
 21
18939.083103500001
 31
0.0
  0
LINE
  5
1355C
  8
2-0
  6
CONTINUOUS
 62
     3
 10
23625.782480817361
 20
18921.081361500001
 30
0.0
 11
23625.782480817361
 21
18939.083103500001
 31
0.0
  0
LINE
  5
1355D
  8
2-0
  6
CONTINUOUS
 62
     3
 10
23650.779840817358
 20
18921.081361500001
 30
0.0
 11
23625.782480817361
 21
18921.081361500001
 31
0.0
  0
LINE
  5
1355E
  8
2-0
  6
CONTINUOUS
 62
     3
 10
23650.779840817358
 20
18926.08162550001
 30
0.0
 11
23650.779840817358
 21
18921.081361500001
 31
0.0
  0
LINE
  5
1355F
  8
2-0
  6
CONTINUOUS
 62
     3
 10
23643.77828381737
 20
18926.08162550001
 30
0.0
 11
23650.779840817358
 21
18926.08162550001
 31
0.0
  0
LINE
  5
13560
  8
2-0
  6
CONTINUOUS
 62
     3
 10
23643.77828381737
 20
18193.887382000012
 30
0.0
 11
23650.779840817358
 21
18193.887382000012
 31
0.0
  0
LINE
  5
13561
  8
2-0
  6
CONTINUOUS
 62
     3
 10
23650.779840817358
 20
18193.887382000012
 30
0.0
 11
23650.779840817358
 21
18198.893584000009
 31
0.0
  0
LINE
  5
13562
  8
2-0
  6
CONTINUOUS
 62
     3
 10
23650.779840817358
 20
18198.893584000009
 30
0.0
 11
23625.782480817361
 21
18198.893584000009
 31
0.0
  0
LINE
  5
13563
  8
2-0
  6
CONTINUOUS
 62
     3
 10
23625.782480817361
 20
18198.893584000009
 30
0.0
 11
23625.782480817361
 21
18180.891842000008
 31
0.0
  0
LINE
  5
13564
  8
2-0
  6
CONTINUOUS
 62
     3
 10
23625.782480817361
 20
18180.891842000008
 30
0.0
 11
23655.78010481735
 21
18180.891842000008
 31
0.0
  0
LINE
  5
13565
  8
2-0
  6
CONTINUOUS
 62
     3
 10
23625.782480817361
 20
18196.983348999998
 30
0.0
 11
23625.782480817361
 21
18190.987387000008
 31
0.0
  0
LINE
  5
13566
  8
2-0
  6
CONTINUOUS
 62
     3
 10
23625.782480817361
 20
18190.987387000008
 30
0.0
 11
23655.78010481735
 21
18190.987387000008
 31
0.0
  0
LINE
  5
13567
  8
2-0
  6
CONTINUOUS
 62
     3
 10
23655.78010481735
 20
18190.987387000008
 30
0.0
 11
23655.78010481735
 21
18227.986569000001
 31
0.0
  0
LINE
  5
13568
  8
2-0
  6
CONTINUOUS
 62
     3
 10
23625.782480817361
 20
18227.986569000001
 30
0.0
 11
23655.78010481735
 21
18227.986569000001
 31
0.0
  0
LINE
  5
13569
  8
2-0
  6
CONTINUOUS
 62
     3
 10
23625.782480817361
 20
18221.990607000011
 30
0.0
 11
23625.782480817361
 21
18227.986569000001
 31
0.0
  0
LINE
  5
1356A
  8
2-0
  6
CONTINUOUS
 62
     3
 10
23625.782480817361
 20
18238.082114000012
 30
0.0
 11
23655.78010481735
 21
18238.082114000012
 31
0.0
  0
LINE
  5
1356B
  8
2-0
  6
CONTINUOUS
 62
     3
 10
23625.782480817361
 20
18220.080372
 30
0.0
 11
23625.782480817361
 21
18238.082114000012
 31
0.0
  0
LINE
  5
1356C
  8
2-0
  6
CONTINUOUS
 62
     3
 10
23650.779840817358
 20
18220.080372
 30
0.0
 11
23625.782480817361
 21
18220.080372
 31
0.0
  0
LINE
  5
1356D
  8
2-0
  6
CONTINUOUS
 62
     3
 10
23650.779840817358
 20
18225.086574000012
 30
0.0
 11
23650.779840817358
 21
18220.080372
 31
0.0
  0
LINE
  5
1356E
  8
2-0
  6
CONTINUOUS
 62
     3
 10
23643.77828381737
 20
18225.086574000012
 30
0.0
 11
23650.779840817358
 21
18225.086574000012
 31
0.0
  0
LINE
  5
1356F
  8
2-0
  6
CONTINUOUS
 62
     3
 10
23643.77828381737
 20
17524.08063600001
 30
0.0
 11
23650.779840817358
 21
17524.08063600001
 31
0.0
  0
LINE
  5
13570
  8
2-0
  6
CONTINUOUS
 62
     3
 10
23650.779840817358
 20
17524.08063600001
 30
0.0
 11
23650.779840817358
 21
17519.092249000019
 31
0.0
  0
LINE
  5
13571
  8
2-0
  6
CONTINUOUS
 62
     3
 10
23650.779840817358
 20
17519.092249000019
 30
0.0
 11
23625.782480817361
 21
17519.092249000019
 31
0.0
  0
LINE
  5
13572
  8
2-0
  6
CONTINUOUS
 62
     3
 10
23625.782480817361
 20
17519.092249000019
 30
0.0
 11
23625.782480817361
 21
17537.08805200001
 31
0.0
  0
LINE
  5
13573
  8
2-0
  6
CONTINUOUS
 62
     3
 10
23625.782480817361
 20
17537.08805200001
 30
0.0
 11
23655.78010481735
 21
17537.08805200001
 31
0.0
  0
LINE
  5
13574
  8
2-0
  6
CONTINUOUS
 62
     3
 10
23625.782480817361
 20
17520.990607
 30
0.0
 11
23625.782480817361
 21
17526.986569000001
 31
0.0
  0
LINE
  5
13575
  8
2-0
  6
CONTINUOUS
 62
     3
 10
23625.782480817361
 20
17526.986569000001
 30
0.0
 11
23655.78010481735
 21
17526.986569000001
 31
0.0
  0
LINE
  5
13576
  8
2-0
  6
CONTINUOUS
 62
     3
 10
23655.78010481735
 20
17526.986569000001
 30
0.0
 11
23655.78010481735
 21
17489.987387000019
 31
0.0
  0
LINE
  5
13577
  8
2-0
  6
CONTINUOUS
 62
     3
 10
23625.782480817361
 20
17489.987387000019
 30
0.0
 11
23655.78010481735
 21
17489.987387000019
 31
0.0
  0
LINE
  5
13578
  8
2-0
  6
CONTINUOUS
 62
     3
 10
23625.782480817361
 20
17495.989288000001
 30
0.0
 11
23625.782480817361
 21
17489.987387000019
 31
0.0
  0
LINE
  5
13579
  8
2-0
  6
CONTINUOUS
 62
     3
 10
23625.782480817361
 20
17479.897781
 30
0.0
 11
23655.78010481735
 21
17479.897781
 31
0.0
  0
LINE
  5
1357A
  8
2-0
  6
CONTINUOUS
 62
     3
 10
23625.782480817361
 20
17497.893584000009
 30
0.0
 11
23625.782480817361
 21
17479.897781
 31
0.0
  0
LINE
  5
1357B
  8
2-0
  6
CONTINUOUS
 62
     3
 10
23650.779840817358
 20
17497.893584000009
 30
0.0
 11
23625.782480817361
 21
17497.893584000009
 31
0.0
  0
LINE
  5
1357C
  8
2-0
  6
CONTINUOUS
 62
     3
 10
23650.779840817358
 20
17492.89332100001
 30
0.0
 11
23650.779840817358
 21
17497.893584000009
 31
0.0
  0
LINE
  5
1357D
  8
2-0
  6
CONTINUOUS
 62
     3
 10
23643.77828381737
 20
17492.89332100001
 30
0.0
 11
23650.779840817358
 21
17492.89332100001
 31
0.0
  0
LINE
  5
1357E
  8
2-0
  6
CONTINUOUS
 62
     3
 10
23652.89396681737
 20
16772.984207000009
 30
0.0
 11
23652.89396681737
 21
16792.985262000009
 31
0.0
  0
LINE
  5
1357F
  8
2-0
  6
CONTINUOUS
 62
     3
 10
23652.89396681737
 20
16792.985262000009
 30
0.0
 11
23567.897397817349
 21
16792.985262000009
 31
0.0
  0
LINE
  5
13580
  8
2-0
  6
CONTINUOUS
 62
     3
 10
23643.77828381737
 20
16819.59197200002
 30
0.0
 11
23650.779840817358
 21
16819.59197200002
 31
0.0
  0
LINE
  5
13581
  8
2-0
  6
CONTINUOUS
 62
     3
 10
23650.779840817358
 20
16819.59197200002
 30
0.0
 11
23650.779840817358
 21
16814.59764600002
 31
0.0
  0
LINE
  5
13582
  8
2-0
  6
CONTINUOUS
 62
     3
 10
23650.779840817358
 20
16814.59764600002
 30
0.0
 11
23625.782480817361
 21
16814.59764600002
 31
0.0
  0
LINE
  5
13583
  8
2-0
  6
CONTINUOUS
 62
     3
 10
23625.782480817361
 20
16814.59764600002
 30
0.0
 11
23625.782480817361
 21
16832.593450000011
 31
0.0
  0
LINE
  5
13584
  8
2-0
  6
CONTINUOUS
 62
     3
 10
23625.782480817361
 20
16832.593450000011
 30
0.0
 11
23655.78010481735
 21
16832.593450000011
 31
0.0
  0
LINE
  5
13585
  8
2-0
  6
CONTINUOUS
 62
     3
 10
23625.782480817361
 20
16822.98486600001
 30
0.0
 11
23625.782480817361
 21
16816.982966
 31
0.0
  0
LINE
  5
13586
  8
2-0
  6
CONTINUOUS
 62
     3
 10
23655.78010481735
 20
16822.98486600001
 30
0.0
 11
23625.782480817361
 21
16822.98486600001
 31
0.0
  0
LINE
  5
13587
  8
2-0
  6
CONTINUOUS
 62
     3
 10
23655.78010481735
 20
16832.593450000011
 30
0.0
 11
23655.78010481735
 21
17479.897781
 31
0.0
  0
LINE
  5
13588
  8
2-0
  6
CONTINUOUS
 62
     3
 10
23655.78010481735
 20
17537.08805200001
 30
0.0
 11
23655.78010481735
 21
18180.891842000008
 31
0.0
  0
LINE
  5
13589
  8
2-0
  6
CONTINUOUS
 62
     3
 10
23655.78010481735
 20
16677.983151000019
 30
0.0
 11
23625.782480817361
 21
16677.983151000019
 31
0.0
  0
LINE
  5
1358A
  8
2-0
  6
CONTINUOUS
 62
     3
 10
23625.782480817361
 20
16677.983151000019
 30
0.0
 11
23625.782480817361
 21
16683.985051000011
 31
0.0
  0
LINE
  5
1358B
  8
2-0
  6
CONTINUOUS
 62
     3
 10
23567.897397817349
 20
16707.988694
 30
0.0
 11
23652.89396681737
 21
16707.988694
 31
0.0
  0
LINE
  5
1358C
  8
2-0
  6
CONTINUOUS
 62
     3
 10
23652.89396681737
 20
16707.988694
 30
0.0
 11
23652.89396681737
 21
16727.98381100002
 31
0.0
  0
LINE
  5
1358D
  8
2-0
  6
CONTINUOUS
 62
     3
 10
23625.782480817361
 20
16668.37456800001
 30
0.0
 11
23655.78010481735
 21
16668.37456800001
 31
0.0
  0
LINE
  5
1358E
  8
2-0
  6
CONTINUOUS
 62
     3
 10
23625.782480817361
 20
16686.37037099999
 30
0.0
 11
23625.782480817361
 21
16668.37456800001
 31
0.0
  0
LINE
  5
1358F
  8
2-0
  6
CONTINUOUS
 62
     3
 10
23650.779840817358
 20
16686.37037099999
 30
0.0
 11
23625.782480817361
 21
16686.37037099999
 31
0.0
  0
LINE
  5
13590
  8
2-0
  6
CONTINUOUS
 62
     3
 10
23650.779840817358
 20
16681.370107000021
 30
0.0
 11
23650.779840817358
 21
16686.37037099999
 31
0.0
  0
LINE
  5
13591
  8
2-0
  6
CONTINUOUS
 62
     3
 10
23643.77828381737
 20
16681.370107000021
 30
0.0
 11
23650.779840817358
 21
16681.370107000021
 31
0.0
  0
LINE
  5
13592
  8
2-0
  6
CONTINUOUS
 62
     3
 10
23643.77828381737
 20
15976.88787649999
 30
0.0
 11
23650.779840817358
 21
15976.88787649999
 31
0.0
  0
LINE
  5
13593
  8
2-0
  6
CONTINUOUS
 62
     3
 10
23650.779840817358
 20
15976.88787649999
 30
0.0
 11
23650.779840817358
 21
15981.888140499999
 31
0.0
  0
LINE
  5
13594
  8
2-0
  6
CONTINUOUS
 62
     3
 10
23650.779840817358
 20
15981.888140499999
 30
0.0
 11
23625.782480817361
 21
15981.888140499999
 31
0.0
  0
LINE
  5
13595
  8
2-0
  6
CONTINUOUS
 62
     3
 10
23625.782480817361
 20
15981.888140499999
 30
0.0
 11
23625.782480817361
 21
15963.88639850001
 31
0.0
  0
LINE
  5
13596
  8
2-0
  6
CONTINUOUS
 62
     3
 10
23625.782480817361
 20
15963.88639850001
 30
0.0
 11
23655.78010481735
 21
15963.88639850001
 31
0.0
  0
LINE
  5
13597
  8
2-0
  6
CONTINUOUS
 62
     3
 10
23625.782480817361
 20
15979.983843500009
 30
0.0
 11
23625.782480817361
 21
15973.98689250001
 31
0.0
  0
LINE
  5
13598
  8
2-0
  6
CONTINUOUS
 62
     3
 10
23625.782480817361
 20
15973.98689250001
 30
0.0
 11
23655.78010481735
 21
15973.98689250001
 31
0.0
  0
LINE
  5
13599
  8
2-0
  6
CONTINUOUS
 62
     3
 10
23655.78010481735
 20
15973.98689250001
 30
0.0
 11
23655.78010481735
 21
16010.98706350001
 31
0.0
  0
LINE
  5
1359A
  8
2-0
  6
CONTINUOUS
 62
     3
 10
23625.782480817361
 20
16010.98706350001
 30
0.0
 11
23655.78010481735
 21
16010.98706350001
 31
0.0
  0
LINE
  5
1359B
  8
2-0
  6
CONTINUOUS
 62
     3
 10
23625.782480817361
 20
16004.984173500001
 30
0.0
 11
23625.782480817361
 21
16010.98706350001
 31
0.0
  0
LINE
  5
1359C
  8
2-0
  6
CONTINUOUS
 62
     3
 10
23625.782480817361
 20
16021.08260850001
 30
0.0
 11
23655.78010481735
 21
16021.08260850001
 31
0.0
  0
LINE
  5
1359D
  8
2-0
  6
CONTINUOUS
 62
     3
 10
23625.782480817361
 20
16003.074927500011
 30
0.0
 11
23625.782480817361
 21
16021.08260850001
 31
0.0
  0
LINE
  5
1359E
  8
2-0
  6
CONTINUOUS
 62
     3
 10
23650.779840817358
 20
16003.074927500011
 30
0.0
 11
23625.782480817361
 21
16003.074927500011
 31
0.0
  0
LINE
  5
1359F
  8
2-0
  6
CONTINUOUS
 62
     3
 10
23650.779840817358
 20
16008.08113050001
 30
0.0
 11
23650.779840817358
 21
16003.074927500011
 31
0.0
  0
LINE
  5
135A0
  8
2-0
  6
CONTINUOUS
 62
     3
 10
23643.77828381737
 20
16008.08113050001
 30
0.0
 11
23650.779840817358
 21
16008.08113050001
 31
0.0
  0
LINE
  5
135A1
  8
2-0
  6
CONTINUOUS
 62
     3
 10
23643.77828381737
 20
15307.321147000021
 30
0.0
 11
23650.779840817358
 21
15307.321147000021
 31
0.0
  0
LINE
  5
135A2
  8
2-0
  6
CONTINUOUS
 62
     3
 10
23650.779840817358
 20
15307.321147000021
 30
0.0
 11
23650.779840817358
 21
15302.326822000019
 31
0.0
  0
LINE
  5
135A3
  8
2-0
  6
CONTINUOUS
 62
     3
 10
23650.779840817358
 20
15302.326822000019
 30
0.0
 11
23625.782480817361
 21
15302.326822000019
 31
0.0
  0
LINE
  5
135A4
  8
2-0
  6
CONTINUOUS
 62
     3
 10
23625.782480817361
 20
15302.326822000019
 30
0.0
 11
23625.782480817361
 21
15320.322625000021
 31
0.0
  0
LINE
  5
135A5
  8
2-0
  6
CONTINUOUS
 62
     3
 10
23625.782480817361
 20
15320.322625000021
 30
0.0
 11
23655.78010481735
 21
15320.322625000021
 31
0.0
  0
LINE
  5
135A6
  8
2-0
  6
CONTINUOUS
 62
     3
 10
23625.782480817361
 20
15304.22518000001
 30
0.0
 11
23625.782480817361
 21
15310.227080000021
 31
0.0
  0
LINE
  5
135A7
  8
2-0
  6
CONTINUOUS
 62
     3
 10
23625.782480817361
 20
15310.227080000021
 30
0.0
 11
23655.78010481735
 21
15310.227080000021
 31
0.0
  0
LINE
  5
135A8
  8
2-0
  6
CONTINUOUS
 62
     3
 10
23655.78010481735
 20
15273.22789900003
 30
0.0
 11
23655.78010481735
 21
15310.227080000021
 31
0.0
  0
LINE
  5
135A9
  8
2-0
  6
CONTINUOUS
 62
     3
 10
23625.782480817361
 20
15273.22789900003
 30
0.0
 11
23655.78010481735
 21
15273.22789900003
 31
0.0
  0
LINE
  5
135AA
  8
2-0
  6
CONTINUOUS
 62
     3
 10
23625.782480817361
 20
15279.224850000021
 30
0.0
 11
23625.782480817361
 21
15273.22789900003
 31
0.0
  0
LINE
  5
135AB
  8
2-0
  6
CONTINUOUS
 62
     3
 10
23625.782480817361
 20
15263.126415000021
 30
0.0
 11
23655.78010481735
 21
15263.126415000021
 31
0.0
  0
LINE
  5
135AC
  8
2-0
  6
CONTINUOUS
 62
     3
 10
23625.782480817361
 20
15281.134096000011
 30
0.0
 11
23625.782480817361
 21
15263.126415000021
 31
0.0
  0
LINE
  5
135AD
  8
2-0
  6
CONTINUOUS
 62
     3
 10
23650.779840817358
 20
15281.134096000011
 30
0.0
 11
23625.782480817361
 21
15281.134096000011
 31
0.0
  0
LINE
  5
135AE
  8
2-0
  6
CONTINUOUS
 62
     3
 10
23650.779840817358
 20
15276.13383200003
 30
0.0
 11
23650.779840817358
 21
15281.134096000011
 31
0.0
  0
LINE
  5
135AF
  8
2-0
  6
CONTINUOUS
 62
     3
 10
23643.77828381737
 20
15276.13383200003
 30
0.0
 11
23650.779840817358
 21
15276.13383200003
 31
0.0
  0
LINE
  5
135B0
  8
2-0
  6
CONTINUOUS
 62
     3
 10
23655.78010481735
 20
16668.37456800001
 30
0.0
 11
23655.78010481735
 21
16021.08260850001
 31
0.0
  0
LINE
  5
135B1
  8
2-0
  6
CONTINUOUS
 62
     3
 10
23655.78010481735
 20
16822.98486600001
 30
0.0
 11
23655.78010481735
 21
16677.983151000019
 31
0.0
  0
LINE
  5
135B2
  8
2-0
  6
CONTINUOUS
 62
     3
 10
23567.897397817349
 20
16792.985262000009
 30
0.0
 11
23567.897397817349
 21
16707.988694
 31
0.0
  0
LINE
  5
135B3
  8
2-0
  6
CONTINUOUS
 62
     6
 10
21928.376889817351
 20
18561.43252749999
 30
0.0
 11
20903.344557817349
 21
18561.43252749999
 31
0.0
  0
LINE
  5
135B4
  8
2-0
  6
CONTINUOUS
 62
     3
 10
23643.77828381737
 20
14574.89282500001
 30
0.0
 11
23650.779840817358
 21
14574.89282500001
 31
0.0
  0
LINE
  5
135B5
  8
2-0
  6
CONTINUOUS
 62
     3
 10
23650.779840817358
 20
14574.89282500001
 30
0.0
 11
23650.779840817358
 21
14579.887151000021
 31
0.0
  0
LINE
  5
135B6
  8
2-0
  6
CONTINUOUS
 62
     3
 10
23650.779840817358
 20
14579.887151000021
 30
0.0
 11
23625.782480817361
 21
14579.887151000021
 31
0.0
  0
LINE
  5
135B7
  8
2-0
  6
CONTINUOUS
 62
     3
 10
23625.782480817361
 20
14579.887151000021
 30
0.0
 11
23625.782480817361
 21
14561.89134700001
 31
0.0
  0
LINE
  5
135B8
  8
2-0
  6
CONTINUOUS
 62
     3
 10
23625.782480817361
 20
14561.89134700001
 30
0.0
 11
23655.78010481735
 21
14561.89134700001
 31
0.0
  0
LINE
  5
135B9
  8
2-0
  6
CONTINUOUS
 62
     3
 10
23625.782480817361
 20
14577.989782000021
 30
0.0
 11
23625.782480817361
 21
14571.986892000021
 31
0.0
  0
LINE
  5
135BA
  8
2-0
  6
CONTINUOUS
 62
     3
 10
23625.782480817361
 20
14571.986892000021
 30
0.0
 11
23655.78010481735
 21
14571.986892000021
 31
0.0
  0
LINE
  5
135BB
  8
2-0
  6
CONTINUOUS
 62
     3
 10
23655.78010481735
 20
14571.986892000021
 30
0.0
 11
23655.78010481735
 21
14608.987064000001
 31
0.0
  0
LINE
  5
135BC
  8
2-0
  6
CONTINUOUS
 62
     3
 10
23625.782480817361
 20
14608.987064000001
 30
0.0
 11
23655.78010481735
 21
14608.987064000001
 31
0.0
  0
LINE
  5
135BD
  8
2-0
  6
CONTINUOUS
 62
     3
 10
23625.782480817361
 20
14602.99011200001
 30
0.0
 11
23625.782480817361
 21
14608.987064000001
 31
0.0
  0
LINE
  5
135BE
  8
2-0
  6
CONTINUOUS
 62
     3
 10
23625.782480817361
 20
14619.087557000021
 30
0.0
 11
23655.78010481735
 21
14619.087557000021
 31
0.0
  0
LINE
  5
135BF
  8
2-0
  6
CONTINUOUS
 62
     3
 10
23625.782480817361
 20
14601.08086600002
 30
0.0
 11
23625.782480817361
 21
14619.087557000021
 31
0.0
  0
LINE
  5
135C0
  8
2-0
  6
CONTINUOUS
 62
     3
 10
23650.779840817358
 20
14601.08086600002
 30
0.0
 11
23625.782480817361
 21
14601.08086600002
 31
0.0
  0
LINE
  5
135C1
  8
2-0
  6
CONTINUOUS
 62
     3
 10
23650.779840817358
 20
14606.086079000021
 30
0.0
 11
23650.779840817358
 21
14601.08086600002
 31
0.0
  0
LINE
  5
135C2
  8
2-0
  6
CONTINUOUS
 62
     3
 10
23643.77828381737
 20
14606.086079000021
 30
0.0
 11
23650.779840817358
 21
14606.086079000021
 31
0.0
  0
LINE
  5
135C3
  8
2-0
  6
CONTINUOUS
 62
     3
 10
23625.782480817361
 20
13898.988905000009
 30
0.0
 11
23625.782480817361
 21
13904.99377400001
 31
0.0
  0
LINE
  5
135C4
  8
2-0
  6
CONTINUOUS
 62
     3
 10
23625.782480817361
 20
13904.99377400001
 30
0.0
 11
23655.78010481735
 21
13904.99377400001
 31
0.0
  0
LINE
  5
135C5
  8
2-0
  6
CONTINUOUS
 62
     3
 10
23655.78010481735
 20
13904.99377400001
 30
0.0
 11
23655.78010481735
 21
13789.989683000011
 31
0.0
  0
LINE
  5
135C6
  8
2-0
  6
CONTINUOUS
 62
     3
 10
23655.78010481735
 20
13789.989683000011
 30
0.0
 11
23570.781556817361
 21
13789.989683000011
 31
0.0
  0
LINE
  5
135C7
  8
2-0
  6
CONTINUOUS
 62
     3
 10
23570.781556817361
 20
13789.989683000011
 30
0.0
 11
23570.781556817361
 21
13874.985262000009
 31
0.0
  0
LINE
  5
135C8
  8
2-0
  6
CONTINUOUS
 62
     3
 10
23570.781556817361
 20
13874.985262000009
 30
0.0
 11
23602.780474817358
 21
13874.985262000009
 31
0.0
  0
LINE
  5
135C9
  8
2-0
  6
CONTINUOUS
 62
     3
 10
23643.77828381737
 20
13902.023507000011
 30
0.0
 11
23650.779840817358
 21
13902.023507000011
 31
0.0
  0
LINE
  5
135CA
  8
2-0
  6
CONTINUOUS
 62
     3
 10
23650.779840817358
 20
13902.023507000011
 30
0.0
 11
23650.779840817358
 21
13897.02621199999
 31
0.0
  0
LINE
  5
135CB
  8
2-0
  6
CONTINUOUS
 62
     3
 10
23650.779840817358
 20
13897.02621199999
 30
0.0
 11
23625.782480817361
 21
13897.02621199999
 31
0.0
  0
LINE
  5
135CC
  8
2-0
  6
CONTINUOUS
 62
     3
 10
23625.782480817361
 20
13897.02621199999
 30
0.0
 11
23625.782480817361
 21
13915.024985000009
 31
0.0
  0
LINE
  5
135CD
  8
2-0
  6
CONTINUOUS
 62
     3
 10
23625.782480817361
 20
13915.024985000009
 30
0.0
 11
23655.78010481735
 21
13915.024985000009
 31
0.0
  0
LINE
  5
135CE
  8
2-0
  6
CENTER2
 62
     6
 10
23613.28182081737
 20
13592.492125000001
 30
0.0
 11
23613.28182081737
 21
14748.36088300003
 31
0.0
  0
LINE
  5
135CF
  8
2-0
  6
CONTINUOUS
 62
     3
 10
23655.78010481735
 20
18238.082114000012
 30
0.0
 11
23655.78010481735
 21
18881.892831500008
 31
0.0
  0
LINE
  5
135D0
  8
2-0
  6
CONTINUOUS
 62
     6
 10
19609.78063281735
 20
20090.488166000039
 30
0.0
 11
18409.78657081737
 21
20090.488166000039
 31
0.0
  0
LINE
  5
135D1
  8
2-0
  6
CONTINUOUS
 62
     6
 10
20471.813465817369
 20
18803.587035500012
 30
0.0
 11
20903.344557817349
 21
18561.43252749999
 31
0.0
  0
LINE
  5
135D2
  8
2-0
  6
CONTINUOUS
 62
     6
 10
20150.244631817379
 20
19503.16500300002
 30
0.0
 11
19609.78063281735
 21
20090.488166000039
 31
0.0
  0
LINE
  5
135D3
  8
2-0
  6
CONTINUOUS
 62
     3
 10
23655.78010481735
 20
15963.88639850001
 30
0.0
 11
23655.78010481735
 21
15320.322625000021
 31
0.0
  0
LINE
  5
135D4
  8
2-0
  6
CONTINUOUS
 62
     6
 10
20484.870370817349
 20
18826.84637950001
 30
0.0
 11
20332.283139817351
 21
18881.892831500008
 31
0.0
  0
LINE
  5
135D5
  8
2-0
  6
CONTINUOUS
 62
     6
 10
20332.283139817351
 20
18881.892831500008
 30
0.0
 11
20458.76447981735
 21
18780.333631499991
 31
0.0
  0
LINE
  5
135D6
  8
2-0
  6
CONTINUOUS
 62
     6
 10
20484.870370817349
 20
18826.84637950001
 30
0.0
 11
20458.76447981735
 21
18780.333631499991
 31
0.0
  0
LINE
  5
135D7
  8
2-0
  6
CONTINUOUS
 62
     6
 10
20458.76447981735
 20
18780.333631499991
 30
0.0
 11
20332.283139817351
 21
18881.892831500008
 31
0.0
  0
LINE
  5
135D8
  8
2-0
  6
CONTINUOUS
 62
     6
 10
20332.283139817351
 20
18881.892831500008
 30
0.0
 11
20484.870370817349
 21
18826.84637950001
 31
0.0
  0
LINE
  5
135D9
  8
2-0
  6
CONTINUOUS
 62
     6
 10
20484.870370817349
 20
18826.84637950001
 30
0.0
 11
20332.283139817351
 21
18881.892831500008
 31
0.0
  0
LINE
  5
135DA
  8
2-0
  6
CONTINUOUS
 62
     6
 10
20458.76447981735
 20
18780.333631499991
 30
0.0
 11
20332.283139817351
 21
18881.892831500008
 31
0.0
  0
LINE
  5
135DB
  8
2-0
  6
CONTINUOUS
 62
     6
 10
20458.76447981735
 20
18780.333631499991
 30
0.0
 11
20484.870370817349
 21
18826.84637950001
 31
0.0
  0
LINE
  5
135DC
  8
2-0
  6
CONTINUOUS
 62
     6
 10
20130.627602817349
 20
19485.10387600003
 30
0.0
 11
20258.589622817341
 21
19385.42125800002
 31
0.0
  0
LINE
  5
135DD
  8
2-0
  6
CONTINUOUS
 62
     6
 10
20258.589622817341
 20
19385.42125800002
 30
0.0
 11
20169.875517817371
 21
19521.218213000029
 31
0.0
  0
LINE
  5
135DE
  8
2-0
  6
CONTINUOUS
 62
     6
 10
20130.627602817349
 20
19485.10387600003
 30
0.0
 11
20169.875517817371
 21
19521.218213000029
 31
0.0
  0
LINE
  5
135DF
  8
2-0
  6
CONTINUOUS
 62
     6
 10
20169.875517817371
 20
19521.218213000029
 30
0.0
 11
20258.589622817341
 21
19385.42125800002
 31
0.0
  0
LINE
  5
135E0
  8
2-0
  6
CONTINUOUS
 62
     6
 10
20258.589622817341
 20
19385.42125800002
 30
0.0
 11
20130.627602817349
 21
19485.10387600003
 31
0.0
  0
LINE
  5
135E1
  8
2-0
  6
CONTINUOUS
 62
     6
 10
20130.627602817349
 20
19485.10387600003
 30
0.0
 11
20258.589622817341
 21
19385.42125800002
 31
0.0
  0
LINE
  5
135E2
  8
2-0
  6
CONTINUOUS
 62
     6
 10
20169.875517817371
 20
19521.218213000029
 30
0.0
 11
20258.589622817341
 21
19385.42125800002
 31
0.0
  0
LINE
  5
135E3
  8
2-0
  6
CONTINUOUS
 62
     6
 10
20169.875517817371
 20
19521.218213000029
 30
0.0
 11
20130.627602817349
 21
19485.10387600003
 31
0.0
  0
LINE
  5
135E4
  8
2-0
  6
CONTINUOUS
 62
     6
 10
20515.887447817349
 20
14008.621571999989
 30
0.0
 11
20383.287415817362
 21
13915.193243999989
 31
0.0
  0
LINE
  5
135E5
  8
2-0
  6
CONTINUOUS
 62
     6
 10
20383.287415817362
 20
13915.193243999989
 30
0.0
 11
20539.02010181735
 21
13960.56875800001
 31
0.0
  0
LINE
  5
135E6
  8
2-0
  6
CONTINUOUS
 62
     6
 10
20515.887447817349
 20
14008.621571999989
 30
0.0
 11
20539.02010181735
 21
13960.56875800001
 31
0.0
  0
LINE
  5
135E7
  8
2-0
  6
CONTINUOUS
 62
     6
 10
20539.02010181735
 20
13960.56875800001
 30
0.0
 11
20383.287415817362
 21
13915.193243999989
 31
0.0
  0
LINE
  5
135E8
  8
2-0
  6
CONTINUOUS
 62
     6
 10
20383.287415817362
 20
13915.193243999989
 30
0.0
 11
20515.887447817349
 21
14008.621571999989
 31
0.0
  0
LINE
  5
135E9
  8
2-0
  6
CONTINUOUS
 62
     6
 10
20515.887447817349
 20
14008.621571999989
 30
0.0
 11
20383.287415817362
 21
13915.193243999989
 31
0.0
  0
LINE
  5
135EA
  8
2-0
  6
CONTINUOUS
 62
     6
 10
20539.02010181735
 20
13960.56875800001
 30
0.0
 11
20383.287415817362
 21
13915.193243999989
 31
0.0
  0
LINE
  5
135EB
  8
2-0
  6
CONTINUOUS
 62
     6
 10
20539.02010181735
 20
13960.56875800001
 30
0.0
 11
20515.887447817349
 21
14008.621571999989
 31
0.0
  0
LINE
  5
135EC
  8
2-0
  6
CONTINUOUS
 62
     6
 10
20456.12380181735
 20
16388.442505000021
 30
0.0
 11
20302.285515817352
 21
16439.876336000019
 31
0.0
  0
LINE
  5
135ED
  8
2-0
  6
CONTINUOUS
 62
     6
 10
20302.285515817352
 20
16439.876336000019
 30
0.0
 11
20431.120502817379
 21
16341.33590100002
 31
0.0
  0
LINE
  5
135EE
  8
2-0
  6
CONTINUOUS
 62
     6
 10
20456.12380181735
 20
16388.442505000021
 30
0.0
 11
20431.120502817379
 21
16341.33590100002
 31
0.0
  0
LINE
  5
135EF
  8
2-0
  6
CONTINUOUS
 62
     6
 10
20431.120502817379
 20
16341.33590100002
 30
0.0
 11
20302.285515817352
 21
16439.876336000019
 31
0.0
  0
LINE
  5
135F0
  8
2-0
  6
CONTINUOUS
 62
     6
 10
20302.285515817352
 20
16439.876336000019
 30
0.0
 11
20456.12380181735
 21
16388.442505000021
 31
0.0
  0
LINE
  5
135F1
  8
2-0
  6
CONTINUOUS
 62
     6
 10
20456.12380181735
 20
16388.442505000021
 30
0.0
 11
20302.285515817352
 21
16439.876336000019
 31
0.0
  0
LINE
  5
135F2
  8
2-0
  6
CONTINUOUS
 62
     6
 10
20431.120502817379
 20
16341.33590100002
 30
0.0
 11
20302.285515817352
 21
16439.876336000019
 31
0.0
  0
LINE
  5
135F3
  8
2-0
  6
CONTINUOUS
 62
     6
 10
20431.120502817379
 20
16341.33590100002
 30
0.0
 11
20456.12380181735
 21
16388.442505000021
 31
0.0
  0
LINE
  5
135F4
  8
2-0
  6
CONTINUOUS
 62
     6
 10
20590.060008817349
 20
16879.760997000019
 30
0.0
 11
20447.17637781733
 21
16802.98536800002
 31
0.0
  0
LINE
  5
135F5
  8
2-0
  6
CONTINUOUS
 62
     6
 10
20447.17637781733
 20
16802.98536800002
 30
0.0
 11
20607.23827081735
 21
16829.267437000031
 31
0.0
  0
LINE
  5
135F6
  8
2-0
  6
CONTINUOUS
 62
     6
 10
20590.060008817349
 20
16879.760997000019
 30
0.0
 11
20607.23827081735
 21
16829.267437000031
 31
0.0
  0
LINE
  5
135F7
  8
2-0
  6
CONTINUOUS
 62
     6
 10
20607.23827081735
 20
16829.267437000031
 30
0.0
 11
20447.17637781733
 21
16802.98536800002
 31
0.0
  0
LINE
  5
135F8
  8
2-0
  6
CONTINUOUS
 62
     6
 10
20447.17637781733
 20
16802.98536800002
 30
0.0
 11
20590.060008817349
 21
16879.760997000019
 31
0.0
  0
LINE
  5
135F9
  8
2-0
  6
CONTINUOUS
 62
     6
 10
20590.060008817349
 20
16879.760997000019
 30
0.0
 11
20447.17637781733
 21
16802.98536800002
 31
0.0
  0
LINE
  5
135FA
  8
2-0
  6
CONTINUOUS
 62
     6
 10
20607.23827081735
 20
16829.267437000031
 30
0.0
 11
20447.17637781733
 21
16802.98536800002
 31
0.0
  0
LINE
  5
135FB
  8
2-0
  6
CONTINUOUS
 62
     6
 10
20607.23827081735
 20
16829.267437000031
 30
0.0
 11
20590.060008817349
 21
16879.760997000019
 31
0.0
  0
LINE
  5
135FC
  8
2-0
  6
CONTINUOUS
 62
     3
 10
20332.283140817359
 20
19251.485052000018
 30
0.0
 11
20332.283140817359
 21
19245.489090000021
 31
0.0
  0
LINE
  5
135FD
  8
2-0
  6
CONTINUOUS
 62
     3
 10
20332.283140817359
 20
19245.489090000021
 30
0.0
 11
20302.285515817359
 21
19245.489090000021
 31
0.0
  0
LINE
  5
135FE
  8
2-0
  6
CONTINUOUS
 62
     3
 10
20302.285515817359
 20
19245.489090000021
 30
0.0
 11
20302.285515817359
 21
19360.48526300002
 31
0.0
  0
LINE
  5
135FF
  8
2-0
  6
CONTINUOUS
 62
     3
 10
20302.285515817359
 20
19275.488694000011
 30
0.0
 11
20383.283456817371
 21
19275.488694000011
 31
0.0
  0
LINE
  5
13600
  8
2-0
  6
CONTINUOUS
 62
     3
 10
20332.283140817359
 20
19235.19163400001
 30
0.0
 11
20302.285515817359
 21
19235.19163400001
 31
0.0
  0
LINE
  5
13601
  8
2-0
  6
CONTINUOUS
 62
     3
 10
20332.283140817359
 20
19253.193376000028
 30
0.0
 11
20332.283140817359
 21
19235.19163400001
 31
0.0
  0
LINE
  5
13602
  8
2-0
  6
CONTINUOUS
 62
     3
 10
20307.289738817359
 20
19253.193376000028
 30
0.0
 11
20332.283140817359
 21
19253.193376000028
 31
0.0
  0
LINE
  5
13603
  8
2-0
  6
CONTINUOUS
 62
     3
 10
20307.289738817359
 20
19248.18519400002
 30
0.0
 11
20307.289738817359
 21
19253.193376000028
 31
0.0
  0
LINE
  5
13604
  8
2-0
  6
CONTINUOUS
 62
     3
 10
20314.287336817339
 20
19248.18519400002
 30
0.0
 11
20307.289738817359
 21
19248.18519400002
 31
0.0
  0
LINE
  5
13605
  8
2-0
  6
CONTINUOUS
 62
     3
 10
20414.581625817362
 20
19348.485421000009
 30
0.0
 11
20414.581625817362
 21
19355.49093700002
 31
0.0
  0
LINE
  5
13606
  8
2-0
  6
CONTINUOUS
 62
     3
 10
20414.581625817362
 20
19355.49093700002
 30
0.0
 11
20409.579381817359
 21
19355.49093700002
 31
0.0
  0
LINE
  5
13607
  8
2-0
  6
CONTINUOUS
 62
     3
 10
20409.579381817359
 20
19355.49093700002
 30
0.0
 11
20409.579381817359
 21
19330.481700000018
 31
0.0
  0
LINE
  5
13608
  8
2-0
  6
CONTINUOUS
 62
     3
 10
20409.579381817359
 20
19330.481700000018
 30
0.0
 11
20427.58706281734
 21
19330.481700000018
 31
0.0
  0
LINE
  5
13609
  8
2-0
  6
CONTINUOUS
 62
     3
 10
20427.58706281734
 20
19330.481700000018
 30
0.0
 11
20427.58706281734
 21
19360.48526300002
 31
0.0
  0
LINE
  5
1360A
  8
2-0
  6
CONTINUOUS
 62
     3
 10
20417.287626817371
 20
19360.48526300002
 30
0.0
 11
20302.285515817359
 21
19360.48526300002
 31
0.0
  0
LINE
  5
1360B
  8
2-0
  6
CONTINUOUS
 62
     3
 10
20417.287626817371
 20
19330.481700000018
 30
0.0
 11
20417.287626817371
 21
19360.48526300002
 31
0.0
  0
LINE
  5
1360C
  8
2-0
  6
CONTINUOUS
 62
     3
 10
20411.283747817361
 20
19330.481700000018
 30
0.0
 11
20417.287626817371
 21
19330.481700000018
 31
0.0
  0
LINE
  5
1360D
  8
2-0
  6
CONTINUOUS
 62
     3
 10
20332.283140817359
 20
19251.485052000018
 30
0.0
 11
20332.283140817359
 21
19245.489090000021
 31
0.0
  0
LINE
  5
1360E
  8
2-0
  6
CONTINUOUS
 62
     3
 10
20332.283140817359
 20
19245.489090000021
 30
0.0
 11
20302.285515817359
 21
19245.489090000021
 31
0.0
  0
LINE
  5
1360F
  8
2-0
  6
CONTINUOUS
 62
     3
 10
20302.285515817359
 20
19245.489090000021
 30
0.0
 11
20302.285515817359
 21
19360.48526300002
 31
0.0
  0
LINE
  5
13610
  8
2-0
  6
CONTINUOUS
 62
     3
 10
20302.285515817359
 20
19275.488694000011
 30
0.0
 11
20383.283456817371
 21
19275.488694000011
 31
0.0
  0
LINE
  5
13611
  8
2-0
  6
CONTINUOUS
 62
     3
 10
20332.283140817359
 20
19235.19163400001
 30
0.0
 11
20302.285515817359
 21
19235.19163400001
 31
0.0
  0
LINE
  5
13612
  8
2-0
  6
CONTINUOUS
 62
     3
 10
20332.283140817359
 20
19253.193376000028
 30
0.0
 11
20332.283140817359
 21
19235.19163400001
 31
0.0
  0
LINE
  5
13613
  8
2-0
  6
CONTINUOUS
 62
     3
 10
20307.289738817359
 20
19253.193376000028
 30
0.0
 11
20332.283140817359
 21
19253.193376000028
 31
0.0
  0
LINE
  5
13614
  8
2-0
  6
CONTINUOUS
 62
     3
 10
20307.289738817359
 20
19248.18519400002
 30
0.0
 11
20307.289738817359
 21
19253.193376000028
 31
0.0
  0
LINE
  5
13615
  8
2-0
  6
CONTINUOUS
 62
     3
 10
20314.287336817339
 20
19248.18519400002
 30
0.0
 11
20307.289738817359
 21
19248.18519400002
 31
0.0
  0
LINE
  5
13616
  8
2-0
  6
CONTINUOUS
 62
     3
 10
20314.287336817339
 20
18894.888371500001
 30
0.0
 11
20307.289738817359
 21
18894.888371500001
 31
0.0
  0
LINE
  5
13617
  8
2-0
  6
CONTINUOUS
 62
     3
 10
20307.289738817359
 20
18894.888371500001
 30
0.0
 11
20307.289738817359
 21
18899.8886355
 31
0.0
  0
LINE
  5
13618
  8
2-0
  6
CONTINUOUS
 62
     3
 10
20307.289738817359
 20
18899.8886355
 30
0.0
 11
20332.283140817359
 21
18899.8886355
 31
0.0
  0
LINE
  5
13619
  8
2-0
  6
CONTINUOUS
 62
     3
 10
20332.283140817359
 20
18899.8886355
 30
0.0
 11
20332.283140817359
 21
18881.892831500001
 31
0.0
  0
LINE
  5
1361A
  8
2-0
  6
CONTINUOUS
 62
     3
 10
20332.283140817359
 20
18881.892831500001
 30
0.0
 11
20302.285515817359
 21
18881.892831500001
 31
0.0
  0
LINE
  5
1361B
  8
2-0
  6
CONTINUOUS
 62
     3
 10
20332.283140817359
 20
18897.984338499969
 30
0.0
 11
20332.283140817359
 21
18891.986397500001
 31
0.0
  0
LINE
  5
1361C
  8
2-0
  6
CONTINUOUS
 62
     3
 10
20332.283140817359
 20
18891.986397500001
 30
0.0
 11
20302.285515817359
 21
18891.986397500001
 31
0.0
  0
LINE
  5
1361D
  8
2-0
  6
CONTINUOUS
 62
     3
 10
20302.285515817359
 20
18891.986397500001
 30
0.0
 11
20302.285515817359
 21
18928.987558500012
 31
0.0
  0
LINE
  5
1361E
  8
2-0
  6
CONTINUOUS
 62
     3
 10
20332.283140817359
 20
18928.987558500012
 30
0.0
 11
20302.285515817359
 21
18928.987558500012
 31
0.0
  0
LINE
  5
1361F
  8
2-0
  6
CONTINUOUS
 62
     3
 10
20332.283140817359
 20
18922.98367849999
 30
0.0
 11
20332.283140817359
 21
18928.987558500012
 31
0.0
  0
LINE
  5
13620
  8
2-0
  6
CONTINUOUS
 62
     3
 10
20332.283140817359
 20
18939.08310349999
 30
0.0
 11
20302.285515817359
 21
18939.08310349999
 31
0.0
  0
LINE
  5
13621
  8
2-0
  6
CONTINUOUS
 62
     3
 10
20332.283140817359
 20
18921.081361500001
 30
0.0
 11
20332.283140817359
 21
18939.08310349999
 31
0.0
  0
LINE
  5
13622
  8
2-0
  6
CONTINUOUS
 62
     3
 10
20307.289738817359
 20
18921.081361500001
 30
0.0
 11
20332.283140817359
 21
18921.081361500001
 31
0.0
  0
LINE
  5
13623
  8
2-0
  6
CONTINUOUS
 62
     3
 10
20307.289738817359
 20
18926.081625499999
 30
0.0
 11
20307.289738817359
 21
18921.081361500001
 31
0.0
  0
LINE
  5
13624
  8
2-0
  6
CONTINUOUS
 62
     3
 10
20314.287336817339
 20
18926.081625499999
 30
0.0
 11
20307.289738817359
 21
18926.081625499999
 31
0.0
  0
LINE
  5
13625
  8
2-0
  6
CONTINUOUS
 62
     3
 10
20314.287336817339
 20
18193.887382000012
 30
0.0
 11
20307.289738817359
 21
18193.887382000012
 31
0.0
  0
LINE
  5
13626
  8
2-0
  6
CONTINUOUS
 62
     3
 10
20307.289738817359
 20
18193.887382000012
 30
0.0
 11
20307.289738817359
 21
18198.893584000001
 31
0.0
  0
LINE
  5
13627
  8
2-0
  6
CONTINUOUS
 62
     3
 10
20307.289738817359
 20
18198.893584000001
 30
0.0
 11
20332.283140817359
 21
18198.893584000001
 31
0.0
  0
LINE
  5
13628
  8
2-0
  6
CONTINUOUS
 62
     3
 10
20332.283140817359
 20
18198.893584000001
 30
0.0
 11
20332.283140817359
 21
18180.891842000008
 31
0.0
  0
LINE
  5
13629
  8
2-0
  6
CONTINUOUS
 62
     3
 10
20332.283140817359
 20
18180.891842000008
 30
0.0
 11
20302.285515817359
 21
18180.891842000008
 31
0.0
  0
LINE
  5
1362A
  8
2-0
  6
CONTINUOUS
 62
     3
 10
20332.283140817359
 20
18196.983348999998
 30
0.0
 11
20332.283140817359
 21
18190.987387000001
 31
0.0
  0
LINE
  5
1362B
  8
2-0
  6
CONTINUOUS
 62
     3
 10
20332.283140817359
 20
18190.987387000001
 30
0.0
 11
20302.285515817359
 21
18190.987387000001
 31
0.0
  0
LINE
  5
1362C
  8
2-0
  6
CONTINUOUS
 62
     3
 10
20302.285515817359
 20
18190.987387000001
 30
0.0
 11
20302.285515817359
 21
18227.986569000001
 31
0.0
  0
LINE
  5
1362D
  8
2-0
  6
CONTINUOUS
 62
     3
 10
20332.283140817359
 20
18227.986569000001
 30
0.0
 11
20302.285515817359
 21
18227.986569000001
 31
0.0
  0
LINE
  5
1362E
  8
2-0
  6
CONTINUOUS
 62
     3
 10
20332.283140817359
 20
18221.990607
 30
0.0
 11
20332.283140817359
 21
18227.986569000001
 31
0.0
  0
LINE
  5
1362F
  8
2-0
  6
CONTINUOUS
 62
     3
 10
20332.283140817359
 20
18238.082114000012
 30
0.0
 11
20302.285515817359
 21
18238.082114000012
 31
0.0
  0
LINE
  5
13630
  8
2-0
  6
CONTINUOUS
 62
     3
 10
20332.283140817359
 20
18220.080371999989
 30
0.0
 11
20332.283140817359
 21
18238.082114000012
 31
0.0
  0
LINE
  5
13631
  8
2-0
  6
CONTINUOUS
 62
     3
 10
20307.289738817359
 20
18220.080371999989
 30
0.0
 11
20332.283140817359
 21
18220.080371999989
 31
0.0
  0
LINE
  5
13632
  8
2-0
  6
CONTINUOUS
 62
     3
 10
20307.289738817359
 20
18225.086574000001
 30
0.0
 11
20307.289738817359
 21
18220.080371999989
 31
0.0
  0
LINE
  5
13633
  8
2-0
  6
CONTINUOUS
 62
     3
 10
20314.287336817339
 20
18225.086574000001
 30
0.0
 11
20307.289738817359
 21
18225.086574000001
 31
0.0
  0
LINE
  5
13634
  8
2-0
  6
CONTINUOUS
 62
     3
 10
20314.287336817339
 20
17524.080635999999
 30
0.0
 11
20307.289738817359
 21
17524.080635999999
 31
0.0
  0
LINE
  5
13635
  8
2-0
  6
CONTINUOUS
 62
     3
 10
20307.289738817359
 20
17524.080635999999
 30
0.0
 11
20307.289738817359
 21
17519.092249000008
 31
0.0
  0
LINE
  5
13636
  8
2-0
  6
CONTINUOUS
 62
     3
 10
20307.289738817359
 20
17519.092249000008
 30
0.0
 11
20332.283140817359
 21
17519.092249000008
 31
0.0
  0
LINE
  5
13637
  8
2-0
  6
CONTINUOUS
 62
     3
 10
20332.283140817359
 20
17519.092249000008
 30
0.0
 11
20332.283140817359
 21
17537.08805200001
 31
0.0
  0
LINE
  5
13638
  8
2-0
  6
CONTINUOUS
 62
     3
 10
20332.283140817359
 20
17537.08805200001
 30
0.0
 11
20302.285515817359
 21
17537.08805200001
 31
0.0
  0
LINE
  5
13639
  8
2-0
  6
CONTINUOUS
 62
     3
 10
20332.283140817359
 20
17520.990607
 30
0.0
 11
20332.283140817359
 21
17526.98656899999
 31
0.0
  0
LINE
  5
1363A
  8
2-0
  6
CONTINUOUS
 62
     3
 10
20332.283140817359
 20
17526.98656899999
 30
0.0
 11
20302.285515817359
 21
17526.98656899999
 31
0.0
  0
LINE
  5
1363B
  8
2-0
  6
CONTINUOUS
 62
     3
 10
20302.285515817359
 20
17526.98656899999
 30
0.0
 11
20302.285515817359
 21
17489.987387000008
 31
0.0
  0
LINE
  5
1363C
  8
2-0
  6
CONTINUOUS
 62
     3
 10
20332.283140817359
 20
17489.987387000008
 30
0.0
 11
20302.285515817359
 21
17489.987387000008
 31
0.0
  0
LINE
  5
1363D
  8
2-0
  6
CONTINUOUS
 62
     3
 10
20332.283140817359
 20
17495.989288000001
 30
0.0
 11
20332.283140817359
 21
17489.987387000008
 31
0.0
  0
LINE
  5
1363E
  8
2-0
  6
CONTINUOUS
 62
     3
 10
20332.283140817359
 20
17479.897781
 30
0.0
 11
20302.285515817359
 21
17479.897781
 31
0.0
  0
LINE
  5
1363F
  8
2-0
  6
CONTINUOUS
 62
     3
 10
20332.283140817359
 20
17497.893584000001
 30
0.0
 11
20332.283140817359
 21
17479.897781
 31
0.0
  0
LINE
  5
13640
  8
2-0
  6
CONTINUOUS
 62
     3
 10
20307.289738817359
 20
17497.893584000001
 30
0.0
 11
20332.283140817359
 21
17497.893584000001
 31
0.0
  0
LINE
  5
13641
  8
2-0
  6
CONTINUOUS
 62
     3
 10
20307.289738817359
 20
17492.893321
 30
0.0
 11
20307.289738817359
 21
17497.893584000001
 31
0.0
  0
LINE
  5
13642
  8
2-0
  6
CONTINUOUS
 62
     3
 10
20314.287336817339
 20
17492.893321
 30
0.0
 11
20307.289738817359
 21
17492.893321
 31
0.0
  0
LINE
  5
13643
  8
2-0
  6
CONTINUOUS
 62
     3
 10
20305.17165381736
 20
16772.984207000009
 30
0.0
 11
20305.17165381736
 21
16792.985262000009
 31
0.0
  0
LINE
  5
13644
  8
2-0
  6
CONTINUOUS
 62
     3
 10
20305.17165381736
 20
16792.985262000009
 30
0.0
 11
20390.172181817368
 21
16792.985262000009
 31
0.0
  0
LINE
  5
13645
  8
2-0
  6
CONTINUOUS
 62
     3
 10
20314.287336817339
 20
16819.59197200002
 30
0.0
 11
20307.289738817359
 21
16819.59197200002
 31
0.0
  0
LINE
  5
13646
  8
2-0
  6
CONTINUOUS
 62
     3
 10
20307.289738817359
 20
16819.59197200002
 30
0.0
 11
20307.289738817359
 21
16814.59764600002
 31
0.0
  0
LINE
  5
13647
  8
2-0
  6
CONTINUOUS
 62
     3
 10
20307.289738817359
 20
16814.59764600002
 30
0.0
 11
20332.283140817359
 21
16814.59764600002
 31
0.0
  0
LINE
  5
13648
  8
2-0
  6
CONTINUOUS
 62
     3
 10
20332.283140817359
 20
16814.59764600002
 30
0.0
 11
20332.283140817359
 21
16832.593450000011
 31
0.0
  0
LINE
  5
13649
  8
2-0
  6
CONTINUOUS
 62
     3
 10
20332.283140817359
 20
16832.593450000011
 30
0.0
 11
20302.285515817359
 21
16832.593450000011
 31
0.0
  0
LINE
  5
1364A
  8
2-0
  6
CONTINUOUS
 62
     3
 10
20332.283140817359
 20
16822.98486600001
 30
0.0
 11
20332.283140817359
 21
16816.982966
 31
0.0
  0
LINE
  5
1364B
  8
2-0
  6
CONTINUOUS
 62
     3
 10
20302.285515817359
 20
16822.98486600001
 30
0.0
 11
20332.283140817359
 21
16822.98486600001
 31
0.0
  0
LINE
  5
1364C
  8
2-0
  6
CONTINUOUS
 62
     3
 10
20302.285515817359
 20
16832.593450000011
 30
0.0
 11
20302.285515817359
 21
17479.897781
 31
0.0
  0
LINE
  5
1364D
  8
2-0
  6
CONTINUOUS
 62
     3
 10
20302.285515817359
 20
17537.08805200001
 30
0.0
 11
20302.285515817359
 21
18180.891842000008
 31
0.0
  0
LINE
  5
1364E
  8
2-0
  6
CONTINUOUS
 62
     3
 10
20302.285515817359
 20
16677.983151000019
 30
0.0
 11
20332.283140817359
 21
16677.983151000019
 31
0.0
  0
LINE
  5
1364F
  8
2-0
  6
CONTINUOUS
 62
     3
 10
20332.283140817359
 20
16677.983151000019
 30
0.0
 11
20332.283140817359
 21
16683.985051000011
 31
0.0
  0
LINE
  5
13650
  8
2-0
  6
CONTINUOUS
 62
     3
 10
20390.172181817368
 20
16707.988694
 30
0.0
 11
20305.17165381736
 21
16707.988694
 31
0.0
  0
LINE
  5
13651
  8
2-0
  6
CONTINUOUS
 62
     3
 10
20305.17165381736
 20
16707.988694
 30
0.0
 11
20305.17165381736
 21
16727.98381100002
 31
0.0
  0
LINE
  5
13652
  8
2-0
  6
CONTINUOUS
 62
     3
 10
20332.283140817359
 20
16668.37456800001
 30
0.0
 11
20302.285515817359
 21
16668.37456800001
 31
0.0
  0
LINE
  5
13653
  8
2-0
  6
CONTINUOUS
 62
     3
 10
20332.283140817359
 20
16686.37037099999
 30
0.0
 11
20332.283140817359
 21
16668.37456800001
 31
0.0
  0
LINE
  5
13654
  8
2-0
  6
CONTINUOUS
 62
     3
 10
20307.289738817359
 20
16686.37037099999
 30
0.0
 11
20332.283140817359
 21
16686.37037099999
 31
0.0
  0
LINE
  5
13655
  8
2-0
  6
CONTINUOUS
 62
     3
 10
20307.289738817359
 20
16681.370107000021
 30
0.0
 11
20307.289738817359
 21
16686.37037099999
 31
0.0
  0
LINE
  5
13656
  8
2-0
  6
CONTINUOUS
 62
     3
 10
20314.287336817339
 20
16681.370107000021
 30
0.0
 11
20307.289738817359
 21
16681.370107000021
 31
0.0
  0
LINE
  5
13657
  8
2-0
  6
CONTINUOUS
 62
     3
 10
20314.287336817339
 20
15976.88787649999
 30
0.0
 11
20307.289738817359
 21
15976.88787649999
 31
0.0
  0
LINE
  5
13658
  8
2-0
  6
CONTINUOUS
 62
     3
 10
20307.289738817359
 20
15976.88787649999
 30
0.0
 11
20307.289738817359
 21
15981.888140499999
 31
0.0
  0
LINE
  5
13659
  8
2-0
  6
CONTINUOUS
 62
     3
 10
20307.289738817359
 20
15981.888140499999
 30
0.0
 11
20332.283140817359
 21
15981.888140499999
 31
0.0
  0
LINE
  5
1365A
  8
2-0
  6
CONTINUOUS
 62
     3
 10
20332.283140817359
 20
15981.888140499999
 30
0.0
 11
20332.283140817359
 21
15963.88639850001
 31
0.0
  0
LINE
  5
1365B
  8
2-0
  6
CONTINUOUS
 62
     3
 10
20332.283140817359
 20
15963.88639850001
 30
0.0
 11
20302.285515817359
 21
15963.88639850001
 31
0.0
  0
LINE
  5
1365C
  8
2-0
  6
CONTINUOUS
 62
     3
 10
20332.283140817359
 20
15979.983843500009
 30
0.0
 11
20332.283140817359
 21
15973.98689250001
 31
0.0
  0
LINE
  5
1365D
  8
2-0
  6
CONTINUOUS
 62
     3
 10
20332.283140817359
 20
15973.98689250001
 30
0.0
 11
20302.285515817359
 21
15973.98689250001
 31
0.0
  0
LINE
  5
1365E
  8
2-0
  6
CONTINUOUS
 62
     3
 10
20302.285515817359
 20
15973.98689250001
 30
0.0
 11
20302.285515817359
 21
16010.98706350001
 31
0.0
  0
LINE
  5
1365F
  8
2-0
  6
CONTINUOUS
 62
     3
 10
20332.283140817359
 20
16010.98706350001
 30
0.0
 11
20302.285515817359
 21
16010.98706350001
 31
0.0
  0
LINE
  5
13660
  8
2-0
  6
CONTINUOUS
 62
     3
 10
20332.283140817359
 20
16004.984173500001
 30
0.0
 11
20332.283140817359
 21
16010.98706350001
 31
0.0
  0
LINE
  5
13661
  8
2-0
  6
CONTINUOUS
 62
     3
 10
20332.283140817359
 20
16021.08260850001
 30
0.0
 11
20302.285515817359
 21
16021.08260850001
 31
0.0
  0
LINE
  5
13662
  8
2-0
  6
CONTINUOUS
 62
     3
 10
20332.283140817359
 20
16003.074927500011
 30
0.0
 11
20332.283140817359
 21
16021.08260850001
 31
0.0
  0
LINE
  5
13663
  8
2-0
  6
CONTINUOUS
 62
     3
 10
20307.289738817359
 20
16003.074927500011
 30
0.0
 11
20332.283140817359
 21
16003.074927500011
 31
0.0
  0
LINE
  5
13664
  8
2-0
  6
CONTINUOUS
 62
     3
 10
20307.289738817359
 20
16008.08113050001
 30
0.0
 11
20307.289738817359
 21
16003.074927500011
 31
0.0
  0
LINE
  5
13665
  8
2-0
  6
CONTINUOUS
 62
     3
 10
20314.287336817339
 20
16008.08113050001
 30
0.0
 11
20307.289738817359
 21
16008.08113050001
 31
0.0
  0
LINE
  5
13666
  8
2-0
  6
CONTINUOUS
 62
     3
 10
20314.287336817339
 20
15307.321147000021
 30
0.0
 11
20307.289738817359
 21
15307.321147000021
 31
0.0
  0
LINE
  5
13667
  8
2-0
  6
CONTINUOUS
 62
     3
 10
20307.289738817359
 20
15307.321147000021
 30
0.0
 11
20307.289738817359
 21
15302.326822000019
 31
0.0
  0
LINE
  5
13668
  8
2-0
  6
CONTINUOUS
 62
     3
 10
20307.289738817359
 20
15302.326822000019
 30
0.0
 11
20332.283140817359
 21
15302.326822000019
 31
0.0
  0
LINE
  5
13669
  8
2-0
  6
CONTINUOUS
 62
     3
 10
20332.283140817359
 20
15302.326822000019
 30
0.0
 11
20332.283140817359
 21
15320.322625000021
 31
0.0
  0
LINE
  5
1366A
  8
2-0
  6
CONTINUOUS
 62
     3
 10
20332.283140817359
 20
15320.322625000021
 30
0.0
 11
20302.285515817359
 21
15320.322625000021
 31
0.0
  0
LINE
  5
1366B
  8
2-0
  6
CONTINUOUS
 62
     3
 10
20332.283140817359
 20
15304.22518000001
 30
0.0
 11
20332.283140817359
 21
15310.227080000021
 31
0.0
  0
LINE
  5
1366C
  8
2-0
  6
CONTINUOUS
 62
     3
 10
20332.283140817359
 20
15310.227080000021
 30
0.0
 11
20302.285515817359
 21
15310.227080000021
 31
0.0
  0
LINE
  5
1366D
  8
2-0
  6
CONTINUOUS
 62
     3
 10
20302.285515817359
 20
15273.22789900003
 30
0.0
 11
20302.285515817359
 21
15310.227080000021
 31
0.0
  0
LINE
  5
1366E
  8
2-0
  6
CONTINUOUS
 62
     3
 10
20332.283140817359
 20
15273.22789900003
 30
0.0
 11
20302.285515817359
 21
15273.22789900003
 31
0.0
  0
LINE
  5
1366F
  8
2-0
  6
CONTINUOUS
 62
     3
 10
20332.283140817359
 20
15279.22485000001
 30
0.0
 11
20332.283140817359
 21
15273.22789900003
 31
0.0
  0
LINE
  5
13670
  8
2-0
  6
CONTINUOUS
 62
     3
 10
20332.283140817359
 20
15263.12641500001
 30
0.0
 11
20302.285515817359
 21
15263.12641500001
 31
0.0
  0
LINE
  5
13671
  8
2-0
  6
CONTINUOUS
 62
     3
 10
20332.283140817359
 20
15281.134096000011
 30
0.0
 11
20332.283140817359
 21
15263.12641500001
 31
0.0
  0
LINE
  5
13672
  8
2-0
  6
CONTINUOUS
 62
     3
 10
20307.289738817359
 20
15281.134096000011
 30
0.0
 11
20332.283140817359
 21
15281.134096000011
 31
0.0
  0
LINE
  5
13673
  8
2-0
  6
CONTINUOUS
 62
     3
 10
20307.289738817359
 20
15276.13383200003
 30
0.0
 11
20307.289738817359
 21
15281.134096000011
 31
0.0
  0
LINE
  5
13674
  8
2-0
  6
CONTINUOUS
 62
     3
 10
20314.287336817339
 20
15276.13383200003
 30
0.0
 11
20307.289738817359
 21
15276.13383200003
 31
0.0
  0
LINE
  5
13675
  8
2-0
  6
CONTINUOUS
 62
     3
 10
20302.285515817359
 20
16668.37456800001
 30
0.0
 11
20302.285515817359
 21
16021.08260850001
 31
0.0
  0
LINE
  5
13676
  8
2-0
  6
CONTINUOUS
 62
     3
 10
20302.285515817359
 20
16822.98486600001
 30
0.0
 11
20302.285515817359
 21
16677.983151000019
 31
0.0
  0
LINE
  5
13677
  8
2-0
  6
CONTINUOUS
 62
     3
 10
20390.172181817368
 20
16792.985262000009
 30
0.0
 11
20390.172181817368
 21
16707.988694
 31
0.0
  0
LINE
  5
13678
  8
2-0
  6
CONTINUOUS
 62
     3
 10
20314.287336817339
 20
14574.89282500001
 30
0.0
 11
20307.289738817359
 21
14574.89282500001
 31
0.0
  0
LINE
  5
13679
  8
2-0
  6
CONTINUOUS
 62
     3
 10
20307.289738817359
 20
14574.89282500001
 30
0.0
 11
20307.289738817359
 21
14579.887151000021
 31
0.0
  0
LINE
  5
1367A
  8
2-0
  6
CONTINUOUS
 62
     3
 10
20307.289738817359
 20
14579.887151000021
 30
0.0
 11
20332.283140817359
 21
14579.887151000021
 31
0.0
  0
LINE
  5
1367B
  8
2-0
  6
CONTINUOUS
 62
     3
 10
20332.283140817359
 20
14579.887151000021
 30
0.0
 11
20332.283140817359
 21
14561.891347000021
 31
0.0
  0
LINE
  5
1367C
  8
2-0
  6
CONTINUOUS
 62
     3
 10
20332.283140817359
 20
14561.891347000021
 30
0.0
 11
20302.285515817359
 21
14561.891347000021
 31
0.0
  0
LINE
  5
1367D
  8
2-0
  6
CONTINUOUS
 62
     3
 10
20332.283140817359
 20
14577.989782000021
 30
0.0
 11
20332.283140817359
 21
14571.986892000021
 31
0.0
  0
LINE
  5
1367E
  8
2-0
  6
CONTINUOUS
 62
     3
 10
20332.283140817359
 20
14571.986892000021
 30
0.0
 11
20302.285515817359
 21
14571.986892000021
 31
0.0
  0
LINE
  5
1367F
  8
2-0
  6
CONTINUOUS
 62
     3
 10
20302.285515817359
 20
14571.986892000021
 30
0.0
 11
20302.285515817359
 21
14608.987064000001
 31
0.0
  0
LINE
  5
13680
  8
2-0
  6
CONTINUOUS
 62
     3
 10
20332.283140817359
 20
14608.987064000001
 30
0.0
 11
20302.285515817359
 21
14608.987064000001
 31
0.0
  0
LINE
  5
13681
  8
2-0
  6
CONTINUOUS
 62
     3
 10
20332.283140817359
 20
14602.99011200001
 30
0.0
 11
20332.283140817359
 21
14608.987064000001
 31
0.0
  0
LINE
  5
13682
  8
2-0
  6
CONTINUOUS
 62
     3
 10
20332.283140817359
 20
14619.087557000021
 30
0.0
 11
20302.285515817359
 21
14619.087557000021
 31
0.0
  0
LINE
  5
13683
  8
2-0
  6
CONTINUOUS
 62
     3
 10
20332.283140817359
 20
14601.08086600002
 30
0.0
 11
20332.283140817359
 21
14619.087557000021
 31
0.0
  0
LINE
  5
13684
  8
2-0
  6
CONTINUOUS
 62
     3
 10
20307.289738817359
 20
14601.08086600002
 30
0.0
 11
20332.283140817359
 21
14601.08086600002
 31
0.0
  0
LINE
  5
13685
  8
2-0
  6
CONTINUOUS
 62
     3
 10
20307.289738817359
 20
14606.086079000021
 30
0.0
 11
20307.289738817359
 21
14601.08086600002
 31
0.0
  0
LINE
  5
13686
  8
2-0
  6
CONTINUOUS
 62
     3
 10
20314.287336817339
 20
14606.086079000021
 30
0.0
 11
20307.289738817359
 21
14606.086079000021
 31
0.0
  0
LINE
  5
13687
  8
2-0
  6
CONTINUOUS
 62
     3
 10
20332.283140817359
 20
13898.988905000009
 30
0.0
 11
20332.283140817359
 21
13904.99377400001
 31
0.0
  0
LINE
  5
13688
  8
2-0
  6
CONTINUOUS
 62
     3
 10
20332.283140817359
 20
13904.99377400001
 30
0.0
 11
20302.285515817359
 21
13904.99377400001
 31
0.0
  0
LINE
  5
13689
  8
2-0
  6
CONTINUOUS
 62
     3
 10
20302.285515817359
 20
13904.99377400001
 30
0.0
 11
20302.285515817359
 21
13789.989683000011
 31
0.0
  0
LINE
  5
1368A
  8
2-0
  6
CONTINUOUS
 62
     3
 10
20302.285515817359
 20
13789.989683000011
 30
0.0
 11
20387.284063817351
 21
13789.989683000011
 31
0.0
  0
LINE
  5
1368B
  8
2-0
  6
CONTINUOUS
 62
     3
 10
20387.284063817351
 20
13789.989683000011
 30
0.0
 11
20387.284063817351
 21
13874.985262000009
 31
0.0
  0
LINE
  5
1368C
  8
2-0
  6
CONTINUOUS
 62
     3
 10
20387.284063817351
 20
13874.985262000009
 30
0.0
 11
20355.287125817351
 21
13874.985262000009
 31
0.0
  0
LINE
  5
1368D
  8
2-0
  6
CONTINUOUS
 62
     3
 10
20314.287336817339
 20
13902.023507000011
 30
0.0
 11
20307.289738817359
 21
13902.023507000011
 31
0.0
  0
LINE
  5
1368E
  8
2-0
  6
CONTINUOUS
 62
     3
 10
20307.289738817359
 20
13902.023507000011
 30
0.0
 11
20307.289738817359
 21
13897.02621199999
 31
0.0
  0
LINE
  5
1368F
  8
2-0
  6
CONTINUOUS
 62
     3
 10
20307.289738817359
 20
13897.02621199999
 30
0.0
 11
20332.283140817359
 21
13897.02621199999
 31
0.0
  0
LINE
  5
13690
  8
2-0
  6
CONTINUOUS
 62
     3
 10
20332.283140817359
 20
13897.02621199999
 30
0.0
 11
20332.283140817359
 21
13915.024985000009
 31
0.0
  0
LINE
  5
13691
  8
2-0
  6
CONTINUOUS
 62
     3
 10
20332.283140817359
 20
13915.024985000009
 30
0.0
 11
20302.285515817359
 21
13915.024985000009
 31
0.0
  0
LINE
  5
13692
  8
2-0
  6
CONTINUOUS
 62
     3
 10
20302.285515817359
 20
14619.087557000021
 30
0.0
 11
20302.285515817359
 21
15263.12641500001
 31
0.0
  0
LINE
  5
13693
  8
2-0
  6
CONTINUOUS
 62
     3
 10
20302.285515817359
 20
18238.082114000012
 30
0.0
 11
20302.285515817359
 21
18881.892831500001
 31
0.0
  0
LINE
  5
13694
  8
2-0
  6
CONTINUOUS
 62
     3
 10
20302.285515817359
 20
15963.88639850001
 30
0.0
 11
20302.285515817359
 21
15320.322625000021
 31
0.0
  0
LINE
  5
13695
  8
2-0
  6
CONTINUOUS
 62
     3
 10
23655.78010481735
 20
19245.489090000021
 30
0.0
 11
23655.78010481735
 21
19360.48526300002
 31
0.0
  0
LINE
  5
13696
  8
2-0
  6
CONTINUOUS
 62
     3
 10
20302.285515817359
 20
19275.488694000011
 30
0.0
 11
23655.78010481735
 21
19275.488694000011
 31
0.0
  0
LINE
  5
13697
  8
2-0
  6
CONTINUOUS
 62
     3
 10
20302.285515817359
 20
13915.024985000009
 30
0.0
 11
20302.285515817359
 21
14561.891347000021
 31
0.0
  0
LINE
  5
13698
  8
2-0
  6
CONTINUOUS
 62
     3
 10
23655.78010481735
 20
19235.19163400001
 30
0.0
 11
23655.78010481735
 21
18939.083103500001
 31
0.0
  0
LINE
  5
13699
  8
2-0
  6
CONTINUOUS
 62
     3
 10
20302.285515817359
 20
19235.19163400001
 30
0.0
 11
20302.285515817359
 21
18939.08310349999
 31
0.0
  0
LINE
  5
1369A
  8
2-0
  6
CONTINUOUS
 62
     3
 10
20383.283456817371
 20
13874.985262000009
 30
0.0
 11
20383.283456817371
 21
19360.48526300002
 31
0.0
  0
LINE
  5
1369B
  8
2-0
  6
CONTINUOUS
 62
     3
 10
23574.77820481735
 20
13874.985262000009
 30
0.0
 11
23574.77820481735
 21
19360.48526300002
 31
0.0
  0
TEXT
  5
1369C
  8
2-0
  6
CONTINUOUS
 62
     7
 10
21018.010036487482
 20
16200.977875276531
 30
0.0
 40
160.0
  1
壁パネル
 50
0.0001770000000167
 72
     4
 11
21380.6764560138
 21
16280.978995637901
 31
0.0
  0
TEXT
  5
1369D
  8
2-0
  6
CONTINUOUS
 62
     7
 10
20988.679607170441
 20
17038.174404652371
 30
0.0
 40
160.0
  1
中柱（左右）
 50
359.99964599999998
 72
     4
 11
21506.013434771139
 21
17118.171208324671
 31
0.0
  0
TEXT
  5
1369E
  8
2-0
  6
CONTINUOUS
 62
     7
 10
21002.010696542759
 20
14245.53569870612
 30
0.0
 40
160.0
  1
下枠
 50
359.99893700000001
 72
     4
 11
21172.678847408049
 21
14325.532532339301
 31
0.0
  0
TEXT
  5
1369F
  8
2-0
  6
CONTINUOUS
 62
     7
 10
21005.711939150671
 20
18641.436750500001
 30
0.0
 40
160.0
  1
間柱（側）
 72
     4
 11
21427.045272484011
 21
18721.436750500001
 31
0.0
  0
TEXT
  5
136A0
  8
2-0
  6
CONTINUOUS
 62
     7
 10
18505.788286836902
 20
20170.490797748738
 30
0.0
 40
160.0
  1
後柱（左右）
 50
359.99964599999998
 72
     4
 11
19017.788781104369
 21
20250.48763437285
 31
0.0
  0
LINE
  5
136A1
  8
2-0
  6
CONTINUOUS
 62
     3
 10
22873.782401817341
 20
19360.48526300002
 30
0.0
 11
22836.78123981737
 21
19360.48526300002
 31
0.0
  0
LINE
  5
136A2
  8
2-0
  6
CONTINUOUS
 62
     3
 10
22873.782401817341
 20
19330.481700000018
 30
0.0
 11
22873.782401817341
 21
19360.48526300002
 31
0.0
  0
LINE
  5
136A3
  8
2-0
  6
CONTINUOUS
 62
     3
 10
22867.782480817332
 20
19330.481700000018
 30
0.0
 11
22873.782401817341
 21
19330.481700000018
 31
0.0
  0
LINE
  5
136A4
  8
2-0
  6
CONTINUOUS
 62
     3
 10
22883.879925817371
 20
19330.481700000018
 30
0.0
 11
22883.879925817371
 21
19360.48526300002
 31
0.0
  0
LINE
  5
136A5
  8
2-0
  6
CONTINUOUS
 62
     3
 10
22865.87620481737
 20
19330.481700000018
 30
0.0
 11
22883.879925817371
 21
19330.481700000018
 31
0.0
  0
LINE
  5
136A6
  8
2-0
  6
CONTINUOUS
 62
     3
 10
22865.87620481737
 20
19355.49093700002
 30
0.0
 11
22865.87620481737
 21
19330.481700000018
 31
0.0
  0
LINE
  5
136A7
  8
2-0
  6
CONTINUOUS
 62
     3
 10
22870.876468817369
 20
19355.49093700002
 30
0.0
 11
22865.87620481737
 21
19355.49093700002
 31
0.0
  0
LINE
  5
136A8
  8
2-0
  6
CONTINUOUS
 62
     3
 10
22870.876468817369
 20
19348.485421000009
 30
0.0
 11
22870.876468817369
 21
19355.49093700002
 31
0.0
  0
LINE
  5
136A9
  8
2-0
  6
CONTINUOUS
 62
     3
 10
22839.68717381735
 20
19348.485421000009
 30
0.0
 11
22839.68717381735
 21
19355.49093700002
 31
0.0
  0
LINE
  5
136AA
  8
2-0
  6
CONTINUOUS
 62
     3
 10
22839.68717381735
 20
19355.49093700002
 30
0.0
 11
22844.687437817371
 21
19355.49093700002
 31
0.0
  0
LINE
  5
136AB
  8
2-0
  6
CONTINUOUS
 62
     3
 10
22844.687437817371
 20
19355.49093700002
 30
0.0
 11
22844.687437817371
 21
19330.481700000018
 31
0.0
  0
LINE
  5
136AC
  8
2-0
  6
CONTINUOUS
 62
     3
 10
22844.687437817371
 20
19330.481700000018
 30
0.0
 11
22826.687674817371
 21
19330.481700000018
 31
0.0
  0
LINE
  5
136AD
  8
2-0
  6
CONTINUOUS
 62
     3
 10
22826.687674817371
 20
19330.481700000018
 30
0.0
 11
22826.687674817371
 21
19360.48526300002
 31
0.0
  0
LINE
  5
136AE
  8
2-0
  6
CONTINUOUS
 62
     3
 10
22842.781160817362
 20
19330.481700000018
 30
0.0
 11
22836.78123981737
 21
19330.481700000018
 31
0.0
  0
LINE
  5
136AF
  8
2-0
  6
CONTINUOUS
 62
     3
 10
22836.78123981737
 20
19330.481700000018
 30
0.0
 11
22836.78123981737
 21
19360.48526300002
 31
0.0
  0
LINE
  5
136B0
  8
2-0
  6
CONTINUOUS
 62
     3
 10
21468.87151931737
 20
19348.485421000009
 30
0.0
 11
21468.87151931737
 21
19355.49093700002
 31
0.0
  0
LINE
  5
136B1
  8
2-0
  6
CONTINUOUS
 62
     3
 10
21468.87151931737
 20
19355.49093700002
 30
0.0
 11
21463.87125531735
 21
19355.49093700002
 31
0.0
  0
LINE
  5
136B2
  8
2-0
  6
CONTINUOUS
 62
     3
 10
21463.87125531735
 20
19355.49093700002
 30
0.0
 11
21463.87125531735
 21
19330.481700000018
 31
0.0
  0
LINE
  5
136B3
  8
2-0
  6
CONTINUOUS
 62
     3
 10
21463.87125531735
 20
19330.481700000018
 30
0.0
 11
21481.87695631737
 21
19330.481700000018
 31
0.0
  0
LINE
  5
136B4
  8
2-0
  6
CONTINUOUS
 62
     3
 10
21481.87695631737
 20
19330.481700000018
 30
0.0
 11
21481.87695631737
 21
19360.48526300002
 31
0.0
  0
LINE
  5
136B5
  8
2-0
  6
CONTINUOUS
 62
     3
 10
21465.77951131736
 20
19330.481700000018
 30
0.0
 11
21471.781411317352
 21
19330.481700000018
 31
0.0
  0
LINE
  5
136B6
  8
2-0
  6
CONTINUOUS
 62
     3
 10
21471.781411317352
 20
19330.481700000018
 30
0.0
 11
21471.781411317352
 21
19360.48526300002
 31
0.0
  0
LINE
  5
136B7
  8
2-0
  6
CONTINUOUS
 62
     3
 10
21434.78223031736
 20
19360.48526300002
 30
0.0
 11
21471.781411317352
 21
19360.48526300002
 31
0.0
  0
LINE
  5
136B8
  8
2-0
  6
CONTINUOUS
 62
     3
 10
21434.78223031736
 20
19330.481700000018
 30
0.0
 11
21434.78223031736
 21
19360.48526300002
 31
0.0
  0
LINE
  5
136B9
  8
2-0
  6
CONTINUOUS
 62
     3
 10
21440.77621231736
 20
19330.481700000018
 30
0.0
 11
21434.78223031736
 21
19330.481700000018
 31
0.0
  0
LINE
  5
136BA
  8
2-0
  6
CONTINUOUS
 62
     3
 10
21424.686685317371
 20
19330.481700000018
 30
0.0
 11
21424.686685317371
 21
19360.48526300002
 31
0.0
  0
LINE
  5
136BB
  8
2-0
  6
CONTINUOUS
 62
     3
 10
21442.682488317361
 20
19330.481700000018
 30
0.0
 11
21424.686685317371
 21
19330.481700000018
 31
0.0
  0
LINE
  5
136BC
  8
2-0
  6
CONTINUOUS
 62
     3
 10
21442.682488317361
 20
19355.49093700002
 30
0.0
 11
21442.682488317361
 21
19330.481700000018
 31
0.0
  0
LINE
  5
136BD
  8
2-0
  6
CONTINUOUS
 62
     3
 10
21437.682224317348
 20
19355.49093700002
 30
0.0
 11
21442.682488317361
 21
19355.49093700002
 31
0.0
  0
LINE
  5
136BE
  8
2-0
  6
CONTINUOUS
 62
     3
 10
21437.682224317348
 20
19348.485421000009
 30
0.0
 11
21437.682224317348
 21
19355.49093700002
 31
0.0
  0
LINE
  5
136BF
  8
2-0
  6
CONTINUOUS
 62
     3
 10
22138.681235317359
 20
19348.485421000009
 30
0.0
 11
22138.681235317359
 21
19355.49093700002
 31
0.0
  0
LINE
  5
136C0
  8
2-0
  6
CONTINUOUS
 62
     3
 10
22138.681235317359
 20
19355.49093700002
 30
0.0
 11
22143.681498317372
 21
19355.49093700002
 31
0.0
  0
LINE
  5
136C1
  8
2-0
  6
CONTINUOUS
 62
     3
 10
22143.681498317372
 20
19355.49093700002
 30
0.0
 11
22143.681498317372
 21
19330.481700000018
 31
0.0
  0
LINE
  5
136C2
  8
2-0
  6
CONTINUOUS
 62
     3
 10
22143.681498317372
 20
19330.481700000018
 30
0.0
 11
22125.687675317338
 21
19330.481700000018
 31
0.0
  0
LINE
  5
136C3
  8
2-0
  6
CONTINUOUS
 62
     3
 10
22125.687675317338
 20
19330.481700000018
 30
0.0
 11
22125.687675317338
 21
19360.48526300002
 31
0.0
  0
LINE
  5
136C4
  8
2-0
  6
CONTINUOUS
 62
     3
 10
22141.779181317339
 20
19330.481700000018
 30
0.0
 11
22135.781240317359
 21
19330.481700000018
 31
0.0
  0
LINE
  5
136C5
  8
2-0
  6
CONTINUOUS
 62
     3
 10
22135.781240317359
 20
19330.481700000018
 30
0.0
 11
22135.781240317359
 21
19360.48526300002
 31
0.0
  0
LINE
  5
136C6
  8
2-0
  6
CONTINUOUS
 62
     3
 10
22172.78240131737
 20
19360.48526300002
 30
0.0
 11
22135.781240317359
 21
19360.48526300002
 31
0.0
  0
LINE
  5
136C7
  8
2-0
  6
CONTINUOUS
 62
     3
 10
22172.78240131737
 20
19330.481700000018
 30
0.0
 11
22172.78240131737
 21
19360.48526300002
 31
0.0
  0
LINE
  5
136C8
  8
2-0
  6
CONTINUOUS
 62
     3
 10
22166.77654231737
 20
19330.481700000018
 30
0.0
 11
22172.78240131737
 21
19330.481700000018
 31
0.0
  0
LINE
  5
136C9
  8
2-0
  6
CONTINUOUS
 62
     3
 10
22182.87596631737
 20
19330.481700000018
 30
0.0
 11
22182.87596631737
 21
19360.48526300002
 31
0.0
  0
LINE
  5
136CA
  8
2-0
  6
CONTINUOUS
 62
     3
 10
22164.880163317361
 20
19330.481700000018
 30
0.0
 11
22182.87596631737
 21
19330.481700000018
 31
0.0
  0
LINE
  5
136CB
  8
2-0
  6
CONTINUOUS
 62
     3
 10
22164.880163317361
 20
19355.49093700002
 30
0.0
 11
22164.880163317361
 21
19330.481700000018
 31
0.0
  0
LINE
  5
136CC
  8
2-0
  6
CONTINUOUS
 62
     3
 10
22169.87052931737
 20
19355.49093700002
 30
0.0
 11
22164.880163317361
 21
19355.49093700002
 31
0.0
  0
LINE
  5
136CD
  8
2-0
  6
CONTINUOUS
 62
     3
 10
22169.87052931737
 20
19348.485421000009
 30
0.0
 11
22169.87052931737
 21
19355.49093700002
 31
0.0
  0
LINE
  5
136CE
  8
2-0
  6
CONTINUOUS
 62
     3
 10
21481.87695631737
 20
19360.48526300002
 30
0.0
 11
22125.687675317338
 21
19360.48526300002
 31
0.0
  0
LINE
  5
136CF
  8
2-0
  6
CONTINUOUS
 62
     3
 10
20781.080846817371
 20
19360.48526300002
 30
0.0
 11
21424.686685317371
 21
19360.48526300002
 31
0.0
  0
LINE
  5
136D0
  8
2-0
  6
CONTINUOUS
 62
     3
 10
23531.165450817371
 20
19360.48526300002
 30
0.0
 11
22883.879925817371
 21
19360.48526300002
 31
0.0
  0
LINE
  5
136D1
  8
2-0
  6
CONTINUOUS
 62
     3
 10
22826.687674817371
 20
19360.48526300002
 30
0.0
 11
22182.87596631737
 21
19360.48526300002
 31
0.0
  0
LINE
  5
136D2
  8
2-0
  6
CONTINUOUS
 62
     3
 10
20767.87349881736
 20
19348.485421000009
 30
0.0
 11
20767.87349881736
 21
19355.49093700002
 31
0.0
  0
LINE
  5
136D3
  8
2-0
  6
CONTINUOUS
 62
     3
 10
20767.87349881736
 20
19355.49093700002
 30
0.0
 11
20762.873234817362
 21
19355.49093700002
 31
0.0
  0
LINE
  5
136D4
  8
2-0
  6
CONTINUOUS
 62
     3
 10
20762.873234817362
 20
19355.49093700002
 30
0.0
 11
20762.873234817362
 21
19330.481700000018
 31
0.0
  0
LINE
  5
136D5
  8
2-0
  6
CONTINUOUS
 62
     3
 10
20762.873234817362
 20
19330.481700000018
 30
0.0
 11
20780.874976817369
 21
19330.481700000018
 31
0.0
  0
LINE
  5
136D6
  8
2-0
  6
CONTINUOUS
 62
     3
 10
20780.874976817369
 20
19330.481700000018
 30
0.0
 11
20780.874976817369
 21
19360.48526300002
 31
0.0
  0
LINE
  5
136D7
  8
2-0
  6
CONTINUOUS
 62
     3
 10
20764.77555181738
 20
19330.481700000018
 30
0.0
 11
20770.779431817358
 21
19330.481700000018
 31
0.0
  0
LINE
  5
136D8
  8
2-0
  6
CONTINUOUS
 62
     3
 10
20770.779431817358
 20
19330.481700000018
 30
0.0
 11
20770.779431817358
 21
19360.48526300002
 31
0.0
  0
LINE
  5
136D9
  8
2-0
  6
CONTINUOUS
 62
     3
 10
20733.78420981735
 20
19360.48526300002
 30
0.0
 11
20770.779431817358
 21
19360.48526300002
 31
0.0
  0
LINE
  5
136DA
  8
2-0
  6
CONTINUOUS
 62
     3
 10
20733.78420981735
 20
19330.481700000018
 30
0.0
 11
20733.78420981735
 21
19360.48526300002
 31
0.0
  0
LINE
  5
136DB
  8
2-0
  6
CONTINUOUS
 62
     3
 10
20739.77819181736
 20
19330.481700000018
 30
0.0
 11
20733.78420981735
 21
19330.481700000018
 31
0.0
  0
LINE
  5
136DC
  8
2-0
  6
CONTINUOUS
 62
     3
 10
20723.688664817371
 20
19330.481700000018
 30
0.0
 11
20723.688664817371
 21
19360.48526300002
 31
0.0
  0
LINE
  5
136DD
  8
2-0
  6
CONTINUOUS
 62
     3
 10
20741.68446781738
 20
19330.481700000018
 30
0.0
 11
20723.688664817371
 21
19330.481700000018
 31
0.0
  0
LINE
  5
136DE
  8
2-0
  6
CONTINUOUS
 62
     3
 10
20741.68446781738
 20
19355.49093700002
 30
0.0
 11
20741.68446781738
 21
19330.481700000018
 31
0.0
  0
LINE
  5
136DF
  8
2-0
  6
CONTINUOUS
 62
     3
 10
20736.686183817372
 20
19355.49093700002
 30
0.0
 11
20741.68446781738
 21
19355.49093700002
 31
0.0
  0
LINE
  5
136E0
  8
2-0
  6
CONTINUOUS
 62
     3
 10
20736.686183817372
 20
19348.485421000009
 30
0.0
 11
20736.686183817372
 21
19355.49093700002
 31
0.0
  0
LINE
  5
136E1
  8
2-0
  6
CONTINUOUS
 62
     3
 10
20427.58706281734
 20
19360.48526300002
 30
0.0
 11
20723.688664817371
 21
19360.48526300002
 31
0.0
  0
LINE
  5
136E2
  8
2-0
  6
CONTINUOUS
 62
     3
 10
23655.78010481735
 20
15263.126415000021
 30
0.0
 11
23655.78010481735
 21
14619.087557000021
 31
0.0
  0
LINE
  5
136E3
  8
2-0
  6
CONTINUOUS
 62
     3
 10
23655.78010481735
 20
14561.89134700001
 30
0.0
 11
23655.78010481735
 21
13915.024985000009
 31
0.0
  0
LINE
  5
136E4
  8
0-6
  6
CONTINUOUS
 62
     6
 10
23261.959541317348
 20
18649.16703500002
 30
0.0
 11
22236.919291317321
 21
18649.16703500002
 31
0.0
  0
LINE
  5
136E5
  8
0-6
  6
CONTINUOUS
 62
     6
 10
21936.994513317339
 20
19206.520287000028
 30
0.0
 11
21832.378935317342
 21
19330.481700000018
 31
0.0
  0
LINE
  5
136E6
  8
0-6
  6
CONTINUOUS
 62
     6
 10
21832.378935317342
 20
19330.481700000018
 30
0.0
 11
21891.136985317349
 21
19179.290030000018
 31
0.0
  0
LINE
  5
136E7
  8
0-6
  6
CONTINUOUS
 62
     6
 10
21832.378935317342
 20
19330.481700000018
 30
0.0
 11
21936.994513317339
 21
19206.520287000028
 31
0.0
  0
LINE
  5
136E8
  8
0-6
  6
CONTINUOUS
 62
     6
 10
21936.994513317339
 20
19206.520287000028
 30
0.0
 11
21891.136985317349
 21
19179.290030000018
 31
0.0
  0
LINE
  5
136E9
  8
0-6
  6
CONTINUOUS
 62
     6
 10
21891.136985317349
 20
19179.290030000018
 30
0.0
 11
21832.378935317342
 21
19330.481700000018
 31
0.0
  0
LINE
  5
136EA
  8
0-6
  6
CONTINUOUS
 62
     6
 10
21891.136985317349
 20
19179.290030000018
 30
0.0
 11
21936.994513317339
 21
19206.520287000028
 31
0.0
  0
LINE
  5
136EB
  8
0-6
  6
CONTINUOUS
 62
     6
 10
21914.065749317331
 20
19192.90713800002
 30
0.0
 11
22236.919291317321
 21
18649.16703500002
 31
0.0
  0
TEXT
  5
136EC
  8
0-6
  6
CONTINUOUS
 62
     7
 10
22339.292610650671
 20
18729.16927900002
 30
0.0
 40
160.0
  1
間柱（後）
 72
     4
 11
22760.625943984
 21
18809.16927900002
 31
0.0
  0
LINE
  5
136ED
  8
SUNPOU
  6
CONTINUOUS
 62
     4
 10
20222.285515817352
 20
18910.486978000001
 30
0.0
 11
19172.284195817359
 21
18910.48697799999
 31
0.0
  0
LINE
  5
136EE
  8
SUNPOU
  6
CONTINUOUS
 62
     4
 10
19372.284195817359
 20
19317.986978000012
 30
0.0
 11
19172.284195817359
 21
19317.98697799999
 31
0.0
  0
LINE
  5
136EF
  8
SUNPOU
  6
CONTINUOUS
 62
     4
 10
19252.284195817359
 20
18910.48697799999
 30
0.0
 11
19252.284195817359
 21
19317.98697799999
 31
0.0
  0
LINE
  5
136F0
  8
SUNPOU
  6
CONTINUOUS
 62
     4
 10
23613.283799817331
 20
13126.723544
 30
0.0
 11
23613.283799817331
 21
12781.038893999999
 31
0.0
  0
LINE
  5
136F1
  8
SUNPOU
  6
CONTINUOUS
 62
     4
 10
23655.786042817341
 20
13709.989683000011
 30
0.0
 11
23655.786042817341
 21
12781.038893999999
 31
0.0
  0
LINE
  5
136F2
  8
SUNPOU
  6
CONTINUOUS
 62
     4
 10
23613.283799817331
 20
12861.03889400001
 30
0.0
 11
23373.283799817331
 21
12861.03889400001
 31
0.0
  0
LINE
  5
136F3
  8
SUNPOU
  6
CONTINUOUS
 62
     4
 10
23655.786042817341
 20
12861.03889400001
 30
0.0
 11
23895.786042817341
 21
12861.03889400001
 31
0.0
  0
LINE
  5
136F4
  8
SUNPOU
  6
CONTINUOUS
 62
     4
 10
23613.283799817331
 20
12861.03889400001
 30
0.0
 11
23655.786042817341
 21
12861.03889400001
 31
0.0
  0
LINE
  5
136F5
  8
SUNPOU
  6
CONTINUOUS
 62
     4
 10
20344.783799817342
 20
13126.723544
 30
0.0
 11
20344.783799817342
 21
12781.038893999999
 31
0.0
  0
LINE
  5
136F6
  8
SUNPOU
  6
CONTINUOUS
 62
     4
 10
20302.28155681735
 20
13709.989683000011
 30
0.0
 11
20302.28155681735
 21
12781.038893999999
 31
0.0
  0
LINE
  5
136F7
  8
SUNPOU
  6
CONTINUOUS
 62
     4
 10
20344.783799817342
 20
12861.03889400001
 30
0.0
 11
20584.783799817342
 21
12861.03889400001
 31
0.0
  0
LINE
  5
136F8
  8
SUNPOU
  6
CONTINUOUS
 62
     4
 10
20302.28155681735
 20
12861.03889400001
 30
0.0
 11
20062.28155681735
 21
12861.03889400001
 31
0.0
  0
LINE
  5
136F9
  8
SUNPOU
  6
CONTINUOUS
 62
     4
 10
20344.783799817342
 20
12861.03889400001
 30
0.0
 11
20302.28155681735
 21
12861.03889400001
 31
0.0
  0
LINE
  5
136FA
  8
SUNPOU
  6
CONTINUOUS
 62
     4
 10
20344.783799817342
 20
13126.723544
 30
0.0
 11
20344.783799817342
 21
12781.038893999999
 31
0.0
  0
LINE
  5
136FB
  8
SUNPOU
  6
CONTINUOUS
 62
     4
 10
20387.286042817352
 20
13709.989683000011
 30
0.0
 11
20387.286042817352
 21
12781.038893999999
 31
0.0
  0
LINE
  5
136FC
  8
SUNPOU
  6
CONTINUOUS
 62
     4
 10
20344.783799817342
 20
12861.03889400001
 30
0.0
 11
20104.783799817342
 21
12861.03889400001
 31
0.0
  0
LINE
  5
136FD
  8
SUNPOU
  6
CONTINUOUS
 62
     4
 10
20387.286042817352
 20
12861.03889400001
 30
0.0
 11
20627.286042817341
 21
12861.03889400001
 31
0.0
  0
LINE
  5
136FE
  8
SUNPOU
  6
CONTINUOUS
 62
     4
 10
20344.783799817342
 20
12861.03889400001
 30
0.0
 11
20387.286042817352
 21
12861.03889400001
 31
0.0
  0
LINE
  5
136FF
  8
SUNPOU
  6
CONTINUOUS
 62
     4
 10
23613.283799817331
 20
13126.723544
 30
0.0
 11
23613.283799817331
 21
12781.038893999999
 31
0.0
  0
LINE
  5
13700
  8
SUNPOU
  6
CONTINUOUS
 62
     4
 10
23570.78155681735
 20
13709.989683000011
 30
0.0
 11
23570.78155681735
 21
12781.038893999999
 31
0.0
  0
LINE
  5
13701
  8
SUNPOU
  6
CONTINUOUS
 62
     4
 10
23613.283799817331
 20
12861.03889400001
 30
0.0
 11
23853.283799817331
 21
12861.03889400001
 31
0.0
  0
LINE
  5
13702
  8
SUNPOU
  6
CONTINUOUS
 62
     4
 10
23570.78155681735
 20
12861.03889400001
 30
0.0
 11
23330.78155681735
 21
12861.03889400001
 31
0.0
  0
LINE
  5
13703
  8
SUNPOU
  6
CONTINUOUS
 62
     4
 10
23613.283799817331
 20
12861.03889400001
 30
0.0
 11
23570.78155681735
 21
12861.03889400001
 31
0.0
  0
LINE
  5
13704
  8
SUNPOU
  6
CONTINUOUS
 62
     4
 10
23655.786042817341
 20
13709.989683000011
 30
0.0
 11
23655.786042817341
 21
12381.038893999999
 31
0.0
  0
LINE
  5
13705
  8
SUNPOU
  6
CONTINUOUS
 62
     4
 10
20302.28155681735
 20
13709.989683000011
 30
0.0
 11
20302.28155681735
 21
12381.038893999999
 31
0.0
  0
LINE
  5
13706
  8
SUNPOU
  6
CONTINUOUS
 62
     4
 10
23655.786042817341
 20
12461.038893999999
 30
0.0
 11
20302.28155681735
 21
12461.038893999999
 31
0.0
  0
LINE
  5
13707
  8
SUNPOU
  6
CONTINUOUS
 62
     4
 10
20222.285515817352
 20
14590.48697800001
 30
0.0
 11
19172.284195817359
 21
14590.48697800001
 31
0.0
  0
LINE
  5
13708
  8
SUNPOU
  6
CONTINUOUS
 62
     4
 10
19372.284195817359
 20
13832.486978000001
 30
0.0
 11
19172.284195817359
 21
13832.486978000001
 31
0.0
  0
LINE
  5
13709
  8
SUNPOU
  6
CONTINUOUS
 62
     4
 10
19252.284195817359
 20
14590.48697800001
 30
0.0
 11
19252.284195817359
 21
13832.486978000001
 31
0.0
  0
LINE
  5
1370A
  8
SUNPOU
  6
CONTINUOUS
 62
     4
 10
20222.285515817352
 20
15291.72748950003
 30
0.0
 11
19172.284195817359
 21
15291.72748950003
 31
0.0
  0
LINE
  5
1370B
  8
SUNPOU
  6
CONTINUOUS
 62
     4
 10
20222.285515817352
 20
14590.48697800001
 30
0.0
 11
19172.284195817359
 21
14590.48697800001
 31
0.0
  0
LINE
  5
1370C
  8
SUNPOU
  6
CONTINUOUS
 62
     4
 10
19252.284195817359
 20
15291.72748950003
 30
0.0
 11
19252.284195817359
 21
14590.48697800001
 31
0.0
  0
LINE
  5
1370D
  8
SUNPOU
  6
CONTINUOUS
 62
     4
 10
20222.285515817352
 20
15992.48697800001
 30
0.0
 11
19172.284195817359
 21
15992.48697800001
 31
0.0
  0
LINE
  5
1370E
  8
SUNPOU
  6
CONTINUOUS
 62
     4
 10
20222.285515817352
 20
15291.72748950003
 30
0.0
 11
19172.284195817359
 21
15291.72748950003
 31
0.0
  0
LINE
  5
1370F
  8
SUNPOU
  6
CONTINUOUS
 62
     4
 10
19252.284195817359
 20
15992.48697800001
 30
0.0
 11
19252.284195817359
 21
15291.72748950003
 31
0.0
  0
LINE
  5
13710
  8
SUNPOU
  6
CONTINUOUS
 62
     4
 10
19372.284195817359
 20
16750.486978000012
 30
0.0
 11
19172.284195817359
 21
16750.486978000012
 31
0.0
  0
LINE
  5
13711
  8
SUNPOU
  6
CONTINUOUS
 62
     4
 10
20222.285515817352
 20
15992.48697800001
 30
0.0
 11
19172.284195817359
 21
15992.48697800001
 31
0.0
  0
LINE
  5
13712
  8
SUNPOU
  6
CONTINUOUS
 62
     4
 10
19252.284195817359
 20
16750.486978000012
 30
0.0
 11
19252.284195817359
 21
15992.48697800001
 31
0.0
  0
LINE
  5
13713
  8
SUNPOU
  6
CONTINUOUS
 62
     4
 10
20222.285515817352
 20
17508.486978000012
 30
0.0
 11
19172.284195817359
 21
17508.48697799999
 31
0.0
  0
LINE
  5
13714
  8
SUNPOU
  6
CONTINUOUS
 62
     4
 10
19372.284195817359
 20
16750.486978000012
 30
0.0
 11
19172.284195817359
 21
16750.486978000012
 31
0.0
  0
LINE
  5
13715
  8
SUNPOU
  6
CONTINUOUS
 62
     4
 10
19252.284195817359
 20
17508.48697799999
 30
0.0
 11
19252.284195817359
 21
16750.486978000012
 31
0.0
  0
LINE
  5
13716
  8
SUNPOU
  6
CONTINUOUS
 62
     4
 10
20222.285515817352
 20
18209.486978000012
 30
0.0
 11
19172.284195817359
 21
18209.486978000001
 31
0.0
  0
LINE
  5
13717
  8
SUNPOU
  6
CONTINUOUS
 62
     4
 10
20222.285515817352
 20
17508.486978000012
 30
0.0
 11
19172.284195817359
 21
17508.48697799999
 31
0.0
  0
LINE
  5
13718
  8
SUNPOU
  6
CONTINUOUS
 62
     4
 10
19252.284195817359
 20
18209.486978000001
 30
0.0
 11
19252.284195817359
 21
17508.48697799999
 31
0.0
  0
LINE
  5
13719
  8
SUNPOU
  6
CONTINUOUS
 62
     4
 10
20222.285515817352
 20
18910.486978000001
 30
0.0
 11
19172.284195817359
 21
18910.48697799999
 31
0.0
  0
LINE
  5
1371A
  8
SUNPOU
  6
CONTINUOUS
 62
     4
 10
20222.285515817352
 20
18209.486978000012
 30
0.0
 11
19172.284195817359
 21
18209.486978000001
 31
0.0
  0
LINE
  5
1371B
  8
SUNPOU
  6
CONTINUOUS
 62
     4
 10
19252.284195817359
 20
18910.48697799999
 30
0.0
 11
19252.284195817359
 21
18209.486978000001
 31
0.0
  0
LINE
  5
1371C
  8
SUNPOU
  6
CONTINUOUS
 62
     4
 10
19372.284195817359
 20
19317.986978000012
 30
0.0
 11
19172.284195817359
 21
19317.98697799999
 31
0.0
  0
LINE
  5
1371D
  8
SUNPOU
  6
CONTINUOUS
 62
     4
 10
19372.284195817359
 20
13832.486978000001
 30
0.0
 11
19172.284195817359
 21
13832.486978000001
 31
0.0
  0
LINE
  5
1371E
  8
SUNPOU
  6
CONTINUOUS
 62
     4
 10
20222.285515817352
 20
19360.484273000009
 30
0.0
 11
18772.284195817341
 21
19360.484273000009
 31
0.0
  0
LINE
  5
1371F
  8
SUNPOU
  6
CONTINUOUS
 62
     4
 10
20222.285515817352
 20
13789.989683000011
 30
0.0
 11
18772.284195817341
 21
13789.989683000011
 31
0.0
  0
LINE
  5
13720
  8
SUNPOU
  6
CONTINUOUS
 62
     4
 10
18852.284195817341
 20
19360.484273000009
 30
0.0
 11
18852.284195817341
 21
13789.989683000011
 31
0.0
  0
LINE
  5
13721
  8
SUNPOU
  6
CONTINUOUS
 62
     4
 10
19372.284195817359
 20
19317.986978000012
 30
0.0
 11
19172.284195817359
 21
19317.98697799999
 31
0.0
  0
LINE
  5
13722
  8
SUNPOU
  6
CONTINUOUS
 62
     4
 10
20222.285515817352
 20
19360.484273000009
 30
0.0
 11
19172.284195817359
 21
19360.484273000009
 31
0.0
  0
LINE
  5
13723
  8
SUNPOU
  6
CONTINUOUS
 62
     4
 10
19252.284195817359
 20
19317.98697799999
 30
0.0
 11
19252.284195817359
 21
19077.98697799999
 31
0.0
  0
LINE
  5
13724
  8
SUNPOU
  6
CONTINUOUS
 62
     4
 10
19252.284195817359
 20
19360.484273000009
 30
0.0
 11
19252.284195817359
 21
19600.484273000009
 31
0.0
  0
LINE
  5
13725
  8
SUNPOU
  6
CONTINUOUS
 62
     4
 10
19252.284195817359
 20
19317.98697799999
 30
0.0
 11
19252.284195817359
 21
19360.484273000009
 31
0.0
  0
LINE
  5
13726
  8
SUNPOU
  6
CONTINUOUS
 62
     4
 10
19372.284195817359
 20
13832.486978000001
 30
0.0
 11
19172.284195817359
 21
13832.486978000001
 31
0.0
  0
LINE
  5
13727
  8
SUNPOU
  6
CONTINUOUS
 62
     4
 10
20222.285515817352
 20
13789.989683000011
 30
0.0
 11
19172.284195817359
 21
13789.989683000011
 31
0.0
  0
LINE
  5
13728
  8
SUNPOU
  6
CONTINUOUS
 62
     4
 10
19252.284195817359
 20
13832.486978000001
 30
0.0
 11
19252.284195817359
 21
14072.486978000001
 31
0.0
  0
LINE
  5
13729
  8
SUNPOU
  6
CONTINUOUS
 62
     4
 10
19252.284195817359
 20
13789.989683000011
 30
0.0
 11
19252.284195817359
 21
13549.989683000011
 31
0.0
  0
LINE
  5
1372A
  8
SUNPOU
  6
CONTINUOUS
 62
     4
 10
19252.284195817359
 20
13832.486978000001
 30
0.0
 11
19252.284195817359
 21
13789.989683000011
 31
0.0
  0
TEXT
  5
1372B
  8
0
  6
CONTINUOUS
 62
     7
 10
19172.284195817359
 20
13216.433446603211
 30
0.0
 40
160.0
  1
42.5
 50
90.0
  0
TEXT
  5
1372C
  8
0
  6
CONTINUOUS
 62
     7
 10
19172.284195817359
 20
19454.0405093968
 30
0.0
 40
160.0
  1
42.5
 50
90.0
  0
TEXT
  5
1372D
  8
0
  6
CONTINUOUS
 62
     7
 10
18772.284195817341
 20
16188.570311333349
 30
0.0
 40
160.0
  1
5570.5
 50
90.0
  0
TEXT
  5
1372E
  8
0
  6
CONTINUOUS
 62
     7
 10
19492.284195817359
 20
18386.65364466668
 30
0.0
 40
160.0
  1
701
 50
90.0
  0
TEXT
  5
1372F
  8
0
  6
CONTINUOUS
 62
     7
 10
19172.284195817359
 20
17685.65364466668
 30
0.0
 40
160.0
  1
701
 50
90.0
  0
TEXT
  5
13730
  8
0
  6
CONTINUOUS
 62
     7
 10
19172.284195817359
 20
16916.15364466668
 30
0.0
 40
160.0
  1
758
 50
90.0
  0
TEXT
  5
13731
  8
0
  6
CONTINUOUS
 62
     7
 10
19172.284195817359
 20
16158.15364466668
 30
0.0
 40
160.0
  1
758
 50
90.0
  0
TEXT
  5
13732
  8
0
  6
CONTINUOUS
 62
     7
 10
19172.284195817359
 20
15468.773900416691
 30
0.0
 40
160.0
  1
701
 50
90.0
  0
TEXT
  5
13733
  8
0
  6
CONTINUOUS
 62
     7
 10
19172.284195817359
 20
14767.773900416691
 30
0.0
 40
160.0
  1
701
 50
90.0
  0
TEXT
  5
13734
  8
0
  6
CONTINUOUS
 62
     7
 10
19172.284195817359
 20
13998.153644666671
 30
0.0
 40
160.0
  1
758
 50
90.0
  0
TEXT
  5
13735
  8
0
  6
CONTINUOUS
 62
     7
 10
21579.033799817342
 20
12541.038893999999
 30
0.0
 40
160.0
  1
3353.5
  0
TEXT
  5
13736
  8
0
  6
CONTINUOUS
 62
     7
 10
23015.230127435269
 20
12941.03889400001
 30
0.0
 40
160.0
  1
42.5
  0
TEXT
  5
13737
  8
0
  6
CONTINUOUS
 62
     7
 10
20462.83747219943
 20
12941.03889400001
 30
0.0
 40
160.0
  1
42.5
  0
TEXT
  5
13738
  8
0
  6
CONTINUOUS
 62
     7
 10
19746.730127435261
 20
12941.03889400001
 30
0.0
 40
160.0
  1
42.5
  0
TEXT
  5
13739
  8
0
  6
CONTINUOUS
 62
     7
 10
23731.33747219943
 20
12941.03889400001
 30
0.0
 40
160.0
  1
42.5
  0
TEXT
  5
1373A
  8
0
  6
CONTINUOUS
 62
     7
 10
19132.284195817359
 20
18619.864945643221
 30
0.0
 40
160.0
  1
407.5
 50
90.0
  0
ARC
  5
1373B
  8
0
  6
BYBLOCK
 62
     0
 10
19252.284195817359
 20
18910.48697799999
 30
0.0
 40
15.0
 50
270.0
 51
90.0
  0
ARC
  5
1373C
  8
0
  6
BYBLOCK
 62
     0
 10
19252.284195817359
 20
18910.48697799999
 30
0.0
 40
15.0
 50
90.0
 51
270.0
  0
ARC
  5
1373D
  8
0
  6
BYBLOCK
 62
     0
 10
19252.284195817359
 20
19317.98697799999
 30
0.0
 40
15.0
 50
90.0
 51
270.0
  0
ARC
  5
1373E
  8
0
  6
BYBLOCK
 62
     0
 10
19252.284195817359
 20
19317.98697799999
 30
0.0
 40
15.0
 50
270.0
 51
90.0
  0
ARC
  5
1373F
  8
0
  6
BYBLOCK
 62
     0
 10
23613.283799817331
 20
12861.03889400001
 30
0.0
 40
15.0
 50
0.0
 51
180.0
  0
ARC
  5
13740
  8
0
  6
BYBLOCK
 62
     0
 10
23613.283799817331
 20
12861.03889400001
 30
0.0
 40
15.0
 50
180.0
 51
0.0
  0
ARC
  5
13741
  8
0
  6
BYBLOCK
 62
     0
 10
23655.786042817341
 20
12861.03889400001
 30
0.0
 40
15.0
 50
180.0
 51
0.0
  0
ARC
  5
13742
  8
0
  6
BYBLOCK
 62
     0
 10
23655.786042817341
 20
12861.03889400001
 30
0.0
 40
15.0
 50
0.0
 51
180.0
  0
ARC
  5
13743
  8
0
  6
BYBLOCK
 62
     0
 10
20344.783799817342
 20
12861.03889400001
 30
0.0
 40
15.0
 50
180.0
 51
0.0
  0
ARC
  5
13744
  8
0
  6
BYBLOCK
 62
     0
 10
20344.783799817342
 20
12861.03889400001
 30
0.0
 40
15.0
 50
0.0
 51
180.0
  0
ARC
  5
13745
  8
0
  6
BYBLOCK
 62
     0
 10
20302.28155681735
 20
12861.03889400001
 30
0.0
 40
15.0
 50
0.0
 51
180.0
  0
ARC
  5
13746
  8
0
  6
BYBLOCK
 62
     0
 10
20302.28155681735
 20
12861.03889400001
 30
0.0
 40
15.0
 50
180.0
 51
0.0
  0
ARC
  5
13747
  8
0
  6
BYBLOCK
 62
     0
 10
20344.783799817342
 20
12861.03889400001
 30
0.0
 40
15.0
 50
0.0
 51
180.0
  0
ARC
  5
13748
  8
0
  6
BYBLOCK
 62
     0
 10
20344.783799817342
 20
12861.03889400001
 30
0.0
 40
15.0
 50
180.0
 51
0.0
  0
ARC
  5
13749
  8
0
  6
BYBLOCK
 62
     0
 10
20387.286042817352
 20
12861.03889400001
 30
0.0
 40
15.0
 50
180.0
 51
0.0
  0
ARC
  5
1374A
  8
0
  6
BYBLOCK
 62
     0
 10
20387.286042817352
 20
12861.03889400001
 30
0.0
 40
15.0
 50
0.0
 51
180.0
  0
ARC
  5
1374B
  8
0
  6
BYBLOCK
 62
     0
 10
23613.283799817331
 20
12861.03889400001
 30
0.0
 40
15.0
 50
180.0
 51
0.0
  0
ARC
  5
1374C
  8
0
  6
BYBLOCK
 62
     0
 10
23613.283799817331
 20
12861.03889400001
 30
0.0
 40
15.0
 50
0.0
 51
180.0
  0
ARC
  5
1374D
  8
0
  6
BYBLOCK
 62
     0
 10
23570.78155681735
 20
12861.03889400001
 30
0.0
 40
15.0
 50
0.0
 51
180.0
  0
ARC
  5
1374E
  8
0
  6
BYBLOCK
 62
     0
 10
23570.78155681735
 20
12861.03889400001
 30
0.0
 40
15.0
 50
180.0
 51
0.0
  0
ARC
  5
1374F
  8
0
  6
BYBLOCK
 62
     0
 10
23655.786042817341
 20
12461.038893999999
 30
0.0
 40
15.0
 50
0.0
 51
180.0
  0
ARC
  5
13750
  8
0
  6
BYBLOCK
 62
     0
 10
23655.786042817341
 20
12461.038893999999
 30
0.0
 40
15.0
 50
180.0
 51
0.0
  0
ARC
  5
13751
  8
0
  6
BYBLOCK
 62
     0
 10
20302.28155681735
 20
12461.038893999999
 30
0.0
 40
15.0
 50
180.0
 51
0.0
  0
ARC
  5
13752
  8
0
  6
BYBLOCK
 62
     0
 10
20302.28155681735
 20
12461.038893999999
 30
0.0
 40
15.0
 50
0.0
 51
180.0
  0
ARC
  5
13753
  8
0
  6
BYBLOCK
 62
     0
 10
19252.284195817359
 20
14590.48697800001
 30
0.0
 40
15.0
 50
90.0
 51
270.0
  0
ARC
  5
13754
  8
0
  6
BYBLOCK
 62
     0
 10
19252.284195817359
 20
14590.48697800001
 30
0.0
 40
15.0
 50
270.0
 51
90.0
  0
ARC
  5
13755
  8
0
  6
BYBLOCK
 62
     0
 10
19252.284195817359
 20
13832.486978000001
 30
0.0
 40
15.0
 50
270.0
 51
90.0
  0
ARC
  5
13756
  8
0
  6
BYBLOCK
 62
     0
 10
19252.284195817359
 20
13832.486978000001
 30
0.0
 40
15.0
 50
90.0
 51
270.0
  0
ARC
  5
13757
  8
0
  6
BYBLOCK
 62
     0
 10
19252.284195817359
 20
15291.72748950003
 30
0.0
 40
15.0
 50
90.0
 51
270.0
  0
ARC
  5
13758
  8
0
  6
BYBLOCK
 62
     0
 10
19252.284195817359
 20
15291.72748950003
 30
0.0
 40
15.0
 50
270.0
 51
90.0
  0
ARC
  5
13759
  8
0
  6
BYBLOCK
 62
     0
 10
19252.284195817359
 20
14590.48697800001
 30
0.0
 40
15.0
 50
270.0
 51
90.0
  0
ARC
  5
1375A
  8
0
  6
BYBLOCK
 62
     0
 10
19252.284195817359
 20
14590.48697800001
 30
0.0
 40
15.0
 50
90.0
 51
270.0
  0
ARC
  5
1375B
  8
0
  6
BYBLOCK
 62
     0
 10
19252.284195817359
 20
15992.48697800001
 30
0.0
 40
15.0
 50
90.0
 51
270.0
  0
ARC
  5
1375C
  8
0
  6
BYBLOCK
 62
     0
 10
19252.284195817359
 20
15992.48697800001
 30
0.0
 40
15.0
 50
270.0
 51
90.0
  0
ARC
  5
1375D
  8
0
  6
BYBLOCK
 62
     0
 10
19252.284195817359
 20
15291.72748950003
 30
0.0
 40
15.0
 50
270.0
 51
90.0
  0
ARC
  5
1375E
  8
0
  6
BYBLOCK
 62
     0
 10
19252.284195817359
 20
15291.72748950003
 30
0.0
 40
15.0
 50
90.0
 51
270.0
  0
ARC
  5
1375F
  8
0
  6
BYBLOCK
 62
     0
 10
19252.284195817359
 20
16750.486978000012
 30
0.0
 40
15.0
 50
90.0
 51
270.0
  0
ARC
  5
13760
  8
0
  6
BYBLOCK
 62
     0
 10
19252.284195817359
 20
16750.486978000012
 30
0.0
 40
15.0
 50
270.0
 51
90.0
  0
ARC
  5
13761
  8
0
  6
BYBLOCK
 62
     0
 10
19252.284195817359
 20
15992.48697800001
 30
0.0
 40
15.0
 50
270.0
 51
90.0
  0
ARC
  5
13762
  8
0
  6
BYBLOCK
 62
     0
 10
19252.284195817359
 20
15992.48697800001
 30
0.0
 40
15.0
 50
90.0
 51
270.0
  0
ARC
  5
13763
  8
0
  6
BYBLOCK
 62
     0
 10
19252.284195817359
 20
17508.48697799999
 30
0.0
 40
15.0
 50
90.0
 51
270.0
  0
ARC
  5
13764
  8
0
  6
BYBLOCK
 62
     0
 10
19252.284195817359
 20
17508.48697799999
 30
0.0
 40
15.0
 50
270.0
 51
90.0
  0
ARC
  5
13765
  8
0
  6
BYBLOCK
 62
     0
 10
19252.284195817359
 20
16750.486978000012
 30
0.0
 40
15.0
 50
270.0
 51
90.0
  0
ARC
  5
13766
  8
0
  6
BYBLOCK
 62
     0
 10
19252.284195817359
 20
16750.486978000012
 30
0.0
 40
15.0
 50
90.0
 51
270.0
  0
ARC
  5
13767
  8
0
  6
BYBLOCK
 62
     0
 10
19252.284195817359
 20
18209.486978000001
 30
0.0
 40
15.0
 50
90.0
 51
270.0
  0
ARC
  5
13768
  8
0
  6
BYBLOCK
 62
     0
 10
19252.284195817359
 20
18209.486978000001
 30
0.0
 40
15.0
 50
270.0
 51
90.0
  0
ARC
  5
13769
  8
0
  6
BYBLOCK
 62
     0
 10
19252.284195817359
 20
17508.48697799999
 30
0.0
 40
15.0
 50
270.0
 51
90.0
  0
ARC
  5
1376A
  8
0
  6
BYBLOCK
 62
     0
 10
19252.284195817359
 20
17508.48697799999
 30
0.0
 40
15.0
 50
90.0
 51
270.0
  0
ARC
  5
1376B
  8
0
  6
BYBLOCK
 62
     0
 10
19252.284195817359
 20
18910.48697799999
 30
0.0
 40
15.0
 50
90.0
 51
270.0
  0
ARC
  5
1376C
  8
0
  6
BYBLOCK
 62
     0
 10
19252.284195817359
 20
18910.48697799999
 30
0.0
 40
15.0
 50
270.0
 51
90.0
  0
ARC
  5
1376D
  8
0
  6
BYBLOCK
 62
     0
 10
19252.284195817359
 20
18209.486978000001
 30
0.0
 40
15.0
 50
270.0
 51
90.0
  0
ARC
  5
1376E
  8
0
  6
BYBLOCK
 62
     0
 10
19252.284195817359
 20
18209.486978000001
 30
0.0
 40
15.0
 50
90.0
 51
270.0
  0
ARC
  5
1376F
  8
0
  6
BYBLOCK
 62
     0
 10
19252.284195817359
 20
19317.98697799999
 30
0.0
 40
15.0
 50
90.0
 51
270.0
  0
ARC
  5
13770
  8
0
  6
BYBLOCK
 62
     0
 10
19252.284195817359
 20
19317.98697799999
 30
0.0
 40
15.0
 50
270.0
 51
90.0
  0
ARC
  5
13771
  8
0
  6
BYBLOCK
 62
     0
 10
19252.284195817359
 20
13832.486978000001
 30
0.0
 40
15.0
 50
270.0
 51
90.0
  0
ARC
  5
13772
  8
0
  6
BYBLOCK
 62
     0
 10
19252.284195817359
 20
13832.486978000001
 30
0.0
 40
15.0
 50
90.0
 51
270.0
  0
ARC
  5
13773
  8
0
  6
BYBLOCK
 62
     0
 10
18852.284195817341
 20
19360.484273000009
 30
0.0
 40
15.0
 50
90.0
 51
270.0
  0
ARC
  5
13774
  8
0
  6
BYBLOCK
 62
     0
 10
18852.284195817341
 20
19360.484273000009
 30
0.0
 40
15.0
 50
270.0
 51
90.0
  0
ARC
  5
13775
  8
0
  6
BYBLOCK
 62
     0
 10
18852.284195817341
 20
13789.989683000011
 30
0.0
 40
15.0
 50
270.0
 51
90.0
  0
ARC
  5
13776
  8
0
  6
BYBLOCK
 62
     0
 10
18852.284195817341
 20
13789.989683000011
 30
0.0
 40
15.0
 50
90.0
 51
270.0
  0
ARC
  5
13777
  8
0
  6
BYBLOCK
 62
     0
 10
19252.284195817359
 20
19317.98697799999
 30
0.0
 40
15.0
 50
90.0
 51
270.0
  0
ARC
  5
13778
  8
0
  6
BYBLOCK
 62
     0
 10
19252.284195817359
 20
19317.98697799999
 30
0.0
 40
15.0
 50
270.0
 51
90.0
  0
ARC
  5
13779
  8
0
  6
BYBLOCK
 62
     0
 10
19252.284195817359
 20
19360.484273000009
 30
0.0
 40
15.0
 50
270.0
 51
90.0
  0
ARC
  5
1377A
  8
0
  6
BYBLOCK
 62
     0
 10
19252.284195817359
 20
19360.484273000009
 30
0.0
 40
15.0
 50
90.0
 51
270.0
  0
ARC
  5
1377B
  8
0
  6
BYBLOCK
 62
     0
 10
19252.284195817359
 20
13832.486978000001
 30
0.0
 40
15.0
 50
270.0
 51
90.0
  0
ARC
  5
1377C
  8
0
  6
BYBLOCK
 62
     0
 10
19252.284195817359
 20
13832.486978000001
 30
0.0
 40
15.0
 50
90.0
 51
270.0
  0
ARC
  5
1377D
  8
0
  6
BYBLOCK
 62
     0
 10
19252.284195817359
 20
13789.989683000011
 30
0.0
 40
15.0
 50
90.0
 51
270.0
  0
ARC
  5
1377E
  8
0
  6
BYBLOCK
 62
     0
 10
19252.284195817359
 20
13789.989683000011
 30
0.0
 40
15.0
 50
270.0
 51
90.0
  0
LINE
  5
13780
  8
2-0
  6
CENTER2
 62
     6
 10
23613.283799817349
 20
20960.489221
 30
0.0
 11
23613.283799817349
 21
13474.73309953157
 31
0.0
  0
LINE
  5
13783
  8
2-0
  6
CENTER2
 62
     6
 10
20344.783799817349
 20
20960.489221
 30
0.0
 11
20344.783799817349
 21
13474.73309953157
 31
0.0
  0
TEXT
  5
13849
  8
FILENAME
  6
CONTINUOUS
 10
26480.19047619047
 20
348.0
 30
0.0
 40
200.0
  1
＜VGC-3355+VKC-2855-R-1-A_0.DXF ＞
  7
FILENAME
 72
     2
 11
32764.0
 21
348.0
 31
0.0
  0
LINE
  5
1384E
  8
WAKUSEN-01
 10
868.00000000000193
 20
827.99999999999955
 30
0.0
 11
32764.000000000011
 21
827.99999999999943
 31
0.0
  0
LINE
  5
1384F
  8
WAKUSEN-01
 10
868.00000000000193
 20
827.99999999999955
 30
0.0
 11
868.00000000000193
 21
22484.000000000011
 31
0.0
  0
LINE
  5
13850
  8
WAKUSEN-01
 10
32764.000000000011
 20
827.99999999999943
 30
0.0
 11
32764.000000000011
 21
22484.000000000011
 31
0.0
  0
LINE
  5
13851
  8
WAKUSEN-01
 10
20560.0
 20
827.99999999999716
 30
0.0
 11
20560.0
 21
2484.0
 31
0.0
  0
LINE
  5
13852
  8
WAKUSEN-02
 10
26868.0
 20
827.99999999999261
 30
0.0
 11
26868.0
 21
2484.0
 31
0.0
  0
ENDSEC
  0
EOF
