  0
SECTION
  2
HEADER
  9
$ACADVER
  1
AC1009
  9
$INSBASE
 10
0.0
 20
0.0
 30
0.0
  9
$EXTMIN
 10
867.99324330406671
 20
327.38164749855792
 30
-0.0000000000000058
  9
$EXTMAX
 10
32765.33210850941
 20
22484.553276491992
 30
0.0000000000000104
  9
$LIMMIN
 10
0.0
 20
0.0
  9
$LIMMAX
 10
33600.0
 20
23760.0
  9
$ORTHOMODE
 70
     1
  9
$REGENMODE
 70
     1
  9
$FILLMODE
 70
     1
  9
$QTEXTMODE
 70
     0
  9
$MIRRTEXT
 70
     0
  9
$DRAGMODE
 70
     2
  9
$LTSCALE
 40
80.0
  9
$OSMODE
 70
  3071
  9
$ATTMODE
 70
     1
  9
$TEXTSIZE
 40
0.2
  9
$TRACEWID
 40
0.05
  9
$TEXTSTYLE
  7
00
  9
$CLAYER
  8
0
  9
$CELTYPE
  6
BYLAYER
  9
$CECOLOR
 62
   256
  9
$DIMSCALE
 40
1.0
  9
$DIMASZ
 40
0.18
  9
$DIMEXO
 40
0.0625
  9
$DIMDLI
 40
0.38
  9
$DIMRND
 40
0.0
  9
$DIMDLE
 40
0.0
  9
$DIMEXE
 40
0.18
  9
$DIMTP
 40
0.0
  9
$DIMTM
 40
0.0
  9
$DIMTXT
 40
0.18
  9
$DIMCEN
 40
0.09
  9
$DIMTSZ
 40
0.0
  9
$DIMTOL
 70
     0
  9
$DIMLIM
 70
     0
  9
$DIMTIH
 70
     1
  9
$DIMTOH
 70
     1
  9
$DIMSE1
 70
     0
  9
$DIMSE2
 70
     0
  9
$DIMTAD
 70
     0
  9
$DIMZIN
 70
     0
  9
$DIMBLK
  1

  9
$DIMASO
 70
     1
  9
$DIMSHO
 70
     1
  9
$DIMPOST
  1

  9
$DIMAPOST
  1

  9
$DIMALT
 70
     0
  9
$DIMALTD
 70
     2
  9
$DIMALTF
 40
25.399999999999999
  9
$DIMLFAC
 40
1.0
  9
$DIMTOFL
 70
     0
  9
$DIMTVP
 40
0.0
  9
$DIMTIX
 70
     0
  9
$DIMSOXD
 70
     0
  9
$DIMSAH
 70
     0
  9
$DIMBLK1
  1

  9
$DIMBLK2
  1

  9
$DIMSTYLE
  2
STANDARD
  9
$DIMCLRD
 70
     0
  9
$DIMCLRE
 70
     0
  9
$DIMCLRT
 70
     0
  9
$DIMTFAC
 40
1.0
  9
$DIMGAP
 40
0.09
  9
$LUNITS
 70
     2
  9
$LUPREC
 70
     4
  9
$SKETCHINC
 40
0.1
  9
$FILLETRAD
 40
0.0
  9
$AUNITS
 70
     0
  9
$AUPREC
 70
     0
  9
$MENU
  1
acad
  9
$ELEVATION
 40
0.0
  9
$PELEVATION
 40
0.0
  9
$THICKNESS
 40
0.0
  9
$LIMCHECK
 70
     0
  9
$BLIPMODE
 70
     1
  9
$CHAMFERA
 40
0.0
  9
$CHAMFERB
 40
0.0
  9
$SKPOLY
 70
     0
  9
$TDCREATE
 40
2311940.075052408
  9
$TDUPDATE
 40
2458942.456812778
  9
$TDINDWG
 40
0.3466988657
  9
$TDUSRTIMER
 40
0.3466982176
  9
$USRTIMER
 70
     1
  9
$ANGBASE
 50
0.0
  9
$ANGDIR
 70
     0
  9
$PDMODE
 70
     0
  9
$PDSIZE
 40
0.0
  9
$PLINEWID
 40
0.0
  9
$COORDS
 70
     1
  9
$SPLFRAME
 70
     0
  9
$SPLINETYPE
 70
     6
  9
$SPLINESEGS
 70
     8
  9
$ATTDIA
 70
     1
  9
$ATTREQ
 70
     1
  9
$HANDLING
 70
     1
  9
$HANDSEED
  5
18B63
  9
$SURFTAB1
 70
     6
  9
$SURFTAB2
 70
     6
  9
$SURFTYPE
 70
     6
  9
$SURFU
 70
     6
  9
$SURFV
 70
     6
  9
$UCSNAME
  2

  9
$UCSORG
 10
0.0
 20
0.0
 30
0.0
  9
$UCSXDIR
 10
1.0
 20
0.0
 30
0.0
  9
$UCSYDIR
 10
0.0
 20
1.0
 30
0.0
  9
$PUCSNAME
  2

  9
$PUCSORG
 10
0.0
 20
0.0
 30
0.0
  9
$PUCSXDIR
 10
1.0
 20
0.0
 30
0.0
  9
$PUCSYDIR
 10
0.0
 20
1.0
 30
0.0
  9
$USERI1
 70
     0
  9
$USERI2
 70
     0
  9
$USERI3
 70
     0
  9
$USERI4
 70
     0
  9
$USERI5
 70
     0
  9
$USERR1
 40
0.0
  9
$USERR2
 40
0.0
  9
$USERR3
 40
0.0
  9
$USERR4
 40
0.0
  9
$USERR5
 40
0.0
  9
$WORLDVIEW
 70
     1
  9
$SHADEDGE
 70
     3
  9
$SHADEDIF
 70
    70
  9
$TILEMODE
 70
     1
  9
$MAXACTVP
 70
    16
  9
$PLIMCHECK
 70
     0
  9
$PEXTMIN
 10
1.0000000000000000E+020
 20
1.0000000000000000E+020
 30
1.0000000000000000E+020
  9
$PEXTMAX
 10
-1.0000000000000000E+020
 20
-1.0000000000000000E+020
 30
-1.0000000000000000E+020
  9
$PLIMMIN
 10
0.0
 20
0.0
  9
$PLIMMAX
 10
12.0
 20
9.0
  9
$UNITMODE
 70
     0
  9
$VISRETAIN
 70
     0
  9
$PLINEGEN
 70
     1
  9
$PSLTSCALE
 70
     0
  0
ENDSEC
  0
SECTION
  2
TABLES
  0
TABLE
  2
VPORT
 70
     1
  0
VPORT
  2
*ACTIVE
 70
     0
 10
0.0
 20
0.0
 11
1.0
 21
1.0
 12
16800.0
 22
11880.0
 13
0.0
 23
0.0
 14
1.0
 24
1.0
 15
0.0
 25
0.0
 16
0.0
 26
0.0
 36
1.0
 17
0.0
 27
0.0
 37
0.0
 40
23981.023255813951
 41
2.195652173913043
 42
50.0
 43
0.0
 44
0.0
 50
0.0
 51
0.0
 71
     0
 72
 10000
 73
     1
 74
     1
 75
     0
 76
     0
 77
     0
 78
     0
  0
ENDTAB
  0
TABLE
  2
LTYPE
 70
     6
  0
LTYPE
  2
CONTINUOUS
 70
     0
  3
Solid line
 72
    65
 73
     0
 40
0.0
  0
LTYPE
  2
DASHED3
 70
     0
  3
------  ------  ------  ------  
 72
    65
 73
     2
 40
5.0
 49
3.75
 49
-1.25
  0
LTYPE
  2
CENTER2
 70
     0
  3
----------  --  ----------  --  
 72
    65
 73
     4
 40
20.0
 49
12.5
 49
-2.5
 49
2.5
 49
-2.5
  0
LTYPE
  2
HIDE-M
 70
     0
  3

 72
    65
 73
     2
 40
2.0
 49
1.0
 49
-1.0
  0
LTYPE
  2
1PL-M
 70
     0
  3

 72
    65
 73
     4
 40
15.0
 49
12.0
 49
-1.0
 49
1.0
 49
-1.0
  0
LTYPE
  2
PHANTOM2
 70
     0
  3
___ _ _ ___ _ _ ___ _ _ ___ _ _
 72
    65
 73
     6
 40
1.25
 49
0.625
 49
-0.125
 49
0.125
 49
-0.125
 49
0.125
 49
-0.125
  0
ENDTAB
  0
TABLE
  2
LAYER
 70
    24
  0
LAYER
  2
0
 70
     0
 62
     7
  6
CONTINUOUS
  0
LAYER
  2
SUNPOU
 70
     0
 62
     4
  6
CONTINUOUS
  0
LAYER
  2
0-1
 70
     0
 62
     7
  6
CONTINUOUS
  0
LAYER
  2
0-2
 70
     0
 62
     7
  6
CONTINUOUS
  0
LAYER
  2
0-5
 70
     0
 62
     7
  6
CONTINUOUS
  0
LAYER
  2
0-6
 70
     0
 62
     7
  6
CONTINUOUS
  0
LAYER
  2
2-0
 70
     0
 62
     7
  6
CONTINUOUS
  0
LAYER
  2
0-8
 70
     0
 62
     7
  6
CONTINUOUS
  0
LAYER
  2
YODOROGO
 70
     0
 62
   130
  6
CONTINUOUS
  0
LAYER
  2
WAKUSEN-01
 70
     0
 62
    50
  6
CONTINUOUS
  0
LAYER
  2
WAKUSEN-02
 70
     0
 62
   130
  6
CONTINUOUS
  0
LAYER
  2
WAKUMOJI-01
 70
     0
 62
   130
  6
CONTINUOUS
  0
LAYER
  2
FILENAME
 70
     0
 62
     7
  6
CONTINUOUS
  0
LAYER
  2
NAME
 70
     0
 62
    20
  6
CONTINUOUS
  0
LAYER
  2
0-4
 70
     0
 62
     7
  6
CONTINUOUS
  0
LAYER
  2
1-前柱P
 70
     0
 62
     3
  6
CONTINUOUS
  0
LAYER
  2
1-前柱カバ-P
 70
     0
 62
     3
  6
CONTINUOUS
  0
LAYER
  2
1-桁前P28
 70
     0
 62
     3
  6
CONTINUOUS
  0
LAYER
  2
1-後柱P
 70
     0
 62
     3
  6
CONTINUOUS
  0
LAYER
  2
1-中柱P
 70
     0
 62
     3
  6
CONTINUOUS
  0
LAYER
  2
1-後柱カバ-P
 70
     0
 62
     7
  6
CONTINUOUS
  0
LAYER
  2
1-中柱カバ-P
 70
     0
 62
     7
  6
CONTINUOUS
  0
ENDTAB
  0
TABLE
  2
STYLE
 70
     5
  0
STYLE
  2
STANDARD
 70
     0
 40
0.0
 41
1.0
 50
0.0
 71
     0
 42
0.0
  3
txt
  4
BIGFONT
  0
STYLE
  2
00
 70
     0
 40
0.0
 41
0.6666666666666666
 50
0.0
 71
     0
 42
0.2
  3
ROMANS
  4
BIGFONT
  0
STYLE
  2
01
 70
     0
 40
3.0
 41
1.0
 50
0.0
 71
     0
 42
0.2
  3
ROMANS
  4
BIGFONT
  0
STYLE
  2
WAKUMOJI
 70
     0
 40
3.0
 41
1.0
 50
0.0
 71
     0
 42
3.0
  3
SIMPLEX
  4
BIGFONT
  0
STYLE
  2
FILENAME
 70
     0
 40
200.0
 41
1.0
 50
0.0
 71
     0
 42
200.0
  3
romans
  4
bigfont
  0
ENDTAB
  0
TABLE
  2
VIEW
 70
     0
  0
ENDTAB
  0
TABLE
  2
UCS
 70
     0
  0
ENDTAB
  0
TABLE
  2
APPID
 70
    17
  0
APPID
  2
ACAD
 70
     0
  0
APPID
  2
ACADANNOTATIVE
 70
     0
  0
APPID
  2
ACAD_PSEXT
 70
     0
  0
APPID
  2
DCO15
 70
     0
  0
APPID
  2
ACAD_MLEADERVER
 70
     0
  0
APPID
  2
AUTOCAD_POSTSCRIPT_FIGURE
 70
     0
  0
APPID
  2
ACAD_EXEMPT_FROM_CAD_STANDARDS
 70
     0
  0
APPID
  2
ACLAYERTOOLS
 70
     0
  0
APPID
  2
ACAD_DSTYLE_DIMJAG
 70
     0
  0
APPID
  2
ACAD_DSTYLE_DIMTALN
 70
     0
  0
APPID
  2
ACAECLAYERSTANDARD
 70
     0
  0
APPID
  2
ACAD_DSTYLE_DIMBREAK
 70
     0
  0
APPID
  2
ACAD_DSTYLE_DIM_LINETYPE
 70
     0
  0
APPID
  2
ACAD_DSTYLE_DIM_EXT1_LINETYPE
 70
     0
  0
APPID
  2
ACAD_DSTYLE_DIM_EXT2_LINETYPE
 70
     0
  0
APPID
  2
ACAD_DSTYLE_DIMFLIPARROW_W
 70
     0
  0
APPID
  2
ACAD_NAV_VCDISPLAY
 70
     0
  0
ENDTAB
  0
TABLE
  2
DIMSTYLE
 70
     2
  0
DIMSTYLE
  2
STANDARD
 70
     0
  3

  4

  5

  6

  7

 40
1.0
 41
0.18
 42
0.0625
 43
0.38
 44
0.18
 45
0.0
 46
0.0
 47
0.0
 48
0.0
140
0.18
141
0.09
142
0.0
143
25.399999999999999
144
1.0
145
0.0
146
1.0
147
0.09
 71
     0
 72
     0
 73
     1
 74
     1
 75
     0
 76
     0
 77
     0
 78
     0
170
     0
171
     2
172
     0
173
     0
174
     0
175
     0
176
     0
177
     0
178
     0
  0
ENDTAB
  0
ENDSEC
  0
SECTION
  2
BLOCKS
  0
BLOCK
  8
0
  2
$MODEL_SPACE
 70
     0
 10
0.0
 20
0.0
 30
0.0
  3
$MODEL_SPACE
  1

  0
ENDBLK
  5
17AC8
  8
0
  0
BLOCK
 67
     1
  8
0
  2
$PAPER_SPACE
 70
     0
 10
0.0
 20
0.0
 30
0.0
  3
$PAPER_SPACE
  1

  0
ENDBLK
  5
17AC4
 67
     1
  8
0
  0
ENDSEC
  0
SECTION
  2
ENTITIES
  0
TEXT
  5
17B02
  8
2-0
  6
CONTINUOUS
 62
     7
 10
21114.56508649766
 20
3338.771758421959
 30
0.0
 40
160.0
  1
正 面 立 面 図
 72
     4
 11
21759.898419830992
 21
3418.771758421959
 31
0.0
  0
TEXT
  5
17B03
  8
2-0
  6
CONTINUOUS
 62
     7
 10
9149.8649603458252
 20
3310.0360764219599
 30
0.0
 40
160.0
  1
側 面 立 面 図
 50
0.000139
 72
     4
 11
9795.1980995966478
 21
3390.0376420053349
 31
0.0
  0
TEXT
  5
17B04
  8
2-0
  6
CONTINUOUS
 62
     7
 10
11146.69028473427
 20
3337.2330110053349
 30
0.0
 40
160.0
  1
1
 72
     4
 11
11173.35695140094
 21
3417.2330110053349
 31
0.0
  0
TEXT
  5
17B05
  8
2-0
  6
CONTINUOUS
 62
     7
 10
11389.779001984951
 20
3257.2344790053371
 30
0.0
 40
160.0
  1
80
 72
     4
 11
11509.779001984951
 21
3337.2344790053362
 31
0.0
  0
TEXT
  5
17B06
  8
2-0
  6
CONTINUOUS
 62
     7
 10
10647.69225073427
 20
3310.0376420053349
 30
0.0
 40
160.0
  1
(S=  /   )
 72
     4
 11
11207.69225073427
 21
3390.0376420053349
 31
0.0
  0
TEXT
  5
17B07
  8
2-0
  6
CONTINUOUS
 62
     7
 10
23111.390604968619
 20
3365.96712742196
 30
0.0
 40
160.0
  1
1
 72
     4
 11
23138.05727163528
 21
3445.96712742196
 31
0.0
  0
TEXT
  5
17B08
  8
2-0
  6
CONTINUOUS
 62
     7
 10
23354.479322219311
 20
3285.9685954219608
 30
0.0
 40
160.0
  1
80
 72
     4
 11
23474.479322219311
 21
3365.9685954219608
 31
0.0
  0
TEXT
  5
17B09
  8
2-0
  6
CONTINUOUS
 62
     7
 10
22612.392570968608
 20
3338.771758421959
 30
0.0
 40
160.0
  1
(S=  /   )
 72
     4
 11
23172.392570968608
 21
3418.771758421959
 31
0.0
  0
TEXT
  5
17B0A
  8
2-0
  6
CONTINUOUS
 62
     7
 10
21203.14720139344
 20
11297.07361142196
 30
0.0
 40
160.0
  1
平　面　図
 72
     4
 11
21656.480534726768
 21
11371.74027808863
 31
0.0
  0
TEXT
  5
17B0B
  8
2-0
  6
CONTINUOUS
 62
     7
 10
9493.7299220423538
 20
11202.78617242194
 30
0.0
 40
160.0
  1
小 屋 伏 図
 72
     4
 11
9995.0632553756877
 21
11282.78617242194
 31
0.0
  0
TEXT
  5
17B0C
  8
2-0
  6
CONTINUOUS
 62
     7
 10
23007.9727198644
 20
11318.935647088631
 30
0.0
 40
160.0
  1
1
 72
     4
 11
23034.639386531071
 21
11398.935647088631
 31
0.0
  0
TEXT
  5
17B0D
  8
2-0
  6
CONTINUOUS
 62
     7
 10
23251.061437115099
 20
11238.937115088631
 30
0.0
 40
160.0
  1
80
 72
     4
 11
23371.061437115099
 21
11318.937115088631
 31
0.0
  0
TEXT
  5
17B0E
  8
2-0
  6
CONTINUOUS
 62
     7
 10
22508.974685864399
 20
11291.74027808863
 30
0.0
 40
160.0
  1
(S=  /   )
 72
     4
 11
23068.974685864399
 21
11371.74027808863
 31
0.0
  0
TEXT
  5
17B0F
  8
2-0
  6
CONTINUOUS
 62
     7
 10
11346.55544051331
 20
11229.98154142195
 30
0.0
 40
160.0
  1
1
 72
     4
 11
11373.22210717998
 21
11309.98154142195
 31
0.0
  0
TEXT
  5
17B10
  8
2-0
  6
CONTINUOUS
 62
     7
 10
11589.644157764011
 20
11149.983009421951
 30
0.0
 40
160.0
  1
80
 72
     4
 11
11709.644157764011
 21
11229.983009421951
 31
0.0
  0
TEXT
  5
17B11
  8
2-0
  6
CONTINUOUS
 62
     7
 10
10847.55740651331
 20
11202.78617242194
 30
0.0
 40
160.0
  1
(S=  /   )
 72
     4
 11
11407.55740651331
 21
11282.78617242194
 31
0.0
  0
LINE
  5
17B12
  8
0-1
  6
CONTINUOUS
 62
     3
 10
12097.389251409581
 20
8198.2035874219546
 30
0.0
 11
12097.389251409581
 21
6337.157708421958
 31
0.0
  0
LINE
  5
17B13
  8
0-1
  6
CONTINUOUS
 62
     3
 10
12134.387443409591
 20
8198.2035874219546
 30
0.0
 11
12134.387443409591
 21
6337.157708421958
 31
0.0
  0
LINE
  5
17B14
  8
0-1
  6
CONTINUOUS
 62
     3
 10
11397.3899114096
 20
8198.2035874219546
 30
0.0
 11
11397.3899114096
 21
6337.157708421958
 31
0.0
  0
LINE
  5
17B15
  8
0-1
  6
CONTINUOUS
 62
     3
 10
11434.388103409599
 20
8198.2035874219546
 30
0.0
 11
11434.388103409599
 21
6337.157708421958
 31
0.0
  0
LINE
  5
17B16
  8
0-1
  6
CONTINUOUS
 62
     3
 10
11775.8897004096
 20
6337.157708421958
 30
0.0
 11
11775.8897004096
 21
8198.2035874219546
 31
0.0
  0
LINE
  5
17B17
  8
0-1
  6
CONTINUOUS
 62
     3
 10
11755.888644409581
 20
6337.157708421958
 30
0.0
 11
11755.888644409581
 21
8198.2035874219546
 31
0.0
  0
LINE
  5
17B18
  8
0-1
  6
CONTINUOUS
 62
     3
 10
11825.88838040958
 20
6337.157708421958
 30
0.0
 11
11825.88838040958
 21
8198.2035874219546
 31
0.0
  0
LINE
  5
17B19
  8
0-1
  6
CONTINUOUS
 62
     3
 10
11705.88897440959
 20
6337.157708421958
 30
0.0
 11
11705.88897440959
 21
8198.2035874219546
 31
0.0
  0
LINE
  5
17B1A
  8
0-1
  6
CONTINUOUS
 62
     3
 10
11572.88908040959
 20
6337.157708421958
 30
0.0
 11
11572.88908040959
 21
8198.2035874219546
 31
0.0
  0
LINE
  5
17B1B
  8
0-1
  6
CONTINUOUS
 62
     3
 10
11557.889278409581
 20
6337.157708421958
 30
0.0
 11
11557.889278409581
 21
8198.2035874219546
 31
0.0
  0
LINE
  5
17B1C
  8
0-1
  6
CONTINUOUS
 62
     3
 10
11958.8892654096
 20
6337.157708421958
 30
0.0
 11
11958.8892654096
 21
8198.2035874219546
 31
0.0
  0
LINE
  5
17B1D
  8
0-1
  6
CONTINUOUS
 62
     3
 10
11973.888077409591
 20
6337.157708421958
 30
0.0
 11
11973.888077409591
 21
8198.2035874219546
 31
0.0
  0
LINE
  5
17B1E
  8
0-1
  6
CONTINUOUS
 62
     3
 10
12257.88861840959
 20
6337.157708421958
 30
0.0
 11
12257.88861840959
 21
8198.2035874219546
 31
0.0
  0
LINE
  5
17B1F
  8
0-1
  6
CONTINUOUS
 62
     3
 10
12272.889410409591
 20
6337.157708421958
 30
0.0
 11
12272.889410409591
 21
8198.2035874219546
 31
0.0
  0
LINE
  5
17B20
  8
0-1
  6
CONTINUOUS
 62
     3
 10
12405.8883144096
 20
6337.157708421958
 30
0.0
 11
12405.8883144096
 21
8198.2035874219546
 31
0.0
  0
LINE
  5
17B21
  8
0-1
  6
CONTINUOUS
 62
     3
 10
12525.889700409591
 20
6337.157708421958
 30
0.0
 11
12525.889700409591
 21
8198.2035874219546
 31
0.0
  0
LINE
  5
17B22
  8
0-1
  6
CONTINUOUS
 62
     3
 10
12455.886995409581
 20
6337.157708421958
 30
0.0
 11
12455.886995409581
 21
8198.2035874219546
 31
0.0
  0
LINE
  5
17B23
  8
0-1
  6
CONTINUOUS
 62
     3
 10
12475.88805040958
 20
6337.157708421958
 30
0.0
 11
12475.88805040958
 21
8198.2035874219546
 31
0.0
  0
LINE
  5
17B24
  8
0-1
  6
CONTINUOUS
 62
     3
 10
11273.889726409599
 20
6337.157708421958
 30
0.0
 11
11273.889726409599
 21
8198.2035874219546
 31
0.0
  0
LINE
  5
17B25
  8
0-1
  6
CONTINUOUS
 62
     3
 10
11258.88893540959
 20
6337.157708421958
 30
0.0
 11
11258.88893540959
 21
8198.2035874219546
 31
0.0
  0
LINE
  5
17B26
  8
0-1
  6
CONTINUOUS
 62
     3
 10
11125.88805040958
 20
6337.157708421958
 30
0.0
 11
11125.88805040958
 21
8198.2035874219546
 31
0.0
  0
LINE
  5
17B27
  8
0-1
  6
CONTINUOUS
 62
     3
 10
10857.888948409571
 20
6337.157708421958
 30
0.0
 11
10857.888948409571
 21
8198.2035874219546
 31
0.0
  0
LINE
  5
17B28
  8
0-1
  6
CONTINUOUS
 62
     3
 10
10872.887760409591
 20
6337.157708421958
 30
0.0
 11
10872.887760409591
 21
8198.2035874219546
 31
0.0
  0
LINE
  5
17B29
  8
0-1
  6
CONTINUOUS
 62
     3
 10
11005.88864440959
 20
6337.157708421958
 30
0.0
 11
11005.88864440959
 21
8198.2035874219546
 31
0.0
  0
LINE
  5
17B2A
  8
0-1
  6
CONTINUOUS
 62
     3
 10
11055.8883144096
 20
6337.157708421958
 30
0.0
 11
11055.8883144096
 21
8198.2035874219546
 31
0.0
  0
LINE
  5
17B2B
  8
0-1
  6
CONTINUOUS
 62
     3
 10
11075.88739140958
 20
6337.157708421958
 30
0.0
 11
11075.88739140958
 21
8198.2035874219546
 31
0.0
  0
LINE
  5
17B2C
  8
0-1
  6
CONTINUOUS
 62
     3
 10
10247.888420409579
 20
6337.157708421958
 30
0.0
 11
10247.888420409579
 21
8198.2035874219546
 31
0.0
  0
LINE
  5
17B2D
  8
0-1
  6
CONTINUOUS
 62
     3
 10
10267.88749640959
 20
6337.157708421958
 30
0.0
 11
10267.88749640959
 21
8198.2035874219546
 31
0.0
  0
LINE
  5
17B2E
  8
0-1
  6
CONTINUOUS
 62
     3
 10
10197.8877604096
 20
6337.157708421958
 30
0.0
 11
10197.8877604096
 21
8198.2035874219546
 31
0.0
  0
LINE
  5
17B2F
  8
0-1
  6
CONTINUOUS
 62
     3
 10
10317.88815640959
 20
6337.157708421958
 30
0.0
 11
10317.88815640959
 21
8198.2035874219546
 31
0.0
  0
LINE
  5
17B30
  8
0-1
  6
CONTINUOUS
 62
     3
 10
10450.888050409591
 20
6337.157708421958
 30
0.0
 11
10450.888050409591
 21
8198.2035874219546
 31
0.0
  0
LINE
  5
17B31
  8
0-1
  6
CONTINUOUS
 62
     3
 10
10465.889832409601
 20
6337.157708421958
 30
0.0
 11
10465.889832409601
 21
8198.2035874219546
 31
0.0
  0
LINE
  5
17B32
  8
0-1
  6
CONTINUOUS
 62
     3
 10
10064.88786640959
 20
6337.157708421958
 30
0.0
 11
10064.88786640959
 21
8198.2035874219546
 31
0.0
  0
LINE
  5
17B33
  8
0-1
  6
CONTINUOUS
 62
     3
 10
10049.889053409581
 20
6337.157708421958
 30
0.0
 11
10049.889053409581
 21
8198.2035874219546
 31
0.0
  0
LINE
  5
17B34
  8
0-1
  6
CONTINUOUS
 62
     3
 10
7949.8890534095908
 20
6337.157708421958
 30
0.0
 11
7949.8890534095908
 21
8198.2035874219546
 31
0.0
  0
LINE
  5
17B35
  8
0-1
  6
CONTINUOUS
 62
     3
 10
7964.8878664095919
 20
6337.157708421958
 30
0.0
 11
7964.8878664095919
 21
8198.2035874219546
 31
0.0
  0
LINE
  5
17B36
  8
0-1
  6
CONTINUOUS
 62
     3
 10
8365.8888424096058
 20
6337.157708421958
 30
0.0
 11
8365.8888424096058
 21
8198.2035874219546
 31
0.0
  0
LINE
  5
17B37
  8
0-1
  6
CONTINUOUS
 62
     3
 10
8350.8890404095891
 20
6337.157708421958
 30
0.0
 11
8350.8890404095891
 21
8198.2035874219546
 31
0.0
  0
LINE
  5
17B38
  8
0-1
  6
CONTINUOUS
 62
     3
 10
8217.8881564095936
 20
6337.157708421958
 30
0.0
 11
8217.8881564095936
 21
8198.2035874219546
 31
0.0
  0
LINE
  5
17B39
  8
0-1
  6
CONTINUOUS
 62
     3
 10
8097.888750409591
 20
6337.157708421958
 30
0.0
 11
8097.888750409591
 21
8198.2035874219546
 31
0.0
  0
LINE
  5
17B3A
  8
0-1
  6
CONTINUOUS
 62
     3
 10
8167.8874964095894
 20
6337.157708421958
 30
0.0
 11
8167.8874964095894
 21
8198.2035874219546
 31
0.0
  0
LINE
  5
17B3B
  8
0-1
  6
CONTINUOUS
 62
     3
 10
8147.888420409593
 20
6337.157708421958
 30
0.0
 11
8147.888420409593
 21
8198.2035874219546
 31
0.0
  0
LINE
  5
17B3C
  8
0-1
  6
CONTINUOUS
 62
     3
 10
8847.8877604095906
 20
6337.157708421958
 30
0.0
 11
8847.8877604095906
 21
8198.2035874219546
 31
0.0
  0
LINE
  5
17B3D
  8
0-1
  6
CONTINUOUS
 62
     3
 10
8867.8888164095843
 20
6337.157708421958
 30
0.0
 11
8867.8888164095843
 21
8198.2035874219546
 31
0.0
  0
LINE
  5
17B3E
  8
0-1
  6
CONTINUOUS
 62
     3
 10
8797.8890804095863
 20
6337.157708421958
 30
0.0
 11
8797.8890804095863
 21
8198.2035874219546
 31
0.0
  0
LINE
  5
17B3F
  8
0-1
  6
CONTINUOUS
 62
     3
 10
8917.8874964095867
 20
6337.157708421958
 30
0.0
 11
8917.8874964095867
 21
8198.2035874219546
 31
0.0
  0
LINE
  5
17B40
  8
0-1
  6
CONTINUOUS
 62
     3
 10
9050.8883804095858
 20
6337.157708421958
 30
0.0
 11
9050.8883804095858
 21
8198.2035874219546
 31
0.0
  0
LINE
  5
17B41
  8
0-1
  6
CONTINUOUS
 62
     3
 10
9065.8881824096043
 20
6337.157708421958
 30
0.0
 11
9065.8881824096043
 21
8198.2035874219546
 31
0.0
  0
LINE
  5
17B42
  8
0-1
  6
CONTINUOUS
 62
     3
 10
8664.8901754095878
 20
6337.157708421958
 30
0.0
 11
8664.8901754095878
 21
8198.2035874219546
 31
0.0
  0
LINE
  5
17B43
  8
0-1
  6
CONTINUOUS
 62
     3
 10
8649.8883944095869
 20
6337.157708421958
 30
0.0
 11
8649.8883944095869
 21
8198.2035874219546
 31
0.0
  0
LINE
  5
17B44
  8
0-1
  6
CONTINUOUS
 62
     3
 10
9349.8877344095963
 20
6337.157708421958
 30
0.0
 11
9349.8877344095963
 21
8198.2035874219546
 31
0.0
  0
LINE
  5
17B45
  8
0-1
  6
CONTINUOUS
 62
     3
 10
9364.8895154095953
 20
6337.157708421958
 30
0.0
 11
9364.8895154095953
 21
8198.2035874219546
 31
0.0
  0
LINE
  5
17B46
  8
0-1
  6
CONTINUOUS
 62
     3
 10
9765.8875234095904
 20
6337.157708421958
 30
0.0
 11
9765.8875234095904
 21
8198.2035874219546
 31
0.0
  0
LINE
  5
17B47
  8
0-1
  6
CONTINUOUS
 62
     3
 10
9750.888710409592
 20
6337.157708421958
 30
0.0
 11
9750.888710409592
 21
8198.2035874219546
 31
0.0
  0
LINE
  5
17B48
  8
0-1
  6
CONTINUOUS
 62
     3
 10
9617.8898064095865
 20
6337.157708421958
 30
0.0
 11
9617.8898064095865
 21
8198.2035874219546
 31
0.0
  0
LINE
  5
17B49
  8
0-1
  6
CONTINUOUS
 62
     3
 10
9497.8884204095957
 20
6337.157708421958
 30
0.0
 11
9497.8884204095957
 21
8198.2035874219546
 31
0.0
  0
LINE
  5
17B4A
  8
0-1
  6
CONTINUOUS
 62
     3
 10
9567.8881564096082
 20
6337.157708421958
 30
0.0
 11
9567.8881564096082
 21
8198.2035874219546
 31
0.0
  0
LINE
  5
17B4B
  8
0-1
  6
CONTINUOUS
 62
     3
 10
9547.8890804095863
 20
6337.157708421958
 30
0.0
 11
9547.8890804095863
 21
8198.2035874219546
 31
0.0
  0
LINE
  5
17B4C
  8
0-1
  6
CONTINUOUS
 62
     3
 10
9889.3877074095926
 20
8198.2035874219546
 30
0.0
 11
9889.3877074095926
 21
6337.157708421958
 31
0.0
  0
LINE
  5
17B4D
  8
0-1
  6
CONTINUOUS
 62
     3
 10
9926.3888694095967
 20
8198.2035874219546
 30
0.0
 11
9926.3888694095967
 21
6337.157708421958
 31
0.0
  0
LINE
  5
17B4E
  8
0-1
  6
CONTINUOUS
 62
     3
 10
8489.3900174095907
 20
8198.2035874219546
 30
0.0
 11
8489.3900174095907
 21
6337.157708421958
 31
0.0
  0
LINE
  5
17B4F
  8
0-1
  6
CONTINUOUS
 62
     3
 10
8526.389199409603
 20
8198.2035874219546
 30
0.0
 11
8526.389199409603
 21
6337.157708421958
 31
0.0
  0
LINE
  5
17B50
  8
0-1
  6
CONTINUOUS
 62
     3
 10
9189.3883674095996
 20
8198.2035874219546
 30
0.0
 11
9189.3883674095996
 21
6337.157708421958
 31
0.0
  0
LINE
  5
17B51
  8
0-1
  6
CONTINUOUS
 62
     3
 10
9226.3885394095832
 20
8198.2035874219546
 30
0.0
 11
9226.3885394095832
 21
6337.157708421958
 31
0.0
  0
LINE
  5
17B52
  8
0-1
  6
CONTINUOUS
 62
     3
 10
7688.8888954096028
 20
6287.1575434219621
 30
0.0
 11
7688.8888954096028
 21
6187.1577084219589
 31
0.0
  0
LINE
  5
17B53
  8
0-1
  6
CONTINUOUS
 62
     3
 10
7721.3896864096032
 20
8501.4866184219627
 30
0.0
 11
7721.3896864096032
 21
6287.1575434219621
 31
0.0
  0
LINE
  5
17B54
  8
0-1
  6
CONTINUOUS
 62
     3
 10
7701.3888954095974
 20
8502.0676074219573
 30
0.0
 11
7701.3888954095974
 21
6287.1575434219621
 31
0.0
  0
LINE
  5
17B55
  8
0-1
  6
CONTINUOUS
 62
     3
 10
7816.38876340961
 20
8198.2035874219546
 30
0.0
 11
7816.38876340961
 21
6287.1575434219621
 31
0.0
  0
LINE
  5
17B56
  8
0-1
  6
CONTINUOUS
 62
     3
 10
10661.8888954096
 20
8402.9590504219595
 30
0.0
 11
10661.8888954096
 21
8198.2035874219546
 31
0.0
  0
LINE
  5
17B57
  8
0-1
  6
CONTINUOUS
 62
     3
 10
10734.38876340959
 20
8198.2035874219546
 30
0.0
 11
10734.38876340959
 21
6287.1575434219621
 31
0.0
  0
LINE
  5
17B58
  8
0-1
  6
CONTINUOUS
 62
     3
 10
10589.3900174096
 20
8198.2035874219546
 30
0.0
 11
10589.3900174096
 21
6287.1575434219621
 31
0.0
  0
LINE
  5
17B59
  8
0-1
  6
CONTINUOUS
 62
     3
 10
10589.3900174096
 20
6337.157708421958
 30
0.0
 11
7816.38876340961
 21
6337.157708421958
 31
0.0
  0
LINE
  5
17B5A
  8
0-1
  6
CONTINUOUS
 62
     3
 10
13279.3888954096
 20
6187.1577084219589
 30
0.0
 11
13279.3888954096
 21
6287.1575434219621
 31
0.0
  0
LINE
  5
17B5B
  8
0-1
  6
CONTINUOUS
 62
     3
 10
13251.8890934096
 20
8314.9600464219584
 30
0.0
 11
13251.8890934096
 21
6287.1575434219621
 31
0.0
  0
LINE
  5
17B5C
  8
0-1
  6
CONTINUOUS
 62
     3
 10
13271.8888954096
 20
8314.3433191057684
 30
0.0
 11
13271.8888954096
 21
6287.1575434219621
 31
0.0
  0
LINE
  5
17B5D
  8
0-1
  6
CONTINUOUS
 62
     3
 10
13156.89001640959
 20
8198.2035874219546
 30
0.0
 11
13156.89001640959
 21
6287.1575434219621
 31
0.0
  0
LINE
  5
17B5E
  8
0-1
  6
CONTINUOUS
 62
     3
 10
13279.3888954096
 20
6287.1575434219621
 30
0.0
 11
7688.8888954096028
 21
6287.1575434219621
 31
0.0
  0
LINE
  5
17B5F
  8
0-1
  6
CONTINUOUS
 62
     3
 10
13156.89001640959
 20
6337.157708421958
 30
0.0
 11
10734.38876340959
 21
6337.157708421958
 31
0.0
  0
LINE
  5
17B60
  8
0-1
  6
CONTINUOUS
 62
     3
 10
13961.889950409601
 20
6187.1577084219589
 30
0.0
 11
7688.8888954096028
 21
6187.1577084219589
 31
0.0
  0
LINE
  5
17B61
  8
0-1
  6
CONTINUOUS
 62
     3
 10
13251.8890934096
 20
8198.2035874219546
 30
0.0
 11
7721.3896864096032
 21
8198.2035874219546
 31
0.0
  0
LINE
  5
17B62
  8
0-1
  6
CONTINUOUS
 62
     3
 10
13446.1907194096
 20
8349.1428684219627
 30
0.0
 11
7615.6992304095984
 21
8544.6589294219648
 31
0.0
  0
LINE
  5
17B63
  8
0-1
  6
CONTINUOUS
 62
     3
 10
7617.1997054096
 20
8594.6378144219634
 30
0.0
 11
13447.6902044096
 21
8399.1207644219558
 31
0.0
  0
LINE
  5
17B64
  8
0-1
  6
CONTINUOUS
 62
     3
 10
13450.780232409599
 20
8402.0296664219622
 30
0.0
 11
13451.740299409599
 21
8434.0152224219564
 31
0.0
  0
LINE
  5
17B65
  8
0-1
  6
CONTINUOUS
 62
     3
 10
13446.891468409591
 20
8439.162465421954
 30
0.0
 11
7597.4302534095968
 21
8635.2496174219577
 31
0.0
  0
LINE
  5
17B66
  8
0-1
  6
CONTINUOUS
 62
     3
 10
7593.525653409597
 20
8505.3080794219622
 30
0.0
 11
13442.990827409591
 21
8309.2214224219533
 31
0.0
  0
LINE
  5
17B67
  8
0-1
  6
CONTINUOUS
 62
     3
 10
13448.13856540959
 20
8314.0687684219574
 30
0.0
 11
13449.09764240959
 21
8346.0548194219555
 31
0.0
  0
LINE
  5
17B68
  8
0-1
  6
CONTINUOUS
 62
     3
 10
13449.429211409601
 20
8357.0495604219614
 30
0.0
 11
13450.449653409591
 21
8391.0339354219559
 31
0.0
  0
LINE
  5
17B69
  8
0-1
  6
CONTINUOUS
 62
     3
 10
13447.54075040958
 20
8394.1229744219581
 30
0.0
 11
7617.0482724096028
 21
8589.6405194219587
 31
0.0
  0
LINE
  5
17B6A
  8
0-1
  6
CONTINUOUS
 62
     3
 10
7615.8486844096051
 20
8549.6572134219587
 30
0.0
 11
13446.3391824096
 21
8354.1411534219587
 31
0.0
  0
LINE
  5
17B6B
  8
0-1
  6
CONTINUOUS
 62
     3
 10
10661.8888954096
 20
8402.9590504219595
 30
0.0
 11
10665.79151640959
 21
8532.9005884219569
 31
0.0
  0
LINE
  5
17B6C
  8
0-1
  6
CONTINUOUS
 62
     3
 10
7626.4925554095971
 20
8504.3173304219581
 30
0.0
 11
7630.3941864095968
 21
8634.2588684219572
 31
0.0
  0
LINE
  5
17B6D
  8
0-1
  6
CONTINUOUS
 62
     3
 10
13434.39872640959
 20
8439.5375844219616
 30
0.0
 11
13430.49610540958
 21
8309.5965414219572
 31
0.0
  0
LINE
  5
17B6E
  8
0-5
  6
CONTINUOUS
 62
     4
 10
15259.751228455891
 20
6287.1575434219612
 30
0.0
 11
15139.75083245588
 21
6495.0045204219559
 31
0.0
  0
LINE
  5
17B6F
  8
0-5
  6
CONTINUOUS
 62
     4
 10
15379.74964545588
 20
6495.0045204219559
 30
0.0
 11
15259.751228455891
 21
6287.1575434219612
 31
0.0
  0
LINE
  5
17B70
  8
0-5
  6
CONTINUOUS
 62
     4
 10
15139.75083245588
 20
6495.0045204219559
 30
0.0
 11
15379.74964545588
 21
6495.0045204219559
 31
0.0
  0
LINE
  5
17B71
  8
0-5
  6
CONTINUOUS
 62
     4
 10
15737.45526069104
 20
6287.1575434219612
 30
0.0
 11
14361.88929140959
 21
6287.1575434219612
 31
0.0
  0
LINE
  5
17B72
  8
0-5
  6
CONTINUOUS
 62
     4
 10
7743.8888954096037
 20
4507.1581044219538
 30
0.0
 11
7743.8888954096037
 21
4347.1585664219583
 31
0.0
  0
LINE
  5
17B73
  8
0-5
  6
CONTINUOUS
 62
     4
 10
10661.8888954096
 20
4507.1581044219538
 30
0.0
 11
10661.8888954096
 21
4347.1585664219583
 31
0.0
  0
LINE
  5
17B74
  8
0-5
  6
CONTINUOUS
 62
     4
 10
13229.3888954096
 20
4507.1581044219538
 30
0.0
 11
13229.3888954096
 21
4347.1585664219583
 31
0.0
  0
LINE
  5
17B75
  8
2-0
  6
CENTER2
 62
     6
 10
7743.8888954096037
 20
5924.5052854219593
 30
0.0
 11
7743.8888954096037
 21
6981.6478834219579
 31
0.0
  0
LINE
  5
17B76
  8
2-0
  6
CENTER2
 62
     6
 10
10661.8888954096
 20
5924.5052854219593
 30
0.0
 11
10661.8888954096
 21
6981.6478834219579
 31
0.0
  0
LINE
  5
17B77
  8
2-0
  6
CENTER2
 62
     6
 10
13229.3888954096
 20
5924.5052854219593
 30
0.0
 11
13229.3888954096
 21
6981.6478834219579
 31
0.0
  0
ARC
  5
17B78
  8
0-1
  6
CONTINUOUS
 62
     3
 10
7616.4494684096044
 20
8569.6493614219562
 30
0.0
 40
24.999998999999999
 50
88.280013999973605
 51
268.28001399997362
  0
ARC
  5
17B79
  8
0-1
  6
CONTINUOUS
 62
     3
 10
13447.780272409591
 20
8402.1197344219599
 30
0.0
 40
3.0
 50
268.28001399997362
 51
358.28001399997981
  0
ARC
  5
17B7A
  8
0-1
  6
CONTINUOUS
 62
     3
 10
13446.743004409591
 20
8434.1646764219604
 30
0.0
 40
5.0
 50
358.28001399997981
 51
88.280013999973605
  0
ARC
  5
17B7B
  8
0-1
  6
CONTINUOUS
 62
     3
 10
7621.446762409616
 20
8569.4989184219648
 30
0.0
 40
69.999999000000003
 50
110.0668030000901
 51
246.49322500022339
  0
ARC
  5
17B7C
  8
0-1
  6
CONTINUOUS
 62
     3
 10
13443.13929140959
 20
8314.2192124219564
 30
0.0
 40
5.0
 50
268.28001399997362
 51
358.28001399997981
  0
ARC
  5
17B7D
  8
0-1
  6
CONTINUOUS
 62
     3
 10
13446.1006504096
 20
8346.144392421962
 30
0.0
 40
3.0
 50
358.28001399997981
 51
88.280013999973605
  0
ARC
  5
17B7E
  8
0-1
  6
CONTINUOUS
 62
     3
 10
13446.116487409599
 20
8396.6671504219557
 30
0.0
 40
2.5
 50
88.280013999973605
 51
268.28001399997362
  0
ARC
  5
17B7F
  8
0-1
  6
CONTINUOUS
 62
     3
 10
13444.766455409601
 20
8351.6870444219585
 30
0.0
 40
2.5
 50
88.280013999973605
 51
268.28001399997362
  0
ARC
  5
17B80
  8
0-1
  6
CONTINUOUS
 62
     3
 10
13447.45068240959
 20
8391.1244984219575
 30
0.0
 40
3.0
 50
358.28001399997981
 51
88.280013999973605
  0
ARC
  5
17B81
  8
0-1
  6
CONTINUOUS
 62
     3
 10
7616.4494684096044
 20
8569.6493614219562
 30
0.0
 40
20.0
 50
88.280013999973605
 51
268.28001399997362
  0
ARC
  5
17B82
  8
0-1
  6
CONTINUOUS
 62
     3
 10
13446.430240409591
 20
8357.1391334219588
 30
0.0
 40
3.0
 50
268.28001399997362
 51
358.28001399997981
  0
CIRCLE
  5
17B83
  8
0-5
  6
CONTINUOUS
 62
     4
 10
10661.8888954096
 20
4147.1574114219602
 30
0.0
 40
199.9999949999999
  0
CIRCLE
  5
17B84
  8
0-5
  6
CONTINUOUS
 62
     4
 10
7743.8888954096037
 20
4147.1574114219602
 30
0.0
 40
199.9999949999999
  0
CIRCLE
  5
17B85
  8
0-5
  6
CONTINUOUS
 62
     4
 10
13229.3888954096
 20
4147.1574114219602
 30
0.0
 40
199.9999949999999
  0
TEXT
  5
17B86
  8
0-5
  6
CONTINUOUS
 62
     7
 10
14801.50982412255
 20
6575.0037944219539
 30
0.0
 40
160.0
  1
布基礎天端
 72
     4
 11
15260.176490789219
 21
6655.0037944219539
 31
0.0
  0
TEXT
  5
17B87
  8
0-5
  6
CONTINUOUS
 62
     7
 10
7684.1783887429283
 20
4063.9466154219608
 30
0.0
 40
160.0
  1
A
 72
     4
 11
7737.5117220762622
 21
4143.9466154219608
 31
0.0
  0
TEXT
  5
17B88
  8
0-5
  6
CONTINUOUS
 62
     7
 10
10602.178388742919
 20
4063.9466154219608
 30
0.0
 40
160.0
  1
B
 72
     4
 11
10655.51172207626
 21
4143.9466154219608
 31
0.0
  0
TEXT
  5
17B89
  8
0-5
  6
CONTINUOUS
 62
     7
 10
13169.678388742919
 20
4063.9466154219608
 30
0.0
 40
160.0
  1
C
 72
     4
 11
13223.01172207626
 21
4143.9466154219608
 31
0.0
  0
LINE
  5
17B8A
  8
SUNPOU
  6
CONTINUOUS
 10
13451.8888954096
 20
9435.1592194219593
 30
0.0
 11
13956.676765303
 21
9435.1592194219593
 31
0.0
  0
LINE
  5
17B8B
  8
0-5
  6
CONTINUOUS
 62
     4
 10
17062.768864265061
 20
6395.0041904219597
 30
0.0
 11
16942.770448265059
 21
6187.1577084219589
 31
0.0
  0
LINE
  5
17B8C
  8
0-5
  6
CONTINUOUS
 62
     4
 10
18792.205821981352
 20
6187.1577084219589
 30
0.0
 11
14035.44960177461
 21
6187.1577084219589
 31
0.0
  0
LINE
  5
17B8D
  8
0-5
  6
CONTINUOUS
 62
     4
 10
16942.770448265059
 20
6187.1577084219589
 30
0.0
 11
16822.770052265059
 21
6395.0041904219597
 31
0.0
  0
LINE
  5
17B8E
  8
0-5
  6
CONTINUOUS
 62
     4
 10
16822.770052265059
 20
6395.0041904219597
 30
0.0
 11
17062.768864265061
 21
6395.0041904219597
 31
0.0
  0
TEXT
  5
17B8F
  8
0-5
  6
CONTINUOUS
 62
     7
 10
16742.768864265061
 20
6475.0039594219579
 30
0.0
 40
160.0
  1
G.L
 72
     4
 11
16902.768864265061
 21
6555.0039594219579
 31
0.0
  0
LINE
  5
17B90
  8
0-1
  6
CONTINUOUS
 62
     3
 10
12797.390571409591
 20
8198.2035874219546
 30
0.0
 11
12797.390571409591
 21
6337.157708421958
 31
0.0
  0
LINE
  5
17B91
  8
0-1
  6
CONTINUOUS
 62
     3
 10
12834.388763409581
 20
8198.2035874219546
 30
0.0
 11
12834.388763409581
 21
6337.157708421958
 31
0.0
  0
LINE
  5
17B92
  8
0-1
  6
CONTINUOUS
 62
     3
 10
12658.89058540959
 20
6337.157708421958
 30
0.0
 11
12658.89058540959
 21
8198.2035874219546
 31
0.0
  0
LINE
  5
17B93
  8
0-1
  6
CONTINUOUS
 62
     3
 10
12673.889397409581
 20
6337.157708421958
 30
0.0
 11
12673.889397409581
 21
8198.2035874219546
 31
0.0
  0
LINE
  5
17B94
  8
0-1
  6
CONTINUOUS
 62
     3
 10
12957.88993840958
 20
6337.1577084219607
 30
0.0
 11
12957.88993840958
 21
8198.2035874219619
 31
0.0
  0
LINE
  5
17B95
  8
0-1
  6
CONTINUOUS
 62
     3
 10
12972.890730409579
 20
6337.1577084219607
 30
0.0
 11
12972.890730409579
 21
8198.2035874219619
 31
0.0
  0
LINE
  5
17B96
  8
0-1
  6
CONTINUOUS
 62
     3
 10
25468.855969301181
 20
8178.6575434219612
 30
0.0
 11
22285.352538301198
 21
8178.6575434219612
 31
0.0
  0
LINE
  5
17B97
  8
0-1
  6
CONTINUOUS
 62
     3
 10
25468.855969301181
 20
8372.1579124219625
 30
0.0
 11
22285.352538301198
 21
8372.1579124219625
 31
0.0
  0
LINE
  5
17B98
  8
0-1
  6
CONTINUOUS
 62
     3
 10
25596.8522743012
 20
8309.9718314219554
 30
0.0
 11
25596.8522743012
 21
8635.6575694219555
 31
0.0
  0
LINE
  5
17B99
  8
0-1
  6
CONTINUOUS
 62
     3
 10
22200.353989301198
 20
8505.657635421956
 30
0.0
 11
25596.8522743012
 21
8505.657635421956
 31
0.0
  0
LINE
  5
17B9A
  8
0-1
  6
CONTINUOUS
 62
     3
 10
25596.8522743012
 20
8635.6575694219555
 30
0.0
 11
22220.351086301202
 21
8635.6575694219555
 31
0.0
  0
LINE
  5
17B9B
  8
0-1
  6
CONTINUOUS
 62
     3
 10
22192.853593301192
 20
6287.1575434219621
 30
0.0
 11
22292.852934301191
 21
6287.1575434219621
 31
0.0
  0
LINE
  5
17B9C
  8
0-1
  6
CONTINUOUS
 62
     3
 10
22292.852934301191
 20
6287.1575434219621
 30
0.0
 11
22292.852934301191
 21
6187.1577084219589
 31
0.0
  0
LINE
  5
17B9D
  8
0-1
  6
CONTINUOUS
 62
     3
 10
22192.853593301192
 20
6187.1577084219589
 30
0.0
 11
22192.853593301192
 21
6287.1575434219621
 31
0.0
  0
LINE
  5
17B9E
  8
0-1
  6
CONTINUOUS
 62
     3
 10
22285.352538301198
 20
8505.657635421956
 30
0.0
 11
22285.352538301198
 21
6287.1575434219621
 31
0.0
  0
LINE
  5
17B9F
  8
0-1
  6
CONTINUOUS
 62
     3
 10
22336.852274301189
 20
8178.6575434219612
 30
0.0
 11
22336.852274301189
 21
6187.1577084219589
 31
0.0
  0
LINE
  5
17BA0
  8
0-1
  6
CONTINUOUS
 62
     3
 10
22220.351086301202
 20
8635.6575694219555
 30
0.0
 11
22220.351086301202
 21
6287.1575434219621
 31
0.0
  0
LINE
  5
17BA1
  8
0-1
  6
CONTINUOUS
 62
     3
 10
22200.352274301182
 20
8505.657635421956
 30
0.0
 11
22200.352274301182
 21
6287.1575434219621
 31
0.0
  0
LINE
  5
17BA2
  8
0-1
  6
CONTINUOUS
 62
     3
 10
25596.8522743012
 20
8309.9718314219554
 30
0.0
 11
25553.8522743012
 21
8309.9718314219554
 31
0.0
  0
LINE
  5
17BA3
  8
0-1
  6
CONTINUOUS
 62
     3
 10
25561.354913301191
 20
6287.1575434219621
 30
0.0
 11
25461.355573301182
 21
6287.1575434219621
 31
0.0
  0
LINE
  5
17BA4
  8
0-1
  6
CONTINUOUS
 62
     3
 10
25461.355573301182
 20
6287.1575434219621
 30
0.0
 11
25461.355573301182
 21
6187.1577084219589
 31
0.0
  0
LINE
  5
17BA5
  8
0-1
  6
CONTINUOUS
 62
     3
 10
25561.354913301191
 20
6187.1577084219589
 30
0.0
 11
25561.354913301191
 21
6287.1575434219621
 31
0.0
  0
LINE
  5
17BA6
  8
0-1
  6
CONTINUOUS
 62
     3
 10
25417.3522743012
 20
8178.6575434219612
 30
0.0
 11
25417.3522743012
 21
6187.1577084219589
 31
0.0
  0
LINE
  5
17BA7
  8
0-1
  6
CONTINUOUS
 62
     3
 10
25468.855969301181
 20
8505.657635421956
 30
0.0
 11
25468.855969301181
 21
6287.1575434219621
 31
0.0
  0
LINE
  5
17BA8
  8
0-1
  6
CONTINUOUS
 62
     3
 10
25533.855441301192
 20
8635.6575694219555
 30
0.0
 11
25533.855441301192
 21
6287.1575434219621
 31
0.0
  0
LINE
  5
17BA9
  8
0-1
  6
CONTINUOUS
 62
     3
 10
25553.8522743012
 20
8505.657635421956
 30
0.0
 11
25553.8522743012
 21
6287.1575434219621
 31
0.0
  0
LINE
  5
17BAA
  8
0-1
  6
CONTINUOUS
 62
     3
 10
25417.3522743012
 20
6707.1584344219546
 30
0.0
 11
22336.852274301189
 21
6707.1584344219546
 31
0.0
  0
LINE
  5
17BAB
  8
0-1
  6
CONTINUOUS
 62
     3
 10
25417.3522743012
 20
6642.1579724219591
 30
0.0
 11
22336.852274301189
 21
6642.1579724219591
 31
0.0
  0
LINE
  5
17BAC
  8
0-1
  6
CONTINUOUS
 62
     3
 10
25417.3522743012
 20
6577.1580054219576
 30
0.0
 11
22336.852274301189
 21
6577.1580054219576
 31
0.0
  0
LINE
  5
17BAD
  8
0-1
  6
CONTINUOUS
 62
     3
 10
25417.3522743012
 20
6512.1575434219603
 30
0.0
 11
22336.852274301189
 21
6512.1575434219603
 31
0.0
  0
LINE
  5
17BAE
  8
0-1
  6
CONTINUOUS
 62
     3
 10
25417.3522743012
 20
6447.1580714219663
 30
0.0
 11
22336.852274301189
 21
6447.1580714219663
 31
0.0
  0
LINE
  5
17BAF
  8
0-1
  6
CONTINUOUS
 62
     3
 10
25417.3522743012
 20
6382.158104421962
 30
0.0
 11
22336.852274301189
 21
6382.158104421962
 31
0.0
  0
LINE
  5
17BB0
  8
0-1
  6
CONTINUOUS
 62
     3
 10
25417.3522743012
 20
6317.1581374219604
 30
0.0
 11
22336.852274301189
 21
6317.1581374219604
 31
0.0
  0
LINE
  5
17BB1
  8
0-1
  6
CONTINUOUS
 62
     3
 10
25417.3522743012
 20
6252.1576754219623
 30
0.0
 11
22336.852274301189
 21
6252.1576754219623
 31
0.0
  0
LINE
  5
17BB2
  8
0-1
  6
CONTINUOUS
 62
     3
 10
25417.3522743012
 20
8072.1577414219619
 30
0.0
 11
22336.852274301189
 21
8072.1577414219619
 31
0.0
  0
LINE
  5
17BB3
  8
0-1
  6
CONTINUOUS
 62
     3
 10
25417.3522743012
 20
8007.1577744219603
 30
0.0
 11
22336.852274301189
 21
8007.1577744219603
 31
0.0
  0
LINE
  5
17BB4
  8
0-1
  6
CONTINUOUS
 62
     3
 10
25417.3522743012
 20
7942.1583024219653
 30
0.0
 11
22336.852274301189
 21
7942.1583024219653
 31
0.0
  0
LINE
  5
17BB5
  8
0-1
  6
CONTINUOUS
 62
     3
 10
25417.3522743012
 20
7877.158335421952
 30
0.0
 11
22336.852274301189
 21
7877.158335421952
 31
0.0
  0
LINE
  5
17BB6
  8
0-1
  6
CONTINUOUS
 62
     3
 10
25417.3522743012
 20
7812.158368421965
 30
0.0
 11
22336.852274301189
 21
7812.158368421965
 31
0.0
  0
LINE
  5
17BB7
  8
0-1
  6
CONTINUOUS
 62
     3
 10
25417.3522743012
 20
7747.1579064219613
 30
0.0
 11
22336.852274301189
 21
7747.1579064219613
 31
0.0
  0
LINE
  5
17BB8
  8
0-1
  6
CONTINUOUS
 62
     3
 10
25417.3522743012
 20
7682.1579394219571
 30
0.0
 11
22336.852274301189
 21
7682.1579394219571
 31
0.0
  0
LINE
  5
17BB9
  8
0-1
  6
CONTINUOUS
 62
     3
 10
25417.3522743012
 20
7617.1584674219621
 30
0.0
 11
22336.852274301189
 21
7617.1584674219621
 31
0.0
  0
LINE
  5
17BBA
  8
0-1
  6
CONTINUOUS
 62
     3
 10
25417.3522743012
 20
7552.1585004219569
 30
0.0
 11
22336.852274301189
 21
7552.1585004219569
 31
0.0
  0
LINE
  5
17BBB
  8
0-1
  6
CONTINUOUS
 62
     3
 10
25417.3522743012
 20
7487.1580384219606
 30
0.0
 11
22336.852274301189
 21
7487.1580384219606
 31
0.0
  0
LINE
  5
17BBC
  8
0-1
  6
CONTINUOUS
 62
     3
 10
25417.3522743012
 20
7422.1580714219581
 30
0.0
 11
22336.852274301189
 21
7422.1580714219581
 31
0.0
  0
LINE
  5
17BBD
  8
0-1
  6
CONTINUOUS
 62
     3
 10
25417.3522743012
 20
7357.158104421962
 30
0.0
 11
22336.852274301189
 21
7357.158104421962
 31
0.0
  0
LINE
  5
17BBE
  8
0-1
  6
CONTINUOUS
 62
     3
 10
25417.3522743012
 20
7292.1576424219584
 30
0.0
 11
22336.852274301189
 21
7292.1576424219584
 31
0.0
  0
LINE
  5
17BBF
  8
0-1
  6
CONTINUOUS
 62
     3
 10
25417.3522743012
 20
7227.1576754219559
 30
0.0
 11
22336.852274301189
 21
7227.1576754219559
 31
0.0
  0
LINE
  5
17BC0
  8
0-1
  6
CONTINUOUS
 62
     3
 10
25417.3522743012
 20
7162.1582034219591
 30
0.0
 11
22336.852274301189
 21
7162.1582034219591
 31
0.0
  0
LINE
  5
17BC1
  8
0-1
  6
CONTINUOUS
 62
     3
 10
25417.3522743012
 20
7097.1582364219557
 30
0.0
 11
22336.852274301189
 21
7097.1582364219557
 31
0.0
  0
LINE
  5
17BC2
  8
0-1
  6
CONTINUOUS
 62
     3
 10
25417.3522743012
 20
7032.1582694219596
 30
0.0
 11
22336.852274301189
 21
7032.1582694219596
 31
0.0
  0
LINE
  5
17BC3
  8
0-1
  6
CONTINUOUS
 62
     3
 10
25417.3522743012
 20
6967.1578074219642
 30
0.0
 11
22336.852274301189
 21
6967.1578074219642
 31
0.0
  0
LINE
  5
17BC4
  8
0-1
  6
CONTINUOUS
 62
     3
 10
25417.3522743012
 20
6902.1578404219608
 30
0.0
 11
22336.852274301189
 21
6902.1578404219608
 31
0.0
  0
LINE
  5
17BC5
  8
0-1
  6
CONTINUOUS
 62
     3
 10
25417.3522743012
 20
6837.1583684219568
 30
0.0
 11
22336.852274301189
 21
6837.1583684219568
 31
0.0
  0
LINE
  5
17BC6
  8
0-1
  6
CONTINUOUS
 62
     3
 10
25417.3522743012
 20
6772.1584014219598
 30
0.0
 11
22336.852274301189
 21
6772.1584014219598
 31
0.0
  0
LINE
  5
17BC7
  8
0-1
  6
CONTINUOUS
 62
     3
 10
25417.3522743012
 20
8126.6177614219587
 30
0.0
 11
22336.852274301189
 21
8126.6177614219587
 31
0.0
  0
LINE
  5
17BC8
  8
0-1
  6
CONTINUOUS
 62
     3
 10
25561.354913301191
 20
6187.1577084219589
 30
0.0
 11
18831.373898175982
 21
6187.1577084219589
 31
0.0
  0
LINE
  5
17BC9
  8
0-1
  6
CONTINUOUS
 62
     3
 10
25442.853013301181
 20
8381.1582894219573
 30
0.0
 11
25165.423483301191
 21
8381.1582894219573
 31
0.0
  0
LINE
  5
17BCA
  8
0-1
  6
CONTINUOUS
 62
     3
 10
25442.853013301181
 20
8423.1577344219604
 30
0.0
 11
25133.426545301169
 21
8423.1577344219604
 31
0.0
  0
LINE
  5
17BCB
  8
0-1
  6
CONTINUOUS
 62
     3
 10
25447.85327630119
 20
8386.1580584219537
 30
0.0
 11
25447.85327630119
 21
8418.1584604219606
 31
0.0
  0
LINE
  5
17BCC
  8
0-1
  6
CONTINUOUS
 62
     3
 10
25468.855969301181
 20
8432.157616421955
 30
0.0
 11
22285.352538301198
 21
8432.157616421955
 31
0.0
  0
LINE
  5
17BCD
  8
0-1
  6
CONTINUOUS
 62
     3
 10
25161.890043301191
 20
8382.6221434219606
 30
0.0
 11
25129.8891453012
 21
8414.6225454219584
 31
0.0
  0
LINE
  5
17BCE
  8
0-1
  6
CONTINUOUS
 62
     3
 10
25447.85327630119
 20
8414.7581424219588
 30
0.0
 11
25129.760477301199
 21
8414.7581424219588
 31
0.0
  0
LINE
  5
17BCF
  8
0-1
  6
CONTINUOUS
 62
     3
 10
25447.85327630119
 20
8406.358055421957
 30
0.0
 11
25138.153635301191
 21
8406.358055421957
 31
0.0
  0
LINE
  5
17BD0
  8
0-1
  6
CONTINUOUS
 62
     3
 10
25447.85327630119
 20
8397.9584634219609
 30
0.0
 11
25146.552733301181
 21
8397.9584634219609
 31
0.0
  0
LINE
  5
17BD1
  8
0-1
  6
CONTINUOUS
 62
     3
 10
25447.85327630119
 20
8389.5583764219609
 30
0.0
 11
25154.955789301181
 21
8389.5583764219609
 31
0.0
  0
LINE
  5
17BD2
  8
0-1
  6
CONTINUOUS
 62
     3
 10
22306.353250301199
 20
8414.7581424219588
 30
0.0
 11
22624.446050301201
 21
8414.7581424219588
 31
0.0
  0
LINE
  5
17BD3
  8
0-1
  6
CONTINUOUS
 62
     3
 10
22306.353250301199
 20
8406.358055421957
 30
0.0
 11
22616.050912301191
 21
8406.358055421957
 31
0.0
  0
LINE
  5
17BD4
  8
0-1
  6
CONTINUOUS
 62
     3
 10
22306.353250301199
 20
8397.9584634219609
 30
0.0
 11
22607.651815301189
 21
8397.9584634219609
 31
0.0
  0
LINE
  5
17BD5
  8
0-1
  6
CONTINUOUS
 62
     3
 10
22306.353250301199
 20
8389.5583764219609
 30
0.0
 11
22599.252717301199
 21
8389.5583764219609
 31
0.0
  0
LINE
  5
17BD6
  8
0-1
  6
CONTINUOUS
 62
     3
 10
22311.353514301201
 20
8423.1577344219604
 30
0.0
 11
22620.779982301199
 21
8423.1577344219604
 31
0.0
  0
LINE
  5
17BD7
  8
0-1
  6
CONTINUOUS
 62
     3
 10
22311.353514301201
 20
8381.1582894219573
 30
0.0
 11
22588.783043301199
 21
8381.1582894219573
 31
0.0
  0
LINE
  5
17BD8
  8
0-1
  6
CONTINUOUS
 62
     3
 10
22306.353250301199
 20
8386.1580584219537
 30
0.0
 11
22306.353250301199
 21
8418.1584604219606
 31
0.0
  0
LINE
  5
17BD9
  8
0-1
  6
CONTINUOUS
 62
     3
 10
22592.318464301188
 20
8382.6221434219606
 30
0.0
 11
22624.315402301181
 21
8414.6225454219584
 31
0.0
  0
LINE
  5
17BDA
  8
0-2
  6
CONTINUOUS
 62
     4
 10
23513.414233801181
 20
6934.3844024219543
 30
0.0
 11
23613.41357380119
 21
6934.3844024219543
 31
0.0
  0
LINE
  5
17BDB
  8
0-2
  6
CONTINUOUS
 62
     4
 10
24240.79823380119
 20
6934.3844024219543
 30
0.0
 11
24140.798893801191
 21
6934.3844024219543
 31
0.0
  0
LINE
  5
17BDC
  8
0-5
  6
CONTINUOUS
 62
     4
 10
22242.852274301182
 20
4507.1581044219538
 30
0.0
 11
22242.852274301182
 21
4347.1585664219583
 31
0.0
  0
LINE
  5
17BDD
  8
0-5
  6
CONTINUOUS
 62
     4
 10
25511.3522743012
 20
4507.1581044219538
 30
0.0
 11
25511.3522743012
 21
4347.1585664219583
 31
0.0
  0
LINE
  5
17BDE
  8
2-0
  6
CENTER2
 62
     6
 10
22242.852274301182
 20
5924.5052854219593
 30
0.0
 11
22242.852274301182
 21
6961.6483124219576
 31
0.0
  0
LINE
  5
17BDF
  8
2-0
  6
CENTER2
 62
     6
 10
25511.3522743012
 20
5924.5052854219593
 30
0.0
 11
25511.3522743012
 21
6961.6483124219576
 31
0.0
  0
ARC
  5
17BE0
  8
0-1
  6
CONTINUOUS
 62
     3
 10
25442.853013301181
 20
8418.1584604219606
 30
0.0
 40
5.0
 50
0.0
 51
90.0
  0
ARC
  5
17BE1
  8
0-1
  6
CONTINUOUS
 62
     3
 10
25442.853013301181
 20
8386.1580584219537
 30
0.0
 40
5.0
 50
270.00001499981897
 51
0.0
  0
ARC
  5
17BE2
  8
0-1
  6
CONTINUOUS
 62
     3
 10
25165.423483301191
 20
8386.1580584219537
 30
0.0
 40
5.0
 50
225.00001499972521
 51
270.00001499981897
  0
ARC
  5
17BE3
  8
0-1
  6
CONTINUOUS
 62
     3
 10
25133.426545301169
 20
8418.1584604219606
 30
0.0
 40
5.0
 50
90.0
 51
225.00001499972521
  0
ARC
  5
17BE4
  8
0-1
  6
CONTINUOUS
 62
     3
 10
22311.353514301201
 20
8386.1580584219537
 30
0.0
 40
5.0
 50
180.0
 51
270.00001499981897
  0
ARC
  5
17BE5
  8
0-1
  6
CONTINUOUS
 62
     3
 10
22311.353514301201
 20
8418.1584604219606
 30
0.0
 40
5.0
 50
90.0
 51
180.0
  0
ARC
  5
17BE6
  8
0-1
  6
CONTINUOUS
 62
     3
 10
22620.779982301199
 20
8418.1584604219606
 30
0.0
 40
5.0
 50
315.00001500002912
 51
90.0
  0
ARC
  5
17BE7
  8
0-1
  6
CONTINUOUS
 62
     3
 10
22588.783043301199
 20
8386.1580584219537
 30
0.0
 40
5.0
 50
270.00001499981897
 51
315.00001500002912
  0
CIRCLE
  5
17BE8
  8
0-5
  6
CONTINUOUS
 62
     4
 10
22242.852274301182
 20
4147.1574114219602
 30
0.0
 40
199.9999949999999
  0
CIRCLE
  5
17BE9
  8
0-5
  6
CONTINUOUS
 62
     4
 10
25511.3522743012
 20
4147.1574114219602
 30
0.0
 40
199.9999949999999
  0
TEXT
  5
17BEA
  8
0-5
  6
CONTINUOUS
 62
     7
 10
22188.098482634541
 20
4057.68242942196
 30
0.0
 40
160.0
  1
2
 72
     4
 11
22241.43181596787
 21
4137.6824294219596
 31
0.0
  0
TEXT
  5
17BEB
  8
0-5
  6
CONTINUOUS
 62
     7
 10
26616.324039405328
 20
7241.3382669155044
 30
0.0
 40
160.0
  1
(2131.5)
 50
90.0
 72
     4
 11
26536.324039405328
 21
7694.6716002488374
 31
0.0
  0
TEXT
  5
17BEC
  8
0-5
  6
CONTINUOUS
 62
     7
 10
25458.018940967871
 20
4067.1574114219602
 30
0.0
 40
160.0
  1
3
 72
     4
 11
25511.3522743012
 21
4147.1574114219602
 31
0.0
  0
CIRCLE
  5
17BED
  8
0-4
  6
CONTINUOUS
 62
     4
 10
23877.104253801179
 20
6673.2141444219578
 30
0.0
 40
18.487504999999981
  0
LINE
  5
17BEE
  8
1-前柱カバ-P
 10
19485.352274301182
 20
8505.657635421956
 30
0.0
 11
19485.352274301182
 21
6187.1577084219589
 31
0.0
  0
LINE
  5
17BEF
  8
1-前柱カバ-P
 10
19400.352274301182
 20
8635.6575694219555
 30
0.0
 11
19400.352274301182
 21
6187.1577084219589
 31
0.0
  0
LINE
  5
17BF0
  8
0-1
  6
CONTINUOUS
 62
     3
 10
19357.352274301182
 20
8505.6576354219633
 30
0.0
 11
22285.352538301198
 21
8505.657635421956
 31
0.0
  0
LINE
  5
17BF1
  8
0-1
  6
CONTINUOUS
 62
     3
 10
22220.351086301202
 20
8635.6575694219555
 30
0.0
 11
19357.352274301182
 21
8635.6575694219555
 31
0.0
  0
LINE
  5
17BF2
  8
0-1
  6
CONTINUOUS
 62
     3
 10
19357.352274301182
 20
8309.9718314219608
 30
0.0
 11
19357.352274301182
 21
8635.6575694219555
 31
0.0
  0
LINE
  5
17BF3
  8
0-1
  6
CONTINUOUS
 62
     3
 10
19357.352274301182
 20
8309.9718314219608
 30
0.0
 11
19400.352274301182
 21
8309.9718314219608
 31
0.0
  0
LINE
  5
17BF4
  8
2-0
  6
CENTER2
 62
     6
 10
19442.852274301182
 20
5924.5052854219593
 30
0.0
 11
19442.852274301182
 21
6961.6483124219576
 31
0.0
  0
LINE
  5
17BF5
  8
1-桁前P28
 10
19485.352274301182
 20
8307.971831421959
 30
0.0
 11
22200.352274301182
 21
8307.971831421959
 31
0.0
  0
LINE
  5
17BF6
  8
0-5
  6
CONTINUOUS
 62
     4
 10
19442.852274301189
 20
4507.1581044219538
 30
0.0
 11
19442.852274301182
 21
4347.1585664219583
 31
0.0
  0
CIRCLE
  5
17BF7
  8
0-5
  6
CONTINUOUS
 62
     4
 10
19442.852274301182
 20
4147.1574114219602
 30
0.0
 40
199.9999949999999
  0
TEXT
  5
17BF8
  8
0-5
  6
CONTINUOUS
 62
     7
 10
19414.765149301169
 20
4057.68242942196
 30
0.0
 40
160.0
  1
1
 72
     4
 11
19441.431815967841
 21
4137.6824294219596
 31
0.0
  0
TEXT
  5
17BF9
  8
0-5
  6
CONTINUOUS
 62
     7
 10
18429.980887041791
 20
7287.873443922791
 30
0.0
 40
160.0
  1
(2260)
 50
90.0
 72
     4
 11
18349.980887041791
 21
7674.540110589458
 31
0.0
  0
LINE
  5
17D53
  8
2-0
  6
CENTER2
 62
     6
 10
27553.85319730117
 20
19363.955421421961
 30
0.0
 11
26833.854517301159
 21
19363.955421421961
 31
0.0
  0
LINE
  5
17D54
  8
2-0
  6
CENTER2
 62
     6
 10
26673.854517301159
 20
19363.955421421961
 30
0.0
 11
19138.247438349252
 21
19363.955421421961
 31
0.0
  0
LINE
  5
17D55
  8
2-0
  6
CENTER2
 62
     6
 10
27553.853197301181
 20
16796.455421421961
 30
0.0
 11
27033.854517301181
 21
16796.455421421961
 31
0.0
  0
LINE
  5
17D56
  8
2-0
  6
CENTER2
 62
     6
 10
26353.85517730119
 20
16796.455421421961
 30
0.0
 11
19138.247438349252
 21
16796.455421421961
 31
0.0
  0
LINE
  5
17D57
  8
2-0
  6
CENTER2
 62
     6
 10
27553.85319730117
 20
13878.455421421961
 30
0.0
 11
26833.854517301159
 21
13878.455421421961
 31
0.0
  0
LINE
  5
17D58
  8
2-0
  6
CENTER2
 62
     6
 10
26673.854517301159
 20
13878.455421421961
 30
0.0
 11
19138.247438349252
 21
13878.455421421961
 31
0.0
  0
CIRCLE
  5
17D59
  8
0-5
  6
CONTINUOUS
 62
     4
 10
22242.852274301182
 20
21206.456345421939
 30
0.0
 40
199.9999949999999
  0
CIRCLE
  5
17D5A
  8
0-5
  6
CONTINUOUS
 62
     4
 10
27753.853857301161
 20
19363.955421421961
 30
0.0
 40
199.9999949999999
  0
CIRCLE
  5
17D5B
  8
0-5
  6
CONTINUOUS
 62
     4
 10
27753.853857301168
 20
16796.455421421961
 30
0.0
 40
199.9999949999999
  0
CIRCLE
  5
17D5C
  8
0-5
  6
CONTINUOUS
 62
     4
 10
27753.853857301161
 20
13878.455421421961
 30
0.0
 40
199.9999949999999
  0
CIRCLE
  5
17D5D
  8
0-5
  6
CONTINUOUS
 62
     4
 10
25511.352274301182
 20
21206.456345421939
 30
0.0
 40
199.9999949999999
  0
TEXT
  5
17D5E
  8
0-5
  6
CONTINUOUS
 62
     7
 10
22190.855951634519
 20
21120.230495421962
 30
0.0
 40
160.0
  1
2
 72
     4
 11
22244.189284967852
 21
21200.230495421962
 31
0.0
  0
TEXT
  5
17D5F
  8
0-5
  6
CONTINUOUS
 62
     7
 10
25458.01894096785
 20
21126.456345421939
 30
0.0
 40
160.0
  1
3
 72
     4
 11
25511.352274301182
 21
21206.456345421939
 31
0.0
  0
TEXT
  5
17D60
  8
0-5
  6
CONTINUOUS
 62
     7
 10
27695.863552634499
 20
19272.33736242196
 30
0.0
 40
160.0
  1
C
 72
     4
 11
27749.196885967831
 21
19352.33736242196
 31
0.0
  0
TEXT
  5
17D61
  8
0-5
  6
CONTINUOUS
 62
     7
 10
27695.863552634499
 20
16704.837363421961
 30
0.0
 40
160.0
  1
B
 72
     4
 11
27749.196885967831
 21
16784.837363421961
 31
0.0
  0
TEXT
  5
17D62
  8
0-5
  6
CONTINUOUS
 62
     7
 10
27695.863552634499
 20
13786.83736242194
 30
0.0
 40
160.0
  1
A
 72
     4
 11
27749.196885967831
 21
13866.83736242194
 31
0.0
  0
LINE
  5
17D63
  8
2-0
  6
CENTER2
 62
     6
 10
19442.852274301182
 20
21006.45766442196
 30
0.0
 11
19442.852274301182
 21
13520.70154295354
 31
0.0
  0
CIRCLE
  5
17D64
  8
0-5
  6
CONTINUOUS
 62
     4
 10
19442.852274301182
 20
21206.456345421939
 30
0.0
 40
199.9999949999999
  0
TEXT
  5
17D65
  8
0-5
  6
CONTINUOUS
 62
     7
 10
19417.522618301169
 20
21120.230495421962
 30
0.0
 40
160.0
  1
1
 72
     4
 11
19444.189284967841
 21
21200.230495421962
 31
0.0
  0
ARC
  5
17D66
  8
1-後柱P
  6
HIDE-M
 62
     6
 10
19439.25227430118
 20
19295.90542142195
 30
0.0
 40
2.6000000000000001
 50
270.0
 51
0.0
  0
LINE
  5
17D67
  8
1-後柱P
  6
HIDE-M
 62
     6
 10
19450.852274301182
 20
19293.85603126877
 30
0.0
 11
19450.852274301182
 21
19297.50542142196
 31
0.0
  0
LINE
  5
17D68
  8
1-後柱P
  6
HIDE-M
 62
     6
 10
19440.852274301182
 20
19293.85603126877
 30
0.0
 11
19440.852274301182
 21
19297.50542142196
 31
0.0
  0
LINE
  5
17D69
  8
1-後柱P
  6
1PL-M
 62
     6
 10
19445.852274301182
 20
19288.305421421948
 30
0.0
 11
19445.852274301182
 21
19302.50542142196
 31
0.0
  0
ARC
  5
17D6A
  8
1-後柱P
  6
HIDE-M
 62
     6
 10
19452.45227430118
 20
19295.90542142195
 30
0.0
 40
2.6000000000000001
 50
180.0
 51
270.0
  0
LINE
  5
17D6B
  8
1-後柱P
  6
HIDE-M
 62
     6
 10
19441.852274301182
 20
19295.90542142195
 30
0.0
 11
19441.852274301182
 21
19297.50542142196
 31
0.0
  0
LINE
  5
17D6C
  8
1-後柱P
  6
HIDE-M
 62
     6
 10
19449.852274301182
 20
19295.90542142195
 30
0.0
 11
19449.852274301182
 21
19297.50542142196
 31
0.0
  0
LINE
  5
17D6D
  8
1-後柱P
 10
19431.95227430118
 20
19408.205421421961
 30
0.0
 11
19453.75227430118
 21
19408.205421421961
 31
0.0
  0
LINE
  5
17D6E
  8
1-後柱P
 10
19483.75227430118
 20
19370.90542142195
 30
0.0
 11
19483.75227430118
 21
19378.205421421961
 31
0.0
  0
ARC
  5
17D6F
  8
1-後柱P
 10
19453.75227430118
 20
19378.205421421961
 30
0.0
 40
30.0
 50
0.0
 51
90.0
  0
ARC
  5
17D70
  8
1-後柱P
 10
19453.75227430118
 20
19378.205421421961
 30
0.0
 40
31.600000000000001
 50
0.0
 51
90.0
  0
LINE
  5
17D71
  8
1-後柱P
 10
19431.95227430118
 20
19409.805421421948
 30
0.0
 11
19453.75227430118
 21
19409.805421421948
 31
0.0
  0
LINE
  5
17D72
  8
1-後柱P
 10
19485.352274301182
 20
19370.90542142195
 30
0.0
 11
19485.352274301182
 21
19378.205421421961
 31
0.0
  0
LINE
  5
17D73
  8
1-後柱P
 10
19462.352274301182
 20
19349.305421421948
 30
0.0
 11
19462.352274301182
 21
19359.305421421948
 31
0.0
  0
LINE
  5
17D74
  8
1-後柱P
 10
19460.75227430118
 20
19359.305421421948
 30
0.0
 11
19460.75227430118
 21
19349.305421421948
 31
0.0
  0
LINE
  5
17D75
  8
1-後柱P
 10
19401.95227430118
 20
19370.90542142195
 30
0.0
 11
19401.95227430118
 21
19378.205421421961
 31
0.0
  0
ARC
  5
17D76
  8
1-後柱P
 10
19431.95227430118
 20
19378.205421421961
 30
0.0
 40
30.0
 50
90.0
 51
180.0
  0
ARC
  5
17D77
  8
1-後柱P
 10
19431.95227430118
 20
19378.205421421961
 30
0.0
 40
31.600000000000001
 50
90.0
 51
180.0
  0
LINE
  5
17D78
  8
1-後柱P
 10
19400.352274301182
 20
19370.90542142195
 30
0.0
 11
19400.352274301182
 21
19378.205421421961
 31
0.0
  0
LINE
  5
17D79
  8
1-後柱P
 10
19406.952274301151
 20
19364.305421421959
 30
0.0
 11
19418.352274301182
 21
19364.305421421959
 31
0.0
  0
ARC
  5
17D7A
  8
1-後柱P
 10
19406.952274301151
 20
19370.90542142195
 30
0.0
 40
6.599999999999997
 50
180.0
 51
270.0
  0
ARC
  5
17D7B
  8
1-後柱P
 10
19418.352274301182
 20
19359.305421421948
 30
0.0
 40
5.0
 50
0.0
 51
90.0
  0
LINE
  5
17D7C
  8
1-後柱P
 10
19406.952274301151
 20
19365.90542142195
 30
0.0
 11
19418.352274301182
 21
19365.90542142195
 31
0.0
  0
ARC
  5
17D7D
  8
1-後柱P
 10
19406.952274301151
 20
19370.90542142195
 30
0.0
 40
5.0
 50
180.0
 51
270.0
  0
LINE
  5
17D7E
  8
1-後柱P
 10
19423.352274301182
 20
19359.305421421948
 30
0.0
 11
19423.352274301182
 21
19299.90542142195
 31
0.0
  0
LINE
  5
17D7F
  8
1-後柱P
 10
19424.95227430118
 20
19359.305421421948
 30
0.0
 11
19424.95227430118
 21
19299.90542142195
 31
0.0
  0
ARC
  5
17D80
  8
1-後柱P
 10
19418.352274301182
 20
19359.305421421948
 30
0.0
 40
6.599999999999997
 50
0.0
 51
90.0
  0
LINE
  5
17D81
  8
1-後柱P
 10
19429.952274301158
 20
19293.305421421959
 30
0.0
 11
19463.352274301182
 21
19293.305421421959
 31
0.0
  0
ARC
  5
17D82
  8
1-後柱P
 10
19429.952274301158
 20
19299.90542142195
 30
0.0
 40
6.599999999999997
 50
180.0
 51
270.0
  0
LINE
  5
17D83
  8
1-後柱P
 10
19429.952274301158
 20
19294.90542142195
 30
0.0
 11
19463.352274301182
 21
19294.90542142195
 31
0.0
  0
ARC
  5
17D84
  8
1-後柱P
 10
19429.952274301158
 20
19299.90542142195
 30
0.0
 40
5.0
 50
180.0
 51
270.0
  0
LINE
  5
17D85
  8
1-後柱P
 10
19463.352274301182
 20
19294.90542142195
 30
0.0
 11
19463.352274301182
 21
19293.305421421959
 31
0.0
  0
LINE
  5
17D86
  8
1-後柱P
 10
19478.75227430118
 20
19364.305421421959
 30
0.0
 11
19467.352274301182
 21
19364.305421421959
 31
0.0
  0
ARC
  5
17D87
  8
1-後柱P
 10
19478.75227430118
 20
19370.90542142195
 30
0.0
 40
6.599999999999997
 50
270.0
 51
0.0
  0
ARC
  5
17D88
  8
1-後柱P
 10
19467.352274301182
 20
19359.305421421948
 30
0.0
 40
5.0
 50
90.0
 51
180.0
  0
LINE
  5
17D89
  8
1-後柱P
 10
19467.352274301182
 20
19365.90542142195
 30
0.0
 11
19478.75227430118
 21
19365.90542142195
 31
0.0
  0
ARC
  5
17D8A
  8
1-後柱P
 10
19467.352274301182
 20
19359.305421421948
 30
0.0
 40
6.599999999999997
 50
90.0
 51
180.0
  0
ARC
  5
17D8B
  8
1-後柱P
 10
19478.75227430118
 20
19370.90542142195
 30
0.0
 40
5.0
 50
270.0
 51
0.0
  0
LINE
  5
17D8C
  8
1-後柱P
 10
19462.352274301182
 20
19349.305421421948
 30
0.0
 11
19460.75227430118
 21
19349.305421421948
 31
0.0
  0
LINE
  5
17D8D
  8
1-後柱カバ-P
 10
19485.352274301182
 20
19357.605421421958
 30
0.0
 11
19485.352274301182
 21
19298.305421421948
 31
0.0
  0
ARC
  5
17D8E
  8
1-後柱カバ-P
 10
19478.75227430118
 20
19298.305421421948
 30
0.0
 40
6.599999999999997
 50
270.0
 51
0.0
  0
LINE
  5
17D8F
  8
1-後柱カバ-P
 10
19483.75227430118
 20
19357.605421421958
 30
0.0
 11
19483.75227430118
 21
19298.305421421948
 31
0.0
  0
ARC
  5
17D90
  8
1-後柱カバ-P
 10
19478.75227430118
 20
19357.605421421958
 30
0.0
 40
5.0
 50
0.0
 51
90.0
  0
LINE
  5
17D91
  8
1-後柱カバ-P
 10
19478.75227430118
 20
19291.705421421961
 30
0.0
 11
19406.952274301151
 21
19291.705421421961
 31
0.0
  0
ARC
  5
17D92
  8
1-後柱カバ-P
 10
19406.952274301151
 20
19298.305421421948
 30
0.0
 40
6.599999999999997
 50
180.0
 51
270.0
  0
LINE
  5
17D93
  8
1-後柱カバ-P
 10
19478.75227430118
 20
19293.305421421959
 30
0.0
 11
19406.952274301151
 21
19293.305421421959
 31
0.0
  0
ARC
  5
17D94
  8
1-後柱カバ-P
 10
19406.952274301151
 20
19298.305421421948
 30
0.0
 40
5.0
 50
180.0
 51
270.0
  0
ARC
  5
17D95
  8
1-後柱カバ-P
 10
19478.75227430118
 20
19298.305421421948
 30
0.0
 40
5.0
 50
270.0
 51
0.0
  0
LINE
  5
17D96
  8
1-後柱カバ-P
 10
19400.352274301182
 20
19298.305421421948
 30
0.0
 11
19400.352274301182
 21
19357.605421421958
 31
0.0
  0
LINE
  5
17D97
  8
1-後柱カバ-P
 10
19401.95227430118
 20
19298.305421421948
 30
0.0
 11
19401.95227430118
 21
19357.605421421958
 31
0.0
  0
ARC
  5
17D98
  8
1-後柱カバ-P
 10
19406.952274301151
 20
19357.605421421958
 30
0.0
 40
5.0
 50
90.0
 51
180.0
  0
LINE
  5
17D99
  8
1-後柱カバ-P
  6
1PL-M
 62
     6
 10
19442.852274301182
 20
19299.205421421961
 30
0.0
 11
19442.852274301182
 21
19286.205421421961
 31
0.0
  0
LINE
  5
17D9A
  8
1-後柱カバ-P
  6
HIDE-M
 62
     6
 10
19449.852274301182
 20
19291.705421421961
 30
0.0
 11
19449.852274301182
 21
19293.305421421959
 31
0.0
  0
LINE
  5
17D9B
  8
1-後柱カバ-P
  6
HIDE-M
 62
     6
 10
19435.852274301182
 20
19291.705421421961
 30
0.0
 11
19435.852274301182
 21
19293.305421421959
 31
0.0
  0
ARC
  5
17D9C
  8
1-後柱カバ-P
 10
19478.75227430118
 20
19357.605421421958
 30
0.0
 40
6.599999999999997
 50
0.0
 51
90.0
  0
ARC
  5
17D9D
  8
1-後柱カバ-P
 10
19406.952274301151
 20
19357.605421421958
 30
0.0
 40
6.599999999999997
 50
90.0
 51
180.0
  0
LINE
  5
17D9E
  8
1-後柱カバ-P
 10
19415.352274301182
 20
19364.205421421961
 30
0.0
 11
19406.952274301151
 21
19364.205421421961
 31
0.0
  0
LINE
  5
17D9F
  8
1-後柱カバ-P
 10
19470.352274301182
 20
19364.205421421961
 30
0.0
 11
19478.75227430118
 21
19364.205421421961
 31
0.0
  0
LINE
  5
17DA0
  8
1-後柱カバ-P
 10
19415.352274301182
 20
19362.605421421958
 30
0.0
 11
19406.952274301151
 21
19362.605421421958
 31
0.0
  0
LINE
  5
17DA1
  8
1-後柱カバ-P
 10
19470.352274301182
 20
19362.605421421958
 30
0.0
 11
19478.75227430118
 21
19362.605421421958
 31
0.0
  0
LINE
  5
17DA2
  8
1-後柱カバ-P
 10
19470.352274301182
 20
19362.605421421958
 30
0.0
 11
19470.352274301182
 21
19364.205421421961
 31
0.0
  0
LINE
  5
17DA3
  8
1-後柱カバ-P
 10
19415.352274301182
 20
19364.205421421961
 30
0.0
 11
19415.352274301182
 21
19362.605421421958
 31
0.0
  0
LINE
  5
17DA4
  8
1-後柱カバ-P
  6
HIDE-M
 62
     6
 10
19411.452274301158
 20
19343.205421421939
 30
0.0
 11
19399.852274301182
 21
19343.205421421939
 31
0.0
  0
LINE
  5
17DA5
  8
1-後柱カバ-P
  6
HIDE-M
 62
     6
 10
19411.452274301158
 20
19335.205421421939
 30
0.0
 11
19399.852274301182
 21
19335.205421421939
 31
0.0
  0
LINE
  5
17DA6
  8
1-後柱カバ-P
  6
HIDE-M
 62
     6
 10
19411.452274301158
 20
19342.205421421961
 30
0.0
 11
19399.852274301182
 21
19342.205421421961
 31
0.0
  0
LINE
  5
17DA7
  8
1-後柱カバ-P
  6
HIDE-M
 62
     6
 10
19411.452274301158
 20
19336.20542142195
 30
0.0
 11
19399.852274301182
 21
19336.20542142195
 31
0.0
  0
LINE
  5
17DA8
  8
1-後柱カバ-P
 10
19410.45227430118
 20
19333.705421421961
 30
0.0
 11
19403.45227430118
 21
19333.705421421961
 31
0.0
  0
LINE
  5
17DA9
  8
1-後柱カバ-P
 10
19403.45227430118
 20
19344.70542142195
 30
0.0
 11
19410.45227430118
 21
19344.70542142195
 31
0.0
  0
LINE
  5
17DAA
  8
1-後柱カバ-P
 10
19403.45227430118
 20
19345.45542142195
 30
0.0
 11
19403.45227430118
 21
19332.955421421961
 31
0.0
  0
LINE
  5
17DAB
  8
1-後柱カバ-P
 10
19399.852274301182
 20
19345.205421421961
 30
0.0
 11
19399.852274301182
 21
19333.20542142195
 31
0.0
  0
LINE
  5
17DAC
  8
1-後柱カバ-P
  6
HIDE-M
 62
     6
 10
19401.95227430118
 20
19333.705421421961
 30
0.0
 11
19400.352274301182
 21
19333.705421421961
 31
0.0
  0
LINE
  5
17DAD
  8
1-後柱カバ-P
 10
19399.852274301182
 20
19333.20542142195
 30
0.0
 11
19400.352274301182
 21
19333.705421421961
 31
0.0
  0
ARC
  5
17DAE
  8
1-後柱カバ-P
 10
19402.70227430118
 20
19332.955421421961
 30
0.0
 40
0.75
 50
180.0
 51
0.0
  0
LINE
  5
17DAF
  8
1-後柱カバ-P
  6
HIDE-M
 62
     6
 10
19400.352274301182
 20
19344.70542142195
 30
0.0
 11
19401.95227430118
 21
19344.70542142195
 31
0.0
  0
LINE
  5
17DB0
  8
1-後柱カバ-P
 10
19399.852274301182
 20
19345.205421421961
 30
0.0
 11
19400.352274301182
 21
19344.70542142195
 31
0.0
  0
ARC
  5
17DB1
  8
1-後柱カバ-P
 10
19402.70227430118
 20
19345.45542142195
 30
0.0
 40
0.75
 50
0.0
 51
180.0
  0
LINE
  5
17DB2
  8
1-後柱カバ-P
 10
19411.452274301158
 20
19343.70542142195
 30
0.0
 11
19411.452274301158
 21
19334.705421421961
 31
0.0
  0
ARC
  5
17DB3
  8
1-後柱カバ-P
 10
19410.45227430118
 20
19334.705421421961
 30
0.0
 40
1.0
 50
270.0
 51
0.0
  0
ARC
  5
17DB4
  8
1-後柱カバ-P
 10
19410.45227430118
 20
19343.70542142195
 30
0.0
 40
1.0
 50
0.0
 51
90.0
  0
LINE
  5
17DB5
  8
1-後柱カバ-P
  6
1PL-M
 62
     6
 10
19416.452274301151
 20
19339.205421421961
 30
0.0
 11
19394.852274301182
 21
19339.205421421961
 31
0.0
  0
LINE
  5
17DB6
  8
1-後柱カバ-P
 10
19410.45227430118
 20
19323.70542142195
 30
0.0
 11
19403.45227430118
 21
19323.70542142195
 31
0.0
  0
LINE
  5
17DB7
  8
1-後柱カバ-P
 10
19399.852274301182
 20
19331.20542142195
 30
0.0
 11
19399.852274301182
 21
19323.205421421961
 31
0.0
  0
LINE
  5
17DB8
  8
1-後柱カバ-P
  6
HIDE-M
 62
     6
 10
19401.95227430118
 20
19323.70542142195
 30
0.0
 11
19400.352274301182
 21
19323.70542142195
 31
0.0
  0
LINE
  5
17DB9
  8
1-後柱カバ-P
 10
19399.852274301182
 20
19323.205421421961
 30
0.0
 11
19400.352274301182
 21
19323.70542142195
 31
0.0
  0
ARC
  5
17DBA
  8
1-後柱カバ-P
 10
19402.70227430118
 20
19322.955421421961
 30
0.0
 40
0.75
 50
180.0
 51
0.0
  0
LINE
  5
17DBB
  8
1-後柱カバ-P
 10
19411.452274301158
 20
19332.705421421961
 30
0.0
 11
19411.452274301158
 21
19324.705421421961
 31
0.0
  0
ARC
  5
17DBC
  8
1-後柱カバ-P
 10
19410.45227430118
 20
19324.705421421961
 30
0.0
 40
1.0
 50
270.0
 51
0.0
  0
LINE
  5
17DBD
  8
1-後柱カバ-P
  6
1PL-M
 62
     6
 10
19416.452274301151
 20
19329.205421421961
 30
0.0
 11
19394.852274301182
 21
19329.205421421961
 31
0.0
  0
LINE
  5
17DBE
  8
1-後柱カバ-P
 10
19403.45227430118
 20
19330.95542142195
 30
0.0
 11
19403.45227430118
 21
19322.955421421961
 31
0.0
  0
LINE
  5
17DBF
  8
1-後柱カバ-P
  6
HIDE-M
 62
     6
 10
19474.25227430118
 20
19343.205421421939
 30
0.0
 11
19485.852274301182
 21
19343.205421421939
 31
0.0
  0
LINE
  5
17DC0
  8
1-後柱カバ-P
  6
HIDE-M
 62
     6
 10
19474.25227430118
 20
19335.205421421939
 30
0.0
 11
19485.852274301182
 21
19335.205421421939
 31
0.0
  0
LINE
  5
17DC1
  8
1-後柱カバ-P
  6
HIDE-M
 62
     6
 10
19474.25227430118
 20
19342.205421421961
 30
0.0
 11
19485.852274301182
 21
19342.205421421961
 31
0.0
  0
LINE
  5
17DC2
  8
1-後柱カバ-P
  6
HIDE-M
 62
     6
 10
19474.25227430118
 20
19336.20542142195
 30
0.0
 11
19485.852274301182
 21
19336.20542142195
 31
0.0
  0
LINE
  5
17DC3
  8
1-後柱カバ-P
 10
19475.25227430118
 20
19333.705421421961
 30
0.0
 11
19482.25227430118
 21
19333.705421421961
 31
0.0
  0
LINE
  5
17DC4
  8
1-後柱カバ-P
 10
19482.25227430118
 20
19344.70542142195
 30
0.0
 11
19475.25227430118
 21
19344.70542142195
 31
0.0
  0
LINE
  5
17DC5
  8
1-後柱カバ-P
 10
19482.25227430118
 20
19345.45542142195
 30
0.0
 11
19482.25227430118
 21
19332.955421421961
 31
0.0
  0
LINE
  5
17DC6
  8
1-後柱カバ-P
 10
19485.852274301182
 20
19345.205421421961
 30
0.0
 11
19485.852274301182
 21
19333.20542142195
 31
0.0
  0
LINE
  5
17DC7
  8
1-後柱カバ-P
  6
HIDE-M
 62
     6
 10
19483.75227430118
 20
19333.705421421961
 30
0.0
 11
19485.352274301182
 21
19333.705421421961
 31
0.0
  0
LINE
  5
17DC8
  8
1-後柱カバ-P
 10
19485.852274301182
 20
19333.20542142195
 30
0.0
 11
19485.352274301182
 21
19333.705421421961
 31
0.0
  0
ARC
  5
17DC9
  8
1-後柱カバ-P
 10
19483.00227430118
 20
19332.955421421961
 30
0.0
 40
0.75
 50
180.0
 51
0.0
  0
LINE
  5
17DCA
  8
1-後柱カバ-P
  6
HIDE-M
 62
     6
 10
19485.352274301182
 20
19344.70542142195
 30
0.0
 11
19483.75227430118
 21
19344.70542142195
 31
0.0
  0
LINE
  5
17DCB
  8
1-後柱カバ-P
 10
19485.852274301182
 20
19345.205421421961
 30
0.0
 11
19485.352274301182
 21
19344.70542142195
 31
0.0
  0
ARC
  5
17DCC
  8
1-後柱カバ-P
 10
19483.00227430118
 20
19345.45542142195
 30
0.0
 40
0.75
 50
0.0
 51
180.0
  0
LINE
  5
17DCD
  8
1-後柱カバ-P
 10
19474.25227430118
 20
19343.70542142195
 30
0.0
 11
19474.25227430118
 21
19334.705421421961
 31
0.0
  0
ARC
  5
17DCE
  8
1-後柱カバ-P
 10
19475.25227430118
 20
19334.705421421961
 30
0.0
 40
1.0
 50
180.0
 51
270.0
  0
ARC
  5
17DCF
  8
1-後柱カバ-P
 10
19475.25227430118
 20
19343.70542142195
 30
0.0
 40
1.0
 50
90.0
 51
180.0
  0
LINE
  5
17DD0
  8
1-後柱カバ-P
  6
1PL-M
 62
     6
 10
19469.25227430118
 20
19339.205421421961
 30
0.0
 11
19490.852274301189
 21
19339.205421421961
 31
0.0
  0
LINE
  5
17DD1
  8
1-後柱カバ-P
 10
19475.25227430118
 20
19323.70542142195
 30
0.0
 11
19482.25227430118
 21
19323.70542142195
 31
0.0
  0
LINE
  5
17DD2
  8
1-後柱カバ-P
 10
19485.852274301182
 20
19331.20542142195
 30
0.0
 11
19485.852274301182
 21
19323.205421421961
 31
0.0
  0
LINE
  5
17DD3
  8
1-後柱カバ-P
  6
HIDE-M
 62
     6
 10
19483.75227430118
 20
19323.70542142195
 30
0.0
 11
19485.352274301182
 21
19323.70542142195
 31
0.0
  0
LINE
  5
17DD4
  8
1-後柱カバ-P
 10
19485.852274301182
 20
19323.205421421961
 30
0.0
 11
19485.352274301182
 21
19323.70542142195
 31
0.0
  0
ARC
  5
17DD5
  8
1-後柱カバ-P
 10
19483.00227430118
 20
19322.955421421961
 30
0.0
 40
0.75
 50
180.0
 51
0.0
  0
LINE
  5
17DD6
  8
1-後柱カバ-P
 10
19474.25227430118
 20
19332.705421421961
 30
0.0
 11
19474.25227430118
 21
19324.705421421961
 31
0.0
  0
ARC
  5
17DD7
  8
1-後柱カバ-P
 10
19475.25227430118
 20
19324.705421421961
 30
0.0
 40
1.0
 50
180.0
 51
270.0
  0
LINE
  5
17DD8
  8
1-後柱カバ-P
  6
1PL-M
 62
     6
 10
19469.25227430118
 20
19329.205421421961
 30
0.0
 11
19490.852274301189
 21
19329.205421421961
 31
0.0
  0
LINE
  5
17DD9
  8
1-後柱カバ-P
 10
19482.25227430118
 20
19330.95542142195
 30
0.0
 11
19482.25227430118
 21
19322.955421421961
 31
0.0
  0
LINE
  5
17DDA
  8
1-後柱カバ-P
  6
HIDE-M
 62
     6
 10
19411.452274301158
 20
19325.205421421961
 30
0.0
 11
19399.852274301182
 21
19325.205421421961
 31
0.0
  0
LINE
  5
17DDB
  8
1-後柱カバ-P
  6
HIDE-M
 62
     6
 10
19411.452274301158
 20
19326.205421421961
 30
0.0
 11
19399.852274301182
 21
19326.205421421961
 31
0.0
  0
LINE
  5
17DDC
  8
1-後柱カバ-P
  6
HIDE-M
 62
     6
 10
19474.25227430118
 20
19325.205421421961
 30
0.0
 11
19485.852274301182
 21
19325.205421421961
 31
0.0
  0
LINE
  5
17DDD
  8
1-後柱カバ-P
  6
HIDE-M
 62
     6
 10
19474.25227430118
 20
19326.205421421961
 30
0.0
 11
19485.852274301182
 21
19326.205421421961
 31
0.0
  0
LINE
  5
17DDE
  8
1-中柱P
 10
19406.952274301191
 20
16725.45542142195
 30
0.0
 11
19478.75227430119
 21
16725.45542142195
 31
0.0
  0
ARC
  5
17DDF
  8
1-中柱P
 10
19406.952274301191
 20
16730.45542142195
 30
0.0
 40
5.0
 50
180.0
 51
270.0
  0
ARC
  5
17DE0
  8
1-中柱P
 10
19478.75227430119
 20
16730.45542142195
 30
0.0
 40
5.0
 50
270.0
 51
0.0
  0
LINE
  5
17DE1
  8
1-中柱P
 10
19406.952274301191
 20
16723.855421421958
 30
0.0
 11
19478.75227430119
 21
16723.855421421958
 31
0.0
  0
ARC
  5
17DE2
  8
1-中柱P
 10
19406.952274301191
 20
16730.45542142195
 30
0.0
 40
6.599999999999997
 50
180.0
 51
270.0
  0
LINE
  5
17DE3
  8
1-中柱P
 10
19485.352274301182
 20
16789.75542142196
 30
0.0
 11
19485.352274301182
 21
16730.45542142195
 31
0.0
  0
ARC
  5
17DE4
  8
1-中柱P
 10
19478.75227430119
 20
16730.45542142195
 30
0.0
 40
6.599999999999997
 50
270.0
 51
0.0
  0
LINE
  5
17DE5
  8
1-中柱P
 10
19483.75227430119
 20
16730.45542142195
 30
0.0
 11
19483.75227430119
 21
16789.75542142196
 31
0.0
  0
ARC
  5
17DE6
  8
1-中柱P
 10
19478.75227430119
 20
16789.75542142196
 30
0.0
 40
5.0
 50
0.0
 51
90.0
  0
LINE
  5
17DE7
  8
1-中柱P
 10
19400.352274301182
 20
16789.75542142196
 30
0.0
 11
19400.352274301182
 21
16730.45542142195
 31
0.0
  0
LINE
  5
17DE8
  8
1-中柱P
 10
19401.952274301191
 20
16730.45542142195
 30
0.0
 11
19401.952274301191
 21
16789.75542142196
 31
0.0
  0
LINE
  5
17DE9
  8
1-中柱P
 10
19406.952274301191
 20
16796.355421421958
 30
0.0
 11
19415.352274301182
 21
16796.355421421958
 31
0.0
  0
ARC
  5
17DEA
  8
1-中柱P
 10
19406.952274301191
 20
16789.75542142196
 30
0.0
 40
6.599999999999997
 50
90.0
 51
180.0
  0
LINE
  5
17DEB
  8
1-中柱P
 10
19406.952274301191
 20
16794.75542142196
 30
0.0
 11
19415.352274301182
 21
16794.75542142196
 31
0.0
  0
ARC
  5
17DEC
  8
1-中柱P
 10
19415.352274301182
 20
16801.355421421951
 30
0.0
 40
6.599999999999997
 50
270.0
 51
0.0
  0
ARC
  5
17DED
  8
1-中柱P
 10
19406.952274301191
 20
16789.75542142196
 30
0.0
 40
5.0
 50
90.0
 51
180.0
  0
LINE
  5
17DEE
  8
1-中柱P
 10
19420.352274301182
 20
16801.355421421951
 30
0.0
 11
19420.352274301182
 21
16860.755421421949
 31
0.0
  0
ARC
  5
17DEF
  8
1-中柱P
 10
19415.352274301182
 20
16801.355421421951
 30
0.0
 40
5.0
 50
270.0
 51
0.0
  0
LINE
  5
17DF0
  8
1-中柱P
 10
19421.952274301191
 20
16801.355421421951
 30
0.0
 11
19421.952274301191
 21
16860.755421421949
 31
0.0
  0
LINE
  5
17DF1
  8
1-中柱P
 10
19426.952274301191
 20
16867.355421421951
 30
0.0
 11
19460.352274301189
 21
16867.355421421951
 31
0.0
  0
ARC
  5
17DF2
  8
1-中柱P
 10
19426.952274301191
 20
16860.755421421949
 30
0.0
 40
6.599999999999997
 50
90.0
 51
180.0
  0
LINE
  5
17DF3
  8
1-中柱P
 10
19426.952274301191
 20
16865.75542142196
 30
0.0
 11
19460.352274301189
 21
16865.75542142196
 31
0.0
  0
ARC
  5
17DF4
  8
1-中柱P
 10
19426.952274301191
 20
16860.755421421949
 30
0.0
 40
5.0
 50
90.0
 51
180.0
  0
LINE
  5
17DF5
  8
1-中柱P
 10
19460.352274301189
 20
16865.75542142196
 30
0.0
 11
19460.352274301189
 21
16867.355421421951
 31
0.0
  0
LINE
  5
17DF6
  8
1-中柱P
 10
19478.75227430119
 20
16796.355421421958
 30
0.0
 11
19470.352274301182
 21
16796.355421421958
 31
0.0
  0
ARC
  5
17DF7
  8
1-中柱P
 10
19478.75227430119
 20
16789.75542142196
 30
0.0
 40
6.599999999999997
 50
0.0
 51
90.0
  0
ARC
  5
17DF8
  8
1-中柱P
 10
19470.352274301182
 20
16801.355421421951
 30
0.0
 40
5.0
 50
180.0
 51
270.0
  0
LINE
  5
17DF9
  8
1-中柱P
 10
19470.352274301182
 20
16794.75542142196
 30
0.0
 11
19478.75227430119
 21
16794.75542142196
 31
0.0
  0
ARC
  5
17DFA
  8
1-中柱P
 10
19470.352274301182
 20
16801.355421421951
 30
0.0
 40
6.599999999999997
 50
180.0
 51
270.0
  0
ARC
  5
17DFB
  8
1-中柱P
  6
HIDE-M
 62
     6
 10
19436.25227430119
 20
16864.755421421949
 30
0.0
 40
2.6000000000000001
 50
0.0
 51
90.0
  0
LINE
  5
17DFC
  8
1-中柱P
  6
HIDE-M
 62
     6
 10
19447.852274301182
 20
16866.804811575152
 30
0.0
 11
19447.852274301182
 21
16863.155421421961
 31
0.0
  0
LINE
  5
17DFD
  8
1-中柱P
  6
HIDE-M
 62
     6
 10
19437.852274301182
 20
16866.804811575152
 30
0.0
 11
19437.852274301182
 21
16863.155421421961
 31
0.0
  0
LINE
  5
17DFE
  8
1-中柱P
  6
1PL-M
 62
     6
 10
19442.852274301182
 20
16872.355421421951
 30
0.0
 11
19442.852274301182
 21
16858.155421421961
 31
0.0
  0
ARC
  5
17DFF
  8
1-中柱P
  6
HIDE-M
 62
     6
 10
19449.452274301191
 20
16864.755421421949
 30
0.0
 40
2.6000000000000001
 50
90.0
 51
180.0
  0
LINE
  5
17E00
  8
1-中柱P
  6
HIDE-M
 62
     6
 10
19438.852274301182
 20
16864.755421421949
 30
0.0
 11
19438.852274301182
 21
16863.155421421961
 31
0.0
  0
LINE
  5
17E01
  8
1-中柱P
  6
HIDE-M
 62
     6
 10
19446.852274301182
 20
16864.755421421949
 30
0.0
 11
19446.852274301182
 21
16863.155421421961
 31
0.0
  0
LINE
  5
17E02
  8
1-中柱P
 10
19463.75227430119
 20
16801.355421421951
 30
0.0
 11
19463.75227430119
 21
16811.355421421969
 31
0.0
  0
LINE
  5
17E03
  8
1-中柱P
 10
19465.352274301182
 20
16801.355421421951
 30
0.0
 11
19465.352274301182
 21
16811.355421421969
 31
0.0
  0
LINE
  5
17E04
  8
1-中柱P
 10
19463.75227430119
 20
16811.355421421969
 30
0.0
 11
19465.352274301182
 21
16811.355421421969
 31
0.0
  0
LINE
  5
17E05
  8
1-中柱P
  6
1PL-M
 62
     6
 10
19415.352274301182
 20
16832.355421421951
 30
0.0
 11
19429.552274301161
 21
16832.355421421951
 31
0.0
  0
LINE
  5
17E06
  8
1-中柱P
  6
HIDE-M
 62
     6
 10
19411.452274301191
 20
16775.355421421951
 30
0.0
 11
19399.852274301182
 21
16775.355421421951
 31
0.0
  0
LINE
  5
17E07
  8
1-中柱P
  6
HIDE-M
 62
     6
 10
19411.452274301191
 20
16767.355421421951
 30
0.0
 11
19399.852274301182
 21
16767.355421421951
 31
0.0
  0
LINE
  5
17E08
  8
1-中柱P
  6
HIDE-M
 62
     6
 10
19411.452274301191
 20
16774.355421421958
 30
0.0
 11
19399.852274301182
 21
16774.355421421958
 31
0.0
  0
LINE
  5
17E09
  8
1-中柱P
  6
HIDE-M
 62
     6
 10
19411.452274301191
 20
16768.355421421951
 30
0.0
 11
19399.852274301182
 21
16768.355421421951
 31
0.0
  0
LINE
  5
17E0A
  8
1-中柱P
 10
19410.452274301191
 20
16765.855421421958
 30
0.0
 11
19403.452274301191
 21
16765.855421421958
 31
0.0
  0
LINE
  5
17E0B
  8
1-中柱P
 10
19403.452274301191
 20
16776.855421421951
 30
0.0
 11
19410.452274301191
 21
16776.855421421951
 31
0.0
  0
LINE
  5
17E0C
  8
1-中柱P
 10
19403.452274301191
 20
16777.605421421951
 30
0.0
 11
19403.452274301191
 21
16765.105421421951
 31
0.0
  0
LINE
  5
17E0D
  8
1-中柱P
 10
19399.852274301182
 20
16777.355421421958
 30
0.0
 11
19399.852274301182
 21
16765.355421421951
 31
0.0
  0
LINE
  5
17E0E
  8
1-中柱P
  6
HIDE-M
 62
     6
 10
19401.952274301191
 20
16765.855421421958
 30
0.0
 11
19400.352274301182
 21
16765.855421421958
 31
0.0
  0
LINE
  5
17E0F
  8
1-中柱P
 10
19399.852274301182
 20
16765.355421421951
 30
0.0
 11
19400.352274301182
 21
16765.855421421958
 31
0.0
  0
ARC
  5
17E10
  8
1-中柱P
 10
19402.702274301191
 20
16765.105421421951
 30
0.0
 40
0.75
 50
180.0
 51
0.0
  0
LINE
  5
17E11
  8
1-中柱P
  6
HIDE-M
 62
     6
 10
19400.352274301182
 20
16776.855421421951
 30
0.0
 11
19401.952274301191
 21
16776.855421421951
 31
0.0
  0
LINE
  5
17E12
  8
1-中柱P
 10
19399.852274301182
 20
16777.355421421958
 30
0.0
 11
19400.352274301182
 21
16776.855421421951
 31
0.0
  0
ARC
  5
17E13
  8
1-中柱P
 10
19402.702274301191
 20
16777.605421421951
 30
0.0
 40
0.75
 50
0.0
 51
180.0
  0
LINE
  5
17E14
  8
1-中柱P
 10
19411.452274301191
 20
16775.855421421951
 30
0.0
 11
19411.452274301191
 21
16766.855421421958
 31
0.0
  0
ARC
  5
17E15
  8
1-中柱P
 10
19410.452274301191
 20
16766.855421421958
 30
0.0
 40
1.0
 50
270.0
 51
0.0
  0
ARC
  5
17E16
  8
1-中柱P
 10
19410.452274301191
 20
16775.855421421951
 30
0.0
 40
1.0
 50
0.0
 51
90.0
  0
LINE
  5
17E17
  8
1-中柱P
  6
1PL-M
 62
     6
 10
19416.452274301191
 20
16771.355421421951
 30
0.0
 11
19394.852274301182
 21
16771.355421421951
 31
0.0
  0
LINE
  5
17E18
  8
1-中柱P
 10
19410.452274301191
 20
16755.855421421951
 30
0.0
 11
19403.452274301191
 21
16755.855421421951
 31
0.0
  0
LINE
  5
17E19
  8
1-中柱P
 10
19399.852274301182
 20
16763.355421421951
 30
0.0
 11
19399.852274301182
 21
16755.355421421958
 31
0.0
  0
LINE
  5
17E1A
  8
1-中柱P
  6
HIDE-M
 62
     6
 10
19401.952274301191
 20
16755.855421421951
 30
0.0
 11
19400.352274301182
 21
16755.855421421951
 31
0.0
  0
LINE
  5
17E1B
  8
1-中柱P
 10
19399.852274301182
 20
16755.355421421958
 30
0.0
 11
19400.352274301182
 21
16755.855421421951
 31
0.0
  0
ARC
  5
17E1C
  8
1-中柱P
 10
19402.702274301191
 20
16755.105421421951
 30
0.0
 40
0.75
 50
180.0
 51
0.0
  0
LINE
  5
17E1D
  8
1-中柱P
 10
19411.452274301191
 20
16764.855421421958
 30
0.0
 11
19411.452274301191
 21
16756.855421421951
 31
0.0
  0
ARC
  5
17E1E
  8
1-中柱P
 10
19410.452274301191
 20
16756.855421421951
 30
0.0
 40
1.0
 50
270.0
 51
0.0
  0
LINE
  5
17E1F
  8
1-中柱P
  6
1PL-M
 62
     6
 10
19416.452274301191
 20
16761.355421421951
 30
0.0
 11
19394.852274301182
 21
16761.355421421951
 31
0.0
  0
LINE
  5
17E20
  8
1-中柱P
 10
19403.452274301191
 20
16763.105421421951
 30
0.0
 11
19403.452274301191
 21
16755.105421421951
 31
0.0
  0
LINE
  5
17E21
  8
1-中柱P
  6
HIDE-M
 62
     6
 10
19411.452274301191
 20
16757.355421421951
 30
0.0
 11
19399.852274301182
 21
16757.355421421951
 31
0.0
  0
LINE
  5
17E22
  8
1-中柱P
  6
HIDE-M
 62
     6
 10
19411.452274301191
 20
16758.355421421958
 30
0.0
 11
19399.852274301182
 21
16758.355421421958
 31
0.0
  0
LINE
  5
17E23
  8
1-中柱P
  6
HIDE-M
 62
     6
 10
19474.25227430119
 20
16775.355421421951
 30
0.0
 11
19485.852274301182
 21
16775.355421421951
 31
0.0
  0
LINE
  5
17E24
  8
1-中柱P
  6
HIDE-M
 62
     6
 10
19474.25227430119
 20
16767.355421421951
 30
0.0
 11
19485.852274301182
 21
16767.355421421951
 31
0.0
  0
LINE
  5
17E25
  8
1-中柱P
  6
HIDE-M
 62
     6
 10
19474.25227430119
 20
16774.355421421958
 30
0.0
 11
19485.852274301182
 21
16774.355421421958
 31
0.0
  0
LINE
  5
17E26
  8
1-中柱P
  6
HIDE-M
 62
     6
 10
19474.25227430119
 20
16768.355421421951
 30
0.0
 11
19485.852274301182
 21
16768.355421421951
 31
0.0
  0
LINE
  5
17E27
  8
1-中柱P
 10
19475.25227430119
 20
16765.855421421958
 30
0.0
 11
19482.25227430119
 21
16765.855421421958
 31
0.0
  0
LINE
  5
17E28
  8
1-中柱P
 10
19482.25227430119
 20
16776.855421421951
 30
0.0
 11
19475.25227430119
 21
16776.855421421951
 31
0.0
  0
LINE
  5
17E29
  8
1-中柱P
 10
19482.25227430119
 20
16777.605421421951
 30
0.0
 11
19482.25227430119
 21
16765.105421421951
 31
0.0
  0
LINE
  5
17E2A
  8
1-中柱P
 10
19485.852274301182
 20
16777.355421421958
 30
0.0
 11
19485.852274301182
 21
16765.355421421951
 31
0.0
  0
LINE
  5
17E2B
  8
1-中柱P
  6
HIDE-M
 62
     6
 10
19483.75227430119
 20
16765.855421421958
 30
0.0
 11
19485.352274301182
 21
16765.855421421958
 31
0.0
  0
LINE
  5
17E2C
  8
1-中柱P
 10
19485.852274301182
 20
16765.355421421951
 30
0.0
 11
19485.352274301182
 21
16765.855421421958
 31
0.0
  0
ARC
  5
17E2D
  8
1-中柱P
 10
19483.00227430119
 20
16765.105421421951
 30
0.0
 40
0.75
 50
180.0
 51
0.0
  0
LINE
  5
17E2E
  8
1-中柱P
  6
HIDE-M
 62
     6
 10
19485.352274301182
 20
16776.855421421951
 30
0.0
 11
19483.75227430119
 21
16776.855421421951
 31
0.0
  0
LINE
  5
17E2F
  8
1-中柱P
 10
19485.852274301182
 20
16777.355421421958
 30
0.0
 11
19485.352274301182
 21
16776.855421421951
 31
0.0
  0
ARC
  5
17E30
  8
1-中柱P
 10
19483.00227430119
 20
16777.605421421951
 30
0.0
 40
0.75
 50
0.0
 51
180.0
  0
LINE
  5
17E31
  8
1-中柱P
 10
19474.25227430119
 20
16775.855421421951
 30
0.0
 11
19474.25227430119
 21
16766.855421421958
 31
0.0
  0
ARC
  5
17E32
  8
1-中柱P
 10
19475.25227430119
 20
16766.855421421958
 30
0.0
 40
1.0
 50
180.0
 51
270.0
  0
ARC
  5
17E33
  8
1-中柱P
 10
19475.25227430119
 20
16775.855421421951
 30
0.0
 40
1.0
 50
90.0
 51
180.0
  0
LINE
  5
17E34
  8
1-中柱P
  6
1PL-M
 62
     6
 10
19469.25227430119
 20
16771.355421421951
 30
0.0
 11
19490.852274301189
 21
16771.355421421951
 31
0.0
  0
LINE
  5
17E35
  8
1-中柱P
 10
19475.25227430119
 20
16755.855421421951
 30
0.0
 11
19482.25227430119
 21
16755.855421421951
 31
0.0
  0
LINE
  5
17E36
  8
1-中柱P
 10
19485.852274301182
 20
16763.355421421951
 30
0.0
 11
19485.852274301182
 21
16755.355421421958
 31
0.0
  0
LINE
  5
17E37
  8
1-中柱P
  6
HIDE-M
 62
     6
 10
19483.75227430119
 20
16755.855421421951
 30
0.0
 11
19485.352274301182
 21
16755.855421421951
 31
0.0
  0
LINE
  5
17E38
  8
1-中柱P
 10
19485.852274301182
 20
16755.355421421958
 30
0.0
 11
19485.352274301182
 21
16755.855421421951
 31
0.0
  0
ARC
  5
17E39
  8
1-中柱P
 10
19483.00227430119
 20
16755.105421421951
 30
0.0
 40
0.75
 50
180.0
 51
0.0
  0
LINE
  5
17E3A
  8
1-中柱P
 10
19474.25227430119
 20
16764.855421421958
 30
0.0
 11
19474.25227430119
 21
16756.855421421951
 31
0.0
  0
ARC
  5
17E3B
  8
1-中柱P
 10
19475.25227430119
 20
16756.855421421951
 30
0.0
 40
1.0
 50
180.0
 51
270.0
  0
LINE
  5
17E3C
  8
1-中柱P
  6
1PL-M
 62
     6
 10
19469.25227430119
 20
16761.355421421951
 30
0.0
 11
19490.852274301189
 21
16761.355421421951
 31
0.0
  0
LINE
  5
17E3D
  8
1-中柱P
 10
19482.25227430119
 20
16763.105421421951
 30
0.0
 11
19482.25227430119
 21
16755.105421421951
 31
0.0
  0
LINE
  5
17E3E
  8
1-中柱P
  6
HIDE-M
 62
     6
 10
19474.25227430119
 20
16757.355421421951
 30
0.0
 11
19485.852274301182
 21
16757.355421421951
 31
0.0
  0
LINE
  5
17E3F
  8
1-中柱P
  6
HIDE-M
 62
     6
 10
19474.25227430119
 20
16758.355421421958
 30
0.0
 11
19485.852274301182
 21
16758.355421421958
 31
0.0
  0
LINE
  5
17E40
  8
1-中柱カバ-P
 10
19485.352274301182
 20
16803.055421421948
 30
0.0
 11
19485.352274301182
 21
16862.355421421951
 31
0.0
  0
ARC
  5
17E41
  8
1-中柱カバ-P
 10
19478.75227430119
 20
16862.355421421951
 30
0.0
 40
6.599999999999997
 50
0.0
 51
90.0
  0
LINE
  5
17E42
  8
1-中柱カバ-P
 10
19483.75227430119
 20
16803.055421421948
 30
0.0
 11
19483.75227430119
 21
16862.355421421951
 31
0.0
  0
ARC
  5
17E43
  8
1-中柱カバ-P
 10
19478.75227430119
 20
16803.055421421948
 30
0.0
 40
5.0
 50
270.0
 51
0.0
  0
LINE
  5
17E44
  8
1-中柱カバ-P
 10
19478.75227430119
 20
16868.955421421961
 30
0.0
 11
19406.952274301191
 21
16868.955421421961
 31
0.0
  0
ARC
  5
17E45
  8
1-中柱カバ-P
 10
19406.952274301191
 20
16862.355421421951
 30
0.0
 40
6.599999999999997
 50
90.0
 51
180.0
  0
LINE
  5
17E46
  8
1-中柱カバ-P
 10
19478.75227430119
 20
16867.355421421951
 30
0.0
 11
19406.952274301191
 21
16867.355421421951
 31
0.0
  0
ARC
  5
17E47
  8
1-中柱カバ-P
 10
19406.952274301191
 20
16862.355421421951
 30
0.0
 40
5.0
 50
90.0
 51
180.0
  0
ARC
  5
17E48
  8
1-中柱カバ-P
 10
19478.75227430119
 20
16862.355421421951
 30
0.0
 40
5.0
 50
0.0
 51
90.0
  0
LINE
  5
17E49
  8
1-中柱カバ-P
 10
19400.352274301182
 20
16862.355421421951
 30
0.0
 11
19400.352274301182
 21
16803.055421421948
 31
0.0
  0
LINE
  5
17E4A
  8
1-中柱カバ-P
 10
19401.952274301191
 20
16862.355421421951
 30
0.0
 11
19401.952274301191
 21
16803.055421421948
 31
0.0
  0
ARC
  5
17E4B
  8
1-中柱カバ-P
 10
19406.952274301191
 20
16803.055421421948
 30
0.0
 40
5.0
 50
180.0
 51
270.0
  0
LINE
  5
17E4C
  8
1-中柱カバ-P
  6
1PL-M
 62
     6
 10
19442.852274301182
 20
16861.45542142195
 30
0.0
 11
19442.852274301182
 21
16874.455421421961
 31
0.0
  0
LINE
  5
17E4D
  8
1-中柱カバ-P
  6
HIDE-M
 62
     6
 10
19449.852274301182
 20
16868.955421421961
 30
0.0
 11
19449.852274301182
 21
16867.355421421951
 31
0.0
  0
LINE
  5
17E4E
  8
1-中柱カバ-P
  6
HIDE-M
 62
     6
 10
19435.852274301182
 20
16868.955421421961
 30
0.0
 11
19435.852274301182
 21
16867.355421421951
 31
0.0
  0
ARC
  5
17E4F
  8
1-中柱カバ-P
 10
19478.75227430119
 20
16803.055421421948
 30
0.0
 40
6.599999999999997
 50
270.0
 51
0.0
  0
ARC
  5
17E50
  8
1-中柱カバ-P
 10
19406.952274301191
 20
16803.055421421948
 30
0.0
 40
6.599999999999997
 50
180.0
 51
270.0
  0
LINE
  5
17E51
  8
1-中柱カバ-P
 10
19415.352274301182
 20
16796.455421421961
 30
0.0
 11
19406.952274301191
 21
16796.455421421961
 31
0.0
  0
LINE
  5
17E52
  8
1-中柱カバ-P
 10
19470.352274301182
 20
16796.455421421961
 30
0.0
 11
19478.75227430119
 21
16796.455421421961
 31
0.0
  0
LINE
  5
17E53
  8
1-中柱カバ-P
 10
19415.352274301182
 20
16798.055421421959
 30
0.0
 11
19406.952274301191
 21
16798.055421421959
 31
0.0
  0
LINE
  5
17E54
  8
1-中柱カバ-P
 10
19470.352274301182
 20
16798.055421421959
 30
0.0
 11
19478.75227430119
 21
16798.055421421959
 31
0.0
  0
LINE
  5
17E55
  8
1-中柱カバ-P
 10
19470.352274301182
 20
16798.055421421959
 30
0.0
 11
19470.352274301182
 21
16796.455421421961
 31
0.0
  0
LINE
  5
17E56
  8
1-中柱カバ-P
 10
19415.352274301182
 20
16796.455421421961
 30
0.0
 11
19415.352274301182
 21
16798.055421421959
 31
0.0
  0
LINE
  5
17E57
  8
1-中柱カバ-P
  6
HIDE-M
 62
     6
 10
19411.452274301191
 20
16817.455421421961
 30
0.0
 11
19399.852274301182
 21
16817.455421421961
 31
0.0
  0
LINE
  5
17E58
  8
1-中柱カバ-P
  6
HIDE-M
 62
     6
 10
19411.452274301191
 20
16825.455421421961
 30
0.0
 11
19399.852274301182
 21
16825.455421421961
 31
0.0
  0
LINE
  5
17E59
  8
1-中柱カバ-P
  6
HIDE-M
 62
     6
 10
19411.452274301191
 20
16818.455421421961
 30
0.0
 11
19399.852274301182
 21
16818.455421421961
 31
0.0
  0
LINE
  5
17E5A
  8
1-中柱カバ-P
  6
HIDE-M
 62
     6
 10
19411.452274301191
 20
16824.45542142195
 30
0.0
 11
19399.852274301182
 21
16824.45542142195
 31
0.0
  0
LINE
  5
17E5B
  8
1-中柱カバ-P
 10
19410.452274301191
 20
16826.955421421961
 30
0.0
 11
19403.452274301191
 21
16826.955421421961
 31
0.0
  0
LINE
  5
17E5C
  8
1-中柱カバ-P
 10
19403.452274301191
 20
16815.95542142195
 30
0.0
 11
19410.452274301191
 21
16815.95542142195
 31
0.0
  0
LINE
  5
17E5D
  8
1-中柱カバ-P
 10
19403.452274301191
 20
16815.20542142195
 30
0.0
 11
19403.452274301191
 21
16827.705421421939
 31
0.0
  0
LINE
  5
17E5E
  8
1-中柱カバ-P
 10
19399.852274301182
 20
16815.455421421961
 30
0.0
 11
19399.852274301182
 21
16827.45542142195
 31
0.0
  0
LINE
  5
17E5F
  8
1-中柱カバ-P
  6
HIDE-M
 62
     6
 10
19401.952274301191
 20
16826.955421421961
 30
0.0
 11
19400.352274301182
 21
16826.955421421961
 31
0.0
  0
LINE
  5
17E60
  8
1-中柱カバ-P
 10
19399.852274301182
 20
16827.45542142195
 30
0.0
 11
19400.352274301182
 21
16826.955421421961
 31
0.0
  0
ARC
  5
17E61
  8
1-中柱カバ-P
 10
19402.702274301191
 20
16827.705421421939
 30
0.0
 40
0.75
 50
0.0
 51
180.0
  0
LINE
  5
17E62
  8
1-中柱カバ-P
  6
HIDE-M
 62
     6
 10
19400.352274301182
 20
16815.95542142195
 30
0.0
 11
19401.952274301191
 21
16815.95542142195
 31
0.0
  0
LINE
  5
17E63
  8
1-中柱カバ-P
 10
19399.852274301182
 20
16815.455421421961
 30
0.0
 11
19400.352274301182
 21
16815.95542142195
 31
0.0
  0
ARC
  5
17E64
  8
1-中柱カバ-P
 10
19402.702274301191
 20
16815.20542142195
 30
0.0
 40
0.75
 50
180.0
 51
0.0
  0
LINE
  5
17E65
  8
1-中柱カバ-P
 10
19411.452274301191
 20
16816.95542142195
 30
0.0
 11
19411.452274301191
 21
16825.955421421961
 31
0.0
  0
ARC
  5
17E66
  8
1-中柱カバ-P
 10
19410.452274301191
 20
16825.955421421961
 30
0.0
 40
1.0
 50
0.0
 51
90.0
  0
ARC
  5
17E67
  8
1-中柱カバ-P
 10
19410.452274301191
 20
16816.95542142195
 30
0.0
 40
1.0
 50
270.0
 51
0.0
  0
LINE
  5
17E68
  8
1-中柱カバ-P
  6
1PL-M
 62
     6
 10
19416.452274301191
 20
16821.455421421961
 30
0.0
 11
19394.852274301182
 21
16821.455421421961
 31
0.0
  0
LINE
  5
17E69
  8
1-中柱カバ-P
 10
19410.452274301191
 20
16836.955421421961
 30
0.0
 11
19403.452274301191
 21
16836.955421421961
 31
0.0
  0
LINE
  5
17E6A
  8
1-中柱カバ-P
 10
19399.852274301182
 20
16829.45542142195
 30
0.0
 11
19399.852274301182
 21
16837.455421421961
 31
0.0
  0
LINE
  5
17E6B
  8
1-中柱カバ-P
  6
HIDE-M
 62
     6
 10
19401.952274301191
 20
16836.955421421961
 30
0.0
 11
19400.352274301182
 21
16836.955421421961
 31
0.0
  0
LINE
  5
17E6C
  8
1-中柱カバ-P
 10
19399.852274301182
 20
16837.455421421961
 30
0.0
 11
19400.352274301182
 21
16836.955421421961
 31
0.0
  0
ARC
  5
17E6D
  8
1-中柱カバ-P
 10
19402.702274301191
 20
16837.705421421961
 30
0.0
 40
0.75
 50
0.0
 51
180.0
  0
LINE
  5
17E6E
  8
1-中柱カバ-P
 10
19411.452274301191
 20
16827.955421421961
 30
0.0
 11
19411.452274301191
 21
16835.95542142195
 31
0.0
  0
ARC
  5
17E6F
  8
1-中柱カバ-P
 10
19410.452274301191
 20
16835.95542142195
 30
0.0
 40
1.0
 50
0.0
 51
90.0
  0
LINE
  5
17E70
  8
1-中柱カバ-P
  6
1PL-M
 62
     6
 10
19416.452274301191
 20
16831.455421421939
 30
0.0
 11
19394.852274301182
 21
16831.455421421939
 31
0.0
  0
LINE
  5
17E71
  8
1-中柱カバ-P
 10
19403.452274301191
 20
16829.705421421961
 30
0.0
 11
19403.452274301191
 21
16837.705421421961
 31
0.0
  0
LINE
  5
17E72
  8
1-中柱カバ-P
  6
HIDE-M
 62
     6
 10
19474.25227430119
 20
16817.455421421961
 30
0.0
 11
19485.852274301182
 21
16817.455421421961
 31
0.0
  0
LINE
  5
17E73
  8
1-中柱カバ-P
  6
HIDE-M
 62
     6
 10
19474.25227430119
 20
16825.455421421961
 30
0.0
 11
19485.852274301182
 21
16825.455421421961
 31
0.0
  0
LINE
  5
17E74
  8
1-中柱カバ-P
  6
HIDE-M
 62
     6
 10
19474.25227430119
 20
16818.455421421961
 30
0.0
 11
19485.852274301182
 21
16818.455421421961
 31
0.0
  0
LINE
  5
17E75
  8
1-中柱カバ-P
  6
HIDE-M
 62
     6
 10
19474.25227430119
 20
16824.45542142195
 30
0.0
 11
19485.852274301182
 21
16824.45542142195
 31
0.0
  0
LINE
  5
17E76
  8
1-中柱カバ-P
 10
19475.25227430119
 20
16826.955421421961
 30
0.0
 11
19482.25227430119
 21
16826.955421421961
 31
0.0
  0
LINE
  5
17E77
  8
1-中柱カバ-P
 10
19482.25227430119
 20
16815.95542142195
 30
0.0
 11
19475.25227430119
 21
16815.95542142195
 31
0.0
  0
LINE
  5
17E78
  8
1-中柱カバ-P
 10
19482.25227430119
 20
16815.20542142195
 30
0.0
 11
19482.25227430119
 21
16827.705421421939
 31
0.0
  0
LINE
  5
17E79
  8
1-中柱カバ-P
 10
19485.852274301182
 20
16815.455421421961
 30
0.0
 11
19485.852274301182
 21
16827.45542142195
 31
0.0
  0
LINE
  5
17E7A
  8
1-中柱カバ-P
  6
HIDE-M
 62
     6
 10
19483.75227430119
 20
16826.955421421961
 30
0.0
 11
19485.352274301182
 21
16826.955421421961
 31
0.0
  0
LINE
  5
17E7B
  8
1-中柱カバ-P
 10
19485.852274301182
 20
16827.45542142195
 30
0.0
 11
19485.352274301182
 21
16826.955421421961
 31
0.0
  0
ARC
  5
17E7C
  8
1-中柱カバ-P
 10
19483.00227430119
 20
16827.705421421939
 30
0.0
 40
0.75
 50
0.0
 51
180.0
  0
LINE
  5
17E7D
  8
1-中柱カバ-P
  6
HIDE-M
 62
     6
 10
19485.352274301182
 20
16815.95542142195
 30
0.0
 11
19483.75227430119
 21
16815.95542142195
 31
0.0
  0
LINE
  5
17E7E
  8
1-中柱カバ-P
 10
19485.852274301182
 20
16815.455421421961
 30
0.0
 11
19485.352274301182
 21
16815.95542142195
 31
0.0
  0
ARC
  5
17E7F
  8
1-中柱カバ-P
 10
19483.00227430119
 20
16815.20542142195
 30
0.0
 40
0.75
 50
180.0
 51
0.0
  0
LINE
  5
17E80
  8
1-中柱カバ-P
 10
19474.25227430119
 20
16816.95542142195
 30
0.0
 11
19474.25227430119
 21
16825.955421421961
 31
0.0
  0
ARC
  5
17E81
  8
1-中柱カバ-P
 10
19475.25227430119
 20
16825.955421421961
 30
0.0
 40
1.0
 50
90.0
 51
180.0
  0
ARC
  5
17E82
  8
1-中柱カバ-P
 10
19475.25227430119
 20
16816.95542142195
 30
0.0
 40
1.0
 50
180.0
 51
270.0
  0
LINE
  5
17E83
  8
1-中柱カバ-P
  6
1PL-M
 62
     6
 10
19469.25227430119
 20
16821.455421421961
 30
0.0
 11
19490.852274301189
 21
16821.455421421961
 31
0.0
  0
LINE
  5
17E84
  8
1-中柱カバ-P
 10
19475.25227430119
 20
16836.955421421961
 30
0.0
 11
19482.25227430119
 21
16836.955421421961
 31
0.0
  0
LINE
  5
17E85
  8
1-中柱カバ-P
 10
19485.852274301182
 20
16829.45542142195
 30
0.0
 11
19485.852274301182
 21
16837.455421421961
 31
0.0
  0
LINE
  5
17E86
  8
1-中柱カバ-P
  6
HIDE-M
 62
     6
 10
19483.75227430119
 20
16836.955421421961
 30
0.0
 11
19485.352274301182
 21
16836.955421421961
 31
0.0
  0
LINE
  5
17E87
  8
1-中柱カバ-P
 10
19485.852274301182
 20
16837.455421421961
 30
0.0
 11
19485.352274301182
 21
16836.955421421961
 31
0.0
  0
ARC
  5
17E88
  8
1-中柱カバ-P
 10
19483.00227430119
 20
16837.705421421961
 30
0.0
 40
0.75
 50
0.0
 51
180.0
  0
LINE
  5
17E89
  8
1-中柱カバ-P
 10
19474.25227430119
 20
16827.955421421961
 30
0.0
 11
19474.25227430119
 21
16835.95542142195
 31
0.0
  0
ARC
  5
17E8A
  8
1-中柱カバ-P
 10
19475.25227430119
 20
16835.95542142195
 30
0.0
 40
1.0
 50
90.0
 51
180.0
  0
LINE
  5
17E8B
  8
1-中柱カバ-P
  6
1PL-M
 62
     6
 10
19469.25227430119
 20
16831.455421421939
 30
0.0
 11
19490.852274301189
 21
16831.455421421939
 31
0.0
  0
LINE
  5
17E8C
  8
1-中柱カバ-P
 10
19482.25227430119
 20
16829.705421421961
 30
0.0
 11
19482.25227430119
 21
16837.705421421961
 31
0.0
  0
LINE
  5
17E8D
  8
1-中柱カバ-P
  6
HIDE-M
 62
     6
 10
19411.452274301191
 20
16835.455421421961
 30
0.0
 11
19399.852274301182
 21
16835.455421421961
 31
0.0
  0
LINE
  5
17E8E
  8
1-中柱カバ-P
  6
HIDE-M
 62
     6
 10
19411.452274301191
 20
16834.455421421961
 30
0.0
 11
19399.852274301182
 21
16834.455421421961
 31
0.0
  0
LINE
  5
17E8F
  8
1-中柱カバ-P
  6
HIDE-M
 62
     6
 10
19474.25227430119
 20
16835.455421421961
 30
0.0
 11
19485.852274301182
 21
16835.455421421961
 31
0.0
  0
LINE
  5
17E90
  8
1-中柱カバ-P
  6
HIDE-M
 62
     6
 10
19474.25227430119
 20
16834.455421421961
 30
0.0
 11
19485.852274301182
 21
16834.455421421961
 31
0.0
  0
ARC
  5
17E91
  8
1-前柱P
  6
HIDE-M
 62
     6
 10
19446.452274301191
 20
13946.85542142196
 30
0.0
 40
2.6000000000000001
 50
90.0
 51
180.0
  0
LINE
  5
17E92
  8
1-前柱P
  6
HIDE-M
 62
     6
 10
19434.852274301182
 20
13948.904811575139
 30
0.0
 11
19434.852274301182
 21
13945.25542142196
 31
0.0
  0
LINE
  5
17E93
  8
1-前柱P
  6
HIDE-M
 62
     6
 10
19444.852274301182
 20
13948.904811575139
 30
0.0
 11
19444.852274301182
 21
13945.25542142196
 31
0.0
  0
LINE
  5
17E94
  8
1-前柱P
  6
1PL-M
 62
     6
 10
19439.852274301182
 20
13954.455421421961
 30
0.0
 11
19439.852274301182
 21
13940.25542142196
 31
0.0
  0
ARC
  5
17E95
  8
1-前柱P
  6
HIDE-M
 62
     6
 10
19433.25227430118
 20
13946.85542142196
 30
0.0
 40
2.6000000000000001
 50
0.0
 51
90.0
  0
LINE
  5
17E96
  8
1-前柱P
  6
HIDE-M
 62
     6
 10
19443.852274301182
 20
13946.85542142196
 30
0.0
 11
19443.852274301182
 21
13945.25542142196
 31
0.0
  0
LINE
  5
17E97
  8
1-前柱P
  6
HIDE-M
 62
     6
 10
19435.852274301182
 20
13946.85542142196
 30
0.0
 11
19435.852274301182
 21
13945.25542142196
 31
0.0
  0
LINE
  5
17E98
  8
1-前柱P
 10
19453.75227430118
 20
13834.555421421959
 30
0.0
 11
19431.95227430118
 21
13834.555421421959
 31
0.0
  0
LINE
  5
17E99
  8
1-前柱P
 10
19401.95227430118
 20
13871.85542142196
 30
0.0
 11
19401.95227430118
 21
13864.555421421959
 31
0.0
  0
ARC
  5
17E9A
  8
1-前柱P
 10
19431.95227430118
 20
13864.555421421959
 30
0.0
 40
30.0
 50
180.0
 51
270.0
  0
ARC
  5
17E9B
  8
1-前柱P
 10
19431.95227430118
 20
13864.555421421959
 30
0.0
 40
31.600000000000001
 50
180.0
 51
270.0
  0
LINE
  5
17E9C
  8
1-前柱P
 10
19453.75227430118
 20
13832.95542142195
 30
0.0
 11
19431.95227430118
 21
13832.95542142195
 31
0.0
  0
LINE
  5
17E9D
  8
1-前柱P
 10
19400.352274301182
 20
13871.85542142196
 30
0.0
 11
19400.352274301182
 21
13864.555421421959
 31
0.0
  0
LINE
  5
17E9E
  8
1-前柱P
 10
19423.352274301182
 20
13893.455421421961
 30
0.0
 11
19423.352274301182
 21
13883.45542142195
 31
0.0
  0
LINE
  5
17E9F
  8
1-前柱P
 10
19424.95227430118
 20
13883.45542142195
 30
0.0
 11
19424.95227430118
 21
13893.455421421961
 31
0.0
  0
LINE
  5
17EA0
  8
1-前柱P
 10
19483.75227430118
 20
13871.85542142196
 30
0.0
 11
19483.75227430118
 21
13864.555421421959
 31
0.0
  0
ARC
  5
17EA1
  8
1-前柱P
 10
19453.75227430118
 20
13864.555421421959
 30
0.0
 40
30.0
 50
270.0
 51
0.0
  0
ARC
  5
17EA2
  8
1-前柱P
 10
19453.75227430118
 20
13864.555421421959
 30
0.0
 40
31.600000000000001
 50
270.0
 51
0.0
  0
LINE
  5
17EA3
  8
1-前柱P
 10
19485.352274301182
 20
13871.85542142196
 30
0.0
 11
19485.352274301182
 21
13864.555421421959
 31
0.0
  0
LINE
  5
17EA4
  8
1-前柱P
 10
19478.75227430118
 20
13878.455421421961
 30
0.0
 11
19467.352274301182
 21
13878.455421421961
 31
0.0
  0
ARC
  5
17EA5
  8
1-前柱P
 10
19478.75227430118
 20
13871.85542142196
 30
0.0
 40
6.599999999999997
 50
0.0
 51
90.0
  0
ARC
  5
17EA6
  8
1-前柱P
 10
19467.352274301182
 20
13883.45542142195
 30
0.0
 40
5.0
 50
180.0
 51
270.0
  0
LINE
  5
17EA7
  8
1-前柱P
 10
19478.75227430118
 20
13876.85542142196
 30
0.0
 11
19467.352274301182
 21
13876.85542142196
 31
0.0
  0
ARC
  5
17EA8
  8
1-前柱P
 10
19478.75227430118
 20
13871.85542142196
 30
0.0
 40
5.0
 50
0.0
 51
90.0
  0
LINE
  5
17EA9
  8
1-前柱P
 10
19462.352274301182
 20
13883.45542142195
 30
0.0
 11
19462.352274301182
 21
13942.85542142196
 31
0.0
  0
LINE
  5
17EAA
  8
1-前柱P
 10
19460.75227430118
 20
13883.45542142195
 30
0.0
 11
19460.75227430118
 21
13942.85542142196
 31
0.0
  0
ARC
  5
17EAB
  8
1-前柱P
 10
19467.352274301182
 20
13883.45542142195
 30
0.0
 40
6.599999999999997
 50
180.0
 51
270.0
  0
LINE
  5
17EAC
  8
1-前柱P
 10
19455.75227430118
 20
13949.45542142195
 30
0.0
 11
19422.352274301182
 21
13949.45542142195
 31
0.0
  0
ARC
  5
17EAD
  8
1-前柱P
 10
19455.75227430118
 20
13942.85542142196
 30
0.0
 40
6.599999999999997
 50
0.0
 51
90.0
  0
LINE
  5
17EAE
  8
1-前柱P
 10
19455.75227430118
 20
13947.85542142196
 30
0.0
 11
19422.352274301182
 21
13947.85542142196
 31
0.0
  0
ARC
  5
17EAF
  8
1-前柱P
 10
19455.75227430118
 20
13942.85542142196
 30
0.0
 40
5.0
 50
0.0
 51
90.0
  0
LINE
  5
17EB0
  8
1-前柱P
 10
19422.352274301182
 20
13947.85542142196
 30
0.0
 11
19422.352274301182
 21
13949.45542142195
 31
0.0
  0
LINE
  5
17EB1
  8
1-前柱P
 10
19406.952274301151
 20
13878.455421421961
 30
0.0
 11
19418.352274301182
 21
13878.455421421961
 31
0.0
  0
ARC
  5
17EB2
  8
1-前柱P
 10
19406.952274301151
 20
13871.85542142196
 30
0.0
 40
6.599999999999997
 50
90.0
 51
180.0
  0
ARC
  5
17EB3
  8
1-前柱P
 10
19418.352274301182
 20
13883.45542142195
 30
0.0
 40
5.0
 50
270.0
 51
0.0
  0
LINE
  5
17EB4
  8
1-前柱P
 10
19418.352274301182
 20
13876.85542142196
 30
0.0
 11
19406.952274301151
 21
13876.85542142196
 31
0.0
  0
ARC
  5
17EB5
  8
1-前柱P
 10
19418.352274301182
 20
13883.45542142195
 30
0.0
 40
6.599999999999997
 50
270.0
 51
0.0
  0
ARC
  5
17EB6
  8
1-前柱P
 10
19406.952274301151
 20
13871.85542142196
 30
0.0
 40
5.0
 50
90.0
 51
180.0
  0
LINE
  5
17EB7
  8
1-前柱P
 10
19423.352274301182
 20
13893.455421421961
 30
0.0
 11
19424.95227430118
 21
13893.455421421961
 31
0.0
  0
LINE
  5
17EB8
  8
1-前柱カバ-P
 10
19400.352274301182
 20
13885.15542142195
 30
0.0
 11
19400.352274301182
 21
13944.45542142195
 31
0.0
  0
ARC
  5
17EB9
  8
1-前柱カバ-P
 10
19406.952274301151
 20
13944.45542142195
 30
0.0
 40
6.599999999999997
 50
90.0
 51
180.0
  0
LINE
  5
17EBA
  8
1-前柱カバ-P
 10
19401.95227430118
 20
13885.15542142195
 30
0.0
 11
19401.95227430118
 21
13944.45542142195
 31
0.0
  0
ARC
  5
17EBB
  8
1-前柱カバ-P
 10
19406.952274301151
 20
13885.15542142195
 30
0.0
 40
5.0
 50
180.0
 51
270.0
  0
LINE
  5
17EBC
  8
1-前柱カバ-P
 10
19406.952274301151
 20
13951.055421421959
 30
0.0
 11
19478.75227430118
 21
13951.055421421959
 31
0.0
  0
ARC
  5
17EBD
  8
1-前柱カバ-P
 10
19478.75227430118
 20
13944.45542142195
 30
0.0
 40
6.599999999999997
 50
0.0
 51
90.0
  0
LINE
  5
17EBE
  8
1-前柱カバ-P
 10
19406.952274301151
 20
13949.45542142195
 30
0.0
 11
19478.75227430118
 21
13949.45542142195
 31
0.0
  0
ARC
  5
17EBF
  8
1-前柱カバ-P
 10
19478.75227430118
 20
13944.45542142195
 30
0.0
 40
5.0
 50
0.0
 51
90.0
  0
ARC
  5
17EC0
  8
1-前柱カバ-P
 10
19406.952274301151
 20
13944.45542142195
 30
0.0
 40
5.0
 50
90.0
 51
180.0
  0
LINE
  5
17EC1
  8
1-前柱カバ-P
 10
19485.352274301182
 20
13944.45542142195
 30
0.0
 11
19485.352274301182
 21
13885.15542142195
 31
0.0
  0
LINE
  5
17EC2
  8
1-前柱カバ-P
 10
19483.75227430118
 20
13944.45542142195
 30
0.0
 11
19483.75227430118
 21
13885.15542142195
 31
0.0
  0
ARC
  5
17EC3
  8
1-前柱カバ-P
 10
19478.75227430118
 20
13885.15542142195
 30
0.0
 40
5.0
 50
270.0
 51
0.0
  0
LINE
  5
17EC4
  8
1-前柱カバ-P
  6
1PL-M
 62
     6
 10
19442.852274301182
 20
13943.555421421959
 30
0.0
 11
19442.852274301182
 21
13956.555421421959
 31
0.0
  0
LINE
  5
17EC5
  8
1-前柱カバ-P
  6
HIDE-M
 62
     6
 10
19435.852274301182
 20
13951.055421421959
 30
0.0
 11
19435.852274301182
 21
13949.45542142195
 31
0.0
  0
LINE
  5
17EC6
  8
1-前柱カバ-P
  6
HIDE-M
 62
     6
 10
19449.852274301182
 20
13951.055421421959
 30
0.0
 11
19449.852274301182
 21
13949.45542142195
 31
0.0
  0
ARC
  5
17EC7
  8
1-前柱カバ-P
 10
19406.952274301151
 20
13885.15542142195
 30
0.0
 40
6.599999999999997
 50
180.0
 51
270.0
  0
ARC
  5
17EC8
  8
1-前柱カバ-P
 10
19478.75227430118
 20
13885.15542142195
 30
0.0
 40
6.599999999999997
 50
270.0
 51
0.0
  0
LINE
  5
17EC9
  8
1-前柱カバ-P
 10
19470.352274301182
 20
13878.555421421959
 30
0.0
 11
19478.75227430118
 21
13878.555421421959
 31
0.0
  0
LINE
  5
17ECA
  8
1-前柱カバ-P
 10
19415.352274301182
 20
13878.555421421959
 30
0.0
 11
19406.952274301151
 21
13878.555421421959
 31
0.0
  0
LINE
  5
17ECB
  8
1-前柱カバ-P
 10
19470.352274301182
 20
13880.15542142195
 30
0.0
 11
19478.75227430118
 21
13880.15542142195
 31
0.0
  0
LINE
  5
17ECC
  8
1-前柱カバ-P
 10
19415.352274301182
 20
13880.15542142195
 30
0.0
 11
19406.952274301151
 21
13880.15542142195
 31
0.0
  0
LINE
  5
17ECD
  8
1-前柱カバ-P
 10
19415.352274301182
 20
13880.15542142195
 30
0.0
 11
19415.352274301182
 21
13878.555421421959
 31
0.0
  0
LINE
  5
17ECE
  8
1-前柱カバ-P
 10
19470.352274301182
 20
13878.555421421959
 30
0.0
 11
19470.352274301182
 21
13880.15542142195
 31
0.0
  0
LINE
  5
17ECF
  8
1-前柱カバ-P
  6
HIDE-M
 62
     6
 10
19474.25227430118
 20
13899.555421421959
 30
0.0
 11
19485.852274301182
 21
13899.555421421959
 31
0.0
  0
LINE
  5
17ED0
  8
1-前柱カバ-P
  6
HIDE-M
 62
     6
 10
19474.25227430118
 20
13907.555421421959
 30
0.0
 11
19485.852274301182
 21
13907.555421421959
 31
0.0
  0
LINE
  5
17ED1
  8
1-前柱カバ-P
  6
HIDE-M
 62
     6
 10
19474.25227430118
 20
13900.555421421959
 30
0.0
 11
19485.852274301182
 21
13900.555421421959
 31
0.0
  0
LINE
  5
17ED2
  8
1-前柱カバ-P
  6
HIDE-M
 62
     6
 10
19474.25227430118
 20
13906.555421421959
 30
0.0
 11
19485.852274301182
 21
13906.555421421959
 31
0.0
  0
LINE
  5
17ED3
  8
1-前柱カバ-P
 10
19475.25227430118
 20
13909.055421421959
 30
0.0
 11
19482.25227430118
 21
13909.055421421959
 31
0.0
  0
LINE
  5
17ED4
  8
1-前柱カバ-P
 10
19482.25227430118
 20
13898.055421421959
 30
0.0
 11
19475.25227430118
 21
13898.055421421959
 31
0.0
  0
LINE
  5
17ED5
  8
1-前柱カバ-P
 10
19482.25227430118
 20
13897.305421421959
 30
0.0
 11
19482.25227430118
 21
13909.805421421959
 31
0.0
  0
LINE
  5
17ED6
  8
1-前柱カバ-P
 10
19485.852274301182
 20
13897.555421421959
 30
0.0
 11
19485.852274301182
 21
13909.555421421959
 31
0.0
  0
LINE
  5
17ED7
  8
1-前柱カバ-P
  6
HIDE-M
 62
     6
 10
19483.75227430118
 20
13909.055421421959
 30
0.0
 11
19485.352274301182
 21
13909.055421421959
 31
0.0
  0
LINE
  5
17ED8
  8
1-前柱カバ-P
 10
19485.852274301182
 20
13909.555421421959
 30
0.0
 11
19485.352274301182
 21
13909.055421421959
 31
0.0
  0
ARC
  5
17ED9
  8
1-前柱カバ-P
 10
19483.00227430118
 20
13909.805421421959
 30
0.0
 40
0.75
 50
0.0
 51
180.0
  0
LINE
  5
17EDA
  8
1-前柱カバ-P
  6
HIDE-M
 62
     6
 10
19485.352274301182
 20
13898.055421421959
 30
0.0
 11
19483.75227430118
 21
13898.055421421959
 31
0.0
  0
LINE
  5
17EDB
  8
1-前柱カバ-P
 10
19485.852274301182
 20
13897.555421421959
 30
0.0
 11
19485.352274301182
 21
13898.055421421959
 31
0.0
  0
ARC
  5
17EDC
  8
1-前柱カバ-P
 10
19483.00227430118
 20
13897.305421421959
 30
0.0
 40
0.75
 50
180.0
 51
0.0
  0
LINE
  5
17EDD
  8
1-前柱カバ-P
 10
19474.25227430118
 20
13899.055421421959
 30
0.0
 11
19474.25227430118
 21
13908.055421421959
 31
0.0
  0
ARC
  5
17EDE
  8
1-前柱カバ-P
 10
19475.25227430118
 20
13908.055421421959
 30
0.0
 40
1.0
 50
90.0
 51
180.0
  0
ARC
  5
17EDF
  8
1-前柱カバ-P
 10
19475.25227430118
 20
13899.055421421959
 30
0.0
 40
1.0
 50
180.0
 51
270.0
  0
LINE
  5
17EE0
  8
1-前柱カバ-P
  6
1PL-M
 62
     6
 10
19469.25227430118
 20
13903.555421421959
 30
0.0
 11
19490.852274301189
 21
13903.555421421959
 31
0.0
  0
LINE
  5
17EE1
  8
1-前柱カバ-P
 10
19475.25227430118
 20
13919.055421421959
 30
0.0
 11
19482.25227430118
 21
13919.055421421959
 31
0.0
  0
LINE
  5
17EE2
  8
1-前柱カバ-P
 10
19485.852274301182
 20
13911.555421421959
 30
0.0
 11
19485.852274301182
 21
13919.555421421959
 31
0.0
  0
LINE
  5
17EE3
  8
1-前柱カバ-P
  6
HIDE-M
 62
     6
 10
19483.75227430118
 20
13919.055421421959
 30
0.0
 11
19485.352274301182
 21
13919.055421421959
 31
0.0
  0
LINE
  5
17EE4
  8
1-前柱カバ-P
 10
19485.852274301182
 20
13919.555421421959
 30
0.0
 11
19485.352274301182
 21
13919.055421421959
 31
0.0
  0
ARC
  5
17EE5
  8
1-前柱カバ-P
 10
19483.00227430118
 20
13919.805421421959
 30
0.0
 40
0.75
 50
0.0
 51
180.0
  0
LINE
  5
17EE6
  8
1-前柱カバ-P
 10
19474.25227430118
 20
13910.055421421959
 30
0.0
 11
19474.25227430118
 21
13918.055421421959
 31
0.0
  0
ARC
  5
17EE7
  8
1-前柱カバ-P
 10
19475.25227430118
 20
13918.055421421959
 30
0.0
 40
1.0
 50
90.0
 51
180.0
  0
LINE
  5
17EE8
  8
1-前柱カバ-P
  6
1PL-M
 62
     6
 10
19469.25227430118
 20
13913.555421421959
 30
0.0
 11
19490.852274301189
 21
13913.555421421959
 31
0.0
  0
LINE
  5
17EE9
  8
1-前柱カバ-P
 10
19482.25227430118
 20
13911.805421421959
 30
0.0
 11
19482.25227430118
 21
13919.805421421959
 31
0.0
  0
LINE
  5
17EEA
  8
1-前柱カバ-P
  6
HIDE-M
 62
     6
 10
19411.452274301158
 20
13899.555421421959
 30
0.0
 11
19399.852274301182
 21
13899.555421421959
 31
0.0
  0
LINE
  5
17EEB
  8
1-前柱カバ-P
  6
HIDE-M
 62
     6
 10
19411.452274301158
 20
13907.555421421959
 30
0.0
 11
19399.852274301182
 21
13907.555421421959
 31
0.0
  0
LINE
  5
17EEC
  8
1-前柱カバ-P
  6
HIDE-M
 62
     6
 10
19411.452274301158
 20
13900.555421421959
 30
0.0
 11
19399.852274301182
 21
13900.555421421959
 31
0.0
  0
LINE
  5
17EED
  8
1-前柱カバ-P
  6
HIDE-M
 62
     6
 10
19411.452274301158
 20
13906.555421421959
 30
0.0
 11
19399.852274301182
 21
13906.555421421959
 31
0.0
  0
LINE
  5
17EEE
  8
1-前柱カバ-P
 10
19410.45227430118
 20
13909.055421421959
 30
0.0
 11
19403.45227430118
 21
13909.055421421959
 31
0.0
  0
LINE
  5
17EEF
  8
1-前柱カバ-P
 10
19403.45227430118
 20
13898.055421421959
 30
0.0
 11
19410.45227430118
 21
13898.055421421959
 31
0.0
  0
LINE
  5
17EF0
  8
1-前柱カバ-P
 10
19403.45227430118
 20
13897.305421421959
 30
0.0
 11
19403.45227430118
 21
13909.805421421959
 31
0.0
  0
LINE
  5
17EF1
  8
1-前柱カバ-P
 10
19399.852274301182
 20
13897.555421421959
 30
0.0
 11
19399.852274301182
 21
13909.555421421959
 31
0.0
  0
LINE
  5
17EF2
  8
1-前柱カバ-P
  6
HIDE-M
 62
     6
 10
19401.95227430118
 20
13909.055421421959
 30
0.0
 11
19400.352274301182
 21
13909.055421421959
 31
0.0
  0
LINE
  5
17EF3
  8
1-前柱カバ-P
 10
19399.852274301182
 20
13909.555421421959
 30
0.0
 11
19400.352274301182
 21
13909.055421421959
 31
0.0
  0
ARC
  5
17EF4
  8
1-前柱カバ-P
 10
19402.70227430118
 20
13909.805421421959
 30
0.0
 40
0.75
 50
0.0
 51
180.0
  0
LINE
  5
17EF5
  8
1-前柱カバ-P
  6
HIDE-M
 62
     6
 10
19400.352274301182
 20
13898.055421421959
 30
0.0
 11
19401.95227430118
 21
13898.055421421959
 31
0.0
  0
LINE
  5
17EF6
  8
1-前柱カバ-P
 10
19399.852274301182
 20
13897.555421421959
 30
0.0
 11
19400.352274301182
 21
13898.055421421959
 31
0.0
  0
ARC
  5
17EF7
  8
1-前柱カバ-P
 10
19402.70227430118
 20
13897.305421421959
 30
0.0
 40
0.75
 50
180.0
 51
0.0
  0
LINE
  5
17EF8
  8
1-前柱カバ-P
 10
19411.452274301158
 20
13899.055421421959
 30
0.0
 11
19411.452274301158
 21
13908.055421421959
 31
0.0
  0
ARC
  5
17EF9
  8
1-前柱カバ-P
 10
19410.45227430118
 20
13908.055421421959
 30
0.0
 40
1.0
 50
0.0
 51
90.0
  0
ARC
  5
17EFA
  8
1-前柱カバ-P
 10
19410.45227430118
 20
13899.055421421959
 30
0.0
 40
1.0
 50
270.0
 51
0.0
  0
LINE
  5
17EFB
  8
1-前柱カバ-P
  6
1PL-M
 62
     6
 10
19416.452274301151
 20
13903.555421421959
 30
0.0
 11
19394.852274301182
 21
13903.555421421959
 31
0.0
  0
LINE
  5
17EFC
  8
1-前柱カバ-P
 10
19410.45227430118
 20
13919.055421421959
 30
0.0
 11
19403.45227430118
 21
13919.055421421959
 31
0.0
  0
LINE
  5
17EFD
  8
1-前柱カバ-P
 10
19399.852274301182
 20
13911.555421421959
 30
0.0
 11
19399.852274301182
 21
13919.555421421959
 31
0.0
  0
LINE
  5
17EFE
  8
1-前柱カバ-P
  6
HIDE-M
 62
     6
 10
19401.95227430118
 20
13919.055421421959
 30
0.0
 11
19400.352274301182
 21
13919.055421421959
 31
0.0
  0
LINE
  5
17EFF
  8
1-前柱カバ-P
 10
19399.852274301182
 20
13919.555421421959
 30
0.0
 11
19400.352274301182
 21
13919.055421421959
 31
0.0
  0
ARC
  5
17F00
  8
1-前柱カバ-P
 10
19402.70227430118
 20
13919.805421421959
 30
0.0
 40
0.75
 50
0.0
 51
180.0
  0
LINE
  5
17F01
  8
1-前柱カバ-P
 10
19411.452274301158
 20
13910.055421421959
 30
0.0
 11
19411.452274301158
 21
13918.055421421959
 31
0.0
  0
ARC
  5
17F02
  8
1-前柱カバ-P
 10
19410.45227430118
 20
13918.055421421959
 30
0.0
 40
1.0
 50
0.0
 51
90.0
  0
LINE
  5
17F03
  8
1-前柱カバ-P
  6
1PL-M
 62
     6
 10
19416.452274301151
 20
13913.555421421959
 30
0.0
 11
19394.852274301182
 21
13913.555421421959
 31
0.0
  0
LINE
  5
17F04
  8
1-前柱カバ-P
 10
19403.45227430118
 20
13911.805421421959
 30
0.0
 11
19403.45227430118
 21
13919.805421421959
 31
0.0
  0
LINE
  5
17F05
  8
1-前柱カバ-P
  6
HIDE-M
 62
     6
 10
19474.25227430118
 20
13917.555421421959
 30
0.0
 11
19485.852274301182
 21
13917.555421421959
 31
0.0
  0
LINE
  5
17F06
  8
1-前柱カバ-P
  6
HIDE-M
 62
     6
 10
19474.25227430118
 20
13916.555421421959
 30
0.0
 11
19485.852274301182
 21
13916.555421421959
 31
0.0
  0
LINE
  5
17F07
  8
1-前柱カバ-P
  6
HIDE-M
 62
     6
 10
19411.452274301158
 20
13917.555421421959
 30
0.0
 11
19399.852274301182
 21
13917.555421421959
 31
0.0
  0
LINE
  5
17F08
  8
1-前柱カバ-P
  6
HIDE-M
 62
     6
 10
19411.452274301158
 20
13916.555421421959
 30
0.0
 11
19399.852274301182
 21
13916.555421421959
 31
0.0
  0
LINE
  5
17F0D
  8
0-6
  6
CONTINUOUS
 62
     6
 10
20892.927979122582
 20
13238.456279421949
 30
0.0
 11
19892.92863812259
 21
13238.456279421949
 31
0.0
  0
TEXT
  5
17F0E
  8
0-6
  6
CONTINUOUS
 62
     7
 10
19996.927715122602
 20
13318.45654342194
 30
0.0
 40
160.0
  1
前柱（P）
 72
     4
 11
20396.927715122602
 21
13398.45654342194
 31
0.0
  0
LINE
  5
17F0F
  8
0-6
  6
CONTINUOUS
 62
     6
 10
19487.852274301182
 20
13824.45542142195
 30
0.0
 11
19892.92863812259
 21
13238.456279421949
 31
0.0
  0
LINE
  5
17F10
  8
0-6
  6
CONTINUOUS
 62
     6
 10
20892.927979122582
 20
16126.01707937607
 30
0.0
 11
19892.92863812259
 21
16126.01707937607
 31
0.0
  0
TEXT
  5
17F11
  8
0-6
  6
CONTINUOUS
 62
     7
 10
19996.927715122602
 20
16206.01734337607
 30
0.0
 40
160.0
  1
中柱（P）
 72
     4
 11
20396.927715122602
 21
16286.01734337607
 31
0.0
  0
LINE
  5
17F12
  8
0-6
  6
CONTINUOUS
 62
     6
 10
19487.852274301182
 20
16712.01622137607
 30
0.0
 11
19892.92863812259
 21
16126.01707937607
 31
0.0
  0
LINE
  5
17F13
  8
0-6
  6
CONTINUOUS
 62
     6
 10
21233.989869592118
 20
14439.446159250831
 30
0.0
 11
19777.989869592111
 21
14439.446159250831
 31
0.0
  0
TEXT
  5
17F14
  8
0-6
  6
CONTINUOUS
 62
     7
 10
19817.984596339698
 20
14519.446423250811
 30
0.0
 40
160.0
  1
前柱カバー（P）
 72
     4
 11
20505.984596339698
 21
14599.446423250811
 31
0.0
  0
LINE
  5
17F15
  8
0-6
  6
CONTINUOUS
 62
     6
 10
19478.75227430118
 20
13951.05542142195
 30
0.0
 11
19777.989869592111
 21
14439.446159250831
 31
0.0
  0
LINE
  5
17F16
  8
0-6
  6
CONTINUOUS
 62
     6
 10
21233.989869592118
 20
17346.94572325081
 30
0.0
 11
19777.989869592111
 21
17346.94572325081
 31
0.0
  0
TEXT
  5
17F17
  8
0-6
  6
CONTINUOUS
 62
     7
 10
19817.984596339698
 20
17426.94598725082
 30
0.0
 40
160.0
  1
中柱カバー（P）
 72
     4
 11
20505.984596339698
 21
17506.94598725082
 31
0.0
  0
LINE
  5
17F18
  8
0-6
  6
CONTINUOUS
 62
     6
 10
19478.75227430118
 20
16858.55498542195
 30
0.0
 11
19777.989869592111
 21
17346.94572325081
 31
0.0
  0
LINE
  5
17F19
  8
0-6
  6
CONTINUOUS
 62
     6
 10
20892.927979122582
 20
20003.39278646783
 30
0.0
 11
19892.92863812259
 21
20003.39278646783
 31
0.0
  0
TEXT
  5
17F1A
  8
0-6
  6
CONTINUOUS
 62
     7
 10
19996.927715122602
 20
20083.393050467821
 30
0.0
 40
160.0
  1
後柱（P）
 72
     4
 11
20396.927715122602
 21
20163.393050467821
 31
0.0
  0
LINE
  5
17F1B
  8
0-6
  6
CONTINUOUS
 62
     6
 10
19487.852274301182
 20
19417.393644467811
 30
0.0
 11
19892.92863812259
 21
20003.39278646783
 31
0.0
  0
LINE
  5
17F1C
  8
0-6
  6
CONTINUOUS
 62
     6
 10
21233.989869592118
 20
18797.293762964
 30
0.0
 11
19777.989869592118
 21
18797.293762964
 31
0.0
  0
TEXT
  5
17F1D
  8
0-6
  6
CONTINUOUS
 62
     7
 10
19817.984596339698
 20
18877.294026964009
 30
0.0
 40
160.0
  1
後柱カバー（P）
 72
     4
 11
20505.984596339698
 21
18957.294026964009
 31
0.0
  0
LINE
  5
17F1E
  8
0-6
  6
CONTINUOUS
 62
     6
 10
19478.75227430118
 20
19270.85488042195
 30
0.0
 11
19777.989869592118
 21
18797.293762964
 31
0.0
  0
LINE
  5
17F5E
  8
0-1
  6
CONTINUOUS
 62
     3
 10
13700.386888921859
 20
16751.455026421962
 30
0.0
 11
10431.88688892185
 21
16751.455026421962
 31
0.0
  0
LINE
  5
17F5F
  8
0-1
  6
CONTINUOUS
 62
     3
 10
10431.88688892185
 20
16751.455026421962
 30
0.0
 11
7859.5160381530532
 21
16751.455026421962
 31
0.0
  0
LINE
  5
17F60
  8
2-0
  6
DASHED3
 62
     6
 10
7859.5160381530532
 20
16751.455026421962
 30
0.0
 11
7631.8868889218584
 21
16751.455026421962
 31
0.0
  0
LINE
  5
17F61
  8
0-1
  6
CONTINUOUS
 62
     3
 10
10484.886519921851
 20
13841.95606842195
 30
0.0
 11
10484.886519921851
 21
17834.702821003179
 31
0.0
  0
LINE
  5
17F62
  8
0-1
  6
CONTINUOUS
 62
     3
 10
13650.38626892184
 20
13717.95605442196
 30
0.0
 11
13650.38626892184
 21
18999.668862386789
 31
0.0
  0
LINE
  5
17F63
  8
0-1
  6
CONTINUOUS
 62
     3
 10
13650.38626892184
 20
18999.668862386789
 30
0.0
 11
13650.38626892184
 21
19528.455395421941
 31
0.0
  0
LINE
  5
17F64
  8
0-1
  6
CONTINUOUS
 62
     3
 10
13785.886888921859
 20
13685.95614742195
 30
0.0
 11
13785.886888921859
 21
19200.69277119809
 31
0.0
  0
LINE
  5
17F65
  8
0-1
  6
CONTINUOUS
 62
     3
 10
13785.886888921859
 20
19200.69277119809
 30
0.0
 11
13785.886888921859
 21
19576.456741421938
 31
0.0
  0
LINE
  5
17F66
  8
0-1
  6
CONTINUOUS
 62
     3
 10
13742.88616292185
 20
13841.95606842195
 30
0.0
 11
7589.3856349218458
 21
13841.95606842195
 31
0.0
  0
LINE
  5
17F67
  8
0-1
  6
CONTINUOUS
 62
     3
 10
13700.386888921859
 20
13920.955685421941
 30
0.0
 11
7631.8868889218584
 21
13920.955685421941
 31
0.0
  0
LINE
  5
17F68
  8
0-1
  6
CONTINUOUS
 62
     3
 10
13785.886888921859
 20
13685.95614742195
 30
0.0
 11
7546.3868889218566
 21
13685.95614742195
 31
0.0
  0
LINE
  5
17F69
  8
0-1
  6
CONTINUOUS
 62
     3
 10
13785.886888921859
 20
13717.95605442196
 30
0.0
 11
7546.3868889218566
 21
13717.95605442196
 31
0.0
  0
LINE
  5
17F6A
  8
0-1
  6
CONTINUOUS
 62
     3
 10
10431.88688892185
 20
13841.95606842195
 30
0.0
 11
10431.88688892185
 21
17812.834770839199
 31
0.0
  0
LINE
  5
17F6B
  8
0-1
  6
CONTINUOUS
 62
     3
 10
10389.38563492184
 20
13841.95606842195
 30
0.0
 11
10389.38563492184
 21
17795.29843073705
 31
0.0
  0
LINE
  5
17F6C
  8
0-1
  6
CONTINUOUS
 62
     3
 10
13700.386888921859
 20
13841.95606842195
 30
0.0
 11
13700.386888921859
 21
19166.652889884441
 31
0.0
  0
LINE
  5
17F6D
  8
0-1
  6
CONTINUOUS
 62
     3
 10
13742.88616292185
 20
13841.95606842195
 30
0.0
 11
13742.88616292185
 21
19184.188413023548
 31
0.0
  0
LINE
  5
17F6E
  8
0-1
  6
CONTINUOUS
 62
     3
 10
11779.385766921851
 20
18378.82314413524
 30
0.0
 11
11779.385766921851
 21
19528.455395421941
 31
0.0
  0
LINE
  5
17F6F
  8
0-1
  6
CONTINUOUS
 62
     3
 10
11742.38460592185
 20
18363.556184165762
 30
0.0
 11
11742.384605921859
 21
19528.455395421941
 31
0.0
  0
LINE
  5
17F70
  8
0-1
  6
CONTINUOUS
 62
     3
 10
11579.38609692184
 20
18286.301656744101
 30
0.0
 11
11579.38609692184
 21
19528.455395421941
 31
0.0
  0
LINE
  5
17F71
  8
0-1
  6
CONTINUOUS
 62
     3
 10
11542.386915921839
 20
18271.03551373765
 30
0.0
 11
11542.386915921839
 21
19528.455395421941
 31
0.0
  0
LINE
  5
17F72
  8
0-1
  6
CONTINUOUS
 62
     3
 10
11379.385437921839
 20
18203.77986628404
 30
0.0
 11
11379.385437921839
 21
19528.455395421941
 31
0.0
  0
LINE
  5
17F73
  8
0-1
  6
CONTINUOUS
 62
     3
 10
11342.385265921839
 20
18188.513314383468
 30
0.0
 11
11342.385265921839
 21
19528.455395421941
 31
0.0
  0
LINE
  5
17F74
  8
0-1
  6
CONTINUOUS
 62
     3
 10
11179.385766921851
 20
18121.25848348028
 30
0.0
 11
11179.385766921851
 21
19528.455395421941
 31
0.0
  0
LINE
  5
17F75
  8
0-1
  6
CONTINUOUS
 62
     3
 10
11142.38460592185
 20
18105.991523510798
 30
0.0
 11
11142.38460592185
 21
19528.455395421941
 31
0.0
  0
LINE
  5
17F76
  8
0-1
  6
CONTINUOUS
 62
     3
 10
10979.38609692184
 20
18038.737101089129
 30
0.0
 11
10979.38609692184
 21
19528.455395421941
 31
0.0
  0
LINE
  5
17F77
  8
0-1
  6
CONTINUOUS
 62
     3
 10
10942.385925921841
 20
18023.470549601181
 30
0.0
 11
10942.385925921841
 21
19528.455395421941
 31
0.0
  0
LINE
  5
17F78
  8
0-1
  6
CONTINUOUS
 62
     3
 10
10779.38543792185
 20
17956.215310629079
 30
0.0
 11
10779.38543792185
 21
19528.455395421941
 31
0.0
  0
LINE
  5
17F79
  8
0-1
  6
CONTINUOUS
 62
     3
 10
10742.38526592183
 20
17940.9487587285
 30
0.0
 11
10742.38526592183
 21
19528.455395421941
 31
0.0
  0
LINE
  5
17F7A
  8
0-1
  6
CONTINUOUS
 62
     3
 10
13700.386888921859
 20
16841.457797421961
 30
0.0
 11
10431.88688892185
 21
16841.457797421961
 31
0.0
  0
LINE
  5
17F7B
  8
0-1
  6
CONTINUOUS
 62
     3
 10
10431.88688892185
 20
16841.457797421961
 30
0.0
 11
8077.6476784322194
 21
16841.457797421961
 31
0.0
  0
LINE
  5
17F7C
  8
2-0
  6
DASHED3
 62
     6
 10
8077.6476784322194
 20
16841.457797421961
 30
0.0
 11
7631.8868889218584
 21
16841.457797421961
 31
0.0
  0
LINE
  5
17F7D
  8
0-1
  6
CONTINUOUS
 62
     3
 10
10501.88598927802
 20
16796.457323080809
 30
0.0
 11
13630.38616292185
 21
13878.455421421961
 31
0.0
  0
LINE
  5
17F7E
  8
0-1
  6
CONTINUOUS
 62
     3
 10
13630.38616292185
 20
16796.455421421961
 30
0.0
 11
10501.88563492184
 21
13878.455421421961
 31
0.0
  0
LINE
  5
17F7F
  8
0-1
  6
CONTINUOUS
 62
     3
 10
13073.93380323951
 20
18907.285996456631
 30
0.0
 11
10501.88598927802
 21
16796.457323080809
 31
0.0
  0
LINE
  5
17F80
  8
0-1
  6
CONTINUOUS
 62
     3
 10
11734.212440034111
 20
18352.608597661489
 30
0.0
 11
13630.38616292185
 21
16796.455421421961
 31
0.0
  0
LINE
  5
17F81
  8
0-1
  6
CONTINUOUS
 62
     3
 10
13767.888115921871
 20
19193.35797483275
 30
0.0
 11
13767.88811592186
 21
19568.956345421921
 31
0.0
  0
LINE
  5
17F82
  8
0-1
  6
CONTINUOUS
 62
     3
 10
13712.38736392186
 20
19551.45740042195
 30
0.0
 11
13712.38736392186
 21
19581.457004421951
 31
0.0
  0
LINE
  5
17F83
  8
0-1
  6
CONTINUOUS
 62
     3
 10
13785.886888921859
 20
19581.457004421951
 30
0.0
 11
13785.886888921859
 21
19546.455157421951
 31
0.0
  0
LINE
  5
17F84
  8
0-1
  6
CONTINUOUS
 62
     3
 10
13717.38762792186
 20
19586.455289421949
 30
0.0
 11
13780.88761492185
 21
19586.455289421949
 31
0.0
  0
LINE
  5
17F85
  8
0-1
  6
CONTINUOUS
 62
     3
 10
13767.88811592186
 20
19568.956345421921
 30
0.0
 11
13785.886888921859
 21
19568.956345421921
 31
0.0
  0
LINE
  5
17F86
  8
0-1
  6
CONTINUOUS
 62
     3
 10
13767.88811592186
 20
19546.455157421951
 30
0.0
 11
13717.38762792186
 21
19546.455157421951
 31
0.0
  0
LINE
  5
17F87
  8
0-6
  6
CONTINUOUS
 62
     6
 10
11301.54355278446
 20
19304.179898421949
 30
0.0
 11
11157.642449784469
 21
19816.45555342194
 31
0.0
  0
LINE
  5
17F88
  8
0-6
  6
CONTINUOUS
 62
     6
 10
11821.38492778448
 20
19532.133340421951
 30
0.0
 11
11714.68986578447
 21
19409.95745342195
 31
0.0
  0
LINE
  5
17F89
  8
0-6
  6
CONTINUOUS
 62
     6
 10
11714.68986578447
 20
19409.95745342195
 30
0.0
 11
11775.995555784481
 21
19560.133630421959
 31
0.0
  0
LINE
  5
17F8A
  8
0-6
  6
CONTINUOUS
 62
     6
 10
11714.68986578447
 20
19409.95745342195
 30
0.0
 11
11821.38492778448
 21
19532.133340421951
 31
0.0
  0
LINE
  5
17F8B
  8
0-6
  6
CONTINUOUS
 62
     6
 10
11821.38492778448
 20
19532.133340421951
 30
0.0
 11
11775.995555784481
 21
19560.133630421959
 31
0.0
  0
LINE
  5
17F8C
  8
0-6
  6
CONTINUOUS
 62
     6
 10
11775.995555784481
 20
19560.133630421959
 30
0.0
 11
11714.68986578447
 21
19409.95745342195
 31
0.0
  0
LINE
  5
17F8D
  8
0-6
  6
CONTINUOUS
 62
     6
 10
11775.995555784481
 20
19560.133630421959
 30
0.0
 11
11821.38492778448
 21
19532.133340421951
 31
0.0
  0
LINE
  5
17F8E
  8
0-6
  6
CONTINUOUS
 62
     6
 10
11714.68986578447
 20
19409.95745342195
 30
0.0
 11
12008.617692784481
 21
19816.45555342194
 31
0.0
  0
LINE
  5
17F8F
  8
0-6
  6
CONTINUOUS
 62
     6
 10
11327.43169678447
 20
19310.579682421951
 30
0.0
 11
11339.933346784461
 21
19148.854993421952
 31
0.0
  0
LINE
  5
17F90
  8
0-6
  6
CONTINUOUS
 62
     6
 10
11339.933346784461
 20
19148.854993421952
 30
0.0
 11
11275.658377784461
 21
19297.784074421961
 31
0.0
  0
LINE
  5
17F91
  8
0-6
  6
CONTINUOUS
 62
     6
 10
11339.933346784461
 20
19148.854993421952
 30
0.0
 11
11327.43169678447
 21
19310.579682421951
 31
0.0
  0
LINE
  5
17F92
  8
0-6
  6
CONTINUOUS
 62
     6
 10
11327.43169678447
 20
19310.579682421951
 30
0.0
 11
11275.658377784461
 21
19297.784074421961
 31
0.0
  0
LINE
  5
17F93
  8
0-6
  6
CONTINUOUS
 62
     6
 10
11275.658377784461
 20
19297.784074421961
 30
0.0
 11
11339.933346784461
 21
19148.854993421952
 31
0.0
  0
LINE
  5
17F94
  8
0-6
  6
CONTINUOUS
 62
     6
 10
11275.658377784461
 20
19297.784074421961
 30
0.0
 11
11327.43169678447
 21
19310.579682421951
 31
0.0
  0
LINE
  5
17F95
  8
0-6
  6
CONTINUOUS
 62
     6
 10
11157.642449784469
 20
19816.45555342194
 30
0.0
 11
10639.953801784461
 21
19816.45555342194
 31
0.0
  0
LINE
  5
17F96
  8
0-6
  6
CONTINUOUS
 62
     6
 10
13557.570561921821
 20
18230.75875608587
 30
0.0
 11
13647.38626892184
 21
18365.83120708587
 31
0.0
  0
LINE
  5
17F97
  8
0-6
  6
CONTINUOUS
 62
     6
 10
13647.38626892184
 20
18365.83120708587
 30
0.0
 11
13606.232077921821
 21
18208.930605085861
 31
0.0
  0
LINE
  5
17F98
  8
0-6
  6
CONTINUOUS
 62
     6
 10
13647.38626892184
 20
18365.83120708587
 30
0.0
 11
13557.570561921821
 21
18230.75875608587
 31
0.0
  0
LINE
  5
17F99
  8
0-6
  6
CONTINUOUS
 62
     6
 10
13557.570561921821
 20
18230.75875608587
 30
0.0
 11
13606.232077921821
 21
18208.930605085861
 31
0.0
  0
LINE
  5
17F9A
  8
0-6
  6
CONTINUOUS
 62
     6
 10
13606.232077921821
 20
18208.930605085861
 30
0.0
 11
13647.38626892184
 21
18365.83120708587
 31
0.0
  0
LINE
  5
17F9B
  8
0-6
  6
CONTINUOUS
 62
     6
 10
13606.232077921821
 20
18208.930605085861
 30
0.0
 11
13557.570561921821
 21
18230.75875608587
 31
0.0
  0
LINE
  5
17F9C
  8
0-6
  6
CONTINUOUS
 62
     6
 10
12808.619341784481
 20
19816.45555342194
 30
0.0
 11
12008.617692784481
 21
19816.45555342194
 31
0.0
  0
LINE
  5
17F9D
  8
0-6
  6
CONTINUOUS
 62
     6
 10
13482.860561921851
 20
17999.052147085858
 30
0.0
 11
12962.859835921839
 21
17999.052147085858
 31
0.0
  0
LINE
  5
17F9E
  8
0-6
  6
CONTINUOUS
 62
     6
 10
12499.612583855989
 20
14065.84654742195
 30
0.0
 11
12416.725191856
 21
14242.784826421939
 31
0.0
  0
LINE
  5
17F9F
  8
0-6
  6
CONTINUOUS
 62
     6
 10
12416.725191856
 20
14242.784826421939
 30
0.0
 11
11616.724531856011
 21
14242.784826421939
 31
0.0
  0
LINE
  5
17FA0
  8
0-6
  6
CONTINUOUS
 62
     6
 10
11892.56945685599
 20
13556.40952242194
 30
0.0
 11
11998.839911855999
 21
13678.95656942194
 31
0.0
  0
LINE
  5
17FA1
  8
0-6
  6
CONTINUOUS
 62
     6
 10
11998.839911855999
 20
13678.95656942194
 30
0.0
 11
11938.057803856
 21
13528.567593421951
 31
0.0
  0
LINE
  5
17FA2
  8
0-6
  6
CONTINUOUS
 62
     6
 10
11998.839911855999
 20
13678.95656942194
 30
0.0
 11
11892.56945685599
 21
13556.40952242194
 31
0.0
  0
LINE
  5
17FA3
  8
0-6
  6
CONTINUOUS
 62
     6
 10
11892.56945685599
 20
13556.40952242194
 30
0.0
 11
11938.057803856
 21
13528.567593421951
 31
0.0
  0
LINE
  5
17FA4
  8
0-6
  6
CONTINUOUS
 62
     6
 10
11938.057803856
 20
13528.567593421951
 30
0.0
 11
11998.839911855999
 21
13678.95656942194
 31
0.0
  0
LINE
  5
17FA5
  8
0-6
  6
CONTINUOUS
 62
     6
 10
11938.057803856
 20
13528.567593421951
 30
0.0
 11
11892.56945685599
 21
13556.40952242194
 31
0.0
  0
LINE
  5
17FA6
  8
0-6
  6
CONTINUOUS
 62
     6
 10
12523.759740856
 20
14077.158506421951
 30
0.0
 11
12567.485326856
 21
13920.955685421941
 31
0.0
  0
LINE
  5
17FA7
  8
0-6
  6
CONTINUOUS
 62
     6
 10
12567.485326856
 20
13920.955685421941
 30
0.0
 11
12475.464435855991
 21
14054.53359842194
 31
0.0
  0
LINE
  5
17FA8
  8
0-6
  6
CONTINUOUS
 62
     6
 10
12567.485326856
 20
13920.955685421941
 30
0.0
 11
12523.759740856
 21
14077.158506421951
 31
0.0
  0
LINE
  5
17FA9
  8
0-6
  6
CONTINUOUS
 62
     6
 10
12523.759740856
 20
14077.158506421951
 30
0.0
 11
12475.464435855991
 21
14054.53359842194
 31
0.0
  0
LINE
  5
17FAA
  8
0-6
  6
CONTINUOUS
 62
     6
 10
12475.464435855991
 20
14054.53359842194
 30
0.0
 11
12567.485326856
 21
13920.955685421941
 31
0.0
  0
LINE
  5
17FAB
  8
0-6
  6
CONTINUOUS
 62
     6
 10
12475.464435855991
 20
14054.53359842194
 30
0.0
 11
12523.759740856
 21
14077.158506421951
 31
0.0
  0
LINE
  5
17FAC
  8
0-6
  6
CONTINUOUS
 62
     6
 10
11509.20104185598
 20
12878.956899421941
 30
0.0
 11
10646.62087085599
 21
12878.956899421941
 31
0.0
  0
LINE
  5
17FAD
  8
0-6
  6
CONTINUOUS
 62
     6
 10
11915.313134856
 20
13542.48855842195
 30
0.0
 11
11509.20104185598
 21
12878.956899421941
 31
0.0
  0
LINE
  5
17FAE
  8
0-6
  6
CONTINUOUS
 62
     6
 10
13805.33759892184
 20
13928.24639742195
 30
0.0
 11
13782.886888921859
 21
14088.89224842194
 31
0.0
  0
LINE
  5
17FAF
  8
0-6
  6
CONTINUOUS
 62
     6
 10
13782.886888921859
 20
14088.89224842194
 30
0.0
 11
13856.224092921861
 21
13944.211214421961
 31
0.0
  0
LINE
  5
17FB0
  8
0-6
  6
CONTINUOUS
 62
     6
 10
13782.886888921859
 20
14088.89224842194
 30
0.0
 11
13805.33759892184
 21
13928.24639742195
 31
0.0
  0
LINE
  5
17FB1
  8
0-6
  6
CONTINUOUS
 62
     6
 10
13805.33759892184
 20
13928.24639742195
 30
0.0
 11
13856.224092921861
 21
13944.211214421961
 31
0.0
  0
LINE
  5
17FB2
  8
0-6
  6
CONTINUOUS
 62
     6
 10
13856.224092921861
 20
13944.211214421961
 30
0.0
 11
13782.886888921859
 21
14088.89224842194
 31
0.0
  0
LINE
  5
17FB3
  8
0-6
  6
CONTINUOUS
 62
     6
 10
13856.224092921861
 20
13944.211214421961
 30
0.0
 11
13805.33759892184
 21
13928.24639742195
 31
0.0
  0
LINE
  5
17FB4
  8
0-6
  6
CONTINUOUS
 62
     6
 10
15497.521139921861
 20
12065.95589642194
 30
0.0
 11
14417.52153592186
 21
12065.95589642194
 31
0.0
  0
LINE
  5
17FB5
  8
0-6
  6
CONTINUOUS
 62
     6
 10
13830.78134092186
 20
13936.22781642195
 30
0.0
 11
14417.52153592186
 21
12065.95589642194
 31
0.0
  0
LINE
  5
17FB6
  8
0-6
  6
CONTINUOUS
 62
     6
 10
13581.90082492184
 20
18219.84567008587
 30
0.0
 11
13482.860561921851
 21
17999.052147085858
 31
0.0
  0
LINE
  5
17FB7
  8
0-6
  6
CONTINUOUS
 62
     6
 10
7549.3868889218584
 20
19586.455289421949
 30
0.0
 11
7457.6995469218409
 21
19720.262827421961
 31
0.0
  0
LINE
  5
17FB8
  8
0-6
  6
CONTINUOUS
 62
     6
 10
7419.2582859218528
 20
19683.295317421958
 30
0.0
 11
7549.3868889218584
 21
19586.455289421949
 31
0.0
  0
LINE
  5
17FB9
  8
0-6
  6
CONTINUOUS
 62
     6
 10
7419.2582859218528
 20
19683.295317421958
 30
0.0
 11
7457.6995469218409
 21
19720.262827421961
 31
0.0
  0
LINE
  5
17FBA
  8
0-6
  6
CONTINUOUS
 62
     6
 10
7438.4784209218387
 20
19701.778082421952
 30
0.0
 11
6921.4895329218489
 21
20206.45634542195
 31
0.0
  0
LINE
  5
17FBB
  8
0-6
  6
CONTINUOUS
 62
     6
 10
6921.4895329218489
 20
20206.45634542195
 30
0.0
 11
5246.4901929218386
 21
20206.45634542195
 31
0.0
  0
LINE
  5
17FBC
  8
2-0
  6
DASHED3
 62
     6
 10
13700.386888921859
 20
19324.95692542196
 30
0.0
 11
7631.8868889218584
 21
19324.95692542196
 31
0.0
  0
LINE
  5
17FBD
  8
2-0
  6
DASHED3
 62
     6
 10
13742.88616292185
 20
19184.188413023548
 30
0.0
 11
13742.88616292185
 21
19409.95745342195
 31
0.0
  0
LINE
  5
17FBE
  8
2-0
  6
DASHED3
 62
     6
 10
13700.386888921859
 20
19166.652889884441
 30
0.0
 11
13700.386888921859
 21
19409.95745342195
 31
0.0
  0
LINE
  5
17FBF
  8
2-0
  6
DASHED3
 62
     6
 10
13742.88616292185
 20
19409.95745342195
 30
0.0
 11
7631.8868889218584
 21
19409.95745342195
 31
0.0
  0
LINE
  5
17FC0
  8
2-0
  6
DASHED3
 62
     6
 10
10431.88688892185
 20
17812.83477083921
 30
0.0
 11
10431.88688892185
 21
19409.95745342195
 31
0.0
  0
LINE
  5
17FC1
  8
2-0
  6
DASHED3
 62
     6
 10
10389.38563492184
 20
17795.298430737061
 30
0.0
 11
10389.38563492184
 21
19409.95745342195
 31
0.0
  0
LINE
  5
17FC2
  8
2-0
  6
DASHED3
 62
     6
 10
13630.38616292185
 20
19363.955421421961
 30
0.0
 11
13073.93380323951
 21
18907.285996456631
 31
0.0
  0
LINE
  5
17FC3
  8
2-0
  6
DASHED3
 62
     6
 10
10501.88563492184
 20
19363.955421421961
 30
0.0
 11
11734.212440034111
 21
18352.608597661489
 31
0.0
  0
LINE
  5
17FC4
  8
2-0
  6
CENTER2
 62
     6
 10
10431.88688892185
 20
20606.457664421949
 30
0.0
 11
10431.88688892185
 21
19656.457004421951
 31
0.0
  0
LINE
  5
17FC5
  8
2-0
  6
CENTER2
 62
     6
 10
15029.88699392184
 20
19363.955421421961
 30
0.0
 11
13383.387772921849
 21
19363.955421421961
 31
0.0
  0
LINE
  5
17FC6
  8
0-8
  6
CONTINUOUS
 62
     6
 10
13700.386888921859
 20
20606.457664421949
 30
0.0
 11
13700.386888921859
 21
19656.457004421951
 31
0.0
  0
LINE
  5
17FC7
  8
2-0
  6
CENTER2
 62
     6
 10
15029.88699392184
 20
16796.455421421961
 30
0.0
 11
7460.0874409218559
 21
16796.455421421961
 31
0.0
  0
LINE
  5
17FC8
  8
2-0
  6
CENTER2
 62
     6
 10
15029.88699392184
 20
13878.455421421961
 30
0.0
 11
13383.387772921849
 21
13878.455421421961
 31
0.0
  0
ARC
  5
17FC9
  8
0-1
  6
CONTINUOUS
 62
     3
 10
13717.38762792186
 20
19551.45740042195
 30
0.0
 40
5.0
 50
180.0
 51
270.00001499981897
  0
ARC
  5
17FCA
  8
0-1
  6
CONTINUOUS
 62
     3
 10
13717.384926604371
 20
19581.45812334428
 30
0.0
 40
4.99729880777691
 50
89.969028448170619
 51
180.0128288362661
  0
ARC
  5
17FCB
  8
0-1
  6
CONTINUOUS
 62
     3
 10
13780.89054139809
 20
19581.45821660808
 30
0.0
 40
4.9970736707893684
 50
359.98610123535252
 51
90.033554587709943
  0
CIRCLE
  5
17FCC
  8
0-5
  6
CONTINUOUS
 62
     4
 10
10431.88688892185
 20
20806.456345421939
 30
0.0
 40
199.9999949999999
  0
CIRCLE
  5
17FCD
  8
0-5
  6
CONTINUOUS
 62
     4
 10
13700.386888921859
 20
20806.456345421939
 30
0.0
 40
199.9999949999999
  0
CIRCLE
  5
17FCE
  8
0-5
  6
CONTINUOUS
 62
     4
 10
15229.88666492184
 20
19363.955421421961
 30
0.0
 40
199.9999949999999
  0
CIRCLE
  5
17FCF
  8
0-5
  6
CONTINUOUS
 62
     4
 10
15229.88666492184
 20
16796.455421421961
 30
0.0
 40
199.9999949999999
  0
CIRCLE
  5
17FD0
  8
0-5
  6
CONTINUOUS
 62
     4
 10
15229.88666492184
 20
13878.455421421961
 30
0.0
 40
199.9999949999999
  0
TEXT
  5
17FD1
  8
0-5
  6
CONTINUOUS
 62
     7
 10
10378.937428255171
 20
20717.241422421961
 30
0.0
 40
160.0
  1
2
 72
     4
 11
10432.27076158851
 21
20797.241422421961
 31
0.0
  0
TEXT
  5
17FD2
  8
0-5
  6
CONTINUOUS
 62
     7
 10
13647.053555588531
 20
20726.456345421939
 30
0.0
 40
160.0
  1
3
 72
     4
 11
13700.386888921859
 21
20806.456345421939
 31
0.0
  0
TEXT
  5
17FD3
  8
0-5
  6
CONTINUOUS
 62
     7
 10
15176.679866255159
 20
19284.366897421951
 30
0.0
 40
160.0
  1
C
 72
     4
 11
15230.0131995885
 21
19364.366897421951
 31
0.0
  0
TEXT
  5
17FD4
  8
0-5
  6
CONTINUOUS
 62
     7
 10
15176.679866255159
 20
16716.867887421951
 30
0.0
 40
160.0
  1
B
 72
     4
 11
15230.0131995885
 21
16796.867887421951
 31
0.0
  0
TEXT
  5
17FD5
  8
0-5
  6
CONTINUOUS
 62
     7
 10
15176.679866255159
 20
13798.866897421951
 30
0.0
 40
160.0
  1
A
 72
     4
 11
15230.0131995885
 21
13878.866897421951
 31
0.0
  0
TEXT
  5
17FD6
  8
0-6
  6
CONTINUOUS
 62
     7
 10
10736.308852451129
 20
19896.455817421949
 30
0.0
 40
160.0
  1
屋根
 72
     4
 11
10906.975519117799
 21
19976.455817421949
 31
0.0
  0
TEXT
  5
17FD7
  8
0-6
  6
CONTINUOUS
 62
     7
 10
12088.618087784471
 20
19896.455817421949
 30
0.0
 40
160.0
  1
桁（後）
 72
     4
 11
12408.618087784471
 21
19976.455817421949
 31
0.0
  0
TEXT
  5
17FD8
  8
0-6
  6
CONTINUOUS
 62
     7
 10
11696.725917856
 20
14322.78509042195
 30
0.0
 40
160.0
  1
桁（前）
 72
     4
 11
12016.725917856
 21
14402.78509042195
 31
0.0
  0
TEXT
  5
17FD9
  8
0-6
  6
CONTINUOUS
 62
     7
 10
10703.868434522659
 20
12958.95617342195
 30
0.0
 40
160.0
  1
鼻隠し前
 72
     4
 11
11066.535101189331
 21
13038.95617342195
 31
0.0
  0
TEXT
  5
17FDA
  8
0-6
  6
CONTINUOUS
 62
     7
 10
14585.52087592186
 20
12145.95517042195
 30
0.0
 40
160.0
  1
ケラバ 左
 72
     4
 11
15001.52087592186
 21
12225.95517042195
 31
0.0
  0
TEXT
  5
17FDB
  8
0-6
  6
CONTINUOUS
 62
     7
 10
13061.526964588489
 20
18079.052411085871
 30
0.0
 40
160.0
  1
上枠
 72
     4
 11
13232.193631255161
 21
18159.052411085871
 31
0.0
  0
TEXT
  5
17FDC
  8
0-6
  6
CONTINUOUS
 62
     7
 10
5348.1559355885083
 20
20286.454629421962
 30
0.0
 40
160.0
  1
鼻隠しコーナー後
 72
     4
 11
6094.8226022551744
 21
20366.454629421962
 31
0.0
  0
LINE
  5
17FDD
  8
2-0
  6
CENTER2
 62
     6
 10
7631.8868889218584
 20
20606.457664421949
 30
0.0
 11
7631.8868889218584
 21
19656.457004421951
 31
0.0
  0
CIRCLE
  5
17FDE
  8
0-5
  6
CONTINUOUS
 62
     4
 10
7631.8868889218584
 20
20806.456345421939
 30
0.0
 40
199.9999949999999
  0
TEXT
  5
17FDF
  8
0-5
  6
CONTINUOUS
 62
     7
 10
7605.2202222551914
 20
20726.456345421939
 30
0.0
 40
160.0
  1
1
 72
     4
 11
7631.8868889218584
 21
20806.456345421939
 31
0.0
  0
LINE
  5
17FE0
  8
0-1
  6
CONTINUOUS
 62
     3
 10
7564.3866509218578
 20
16630.919651721018
 30
0.0
 11
7564.3866509218578
 21
19568.956345421921
 31
0.0
  0
LINE
  5
17FE1
  8
0-1
  6
CONTINUOUS
 62
     3
 10
7564.3866509218578
 20
19568.956345421921
 30
0.0
 11
7546.3868889218566
 21
19568.956345421921
 31
0.0
  0
LINE
  5
17FE2
  8
0-1
  6
CONTINUOUS
 62
     3
 10
7619.8874029218496
 20
19551.45740042195
 30
0.0
 11
7619.8874029218496
 21
19581.457004421951
 31
0.0
  0
LINE
  5
17FE3
  8
0-1
  6
CONTINUOUS
 62
     3
 10
7564.3866509218578
 20
19546.455157421951
 30
0.0
 11
7614.8861489218461
 21
19546.455157421951
 31
0.0
  0
LINE
  5
17FE4
  8
0-1
  6
CONTINUOUS
 62
     3
 10
7546.3868889218566
 20
19581.457004421951
 30
0.0
 11
7546.3868889218566
 21
19546.455157421951
 31
0.0
  0
LINE
  5
17FE5
  8
0-1
  6
CONTINUOUS
 62
     3
 10
7614.8861489218461
 20
19586.455289421949
 30
0.0
 11
7551.3881419218587
 21
19586.455289421949
 31
0.0
  0
ARC
  5
17FE6
  8
0-1
  6
CONTINUOUS
 62
     3
 10
7551.3881419218587
 20
19581.457004421951
 30
0.0
 40
5.0
 50
90.0
 51
180.0
  0
ARC
  5
17FE7
  8
0-1
  6
CONTINUOUS
 62
     3
 10
7614.8861489218461
 20
19581.457004421951
 30
0.0
 40
5.0
 50
0.000000000000007
 51
90.0
  0
ARC
  5
17FE8
  8
0-1
  6
CONTINUOUS
 62
     3
 10
7614.8861489218461
 20
19551.45740042195
 30
0.0
 40
5.0
 50
270.00001499981897
 51
0.000000000000007
  0
LINE
  5
17FE9
  8
0-1
  6
CONTINUOUS
 62
     3
 10
10431.88688892185
 20
13841.95606842195
 30
0.0
 11
10431.88688892185
 21
13685.95614742195
 31
0.0
  0
LINE
  5
17FEA
  8
0-1
  6
CONTINUOUS
 62
     3
 10
13947.736831067061
 20
19269.061813313849
 30
0.0
 11
10023.0884355772
 21
17644.161425081362
 31
0.0
  0
LINE
  5
17FEB
  8
0-1
  6
CONTINUOUS
 62
     3
 10
9098.6858299315718
 20
17262.745891226441
 30
0.0
 11
7266.8012919907251
 21
16506.8964218156
 31
0.0
  0
LINE
  5
17FEC
  8
0-1
  6
CONTINUOUS
 62
     3
 10
7681.8865199218499
 20
13717.95605442196
 30
0.0
 11
7681.8865199218499
 21
16679.401561280039
 31
0.0
  0
LINE
  5
17FED
  8
0-1
  6
CONTINUOUS
 62
     3
 10
7546.3868889218566
 20
13685.95614742195
 30
0.0
 11
7546.3868889218566
 21
16623.492813251982
 31
0.0
  0
LINE
  5
17FEE
  8
0-1
  6
CONTINUOUS
 62
     3
 10
7631.8868889218584
 20
13841.95606842195
 30
0.0
 11
7631.8868889218584
 21
16657.533511116071
 31
0.0
  0
LINE
  5
17FEF
  8
0-1
  6
CONTINUOUS
 62
     3
 10
7589.3856349218458
 20
13841.95606842195
 30
0.0
 11
7589.3856349218458
 21
16639.9971710139
 31
0.0
  0
LINE
  5
17FF0
  8
0-1
  6
CONTINUOUS
 62
     3
 10
7681.8865199218499
 20
16679.401561280039
 30
0.0
 11
7681.8865199218499
 21
19528.455395421948
 31
0.0
  0
LINE
  5
17FF1
  8
0-1
  6
CONTINUOUS
 62
     3
 10
7546.3868889218566
 20
16623.492813251982
 30
0.0
 11
7546.3868889218566
 21
19568.956345421921
 31
0.0
  0
LINE
  5
17FF2
  8
2-0
  6
DASHED3
 62
     6
 10
7631.8868889218584
 20
16657.533511116071
 30
0.0
 11
7631.8868889218584
 21
19528.455395421941
 31
0.0
  0
LINE
  5
17FF3
  8
2-0
  6
DASHED3
 62
     6
 10
7589.3856349218458
 20
16639.9971710139
 30
0.0
 11
7589.3856349218458
 21
19528.455395421941
 31
0.0
  0
LINE
  5
17FF4
  8
0-1
  6
CONTINUOUS
 62
     3
 10
10579.384777921839
 20
17873.693519756409
 30
0.0
 11
10579.384777921839
 21
19528.455395421941
 31
0.0
  0
LINE
  5
17FF5
  8
0-1
  6
CONTINUOUS
 62
     3
 10
10542.38460592183
 20
17858.426967855841
 30
0.0
 11
10542.38460592183
 21
19528.455395421941
 31
0.0
  0
LINE
  5
17FF6
  8
0-1
  6
CONTINUOUS
 62
     3
 10
10379.384117921831
 20
17791.171728883732
 30
0.0
 11
10379.384117921831
 21
19528.455395421941
 31
0.0
  0
LINE
  5
17FF7
  8
0-1
  6
CONTINUOUS
 62
     3
 10
10342.383945921831
 20
17775.905176983179
 30
0.0
 11
10342.383945921831
 21
19528.455395421941
 31
0.0
  0
LINE
  5
17FF8
  8
0-1
  6
CONTINUOUS
 62
     3
 10
10179.38345792182
 20
17708.649938011062
 30
0.0
 11
10179.38345792182
 21
19528.455395421941
 31
0.0
  0
LINE
  5
17FF9
  8
0-1
  6
CONTINUOUS
 62
     3
 10
10142.3832859218
 20
17693.383386110509
 30
0.0
 11
10142.3832859218
 21
19528.455395421941
 31
0.0
  0
LINE
  5
17FFA
  8
0-1
  6
CONTINUOUS
 62
     3
 10
9979.3827979218131
 20
17750.086857435181
 30
0.0
 11
9979.3827979218131
 21
19528.455395421941
 31
0.0
  0
LINE
  5
17FFB
  8
0-1
  6
CONTINUOUS
 62
     3
 10
9942.3826259218113
 20
17839.76085434993
 30
0.0
 11
9942.3826259218113
 21
19528.455395421941
 31
0.0
  0
LINE
  5
17FFC
  8
0-1
  6
CONTINUOUS
 62
     3
 10
9779.3821379218098
 20
17704.683263369581
 30
0.0
 11
9779.3821379218098
 21
19528.455395421941
 31
0.0
  0
LINE
  5
17FFD
  8
0-1
  6
CONTINUOUS
 62
     3
 10
9742.3819659218007
 20
17662.140022980711
 30
0.0
 11
9742.3819659218007
 21
19528.455395421941
 31
0.0
  0
LINE
  5
17FFE
  8
0-1
  6
CONTINUOUS
 62
     3
 10
9579.3814779217937
 20
17474.720111946601
 30
0.0
 11
9579.3814779217937
 21
19528.455395421941
 31
0.0
  0
LINE
  5
17FFF
  8
0-1
  6
CONTINUOUS
 62
     3
 10
9542.3813059217864
 20
17432.17687155772
 30
0.0
 11
9542.3813059217864
 21
19528.455395421948
 31
0.0
  0
LINE
  5
18000
  8
0-1
  6
CONTINUOUS
 62
     3
 10
9379.3808179217831
 20
17244.756960523609
 30
0.0
 11
9379.3808179217831
 21
19528.455395421941
 31
0.0
  0
LINE
  5
18001
  8
0-1
  6
CONTINUOUS
 62
     3
 10
9342.3806459217794
 20
17202.213720134721
 30
0.0
 11
9342.3806459217794
 21
19528.455395421948
 31
0.0
  0
LINE
  5
18002
  8
0-1
  6
CONTINUOUS
 62
     3
 10
9179.3801579217743
 20
17067.164947913789
 30
0.0
 11
9179.3801579217743
 21
19528.455395421941
 31
0.0
  0
LINE
  5
18003
  8
0-1
  6
CONTINUOUS
 62
     3
 10
9142.3799859217706
 20
17156.84322794569
 30
0.0
 11
9142.3799859217706
 21
19528.455395421948
 31
0.0
  0
LINE
  5
18004
  8
0-1
  6
CONTINUOUS
 62
     3
 10
8979.379497921771
 20
17213.519192775049
 30
0.0
 11
8979.379497921771
 21
19528.455395421941
 31
0.0
  0
LINE
  5
18005
  8
0-1
  6
CONTINUOUS
 62
     3
 10
8942.3793259217564
 20
17198.252640874482
 30
0.0
 11
8942.3793259217564
 21
19528.455395421948
 31
0.0
  0
LINE
  5
18006
  8
0-1
  6
CONTINUOUS
 62
     3
 10
8779.3788379217585
 20
17130.997401902368
 30
0.0
 11
8779.3788379217585
 21
19528.455395421941
 31
0.0
  0
LINE
  5
18007
  8
0-1
  6
CONTINUOUS
 62
     3
 10
8742.3786659217512
 20
17115.730850001819
 30
0.0
 11
8742.3786659217512
 21
19528.455395421948
 31
0.0
  0
LINE
  5
18008
  8
0-1
  6
CONTINUOUS
 62
     3
 10
8579.3781779217461
 20
17048.475611029698
 30
0.0
 11
8579.3781779217461
 21
19528.455395421941
 31
0.0
  0
LINE
  5
18009
  8
0-1
  6
CONTINUOUS
 62
     3
 10
8542.3780059217461
 20
17033.209059129149
 30
0.0
 11
8542.3780059217461
 21
19528.455395421948
 31
0.0
  0
LINE
  5
1800A
  8
0-1
  6
CONTINUOUS
 62
     3
 10
8379.3775179217391
 20
16965.953820157029
 30
0.0
 11
8379.3775179217391
 21
19528.455395421941
 31
0.0
  0
LINE
  5
1800B
  8
0-1
  6
CONTINUOUS
 62
     3
 10
8342.3773459217336
 20
16950.687268256461
 30
0.0
 11
8342.3773459217336
 21
19528.455395421948
 31
0.0
  0
LINE
  5
1800C
  8
0-1
  6
CONTINUOUS
 62
     3
 10
10372.386519921851
 20
13878.455421421961
 30
0.0
 11
7774.9888140359708
 21
16716.578451956459
 31
0.0
  0
LINE
  5
1800D
  8
0-1
  6
CONTINUOUS
 62
     3
 10
7701.8868889218538
 20
13878.455421421961
 30
0.0
 11
10372.386519921851
 21
16796.455421421961
 31
0.0
  0
LINE
  5
1800E
  8
0-6
  6
CONTINUOUS
 62
     6
 10
7684.8865199218508
 20
14240.3947005996
 30
0.0
 11
8584.3239293446259
 21
12908.46773969585
 31
0.0
  0
LINE
  5
1800F
  8
2-0
  6
DASHED3
 62
     6
 10
10372.386519921851
 20
19363.955421421961
 30
0.0
 11
7701.8868889218538
 21
16796.455421421961
 31
0.0
  0
LINE
  5
18010
  8
2-0
  6
DASHED3
 62
     6
 10
7701.8868889218538
 20
19363.955421421961
 30
0.0
 11
9619.2417036762035
 21
17520.551876356341
 31
0.0
  0
LINE
  5
18011
  8
0-1
  6
CONTINUOUS
 62
     3
 10
9619.2417036762035
 20
17520.551876356341
 30
0.0
 11
10372.386519921851
 21
16796.455421421961
 31
0.0
  0
LINE
  5
18012
  8
0-1
  6
CONTINUOUS
 62
     3
 10
10023.08897333697
 20
17644.160121761241
 30
0.0
 11
9927.7349530134616
 21
17875.261104867441
 31
0.0
  0
LINE
  5
18013
  8
0-1
  6
CONTINUOUS
 62
     3
 10
9194.0354208302433
 20
17031.644605709811
 30
0.0
 11
9098.6847711527316
 21
17262.748457416281
 31
0.0
  0
LINE
  5
18014
  8
0-1
  6
CONTINUOUS
 62
     3
 10
9194.0354208302433
 20
17031.644605709811
 30
0.0
 11
9927.7349530134616
 21
17875.261104867441
 31
0.0
  0
LINE
  5
18015
  8
0-6
  6
CONTINUOUS
 62
     6
 10
12425.60545530733
 20
16226.994138030561
 30
0.0
 11
11545.60651130732
 21
16226.994138030561
 31
0.0
  0
LINE
  5
18016
  8
0-6
  6
CONTINUOUS
 62
     6
 10
12603.367592655721
 20
16056.97701036024
 30
0.0
 11
12425.60545530733
 21
16226.994138030561
 31
0.0
  0
LINE
  5
18017
  8
0-6
  6
CONTINUOUS
 62
     6
 10
12718.99523265571
 20
15946.38724636024
 30
0.0
 11
12621.797900655711
 21
16076.249603360249
 31
0.0
  0
LINE
  5
18018
  8
0-6
  6
CONTINUOUS
 62
     6
 10
12584.936295655731
 20
16037.70441736025
 30
0.0
 11
12718.99523265571
 21
15946.38724636024
 31
0.0
  0
LINE
  5
18019
  8
0-6
  6
CONTINUOUS
 62
     6
 10
12584.936295655731
 20
16037.70441736025
 30
0.0
 11
12621.797900655711
 21
16076.249603360249
 31
0.0
  0
TEXT
  5
1801A
  8
0-6
  6
CONTINUOUS
 62
     7
 10
11620.27086797399
 20
16306.99440203057
 30
0.0
 40
160.0
  1
ブレース
 72
     4
 11
11982.93753464066
 21
16392.32773536391
 31
0.0
  0
LINE
  5
1801B
  8
0-6
  6
CONTINUOUS
 62
     6
 10
11360.114522059221
 20
16851.45790242196
 30
0.0
 11
11479.412140391591
 21
17167.050240421951
 31
0.0
  0
LINE
  5
1801C
  8
0-6
  6
CONTINUOUS
 62
     6
 10
12279.98290139157
 20
17167.050240421951
 30
0.0
 11
11479.412140391591
 21
17167.050240421951
 31
0.0
  0
TEXT
  5
1801D
  8
0-6
  6
CONTINUOUS
 62
     7
 10
11559.41253639159
 20
17247.050504421972
 30
0.0
 40
160.0
  1
桁（中）
 72
     4
 11
11879.41253639159
 21
17327.050504421972
 31
0.0
  0
LINE
  5
1801E
  8
0-6
  6
CONTINUOUS
 62
     6
 10
9727.4097208646053
 20
14260.473702225931
 30
0.0
 11
8847.4107768645863
 21
14260.473702225931
 31
0.0
  0
LINE
  5
1801F
  8
0-6
  6
CONTINUOUS
 62
     6
 10
8479.6690712899672
 20
14728.322008859101
 30
0.0
 11
8847.4107768645863
 21
14260.473702225931
 31
0.0
  0
TEXT
  5
18020
  8
0-6
  6
CONTINUOUS
 62
     7
 10
8922.0751335312507
 20
14340.473966225931
 30
0.0
 40
160.0
  1
ブレース
 72
     4
 11
9284.7418001979167
 21
14425.80729955927
 31
0.0
  0
LINE
  5
18021
  8
0-6
  6
CONTINUOUS
 62
     6
 10
9447.0055103114046
 20
16220.28455002235
 30
0.0
 11
8654.1545728887068
 21
16220.28455002235
 31
0.0
  0
TEXT
  5
18022
  8
0-6
  6
CONTINUOUS
 62
     7
 10
8756.3857514578558
 20
16300.28481402235
 30
0.0
 40
160.0
  1
桁（P）
 72
     4
 11
9060.3857514578558
 21
16380.28481402235
 31
0.0
  0
LINE
  5
18023
  8
0-6
  6
CONTINUOUS
 62
     6
 10
9447.0055103114046
 20
16220.28455002235
 30
0.0
 11
9762.2967609259722
 21
16751.455026421962
 31
0.0
  0
LINE
  5
18024
  8
SUNPOU
  6
CONTINUOUS
 10
14629.88666492184
 20
19586.453309921959
 30
0.0
 11
14629.88666492184
 21
20383.420577700432
 31
0.0
  0
LINE
  5
18025
  8
SUNPOU
  6
CONTINUOUS
 10
14629.88666492186
 20
12944.64355726977
 30
0.0
 11
14629.88666492186
 21
13685.95614742195
 31
0.0
  0
LINE
  5
18026
  8
0-1
  6
CONTINUOUS
 62
     3
 10
8179.3768579217331
 20
16883.432029284391
 30
0.0
 11
8179.3768579217331
 21
19528.455395421941
 31
0.0
  0
LINE
  5
18027
  8
0-1
  6
CONTINUOUS
 62
     3
 10
8142.3766859217249
 20
16868.165477383842
 30
0.0
 11
8142.3766859217249
 21
19528.455395421948
 31
0.0
  0
LINE
  5
18028
  8
0-1
  6
CONTINUOUS
 62
     3
 10
7979.3761979217288
 20
16800.910238411729
 30
0.0
 11
7979.3761979217225
 21
19528.455395421941
 31
0.0
  0
LINE
  5
18029
  8
0-1
  6
CONTINUOUS
 62
     3
 10
7942.3760259217142
 20
16785.643686511161
 30
0.0
 11
7942.3760259217142
 21
19528.455395421948
 31
0.0
  0
LINE
  5
1802A
  8
0-1
  6
CONTINUOUS
 62
     3
 10
7779.3755379217173
 20
16718.388447539051
 30
0.0
 11
7779.3755379217173
 21
19528.455395421941
 31
0.0
  0
LINE
  5
1802B
  8
0-1
  6
CONTINUOUS
 62
     3
 10
7742.3753659217127
 20
16703.121895638491
 30
0.0
 11
7742.3753659217127
 21
19528.455395421948
 31
0.0
  0
LINE
  5
1802C
  8
0-1
  6
CONTINUOUS
 62
     3
 10
12579.385436921841
 20
18702.530881742961
 30
0.0
 11
12579.385436921841
 21
19528.455395421941
 31
0.0
  0
LINE
  5
1802D
  8
0-1
  6
CONTINUOUS
 62
     3
 10
12542.384275921861
 20
18687.21149645916
 30
0.0
 11
12542.384275921861
 21
19528.455395421941
 31
0.0
  0
LINE
  5
1802E
  8
0-1
  6
CONTINUOUS
 62
     3
 10
12379.385766921851
 20
18619.726128633662
 30
0.0
 11
12379.385766921851
 21
19528.455395421941
 31
0.0
  0
LINE
  5
1802F
  8
0-1
  6
CONTINUOUS
 62
     3
 10
12342.38658592184
 20
18604.407563118271
 30
0.0
 11
12342.38658592184
 21
19528.455395421941
 31
0.0
  0
LINE
  5
18030
  8
0-1
  6
CONTINUOUS
 62
     3
 10
12179.38510792184
 20
18536.92096605416
 30
0.0
 11
12179.38510792184
 21
19528.455395421941
 31
0.0
  0
LINE
  5
18031
  8
0-1
  6
CONTINUOUS
 62
     3
 10
12142.38493592184
 20
18521.601990240561
 30
0.0
 11
12142.38493592184
 21
19528.455395421941
 31
0.0
  0
LINE
  5
18032
  8
0-1
  6
CONTINUOUS
 62
     3
 10
11979.38543692185
 20
18454.11621253084
 30
0.0
 11
11979.38543692185
 21
19528.455395421941
 31
0.0
  0
LINE
  5
18033
  8
0-1
  6
CONTINUOUS
 62
     3
 10
11942.384275921861
 20
18438.796827247061
 30
0.0
 11
11942.384275921861
 21
19528.455395421941
 31
0.0
  0
LINE
  5
18034
  8
0-1
  6
CONTINUOUS
 62
     3
 10
12779.38510792184
 20
18785.335635266289
 30
0.0
 11
12779.38510792184
 21
19528.455395421941
 31
0.0
  0
LINE
  5
18035
  8
0-1
  6
CONTINUOUS
 62
     3
 10
12742.38493592184
 20
18770.016659452682
 30
0.0
 11
12742.38493592184
 21
19528.455395421941
 31
0.0
  0
LINE
  5
18036
  8
0-6
  6
CONTINUOUS
 62
     6
 10
10505.385969365911
 20
13154.78567102235
 30
0.0
 11
9712.5350319432182
 21
13154.78567102235
 31
0.0
  0
TEXT
  5
18037
  8
0-6
  6
CONTINUOUS
 62
     7
 10
9718.7662105123491
 20
13234.785935022361
 30
0.0
 40
160.0
  1
桁前（P）
 72
     4
 11
10118.766210512351
 21
13314.785935022361
 31
0.0
  0
LINE
  5
18038
  8
0-6
  6
CONTINUOUS
 62
     6
 10
9712.5350319432182
 20
13154.78567102235
 30
0.0
 11
9397.2437813286397
 21
13685.95614742197
 31
0.0
  0
LINE
  5
18039
  8
0-6
  6
CONTINUOUS
 62
     6
 10
9447.0055103114046
 20
19844.522950715829
 30
0.0
 11
8654.1545728887068
 21
19844.522950715829
 31
0.0
  0
TEXT
  5
1803A
  8
0-6
  6
CONTINUOUS
 62
     7
 10
8756.3857514578558
 20
19924.523214715831
 30
0.0
 40
160.0
  1
桁（P）
 72
     4
 11
9060.3857514578558
 21
20004.523214715831
 31
0.0
  0
LINE
  5
1803B
  8
0-6
  6
CONTINUOUS
 62
     6
 10
9447.0055103114046
 20
19844.522950715829
 30
0.0
 11
9894.8761098089417
 21
19419.125990432382
 31
0.0
  0
LINE
  5
1803C
  8
0-1
  6
CONTINUOUS
 62
     3
 10
7622.8864139218558
 20
19576.45872042195
 30
0.0
 11
13709.38736392188
 21
19576.45872042195
 31
0.0
  0
LINE
  5
1803D
  8
0-1
  6
CONTINUOUS
 62
     3
 10
7567.3866509218578
 20
19528.455395421941
 30
0.0
 11
13764.888115921871
 21
19528.455395421941
 31
0.0
  0
LINE
  5
1803E
  8
0-6
  6
CONTINUOUS
 62
     6
 10
11520.81335729282
 20
19718.86132842195
 30
0.0
 11
11477.511388292811
 21
19693.860008421951
 31
0.0
  0
LINE
  5
1803F
  8
0-6
  6
CONTINUOUS
 62
     6
 10
11520.81335729282
 20
19718.86132842195
 30
0.0
 11
11574.161383292831
 21
19576.458720421921
 31
0.0
  0
LINE
  5
18040
  8
0-6
  6
CONTINUOUS
 62
     6
 10
11477.511388292811
 20
19693.860008421951
 30
0.0
 11
11520.81335729282
 21
19718.86132842195
 31
0.0
  0
LINE
  5
18041
  8
0-6
  6
CONTINUOUS
 62
     6
 10
11574.161383292831
 20
19576.458720421921
 30
0.0
 11
11477.511388292811
 21
19693.860008421951
 31
0.0
  0
LINE
  5
18042
  8
0-6
  6
CONTINUOUS
 62
     6
 10
11574.161383292831
 20
19576.458720421921
 30
0.0
 11
11520.81335729282
 21
19718.86132842195
 31
0.0
  0
LINE
  5
18043
  8
0-6
  6
CONTINUOUS
 62
     6
 10
11477.511388292811
 20
19693.860008421951
 30
0.0
 11
11574.161383292831
 21
19576.458720421921
 31
0.0
  0
LINE
  5
18044
  8
0-6
  6
CONTINUOUS
 62
     6
 10
11499.16336229282
 20
19706.362648421949
 30
0.0
 11
11273.57754562314
 21
20130.032488153061
 31
0.0
  0
TEXT
  5
18045
  8
0-6
  6
CONTINUOUS
 62
     7
 10
11099.90634229283
 20
20686.457928421951
 30
0.0
 40
160.0
  1
鼻隠し後
 72
     4
 11
11462.5730089595
 21
20766.457928421951
 31
0.0
  0
LINE
  5
18046
  8
0-6
  6
CONTINUOUS
 62
     6
 10
11019.904098292831
 20
20606.457664421949
 30
0.0
 11
11862.34365729282
 21
20606.457664421949
 31
0.0
  0
LINE
  5
18047
  8
0-6
  6
CONTINUOUS
 62
     6
 10
11205.54368657062
 20
20257.807167105351
 30
0.0
 11
11019.904098292831
 21
20606.457664421949
 31
0.0
  0
LINE
  5
18048
  8
2-0
  6
DASHED3
 62
     6
 10
7701.8868889218538
 20
16796.455421421961
 30
0.0
 11
7774.9888140359708
 21
16716.578451956459
 31
0.0
  0
TEXT
  5
18051
  8
0-6
  6
CONTINUOUS
 62
     7
 10
8648.5216175266669
 20
12988.46701369585
 30
0.0
 40
160.0
  1
梁（P）前
 72
     4
 11
9091.1882841933348
 21
13068.46701369585
 31
0.0
  0
LINE
  5
18052
  8
0-6
  6
CONTINUOUS
 62
     6
 10
8584.3239293446259
 20
12908.46773969585
 30
0.0
 11
9599.3140986694725
 21
12908.46773969585
 31
0.0
  0
LINE
  5
18064
  8
0-1
  6
CONTINUOUS
 62
     3
 10
13179.385436921841
 20
18950.94555095509
 30
0.0
 11
13179.385436921841
 21
19528.455395421941
 31
0.0
  0
LINE
  5
18065
  8
0-1
  6
CONTINUOUS
 62
     3
 10
13142.384275921861
 20
18935.626165671281
 30
0.0
 11
13142.384275921861
 21
19528.455395421941
 31
0.0
  0
LINE
  5
18066
  8
0-1
  6
CONTINUOUS
 62
     3
 10
12979.385766921851
 20
18868.14079784579
 30
0.0
 11
12979.385766921851
 21
19528.455395421941
 31
0.0
  0
LINE
  5
18067
  8
0-1
  6
CONTINUOUS
 62
     3
 10
12942.38658592184
 20
18852.822232330389
 30
0.0
 11
12942.38658592184
 21
19528.455395421941
 31
0.0
  0
LINE
  5
18068
  8
0-1
  6
CONTINUOUS
 62
     3
 10
13379.38510792184
 20
19033.750304478421
 30
0.0
 11
13379.38510792184
 21
19528.455395421941
 31
0.0
  0
LINE
  5
18069
  8
0-1
  6
CONTINUOUS
 62
     3
 10
13342.38493592184
 20
19018.431328664788
 30
0.0
 11
13342.38493592184
 21
19528.455395421941
 31
0.0
  0
LINE
  5
1806A
  8
0-1
  6
CONTINUOUS
 62
     3
 10
13579.384778921851
 20
19116.555058001752
 30
0.0
 11
13579.384778921851
 21
19528.455395421941
 31
0.0
  0
LINE
  5
1806B
  8
0-1
  6
CONTINUOUS
 62
     3
 10
13542.38460692186
 20
19101.236082188141
 30
0.0
 11
13542.38460692186
 21
19528.455395421941
 31
0.0
  0
CIRCLE
  5
1806C
  8
0-5
  6
CONTINUOUS
 62
     4
 10
15128.71667799999
 20
1375.999982000003
 30
0.0
 40
20.0
  0
ARC
  5
1806D
  8
0-5
  6
CONTINUOUS
 62
     4
 10
15128.71667799999
 20
1375.999982000003
 30
0.0
 40
20.0
 50
180.0
 51
0.0
  0
ARC
  5
1806E
  8
0-5
  6
CONTINUOUS
 62
     4
 10
15128.71667799999
 20
1375.999982000003
 30
0.0
 40
20.0
 50
0.0
 51
179.99998499999839
  0
CIRCLE
  5
1806F
  8
0-5
  6
CONTINUOUS
 62
     4
 10
15128.71667799999
 20
1775.9993219999999
 30
0.0
 40
20.0
  0
ARC
  5
18070
  8
0-5
  6
CONTINUOUS
 62
     4
 10
15128.71667799999
 20
1775.9993219999999
 30
0.0
 40
20.0
 50
180.0
 51
0.0
  0
ARC
  5
18071
  8
0-5
  6
CONTINUOUS
 62
     4
 10
15128.71667799999
 20
1775.9993219999999
 30
0.0
 40
20.0
 50
0.0
 51
179.99998499999839
  0
TEXT
  5
18072
  8
0-5
  6
CONTINUOUS
 62
     7
 10
16661.217403999992
 20
1655.9997920000019
 30
0.0
 40
160.0
  1
H
  0
TEXT
  5
18073
  8
0-5
  6
CONTINUOUS
 62
     7
 10
15176.146933
 20
1655.9997920000019
 30
0.0
 40
160.0
  1
（ ）内寸法ハ、  タイプヲ示ス。
  0
TEXT
  5
18074
  8
0-5
  6
CONTINUOUS
 62
     7
 10
15288.716216000001
 20
1255.999462000002
 30
0.0
 40
160.0
  1
有効高サハ、基礎高サヲ含ミマセン。
  0
LINE
  5
18077
  8
WAKUSEN-01
 10
868.00000000000193
 20
22484.000000000011
 30
0.0
 11
32764.000000000011
 21
22484.000000000011
 31
0.0
  0
LINE
  5
1807A
  8
WAKUSEN-01
 10
20560.0
 20
2484.0
 30
0.0
 11
32764.0
 21
2484.0
 31
0.0
  0
LINE
  5
1807B
  8
WAKUSEN-02
 10
20560.0
 20
1655.9999999999991
 30
0.0
 11
26868.0
 21
1655.9999999999991
 31
0.0
  0
TEXT
  5
1807C
  8
WAKUMOJI-01
 10
20670.260259962761
 20
2125.9030093393221
 30
0.0
 40
240.0
  1
名　称
  7
WAKUMOJI
  0
TEXT
  5
1807D
  8
WAKUMOJI-01
 10
20656.505485091919
 20
1319.12897497982
 30
0.0
 40
240.0
  1
機種名
  7
WAKUMOJI
  0
LINE
  5
18080
  8
YODOROGO
 10
29977.604341291921
 20
1995.7494964292871
 30
0.0
 11
29829.604341291921
 21
1995.7494964292871
 31
0.0
1001
AUTOCAD_POSTSCRIPT_FIGURE
1002
{
1000
PSFILL
1000
Grayscale
1000
Grayscale
1070
    25
1002
}
  0
LINE
  5
18081
  8
YODOROGO
 10
29829.604341291921
 20
1947.749496429288
 30
0.0
 11
29977.604341291921
 21
1947.749496429288
 31
0.0
1001
AUTOCAD_POSTSCRIPT_FIGURE
1002
{
1000
PSFILL
1000
Grayscale
1000
Grayscale
1070
    25
1002
}
  0
LINE
  5
18082
  8
YODOROGO
 10
29977.604341291921
 20
1907.7494964292871
 30
0.0
 11
29829.604341291921
 21
1907.7494964292871
 31
0.0
1001
AUTOCAD_POSTSCRIPT_FIGURE
1002
{
1000
PSFILL
1000
Grayscale
1000
Grayscale
1070
    25
1002
}
  0
LINE
  5
18083
  8
YODOROGO
 10
29829.604341291921
 20
1859.749496429288
 30
0.0
 11
29977.604341291921
 21
1859.749496429288
 31
0.0
1001
AUTOCAD_POSTSCRIPT_FIGURE
1002
{
1000
PSFILL
1000
Grayscale
1000
Grayscale
1070
    25
1002
}
  0
LINE
  5
18084
  8
YODOROGO
 10
29977.604341291921
 20
1819.7494964292871
 30
0.0
 11
29829.604341291921
 21
1819.7494964292871
 31
0.0
1001
AUTOCAD_POSTSCRIPT_FIGURE
1002
{
1000
PSFILL
1000
Grayscale
1000
Grayscale
1070
    25
1002
}
  0
LINE
  5
18085
  8
YODOROGO
 10
29921.60434129191
 20
1707.749496429288
 30
0.0
 11
29977.604341291921
 21
1707.749496429288
 31
0.0
1001
AUTOCAD_POSTSCRIPT_FIGURE
1002
{
1000
PSFILL
1000
Grayscale
1000
Grayscale
1070
    25
1002
}
  0
LINE
  5
18086
  8
YODOROGO
 10
29737.604341291921
 20
1427.749496429288
 30
0.0
 11
29937.604341291932
 21
1481.3393349155101
 31
0.0
  0
LINE
  5
18087
  8
YODOROGO
 10
29949.60434129191
 20
1707.749496429288
 30
0.0
 11
29885.604341291921
 21
1707.749496429288
 31
0.0
  0
ARC
  5
18088
  8
YODOROGO
 10
30254.34774982791
 20
1807.864609233261
 30
0.0
 40
381.88686420564721
 50
213.96111677667841
 51
264.47872074317792
  0
ARC
  5
18089
  8
YODOROGO
 10
30254.347749827921
 20
1807.864609233302
 30
0.0
 40
381.8868642056816
 50
208.14114420486601
 51
212.9210361185994
  0
LINE
  5
1808A
  8
YODOROGO
 10
29771.409872985321
 20
1556.807661346234
 30
0.0
 11
29933.78413250855
 21
1600.3157130570869
 31
0.0
  0
LINE
  5
1808B
  8
YODOROGO
 10
29737.604341291921
 20
1427.749496429288
 30
0.0
 11
29937.604341291932
 21
1481.3393349155101
 31
0.0
  0
LINE
  5
1808C
  8
YODOROGO
 10
29949.60434129191
 20
1707.749496429288
 30
0.0
 11
29885.604341291921
 21
1707.749496429288
 31
0.0
  0
ARC
  5
1808D
  8
YODOROGO
 10
30254.34774982791
 20
1807.864609233261
 30
0.0
 40
381.88686420564721
 50
213.96111677667841
 51
264.47872074317792
  0
LINE
  5
1808E
  8
YODOROGO
 10
28793.60434129191
 20
1819.7494964292871
 30
0.0
 11
28433.60434129191
 21
1819.7494964292871
 31
0.0
  0
LINE
  5
1808F
  8
YODOROGO
 10
28513.60434129191
 20
1427.749496429288
 30
0.0
 11
28793.60434129191
 21
1427.749496429288
 31
0.0
  0
LINE
  5
18090
  8
YODOROGO
 10
28729.604341291921
 20
1923.7494964292871
 30
0.0
 11
28497.60434129191
 21
1923.7494964292871
 31
0.0
  0
LINE
  5
18091
  8
YODOROGO
 10
28585.604341291921
 20
2027.749496429288
 30
0.0
 11
28657.604341291921
 21
2027.749496429288
 31
0.0
  0
LINE
  5
18092
  8
YODOROGO
 10
28433.60434129191
 20
1707.749496429288
 30
0.0
 11
28433.60434129191
 21
1507.749496429288
 31
0.0
  0
LINE
  5
18093
  8
YODOROGO
 10
28497.60434129191
 20
1563.7494964292871
 30
0.0
 11
28497.60434129191
 21
1707.749496429288
 31
0.0
  0
LINE
  5
18094
  8
YODOROGO
 10
28585.604341291921
 20
1747.74949642929
 30
0.0
 11
28585.604341291921
 21
1547.749496429288
 31
0.0
  0
LINE
  5
18095
  8
YODOROGO
 10
27857.604341291921
 20
1683.749496429288
 30
0.0
 11
27777.604341291921
 21
1619.9724140445701
 31
0.0
  0
LINE
  5
18096
  8
YODOROGO
 10
27937.604341291921
 20
1619.9724140445701
 30
0.0
 11
27857.604341291921
 21
1683.749496429288
 31
0.0
  0
LINE
  5
18097
  8
YODOROGO
 10
27857.604341291921
 20
1707.749496429288
 30
0.0
 11
27937.604341291921
 21
1643.9724140445701
 31
0.0
  0
LINE
  5
18098
  8
YODOROGO
 10
27777.604341291921
 20
1643.9724140445701
 30
0.0
 11
27857.604341291921
 21
1707.749496429288
 31
0.0
  0
LINE
  5
18099
  8
YODOROGO
 10
28040.913204016892
 20
1659.749496429288
 30
0.0
 11
28040.913204016892
 21
1683.7494964292871
 31
0.0
  0
LINE
  5
1809A
  8
YODOROGO
 10
27977.604341291921
 20
1683.7494964292871
 30
0.0
 11
27977.604341291921
 21
1667.749496429285
 31
0.0
  0
LINE
  5
1809B
  8
YODOROGO
 10
28098.135520230931
 20
1707.749496429288
 30
0.0
 11
28098.135520230931
 21
1655.5036372746561
 31
0.0
1001
AUTOCAD_POSTSCRIPT_FIGURE
1002
{
1000
PSFILL
1000
Grayscale
1000
Grayscale
1070
   100
1002
}
  0
LINE
  5
1809C
  8
YODOROGO
 10
28082.135520230921
 20
1655.5036372746561
 30
0.0
 11
28082.135520230921
 21
1707.749496429288
 31
0.0
1001
AUTOCAD_POSTSCRIPT_FIGURE
1002
{
1000
PSFILL
1000
Grayscale
1000
Grayscale
1070
   100
1002
}
  0
LINE
  5
1809D
  8
YODOROGO
 10
27809.604341291921
 20
1608.771904043258
 30
0.0
 11
27809.604341291921
 21
1632.771904043258
 31
0.0
  0
LINE
  5
1809E
  8
YODOROGO
 10
27905.604341291921
 20
1608.771904043258
 30
0.0
 11
27809.604341291921
 21
1608.771904043258
 31
0.0
  0
LINE
  5
1809F
  8
YODOROGO
 10
27905.604341291921
 20
1632.771904043258
 30
0.0
 11
27905.604341291921
 21
1608.771904043258
 31
0.0
  0
LINE
  5
180A0
  8
YODOROGO
 10
27809.604341291921
 20
1632.771904043258
 30
0.0
 11
27905.604341291921
 21
1632.771904043258
 31
0.0
  0
LINE
  5
180A1
  8
YODOROGO
 10
27824.509588915738
 20
1568.5028573704751
 30
0.0
 11
27785.604341291921
 21
1475.7494964292871
 31
0.0
1001
AUTOCAD_POSTSCRIPT_FIGURE
1002
{
1000
PSFILL
1000
Grayscale
1000
Grayscale
1070
   100
1002
}
  0
LINE
  5
180A2
  8
YODOROGO
 10
27777.604341291921
 20
1568.5028573704751
 30
0.0
 11
27824.509588915738
 21
1568.5028573704751
 31
0.0
1001
AUTOCAD_POSTSCRIPT_FIGURE
1002
{
1000
PSFILL
1000
Grayscale
1000
Grayscale
1070
   100
1002
}
  0
LINE
  5
180A3
  8
YODOROGO
 10
27777.604341291921
 20
1588.5028573704751
 30
0.0
 11
27777.604341291921
 21
1568.5028573704751
 31
0.0
1001
AUTOCAD_POSTSCRIPT_FIGURE
1002
{
1000
PSFILL
1000
Grayscale
1000
Grayscale
1070
   100
1002
}
  0
LINE
  5
180A4
  8
YODOROGO
 10
27937.604341291921
 20
1588.5028573704751
 30
0.0
 11
27777.604341291921
 21
1588.5028573704751
 31
0.0
1001
AUTOCAD_POSTSCRIPT_FIGURE
1002
{
1000
PSFILL
1000
Grayscale
1000
Grayscale
1070
   100
1002
}
  0
LINE
  5
180A5
  8
YODOROGO
 10
27937.604341291921
 20
1568.5028573704751
 30
0.0
 11
27937.604341291921
 21
1588.5028573704751
 31
0.0
1001
AUTOCAD_POSTSCRIPT_FIGURE
1002
{
1000
PSFILL
1000
Grayscale
1000
Grayscale
1070
   100
1002
}
  0
LINE
  5
180A6
  8
YODOROGO
 10
27844.509588915738
 20
1568.5028573704751
 30
0.0
 11
27937.604341291921
 21
1568.5028573704751
 31
0.0
1001
AUTOCAD_POSTSCRIPT_FIGURE
1002
{
1000
PSFILL
1000
Grayscale
1000
Grayscale
1070
   100
1002
}
  0
LINE
  5
180A7
  8
YODOROGO
 10
27815.546718284771
 20
1495.7494964292871
 30
0.0
 11
27844.509588915738
 21
1568.5028573704751
 31
0.0
1001
AUTOCAD_POSTSCRIPT_FIGURE
1002
{
1000
PSFILL
1000
Grayscale
1000
Grayscale
1070
   100
1002
}
  0
LINE
  5
180A8
  8
YODOROGO
 10
27902.054790808648
 20
1495.7494964292871
 30
0.0
 11
27815.546718284771
 21
1495.7494964292871
 31
0.0
1001
AUTOCAD_POSTSCRIPT_FIGURE
1002
{
1000
PSFILL
1000
Grayscale
1000
Grayscale
1070
   100
1002
}
  0
LINE
  5
180A9
  8
YODOROGO
 10
27885.065004790951
 20
1536.2338106976929
 30
0.0
 11
27902.054790808648
 21
1495.7494964292871
 31
0.0
1001
AUTOCAD_POSTSCRIPT_FIGURE
1002
{
1000
PSFILL
1000
Grayscale
1000
Grayscale
1070
   100
1002
}
  0
LINE
  5
180AA
  8
YODOROGO
 10
27901.065004790951
 20
1536.2338106976929
 30
0.0
 11
27885.065004790951
 21
1536.2338106976929
 31
0.0
1001
AUTOCAD_POSTSCRIPT_FIGURE
1002
{
1000
PSFILL
1000
Grayscale
1000
Grayscale
1070
   100
1002
}
  0
LINE
  5
180AB
  8
YODOROGO
 10
27929.604341291921
 20
1475.7494964292871
 30
0.0
 11
27901.065004790951
 21
1536.2338106976929
 31
0.0
1001
AUTOCAD_POSTSCRIPT_FIGURE
1002
{
1000
PSFILL
1000
Grayscale
1000
Grayscale
1070
   100
1002
}
  0
LINE
  5
180AC
  8
YODOROGO
 10
27785.604341291921
 20
1475.7494964292871
 30
0.0
 11
27929.604341291921
 21
1475.7494964292871
 31
0.0
1001
AUTOCAD_POSTSCRIPT_FIGURE
1002
{
1000
PSFILL
1000
Grayscale
1000
Grayscale
1070
   100
1002
}
  0
LINE
  5
180AD
  8
YODOROGO
 10
27777.604341291921
 20
1619.9724140445701
 30
0.0
 11
27777.604341291921
 21
1643.9724140445701
 31
0.0
  0
LINE
  5
180AE
  8
YODOROGO
 10
27937.604341291921
 20
1643.9724140445701
 30
0.0
 11
27937.604341291921
 21
1619.9724140445701
 31
0.0
  0
ARC
  5
180AF
  8
YODOROGO
 10
28225.940442146959
 20
1600.877765325326
 30
0.0
 40
175.9999999999998
 50
280.3644312771313
 51
3.5414836592180561
  0
ARC
  5
180B0
  8
YODOROGO
 10
28235.756030759301
 20
1633.5978069619041
 30
0.0
 40
111.9999999999982
 50
281.24905825041549
 51
348.75094174958321
  0
LINE
  5
180B1
  8
YODOROGO
 10
28257.604341291921
 20
1523.7494964292871
 30
0.0
 11
28257.604341291921
 21
1427.749496429288
 31
0.0
  0
LINE
  5
180B2
  8
YODOROGO
 10
28020.088903736909
 20
1610.650565061914
 30
0.0
 11
28040.913204016892
 21
1659.749496429288
 31
0.0
  0
LINE
  5
180B3
  8
YODOROGO
 10
28041.604341291921
 20
1583.120489948401
 30
0.0
 11
28020.088903736909
 21
1610.650565061914
 31
0.0
  0
LINE
  5
180B4
  8
YODOROGO
 10
28041.604341291921
 20
1563.120489948398
 30
0.0
 11
28041.604341291921
 21
1583.120489948401
 31
0.0
  0
LINE
  5
180B5
  8
YODOROGO
 10
28017.604341291921
 20
1585.2370637495301
 30
0.0
 11
28041.604341291921
 21
1563.120489948398
 31
0.0
  0
LINE
  5
180B6
  8
YODOROGO
 10
28017.604341291921
 20
1475.7494964292871
 30
0.0
 11
28017.604341291921
 21
1585.2370637495301
 31
0.0
  0
LINE
  5
180B7
  8
YODOROGO
 10
28001.604341291921
 20
1475.7494964292871
 30
0.0
 11
28017.604341291921
 21
1475.7494964292871
 31
0.0
  0
LINE
  5
180B8
  8
YODOROGO
 10
28001.604341291921
 20
1580.0053496897469
 30
0.0
 11
28001.604341291921
 21
1475.7494964292871
 31
0.0
  0
LINE
  5
180B9
  8
YODOROGO
 10
27977.604341291921
 20
1532.7680790334291
 30
0.0
 11
28001.604341291921
 21
1580.0053496897469
 31
0.0
  0
LINE
  5
180BA
  8
YODOROGO
 10
27977.604341291921
 20
1556.76807903343
 30
0.0
 11
27977.604341291921
 21
1532.7680790334291
 31
0.0
  0
LINE
  5
180BB
  8
YODOROGO
 10
28025.828774291349
 20
1667.749496429285
 30
0.0
 11
27977.604341291921
 21
1556.76807903343
 31
0.0
  0
LINE
  5
180BC
  8
YODOROGO
 10
27977.604341291921
 20
1667.749496429285
 30
0.0
 11
28025.828774291349
 21
1667.749496429285
 31
0.0
  0
LINE
  5
180BD
  8
YODOROGO
 10
28050.135520230899
 20
1655.5036372746561
 30
0.0
 11
28082.135520230921
 21
1655.5036372746561
 31
0.0
1001
AUTOCAD_POSTSCRIPT_FIGURE
1002
{
1000
PSFILL
1000
Grayscale
1000
Grayscale
1070
   100
1002
}
  0
LINE
  5
180BE
  8
YODOROGO
 10
28050.135520230899
 20
1631.5036372746561
 30
0.0
 11
28050.135520230899
 21
1655.5036372746561
 31
0.0
1001
AUTOCAD_POSTSCRIPT_FIGURE
1002
{
1000
PSFILL
1000
Grayscale
1000
Grayscale
1070
   100
1002
}
  0
LINE
  5
180BF
  8
YODOROGO
 10
28082.135520230921
 20
1631.5036372746561
 30
0.0
 11
28050.135520230899
 21
1631.5036372746561
 31
0.0
1001
AUTOCAD_POSTSCRIPT_FIGURE
1002
{
1000
PSFILL
1000
Grayscale
1000
Grayscale
1070
   100
1002
}
  0
LINE
  5
180C0
  8
YODOROGO
 10
28082.135520230921
 20
1499.749496429288
 30
0.0
 11
28082.135520230921
 21
1631.5036372746561
 31
0.0
1001
AUTOCAD_POSTSCRIPT_FIGURE
1002
{
1000
PSFILL
1000
Grayscale
1000
Grayscale
1070
   100
1002
}
  0
LINE
  5
180C1
  8
YODOROGO
 10
28050.135520230921
 20
1499.749496429288
 30
0.0
 11
28082.135520230921
 21
1499.749496429288
 31
0.0
1001
AUTOCAD_POSTSCRIPT_FIGURE
1002
{
1000
PSFILL
1000
Grayscale
1000
Grayscale
1070
   100
1002
}
  0
LINE
  5
180C2
  8
YODOROGO
 10
28050.135520230921
 20
1475.7494964292871
 30
0.0
 11
28050.135520230921
 21
1499.749496429288
 31
0.0
1001
AUTOCAD_POSTSCRIPT_FIGURE
1002
{
1000
PSFILL
1000
Grayscale
1000
Grayscale
1070
   100
1002
}
  0
LINE
  5
180C3
  8
YODOROGO
 10
28137.604341291921
 20
1475.7494964292871
 30
0.0
 11
28050.135520230921
 21
1475.7494964292871
 31
0.0
1001
AUTOCAD_POSTSCRIPT_FIGURE
1002
{
1000
PSFILL
1000
Grayscale
1000
Grayscale
1070
   100
1002
}
  0
LINE
  5
180C4
  8
YODOROGO
 10
28137.604341291921
 20
1499.749496429288
 30
0.0
 11
28137.604341291921
 21
1475.7494964292871
 31
0.0
1001
AUTOCAD_POSTSCRIPT_FIGURE
1002
{
1000
PSFILL
1000
Grayscale
1000
Grayscale
1070
   100
1002
}
  0
LINE
  5
180C5
  8
YODOROGO
 10
28098.135520230931
 20
1499.749496429288
 30
0.0
 11
28137.604341291921
 21
1499.749496429288
 31
0.0
1001
AUTOCAD_POSTSCRIPT_FIGURE
1002
{
1000
PSFILL
1000
Grayscale
1000
Grayscale
1070
   100
1002
}
  0
LINE
  5
180C6
  8
YODOROGO
 10
28098.135520230931
 20
1631.5036372746561
 30
0.0
 11
28098.135520230931
 21
1499.749496429288
 31
0.0
1001
AUTOCAD_POSTSCRIPT_FIGURE
1002
{
1000
PSFILL
1000
Grayscale
1000
Grayscale
1070
   100
1002
}
  0
LINE
  5
180C7
  8
YODOROGO
 10
28137.604341291921
 20
1631.5036372746561
 30
0.0
 11
28098.135520230931
 21
1631.5036372746561
 31
0.0
1001
AUTOCAD_POSTSCRIPT_FIGURE
1002
{
1000
PSFILL
1000
Grayscale
1000
Grayscale
1070
   100
1002
}
  0
LINE
  5
180C8
  8
YODOROGO
 10
28137.604341291921
 20
1655.5036372746561
 30
0.0
 11
28137.604341291921
 21
1631.5036372746561
 31
0.0
1001
AUTOCAD_POSTSCRIPT_FIGURE
1002
{
1000
PSFILL
1000
Grayscale
1000
Grayscale
1070
   100
1002
}
  0
LINE
  5
180C9
  8
YODOROGO
 10
28098.135520230931
 20
1655.5036372746561
 30
0.0
 11
28137.604341291921
 21
1655.5036372746561
 31
0.0
1001
AUTOCAD_POSTSCRIPT_FIGURE
1002
{
1000
PSFILL
1000
Grayscale
1000
Grayscale
1070
   100
1002
}
  0
LINE
  5
180CA
  8
YODOROGO
 10
28401.60434129191
 20
1667.749496429288
 30
0.0
 11
28345.604341291921
 21
1667.749496429288
 31
0.0
  0
LINE
  5
180CB
  8
YODOROGO
 10
28401.60434129191
 20
1611.749496429288
 30
0.0
 11
28401.60434129191
 21
1667.749496429288
 31
0.0
  0
LINE
  5
180CC
  8
YODOROGO
 10
28345.604341291921
 20
1667.749496429288
 30
0.0
 11
28345.604341291921
 21
1611.749496429288
 31
0.0
  0
ARC
  5
180CD
  8
YODOROGO
 10
28513.60434129191
 20
1507.749496429288
 30
0.0
 40
80.0
 50
180.0
 51
270.0
  0
ARC
  5
180CE
  8
YODOROGO
 10
28537.604341291921
 20
1563.7494964292871
 30
0.0
 40
40.0
 50
180.0
 51
270.0
  0
LINE
  5
180CF
  8
YODOROGO
 10
28561.604341291932
 20
1523.7494964292871
 30
0.0
 11
28537.604341291921
 21
1523.7494964292871
 31
0.0
  0
ARC
  5
180D0
  8
YODOROGO
 10
28561.604341291932
 20
1547.749496429285
 30
0.0
 40
23.999999999996358
 50
270.0
 51
0.0000000000054281
  0
LINE
  5
180D1
  8
YODOROGO
 10
27801.604341291921
 20
1890.786580793706
 30
0.0
 11
27777.604341291921
 21
1843.776747951672
 31
0.0
1001
AUTOCAD_POSTSCRIPT_FIGURE
1002
{
1000
PSFILL
1000
Grayscale
1000
Grayscale
1070
   100
1002
}
  0
LINE
  5
180D2
  8
YODOROGO
 10
27801.604341291921
 20
1747.749496429286
 30
0.0
 11
27801.604341291921
 21
1890.786580793706
 31
0.0
1001
AUTOCAD_POSTSCRIPT_FIGURE
1002
{
1000
PSFILL
1000
Grayscale
1000
Grayscale
1070
   100
1002
}
  0
LINE
  5
180D3
  8
YODOROGO
 10
27817.604341291921
 20
1747.749496429286
 30
0.0
 11
27801.604341291921
 21
1747.749496429286
 31
0.0
1001
AUTOCAD_POSTSCRIPT_FIGURE
1002
{
1000
PSFILL
1000
Grayscale
1000
Grayscale
1070
   100
1002
}
  0
LINE
  5
180D4
  8
YODOROGO
 10
27817.604341291921
 20
1893.7713320852661
 30
0.0
 11
27817.604341291921
 21
1747.749496429286
 31
0.0
1001
AUTOCAD_POSTSCRIPT_FIGURE
1002
{
1000
PSFILL
1000
Grayscale
1000
Grayscale
1070
   100
1002
}
  0
LINE
  5
180D5
  8
YODOROGO
 10
27841.604341291921
 20
1867.6547582841361
 30
0.0
 11
27817.604341291921
 21
1893.7713320852661
 31
0.0
1001
AUTOCAD_POSTSCRIPT_FIGURE
1002
{
1000
PSFILL
1000
Grayscale
1000
Grayscale
1070
   100
1002
}
  0
LINE
  5
180D6
  8
YODOROGO
 10
27841.604341291921
 20
1883.6547582841361
 30
0.0
 11
27841.604341291921
 21
1867.6547582841361
 31
0.0
1001
AUTOCAD_POSTSCRIPT_FIGURE
1002
{
1000
PSFILL
1000
Grayscale
1000
Grayscale
1070
   100
1002
}
  0
LINE
  5
180D7
  8
YODOROGO
 10
27817.604341291921
 20
1917.7713320852649
 30
0.0
 11
27841.604341291921
 21
1883.6547582841361
 31
0.0
1001
AUTOCAD_POSTSCRIPT_FIGURE
1002
{
1000
PSFILL
1000
Grayscale
1000
Grayscale
1070
   100
1002
}
  0
LINE
  5
180D8
  8
YODOROGO
 10
27817.604341291921
 20
1939.749496429288
 30
0.0
 11
27817.604341291921
 21
1917.7713320852649
 31
0.0
1001
AUTOCAD_POSTSCRIPT_FIGURE
1002
{
1000
PSFILL
1000
Grayscale
1000
Grayscale
1070
   100
1002
}
  0
LINE
  5
180D9
  8
YODOROGO
 10
27889.604341291921
 20
1939.749496429288
 30
0.0
 11
27817.604341291921
 21
1939.749496429288
 31
0.0
1001
AUTOCAD_POSTSCRIPT_FIGURE
1002
{
1000
PSFILL
1000
Grayscale
1000
Grayscale
1070
   100
1002
}
  0
LINE
  5
180DA
  8
YODOROGO
 10
27889.604341291921
 20
1900.5683489363
 30
0.0
 11
27889.604341291921
 21
1939.749496429288
 31
0.0
1001
AUTOCAD_POSTSCRIPT_FIGURE
1002
{
1000
PSFILL
1000
Grayscale
1000
Grayscale
1070
   100
1002
}
  0
LINE
  5
180DB
  8
YODOROGO
 10
27857.604341291921
 20
1900.5683489363
 30
0.0
 11
27889.604341291921
 21
1900.5683489363
 31
0.0
1001
AUTOCAD_POSTSCRIPT_FIGURE
1002
{
1000
PSFILL
1000
Grayscale
1000
Grayscale
1070
   100
1002
}
  0
LINE
  5
180DC
  8
YODOROGO
 10
27857.604341291921
 20
1884.568348936298
 30
0.0
 11
27857.604341291921
 21
1900.5683489363
 31
0.0
1001
AUTOCAD_POSTSCRIPT_FIGURE
1002
{
1000
PSFILL
1000
Grayscale
1000
Grayscale
1070
   100
1002
}
  0
LINE
  5
180DD
  8
YODOROGO
 10
27889.604341291921
 20
1884.568348936298
 30
0.0
 11
27857.604341291921
 21
1884.568348936298
 31
0.0
1001
AUTOCAD_POSTSCRIPT_FIGURE
1002
{
1000
PSFILL
1000
Grayscale
1000
Grayscale
1070
   100
1002
}
  0
LINE
  5
180DE
  8
YODOROGO
 10
27889.604341291921
 20
1879.6191779644371
 30
0.0
 11
27889.604341291921
 21
1884.568348936298
 31
0.0
1001
AUTOCAD_POSTSCRIPT_FIGURE
1002
{
1000
PSFILL
1000
Grayscale
1000
Grayscale
1070
   100
1002
}
  0
LINE
  5
180DF
  8
YODOROGO
 10
27849.604341291921
 20
1812.974981161417
 30
0.0
 11
27889.604341291921
 21
1879.6191779644371
 31
0.0
1001
AUTOCAD_POSTSCRIPT_FIGURE
1002
{
1000
PSFILL
1000
Grayscale
1000
Grayscale
1070
   100
1002
}
  0
LINE
  5
180E0
  8
YODOROGO
 10
27849.604341291921
 20
1796.9749811614161
 30
0.0
 11
27849.604341291921
 21
1812.974981161417
 31
0.0
1001
AUTOCAD_POSTSCRIPT_FIGURE
1002
{
1000
PSFILL
1000
Grayscale
1000
Grayscale
1070
   100
1002
}
  0
LINE
  5
180E1
  8
YODOROGO
 10
27889.604341291921
 20
1847.6191779644359
 30
0.0
 11
27849.604341291921
 21
1796.9749811614161
 31
0.0
1001
AUTOCAD_POSTSCRIPT_FIGURE
1002
{
1000
PSFILL
1000
Grayscale
1000
Grayscale
1070
   100
1002
}
  0
LINE
  5
180E2
  8
YODOROGO
 10
27889.604341291921
 20
1747.749496429286
 30
0.0
 11
27889.604341291921
 21
1847.6191779644359
 31
0.0
1001
AUTOCAD_POSTSCRIPT_FIGURE
1002
{
1000
PSFILL
1000
Grayscale
1000
Grayscale
1070
   100
1002
}
  0
LINE
  5
180E3
  8
YODOROGO
 10
27905.604341291921
 20
1747.749496429286
 30
0.0
 11
27889.604341291921
 21
1747.749496429286
 31
0.0
1001
AUTOCAD_POSTSCRIPT_FIGURE
1002
{
1000
PSFILL
1000
Grayscale
1000
Grayscale
1070
   100
1002
}
  0
LINE
  5
180E4
  8
YODOROGO
 10
27905.604341291921
 20
1849.409012158806
 30
0.0
 11
27905.604341291921
 21
1747.749496429286
 31
0.0
1001
AUTOCAD_POSTSCRIPT_FIGURE
1002
{
1000
PSFILL
1000
Grayscale
1000
Grayscale
1070
   100
1002
}
  0
LINE
  5
180E5
  8
YODOROGO
 10
27937.604341291921
 20
1796.9749811614161
 30
0.0
 11
27905.604341291921
 21
1849.409012158806
 31
0.0
1001
AUTOCAD_POSTSCRIPT_FIGURE
1002
{
1000
PSFILL
1000
Grayscale
1000
Grayscale
1070
   100
1002
}
  0
LINE
  5
180E6
  8
YODOROGO
 10
27937.604341291921
 20
1812.974981161417
 30
0.0
 11
27937.604341291921
 21
1796.9749811614161
 31
0.0
1001
AUTOCAD_POSTSCRIPT_FIGURE
1002
{
1000
PSFILL
1000
Grayscale
1000
Grayscale
1070
   100
1002
}
  0
LINE
  5
180E7
  8
YODOROGO
 10
27905.604341291921
 20
1881.4090121588081
 30
0.0
 11
27937.604341291921
 21
1812.974981161417
 31
0.0
1001
AUTOCAD_POSTSCRIPT_FIGURE
1002
{
1000
PSFILL
1000
Grayscale
1000
Grayscale
1070
   100
1002
}
  0
LINE
  5
180E8
  8
YODOROGO
 10
27905.604341291921
 20
1884.5683489363
 30
0.0
 11
27905.604341291921
 21
1881.4090121588081
 31
0.0
1001
AUTOCAD_POSTSCRIPT_FIGURE
1002
{
1000
PSFILL
1000
Grayscale
1000
Grayscale
1070
   100
1002
}
  0
LINE
  5
180E9
  8
YODOROGO
 10
27937.604341291921
 20
1884.568348936298
 30
0.0
 11
27905.604341291921
 21
1884.5683489363
 31
0.0
1001
AUTOCAD_POSTSCRIPT_FIGURE
1002
{
1000
PSFILL
1000
Grayscale
1000
Grayscale
1070
   100
1002
}
  0
LINE
  5
180EA
  8
YODOROGO
 10
27937.604341291921
 20
1900.5683489363
 30
0.0
 11
27937.604341291921
 21
1884.568348936298
 31
0.0
1001
AUTOCAD_POSTSCRIPT_FIGURE
1002
{
1000
PSFILL
1000
Grayscale
1000
Grayscale
1070
   100
1002
}
  0
LINE
  5
180EB
  8
YODOROGO
 10
27905.604341291921
 20
1900.5683489363
 30
0.0
 11
27937.604341291921
 21
1900.5683489363
 31
0.0
1001
AUTOCAD_POSTSCRIPT_FIGURE
1002
{
1000
PSFILL
1000
Grayscale
1000
Grayscale
1070
   100
1002
}
  0
LINE
  5
180EC
  8
YODOROGO
 10
27905.604341291921
 20
1939.749496429288
 30
0.0
 11
27905.604341291921
 21
1900.5683489363
 31
0.0
1001
AUTOCAD_POSTSCRIPT_FIGURE
1002
{
1000
PSFILL
1000
Grayscale
1000
Grayscale
1070
   100
1002
}
  0
LINE
  5
180ED
  8
YODOROGO
 10
27937.604341291921
 20
1939.749496429288
 30
0.0
 11
27905.604341291921
 21
1939.749496429288
 31
0.0
1001
AUTOCAD_POSTSCRIPT_FIGURE
1002
{
1000
PSFILL
1000
Grayscale
1000
Grayscale
1070
   100
1002
}
  0
LINE
  5
180EE
  8
YODOROGO
 10
27937.604341291921
 20
1955.7494964292871
 30
0.0
 11
27937.604341291921
 21
1939.749496429288
 31
0.0
1001
AUTOCAD_POSTSCRIPT_FIGURE
1002
{
1000
PSFILL
1000
Grayscale
1000
Grayscale
1070
   100
1002
}
  0
LINE
  5
180EF
  8
YODOROGO
 10
27905.604341291921
 20
1955.7494964292871
 30
0.0
 11
27937.604341291921
 21
1955.7494964292871
 31
0.0
1001
AUTOCAD_POSTSCRIPT_FIGURE
1002
{
1000
PSFILL
1000
Grayscale
1000
Grayscale
1070
   100
1002
}
  0
LINE
  5
180F0
  8
YODOROGO
 10
27905.604341291921
 20
1979.749496429288
 30
0.0
 11
27905.604341291921
 21
1955.7494964292871
 31
0.0
1001
AUTOCAD_POSTSCRIPT_FIGURE
1002
{
1000
PSFILL
1000
Grayscale
1000
Grayscale
1070
   100
1002
}
  0
LINE
  5
180F1
  8
YODOROGO
 10
27889.604341291921
 20
1979.749496429288
 30
0.0
 11
27905.604341291921
 21
1979.749496429288
 31
0.0
1001
AUTOCAD_POSTSCRIPT_FIGURE
1002
{
1000
PSFILL
1000
Grayscale
1000
Grayscale
1070
   100
1002
}
  0
LINE
  5
180F2
  8
YODOROGO
 10
27889.604341291921
 20
1955.7494964292871
 30
0.0
 11
27889.604341291921
 21
1979.749496429288
 31
0.0
1001
AUTOCAD_POSTSCRIPT_FIGURE
1002
{
1000
PSFILL
1000
Grayscale
1000
Grayscale
1070
   100
1002
}
  0
LINE
  5
180F3
  8
YODOROGO
 10
27865.604341291921
 20
1955.7494964292871
 30
0.0
 11
27889.604341291921
 21
1955.7494964292871
 31
0.0
1001
AUTOCAD_POSTSCRIPT_FIGURE
1002
{
1000
PSFILL
1000
Grayscale
1000
Grayscale
1070
   100
1002
}
  0
LINE
  5
180F4
  8
YODOROGO
 10
27865.604341291921
 20
1979.749496429288
 30
0.0
 11
27865.604341291921
 21
1955.7494964292871
 31
0.0
1001
AUTOCAD_POSTSCRIPT_FIGURE
1002
{
1000
PSFILL
1000
Grayscale
1000
Grayscale
1070
   100
1002
}
  0
LINE
  5
180F5
  8
YODOROGO
 10
27849.604341291921
 20
1979.749496429288
 30
0.0
 11
27865.604341291921
 21
1979.749496429288
 31
0.0
1001
AUTOCAD_POSTSCRIPT_FIGURE
1002
{
1000
PSFILL
1000
Grayscale
1000
Grayscale
1070
   100
1002
}
  0
LINE
  5
180F6
  8
YODOROGO
 10
27849.604341291921
 20
1955.7494964292871
 30
0.0
 11
27849.604341291921
 21
1979.749496429288
 31
0.0
1001
AUTOCAD_POSTSCRIPT_FIGURE
1002
{
1000
PSFILL
1000
Grayscale
1000
Grayscale
1070
   100
1002
}
  0
LINE
  5
180F7
  8
YODOROGO
 10
27817.604341291921
 20
1955.7494964292871
 30
0.0
 11
27849.604341291921
 21
1955.7494964292871
 31
0.0
1001
AUTOCAD_POSTSCRIPT_FIGURE
1002
{
1000
PSFILL
1000
Grayscale
1000
Grayscale
1070
   100
1002
}
  0
LINE
  5
180F8
  8
YODOROGO
 10
27817.604341291921
 20
1979.749496429288
 30
0.0
 11
27817.604341291921
 21
1955.7494964292871
 31
0.0
1001
AUTOCAD_POSTSCRIPT_FIGURE
1002
{
1000
PSFILL
1000
Grayscale
1000
Grayscale
1070
   100
1002
}
  0
LINE
  5
180F9
  8
YODOROGO
 10
27801.604341291921
 20
1979.749496429288
 30
0.0
 11
27817.604341291921
 21
1979.749496429288
 31
0.0
1001
AUTOCAD_POSTSCRIPT_FIGURE
1002
{
1000
PSFILL
1000
Grayscale
1000
Grayscale
1070
   100
1002
}
  0
LINE
  5
180FA
  8
YODOROGO
 10
27801.604341291921
 20
1955.7494964292871
 30
0.0
 11
27801.604341291921
 21
1979.749496429288
 31
0.0
1001
AUTOCAD_POSTSCRIPT_FIGURE
1002
{
1000
PSFILL
1000
Grayscale
1000
Grayscale
1070
   100
1002
}
  0
LINE
  5
180FB
  8
YODOROGO
 10
27777.604341291921
 20
1955.7494964292871
 30
0.0
 11
27801.604341291921
 21
1955.7494964292871
 31
0.0
1001
AUTOCAD_POSTSCRIPT_FIGURE
1002
{
1000
PSFILL
1000
Grayscale
1000
Grayscale
1070
   100
1002
}
  0
LINE
  5
180FC
  8
YODOROGO
 10
27777.604341291921
 20
1939.749496429288
 30
0.0
 11
27777.604341291921
 21
1955.7494964292871
 31
0.0
1001
AUTOCAD_POSTSCRIPT_FIGURE
1002
{
1000
PSFILL
1000
Grayscale
1000
Grayscale
1070
   100
1002
}
  0
LINE
  5
180FD
  8
YODOROGO
 10
27801.604341291921
 20
1939.749496429288
 30
0.0
 11
27777.604341291921
 21
1939.749496429288
 31
0.0
1001
AUTOCAD_POSTSCRIPT_FIGURE
1002
{
1000
PSFILL
1000
Grayscale
1000
Grayscale
1070
   100
1002
}
  0
LINE
  5
180FE
  8
YODOROGO
 10
27801.604341291921
 20
1914.7865807937051
 30
0.0
 11
27801.604341291921
 21
1939.749496429288
 31
0.0
1001
AUTOCAD_POSTSCRIPT_FIGURE
1002
{
1000
PSFILL
1000
Grayscale
1000
Grayscale
1070
   100
1002
}
  0
LINE
  5
180FF
  8
YODOROGO
 10
27777.604341291921
 20
1859.776747951671
 30
0.0
 11
27801.604341291921
 21
1914.7865807937051
 31
0.0
1001
AUTOCAD_POSTSCRIPT_FIGURE
1002
{
1000
PSFILL
1000
Grayscale
1000
Grayscale
1070
   100
1002
}
  0
LINE
  5
18100
  8
YODOROGO
 10
27777.604341291921
 20
1843.776747951672
 30
0.0
 11
27777.604341291921
 21
1859.776747951671
 31
0.0
1001
AUTOCAD_POSTSCRIPT_FIGURE
1002
{
1000
PSFILL
1000
Grayscale
1000
Grayscale
1070
   100
1002
}
  0
LINE
  5
18101
  8
YODOROGO
 10
28257.604341291921
 20
1867.7494964292871
 30
0.0
 11
28401.60434129191
 21
1824.877625640306
 31
0.0
1001
AUTOCAD_POSTSCRIPT_FIGURE
1002
{
1000
PSFILL
1000
Grayscale
1000
Grayscale
1070
   100
1002
}
  0
LINE
  5
18102
  8
YODOROGO
 10
28401.60434129191
 20
1752.877625640306
 30
0.0
 11
28257.604341291921
 21
1795.7494964292871
 31
0.0
1001
AUTOCAD_POSTSCRIPT_FIGURE
1002
{
1000
PSFILL
1000
Grayscale
1000
Grayscale
1070
   100
1002
}
  0
LINE
  5
18103
  8
YODOROGO
 10
28401.60434129191
 20
1984.877625640306
 30
0.0
 11
28257.604341291921
 21
2027.749496429288
 31
0.0
1001
AUTOCAD_POSTSCRIPT_FIGURE
1002
{
1000
PSFILL
1000
Grayscale
1000
Grayscale
1070
   100
1002
}
  0
LINE
  5
18104
  8
YODOROGO
 10
28257.604341291921
 20
1959.749496429288
 30
0.0
 11
28401.60434129191
 21
1916.8776256403071
 31
0.0
1001
AUTOCAD_POSTSCRIPT_FIGURE
1002
{
1000
PSFILL
1000
Grayscale
1000
Grayscale
1070
   100
1002
}
  0
LINE
  5
18105
  8
YODOROGO
 10
28257.604341291921
 20
1795.7494964292871
 30
0.0
 11
28257.604341291921
 21
1867.7494964292871
 31
0.0
1001
AUTOCAD_POSTSCRIPT_FIGURE
1002
{
1000
PSFILL
1000
Grayscale
1000
Grayscale
1070
   100
1002
}
  0
LINE
  5
18106
  8
YODOROGO
 10
28257.604341291921
 20
2027.749496429288
 30
0.0
 11
28257.604341291921
 21
1959.749496429288
 31
0.0
1001
AUTOCAD_POSTSCRIPT_FIGURE
1002
{
1000
PSFILL
1000
Grayscale
1000
Grayscale
1070
   100
1002
}
  0
LINE
  5
18107
  8
YODOROGO
 10
28080.236320206739
 20
1939.749496429288
 30
0.0
 11
28129.60434129191
 21
1747.749496429286
 31
0.0
1001
AUTOCAD_POSTSCRIPT_FIGURE
1002
{
1000
PSFILL
1000
Grayscale
1000
Grayscale
1070
   100
1002
}
  0
LINE
  5
18108
  8
YODOROGO
 10
27977.604341291921
 20
1939.749496429288
 30
0.0
 11
28080.236320206739
 21
1939.749496429288
 31
0.0
1001
AUTOCAD_POSTSCRIPT_FIGURE
1002
{
1000
PSFILL
1000
Grayscale
1000
Grayscale
1070
   100
1002
}
  0
LINE
  5
18109
  8
YODOROGO
 10
27977.604341291921
 20
1955.7494964292871
 30
0.0
 11
27977.604341291921
 21
1939.749496429288
 31
0.0
1001
AUTOCAD_POSTSCRIPT_FIGURE
1002
{
1000
PSFILL
1000
Grayscale
1000
Grayscale
1070
   100
1002
}
  0
LINE
  5
1810A
  8
YODOROGO
 10
28076.60687851991
 20
1955.7494964292871
 30
0.0
 11
27977.604341291921
 21
1955.7494964292871
 31
0.0
1001
AUTOCAD_POSTSCRIPT_FIGURE
1002
{
1000
PSFILL
1000
Grayscale
1000
Grayscale
1070
   100
1002
}
  0
LINE
  5
1810B
  8
YODOROGO
 10
28071.162715989711
 20
1979.749496429288
 30
0.0
 11
28076.60687851991
 21
1955.7494964292871
 31
0.0
1001
AUTOCAD_POSTSCRIPT_FIGURE
1002
{
1000
PSFILL
1000
Grayscale
1000
Grayscale
1070
   100
1002
}
  0
LINE
  5
1810C
  8
YODOROGO
 10
28091.162715989711
 20
1979.749496429288
 30
0.0
 11
28071.162715989711
 21
1979.749496429288
 31
0.0
1001
AUTOCAD_POSTSCRIPT_FIGURE
1002
{
1000
PSFILL
1000
Grayscale
1000
Grayscale
1070
   100
1002
}
  0
LINE
  5
1810D
  8
YODOROGO
 10
28095.806878519939
 20
1955.7494964292871
 30
0.0
 11
28091.162715989711
 21
1979.749496429288
 31
0.0
1001
AUTOCAD_POSTSCRIPT_FIGURE
1002
{
1000
PSFILL
1000
Grayscale
1000
Grayscale
1070
   100
1002
}
  0
LINE
  5
1810E
  8
YODOROGO
 10
28121.604341291921
 20
1955.7494964292871
 30
0.0
 11
28095.806878519939
 21
1955.7494964292871
 31
0.0
1001
AUTOCAD_POSTSCRIPT_FIGURE
1002
{
1000
PSFILL
1000
Grayscale
1000
Grayscale
1070
   100
1002
}
  0
LINE
  5
1810F
  8
YODOROGO
 10
28121.604341291921
 20
1979.749496429288
 30
0.0
 11
28121.604341291921
 21
1955.7494964292871
 31
0.0
1001
AUTOCAD_POSTSCRIPT_FIGURE
1002
{
1000
PSFILL
1000
Grayscale
1000
Grayscale
1070
   100
1002
}
  0
LINE
  5
18110
  8
YODOROGO
 10
28137.604341291921
 20
1979.749496429288
 30
0.0
 11
28121.604341291921
 21
1979.749496429288
 31
0.0
1001
AUTOCAD_POSTSCRIPT_FIGURE
1002
{
1000
PSFILL
1000
Grayscale
1000
Grayscale
1070
   100
1002
}
  0
LINE
  5
18111
  8
YODOROGO
 10
28137.604341291921
 20
1955.7494964292871
 30
0.0
 11
28137.604341291921
 21
1979.749496429288
 31
0.0
1001
AUTOCAD_POSTSCRIPT_FIGURE
1002
{
1000
PSFILL
1000
Grayscale
1000
Grayscale
1070
   100
1002
}
  0
LINE
  5
18112
  8
YODOROGO
 10
28137.604341291921
 20
1939.749496429288
 30
0.0
 11
28137.604341291921
 21
1955.7494964292871
 31
0.0
1001
AUTOCAD_POSTSCRIPT_FIGURE
1002
{
1000
PSFILL
1000
Grayscale
1000
Grayscale
1070
   100
1002
}
  0
LINE
  5
18113
  8
YODOROGO
 10
28098.902986873411
 20
1939.749496429288
 30
0.0
 11
28137.604341291921
 21
1939.749496429288
 31
0.0
1001
AUTOCAD_POSTSCRIPT_FIGURE
1002
{
1000
PSFILL
1000
Grayscale
1000
Grayscale
1070
   100
1002
}
  0
LINE
  5
18114
  8
YODOROGO
 10
28137.604341291921
 20
1747.749496429286
 30
0.0
 11
28098.902986873411
 21
1939.749496429288
 31
0.0
1001
AUTOCAD_POSTSCRIPT_FIGURE
1002
{
1000
PSFILL
1000
Grayscale
1000
Grayscale
1070
   100
1002
}
  0
LINE
  5
18115
  8
YODOROGO
 10
28129.60434129191
 20
1747.749496429286
 30
0.0
 11
28137.604341291921
 21
1747.749496429286
 31
0.0
1001
AUTOCAD_POSTSCRIPT_FIGURE
1002
{
1000
PSFILL
1000
Grayscale
1000
Grayscale
1070
   100
1002
}
  0
LINE
  5
18116
  8
YODOROGO
 10
28078.06921993379
 20
1775.7407762987939
 30
0.0
 11
27977.604341291921
 21
1747.749496429286
 31
0.0
  0
LINE
  5
18117
  8
YODOROGO
 10
28078.06921993379
 20
1798.6689795290731
 30
0.0
 11
28078.06921993379
 21
1775.7407762987939
 31
0.0
  0
LINE
  5
18118
  8
YODOROGO
 10
28033.83678061287
 20
1786.816933133767
 30
0.0
 11
28078.06921993379
 21
1798.6689795290731
 31
0.0
  0
LINE
  5
18119
  8
YODOROGO
 10
28033.83678061287
 20
1872.5683489362989
 30
0.0
 11
28033.83678061287
 21
1786.816933133767
 31
0.0
  0
LINE
  5
1811A
  8
YODOROGO
 10
28078.06921993379
 20
1872.5683489362989
 30
0.0
 11
28033.83678061287
 21
1872.5683489362989
 31
0.0
  0
LINE
  5
1811B
  8
YODOROGO
 10
28078.06921993379
 20
1892.568348936298
 30
0.0
 11
28078.06921993379
 21
1872.5683489362989
 31
0.0
  0
LINE
  5
1811C
  8
YODOROGO
 10
27977.604341291921
 20
1892.568348936298
 30
0.0
 11
28078.06921993379
 21
1892.568348936298
 31
0.0
  0
LINE
  5
1811D
  8
YODOROGO
 10
27977.604341291921
 20
1872.5683489362989
 30
0.0
 11
27977.604341291921
 21
1892.568348936298
 31
0.0
  0
LINE
  5
1811E
  8
YODOROGO
 10
28021.836780612852
 20
1872.5683489362989
 30
0.0
 11
27977.604341291921
 21
1872.5683489362989
 31
0.0
  0
LINE
  5
1811F
  8
YODOROGO
 10
28021.836780612852
 20
1784.673339594317
 30
0.0
 11
28021.836780612852
 21
1872.5683489362989
 31
0.0
  0
LINE
  5
18120
  8
YODOROGO
 10
27977.604341291921
 20
1771.749496429286
 30
0.0
 11
28021.836780612852
 21
1784.673339594317
 31
0.0
  0
LINE
  5
18121
  8
YODOROGO
 10
27977.604341291921
 20
1747.749496429286
 30
0.0
 11
27977.604341291921
 21
1771.749496429286
 31
0.0
  0
LINE
  5
18122
  8
YODOROGO
 10
28001.604341291921
 20
1707.749496429288
 30
0.0
 11
28001.604341291921
 21
1683.7494964292871
 31
0.0
  0
LINE
  5
18123
  8
YODOROGO
 10
28017.604341291921
 20
1707.749496429288
 30
0.0
 11
28001.604341291921
 21
1707.749496429288
 31
0.0
  0
LINE
  5
18124
  8
YODOROGO
 10
28017.604341291921
 20
1683.7494964292871
 30
0.0
 11
28017.604341291921
 21
1707.749496429288
 31
0.0
  0
LINE
  5
18125
  8
YODOROGO
 10
28040.913204016892
 20
1683.7494964292871
 30
0.0
 11
28017.604341291921
 21
1683.7494964292871
 31
0.0
  0
LINE
  5
18126
  8
YODOROGO
 10
28001.604341291921
 20
1683.7494964292871
 30
0.0
 11
27977.604341291921
 21
1683.7494964292871
 31
0.0
  0
LINE
  5
18127
  8
YODOROGO
 10
28082.135520230921
 20
1707.749496429288
 30
0.0
 11
28098.135520230931
 21
1707.749496429288
 31
0.0
1001
AUTOCAD_POSTSCRIPT_FIGURE
1002
{
1000
PSFILL
1000
Grayscale
1000
Grayscale
1070
   100
1002
}
  0
LINE
  5
18128
  8
YODOROGO
 10
28401.60434129191
 20
1824.877625640306
 30
0.0
 11
28401.60434129191
 21
1752.877625640306
 31
0.0
1001
AUTOCAD_POSTSCRIPT_FIGURE
1002
{
1000
PSFILL
1000
Grayscale
1000
Grayscale
1070
   100
1002
}
  0
LINE
  5
18129
  8
YODOROGO
 10
28401.60434129191
 20
1916.8776256403071
 30
0.0
 11
28401.60434129191
 21
1984.877625640306
 31
0.0
1001
AUTOCAD_POSTSCRIPT_FIGURE
1002
{
1000
PSFILL
1000
Grayscale
1000
Grayscale
1070
   100
1002
}
  0
LINE
  5
1812A
  8
YODOROGO
 10
28433.60434129191
 20
1819.7494964292871
 30
0.0
 11
28433.60434129191
 21
1747.74949642929
 31
0.0
  0
LINE
  5
1812B
  8
YODOROGO
 10
28497.60434129191
 20
1707.749496429288
 30
0.0
 11
28433.60434129191
 21
1707.749496429288
 31
0.0
  0
LINE
  5
1812C
  8
YODOROGO
 10
28433.60434129191
 20
1747.74949642929
 30
0.0
 11
28585.604341291921
 21
1747.74949642929
 31
0.0
  0
LINE
  5
1812D
  8
YODOROGO
 10
28497.60434129191
 20
1867.7494964292871
 30
0.0
 11
28433.60434129191
 21
1867.7494964292871
 31
0.0
  0
LINE
  5
1812E
  8
YODOROGO
 10
28497.60434129191
 20
1923.7494964292871
 30
0.0
 11
28497.60434129191
 21
1867.7494964292871
 31
0.0
  0
LINE
  5
1812F
  8
YODOROGO
 10
28585.604341291921
 20
1987.7494964292871
 30
0.0
 11
28585.604341291921
 21
2027.749496429288
 31
0.0
  0
LINE
  5
18130
  8
YODOROGO
 10
28433.60434129191
 20
1987.7494964292871
 30
0.0
 11
28585.604341291921
 21
1987.7494964292871
 31
0.0
  0
LINE
  5
18131
  8
YODOROGO
 10
28433.60434129191
 20
1867.7494964292871
 30
0.0
 11
28433.60434129191
 21
1987.7494964292871
 31
0.0
  0
LINE
  5
18132
  8
YODOROGO
 10
29001.60434129191
 20
2027.749496429288
 30
0.0
 11
29001.60434129191
 21
1619.749496429288
 31
0.0
  0
LINE
  5
18133
  8
YODOROGO
 10
29073.604341291921
 20
1579.749496429288
 30
0.0
 11
29073.604341291921
 21
2027.749496429288
 31
0.0
  0
LINE
  5
18134
  8
YODOROGO
 10
29261.604341291921
 20
1491.749496429286
 30
0.0
 11
29261.604341291921
 21
2007.749496429288
 31
0.0
  0
LINE
  5
18135
  8
YODOROGO
 10
29197.604341291921
 20
2007.749496429288
 30
0.0
 11
29197.604341291921
 21
1491.749496429286
 31
0.0
  0
LINE
  5
18136
  8
YODOROGO
 10
29385.604341291921
 20
2027.749496429288
 30
0.0
 11
29385.604341291921
 21
1427.749496429288
 31
0.0
  0
LINE
  5
18137
  8
YODOROGO
 10
29457.604341291921
 20
1427.749496429288
 30
0.0
 11
29457.604341291921
 21
2027.749496429288
 31
0.0
  0
LINE
  5
18138
  8
YODOROGO
 10
28657.604341291921
 20
1667.749496429288
 30
0.0
 11
28657.604341291921
 21
1747.74949642929
 31
0.0
  0
LINE
  5
18139
  8
YODOROGO
 10
29885.604341291921
 20
1707.749496429288
 30
0.0
 11
29885.604341291921
 21
1667.749496429288
 31
0.0
  0
LINE
  5
1813A
  8
YODOROGO
 10
29885.604341291921
 20
1707.749496429288
 30
0.0
 11
29885.604341291921
 21
1667.749496429288
 31
0.0
  0
ARC
  5
1813B
  8
YODOROGO
 10
28906.911576186842
 20
1618.217864442272
 30
0.0
 40
94.705151178741644
 50
274.05244162907098
 51
0.9266642149310712
  0
ARC
  5
1813C
  8
YODOROGO
 10
28909.186170719819
 20
1592.61072861044
 30
0.0
 40
164.92042356085511
 50
271.5351210653775
 51
355.52727750585052
  0
LINE
  5
1813D
  8
YODOROGO
 10
28913.604341291921
 20
1523.7494964292871
 30
0.0
 11
28913.604341291921
 21
1427.749496429288
 31
0.0
  0
LINE
  5
1813E
  8
YODOROGO
 10
28793.60434129191
 20
1667.749496429288
 30
0.0
 11
28657.604341291921
 21
1667.749496429288
 31
0.0
  0
LINE
  5
1813F
  8
YODOROGO
 10
28793.60434129191
 20
1603.7494964292871
 30
0.0
 11
28793.60434129191
 21
1667.749496429288
 31
0.0
  0
LINE
  5
18140
  8
YODOROGO
 10
28657.604341291921
 20
1603.7494964292871
 30
0.0
 11
28793.60434129191
 21
1603.7494964292871
 31
0.0
  0
LINE
  5
18141
  8
YODOROGO
 10
28657.604341291921
 20
1523.7494964292871
 30
0.0
 11
28657.604341291921
 21
1603.7494964292871
 31
0.0
  0
LINE
  5
18142
  8
YODOROGO
 10
28793.60434129191
 20
1523.7494964292871
 30
0.0
 11
28657.604341291921
 21
1523.7494964292871
 31
0.0
  0
LINE
  5
18143
  8
YODOROGO
 10
28793.60434129191
 20
1427.749496429288
 30
0.0
 11
28793.60434129191
 21
1523.7494964292871
 31
0.0
  0
LINE
  5
18144
  8
YODOROGO
 10
29197.604341291921
 20
1491.749496429286
 30
0.0
 11
29261.604341291921
 21
1491.749496429286
 31
0.0
  0
LINE
  5
18145
  8
YODOROGO
 10
29385.604341291921
 20
1427.749496429288
 30
0.0
 11
29457.604341291921
 21
1427.749496429288
 31
0.0
  0
LINE
  5
18146
  8
YODOROGO
 10
29737.604341291921
 20
1528.4414521705639
 30
0.0
 11
29737.604341291921
 21
1427.749496429288
 31
0.0
  0
LINE
  5
18147
  8
YODOROGO
 10
29617.604341291921
 20
1427.749496429288
 30
0.0
 11
29737.604341291921
 21
1528.4414521705639
 31
0.0
  0
LINE
  5
18148
  8
YODOROGO
 10
29617.604341291921
 20
1547.749496429288
 30
0.0
 11
29617.604341291921
 21
1427.749496429288
 31
0.0
  0
LINE
  5
18149
  8
YODOROGO
 10
29712.94462869945
 20
1627.749496429288
 30
0.0
 11
29617.604341291921
 21
1547.749496429288
 31
0.0
  0
LINE
  5
1814A
  8
YODOROGO
 10
29617.604341291921
 20
1627.749496429288
 30
0.0
 11
29712.94462869945
 21
1627.749496429288
 31
0.0
  0
LINE
  5
1814B
  8
YODOROGO
 10
29617.604341291921
 20
1667.749496429288
 30
0.0
 11
29617.604341291921
 21
1627.749496429288
 31
0.0
  0
LINE
  5
1814C
  8
YODOROGO
 10
29885.604341291921
 20
1667.749496429288
 30
0.0
 11
29617.604341291921
 21
1667.749496429288
 31
0.0
  0
LINE
  5
1814D
  8
YODOROGO
 10
29917.604341291921
 20
1627.749496429288
 30
0.0
 11
29777.604341291921
 21
1627.749496429288
 31
0.0
  0
LINE
  5
1814E
  8
YODOROGO
 10
29777.604341291921
 20
1562.0054374176559
 30
0.0
 11
29771.409872985321
 21
1556.807661346234
 31
0.0
  0
LINE
  5
1814F
  8
YODOROGO
 10
29777.604341291921
 20
1627.749496429288
 30
0.0
 11
29777.604341291921
 21
1562.0054374176559
 31
0.0
  0
LINE
  5
18150
  8
YODOROGO
 10
29737.604341291921
 20
1528.4414521705639
 30
0.0
 11
29737.604341291921
 21
1427.749496429288
 31
0.0
  0
LINE
  5
18151
  8
YODOROGO
 10
29617.604341291921
 20
1427.749496429288
 30
0.0
 11
29737.604341291921
 21
1528.4414521705639
 31
0.0
  0
LINE
  5
18152
  8
YODOROGO
 10
29617.604341291921
 20
1547.749496429288
 30
0.0
 11
29617.604341291921
 21
1427.749496429288
 31
0.0
  0
LINE
  5
18153
  8
YODOROGO
 10
29712.94462869945
 20
1627.749496429288
 30
0.0
 11
29617.604341291921
 21
1547.749496429288
 31
0.0
  0
LINE
  5
18154
  8
YODOROGO
 10
29617.604341291921
 20
1627.749496429288
 30
0.0
 11
29712.94462869945
 21
1627.749496429288
 31
0.0
  0
LINE
  5
18155
  8
YODOROGO
 10
29617.604341291921
 20
1667.749496429288
 30
0.0
 11
29617.604341291921
 21
1627.749496429288
 31
0.0
  0
LINE
  5
18156
  8
YODOROGO
 10
29885.604341291921
 20
1667.749496429288
 30
0.0
 11
29617.604341291921
 21
1667.749496429288
 31
0.0
  0
LINE
  5
18157
  8
YODOROGO
 10
28793.60434129191
 20
1747.74949642929
 30
0.0
 11
28793.60434129191
 21
1819.7494964292871
 31
0.0
  0
LINE
  5
18158
  8
YODOROGO
 10
28657.604341291921
 20
1747.74949642929
 30
0.0
 11
28793.60434129191
 21
1747.74949642929
 31
0.0
  0
LINE
  5
18159
  8
YODOROGO
 10
28729.604341291921
 20
1867.7494964292871
 30
0.0
 11
28729.604341291921
 21
1923.7494964292871
 31
0.0
  0
LINE
  5
1815A
  8
YODOROGO
 10
28793.60434129191
 20
1867.7494964292871
 30
0.0
 11
28729.604341291921
 21
1867.7494964292871
 31
0.0
  0
LINE
  5
1815B
  8
YODOROGO
 10
28793.60434129191
 20
1947.749496429288
 30
0.0
 11
28793.60434129191
 21
1867.7494964292871
 31
0.0
  0
ARC
  5
1815C
  8
YODOROGO
 10
28753.60434129191
 20
1947.749496429288
 30
0.0
 40
40.0
 50
0.0
 51
90.0
  0
LINE
  5
1815D
  8
YODOROGO
 10
28657.604341291921
 20
1987.7494964292871
 30
0.0
 11
28753.60434129191
 21
1987.7494964292871
 31
0.0
  0
LINE
  5
1815E
  8
YODOROGO
 10
28657.604341291921
 20
2027.749496429288
 30
0.0
 11
28657.604341291921
 21
1987.7494964292871
 31
0.0
  0
LINE
  5
1815F
  8
YODOROGO
 10
29073.604341291921
 20
2027.749496429288
 30
0.0
 11
29001.60434129191
 21
2027.749496429288
 31
0.0
  0
LINE
  5
18160
  8
YODOROGO
 10
29261.604341291921
 20
2007.749496429288
 30
0.0
 11
29197.604341291921
 21
2007.749496429288
 31
0.0
  0
LINE
  5
18161
  8
YODOROGO
 10
29457.604341291921
 20
2027.749496429288
 30
0.0
 11
29385.604341291921
 21
2027.749496429288
 31
0.0
  0
LINE
  5
18162
  8
YODOROGO
 10
29673.604341291921
 20
1707.749496429288
 30
0.0
 11
29673.604341291921
 21
1771.7494964292871
 31
0.0
1001
AUTOCAD_POSTSCRIPT_FIGURE
1002
{
1000
PSFILL
1000
Grayscale
1000
Grayscale
1070
    25
1002
}
  0
LINE
  5
18163
  8
YODOROGO
 10
29617.604341291921
 20
1707.749496429288
 30
0.0
 11
29673.604341291921
 21
1707.749496429288
 31
0.0
1001
AUTOCAD_POSTSCRIPT_FIGURE
1002
{
1000
PSFILL
1000
Grayscale
1000
Grayscale
1070
    25
1002
}
  0
LINE
  5
18164
  8
YODOROGO
 10
29617.604341291921
 20
1819.7494964292871
 30
0.0
 11
29617.604341291921
 21
1707.749496429288
 31
0.0
1001
AUTOCAD_POSTSCRIPT_FIGURE
1002
{
1000
PSFILL
1000
Grayscale
1000
Grayscale
1070
    25
1002
}
  0
LINE
  5
18165
  8
YODOROGO
 10
29765.604341291921
 20
1819.7494964292871
 30
0.0
 11
29617.604341291921
 21
1819.7494964292871
 31
0.0
1001
AUTOCAD_POSTSCRIPT_FIGURE
1002
{
1000
PSFILL
1000
Grayscale
1000
Grayscale
1070
    25
1002
}
  0
LINE
  5
18166
  8
YODOROGO
 10
29765.604341291921
 20
1859.749496429288
 30
0.0
 11
29765.604341291921
 21
1819.7494964292871
 31
0.0
1001
AUTOCAD_POSTSCRIPT_FIGURE
1002
{
1000
PSFILL
1000
Grayscale
1000
Grayscale
1070
    25
1002
}
  0
LINE
  5
18167
  8
YODOROGO
 10
29617.604341291921
 20
1859.749496429288
 30
0.0
 11
29765.604341291921
 21
1859.749496429288
 31
0.0
1001
AUTOCAD_POSTSCRIPT_FIGURE
1002
{
1000
PSFILL
1000
Grayscale
1000
Grayscale
1070
    25
1002
}
  0
LINE
  5
18168
  8
YODOROGO
 10
29617.604341291921
 20
1907.7494964292871
 30
0.0
 11
29617.604341291921
 21
1859.749496429288
 31
0.0
1001
AUTOCAD_POSTSCRIPT_FIGURE
1002
{
1000
PSFILL
1000
Grayscale
1000
Grayscale
1070
    25
1002
}
  0
LINE
  5
18169
  8
YODOROGO
 10
29765.604341291921
 20
1907.7494964292871
 30
0.0
 11
29617.604341291921
 21
1907.7494964292871
 31
0.0
1001
AUTOCAD_POSTSCRIPT_FIGURE
1002
{
1000
PSFILL
1000
Grayscale
1000
Grayscale
1070
    25
1002
}
  0
LINE
  5
1816A
  8
YODOROGO
 10
29765.604341291921
 20
1947.749496429288
 30
0.0
 11
29765.604341291921
 21
1907.7494964292871
 31
0.0
1001
AUTOCAD_POSTSCRIPT_FIGURE
1002
{
1000
PSFILL
1000
Grayscale
1000
Grayscale
1070
    25
1002
}
  0
LINE
  5
1816B
  8
YODOROGO
 10
29617.604341291921
 20
1947.749496429288
 30
0.0
 11
29765.604341291921
 21
1947.749496429288
 31
0.0
1001
AUTOCAD_POSTSCRIPT_FIGURE
1002
{
1000
PSFILL
1000
Grayscale
1000
Grayscale
1070
    25
1002
}
  0
LINE
  5
1816C
  8
YODOROGO
 10
29617.604341291921
 20
2027.749496429288
 30
0.0
 11
29617.604341291921
 21
1947.749496429288
 31
0.0
1001
AUTOCAD_POSTSCRIPT_FIGURE
1002
{
1000
PSFILL
1000
Grayscale
1000
Grayscale
1070
    25
1002
}
  0
LINE
  5
1816D
  8
YODOROGO
 10
29665.604341291921
 20
2027.749496429288
 30
0.0
 11
29617.604341291921
 21
2027.749496429288
 31
0.0
1001
AUTOCAD_POSTSCRIPT_FIGURE
1002
{
1000
PSFILL
1000
Grayscale
1000
Grayscale
1070
    25
1002
}
  0
LINE
  5
1816E
  8
YODOROGO
 10
29665.604341291921
 20
1995.7494964292871
 30
0.0
 11
29665.604341291921
 21
2027.749496429288
 31
0.0
1001
AUTOCAD_POSTSCRIPT_FIGURE
1002
{
1000
PSFILL
1000
Grayscale
1000
Grayscale
1070
    25
1002
}
  0
LINE
  5
1816F
  8
YODOROGO
 10
29765.604341291921
 20
1995.7494964292871
 30
0.0
 11
29665.604341291921
 21
1995.7494964292871
 31
0.0
1001
AUTOCAD_POSTSCRIPT_FIGURE
1002
{
1000
PSFILL
1000
Grayscale
1000
Grayscale
1070
    25
1002
}
  0
LINE
  5
18170
  8
YODOROGO
 10
29765.604341291921
 20
2027.749496429288
 30
0.0
 11
29765.604341291921
 21
1995.7494964292871
 31
0.0
1001
AUTOCAD_POSTSCRIPT_FIGURE
1002
{
1000
PSFILL
1000
Grayscale
1000
Grayscale
1070
    25
1002
}
  0
LINE
  5
18171
  8
YODOROGO
 10
29829.604341291921
 20
2027.749496429288
 30
0.0
 11
29765.604341291921
 21
2027.749496429288
 31
0.0
1001
AUTOCAD_POSTSCRIPT_FIGURE
1002
{
1000
PSFILL
1000
Grayscale
1000
Grayscale
1070
    25
1002
}
  0
LINE
  5
18172
  8
YODOROGO
 10
29829.604341291921
 20
1995.7494964292871
 30
0.0
 11
29829.604341291921
 21
2027.749496429288
 31
0.0
1001
AUTOCAD_POSTSCRIPT_FIGURE
1002
{
1000
PSFILL
1000
Grayscale
1000
Grayscale
1070
    25
1002
}
  0
LINE
  5
18173
  8
YODOROGO
 10
29829.604341291921
 20
1907.7494964292871
 30
0.0
 11
29829.604341291921
 21
1947.749496429288
 31
0.0
1001
AUTOCAD_POSTSCRIPT_FIGURE
1002
{
1000
PSFILL
1000
Grayscale
1000
Grayscale
1070
    25
1002
}
  0
LINE
  5
18174
  8
YODOROGO
 10
29829.604341291921
 20
1819.7494964292871
 30
0.0
 11
29829.604341291921
 21
1859.749496429288
 31
0.0
1001
AUTOCAD_POSTSCRIPT_FIGURE
1002
{
1000
PSFILL
1000
Grayscale
1000
Grayscale
1070
    25
1002
}
  0
LINE
  5
18175
  8
YODOROGO
 10
29921.60434129191
 20
1771.7494964292871
 30
0.0
 11
29921.60434129191
 21
1707.749496429288
 31
0.0
1001
AUTOCAD_POSTSCRIPT_FIGURE
1002
{
1000
PSFILL
1000
Grayscale
1000
Grayscale
1070
    25
1002
}
  0
LINE
  5
18176
  8
YODOROGO
 10
29829.604341291921
 20
1771.7494964292871
 30
0.0
 11
29921.60434129191
 21
1771.7494964292871
 31
0.0
1001
AUTOCAD_POSTSCRIPT_FIGURE
1002
{
1000
PSFILL
1000
Grayscale
1000
Grayscale
1070
    25
1002
}
  0
LINE
  5
18177
  8
YODOROGO
 10
29829.604341291921
 20
1707.749496429288
 30
0.0
 11
29829.604341291921
 21
1771.7494964292871
 31
0.0
1001
AUTOCAD_POSTSCRIPT_FIGURE
1002
{
1000
PSFILL
1000
Grayscale
1000
Grayscale
1070
    25
1002
}
  0
LINE
  5
18178
  8
YODOROGO
 10
29765.604341291921
 20
1707.749496429288
 30
0.0
 11
29829.604341291921
 21
1707.749496429288
 31
0.0
1001
AUTOCAD_POSTSCRIPT_FIGURE
1002
{
1000
PSFILL
1000
Grayscale
1000
Grayscale
1070
    25
1002
}
  0
LINE
  5
18179
  8
YODOROGO
 10
29765.604341291921
 20
1771.7494964292871
 30
0.0
 11
29765.604341291921
 21
1707.749496429288
 31
0.0
1001
AUTOCAD_POSTSCRIPT_FIGURE
1002
{
1000
PSFILL
1000
Grayscale
1000
Grayscale
1070
    25
1002
}
  0
LINE
  5
1817A
  8
YODOROGO
 10
29673.604341291921
 20
1771.7494964292871
 30
0.0
 11
29765.604341291921
 21
1771.7494964292871
 31
0.0
1001
AUTOCAD_POSTSCRIPT_FIGURE
1002
{
1000
PSFILL
1000
Grayscale
1000
Grayscale
1070
    25
1002
}
  0
ARC
  5
1817B
  8
YODOROGO
 10
31059.517893357912
 20
1602.6807375155761
 30
0.0
 40
178.22128111072141
 50
281.02627495425338
 51
357.77113575573799
  0
LINE
  5
1817C
  8
YODOROGO
 10
31413.604341291921
 20
1907.7494964292871
 30
0.0
 11
31165.604341291921
 21
1907.7494964292871
 31
0.0
  0
LINE
  5
1817D
  8
YODOROGO
 10
31413.604341291921
 20
2027.749496429288
 30
0.0
 11
31165.604341291921
 21
2027.749496429288
 31
0.0
  0
LINE
  5
1817E
  8
YODOROGO
 10
31165.604341291921
 20
1963.749496429286
 30
0.0
 11
31413.604341291921
 21
1963.749496429286
 31
0.0
  0
LINE
  5
1817F
  8
YODOROGO
 10
30791.604341291921
 20
1563.7494964292871
 30
0.0
 11
30791.604341291921
 21
1755.7494964292871
 31
0.0
  0
LINE
  5
18180
  8
YODOROGO
 10
30763.604341291921
 20
1691.749496429288
 30
0.0
 11
30763.604341291921
 21
1563.7494964292871
 31
0.0
  0
LINE
  5
18181
  8
YODOROGO
 10
30723.604341291921
 20
1491.749496429288
 30
0.0
 11
30723.604341291921
 21
1691.749496429288
 31
0.0
  0
LINE
  5
18182
  8
YODOROGO
 10
30899.604341291932
 20
1691.749496429288
 30
0.0
 11
30899.604341291932
 21
1491.749496429288
 31
0.0
  0
LINE
  5
18183
  8
YODOROGO
 10
30859.604341291932
 20
1563.7494964292871
 30
0.0
 11
30859.604341291932
 21
1691.749496429288
 31
0.0
  0
LINE
  5
18184
  8
YODOROGO
 10
30831.604341291921
 20
1755.7494964292871
 30
0.0
 11
30831.604341291921
 21
1563.7494964292871
 31
0.0
  0
LINE
  5
18185
  8
YODOROGO
 10
30973.604341291921
 20
2027.749496429288
 30
0.0
 11
30973.604341291921
 21
1467.749496429288
 31
0.0
  0
LINE
  5
18186
  8
YODOROGO
 10
30645.604341291921
 20
1427.749496429288
 30
0.0
 11
30645.604341291921
 21
2027.749496429288
 31
0.0
  0
LINE
  5
18187
  8
YODOROGO
 10
30697.604341291932
 20
1963.749496429286
 30
0.0
 11
30697.604341291932
 21
1427.749496429288
 31
0.0
  0
LINE
  5
18188
  8
YODOROGO
 10
30925.604341291921
 20
1547.749496429288
 30
0.0
 11
30925.604341291921
 21
1963.749496429286
 31
0.0
  0
LINE
  5
18189
  8
YODOROGO
 10
30381.604341291932
 20
1627.749496429288
 30
0.0
 11
30381.604341291932
 21
1679.749496429288
 31
0.0
  0
LINE
  5
1818A
  8
YODOROGO
 10
30617.604341291921
 20
1679.749496429288
 30
0.0
 11
30617.604341291921
 21
1627.749496429288
 31
0.0
  0
LINE
  5
1818B
  8
YODOROGO
 10
31165.604341291921
 20
1907.7494964292871
 30
0.0
 11
31165.604341291921
 21
1635.7494964292871
 31
0.0
  0
LINE
  5
1818C
  8
YODOROGO
 10
29949.60434129191
 20
1667.749496429288
 30
0.0
 11
29949.60434129191
 21
1707.749496429288
 31
0.0
  0
LINE
  5
1818D
  8
YODOROGO
 10
29949.60434129191
 20
1667.749496429288
 30
0.0
 11
29949.60434129191
 21
1707.749496429288
 31
0.0
  0
ARC
  5
1818E
  8
YODOROGO
 10
30537.604341291921
 20
1507.749496429288
 30
0.0
 40
80.0
 50
270.0
 51
0.0
  0
LINE
  5
1818F
  8
YODOROGO
 10
30569.604341291921
 20
1599.7494964292871
 30
0.0
 11
30617.604341291921
 21
1599.7494964292871
 31
0.0
  0
LINE
  5
18190
  8
YODOROGO
 10
30617.604341291921
 20
1627.749496429288
 30
0.0
 11
30529.604341291939
 21
1627.749496429288
 31
0.0
  0
LINE
  5
18191
  8
YODOROGO
 10
30217.604341291921
 20
1667.749496429288
 30
0.0
 11
29949.60434129191
 21
1667.749496429288
 31
0.0
  0
LINE
  5
18192
  8
YODOROGO
 10
30217.604341291921
 20
1627.749496429288
 30
0.0
 11
30217.604341291921
 21
1667.749496429288
 31
0.0
  0
LINE
  5
18193
  8
YODOROGO
 10
30017.604341291921
 20
1627.749496429288
 30
0.0
 11
30217.604341291921
 21
1627.749496429288
 31
0.0
  0
ARC
  5
18194
  8
YODOROGO
 10
30230.05882870136
 20
1868.885714952901
 30
0.0
 40
321.37763628522822
 50
228.6181454618993
 51
245.660289248906
  0
LINE
  5
18195
  8
YODOROGO
 10
30105.604341291921
 20
1603.7494964292871
 30
0.0
 11
30097.60434129195
 21
1576.0728158699001
 31
0.0
  0
LINE
  5
18196
  8
YODOROGO
 10
30189.604341291921
 20
1603.7494964292871
 30
0.0
 11
30105.604341291921
 21
1603.7494964292871
 31
0.0
  0
LINE
  5
18197
  8
YODOROGO
 10
30177.604341291921
 20
1551.817722473427
 30
0.0
 11
30189.604341291921
 21
1603.7494964292871
 31
0.0
  0
ARC
  5
18198
  8
YODOROGO
 10
30230.05882870045
 20
1868.885714953002
 30
0.0
 40
321.37763628529081
 50
260.60629297969911
 51
267.77903556555862
  0
LINE
  5
18199
  8
YODOROGO
 10
30217.604341291921
 20
1427.749496429285
 30
0.0
 11
30217.604341291921
 21
1547.749496429288
 31
0.0
  0
LINE
  5
1819A
  8
YODOROGO
 10
29937.604341291932
 20
1481.3393349155101
 30
0.0
 11
29937.604341291921
 21
1594.531090531141
 31
0.0
  0
LINE
  5
1819B
  8
YODOROGO
 10
30217.604341291921
 20
1667.749496429288
 30
0.0
 11
29949.60434129191
 21
1667.749496429288
 31
0.0
  0
LINE
  5
1819C
  8
YODOROGO
 10
30217.604341291921
 20
1627.749496429288
 30
0.0
 11
30217.604341291921
 21
1667.749496429288
 31
0.0
  0
LINE
  5
1819D
  8
YODOROGO
 10
30017.604341291921
 20
1627.749496429288
 30
0.0
 11
30217.604341291921
 21
1627.749496429288
 31
0.0
  0
ARC
  5
1819E
  8
YODOROGO
 10
30230.05882870136
 20
1868.885714952901
 30
0.0
 40
321.37763628522822
 50
228.6181454618993
 51
245.660289248906
  0
LINE
  5
1819F
  8
YODOROGO
 10
30105.604341291921
 20
1603.7494964292871
 30
0.0
 11
30097.60434129195
 21
1576.0728158699001
 31
0.0
  0
LINE
  5
181A0
  8
YODOROGO
 10
30189.604341291921
 20
1603.7494964292871
 30
0.0
 11
30105.604341291921
 21
1603.7494964292871
 31
0.0
  0
LINE
  5
181A1
  8
YODOROGO
 10
30177.604341291921
 20
1551.817722473427
 30
0.0
 11
30189.604341291921
 21
1603.7494964292871
 31
0.0
  0
ARC
  5
181A2
  8
YODOROGO
 10
30230.05882870045
 20
1868.885714953002
 30
0.0
 40
321.37763628529081
 50
260.60629297969911
 51
267.77903556555862
  0
LINE
  5
181A3
  8
YODOROGO
 10
30217.604341291921
 20
1427.749496429285
 30
0.0
 11
30217.604341291921
 21
1547.749496429288
 31
0.0
  0
LINE
  5
181A4
  8
YODOROGO
 10
29937.604341291932
 20
1481.3393349155101
 30
0.0
 11
29937.604341291921
 21
1594.531090531141
 31
0.0
  0
LINE
  5
181A5
  8
YODOROGO
 10
30433.604341291921
 20
1573.749496429288
 30
0.0
 11
30381.604341291932
 21
1573.749496429288
 31
0.0
  0
LINE
  5
181A6
  8
YODOROGO
 10
30433.604341291921
 20
1601.749496429285
 30
0.0
 11
30433.604341291921
 21
1573.749496429288
 31
0.0
  0
LINE
  5
181A7
  8
YODOROGO
 10
30381.604341291932
 20
1601.749496429285
 30
0.0
 11
30433.604341291921
 21
1601.749496429285
 31
0.0
  0
LINE
  5
181A8
  8
YODOROGO
 10
30381.604341291932
 20
1573.749496429288
 30
0.0
 11
30381.604341291932
 21
1601.749496429285
 31
0.0
  0
LINE
  5
181A9
  8
YODOROGO
 10
30429.604341291921
 20
1577.7494964292871
 30
0.0
 11
30385.604341291921
 21
1577.7494964292871
 31
0.0
  0
LINE
  5
181AA
  8
YODOROGO
 10
30429.604341291921
 20
1597.749496429288
 30
0.0
 11
30429.604341291921
 21
1577.7494964292871
 31
0.0
  0
LINE
  5
181AB
  8
YODOROGO
 10
30385.604341291921
 20
1597.749496429288
 30
0.0
 11
30429.604341291921
 21
1597.749496429288
 31
0.0
  0
LINE
  5
181AC
  8
YODOROGO
 10
30385.604341291921
 20
1577.7494964292871
 30
0.0
 11
30385.604341291921
 21
1597.749496429288
 31
0.0
  0
LINE
  5
181AD
  8
YODOROGO
 10
30425.604341291921
 20
1581.749496429286
 30
0.0
 11
30389.604341291921
 21
1581.749496429286
 31
0.0
  0
LINE
  5
181AE
  8
YODOROGO
 10
30425.604341291921
 20
1593.749496429288
 30
0.0
 11
30425.604341291921
 21
1581.749496429286
 31
0.0
  0
LINE
  5
181AF
  8
YODOROGO
 10
30389.604341291921
 20
1593.749496429288
 30
0.0
 11
30425.604341291921
 21
1593.749496429288
 31
0.0
  0
LINE
  5
181B0
  8
YODOROGO
 10
30389.604341291921
 20
1581.749496429286
 30
0.0
 11
30389.604341291921
 21
1593.749496429288
 31
0.0
  0
LINE
  5
181B1
  8
YODOROGO
 10
30421.604341291932
 20
1585.7494964292871
 30
0.0
 11
30393.604341291921
 21
1585.7494964292871
 31
0.0
  0
LINE
  5
181B2
  8
YODOROGO
 10
30421.604341291932
 20
1589.749496429288
 30
0.0
 11
30421.604341291932
 21
1585.7494964292871
 31
0.0
  0
LINE
  5
181B3
  8
YODOROGO
 10
30393.604341291921
 20
1589.749496429288
 30
0.0
 11
30421.604341291932
 21
1589.749496429288
 31
0.0
  0
LINE
  5
181B4
  8
YODOROGO
 10
30393.604341291921
 20
1585.7494964292871
 30
0.0
 11
30393.604341291921
 21
1589.749496429288
 31
0.0
  0
LINE
  5
181B5
  8
YODOROGO
 10
30465.604341291921
 20
1627.749496429288
 30
0.0
 11
30381.604341291932
 21
1627.749496429288
 31
0.0
  0
LINE
  5
181B6
  8
YODOROGO
 10
30465.604341291921
 20
1547.749496429288
 30
0.0
 11
30465.604341291921
 21
1627.749496429288
 31
0.0
  0
LINE
  5
181B7
  8
YODOROGO
 10
30381.604341291932
 20
1547.749496429288
 30
0.0
 11
30465.604341291921
 21
1547.749496429288
 31
0.0
  0
LINE
  5
181B8
  8
YODOROGO
 10
30381.604341291932
 20
1427.749496429288
 30
0.0
 11
30381.604341291932
 21
1547.749496429288
 31
0.0
  0
LINE
  5
181B9
  8
YODOROGO
 10
30537.604341291921
 20
1427.749496429288
 30
0.0
 11
30381.604341291932
 21
1427.749496429288
 31
0.0
  0
LINE
  5
181BA
  8
YODOROGO
 10
30569.604341291921
 20
1571.749496429285
 30
0.0
 11
30569.604341291921
 21
1599.7494964292871
 31
0.0
  0
ARC
  5
181BB
  8
YODOROGO
 10
30545.604341291921
 20
1571.749496429291
 30
0.0
 40
24.000000000003752
 50
270.0
 51
359.99999999998772
  0
LINE
  5
181BC
  8
YODOROGO
 10
30529.604341291939
 20
1547.749496429288
 30
0.0
 11
30545.604341291921
 21
1547.749496429288
 31
0.0
  0
LINE
  5
181BD
  8
YODOROGO
 10
30529.604341291939
 20
1627.749496429288
 30
0.0
 11
30529.604341291939
 21
1547.749496429288
 31
0.0
  0
LINE
  5
181BE
  8
YODOROGO
 10
30899.604341291932
 20
1547.749496429288
 30
0.0
 11
30925.604341291921
 21
1547.749496429288
 31
0.0
  0
LINE
  5
181BF
  8
YODOROGO
 10
30933.604341291921
 20
1427.749496429288
 30
0.0
 11
30899.604341291932
 21
1427.749496429288
 31
0.0
  0
LINE
  5
181C0
  8
YODOROGO
 10
30763.604341291921
 20
1563.7494964292871
 30
0.0
 11
30791.604341291921
 21
1563.7494964292871
 31
0.0
  0
LINE
  5
181C1
  8
YODOROGO
 10
30899.604341291932
 20
1491.749496429288
 30
0.0
 11
30723.604341291921
 21
1491.749496429288
 31
0.0
  0
LINE
  5
181C2
  8
YODOROGO
 10
30831.604341291921
 20
1563.7494964292871
 30
0.0
 11
30859.604341291932
 21
1563.7494964292871
 31
0.0
  0
LINE
  5
181C3
  8
YODOROGO
 10
30899.604341291932
 20
1427.749496429288
 30
0.0
 11
30899.604341291932
 21
1547.749496429288
 31
0.0
  0
LINE
  5
181C4
  8
YODOROGO
 10
30697.604341291932
 20
1427.749496429288
 30
0.0
 11
30645.604341291921
 21
1427.749496429288
 31
0.0
  0
LINE
  5
181C5
  8
YODOROGO
 10
30617.604341291921
 20
1599.7494964292871
 30
0.0
 11
30617.604341291921
 21
1507.749496429288
 31
0.0
  0
ARC
  5
181C6
  8
YODOROGO
 10
30933.604341291921
 20
1467.749496429288
 30
0.0
 40
40.0
 50
270.0
 51
0.0
  0
LINE
  5
181C7
  8
YODOROGO
 10
31093.604341291921
 20
1523.7494964292871
 30
0.0
 11
31093.604341291921
 21
1427.749496429288
 31
0.0
  0
ARC
  5
181C8
  8
YODOROGO
 10
31039.721395566768
 20
1637.5313901097329
 30
0.0
 40
125.8955565916754
 50
295.34052442160112
 51
359.18902303418679
  0
LINE
  5
181C9
  8
YODOROGO
 10
30617.604341291921
 20
1859.749496429288
 30
0.0
 11
30497.604341291921
 21
1939.749496429288
 31
0.0
  0
LINE
  5
181CA
  8
YODOROGO
 10
30497.604341291921
 20
2027.749496429288
 30
0.0
 11
30617.604341291921
 21
1947.749496429288
 31
0.0
  0
LINE
  5
181CB
  8
YODOROGO
 10
30529.604341291939
 20
1679.749496429288
 30
0.0
 11
30617.604341291921
 21
1679.749496429288
 31
0.0
  0
LINE
  5
181CC
  8
YODOROGO
 10
30617.604341291921
 20
1735.7494964292871
 30
0.0
 11
30529.604341291939
 21
1735.7494964292871
 31
0.0
  0
LINE
  5
181CD
  8
YODOROGO
 10
30381.604341291932
 20
1795.7494964292871
 30
0.0
 11
30617.604341291921
 21
1795.7494964292871
 31
0.0
  0
LINE
  5
181CE
  8
YODOROGO
 10
30081.604341291921
 20
2027.749496429288
 30
0.0
 11
30021.604341291921
 21
2027.749496429288
 31
0.0
  0
LINE
  5
181CF
  8
YODOROGO
 10
30081.604341291921
 20
1827.7494964292871
 30
0.0
 11
30081.604341291921
 21
2027.749496429288
 31
0.0
  0
LINE
  5
181D0
  8
YODOROGO
 10
30021.604341291921
 20
1827.7494964292871
 30
0.0
 11
30081.604341291921
 21
1827.7494964292871
 31
0.0
  0
LINE
  5
181D1
  8
YODOROGO
 10
30021.604341291921
 20
2027.749496429288
 30
0.0
 11
30021.604341291921
 21
1827.7494964292871
 31
0.0
  0
LINE
  5
181D2
  8
YODOROGO
 10
30161.604341291921
 20
2027.749496429288
 30
0.0
 11
30217.604341291921
 21
2027.749496429288
 31
0.0
  0
LINE
  5
181D3
  8
YODOROGO
 10
30161.604341291921
 20
1811.749496429288
 30
0.0
 11
30161.604341291921
 21
2027.749496429288
 31
0.0
  0
ARC
  5
181D4
  8
YODOROGO
 10
30121.604341291921
 20
1811.749496429288
 30
0.0
 40
40.0
 50
270.0
 51
0.0
  0
LINE
  5
181D5
  8
YODOROGO
 10
30021.604341291921
 20
1771.7494964292871
 30
0.0
 11
30121.604341291921
 21
1771.7494964292871
 31
0.0
  0
LINE
  5
181D6
  8
YODOROGO
 10
30021.604341291921
 20
1707.749496429288
 30
0.0
 11
30021.604341291921
 21
1771.7494964292871
 31
0.0
  0
LINE
  5
181D7
  8
YODOROGO
 10
30137.604341291921
 20
1707.749496429288
 30
0.0
 11
30021.604341291921
 21
1707.749496429288
 31
0.0
  0
ARC
  5
181D8
  8
YODOROGO
 10
30137.604341291921
 20
1787.7494964292871
 30
0.0
 40
80.0
 50
270.0
 51
0.0
  0
LINE
  5
181D9
  8
YODOROGO
 10
30217.604341291921
 20
2027.749496429288
 30
0.0
 11
30217.604341291921
 21
1787.7494964292871
 31
0.0
  0
LINE
  5
181DA
  8
YODOROGO
 10
29977.604341291921
 20
1947.749496429288
 30
0.0
 11
29977.604341291921
 21
1995.7494964292871
 31
0.0
1001
AUTOCAD_POSTSCRIPT_FIGURE
1002
{
1000
PSFILL
1000
Grayscale
1000
Grayscale
1070
    25
1002
}
  0
LINE
  5
181DB
  8
YODOROGO
 10
29977.604341291921
 20
1859.749496429288
 30
0.0
 11
29977.604341291921
 21
1907.7494964292871
 31
0.0
1001
AUTOCAD_POSTSCRIPT_FIGURE
1002
{
1000
PSFILL
1000
Grayscale
1000
Grayscale
1070
    25
1002
}
  0
LINE
  5
181DC
  8
YODOROGO
 10
29977.604341291921
 20
1707.749496429288
 30
0.0
 11
29977.604341291921
 21
1819.7494964292871
 31
0.0
1001
AUTOCAD_POSTSCRIPT_FIGURE
1002
{
1000
PSFILL
1000
Grayscale
1000
Grayscale
1070
    25
1002
}
  0
LINE
  5
181DD
  8
YODOROGO
 10
30381.604341291932
 20
1907.7494964292871
 30
0.0
 11
30497.604341291921
 21
2027.749496429288
 31
0.0
  0
LINE
  5
181DE
  8
YODOROGO
 10
30381.604341291932
 20
1819.7494964292871
 30
0.0
 11
30381.604341291932
 21
1907.7494964292871
 31
0.0
  0
LINE
  5
181DF
  8
YODOROGO
 10
30497.604341291921
 20
1939.749496429288
 30
0.0
 11
30381.604341291932
 21
1819.7494964292871
 31
0.0
  0
LINE
  5
181E0
  8
YODOROGO
 10
30465.604341291921
 20
1679.749496429288
 30
0.0
 11
30465.604341291921
 21
1735.7494964292871
 31
0.0
  0
LINE
  5
181E1
  8
YODOROGO
 10
30381.604341291932
 20
1679.749496429288
 30
0.0
 11
30465.604341291921
 21
1679.749496429288
 31
0.0
  0
LINE
  5
181E2
  8
YODOROGO
 10
30529.604341291939
 20
1735.7494964292871
 30
0.0
 11
30529.604341291939
 21
1679.749496429288
 31
0.0
  0
LINE
  5
181E3
  8
YODOROGO
 10
30381.604341291932
 20
1735.7494964292871
 30
0.0
 11
30381.604341291932
 21
1795.7494964292871
 31
0.0
  0
LINE
  5
181E4
  8
YODOROGO
 10
30465.604341291921
 20
1735.7494964292871
 30
0.0
 11
30381.604341291932
 21
1735.7494964292871
 31
0.0
  0
LINE
  5
181E5
  8
YODOROGO
 10
30645.604341291921
 20
2027.749496429288
 30
0.0
 11
30973.604341291921
 21
2027.749496429288
 31
0.0
  0
LINE
  5
181E6
  8
YODOROGO
 10
30925.604341291921
 20
1963.749496429286
 30
0.0
 11
30697.604341291932
 21
1963.749496429286
 31
0.0
  0
LINE
  5
181E7
  8
YODOROGO
 10
30873.604341291921
 20
1819.7494964292871
 30
0.0
 11
30899.604341291932
 21
1819.7494964292871
 31
0.0
  0
LINE
  5
181E8
  8
YODOROGO
 10
30899.604341291932
 20
1939.749496429288
 30
0.0
 11
30873.604341291921
 21
1819.7494964292871
 31
0.0
  0
LINE
  5
181E9
  8
YODOROGO
 10
30851.604341291939
 20
1939.749496429288
 30
0.0
 11
30899.604341291932
 21
1939.749496429288
 31
0.0
  0
LINE
  5
181EA
  8
YODOROGO
 10
30825.604341291921
 20
1819.7494964292871
 30
0.0
 11
30851.604341291939
 21
1939.749496429288
 31
0.0
  0
LINE
  5
181EB
  8
YODOROGO
 10
30797.604341291921
 20
1819.7494964292871
 30
0.0
 11
30825.604341291921
 21
1819.7494964292871
 31
0.0
  0
LINE
  5
181EC
  8
YODOROGO
 10
30771.604341291939
 20
1939.749496429288
 30
0.0
 11
30797.604341291921
 21
1819.7494964292871
 31
0.0
  0
LINE
  5
181ED
  8
YODOROGO
 10
30723.604341291921
 20
1939.749496429288
 30
0.0
 11
30771.604341291939
 21
1939.749496429288
 31
0.0
  0
LINE
  5
181EE
  8
YODOROGO
 10
30749.604341291921
 20
1819.7494964292871
 30
0.0
 11
30723.604341291921
 21
1939.749496429288
 31
0.0
  0
LINE
  5
181EF
  8
YODOROGO
 10
30723.604341291921
 20
1819.7494964292871
 30
0.0
 11
30749.604341291921
 21
1819.7494964292871
 31
0.0
  0
LINE
  5
181F0
  8
YODOROGO
 10
30723.604341291921
 20
1755.7494964292871
 30
0.0
 11
30723.604341291921
 21
1819.7494964292871
 31
0.0
  0
LINE
  5
181F1
  8
YODOROGO
 10
30899.604341291932
 20
1755.7494964292871
 30
0.0
 11
30723.604341291921
 21
1755.7494964292871
 31
0.0
  0
LINE
  5
181F2
  8
YODOROGO
 10
30899.604341291932
 20
1819.7494964292871
 30
0.0
 11
30899.604341291932
 21
1755.7494964292871
 31
0.0
  0
LINE
  5
181F3
  8
YODOROGO
 10
30617.604341291921
 20
1947.749496429288
 30
0.0
 11
30617.604341291921
 21
1859.749496429288
 31
0.0
  0
LINE
  5
181F4
  8
YODOROGO
 10
30791.604341291921
 20
1755.7494964292871
 30
0.0
 11
30831.604341291921
 21
1755.7494964292871
 31
0.0
  0
LINE
  5
181F5
  8
YODOROGO
 10
30723.604341291921
 20
1691.749496429288
 30
0.0
 11
30763.604341291921
 21
1691.749496429288
 31
0.0
  0
LINE
  5
181F6
  8
YODOROGO
 10
30859.604341291932
 20
1691.749496429288
 30
0.0
 11
30899.604341291932
 21
1691.749496429288
 31
0.0
  0
LINE
  5
181F7
  8
YODOROGO
 10
30617.604341291921
 20
1795.7494964292871
 30
0.0
 11
30617.604341291921
 21
1735.7494964292871
 31
0.0
  0
LINE
  5
181F8
  8
YODOROGO
 10
31165.604341291921
 20
2027.749496429288
 30
0.0
 11
31165.604341291921
 21
1963.749496429286
 31
0.0
  0
LINE
  5
181F9
  8
YODOROGO
 10
31533.604341291921
 20
1595.7494964292871
 30
0.0
 11
31533.60434129191
 21
1811.749496429288
 31
0.0
  0
LINE
  5
181FA
  8
YODOROGO
 10
31461.60434129191
 20
1987.7494964292871
 30
0.0
 11
31461.60434129191
 21
1635.7494964292871
 31
0.0
  0
LINE
  5
181FB
  8
YODOROGO
 10
31653.604341291921
 20
1427.749496429288
 30
0.0
 11
31653.60434129191
 21
1811.749496429288
 31
0.0
  0
LINE
  5
181FC
  8
YODOROGO
 10
31589.604341291921
 20
1811.749496429288
 30
0.0
 11
31589.604341291921
 21
1427.749496429288
 31
0.0
  0
LINE
  5
181FD
  8
YODOROGO
 10
31237.604341291921
 20
1595.7494964292871
 30
0.0
 11
31237.604341291921
 21
1707.749496429288
 31
0.0
  0
ARC
  5
181FE
  8
YODOROGO
 10
31353.914865116069
 20
1607.790351288558
 30
0.0
 40
180.0924485759885
 50
268.62849102169793
 51
356.16638457330322
  0
LINE
  5
181FF
  8
YODOROGO
 10
31349.604341291939
 20
1527.749496429288
 30
0.0
 11
31349.604341291939
 21
1427.749496429288
 31
0.0
  0
ARC
  5
18200
  8
YODOROGO
 10
31351.518075724562
 20
1637.838957017655
 30
0.0
 40
110.1060929836122
 50
269.00410209305932
 51
358.91264455492478
  0
LINE
  5
18201
  8
YODOROGO
 10
31589.604341291921
 20
1427.749496429288
 30
0.0
 11
31653.604341291921
 21
1427.749496429288
 31
0.0
  0
LINE
  5
18202
  8
YODOROGO
 10
31533.60434129191
 20
1811.749496429288
 30
0.0
 11
31589.604341291921
 21
1811.749496429288
 31
0.0
  0
LINE
  5
18203
  8
YODOROGO
 10
31621.604341291939
 20
1987.7494964292871
 30
0.0
 11
31461.60434129191
 21
1987.7494964292871
 31
0.0
  0
LINE
  5
18204
  8
YODOROGO
 10
31533.60434129191
 20
1915.7494964292871
 30
0.0
 11
31661.604341291939
 21
1915.7494964292871
 31
0.0
  0
LINE
  5
18205
  8
YODOROGO
 10
31701.604341291939
 20
1875.7494964292871
 30
0.0
 11
31533.60434129191
 21
1875.7494964292871
 31
0.0
  0
LINE
  5
18206
  8
YODOROGO
 10
31237.604341291921
 20
1779.749496429288
 30
0.0
 11
31349.604341291939
 21
1779.749496429288
 31
0.0
  0
LINE
  5
18207
  8
YODOROGO
 10
31237.604341291921
 20
1835.7494964292871
 30
0.0
 11
31237.604341291921
 21
1779.749496429288
 31
0.0
  0
LINE
  5
18208
  8
YODOROGO
 10
31349.604341291939
 20
1835.7494964292871
 30
0.0
 11
31237.604341291921
 21
1835.7494964292871
 31
0.0
  0
LINE
  5
18209
  8
YODOROGO
 10
31349.604341291939
 20
1779.749496429288
 30
0.0
 11
31349.604341291939
 21
1835.7494964292871
 31
0.0
  0
LINE
  5
1820A
  8
YODOROGO
 10
31533.60434129191
 20
1875.7494964292871
 30
0.0
 11
31533.60434129191
 21
1915.7494964292871
 31
0.0
  0
LINE
  5
1820B
  8
YODOROGO
 10
31413.604341291921
 20
1707.749496429288
 30
0.0
 11
31413.604341291921
 21
1907.7494964292871
 31
0.0
  0
LINE
  5
1820C
  8
YODOROGO
 10
31237.604341291921
 20
1707.749496429288
 30
0.0
 11
31413.604341291921
 21
1707.749496429288
 31
0.0
  0
LINE
  5
1820D
  8
YODOROGO
 10
31413.604341291921
 20
1963.749496429286
 30
0.0
 11
31413.604341291921
 21
2027.749496429288
 31
0.0
  0
ARC
  5
1820E
  8
YODOROGO
 10
31621.604341291939
 20
2003.749496429285
 30
0.0
 40
15.999999999994539
 50
270.0
 51
0.0000000000081422
  0
LINE
  5
1820F
  8
YODOROGO
 10
31637.604341291921
 20
2027.749496429288
 30
0.0
 11
31637.604341291921
 21
2003.7494964292871
 31
0.0
  0
LINE
  5
18210
  8
YODOROGO
 10
31701.604341291939
 20
2027.749496429288
 30
0.0
 11
31637.604341291921
 21
2027.749496429288
 31
0.0
  0
LINE
  5
18211
  8
YODOROGO
 10
31701.604341291939
 20
1955.7494964292871
 30
0.0
 11
31701.604341291939
 21
2027.749496429288
 31
0.0
  0
ARC
  5
18212
  8
YODOROGO
 10
31661.604341291939
 20
1955.7494964292871
 30
0.0
 40
40.0
 50
270.0
 51
0.0
  0
LINE
  5
18213
  8
YODOROGO
 10
31701.604341291939
 20
1811.749496429288
 30
0.0
 11
31701.604341291939
 21
1875.7494964292871
 31
0.0
  0
LINE
  5
18214
  8
YODOROGO
 10
31653.60434129191
 20
1811.749496429288
 30
0.0
 11
31701.604341291939
 21
1811.749496429288
 31
0.0
  0
LINE
  5
18215
  8
SUNPOU
  6
CONTINUOUS
 62
     4
 10
22650.354253301171
 20
19486.455421421961
 30
0.0
 11
22650.354253301171
 21
20286.45634542195
 31
0.0
  0
LINE
  5
18216
  8
SUNPOU
  6
CONTINUOUS
 62
     4
 10
23351.354253301171
 20
19486.455421421961
 30
0.0
 11
23351.354253301171
 21
20286.45634542195
 31
0.0
  0
LINE
  5
18217
  8
SUNPOU
  6
CONTINUOUS
 62
     4
 10
22650.354253301171
 20
20206.45634542195
 30
0.0
 11
23351.354253301171
 21
20206.45634542195
 31
0.0
  0
LINE
  5
18218
  8
0-6
  6
CONTINUOUS
 62
     6
 10
9760.4848472645353
 20
19509.996408473671
 30
0.0
 11
9894.8761098089326
 21
19419.125990432382
 31
0.0
  0
LINE
  5
18219
  8
0-6
  6
CONTINUOUS
 62
     6
 10
9894.8761098089326
 20
19419.125990432382
 30
0.0
 11
9797.2134078854888
 21
19548.665331855311
 31
0.0
  0
LINE
  5
1821A
  8
0-6
  6
CONTINUOUS
 62
     6
 10
9797.2134078854888
 20
19548.665331855311
 30
0.0
 11
9760.4848472645353
 21
19509.996408473671
 31
0.0
  0
LINE
  5
1821B
  8
0-6
  6
CONTINUOUS
 62
     6
 10
9455.9937799573654
 20
13534.738152512609
 30
0.0
 11
9397.2437813286524
 21
13685.956147421961
 31
0.0
  0
LINE
  5
1821C
  8
0-6
  6
CONTINUOUS
 62
     6
 10
9397.2437813286524
 20
13685.956147421961
 30
0.0
 11
9501.8547730154733
 21
13561.96024127352
 31
0.0
  0
LINE
  5
1821D
  8
0-6
  6
CONTINUOUS
 62
     6
 10
9501.8547730154733
 20
13561.96024127352
 30
0.0
 11
9455.9937799573654
 21
13534.738152512609
 31
0.0
  0
LINE
  5
1821E
  8
SUNPOU
  6
CONTINUOUS
 62
     4
 10
13862.88688892185
 20
13685.95614742195
 30
0.0
 11
14709.886664921851
 21
13685.95614742195
 31
0.0
  0
LINE
  5
1821F
  8
SUNPOU
  6
CONTINUOUS
 62
     4
 10
14629.88666492184
 20
13878.455421421961
 30
0.0
 11
14629.88666492184
 21
13685.95614742195
 31
0.0
  0
LINE
  5
18220
  8
SUNPOU
  6
CONTINUOUS
 62
     4
 10
14629.88666492184
 20
16796.455421421961
 30
0.0
 11
14629.88666492184
 21
13878.455421421961
 31
0.0
  0
LINE
  5
18221
  8
SUNPOU
  6
CONTINUOUS
 62
     4
 10
14629.88666492184
 20
19363.955421421961
 30
0.0
 11
14629.88666492184
 21
16796.455421421961
 31
0.0
  0
LINE
  5
18222
  8
SUNPOU
  6
CONTINUOUS
 62
     4
 10
14549.88666492184
 20
19363.955421421961
 30
0.0
 11
14589.88666492184
 21
19363.955421421961
 31
0.0
  0
LINE
  5
18223
  8
SUNPOU
  6
CONTINUOUS
 62
     4
 10
13857.88761492185
 20
19586.455289421949
 30
0.0
 11
14669.88666492184
 21
19586.455289421949
 31
0.0
  0
LINE
  5
18224
  8
SUNPOU
  6
CONTINUOUS
 62
     4
 10
14629.88666492184
 20
19363.955421421961
 30
0.0
 11
14629.88666492184
 21
19586.455289421949
 31
0.0
  0
LINE
  5
18225
  8
SUNPOU
  6
CONTINUOUS
 62
     4
 10
13789.386769921841
 20
19576.45872042195
 30
0.0
 11
14309.887323921839
 21
19576.45872042195
 31
0.0
  0
LINE
  5
18226
  8
SUNPOU
  6
CONTINUOUS
 62
     4
 10
13857.88761492185
 20
19586.455289421949
 30
0.0
 11
14309.887323921839
 21
19586.455289421949
 31
0.0
  0
LINE
  5
18227
  8
SUNPOU
  6
CONTINUOUS
 62
     4
 10
14229.887323921839
 20
19576.45872042195
 30
0.0
 11
14229.887323921839
 21
19336.45872042195
 31
0.0
  0
LINE
  5
18228
  8
SUNPOU
  6
CONTINUOUS
 62
     4
 10
14229.887323921839
 20
19586.455289421949
 30
0.0
 11
14229.887323921839
 21
19826.45528942196
 31
0.0
  0
LINE
  5
18229
  8
SUNPOU
  6
CONTINUOUS
 62
     4
 10
14229.887323921839
 20
19576.45872042195
 30
0.0
 11
14229.887323921839
 21
19586.455289421949
 31
0.0
  0
LINE
  5
1822A
  8
SUNPOU
  6
CONTINUOUS
 62
     4
 10
7631.8868889218584
 20
20211.457334421961
 30
0.0
 11
7631.8868889218584
 21
20286.45634542195
 31
0.0
  0
LINE
  5
1822B
  8
SUNPOU
  6
CONTINUOUS
 62
     4
 10
7546.3868889218566
 20
19661.457004421951
 30
0.0
 11
7546.3868889218566
 21
20286.45634542195
 31
0.0
  0
LINE
  5
1822C
  8
SUNPOU
  6
CONTINUOUS
 62
     4
 10
7631.8868889218584
 20
20206.45634542195
 30
0.0
 11
7871.8868889218529
 21
20206.45634542195
 31
0.0
  0
LINE
  5
1822D
  8
SUNPOU
  6
CONTINUOUS
 62
     4
 10
7549.3868889218584
 20
20206.45634542195
 30
0.0
 11
7309.3868889218529
 21
20206.45634542195
 31
0.0
  0
LINE
  5
1822E
  8
SUNPOU
  6
CONTINUOUS
 62
     4
 10
7631.8868889218584
 20
20206.45634542195
 30
0.0
 11
7549.3868889218584
 21
20206.45634542195
 31
0.0
  0
LINE
  5
1822F
  8
SUNPOU
  6
CONTINUOUS
 62
     4
 10
10431.88688892185
 20
20211.457334421961
 30
0.0
 11
10431.88688892185
 21
20286.45634542195
 31
0.0
  0
LINE
  5
18230
  8
SUNPOU
  6
CONTINUOUS
 62
     4
 10
7631.8868889218584
 20
20211.457334421961
 30
0.0
 11
7631.8868889218584
 21
20286.45634542195
 31
0.0
  0
LINE
  5
18231
  8
SUNPOU
  6
CONTINUOUS
 62
     4
 10
10431.88688892185
 20
20206.45634542195
 30
0.0
 11
7631.8868889218584
 21
20206.45634542195
 31
0.0
  0
LINE
  5
18232
  8
SUNPOU
  6
CONTINUOUS
 62
     4
 10
13700.386888921859
 20
19736.457004421951
 30
0.0
 11
13700.386888921859
 21
20286.45634542195
 31
0.0
  0
LINE
  5
18233
  8
SUNPOU
  6
CONTINUOUS
 62
     4
 10
10431.88688892185
 20
20211.457334421961
 30
0.0
 11
10431.88688892185
 21
20286.45634542195
 31
0.0
  0
LINE
  5
18234
  8
SUNPOU
  6
CONTINUOUS
 62
     4
 10
13700.386888921859
 20
20206.45634542195
 30
0.0
 11
10431.88688892185
 21
20206.45634542195
 31
0.0
  0
LINE
  5
18235
  8
SUNPOU
  6
CONTINUOUS
 62
     4
 10
13700.386888921859
 20
19736.457004421951
 30
0.0
 11
13700.386888921859
 21
20286.45634542195
 31
0.0
  0
LINE
  5
18236
  8
SUNPOU
  6
CONTINUOUS
 62
     4
 10
13785.886888921859
 20
19656.456741421938
 30
0.0
 11
13785.886888921859
 21
20286.45634542195
 31
0.0
  0
LINE
  5
18237
  8
SUNPOU
  6
CONTINUOUS
 62
     4
 10
13700.386888921859
 20
20206.45634542195
 30
0.0
 11
13460.386888921859
 21
20206.45634542195
 31
0.0
  0
LINE
  5
18238
  8
SUNPOU
  6
CONTINUOUS
 62
     4
 10
13782.886888921859
 20
20206.45634542195
 30
0.0
 11
14022.88688892185
 21
20206.45634542195
 31
0.0
  0
LINE
  5
18239
  8
SUNPOU
  6
CONTINUOUS
 62
     4
 10
13700.386888921859
 20
20206.45634542195
 30
0.0
 11
13782.886888921859
 21
20206.45634542195
 31
0.0
  0
LINE
  5
1823A
  8
SUNPOU
  6
CONTINUOUS
 62
     4
 10
13785.886888921859
 20
13605.95614742195
 30
0.0
 11
13785.886888921859
 21
12315.95535542194
 31
0.0
  0
LINE
  5
1823B
  8
SUNPOU
  6
CONTINUOUS
 62
     4
 10
7546.3868889218566
 20
13605.956147421941
 30
0.0
 11
7546.3868889218566
 21
12315.95535542194
 31
0.0
  0
LINE
  5
1823C
  8
SUNPOU
  6
CONTINUOUS
 62
     4
 10
13782.886888921859
 20
12395.95535542194
 30
0.0
 11
7549.3868889218584
 21
12395.95535542194
 31
0.0
  0
LINE
  5
1823D
  8
0-6
  6
CONTINUOUS
 62
     6
 10
9703.5467622972501
 20
16600.23703151261
 30
0.0
 11
9762.2967609259631
 21
16751.45502642194
 31
0.0
  0
LINE
  5
1823E
  8
0-6
  6
CONTINUOUS
 62
     6
 10
9762.2967609259631
 20
16751.45502642194
 30
0.0
 11
9657.6857692391441
 21
16627.45912027351
 31
0.0
  0
LINE
  5
1823F
  8
0-6
  6
CONTINUOUS
 62
     6
 10
9657.6857692391441
 20
16627.45912027351
 30
0.0
 11
9703.5467622972501
 21
16600.23703151261
 31
0.0
  0
LINE
  5
18240
  8
0-6
  6
CONTINUOUS
 62
     6
 10
8599.5237981965056
 20
14618.99091190386
 30
0.0
 11
8479.6690712899745
 21
14728.322008859101
 31
0.0
  0
LINE
  5
18241
  8
0-6
  6
CONTINUOUS
 62
     6
 10
8479.6690712899745
 20
14728.322008859101
 30
0.0
 11
8557.5944693267611
 21
14586.033300016539
 31
0.0
  0
LINE
  5
18242
  8
0-6
  6
CONTINUOUS
 62
     6
 10
8557.5944693267611
 20
14586.033300016539
 30
0.0
 11
8599.5237981965056
 21
14618.99091190386
 31
0.0
  0
LINE
  5
18243
  8
0-6
  6
CONTINUOUS
 62
     6
 10
11391.754168427969
 20
17010.57225470023
 30
0.0
 11
11360.114522059221
 21
16851.45790242196
 31
0.0
  0
LINE
  5
18244
  8
0-6
  6
CONTINUOUS
 62
     6
 10
11360.114522059221
 20
16851.45790242196
 30
0.0
 11
11441.640647961591
 21
16991.714578265299
 31
0.0
  0
LINE
  5
18245
  8
0-6
  6
CONTINUOUS
 62
     6
 10
11441.640647961591
 20
16991.714578265299
 30
0.0
 11
11391.754168427969
 21
17010.57225470023
 31
0.0
  0
LINE
  5
18246
  8
0-6
  6
CONTINUOUS
 62
     6
 10
7753.7608766924022
 20
14093.53661111098
 30
0.0
 11
7684.8865199218508
 21
14240.3947005996
 31
0.0
  0
LINE
  5
18247
  8
0-6
  6
CONTINUOUS
 62
     6
 10
7684.8865199218508
 20
14240.3947005996
 30
0.0
 11
7797.6691431379058
 21
14123.81175628679
 31
0.0
  0
LINE
  5
18248
  8
0-6
  6
CONTINUOUS
 62
     6
 10
7797.6691431379058
 20
14123.81175628679
 30
0.0
 11
7753.7608766924022
 21
14093.53661111098
 31
0.0
  0
LINE
  5
18249
  8
SUNPOU
  6
CONTINUOUS
 62
     4
 10
25511.354253301171
 20
19486.455421421961
 30
0.0
 11
25511.354253301171
 21
20286.45634542195
 31
0.0
  0
LINE
  5
1824A
  8
SUNPOU
  6
CONTINUOUS
 62
     4
 10
25553.854253301171
 20
19486.455421421961
 30
0.0
 11
25553.854253301171
 21
20286.45634542195
 31
0.0
  0
LINE
  5
1824B
  8
SUNPOU
  6
CONTINUOUS
 62
     4
 10
25511.354253301171
 20
20206.45634542195
 30
0.0
 11
25271.354253301171
 21
20206.45634542195
 31
0.0
  0
LINE
  5
1824C
  8
SUNPOU
  6
CONTINUOUS
 62
     4
 10
25553.854253301171
 20
20206.45634542195
 30
0.0
 11
25793.854253301171
 21
20206.45634542195
 31
0.0
  0
LINE
  5
1824D
  8
SUNPOU
  6
CONTINUOUS
 62
     4
 10
25511.354253301171
 20
20206.45634542195
 30
0.0
 11
25553.854253301171
 21
20206.45634542195
 31
0.0
  0
LINE
  5
1824E
  8
0-6
  6
CONTINUOUS
 62
     6
 10
19585.08029824914
 20
19148.358648675301
 30
0.0
 11
19478.75227430118
 21
19270.854880421961
 31
0.0
  0
LINE
  5
1824F
  8
0-6
  6
CONTINUOUS
 62
     6
 10
19478.75227430118
 20
19270.854880421961
 30
0.0
 11
19539.604393894431
 21
19120.493573746509
 31
0.0
  0
LINE
  5
18250
  8
0-6
  6
CONTINUOUS
 62
     6
 10
19539.604393894431
 20
19120.493573746509
 30
0.0
 11
19585.08029824914
 21
19148.358648675301
 31
0.0
  0
LINE
  5
18251
  8
0-6
  6
CONTINUOUS
 62
     6
 10
19556.895952743162
 20
19564.17220535464
 30
0.0
 11
19487.852274301182
 21
19417.393644467811
 31
0.0
  0
LINE
  5
18252
  8
0-6
  6
CONTINUOUS
 62
     6
 10
19487.852274301182
 20
19417.393644467811
 30
0.0
 11
19600.769274480321
 21
19533.846442092788
 31
0.0
  0
LINE
  5
18253
  8
0-6
  6
CONTINUOUS
 62
     6
 10
19600.769274480321
 20
19533.846442092788
 30
0.0
 11
19556.895952743162
 21
19564.17220535464
 31
0.0
  0
LINE
  5
18254
  8
0-6
  6
CONTINUOUS
 62
     6
 10
19585.08029824914
 20
16981.051217168599
 30
0.0
 11
19478.75227430118
 21
16858.55498542195
 31
0.0
  0
LINE
  5
18255
  8
0-6
  6
CONTINUOUS
 62
     6
 10
19478.75227430118
 20
16858.55498542195
 30
0.0
 11
19539.604393894431
 21
17008.916292097401
 31
0.0
  0
LINE
  5
18256
  8
0-6
  6
CONTINUOUS
 62
     6
 10
19539.604393894431
 20
17008.916292097401
 30
0.0
 11
19585.08029824914
 21
16981.051217168599
 31
0.0
  0
LINE
  5
18257
  8
0-6
  6
CONTINUOUS
 62
     6
 10
19585.08029824914
 20
14073.551653168601
 30
0.0
 11
19478.75227430118
 21
13951.055421421959
 31
0.0
  0
LINE
  5
18258
  8
0-6
  6
CONTINUOUS
 62
     6
 10
19478.75227430118
 20
13951.055421421959
 30
0.0
 11
19539.604393894431
 21
14101.416728097411
 31
0.0
  0
LINE
  5
18259
  8
0-6
  6
CONTINUOUS
 62
     6
 10
19539.604393894431
 20
14101.416728097411
 30
0.0
 11
19585.08029824914
 21
14073.551653168601
 31
0.0
  0
LINE
  5
1825A
  8
0-6
  6
CONTINUOUS
 62
     6
 10
19556.895952743162
 20
16565.23766048926
 30
0.0
 11
19487.852274301182
 21
16712.01622137607
 31
0.0
  0
LINE
  5
1825B
  8
0-6
  6
CONTINUOUS
 62
     6
 10
19487.852274301182
 20
16712.01622137607
 30
0.0
 11
19600.769274480321
 21
16595.5634237511
 31
0.0
  0
LINE
  5
1825C
  8
0-6
  6
CONTINUOUS
 62
     6
 10
19600.769274480321
 20
16595.5634237511
 30
0.0
 11
19556.895952743162
 21
16565.23766048926
 31
0.0
  0
LINE
  5
1825D
  8
0-6
  6
CONTINUOUS
 62
     6
 10
19556.895952743162
 20
13677.67686053513
 30
0.0
 11
19487.852274301182
 21
13824.45542142195
 31
0.0
  0
LINE
  5
1825E
  8
0-6
  6
CONTINUOUS
 62
     6
 10
19487.852274301182
 20
13824.45542142195
 30
0.0
 11
19600.769274480321
 21
13708.002623796971
 31
0.0
  0
LINE
  5
1825F
  8
0-6
  6
CONTINUOUS
 62
     6
 10
19600.769274480321
 20
13708.002623796971
 30
0.0
 11
19556.895952743162
 21
13677.67686053513
 31
0.0
  0
LINE
  5
18278
  8
SUNPOU
  6
CONTINUOUS
 62
     4
 10
24753.354253301171
 20
19486.455421421961
 30
0.0
 11
24753.354253301171
 21
20286.45634542195
 31
0.0
  0
LINE
  5
18279
  8
SUNPOU
  6
CONTINUOUS
 62
     4
 10
25511.354253301171
 20
19486.455421421961
 30
0.0
 11
25511.354253301171
 21
20286.45634542195
 31
0.0
  0
LINE
  5
1827A
  8
SUNPOU
  6
CONTINUOUS
 62
     4
 10
24753.354253301171
 20
20206.45634542195
 30
0.0
 11
25511.354253301171
 21
20206.45634542195
 31
0.0
  0
LINE
  5
1827B
  8
SUNPOU
  6
CONTINUOUS
 62
     4
 10
24052.354253301171
 20
19486.455421421961
 30
0.0
 11
24052.354253301171
 21
20286.45634542195
 31
0.0
  0
LINE
  5
1827C
  8
SUNPOU
  6
CONTINUOUS
 62
     4
 10
24753.354253301171
 20
19486.455421421961
 30
0.0
 11
24753.354253301171
 21
20286.45634542195
 31
0.0
  0
LINE
  5
1827D
  8
SUNPOU
  6
CONTINUOUS
 62
     4
 10
24052.354253301171
 20
20206.45634542195
 30
0.0
 11
24753.354253301171
 21
20206.45634542195
 31
0.0
  0
LINE
  5
1827E
  8
SUNPOU
  6
CONTINUOUS
 62
     4
 10
23351.354253301171
 20
19486.455421421961
 30
0.0
 11
23351.354253301171
 21
20286.45634542195
 31
0.0
  0
LINE
  5
1827F
  8
SUNPOU
  6
CONTINUOUS
 62
     4
 10
24052.354253301171
 20
19486.455421421961
 30
0.0
 11
24052.354253301171
 21
20286.45634542195
 31
0.0
  0
LINE
  5
18280
  8
SUNPOU
  6
CONTINUOUS
 62
     4
 10
23351.354253301171
 20
20206.45634542195
 30
0.0
 11
24052.354253301171
 21
20206.45634542195
 31
0.0
  0
LINE
  5
18281
  8
SUNPOU
  6
CONTINUOUS
 62
     4
 10
22242.85425330116
 20
19566.457928421951
 30
0.0
 11
22242.85425330116
 21
20286.45634542195
 31
0.0
  0
LINE
  5
18282
  8
SUNPOU
  6
CONTINUOUS
 62
     4
 10
22650.354253301171
 20
19486.455421421961
 30
0.0
 11
22650.354253301171
 21
20286.45634542195
 31
0.0
  0
LINE
  5
18283
  8
SUNPOU
  6
CONTINUOUS
 62
     4
 10
22242.85425330116
 20
20206.45634542195
 30
0.0
 11
22650.354253301171
 21
20206.45634542195
 31
0.0
  0
LINE
  5
18284
  8
SUNPOU
  6
CONTINUOUS
 62
     4
 10
22242.85425330116
 20
19566.457928421951
 30
0.0
 11
22242.85425330116
 21
20286.45634542195
 31
0.0
  0
LINE
  5
18285
  8
SUNPOU
  6
CONTINUOUS
 62
     4
 10
22200.35425330116
 20
19486.455421421961
 30
0.0
 11
22200.35425330116
 21
20286.45634542195
 31
0.0
  0
LINE
  5
18286
  8
SUNPOU
  6
CONTINUOUS
 62
     4
 10
22242.85425330116
 20
20206.45634542195
 30
0.0
 11
22482.85425330116
 21
20206.45634542195
 31
0.0
  0
LINE
  5
18287
  8
SUNPOU
  6
CONTINUOUS
 62
     4
 10
22200.35425330116
 20
20206.45634542195
 30
0.0
 11
21960.354253301171
 21
20206.45634542195
 31
0.0
  0
LINE
  5
18288
  8
SUNPOU
  6
CONTINUOUS
 62
     4
 10
22242.85425330116
 20
20206.45634542195
 30
0.0
 11
22200.35425330116
 21
20206.45634542195
 31
0.0
  0
LINE
  5
18296
  8
SUNPOU
  6
CONTINUOUS
 62
     4
 10
22242.852274301182
 20
20606.456345421939
 30
0.0
 11
19442.852274301182
 21
20606.456345421939
 31
0.0
  0
LINE
  5
18297
  8
SUNPOU
  6
CONTINUOUS
 62
     4
 10
25511.352274301182
 20
20606.456345421939
 30
0.0
 11
22242.852274301182
 21
20606.456345421939
 31
0.0
  0
LINE
  5
18298
  8
SUNPOU
  6
CONTINUOUS
 62
     4
 10
19442.852274301182
 20
19730.905195299281
 30
0.0
 11
19442.852274301182
 21
20286.45634542195
 31
0.0
  0
LINE
  5
18299
  8
SUNPOU
  6
CONTINUOUS
 62
     4
 10
19485.354517301181
 20
19569.805685421961
 30
0.0
 11
19485.354517301181
 21
20286.45634542195
 31
0.0
  0
LINE
  5
1829A
  8
SUNPOU
  6
CONTINUOUS
 62
     4
 10
19442.852274301182
 20
20206.45634542195
 30
0.0
 11
19202.852274301182
 21
20206.45634542195
 31
0.0
  0
LINE
  5
1829B
  8
SUNPOU
  6
CONTINUOUS
 62
     4
 10
19485.354517301181
 20
20206.45634542195
 30
0.0
 11
19725.354517301181
 21
20206.45634542195
 31
0.0
  0
LINE
  5
1829C
  8
SUNPOU
  6
CONTINUOUS
 62
     4
 10
19442.852274301182
 20
20206.45634542195
 30
0.0
 11
19485.354517301181
 21
20206.45634542195
 31
0.0
  0
LINE
  5
1829D
  8
SUNPOU
  6
CONTINUOUS
 62
     4
 10
19442.852274301182
 20
19730.905195299281
 30
0.0
 11
19442.852274301182
 21
20286.45634542195
 31
0.0
  0
LINE
  5
1829E
  8
SUNPOU
  6
CONTINUOUS
 62
     4
 10
19400.353989301191
 20
19566.457928421951
 30
0.0
 11
19400.353989301191
 21
20286.45634542195
 31
0.0
  0
LINE
  5
1829F
  8
SUNPOU
  6
CONTINUOUS
 62
     4
 10
19442.852274301182
 20
20206.45634542195
 30
0.0
 11
19682.852274301182
 21
20206.45634542195
 31
0.0
  0
LINE
  5
182A0
  8
SUNPOU
  6
CONTINUOUS
 62
     4
 10
19400.353989301191
 20
20206.45634542195
 30
0.0
 11
19160.353989301191
 21
20206.45634542195
 31
0.0
  0
LINE
  5
182A1
  8
SUNPOU
  6
CONTINUOUS
 62
     4
 10
19442.852274301182
 20
20206.45634542195
 30
0.0
 11
19400.353989301191
 21
20206.45634542195
 31
0.0
  0
LINE
  5
182A2
  8
SUNPOU
  6
CONTINUOUS
 62
     4
 10
19058.247438349241
 20
16796.455421421961
 30
0.0
 11
18145.008649932559
 21
16796.455421421961
 31
0.0
  0
LINE
  5
182A3
  8
SUNPOU
  6
CONTINUOUS
 62
     4
 10
19058.247438349241
 20
19363.955421421961
 30
0.0
 11
18145.008649932559
 21
19363.955421421961
 31
0.0
  0
LINE
  5
182A4
  8
SUNPOU
  6
CONTINUOUS
 62
     4
 10
18225.008649932552
 20
16796.455421421961
 30
0.0
 11
18225.008649932552
 21
19363.955421421961
 31
0.0
  0
LINE
  5
182A5
  8
SUNPOU
  6
CONTINUOUS
 62
     4
 10
19058.247438349241
 20
13878.455421421961
 30
0.0
 11
18145.008649932559
 21
13878.455421421961
 31
0.0
  0
LINE
  5
182A6
  8
SUNPOU
  6
CONTINUOUS
 62
     4
 10
19058.247438349241
 20
16796.455421421961
 30
0.0
 11
18145.008649932559
 21
16796.455421421961
 31
0.0
  0
LINE
  5
182A7
  8
SUNPOU
  6
CONTINUOUS
 62
     4
 10
18225.008649932552
 20
13878.455421421961
 30
0.0
 11
18225.008649932552
 21
16796.455421421961
 31
0.0
  0
ARC
  5
182BF
  8
1-前柱P
 10
19433.25227430118
 20
13946.85542142196
 30
0.0
 40
1.0
 50
0.0
 51
90.0
  0
LINE
  5
182C0
  8
1-前柱P
 10
19434.25227430118
 20
13946.85542142196
 30
0.0
 11
19434.25227430118
 21
13945.25542142196
 31
0.0
  0
LINE
  5
182C1
  8
1-前柱P
 10
19434.25227430118
 20
13945.25542142196
 30
0.0
 11
19445.45227430118
 21
13945.25542142196
 31
0.0
  0
LINE
  5
182C2
  8
1-前柱P
 10
19445.45227430118
 20
13945.25542142196
 30
0.0
 11
19445.452274301191
 21
13946.85542142196
 31
0.0
  0
ARC
  5
182C3
  8
1-前柱P
 10
19446.452274301191
 20
13946.85542142196
 30
0.0
 40
1.0
 50
90.0
 51
180.0
  0
ARC
  5
182C4
  8
1-中柱P
 10
19449.452274301191
 20
16864.755421421949
 30
0.0
 40
1.0
 50
90.0
 51
180.0
  0
LINE
  5
182C5
  8
1-中柱P
 10
19448.452274301191
 20
16864.755421421949
 30
0.0
 11
19448.452274301191
 21
16863.155421421961
 31
0.0
  0
LINE
  5
182C6
  8
1-中柱P
 10
19448.452274301191
 20
16863.155421421961
 30
0.0
 11
19437.25227430119
 21
16863.155421421961
 31
0.0
  0
LINE
  5
182C7
  8
1-中柱P
 10
19437.25227430119
 20
16863.155421421961
 30
0.0
 11
19437.25227430119
 21
16864.755421421949
 31
0.0
  0
ARC
  5
182C8
  8
1-中柱P
 10
19436.25227430119
 20
16864.755421421949
 30
0.0
 40
1.0
 50
0.0
 51
90.0
  0
ARC
  5
182C9
  8
1-後柱P
 10
19452.45227430118
 20
19295.90542142195
 30
0.0
 40
1.0
 50
180.0
 51
270.0
  0
LINE
  5
182CA
  8
1-後柱P
 10
19451.452274301151
 20
19295.90542142195
 30
0.0
 11
19451.452274301151
 21
19297.50542142196
 31
0.0
  0
LINE
  5
182CB
  8
1-後柱P
 10
19451.452274301151
 20
19297.50542142196
 30
0.0
 11
19440.25227430118
 21
19297.50542142196
 31
0.0
  0
LINE
  5
182CC
  8
1-後柱P
 10
19440.25227430118
 20
19297.50542142196
 30
0.0
 11
19440.25227430118
 21
19295.90542142195
 31
0.0
  0
ARC
  5
182CD
  8
1-後柱P
 10
19439.25227430118
 20
19295.90542142195
 30
0.0
 40
1.0
 50
270.0
 51
0.0
  0
LINE
  5
182CE
  8
SUNPOU
  6
CONTINUOUS
 62
     4
 10
25596.8522743012
 20
8715.6575694219555
 30
0.0
 11
25596.8522743012
 21
9915.1021434219656
 31
0.0
  0
LINE
  5
182CF
  8
SUNPOU
  6
CONTINUOUS
 62
     4
 10
19357.352274301182
 20
8715.6575694219555
 30
0.0
 11
19357.352274301182
 21
9915.1021434219656
 31
0.0
  0
LINE
  5
182D0
  8
SUNPOU
  6
CONTINUOUS
 62
     4
 10
25593.8522743012
 20
9835.1021434219638
 30
0.0
 11
19360.352274301182
 21
9835.1021434219638
 31
0.0
  0
LINE
  5
182D1
  8
SUNPOU
  6
CONTINUOUS
 62
     4
 10
19400.352274301182
 20
8715.6575694219555
 30
0.0
 11
19400.352274301182
 21
9515.1592194219611
 31
0.0
  0
LINE
  5
182D2
  8
SUNPOU
  6
CONTINUOUS
 62
     4
 10
19357.352274301182
 20
8715.6575694219555
 30
0.0
 11
19357.352274301182
 21
9515.1592194219611
 31
0.0
  0
LINE
  5
182D3
  8
SUNPOU
  6
CONTINUOUS
 62
     4
 10
19400.352274301182
 20
9435.1592194219593
 30
0.0
 11
19640.352274301182
 21
9435.1592194219593
 31
0.0
  0
LINE
  5
182D4
  8
SUNPOU
  6
CONTINUOUS
 62
     4
 10
19360.352274301182
 20
9435.1592194219593
 30
0.0
 11
19120.352274301182
 21
9435.1592194219593
 31
0.0
  0
LINE
  5
182D5
  8
SUNPOU
  6
CONTINUOUS
 62
     4
 10
19400.352274301182
 20
9435.1592194219593
 30
0.0
 11
19360.352274301182
 21
9435.1592194219593
 31
0.0
  0
LINE
  5
182D6
  8
SUNPOU
  6
CONTINUOUS
 62
     4
 10
25553.8522743012
 20
8585.657635421956
 30
0.0
 11
25553.8522743012
 21
9515.1592194219611
 31
0.0
  0
LINE
  5
182D7
  8
SUNPOU
  6
CONTINUOUS
 62
     4
 10
25596.8522743012
 20
8715.6575694219555
 30
0.0
 11
25596.8522743012
 21
9515.1592194219611
 31
0.0
  0
LINE
  5
182D8
  8
SUNPOU
  6
CONTINUOUS
 62
     4
 10
25553.8522743012
 20
9435.1592194219593
 30
0.0
 11
25313.8522743012
 21
9435.1592194219593
 31
0.0
  0
LINE
  5
182D9
  8
SUNPOU
  6
CONTINUOUS
 62
     4
 10
25593.8522743012
 20
9435.1592194219593
 30
0.0
 11
25833.8522743012
 21
9435.1592194219593
 31
0.0
  0
LINE
  5
182DA
  8
SUNPOU
  6
CONTINUOUS
 62
     4
 10
25553.8522743012
 20
9435.1592194219593
 30
0.0
 11
25593.8522743012
 21
9435.1592194219593
 31
0.0
  0
LINE
  5
182DB
  8
SUNPOU
  6
CONTINUOUS
 62
     4
 10
22200.352274301182
 20
8585.657635421956
 30
0.0
 11
22200.352274301182
 21
9515.1592194219611
 31
0.0
  0
LINE
  5
182DC
  8
SUNPOU
  6
CONTINUOUS
 62
     4
 10
25553.8522743012
 20
8585.657635421956
 30
0.0
 11
25553.8522743012
 21
9515.1592194219611
 31
0.0
  0
LINE
  5
182DD
  8
SUNPOU
  6
CONTINUOUS
 62
     4
 10
22200.352274301182
 20
9435.1592194219593
 30
0.0
 11
25553.8522743012
 21
9435.1592194219593
 31
0.0
  0
LINE
  5
182DE
  8
SUNPOU
  6
CONTINUOUS
 62
     4
 10
25641.354913301191
 20
6287.1575434219621
 30
0.0
 11
27084.45452500592
 21
6287.1575434219612
 31
0.0
  0
LINE
  5
182DF
  8
SUNPOU
  6
CONTINUOUS
 62
     4
 10
25673.8522743012
 20
8635.6575694219555
 30
0.0
 11
27084.45452500592
 21
8635.6575694219555
 31
0.0
  0
LINE
  5
182E0
  8
SUNPOU
  6
CONTINUOUS
 62
     4
 10
27004.45452500592
 20
6287.1575434219612
 30
0.0
 11
27004.45452500592
 21
8635.6575694219555
 31
0.0
  0
LINE
  5
182E1
  8
SUNPOU
  6
CONTINUOUS
 62
     4
 10
25641.354913301191
 20
6287.1575434219621
 30
0.0
 11
26441.355573301182
 21
6287.1575434219621
 31
0.0
  0
LINE
  5
182E2
  8
SUNPOU
  6
CONTINUOUS
 62
     4
 10
25548.855969301181
 20
8178.6575434219612
 30
0.0
 11
26441.355573301182
 21
8178.6575434219612
 31
0.0
  0
LINE
  5
182E3
  8
SUNPOU
  6
CONTINUOUS
 62
     4
 10
26361.355573301182
 20
6287.1575434219621
 30
0.0
 11
26361.355573301182
 21
8178.6575434219612
 31
0.0
  0
LINE
  5
182E4
  8
SUNPOU
  6
CONTINUOUS
 62
     4
 10
22197.352274301182
 20
6207.1575434219603
 30
0.0
 11
22197.352274301182
 21
5307.1575434219612
 31
0.0
  0
LINE
  5
182E5
  8
SUNPOU
  6
CONTINUOUS
 62
     4
 10
19485.352274301182
 20
6107.1577084219589
 30
0.0
 11
19485.352274301182
 21
5307.1575434219612
 31
0.0
  0
LINE
  5
182E6
  8
SUNPOU
  6
CONTINUOUS
 62
     4
 10
22197.352274301182
 20
5387.1575434219612
 30
0.0
 11
19485.352274301182
 21
5387.1575434219612
 31
0.0
  0
LINE
  5
182E7
  8
SUNPOU
  6
CONTINUOUS
 62
     4
 10
25553.812321353649
 20
6207.1575434219603
 30
0.0
 11
25553.812321353649
 21
4507.1578734220147
 31
0.0
  0
LINE
  5
182E8
  8
SUNPOU
  6
CONTINUOUS
 62
     4
 10
19400.352274301182
 20
6107.1577084219589
 30
0.0
 11
19400.352274301182
 21
4507.1578734220147
 31
0.0
  0
LINE
  5
182E9
  8
SUNPOU
  6
CONTINUOUS
 62
     4
 10
25553.812321353649
 20
4587.1578734220147
 30
0.0
 11
19400.352274301182
 21
4587.1578734220147
 31
0.0
  0
LINE
  5
182EA
  8
SUNPOU
  6
CONTINUOUS
 62
     4
 10
25511.3522743012
 20
5844.5052854219593
 30
0.0
 11
25511.3522743012
 21
4907.1577084219589
 31
0.0
  0
LINE
  5
182EB
  8
SUNPOU
  6
CONTINUOUS
 62
     4
 10
25553.812321353649
 20
6207.1575434219603
 30
0.0
 11
25553.812321353649
 21
4907.1577084219589
 31
0.0
  0
LINE
  5
182EC
  8
SUNPOU
  6
CONTINUOUS
 62
     4
 10
25511.3522743012
 20
4987.1577084219589
 30
0.0
 11
25271.352274301189
 21
4987.1577084219589
 31
0.0
  0
LINE
  5
182ED
  8
SUNPOU
  6
CONTINUOUS
 62
     4
 10
25553.812321353649
 20
4987.1577084219589
 30
0.0
 11
25793.812321353649
 21
4987.1577084219589
 31
0.0
  0
LINE
  5
182EE
  8
SUNPOU
  6
CONTINUOUS
 62
     4
 10
25511.3522743012
 20
4987.1577084219589
 30
0.0
 11
25553.812321353649
 21
4987.1577084219589
 31
0.0
  0
LINE
  5
182EF
  8
SUNPOU
  6
CONTINUOUS
 62
     4
 10
22242.852274301182
 20
5844.5052854219593
 30
0.0
 11
22242.852274301182
 21
4907.1577084219589
 31
0.0
  0
LINE
  5
182F0
  8
SUNPOU
  6
CONTINUOUS
 62
     4
 10
25511.3522743012
 20
5844.5052854219593
 30
0.0
 11
25511.3522743012
 21
4907.1577084219589
 31
0.0
  0
LINE
  5
182F1
  8
SUNPOU
  6
CONTINUOUS
 62
     4
 10
22242.852274301182
 20
4987.1577084219589
 30
0.0
 11
25511.3522743012
 21
4987.1577084219589
 31
0.0
  0
LINE
  5
182F2
  8
SUNPOU
  6
CONTINUOUS
 62
     4
 10
25417.3522743012
 20
6107.1577084219589
 30
0.0
 11
25417.3522743012
 21
5307.1575434219612
 31
0.0
  0
LINE
  5
182F3
  8
SUNPOU
  6
CONTINUOUS
 62
     4
 10
22336.852274301189
 20
6107.1577084219589
 30
0.0
 11
22336.852274301189
 21
5307.1575434219612
 31
0.0
  0
LINE
  5
182F4
  8
SUNPOU
  6
CONTINUOUS
 62
     4
 10
25417.3522743012
 20
5387.1575434219612
 30
0.0
 11
22336.852274301189
 21
5387.1575434219612
 31
0.0
  0
LINE
  5
182F5
  8
SUNPOU
  6
CONTINUOUS
 62
     4
 10
19442.852274301182
 20
5844.5052854219593
 30
0.0
 11
19442.852274301182
 21
4907.1577084219589
 31
0.0
  0
LINE
  5
182F6
  8
SUNPOU
  6
CONTINUOUS
 62
     4
 10
19400.352274301182
 20
6107.1577084219589
 30
0.0
 11
19400.352274301182
 21
4907.1577084219589
 31
0.0
  0
LINE
  5
182F7
  8
SUNPOU
  6
CONTINUOUS
 62
     4
 10
19442.852274301182
 20
4987.1577084219589
 30
0.0
 11
19682.852274301182
 21
4987.1577084219589
 31
0.0
  0
LINE
  5
182F8
  8
SUNPOU
  6
CONTINUOUS
 62
     4
 10
19400.352274301182
 20
4987.1577084219589
 30
0.0
 11
19160.352274301182
 21
4987.1577084219589
 31
0.0
  0
LINE
  5
182F9
  8
SUNPOU
  6
CONTINUOUS
 62
     4
 10
19442.852274301182
 20
4987.1577084219589
 30
0.0
 11
19400.352274301182
 21
4987.1577084219589
 31
0.0
  0
LINE
  5
182FA
  8
SUNPOU
  6
CONTINUOUS
 62
     4
 10
22242.852274301182
 20
5844.5052854219593
 30
0.0
 11
22242.852274301182
 21
4907.1577084219589
 31
0.0
  0
LINE
  5
182FB
  8
SUNPOU
  6
CONTINUOUS
 62
     4
 10
19442.852274301182
 20
5844.5052854219593
 30
0.0
 11
19442.852274301182
 21
4907.1577084219589
 31
0.0
  0
LINE
  5
182FC
  8
SUNPOU
  6
CONTINUOUS
 62
     4
 10
22242.852274301182
 20
4987.1577084219589
 30
0.0
 11
19442.852274301182
 21
4987.1577084219589
 31
0.0
  0
LINE
  5
182FD
  8
SUNPOU
  6
CONTINUOUS
 62
     4
 10
22200.352274301182
 20
8585.657635421956
 30
0.0
 11
22200.352274301182
 21
9515.1592194219611
 31
0.0
  0
LINE
  5
182FE
  8
SUNPOU
  6
CONTINUOUS
 62
     4
 10
19400.352274301182
 20
8715.6575694219555
 30
0.0
 11
19400.352274301182
 21
9515.1592194219611
 31
0.0
  0
LINE
  5
182FF
  8
SUNPOU
  6
CONTINUOUS
 62
     4
 10
22200.352274301182
 20
9435.1592194219593
 30
0.0
 11
19400.352274301182
 21
9435.1592194219593
 31
0.0
  0
LINE
  5
18300
  8
SUNPOU
  6
CONTINUOUS
 62
     4
 10
19320.352274301182
 20
6287.9718314219654
 30
0.0
 11
18110.529876006811
 21
6287.9718314219663
 31
0.0
  0
LINE
  5
18301
  8
SUNPOU
  6
CONTINUOUS
 62
     4
 10
19280.352274301182
 20
8307.971831421959
 30
0.0
 11
18110.529876006811
 21
8307.971831421959
 31
0.0
  0
LINE
  5
18302
  8
SUNPOU
  6
CONTINUOUS
 62
     4
 10
18190.529876006811
 20
6287.9718314219663
 30
0.0
 11
18190.529876006811
 21
8307.971831421959
 31
0.0
  0
LINE
  5
18303
  8
SUNPOU
  6
CONTINUOUS
 62
     4
 10
13451.8888954096
 20
8524.1575434219612
 30
0.0
 11
13451.8888954096
 21
9915.1575694219573
 31
0.0
  0
LINE
  5
18304
  8
SUNPOU
  6
CONTINUOUS
 62
     4
 10
7551.3888954096028
 20
8656.0473668343893
 30
0.0
 11
7551.3888954096028
 21
9915.1575694219573
 31
0.0
  0
LINE
  5
18305
  8
SUNPOU
  6
CONTINUOUS
 62
     4
 10
13451.8888954096
 20
9835.1575694219573
 30
0.0
 11
7551.3888954096028
 21
9835.1575694219573
 31
0.0
  0
LINE
  5
18306
  8
SUNPOU
  6
CONTINUOUS
 62
     4
 10
7701.3888954095974
 20
8582.0676074219573
 30
0.0
 11
7701.3888954095974
 21
9515.1592194219611
 31
0.0
  0
LINE
  5
18307
  8
SUNPOU
  6
CONTINUOUS
 62
     4
 10
7551.3888954096028
 20
8656.0473668343893
 30
0.0
 11
7551.3888954096028
 21
9515.1592194219611
 31
0.0
  0
LINE
  5
18308
  8
SUNPOU
  6
CONTINUOUS
 62
     4
 10
7701.3888954095974
 20
9435.1592194219593
 30
0.0
 11
7941.3888954095983
 21
9435.1592194219593
 31
0.0
  0
LINE
  5
18309
  8
SUNPOU
  6
CONTINUOUS
 62
     4
 10
7551.3888954096028
 20
9435.1592194219593
 30
0.0
 11
7311.3888954096064
 21
9435.1592194219593
 31
0.0
  0
LINE
  5
1830A
  8
SUNPOU
  6
CONTINUOUS
 62
     4
 10
7701.3888954095974
 20
9435.1592194219593
 30
0.0
 11
7551.3888954096028
 21
9435.1592194219593
 31
0.0
  0
LINE
  5
1830B
  8
SUNPOU
  6
CONTINUOUS
 62
     4
 10
13271.8888954096
 20
8394.3433191057684
 30
0.0
 11
13271.8888954096
 21
9515.1592194219611
 31
0.0
  0
LINE
  5
1830C
  8
SUNPOU
  6
CONTINUOUS
 62
     4
 10
7701.3888954095974
 20
8582.0676074219573
 30
0.0
 11
7701.3888954095974
 21
9515.1592194219611
 31
0.0
  0
LINE
  5
1830D
  8
SUNPOU
  6
CONTINUOUS
 62
     4
 10
13271.8888954096
 20
9435.1592194219593
 30
0.0
 11
7701.3888954095974
 21
9435.1592194219593
 31
0.0
  0
LINE
  5
1830E
  8
SUNPOU
  6
CONTINUOUS
 62
     4
 10
13451.8888954096
 20
8524.1575434219612
 30
0.0
 11
13451.8888954096
 21
9515.1592194219611
 31
0.0
  0
LINE
  5
1830F
  8
SUNPOU
  6
CONTINUOUS
 62
     4
 10
13271.8888954096
 20
8394.3433191057684
 30
0.0
 11
13271.8888954096
 21
9515.1592194219611
 31
0.0
  0
LINE
  5
18310
  8
SUNPOU
  6
CONTINUOUS
 62
     4
 10
13451.8888954096
 20
9435.1592194219593
 30
0.0
 11
13271.8888954096
 21
9435.1592194219593
 31
0.0
  0
LINE
  5
18311
  8
SUNPOU
  6
CONTINUOUS
 62
     4
 10
7608.8888954096028
 20
6287.1575434219621
 30
0.0
 11
6531.3884994096006
 21
6287.1575434219621
 31
0.0
  0
LINE
  5
18312
  8
SUNPOU
  6
CONTINUOUS
 62
     4
 10
7516.5816358102247
 20
8635.6575434219612
 30
0.0
 11
6531.3884994096006
 21
8635.6575434219612
 31
0.0
  0
LINE
  5
18313
  8
SUNPOU
  6
CONTINUOUS
 62
     4
 10
6611.3884994096006
 20
6287.1575434219621
 30
0.0
 11
6611.3884994096006
 21
8635.6575434219612
 31
0.0
  0
LINE
  5
18314
  8
SUNPOU
  6
CONTINUOUS
 62
     4
 10
13359.3888954096
 20
6287.1575434219621
 30
0.0
 11
14441.88929140959
 21
6287.1575434219612
 31
0.0
  0
LINE
  5
18315
  8
SUNPOU
  6
CONTINUOUS
 62
     4
 10
13531.8888954096
 20
8443.1575434219612
 30
0.0
 11
14441.88929140959
 21
8443.1575434219612
 31
0.0
  0
LINE
  5
18316
  8
SUNPOU
  6
CONTINUOUS
 62
     4
 10
14361.88929140959
 20
6287.1575434219612
 30
0.0
 11
14361.88929140959
 21
8443.1575434219612
 31
0.0
  0
LINE
  5
18317
  8
SUNPOU
  6
CONTINUOUS
 62
     4
 10
13271.8888954096
 20
6207.1575434219603
 30
0.0
 11
13271.8888954096
 21
4507.1578734219556
 31
0.0
  0
LINE
  5
18318
  8
SUNPOU
  6
CONTINUOUS
 62
     4
 10
7701.3888954095974
 20
6207.1575434219603
 30
0.0
 11
7701.3888954095974
 21
4507.1578734219556
 31
0.0
  0
LINE
  5
18319
  8
SUNPOU
  6
CONTINUOUS
 62
     4
 10
13271.8888954096
 20
4587.1578734219574
 30
0.0
 11
7701.3888954095974
 21
4587.1578734219574
 31
0.0
  0
LINE
  5
1831A
  8
SUNPOU
  6
CONTINUOUS
 62
     4
 10
7743.8888954096037
 20
5844.5052854219593
 30
0.0
 11
7743.8888954096037
 21
4907.1577084219589
 31
0.0
  0
LINE
  5
1831B
  8
SUNPOU
  6
CONTINUOUS
 62
     4
 10
7701.3888954095974
 20
6207.1575434219603
 30
0.0
 11
7701.3888954095974
 21
4907.1577084219589
 31
0.0
  0
LINE
  5
1831C
  8
SUNPOU
  6
CONTINUOUS
 62
     4
 10
7743.8888954096037
 20
4987.1577084219589
 30
0.0
 11
7983.8888954096028
 21
4987.1577084219589
 31
0.0
  0
LINE
  5
1831D
  8
SUNPOU
  6
CONTINUOUS
 62
     4
 10
7701.3888954095974
 20
4987.1577084219589
 30
0.0
 11
7461.3888954095974
 21
4987.1577084219589
 31
0.0
  0
LINE
  5
1831E
  8
SUNPOU
  6
CONTINUOUS
 62
     4
 10
7743.8888954096037
 20
4987.1577084219589
 30
0.0
 11
7701.3888954095974
 21
4987.1577084219589
 31
0.0
  0
LINE
  5
1831F
  8
SUNPOU
  6
CONTINUOUS
 62
     4
 10
13229.3888954096
 20
5844.5052854219593
 30
0.0
 11
13229.3888954096
 21
4907.1577084219589
 31
0.0
  0
LINE
  5
18320
  8
SUNPOU
  6
CONTINUOUS
 62
     4
 10
13271.8888954096
 20
6207.1575434219603
 30
0.0
 11
13271.8888954096
 21
4907.1577084219589
 31
0.0
  0
LINE
  5
18321
  8
SUNPOU
  6
CONTINUOUS
 62
     4
 10
13229.3888954096
 20
4987.1577084219589
 30
0.0
 11
12989.3888954096
 21
4987.1577084219589
 31
0.0
  0
LINE
  5
18322
  8
SUNPOU
  6
CONTINUOUS
 62
     4
 10
13271.8888954096
 20
4987.1577084219589
 30
0.0
 11
13511.8888954096
 21
4987.1577084219589
 31
0.0
  0
LINE
  5
18323
  8
SUNPOU
  6
CONTINUOUS
 62
     4
 10
13229.3888954096
 20
4987.1577084219589
 30
0.0
 11
13271.8888954096
 21
4987.1577084219589
 31
0.0
  0
LINE
  5
18324
  8
SUNPOU
  6
CONTINUOUS
 62
     4
 10
10661.8888954096
 20
5844.5052854219593
 30
0.0
 11
10661.8888954096
 21
4907.1577084219589
 31
0.0
  0
LINE
  5
18325
  8
SUNPOU
  6
CONTINUOUS
 62
     4
 10
13229.3888954096
 20
5844.5052854219593
 30
0.0
 11
13229.3888954096
 21
4907.1577084219589
 31
0.0
  0
LINE
  5
18326
  8
SUNPOU
  6
CONTINUOUS
 62
     4
 10
10661.8888954096
 20
4987.1577084219589
 30
0.0
 11
13229.3888954096
 21
4987.1577084219589
 31
0.0
  0
LINE
  5
18327
  8
SUNPOU
  6
CONTINUOUS
 62
     4
 10
10661.8888954096
 20
5844.5052854219593
 30
0.0
 11
10661.8888954096
 21
4907.1577084219589
 31
0.0
  0
LINE
  5
18328
  8
SUNPOU
  6
CONTINUOUS
 62
     4
 10
7743.8888954096037
 20
5844.5052854219593
 30
0.0
 11
7743.8888954096037
 21
4907.1577084219589
 31
0.0
  0
LINE
  5
18329
  8
SUNPOU
  6
CONTINUOUS
 62
     4
 10
10661.8888954096
 20
4987.1577084219589
 30
0.0
 11
7743.8888954096037
 21
4987.1577084219589
 31
0.0
  0
TEXT
  5
1832A
  8
0
  6
CONTINUOUS
 62
     7
 10
8936.2222287429377
 20
5067.1577084219589
 30
0.0
 40
160.0
  1
2918
  0
TEXT
  5
1832B
  8
0
  6
CONTINUOUS
 62
     7
 10
11545.6388954096
 20
5067.1577084219589
 30
0.0
 40
160.0
  1
2567.5
  0
TEXT
  5
1832C
  8
0
  6
CONTINUOUS
 62
     7
 10
13373.87850940958
 20
5068.1482264219567
 30
0.0
 40
160.0
  1
42.5
  0
TEXT
  5
1832D
  8
0
  6
CONTINUOUS
 62
     7
 10
7101.3872454095999
 20
5067.1574774219607
 30
0.0
 40
160.0
  1
42.5
  0
TEXT
  5
1832E
  8
0
  6
CONTINUOUS
 62
     7
 10
10099.97222874293
 20
4667.1578734219556
 30
0.0
 40
160.0
  1
5570.5
  0
TEXT
  5
1832F
  8
0
  6
CONTINUOUS
 62
     7
 10
14281.88929140959
 20
6586.4908767552979
 30
0.0
 40
160.0
  1
2156（2396）
 50
90.0
  0
TEXT
  5
18330
  8
0
  6
CONTINUOUS
 62
     7
 10
6531.3884994095997
 20
6442.7408767552943
 30
0.0
 40
160.0
  1
2348.5（2588.5）
 50
90.0
  0
TEXT
  5
18331
  8
0
  6
CONTINUOUS
 62
     7
 10
13559.56404387803
 20
9515.1592194219611
 30
0.0
 40
160.0
  1
180
  0
TEXT
  5
18332
  8
0
  6
CONTINUOUS
 62
     7
 10
10099.97222874293
 20
9515.1592194219611
 30
0.0
 40
160.0
  1
5570.5
  0
TEXT
  5
18333
  8
0
  6
CONTINUOUS
 62
     7
 10
7138.0555620762707
 20
9515.1592194219611
 30
0.0
 40
160.0
  1
150
  0
TEXT
  5
18334
  8
0
  6
CONTINUOUS
 62
     7
 10
10128.30556207627
 20
9915.1575694219573
 30
0.0
 40
160.0
  1
5900.5
  0
TEXT
  5
18335
  8
0
  6
CONTINUOUS
 62
     7
 10
18110.529876006811
 20
6634.9718314219663
 30
0.0
 40
160.0
  1
有効高サ2020
 50
90.0
  0
TEXT
  5
18336
  8
0
  6
CONTINUOUS
 62
     7
 10
20533.68560763451
 20
9515.1592194219611
 30
0.0
 40
160.0
  1
2800
  0
TEXT
  5
18337
  8
0
  6
CONTINUOUS
 62
     7
 10
20576.18560763451
 20
5067.1577084219589
 30
0.0
 40
160.0
  1
2800
  0
TEXT
  5
18338
  8
0
  6
CONTINUOUS
 62
     7
 10
18800.351614301198
 20
5067.1574774219607
 30
0.0
 40
160.0
  1
42.5
  0
TEXT
  5
18339
  8
0
  6
CONTINUOUS
 62
     7
 10
23023.768940967871
 20
5467.1575434219612
 30
0.0
 40
160.0
  1
有効開口巾3080.5
  0
TEXT
  5
1833A
  8
0
  6
CONTINUOUS
 62
     7
 10
23477.102274301182
 20
5067.1577084219589
 30
0.0
 40
160.0
  1
3268.5
  0
TEXT
  5
1833B
  8
0
  6
CONTINUOUS
 62
     7
 10
25653.6753053012
 20
5074.7048864219623
 30
0.0
 40
160.0
  1
42.5
  0
TEXT
  5
1833C
  8
0
  6
CONTINUOUS
 62
     7
 10
22103.748964494102
 20
4667.1578734220147
 30
0.0
 40
160.0
  1
6153.5
  0
TEXT
  5
1833D
  8
0
  6
CONTINUOUS
 62
     7
 10
20094.68560763451
 20
5467.1575434219612
 30
0.0
 40
160.0
  1
有効開口巾2712
  0
TEXT
  5
1833E
  8
0
  6
CONTINUOUS
 62
     7
 10
26281.355573301182
 20
6310.240876755297
 30
0.0
 40
160.0
  1
有効開口高サ1891.5
 50
90.0
  0
TEXT
  5
1833F
  8
0
  6
CONTINUOUS
 62
     7
 10
26924.45452500592
 20
6442.740889755295
 30
0.0
 40
160.0
  1
2348.5（2588.5）
 50
90.0
  0
TEXT
  5
18340
  8
0
  6
CONTINUOUS
 62
     7
 10
23477.102274301182
 20
9515.1592194219611
 30
0.0
 40
160.0
  1
3353.5
  0
TEXT
  5
18341
  8
0
  6
CONTINUOUS
 62
     7
 10
25683.660260301189
 20
9515.1584934219627
 30
0.0
 40
160.0
  1
43
  0
TEXT
  5
18342
  8
0
  6
CONTINUOUS
 62
     7
 10
18982.88645430118
 20
9515.1584934219627
 30
0.0
 40
160.0
  1
43
  0
TEXT
  5
18343
  8
0
  6
CONTINUOUS
 62
     7
 10
22077.1022743012
 20
9915.1021434219656
 30
0.0
 40
160.0
  1
6239.5
  0
TEXT
  5
18349
  8
0
  6
CONTINUOUS
 62
     7
 10
18145.008649932541
 20
15070.7887547553
 30
0.0
 40
160.0
  1
2918
 50
90.0
  0
TEXT
  5
1834A
  8
0
  6
CONTINUOUS
 62
     7
 10
18145.008649932541
 20
17680.205421421961
 30
0.0
 40
160.0
  1
2567.5
 50
90.0
  0
TEXT
  5
1834B
  8
0
  6
CONTINUOUS
 62
     7
 10
18821.9303463012
 20
20286.454629421962
 30
0.0
 40
160.0
  1
42.5
  0
TEXT
  5
1834C
  8
0
  6
CONTINUOUS
 62
     7
 10
19500.026313301161
 20
20305.798485421961
 30
0.0
 40
160.0
  1
42.5
  0
TEXT
  5
1834D
  8
0
  6
CONTINUOUS
 62
     7
 10
23477.102274301182
 20
20686.456345421939
 30
0.0
 40
160.0
  1
3268.5
  0
TEXT
  5
1834E
  8
0
  6
CONTINUOUS
 62
     7
 10
20576.18560763451
 20
20686.456345421939
 30
0.0
 40
160.0
  1
2800
  0
TEXT
  5
18352
  8
0
  6
CONTINUOUS
 62
     7
 10
21650.730461180839
 20
20305.798485421961
 30
0.0
 40
160.0
  1
42.5
  0
TEXT
  5
18353
  8
0
  6
CONTINUOUS
 62
     7
 10
22318.046696377442
 20
20299.064190218141
 30
0.0
 40
160.0
  1
407.5
  0
TEXT
  5
18354
  8
0
  6
CONTINUOUS
 62
     7
 10
23524.51855796784
 20
20289.129578835102
 30
0.0
 40
160.0
  1
701
  0
TEXT
  5
18355
  8
0
  6
CONTINUOUS
 62
     7
 10
24229.52091996785
 20
20286.45634542195
 30
0.0
 40
160.0
  1
701
  0
TEXT
  5
18356
  8
0
  6
CONTINUOUS
 62
     7
 10
24919.020919967839
 20
20286.45634542195
 30
0.0
 40
160.0
  1
758
  0
TEXT
  5
1835F
  8
0
  6
CONTINUOUS
 62
     7
 10
25652.276181301149
 20
20286.45634542195
 30
0.0
 40
160.0
  1
42.5
  0
TEXT
  5
18360
  8
0
  6
CONTINUOUS
 62
     7
 10
9791.4702222551914
 20
12475.95535542194
 30
0.0
 40
160.0
  1
ケラバ外寸6239.5
  0
TEXT
  5
18361
  8
0
  6
CONTINUOUS
 62
     7
 10
13795.53403292184
 20
20286.454629421962
 30
0.0
 40
160.0
  1
85.5
  0
TEXT
  5
18362
  8
0
  6
CONTINUOUS
 62
     7
 10
11666.136888921859
 20
20286.45634542195
 30
0.0
 40
160.0
  1
3268.5
  0
TEXT
  5
18363
  8
0
  6
CONTINUOUS
 62
     7
 10
8765.2202222551932
 20
20286.45634542195
 30
0.0
 40
160.0
  1
2800
  0
TEXT
  5
18364
  8
0
  6
CONTINUOUS
 62
     7
 10
7005.5391009218429
 20
20286.454629421962
 30
0.0
 40
160.0
  1
85.5
  0
TEXT
  5
18365
  8
0
  6
CONTINUOUS
 62
     7
 10
14165.209902602781
 20
19757.884150088601
 30
0.0
 40
160.0
  1
10
 50
90.0
  0
TEXT
  5
18366
  8
0
  6
CONTINUOUS
 62
     7
 10
14549.88666492184
 20
19664.93694381119
 30
0.0
 40
160.0
  1
222.5
 50
90.0
  0
TEXT
  5
18367
  8
0
  6
CONTINUOUS
 62
     7
 10
14549.88666492184
 20
17680.205421421961
 30
0.0
 40
160.0
  1
2567.5
 50
90.0
  0
TEXT
  5
18368
  8
0
  6
CONTINUOUS
 62
     7
 10
14549.88666492184
 20
15070.7887547553
 30
0.0
 40
160.0
  1
2918
 50
90.0
  0
TEXT
  5
18369
  8
0
  6
CONTINUOUS
 62
     7
 10
14549.88666492186
 20
13021.966519012531
 30
0.0
 40
160.0
  1
192.5
 50
90.0
  0
TEXT
  5
1836A
  8
0
  6
CONTINUOUS
 62
     7
 10
22836.75859724942
 20
19964.079023086721
 30
0.0
 40
160.0
  1
701
  0
ARC
  5
1836B
  8
0
  6
BYBLOCK
 62
     0
 10
22650.354253301171
 20
20206.45634542195
 30
0.0
 40
15.0
 50
0.0
 51
180.0
  0
ARC
  5
1836C
  8
0
  6
BYBLOCK
 62
     0
 10
22650.354253301171
 20
20206.45634542195
 30
0.0
 40
15.0
 50
180.0
 51
0.0
  0
ARC
  5
1836D
  8
0
  6
BYBLOCK
 62
     0
 10
23351.354253301171
 20
20206.45634542195
 30
0.0
 40
15.0
 50
180.0
 51
0.0
  0
ARC
  5
1836E
  8
0
  6
BYBLOCK
 62
     0
 10
23351.354253301171
 20
20206.45634542195
 30
0.0
 40
15.0
 50
0.0
 51
180.0
  0
ARC
  5
1836F
  8
0
  6
BYBLOCK
 62
     0
 10
14629.88666492184
 20
13878.455421421961
 30
0.0
 40
15.0
 50
270.0
 51
90.0
  0
ARC
  5
18370
  8
0
  6
BYBLOCK
 62
     0
 10
14629.88666492184
 20
13878.455421421961
 30
0.0
 40
15.0
 50
90.0
 51
270.0
  0
ARC
  5
18371
  8
0
  6
BYBLOCK
 62
     0
 10
14629.88666492184
 20
13685.95614742195
 30
0.0
 40
15.0
 50
90.0
 51
270.0
  0
ARC
  5
18372
  8
0
  6
BYBLOCK
 62
     0
 10
14629.88666492184
 20
13685.95614742195
 30
0.0
 40
15.0
 50
270.0
 51
90.0
  0
ARC
  5
18373
  8
0
  6
BYBLOCK
 62
     0
 10
14629.88666492184
 20
16796.455421421961
 30
0.0
 40
15.0
 50
270.0
 51
90.0
  0
ARC
  5
18374
  8
0
  6
BYBLOCK
 62
     0
 10
14629.88666492184
 20
16796.455421421961
 30
0.0
 40
15.0
 50
90.0
 51
270.0
  0
ARC
  5
18375
  8
0
  6
BYBLOCK
 62
     0
 10
14629.88666492184
 20
13878.455421421961
 30
0.0
 40
15.0
 50
90.0
 51
270.0
  0
ARC
  5
18376
  8
0
  6
BYBLOCK
 62
     0
 10
14629.88666492184
 20
13878.455421421961
 30
0.0
 40
15.0
 50
270.0
 51
90.0
  0
ARC
  5
18377
  8
0
  6
BYBLOCK
 62
     0
 10
14629.88666492184
 20
19363.955421421961
 30
0.0
 40
15.0
 50
270.0
 51
90.0
  0
ARC
  5
18378
  8
0
  6
BYBLOCK
 62
     0
 10
14629.88666492184
 20
19363.955421421961
 30
0.0
 40
15.0
 50
90.0
 51
270.0
  0
ARC
  5
18379
  8
0
  6
BYBLOCK
 62
     0
 10
14629.88666492184
 20
16796.455421421961
 30
0.0
 40
15.0
 50
90.0
 51
270.0
  0
ARC
  5
1837A
  8
0
  6
BYBLOCK
 62
     0
 10
14629.88666492184
 20
16796.455421421961
 30
0.0
 40
15.0
 50
270.0
 51
90.0
  0
ARC
  5
1837B
  8
0
  6
BYBLOCK
 62
     0
 10
14629.88666492184
 20
19363.955421421961
 30
0.0
 40
15.0
 50
90.0
 51
270.0
  0
ARC
  5
1837C
  8
0
  6
BYBLOCK
 62
     0
 10
14629.88666492184
 20
19363.955421421961
 30
0.0
 40
15.0
 50
270.0
 51
90.0
  0
ARC
  5
1837D
  8
0
  6
BYBLOCK
 62
     0
 10
14629.88666492184
 20
19586.455289421949
 30
0.0
 40
15.0
 50
270.0
 51
90.0
  0
ARC
  5
1837E
  8
0
  6
BYBLOCK
 62
     0
 10
14629.88666492184
 20
19586.455289421949
 30
0.0
 40
15.0
 50
90.0
 51
270.0
  0
ARC
  5
1837F
  8
0
  6
BYBLOCK
 62
     0
 10
14229.887323921839
 20
19576.45872042195
 30
0.0
 40
15.0
 50
270.0
 51
90.0
  0
ARC
  5
18380
  8
0
  6
BYBLOCK
 62
     0
 10
14229.887323921839
 20
19576.45872042195
 30
0.0
 40
15.0
 50
90.0
 51
270.0
  0
ARC
  5
18381
  8
0
  6
BYBLOCK
 62
     0
 10
14229.887323921839
 20
19586.455289421949
 30
0.0
 40
15.0
 50
90.0
 51
270.0
  0
ARC
  5
18382
  8
0
  6
BYBLOCK
 62
     0
 10
14229.887323921839
 20
19586.455289421949
 30
0.0
 40
15.0
 50
270.0
 51
90.0
  0
ARC
  5
18383
  8
0
  6
BYBLOCK
 62
     0
 10
7631.8868889218584
 20
20206.45634542195
 30
0.0
 40
15.0
 50
0.0
 51
180.0
  0
ARC
  5
18384
  8
0
  6
BYBLOCK
 62
     0
 10
7631.8868889218584
 20
20206.45634542195
 30
0.0
 40
15.0
 50
180.0
 51
0.0
  0
ARC
  5
18385
  8
0
  6
BYBLOCK
 62
     0
 10
7546.3868889218566
 20
20206.45634542195
 30
0.0
 40
15.0
 50
180.0
 51
0.0
  0
ARC
  5
18386
  8
0
  6
BYBLOCK
 62
     0
 10
7546.3868889218566
 20
20206.45634542195
 30
0.0
 40
15.0
 50
0.0
 51
180.0
  0
ARC
  5
18387
  8
0
  6
BYBLOCK
 62
     0
 10
10431.88688892185
 20
20206.45634542195
 30
0.0
 40
15.0
 50
180.0
 51
0.0
  0
ARC
  5
18388
  8
0
  6
BYBLOCK
 62
     0
 10
10431.88688892185
 20
20206.45634542195
 30
0.0
 40
15.0
 50
0.0
 51
180.0
  0
ARC
  5
18389
  8
0
  6
BYBLOCK
 62
     0
 10
7631.8868889218584
 20
20206.45634542195
 30
0.0
 40
15.0
 50
0.0
 51
180.0
  0
ARC
  5
1838A
  8
0
  6
BYBLOCK
 62
     0
 10
7631.8868889218584
 20
20206.45634542195
 30
0.0
 40
15.0
 50
180.0
 51
0.0
  0
ARC
  5
1838B
  8
0
  6
BYBLOCK
 62
     0
 10
13700.386888921859
 20
20206.45634542195
 30
0.0
 40
15.0
 50
180.0
 51
0.0
  0
ARC
  5
1838C
  8
0
  6
BYBLOCK
 62
     0
 10
13700.386888921859
 20
20206.45634542195
 30
0.0
 40
15.0
 50
0.0
 51
180.0
  0
ARC
  5
1838D
  8
0
  6
BYBLOCK
 62
     0
 10
10431.88688892185
 20
20206.45634542195
 30
0.0
 40
15.0
 50
0.0
 51
180.0
  0
ARC
  5
1838E
  8
0
  6
BYBLOCK
 62
     0
 10
10431.88688892185
 20
20206.45634542195
 30
0.0
 40
15.0
 50
180.0
 51
0.0
  0
ARC
  5
1838F
  8
0
  6
BYBLOCK
 62
     0
 10
13700.386888921859
 20
20206.45634542195
 30
0.0
 40
15.0
 50
180.0
 51
0.0
  0
ARC
  5
18390
  8
0
  6
BYBLOCK
 62
     0
 10
13700.386888921859
 20
20206.45634542195
 30
0.0
 40
15.0
 50
0.0
 51
180.0
  0
ARC
  5
18391
  8
0
  6
BYBLOCK
 62
     0
 10
13785.886888921859
 20
20206.45634542195
 30
0.0
 40
15.0
 50
0.0
 51
180.0
  0
ARC
  5
18392
  8
0
  6
BYBLOCK
 62
     0
 10
13785.886888921859
 20
20206.45634542195
 30
0.0
 40
15.0
 50
180.0
 51
0.0
  0
ARC
  5
18393
  8
0
  6
BYBLOCK
 62
     0
 10
13785.886888921859
 20
12395.95535542194
 30
0.0
 40
15.0
 50
180.0
 51
0.0
  0
ARC
  5
18394
  8
0
  6
BYBLOCK
 62
     0
 10
13785.886888921859
 20
12395.95535542194
 30
0.0
 40
15.0
 50
0.0
 51
180.0
  0
ARC
  5
18395
  8
0
  6
BYBLOCK
 62
     0
 10
7546.3868889218566
 20
12395.95535542194
 30
0.0
 40
15.0
 50
0.0
 51
180.0
  0
ARC
  5
18396
  8
0
  6
BYBLOCK
 62
     0
 10
7546.3868889218566
 20
12395.95535542194
 30
0.0
 40
15.0
 50
180.0
 51
0.0
  0
ARC
  5
18397
  8
0
  6
BYBLOCK
 62
     0
 10
25511.354253301171
 20
20206.45634542195
 30
0.0
 40
15.0
 50
180.0
 51
0.0
  0
ARC
  5
18398
  8
0
  6
BYBLOCK
 62
     0
 10
25511.354253301171
 20
20206.45634542195
 30
0.0
 40
15.0
 50
0.0
 51
180.0
  0
ARC
  5
18399
  8
0
  6
BYBLOCK
 62
     0
 10
25553.854253301171
 20
20206.45634542195
 30
0.0
 40
15.0
 50
0.0
 51
180.0
  0
ARC
  5
1839A
  8
0
  6
BYBLOCK
 62
     0
 10
25553.854253301171
 20
20206.45634542195
 30
0.0
 40
15.0
 50
180.0
 51
0.0
  0
ARC
  5
183BB
  8
0
  6
BYBLOCK
 62
     0
 10
24753.354253301171
 20
20206.45634542195
 30
0.0
 40
15.0
 50
0.0
 51
180.0
  0
ARC
  5
183BC
  8
0
  6
BYBLOCK
 62
     0
 10
24753.354253301171
 20
20206.45634542195
 30
0.0
 40
15.0
 50
180.0
 51
0.0
  0
ARC
  5
183BD
  8
0
  6
BYBLOCK
 62
     0
 10
25511.354253301171
 20
20206.45634542195
 30
0.0
 40
15.0
 50
180.0
 51
0.0
  0
ARC
  5
183BE
  8
0
  6
BYBLOCK
 62
     0
 10
25511.354253301171
 20
20206.45634542195
 30
0.0
 40
15.0
 50
0.0
 51
180.0
  0
ARC
  5
183BF
  8
0
  6
BYBLOCK
 62
     0
 10
24052.354253301171
 20
20206.45634542195
 30
0.0
 40
15.0
 50
0.0
 51
180.0
  0
ARC
  5
183C0
  8
0
  6
BYBLOCK
 62
     0
 10
24052.354253301171
 20
20206.45634542195
 30
0.0
 40
15.0
 50
180.0
 51
0.0
  0
ARC
  5
183C1
  8
0
  6
BYBLOCK
 62
     0
 10
24753.354253301171
 20
20206.45634542195
 30
0.0
 40
15.0
 50
180.0
 51
0.0
  0
ARC
  5
183C2
  8
0
  6
BYBLOCK
 62
     0
 10
24753.354253301171
 20
20206.45634542195
 30
0.0
 40
15.0
 50
0.0
 51
180.0
  0
ARC
  5
183C3
  8
0
  6
BYBLOCK
 62
     0
 10
23351.354253301171
 20
20206.45634542195
 30
0.0
 40
15.0
 50
0.0
 51
180.0
  0
ARC
  5
183C4
  8
0
  6
BYBLOCK
 62
     0
 10
23351.354253301171
 20
20206.45634542195
 30
0.0
 40
15.0
 50
180.0
 51
0.0
  0
ARC
  5
183C5
  8
0
  6
BYBLOCK
 62
     0
 10
24052.354253301171
 20
20206.45634542195
 30
0.0
 40
15.0
 50
180.0
 51
0.0
  0
ARC
  5
183C6
  8
0
  6
BYBLOCK
 62
     0
 10
24052.354253301171
 20
20206.45634542195
 30
0.0
 40
15.0
 50
0.0
 51
180.0
  0
ARC
  5
183C7
  8
0
  6
BYBLOCK
 62
     0
 10
22242.85425330116
 20
20206.45634542195
 30
0.0
 40
15.0
 50
0.0
 51
180.0
  0
ARC
  5
183C8
  8
0
  6
BYBLOCK
 62
     0
 10
22242.85425330116
 20
20206.45634542195
 30
0.0
 40
15.0
 50
180.0
 51
0.0
  0
ARC
  5
183C9
  8
0
  6
BYBLOCK
 62
     0
 10
22650.354253301171
 20
20206.45634542195
 30
0.0
 40
15.0
 50
180.0
 51
0.0
  0
ARC
  5
183CA
  8
0
  6
BYBLOCK
 62
     0
 10
22650.354253301171
 20
20206.45634542195
 30
0.0
 40
15.0
 50
0.0
 51
180.0
  0
ARC
  5
183CB
  8
0
  6
BYBLOCK
 62
     0
 10
22242.85425330116
 20
20206.45634542195
 30
0.0
 40
15.0
 50
0.0
 51
180.0
  0
ARC
  5
183CC
  8
0
  6
BYBLOCK
 62
     0
 10
22242.85425330116
 20
20206.45634542195
 30
0.0
 40
15.0
 50
180.0
 51
0.0
  0
ARC
  5
183CD
  8
0
  6
BYBLOCK
 62
     0
 10
22200.35425330116
 20
20206.45634542195
 30
0.0
 40
15.0
 50
180.0
 51
0.0
  0
ARC
  5
183CE
  8
0
  6
BYBLOCK
 62
     0
 10
22200.35425330116
 20
20206.45634542195
 30
0.0
 40
15.0
 50
0.0
 51
180.0
  0
ARC
  5
183DB
  8
0
  6
BYBLOCK
 62
     0
 10
22242.852274301182
 20
20606.456345421939
 30
0.0
 40
15.0
 50
180.0
 51
0.0
  0
ARC
  5
183DC
  8
0
  6
BYBLOCK
 62
     0
 10
22242.852274301182
 20
20606.456345421939
 30
0.0
 40
15.0
 50
0.0
 51
180.0
  0
ARC
  5
183DD
  8
0
  6
BYBLOCK
 62
     0
 10
19442.852274301182
 20
20606.456345421939
 30
0.0
 40
15.0
 50
0.0
 51
180.0
  0
ARC
  5
183DE
  8
0
  6
BYBLOCK
 62
     0
 10
19442.852274301182
 20
20606.456345421939
 30
0.0
 40
15.0
 50
180.0
 51
0.0
  0
ARC
  5
183DF
  8
0
  6
BYBLOCK
 62
     0
 10
25511.352274301182
 20
20606.456345421939
 30
0.0
 40
15.0
 50
180.0
 51
0.0
  0
ARC
  5
183E0
  8
0
  6
BYBLOCK
 62
     0
 10
25511.352274301182
 20
20606.456345421939
 30
0.0
 40
15.0
 50
0.0
 51
180.0
  0
ARC
  5
183E1
  8
0
  6
BYBLOCK
 62
     0
 10
22242.852274301182
 20
20606.456345421939
 30
0.0
 40
15.0
 50
0.0
 51
180.0
  0
ARC
  5
183E2
  8
0
  6
BYBLOCK
 62
     0
 10
22242.852274301182
 20
20606.456345421939
 30
0.0
 40
15.0
 50
180.0
 51
0.0
  0
ARC
  5
183E3
  8
0
  6
BYBLOCK
 62
     0
 10
19442.852274301182
 20
20206.45634542195
 30
0.0
 40
15.0
 50
180.0
 51
0.0
  0
ARC
  5
183E4
  8
0
  6
BYBLOCK
 62
     0
 10
19442.852274301182
 20
20206.45634542195
 30
0.0
 40
15.0
 50
0.0
 51
180.0
  0
ARC
  5
183E5
  8
0
  6
BYBLOCK
 62
     0
 10
19485.354517301181
 20
20206.45634542195
 30
0.0
 40
15.0
 50
0.0
 51
180.0
  0
ARC
  5
183E6
  8
0
  6
BYBLOCK
 62
     0
 10
19485.354517301181
 20
20206.45634542195
 30
0.0
 40
15.0
 50
180.0
 51
0.0
  0
ARC
  5
183E7
  8
0
  6
BYBLOCK
 62
     0
 10
19442.852274301182
 20
20206.45634542195
 30
0.0
 40
15.0
 50
0.0
 51
180.0
  0
ARC
  5
183E8
  8
0
  6
BYBLOCK
 62
     0
 10
19442.852274301182
 20
20206.45634542195
 30
0.0
 40
15.0
 50
180.0
 51
0.0
  0
ARC
  5
183E9
  8
0
  6
BYBLOCK
 62
     0
 10
19400.353989301191
 20
20206.45634542195
 30
0.0
 40
15.0
 50
180.0
 51
0.0
  0
ARC
  5
183EA
  8
0
  6
BYBLOCK
 62
     0
 10
19400.353989301191
 20
20206.45634542195
 30
0.0
 40
15.0
 50
0.0
 51
180.0
  0
ARC
  5
183EB
  8
0
  6
BYBLOCK
 62
     0
 10
18225.008649932552
 20
16796.455421421961
 30
0.0
 40
15.0
 50
90.0
 51
270.0
  0
ARC
  5
183EC
  8
0
  6
BYBLOCK
 62
     0
 10
18225.008649932552
 20
16796.455421421961
 30
0.0
 40
15.0
 50
270.0
 51
90.0
  0
ARC
  5
183ED
  8
0
  6
BYBLOCK
 62
     0
 10
18225.008649932552
 20
19363.955421421961
 30
0.0
 40
15.0
 50
270.0
 51
90.0
  0
ARC
  5
183EE
  8
0
  6
BYBLOCK
 62
     0
 10
18225.008649932552
 20
19363.955421421961
 30
0.0
 40
15.0
 50
90.0
 51
270.0
  0
ARC
  5
183EF
  8
0
  6
BYBLOCK
 62
     0
 10
18225.008649932552
 20
13878.455421421961
 30
0.0
 40
15.0
 50
90.0
 51
270.0
  0
ARC
  5
183F0
  8
0
  6
BYBLOCK
 62
     0
 10
18225.008649932552
 20
13878.455421421961
 30
0.0
 40
15.0
 50
270.0
 51
90.0
  0
ARC
  5
183F1
  8
0
  6
BYBLOCK
 62
     0
 10
18225.008649932552
 20
16796.455421421961
 30
0.0
 40
15.0
 50
270.0
 51
90.0
  0
ARC
  5
183F2
  8
0
  6
BYBLOCK
 62
     0
 10
18225.008649932552
 20
16796.455421421961
 30
0.0
 40
15.0
 50
90.0
 51
270.0
  0
ARC
  5
18407
  8
0
  6
BYBLOCK
 62
     0
 10
25596.8522743012
 20
9835.1021434219638
 30
0.0
 40
15.0
 50
180.0
 51
0.0
  0
ARC
  5
18408
  8
0
  6
BYBLOCK
 62
     0
 10
25596.8522743012
 20
9835.1021434219638
 30
0.0
 40
15.0
 50
0.0
 51
180.0
  0
ARC
  5
18409
  8
0
  6
BYBLOCK
 62
     0
 10
19357.352274301182
 20
9835.1021434219638
 30
0.0
 40
15.0
 50
0.0
 51
180.0
  0
ARC
  5
1840A
  8
0
  6
BYBLOCK
 62
     0
 10
19357.352274301182
 20
9835.1021434219638
 30
0.0
 40
15.0
 50
180.0
 51
0.0
  0
ARC
  5
1840B
  8
0
  6
BYBLOCK
 62
     0
 10
19400.352274301182
 20
9435.1592194219593
 30
0.0
 40
15.0
 50
0.0
 51
180.0
  0
ARC
  5
1840C
  8
0
  6
BYBLOCK
 62
     0
 10
19400.352274301182
 20
9435.1592194219593
 30
0.0
 40
15.0
 50
180.0
 51
0.0
  0
ARC
  5
1840D
  8
0
  6
BYBLOCK
 62
     0
 10
19357.352274301182
 20
9435.1592194219593
 30
0.0
 40
15.0
 50
180.0
 51
0.0
  0
ARC
  5
1840E
  8
0
  6
BYBLOCK
 62
     0
 10
19357.352274301182
 20
9435.1592194219593
 30
0.0
 40
15.0
 50
0.0
 51
180.0
  0
ARC
  5
1840F
  8
0
  6
BYBLOCK
 62
     0
 10
25553.8522743012
 20
9435.1592194219593
 30
0.0
 40
15.0
 50
180.0
 51
0.0
  0
ARC
  5
18410
  8
0
  6
BYBLOCK
 62
     0
 10
25553.8522743012
 20
9435.1592194219593
 30
0.0
 40
15.0
 50
0.0
 51
180.0
  0
ARC
  5
18411
  8
0
  6
BYBLOCK
 62
     0
 10
25596.8522743012
 20
9435.1592194219593
 30
0.0
 40
15.0
 50
0.0
 51
180.0
  0
ARC
  5
18412
  8
0
  6
BYBLOCK
 62
     0
 10
25596.8522743012
 20
9435.1592194219593
 30
0.0
 40
15.0
 50
180.0
 51
0.0
  0
ARC
  5
18413
  8
0
  6
BYBLOCK
 62
     0
 10
22200.352274301182
 20
9435.1592194219593
 30
0.0
 40
15.0
 50
0.0
 51
180.0
  0
ARC
  5
18414
  8
0
  6
BYBLOCK
 62
     0
 10
22200.352274301182
 20
9435.1592194219593
 30
0.0
 40
15.0
 50
180.0
 51
0.0
  0
ARC
  5
18415
  8
0
  6
BYBLOCK
 62
     0
 10
25553.8522743012
 20
9435.1592194219593
 30
0.0
 40
15.0
 50
180.0
 51
0.0
  0
ARC
  5
18416
  8
0
  6
BYBLOCK
 62
     0
 10
25553.8522743012
 20
9435.1592194219593
 30
0.0
 40
15.0
 50
0.0
 51
180.0
  0
ARC
  5
18417
  8
0
  6
BYBLOCK
 62
     0
 10
27004.45452500592
 20
6287.1575434219612
 30
0.0
 40
15.0
 50
90.0
 51
270.0
  0
ARC
  5
18418
  8
0
  6
BYBLOCK
 62
     0
 10
27004.45452500592
 20
6287.1575434219612
 30
0.0
 40
15.0
 50
270.0
 51
90.0
  0
ARC
  5
18419
  8
0
  6
BYBLOCK
 62
     0
 10
27004.45452500592
 20
8635.6575694219555
 30
0.0
 40
15.0
 50
270.0
 51
90.0
  0
ARC
  5
1841A
  8
0
  6
BYBLOCK
 62
     0
 10
27004.45452500592
 20
8635.6575694219555
 30
0.0
 40
15.0
 50
90.0
 51
270.0
  0
ARC
  5
1841B
  8
0
  6
BYBLOCK
 62
     0
 10
26361.355573301182
 20
6287.1575434219621
 30
0.0
 40
15.0
 50
90.0
 51
270.0
  0
ARC
  5
1841C
  8
0
  6
BYBLOCK
 62
     0
 10
26361.355573301182
 20
6287.1575434219621
 30
0.0
 40
15.0
 50
270.0
 51
90.0
  0
ARC
  5
1841D
  8
0
  6
BYBLOCK
 62
     0
 10
26361.355573301182
 20
8178.6575434219612
 30
0.0
 40
15.0
 50
270.0
 51
90.0
  0
ARC
  5
1841E
  8
0
  6
BYBLOCK
 62
     0
 10
26361.355573301182
 20
8178.6575434219612
 30
0.0
 40
15.0
 50
90.0
 51
270.0
  0
ARC
  5
1841F
  8
0
  6
BYBLOCK
 62
     0
 10
22197.352274301182
 20
5387.1575434219612
 30
0.0
 40
15.0
 50
180.0
 51
0.0
  0
ARC
  5
18420
  8
0
  6
BYBLOCK
 62
     0
 10
22197.352274301182
 20
5387.1575434219612
 30
0.0
 40
15.0
 50
0.0
 51
180.0
  0
ARC
  5
18421
  8
0
  6
BYBLOCK
 62
     0
 10
19485.352274301182
 20
5387.1575434219612
 30
0.0
 40
15.0
 50
0.0
 51
180.0
  0
ARC
  5
18422
  8
0
  6
BYBLOCK
 62
     0
 10
19485.352274301182
 20
5387.1575434219612
 30
0.0
 40
15.0
 50
180.0
 51
0.0
  0
ARC
  5
18423
  8
0
  6
BYBLOCK
 62
     0
 10
25553.812321353649
 20
4587.1578734220147
 30
0.0
 40
15.0
 50
180.0
 51
0.0
  0
ARC
  5
18424
  8
0
  6
BYBLOCK
 62
     0
 10
25553.812321353649
 20
4587.1578734220147
 30
0.0
 40
15.0
 50
0.0
 51
180.0
  0
ARC
  5
18425
  8
0
  6
BYBLOCK
 62
     0
 10
19400.352274301182
 20
4587.1578734220147
 30
0.0
 40
15.0
 50
0.0
 51
180.0
  0
ARC
  5
18426
  8
0
  6
BYBLOCK
 62
     0
 10
19400.352274301182
 20
4587.1578734220147
 30
0.0
 40
15.0
 50
180.0
 51
0.0
  0
ARC
  5
18427
  8
0
  6
BYBLOCK
 62
     0
 10
25511.3522743012
 20
4987.1577084219589
 30
0.0
 40
15.0
 50
180.0
 51
0.0
  0
ARC
  5
18428
  8
0
  6
BYBLOCK
 62
     0
 10
25511.3522743012
 20
4987.1577084219589
 30
0.0
 40
15.0
 50
0.0
 51
180.0
  0
ARC
  5
18429
  8
0
  6
BYBLOCK
 62
     0
 10
25553.812321353649
 20
4987.1577084219589
 30
0.0
 40
15.0
 50
0.0
 51
180.0
  0
ARC
  5
1842A
  8
0
  6
BYBLOCK
 62
     0
 10
25553.812321353649
 20
4987.1577084219589
 30
0.0
 40
15.0
 50
180.0
 51
0.0
  0
ARC
  5
1842B
  8
0
  6
BYBLOCK
 62
     0
 10
22242.852274301182
 20
4987.1577084219589
 30
0.0
 40
15.0
 50
0.0
 51
180.0
  0
ARC
  5
1842C
  8
0
  6
BYBLOCK
 62
     0
 10
22242.852274301182
 20
4987.1577084219589
 30
0.0
 40
15.0
 50
180.0
 51
0.0
  0
ARC
  5
1842D
  8
0
  6
BYBLOCK
 62
     0
 10
25511.3522743012
 20
4987.1577084219589
 30
0.0
 40
15.0
 50
180.0
 51
0.0
  0
ARC
  5
1842E
  8
0
  6
BYBLOCK
 62
     0
 10
25511.3522743012
 20
4987.1577084219589
 30
0.0
 40
15.0
 50
0.0
 51
180.0
  0
ARC
  5
1842F
  8
0
  6
BYBLOCK
 62
     0
 10
25417.3522743012
 20
5387.1575434219612
 30
0.0
 40
15.0
 50
180.0
 51
0.0
  0
ARC
  5
18430
  8
0
  6
BYBLOCK
 62
     0
 10
25417.3522743012
 20
5387.1575434219612
 30
0.0
 40
15.0
 50
0.0
 51
180.0
  0
ARC
  5
18431
  8
0
  6
BYBLOCK
 62
     0
 10
22336.852274301189
 20
5387.1575434219612
 30
0.0
 40
15.0
 50
0.0
 51
180.0
  0
ARC
  5
18432
  8
0
  6
BYBLOCK
 62
     0
 10
22336.852274301189
 20
5387.1575434219612
 30
0.0
 40
15.0
 50
180.0
 51
0.0
  0
ARC
  5
18433
  8
0
  6
BYBLOCK
 62
     0
 10
19442.852274301182
 20
4987.1577084219589
 30
0.0
 40
15.0
 50
0.0
 51
180.0
  0
ARC
  5
18434
  8
0
  6
BYBLOCK
 62
     0
 10
19442.852274301182
 20
4987.1577084219589
 30
0.0
 40
15.0
 50
180.0
 51
0.0
  0
ARC
  5
18435
  8
0
  6
BYBLOCK
 62
     0
 10
19400.352274301182
 20
4987.1577084219589
 30
0.0
 40
15.0
 50
180.0
 51
0.0
  0
ARC
  5
18436
  8
0
  6
BYBLOCK
 62
     0
 10
19400.352274301182
 20
4987.1577084219589
 30
0.0
 40
15.0
 50
0.0
 51
180.0
  0
ARC
  5
18437
  8
0
  6
BYBLOCK
 62
     0
 10
22242.852274301182
 20
4987.1577084219589
 30
0.0
 40
15.0
 50
180.0
 51
0.0
  0
ARC
  5
18438
  8
0
  6
BYBLOCK
 62
     0
 10
22242.852274301182
 20
4987.1577084219589
 30
0.0
 40
15.0
 50
0.0
 51
180.0
  0
ARC
  5
18439
  8
0
  6
BYBLOCK
 62
     0
 10
19442.852274301182
 20
4987.1577084219589
 30
0.0
 40
15.0
 50
0.0
 51
180.0
  0
ARC
  5
1843A
  8
0
  6
BYBLOCK
 62
     0
 10
19442.852274301182
 20
4987.1577084219589
 30
0.0
 40
15.0
 50
180.0
 51
0.0
  0
ARC
  5
1843B
  8
0
  6
BYBLOCK
 62
     0
 10
22200.352274301182
 20
9435.1592194219593
 30
0.0
 40
15.0
 50
180.0
 51
0.0
  0
ARC
  5
1843C
  8
0
  6
BYBLOCK
 62
     0
 10
22200.352274301182
 20
9435.1592194219593
 30
0.0
 40
15.0
 50
0.0
 51
180.0
  0
ARC
  5
1843D
  8
0
  6
BYBLOCK
 62
     0
 10
19400.352274301182
 20
9435.1592194219593
 30
0.0
 40
15.0
 50
0.0
 51
180.0
  0
ARC
  5
1843E
  8
0
  6
BYBLOCK
 62
     0
 10
19400.352274301182
 20
9435.1592194219593
 30
0.0
 40
15.0
 50
180.0
 51
0.0
  0
ARC
  5
1843F
  8
0
  6
BYBLOCK
 62
     0
 10
18190.529876006811
 20
6287.9718314219663
 30
0.0
 40
15.0
 50
90.0
 51
270.0
  0
ARC
  5
18440
  8
0
  6
BYBLOCK
 62
     0
 10
18190.529876006811
 20
6287.9718314219663
 30
0.0
 40
15.0
 50
270.0
 51
90.0
  0
ARC
  5
18441
  8
0
  6
BYBLOCK
 62
     0
 10
18190.529876006811
 20
8307.971831421959
 30
0.0
 40
15.0
 50
270.0
 51
90.0
  0
ARC
  5
18442
  8
0
  6
BYBLOCK
 62
     0
 10
18190.529876006811
 20
8307.971831421959
 30
0.0
 40
15.0
 50
90.0
 51
270.0
  0
ARC
  5
18443
  8
0
  6
BYBLOCK
 62
     0
 10
13451.8888954096
 20
9835.1575694219573
 30
0.0
 40
15.0
 50
180.0
 51
0.0
  0
ARC
  5
18444
  8
0
  6
BYBLOCK
 62
     0
 10
13451.8888954096
 20
9835.1575694219573
 30
0.0
 40
15.0
 50
0.0
 51
180.0
  0
ARC
  5
18445
  8
0
  6
BYBLOCK
 62
     0
 10
7551.3888954096028
 20
9835.1575694219573
 30
0.0
 40
15.0
 50
0.0
 51
180.0
  0
ARC
  5
18446
  8
0
  6
BYBLOCK
 62
     0
 10
7551.3888954096028
 20
9835.1575694219573
 30
0.0
 40
15.0
 50
180.0
 51
0.0
  0
ARC
  5
18447
  8
0
  6
BYBLOCK
 62
     0
 10
7701.3888954095974
 20
9435.1592194219593
 30
0.0
 40
15.0
 50
0.0
 51
180.0
  0
ARC
  5
18448
  8
0
  6
BYBLOCK
 62
     0
 10
7701.3888954095974
 20
9435.1592194219593
 30
0.0
 40
15.0
 50
180.0
 51
0.0
  0
ARC
  5
18449
  8
0
  6
BYBLOCK
 62
     0
 10
7551.3888954096028
 20
9435.1592194219593
 30
0.0
 40
15.0
 50
180.0
 51
0.0
  0
ARC
  5
1844A
  8
0
  6
BYBLOCK
 62
     0
 10
7551.3888954096028
 20
9435.1592194219593
 30
0.0
 40
15.0
 50
0.0
 51
180.0
  0
ARC
  5
1844B
  8
0
  6
BYBLOCK
 62
     0
 10
13271.8888954096
 20
9435.1592194219593
 30
0.0
 40
15.0
 50
180.0
 51
0.0
  0
ARC
  5
1844C
  8
0
  6
BYBLOCK
 62
     0
 10
13271.8888954096
 20
9435.1592194219593
 30
0.0
 40
15.0
 50
0.0
 51
180.0
  0
ARC
  5
1844D
  8
0
  6
BYBLOCK
 62
     0
 10
7701.3888954095974
 20
9435.1592194219593
 30
0.0
 40
15.0
 50
0.0
 51
180.0
  0
ARC
  5
1844E
  8
0
  6
BYBLOCK
 62
     0
 10
7701.3888954095974
 20
9435.1592194219593
 30
0.0
 40
15.0
 50
180.0
 51
0.0
  0
ARC
  5
1844F
  8
0
  6
BYBLOCK
 62
     0
 10
13451.8888954096
 20
9435.1592194219593
 30
0.0
 40
15.0
 50
0.0
 51
180.0
  0
ARC
  5
18450
  8
0
  6
BYBLOCK
 62
     0
 10
13451.8888954096
 20
9435.1592194219593
 30
0.0
 40
15.0
 50
180.0
 51
0.0
  0
ARC
  5
18451
  8
0
  6
BYBLOCK
 62
     0
 10
13271.8888954096
 20
9435.1592194219593
 30
0.0
 40
15.0
 50
0.0
 51
180.0
  0
ARC
  5
18452
  8
0
  6
BYBLOCK
 62
     0
 10
13271.8888954096
 20
9435.1592194219593
 30
0.0
 40
15.0
 50
180.0
 51
0.0
  0
ARC
  5
18453
  8
0
  6
BYBLOCK
 62
     0
 10
6611.3884994096006
 20
6287.1575434219621
 30
0.0
 40
15.0
 50
90.0
 51
270.0
  0
ARC
  5
18454
  8
0
  6
BYBLOCK
 62
     0
 10
6611.3884994096006
 20
6287.1575434219621
 30
0.0
 40
15.0
 50
270.0
 51
90.0
  0
ARC
  5
18455
  8
0
  6
BYBLOCK
 62
     0
 10
6611.3884994096006
 20
8635.6575434219612
 30
0.0
 40
15.0
 50
270.0
 51
90.0
  0
ARC
  5
18456
  8
0
  6
BYBLOCK
 62
     0
 10
6611.3884994096006
 20
8635.6575434219612
 30
0.0
 40
15.0
 50
90.0
 51
270.0
  0
ARC
  5
18457
  8
0
  6
BYBLOCK
 62
     0
 10
14361.88929140959
 20
6287.1575434219612
 30
0.0
 40
15.0
 50
90.0
 51
270.0
  0
ARC
  5
18458
  8
0
  6
BYBLOCK
 62
     0
 10
14361.88929140959
 20
6287.1575434219612
 30
0.0
 40
15.0
 50
270.0
 51
90.0
  0
ARC
  5
18459
  8
0
  6
BYBLOCK
 62
     0
 10
14361.88929140959
 20
8443.1575434219612
 30
0.0
 40
15.0
 50
270.0
 51
90.0
  0
ARC
  5
1845A
  8
0
  6
BYBLOCK
 62
     0
 10
14361.88929140959
 20
8443.1575434219612
 30
0.0
 40
15.0
 50
90.0
 51
270.0
  0
ARC
  5
1845B
  8
0
  6
BYBLOCK
 62
     0
 10
13271.8888954096
 20
4587.1578734219574
 30
0.0
 40
15.0
 50
180.0
 51
0.0
  0
ARC
  5
1845C
  8
0
  6
BYBLOCK
 62
     0
 10
13271.8888954096
 20
4587.1578734219574
 30
0.0
 40
15.0
 50
0.0
 51
180.0
  0
ARC
  5
1845D
  8
0
  6
BYBLOCK
 62
     0
 10
7701.3888954095974
 20
4587.1578734219574
 30
0.0
 40
15.0
 50
0.0
 51
180.0
  0
ARC
  5
1845E
  8
0
  6
BYBLOCK
 62
     0
 10
7701.3888954095974
 20
4587.1578734219574
 30
0.0
 40
15.0
 50
180.0
 51
0.0
  0
ARC
  5
1845F
  8
0
  6
BYBLOCK
 62
     0
 10
7743.8888954096037
 20
4987.1577084219589
 30
0.0
 40
15.0
 50
0.0
 51
180.0
  0
ARC
  5
18460
  8
0
  6
BYBLOCK
 62
     0
 10
7743.8888954096037
 20
4987.1577084219589
 30
0.0
 40
15.0
 50
180.0
 51
0.0
  0
ARC
  5
18461
  8
0
  6
BYBLOCK
 62
     0
 10
7701.3888954095974
 20
4987.1577084219589
 30
0.0
 40
15.0
 50
180.0
 51
0.0
  0
ARC
  5
18462
  8
0
  6
BYBLOCK
 62
     0
 10
7701.3888954095974
 20
4987.1577084219589
 30
0.0
 40
15.0
 50
0.0
 51
180.0
  0
ARC
  5
18463
  8
0
  6
BYBLOCK
 62
     0
 10
13229.3888954096
 20
4987.1577084219589
 30
0.0
 40
15.0
 50
180.0
 51
0.0
  0
ARC
  5
18464
  8
0
  6
BYBLOCK
 62
     0
 10
13229.3888954096
 20
4987.1577084219589
 30
0.0
 40
15.0
 50
0.0
 51
180.0
  0
ARC
  5
18465
  8
0
  6
BYBLOCK
 62
     0
 10
13271.8888954096
 20
4987.1577084219589
 30
0.0
 40
15.0
 50
0.0
 51
180.0
  0
ARC
  5
18466
  8
0
  6
BYBLOCK
 62
     0
 10
13271.8888954096
 20
4987.1577084219589
 30
0.0
 40
15.0
 50
180.0
 51
0.0
  0
ARC
  5
18467
  8
0
  6
BYBLOCK
 62
     0
 10
10661.8888954096
 20
4987.1577084219589
 30
0.0
 40
15.0
 50
0.0
 51
180.0
  0
ARC
  5
18468
  8
0
  6
BYBLOCK
 62
     0
 10
10661.8888954096
 20
4987.1577084219589
 30
0.0
 40
15.0
 50
180.0
 51
0.0
  0
ARC
  5
18469
  8
0
  6
BYBLOCK
 62
     0
 10
13229.3888954096
 20
4987.1577084219589
 30
0.0
 40
15.0
 50
180.0
 51
0.0
  0
ARC
  5
1846A
  8
0
  6
BYBLOCK
 62
     0
 10
13229.3888954096
 20
4987.1577084219589
 30
0.0
 40
15.0
 50
0.0
 51
180.0
  0
ARC
  5
1846B
  8
0
  6
BYBLOCK
 62
     0
 10
10661.8888954096
 20
4987.1577084219589
 30
0.0
 40
15.0
 50
180.0
 51
0.0
  0
ARC
  5
1846C
  8
0
  6
BYBLOCK
 62
     0
 10
10661.8888954096
 20
4987.1577084219589
 30
0.0
 40
15.0
 50
0.0
 51
180.0
  0
ARC
  5
1846D
  8
0
  6
BYBLOCK
 62
     0
 10
7743.8888954096037
 20
4987.1577084219589
 30
0.0
 40
15.0
 50
0.0
 51
180.0
  0
ARC
  5
1846E
  8
0
  6
BYBLOCK
 62
     0
 10
7743.8888954096037
 20
4987.1577084219589
 30
0.0
 40
15.0
 50
180.0
 51
0.0
  0
TEXT
  5
1854A
  8
NAME
 10
21595.82616625919
 20
1076.6369801169251
 30
0.0
 40
360.0
  1
VGC-3355（H）+VKC-2855（H）型-L（単棟）
 41
0.45
  0
TEXT
  5
1854B
  8
NAME
 10
21933.552716389011
 20
1876.0
 30
0.0
 40
360.0
  1
ヨドガレージ ラヴィージュ
 41
0.75
  7
01
  0
LINE
  5
1854C
  8
NAME
  6
CONTINUOUS
 10
26067.886878884299
 20
2236.0
 30
0.0
 11
26067.886878884299
 21
1876.0
 31
0.0
  0
LINE
  5
1854D
  8
NAME
  6
CONTINUOUS
 10
26167.886878884299
 20
2236.0
 30
0.0
 11
26167.886878884299
 21
1876.0
 31
0.0
  0
LINE
  5
1854E
  8
NAME
  6
CONTINUOUS
 10
26267.88687888431
 20
2236.0
 30
0.0
 11
26267.88687888431
 21
1876.0
 31
0.0
  0
LINE
  5
1854F
  8
NAME
  6
CONTINUOUS
 10
26007.886878884299
 20
2236.0
 30
0.0
 11
26327.886878884299
 21
2236.0
 31
0.0
  0
LINE
  5
18550
  8
NAME
  6
CONTINUOUS
 10
26327.886878884299
 20
1876.0
 30
0.0
 11
26007.886878884299
 21
1876.0
 31
0.0
  0
LINE
  5
18562
  8
2-0
  6
CENTER2
 62
     6
 10
22242.852274301182
 20
21006.45766442196
 30
0.0
 11
22242.852274301182
 21
13520.70154295354
 31
0.0
  0
LINE
  5
18565
  8
2-0
  6
CENTER2
 62
     6
 10
25511.352274301182
 20
21006.45766442196
 30
0.0
 11
25511.352274301182
 21
13520.70154295354
 31
0.0
  0
LINE
  5
187BF
  8
2-0
  6
CONTINUOUS
 62
     6
 10
23828.193358301171
 20
13238.45429942197
 30
0.0
 11
24828.186760301141
 21
13238.45429942197
 31
0.0
  0
LINE
  5
187C0
  8
2-0
  6
CONTINUOUS
 62
     6
 10
25296.127137301159
 20
13708.87501342197
 30
0.0
 11
24828.186760301141
 21
13238.45429942197
 31
0.0
  0
LINE
  5
187C1
  8
2-0
  6
CONTINUOUS
 62
     6
 10
25257.48693430116
 20
16900.482660421982
 30
0.0
 11
24952.791516301171
 21
17004.136191421989
 31
0.0
  0
LINE
  5
187C2
  8
2-0
  6
CONTINUOUS
 62
     6
 10
25412.508973301148
 20
16410.860616421989
 30
0.0
 11
24952.791516301171
 21
16166.947305421971
 31
0.0
  0
LINE
  5
187C3
  8
2-0
  6
CONTINUOUS
 62
     6
 10
24032.78848130117
 20
16166.947305421971
 30
0.0
 11
24952.791516301171
 21
16166.947305421971
 31
0.0
  0
LINE
  5
187C4
  8
2-0
  6
CONTINUOUS
 62
     6
 10
23752.79745430117
 20
17004.136191421989
 30
0.0
 11
24952.791516301171
 21
17004.136191421989
 31
0.0
  0
LINE
  5
187C5
  8
2-0
  6
CONTINUOUS
 62
     6
 10
25328.686258301179
 20
14030.55865942196
 30
0.0
 11
24952.791516301171
 21
14211.502494421969
 31
0.0
  0
LINE
  5
187C6
  8
2-0
  6
CONTINUOUS
 62
     6
 10
24432.789800301169
 20
14211.502494421969
 30
0.0
 11
24952.791516301171
 21
14211.502494421969
 31
0.0
  0
LINE
  5
187C7
  8
2-0
  6
CONTINUOUS
 62
     3
 10
25523.852934301169
 20
19297.453495421982
 30
0.0
 11
25523.852934301169
 21
19291.457533421981
 31
0.0
  0
LINE
  5
187C8
  8
2-0
  6
CONTINUOUS
 62
     3
 10
25523.852934301169
 20
19291.457533421981
 30
0.0
 11
25553.850558301161
 21
19291.457533421981
 31
0.0
  0
LINE
  5
187C9
  8
2-0
  6
CONTINUOUS
 62
     3
 10
25553.850558301161
 20
19321.457137421959
 30
0.0
 11
25472.848658301162
 21
19321.457137421959
 31
0.0
  0
LINE
  5
187CA
  8
2-0
  6
CONTINUOUS
 62
     3
 10
25523.852934301169
 20
19281.160077421959
 30
0.0
 11
25553.850558301161
 21
19281.160077421959
 31
0.0
  0
LINE
  5
187CB
  8
2-0
  6
CONTINUOUS
 62
     3
 10
25523.852934301169
 20
19299.161819421981
 30
0.0
 11
25523.852934301169
 21
19281.160077421959
 31
0.0
  0
LINE
  5
187CC
  8
2-0
  6
CONTINUOUS
 62
     3
 10
25548.85029430117
 20
19299.161819421981
 30
0.0
 11
25523.852934301169
 21
19299.161819421981
 31
0.0
  0
LINE
  5
187CD
  8
2-0
  6
CONTINUOUS
 62
     3
 10
25548.85029430117
 20
19294.15363742198
 30
0.0
 11
25548.85029430117
 21
19299.161819421981
 31
0.0
  0
LINE
  5
187CE
  8
2-0
  6
CONTINUOUS
 62
     3
 10
25541.848737301181
 20
19294.15363742198
 30
0.0
 11
25548.85029430117
 21
19294.15363742198
 31
0.0
  0
LINE
  5
187CF
  8
2-0
  6
CONTINUOUS
 62
     3
 10
25441.552469301179
 20
19394.453864421968
 30
0.0
 11
25441.552469301179
 21
19401.45938042198
 31
0.0
  0
LINE
  5
187D0
  8
2-0
  6
CONTINUOUS
 62
     3
 10
25441.552469301179
 20
19401.45938042198
 30
0.0
 11
25446.552733301149
 21
19401.45938042198
 31
0.0
  0
LINE
  5
187D1
  8
2-0
  6
CONTINUOUS
 62
     3
 10
25446.552733301149
 20
19401.45938042198
 30
0.0
 11
25446.552733301149
 21
19376.450143421978
 31
0.0
  0
LINE
  5
187D2
  8
2-0
  6
CONTINUOUS
 62
     3
 10
25446.552733301149
 20
19376.450143421978
 30
0.0
 11
25428.550991301141
 21
19376.450143421978
 31
0.0
  0
LINE
  5
187D3
  8
2-0
  6
CONTINUOUS
 62
     3
 10
25428.550991301141
 20
19376.450143421978
 30
0.0
 11
25428.550991301141
 21
19406.45370642198
 31
0.0
  0
LINE
  5
187D4
  8
2-0
  6
CONTINUOUS
 62
     3
 10
25438.84844730117
 20
19406.45370642198
 30
0.0
 11
25553.850558301161
 21
19406.45370642198
 31
0.0
  0
LINE
  5
187D5
  8
2-0
  6
CONTINUOUS
 62
     3
 10
25438.84844730117
 20
19376.450143421978
 30
0.0
 11
25438.84844730117
 21
19406.45370642198
 31
0.0
  0
LINE
  5
187D6
  8
2-0
  6
CONTINUOUS
 62
     3
 10
25444.85034730117
 20
19376.450143421978
 30
0.0
 11
25438.84844730117
 21
19376.450143421978
 31
0.0
  0
LINE
  5
187D7
  8
2-0
  6
CONTINUOUS
 62
     3
 10
25541.848737301181
 20
18940.856814921961
 30
0.0
 11
25548.85029430117
 21
18940.856814921961
 31
0.0
  0
LINE
  5
187D8
  8
2-0
  6
CONTINUOUS
 62
     3
 10
25548.85029430117
 20
18940.856814921961
 30
0.0
 11
25548.85029430117
 21
18945.857078921959
 31
0.0
  0
LINE
  5
187D9
  8
2-0
  6
CONTINUOUS
 62
     3
 10
25548.85029430117
 20
18945.857078921959
 30
0.0
 11
25523.852934301169
 21
18945.857078921959
 31
0.0
  0
LINE
  5
187DA
  8
2-0
  6
CONTINUOUS
 62
     3
 10
25523.852934301169
 20
18945.857078921959
 30
0.0
 11
25523.852934301169
 21
18927.861274921968
 31
0.0
  0
LINE
  5
187DB
  8
2-0
  6
CONTINUOUS
 62
     3
 10
25523.852934301169
 20
18927.861274921968
 30
0.0
 11
25553.850558301161
 21
18927.861274921968
 31
0.0
  0
LINE
  5
187DC
  8
2-0
  6
CONTINUOUS
 62
     3
 10
25523.852934301169
 20
18943.95278192194
 30
0.0
 11
25523.852934301169
 21
18937.954840921971
 31
0.0
  0
LINE
  5
187DD
  8
2-0
  6
CONTINUOUS
 62
     3
 10
25523.852934301169
 20
18937.954840921971
 30
0.0
 11
25553.850558301161
 21
18937.954840921971
 31
0.0
  0
LINE
  5
187DE
  8
2-0
  6
CONTINUOUS
 62
     3
 10
25553.850558301161
 20
18937.954840921971
 30
0.0
 11
25553.850558301161
 21
18974.956001921972
 31
0.0
  0
LINE
  5
187DF
  8
2-0
  6
CONTINUOUS
 62
     3
 10
25523.852934301169
 20
18974.956001921972
 30
0.0
 11
25553.850558301161
 21
18974.956001921972
 31
0.0
  0
LINE
  5
187E0
  8
2-0
  6
CONTINUOUS
 62
     3
 10
25523.852934301169
 20
18968.95212192195
 30
0.0
 11
25523.852934301169
 21
18974.956001921972
 31
0.0
  0
LINE
  5
187E1
  8
2-0
  6
CONTINUOUS
 62
     3
 10
25523.852934301169
 20
18985.051546921961
 30
0.0
 11
25553.850558301161
 21
18985.051546921961
 31
0.0
  0
LINE
  5
187E2
  8
2-0
  6
CONTINUOUS
 62
     3
 10
25523.852934301169
 20
18967.04980492196
 30
0.0
 11
25523.852934301169
 21
18985.051546921961
 31
0.0
  0
LINE
  5
187E3
  8
2-0
  6
CONTINUOUS
 62
     3
 10
25548.85029430117
 20
18967.04980492196
 30
0.0
 11
25523.852934301169
 21
18967.04980492196
 31
0.0
  0
LINE
  5
187E4
  8
2-0
  6
CONTINUOUS
 62
     3
 10
25548.85029430117
 20
18972.050068921959
 30
0.0
 11
25548.85029430117
 21
18967.04980492196
 31
0.0
  0
LINE
  5
187E5
  8
2-0
  6
CONTINUOUS
 62
     3
 10
25541.848737301181
 20
18972.050068921959
 30
0.0
 11
25548.85029430117
 21
18972.050068921959
 31
0.0
  0
LINE
  5
187E6
  8
2-0
  6
CONTINUOUS
 62
     3
 10
25541.848737301181
 20
18239.855825421972
 30
0.0
 11
25548.85029430117
 21
18239.855825421972
 31
0.0
  0
LINE
  5
187E7
  8
2-0
  6
CONTINUOUS
 62
     3
 10
25548.85029430117
 20
18239.855825421972
 30
0.0
 11
25548.85029430117
 21
18244.862027421961
 31
0.0
  0
LINE
  5
187E8
  8
2-0
  6
CONTINUOUS
 62
     3
 10
25548.85029430117
 20
18244.862027421961
 30
0.0
 11
25523.852934301169
 21
18244.862027421961
 31
0.0
  0
LINE
  5
187E9
  8
2-0
  6
CONTINUOUS
 62
     3
 10
25523.852934301169
 20
18244.862027421961
 30
0.0
 11
25523.852934301169
 21
18226.860285421972
 31
0.0
  0
LINE
  5
187EA
  8
2-0
  6
CONTINUOUS
 62
     3
 10
25523.852934301169
 20
18226.860285421972
 30
0.0
 11
25553.850558301161
 21
18226.860285421972
 31
0.0
  0
LINE
  5
187EB
  8
2-0
  6
CONTINUOUS
 62
     3
 10
25523.852934301169
 20
18242.951792421962
 30
0.0
 11
25523.852934301169
 21
18236.955830421961
 31
0.0
  0
LINE
  5
187EC
  8
2-0
  6
CONTINUOUS
 62
     3
 10
25523.852934301169
 20
18236.955830421961
 30
0.0
 11
25553.850558301161
 21
18236.955830421961
 31
0.0
  0
LINE
  5
187ED
  8
2-0
  6
CONTINUOUS
 62
     3
 10
25553.850558301161
 20
18236.955830421961
 30
0.0
 11
25553.850558301161
 21
18273.95501242196
 31
0.0
  0
LINE
  5
187EE
  8
2-0
  6
CONTINUOUS
 62
     3
 10
25523.852934301169
 20
18273.95501242196
 30
0.0
 11
25553.850558301161
 21
18273.95501242196
 31
0.0
  0
LINE
  5
187EF
  8
2-0
  6
CONTINUOUS
 62
     3
 10
25523.852934301169
 20
18267.959050421981
 30
0.0
 11
25523.852934301169
 21
18273.95501242196
 31
0.0
  0
LINE
  5
187F0
  8
2-0
  6
CONTINUOUS
 62
     3
 10
25523.852934301169
 20
18284.050557421971
 30
0.0
 11
25553.850558301161
 21
18284.050557421971
 31
0.0
  0
LINE
  5
187F1
  8
2-0
  6
CONTINUOUS
 62
     3
 10
25523.852934301169
 20
18266.04881542196
 30
0.0
 11
25523.852934301169
 21
18284.050557421971
 31
0.0
  0
LINE
  5
187F2
  8
2-0
  6
CONTINUOUS
 62
     3
 10
25548.85029430117
 20
18266.04881542196
 30
0.0
 11
25523.852934301169
 21
18266.04881542196
 31
0.0
  0
LINE
  5
187F3
  8
2-0
  6
CONTINUOUS
 62
     3
 10
25548.85029430117
 20
18271.055017421972
 30
0.0
 11
25548.85029430117
 21
18266.04881542196
 31
0.0
  0
LINE
  5
187F4
  8
2-0
  6
CONTINUOUS
 62
     3
 10
25541.848737301181
 20
18271.055017421972
 30
0.0
 11
25548.85029430117
 21
18271.055017421972
 31
0.0
  0
LINE
  5
187F5
  8
2-0
  6
CONTINUOUS
 62
     3
 10
25541.848737301181
 20
17570.04907942197
 30
0.0
 11
25548.85029430117
 21
17570.04907942197
 31
0.0
  0
LINE
  5
187F6
  8
2-0
  6
CONTINUOUS
 62
     3
 10
25548.85029430117
 20
17570.04907942197
 30
0.0
 11
25548.85029430117
 21
17565.060692421979
 31
0.0
  0
LINE
  5
187F7
  8
2-0
  6
CONTINUOUS
 62
     3
 10
25548.85029430117
 20
17565.060692421979
 30
0.0
 11
25523.852934301169
 21
17565.060692421979
 31
0.0
  0
LINE
  5
187F8
  8
2-0
  6
CONTINUOUS
 62
     3
 10
25523.852934301169
 20
17565.060692421979
 30
0.0
 11
25523.852934301169
 21
17583.056495421959
 31
0.0
  0
LINE
  5
187F9
  8
2-0
  6
CONTINUOUS
 62
     3
 10
25523.852934301169
 20
17583.056495421959
 30
0.0
 11
25553.850558301161
 21
17583.056495421959
 31
0.0
  0
LINE
  5
187FA
  8
2-0
  6
CONTINUOUS
 62
     3
 10
25523.852934301169
 20
17566.95905042196
 30
0.0
 11
25523.852934301169
 21
17572.95501242196
 31
0.0
  0
LINE
  5
187FB
  8
2-0
  6
CONTINUOUS
 62
     3
 10
25523.852934301169
 20
17572.95501242196
 30
0.0
 11
25553.850558301161
 21
17572.95501242196
 31
0.0
  0
LINE
  5
187FC
  8
2-0
  6
CONTINUOUS
 62
     3
 10
25553.850558301161
 20
17572.95501242196
 30
0.0
 11
25553.850558301161
 21
17535.955830421979
 31
0.0
  0
LINE
  5
187FD
  8
2-0
  6
CONTINUOUS
 62
     3
 10
25523.852934301169
 20
17535.955830421979
 30
0.0
 11
25553.850558301161
 21
17535.955830421979
 31
0.0
  0
LINE
  5
187FE
  8
2-0
  6
CONTINUOUS
 62
     3
 10
25523.852934301169
 20
17541.95773142196
 30
0.0
 11
25523.852934301169
 21
17535.955830421979
 31
0.0
  0
LINE
  5
187FF
  8
2-0
  6
CONTINUOUS
 62
     3
 10
25523.852934301169
 20
17525.866224421959
 30
0.0
 11
25553.850558301161
 21
17525.866224421959
 31
0.0
  0
LINE
  5
18800
  8
2-0
  6
CONTINUOUS
 62
     3
 10
25523.852934301169
 20
17543.862027421968
 30
0.0
 11
25523.852934301169
 21
17525.866224421959
 31
0.0
  0
LINE
  5
18801
  8
2-0
  6
CONTINUOUS
 62
     3
 10
25548.85029430117
 20
17543.862027421968
 30
0.0
 11
25523.852934301169
 21
17543.862027421968
 31
0.0
  0
LINE
  5
18802
  8
2-0
  6
CONTINUOUS
 62
     3
 10
25548.85029430117
 20
17538.861764421959
 30
0.0
 11
25548.85029430117
 21
17543.862027421968
 31
0.0
  0
LINE
  5
18803
  8
2-0
  6
CONTINUOUS
 62
     3
 10
25541.848737301181
 20
17538.861764421959
 30
0.0
 11
25548.85029430117
 21
17538.861764421959
 31
0.0
  0
LINE
  5
18804
  8
2-0
  6
CONTINUOUS
 62
     3
 10
25550.964420301181
 20
16818.952650421968
 30
0.0
 11
25550.964420301181
 21
16838.953705421969
 31
0.0
  0
LINE
  5
18805
  8
2-0
  6
CONTINUOUS
 62
     3
 10
25550.964420301181
 20
16838.953705421969
 30
0.0
 11
25465.96785130116
 21
16838.953705421969
 31
0.0
  0
LINE
  5
18806
  8
2-0
  6
CONTINUOUS
 62
     3
 10
25541.848737301181
 20
16865.56041542198
 30
0.0
 11
25548.85029430117
 21
16865.56041542198
 31
0.0
  0
LINE
  5
18807
  8
2-0
  6
CONTINUOUS
 62
     3
 10
25548.85029430117
 20
16865.56041542198
 30
0.0
 11
25548.85029430117
 21
16860.56608942198
 31
0.0
  0
LINE
  5
18808
  8
2-0
  6
CONTINUOUS
 62
     3
 10
25548.85029430117
 20
16860.56608942198
 30
0.0
 11
25523.852934301169
 21
16860.56608942198
 31
0.0
  0
LINE
  5
18809
  8
2-0
  6
CONTINUOUS
 62
     3
 10
25523.852934301169
 20
16860.56608942198
 30
0.0
 11
25523.852934301169
 21
16878.561893421971
 31
0.0
  0
LINE
  5
1880A
  8
2-0
  6
CONTINUOUS
 62
     3
 10
25523.852934301169
 20
16878.561893421971
 30
0.0
 11
25553.850558301161
 21
16878.561893421971
 31
0.0
  0
LINE
  5
1880B
  8
2-0
  6
CONTINUOUS
 62
     3
 10
25523.852934301169
 20
16868.953309421959
 30
0.0
 11
25523.852934301169
 21
16862.951409421959
 31
0.0
  0
LINE
  5
1880C
  8
2-0
  6
CONTINUOUS
 62
     3
 10
25553.850558301161
 20
16868.953309421959
 30
0.0
 11
25523.852934301169
 21
16868.953309421959
 31
0.0
  0
LINE
  5
1880D
  8
2-0
  6
CONTINUOUS
 62
     3
 10
25553.850558301161
 20
16878.561893421971
 30
0.0
 11
25553.850558301161
 21
17525.866224421959
 31
0.0
  0
LINE
  5
1880E
  8
2-0
  6
CONTINUOUS
 62
     3
 10
25553.850558301161
 20
17583.056495421959
 30
0.0
 11
25553.850558301161
 21
18226.860285421972
 31
0.0
  0
LINE
  5
1880F
  8
2-0
  6
CONTINUOUS
 62
     3
 10
25553.850558301161
 20
16723.951594421978
 30
0.0
 11
25523.852934301169
 21
16723.951594421978
 31
0.0
  0
LINE
  5
18810
  8
2-0
  6
CONTINUOUS
 62
     3
 10
25523.852934301169
 20
16723.951594421978
 30
0.0
 11
25523.852934301169
 21
16729.95349442197
 31
0.0
  0
LINE
  5
18811
  8
2-0
  6
CONTINUOUS
 62
     3
 10
25465.96785130116
 20
16753.957137421959
 30
0.0
 11
25550.964420301181
 21
16753.957137421959
 31
0.0
  0
LINE
  5
18812
  8
2-0
  6
CONTINUOUS
 62
     3
 10
25550.964420301181
 20
16753.957137421959
 30
0.0
 11
25550.964420301181
 21
16773.95225442198
 31
0.0
  0
LINE
  5
18813
  8
2-0
  6
CONTINUOUS
 62
     3
 10
25523.852934301169
 20
16714.34301142197
 30
0.0
 11
25553.850558301161
 21
16714.34301142197
 31
0.0
  0
LINE
  5
18814
  8
2-0
  6
CONTINUOUS
 62
     3
 10
25523.852934301169
 20
16732.33881442195
 30
0.0
 11
25523.852934301169
 21
16714.34301142197
 31
0.0
  0
LINE
  5
18815
  8
2-0
  6
CONTINUOUS
 62
     3
 10
25548.85029430117
 20
16732.33881442195
 30
0.0
 11
25523.852934301169
 21
16732.33881442195
 31
0.0
  0
LINE
  5
18816
  8
2-0
  6
CONTINUOUS
 62
     3
 10
25548.85029430117
 20
16727.33855042198
 30
0.0
 11
25548.85029430117
 21
16732.33881442195
 31
0.0
  0
LINE
  5
18817
  8
2-0
  6
CONTINUOUS
 62
     3
 10
25541.848737301181
 20
16727.33855042198
 30
0.0
 11
25548.85029430117
 21
16727.33855042198
 31
0.0
  0
LINE
  5
18818
  8
2-0
  6
CONTINUOUS
 62
     3
 10
25541.848737301181
 20
16022.85631992195
 30
0.0
 11
25548.85029430117
 21
16022.85631992195
 31
0.0
  0
LINE
  5
18819
  8
2-0
  6
CONTINUOUS
 62
     3
 10
25548.85029430117
 20
16022.85631992195
 30
0.0
 11
25548.85029430117
 21
16027.856583921959
 31
0.0
  0
LINE
  5
1881A
  8
2-0
  6
CONTINUOUS
 62
     3
 10
25548.85029430117
 20
16027.856583921959
 30
0.0
 11
25523.852934301169
 21
16027.856583921959
 31
0.0
  0
LINE
  5
1881B
  8
2-0
  6
CONTINUOUS
 62
     3
 10
25523.852934301169
 20
16027.856583921959
 30
0.0
 11
25523.852934301169
 21
16009.85484192197
 31
0.0
  0
LINE
  5
1881C
  8
2-0
  6
CONTINUOUS
 62
     3
 10
25523.852934301169
 20
16009.85484192197
 30
0.0
 11
25553.850558301161
 21
16009.85484192197
 31
0.0
  0
LINE
  5
1881D
  8
2-0
  6
CONTINUOUS
 62
     3
 10
25523.852934301169
 20
16025.95228692196
 30
0.0
 11
25523.852934301169
 21
16019.95533592197
 31
0.0
  0
LINE
  5
1881E
  8
2-0
  6
CONTINUOUS
 62
     3
 10
25523.852934301169
 20
16019.95533592197
 30
0.0
 11
25553.850558301161
 21
16019.95533592197
 31
0.0
  0
LINE
  5
1881F
  8
2-0
  6
CONTINUOUS
 62
     3
 10
25553.850558301161
 20
16019.95533592197
 30
0.0
 11
25553.850558301161
 21
16056.95550692197
 31
0.0
  0
LINE
  5
18820
  8
2-0
  6
CONTINUOUS
 62
     3
 10
25523.852934301169
 20
16056.95550692197
 30
0.0
 11
25553.850558301161
 21
16056.95550692197
 31
0.0
  0
LINE
  5
18821
  8
2-0
  6
CONTINUOUS
 62
     3
 10
25523.852934301169
 20
16050.952616921961
 30
0.0
 11
25523.852934301169
 21
16056.95550692197
 31
0.0
  0
LINE
  5
18822
  8
2-0
  6
CONTINUOUS
 62
     3
 10
25523.852934301169
 20
16067.05105192197
 30
0.0
 11
25553.850558301161
 21
16067.05105192197
 31
0.0
  0
LINE
  5
18823
  8
2-0
  6
CONTINUOUS
 62
     3
 10
25523.852934301169
 20
16049.04337092196
 30
0.0
 11
25523.852934301169
 21
16067.05105192197
 31
0.0
  0
LINE
  5
18824
  8
2-0
  6
CONTINUOUS
 62
     3
 10
25548.85029430117
 20
16049.04337092196
 30
0.0
 11
25523.852934301169
 21
16049.04337092196
 31
0.0
  0
LINE
  5
18825
  8
2-0
  6
CONTINUOUS
 62
     3
 10
25548.85029430117
 20
16054.04957392197
 30
0.0
 11
25548.85029430117
 21
16049.04337092196
 31
0.0
  0
LINE
  5
18826
  8
2-0
  6
CONTINUOUS
 62
     3
 10
25541.848737301181
 20
16054.04957392197
 30
0.0
 11
25548.85029430117
 21
16054.04957392197
 31
0.0
  0
LINE
  5
18827
  8
2-0
  6
CONTINUOUS
 62
     3
 10
25541.848737301181
 20
15353.28959042198
 30
0.0
 11
25548.85029430117
 21
15353.28959042198
 31
0.0
  0
LINE
  5
18828
  8
2-0
  6
CONTINUOUS
 62
     3
 10
25548.85029430117
 20
15353.28959042198
 30
0.0
 11
25548.85029430117
 21
15348.295265421981
 31
0.0
  0
LINE
  5
18829
  8
2-0
  6
CONTINUOUS
 62
     3
 10
25548.85029430117
 20
15348.295265421981
 30
0.0
 11
25523.852934301169
 21
15348.295265421981
 31
0.0
  0
LINE
  5
1882A
  8
2-0
  6
CONTINUOUS
 62
     3
 10
25523.852934301169
 20
15348.295265421981
 30
0.0
 11
25523.852934301169
 21
15366.291068421981
 31
0.0
  0
LINE
  5
1882B
  8
2-0
  6
CONTINUOUS
 62
     3
 10
25523.852934301169
 20
15366.291068421981
 30
0.0
 11
25553.850558301161
 21
15366.291068421981
 31
0.0
  0
LINE
  5
1882C
  8
2-0
  6
CONTINUOUS
 62
     3
 10
25523.852934301169
 20
15350.19362342197
 30
0.0
 11
25523.852934301169
 21
15356.19552342198
 31
0.0
  0
LINE
  5
1882D
  8
2-0
  6
CONTINUOUS
 62
     3
 10
25523.852934301169
 20
15356.19552342198
 30
0.0
 11
25553.850558301161
 21
15356.19552342198
 31
0.0
  0
LINE
  5
1882E
  8
2-0
  6
CONTINUOUS
 62
     3
 10
25553.850558301161
 20
15319.19634242199
 30
0.0
 11
25553.850558301161
 21
15356.19552342198
 31
0.0
  0
LINE
  5
1882F
  8
2-0
  6
CONTINUOUS
 62
     3
 10
25523.852934301169
 20
15319.19634242199
 30
0.0
 11
25553.850558301161
 21
15319.19634242199
 31
0.0
  0
LINE
  5
18830
  8
2-0
  6
CONTINUOUS
 62
     3
 10
25523.852934301169
 20
15325.19329342198
 30
0.0
 11
25523.852934301169
 21
15319.19634242199
 31
0.0
  0
LINE
  5
18831
  8
2-0
  6
CONTINUOUS
 62
     3
 10
25523.852934301169
 20
15309.09485842198
 30
0.0
 11
25553.850558301161
 21
15309.09485842198
 31
0.0
  0
LINE
  5
18832
  8
2-0
  6
CONTINUOUS
 62
     3
 10
25523.852934301169
 20
15327.102539421971
 30
0.0
 11
25523.852934301169
 21
15309.09485842198
 31
0.0
  0
LINE
  5
18833
  8
2-0
  6
CONTINUOUS
 62
     3
 10
25548.85029430117
 20
15327.102539421971
 30
0.0
 11
25523.852934301169
 21
15327.102539421971
 31
0.0
  0
LINE
  5
18834
  8
2-0
  6
CONTINUOUS
 62
     3
 10
25548.85029430117
 20
15322.10227542199
 30
0.0
 11
25548.85029430117
 21
15327.102539421971
 31
0.0
  0
LINE
  5
18835
  8
2-0
  6
CONTINUOUS
 62
     3
 10
25541.848737301181
 20
15322.10227542199
 30
0.0
 11
25548.85029430117
 21
15322.10227542199
 31
0.0
  0
LINE
  5
18836
  8
2-0
  6
CONTINUOUS
 62
     3
 10
25553.850558301161
 20
16714.34301142197
 30
0.0
 11
25553.850558301161
 21
16067.05105192197
 31
0.0
  0
LINE
  5
18837
  8
2-0
  6
CONTINUOUS
 62
     3
 10
25553.850558301161
 20
16868.953309421959
 30
0.0
 11
25553.850558301161
 21
16723.951594421978
 31
0.0
  0
LINE
  5
18838
  8
2-0
  6
CONTINUOUS
 62
     3
 10
25465.96785130116
 20
16838.953705421969
 30
0.0
 11
25465.96785130116
 21
16753.957137421959
 31
0.0
  0
LINE
  5
18839
  8
2-0
  6
CONTINUOUS
 62
     6
 10
23927.759184301169
 20
18607.40097092195
 30
0.0
 11
24952.791516301171
 21
18607.40097092195
 31
0.0
  0
LINE
  5
1883A
  8
2-0
  6
CONTINUOUS
 62
     3
 10
25541.848737301181
 20
14620.86126842197
 30
0.0
 11
25548.85029430117
 21
14620.86126842197
 31
0.0
  0
LINE
  5
1883B
  8
2-0
  6
CONTINUOUS
 62
     3
 10
25548.85029430117
 20
14620.86126842197
 30
0.0
 11
25548.85029430117
 21
14625.855594421981
 31
0.0
  0
LINE
  5
1883C
  8
2-0
  6
CONTINUOUS
 62
     3
 10
25548.85029430117
 20
14625.855594421981
 30
0.0
 11
25523.852934301169
 21
14625.855594421981
 31
0.0
  0
LINE
  5
1883D
  8
2-0
  6
CONTINUOUS
 62
     3
 10
25523.852934301169
 20
14625.855594421981
 30
0.0
 11
25523.852934301169
 21
14607.85979042197
 31
0.0
  0
LINE
  5
1883E
  8
2-0
  6
CONTINUOUS
 62
     3
 10
25523.852934301169
 20
14607.85979042197
 30
0.0
 11
25553.850558301161
 21
14607.85979042197
 31
0.0
  0
LINE
  5
1883F
  8
2-0
  6
CONTINUOUS
 62
     3
 10
25523.852934301169
 20
14623.95822542198
 30
0.0
 11
25523.852934301169
 21
14617.955335421981
 31
0.0
  0
LINE
  5
18840
  8
2-0
  6
CONTINUOUS
 62
     3
 10
25523.852934301169
 20
14617.955335421981
 30
0.0
 11
25553.850558301161
 21
14617.955335421981
 31
0.0
  0
LINE
  5
18841
  8
2-0
  6
CONTINUOUS
 62
     3
 10
25553.850558301161
 20
14617.955335421981
 30
0.0
 11
25553.850558301161
 21
14654.955507421961
 31
0.0
  0
LINE
  5
18842
  8
2-0
  6
CONTINUOUS
 62
     3
 10
25523.852934301169
 20
14654.955507421961
 30
0.0
 11
25553.850558301161
 21
14654.955507421961
 31
0.0
  0
LINE
  5
18843
  8
2-0
  6
CONTINUOUS
 62
     3
 10
25523.852934301169
 20
14648.95855542197
 30
0.0
 11
25523.852934301169
 21
14654.955507421961
 31
0.0
  0
LINE
  5
18844
  8
2-0
  6
CONTINUOUS
 62
     3
 10
25523.852934301169
 20
14665.056000421981
 30
0.0
 11
25553.850558301161
 21
14665.056000421981
 31
0.0
  0
LINE
  5
18845
  8
2-0
  6
CONTINUOUS
 62
     3
 10
25523.852934301169
 20
14647.04930942198
 30
0.0
 11
25523.852934301169
 21
14665.056000421981
 31
0.0
  0
LINE
  5
18846
  8
2-0
  6
CONTINUOUS
 62
     3
 10
25548.85029430117
 20
14647.04930942198
 30
0.0
 11
25523.852934301169
 21
14647.04930942198
 31
0.0
  0
LINE
  5
18847
  8
2-0
  6
CONTINUOUS
 62
     3
 10
25548.85029430117
 20
14652.05452242198
 30
0.0
 11
25548.85029430117
 21
14647.04930942198
 31
0.0
  0
LINE
  5
18848
  8
2-0
  6
CONTINUOUS
 62
     3
 10
25541.848737301181
 20
14652.05452242198
 30
0.0
 11
25548.85029430117
 21
14652.05452242198
 31
0.0
  0
LINE
  5
18849
  8
2-0
  6
CONTINUOUS
 62
     3
 10
25523.852934301169
 20
13944.957348421971
 30
0.0
 11
25523.852934301169
 21
13950.962217421969
 31
0.0
  0
LINE
  5
1884A
  8
2-0
  6
CONTINUOUS
 62
     3
 10
25523.852934301169
 20
13950.962217421969
 30
0.0
 11
25553.850558301161
 21
13950.962217421969
 31
0.0
  0
LINE
  5
1884B
  8
2-0
  6
CONTINUOUS
 62
     3
 10
25553.850558301161
 20
13950.962217421969
 30
0.0
 11
25553.850558301161
 21
13835.958126421971
 31
0.0
  0
LINE
  5
1884C
  8
2-0
  6
CONTINUOUS
 62
     3
 10
25553.850558301161
 20
13835.958126421971
 30
0.0
 11
25468.852010301169
 21
13835.958126421971
 31
0.0
  0
LINE
  5
1884D
  8
2-0
  6
CONTINUOUS
 62
     3
 10
25468.852010301169
 20
13835.958126421971
 30
0.0
 11
25468.852010301169
 21
13920.953705421971
 31
0.0
  0
LINE
  5
1884E
  8
2-0
  6
CONTINUOUS
 62
     3
 10
25468.852010301169
 20
13920.953705421971
 30
0.0
 11
25500.85092830117
 21
13920.953705421971
 31
0.0
  0
LINE
  5
1884F
  8
2-0
  6
CONTINUOUS
 62
     3
 10
25541.848737301181
 20
13947.991950421971
 30
0.0
 11
25548.85029430117
 21
13947.991950421971
 31
0.0
  0
LINE
  5
18850
  8
2-0
  6
CONTINUOUS
 62
     3
 10
25548.85029430117
 20
13947.991950421971
 30
0.0
 11
25548.85029430117
 21
13942.99465542195
 31
0.0
  0
LINE
  5
18851
  8
2-0
  6
CONTINUOUS
 62
     3
 10
25548.85029430117
 20
13942.99465542195
 30
0.0
 11
25523.852934301169
 21
13942.99465542195
 31
0.0
  0
LINE
  5
18852
  8
2-0
  6
CONTINUOUS
 62
     3
 10
25523.852934301169
 20
13942.99465542195
 30
0.0
 11
25523.852934301169
 21
13960.993428421971
 31
0.0
  0
LINE
  5
18853
  8
2-0
  6
CONTINUOUS
 62
     3
 10
25523.852934301169
 20
13960.993428421971
 30
0.0
 11
25553.850558301161
 21
13960.993428421971
 31
0.0
  0
LINE
  5
18854
  8
2-0
  6
CENTER2
 62
     6
 10
25511.352274301182
 20
13638.46056842196
 30
0.0
 11
25511.352274301182
 21
14794.32932642199
 31
0.0
  0
LINE
  5
18855
  8
2-0
  6
CONTINUOUS
 62
     3
 10
25553.850558301161
 20
18284.050557421971
 30
0.0
 11
25553.850558301161
 21
18927.861274921968
 31
0.0
  0
LINE
  5
18856
  8
2-0
  6
CONTINUOUS
 62
     6
 10
26246.35544130117
 20
20136.456609421999
 30
0.0
 11
27446.349503301139
 21
20136.456609421999
 31
0.0
  0
LINE
  5
18857
  8
2-0
  6
CONTINUOUS
 62
     6
 10
25384.32260830115
 20
18849.555478921971
 30
0.0
 11
24952.791516301171
 21
18607.40097092195
 31
0.0
  0
LINE
  5
18858
  8
2-0
  6
CONTINUOUS
 62
     6
 10
25705.891442301141
 20
19549.13344642198
 30
0.0
 11
26246.35544130117
 21
20136.456609421999
 31
0.0
  0
LINE
  5
18859
  8
2-0
  6
CONTINUOUS
 62
     3
 10
25553.850558301161
 20
16009.85484192197
 30
0.0
 11
25553.850558301161
 21
15366.291068421981
 31
0.0
  0
LINE
  5
1885A
  8
2-0
  6
CONTINUOUS
 62
     6
 10
25371.265703301171
 20
18872.814822921959
 30
0.0
 11
25523.852934301169
 21
18927.861274921968
 31
0.0
  0
LINE
  5
1885B
  8
2-0
  6
CONTINUOUS
 62
     6
 10
25523.852934301169
 20
18927.861274921968
 30
0.0
 11
25397.37159430117
 21
18826.30207492195
 31
0.0
  0
LINE
  5
1885C
  8
2-0
  6
CONTINUOUS
 62
     6
 10
25371.265703301171
 20
18872.814822921959
 30
0.0
 11
25397.37159430117
 21
18826.30207492195
 31
0.0
  0
LINE
  5
1885D
  8
2-0
  6
CONTINUOUS
 62
     6
 10
25397.37159430117
 20
18826.30207492195
 30
0.0
 11
25523.852934301169
 21
18927.861274921968
 31
0.0
  0
LINE
  5
1885E
  8
2-0
  6
CONTINUOUS
 62
     6
 10
25523.852934301169
 20
18927.861274921968
 30
0.0
 11
25371.265703301171
 21
18872.814822921959
 31
0.0
  0
LINE
  5
1885F
  8
2-0
  6
CONTINUOUS
 62
     6
 10
25371.265703301171
 20
18872.814822921959
 30
0.0
 11
25523.852934301169
 21
18927.861274921968
 31
0.0
  0
LINE
  5
18860
  8
2-0
  6
CONTINUOUS
 62
     6
 10
25397.37159430117
 20
18826.30207492195
 30
0.0
 11
25523.852934301169
 21
18927.861274921968
 31
0.0
  0
LINE
  5
18861
  8
2-0
  6
CONTINUOUS
 62
     6
 10
25397.37159430117
 20
18826.30207492195
 30
0.0
 11
25371.265703301171
 21
18872.814822921959
 31
0.0
  0
LINE
  5
18862
  8
2-0
  6
CONTINUOUS
 62
     6
 10
25725.508471301171
 20
19531.07231942199
 30
0.0
 11
25597.546451301179
 21
19431.38970142198
 31
0.0
  0
LINE
  5
18863
  8
2-0
  6
CONTINUOUS
 62
     6
 10
25597.546451301179
 20
19431.38970142198
 30
0.0
 11
25686.260556301149
 21
19567.186656421989
 31
0.0
  0
LINE
  5
18864
  8
2-0
  6
CONTINUOUS
 62
     6
 10
25725.508471301171
 20
19531.07231942199
 30
0.0
 11
25686.260556301149
 21
19567.186656421989
 31
0.0
  0
LINE
  5
18865
  8
2-0
  6
CONTINUOUS
 62
     6
 10
25686.260556301149
 20
19567.186656421989
 30
0.0
 11
25597.546451301179
 21
19431.38970142198
 31
0.0
  0
LINE
  5
18866
  8
2-0
  6
CONTINUOUS
 62
     6
 10
25597.546451301179
 20
19431.38970142198
 30
0.0
 11
25725.508471301171
 21
19531.07231942199
 31
0.0
  0
LINE
  5
18867
  8
2-0
  6
CONTINUOUS
 62
     6
 10
25725.508471301171
 20
19531.07231942199
 30
0.0
 11
25597.546451301179
 21
19431.38970142198
 31
0.0
  0
LINE
  5
18868
  8
2-0
  6
CONTINUOUS
 62
     6
 10
25686.260556301149
 20
19567.186656421989
 30
0.0
 11
25597.546451301179
 21
19431.38970142198
 31
0.0
  0
LINE
  5
18869
  8
2-0
  6
CONTINUOUS
 62
     6
 10
25686.260556301149
 20
19567.186656421989
 30
0.0
 11
25725.508471301171
 21
19531.07231942199
 31
0.0
  0
LINE
  5
1886A
  8
2-0
  6
CONTINUOUS
 62
     6
 10
25277.212837301169
 20
13727.68538842196
 30
0.0
 11
25408.959696301179
 21
13822.31231542197
 31
0.0
  0
LINE
  5
1886B
  8
2-0
  6
CONTINUOUS
 62
     6
 10
25408.959696301179
 20
13822.31231542197
 30
0.0
 11
25315.029560301158
 21
13690.07354542195
 31
0.0
  0
LINE
  5
1886C
  8
2-0
  6
CONTINUOUS
 62
     6
 10
25277.212837301169
 20
13727.68538842196
 30
0.0
 11
25315.029560301158
 21
13690.07354542195
 31
0.0
  0
LINE
  5
1886D
  8
2-0
  6
CONTINUOUS
 62
     6
 10
25315.029560301158
 20
13690.07354542195
 30
0.0
 11
25408.959696301179
 21
13822.31231542197
 31
0.0
  0
LINE
  5
1886E
  8
2-0
  6
CONTINUOUS
 62
     6
 10
25408.959696301179
 20
13822.31231542197
 30
0.0
 11
25277.212837301169
 21
13727.68538842196
 31
0.0
  0
LINE
  5
1886F
  8
2-0
  6
CONTINUOUS
 62
     6
 10
25277.212837301169
 20
13727.68538842196
 30
0.0
 11
25408.959696301179
 21
13822.31231542197
 31
0.0
  0
LINE
  5
18870
  8
2-0
  6
CONTINUOUS
 62
     6
 10
25315.029560301158
 20
13690.07354542195
 30
0.0
 11
25408.959696301179
 21
13822.31231542197
 31
0.0
  0
LINE
  5
18871
  8
2-0
  6
CONTINUOUS
 62
     6
 10
25315.029560301158
 20
13690.07354542195
 30
0.0
 11
25277.212837301169
 21
13727.68538842196
 31
0.0
  0
LINE
  5
18872
  8
2-0
  6
CONTINUOUS
 62
     6
 10
25340.248626301171
 20
14054.590015421951
 30
0.0
 11
25472.848658301162
 21
13961.161687421951
 31
0.0
  0
LINE
  5
18873
  8
2-0
  6
CONTINUOUS
 62
     6
 10
25472.848658301162
 20
13961.161687421951
 30
0.0
 11
25317.115972301159
 21
14006.53720142197
 31
0.0
  0
LINE
  5
18874
  8
2-0
  6
CONTINUOUS
 62
     6
 10
25340.248626301171
 20
14054.590015421951
 30
0.0
 11
25317.115972301159
 21
14006.53720142197
 31
0.0
  0
LINE
  5
18875
  8
2-0
  6
CONTINUOUS
 62
     6
 10
25317.115972301159
 20
14006.53720142197
 30
0.0
 11
25472.848658301162
 21
13961.161687421951
 31
0.0
  0
LINE
  5
18876
  8
2-0
  6
CONTINUOUS
 62
     6
 10
25472.848658301162
 20
13961.161687421951
 30
0.0
 11
25340.248626301171
 21
14054.590015421951
 31
0.0
  0
LINE
  5
18877
  8
2-0
  6
CONTINUOUS
 62
     6
 10
25340.248626301171
 20
14054.590015421951
 30
0.0
 11
25472.848658301162
 21
13961.161687421951
 31
0.0
  0
LINE
  5
18878
  8
2-0
  6
CONTINUOUS
 62
     6
 10
25317.115972301159
 20
14006.53720142197
 30
0.0
 11
25472.848658301162
 21
13961.161687421951
 31
0.0
  0
LINE
  5
18879
  8
2-0
  6
CONTINUOUS
 62
     6
 10
25317.115972301159
 20
14006.53720142197
 30
0.0
 11
25340.248626301171
 21
14054.590015421951
 31
0.0
  0
LINE
  5
1887A
  8
2-0
  6
CONTINUOUS
 62
     6
 10
25400.01227230117
 20
16434.410948421981
 30
0.0
 11
25553.850558301161
 21
16485.844779421979
 31
0.0
  0
LINE
  5
1887B
  8
2-0
  6
CONTINUOUS
 62
     6
 10
25553.850558301161
 20
16485.844779421979
 30
0.0
 11
25425.015571301141
 21
16387.30434442198
 31
0.0
  0
LINE
  5
1887C
  8
2-0
  6
CONTINUOUS
 62
     6
 10
25400.01227230117
 20
16434.410948421981
 30
0.0
 11
25425.015571301141
 21
16387.30434442198
 31
0.0
  0
LINE
  5
1887D
  8
2-0
  6
CONTINUOUS
 62
     6
 10
25425.015571301141
 20
16387.30434442198
 30
0.0
 11
25553.850558301161
 21
16485.844779421979
 31
0.0
  0
LINE
  5
1887E
  8
2-0
  6
CONTINUOUS
 62
     6
 10
25553.850558301161
 20
16485.844779421979
 30
0.0
 11
25400.01227230117
 21
16434.410948421981
 31
0.0
  0
LINE
  5
1887F
  8
2-0
  6
CONTINUOUS
 62
     6
 10
25400.01227230117
 20
16434.410948421981
 30
0.0
 11
25553.850558301161
 21
16485.844779421979
 31
0.0
  0
LINE
  5
18880
  8
2-0
  6
CONTINUOUS
 62
     6
 10
25425.015571301141
 20
16387.30434442198
 30
0.0
 11
25553.850558301161
 21
16485.844779421979
 31
0.0
  0
LINE
  5
18881
  8
2-0
  6
CONTINUOUS
 62
     6
 10
25425.015571301141
 20
16387.30434442198
 30
0.0
 11
25400.01227230117
 21
16434.410948421981
 31
0.0
  0
LINE
  5
18882
  8
2-0
  6
CONTINUOUS
 62
     6
 10
25266.076065301171
 20
16925.729440421979
 30
0.0
 11
25408.959696301179
 21
16848.953811421979
 31
0.0
  0
LINE
  5
18883
  8
2-0
  6
CONTINUOUS
 62
     6
 10
25408.959696301179
 20
16848.953811421979
 30
0.0
 11
25248.897803301159
 21
16875.235880421991
 31
0.0
  0
LINE
  5
18884
  8
2-0
  6
CONTINUOUS
 62
     6
 10
25266.076065301171
 20
16925.729440421979
 30
0.0
 11
25248.897803301159
 21
16875.235880421991
 31
0.0
  0
LINE
  5
18885
  8
2-0
  6
CONTINUOUS
 62
     6
 10
25248.897803301159
 20
16875.235880421991
 30
0.0
 11
25408.959696301179
 21
16848.953811421979
 31
0.0
  0
LINE
  5
18886
  8
2-0
  6
CONTINUOUS
 62
     6
 10
25408.959696301179
 20
16848.953811421979
 30
0.0
 11
25266.076065301171
 21
16925.729440421979
 31
0.0
  0
LINE
  5
18887
  8
2-0
  6
CONTINUOUS
 62
     6
 10
25266.076065301171
 20
16925.729440421979
 30
0.0
 11
25408.959696301179
 21
16848.953811421979
 31
0.0
  0
LINE
  5
18888
  8
2-0
  6
CONTINUOUS
 62
     6
 10
25248.897803301159
 20
16875.235880421991
 30
0.0
 11
25408.959696301179
 21
16848.953811421979
 31
0.0
  0
LINE
  5
18889
  8
2-0
  6
CONTINUOUS
 62
     6
 10
25248.897803301159
 20
16875.235880421991
 30
0.0
 11
25266.076065301171
 21
16925.729440421979
 31
0.0
  0
LINE
  5
1888A
  8
2-0
  6
CONTINUOUS
 62
     3
 10
22230.35359430117
 20
19297.453495421982
 30
0.0
 11
22230.35359430117
 21
19291.457533421981
 31
0.0
  0
LINE
  5
1888B
  8
2-0
  6
CONTINUOUS
 62
     3
 10
22230.35359430117
 20
19291.457533421981
 30
0.0
 11
22200.35596930117
 21
19291.457533421981
 31
0.0
  0
LINE
  5
1888C
  8
2-0
  6
CONTINUOUS
 62
     3
 10
22200.35596930117
 20
19291.457533421981
 30
0.0
 11
22200.35596930117
 21
19406.45370642198
 31
0.0
  0
LINE
  5
1888D
  8
2-0
  6
CONTINUOUS
 62
     3
 10
22200.35596930117
 20
19321.457137421959
 30
0.0
 11
22281.353910301179
 21
19321.457137421959
 31
0.0
  0
LINE
  5
1888E
  8
2-0
  6
CONTINUOUS
 62
     3
 10
22230.35359430117
 20
19281.160077421959
 30
0.0
 11
22200.35596930117
 21
19281.160077421959
 31
0.0
  0
LINE
  5
1888F
  8
2-0
  6
CONTINUOUS
 62
     3
 10
22230.35359430117
 20
19299.161819421981
 30
0.0
 11
22230.35359430117
 21
19281.160077421959
 31
0.0
  0
LINE
  5
18890
  8
2-0
  6
CONTINUOUS
 62
     3
 10
22205.36019230117
 20
19299.161819421981
 30
0.0
 11
22230.35359430117
 21
19299.161819421981
 31
0.0
  0
LINE
  5
18891
  8
2-0
  6
CONTINUOUS
 62
     3
 10
22205.36019230117
 20
19294.15363742198
 30
0.0
 11
22205.36019230117
 21
19299.161819421981
 31
0.0
  0
LINE
  5
18892
  8
2-0
  6
CONTINUOUS
 62
     3
 10
22212.357790301161
 20
19294.15363742198
 30
0.0
 11
22205.36019230117
 21
19294.15363742198
 31
0.0
  0
LINE
  5
18893
  8
2-0
  6
CONTINUOUS
 62
     3
 10
22312.65207930118
 20
19394.453864421968
 30
0.0
 11
22312.65207930118
 21
19401.45938042198
 31
0.0
  0
LINE
  5
18894
  8
2-0
  6
CONTINUOUS
 62
     3
 10
22312.65207930118
 20
19401.45938042198
 30
0.0
 11
22307.64983530117
 21
19401.45938042198
 31
0.0
  0
LINE
  5
18895
  8
2-0
  6
CONTINUOUS
 62
     3
 10
22307.64983530117
 20
19401.45938042198
 30
0.0
 11
22307.64983530117
 21
19376.450143421978
 31
0.0
  0
LINE
  5
18896
  8
2-0
  6
CONTINUOUS
 62
     3
 10
22307.64983530117
 20
19376.450143421978
 30
0.0
 11
22325.657516301151
 21
19376.450143421978
 31
0.0
  0
LINE
  5
18897
  8
2-0
  6
CONTINUOUS
 62
     3
 10
22325.657516301151
 20
19376.450143421978
 30
0.0
 11
22325.657516301151
 21
19406.45370642198
 31
0.0
  0
LINE
  5
18898
  8
2-0
  6
CONTINUOUS
 62
     3
 10
22315.358080301179
 20
19406.45370642198
 30
0.0
 11
22200.35596930117
 21
19406.45370642198
 31
0.0
  0
LINE
  5
18899
  8
2-0
  6
CONTINUOUS
 62
     3
 10
22315.358080301179
 20
19376.450143421978
 30
0.0
 11
22315.358080301179
 21
19406.45370642198
 31
0.0
  0
LINE
  5
1889A
  8
2-0
  6
CONTINUOUS
 62
     3
 10
22309.354201301168
 20
19376.450143421978
 30
0.0
 11
22315.358080301179
 21
19376.450143421978
 31
0.0
  0
LINE
  5
1889B
  8
2-0
  6
CONTINUOUS
 62
     3
 10
22230.35359430117
 20
19297.453495421982
 30
0.0
 11
22230.35359430117
 21
19291.457533421981
 31
0.0
  0
LINE
  5
1889C
  8
2-0
  6
CONTINUOUS
 62
     3
 10
22230.35359430117
 20
19291.457533421981
 30
0.0
 11
22200.35596930117
 21
19291.457533421981
 31
0.0
  0
LINE
  5
1889D
  8
2-0
  6
CONTINUOUS
 62
     3
 10
22200.35596930117
 20
19291.457533421981
 30
0.0
 11
22200.35596930117
 21
19406.45370642198
 31
0.0
  0
LINE
  5
1889E
  8
2-0
  6
CONTINUOUS
 62
     3
 10
22200.35596930117
 20
19321.457137421959
 30
0.0
 11
22281.353910301179
 21
19321.457137421959
 31
0.0
  0
LINE
  5
1889F
  8
2-0
  6
CONTINUOUS
 62
     3
 10
22230.35359430117
 20
19281.160077421959
 30
0.0
 11
22200.35596930117
 21
19281.160077421959
 31
0.0
  0
LINE
  5
188A0
  8
2-0
  6
CONTINUOUS
 62
     3
 10
22230.35359430117
 20
19299.161819421981
 30
0.0
 11
22230.35359430117
 21
19281.160077421959
 31
0.0
  0
LINE
  5
188A1
  8
2-0
  6
CONTINUOUS
 62
     3
 10
22205.36019230117
 20
19299.161819421981
 30
0.0
 11
22230.35359430117
 21
19299.161819421981
 31
0.0
  0
LINE
  5
188A2
  8
2-0
  6
CONTINUOUS
 62
     3
 10
22205.36019230117
 20
19294.15363742198
 30
0.0
 11
22205.36019230117
 21
19299.161819421981
 31
0.0
  0
LINE
  5
188A3
  8
2-0
  6
CONTINUOUS
 62
     3
 10
22212.357790301161
 20
19294.15363742198
 30
0.0
 11
22205.36019230117
 21
19294.15363742198
 31
0.0
  0
LINE
  5
188A4
  8
2-0
  6
CONTINUOUS
 62
     3
 10
22212.357790301161
 20
18940.856814921961
 30
0.0
 11
22205.36019230117
 21
18940.856814921961
 31
0.0
  0
LINE
  5
188A5
  8
2-0
  6
CONTINUOUS
 62
     3
 10
22205.36019230117
 20
18940.856814921961
 30
0.0
 11
22205.36019230117
 21
18945.857078921959
 31
0.0
  0
LINE
  5
188A6
  8
2-0
  6
CONTINUOUS
 62
     3
 10
22205.36019230117
 20
18945.857078921959
 30
0.0
 11
22230.35359430117
 21
18945.857078921959
 31
0.0
  0
LINE
  5
188A7
  8
2-0
  6
CONTINUOUS
 62
     3
 10
22230.35359430117
 20
18945.857078921959
 30
0.0
 11
22230.35359430117
 21
18927.861274921961
 31
0.0
  0
LINE
  5
188A8
  8
2-0
  6
CONTINUOUS
 62
     3
 10
22230.35359430117
 20
18927.861274921961
 30
0.0
 11
22200.35596930117
 21
18927.861274921961
 31
0.0
  0
LINE
  5
188A9
  8
2-0
  6
CONTINUOUS
 62
     3
 10
22230.35359430117
 20
18943.952781921929
 30
0.0
 11
22230.35359430117
 21
18937.954840921961
 31
0.0
  0
LINE
  5
188AA
  8
2-0
  6
CONTINUOUS
 62
     3
 10
22230.35359430117
 20
18937.954840921961
 30
0.0
 11
22200.35596930117
 21
18937.954840921961
 31
0.0
  0
LINE
  5
188AB
  8
2-0
  6
CONTINUOUS
 62
     3
 10
22200.35596930117
 20
18937.954840921961
 30
0.0
 11
22200.35596930117
 21
18974.956001921972
 31
0.0
  0
LINE
  5
188AC
  8
2-0
  6
CONTINUOUS
 62
     3
 10
22230.35359430117
 20
18974.956001921972
 30
0.0
 11
22200.35596930117
 21
18974.956001921972
 31
0.0
  0
LINE
  5
188AD
  8
2-0
  6
CONTINUOUS
 62
     3
 10
22230.35359430117
 20
18968.95212192195
 30
0.0
 11
22230.35359430117
 21
18974.956001921972
 31
0.0
  0
LINE
  5
188AE
  8
2-0
  6
CONTINUOUS
 62
     3
 10
22230.35359430117
 20
18985.05154692195
 30
0.0
 11
22200.35596930117
 21
18985.05154692195
 31
0.0
  0
LINE
  5
188AF
  8
2-0
  6
CONTINUOUS
 62
     3
 10
22230.35359430117
 20
18967.04980492196
 30
0.0
 11
22230.35359430117
 21
18985.05154692195
 31
0.0
  0
LINE
  5
188B0
  8
2-0
  6
CONTINUOUS
 62
     3
 10
22205.36019230117
 20
18967.04980492196
 30
0.0
 11
22230.35359430117
 21
18967.04980492196
 31
0.0
  0
LINE
  5
188B1
  8
2-0
  6
CONTINUOUS
 62
     3
 10
22205.36019230117
 20
18972.050068921959
 30
0.0
 11
22205.36019230117
 21
18967.04980492196
 31
0.0
  0
LINE
  5
188B2
  8
2-0
  6
CONTINUOUS
 62
     3
 10
22212.357790301161
 20
18972.050068921959
 30
0.0
 11
22205.36019230117
 21
18972.050068921959
 31
0.0
  0
LINE
  5
188B3
  8
2-0
  6
CONTINUOUS
 62
     3
 10
22212.357790301161
 20
18239.855825421972
 30
0.0
 11
22205.36019230117
 21
18239.855825421972
 31
0.0
  0
LINE
  5
188B4
  8
2-0
  6
CONTINUOUS
 62
     3
 10
22205.36019230117
 20
18239.855825421972
 30
0.0
 11
22205.36019230117
 21
18244.862027421961
 31
0.0
  0
LINE
  5
188B5
  8
2-0
  6
CONTINUOUS
 62
     3
 10
22205.36019230117
 20
18244.862027421961
 30
0.0
 11
22230.35359430117
 21
18244.862027421961
 31
0.0
  0
LINE
  5
188B6
  8
2-0
  6
CONTINUOUS
 62
     3
 10
22230.35359430117
 20
18244.862027421961
 30
0.0
 11
22230.35359430117
 21
18226.860285421972
 31
0.0
  0
LINE
  5
188B7
  8
2-0
  6
CONTINUOUS
 62
     3
 10
22230.35359430117
 20
18226.860285421972
 30
0.0
 11
22200.35596930117
 21
18226.860285421972
 31
0.0
  0
LINE
  5
188B8
  8
2-0
  6
CONTINUOUS
 62
     3
 10
22230.35359430117
 20
18242.951792421962
 30
0.0
 11
22230.35359430117
 21
18236.955830421961
 31
0.0
  0
LINE
  5
188B9
  8
2-0
  6
CONTINUOUS
 62
     3
 10
22230.35359430117
 20
18236.955830421961
 30
0.0
 11
22200.35596930117
 21
18236.955830421961
 31
0.0
  0
LINE
  5
188BA
  8
2-0
  6
CONTINUOUS
 62
     3
 10
22200.35596930117
 20
18236.955830421961
 30
0.0
 11
22200.35596930117
 21
18273.95501242196
 31
0.0
  0
LINE
  5
188BB
  8
2-0
  6
CONTINUOUS
 62
     3
 10
22230.35359430117
 20
18273.95501242196
 30
0.0
 11
22200.35596930117
 21
18273.95501242196
 31
0.0
  0
LINE
  5
188BC
  8
2-0
  6
CONTINUOUS
 62
     3
 10
22230.35359430117
 20
18267.95905042196
 30
0.0
 11
22230.35359430117
 21
18273.95501242196
 31
0.0
  0
LINE
  5
188BD
  8
2-0
  6
CONTINUOUS
 62
     3
 10
22230.35359430117
 20
18284.050557421971
 30
0.0
 11
22200.35596930117
 21
18284.050557421971
 31
0.0
  0
LINE
  5
188BE
  8
2-0
  6
CONTINUOUS
 62
     3
 10
22230.35359430117
 20
18266.048815421949
 30
0.0
 11
22230.35359430117
 21
18284.050557421971
 31
0.0
  0
LINE
  5
188BF
  8
2-0
  6
CONTINUOUS
 62
     3
 10
22205.36019230117
 20
18266.048815421949
 30
0.0
 11
22230.35359430117
 21
18266.048815421949
 31
0.0
  0
LINE
  5
188C0
  8
2-0
  6
CONTINUOUS
 62
     3
 10
22205.36019230117
 20
18271.055017421961
 30
0.0
 11
22205.36019230117
 21
18266.048815421949
 31
0.0
  0
LINE
  5
188C1
  8
2-0
  6
CONTINUOUS
 62
     3
 10
22212.357790301161
 20
18271.055017421961
 30
0.0
 11
22205.36019230117
 21
18271.055017421961
 31
0.0
  0
LINE
  5
188C2
  8
2-0
  6
CONTINUOUS
 62
     3
 10
22212.357790301161
 20
17570.049079421959
 30
0.0
 11
22205.36019230117
 21
17570.049079421959
 31
0.0
  0
LINE
  5
188C3
  8
2-0
  6
CONTINUOUS
 62
     3
 10
22205.36019230117
 20
17570.049079421959
 30
0.0
 11
22205.36019230117
 21
17565.060692421968
 31
0.0
  0
LINE
  5
188C4
  8
2-0
  6
CONTINUOUS
 62
     3
 10
22205.36019230117
 20
17565.060692421968
 30
0.0
 11
22230.35359430117
 21
17565.060692421968
 31
0.0
  0
LINE
  5
188C5
  8
2-0
  6
CONTINUOUS
 62
     3
 10
22230.35359430117
 20
17565.060692421968
 30
0.0
 11
22230.35359430117
 21
17583.056495421959
 31
0.0
  0
LINE
  5
188C6
  8
2-0
  6
CONTINUOUS
 62
     3
 10
22230.35359430117
 20
17583.056495421959
 30
0.0
 11
22200.35596930117
 21
17583.056495421959
 31
0.0
  0
LINE
  5
188C7
  8
2-0
  6
CONTINUOUS
 62
     3
 10
22230.35359430117
 20
17566.95905042196
 30
0.0
 11
22230.35359430117
 21
17572.95501242195
 31
0.0
  0
LINE
  5
188C8
  8
2-0
  6
CONTINUOUS
 62
     3
 10
22230.35359430117
 20
17572.95501242195
 30
0.0
 11
22200.35596930117
 21
17572.95501242195
 31
0.0
  0
LINE
  5
188C9
  8
2-0
  6
CONTINUOUS
 62
     3
 10
22200.35596930117
 20
17572.95501242195
 30
0.0
 11
22200.35596930117
 21
17535.955830421972
 31
0.0
  0
LINE
  5
188CA
  8
2-0
  6
CONTINUOUS
 62
     3
 10
22230.35359430117
 20
17535.955830421972
 30
0.0
 11
22200.35596930117
 21
17535.955830421972
 31
0.0
  0
LINE
  5
188CB
  8
2-0
  6
CONTINUOUS
 62
     3
 10
22230.35359430117
 20
17541.95773142196
 30
0.0
 11
22230.35359430117
 21
17535.955830421972
 31
0.0
  0
LINE
  5
188CC
  8
2-0
  6
CONTINUOUS
 62
     3
 10
22230.35359430117
 20
17525.866224421959
 30
0.0
 11
22200.35596930117
 21
17525.866224421959
 31
0.0
  0
LINE
  5
188CD
  8
2-0
  6
CONTINUOUS
 62
     3
 10
22230.35359430117
 20
17543.862027421961
 30
0.0
 11
22230.35359430117
 21
17525.866224421959
 31
0.0
  0
LINE
  5
188CE
  8
2-0
  6
CONTINUOUS
 62
     3
 10
22205.36019230117
 20
17543.862027421961
 30
0.0
 11
22230.35359430117
 21
17543.862027421961
 31
0.0
  0
LINE
  5
188CF
  8
2-0
  6
CONTINUOUS
 62
     3
 10
22205.36019230117
 20
17538.861764421959
 30
0.0
 11
22205.36019230117
 21
17543.862027421961
 31
0.0
  0
LINE
  5
188D0
  8
2-0
  6
CONTINUOUS
 62
     3
 10
22212.357790301161
 20
17538.861764421959
 30
0.0
 11
22205.36019230117
 21
17538.861764421959
 31
0.0
  0
LINE
  5
188D1
  8
2-0
  6
CONTINUOUS
 62
     3
 10
22203.242107301168
 20
16818.952650421968
 30
0.0
 11
22203.242107301168
 21
16838.953705421969
 31
0.0
  0
LINE
  5
188D2
  8
2-0
  6
CONTINUOUS
 62
     3
 10
22203.242107301168
 20
16838.953705421969
 30
0.0
 11
22288.24263530118
 21
16838.953705421969
 31
0.0
  0
LINE
  5
188D3
  8
2-0
  6
CONTINUOUS
 62
     3
 10
22212.357790301161
 20
16865.56041542198
 30
0.0
 11
22205.36019230117
 21
16865.56041542198
 31
0.0
  0
LINE
  5
188D4
  8
2-0
  6
CONTINUOUS
 62
     3
 10
22205.36019230117
 20
16865.56041542198
 30
0.0
 11
22205.36019230117
 21
16860.56608942198
 31
0.0
  0
LINE
  5
188D5
  8
2-0
  6
CONTINUOUS
 62
     3
 10
22205.36019230117
 20
16860.56608942198
 30
0.0
 11
22230.35359430117
 21
16860.56608942198
 31
0.0
  0
LINE
  5
188D6
  8
2-0
  6
CONTINUOUS
 62
     3
 10
22230.35359430117
 20
16860.56608942198
 30
0.0
 11
22230.35359430117
 21
16878.561893421971
 31
0.0
  0
LINE
  5
188D7
  8
2-0
  6
CONTINUOUS
 62
     3
 10
22230.35359430117
 20
16878.561893421971
 30
0.0
 11
22200.35596930117
 21
16878.561893421971
 31
0.0
  0
LINE
  5
188D8
  8
2-0
  6
CONTINUOUS
 62
     3
 10
22230.35359430117
 20
16868.953309421959
 30
0.0
 11
22230.35359430117
 21
16862.951409421959
 31
0.0
  0
LINE
  5
188D9
  8
2-0
  6
CONTINUOUS
 62
     3
 10
22200.35596930117
 20
16868.953309421959
 30
0.0
 11
22230.35359430117
 21
16868.953309421959
 31
0.0
  0
LINE
  5
188DA
  8
2-0
  6
CONTINUOUS
 62
     3
 10
22200.35596930117
 20
16878.561893421971
 30
0.0
 11
22200.35596930117
 21
17525.866224421959
 31
0.0
  0
LINE
  5
188DB
  8
2-0
  6
CONTINUOUS
 62
     3
 10
22200.35596930117
 20
17583.056495421959
 30
0.0
 11
22200.35596930117
 21
18226.860285421972
 31
0.0
  0
LINE
  5
188DC
  8
2-0
  6
CONTINUOUS
 62
     3
 10
22200.35596930117
 20
16723.951594421978
 30
0.0
 11
22230.35359430117
 21
16723.951594421978
 31
0.0
  0
LINE
  5
188DD
  8
2-0
  6
CONTINUOUS
 62
     3
 10
22230.35359430117
 20
16723.951594421978
 30
0.0
 11
22230.35359430117
 21
16729.95349442197
 31
0.0
  0
LINE
  5
188DE
  8
2-0
  6
CONTINUOUS
 62
     3
 10
22288.24263530118
 20
16753.957137421959
 30
0.0
 11
22203.242107301168
 21
16753.957137421959
 31
0.0
  0
LINE
  5
188DF
  8
2-0
  6
CONTINUOUS
 62
     3
 10
22203.242107301168
 20
16753.957137421959
 30
0.0
 11
22203.242107301168
 21
16773.95225442198
 31
0.0
  0
LINE
  5
188E0
  8
2-0
  6
CONTINUOUS
 62
     3
 10
22230.35359430117
 20
16714.34301142197
 30
0.0
 11
22200.35596930117
 21
16714.34301142197
 31
0.0
  0
LINE
  5
188E1
  8
2-0
  6
CONTINUOUS
 62
     3
 10
22230.35359430117
 20
16732.33881442195
 30
0.0
 11
22230.35359430117
 21
16714.34301142197
 31
0.0
  0
LINE
  5
188E2
  8
2-0
  6
CONTINUOUS
 62
     3
 10
22205.36019230117
 20
16732.33881442195
 30
0.0
 11
22230.35359430117
 21
16732.33881442195
 31
0.0
  0
LINE
  5
188E3
  8
2-0
  6
CONTINUOUS
 62
     3
 10
22205.36019230117
 20
16727.33855042198
 30
0.0
 11
22205.36019230117
 21
16732.33881442195
 31
0.0
  0
LINE
  5
188E4
  8
2-0
  6
CONTINUOUS
 62
     3
 10
22212.357790301161
 20
16727.33855042198
 30
0.0
 11
22205.36019230117
 21
16727.33855042198
 31
0.0
  0
LINE
  5
188E5
  8
2-0
  6
CONTINUOUS
 62
     3
 10
22212.357790301161
 20
16022.85631992195
 30
0.0
 11
22205.36019230117
 21
16022.85631992195
 31
0.0
  0
LINE
  5
188E6
  8
2-0
  6
CONTINUOUS
 62
     3
 10
22205.36019230117
 20
16022.85631992195
 30
0.0
 11
22205.36019230117
 21
16027.856583921959
 31
0.0
  0
LINE
  5
188E7
  8
2-0
  6
CONTINUOUS
 62
     3
 10
22205.36019230117
 20
16027.856583921959
 30
0.0
 11
22230.35359430117
 21
16027.856583921959
 31
0.0
  0
LINE
  5
188E8
  8
2-0
  6
CONTINUOUS
 62
     3
 10
22230.35359430117
 20
16027.856583921959
 30
0.0
 11
22230.35359430117
 21
16009.85484192197
 31
0.0
  0
LINE
  5
188E9
  8
2-0
  6
CONTINUOUS
 62
     3
 10
22230.35359430117
 20
16009.85484192197
 30
0.0
 11
22200.35596930117
 21
16009.85484192197
 31
0.0
  0
LINE
  5
188EA
  8
2-0
  6
CONTINUOUS
 62
     3
 10
22230.35359430117
 20
16025.95228692196
 30
0.0
 11
22230.35359430117
 21
16019.95533592197
 31
0.0
  0
LINE
  5
188EB
  8
2-0
  6
CONTINUOUS
 62
     3
 10
22230.35359430117
 20
16019.95533592197
 30
0.0
 11
22200.35596930117
 21
16019.95533592197
 31
0.0
  0
LINE
  5
188EC
  8
2-0
  6
CONTINUOUS
 62
     3
 10
22200.35596930117
 20
16019.95533592197
 30
0.0
 11
22200.35596930117
 21
16056.95550692197
 31
0.0
  0
LINE
  5
188ED
  8
2-0
  6
CONTINUOUS
 62
     3
 10
22230.35359430117
 20
16056.95550692197
 30
0.0
 11
22200.35596930117
 21
16056.95550692197
 31
0.0
  0
LINE
  5
188EE
  8
2-0
  6
CONTINUOUS
 62
     3
 10
22230.35359430117
 20
16050.952616921961
 30
0.0
 11
22230.35359430117
 21
16056.95550692197
 31
0.0
  0
LINE
  5
188EF
  8
2-0
  6
CONTINUOUS
 62
     3
 10
22230.35359430117
 20
16067.05105192197
 30
0.0
 11
22200.35596930117
 21
16067.05105192197
 31
0.0
  0
LINE
  5
188F0
  8
2-0
  6
CONTINUOUS
 62
     3
 10
22230.35359430117
 20
16049.04337092196
 30
0.0
 11
22230.35359430117
 21
16067.05105192197
 31
0.0
  0
LINE
  5
188F1
  8
2-0
  6
CONTINUOUS
 62
     3
 10
22205.36019230117
 20
16049.04337092196
 30
0.0
 11
22230.35359430117
 21
16049.04337092196
 31
0.0
  0
LINE
  5
188F2
  8
2-0
  6
CONTINUOUS
 62
     3
 10
22205.36019230117
 20
16054.04957392197
 30
0.0
 11
22205.36019230117
 21
16049.04337092196
 31
0.0
  0
LINE
  5
188F3
  8
2-0
  6
CONTINUOUS
 62
     3
 10
22212.357790301161
 20
16054.04957392197
 30
0.0
 11
22205.36019230117
 21
16054.04957392197
 31
0.0
  0
LINE
  5
188F4
  8
2-0
  6
CONTINUOUS
 62
     3
 10
22212.357790301161
 20
15353.28959042198
 30
0.0
 11
22205.36019230117
 21
15353.28959042198
 31
0.0
  0
LINE
  5
188F5
  8
2-0
  6
CONTINUOUS
 62
     3
 10
22205.36019230117
 20
15353.28959042198
 30
0.0
 11
22205.36019230117
 21
15348.295265421981
 31
0.0
  0
LINE
  5
188F6
  8
2-0
  6
CONTINUOUS
 62
     3
 10
22205.36019230117
 20
15348.295265421981
 30
0.0
 11
22230.35359430117
 21
15348.295265421981
 31
0.0
  0
LINE
  5
188F7
  8
2-0
  6
CONTINUOUS
 62
     3
 10
22230.35359430117
 20
15348.295265421981
 30
0.0
 11
22230.35359430117
 21
15366.291068421981
 31
0.0
  0
LINE
  5
188F8
  8
2-0
  6
CONTINUOUS
 62
     3
 10
22230.35359430117
 20
15366.291068421981
 30
0.0
 11
22200.35596930117
 21
15366.291068421981
 31
0.0
  0
LINE
  5
188F9
  8
2-0
  6
CONTINUOUS
 62
     3
 10
22230.35359430117
 20
15350.19362342197
 30
0.0
 11
22230.35359430117
 21
15356.19552342198
 31
0.0
  0
LINE
  5
188FA
  8
2-0
  6
CONTINUOUS
 62
     3
 10
22230.35359430117
 20
15356.19552342198
 30
0.0
 11
22200.35596930117
 21
15356.19552342198
 31
0.0
  0
LINE
  5
188FB
  8
2-0
  6
CONTINUOUS
 62
     3
 10
22200.35596930117
 20
15319.19634242199
 30
0.0
 11
22200.35596930117
 21
15356.19552342198
 31
0.0
  0
LINE
  5
188FC
  8
2-0
  6
CONTINUOUS
 62
     3
 10
22230.35359430117
 20
15319.19634242199
 30
0.0
 11
22200.35596930117
 21
15319.19634242199
 31
0.0
  0
LINE
  5
188FD
  8
2-0
  6
CONTINUOUS
 62
     3
 10
22230.35359430117
 20
15325.19329342196
 30
0.0
 11
22230.35359430117
 21
15319.19634242199
 31
0.0
  0
LINE
  5
188FE
  8
2-0
  6
CONTINUOUS
 62
     3
 10
22230.35359430117
 20
15309.09485842196
 30
0.0
 11
22200.35596930117
 21
15309.09485842196
 31
0.0
  0
LINE
  5
188FF
  8
2-0
  6
CONTINUOUS
 62
     3
 10
22230.35359430117
 20
15327.102539421971
 30
0.0
 11
22230.35359430117
 21
15309.09485842196
 31
0.0
  0
LINE
  5
18900
  8
2-0
  6
CONTINUOUS
 62
     3
 10
22205.36019230117
 20
15327.102539421971
 30
0.0
 11
22230.35359430117
 21
15327.102539421971
 31
0.0
  0
LINE
  5
18901
  8
2-0
  6
CONTINUOUS
 62
     3
 10
22205.36019230117
 20
15322.10227542199
 30
0.0
 11
22205.36019230117
 21
15327.102539421971
 31
0.0
  0
LINE
  5
18902
  8
2-0
  6
CONTINUOUS
 62
     3
 10
22212.357790301161
 20
15322.10227542199
 30
0.0
 11
22205.36019230117
 21
15322.10227542199
 31
0.0
  0
LINE
  5
18903
  8
2-0
  6
CONTINUOUS
 62
     3
 10
22200.35596930117
 20
16714.34301142197
 30
0.0
 11
22200.35596930117
 21
16067.05105192197
 31
0.0
  0
LINE
  5
18904
  8
2-0
  6
CONTINUOUS
 62
     3
 10
22200.35596930117
 20
16868.953309421959
 30
0.0
 11
22200.35596930117
 21
16723.951594421978
 31
0.0
  0
LINE
  5
18905
  8
2-0
  6
CONTINUOUS
 62
     3
 10
22288.24263530118
 20
16838.953705421969
 30
0.0
 11
22288.24263530118
 21
16753.957137421959
 31
0.0
  0
LINE
  5
18906
  8
2-0
  6
CONTINUOUS
 62
     3
 10
22212.357790301161
 20
14620.86126842197
 30
0.0
 11
22205.36019230117
 21
14620.86126842197
 31
0.0
  0
LINE
  5
18907
  8
2-0
  6
CONTINUOUS
 62
     3
 10
22205.36019230117
 20
14620.86126842197
 30
0.0
 11
22205.36019230117
 21
14625.855594421981
 31
0.0
  0
LINE
  5
18908
  8
2-0
  6
CONTINUOUS
 62
     3
 10
22205.36019230117
 20
14625.855594421981
 30
0.0
 11
22230.35359430117
 21
14625.855594421981
 31
0.0
  0
LINE
  5
18909
  8
2-0
  6
CONTINUOUS
 62
     3
 10
22230.35359430117
 20
14625.855594421981
 30
0.0
 11
22230.35359430117
 21
14607.859790421981
 31
0.0
  0
LINE
  5
1890A
  8
2-0
  6
CONTINUOUS
 62
     3
 10
22230.35359430117
 20
14607.859790421981
 30
0.0
 11
22200.35596930117
 21
14607.859790421981
 31
0.0
  0
LINE
  5
1890B
  8
2-0
  6
CONTINUOUS
 62
     3
 10
22230.35359430117
 20
14623.95822542198
 30
0.0
 11
22230.35359430117
 21
14617.955335421981
 31
0.0
  0
LINE
  5
1890C
  8
2-0
  6
CONTINUOUS
 62
     3
 10
22230.35359430117
 20
14617.955335421981
 30
0.0
 11
22200.35596930117
 21
14617.955335421981
 31
0.0
  0
LINE
  5
1890D
  8
2-0
  6
CONTINUOUS
 62
     3
 10
22200.35596930117
 20
14617.955335421981
 30
0.0
 11
22200.35596930117
 21
14654.955507421961
 31
0.0
  0
LINE
  5
1890E
  8
2-0
  6
CONTINUOUS
 62
     3
 10
22230.35359430117
 20
14654.955507421961
 30
0.0
 11
22200.35596930117
 21
14654.955507421961
 31
0.0
  0
LINE
  5
1890F
  8
2-0
  6
CONTINUOUS
 62
     3
 10
22230.35359430117
 20
14648.95855542197
 30
0.0
 11
22230.35359430117
 21
14654.955507421961
 31
0.0
  0
LINE
  5
18910
  8
2-0
  6
CONTINUOUS
 62
     3
 10
22230.35359430117
 20
14665.056000421981
 30
0.0
 11
22200.35596930117
 21
14665.056000421981
 31
0.0
  0
LINE
  5
18911
  8
2-0
  6
CONTINUOUS
 62
     3
 10
22230.35359430117
 20
14647.04930942198
 30
0.0
 11
22230.35359430117
 21
14665.056000421981
 31
0.0
  0
LINE
  5
18912
  8
2-0
  6
CONTINUOUS
 62
     3
 10
22205.36019230117
 20
14647.04930942198
 30
0.0
 11
22230.35359430117
 21
14647.04930942198
 31
0.0
  0
LINE
  5
18913
  8
2-0
  6
CONTINUOUS
 62
     3
 10
22205.36019230117
 20
14652.05452242198
 30
0.0
 11
22205.36019230117
 21
14647.04930942198
 31
0.0
  0
LINE
  5
18914
  8
2-0
  6
CONTINUOUS
 62
     3
 10
22212.357790301161
 20
14652.05452242198
 30
0.0
 11
22205.36019230117
 21
14652.05452242198
 31
0.0
  0
LINE
  5
18915
  8
2-0
  6
CONTINUOUS
 62
     3
 10
22230.35359430117
 20
13944.957348421971
 30
0.0
 11
22230.35359430117
 21
13950.962217421969
 31
0.0
  0
LINE
  5
18916
  8
2-0
  6
CONTINUOUS
 62
     3
 10
22230.35359430117
 20
13950.962217421969
 30
0.0
 11
22200.35596930117
 21
13950.962217421969
 31
0.0
  0
LINE
  5
18917
  8
2-0
  6
CONTINUOUS
 62
     3
 10
22200.35596930117
 20
13950.962217421969
 30
0.0
 11
22200.35596930117
 21
13835.958126421971
 31
0.0
  0
LINE
  5
18918
  8
2-0
  6
CONTINUOUS
 62
     3
 10
22200.35596930117
 20
13835.958126421971
 30
0.0
 11
22285.354517301159
 21
13835.958126421971
 31
0.0
  0
LINE
  5
18919
  8
2-0
  6
CONTINUOUS
 62
     3
 10
22285.354517301159
 20
13835.958126421971
 30
0.0
 11
22285.354517301159
 21
13920.953705421971
 31
0.0
  0
LINE
  5
1891A
  8
2-0
  6
CONTINUOUS
 62
     3
 10
22285.354517301159
 20
13920.953705421971
 30
0.0
 11
22253.357579301159
 21
13920.953705421971
 31
0.0
  0
LINE
  5
1891B
  8
2-0
  6
CONTINUOUS
 62
     3
 10
22212.357790301161
 20
13947.991950421971
 30
0.0
 11
22205.36019230117
 21
13947.991950421971
 31
0.0
  0
LINE
  5
1891C
  8
2-0
  6
CONTINUOUS
 62
     3
 10
22205.36019230117
 20
13947.991950421971
 30
0.0
 11
22205.36019230117
 21
13942.99465542195
 31
0.0
  0
LINE
  5
1891D
  8
2-0
  6
CONTINUOUS
 62
     3
 10
22205.36019230117
 20
13942.99465542195
 30
0.0
 11
22230.35359430117
 21
13942.99465542195
 31
0.0
  0
LINE
  5
1891E
  8
2-0
  6
CONTINUOUS
 62
     3
 10
22230.35359430117
 20
13942.99465542195
 30
0.0
 11
22230.35359430117
 21
13960.993428421971
 31
0.0
  0
LINE
  5
1891F
  8
2-0
  6
CONTINUOUS
 62
     3
 10
22230.35359430117
 20
13960.993428421971
 30
0.0
 11
22200.35596930117
 21
13960.993428421971
 31
0.0
  0
LINE
  5
18920
  8
2-0
  6
CONTINUOUS
 62
     3
 10
22200.35596930117
 20
14665.056000421981
 30
0.0
 11
22200.35596930117
 21
15309.09485842196
 31
0.0
  0
LINE
  5
18921
  8
2-0
  6
CONTINUOUS
 62
     3
 10
22200.35596930117
 20
18284.050557421971
 30
0.0
 11
22200.35596930117
 21
18927.861274921961
 31
0.0
  0
LINE
  5
18922
  8
2-0
  6
CONTINUOUS
 62
     3
 10
22200.35596930117
 20
16009.85484192197
 30
0.0
 11
22200.35596930117
 21
15366.291068421981
 31
0.0
  0
LINE
  5
18923
  8
2-0
  6
CONTINUOUS
 62
     3
 10
25553.850558301161
 20
19291.457533421981
 30
0.0
 11
25553.850558301161
 21
19406.45370642198
 31
0.0
  0
LINE
  5
18924
  8
2-0
  6
CONTINUOUS
 62
     3
 10
22200.35596930117
 20
19321.457137421959
 30
0.0
 11
25472.848658301162
 21
19321.457137421959
 31
0.0
  0
LINE
  5
18925
  8
2-0
  6
CONTINUOUS
 62
     3
 10
22200.35596930117
 20
13960.993428421971
 30
0.0
 11
22200.35596930117
 21
14607.859790421981
 31
0.0
  0
LINE
  5
18926
  8
2-0
  6
CONTINUOUS
 62
     3
 10
25553.850558301161
 20
19281.160077421959
 30
0.0
 11
25553.850558301161
 21
18985.051546921961
 31
0.0
  0
LINE
  5
18927
  8
2-0
  6
CONTINUOUS
 62
     3
 10
22200.35596930117
 20
19281.160077421959
 30
0.0
 11
22200.35596930117
 21
18985.05154692195
 31
0.0
  0
LINE
  5
18928
  8
2-0
  6
CONTINUOUS
 62
     3
 10
22281.353910301179
 20
13920.953705421971
 30
0.0
 11
22281.353910301179
 21
19406.45370642198
 31
0.0
  0
LINE
  5
18929
  8
2-0
  6
CONTINUOUS
 62
     3
 10
25472.848658301162
 20
13920.953705421971
 30
0.0
 11
25472.848658301162
 21
19406.45370642198
 31
0.0
  0
TEXT
  5
1892A
  8
2-0
  6
CONTINUOUS
 62
     7
 10
23908.19758130116
 20
13318.456543421969
 30
0.0
 40
160.0
  1
前柱（右）
 50
0.000213
 72
     4
 11
24324.19728389418
 21
13398.45808992276
 31
0.0
  0
TEXT
  5
1892B
  8
2-0
  6
CONTINUOUS
 62
     7
 10
24112.792704301159
 20
16246.94855942199
 30
0.0
 40
160.0
  1
壁パネル
 50
359.99982299999999
 72
     4
 11
24475.45961810472
 21
16326.947439059861
 31
0.0
  0
TEXT
  5
1892C
  8
2-0
  6
CONTINUOUS
 62
     7
 10
23832.789800301169
 20
17084.13645542198
 30
0.0
 40
160.0
  1
中柱（左右）
 50
0.000354
 72
     4
 11
24350.122639347381
 21
17164.139651746631
 31
0.0
  0
TEXT
  5
1892D
  8
2-0
  6
CONTINUOUS
 62
     7
 10
24512.792044301161
 20
14291.49780942197
 30
0.0
 40
160.0
  1
下枠
 50
0.001063
 72
     4
 11
24683.45722671046
 21
14371.500975761261
 31
0.0
  0
TEXT
  5
1892E
  8
2-0
  6
CONTINUOUS
 62
     7
 10
24007.757468301181
 20
18687.405193921961
 30
0.0
 40
160.0
  1
間柱（側）
 72
     4
 11
24429.090801634509
 21
18767.405193921961
 31
0.0
  0
TEXT
  5
1892F
  8
2-0
  6
CONTINUOUS
 62
     7
 10
26326.347787301169
 20
20216.45291442197
 30
0.0
 40
160.0
  1
後柱（左右）
 50
0.000354
 72
     4
 11
26838.347293014151
 21
20296.45607779481
 31
0.0
  0
LINE
  5
18930
  8
2-0
  6
CONTINUOUS
 62
     3
 10
24771.852855301149
 20
19406.45370642198
 30
0.0
 11
24734.851693301182
 21
19406.45370642198
 31
0.0
  0
LINE
  5
18931
  8
2-0
  6
CONTINUOUS
 62
     3
 10
24771.852855301149
 20
19376.450143421978
 30
0.0
 11
24771.852855301149
 21
19406.45370642198
 31
0.0
  0
LINE
  5
18932
  8
2-0
  6
CONTINUOUS
 62
     3
 10
24765.85293430114
 20
19376.450143421978
 30
0.0
 11
24771.852855301149
 21
19376.450143421978
 31
0.0
  0
LINE
  5
18933
  8
2-0
  6
CONTINUOUS
 62
     3
 10
24781.950379301179
 20
19376.450143421978
 30
0.0
 11
24781.950379301179
 21
19406.45370642198
 31
0.0
  0
LINE
  5
18934
  8
2-0
  6
CONTINUOUS
 62
     3
 10
24763.946658301182
 20
19376.450143421978
 30
0.0
 11
24781.950379301179
 21
19376.450143421978
 31
0.0
  0
LINE
  5
18935
  8
2-0
  6
CONTINUOUS
 62
     3
 10
24763.946658301182
 20
19401.45938042198
 30
0.0
 11
24763.946658301182
 21
19376.450143421978
 31
0.0
  0
LINE
  5
18936
  8
2-0
  6
CONTINUOUS
 62
     3
 10
24768.94692230118
 20
19401.45938042198
 30
0.0
 11
24763.946658301182
 21
19401.45938042198
 31
0.0
  0
LINE
  5
18937
  8
2-0
  6
CONTINUOUS
 62
     3
 10
24768.94692230118
 20
19394.453864421968
 30
0.0
 11
24768.94692230118
 21
19401.45938042198
 31
0.0
  0
LINE
  5
18938
  8
2-0
  6
CONTINUOUS
 62
     3
 10
24737.757627301158
 20
19394.453864421968
 30
0.0
 11
24737.757627301158
 21
19401.45938042198
 31
0.0
  0
LINE
  5
18939
  8
2-0
  6
CONTINUOUS
 62
     3
 10
24737.757627301158
 20
19401.45938042198
 30
0.0
 11
24742.757891301178
 21
19401.45938042198
 31
0.0
  0
LINE
  5
1893A
  8
2-0
  6
CONTINUOUS
 62
     3
 10
24742.757891301178
 20
19401.45938042198
 30
0.0
 11
24742.757891301178
 21
19376.450143421978
 31
0.0
  0
LINE
  5
1893B
  8
2-0
  6
CONTINUOUS
 62
     3
 10
24742.757891301178
 20
19376.450143421978
 30
0.0
 11
24724.758128301179
 21
19376.450143421978
 31
0.0
  0
LINE
  5
1893C
  8
2-0
  6
CONTINUOUS
 62
     3
 10
24724.758128301179
 20
19376.450143421978
 30
0.0
 11
24724.758128301179
 21
19406.45370642198
 31
0.0
  0
LINE
  5
1893D
  8
2-0
  6
CONTINUOUS
 62
     3
 10
24740.851614301158
 20
19376.450143421978
 30
0.0
 11
24734.851693301182
 21
19376.450143421978
 31
0.0
  0
LINE
  5
1893E
  8
2-0
  6
CONTINUOUS
 62
     3
 10
24734.851693301182
 20
19376.450143421978
 30
0.0
 11
24734.851693301182
 21
19406.45370642198
 31
0.0
  0
LINE
  5
1893F
  8
2-0
  6
CONTINUOUS
 62
     3
 10
23366.941972801182
 20
19394.453864421968
 30
0.0
 11
23366.941972801182
 21
19401.45938042198
 31
0.0
  0
LINE
  5
18940
  8
2-0
  6
CONTINUOUS
 62
     3
 10
23366.941972801182
 20
19401.45938042198
 30
0.0
 11
23361.941708801161
 21
19401.45938042198
 31
0.0
  0
LINE
  5
18941
  8
2-0
  6
CONTINUOUS
 62
     3
 10
23361.941708801161
 20
19401.45938042198
 30
0.0
 11
23361.941708801161
 21
19376.450143421978
 31
0.0
  0
LINE
  5
18942
  8
2-0
  6
CONTINUOUS
 62
     3
 10
23361.941708801161
 20
19376.450143421978
 30
0.0
 11
23379.947409801181
 21
19376.450143421978
 31
0.0
  0
LINE
  5
18943
  8
2-0
  6
CONTINUOUS
 62
     3
 10
23379.947409801181
 20
19376.450143421978
 30
0.0
 11
23379.947409801181
 21
19406.45370642198
 31
0.0
  0
LINE
  5
18944
  8
2-0
  6
CONTINUOUS
 62
     3
 10
23363.849964801171
 20
19376.450143421978
 30
0.0
 11
23369.85186480116
 21
19376.450143421978
 31
0.0
  0
LINE
  5
18945
  8
2-0
  6
CONTINUOUS
 62
     3
 10
23369.85186480116
 20
19376.450143421978
 30
0.0
 11
23369.85186480116
 21
19406.45370642198
 31
0.0
  0
LINE
  5
18946
  8
2-0
  6
CONTINUOUS
 62
     3
 10
23332.852683801171
 20
19406.45370642198
 30
0.0
 11
23369.85186480116
 21
19406.45370642198
 31
0.0
  0
LINE
  5
18947
  8
2-0
  6
CONTINUOUS
 62
     3
 10
23332.852683801171
 20
19376.450143421978
 30
0.0
 11
23332.852683801171
 21
19406.45370642198
 31
0.0
  0
LINE
  5
18948
  8
2-0
  6
CONTINUOUS
 62
     3
 10
23338.846665801171
 20
19376.450143421978
 30
0.0
 11
23332.852683801171
 21
19376.450143421978
 31
0.0
  0
LINE
  5
18949
  8
2-0
  6
CONTINUOUS
 62
     3
 10
23322.757138801178
 20
19376.450143421978
 30
0.0
 11
23322.757138801178
 21
19406.45370642198
 31
0.0
  0
LINE
  5
1894A
  8
2-0
  6
CONTINUOUS
 62
     3
 10
23340.752941801169
 20
19376.450143421978
 30
0.0
 11
23322.757138801178
 21
19376.450143421978
 31
0.0
  0
LINE
  5
1894B
  8
2-0
  6
CONTINUOUS
 62
     3
 10
23340.752941801169
 20
19401.45938042198
 30
0.0
 11
23340.752941801169
 21
19376.450143421978
 31
0.0
  0
LINE
  5
1894C
  8
2-0
  6
CONTINUOUS
 62
     3
 10
23335.75267780116
 20
19401.45938042198
 30
0.0
 11
23340.752941801169
 21
19401.45938042198
 31
0.0
  0
LINE
  5
1894D
  8
2-0
  6
CONTINUOUS
 62
     3
 10
23335.75267780116
 20
19394.453864421968
 30
0.0
 11
23335.75267780116
 21
19401.45938042198
 31
0.0
  0
LINE
  5
1894E
  8
2-0
  6
CONTINUOUS
 62
     3
 10
24036.751688801171
 20
19394.453864421968
 30
0.0
 11
24036.751688801171
 21
19401.45938042198
 31
0.0
  0
LINE
  5
1894F
  8
2-0
  6
CONTINUOUS
 62
     3
 10
24036.751688801171
 20
19401.45938042198
 30
0.0
 11
24041.75195180118
 21
19401.45938042198
 31
0.0
  0
LINE
  5
18950
  8
2-0
  6
CONTINUOUS
 62
     3
 10
24041.75195180118
 20
19401.45938042198
 30
0.0
 11
24041.75195180118
 21
19376.450143421978
 31
0.0
  0
LINE
  5
18951
  8
2-0
  6
CONTINUOUS
 62
     3
 10
24041.75195180118
 20
19376.450143421978
 30
0.0
 11
24023.75812880115
 21
19376.450143421978
 31
0.0
  0
LINE
  5
18952
  8
2-0
  6
CONTINUOUS
 62
     3
 10
24023.75812880115
 20
19376.450143421978
 30
0.0
 11
24023.75812880115
 21
19406.45370642198
 31
0.0
  0
LINE
  5
18953
  8
2-0
  6
CONTINUOUS
 62
     3
 10
24039.849634801161
 20
19376.450143421978
 30
0.0
 11
24033.851693801171
 21
19376.450143421978
 31
0.0
  0
LINE
  5
18954
  8
2-0
  6
CONTINUOUS
 62
     3
 10
24033.851693801171
 20
19376.450143421978
 30
0.0
 11
24033.851693801171
 21
19406.45370642198
 31
0.0
  0
LINE
  5
18955
  8
2-0
  6
CONTINUOUS
 62
     3
 10
24070.852854801178
 20
19406.45370642198
 30
0.0
 11
24033.851693801171
 21
19406.45370642198
 31
0.0
  0
LINE
  5
18956
  8
2-0
  6
CONTINUOUS
 62
     3
 10
24070.852854801178
 20
19376.450143421978
 30
0.0
 11
24070.852854801178
 21
19406.45370642198
 31
0.0
  0
LINE
  5
18957
  8
2-0
  6
CONTINUOUS
 62
     3
 10
24064.846995801181
 20
19376.450143421978
 30
0.0
 11
24070.852854801178
 21
19376.450143421978
 31
0.0
  0
LINE
  5
18958
  8
2-0
  6
CONTINUOUS
 62
     3
 10
24080.946419801181
 20
19376.450143421978
 30
0.0
 11
24080.946419801181
 21
19406.45370642198
 31
0.0
  0
LINE
  5
18959
  8
2-0
  6
CONTINUOUS
 62
     3
 10
24062.950616801169
 20
19376.450143421978
 30
0.0
 11
24080.946419801181
 21
19376.450143421978
 31
0.0
  0
LINE
  5
1895A
  8
2-0
  6
CONTINUOUS
 62
     3
 10
24062.950616801169
 20
19401.45938042198
 30
0.0
 11
24062.950616801169
 21
19376.450143421978
 31
0.0
  0
LINE
  5
1895B
  8
2-0
  6
CONTINUOUS
 62
     3
 10
24067.940982801181
 20
19401.45938042198
 30
0.0
 11
24062.950616801169
 21
19401.45938042198
 31
0.0
  0
LINE
  5
1895C
  8
2-0
  6
CONTINUOUS
 62
     3
 10
24067.940982801181
 20
19394.453864421968
 30
0.0
 11
24067.940982801181
 21
19401.45938042198
 31
0.0
  0
LINE
  5
1895D
  8
2-0
  6
CONTINUOUS
 62
     3
 10
23379.947409801181
 20
19406.45370642198
 30
0.0
 11
24023.75812880115
 21
19406.45370642198
 31
0.0
  0
LINE
  5
1895E
  8
2-0
  6
CONTINUOUS
 62
     3
 10
22679.151300301179
 20
19406.45370642198
 30
0.0
 11
23322.757138801178
 21
19406.45370642198
 31
0.0
  0
LINE
  5
1895F
  8
2-0
  6
CONTINUOUS
 62
     3
 10
25429.235904301178
 20
19406.45370642198
 30
0.0
 11
24781.950379301179
 21
19406.45370642198
 31
0.0
  0
LINE
  5
18960
  8
2-0
  6
CONTINUOUS
 62
     3
 10
24724.758128301179
 20
19406.45370642198
 30
0.0
 11
24080.946419801181
 21
19406.45370642198
 31
0.0
  0
LINE
  5
18961
  8
2-0
  6
CONTINUOUS
 62
     3
 10
22665.943952301172
 20
19394.453864421968
 30
0.0
 11
22665.943952301172
 21
19401.45938042198
 31
0.0
  0
LINE
  5
18962
  8
2-0
  6
CONTINUOUS
 62
     3
 10
22665.943952301172
 20
19401.45938042198
 30
0.0
 11
22660.943688301159
 21
19401.45938042198
 31
0.0
  0
LINE
  5
18963
  8
2-0
  6
CONTINUOUS
 62
     3
 10
22660.943688301159
 20
19401.45938042198
 30
0.0
 11
22660.943688301159
 21
19376.450143421978
 31
0.0
  0
LINE
  5
18964
  8
2-0
  6
CONTINUOUS
 62
     3
 10
22660.943688301159
 20
19376.450143421978
 30
0.0
 11
22678.945430301181
 21
19376.450143421978
 31
0.0
  0
LINE
  5
18965
  8
2-0
  6
CONTINUOUS
 62
     3
 10
22678.945430301181
 20
19376.450143421978
 30
0.0
 11
22678.945430301181
 21
19406.45370642198
 31
0.0
  0
LINE
  5
18966
  8
2-0
  6
CONTINUOUS
 62
     3
 10
22662.846005301191
 20
19376.450143421978
 30
0.0
 11
22668.849885301159
 21
19376.450143421978
 31
0.0
  0
LINE
  5
18967
  8
2-0
  6
CONTINUOUS
 62
     3
 10
22668.849885301159
 20
19376.450143421978
 30
0.0
 11
22668.849885301159
 21
19406.45370642198
 31
0.0
  0
LINE
  5
18968
  8
2-0
  6
CONTINUOUS
 62
     3
 10
22631.854663301161
 20
19406.45370642198
 30
0.0
 11
22668.849885301159
 21
19406.45370642198
 31
0.0
  0
LINE
  5
18969
  8
2-0
  6
CONTINUOUS
 62
     3
 10
22631.854663301161
 20
19376.450143421978
 30
0.0
 11
22631.854663301161
 21
19406.45370642198
 31
0.0
  0
LINE
  5
1896A
  8
2-0
  6
CONTINUOUS
 62
     3
 10
22637.848645301179
 20
19376.450143421978
 30
0.0
 11
22631.854663301161
 21
19376.450143421978
 31
0.0
  0
LINE
  5
1896B
  8
2-0
  6
CONTINUOUS
 62
     3
 10
22621.75911830119
 20
19376.450143421978
 30
0.0
 11
22621.75911830119
 21
19406.45370642198
 31
0.0
  0
LINE
  5
1896C
  8
2-0
  6
CONTINUOUS
 62
     3
 10
22639.754921301192
 20
19376.450143421978
 30
0.0
 11
22621.75911830119
 21
19376.450143421978
 31
0.0
  0
LINE
  5
1896D
  8
2-0
  6
CONTINUOUS
 62
     3
 10
22639.754921301192
 20
19401.45938042198
 30
0.0
 11
22639.754921301192
 21
19376.450143421978
 31
0.0
  0
LINE
  5
1896E
  8
2-0
  6
CONTINUOUS
 62
     3
 10
22634.75663730118
 20
19401.45938042198
 30
0.0
 11
22639.754921301192
 21
19401.45938042198
 31
0.0
  0
LINE
  5
1896F
  8
2-0
  6
CONTINUOUS
 62
     3
 10
22634.75663730118
 20
19394.453864421968
 30
0.0
 11
22634.75663730118
 21
19401.45938042198
 31
0.0
  0
LINE
  5
18970
  8
2-0
  6
CONTINUOUS
 62
     3
 10
22325.657516301151
 20
19406.45370642198
 30
0.0
 11
22621.75911830119
 21
19406.45370642198
 31
0.0
  0
LINE
  5
18971
  8
2-0
  6
CONTINUOUS
 62
     3
 10
25553.850558301161
 20
15309.09485842198
 30
0.0
 11
25553.850558301161
 21
14665.056000421981
 31
0.0
  0
LINE
  5
18972
  8
2-0
  6
CONTINUOUS
 62
     3
 10
25553.850558301161
 20
14607.85979042197
 30
0.0
 11
25553.850558301161
 21
13960.993428421971
 31
0.0
  0
LINE
  5
18973
  8
0-6
  6
CONTINUOUS
 62
     6
 10
22594.176532801172
 20
18695.13547842198
 30
0.0
 11
23619.216782801192
 21
18695.13547842198
 31
0.0
  0
LINE
  5
18974
  8
0-6
  6
CONTINUOUS
 62
     6
 10
23919.141560801181
 20
19252.488730421988
 30
0.0
 11
24023.757138801178
 21
19376.450143421978
 31
0.0
  0
LINE
  5
18975
  8
0-6
  6
CONTINUOUS
 62
     6
 10
24023.757138801178
 20
19376.450143421978
 30
0.0
 11
23964.999088801149
 21
19225.258473421982
 31
0.0
  0
LINE
  5
18976
  8
0-6
  6
CONTINUOUS
 62
     6
 10
24023.757138801178
 20
19376.450143421978
 30
0.0
 11
23919.141560801181
 21
19252.488730421988
 31
0.0
  0
LINE
  5
18977
  8
0-6
  6
CONTINUOUS
 62
     6
 10
23919.141560801181
 20
19252.488730421988
 30
0.0
 11
23964.999088801149
 21
19225.258473421982
 31
0.0
  0
LINE
  5
18978
  8
0-6
  6
CONTINUOUS
 62
     6
 10
23964.999088801149
 20
19225.258473421982
 30
0.0
 11
24023.757138801178
 21
19376.450143421978
 31
0.0
  0
LINE
  5
18979
  8
0-6
  6
CONTINUOUS
 62
     6
 10
23964.999088801149
 20
19225.258473421982
 30
0.0
 11
23919.141560801181
 21
19252.488730421988
 31
0.0
  0
LINE
  5
1897A
  8
0-6
  6
CONTINUOUS
 62
     6
 10
23942.070324801181
 20
19238.87558142198
 30
0.0
 11
23619.216782801192
 21
18695.13547842198
 31
0.0
  0
TEXT
  5
1897B
  8
0-6
  6
CONTINUOUS
 62
     7
 10
22674.176796801181
 20
18775.13772242198
 30
0.0
 40
160.0
  1
間柱（後）
 72
     4
 11
23095.51013013452
 21
18855.13772242198
 31
0.0
  0
LINE
  5
1897C
  8
SUNPOU
  6
CONTINUOUS
 62
     4
 10
25633.850558301161
 20
18956.455421421961
 30
0.0
 11
26683.85187830116
 21
18956.45542142195
 31
0.0
  0
LINE
  5
1897D
  8
SUNPOU
  6
CONTINUOUS
 62
     4
 10
26483.85187830116
 20
19363.955421421972
 30
0.0
 11
26683.85187830116
 21
19363.95542142195
 31
0.0
  0
LINE
  5
1897E
  8
SUNPOU
  6
CONTINUOUS
 62
     4
 10
26603.85187830116
 20
18956.45542142195
 30
0.0
 11
26603.85187830116
 21
19363.95542142195
 31
0.0
  0
LINE
  5
1897F
  8
SUNPOU
  6
CONTINUOUS
 62
     4
 10
22242.852274301182
 20
13172.69198742196
 30
0.0
 11
22242.852274301182
 21
12827.007337421959
 31
0.0
  0
LINE
  5
18980
  8
SUNPOU
  6
CONTINUOUS
 62
     4
 10
22200.35003130119
 20
13755.958126421971
 30
0.0
 11
22200.35003130119
 21
12827.007337421959
 31
0.0
  0
LINE
  5
18981
  8
SUNPOU
  6
CONTINUOUS
 62
     4
 10
22242.852274301182
 20
12907.00733742197
 30
0.0
 11
22482.852274301182
 21
12907.00733742197
 31
0.0
  0
LINE
  5
18982
  8
SUNPOU
  6
CONTINUOUS
 62
     4
 10
22200.35003130119
 20
12907.00733742197
 30
0.0
 11
21960.35003130119
 21
12907.00733742197
 31
0.0
  0
LINE
  5
18983
  8
SUNPOU
  6
CONTINUOUS
 62
     4
 10
22242.852274301182
 20
12907.00733742197
 30
0.0
 11
22200.35003130119
 21
12907.00733742197
 31
0.0
  0
LINE
  5
18984
  8
SUNPOU
  6
CONTINUOUS
 62
     4
 10
25511.352274301182
 20
13172.69198742196
 30
0.0
 11
25511.352274301182
 21
12827.007337421959
 31
0.0
  0
LINE
  5
18985
  8
SUNPOU
  6
CONTINUOUS
 62
     4
 10
25553.85451730117
 20
13755.958126421971
 30
0.0
 11
25553.85451730117
 21
12827.007337421959
 31
0.0
  0
LINE
  5
18986
  8
SUNPOU
  6
CONTINUOUS
 62
     4
 10
25511.352274301182
 20
12907.00733742197
 30
0.0
 11
25271.352274301182
 21
12907.00733742197
 31
0.0
  0
LINE
  5
18987
  8
SUNPOU
  6
CONTINUOUS
 62
     4
 10
25553.85451730117
 20
12907.00733742197
 30
0.0
 11
25793.85451730117
 21
12907.00733742197
 31
0.0
  0
LINE
  5
18988
  8
SUNPOU
  6
CONTINUOUS
 62
     4
 10
25511.352274301182
 20
12907.00733742197
 30
0.0
 11
25553.85451730117
 21
12907.00733742197
 31
0.0
  0
LINE
  5
18989
  8
SUNPOU
  6
CONTINUOUS
 62
     4
 10
25511.352274301182
 20
13172.69198742196
 30
0.0
 11
25511.352274301182
 21
12827.007337421959
 31
0.0
  0
LINE
  5
1898A
  8
SUNPOU
  6
CONTINUOUS
 62
     4
 10
25468.850031301168
 20
13755.958126421971
 30
0.0
 11
25468.850031301168
 21
12827.007337421959
 31
0.0
  0
LINE
  5
1898B
  8
SUNPOU
  6
CONTINUOUS
 62
     4
 10
25511.352274301182
 20
12907.00733742197
 30
0.0
 11
25751.352274301182
 21
12907.00733742197
 31
0.0
  0
LINE
  5
1898C
  8
SUNPOU
  6
CONTINUOUS
 62
     4
 10
25468.850031301168
 20
12907.00733742197
 30
0.0
 11
25228.850031301168
 21
12907.00733742197
 31
0.0
  0
LINE
  5
1898D
  8
SUNPOU
  6
CONTINUOUS
 62
     4
 10
25511.352274301182
 20
12907.00733742197
 30
0.0
 11
25468.850031301168
 21
12907.00733742197
 31
0.0
  0
LINE
  5
1898E
  8
SUNPOU
  6
CONTINUOUS
 62
     4
 10
22242.852274301182
 20
13878.455421421961
 30
0.0
 11
22242.852274301182
 21
12827.007337421959
 31
0.0
  0
LINE
  5
1898F
  8
SUNPOU
  6
CONTINUOUS
 62
     4
 10
22285.354517301159
 20
13755.958126421971
 30
0.0
 11
22285.354517301159
 21
12827.007337421959
 31
0.0
  0
LINE
  5
18990
  8
SUNPOU
  6
CONTINUOUS
 62
     4
 10
22242.852274301182
 20
12907.00733742197
 30
0.0
 11
22002.852274301182
 21
12907.00733742197
 31
0.0
  0
LINE
  5
18991
  8
SUNPOU
  6
CONTINUOUS
 62
     4
 10
22285.354517301159
 20
12907.00733742197
 30
0.0
 11
22525.354517301159
 21
12907.00733742197
 31
0.0
  0
LINE
  5
18992
  8
SUNPOU
  6
CONTINUOUS
 62
     4
 10
22242.852274301182
 20
12907.00733742197
 30
0.0
 11
22285.354517301159
 21
12907.00733742197
 31
0.0
  0
LINE
  5
18993
  8
SUNPOU
  6
CONTINUOUS
 62
     4
 10
22200.35003130119
 20
13755.958126421971
 30
0.0
 11
22200.35003130119
 21
12427.007337421959
 31
0.0
  0
LINE
  5
18994
  8
SUNPOU
  6
CONTINUOUS
 62
     4
 10
25553.85451730117
 20
13755.958126421971
 30
0.0
 11
25553.85451730117
 21
12427.007337421959
 31
0.0
  0
LINE
  5
18995
  8
SUNPOU
  6
CONTINUOUS
 62
     4
 10
22200.35003130119
 20
12507.007337421959
 30
0.0
 11
25553.85451730117
 21
12507.007337421959
 31
0.0
  0
LINE
  5
18996
  8
SUNPOU
  6
CONTINUOUS
 62
     4
 10
25633.850558301161
 20
14636.455421421961
 30
0.0
 11
26683.85187830116
 21
14636.455421421961
 31
0.0
  0
LINE
  5
18997
  8
SUNPOU
  6
CONTINUOUS
 62
     4
 10
26483.85187830116
 20
13878.455421421961
 30
0.0
 11
26683.85187830116
 21
13878.455421421961
 31
0.0
  0
LINE
  5
18998
  8
SUNPOU
  6
CONTINUOUS
 62
     4
 10
26603.85187830116
 20
14636.455421421961
 30
0.0
 11
26603.85187830116
 21
13878.455421421961
 31
0.0
  0
LINE
  5
18999
  8
SUNPOU
  6
CONTINUOUS
 62
     4
 10
25633.850558301161
 20
15337.69593292199
 30
0.0
 11
26683.85187830116
 21
15337.69593292199
 31
0.0
  0
LINE
  5
1899A
  8
SUNPOU
  6
CONTINUOUS
 62
     4
 10
25633.850558301161
 20
14636.455421421961
 30
0.0
 11
26683.85187830116
 21
14636.455421421961
 31
0.0
  0
LINE
  5
1899B
  8
SUNPOU
  6
CONTINUOUS
 62
     4
 10
26603.85187830116
 20
15337.69593292199
 30
0.0
 11
26603.85187830116
 21
14636.455421421961
 31
0.0
  0
LINE
  5
1899C
  8
SUNPOU
  6
CONTINUOUS
 62
     4
 10
25633.850558301161
 20
16038.45542142197
 30
0.0
 11
26683.85187830116
 21
16038.45542142197
 31
0.0
  0
LINE
  5
1899D
  8
SUNPOU
  6
CONTINUOUS
 62
     4
 10
25633.850558301161
 20
15337.69593292199
 30
0.0
 11
26683.85187830116
 21
15337.69593292199
 31
0.0
  0
LINE
  5
1899E
  8
SUNPOU
  6
CONTINUOUS
 62
     4
 10
26603.85187830116
 20
16038.45542142197
 30
0.0
 11
26603.85187830116
 21
15337.69593292199
 31
0.0
  0
LINE
  5
1899F
  8
SUNPOU
  6
CONTINUOUS
 62
     4
 10
26483.85187830116
 20
16796.455421421972
 30
0.0
 11
26683.85187830116
 21
16796.455421421972
 31
0.0
  0
LINE
  5
189A0
  8
SUNPOU
  6
CONTINUOUS
 62
     4
 10
25633.850558301161
 20
16038.45542142197
 30
0.0
 11
26683.85187830116
 21
16038.45542142197
 31
0.0
  0
LINE
  5
189A1
  8
SUNPOU
  6
CONTINUOUS
 62
     4
 10
26603.85187830116
 20
16796.455421421972
 30
0.0
 11
26603.85187830116
 21
16038.45542142197
 31
0.0
  0
LINE
  5
189A2
  8
SUNPOU
  6
CONTINUOUS
 62
     4
 10
25633.850558301161
 20
17554.455421421972
 30
0.0
 11
26683.85187830116
 21
17554.45542142195
 31
0.0
  0
LINE
  5
189A3
  8
SUNPOU
  6
CONTINUOUS
 62
     4
 10
26483.85187830116
 20
16796.455421421972
 30
0.0
 11
26683.85187830116
 21
16796.455421421972
 31
0.0
  0
LINE
  5
189A4
  8
SUNPOU
  6
CONTINUOUS
 62
     4
 10
26603.85187830116
 20
17554.45542142195
 30
0.0
 11
26603.85187830116
 21
16796.455421421972
 31
0.0
  0
LINE
  5
189A5
  8
SUNPOU
  6
CONTINUOUS
 62
     4
 10
25633.850558301161
 20
18255.455421421972
 30
0.0
 11
26683.85187830116
 21
18255.455421421961
 31
0.0
  0
LINE
  5
189A6
  8
SUNPOU
  6
CONTINUOUS
 62
     4
 10
25633.850558301161
 20
17554.455421421972
 30
0.0
 11
26683.85187830116
 21
17554.45542142195
 31
0.0
  0
LINE
  5
189A7
  8
SUNPOU
  6
CONTINUOUS
 62
     4
 10
26603.85187830116
 20
18255.455421421961
 30
0.0
 11
26603.85187830116
 21
17554.45542142195
 31
0.0
  0
LINE
  5
189A8
  8
SUNPOU
  6
CONTINUOUS
 62
     4
 10
25633.850558301161
 20
18956.455421421961
 30
0.0
 11
26683.85187830116
 21
18956.45542142195
 31
0.0
  0
LINE
  5
189A9
  8
SUNPOU
  6
CONTINUOUS
 62
     4
 10
25633.850558301161
 20
18255.455421421972
 30
0.0
 11
26683.85187830116
 21
18255.455421421961
 31
0.0
  0
LINE
  5
189AA
  8
SUNPOU
  6
CONTINUOUS
 62
     4
 10
26603.85187830116
 20
18956.45542142195
 30
0.0
 11
26603.85187830116
 21
18255.455421421961
 31
0.0
  0
LINE
  5
189AB
  8
SUNPOU
  6
CONTINUOUS
 62
     4
 10
26483.85187830116
 20
19363.955421421972
 30
0.0
 11
26683.85187830116
 21
19363.95542142195
 31
0.0
  0
LINE
  5
189AC
  8
SUNPOU
  6
CONTINUOUS
 62
     4
 10
26483.85187830116
 20
13878.455421421961
 30
0.0
 11
26683.85187830116
 21
13878.455421421961
 31
0.0
  0
LINE
  5
189AD
  8
SUNPOU
  6
CONTINUOUS
 62
     4
 10
25633.850558301161
 20
19406.452716421969
 30
0.0
 11
27083.851878301171
 21
19406.452716421969
 31
0.0
  0
LINE
  5
189AE
  8
SUNPOU
  6
CONTINUOUS
 62
     4
 10
25633.850558301161
 20
13835.958126421971
 30
0.0
 11
27083.851878301171
 21
13835.958126421971
 31
0.0
  0
LINE
  5
189AF
  8
SUNPOU
  6
CONTINUOUS
 62
     4
 10
27003.851878301171
 20
19406.452716421969
 30
0.0
 11
27003.851878301171
 21
13835.958126421971
 31
0.0
  0
LINE
  5
189B0
  8
SUNPOU
  6
CONTINUOUS
 62
     4
 10
26483.85187830116
 20
19363.955421421972
 30
0.0
 11
26683.85187830116
 21
19363.95542142195
 31
0.0
  0
LINE
  5
189B1
  8
SUNPOU
  6
CONTINUOUS
 62
     4
 10
25633.850558301161
 20
19406.452716421969
 30
0.0
 11
26683.85187830116
 21
19406.452716421969
 31
0.0
  0
LINE
  5
189B2
  8
SUNPOU
  6
CONTINUOUS
 62
     4
 10
26603.85187830116
 20
19363.95542142195
 30
0.0
 11
26603.85187830116
 21
19123.95542142195
 31
0.0
  0
LINE
  5
189B3
  8
SUNPOU
  6
CONTINUOUS
 62
     4
 10
26603.85187830116
 20
19406.452716421969
 30
0.0
 11
26603.85187830116
 21
19646.452716421969
 31
0.0
  0
LINE
  5
189B4
  8
SUNPOU
  6
CONTINUOUS
 62
     4
 10
26603.85187830116
 20
19363.95542142195
 30
0.0
 11
26603.85187830116
 21
19406.452716421969
 31
0.0
  0
LINE
  5
189B5
  8
SUNPOU
  6
CONTINUOUS
 62
     4
 10
26483.85187830116
 20
13878.455421421961
 30
0.0
 11
26683.85187830116
 21
13878.455421421961
 31
0.0
  0
LINE
  5
189B6
  8
SUNPOU
  6
CONTINUOUS
 62
     4
 10
25633.850558301161
 20
13835.958126421971
 30
0.0
 11
26683.85187830116
 21
13835.958126421971
 31
0.0
  0
LINE
  5
189B7
  8
SUNPOU
  6
CONTINUOUS
 62
     4
 10
26603.85187830116
 20
13878.455421421961
 30
0.0
 11
26603.85187830116
 21
14118.455421421961
 31
0.0
  0
LINE
  5
189B8
  8
SUNPOU
  6
CONTINUOUS
 62
     4
 10
26603.85187830116
 20
13835.958126421971
 30
0.0
 11
26603.85187830116
 21
13595.958126421971
 31
0.0
  0
LINE
  5
189B9
  8
SUNPOU
  6
CONTINUOUS
 62
     4
 10
26603.85187830116
 20
13878.455421421961
 30
0.0
 11
26603.85187830116
 21
13835.958126421971
 31
0.0
  0
TEXT
  5
189BA
  8
0
  6
CONTINUOUS
 62
     7
 10
26523.85187830116
 20
13262.40189002517
 30
0.0
 40
160.0
  1
42.5
 50
90.0
  0
TEXT
  5
189BB
  8
0
  6
CONTINUOUS
 62
     7
 10
26523.85187830116
 20
19500.00895281876
 30
0.0
 40
160.0
  1
42.5
 50
90.0
  0
TEXT
  5
189BC
  8
0
  6
CONTINUOUS
 62
     7
 10
26923.851878301171
 20
16234.538754755309
 30
0.0
 40
160.0
  1
5570.5
 50
90.0
  0
TEXT
  5
189BD
  8
0
  6
CONTINUOUS
 62
     7
 10
26523.85187830116
 20
18432.622088088639
 30
0.0
 40
160.0
  1
701
 50
90.0
  0
TEXT
  5
189BE
  8
0
  6
CONTINUOUS
 62
     7
 10
26523.85187830116
 20
17731.622088088639
 30
0.0
 40
160.0
  1
701
 50
90.0
  0
TEXT
  5
189BF
  8
0
  6
CONTINUOUS
 62
     7
 10
26523.85187830116
 20
16962.122088088639
 30
0.0
 40
160.0
  1
758
 50
90.0
  0
TEXT
  5
189C0
  8
0
  6
CONTINUOUS
 62
     7
 10
26523.85187830116
 20
16204.122088088639
 30
0.0
 40
160.0
  1
758
 50
90.0
  0
TEXT
  5
189C1
  8
0
  6
CONTINUOUS
 62
     7
 10
26523.85187830116
 20
15514.74234383865
 30
0.0
 40
160.0
  1
701
 50
90.0
  0
TEXT
  5
189C2
  8
0
  6
CONTINUOUS
 62
     7
 10
26523.85187830116
 20
14813.74234383865
 30
0.0
 40
160.0
  1
701
 50
90.0
  0
TEXT
  5
189C3
  8
0
  6
CONTINUOUS
 62
     7
 10
26523.85187830116
 20
14044.12208808863
 30
0.0
 40
160.0
  1
758
 50
90.0
  0
TEXT
  5
189C4
  8
0
  6
CONTINUOUS
 62
     7
 10
23477.102274301171
 20
12587.007337421959
 30
0.0
 40
160.0
  1
3353.5
  0
TEXT
  5
189C5
  8
0
  6
CONTINUOUS
 62
     7
 10
22360.905946683251
 20
12987.00733742197
 30
0.0
 40
160.0
  1
42.5
  0
TEXT
  5
189C6
  8
0
  6
CONTINUOUS
 62
     7
 10
24913.298601919079
 20
12987.00733742197
 30
0.0
 40
160.0
  1
42.5
  0
TEXT
  5
189C7
  8
0
  6
CONTINUOUS
 62
     7
 10
25629.405946683259
 20
12987.00733742197
 30
0.0
 40
160.0
  1
42.5
  0
TEXT
  5
189C8
  8
0
  6
CONTINUOUS
 62
     7
 10
21644.798601919079
 20
12987.00733742197
 30
0.0
 40
160.0
  1
42.5
  0
TEXT
  5
189C9
  8
0
  6
CONTINUOUS
 62
     7
 10
26883.85187830116
 20
18665.833389065181
 30
0.0
 40
160.0
  1
407.5
 50
90.0
  0
ARC
  5
189CA
  8
0
  6
BYBLOCK
 62
     0
 10
26603.85187830116
 20
18956.45542142195
 30
0.0
 40
15.0
 50
90.0
 51
270.0
  0
ARC
  5
189CB
  8
0
  6
BYBLOCK
 62
     0
 10
26603.85187830116
 20
18956.45542142195
 30
0.0
 40
15.0
 50
270.0
 51
90.0
  0
ARC
  5
189CC
  8
0
  6
BYBLOCK
 62
     0
 10
26603.85187830116
 20
19363.95542142195
 30
0.0
 40
15.0
 50
270.0
 51
90.0
  0
ARC
  5
189CD
  8
0
  6
BYBLOCK
 62
     0
 10
26603.85187830116
 20
19363.95542142195
 30
0.0
 40
15.0
 50
90.0
 51
270.0
  0
ARC
  5
189CE
  8
0
  6
BYBLOCK
 62
     0
 10
22242.852274301182
 20
12907.00733742197
 30
0.0
 40
15.0
 50
0.0
 51
180.0
  0
ARC
  5
189CF
  8
0
  6
BYBLOCK
 62
     0
 10
22242.852274301182
 20
12907.00733742197
 30
0.0
 40
15.0
 50
180.0
 51
0.0
  0
ARC
  5
189D0
  8
0
  6
BYBLOCK
 62
     0
 10
22200.35003130119
 20
12907.00733742197
 30
0.0
 40
15.0
 50
180.0
 51
0.0
  0
ARC
  5
189D1
  8
0
  6
BYBLOCK
 62
     0
 10
22200.35003130119
 20
12907.00733742197
 30
0.0
 40
15.0
 50
0.0
 51
180.0
  0
ARC
  5
189D2
  8
0
  6
BYBLOCK
 62
     0
 10
25511.352274301182
 20
12907.00733742197
 30
0.0
 40
15.0
 50
180.0
 51
0.0
  0
ARC
  5
189D3
  8
0
  6
BYBLOCK
 62
     0
 10
25511.352274301182
 20
12907.00733742197
 30
0.0
 40
15.0
 50
0.0
 51
180.0
  0
ARC
  5
189D4
  8
0
  6
BYBLOCK
 62
     0
 10
25553.85451730117
 20
12907.00733742197
 30
0.0
 40
15.0
 50
0.0
 51
180.0
  0
ARC
  5
189D5
  8
0
  6
BYBLOCK
 62
     0
 10
25553.85451730117
 20
12907.00733742197
 30
0.0
 40
15.0
 50
180.0
 51
0.0
  0
ARC
  5
189D6
  8
0
  6
BYBLOCK
 62
     0
 10
25511.352274301182
 20
12907.00733742197
 30
0.0
 40
15.0
 50
0.0
 51
180.0
  0
ARC
  5
189D7
  8
0
  6
BYBLOCK
 62
     0
 10
25511.352274301182
 20
12907.00733742197
 30
0.0
 40
15.0
 50
180.0
 51
0.0
  0
ARC
  5
189D8
  8
0
  6
BYBLOCK
 62
     0
 10
25468.850031301168
 20
12907.00733742197
 30
0.0
 40
15.0
 50
180.0
 51
0.0
  0
ARC
  5
189D9
  8
0
  6
BYBLOCK
 62
     0
 10
25468.850031301168
 20
12907.00733742197
 30
0.0
 40
15.0
 50
0.0
 51
180.0
  0
ARC
  5
189DA
  8
0
  6
BYBLOCK
 62
     0
 10
22242.852274301182
 20
12907.00733742197
 30
0.0
 40
15.0
 50
180.0
 51
0.0
  0
ARC
  5
189DB
  8
0
  6
BYBLOCK
 62
     0
 10
22242.852274301182
 20
12907.00733742197
 30
0.0
 40
15.0
 50
0.0
 51
180.0
  0
ARC
  5
189DC
  8
0
  6
BYBLOCK
 62
     0
 10
22285.354517301159
 20
12907.00733742197
 30
0.0
 40
15.0
 50
0.0
 51
180.0
  0
ARC
  5
189DD
  8
0
  6
BYBLOCK
 62
     0
 10
22285.354517301159
 20
12907.00733742197
 30
0.0
 40
15.0
 50
180.0
 51
0.0
  0
ARC
  5
189DE
  8
0
  6
BYBLOCK
 62
     0
 10
22200.35003130119
 20
12507.007337421959
 30
0.0
 40
15.0
 50
0.0
 51
180.0
  0
ARC
  5
189DF
  8
0
  6
BYBLOCK
 62
     0
 10
22200.35003130119
 20
12507.007337421959
 30
0.0
 40
15.0
 50
180.0
 51
0.0
  0
ARC
  5
189E0
  8
0
  6
BYBLOCK
 62
     0
 10
25553.85451730117
 20
12507.007337421959
 30
0.0
 40
15.0
 50
180.0
 51
0.0
  0
ARC
  5
189E1
  8
0
  6
BYBLOCK
 62
     0
 10
25553.85451730117
 20
12507.007337421959
 30
0.0
 40
15.0
 50
0.0
 51
180.0
  0
ARC
  5
189E2
  8
0
  6
BYBLOCK
 62
     0
 10
26603.85187830116
 20
14636.455421421961
 30
0.0
 40
15.0
 50
270.0
 51
90.0
  0
ARC
  5
189E3
  8
0
  6
BYBLOCK
 62
     0
 10
26603.85187830116
 20
14636.455421421961
 30
0.0
 40
15.0
 50
90.0
 51
270.0
  0
ARC
  5
189E4
  8
0
  6
BYBLOCK
 62
     0
 10
26603.85187830116
 20
13878.455421421961
 30
0.0
 40
15.0
 50
90.0
 51
270.0
  0
ARC
  5
189E5
  8
0
  6
BYBLOCK
 62
     0
 10
26603.85187830116
 20
13878.455421421961
 30
0.0
 40
15.0
 50
270.0
 51
90.0
  0
ARC
  5
189E6
  8
0
  6
BYBLOCK
 62
     0
 10
26603.85187830116
 20
15337.69593292199
 30
0.0
 40
15.0
 50
270.0
 51
90.0
  0
ARC
  5
189E7
  8
0
  6
BYBLOCK
 62
     0
 10
26603.85187830116
 20
15337.69593292199
 30
0.0
 40
15.0
 50
90.0
 51
270.0
  0
ARC
  5
189E8
  8
0
  6
BYBLOCK
 62
     0
 10
26603.85187830116
 20
14636.455421421961
 30
0.0
 40
15.0
 50
90.0
 51
270.0
  0
ARC
  5
189E9
  8
0
  6
BYBLOCK
 62
     0
 10
26603.85187830116
 20
14636.455421421961
 30
0.0
 40
15.0
 50
270.0
 51
90.0
  0
ARC
  5
189EA
  8
0
  6
BYBLOCK
 62
     0
 10
26603.85187830116
 20
16038.45542142197
 30
0.0
 40
15.0
 50
270.0
 51
90.0
  0
ARC
  5
189EB
  8
0
  6
BYBLOCK
 62
     0
 10
26603.85187830116
 20
16038.45542142197
 30
0.0
 40
15.0
 50
90.0
 51
270.0
  0
ARC
  5
189EC
  8
0
  6
BYBLOCK
 62
     0
 10
26603.85187830116
 20
15337.69593292199
 30
0.0
 40
15.0
 50
90.0
 51
270.0
  0
ARC
  5
189ED
  8
0
  6
BYBLOCK
 62
     0
 10
26603.85187830116
 20
15337.69593292199
 30
0.0
 40
15.0
 50
270.0
 51
90.0
  0
ARC
  5
189EE
  8
0
  6
BYBLOCK
 62
     0
 10
26603.85187830116
 20
16796.455421421972
 30
0.0
 40
15.0
 50
270.0
 51
90.0
  0
ARC
  5
189EF
  8
0
  6
BYBLOCK
 62
     0
 10
26603.85187830116
 20
16796.455421421972
 30
0.0
 40
15.0
 50
90.0
 51
270.0
  0
ARC
  5
189F0
  8
0
  6
BYBLOCK
 62
     0
 10
26603.85187830116
 20
16038.45542142197
 30
0.0
 40
15.0
 50
90.0
 51
270.0
  0
ARC
  5
189F1
  8
0
  6
BYBLOCK
 62
     0
 10
26603.85187830116
 20
16038.45542142197
 30
0.0
 40
15.0
 50
270.0
 51
90.0
  0
ARC
  5
189F2
  8
0
  6
BYBLOCK
 62
     0
 10
26603.85187830116
 20
17554.45542142195
 30
0.0
 40
15.0
 50
270.0
 51
90.0
  0
ARC
  5
189F3
  8
0
  6
BYBLOCK
 62
     0
 10
26603.85187830116
 20
17554.45542142195
 30
0.0
 40
15.0
 50
90.0
 51
270.0
  0
ARC
  5
189F4
  8
0
  6
BYBLOCK
 62
     0
 10
26603.85187830116
 20
16796.455421421972
 30
0.0
 40
15.0
 50
90.0
 51
270.0
  0
ARC
  5
189F5
  8
0
  6
BYBLOCK
 62
     0
 10
26603.85187830116
 20
16796.455421421972
 30
0.0
 40
15.0
 50
270.0
 51
90.0
  0
ARC
  5
189F6
  8
0
  6
BYBLOCK
 62
     0
 10
26603.85187830116
 20
18255.455421421961
 30
0.0
 40
15.0
 50
270.0
 51
90.0
  0
ARC
  5
189F7
  8
0
  6
BYBLOCK
 62
     0
 10
26603.85187830116
 20
18255.455421421961
 30
0.0
 40
15.0
 50
90.0
 51
270.0
  0
ARC
  5
189F8
  8
0
  6
BYBLOCK
 62
     0
 10
26603.85187830116
 20
17554.45542142195
 30
0.0
 40
15.0
 50
90.0
 51
270.0
  0
ARC
  5
189F9
  8
0
  6
BYBLOCK
 62
     0
 10
26603.85187830116
 20
17554.45542142195
 30
0.0
 40
15.0
 50
270.0
 51
90.0
  0
ARC
  5
189FA
  8
0
  6
BYBLOCK
 62
     0
 10
26603.85187830116
 20
18956.45542142195
 30
0.0
 40
15.0
 50
270.0
 51
90.0
  0
ARC
  5
189FB
  8
0
  6
BYBLOCK
 62
     0
 10
26603.85187830116
 20
18956.45542142195
 30
0.0
 40
15.0
 50
90.0
 51
270.0
  0
ARC
  5
189FC
  8
0
  6
BYBLOCK
 62
     0
 10
26603.85187830116
 20
18255.455421421961
 30
0.0
 40
15.0
 50
90.0
 51
270.0
  0
ARC
  5
189FD
  8
0
  6
BYBLOCK
 62
     0
 10
26603.85187830116
 20
18255.455421421961
 30
0.0
 40
15.0
 50
270.0
 51
90.0
  0
ARC
  5
189FE
  8
0
  6
BYBLOCK
 62
     0
 10
26603.85187830116
 20
19363.95542142195
 30
0.0
 40
15.0
 50
270.0
 51
90.0
  0
ARC
  5
189FF
  8
0
  6
BYBLOCK
 62
     0
 10
26603.85187830116
 20
19363.95542142195
 30
0.0
 40
15.0
 50
90.0
 51
270.0
  0
ARC
  5
18A00
  8
0
  6
BYBLOCK
 62
     0
 10
26603.85187830116
 20
13878.455421421961
 30
0.0
 40
15.0
 50
90.0
 51
270.0
  0
ARC
  5
18A01
  8
0
  6
BYBLOCK
 62
     0
 10
26603.85187830116
 20
13878.455421421961
 30
0.0
 40
15.0
 50
270.0
 51
90.0
  0
ARC
  5
18A02
  8
0
  6
BYBLOCK
 62
     0
 10
27003.851878301171
 20
19406.452716421969
 30
0.0
 40
15.0
 50
270.0
 51
90.0
  0
ARC
  5
18A03
  8
0
  6
BYBLOCK
 62
     0
 10
27003.851878301171
 20
19406.452716421969
 30
0.0
 40
15.0
 50
90.0
 51
270.0
  0
ARC
  5
18A04
  8
0
  6
BYBLOCK
 62
     0
 10
27003.851878301171
 20
13835.958126421971
 30
0.0
 40
15.0
 50
90.0
 51
270.0
  0
ARC
  5
18A05
  8
0
  6
BYBLOCK
 62
     0
 10
27003.851878301171
 20
13835.958126421971
 30
0.0
 40
15.0
 50
270.0
 51
90.0
  0
ARC
  5
18A06
  8
0
  6
BYBLOCK
 62
     0
 10
26603.85187830116
 20
19363.95542142195
 30
0.0
 40
15.0
 50
270.0
 51
90.0
  0
ARC
  5
18A07
  8
0
  6
BYBLOCK
 62
     0
 10
26603.85187830116
 20
19363.95542142195
 30
0.0
 40
15.0
 50
90.0
 51
270.0
  0
ARC
  5
18A08
  8
0
  6
BYBLOCK
 62
     0
 10
26603.85187830116
 20
19406.452716421969
 30
0.0
 40
15.0
 50
90.0
 51
270.0
  0
ARC
  5
18A09
  8
0
  6
BYBLOCK
 62
     0
 10
26603.85187830116
 20
19406.452716421969
 30
0.0
 40
15.0
 50
270.0
 51
90.0
  0
ARC
  5
18A0A
  8
0
  6
BYBLOCK
 62
     0
 10
26603.85187830116
 20
13878.455421421961
 30
0.0
 40
15.0
 50
90.0
 51
270.0
  0
ARC
  5
18A0B
  8
0
  6
BYBLOCK
 62
     0
 10
26603.85187830116
 20
13878.455421421961
 30
0.0
 40
15.0
 50
270.0
 51
90.0
  0
ARC
  5
18A0C
  8
0
  6
BYBLOCK
 62
     0
 10
26603.85187830116
 20
13835.958126421971
 30
0.0
 40
15.0
 50
270.0
 51
90.0
  0
ARC
  5
18A0D
  8
0
  6
BYBLOCK
 62
     0
 10
26603.85187830116
 20
13835.958126421971
 30
0.0
 40
15.0
 50
90.0
 51
270.0
  0
TEXT
  5
18B16
  8
FILENAME
  6
CONTINUOUS
 10
26518.285714285721
 20
348.0
 30
0.0
 40
200.0
  1
＜VGC-3355+VKC-2855-L-1-A_0.DXF ＞
  7
FILENAME
 72
     2
 11
32764.0
 21
348.0
 31
0.0
  0
LINE
  5
18B1B
  8
WAKUSEN-01
 10
868.00000000000193
 20
827.99999999999955
 30
0.0
 11
32764.000000000011
 21
827.99999999999943
 31
0.0
  0
LINE
  5
18B1C
  8
WAKUSEN-01
 10
868.00000000000193
 20
827.99999999999955
 30
0.0
 11
868.00000000000193
 21
22484.000000000011
 31
0.0
  0
LINE
  5
18B1D
  8
WAKUSEN-01
 10
32764.000000000011
 20
827.99999999999943
 30
0.0
 11
32764.000000000011
 21
22484.000000000011
 31
0.0
  0
LINE
  5
18B1E
  8
WAKUSEN-01
 10
20560.0
 20
827.99999999999716
 30
0.0
 11
20560.0
 21
2484.0
 31
0.0
  0
LINE
  5
18B1F
  8
WAKUSEN-02
 10
26868.0
 20
827.99999999999261
 30
0.0
 11
26868.0
 21
2484.0
 31
0.0
  0
ENDSEC
  0
EOF
