  0
SECTION
  2
HEADER
  9
$ACADVER
  1
AC1009
  9
$INSBASE
 10
0.0
 20
0.0
 30
0.0
  9
$EXTMIN
 10
867.99324330406671
 20
327.38164749855792
 30
-0.0000000000000058
  9
$EXTMAX
 10
32765.33210850941
 20
22484.553276491992
 30
0.0000000000000104
  9
$LIMMIN
 10
0.0
 20
0.0
  9
$LIMMAX
 10
33600.0
 20
23760.0
  9
$ORTHOMODE
 70
     1
  9
$REGENMODE
 70
     1
  9
$FILLMODE
 70
     1
  9
$QTEXTMODE
 70
     0
  9
$MIRRTEXT
 70
     1
  9
$DRAGMODE
 70
     2
  9
$LTSCALE
 40
80.0
  9
$OSMODE
 70
  3071
  9
$ATTMODE
 70
     1
  9
$TEXTSIZE
 40
0.2
  9
$TRACEWID
 40
0.05
  9
$TEXTSTYLE
  7
00
  9
$CLAYER
  8
0
  9
$CELTYPE
  6
BYLAYER
  9
$CECOLOR
 62
   256
  9
$DIMSCALE
 40
80.0
  9
$DIMASZ
 40
3.0
  9
$DIMEXO
 40
1.0
  9
$DIMDLI
 40
0.38
  9
$DIMRND
 40
0.5
  9
$DIMDLE
 40
0.0
  9
$DIMEXE
 40
1.0
  9
$DIMTP
 40
0.0
  9
$DIMTM
 40
0.0
  9
$DIMTXT
 40
2.0
  9
$DIMCEN
 40
0.09
  9
$DIMTSZ
 40
0.0
  9
$DIMTOL
 70
     0
  9
$DIMLIM
 70
     0
  9
$DIMTIH
 70
     0
  9
$DIMTOH
 70
     0
  9
$DIMSE1
 70
     0
  9
$DIMSE2
 70
     0
  9
$DIMTAD
 70
     1
  9
$DIMZIN
 70
     8
  9
$DIMBLK
  1
DOTSMALL
  9
$DIMASO
 70
     1
  9
$DIMSHO
 70
     1
  9
$DIMPOST
  1

  9
$DIMAPOST
  1

  9
$DIMALT
 70
     0
  9
$DIMALTD
 70
     2
  9
$DIMALTF
 40
25.399999999999999
  9
$DIMLFAC
 40
1.0
  9
$DIMTOFL
 70
     1
  9
$DIMTVP
 40
0.0
  9
$DIMTIX
 70
     0
  9
$DIMSOXD
 70
     0
  9
$DIMSAH
 70
     0
  9
$DIMBLK1
  1

  9
$DIMBLK2
  1

  9
$DIMSTYLE
  2
SUNPOU
  9
$DIMCLRD
 70
     4
  9
$DIMCLRE
 70
     4
  9
$DIMCLRT
 70
     7
  9
$DIMTFAC
 40
1.0
  9
$DIMGAP
 40
1.0
  9
$LUNITS
 70
     2
  9
$LUPREC
 70
     4
  9
$SKETCHINC
 40
0.1
  9
$FILLETRAD
 40
0.0
  9
$AUNITS
 70
     0
  9
$AUPREC
 70
     0
  9
$MENU
  1
acad
  9
$ELEVATION
 40
0.0
  9
$PELEVATION
 40
0.0
  9
$THICKNESS
 40
0.0
  9
$LIMCHECK
 70
     0
  9
$BLIPMODE
 70
     1
  9
$CHAMFERA
 40
0.0
  9
$CHAMFERB
 40
0.0
  9
$SKPOLY
 70
     0
  9
$TDCREATE
 40
2311940.075052408
  9
$TDUPDATE
 40
2458942.458561366
  9
$TDINDWG
 40
0.3580979167
  9
$TDUSRTIMER
 40
0.3580971181
  9
$USRTIMER
 70
     1
  9
$ANGBASE
 50
0.0
  9
$ANGDIR
 70
     0
  9
$PDMODE
 70
     0
  9
$PDSIZE
 40
0.0
  9
$PLINEWID
 40
0.0
  9
$COORDS
 70
     1
  9
$SPLFRAME
 70
     0
  9
$SPLINETYPE
 70
     6
  9
$SPLINESEGS
 70
     8
  9
$ATTDIA
 70
     1
  9
$ATTREQ
 70
     1
  9
$HANDLING
 70
     1
  9
$HANDSEED
  5
11006
  9
$SURFTAB1
 70
     6
  9
$SURFTAB2
 70
     6
  9
$SURFTYPE
 70
     6
  9
$SURFU
 70
     6
  9
$SURFV
 70
     6
  9
$UCSNAME
  2

  9
$UCSORG
 10
0.0
 20
0.0
 30
0.0
  9
$UCSXDIR
 10
1.0
 20
0.0
 30
0.0
  9
$UCSYDIR
 10
0.0
 20
1.0
 30
0.0
  9
$PUCSNAME
  2

  9
$PUCSORG
 10
0.0
 20
0.0
 30
0.0
  9
$PUCSXDIR
 10
1.0
 20
0.0
 30
0.0
  9
$PUCSYDIR
 10
0.0
 20
1.0
 30
0.0
  9
$USERI1
 70
     0
  9
$USERI2
 70
     0
  9
$USERI3
 70
     0
  9
$USERI4
 70
     0
  9
$USERI5
 70
     0
  9
$USERR1
 40
0.0
  9
$USERR2
 40
0.0
  9
$USERR3
 40
0.0
  9
$USERR4
 40
0.0
  9
$USERR5
 40
0.0
  9
$WORLDVIEW
 70
     1
  9
$SHADEDGE
 70
     3
  9
$SHADEDIF
 70
    70
  9
$TILEMODE
 70
     1
  9
$MAXACTVP
 70
    16
  9
$PLIMCHECK
 70
     0
  9
$PEXTMIN
 10
1.0000000000000000E+020
 20
1.0000000000000000E+020
 30
1.0000000000000000E+020
  9
$PEXTMAX
 10
-1.0000000000000000E+020
 20
-1.0000000000000000E+020
 30
-1.0000000000000000E+020
  9
$PLIMMIN
 10
0.0
 20
0.0
  9
$PLIMMAX
 10
12.0
 20
9.0
  9
$UNITMODE
 70
     0
  9
$VISRETAIN
 70
     0
  9
$PLINEGEN
 70
     1
  9
$PSLTSCALE
 70
     0
  0
ENDSEC
  0
SECTION
  2
TABLES
  0
TABLE
  2
VPORT
 70
     1
  0
VPORT
  2
*ACTIVE
 70
     0
 10
0.0
 20
0.0
 11
1.0
 21
1.0
 12
16800.0
 22
11880.0
 13
0.0
 23
0.0
 14
1.0
 24
1.0
 15
0.0
 25
0.0
 16
0.0
 26
0.0
 36
1.0
 17
0.0
 27
0.0
 37
0.0
 40
23981.023255813951
 41
2.195652173913043
 42
50.0
 43
0.0
 44
0.0
 50
0.0
 51
0.0
 71
     0
 72
 10000
 73
     1
 74
     1
 75
     0
 76
     0
 77
     0
 78
     0
  0
ENDTAB
  0
TABLE
  2
LTYPE
 70
     6
  0
LTYPE
  2
CONTINUOUS
 70
     0
  3
Solid line
 72
    65
 73
     0
 40
0.0
  0
LTYPE
  2
DASHED3
 70
     0
  3
------  ------  ------  ------  
 72
    65
 73
     2
 40
5.0
 49
3.75
 49
-1.25
  0
LTYPE
  2
CENTER2
 70
     0
  3
----------  --  ----------  --  
 72
    65
 73
     4
 40
20.0
 49
12.5
 49
-2.5
 49
2.5
 49
-2.5
  0
LTYPE
  2
HIDE-M
 70
     0
  3

 72
    65
 73
     2
 40
2.0
 49
1.0
 49
-1.0
  0
LTYPE
  2
1PL-M
 70
     0
  3

 72
    65
 73
     4
 40
15.0
 49
12.0
 49
-1.0
 49
1.0
 49
-1.0
  0
LTYPE
  2
PHANTOM2
 70
     0
  3
___ _ _ ___ _ _ ___ _ _ ___ _ _
 72
    65
 73
     6
 40
1.25
 49
0.625
 49
-0.125
 49
0.125
 49
-0.125
 49
0.125
 49
-0.125
  0
ENDTAB
  0
TABLE
  2
LAYER
 70
    24
  0
LAYER
  2
0
 70
     0
 62
     7
  6
CONTINUOUS
  0
LAYER
  2
SUNPOU
 70
     0
 62
     4
  6
CONTINUOUS
  0
LAYER
  2
0-1
 70
     0
 62
     7
  6
CONTINUOUS
  0
LAYER
  2
0-2
 70
     0
 62
     7
  6
CONTINUOUS
  0
LAYER
  2
0-5
 70
     0
 62
     7
  6
CONTINUOUS
  0
LAYER
  2
0-6
 70
     0
 62
     7
  6
CONTINUOUS
  0
LAYER
  2
2-0
 70
     0
 62
     7
  6
CONTINUOUS
  0
LAYER
  2
0-8
 70
     0
 62
     7
  6
CONTINUOUS
  0
LAYER
  2
YODOROGO
 70
     0
 62
   130
  6
CONTINUOUS
  0
LAYER
  2
WAKUSEN-01
 70
     0
 62
    50
  6
CONTINUOUS
  0
LAYER
  2
WAKUSEN-02
 70
     0
 62
   130
  6
CONTINUOUS
  0
LAYER
  2
WAKUMOJI-01
 70
     0
 62
   130
  6
CONTINUOUS
  0
LAYER
  2
FILENAME
 70
     0
 62
     7
  6
CONTINUOUS
  0
LAYER
  2
NAME
 70
     0
 62
    20
  6
CONTINUOUS
  0
LAYER
  2
0-4
 70
     0
 62
     7
  6
CONTINUOUS
  0
LAYER
  2
1-前柱P
 70
     0
 62
     3
  6
CONTINUOUS
  0
LAYER
  2
1-前柱カバ-P
 70
     0
 62
     3
  6
CONTINUOUS
  0
LAYER
  2
1-桁前P28
 70
     0
 62
     3
  6
CONTINUOUS
  0
LAYER
  2
1-後柱P
 70
     0
 62
     3
  6
CONTINUOUS
  0
LAYER
  2
1-中柱P
 70
     0
 62
     3
  6
CONTINUOUS
  0
LAYER
  2
1-後柱カバ-P
 70
     0
 62
     7
  6
CONTINUOUS
  0
LAYER
  2
1-中柱カバ-P
 70
     0
 62
     7
  6
CONTINUOUS
  0
ENDTAB
  0
TABLE
  2
STYLE
 70
     5
  0
STYLE
  2
STANDARD
 70
     0
 40
0.0
 41
1.0
 50
0.0
 71
     0
 42
0.0
  3
txt
  4
BIGFONT
  0
STYLE
  2
00
 70
     0
 40
0.0
 41
0.6666666666666666
 50
0.0
 71
     0
 42
0.2
  3
ROMANS
  4
BIGFONT
  0
STYLE
  2
01
 70
     0
 40
3.0
 41
1.0
 50
0.0
 71
     0
 42
0.2
  3
ROMANS
  4
BIGFONT
  0
STYLE
  2
WAKUMOJI
 70
     0
 40
3.0
 41
1.0
 50
0.0
 71
     0
 42
3.0
  3
SIMPLEX
  4
BIGFONT
  0
STYLE
  2
FILENAME
 70
     0
 40
200.0
 41
1.0
 50
0.0
 71
     0
 42
200.0
  3
romans
  4
bigfont
  0
ENDTAB
  0
TABLE
  2
VIEW
 70
     0
  0
ENDTAB
  0
TABLE
  2
UCS
 70
     0
  0
ENDTAB
  0
TABLE
  2
APPID
 70
    17
  0
APPID
  2
ACAD
 70
     0
  0
APPID
  2
ACADANNOTATIVE
 70
     0
  0
APPID
  2
ACAD_PSEXT
 70
     0
  0
APPID
  2
DCO15
 70
     0
  0
APPID
  2
ACAD_MLEADERVER
 70
     0
  0
APPID
  2
AUTOCAD_POSTSCRIPT_FIGURE
 70
     0
  0
APPID
  2
ACAD_EXEMPT_FROM_CAD_STANDARDS
 70
     0
  0
APPID
  2
ACLAYERTOOLS
 70
     0
  0
APPID
  2
ACAD_DSTYLE_DIMJAG
 70
     0
  0
APPID
  2
ACAD_DSTYLE_DIMTALN
 70
     0
  0
APPID
  2
ACAECLAYERSTANDARD
 70
     0
  0
APPID
  2
ACAD_DSTYLE_DIMBREAK
 70
     0
  0
APPID
  2
ACAD_DSTYLE_DIM_LINETYPE
 70
     0
  0
APPID
  2
ACAD_DSTYLE_DIM_EXT1_LINETYPE
 70
     0
  0
APPID
  2
ACAD_DSTYLE_DIM_EXT2_LINETYPE
 70
     0
  0
APPID
  2
ACAD_DSTYLE_DIMFLIPARROW_W
 70
     0
  0
APPID
  2
ACAD_NAV_VCDISPLAY
 70
     0
  0
ENDTAB
  0
TABLE
  2
DIMSTYLE
 70
     2
  0
DIMSTYLE
  2
SUNPOU
 70
     0
  3

  4

  5

  6

  7

 40
80.0
 41
3.0
 42
1.0
 43
0.38
 44
1.0
 45
0.5
 46
0.0
 47
0.0
 48
0.0
140
2.0
141
0.09
142
0.0
143
25.399999999999999
144
1.0
145
0.0
146
1.0
147
1.0
 71
     0
 72
     0
 73
     0
 74
     0
 75
     0
 76
     0
 77
     1
 78
     8
170
     0
171
     2
172
     1
173
     0
174
     0
175
     0
176
     4
177
     4
178
     7
  0
ENDTAB
  0
ENDSEC
  0
SECTION
  2
BLOCKS
  0
BLOCK
  8
0
  2
$MODEL_SPACE
 70
     0
 10
0.0
 20
0.0
 30
0.0
  3
$MODEL_SPACE
  1

  0
ENDBLK
  5
F84E
  8
0
  0
BLOCK
 67
     1
  8
0
  2
$PAPER_SPACE
 70
     0
 10
0.0
 20
0.0
 30
0.0
  3
$PAPER_SPACE
  1

  0
ENDBLK
  5
F84A
 67
     1
  8
0
  0
BLOCK
  8
0
  2
_DOTSMALL
 70
     0
 10
0.0
 20
0.0
 30
0.0
  3
_DOTSMALL
  1

  0
POLYLINE
  5
F88A
  8
0
  6
BYBLOCK
 62
     0
 66
     1
 10
0.0
 20
0.0
 30
0.0
 70
     1
 40
0.5
 41
0.5
  0
VERTEX
  5
10FCE
  8
0
  6
BYBLOCK
 62
     0
 10
-0.0625
 20
0.0
 30
0.0
 42
1.0
  0
VERTEX
  5
10FCF
  8
0
  6
BYBLOCK
 62
     0
 10
0.0625
 20
0.0
 30
0.0
 42
1.0
  0
SEQEND
  5
10FD0
  8
0
  6
BYBLOCK
 62
     0
  0
ENDBLK
  5
F88E
  8
0
  0
ENDSEC
  0
SECTION
  2
ENTITIES
  0
LINE
  5
F88F
  8
0-1
  6
CONTINUOUS
 62
     3
 10
5319.1435181510378
 20
16684.985315999991
 30
0.0
 11
8587.6435181510387
 21
16684.985315999991
 31
0.0
  0
LINE
  5
F890
  8
0-1
  6
CONTINUOUS
 62
     3
 10
8534.6438871510527
 20
14125.986358
 30
0.0
 11
8534.6438871510527
 21
17768.23311058123
 31
0.0
  0
LINE
  5
F891
  8
0-1
  6
CONTINUOUS
 62
     3
 10
5369.1441381510504
 20
14001.986344000001
 30
0.0
 11
5369.1441381510504
 21
19078.314721229592
 31
0.0
  0
LINE
  5
F892
  8
0-1
  6
CONTINUOUS
 62
     3
 10
5233.6435181510387
 20
13969.98643699999
 30
0.0
 11
5233.6435181510396
 21
19134.223060776141
 31
0.0
  0
LINE
  5
F893
  8
0-1
  6
CONTINUOUS
 62
     3
 10
5276.644244151048
 20
14125.986358
 30
0.0
 11
13630.14477215105
 21
14125.986358
 31
0.0
  0
LINE
  5
F894
  8
0-1
  6
CONTINUOUS
 62
     3
 10
5319.1435181510378
 20
14204.985974999991
 30
0.0
 11
13587.643518151041
 21
14204.985974999991
 31
0.0
  0
LINE
  5
F895
  8
0-1
  6
CONTINUOUS
 62
     3
 10
5233.6435181510396
 20
13969.98643699999
 30
0.0
 11
13673.143518151041
 21
13969.98643699999
 31
0.0
  0
LINE
  5
F896
  8
0-1
  6
CONTINUOUS
 62
     3
 10
5233.6435181510396
 20
14001.98634400001
 30
0.0
 11
13673.143518151041
 21
14001.986344000001
 31
0.0
  0
LINE
  5
F897
  8
0-1
  6
CONTINUOUS
 62
     3
 10
8587.6435181510387
 20
14125.986358
 30
0.0
 11
8587.6435181510387
 21
17746.365060417251
 31
0.0
  0
LINE
  5
F898
  8
0-1
  6
CONTINUOUS
 62
     3
 10
8630.1447721510485
 20
14125.986358
 30
0.0
 11
8630.1447721510485
 21
17728.828720315101
 31
0.0
  0
LINE
  5
F899
  8
0-1
  6
CONTINUOUS
 62
     3
 10
5319.1435181510378
 20
14125.986358
 30
0.0
 11
5319.1435181510396
 21
19100.183179462481
 31
0.0
  0
LINE
  5
F89A
  8
0-1
  6
CONTINUOUS
 62
     3
 10
5276.644244151048
 20
14125.986358
 30
0.0
 11
5276.644244151048
 21
19117.7187026016
 31
0.0
  0
LINE
  5
F89B
  8
0-1
  6
CONTINUOUS
 62
     3
 10
7040.1449691510488
 20
18394.87481651704
 30
0.0
 11
7040.1449691510488
 21
19461.985685
 31
0.0
  0
LINE
  5
F89C
  8
0-1
  6
CONTINUOUS
 62
     3
 10
7077.1451411510479
 20
18379.60826461648
 30
0.0
 11
7077.1451411510479
 21
19461.985685
 31
0.0
  0
LINE
  5
F89D
  8
0-1
  6
CONTINUOUS
 62
     3
 10
7240.1446401510511
 20
18312.353433713281
 30
0.0
 11
7240.144640151052
 21
19461.985685
 31
0.0
  0
LINE
  5
F89E
  8
0-1
  6
CONTINUOUS
 62
     3
 10
7277.1458011510404
 20
18297.08647374381
 30
0.0
 11
7277.1458011510422
 21
19461.985685
 31
0.0
  0
LINE
  5
F89F
  8
0-1
  6
CONTINUOUS
 62
     3
 10
7440.144310151044
 20
18219.831946322141
 30
0.0
 11
7440.1443101510449
 21
19461.985685
 31
0.0
  0
LINE
  5
F8A0
  8
0-1
  6
CONTINUOUS
 62
     3
 10
7477.1434911510514
 20
18204.565803315701
 30
0.0
 11
7477.1434911510514
 21
19461.985685
 31
0.0
  0
LINE
  5
F8A1
  8
0-1
  6
CONTINUOUS
 62
     3
 10
7640.1449691510488
 20
18137.31015586208
 30
0.0
 11
7640.1449691510488
 21
19461.985685
 31
0.0
  0
LINE
  5
F8A2
  8
0-1
  6
CONTINUOUS
 62
     3
 10
7677.1451411510498
 20
18122.043603961509
 30
0.0
 11
7677.1451411510498
 21
19461.985685
 31
0.0
  0
LINE
  5
F8A3
  8
0-1
  6
CONTINUOUS
 62
     3
 10
7840.1446401510493
 20
18054.788773058321
 30
0.0
 11
7840.1446401510511
 21
19461.985685
 31
0.0
  0
LINE
  5
F8A4
  8
0-1
  6
CONTINUOUS
 62
     3
 10
7877.1458011510422
 20
18039.521813088861
 30
0.0
 11
7877.1458011510422
 21
19461.985685
 31
0.0
  0
LINE
  5
F8A5
  8
0-1
  6
CONTINUOUS
 62
     3
 10
8040.1443101510513
 20
17972.267390667181
 30
0.0
 11
8040.144310151054
 21
19461.985685
 31
0.0
  0
LINE
  5
F8A6
  8
0-1
  6
CONTINUOUS
 62
     3
 10
8077.144481151041
 20
17957.000839179222
 30
0.0
 11
8077.144481151041
 21
19461.985685
 31
0.0
  0
LINE
  5
F8A7
  8
0-1
  6
CONTINUOUS
 62
     3
 10
8240.1449691510425
 20
17889.745600207119
 30
0.0
 11
8240.1449691510425
 21
19461.985685
 31
0.0
  0
LINE
  5
F8A8
  8
0-1
  6
CONTINUOUS
 62
     3
 10
8277.1451411510498
 20
17874.479048306552
 30
0.0
 11
8277.1451411510498
 21
19461.985685
 31
0.0
  0
LINE
  5
F8A9
  8
0-1
  6
CONTINUOUS
 62
     3
 10
6840.1443101510513
 20
18477.396606977101
 30
0.0
 11
6840.1443101510531
 21
19461.985685
 31
0.0
  0
LINE
  5
F8AA
  8
0-1
  6
CONTINUOUS
 62
     3
 10
6877.1434911510523
 20
18462.13046397065
 30
0.0
 11
6877.1434911510523
 21
19461.985685
 31
0.0
  0
LINE
  5
F8AB
  8
0-1
  6
CONTINUOUS
 62
     3
 10
5319.1435181510378
 20
16774.988087000002
 30
0.0
 11
8587.6435181510387
 21
16774.988087000002
 31
0.0
  0
LINE
  5
F8AC
  8
0-1
  6
CONTINUOUS
 62
     3
 10
8517.6444177948742
 20
16729.987612658861
 30
0.0
 11
5389.144244151048
 21
14162.48571100001
 31
0.0
  0
LINE
  5
F8AD
  8
0-1
  6
CONTINUOUS
 62
     3
 10
5389.1442441510471
 20
16729.985711000001
 30
0.0
 11
8517.6447721510485
 21
14162.48571100001
 31
0.0
  0
LINE
  5
F8AE
  8
0-1
  6
CONTINUOUS
 62
     3
 10
5945.5966038333981
 20
18840.81628603466
 30
0.0
 11
8517.6444177948724
 21
16729.987612658861
 31
0.0
  0
LINE
  5
F8AF
  8
0-1
  6
CONTINUOUS
 62
     3
 10
7285.3179670387854
 20
18286.138887239529
 30
0.0
 11
5389.1442441510471
 21
16729.985711000001
 31
0.0
  0
LINE
  5
F8B0
  8
0-1
  6
CONTINUOUS
 62
     3
 10
5251.6422911510263
 20
19126.888264410802
 30
0.0
 11
5251.6422911510281
 21
19502.48663499999
 31
0.0
  0
LINE
  5
F8B1
  8
0-1
  6
CONTINUOUS
 62
     3
 10
5307.143043151038
 20
19484.987690000002
 30
0.0
 11
5307.143043151038
 21
19514.987293999991
 31
0.0
  0
LINE
  5
F8B2
  8
0-1
  6
CONTINUOUS
 62
     3
 10
5233.6435181510387
 20
19514.987293999991
 30
0.0
 11
5233.6435181510387
 21
19479.985446999988
 31
0.0
  0
LINE
  5
F8B3
  8
0-1
  6
CONTINUOUS
 62
     3
 10
5302.1427791510287
 20
19519.985579
 30
0.0
 11
5238.6427921510358
 21
19519.985579
 31
0.0
  0
LINE
  5
F8B4
  8
0-1
  6
CONTINUOUS
 62
     3
 10
5251.6422911510281
 20
19502.48663499999
 30
0.0
 11
5233.6435181510387
 21
19502.48663499999
 31
0.0
  0
LINE
  5
F8B5
  8
0-1
  6
CONTINUOUS
 62
     3
 10
5251.6422911510281
 20
19479.985446999988
 30
0.0
 11
5302.1427791510287
 21
19479.985446999988
 31
0.0
  0
LINE
  5
F8B6
  8
0-6
  6
CONTINUOUS
 62
     6
 10
7717.986854288426
 20
19237.71018799999
 30
0.0
 11
7861.887957288418
 21
19749.985842999991
 31
0.0
  0
LINE
  5
F8B7
  8
0-6
  6
CONTINUOUS
 62
     6
 10
6497.1454792884169
 20
19465.663629999999
 30
0.0
 11
6603.840541288424
 21
19343.487743000002
 31
0.0
  0
LINE
  5
F8B8
  8
0-6
  6
CONTINUOUS
 62
     6
 10
6603.840541288424
 20
19343.487743000002
 30
0.0
 11
6542.5348512884148
 21
19493.663919999992
 31
0.0
  0
LINE
  5
F8B9
  8
0-6
  6
CONTINUOUS
 62
     6
 10
6603.840541288424
 20
19343.487743000002
 30
0.0
 11
6497.1454792884169
 21
19465.663629999999
 31
0.0
  0
LINE
  5
F8BA
  8
0-6
  6
CONTINUOUS
 62
     6
 10
6497.1454792884169
 20
19465.663629999999
 30
0.0
 11
6542.5348512884148
 21
19493.663919999992
 31
0.0
  0
LINE
  5
F8BB
  8
0-6
  6
CONTINUOUS
 62
     6
 10
6542.5348512884148
 20
19493.663919999992
 30
0.0
 11
6603.840541288424
 21
19343.487743000002
 31
0.0
  0
LINE
  5
F8BC
  8
0-6
  6
CONTINUOUS
 62
     6
 10
6542.5348512884148
 20
19493.663919999992
 30
0.0
 11
6497.1454792884169
 21
19465.663629999999
 31
0.0
  0
LINE
  5
F8BD
  8
0-6
  6
CONTINUOUS
 62
     6
 10
6603.840541288424
 20
19343.487743000002
 30
0.0
 11
6309.9127142884172
 21
19749.985842999991
 31
0.0
  0
LINE
  5
F8BE
  8
0-6
  6
CONTINUOUS
 62
     6
 10
7692.0987102884228
 20
19244.109971999991
 30
0.0
 11
7679.5970602884263
 21
19082.385282999989
 31
0.0
  0
LINE
  5
F8BF
  8
0-6
  6
CONTINUOUS
 62
     6
 10
7679.5970602884263
 20
19082.385282999989
 30
0.0
 11
7743.87202928842
 21
19231.314364000002
 31
0.0
  0
LINE
  5
F8C0
  8
0-6
  6
CONTINUOUS
 62
     6
 10
7679.5970602884263
 20
19082.385282999989
 30
0.0
 11
7692.0987102884228
 21
19244.109971999991
 31
0.0
  0
LINE
  5
F8C1
  8
0-6
  6
CONTINUOUS
 62
     6
 10
7692.0987102884228
 20
19244.109971999991
 30
0.0
 11
7743.87202928842
 21
19231.314364000002
 31
0.0
  0
LINE
  5
F8C2
  8
0-6
  6
CONTINUOUS
 62
     6
 10
7743.87202928842
 20
19231.314364000002
 30
0.0
 11
7679.5970602884263
 21
19082.385282999989
 31
0.0
  0
LINE
  5
F8C3
  8
0-6
  6
CONTINUOUS
 62
     6
 10
7743.87202928842
 20
19231.314364000002
 30
0.0
 11
7692.0987102884228
 21
19244.109971999991
 31
0.0
  0
LINE
  5
F8C4
  8
0-6
  6
CONTINUOUS
 62
     6
 10
7861.887957288418
 20
19749.985842999991
 30
0.0
 11
8379.5766052884246
 21
19749.985842999991
 31
0.0
  0
LINE
  5
F8C5
  8
0-6
  6
CONTINUOUS
 62
     6
 10
5419.4606501510498
 20
18164.289045663922
 30
0.0
 11
5329.6449431510409
 21
18299.361496663922
 31
0.0
  0
LINE
  5
F8C6
  8
0-6
  6
CONTINUOUS
 62
     6
 10
5329.6449431510409
 20
18299.361496663922
 30
0.0
 11
5370.7991341510497
 21
18142.46089466392
 31
0.0
  0
LINE
  5
F8C7
  8
0-6
  6
CONTINUOUS
 62
     6
 10
5329.6449431510409
 20
18299.361496663922
 30
0.0
 11
5419.4606501510498
 21
18164.289045663922
 31
0.0
  0
LINE
  5
F8C8
  8
0-6
  6
CONTINUOUS
 62
     6
 10
5419.4606501510498
 20
18164.289045663922
 30
0.0
 11
5370.7991341510497
 21
18142.46089466392
 31
0.0
  0
LINE
  5
F8C9
  8
0-6
  6
CONTINUOUS
 62
     6
 10
5370.7991341510497
 20
18142.46089466392
 30
0.0
 11
5329.6449431510409
 21
18299.361496663922
 31
0.0
  0
LINE
  5
F8CA
  8
0-6
  6
CONTINUOUS
 62
     6
 10
5370.7991341510497
 20
18142.46089466392
 30
0.0
 11
5419.4606501510498
 21
18164.289045663922
 31
0.0
  0
LINE
  5
F8CB
  8
0-6
  6
CONTINUOUS
 62
     6
 10
5509.9110652884156
 20
19749.985842999991
 30
0.0
 11
6309.9127142884172
 21
19749.985842999991
 31
0.0
  0
LINE
  5
F8CC
  8
0-6
  6
CONTINUOUS
 62
     6
 10
5494.170650151038
 20
17932.58243666391
 30
0.0
 11
6014.17137615105
 21
17932.58243666391
 31
0.0
  0
LINE
  5
F8CD
  8
0-6
  6
CONTINUOUS
 62
     6
 10
6491.8197889172798
 20
14349.876837
 30
0.0
 11
6574.7071809172812
 21
14526.815115999991
 31
0.0
  0
LINE
  5
F8CE
  8
0-6
  6
CONTINUOUS
 62
     6
 10
6574.7071809172812
 20
14526.815115999991
 30
0.0
 11
7374.7078409172709
 21
14526.815115999991
 31
0.0
  0
LINE
  5
F8CF
  8
0-6
  6
CONTINUOUS
 62
     6
 10
7126.9609502169014
 20
13840.439811999981
 30
0.0
 11
7020.6904952168979
 21
13962.98685899999
 31
0.0
  0
LINE
  5
F8D0
  8
0-6
  6
CONTINUOUS
 62
     6
 10
7020.6904952168979
 20
13962.98685899999
 30
0.0
 11
7081.4726032168992
 21
13812.59788299998
 31
0.0
  0
LINE
  5
F8D1
  8
0-6
  6
CONTINUOUS
 62
     6
 10
7020.6904952168979
 20
13962.98685899999
 30
0.0
 11
7126.9609502169014
 21
13840.439811999981
 31
0.0
  0
LINE
  5
F8D2
  8
0-6
  6
CONTINUOUS
 62
     6
 10
7126.9609502169014
 20
13840.439811999981
 30
0.0
 11
7081.4726032168992
 21
13812.59788299998
 31
0.0
  0
LINE
  5
F8D3
  8
0-6
  6
CONTINUOUS
 62
     6
 10
7081.4726032168992
 20
13812.59788299998
 30
0.0
 11
7020.6904952168979
 21
13962.98685899999
 31
0.0
  0
LINE
  5
F8D4
  8
0-6
  6
CONTINUOUS
 62
     6
 10
7081.4726032168992
 20
13812.59788299998
 30
0.0
 11
7126.9609502169014
 21
13840.439811999981
 31
0.0
  0
LINE
  5
F8D5
  8
0-6
  6
CONTINUOUS
 62
     6
 10
6467.672631917274
 20
14361.18879599998
 30
0.0
 11
6423.9470459172717
 21
14204.985974999991
 31
0.0
  0
LINE
  5
F8D6
  8
0-6
  6
CONTINUOUS
 62
     6
 10
6423.9470459172717
 20
14204.985974999991
 30
0.0
 11
6515.9679369172818
 21
14338.56388799999
 31
0.0
  0
LINE
  5
F8D7
  8
0-6
  6
CONTINUOUS
 62
     6
 10
6423.9470459172717
 20
14204.985974999991
 30
0.0
 11
6467.672631917274
 21
14361.18879599998
 31
0.0
  0
LINE
  5
F8D8
  8
0-6
  6
CONTINUOUS
 62
     6
 10
6467.672631917274
 20
14361.18879599998
 30
0.0
 11
6515.9679369172818
 21
14338.56388799999
 31
0.0
  0
LINE
  5
F8D9
  8
0-6
  6
CONTINUOUS
 62
     6
 10
6515.9679369172818
 20
14338.56388799999
 30
0.0
 11
6423.9470459172717
 21
14204.985974999991
 31
0.0
  0
LINE
  5
F8DA
  8
0-6
  6
CONTINUOUS
 62
     6
 10
6515.9679369172818
 20
14338.56388799999
 30
0.0
 11
6467.672631917274
 21
14361.18879599998
 31
0.0
  0
LINE
  5
F8DB
  8
0-6
  6
CONTINUOUS
 62
     6
 10
7510.3293652169004
 20
13162.98718899999
 30
0.0
 11
8372.9095362168991
 21
13162.98718899999
 31
0.0
  0
LINE
  5
F8DC
  8
0-6
  6
CONTINUOUS
 62
     6
 10
7104.2172722168907
 20
13826.518848
 30
0.0
 11
7510.3293652169004
 21
13162.98718899999
 31
0.0
  0
LINE
  5
F8DD
  8
0-6
  6
CONTINUOUS
 62
     6
 10
5177.6951171510518
 20
14212.276687
 30
0.0
 11
5200.1458271510492
 21
14372.92253799999
 31
0.0
  0
LINE
  5
F8DE
  8
0-6
  6
CONTINUOUS
 62
     6
 10
5200.1458271510492
 20
14372.92253799999
 30
0.0
 11
5126.8086231510379
 21
14228.241504
 31
0.0
  0
LINE
  5
F8DF
  8
0-6
  6
CONTINUOUS
 62
     6
 10
5200.1458271510492
 20
14372.92253799999
 30
0.0
 11
5177.6951171510518
 21
14212.276687
 31
0.0
  0
LINE
  5
F8E0
  8
0-6
  6
CONTINUOUS
 62
     6
 10
5177.6951171510518
 20
14212.276687
 30
0.0
 11
5126.8086231510379
 21
14228.241504
 31
0.0
  0
LINE
  5
F8E1
  8
0-6
  6
CONTINUOUS
 62
     6
 10
5126.8086231510379
 20
14228.241504
 30
0.0
 11
5200.1458271510492
 21
14372.92253799999
 31
0.0
  0
LINE
  5
F8E2
  8
0-6
  6
CONTINUOUS
 62
     6
 10
5126.8086231510379
 20
14228.241504
 30
0.0
 11
5177.6951171510518
 21
14212.276687
 31
0.0
  0
LINE
  5
F8E3
  8
0-6
  6
CONTINUOUS
 62
     6
 10
3485.5115761510492
 20
12349.98618599998
 30
0.0
 11
4565.5111801510502
 21
12349.98618599998
 31
0.0
  0
LINE
  5
F8E4
  8
0-6
  6
CONTINUOUS
 62
     6
 10
5152.2513751510423
 20
14220.25810599999
 30
0.0
 11
4565.5111801510502
 21
12349.98618599998
 31
0.0
  0
LINE
  5
F8E5
  8
0-6
  6
CONTINUOUS
 62
     6
 10
5395.130387151039
 20
18153.375959663921
 30
0.0
 11
5494.170650151038
 21
17932.58243666391
 31
0.0
  0
LINE
  5
F8E6
  8
0-6
  6
CONTINUOUS
 62
     6
 10
13670.14490315104
 20
19519.985579
 30
0.0
 11
13761.83224515105
 21
19653.79311699999
 31
0.0
  0
LINE
  5
F8E7
  8
0-6
  6
CONTINUOUS
 62
     6
 10
13800.27350615103
 20
19616.825606999992
 30
0.0
 11
13670.14490315104
 21
19519.985579
 31
0.0
  0
LINE
  5
F8E8
  8
0-6
  6
CONTINUOUS
 62
     6
 10
13800.27350615103
 20
19616.825606999992
 30
0.0
 11
13761.83224515105
 21
19653.79311699999
 31
0.0
  0
LINE
  5
F8E9
  8
0-6
  6
CONTINUOUS
 62
     6
 10
13781.053371151051
 20
19635.308372
 30
0.0
 11
14298.04225915104
 21
20139.986634999979
 31
0.0
  0
LINE
  5
F8EA
  8
0-6
  6
CONTINUOUS
 62
     6
 10
14298.04225915104
 20
20139.986634999979
 30
0.0
 11
15973.041599151051
 21
20139.986634999979
 31
0.0
  0
LINE
  5
F8EB
  8
2-0
  6
DASHED3
 62
     6
 10
5319.1435181510378
 20
19258.487215000001
 30
0.0
 11
13587.643518151041
 21
19258.487215000001
 31
0.0
  0
LINE
  5
F8EC
  8
2-0
  6
DASHED3
 62
     6
 10
5276.644244151049
 20
19117.7187026016
 30
0.0
 11
5276.644244151048
 21
19343.487743000002
 31
0.0
  0
LINE
  5
F8ED
  8
2-0
  6
DASHED3
 62
     6
 10
5319.1435181510396
 20
19100.183179462489
 30
0.0
 11
5319.1435181510378
 21
19343.487743000002
 31
0.0
  0
LINE
  5
F8EE
  8
2-0
  6
DASHED3
 62
     6
 10
5276.644244151048
 20
19343.487743000002
 30
0.0
 11
13587.643518151041
 21
19343.487743000002
 31
0.0
  0
LINE
  5
F8EF
  8
2-0
  6
DASHED3
 62
     6
 10
8587.6435181510387
 20
17746.365060417251
 30
0.0
 11
8587.6435181510387
 21
19343.487743000002
 31
0.0
  0
LINE
  5
F8F0
  8
2-0
  6
DASHED3
 62
     6
 10
8630.1447721510485
 20
17728.828720315101
 30
0.0
 11
8630.1447721510485
 21
19343.487743000002
 31
0.0
  0
LINE
  5
F8F1
  8
2-0
  6
DASHED3
 62
     6
 10
5389.144244151048
 20
19297.485711000001
 30
0.0
 11
5945.5966038333936
 21
18840.81628603466
 31
0.0
  0
LINE
  5
F8F2
  8
2-0
  6
DASHED3
 62
     6
 10
8517.6447721510485
 20
19297.485711000001
 30
0.0
 11
7285.3179670387854
 21
18286.138887239529
 31
0.0
  0
LINE
  5
F8F3
  8
2-0
  6
CENTER2
 62
     6
 10
8587.6435181510387
 20
20539.987954
 30
0.0
 11
8587.6435181510387
 21
19589.987293999991
 31
0.0
  0
LINE
  5
F8F4
  8
2-0
  6
CENTER2
 62
     6
 10
3989.6434131510459
 20
19297.485711000001
 30
0.0
 11
5636.1426341510378
 21
19297.485711000001
 31
0.0
  0
LINE
  5
F8F5
  8
0-8
  6
CONTINUOUS
 62
     6
 10
5319.1435181510378
 20
20539.987954
 30
0.0
 11
5319.1435181510378
 21
19589.987293999991
 31
0.0
  0
LINE
  5
F8F6
  8
2-0
  6
CENTER2
 62
     6
 10
3989.643413151045
 20
16729.985711000001
 30
0.0
 11
13759.44296615104
 21
16729.985711000001
 31
0.0
  0
LINE
  5
F8F7
  8
2-0
  6
CENTER2
 62
     6
 10
3989.6434131510459
 20
14162.48571100001
 30
0.0
 11
5636.1426341510378
 21
14162.48571100001
 31
0.0
  0
ARC
  5
F8F8
  8
0-1
  6
CONTINUOUS
 62
     3
 10
5302.1427791510287
 20
19484.987690000002
 30
0.0
 40
5.0
 50
269.9999850001808
 51
0.0
  0
ARC
  5
F8F9
  8
0-1
  6
CONTINUOUS
 62
     3
 10
5302.1454804685181
 20
19514.988412922321
 30
0.0
 40
4.99729880777691
 50
359.9871711637191
 51
90.030971551784916
  0
ARC
  5
F8FA
  8
0-1
  6
CONTINUOUS
 62
     3
 10
5238.6398656748024
 20
19514.98850618611
 30
0.0
 40
4.9970736707893684
 50
89.966445412325555
 51
180.01389876465331
  0
CIRCLE
  5
F8FB
  8
0-5
  6
CONTINUOUS
 62
     4
 10
8587.6435181510387
 20
20739.986634999979
 30
0.0
 40
199.9999949999999
  0
CIRCLE
  5
F8FC
  8
0-5
  6
CONTINUOUS
 62
     4
 10
5319.1435181510378
 20
20739.986634999979
 30
0.0
 40
199.9999949999999
  0
CIRCLE
  5
F8FD
  8
0-5
  6
CONTINUOUS
 62
     4
 10
3789.6437421510491
 20
19297.485711000001
 30
0.0
 40
199.9999949999999
  0
CIRCLE
  5
F8FE
  8
0-5
  6
CONTINUOUS
 62
     4
 10
3789.6437421510482
 20
16729.985711000001
 30
0.0
 40
199.9999949999999
  0
CIRCLE
  5
F8FF
  8
0-5
  6
CONTINUOUS
 62
     4
 10
3789.6437421510491
 20
14162.48571100001
 30
0.0
 40
199.9999949999999
  0
CIRCLE
  5
F900
  8
0-5
  6
CONTINUOUS
 62
     4
 10
15128.71667799999
 20
1375.999982000001
 30
0.0
 40
20.0
  0
ARC
  5
F901
  8
0-5
  6
CONTINUOUS
 62
     4
 10
15128.71667799999
 20
1375.999982000001
 30
0.0
 40
20.0
 50
180.0
 51
0.0
  0
ARC
  5
F902
  8
0-5
  6
CONTINUOUS
 62
     4
 10
15128.71667799999
 20
1375.999982000001
 30
0.0
 40
20.0
 50
0.0
 51
179.99998500000001
  0
CIRCLE
  5
F903
  8
0-5
  6
CONTINUOUS
 62
     4
 10
15128.71667799999
 20
1775.999321999999
 30
0.0
 40
20.0
  0
ARC
  5
F904
  8
0-5
  6
CONTINUOUS
 62
     4
 10
15128.71667799999
 20
1775.999321999999
 30
0.0
 40
20.0
 50
180.0
 51
0.0
  0
ARC
  5
F905
  8
0-5
  6
CONTINUOUS
 62
     4
 10
15128.71667799999
 20
1775.999321999999
 30
0.0
 40
20.0
 50
0.0
 51
179.99998500000001
  0
TEXT
  5
F906
  8
0-5
  6
CONTINUOUS
 62
     7
 10
8533.9263121510503
 20
20650.771712000002
 30
0.0
 40
160.0
  1
2
 72
     4
 11
8587.2596454843842
 21
20730.771712000002
 31
0.0
  0
TEXT
  5
F907
  8
0-5
  6
CONTINUOUS
 62
     7
 10
5265.4243331510488
 20
20650.771712000002
 30
0.0
 40
160.0
  1
1
 72
     4
 11
5292.0909998177158
 21
20730.771712000002
 31
0.0
  0
TEXT
  5
F908
  8
0-5
  6
CONTINUOUS
 62
     7
 10
3736.1838741510501
 20
19217.897186999999
 30
0.0
 40
160.0
  1
C
 72
     4
 11
3789.5172074843831
 21
19297.897186999999
 31
0.0
  0
TEXT
  5
F909
  8
0-5
  6
CONTINUOUS
 62
     7
 10
3736.1838741510478
 20
16650.398176999981
 30
0.0
 40
160.0
  1
B
 72
     4
 11
3789.5172074843822
 21
16730.398176999981
 31
0.0
  0
TEXT
  5
F90A
  8
0-5
  6
CONTINUOUS
 62
     7
 10
3736.1838741510501
 20
14082.897187
 30
0.0
 40
160.0
  1
A
 72
     4
 11
3789.5172074843831
 21
14162.897187
 31
0.0
  0
TEXT
  5
F90B
  8
0-5
  6
CONTINUOUS
 62
     7
 10
16661.217403999992
 20
1655.999792000001
 30
0.0
 40
160.0
  1
H
  0
TEXT
  5
F90C
  8
0-5
  6
CONTINUOUS
 62
     7
 10
15176.146933
 20
1655.999792000001
 30
0.0
 40
160.0
  1
（ ）内寸法ハ、  タイプヲ示ス。
  0
TEXT
  5
F90D
  8
0-5
  6
CONTINUOUS
 62
     7
 10
15288.716216000001
 20
1255.999462
 30
0.0
 40
160.0
  1
有効高サハ、基礎高サヲ含ミマセン。
  0
TEXT
  5
F90E
  8
0-6
  6
CONTINUOUS
 62
     7
 10
7941.8882212884209
 20
19829.98610699999
 30
0.0
 40
160.0
  1
屋根
 72
     4
 11
8112.5548879550879
 21
19909.98610699999
 31
0.0
  0
TEXT
  5
F90F
  8
0-6
  6
CONTINUOUS
 62
     7
 10
5589.9123192884263
 20
19829.98610699999
 30
0.0
 40
160.0
  1
桁（後）
 72
     4
 11
5909.9123192884272
 21
19909.98610699999
 31
0.0
  0
TEXT
  5
F910
  8
0-6
  6
CONTINUOUS
 62
     7
 10
6654.706454917271
 20
14606.81538
 30
0.0
 40
160.0
  1
桁（前）
 72
     4
 11
6974.7064549172719
 21
14686.81538
 31
0.0
  0
TEXT
  5
F911
  8
0-6
  6
CONTINUOUS
 62
     7
 10
7590.3286392169048
 20
13242.98646299999
 30
0.0
 40
160.0
  1
鼻隠し前
 72
     4
 11
7952.9953058835717
 21
13322.98646299999
 31
0.0
  0
TEXT
  5
F912
  8
0-6
  6
CONTINUOUS
 62
     7
 10
3565.511840151049
 20
12429.985459999991
 30
0.0
 40
160.0
  1
ケラバ 左
 72
     4
 11
3981.5118401510481
 21
12509.985459999991
 31
0.0
  0
TEXT
  5
F913
  8
0-6
  6
CONTINUOUS
 62
     7
 10
5574.1709141510519
 20
18012.582700663908
 30
0.0
 40
160.0
  1
上枠
 72
     4
 11
5744.8375808177188
 21
18092.582700663908
 31
0.0
  0
TEXT
  5
F914
  8
0-6
  6
CONTINUOUS
 62
     7
 10
14378.042523151051
 20
20219.984918999991
 30
0.0
 40
160.0
  1
鼻隠しコーナー後
 72
     4
 11
15124.70918981772
 21
20299.984918999991
 31
0.0
  0
TEXT
  5
F915
  8
2-0
  6
CONTINUOUS
 62
     7
 10
22873.668069228708
 20
11251.104441999991
 30
0.0
 40
160.0
  1
平　面　図
 72
     4
 11
23327.00140256204
 21
11325.77110866666
 31
0.0
  0
TEXT
  5
F916
  8
2-0
  6
CONTINUOUS
 62
     7
 10
8081.198002010944
 20
11156.81700299998
 30
0.0
 40
160.0
  1
小 屋 伏 図
 72
     4
 11
8582.531335344278
 21
11236.81700299998
 31
0.0
  0
TEXT
  5
F917
  8
2-0
  6
CONTINUOUS
 62
     7
 10
21841.769232999432
 20
3292.802588999999
 30
0.0
 40
160.0
  1
正 面 立 面 図
 72
     4
 11
22487.102566332771
 21
3372.802588999999
 31
0.0
  0
TEXT
  5
F918
  8
2-0
  6
CONTINUOUS
 62
     7
 10
7808.7002624709367
 20
3264.0669070000022
 30
0.0
 40
160.0
  1
側 面 立 面 図
 50
0.000139
 72
     4
 11
8454.0334017217574
 21
3344.0684725833762
 31
0.0
  0
TEXT
  5
F91C
  8
2-0
  6
CONTINUOUS
 62
     7
 10
9805.5255868593831
 20
3291.2638415833758
 30
0.0
 40
160.0
  1
1
 72
     4
 11
9832.1922535260492
 21
3371.2638415833749
 31
0.0
  0
TEXT
  5
F91D
  8
2-0
  6
CONTINUOUS
 62
     7
 10
10048.61430411006
 20
3211.2653095833748
 30
0.0
 40
160.0
  1
80
 72
     4
 11
10168.61430411006
 21
3291.2653095833748
 31
0.0
  0
TEXT
  5
F91E
  8
2-0
  6
CONTINUOUS
 62
     7
 10
9306.5275528593793
 20
3264.0684725833762
 30
0.0
 40
160.0
  1
(S=  /   )
 72
     4
 11
9866.5275528593793
 21
3344.0684725833762
 31
0.0
  0
TEXT
  5
F91F
  8
2-0
  6
CONTINUOUS
 62
     7
 10
23838.594751470391
 20
3319.9979579999999
 30
0.0
 40
160.0
  1
1
 72
     4
 11
23865.261418137059
 21
3399.9979579999999
 31
0.0
  0
TEXT
  5
F920
  8
2-0
  6
CONTINUOUS
 62
     7
 10
24081.683468721101
 20
3239.9994259999989
 30
0.0
 40
160.0
  1
80
 72
     4
 11
24201.683468721101
 21
3319.9994259999989
 31
0.0
  0
TEXT
  5
F921
  8
2-0
  6
CONTINUOUS
 62
     7
 10
23339.596717470398
 20
3292.802588999999
 30
0.0
 40
160.0
  1
(S=  /   )
 72
     4
 11
23899.596717470398
 21
3372.802588999999
 31
0.0
  0
TEXT
  5
F922
  8
2-0
  6
CONTINUOUS
 62
     7
 10
24678.493587699679
 20
11272.96647766667
 30
0.0
 40
160.0
  1
1
 72
     4
 11
24705.160254366339
 21
11352.96647766667
 31
0.0
  0
TEXT
  5
F923
  8
2-0
  6
CONTINUOUS
 62
     7
 10
24921.58230495036
 20
11192.967945666671
 30
0.0
 40
160.0
  1
80
 72
     4
 11
25041.58230495036
 21
11272.967945666671
 31
0.0
  0
TEXT
  5
F924
  8
2-0
  6
CONTINUOUS
 62
     7
 10
24179.495553699671
 20
11245.77110866666
 30
0.0
 40
160.0
  1
(S=  /   )
 72
     4
 11
24739.495553699671
 21
11325.77110866666
 31
0.0
  0
TEXT
  5
F925
  8
2-0
  6
CONTINUOUS
 62
     7
 10
9934.0235204819055
 20
11184.012371999979
 30
0.0
 40
160.0
  1
1
 72
     4
 11
9960.6901871485716
 21
11264.012371999979
 31
0.0
  0
TEXT
  5
F926
  8
2-0
  6
CONTINUOUS
 62
     7
 10
10177.112237732599
 20
11104.01383999998
 30
0.0
 40
160.0
  1
80
 72
     4
 11
10297.112237732599
 21
11184.01383999998
 31
0.0
  0
TEXT
  5
F927
  8
2-0
  6
CONTINUOUS
 62
     7
 10
9435.0254864819035
 20
11156.81700299998
 30
0.0
 40
160.0
  1
(S=  /   )
 72
     4
 11
9995.0254864819053
 21
11236.81700299998
 31
0.0
  0
LINE
  5
F928
  8
2-0
  6
CENTER2
 62
     6
 10
13587.643518151041
 20
20539.987954
 30
0.0
 11
13587.643518151041
 21
19589.987293999991
 31
0.0
  0
CIRCLE
  5
F929
  8
0-5
  6
CONTINUOUS
 62
     4
 10
13587.643518151041
 20
20739.986634999979
 30
0.0
 40
199.9999949999999
  0
TEXT
  5
F92A
  8
0-5
  6
CONTINUOUS
 62
     7
 10
13533.92631215105
 20
20650.771712000002
 30
0.0
 40
160.0
  1
3
 72
     4
 11
13587.259645484381
 21
20730.771712000002
 31
0.0
  0
LINE
  5
F92B
  8
0-1
  6
CONTINUOUS
 62
     3
 10
13655.143756151039
 20
15656.71323723089
 30
0.0
 11
13655.143756151039
 21
19502.48663499999
 31
0.0
  0
LINE
  5
F92C
  8
0-1
  6
CONTINUOUS
 62
     3
 10
13655.143756151039
 20
19502.48663499999
 30
0.0
 11
13673.143518151041
 21
19502.48663499999
 31
0.0
  0
LINE
  5
F92D
  8
0-1
  6
CONTINUOUS
 62
     3
 10
13599.643004151039
 20
19484.987690000002
 30
0.0
 11
13599.643004151039
 21
19514.987293999991
 31
0.0
  0
LINE
  5
F92E
  8
0-1
  6
CONTINUOUS
 62
     3
 10
13655.143756151039
 20
19479.985446999988
 30
0.0
 11
13604.64425815104
 21
19479.985446999988
 31
0.0
  0
LINE
  5
F92F
  8
0-1
  6
CONTINUOUS
 62
     3
 10
13673.143518151041
 20
19514.987293999991
 30
0.0
 11
13673.143518151041
 21
19479.985446999988
 31
0.0
  0
LINE
  5
F930
  8
0-1
  6
CONTINUOUS
 62
     3
 10
13604.64425815104
 20
19519.985579
 30
0.0
 11
13668.14226515102
 21
19519.985579
 31
0.0
  0
ARC
  5
F931
  8
0-1
  6
CONTINUOUS
 62
     3
 10
13668.14226515102
 20
19514.987293999991
 30
0.0
 40
5.0
 50
0.0
 51
90.0
  0
ARC
  5
F932
  8
0-1
  6
CONTINUOUS
 62
     3
 10
13604.64425815104
 20
19514.987293999991
 30
0.0
 40
5.0
 50
90.0
 51
180.0
  0
ARC
  5
F933
  8
0-1
  6
CONTINUOUS
 62
     3
 10
13604.64425815104
 20
19484.987690000002
 30
0.0
 40
5.0
 50
180.0
 51
269.9999850001808
  0
LINE
  5
F934
  8
0-1
  6
CONTINUOUS
 62
     3
 10
8587.6435181510387
 20
14125.986358
 30
0.0
 11
8587.6435181510387
 21
13969.98643699999
 31
0.0
  0
LINE
  5
F935
  8
0-1
  6
CONTINUOUS
 62
     3
 10
5073.8130793432483
 20
19201.755979136
 30
0.0
 11
8996.4419714956912
 21
17577.69171465941
 31
0.0
  0
LINE
  5
F936
  8
0-1
  6
CONTINUOUS
 62
     3
 10
13537.643887151051
 20
14001.986344000001
 30
0.0
 11
13537.643887151051
 21
15705.1951467899
 31
0.0
  0
LINE
  5
F937
  8
0-1
  6
CONTINUOUS
 62
     3
 10
13673.143518151041
 20
13969.98643699999
 30
0.0
 11
13673.143518151041
 21
15649.28639876184
 31
0.0
  0
LINE
  5
F938
  8
0-1
  6
CONTINUOUS
 62
     3
 10
13587.643518151041
 20
14125.986358
 30
0.0
 11
13587.643518151041
 21
15683.327096625921
 31
0.0
  0
LINE
  5
F939
  8
0-1
  6
CONTINUOUS
 62
     3
 10
13630.14477215105
 20
14125.986358
 30
0.0
 11
13630.14477215105
 21
15665.79075652376
 31
0.0
  0
LINE
  5
F93A
  8
0-1
  6
CONTINUOUS
 62
     3
 10
13537.643887151051
 20
15705.1951467899
 30
0.0
 11
13537.643887151051
 21
19461.985685
 31
0.0
  0
LINE
  5
F93B
  8
0-1
  6
CONTINUOUS
 62
     3
 10
13673.143518151041
 20
15649.28639876184
 30
0.0
 11
13673.143518151041
 21
19502.48663499999
 31
0.0
  0
LINE
  5
F93C
  8
0-1
  6
CONTINUOUS
 62
     3
 10
13440.143650151031
 20
15744.186662093551
 30
0.0
 11
13440.143650151031
 21
19461.985685
 31
0.0
  0
LINE
  5
F93D
  8
0-1
  6
CONTINUOUS
 62
     3
 10
13477.14580115104
 20
15728.919293642561
 30
0.0
 11
13477.14580115104
 21
19461.985685
 31
0.0
  0
LINE
  5
F93E
  8
2-0
  6
DASHED3
 62
     6
 10
13587.643518151041
 20
15683.327096625921
 30
0.0
 11
13587.64351815103
 21
19461.985685
 31
0.0
  0
LINE
  5
F93F
  8
2-0
  6
DASHED3
 62
     6
 10
13630.14477215105
 20
15665.79075652376
 30
0.0
 11
13630.14477215105
 21
19461.985685
 31
0.0
  0
LINE
  5
F940
  8
0-1
  6
CONTINUOUS
 62
     3
 10
5233.6435181510396
 20
19134.223060776141
 30
0.0
 11
5233.6435181510387
 21
19509.987031000001
 31
0.0
  0
LINE
  5
F941
  8
0-1
  6
CONTINUOUS
 62
     3
 10
5369.1441381510504
 20
19078.314721229592
 30
0.0
 11
5369.1441381510504
 21
19461.985685
 31
0.0
  0
LINE
  5
F942
  8
0-1
  6
CONTINUOUS
 62
     3
 10
8440.1456291510513
 20
17807.22380933446
 30
0.0
 11
8440.1456291510513
 21
19461.985685
 31
0.0
  0
LINE
  5
F943
  8
0-1
  6
CONTINUOUS
 62
     3
 10
8477.1458011510585
 20
17791.957257433889
 30
0.0
 11
8477.1458011510585
 21
19461.985685
 31
0.0
  0
LINE
  5
F944
  8
0-1
  6
CONTINUOUS
 62
     3
 10
8640.14628915106
 20
17724.70201846179
 30
0.0
 11
8640.14628915106
 21
19461.985685
 31
0.0
  0
LINE
  5
F945
  8
0-1
  6
CONTINUOUS
 62
     3
 10
8677.1464611510692
 20
17709.435466561219
 30
0.0
 11
8677.1464611510692
 21
19461.985685
 31
0.0
  0
LINE
  5
F946
  8
0-1
  6
CONTINUOUS
 62
     3
 10
8840.1469491510725
 20
17642.180227589099
 30
0.0
 11
8840.1469491510725
 21
19461.985685
 31
0.0
  0
LINE
  5
F947
  8
0-1
  6
CONTINUOUS
 62
     3
 10
8877.1471211510816
 20
17626.913675688538
 30
0.0
 11
8877.1471211510816
 21
19461.985685
 31
0.0
  0
LINE
  5
F948
  8
0-1
  6
CONTINUOUS
 62
     3
 10
9040.1476091510795
 20
17683.61714701321
 30
0.0
 11
9040.1476091510795
 21
19461.985685
 31
0.0
  0
LINE
  5
F949
  8
0-1
  6
CONTINUOUS
 62
     3
 10
9077.1477811510867
 20
17773.291143927981
 30
0.0
 11
9077.1477811510867
 21
19461.985685
 31
0.0
  0
LINE
  5
F94A
  8
0-1
  6
CONTINUOUS
 62
     3
 10
9240.1482691510901
 20
17638.213552947622
 30
0.0
 11
9240.1482691510901
 21
19461.985685
 31
0.0
  0
LINE
  5
F94B
  8
0-1
  6
CONTINUOUS
 62
     3
 10
9277.1484411510955
 20
17595.670312558748
 30
0.0
 11
9277.1484411510955
 21
19461.985685
 31
0.0
  0
LINE
  5
F94C
  8
0-1
  6
CONTINUOUS
 62
     3
 10
9440.1489291511043
 20
17408.250401524641
 30
0.0
 11
9440.1489291511007
 21
19461.985685
 31
0.0
  0
LINE
  5
F94D
  8
0-1
  6
CONTINUOUS
 62
     3
 10
9477.1491011511116
 20
17365.707161135771
 30
0.0
 11
9477.1491011511098
 21
19461.985685
 31
0.0
  0
LINE
  5
F94E
  8
0-1
  6
CONTINUOUS
 62
     3
 10
9640.1495891511113
 20
17178.287250101661
 30
0.0
 11
9640.1495891511113
 21
19461.985685
 31
0.0
  0
LINE
  5
F94F
  8
0-1
  6
CONTINUOUS
 62
     3
 10
9677.1497611511204
 20
17135.74400971278
 30
0.0
 11
9677.1497611511204
 21
19461.985685
 31
0.0
  0
LINE
  5
F950
  8
0-1
  6
CONTINUOUS
 62
     3
 10
9840.1502491511219
 20
17000.69523749184
 30
0.0
 11
9840.1502491511219
 21
19461.985685
 31
0.0
  0
LINE
  5
F951
  8
0-1
  6
CONTINUOUS
 62
     3
 10
9877.1504211511274
 20
17090.373517523742
 30
0.0
 11
9877.1504211511274
 21
19461.985685
 31
0.0
  0
LINE
  5
F952
  8
0-1
  6
CONTINUOUS
 62
     3
 10
10040.150909151131
 20
17147.049482353101
 30
0.0
 11
10040.150909151131
 21
19461.985685
 31
0.0
  0
LINE
  5
F953
  8
0-1
  6
CONTINUOUS
 62
     3
 10
10077.151081151131
 20
17131.782930452511
 30
0.0
 11
10077.15108115114
 21
19461.985685
 31
0.0
  0
LINE
  5
F954
  8
0-1
  6
CONTINUOUS
 62
     3
 10
10240.15156915113
 20
17064.527691480431
 30
0.0
 11
10240.15156915113
 21
19461.985685
 31
0.0
  0
LINE
  5
F955
  8
0-1
  6
CONTINUOUS
 62
     3
 10
10277.15174115114
 20
17049.261139579859
 30
0.0
 11
10277.15174115114
 21
19461.985685
 31
0.0
  0
LINE
  5
F956
  8
0-1
  6
CONTINUOUS
 62
     3
 10
10440.152229151139
 20
16982.00590060775
 30
0.0
 11
10440.152229151139
 21
19461.985685
 31
0.0
  0
LINE
  5
F957
  8
0-1
  6
CONTINUOUS
 62
     3
 10
10477.15240115115
 20
16966.739348707179
 30
0.0
 11
10477.15240115115
 21
19461.985685
 31
0.0
  0
LINE
  5
F958
  8
0-1
  6
CONTINUOUS
 62
     3
 10
10640.15288915115
 20
16899.48410973508
 30
0.0
 11
10640.15288915115
 21
19461.985685
 31
0.0
  0
LINE
  5
F959
  8
0-1
  6
CONTINUOUS
 62
     3
 10
10677.15306115115
 20
16884.217557834509
 30
0.0
 11
10677.15306115115
 21
19461.985685
 31
0.0
  0
LINE
  5
F95A
  8
0-1
  6
CONTINUOUS
 62
     3
 10
10840.15354915116
 20
16816.962318862421
 30
0.0
 11
10840.15354915116
 21
19461.985685
 31
0.0
  0
LINE
  5
F95B
  8
0-1
  6
CONTINUOUS
 62
     3
 10
10877.15372115117
 20
16801.69576696185
 30
0.0
 11
10877.15372115117
 21
19461.985685
 31
0.0
  0
LINE
  5
F95C
  8
0-1
  6
CONTINUOUS
 62
     3
 10
11040.15420915116
 20
16734.440527989751
 30
0.0
 11
11040.15420915116
 21
19461.985685
 31
0.0
  0
LINE
  5
F95D
  8
0-1
  6
CONTINUOUS
 62
     3
 10
11077.154381151169
 20
16719.17397608918
 30
0.0
 11
11077.154381151169
 21
19461.985685
 31
0.0
  0
LINE
  5
F95E
  8
0-1
  6
CONTINUOUS
 62
     3
 10
11240.154869151171
 20
16651.918737117048
 30
0.0
 11
11240.154869151171
 21
19461.985685
 31
0.0
  0
LINE
  5
F95F
  8
0-1
  6
CONTINUOUS
 62
     3
 10
11277.155041151191
 20
16636.652185216499
 30
0.0
 11
11277.155041151191
 21
19461.985685
 31
0.0
  0
LINE
  5
F960
  8
0-1
  6
CONTINUOUS
 62
     3
 10
11440.15552915119
 20
16569.396946244411
 30
0.0
 11
11440.15552915119
 21
19461.985685
 31
0.0
  0
LINE
  5
F961
  8
0-1
  6
CONTINUOUS
 62
     3
 10
11477.1557011512
 20
16554.13039434384
 30
0.0
 11
11477.1557011512
 21
19461.985685
 31
0.0
  0
LINE
  5
F962
  8
0-1
  6
CONTINUOUS
 62
     3
 10
11640.156189151199
 20
16486.875155371741
 30
0.0
 11
11640.156189151199
 21
19461.985685
 31
0.0
  0
LINE
  5
F963
  8
0-1
  6
CONTINUOUS
 62
     3
 10
11677.156361151199
 20
16471.60860347117
 30
0.0
 11
11677.156361151199
 21
19461.985685
 31
0.0
  0
LINE
  5
F964
  8
0-1
  6
CONTINUOUS
 62
     3
 10
11840.156849151201
 20
16404.353364499071
 30
0.0
 11
11840.156849151201
 21
19461.985685
 31
0.0
  0
LINE
  5
F965
  8
0-1
  6
CONTINUOUS
 62
     3
 10
11877.157021151201
 20
16389.0868125985
 30
0.0
 11
11877.157021151201
 21
19461.985685
 31
0.0
  0
LINE
  5
F966
  8
0-1
  6
CONTINUOUS
 62
     3
 10
12040.1575091512
 20
16321.83157362639
 30
0.0
 11
12040.15750915122
 21
19461.985685
 31
0.0
  0
LINE
  5
F967
  8
0-1
  6
CONTINUOUS
 62
     3
 10
12077.15768115122
 20
16306.565021725821
 30
0.0
 11
12077.15768115122
 21
19461.985685
 31
0.0
  0
LINE
  5
F968
  8
0-1
  6
CONTINUOUS
 62
     3
 10
12240.15816915122
 20
16239.309782753709
 30
0.0
 11
12240.15816915122
 21
19461.985685
 31
0.0
  0
LINE
  5
F969
  8
0-1
  6
CONTINUOUS
 62
     3
 10
12277.15834115122
 20
16224.04323085316
 30
0.0
 11
12277.15834115122
 21
19461.985685
 31
0.0
  0
LINE
  5
F96A
  8
0-1
  6
CONTINUOUS
 62
     3
 10
12440.158829151231
 20
16156.78799188105
 30
0.0
 11
12440.158829151231
 21
19461.985685
 31
0.0
  0
LINE
  5
F96B
  8
0-1
  6
CONTINUOUS
 62
     3
 10
12477.15900115124
 20
16141.52143998049
 30
0.0
 11
12477.15900115124
 21
19461.985685
 31
0.0
  0
LINE
  5
F96C
  8
0-1
  6
CONTINUOUS
 62
     3
 10
12640.15948915123
 20
16074.26620100838
 30
0.0
 11
12640.15948915123
 21
19461.985685
 31
0.0
  0
LINE
  5
F96D
  8
0-1
  6
CONTINUOUS
 62
     3
 10
12677.15966115125
 20
16058.99964910782
 30
0.0
 11
12677.15966115125
 21
19461.985685
 31
0.0
  0
LINE
  5
F96E
  8
0-1
  6
CONTINUOUS
 62
     3
 10
12840.16014915125
 20
15991.74441013571
 30
0.0
 11
12840.16014915125
 21
19461.985685
 31
0.0
  0
LINE
  5
F96F
  8
0-1
  6
CONTINUOUS
 62
     3
 10
12877.16032115125
 20
15976.477858235139
 30
0.0
 11
12877.16032115125
 21
19461.985685
 31
0.0
  0
LINE
  5
F970
  8
0-1
  6
CONTINUOUS
 62
     3
 10
13040.16080915125
 20
15909.22261926303
 30
0.0
 11
13040.16080915125
 21
19461.985685
 31
0.0
  0
LINE
  5
F971
  8
0-1
  6
CONTINUOUS
 62
     3
 10
13077.16098115127
 20
15893.95606736248
 30
0.0
 11
13077.16098115127
 21
19461.985685
 31
0.0
  0
LINE
  5
F972
  8
0-1
  6
CONTINUOUS
 62
     3
 10
13240.16146915127
 20
15826.700828390371
 30
0.0
 11
13240.16146915127
 21
19461.985685
 31
0.0
  0
LINE
  5
F973
  8
0-1
  6
CONTINUOUS
 62
     3
 10
13277.16164115127
 20
15811.43427648981
 30
0.0
 11
13277.16164115127
 21
19461.985685
 31
0.0
  0
LINE
  5
F974
  8
2-0
  6
DASHED3
 62
     6
 10
10941.88272864067
 20
16774.988087000002
 30
0.0
 11
13587.643518151041
 21
16774.988087000002
 31
0.0
  0
LINE
  5
F975
  8
2-0
  6
DASHED3
 62
     6
 10
11160.01436891983
 20
16684.985315999991
 30
0.0
 11
13587.643518151041
 21
16684.985315999991
 31
0.0
  0
LINE
  5
F976
  8
0-1
  6
CONTINUOUS
 62
     3
 10
8587.6435181510387
 20
16684.985315999991
 30
0.0
 11
11160.01436891983
 21
16684.985315999991
 31
0.0
  0
LINE
  5
F977
  8
0-1
  6
CONTINUOUS
 62
     3
 10
8587.6435181510387
 20
16774.988087000002
 30
0.0
 11
10941.88272864067
 21
16774.988087000002
 31
0.0
  0
LINE
  5
F978
  8
0-1
  6
CONTINUOUS
 62
     3
 10
8647.1438871510509
 20
14162.48571100001
 30
0.0
 11
10896.143887151051
 21
16729.985711000001
 31
0.0
  0
LINE
  5
F979
  8
0-1
  6
CONTINUOUS
 62
     3
 10
10896.143887151051
 20
14162.48571100001
 30
0.0
 11
8647.1438871510509
 21
16729.985711000001
 31
0.0
  0
LINE
  5
F97A
  8
0-6
  6
CONTINUOUS
 62
     6
 10
13534.643887151051
 20
15622.07550424462
 30
0.0
 11
13276.58890654774
 21
15239.93619976359
 31
0.0
  0
LINE
  5
F97B
  8
2-0
  6
DASHED3
 62
     6
 10
12700.836652977239
 20
16049.23034250678
 30
0.0
 11
13297.143887151051
 21
16729.985711000001
 31
0.0
  0
LINE
  5
F97C
  8
2-0
  6
DASHED3
 62
     6
 10
8647.1438871510509
 20
19297.485711000001
 30
0.0
 11
10823.593073444301
 21
16823.795296878779
 31
0.0
  0
LINE
  5
F97D
  8
2-0
  6
DASHED3
 62
     6
 10
10896.143887151051
 20
19297.485711000001
 30
0.0
 11
9298.0572541078218
 21
17571.62910929451
 31
0.0
  0
LINE
  5
F97E
  8
0-1
  6
CONTINUOUS
 62
     3
 10
9298.0572541078218
 20
17571.62910929451
 30
0.0
 11
8647.1438871510509
 21
16729.985711000001
 31
0.0
  0
LINE
  5
F97F
  8
0-1
  6
CONTINUOUS
 62
     3
 10
8996.4414337359103
 20
17577.690411339281
 30
0.0
 11
9091.7954540594365
 21
17808.791394445481
 31
0.0
  0
LINE
  5
F980
  8
0-1
  6
CONTINUOUS
 62
     3
 10
9825.4949862426547
 20
16965.174895287859
 30
0.0
 11
9920.8456359201737
 21
17196.278746994321
 31
0.0
  0
LINE
  5
F981
  8
0-1
  6
CONTINUOUS
 62
     3
 10
9825.4949862426547
 20
16965.174895287859
 30
0.0
 11
9091.7954540594365
 21
17808.791394445481
 31
0.0
  0
LINE
  5
F982
  8
0-1
  6
CONTINUOUS
 62
     3
 10
9920.8445771413299
 20
17196.276180804489
 30
0.0
 11
13910.14490315104
 21
15550.260576499861
 31
0.0
  0
LINE
  5
F983
  8
0-6
  6
CONTINUOUS
 62
     6
 10
6539.0063276594155
 20
16307.70231181539
 30
0.0
 11
7419.0052716594291
 21
16307.70231181539
 31
0.0
  0
LINE
  5
F984
  8
0-6
  6
CONTINUOUS
 62
     6
 10
6361.2441903110303
 20
16137.68518414507
 30
0.0
 11
6539.0063276594155
 21
16307.70231181539
 31
0.0
  0
LINE
  5
F985
  8
0-6
  6
CONTINUOUS
 62
     6
 10
6245.6165503110387
 20
16027.09542014505
 30
0.0
 11
6342.8138823110421
 21
16156.95777714506
 31
0.0
  0
LINE
  5
F986
  8
0-6
  6
CONTINUOUS
 62
     6
 10
6379.6754873110249
 20
16118.412591145059
 30
0.0
 11
6245.6165503110387
 21
16027.09542014505
 31
0.0
  0
LINE
  5
F987
  8
0-6
  6
CONTINUOUS
 62
     6
 10
6379.6754873110249
 20
16118.412591145059
 30
0.0
 11
6342.8138823110421
 21
16156.95777714506
 31
0.0
  0
TEXT
  5
F988
  8
0-6
  6
CONTINUOUS
 62
     7
 10
6619.0075816594263
 20
16387.70257581539
 30
0.0
 40
160.0
  1
ブレース
 72
     4
 11
6981.6742483260923
 21
16473.035909148719
 31
0.0
  0
LINE
  5
F989
  8
0-6
  6
CONTINUOUS
 62
     6
 10
7279.9483397106942
 20
16784.988192000001
 30
0.0
 11
7160.6507213783434
 21
17100.58053000001
 31
0.0
  0
LINE
  5
F98A
  8
0-6
  6
CONTINUOUS
 62
     6
 10
6360.0799603783544
 20
17100.58053000001
 30
0.0
 11
7160.6507213783434
 21
17100.58053000001
 31
0.0
  0
TEXT
  5
F98B
  8
0-6
  6
CONTINUOUS
 62
     7
 10
6440.6503253783403
 20
17180.580794000001
 30
0.0
 40
160.0
  1
桁（中）
 72
     4
 11
6760.6503253783403
 21
17260.580794000001
 31
0.0
  0
LINE
  5
F98C
  8
0-6
  6
CONTINUOUS
 62
     6
 10
10404.48774209701
 20
15572.503360188721
 30
0.0
 11
11284.48668609702
 21
15572.503360188721
 31
0.0
  0
LINE
  5
F98D
  8
0-6
  6
CONTINUOUS
 62
     6
 10
11652.228391671641
 20
16040.3516668219
 30
0.0
 11
11284.48668609702
 21
15572.503360188721
 31
0.0
  0
TEXT
  5
F98E
  8
0-6
  6
CONTINUOUS
 62
     7
 10
10484.48899609701
 20
15652.503624188699
 30
0.0
 40
160.0
  1
ブレース
 72
     4
 11
10847.15566276368
 21
15737.83695752204
 31
0.0
  0
LINE
  5
F98F
  8
0-1
  6
CONTINUOUS
 62
     3
 10
10896.143887151051
 20
16729.985711000001
 30
0.0
 11
10823.593073444301
 21
16823.795296878779
 31
0.0
  0
LINE
  5
F990
  8
2-0
  6
DASHED3
 62
     6
 10
11048.143887151051
 20
19297.485711000001
 30
0.0
 11
13297.143887151051
 21
16729.985711000001
 31
0.0
  0
LINE
  5
F991
  8
2-0
  6
DASHED3
 62
     6
 10
13297.143887151051
 20
19297.485711000001
 30
0.0
 11
11048.14388715104
 21
16729.985711000001
 31
0.0
  0
LINE
  5
F992
  8
0-1
  6
CONTINUOUS
 62
     3
 10
11048.143887151051
 20
14162.48571100001
 30
0.0
 11
12700.836652977239
 21
16049.23034250678
 31
0.0
  0
LINE
  5
F993
  8
0-1
  6
CONTINUOUS
 62
     3
 10
13297.143887151051
 20
14162.48571100001
 30
0.0
 11
11048.143887151051
 21
16729.985711000001
 31
0.0
  0
LINE
  5
F999
  8
SUNPOU
  6
CONTINUOUS
 10
4389.6437421510491
 20
19519.98359950001
 30
0.0
 11
4389.6437421510491
 21
20316.950867278461
 31
0.0
  0
LINE
  5
F99A
  8
SUNPOU
  6
CONTINUOUS
 10
4389.6437421510318
 20
13228.673846847811
 30
0.0
 11
4389.6437421510318
 21
13969.98643699999
 31
0.0
  0
LINE
  5
F99B
  8
0-1
  6
CONTINUOUS
 62
     3
 10
6440.1449691510579
 20
18636.061171735011
 30
0.0
 11
6440.1449691510579
 21
19461.985685
 31
0.0
  0
LINE
  5
F99C
  8
0-1
  6
CONTINUOUS
 62
     3
 10
6477.145141151057
 20
18620.742195921401
 30
0.0
 11
6477.1451411510579
 21
19461.985685
 31
0.0
  0
LINE
  5
F99D
  8
0-1
  6
CONTINUOUS
 62
     3
 10
6640.1446401510584
 20
18553.256418211698
 30
0.0
 11
6640.1446401510602
 21
19461.985685
 31
0.0
  0
LINE
  5
F99E
  8
0-1
  6
CONTINUOUS
 62
     3
 10
6677.1458011510476
 20
18537.937032927912
 30
0.0
 11
6677.1458011510476
 21
19461.985685
 31
0.0
  0
LINE
  5
F99F
  8
0-1
  6
CONTINUOUS
 62
     3
 10
6240.1443101510586
 20
18718.86633431452
 30
0.0
 11
6240.1443101510613
 21
19461.985685
 31
0.0
  0
LINE
  5
F9A0
  8
0-1
  6
CONTINUOUS
 62
     3
 10
6277.1434911510587
 20
18703.54776879913
 30
0.0
 11
6277.1434911510587
 21
19461.985685
 31
0.0
  0
LINE
  5
F9A1
  8
0-1
  6
CONTINUOUS
 62
     3
 10
19816.006397585181
 20
8132.6883740000021
 30
0.0
 11
22999.50982858516
 21
8132.6883740000021
 31
0.0
  0
LINE
  5
F9A2
  8
0-1
  6
CONTINUOUS
 62
     3
 10
19816.006397585181
 20
8326.1887430000024
 30
0.0
 11
22999.50982858516
 21
8326.1887430000024
 31
0.0
  0
LINE
  5
F9A3
  8
0-1
  6
CONTINUOUS
 62
     3
 10
19688.010092585158
 20
8264.0026619999971
 30
0.0
 11
19688.010092585158
 21
8589.6883999999973
 31
0.0
  0
LINE
  5
F9A4
  8
0-1
  6
CONTINUOUS
 62
     3
 10
23084.50837758516
 20
8459.6884660000014
 30
0.0
 11
19688.010092585158
 21
8459.6884660000014
 31
0.0
  0
LINE
  5
F9A5
  8
0-1
  6
CONTINUOUS
 62
     3
 10
19688.010092585158
 20
8589.6883999999973
 30
0.0
 11
23064.51128058515
 21
8589.6883999999973
 31
0.0
  0
LINE
  5
F9A6
  8
0-1
  6
CONTINUOUS
 62
     3
 10
7680.7332144709508
 20
8152.2344180000064
 30
0.0
 11
7680.7332144709508
 21
6291.1885390000007
 31
0.0
  0
LINE
  5
F9A7
  8
0-1
  6
CONTINUOUS
 62
     3
 10
7643.7350224709498
 20
8152.2344180000064
 30
0.0
 11
7643.7350224709498
 21
6291.1885390000007
 31
0.0
  0
LINE
  5
F9A8
  8
0-1
  6
CONTINUOUS
 62
     3
 10
8380.7325544709456
 20
8152.2344180000064
 30
0.0
 11
8380.7325544709456
 21
6291.1885390000007
 31
0.0
  0
LINE
  5
F9A9
  8
0-1
  6
CONTINUOUS
 62
     3
 10
8343.7343624709465
 20
8152.2344180000064
 30
0.0
 11
8343.7343624709465
 21
6291.1885390000007
 31
0.0
  0
LINE
  5
F9AA
  8
0-1
  6
CONTINUOUS
 62
     3
 10
8002.2327654709388
 20
6291.1885390000007
 30
0.0
 11
8002.2327654709388
 21
8152.2344180000064
 31
0.0
  0
LINE
  5
F9AB
  8
0-1
  6
CONTINUOUS
 62
     3
 10
8022.2338214709553
 20
6291.1885390000007
 30
0.0
 11
8022.2338214709553
 21
8152.2344180000064
 31
0.0
  0
LINE
  5
F9AC
  8
0-1
  6
CONTINUOUS
 62
     3
 10
7952.2340854709473
 20
6291.1885390000007
 30
0.0
 11
7952.2340854709473
 21
8152.2344180000064
 31
0.0
  0
LINE
  5
F9AD
  8
0-1
  6
CONTINUOUS
 62
     3
 10
8072.2334914709509
 20
6291.1885390000007
 30
0.0
 11
8072.2334914709509
 21
8152.2344180000064
 31
0.0
  0
LINE
  5
F9AE
  8
0-1
  6
CONTINUOUS
 62
     3
 10
8205.2333854709432
 20
6291.1885390000007
 30
0.0
 11
8205.2333854709432
 21
8152.2344180000064
 31
0.0
  0
LINE
  5
F9AF
  8
0-1
  6
CONTINUOUS
 62
     3
 10
8220.2331874709489
 20
6291.1885390000007
 30
0.0
 11
8220.2331874709489
 21
8152.2344180000064
 31
0.0
  0
LINE
  5
F9B0
  8
0-1
  6
CONTINUOUS
 62
     3
 10
7819.233200470946
 20
6291.1885390000007
 30
0.0
 11
7819.233200470946
 21
8152.2344180000064
 31
0.0
  0
LINE
  5
F9B1
  8
0-1
  6
CONTINUOUS
 62
     3
 10
7804.2343884709553
 20
6291.1885390000007
 30
0.0
 11
7804.2343884709553
 21
8152.2344180000064
 31
0.0
  0
LINE
  5
F9B2
  8
0-1
  6
CONTINUOUS
 62
     3
 10
7520.2338474709541
 20
6291.1885390000007
 30
0.0
 11
7520.2338474709541
 21
8152.2344180000064
 31
0.0
  0
LINE
  5
F9B3
  8
0-1
  6
CONTINUOUS
 62
     3
 10
7505.233055470947
 20
6291.1885390000007
 30
0.0
 11
7505.233055470947
 21
8152.2344180000064
 31
0.0
  0
LINE
  5
F9B4
  8
0-1
  6
CONTINUOUS
 62
     3
 10
7372.2341514709406
 20
6291.1885390000007
 30
0.0
 11
7372.2341514709406
 21
8152.2344180000064
 31
0.0
  0
LINE
  5
F9B5
  8
0-1
  6
CONTINUOUS
 62
     3
 10
7252.232765470947
 20
6291.1885390000007
 30
0.0
 11
7252.232765470947
 21
8152.2344180000064
 31
0.0
  0
LINE
  5
F9B6
  8
0-1
  6
CONTINUOUS
 62
     3
 10
7322.2354704709569
 20
6291.1885390000007
 30
0.0
 11
7322.2354704709569
 21
8152.2344180000064
 31
0.0
  0
LINE
  5
F9B7
  8
0-1
  6
CONTINUOUS
 62
     3
 10
7302.2344154709572
 20
6291.1885390000007
 30
0.0
 11
7302.2344154709572
 21
8152.2344180000064
 31
0.0
  0
LINE
  5
F9B8
  8
0-1
  6
CONTINUOUS
 62
     3
 10
8504.2327394709428
 20
6291.1885390000007
 30
0.0
 11
8504.2327394709428
 21
8152.2344180000064
 31
0.0
  0
LINE
  5
F9B9
  8
0-1
  6
CONTINUOUS
 62
     3
 10
8519.2335304709577
 20
6291.1885390000007
 30
0.0
 11
8519.2335304709577
 21
8152.2344180000064
 31
0.0
  0
LINE
  5
F9BA
  8
0-1
  6
CONTINUOUS
 62
     3
 10
8652.2344154709572
 20
6291.1885390000007
 30
0.0
 11
8652.2344154709572
 21
8152.2344180000064
 31
0.0
  0
LINE
  5
F9BB
  8
0-1
  6
CONTINUOUS
 62
     3
 10
8920.2335174709515
 20
6291.1885390000007
 30
0.0
 11
8920.2335174709515
 21
8152.2344180000064
 31
0.0
  0
LINE
  5
F9BC
  8
0-1
  6
CONTINUOUS
 62
     3
 10
8905.2347054709553
 20
6291.1885390000007
 30
0.0
 11
8905.2347054709553
 21
8152.2344180000064
 31
0.0
  0
LINE
  5
F9BD
  8
0-1
  6
CONTINUOUS
 62
     3
 10
8772.2338214709453
 20
6291.1885390000007
 30
0.0
 11
8772.2338214709453
 21
8152.2344180000064
 31
0.0
  0
LINE
  5
F9BE
  8
0-1
  6
CONTINUOUS
 62
     3
 10
8722.2341514709406
 20
6291.1885390000007
 30
0.0
 11
8722.2341514709406
 21
8152.2344180000064
 31
0.0
  0
LINE
  5
F9BF
  8
0-1
  6
CONTINUOUS
 62
     3
 10
8702.2350744709547
 20
6291.1885390000007
 30
0.0
 11
8702.2350744709547
 21
8152.2344180000064
 31
0.0
  0
LINE
  5
F9C0
  8
0-1
  6
CONTINUOUS
 62
     3
 10
9530.2340454709465
 20
6291.1885390000007
 30
0.0
 11
9530.2340454709465
 21
8152.2344180000064
 31
0.0
  0
LINE
  5
F9C1
  8
0-1
  6
CONTINUOUS
 62
     3
 10
9510.2349694709555
 20
6291.1885390000007
 30
0.0
 11
9510.2349694709555
 21
8152.2344180000064
 31
0.0
  0
LINE
  5
F9C2
  8
0-1
  6
CONTINUOUS
 62
     3
 10
9580.2347054709408
 20
6291.1885390000007
 30
0.0
 11
9580.2347054709408
 21
8152.2344180000064
 31
0.0
  0
LINE
  5
F9C3
  8
0-1
  6
CONTINUOUS
 62
     3
 10
9460.2343094709522
 20
6291.1885390000007
 30
0.0
 11
9460.2343094709522
 21
8152.2344180000064
 31
0.0
  0
LINE
  5
F9C4
  8
0-1
  6
CONTINUOUS
 62
     3
 10
9327.2344154709444
 20
6291.1885390000007
 30
0.0
 11
9327.2344154709444
 21
8152.2344180000064
 31
0.0
  0
LINE
  5
F9C5
  8
0-1
  6
CONTINUOUS
 62
     3
 10
9312.2326334709342
 20
6291.1885390000007
 30
0.0
 11
9312.2326334709342
 21
8152.2344180000064
 31
0.0
  0
LINE
  5
F9C6
  8
0-1
  6
CONTINUOUS
 62
     3
 10
9713.2345994709485
 20
6291.1885390000007
 30
0.0
 11
9713.2345994709485
 21
8152.2344180000064
 31
0.0
  0
LINE
  5
F9C7
  8
0-1
  6
CONTINUOUS
 62
     3
 10
9728.2334124709523
 20
6291.1885390000007
 30
0.0
 11
9728.2334124709523
 21
8152.2344180000064
 31
0.0
  0
LINE
  5
F9C8
  8
0-1
  6
CONTINUOUS
 62
     3
 10
10930.23470547095
 20
6291.1885390000007
 30
0.0
 11
10930.23470547095
 21
8152.2344180000064
 31
0.0
  0
LINE
  5
F9C9
  8
0-1
  6
CONTINUOUS
 62
     3
 10
10910.233649470951
 20
6291.1885390000007
 30
0.0
 11
10910.233649470951
 21
8152.2344180000064
 31
0.0
  0
LINE
  5
F9CA
  8
0-1
  6
CONTINUOUS
 62
     3
 10
10980.23338547096
 20
6291.1885390000007
 30
0.0
 11
10980.23338547096
 21
8152.2344180000064
 31
0.0
  0
LINE
  5
F9CB
  8
0-1
  6
CONTINUOUS
 62
     3
 10
10860.234969470939
 20
6291.1885390000007
 30
0.0
 11
10860.234969470939
 21
8152.2344180000064
 31
0.0
  0
LINE
  5
F9CC
  8
0-1
  6
CONTINUOUS
 62
     3
 10
10727.23408547094
 20
6291.1885390000007
 30
0.0
 11
10727.23408547094
 21
8152.2344180000064
 31
0.0
  0
LINE
  5
F9CD
  8
0-1
  6
CONTINUOUS
 62
     3
 10
10712.23428347094
 20
6291.1885390000007
 30
0.0
 11
10712.23428347094
 21
8152.2344180000064
 31
0.0
  0
LINE
  5
F9CE
  8
0-1
  6
CONTINUOUS
 62
     3
 10
11113.23229047096
 20
6291.1885390000007
 30
0.0
 11
11113.23229047096
 21
8152.2344180000064
 31
0.0
  0
LINE
  5
F9CF
  8
0-1
  6
CONTINUOUS
 62
     3
 10
11128.23407147095
 20
6291.1885390000007
 30
0.0
 11
11128.23407147095
 21
8152.2344180000064
 31
0.0
  0
LINE
  5
F9D0
  8
0-1
  6
CONTINUOUS
 62
     3
 10
10428.23473147095
 20
6291.1885390000007
 30
0.0
 11
10428.23473147095
 21
8152.2344180000064
 31
0.0
  0
LINE
  5
F9D1
  8
0-1
  6
CONTINUOUS
 62
     3
 10
10413.232950470951
 20
6291.1885390000007
 30
0.0
 11
10413.232950470951
 21
8152.2344180000064
 31
0.0
  0
LINE
  5
F9D2
  8
0-1
  6
CONTINUOUS
 62
     3
 10
10012.23494247095
 20
6291.1885390000007
 30
0.0
 11
10012.23494247095
 21
8152.2344180000064
 31
0.0
  0
LINE
  5
F9D3
  8
0-1
  6
CONTINUOUS
 62
     3
 10
10027.23375547093
 20
6291.1885390000007
 30
0.0
 11
10027.23375547093
 21
8152.2344180000064
 31
0.0
  0
LINE
  5
F9D4
  8
0-1
  6
CONTINUOUS
 62
     3
 10
10160.232659470959
 20
6291.1885390000007
 30
0.0
 11
10160.232659470959
 21
8152.2344180000064
 31
0.0
  0
LINE
  5
F9D5
  8
0-1
  6
CONTINUOUS
 62
     3
 10
10280.23404547095
 20
6291.1885390000007
 30
0.0
 11
10280.23404547095
 21
8152.2344180000064
 31
0.0
  0
LINE
  5
F9D6
  8
0-1
  6
CONTINUOUS
 62
     3
 10
10210.23430947093
 20
6291.1885390000007
 30
0.0
 11
10210.23430947093
 21
8152.2344180000064
 31
0.0
  0
LINE
  5
F9D7
  8
0-1
  6
CONTINUOUS
 62
     3
 10
10230.23338547095
 20
6291.1885390000007
 30
0.0
 11
10230.23338547095
 21
8152.2344180000064
 31
0.0
  0
LINE
  5
F9D8
  8
0-1
  6
CONTINUOUS
 62
     3
 10
9888.7347584709532
 20
8152.2344180000064
 30
0.0
 11
9888.7347584709532
 21
6291.1885390000007
 31
0.0
  0
LINE
  5
F9D9
  8
0-1
  6
CONTINUOUS
 62
     3
 10
9851.7335964709491
 20
8152.2344180000064
 30
0.0
 11
9851.7335964709491
 21
6291.1885390000007
 31
0.0
  0
LINE
  5
F9DA
  8
0-1
  6
CONTINUOUS
 62
     3
 10
11288.73244847095
 20
8152.2344180000064
 30
0.0
 11
11288.73244847095
 21
6291.1885390000007
 31
0.0
  0
LINE
  5
F9DB
  8
0-1
  6
CONTINUOUS
 62
     3
 10
11251.733266470939
 20
8152.2344180000064
 30
0.0
 11
11251.733266470939
 21
6291.1885390000007
 31
0.0
  0
LINE
  5
F9DC
  8
0-1
  6
CONTINUOUS
 62
     3
 10
10588.734098470941
 20
8152.2344180000064
 30
0.0
 11
10588.734098470941
 21
6291.1885390000007
 31
0.0
  0
LINE
  5
F9DD
  8
0-1
  6
CONTINUOUS
 62
     3
 10
10551.733926470941
 20
8152.2344180000064
 30
0.0
 11
10551.733926470941
 21
6291.1885390000007
 31
0.0
  0
LINE
  5
F9DE
  8
0-1
  6
CONTINUOUS
 62
     3
 10
23092.00877358517
 20
6241.1883740000021
 30
0.0
 11
22992.009432585161
 21
6241.1883740000021
 31
0.0
  0
LINE
  5
F9DF
  8
0-1
  6
CONTINUOUS
 62
     3
 10
22992.009432585161
 20
6241.1883740000021
 30
0.0
 11
22992.009432585161
 21
6141.1885390000007
 31
0.0
  0
LINE
  5
F9E0
  8
0-1
  6
CONTINUOUS
 62
     3
 10
23092.00877358517
 20
6141.1885390000007
 30
0.0
 11
23092.00877358517
 21
6241.1883740000021
 31
0.0
  0
LINE
  5
F9E1
  8
0-1
  6
CONTINUOUS
 62
     3
 10
22999.50982858516
 20
8459.6884660000014
 30
0.0
 11
22999.50982858516
 21
6241.1883740000021
 31
0.0
  0
LINE
  5
F9E2
  8
0-1
  6
CONTINUOUS
 62
     3
 10
22948.010092585158
 20
8132.6883740000021
 30
0.0
 11
22948.010092585158
 21
6141.1885390000007
 31
0.0
  0
LINE
  5
F9E3
  8
0-1
  6
CONTINUOUS
 62
     3
 10
23064.51128058515
 20
8589.6883999999973
 30
0.0
 11
23064.51128058515
 21
6241.1883740000021
 31
0.0
  0
LINE
  5
F9E4
  8
0-1
  6
CONTINUOUS
 62
     3
 10
23084.510092585158
 20
8459.6884660000014
 30
0.0
 11
23084.510092585158
 21
6241.1883740000021
 31
0.0
  0
LINE
  5
F9E5
  8
0-1
  6
CONTINUOUS
 62
     3
 10
19688.010092585158
 20
8264.0026619999971
 30
0.0
 11
19731.010092585158
 21
8264.0026619999971
 31
0.0
  0
LINE
  5
F9E6
  8
0-1
  6
CONTINUOUS
 62
     3
 10
19723.50745358516
 20
6241.1883740000021
 30
0.0
 11
19823.506793585169
 21
6241.1883740000021
 31
0.0
  0
LINE
  5
F9E7
  8
0-1
  6
CONTINUOUS
 62
     3
 10
19823.506793585169
 20
6241.1883740000021
 30
0.0
 11
19823.506793585169
 21
6141.1885390000007
 31
0.0
  0
LINE
  5
F9E8
  8
0-1
  6
CONTINUOUS
 62
     3
 10
19723.50745358516
 20
6141.1885390000007
 30
0.0
 11
19723.50745358516
 21
6241.1883740000021
 31
0.0
  0
LINE
  5
F9E9
  8
0-1
  6
CONTINUOUS
 62
     3
 10
19867.510092585158
 20
8132.6883740000021
 30
0.0
 11
19867.510092585158
 21
6141.1885390000007
 31
0.0
  0
LINE
  5
F9EA
  8
0-1
  6
CONTINUOUS
 62
     3
 10
19816.006397585181
 20
8459.6884660000014
 30
0.0
 11
19816.006397585181
 21
6241.1883740000021
 31
0.0
  0
LINE
  5
F9EB
  8
0-1
  6
CONTINUOUS
 62
     3
 10
19751.006925585149
 20
8589.6883999999973
 30
0.0
 11
19751.006925585149
 21
6241.1883740000021
 31
0.0
  0
LINE
  5
F9EC
  8
0-1
  6
CONTINUOUS
 62
     3
 10
19731.010092585158
 20
8459.6884660000014
 30
0.0
 11
19731.010092585158
 21
6241.1883740000021
 31
0.0
  0
LINE
  5
F9ED
  8
0-1
  6
CONTINUOUS
 62
     3
 10
11738.73357047094
 20
6241.1883740000021
 30
0.0
 11
11738.73357047094
 21
6141.1885390000007
 31
0.0
  0
LINE
  5
F9EE
  8
0-1
  6
CONTINUOUS
 62
     3
 10
11706.232779470931
 20
8455.5174490000027
 30
0.0
 11
11706.232779470931
 21
6241.1883740000021
 31
0.0
  0
LINE
  5
F9EF
  8
0-1
  6
CONTINUOUS
 62
     3
 10
11726.23357047094
 20
8456.0984379999973
 30
0.0
 11
11726.23357047094
 21
6241.1883740000021
 31
0.0
  0
LINE
  5
F9F0
  8
0-1
  6
CONTINUOUS
 62
     3
 10
9116.2335704709403
 20
8356.9898809999977
 30
0.0
 11
9116.2335704709403
 21
8152.2344180000064
 31
0.0
  0
LINE
  5
F9F1
  8
0-1
  6
CONTINUOUS
 62
     3
 10
9043.7337024709577
 20
8152.2344180000064
 30
0.0
 11
9043.7337024709577
 21
6241.1883740000021
 31
0.0
  0
LINE
  5
F9F2
  8
0-1
  6
CONTINUOUS
 62
     3
 10
9188.7324484709425
 20
8152.2344180000064
 30
0.0
 11
9188.7324484709425
 21
6241.1883740000021
 31
0.0
  0
LINE
  5
F9F3
  8
0-1
  6
CONTINUOUS
 62
     3
 10
9188.7324484709425
 20
6291.1885390000007
 30
0.0
 11
11611.23370247093
 21
6291.1885390000007
 31
0.0
  0
LINE
  5
F9F4
  8
0-1
  6
CONTINUOUS
 62
     3
 10
19867.510092585158
 20
6661.1892649999991
 30
0.0
 11
22948.010092585158
 21
6661.1892649999991
 31
0.0
  0
LINE
  5
F9F5
  8
0-1
  6
CONTINUOUS
 62
     3
 10
19867.510092585158
 20
6596.1888030000027
 30
0.0
 11
22948.010092585158
 21
6596.1888030000027
 31
0.0
  0
LINE
  5
F9F6
  8
0-1
  6
CONTINUOUS
 62
     3
 10
19867.510092585158
 20
6531.1888360000003
 30
0.0
 11
22948.010092585158
 21
6531.1888360000003
 31
0.0
  0
LINE
  5
F9F7
  8
0-1
  6
CONTINUOUS
 62
     3
 10
19867.510092585158
 20
6466.1883740000039
 30
0.0
 11
22948.010092585158
 21
6466.1883740000039
 31
0.0
  0
LINE
  5
F9F8
  8
0-1
  6
CONTINUOUS
 62
     3
 10
19867.510092585158
 20
6401.1889020000071
 30
0.0
 11
22948.010092585158
 21
6401.1889020000071
 31
0.0
  0
LINE
  5
F9F9
  8
0-1
  6
CONTINUOUS
 62
     3
 10
19867.510092585158
 20
6336.1889349999956
 30
0.0
 11
22948.010092585158
 21
6336.1889349999956
 31
0.0
  0
LINE
  5
F9FA
  8
0-1
  6
CONTINUOUS
 62
     3
 10
19867.510092585158
 20
6271.1889680000004
 30
0.0
 11
22948.010092585158
 21
6271.1889680000004
 31
0.0
  0
LINE
  5
F9FB
  8
0-1
  6
CONTINUOUS
 62
     3
 10
19867.510092585158
 20
6206.1885060000041
 30
0.0
 11
22948.010092585158
 21
6206.1885060000041
 31
0.0
  0
LINE
  5
F9FC
  8
0-1
  6
CONTINUOUS
 62
     3
 10
19867.510092585158
 20
8026.1885719999982
 30
0.0
 11
22948.010092585158
 21
8026.1885719999982
 31
0.0
  0
LINE
  5
F9FD
  8
0-1
  6
CONTINUOUS
 62
     3
 10
19867.510092585158
 20
7961.1886050000021
 30
0.0
 11
22948.010092585158
 21
7961.1886050000021
 31
0.0
  0
LINE
  5
F9FE
  8
0-1
  6
CONTINUOUS
 62
     3
 10
19867.510092585158
 20
7896.1891330000062
 30
0.0
 11
22948.010092585158
 21
7896.1891330000062
 31
0.0
  0
LINE
  5
F9FF
  8
0-1
  6
CONTINUOUS
 62
     3
 10
19867.510092585158
 20
7831.1891659999937
 30
0.0
 11
22948.010092585158
 21
7831.1891659999937
 31
0.0
  0
LINE
  5
FA00
  8
0-1
  6
CONTINUOUS
 62
     3
 10
19867.510092585158
 20
7766.1891989999967
 30
0.0
 11
22948.010092585158
 21
7766.1891989999967
 31
0.0
  0
LINE
  5
FA01
  8
0-1
  6
CONTINUOUS
 62
     3
 10
19867.510092585158
 20
7701.1887370000022
 30
0.0
 11
22948.010092585158
 21
7701.1887370000022
 31
0.0
  0
LINE
  5
FA02
  8
0-1
  6
CONTINUOUS
 62
     3
 10
19867.510092585158
 20
7636.1887699999979
 30
0.0
 11
22948.010092585158
 21
7636.1887699999979
 31
0.0
  0
LINE
  5
FA03
  8
0-1
  6
CONTINUOUS
 62
     3
 10
19867.510092585158
 20
7571.1892980000011
 30
0.0
 11
22948.010092585158
 21
7571.1892980000011
 31
0.0
  0
LINE
  5
FA04
  8
0-1
  6
CONTINUOUS
 62
     3
 10
19867.510092585158
 20
7506.1893309999978
 30
0.0
 11
22948.010092585158
 21
7506.1893309999978
 31
0.0
  0
LINE
  5
FA05
  8
0-1
  6
CONTINUOUS
 62
     3
 10
19867.510092585158
 20
7441.1888690000023
 30
0.0
 11
22948.010092585158
 21
7441.1888690000023
 31
0.0
  0
LINE
  5
FA06
  8
0-1
  6
CONTINUOUS
 62
     3
 10
19867.510092585158
 20
7376.188901999999
 30
0.0
 11
22948.010092585158
 21
7376.188901999999
 31
0.0
  0
LINE
  5
FA07
  8
0-1
  6
CONTINUOUS
 62
     3
 10
19867.510092585158
 20
7311.1889350000029
 30
0.0
 11
22948.010092585158
 21
7311.1889350000029
 31
0.0
  0
LINE
  5
FA08
  8
0-1
  6
CONTINUOUS
 62
     3
 10
19867.510092585158
 20
7246.1884730000029
 30
0.0
 11
22948.010092585158
 21
7246.1884730000029
 31
0.0
  0
LINE
  5
FA09
  8
0-1
  6
CONTINUOUS
 62
     3
 10
19867.510092585158
 20
7181.1885060000041
 30
0.0
 11
22948.010092585158
 21
7181.1885060000041
 31
0.0
  0
LINE
  5
FA0A
  8
0-1
  6
CONTINUOUS
 62
     3
 10
19867.510092585158
 20
7116.1890340000009
 30
0.0
 11
22948.010092585158
 21
7116.1890340000009
 31
0.0
  0
LINE
  5
FA0B
  8
0-1
  6
CONTINUOUS
 62
     3
 10
19867.510092585158
 20
7051.1890669999966
 30
0.0
 11
22948.010092585158
 21
7051.1890669999966
 31
0.0
  0
LINE
  5
FA0C
  8
0-1
  6
CONTINUOUS
 62
     3
 10
19867.510092585158
 20
6986.1891000000032
 30
0.0
 11
22948.010092585158
 21
6986.1891000000032
 31
0.0
  0
LINE
  5
FA0D
  8
0-1
  6
CONTINUOUS
 62
     3
 10
19867.510092585158
 20
6921.1886380000051
 30
0.0
 11
22948.010092585158
 21
6921.1886380000051
 31
0.0
  0
LINE
  5
FA0E
  8
0-1
  6
CONTINUOUS
 62
     3
 10
19867.510092585158
 20
6856.1886710000017
 30
0.0
 11
22948.010092585158
 21
6856.1886710000017
 31
0.0
  0
LINE
  5
FA0F
  8
0-1
  6
CONTINUOUS
 62
     3
 10
19867.510092585158
 20
6791.1891989999967
 30
0.0
 11
22948.010092585158
 21
6791.1891989999967
 31
0.0
  0
LINE
  5
FA10
  8
0-1
  6
CONTINUOUS
 62
     3
 10
19867.510092585158
 20
6726.1892320000024
 30
0.0
 11
22948.010092585158
 21
6726.1892320000024
 31
0.0
  0
LINE
  5
FA11
  8
0-1
  6
CONTINUOUS
 62
     3
 10
19867.510092585158
 20
8080.6485920000023
 30
0.0
 11
22948.010092585158
 21
8080.6485920000023
 31
0.0
  0
LINE
  5
FA12
  8
0-1
  6
CONTINUOUS
 62
     3
 10
19723.50745358516
 20
6141.1885390000007
 30
0.0
 11
28653.488468710359
 21
6141.1885390000007
 31
0.0
  0
LINE
  5
FA13
  8
0-1
  6
CONTINUOUS
 62
     3
 10
6498.7335704709412
 20
6141.1885390000007
 30
0.0
 11
6498.7335704709412
 21
6241.1883740000021
 31
0.0
  0
LINE
  5
FA14
  8
0-1
  6
CONTINUOUS
 62
     3
 10
6526.2333724709461
 20
8268.990877000002
 30
0.0
 11
6526.2333724709461
 21
6241.1883740000021
 31
0.0
  0
LINE
  5
FA15
  8
0-1
  6
CONTINUOUS
 62
     3
 10
6506.2335704709376
 20
8268.3741496838102
 30
0.0
 11
6506.2335704709376
 21
6241.1883740000021
 31
0.0
  0
LINE
  5
FA16
  8
0-1
  6
CONTINUOUS
 62
     3
 10
6498.7335704709412
 20
6241.1883740000021
 30
0.0
 11
11738.73357047094
 21
6241.1883740000021
 31
0.0
  0
LINE
  5
FA17
  8
0-1
  6
CONTINUOUS
 62
     3
 10
6621.2324494709464
 20
6291.1885390000007
 30
0.0
 11
9043.7337024709577
 21
6291.1885390000007
 31
0.0
  0
LINE
  5
FA18
  8
0-1
  6
CONTINUOUS
 62
     3
 10
5816.2325154709397
 20
6141.1885390000007
 30
0.0
 11
11738.73357047094
 21
6141.1885390000007
 31
0.0
  0
LINE
  5
FA19
  8
0-1
  6
CONTINUOUS
 62
     3
 10
6526.2333724709461
 20
8152.2344180000064
 30
0.0
 11
11706.232779470931
 21
8152.2344180000064
 31
0.0
  0
LINE
  5
FA1A
  8
0-1
  6
CONTINUOUS
 62
     3
 10
19842.009353585181
 20
8335.1891200000064
 30
0.0
 11
20119.438883585171
 21
8335.1891200000064
 31
0.0
  0
LINE
  5
FA1B
  8
0-1
  6
CONTINUOUS
 62
     3
 10
19842.009353585181
 20
8377.1885650000022
 30
0.0
 11
20151.435821585172
 21
8377.1885650000022
 31
0.0
  0
LINE
  5
FA1C
  8
0-1
  6
CONTINUOUS
 62
     3
 10
19837.009090585161
 20
8340.1888889999937
 30
0.0
 11
19837.009090585161
 21
8372.1892910000006
 31
0.0
  0
LINE
  5
FA1D
  8
0-1
  6
CONTINUOUS
 62
     3
 10
19816.006397585181
 20
8386.1884470000077
 30
0.0
 11
22999.50982858516
 21
8386.1884470000077
 31
0.0
  0
LINE
  5
FA1E
  8
0-1
  6
CONTINUOUS
 62
     3
 10
20122.97232358516
 20
8336.6529740000005
 30
0.0
 11
20154.973221585169
 21
8368.653376000002
 31
0.0
  0
LINE
  5
FA1F
  8
0-1
  6
CONTINUOUS
 62
     3
 10
19837.009090585161
 20
8368.7889730000006
 30
0.0
 11
20155.101889585148
 21
8368.7889730000006
 31
0.0
  0
LINE
  5
FA20
  8
0-1
  6
CONTINUOUS
 62
     3
 10
19837.009090585161
 20
8360.3888860000006
 30
0.0
 11
20146.708731585171
 21
8360.3888860000006
 31
0.0
  0
LINE
  5
FA21
  8
0-1
  6
CONTINUOUS
 62
     3
 10
19837.009090585161
 20
8351.9892939999972
 30
0.0
 11
20138.309633585159
 21
8351.9892939999972
 31
0.0
  0
LINE
  5
FA22
  8
0-1
  6
CONTINUOUS
 62
     3
 10
19837.009090585161
 20
8343.5892070000027
 30
0.0
 11
20129.906577585181
 21
8343.5892070000027
 31
0.0
  0
LINE
  5
FA23
  8
0-1
  6
CONTINUOUS
 62
     3
 10
22978.509116585159
 20
8368.7889730000006
 30
0.0
 11
22660.416316585171
 21
8368.7889730000006
 31
0.0
  0
LINE
  5
FA24
  8
0-1
  6
CONTINUOUS
 62
     3
 10
22978.509116585159
 20
8360.3888860000006
 30
0.0
 11
22668.81145458516
 21
8360.3888860000006
 31
0.0
  0
LINE
  5
FA25
  8
0-1
  6
CONTINUOUS
 62
     3
 10
22978.509116585159
 20
8351.9892939999972
 30
0.0
 11
22677.210551585162
 21
8351.9892939999972
 31
0.0
  0
LINE
  5
FA26
  8
0-1
  6
CONTINUOUS
 62
     3
 10
22978.509116585159
 20
8343.5892070000027
 30
0.0
 11
22685.609649585142
 21
8343.5892070000027
 31
0.0
  0
LINE
  5
FA27
  8
0-1
  6
CONTINUOUS
 62
     3
 10
22973.508852585161
 20
8377.1885650000022
 30
0.0
 11
22664.082384585159
 21
8377.1885650000022
 31
0.0
  0
LINE
  5
FA28
  8
0-1
  6
CONTINUOUS
 62
     3
 10
22973.508852585161
 20
8335.1891200000064
 30
0.0
 11
22696.079323585149
 21
8335.1891200000064
 31
0.0
  0
LINE
  5
FA29
  8
0-1
  6
CONTINUOUS
 62
     3
 10
22978.509116585159
 20
8340.1888889999937
 30
0.0
 11
22978.509116585159
 21
8372.1892910000006
 31
0.0
  0
LINE
  5
FA2A
  8
0-1
  6
CONTINUOUS
 62
     3
 10
22692.54390258517
 20
8336.6529740000005
 30
0.0
 11
22660.54696458517
 21
8368.653376000002
 31
0.0
  0
LINE
  5
FA2B
  8
0-1
  6
CONTINUOUS
 62
     3
 10
6331.9317464709457
 20
8303.1736990000027
 30
0.0
 11
11811.92323547094
 21
8498.6897600000066
 31
0.0
  0
LINE
  5
FA2C
  8
0-1
  6
CONTINUOUS
 62
     3
 10
11810.422760470939
 20
8548.6686450000016
 30
0.0
 11
6330.432261470939
 21
8353.151595000003
 31
0.0
  0
LINE
  5
FA2D
  8
0-1
  6
CONTINUOUS
 62
     3
 10
6327.3422334709458
 20
8356.0604969999968
 30
0.0
 11
6326.3821664709376
 21
8388.0460529999982
 31
0.0
  0
LINE
  5
FA2E
  8
0-1
  6
CONTINUOUS
 62
     3
 10
6331.2309974709488
 20
8393.1932959999976
 30
0.0
 11
11830.19221247094
 21
8589.2804480000032
 31
0.0
  0
LINE
  5
FA2F
  8
0-1
  6
CONTINUOUS
 62
     3
 10
11834.09681247094
 20
8459.338910000004
 30
0.0
 11
6335.1316384709498
 21
8263.2522529999969
 31
0.0
  0
LINE
  5
FA30
  8
0-1
  6
CONTINUOUS
 62
     3
 10
6329.9839004709484
 20
8268.099599000001
 30
0.0
 11
6329.0248234709443
 21
8300.0856499999973
 31
0.0
  0
LINE
  5
FA31
  8
0-1
  6
CONTINUOUS
 62
     3
 10
6328.6932544709407
 20
8311.0803909999977
 30
0.0
 11
6327.6728124709489
 21
8345.0647660000086
 31
0.0
  0
LINE
  5
FA32
  8
0-1
  6
CONTINUOUS
 62
     3
 10
6330.5817154709521
 20
8348.1538049999999
 30
0.0
 11
11810.57419347094
 21
8543.6713500000023
 31
0.0
  0
LINE
  5
FA33
  8
0-1
  6
CONTINUOUS
 62
     3
 10
11811.77378147094
 20
8503.6880440000004
 30
0.0
 11
6331.7832834709398
 21
8308.1719839999969
 31
0.0
  0
LINE
  5
FA34
  8
0-1
  6
CONTINUOUS
 62
     3
 10
9116.2335704709403
 20
8356.9898809999977
 30
0.0
 11
9112.3309494709574
 21
8486.9314189999968
 31
0.0
  0
LINE
  5
FA35
  8
0-1
  6
CONTINUOUS
 62
     3
 10
11801.129910470931
 20
8458.3481610000017
 30
0.0
 11
11797.228279470941
 21
8588.2896989999972
 31
0.0
  0
LINE
  5
FA36
  8
0-1
  6
CONTINUOUS
 62
     3
 10
6343.7237394709446
 20
8393.5684149999979
 30
0.0
 11
6347.6263604709457
 21
8263.6273720000008
 31
0.0
  0
LINE
  5
FA37
  8
0-2
  6
CONTINUOUS
 62
     4
 10
21771.448133085181
 20
6888.4152330000052
 30
0.0
 11
21671.448793085168
 21
6888.4152330000052
 31
0.0
  0
LINE
  5
FA38
  8
0-2
  6
CONTINUOUS
 62
     4
 10
21044.064133085161
 20
6888.4152330000052
 30
0.0
 11
21144.06347308516
 21
6888.4152330000052
 31
0.0
  0
LINE
  5
FA39
  8
0-5
  6
CONTINUOUS
 62
     4
 10
23042.010092585158
 20
4461.1889349999938
 30
0.0
 11
23042.010092585158
 21
4301.1893970000001
 31
0.0
  0
LINE
  5
FA3A
  8
0-5
  6
CONTINUOUS
 62
     4
 10
17551.63707258517
 20
6349.0350210000024
 30
0.0
 11
17671.635488585162
 21
6141.1885390000007
 31
0.0
  0
LINE
  5
FA3B
  8
0-5
  6
CONTINUOUS
 62
     4
 10
13443.818558470941
 20
6241.1883740000021
 30
0.0
 11
13563.81895447094
 21
6449.0353509999959
 31
0.0
  0
LINE
  5
FA3C
  8
0-5
  6
CONTINUOUS
 62
     4
 10
13323.82014147094
 20
6449.0353509999959
 30
0.0
 11
13443.818558470941
 21
6241.1883740000021
 31
0.0
  0
LINE
  5
FA3D
  8
0-5
  6
CONTINUOUS
 62
     4
 10
13563.81895447094
 20
6449.0353509999959
 30
0.0
 11
13323.82014147094
 21
6449.0353509999959
 31
0.0
  0
LINE
  5
FA3E
  8
0-5
  6
CONTINUOUS
 62
     4
 10
11818.73086547094
 20
6241.1883740000021
 30
0.0
 11
13536.19675147093
 21
6241.1883740000021
 31
0.0
  0
LINE
  5
FA3F
  8
0-5
  6
CONTINUOUS
 62
     4
 10
11818.73086547094
 20
6141.1885390000007
 30
0.0
 11
19643.509169585159
 21
6141.1885390000007
 31
0.0
  0
LINE
  5
FA40
  8
0-5
  6
CONTINUOUS
 62
     4
 10
17671.635488585162
 20
6141.1885390000007
 30
0.0
 11
17791.635884585161
 21
6349.0350210000024
 31
0.0
  0
LINE
  5
FA41
  8
0-5
  6
CONTINUOUS
 62
     4
 10
17791.635884585161
 20
6349.0350210000024
 30
0.0
 11
17551.63707258517
 21
6349.0350210000024
 31
0.0
  0
LINE
  5
FA42
  8
0-5
  6
CONTINUOUS
 62
     4
 10
19773.510092585158
 20
4461.1889349999938
 30
0.0
 11
19773.510092585158
 21
4301.1893970000001
 31
0.0
  0
LINE
  5
FA43
  8
0-5
  6
CONTINUOUS
 62
     4
 10
11683.733570470929
 20
4461.1889349999938
 30
0.0
 11
11683.733570470929
 21
4301.1893970000001
 31
0.0
  0
LINE
  5
FA44
  8
0-5
  6
CONTINUOUS
 62
     4
 10
9116.2335704709403
 20
4461.1889349999938
 30
0.0
 11
9116.2335704709403
 21
4301.1893970000001
 31
0.0
  0
LINE
  5
FA45
  8
0-5
  6
CONTINUOUS
 62
     4
 10
6548.7335704709412
 20
4461.1889349999938
 30
0.0
 11
6548.7335704709412
 21
4301.1893970000001
 31
0.0
  0
LINE
  5
FA46
  8
2-0
  6
CENTER2
 62
     6
 10
23042.010092585158
 20
5878.536116000002
 30
0.0
 11
23042.010092585158
 21
6915.6791430000003
 31
0.0
  0
LINE
  5
FA47
  8
2-0
  6
CENTER2
 62
     6
 10
19773.510092585158
 20
5878.536116000002
 30
0.0
 11
19773.510092585158
 21
6915.6791430000003
 31
0.0
  0
LINE
  5
FA48
  8
2-0
  6
CENTER2
 62
     6
 10
11683.733570470929
 20
5878.536116000002
 30
0.0
 11
11683.733570470929
 21
6935.6787139999988
 31
0.0
  0
LINE
  5
FA49
  8
2-0
  6
CENTER2
 62
     6
 10
9116.2335704709403
 20
5878.536116000002
 30
0.0
 11
9116.2335704709403
 21
6935.6787139999988
 31
0.0
  0
LINE
  5
FA4A
  8
2-0
  6
CENTER2
 62
     6
 10
6548.7335704709412
 20
5878.536116000002
 30
0.0
 11
6548.7335704709412
 21
6935.6787139999988
 31
0.0
  0
ARC
  5
FA4B
  8
0-1
  6
CONTINUOUS
 62
     3
 10
19842.009353585181
 20
8372.1892910000006
 30
0.0
 40
5.0
 50
90.0
 51
180.0
  0
ARC
  5
FA4C
  8
0-1
  6
CONTINUOUS
 62
     3
 10
19842.009353585181
 20
8340.1888889999937
 30
0.0
 40
5.0
 50
180.0
 51
269.9999850001808
  0
ARC
  5
FA4D
  8
0-1
  6
CONTINUOUS
 62
     3
 10
20119.438883585171
 20
8340.1888889999937
 30
0.0
 40
5.0
 50
269.9999850001808
 51
314.9999850002792
  0
ARC
  5
FA4E
  8
0-1
  6
CONTINUOUS
 62
     3
 10
20151.435821585172
 20
8372.1892910000006
 30
0.0
 40
5.0
 50
314.9999850002792
 51
90.0
  0
ARC
  5
FA4F
  8
0-1
  6
CONTINUOUS
 62
     3
 10
22973.508852585161
 20
8340.1888889999937
 30
0.0
 40
5.0
 50
269.9999850001808
 51
0.0
  0
ARC
  5
FA50
  8
0-1
  6
CONTINUOUS
 62
     3
 10
22973.508852585161
 20
8372.1892910000006
 30
0.0
 40
5.0
 50
0.0
 51
90.0
  0
ARC
  5
FA51
  8
0-1
  6
CONTINUOUS
 62
     3
 10
22664.082384585159
 20
8372.1892910000006
 30
0.0
 40
5.0
 50
90.0
 51
224.9999849999752
  0
ARC
  5
FA52
  8
0-1
  6
CONTINUOUS
 62
     3
 10
22696.079323585149
 20
8340.1888889999937
 30
0.0
 40
5.0
 50
224.9999849999752
 51
269.9999850001808
  0
ARC
  5
FA53
  8
0-1
  6
CONTINUOUS
 62
     3
 10
11811.17299747094
 20
8523.680191999998
 30
0.0
 40
24.999998999999999
 50
271.71998600002598
 51
91.719986000025997
  0
ARC
  5
FA54
  8
0-1
  6
CONTINUOUS
 62
     3
 10
6330.3421934709459
 20
8356.1505650000017
 30
0.0
 40
3.0
 50
181.71998600001371
 51
271.71998600002598
  0
ARC
  5
FA55
  8
0-1
  6
CONTINUOUS
 62
     3
 10
6331.3794614709477
 20
8388.1955070000022
 30
0.0
 40
5.0
 50
91.719986000025997
 51
181.71998600001371
  0
ARC
  5
FA56
  8
0-1
  6
CONTINUOUS
 62
     3
 10
11806.17570347093
 20
8523.5297490000066
 30
0.0
 40
69.999999000000003
 50
293.50677499978701
 51
69.933196999905391
  0
ARC
  5
FA57
  8
0-1
  6
CONTINUOUS
 62
     3
 10
6334.9831744709518
 20
8268.2500430000073
 30
0.0
 40
5.0
 50
181.71998600001371
 51
271.71998600002598
  0
ARC
  5
FA58
  8
0-1
  6
CONTINUOUS
 62
     3
 10
6332.0218154709437
 20
8300.1752229999984
 30
0.0
 40
3.0
 50
91.719986000025997
 51
181.71998600001371
  0
ARC
  5
FA59
  8
0-1
  6
CONTINUOUS
 62
     3
 10
6332.0059784709447
 20
8350.697981000003
 30
0.0
 40
2.5
 50
271.71998600002598
 51
91.719986000025997
  0
ARC
  5
FA5A
  8
0-1
  6
CONTINUOUS
 62
     3
 10
6333.3560104709459
 20
8305.7178750000003
 30
0.0
 40
2.5
 50
271.71998600002598
 51
91.719986000025997
  0
ARC
  5
FA5B
  8
0-1
  6
CONTINUOUS
 62
     3
 10
6330.6717834709416
 20
8345.1553289999974
 30
0.0
 40
3.0
 50
91.719986000025997
 51
181.71998600001371
  0
ARC
  5
FA5C
  8
0-1
  6
CONTINUOUS
 62
     3
 10
11811.17299747094
 20
8523.680191999998
 30
0.0
 40
20.0
 50
271.71998600002598
 51
91.719986000025997
  0
ARC
  5
FA5D
  8
0-1
  6
CONTINUOUS
 62
     3
 10
6331.6922254709416
 20
8311.1699640000006
 30
0.0
 40
3.0
 50
181.71998600001371
 51
271.71998600002598
  0
CIRCLE
  5
FA5E
  8
0-5
  6
CONTINUOUS
 62
     4
 10
23042.010092585158
 20
4101.1882420000011
 30
0.0
 40
199.9999949999999
  0
CIRCLE
  5
FA5F
  8
0-5
  6
CONTINUOUS
 62
     4
 10
9116.2335704709403
 20
4101.1882420000011
 30
0.0
 40
199.9999949999999
  0
CIRCLE
  5
FA60
  8
0-5
  6
CONTINUOUS
 62
     4
 10
11683.733570470929
 20
4101.1882420000011
 30
0.0
 40
199.9999949999999
  0
CIRCLE
  5
FA61
  8
0-5
  6
CONTINUOUS
 62
     4
 10
19773.510092585158
 20
4101.1882420000011
 30
0.0
 40
199.9999949999999
  0
CIRCLE
  5
FA62
  8
0-5
  6
CONTINUOUS
 62
     4
 10
6548.7335704709412
 20
4101.1882420000011
 30
0.0
 40
199.9999949999999
  0
TEXT
  5
FA63
  8
0-5
  6
CONTINUOUS
 62
     7
 10
22990.097217585171
 20
4011.7132600000009
 30
0.0
 40
160.0
  1
2
 72
     4
 11
23043.4305509185
 21
4091.7132600000009
 31
0.0
  0
TEXT
  5
FA64
  8
0-5
  6
CONTINUOUS
 62
     7
 10
19163.509565585169
 20
6988.0104361594431
 30
0.0
 40
160.0
  1
(2131.5)
 50
90.0
 72
     4
 11
19083.509565585169
 21
7441.3437694927761
 31
0.0
  0
TEXT
  5
FA65
  8
0-5
  6
CONTINUOUS
 62
     7
 10
12984.726629470941
 20
6529.0346249999966
 30
0.0
 40
160.0
  1
布基礎天端
 72
     4
 11
13443.39329613761
 21
6609.0346249999984
 31
0.0
  0
TEXT
  5
FA66
  8
0-5
  6
CONTINUOUS
 62
     7
 10
17551.63707258517
 20
6429.0347900000024
 30
0.0
 40
160.0
  1
G.L
 72
     4
 11
17711.63707258517
 21
6509.0347900000043
 31
0.0
  0
TEXT
  5
FA67
  8
0-5
  6
CONTINUOUS
 62
     7
 10
19721.597218585161
 20
4011.7132600000009
 30
0.0
 40
160.0
  1
1
 72
     4
 11
19748.263885251828
 21
4091.7132600000009
 31
0.0
  0
TEXT
  5
FA68
  8
0-5
  6
CONTINUOUS
 62
     7
 10
11636.777410470941
 20
4017.9774460000021
 30
0.0
 40
160.0
  1
A
 72
     4
 11
11690.11074380428
 21
4097.9774460000026
 31
0.0
  0
TEXT
  5
FA69
  8
0-5
  6
CONTINUOUS
 62
     7
 10
9069.2774104709424
 20
4017.9774460000021
 30
0.0
 40
160.0
  1
B
 72
     4
 11
9122.6107438042745
 21
4097.9774460000026
 31
0.0
  0
TEXT
  5
FA6A
  8
0-5
  6
CONTINUOUS
 62
     7
 10
6501.7774104709488
 20
4017.9774460000021
 30
0.0
 40
160.0
  1
C
 72
     4
 11
6555.1107438042818
 21
4097.9774460000026
 31
0.0
  0
CIRCLE
  5
FA6B
  8
0-4
  6
CONTINUOUS
 62
     4
 10
21407.758113085161
 20
6627.2449749999987
 30
0.0
 40
18.487504999999981
  0
LINE
  5
FA6C
  8
1-前柱カバ-P
 10
27999.51009258518
 20
8459.6884660000014
 30
0.0
 11
27999.51009258518
 21
6141.1885390000007
 31
0.0
  0
LINE
  5
FA6D
  8
1-前柱カバ-P
 10
28084.510092585158
 20
8589.6883999999973
 30
0.0
 11
28084.510092585158
 21
6141.1885390000007
 31
0.0
  0
LINE
  5
FA6E
  8
0-1
  6
CONTINUOUS
 62
     3
 10
28127.510092585158
 20
8459.6884660000087
 30
0.0
 11
22999.50982858516
 21
8459.6884660000014
 31
0.0
  0
LINE
  5
FA6F
  8
0-1
  6
CONTINUOUS
 62
     3
 10
23064.51128058515
 20
8589.6883999999973
 30
0.0
 11
28127.510092585158
 21
8589.6883999999973
 31
0.0
  0
LINE
  5
FA70
  8
0-1
  6
CONTINUOUS
 62
     3
 10
28127.510092585158
 20
8264.0026620000026
 30
0.0
 11
28127.510092585158
 21
8589.6883999999973
 31
0.0
  0
LINE
  5
FA71
  8
0-1
  6
CONTINUOUS
 62
     3
 10
28127.510092585158
 20
8264.0026620000026
 30
0.0
 11
28084.510092585158
 21
8264.0026620000026
 31
0.0
  0
LINE
  5
FA72
  8
2-0
  6
CENTER2
 62
     6
 10
28042.010092585158
 20
5878.536116000002
 30
0.0
 11
28042.010092585158
 21
6915.6791430000003
 31
0.0
  0
LINE
  5
FA73
  8
1-桁前P28
 10
27999.51009258518
 20
8262.0026620000026
 30
0.0
 11
23084.510092585158
 21
8262.0026620000026
 31
0.0
  0
LINE
  5
FA74
  8
0-5
  6
CONTINUOUS
 62
     4
 10
28042.010092585158
 20
4461.1889349999938
 30
0.0
 11
28042.010092585158
 21
4301.1893970000001
 31
0.0
  0
CIRCLE
  5
FA75
  8
0-5
  6
CONTINUOUS
 62
     4
 10
28042.010092585158
 20
4101.1882420000011
 30
0.0
 40
199.9999949999999
  0
TEXT
  5
FA76
  8
0-5
  6
CONTINUOUS
 62
     7
 10
27990.097217585178
 20
4011.7132600000009
 30
0.0
 40
160.0
  1
3
 72
     4
 11
28043.430550918511
 21
4091.7132600000009
 31
0.0
  0
TEXT
  5
FA77
  8
0-5
  6
CONTINUOUS
 62
     7
 10
29534.335262879551
 20
7224.043572309487
 30
0.0
 40
160.0
  1
(2260)
 50
90.0
 72
     4
 11
29454.335262879551
 21
7610.7102389761549
 31
0.0
  0
LINE
  5
FA78
  8
SUNPOU
  6
CONTINUOUS
 10
6326.2335704709403
 20
9389.1900500000029
 30
0.0
 11
5821.445700577533
 21
9389.1900500000029
 31
0.0
  0
LINE
  5
FBD3
  8
2-0
  6
CENTER2
 62
     6
 10
17752.011030585141
 20
19317.986251999992
 30
0.0
 11
18472.00971058516
 21
19317.986251999992
 31
0.0
  0
LINE
  5
FBD4
  8
2-0
  6
CENTER2
 62
     6
 10
18632.00971058516
 20
19317.986251999992
 30
0.0
 11
28367.616789537082
 21
19317.986251999992
 31
0.0
  0
LINE
  5
FBD5
  8
2-0
  6
CENTER2
 62
     6
 10
17752.01103058513
 20
16750.486251999992
 30
0.0
 11
18003.919338011601
 21
16750.486251999992
 31
0.0
  0
LINE
  5
FBD6
  8
2-0
  6
CENTER2
 62
     6
 10
18632.009710585138
 20
16750.486251999992
 30
0.0
 11
28367.616789537082
 21
16750.486251999992
 31
0.0
  0
LINE
  5
FBD7
  8
2-0
  6
CENTER2
 62
     6
 10
17752.011030585141
 20
14182.986252000001
 30
0.0
 11
18472.00971058516
 21
14182.986252000001
 31
0.0
  0
LINE
  5
FBD8
  8
2-0
  6
CENTER2
 62
     6
 10
18632.00971058516
 20
14182.986252000001
 30
0.0
 11
28367.616789537082
 21
14182.986252000001
 31
0.0
  0
CIRCLE
  5
FBD9
  8
0-5
  6
CONTINUOUS
 62
     4
 10
23063.011953585141
 20
21160.487175999999
 30
0.0
 40
199.9999949999999
  0
CIRCLE
  5
FBDA
  8
0-5
  6
CONTINUOUS
 62
     4
 10
17552.010370585162
 20
19317.986251999992
 30
0.0
 40
199.9999949999999
  0
CIRCLE
  5
FBDB
  8
0-5
  6
CONTINUOUS
 62
     4
 10
17552.010370585151
 20
16750.486251999992
 30
0.0
 40
199.9999949999999
  0
CIRCLE
  5
FBDC
  8
0-5
  6
CONTINUOUS
 62
     4
 10
17552.010370585162
 20
14182.986252000001
 30
0.0
 40
199.9999949999999
  0
CIRCLE
  5
FBDD
  8
0-5
  6
CONTINUOUS
 62
     4
 10
19794.511953585141
 20
21160.487175999999
 30
0.0
 40
199.9999949999999
  0
TEXT
  5
FBDE
  8
0-5
  6
CONTINUOUS
 62
     7
 10
23008.341609585139
 20
21074.261326000011
 30
0.0
 40
160.0
  1
2
 72
     4
 11
23061.674942918471
 21
21154.261326000011
 31
0.0
  0
TEXT
  5
FBDF
  8
0-5
  6
CONTINUOUS
 62
     7
 10
19739.841609585139
 20
21074.261326000011
 30
0.0
 40
160.0
  1
1
 72
     4
 11
19766.50827625181
 21
21154.261326000011
 31
0.0
  0
TEXT
  5
FBE0
  8
0-5
  6
CONTINUOUS
 62
     7
 10
17503.33400858516
 20
19226.368192999991
 30
0.0
 40
160.0
  1
C
 72
     4
 11
17556.667341918492
 21
19306.368192999991
 31
0.0
  0
TEXT
  5
FBE1
  8
0-5
  6
CONTINUOUS
 62
     7
 10
17503.33400858516
 20
16658.868193999999
 30
0.0
 40
160.0
  1
B
 72
     4
 11
17556.667341918492
 21
16738.868193999999
 31
0.0
  0
TEXT
  5
FBE2
  8
0-5
  6
CONTINUOUS
 62
     7
 10
17503.33400858516
 20
14091.368193
 30
0.0
 40
160.0
  1
A
 72
     4
 11
17556.667341918492
 21
14171.368193
 31
0.0
  0
LINE
  5
FBE3
  8
2-0
  6
CENTER2
 62
     6
 10
28063.011953585141
 20
20960.488495000009
 30
0.0
 11
28063.011953585141
 21
13825.23237353158
 31
0.0
  0
CIRCLE
  5
FBE4
  8
0-5
  6
CONTINUOUS
 62
     4
 10
28063.011953585141
 20
21160.487175999999
 30
0.0
 40
199.9999949999999
  0
TEXT
  5
FBE5
  8
0-5
  6
CONTINUOUS
 62
     7
 10
28008.341609585139
 20
21074.261326000011
 30
0.0
 40
160.0
  1
3
 72
     4
 11
28061.674942918471
 21
21154.261326000011
 31
0.0
  0
ARC
  5
FBE6
  8
1-後柱P
  6
HIDE-M
 62
     6
 10
28066.61195358515
 20
19249.936251999989
 30
0.0
 40
2.6000000000000001
 50
180.0
 51
270.0
  0
LINE
  5
FBE7
  8
1-後柱P
  6
HIDE-M
 62
     6
 10
28055.011953585141
 20
19247.8868618468
 30
0.0
 11
28055.011953585141
 21
19251.536252000002
 31
0.0
  0
LINE
  5
FBE8
  8
1-後柱P
  6
HIDE-M
 62
     6
 10
28065.011953585141
 20
19247.8868618468
 30
0.0
 11
28065.011953585141
 21
19251.536252000002
 31
0.0
  0
LINE
  5
FBE9
  8
1-後柱P
  6
1PL-M
 62
     6
 10
28060.01195358513
 20
19242.336252000008
 30
0.0
 11
28060.01195358513
 21
19256.536252000002
 31
0.0
  0
ARC
  5
FBEA
  8
1-後柱P
  6
HIDE-M
 62
     6
 10
28053.41195358515
 20
19249.936251999989
 30
0.0
 40
2.6000000000000001
 50
270.0
 51
0.0
  0
LINE
  5
FBEB
  8
1-後柱P
  6
HIDE-M
 62
     6
 10
28064.011953585141
 20
19249.936251999989
 30
0.0
 11
28064.011953585141
 21
19251.536252000002
 31
0.0
  0
LINE
  5
FBEC
  8
1-後柱P
  6
HIDE-M
 62
     6
 10
28056.011953585141
 20
19249.936251999989
 30
0.0
 11
28056.011953585141
 21
19251.536252000002
 31
0.0
  0
LINE
  5
FBED
  8
1-後柱P
 10
28073.91195358515
 20
19362.236251999999
 30
0.0
 11
28052.11195358515
 21
19362.236251999999
 31
0.0
  0
LINE
  5
FBEE
  8
1-後柱P
 10
28022.11195358515
 20
19324.936252
 30
0.0
 11
28022.11195358515
 21
19332.236251999992
 31
0.0
  0
ARC
  5
FBEF
  8
1-後柱P
 10
28052.11195358515
 20
19332.236251999992
 30
0.0
 40
30.0
 50
90.0
 51
180.0
  0
ARC
  5
FBF0
  8
1-後柱P
 10
28052.11195358515
 20
19332.236251999992
 30
0.0
 40
31.600000000000001
 50
90.0
 51
180.0
  0
LINE
  5
FBF1
  8
1-後柱P
 10
28073.91195358515
 20
19363.836252000001
 30
0.0
 11
28052.11195358515
 21
19363.836252000001
 31
0.0
  0
LINE
  5
FBF2
  8
1-後柱P
 10
28020.511953585141
 20
19324.936252
 30
0.0
 11
28020.511953585141
 21
19332.236251999992
 31
0.0
  0
LINE
  5
FBF3
  8
1-後柱P
 10
28043.511953585141
 20
19303.336252000008
 30
0.0
 11
28043.511953585141
 21
19313.336252000001
 31
0.0
  0
LINE
  5
FBF4
  8
1-後柱P
 10
28045.11195358515
 20
19313.336252000001
 30
0.0
 11
28045.11195358515
 21
19303.336252000008
 31
0.0
  0
LINE
  5
FBF5
  8
1-後柱P
 10
28103.91195358515
 20
19324.936252
 30
0.0
 11
28103.91195358515
 21
19332.236251999992
 31
0.0
  0
ARC
  5
FBF6
  8
1-後柱P
 10
28073.91195358515
 20
19332.236251999992
 30
0.0
 40
30.0
 50
0.0
 51
90.0
  0
ARC
  5
FBF7
  8
1-後柱P
 10
28073.91195358515
 20
19332.236251999992
 30
0.0
 40
31.600000000000001
 50
0.0
 51
90.0
  0
LINE
  5
FBF8
  8
1-後柱P
 10
28105.51195358513
 20
19324.936252
 30
0.0
 11
28105.51195358513
 21
19332.236251999992
 31
0.0
  0
LINE
  5
FBF9
  8
1-後柱P
 10
28098.91195358515
 20
19318.336252000008
 30
0.0
 11
28087.511953585141
 21
19318.336252000008
 31
0.0
  0
ARC
  5
FBFA
  8
1-後柱P
 10
28098.91195358515
 20
19324.936252
 30
0.0
 40
6.599999999999997
 50
270.0
 51
0.0
  0
ARC
  5
FBFB
  8
1-後柱P
 10
28087.511953585141
 20
19313.336252000001
 30
0.0
 40
5.0
 50
90.0
 51
180.0
  0
LINE
  5
FBFC
  8
1-後柱P
 10
28098.91195358515
 20
19319.936252
 30
0.0
 11
28087.511953585141
 21
19319.936252
 31
0.0
  0
ARC
  5
FBFD
  8
1-後柱P
 10
28098.91195358515
 20
19324.936252
 30
0.0
 40
5.0
 50
270.0
 51
0.0
  0
LINE
  5
FBFE
  8
1-後柱P
 10
28082.51195358513
 20
19313.336252000001
 30
0.0
 11
28082.51195358513
 21
19253.936252
 31
0.0
  0
LINE
  5
FBFF
  8
1-後柱P
 10
28080.91195358515
 20
19313.336252000001
 30
0.0
 11
28080.91195358515
 21
19253.936252
 31
0.0
  0
ARC
  5
FC00
  8
1-後柱P
 10
28087.511953585141
 20
19313.336252000001
 30
0.0
 40
6.599999999999997
 50
90.0
 51
180.0
  0
LINE
  5
FC01
  8
1-後柱P
 10
28075.91195358515
 20
19247.336252000001
 30
0.0
 11
28042.511953585141
 21
19247.336252000001
 31
0.0
  0
ARC
  5
FC02
  8
1-後柱P
 10
28075.91195358515
 20
19253.936252
 30
0.0
 40
6.599999999999997
 50
270.0
 51
0.0
  0
LINE
  5
FC03
  8
1-後柱P
 10
28075.91195358515
 20
19248.936252
 30
0.0
 11
28042.511953585141
 21
19248.936252
 31
0.0
  0
ARC
  5
FC04
  8
1-後柱P
 10
28075.91195358515
 20
19253.936252
 30
0.0
 40
5.0
 50
270.0
 51
0.0
  0
LINE
  5
FC05
  8
1-後柱P
 10
28042.511953585141
 20
19248.936252
 30
0.0
 11
28042.511953585141
 21
19247.336252000001
 31
0.0
  0
LINE
  5
FC06
  8
1-後柱P
 10
28027.11195358515
 20
19318.336252000008
 30
0.0
 11
28038.511953585141
 21
19318.336252000008
 31
0.0
  0
ARC
  5
FC07
  8
1-後柱P
 10
28027.11195358515
 20
19324.936252
 30
0.0
 40
6.599999999999997
 50
180.0
 51
270.0
  0
ARC
  5
FC08
  8
1-後柱P
 10
28038.511953585141
 20
19313.336252000001
 30
0.0
 40
5.0
 50
0.0
 51
90.0
  0
LINE
  5
FC09
  8
1-後柱P
 10
28038.511953585141
 20
19319.936252
 30
0.0
 11
28027.11195358515
 21
19319.936252
 31
0.0
  0
ARC
  5
FC0A
  8
1-後柱P
 10
28038.511953585141
 20
19313.336252000001
 30
0.0
 40
6.599999999999997
 50
0.0
 51
90.0
  0
ARC
  5
FC0B
  8
1-後柱P
 10
28027.11195358515
 20
19324.936252
 30
0.0
 40
5.0
 50
180.0
 51
270.0
  0
LINE
  5
FC0C
  8
1-後柱P
 10
28043.511953585141
 20
19303.336252000008
 30
0.0
 11
28045.11195358515
 21
19303.336252000008
 31
0.0
  0
LINE
  5
FC0D
  8
1-後柱カバ-P
 10
28020.511953585141
 20
19311.636252
 30
0.0
 11
28020.511953585141
 21
19252.336252000001
 31
0.0
  0
ARC
  5
FC0E
  8
1-後柱カバ-P
 10
28027.11195358515
 20
19252.336252000001
 30
0.0
 40
6.599999999999997
 50
180.0
 51
270.0
  0
LINE
  5
FC0F
  8
1-後柱カバ-P
 10
28022.11195358515
 20
19311.636252
 30
0.0
 11
28022.11195358515
 21
19252.336252000001
 31
0.0
  0
ARC
  5
FC10
  8
1-後柱カバ-P
 10
28027.11195358515
 20
19311.636252
 30
0.0
 40
5.0
 50
90.0
 51
180.0
  0
LINE
  5
FC11
  8
1-後柱カバ-P
 10
28027.11195358515
 20
19245.736251999992
 30
0.0
 11
28098.91195358515
 21
19245.736251999992
 31
0.0
  0
ARC
  5
FC12
  8
1-後柱カバ-P
 10
28098.91195358515
 20
19252.336252000001
 30
0.0
 40
6.599999999999997
 50
270.0
 51
0.0
  0
LINE
  5
FC13
  8
1-後柱カバ-P
 10
28027.11195358515
 20
19247.336252000001
 30
0.0
 11
28098.91195358515
 21
19247.336252000001
 31
0.0
  0
ARC
  5
FC14
  8
1-後柱カバ-P
 10
28098.91195358515
 20
19252.336252000001
 30
0.0
 40
5.0
 50
270.0
 51
0.0
  0
ARC
  5
FC15
  8
1-後柱カバ-P
 10
28027.11195358515
 20
19252.336252000001
 30
0.0
 40
5.0
 50
180.0
 51
270.0
  0
LINE
  5
FC16
  8
1-後柱カバ-P
 10
28105.51195358513
 20
19252.336252000001
 30
0.0
 11
28105.51195358513
 21
19311.636252
 31
0.0
  0
LINE
  5
FC17
  8
1-後柱カバ-P
 10
28103.91195358515
 20
19252.336252000001
 30
0.0
 11
28103.91195358515
 21
19311.636252
 31
0.0
  0
ARC
  5
FC18
  8
1-後柱カバ-P
 10
28098.91195358515
 20
19311.636252
 30
0.0
 40
5.0
 50
0.0
 51
90.0
  0
LINE
  5
FC19
  8
1-後柱カバ-P
  6
1PL-M
 62
     6
 10
28063.011953585141
 20
19253.236251999992
 30
0.0
 11
28063.011953585141
 21
19240.236251999999
 31
0.0
  0
LINE
  5
FC1A
  8
1-後柱カバ-P
  6
HIDE-M
 62
     6
 10
28056.011953585141
 20
19245.736251999992
 30
0.0
 11
28056.011953585141
 21
19247.336252000001
 31
0.0
  0
LINE
  5
FC1B
  8
1-後柱カバ-P
  6
HIDE-M
 62
     6
 10
28070.011953585141
 20
19245.736251999992
 30
0.0
 11
28070.011953585141
 21
19247.336252000001
 31
0.0
  0
ARC
  5
FC1C
  8
1-後柱カバ-P
 10
28027.11195358515
 20
19311.636252
 30
0.0
 40
6.599999999999997
 50
90.0
 51
180.0
  0
ARC
  5
FC1D
  8
1-後柱カバ-P
 10
28098.91195358515
 20
19311.636252
 30
0.0
 40
6.599999999999997
 50
0.0
 51
90.0
  0
LINE
  5
FC1E
  8
1-後柱カバ-P
 10
28090.511953585141
 20
19318.236251999999
 30
0.0
 11
28098.91195358515
 21
19318.236251999999
 31
0.0
  0
LINE
  5
FC1F
  8
1-後柱カバ-P
 10
28035.511953585141
 20
19318.236251999999
 30
0.0
 11
28027.11195358515
 21
19318.236251999999
 31
0.0
  0
LINE
  5
FC20
  8
1-後柱カバ-P
 10
28090.511953585141
 20
19316.636252
 30
0.0
 11
28098.91195358515
 21
19316.636252
 31
0.0
  0
LINE
  5
FC21
  8
1-後柱カバ-P
 10
28035.511953585141
 20
19316.636252
 30
0.0
 11
28027.11195358515
 21
19316.636252
 31
0.0
  0
LINE
  5
FC22
  8
1-後柱カバ-P
 10
28035.511953585141
 20
19316.636252
 30
0.0
 11
28035.511953585141
 21
19318.236251999999
 31
0.0
  0
LINE
  5
FC23
  8
1-後柱カバ-P
 10
28090.511953585141
 20
19318.236251999999
 30
0.0
 11
28090.511953585141
 21
19316.636252
 31
0.0
  0
LINE
  5
FC24
  8
1-後柱カバ-P
  6
HIDE-M
 62
     6
 10
28094.41195358515
 20
19297.236251999999
 30
0.0
 11
28106.011953585141
 21
19297.236251999999
 31
0.0
  0
LINE
  5
FC25
  8
1-後柱カバ-P
  6
HIDE-M
 62
     6
 10
28094.41195358515
 20
19289.236251999992
 30
0.0
 11
28106.011953585141
 21
19289.236251999992
 31
0.0
  0
LINE
  5
FC26
  8
1-後柱カバ-P
  6
HIDE-M
 62
     6
 10
28094.41195358515
 20
19296.236251999992
 30
0.0
 11
28106.011953585141
 21
19296.236251999992
 31
0.0
  0
LINE
  5
FC27
  8
1-後柱カバ-P
  6
HIDE-M
 62
     6
 10
28094.41195358515
 20
19290.236251999992
 30
0.0
 11
28106.011953585141
 21
19290.236251999992
 31
0.0
  0
LINE
  5
FC28
  8
1-後柱カバ-P
 10
28095.411953585139
 20
19287.736251999999
 30
0.0
 11
28102.41195358515
 21
19287.736251999999
 31
0.0
  0
LINE
  5
FC29
  8
1-後柱カバ-P
 10
28102.41195358515
 20
19298.736251999992
 30
0.0
 11
28095.411953585139
 21
19298.736251999992
 31
0.0
  0
LINE
  5
FC2A
  8
1-後柱カバ-P
 10
28102.41195358515
 20
19299.486251999992
 30
0.0
 11
28102.41195358515
 21
19286.986251999999
 31
0.0
  0
LINE
  5
FC2B
  8
1-後柱カバ-P
 10
28106.011953585141
 20
19299.236251999999
 30
0.0
 11
28106.011953585141
 21
19287.236251999992
 31
0.0
  0
LINE
  5
FC2C
  8
1-後柱カバ-P
  6
HIDE-M
 62
     6
 10
28103.91195358515
 20
19287.736251999999
 30
0.0
 11
28105.51195358513
 21
19287.736251999999
 31
0.0
  0
LINE
  5
FC2D
  8
1-後柱カバ-P
 10
28106.011953585141
 20
19287.236251999992
 30
0.0
 11
28105.51195358513
 21
19287.736251999999
 31
0.0
  0
ARC
  5
FC2E
  8
1-後柱カバ-P
 10
28103.16195358515
 20
19286.986251999999
 30
0.0
 40
0.75
 50
180.0
 51
0.0
  0
LINE
  5
FC2F
  8
1-後柱カバ-P
  6
HIDE-M
 62
     6
 10
28105.51195358513
 20
19298.736251999992
 30
0.0
 11
28103.91195358515
 21
19298.736251999992
 31
0.0
  0
LINE
  5
FC30
  8
1-後柱カバ-P
 10
28106.011953585141
 20
19299.236251999999
 30
0.0
 11
28105.51195358513
 21
19298.736251999992
 31
0.0
  0
ARC
  5
FC31
  8
1-後柱カバ-P
 10
28103.16195358515
 20
19299.486251999992
 30
0.0
 40
0.75
 50
0.0
 51
180.0
  0
LINE
  5
FC32
  8
1-後柱カバ-P
 10
28094.41195358515
 20
19297.736251999992
 30
0.0
 11
28094.41195358515
 21
19288.736251999992
 31
0.0
  0
ARC
  5
FC33
  8
1-後柱カバ-P
 10
28095.411953585139
 20
19288.736251999992
 30
0.0
 40
1.0
 50
180.0
 51
270.0
  0
ARC
  5
FC34
  8
1-後柱カバ-P
 10
28095.411953585139
 20
19297.736251999992
 30
0.0
 40
1.0
 50
90.0
 51
180.0
  0
LINE
  5
FC35
  8
1-後柱カバ-P
  6
1PL-M
 62
     6
 10
28089.41195358515
 20
19293.236251999992
 30
0.0
 11
28111.011953585141
 21
19293.236251999992
 31
0.0
  0
LINE
  5
FC36
  8
1-後柱カバ-P
 10
28095.411953585139
 20
19277.736251999999
 30
0.0
 11
28102.41195358515
 21
19277.736251999999
 31
0.0
  0
LINE
  5
FC37
  8
1-後柱カバ-P
 10
28106.011953585141
 20
19285.236251999999
 30
0.0
 11
28106.011953585141
 21
19277.236251999999
 31
0.0
  0
LINE
  5
FC38
  8
1-後柱カバ-P
  6
HIDE-M
 62
     6
 10
28103.91195358515
 20
19277.736251999999
 30
0.0
 11
28105.51195358513
 21
19277.736251999999
 31
0.0
  0
LINE
  5
FC39
  8
1-後柱カバ-P
 10
28106.011953585141
 20
19277.236251999999
 30
0.0
 11
28105.51195358513
 21
19277.736251999999
 31
0.0
  0
ARC
  5
FC3A
  8
1-後柱カバ-P
 10
28103.16195358515
 20
19276.986251999992
 30
0.0
 40
0.75
 50
180.0
 51
0.0
  0
LINE
  5
FC3B
  8
1-後柱カバ-P
 10
28094.41195358515
 20
19286.736251999999
 30
0.0
 11
28094.41195358515
 21
19278.736251999992
 31
0.0
  0
ARC
  5
FC3C
  8
1-後柱カバ-P
 10
28095.411953585139
 20
19278.736251999992
 30
0.0
 40
1.0
 50
180.0
 51
270.0
  0
LINE
  5
FC3D
  8
1-後柱カバ-P
  6
1PL-M
 62
     6
 10
28089.41195358515
 20
19283.236251999999
 30
0.0
 11
28111.011953585141
 21
19283.236251999999
 31
0.0
  0
LINE
  5
FC3E
  8
1-後柱カバ-P
 10
28102.41195358515
 20
19284.986251999992
 30
0.0
 11
28102.41195358515
 21
19276.986251999992
 31
0.0
  0
LINE
  5
FC3F
  8
1-後柱カバ-P
  6
HIDE-M
 62
     6
 10
28031.61195358515
 20
19297.236251999999
 30
0.0
 11
28020.011953585141
 21
19297.236251999999
 31
0.0
  0
LINE
  5
FC40
  8
1-後柱カバ-P
  6
HIDE-M
 62
     6
 10
28031.61195358515
 20
19289.236251999992
 30
0.0
 11
28020.011953585141
 21
19289.236251999992
 31
0.0
  0
LINE
  5
FC41
  8
1-後柱カバ-P
  6
HIDE-M
 62
     6
 10
28031.61195358515
 20
19296.236251999992
 30
0.0
 11
28020.011953585141
 21
19296.236251999992
 31
0.0
  0
LINE
  5
FC42
  8
1-後柱カバ-P
  6
HIDE-M
 62
     6
 10
28031.61195358515
 20
19290.236251999992
 30
0.0
 11
28020.011953585141
 21
19290.236251999992
 31
0.0
  0
LINE
  5
FC43
  8
1-後柱カバ-P
 10
28030.61195358515
 20
19287.736251999999
 30
0.0
 11
28023.611953585139
 21
19287.736251999999
 31
0.0
  0
LINE
  5
FC44
  8
1-後柱カバ-P
 10
28023.611953585139
 20
19298.736251999992
 30
0.0
 11
28030.61195358515
 21
19298.736251999992
 31
0.0
  0
LINE
  5
FC45
  8
1-後柱カバ-P
 10
28023.611953585139
 20
19299.486251999992
 30
0.0
 11
28023.611953585139
 21
19286.986251999999
 31
0.0
  0
LINE
  5
FC46
  8
1-後柱カバ-P
 10
28020.011953585141
 20
19299.236251999999
 30
0.0
 11
28020.011953585141
 21
19287.236251999992
 31
0.0
  0
LINE
  5
FC47
  8
1-後柱カバ-P
  6
HIDE-M
 62
     6
 10
28022.11195358515
 20
19287.736251999999
 30
0.0
 11
28020.511953585141
 21
19287.736251999999
 31
0.0
  0
LINE
  5
FC48
  8
1-後柱カバ-P
 10
28020.011953585141
 20
19287.236251999992
 30
0.0
 11
28020.511953585141
 21
19287.736251999999
 31
0.0
  0
ARC
  5
FC49
  8
1-後柱カバ-P
 10
28022.86195358515
 20
19286.986251999999
 30
0.0
 40
0.75
 50
180.0
 51
0.0
  0
LINE
  5
FC4A
  8
1-後柱カバ-P
  6
HIDE-M
 62
     6
 10
28020.511953585141
 20
19298.736251999992
 30
0.0
 11
28022.11195358515
 21
19298.736251999992
 31
0.0
  0
LINE
  5
FC4B
  8
1-後柱カバ-P
 10
28020.011953585141
 20
19299.236251999999
 30
0.0
 11
28020.511953585141
 21
19298.736251999992
 31
0.0
  0
ARC
  5
FC4C
  8
1-後柱カバ-P
 10
28022.86195358515
 20
19299.486251999992
 30
0.0
 40
0.75
 50
0.0
 51
180.0
  0
LINE
  5
FC4D
  8
1-後柱カバ-P
 10
28031.61195358515
 20
19297.736251999992
 30
0.0
 11
28031.61195358515
 21
19288.736251999992
 31
0.0
  0
ARC
  5
FC4E
  8
1-後柱カバ-P
 10
28030.61195358515
 20
19288.736251999992
 30
0.0
 40
1.0
 50
270.0
 51
0.0
  0
ARC
  5
FC4F
  8
1-後柱カバ-P
 10
28030.61195358515
 20
19297.736251999992
 30
0.0
 40
1.0
 50
0.0
 51
90.0
  0
LINE
  5
FC50
  8
1-後柱カバ-P
  6
1PL-M
 62
     6
 10
28036.61195358515
 20
19293.236251999992
 30
0.0
 11
28015.011953585141
 21
19293.236251999992
 31
0.0
  0
LINE
  5
FC51
  8
1-後柱カバ-P
 10
28030.61195358515
 20
19277.736251999999
 30
0.0
 11
28023.611953585139
 21
19277.736251999999
 31
0.0
  0
LINE
  5
FC52
  8
1-後柱カバ-P
 10
28020.011953585141
 20
19285.236251999999
 30
0.0
 11
28020.011953585141
 21
19277.236251999999
 31
0.0
  0
LINE
  5
FC53
  8
1-後柱カバ-P
  6
HIDE-M
 62
     6
 10
28022.11195358515
 20
19277.736251999999
 30
0.0
 11
28020.511953585141
 21
19277.736251999999
 31
0.0
  0
LINE
  5
FC54
  8
1-後柱カバ-P
 10
28020.011953585141
 20
19277.236251999999
 30
0.0
 11
28020.511953585141
 21
19277.736251999999
 31
0.0
  0
ARC
  5
FC55
  8
1-後柱カバ-P
 10
28022.86195358515
 20
19276.986251999992
 30
0.0
 40
0.75
 50
180.0
 51
0.0
  0
LINE
  5
FC56
  8
1-後柱カバ-P
 10
28031.61195358515
 20
19286.736251999999
 30
0.0
 11
28031.61195358515
 21
19278.736251999992
 31
0.0
  0
ARC
  5
FC57
  8
1-後柱カバ-P
 10
28030.61195358515
 20
19278.736251999992
 30
0.0
 40
1.0
 50
270.0
 51
0.0
  0
LINE
  5
FC58
  8
1-後柱カバ-P
  6
1PL-M
 62
     6
 10
28036.61195358515
 20
19283.236251999999
 30
0.0
 11
28015.011953585141
 21
19283.236251999999
 31
0.0
  0
LINE
  5
FC59
  8
1-後柱カバ-P
 10
28023.611953585139
 20
19284.986251999992
 30
0.0
 11
28023.611953585139
 21
19276.986251999992
 31
0.0
  0
LINE
  5
FC5A
  8
1-後柱カバ-P
  6
HIDE-M
 62
     6
 10
28094.41195358515
 20
19279.236251999999
 30
0.0
 11
28106.011953585141
 21
19279.236251999999
 31
0.0
  0
LINE
  5
FC5B
  8
1-後柱カバ-P
  6
HIDE-M
 62
     6
 10
28094.41195358515
 20
19280.236251999992
 30
0.0
 11
28106.011953585141
 21
19280.236251999992
 31
0.0
  0
LINE
  5
FC5C
  8
1-後柱カバ-P
  6
HIDE-M
 62
     6
 10
28031.61195358515
 20
19279.236251999999
 30
0.0
 11
28020.011953585141
 21
19279.236251999999
 31
0.0
  0
LINE
  5
FC5D
  8
1-後柱カバ-P
  6
HIDE-M
 62
     6
 10
28031.61195358515
 20
19280.236251999992
 30
0.0
 11
28020.011953585141
 21
19280.236251999992
 31
0.0
  0
LINE
  5
FC5E
  8
1-中柱P
 10
28098.911953585131
 20
16679.486251999999
 30
0.0
 11
28027.111953585121
 21
16679.486251999999
 31
0.0
  0
ARC
  5
FC5F
  8
1-中柱P
 10
28098.911953585131
 20
16684.486251999992
 30
0.0
 40
5.0
 50
270.0
 51
0.0
  0
ARC
  5
FC60
  8
1-中柱P
 10
28027.111953585121
 20
16684.486251999992
 30
0.0
 40
5.0
 50
180.0
 51
270.0
  0
LINE
  5
FC61
  8
1-中柱P
 10
28098.911953585131
 20
16677.886252000011
 30
0.0
 11
28027.111953585121
 21
16677.886252000011
 31
0.0
  0
ARC
  5
FC62
  8
1-中柱P
 10
28098.911953585131
 20
16684.486251999992
 30
0.0
 40
6.599999999999997
 50
270.0
 51
0.0
  0
LINE
  5
FC63
  8
1-中柱P
 10
28020.511953585141
 20
16743.786252000002
 30
0.0
 11
28020.511953585141
 21
16684.486251999992
 31
0.0
  0
ARC
  5
FC64
  8
1-中柱P
 10
28027.111953585121
 20
16684.486251999992
 30
0.0
 40
6.599999999999997
 50
180.0
 51
270.0
  0
LINE
  5
FC65
  8
1-中柱P
 10
28022.111953585129
 20
16684.486251999992
 30
0.0
 11
28022.111953585129
 21
16743.786252000002
 31
0.0
  0
ARC
  5
FC66
  8
1-中柱P
 10
28027.111953585121
 20
16743.786252000002
 30
0.0
 40
5.0
 50
90.0
 51
180.0
  0
LINE
  5
FC67
  8
1-中柱P
 10
28105.51195358513
 20
16743.786252000002
 30
0.0
 11
28105.51195358513
 21
16684.486251999992
 31
0.0
  0
LINE
  5
FC68
  8
1-中柱P
 10
28103.911953585121
 20
16684.486251999992
 30
0.0
 11
28103.911953585121
 21
16743.786252000002
 31
0.0
  0
LINE
  5
FC69
  8
1-中柱P
 10
28098.911953585131
 20
16750.386252000011
 30
0.0
 11
28090.511953585141
 21
16750.386252000011
 31
0.0
  0
ARC
  5
FC6A
  8
1-中柱P
 10
28098.911953585131
 20
16743.786252000002
 30
0.0
 40
6.599999999999997
 50
0.0
 51
90.0
  0
LINE
  5
FC6B
  8
1-中柱P
 10
28098.911953585131
 20
16748.786252000002
 30
0.0
 11
28090.511953585141
 21
16748.786252000002
 31
0.0
  0
ARC
  5
FC6C
  8
1-中柱P
 10
28090.511953585141
 20
16755.386252000011
 30
0.0
 40
6.599999999999997
 50
180.0
 51
270.0
  0
ARC
  5
FC6D
  8
1-中柱P
 10
28098.911953585131
 20
16743.786252000002
 30
0.0
 40
5.0
 50
0.0
 51
90.0
  0
LINE
  5
FC6E
  8
1-中柱P
 10
28085.511953585141
 20
16755.386252000011
 30
0.0
 11
28085.511953585141
 21
16814.786252000002
 31
0.0
  0
ARC
  5
FC6F
  8
1-中柱P
 10
28090.511953585141
 20
16755.386252000011
 30
0.0
 40
5.0
 50
180.0
 51
270.0
  0
LINE
  5
FC70
  8
1-中柱P
 10
28083.911953585131
 20
16755.386252000011
 30
0.0
 11
28083.911953585131
 21
16814.786252000002
 31
0.0
  0
LINE
  5
FC71
  8
1-中柱P
 10
28078.911953585131
 20
16821.386252000011
 30
0.0
 11
28045.511953585141
 21
16821.386252000011
 31
0.0
  0
ARC
  5
FC72
  8
1-中柱P
 10
28078.911953585131
 20
16814.786252000002
 30
0.0
 40
6.599999999999997
 50
0.0
 51
90.0
  0
LINE
  5
FC73
  8
1-中柱P
 10
28078.911953585131
 20
16819.786252000002
 30
0.0
 11
28045.511953585141
 21
16819.786252000002
 31
0.0
  0
ARC
  5
FC74
  8
1-中柱P
 10
28078.911953585131
 20
16814.786252000002
 30
0.0
 40
5.0
 50
0.0
 51
90.0
  0
LINE
  5
FC75
  8
1-中柱P
 10
28045.511953585141
 20
16819.786252000002
 30
0.0
 11
28045.511953585141
 21
16821.386252000011
 31
0.0
  0
LINE
  5
FC76
  8
1-中柱P
 10
28027.111953585121
 20
16750.386252000011
 30
0.0
 11
28035.511953585141
 21
16750.386252000011
 31
0.0
  0
ARC
  5
FC77
  8
1-中柱P
 10
28027.111953585121
 20
16743.786252000002
 30
0.0
 40
6.599999999999997
 50
90.0
 51
180.0
  0
ARC
  5
FC78
  8
1-中柱P
 10
28035.511953585141
 20
16755.386252000011
 30
0.0
 40
5.0
 50
270.0
 51
0.0
  0
LINE
  5
FC79
  8
1-中柱P
 10
28035.511953585141
 20
16748.786252000002
 30
0.0
 11
28027.111953585121
 21
16748.786252000002
 31
0.0
  0
ARC
  5
FC7A
  8
1-中柱P
 10
28035.511953585141
 20
16755.386252000011
 30
0.0
 40
6.599999999999997
 50
270.0
 51
0.0
  0
ARC
  5
FC7B
  8
1-中柱P
  6
HIDE-M
 62
     6
 10
28069.611953585129
 20
16818.786252000002
 30
0.0
 40
2.6000000000000001
 50
90.0
 51
180.0
  0
LINE
  5
FC7C
  8
1-中柱P
  6
HIDE-M
 62
     6
 10
28058.011953585141
 20
16820.83564215319
 30
0.0
 11
28058.011953585141
 21
16817.18625200001
 31
0.0
  0
LINE
  5
FC7D
  8
1-中柱P
  6
HIDE-M
 62
     6
 10
28068.011953585141
 20
16820.83564215319
 30
0.0
 11
28068.011953585141
 21
16817.18625200001
 31
0.0
  0
LINE
  5
FC7E
  8
1-中柱P
  6
1PL-M
 62
     6
 10
28063.011953585141
 20
16826.386252000011
 30
0.0
 11
28063.011953585141
 21
16812.18625200001
 31
0.0
  0
ARC
  5
FC7F
  8
1-中柱P
  6
HIDE-M
 62
     6
 10
28056.411953585121
 20
16818.786252000002
 30
0.0
 40
2.6000000000000001
 50
0.0
 51
90.0
  0
LINE
  5
FC80
  8
1-中柱P
  6
HIDE-M
 62
     6
 10
28067.011953585141
 20
16818.786252000002
 30
0.0
 11
28067.011953585141
 21
16817.18625200001
 31
0.0
  0
LINE
  5
FC81
  8
1-中柱P
  6
HIDE-M
 62
     6
 10
28059.011953585141
 20
16818.786252000002
 30
0.0
 11
28059.011953585141
 21
16817.18625200001
 31
0.0
  0
LINE
  5
FC82
  8
1-中柱P
 10
28042.111953585121
 20
16755.386252000011
 30
0.0
 11
28042.111953585121
 21
16765.386252000011
 31
0.0
  0
LINE
  5
FC83
  8
1-中柱P
 10
28040.511953585141
 20
16755.386252000011
 30
0.0
 11
28040.511953585141
 21
16765.386252000011
 31
0.0
  0
LINE
  5
FC84
  8
1-中柱P
 10
28042.111953585121
 20
16765.386252000011
 30
0.0
 11
28040.511953585141
 21
16765.386252000011
 31
0.0
  0
LINE
  5
FC85
  8
1-中柱P
  6
1PL-M
 62
     6
 10
28090.511953585141
 20
16786.386252000011
 30
0.0
 11
28076.31195358514
 21
16786.386252000011
 31
0.0
  0
LINE
  5
FC86
  8
1-中柱P
  6
HIDE-M
 62
     6
 10
28094.411953585121
 20
16729.386252000011
 30
0.0
 11
28106.011953585141
 21
16729.386252000011
 31
0.0
  0
LINE
  5
FC87
  8
1-中柱P
  6
HIDE-M
 62
     6
 10
28094.411953585121
 20
16721.386252000011
 30
0.0
 11
28106.011953585141
 21
16721.386252000011
 31
0.0
  0
LINE
  5
FC88
  8
1-中柱P
  6
HIDE-M
 62
     6
 10
28094.411953585121
 20
16728.386252000011
 30
0.0
 11
28106.011953585141
 21
16728.386252000011
 31
0.0
  0
LINE
  5
FC89
  8
1-中柱P
  6
HIDE-M
 62
     6
 10
28094.411953585121
 20
16722.386252000011
 30
0.0
 11
28106.011953585141
 21
16722.386252000011
 31
0.0
  0
LINE
  5
FC8A
  8
1-中柱P
 10
28095.411953585131
 20
16719.886252000011
 30
0.0
 11
28102.411953585131
 21
16719.886252000011
 31
0.0
  0
LINE
  5
FC8B
  8
1-中柱P
 10
28102.411953585131
 20
16730.886252000011
 30
0.0
 11
28095.411953585131
 21
16730.886252000011
 31
0.0
  0
LINE
  5
FC8C
  8
1-中柱P
 10
28102.411953585131
 20
16731.636252000011
 30
0.0
 11
28102.411953585131
 21
16719.136252000011
 31
0.0
  0
LINE
  5
FC8D
  8
1-中柱P
 10
28106.011953585141
 20
16731.386252000011
 30
0.0
 11
28106.011953585141
 21
16719.386252000011
 31
0.0
  0
LINE
  5
FC8E
  8
1-中柱P
  6
HIDE-M
 62
     6
 10
28103.911953585121
 20
16719.886252000011
 30
0.0
 11
28105.51195358513
 21
16719.886252000011
 31
0.0
  0
LINE
  5
FC8F
  8
1-中柱P
 10
28106.011953585141
 20
16719.386252000011
 30
0.0
 11
28105.51195358513
 21
16719.886252000011
 31
0.0
  0
ARC
  5
FC90
  8
1-中柱P
 10
28103.161953585121
 20
16719.136252000011
 30
0.0
 40
0.75
 50
180.0
 51
0.0
  0
LINE
  5
FC91
  8
1-中柱P
  6
HIDE-M
 62
     6
 10
28105.51195358513
 20
16730.886252000011
 30
0.0
 11
28103.911953585121
 21
16730.886252000011
 31
0.0
  0
LINE
  5
FC92
  8
1-中柱P
 10
28106.011953585141
 20
16731.386252000011
 30
0.0
 11
28105.51195358513
 21
16730.886252000011
 31
0.0
  0
ARC
  5
FC93
  8
1-中柱P
 10
28103.161953585121
 20
16731.636252000011
 30
0.0
 40
0.75
 50
0.0
 51
180.0
  0
LINE
  5
FC94
  8
1-中柱P
 10
28094.411953585121
 20
16729.886252000011
 30
0.0
 11
28094.411953585121
 21
16720.886252000011
 31
0.0
  0
ARC
  5
FC95
  8
1-中柱P
 10
28095.411953585131
 20
16720.886252000011
 30
0.0
 40
1.0
 50
180.0
 51
270.0
  0
ARC
  5
FC96
  8
1-中柱P
 10
28095.411953585131
 20
16729.886252000011
 30
0.0
 40
1.0
 50
90.0
 51
180.0
  0
LINE
  5
FC97
  8
1-中柱P
  6
1PL-M
 62
     6
 10
28089.411953585131
 20
16725.386252000011
 30
0.0
 11
28111.011953585141
 21
16725.386252000011
 31
0.0
  0
LINE
  5
FC98
  8
1-中柱P
 10
28095.411953585131
 20
16709.886252000011
 30
0.0
 11
28102.411953585131
 21
16709.886252000011
 31
0.0
  0
LINE
  5
FC99
  8
1-中柱P
 10
28106.011953585141
 20
16717.386252000011
 30
0.0
 11
28106.011953585141
 21
16709.386252000011
 31
0.0
  0
LINE
  5
FC9A
  8
1-中柱P
  6
HIDE-M
 62
     6
 10
28103.911953585121
 20
16709.886252000011
 30
0.0
 11
28105.51195358513
 21
16709.886252000011
 31
0.0
  0
LINE
  5
FC9B
  8
1-中柱P
 10
28106.011953585141
 20
16709.386252000011
 30
0.0
 11
28105.51195358513
 21
16709.886252000011
 31
0.0
  0
ARC
  5
FC9C
  8
1-中柱P
 10
28103.161953585121
 20
16709.136252000011
 30
0.0
 40
0.75
 50
180.0
 51
0.0
  0
LINE
  5
FC9D
  8
1-中柱P
 10
28094.411953585121
 20
16718.886252000011
 30
0.0
 11
28094.411953585121
 21
16710.886252000011
 31
0.0
  0
ARC
  5
FC9E
  8
1-中柱P
 10
28095.411953585131
 20
16710.886252000011
 30
0.0
 40
1.0
 50
180.0
 51
270.0
  0
LINE
  5
FC9F
  8
1-中柱P
  6
1PL-M
 62
     6
 10
28089.411953585131
 20
16715.386252000011
 30
0.0
 11
28111.011953585141
 21
16715.386252000011
 31
0.0
  0
LINE
  5
FCA0
  8
1-中柱P
 10
28102.411953585131
 20
16717.136252000011
 30
0.0
 11
28102.411953585131
 21
16709.136252000011
 31
0.0
  0
LINE
  5
FCA1
  8
1-中柱P
  6
HIDE-M
 62
     6
 10
28094.411953585121
 20
16711.386252000011
 30
0.0
 11
28106.011953585141
 21
16711.386252000011
 31
0.0
  0
LINE
  5
FCA2
  8
1-中柱P
  6
HIDE-M
 62
     6
 10
28094.411953585121
 20
16712.386252000011
 30
0.0
 11
28106.011953585141
 21
16712.386252000011
 31
0.0
  0
LINE
  5
FCA3
  8
1-中柱P
  6
HIDE-M
 62
     6
 10
28031.611953585129
 20
16729.386252000011
 30
0.0
 11
28020.011953585141
 21
16729.386252000011
 31
0.0
  0
LINE
  5
FCA4
  8
1-中柱P
  6
HIDE-M
 62
     6
 10
28031.611953585129
 20
16721.386252000011
 30
0.0
 11
28020.011953585141
 21
16721.386252000011
 31
0.0
  0
LINE
  5
FCA5
  8
1-中柱P
  6
HIDE-M
 62
     6
 10
28031.611953585129
 20
16728.386252000011
 30
0.0
 11
28020.011953585141
 21
16728.386252000011
 31
0.0
  0
LINE
  5
FCA6
  8
1-中柱P
  6
HIDE-M
 62
     6
 10
28031.611953585129
 20
16722.386252000011
 30
0.0
 11
28020.011953585141
 21
16722.386252000011
 31
0.0
  0
LINE
  5
FCA7
  8
1-中柱P
 10
28030.611953585121
 20
16719.886252000011
 30
0.0
 11
28023.611953585121
 21
16719.886252000011
 31
0.0
  0
LINE
  5
FCA8
  8
1-中柱P
 10
28023.611953585121
 20
16730.886252000011
 30
0.0
 11
28030.611953585121
 21
16730.886252000011
 31
0.0
  0
LINE
  5
FCA9
  8
1-中柱P
 10
28023.611953585121
 20
16731.636252000011
 30
0.0
 11
28023.611953585121
 21
16719.136252000011
 31
0.0
  0
LINE
  5
FCAA
  8
1-中柱P
 10
28020.011953585141
 20
16731.386252000011
 30
0.0
 11
28020.011953585141
 21
16719.386252000011
 31
0.0
  0
LINE
  5
FCAB
  8
1-中柱P
  6
HIDE-M
 62
     6
 10
28022.111953585129
 20
16719.886252000011
 30
0.0
 11
28020.511953585141
 21
16719.886252000011
 31
0.0
  0
LINE
  5
FCAC
  8
1-中柱P
 10
28020.011953585141
 20
16719.386252000011
 30
0.0
 11
28020.511953585141
 21
16719.886252000011
 31
0.0
  0
ARC
  5
FCAD
  8
1-中柱P
 10
28022.861953585121
 20
16719.136252000011
 30
0.0
 40
0.75
 50
180.0
 51
0.0
  0
LINE
  5
FCAE
  8
1-中柱P
  6
HIDE-M
 62
     6
 10
28020.511953585141
 20
16730.886252000011
 30
0.0
 11
28022.111953585129
 21
16730.886252000011
 31
0.0
  0
LINE
  5
FCAF
  8
1-中柱P
 10
28020.011953585141
 20
16731.386252000011
 30
0.0
 11
28020.511953585141
 21
16730.886252000011
 31
0.0
  0
ARC
  5
FCB0
  8
1-中柱P
 10
28022.861953585121
 20
16731.636252000011
 30
0.0
 40
0.75
 50
0.0
 51
180.0
  0
LINE
  5
FCB1
  8
1-中柱P
 10
28031.611953585129
 20
16729.886252000011
 30
0.0
 11
28031.611953585129
 21
16720.886252000011
 31
0.0
  0
ARC
  5
FCB2
  8
1-中柱P
 10
28030.611953585121
 20
16720.886252000011
 30
0.0
 40
1.0
 50
270.0
 51
0.0
  0
ARC
  5
FCB3
  8
1-中柱P
 10
28030.611953585121
 20
16729.886252000011
 30
0.0
 40
1.0
 50
0.0
 51
90.0
  0
LINE
  5
FCB4
  8
1-中柱P
  6
1PL-M
 62
     6
 10
28036.611953585121
 20
16725.386252000011
 30
0.0
 11
28015.011953585141
 21
16725.386252000011
 31
0.0
  0
LINE
  5
FCB5
  8
1-中柱P
 10
28030.611953585121
 20
16709.886252000011
 30
0.0
 11
28023.611953585121
 21
16709.886252000011
 31
0.0
  0
LINE
  5
FCB6
  8
1-中柱P
 10
28020.011953585141
 20
16717.386252000011
 30
0.0
 11
28020.011953585141
 21
16709.386252000011
 31
0.0
  0
LINE
  5
FCB7
  8
1-中柱P
  6
HIDE-M
 62
     6
 10
28022.111953585129
 20
16709.886252000011
 30
0.0
 11
28020.511953585141
 21
16709.886252000011
 31
0.0
  0
LINE
  5
FCB8
  8
1-中柱P
 10
28020.011953585141
 20
16709.386252000011
 30
0.0
 11
28020.511953585141
 21
16709.886252000011
 31
0.0
  0
ARC
  5
FCB9
  8
1-中柱P
 10
28022.861953585121
 20
16709.136252000011
 30
0.0
 40
0.75
 50
180.0
 51
0.0
  0
LINE
  5
FCBA
  8
1-中柱P
 10
28031.611953585129
 20
16718.886252000011
 30
0.0
 11
28031.611953585129
 21
16710.886252000011
 31
0.0
  0
ARC
  5
FCBB
  8
1-中柱P
 10
28030.611953585121
 20
16710.886252000011
 30
0.0
 40
1.0
 50
270.0
 51
0.0
  0
LINE
  5
FCBC
  8
1-中柱P
  6
1PL-M
 62
     6
 10
28036.611953585121
 20
16715.386252000011
 30
0.0
 11
28015.011953585141
 21
16715.386252000011
 31
0.0
  0
LINE
  5
FCBD
  8
1-中柱P
 10
28023.611953585121
 20
16717.136252000011
 30
0.0
 11
28023.611953585121
 21
16709.136252000011
 31
0.0
  0
LINE
  5
FCBE
  8
1-中柱P
  6
HIDE-M
 62
     6
 10
28031.611953585129
 20
16711.386252000011
 30
0.0
 11
28020.011953585141
 21
16711.386252000011
 31
0.0
  0
LINE
  5
FCBF
  8
1-中柱P
  6
HIDE-M
 62
     6
 10
28031.611953585129
 20
16712.386252000011
 30
0.0
 11
28020.011953585141
 21
16712.386252000011
 31
0.0
  0
LINE
  5
FCC0
  8
1-中柱カバ-P
 10
28020.511953585141
 20
16757.086252000001
 30
0.0
 11
28020.511953585141
 21
16816.386252000011
 31
0.0
  0
ARC
  5
FCC1
  8
1-中柱カバ-P
 10
28027.111953585121
 20
16816.386252000011
 30
0.0
 40
6.599999999999997
 50
90.0
 51
180.0
  0
LINE
  5
FCC2
  8
1-中柱カバ-P
 10
28022.111953585129
 20
16757.086252000001
 30
0.0
 11
28022.111953585129
 21
16816.386252000011
 31
0.0
  0
ARC
  5
FCC3
  8
1-中柱カバ-P
 10
28027.111953585121
 20
16757.086252000001
 30
0.0
 40
5.0
 50
180.0
 51
270.0
  0
LINE
  5
FCC4
  8
1-中柱カバ-P
 10
28027.111953585121
 20
16822.986251999999
 30
0.0
 11
28098.911953585131
 21
16822.986251999999
 31
0.0
  0
ARC
  5
FCC5
  8
1-中柱カバ-P
 10
28098.911953585131
 20
16816.386252000011
 30
0.0
 40
6.599999999999997
 50
0.0
 51
90.0
  0
LINE
  5
FCC6
  8
1-中柱カバ-P
 10
28027.111953585121
 20
16821.386252000011
 30
0.0
 11
28098.911953585131
 21
16821.386252000011
 31
0.0
  0
ARC
  5
FCC7
  8
1-中柱カバ-P
 10
28098.911953585131
 20
16816.386252000011
 30
0.0
 40
5.0
 50
0.0
 51
90.0
  0
ARC
  5
FCC8
  8
1-中柱カバ-P
 10
28027.111953585121
 20
16816.386252000011
 30
0.0
 40
5.0
 50
90.0
 51
180.0
  0
LINE
  5
FCC9
  8
1-中柱カバ-P
 10
28105.51195358513
 20
16816.386252000011
 30
0.0
 11
28105.51195358513
 21
16757.086252000001
 31
0.0
  0
LINE
  5
FCCA
  8
1-中柱カバ-P
 10
28103.911953585121
 20
16816.386252000011
 30
0.0
 11
28103.911953585121
 21
16757.086252000001
 31
0.0
  0
ARC
  5
FCCB
  8
1-中柱カバ-P
 10
28098.911953585131
 20
16757.086252000001
 30
0.0
 40
5.0
 50
270.0
 51
0.0
  0
LINE
  5
FCCC
  8
1-中柱カバ-P
  6
1PL-M
 62
     6
 10
28063.011953585141
 20
16815.486251999999
 30
0.0
 11
28063.011953585141
 21
16828.486251999992
 31
0.0
  0
LINE
  5
FCCD
  8
1-中柱カバ-P
  6
HIDE-M
 62
     6
 10
28056.011953585141
 20
16822.986251999999
 30
0.0
 11
28056.011953585141
 21
16821.386252000011
 31
0.0
  0
LINE
  5
FCCE
  8
1-中柱カバ-P
  6
HIDE-M
 62
     6
 10
28070.011953585141
 20
16822.986251999999
 30
0.0
 11
28070.011953585141
 21
16821.386252000011
 31
0.0
  0
ARC
  5
FCCF
  8
1-中柱カバ-P
 10
28027.111953585121
 20
16757.086252000001
 30
0.0
 40
6.599999999999997
 50
180.0
 51
270.0
  0
ARC
  5
FCD0
  8
1-中柱カバ-P
 10
28098.911953585131
 20
16757.086252000001
 30
0.0
 40
6.599999999999997
 50
270.0
 51
0.0
  0
LINE
  5
FCD1
  8
1-中柱カバ-P
 10
28090.511953585141
 20
16750.486251999992
 30
0.0
 11
28098.911953585131
 21
16750.486251999992
 31
0.0
  0
LINE
  5
FCD2
  8
1-中柱カバ-P
 10
28035.511953585141
 20
16750.486251999992
 30
0.0
 11
28027.111953585121
 21
16750.486251999992
 31
0.0
  0
LINE
  5
FCD3
  8
1-中柱カバ-P
 10
28090.511953585141
 20
16752.086252000001
 30
0.0
 11
28098.911953585131
 21
16752.086252000001
 31
0.0
  0
LINE
  5
FCD4
  8
1-中柱カバ-P
 10
28035.511953585141
 20
16752.086252000001
 30
0.0
 11
28027.111953585121
 21
16752.086252000001
 31
0.0
  0
LINE
  5
FCD5
  8
1-中柱カバ-P
 10
28035.511953585141
 20
16752.086252000001
 30
0.0
 11
28035.511953585141
 21
16750.486251999992
 31
0.0
  0
LINE
  5
FCD6
  8
1-中柱カバ-P
 10
28090.511953585141
 20
16750.486251999992
 30
0.0
 11
28090.511953585141
 21
16752.086252000001
 31
0.0
  0
LINE
  5
FCD7
  8
1-中柱カバ-P
  6
HIDE-M
 62
     6
 10
28094.411953585121
 20
16771.486251999992
 30
0.0
 11
28106.011953585141
 21
16771.486251999992
 31
0.0
  0
LINE
  5
FCD8
  8
1-中柱カバ-P
  6
HIDE-M
 62
     6
 10
28094.411953585121
 20
16779.486251999992
 30
0.0
 11
28106.011953585141
 21
16779.486251999992
 31
0.0
  0
LINE
  5
FCD9
  8
1-中柱カバ-P
  6
HIDE-M
 62
     6
 10
28094.411953585121
 20
16772.486251999999
 30
0.0
 11
28106.011953585141
 21
16772.486251999999
 31
0.0
  0
LINE
  5
FCDA
  8
1-中柱カバ-P
  6
HIDE-M
 62
     6
 10
28094.411953585121
 20
16778.486251999999
 30
0.0
 11
28106.011953585141
 21
16778.486251999999
 31
0.0
  0
LINE
  5
FCDB
  8
1-中柱カバ-P
 10
28095.411953585131
 20
16780.986251999992
 30
0.0
 11
28102.411953585131
 21
16780.986251999992
 31
0.0
  0
LINE
  5
FCDC
  8
1-中柱カバ-P
 10
28102.411953585131
 20
16769.986251999992
 30
0.0
 11
28095.411953585131
 21
16769.986251999992
 31
0.0
  0
LINE
  5
FCDD
  8
1-中柱カバ-P
 10
28102.411953585131
 20
16769.236251999992
 30
0.0
 11
28102.411953585131
 21
16781.736251999992
 31
0.0
  0
LINE
  5
FCDE
  8
1-中柱カバ-P
 10
28106.011953585141
 20
16769.486251999992
 30
0.0
 11
28106.011953585141
 21
16781.486251999992
 31
0.0
  0
LINE
  5
FCDF
  8
1-中柱カバ-P
  6
HIDE-M
 62
     6
 10
28103.911953585121
 20
16780.986251999992
 30
0.0
 11
28105.51195358513
 21
16780.986251999992
 31
0.0
  0
LINE
  5
FCE0
  8
1-中柱カバ-P
 10
28106.011953585141
 20
16781.486251999992
 30
0.0
 11
28105.51195358513
 21
16780.986251999992
 31
0.0
  0
ARC
  5
FCE1
  8
1-中柱カバ-P
 10
28103.161953585121
 20
16781.736251999992
 30
0.0
 40
0.75
 50
0.0
 51
180.0
  0
LINE
  5
FCE2
  8
1-中柱カバ-P
  6
HIDE-M
 62
     6
 10
28105.51195358513
 20
16769.986251999992
 30
0.0
 11
28103.911953585121
 21
16769.986251999992
 31
0.0
  0
LINE
  5
FCE3
  8
1-中柱カバ-P
 10
28106.011953585141
 20
16769.486251999992
 30
0.0
 11
28105.51195358513
 21
16769.986251999992
 31
0.0
  0
ARC
  5
FCE4
  8
1-中柱カバ-P
 10
28103.161953585121
 20
16769.236251999992
 30
0.0
 40
0.75
 50
180.0
 51
0.0
  0
LINE
  5
FCE5
  8
1-中柱カバ-P
 10
28094.411953585121
 20
16770.986251999999
 30
0.0
 11
28094.411953585121
 21
16779.986251999992
 31
0.0
  0
ARC
  5
FCE6
  8
1-中柱カバ-P
 10
28095.411953585131
 20
16779.986251999992
 30
0.0
 40
1.0
 50
90.0
 51
180.0
  0
ARC
  5
FCE7
  8
1-中柱カバ-P
 10
28095.411953585131
 20
16770.986251999999
 30
0.0
 40
1.0
 50
180.0
 51
270.0
  0
LINE
  5
FCE8
  8
1-中柱カバ-P
  6
1PL-M
 62
     6
 10
28089.411953585131
 20
16775.486251999999
 30
0.0
 11
28111.011953585141
 21
16775.486251999999
 31
0.0
  0
LINE
  5
FCE9
  8
1-中柱カバ-P
 10
28095.411953585131
 20
16790.986251999992
 30
0.0
 11
28102.411953585131
 21
16790.986251999992
 31
0.0
  0
LINE
  5
FCEA
  8
1-中柱カバ-P
 10
28106.011953585141
 20
16783.486251999992
 30
0.0
 11
28106.011953585141
 21
16791.486251999992
 31
0.0
  0
LINE
  5
FCEB
  8
1-中柱カバ-P
  6
HIDE-M
 62
     6
 10
28103.911953585121
 20
16790.986251999992
 30
0.0
 11
28105.51195358513
 21
16790.986251999992
 31
0.0
  0
LINE
  5
FCEC
  8
1-中柱カバ-P
 10
28106.011953585141
 20
16791.486251999992
 30
0.0
 11
28105.51195358513
 21
16790.986251999992
 31
0.0
  0
ARC
  5
FCED
  8
1-中柱カバ-P
 10
28103.161953585121
 20
16791.736251999992
 30
0.0
 40
0.75
 50
0.0
 51
180.0
  0
LINE
  5
FCEE
  8
1-中柱カバ-P
 10
28094.411953585121
 20
16781.986251999992
 30
0.0
 11
28094.411953585121
 21
16789.986251999999
 31
0.0
  0
ARC
  5
FCEF
  8
1-中柱カバ-P
 10
28095.411953585131
 20
16789.986251999999
 30
0.0
 40
1.0
 50
90.0
 51
180.0
  0
LINE
  5
FCF0
  8
1-中柱カバ-P
  6
1PL-M
 62
     6
 10
28089.411953585131
 20
16785.486251999992
 30
0.0
 11
28111.011953585141
 21
16785.486251999992
 31
0.0
  0
LINE
  5
FCF1
  8
1-中柱カバ-P
 10
28102.411953585131
 20
16783.736251999992
 30
0.0
 11
28102.411953585131
 21
16791.736251999992
 31
0.0
  0
LINE
  5
FCF2
  8
1-中柱カバ-P
  6
HIDE-M
 62
     6
 10
28031.611953585129
 20
16771.486251999992
 30
0.0
 11
28020.011953585141
 21
16771.486251999992
 31
0.0
  0
LINE
  5
FCF3
  8
1-中柱カバ-P
  6
HIDE-M
 62
     6
 10
28031.611953585129
 20
16779.486251999992
 30
0.0
 11
28020.011953585141
 21
16779.486251999992
 31
0.0
  0
LINE
  5
FCF4
  8
1-中柱カバ-P
  6
HIDE-M
 62
     6
 10
28031.611953585129
 20
16772.486251999999
 30
0.0
 11
28020.011953585141
 21
16772.486251999999
 31
0.0
  0
LINE
  5
FCF5
  8
1-中柱カバ-P
  6
HIDE-M
 62
     6
 10
28031.611953585129
 20
16778.486251999999
 30
0.0
 11
28020.011953585141
 21
16778.486251999999
 31
0.0
  0
LINE
  5
FCF6
  8
1-中柱カバ-P
 10
28030.611953585121
 20
16780.986251999992
 30
0.0
 11
28023.611953585121
 21
16780.986251999992
 31
0.0
  0
LINE
  5
FCF7
  8
1-中柱カバ-P
 10
28023.611953585121
 20
16769.986251999992
 30
0.0
 11
28030.611953585121
 21
16769.986251999992
 31
0.0
  0
LINE
  5
FCF8
  8
1-中柱カバ-P
 10
28023.611953585121
 20
16769.236251999992
 30
0.0
 11
28023.611953585121
 21
16781.736251999992
 31
0.0
  0
LINE
  5
FCF9
  8
1-中柱カバ-P
 10
28020.011953585141
 20
16769.486251999992
 30
0.0
 11
28020.011953585141
 21
16781.486251999992
 31
0.0
  0
LINE
  5
FCFA
  8
1-中柱カバ-P
  6
HIDE-M
 62
     6
 10
28022.111953585129
 20
16780.986251999992
 30
0.0
 11
28020.511953585141
 21
16780.986251999992
 31
0.0
  0
LINE
  5
FCFB
  8
1-中柱カバ-P
 10
28020.011953585141
 20
16781.486251999992
 30
0.0
 11
28020.511953585141
 21
16780.986251999992
 31
0.0
  0
ARC
  5
FCFC
  8
1-中柱カバ-P
 10
28022.861953585121
 20
16781.736251999992
 30
0.0
 40
0.75
 50
0.0
 51
180.0
  0
LINE
  5
FCFD
  8
1-中柱カバ-P
  6
HIDE-M
 62
     6
 10
28020.511953585141
 20
16769.986251999992
 30
0.0
 11
28022.111953585129
 21
16769.986251999992
 31
0.0
  0
LINE
  5
FCFE
  8
1-中柱カバ-P
 10
28020.011953585141
 20
16769.486251999992
 30
0.0
 11
28020.511953585141
 21
16769.986251999992
 31
0.0
  0
ARC
  5
FCFF
  8
1-中柱カバ-P
 10
28022.861953585121
 20
16769.236251999992
 30
0.0
 40
0.75
 50
180.0
 51
0.0
  0
LINE
  5
FD00
  8
1-中柱カバ-P
 10
28031.611953585129
 20
16770.986251999999
 30
0.0
 11
28031.611953585129
 21
16779.986251999992
 31
0.0
  0
ARC
  5
FD01
  8
1-中柱カバ-P
 10
28030.611953585121
 20
16779.986251999992
 30
0.0
 40
1.0
 50
0.0
 51
90.0
  0
ARC
  5
FD02
  8
1-中柱カバ-P
 10
28030.611953585121
 20
16770.986251999999
 30
0.0
 40
1.0
 50
270.0
 51
0.0
  0
LINE
  5
FD03
  8
1-中柱カバ-P
  6
1PL-M
 62
     6
 10
28036.611953585121
 20
16775.486251999999
 30
0.0
 11
28015.011953585141
 21
16775.486251999999
 31
0.0
  0
LINE
  5
FD04
  8
1-中柱カバ-P
 10
28030.611953585121
 20
16790.986251999992
 30
0.0
 11
28023.611953585121
 21
16790.986251999992
 31
0.0
  0
LINE
  5
FD05
  8
1-中柱カバ-P
 10
28020.011953585141
 20
16783.486251999992
 30
0.0
 11
28020.011953585141
 21
16791.486251999992
 31
0.0
  0
LINE
  5
FD06
  8
1-中柱カバ-P
  6
HIDE-M
 62
     6
 10
28022.111953585129
 20
16790.986251999992
 30
0.0
 11
28020.511953585141
 21
16790.986251999992
 31
0.0
  0
LINE
  5
FD07
  8
1-中柱カバ-P
 10
28020.011953585141
 20
16791.486251999992
 30
0.0
 11
28020.511953585141
 21
16790.986251999992
 31
0.0
  0
ARC
  5
FD08
  8
1-中柱カバ-P
 10
28022.861953585121
 20
16791.736251999992
 30
0.0
 40
0.75
 50
0.0
 51
180.0
  0
LINE
  5
FD09
  8
1-中柱カバ-P
 10
28031.611953585129
 20
16781.986251999992
 30
0.0
 11
28031.611953585129
 21
16789.986251999999
 31
0.0
  0
ARC
  5
FD0A
  8
1-中柱カバ-P
 10
28030.611953585121
 20
16789.986251999999
 30
0.0
 40
1.0
 50
0.0
 51
90.0
  0
LINE
  5
FD0B
  8
1-中柱カバ-P
  6
1PL-M
 62
     6
 10
28036.611953585121
 20
16785.486251999992
 30
0.0
 11
28015.011953585141
 21
16785.486251999992
 31
0.0
  0
LINE
  5
FD0C
  8
1-中柱カバ-P
 10
28023.611953585121
 20
16783.736251999992
 30
0.0
 11
28023.611953585121
 21
16791.736251999992
 31
0.0
  0
LINE
  5
FD0D
  8
1-中柱カバ-P
  6
HIDE-M
 62
     6
 10
28094.411953585121
 20
16789.486251999992
 30
0.0
 11
28106.011953585141
 21
16789.486251999992
 31
0.0
  0
LINE
  5
FD0E
  8
1-中柱カバ-P
  6
HIDE-M
 62
     6
 10
28094.411953585121
 20
16788.486251999992
 30
0.0
 11
28106.011953585141
 21
16788.486251999992
 31
0.0
  0
LINE
  5
FD0F
  8
1-中柱カバ-P
  6
HIDE-M
 62
     6
 10
28031.611953585129
 20
16789.486251999992
 30
0.0
 11
28020.011953585141
 21
16789.486251999992
 31
0.0
  0
LINE
  5
FD10
  8
1-中柱カバ-P
  6
HIDE-M
 62
     6
 10
28031.611953585129
 20
16788.486251999992
 30
0.0
 11
28020.011953585141
 21
16788.486251999992
 31
0.0
  0
ARC
  5
FD11
  8
1-前柱P
  6
HIDE-M
 62
     6
 10
28059.411953585131
 20
14251.386252
 30
0.0
 40
2.6000000000000001
 50
0.0
 51
90.0
  0
LINE
  5
FD12
  8
1-前柱P
  6
HIDE-M
 62
     6
 10
28071.011953585141
 20
14253.435642153199
 30
0.0
 11
28071.011953585141
 21
14249.786252
 31
0.0
  0
LINE
  5
FD13
  8
1-前柱P
  6
HIDE-M
 62
     6
 10
28061.011953585141
 20
14253.435642153199
 30
0.0
 11
28061.011953585141
 21
14249.786252
 31
0.0
  0
LINE
  5
FD14
  8
1-前柱P
  6
1PL-M
 62
     6
 10
28066.011953585141
 20
14258.986252000001
 30
0.0
 11
28066.011953585141
 21
14244.786252
 31
0.0
  0
ARC
  5
FD15
  8
1-前柱P
  6
HIDE-M
 62
     6
 10
28072.61195358515
 20
14251.386252
 30
0.0
 40
2.6000000000000001
 50
90.0
 51
180.0
  0
LINE
  5
FD16
  8
1-前柱P
  6
HIDE-M
 62
     6
 10
28062.011953585141
 20
14251.386252
 30
0.0
 11
28062.011953585141
 21
14249.786252
 31
0.0
  0
LINE
  5
FD17
  8
1-前柱P
  6
HIDE-M
 62
     6
 10
28070.011953585141
 20
14251.386252
 30
0.0
 11
28070.011953585141
 21
14249.786252
 31
0.0
  0
LINE
  5
FD18
  8
1-前柱P
 10
28052.11195358515
 20
14139.08625200001
 30
0.0
 11
28073.91195358515
 21
14139.08625200001
 31
0.0
  0
LINE
  5
FD19
  8
1-前柱P
 10
28103.91195358515
 20
14176.386252
 30
0.0
 11
28103.91195358515
 21
14169.08625200001
 31
0.0
  0
ARC
  5
FD1A
  8
1-前柱P
 10
28073.91195358515
 20
14169.08625200001
 30
0.0
 40
30.0
 50
270.0
 51
0.0
  0
ARC
  5
FD1B
  8
1-前柱P
 10
28073.91195358515
 20
14169.08625200001
 30
0.0
 40
31.600000000000001
 50
270.0
 51
0.0
  0
LINE
  5
FD1C
  8
1-前柱P
 10
28052.11195358515
 20
14137.486252000001
 30
0.0
 11
28073.91195358515
 21
14137.486252000001
 31
0.0
  0
LINE
  5
FD1D
  8
1-前柱P
 10
28105.51195358513
 20
14176.386252
 30
0.0
 11
28105.51195358513
 21
14169.08625200001
 31
0.0
  0
LINE
  5
FD1E
  8
1-前柱P
 10
28082.51195358513
 20
14197.986252000001
 30
0.0
 11
28082.51195358513
 21
14187.986252000001
 31
0.0
  0
LINE
  5
FD1F
  8
1-前柱P
 10
28080.91195358515
 20
14187.986252000001
 30
0.0
 11
28080.91195358515
 21
14197.986252000001
 31
0.0
  0
LINE
  5
FD20
  8
1-前柱P
 10
28022.11195358515
 20
14176.386252
 30
0.0
 11
28022.11195358515
 21
14169.08625200001
 31
0.0
  0
ARC
  5
FD21
  8
1-前柱P
 10
28052.11195358515
 20
14169.08625200001
 30
0.0
 40
30.0
 50
180.0
 51
270.0
  0
ARC
  5
FD22
  8
1-前柱P
 10
28052.11195358515
 20
14169.08625200001
 30
0.0
 40
31.600000000000001
 50
180.0
 51
270.0
  0
LINE
  5
FD23
  8
1-前柱P
 10
28020.511953585141
 20
14176.386252
 30
0.0
 11
28020.511953585141
 21
14169.08625200001
 31
0.0
  0
LINE
  5
FD24
  8
1-前柱P
 10
28027.11195358515
 20
14182.986252000001
 30
0.0
 11
28038.511953585141
 21
14182.986252000001
 31
0.0
  0
ARC
  5
FD25
  8
1-前柱P
 10
28027.11195358515
 20
14176.386252
 30
0.0
 40
6.599999999999997
 50
90.0
 51
180.0
  0
ARC
  5
FD26
  8
1-前柱P
 10
28038.511953585141
 20
14187.986252000001
 30
0.0
 40
5.0
 50
270.0
 51
0.0
  0
LINE
  5
FD27
  8
1-前柱P
 10
28027.11195358515
 20
14181.386252
 30
0.0
 11
28038.511953585141
 21
14181.386252
 31
0.0
  0
ARC
  5
FD28
  8
1-前柱P
 10
28027.11195358515
 20
14176.386252
 30
0.0
 40
5.0
 50
90.0
 51
180.0
  0
LINE
  5
FD29
  8
1-前柱P
 10
28043.511953585141
 20
14187.986252000001
 30
0.0
 11
28043.511953585141
 21
14247.386252
 31
0.0
  0
LINE
  5
FD2A
  8
1-前柱P
 10
28045.11195358515
 20
14187.986252000001
 30
0.0
 11
28045.11195358515
 21
14247.386252
 31
0.0
  0
ARC
  5
FD2B
  8
1-前柱P
 10
28038.511953585141
 20
14187.986252000001
 30
0.0
 40
6.599999999999997
 50
270.0
 51
0.0
  0
LINE
  5
FD2C
  8
1-前柱P
 10
28050.11195358515
 20
14253.986252000001
 30
0.0
 11
28083.511953585141
 21
14253.986252000001
 31
0.0
  0
ARC
  5
FD2D
  8
1-前柱P
 10
28050.11195358515
 20
14247.386252
 30
0.0
 40
6.599999999999997
 50
90.0
 51
180.0
  0
LINE
  5
FD2E
  8
1-前柱P
 10
28050.11195358515
 20
14252.386252
 30
0.0
 11
28083.511953585141
 21
14252.386252
 31
0.0
  0
ARC
  5
FD2F
  8
1-前柱P
 10
28050.11195358515
 20
14247.386252
 30
0.0
 40
5.0
 50
90.0
 51
180.0
  0
LINE
  5
FD30
  8
1-前柱P
 10
28083.511953585141
 20
14252.386252
 30
0.0
 11
28083.511953585141
 21
14253.986252000001
 31
0.0
  0
LINE
  5
FD31
  8
1-前柱P
 10
28098.91195358515
 20
14182.986252000001
 30
0.0
 11
28087.511953585141
 21
14182.986252000001
 31
0.0
  0
ARC
  5
FD32
  8
1-前柱P
 10
28098.91195358515
 20
14176.386252
 30
0.0
 40
6.599999999999997
 50
0.0
 51
90.0
  0
ARC
  5
FD33
  8
1-前柱P
 10
28087.511953585141
 20
14187.986252000001
 30
0.0
 40
5.0
 50
180.0
 51
270.0
  0
LINE
  5
FD34
  8
1-前柱P
 10
28087.511953585141
 20
14181.386252
 30
0.0
 11
28098.91195358515
 21
14181.386252
 31
0.0
  0
ARC
  5
FD35
  8
1-前柱P
 10
28087.511953585141
 20
14187.986252000001
 30
0.0
 40
6.599999999999997
 50
180.0
 51
270.0
  0
ARC
  5
FD36
  8
1-前柱P
 10
28098.91195358515
 20
14176.386252
 30
0.0
 40
5.0
 50
0.0
 51
90.0
  0
LINE
  5
FD37
  8
1-前柱P
 10
28082.51195358513
 20
14197.986252000001
 30
0.0
 11
28080.91195358515
 21
14197.986252000001
 31
0.0
  0
LINE
  5
FD38
  8
1-前柱カバ-P
 10
28105.51195358513
 20
14189.686252
 30
0.0
 11
28105.51195358513
 21
14248.986252000001
 31
0.0
  0
ARC
  5
FD39
  8
1-前柱カバ-P
 10
28098.91195358515
 20
14248.986252000001
 30
0.0
 40
6.599999999999997
 50
0.0
 51
90.0
  0
LINE
  5
FD3A
  8
1-前柱カバ-P
 10
28103.91195358515
 20
14189.686252
 30
0.0
 11
28103.91195358515
 21
14248.986252000001
 31
0.0
  0
ARC
  5
FD3B
  8
1-前柱カバ-P
 10
28098.91195358515
 20
14189.686252
 30
0.0
 40
5.0
 50
270.0
 51
0.0
  0
LINE
  5
FD3C
  8
1-前柱カバ-P
 10
28098.91195358515
 20
14255.586251999999
 30
0.0
 11
28027.11195358515
 21
14255.586251999999
 31
0.0
  0
ARC
  5
FD3D
  8
1-前柱カバ-P
 10
28027.11195358515
 20
14248.986252000001
 30
0.0
 40
6.599999999999997
 50
90.0
 51
180.0
  0
LINE
  5
FD3E
  8
1-前柱カバ-P
 10
28098.91195358515
 20
14253.986252000001
 30
0.0
 11
28027.11195358515
 21
14253.986252000001
 31
0.0
  0
ARC
  5
FD3F
  8
1-前柱カバ-P
 10
28027.11195358515
 20
14248.986252000001
 30
0.0
 40
5.0
 50
90.0
 51
180.0
  0
ARC
  5
FD40
  8
1-前柱カバ-P
 10
28098.91195358515
 20
14248.986252000001
 30
0.0
 40
5.0
 50
0.0
 51
90.0
  0
LINE
  5
FD41
  8
1-前柱カバ-P
 10
28020.511953585141
 20
14248.986252000001
 30
0.0
 11
28020.511953585141
 21
14189.686252
 31
0.0
  0
LINE
  5
FD42
  8
1-前柱カバ-P
 10
28022.11195358515
 20
14248.986252000001
 30
0.0
 11
28022.11195358515
 21
14189.686252
 31
0.0
  0
ARC
  5
FD43
  8
1-前柱カバ-P
 10
28027.11195358515
 20
14189.686252
 30
0.0
 40
5.0
 50
180.0
 51
270.0
  0
LINE
  5
FD44
  8
1-前柱カバ-P
  6
1PL-M
 62
     6
 10
28063.011953585141
 20
14248.08625200001
 30
0.0
 11
28063.011953585141
 21
14261.08625200001
 31
0.0
  0
LINE
  5
FD45
  8
1-前柱カバ-P
  6
HIDE-M
 62
     6
 10
28070.011953585141
 20
14255.586251999999
 30
0.0
 11
28070.011953585141
 21
14253.986252000001
 31
0.0
  0
LINE
  5
FD46
  8
1-前柱カバ-P
  6
HIDE-M
 62
     6
 10
28056.011953585141
 20
14255.586251999999
 30
0.0
 11
28056.011953585141
 21
14253.986252000001
 31
0.0
  0
ARC
  5
FD47
  8
1-前柱カバ-P
 10
28098.91195358515
 20
14189.686252
 30
0.0
 40
6.599999999999997
 50
270.0
 51
0.0
  0
ARC
  5
FD48
  8
1-前柱カバ-P
 10
28027.11195358515
 20
14189.686252
 30
0.0
 40
6.599999999999997
 50
180.0
 51
270.0
  0
LINE
  5
FD49
  8
1-前柱カバ-P
 10
28035.511953585141
 20
14183.08625199999
 30
0.0
 11
28027.11195358515
 21
14183.08625199999
 31
0.0
  0
LINE
  5
FD4A
  8
1-前柱カバ-P
 10
28090.511953585141
 20
14183.08625199999
 30
0.0
 11
28098.91195358515
 21
14183.08625199999
 31
0.0
  0
LINE
  5
FD4B
  8
1-前柱カバ-P
 10
28035.511953585141
 20
14184.686252
 30
0.0
 11
28027.11195358515
 21
14184.686252
 31
0.0
  0
LINE
  5
FD4C
  8
1-前柱カバ-P
 10
28090.511953585141
 20
14184.686252
 30
0.0
 11
28098.91195358515
 21
14184.686252
 31
0.0
  0
LINE
  5
FD4D
  8
1-前柱カバ-P
 10
28090.511953585141
 20
14184.686252
 30
0.0
 11
28090.511953585141
 21
14183.08625199999
 31
0.0
  0
LINE
  5
FD4E
  8
1-前柱カバ-P
 10
28035.511953585141
 20
14183.08625199999
 30
0.0
 11
28035.511953585141
 21
14184.686252
 31
0.0
  0
LINE
  5
FD4F
  8
1-前柱カバ-P
  6
HIDE-M
 62
     6
 10
28031.61195358515
 20
14204.08625200001
 30
0.0
 11
28020.011953585141
 21
14204.08625200001
 31
0.0
  0
LINE
  5
FD50
  8
1-前柱カバ-P
  6
HIDE-M
 62
     6
 10
28031.61195358515
 20
14212.08625200001
 30
0.0
 11
28020.011953585141
 21
14212.08625200001
 31
0.0
  0
LINE
  5
FD51
  8
1-前柱カバ-P
  6
HIDE-M
 62
     6
 10
28031.61195358515
 20
14205.086251999999
 30
0.0
 11
28020.011953585141
 21
14205.086251999999
 31
0.0
  0
LINE
  5
FD52
  8
1-前柱カバ-P
  6
HIDE-M
 62
     6
 10
28031.61195358515
 20
14211.08625200001
 30
0.0
 11
28020.011953585141
 21
14211.08625200001
 31
0.0
  0
LINE
  5
FD53
  8
1-前柱カバ-P
 10
28030.61195358515
 20
14213.586251999999
 30
0.0
 11
28023.611953585139
 21
14213.586251999999
 31
0.0
  0
LINE
  5
FD54
  8
1-前柱カバ-P
 10
28023.611953585139
 20
14202.58625200001
 30
0.0
 11
28030.61195358515
 21
14202.58625200001
 31
0.0
  0
LINE
  5
FD55
  8
1-前柱カバ-P
 10
28023.611953585139
 20
14201.83625200001
 30
0.0
 11
28023.611953585139
 21
14214.33625200001
 31
0.0
  0
LINE
  5
FD56
  8
1-前柱カバ-P
 10
28020.011953585141
 20
14202.08625199999
 30
0.0
 11
28020.011953585141
 21
14214.08625200001
 31
0.0
  0
LINE
  5
FD57
  8
1-前柱カバ-P
  6
HIDE-M
 62
     6
 10
28022.11195358515
 20
14213.586251999999
 30
0.0
 11
28020.511953585141
 21
14213.586251999999
 31
0.0
  0
LINE
  5
FD58
  8
1-前柱カバ-P
 10
28020.011953585141
 20
14214.08625200001
 30
0.0
 11
28020.511953585141
 21
14213.586251999999
 31
0.0
  0
ARC
  5
FD59
  8
1-前柱カバ-P
 10
28022.86195358515
 20
14214.33625200001
 30
0.0
 40
0.75
 50
0.0
 51
180.0
  0
LINE
  5
FD5A
  8
1-前柱カバ-P
  6
HIDE-M
 62
     6
 10
28020.511953585141
 20
14202.58625200001
 30
0.0
 11
28022.11195358515
 21
14202.58625200001
 31
0.0
  0
LINE
  5
FD5B
  8
1-前柱カバ-P
 10
28020.011953585141
 20
14202.08625199999
 30
0.0
 11
28020.511953585141
 21
14202.58625200001
 31
0.0
  0
ARC
  5
FD5C
  8
1-前柱カバ-P
 10
28022.86195358515
 20
14201.83625200001
 30
0.0
 40
0.75
 50
180.0
 51
0.0
  0
LINE
  5
FD5D
  8
1-前柱カバ-P
 10
28031.61195358515
 20
14203.58625200001
 30
0.0
 11
28031.61195358515
 21
14212.58625200001
 31
0.0
  0
ARC
  5
FD5E
  8
1-前柱カバ-P
 10
28030.61195358515
 20
14212.58625200001
 30
0.0
 40
1.0
 50
0.0
 51
90.0
  0
ARC
  5
FD5F
  8
1-前柱カバ-P
 10
28030.61195358515
 20
14203.58625200001
 30
0.0
 40
1.0
 50
270.0
 51
0.0
  0
LINE
  5
FD60
  8
1-前柱カバ-P
  6
1PL-M
 62
     6
 10
28036.61195358515
 20
14208.08625200001
 30
0.0
 11
28015.011953585141
 21
14208.08625200001
 31
0.0
  0
LINE
  5
FD61
  8
1-前柱カバ-P
 10
28030.61195358515
 20
14223.58625200001
 30
0.0
 11
28023.611953585139
 21
14223.58625200001
 31
0.0
  0
LINE
  5
FD62
  8
1-前柱カバ-P
 10
28020.011953585141
 20
14216.08625200001
 30
0.0
 11
28020.011953585141
 21
14224.086251999999
 31
0.0
  0
LINE
  5
FD63
  8
1-前柱カバ-P
  6
HIDE-M
 62
     6
 10
28022.11195358515
 20
14223.58625200001
 30
0.0
 11
28020.511953585141
 21
14223.58625200001
 31
0.0
  0
LINE
  5
FD64
  8
1-前柱カバ-P
 10
28020.011953585141
 20
14224.086251999999
 30
0.0
 11
28020.511953585141
 21
14223.58625200001
 31
0.0
  0
ARC
  5
FD65
  8
1-前柱カバ-P
 10
28022.86195358515
 20
14224.33625200001
 30
0.0
 40
0.75
 50
0.0
 51
180.0
  0
LINE
  5
FD66
  8
1-前柱カバ-P
 10
28031.61195358515
 20
14214.586251999999
 30
0.0
 11
28031.61195358515
 21
14222.58625200001
 31
0.0
  0
ARC
  5
FD67
  8
1-前柱カバ-P
 10
28030.61195358515
 20
14222.58625200001
 30
0.0
 40
1.0
 50
0.0
 51
90.0
  0
LINE
  5
FD68
  8
1-前柱カバ-P
  6
1PL-M
 62
     6
 10
28036.61195358515
 20
14218.08625200001
 30
0.0
 11
28015.011953585141
 21
14218.08625200001
 31
0.0
  0
LINE
  5
FD69
  8
1-前柱カバ-P
 10
28023.611953585139
 20
14216.33625200001
 30
0.0
 11
28023.611953585139
 21
14224.33625200001
 31
0.0
  0
LINE
  5
FD6A
  8
1-前柱カバ-P
  6
HIDE-M
 62
     6
 10
28094.41195358515
 20
14204.08625200001
 30
0.0
 11
28106.011953585141
 21
14204.08625200001
 31
0.0
  0
LINE
  5
FD6B
  8
1-前柱カバ-P
  6
HIDE-M
 62
     6
 10
28094.41195358515
 20
14212.08625200001
 30
0.0
 11
28106.011953585141
 21
14212.08625200001
 31
0.0
  0
LINE
  5
FD6C
  8
1-前柱カバ-P
  6
HIDE-M
 62
     6
 10
28094.41195358515
 20
14205.086251999999
 30
0.0
 11
28106.011953585141
 21
14205.086251999999
 31
0.0
  0
LINE
  5
FD6D
  8
1-前柱カバ-P
  6
HIDE-M
 62
     6
 10
28094.41195358515
 20
14211.08625200001
 30
0.0
 11
28106.011953585141
 21
14211.08625200001
 31
0.0
  0
LINE
  5
FD6E
  8
1-前柱カバ-P
 10
28095.411953585139
 20
14213.586251999999
 30
0.0
 11
28102.41195358515
 21
14213.586251999999
 31
0.0
  0
LINE
  5
FD6F
  8
1-前柱カバ-P
 10
28102.41195358515
 20
14202.58625200001
 30
0.0
 11
28095.411953585139
 21
14202.58625200001
 31
0.0
  0
LINE
  5
FD70
  8
1-前柱カバ-P
 10
28102.41195358515
 20
14201.83625200001
 30
0.0
 11
28102.41195358515
 21
14214.33625200001
 31
0.0
  0
LINE
  5
FD71
  8
1-前柱カバ-P
 10
28106.011953585141
 20
14202.08625199999
 30
0.0
 11
28106.011953585141
 21
14214.08625200001
 31
0.0
  0
LINE
  5
FD72
  8
1-前柱カバ-P
  6
HIDE-M
 62
     6
 10
28103.91195358515
 20
14213.586251999999
 30
0.0
 11
28105.51195358513
 21
14213.586251999999
 31
0.0
  0
LINE
  5
FD73
  8
1-前柱カバ-P
 10
28106.011953585141
 20
14214.08625200001
 30
0.0
 11
28105.51195358513
 21
14213.586251999999
 31
0.0
  0
ARC
  5
FD74
  8
1-前柱カバ-P
 10
28103.16195358515
 20
14214.33625200001
 30
0.0
 40
0.75
 50
0.0
 51
180.0
  0
LINE
  5
FD75
  8
1-前柱カバ-P
  6
HIDE-M
 62
     6
 10
28105.51195358513
 20
14202.58625200001
 30
0.0
 11
28103.91195358515
 21
14202.58625200001
 31
0.0
  0
LINE
  5
FD76
  8
1-前柱カバ-P
 10
28106.011953585141
 20
14202.08625199999
 30
0.0
 11
28105.51195358513
 21
14202.58625200001
 31
0.0
  0
ARC
  5
FD77
  8
1-前柱カバ-P
 10
28103.16195358515
 20
14201.83625200001
 30
0.0
 40
0.75
 50
180.0
 51
0.0
  0
LINE
  5
FD78
  8
1-前柱カバ-P
 10
28094.41195358515
 20
14203.58625200001
 30
0.0
 11
28094.41195358515
 21
14212.58625200001
 31
0.0
  0
ARC
  5
FD79
  8
1-前柱カバ-P
 10
28095.411953585139
 20
14212.58625200001
 30
0.0
 40
1.0
 50
90.0
 51
180.0
  0
ARC
  5
FD7A
  8
1-前柱カバ-P
 10
28095.411953585139
 20
14203.58625200001
 30
0.0
 40
1.0
 50
180.0
 51
270.0
  0
LINE
  5
FD7B
  8
1-前柱カバ-P
  6
1PL-M
 62
     6
 10
28089.41195358515
 20
14208.08625200001
 30
0.0
 11
28111.011953585141
 21
14208.08625200001
 31
0.0
  0
LINE
  5
FD7C
  8
1-前柱カバ-P
 10
28095.411953585139
 20
14223.58625200001
 30
0.0
 11
28102.41195358515
 21
14223.58625200001
 31
0.0
  0
LINE
  5
FD7D
  8
1-前柱カバ-P
 10
28106.011953585141
 20
14216.08625200001
 30
0.0
 11
28106.011953585141
 21
14224.086251999999
 31
0.0
  0
LINE
  5
FD7E
  8
1-前柱カバ-P
  6
HIDE-M
 62
     6
 10
28103.91195358515
 20
14223.58625200001
 30
0.0
 11
28105.51195358513
 21
14223.58625200001
 31
0.0
  0
LINE
  5
FD7F
  8
1-前柱カバ-P
 10
28106.011953585141
 20
14224.086251999999
 30
0.0
 11
28105.51195358513
 21
14223.58625200001
 31
0.0
  0
ARC
  5
FD80
  8
1-前柱カバ-P
 10
28103.16195358515
 20
14224.33625200001
 30
0.0
 40
0.75
 50
0.0
 51
180.0
  0
LINE
  5
FD81
  8
1-前柱カバ-P
 10
28094.41195358515
 20
14214.586251999999
 30
0.0
 11
28094.41195358515
 21
14222.58625200001
 31
0.0
  0
ARC
  5
FD82
  8
1-前柱カバ-P
 10
28095.411953585139
 20
14222.58625200001
 30
0.0
 40
1.0
 50
90.0
 51
180.0
  0
LINE
  5
FD83
  8
1-前柱カバ-P
  6
1PL-M
 62
     6
 10
28089.41195358515
 20
14218.08625200001
 30
0.0
 11
28111.011953585141
 21
14218.08625200001
 31
0.0
  0
LINE
  5
FD84
  8
1-前柱カバ-P
 10
28102.41195358515
 20
14216.33625200001
 30
0.0
 11
28102.41195358515
 21
14224.33625200001
 31
0.0
  0
LINE
  5
FD85
  8
1-前柱カバ-P
  6
HIDE-M
 62
     6
 10
28031.61195358515
 20
14222.08625200001
 30
0.0
 11
28020.011953585141
 21
14222.08625200001
 31
0.0
  0
LINE
  5
FD86
  8
1-前柱カバ-P
  6
HIDE-M
 62
     6
 10
28031.61195358515
 20
14221.08625199999
 30
0.0
 11
28020.011953585141
 21
14221.08625199999
 31
0.0
  0
LINE
  5
FD87
  8
1-前柱カバ-P
  6
HIDE-M
 62
     6
 10
28094.41195358515
 20
14222.08625200001
 30
0.0
 11
28106.011953585141
 21
14222.08625200001
 31
0.0
  0
LINE
  5
FD88
  8
1-前柱カバ-P
  6
HIDE-M
 62
     6
 10
28094.41195358515
 20
14221.08625199999
 30
0.0
 11
28106.011953585141
 21
14221.08625199999
 31
0.0
  0
LINE
  5
FD8C
  8
0-6
  6
CONTINUOUS
 62
     6
 10
26612.936248763741
 20
13542.987109999989
 30
0.0
 11
27612.935589763722
 21
13542.987109999989
 31
0.0
  0
TEXT
  5
FD8D
  8
0-6
  6
CONTINUOUS
 62
     7
 10
26708.936512763721
 20
13622.98737399998
 30
0.0
 40
160.0
  1
前柱（P）
 72
     4
 11
27108.936512763721
 21
13702.98737399998
 31
0.0
  0
LINE
  5
FD8E
  8
0-6
  6
CONTINUOUS
 62
     6
 10
28018.011953585141
 20
14128.986252000001
 30
0.0
 11
27612.935589763722
 21
13542.987109999989
 31
0.0
  0
LINE
  5
FD8F
  8
0-6
  6
CONTINUOUS
 62
     6
 10
26612.936248763741
 20
16080.047909954121
 30
0.0
 11
27612.935589763722
 21
16080.047909954121
 31
0.0
  0
TEXT
  5
FD90
  8
0-6
  6
CONTINUOUS
 62
     7
 10
26708.936512763721
 20
16160.048173954099
 30
0.0
 40
160.0
  1
中柱（P）
 72
     4
 11
27108.936512763721
 21
16240.048173954099
 31
0.0
  0
LINE
  5
FD91
  8
0-6
  6
CONTINUOUS
 62
     6
 10
28018.011953585141
 20
16666.047051954109
 30
0.0
 11
27612.935589763722
 21
16080.047909954121
 31
0.0
  0
LINE
  5
FD92
  8
0-6
  6
CONTINUOUS
 62
     6
 10
26271.874358294201
 20
14743.97698982888
 30
0.0
 11
27727.874358294212
 21
14743.97698982888
 31
0.0
  0
TEXT
  5
FD93
  8
0-6
  6
CONTINUOUS
 62
     7
 10
26311.879631546621
 20
14823.977253828871
 30
0.0
 40
160.0
  1
前柱カバー（P）
 72
     4
 11
26999.879631546621
 21
14903.977253828871
 31
0.0
  0
LINE
  5
FD94
  8
0-6
  6
CONTINUOUS
 62
     6
 10
28027.11195358515
 20
14255.58625199999
 30
0.0
 11
27727.874358294212
 21
14743.97698982888
 31
0.0
  0
LINE
  5
FD95
  8
0-6
  6
CONTINUOUS
 62
     6
 10
26271.874358294201
 20
17300.976553828881
 30
0.0
 11
27727.874358294212
 21
17300.976553828881
 31
0.0
  0
TEXT
  5
FD96
  8
0-6
  6
CONTINUOUS
 62
     7
 10
26311.879631546621
 20
17380.976817828861
 30
0.0
 40
160.0
  1
中柱カバー（P）
 72
     4
 11
26999.879631546621
 21
17460.976817828861
 31
0.0
  0
LINE
  5
FD97
  8
0-6
  6
CONTINUOUS
 62
     6
 10
28027.11195358515
 20
16812.585815999999
 30
0.0
 11
27727.874358294212
 21
17300.976553828881
 31
0.0
  0
LINE
  5
FD98
  8
0-6
  6
CONTINUOUS
 62
     6
 10
26612.936248763741
 20
19957.423617045872
 30
0.0
 11
27612.935589763722
 21
19957.423617045872
 31
0.0
  0
TEXT
  5
FD99
  8
0-6
  6
CONTINUOUS
 62
     7
 10
26708.936512763721
 20
20037.423881045848
 30
0.0
 40
160.0
  1
後柱（P）
 72
     4
 11
27108.936512763721
 21
20117.423881045848
 31
0.0
  0
LINE
  5
FD9A
  8
0-6
  6
CONTINUOUS
 62
     6
 10
28018.011953585141
 20
19371.424475045871
 30
0.0
 11
27612.935589763722
 21
19957.423617045872
 31
0.0
  0
LINE
  5
FD9B
  8
0-6
  6
CONTINUOUS
 62
     6
 10
26271.874358294201
 20
18736.494973171109
 30
0.0
 11
27727.874358294201
 21
18736.494973171109
 31
0.0
  0
TEXT
  5
FD9C
  8
0-6
  6
CONTINUOUS
 62
     7
 10
26311.879631546621
 20
18816.495237171112
 30
0.0
 40
160.0
  1
後柱カバー（P）
 72
     4
 11
26999.879631546621
 21
18896.495237171112
 31
0.0
  0
LINE
  5
FD9D
  8
0-6
  6
CONTINUOUS
 62
     6
 10
28027.11195358515
 20
19224.885710999992
 30
0.0
 11
27727.874358294201
 21
18736.494973171109
 31
0.0
  0
LINE
  5
FDAC
  8
0-6
  6
CONTINUOUS
 62
     6
 10
20005.077304585131
 20
14013.404854
 30
0.0
 11
20473.011742585149
 21
13542.987109999989
 31
0.0
  0
LINE
  5
FDAD
  8
0-6
  6
CONTINUOUS
 62
     6
 10
20473.011742585149
 20
13542.987109999989
 30
0.0
 11
21473.01108358513
 21
13542.987109999989
 31
0.0
  0
LINE
  5
FDC6
  8
0-6
  6
CONTINUOUS
 62
     6
 10
20023.985665585151
 20
14032.20929099999
 30
0.0
 11
19892.24078658516
 21
14126.84017699998
 31
0.0
  0
LINE
  5
FDC7
  8
0-6
  6
CONTINUOUS
 62
     6
 10
19892.24078658516
 20
14126.84017699998
 30
0.0
 11
19986.172902585149
 21
13994.598438000001
 31
0.0
  0
LINE
  5
FDC8
  8
0-6
  6
CONTINUOUS
 62
     6
 10
19892.24078658516
 20
14126.84017699998
 30
0.0
 11
20023.985665585151
 21
14032.20929099999
 31
0.0
  0
LINE
  5
FDC9
  8
0-6
  6
CONTINUOUS
 62
     6
 10
20023.985665585151
 20
14032.20929099999
 30
0.0
 11
19986.172902585149
 21
13994.598438000001
 31
0.0
  0
LINE
  5
FDCA
  8
0-6
  6
CONTINUOUS
 62
     6
 10
19986.172902585149
 20
13994.598438000001
 30
0.0
 11
19892.24078658516
 21
14126.84017699998
 31
0.0
  0
LINE
  5
FDCB
  8
0-6
  6
CONTINUOUS
 62
     6
 10
19986.172902585149
 20
13994.598438000001
 30
0.0
 11
20023.985665585151
 21
14032.20929099999
 31
0.0
  0
TEXT
  5
FDD3
  8
0-6
  6
CONTINUOUS
 62
     7
 10
20553.012006585141
 20
13622.98737399998
 30
0.0
 40
160.0
  1
前柱（左）
 72
     4
 11
20969.012006585141
 21
13702.98737399998
 31
0.0
  0
LINE
  5
FDDD
  8
0-1
  6
CONTINUOUS
 62
     3
 10
6980.73090447094
 20
8152.2344180000036
 30
0.0
 11
6980.73090447094
 21
6291.1885389999989
 31
0.0
  0
LINE
  5
FDDE
  8
0-1
  6
CONTINUOUS
 62
     3
 10
6943.7327124709409
 20
8152.2344180000036
 30
0.0
 11
6943.7327124709409
 21
6291.1885389999989
 31
0.0
  0
LINE
  5
FDDF
  8
0-1
  6
CONTINUOUS
 62
     3
 10
6805.2317354709367
 20
6291.1885389999989
 30
0.0
 11
6805.2317354709367
 21
8152.2344180000036
 31
0.0
  0
LINE
  5
FDE0
  8
0-1
  6
CONTINUOUS
 62
     3
 10
6820.2315374709506
 20
6291.1885389999989
 30
0.0
 11
6820.2315374709506
 21
8152.2344180000036
 31
0.0
  0
LINE
  5
FDE1
  8
0-1
  6
CONTINUOUS
 62
     3
 10
7104.2310894709426
 20
6291.1885389999989
 30
0.0
 11
7104.2310894709426
 21
8152.2344180000036
 31
0.0
  0
LINE
  5
FDE2
  8
0-1
  6
CONTINUOUS
 62
     3
 10
7119.2318804709503
 20
6291.1885389999989
 30
0.0
 11
7119.2318804709503
 21
8152.2344180000036
 31
0.0
  0
LINE
  5
FDE3
  8
0-1
  6
CONTINUOUS
 62
     3
 10
6621.2324494709464
 20
8152.2344180000064
 30
0.0
 11
6621.2324494709464
 21
6241.1883740000021
 31
0.0
  0
LINE
  5
FDE4
  8
0-1
  6
CONTINUOUS
 62
     3
 10
11611.23370247093
 20
8152.2344180000064
 30
0.0
 11
11611.23370247093
 21
6241.1883740000021
 31
0.0
  0
LINE
  5
FDE5
  8
0-1
  6
CONTINUOUS
 62
     3
 10
11427.232435470951
 20
6291.1885390000007
 30
0.0
 11
11427.232435470951
 21
8152.2344180000064
 31
0.0
  0
LINE
  5
FDE6
  8
0-1
  6
CONTINUOUS
 62
     3
 10
11412.232633470951
 20
6291.1885390000007
 30
0.0
 11
11412.232633470951
 21
8152.2344180000064
 31
0.0
  0
LINE
  5
FDE7
  8
0-1
  6
CONTINUOUS
 62
     3
 10
5310.142054151027
 20
19509.98900999999
 30
0.0
 11
13596.643004151019
 21
19509.98900999999
 31
0.0
  0
LINE
  5
FDE8
  8
0-1
  6
CONTINUOUS
 62
     3
 10
5254.6422911510272
 20
19461.985685
 30
0.0
 11
13652.143756151039
 21
19461.985685
 31
0.0
  0
LINE
  5
FDE9
  8
0-6
  6
CONTINUOUS
 62
     6
 10
9796.3462419389725
 20
19652.391617999991
 30
0.0
 11
9753.0442729389506
 21
19627.390297999991
 31
0.0
  0
LINE
  5
FDEA
  8
0-6
  6
CONTINUOUS
 62
     6
 10
9796.3462419389725
 20
19652.391617999991
 30
0.0
 11
9849.6942679389704
 21
19509.98900999999
 31
0.0
  0
LINE
  5
FDEB
  8
0-6
  6
CONTINUOUS
 62
     6
 10
9753.0442729389506
 20
19627.390297999991
 30
0.0
 11
9796.3462419389725
 21
19652.391617999991
 31
0.0
  0
LINE
  5
FDEC
  8
0-6
  6
CONTINUOUS
 62
     6
 10
9849.6942679389704
 20
19509.98900999999
 30
0.0
 11
9753.0442729389506
 21
19627.390297999991
 31
0.0
  0
LINE
  5
FDED
  8
0-6
  6
CONTINUOUS
 62
     6
 10
9849.6942679389704
 20
19509.98900999999
 30
0.0
 11
9796.3462419389725
 21
19652.391617999991
 31
0.0
  0
LINE
  5
FDEE
  8
0-6
  6
CONTINUOUS
 62
     6
 10
9753.0442729389506
 20
19627.390297999991
 30
0.0
 11
9849.6942679389704
 21
19509.98900999999
 31
0.0
  0
LINE
  5
FDEF
  8
0-6
  6
CONTINUOUS
 62
     6
 10
9774.6962469389728
 20
19639.892938000001
 30
0.0
 11
9549.110430269282
 21
20063.562777731098
 31
0.0
  0
TEXT
  5
FDF0
  8
0-6
  6
CONTINUOUS
 62
     7
 10
9375.4392269389737
 20
20619.988217999999
 30
0.0
 40
160.0
  1
鼻隠し後
 72
     4
 11
9738.1058936056415
 21
20699.988217999999
 31
0.0
  0
LINE
  5
FDF1
  8
0-6
  6
CONTINUOUS
 62
     6
 10
9295.4369829389725
 20
20539.987954
 30
0.0
 11
10137.876541938969
 21
20539.987954
 31
0.0
  0
LINE
  5
FDF2
  8
0-6
  6
CONTINUOUS
 62
     6
 10
9481.0765712167595
 20
20191.337456683399
 30
0.0
 11
9295.4369829389725
 21
20539.987954
 31
0.0
  0
LINE
  5
FDF3
  8
0-6
  6
CONTINUOUS
 62
     6
 10
14121.148330397969
 20
14049.7162631389
 30
0.0
 11
16762.392797306751
 21
14049.7162631389
 31
0.0
  0
TEXT
  5
FDF4
  8
0-6
  6
CONTINUOUS
 62
     7
 10
14192.74669874798
 20
14129.716527138889
 30
0.0
 40
160.0
  1
桁前（PU）+ 桁補強（PU）
 72
     4
 11
15440.74669874798
 21
14209.716527138889
 31
0.0
  0
LINE
  5
FDF5
  8
0-6
  6
CONTINUOUS
 62
     6
 10
14121.148330397969
 20
14049.7162631389
 30
0.0
 11
12675.776899775899
 21
13623.78637377761
 31
0.0
  0
LINE
  5
FDF6
  8
0-6
  6
CONTINUOUS
 62
     6
 10
12675.776899775899
 20
13623.78637377761
 30
0.0
 11
12298.834436280349
 21
14125.98635799994
 31
0.0
  0
LINE
  5
FDF7
  8
0-6
  6
CONTINUOUS
 62
     6
 10
14241.48305897038
 20
16653.715616139041
 30
0.0
 11
16721.794362411671
 21
16653.715616139041
 31
0.0
  0
TEXT
  5
FDF8
  8
0-6
  6
CONTINUOUS
 62
     7
 10
14333.99327295607
 20
16733.715880139021
 30
0.0
 40
160.0
  1
桁（PU）+ 桁補強（PU）
 72
     4
 11
15485.99327295607
 21
16813.715880139021
 31
0.0
  0
LINE
  5
FDF9
  8
0-6
  6
CONTINUOUS
 62
     6
 10
14241.483058970371
 20
16653.715616139041
 30
0.0
 11
12796.111628348301
 21
16227.785726777731
 31
0.0
  0
LINE
  5
FDFA
  8
0-6
  6
CONTINUOUS
 62
     6
 10
12796.111628348301
 20
16227.785726777731
 30
0.0
 11
12419.16916485275
 21
16729.985711000059
 31
0.0
  0
LINE
  5
FDFB
  8
0-6
  6
CONTINUOUS
 62
     6
 10
14241.48305897038
 20
19184.8286867149
 30
0.0
 11
16721.794362411671
 21
19184.8286867149
 31
0.0
  0
TEXT
  5
FDFC
  8
0-6
  6
CONTINUOUS
 62
     7
 10
14333.99327295607
 20
19264.82895071488
 30
0.0
 40
160.0
  1
桁（PU）+ 桁補強（PU）
 72
     4
 11
15485.99327295607
 21
19344.82895071488
 31
0.0
  0
LINE
  5
FDFD
  8
0-6
  6
CONTINUOUS
 62
     6
 10
14241.483058970371
 20
19184.8286867149
 30
0.0
 11
12796.111628348301
 21
18758.898797353591
 31
0.0
  0
LINE
  5
FDFE
  8
0-6
  6
CONTINUOUS
 62
     6
 10
12796.111628348301
 20
18758.898797353591
 30
0.0
 11
12419.16916485275
 21
19261.098781575922
 31
0.0
  0
TEXT
  5
FDFF
  8
0-6
  6
CONTINUOUS
 62
     7
 10
12325.796425404929
 20
15319.935473763589
 30
0.0
 40
160.0
  1
梁（P）前
 72
     4
 11
12768.463092071601
 21
15399.935473763589
 31
0.0
  0
LINE
  5
FE00
  8
0-6
  6
CONTINUOUS
 62
     6
 10
12261.598737222899
 20
15239.93619976359
 30
0.0
 11
13276.58890654774
 21
15239.93619976359
 31
0.0
  0
LINE
  5
FE12
  8
0-1
  6
CONTINUOUS
 62
     3
 10
6040.1446391510581
 20
18801.671087837851
 30
0.0
 11
6040.1446391510581
 21
19461.985685
 31
0.0
  0
LINE
  5
FE13
  8
0-1
  6
CONTINUOUS
 62
     3
 10
6077.1448111510599
 20
18786.352112024219
 30
0.0
 11
6077.1448111510599
 21
19461.985685
 31
0.0
  0
LINE
  5
FE14
  8
0-1
  6
CONTINUOUS
 62
     3
 10
5840.1439801510596
 20
18884.47625041733
 30
0.0
 11
5840.1439801510614
 21
19461.985685
 31
0.0
  0
LINE
  5
FE15
  8
0-1
  6
CONTINUOUS
 62
     3
 10
5877.1431611510598
 20
18869.157684901951
 30
0.0
 11
5877.1431611510598
 21
19461.985685
 31
0.0
  0
LINE
  5
FE16
  8
0-1
  6
CONTINUOUS
 62
     3
 10
5640.1443091510591
 20
18967.28100394065
 30
0.0
 11
5640.1443091510591
 21
19461.985685
 31
0.0
  0
LINE
  5
FE17
  8
0-1
  6
CONTINUOUS
 62
     3
 10
5677.1444811510592
 20
18951.96202812704
 30
0.0
 11
5677.1444811510592
 21
19461.985685
 31
0.0
  0
LINE
  5
FE18
  8
0-1
  6
CONTINUOUS
 62
     3
 10
5440.1436501510598
 20
19050.086166520141
 30
0.0
 11
5440.1436501510598
 21
19461.985685
 31
0.0
  0
LINE
  5
FE19
  8
0-1
  6
CONTINUOUS
 62
     3
 10
5477.1428311510617
 20
19034.767601004762
 30
0.0
 11
5477.1428311510617
 21
19461.985685
 31
0.0
  0
LINE
  5
FE1C
  8
WAKUSEN-01
 10
868.00000000000193
 20
22484.000000000011
 30
0.0
 11
32764.000000000011
 21
22484.000000000011
 31
0.0
  0
LINE
  5
FE1F
  8
WAKUSEN-01
 10
20560.0
 20
2484.0
 30
0.0
 11
32764.0
 21
2484.0
 31
0.0
  0
LINE
  5
FE20
  8
WAKUSEN-02
 10
20560.0
 20
1655.9999999999991
 30
0.0
 11
26868.0
 21
1655.9999999999991
 31
0.0
  0
TEXT
  5
FE21
  8
WAKUMOJI-01
 10
20670.260259962761
 20
2125.9030093393221
 30
0.0
 40
240.0
  1
名　称
  7
WAKUMOJI
  0
TEXT
  5
FE22
  8
WAKUMOJI-01
 10
20656.505485091919
 20
1319.12897497982
 30
0.0
 40
240.0
  1
機種名
  7
WAKUMOJI
  0
LINE
  5
FE25
  8
YODOROGO
 10
29977.604341291921
 20
1995.7494964292871
 30
0.0
 11
29829.604341291921
 21
1995.7494964292871
 31
0.0
1001
AUTOCAD_POSTSCRIPT_FIGURE
1002
{
1000
PSFILL
1000
Grayscale
1000
Grayscale
1070
    25
1002
}
  0
LINE
  5
FE26
  8
YODOROGO
 10
29829.604341291921
 20
1947.749496429288
 30
0.0
 11
29977.604341291921
 21
1947.749496429288
 31
0.0
1001
AUTOCAD_POSTSCRIPT_FIGURE
1002
{
1000
PSFILL
1000
Grayscale
1000
Grayscale
1070
    25
1002
}
  0
LINE
  5
FE27
  8
YODOROGO
 10
29977.604341291921
 20
1907.7494964292871
 30
0.0
 11
29829.604341291921
 21
1907.7494964292871
 31
0.0
1001
AUTOCAD_POSTSCRIPT_FIGURE
1002
{
1000
PSFILL
1000
Grayscale
1000
Grayscale
1070
    25
1002
}
  0
LINE
  5
FE28
  8
YODOROGO
 10
29829.604341291921
 20
1859.749496429288
 30
0.0
 11
29977.604341291921
 21
1859.749496429288
 31
0.0
1001
AUTOCAD_POSTSCRIPT_FIGURE
1002
{
1000
PSFILL
1000
Grayscale
1000
Grayscale
1070
    25
1002
}
  0
LINE
  5
FE29
  8
YODOROGO
 10
29977.604341291921
 20
1819.7494964292871
 30
0.0
 11
29829.604341291921
 21
1819.7494964292871
 31
0.0
1001
AUTOCAD_POSTSCRIPT_FIGURE
1002
{
1000
PSFILL
1000
Grayscale
1000
Grayscale
1070
    25
1002
}
  0
LINE
  5
FE2A
  8
YODOROGO
 10
29921.60434129191
 20
1707.749496429288
 30
0.0
 11
29977.604341291921
 21
1707.749496429288
 31
0.0
1001
AUTOCAD_POSTSCRIPT_FIGURE
1002
{
1000
PSFILL
1000
Grayscale
1000
Grayscale
1070
    25
1002
}
  0
LINE
  5
FE2B
  8
YODOROGO
 10
29737.604341291921
 20
1427.749496429288
 30
0.0
 11
29937.604341291932
 21
1481.3393349155101
 31
0.0
  0
LINE
  5
FE2C
  8
YODOROGO
 10
29949.60434129191
 20
1707.749496429288
 30
0.0
 11
29885.604341291921
 21
1707.749496429288
 31
0.0
  0
ARC
  5
FE2D
  8
YODOROGO
 10
30254.34774982791
 20
1807.864609233261
 30
0.0
 40
381.88686420564721
 50
213.96111677667841
 51
264.47872074317792
  0
ARC
  5
FE2E
  8
YODOROGO
 10
30254.347749827921
 20
1807.864609233302
 30
0.0
 40
381.8868642056816
 50
208.14114420486601
 51
212.9210361185994
  0
LINE
  5
FE2F
  8
YODOROGO
 10
29771.409872985321
 20
1556.807661346234
 30
0.0
 11
29933.78413250855
 21
1600.3157130570869
 31
0.0
  0
LINE
  5
FE30
  8
YODOROGO
 10
29737.604341291921
 20
1427.749496429288
 30
0.0
 11
29937.604341291932
 21
1481.3393349155101
 31
0.0
  0
LINE
  5
FE31
  8
YODOROGO
 10
29949.60434129191
 20
1707.749496429288
 30
0.0
 11
29885.604341291921
 21
1707.749496429288
 31
0.0
  0
ARC
  5
FE32
  8
YODOROGO
 10
30254.34774982791
 20
1807.864609233261
 30
0.0
 40
381.88686420564721
 50
213.96111677667841
 51
264.47872074317792
  0
LINE
  5
FE33
  8
YODOROGO
 10
28793.60434129191
 20
1819.7494964292871
 30
0.0
 11
28433.60434129191
 21
1819.7494964292871
 31
0.0
  0
LINE
  5
FE34
  8
YODOROGO
 10
28513.60434129191
 20
1427.749496429288
 30
0.0
 11
28793.60434129191
 21
1427.749496429288
 31
0.0
  0
LINE
  5
FE35
  8
YODOROGO
 10
28729.604341291921
 20
1923.7494964292871
 30
0.0
 11
28497.60434129191
 21
1923.7494964292871
 31
0.0
  0
LINE
  5
FE36
  8
YODOROGO
 10
28585.604341291921
 20
2027.749496429288
 30
0.0
 11
28657.604341291921
 21
2027.749496429288
 31
0.0
  0
LINE
  5
FE37
  8
YODOROGO
 10
28433.60434129191
 20
1707.749496429288
 30
0.0
 11
28433.60434129191
 21
1507.749496429288
 31
0.0
  0
LINE
  5
FE38
  8
YODOROGO
 10
28497.60434129191
 20
1563.7494964292871
 30
0.0
 11
28497.60434129191
 21
1707.749496429288
 31
0.0
  0
LINE
  5
FE39
  8
YODOROGO
 10
28585.604341291921
 20
1747.74949642929
 30
0.0
 11
28585.604341291921
 21
1547.749496429288
 31
0.0
  0
LINE
  5
FE3A
  8
YODOROGO
 10
27857.604341291921
 20
1683.749496429288
 30
0.0
 11
27777.604341291921
 21
1619.9724140445701
 31
0.0
  0
LINE
  5
FE3B
  8
YODOROGO
 10
27937.604341291921
 20
1619.9724140445701
 30
0.0
 11
27857.604341291921
 21
1683.749496429288
 31
0.0
  0
LINE
  5
FE3C
  8
YODOROGO
 10
27857.604341291921
 20
1707.749496429288
 30
0.0
 11
27937.604341291921
 21
1643.9724140445701
 31
0.0
  0
LINE
  5
FE3D
  8
YODOROGO
 10
27777.604341291921
 20
1643.9724140445701
 30
0.0
 11
27857.604341291921
 21
1707.749496429288
 31
0.0
  0
LINE
  5
FE3E
  8
YODOROGO
 10
28040.913204016892
 20
1659.749496429288
 30
0.0
 11
28040.913204016892
 21
1683.7494964292871
 31
0.0
  0
LINE
  5
FE3F
  8
YODOROGO
 10
27977.604341291921
 20
1683.7494964292871
 30
0.0
 11
27977.604341291921
 21
1667.749496429285
 31
0.0
  0
LINE
  5
FE40
  8
YODOROGO
 10
28098.135520230931
 20
1707.749496429288
 30
0.0
 11
28098.135520230931
 21
1655.5036372746561
 31
0.0
1001
AUTOCAD_POSTSCRIPT_FIGURE
1002
{
1000
PSFILL
1000
Grayscale
1000
Grayscale
1070
   100
1002
}
  0
LINE
  5
FE41
  8
YODOROGO
 10
28082.135520230921
 20
1655.5036372746561
 30
0.0
 11
28082.135520230921
 21
1707.749496429288
 31
0.0
1001
AUTOCAD_POSTSCRIPT_FIGURE
1002
{
1000
PSFILL
1000
Grayscale
1000
Grayscale
1070
   100
1002
}
  0
LINE
  5
FE42
  8
YODOROGO
 10
27809.604341291921
 20
1608.771904043258
 30
0.0
 11
27809.604341291921
 21
1632.771904043258
 31
0.0
  0
LINE
  5
FE43
  8
YODOROGO
 10
27905.604341291921
 20
1608.771904043258
 30
0.0
 11
27809.604341291921
 21
1608.771904043258
 31
0.0
  0
LINE
  5
FE44
  8
YODOROGO
 10
27905.604341291921
 20
1632.771904043258
 30
0.0
 11
27905.604341291921
 21
1608.771904043258
 31
0.0
  0
LINE
  5
FE45
  8
YODOROGO
 10
27809.604341291921
 20
1632.771904043258
 30
0.0
 11
27905.604341291921
 21
1632.771904043258
 31
0.0
  0
LINE
  5
FE46
  8
YODOROGO
 10
27824.509588915738
 20
1568.5028573704751
 30
0.0
 11
27785.604341291921
 21
1475.7494964292871
 31
0.0
1001
AUTOCAD_POSTSCRIPT_FIGURE
1002
{
1000
PSFILL
1000
Grayscale
1000
Grayscale
1070
   100
1002
}
  0
LINE
  5
FE47
  8
YODOROGO
 10
27777.604341291921
 20
1568.5028573704751
 30
0.0
 11
27824.509588915738
 21
1568.5028573704751
 31
0.0
1001
AUTOCAD_POSTSCRIPT_FIGURE
1002
{
1000
PSFILL
1000
Grayscale
1000
Grayscale
1070
   100
1002
}
  0
LINE
  5
FE48
  8
YODOROGO
 10
27777.604341291921
 20
1588.5028573704751
 30
0.0
 11
27777.604341291921
 21
1568.5028573704751
 31
0.0
1001
AUTOCAD_POSTSCRIPT_FIGURE
1002
{
1000
PSFILL
1000
Grayscale
1000
Grayscale
1070
   100
1002
}
  0
LINE
  5
FE49
  8
YODOROGO
 10
27937.604341291921
 20
1588.5028573704751
 30
0.0
 11
27777.604341291921
 21
1588.5028573704751
 31
0.0
1001
AUTOCAD_POSTSCRIPT_FIGURE
1002
{
1000
PSFILL
1000
Grayscale
1000
Grayscale
1070
   100
1002
}
  0
LINE
  5
FE4A
  8
YODOROGO
 10
27937.604341291921
 20
1568.5028573704751
 30
0.0
 11
27937.604341291921
 21
1588.5028573704751
 31
0.0
1001
AUTOCAD_POSTSCRIPT_FIGURE
1002
{
1000
PSFILL
1000
Grayscale
1000
Grayscale
1070
   100
1002
}
  0
LINE
  5
FE4B
  8
YODOROGO
 10
27844.509588915738
 20
1568.5028573704751
 30
0.0
 11
27937.604341291921
 21
1568.5028573704751
 31
0.0
1001
AUTOCAD_POSTSCRIPT_FIGURE
1002
{
1000
PSFILL
1000
Grayscale
1000
Grayscale
1070
   100
1002
}
  0
LINE
  5
FE4C
  8
YODOROGO
 10
27815.546718284771
 20
1495.7494964292871
 30
0.0
 11
27844.509588915738
 21
1568.5028573704751
 31
0.0
1001
AUTOCAD_POSTSCRIPT_FIGURE
1002
{
1000
PSFILL
1000
Grayscale
1000
Grayscale
1070
   100
1002
}
  0
LINE
  5
FE4D
  8
YODOROGO
 10
27902.054790808648
 20
1495.7494964292871
 30
0.0
 11
27815.546718284771
 21
1495.7494964292871
 31
0.0
1001
AUTOCAD_POSTSCRIPT_FIGURE
1002
{
1000
PSFILL
1000
Grayscale
1000
Grayscale
1070
   100
1002
}
  0
LINE
  5
FE4E
  8
YODOROGO
 10
27885.065004790951
 20
1536.2338106976929
 30
0.0
 11
27902.054790808648
 21
1495.7494964292871
 31
0.0
1001
AUTOCAD_POSTSCRIPT_FIGURE
1002
{
1000
PSFILL
1000
Grayscale
1000
Grayscale
1070
   100
1002
}
  0
LINE
  5
FE4F
  8
YODOROGO
 10
27901.065004790951
 20
1536.2338106976929
 30
0.0
 11
27885.065004790951
 21
1536.2338106976929
 31
0.0
1001
AUTOCAD_POSTSCRIPT_FIGURE
1002
{
1000
PSFILL
1000
Grayscale
1000
Grayscale
1070
   100
1002
}
  0
LINE
  5
FE50
  8
YODOROGO
 10
27929.604341291921
 20
1475.7494964292871
 30
0.0
 11
27901.065004790951
 21
1536.2338106976929
 31
0.0
1001
AUTOCAD_POSTSCRIPT_FIGURE
1002
{
1000
PSFILL
1000
Grayscale
1000
Grayscale
1070
   100
1002
}
  0
LINE
  5
FE51
  8
YODOROGO
 10
27785.604341291921
 20
1475.7494964292871
 30
0.0
 11
27929.604341291921
 21
1475.7494964292871
 31
0.0
1001
AUTOCAD_POSTSCRIPT_FIGURE
1002
{
1000
PSFILL
1000
Grayscale
1000
Grayscale
1070
   100
1002
}
  0
LINE
  5
FE52
  8
YODOROGO
 10
27777.604341291921
 20
1619.9724140445701
 30
0.0
 11
27777.604341291921
 21
1643.9724140445701
 31
0.0
  0
LINE
  5
FE53
  8
YODOROGO
 10
27937.604341291921
 20
1643.9724140445701
 30
0.0
 11
27937.604341291921
 21
1619.9724140445701
 31
0.0
  0
ARC
  5
FE54
  8
YODOROGO
 10
28225.940442146959
 20
1600.877765325326
 30
0.0
 40
175.9999999999998
 50
280.3644312771313
 51
3.5414836592180561
  0
ARC
  5
FE55
  8
YODOROGO
 10
28235.756030759301
 20
1633.5978069619041
 30
0.0
 40
111.9999999999982
 50
281.24905825041549
 51
348.75094174958321
  0
LINE
  5
FE56
  8
YODOROGO
 10
28257.604341291921
 20
1523.7494964292871
 30
0.0
 11
28257.604341291921
 21
1427.749496429288
 31
0.0
  0
LINE
  5
FE57
  8
YODOROGO
 10
28020.088903736909
 20
1610.650565061914
 30
0.0
 11
28040.913204016892
 21
1659.749496429288
 31
0.0
  0
LINE
  5
FE58
  8
YODOROGO
 10
28041.604341291921
 20
1583.120489948401
 30
0.0
 11
28020.088903736909
 21
1610.650565061914
 31
0.0
  0
LINE
  5
FE59
  8
YODOROGO
 10
28041.604341291921
 20
1563.120489948398
 30
0.0
 11
28041.604341291921
 21
1583.120489948401
 31
0.0
  0
LINE
  5
FE5A
  8
YODOROGO
 10
28017.604341291921
 20
1585.2370637495301
 30
0.0
 11
28041.604341291921
 21
1563.120489948398
 31
0.0
  0
LINE
  5
FE5B
  8
YODOROGO
 10
28017.604341291921
 20
1475.7494964292871
 30
0.0
 11
28017.604341291921
 21
1585.2370637495301
 31
0.0
  0
LINE
  5
FE5C
  8
YODOROGO
 10
28001.604341291921
 20
1475.7494964292871
 30
0.0
 11
28017.604341291921
 21
1475.7494964292871
 31
0.0
  0
LINE
  5
FE5D
  8
YODOROGO
 10
28001.604341291921
 20
1580.0053496897469
 30
0.0
 11
28001.604341291921
 21
1475.7494964292871
 31
0.0
  0
LINE
  5
FE5E
  8
YODOROGO
 10
27977.604341291921
 20
1532.7680790334291
 30
0.0
 11
28001.604341291921
 21
1580.0053496897469
 31
0.0
  0
LINE
  5
FE5F
  8
YODOROGO
 10
27977.604341291921
 20
1556.76807903343
 30
0.0
 11
27977.604341291921
 21
1532.7680790334291
 31
0.0
  0
LINE
  5
FE60
  8
YODOROGO
 10
28025.828774291349
 20
1667.749496429285
 30
0.0
 11
27977.604341291921
 21
1556.76807903343
 31
0.0
  0
LINE
  5
FE61
  8
YODOROGO
 10
27977.604341291921
 20
1667.749496429285
 30
0.0
 11
28025.828774291349
 21
1667.749496429285
 31
0.0
  0
LINE
  5
FE62
  8
YODOROGO
 10
28050.135520230899
 20
1655.5036372746561
 30
0.0
 11
28082.135520230921
 21
1655.5036372746561
 31
0.0
1001
AUTOCAD_POSTSCRIPT_FIGURE
1002
{
1000
PSFILL
1000
Grayscale
1000
Grayscale
1070
   100
1002
}
  0
LINE
  5
FE63
  8
YODOROGO
 10
28050.135520230899
 20
1631.5036372746561
 30
0.0
 11
28050.135520230899
 21
1655.5036372746561
 31
0.0
1001
AUTOCAD_POSTSCRIPT_FIGURE
1002
{
1000
PSFILL
1000
Grayscale
1000
Grayscale
1070
   100
1002
}
  0
LINE
  5
FE64
  8
YODOROGO
 10
28082.135520230921
 20
1631.5036372746561
 30
0.0
 11
28050.135520230899
 21
1631.5036372746561
 31
0.0
1001
AUTOCAD_POSTSCRIPT_FIGURE
1002
{
1000
PSFILL
1000
Grayscale
1000
Grayscale
1070
   100
1002
}
  0
LINE
  5
FE65
  8
YODOROGO
 10
28082.135520230921
 20
1499.749496429288
 30
0.0
 11
28082.135520230921
 21
1631.5036372746561
 31
0.0
1001
AUTOCAD_POSTSCRIPT_FIGURE
1002
{
1000
PSFILL
1000
Grayscale
1000
Grayscale
1070
   100
1002
}
  0
LINE
  5
FE66
  8
YODOROGO
 10
28050.135520230921
 20
1499.749496429288
 30
0.0
 11
28082.135520230921
 21
1499.749496429288
 31
0.0
1001
AUTOCAD_POSTSCRIPT_FIGURE
1002
{
1000
PSFILL
1000
Grayscale
1000
Grayscale
1070
   100
1002
}
  0
LINE
  5
FE67
  8
YODOROGO
 10
28050.135520230921
 20
1475.7494964292871
 30
0.0
 11
28050.135520230921
 21
1499.749496429288
 31
0.0
1001
AUTOCAD_POSTSCRIPT_FIGURE
1002
{
1000
PSFILL
1000
Grayscale
1000
Grayscale
1070
   100
1002
}
  0
LINE
  5
FE68
  8
YODOROGO
 10
28137.604341291921
 20
1475.7494964292871
 30
0.0
 11
28050.135520230921
 21
1475.7494964292871
 31
0.0
1001
AUTOCAD_POSTSCRIPT_FIGURE
1002
{
1000
PSFILL
1000
Grayscale
1000
Grayscale
1070
   100
1002
}
  0
LINE
  5
FE69
  8
YODOROGO
 10
28137.604341291921
 20
1499.749496429288
 30
0.0
 11
28137.604341291921
 21
1475.7494964292871
 31
0.0
1001
AUTOCAD_POSTSCRIPT_FIGURE
1002
{
1000
PSFILL
1000
Grayscale
1000
Grayscale
1070
   100
1002
}
  0
LINE
  5
FE6A
  8
YODOROGO
 10
28098.135520230931
 20
1499.749496429288
 30
0.0
 11
28137.604341291921
 21
1499.749496429288
 31
0.0
1001
AUTOCAD_POSTSCRIPT_FIGURE
1002
{
1000
PSFILL
1000
Grayscale
1000
Grayscale
1070
   100
1002
}
  0
LINE
  5
FE6B
  8
YODOROGO
 10
28098.135520230931
 20
1631.5036372746561
 30
0.0
 11
28098.135520230931
 21
1499.749496429288
 31
0.0
1001
AUTOCAD_POSTSCRIPT_FIGURE
1002
{
1000
PSFILL
1000
Grayscale
1000
Grayscale
1070
   100
1002
}
  0
LINE
  5
FE6C
  8
YODOROGO
 10
28137.604341291921
 20
1631.5036372746561
 30
0.0
 11
28098.135520230931
 21
1631.5036372746561
 31
0.0
1001
AUTOCAD_POSTSCRIPT_FIGURE
1002
{
1000
PSFILL
1000
Grayscale
1000
Grayscale
1070
   100
1002
}
  0
LINE
  5
FE6D
  8
YODOROGO
 10
28137.604341291921
 20
1655.5036372746561
 30
0.0
 11
28137.604341291921
 21
1631.5036372746561
 31
0.0
1001
AUTOCAD_POSTSCRIPT_FIGURE
1002
{
1000
PSFILL
1000
Grayscale
1000
Grayscale
1070
   100
1002
}
  0
LINE
  5
FE6E
  8
YODOROGO
 10
28098.135520230931
 20
1655.5036372746561
 30
0.0
 11
28137.604341291921
 21
1655.5036372746561
 31
0.0
1001
AUTOCAD_POSTSCRIPT_FIGURE
1002
{
1000
PSFILL
1000
Grayscale
1000
Grayscale
1070
   100
1002
}
  0
LINE
  5
FE6F
  8
YODOROGO
 10
28401.60434129191
 20
1667.749496429288
 30
0.0
 11
28345.604341291921
 21
1667.749496429288
 31
0.0
  0
LINE
  5
FE70
  8
YODOROGO
 10
28401.60434129191
 20
1611.749496429288
 30
0.0
 11
28401.60434129191
 21
1667.749496429288
 31
0.0
  0
LINE
  5
FE71
  8
YODOROGO
 10
28345.604341291921
 20
1667.749496429288
 30
0.0
 11
28345.604341291921
 21
1611.749496429288
 31
0.0
  0
ARC
  5
FE72
  8
YODOROGO
 10
28513.60434129191
 20
1507.749496429288
 30
0.0
 40
80.0
 50
180.0
 51
270.0
  0
ARC
  5
FE73
  8
YODOROGO
 10
28537.604341291921
 20
1563.7494964292871
 30
0.0
 40
40.0
 50
180.0
 51
270.0
  0
LINE
  5
FE74
  8
YODOROGO
 10
28561.604341291932
 20
1523.7494964292871
 30
0.0
 11
28537.604341291921
 21
1523.7494964292871
 31
0.0
  0
ARC
  5
FE75
  8
YODOROGO
 10
28561.604341291932
 20
1547.749496429285
 30
0.0
 40
23.999999999996358
 50
270.0
 51
0.0000000000054281
  0
LINE
  5
FE76
  8
YODOROGO
 10
27801.604341291921
 20
1890.786580793706
 30
0.0
 11
27777.604341291921
 21
1843.776747951672
 31
0.0
1001
AUTOCAD_POSTSCRIPT_FIGURE
1002
{
1000
PSFILL
1000
Grayscale
1000
Grayscale
1070
   100
1002
}
  0
LINE
  5
FE77
  8
YODOROGO
 10
27801.604341291921
 20
1747.749496429286
 30
0.0
 11
27801.604341291921
 21
1890.786580793706
 31
0.0
1001
AUTOCAD_POSTSCRIPT_FIGURE
1002
{
1000
PSFILL
1000
Grayscale
1000
Grayscale
1070
   100
1002
}
  0
LINE
  5
FE78
  8
YODOROGO
 10
27817.604341291921
 20
1747.749496429286
 30
0.0
 11
27801.604341291921
 21
1747.749496429286
 31
0.0
1001
AUTOCAD_POSTSCRIPT_FIGURE
1002
{
1000
PSFILL
1000
Grayscale
1000
Grayscale
1070
   100
1002
}
  0
LINE
  5
FE79
  8
YODOROGO
 10
27817.604341291921
 20
1893.7713320852661
 30
0.0
 11
27817.604341291921
 21
1747.749496429286
 31
0.0
1001
AUTOCAD_POSTSCRIPT_FIGURE
1002
{
1000
PSFILL
1000
Grayscale
1000
Grayscale
1070
   100
1002
}
  0
LINE
  5
FE7A
  8
YODOROGO
 10
27841.604341291921
 20
1867.6547582841361
 30
0.0
 11
27817.604341291921
 21
1893.7713320852661
 31
0.0
1001
AUTOCAD_POSTSCRIPT_FIGURE
1002
{
1000
PSFILL
1000
Grayscale
1000
Grayscale
1070
   100
1002
}
  0
LINE
  5
FE7B
  8
YODOROGO
 10
27841.604341291921
 20
1883.6547582841361
 30
0.0
 11
27841.604341291921
 21
1867.6547582841361
 31
0.0
1001
AUTOCAD_POSTSCRIPT_FIGURE
1002
{
1000
PSFILL
1000
Grayscale
1000
Grayscale
1070
   100
1002
}
  0
LINE
  5
FE7C
  8
YODOROGO
 10
27817.604341291921
 20
1917.7713320852649
 30
0.0
 11
27841.604341291921
 21
1883.6547582841361
 31
0.0
1001
AUTOCAD_POSTSCRIPT_FIGURE
1002
{
1000
PSFILL
1000
Grayscale
1000
Grayscale
1070
   100
1002
}
  0
LINE
  5
FE7D
  8
YODOROGO
 10
27817.604341291921
 20
1939.749496429288
 30
0.0
 11
27817.604341291921
 21
1917.7713320852649
 31
0.0
1001
AUTOCAD_POSTSCRIPT_FIGURE
1002
{
1000
PSFILL
1000
Grayscale
1000
Grayscale
1070
   100
1002
}
  0
LINE
  5
FE7E
  8
YODOROGO
 10
27889.604341291921
 20
1939.749496429288
 30
0.0
 11
27817.604341291921
 21
1939.749496429288
 31
0.0
1001
AUTOCAD_POSTSCRIPT_FIGURE
1002
{
1000
PSFILL
1000
Grayscale
1000
Grayscale
1070
   100
1002
}
  0
LINE
  5
FE7F
  8
YODOROGO
 10
27889.604341291921
 20
1900.5683489363
 30
0.0
 11
27889.604341291921
 21
1939.749496429288
 31
0.0
1001
AUTOCAD_POSTSCRIPT_FIGURE
1002
{
1000
PSFILL
1000
Grayscale
1000
Grayscale
1070
   100
1002
}
  0
LINE
  5
FE80
  8
YODOROGO
 10
27857.604341291921
 20
1900.5683489363
 30
0.0
 11
27889.604341291921
 21
1900.5683489363
 31
0.0
1001
AUTOCAD_POSTSCRIPT_FIGURE
1002
{
1000
PSFILL
1000
Grayscale
1000
Grayscale
1070
   100
1002
}
  0
LINE
  5
FE81
  8
YODOROGO
 10
27857.604341291921
 20
1884.568348936298
 30
0.0
 11
27857.604341291921
 21
1900.5683489363
 31
0.0
1001
AUTOCAD_POSTSCRIPT_FIGURE
1002
{
1000
PSFILL
1000
Grayscale
1000
Grayscale
1070
   100
1002
}
  0
LINE
  5
FE82
  8
YODOROGO
 10
27889.604341291921
 20
1884.568348936298
 30
0.0
 11
27857.604341291921
 21
1884.568348936298
 31
0.0
1001
AUTOCAD_POSTSCRIPT_FIGURE
1002
{
1000
PSFILL
1000
Grayscale
1000
Grayscale
1070
   100
1002
}
  0
LINE
  5
FE83
  8
YODOROGO
 10
27889.604341291921
 20
1879.6191779644371
 30
0.0
 11
27889.604341291921
 21
1884.568348936298
 31
0.0
1001
AUTOCAD_POSTSCRIPT_FIGURE
1002
{
1000
PSFILL
1000
Grayscale
1000
Grayscale
1070
   100
1002
}
  0
LINE
  5
FE84
  8
YODOROGO
 10
27849.604341291921
 20
1812.974981161417
 30
0.0
 11
27889.604341291921
 21
1879.6191779644371
 31
0.0
1001
AUTOCAD_POSTSCRIPT_FIGURE
1002
{
1000
PSFILL
1000
Grayscale
1000
Grayscale
1070
   100
1002
}
  0
LINE
  5
FE85
  8
YODOROGO
 10
27849.604341291921
 20
1796.9749811614161
 30
0.0
 11
27849.604341291921
 21
1812.974981161417
 31
0.0
1001
AUTOCAD_POSTSCRIPT_FIGURE
1002
{
1000
PSFILL
1000
Grayscale
1000
Grayscale
1070
   100
1002
}
  0
LINE
  5
FE86
  8
YODOROGO
 10
27889.604341291921
 20
1847.6191779644359
 30
0.0
 11
27849.604341291921
 21
1796.9749811614161
 31
0.0
1001
AUTOCAD_POSTSCRIPT_FIGURE
1002
{
1000
PSFILL
1000
Grayscale
1000
Grayscale
1070
   100
1002
}
  0
LINE
  5
FE87
  8
YODOROGO
 10
27889.604341291921
 20
1747.749496429286
 30
0.0
 11
27889.604341291921
 21
1847.6191779644359
 31
0.0
1001
AUTOCAD_POSTSCRIPT_FIGURE
1002
{
1000
PSFILL
1000
Grayscale
1000
Grayscale
1070
   100
1002
}
  0
LINE
  5
FE88
  8
YODOROGO
 10
27905.604341291921
 20
1747.749496429286
 30
0.0
 11
27889.604341291921
 21
1747.749496429286
 31
0.0
1001
AUTOCAD_POSTSCRIPT_FIGURE
1002
{
1000
PSFILL
1000
Grayscale
1000
Grayscale
1070
   100
1002
}
  0
LINE
  5
FE89
  8
YODOROGO
 10
27905.604341291921
 20
1849.409012158806
 30
0.0
 11
27905.604341291921
 21
1747.749496429286
 31
0.0
1001
AUTOCAD_POSTSCRIPT_FIGURE
1002
{
1000
PSFILL
1000
Grayscale
1000
Grayscale
1070
   100
1002
}
  0
LINE
  5
FE8A
  8
YODOROGO
 10
27937.604341291921
 20
1796.9749811614161
 30
0.0
 11
27905.604341291921
 21
1849.409012158806
 31
0.0
1001
AUTOCAD_POSTSCRIPT_FIGURE
1002
{
1000
PSFILL
1000
Grayscale
1000
Grayscale
1070
   100
1002
}
  0
LINE
  5
FE8B
  8
YODOROGO
 10
27937.604341291921
 20
1812.974981161417
 30
0.0
 11
27937.604341291921
 21
1796.9749811614161
 31
0.0
1001
AUTOCAD_POSTSCRIPT_FIGURE
1002
{
1000
PSFILL
1000
Grayscale
1000
Grayscale
1070
   100
1002
}
  0
LINE
  5
FE8C
  8
YODOROGO
 10
27905.604341291921
 20
1881.4090121588081
 30
0.0
 11
27937.604341291921
 21
1812.974981161417
 31
0.0
1001
AUTOCAD_POSTSCRIPT_FIGURE
1002
{
1000
PSFILL
1000
Grayscale
1000
Grayscale
1070
   100
1002
}
  0
LINE
  5
FE8D
  8
YODOROGO
 10
27905.604341291921
 20
1884.5683489363
 30
0.0
 11
27905.604341291921
 21
1881.4090121588081
 31
0.0
1001
AUTOCAD_POSTSCRIPT_FIGURE
1002
{
1000
PSFILL
1000
Grayscale
1000
Grayscale
1070
   100
1002
}
  0
LINE
  5
FE8E
  8
YODOROGO
 10
27937.604341291921
 20
1884.568348936298
 30
0.0
 11
27905.604341291921
 21
1884.5683489363
 31
0.0
1001
AUTOCAD_POSTSCRIPT_FIGURE
1002
{
1000
PSFILL
1000
Grayscale
1000
Grayscale
1070
   100
1002
}
  0
LINE
  5
FE8F
  8
YODOROGO
 10
27937.604341291921
 20
1900.5683489363
 30
0.0
 11
27937.604341291921
 21
1884.568348936298
 31
0.0
1001
AUTOCAD_POSTSCRIPT_FIGURE
1002
{
1000
PSFILL
1000
Grayscale
1000
Grayscale
1070
   100
1002
}
  0
LINE
  5
FE90
  8
YODOROGO
 10
27905.604341291921
 20
1900.5683489363
 30
0.0
 11
27937.604341291921
 21
1900.5683489363
 31
0.0
1001
AUTOCAD_POSTSCRIPT_FIGURE
1002
{
1000
PSFILL
1000
Grayscale
1000
Grayscale
1070
   100
1002
}
  0
LINE
  5
FE91
  8
YODOROGO
 10
27905.604341291921
 20
1939.749496429288
 30
0.0
 11
27905.604341291921
 21
1900.5683489363
 31
0.0
1001
AUTOCAD_POSTSCRIPT_FIGURE
1002
{
1000
PSFILL
1000
Grayscale
1000
Grayscale
1070
   100
1002
}
  0
LINE
  5
FE92
  8
YODOROGO
 10
27937.604341291921
 20
1939.749496429288
 30
0.0
 11
27905.604341291921
 21
1939.749496429288
 31
0.0
1001
AUTOCAD_POSTSCRIPT_FIGURE
1002
{
1000
PSFILL
1000
Grayscale
1000
Grayscale
1070
   100
1002
}
  0
LINE
  5
FE93
  8
YODOROGO
 10
27937.604341291921
 20
1955.7494964292871
 30
0.0
 11
27937.604341291921
 21
1939.749496429288
 31
0.0
1001
AUTOCAD_POSTSCRIPT_FIGURE
1002
{
1000
PSFILL
1000
Grayscale
1000
Grayscale
1070
   100
1002
}
  0
LINE
  5
FE94
  8
YODOROGO
 10
27905.604341291921
 20
1955.7494964292871
 30
0.0
 11
27937.604341291921
 21
1955.7494964292871
 31
0.0
1001
AUTOCAD_POSTSCRIPT_FIGURE
1002
{
1000
PSFILL
1000
Grayscale
1000
Grayscale
1070
   100
1002
}
  0
LINE
  5
FE95
  8
YODOROGO
 10
27905.604341291921
 20
1979.749496429288
 30
0.0
 11
27905.604341291921
 21
1955.7494964292871
 31
0.0
1001
AUTOCAD_POSTSCRIPT_FIGURE
1002
{
1000
PSFILL
1000
Grayscale
1000
Grayscale
1070
   100
1002
}
  0
LINE
  5
FE96
  8
YODOROGO
 10
27889.604341291921
 20
1979.749496429288
 30
0.0
 11
27905.604341291921
 21
1979.749496429288
 31
0.0
1001
AUTOCAD_POSTSCRIPT_FIGURE
1002
{
1000
PSFILL
1000
Grayscale
1000
Grayscale
1070
   100
1002
}
  0
LINE
  5
FE97
  8
YODOROGO
 10
27889.604341291921
 20
1955.7494964292871
 30
0.0
 11
27889.604341291921
 21
1979.749496429288
 31
0.0
1001
AUTOCAD_POSTSCRIPT_FIGURE
1002
{
1000
PSFILL
1000
Grayscale
1000
Grayscale
1070
   100
1002
}
  0
LINE
  5
FE98
  8
YODOROGO
 10
27865.604341291921
 20
1955.7494964292871
 30
0.0
 11
27889.604341291921
 21
1955.7494964292871
 31
0.0
1001
AUTOCAD_POSTSCRIPT_FIGURE
1002
{
1000
PSFILL
1000
Grayscale
1000
Grayscale
1070
   100
1002
}
  0
LINE
  5
FE99
  8
YODOROGO
 10
27865.604341291921
 20
1979.749496429288
 30
0.0
 11
27865.604341291921
 21
1955.7494964292871
 31
0.0
1001
AUTOCAD_POSTSCRIPT_FIGURE
1002
{
1000
PSFILL
1000
Grayscale
1000
Grayscale
1070
   100
1002
}
  0
LINE
  5
FE9A
  8
YODOROGO
 10
27849.604341291921
 20
1979.749496429288
 30
0.0
 11
27865.604341291921
 21
1979.749496429288
 31
0.0
1001
AUTOCAD_POSTSCRIPT_FIGURE
1002
{
1000
PSFILL
1000
Grayscale
1000
Grayscale
1070
   100
1002
}
  0
LINE
  5
FE9B
  8
YODOROGO
 10
27849.604341291921
 20
1955.7494964292871
 30
0.0
 11
27849.604341291921
 21
1979.749496429288
 31
0.0
1001
AUTOCAD_POSTSCRIPT_FIGURE
1002
{
1000
PSFILL
1000
Grayscale
1000
Grayscale
1070
   100
1002
}
  0
LINE
  5
FE9C
  8
YODOROGO
 10
27817.604341291921
 20
1955.7494964292871
 30
0.0
 11
27849.604341291921
 21
1955.7494964292871
 31
0.0
1001
AUTOCAD_POSTSCRIPT_FIGURE
1002
{
1000
PSFILL
1000
Grayscale
1000
Grayscale
1070
   100
1002
}
  0
LINE
  5
FE9D
  8
YODOROGO
 10
27817.604341291921
 20
1979.749496429288
 30
0.0
 11
27817.604341291921
 21
1955.7494964292871
 31
0.0
1001
AUTOCAD_POSTSCRIPT_FIGURE
1002
{
1000
PSFILL
1000
Grayscale
1000
Grayscale
1070
   100
1002
}
  0
LINE
  5
FE9E
  8
YODOROGO
 10
27801.604341291921
 20
1979.749496429288
 30
0.0
 11
27817.604341291921
 21
1979.749496429288
 31
0.0
1001
AUTOCAD_POSTSCRIPT_FIGURE
1002
{
1000
PSFILL
1000
Grayscale
1000
Grayscale
1070
   100
1002
}
  0
LINE
  5
FE9F
  8
YODOROGO
 10
27801.604341291921
 20
1955.7494964292871
 30
0.0
 11
27801.604341291921
 21
1979.749496429288
 31
0.0
1001
AUTOCAD_POSTSCRIPT_FIGURE
1002
{
1000
PSFILL
1000
Grayscale
1000
Grayscale
1070
   100
1002
}
  0
LINE
  5
FEA0
  8
YODOROGO
 10
27777.604341291921
 20
1955.7494964292871
 30
0.0
 11
27801.604341291921
 21
1955.7494964292871
 31
0.0
1001
AUTOCAD_POSTSCRIPT_FIGURE
1002
{
1000
PSFILL
1000
Grayscale
1000
Grayscale
1070
   100
1002
}
  0
LINE
  5
FEA1
  8
YODOROGO
 10
27777.604341291921
 20
1939.749496429288
 30
0.0
 11
27777.604341291921
 21
1955.7494964292871
 31
0.0
1001
AUTOCAD_POSTSCRIPT_FIGURE
1002
{
1000
PSFILL
1000
Grayscale
1000
Grayscale
1070
   100
1002
}
  0
LINE
  5
FEA2
  8
YODOROGO
 10
27801.604341291921
 20
1939.749496429288
 30
0.0
 11
27777.604341291921
 21
1939.749496429288
 31
0.0
1001
AUTOCAD_POSTSCRIPT_FIGURE
1002
{
1000
PSFILL
1000
Grayscale
1000
Grayscale
1070
   100
1002
}
  0
LINE
  5
FEA3
  8
YODOROGO
 10
27801.604341291921
 20
1914.7865807937051
 30
0.0
 11
27801.604341291921
 21
1939.749496429288
 31
0.0
1001
AUTOCAD_POSTSCRIPT_FIGURE
1002
{
1000
PSFILL
1000
Grayscale
1000
Grayscale
1070
   100
1002
}
  0
LINE
  5
FEA4
  8
YODOROGO
 10
27777.604341291921
 20
1859.776747951671
 30
0.0
 11
27801.604341291921
 21
1914.7865807937051
 31
0.0
1001
AUTOCAD_POSTSCRIPT_FIGURE
1002
{
1000
PSFILL
1000
Grayscale
1000
Grayscale
1070
   100
1002
}
  0
LINE
  5
FEA5
  8
YODOROGO
 10
27777.604341291921
 20
1843.776747951672
 30
0.0
 11
27777.604341291921
 21
1859.776747951671
 31
0.0
1001
AUTOCAD_POSTSCRIPT_FIGURE
1002
{
1000
PSFILL
1000
Grayscale
1000
Grayscale
1070
   100
1002
}
  0
LINE
  5
FEA6
  8
YODOROGO
 10
28257.604341291921
 20
1867.7494964292871
 30
0.0
 11
28401.60434129191
 21
1824.877625640306
 31
0.0
1001
AUTOCAD_POSTSCRIPT_FIGURE
1002
{
1000
PSFILL
1000
Grayscale
1000
Grayscale
1070
   100
1002
}
  0
LINE
  5
FEA7
  8
YODOROGO
 10
28401.60434129191
 20
1752.877625640306
 30
0.0
 11
28257.604341291921
 21
1795.7494964292871
 31
0.0
1001
AUTOCAD_POSTSCRIPT_FIGURE
1002
{
1000
PSFILL
1000
Grayscale
1000
Grayscale
1070
   100
1002
}
  0
LINE
  5
FEA8
  8
YODOROGO
 10
28401.60434129191
 20
1984.877625640306
 30
0.0
 11
28257.604341291921
 21
2027.749496429288
 31
0.0
1001
AUTOCAD_POSTSCRIPT_FIGURE
1002
{
1000
PSFILL
1000
Grayscale
1000
Grayscale
1070
   100
1002
}
  0
LINE
  5
FEA9
  8
YODOROGO
 10
28257.604341291921
 20
1959.749496429288
 30
0.0
 11
28401.60434129191
 21
1916.8776256403071
 31
0.0
1001
AUTOCAD_POSTSCRIPT_FIGURE
1002
{
1000
PSFILL
1000
Grayscale
1000
Grayscale
1070
   100
1002
}
  0
LINE
  5
FEAA
  8
YODOROGO
 10
28257.604341291921
 20
1795.7494964292871
 30
0.0
 11
28257.604341291921
 21
1867.7494964292871
 31
0.0
1001
AUTOCAD_POSTSCRIPT_FIGURE
1002
{
1000
PSFILL
1000
Grayscale
1000
Grayscale
1070
   100
1002
}
  0
LINE
  5
FEAB
  8
YODOROGO
 10
28257.604341291921
 20
2027.749496429288
 30
0.0
 11
28257.604341291921
 21
1959.749496429288
 31
0.0
1001
AUTOCAD_POSTSCRIPT_FIGURE
1002
{
1000
PSFILL
1000
Grayscale
1000
Grayscale
1070
   100
1002
}
  0
LINE
  5
FEAC
  8
YODOROGO
 10
28080.236320206739
 20
1939.749496429288
 30
0.0
 11
28129.60434129191
 21
1747.749496429286
 31
0.0
1001
AUTOCAD_POSTSCRIPT_FIGURE
1002
{
1000
PSFILL
1000
Grayscale
1000
Grayscale
1070
   100
1002
}
  0
LINE
  5
FEAD
  8
YODOROGO
 10
27977.604341291921
 20
1939.749496429288
 30
0.0
 11
28080.236320206739
 21
1939.749496429288
 31
0.0
1001
AUTOCAD_POSTSCRIPT_FIGURE
1002
{
1000
PSFILL
1000
Grayscale
1000
Grayscale
1070
   100
1002
}
  0
LINE
  5
FEAE
  8
YODOROGO
 10
27977.604341291921
 20
1955.7494964292871
 30
0.0
 11
27977.604341291921
 21
1939.749496429288
 31
0.0
1001
AUTOCAD_POSTSCRIPT_FIGURE
1002
{
1000
PSFILL
1000
Grayscale
1000
Grayscale
1070
   100
1002
}
  0
LINE
  5
FEAF
  8
YODOROGO
 10
28076.60687851991
 20
1955.7494964292871
 30
0.0
 11
27977.604341291921
 21
1955.7494964292871
 31
0.0
1001
AUTOCAD_POSTSCRIPT_FIGURE
1002
{
1000
PSFILL
1000
Grayscale
1000
Grayscale
1070
   100
1002
}
  0
LINE
  5
FEB0
  8
YODOROGO
 10
28071.162715989711
 20
1979.749496429288
 30
0.0
 11
28076.60687851991
 21
1955.7494964292871
 31
0.0
1001
AUTOCAD_POSTSCRIPT_FIGURE
1002
{
1000
PSFILL
1000
Grayscale
1000
Grayscale
1070
   100
1002
}
  0
LINE
  5
FEB1
  8
YODOROGO
 10
28091.162715989711
 20
1979.749496429288
 30
0.0
 11
28071.162715989711
 21
1979.749496429288
 31
0.0
1001
AUTOCAD_POSTSCRIPT_FIGURE
1002
{
1000
PSFILL
1000
Grayscale
1000
Grayscale
1070
   100
1002
}
  0
LINE
  5
FEB2
  8
YODOROGO
 10
28095.806878519939
 20
1955.7494964292871
 30
0.0
 11
28091.162715989711
 21
1979.749496429288
 31
0.0
1001
AUTOCAD_POSTSCRIPT_FIGURE
1002
{
1000
PSFILL
1000
Grayscale
1000
Grayscale
1070
   100
1002
}
  0
LINE
  5
FEB3
  8
YODOROGO
 10
28121.604341291921
 20
1955.7494964292871
 30
0.0
 11
28095.806878519939
 21
1955.7494964292871
 31
0.0
1001
AUTOCAD_POSTSCRIPT_FIGURE
1002
{
1000
PSFILL
1000
Grayscale
1000
Grayscale
1070
   100
1002
}
  0
LINE
  5
FEB4
  8
YODOROGO
 10
28121.604341291921
 20
1979.749496429288
 30
0.0
 11
28121.604341291921
 21
1955.7494964292871
 31
0.0
1001
AUTOCAD_POSTSCRIPT_FIGURE
1002
{
1000
PSFILL
1000
Grayscale
1000
Grayscale
1070
   100
1002
}
  0
LINE
  5
FEB5
  8
YODOROGO
 10
28137.604341291921
 20
1979.749496429288
 30
0.0
 11
28121.604341291921
 21
1979.749496429288
 31
0.0
1001
AUTOCAD_POSTSCRIPT_FIGURE
1002
{
1000
PSFILL
1000
Grayscale
1000
Grayscale
1070
   100
1002
}
  0
LINE
  5
FEB6
  8
YODOROGO
 10
28137.604341291921
 20
1955.7494964292871
 30
0.0
 11
28137.604341291921
 21
1979.749496429288
 31
0.0
1001
AUTOCAD_POSTSCRIPT_FIGURE
1002
{
1000
PSFILL
1000
Grayscale
1000
Grayscale
1070
   100
1002
}
  0
LINE
  5
FEB7
  8
YODOROGO
 10
28137.604341291921
 20
1939.749496429288
 30
0.0
 11
28137.604341291921
 21
1955.7494964292871
 31
0.0
1001
AUTOCAD_POSTSCRIPT_FIGURE
1002
{
1000
PSFILL
1000
Grayscale
1000
Grayscale
1070
   100
1002
}
  0
LINE
  5
FEB8
  8
YODOROGO
 10
28098.902986873411
 20
1939.749496429288
 30
0.0
 11
28137.604341291921
 21
1939.749496429288
 31
0.0
1001
AUTOCAD_POSTSCRIPT_FIGURE
1002
{
1000
PSFILL
1000
Grayscale
1000
Grayscale
1070
   100
1002
}
  0
LINE
  5
FEB9
  8
YODOROGO
 10
28137.604341291921
 20
1747.749496429286
 30
0.0
 11
28098.902986873411
 21
1939.749496429288
 31
0.0
1001
AUTOCAD_POSTSCRIPT_FIGURE
1002
{
1000
PSFILL
1000
Grayscale
1000
Grayscale
1070
   100
1002
}
  0
LINE
  5
FEBA
  8
YODOROGO
 10
28129.60434129191
 20
1747.749496429286
 30
0.0
 11
28137.604341291921
 21
1747.749496429286
 31
0.0
1001
AUTOCAD_POSTSCRIPT_FIGURE
1002
{
1000
PSFILL
1000
Grayscale
1000
Grayscale
1070
   100
1002
}
  0
LINE
  5
FEBB
  8
YODOROGO
 10
28078.06921993379
 20
1775.7407762987939
 30
0.0
 11
27977.604341291921
 21
1747.749496429286
 31
0.0
  0
LINE
  5
FEBC
  8
YODOROGO
 10
28078.06921993379
 20
1798.6689795290731
 30
0.0
 11
28078.06921993379
 21
1775.7407762987939
 31
0.0
  0
LINE
  5
FEBD
  8
YODOROGO
 10
28033.83678061287
 20
1786.816933133767
 30
0.0
 11
28078.06921993379
 21
1798.6689795290731
 31
0.0
  0
LINE
  5
FEBE
  8
YODOROGO
 10
28033.83678061287
 20
1872.5683489362989
 30
0.0
 11
28033.83678061287
 21
1786.816933133767
 31
0.0
  0
LINE
  5
FEBF
  8
YODOROGO
 10
28078.06921993379
 20
1872.5683489362989
 30
0.0
 11
28033.83678061287
 21
1872.5683489362989
 31
0.0
  0
LINE
  5
FEC0
  8
YODOROGO
 10
28078.06921993379
 20
1892.568348936298
 30
0.0
 11
28078.06921993379
 21
1872.5683489362989
 31
0.0
  0
LINE
  5
FEC1
  8
YODOROGO
 10
27977.604341291921
 20
1892.568348936298
 30
0.0
 11
28078.06921993379
 21
1892.568348936298
 31
0.0
  0
LINE
  5
FEC2
  8
YODOROGO
 10
27977.604341291921
 20
1872.5683489362989
 30
0.0
 11
27977.604341291921
 21
1892.568348936298
 31
0.0
  0
LINE
  5
FEC3
  8
YODOROGO
 10
28021.836780612852
 20
1872.5683489362989
 30
0.0
 11
27977.604341291921
 21
1872.5683489362989
 31
0.0
  0
LINE
  5
FEC4
  8
YODOROGO
 10
28021.836780612852
 20
1784.673339594317
 30
0.0
 11
28021.836780612852
 21
1872.5683489362989
 31
0.0
  0
LINE
  5
FEC5
  8
YODOROGO
 10
27977.604341291921
 20
1771.749496429286
 30
0.0
 11
28021.836780612852
 21
1784.673339594317
 31
0.0
  0
LINE
  5
FEC6
  8
YODOROGO
 10
27977.604341291921
 20
1747.749496429286
 30
0.0
 11
27977.604341291921
 21
1771.749496429286
 31
0.0
  0
LINE
  5
FEC7
  8
YODOROGO
 10
28001.604341291921
 20
1707.749496429288
 30
0.0
 11
28001.604341291921
 21
1683.7494964292871
 31
0.0
  0
LINE
  5
FEC8
  8
YODOROGO
 10
28017.604341291921
 20
1707.749496429288
 30
0.0
 11
28001.604341291921
 21
1707.749496429288
 31
0.0
  0
LINE
  5
FEC9
  8
YODOROGO
 10
28017.604341291921
 20
1683.7494964292871
 30
0.0
 11
28017.604341291921
 21
1707.749496429288
 31
0.0
  0
LINE
  5
FECA
  8
YODOROGO
 10
28040.913204016892
 20
1683.7494964292871
 30
0.0
 11
28017.604341291921
 21
1683.7494964292871
 31
0.0
  0
LINE
  5
FECB
  8
YODOROGO
 10
28001.604341291921
 20
1683.7494964292871
 30
0.0
 11
27977.604341291921
 21
1683.7494964292871
 31
0.0
  0
LINE
  5
FECC
  8
YODOROGO
 10
28082.135520230921
 20
1707.749496429288
 30
0.0
 11
28098.135520230931
 21
1707.749496429288
 31
0.0
1001
AUTOCAD_POSTSCRIPT_FIGURE
1002
{
1000
PSFILL
1000
Grayscale
1000
Grayscale
1070
   100
1002
}
  0
LINE
  5
FECD
  8
YODOROGO
 10
28401.60434129191
 20
1824.877625640306
 30
0.0
 11
28401.60434129191
 21
1752.877625640306
 31
0.0
1001
AUTOCAD_POSTSCRIPT_FIGURE
1002
{
1000
PSFILL
1000
Grayscale
1000
Grayscale
1070
   100
1002
}
  0
LINE
  5
FECE
  8
YODOROGO
 10
28401.60434129191
 20
1916.8776256403071
 30
0.0
 11
28401.60434129191
 21
1984.877625640306
 31
0.0
1001
AUTOCAD_POSTSCRIPT_FIGURE
1002
{
1000
PSFILL
1000
Grayscale
1000
Grayscale
1070
   100
1002
}
  0
LINE
  5
FECF
  8
YODOROGO
 10
28433.60434129191
 20
1819.7494964292871
 30
0.0
 11
28433.60434129191
 21
1747.74949642929
 31
0.0
  0
LINE
  5
FED0
  8
YODOROGO
 10
28497.60434129191
 20
1707.749496429288
 30
0.0
 11
28433.60434129191
 21
1707.749496429288
 31
0.0
  0
LINE
  5
FED1
  8
YODOROGO
 10
28433.60434129191
 20
1747.74949642929
 30
0.0
 11
28585.604341291921
 21
1747.74949642929
 31
0.0
  0
LINE
  5
FED2
  8
YODOROGO
 10
28497.60434129191
 20
1867.7494964292871
 30
0.0
 11
28433.60434129191
 21
1867.7494964292871
 31
0.0
  0
LINE
  5
FED3
  8
YODOROGO
 10
28497.60434129191
 20
1923.7494964292871
 30
0.0
 11
28497.60434129191
 21
1867.7494964292871
 31
0.0
  0
LINE
  5
FED4
  8
YODOROGO
 10
28585.604341291921
 20
1987.7494964292871
 30
0.0
 11
28585.604341291921
 21
2027.749496429288
 31
0.0
  0
LINE
  5
FED5
  8
YODOROGO
 10
28433.60434129191
 20
1987.7494964292871
 30
0.0
 11
28585.604341291921
 21
1987.7494964292871
 31
0.0
  0
LINE
  5
FED6
  8
YODOROGO
 10
28433.60434129191
 20
1867.7494964292871
 30
0.0
 11
28433.60434129191
 21
1987.7494964292871
 31
0.0
  0
LINE
  5
FED7
  8
YODOROGO
 10
29001.60434129191
 20
2027.749496429288
 30
0.0
 11
29001.60434129191
 21
1619.749496429288
 31
0.0
  0
LINE
  5
FED8
  8
YODOROGO
 10
29073.604341291921
 20
1579.749496429288
 30
0.0
 11
29073.604341291921
 21
2027.749496429288
 31
0.0
  0
LINE
  5
FED9
  8
YODOROGO
 10
29261.604341291921
 20
1491.749496429286
 30
0.0
 11
29261.604341291921
 21
2007.749496429288
 31
0.0
  0
LINE
  5
FEDA
  8
YODOROGO
 10
29197.604341291921
 20
2007.749496429288
 30
0.0
 11
29197.604341291921
 21
1491.749496429286
 31
0.0
  0
LINE
  5
FEDB
  8
YODOROGO
 10
29385.604341291921
 20
2027.749496429288
 30
0.0
 11
29385.604341291921
 21
1427.749496429288
 31
0.0
  0
LINE
  5
FEDC
  8
YODOROGO
 10
29457.604341291921
 20
1427.749496429288
 30
0.0
 11
29457.604341291921
 21
2027.749496429288
 31
0.0
  0
LINE
  5
FEDD
  8
YODOROGO
 10
28657.604341291921
 20
1667.749496429288
 30
0.0
 11
28657.604341291921
 21
1747.74949642929
 31
0.0
  0
LINE
  5
FEDE
  8
YODOROGO
 10
29885.604341291921
 20
1707.749496429288
 30
0.0
 11
29885.604341291921
 21
1667.749496429288
 31
0.0
  0
LINE
  5
FEDF
  8
YODOROGO
 10
29885.604341291921
 20
1707.749496429288
 30
0.0
 11
29885.604341291921
 21
1667.749496429288
 31
0.0
  0
ARC
  5
FEE0
  8
YODOROGO
 10
28906.911576186842
 20
1618.217864442272
 30
0.0
 40
94.705151178741644
 50
274.05244162907098
 51
0.9266642149310712
  0
ARC
  5
FEE1
  8
YODOROGO
 10
28909.186170719819
 20
1592.61072861044
 30
0.0
 40
164.92042356085511
 50
271.5351210653775
 51
355.52727750585052
  0
LINE
  5
FEE2
  8
YODOROGO
 10
28913.604341291921
 20
1523.7494964292871
 30
0.0
 11
28913.604341291921
 21
1427.749496429288
 31
0.0
  0
LINE
  5
FEE3
  8
YODOROGO
 10
28793.60434129191
 20
1667.749496429288
 30
0.0
 11
28657.604341291921
 21
1667.749496429288
 31
0.0
  0
LINE
  5
FEE4
  8
YODOROGO
 10
28793.60434129191
 20
1603.7494964292871
 30
0.0
 11
28793.60434129191
 21
1667.749496429288
 31
0.0
  0
LINE
  5
FEE5
  8
YODOROGO
 10
28657.604341291921
 20
1603.7494964292871
 30
0.0
 11
28793.60434129191
 21
1603.7494964292871
 31
0.0
  0
LINE
  5
FEE6
  8
YODOROGO
 10
28657.604341291921
 20
1523.7494964292871
 30
0.0
 11
28657.604341291921
 21
1603.7494964292871
 31
0.0
  0
LINE
  5
FEE7
  8
YODOROGO
 10
28793.60434129191
 20
1523.7494964292871
 30
0.0
 11
28657.604341291921
 21
1523.7494964292871
 31
0.0
  0
LINE
  5
FEE8
  8
YODOROGO
 10
28793.60434129191
 20
1427.749496429288
 30
0.0
 11
28793.60434129191
 21
1523.7494964292871
 31
0.0
  0
LINE
  5
FEE9
  8
YODOROGO
 10
29197.604341291921
 20
1491.749496429286
 30
0.0
 11
29261.604341291921
 21
1491.749496429286
 31
0.0
  0
LINE
  5
FEEA
  8
YODOROGO
 10
29385.604341291921
 20
1427.749496429288
 30
0.0
 11
29457.604341291921
 21
1427.749496429288
 31
0.0
  0
LINE
  5
FEEB
  8
YODOROGO
 10
29737.604341291921
 20
1528.4414521705639
 30
0.0
 11
29737.604341291921
 21
1427.749496429288
 31
0.0
  0
LINE
  5
FEEC
  8
YODOROGO
 10
29617.604341291921
 20
1427.749496429288
 30
0.0
 11
29737.604341291921
 21
1528.4414521705639
 31
0.0
  0
LINE
  5
FEED
  8
YODOROGO
 10
29617.604341291921
 20
1547.749496429288
 30
0.0
 11
29617.604341291921
 21
1427.749496429288
 31
0.0
  0
LINE
  5
FEEE
  8
YODOROGO
 10
29712.94462869945
 20
1627.749496429288
 30
0.0
 11
29617.604341291921
 21
1547.749496429288
 31
0.0
  0
LINE
  5
FEEF
  8
YODOROGO
 10
29617.604341291921
 20
1627.749496429288
 30
0.0
 11
29712.94462869945
 21
1627.749496429288
 31
0.0
  0
LINE
  5
FEF0
  8
YODOROGO
 10
29617.604341291921
 20
1667.749496429288
 30
0.0
 11
29617.604341291921
 21
1627.749496429288
 31
0.0
  0
LINE
  5
FEF1
  8
YODOROGO
 10
29885.604341291921
 20
1667.749496429288
 30
0.0
 11
29617.604341291921
 21
1667.749496429288
 31
0.0
  0
LINE
  5
FEF2
  8
YODOROGO
 10
29917.604341291921
 20
1627.749496429288
 30
0.0
 11
29777.604341291921
 21
1627.749496429288
 31
0.0
  0
LINE
  5
FEF3
  8
YODOROGO
 10
29777.604341291921
 20
1562.0054374176559
 30
0.0
 11
29771.409872985321
 21
1556.807661346234
 31
0.0
  0
LINE
  5
FEF4
  8
YODOROGO
 10
29777.604341291921
 20
1627.749496429288
 30
0.0
 11
29777.604341291921
 21
1562.0054374176559
 31
0.0
  0
LINE
  5
FEF5
  8
YODOROGO
 10
29737.604341291921
 20
1528.4414521705639
 30
0.0
 11
29737.604341291921
 21
1427.749496429288
 31
0.0
  0
LINE
  5
FEF6
  8
YODOROGO
 10
29617.604341291921
 20
1427.749496429288
 30
0.0
 11
29737.604341291921
 21
1528.4414521705639
 31
0.0
  0
LINE
  5
FEF7
  8
YODOROGO
 10
29617.604341291921
 20
1547.749496429288
 30
0.0
 11
29617.604341291921
 21
1427.749496429288
 31
0.0
  0
LINE
  5
FEF8
  8
YODOROGO
 10
29712.94462869945
 20
1627.749496429288
 30
0.0
 11
29617.604341291921
 21
1547.749496429288
 31
0.0
  0
LINE
  5
FEF9
  8
YODOROGO
 10
29617.604341291921
 20
1627.749496429288
 30
0.0
 11
29712.94462869945
 21
1627.749496429288
 31
0.0
  0
LINE
  5
FEFA
  8
YODOROGO
 10
29617.604341291921
 20
1667.749496429288
 30
0.0
 11
29617.604341291921
 21
1627.749496429288
 31
0.0
  0
LINE
  5
FEFB
  8
YODOROGO
 10
29885.604341291921
 20
1667.749496429288
 30
0.0
 11
29617.604341291921
 21
1667.749496429288
 31
0.0
  0
LINE
  5
FEFC
  8
YODOROGO
 10
28793.60434129191
 20
1747.74949642929
 30
0.0
 11
28793.60434129191
 21
1819.7494964292871
 31
0.0
  0
LINE
  5
FEFD
  8
YODOROGO
 10
28657.604341291921
 20
1747.74949642929
 30
0.0
 11
28793.60434129191
 21
1747.74949642929
 31
0.0
  0
LINE
  5
FEFE
  8
YODOROGO
 10
28729.604341291921
 20
1867.7494964292871
 30
0.0
 11
28729.604341291921
 21
1923.7494964292871
 31
0.0
  0
LINE
  5
FEFF
  8
YODOROGO
 10
28793.60434129191
 20
1867.7494964292871
 30
0.0
 11
28729.604341291921
 21
1867.7494964292871
 31
0.0
  0
LINE
  5
FF00
  8
YODOROGO
 10
28793.60434129191
 20
1947.749496429288
 30
0.0
 11
28793.60434129191
 21
1867.7494964292871
 31
0.0
  0
ARC
  5
FF01
  8
YODOROGO
 10
28753.60434129191
 20
1947.749496429288
 30
0.0
 40
40.0
 50
0.0
 51
90.0
  0
LINE
  5
FF02
  8
YODOROGO
 10
28657.604341291921
 20
1987.7494964292871
 30
0.0
 11
28753.60434129191
 21
1987.7494964292871
 31
0.0
  0
LINE
  5
FF03
  8
YODOROGO
 10
28657.604341291921
 20
2027.749496429288
 30
0.0
 11
28657.604341291921
 21
1987.7494964292871
 31
0.0
  0
LINE
  5
FF04
  8
YODOROGO
 10
29073.604341291921
 20
2027.749496429288
 30
0.0
 11
29001.60434129191
 21
2027.749496429288
 31
0.0
  0
LINE
  5
FF05
  8
YODOROGO
 10
29261.604341291921
 20
2007.749496429288
 30
0.0
 11
29197.604341291921
 21
2007.749496429288
 31
0.0
  0
LINE
  5
FF06
  8
YODOROGO
 10
29457.604341291921
 20
2027.749496429288
 30
0.0
 11
29385.604341291921
 21
2027.749496429288
 31
0.0
  0
LINE
  5
FF07
  8
YODOROGO
 10
29673.604341291921
 20
1707.749496429288
 30
0.0
 11
29673.604341291921
 21
1771.7494964292871
 31
0.0
1001
AUTOCAD_POSTSCRIPT_FIGURE
1002
{
1000
PSFILL
1000
Grayscale
1000
Grayscale
1070
    25
1002
}
  0
LINE
  5
FF08
  8
YODOROGO
 10
29617.604341291921
 20
1707.749496429288
 30
0.0
 11
29673.604341291921
 21
1707.749496429288
 31
0.0
1001
AUTOCAD_POSTSCRIPT_FIGURE
1002
{
1000
PSFILL
1000
Grayscale
1000
Grayscale
1070
    25
1002
}
  0
LINE
  5
FF09
  8
YODOROGO
 10
29617.604341291921
 20
1819.7494964292871
 30
0.0
 11
29617.604341291921
 21
1707.749496429288
 31
0.0
1001
AUTOCAD_POSTSCRIPT_FIGURE
1002
{
1000
PSFILL
1000
Grayscale
1000
Grayscale
1070
    25
1002
}
  0
LINE
  5
FF0A
  8
YODOROGO
 10
29765.604341291921
 20
1819.7494964292871
 30
0.0
 11
29617.604341291921
 21
1819.7494964292871
 31
0.0
1001
AUTOCAD_POSTSCRIPT_FIGURE
1002
{
1000
PSFILL
1000
Grayscale
1000
Grayscale
1070
    25
1002
}
  0
LINE
  5
FF0B
  8
YODOROGO
 10
29765.604341291921
 20
1859.749496429288
 30
0.0
 11
29765.604341291921
 21
1819.7494964292871
 31
0.0
1001
AUTOCAD_POSTSCRIPT_FIGURE
1002
{
1000
PSFILL
1000
Grayscale
1000
Grayscale
1070
    25
1002
}
  0
LINE
  5
FF0C
  8
YODOROGO
 10
29617.604341291921
 20
1859.749496429288
 30
0.0
 11
29765.604341291921
 21
1859.749496429288
 31
0.0
1001
AUTOCAD_POSTSCRIPT_FIGURE
1002
{
1000
PSFILL
1000
Grayscale
1000
Grayscale
1070
    25
1002
}
  0
LINE
  5
FF0D
  8
YODOROGO
 10
29617.604341291921
 20
1907.7494964292871
 30
0.0
 11
29617.604341291921
 21
1859.749496429288
 31
0.0
1001
AUTOCAD_POSTSCRIPT_FIGURE
1002
{
1000
PSFILL
1000
Grayscale
1000
Grayscale
1070
    25
1002
}
  0
LINE
  5
FF0E
  8
YODOROGO
 10
29765.604341291921
 20
1907.7494964292871
 30
0.0
 11
29617.604341291921
 21
1907.7494964292871
 31
0.0
1001
AUTOCAD_POSTSCRIPT_FIGURE
1002
{
1000
PSFILL
1000
Grayscale
1000
Grayscale
1070
    25
1002
}
  0
LINE
  5
FF0F
  8
YODOROGO
 10
29765.604341291921
 20
1947.749496429288
 30
0.0
 11
29765.604341291921
 21
1907.7494964292871
 31
0.0
1001
AUTOCAD_POSTSCRIPT_FIGURE
1002
{
1000
PSFILL
1000
Grayscale
1000
Grayscale
1070
    25
1002
}
  0
LINE
  5
FF10
  8
YODOROGO
 10
29617.604341291921
 20
1947.749496429288
 30
0.0
 11
29765.604341291921
 21
1947.749496429288
 31
0.0
1001
AUTOCAD_POSTSCRIPT_FIGURE
1002
{
1000
PSFILL
1000
Grayscale
1000
Grayscale
1070
    25
1002
}
  0
LINE
  5
FF11
  8
YODOROGO
 10
29617.604341291921
 20
2027.749496429288
 30
0.0
 11
29617.604341291921
 21
1947.749496429288
 31
0.0
1001
AUTOCAD_POSTSCRIPT_FIGURE
1002
{
1000
PSFILL
1000
Grayscale
1000
Grayscale
1070
    25
1002
}
  0
LINE
  5
FF12
  8
YODOROGO
 10
29665.604341291921
 20
2027.749496429288
 30
0.0
 11
29617.604341291921
 21
2027.749496429288
 31
0.0
1001
AUTOCAD_POSTSCRIPT_FIGURE
1002
{
1000
PSFILL
1000
Grayscale
1000
Grayscale
1070
    25
1002
}
  0
LINE
  5
FF13
  8
YODOROGO
 10
29665.604341291921
 20
1995.7494964292871
 30
0.0
 11
29665.604341291921
 21
2027.749496429288
 31
0.0
1001
AUTOCAD_POSTSCRIPT_FIGURE
1002
{
1000
PSFILL
1000
Grayscale
1000
Grayscale
1070
    25
1002
}
  0
LINE
  5
FF14
  8
YODOROGO
 10
29765.604341291921
 20
1995.7494964292871
 30
0.0
 11
29665.604341291921
 21
1995.7494964292871
 31
0.0
1001
AUTOCAD_POSTSCRIPT_FIGURE
1002
{
1000
PSFILL
1000
Grayscale
1000
Grayscale
1070
    25
1002
}
  0
LINE
  5
FF15
  8
YODOROGO
 10
29765.604341291921
 20
2027.749496429288
 30
0.0
 11
29765.604341291921
 21
1995.7494964292871
 31
0.0
1001
AUTOCAD_POSTSCRIPT_FIGURE
1002
{
1000
PSFILL
1000
Grayscale
1000
Grayscale
1070
    25
1002
}
  0
LINE
  5
FF16
  8
YODOROGO
 10
29829.604341291921
 20
2027.749496429288
 30
0.0
 11
29765.604341291921
 21
2027.749496429288
 31
0.0
1001
AUTOCAD_POSTSCRIPT_FIGURE
1002
{
1000
PSFILL
1000
Grayscale
1000
Grayscale
1070
    25
1002
}
  0
LINE
  5
FF17
  8
YODOROGO
 10
29829.604341291921
 20
1995.7494964292871
 30
0.0
 11
29829.604341291921
 21
2027.749496429288
 31
0.0
1001
AUTOCAD_POSTSCRIPT_FIGURE
1002
{
1000
PSFILL
1000
Grayscale
1000
Grayscale
1070
    25
1002
}
  0
LINE
  5
FF18
  8
YODOROGO
 10
29829.604341291921
 20
1907.7494964292871
 30
0.0
 11
29829.604341291921
 21
1947.749496429288
 31
0.0
1001
AUTOCAD_POSTSCRIPT_FIGURE
1002
{
1000
PSFILL
1000
Grayscale
1000
Grayscale
1070
    25
1002
}
  0
LINE
  5
FF19
  8
YODOROGO
 10
29829.604341291921
 20
1819.7494964292871
 30
0.0
 11
29829.604341291921
 21
1859.749496429288
 31
0.0
1001
AUTOCAD_POSTSCRIPT_FIGURE
1002
{
1000
PSFILL
1000
Grayscale
1000
Grayscale
1070
    25
1002
}
  0
LINE
  5
FF1A
  8
YODOROGO
 10
29921.60434129191
 20
1771.7494964292871
 30
0.0
 11
29921.60434129191
 21
1707.749496429288
 31
0.0
1001
AUTOCAD_POSTSCRIPT_FIGURE
1002
{
1000
PSFILL
1000
Grayscale
1000
Grayscale
1070
    25
1002
}
  0
LINE
  5
FF1B
  8
YODOROGO
 10
29829.604341291921
 20
1771.7494964292871
 30
0.0
 11
29921.60434129191
 21
1771.7494964292871
 31
0.0
1001
AUTOCAD_POSTSCRIPT_FIGURE
1002
{
1000
PSFILL
1000
Grayscale
1000
Grayscale
1070
    25
1002
}
  0
LINE
  5
FF1C
  8
YODOROGO
 10
29829.604341291921
 20
1707.749496429288
 30
0.0
 11
29829.604341291921
 21
1771.7494964292871
 31
0.0
1001
AUTOCAD_POSTSCRIPT_FIGURE
1002
{
1000
PSFILL
1000
Grayscale
1000
Grayscale
1070
    25
1002
}
  0
LINE
  5
FF1D
  8
YODOROGO
 10
29765.604341291921
 20
1707.749496429288
 30
0.0
 11
29829.604341291921
 21
1707.749496429288
 31
0.0
1001
AUTOCAD_POSTSCRIPT_FIGURE
1002
{
1000
PSFILL
1000
Grayscale
1000
Grayscale
1070
    25
1002
}
  0
LINE
  5
FF1E
  8
YODOROGO
 10
29765.604341291921
 20
1771.7494964292871
 30
0.0
 11
29765.604341291921
 21
1707.749496429288
 31
0.0
1001
AUTOCAD_POSTSCRIPT_FIGURE
1002
{
1000
PSFILL
1000
Grayscale
1000
Grayscale
1070
    25
1002
}
  0
LINE
  5
FF1F
  8
YODOROGO
 10
29673.604341291921
 20
1771.7494964292871
 30
0.0
 11
29765.604341291921
 21
1771.7494964292871
 31
0.0
1001
AUTOCAD_POSTSCRIPT_FIGURE
1002
{
1000
PSFILL
1000
Grayscale
1000
Grayscale
1070
    25
1002
}
  0
ARC
  5
FF20
  8
YODOROGO
 10
31059.517893357912
 20
1602.6807375155761
 30
0.0
 40
178.22128111072141
 50
281.02627495425338
 51
357.77113575573799
  0
LINE
  5
FF21
  8
YODOROGO
 10
31413.604341291921
 20
1907.7494964292871
 30
0.0
 11
31165.604341291921
 21
1907.7494964292871
 31
0.0
  0
LINE
  5
FF22
  8
YODOROGO
 10
31413.604341291921
 20
2027.749496429288
 30
0.0
 11
31165.604341291921
 21
2027.749496429288
 31
0.0
  0
LINE
  5
FF23
  8
YODOROGO
 10
31165.604341291921
 20
1963.749496429286
 30
0.0
 11
31413.604341291921
 21
1963.749496429286
 31
0.0
  0
LINE
  5
FF24
  8
YODOROGO
 10
30791.604341291921
 20
1563.7494964292871
 30
0.0
 11
30791.604341291921
 21
1755.7494964292871
 31
0.0
  0
LINE
  5
FF25
  8
YODOROGO
 10
30763.604341291921
 20
1691.749496429288
 30
0.0
 11
30763.604341291921
 21
1563.7494964292871
 31
0.0
  0
LINE
  5
FF26
  8
YODOROGO
 10
30723.604341291921
 20
1491.749496429288
 30
0.0
 11
30723.604341291921
 21
1691.749496429288
 31
0.0
  0
LINE
  5
FF27
  8
YODOROGO
 10
30899.604341291932
 20
1691.749496429288
 30
0.0
 11
30899.604341291932
 21
1491.749496429288
 31
0.0
  0
LINE
  5
FF28
  8
YODOROGO
 10
30859.604341291932
 20
1563.7494964292871
 30
0.0
 11
30859.604341291932
 21
1691.749496429288
 31
0.0
  0
LINE
  5
FF29
  8
YODOROGO
 10
30831.604341291921
 20
1755.7494964292871
 30
0.0
 11
30831.604341291921
 21
1563.7494964292871
 31
0.0
  0
LINE
  5
FF2A
  8
YODOROGO
 10
30973.604341291921
 20
2027.749496429288
 30
0.0
 11
30973.604341291921
 21
1467.749496429288
 31
0.0
  0
LINE
  5
FF2B
  8
YODOROGO
 10
30645.604341291921
 20
1427.749496429288
 30
0.0
 11
30645.604341291921
 21
2027.749496429288
 31
0.0
  0
LINE
  5
FF2C
  8
YODOROGO
 10
30697.604341291932
 20
1963.749496429286
 30
0.0
 11
30697.604341291932
 21
1427.749496429288
 31
0.0
  0
LINE
  5
FF2D
  8
YODOROGO
 10
30925.604341291921
 20
1547.749496429288
 30
0.0
 11
30925.604341291921
 21
1963.749496429286
 31
0.0
  0
LINE
  5
FF2E
  8
YODOROGO
 10
30381.604341291932
 20
1627.749496429288
 30
0.0
 11
30381.604341291932
 21
1679.749496429288
 31
0.0
  0
LINE
  5
FF2F
  8
YODOROGO
 10
30617.604341291921
 20
1679.749496429288
 30
0.0
 11
30617.604341291921
 21
1627.749496429288
 31
0.0
  0
LINE
  5
FF30
  8
YODOROGO
 10
31165.604341291921
 20
1907.7494964292871
 30
0.0
 11
31165.604341291921
 21
1635.7494964292871
 31
0.0
  0
LINE
  5
FF31
  8
YODOROGO
 10
29949.60434129191
 20
1667.749496429288
 30
0.0
 11
29949.60434129191
 21
1707.749496429288
 31
0.0
  0
LINE
  5
FF32
  8
YODOROGO
 10
29949.60434129191
 20
1667.749496429288
 30
0.0
 11
29949.60434129191
 21
1707.749496429288
 31
0.0
  0
ARC
  5
FF33
  8
YODOROGO
 10
30537.604341291921
 20
1507.749496429288
 30
0.0
 40
80.0
 50
270.0
 51
0.0
  0
LINE
  5
FF34
  8
YODOROGO
 10
30569.604341291921
 20
1599.7494964292871
 30
0.0
 11
30617.604341291921
 21
1599.7494964292871
 31
0.0
  0
LINE
  5
FF35
  8
YODOROGO
 10
30617.604341291921
 20
1627.749496429288
 30
0.0
 11
30529.604341291939
 21
1627.749496429288
 31
0.0
  0
LINE
  5
FF36
  8
YODOROGO
 10
30217.604341291921
 20
1667.749496429288
 30
0.0
 11
29949.60434129191
 21
1667.749496429288
 31
0.0
  0
LINE
  5
FF37
  8
YODOROGO
 10
30217.604341291921
 20
1627.749496429288
 30
0.0
 11
30217.604341291921
 21
1667.749496429288
 31
0.0
  0
LINE
  5
FF38
  8
YODOROGO
 10
30017.604341291921
 20
1627.749496429288
 30
0.0
 11
30217.604341291921
 21
1627.749496429288
 31
0.0
  0
ARC
  5
FF39
  8
YODOROGO
 10
30230.05882870136
 20
1868.885714952901
 30
0.0
 40
321.37763628522822
 50
228.6181454618993
 51
245.660289248906
  0
LINE
  5
FF3A
  8
YODOROGO
 10
30105.604341291921
 20
1603.7494964292871
 30
0.0
 11
30097.60434129195
 21
1576.0728158699001
 31
0.0
  0
LINE
  5
FF3B
  8
YODOROGO
 10
30189.604341291921
 20
1603.7494964292871
 30
0.0
 11
30105.604341291921
 21
1603.7494964292871
 31
0.0
  0
LINE
  5
FF3C
  8
YODOROGO
 10
30177.604341291921
 20
1551.817722473427
 30
0.0
 11
30189.604341291921
 21
1603.7494964292871
 31
0.0
  0
ARC
  5
FF3D
  8
YODOROGO
 10
30230.05882870045
 20
1868.885714953002
 30
0.0
 40
321.37763628529081
 50
260.60629297969911
 51
267.77903556555862
  0
LINE
  5
FF3E
  8
YODOROGO
 10
30217.604341291921
 20
1427.749496429285
 30
0.0
 11
30217.604341291921
 21
1547.749496429288
 31
0.0
  0
LINE
  5
FF3F
  8
YODOROGO
 10
29937.604341291932
 20
1481.3393349155101
 30
0.0
 11
29937.604341291921
 21
1594.531090531141
 31
0.0
  0
LINE
  5
FF40
  8
YODOROGO
 10
30217.604341291921
 20
1667.749496429288
 30
0.0
 11
29949.60434129191
 21
1667.749496429288
 31
0.0
  0
LINE
  5
FF41
  8
YODOROGO
 10
30217.604341291921
 20
1627.749496429288
 30
0.0
 11
30217.604341291921
 21
1667.749496429288
 31
0.0
  0
LINE
  5
FF42
  8
YODOROGO
 10
30017.604341291921
 20
1627.749496429288
 30
0.0
 11
30217.604341291921
 21
1627.749496429288
 31
0.0
  0
ARC
  5
FF43
  8
YODOROGO
 10
30230.05882870136
 20
1868.885714952901
 30
0.0
 40
321.37763628522822
 50
228.6181454618993
 51
245.660289248906
  0
LINE
  5
FF44
  8
YODOROGO
 10
30105.604341291921
 20
1603.7494964292871
 30
0.0
 11
30097.60434129195
 21
1576.0728158699001
 31
0.0
  0
LINE
  5
FF45
  8
YODOROGO
 10
30189.604341291921
 20
1603.7494964292871
 30
0.0
 11
30105.604341291921
 21
1603.7494964292871
 31
0.0
  0
LINE
  5
FF46
  8
YODOROGO
 10
30177.604341291921
 20
1551.817722473427
 30
0.0
 11
30189.604341291921
 21
1603.7494964292871
 31
0.0
  0
ARC
  5
FF47
  8
YODOROGO
 10
30230.05882870045
 20
1868.885714953002
 30
0.0
 40
321.37763628529081
 50
260.60629297969911
 51
267.77903556555862
  0
LINE
  5
FF48
  8
YODOROGO
 10
30217.604341291921
 20
1427.749496429285
 30
0.0
 11
30217.604341291921
 21
1547.749496429288
 31
0.0
  0
LINE
  5
FF49
  8
YODOROGO
 10
29937.604341291932
 20
1481.3393349155101
 30
0.0
 11
29937.604341291921
 21
1594.531090531141
 31
0.0
  0
LINE
  5
FF4A
  8
YODOROGO
 10
30433.604341291921
 20
1573.749496429288
 30
0.0
 11
30381.604341291932
 21
1573.749496429288
 31
0.0
  0
LINE
  5
FF4B
  8
YODOROGO
 10
30433.604341291921
 20
1601.749496429285
 30
0.0
 11
30433.604341291921
 21
1573.749496429288
 31
0.0
  0
LINE
  5
FF4C
  8
YODOROGO
 10
30381.604341291932
 20
1601.749496429285
 30
0.0
 11
30433.604341291921
 21
1601.749496429285
 31
0.0
  0
LINE
  5
FF4D
  8
YODOROGO
 10
30381.604341291932
 20
1573.749496429288
 30
0.0
 11
30381.604341291932
 21
1601.749496429285
 31
0.0
  0
LINE
  5
FF4E
  8
YODOROGO
 10
30429.604341291921
 20
1577.7494964292871
 30
0.0
 11
30385.604341291921
 21
1577.7494964292871
 31
0.0
  0
LINE
  5
FF4F
  8
YODOROGO
 10
30429.604341291921
 20
1597.749496429288
 30
0.0
 11
30429.604341291921
 21
1577.7494964292871
 31
0.0
  0
LINE
  5
FF50
  8
YODOROGO
 10
30385.604341291921
 20
1597.749496429288
 30
0.0
 11
30429.604341291921
 21
1597.749496429288
 31
0.0
  0
LINE
  5
FF51
  8
YODOROGO
 10
30385.604341291921
 20
1577.7494964292871
 30
0.0
 11
30385.604341291921
 21
1597.749496429288
 31
0.0
  0
LINE
  5
FF52
  8
YODOROGO
 10
30425.604341291921
 20
1581.749496429286
 30
0.0
 11
30389.604341291921
 21
1581.749496429286
 31
0.0
  0
LINE
  5
FF53
  8
YODOROGO
 10
30425.604341291921
 20
1593.749496429288
 30
0.0
 11
30425.604341291921
 21
1581.749496429286
 31
0.0
  0
LINE
  5
FF54
  8
YODOROGO
 10
30389.604341291921
 20
1593.749496429288
 30
0.0
 11
30425.604341291921
 21
1593.749496429288
 31
0.0
  0
LINE
  5
FF55
  8
YODOROGO
 10
30389.604341291921
 20
1581.749496429286
 30
0.0
 11
30389.604341291921
 21
1593.749496429288
 31
0.0
  0
LINE
  5
FF56
  8
YODOROGO
 10
30421.604341291932
 20
1585.7494964292871
 30
0.0
 11
30393.604341291921
 21
1585.7494964292871
 31
0.0
  0
LINE
  5
FF57
  8
YODOROGO
 10
30421.604341291932
 20
1589.749496429288
 30
0.0
 11
30421.604341291932
 21
1585.7494964292871
 31
0.0
  0
LINE
  5
FF58
  8
YODOROGO
 10
30393.604341291921
 20
1589.749496429288
 30
0.0
 11
30421.604341291932
 21
1589.749496429288
 31
0.0
  0
LINE
  5
FF59
  8
YODOROGO
 10
30393.604341291921
 20
1585.7494964292871
 30
0.0
 11
30393.604341291921
 21
1589.749496429288
 31
0.0
  0
LINE
  5
FF5A
  8
YODOROGO
 10
30465.604341291921
 20
1627.749496429288
 30
0.0
 11
30381.604341291932
 21
1627.749496429288
 31
0.0
  0
LINE
  5
FF5B
  8
YODOROGO
 10
30465.604341291921
 20
1547.749496429288
 30
0.0
 11
30465.604341291921
 21
1627.749496429288
 31
0.0
  0
LINE
  5
FF5C
  8
YODOROGO
 10
30381.604341291932
 20
1547.749496429288
 30
0.0
 11
30465.604341291921
 21
1547.749496429288
 31
0.0
  0
LINE
  5
FF5D
  8
YODOROGO
 10
30381.604341291932
 20
1427.749496429288
 30
0.0
 11
30381.604341291932
 21
1547.749496429288
 31
0.0
  0
LINE
  5
FF5E
  8
YODOROGO
 10
30537.604341291921
 20
1427.749496429288
 30
0.0
 11
30381.604341291932
 21
1427.749496429288
 31
0.0
  0
LINE
  5
FF5F
  8
YODOROGO
 10
30569.604341291921
 20
1571.749496429285
 30
0.0
 11
30569.604341291921
 21
1599.7494964292871
 31
0.0
  0
ARC
  5
FF60
  8
YODOROGO
 10
30545.604341291921
 20
1571.749496429291
 30
0.0
 40
24.000000000003752
 50
270.0
 51
359.99999999998772
  0
LINE
  5
FF61
  8
YODOROGO
 10
30529.604341291939
 20
1547.749496429288
 30
0.0
 11
30545.604341291921
 21
1547.749496429288
 31
0.0
  0
LINE
  5
FF62
  8
YODOROGO
 10
30529.604341291939
 20
1627.749496429288
 30
0.0
 11
30529.604341291939
 21
1547.749496429288
 31
0.0
  0
LINE
  5
FF63
  8
YODOROGO
 10
30899.604341291932
 20
1547.749496429288
 30
0.0
 11
30925.604341291921
 21
1547.749496429288
 31
0.0
  0
LINE
  5
FF64
  8
YODOROGO
 10
30933.604341291921
 20
1427.749496429288
 30
0.0
 11
30899.604341291932
 21
1427.749496429288
 31
0.0
  0
LINE
  5
FF65
  8
YODOROGO
 10
30763.604341291921
 20
1563.7494964292871
 30
0.0
 11
30791.604341291921
 21
1563.7494964292871
 31
0.0
  0
LINE
  5
FF66
  8
YODOROGO
 10
30899.604341291932
 20
1491.749496429288
 30
0.0
 11
30723.604341291921
 21
1491.749496429288
 31
0.0
  0
LINE
  5
FF67
  8
YODOROGO
 10
30831.604341291921
 20
1563.7494964292871
 30
0.0
 11
30859.604341291932
 21
1563.7494964292871
 31
0.0
  0
LINE
  5
FF68
  8
YODOROGO
 10
30899.604341291932
 20
1427.749496429288
 30
0.0
 11
30899.604341291932
 21
1547.749496429288
 31
0.0
  0
LINE
  5
FF69
  8
YODOROGO
 10
30697.604341291932
 20
1427.749496429288
 30
0.0
 11
30645.604341291921
 21
1427.749496429288
 31
0.0
  0
LINE
  5
FF6A
  8
YODOROGO
 10
30617.604341291921
 20
1599.7494964292871
 30
0.0
 11
30617.604341291921
 21
1507.749496429288
 31
0.0
  0
ARC
  5
FF6B
  8
YODOROGO
 10
30933.604341291921
 20
1467.749496429288
 30
0.0
 40
40.0
 50
270.0
 51
0.0
  0
LINE
  5
FF6C
  8
YODOROGO
 10
31093.604341291921
 20
1523.7494964292871
 30
0.0
 11
31093.604341291921
 21
1427.749496429288
 31
0.0
  0
ARC
  5
FF6D
  8
YODOROGO
 10
31039.721395566768
 20
1637.5313901097329
 30
0.0
 40
125.8955565916754
 50
295.34052442160112
 51
359.18902303418679
  0
LINE
  5
FF6E
  8
YODOROGO
 10
30617.604341291921
 20
1859.749496429288
 30
0.0
 11
30497.604341291921
 21
1939.749496429288
 31
0.0
  0
LINE
  5
FF6F
  8
YODOROGO
 10
30497.604341291921
 20
2027.749496429288
 30
0.0
 11
30617.604341291921
 21
1947.749496429288
 31
0.0
  0
LINE
  5
FF70
  8
YODOROGO
 10
30529.604341291939
 20
1679.749496429288
 30
0.0
 11
30617.604341291921
 21
1679.749496429288
 31
0.0
  0
LINE
  5
FF71
  8
YODOROGO
 10
30617.604341291921
 20
1735.7494964292871
 30
0.0
 11
30529.604341291939
 21
1735.7494964292871
 31
0.0
  0
LINE
  5
FF72
  8
YODOROGO
 10
30381.604341291932
 20
1795.7494964292871
 30
0.0
 11
30617.604341291921
 21
1795.7494964292871
 31
0.0
  0
LINE
  5
FF73
  8
YODOROGO
 10
30081.604341291921
 20
2027.749496429288
 30
0.0
 11
30021.604341291921
 21
2027.749496429288
 31
0.0
  0
LINE
  5
FF74
  8
YODOROGO
 10
30081.604341291921
 20
1827.7494964292871
 30
0.0
 11
30081.604341291921
 21
2027.749496429288
 31
0.0
  0
LINE
  5
FF75
  8
YODOROGO
 10
30021.604341291921
 20
1827.7494964292871
 30
0.0
 11
30081.604341291921
 21
1827.7494964292871
 31
0.0
  0
LINE
  5
FF76
  8
YODOROGO
 10
30021.604341291921
 20
2027.749496429288
 30
0.0
 11
30021.604341291921
 21
1827.7494964292871
 31
0.0
  0
LINE
  5
FF77
  8
YODOROGO
 10
30161.604341291921
 20
2027.749496429288
 30
0.0
 11
30217.604341291921
 21
2027.749496429288
 31
0.0
  0
LINE
  5
FF78
  8
YODOROGO
 10
30161.604341291921
 20
1811.749496429288
 30
0.0
 11
30161.604341291921
 21
2027.749496429288
 31
0.0
  0
ARC
  5
FF79
  8
YODOROGO
 10
30121.604341291921
 20
1811.749496429288
 30
0.0
 40
40.0
 50
270.0
 51
0.0
  0
LINE
  5
FF7A
  8
YODOROGO
 10
30021.604341291921
 20
1771.7494964292871
 30
0.0
 11
30121.604341291921
 21
1771.7494964292871
 31
0.0
  0
LINE
  5
FF7B
  8
YODOROGO
 10
30021.604341291921
 20
1707.749496429288
 30
0.0
 11
30021.604341291921
 21
1771.7494964292871
 31
0.0
  0
LINE
  5
FF7C
  8
YODOROGO
 10
30137.604341291921
 20
1707.749496429288
 30
0.0
 11
30021.604341291921
 21
1707.749496429288
 31
0.0
  0
ARC
  5
FF7D
  8
YODOROGO
 10
30137.604341291921
 20
1787.7494964292871
 30
0.0
 40
80.0
 50
270.0
 51
0.0
  0
LINE
  5
FF7E
  8
YODOROGO
 10
30217.604341291921
 20
2027.749496429288
 30
0.0
 11
30217.604341291921
 21
1787.7494964292871
 31
0.0
  0
LINE
  5
FF7F
  8
YODOROGO
 10
29977.604341291921
 20
1947.749496429288
 30
0.0
 11
29977.604341291921
 21
1995.7494964292871
 31
0.0
1001
AUTOCAD_POSTSCRIPT_FIGURE
1002
{
1000
PSFILL
1000
Grayscale
1000
Grayscale
1070
    25
1002
}
  0
LINE
  5
FF80
  8
YODOROGO
 10
29977.604341291921
 20
1859.749496429288
 30
0.0
 11
29977.604341291921
 21
1907.7494964292871
 31
0.0
1001
AUTOCAD_POSTSCRIPT_FIGURE
1002
{
1000
PSFILL
1000
Grayscale
1000
Grayscale
1070
    25
1002
}
  0
LINE
  5
FF81
  8
YODOROGO
 10
29977.604341291921
 20
1707.749496429288
 30
0.0
 11
29977.604341291921
 21
1819.7494964292871
 31
0.0
1001
AUTOCAD_POSTSCRIPT_FIGURE
1002
{
1000
PSFILL
1000
Grayscale
1000
Grayscale
1070
    25
1002
}
  0
LINE
  5
FF82
  8
YODOROGO
 10
30381.604341291932
 20
1907.7494964292871
 30
0.0
 11
30497.604341291921
 21
2027.749496429288
 31
0.0
  0
LINE
  5
FF83
  8
YODOROGO
 10
30381.604341291932
 20
1819.7494964292871
 30
0.0
 11
30381.604341291932
 21
1907.7494964292871
 31
0.0
  0
LINE
  5
FF84
  8
YODOROGO
 10
30497.604341291921
 20
1939.749496429288
 30
0.0
 11
30381.604341291932
 21
1819.7494964292871
 31
0.0
  0
LINE
  5
FF85
  8
YODOROGO
 10
30465.604341291921
 20
1679.749496429288
 30
0.0
 11
30465.604341291921
 21
1735.7494964292871
 31
0.0
  0
LINE
  5
FF86
  8
YODOROGO
 10
30381.604341291932
 20
1679.749496429288
 30
0.0
 11
30465.604341291921
 21
1679.749496429288
 31
0.0
  0
LINE
  5
FF87
  8
YODOROGO
 10
30529.604341291939
 20
1735.7494964292871
 30
0.0
 11
30529.604341291939
 21
1679.749496429288
 31
0.0
  0
LINE
  5
FF88
  8
YODOROGO
 10
30381.604341291932
 20
1735.7494964292871
 30
0.0
 11
30381.604341291932
 21
1795.7494964292871
 31
0.0
  0
LINE
  5
FF89
  8
YODOROGO
 10
30465.604341291921
 20
1735.7494964292871
 30
0.0
 11
30381.604341291932
 21
1735.7494964292871
 31
0.0
  0
LINE
  5
FF8A
  8
YODOROGO
 10
30645.604341291921
 20
2027.749496429288
 30
0.0
 11
30973.604341291921
 21
2027.749496429288
 31
0.0
  0
LINE
  5
FF8B
  8
YODOROGO
 10
30925.604341291921
 20
1963.749496429286
 30
0.0
 11
30697.604341291932
 21
1963.749496429286
 31
0.0
  0
LINE
  5
FF8C
  8
YODOROGO
 10
30873.604341291921
 20
1819.7494964292871
 30
0.0
 11
30899.604341291932
 21
1819.7494964292871
 31
0.0
  0
LINE
  5
FF8D
  8
YODOROGO
 10
30899.604341291932
 20
1939.749496429288
 30
0.0
 11
30873.604341291921
 21
1819.7494964292871
 31
0.0
  0
LINE
  5
FF8E
  8
YODOROGO
 10
30851.604341291939
 20
1939.749496429288
 30
0.0
 11
30899.604341291932
 21
1939.749496429288
 31
0.0
  0
LINE
  5
FF8F
  8
YODOROGO
 10
30825.604341291921
 20
1819.7494964292871
 30
0.0
 11
30851.604341291939
 21
1939.749496429288
 31
0.0
  0
LINE
  5
FF90
  8
YODOROGO
 10
30797.604341291921
 20
1819.7494964292871
 30
0.0
 11
30825.604341291921
 21
1819.7494964292871
 31
0.0
  0
LINE
  5
FF91
  8
YODOROGO
 10
30771.604341291939
 20
1939.749496429288
 30
0.0
 11
30797.604341291921
 21
1819.7494964292871
 31
0.0
  0
LINE
  5
FF92
  8
YODOROGO
 10
30723.604341291921
 20
1939.749496429288
 30
0.0
 11
30771.604341291939
 21
1939.749496429288
 31
0.0
  0
LINE
  5
FF93
  8
YODOROGO
 10
30749.604341291921
 20
1819.7494964292871
 30
0.0
 11
30723.604341291921
 21
1939.749496429288
 31
0.0
  0
LINE
  5
FF94
  8
YODOROGO
 10
30723.604341291921
 20
1819.7494964292871
 30
0.0
 11
30749.604341291921
 21
1819.7494964292871
 31
0.0
  0
LINE
  5
FF95
  8
YODOROGO
 10
30723.604341291921
 20
1755.7494964292871
 30
0.0
 11
30723.604341291921
 21
1819.7494964292871
 31
0.0
  0
LINE
  5
FF96
  8
YODOROGO
 10
30899.604341291932
 20
1755.7494964292871
 30
0.0
 11
30723.604341291921
 21
1755.7494964292871
 31
0.0
  0
LINE
  5
FF97
  8
YODOROGO
 10
30899.604341291932
 20
1819.7494964292871
 30
0.0
 11
30899.604341291932
 21
1755.7494964292871
 31
0.0
  0
LINE
  5
FF98
  8
YODOROGO
 10
30617.604341291921
 20
1947.749496429288
 30
0.0
 11
30617.604341291921
 21
1859.749496429288
 31
0.0
  0
LINE
  5
FF99
  8
YODOROGO
 10
30791.604341291921
 20
1755.7494964292871
 30
0.0
 11
30831.604341291921
 21
1755.7494964292871
 31
0.0
  0
LINE
  5
FF9A
  8
YODOROGO
 10
30723.604341291921
 20
1691.749496429288
 30
0.0
 11
30763.604341291921
 21
1691.749496429288
 31
0.0
  0
LINE
  5
FF9B
  8
YODOROGO
 10
30859.604341291932
 20
1691.749496429288
 30
0.0
 11
30899.604341291932
 21
1691.749496429288
 31
0.0
  0
LINE
  5
FF9C
  8
YODOROGO
 10
30617.604341291921
 20
1795.7494964292871
 30
0.0
 11
30617.604341291921
 21
1735.7494964292871
 31
0.0
  0
LINE
  5
FF9D
  8
YODOROGO
 10
31165.604341291921
 20
2027.749496429288
 30
0.0
 11
31165.604341291921
 21
1963.749496429286
 31
0.0
  0
LINE
  5
FF9E
  8
YODOROGO
 10
31533.604341291921
 20
1595.7494964292871
 30
0.0
 11
31533.60434129191
 21
1811.749496429288
 31
0.0
  0
LINE
  5
FF9F
  8
YODOROGO
 10
31461.60434129191
 20
1987.7494964292871
 30
0.0
 11
31461.60434129191
 21
1635.7494964292871
 31
0.0
  0
LINE
  5
FFA0
  8
YODOROGO
 10
31653.604341291921
 20
1427.749496429288
 30
0.0
 11
31653.60434129191
 21
1811.749496429288
 31
0.0
  0
LINE
  5
FFA1
  8
YODOROGO
 10
31589.604341291921
 20
1811.749496429288
 30
0.0
 11
31589.604341291921
 21
1427.749496429288
 31
0.0
  0
LINE
  5
FFA2
  8
YODOROGO
 10
31237.604341291921
 20
1595.7494964292871
 30
0.0
 11
31237.604341291921
 21
1707.749496429288
 31
0.0
  0
ARC
  5
FFA3
  8
YODOROGO
 10
31353.914865116069
 20
1607.790351288558
 30
0.0
 40
180.0924485759885
 50
268.62849102169793
 51
356.16638457330322
  0
LINE
  5
FFA4
  8
YODOROGO
 10
31349.604341291939
 20
1527.749496429288
 30
0.0
 11
31349.604341291939
 21
1427.749496429288
 31
0.0
  0
ARC
  5
FFA5
  8
YODOROGO
 10
31351.518075724562
 20
1637.838957017655
 30
0.0
 40
110.1060929836122
 50
269.00410209305932
 51
358.91264455492478
  0
LINE
  5
FFA6
  8
YODOROGO
 10
31589.604341291921
 20
1427.749496429288
 30
0.0
 11
31653.604341291921
 21
1427.749496429288
 31
0.0
  0
LINE
  5
FFA7
  8
YODOROGO
 10
31533.60434129191
 20
1811.749496429288
 30
0.0
 11
31589.604341291921
 21
1811.749496429288
 31
0.0
  0
LINE
  5
FFA8
  8
YODOROGO
 10
31621.604341291939
 20
1987.7494964292871
 30
0.0
 11
31461.60434129191
 21
1987.7494964292871
 31
0.0
  0
LINE
  5
FFA9
  8
YODOROGO
 10
31533.60434129191
 20
1915.7494964292871
 30
0.0
 11
31661.604341291939
 21
1915.7494964292871
 31
0.0
  0
LINE
  5
FFAA
  8
YODOROGO
 10
31701.604341291939
 20
1875.7494964292871
 30
0.0
 11
31533.60434129191
 21
1875.7494964292871
 31
0.0
  0
LINE
  5
FFAB
  8
YODOROGO
 10
31237.604341291921
 20
1779.749496429288
 30
0.0
 11
31349.604341291939
 21
1779.749496429288
 31
0.0
  0
LINE
  5
FFAC
  8
YODOROGO
 10
31237.604341291921
 20
1835.7494964292871
 30
0.0
 11
31237.604341291921
 21
1779.749496429288
 31
0.0
  0
LINE
  5
FFAD
  8
YODOROGO
 10
31349.604341291939
 20
1835.7494964292871
 30
0.0
 11
31237.604341291921
 21
1835.7494964292871
 31
0.0
  0
LINE
  5
FFAE
  8
YODOROGO
 10
31349.604341291939
 20
1779.749496429288
 30
0.0
 11
31349.604341291939
 21
1835.7494964292871
 31
0.0
  0
LINE
  5
FFAF
  8
YODOROGO
 10
31533.60434129191
 20
1875.7494964292871
 30
0.0
 11
31533.60434129191
 21
1915.7494964292871
 31
0.0
  0
LINE
  5
FFB0
  8
YODOROGO
 10
31413.604341291921
 20
1707.749496429288
 30
0.0
 11
31413.604341291921
 21
1907.7494964292871
 31
0.0
  0
LINE
  5
FFB1
  8
YODOROGO
 10
31237.604341291921
 20
1707.749496429288
 30
0.0
 11
31413.604341291921
 21
1707.749496429288
 31
0.0
  0
LINE
  5
FFB2
  8
YODOROGO
 10
31413.604341291921
 20
1963.749496429286
 30
0.0
 11
31413.604341291921
 21
2027.749496429288
 31
0.0
  0
ARC
  5
FFB3
  8
YODOROGO
 10
31621.604341291939
 20
2003.749496429285
 30
0.0
 40
15.999999999994539
 50
270.0
 51
0.0000000000081422
  0
LINE
  5
FFB4
  8
YODOROGO
 10
31637.604341291921
 20
2027.749496429288
 30
0.0
 11
31637.604341291921
 21
2003.7494964292871
 31
0.0
  0
LINE
  5
FFB5
  8
YODOROGO
 10
31701.604341291939
 20
2027.749496429288
 30
0.0
 11
31637.604341291921
 21
2027.749496429288
 31
0.0
  0
LINE
  5
FFB6
  8
YODOROGO
 10
31701.604341291939
 20
1955.7494964292871
 30
0.0
 11
31701.604341291939
 21
2027.749496429288
 31
0.0
  0
ARC
  5
FFB7
  8
YODOROGO
 10
31661.604341291939
 20
1955.7494964292871
 30
0.0
 40
40.0
 50
270.0
 51
0.0
  0
LINE
  5
FFB8
  8
YODOROGO
 10
31701.604341291939
 20
1811.749496429288
 30
0.0
 11
31701.604341291939
 21
1875.7494964292871
 31
0.0
  0
LINE
  5
FFB9
  8
YODOROGO
 10
31653.60434129191
 20
1811.749496429288
 30
0.0
 11
31701.604341291939
 21
1811.749496429288
 31
0.0
  0
LINE
  5
FFBA
  8
SUNPOU
  6
CONTINUOUS
 62
     4
 10
21604.011953585141
 20
19440.48625200001
 30
0.0
 11
21604.011953585141
 21
20240.487175999991
 31
0.0
  0
LINE
  5
FFBB
  8
SUNPOU
  6
CONTINUOUS
 62
     4
 10
22305.011953585141
 20
19440.48625200001
 30
0.0
 11
22305.011953585141
 21
20240.487175999991
 31
0.0
  0
LINE
  5
FFBC
  8
SUNPOU
  6
CONTINUOUS
 62
     4
 10
21604.011953585141
 20
20160.487175999991
 30
0.0
 11
22305.011953585141
 21
20160.487175999991
 31
0.0
  0
LINE
  5
FFBD
  8
0-6
  6
CONTINUOUS
 62
     6
 10
12493.8889099234
 20
19117.126787197201
 30
0.0
 11
12419.16916485277
 21
19261.098781575922
 31
0.0
  0
LINE
  5
FFBE
  8
0-6
  6
CONTINUOUS
 62
     6
 10
12419.16916485277
 20
19261.098781575922
 30
0.0
 11
12536.54520783642
 21
19149.141791898459
 31
0.0
  0
LINE
  5
FFBF
  8
0-6
  6
CONTINUOUS
 62
     6
 10
12536.54520783642
 20
19149.141791898459
 30
0.0
 11
12493.8889099234
 21
19117.126787197201
 31
0.0
  0
LINE
  5
FFC0
  8
0-6
  6
CONTINUOUS
 62
     6
 10
12493.8889099234
 20
16586.013716621332
 30
0.0
 11
12419.16916485277
 21
16729.985711000059
 31
0.0
  0
LINE
  5
FFC1
  8
0-6
  6
CONTINUOUS
 62
     6
 10
12419.16916485277
 20
16729.985711000059
 30
0.0
 11
12536.54520783642
 21
16618.0287213226
 31
0.0
  0
LINE
  5
FFC2
  8
0-6
  6
CONTINUOUS
 62
     6
 10
12536.54520783642
 20
16618.0287213226
 30
0.0
 11
12493.8889099234
 21
16586.013716621332
 31
0.0
  0
LINE
  5
FFC3
  8
0-6
  6
CONTINUOUS
 62
     6
 10
12373.554181351001
 20
13982.01436362122
 30
0.0
 11
12298.834436280369
 21
14125.98635799994
 31
0.0
  0
LINE
  5
FFC4
  8
0-6
  6
CONTINUOUS
 62
     6
 10
12298.834436280369
 20
14125.98635799994
 30
0.0
 11
12416.21047926402
 21
14014.029368322481
 31
0.0
  0
LINE
  5
FFC5
  8
0-6
  6
CONTINUOUS
 62
     6
 10
12416.21047926402
 20
14014.029368322481
 30
0.0
 11
12373.554181351001
 21
13982.01436362122
 31
0.0
  0
LINE
  5
FFC6
  8
0-6
  6
CONTINUOUS
 62
     6
 10
27920.783929637179
 20
19102.38947925335
 30
0.0
 11
28027.11195358515
 21
19224.885710999992
 31
0.0
  0
LINE
  5
FFC7
  8
0-6
  6
CONTINUOUS
 62
     6
 10
28027.11195358515
 20
19224.885710999992
 30
0.0
 11
27966.259833991891
 21
19074.524404324551
 31
0.0
  0
LINE
  5
FFC8
  8
0-6
  6
CONTINUOUS
 62
     6
 10
27966.259833991891
 20
19074.524404324551
 30
0.0
 11
27920.783929637179
 21
19102.38947925335
 31
0.0
  0
LINE
  5
FFC9
  8
0-6
  6
CONTINUOUS
 62
     6
 10
27948.96827514315
 20
19518.2030359327
 30
0.0
 11
28018.011953585141
 21
19371.424475045871
 31
0.0
  0
LINE
  5
FFCA
  8
0-6
  6
CONTINUOUS
 62
     6
 10
28018.011953585141
 20
19371.424475045871
 30
0.0
 11
27905.094953405991
 21
19487.877272670848
 31
0.0
  0
LINE
  5
FFCB
  8
0-6
  6
CONTINUOUS
 62
     6
 10
27905.094953405991
 20
19487.877272670848
 30
0.0
 11
27948.96827514315
 21
19518.2030359327
 31
0.0
  0
LINE
  5
FFCC
  8
0-6
  6
CONTINUOUS
 62
     6
 10
27920.783929637179
 20
16935.082047746651
 30
0.0
 11
28027.11195358515
 21
16812.585815999992
 31
0.0
  0
LINE
  5
FFCD
  8
0-6
  6
CONTINUOUS
 62
     6
 10
28027.11195358515
 20
16812.585815999992
 30
0.0
 11
27966.259833991891
 21
16962.947122675439
 31
0.0
  0
LINE
  5
FFCE
  8
0-6
  6
CONTINUOUS
 62
     6
 10
27966.259833991891
 20
16962.947122675439
 30
0.0
 11
27920.783929637179
 21
16935.082047746651
 31
0.0
  0
LINE
  5
FFCF
  8
0-6
  6
CONTINUOUS
 62
     6
 10
27920.783929637179
 20
14378.08248374665
 30
0.0
 11
28027.11195358515
 21
14255.58625199999
 31
0.0
  0
LINE
  5
FFD0
  8
0-6
  6
CONTINUOUS
 62
     6
 10
28027.11195358515
 20
14255.58625199999
 30
0.0
 11
27966.259833991891
 21
14405.947558675451
 31
0.0
  0
LINE
  5
FFD1
  8
0-6
  6
CONTINUOUS
 62
     6
 10
27966.259833991891
 20
14405.947558675451
 30
0.0
 11
27920.783929637179
 21
14378.08248374665
 31
0.0
  0
LINE
  5
FFD2
  8
0-6
  6
CONTINUOUS
 62
     6
 10
27948.96827514315
 20
16519.268491067302
 30
0.0
 11
28018.011953585141
 21
16666.047051954109
 31
0.0
  0
LINE
  5
FFD3
  8
0-6
  6
CONTINUOUS
 62
     6
 10
28018.011953585141
 20
16666.047051954109
 30
0.0
 11
27905.094953405991
 21
16549.594254329138
 31
0.0
  0
LINE
  5
FFD4
  8
0-6
  6
CONTINUOUS
 62
     6
 10
27905.094953405991
 20
16549.594254329138
 30
0.0
 11
27948.96827514315
 21
16519.268491067302
 31
0.0
  0
LINE
  5
FFD5
  8
0-6
  6
CONTINUOUS
 62
     6
 10
27948.96827514315
 20
13982.207691113181
 30
0.0
 11
28018.011953585141
 21
14128.986252000001
 31
0.0
  0
LINE
  5
FFD6
  8
0-6
  6
CONTINUOUS
 62
     6
 10
28018.011953585141
 20
14128.986252000001
 30
0.0
 11
27905.094953405991
 21
14012.53345437502
 31
0.0
  0
LINE
  5
FFD7
  8
0-6
  6
CONTINUOUS
 62
     6
 10
27905.094953405991
 20
14012.53345437502
 30
0.0
 11
27948.96827514315
 21
13982.207691113181
 31
0.0
  0
LINE
  5
FFF0
  8
SUNPOU
  6
CONTINUOUS
 62
     4
 10
23063.011953585141
 20
19440.48625200001
 30
0.0
 11
23063.011953585141
 21
20240.487175999991
 31
0.0
  0
LINE
  5
FFF1
  8
SUNPOU
  6
CONTINUOUS
 62
     4
 10
23105.511953585141
 20
19440.48625200001
 30
0.0
 11
23105.511953585141
 21
20240.487175999991
 31
0.0
  0
LINE
  5
FFF2
  8
SUNPOU
  6
CONTINUOUS
 62
     4
 10
23063.011953585141
 20
20160.487175999991
 30
0.0
 11
22823.011953585141
 21
20160.487175999991
 31
0.0
  0
LINE
  5
FFF3
  8
SUNPOU
  6
CONTINUOUS
 62
     4
 10
23105.511953585141
 20
20160.487175999991
 30
0.0
 11
23345.511953585141
 21
20160.487175999991
 31
0.0
  0
LINE
  5
FFF4
  8
SUNPOU
  6
CONTINUOUS
 62
     4
 10
23063.011953585141
 20
20160.487175999991
 30
0.0
 11
23105.511953585141
 21
20160.487175999991
 31
0.0
  0
LINE
  5
FFF5
  8
SUNPOU
  6
CONTINUOUS
 62
     4
 10
22305.011953585141
 20
19440.48625200001
 30
0.0
 11
22305.011953585141
 21
20240.487175999991
 31
0.0
  0
LINE
  5
FFF6
  8
SUNPOU
  6
CONTINUOUS
 62
     4
 10
23063.011953585141
 20
19440.48625200001
 30
0.0
 11
23063.011953585141
 21
20240.487175999991
 31
0.0
  0
LINE
  5
FFF7
  8
SUNPOU
  6
CONTINUOUS
 62
     4
 10
22305.011953585141
 20
20160.487175999991
 30
0.0
 11
23063.011953585141
 21
20160.487175999991
 31
0.0
  0
LINE
  5
FFF8
  8
SUNPOU
  6
CONTINUOUS
 62
     4
 10
20903.01195358513
 20
19440.48625200001
 30
0.0
 11
20903.01195358513
 21
20240.487175999991
 31
0.0
  0
LINE
  5
FFF9
  8
SUNPOU
  6
CONTINUOUS
 62
     4
 10
21604.011953585141
 20
19440.48625200001
 30
0.0
 11
21604.011953585141
 21
20240.487175999991
 31
0.0
  0
LINE
  5
FFFA
  8
SUNPOU
  6
CONTINUOUS
 62
     4
 10
20903.01195358513
 20
20160.487175999991
 30
0.0
 11
21604.011953585141
 21
20160.487175999991
 31
0.0
  0
LINE
  5
FFFB
  8
SUNPOU
  6
CONTINUOUS
 62
     4
 10
20202.011953585141
 20
19440.48625200001
 30
0.0
 11
20202.011953585141
 21
20240.487175999991
 31
0.0
  0
LINE
  5
FFFC
  8
SUNPOU
  6
CONTINUOUS
 62
     4
 10
20903.01195358513
 20
19440.48625200001
 30
0.0
 11
20903.01195358513
 21
20240.487175999991
 31
0.0
  0
LINE
  5
FFFD
  8
SUNPOU
  6
CONTINUOUS
 62
     4
 10
20202.011953585141
 20
20160.487175999991
 30
0.0
 11
20903.01195358513
 21
20160.487175999991
 31
0.0
  0
LINE
  5
FFFE
  8
SUNPOU
  6
CONTINUOUS
 62
     4
 10
19794.511953585141
 20
19520.488759
 30
0.0
 11
19794.511953585141
 21
20240.487175999991
 31
0.0
  0
LINE
  5
FFFF
  8
SUNPOU
  6
CONTINUOUS
 62
     4
 10
20202.011953585141
 20
19440.48625200001
 30
0.0
 11
20202.011953585141
 21
20240.487175999991
 31
0.0
  0
LINE
  5
10000
  8
SUNPOU
  6
CONTINUOUS
 62
     4
 10
19794.511953585141
 20
20160.487175999991
 30
0.0
 11
20202.011953585141
 21
20160.487175999991
 31
0.0
  0
LINE
  5
10001
  8
SUNPOU
  6
CONTINUOUS
 62
     4
 10
19794.511953585141
 20
19520.488759
 30
0.0
 11
19794.511953585141
 21
20240.487175999991
 31
0.0
  0
LINE
  5
10002
  8
SUNPOU
  6
CONTINUOUS
 62
     4
 10
19752.011953585141
 20
19440.48625200001
 30
0.0
 11
19752.011953585141
 21
20240.487175999991
 31
0.0
  0
LINE
  5
10003
  8
SUNPOU
  6
CONTINUOUS
 62
     4
 10
19794.511953585141
 20
20160.487175999991
 30
0.0
 11
20034.511953585141
 21
20160.487175999991
 31
0.0
  0
LINE
  5
10004
  8
SUNPOU
  6
CONTINUOUS
 62
     4
 10
19752.011953585141
 20
20160.487175999991
 30
0.0
 11
19512.011953585141
 21
20160.487175999991
 31
0.0
  0
LINE
  5
10005
  8
SUNPOU
  6
CONTINUOUS
 62
     4
 10
19794.511953585141
 20
20160.487175999991
 30
0.0
 11
19752.011953585141
 21
20160.487175999991
 31
0.0
  0
LINE
  5
10013
  8
SUNPOU
  6
CONTINUOUS
 62
     4
 10
23063.011953585141
 20
20560.487175999991
 30
0.0
 11
28063.011953585141
 21
20560.487175999991
 31
0.0
  0
LINE
  5
10014
  8
SUNPOU
  6
CONTINUOUS
 62
     4
 10
19794.511953585141
 20
20560.487175999991
 30
0.0
 11
23063.011953585141
 21
20560.487175999991
 31
0.0
  0
LINE
  5
10015
  8
SUNPOU
  6
CONTINUOUS
 62
     4
 10
28063.011953585141
 20
19684.93602587733
 30
0.0
 11
28063.011953585141
 21
20240.487175999991
 31
0.0
  0
LINE
  5
10016
  8
SUNPOU
  6
CONTINUOUS
 62
     4
 10
28020.509710585138
 20
19523.83651600001
 30
0.0
 11
28020.509710585138
 21
20240.487175999991
 31
0.0
  0
LINE
  5
10017
  8
SUNPOU
  6
CONTINUOUS
 62
     4
 10
28063.011953585141
 20
20160.487175999991
 30
0.0
 11
28303.011953585141
 21
20160.487175999991
 31
0.0
  0
LINE
  5
10018
  8
SUNPOU
  6
CONTINUOUS
 62
     4
 10
28020.509710585138
 20
20160.487175999991
 30
0.0
 11
27780.509710585138
 21
20160.487175999991
 31
0.0
  0
LINE
  5
10019
  8
SUNPOU
  6
CONTINUOUS
 62
     4
 10
28063.011953585141
 20
20160.487175999991
 30
0.0
 11
28020.509710585138
 21
20160.487175999991
 31
0.0
  0
LINE
  5
1001A
  8
SUNPOU
  6
CONTINUOUS
 62
     4
 10
28063.011953585141
 20
19684.93602587733
 30
0.0
 11
28063.011953585141
 21
20240.487175999991
 31
0.0
  0
LINE
  5
1001B
  8
SUNPOU
  6
CONTINUOUS
 62
     4
 10
28105.510238585121
 20
19520.488759
 30
0.0
 11
28105.510238585121
 21
20240.487175999991
 31
0.0
  0
LINE
  5
1001C
  8
SUNPOU
  6
CONTINUOUS
 62
     4
 10
28063.011953585141
 20
20160.487175999991
 30
0.0
 11
27823.011953585141
 21
20160.487175999991
 31
0.0
  0
LINE
  5
1001D
  8
SUNPOU
  6
CONTINUOUS
 62
     4
 10
28105.510238585121
 20
20160.487175999991
 30
0.0
 11
28345.510238585131
 21
20160.487175999991
 31
0.0
  0
LINE
  5
1001E
  8
SUNPOU
  6
CONTINUOUS
 62
     4
 10
28063.011953585141
 20
20160.487175999991
 30
0.0
 11
28105.510238585121
 21
20160.487175999991
 31
0.0
  0
LINE
  5
1001F
  8
SUNPOU
  6
CONTINUOUS
 62
     4
 10
28447.616789537071
 20
16750.486251999992
 30
0.0
 11
29360.855577953771
 21
16750.486251999992
 31
0.0
  0
LINE
  5
10020
  8
SUNPOU
  6
CONTINUOUS
 62
     4
 10
28447.616789537071
 20
19317.986251999992
 30
0.0
 11
29360.855577953771
 21
19317.986251999992
 31
0.0
  0
LINE
  5
10021
  8
SUNPOU
  6
CONTINUOUS
 62
     4
 10
29280.855577953771
 20
16750.486251999992
 30
0.0
 11
29280.855577953771
 21
19317.986251999992
 31
0.0
  0
LINE
  5
10022
  8
SUNPOU
  6
CONTINUOUS
 62
     4
 10
28447.616789537071
 20
14182.986252000001
 30
0.0
 11
29360.855577953771
 21
14182.986252000001
 31
0.0
  0
LINE
  5
10023
  8
SUNPOU
  6
CONTINUOUS
 62
     4
 10
28447.616789537071
 20
16750.486251999992
 30
0.0
 11
29360.855577953771
 21
16750.486251999992
 31
0.0
  0
LINE
  5
10024
  8
SUNPOU
  6
CONTINUOUS
 62
     4
 10
29280.855577953771
 20
14182.986252000001
 30
0.0
 11
29280.855577953771
 21
16750.486251999992
 31
0.0
  0
ARC
  5
1003C
  8
1-前柱P
 10
28072.61195358515
 20
14251.386252
 30
0.0
 40
1.0
 50
90.0
 51
180.0
  0
LINE
  5
1003D
  8
1-前柱P
 10
28071.61195358515
 20
14251.386252
 30
0.0
 11
28071.61195358515
 21
14249.786252
 31
0.0
  0
LINE
  5
1003E
  8
1-前柱P
 10
28071.61195358515
 20
14249.786252
 30
0.0
 11
28060.41195358515
 21
14249.786252
 31
0.0
  0
LINE
  5
1003F
  8
1-前柱P
 10
28060.41195358515
 20
14249.786252
 30
0.0
 11
28060.411953585131
 21
14251.386252
 31
0.0
  0
ARC
  5
10040
  8
1-前柱P
 10
28059.411953585131
 20
14251.386252
 30
0.0
 40
1.0
 50
0.0
 51
90.0
  0
ARC
  5
10041
  8
1-中柱P
 10
28056.411953585121
 20
16818.786252000002
 30
0.0
 40
1.0
 50
0.0
 51
90.0
  0
LINE
  5
10042
  8
1-中柱P
 10
28057.411953585131
 20
16818.786252000002
 30
0.0
 11
28057.411953585131
 21
16817.18625200001
 31
0.0
  0
LINE
  5
10043
  8
1-中柱P
 10
28057.411953585131
 20
16817.18625200001
 30
0.0
 11
28068.611953585121
 21
16817.18625200001
 31
0.0
  0
LINE
  5
10044
  8
1-中柱P
 10
28068.611953585121
 20
16817.18625200001
 30
0.0
 11
28068.611953585121
 21
16818.786252000002
 31
0.0
  0
ARC
  5
10045
  8
1-中柱P
 10
28069.611953585129
 20
16818.786252000002
 30
0.0
 40
1.0
 50
90.0
 51
180.0
  0
ARC
  5
10046
  8
1-後柱P
 10
28053.41195358515
 20
19249.936251999989
 30
0.0
 40
1.0
 50
270.0
 51
0.0
  0
LINE
  5
10047
  8
1-後柱P
 10
28054.41195358515
 20
19249.936251999989
 30
0.0
 11
28054.41195358515
 21
19251.536252000002
 31
0.0
  0
LINE
  5
10048
  8
1-後柱P
 10
28054.41195358515
 20
19251.536252000002
 30
0.0
 11
28065.61195358515
 21
19251.536252000002
 31
0.0
  0
LINE
  5
10049
  8
1-後柱P
 10
28065.61195358515
 20
19251.536252000002
 30
0.0
 11
28065.61195358515
 21
19249.936251999989
 31
0.0
  0
ARC
  5
1004A
  8
1-後柱P
 10
28066.61195358515
 20
19249.936251999989
 30
0.0
 40
1.0
 50
180.0
 51
270.0
  0
LINE
  5
1004B
  8
SUNPOU
  6
CONTINUOUS
 62
     4
 10
6326.2335704709403
 20
8478.188374000003
 30
0.0
 11
6326.2335704709403
 21
9869.1883999999955
 31
0.0
  0
LINE
  5
1004C
  8
SUNPOU
  6
CONTINUOUS
 62
     4
 10
11876.233570470929
 20
8610.0781974124311
 30
0.0
 11
11876.233570470929
 21
9869.1883999999955
 31
0.0
  0
LINE
  5
1004D
  8
SUNPOU
  6
CONTINUOUS
 62
     4
 10
6326.2335704709403
 20
9789.1883999999955
 30
0.0
 11
11876.233570470929
 21
9789.1883999999955
 31
0.0
  0
LINE
  5
1004E
  8
SUNPOU
  6
CONTINUOUS
 62
     4
 10
11726.23357047094
 20
8536.0984379999973
 30
0.0
 11
11726.23357047094
 21
9469.1900500000029
 31
0.0
  0
LINE
  5
1004F
  8
SUNPOU
  6
CONTINUOUS
 62
     4
 10
11876.233570470929
 20
8610.0781974124311
 30
0.0
 11
11876.233570470929
 21
9469.1900500000029
 31
0.0
  0
LINE
  5
10050
  8
SUNPOU
  6
CONTINUOUS
 62
     4
 10
11726.23357047094
 20
9389.1900500000029
 30
0.0
 11
11486.23357047094
 21
9389.1900500000029
 31
0.0
  0
LINE
  5
10051
  8
SUNPOU
  6
CONTINUOUS
 62
     4
 10
11876.233570470929
 20
9389.1900500000029
 30
0.0
 11
12116.23357047094
 21
9389.1900500000029
 31
0.0
  0
LINE
  5
10052
  8
SUNPOU
  6
CONTINUOUS
 62
     4
 10
11726.23357047094
 20
9389.1900500000029
 30
0.0
 11
11876.233570470929
 21
9389.1900500000029
 31
0.0
  0
LINE
  5
10053
  8
SUNPOU
  6
CONTINUOUS
 62
     4
 10
6506.2335704709376
 20
8348.3741496838102
 30
0.0
 11
6506.2335704709376
 21
9469.1900500000029
 31
0.0
  0
LINE
  5
10054
  8
SUNPOU
  6
CONTINUOUS
 62
     4
 10
11726.23357047094
 20
8536.0984379999973
 30
0.0
 11
11726.23357047094
 21
9469.1900500000029
 31
0.0
  0
LINE
  5
10055
  8
SUNPOU
  6
CONTINUOUS
 62
     4
 10
6506.2335704709376
 20
9389.1900500000029
 30
0.0
 11
11726.23357047094
 21
9389.1900500000029
 31
0.0
  0
LINE
  5
10056
  8
SUNPOU
  6
CONTINUOUS
 62
     4
 10
6326.2335704709403
 20
8478.188374000003
 30
0.0
 11
6326.2335704709403
 21
9469.1900500000029
 31
0.0
  0
LINE
  5
10057
  8
SUNPOU
  6
CONTINUOUS
 62
     4
 10
6506.2335704709376
 20
8348.3741496838102
 30
0.0
 11
6506.2335704709376
 21
9469.1900500000029
 31
0.0
  0
LINE
  5
10058
  8
SUNPOU
  6
CONTINUOUS
 62
     4
 10
6326.2335704709403
 20
9389.1900500000029
 30
0.0
 11
6506.2335704709376
 21
9389.1900500000029
 31
0.0
  0
LINE
  5
10059
  8
SUNPOU
  6
CONTINUOUS
 62
     4
 10
11818.73357047094
 20
6241.1883740000021
 30
0.0
 11
12896.23396647094
 21
6241.1883740000021
 31
0.0
  0
LINE
  5
1005A
  8
SUNPOU
  6
CONTINUOUS
 62
     4
 10
11911.04083007032
 20
8590.188374000003
 30
0.0
 11
12896.23396647094
 21
8590.188374000003
 31
0.0
  0
LINE
  5
1005B
  8
SUNPOU
  6
CONTINUOUS
 62
     4
 10
12816.23396647094
 20
6241.1883740000021
 30
0.0
 11
12816.23396647094
 21
8590.188374000003
 31
0.0
  0
LINE
  5
1005C
  8
SUNPOU
  6
CONTINUOUS
 62
     4
 10
6418.7335704709421
 20
6241.1883740000021
 30
0.0
 11
5336.2331744709518
 21
6241.1883740000039
 31
0.0
  0
LINE
  5
1005D
  8
SUNPOU
  6
CONTINUOUS
 62
     4
 10
6246.2335704709403
 20
8396.688374000003
 30
0.0
 11
5336.2331744709518
 21
8396.688374000003
 31
0.0
  0
LINE
  5
1005E
  8
SUNPOU
  6
CONTINUOUS
 62
     4
 10
5416.2331744709518
 20
6241.1883740000039
 30
0.0
 11
5416.2331744709518
 21
8396.688374000003
 31
0.0
  0
LINE
  5
1005F
  8
SUNPOU
  6
CONTINUOUS
 62
     4
 10
6506.2335704709376
 20
6161.1883740000021
 30
0.0
 11
6506.2335704709376
 21
4461.1887039999992
 31
0.0
  0
LINE
  5
10060
  8
SUNPOU
  6
CONTINUOUS
 62
     4
 10
11726.23357047094
 20
6161.1883740000021
 30
0.0
 11
11726.23357047094
 21
4461.1887039999992
 31
0.0
  0
LINE
  5
10061
  8
SUNPOU
  6
CONTINUOUS
 62
     4
 10
6506.2335704709376
 20
4541.1887039999983
 30
0.0
 11
11726.23357047094
 21
4541.1887039999983
 31
0.0
  0
LINE
  5
10062
  8
SUNPOU
  6
CONTINUOUS
 62
     4
 10
11683.733570470929
 20
5798.5361160000011
 30
0.0
 11
11683.733570470929
 21
4861.1885389999998
 31
0.0
  0
LINE
  5
10063
  8
SUNPOU
  6
CONTINUOUS
 62
     4
 10
11726.23357047094
 20
6161.1883740000021
 30
0.0
 11
11726.23357047094
 21
4861.1885389999998
 31
0.0
  0
LINE
  5
10064
  8
SUNPOU
  6
CONTINUOUS
 62
     4
 10
11683.733570470929
 20
4941.1885390000016
 30
0.0
 11
11443.73357047094
 21
4941.1885390000016
 31
0.0
  0
LINE
  5
10065
  8
SUNPOU
  6
CONTINUOUS
 62
     4
 10
11726.23357047094
 20
4941.1885390000016
 30
0.0
 11
11966.23357047094
 21
4941.1885390000016
 31
0.0
  0
LINE
  5
10066
  8
SUNPOU
  6
CONTINUOUS
 62
     4
 10
11683.733570470929
 20
4941.1885390000016
 30
0.0
 11
11726.23357047094
 21
4941.1885390000016
 31
0.0
  0
LINE
  5
10067
  8
SUNPOU
  6
CONTINUOUS
 62
     4
 10
6548.7335704709412
 20
5798.5361160000011
 30
0.0
 11
6548.7335704709412
 21
4861.1885389999998
 31
0.0
  0
LINE
  5
10068
  8
SUNPOU
  6
CONTINUOUS
 62
     4
 10
6506.2335704709376
 20
6161.1883740000021
 30
0.0
 11
6506.2335704709376
 21
4861.1885389999998
 31
0.0
  0
LINE
  5
10069
  8
SUNPOU
  6
CONTINUOUS
 62
     4
 10
6548.7335704709412
 20
4941.1885390000016
 30
0.0
 11
6788.7335704709403
 21
4941.1885390000016
 31
0.0
  0
LINE
  5
1006A
  8
SUNPOU
  6
CONTINUOUS
 62
     4
 10
6506.2335704709376
 20
4941.1885390000016
 30
0.0
 11
6266.2335704709412
 21
4941.1885390000016
 31
0.0
  0
LINE
  5
1006B
  8
SUNPOU
  6
CONTINUOUS
 62
     4
 10
6548.7335704709412
 20
4941.1885390000016
 30
0.0
 11
6506.2335704709376
 21
4941.1885390000016
 31
0.0
  0
LINE
  5
1006C
  8
SUNPOU
  6
CONTINUOUS
 62
     4
 10
9116.2335704709403
 20
5798.5361160000011
 30
0.0
 11
9116.2335704709403
 21
4861.1885389999998
 31
0.0
  0
LINE
  5
1006D
  8
SUNPOU
  6
CONTINUOUS
 62
     4
 10
6548.7335704709412
 20
5798.5361160000011
 30
0.0
 11
6548.7335704709412
 21
4861.1885389999998
 31
0.0
  0
LINE
  5
1006E
  8
SUNPOU
  6
CONTINUOUS
 62
     4
 10
9116.2335704709403
 20
4941.1885390000016
 30
0.0
 11
6548.7335704709412
 21
4941.1885390000016
 31
0.0
  0
LINE
  5
1006F
  8
SUNPOU
  6
CONTINUOUS
 62
     4
 10
9116.2335704709403
 20
5798.5361160000011
 30
0.0
 11
9116.2335704709403
 21
4861.1885389999998
 31
0.0
  0
LINE
  5
10070
  8
SUNPOU
  6
CONTINUOUS
 62
     4
 10
11683.733570470929
 20
5798.5361160000011
 30
0.0
 11
11683.733570470929
 21
4861.1885389999998
 31
0.0
  0
LINE
  5
10071
  8
SUNPOU
  6
CONTINUOUS
 62
     4
 10
9116.2335704709403
 20
4941.1885390000016
 30
0.0
 11
11683.733570470929
 21
4941.1885390000016
 31
0.0
  0
LINE
  5
10072
  8
SUNPOU
  6
CONTINUOUS
 62
     4
 10
19688.010092585158
 20
8669.6883999999955
 30
0.0
 11
19688.010092585158
 21
9869.1329740000037
 31
0.0
  0
LINE
  5
10073
  8
SUNPOU
  6
CONTINUOUS
 62
     4
 10
28127.510092585158
 20
8669.6883999999955
 30
0.0
 11
28127.510092585158
 21
9869.1329740000037
 31
0.0
  0
LINE
  5
10074
  8
SUNPOU
  6
CONTINUOUS
 62
     4
 10
19691.010092585158
 20
9789.1329740000037
 30
0.0
 11
28124.510092585158
 21
9789.1329740000037
 31
0.0
  0
LINE
  5
10075
  8
SUNPOU
  6
CONTINUOUS
 62
     4
 10
28084.510092585158
 20
8669.6883999999955
 30
0.0
 11
28084.510092585158
 21
9469.1900500000029
 31
0.0
  0
LINE
  5
10076
  8
SUNPOU
  6
CONTINUOUS
 62
     4
 10
28127.510092585158
 20
8669.6883999999955
 30
0.0
 11
28127.510092585158
 21
9469.1900500000029
 31
0.0
  0
LINE
  5
10077
  8
SUNPOU
  6
CONTINUOUS
 62
     4
 10
28084.510092585158
 20
9389.1900500000029
 30
0.0
 11
27844.510092585158
 21
9389.1900500000029
 31
0.0
  0
LINE
  5
10078
  8
SUNPOU
  6
CONTINUOUS
 62
     4
 10
28124.510092585158
 20
9389.1900500000029
 30
0.0
 11
28364.510092585158
 21
9389.1900500000029
 31
0.0
  0
LINE
  5
10079
  8
SUNPOU
  6
CONTINUOUS
 62
     4
 10
28084.510092585158
 20
9389.1900500000029
 30
0.0
 11
28124.510092585158
 21
9389.1900500000029
 31
0.0
  0
LINE
  5
1007A
  8
SUNPOU
  6
CONTINUOUS
 62
     4
 10
19731.010092585158
 20
8539.6884659999996
 30
0.0
 11
19731.010092585158
 21
9469.1900500000029
 31
0.0
  0
LINE
  5
1007B
  8
SUNPOU
  6
CONTINUOUS
 62
     4
 10
19688.010092585158
 20
8669.6883999999955
 30
0.0
 11
19688.010092585158
 21
9469.1900500000029
 31
0.0
  0
LINE
  5
1007C
  8
SUNPOU
  6
CONTINUOUS
 62
     4
 10
19731.010092585158
 20
9389.1900500000029
 30
0.0
 11
19971.010092585158
 21
9389.1900500000029
 31
0.0
  0
LINE
  5
1007D
  8
SUNPOU
  6
CONTINUOUS
 62
     4
 10
19691.010092585158
 20
9389.1900500000029
 30
0.0
 11
19451.010092585158
 21
9389.1900500000029
 31
0.0
  0
LINE
  5
1007E
  8
SUNPOU
  6
CONTINUOUS
 62
     4
 10
19731.010092585158
 20
9389.1900500000029
 30
0.0
 11
19691.010092585158
 21
9389.1900500000029
 31
0.0
  0
LINE
  5
1007F
  8
SUNPOU
  6
CONTINUOUS
 62
     4
 10
23084.510092585158
 20
8539.6884659999996
 30
0.0
 11
23084.510092585158
 21
9469.1900500000029
 31
0.0
  0
LINE
  5
10080
  8
SUNPOU
  6
CONTINUOUS
 62
     4
 10
19731.010092585158
 20
8539.6884659999996
 30
0.0
 11
19731.010092585158
 21
9469.1900500000029
 31
0.0
  0
LINE
  5
10081
  8
SUNPOU
  6
CONTINUOUS
 62
     4
 10
23084.510092585158
 20
9389.1900500000029
 30
0.0
 11
19731.010092585158
 21
9389.1900500000029
 31
0.0
  0
LINE
  5
10082
  8
SUNPOU
  6
CONTINUOUS
 62
     4
 10
19643.50745358516
 20
6241.1883740000021
 30
0.0
 11
18443.50745358516
 21
6241.1883740000021
 31
0.0
  0
LINE
  5
10083
  8
SUNPOU
  6
CONTINUOUS
 62
     4
 10
19611.010092585158
 20
8590.1883999999973
 30
0.0
 11
18443.50745358516
 21
8590.1883999999973
 31
0.0
  0
LINE
  5
10084
  8
SUNPOU
  6
CONTINUOUS
 62
     4
 10
18523.50745358516
 20
6241.1883740000021
 30
0.0
 11
18523.50745358516
 21
8590.1883999999973
 31
0.0
  0
LINE
  5
10085
  8
SUNPOU
  6
CONTINUOUS
 62
     4
 10
19643.50745358516
 20
6241.1883740000021
 30
0.0
 11
18843.506793585169
 21
6241.1883740000021
 31
0.0
  0
LINE
  5
10086
  8
SUNPOU
  6
CONTINUOUS
 62
     4
 10
19736.006397585181
 20
8132.6883740000021
 30
0.0
 11
18843.506793585169
 21
8132.6883740000021
 31
0.0
  0
LINE
  5
10087
  8
SUNPOU
  6
CONTINUOUS
 62
     4
 10
18923.506793585158
 20
6241.1883740000021
 30
0.0
 11
18923.506793585158
 21
8132.6883740000021
 31
0.0
  0
LINE
  5
10088
  8
SUNPOU
  6
CONTINUOUS
 62
     4
 10
23087.510092585158
 20
6161.1883740000021
 30
0.0
 11
23087.510092585158
 21
5261.188374000003
 31
0.0
  0
LINE
  5
10089
  8
SUNPOU
  6
CONTINUOUS
 62
     4
 10
27999.51009258518
 20
6061.1885389999989
 30
0.0
 11
27999.51009258518
 21
5261.188374000003
 31
0.0
  0
LINE
  5
1008A
  8
SUNPOU
  6
CONTINUOUS
 62
     4
 10
23087.510092585158
 20
5341.188374000003
 30
0.0
 11
27999.51009258518
 21
5341.188374000003
 31
0.0
  0
LINE
  5
1008B
  8
SUNPOU
  6
CONTINUOUS
 62
     4
 10
19731.05004553268
 20
6161.1883740000021
 30
0.0
 11
19731.05004553268
 21
4461.1887040000574
 31
0.0
  0
LINE
  5
1008C
  8
SUNPOU
  6
CONTINUOUS
 62
     4
 10
28084.510092585158
 20
6061.1885389999989
 30
0.0
 11
28084.510092585158
 21
4461.1887040000574
 31
0.0
  0
LINE
  5
1008D
  8
SUNPOU
  6
CONTINUOUS
 62
     4
 10
19731.05004553268
 20
4541.1887040000556
 30
0.0
 11
28084.510092585158
 21
4541.1887040000556
 31
0.0
  0
LINE
  5
1008E
  8
SUNPOU
  6
CONTINUOUS
 62
     4
 10
19773.510092585158
 20
5798.5361160000011
 30
0.0
 11
19773.510092585158
 21
4861.1885389999998
 31
0.0
  0
LINE
  5
1008F
  8
SUNPOU
  6
CONTINUOUS
 62
     4
 10
19731.05004553268
 20
6161.1883740000021
 30
0.0
 11
19731.05004553268
 21
4861.1885389999998
 31
0.0
  0
LINE
  5
10090
  8
SUNPOU
  6
CONTINUOUS
 62
     4
 10
19773.510092585158
 20
4941.1885390000016
 30
0.0
 11
20013.510092585158
 21
4941.1885390000016
 31
0.0
  0
LINE
  5
10091
  8
SUNPOU
  6
CONTINUOUS
 62
     4
 10
19731.05004553268
 20
4941.1885390000016
 30
0.0
 11
19491.05004553268
 21
4941.1885390000016
 31
0.0
  0
LINE
  5
10092
  8
SUNPOU
  6
CONTINUOUS
 62
     4
 10
19773.510092585158
 20
4941.1885390000016
 30
0.0
 11
19731.05004553268
 21
4941.1885390000016
 31
0.0
  0
LINE
  5
10093
  8
SUNPOU
  6
CONTINUOUS
 62
     4
 10
23042.010092585158
 20
5798.5361160000011
 30
0.0
 11
23042.010092585158
 21
4861.1885389999998
 31
0.0
  0
LINE
  5
10094
  8
SUNPOU
  6
CONTINUOUS
 62
     4
 10
19773.510092585158
 20
5798.5361160000011
 30
0.0
 11
19773.510092585158
 21
4861.1885389999998
 31
0.0
  0
LINE
  5
10095
  8
SUNPOU
  6
CONTINUOUS
 62
     4
 10
23042.010092585158
 20
4941.1885390000016
 30
0.0
 11
19773.510092585158
 21
4941.1885390000016
 31
0.0
  0
LINE
  5
10096
  8
SUNPOU
  6
CONTINUOUS
 62
     4
 10
19867.510092585158
 20
6061.1885389999989
 30
0.0
 11
19867.510092585158
 21
5261.188374000003
 31
0.0
  0
LINE
  5
10097
  8
SUNPOU
  6
CONTINUOUS
 62
     4
 10
22948.010092585158
 20
6061.1885389999989
 30
0.0
 11
22948.010092585158
 21
5261.188374000003
 31
0.0
  0
LINE
  5
10098
  8
SUNPOU
  6
CONTINUOUS
 62
     4
 10
19867.510092585158
 20
5341.188374000003
 30
0.0
 11
22948.010092585158
 21
5341.188374000003
 31
0.0
  0
LINE
  5
10099
  8
SUNPOU
  6
CONTINUOUS
 62
     4
 10
28042.010092585158
 20
5798.5361160000011
 30
0.0
 11
28042.010092585158
 21
4861.1885389999998
 31
0.0
  0
LINE
  5
1009A
  8
SUNPOU
  6
CONTINUOUS
 62
     4
 10
28084.510092585158
 20
6061.1885389999989
 30
0.0
 11
28084.510092585158
 21
4861.1885389999998
 31
0.0
  0
LINE
  5
1009B
  8
SUNPOU
  6
CONTINUOUS
 62
     4
 10
28042.010092585158
 20
4941.1885390000016
 30
0.0
 11
27802.010092585158
 21
4941.1885390000016
 31
0.0
  0
LINE
  5
1009C
  8
SUNPOU
  6
CONTINUOUS
 62
     4
 10
28084.510092585158
 20
4941.1885390000016
 30
0.0
 11
28324.510092585158
 21
4941.1885390000016
 31
0.0
  0
LINE
  5
1009D
  8
SUNPOU
  6
CONTINUOUS
 62
     4
 10
28042.010092585158
 20
4941.1885390000016
 30
0.0
 11
28084.510092585158
 21
4941.1885390000016
 31
0.0
  0
LINE
  5
1009E
  8
SUNPOU
  6
CONTINUOUS
 62
     4
 10
23042.010092585158
 20
5798.5361160000011
 30
0.0
 11
23042.010092585158
 21
4861.1885389999998
 31
0.0
  0
LINE
  5
1009F
  8
SUNPOU
  6
CONTINUOUS
 62
     4
 10
28042.010092585158
 20
5798.5361160000011
 30
0.0
 11
28042.010092585158
 21
4861.1885389999998
 31
0.0
  0
LINE
  5
100A0
  8
SUNPOU
  6
CONTINUOUS
 62
     4
 10
23042.010092585158
 20
4941.1885390000016
 30
0.0
 11
28042.010092585158
 21
4941.1885390000016
 31
0.0
  0
LINE
  5
100A1
  8
SUNPOU
  6
CONTINUOUS
 62
     4
 10
23084.510092585158
 20
8539.6884659999996
 30
0.0
 11
23084.510092585158
 21
9469.1900500000029
 31
0.0
  0
LINE
  5
100A2
  8
SUNPOU
  6
CONTINUOUS
 62
     4
 10
28084.510092585158
 20
8669.6883999999955
 30
0.0
 11
28084.510092585158
 21
9469.1900500000029
 31
0.0
  0
LINE
  5
100A3
  8
SUNPOU
  6
CONTINUOUS
 62
     4
 10
23084.510092585158
 20
9389.1900500000029
 30
0.0
 11
28084.510092585158
 21
9389.1900500000029
 31
0.0
  0
LINE
  5
100A4
  8
SUNPOU
  6
CONTINUOUS
 62
     4
 10
28164.510092585158
 20
6242.0026620000026
 30
0.0
 11
29374.332490879529
 21
6242.0026620000026
 31
0.0
  0
LINE
  5
100A5
  8
SUNPOU
  6
CONTINUOUS
 62
     4
 10
28204.510092585158
 20
8262.0026620000026
 30
0.0
 11
29374.332490879551
 21
8262.0026620000026
 31
0.0
  0
LINE
  5
100A6
  8
SUNPOU
  6
CONTINUOUS
 62
     4
 10
29294.332490879529
 20
6242.0026620000026
 30
0.0
 11
29294.332490879551
 21
8262.0026620000026
 31
0.0
  0
LINE
  5
100A7
  8
SUNPOU
  6
CONTINUOUS
 62
     4
 10
5156.6435181510387
 20
13969.98643699999
 30
0.0
 11
4309.6437421510464
 21
13969.98643699999
 31
0.0
  0
LINE
  5
100A8
  8
SUNPOU
  6
CONTINUOUS
 62
     4
 10
4389.6437421510464
 20
14162.48571100001
 30
0.0
 11
4389.6437421510464
 21
13969.98643699999
 31
0.0
  0
LINE
  5
100A9
  8
SUNPOU
  6
CONTINUOUS
 62
     4
 10
4389.6437421510482
 20
16729.985711000001
 30
0.0
 11
4389.6437421510464
 21
14162.48571100001
 31
0.0
  0
LINE
  5
100AA
  8
SUNPOU
  6
CONTINUOUS
 62
     4
 10
4389.6437421510491
 20
19297.485711000001
 30
0.0
 11
4389.6437421510482
 21
16729.985711000001
 31
0.0
  0
LINE
  5
100AB
  8
SUNPOU
  6
CONTINUOUS
 62
     4
 10
4309.6437421510491
 20
19297.485711000001
 30
0.0
 11
4349.6437421510491
 21
19297.485711000001
 31
0.0
  0
LINE
  5
100AC
  8
SUNPOU
  6
CONTINUOUS
 62
     4
 10
5161.6427921510349
 20
19519.985579
 30
0.0
 11
4349.6437421510491
 21
19519.985579
 31
0.0
  0
LINE
  5
100AD
  8
SUNPOU
  6
CONTINUOUS
 62
     4
 10
4389.6437421510491
 20
19297.485711000001
 30
0.0
 11
4389.6437421510491
 21
19519.985579
 31
0.0
  0
LINE
  5
100AE
  8
SUNPOU
  6
CONTINUOUS
 62
     4
 10
5230.1436371510499
 20
19509.98900999999
 30
0.0
 11
4709.6430831510479
 21
19509.98900999999
 31
0.0
  0
LINE
  5
100AF
  8
SUNPOU
  6
CONTINUOUS
 62
     4
 10
5161.6427921510349
 20
19519.985579
 30
0.0
 11
4709.6430831510479
 21
19519.985579
 31
0.0
  0
LINE
  5
100B0
  8
SUNPOU
  6
CONTINUOUS
 62
     4
 10
4789.643083151047
 20
19509.98900999999
 30
0.0
 11
4789.643083151047
 21
19269.98900999999
 31
0.0
  0
LINE
  5
100B1
  8
SUNPOU
  6
CONTINUOUS
 62
     4
 10
4789.643083151047
 20
19519.985579
 30
0.0
 11
4789.643083151047
 21
19759.985579
 31
0.0
  0
LINE
  5
100B2
  8
SUNPOU
  6
CONTINUOUS
 62
     4
 10
4789.643083151047
 20
19509.98900999999
 30
0.0
 11
4789.643083151047
 21
19519.985579
 31
0.0
  0
LINE
  5
100B3
  8
SUNPOU
  6
CONTINUOUS
 62
     4
 10
13587.643518151041
 20
20144.987624000001
 30
0.0
 11
13587.643518151041
 21
20219.986634999979
 31
0.0
  0
LINE
  5
100B4
  8
SUNPOU
  6
CONTINUOUS
 62
     4
 10
13673.143518151041
 20
19594.987293999991
 30
0.0
 11
13673.143518151041
 21
20219.986634999979
 31
0.0
  0
LINE
  5
100B5
  8
SUNPOU
  6
CONTINUOUS
 62
     4
 10
13587.643518151041
 20
20139.986634999979
 30
0.0
 11
13347.643518151041
 21
20139.986634999979
 31
0.0
  0
LINE
  5
100B6
  8
SUNPOU
  6
CONTINUOUS
 62
     4
 10
13670.143518151041
 20
20139.986634999979
 30
0.0
 11
13910.143518151041
 21
20139.986634999979
 31
0.0
  0
LINE
  5
100B7
  8
SUNPOU
  6
CONTINUOUS
 62
     4
 10
13587.643518151041
 20
20139.986634999979
 30
0.0
 11
13670.143518151041
 21
20139.986634999979
 31
0.0
  0
LINE
  5
100B8
  8
SUNPOU
  6
CONTINUOUS
 62
     4
 10
8587.6435181510387
 20
20144.987624000001
 30
0.0
 11
8587.6435181510387
 21
20219.986634999979
 31
0.0
  0
LINE
  5
100B9
  8
SUNPOU
  6
CONTINUOUS
 62
     4
 10
13587.643518151041
 20
20144.987624000001
 30
0.0
 11
13587.643518151041
 21
20219.986634999979
 31
0.0
  0
LINE
  5
100BA
  8
SUNPOU
  6
CONTINUOUS
 62
     4
 10
8587.6435181510387
 20
20139.986634999979
 30
0.0
 11
13587.643518151041
 21
20139.986634999979
 31
0.0
  0
LINE
  5
100BB
  8
SUNPOU
  6
CONTINUOUS
 62
     4
 10
5319.1435181510378
 20
19669.987293999991
 30
0.0
 11
5319.1435181510378
 21
20219.986634999979
 31
0.0
  0
LINE
  5
100BC
  8
SUNPOU
  6
CONTINUOUS
 62
     4
 10
8587.6435181510387
 20
20144.987624000001
 30
0.0
 11
8587.6435181510387
 21
20219.986634999979
 31
0.0
  0
LINE
  5
100BD
  8
SUNPOU
  6
CONTINUOUS
 62
     4
 10
5319.1435181510378
 20
20139.986634999979
 30
0.0
 11
8587.6435181510387
 21
20139.986634999979
 31
0.0
  0
LINE
  5
100BE
  8
SUNPOU
  6
CONTINUOUS
 62
     4
 10
5319.1435181510378
 20
19669.987293999991
 30
0.0
 11
5319.1435181510378
 21
20219.986634999979
 31
0.0
  0
LINE
  5
100BF
  8
SUNPOU
  6
CONTINUOUS
 62
     4
 10
5233.6435181510387
 20
19589.987031000001
 30
0.0
 11
5233.6435181510387
 21
20219.986634999979
 31
0.0
  0
LINE
  5
100C0
  8
SUNPOU
  6
CONTINUOUS
 62
     4
 10
5319.1435181510378
 20
20139.986634999979
 30
0.0
 11
5559.1435181510387
 21
20139.986634999979
 31
0.0
  0
LINE
  5
100C1
  8
SUNPOU
  6
CONTINUOUS
 62
     4
 10
5236.6435181510387
 20
20139.986634999979
 30
0.0
 11
4996.6435181510387
 21
20139.986634999979
 31
0.0
  0
LINE
  5
100C2
  8
SUNPOU
  6
CONTINUOUS
 62
     4
 10
5319.1435181510378
 20
20139.986634999979
 30
0.0
 11
5236.6435181510387
 21
20139.986634999979
 31
0.0
  0
LINE
  5
100C3
  8
SUNPOU
  6
CONTINUOUS
 62
     4
 10
5233.6435181510387
 20
13889.98643699999
 30
0.0
 11
5233.6435181510387
 21
12599.98564499999
 31
0.0
  0
LINE
  5
100C4
  8
SUNPOU
  6
CONTINUOUS
 62
     4
 10
13673.143518151041
 20
13889.98643699999
 30
0.0
 11
13673.143518151041
 21
12599.98564499999
 31
0.0
  0
LINE
  5
100C5
  8
SUNPOU
  6
CONTINUOUS
 62
     4
 10
5236.6435181510387
 20
12679.985644999981
 30
0.0
 11
13670.143518151041
 21
12679.985644999981
 31
0.0
  0
LINE
  5
100C6
  8
0-6
  6
CONTINUOUS
 62
     6
 10
11532.3736647651
 20
15931.02056986666
 30
0.0
 11
11652.22839167163
 21
16040.351666821891
 31
0.0
  0
LINE
  5
100C7
  8
0-6
  6
CONTINUOUS
 62
     6
 10
11652.22839167163
 20
16040.351666821891
 30
0.0
 11
11574.30299363483
 21
15898.06295797934
 31
0.0
  0
LINE
  5
100C8
  8
0-6
  6
CONTINUOUS
 62
     6
 10
11574.30299363483
 20
15898.06295797934
 30
0.0
 11
11532.3736647651
 21
15931.02056986666
 31
0.0
  0
LINE
  5
100C9
  8
0-6
  6
CONTINUOUS
 62
     6
 10
7248.3086933419409
 20
16944.10254427827
 30
0.0
 11
7279.9483397106942
 21
16784.988192000001
 31
0.0
  0
LINE
  5
100CA
  8
0-6
  6
CONTINUOUS
 62
     6
 10
7279.9483397106942
 20
16784.988192000001
 30
0.0
 11
7198.4222138083323
 21
16925.24486784335
 31
0.0
  0
LINE
  5
100CB
  8
0-6
  6
CONTINUOUS
 62
     6
 10
7198.4222138083323
 20
16925.24486784335
 30
0.0
 11
7248.3086933419409
 21
16944.10254427827
 31
0.0
  0
LINE
  5
100CC
  8
0-6
  6
CONTINUOUS
 62
     6
 10
13466.43273758199
 20
15474.908203041959
 30
0.0
 11
13534.643887151051
 21
15622.07550424462
 31
0.0
  0
LINE
  5
100CD
  8
0-6
  6
CONTINUOUS
 62
     6
 10
13534.643887151051
 20
15622.07550424462
 30
0.0
 11
13422.38834065885
 21
15504.98496113426
 31
0.0
  0
LINE
  5
100CE
  8
0-6
  6
CONTINUOUS
 62
     6
 10
13422.38834065885
 20
15504.98496113426
 30
0.0
 11
13466.43273758199
 21
15474.908203041959
 31
0.0
  0
TEXT
  5
100CF
  8
0
  6
CONTINUOUS
 62
     7
 10
8578.7268514843745
 20
12759.985644999981
 30
0.0
 40
160.0
  1
ケラバ外寸8439.5
  0
TEXT
  5
100D0
  8
0
  6
CONTINUOUS
 62
     7
 10
4743.996374151051
 20
20219.984918999991
 30
0.0
 40
160.0
  1
85.5
  0
TEXT
  5
100D1
  8
0
  6
CONTINUOUS
 62
     7
 10
6553.3935181510387
 20
20219.986634999979
 30
0.0
 40
160.0
  1
3268.5
  0
TEXT
  5
100D2
  8
0
  6
CONTINUOUS
 62
     7
 10
10834.31018481769
 20
20219.986634999979
 30
0.0
 40
160.0
  1
5000
  0
TEXT
  5
100D3
  8
0
  6
CONTINUOUS
 62
     7
 10
13733.991306151051
 20
20219.984918999991
 30
0.0
 40
160.0
  1
85.5
  0
TEXT
  5
100D4
  8
0
  6
CONTINUOUS
 62
     7
 10
4709.6438081510487
 20
19691.414439666671
 30
0.0
 40
160.0
  1
10
 50
90.0
  0
TEXT
  5
100D5
  8
0
  6
CONTINUOUS
 62
     7
 10
4309.6437421510491
 20
19598.467233389241
 30
0.0
 40
160.0
  1
222.5
 50
90.0
  0
TEXT
  5
100D6
  8
0
  6
CONTINUOUS
 62
     7
 10
4309.6437421510436
 20
17613.735711000001
 30
0.0
 40
160.0
  1
2567.5
 50
90.0
  0
TEXT
  5
100D7
  8
0
  6
CONTINUOUS
 62
     7
 10
4309.6437421510436
 20
15046.23571099999
 30
0.0
 40
160.0
  1
2567.5
 50
90.0
  0
TEXT
  5
100D8
  8
0
  6
CONTINUOUS
 62
     7
 10
4309.6437421510336
 20
13305.99680859056
 30
0.0
 40
160.0
  1
192.5
 50
90.0
  0
TEXT
  5
100D9
  8
0
  6
CONTINUOUS
 62
     7
 10
29214.332490879529
 20
6589.002662000009
 30
0.0
 40
160.0
  1
有効高サ2020
 50
90.0
  0
TEXT
  5
100DA
  8
0
  6
CONTINUOUS
 62
     7
 10
25331.176759251841
 20
9469.1900500000029
 30
0.0
 40
160.0
  1
5000
  0
TEXT
  5
100DB
  8
0
  6
CONTINUOUS
 62
     7
 10
25288.676759251841
 20
5021.1885389999998
 30
0.0
 40
160.0
  1
5000
  0
TEXT
  5
100DC
  8
0
  6
CONTINUOUS
 62
     7
 10
28204.510752585171
 20
5021.1883080000007
 30
0.0
 40
160.0
  1
42.5
  0
TEXT
  5
100DD
  8
0
  6
CONTINUOUS
 62
     7
 10
20554.42675925183
 20
5421.188374000003
 30
0.0
 40
160.0
  1
有効開口巾3080.5
  0
TEXT
  5
100DE
  8
0
  6
CONTINUOUS
 62
     7
 10
21007.760092585158
 20
5021.1885389999998
 30
0.0
 40
160.0
  1
3268.5
  0
TEXT
  5
100DF
  8
0
  6
CONTINUOUS
 62
     7
 10
19151.18706158518
 20
5028.7357170000014
 30
0.0
 40
160.0
  1
42.5
  0
TEXT
  5
100E0
  8
0
  6
CONTINUOUS
 62
     7
 10
23507.780069058928
 20
4621.1887040000584
 30
0.0
 40
160.0
  1
8353.5
  0
TEXT
  5
100E1
  8
0
  6
CONTINUOUS
 62
     7
 10
24796.843425918501
 20
5421.188374000003
 30
0.0
 40
160.0
  1
有効開口巾4912
  0
TEXT
  5
100E2
  8
0
  6
CONTINUOUS
 62
     7
 10
18843.506793585169
 20
6264.2717073333397
 30
0.0
 40
160.0
  1
有効開口高サ1891.5
 50
90.0
  0
TEXT
  5
100E3
  8
0
  6
CONTINUOUS
 62
     7
 10
18443.50745358516
 20
6610.3550536666689
 30
0.0
 40
160.0
  1
2349（2589）
 50
90.0
  0
TEXT
  5
100E4
  8
0
  6
CONTINUOUS
 62
     7
 10
21007.760092585158
 20
9469.1900500000029
 30
0.0
 40
160.0
  1
3353.5
  0
TEXT
  5
100E5
  8
0
  6
CONTINUOUS
 62
     7
 10
19361.202106585159
 20
9469.1893240000027
 30
0.0
 40
160.0
  1
43
  0
TEXT
  5
100E6
  8
0
  6
CONTINUOUS
 62
     7
 10
28261.975912585189
 20
9469.1893240000027
 30
0.0
 40
160.0
  1
43
  0
TEXT
  5
100E7
  8
0
  6
CONTINUOUS
 62
     7
 10
23507.760092585158
 20
9869.1329740000037
 30
0.0
 40
160.0
  1
8439.5
  0
TEXT
  5
100E8
  8
0
  6
CONTINUOUS
 62
     7
 10
9999.9835704709403
 20
5021.1885389999998
 30
0.0
 40
160.0
  1
2567.5
  0
TEXT
  5
100E9
  8
0
  6
CONTINUOUS
 62
     7
 10
7432.4835704709412
 20
5021.1885389999998
 30
0.0
 40
160.0
  1
2567.5
  0
TEXT
  5
100EA
  8
0
  6
CONTINUOUS
 62
     7
 10
5924.2439564709493
 20
5022.1790570000003
 30
0.0
 40
160.0
  1
42.5
  0
TEXT
  5
100EB
  8
0
  6
CONTINUOUS
 62
     7
 10
11846.23522047094
 20
5021.1883080000007
 30
0.0
 40
160.0
  1
42.5
  0
TEXT
  5
100EC
  8
0
  6
CONTINUOUS
 62
     7
 10
8836.2335704709403
 20
4621.1887039999983
 30
0.0
 40
160.0
  1
5220
  0
TEXT
  5
100ED
  8
0
  6
CONTINUOUS
 62
     7
 10
5336.23317447095
 20
6326.9383740000048
 30
0.0
 40
160.0
  1
2155.5（2395.5）
 50
90.0
  0
TEXT
  5
100EE
  8
0
  6
CONTINUOUS
 62
     7
 10
12736.23396647094
 20
6610.35504066667
 30
0.0
 40
160.0
  1
2349（2589）
 50
90.0
  0
TEXT
  5
100EF
  8
0
  6
CONTINUOUS
 62
     7
 10
5871.8917553358442
 20
9469.1900500000029
 30
0.0
 40
160.0
  1
180
  0
TEXT
  5
100F0
  8
0
  6
CONTINUOUS
 62
     7
 10
8836.2335704709403
 20
9469.1900500000029
 30
0.0
 40
160.0
  1
5220
  0
TEXT
  5
100F1
  8
0
  6
CONTINUOUS
 62
     7
 10
11942.900237137599
 20
9469.1900500000029
 30
0.0
 40
160.0
  1
150
  0
TEXT
  5
100F2
  8
0
  6
CONTINUOUS
 62
     7
 10
8821.2335704709403
 20
9869.1883999999955
 30
0.0
 40
160.0
  1
5550
  0
TEXT
  5
100F8
  8
0
  6
CONTINUOUS
 62
     7
 10
29200.855577953771
 20
15066.73625200001
 30
0.0
 40
160.0
  1
2567.5
 50
90.0
  0
TEXT
  5
100F9
  8
0
  6
CONTINUOUS
 62
     7
 10
29200.855577953771
 20
17634.23625200001
 30
0.0
 40
160.0
  1
2567.5
 50
90.0
  0
TEXT
  5
100FA
  8
0
  6
CONTINUOUS
 62
     7
 10
28203.933881585119
 20
20240.485459999989
 30
0.0
 40
160.0
  1
42.5
  0
TEXT
  5
100FB
  8
0
  6
CONTINUOUS
 62
     7
 10
27525.83791458515
 20
20259.829315999999
 30
0.0
 40
160.0
  1
42.5
  0
TEXT
  5
100FC
  8
0
  6
CONTINUOUS
 62
     7
 10
21028.76195358513
 20
20640.487175999991
 30
0.0
 40
160.0
  1
3268.5
  0
TEXT
  5
100FD
  8
0
  6
CONTINUOUS
 62
     7
 10
25309.678620251801
 20
20640.487175999991
 30
0.0
 40
160.0
  1
5000
  0
TEXT
  5
10101
  8
0
  6
CONTINUOUS
 62
     7
 10
19257.33791458515
 20
20259.829315999999
 30
0.0
 40
160.0
  1
42.5
  0
TEXT
  5
10102
  8
0
  6
CONTINUOUS
 62
     7
 10
19836.08990941173
 20
20240.485459999989
 30
0.0
 40
160.0
  1
407.5
  0
TEXT
  5
10103
  8
0
  6
CONTINUOUS
 62
     7
 10
20379.687944965881
 20
19917.053673743929
 30
0.0
 40
160.0
  1
701
  0
TEXT
  5
10104
  8
0
  6
CONTINUOUS
 62
     7
 10
21080.178620251801
 20
20240.487175999991
 30
0.0
 40
160.0
  1
701
  0
TEXT
  5
10105
  8
0
  6
CONTINUOUS
 62
     7
 10
22470.678620251801
 20
20240.487175999991
 30
0.0
 40
160.0
  1
758
  0
TEXT
  5
10106
  8
0
  6
CONTINUOUS
 62
     7
 10
23203.933881585119
 20
20240.487175999991
 30
0.0
 40
160.0
  1
42.5
  0
TEXT
  5
1010F
  8
0
  6
CONTINUOUS
 62
     7
 10
21781.178620251801
 20
20240.487175999991
 30
0.0
 40
160.0
  1
701
  0
ARC
  5
10110
  8
0
  6
BYBLOCK
 62
     0
 10
21604.011953585141
 20
20160.487175999991
 30
0.0
 40
15.0
 50
0.0
 51
180.0
  0
ARC
  5
10111
  8
0
  6
BYBLOCK
 62
     0
 10
21604.011953585141
 20
20160.487175999991
 30
0.0
 40
15.0
 50
180.0
 51
0.0
  0
ARC
  5
10112
  8
0
  6
BYBLOCK
 62
     0
 10
22305.011953585141
 20
20160.487175999991
 30
0.0
 40
15.0
 50
180.0
 51
0.0
  0
ARC
  5
10113
  8
0
  6
BYBLOCK
 62
     0
 10
22305.011953585141
 20
20160.487175999991
 30
0.0
 40
15.0
 50
0.0
 51
180.0
  0
ARC
  5
10134
  8
0
  6
BYBLOCK
 62
     0
 10
23063.011953585141
 20
20160.487175999991
 30
0.0
 40
15.0
 50
180.0
 51
0.0
  0
ARC
  5
10135
  8
0
  6
BYBLOCK
 62
     0
 10
23063.011953585141
 20
20160.487175999991
 30
0.0
 40
15.0
 50
0.0
 51
180.0
  0
ARC
  5
10136
  8
0
  6
BYBLOCK
 62
     0
 10
23105.511953585141
 20
20160.487175999991
 30
0.0
 40
15.0
 50
0.0
 51
180.0
  0
ARC
  5
10137
  8
0
  6
BYBLOCK
 62
     0
 10
23105.511953585141
 20
20160.487175999991
 30
0.0
 40
15.0
 50
180.0
 51
0.0
  0
ARC
  5
10138
  8
0
  6
BYBLOCK
 62
     0
 10
22305.011953585141
 20
20160.487175999991
 30
0.0
 40
15.0
 50
0.0
 51
180.0
  0
ARC
  5
10139
  8
0
  6
BYBLOCK
 62
     0
 10
22305.011953585141
 20
20160.487175999991
 30
0.0
 40
15.0
 50
180.0
 51
0.0
  0
ARC
  5
1013A
  8
0
  6
BYBLOCK
 62
     0
 10
23063.011953585141
 20
20160.487175999991
 30
0.0
 40
15.0
 50
180.0
 51
0.0
  0
ARC
  5
1013B
  8
0
  6
BYBLOCK
 62
     0
 10
23063.011953585141
 20
20160.487175999991
 30
0.0
 40
15.0
 50
0.0
 51
180.0
  0
ARC
  5
1013C
  8
0
  6
BYBLOCK
 62
     0
 10
20903.01195358513
 20
20160.487175999991
 30
0.0
 40
15.0
 50
0.0
 51
180.0
  0
ARC
  5
1013D
  8
0
  6
BYBLOCK
 62
     0
 10
20903.01195358513
 20
20160.487175999991
 30
0.0
 40
15.0
 50
180.0
 51
0.0
  0
ARC
  5
1013E
  8
0
  6
BYBLOCK
 62
     0
 10
21604.011953585141
 20
20160.487175999991
 30
0.0
 40
15.0
 50
180.0
 51
0.0
  0
ARC
  5
1013F
  8
0
  6
BYBLOCK
 62
     0
 10
21604.011953585141
 20
20160.487175999991
 30
0.0
 40
15.0
 50
0.0
 51
180.0
  0
ARC
  5
10140
  8
0
  6
BYBLOCK
 62
     0
 10
20202.011953585141
 20
20160.487175999991
 30
0.0
 40
15.0
 50
0.0
 51
180.0
  0
ARC
  5
10141
  8
0
  6
BYBLOCK
 62
     0
 10
20202.011953585141
 20
20160.487175999991
 30
0.0
 40
15.0
 50
180.0
 51
0.0
  0
ARC
  5
10142
  8
0
  6
BYBLOCK
 62
     0
 10
20903.01195358513
 20
20160.487175999991
 30
0.0
 40
15.0
 50
180.0
 51
0.0
  0
ARC
  5
10143
  8
0
  6
BYBLOCK
 62
     0
 10
20903.01195358513
 20
20160.487175999991
 30
0.0
 40
15.0
 50
0.0
 51
180.0
  0
ARC
  5
10144
  8
0
  6
BYBLOCK
 62
     0
 10
19794.511953585141
 20
20160.487175999991
 30
0.0
 40
15.0
 50
0.0
 51
180.0
  0
ARC
  5
10145
  8
0
  6
BYBLOCK
 62
     0
 10
19794.511953585141
 20
20160.487175999991
 30
0.0
 40
15.0
 50
180.0
 51
0.0
  0
ARC
  5
10146
  8
0
  6
BYBLOCK
 62
     0
 10
20202.011953585141
 20
20160.487175999991
 30
0.0
 40
15.0
 50
180.0
 51
0.0
  0
ARC
  5
10147
  8
0
  6
BYBLOCK
 62
     0
 10
20202.011953585141
 20
20160.487175999991
 30
0.0
 40
15.0
 50
0.0
 51
180.0
  0
ARC
  5
10148
  8
0
  6
BYBLOCK
 62
     0
 10
19794.511953585141
 20
20160.487175999991
 30
0.0
 40
15.0
 50
0.0
 51
180.0
  0
ARC
  5
10149
  8
0
  6
BYBLOCK
 62
     0
 10
19794.511953585141
 20
20160.487175999991
 30
0.0
 40
15.0
 50
180.0
 51
0.0
  0
ARC
  5
1014A
  8
0
  6
BYBLOCK
 62
     0
 10
19752.011953585141
 20
20160.487175999991
 30
0.0
 40
15.0
 50
180.0
 51
0.0
  0
ARC
  5
1014B
  8
0
  6
BYBLOCK
 62
     0
 10
19752.011953585141
 20
20160.487175999991
 30
0.0
 40
15.0
 50
0.0
 51
180.0
  0
ARC
  5
10158
  8
0
  6
BYBLOCK
 62
     0
 10
23063.011953585141
 20
20560.487175999991
 30
0.0
 40
15.0
 50
0.0
 51
180.0
  0
ARC
  5
10159
  8
0
  6
BYBLOCK
 62
     0
 10
23063.011953585141
 20
20560.487175999991
 30
0.0
 40
15.0
 50
180.0
 51
0.0
  0
ARC
  5
1015A
  8
0
  6
BYBLOCK
 62
     0
 10
28063.011953585141
 20
20560.487175999991
 30
0.0
 40
15.0
 50
180.0
 51
0.0
  0
ARC
  5
1015B
  8
0
  6
BYBLOCK
 62
     0
 10
28063.011953585141
 20
20560.487175999991
 30
0.0
 40
15.0
 50
0.0
 51
180.0
  0
ARC
  5
1015C
  8
0
  6
BYBLOCK
 62
     0
 10
19794.511953585141
 20
20560.487175999991
 30
0.0
 40
15.0
 50
0.0
 51
180.0
  0
ARC
  5
1015D
  8
0
  6
BYBLOCK
 62
     0
 10
19794.511953585141
 20
20560.487175999991
 30
0.0
 40
15.0
 50
180.0
 51
0.0
  0
ARC
  5
1015E
  8
0
  6
BYBLOCK
 62
     0
 10
23063.011953585141
 20
20560.487175999991
 30
0.0
 40
15.0
 50
180.0
 51
0.0
  0
ARC
  5
1015F
  8
0
  6
BYBLOCK
 62
     0
 10
23063.011953585141
 20
20560.487175999991
 30
0.0
 40
15.0
 50
0.0
 51
180.0
  0
ARC
  5
10160
  8
0
  6
BYBLOCK
 62
     0
 10
28063.011953585141
 20
20160.487175999991
 30
0.0
 40
15.0
 50
0.0
 51
180.0
  0
ARC
  5
10161
  8
0
  6
BYBLOCK
 62
     0
 10
28063.011953585141
 20
20160.487175999991
 30
0.0
 40
15.0
 50
180.0
 51
0.0
  0
ARC
  5
10162
  8
0
  6
BYBLOCK
 62
     0
 10
28020.509710585138
 20
20160.487175999991
 30
0.0
 40
15.0
 50
180.0
 51
0.0
  0
ARC
  5
10163
  8
0
  6
BYBLOCK
 62
     0
 10
28020.509710585138
 20
20160.487175999991
 30
0.0
 40
15.0
 50
0.0
 51
180.0
  0
ARC
  5
10164
  8
0
  6
BYBLOCK
 62
     0
 10
28063.011953585141
 20
20160.487175999991
 30
0.0
 40
15.0
 50
180.0
 51
0.0
  0
ARC
  5
10165
  8
0
  6
BYBLOCK
 62
     0
 10
28063.011953585141
 20
20160.487175999991
 30
0.0
 40
15.0
 50
0.0
 51
180.0
  0
ARC
  5
10166
  8
0
  6
BYBLOCK
 62
     0
 10
28105.510238585121
 20
20160.487175999991
 30
0.0
 40
15.0
 50
0.0
 51
180.0
  0
ARC
  5
10167
  8
0
  6
BYBLOCK
 62
     0
 10
28105.510238585121
 20
20160.487175999991
 30
0.0
 40
15.0
 50
180.0
 51
0.0
  0
ARC
  5
10168
  8
0
  6
BYBLOCK
 62
     0
 10
29280.855577953771
 20
16750.486251999992
 30
0.0
 40
15.0
 50
90.0
 51
270.0
  0
ARC
  5
10169
  8
0
  6
BYBLOCK
 62
     0
 10
29280.855577953771
 20
16750.486251999992
 30
0.0
 40
15.0
 50
270.0
 51
90.0
  0
ARC
  5
1016A
  8
0
  6
BYBLOCK
 62
     0
 10
29280.855577953771
 20
19317.986251999992
 30
0.0
 40
15.0
 50
270.0
 51
90.0
  0
ARC
  5
1016B
  8
0
  6
BYBLOCK
 62
     0
 10
29280.855577953771
 20
19317.986251999992
 30
0.0
 40
15.0
 50
90.0
 51
270.0
  0
ARC
  5
1016C
  8
0
  6
BYBLOCK
 62
     0
 10
29280.855577953771
 20
14182.986252000001
 30
0.0
 40
15.0
 50
90.0
 51
270.0
  0
ARC
  5
1016D
  8
0
  6
BYBLOCK
 62
     0
 10
29280.855577953771
 20
14182.986252000001
 30
0.0
 40
15.0
 50
270.0
 51
90.0
  0
ARC
  5
1016E
  8
0
  6
BYBLOCK
 62
     0
 10
29280.855577953771
 20
16750.486251999992
 30
0.0
 40
15.0
 50
270.0
 51
90.0
  0
ARC
  5
1016F
  8
0
  6
BYBLOCK
 62
     0
 10
29280.855577953771
 20
16750.486251999992
 30
0.0
 40
15.0
 50
90.0
 51
270.0
  0
ARC
  5
10184
  8
0
  6
BYBLOCK
 62
     0
 10
6326.2335704709403
 20
9789.1883999999955
 30
0.0
 40
15.0
 50
0.0
 51
180.0
  0
ARC
  5
10185
  8
0
  6
BYBLOCK
 62
     0
 10
6326.2335704709403
 20
9789.1883999999955
 30
0.0
 40
15.0
 50
180.0
 51
0.0
  0
ARC
  5
10186
  8
0
  6
BYBLOCK
 62
     0
 10
11876.233570470929
 20
9789.1883999999955
 30
0.0
 40
15.0
 50
180.0
 51
0.0
  0
ARC
  5
10187
  8
0
  6
BYBLOCK
 62
     0
 10
11876.233570470929
 20
9789.1883999999955
 30
0.0
 40
15.0
 50
0.0
 51
180.0
  0
ARC
  5
10188
  8
0
  6
BYBLOCK
 62
     0
 10
11726.23357047094
 20
9389.1900500000029
 30
0.0
 40
15.0
 50
180.0
 51
0.0
  0
ARC
  5
10189
  8
0
  6
BYBLOCK
 62
     0
 10
11726.23357047094
 20
9389.1900500000029
 30
0.0
 40
15.0
 50
0.0
 51
180.0
  0
ARC
  5
1018A
  8
0
  6
BYBLOCK
 62
     0
 10
11876.233570470929
 20
9389.1900500000029
 30
0.0
 40
15.0
 50
0.0
 51
180.0
  0
ARC
  5
1018B
  8
0
  6
BYBLOCK
 62
     0
 10
11876.233570470929
 20
9389.1900500000029
 30
0.0
 40
15.0
 50
180.0
 51
0.0
  0
ARC
  5
1018C
  8
0
  6
BYBLOCK
 62
     0
 10
6506.2335704709376
 20
9389.1900500000029
 30
0.0
 40
15.0
 50
0.0
 51
180.0
  0
ARC
  5
1018D
  8
0
  6
BYBLOCK
 62
     0
 10
6506.2335704709376
 20
9389.1900500000029
 30
0.0
 40
15.0
 50
180.0
 51
0.0
  0
ARC
  5
1018E
  8
0
  6
BYBLOCK
 62
     0
 10
11726.23357047094
 20
9389.1900500000029
 30
0.0
 40
15.0
 50
180.0
 51
0.0
  0
ARC
  5
1018F
  8
0
  6
BYBLOCK
 62
     0
 10
11726.23357047094
 20
9389.1900500000029
 30
0.0
 40
15.0
 50
0.0
 51
180.0
  0
ARC
  5
10190
  8
0
  6
BYBLOCK
 62
     0
 10
6326.2335704709403
 20
9389.1900500000029
 30
0.0
 40
15.0
 50
0.0
 51
180.0
  0
ARC
  5
10191
  8
0
  6
BYBLOCK
 62
     0
 10
6326.2335704709403
 20
9389.1900500000029
 30
0.0
 40
15.0
 50
180.0
 51
0.0
  0
ARC
  5
10192
  8
0
  6
BYBLOCK
 62
     0
 10
6506.2335704709376
 20
9389.1900500000029
 30
0.0
 40
15.0
 50
180.0
 51
0.0
  0
ARC
  5
10193
  8
0
  6
BYBLOCK
 62
     0
 10
6506.2335704709376
 20
9389.1900500000029
 30
0.0
 40
15.0
 50
0.0
 51
180.0
  0
ARC
  5
10194
  8
0
  6
BYBLOCK
 62
     0
 10
12816.23396647094
 20
6241.1883740000021
 30
0.0
 40
15.0
 50
90.0
 51
270.0
  0
ARC
  5
10195
  8
0
  6
BYBLOCK
 62
     0
 10
12816.23396647094
 20
6241.1883740000021
 30
0.0
 40
15.0
 50
270.0
 51
90.0
  0
ARC
  5
10196
  8
0
  6
BYBLOCK
 62
     0
 10
12816.23396647094
 20
8590.188374000003
 30
0.0
 40
15.0
 50
270.0
 51
90.0
  0
ARC
  5
10197
  8
0
  6
BYBLOCK
 62
     0
 10
12816.23396647094
 20
8590.188374000003
 30
0.0
 40
15.0
 50
90.0
 51
270.0
  0
ARC
  5
10198
  8
0
  6
BYBLOCK
 62
     0
 10
5416.2331744709518
 20
6241.1883740000039
 30
0.0
 40
15.0
 50
90.0
 51
270.0
  0
ARC
  5
10199
  8
0
  6
BYBLOCK
 62
     0
 10
5416.2331744709518
 20
6241.1883740000039
 30
0.0
 40
15.0
 50
270.0
 51
90.0
  0
ARC
  5
1019A
  8
0
  6
BYBLOCK
 62
     0
 10
5416.2331744709518
 20
8396.688374000003
 30
0.0
 40
15.0
 50
270.0
 51
90.0
  0
ARC
  5
1019B
  8
0
  6
BYBLOCK
 62
     0
 10
5416.2331744709518
 20
8396.688374000003
 30
0.0
 40
15.0
 50
90.0
 51
270.0
  0
ARC
  5
1019C
  8
0
  6
BYBLOCK
 62
     0
 10
6506.2335704709376
 20
4541.1887039999983
 30
0.0
 40
15.0
 50
0.0
 51
180.0
  0
ARC
  5
1019D
  8
0
  6
BYBLOCK
 62
     0
 10
6506.2335704709376
 20
4541.1887039999983
 30
0.0
 40
15.0
 50
180.0
 51
0.0
  0
ARC
  5
1019E
  8
0
  6
BYBLOCK
 62
     0
 10
11726.23357047094
 20
4541.1887039999983
 30
0.0
 40
15.0
 50
180.0
 51
0.0
  0
ARC
  5
1019F
  8
0
  6
BYBLOCK
 62
     0
 10
11726.23357047094
 20
4541.1887039999983
 30
0.0
 40
15.0
 50
0.0
 51
180.0
  0
ARC
  5
101A0
  8
0
  6
BYBLOCK
 62
     0
 10
11683.733570470929
 20
4941.1885390000016
 30
0.0
 40
15.0
 50
180.0
 51
0.0
  0
ARC
  5
101A1
  8
0
  6
BYBLOCK
 62
     0
 10
11683.733570470929
 20
4941.1885390000016
 30
0.0
 40
15.0
 50
0.0
 51
180.0
  0
ARC
  5
101A2
  8
0
  6
BYBLOCK
 62
     0
 10
11726.23357047094
 20
4941.1885390000016
 30
0.0
 40
15.0
 50
0.0
 51
180.0
  0
ARC
  5
101A3
  8
0
  6
BYBLOCK
 62
     0
 10
11726.23357047094
 20
4941.1885390000016
 30
0.0
 40
15.0
 50
180.0
 51
0.0
  0
ARC
  5
101A4
  8
0
  6
BYBLOCK
 62
     0
 10
6548.7335704709412
 20
4941.1885390000016
 30
0.0
 40
15.0
 50
0.0
 51
180.0
  0
ARC
  5
101A5
  8
0
  6
BYBLOCK
 62
     0
 10
6548.7335704709412
 20
4941.1885390000016
 30
0.0
 40
15.0
 50
180.0
 51
0.0
  0
ARC
  5
101A6
  8
0
  6
BYBLOCK
 62
     0
 10
6506.2335704709376
 20
4941.1885390000016
 30
0.0
 40
15.0
 50
180.0
 51
0.0
  0
ARC
  5
101A7
  8
0
  6
BYBLOCK
 62
     0
 10
6506.2335704709376
 20
4941.1885390000016
 30
0.0
 40
15.0
 50
0.0
 51
180.0
  0
ARC
  5
101A8
  8
0
  6
BYBLOCK
 62
     0
 10
9116.2335704709403
 20
4941.1885390000016
 30
0.0
 40
15.0
 50
180.0
 51
0.0
  0
ARC
  5
101A9
  8
0
  6
BYBLOCK
 62
     0
 10
9116.2335704709403
 20
4941.1885390000016
 30
0.0
 40
15.0
 50
0.0
 51
180.0
  0
ARC
  5
101AA
  8
0
  6
BYBLOCK
 62
     0
 10
6548.7335704709412
 20
4941.1885390000016
 30
0.0
 40
15.0
 50
0.0
 51
180.0
  0
ARC
  5
101AB
  8
0
  6
BYBLOCK
 62
     0
 10
6548.7335704709412
 20
4941.1885390000016
 30
0.0
 40
15.0
 50
180.0
 51
0.0
  0
ARC
  5
101AC
  8
0
  6
BYBLOCK
 62
     0
 10
9116.2335704709403
 20
4941.1885390000016
 30
0.0
 40
15.0
 50
0.0
 51
180.0
  0
ARC
  5
101AD
  8
0
  6
BYBLOCK
 62
     0
 10
9116.2335704709403
 20
4941.1885390000016
 30
0.0
 40
15.0
 50
180.0
 51
0.0
  0
ARC
  5
101AE
  8
0
  6
BYBLOCK
 62
     0
 10
11683.733570470929
 20
4941.1885390000016
 30
0.0
 40
15.0
 50
180.0
 51
0.0
  0
ARC
  5
101AF
  8
0
  6
BYBLOCK
 62
     0
 10
11683.733570470929
 20
4941.1885390000016
 30
0.0
 40
15.0
 50
0.0
 51
180.0
  0
ARC
  5
101B0
  8
0
  6
BYBLOCK
 62
     0
 10
19688.010092585158
 20
9789.1329740000037
 30
0.0
 40
15.0
 50
0.0
 51
180.0
  0
ARC
  5
101B1
  8
0
  6
BYBLOCK
 62
     0
 10
19688.010092585158
 20
9789.1329740000037
 30
0.0
 40
15.0
 50
180.0
 51
0.0
  0
ARC
  5
101B2
  8
0
  6
BYBLOCK
 62
     0
 10
28127.510092585158
 20
9789.1329740000037
 30
0.0
 40
15.0
 50
180.0
 51
0.0
  0
ARC
  5
101B3
  8
0
  6
BYBLOCK
 62
     0
 10
28127.510092585158
 20
9789.1329740000037
 30
0.0
 40
15.0
 50
0.0
 51
180.0
  0
ARC
  5
101B4
  8
0
  6
BYBLOCK
 62
     0
 10
28084.510092585158
 20
9389.1900500000029
 30
0.0
 40
15.0
 50
180.0
 51
0.0
  0
ARC
  5
101B5
  8
0
  6
BYBLOCK
 62
     0
 10
28084.510092585158
 20
9389.1900500000029
 30
0.0
 40
15.0
 50
0.0
 51
180.0
  0
ARC
  5
101B6
  8
0
  6
BYBLOCK
 62
     0
 10
28127.510092585158
 20
9389.1900500000029
 30
0.0
 40
15.0
 50
0.0
 51
180.0
  0
ARC
  5
101B7
  8
0
  6
BYBLOCK
 62
     0
 10
28127.510092585158
 20
9389.1900500000029
 30
0.0
 40
15.0
 50
180.0
 51
0.0
  0
ARC
  5
101B8
  8
0
  6
BYBLOCK
 62
     0
 10
19731.010092585158
 20
9389.1900500000029
 30
0.0
 40
15.0
 50
0.0
 51
180.0
  0
ARC
  5
101B9
  8
0
  6
BYBLOCK
 62
     0
 10
19731.010092585158
 20
9389.1900500000029
 30
0.0
 40
15.0
 50
180.0
 51
0.0
  0
ARC
  5
101BA
  8
0
  6
BYBLOCK
 62
     0
 10
19688.010092585158
 20
9389.1900500000029
 30
0.0
 40
15.0
 50
180.0
 51
0.0
  0
ARC
  5
101BB
  8
0
  6
BYBLOCK
 62
     0
 10
19688.010092585158
 20
9389.1900500000029
 30
0.0
 40
15.0
 50
0.0
 51
180.0
  0
ARC
  5
101BC
  8
0
  6
BYBLOCK
 62
     0
 10
23084.510092585158
 20
9389.1900500000029
 30
0.0
 40
15.0
 50
180.0
 51
0.0
  0
ARC
  5
101BD
  8
0
  6
BYBLOCK
 62
     0
 10
23084.510092585158
 20
9389.1900500000029
 30
0.0
 40
15.0
 50
0.0
 51
180.0
  0
ARC
  5
101BE
  8
0
  6
BYBLOCK
 62
     0
 10
19731.010092585158
 20
9389.1900500000029
 30
0.0
 40
15.0
 50
0.0
 51
180.0
  0
ARC
  5
101BF
  8
0
  6
BYBLOCK
 62
     0
 10
19731.010092585158
 20
9389.1900500000029
 30
0.0
 40
15.0
 50
180.0
 51
0.0
  0
ARC
  5
101C0
  8
0
  6
BYBLOCK
 62
     0
 10
18523.50745358516
 20
6241.1883740000021
 30
0.0
 40
15.0
 50
90.0
 51
270.0
  0
ARC
  5
101C1
  8
0
  6
BYBLOCK
 62
     0
 10
18523.50745358516
 20
6241.1883740000021
 30
0.0
 40
15.0
 50
270.0
 51
90.0
  0
ARC
  5
101C2
  8
0
  6
BYBLOCK
 62
     0
 10
18523.50745358516
 20
8590.1883999999973
 30
0.0
 40
15.0
 50
270.0
 51
90.0
  0
ARC
  5
101C3
  8
0
  6
BYBLOCK
 62
     0
 10
18523.50745358516
 20
8590.1883999999973
 30
0.0
 40
15.0
 50
90.0
 51
270.0
  0
ARC
  5
101C4
  8
0
  6
BYBLOCK
 62
     0
 10
18923.506793585158
 20
6241.1883740000021
 30
0.0
 40
15.0
 50
90.0
 51
270.0
  0
ARC
  5
101C5
  8
0
  6
BYBLOCK
 62
     0
 10
18923.506793585158
 20
6241.1883740000021
 30
0.0
 40
15.0
 50
270.0
 51
90.0
  0
ARC
  5
101C6
  8
0
  6
BYBLOCK
 62
     0
 10
18923.506793585158
 20
8132.6883740000021
 30
0.0
 40
15.0
 50
270.0
 51
90.0
  0
ARC
  5
101C7
  8
0
  6
BYBLOCK
 62
     0
 10
18923.506793585158
 20
8132.6883740000021
 30
0.0
 40
15.0
 50
90.0
 51
270.0
  0
ARC
  5
101C8
  8
0
  6
BYBLOCK
 62
     0
 10
23087.510092585158
 20
5341.188374000003
 30
0.0
 40
15.0
 50
0.0
 51
180.0
  0
ARC
  5
101C9
  8
0
  6
BYBLOCK
 62
     0
 10
23087.510092585158
 20
5341.188374000003
 30
0.0
 40
15.0
 50
180.0
 51
0.0
  0
ARC
  5
101CA
  8
0
  6
BYBLOCK
 62
     0
 10
27999.51009258518
 20
5341.188374000003
 30
0.0
 40
15.0
 50
180.0
 51
0.0
  0
ARC
  5
101CB
  8
0
  6
BYBLOCK
 62
     0
 10
27999.51009258518
 20
5341.188374000003
 30
0.0
 40
15.0
 50
0.0
 51
180.0
  0
ARC
  5
101CC
  8
0
  6
BYBLOCK
 62
     0
 10
19731.05004553268
 20
4541.1887040000556
 30
0.0
 40
15.0
 50
0.0
 51
180.0
  0
ARC
  5
101CD
  8
0
  6
BYBLOCK
 62
     0
 10
19731.05004553268
 20
4541.1887040000556
 30
0.0
 40
15.0
 50
180.0
 51
0.0
  0
ARC
  5
101CE
  8
0
  6
BYBLOCK
 62
     0
 10
28084.510092585158
 20
4541.1887040000556
 30
0.0
 40
15.0
 50
180.0
 51
0.0
  0
ARC
  5
101CF
  8
0
  6
BYBLOCK
 62
     0
 10
28084.510092585158
 20
4541.1887040000556
 30
0.0
 40
15.0
 50
0.0
 51
180.0
  0
ARC
  5
101D0
  8
0
  6
BYBLOCK
 62
     0
 10
19773.510092585158
 20
4941.1885390000016
 30
0.0
 40
15.0
 50
0.0
 51
180.0
  0
ARC
  5
101D1
  8
0
  6
BYBLOCK
 62
     0
 10
19773.510092585158
 20
4941.1885390000016
 30
0.0
 40
15.0
 50
180.0
 51
0.0
  0
ARC
  5
101D2
  8
0
  6
BYBLOCK
 62
     0
 10
19731.05004553268
 20
4941.1885390000016
 30
0.0
 40
15.0
 50
180.0
 51
0.0
  0
ARC
  5
101D3
  8
0
  6
BYBLOCK
 62
     0
 10
19731.05004553268
 20
4941.1885390000016
 30
0.0
 40
15.0
 50
0.0
 51
180.0
  0
ARC
  5
101D4
  8
0
  6
BYBLOCK
 62
     0
 10
23042.010092585158
 20
4941.1885390000016
 30
0.0
 40
15.0
 50
180.0
 51
0.0
  0
ARC
  5
101D5
  8
0
  6
BYBLOCK
 62
     0
 10
23042.010092585158
 20
4941.1885390000016
 30
0.0
 40
15.0
 50
0.0
 51
180.0
  0
ARC
  5
101D6
  8
0
  6
BYBLOCK
 62
     0
 10
19773.510092585158
 20
4941.1885390000016
 30
0.0
 40
15.0
 50
0.0
 51
180.0
  0
ARC
  5
101D7
  8
0
  6
BYBLOCK
 62
     0
 10
19773.510092585158
 20
4941.1885390000016
 30
0.0
 40
15.0
 50
180.0
 51
0.0
  0
ARC
  5
101D8
  8
0
  6
BYBLOCK
 62
     0
 10
19867.510092585158
 20
5341.188374000003
 30
0.0
 40
15.0
 50
0.0
 51
180.0
  0
ARC
  5
101D9
  8
0
  6
BYBLOCK
 62
     0
 10
19867.510092585158
 20
5341.188374000003
 30
0.0
 40
15.0
 50
180.0
 51
0.0
  0
ARC
  5
101DA
  8
0
  6
BYBLOCK
 62
     0
 10
22948.010092585158
 20
5341.188374000003
 30
0.0
 40
15.0
 50
180.0
 51
0.0
  0
ARC
  5
101DB
  8
0
  6
BYBLOCK
 62
     0
 10
22948.010092585158
 20
5341.188374000003
 30
0.0
 40
15.0
 50
0.0
 51
180.0
  0
ARC
  5
101DC
  8
0
  6
BYBLOCK
 62
     0
 10
28042.010092585158
 20
4941.1885390000016
 30
0.0
 40
15.0
 50
180.0
 51
0.0
  0
ARC
  5
101DD
  8
0
  6
BYBLOCK
 62
     0
 10
28042.010092585158
 20
4941.1885390000016
 30
0.0
 40
15.0
 50
0.0
 51
180.0
  0
ARC
  5
101DE
  8
0
  6
BYBLOCK
 62
     0
 10
28084.510092585158
 20
4941.1885390000016
 30
0.0
 40
15.0
 50
0.0
 51
180.0
  0
ARC
  5
101DF
  8
0
  6
BYBLOCK
 62
     0
 10
28084.510092585158
 20
4941.1885390000016
 30
0.0
 40
15.0
 50
180.0
 51
0.0
  0
ARC
  5
101E0
  8
0
  6
BYBLOCK
 62
     0
 10
23042.010092585158
 20
4941.1885390000016
 30
0.0
 40
15.0
 50
0.0
 51
180.0
  0
ARC
  5
101E1
  8
0
  6
BYBLOCK
 62
     0
 10
23042.010092585158
 20
4941.1885390000016
 30
0.0
 40
15.0
 50
180.0
 51
0.0
  0
ARC
  5
101E2
  8
0
  6
BYBLOCK
 62
     0
 10
28042.010092585158
 20
4941.1885390000016
 30
0.0
 40
15.0
 50
180.0
 51
0.0
  0
ARC
  5
101E3
  8
0
  6
BYBLOCK
 62
     0
 10
28042.010092585158
 20
4941.1885390000016
 30
0.0
 40
15.0
 50
0.0
 51
180.0
  0
ARC
  5
101E4
  8
0
  6
BYBLOCK
 62
     0
 10
23084.510092585158
 20
9389.1900500000029
 30
0.0
 40
15.0
 50
0.0
 51
180.0
  0
ARC
  5
101E5
  8
0
  6
BYBLOCK
 62
     0
 10
23084.510092585158
 20
9389.1900500000029
 30
0.0
 40
15.0
 50
180.0
 51
0.0
  0
ARC
  5
101E6
  8
0
  6
BYBLOCK
 62
     0
 10
28084.510092585158
 20
9389.1900500000029
 30
0.0
 40
15.0
 50
180.0
 51
0.0
  0
ARC
  5
101E7
  8
0
  6
BYBLOCK
 62
     0
 10
28084.510092585158
 20
9389.1900500000029
 30
0.0
 40
15.0
 50
0.0
 51
180.0
  0
ARC
  5
101E8
  8
0
  6
BYBLOCK
 62
     0
 10
29294.332490879529
 20
6242.0026620000026
 30
0.0
 40
15.0
 50
90.0
 51
270.0
  0
ARC
  5
101E9
  8
0
  6
BYBLOCK
 62
     0
 10
29294.332490879529
 20
6242.0026620000026
 30
0.0
 40
15.0
 50
270.0
 51
90.0
  0
ARC
  5
101EA
  8
0
  6
BYBLOCK
 62
     0
 10
29294.332490879551
 20
8262.0026620000026
 30
0.0
 40
15.0
 50
270.0
 51
90.0
  0
ARC
  5
101EB
  8
0
  6
BYBLOCK
 62
     0
 10
29294.332490879551
 20
8262.0026620000026
 30
0.0
 40
15.0
 50
90.0
 51
270.0
  0
ARC
  5
101EC
  8
0
  6
BYBLOCK
 62
     0
 10
4389.6437421510464
 20
14162.48571100001
 30
0.0
 40
15.0
 50
270.0
 51
90.0
  0
ARC
  5
101ED
  8
0
  6
BYBLOCK
 62
     0
 10
4389.6437421510464
 20
14162.48571100001
 30
0.0
 40
15.0
 50
90.0
 51
270.0
  0
ARC
  5
101EE
  8
0
  6
BYBLOCK
 62
     0
 10
4389.6437421510464
 20
13969.98643699999
 30
0.0
 40
15.0
 50
90.0
 51
270.0
  0
ARC
  5
101EF
  8
0
  6
BYBLOCK
 62
     0
 10
4389.6437421510464
 20
13969.98643699999
 30
0.0
 40
15.0
 50
270.0
 51
90.0
  0
ARC
  5
101F0
  8
0
  6
BYBLOCK
 62
     0
 10
4389.6437421510482
 20
16729.985711000001
 30
0.0
 40
15.0
 50
270.0
 51
90.0
  0
ARC
  5
101F1
  8
0
  6
BYBLOCK
 62
     0
 10
4389.6437421510482
 20
16729.985711000001
 30
0.0
 40
15.0
 50
90.0
 51
270.0
  0
ARC
  5
101F2
  8
0
  6
BYBLOCK
 62
     0
 10
4389.6437421510464
 20
14162.48571100001
 30
0.0
 40
15.0
 50
90.0
 51
270.0
  0
ARC
  5
101F3
  8
0
  6
BYBLOCK
 62
     0
 10
4389.6437421510464
 20
14162.48571100001
 30
0.0
 40
15.0
 50
270.0
 51
90.0
  0
ARC
  5
101F4
  8
0
  6
BYBLOCK
 62
     0
 10
4389.6437421510491
 20
19297.485711000001
 30
0.0
 40
15.0
 50
270.0
 51
90.0
  0
ARC
  5
101F5
  8
0
  6
BYBLOCK
 62
     0
 10
4389.6437421510491
 20
19297.485711000001
 30
0.0
 40
15.0
 50
90.0
 51
270.0
  0
ARC
  5
101F6
  8
0
  6
BYBLOCK
 62
     0
 10
4389.6437421510482
 20
16729.985711000001
 30
0.0
 40
15.0
 50
90.0
 51
270.0
  0
ARC
  5
101F7
  8
0
  6
BYBLOCK
 62
     0
 10
4389.6437421510482
 20
16729.985711000001
 30
0.0
 40
15.0
 50
270.0
 51
90.0
  0
ARC
  5
101F8
  8
0
  6
BYBLOCK
 62
     0
 10
4389.6437421510491
 20
19297.485711000001
 30
0.0
 40
15.0
 50
90.0
 51
270.0
  0
ARC
  5
101F9
  8
0
  6
BYBLOCK
 62
     0
 10
4389.6437421510491
 20
19297.485711000001
 30
0.0
 40
15.0
 50
270.0
 51
90.0
  0
ARC
  5
101FA
  8
0
  6
BYBLOCK
 62
     0
 10
4389.6437421510491
 20
19519.985579
 30
0.0
 40
15.0
 50
270.0
 51
90.0
  0
ARC
  5
101FB
  8
0
  6
BYBLOCK
 62
     0
 10
4389.6437421510491
 20
19519.985579
 30
0.0
 40
15.0
 50
90.0
 51
270.0
  0
ARC
  5
101FC
  8
0
  6
BYBLOCK
 62
     0
 10
4789.643083151047
 20
19509.98900999999
 30
0.0
 40
15.0
 50
270.0
 51
90.0
  0
ARC
  5
101FD
  8
0
  6
BYBLOCK
 62
     0
 10
4789.643083151047
 20
19509.98900999999
 30
0.0
 40
15.0
 50
90.0
 51
270.0
  0
ARC
  5
101FE
  8
0
  6
BYBLOCK
 62
     0
 10
4789.643083151047
 20
19519.985579
 30
0.0
 40
15.0
 50
90.0
 51
270.0
  0
ARC
  5
101FF
  8
0
  6
BYBLOCK
 62
     0
 10
4789.643083151047
 20
19519.985579
 30
0.0
 40
15.0
 50
270.0
 51
90.0
  0
ARC
  5
10200
  8
0
  6
BYBLOCK
 62
     0
 10
13587.643518151041
 20
20139.986634999979
 30
0.0
 40
15.0
 50
180.0
 51
0.0
  0
ARC
  5
10201
  8
0
  6
BYBLOCK
 62
     0
 10
13587.643518151041
 20
20139.986634999979
 30
0.0
 40
15.0
 50
0.0
 51
180.0
  0
ARC
  5
10202
  8
0
  6
BYBLOCK
 62
     0
 10
13673.143518151041
 20
20139.986634999979
 30
0.0
 40
15.0
 50
0.0
 51
180.0
  0
ARC
  5
10203
  8
0
  6
BYBLOCK
 62
     0
 10
13673.143518151041
 20
20139.986634999979
 30
0.0
 40
15.0
 50
180.0
 51
0.0
  0
ARC
  5
10204
  8
0
  6
BYBLOCK
 62
     0
 10
8587.6435181510387
 20
20139.986634999979
 30
0.0
 40
15.0
 50
0.0
 51
180.0
  0
ARC
  5
10205
  8
0
  6
BYBLOCK
 62
     0
 10
8587.6435181510387
 20
20139.986634999979
 30
0.0
 40
15.0
 50
180.0
 51
0.0
  0
ARC
  5
10206
  8
0
  6
BYBLOCK
 62
     0
 10
13587.643518151041
 20
20139.986634999979
 30
0.0
 40
15.0
 50
180.0
 51
0.0
  0
ARC
  5
10207
  8
0
  6
BYBLOCK
 62
     0
 10
13587.643518151041
 20
20139.986634999979
 30
0.0
 40
15.0
 50
0.0
 51
180.0
  0
ARC
  5
10208
  8
0
  6
BYBLOCK
 62
     0
 10
5319.1435181510378
 20
20139.986634999979
 30
0.0
 40
15.0
 50
0.0
 51
180.0
  0
ARC
  5
10209
  8
0
  6
BYBLOCK
 62
     0
 10
5319.1435181510378
 20
20139.986634999979
 30
0.0
 40
15.0
 50
180.0
 51
0.0
  0
ARC
  5
1020A
  8
0
  6
BYBLOCK
 62
     0
 10
8587.6435181510387
 20
20139.986634999979
 30
0.0
 40
15.0
 50
180.0
 51
0.0
  0
ARC
  5
1020B
  8
0
  6
BYBLOCK
 62
     0
 10
8587.6435181510387
 20
20139.986634999979
 30
0.0
 40
15.0
 50
0.0
 51
180.0
  0
ARC
  5
1020C
  8
0
  6
BYBLOCK
 62
     0
 10
5319.1435181510378
 20
20139.986634999979
 30
0.0
 40
15.0
 50
0.0
 51
180.0
  0
ARC
  5
1020D
  8
0
  6
BYBLOCK
 62
     0
 10
5319.1435181510378
 20
20139.986634999979
 30
0.0
 40
15.0
 50
180.0
 51
0.0
  0
ARC
  5
1020E
  8
0
  6
BYBLOCK
 62
     0
 10
5233.6435181510387
 20
20139.986634999979
 30
0.0
 40
15.0
 50
180.0
 51
0.0
  0
ARC
  5
1020F
  8
0
  6
BYBLOCK
 62
     0
 10
5233.6435181510387
 20
20139.986634999979
 30
0.0
 40
15.0
 50
0.0
 51
180.0
  0
ARC
  5
10210
  8
0
  6
BYBLOCK
 62
     0
 10
5233.6435181510387
 20
12679.985644999981
 30
0.0
 40
15.0
 50
0.0
 51
180.0
  0
ARC
  5
10211
  8
0
  6
BYBLOCK
 62
     0
 10
5233.6435181510387
 20
12679.985644999981
 30
0.0
 40
15.0
 50
180.0
 51
0.0
  0
ARC
  5
10212
  8
0
  6
BYBLOCK
 62
     0
 10
13673.143518151041
 20
12679.985644999981
 30
0.0
 40
15.0
 50
180.0
 51
0.0
  0
ARC
  5
10213
  8
0
  6
BYBLOCK
 62
     0
 10
13673.143518151041
 20
12679.985644999981
 30
0.0
 40
15.0
 50
0.0
 51
180.0
  0
TEXT
  5
102EE
  8
NAME
 10
21595.82616625919
 20
1076.6369801169251
 30
0.0
 40
360.0
  1
VGC-3352（H）+VKC-5052（H）型-R（単棟）
 41
0.45
  0
TEXT
  5
102EF
  8
NAME
 10
21933.552716389011
 20
1876.0
 30
0.0
 40
360.0
  1
ヨドガレージ ラヴィージュ
 41
0.75
  7
01
  0
LINE
  5
102F0
  8
NAME
  6
CONTINUOUS
 10
26067.886878884299
 20
2236.0
 30
0.0
 11
26067.886878884299
 21
1876.0
 31
0.0
  0
LINE
  5
102F1
  8
NAME
  6
CONTINUOUS
 10
26167.886878884299
 20
2236.0
 30
0.0
 11
26167.886878884299
 21
1876.0
 31
0.0
  0
LINE
  5
102F2
  8
NAME
  6
CONTINUOUS
 10
26267.88687888431
 20
2236.0
 30
0.0
 11
26267.88687888431
 21
1876.0
 31
0.0
  0
LINE
  5
102F3
  8
NAME
  6
CONTINUOUS
 10
26007.886878884299
 20
2236.0
 30
0.0
 11
26327.886878884299
 21
2236.0
 31
0.0
  0
LINE
  5
102F4
  8
NAME
  6
CONTINUOUS
 10
26327.886878884299
 20
1876.0
 30
0.0
 11
26007.886878884299
 21
1876.0
 31
0.0
  0
LINE
  5
10548
  8
2-0
  6
CENTER2
 62
     6
 10
23063.011953585141
 20
20960.488495000009
 30
0.0
 11
23063.011953585141
 21
13825.23237353158
 31
0.0
  0
LINE
  5
1054B
  8
2-0
  6
CENTER2
 62
     6
 10
19794.511953585141
 20
20960.488495000009
 30
0.0
 11
19794.511953585141
 21
13825.23237353158
 31
0.0
  0
LINE
  5
10C2E
  8
2-0
  6
CONTINUOUS
 62
     6
 10
20048.377293585148
 20
16854.513491000009
 30
0.0
 11
20353.072711585159
 21
16958.16702200002
 31
0.0
  0
LINE
  5
10C2F
  8
2-0
  6
CONTINUOUS
 62
     6
 10
19893.355254585182
 20
16364.891447000011
 30
0.0
 11
20353.072711585159
 21
16120.978136000011
 31
0.0
  0
LINE
  5
10C30
  8
2-0
  6
CONTINUOUS
 62
     6
 10
21273.075746585149
 20
16120.978136000011
 30
0.0
 11
20353.072711585159
 21
16120.978136000011
 31
0.0
  0
LINE
  5
10C31
  8
2-0
  6
CONTINUOUS
 62
     6
 10
21553.066773585138
 20
16958.16702200002
 30
0.0
 11
20353.072711585159
 21
16958.16702200002
 31
0.0
  0
LINE
  5
10C32
  8
2-0
  6
CONTINUOUS
 62
     6
 10
19977.17796958514
 20
14335.08948999998
 30
0.0
 11
20353.072711585159
 21
14516.033325
 31
0.0
  0
LINE
  5
10C33
  8
2-0
  6
CONTINUOUS
 62
     6
 10
20873.07442758515
 20
14516.033325
 30
0.0
 11
20353.072711585159
 21
14516.033325
 31
0.0
  0
LINE
  5
10C34
  8
2-0
  6
CONTINUOUS
 62
     3
 10
23075.506675585151
 20
19251.484325999991
 30
0.0
 11
23075.506675585151
 21
19245.488364000019
 31
0.0
  0
LINE
  5
10C35
  8
2-0
  6
CONTINUOUS
 62
     3
 10
23075.506675585151
 20
19245.488364000019
 30
0.0
 11
23105.504299585162
 21
19245.488364000019
 31
0.0
  0
LINE
  5
10C36
  8
2-0
  6
CONTINUOUS
 62
     3
 10
23105.504299585162
 20
19275.487968000001
 30
0.0
 11
23024.50239958513
 21
19275.487968000001
 31
0.0
  0
LINE
  5
10C37
  8
2-0
  6
CONTINUOUS
 62
     3
 10
23075.506675585151
 20
19235.19090799999
 30
0.0
 11
23105.504299585162
 21
19235.19090799999
 31
0.0
  0
LINE
  5
10C38
  8
2-0
  6
CONTINUOUS
 62
     3
 10
23075.506675585151
 20
19253.192650000001
 30
0.0
 11
23075.506675585151
 21
19235.19090799999
 31
0.0
  0
LINE
  5
10C39
  8
2-0
  6
CONTINUOUS
 62
     3
 10
23100.504035585149
 20
19253.192650000001
 30
0.0
 11
23075.506675585151
 21
19253.192650000001
 31
0.0
  0
LINE
  5
10C3A
  8
2-0
  6
CONTINUOUS
 62
     3
 10
23100.504035585149
 20
19248.184467999999
 30
0.0
 11
23100.504035585149
 21
19253.192650000001
 31
0.0
  0
LINE
  5
10C3B
  8
2-0
  6
CONTINUOUS
 62
     3
 10
23093.502478585149
 20
19248.184467999999
 30
0.0
 11
23100.504035585149
 21
19248.184467999999
 31
0.0
  0
LINE
  5
10C3C
  8
2-0
  6
CONTINUOUS
 62
     3
 10
22993.206210585158
 20
19348.484694999999
 30
0.0
 11
22993.206210585158
 21
19355.490211000011
 31
0.0
  0
LINE
  5
10C3D
  8
2-0
  6
CONTINUOUS
 62
     3
 10
22993.206210585158
 20
19355.490211000011
 30
0.0
 11
22998.206474585149
 21
19355.490211000011
 31
0.0
  0
LINE
  5
10C3E
  8
2-0
  6
CONTINUOUS
 62
     3
 10
22998.206474585149
 20
19355.490211000011
 30
0.0
 11
22998.206474585149
 21
19330.480973999998
 31
0.0
  0
LINE
  5
10C3F
  8
2-0
  6
CONTINUOUS
 62
     3
 10
22998.206474585149
 20
19330.480973999998
 30
0.0
 11
22980.204732585131
 21
19330.480973999998
 31
0.0
  0
LINE
  5
10C40
  8
2-0
  6
CONTINUOUS
 62
     3
 10
22980.204732585131
 20
19330.480973999998
 30
0.0
 11
22980.204732585131
 21
19360.484537000018
 31
0.0
  0
LINE
  5
10C41
  8
2-0
  6
CONTINUOUS
 62
     3
 10
22990.50218858516
 20
19360.484537000018
 30
0.0
 11
23105.504299585162
 21
19360.484537000018
 31
0.0
  0
LINE
  5
10C42
  8
2-0
  6
CONTINUOUS
 62
     3
 10
22990.50218858516
 20
19330.480973999998
 30
0.0
 11
22990.50218858516
 21
19360.484537000018
 31
0.0
  0
LINE
  5
10C43
  8
2-0
  6
CONTINUOUS
 62
     3
 10
22996.504088585159
 20
19330.480973999998
 30
0.0
 11
22990.50218858516
 21
19330.480973999998
 31
0.0
  0
LINE
  5
10C44
  8
2-0
  6
CONTINUOUS
 62
     3
 10
23093.502478585149
 20
18894.887645499952
 30
0.0
 11
23100.504035585149
 21
18894.887645499952
 31
0.0
  0
LINE
  5
10C45
  8
2-0
  6
CONTINUOUS
 62
     3
 10
23100.504035585149
 20
18894.887645499952
 30
0.0
 11
23100.504035585149
 21
18899.88790949999
 31
0.0
  0
LINE
  5
10C46
  8
2-0
  6
CONTINUOUS
 62
     3
 10
23100.504035585149
 20
18899.88790949999
 30
0.0
 11
23075.506675585151
 21
18899.88790949999
 31
0.0
  0
LINE
  5
10C47
  8
2-0
  6
CONTINUOUS
 62
     3
 10
23075.506675585151
 20
18899.88790949999
 30
0.0
 11
23075.506675585151
 21
18881.892105499999
 31
0.0
  0
LINE
  5
10C48
  8
2-0
  6
CONTINUOUS
 62
     3
 10
23075.506675585151
 20
18881.892105499999
 30
0.0
 11
23105.504299585162
 21
18881.892105499999
 31
0.0
  0
LINE
  5
10C49
  8
2-0
  6
CONTINUOUS
 62
     3
 10
23075.506675585151
 20
18897.983612499978
 30
0.0
 11
23075.506675585151
 21
18891.985671499999
 31
0.0
  0
LINE
  5
10C4A
  8
2-0
  6
CONTINUOUS
 62
     3
 10
23075.506675585151
 20
18891.985671499999
 30
0.0
 11
23105.504299585162
 21
18891.985671499999
 31
0.0
  0
LINE
  5
10C4B
  8
2-0
  6
CONTINUOUS
 62
     3
 10
23105.504299585162
 20
18891.985671499999
 30
0.0
 11
23105.504299585162
 21
18928.986832499999
 31
0.0
  0
LINE
  5
10C4C
  8
2-0
  6
CONTINUOUS
 62
     3
 10
23075.506675585151
 20
18928.986832499999
 30
0.0
 11
23105.504299585162
 21
18928.986832499999
 31
0.0
  0
LINE
  5
10C4D
  8
2-0
  6
CONTINUOUS
 62
     3
 10
23075.506675585151
 20
18922.982952499991
 30
0.0
 11
23075.506675585151
 21
18928.986832499999
 31
0.0
  0
LINE
  5
10C4E
  8
2-0
  6
CONTINUOUS
 62
     3
 10
23075.506675585151
 20
18939.082377499992
 30
0.0
 11
23105.504299585162
 21
18939.082377499992
 31
0.0
  0
LINE
  5
10C4F
  8
2-0
  6
CONTINUOUS
 62
     3
 10
23075.506675585151
 20
18921.080635499999
 30
0.0
 11
23075.506675585151
 21
18939.082377499992
 31
0.0
  0
LINE
  5
10C50
  8
2-0
  6
CONTINUOUS
 62
     3
 10
23100.504035585149
 20
18921.080635499999
 30
0.0
 11
23075.506675585151
 21
18921.080635499999
 31
0.0
  0
LINE
  5
10C51
  8
2-0
  6
CONTINUOUS
 62
     3
 10
23100.504035585149
 20
18926.08089949999
 30
0.0
 11
23100.504035585149
 21
18921.080635499999
 31
0.0
  0
LINE
  5
10C52
  8
2-0
  6
CONTINUOUS
 62
     3
 10
23093.502478585149
 20
18926.08089949999
 30
0.0
 11
23100.504035585149
 21
18926.08089949999
 31
0.0
  0
LINE
  5
10C53
  8
2-0
  6
CONTINUOUS
 62
     3
 10
23093.502478585149
 20
18193.886655999999
 30
0.0
 11
23100.504035585149
 21
18193.886655999999
 31
0.0
  0
LINE
  5
10C54
  8
2-0
  6
CONTINUOUS
 62
     3
 10
23100.504035585149
 20
18193.886655999999
 30
0.0
 11
23100.504035585149
 21
18198.892857999988
 31
0.0
  0
LINE
  5
10C55
  8
2-0
  6
CONTINUOUS
 62
     3
 10
23100.504035585149
 20
18198.892857999988
 30
0.0
 11
23075.506675585151
 21
18198.892857999988
 31
0.0
  0
LINE
  5
10C56
  8
2-0
  6
CONTINUOUS
 62
     3
 10
23075.506675585151
 20
18198.892857999988
 30
0.0
 11
23075.506675585151
 21
18180.891115999999
 31
0.0
  0
LINE
  5
10C57
  8
2-0
  6
CONTINUOUS
 62
     3
 10
23075.506675585151
 20
18180.891115999999
 30
0.0
 11
23105.504299585162
 21
18180.891115999999
 31
0.0
  0
LINE
  5
10C58
  8
2-0
  6
CONTINUOUS
 62
     3
 10
23075.506675585151
 20
18196.982622999989
 30
0.0
 11
23075.506675585151
 21
18190.986660999981
 31
0.0
  0
LINE
  5
10C59
  8
2-0
  6
CONTINUOUS
 62
     3
 10
23075.506675585151
 20
18190.986660999981
 30
0.0
 11
23105.504299585162
 21
18190.986660999981
 31
0.0
  0
LINE
  5
10C5A
  8
2-0
  6
CONTINUOUS
 62
     3
 10
23105.504299585162
 20
18190.986660999981
 30
0.0
 11
23105.504299585162
 21
18227.985842999999
 31
0.0
  0
LINE
  5
10C5B
  8
2-0
  6
CONTINUOUS
 62
     3
 10
23075.506675585151
 20
18227.985842999999
 30
0.0
 11
23105.504299585162
 21
18227.985842999999
 31
0.0
  0
LINE
  5
10C5C
  8
2-0
  6
CONTINUOUS
 62
     3
 10
23075.506675585151
 20
18221.989881000009
 30
0.0
 11
23075.506675585151
 21
18227.985842999999
 31
0.0
  0
LINE
  5
10C5D
  8
2-0
  6
CONTINUOUS
 62
     3
 10
23075.506675585151
 20
18238.081387999999
 30
0.0
 11
23105.504299585162
 21
18238.081387999999
 31
0.0
  0
LINE
  5
10C5E
  8
2-0
  6
CONTINUOUS
 62
     3
 10
23075.506675585151
 20
18220.079645999998
 30
0.0
 11
23075.506675585151
 21
18238.081387999999
 31
0.0
  0
LINE
  5
10C5F
  8
2-0
  6
CONTINUOUS
 62
     3
 10
23100.504035585149
 20
18220.079645999998
 30
0.0
 11
23075.506675585151
 21
18220.079645999998
 31
0.0
  0
LINE
  5
10C60
  8
2-0
  6
CONTINUOUS
 62
     3
 10
23100.504035585149
 20
18225.085847999981
 30
0.0
 11
23100.504035585149
 21
18220.079645999998
 31
0.0
  0
LINE
  5
10C61
  8
2-0
  6
CONTINUOUS
 62
     3
 10
23093.502478585149
 20
18225.085847999981
 30
0.0
 11
23100.504035585149
 21
18225.085847999981
 31
0.0
  0
LINE
  5
10C62
  8
2-0
  6
CONTINUOUS
 62
     3
 10
23093.502478585149
 20
17524.07991
 30
0.0
 11
23100.504035585149
 21
17524.07991
 31
0.0
  0
LINE
  5
10C63
  8
2-0
  6
CONTINUOUS
 62
     3
 10
23100.504035585149
 20
17524.07991
 30
0.0
 11
23100.504035585149
 21
17519.091522999999
 31
0.0
  0
LINE
  5
10C64
  8
2-0
  6
CONTINUOUS
 62
     3
 10
23100.504035585149
 20
17519.091522999999
 30
0.0
 11
23075.506675585151
 21
17519.091522999999
 31
0.0
  0
LINE
  5
10C65
  8
2-0
  6
CONTINUOUS
 62
     3
 10
23075.506675585151
 20
17519.091522999999
 30
0.0
 11
23075.506675585151
 21
17537.08732599999
 31
0.0
  0
LINE
  5
10C66
  8
2-0
  6
CONTINUOUS
 62
     3
 10
23075.506675585151
 20
17537.08732599999
 30
0.0
 11
23105.504299585162
 21
17537.08732599999
 31
0.0
  0
LINE
  5
10C67
  8
2-0
  6
CONTINUOUS
 62
     3
 10
23075.506675585151
 20
17520.989881000001
 30
0.0
 11
23075.506675585151
 21
17526.985842999991
 31
0.0
  0
LINE
  5
10C68
  8
2-0
  6
CONTINUOUS
 62
     3
 10
23075.506675585151
 20
17526.985842999991
 30
0.0
 11
23105.504299585162
 21
17526.985842999991
 31
0.0
  0
LINE
  5
10C69
  8
2-0
  6
CONTINUOUS
 62
     3
 10
23105.504299585162
 20
17526.985842999991
 30
0.0
 11
23105.504299585162
 21
17489.986660999999
 31
0.0
  0
LINE
  5
10C6A
  8
2-0
  6
CONTINUOUS
 62
     3
 10
23075.506675585151
 20
17489.986660999999
 30
0.0
 11
23105.504299585162
 21
17489.986660999999
 31
0.0
  0
LINE
  5
10C6B
  8
2-0
  6
CONTINUOUS
 62
     3
 10
23075.506675585151
 20
17495.98856199998
 30
0.0
 11
23075.506675585151
 21
17489.986660999999
 31
0.0
  0
LINE
  5
10C6C
  8
2-0
  6
CONTINUOUS
 62
     3
 10
23075.506675585151
 20
17479.897055000001
 30
0.0
 11
23105.504299585162
 21
17479.897055000001
 31
0.0
  0
LINE
  5
10C6D
  8
2-0
  6
CONTINUOUS
 62
     3
 10
23075.506675585151
 20
17497.892857999999
 30
0.0
 11
23075.506675585151
 21
17479.897055000001
 31
0.0
  0
LINE
  5
10C6E
  8
2-0
  6
CONTINUOUS
 62
     3
 10
23100.504035585149
 20
17497.892857999999
 30
0.0
 11
23075.506675585151
 21
17497.892857999999
 31
0.0
  0
LINE
  5
10C6F
  8
2-0
  6
CONTINUOUS
 62
     3
 10
23100.504035585149
 20
17492.892595000008
 30
0.0
 11
23100.504035585149
 21
17497.892857999999
 31
0.0
  0
LINE
  5
10C70
  8
2-0
  6
CONTINUOUS
 62
     3
 10
23093.502478585149
 20
17492.892595000008
 30
0.0
 11
23100.504035585149
 21
17492.892595000008
 31
0.0
  0
LINE
  5
10C71
  8
2-0
  6
CONTINUOUS
 62
     3
 10
23102.61816158516
 20
16772.983480999988
 30
0.0
 11
23102.61816158516
 21
16792.984536
 31
0.0
  0
LINE
  5
10C72
  8
2-0
  6
CONTINUOUS
 62
     3
 10
23102.61816158516
 20
16792.984536
 30
0.0
 11
23017.621592585139
 21
16792.984536
 31
0.0
  0
LINE
  5
10C73
  8
2-0
  6
CONTINUOUS
 62
     3
 10
23093.502478585149
 20
16819.591246
 30
0.0
 11
23100.504035585149
 21
16819.591246
 31
0.0
  0
LINE
  5
10C74
  8
2-0
  6
CONTINUOUS
 62
     3
 10
23100.504035585149
 20
16819.591246
 30
0.0
 11
23100.504035585149
 21
16814.59692
 31
0.0
  0
LINE
  5
10C75
  8
2-0
  6
CONTINUOUS
 62
     3
 10
23100.504035585149
 20
16814.59692
 30
0.0
 11
23075.506675585151
 21
16814.59692
 31
0.0
  0
LINE
  5
10C76
  8
2-0
  6
CONTINUOUS
 62
     3
 10
23075.506675585151
 20
16814.59692
 30
0.0
 11
23075.506675585151
 21
16832.592723999998
 31
0.0
  0
LINE
  5
10C77
  8
2-0
  6
CONTINUOUS
 62
     3
 10
23075.506675585151
 20
16832.592723999998
 30
0.0
 11
23105.504299585162
 21
16832.592723999998
 31
0.0
  0
LINE
  5
10C78
  8
2-0
  6
CONTINUOUS
 62
     3
 10
23075.506675585151
 20
16822.98413999999
 30
0.0
 11
23075.506675585151
 21
16816.98223999999
 31
0.0
  0
LINE
  5
10C79
  8
2-0
  6
CONTINUOUS
 62
     3
 10
23105.504299585162
 20
16822.98413999999
 30
0.0
 11
23075.506675585151
 21
16822.98413999999
 31
0.0
  0
LINE
  5
10C7A
  8
2-0
  6
CONTINUOUS
 62
     3
 10
23105.504299585162
 20
16832.592723999998
 30
0.0
 11
23105.504299585162
 21
17479.897055000001
 31
0.0
  0
LINE
  5
10C7B
  8
2-0
  6
CONTINUOUS
 62
     3
 10
23105.504299585162
 20
17537.08732599999
 30
0.0
 11
23105.504299585162
 21
18180.891115999999
 31
0.0
  0
LINE
  5
10C7C
  8
2-0
  6
CONTINUOUS
 62
     3
 10
23105.504299585162
 20
16677.982424999998
 30
0.0
 11
23075.506675585151
 21
16677.982424999998
 31
0.0
  0
LINE
  5
10C7D
  8
2-0
  6
CONTINUOUS
 62
     3
 10
23075.506675585151
 20
16677.982424999998
 30
0.0
 11
23075.506675585151
 21
16683.98432499999
 31
0.0
  0
LINE
  5
10C7E
  8
2-0
  6
CONTINUOUS
 62
     3
 10
23017.621592585139
 20
16707.987968000001
 30
0.0
 11
23102.61816158516
 21
16707.987968000001
 31
0.0
  0
LINE
  5
10C7F
  8
2-0
  6
CONTINUOUS
 62
     3
 10
23102.61816158516
 20
16707.987968000001
 30
0.0
 11
23102.61816158516
 21
16727.983085
 31
0.0
  0
LINE
  5
10C80
  8
2-0
  6
CONTINUOUS
 62
     3
 10
23075.506675585151
 20
16668.373842000012
 30
0.0
 11
23105.504299585162
 21
16668.373842000012
 31
0.0
  0
LINE
  5
10C81
  8
2-0
  6
CONTINUOUS
 62
     3
 10
23075.506675585151
 20
16686.369644999992
 30
0.0
 11
23075.506675585151
 21
16668.373842000012
 31
0.0
  0
LINE
  5
10C82
  8
2-0
  6
CONTINUOUS
 62
     3
 10
23100.504035585149
 20
16686.369644999992
 30
0.0
 11
23075.506675585151
 21
16686.369644999992
 31
0.0
  0
LINE
  5
10C83
  8
2-0
  6
CONTINUOUS
 62
     3
 10
23100.504035585149
 20
16681.36938099999
 30
0.0
 11
23100.504035585149
 21
16686.369644999992
 31
0.0
  0
LINE
  5
10C84
  8
2-0
  6
CONTINUOUS
 62
     3
 10
23093.502478585149
 20
16681.36938099999
 30
0.0
 11
23100.504035585149
 21
16681.36938099999
 31
0.0
  0
LINE
  5
10C85
  8
2-0
  6
CONTINUOUS
 62
     3
 10
23093.502478585149
 20
15976.887150499981
 30
0.0
 11
23100.504035585149
 21
15976.887150499981
 31
0.0
  0
LINE
  5
10C86
  8
2-0
  6
CONTINUOUS
 62
     3
 10
23100.504035585149
 20
15976.887150499981
 30
0.0
 11
23100.504035585149
 21
15981.887414499981
 31
0.0
  0
LINE
  5
10C87
  8
2-0
  6
CONTINUOUS
 62
     3
 10
23100.504035585149
 20
15981.887414499981
 30
0.0
 11
23075.506675585151
 21
15981.887414499981
 31
0.0
  0
LINE
  5
10C88
  8
2-0
  6
CONTINUOUS
 62
     3
 10
23075.506675585151
 20
15981.887414499981
 30
0.0
 11
23075.506675585151
 21
15963.88567249999
 31
0.0
  0
LINE
  5
10C89
  8
2-0
  6
CONTINUOUS
 62
     3
 10
23075.506675585151
 20
15963.88567249999
 30
0.0
 11
23105.504299585162
 21
15963.88567249999
 31
0.0
  0
LINE
  5
10C8A
  8
2-0
  6
CONTINUOUS
 62
     3
 10
23075.506675585151
 20
15979.983117499991
 30
0.0
 11
23075.506675585151
 21
15973.98616649999
 31
0.0
  0
LINE
  5
10C8B
  8
2-0
  6
CONTINUOUS
 62
     3
 10
23075.506675585151
 20
15973.98616649999
 30
0.0
 11
23105.504299585162
 21
15973.98616649999
 31
0.0
  0
LINE
  5
10C8C
  8
2-0
  6
CONTINUOUS
 62
     3
 10
23105.504299585162
 20
15973.98616649999
 30
0.0
 11
23105.504299585162
 21
16010.9863375
 31
0.0
  0
LINE
  5
10C8D
  8
2-0
  6
CONTINUOUS
 62
     3
 10
23075.506675585151
 20
16010.9863375
 30
0.0
 11
23105.504299585162
 21
16010.9863375
 31
0.0
  0
LINE
  5
10C8E
  8
2-0
  6
CONTINUOUS
 62
     3
 10
23075.506675585151
 20
16004.98344749999
 30
0.0
 11
23075.506675585151
 21
16010.9863375
 31
0.0
  0
LINE
  5
10C8F
  8
2-0
  6
CONTINUOUS
 62
     3
 10
23075.506675585151
 20
16021.081882500001
 30
0.0
 11
23105.504299585162
 21
16021.081882500001
 31
0.0
  0
LINE
  5
10C90
  8
2-0
  6
CONTINUOUS
 62
     3
 10
23075.506675585151
 20
16003.074201499991
 30
0.0
 11
23075.506675585151
 21
16021.081882500001
 31
0.0
  0
LINE
  5
10C91
  8
2-0
  6
CONTINUOUS
 62
     3
 10
23100.504035585149
 20
16003.074201499991
 30
0.0
 11
23075.506675585151
 21
16003.074201499991
 31
0.0
  0
LINE
  5
10C92
  8
2-0
  6
CONTINUOUS
 62
     3
 10
23100.504035585149
 20
16008.0804045
 30
0.0
 11
23100.504035585149
 21
16003.074201499991
 31
0.0
  0
LINE
  5
10C93
  8
2-0
  6
CONTINUOUS
 62
     3
 10
23093.502478585149
 20
16008.0804045
 30
0.0
 11
23100.504035585149
 21
16008.0804045
 31
0.0
  0
LINE
  5
10C94
  8
2-0
  6
CONTINUOUS
 62
     3
 10
23093.502478585149
 20
15307.320421000009
 30
0.0
 11
23100.504035585149
 21
15307.320421000009
 31
0.0
  0
LINE
  5
10C95
  8
2-0
  6
CONTINUOUS
 62
     3
 10
23100.504035585149
 20
15307.320421000009
 30
0.0
 11
23100.504035585149
 21
15302.326096000001
 31
0.0
  0
LINE
  5
10C96
  8
2-0
  6
CONTINUOUS
 62
     3
 10
23100.504035585149
 20
15302.326096000001
 30
0.0
 11
23075.506675585151
 21
15302.326096000001
 31
0.0
  0
LINE
  5
10C97
  8
2-0
  6
CONTINUOUS
 62
     3
 10
23075.506675585151
 20
15302.326096000001
 30
0.0
 11
23075.506675585151
 21
15320.321899
 31
0.0
  0
LINE
  5
10C98
  8
2-0
  6
CONTINUOUS
 62
     3
 10
23075.506675585151
 20
15320.321899
 30
0.0
 11
23105.504299585162
 21
15320.321899
 31
0.0
  0
LINE
  5
10C99
  8
2-0
  6
CONTINUOUS
 62
     3
 10
23075.506675585151
 20
15304.22445400001
 30
0.0
 11
23075.506675585151
 21
15310.226354000009
 31
0.0
  0
LINE
  5
10C9A
  8
2-0
  6
CONTINUOUS
 62
     3
 10
23075.506675585151
 20
15310.226354000009
 30
0.0
 11
23105.504299585162
 21
15310.226354000009
 31
0.0
  0
LINE
  5
10C9B
  8
2-0
  6
CONTINUOUS
 62
     3
 10
23105.504299585162
 20
15273.22717300001
 30
0.0
 11
23105.504299585162
 21
15310.226354000009
 31
0.0
  0
LINE
  5
10C9C
  8
2-0
  6
CONTINUOUS
 62
     3
 10
23075.506675585151
 20
15273.22717300001
 30
0.0
 11
23105.504299585162
 21
15273.22717300001
 31
0.0
  0
LINE
  5
10C9D
  8
2-0
  6
CONTINUOUS
 62
     3
 10
23075.506675585151
 20
15279.224123999989
 30
0.0
 11
23075.506675585151
 21
15273.22717300001
 31
0.0
  0
LINE
  5
10C9E
  8
2-0
  6
CONTINUOUS
 62
     3
 10
23075.506675585151
 20
15263.12568900001
 30
0.0
 11
23105.504299585162
 21
15263.12568900001
 31
0.0
  0
LINE
  5
10C9F
  8
2-0
  6
CONTINUOUS
 62
     3
 10
23075.506675585151
 20
15281.13337
 30
0.0
 11
23075.506675585151
 21
15263.12568900001
 31
0.0
  0
LINE
  5
10CA0
  8
2-0
  6
CONTINUOUS
 62
     3
 10
23100.504035585149
 20
15281.13337
 30
0.0
 11
23075.506675585151
 21
15281.13337
 31
0.0
  0
LINE
  5
10CA1
  8
2-0
  6
CONTINUOUS
 62
     3
 10
23100.504035585149
 20
15276.13310600001
 30
0.0
 11
23100.504035585149
 21
15281.13337
 31
0.0
  0
LINE
  5
10CA2
  8
2-0
  6
CONTINUOUS
 62
     3
 10
23093.502478585149
 20
15276.13310600001
 30
0.0
 11
23100.504035585149
 21
15276.13310600001
 31
0.0
  0
LINE
  5
10CA3
  8
2-0
  6
CONTINUOUS
 62
     3
 10
23105.504299585162
 20
16668.373842000012
 30
0.0
 11
23105.504299585162
 21
16021.081882500001
 31
0.0
  0
LINE
  5
10CA4
  8
2-0
  6
CONTINUOUS
 62
     3
 10
23105.504299585162
 20
16822.98413999999
 30
0.0
 11
23105.504299585162
 21
16677.982424999998
 31
0.0
  0
LINE
  5
10CA5
  8
2-0
  6
CONTINUOUS
 62
     3
 10
23017.621592585139
 20
16792.984536
 30
0.0
 11
23017.621592585139
 21
16707.987968000001
 31
0.0
  0
LINE
  5
10CA6
  8
2-0
  6
CONTINUOUS
 62
     6
 10
21378.10504358515
 20
18561.431801499992
 30
0.0
 11
20353.072711585159
 21
18561.431801499992
 31
0.0
  0
LINE
  5
10CA7
  8
2-0
  6
CONTINUOUS
 62
     3
 10
23093.502478585149
 20
14574.892099000001
 30
0.0
 11
23100.504035585149
 21
14574.892099000001
 31
0.0
  0
LINE
  5
10CA8
  8
2-0
  6
CONTINUOUS
 62
     3
 10
23100.504035585149
 20
14574.892099000001
 30
0.0
 11
23100.504035585149
 21
14579.886425000001
 31
0.0
  0
LINE
  5
10CA9
  8
2-0
  6
CONTINUOUS
 62
     3
 10
23100.504035585149
 20
14579.886425000001
 30
0.0
 11
23075.506675585151
 21
14579.886425000001
 31
0.0
  0
LINE
  5
10CAA
  8
2-0
  6
CONTINUOUS
 62
     3
 10
23075.506675585151
 20
14579.886425000001
 30
0.0
 11
23075.506675585151
 21
14561.890621
 31
0.0
  0
LINE
  5
10CAB
  8
2-0
  6
CONTINUOUS
 62
     3
 10
23075.506675585151
 20
14561.890621
 30
0.0
 11
23105.504299585162
 21
14561.890621
 31
0.0
  0
LINE
  5
10CAC
  8
2-0
  6
CONTINUOUS
 62
     3
 10
23075.506675585151
 20
14577.989056000009
 30
0.0
 11
23075.506675585151
 21
14571.986166000001
 31
0.0
  0
LINE
  5
10CAD
  8
2-0
  6
CONTINUOUS
 62
     3
 10
23075.506675585151
 20
14571.986166000001
 30
0.0
 11
23105.504299585162
 21
14571.986166000001
 31
0.0
  0
LINE
  5
10CAE
  8
2-0
  6
CONTINUOUS
 62
     3
 10
23105.504299585162
 20
14571.986166000001
 30
0.0
 11
23105.504299585162
 21
14608.986337999981
 31
0.0
  0
LINE
  5
10CAF
  8
2-0
  6
CONTINUOUS
 62
     3
 10
23075.506675585151
 20
14608.986337999981
 30
0.0
 11
23105.504299585162
 21
14608.986337999981
 31
0.0
  0
LINE
  5
10CB0
  8
2-0
  6
CONTINUOUS
 62
     3
 10
23075.506675585151
 20
14602.98938599999
 30
0.0
 11
23075.506675585151
 21
14608.986337999981
 31
0.0
  0
LINE
  5
10CB1
  8
2-0
  6
CONTINUOUS
 62
     3
 10
23075.506675585151
 20
14619.086831000001
 30
0.0
 11
23105.504299585162
 21
14619.086831000001
 31
0.0
  0
LINE
  5
10CB2
  8
2-0
  6
CONTINUOUS
 62
     3
 10
23075.506675585151
 20
14601.080140000009
 30
0.0
 11
23075.506675585151
 21
14619.086831000001
 31
0.0
  0
LINE
  5
10CB3
  8
2-0
  6
CONTINUOUS
 62
     3
 10
23100.504035585149
 20
14601.080140000009
 30
0.0
 11
23075.506675585151
 21
14601.080140000009
 31
0.0
  0
LINE
  5
10CB4
  8
2-0
  6
CONTINUOUS
 62
     3
 10
23100.504035585149
 20
14606.085353000009
 30
0.0
 11
23100.504035585149
 21
14601.080140000009
 31
0.0
  0
LINE
  5
10CB5
  8
2-0
  6
CONTINUOUS
 62
     3
 10
23093.502478585149
 20
14606.085353000009
 30
0.0
 11
23100.504035585149
 21
14606.085353000009
 31
0.0
  0
LINE
  5
10CB6
  8
2-0
  6
CONTINUOUS
 62
     3
 10
23075.506675585151
 20
14249.488178999991
 30
0.0
 11
23075.506675585151
 21
14255.493048
 31
0.0
  0
LINE
  5
10CB7
  8
2-0
  6
CONTINUOUS
 62
     3
 10
23075.506675585151
 20
14255.493048
 30
0.0
 11
23105.504299585162
 21
14255.493048
 31
0.0
  0
LINE
  5
10CB8
  8
2-0
  6
CONTINUOUS
 62
     3
 10
23105.504299585162
 20
14255.493048
 30
0.0
 11
23105.504299585162
 21
14140.48895699999
 31
0.0
  0
LINE
  5
10CB9
  8
2-0
  6
CONTINUOUS
 62
     3
 10
23105.504299585162
 20
14140.48895699999
 30
0.0
 11
23020.505751585159
 21
14140.48895699999
 31
0.0
  0
LINE
  5
10CBA
  8
2-0
  6
CONTINUOUS
 62
     3
 10
23020.505751585159
 20
14140.48895699999
 30
0.0
 11
23020.505751585159
 21
14225.484536
 31
0.0
  0
LINE
  5
10CBB
  8
2-0
  6
CONTINUOUS
 62
     3
 10
23020.505751585159
 20
14225.484536
 30
0.0
 11
23052.50466958516
 21
14225.484536
 31
0.0
  0
LINE
  5
10CBC
  8
2-0
  6
CONTINUOUS
 62
     3
 10
23093.502478585149
 20
14252.522780999991
 30
0.0
 11
23100.504035585149
 21
14252.522780999991
 31
0.0
  0
LINE
  5
10CBD
  8
2-0
  6
CONTINUOUS
 62
     3
 10
23100.504035585149
 20
14252.522780999991
 30
0.0
 11
23100.504035585149
 21
14247.52548599998
 31
0.0
  0
LINE
  5
10CBE
  8
2-0
  6
CONTINUOUS
 62
     3
 10
23100.504035585149
 20
14247.52548599998
 30
0.0
 11
23075.506675585151
 21
14247.52548599998
 31
0.0
  0
LINE
  5
10CBF
  8
2-0
  6
CONTINUOUS
 62
     3
 10
23075.506675585151
 20
14247.52548599998
 30
0.0
 11
23075.506675585151
 21
14265.524259
 31
0.0
  0
LINE
  5
10CC0
  8
2-0
  6
CONTINUOUS
 62
     3
 10
23075.506675585151
 20
14265.524259
 30
0.0
 11
23105.504299585162
 21
14265.524259
 31
0.0
  0
LINE
  5
10CC1
  8
2-0
  6
CENTER2
 62
     6
 10
23063.006015585161
 20
13942.99139899999
 30
0.0
 11
23063.006015585161
 21
14748.36015700001
 31
0.0
  0
LINE
  5
10CC2
  8
2-0
  6
CONTINUOUS
 62
     3
 10
23105.504299585162
 20
18238.081387999999
 30
0.0
 11
23105.504299585162
 21
18881.892105499999
 31
0.0
  0
LINE
  5
10CC3
  8
2-0
  6
CONTINUOUS
 62
     6
 10
19059.50878658516
 20
20090.487440000019
 30
0.0
 11
17859.514724585169
 21
20090.487440000019
 31
0.0
  0
LINE
  5
10CC4
  8
2-0
  6
CONTINUOUS
 62
     6
 10
19921.541619585169
 20
18803.586309499991
 30
0.0
 11
20353.072711585159
 21
18561.431801499992
 31
0.0
  0
LINE
  5
10CC5
  8
2-0
  6
CONTINUOUS
 62
     6
 10
19599.972785585189
 20
19503.164277
 30
0.0
 11
19059.50878658516
 21
20090.487440000019
 31
0.0
  0
LINE
  5
10CC6
  8
2-0
  6
CONTINUOUS
 62
     3
 10
23105.504299585162
 20
15963.88567249999
 30
0.0
 11
23105.504299585162
 21
15320.321899
 31
0.0
  0
LINE
  5
10CC7
  8
2-0
  6
CONTINUOUS
 62
     6
 10
19934.598524585152
 20
18826.84565349999
 30
0.0
 11
19782.01129358515
 21
18881.892105499999
 31
0.0
  0
LINE
  5
10CC8
  8
2-0
  6
CONTINUOUS
 62
     6
 10
19782.01129358515
 20
18881.892105499999
 30
0.0
 11
19908.492633585149
 21
18780.332905499949
 31
0.0
  0
LINE
  5
10CC9
  8
2-0
  6
CONTINUOUS
 62
     6
 10
19853.592665585129
 20
18826.84565349999
 30
0.0
 11
19827.48677458513
 21
18780.332905499949
 31
0.0
  0
LINE
  5
10CCA
  8
2-0
  6
CONTINUOUS
 62
     6
 10
19908.492633585149
 20
18780.332905499949
 30
0.0
 11
19782.01129358515
 21
18881.892105499999
 31
0.0
  0
LINE
  5
10CCB
  8
2-0
  6
CONTINUOUS
 62
     6
 10
19782.01129358515
 20
18881.892105499999
 30
0.0
 11
19934.598524585152
 21
18826.84565349999
 31
0.0
  0
LINE
  5
10CCC
  8
2-0
  6
CONTINUOUS
 62
     6
 10
19934.598524585152
 20
18826.84565349999
 30
0.0
 11
19782.01129358515
 21
18881.892105499999
 31
0.0
  0
LINE
  5
10CCD
  8
2-0
  6
CONTINUOUS
 62
     6
 10
19908.492633585149
 20
18780.332905499949
 30
0.0
 11
19782.01129358515
 21
18881.892105499999
 31
0.0
  0
LINE
  5
10CCE
  8
2-0
  6
CONTINUOUS
 62
     6
 10
19827.48677458513
 20
18780.332905499949
 30
0.0
 11
19853.592665585129
 21
18826.84565349999
 31
0.0
  0
LINE
  5
10CCF
  8
2-0
  6
CONTINUOUS
 62
     6
 10
19580.355756585159
 20
19485.10315000001
 30
0.0
 11
19708.31777658514
 21
19385.420532000011
 31
0.0
  0
LINE
  5
10CD0
  8
2-0
  6
CONTINUOUS
 62
     6
 10
19708.31777658514
 20
19385.420532000011
 30
0.0
 11
19619.603671585141
 21
19521.21748700002
 31
0.0
  0
LINE
  5
10CD1
  8
2-0
  6
CONTINUOUS
 62
     6
 10
19580.355756585159
 20
19485.10315000001
 30
0.0
 11
19619.603671585141
 21
19521.21748700002
 31
0.0
  0
LINE
  5
10CD2
  8
2-0
  6
CONTINUOUS
 62
     6
 10
19619.603671585141
 20
19521.21748700002
 30
0.0
 11
19708.31777658514
 21
19385.420532000011
 31
0.0
  0
LINE
  5
10CD3
  8
2-0
  6
CONTINUOUS
 62
     6
 10
19708.31777658514
 20
19385.420532000011
 30
0.0
 11
19580.355756585159
 21
19485.10315000001
 31
0.0
  0
LINE
  5
10CD4
  8
2-0
  6
CONTINUOUS
 62
     6
 10
19580.355756585159
 20
19485.10315000001
 30
0.0
 11
19708.31777658514
 21
19385.420532000011
 31
0.0
  0
LINE
  5
10CD5
  8
2-0
  6
CONTINUOUS
 62
     6
 10
19619.603671585141
 20
19521.21748700002
 30
0.0
 11
19708.31777658514
 21
19385.420532000011
 31
0.0
  0
LINE
  5
10CD6
  8
2-0
  6
CONTINUOUS
 62
     6
 10
19619.603671585141
 20
19521.21748700002
 30
0.0
 11
19580.355756585159
 21
19485.10315000001
 31
0.0
  0
LINE
  5
10CD7
  8
2-0
  6
CONTINUOUS
 62
     6
 10
19965.615601585141
 20
14359.120845999991
 30
0.0
 11
19833.015569585172
 21
14265.692517999991
 31
0.0
  0
LINE
  5
10CD8
  8
2-0
  6
CONTINUOUS
 62
     6
 10
19833.015569585172
 20
14265.692517999991
 30
0.0
 11
19988.748255585138
 21
14311.068031999999
 31
0.0
  0
LINE
  5
10CD9
  8
2-0
  6
CONTINUOUS
 62
     6
 10
19965.615601585141
 20
14359.120845999991
 30
0.0
 11
19988.748255585138
 21
14311.068031999999
 31
0.0
  0
LINE
  5
10CDA
  8
2-0
  6
CONTINUOUS
 62
     6
 10
19988.748255585138
 20
14311.068031999999
 30
0.0
 11
19833.015569585172
 21
14265.692517999991
 31
0.0
  0
LINE
  5
10CDB
  8
2-0
  6
CONTINUOUS
 62
     6
 10
19833.015569585172
 20
14265.692517999991
 30
0.0
 11
19965.615601585141
 21
14359.120845999991
 31
0.0
  0
LINE
  5
10CDC
  8
2-0
  6
CONTINUOUS
 62
     6
 10
19965.615601585141
 20
14359.120845999991
 30
0.0
 11
19833.015569585172
 21
14265.692517999991
 31
0.0
  0
LINE
  5
10CDD
  8
2-0
  6
CONTINUOUS
 62
     6
 10
19988.748255585138
 20
14311.068031999999
 30
0.0
 11
19833.015569585172
 21
14265.692517999991
 31
0.0
  0
LINE
  5
10CDE
  8
2-0
  6
CONTINUOUS
 62
     6
 10
19988.748255585138
 20
14311.068031999999
 30
0.0
 11
19965.615601585141
 21
14359.120845999991
 31
0.0
  0
LINE
  5
10CDF
  8
2-0
  6
CONTINUOUS
 62
     6
 10
19905.851955585149
 20
16388.441779000019
 30
0.0
 11
19752.01366958514
 21
16439.875610000021
 31
0.0
  0
LINE
  5
10CE0
  8
2-0
  6
CONTINUOUS
 62
     6
 10
19752.01366958514
 20
16439.875610000021
 30
0.0
 11
19880.848656585171
 21
16341.33517500002
 31
0.0
  0
LINE
  5
10CE1
  8
2-0
  6
CONTINUOUS
 62
     6
 10
19905.851955585149
 20
16388.441779000019
 30
0.0
 11
19880.848656585171
 21
16341.33517500002
 31
0.0
  0
LINE
  5
10CE2
  8
2-0
  6
CONTINUOUS
 62
     6
 10
19880.848656585171
 20
16341.33517500002
 30
0.0
 11
19752.01366958514
 21
16439.875610000021
 31
0.0
  0
LINE
  5
10CE3
  8
2-0
  6
CONTINUOUS
 62
     6
 10
19752.01366958514
 20
16439.875610000021
 30
0.0
 11
19905.851955585149
 21
16388.441779000019
 31
0.0
  0
LINE
  5
10CE4
  8
2-0
  6
CONTINUOUS
 62
     6
 10
19905.851955585149
 20
16388.441779000019
 30
0.0
 11
19752.01366958514
 21
16439.875610000021
 31
0.0
  0
LINE
  5
10CE5
  8
2-0
  6
CONTINUOUS
 62
     6
 10
19880.848656585171
 20
16341.33517500002
 30
0.0
 11
19752.01366958514
 21
16439.875610000021
 31
0.0
  0
LINE
  5
10CE6
  8
2-0
  6
CONTINUOUS
 62
     6
 10
19880.848656585171
 20
16341.33517500002
 30
0.0
 11
19905.851955585149
 21
16388.441779000019
 31
0.0
  0
LINE
  5
10CE7
  8
2-0
  6
CONTINUOUS
 62
     6
 10
20039.788162585151
 20
16879.76027100001
 30
0.0
 11
19896.90453158514
 21
16802.984641999999
 31
0.0
  0
LINE
  5
10CE8
  8
2-0
  6
CONTINUOUS
 62
     6
 10
19896.90453158514
 20
16802.984641999999
 30
0.0
 11
20056.966424585149
 21
16829.266711000018
 31
0.0
  0
LINE
  5
10CE9
  8
2-0
  6
CONTINUOUS
 62
     6
 10
20039.788162585151
 20
16879.76027100001
 30
0.0
 11
20056.966424585149
 21
16829.266711000018
 31
0.0
  0
LINE
  5
10CEA
  8
2-0
  6
CONTINUOUS
 62
     6
 10
20056.966424585149
 20
16829.266711000018
 30
0.0
 11
19896.90453158514
 21
16802.984641999999
 31
0.0
  0
LINE
  5
10CEB
  8
2-0
  6
CONTINUOUS
 62
     6
 10
19896.90453158514
 20
16802.984641999999
 30
0.0
 11
20039.788162585151
 21
16879.76027100001
 31
0.0
  0
LINE
  5
10CEC
  8
2-0
  6
CONTINUOUS
 62
     6
 10
20039.788162585151
 20
16879.76027100001
 30
0.0
 11
19896.90453158514
 21
16802.984641999999
 31
0.0
  0
LINE
  5
10CED
  8
2-0
  6
CONTINUOUS
 62
     6
 10
20056.966424585149
 20
16829.266711000018
 30
0.0
 11
19896.90453158514
 21
16802.984641999999
 31
0.0
  0
LINE
  5
10CEE
  8
2-0
  6
CONTINUOUS
 62
     6
 10
20056.966424585149
 20
16829.266711000018
 30
0.0
 11
20039.788162585151
 21
16879.76027100001
 31
0.0
  0
LINE
  5
10CEF
  8
2-0
  6
CONTINUOUS
 62
     3
 10
19782.007335585149
 20
19251.484325999991
 30
0.0
 11
19782.007335585149
 21
19245.488364000019
 31
0.0
  0
LINE
  5
10CF0
  8
2-0
  6
CONTINUOUS
 62
     3
 10
19782.007335585149
 20
19245.488364000019
 30
0.0
 11
19752.009710585149
 21
19245.488364000019
 31
0.0
  0
LINE
  5
10CF1
  8
2-0
  6
CONTINUOUS
 62
     3
 10
19752.009710585149
 20
19245.488364000019
 30
0.0
 11
19752.009710585149
 21
19360.484537000018
 31
0.0
  0
LINE
  5
10CF2
  8
2-0
  6
CONTINUOUS
 62
     3
 10
19752.009710585149
 20
19275.487968000001
 30
0.0
 11
19833.007651585151
 21
19275.487968000001
 31
0.0
  0
LINE
  5
10CF3
  8
2-0
  6
CONTINUOUS
 62
     3
 10
19782.007335585149
 20
19235.19090799999
 30
0.0
 11
19752.009710585149
 21
19235.19090799999
 31
0.0
  0
LINE
  5
10CF4
  8
2-0
  6
CONTINUOUS
 62
     3
 10
19782.007335585149
 20
19253.192650000001
 30
0.0
 11
19782.007335585149
 21
19235.19090799999
 31
0.0
  0
LINE
  5
10CF5
  8
2-0
  6
CONTINUOUS
 62
     3
 10
19757.013933585149
 20
19253.192650000001
 30
0.0
 11
19782.007335585149
 21
19253.192650000001
 31
0.0
  0
LINE
  5
10CF6
  8
2-0
  6
CONTINUOUS
 62
     3
 10
19757.013933585149
 20
19248.184467999999
 30
0.0
 11
19757.013933585149
 21
19253.192650000001
 31
0.0
  0
LINE
  5
10CF7
  8
2-0
  6
CONTINUOUS
 62
     3
 10
19764.011531585129
 20
19248.184467999999
 30
0.0
 11
19757.013933585149
 21
19248.184467999999
 31
0.0
  0
LINE
  5
10CF8
  8
2-0
  6
CONTINUOUS
 62
     3
 10
19864.305820585141
 20
19348.484694999999
 30
0.0
 11
19864.305820585141
 21
19355.490211000011
 31
0.0
  0
LINE
  5
10CF9
  8
2-0
  6
CONTINUOUS
 62
     3
 10
19864.305820585141
 20
19355.490211000011
 30
0.0
 11
19859.303576585149
 21
19355.490211000011
 31
0.0
  0
LINE
  5
10CFA
  8
2-0
  6
CONTINUOUS
 62
     3
 10
19859.303576585149
 20
19355.490211000011
 30
0.0
 11
19859.303576585149
 21
19330.480973999998
 31
0.0
  0
LINE
  5
10CFB
  8
2-0
  6
CONTINUOUS
 62
     3
 10
19859.303576585149
 20
19330.480973999998
 30
0.0
 11
19877.311257585141
 21
19330.480973999998
 31
0.0
  0
LINE
  5
10CFC
  8
2-0
  6
CONTINUOUS
 62
     3
 10
19877.311257585141
 20
19330.480973999998
 30
0.0
 11
19877.311257585141
 21
19360.484537000018
 31
0.0
  0
LINE
  5
10CFD
  8
2-0
  6
CONTINUOUS
 62
     3
 10
19867.011821585162
 20
19360.484537000018
 30
0.0
 11
19752.009710585149
 21
19360.484537000018
 31
0.0
  0
LINE
  5
10CFE
  8
2-0
  6
CONTINUOUS
 62
     3
 10
19867.011821585162
 20
19330.480973999998
 30
0.0
 11
19867.011821585162
 21
19360.484537000018
 31
0.0
  0
LINE
  5
10CFF
  8
2-0
  6
CONTINUOUS
 62
     3
 10
19861.007942585151
 20
19330.480973999998
 30
0.0
 11
19867.011821585162
 21
19330.480973999998
 31
0.0
  0
LINE
  5
10D00
  8
2-0
  6
CONTINUOUS
 62
     3
 10
19782.007335585149
 20
19251.484325999991
 30
0.0
 11
19782.007335585149
 21
19245.488364000019
 31
0.0
  0
LINE
  5
10D01
  8
2-0
  6
CONTINUOUS
 62
     3
 10
19782.007335585149
 20
19245.488364000019
 30
0.0
 11
19752.009710585149
 21
19245.488364000019
 31
0.0
  0
LINE
  5
10D02
  8
2-0
  6
CONTINUOUS
 62
     3
 10
19752.009710585149
 20
19245.488364000019
 30
0.0
 11
19752.009710585149
 21
19360.484537000018
 31
0.0
  0
LINE
  5
10D03
  8
2-0
  6
CONTINUOUS
 62
     3
 10
19752.009710585149
 20
19275.487968000001
 30
0.0
 11
19833.007651585151
 21
19275.487968000001
 31
0.0
  0
LINE
  5
10D04
  8
2-0
  6
CONTINUOUS
 62
     3
 10
19782.007335585149
 20
19235.19090799999
 30
0.0
 11
19752.009710585149
 21
19235.19090799999
 31
0.0
  0
LINE
  5
10D05
  8
2-0
  6
CONTINUOUS
 62
     3
 10
19782.007335585149
 20
19253.192650000001
 30
0.0
 11
19782.007335585149
 21
19235.19090799999
 31
0.0
  0
LINE
  5
10D06
  8
2-0
  6
CONTINUOUS
 62
     3
 10
19757.013933585149
 20
19253.192650000001
 30
0.0
 11
19782.007335585149
 21
19253.192650000001
 31
0.0
  0
LINE
  5
10D07
  8
2-0
  6
CONTINUOUS
 62
     3
 10
19757.013933585149
 20
19248.184467999999
 30
0.0
 11
19757.013933585149
 21
19253.192650000001
 31
0.0
  0
LINE
  5
10D08
  8
2-0
  6
CONTINUOUS
 62
     3
 10
19764.011531585129
 20
19248.184467999999
 30
0.0
 11
19757.013933585149
 21
19248.184467999999
 31
0.0
  0
LINE
  5
10D09
  8
2-0
  6
CONTINUOUS
 62
     3
 10
19764.011531585129
 20
18894.887645499952
 30
0.0
 11
19757.013933585149
 21
18894.887645499952
 31
0.0
  0
LINE
  5
10D0A
  8
2-0
  6
CONTINUOUS
 62
     3
 10
19757.013933585149
 20
18894.887645499952
 30
0.0
 11
19757.013933585149
 21
18899.88790949999
 31
0.0
  0
LINE
  5
10D0B
  8
2-0
  6
CONTINUOUS
 62
     3
 10
19757.013933585149
 20
18899.88790949999
 30
0.0
 11
19782.007335585149
 21
18899.88790949999
 31
0.0
  0
LINE
  5
10D0C
  8
2-0
  6
CONTINUOUS
 62
     3
 10
19782.007335585149
 20
18899.88790949999
 30
0.0
 11
19782.007335585149
 21
18881.892105499981
 31
0.0
  0
LINE
  5
10D0D
  8
2-0
  6
CONTINUOUS
 62
     3
 10
19782.007335585149
 20
18881.892105499981
 30
0.0
 11
19752.009710585149
 21
18881.892105499981
 31
0.0
  0
LINE
  5
10D0E
  8
2-0
  6
CONTINUOUS
 62
     3
 10
19782.007335585149
 20
18897.98361249996
 30
0.0
 11
19782.007335585149
 21
18891.985671499991
 31
0.0
  0
LINE
  5
10D0F
  8
2-0
  6
CONTINUOUS
 62
     3
 10
19782.007335585149
 20
18891.985671499991
 30
0.0
 11
19752.009710585149
 21
18891.985671499991
 31
0.0
  0
LINE
  5
10D10
  8
2-0
  6
CONTINUOUS
 62
     3
 10
19752.009710585149
 20
18891.985671499991
 30
0.0
 11
19752.009710585149
 21
18928.986832499981
 31
0.0
  0
LINE
  5
10D11
  8
2-0
  6
CONTINUOUS
 62
     3
 10
19782.007335585149
 20
18928.986832499981
 30
0.0
 11
19752.009710585149
 21
18928.986832499981
 31
0.0
  0
LINE
  5
10D12
  8
2-0
  6
CONTINUOUS
 62
     3
 10
19782.007335585149
 20
18922.982952499991
 30
0.0
 11
19782.007335585149
 21
18928.986832499981
 31
0.0
  0
LINE
  5
10D13
  8
2-0
  6
CONTINUOUS
 62
     3
 10
19782.007335585149
 20
18939.082377499959
 30
0.0
 11
19752.009710585149
 21
18939.082377499959
 31
0.0
  0
LINE
  5
10D14
  8
2-0
  6
CONTINUOUS
 62
     3
 10
19782.007335585149
 20
18921.080635499999
 30
0.0
 11
19782.007335585149
 21
18939.082377499959
 31
0.0
  0
LINE
  5
10D15
  8
2-0
  6
CONTINUOUS
 62
     3
 10
19757.013933585149
 20
18921.080635499999
 30
0.0
 11
19782.007335585149
 21
18921.080635499999
 31
0.0
  0
LINE
  5
10D16
  8
2-0
  6
CONTINUOUS
 62
     3
 10
19757.013933585149
 20
18926.08089949999
 30
0.0
 11
19757.013933585149
 21
18921.080635499999
 31
0.0
  0
LINE
  5
10D17
  8
2-0
  6
CONTINUOUS
 62
     3
 10
19764.011531585129
 20
18926.08089949999
 30
0.0
 11
19757.013933585149
 21
18926.08089949999
 31
0.0
  0
LINE
  5
10D18
  8
2-0
  6
CONTINUOUS
 62
     3
 10
19764.011531585129
 20
18193.886655999991
 30
0.0
 11
19757.013933585149
 21
18193.886655999991
 31
0.0
  0
LINE
  5
10D19
  8
2-0
  6
CONTINUOUS
 62
     3
 10
19757.013933585149
 20
18193.886655999991
 30
0.0
 11
19757.013933585149
 21
18198.892857999959
 31
0.0
  0
LINE
  5
10D1A
  8
2-0
  6
CONTINUOUS
 62
     3
 10
19757.013933585149
 20
18198.892857999959
 30
0.0
 11
19782.007335585149
 21
18198.892857999959
 31
0.0
  0
LINE
  5
10D1B
  8
2-0
  6
CONTINUOUS
 62
     3
 10
19782.007335585149
 20
18198.892857999959
 30
0.0
 11
19782.007335585149
 21
18180.891115999999
 31
0.0
  0
LINE
  5
10D1C
  8
2-0
  6
CONTINUOUS
 62
     3
 10
19782.007335585149
 20
18180.891115999999
 30
0.0
 11
19752.009710585149
 21
18180.891115999999
 31
0.0
  0
LINE
  5
10D1D
  8
2-0
  6
CONTINUOUS
 62
     3
 10
19782.007335585149
 20
18196.98262299996
 30
0.0
 11
19782.007335585149
 21
18190.986660999981
 31
0.0
  0
LINE
  5
10D1E
  8
2-0
  6
CONTINUOUS
 62
     3
 10
19782.007335585149
 20
18190.986660999981
 30
0.0
 11
19752.009710585149
 21
18190.986660999981
 31
0.0
  0
LINE
  5
10D1F
  8
2-0
  6
CONTINUOUS
 62
     3
 10
19752.009710585149
 20
18190.986660999981
 30
0.0
 11
19752.009710585149
 21
18227.985842999991
 31
0.0
  0
LINE
  5
10D20
  8
2-0
  6
CONTINUOUS
 62
     3
 10
19782.007335585149
 20
18227.985842999991
 30
0.0
 11
19752.009710585149
 21
18227.985842999991
 31
0.0
  0
LINE
  5
10D21
  8
2-0
  6
CONTINUOUS
 62
     3
 10
19782.007335585149
 20
18221.98988099999
 30
0.0
 11
19782.007335585149
 21
18227.985842999991
 31
0.0
  0
LINE
  5
10D22
  8
2-0
  6
CONTINUOUS
 62
     3
 10
19782.007335585149
 20
18238.081387999999
 30
0.0
 11
19752.009710585149
 21
18238.081387999999
 31
0.0
  0
LINE
  5
10D23
  8
2-0
  6
CONTINUOUS
 62
     3
 10
19782.007335585149
 20
18220.079645999991
 30
0.0
 11
19782.007335585149
 21
18238.081387999999
 31
0.0
  0
LINE
  5
10D24
  8
2-0
  6
CONTINUOUS
 62
     3
 10
19757.013933585149
 20
18220.079645999991
 30
0.0
 11
19782.007335585149
 21
18220.079645999991
 31
0.0
  0
LINE
  5
10D25
  8
2-0
  6
CONTINUOUS
 62
     3
 10
19757.013933585149
 20
18225.085847999981
 30
0.0
 11
19757.013933585149
 21
18220.079645999991
 31
0.0
  0
LINE
  5
10D26
  8
2-0
  6
CONTINUOUS
 62
     3
 10
19764.011531585129
 20
18225.085847999981
 30
0.0
 11
19757.013933585149
 21
18225.085847999981
 31
0.0
  0
LINE
  5
10D27
  8
2-0
  6
CONTINUOUS
 62
     3
 10
19764.011531585129
 20
17524.079909999989
 30
0.0
 11
19757.013933585149
 21
17524.079909999989
 31
0.0
  0
LINE
  5
10D28
  8
2-0
  6
CONTINUOUS
 62
     3
 10
19757.013933585149
 20
17524.079909999989
 30
0.0
 11
19757.013933585149
 21
17519.091522999988
 31
0.0
  0
LINE
  5
10D29
  8
2-0
  6
CONTINUOUS
 62
     3
 10
19757.013933585149
 20
17519.091522999988
 30
0.0
 11
19782.007335585149
 21
17519.091522999988
 31
0.0
  0
LINE
  5
10D2A
  8
2-0
  6
CONTINUOUS
 62
     3
 10
19782.007335585149
 20
17519.091522999988
 30
0.0
 11
19782.007335585149
 21
17537.08732599999
 31
0.0
  0
LINE
  5
10D2B
  8
2-0
  6
CONTINUOUS
 62
     3
 10
19782.007335585149
 20
17537.08732599999
 30
0.0
 11
19752.009710585149
 21
17537.08732599999
 31
0.0
  0
LINE
  5
10D2C
  8
2-0
  6
CONTINUOUS
 62
     3
 10
19782.007335585149
 20
17520.98988099999
 30
0.0
 11
19782.007335585149
 21
17526.985842999991
 31
0.0
  0
LINE
  5
10D2D
  8
2-0
  6
CONTINUOUS
 62
     3
 10
19782.007335585149
 20
17526.985842999991
 30
0.0
 11
19752.009710585149
 21
17526.985842999991
 31
0.0
  0
LINE
  5
10D2E
  8
2-0
  6
CONTINUOUS
 62
     3
 10
19752.009710585149
 20
17526.985842999991
 30
0.0
 11
19752.009710585149
 21
17489.986660999992
 31
0.0
  0
LINE
  5
10D2F
  8
2-0
  6
CONTINUOUS
 62
     3
 10
19782.007335585149
 20
17489.986660999992
 30
0.0
 11
19752.009710585149
 21
17489.986660999992
 31
0.0
  0
LINE
  5
10D30
  8
2-0
  6
CONTINUOUS
 62
     3
 10
19782.007335585149
 20
17495.98856199998
 30
0.0
 11
19782.007335585149
 21
17489.986660999992
 31
0.0
  0
LINE
  5
10D31
  8
2-0
  6
CONTINUOUS
 62
     3
 10
19782.007335585149
 20
17479.89705499999
 30
0.0
 11
19752.009710585149
 21
17479.89705499999
 31
0.0
  0
LINE
  5
10D32
  8
2-0
  6
CONTINUOUS
 62
     3
 10
19782.007335585149
 20
17497.892857999988
 30
0.0
 11
19782.007335585149
 21
17479.89705499999
 31
0.0
  0
LINE
  5
10D33
  8
2-0
  6
CONTINUOUS
 62
     3
 10
19757.013933585149
 20
17497.892857999988
 30
0.0
 11
19782.007335585149
 21
17497.892857999988
 31
0.0
  0
LINE
  5
10D34
  8
2-0
  6
CONTINUOUS
 62
     3
 10
19757.013933585149
 20
17492.89259499999
 30
0.0
 11
19757.013933585149
 21
17497.892857999988
 31
0.0
  0
LINE
  5
10D35
  8
2-0
  6
CONTINUOUS
 62
     3
 10
19764.011531585129
 20
17492.89259499999
 30
0.0
 11
19757.013933585149
 21
17492.89259499999
 31
0.0
  0
LINE
  5
10D36
  8
2-0
  6
CONTINUOUS
 62
     3
 10
19754.89584858514
 20
16772.983480999988
 30
0.0
 11
19754.89584858514
 21
16792.984536
 31
0.0
  0
LINE
  5
10D37
  8
2-0
  6
CONTINUOUS
 62
     3
 10
19754.89584858514
 20
16792.984536
 30
0.0
 11
19839.896376585151
 21
16792.984536
 31
0.0
  0
LINE
  5
10D38
  8
2-0
  6
CONTINUOUS
 62
     3
 10
19764.011531585129
 20
16819.591246
 30
0.0
 11
19757.013933585149
 21
16819.591246
 31
0.0
  0
LINE
  5
10D39
  8
2-0
  6
CONTINUOUS
 62
     3
 10
19757.013933585149
 20
16819.591246
 30
0.0
 11
19757.013933585149
 21
16814.59692
 31
0.0
  0
LINE
  5
10D3A
  8
2-0
  6
CONTINUOUS
 62
     3
 10
19757.013933585149
 20
16814.59692
 30
0.0
 11
19782.007335585149
 21
16814.59692
 31
0.0
  0
LINE
  5
10D3B
  8
2-0
  6
CONTINUOUS
 62
     3
 10
19782.007335585149
 20
16814.59692
 30
0.0
 11
19782.007335585149
 21
16832.592723999998
 31
0.0
  0
LINE
  5
10D3C
  8
2-0
  6
CONTINUOUS
 62
     3
 10
19782.007335585149
 20
16832.592723999998
 30
0.0
 11
19752.009710585149
 21
16832.592723999998
 31
0.0
  0
LINE
  5
10D3D
  8
2-0
  6
CONTINUOUS
 62
     3
 10
19782.007335585149
 20
16822.98413999999
 30
0.0
 11
19782.007335585149
 21
16816.98223999999
 31
0.0
  0
LINE
  5
10D3E
  8
2-0
  6
CONTINUOUS
 62
     3
 10
19752.009710585149
 20
16822.98413999999
 30
0.0
 11
19782.007335585149
 21
16822.98413999999
 31
0.0
  0
LINE
  5
10D3F
  8
2-0
  6
CONTINUOUS
 62
     3
 10
19752.009710585149
 20
16832.592723999998
 30
0.0
 11
19752.009710585149
 21
17479.89705499999
 31
0.0
  0
LINE
  5
10D40
  8
2-0
  6
CONTINUOUS
 62
     3
 10
19752.009710585149
 20
17537.08732599999
 30
0.0
 11
19752.009710585149
 21
18180.891115999999
 31
0.0
  0
LINE
  5
10D41
  8
2-0
  6
CONTINUOUS
 62
     3
 10
19752.009710585149
 20
16677.982424999998
 30
0.0
 11
19782.007335585149
 21
16677.982424999998
 31
0.0
  0
LINE
  5
10D42
  8
2-0
  6
CONTINUOUS
 62
     3
 10
19782.007335585149
 20
16677.982424999998
 30
0.0
 11
19782.007335585149
 21
16683.98432499999
 31
0.0
  0
LINE
  5
10D43
  8
2-0
  6
CONTINUOUS
 62
     3
 10
19839.896376585151
 20
16707.987968000001
 30
0.0
 11
19754.89584858514
 21
16707.987968000001
 31
0.0
  0
LINE
  5
10D44
  8
2-0
  6
CONTINUOUS
 62
     3
 10
19754.89584858514
 20
16707.987968000001
 30
0.0
 11
19754.89584858514
 21
16727.983085
 31
0.0
  0
LINE
  5
10D45
  8
2-0
  6
CONTINUOUS
 62
     3
 10
19782.007335585149
 20
16668.373842000012
 30
0.0
 11
19752.009710585149
 21
16668.373842000012
 31
0.0
  0
LINE
  5
10D46
  8
2-0
  6
CONTINUOUS
 62
     3
 10
19782.007335585149
 20
16686.369644999992
 30
0.0
 11
19782.007335585149
 21
16668.373842000012
 31
0.0
  0
LINE
  5
10D47
  8
2-0
  6
CONTINUOUS
 62
     3
 10
19757.013933585149
 20
16686.369644999992
 30
0.0
 11
19782.007335585149
 21
16686.369644999992
 31
0.0
  0
LINE
  5
10D48
  8
2-0
  6
CONTINUOUS
 62
     3
 10
19757.013933585149
 20
16681.36938099999
 30
0.0
 11
19757.013933585149
 21
16686.369644999992
 31
0.0
  0
LINE
  5
10D49
  8
2-0
  6
CONTINUOUS
 62
     3
 10
19764.011531585129
 20
16681.36938099999
 30
0.0
 11
19757.013933585149
 21
16681.36938099999
 31
0.0
  0
LINE
  5
10D4A
  8
2-0
  6
CONTINUOUS
 62
     3
 10
19764.011531585129
 20
15976.887150499981
 30
0.0
 11
19757.013933585149
 21
15976.887150499981
 31
0.0
  0
LINE
  5
10D4B
  8
2-0
  6
CONTINUOUS
 62
     3
 10
19757.013933585149
 20
15976.887150499981
 30
0.0
 11
19757.013933585149
 21
15981.887414499981
 31
0.0
  0
LINE
  5
10D4C
  8
2-0
  6
CONTINUOUS
 62
     3
 10
19757.013933585149
 20
15981.887414499981
 30
0.0
 11
19782.007335585149
 21
15981.887414499981
 31
0.0
  0
LINE
  5
10D4D
  8
2-0
  6
CONTINUOUS
 62
     3
 10
19782.007335585149
 20
15981.887414499981
 30
0.0
 11
19782.007335585149
 21
15963.885672499981
 31
0.0
  0
LINE
  5
10D4E
  8
2-0
  6
CONTINUOUS
 62
     3
 10
19782.007335585149
 20
15963.885672499981
 30
0.0
 11
19752.009710585149
 21
15963.885672499981
 31
0.0
  0
LINE
  5
10D4F
  8
2-0
  6
CONTINUOUS
 62
     3
 10
19782.007335585149
 20
15979.983117499991
 30
0.0
 11
19782.007335585149
 21
15973.98616649999
 31
0.0
  0
LINE
  5
10D50
  8
2-0
  6
CONTINUOUS
 62
     3
 10
19782.007335585149
 20
15973.98616649999
 30
0.0
 11
19752.009710585149
 21
15973.98616649999
 31
0.0
  0
LINE
  5
10D51
  8
2-0
  6
CONTINUOUS
 62
     3
 10
19752.009710585149
 20
15973.98616649999
 30
0.0
 11
19752.009710585149
 21
16010.9863375
 31
0.0
  0
LINE
  5
10D52
  8
2-0
  6
CONTINUOUS
 62
     3
 10
19782.007335585149
 20
16010.9863375
 30
0.0
 11
19752.009710585149
 21
16010.9863375
 31
0.0
  0
LINE
  5
10D53
  8
2-0
  6
CONTINUOUS
 62
     3
 10
19782.007335585149
 20
16004.98344749999
 30
0.0
 11
19782.007335585149
 21
16010.9863375
 31
0.0
  0
LINE
  5
10D54
  8
2-0
  6
CONTINUOUS
 62
     3
 10
19782.007335585149
 20
16021.081882500001
 30
0.0
 11
19752.009710585149
 21
16021.081882500001
 31
0.0
  0
LINE
  5
10D55
  8
2-0
  6
CONTINUOUS
 62
     3
 10
19782.007335585149
 20
16003.074201499991
 30
0.0
 11
19782.007335585149
 21
16021.081882500001
 31
0.0
  0
LINE
  5
10D56
  8
2-0
  6
CONTINUOUS
 62
     3
 10
19757.013933585149
 20
16003.074201499991
 30
0.0
 11
19782.007335585149
 21
16003.074201499991
 31
0.0
  0
LINE
  5
10D57
  8
2-0
  6
CONTINUOUS
 62
     3
 10
19757.013933585149
 20
16008.0804045
 30
0.0
 11
19757.013933585149
 21
16003.074201499991
 31
0.0
  0
LINE
  5
10D58
  8
2-0
  6
CONTINUOUS
 62
     3
 10
19764.011531585129
 20
16008.0804045
 30
0.0
 11
19757.013933585149
 21
16008.0804045
 31
0.0
  0
LINE
  5
10D59
  8
2-0
  6
CONTINUOUS
 62
     3
 10
19764.011531585129
 20
15307.320421000009
 30
0.0
 11
19757.013933585149
 21
15307.320421000009
 31
0.0
  0
LINE
  5
10D5A
  8
2-0
  6
CONTINUOUS
 62
     3
 10
19757.013933585149
 20
15307.320421000009
 30
0.0
 11
19757.013933585149
 21
15302.326096000001
 31
0.0
  0
LINE
  5
10D5B
  8
2-0
  6
CONTINUOUS
 62
     3
 10
19757.013933585149
 20
15302.326096000001
 30
0.0
 11
19782.007335585149
 21
15302.326096000001
 31
0.0
  0
LINE
  5
10D5C
  8
2-0
  6
CONTINUOUS
 62
     3
 10
19782.007335585149
 20
15302.326096000001
 30
0.0
 11
19782.007335585149
 21
15320.321899
 31
0.0
  0
LINE
  5
10D5D
  8
2-0
  6
CONTINUOUS
 62
     3
 10
19782.007335585149
 20
15320.321899
 30
0.0
 11
19752.009710585149
 21
15320.321899
 31
0.0
  0
LINE
  5
10D5E
  8
2-0
  6
CONTINUOUS
 62
     3
 10
19782.007335585149
 20
15304.224453999999
 30
0.0
 11
19782.007335585149
 21
15310.226354000009
 31
0.0
  0
LINE
  5
10D5F
  8
2-0
  6
CONTINUOUS
 62
     3
 10
19782.007335585149
 20
15310.226354000009
 30
0.0
 11
19752.009710585149
 21
15310.226354000009
 31
0.0
  0
LINE
  5
10D60
  8
2-0
  6
CONTINUOUS
 62
     3
 10
19752.009710585149
 20
15273.22717300001
 30
0.0
 11
19752.009710585149
 21
15310.226354000009
 31
0.0
  0
LINE
  5
10D61
  8
2-0
  6
CONTINUOUS
 62
     3
 10
19782.007335585149
 20
15273.22717300001
 30
0.0
 11
19752.009710585149
 21
15273.22717300001
 31
0.0
  0
LINE
  5
10D62
  8
2-0
  6
CONTINUOUS
 62
     3
 10
19782.007335585149
 20
15279.224123999989
 30
0.0
 11
19782.007335585149
 21
15273.22717300001
 31
0.0
  0
LINE
  5
10D63
  8
2-0
  6
CONTINUOUS
 62
     3
 10
19782.007335585149
 20
15263.125689
 30
0.0
 11
19752.009710585149
 21
15263.125689
 31
0.0
  0
LINE
  5
10D64
  8
2-0
  6
CONTINUOUS
 62
     3
 10
19782.007335585149
 20
15281.13337
 30
0.0
 11
19782.007335585149
 21
15263.125689
 31
0.0
  0
LINE
  5
10D65
  8
2-0
  6
CONTINUOUS
 62
     3
 10
19757.013933585149
 20
15281.13337
 30
0.0
 11
19782.007335585149
 21
15281.13337
 31
0.0
  0
LINE
  5
10D66
  8
2-0
  6
CONTINUOUS
 62
     3
 10
19757.013933585149
 20
15276.13310600001
 30
0.0
 11
19757.013933585149
 21
15281.13337
 31
0.0
  0
LINE
  5
10D67
  8
2-0
  6
CONTINUOUS
 62
     3
 10
19764.011531585129
 20
15276.13310600001
 30
0.0
 11
19757.013933585149
 21
15276.13310600001
 31
0.0
  0
LINE
  5
10D68
  8
2-0
  6
CONTINUOUS
 62
     3
 10
19752.009710585149
 20
16668.373842000012
 30
0.0
 11
19752.009710585149
 21
16021.081882500001
 31
0.0
  0
LINE
  5
10D69
  8
2-0
  6
CONTINUOUS
 62
     3
 10
19752.009710585149
 20
16822.98413999999
 30
0.0
 11
19752.009710585149
 21
16677.982424999998
 31
0.0
  0
LINE
  5
10D6A
  8
2-0
  6
CONTINUOUS
 62
     3
 10
19839.896376585151
 20
16792.984536
 30
0.0
 11
19839.896376585151
 21
16707.987968000001
 31
0.0
  0
LINE
  5
10D6B
  8
2-0
  6
CONTINUOUS
 62
     3
 10
19764.011531585129
 20
14574.892099000001
 30
0.0
 11
19757.013933585149
 21
14574.892099000001
 31
0.0
  0
LINE
  5
10D6C
  8
2-0
  6
CONTINUOUS
 62
     3
 10
19757.013933585149
 20
14574.892099000001
 30
0.0
 11
19757.013933585149
 21
14579.886425000001
 31
0.0
  0
LINE
  5
10D6D
  8
2-0
  6
CONTINUOUS
 62
     3
 10
19757.013933585149
 20
14579.886425000001
 30
0.0
 11
19782.007335585149
 21
14579.886425000001
 31
0.0
  0
LINE
  5
10D6E
  8
2-0
  6
CONTINUOUS
 62
     3
 10
19782.007335585149
 20
14579.886425000001
 30
0.0
 11
19782.007335585149
 21
14561.890621
 31
0.0
  0
LINE
  5
10D6F
  8
2-0
  6
CONTINUOUS
 62
     3
 10
19782.007335585149
 20
14561.890621
 30
0.0
 11
19752.009710585149
 21
14561.890621
 31
0.0
  0
LINE
  5
10D70
  8
2-0
  6
CONTINUOUS
 62
     3
 10
19782.007335585149
 20
14577.989056000009
 30
0.0
 11
19782.007335585149
 21
14571.986166000001
 31
0.0
  0
LINE
  5
10D71
  8
2-0
  6
CONTINUOUS
 62
     3
 10
19782.007335585149
 20
14571.986166000001
 30
0.0
 11
19752.009710585149
 21
14571.986166000001
 31
0.0
  0
LINE
  5
10D72
  8
2-0
  6
CONTINUOUS
 62
     3
 10
19752.009710585149
 20
14571.986166000001
 30
0.0
 11
19752.009710585149
 21
14608.986337999981
 31
0.0
  0
LINE
  5
10D73
  8
2-0
  6
CONTINUOUS
 62
     3
 10
19782.007335585149
 20
14608.986337999981
 30
0.0
 11
19752.009710585149
 21
14608.986337999981
 31
0.0
  0
LINE
  5
10D74
  8
2-0
  6
CONTINUOUS
 62
     3
 10
19782.007335585149
 20
14602.989385999999
 30
0.0
 11
19782.007335585149
 21
14608.986337999981
 31
0.0
  0
LINE
  5
10D75
  8
2-0
  6
CONTINUOUS
 62
     3
 10
19782.007335585149
 20
14619.086831000001
 30
0.0
 11
19752.009710585149
 21
14619.086831000001
 31
0.0
  0
LINE
  5
10D76
  8
2-0
  6
CONTINUOUS
 62
     3
 10
19782.007335585149
 20
14601.080140000009
 30
0.0
 11
19782.007335585149
 21
14619.086831000001
 31
0.0
  0
LINE
  5
10D77
  8
2-0
  6
CONTINUOUS
 62
     3
 10
19757.013933585149
 20
14601.080140000009
 30
0.0
 11
19782.007335585149
 21
14601.080140000009
 31
0.0
  0
LINE
  5
10D78
  8
2-0
  6
CONTINUOUS
 62
     3
 10
19757.013933585149
 20
14606.085353000009
 30
0.0
 11
19757.013933585149
 21
14601.080140000009
 31
0.0
  0
LINE
  5
10D79
  8
2-0
  6
CONTINUOUS
 62
     3
 10
19764.011531585129
 20
14606.085353000009
 30
0.0
 11
19757.013933585149
 21
14606.085353000009
 31
0.0
  0
LINE
  5
10D7A
  8
2-0
  6
CONTINUOUS
 62
     3
 10
19782.007335585149
 20
14249.488178999991
 30
0.0
 11
19782.007335585149
 21
14255.493048
 31
0.0
  0
LINE
  5
10D7B
  8
2-0
  6
CONTINUOUS
 62
     3
 10
19782.007335585149
 20
14255.493048
 30
0.0
 11
19752.009710585149
 21
14255.493048
 31
0.0
  0
LINE
  5
10D7C
  8
2-0
  6
CONTINUOUS
 62
     3
 10
19752.009710585149
 20
14255.493048
 30
0.0
 11
19752.009710585149
 21
14140.48895699999
 31
0.0
  0
LINE
  5
10D7D
  8
2-0
  6
CONTINUOUS
 62
     3
 10
19752.009710585149
 20
14140.48895699999
 30
0.0
 11
19837.008258585149
 21
14140.48895699999
 31
0.0
  0
LINE
  5
10D7E
  8
2-0
  6
CONTINUOUS
 62
     3
 10
19837.008258585149
 20
14140.48895699999
 30
0.0
 11
19837.008258585149
 21
14225.484536
 31
0.0
  0
LINE
  5
10D7F
  8
2-0
  6
CONTINUOUS
 62
     3
 10
19837.008258585149
 20
14225.484536
 30
0.0
 11
19805.011320585141
 21
14225.484536
 31
0.0
  0
LINE
  5
10D80
  8
2-0
  6
CONTINUOUS
 62
     3
 10
19764.011531585129
 20
14252.522780999991
 30
0.0
 11
19757.013933585149
 21
14252.522780999991
 31
0.0
  0
LINE
  5
10D81
  8
2-0
  6
CONTINUOUS
 62
     3
 10
19757.013933585149
 20
14252.522780999991
 30
0.0
 11
19757.013933585149
 21
14247.52548599998
 31
0.0
  0
LINE
  5
10D82
  8
2-0
  6
CONTINUOUS
 62
     3
 10
19757.013933585149
 20
14247.52548599998
 30
0.0
 11
19782.007335585149
 21
14247.52548599998
 31
0.0
  0
LINE
  5
10D83
  8
2-0
  6
CONTINUOUS
 62
     3
 10
19782.007335585149
 20
14247.52548599998
 30
0.0
 11
19782.007335585149
 21
14265.524259
 31
0.0
  0
LINE
  5
10D84
  8
2-0
  6
CONTINUOUS
 62
     3
 10
19782.007335585149
 20
14265.524259
 30
0.0
 11
19752.009710585149
 21
14265.524259
 31
0.0
  0
LINE
  5
10D85
  8
2-0
  6
CONTINUOUS
 62
     3
 10
19752.009710585149
 20
14619.086831000001
 30
0.0
 11
19752.009710585149
 21
15263.125689
 31
0.0
  0
LINE
  5
10D86
  8
2-0
  6
CONTINUOUS
 62
     3
 10
19752.009710585149
 20
18238.081387999999
 30
0.0
 11
19752.009710585149
 21
18881.892105499981
 31
0.0
  0
LINE
  5
10D87
  8
2-0
  6
CONTINUOUS
 62
     3
 10
19752.009710585149
 20
15963.885672499981
 30
0.0
 11
19752.009710585149
 21
15320.321899
 31
0.0
  0
LINE
  5
10D88
  8
2-0
  6
CONTINUOUS
 62
     3
 10
23105.504299585162
 20
19245.488364000019
 30
0.0
 11
23105.504299585162
 21
19360.484537000018
 31
0.0
  0
LINE
  5
10D89
  8
2-0
  6
CONTINUOUS
 62
     3
 10
19752.009710585149
 20
19275.487968000001
 30
0.0
 11
23024.50239958513
 21
19275.487968000001
 31
0.0
  0
LINE
  5
10D8A
  8
2-0
  6
CONTINUOUS
 62
     3
 10
19752.009710585149
 20
14265.524259
 30
0.0
 11
19752.009710585149
 21
14561.890621
 31
0.0
  0
LINE
  5
10D8B
  8
2-0
  6
CONTINUOUS
 62
     3
 10
23105.504299585162
 20
19235.19090799999
 30
0.0
 11
23105.504299585162
 21
18939.082377499992
 31
0.0
  0
LINE
  5
10D8C
  8
2-0
  6
CONTINUOUS
 62
     3
 10
19752.009710585149
 20
19235.19090799999
 30
0.0
 11
19752.009710585149
 21
18939.082377499959
 31
0.0
  0
LINE
  5
10D8D
  8
2-0
  6
CONTINUOUS
 62
     3
 10
19833.007651585151
 20
14225.484536
 30
0.0
 11
19833.007651585151
 21
19360.484537000018
 31
0.0
  0
LINE
  5
10D8E
  8
2-0
  6
CONTINUOUS
 62
     3
 10
23024.50239958513
 20
14225.484536
 30
0.0
 11
23024.50239958513
 21
19360.484537000018
 31
0.0
  0
TEXT
  5
10D8F
  8
2-0
  6
CONTINUOUS
 62
     7
 10
20467.738190255292
 20
16200.97714927651
 30
0.0
 40
160.0
  1
壁パネル
 50
0.0001770000000167
 72
     4
 11
20830.404609781599
 21
16280.978269637881
 31
0.0
  0
TEXT
  5
10D90
  8
2-0
  6
CONTINUOUS
 62
     7
 10
20438.40776093824
 20
17038.173678652362
 30
0.0
 40
160.0
  1
中柱（左右）
 50
359.99964599999998
 72
     4
 11
20955.741588538938
 21
17118.170482324658
 31
0.0
  0
TEXT
  5
10D91
  8
2-0
  6
CONTINUOUS
 62
     7
 10
20451.738850310579
 20
14596.034972706109
 30
0.0
 40
160.0
  1
下枠
 50
359.99893699999978
 72
     4
 11
20622.40700117587
 21
14676.031806339281
 31
0.0
  0
TEXT
  5
10D92
  8
2-0
  6
CONTINUOUS
 62
     7
 10
20455.44009291847
 20
18641.436024499981
 30
0.0
 40
160.0
  1
間柱（側）
 72
     4
 11
20876.773426251799
 21
18721.436024499981
 31
0.0
  0
TEXT
  5
10D93
  8
2-0
  6
CONTINUOUS
 62
     7
 10
17955.51644060469
 20
20170.490071748729
 30
0.0
 40
160.0
  1
後柱（左右）
 50
359.99964599999998
 72
     4
 11
18467.516934872168
 21
20250.48690837283
 31
0.0
  0
LINE
  5
10D94
  8
2-0
  6
CONTINUOUS
 62
     3
 10
22323.50659658515
 20
19360.484537000018
 30
0.0
 11
22286.50543458516
 21
19360.484537000018
 31
0.0
  0
LINE
  5
10D95
  8
2-0
  6
CONTINUOUS
 62
     3
 10
22323.50659658515
 20
19330.480973999998
 30
0.0
 11
22323.50659658515
 21
19360.484537000018
 31
0.0
  0
LINE
  5
10D96
  8
2-0
  6
CONTINUOUS
 62
     3
 10
22317.50667558514
 20
19330.480973999998
 30
0.0
 11
22323.50659658515
 21
19330.480973999998
 31
0.0
  0
LINE
  5
10D97
  8
2-0
  6
CONTINUOUS
 62
     3
 10
22333.604120585162
 20
19330.480973999998
 30
0.0
 11
22333.604120585162
 21
19360.484537000018
 31
0.0
  0
LINE
  5
10D98
  8
2-0
  6
CONTINUOUS
 62
     3
 10
22315.600399585161
 20
19330.480973999998
 30
0.0
 11
22333.604120585162
 21
19330.480973999998
 31
0.0
  0
LINE
  5
10D99
  8
2-0
  6
CONTINUOUS
 62
     3
 10
22315.600399585161
 20
19355.490211000011
 30
0.0
 11
22315.600399585161
 21
19330.480973999998
 31
0.0
  0
LINE
  5
10D9A
  8
2-0
  6
CONTINUOUS
 62
     3
 10
22320.600663585159
 20
19355.490211000011
 30
0.0
 11
22315.600399585161
 21
19355.490211000011
 31
0.0
  0
LINE
  5
10D9B
  8
2-0
  6
CONTINUOUS
 62
     3
 10
22320.600663585159
 20
19348.484694999999
 30
0.0
 11
22320.600663585159
 21
19355.490211000011
 31
0.0
  0
LINE
  5
10D9C
  8
2-0
  6
CONTINUOUS
 62
     3
 10
22289.411368585141
 20
19348.484694999999
 30
0.0
 11
22289.411368585141
 21
19355.490211000011
 31
0.0
  0
LINE
  5
10D9D
  8
2-0
  6
CONTINUOUS
 62
     3
 10
22289.411368585141
 20
19355.490211000011
 30
0.0
 11
22294.411632585161
 21
19355.490211000011
 31
0.0
  0
LINE
  5
10D9E
  8
2-0
  6
CONTINUOUS
 62
     3
 10
22294.411632585161
 20
19355.490211000011
 30
0.0
 11
22294.411632585161
 21
19330.480973999998
 31
0.0
  0
LINE
  5
10D9F
  8
2-0
  6
CONTINUOUS
 62
     3
 10
22294.411632585161
 20
19330.480973999998
 30
0.0
 11
22276.411869585161
 21
19330.480973999998
 31
0.0
  0
LINE
  5
10DA0
  8
2-0
  6
CONTINUOUS
 62
     3
 10
22276.411869585161
 20
19330.480973999998
 30
0.0
 11
22276.411869585161
 21
19360.484537000018
 31
0.0
  0
LINE
  5
10DA1
  8
2-0
  6
CONTINUOUS
 62
     3
 10
22292.50535558517
 20
19330.480973999998
 30
0.0
 11
22286.50543458516
 21
19330.480973999998
 31
0.0
  0
LINE
  5
10DA2
  8
2-0
  6
CONTINUOUS
 62
     3
 10
22286.50543458516
 20
19330.480973999998
 30
0.0
 11
22286.50543458516
 21
19360.484537000018
 31
0.0
  0
LINE
  5
10DA3
  8
2-0
  6
CONTINUOUS
 62
     3
 10
20918.59571408515
 20
19348.484694999999
 30
0.0
 11
20918.59571408515
 21
19355.490211000011
 31
0.0
  0
LINE
  5
10DA4
  8
2-0
  6
CONTINUOUS
 62
     3
 10
20918.59571408515
 20
19355.490211000011
 30
0.0
 11
20913.595450085151
 21
19355.490211000011
 31
0.0
  0
LINE
  5
10DA5
  8
2-0
  6
CONTINUOUS
 62
     3
 10
20913.595450085151
 20
19355.490211000011
 30
0.0
 11
20913.595450085151
 21
19330.480973999998
 31
0.0
  0
LINE
  5
10DA6
  8
2-0
  6
CONTINUOUS
 62
     3
 10
20913.595450085151
 20
19330.480973999998
 30
0.0
 11
20931.601151085149
 21
19330.480973999998
 31
0.0
  0
LINE
  5
10DA7
  8
2-0
  6
CONTINUOUS
 62
     3
 10
20931.601151085149
 20
19330.480973999998
 30
0.0
 11
20931.601151085149
 21
19360.484537000018
 31
0.0
  0
LINE
  5
10DA8
  8
2-0
  6
CONTINUOUS
 62
     3
 10
20915.503706085139
 20
19330.480973999998
 30
0.0
 11
20921.505606085149
 21
19330.480973999998
 31
0.0
  0
LINE
  5
10DA9
  8
2-0
  6
CONTINUOUS
 62
     3
 10
20921.505606085149
 20
19330.480973999998
 30
0.0
 11
20921.505606085149
 21
19360.484537000018
 31
0.0
  0
LINE
  5
10DAA
  8
2-0
  6
CONTINUOUS
 62
     3
 10
20884.506425085139
 20
19360.484537000018
 30
0.0
 11
20921.505606085149
 21
19360.484537000018
 31
0.0
  0
LINE
  5
10DAB
  8
2-0
  6
CONTINUOUS
 62
     3
 10
20884.506425085139
 20
19330.480973999998
 30
0.0
 11
20884.506425085139
 21
19360.484537000018
 31
0.0
  0
LINE
  5
10DAC
  8
2-0
  6
CONTINUOUS
 62
     3
 10
20890.50040708515
 20
19330.480973999998
 30
0.0
 11
20884.506425085139
 21
19330.480973999998
 31
0.0
  0
LINE
  5
10DAD
  8
2-0
  6
CONTINUOUS
 62
     3
 10
20874.410880085161
 20
19330.480973999998
 30
0.0
 11
20874.410880085161
 21
19360.484537000018
 31
0.0
  0
LINE
  5
10DAE
  8
2-0
  6
CONTINUOUS
 62
     3
 10
20892.406683085152
 20
19330.480973999998
 30
0.0
 11
20874.410880085161
 21
19330.480973999998
 31
0.0
  0
LINE
  5
10DAF
  8
2-0
  6
CONTINUOUS
 62
     3
 10
20892.406683085152
 20
19355.490211000011
 30
0.0
 11
20892.406683085152
 21
19330.480973999998
 31
0.0
  0
LINE
  5
10DB0
  8
2-0
  6
CONTINUOUS
 62
     3
 10
20887.40641908516
 20
19355.490211000011
 30
0.0
 11
20892.406683085152
 21
19355.490211000011
 31
0.0
  0
LINE
  5
10DB1
  8
2-0
  6
CONTINUOUS
 62
     3
 10
20887.40641908516
 20
19348.484694999999
 30
0.0
 11
20887.40641908516
 21
19355.490211000011
 31
0.0
  0
LINE
  5
10DB2
  8
2-0
  6
CONTINUOUS
 62
     3
 10
21588.405430085149
 20
19348.484694999999
 30
0.0
 11
21588.405430085149
 21
19355.490211000011
 31
0.0
  0
LINE
  5
10DB3
  8
2-0
  6
CONTINUOUS
 62
     3
 10
21588.405430085149
 20
19355.490211000011
 30
0.0
 11
21593.405693085151
 21
19355.490211000011
 31
0.0
  0
LINE
  5
10DB4
  8
2-0
  6
CONTINUOUS
 62
     3
 10
21593.405693085151
 20
19355.490211000011
 30
0.0
 11
21593.405693085151
 21
19330.480973999998
 31
0.0
  0
LINE
  5
10DB5
  8
2-0
  6
CONTINUOUS
 62
     3
 10
21593.405693085151
 20
19330.480973999998
 30
0.0
 11
21575.41187008515
 21
19330.480973999998
 31
0.0
  0
LINE
  5
10DB6
  8
2-0
  6
CONTINUOUS
 62
     3
 10
21575.41187008515
 20
19330.480973999998
 30
0.0
 11
21575.41187008515
 21
19360.484537000018
 31
0.0
  0
LINE
  5
10DB7
  8
2-0
  6
CONTINUOUS
 62
     3
 10
21591.50337608514
 20
19330.480973999998
 30
0.0
 11
21585.50543508515
 21
19330.480973999998
 31
0.0
  0
LINE
  5
10DB8
  8
2-0
  6
CONTINUOUS
 62
     3
 10
21585.50543508515
 20
19330.480973999998
 30
0.0
 11
21585.50543508515
 21
19360.484537000018
 31
0.0
  0
LINE
  5
10DB9
  8
2-0
  6
CONTINUOUS
 62
     3
 10
21622.50659608515
 20
19360.484537000018
 30
0.0
 11
21585.50543508515
 21
19360.484537000018
 31
0.0
  0
LINE
  5
10DBA
  8
2-0
  6
CONTINUOUS
 62
     3
 10
21622.50659608515
 20
19330.480973999998
 30
0.0
 11
21622.50659608515
 21
19360.484537000018
 31
0.0
  0
LINE
  5
10DBB
  8
2-0
  6
CONTINUOUS
 62
     3
 10
21616.50073708516
 20
19330.480973999998
 30
0.0
 11
21622.50659608515
 21
19330.480973999998
 31
0.0
  0
LINE
  5
10DBC
  8
2-0
  6
CONTINUOUS
 62
     3
 10
21632.60016108516
 20
19330.480973999998
 30
0.0
 11
21632.60016108516
 21
19360.484537000018
 31
0.0
  0
LINE
  5
10DBD
  8
2-0
  6
CONTINUOUS
 62
     3
 10
21614.604358085151
 20
19330.480973999998
 30
0.0
 11
21632.60016108516
 21
19330.480973999998
 31
0.0
  0
LINE
  5
10DBE
  8
2-0
  6
CONTINUOUS
 62
     3
 10
21614.604358085151
 20
19355.490211000011
 30
0.0
 11
21614.604358085151
 21
19330.480973999998
 31
0.0
  0
LINE
  5
10DBF
  8
2-0
  6
CONTINUOUS
 62
     3
 10
21619.594724085138
 20
19355.490211000011
 30
0.0
 11
21614.604358085151
 21
19355.490211000011
 31
0.0
  0
LINE
  5
10DC0
  8
2-0
  6
CONTINUOUS
 62
     3
 10
21619.594724085138
 20
19348.484694999999
 30
0.0
 11
21619.594724085138
 21
19355.490211000011
 31
0.0
  0
LINE
  5
10DC1
  8
2-0
  6
CONTINUOUS
 62
     3
 10
20931.601151085149
 20
19360.484537000018
 30
0.0
 11
21575.41187008515
 21
19360.484537000018
 31
0.0
  0
LINE
  5
10DC2
  8
2-0
  6
CONTINUOUS
 62
     3
 10
20230.805041585161
 20
19360.484537000018
 30
0.0
 11
20874.410880085161
 21
19360.484537000018
 31
0.0
  0
LINE
  5
10DC3
  8
2-0
  6
CONTINUOUS
 62
     3
 10
22980.889645585161
 20
19360.484537000018
 30
0.0
 11
22333.604120585162
 21
19360.484537000018
 31
0.0
  0
LINE
  5
10DC4
  8
2-0
  6
CONTINUOUS
 62
     3
 10
22276.411869585161
 20
19360.484537000018
 30
0.0
 11
21632.60016108516
 21
19360.484537000018
 31
0.0
  0
LINE
  5
10DC5
  8
2-0
  6
CONTINUOUS
 62
     3
 10
20217.59769358515
 20
19348.484694999999
 30
0.0
 11
20217.59769358515
 21
19355.490211000011
 31
0.0
  0
LINE
  5
10DC6
  8
2-0
  6
CONTINUOUS
 62
     3
 10
20217.59769358515
 20
19355.490211000011
 30
0.0
 11
20212.597429585148
 21
19355.490211000011
 31
0.0
  0
LINE
  5
10DC7
  8
2-0
  6
CONTINUOUS
 62
     3
 10
20212.597429585148
 20
19355.490211000011
 30
0.0
 11
20212.597429585148
 21
19330.480973999998
 31
0.0
  0
LINE
  5
10DC8
  8
2-0
  6
CONTINUOUS
 62
     3
 10
20212.597429585148
 20
19330.480973999998
 30
0.0
 11
20230.599171585149
 21
19330.480973999998
 31
0.0
  0
LINE
  5
10DC9
  8
2-0
  6
CONTINUOUS
 62
     3
 10
20230.599171585149
 20
19330.480973999998
 30
0.0
 11
20230.599171585149
 21
19360.484537000018
 31
0.0
  0
LINE
  5
10DCA
  8
2-0
  6
CONTINUOUS
 62
     3
 10
20214.49974658517
 20
19330.480973999998
 30
0.0
 11
20220.503626585149
 21
19330.480973999998
 31
0.0
  0
LINE
  5
10DCB
  8
2-0
  6
CONTINUOUS
 62
     3
 10
20220.503626585149
 20
19330.480973999998
 30
0.0
 11
20220.503626585149
 21
19360.484537000018
 31
0.0
  0
LINE
  5
10DCC
  8
2-0
  6
CONTINUOUS
 62
     3
 10
20183.50840458514
 20
19360.484537000018
 30
0.0
 11
20220.503626585149
 21
19360.484537000018
 31
0.0
  0
LINE
  5
10DCD
  8
2-0
  6
CONTINUOUS
 62
     3
 10
20183.50840458514
 20
19330.480973999998
 30
0.0
 11
20183.50840458514
 21
19360.484537000018
 31
0.0
  0
LINE
  5
10DCE
  8
2-0
  6
CONTINUOUS
 62
     3
 10
20189.502386585162
 20
19330.480973999998
 30
0.0
 11
20183.50840458514
 21
19330.480973999998
 31
0.0
  0
LINE
  5
10DCF
  8
2-0
  6
CONTINUOUS
 62
     3
 10
20173.412859585151
 20
19330.480973999998
 30
0.0
 11
20173.412859585151
 21
19360.484537000018
 31
0.0
  0
LINE
  5
10DD0
  8
2-0
  6
CONTINUOUS
 62
     3
 10
20191.408662585149
 20
19330.480973999998
 30
0.0
 11
20173.412859585151
 21
19330.480973999998
 31
0.0
  0
LINE
  5
10DD1
  8
2-0
  6
CONTINUOUS
 62
     3
 10
20191.408662585149
 20
19355.490211000011
 30
0.0
 11
20191.408662585149
 21
19330.480973999998
 31
0.0
  0
LINE
  5
10DD2
  8
2-0
  6
CONTINUOUS
 62
     3
 10
20186.410378585169
 20
19355.490211000011
 30
0.0
 11
20191.408662585149
 21
19355.490211000011
 31
0.0
  0
LINE
  5
10DD3
  8
2-0
  6
CONTINUOUS
 62
     3
 10
20186.410378585169
 20
19348.484694999999
 30
0.0
 11
20186.410378585169
 21
19355.490211000011
 31
0.0
  0
LINE
  5
10DD4
  8
2-0
  6
CONTINUOUS
 62
     3
 10
19877.311257585141
 20
19360.484537000018
 30
0.0
 11
20173.412859585151
 21
19360.484537000018
 31
0.0
  0
LINE
  5
10DD5
  8
2-0
  6
CONTINUOUS
 62
     3
 10
23105.504299585162
 20
15263.12568900001
 30
0.0
 11
23105.504299585162
 21
14619.086831000001
 31
0.0
  0
LINE
  5
10DD6
  8
2-0
  6
CONTINUOUS
 62
     3
 10
23105.504299585162
 20
14561.890621
 30
0.0
 11
23105.504299585162
 21
14265.524259
 31
0.0
  0
LINE
  5
10DD7
  8
0-6
  6
CONTINUOUS
 62
     6
 10
22711.687695085151
 20
18649.166309
 30
0.0
 11
21686.647445085149
 21
18649.166309
 31
0.0
  0
LINE
  5
10DD8
  8
0-6
  6
CONTINUOUS
 62
     6
 10
21386.722667085141
 20
19206.519561000019
 30
0.0
 11
21282.107089085141
 21
19330.480973999998
 31
0.0
  0
LINE
  5
10DD9
  8
0-6
  6
CONTINUOUS
 62
     6
 10
21282.107089085141
 20
19330.480973999998
 30
0.0
 11
21340.865139085148
 21
19179.289304000009
 31
0.0
  0
LINE
  5
10DDA
  8
0-6
  6
CONTINUOUS
 62
     6
 10
21282.107089085141
 20
19330.480973999998
 30
0.0
 11
21386.722667085141
 21
19206.519561000019
 31
0.0
  0
LINE
  5
10DDB
  8
0-6
  6
CONTINUOUS
 62
     6
 10
21386.722667085141
 20
19206.519561000019
 30
0.0
 11
21340.865139085148
 21
19179.289304000009
 31
0.0
  0
LINE
  5
10DDC
  8
0-6
  6
CONTINUOUS
 62
     6
 10
21340.865139085148
 20
19179.289304000009
 30
0.0
 11
21282.107089085141
 21
19330.480973999998
 31
0.0
  0
LINE
  5
10DDD
  8
0-6
  6
CONTINUOUS
 62
     6
 10
21340.865139085148
 20
19179.289304000009
 30
0.0
 11
21386.722667085141
 21
19206.519561000019
 31
0.0
  0
LINE
  5
10DDE
  8
0-6
  6
CONTINUOUS
 62
     6
 10
21363.793903085148
 20
19192.906412000011
 30
0.0
 11
21686.647445085149
 21
18649.166309
 31
0.0
  0
TEXT
  5
10DDF
  8
0-6
  6
CONTINUOUS
 62
     7
 10
21789.020764418481
 20
18729.168553
 30
0.0
 40
160.0
  1
間柱（後）
 72
     4
 11
22210.35409775181
 21
18809.168553
 31
0.0
  0
LINE
  5
10DE0
  8
SUNPOU
  6
CONTINUOUS
 62
     4
 10
19672.01366958514
 20
14590.606507750001
 30
0.0
 11
18622.012349585151
 21
14590.606507750001
 31
0.0
  0
LINE
  5
10DE1
  8
SUNPOU
  6
CONTINUOUS
 62
     4
 10
18822.01234958514
 20
14183.106507750001
 30
0.0
 11
18622.012349585151
 21
14183.106507750001
 31
0.0
  0
LINE
  5
10DE2
  8
SUNPOU
  6
CONTINUOUS
 62
     4
 10
18702.012349585151
 20
14590.606507750001
 30
0.0
 11
18702.012349585151
 21
14183.106507750001
 31
0.0
  0
LINE
  5
10DE3
  8
SUNPOU
  6
CONTINUOUS
 62
     4
 10
19672.01366958514
 20
18910.486251999992
 30
0.0
 11
18622.012349585151
 21
18910.486251999992
 31
0.0
  0
LINE
  5
10DE4
  8
SUNPOU
  6
CONTINUOUS
 62
     4
 10
18822.01234958514
 20
19317.986251999992
 30
0.0
 11
18622.012349585151
 21
19317.986251999992
 31
0.0
  0
LINE
  5
10DE5
  8
SUNPOU
  6
CONTINUOUS
 62
     4
 10
18702.012349585151
 20
18910.486251999992
 30
0.0
 11
18702.012349585151
 21
19317.986251999992
 31
0.0
  0
LINE
  5
10DE6
  8
SUNPOU
  6
CONTINUOUS
 62
     4
 10
23063.011953585152
 20
13477.222817999989
 30
0.0
 11
23063.011953585152
 21
13131.538167999999
 31
0.0
  0
LINE
  5
10DE7
  8
SUNPOU
  6
CONTINUOUS
 62
     4
 10
23105.514196585129
 20
14060.48895699999
 30
0.0
 11
23105.514196585129
 21
13131.538167999999
 31
0.0
  0
LINE
  5
10DE8
  8
SUNPOU
  6
CONTINUOUS
 62
     4
 10
23063.011953585152
 20
13211.538167999999
 30
0.0
 11
22823.011953585152
 21
13211.538167999999
 31
0.0
  0
LINE
  5
10DE9
  8
SUNPOU
  6
CONTINUOUS
 62
     4
 10
23105.514196585129
 20
13211.538167999999
 30
0.0
 11
23345.514196585129
 21
13211.538167999999
 31
0.0
  0
LINE
  5
10DEA
  8
SUNPOU
  6
CONTINUOUS
 62
     4
 10
23063.011953585152
 20
13211.538167999999
 30
0.0
 11
23105.514196585129
 21
13211.538167999999
 31
0.0
  0
LINE
  5
10DEB
  8
SUNPOU
  6
CONTINUOUS
 62
     4
 10
19794.511953585141
 20
14182.986252000001
 30
0.0
 11
19794.511953585141
 21
13131.538167999999
 31
0.0
  0
LINE
  5
10DEC
  8
SUNPOU
  6
CONTINUOUS
 62
     4
 10
19752.009710585149
 20
14060.48895699999
 30
0.0
 11
19752.009710585149
 21
13131.538167999999
 31
0.0
  0
LINE
  5
10DED
  8
SUNPOU
  6
CONTINUOUS
 62
     4
 10
19794.511953585141
 20
13211.538167999999
 30
0.0
 11
20034.511953585141
 21
13211.538167999999
 31
0.0
  0
LINE
  5
10DEE
  8
SUNPOU
  6
CONTINUOUS
 62
     4
 10
19752.009710585149
 20
13211.538167999999
 30
0.0
 11
19512.009710585149
 21
13211.538167999999
 31
0.0
  0
LINE
  5
10DEF
  8
SUNPOU
  6
CONTINUOUS
 62
     4
 10
19794.511953585141
 20
13211.538167999999
 30
0.0
 11
19752.009710585149
 21
13211.538167999999
 31
0.0
  0
LINE
  5
10DF0
  8
SUNPOU
  6
CONTINUOUS
 62
     4
 10
19794.511953585141
 20
14182.986252000001
 30
0.0
 11
19794.511953585141
 21
13131.538167999999
 31
0.0
  0
LINE
  5
10DF1
  8
SUNPOU
  6
CONTINUOUS
 62
     4
 10
19837.01419658514
 20
14060.48895699999
 30
0.0
 11
19837.01419658514
 21
13131.538167999999
 31
0.0
  0
LINE
  5
10DF2
  8
SUNPOU
  6
CONTINUOUS
 62
     4
 10
19794.511953585141
 20
13211.538167999999
 30
0.0
 11
19554.511953585141
 21
13211.538167999999
 31
0.0
  0
LINE
  5
10DF3
  8
SUNPOU
  6
CONTINUOUS
 62
     4
 10
19837.01419658514
 20
13211.538167999999
 30
0.0
 11
20077.014196585151
 21
13211.538167999999
 31
0.0
  0
LINE
  5
10DF4
  8
SUNPOU
  6
CONTINUOUS
 62
     4
 10
19794.511953585141
 20
13211.538167999999
 30
0.0
 11
19837.01419658514
 21
13211.538167999999
 31
0.0
  0
LINE
  5
10DF5
  8
SUNPOU
  6
CONTINUOUS
 62
     4
 10
23063.011953585152
 20
14182.986252000001
 30
0.0
 11
23063.011953585152
 21
13131.538167999999
 31
0.0
  0
LINE
  5
10DF6
  8
SUNPOU
  6
CONTINUOUS
 62
     4
 10
23020.509710585149
 20
14060.48895699999
 30
0.0
 11
23020.509710585149
 21
13131.538167999999
 31
0.0
  0
LINE
  5
10DF7
  8
SUNPOU
  6
CONTINUOUS
 62
     4
 10
23063.011953585152
 20
13211.538167999999
 30
0.0
 11
23303.011953585152
 21
13211.538167999999
 31
0.0
  0
LINE
  5
10DF8
  8
SUNPOU
  6
CONTINUOUS
 62
     4
 10
23020.509710585149
 20
13211.538167999999
 30
0.0
 11
22780.509710585149
 21
13211.538167999999
 31
0.0
  0
LINE
  5
10DF9
  8
SUNPOU
  6
CONTINUOUS
 62
     4
 10
23063.011953585152
 20
13211.538167999999
 30
0.0
 11
23020.509710585149
 21
13211.538167999999
 31
0.0
  0
LINE
  5
10DFA
  8
SUNPOU
  6
CONTINUOUS
 62
     4
 10
23105.514196585129
 20
14060.48895699999
 30
0.0
 11
23105.514196585129
 21
12731.538167999999
 31
0.0
  0
LINE
  5
10DFB
  8
SUNPOU
  6
CONTINUOUS
 62
     4
 10
19752.009710585149
 20
14060.48895699999
 30
0.0
 11
19752.009710585149
 21
12731.538167999999
 31
0.0
  0
LINE
  5
10DFC
  8
SUNPOU
  6
CONTINUOUS
 62
     4
 10
23105.514196585129
 20
12811.538167999999
 30
0.0
 11
19752.009710585149
 21
12811.538167999999
 31
0.0
  0
LINE
  5
10DFD
  8
SUNPOU
  6
CONTINUOUS
 62
     4
 10
19672.01366958514
 20
15291.726763500021
 30
0.0
 11
18622.012349585151
 21
15291.726763500021
 31
0.0
  0
LINE
  5
10DFE
  8
SUNPOU
  6
CONTINUOUS
 62
     4
 10
19672.01366958514
 20
14590.48625199999
 30
0.0
 11
18622.012349585151
 21
14590.48625199999
 31
0.0
  0
LINE
  5
10DFF
  8
SUNPOU
  6
CONTINUOUS
 62
     4
 10
18702.012349585151
 20
15291.726763500021
 30
0.0
 11
18702.012349585151
 21
14590.48625199999
 31
0.0
  0
LINE
  5
10E00
  8
SUNPOU
  6
CONTINUOUS
 62
     4
 10
19672.01366958514
 20
15992.486252000001
 30
0.0
 11
18622.012349585151
 21
15992.486252000001
 31
0.0
  0
LINE
  5
10E01
  8
SUNPOU
  6
CONTINUOUS
 62
     4
 10
19672.01366958514
 20
15291.726763500021
 30
0.0
 11
18622.012349585151
 21
15291.726763500021
 31
0.0
  0
LINE
  5
10E02
  8
SUNPOU
  6
CONTINUOUS
 62
     4
 10
18702.012349585151
 20
15992.486252000001
 30
0.0
 11
18702.012349585151
 21
15291.726763500021
 31
0.0
  0
LINE
  5
10E03
  8
SUNPOU
  6
CONTINUOUS
 62
     4
 10
18822.01234958514
 20
16750.486251999992
 30
0.0
 11
18622.012349585151
 21
16750.486251999992
 31
0.0
  0
LINE
  5
10E04
  8
SUNPOU
  6
CONTINUOUS
 62
     4
 10
19672.01366958514
 20
15992.486252000001
 30
0.0
 11
18622.012349585151
 21
15992.486252000001
 31
0.0
  0
LINE
  5
10E05
  8
SUNPOU
  6
CONTINUOUS
 62
     4
 10
18702.012349585151
 20
16750.486251999992
 30
0.0
 11
18702.012349585151
 21
15992.486252000001
 31
0.0
  0
LINE
  5
10E06
  8
SUNPOU
  6
CONTINUOUS
 62
     4
 10
19672.01366958514
 20
17508.486251999981
 30
0.0
 11
18622.012349585151
 21
17508.486251999981
 31
0.0
  0
LINE
  5
10E07
  8
SUNPOU
  6
CONTINUOUS
 62
     4
 10
18822.01234958514
 20
16750.486251999992
 30
0.0
 11
18622.012349585151
 21
16750.486251999992
 31
0.0
  0
LINE
  5
10E08
  8
SUNPOU
  6
CONTINUOUS
 62
     4
 10
18702.012349585151
 20
17508.486251999981
 30
0.0
 11
18702.012349585151
 21
16750.486251999992
 31
0.0
  0
LINE
  5
10E09
  8
SUNPOU
  6
CONTINUOUS
 62
     4
 10
19672.01366958514
 20
18209.486251999981
 30
0.0
 11
18622.012349585151
 21
18209.486251999981
 31
0.0
  0
LINE
  5
10E0A
  8
SUNPOU
  6
CONTINUOUS
 62
     4
 10
19672.01366958514
 20
17508.486251999981
 30
0.0
 11
18622.012349585151
 21
17508.486251999981
 31
0.0
  0
LINE
  5
10E0B
  8
SUNPOU
  6
CONTINUOUS
 62
     4
 10
18702.012349585151
 20
18209.486251999981
 30
0.0
 11
18702.012349585151
 21
17508.486251999981
 31
0.0
  0
LINE
  5
10E0C
  8
SUNPOU
  6
CONTINUOUS
 62
     4
 10
19672.01366958514
 20
18910.486251999992
 30
0.0
 11
18622.012349585151
 21
18910.486251999992
 31
0.0
  0
LINE
  5
10E0D
  8
SUNPOU
  6
CONTINUOUS
 62
     4
 10
19672.01366958514
 20
18209.486251999981
 30
0.0
 11
18622.012349585151
 21
18209.486251999981
 31
0.0
  0
LINE
  5
10E0E
  8
SUNPOU
  6
CONTINUOUS
 62
     4
 10
18702.012349585151
 20
18910.486251999992
 30
0.0
 11
18702.012349585151
 21
18209.486251999981
 31
0.0
  0
LINE
  5
10E0F
  8
SUNPOU
  6
CONTINUOUS
 62
     4
 10
18822.01234958514
 20
19317.986251999992
 30
0.0
 11
18622.012349585151
 21
19317.986251999992
 31
0.0
  0
LINE
  5
10E10
  8
SUNPOU
  6
CONTINUOUS
 62
     4
 10
18822.01234958514
 20
14182.986252000001
 30
0.0
 11
18622.012349585151
 21
14182.986252000001
 31
0.0
  0
LINE
  5
10E11
  8
SUNPOU
  6
CONTINUOUS
 62
     4
 10
19672.01366958514
 20
19360.483547
 30
0.0
 11
18222.01234958514
 21
19360.48354699996
 31
0.0
  0
LINE
  5
10E12
  8
SUNPOU
  6
CONTINUOUS
 62
     4
 10
19672.01366958514
 20
14140.48895699999
 30
0.0
 11
18222.01234958514
 21
14140.48895699999
 31
0.0
  0
LINE
  5
10E13
  8
SUNPOU
  6
CONTINUOUS
 62
     4
 10
18302.012349585151
 20
19360.48354699996
 30
0.0
 11
18302.012349585151
 21
14140.48895699999
 31
0.0
  0
LINE
  5
10E14
  8
SUNPOU
  6
CONTINUOUS
 62
     4
 10
18822.01234958514
 20
19317.986251999992
 30
0.0
 11
18622.012349585151
 21
19317.986251999992
 31
0.0
  0
LINE
  5
10E15
  8
SUNPOU
  6
CONTINUOUS
 62
     4
 10
19672.01366958514
 20
19360.483547
 30
0.0
 11
18622.012349585151
 21
19360.483547
 31
0.0
  0
LINE
  5
10E16
  8
SUNPOU
  6
CONTINUOUS
 62
     4
 10
18702.012349585151
 20
19317.986251999992
 30
0.0
 11
18702.012349585151
 21
19077.986251999992
 31
0.0
  0
LINE
  5
10E17
  8
SUNPOU
  6
CONTINUOUS
 62
     4
 10
18702.012349585151
 20
19360.483547
 30
0.0
 11
18702.012349585151
 21
19600.483546999989
 31
0.0
  0
LINE
  5
10E18
  8
SUNPOU
  6
CONTINUOUS
 62
     4
 10
18702.012349585151
 20
19317.986251999992
 30
0.0
 11
18702.012349585151
 21
19360.483547
 31
0.0
  0
LINE
  5
10E19
  8
SUNPOU
  6
CONTINUOUS
 62
     4
 10
18822.01234958514
 20
14182.986252000001
 30
0.0
 11
18622.012349585151
 21
14182.986252000001
 31
0.0
  0
LINE
  5
10E1A
  8
SUNPOU
  6
CONTINUOUS
 62
     4
 10
19672.01366958514
 20
14140.48895699999
 30
0.0
 11
18622.012349585151
 21
14140.48895699999
 31
0.0
  0
LINE
  5
10E1B
  8
SUNPOU
  6
CONTINUOUS
 62
     4
 10
18702.012349585151
 20
14182.986252000001
 30
0.0
 11
18702.012349585151
 21
14422.986252000001
 31
0.0
  0
LINE
  5
10E1C
  8
SUNPOU
  6
CONTINUOUS
 62
     4
 10
18702.012349585151
 20
14140.48895699999
 30
0.0
 11
18702.012349585151
 21
13900.48895699999
 31
0.0
  0
LINE
  5
10E1D
  8
SUNPOU
  6
CONTINUOUS
 62
     4
 10
18702.012349585151
 20
14182.986252000001
 30
0.0
 11
18702.012349585151
 21
14140.48895699999
 31
0.0
  0
TEXT
  5
10E1E
  8
0
  6
CONTINUOUS
 62
     7
 10
18622.012349585151
 20
13566.932720603199
 30
0.0
 40
160.0
  1
42.5
 50
90.0
  0
TEXT
  5
10E1F
  8
0
  6
CONTINUOUS
 62
     7
 10
18622.012349585151
 20
19454.03978339678
 30
0.0
 40
160.0
  1
42.5
 50
90.0
  0
TEXT
  5
10E20
  8
0
  6
CONTINUOUS
 62
     7
 10
18222.01234958514
 20
16470.486251999999
 30
0.0
 40
160.0
  1
5220
 50
90.0
  0
TEXT
  5
10E21
  8
0
  6
CONTINUOUS
 62
     7
 10
18942.012349585159
 20
18386.65291866667
 30
0.0
 40
160.0
  1
701
 50
90.0
  0
TEXT
  5
10E22
  8
0
  6
CONTINUOUS
 62
     7
 10
18622.01234958514
 20
17685.65291866667
 30
0.0
 40
160.0
  1
701
 50
90.0
  0
TEXT
  5
10E23
  8
0
  6
CONTINUOUS
 62
     7
 10
18622.01234958514
 20
16916.15291866667
 30
0.0
 40
160.0
  1
758
 50
90.0
  0
TEXT
  5
10E24
  8
0
  6
CONTINUOUS
 62
     7
 10
18622.01234958514
 20
16158.15291866667
 30
0.0
 40
160.0
  1
758
 50
90.0
  0
TEXT
  5
10E25
  8
0
  6
CONTINUOUS
 62
     7
 10
18622.01234958514
 20
15468.77317441667
 30
0.0
 40
160.0
  1
701
 50
90.0
  0
TEXT
  5
10E26
  8
0
  6
CONTINUOUS
 62
     7
 10
18942.012349585159
 20
14767.77317441667
 30
0.0
 40
160.0
  1
701
 50
90.0
  0
TEXT
  5
10E27
  8
0
  6
CONTINUOUS
 62
     7
 10
21028.761953585152
 20
12891.538167999999
 30
0.0
 40
160.0
  1
3353.5
  0
TEXT
  5
10E28
  8
0
  6
CONTINUOUS
 62
     7
 10
22464.95828120306
 20
13291.538167999999
 30
0.0
 40
160.0
  1
42.5
  0
TEXT
  5
10E29
  8
0
  6
CONTINUOUS
 62
     7
 10
19912.56562596724
 20
13291.538167999999
 30
0.0
 40
160.0
  1
42.5
  0
TEXT
  5
10E2A
  8
0
  6
CONTINUOUS
 62
     7
 10
19196.458281203071
 20
13291.538167999999
 30
0.0
 40
160.0
  1
42.5
  0
TEXT
  5
10E2B
  8
0
  6
CONTINUOUS
 62
     7
 10
23181.06562596724
 20
13291.538167999999
 30
0.0
 40
160.0
  1
42.5
  0
TEXT
  5
10E2C
  8
0
  6
CONTINUOUS
 62
     7
 10
18582.012349585151
 20
18619.864219643208
 30
0.0
 40
160.0
  1
407.5
 50
90.0
  0
TEXT
  5
10E2D
  8
0
  6
CONTINUOUS
 62
     7
 10
18582.012349585151
 20
14255.926921953551
 30
0.0
 40
160.0
  1
407.5
 50
90.0
  0
ARC
  5
10E2E
  8
0
  6
BYBLOCK
 62
     0
 10
18702.012349585151
 20
14590.606507750001
 30
0.0
 40
15.0
 50
90.0
 51
270.0
  0
ARC
  5
10E2F
  8
0
  6
BYBLOCK
 62
     0
 10
18702.012349585151
 20
14590.606507750001
 30
0.0
 40
15.0
 50
270.0
 51
90.0
  0
ARC
  5
10E30
  8
0
  6
BYBLOCK
 62
     0
 10
18702.012349585151
 20
14183.106507750001
 30
0.0
 40
15.0
 50
270.0
 51
90.0
  0
ARC
  5
10E31
  8
0
  6
BYBLOCK
 62
     0
 10
18702.012349585151
 20
14183.106507750001
 30
0.0
 40
15.0
 50
90.0
 51
270.0
  0
ARC
  5
10E32
  8
0
  6
BYBLOCK
 62
     0
 10
18702.012349585151
 20
18910.486251999992
 30
0.0
 40
15.0
 50
270.0
 51
90.0
  0
ARC
  5
10E33
  8
0
  6
BYBLOCK
 62
     0
 10
18702.012349585151
 20
18910.486251999992
 30
0.0
 40
15.0
 50
90.0
 51
270.0
  0
ARC
  5
10E34
  8
0
  6
BYBLOCK
 62
     0
 10
18702.012349585151
 20
19317.986251999992
 30
0.0
 40
15.0
 50
90.0
 51
270.0
  0
ARC
  5
10E35
  8
0
  6
BYBLOCK
 62
     0
 10
18702.012349585151
 20
19317.986251999992
 30
0.0
 40
15.0
 50
270.0
 51
90.0
  0
ARC
  5
10E36
  8
0
  6
BYBLOCK
 62
     0
 10
23063.011953585152
 20
13211.538167999999
 30
0.0
 40
15.0
 50
0.0
 51
180.0
  0
ARC
  5
10E37
  8
0
  6
BYBLOCK
 62
     0
 10
23063.011953585152
 20
13211.538167999999
 30
0.0
 40
15.0
 50
180.0
 51
0.0
  0
ARC
  5
10E38
  8
0
  6
BYBLOCK
 62
     0
 10
23105.514196585129
 20
13211.538167999999
 30
0.0
 40
15.0
 50
180.0
 51
0.0
  0
ARC
  5
10E39
  8
0
  6
BYBLOCK
 62
     0
 10
23105.514196585129
 20
13211.538167999999
 30
0.0
 40
15.0
 50
0.0
 51
180.0
  0
ARC
  5
10E3A
  8
0
  6
BYBLOCK
 62
     0
 10
19794.511953585141
 20
13211.538167999999
 30
0.0
 40
15.0
 50
180.0
 51
0.0
  0
ARC
  5
10E3B
  8
0
  6
BYBLOCK
 62
     0
 10
19794.511953585141
 20
13211.538167999999
 30
0.0
 40
15.0
 50
0.0
 51
180.0
  0
ARC
  5
10E3C
  8
0
  6
BYBLOCK
 62
     0
 10
19752.009710585149
 20
13211.538167999999
 30
0.0
 40
15.0
 50
0.0
 51
180.0
  0
ARC
  5
10E3D
  8
0
  6
BYBLOCK
 62
     0
 10
19752.009710585149
 20
13211.538167999999
 30
0.0
 40
15.0
 50
180.0
 51
0.0
  0
ARC
  5
10E3E
  8
0
  6
BYBLOCK
 62
     0
 10
19794.511953585141
 20
13211.538167999999
 30
0.0
 40
15.0
 50
0.0
 51
180.0
  0
ARC
  5
10E3F
  8
0
  6
BYBLOCK
 62
     0
 10
19794.511953585141
 20
13211.538167999999
 30
0.0
 40
15.0
 50
180.0
 51
0.0
  0
ARC
  5
10E40
  8
0
  6
BYBLOCK
 62
     0
 10
19837.01419658514
 20
13211.538167999999
 30
0.0
 40
15.0
 50
180.0
 51
0.0
  0
ARC
  5
10E41
  8
0
  6
BYBLOCK
 62
     0
 10
19837.01419658514
 20
13211.538167999999
 30
0.0
 40
15.0
 50
0.0
 51
180.0
  0
ARC
  5
10E42
  8
0
  6
BYBLOCK
 62
     0
 10
23063.011953585152
 20
13211.538167999999
 30
0.0
 40
15.0
 50
180.0
 51
0.0
  0
ARC
  5
10E43
  8
0
  6
BYBLOCK
 62
     0
 10
23063.011953585152
 20
13211.538167999999
 30
0.0
 40
15.0
 50
0.0
 51
180.0
  0
ARC
  5
10E44
  8
0
  6
BYBLOCK
 62
     0
 10
23020.509710585149
 20
13211.538167999999
 30
0.0
 40
15.0
 50
0.0
 51
180.0
  0
ARC
  5
10E45
  8
0
  6
BYBLOCK
 62
     0
 10
23020.509710585149
 20
13211.538167999999
 30
0.0
 40
15.0
 50
180.0
 51
0.0
  0
ARC
  5
10E46
  8
0
  6
BYBLOCK
 62
     0
 10
23105.514196585129
 20
12811.538167999999
 30
0.0
 40
15.0
 50
0.0
 51
180.0
  0
ARC
  5
10E47
  8
0
  6
BYBLOCK
 62
     0
 10
23105.514196585129
 20
12811.538167999999
 30
0.0
 40
15.0
 50
180.0
 51
0.0
  0
ARC
  5
10E48
  8
0
  6
BYBLOCK
 62
     0
 10
19752.009710585149
 20
12811.538167999999
 30
0.0
 40
15.0
 50
180.0
 51
0.0
  0
ARC
  5
10E49
  8
0
  6
BYBLOCK
 62
     0
 10
19752.009710585149
 20
12811.538167999999
 30
0.0
 40
15.0
 50
0.0
 51
180.0
  0
ARC
  5
10E4A
  8
0
  6
BYBLOCK
 62
     0
 10
18702.012349585151
 20
15291.726763500021
 30
0.0
 40
15.0
 50
90.0
 51
270.0
  0
ARC
  5
10E4B
  8
0
  6
BYBLOCK
 62
     0
 10
18702.012349585151
 20
15291.726763500021
 30
0.0
 40
15.0
 50
270.0
 51
90.0
  0
ARC
  5
10E4C
  8
0
  6
BYBLOCK
 62
     0
 10
18702.012349585151
 20
14590.48625199999
 30
0.0
 40
15.0
 50
270.0
 51
90.0
  0
ARC
  5
10E4D
  8
0
  6
BYBLOCK
 62
     0
 10
18702.012349585151
 20
14590.48625199999
 30
0.0
 40
15.0
 50
90.0
 51
270.0
  0
ARC
  5
10E4E
  8
0
  6
BYBLOCK
 62
     0
 10
18702.012349585151
 20
15992.486252000001
 30
0.0
 40
15.0
 50
90.0
 51
270.0
  0
ARC
  5
10E4F
  8
0
  6
BYBLOCK
 62
     0
 10
18702.012349585151
 20
15992.486252000001
 30
0.0
 40
15.0
 50
270.0
 51
90.0
  0
ARC
  5
10E50
  8
0
  6
BYBLOCK
 62
     0
 10
18702.012349585151
 20
15291.726763500021
 30
0.0
 40
15.0
 50
270.0
 51
90.0
  0
ARC
  5
10E51
  8
0
  6
BYBLOCK
 62
     0
 10
18702.012349585151
 20
15291.726763500021
 30
0.0
 40
15.0
 50
90.0
 51
270.0
  0
ARC
  5
10E52
  8
0
  6
BYBLOCK
 62
     0
 10
18702.012349585151
 20
16750.486251999992
 30
0.0
 40
15.0
 50
90.0
 51
270.0
  0
ARC
  5
10E53
  8
0
  6
BYBLOCK
 62
     0
 10
18702.012349585151
 20
16750.486251999992
 30
0.0
 40
15.0
 50
270.0
 51
90.0
  0
ARC
  5
10E54
  8
0
  6
BYBLOCK
 62
     0
 10
18702.012349585151
 20
15992.486252000001
 30
0.0
 40
15.0
 50
270.0
 51
90.0
  0
ARC
  5
10E55
  8
0
  6
BYBLOCK
 62
     0
 10
18702.012349585151
 20
15992.486252000001
 30
0.0
 40
15.0
 50
90.0
 51
270.0
  0
ARC
  5
10E56
  8
0
  6
BYBLOCK
 62
     0
 10
18702.012349585151
 20
17508.486251999981
 30
0.0
 40
15.0
 50
90.0
 51
270.0
  0
ARC
  5
10E57
  8
0
  6
BYBLOCK
 62
     0
 10
18702.012349585151
 20
17508.486251999981
 30
0.0
 40
15.0
 50
270.0
 51
90.0
  0
ARC
  5
10E58
  8
0
  6
BYBLOCK
 62
     0
 10
18702.012349585151
 20
16750.486251999992
 30
0.0
 40
15.0
 50
270.0
 51
90.0
  0
ARC
  5
10E59
  8
0
  6
BYBLOCK
 62
     0
 10
18702.012349585151
 20
16750.486251999992
 30
0.0
 40
15.0
 50
90.0
 51
270.0
  0
ARC
  5
10E5A
  8
0
  6
BYBLOCK
 62
     0
 10
18702.012349585151
 20
18209.486251999981
 30
0.0
 40
15.0
 50
90.0
 51
270.0
  0
ARC
  5
10E5B
  8
0
  6
BYBLOCK
 62
     0
 10
18702.012349585151
 20
18209.486251999981
 30
0.0
 40
15.0
 50
270.0
 51
90.0
  0
ARC
  5
10E5C
  8
0
  6
BYBLOCK
 62
     0
 10
18702.012349585151
 20
17508.486251999981
 30
0.0
 40
15.0
 50
270.0
 51
90.0
  0
ARC
  5
10E5D
  8
0
  6
BYBLOCK
 62
     0
 10
18702.012349585151
 20
17508.486251999981
 30
0.0
 40
15.0
 50
90.0
 51
270.0
  0
ARC
  5
10E5E
  8
0
  6
BYBLOCK
 62
     0
 10
18702.012349585151
 20
18910.486251999992
 30
0.0
 40
15.0
 50
90.0
 51
270.0
  0
ARC
  5
10E5F
  8
0
  6
BYBLOCK
 62
     0
 10
18702.012349585151
 20
18910.486251999992
 30
0.0
 40
15.0
 50
270.0
 51
90.0
  0
ARC
  5
10E60
  8
0
  6
BYBLOCK
 62
     0
 10
18702.012349585151
 20
18209.486251999981
 30
0.0
 40
15.0
 50
270.0
 51
90.0
  0
ARC
  5
10E61
  8
0
  6
BYBLOCK
 62
     0
 10
18702.012349585151
 20
18209.486251999981
 30
0.0
 40
15.0
 50
90.0
 51
270.0
  0
ARC
  5
10E62
  8
0
  6
BYBLOCK
 62
     0
 10
18702.012349585151
 20
19317.986251999992
 30
0.0
 40
15.0
 50
90.0
 51
270.0
  0
ARC
  5
10E63
  8
0
  6
BYBLOCK
 62
     0
 10
18702.012349585151
 20
19317.986251999992
 30
0.0
 40
15.0
 50
270.0
 51
90.0
  0
ARC
  5
10E64
  8
0
  6
BYBLOCK
 62
     0
 10
18702.012349585151
 20
14182.986252000001
 30
0.0
 40
15.0
 50
270.0
 51
90.0
  0
ARC
  5
10E65
  8
0
  6
BYBLOCK
 62
     0
 10
18702.012349585151
 20
14182.986252000001
 30
0.0
 40
15.0
 50
90.0
 51
270.0
  0
ARC
  5
10E66
  8
0
  6
BYBLOCK
 62
     0
 10
18302.012349585151
 20
19360.48354699996
 30
0.0
 40
15.0
 50
90.0
 51
270.0
  0
ARC
  5
10E67
  8
0
  6
BYBLOCK
 62
     0
 10
18302.012349585151
 20
19360.48354699996
 30
0.0
 40
15.0
 50
270.0
 51
90.0
  0
ARC
  5
10E68
  8
0
  6
BYBLOCK
 62
     0
 10
18302.012349585151
 20
14140.48895699999
 30
0.0
 40
15.0
 50
270.0
 51
90.0
  0
ARC
  5
10E69
  8
0
  6
BYBLOCK
 62
     0
 10
18302.012349585151
 20
14140.48895699999
 30
0.0
 40
15.0
 50
90.0
 51
270.0
  0
ARC
  5
10E6A
  8
0
  6
BYBLOCK
 62
     0
 10
18702.012349585151
 20
19317.986251999992
 30
0.0
 40
15.0
 50
90.0
 51
270.0
  0
ARC
  5
10E6B
  8
0
  6
BYBLOCK
 62
     0
 10
18702.012349585151
 20
19317.986251999992
 30
0.0
 40
15.0
 50
270.0
 51
90.0
  0
ARC
  5
10E6C
  8
0
  6
BYBLOCK
 62
     0
 10
18702.012349585151
 20
19360.483547
 30
0.0
 40
15.0
 50
270.0
 51
90.0
  0
ARC
  5
10E6D
  8
0
  6
BYBLOCK
 62
     0
 10
18702.012349585151
 20
19360.483547
 30
0.0
 40
15.0
 50
90.0
 51
270.0
  0
ARC
  5
10E6E
  8
0
  6
BYBLOCK
 62
     0
 10
18702.012349585151
 20
14182.986252000001
 30
0.0
 40
15.0
 50
270.0
 51
90.0
  0
ARC
  5
10E6F
  8
0
  6
BYBLOCK
 62
     0
 10
18702.012349585151
 20
14182.986252000001
 30
0.0
 40
15.0
 50
90.0
 51
270.0
  0
ARC
  5
10E70
  8
0
  6
BYBLOCK
 62
     0
 10
18702.012349585151
 20
14140.48895699999
 30
0.0
 40
15.0
 50
90.0
 51
270.0
  0
ARC
  5
10E71
  8
0
  6
BYBLOCK
 62
     0
 10
18702.012349585151
 20
14140.48895699999
 30
0.0
 40
15.0
 50
270.0
 51
90.0
  0
TEXT
  5
10FB6
  8
FILENAME
  6
CONTINUOUS
 10
26480.19047619047
 20
348.0
 30
0.0
 40
200.0
  1
＜VGC-3352+VKC-5052-R-1-A_0.DXF ＞
  7
FILENAME
 72
     2
 11
32764.0
 21
348.0
 31
0.0
  0
LINE
  5
10FBB
  8
WAKUSEN-01
 10
868.00000000000193
 20
827.99999999999955
 30
0.0
 11
32764.000000000011
 21
827.99999999999943
 31
0.0
  0
LINE
  5
10FBC
  8
WAKUSEN-01
 10
868.00000000000193
 20
827.99999999999955
 30
0.0
 11
868.00000000000193
 21
22484.000000000011
 31
0.0
  0
LINE
  5
10FBD
  8
WAKUSEN-01
 10
32764.000000000011
 20
827.99999999999943
 30
0.0
 11
32764.000000000011
 21
22484.000000000011
 31
0.0
  0
LINE
  5
10FBE
  8
WAKUSEN-01
 10
20560.0
 20
827.99999999999716
 30
0.0
 11
20560.0
 21
2484.0
 31
0.0
  0
LINE
  5
10FBF
  8
WAKUSEN-02
 10
26868.0
 20
827.99999999999261
 30
0.0
 11
26868.0
 21
2484.0
 31
0.0
  0
ENDSEC
  0
EOF
