  0
SECTION
  2
HEADER
  9
$ACADVER
  1
AC1009
  9
$INSBASE
 10
0.0
 20
0.0
 30
0.0
  9
$EXTMIN
 10
867.99324330406671
 20
327.38164749855792
 30
-0.0000000000112498
  9
$EXTMAX
 10
32765.33210850941
 20
22484.553276491992
 30
0.0000000000002956
  9
$LIMMIN
 10
0.0
 20
0.0
  9
$LIMMAX
 10
33600.0
 20
23760.0
  9
$ORTHOMODE
 70
     1
  9
$REGENMODE
 70
     1
  9
$FILLMODE
 70
     1
  9
$QTEXTMODE
 70
     0
  9
$MIRRTEXT
 70
     0
  9
$DRAGMODE
 70
     2
  9
$LTSCALE
 40
80.0
  9
$OSMODE
 70
  3071
  9
$ATTMODE
 70
     1
  9
$TEXTSIZE
 40
0.2
  9
$TRACEWID
 40
0.05
  9
$TEXTSTYLE
  7
00
  9
$CLAYER
  8
0
  9
$CELTYPE
  6
BYLAYER
  9
$CECOLOR
 62
   256
  9
$DIMSCALE
 40
1.0
  9
$DIMASZ
 40
0.18
  9
$DIMEXO
 40
0.0625
  9
$DIMDLI
 40
0.38
  9
$DIMRND
 40
0.0
  9
$DIMDLE
 40
0.0
  9
$DIMEXE
 40
0.18
  9
$DIMTP
 40
0.0
  9
$DIMTM
 40
0.0
  9
$DIMTXT
 40
0.18
  9
$DIMCEN
 40
0.09
  9
$DIMTSZ
 40
0.0
  9
$DIMTOL
 70
     0
  9
$DIMLIM
 70
     0
  9
$DIMTIH
 70
     1
  9
$DIMTOH
 70
     1
  9
$DIMSE1
 70
     0
  9
$DIMSE2
 70
     0
  9
$DIMTAD
 70
     0
  9
$DIMZIN
 70
     0
  9
$DIMBLK
  1

  9
$DIMASO
 70
     1
  9
$DIMSHO
 70
     1
  9
$DIMPOST
  1

  9
$DIMAPOST
  1

  9
$DIMALT
 70
     0
  9
$DIMALTD
 70
     2
  9
$DIMALTF
 40
25.399999999999999
  9
$DIMLFAC
 40
1.0
  9
$DIMTOFL
 70
     0
  9
$DIMTVP
 40
0.0
  9
$DIMTIX
 70
     0
  9
$DIMSOXD
 70
     0
  9
$DIMSAH
 70
     0
  9
$DIMBLK1
  1

  9
$DIMBLK2
  1

  9
$DIMSTYLE
  2
STANDARD
  9
$DIMCLRD
 70
     0
  9
$DIMCLRE
 70
     0
  9
$DIMCLRT
 70
     0
  9
$DIMTFAC
 40
1.0
  9
$DIMGAP
 40
0.09
  9
$LUNITS
 70
     2
  9
$LUPREC
 70
     4
  9
$SKETCHINC
 40
0.1
  9
$FILLETRAD
 40
0.0
  9
$AUNITS
 70
     0
  9
$AUPREC
 70
     0
  9
$MENU
  1
acad
  9
$ELEVATION
 40
0.0
  9
$PELEVATION
 40
0.0
  9
$THICKNESS
 40
0.0
  9
$LIMCHECK
 70
     0
  9
$BLIPMODE
 70
     1
  9
$CHAMFERA
 40
0.0
  9
$CHAMFERB
 40
0.0
  9
$SKPOLY
 70
     0
  9
$TDCREATE
 40
2311940.075052408
  9
$TDUPDATE
 40
2458942.4571312149
  9
$TDINDWG
 40
0.3529676157
  9
$TDUSRTIMER
 40
0.3529669097
  9
$USRTIMER
 70
     1
  9
$ANGBASE
 50
0.0
  9
$ANGDIR
 70
     0
  9
$PDMODE
 70
     0
  9
$PDSIZE
 40
0.0
  9
$PLINEWID
 40
0.0
  9
$COORDS
 70
     1
  9
$SPLFRAME
 70
     0
  9
$SPLINETYPE
 70
     6
  9
$SPLINESEGS
 70
     8
  9
$ATTDIA
 70
     1
  9
$ATTREQ
 70
     1
  9
$HANDLING
 70
     1
  9
$HANDSEED
  5
18BF4
  9
$SURFTAB1
 70
     6
  9
$SURFTAB2
 70
     6
  9
$SURFTYPE
 70
     6
  9
$SURFU
 70
     6
  9
$SURFV
 70
     6
  9
$UCSNAME
  2

  9
$UCSORG
 10
0.0
 20
0.0
 30
0.0
  9
$UCSXDIR
 10
1.0
 20
0.0
 30
0.0
  9
$UCSYDIR
 10
0.0
 20
1.0
 30
0.0
  9
$PUCSNAME
  2

  9
$PUCSORG
 10
0.0
 20
0.0
 30
0.0
  9
$PUCSXDIR
 10
1.0
 20
0.0
 30
0.0
  9
$PUCSYDIR
 10
0.0
 20
1.0
 30
0.0
  9
$USERI1
 70
     0
  9
$USERI2
 70
     0
  9
$USERI3
 70
     0
  9
$USERI4
 70
     0
  9
$USERI5
 70
     0
  9
$USERR1
 40
0.0
  9
$USERR2
 40
0.0
  9
$USERR3
 40
0.0
  9
$USERR4
 40
0.0
  9
$USERR5
 40
0.0
  9
$WORLDVIEW
 70
     1
  9
$SHADEDGE
 70
     3
  9
$SHADEDIF
 70
    70
  9
$TILEMODE
 70
     1
  9
$MAXACTVP
 70
    16
  9
$PLIMCHECK
 70
     0
  9
$PEXTMIN
 10
1.0000000000000000E+020
 20
1.0000000000000000E+020
 30
1.0000000000000000E+020
  9
$PEXTMAX
 10
-1.0000000000000000E+020
 20
-1.0000000000000000E+020
 30
-1.0000000000000000E+020
  9
$PLIMMIN
 10
0.0
 20
0.0
  9
$PLIMMAX
 10
12.0
 20
9.0
  9
$UNITMODE
 70
     0
  9
$VISRETAIN
 70
     0
  9
$PLINEGEN
 70
     1
  9
$PSLTSCALE
 70
     0
  0
ENDSEC
  0
SECTION
  2
TABLES
  0
TABLE
  2
VPORT
 70
     1
  0
VPORT
  2
*ACTIVE
 70
     0
 10
0.0
 20
0.0
 11
1.0
 21
1.0
 12
16800.0
 22
11880.0
 13
0.0
 23
0.0
 14
1.0
 24
1.0
 15
0.0
 25
0.0
 16
0.0
 26
0.0
 36
1.0
 17
0.0
 27
0.0
 37
0.0
 40
23981.023255813951
 41
2.195652173913043
 42
50.0
 43
0.0
 44
0.0
 50
0.0
 51
0.0
 71
     0
 72
 10000
 73
     1
 74
     1
 75
     0
 76
     0
 77
     0
 78
     0
  0
ENDTAB
  0
TABLE
  2
LTYPE
 70
     6
  0
LTYPE
  2
CONTINUOUS
 70
     0
  3
Solid line
 72
    65
 73
     0
 40
0.0
  0
LTYPE
  2
DASHED3
 70
     0
  3
------  ------  ------  ------  
 72
    65
 73
     2
 40
5.0
 49
3.75
 49
-1.25
  0
LTYPE
  2
CENTER2
 70
     0
  3
----------  --  ----------  --  
 72
    65
 73
     4
 40
20.0
 49
12.5
 49
-2.5
 49
2.5
 49
-2.5
  0
LTYPE
  2
HIDE-M
 70
     0
  3

 72
    65
 73
     2
 40
2.0
 49
1.0
 49
-1.0
  0
LTYPE
  2
1PL-M
 70
     0
  3

 72
    65
 73
     4
 40
15.0
 49
12.0
 49
-1.0
 49
1.0
 49
-1.0
  0
LTYPE
  2
PHANTOM2
 70
     0
  3
___ _ _ ___ _ _ ___ _ _ ___ _ _
 72
    65
 73
     6
 40
1.25
 49
0.625
 49
-0.125
 49
0.125
 49
-0.125
 49
0.125
 49
-0.125
  0
ENDTAB
  0
TABLE
  2
LAYER
 70
    24
  0
LAYER
  2
0
 70
     0
 62
     7
  6
CONTINUOUS
  0
LAYER
  2
SUNPOU
 70
     0
 62
     4
  6
CONTINUOUS
  0
LAYER
  2
0-1
 70
     0
 62
     7
  6
CONTINUOUS
  0
LAYER
  2
0-2
 70
     0
 62
     7
  6
CONTINUOUS
  0
LAYER
  2
0-5
 70
     0
 62
     7
  6
CONTINUOUS
  0
LAYER
  2
0-6
 70
     0
 62
     7
  6
CONTINUOUS
  0
LAYER
  2
2-0
 70
     0
 62
     7
  6
CONTINUOUS
  0
LAYER
  2
0-8
 70
     0
 62
     7
  6
CONTINUOUS
  0
LAYER
  2
YODOROGO
 70
     0
 62
   130
  6
CONTINUOUS
  0
LAYER
  2
WAKUSEN-01
 70
     0
 62
    50
  6
CONTINUOUS
  0
LAYER
  2
WAKUSEN-02
 70
     0
 62
   130
  6
CONTINUOUS
  0
LAYER
  2
WAKUMOJI-01
 70
     0
 62
   130
  6
CONTINUOUS
  0
LAYER
  2
FILENAME
 70
     0
 62
     7
  6
CONTINUOUS
  0
LAYER
  2
NAME
 70
     0
 62
    20
  6
CONTINUOUS
  0
LAYER
  2
0-4
 70
     0
 62
     7
  6
CONTINUOUS
  0
LAYER
  2
1-前柱P
 70
     0
 62
     3
  6
CONTINUOUS
  0
LAYER
  2
1-前柱カバ-P
 70
     0
 62
     3
  6
CONTINUOUS
  0
LAYER
  2
1-桁前P28
 70
     0
 62
     3
  6
CONTINUOUS
  0
LAYER
  2
1-後柱P
 70
     0
 62
     3
  6
CONTINUOUS
  0
LAYER
  2
1-中柱P
 70
     0
 62
     3
  6
CONTINUOUS
  0
LAYER
  2
1-後柱カバ-P
 70
     0
 62
     7
  6
CONTINUOUS
  0
LAYER
  2
1-中柱カバ-P
 70
     0
 62
     7
  6
CONTINUOUS
  0
ENDTAB
  0
TABLE
  2
STYLE
 70
     5
  0
STYLE
  2
STANDARD
 70
     0
 40
0.0
 41
1.0
 50
0.0
 71
     0
 42
0.0
  3
txt
  4
BIGFONT
  0
STYLE
  2
00
 70
     0
 40
0.0
 41
0.6666666666666666
 50
0.0
 71
     0
 42
0.2
  3
ROMANS
  4
BIGFONT
  0
STYLE
  2
01
 70
     0
 40
3.0
 41
1.0
 50
0.0
 71
     0
 42
0.2
  3
ROMANS
  4
BIGFONT
  0
STYLE
  2
WAKUMOJI
 70
     0
 40
3.0
 41
1.0
 50
0.0
 71
     0
 42
3.0
  3
SIMPLEX
  4
BIGFONT
  0
STYLE
  2
FILENAME
 70
     0
 40
200.0
 41
1.0
 50
0.0
 71
     0
 42
200.0
  3
romans
  4
bigfont
  0
ENDTAB
  0
TABLE
  2
VIEW
 70
     0
  0
ENDTAB
  0
TABLE
  2
UCS
 70
     0
  0
ENDTAB
  0
TABLE
  2
APPID
 70
    17
  0
APPID
  2
ACAD
 70
     0
  0
APPID
  2
ACADANNOTATIVE
 70
     0
  0
APPID
  2
ACAD_PSEXT
 70
     0
  0
APPID
  2
DCO15
 70
     0
  0
APPID
  2
ACAD_MLEADERVER
 70
     0
  0
APPID
  2
AUTOCAD_POSTSCRIPT_FIGURE
 70
     0
  0
APPID
  2
ACAD_EXEMPT_FROM_CAD_STANDARDS
 70
     0
  0
APPID
  2
ACLAYERTOOLS
 70
     0
  0
APPID
  2
ACAD_DSTYLE_DIMJAG
 70
     0
  0
APPID
  2
ACAD_DSTYLE_DIMTALN
 70
     0
  0
APPID
  2
ACAECLAYERSTANDARD
 70
     0
  0
APPID
  2
ACAD_DSTYLE_DIMBREAK
 70
     0
  0
APPID
  2
ACAD_DSTYLE_DIM_LINETYPE
 70
     0
  0
APPID
  2
ACAD_DSTYLE_DIM_EXT1_LINETYPE
 70
     0
  0
APPID
  2
ACAD_DSTYLE_DIM_EXT2_LINETYPE
 70
     0
  0
APPID
  2
ACAD_DSTYLE_DIMFLIPARROW_W
 70
     0
  0
APPID
  2
ACAD_NAV_VCDISPLAY
 70
     0
  0
ENDTAB
  0
TABLE
  2
DIMSTYLE
 70
     2
  0
DIMSTYLE
  2
STANDARD
 70
     0
  3

  4

  5

  6

  7

 40
1.0
 41
0.18
 42
0.0625
 43
0.38
 44
0.18
 45
0.0
 46
0.0
 47
0.0
 48
0.0
140
0.18
141
0.09
142
0.0
143
25.399999999999999
144
1.0
145
0.0
146
1.0
147
0.09
 71
     0
 72
     0
 73
     1
 74
     1
 75
     0
 76
     0
 77
     0
 78
     0
170
     0
171
     2
172
     0
173
     0
174
     0
175
     0
176
     0
177
     0
178
     0
  0
ENDTAB
  0
ENDSEC
  0
SECTION
  2
BLOCKS
  0
BLOCK
  8
0
  2
$MODEL_SPACE
 70
     0
 10
0.0
 20
0.0
 30
0.0
  3
$MODEL_SPACE
  1

  0
ENDBLK
  5
17BA3
  8
0
  0
BLOCK
 67
     1
  8
0
  2
$PAPER_SPACE
 70
     0
 10
0.0
 20
0.0
 30
0.0
  3
$PAPER_SPACE
  1

  0
ENDBLK
  5
17B9F
 67
     1
  8
0
  0
ENDSEC
  0
SECTION
  2
ENTITIES
  0
CIRCLE
  5
17BDD
  8
0-5
  6
CONTINUOUS
 62
     4
 10
15128.71667799999
 20
1375.999982000001
 30
0.0
 40
20.0
  0
ARC
  5
17BDE
  8
0-5
  6
CONTINUOUS
 62
     4
 10
15128.71667799999
 20
1375.999982000001
 30
0.0
 40
20.0
 50
180.0
 51
0.0
  0
ARC
  5
17BDF
  8
0-5
  6
CONTINUOUS
 62
     4
 10
15128.71667799999
 20
1375.999982000001
 30
0.0
 40
20.0
 50
0.0
 51
179.99998500000001
  0
CIRCLE
  5
17BE0
  8
0-5
  6
CONTINUOUS
 62
     4
 10
15128.71667799999
 20
1775.9993219999981
 30
0.0
 40
20.0
  0
ARC
  5
17BE1
  8
0-5
  6
CONTINUOUS
 62
     4
 10
15128.71667799999
 20
1775.9993219999981
 30
0.0
 40
20.0
 50
180.0
 51
0.0
  0
ARC
  5
17BE2
  8
0-5
  6
CONTINUOUS
 62
     4
 10
15128.71667799999
 20
1775.9993219999981
 30
0.0
 40
20.0
 50
0.0
 51
179.99998500000001
  0
TEXT
  5
17BE3
  8
0-5
  6
CONTINUOUS
 62
     7
 10
16661.217403999992
 20
1655.9997920000001
 30
0.0
 40
160.0
  1
H
  0
TEXT
  5
17BE4
  8
0-5
  6
CONTINUOUS
 62
     7
 10
15176.146933
 20
1655.9997920000001
 30
0.0
 40
160.0
  1
（ ）内寸法ハ、  タイプヲ示ス。
  0
TEXT
  5
17BE5
  8
0-5
  6
CONTINUOUS
 62
     7
 10
15288.716216000001
 20
1255.999462
 30
0.0
 40
160.0
  1
有効高サハ、基礎高サヲ含ミマセン。
  0
TEXT
  5
17BE6
  8
2-0
  6
CONTINUOUS
 62
     7
 10
21060.183535763259
 20
3292.802588999999
 30
0.0
 40
160.0
  1
正 面 立 面 図
 72
     4
 11
21705.516869096591
 21
3372.802588999999
 31
0.0
  0
TEXT
  5
17BE7
  8
2-0
  6
CONTINUOUS
 62
     7
 10
9095.48340961143
 20
3264.0669070000022
 30
0.0
 40
160.0
  1
側 面 立 面 図
 50
0.000139
 72
     4
 11
9740.8165488622544
 21
3344.0684725833762
 31
0.0
  0
TEXT
  5
17BEB
  8
2-0
  6
CONTINUOUS
 62
     7
 10
11092.308733999869
 20
3291.2638415833758
 30
0.0
 40
160.0
  1
1
 72
     4
 11
11118.975400666541
 21
3371.2638415833749
 31
0.0
  0
TEXT
  5
17BEC
  8
2-0
  6
CONTINUOUS
 62
     7
 10
11335.39745125057
 20
3211.2653095833762
 30
0.0
 40
160.0
  1
80
 72
     4
 11
11455.39745125057
 21
3291.2653095833762
 31
0.0
  0
TEXT
  5
17BED
  8
2-0
  6
CONTINUOUS
 62
     7
 10
10593.310699999871
 20
3264.0684725833762
 30
0.0
 40
160.0
  1
(S=  /   )
 72
     4
 11
11153.310699999871
 21
3344.0684725833762
 31
0.0
  0
TEXT
  5
17BEE
  8
2-0
  6
CONTINUOUS
 62
     7
 10
23057.009054234219
 20
3319.9979579999999
 30
0.0
 40
160.0
  1
1
 72
     4
 11
23083.67572090089
 21
3399.9979579999999
 31
0.0
  0
TEXT
  5
17BEF
  8
2-0
  6
CONTINUOUS
 62
     7
 10
23300.0977714849
 20
3239.9994260000021
 30
0.0
 40
160.0
  1
80
 72
     4
 11
23420.0977714849
 21
3319.9994260000012
 31
0.0
  0
TEXT
  5
17BF0
  8
2-0
  6
CONTINUOUS
 62
     7
 10
22558.011020234211
 20
3292.802588999999
 30
0.0
 40
160.0
  1
(S=  /   )
 72
     4
 11
23118.011020234211
 21
3372.802588999999
 31
0.0
  0
TEXT
  5
17BF6
  8
2-0
  6
CONTINUOUS
 62
     7
 10
21148.765650659061
 20
11251.104441999991
 30
0.0
 40
160.0
  1
平　面　図
 72
     4
 11
21602.09898399239
 21
11325.77110866666
 31
0.0
  0
TEXT
  5
17BF7
  8
2-0
  6
CONTINUOUS
 62
     7
 10
9439.3483713079568
 20
11156.81700299998
 30
0.0
 40
160.0
  1
小 屋 伏 図
 72
     4
 11
9940.6817046412925
 21
11236.81700299998
 31
0.0
  0
TEXT
  5
17BF8
  8
2-0
  6
CONTINUOUS
 62
     7
 10
22953.591169130021
 20
11272.96647766667
 30
0.0
 40
160.0
  1
1
 72
     4
 11
22980.257835796689
 21
11352.96647766667
 31
0.0
  0
TEXT
  5
17BF9
  8
2-0
  6
CONTINUOUS
 62
     7
 10
23196.679886380702
 20
11192.967945666671
 30
0.0
 40
160.0
  1
80
 72
     4
 11
23316.679886380702
 21
11272.967945666671
 31
0.0
  0
TEXT
  5
17BFA
  8
2-0
  6
CONTINUOUS
 62
     7
 10
22454.59313513001
 20
11245.77110866666
 30
0.0
 40
160.0
  1
(S=  /   )
 72
     4
 11
23014.59313513001
 21
11325.77110866666
 31
0.0
  0
TEXT
  5
17BFB
  8
2-0
  6
CONTINUOUS
 62
     7
 10
11292.17388977892
 20
11184.012371999979
 30
0.0
 40
160.0
  1
1
 72
     4
 11
11318.84055644559
 21
11264.012371999979
 31
0.0
  0
TEXT
  5
17BFC
  8
2-0
  6
CONTINUOUS
 62
     7
 10
11535.26260702961
 20
11104.013839999991
 30
0.0
 40
160.0
  1
80
 72
     4
 11
11655.26260702961
 21
11184.013839999991
 31
0.0
  0
TEXT
  5
17BFD
  8
2-0
  6
CONTINUOUS
 62
     7
 10
10793.175855778911
 20
11156.81700299998
 30
0.0
 40
160.0
  1
(S=  /   )
 72
     4
 11
11353.175855778911
 21
11236.81700299998
 31
0.0
  0
LINE
  5
17BFE
  8
0-1
  6
CONTINUOUS
 62
     3
 10
12043.007700675191
 20
8152.2344179999973
 30
0.0
 11
12043.007700675191
 21
6291.1885389999989
 31
0.0
  0
LINE
  5
17BFF
  8
0-1
  6
CONTINUOUS
 62
     3
 10
12080.005892675181
 20
8152.2344179999973
 30
0.0
 11
12080.005892675181
 21
6291.1885389999989
 31
0.0
  0
LINE
  5
17C00
  8
0-1
  6
CONTINUOUS
 62
     3
 10
11343.00836067519
 20
8152.2344179999973
 30
0.0
 11
11343.00836067519
 21
6291.1885389999989
 31
0.0
  0
LINE
  5
17C01
  8
0-1
  6
CONTINUOUS
 62
     3
 10
11380.006552675201
 20
8152.2344179999973
 30
0.0
 11
11380.006552675201
 21
6291.1885389999989
 31
0.0
  0
LINE
  5
17C02
  8
0-1
  6
CONTINUOUS
 62
     3
 10
11721.50814967521
 20
6291.1885389999989
 30
0.0
 11
11721.50814967521
 21
8152.2344179999973
 31
0.0
  0
LINE
  5
17C03
  8
0-1
  6
CONTINUOUS
 62
     3
 10
11701.50709367518
 20
6291.1885389999989
 30
0.0
 11
11701.50709367518
 21
8152.2344179999973
 31
0.0
  0
LINE
  5
17C04
  8
0-1
  6
CONTINUOUS
 62
     3
 10
11771.5068296752
 20
6291.1885389999989
 30
0.0
 11
11771.5068296752
 21
8152.2344179999973
 31
0.0
  0
LINE
  5
17C05
  8
0-1
  6
CONTINUOUS
 62
     3
 10
11651.507423675201
 20
6291.1885389999989
 30
0.0
 11
11651.507423675201
 21
8152.2344179999973
 31
0.0
  0
LINE
  5
17C06
  8
0-1
  6
CONTINUOUS
 62
     3
 10
11518.5075296752
 20
6291.1885389999989
 30
0.0
 11
11518.5075296752
 21
8152.2344179999973
 31
0.0
  0
LINE
  5
17C07
  8
0-1
  6
CONTINUOUS
 62
     3
 10
11503.507727675191
 20
6291.1885389999989
 30
0.0
 11
11503.507727675191
 21
8152.2344179999973
 31
0.0
  0
LINE
  5
17C08
  8
0-1
  6
CONTINUOUS
 62
     3
 10
11904.507714675199
 20
6291.1885389999989
 30
0.0
 11
11904.507714675199
 21
8152.2344179999973
 31
0.0
  0
LINE
  5
17C09
  8
0-1
  6
CONTINUOUS
 62
     3
 10
11919.506526675181
 20
6291.1885389999989
 30
0.0
 11
11919.506526675181
 21
8152.2344179999973
 31
0.0
  0
LINE
  5
17C0A
  8
0-1
  6
CONTINUOUS
 62
     3
 10
12203.50706767518
 20
6291.1885389999989
 30
0.0
 11
12203.50706767518
 21
8152.2344179999973
 31
0.0
  0
LINE
  5
17C0B
  8
0-1
  6
CONTINUOUS
 62
     3
 10
12218.507859675199
 20
6291.1885389999989
 30
0.0
 11
12218.507859675199
 21
8152.2344179999973
 31
0.0
  0
LINE
  5
17C0C
  8
0-1
  6
CONTINUOUS
 62
     3
 10
12351.506763675199
 20
6291.1885389999989
 30
0.0
 11
12351.506763675199
 21
8152.2344179999973
 31
0.0
  0
LINE
  5
17C0D
  8
0-1
  6
CONTINUOUS
 62
     3
 10
12471.50814967519
 20
6291.1885389999989
 30
0.0
 11
12471.50814967519
 21
8152.2344179999973
 31
0.0
  0
LINE
  5
17C0E
  8
0-1
  6
CONTINUOUS
 62
     3
 10
12401.50544467518
 20
6291.1885389999989
 30
0.0
 11
12401.50544467518
 21
8152.2344179999973
 31
0.0
  0
LINE
  5
17C0F
  8
0-1
  6
CONTINUOUS
 62
     3
 10
12421.50649967519
 20
6291.1885389999989
 30
0.0
 11
12421.50649967519
 21
8152.2344179999973
 31
0.0
  0
LINE
  5
17C10
  8
0-1
  6
CONTINUOUS
 62
     3
 10
11219.508175675201
 20
6291.1885389999989
 30
0.0
 11
11219.508175675201
 21
8152.2344179999973
 31
0.0
  0
LINE
  5
17C11
  8
0-1
  6
CONTINUOUS
 62
     3
 10
11204.50738467518
 20
6291.1885389999989
 30
0.0
 11
11204.50738467518
 21
8152.2344179999973
 31
0.0
  0
LINE
  5
17C12
  8
0-1
  6
CONTINUOUS
 62
     3
 10
11071.506499675181
 20
6291.1885389999989
 30
0.0
 11
11071.506499675181
 21
8152.2344179999973
 31
0.0
  0
LINE
  5
17C13
  8
0-1
  6
CONTINUOUS
 62
     3
 10
10803.50739767519
 20
6291.1885389999989
 30
0.0
 11
10803.50739767519
 21
8152.2344179999973
 31
0.0
  0
LINE
  5
17C14
  8
0-1
  6
CONTINUOUS
 62
     3
 10
10818.506209675181
 20
6291.1885389999989
 30
0.0
 11
10818.506209675181
 21
8152.2344179999973
 31
0.0
  0
LINE
  5
17C15
  8
0-1
  6
CONTINUOUS
 62
     3
 10
10951.5070936752
 20
6291.1885389999989
 30
0.0
 11
10951.5070936752
 21
8152.2344179999973
 31
0.0
  0
LINE
  5
17C16
  8
0-1
  6
CONTINUOUS
 62
     3
 10
11001.506763675199
 20
6291.1885389999989
 30
0.0
 11
11001.506763675199
 21
8152.2344179999973
 31
0.0
  0
LINE
  5
17C17
  8
0-1
  6
CONTINUOUS
 62
     3
 10
11021.50584067519
 20
6291.1885389999989
 30
0.0
 11
11021.50584067519
 21
8152.2344179999973
 31
0.0
  0
LINE
  5
17C18
  8
0-1
  6
CONTINUOUS
 62
     3
 10
10193.506869675201
 20
6291.1885389999989
 30
0.0
 11
10193.506869675201
 21
8152.2344179999973
 31
0.0
  0
LINE
  5
17C19
  8
0-1
  6
CONTINUOUS
 62
     3
 10
10213.505945675181
 20
6291.1885389999989
 30
0.0
 11
10213.505945675181
 21
8152.2344179999973
 31
0.0
  0
LINE
  5
17C1A
  8
0-1
  6
CONTINUOUS
 62
     3
 10
10143.50620967521
 20
6291.1885389999989
 30
0.0
 11
10143.50620967521
 21
8152.2344179999973
 31
0.0
  0
LINE
  5
17C1B
  8
0-1
  6
CONTINUOUS
 62
     3
 10
10263.50660567518
 20
6291.1885389999989
 30
0.0
 11
10263.50660567518
 21
8152.2344179999973
 31
0.0
  0
LINE
  5
17C1C
  8
0-1
  6
CONTINUOUS
 62
     3
 10
10396.506499675201
 20
6291.1885389999989
 30
0.0
 11
10396.506499675201
 21
8152.2344179999973
 31
0.0
  0
LINE
  5
17C1D
  8
0-1
  6
CONTINUOUS
 62
     3
 10
10411.5082816752
 20
6291.1885389999989
 30
0.0
 11
10411.5082816752
 21
8152.2344179999973
 31
0.0
  0
LINE
  5
17C1E
  8
0-1
  6
CONTINUOUS
 62
     3
 10
10010.5063156752
 20
6291.1885389999989
 30
0.0
 11
10010.5063156752
 21
8152.2344179999973
 31
0.0
  0
LINE
  5
17C1F
  8
0-1
  6
CONTINUOUS
 62
     3
 10
9995.5075026751874
 20
6291.1885389999989
 30
0.0
 11
9995.5075026751874
 21
8152.2344179999973
 31
0.0
  0
LINE
  5
17C20
  8
0-1
  6
CONTINUOUS
 62
     3
 10
8311.5072916752106
 20
6291.1885389999989
 30
0.0
 11
8311.5072916752106
 21
8152.2344179999973
 31
0.0
  0
LINE
  5
17C21
  8
0-1
  6
CONTINUOUS
 62
     3
 10
8296.5074896751903
 20
6291.1885389999989
 30
0.0
 11
8296.5074896751903
 21
8152.2344179999973
 31
0.0
  0
LINE
  5
17C22
  8
0-1
  6
CONTINUOUS
 62
     3
 10
8793.5062096751935
 20
6291.1885389999989
 30
0.0
 11
8793.5062096751935
 21
8152.2344179999973
 31
0.0
  0
LINE
  5
17C23
  8
0-1
  6
CONTINUOUS
 62
     3
 10
8813.5072656751872
 20
6291.1885389999989
 30
0.0
 11
8813.5072656751872
 21
8152.2344179999973
 31
0.0
  0
LINE
  5
17C24
  8
0-1
  6
CONTINUOUS
 62
     3
 10
8743.5075296751911
 20
6291.1885389999989
 30
0.0
 11
8743.5075296751911
 21
8152.2344179999973
 31
0.0
  0
LINE
  5
17C25
  8
0-1
  6
CONTINUOUS
 62
     3
 10
8863.5059456751915
 20
6291.1885389999989
 30
0.0
 11
8863.5059456751915
 21
8152.2344179999973
 31
0.0
  0
LINE
  5
17C26
  8
0-1
  6
CONTINUOUS
 62
     3
 10
8996.5068296751924
 20
6291.1885389999989
 30
0.0
 11
8996.5068296751924
 21
8152.2344179999973
 31
0.0
  0
LINE
  5
17C27
  8
0-1
  6
CONTINUOUS
 62
     3
 10
9011.5066316752036
 20
6291.1885389999989
 30
0.0
 11
9011.5066316752036
 21
8152.2344179999973
 31
0.0
  0
LINE
  5
17C28
  8
0-1
  6
CONTINUOUS
 62
     3
 10
8610.5086246751889
 20
6291.1885389999989
 30
0.0
 11
8610.5086246751889
 21
8152.2344179999973
 31
0.0
  0
LINE
  5
17C29
  8
0-1
  6
CONTINUOUS
 62
     3
 10
8595.5068436751899
 20
6291.1885389999989
 30
0.0
 11
8595.5068436751899
 21
8152.2344179999973
 31
0.0
  0
LINE
  5
17C2A
  8
0-1
  6
CONTINUOUS
 62
     3
 10
9295.5061836751993
 20
6291.1885389999989
 30
0.0
 11
9295.5061836751993
 21
8152.2344179999973
 31
0.0
  0
LINE
  5
17C2B
  8
0-1
  6
CONTINUOUS
 62
     3
 10
9310.5079646752001
 20
6291.1885389999989
 30
0.0
 11
9310.5079646752001
 21
8152.2344179999973
 31
0.0
  0
LINE
  5
17C2C
  8
0-1
  6
CONTINUOUS
 62
     3
 10
9711.5059726751915
 20
6291.1885389999989
 30
0.0
 11
9711.5059726751915
 21
8152.2344179999973
 31
0.0
  0
LINE
  5
17C2D
  8
0-1
  6
CONTINUOUS
 62
     3
 10
9696.5071596751968
 20
6291.1885389999989
 30
0.0
 11
9696.5071596751968
 21
8152.2344179999973
 31
0.0
  0
LINE
  5
17C2E
  8
0-1
  6
CONTINUOUS
 62
     3
 10
9563.5082556751877
 20
6291.1885389999989
 30
0.0
 11
9563.5082556751877
 21
8152.2344179999973
 31
0.0
  0
LINE
  5
17C2F
  8
0-1
  6
CONTINUOUS
 62
     3
 10
9443.5068696751969
 20
6291.1885389999989
 30
0.0
 11
9443.5068696751969
 21
8152.2344179999973
 31
0.0
  0
LINE
  5
17C30
  8
0-1
  6
CONTINUOUS
 62
     3
 10
9513.5066056752094
 20
6291.1885389999989
 30
0.0
 11
9513.5066056752094
 21
8152.2344179999973
 31
0.0
  0
LINE
  5
17C31
  8
0-1
  6
CONTINUOUS
 62
     3
 10
9493.5075296751875
 20
6291.1885389999989
 30
0.0
 11
9493.5075296751875
 21
8152.2344179999973
 31
0.0
  0
LINE
  5
17C32
  8
0-1
  6
CONTINUOUS
 62
     3
 10
9835.0061566751974
 20
8152.2344179999973
 30
0.0
 11
9835.0061566751974
 21
6291.1885389999989
 31
0.0
  0
LINE
  5
17C33
  8
0-1
  6
CONTINUOUS
 62
     3
 10
9872.0073186751979
 20
8152.2344179999973
 30
0.0
 11
9872.0073186751979
 21
6291.1885389999989
 31
0.0
  0
LINE
  5
17C34
  8
0-1
  6
CONTINUOUS
 62
     3
 10
8435.0084666751936
 20
8152.2344179999973
 30
0.0
 11
8435.0084666751936
 21
6291.1885389999989
 31
0.0
  0
LINE
  5
17C35
  8
0-1
  6
CONTINUOUS
 62
     3
 10
8472.0076486752077
 20
8152.2344179999973
 30
0.0
 11
8472.0076486752077
 21
6291.1885389999989
 31
0.0
  0
LINE
  5
17C36
  8
0-1
  6
CONTINUOUS
 62
     3
 10
9135.0068166752008
 20
8152.2344179999973
 30
0.0
 11
9135.0068166752008
 21
6291.1885389999989
 31
0.0
  0
LINE
  5
17C37
  8
0-1
  6
CONTINUOUS
 62
     3
 10
9172.0069886751899
 20
8152.2344179999973
 30
0.0
 11
9172.0069886751899
 21
6291.1885389999989
 31
0.0
  0
LINE
  5
17C38
  8
0-1
  6
CONTINUOUS
 62
     3
 10
7985.0073446752067
 20
6241.1883740000012
 30
0.0
 11
7985.0073446752067
 21
6141.1885389999979
 31
0.0
  0
LINE
  5
17C39
  8
0-1
  6
CONTINUOUS
 62
     3
 10
8017.5081356752053
 20
8455.5174490000027
 30
0.0
 11
8017.5081356752053
 21
6241.1883740000012
 31
0.0
  0
LINE
  5
17C3A
  8
0-1
  6
CONTINUOUS
 62
     3
 10
7997.5073446751958
 20
8456.0984379999973
 30
0.0
 11
7997.5073446751958
 21
6241.1883740000012
 31
0.0
  0
LINE
  5
17C3B
  8
0-1
  6
CONTINUOUS
 62
     3
 10
8112.5072126752157
 20
8152.2344179999973
 30
0.0
 11
8112.5072126752157
 21
6241.1883740000012
 31
0.0
  0
LINE
  5
17C3C
  8
0-1
  6
CONTINUOUS
 62
     3
 10
10607.50734467519
 20
8356.9898809999977
 30
0.0
 11
10607.50734467519
 21
8152.2344179999973
 31
0.0
  0
LINE
  5
17C3D
  8
0-1
  6
CONTINUOUS
 62
     3
 10
10680.00721267518
 20
8152.2344179999973
 30
0.0
 11
10680.00721267518
 21
6241.1883740000012
 31
0.0
  0
LINE
  5
17C3E
  8
0-1
  6
CONTINUOUS
 62
     3
 10
10535.00846667521
 20
8152.2344179999973
 30
0.0
 11
10535.00846667521
 21
6241.1883740000012
 31
0.0
  0
LINE
  5
17C3F
  8
0-1
  6
CONTINUOUS
 62
     3
 10
10535.00846667521
 20
6291.1885389999989
 30
0.0
 11
8112.5072126752157
 21
6291.1885389999989
 31
0.0
  0
LINE
  5
17C40
  8
0-1
  6
CONTINUOUS
 62
     3
 10
13225.00734467519
 20
6141.1885389999979
 30
0.0
 11
13225.00734467519
 21
6241.1883740000012
 31
0.0
  0
LINE
  5
17C41
  8
0-1
  6
CONTINUOUS
 62
     3
 10
13197.507542675199
 20
8268.9908770000002
 30
0.0
 11
13197.507542675199
 21
6241.1883740000012
 31
0.0
  0
LINE
  5
17C42
  8
0-1
  6
CONTINUOUS
 62
     3
 10
13217.50734467521
 20
8268.3741496838084
 30
0.0
 11
13217.50734467521
 21
6241.1883740000012
 31
0.0
  0
LINE
  5
17C43
  8
0-1
  6
CONTINUOUS
 62
     3
 10
13102.508465675201
 20
8152.2344179999973
 30
0.0
 11
13102.508465675201
 21
6241.1883740000012
 31
0.0
  0
LINE
  5
17C44
  8
0-1
  6
CONTINUOUS
 62
     3
 10
13225.00734467519
 20
6241.1883740000012
 30
0.0
 11
7985.0073446752067
 21
6241.1883740000012
 31
0.0
  0
LINE
  5
17C45
  8
0-1
  6
CONTINUOUS
 62
     3
 10
13102.508465675201
 20
6291.1885389999989
 30
0.0
 11
10680.00721267518
 21
6291.1885389999989
 31
0.0
  0
LINE
  5
17C46
  8
0-1
  6
CONTINUOUS
 62
     3
 10
13907.5083996752
 20
6141.1885389999979
 30
0.0
 11
7985.0073446752067
 21
6141.1885389999979
 31
0.0
  0
LINE
  5
17C47
  8
0-1
  6
CONTINUOUS
 62
     3
 10
13197.507542675199
 20
8152.2344179999973
 30
0.0
 11
8017.5081356752053
 21
8152.2344179999973
 31
0.0
  0
LINE
  5
17C48
  8
0-1
  6
CONTINUOUS
 62
     3
 10
13391.80916867519
 20
8303.1736990000027
 30
0.0
 11
7911.8176796752014
 21
8498.6897600000029
 31
0.0
  0
LINE
  5
17C49
  8
0-1
  6
CONTINUOUS
 62
     3
 10
7913.3181546752012
 20
8548.6686450000016
 30
0.0
 11
13393.308653675211
 21
8353.1515949999975
 31
0.0
  0
LINE
  5
17C4A
  8
0-1
  6
CONTINUOUS
 62
     3
 10
13396.3986816752
 20
8356.0604970000022
 30
0.0
 11
13397.3587486752
 21
8388.0460529999946
 31
0.0
  0
LINE
  5
17C4B
  8
0-1
  6
CONTINUOUS
 62
     3
 10
13392.50991767519
 20
8393.193295999994
 30
0.0
 11
7893.5487026751998
 21
8589.2804480000032
 31
0.0
  0
LINE
  5
17C4C
  8
0-1
  6
CONTINUOUS
 62
     3
 10
7889.6441026752
 20
8459.3389100000022
 30
0.0
 11
13388.609276675201
 21
8263.2522529999951
 31
0.0
  0
LINE
  5
17C4D
  8
0-1
  6
CONTINUOUS
 62
     3
 10
13393.7570146752
 20
8268.0995989999974
 30
0.0
 11
13394.7160916752
 21
8300.0856499999973
 31
0.0
  0
LINE
  5
17C4E
  8
0-1
  6
CONTINUOUS
 62
     3
 10
13395.0476606752
 20
8311.0803909999977
 30
0.0
 11
13396.068102675201
 21
8345.0647659999977
 31
0.0
  0
LINE
  5
17C4F
  8
0-1
  6
CONTINUOUS
 62
     3
 10
13393.15919967519
 20
8348.1538049999981
 30
0.0
 11
7913.166721675203
 21
8543.6713500000023
 31
0.0
  0
LINE
  5
17C50
  8
0-1
  6
CONTINUOUS
 62
     3
 10
7911.9671336752081
 20
8503.6880439999986
 30
0.0
 11
13391.957631675201
 21
8308.1719839999969
 31
0.0
  0
LINE
  5
17C51
  8
0-1
  6
CONTINUOUS
 62
     3
 10
10607.50734467519
 20
8356.9898809999977
 30
0.0
 11
10611.409965675181
 21
8486.9314189999968
 31
0.0
  0
LINE
  5
17C52
  8
0-1
  6
CONTINUOUS
 62
     3
 10
7922.6110046752001
 20
8458.3481609999981
 30
0.0
 11
7926.5126356752016
 21
8588.2896989999972
 31
0.0
  0
LINE
  5
17C53
  8
0-1
  6
CONTINUOUS
 62
     3
 10
13380.017175675181
 20
8393.5684149999979
 30
0.0
 11
13376.11455467519
 21
8263.6273720000008
 31
0.0
  0
LINE
  5
17C54
  8
0-5
  6
CONTINUOUS
 62
     4
 10
15205.36967772149
 20
6241.1883740000003
 30
0.0
 11
15085.369281721491
 21
6449.0353509999923
 31
0.0
  0
LINE
  5
17C55
  8
0-5
  6
CONTINUOUS
 62
     4
 10
15325.368094721491
 20
6449.0353509999923
 30
0.0
 11
15205.36967772149
 21
6241.1883740000003
 31
0.0
  0
LINE
  5
17C56
  8
0-5
  6
CONTINUOUS
 62
     4
 10
15085.369281721491
 20
6449.0353509999923
 30
0.0
 11
15325.368094721491
 21
6449.0353509999923
 31
0.0
  0
LINE
  5
17C57
  8
0-5
  6
CONTINUOUS
 62
     4
 10
15683.07370995665
 20
6241.1883740000003
 30
0.0
 11
14307.507740675181
 21
6241.1883740000003
 31
0.0
  0
LINE
  5
17C58
  8
0-5
  6
CONTINUOUS
 62
     4
 10
8040.0073446752076
 20
4461.1889349999919
 30
0.0
 11
8040.0073446752076
 21
4301.1893969999992
 31
0.0
  0
LINE
  5
17C59
  8
0-5
  6
CONTINUOUS
 62
     4
 10
10607.50734467519
 20
4461.1889349999919
 30
0.0
 11
10607.50734467519
 21
4301.1893969999992
 31
0.0
  0
LINE
  5
17C5A
  8
0-5
  6
CONTINUOUS
 62
     4
 10
13175.007344675199
 20
4461.1889349999919
 30
0.0
 11
13175.007344675199
 21
4301.1893969999992
 31
0.0
  0
LINE
  5
17C5B
  8
2-0
  6
CENTER2
 62
     6
 10
8040.0073446752076
 20
5878.5361159999993
 30
0.0
 11
8040.0073446752076
 21
6935.6787139999979
 31
0.0
  0
LINE
  5
17C5C
  8
2-0
  6
CENTER2
 62
     6
 10
10607.50734467519
 20
5878.5361159999993
 30
0.0
 11
10607.50734467519
 21
6935.6787139999979
 31
0.0
  0
LINE
  5
17C5D
  8
2-0
  6
CENTER2
 62
     6
 10
13175.007344675199
 20
5878.5361159999993
 30
0.0
 11
13175.007344675199
 21
6935.6787139999979
 31
0.0
  0
ARC
  5
17C5E
  8
0-1
  6
CONTINUOUS
 62
     3
 10
7912.5679176752074
 20
8523.680191999998
 30
0.0
 40
24.999998999999999
 50
88.280013999973605
 51
268.28001399997362
  0
ARC
  5
17C5F
  8
0-1
  6
CONTINUOUS
 62
     3
 10
13393.398721675199
 20
8356.1505649999999
 30
0.0
 40
3.0
 50
268.28001399997362
 51
358.28001399997981
  0
ARC
  5
17C60
  8
0-1
  6
CONTINUOUS
 62
     3
 10
13392.36145367519
 20
8388.1955069999967
 30
0.0
 40
5.0
 50
358.28001399997981
 51
88.280013999973605
  0
ARC
  5
17C61
  8
0-1
  6
CONTINUOUS
 62
     3
 10
7917.5652116752171
 20
8523.529749000003
 30
0.0
 40
69.999999000000003
 50
110.0668030000901
 51
246.49322500022339
  0
ARC
  5
17C62
  8
0-1
  6
CONTINUOUS
 62
     3
 10
13388.75774067519
 20
8268.250043
 30
0.0
 40
5.0
 50
268.28001399997362
 51
358.28001399997981
  0
ARC
  5
17C63
  8
0-1
  6
CONTINUOUS
 62
     3
 10
13391.7190996752
 20
8300.1752230000002
 30
0.0
 40
3.0
 50
358.28001399997981
 51
88.280013999973605
  0
ARC
  5
17C64
  8
0-1
  6
CONTINUOUS
 62
     3
 10
13391.734936675201
 20
8350.6979809999957
 30
0.0
 40
2.5
 50
88.280013999973605
 51
268.28001399997362
  0
ARC
  5
17C65
  8
0-1
  6
CONTINUOUS
 62
     3
 10
13390.3849046752
 20
8305.7178749999985
 30
0.0
 40
2.5
 50
88.280013999973605
 51
268.28001399997362
  0
ARC
  5
17C66
  8
0-1
  6
CONTINUOUS
 62
     3
 10
13393.0691316752
 20
8345.1553289999974
 30
0.0
 40
3.0
 50
358.28001399997981
 51
88.280013999973605
  0
ARC
  5
17C67
  8
0-1
  6
CONTINUOUS
 62
     3
 10
7912.5679176752074
 20
8523.680191999998
 30
0.0
 40
20.0
 50
88.280013999973605
 51
268.28001399997362
  0
ARC
  5
17C68
  8
0-1
  6
CONTINUOUS
 62
     3
 10
13392.048689675201
 20
8311.169963999997
 30
0.0
 40
3.0
 50
268.28001399997362
 51
358.28001399997981
  0
CIRCLE
  5
17C69
  8
0-5
  6
CONTINUOUS
 62
     4
 10
10607.50734467519
 20
4101.1882420000002
 30
0.0
 40
199.9999949999999
  0
CIRCLE
  5
17C6A
  8
0-5
  6
CONTINUOUS
 62
     4
 10
8040.0073446752076
 20
4101.1882420000002
 30
0.0
 40
199.9999949999999
  0
CIRCLE
  5
17C6B
  8
0-5
  6
CONTINUOUS
 62
     4
 10
13175.007344675199
 20
4101.1882420000002
 30
0.0
 40
199.9999949999999
  0
TEXT
  5
17C6C
  8
0-5
  6
CONTINUOUS
 62
     7
 10
14747.12827338814
 20
6529.0346249999966
 30
0.0
 40
160.0
  1
布基礎天端
 72
     4
 11
15205.79494005481
 21
6609.0346249999957
 31
0.0
  0
TEXT
  5
17C6D
  8
0-5
  6
CONTINUOUS
 62
     7
 10
7980.2968380085331
 20
4017.977445999999
 30
0.0
 40
160.0
  1
A
 72
     4
 11
8033.630171341867
 21
4097.9774459999999
 31
0.0
  0
TEXT
  5
17C6E
  8
0-5
  6
CONTINUOUS
 62
     7
 10
10547.796838008509
 20
4017.977445999999
 30
0.0
 40
160.0
  1
B
 72
     4
 11
10601.130171341851
 21
4097.9774459999999
 31
0.0
  0
TEXT
  5
17C6F
  8
0-5
  6
CONTINUOUS
 62
     7
 10
13115.296838008509
 20
4017.977445999999
 30
0.0
 40
160.0
  1
C
 72
     4
 11
13168.630171341851
 21
4097.9774459999999
 31
0.0
  0
LINE
  5
17C70
  8
SUNPOU
  6
CONTINUOUS
 10
13397.50734467521
 20
9389.1900499999992
 30
0.0
 11
13902.295214568599
 21
9389.1900499999992
 31
0.0
  0
LINE
  5
17C71
  8
0-5
  6
CONTINUOUS
 62
     4
 10
17008.38731353066
 20
6349.0350209999979
 30
0.0
 11
16888.388897530669
 21
6141.1885389999979
 31
0.0
  0
LINE
  5
17C72
  8
0-5
  6
CONTINUOUS
 62
     4
 10
18710.63383486808
 20
6141.1885389999979
 30
0.0
 11
13981.068051040231
 21
6141.1885389999979
 31
0.0
  0
LINE
  5
17C73
  8
0-5
  6
CONTINUOUS
 62
     4
 10
16888.388897530669
 20
6141.1885389999979
 30
0.0
 11
16768.38850153067
 21
6349.0350209999979
 31
0.0
  0
LINE
  5
17C74
  8
0-5
  6
CONTINUOUS
 62
     4
 10
16768.38850153067
 20
6349.0350209999979
 30
0.0
 11
17008.38731353066
 21
6349.0350209999979
 31
0.0
  0
TEXT
  5
17C75
  8
0-5
  6
CONTINUOUS
 62
     7
 10
16688.38731353066
 20
6429.0347899999997
 30
0.0
 40
160.0
  1
G.L
 72
     4
 11
16848.38731353066
 21
6509.0347899999997
 31
0.0
  0
LINE
  5
17C76
  8
0-1
  6
CONTINUOUS
 62
     3
 10
12743.00902067519
 20
8152.2344179999973
 30
0.0
 11
12743.00902067519
 21
6291.1885389999989
 31
0.0
  0
LINE
  5
17C77
  8
0-1
  6
CONTINUOUS
 62
     3
 10
12780.00721267518
 20
8152.2344179999973
 30
0.0
 11
12780.00721267518
 21
6291.1885389999989
 31
0.0
  0
LINE
  5
17C78
  8
0-1
  6
CONTINUOUS
 62
     3
 10
12604.50903467518
 20
6291.1885389999989
 30
0.0
 11
12604.50903467518
 21
8152.2344179999973
 31
0.0
  0
LINE
  5
17C79
  8
0-1
  6
CONTINUOUS
 62
     3
 10
12619.50784667518
 20
6291.1885389999989
 30
0.0
 11
12619.50784667518
 21
8152.2344179999973
 31
0.0
  0
LINE
  5
17C7A
  8
0-1
  6
CONTINUOUS
 62
     3
 10
12903.508387675191
 20
6291.1885390000007
 30
0.0
 11
12903.508387675191
 21
8152.2344179999973
 31
0.0
  0
LINE
  5
17C7B
  8
0-1
  6
CONTINUOUS
 62
     3
 10
12918.50917967518
 20
6291.1885390000007
 30
0.0
 11
12918.50917967518
 21
8152.2344179999973
 31
0.0
  0
LINE
  5
17C7C
  8
0-1
  6
CONTINUOUS
 62
     3
 10
25414.474418566781
 20
8132.6883740000021
 30
0.0
 11
22230.970987566801
 21
8132.6883740000021
 31
0.0
  0
LINE
  5
17C7D
  8
0-1
  6
CONTINUOUS
 62
     3
 10
25414.474418566781
 20
8326.1887430000024
 30
0.0
 11
22230.970987566801
 21
8326.1887430000024
 31
0.0
  0
LINE
  5
17C7E
  8
0-1
  6
CONTINUOUS
 62
     3
 10
25542.47072356681
 20
8264.0026619999953
 30
0.0
 11
25542.47072356681
 21
8589.6883999999955
 31
0.0
  0
LINE
  5
17C7F
  8
0-1
  6
CONTINUOUS
 62
     3
 10
22145.972438566801
 20
8459.6884659999942
 30
0.0
 11
25542.47072356681
 21
8459.6884659999942
 31
0.0
  0
LINE
  5
17C80
  8
0-1
  6
CONTINUOUS
 62
     3
 10
25542.47072356681
 20
8589.6883999999955
 30
0.0
 11
22165.969535566801
 21
8589.6883999999955
 31
0.0
  0
LINE
  5
17C81
  8
0-1
  6
CONTINUOUS
 62
     3
 10
22138.472042566791
 20
6241.1883740000012
 30
0.0
 11
22238.471383566801
 21
6241.1883740000012
 31
0.0
  0
LINE
  5
17C82
  8
0-1
  6
CONTINUOUS
 62
     3
 10
22238.471383566801
 20
6241.1883740000012
 30
0.0
 11
22238.471383566801
 21
6141.1885389999979
 31
0.0
  0
LINE
  5
17C83
  8
0-1
  6
CONTINUOUS
 62
     3
 10
22138.472042566791
 20
6141.1885389999979
 30
0.0
 11
22138.472042566791
 21
6241.1883740000012
 31
0.0
  0
LINE
  5
17C84
  8
0-1
  6
CONTINUOUS
 62
     3
 10
22230.970987566801
 20
8459.6884659999942
 30
0.0
 11
22230.970987566801
 21
6241.1883740000012
 31
0.0
  0
LINE
  5
17C85
  8
0-1
  6
CONTINUOUS
 62
     3
 10
22282.470723566799
 20
8132.6883740000021
 30
0.0
 11
22282.470723566799
 21
6141.1885389999979
 31
0.0
  0
LINE
  5
17C86
  8
0-1
  6
CONTINUOUS
 62
     3
 10
22165.969535566801
 20
8589.6883999999955
 30
0.0
 11
22165.969535566801
 21
6241.1883740000012
 31
0.0
  0
LINE
  5
17C87
  8
0-1
  6
CONTINUOUS
 62
     3
 10
22145.970723566781
 20
8459.6884659999942
 30
0.0
 11
22145.970723566781
 21
6241.1883740000012
 31
0.0
  0
LINE
  5
17C88
  8
0-1
  6
CONTINUOUS
 62
     3
 10
25542.47072356681
 20
8264.0026619999953
 30
0.0
 11
25499.47072356681
 21
8264.0026619999953
 31
0.0
  0
LINE
  5
17C89
  8
0-1
  6
CONTINUOUS
 62
     3
 10
25506.97336256679
 20
6241.1883740000012
 30
0.0
 11
25406.974022566781
 21
6241.1883740000012
 31
0.0
  0
LINE
  5
17C8A
  8
0-1
  6
CONTINUOUS
 62
     3
 10
25406.974022566781
 20
6241.1883740000012
 30
0.0
 11
25406.974022566781
 21
6141.1885389999979
 31
0.0
  0
LINE
  5
17C8B
  8
0-1
  6
CONTINUOUS
 62
     3
 10
25506.97336256679
 20
6141.1885389999979
 30
0.0
 11
25506.97336256679
 21
6241.1883740000012
 31
0.0
  0
LINE
  5
17C8C
  8
0-1
  6
CONTINUOUS
 62
     3
 10
25362.970723566799
 20
8132.6883740000021
 30
0.0
 11
25362.970723566799
 21
6141.1885389999979
 31
0.0
  0
LINE
  5
17C8D
  8
0-1
  6
CONTINUOUS
 62
     3
 10
25414.474418566781
 20
8459.6884659999942
 30
0.0
 11
25414.474418566781
 21
6241.1883740000012
 31
0.0
  0
LINE
  5
17C8E
  8
0-1
  6
CONTINUOUS
 62
     3
 10
25479.473890566791
 20
8589.6883999999955
 30
0.0
 11
25479.473890566791
 21
6241.1883740000012
 31
0.0
  0
LINE
  5
17C8F
  8
0-1
  6
CONTINUOUS
 62
     3
 10
25499.47072356681
 20
8459.6884659999942
 30
0.0
 11
25499.47072356681
 21
6241.1883740000012
 31
0.0
  0
LINE
  5
17C90
  8
0-1
  6
CONTINUOUS
 62
     3
 10
25362.970723566799
 20
6661.1892649999972
 30
0.0
 11
22282.470723566799
 21
6661.1892649999972
 31
0.0
  0
LINE
  5
17C91
  8
0-1
  6
CONTINUOUS
 62
     3
 10
25362.970723566799
 20
6596.1888030000009
 30
0.0
 11
22282.470723566799
 21
6596.1888030000009
 31
0.0
  0
LINE
  5
17C92
  8
0-1
  6
CONTINUOUS
 62
     3
 10
25362.970723566799
 20
6531.1888359999984
 30
0.0
 11
22282.470723566799
 21
6531.1888359999984
 31
0.0
  0
LINE
  5
17C93
  8
0-1
  6
CONTINUOUS
 62
     3
 10
25362.970723566799
 20
6466.1883740000012
 30
0.0
 11
22282.470723566799
 21
6466.1883740000012
 31
0.0
  0
LINE
  5
17C94
  8
0-1
  6
CONTINUOUS
 62
     3
 10
25362.970723566799
 20
6401.1889020000053
 30
0.0
 11
22282.470723566799
 21
6401.1889020000053
 31
0.0
  0
LINE
  5
17C95
  8
0-1
  6
CONTINUOUS
 62
     3
 10
25362.970723566799
 20
6336.1889350000019
 30
0.0
 11
22282.470723566799
 21
6336.1889350000019
 31
0.0
  0
LINE
  5
17C96
  8
0-1
  6
CONTINUOUS
 62
     3
 10
25362.970723566799
 20
6271.1889679999967
 30
0.0
 11
22282.470723566799
 21
6271.1889679999967
 31
0.0
  0
LINE
  5
17C97
  8
0-1
  6
CONTINUOUS
 62
     3
 10
25362.970723566799
 20
6206.1885060000022
 30
0.0
 11
22282.470723566799
 21
6206.1885060000022
 31
0.0
  0
LINE
  5
17C98
  8
0-1
  6
CONTINUOUS
 62
     3
 10
25362.970723566799
 20
8026.1885720000018
 30
0.0
 11
22282.470723566799
 21
8026.1885720000018
 31
0.0
  0
LINE
  5
17C99
  8
0-1
  6
CONTINUOUS
 62
     3
 10
25362.970723566799
 20
7961.1886050000021
 30
0.0
 11
22282.470723566799
 21
7961.1886050000021
 31
0.0
  0
LINE
  5
17C9A
  8
0-1
  6
CONTINUOUS
 62
     3
 10
25362.970723566799
 20
7896.1891330000026
 30
0.0
 11
22282.470723566799
 21
7896.1891330000026
 31
0.0
  0
LINE
  5
17C9B
  8
0-1
  6
CONTINUOUS
 62
     3
 10
25362.970723566799
 20
7831.1891659999937
 30
0.0
 11
22282.470723566799
 21
7831.1891659999937
 31
0.0
  0
LINE
  5
17C9C
  8
0-1
  6
CONTINUOUS
 62
     3
 10
25362.970723566799
 20
7766.189199000004
 30
0.0
 11
22282.470723566799
 21
7766.189199000004
 31
0.0
  0
LINE
  5
17C9D
  8
0-1
  6
CONTINUOUS
 62
     3
 10
25362.970723566799
 20
7701.1887370000022
 30
0.0
 11
22282.470723566799
 21
7701.1887370000022
 31
0.0
  0
LINE
  5
17C9E
  8
0-1
  6
CONTINUOUS
 62
     3
 10
25362.970723566799
 20
7636.1887699999979
 30
0.0
 11
22282.470723566799
 21
7636.1887699999979
 31
0.0
  0
LINE
  5
17C9F
  8
0-1
  6
CONTINUOUS
 62
     3
 10
25362.970723566799
 20
7571.1892980000011
 30
0.0
 11
22282.470723566799
 21
7571.1892980000011
 31
0.0
  0
LINE
  5
17CA0
  8
0-1
  6
CONTINUOUS
 62
     3
 10
25362.970723566799
 20
7506.1893309999978
 30
0.0
 11
22282.470723566799
 21
7506.1893309999978
 31
0.0
  0
LINE
  5
17CA1
  8
0-1
  6
CONTINUOUS
 62
     3
 10
25362.970723566799
 20
7441.1888690000023
 30
0.0
 11
22282.470723566799
 21
7441.1888690000023
 31
0.0
  0
LINE
  5
17CA2
  8
0-1
  6
CONTINUOUS
 62
     3
 10
25362.970723566799
 20
7376.188901999999
 30
0.0
 11
22282.470723566799
 21
7376.188901999999
 31
0.0
  0
LINE
  5
17CA3
  8
0-1
  6
CONTINUOUS
 62
     3
 10
25362.970723566799
 20
7311.1889350000029
 30
0.0
 11
22282.470723566799
 21
7311.1889350000029
 31
0.0
  0
LINE
  5
17CA4
  8
0-1
  6
CONTINUOUS
 62
     3
 10
25362.970723566799
 20
7246.1884729999983
 30
0.0
 11
22282.470723566799
 21
7246.1884729999983
 31
0.0
  0
LINE
  5
17CA5
  8
0-1
  6
CONTINUOUS
 62
     3
 10
25362.970723566799
 20
7181.188505999995
 30
0.0
 11
22282.470723566799
 21
7181.188505999995
 31
0.0
  0
LINE
  5
17CA6
  8
0-1
  6
CONTINUOUS
 62
     3
 10
25362.970723566799
 20
7116.189034
 30
0.0
 11
22282.470723566799
 21
7116.189034
 31
0.0
  0
LINE
  5
17CA7
  8
0-1
  6
CONTINUOUS
 62
     3
 10
25362.970723566799
 20
7051.1890669999939
 30
0.0
 11
22282.470723566799
 21
7051.1890669999939
 31
0.0
  0
LINE
  5
17CA8
  8
0-1
  6
CONTINUOUS
 62
     3
 10
25362.970723566799
 20
6986.1890999999996
 30
0.0
 11
22282.470723566799
 21
6986.1890999999996
 31
0.0
  0
LINE
  5
17CA9
  8
0-1
  6
CONTINUOUS
 62
     3
 10
25362.970723566799
 20
6921.1886380000024
 30
0.0
 11
22282.470723566799
 21
6921.1886380000024
 31
0.0
  0
LINE
  5
17CAA
  8
0-1
  6
CONTINUOUS
 62
     3
 10
25362.970723566799
 20
6856.188670999999
 30
0.0
 11
22282.470723566799
 21
6856.188670999999
 31
0.0
  0
LINE
  5
17CAB
  8
0-1
  6
CONTINUOUS
 62
     3
 10
25362.970723566799
 20
6791.1891989999967
 30
0.0
 11
22282.470723566799
 21
6791.1891989999967
 31
0.0
  0
LINE
  5
17CAC
  8
0-1
  6
CONTINUOUS
 62
     3
 10
25362.970723566799
 20
6726.1892319999997
 30
0.0
 11
22282.470723566799
 21
6726.1892319999997
 31
0.0
  0
LINE
  5
17CAD
  8
0-1
  6
CONTINUOUS
 62
     3
 10
25362.970723566799
 20
8080.6485920000023
 30
0.0
 11
22282.470723566799
 21
8080.6485920000023
 31
0.0
  0
LINE
  5
17CAE
  8
0-1
  6
CONTINUOUS
 62
     3
 10
25506.97336256679
 20
6141.1885389999979
 30
0.0
 11
18776.992347441588
 21
6141.1885389999979
 31
0.0
  0
LINE
  5
17CAF
  8
0-1
  6
CONTINUOUS
 62
     3
 10
25388.47146256678
 20
8335.1891199999973
 30
0.0
 11
25111.04193256679
 21
8335.1891199999973
 31
0.0
  0
LINE
  5
17CB0
  8
0-1
  6
CONTINUOUS
 62
     3
 10
25388.47146256678
 20
8377.1885650000004
 30
0.0
 11
25079.044994566779
 21
8377.1885650000004
 31
0.0
  0
LINE
  5
17CB1
  8
0-1
  6
CONTINUOUS
 62
     3
 10
25393.471725566778
 20
8340.1888889999937
 30
0.0
 11
25393.471725566778
 21
8372.1892910000006
 31
0.0
  0
LINE
  5
17CB2
  8
0-1
  6
CONTINUOUS
 62
     3
 10
25414.474418566781
 20
8386.1884469999968
 30
0.0
 11
22230.970987566801
 21
8386.1884469999968
 31
0.0
  0
LINE
  5
17CB3
  8
0-1
  6
CONTINUOUS
 62
     3
 10
25107.508492566791
 20
8336.6529740000005
 30
0.0
 11
25075.50759456681
 21
8368.6533759999984
 31
0.0
  0
LINE
  5
17CB4
  8
0-1
  6
CONTINUOUS
 62
     3
 10
25393.471725566778
 20
8368.7889730000006
 30
0.0
 11
25075.378926566798
 21
8368.7889730000006
 31
0.0
  0
LINE
  5
17CB5
  8
0-1
  6
CONTINUOUS
 62
     3
 10
25393.471725566778
 20
8360.388885999997
 30
0.0
 11
25083.772084566772
 21
8360.388885999997
 31
0.0
  0
LINE
  5
17CB6
  8
0-1
  6
CONTINUOUS
 62
     3
 10
25393.471725566778
 20
8351.9892940000045
 30
0.0
 11
25092.171182566792
 21
8351.9892940000045
 31
0.0
  0
LINE
  5
17CB7
  8
0-1
  6
CONTINUOUS
 62
     3
 10
25393.471725566778
 20
8343.5892070000027
 30
0.0
 11
25100.57423856678
 21
8343.5892070000027
 31
0.0
  0
LINE
  5
17CB8
  8
0-1
  6
CONTINUOUS
 62
     3
 10
22251.971699566799
 20
8368.7889730000006
 30
0.0
 11
22570.06449956679
 21
8368.7889730000006
 31
0.0
  0
LINE
  5
17CB9
  8
0-1
  6
CONTINUOUS
 62
     3
 10
22251.971699566799
 20
8360.388885999997
 30
0.0
 11
22561.669361566801
 21
8360.388885999997
 31
0.0
  0
LINE
  5
17CBA
  8
0-1
  6
CONTINUOUS
 62
     3
 10
22251.971699566799
 20
8351.9892940000045
 30
0.0
 11
22553.2702645668
 21
8351.9892940000045
 31
0.0
  0
LINE
  5
17CBB
  8
0-1
  6
CONTINUOUS
 62
     3
 10
22251.971699566799
 20
8343.5892070000027
 30
0.0
 11
22544.871166566802
 21
8343.5892070000027
 31
0.0
  0
LINE
  5
17CBC
  8
0-1
  6
CONTINUOUS
 62
     3
 10
22256.971963566801
 20
8377.1885650000004
 30
0.0
 11
22566.398431566799
 21
8377.1885650000004
 31
0.0
  0
LINE
  5
17CBD
  8
0-1
  6
CONTINUOUS
 62
     3
 10
22256.971963566801
 20
8335.1891199999973
 30
0.0
 11
22534.401492566802
 21
8335.1891199999973
 31
0.0
  0
LINE
  5
17CBE
  8
0-1
  6
CONTINUOUS
 62
     3
 10
22251.971699566799
 20
8340.1888889999937
 30
0.0
 11
22251.971699566799
 21
8372.1892910000006
 31
0.0
  0
LINE
  5
17CBF
  8
0-1
  6
CONTINUOUS
 62
     3
 10
22537.936913566791
 20
8336.6529740000005
 30
0.0
 11
22569.933851566791
 21
8368.6533759999984
 31
0.0
  0
LINE
  5
17CC0
  8
0-2
  6
CONTINUOUS
 62
     4
 10
23459.03268306678
 20
6888.4152329999961
 30
0.0
 11
23559.032023066778
 21
6888.4152329999961
 31
0.0
  0
LINE
  5
17CC1
  8
0-2
  6
CONTINUOUS
 62
     4
 10
24186.416683066778
 20
6888.4152329999961
 30
0.0
 11
24086.417343066802
 21
6888.4152329999961
 31
0.0
  0
LINE
  5
17CC2
  8
0-5
  6
CONTINUOUS
 62
     4
 10
22188.470723566788
 20
4461.1889349999919
 30
0.0
 11
22188.470723566788
 21
4301.1893969999992
 31
0.0
  0
LINE
  5
17CC3
  8
0-5
  6
CONTINUOUS
 62
     4
 10
25456.970723566799
 20
4461.1889349999919
 30
0.0
 11
25456.970723566799
 21
4301.1893969999992
 31
0.0
  0
LINE
  5
17CC4
  8
2-0
  6
CENTER2
 62
     6
 10
22188.470723566788
 20
5878.5361159999993
 30
0.0
 11
22188.470723566788
 21
6915.6791429999976
 31
0.0
  0
LINE
  5
17CC5
  8
2-0
  6
CENTER2
 62
     6
 10
25456.970723566799
 20
5878.5361159999993
 30
0.0
 11
25456.970723566799
 21
6915.6791429999976
 31
0.0
  0
ARC
  5
17CC6
  8
0-1
  6
CONTINUOUS
 62
     3
 10
25388.47146256678
 20
8372.1892910000006
 30
0.0
 40
5.0
 50
0.0
 51
90.0
  0
ARC
  5
17CC7
  8
0-1
  6
CONTINUOUS
 62
     3
 10
25388.47146256678
 20
8340.1888889999937
 30
0.0
 40
5.0
 50
270.00001499981897
 51
0.0
  0
ARC
  5
17CC8
  8
0-1
  6
CONTINUOUS
 62
     3
 10
25111.04193256679
 20
8340.1888889999937
 30
0.0
 40
5.0
 50
225.00001499972521
 51
270.00001499981897
  0
ARC
  5
17CC9
  8
0-1
  6
CONTINUOUS
 62
     3
 10
25079.044994566779
 20
8372.1892910000006
 30
0.0
 40
5.0
 50
90.0
 51
225.00001499972521
  0
ARC
  5
17CCA
  8
0-1
  6
CONTINUOUS
 62
     3
 10
22256.971963566801
 20
8340.1888889999937
 30
0.0
 40
5.0
 50
180.0
 51
270.00001499981897
  0
ARC
  5
17CCB
  8
0-1
  6
CONTINUOUS
 62
     3
 10
22256.971963566801
 20
8372.1892910000006
 30
0.0
 40
5.0
 50
90.0
 51
180.0
  0
ARC
  5
17CCC
  8
0-1
  6
CONTINUOUS
 62
     3
 10
22566.398431566799
 20
8372.1892910000006
 30
0.0
 40
5.0
 50
315.00001500002912
 51
90.0
  0
ARC
  5
17CCD
  8
0-1
  6
CONTINUOUS
 62
     3
 10
22534.401492566802
 20
8340.1888889999937
 30
0.0
 40
5.0
 50
270.00001499981897
 51
315.00001500002912
  0
CIRCLE
  5
17CCE
  8
0-5
  6
CONTINUOUS
 62
     4
 10
22188.470723566788
 20
4101.1882420000002
 30
0.0
 40
199.9999949999999
  0
CIRCLE
  5
17CCF
  8
0-5
  6
CONTINUOUS
 62
     4
 10
25456.970723566799
 20
4101.1882420000002
 30
0.0
 40
199.9999949999999
  0
TEXT
  5
17CD0
  8
0-5
  6
CONTINUOUS
 62
     7
 10
22133.716931900119
 20
4011.7132599999991
 30
0.0
 40
160.0
  1
2
 72
     4
 11
22187.050265233462
 21
4091.71326
 31
0.0
  0
TEXT
  5
17CD1
  8
0-5
  6
CONTINUOUS
 62
     7
 10
26561.942488670938
 20
7195.3690974935444
 30
0.0
 40
160.0
  1
(2131.5)
 50
90.0
 72
     4
 11
26481.942488670938
 21
7648.7024308268774
 31
0.0
  0
TEXT
  5
17CD2
  8
0-5
  6
CONTINUOUS
 62
     7
 10
25403.637390233471
 20
4021.1882420000002
 30
0.0
 40
160.0
  1
3
 72
     4
 11
25456.970723566799
 21
4101.1882420000002
 31
0.0
  0
CIRCLE
  5
17CD3
  8
0-4
  6
CONTINUOUS
 62
     4
 10
23822.722703066778
 20
6627.2449749999978
 30
0.0
 40
18.487504999999981
  0
LINE
  5
17CD4
  8
1-前柱カバ-P
 10
19430.970723566781
 20
8459.6884659999942
 30
0.0
 11
19430.970723566781
 21
6141.1885389999979
 31
0.0
  0
LINE
  5
17CD5
  8
1-前柱カバ-P
 10
19345.970723566781
 20
8589.6883999999955
 30
0.0
 11
19345.970723566781
 21
6141.1885389999979
 31
0.0
  0
LINE
  5
17CD6
  8
0-1
  6
CONTINUOUS
 62
     3
 10
19302.970723566788
 20
8459.6884660000014
 30
0.0
 11
22230.970987566801
 21
8459.6884659999942
 31
0.0
  0
LINE
  5
17CD7
  8
0-1
  6
CONTINUOUS
 62
     3
 10
22165.969535566801
 20
8589.6883999999955
 30
0.0
 11
19302.970723566788
 21
8589.6883999999955
 31
0.0
  0
LINE
  5
17CD8
  8
0-1
  6
CONTINUOUS
 62
     3
 10
19302.970723566788
 20
8264.0026620000026
 30
0.0
 11
19302.970723566788
 21
8589.6883999999955
 31
0.0
  0
LINE
  5
17CD9
  8
0-1
  6
CONTINUOUS
 62
     3
 10
19302.970723566788
 20
8264.0026620000026
 30
0.0
 11
19345.970723566781
 21
8264.0026620000026
 31
0.0
  0
LINE
  5
17CDA
  8
2-0
  6
CENTER2
 62
     6
 10
19388.470723566781
 20
5878.5361159999993
 30
0.0
 11
19388.470723566781
 21
6915.6791429999976
 31
0.0
  0
LINE
  5
17CDB
  8
1-桁前P28
 10
19430.970723566781
 20
8262.0026620000026
 30
0.0
 11
22145.970723566781
 21
8262.0026620000026
 31
0.0
  0
LINE
  5
17CDC
  8
0-5
  6
CONTINUOUS
 62
     4
 10
19388.470723566781
 20
4461.1889349999919
 30
0.0
 11
19388.470723566781
 21
4301.1893969999992
 31
0.0
  0
CIRCLE
  5
17CDD
  8
0-5
  6
CONTINUOUS
 62
     4
 10
19388.470723566781
 20
4101.1882420000002
 30
0.0
 40
199.9999949999999
  0
TEXT
  5
17CDE
  8
0-5
  6
CONTINUOUS
 62
     7
 10
19360.38359856679
 20
4011.7132599999991
 30
0.0
 40
160.0
  1
1
 72
     4
 11
19387.050265233462
 21
4091.71326
 31
0.0
  0
TEXT
  5
17CDF
  8
0-5
  6
CONTINUOUS
 62
     7
 10
18375.599336307401
 20
7235.7652940582411
 30
0.0
 40
160.0
  1
(2260)
 50
90.0
 72
     4
 11
18295.599336307401
 21
7622.431960724909
 31
0.0
  0
LINE
  5
17E39
  8
2-0
  6
CENTER2
 62
     6
 10
27499.471646566759
 20
19317.986251999992
 30
0.0
 11
26779.472966566769
 21
19317.986251999992
 31
0.0
  0
LINE
  5
17E3A
  8
2-0
  6
CENTER2
 62
     6
 10
26619.472966566769
 20
19317.986251999992
 30
0.0
 11
19083.86588761484
 21
19317.986251999992
 31
0.0
  0
LINE
  5
17E3B
  8
2-0
  6
CENTER2
 62
     6
 10
27499.471646566792
 20
16750.486251999992
 30
0.0
 11
26724.64795796412
 21
16750.486251999992
 31
0.0
  0
LINE
  5
17E3C
  8
2-0
  6
CENTER2
 62
     6
 10
26299.473626566782
 20
16750.486251999992
 30
0.0
 11
19083.86588761484
 21
16750.486251999992
 31
0.0
  0
LINE
  5
17E3D
  8
2-0
  6
CENTER2
 62
     6
 10
27499.471646566759
 20
14182.986252000001
 30
0.0
 11
26779.472966566769
 21
14182.986252000001
 31
0.0
  0
LINE
  5
17E3E
  8
2-0
  6
CENTER2
 62
     6
 10
26619.472966566769
 20
14182.986252000001
 30
0.0
 11
19083.86588761484
 21
14182.986252000001
 31
0.0
  0
CIRCLE
  5
17E3F
  8
0-5
  6
CONTINUOUS
 62
     4
 10
22188.470723566788
 20
21160.487175999991
 30
0.0
 40
199.9999949999999
  0
CIRCLE
  5
17E40
  8
0-5
  6
CONTINUOUS
 62
     4
 10
27699.472306566771
 20
19317.986251999992
 30
0.0
 40
199.9999949999999
  0
CIRCLE
  5
17E41
  8
0-5
  6
CONTINUOUS
 62
     4
 10
27699.472306566771
 20
16750.486251999992
 30
0.0
 40
199.9999949999999
  0
CIRCLE
  5
17E42
  8
0-5
  6
CONTINUOUS
 62
     4
 10
27699.472306566771
 20
14182.986252000001
 30
0.0
 40
199.9999949999999
  0
CIRCLE
  5
17E43
  8
0-5
  6
CONTINUOUS
 62
     4
 10
25456.970723566781
 20
21160.487175999991
 30
0.0
 40
199.9999949999999
  0
TEXT
  5
17E44
  8
0-5
  6
CONTINUOUS
 62
     7
 10
22136.47440090013
 20
21074.261326
 30
0.0
 40
160.0
  1
2
 72
     4
 11
22189.807734233462
 21
21154.261326
 31
0.0
  0
TEXT
  5
17E45
  8
0-5
  6
CONTINUOUS
 62
     7
 10
25403.637390233449
 20
21080.487175999991
 30
0.0
 40
160.0
  1
3
 72
     4
 11
25456.970723566781
 21
21160.487175999991
 31
0.0
  0
TEXT
  5
17E46
  8
0-5
  6
CONTINUOUS
 62
     7
 10
27641.482001900109
 20
19226.368192999991
 30
0.0
 40
160.0
  1
C
 72
     4
 11
27694.815335233441
 21
19306.368192999991
 31
0.0
  0
TEXT
  5
17E47
  8
0-5
  6
CONTINUOUS
 62
     7
 10
27641.482001900109
 20
16658.868193999999
 30
0.0
 40
160.0
  1
B
 72
     4
 11
27694.815335233441
 21
16738.868193999999
 31
0.0
  0
TEXT
  5
17E48
  8
0-5
  6
CONTINUOUS
 62
     7
 10
27641.482001900109
 20
14091.368193
 30
0.0
 40
160.0
  1
A
 72
     4
 11
27694.815335233441
 21
14171.368193
 31
0.0
  0
LINE
  5
17E49
  8
2-0
  6
CENTER2
 62
     6
 10
19388.470723566781
 20
20960.488495000001
 30
0.0
 11
19388.470723566781
 21
13825.23237353158
 31
0.0
  0
CIRCLE
  5
17E4A
  8
0-5
  6
CONTINUOUS
 62
     4
 10
19388.470723566781
 20
21160.487175999991
 30
0.0
 40
199.9999949999999
  0
TEXT
  5
17E4B
  8
0-5
  6
CONTINUOUS
 62
     7
 10
19363.14106756679
 20
21074.261326
 30
0.0
 40
160.0
  1
1
 72
     4
 11
19389.807734233462
 21
21154.261326
 31
0.0
  0
ARC
  5
17E4C
  8
1-後柱P
  6
HIDE-M
 62
     6
 10
19384.870723566772
 20
19249.936251999989
 30
0.0
 40
2.6000000000000001
 50
270.0
 51
0.0
  0
LINE
  5
17E4D
  8
1-後柱P
  6
HIDE-M
 62
     6
 10
19396.470723566781
 20
19247.8868618468
 30
0.0
 11
19396.470723566781
 21
19251.536252000002
 31
0.0
  0
LINE
  5
17E4E
  8
1-後柱P
  6
HIDE-M
 62
     6
 10
19386.470723566781
 20
19247.8868618468
 30
0.0
 11
19386.470723566781
 21
19251.536252000002
 31
0.0
  0
LINE
  5
17E4F
  8
1-後柱P
  6
1PL-M
 62
     6
 10
19391.470723566781
 20
19242.336252000001
 30
0.0
 11
19391.470723566781
 21
19256.536252000002
 31
0.0
  0
ARC
  5
17E50
  8
1-後柱P
  6
HIDE-M
 62
     6
 10
19398.07072356678
 20
19249.936251999989
 30
0.0
 40
2.6000000000000001
 50
180.0
 51
270.0
  0
LINE
  5
17E51
  8
1-後柱P
  6
HIDE-M
 62
     6
 10
19387.470723566781
 20
19249.936251999989
 30
0.0
 11
19387.470723566781
 21
19251.536252000002
 31
0.0
  0
LINE
  5
17E52
  8
1-後柱P
  6
HIDE-M
 62
     6
 10
19395.470723566788
 20
19249.936251999989
 30
0.0
 11
19395.470723566788
 21
19251.536252000002
 31
0.0
  0
LINE
  5
17E53
  8
1-後柱P
 10
19377.57072356678
 20
19362.236251999992
 30
0.0
 11
19399.370723566761
 21
19362.236251999992
 31
0.0
  0
LINE
  5
17E54
  8
1-後柱P
 10
19429.370723566761
 20
19324.936251999981
 30
0.0
 11
19429.370723566761
 21
19332.236251999992
 31
0.0
  0
ARC
  5
17E55
  8
1-後柱P
 10
19399.370723566761
 20
19332.236251999992
 30
0.0
 40
30.0
 50
0.0
 51
90.0
  0
ARC
  5
17E56
  8
1-後柱P
 10
19399.370723566761
 20
19332.236251999992
 30
0.0
 40
31.600000000000001
 50
0.0
 51
90.0
  0
LINE
  5
17E57
  8
1-後柱P
 10
19377.57072356678
 20
19363.836252000001
 30
0.0
 11
19399.370723566761
 21
19363.836252000001
 31
0.0
  0
LINE
  5
17E58
  8
1-後柱P
 10
19430.970723566781
 20
19324.936251999981
 30
0.0
 11
19430.970723566781
 21
19332.236251999992
 31
0.0
  0
LINE
  5
17E59
  8
1-後柱P
 10
19407.970723566781
 20
19303.336252000001
 30
0.0
 11
19407.970723566781
 21
19313.336252000001
 31
0.0
  0
LINE
  5
17E5A
  8
1-後柱P
 10
19406.370723566761
 20
19313.336252000001
 30
0.0
 11
19406.370723566761
 21
19303.336252000001
 31
0.0
  0
LINE
  5
17E5B
  8
1-後柱P
 10
19347.57072356678
 20
19324.936251999981
 30
0.0
 11
19347.57072356678
 21
19332.236251999992
 31
0.0
  0
ARC
  5
17E5C
  8
1-後柱P
 10
19377.57072356678
 20
19332.236251999992
 30
0.0
 40
30.0
 50
90.0
 51
180.0
  0
ARC
  5
17E5D
  8
1-後柱P
 10
19377.57072356678
 20
19332.236251999992
 30
0.0
 40
31.600000000000001
 50
90.0
 51
180.0
  0
LINE
  5
17E5E
  8
1-後柱P
 10
19345.970723566781
 20
19324.936251999981
 30
0.0
 11
19345.970723566781
 21
19332.236251999992
 31
0.0
  0
LINE
  5
17E5F
  8
1-後柱P
 10
19352.57072356678
 20
19318.336252000001
 30
0.0
 11
19363.970723566788
 21
19318.336252000001
 31
0.0
  0
ARC
  5
17E60
  8
1-後柱P
 10
19352.57072356678
 20
19324.936251999981
 30
0.0
 40
6.599999999999997
 50
180.0
 51
270.0
  0
ARC
  5
17E61
  8
1-後柱P
 10
19363.970723566788
 20
19313.336252000001
 30
0.0
 40
5.0
 50
0.0
 51
90.0
  0
LINE
  5
17E62
  8
1-後柱P
 10
19352.57072356678
 20
19319.936251999981
 30
0.0
 11
19363.970723566788
 21
19319.936251999981
 31
0.0
  0
ARC
  5
17E63
  8
1-後柱P
 10
19352.57072356678
 20
19324.936251999981
 30
0.0
 40
5.0
 50
180.0
 51
270.0
  0
LINE
  5
17E64
  8
1-後柱P
 10
19368.970723566781
 20
19313.336252000001
 30
0.0
 11
19368.970723566781
 21
19253.936251999989
 31
0.0
  0
LINE
  5
17E65
  8
1-後柱P
 10
19370.57072356678
 20
19313.336252000001
 30
0.0
 11
19370.57072356678
 21
19253.936251999989
 31
0.0
  0
ARC
  5
17E66
  8
1-後柱P
 10
19363.970723566788
 20
19313.336252000001
 30
0.0
 40
6.599999999999997
 50
0.0
 51
90.0
  0
LINE
  5
17E67
  8
1-後柱P
 10
19375.57072356678
 20
19247.336252000001
 30
0.0
 11
19408.970723566781
 21
19247.336252000001
 31
0.0
  0
ARC
  5
17E68
  8
1-後柱P
 10
19375.57072356678
 20
19253.936251999989
 30
0.0
 40
6.599999999999997
 50
180.0
 51
270.0
  0
LINE
  5
17E69
  8
1-後柱P
 10
19375.57072356678
 20
19248.936251999981
 30
0.0
 11
19408.970723566781
 21
19248.936251999981
 31
0.0
  0
ARC
  5
17E6A
  8
1-後柱P
 10
19375.57072356678
 20
19253.936251999989
 30
0.0
 40
5.0
 50
180.0
 51
270.0
  0
LINE
  5
17E6B
  8
1-後柱P
 10
19408.970723566781
 20
19248.936251999981
 30
0.0
 11
19408.970723566781
 21
19247.336252000001
 31
0.0
  0
LINE
  5
17E6C
  8
1-後柱P
 10
19424.370723566761
 20
19318.336252000001
 30
0.0
 11
19412.970723566788
 21
19318.336252000001
 31
0.0
  0
ARC
  5
17E6D
  8
1-後柱P
 10
19424.370723566761
 20
19324.936251999981
 30
0.0
 40
6.599999999999997
 50
270.0
 51
0.0
  0
ARC
  5
17E6E
  8
1-後柱P
 10
19412.970723566788
 20
19313.336252000001
 30
0.0
 40
5.0
 50
90.0
 51
180.0
  0
LINE
  5
17E6F
  8
1-後柱P
 10
19412.970723566788
 20
19319.936251999981
 30
0.0
 11
19424.370723566761
 21
19319.936251999981
 31
0.0
  0
ARC
  5
17E70
  8
1-後柱P
 10
19412.970723566788
 20
19313.336252000001
 30
0.0
 40
6.599999999999997
 50
90.0
 51
180.0
  0
ARC
  5
17E71
  8
1-後柱P
 10
19424.370723566761
 20
19324.936251999981
 30
0.0
 40
5.0
 50
270.0
 51
0.0
  0
LINE
  5
17E72
  8
1-後柱P
 10
19407.970723566781
 20
19303.336252000001
 30
0.0
 11
19406.370723566761
 21
19303.336252000001
 31
0.0
  0
LINE
  5
17E73
  8
1-後柱カバ-P
 10
19430.970723566781
 20
19311.636252
 30
0.0
 11
19430.970723566781
 21
19252.336252000001
 31
0.0
  0
ARC
  5
17E74
  8
1-後柱カバ-P
 10
19424.370723566761
 20
19252.336252000001
 30
0.0
 40
6.599999999999997
 50
270.0
 51
0.0
  0
LINE
  5
17E75
  8
1-後柱カバ-P
 10
19429.370723566761
 20
19311.636252
 30
0.0
 11
19429.370723566761
 21
19252.336252000001
 31
0.0
  0
ARC
  5
17E76
  8
1-後柱カバ-P
 10
19424.370723566761
 20
19311.636252
 30
0.0
 40
5.0
 50
0.0
 51
90.0
  0
LINE
  5
17E77
  8
1-後柱カバ-P
 10
19424.370723566761
 20
19245.736251999992
 30
0.0
 11
19352.57072356678
 21
19245.736251999992
 31
0.0
  0
ARC
  5
17E78
  8
1-後柱カバ-P
 10
19352.57072356678
 20
19252.336252000001
 30
0.0
 40
6.599999999999997
 50
180.0
 51
270.0
  0
LINE
  5
17E79
  8
1-後柱カバ-P
 10
19424.370723566761
 20
19247.336252000001
 30
0.0
 11
19352.57072356678
 21
19247.336252000001
 31
0.0
  0
ARC
  5
17E7A
  8
1-後柱カバ-P
 10
19352.57072356678
 20
19252.336252000001
 30
0.0
 40
5.0
 50
180.0
 51
270.0
  0
ARC
  5
17E7B
  8
1-後柱カバ-P
 10
19424.370723566761
 20
19252.336252000001
 30
0.0
 40
5.0
 50
270.0
 51
0.0
  0
LINE
  5
17E7C
  8
1-後柱カバ-P
 10
19345.970723566781
 20
19252.336252000001
 30
0.0
 11
19345.970723566781
 21
19311.636252
 31
0.0
  0
LINE
  5
17E7D
  8
1-後柱カバ-P
 10
19347.57072356678
 20
19252.336252000001
 30
0.0
 11
19347.57072356678
 21
19311.636252
 31
0.0
  0
ARC
  5
17E7E
  8
1-後柱カバ-P
 10
19352.57072356678
 20
19311.636252
 30
0.0
 40
5.0
 50
90.0
 51
180.0
  0
LINE
  5
17E7F
  8
1-後柱カバ-P
  6
1PL-M
 62
     6
 10
19388.470723566781
 20
19253.236251999992
 30
0.0
 11
19388.470723566781
 21
19240.236251999992
 31
0.0
  0
LINE
  5
17E80
  8
1-後柱カバ-P
  6
HIDE-M
 62
     6
 10
19395.470723566788
 20
19245.736251999992
 30
0.0
 11
19395.470723566788
 21
19247.336252000001
 31
0.0
  0
LINE
  5
17E81
  8
1-後柱カバ-P
  6
HIDE-M
 62
     6
 10
19381.470723566781
 20
19245.736251999992
 30
0.0
 11
19381.470723566781
 21
19247.336252000001
 31
0.0
  0
ARC
  5
17E82
  8
1-後柱カバ-P
 10
19424.370723566761
 20
19311.636252
 30
0.0
 40
6.599999999999997
 50
0.0
 51
90.0
  0
ARC
  5
17E83
  8
1-後柱カバ-P
 10
19352.57072356678
 20
19311.636252
 30
0.0
 40
6.599999999999997
 50
90.0
 51
180.0
  0
LINE
  5
17E84
  8
1-後柱カバ-P
 10
19360.970723566781
 20
19318.236251999992
 30
0.0
 11
19352.57072356678
 21
19318.236251999992
 31
0.0
  0
LINE
  5
17E85
  8
1-後柱カバ-P
 10
19415.970723566781
 20
19318.236251999992
 30
0.0
 11
19424.370723566761
 21
19318.236251999992
 31
0.0
  0
LINE
  5
17E86
  8
1-後柱カバ-P
 10
19360.970723566781
 20
19316.636252
 30
0.0
 11
19352.57072356678
 21
19316.636252
 31
0.0
  0
LINE
  5
17E87
  8
1-後柱カバ-P
 10
19415.970723566781
 20
19316.636252
 30
0.0
 11
19424.370723566761
 21
19316.636252
 31
0.0
  0
LINE
  5
17E88
  8
1-後柱カバ-P
 10
19415.970723566781
 20
19316.636252
 30
0.0
 11
19415.970723566781
 21
19318.236251999992
 31
0.0
  0
LINE
  5
17E89
  8
1-後柱カバ-P
 10
19360.970723566781
 20
19318.236251999992
 30
0.0
 11
19360.970723566781
 21
19316.636252
 31
0.0
  0
LINE
  5
17E8A
  8
1-後柱カバ-P
  6
HIDE-M
 62
     6
 10
19357.07072356678
 20
19297.236251999992
 30
0.0
 11
19345.470723566781
 21
19297.236251999992
 31
0.0
  0
LINE
  5
17E8B
  8
1-後柱カバ-P
  6
HIDE-M
 62
     6
 10
19357.07072356678
 20
19289.236251999992
 30
0.0
 11
19345.470723566781
 21
19289.236251999992
 31
0.0
  0
LINE
  5
17E8C
  8
1-後柱カバ-P
  6
HIDE-M
 62
     6
 10
19357.07072356678
 20
19296.236251999992
 30
0.0
 11
19345.470723566781
 21
19296.236251999992
 31
0.0
  0
LINE
  5
17E8D
  8
1-後柱カバ-P
  6
HIDE-M
 62
     6
 10
19357.07072356678
 20
19290.236251999992
 30
0.0
 11
19345.470723566781
 21
19290.236251999992
 31
0.0
  0
LINE
  5
17E8E
  8
1-後柱カバ-P
 10
19356.07072356678
 20
19287.736251999992
 30
0.0
 11
19349.07072356678
 21
19287.736251999992
 31
0.0
  0
LINE
  5
17E8F
  8
1-後柱カバ-P
 10
19349.07072356678
 20
19298.736251999992
 30
0.0
 11
19356.07072356678
 21
19298.736251999992
 31
0.0
  0
LINE
  5
17E90
  8
1-後柱カバ-P
 10
19349.07072356678
 20
19299.486251999992
 30
0.0
 11
19349.07072356678
 21
19286.986251999992
 31
0.0
  0
LINE
  5
17E91
  8
1-後柱カバ-P
 10
19345.470723566781
 20
19299.236251999992
 30
0.0
 11
19345.470723566781
 21
19287.236251999992
 31
0.0
  0
LINE
  5
17E92
  8
1-後柱カバ-P
  6
HIDE-M
 62
     6
 10
19347.57072356678
 20
19287.736251999992
 30
0.0
 11
19345.970723566781
 21
19287.736251999992
 31
0.0
  0
LINE
  5
17E93
  8
1-後柱カバ-P
 10
19345.470723566781
 20
19287.236251999992
 30
0.0
 11
19345.970723566781
 21
19287.736251999992
 31
0.0
  0
ARC
  5
17E94
  8
1-後柱カバ-P
 10
19348.32072356678
 20
19286.986251999992
 30
0.0
 40
0.75
 50
180.0
 51
0.0
  0
LINE
  5
17E95
  8
1-後柱カバ-P
  6
HIDE-M
 62
     6
 10
19345.970723566781
 20
19298.736251999992
 30
0.0
 11
19347.57072356678
 21
19298.736251999992
 31
0.0
  0
LINE
  5
17E96
  8
1-後柱カバ-P
 10
19345.470723566781
 20
19299.236251999992
 30
0.0
 11
19345.970723566781
 21
19298.736251999992
 31
0.0
  0
ARC
  5
17E97
  8
1-後柱カバ-P
 10
19348.32072356678
 20
19299.486251999992
 30
0.0
 40
0.75
 50
0.0
 51
180.0
  0
LINE
  5
17E98
  8
1-後柱カバ-P
 10
19357.07072356678
 20
19297.736251999992
 30
0.0
 11
19357.07072356678
 21
19288.736251999992
 31
0.0
  0
ARC
  5
17E99
  8
1-後柱カバ-P
 10
19356.07072356678
 20
19288.736251999992
 30
0.0
 40
1.0
 50
270.0
 51
0.0
  0
ARC
  5
17E9A
  8
1-後柱カバ-P
 10
19356.07072356678
 20
19297.736251999992
 30
0.0
 40
1.0
 50
0.0
 51
90.0
  0
LINE
  5
17E9B
  8
1-後柱カバ-P
  6
1PL-M
 62
     6
 10
19362.07072356678
 20
19293.236251999992
 30
0.0
 11
19340.470723566781
 21
19293.236251999992
 31
0.0
  0
LINE
  5
17E9C
  8
1-後柱カバ-P
 10
19356.07072356678
 20
19277.736251999992
 30
0.0
 11
19349.07072356678
 21
19277.736251999992
 31
0.0
  0
LINE
  5
17E9D
  8
1-後柱カバ-P
 10
19345.470723566781
 20
19285.236251999992
 30
0.0
 11
19345.470723566781
 21
19277.236251999992
 31
0.0
  0
LINE
  5
17E9E
  8
1-後柱カバ-P
  6
HIDE-M
 62
     6
 10
19347.57072356678
 20
19277.736251999992
 30
0.0
 11
19345.970723566781
 21
19277.736251999992
 31
0.0
  0
LINE
  5
17E9F
  8
1-後柱カバ-P
 10
19345.470723566781
 20
19277.236251999992
 30
0.0
 11
19345.970723566781
 21
19277.736251999992
 31
0.0
  0
ARC
  5
17EA0
  8
1-後柱カバ-P
 10
19348.32072356678
 20
19276.986251999992
 30
0.0
 40
0.75
 50
180.0
 51
0.0
  0
LINE
  5
17EA1
  8
1-後柱カバ-P
 10
19357.07072356678
 20
19286.736251999992
 30
0.0
 11
19357.07072356678
 21
19278.736251999992
 31
0.0
  0
ARC
  5
17EA2
  8
1-後柱カバ-P
 10
19356.07072356678
 20
19278.736251999992
 30
0.0
 40
1.0
 50
270.0
 51
0.0
  0
LINE
  5
17EA3
  8
1-後柱カバ-P
  6
1PL-M
 62
     6
 10
19362.07072356678
 20
19283.236251999992
 30
0.0
 11
19340.470723566781
 21
19283.236251999992
 31
0.0
  0
LINE
  5
17EA4
  8
1-後柱カバ-P
 10
19349.07072356678
 20
19284.986251999992
 30
0.0
 11
19349.07072356678
 21
19276.986251999992
 31
0.0
  0
LINE
  5
17EA5
  8
1-後柱カバ-P
  6
HIDE-M
 62
     6
 10
19419.870723566772
 20
19297.236251999992
 30
0.0
 11
19431.470723566781
 21
19297.236251999992
 31
0.0
  0
LINE
  5
17EA6
  8
1-後柱カバ-P
  6
HIDE-M
 62
     6
 10
19419.870723566772
 20
19289.236251999992
 30
0.0
 11
19431.470723566781
 21
19289.236251999992
 31
0.0
  0
LINE
  5
17EA7
  8
1-後柱カバ-P
  6
HIDE-M
 62
     6
 10
19419.870723566772
 20
19296.236251999992
 30
0.0
 11
19431.470723566781
 21
19296.236251999992
 31
0.0
  0
LINE
  5
17EA8
  8
1-後柱カバ-P
  6
HIDE-M
 62
     6
 10
19419.870723566772
 20
19290.236251999992
 30
0.0
 11
19431.470723566781
 21
19290.236251999992
 31
0.0
  0
LINE
  5
17EA9
  8
1-後柱カバ-P
 10
19420.870723566761
 20
19287.736251999992
 30
0.0
 11
19427.870723566761
 21
19287.736251999992
 31
0.0
  0
LINE
  5
17EAA
  8
1-後柱カバ-P
 10
19427.870723566761
 20
19298.736251999992
 30
0.0
 11
19420.870723566761
 21
19298.736251999992
 31
0.0
  0
LINE
  5
17EAB
  8
1-後柱カバ-P
 10
19427.870723566761
 20
19299.486251999992
 30
0.0
 11
19427.870723566761
 21
19286.986251999992
 31
0.0
  0
LINE
  5
17EAC
  8
1-後柱カバ-P
 10
19431.470723566781
 20
19299.236251999992
 30
0.0
 11
19431.470723566781
 21
19287.236251999992
 31
0.0
  0
LINE
  5
17EAD
  8
1-後柱カバ-P
  6
HIDE-M
 62
     6
 10
19429.370723566761
 20
19287.736251999992
 30
0.0
 11
19430.970723566781
 21
19287.736251999992
 31
0.0
  0
LINE
  5
17EAE
  8
1-後柱カバ-P
 10
19431.470723566781
 20
19287.236251999992
 30
0.0
 11
19430.970723566781
 21
19287.736251999992
 31
0.0
  0
ARC
  5
17EAF
  8
1-後柱カバ-P
 10
19428.620723566761
 20
19286.986251999992
 30
0.0
 40
0.75
 50
180.0
 51
0.0
  0
LINE
  5
17EB0
  8
1-後柱カバ-P
  6
HIDE-M
 62
     6
 10
19430.970723566781
 20
19298.736251999992
 30
0.0
 11
19429.370723566761
 21
19298.736251999992
 31
0.0
  0
LINE
  5
17EB1
  8
1-後柱カバ-P
 10
19431.470723566781
 20
19299.236251999992
 30
0.0
 11
19430.970723566781
 21
19298.736251999992
 31
0.0
  0
ARC
  5
17EB2
  8
1-後柱カバ-P
 10
19428.620723566761
 20
19299.486251999992
 30
0.0
 40
0.75
 50
0.0
 51
180.0
  0
LINE
  5
17EB3
  8
1-後柱カバ-P
 10
19419.870723566772
 20
19297.736251999992
 30
0.0
 11
19419.870723566772
 21
19288.736251999992
 31
0.0
  0
ARC
  5
17EB4
  8
1-後柱カバ-P
 10
19420.870723566761
 20
19288.736251999992
 30
0.0
 40
1.0
 50
180.0
 51
270.0
  0
ARC
  5
17EB5
  8
1-後柱カバ-P
 10
19420.870723566761
 20
19297.736251999992
 30
0.0
 40
1.0
 50
90.0
 51
180.0
  0
LINE
  5
17EB6
  8
1-後柱カバ-P
  6
1PL-M
 62
     6
 10
19414.870723566761
 20
19293.236251999992
 30
0.0
 11
19436.470723566788
 21
19293.236251999992
 31
0.0
  0
LINE
  5
17EB7
  8
1-後柱カバ-P
 10
19420.870723566761
 20
19277.736251999992
 30
0.0
 11
19427.870723566761
 21
19277.736251999992
 31
0.0
  0
LINE
  5
17EB8
  8
1-後柱カバ-P
 10
19431.470723566781
 20
19285.236251999992
 30
0.0
 11
19431.470723566781
 21
19277.236251999992
 31
0.0
  0
LINE
  5
17EB9
  8
1-後柱カバ-P
  6
HIDE-M
 62
     6
 10
19429.370723566761
 20
19277.736251999992
 30
0.0
 11
19430.970723566781
 21
19277.736251999992
 31
0.0
  0
LINE
  5
17EBA
  8
1-後柱カバ-P
 10
19431.470723566781
 20
19277.236251999992
 30
0.0
 11
19430.970723566781
 21
19277.736251999992
 31
0.0
  0
ARC
  5
17EBB
  8
1-後柱カバ-P
 10
19428.620723566761
 20
19276.986251999992
 30
0.0
 40
0.75
 50
180.0
 51
0.0
  0
LINE
  5
17EBC
  8
1-後柱カバ-P
 10
19419.870723566772
 20
19286.736251999992
 30
0.0
 11
19419.870723566772
 21
19278.736251999992
 31
0.0
  0
ARC
  5
17EBD
  8
1-後柱カバ-P
 10
19420.870723566761
 20
19278.736251999992
 30
0.0
 40
1.0
 50
180.0
 51
270.0
  0
LINE
  5
17EBE
  8
1-後柱カバ-P
  6
1PL-M
 62
     6
 10
19414.870723566761
 20
19283.236251999992
 30
0.0
 11
19436.470723566788
 21
19283.236251999992
 31
0.0
  0
LINE
  5
17EBF
  8
1-後柱カバ-P
 10
19427.870723566761
 20
19284.986251999992
 30
0.0
 11
19427.870723566761
 21
19276.986251999992
 31
0.0
  0
LINE
  5
17EC0
  8
1-後柱カバ-P
  6
HIDE-M
 62
     6
 10
19357.07072356678
 20
19279.236251999992
 30
0.0
 11
19345.470723566781
 21
19279.236251999992
 31
0.0
  0
LINE
  5
17EC1
  8
1-後柱カバ-P
  6
HIDE-M
 62
     6
 10
19357.07072356678
 20
19280.236251999992
 30
0.0
 11
19345.470723566781
 21
19280.236251999992
 31
0.0
  0
LINE
  5
17EC2
  8
1-後柱カバ-P
  6
HIDE-M
 62
     6
 10
19419.870723566772
 20
19279.236251999992
 30
0.0
 11
19431.470723566781
 21
19279.236251999992
 31
0.0
  0
LINE
  5
17EC3
  8
1-後柱カバ-P
  6
HIDE-M
 62
     6
 10
19419.870723566772
 20
19280.236251999992
 30
0.0
 11
19431.470723566781
 21
19280.236251999992
 31
0.0
  0
LINE
  5
17EC4
  8
1-中柱P
 10
19352.570723566791
 20
16679.486251999992
 30
0.0
 11
19424.37072356679
 21
16679.486251999992
 31
0.0
  0
ARC
  5
17EC5
  8
1-中柱P
 10
19352.570723566791
 20
16684.486251999992
 30
0.0
 40
5.0
 50
180.0
 51
270.0
  0
ARC
  5
17EC6
  8
1-中柱P
 10
19424.37072356679
 20
16684.486251999992
 30
0.0
 40
5.0
 50
270.0
 51
0.0
  0
LINE
  5
17EC7
  8
1-中柱P
 10
19352.570723566791
 20
16677.886252
 30
0.0
 11
19424.37072356679
 21
16677.886252
 31
0.0
  0
ARC
  5
17EC8
  8
1-中柱P
 10
19352.570723566791
 20
16684.486251999992
 30
0.0
 40
6.599999999999997
 50
180.0
 51
270.0
  0
LINE
  5
17EC9
  8
1-中柱P
 10
19430.970723566781
 20
16743.786252000002
 30
0.0
 11
19430.970723566781
 21
16684.486251999992
 31
0.0
  0
ARC
  5
17ECA
  8
1-中柱P
 10
19424.37072356679
 20
16684.486251999992
 30
0.0
 40
6.599999999999997
 50
270.0
 51
0.0
  0
LINE
  5
17ECB
  8
1-中柱P
 10
19429.370723566801
 20
16684.486251999992
 30
0.0
 11
19429.370723566801
 21
16743.786252000002
 31
0.0
  0
ARC
  5
17ECC
  8
1-中柱P
 10
19424.37072356679
 20
16743.786252000002
 30
0.0
 40
5.0
 50
0.0
 51
90.0
  0
LINE
  5
17ECD
  8
1-中柱P
 10
19345.970723566781
 20
16743.786252000002
 30
0.0
 11
19345.970723566781
 21
16684.486251999992
 31
0.0
  0
LINE
  5
17ECE
  8
1-中柱P
 10
19347.570723566791
 20
16684.486251999992
 30
0.0
 11
19347.570723566791
 21
16743.786252000002
 31
0.0
  0
LINE
  5
17ECF
  8
1-中柱P
 10
19352.570723566791
 20
16750.386252
 30
0.0
 11
19360.970723566781
 21
16750.386252
 31
0.0
  0
ARC
  5
17ED0
  8
1-中柱P
 10
19352.570723566791
 20
16743.786252000002
 30
0.0
 40
6.599999999999997
 50
90.0
 51
180.0
  0
LINE
  5
17ED1
  8
1-中柱P
 10
19352.570723566791
 20
16748.786252000002
 30
0.0
 11
19360.970723566781
 21
16748.786252000002
 31
0.0
  0
ARC
  5
17ED2
  8
1-中柱P
 10
19360.970723566781
 20
16755.386252
 30
0.0
 40
6.599999999999997
 50
270.0
 51
0.0
  0
ARC
  5
17ED3
  8
1-中柱P
 10
19352.570723566791
 20
16743.786252000002
 30
0.0
 40
5.0
 50
90.0
 51
180.0
  0
LINE
  5
17ED4
  8
1-中柱P
 10
19365.970723566781
 20
16755.386252
 30
0.0
 11
19365.970723566781
 21
16814.786252000002
 31
0.0
  0
ARC
  5
17ED5
  8
1-中柱P
 10
19360.970723566781
 20
16755.386252
 30
0.0
 40
5.0
 50
270.0
 51
0.0
  0
LINE
  5
17ED6
  8
1-中柱P
 10
19367.570723566791
 20
16755.386252
 30
0.0
 11
19367.570723566791
 21
16814.786252000002
 31
0.0
  0
LINE
  5
17ED7
  8
1-中柱P
 10
19372.570723566791
 20
16821.386252
 30
0.0
 11
19405.970723566788
 21
16821.386252
 31
0.0
  0
ARC
  5
17ED8
  8
1-中柱P
 10
19372.570723566791
 20
16814.786252000002
 30
0.0
 40
6.599999999999997
 50
90.0
 51
180.0
  0
LINE
  5
17ED9
  8
1-中柱P
 10
19372.570723566791
 20
16819.786252000002
 30
0.0
 11
19405.970723566788
 21
16819.786252000002
 31
0.0
  0
ARC
  5
17EDA
  8
1-中柱P
 10
19372.570723566791
 20
16814.786252000002
 30
0.0
 40
5.0
 50
90.0
 51
180.0
  0
LINE
  5
17EDB
  8
1-中柱P
 10
19405.970723566788
 20
16819.786252000002
 30
0.0
 11
19405.970723566788
 21
16821.386252
 31
0.0
  0
LINE
  5
17EDC
  8
1-中柱P
 10
19424.37072356679
 20
16750.386252
 30
0.0
 11
19415.970723566781
 21
16750.386252
 31
0.0
  0
ARC
  5
17EDD
  8
1-中柱P
 10
19424.37072356679
 20
16743.786252000002
 30
0.0
 40
6.599999999999997
 50
0.0
 51
90.0
  0
ARC
  5
17EDE
  8
1-中柱P
 10
19415.970723566781
 20
16755.386252
 30
0.0
 40
5.0
 50
180.0
 51
270.0
  0
LINE
  5
17EDF
  8
1-中柱P
 10
19415.970723566781
 20
16748.786252000002
 30
0.0
 11
19424.37072356679
 21
16748.786252000002
 31
0.0
  0
ARC
  5
17EE0
  8
1-中柱P
 10
19415.970723566781
 20
16755.386252
 30
0.0
 40
6.599999999999997
 50
180.0
 51
270.0
  0
ARC
  5
17EE1
  8
1-中柱P
  6
HIDE-M
 62
     6
 10
19381.870723566801
 20
16818.786252000002
 30
0.0
 40
2.6000000000000001
 50
0.0
 51
90.0
  0
LINE
  5
17EE2
  8
1-中柱P
  6
HIDE-M
 62
     6
 10
19393.470723566781
 20
16820.835642153179
 30
0.0
 11
19393.470723566781
 21
16817.186252
 31
0.0
  0
LINE
  5
17EE3
  8
1-中柱P
  6
HIDE-M
 62
     6
 10
19383.470723566781
 20
16820.835642153179
 30
0.0
 11
19383.470723566781
 21
16817.186252
 31
0.0
  0
LINE
  5
17EE4
  8
1-中柱P
  6
1PL-M
 62
     6
 10
19388.470723566781
 20
16826.386252
 30
0.0
 11
19388.470723566781
 21
16812.186252
 31
0.0
  0
ARC
  5
17EE5
  8
1-中柱P
  6
HIDE-M
 62
     6
 10
19395.070723566791
 20
16818.786252000002
 30
0.0
 40
2.6000000000000001
 50
90.0
 51
180.0
  0
LINE
  5
17EE6
  8
1-中柱P
  6
HIDE-M
 62
     6
 10
19384.470723566781
 20
16818.786252000002
 30
0.0
 11
19384.470723566781
 21
16817.186252
 31
0.0
  0
LINE
  5
17EE7
  8
1-中柱P
  6
HIDE-M
 62
     6
 10
19392.470723566781
 20
16818.786252000002
 30
0.0
 11
19392.470723566781
 21
16817.186252
 31
0.0
  0
LINE
  5
17EE8
  8
1-中柱P
 10
19409.370723566801
 20
16755.386252
 30
0.0
 11
19409.370723566801
 21
16765.386252
 31
0.0
  0
LINE
  5
17EE9
  8
1-中柱P
 10
19410.970723566781
 20
16755.386252
 30
0.0
 11
19410.970723566781
 21
16765.386252
 31
0.0
  0
LINE
  5
17EEA
  8
1-中柱P
 10
19409.370723566801
 20
16765.386252
 30
0.0
 11
19410.970723566781
 21
16765.386252
 31
0.0
  0
LINE
  5
17EEB
  8
1-中柱P
  6
1PL-M
 62
     6
 10
19360.970723566781
 20
16786.386252
 30
0.0
 11
19375.170723566782
 21
16786.386252
 31
0.0
  0
LINE
  5
17EEC
  8
1-中柱P
  6
HIDE-M
 62
     6
 10
19357.070723566791
 20
16729.386252
 30
0.0
 11
19345.470723566781
 21
16729.386252
 31
0.0
  0
LINE
  5
17EED
  8
1-中柱P
  6
HIDE-M
 62
     6
 10
19357.070723566791
 20
16721.386252
 30
0.0
 11
19345.470723566781
 21
16721.386252
 31
0.0
  0
LINE
  5
17EEE
  8
1-中柱P
  6
HIDE-M
 62
     6
 10
19357.070723566791
 20
16728.386251999989
 30
0.0
 11
19345.470723566781
 21
16728.386251999989
 31
0.0
  0
LINE
  5
17EEF
  8
1-中柱P
  6
HIDE-M
 62
     6
 10
19357.070723566791
 20
16722.386252
 30
0.0
 11
19345.470723566781
 21
16722.386252
 31
0.0
  0
LINE
  5
17EF0
  8
1-中柱P
 10
19356.070723566791
 20
16719.886252
 30
0.0
 11
19349.070723566791
 21
16719.886252
 31
0.0
  0
LINE
  5
17EF1
  8
1-中柱P
 10
19349.070723566791
 20
16730.886252
 30
0.0
 11
19356.070723566791
 21
16730.886252
 31
0.0
  0
LINE
  5
17EF2
  8
1-中柱P
 10
19349.070723566791
 20
16731.636252
 30
0.0
 11
19349.070723566791
 21
16719.136252
 31
0.0
  0
LINE
  5
17EF3
  8
1-中柱P
 10
19345.470723566781
 20
16731.386252
 30
0.0
 11
19345.470723566781
 21
16719.386252
 31
0.0
  0
LINE
  5
17EF4
  8
1-中柱P
  6
HIDE-M
 62
     6
 10
19347.570723566791
 20
16719.886252
 30
0.0
 11
19345.970723566781
 21
16719.886252
 31
0.0
  0
LINE
  5
17EF5
  8
1-中柱P
 10
19345.470723566781
 20
16719.386252
 30
0.0
 11
19345.970723566781
 21
16719.886252
 31
0.0
  0
ARC
  5
17EF6
  8
1-中柱P
 10
19348.320723566791
 20
16719.136252
 30
0.0
 40
0.75
 50
180.0
 51
0.0
  0
LINE
  5
17EF7
  8
1-中柱P
  6
HIDE-M
 62
     6
 10
19345.970723566781
 20
16730.886252
 30
0.0
 11
19347.570723566791
 21
16730.886252
 31
0.0
  0
LINE
  5
17EF8
  8
1-中柱P
 10
19345.470723566781
 20
16731.386252
 30
0.0
 11
19345.970723566781
 21
16730.886252
 31
0.0
  0
ARC
  5
17EF9
  8
1-中柱P
 10
19348.320723566791
 20
16731.636252
 30
0.0
 40
0.75
 50
0.0
 51
180.0
  0
LINE
  5
17EFA
  8
1-中柱P
 10
19357.070723566791
 20
16729.886252
 30
0.0
 11
19357.070723566791
 21
16720.886251999989
 31
0.0
  0
ARC
  5
17EFB
  8
1-中柱P
 10
19356.070723566791
 20
16720.886251999989
 30
0.0
 40
1.0
 50
270.0
 51
0.0
  0
ARC
  5
17EFC
  8
1-中柱P
 10
19356.070723566791
 20
16729.886252
 30
0.0
 40
1.0
 50
0.0
 51
90.0
  0
LINE
  5
17EFD
  8
1-中柱P
  6
1PL-M
 62
     6
 10
19362.070723566791
 20
16725.386252
 30
0.0
 11
19340.470723566781
 21
16725.386252
 31
0.0
  0
LINE
  5
17EFE
  8
1-中柱P
 10
19356.070723566791
 20
16709.886252
 30
0.0
 11
19349.070723566791
 21
16709.886252
 31
0.0
  0
LINE
  5
17EFF
  8
1-中柱P
 10
19345.470723566781
 20
16717.386252
 30
0.0
 11
19345.470723566781
 21
16709.386251999989
 31
0.0
  0
LINE
  5
17F00
  8
1-中柱P
  6
HIDE-M
 62
     6
 10
19347.570723566791
 20
16709.886252
 30
0.0
 11
19345.970723566781
 21
16709.886252
 31
0.0
  0
LINE
  5
17F01
  8
1-中柱P
 10
19345.470723566781
 20
16709.386251999989
 30
0.0
 11
19345.970723566781
 21
16709.886252
 31
0.0
  0
ARC
  5
17F02
  8
1-中柱P
 10
19348.320723566791
 20
16709.136252
 30
0.0
 40
0.75
 50
180.0
 51
0.0
  0
LINE
  5
17F03
  8
1-中柱P
 10
19357.070723566791
 20
16718.886252
 30
0.0
 11
19357.070723566791
 21
16710.886252
 31
0.0
  0
ARC
  5
17F04
  8
1-中柱P
 10
19356.070723566791
 20
16710.886252
 30
0.0
 40
1.0
 50
270.0
 51
0.0
  0
LINE
  5
17F05
  8
1-中柱P
  6
1PL-M
 62
     6
 10
19362.070723566791
 20
16715.386252
 30
0.0
 11
19340.470723566781
 21
16715.386252
 31
0.0
  0
LINE
  5
17F06
  8
1-中柱P
 10
19349.070723566791
 20
16717.136251999989
 30
0.0
 11
19349.070723566791
 21
16709.136252
 31
0.0
  0
LINE
  5
17F07
  8
1-中柱P
  6
HIDE-M
 62
     6
 10
19357.070723566791
 20
16711.386252
 30
0.0
 11
19345.470723566781
 21
16711.386252
 31
0.0
  0
LINE
  5
17F08
  8
1-中柱P
  6
HIDE-M
 62
     6
 10
19357.070723566791
 20
16712.386251999989
 30
0.0
 11
19345.470723566781
 21
16712.386251999989
 31
0.0
  0
LINE
  5
17F09
  8
1-中柱P
  6
HIDE-M
 62
     6
 10
19419.870723566801
 20
16729.386252
 30
0.0
 11
19431.470723566781
 21
16729.386252
 31
0.0
  0
LINE
  5
17F0A
  8
1-中柱P
  6
HIDE-M
 62
     6
 10
19419.870723566801
 20
16721.386252
 30
0.0
 11
19431.470723566781
 21
16721.386252
 31
0.0
  0
LINE
  5
17F0B
  8
1-中柱P
  6
HIDE-M
 62
     6
 10
19419.870723566801
 20
16728.386251999989
 30
0.0
 11
19431.470723566781
 21
16728.386251999989
 31
0.0
  0
LINE
  5
17F0C
  8
1-中柱P
  6
HIDE-M
 62
     6
 10
19419.870723566801
 20
16722.386252
 30
0.0
 11
19431.470723566781
 21
16722.386252
 31
0.0
  0
LINE
  5
17F0D
  8
1-中柱P
 10
19420.870723566801
 20
16719.886252
 30
0.0
 11
19427.87072356679
 21
16719.886252
 31
0.0
  0
LINE
  5
17F0E
  8
1-中柱P
 10
19427.87072356679
 20
16730.886252
 30
0.0
 11
19420.870723566801
 21
16730.886252
 31
0.0
  0
LINE
  5
17F0F
  8
1-中柱P
 10
19427.87072356679
 20
16731.636252
 30
0.0
 11
19427.87072356679
 21
16719.136252
 31
0.0
  0
LINE
  5
17F10
  8
1-中柱P
 10
19431.470723566781
 20
16731.386252
 30
0.0
 11
19431.470723566781
 21
16719.386252
 31
0.0
  0
LINE
  5
17F11
  8
1-中柱P
  6
HIDE-M
 62
     6
 10
19429.370723566801
 20
16719.886252
 30
0.0
 11
19430.970723566781
 21
16719.886252
 31
0.0
  0
LINE
  5
17F12
  8
1-中柱P
 10
19431.470723566781
 20
16719.386252
 30
0.0
 11
19430.970723566781
 21
16719.886252
 31
0.0
  0
ARC
  5
17F13
  8
1-中柱P
 10
19428.620723566801
 20
16719.136252
 30
0.0
 40
0.75
 50
180.0
 51
0.0
  0
LINE
  5
17F14
  8
1-中柱P
  6
HIDE-M
 62
     6
 10
19430.970723566781
 20
16730.886252
 30
0.0
 11
19429.370723566801
 21
16730.886252
 31
0.0
  0
LINE
  5
17F15
  8
1-中柱P
 10
19431.470723566781
 20
16731.386252
 30
0.0
 11
19430.970723566781
 21
16730.886252
 31
0.0
  0
ARC
  5
17F16
  8
1-中柱P
 10
19428.620723566801
 20
16731.636252
 30
0.0
 40
0.75
 50
0.0
 51
180.0
  0
LINE
  5
17F17
  8
1-中柱P
 10
19419.870723566801
 20
16729.886252
 30
0.0
 11
19419.870723566801
 21
16720.886251999989
 31
0.0
  0
ARC
  5
17F18
  8
1-中柱P
 10
19420.870723566801
 20
16720.886251999989
 30
0.0
 40
1.0
 50
180.0
 51
270.0
  0
ARC
  5
17F19
  8
1-中柱P
 10
19420.870723566801
 20
16729.886252
 30
0.0
 40
1.0
 50
90.0
 51
180.0
  0
LINE
  5
17F1A
  8
1-中柱P
  6
1PL-M
 62
     6
 10
19414.87072356679
 20
16725.386252
 30
0.0
 11
19436.470723566788
 21
16725.386252
 31
0.0
  0
LINE
  5
17F1B
  8
1-中柱P
 10
19420.870723566801
 20
16709.886252
 30
0.0
 11
19427.87072356679
 21
16709.886252
 31
0.0
  0
LINE
  5
17F1C
  8
1-中柱P
 10
19431.470723566781
 20
16717.386252
 30
0.0
 11
19431.470723566781
 21
16709.386251999989
 31
0.0
  0
LINE
  5
17F1D
  8
1-中柱P
  6
HIDE-M
 62
     6
 10
19429.370723566801
 20
16709.886252
 30
0.0
 11
19430.970723566781
 21
16709.886252
 31
0.0
  0
LINE
  5
17F1E
  8
1-中柱P
 10
19431.470723566781
 20
16709.386251999989
 30
0.0
 11
19430.970723566781
 21
16709.886252
 31
0.0
  0
ARC
  5
17F1F
  8
1-中柱P
 10
19428.620723566801
 20
16709.136252
 30
0.0
 40
0.75
 50
180.0
 51
0.0
  0
LINE
  5
17F20
  8
1-中柱P
 10
19419.870723566801
 20
16718.886252
 30
0.0
 11
19419.870723566801
 21
16710.886252
 31
0.0
  0
ARC
  5
17F21
  8
1-中柱P
 10
19420.870723566801
 20
16710.886252
 30
0.0
 40
1.0
 50
180.0
 51
270.0
  0
LINE
  5
17F22
  8
1-中柱P
  6
1PL-M
 62
     6
 10
19414.87072356679
 20
16715.386252
 30
0.0
 11
19436.470723566788
 21
16715.386252
 31
0.0
  0
LINE
  5
17F23
  8
1-中柱P
 10
19427.87072356679
 20
16717.136251999989
 30
0.0
 11
19427.87072356679
 21
16709.136252
 31
0.0
  0
LINE
  5
17F24
  8
1-中柱P
  6
HIDE-M
 62
     6
 10
19419.870723566801
 20
16711.386252
 30
0.0
 11
19431.470723566781
 21
16711.386252
 31
0.0
  0
LINE
  5
17F25
  8
1-中柱P
  6
HIDE-M
 62
     6
 10
19419.870723566801
 20
16712.386251999989
 30
0.0
 11
19431.470723566781
 21
16712.386251999989
 31
0.0
  0
LINE
  5
17F26
  8
1-中柱カバ-P
 10
19430.970723566781
 20
16757.086252000001
 30
0.0
 11
19430.970723566781
 21
16816.386252
 31
0.0
  0
ARC
  5
17F27
  8
1-中柱カバ-P
 10
19424.37072356679
 20
16816.386252
 30
0.0
 40
6.599999999999997
 50
0.0
 51
90.0
  0
LINE
  5
17F28
  8
1-中柱カバ-P
 10
19429.370723566801
 20
16757.086252000001
 30
0.0
 11
19429.370723566801
 21
16816.386252
 31
0.0
  0
ARC
  5
17F29
  8
1-中柱カバ-P
 10
19424.37072356679
 20
16757.086252000001
 30
0.0
 40
5.0
 50
270.0
 51
0.0
  0
LINE
  5
17F2A
  8
1-中柱カバ-P
 10
19424.37072356679
 20
16822.986251999992
 30
0.0
 11
19352.570723566791
 21
16822.986251999992
 31
0.0
  0
ARC
  5
17F2B
  8
1-中柱カバ-P
 10
19352.570723566791
 20
16816.386252
 30
0.0
 40
6.599999999999997
 50
90.0
 51
180.0
  0
LINE
  5
17F2C
  8
1-中柱カバ-P
 10
19424.37072356679
 20
16821.386252
 30
0.0
 11
19352.570723566791
 21
16821.386252
 31
0.0
  0
ARC
  5
17F2D
  8
1-中柱カバ-P
 10
19352.570723566791
 20
16816.386252
 30
0.0
 40
5.0
 50
90.0
 51
180.0
  0
ARC
  5
17F2E
  8
1-中柱カバ-P
 10
19424.37072356679
 20
16816.386252
 30
0.0
 40
5.0
 50
0.0
 51
90.0
  0
LINE
  5
17F2F
  8
1-中柱カバ-P
 10
19345.970723566781
 20
16816.386252
 30
0.0
 11
19345.970723566781
 21
16757.086252000001
 31
0.0
  0
LINE
  5
17F30
  8
1-中柱カバ-P
 10
19347.570723566791
 20
16816.386252
 30
0.0
 11
19347.570723566791
 21
16757.086252000001
 31
0.0
  0
ARC
  5
17F31
  8
1-中柱カバ-P
 10
19352.570723566791
 20
16757.086252000001
 30
0.0
 40
5.0
 50
180.0
 51
270.0
  0
LINE
  5
17F32
  8
1-中柱カバ-P
  6
1PL-M
 62
     6
 10
19388.470723566781
 20
16815.486251999992
 30
0.0
 11
19388.470723566781
 21
16828.486251999992
 31
0.0
  0
LINE
  5
17F33
  8
1-中柱カバ-P
  6
HIDE-M
 62
     6
 10
19395.470723566788
 20
16822.986251999992
 30
0.0
 11
19395.470723566788
 21
16821.386252
 31
0.0
  0
LINE
  5
17F34
  8
1-中柱カバ-P
  6
HIDE-M
 62
     6
 10
19381.470723566781
 20
16822.986251999992
 30
0.0
 11
19381.470723566781
 21
16821.386252
 31
0.0
  0
ARC
  5
17F35
  8
1-中柱カバ-P
 10
19424.37072356679
 20
16757.086252000001
 30
0.0
 40
6.599999999999997
 50
270.0
 51
0.0
  0
ARC
  5
17F36
  8
1-中柱カバ-P
 10
19352.570723566791
 20
16757.086252000001
 30
0.0
 40
6.599999999999997
 50
180.0
 51
270.0
  0
LINE
  5
17F37
  8
1-中柱カバ-P
 10
19360.970723566781
 20
16750.486251999992
 30
0.0
 11
19352.570723566791
 21
16750.486251999992
 31
0.0
  0
LINE
  5
17F38
  8
1-中柱カバ-P
 10
19415.970723566781
 20
16750.486251999992
 30
0.0
 11
19424.37072356679
 21
16750.486251999992
 31
0.0
  0
LINE
  5
17F39
  8
1-中柱カバ-P
 10
19360.970723566781
 20
16752.086252000001
 30
0.0
 11
19352.570723566791
 21
16752.086252000001
 31
0.0
  0
LINE
  5
17F3A
  8
1-中柱カバ-P
 10
19415.970723566781
 20
16752.086252000001
 30
0.0
 11
19424.37072356679
 21
16752.086252000001
 31
0.0
  0
LINE
  5
17F3B
  8
1-中柱カバ-P
 10
19415.970723566781
 20
16752.086252000001
 30
0.0
 11
19415.970723566781
 21
16750.486251999992
 31
0.0
  0
LINE
  5
17F3C
  8
1-中柱カバ-P
 10
19360.970723566781
 20
16750.486251999992
 30
0.0
 11
19360.970723566781
 21
16752.086252000001
 31
0.0
  0
LINE
  5
17F3D
  8
1-中柱カバ-P
  6
HIDE-M
 62
     6
 10
19357.070723566791
 20
16771.486251999992
 30
0.0
 11
19345.470723566781
 21
16771.486251999992
 31
0.0
  0
LINE
  5
17F3E
  8
1-中柱カバ-P
  6
HIDE-M
 62
     6
 10
19357.070723566791
 20
16779.486251999992
 30
0.0
 11
19345.470723566781
 21
16779.486251999992
 31
0.0
  0
LINE
  5
17F3F
  8
1-中柱カバ-P
  6
HIDE-M
 62
     6
 10
19357.070723566791
 20
16772.486251999992
 30
0.0
 11
19345.470723566781
 21
16772.486251999992
 31
0.0
  0
LINE
  5
17F40
  8
1-中柱カバ-P
  6
HIDE-M
 62
     6
 10
19357.070723566791
 20
16778.486251999992
 30
0.0
 11
19345.470723566781
 21
16778.486251999992
 31
0.0
  0
LINE
  5
17F41
  8
1-中柱カバ-P
 10
19356.070723566791
 20
16780.986251999992
 30
0.0
 11
19349.070723566791
 21
16780.986251999992
 31
0.0
  0
LINE
  5
17F42
  8
1-中柱カバ-P
 10
19349.070723566791
 20
16769.986251999992
 30
0.0
 11
19356.070723566791
 21
16769.986251999992
 31
0.0
  0
LINE
  5
17F43
  8
1-中柱カバ-P
 10
19349.070723566791
 20
16769.236251999992
 30
0.0
 11
19349.070723566791
 21
16781.736251999992
 31
0.0
  0
LINE
  5
17F44
  8
1-中柱カバ-P
 10
19345.470723566781
 20
16769.486251999992
 30
0.0
 11
19345.470723566781
 21
16781.486251999992
 31
0.0
  0
LINE
  5
17F45
  8
1-中柱カバ-P
  6
HIDE-M
 62
     6
 10
19347.570723566791
 20
16780.986251999992
 30
0.0
 11
19345.970723566781
 21
16780.986251999992
 31
0.0
  0
LINE
  5
17F46
  8
1-中柱カバ-P
 10
19345.470723566781
 20
16781.486251999992
 30
0.0
 11
19345.970723566781
 21
16780.986251999992
 31
0.0
  0
ARC
  5
17F47
  8
1-中柱カバ-P
 10
19348.320723566791
 20
16781.736251999992
 30
0.0
 40
0.75
 50
0.0
 51
180.0
  0
LINE
  5
17F48
  8
1-中柱カバ-P
  6
HIDE-M
 62
     6
 10
19345.970723566781
 20
16769.986251999992
 30
0.0
 11
19347.570723566791
 21
16769.986251999992
 31
0.0
  0
LINE
  5
17F49
  8
1-中柱カバ-P
 10
19345.470723566781
 20
16769.486251999992
 30
0.0
 11
19345.970723566781
 21
16769.986251999992
 31
0.0
  0
ARC
  5
17F4A
  8
1-中柱カバ-P
 10
19348.320723566791
 20
16769.236251999992
 30
0.0
 40
0.75
 50
180.0
 51
0.0
  0
LINE
  5
17F4B
  8
1-中柱カバ-P
 10
19357.070723566791
 20
16770.986251999992
 30
0.0
 11
19357.070723566791
 21
16779.986251999992
 31
0.0
  0
ARC
  5
17F4C
  8
1-中柱カバ-P
 10
19356.070723566791
 20
16779.986251999992
 30
0.0
 40
1.0
 50
0.0
 51
90.0
  0
ARC
  5
17F4D
  8
1-中柱カバ-P
 10
19356.070723566791
 20
16770.986251999992
 30
0.0
 40
1.0
 50
270.0
 51
0.0
  0
LINE
  5
17F4E
  8
1-中柱カバ-P
  6
1PL-M
 62
     6
 10
19362.070723566791
 20
16775.486251999992
 30
0.0
 11
19340.470723566781
 21
16775.486251999992
 31
0.0
  0
LINE
  5
17F4F
  8
1-中柱カバ-P
 10
19356.070723566791
 20
16790.986251999992
 30
0.0
 11
19349.070723566791
 21
16790.986251999992
 31
0.0
  0
LINE
  5
17F50
  8
1-中柱カバ-P
 10
19345.470723566781
 20
16783.486251999992
 30
0.0
 11
19345.470723566781
 21
16791.486251999992
 31
0.0
  0
LINE
  5
17F51
  8
1-中柱カバ-P
  6
HIDE-M
 62
     6
 10
19347.570723566791
 20
16790.986251999992
 30
0.0
 11
19345.970723566781
 21
16790.986251999992
 31
0.0
  0
LINE
  5
17F52
  8
1-中柱カバ-P
 10
19345.470723566781
 20
16791.486251999992
 30
0.0
 11
19345.970723566781
 21
16790.986251999992
 31
0.0
  0
ARC
  5
17F53
  8
1-中柱カバ-P
 10
19348.320723566791
 20
16791.736251999992
 30
0.0
 40
0.75
 50
0.0
 51
180.0
  0
LINE
  5
17F54
  8
1-中柱カバ-P
 10
19357.070723566791
 20
16781.986251999992
 30
0.0
 11
19357.070723566791
 21
16789.986251999992
 31
0.0
  0
ARC
  5
17F55
  8
1-中柱カバ-P
 10
19356.070723566791
 20
16789.986251999992
 30
0.0
 40
1.0
 50
0.0
 51
90.0
  0
LINE
  5
17F56
  8
1-中柱カバ-P
  6
1PL-M
 62
     6
 10
19362.070723566791
 20
16785.486251999992
 30
0.0
 11
19340.470723566781
 21
16785.486251999992
 31
0.0
  0
LINE
  5
17F57
  8
1-中柱カバ-P
 10
19349.070723566791
 20
16783.736251999992
 30
0.0
 11
19349.070723566791
 21
16791.736251999992
 31
0.0
  0
LINE
  5
17F58
  8
1-中柱カバ-P
  6
HIDE-M
 62
     6
 10
19419.870723566801
 20
16771.486251999992
 30
0.0
 11
19431.470723566781
 21
16771.486251999992
 31
0.0
  0
LINE
  5
17F59
  8
1-中柱カバ-P
  6
HIDE-M
 62
     6
 10
19419.870723566801
 20
16779.486251999992
 30
0.0
 11
19431.470723566781
 21
16779.486251999992
 31
0.0
  0
LINE
  5
17F5A
  8
1-中柱カバ-P
  6
HIDE-M
 62
     6
 10
19419.870723566801
 20
16772.486251999992
 30
0.0
 11
19431.470723566781
 21
16772.486251999992
 31
0.0
  0
LINE
  5
17F5B
  8
1-中柱カバ-P
  6
HIDE-M
 62
     6
 10
19419.870723566801
 20
16778.486251999992
 30
0.0
 11
19431.470723566781
 21
16778.486251999992
 31
0.0
  0
LINE
  5
17F5C
  8
1-中柱カバ-P
 10
19420.870723566801
 20
16780.986251999992
 30
0.0
 11
19427.87072356679
 21
16780.986251999992
 31
0.0
  0
LINE
  5
17F5D
  8
1-中柱カバ-P
 10
19427.87072356679
 20
16769.986251999992
 30
0.0
 11
19420.870723566801
 21
16769.986251999992
 31
0.0
  0
LINE
  5
17F5E
  8
1-中柱カバ-P
 10
19427.87072356679
 20
16769.236251999992
 30
0.0
 11
19427.87072356679
 21
16781.736251999992
 31
0.0
  0
LINE
  5
17F5F
  8
1-中柱カバ-P
 10
19431.470723566781
 20
16769.486251999992
 30
0.0
 11
19431.470723566781
 21
16781.486251999992
 31
0.0
  0
LINE
  5
17F60
  8
1-中柱カバ-P
  6
HIDE-M
 62
     6
 10
19429.370723566801
 20
16780.986251999992
 30
0.0
 11
19430.970723566781
 21
16780.986251999992
 31
0.0
  0
LINE
  5
17F61
  8
1-中柱カバ-P
 10
19431.470723566781
 20
16781.486251999992
 30
0.0
 11
19430.970723566781
 21
16780.986251999992
 31
0.0
  0
ARC
  5
17F62
  8
1-中柱カバ-P
 10
19428.620723566801
 20
16781.736251999992
 30
0.0
 40
0.75
 50
0.0
 51
180.0
  0
LINE
  5
17F63
  8
1-中柱カバ-P
  6
HIDE-M
 62
     6
 10
19430.970723566781
 20
16769.986251999992
 30
0.0
 11
19429.370723566801
 21
16769.986251999992
 31
0.0
  0
LINE
  5
17F64
  8
1-中柱カバ-P
 10
19431.470723566781
 20
16769.486251999992
 30
0.0
 11
19430.970723566781
 21
16769.986251999992
 31
0.0
  0
ARC
  5
17F65
  8
1-中柱カバ-P
 10
19428.620723566801
 20
16769.236251999992
 30
0.0
 40
0.75
 50
180.0
 51
0.0
  0
LINE
  5
17F66
  8
1-中柱カバ-P
 10
19419.870723566801
 20
16770.986251999992
 30
0.0
 11
19419.870723566801
 21
16779.986251999992
 31
0.0
  0
ARC
  5
17F67
  8
1-中柱カバ-P
 10
19420.870723566801
 20
16779.986251999992
 30
0.0
 40
1.0
 50
90.0
 51
180.0
  0
ARC
  5
17F68
  8
1-中柱カバ-P
 10
19420.870723566801
 20
16770.986251999992
 30
0.0
 40
1.0
 50
180.0
 51
270.0
  0
LINE
  5
17F69
  8
1-中柱カバ-P
  6
1PL-M
 62
     6
 10
19414.87072356679
 20
16775.486251999992
 30
0.0
 11
19436.470723566788
 21
16775.486251999992
 31
0.0
  0
LINE
  5
17F6A
  8
1-中柱カバ-P
 10
19420.870723566801
 20
16790.986251999992
 30
0.0
 11
19427.87072356679
 21
16790.986251999992
 31
0.0
  0
LINE
  5
17F6B
  8
1-中柱カバ-P
 10
19431.470723566781
 20
16783.486251999992
 30
0.0
 11
19431.470723566781
 21
16791.486251999992
 31
0.0
  0
LINE
  5
17F6C
  8
1-中柱カバ-P
  6
HIDE-M
 62
     6
 10
19429.370723566801
 20
16790.986251999992
 30
0.0
 11
19430.970723566781
 21
16790.986251999992
 31
0.0
  0
LINE
  5
17F6D
  8
1-中柱カバ-P
 10
19431.470723566781
 20
16791.486251999992
 30
0.0
 11
19430.970723566781
 21
16790.986251999992
 31
0.0
  0
ARC
  5
17F6E
  8
1-中柱カバ-P
 10
19428.620723566801
 20
16791.736251999992
 30
0.0
 40
0.75
 50
0.0
 51
180.0
  0
LINE
  5
17F6F
  8
1-中柱カバ-P
 10
19419.870723566801
 20
16781.986251999992
 30
0.0
 11
19419.870723566801
 21
16789.986251999992
 31
0.0
  0
ARC
  5
17F70
  8
1-中柱カバ-P
 10
19420.870723566801
 20
16789.986251999992
 30
0.0
 40
1.0
 50
90.0
 51
180.0
  0
LINE
  5
17F71
  8
1-中柱カバ-P
  6
1PL-M
 62
     6
 10
19414.87072356679
 20
16785.486251999992
 30
0.0
 11
19436.470723566788
 21
16785.486251999992
 31
0.0
  0
LINE
  5
17F72
  8
1-中柱カバ-P
 10
19427.87072356679
 20
16783.736251999992
 30
0.0
 11
19427.87072356679
 21
16791.736251999992
 31
0.0
  0
LINE
  5
17F73
  8
1-中柱カバ-P
  6
HIDE-M
 62
     6
 10
19357.070723566791
 20
16789.486251999992
 30
0.0
 11
19345.470723566781
 21
16789.486251999992
 31
0.0
  0
LINE
  5
17F74
  8
1-中柱カバ-P
  6
HIDE-M
 62
     6
 10
19357.070723566791
 20
16788.486251999992
 30
0.0
 11
19345.470723566781
 21
16788.486251999992
 31
0.0
  0
LINE
  5
17F75
  8
1-中柱カバ-P
  6
HIDE-M
 62
     6
 10
19419.870723566801
 20
16789.486251999992
 30
0.0
 11
19431.470723566781
 21
16789.486251999992
 31
0.0
  0
LINE
  5
17F76
  8
1-中柱カバ-P
  6
HIDE-M
 62
     6
 10
19419.870723566801
 20
16788.486251999992
 30
0.0
 11
19431.470723566781
 21
16788.486251999992
 31
0.0
  0
ARC
  5
17F77
  8
1-前柱P
  6
HIDE-M
 62
     6
 10
19392.070723566791
 20
14251.386251999989
 30
0.0
 40
2.6000000000000001
 50
90.0
 51
180.0
  0
LINE
  5
17F78
  8
1-前柱P
  6
HIDE-M
 62
     6
 10
19380.470723566781
 20
14253.43564215319
 30
0.0
 11
19380.470723566781
 21
14249.786252
 31
0.0
  0
LINE
  5
17F79
  8
1-前柱P
  6
HIDE-M
 62
     6
 10
19390.470723566781
 20
14253.43564215319
 30
0.0
 11
19390.470723566781
 21
14249.786252
 31
0.0
  0
LINE
  5
17F7A
  8
1-前柱P
  6
1PL-M
 62
     6
 10
19385.470723566781
 20
14258.986251999981
 30
0.0
 11
19385.470723566781
 21
14244.786252
 31
0.0
  0
ARC
  5
17F7B
  8
1-前柱P
  6
HIDE-M
 62
     6
 10
19378.870723566761
 20
14251.386251999989
 30
0.0
 40
2.6000000000000001
 50
0.0
 51
90.0
  0
LINE
  5
17F7C
  8
1-前柱P
  6
HIDE-M
 62
     6
 10
19389.470723566781
 20
14251.386251999989
 30
0.0
 11
19389.470723566781
 21
14249.786252
 31
0.0
  0
LINE
  5
17F7D
  8
1-前柱P
  6
HIDE-M
 62
     6
 10
19381.470723566781
 20
14251.386251999989
 30
0.0
 11
19381.470723566781
 21
14249.786252
 31
0.0
  0
LINE
  5
17F7E
  8
1-前柱P
 10
19399.370723566761
 20
14139.08625199999
 30
0.0
 11
19377.57072356678
 21
14139.08625199999
 31
0.0
  0
LINE
  5
17F7F
  8
1-前柱P
 10
19347.57072356678
 20
14176.386252
 30
0.0
 11
19347.57072356678
 21
14169.086251999999
 31
0.0
  0
ARC
  5
17F80
  8
1-前柱P
 10
19377.57072356678
 20
14169.086251999999
 30
0.0
 40
30.0
 50
180.0
 51
270.0
  0
ARC
  5
17F81
  8
1-前柱P
 10
19377.57072356678
 20
14169.086251999999
 30
0.0
 40
31.600000000000001
 50
180.0
 51
270.0
  0
LINE
  5
17F82
  8
1-前柱P
 10
19399.370723566761
 20
14137.486252000001
 30
0.0
 11
19377.57072356678
 21
14137.486252000001
 31
0.0
  0
LINE
  5
17F83
  8
1-前柱P
 10
19345.970723566781
 20
14176.386252
 30
0.0
 11
19345.970723566781
 21
14169.086251999999
 31
0.0
  0
LINE
  5
17F84
  8
1-前柱P
 10
19368.970723566781
 20
14197.986251999981
 30
0.0
 11
19368.970723566781
 21
14187.98625199999
 31
0.0
  0
LINE
  5
17F85
  8
1-前柱P
 10
19370.57072356678
 20
14187.98625199999
 30
0.0
 11
19370.57072356678
 21
14197.986251999981
 31
0.0
  0
LINE
  5
17F86
  8
1-前柱P
 10
19429.370723566761
 20
14176.386252
 30
0.0
 11
19429.370723566761
 21
14169.086251999999
 31
0.0
  0
ARC
  5
17F87
  8
1-前柱P
 10
19399.370723566761
 20
14169.086251999999
 30
0.0
 40
30.0
 50
270.0
 51
0.0
  0
ARC
  5
17F88
  8
1-前柱P
 10
19399.370723566761
 20
14169.086251999999
 30
0.0
 40
31.600000000000001
 50
270.0
 51
0.0
  0
LINE
  5
17F89
  8
1-前柱P
 10
19430.970723566781
 20
14176.386252
 30
0.0
 11
19430.970723566781
 21
14169.086251999999
 31
0.0
  0
LINE
  5
17F8A
  8
1-前柱P
 10
19424.370723566761
 20
14182.986252000001
 30
0.0
 11
19412.970723566788
 21
14182.986252000001
 31
0.0
  0
ARC
  5
17F8B
  8
1-前柱P
 10
19424.370723566761
 20
14176.386252
 30
0.0
 40
6.599999999999997
 50
0.0
 51
90.0
  0
ARC
  5
17F8C
  8
1-前柱P
 10
19412.970723566788
 20
14187.98625199999
 30
0.0
 40
5.0
 50
180.0
 51
270.0
  0
LINE
  5
17F8D
  8
1-前柱P
 10
19424.370723566761
 20
14181.386252
 30
0.0
 11
19412.970723566788
 21
14181.386252
 31
0.0
  0
ARC
  5
17F8E
  8
1-前柱P
 10
19424.370723566761
 20
14176.386252
 30
0.0
 40
5.0
 50
0.0
 51
90.0
  0
LINE
  5
17F8F
  8
1-前柱P
 10
19407.970723566781
 20
14187.98625199999
 30
0.0
 11
19407.970723566781
 21
14247.386252
 31
0.0
  0
LINE
  5
17F90
  8
1-前柱P
 10
19406.370723566761
 20
14187.98625199999
 30
0.0
 11
19406.370723566761
 21
14247.386252
 31
0.0
  0
ARC
  5
17F91
  8
1-前柱P
 10
19412.970723566788
 20
14187.98625199999
 30
0.0
 40
6.599999999999997
 50
180.0
 51
270.0
  0
LINE
  5
17F92
  8
1-前柱P
 10
19401.370723566761
 20
14253.98625199999
 30
0.0
 11
19367.970723566788
 21
14253.98625199999
 31
0.0
  0
ARC
  5
17F93
  8
1-前柱P
 10
19401.370723566761
 20
14247.386252
 30
0.0
 40
6.599999999999997
 50
0.0
 51
90.0
  0
LINE
  5
17F94
  8
1-前柱P
 10
19401.370723566761
 20
14252.386251999989
 30
0.0
 11
19367.970723566788
 21
14252.386251999989
 31
0.0
  0
ARC
  5
17F95
  8
1-前柱P
 10
19401.370723566761
 20
14247.386252
 30
0.0
 40
5.0
 50
0.0
 51
90.0
  0
LINE
  5
17F96
  8
1-前柱P
 10
19367.970723566788
 20
14252.386251999989
 30
0.0
 11
19367.970723566788
 21
14253.98625199999
 31
0.0
  0
LINE
  5
17F97
  8
1-前柱P
 10
19352.57072356678
 20
14182.986252000001
 30
0.0
 11
19363.970723566788
 21
14182.986252000001
 31
0.0
  0
ARC
  5
17F98
  8
1-前柱P
 10
19352.57072356678
 20
14176.386252
 30
0.0
 40
6.599999999999997
 50
90.0
 51
180.0
  0
ARC
  5
17F99
  8
1-前柱P
 10
19363.970723566788
 20
14187.98625199999
 30
0.0
 40
5.0
 50
270.0
 51
0.0
  0
LINE
  5
17F9A
  8
1-前柱P
 10
19363.970723566788
 20
14181.386252
 30
0.0
 11
19352.57072356678
 21
14181.386252
 31
0.0
  0
ARC
  5
17F9B
  8
1-前柱P
 10
19363.970723566788
 20
14187.98625199999
 30
0.0
 40
6.599999999999997
 50
270.0
 51
0.0
  0
ARC
  5
17F9C
  8
1-前柱P
 10
19352.57072356678
 20
14176.386252
 30
0.0
 40
5.0
 50
90.0
 51
180.0
  0
LINE
  5
17F9D
  8
1-前柱P
 10
19368.970723566781
 20
14197.986251999981
 30
0.0
 11
19370.57072356678
 21
14197.986251999981
 31
0.0
  0
LINE
  5
17F9E
  8
1-前柱カバ-P
 10
19345.970723566781
 20
14189.68625199999
 30
0.0
 11
19345.970723566781
 21
14248.98625199999
 31
0.0
  0
ARC
  5
17F9F
  8
1-前柱カバ-P
 10
19352.57072356678
 20
14248.98625199999
 30
0.0
 40
6.599999999999997
 50
90.0
 51
180.0
  0
LINE
  5
17FA0
  8
1-前柱カバ-P
 10
19347.57072356678
 20
14189.68625199999
 30
0.0
 11
19347.57072356678
 21
14248.98625199999
 31
0.0
  0
ARC
  5
17FA1
  8
1-前柱カバ-P
 10
19352.57072356678
 20
14189.68625199999
 30
0.0
 40
5.0
 50
180.0
 51
270.0
  0
LINE
  5
17FA2
  8
1-前柱カバ-P
 10
19352.57072356678
 20
14255.58625199999
 30
0.0
 11
19424.370723566761
 21
14255.58625199999
 31
0.0
  0
ARC
  5
17FA3
  8
1-前柱カバ-P
 10
19424.370723566761
 20
14248.98625199999
 30
0.0
 40
6.599999999999997
 50
0.0
 51
90.0
  0
LINE
  5
17FA4
  8
1-前柱カバ-P
 10
19352.57072356678
 20
14253.98625199999
 30
0.0
 11
19424.370723566761
 21
14253.98625199999
 31
0.0
  0
ARC
  5
17FA5
  8
1-前柱カバ-P
 10
19424.370723566761
 20
14248.98625199999
 30
0.0
 40
5.0
 50
0.0
 51
90.0
  0
ARC
  5
17FA6
  8
1-前柱カバ-P
 10
19352.57072356678
 20
14248.98625199999
 30
0.0
 40
5.0
 50
90.0
 51
180.0
  0
LINE
  5
17FA7
  8
1-前柱カバ-P
 10
19430.970723566781
 20
14248.98625199999
 30
0.0
 11
19430.970723566781
 21
14189.68625199999
 31
0.0
  0
LINE
  5
17FA8
  8
1-前柱カバ-P
 10
19429.370723566761
 20
14248.98625199999
 30
0.0
 11
19429.370723566761
 21
14189.68625199999
 31
0.0
  0
ARC
  5
17FA9
  8
1-前柱カバ-P
 10
19424.370723566761
 20
14189.68625199999
 30
0.0
 40
5.0
 50
270.0
 51
0.0
  0
LINE
  5
17FAA
  8
1-前柱カバ-P
  6
1PL-M
 62
     6
 10
19388.470723566781
 20
14248.086251999999
 30
0.0
 11
19388.470723566781
 21
14261.08625199999
 31
0.0
  0
LINE
  5
17FAB
  8
1-前柱カバ-P
  6
HIDE-M
 62
     6
 10
19381.470723566781
 20
14255.58625199999
 30
0.0
 11
19381.470723566781
 21
14253.98625199999
 31
0.0
  0
LINE
  5
17FAC
  8
1-前柱カバ-P
  6
HIDE-M
 62
     6
 10
19395.470723566788
 20
14255.58625199999
 30
0.0
 11
19395.470723566788
 21
14253.98625199999
 31
0.0
  0
ARC
  5
17FAD
  8
1-前柱カバ-P
 10
19352.57072356678
 20
14189.68625199999
 30
0.0
 40
6.599999999999997
 50
180.0
 51
270.0
  0
ARC
  5
17FAE
  8
1-前柱カバ-P
 10
19424.370723566761
 20
14189.68625199999
 30
0.0
 40
6.599999999999997
 50
270.0
 51
0.0
  0
LINE
  5
17FAF
  8
1-前柱カバ-P
 10
19415.970723566781
 20
14183.08625199999
 30
0.0
 11
19424.370723566761
 21
14183.08625199999
 31
0.0
  0
LINE
  5
17FB0
  8
1-前柱カバ-P
 10
19360.970723566781
 20
14183.08625199999
 30
0.0
 11
19352.57072356678
 21
14183.08625199999
 31
0.0
  0
LINE
  5
17FB1
  8
1-前柱カバ-P
 10
19415.970723566781
 20
14184.68625199999
 30
0.0
 11
19424.370723566761
 21
14184.68625199999
 31
0.0
  0
LINE
  5
17FB2
  8
1-前柱カバ-P
 10
19360.970723566781
 20
14184.68625199999
 30
0.0
 11
19352.57072356678
 21
14184.68625199999
 31
0.0
  0
LINE
  5
17FB3
  8
1-前柱カバ-P
 10
19360.970723566781
 20
14184.68625199999
 30
0.0
 11
19360.970723566781
 21
14183.08625199999
 31
0.0
  0
LINE
  5
17FB4
  8
1-前柱カバ-P
 10
19415.970723566781
 20
14183.08625199999
 30
0.0
 11
19415.970723566781
 21
14184.68625199999
 31
0.0
  0
LINE
  5
17FB5
  8
1-前柱カバ-P
  6
HIDE-M
 62
     6
 10
19419.870723566772
 20
14204.08625199999
 30
0.0
 11
19431.470723566781
 21
14204.08625199999
 31
0.0
  0
LINE
  5
17FB6
  8
1-前柱カバ-P
  6
HIDE-M
 62
     6
 10
19419.870723566772
 20
14212.086251999999
 30
0.0
 11
19431.470723566781
 21
14212.086251999999
 31
0.0
  0
LINE
  5
17FB7
  8
1-前柱カバ-P
  6
HIDE-M
 62
     6
 10
19419.870723566772
 20
14205.08625199999
 30
0.0
 11
19431.470723566781
 21
14205.08625199999
 31
0.0
  0
LINE
  5
17FB8
  8
1-前柱カバ-P
  6
HIDE-M
 62
     6
 10
19419.870723566772
 20
14211.086251999999
 30
0.0
 11
19431.470723566781
 21
14211.086251999999
 31
0.0
  0
LINE
  5
17FB9
  8
1-前柱カバ-P
 10
19420.870723566761
 20
14213.58625199999
 30
0.0
 11
19427.870723566761
 21
14213.58625199999
 31
0.0
  0
LINE
  5
17FBA
  8
1-前柱カバ-P
 10
19427.870723566761
 20
14202.58625199999
 30
0.0
 11
19420.870723566761
 21
14202.58625199999
 31
0.0
  0
LINE
  5
17FBB
  8
1-前柱カバ-P
 10
19427.870723566761
 20
14201.83625199999
 30
0.0
 11
19427.870723566761
 21
14214.33625199999
 31
0.0
  0
LINE
  5
17FBC
  8
1-前柱カバ-P
 10
19431.470723566781
 20
14202.08625199999
 30
0.0
 11
19431.470723566781
 21
14214.08625199999
 31
0.0
  0
LINE
  5
17FBD
  8
1-前柱カバ-P
  6
HIDE-M
 62
     6
 10
19429.370723566761
 20
14213.58625199999
 30
0.0
 11
19430.970723566781
 21
14213.58625199999
 31
0.0
  0
LINE
  5
17FBE
  8
1-前柱カバ-P
 10
19431.470723566781
 20
14214.08625199999
 30
0.0
 11
19430.970723566781
 21
14213.58625199999
 31
0.0
  0
ARC
  5
17FBF
  8
1-前柱カバ-P
 10
19428.620723566761
 20
14214.33625199999
 30
0.0
 40
0.75
 50
0.0
 51
180.0
  0
LINE
  5
17FC0
  8
1-前柱カバ-P
  6
HIDE-M
 62
     6
 10
19430.970723566781
 20
14202.58625199999
 30
0.0
 11
19429.370723566761
 21
14202.58625199999
 31
0.0
  0
LINE
  5
17FC1
  8
1-前柱カバ-P
 10
19431.470723566781
 20
14202.08625199999
 30
0.0
 11
19430.970723566781
 21
14202.58625199999
 31
0.0
  0
ARC
  5
17FC2
  8
1-前柱カバ-P
 10
19428.620723566761
 20
14201.83625199999
 30
0.0
 40
0.75
 50
180.0
 51
0.0
  0
LINE
  5
17FC3
  8
1-前柱カバ-P
 10
19419.870723566772
 20
14203.586251999999
 30
0.0
 11
19419.870723566772
 21
14212.58625199999
 31
0.0
  0
ARC
  5
17FC4
  8
1-前柱カバ-P
 10
19420.870723566761
 20
14212.58625199999
 30
0.0
 40
1.0
 50
90.0
 51
180.0
  0
ARC
  5
17FC5
  8
1-前柱カバ-P
 10
19420.870723566761
 20
14203.586251999999
 30
0.0
 40
1.0
 50
180.0
 51
270.0
  0
LINE
  5
17FC6
  8
1-前柱カバ-P
  6
1PL-M
 62
     6
 10
19414.870723566761
 20
14208.086251999999
 30
0.0
 11
19436.470723566788
 21
14208.086251999999
 31
0.0
  0
LINE
  5
17FC7
  8
1-前柱カバ-P
 10
19420.870723566761
 20
14223.586251999999
 30
0.0
 11
19427.870723566761
 21
14223.586251999999
 31
0.0
  0
LINE
  5
17FC8
  8
1-前柱カバ-P
 10
19431.470723566781
 20
14216.086251999999
 30
0.0
 11
19431.470723566781
 21
14224.08625199999
 31
0.0
  0
LINE
  5
17FC9
  8
1-前柱カバ-P
  6
HIDE-M
 62
     6
 10
19429.370723566761
 20
14223.586251999999
 30
0.0
 11
19430.970723566781
 21
14223.586251999999
 31
0.0
  0
LINE
  5
17FCA
  8
1-前柱カバ-P
 10
19431.470723566781
 20
14224.08625199999
 30
0.0
 11
19430.970723566781
 21
14223.586251999999
 31
0.0
  0
ARC
  5
17FCB
  8
1-前柱カバ-P
 10
19428.620723566761
 20
14224.336251999999
 30
0.0
 40
0.75
 50
0.0
 51
180.0
  0
LINE
  5
17FCC
  8
1-前柱カバ-P
 10
19419.870723566772
 20
14214.58625199999
 30
0.0
 11
19419.870723566772
 21
14222.586251999999
 31
0.0
  0
ARC
  5
17FCD
  8
1-前柱カバ-P
 10
19420.870723566761
 20
14222.586251999999
 30
0.0
 40
1.0
 50
90.0
 51
180.0
  0
LINE
  5
17FCE
  8
1-前柱カバ-P
  6
1PL-M
 62
     6
 10
19414.870723566761
 20
14218.08625199999
 30
0.0
 11
19436.470723566788
 21
14218.08625199999
 31
0.0
  0
LINE
  5
17FCF
  8
1-前柱カバ-P
 10
19427.870723566761
 20
14216.33625199999
 30
0.0
 11
19427.870723566761
 21
14224.336251999999
 31
0.0
  0
LINE
  5
17FD0
  8
1-前柱カバ-P
  6
HIDE-M
 62
     6
 10
19357.07072356678
 20
14204.08625199999
 30
0.0
 11
19345.470723566781
 21
14204.08625199999
 31
0.0
  0
LINE
  5
17FD1
  8
1-前柱カバ-P
  6
HIDE-M
 62
     6
 10
19357.07072356678
 20
14212.086251999999
 30
0.0
 11
19345.470723566781
 21
14212.086251999999
 31
0.0
  0
LINE
  5
17FD2
  8
1-前柱カバ-P
  6
HIDE-M
 62
     6
 10
19357.07072356678
 20
14205.08625199999
 30
0.0
 11
19345.470723566781
 21
14205.08625199999
 31
0.0
  0
LINE
  5
17FD3
  8
1-前柱カバ-P
  6
HIDE-M
 62
     6
 10
19357.07072356678
 20
14211.086251999999
 30
0.0
 11
19345.470723566781
 21
14211.086251999999
 31
0.0
  0
LINE
  5
17FD4
  8
1-前柱カバ-P
 10
19356.07072356678
 20
14213.58625199999
 30
0.0
 11
19349.07072356678
 21
14213.58625199999
 31
0.0
  0
LINE
  5
17FD5
  8
1-前柱カバ-P
 10
19349.07072356678
 20
14202.58625199999
 30
0.0
 11
19356.07072356678
 21
14202.58625199999
 31
0.0
  0
LINE
  5
17FD6
  8
1-前柱カバ-P
 10
19349.07072356678
 20
14201.83625199999
 30
0.0
 11
19349.07072356678
 21
14214.33625199999
 31
0.0
  0
LINE
  5
17FD7
  8
1-前柱カバ-P
 10
19345.470723566781
 20
14202.08625199999
 30
0.0
 11
19345.470723566781
 21
14214.08625199999
 31
0.0
  0
LINE
  5
17FD8
  8
1-前柱カバ-P
  6
HIDE-M
 62
     6
 10
19347.57072356678
 20
14213.58625199999
 30
0.0
 11
19345.970723566781
 21
14213.58625199999
 31
0.0
  0
LINE
  5
17FD9
  8
1-前柱カバ-P
 10
19345.470723566781
 20
14214.08625199999
 30
0.0
 11
19345.970723566781
 21
14213.58625199999
 31
0.0
  0
ARC
  5
17FDA
  8
1-前柱カバ-P
 10
19348.32072356678
 20
14214.33625199999
 30
0.0
 40
0.75
 50
0.0
 51
180.0
  0
LINE
  5
17FDB
  8
1-前柱カバ-P
  6
HIDE-M
 62
     6
 10
19345.970723566781
 20
14202.58625199999
 30
0.0
 11
19347.57072356678
 21
14202.58625199999
 31
0.0
  0
LINE
  5
17FDC
  8
1-前柱カバ-P
 10
19345.470723566781
 20
14202.08625199999
 30
0.0
 11
19345.970723566781
 21
14202.58625199999
 31
0.0
  0
ARC
  5
17FDD
  8
1-前柱カバ-P
 10
19348.32072356678
 20
14201.83625199999
 30
0.0
 40
0.75
 50
180.0
 51
0.0
  0
LINE
  5
17FDE
  8
1-前柱カバ-P
 10
19357.07072356678
 20
14203.586251999999
 30
0.0
 11
19357.07072356678
 21
14212.58625199999
 31
0.0
  0
ARC
  5
17FDF
  8
1-前柱カバ-P
 10
19356.07072356678
 20
14212.58625199999
 30
0.0
 40
1.0
 50
0.0
 51
90.0
  0
ARC
  5
17FE0
  8
1-前柱カバ-P
 10
19356.07072356678
 20
14203.586251999999
 30
0.0
 40
1.0
 50
270.0
 51
0.0
  0
LINE
  5
17FE1
  8
1-前柱カバ-P
  6
1PL-M
 62
     6
 10
19362.07072356678
 20
14208.086251999999
 30
0.0
 11
19340.470723566781
 21
14208.086251999999
 31
0.0
  0
LINE
  5
17FE2
  8
1-前柱カバ-P
 10
19356.07072356678
 20
14223.586251999999
 30
0.0
 11
19349.07072356678
 21
14223.586251999999
 31
0.0
  0
LINE
  5
17FE3
  8
1-前柱カバ-P
 10
19345.470723566781
 20
14216.086251999999
 30
0.0
 11
19345.470723566781
 21
14224.08625199999
 31
0.0
  0
LINE
  5
17FE4
  8
1-前柱カバ-P
  6
HIDE-M
 62
     6
 10
19347.57072356678
 20
14223.586251999999
 30
0.0
 11
19345.970723566781
 21
14223.586251999999
 31
0.0
  0
LINE
  5
17FE5
  8
1-前柱カバ-P
 10
19345.470723566781
 20
14224.08625199999
 30
0.0
 11
19345.970723566781
 21
14223.586251999999
 31
0.0
  0
ARC
  5
17FE6
  8
1-前柱カバ-P
 10
19348.32072356678
 20
14224.336251999999
 30
0.0
 40
0.75
 50
0.0
 51
180.0
  0
LINE
  5
17FE7
  8
1-前柱カバ-P
 10
19357.07072356678
 20
14214.58625199999
 30
0.0
 11
19357.07072356678
 21
14222.586251999999
 31
0.0
  0
ARC
  5
17FE8
  8
1-前柱カバ-P
 10
19356.07072356678
 20
14222.586251999999
 30
0.0
 40
1.0
 50
0.0
 51
90.0
  0
LINE
  5
17FE9
  8
1-前柱カバ-P
  6
1PL-M
 62
     6
 10
19362.07072356678
 20
14218.08625199999
 30
0.0
 11
19340.470723566781
 21
14218.08625199999
 31
0.0
  0
LINE
  5
17FEA
  8
1-前柱カバ-P
 10
19349.07072356678
 20
14216.33625199999
 30
0.0
 11
19349.07072356678
 21
14224.336251999999
 31
0.0
  0
LINE
  5
17FEB
  8
1-前柱カバ-P
  6
HIDE-M
 62
     6
 10
19419.870723566772
 20
14222.08625199999
 30
0.0
 11
19431.470723566781
 21
14222.08625199999
 31
0.0
  0
LINE
  5
17FEC
  8
1-前柱カバ-P
  6
HIDE-M
 62
     6
 10
19419.870723566772
 20
14221.08625199999
 30
0.0
 11
19431.470723566781
 21
14221.08625199999
 31
0.0
  0
LINE
  5
17FED
  8
1-前柱カバ-P
  6
HIDE-M
 62
     6
 10
19357.07072356678
 20
14222.08625199999
 30
0.0
 11
19345.470723566781
 21
14222.08625199999
 31
0.0
  0
LINE
  5
17FEE
  8
1-前柱カバ-P
  6
HIDE-M
 62
     6
 10
19357.07072356678
 20
14221.08625199999
 30
0.0
 11
19345.470723566781
 21
14221.08625199999
 31
0.0
  0
LINE
  5
17FF3
  8
0-6
  6
CONTINUOUS
 62
     6
 10
20838.546428388181
 20
13542.98710999998
 30
0.0
 11
19838.54708738819
 21
13542.98710999998
 31
0.0
  0
TEXT
  5
17FF4
  8
0-6
  6
CONTINUOUS
 62
     7
 10
19942.546164388201
 20
13622.98737399998
 30
0.0
 40
160.0
  1
前柱（P）
 72
     4
 11
20342.546164388201
 21
13702.98737399998
 31
0.0
  0
LINE
  5
17FF5
  8
0-6
  6
CONTINUOUS
 62
     6
 10
19433.470723566788
 20
14128.98625199999
 30
0.0
 11
19838.54708738819
 21
13542.98710999998
 31
0.0
  0
LINE
  5
17FF6
  8
0-6
  6
CONTINUOUS
 62
     6
 10
20838.546428388181
 20
16080.047909954121
 30
0.0
 11
19838.54708738819
 21
16080.047909954121
 31
0.0
  0
TEXT
  5
17FF7
  8
0-6
  6
CONTINUOUS
 62
     7
 10
19942.546164388201
 20
16160.048173954099
 30
0.0
 40
160.0
  1
中柱（P）
 72
     4
 11
20342.546164388201
 21
16240.048173954099
 31
0.0
  0
LINE
  5
17FF8
  8
0-6
  6
CONTINUOUS
 62
     6
 10
19433.470723566788
 20
16666.047051954109
 30
0.0
 11
19838.54708738819
 21
16080.047909954121
 31
0.0
  0
LINE
  5
17FF9
  8
0-6
  6
CONTINUOUS
 62
     6
 10
21179.608318857721
 20
14743.976989828871
 30
0.0
 11
19723.608318857721
 21
14743.976989828871
 31
0.0
  0
TEXT
  5
17FFA
  8
0-6
  6
CONTINUOUS
 62
     7
 10
19763.603045605309
 20
14823.977253828851
 30
0.0
 40
160.0
  1
前柱カバー（P）
 72
     4
 11
20451.603045605309
 21
14903.977253828851
 31
0.0
  0
LINE
  5
17FFB
  8
0-6
  6
CONTINUOUS
 62
     6
 10
19424.370723566761
 20
14255.586251999979
 30
0.0
 11
19723.608318857721
 21
14743.976989828871
 31
0.0
  0
LINE
  5
17FFC
  8
0-6
  6
CONTINUOUS
 62
     6
 10
21179.608318857721
 20
17300.97655382887
 30
0.0
 11
19723.608318857721
 21
17300.97655382887
 31
0.0
  0
TEXT
  5
17FFD
  8
0-6
  6
CONTINUOUS
 62
     7
 10
19763.603045605309
 20
17380.976817828861
 30
0.0
 40
160.0
  1
中柱カバー（P）
 72
     4
 11
20451.603045605309
 21
17460.976817828861
 31
0.0
  0
LINE
  5
17FFE
  8
0-6
  6
CONTINUOUS
 62
     6
 10
19424.370723566761
 20
16812.585815999992
 30
0.0
 11
19723.608318857721
 21
17300.97655382887
 31
0.0
  0
LINE
  5
17FFF
  8
0-6
  6
CONTINUOUS
 62
     6
 10
20838.546428388181
 20
19957.423617045872
 30
0.0
 11
19838.54708738819
 21
19957.423617045872
 31
0.0
  0
TEXT
  5
18000
  8
0-6
  6
CONTINUOUS
 62
     7
 10
19942.546164388201
 20
20037.423881045848
 30
0.0
 40
160.0
  1
後柱（P）
 72
     4
 11
20342.546164388201
 21
20117.423881045848
 31
0.0
  0
LINE
  5
18001
  8
0-6
  6
CONTINUOUS
 62
     6
 10
19433.470723566788
 20
19371.424475045871
 30
0.0
 11
19838.54708738819
 21
19957.423617045872
 31
0.0
  0
LINE
  5
18002
  8
0-6
  6
CONTINUOUS
 62
     6
 10
21179.608318857721
 20
18751.32459354206
 30
0.0
 11
19723.608318857729
 21
18751.32459354206
 31
0.0
  0
TEXT
  5
18003
  8
0-6
  6
CONTINUOUS
 62
     7
 10
19763.603045605309
 20
18831.32485754204
 30
0.0
 40
160.0
  1
後柱カバー（P）
 72
     4
 11
20451.603045605309
 21
18911.32485754204
 31
0.0
  0
LINE
  5
18004
  8
0-6
  6
CONTINUOUS
 62
     6
 10
19424.370723566761
 20
19224.885710999992
 30
0.0
 11
19723.608318857729
 21
18751.32459354206
 31
0.0
  0
LINE
  5
18044
  8
0-1
  6
CONTINUOUS
 62
     3
 10
13646.00533818745
 20
16705.485856999989
 30
0.0
 11
10377.50533818746
 21
16705.485856999989
 31
0.0
  0
LINE
  5
18045
  8
0-1
  6
CONTINUOUS
 62
     3
 10
10377.50533818746
 20
16705.485856999989
 30
0.0
 11
7805.1344874186543
 21
16705.485856999989
 31
0.0
  0
LINE
  5
18046
  8
2-0
  6
DASHED3
 62
     6
 10
7805.1344874186543
 20
16705.485856999989
 30
0.0
 11
7577.5053381874577
 21
16705.485856999989
 31
0.0
  0
LINE
  5
18047
  8
0-1
  6
CONTINUOUS
 62
     3
 10
10430.50496918745
 20
14146.48689899999
 30
0.0
 11
10430.50496918745
 21
17788.733651581231
 31
0.0
  0
LINE
  5
18048
  8
0-1
  6
CONTINUOUS
 62
     3
 10
13596.00471818744
 20
14022.486885
 30
0.0
 11
13596.00471818744
 21
18808.5841237001
 31
0.0
  0
LINE
  5
18049
  8
0-1
  6
CONTINUOUS
 62
     3
 10
13596.00471818744
 20
18808.5841237001
 30
0.0
 11
13596.00471818744
 21
19482.48622599999
 31
0.0
  0
LINE
  5
1804A
  8
0-1
  6
CONTINUOUS
 62
     3
 10
13731.50533818745
 20
13990.486977999981
 30
0.0
 11
13731.50533818745
 21
19154.72360177611
 31
0.0
  0
LINE
  5
1804B
  8
0-1
  6
CONTINUOUS
 62
     3
 10
13731.50533818745
 20
19154.72360177611
 30
0.0
 11
13731.50533818745
 21
19530.487571999991
 31
0.0
  0
LINE
  5
1804C
  8
0-1
  6
CONTINUOUS
 62
     3
 10
13688.504612187449
 20
14146.48689899999
 30
0.0
 11
7535.0040841874497
 21
14146.48689899999
 31
0.0
  0
LINE
  5
1804D
  8
0-1
  6
CONTINUOUS
 62
     3
 10
13646.00533818745
 20
14225.486515999981
 30
0.0
 11
7577.5053381874577
 21
14225.486515999981
 31
0.0
  0
LINE
  5
1804E
  8
0-1
  6
CONTINUOUS
 62
     3
 10
13731.50533818745
 20
13990.486977999981
 30
0.0
 11
7492.0053381874604
 21
13990.486977999981
 31
0.0
  0
LINE
  5
1804F
  8
0-1
  6
CONTINUOUS
 62
     3
 10
13731.50533818745
 20
14022.486885
 30
0.0
 11
7492.0053381874604
 21
14022.486885
 31
0.0
  0
LINE
  5
18050
  8
0-1
  6
CONTINUOUS
 62
     3
 10
10377.50533818746
 20
14146.48689899999
 30
0.0
 11
10377.50533818746
 21
17766.865601417241
 31
0.0
  0
LINE
  5
18051
  8
0-1
  6
CONTINUOUS
 62
     3
 10
10335.004084187451
 20
14146.48689899999
 30
0.0
 11
10335.004084187451
 21
17749.329261315092
 31
0.0
  0
LINE
  5
18052
  8
0-1
  6
CONTINUOUS
 62
     3
 10
13646.00533818745
 20
14146.48689899999
 30
0.0
 11
13646.00533818745
 21
19120.683720462501
 31
0.0
  0
LINE
  5
18053
  8
0-1
  6
CONTINUOUS
 62
     3
 10
13688.504612187449
 20
14146.48689899999
 30
0.0
 11
13688.504612187449
 21
19138.219243601601
 31
0.0
  0
LINE
  5
18054
  8
0-1
  6
CONTINUOUS
 62
     3
 10
11725.00421618745
 20
18332.853974713271
 30
0.0
 11
11725.00421618745
 21
19482.48622599999
 31
0.0
  0
LINE
  5
18055
  8
0-1
  6
CONTINUOUS
 62
     3
 10
11688.003055187461
 20
18317.587014743822
 30
0.0
 11
11688.003055187461
 21
19482.48622599999
 31
0.0
  0
LINE
  5
18056
  8
0-1
  6
CONTINUOUS
 62
     3
 10
11525.004546187451
 20
18240.332487322121
 30
0.0
 11
11525.004546187451
 21
19482.48622599999
 31
0.0
  0
LINE
  5
18057
  8
0-1
  6
CONTINUOUS
 62
     3
 10
11488.00536518745
 20
18225.066344315681
 30
0.0
 11
11488.00536518745
 21
19482.48622599999
 31
0.0
  0
LINE
  5
18058
  8
0-1
  6
CONTINUOUS
 62
     3
 10
11325.003887187449
 20
18157.810696862081
 30
0.0
 11
11325.003887187449
 21
19482.48622599999
 31
0.0
  0
LINE
  5
18059
  8
0-1
  6
CONTINUOUS
 62
     3
 10
11288.00371518744
 20
18142.544144961521
 30
0.0
 11
11288.00371518744
 21
19482.48622599999
 31
0.0
  0
LINE
  5
1805A
  8
0-1
  6
CONTINUOUS
 62
     3
 10
11125.00421618745
 20
18075.289314058318
 30
0.0
 11
11125.00421618745
 21
19482.48622599999
 31
0.0
  0
LINE
  5
1805B
  8
0-1
  6
CONTINUOUS
 62
     3
 10
11088.003055187461
 20
18060.02235408884
 30
0.0
 11
11088.003055187461
 21
19482.48622599999
 31
0.0
  0
LINE
  5
1805C
  8
0-1
  6
CONTINUOUS
 62
     3
 10
10925.00454618744
 20
17992.767931667171
 30
0.0
 11
10925.00454618744
 21
19482.48622599999
 31
0.0
  0
LINE
  5
1805D
  8
0-1
  6
CONTINUOUS
 62
     3
 10
10888.00437518744
 20
17977.50138017923
 30
0.0
 11
10888.00437518744
 21
19482.48622599999
 31
0.0
  0
LINE
  5
1805E
  8
0-1
  6
CONTINUOUS
 62
     3
 10
10725.00388718744
 20
17910.246141207121
 30
0.0
 11
10725.00388718744
 21
19482.48622599999
 31
0.0
  0
LINE
  5
1805F
  8
0-1
  6
CONTINUOUS
 62
     3
 10
10688.00371518744
 20
17894.97958930656
 30
0.0
 11
10688.00371518744
 21
19482.48622599999
 31
0.0
  0
LINE
  5
18060
  8
0-1
  6
CONTINUOUS
 62
     3
 10
13646.00533818745
 20
16795.488627999988
 30
0.0
 11
10377.50533818746
 21
16795.488627999988
 31
0.0
  0
LINE
  5
18061
  8
0-1
  6
CONTINUOUS
 62
     3
 10
10377.50533818746
 20
16795.488627999988
 30
0.0
 11
8023.2661276978261
 21
16795.488627999988
 31
0.0
  0
LINE
  5
18062
  8
2-0
  6
DASHED3
 62
     6
 10
8023.2661276978261
 20
16795.488627999988
 30
0.0
 11
7577.5053381874577
 21
16795.488627999988
 31
0.0
  0
LINE
  5
18063
  8
0-1
  6
CONTINUOUS
 62
     3
 10
10447.504438543619
 20
16750.488153658851
 30
0.0
 11
13576.00461218744
 21
14182.986252000001
 31
0.0
  0
LINE
  5
18064
  8
0-1
  6
CONTINUOUS
 62
     3
 10
13576.00461218744
 20
16750.486251999992
 30
0.0
 11
10447.504084187451
 21
14182.986252000001
 31
0.0
  0
LINE
  5
18065
  8
0-1
  6
CONTINUOUS
 62
     3
 10
13019.5522525051
 20
18861.31682703465
 30
0.0
 11
10447.504438543619
 21
16750.488153658851
 31
0.0
  0
LINE
  5
18066
  8
0-1
  6
CONTINUOUS
 62
     3
 10
11679.83088929971
 20
18306.639428239541
 30
0.0
 11
13576.00461218744
 21
16750.486251999992
 31
0.0
  0
LINE
  5
18067
  8
0-1
  6
CONTINUOUS
 62
     3
 10
13713.50656518747
 20
19147.38880541081
 30
0.0
 11
13713.50656518747
 21
19522.987175999991
 31
0.0
  0
LINE
  5
18068
  8
0-1
  6
CONTINUOUS
 62
     3
 10
13658.005813187459
 20
19505.488230999988
 30
0.0
 11
13658.005813187459
 21
19535.487834999982
 31
0.0
  0
LINE
  5
18069
  8
0-1
  6
CONTINUOUS
 62
     3
 10
13731.50533818745
 20
19535.487834999982
 30
0.0
 11
13731.50533818745
 21
19500.485987999989
 31
0.0
  0
LINE
  5
1806A
  8
0-1
  6
CONTINUOUS
 62
     3
 10
13663.006077187471
 20
19540.486120000001
 30
0.0
 11
13726.506064187461
 21
19540.486120000001
 31
0.0
  0
LINE
  5
1806B
  8
0-1
  6
CONTINUOUS
 62
     3
 10
13713.50656518747
 20
19522.987175999991
 30
0.0
 11
13731.50533818745
 21
19522.987175999991
 31
0.0
  0
LINE
  5
1806C
  8
0-1
  6
CONTINUOUS
 62
     3
 10
13713.50656518747
 20
19500.485987999989
 30
0.0
 11
13663.006077187471
 21
19500.485987999989
 31
0.0
  0
LINE
  5
1806D
  8
0-6
  6
CONTINUOUS
 62
     6
 10
11247.16200205007
 20
19258.210728999991
 30
0.0
 11
11103.260899050079
 21
19770.486383999989
 31
0.0
  0
LINE
  5
1806E
  8
0-6
  6
CONTINUOUS
 62
     6
 10
11767.00337705008
 20
19486.164171
 30
0.0
 11
11660.30831505007
 21
19363.988283999988
 31
0.0
  0
LINE
  5
1806F
  8
0-6
  6
CONTINUOUS
 62
     6
 10
11660.30831505007
 20
19363.988283999988
 30
0.0
 11
11721.61400505008
 21
19514.164461
 31
0.0
  0
LINE
  5
18070
  8
0-6
  6
CONTINUOUS
 62
     6
 10
11660.30831505007
 20
19363.988283999988
 30
0.0
 11
11767.00337705008
 21
19486.164171
 31
0.0
  0
LINE
  5
18071
  8
0-6
  6
CONTINUOUS
 62
     6
 10
11767.00337705008
 20
19486.164171
 30
0.0
 11
11721.61400505008
 21
19514.164461
 31
0.0
  0
LINE
  5
18072
  8
0-6
  6
CONTINUOUS
 62
     6
 10
11721.61400505008
 20
19514.164461
 30
0.0
 11
11660.30831505007
 21
19363.988283999988
 31
0.0
  0
LINE
  5
18073
  8
0-6
  6
CONTINUOUS
 62
     6
 10
11721.61400505008
 20
19514.164461
 30
0.0
 11
11767.00337705008
 21
19486.164171
 31
0.0
  0
LINE
  5
18074
  8
0-6
  6
CONTINUOUS
 62
     6
 10
11660.30831505007
 20
19363.988283999988
 30
0.0
 11
11954.23614205008
 21
19770.486383999989
 31
0.0
  0
LINE
  5
18075
  8
0-6
  6
CONTINUOUS
 62
     6
 10
11273.050146050071
 20
19264.610512999981
 30
0.0
 11
11285.551796050069
 21
19102.88582399999
 31
0.0
  0
LINE
  5
18076
  8
0-6
  6
CONTINUOUS
 62
     6
 10
11285.551796050069
 20
19102.88582399999
 30
0.0
 11
11221.276827050069
 21
19251.814904999988
 31
0.0
  0
LINE
  5
18077
  8
0-6
  6
CONTINUOUS
 62
     6
 10
11285.551796050069
 20
19102.88582399999
 30
0.0
 11
11273.050146050071
 21
19264.610512999981
 31
0.0
  0
LINE
  5
18078
  8
0-6
  6
CONTINUOUS
 62
     6
 10
11273.050146050071
 20
19264.610512999981
 30
0.0
 11
11221.276827050069
 21
19251.814904999988
 31
0.0
  0
LINE
  5
18079
  8
0-6
  6
CONTINUOUS
 62
     6
 10
11221.276827050069
 20
19251.814904999988
 30
0.0
 11
11285.551796050069
 21
19102.88582399999
 31
0.0
  0
LINE
  5
1807A
  8
0-6
  6
CONTINUOUS
 62
     6
 10
11221.276827050069
 20
19251.814904999988
 30
0.0
 11
11273.050146050071
 21
19264.610512999981
 31
0.0
  0
LINE
  5
1807B
  8
0-6
  6
CONTINUOUS
 62
     6
 10
11103.260899050079
 20
19770.486383999989
 30
0.0
 11
10585.572251050069
 21
19770.486383999989
 31
0.0
  0
LINE
  5
1807C
  8
0-6
  6
CONTINUOUS
 62
     6
 10
13503.18901118744
 20
18184.789586663908
 30
0.0
 11
13593.00471818744
 21
18319.862037663901
 31
0.0
  0
LINE
  5
1807D
  8
0-6
  6
CONTINUOUS
 62
     6
 10
13593.00471818744
 20
18319.862037663901
 30
0.0
 11
13551.85052718744
 21
18162.96143566391
 31
0.0
  0
LINE
  5
1807E
  8
0-6
  6
CONTINUOUS
 62
     6
 10
13593.00471818744
 20
18319.862037663901
 30
0.0
 11
13503.18901118744
 21
18184.789586663908
 31
0.0
  0
LINE
  5
1807F
  8
0-6
  6
CONTINUOUS
 62
     6
 10
13503.18901118744
 20
18184.789586663908
 30
0.0
 11
13551.85052718744
 21
18162.96143566391
 31
0.0
  0
LINE
  5
18080
  8
0-6
  6
CONTINUOUS
 62
     6
 10
13551.85052718744
 20
18162.96143566391
 30
0.0
 11
13593.00471818744
 21
18319.862037663901
 31
0.0
  0
LINE
  5
18081
  8
0-6
  6
CONTINUOUS
 62
     6
 10
13551.85052718744
 20
18162.96143566391
 30
0.0
 11
13503.18901118744
 21
18184.789586663908
 31
0.0
  0
LINE
  5
18082
  8
0-6
  6
CONTINUOUS
 62
     6
 10
12754.23779105008
 20
19770.486383999989
 30
0.0
 11
11954.23614205008
 21
19770.486383999989
 31
0.0
  0
LINE
  5
18083
  8
0-6
  6
CONTINUOUS
 62
     6
 10
13428.47901118745
 20
17953.082977663911
 30
0.0
 11
12908.47828518743
 21
17953.082977663911
 31
0.0
  0
LINE
  5
18084
  8
0-6
  6
CONTINUOUS
 62
     6
 10
12445.23103312159
 20
14370.377377999979
 30
0.0
 11
12362.343641121601
 21
14547.315656999979
 31
0.0
  0
LINE
  5
18085
  8
0-6
  6
CONTINUOUS
 62
     6
 10
12362.343641121601
 20
14547.315656999979
 30
0.0
 11
11562.342981121599
 21
14547.315656999979
 31
0.0
  0
LINE
  5
18086
  8
0-6
  6
CONTINUOUS
 62
     6
 10
11838.18790612159
 20
13860.940352999971
 30
0.0
 11
11944.458361121589
 21
13983.48739999998
 31
0.0
  0
LINE
  5
18087
  8
0-6
  6
CONTINUOUS
 62
     6
 10
11944.458361121589
 20
13983.48739999998
 30
0.0
 11
11883.67625312159
 21
13833.098423999991
 31
0.0
  0
LINE
  5
18088
  8
0-6
  6
CONTINUOUS
 62
     6
 10
11944.458361121589
 20
13983.48739999998
 30
0.0
 11
11838.18790612159
 21
13860.940352999971
 31
0.0
  0
LINE
  5
18089
  8
0-6
  6
CONTINUOUS
 62
     6
 10
11838.18790612159
 20
13860.940352999971
 30
0.0
 11
11883.67625312159
 21
13833.098423999991
 31
0.0
  0
LINE
  5
1808A
  8
0-6
  6
CONTINUOUS
 62
     6
 10
11883.67625312159
 20
13833.098423999991
 30
0.0
 11
11944.458361121589
 21
13983.48739999998
 31
0.0
  0
LINE
  5
1808B
  8
0-6
  6
CONTINUOUS
 62
     6
 10
11883.67625312159
 20
13833.098423999991
 30
0.0
 11
11838.18790612159
 21
13860.940352999971
 31
0.0
  0
LINE
  5
1808C
  8
0-6
  6
CONTINUOUS
 62
     6
 10
12469.378190121601
 20
14381.689336999991
 30
0.0
 11
12513.103776121599
 21
14225.486515999981
 31
0.0
  0
LINE
  5
1808D
  8
0-6
  6
CONTINUOUS
 62
     6
 10
12513.103776121599
 20
14225.486515999981
 30
0.0
 11
12421.08288512159
 21
14359.06442899998
 31
0.0
  0
LINE
  5
1808E
  8
0-6
  6
CONTINUOUS
 62
     6
 10
12513.103776121599
 20
14225.486515999981
 30
0.0
 11
12469.378190121601
 21
14381.689336999991
 31
0.0
  0
LINE
  5
1808F
  8
0-6
  6
CONTINUOUS
 62
     6
 10
12469.378190121601
 20
14381.689336999991
 30
0.0
 11
12421.08288512159
 21
14359.06442899998
 31
0.0
  0
LINE
  5
18090
  8
0-6
  6
CONTINUOUS
 62
     6
 10
12421.08288512159
 20
14359.06442899998
 30
0.0
 11
12513.103776121599
 21
14225.486515999981
 31
0.0
  0
LINE
  5
18091
  8
0-6
  6
CONTINUOUS
 62
     6
 10
12421.08288512159
 20
14359.06442899998
 30
0.0
 11
12469.378190121601
 21
14381.689336999991
 31
0.0
  0
LINE
  5
18092
  8
0-6
  6
CONTINUOUS
 62
     6
 10
11454.819491121591
 20
13183.487729999981
 30
0.0
 11
10592.23932012158
 21
13183.487729999981
 31
0.0
  0
LINE
  5
18093
  8
0-6
  6
CONTINUOUS
 62
     6
 10
11860.93158412161
 20
13847.01938899999
 30
0.0
 11
11454.819491121591
 21
13183.487729999981
 31
0.0
  0
LINE
  5
18094
  8
0-6
  6
CONTINUOUS
 62
     6
 10
13750.956048187451
 20
14232.77722799999
 30
0.0
 11
13728.50533818745
 21
14393.42307899998
 31
0.0
  0
LINE
  5
18095
  8
0-6
  6
CONTINUOUS
 62
     6
 10
13728.50533818745
 20
14393.42307899998
 30
0.0
 11
13801.842542187471
 21
14248.742045000001
 31
0.0
  0
LINE
  5
18096
  8
0-6
  6
CONTINUOUS
 62
     6
 10
13728.50533818745
 20
14393.42307899998
 30
0.0
 11
13750.956048187451
 21
14232.77722799999
 31
0.0
  0
LINE
  5
18097
  8
0-6
  6
CONTINUOUS
 62
     6
 10
13750.956048187451
 20
14232.77722799999
 30
0.0
 11
13801.842542187471
 21
14248.742045000001
 31
0.0
  0
LINE
  5
18098
  8
0-6
  6
CONTINUOUS
 62
     6
 10
13801.842542187471
 20
14248.742045000001
 30
0.0
 11
13728.50533818745
 21
14393.42307899998
 31
0.0
  0
LINE
  5
18099
  8
0-6
  6
CONTINUOUS
 62
     6
 10
13801.842542187471
 20
14248.742045000001
 30
0.0
 11
13750.956048187451
 21
14232.77722799999
 31
0.0
  0
LINE
  5
1809A
  8
0-6
  6
CONTINUOUS
 62
     6
 10
15443.139589187451
 20
12370.48672699998
 30
0.0
 11
14363.139985187459
 21
12370.48672699998
 31
0.0
  0
LINE
  5
1809B
  8
0-6
  6
CONTINUOUS
 62
     6
 10
13776.39979018747
 20
14240.75864699999
 30
0.0
 11
14363.139985187459
 21
12370.48672699998
 31
0.0
  0
LINE
  5
1809C
  8
0-6
  6
CONTINUOUS
 62
     6
 10
13527.519274187451
 20
18173.876500663911
 30
0.0
 11
13428.47901118745
 21
17953.082977663911
 31
0.0
  0
LINE
  5
1809D
  8
0-6
  6
CONTINUOUS
 62
     6
 10
7495.0053381874613
 20
19540.486120000001
 30
0.0
 11
7403.3179961874412
 21
19674.293657999991
 31
0.0
  0
LINE
  5
1809E
  8
0-6
  6
CONTINUOUS
 62
     6
 10
7364.8767351874549
 20
19637.326147999989
 30
0.0
 11
7495.0053381874613
 21
19540.486120000001
 31
0.0
  0
LINE
  5
1809F
  8
0-6
  6
CONTINUOUS
 62
     6
 10
7364.8767351874549
 20
19637.326147999989
 30
0.0
 11
7403.3179961874412
 21
19674.293657999991
 31
0.0
  0
LINE
  5
180A0
  8
0-6
  6
CONTINUOUS
 62
     6
 10
7384.0968701874463
 20
19655.808913000001
 30
0.0
 11
6867.1079821874519
 21
20160.487175999991
 31
0.0
  0
LINE
  5
180A1
  8
0-6
  6
CONTINUOUS
 62
     6
 10
6867.1079821874519
 20
20160.487175999991
 30
0.0
 11
5192.1086421874415
 21
20160.487175999991
 31
0.0
  0
LINE
  5
180A2
  8
2-0
  6
DASHED3
 62
     6
 10
13646.00533818745
 20
19278.987755999991
 30
0.0
 11
7577.5053381874577
 21
19278.987755999991
 31
0.0
  0
LINE
  5
180A3
  8
2-0
  6
DASHED3
 62
     6
 10
13688.504612187449
 20
19138.219243601601
 30
0.0
 11
13688.504612187449
 21
19363.988283999988
 31
0.0
  0
LINE
  5
180A4
  8
2-0
  6
DASHED3
 62
     6
 10
13646.00533818745
 20
19120.683720462501
 30
0.0
 11
13646.00533818745
 21
19363.988283999988
 31
0.0
  0
LINE
  5
180A5
  8
2-0
  6
DASHED3
 62
     6
 10
13688.504612187449
 20
19363.988283999988
 30
0.0
 11
7577.5053381874577
 21
19363.988283999988
 31
0.0
  0
LINE
  5
180A6
  8
2-0
  6
DASHED3
 62
     6
 10
10377.50533818746
 20
17766.865601417241
 30
0.0
 11
10377.50533818746
 21
19363.988283999988
 31
0.0
  0
LINE
  5
180A7
  8
2-0
  6
DASHED3
 62
     6
 10
10335.004084187451
 20
17749.329261315092
 30
0.0
 11
10335.004084187451
 21
19363.988283999988
 31
0.0
  0
LINE
  5
180A8
  8
2-0
  6
DASHED3
 62
     6
 10
13576.00461218744
 20
19317.986251999992
 30
0.0
 11
13019.5522525051
 21
18861.31682703465
 31
0.0
  0
LINE
  5
180A9
  8
2-0
  6
DASHED3
 62
     6
 10
10447.504084187451
 20
19317.986251999992
 30
0.0
 11
11679.83088929971
 21
18306.639428239541
 31
0.0
  0
LINE
  5
180AA
  8
2-0
  6
CENTER2
 62
     6
 10
10377.50533818746
 20
20560.488495000001
 30
0.0
 11
10377.50533818746
 21
19610.487834999989
 31
0.0
  0
LINE
  5
180AB
  8
2-0
  6
CENTER2
 62
     6
 10
14975.505443187451
 20
19317.986251999992
 30
0.0
 11
13329.00622218745
 21
19317.986251999992
 31
0.0
  0
LINE
  5
180AC
  8
0-8
  6
CONTINUOUS
 62
     6
 10
13646.00533818745
 20
20560.488495000001
 30
0.0
 11
13646.00533818745
 21
19610.487834999989
 31
0.0
  0
LINE
  5
180AD
  8
2-0
  6
CENTER2
 62
     6
 10
14975.505443187451
 20
16750.486251999992
 30
0.0
 11
7405.7058901874589
 21
16750.486251999992
 31
0.0
  0
LINE
  5
180AE
  8
2-0
  6
CENTER2
 62
     6
 10
14975.505443187451
 20
14182.986252000001
 30
0.0
 11
13329.00622218745
 21
14182.986252000001
 31
0.0
  0
ARC
  5
180AF
  8
0-1
  6
CONTINUOUS
 62
     3
 10
13663.006077187471
 20
19505.488230999988
 30
0.0
 40
5.0
 50
180.0
 51
270.00001499981897
  0
ARC
  5
180B0
  8
0-1
  6
CONTINUOUS
 62
     3
 10
13663.003375869979
 20
19535.48895392233
 30
0.0
 40
4.99729880777691
 50
89.969028448170619
 51
180.0128288362661
  0
ARC
  5
180B1
  8
0-1
  6
CONTINUOUS
 62
     3
 10
13726.508990663689
 20
19535.489047186122
 30
0.0
 40
4.9970736707893684
 50
359.98610123535252
 51
90.033554587709943
  0
CIRCLE
  5
180B2
  8
0-5
  6
CONTINUOUS
 62
     4
 10
10377.50533818746
 20
20760.487175999991
 30
0.0
 40
199.9999949999999
  0
CIRCLE
  5
180B3
  8
0-5
  6
CONTINUOUS
 62
     4
 10
13646.00533818745
 20
20760.487175999991
 30
0.0
 40
199.9999949999999
  0
CIRCLE
  5
180B4
  8
0-5
  6
CONTINUOUS
 62
     4
 10
15175.50511418745
 20
19317.986251999992
 30
0.0
 40
199.9999949999999
  0
CIRCLE
  5
180B5
  8
0-5
  6
CONTINUOUS
 62
     4
 10
15175.50511418745
 20
16750.486251999992
 30
0.0
 40
199.9999949999999
  0
CIRCLE
  5
180B6
  8
0-5
  6
CONTINUOUS
 62
     4
 10
15175.50511418745
 20
14182.986252000001
 30
0.0
 40
199.9999949999999
  0
TEXT
  5
180B7
  8
0-5
  6
CONTINUOUS
 62
     7
 10
10324.555877520759
 20
20671.27225300001
 30
0.0
 40
160.0
  1
2
 72
     4
 11
10377.8892108541
 21
20751.27225300001
 31
0.0
  0
TEXT
  5
180B8
  8
0-5
  6
CONTINUOUS
 62
     7
 10
13592.672004854119
 20
20680.487175999991
 30
0.0
 40
160.0
  1
3
 72
     4
 11
13646.00533818745
 21
20760.487175999991
 31
0.0
  0
TEXT
  5
180B9
  8
0-5
  6
CONTINUOUS
 62
     7
 10
15122.298315520769
 20
19238.397727999989
 30
0.0
 40
160.0
  1
C
 72
     4
 11
15175.631648854111
 21
19318.397727999989
 31
0.0
  0
TEXT
  5
180BA
  8
0-5
  6
CONTINUOUS
 62
     7
 10
15122.298315520769
 20
16670.898717999989
 30
0.0
 40
160.0
  1
B
 72
     4
 11
15175.631648854111
 21
16750.898717999989
 31
0.0
  0
TEXT
  5
180BB
  8
0-5
  6
CONTINUOUS
 62
     7
 10
15122.298315520769
 20
14103.397728
 30
0.0
 40
160.0
  1
A
 72
     4
 11
15175.631648854111
 21
14183.397728
 31
0.0
  0
TEXT
  5
180BC
  8
0-6
  6
CONTINUOUS
 62
     7
 10
10681.927301716731
 20
19850.486647999991
 30
0.0
 40
160.0
  1
屋根
 72
     4
 11
10852.5939683834
 21
19930.486647999991
 31
0.0
  0
TEXT
  5
180BD
  8
0-6
  6
CONTINUOUS
 62
     7
 10
12034.23653705007
 20
19850.486647999991
 30
0.0
 40
160.0
  1
桁（後）
 72
     4
 11
12354.23653705007
 21
19930.486647999991
 31
0.0
  0
TEXT
  5
180BE
  8
0-6
  6
CONTINUOUS
 62
     7
 10
11642.344367121599
 20
14627.31592099999
 30
0.0
 40
160.0
  1
桁（前）
 72
     4
 11
11962.344367121599
 21
14707.31592099999
 31
0.0
  0
TEXT
  5
180BF
  8
0-6
  6
CONTINUOUS
 62
     7
 10
10649.48688378825
 20
13263.487003999981
 30
0.0
 40
160.0
  1
鼻隠し前
 72
     4
 11
11012.153550454919
 21
13343.487003999981
 31
0.0
  0
TEXT
  5
180C0
  8
0-6
  6
CONTINUOUS
 62
     7
 10
14531.139325187451
 20
12450.48600099999
 30
0.0
 40
160.0
  1
ケラバ 左
 72
     4
 11
14947.139325187451
 21
12530.48600099999
 31
0.0
  0
TEXT
  5
180C1
  8
0-6
  6
CONTINUOUS
 62
     7
 10
13007.14541385409
 20
18033.08324166391
 30
0.0
 40
160.0
  1
上枠
 72
     4
 11
13177.81208052076
 21
18113.08324166391
 31
0.0
  0
TEXT
  5
180C2
  8
0-6
  6
CONTINUOUS
 62
     7
 10
5293.7743848541131
 20
20240.485459999989
 30
0.0
 40
160.0
  1
鼻隠しコーナー後
 72
     4
 11
6040.4410515207801
 21
20320.485459999989
 31
0.0
  0
LINE
  5
180C3
  8
2-0
  6
CENTER2
 62
     6
 10
7577.5053381874577
 20
20560.488495000001
 30
0.0
 11
7577.5053381874577
 21
19610.487834999989
 31
0.0
  0
CIRCLE
  5
180C4
  8
0-5
  6
CONTINUOUS
 62
     4
 10
7577.5053381874577
 20
20760.487175999991
 30
0.0
 40
199.9999949999999
  0
TEXT
  5
180C5
  8
0-5
  6
CONTINUOUS
 62
     7
 10
7550.8386715207916
 20
20680.487175999991
 30
0.0
 40
160.0
  1
1
 72
     4
 11
7577.5053381874577
 21
20760.487175999991
 31
0.0
  0
LINE
  5
180C6
  8
0-1
  6
CONTINUOUS
 62
     3
 10
7510.0051001874599
 20
16584.950482299071
 30
0.0
 11
7510.0051001874599
 21
19522.987175999991
 31
0.0
  0
LINE
  5
180C7
  8
0-1
  6
CONTINUOUS
 62
     3
 10
7510.0051001874599
 20
19522.987175999991
 30
0.0
 11
7492.0053381874604
 21
19522.987175999991
 31
0.0
  0
LINE
  5
180C8
  8
0-1
  6
CONTINUOUS
 62
     3
 10
7565.5058521874516
 20
19505.488230999988
 30
0.0
 11
7565.5058521874516
 21
19535.487834999982
 31
0.0
  0
LINE
  5
180C9
  8
0-1
  6
CONTINUOUS
 62
     3
 10
7510.0051001874599
 20
19500.485987999989
 30
0.0
 11
7560.5045981874491
 21
19500.485987999989
 31
0.0
  0
LINE
  5
180CA
  8
0-1
  6
CONTINUOUS
 62
     3
 10
7492.0053381874604
 20
19535.487834999982
 30
0.0
 11
7492.0053381874604
 21
19500.485987999989
 31
0.0
  0
LINE
  5
180CB
  8
0-1
  6
CONTINUOUS
 62
     3
 10
7560.5045981874491
 20
19540.486120000001
 30
0.0
 11
7497.0065911874581
 21
19540.486120000001
 31
0.0
  0
ARC
  5
180CC
  8
0-1
  6
CONTINUOUS
 62
     3
 10
7497.0065911874581
 20
19535.487834999982
 30
0.0
 40
5.0
 50
90.0
 51
180.0
  0
ARC
  5
180CD
  8
0-1
  6
CONTINUOUS
 62
     3
 10
7560.5045981874491
 20
19535.487834999982
 30
0.0
 40
5.0
 50
0.000000000000007
 51
90.0
  0
ARC
  5
180CE
  8
0-1
  6
CONTINUOUS
 62
     3
 10
7560.5045981874491
 20
19505.488230999988
 30
0.0
 40
5.0
 50
270.00001499981897
 51
0.000000000000007
  0
LINE
  5
180CF
  8
0-1
  6
CONTINUOUS
 62
     3
 10
10377.50533818746
 20
14146.48689899999
 30
0.0
 11
10377.50533818746
 21
13990.486977999981
 31
0.0
  0
LINE
  5
180D0
  8
0-1
  6
CONTINUOUS
 62
     3
 10
13918.33422914137
 20
19233.434539401191
 30
0.0
 11
9968.7068848428098
 21
17598.192255659411
 31
0.0
  0
LINE
  5
180D1
  8
0-1
  6
CONTINUOUS
 62
     3
 10
9044.3042791971748
 20
17216.776721804479
 30
0.0
 11
7212.419741256329
 21
16460.927252393642
 31
0.0
  0
LINE
  5
180D2
  8
0-1
  6
CONTINUOUS
 62
     3
 10
7627.5049691874528
 20
14022.486885
 30
0.0
 11
7627.5049691874528
 21
16633.432391858081
 31
0.0
  0
LINE
  5
180D3
  8
0-1
  6
CONTINUOUS
 62
     3
 10
7492.0053381874604
 20
13990.486977999981
 30
0.0
 11
7492.0053381874604
 21
16577.523643830031
 31
0.0
  0
LINE
  5
180D4
  8
0-1
  6
CONTINUOUS
 62
     3
 10
7577.5053381874577
 20
14146.48689899999
 30
0.0
 11
7577.5053381874577
 21
16611.564341694098
 31
0.0
  0
LINE
  5
180D5
  8
0-1
  6
CONTINUOUS
 62
     3
 10
7535.0040841874497
 20
14146.48689899999
 30
0.0
 11
7535.0040841874497
 21
16594.028001591942
 31
0.0
  0
LINE
  5
180D6
  8
0-1
  6
CONTINUOUS
 62
     3
 10
7627.5049691874528
 20
16633.432391858081
 30
0.0
 11
7627.5049691874528
 21
19482.48622599999
 31
0.0
  0
LINE
  5
180D7
  8
0-1
  6
CONTINUOUS
 62
     3
 10
7492.0053381874604
 20
16577.523643830031
 30
0.0
 11
7492.0053381874604
 21
19522.987175999991
 31
0.0
  0
LINE
  5
180D8
  8
2-0
  6
DASHED3
 62
     6
 10
7577.5053381874577
 20
16611.564341694098
 30
0.0
 11
7577.5053381874613
 21
19482.48622599999
 31
0.0
  0
LINE
  5
180D9
  8
2-0
  6
DASHED3
 62
     6
 10
7535.0040841874497
 20
16594.028001591942
 30
0.0
 11
7535.0040841874497
 21
19482.48622599999
 31
0.0
  0
LINE
  5
180DA
  8
0-1
  6
CONTINUOUS
 62
     3
 10
10525.003227187441
 20
17827.724350334451
 30
0.0
 11
10525.003227187441
 21
19482.48622599999
 31
0.0
  0
LINE
  5
180DB
  8
0-1
  6
CONTINUOUS
 62
     3
 10
10488.003055187441
 20
17812.45779843389
 30
0.0
 11
10488.003055187441
 21
19482.48622599999
 31
0.0
  0
LINE
  5
180DC
  8
0-1
  6
CONTINUOUS
 62
     3
 10
10325.002567187439
 20
17745.202559461781
 30
0.0
 11
10325.002567187439
 21
19482.48622599999
 31
0.0
  0
LINE
  5
180DD
  8
0-1
  6
CONTINUOUS
 62
     3
 10
10288.002395187419
 20
17729.936007561209
 30
0.0
 11
10288.002395187419
 21
19482.48622599999
 31
0.0
  0
LINE
  5
180DE
  8
0-1
  6
CONTINUOUS
 62
     3
 10
10125.001907187419
 20
17662.6807685891
 30
0.0
 11
10125.001907187419
 21
19482.48622599999
 31
0.0
  0
LINE
  5
180DF
  8
0-1
  6
CONTINUOUS
 62
     3
 10
10088.00173518741
 20
17647.41421668855
 30
0.0
 11
10088.00173518741
 21
19482.48622599999
 31
0.0
  0
LINE
  5
180E0
  8
0-1
  6
CONTINUOUS
 62
     3
 10
9925.0012471874179
 20
17704.11768801323
 30
0.0
 11
9925.0012471874179
 21
19482.48622599999
 31
0.0
  0
LINE
  5
180E1
  8
0-1
  6
CONTINUOUS
 62
     3
 10
9888.0010751874142
 20
17793.791684927972
 30
0.0
 11
9888.0010751874142
 21
19482.48622599999
 31
0.0
  0
LINE
  5
180E2
  8
0-1
  6
CONTINUOUS
 62
     3
 10
9725.0005871874091
 20
17658.71409394763
 30
0.0
 11
9725.0005871874091
 21
19482.48622599999
 31
0.0
  0
LINE
  5
180E3
  8
0-1
  6
CONTINUOUS
 62
     3
 10
9688.0004151874036
 20
17616.17085355876
 30
0.0
 11
9688.0004151874036
 21
19482.48622599999
 31
0.0
  0
LINE
  5
180E4
  8
0-1
  6
CONTINUOUS
 62
     3
 10
9524.9999271873985
 20
17428.750942524639
 30
0.0
 11
9524.9999271873985
 21
19482.48622599999
 31
0.0
  0
LINE
  5
180E5
  8
0-1
  6
CONTINUOUS
 62
     3
 10
9487.9997551873839
 20
17386.207702135762
 30
0.0
 11
9487.9997551873839
 21
19482.48622599999
 31
0.0
  0
LINE
  5
180E6
  8
0-1
  6
CONTINUOUS
 62
     3
 10
9324.9992671873842
 20
17198.787791101659
 30
0.0
 11
9324.9992671873842
 21
19482.48622599999
 31
0.0
  0
LINE
  5
180E7
  8
0-1
  6
CONTINUOUS
 62
     3
 10
9287.999095187386
 20
17156.244550712781
 30
0.0
 11
9287.999095187386
 21
19482.48622599999
 31
0.0
  0
LINE
  5
180E8
  8
0-1
  6
CONTINUOUS
 62
     3
 10
9124.9986071873791
 20
17021.195778491841
 30
0.0
 11
9124.9986071873791
 21
19482.48622599999
 31
0.0
  0
LINE
  5
180E9
  8
0-1
  6
CONTINUOUS
 62
     3
 10
9087.9984351873718
 20
17110.874058523728
 30
0.0
 11
9087.9984351873718
 21
19482.48622599999
 31
0.0
  0
LINE
  5
180EA
  8
0-1
  6
CONTINUOUS
 62
     3
 10
8924.9979471873758
 20
17167.550023353091
 30
0.0
 11
8924.9979471873758
 21
19482.48622599999
 31
0.0
  0
LINE
  5
180EB
  8
0-1
  6
CONTINUOUS
 62
     3
 10
8887.9977751873575
 20
17152.283471452531
 30
0.0
 11
8887.9977751873575
 21
19482.48622599999
 31
0.0
  0
LINE
  5
180EC
  8
0-1
  6
CONTINUOUS
 62
     3
 10
8724.9972871873615
 20
17085.028232480421
 30
0.0
 11
8724.9972871873615
 21
19482.48622599999
 31
0.0
  0
LINE
  5
180ED
  8
0-1
  6
CONTINUOUS
 62
     3
 10
8687.9971151873542
 20
17069.761680579861
 30
0.0
 11
8687.9971151873542
 21
19482.48622599999
 31
0.0
  0
LINE
  5
180EE
  8
0-1
  6
CONTINUOUS
 62
     3
 10
8524.9966271873473
 20
17002.50644160774
 30
0.0
 11
8524.9966271873473
 21
19482.48622599999
 31
0.0
  0
LINE
  5
180EF
  8
0-1
  6
CONTINUOUS
 62
     3
 10
8487.9964551873491
 20
16987.239889707191
 30
0.0
 11
8487.9964551873491
 21
19482.48622599999
 31
0.0
  0
LINE
  5
180F0
  8
0-1
  6
CONTINUOUS
 62
     3
 10
8324.9959671873439
 20
16919.984650735081
 30
0.0
 11
8324.9959671873439
 21
19482.48622599999
 31
0.0
  0
LINE
  5
180F1
  8
0-1
  6
CONTINUOUS
 62
     3
 10
8287.9957951873366
 20
16904.718098834521
 30
0.0
 11
8287.9957951873366
 21
19482.48622599999
 31
0.0
  0
LINE
  5
180F2
  8
0-1
  6
CONTINUOUS
 62
     3
 10
10318.00496918745
 20
14182.986252000001
 30
0.0
 11
7727.5899976008768
 21
16673.490411724611
 31
0.0
  0
LINE
  5
180F3
  8
0-1
  6
CONTINUOUS
 62
     3
 10
7647.5053381874586
 20
14182.986252000001
 30
0.0
 11
10318.00496918745
 21
16750.486251999992
 31
0.0
  0
LINE
  5
180F4
  8
0-6
  6
CONTINUOUS
 62
     6
 10
7630.5049691874528
 20
14544.92553117764
 30
0.0
 11
8589.0613495068901
 21
13144.44156934672
 31
0.0
  0
LINE
  5
180F5
  8
2-0
  6
DASHED3
 62
     6
 10
10318.00496918745
 20
19317.986251999992
 30
0.0
 11
7647.5053381874586
 21
16750.486251999992
 31
0.0
  0
LINE
  5
180F6
  8
2-0
  6
DASHED3
 62
     6
 10
7647.5053381874586
 20
19317.986251999992
 30
0.0
 11
9564.8601529418083
 21
17474.58270693439
 31
0.0
  0
LINE
  5
180F7
  8
0-1
  6
CONTINUOUS
 62
     3
 10
9564.8601529418083
 20
17474.58270693439
 30
0.0
 11
10318.00496918745
 21
16750.486251999992
 31
0.0
  0
LINE
  5
180F8
  8
0-1
  6
CONTINUOUS
 62
     3
 10
9968.707422602587
 20
17598.190952339261
 30
0.0
 11
9873.3534022790645
 21
17829.291935445479
 31
0.0
  0
LINE
  5
180F9
  8
0-1
  6
CONTINUOUS
 62
     3
 10
9139.6538700958481
 20
16985.675436287849
 30
0.0
 11
9044.3032204183328
 21
17216.77928799433
 31
0.0
  0
LINE
  5
180FA
  8
0-1
  6
CONTINUOUS
 62
     3
 10
9139.6538700958481
 20
16985.675436287849
 30
0.0
 11
9873.3534022790645
 21
17829.291935445479
 31
0.0
  0
LINE
  5
180FB
  8
0-6
  6
CONTINUOUS
 62
     6
 10
12392.930126336931
 20
16300.946075247261
 30
0.0
 11
11512.93118233691
 21
16300.946075247261
 31
0.0
  0
LINE
  5
180FC
  8
0-6
  6
CONTINUOUS
 62
     6
 10
12570.692263685311
 20
16130.928947576909
 30
0.0
 11
12392.930126336931
 21
16300.946075247261
 31
0.0
  0
LINE
  5
180FD
  8
0-6
  6
CONTINUOUS
 62
     6
 10
12686.3199036853
 20
16020.33918357692
 30
0.0
 11
12589.1225716853
 21
16150.201540576931
 31
0.0
  0
LINE
  5
180FE
  8
0-6
  6
CONTINUOUS
 62
     6
 10
12552.26096668532
 20
16111.65635457693
 30
0.0
 11
12686.3199036853
 21
16020.33918357692
 31
0.0
  0
LINE
  5
180FF
  8
0-6
  6
CONTINUOUS
 62
     6
 10
12552.26096668532
 20
16111.65635457693
 30
0.0
 11
12589.1225716853
 21
16150.201540576931
 31
0.0
  0
TEXT
  5
18100
  8
0-6
  6
CONTINUOUS
 62
     7
 10
11587.59553900358
 20
16380.94633924725
 30
0.0
 40
160.0
  1
ブレース
 72
     4
 11
11950.262205670249
 21
16466.279672580589
 31
0.0
  0
LINE
  5
18101
  8
0-6
  6
CONTINUOUS
 62
     6
 10
11305.73297132484
 20
16805.488732999998
 30
0.0
 11
11425.03058965719
 21
17121.081071000011
 31
0.0
  0
LINE
  5
18102
  8
0-6
  6
CONTINUOUS
 62
     6
 10
12225.60135065718
 20
17121.081071000011
 30
0.0
 11
11425.03058965719
 21
17121.081071000011
 31
0.0
  0
TEXT
  5
18103
  8
0-6
  6
CONTINUOUS
 62
     7
 10
11505.0309856572
 20
17201.08133500001
 30
0.0
 40
160.0
  1
桁（中）
 72
     4
 11
11825.0309856572
 21
17281.08133500001
 31
0.0
  0
LINE
  5
18104
  8
0-6
  6
CONTINUOUS
 62
     6
 10
9642.9972280219063
 20
14512.624114070441
 30
0.0
 11
8762.9982840218909
 21
14512.624114070441
 31
0.0
  0
LINE
  5
18105
  8
0-6
  6
CONTINUOUS
 62
     6
 10
8430.4345368380436
 20
14935.7183228832
 30
0.0
 11
8762.9982840218909
 21
14512.624114070441
 31
0.0
  0
TEXT
  5
18106
  8
0-6
  6
CONTINUOUS
 62
     7
 10
8837.6626406885589
 20
14592.624378070461
 30
0.0
 40
160.0
  1
ブレース
 72
     4
 11
9200.329307355225
 21
14677.957711403789
 31
0.0
  0
LINE
  5
18107
  8
0-6
  6
CONTINUOUS
 62
     6
 10
9392.6239595770039
 20
16174.31538060039
 30
0.0
 11
8599.7730221543097
 21
16174.31538060039
 31
0.0
  0
TEXT
  5
18108
  8
0-6
  6
CONTINUOUS
 62
     7
 10
8702.0042007234588
 20
16254.31564460039
 30
0.0
 40
160.0
  1
桁（P）
 72
     4
 11
9006.0042007234588
 21
16334.31564460039
 31
0.0
  0
LINE
  5
18109
  8
0-6
  6
CONTINUOUS
 62
     6
 10
9392.6239595770039
 20
16174.31538060039
 30
0.0
 11
9707.9152101915752
 21
16705.485856999989
 31
0.0
  0
LINE
  5
1810A
  8
2-0
  6
DASHED3
 62
     6
 10
7727.5899976008768
 20
16673.490411724611
 30
0.0
 11
7647.5053381874586
 21
16750.486251999992
 31
0.0
  0
LINE
  5
1810B
  8
SUNPOU
  6
CONTINUOUS
 10
14575.50511418745
 20
19540.484140500001
 30
0.0
 11
14575.50511418745
 21
20337.45140827847
 31
0.0
  0
LINE
  5
1810C
  8
SUNPOU
  6
CONTINUOUS
 10
14575.505114187459
 20
13249.17438784781
 30
0.0
 11
14575.505114187459
 21
13990.486977999981
 31
0.0
  0
LINE
  5
1810D
  8
0-1
  6
CONTINUOUS
 62
     3
 10
8124.9953071873379
 20
16837.46285986244
 30
0.0
 11
8124.9953071873379
 21
19482.48622599999
 31
0.0
  0
LINE
  5
1810E
  8
0-1
  6
CONTINUOUS
 62
     3
 10
8087.9951351873324
 20
16822.19630796188
 30
0.0
 11
8087.9951351873324
 21
19482.48622599999
 31
0.0
  0
LINE
  5
1810F
  8
0-1
  6
CONTINUOUS
 62
     3
 10
7924.9946471873318
 20
16754.941068989781
 30
0.0
 11
7924.9946471873254
 21
19482.48622599999
 31
0.0
  0
LINE
  5
18110
  8
0-1
  6
CONTINUOUS
 62
     3
 10
7887.994475187319
 20
16739.67451708921
 30
0.0
 11
7887.994475187319
 21
19482.48622599999
 31
0.0
  0
LINE
  5
18111
  8
0-1
  6
CONTINUOUS
 62
     3
 10
7724.9939871873221
 20
16672.4192781171
 30
0.0
 11
7724.9939871873221
 21
19482.48622599999
 31
0.0
  0
LINE
  5
18112
  8
0-1
  6
CONTINUOUS
 62
     3
 10
7687.993815187313
 20
16657.152726216529
 30
0.0
 11
7687.993815187313
 21
19482.48622599999
 31
0.0
  0
LINE
  5
18113
  8
0-1
  6
CONTINUOUS
 62
     3
 10
12325.004216187461
 20
18573.756959211689
 30
0.0
 11
12325.00421618745
 21
19482.48622599999
 31
0.0
  0
LINE
  5
18114
  8
0-1
  6
CONTINUOUS
 62
     3
 10
12288.00503518744
 20
18558.438393696299
 30
0.0
 11
12288.00503518744
 21
19482.48622599999
 31
0.0
  0
LINE
  5
18115
  8
0-1
  6
CONTINUOUS
 62
     3
 10
12125.00355718745
 20
18490.95179663222
 30
0.0
 11
12125.00355718745
 21
19482.48622599999
 31
0.0
  0
LINE
  5
18116
  8
0-1
  6
CONTINUOUS
 62
     3
 10
12088.00338518745
 20
18475.632820818599
 30
0.0
 11
12088.00338518745
 21
19482.48622599999
 31
0.0
  0
LINE
  5
18117
  8
0-1
  6
CONTINUOUS
 62
     3
 10
11925.003886187449
 20
18408.1470431089
 30
0.0
 11
11925.003886187449
 21
19482.48622599999
 31
0.0
  0
LINE
  5
18118
  8
0-1
  6
CONTINUOUS
 62
     3
 10
11888.002725187451
 20
18392.827657825081
 30
0.0
 11
11888.002725187451
 21
19482.48622599999
 31
0.0
  0
LINE
  5
18119
  8
0-1
  6
CONTINUOUS
 62
     3
 10
7568.5048631874597
 20
19530.489550999991
 30
0.0
 11
13655.005813187479
 21
19530.489550999991
 31
0.0
  0
LINE
  5
1811A
  8
0-1
  6
CONTINUOUS
 62
     3
 10
7513.0051001874599
 20
19482.48622599999
 30
0.0
 11
13710.50656518747
 21
19482.48622599999
 31
0.0
  0
LINE
  5
1811B
  8
0-6
  6
CONTINUOUS
 62
     6
 10
11466.43180655843
 20
19672.892158999992
 30
0.0
 11
11423.129837558399
 21
19647.890838999989
 31
0.0
  0
LINE
  5
1811C
  8
0-6
  6
CONTINUOUS
 62
     6
 10
11466.43180655843
 20
19672.892158999992
 30
0.0
 11
11519.779832558441
 21
19530.489550999981
 31
0.0
  0
LINE
  5
1811D
  8
0-6
  6
CONTINUOUS
 62
     6
 10
11423.129837558399
 20
19647.890838999989
 30
0.0
 11
11466.43180655843
 21
19672.892158999992
 31
0.0
  0
LINE
  5
1811E
  8
0-6
  6
CONTINUOUS
 62
     6
 10
11519.779832558441
 20
19530.489550999981
 30
0.0
 11
11423.129837558399
 21
19647.890838999989
 31
0.0
  0
LINE
  5
1811F
  8
0-6
  6
CONTINUOUS
 62
     6
 10
11519.779832558441
 20
19530.489550999981
 30
0.0
 11
11466.43180655843
 21
19672.892158999992
 31
0.0
  0
LINE
  5
18120
  8
0-6
  6
CONTINUOUS
 62
     6
 10
11423.129837558399
 20
19647.890838999989
 30
0.0
 11
11519.779832558441
 21
19530.489550999981
 31
0.0
  0
LINE
  5
18121
  8
0-6
  6
CONTINUOUS
 62
     6
 10
11444.78181155843
 20
19660.393478999991
 30
0.0
 11
11219.195994888731
 21
20084.0633187311
 31
0.0
  0
TEXT
  5
18122
  8
0-6
  6
CONTINUOUS
 62
     7
 10
11045.52479155842
 20
20640.488758999982
 30
0.0
 40
160.0
  1
鼻隠し後
 72
     4
 11
11408.19145822509
 21
20720.488758999982
 31
0.0
  0
LINE
  5
18123
  8
0-6
  6
CONTINUOUS
 62
     6
 10
10965.52254755843
 20
20560.488494999991
 30
0.0
 11
11807.962106558431
 21
20560.488494999991
 31
0.0
  0
LINE
  5
18124
  8
0-6
  6
CONTINUOUS
 62
     6
 10
11151.16213583623
 20
20211.8379976834
 30
0.0
 11
10965.52254755843
 21
20560.488494999991
 31
0.0
  0
LINE
  5
18125
  8
0-6
  6
CONTINUOUS
 62
     6
 10
8384.2239793685294
 20
19363.988283999988
 30
0.0
 11
8445.5296693685377
 21
19514.164461
 31
0.0
  0
LINE
  5
18126
  8
0-6
  6
CONTINUOUS
 62
     6
 10
8384.2239793685294
 20
19363.988283999988
 30
0.0
 11
8490.9190413685337
 21
19486.164171
 31
0.0
  0
LINE
  5
18127
  8
0-6
  6
CONTINUOUS
 62
     6
 10
8490.9190413685337
 20
19486.164171
 30
0.0
 11
8445.5296693685377
 21
19514.164461
 31
0.0
  0
LINE
  5
18128
  8
0-6
  6
CONTINUOUS
 62
     6
 10
8445.5296693685377
 20
19514.164461
 30
0.0
 11
8384.2239793685294
 21
19363.988283999988
 31
0.0
  0
LINE
  5
18129
  8
0-6
  6
CONTINUOUS
 62
     6
 10
8445.5296693685377
 20
19514.164461
 30
0.0
 11
8490.9190413685337
 21
19486.164171
 31
0.0
  0
LINE
  5
1812A
  8
0-6
  6
CONTINUOUS
 62
     6
 10
8384.2239793685294
 20
19363.988283999988
 30
0.0
 11
8678.1518063685362
 21
19770.486383999989
 31
0.0
  0
LINE
  5
1812B
  8
0-6
  6
CONTINUOUS
 62
     6
 10
9478.1534553685397
 20
19770.486383999989
 30
0.0
 11
8678.1518063685362
 21
19770.486383999989
 31
0.0
  0
TEXT
  5
1812C
  8
0-6
  6
CONTINUOUS
 62
     7
 10
8774.1522013685244
 20
19850.486647999991
 30
0.0
 40
160.0
  1
桁（P）
 72
     4
 11
9078.1522013685244
 21
19930.486647999991
 31
0.0
  0
LINE
  5
1812D
  8
0-6
  6
CONTINUOUS
 62
     6
 10
10497.5980100709
 20
13459.3165016004
 30
0.0
 11
9704.7470726482097
 21
13459.3165016004
 31
0.0
  0
TEXT
  5
1812E
  8
0-6
  6
CONTINUOUS
 62
     7
 10
9710.9782512173497
 20
13539.316765600401
 30
0.0
 40
160.0
  1
桁前（P）
 72
     4
 11
10110.97825121735
 21
13619.316765600401
 31
0.0
  0
LINE
  5
1812F
  8
0-6
  6
CONTINUOUS
 62
     6
 10
9704.7470726482097
 20
13459.3165016004
 30
0.0
 11
9389.4558220336367
 21
13990.486978000001
 31
0.0
  0
TEXT
  5
18130
  8
0-6
  6
CONTINUOUS
 62
     7
 10
8653.2590376889293
 20
13224.44084334672
 30
0.0
 40
160.0
  1
梁（P）前
 72
     4
 11
9095.9257043555954
 21
13304.44084334672
 31
0.0
  0
LINE
  5
18131
  8
0-6
  6
CONTINUOUS
 62
     6
 10
8589.0613495068901
 20
13144.44156934672
 30
0.0
 11
9604.0515188317386
 21
13144.44156934672
 31
0.0
  0
LINE
  5
18143
  8
0-1
  6
CONTINUOUS
 62
     3
 10
12525.003886187449
 20
18656.561712321
 30
0.0
 11
12525.00388618744
 21
19482.48622599999
 31
0.0
  0
LINE
  5
18144
  8
0-1
  6
CONTINUOUS
 62
     3
 10
12488.002725187451
 20
18641.24232703722
 30
0.0
 11
12488.002725187451
 21
19482.48622599999
 31
0.0
  0
LINE
  5
18145
  8
0-1
  6
CONTINUOUS
 62
     3
 10
13125.003886187449
 20
18904.976381533121
 30
0.0
 11
13125.00388618744
 21
19482.48622599999
 31
0.0
  0
LINE
  5
18146
  8
0-1
  6
CONTINUOUS
 62
     3
 10
13088.00470518745
 20
18889.657816017741
 30
0.0
 11
13088.00470518745
 21
19482.48622599999
 31
0.0
  0
LINE
  5
18147
  8
0-1
  6
CONTINUOUS
 62
     3
 10
12925.00322718745
 20
18822.171218953641
 30
0.0
 11
12925.00322718745
 21
19482.48622599999
 31
0.0
  0
LINE
  5
18148
  8
0-1
  6
CONTINUOUS
 62
     3
 10
12888.003055187461
 20
18806.852243140031
 30
0.0
 11
12888.003055187461
 21
19482.48622599999
 31
0.0
  0
LINE
  5
18149
  8
0-1
  6
CONTINUOUS
 62
     3
 10
12725.00355618745
 20
18739.366465430321
 30
0.0
 11
12725.00355618745
 21
19482.48622599999
 31
0.0
  0
LINE
  5
1814A
  8
0-1
  6
CONTINUOUS
 62
     3
 10
12688.002395187459
 20
18724.047080146509
 30
0.0
 11
12688.002395187459
 21
19482.48622599999
 31
0.0
  0
LINE
  5
1814B
  8
0-1
  6
CONTINUOUS
 62
     3
 10
13525.004216187461
 20
19070.586297635939
 30
0.0
 11
13525.004216187461
 21
19482.48622599999
 31
0.0
  0
LINE
  5
1814C
  8
0-1
  6
CONTINUOUS
 62
     3
 10
13488.005035187451
 20
19055.267732120541
 30
0.0
 11
13488.005035187451
 21
19482.48622599999
 31
0.0
  0
LINE
  5
1814D
  8
0-1
  6
CONTINUOUS
 62
     3
 10
13325.00355718745
 20
18987.781135056441
 30
0.0
 11
13325.00355718745
 21
19482.48622599999
 31
0.0
  0
LINE
  5
1814E
  8
0-1
  6
CONTINUOUS
 62
     3
 10
13288.00338518745
 20
18972.462159242841
 30
0.0
 11
13288.00338518745
 21
19482.48622599999
 31
0.0
  0
LINE
  5
18151
  8
WAKUSEN-01
 10
868.00000000000193
 20
22484.000000000011
 30
0.0
 11
32764.000000000011
 21
22484.000000000011
 31
0.0
  0
LINE
  5
18154
  8
WAKUSEN-01
 10
20560.0
 20
2484.0
 30
0.0
 11
32764.0
 21
2484.0
 31
0.0
  0
LINE
  5
18155
  8
WAKUSEN-02
 10
20560.0
 20
1655.9999999999991
 30
0.0
 11
26868.0
 21
1655.9999999999991
 31
0.0
  0
TEXT
  5
18156
  8
WAKUMOJI-01
 10
20670.260259962761
 20
2125.9030093393221
 30
0.0
 40
240.0
  1
名　称
  7
WAKUMOJI
  0
TEXT
  5
18157
  8
WAKUMOJI-01
 10
20656.505485091919
 20
1319.12897497982
 30
0.0
 40
240.0
  1
機種名
  7
WAKUMOJI
  0
LINE
  5
1815A
  8
YODOROGO
 10
29977.604341291921
 20
1995.7494964292871
 30
0.0
 11
29829.604341291921
 21
1995.7494964292871
 31
0.0
1001
AUTOCAD_POSTSCRIPT_FIGURE
1002
{
1000
PSFILL
1000
Grayscale
1000
Grayscale
1070
    25
1002
}
  0
LINE
  5
1815B
  8
YODOROGO
 10
29829.604341291921
 20
1947.749496429288
 30
0.0
 11
29977.604341291921
 21
1947.749496429288
 31
0.0
1001
AUTOCAD_POSTSCRIPT_FIGURE
1002
{
1000
PSFILL
1000
Grayscale
1000
Grayscale
1070
    25
1002
}
  0
LINE
  5
1815C
  8
YODOROGO
 10
29977.604341291921
 20
1907.7494964292871
 30
0.0
 11
29829.604341291921
 21
1907.7494964292871
 31
0.0
1001
AUTOCAD_POSTSCRIPT_FIGURE
1002
{
1000
PSFILL
1000
Grayscale
1000
Grayscale
1070
    25
1002
}
  0
LINE
  5
1815D
  8
YODOROGO
 10
29829.604341291921
 20
1859.749496429288
 30
0.0
 11
29977.604341291921
 21
1859.749496429288
 31
0.0
1001
AUTOCAD_POSTSCRIPT_FIGURE
1002
{
1000
PSFILL
1000
Grayscale
1000
Grayscale
1070
    25
1002
}
  0
LINE
  5
1815E
  8
YODOROGO
 10
29977.604341291921
 20
1819.7494964292871
 30
0.0
 11
29829.604341291921
 21
1819.7494964292871
 31
0.0
1001
AUTOCAD_POSTSCRIPT_FIGURE
1002
{
1000
PSFILL
1000
Grayscale
1000
Grayscale
1070
    25
1002
}
  0
LINE
  5
1815F
  8
YODOROGO
 10
29921.60434129191
 20
1707.749496429288
 30
0.0
 11
29977.604341291921
 21
1707.749496429288
 31
0.0
1001
AUTOCAD_POSTSCRIPT_FIGURE
1002
{
1000
PSFILL
1000
Grayscale
1000
Grayscale
1070
    25
1002
}
  0
LINE
  5
18160
  8
YODOROGO
 10
29737.604341291921
 20
1427.749496429288
 30
0.0
 11
29937.604341291932
 21
1481.3393349155101
 31
0.0
  0
LINE
  5
18161
  8
YODOROGO
 10
29949.60434129191
 20
1707.749496429288
 30
0.0
 11
29885.604341291921
 21
1707.749496429288
 31
0.0
  0
ARC
  5
18162
  8
YODOROGO
 10
30254.34774982791
 20
1807.864609233261
 30
0.0
 40
381.88686420564721
 50
213.96111677667841
 51
264.47872074317792
  0
ARC
  5
18163
  8
YODOROGO
 10
30254.347749827921
 20
1807.864609233302
 30
0.0
 40
381.8868642056816
 50
208.14114420486601
 51
212.9210361185994
  0
LINE
  5
18164
  8
YODOROGO
 10
29771.409872985321
 20
1556.807661346234
 30
0.0
 11
29933.78413250855
 21
1600.3157130570869
 31
0.0
  0
LINE
  5
18165
  8
YODOROGO
 10
29737.604341291921
 20
1427.749496429288
 30
0.0
 11
29937.604341291932
 21
1481.3393349155101
 31
0.0
  0
LINE
  5
18166
  8
YODOROGO
 10
29949.60434129191
 20
1707.749496429288
 30
0.0
 11
29885.604341291921
 21
1707.749496429288
 31
0.0
  0
ARC
  5
18167
  8
YODOROGO
 10
30254.34774982791
 20
1807.864609233261
 30
0.0
 40
381.88686420564721
 50
213.96111677667841
 51
264.47872074317792
  0
LINE
  5
18168
  8
YODOROGO
 10
28793.60434129191
 20
1819.7494964292871
 30
0.0
 11
28433.60434129191
 21
1819.7494964292871
 31
0.0
  0
LINE
  5
18169
  8
YODOROGO
 10
28513.60434129191
 20
1427.749496429288
 30
0.0
 11
28793.60434129191
 21
1427.749496429288
 31
0.0
  0
LINE
  5
1816A
  8
YODOROGO
 10
28729.604341291921
 20
1923.7494964292871
 30
0.0
 11
28497.60434129191
 21
1923.7494964292871
 31
0.0
  0
LINE
  5
1816B
  8
YODOROGO
 10
28585.604341291921
 20
2027.749496429288
 30
0.0
 11
28657.604341291921
 21
2027.749496429288
 31
0.0
  0
LINE
  5
1816C
  8
YODOROGO
 10
28433.60434129191
 20
1707.749496429288
 30
0.0
 11
28433.60434129191
 21
1507.749496429288
 31
0.0
  0
LINE
  5
1816D
  8
YODOROGO
 10
28497.60434129191
 20
1563.7494964292871
 30
0.0
 11
28497.60434129191
 21
1707.749496429288
 31
0.0
  0
LINE
  5
1816E
  8
YODOROGO
 10
28585.604341291921
 20
1747.74949642929
 30
0.0
 11
28585.604341291921
 21
1547.749496429288
 31
0.0
  0
LINE
  5
1816F
  8
YODOROGO
 10
27857.604341291921
 20
1683.749496429288
 30
0.0
 11
27777.604341291921
 21
1619.9724140445701
 31
0.0
  0
LINE
  5
18170
  8
YODOROGO
 10
27937.604341291921
 20
1619.9724140445701
 30
0.0
 11
27857.604341291921
 21
1683.749496429288
 31
0.0
  0
LINE
  5
18171
  8
YODOROGO
 10
27857.604341291921
 20
1707.749496429288
 30
0.0
 11
27937.604341291921
 21
1643.9724140445701
 31
0.0
  0
LINE
  5
18172
  8
YODOROGO
 10
27777.604341291921
 20
1643.9724140445701
 30
0.0
 11
27857.604341291921
 21
1707.749496429288
 31
0.0
  0
LINE
  5
18173
  8
YODOROGO
 10
28040.913204016892
 20
1659.749496429288
 30
0.0
 11
28040.913204016892
 21
1683.7494964292871
 31
0.0
  0
LINE
  5
18174
  8
YODOROGO
 10
27977.604341291921
 20
1683.7494964292871
 30
0.0
 11
27977.604341291921
 21
1667.749496429285
 31
0.0
  0
LINE
  5
18175
  8
YODOROGO
 10
28098.135520230931
 20
1707.749496429288
 30
0.0
 11
28098.135520230931
 21
1655.5036372746561
 31
0.0
1001
AUTOCAD_POSTSCRIPT_FIGURE
1002
{
1000
PSFILL
1000
Grayscale
1000
Grayscale
1070
   100
1002
}
  0
LINE
  5
18176
  8
YODOROGO
 10
28082.135520230921
 20
1655.5036372746561
 30
0.0
 11
28082.135520230921
 21
1707.749496429288
 31
0.0
1001
AUTOCAD_POSTSCRIPT_FIGURE
1002
{
1000
PSFILL
1000
Grayscale
1000
Grayscale
1070
   100
1002
}
  0
LINE
  5
18177
  8
YODOROGO
 10
27809.604341291921
 20
1608.771904043258
 30
0.0
 11
27809.604341291921
 21
1632.771904043258
 31
0.0
  0
LINE
  5
18178
  8
YODOROGO
 10
27905.604341291921
 20
1608.771904043258
 30
0.0
 11
27809.604341291921
 21
1608.771904043258
 31
0.0
  0
LINE
  5
18179
  8
YODOROGO
 10
27905.604341291921
 20
1632.771904043258
 30
0.0
 11
27905.604341291921
 21
1608.771904043258
 31
0.0
  0
LINE
  5
1817A
  8
YODOROGO
 10
27809.604341291921
 20
1632.771904043258
 30
0.0
 11
27905.604341291921
 21
1632.771904043258
 31
0.0
  0
LINE
  5
1817B
  8
YODOROGO
 10
27824.509588915738
 20
1568.5028573704751
 30
0.0
 11
27785.604341291921
 21
1475.7494964292871
 31
0.0
1001
AUTOCAD_POSTSCRIPT_FIGURE
1002
{
1000
PSFILL
1000
Grayscale
1000
Grayscale
1070
   100
1002
}
  0
LINE
  5
1817C
  8
YODOROGO
 10
27777.604341291921
 20
1568.5028573704751
 30
0.0
 11
27824.509588915738
 21
1568.5028573704751
 31
0.0
1001
AUTOCAD_POSTSCRIPT_FIGURE
1002
{
1000
PSFILL
1000
Grayscale
1000
Grayscale
1070
   100
1002
}
  0
LINE
  5
1817D
  8
YODOROGO
 10
27777.604341291921
 20
1588.5028573704751
 30
0.0
 11
27777.604341291921
 21
1568.5028573704751
 31
0.0
1001
AUTOCAD_POSTSCRIPT_FIGURE
1002
{
1000
PSFILL
1000
Grayscale
1000
Grayscale
1070
   100
1002
}
  0
LINE
  5
1817E
  8
YODOROGO
 10
27937.604341291921
 20
1588.5028573704751
 30
0.0
 11
27777.604341291921
 21
1588.5028573704751
 31
0.0
1001
AUTOCAD_POSTSCRIPT_FIGURE
1002
{
1000
PSFILL
1000
Grayscale
1000
Grayscale
1070
   100
1002
}
  0
LINE
  5
1817F
  8
YODOROGO
 10
27937.604341291921
 20
1568.5028573704751
 30
0.0
 11
27937.604341291921
 21
1588.5028573704751
 31
0.0
1001
AUTOCAD_POSTSCRIPT_FIGURE
1002
{
1000
PSFILL
1000
Grayscale
1000
Grayscale
1070
   100
1002
}
  0
LINE
  5
18180
  8
YODOROGO
 10
27844.509588915738
 20
1568.5028573704751
 30
0.0
 11
27937.604341291921
 21
1568.5028573704751
 31
0.0
1001
AUTOCAD_POSTSCRIPT_FIGURE
1002
{
1000
PSFILL
1000
Grayscale
1000
Grayscale
1070
   100
1002
}
  0
LINE
  5
18181
  8
YODOROGO
 10
27815.546718284771
 20
1495.7494964292871
 30
0.0
 11
27844.509588915738
 21
1568.5028573704751
 31
0.0
1001
AUTOCAD_POSTSCRIPT_FIGURE
1002
{
1000
PSFILL
1000
Grayscale
1000
Grayscale
1070
   100
1002
}
  0
LINE
  5
18182
  8
YODOROGO
 10
27902.054790808648
 20
1495.7494964292871
 30
0.0
 11
27815.546718284771
 21
1495.7494964292871
 31
0.0
1001
AUTOCAD_POSTSCRIPT_FIGURE
1002
{
1000
PSFILL
1000
Grayscale
1000
Grayscale
1070
   100
1002
}
  0
LINE
  5
18183
  8
YODOROGO
 10
27885.065004790951
 20
1536.2338106976929
 30
0.0
 11
27902.054790808648
 21
1495.7494964292871
 31
0.0
1001
AUTOCAD_POSTSCRIPT_FIGURE
1002
{
1000
PSFILL
1000
Grayscale
1000
Grayscale
1070
   100
1002
}
  0
LINE
  5
18184
  8
YODOROGO
 10
27901.065004790951
 20
1536.2338106976929
 30
0.0
 11
27885.065004790951
 21
1536.2338106976929
 31
0.0
1001
AUTOCAD_POSTSCRIPT_FIGURE
1002
{
1000
PSFILL
1000
Grayscale
1000
Grayscale
1070
   100
1002
}
  0
LINE
  5
18185
  8
YODOROGO
 10
27929.604341291921
 20
1475.7494964292871
 30
0.0
 11
27901.065004790951
 21
1536.2338106976929
 31
0.0
1001
AUTOCAD_POSTSCRIPT_FIGURE
1002
{
1000
PSFILL
1000
Grayscale
1000
Grayscale
1070
   100
1002
}
  0
LINE
  5
18186
  8
YODOROGO
 10
27785.604341291921
 20
1475.7494964292871
 30
0.0
 11
27929.604341291921
 21
1475.7494964292871
 31
0.0
1001
AUTOCAD_POSTSCRIPT_FIGURE
1002
{
1000
PSFILL
1000
Grayscale
1000
Grayscale
1070
   100
1002
}
  0
LINE
  5
18187
  8
YODOROGO
 10
27777.604341291921
 20
1619.9724140445701
 30
0.0
 11
27777.604341291921
 21
1643.9724140445701
 31
0.0
  0
LINE
  5
18188
  8
YODOROGO
 10
27937.604341291921
 20
1643.9724140445701
 30
0.0
 11
27937.604341291921
 21
1619.9724140445701
 31
0.0
  0
ARC
  5
18189
  8
YODOROGO
 10
28225.940442146959
 20
1600.877765325326
 30
0.0
 40
175.9999999999998
 50
280.3644312771313
 51
3.5414836592180561
  0
ARC
  5
1818A
  8
YODOROGO
 10
28235.756030759301
 20
1633.5978069619041
 30
0.0
 40
111.9999999999982
 50
281.24905825041549
 51
348.75094174958321
  0
LINE
  5
1818B
  8
YODOROGO
 10
28257.604341291921
 20
1523.7494964292871
 30
0.0
 11
28257.604341291921
 21
1427.749496429288
 31
0.0
  0
LINE
  5
1818C
  8
YODOROGO
 10
28020.088903736909
 20
1610.650565061914
 30
0.0
 11
28040.913204016892
 21
1659.749496429288
 31
0.0
  0
LINE
  5
1818D
  8
YODOROGO
 10
28041.604341291921
 20
1583.120489948401
 30
0.0
 11
28020.088903736909
 21
1610.650565061914
 31
0.0
  0
LINE
  5
1818E
  8
YODOROGO
 10
28041.604341291921
 20
1563.120489948398
 30
0.0
 11
28041.604341291921
 21
1583.120489948401
 31
0.0
  0
LINE
  5
1818F
  8
YODOROGO
 10
28017.604341291921
 20
1585.2370637495301
 30
0.0
 11
28041.604341291921
 21
1563.120489948398
 31
0.0
  0
LINE
  5
18190
  8
YODOROGO
 10
28017.604341291921
 20
1475.7494964292871
 30
0.0
 11
28017.604341291921
 21
1585.2370637495301
 31
0.0
  0
LINE
  5
18191
  8
YODOROGO
 10
28001.604341291921
 20
1475.7494964292871
 30
0.0
 11
28017.604341291921
 21
1475.7494964292871
 31
0.0
  0
LINE
  5
18192
  8
YODOROGO
 10
28001.604341291921
 20
1580.0053496897469
 30
0.0
 11
28001.604341291921
 21
1475.7494964292871
 31
0.0
  0
LINE
  5
18193
  8
YODOROGO
 10
27977.604341291921
 20
1532.7680790334291
 30
0.0
 11
28001.604341291921
 21
1580.0053496897469
 31
0.0
  0
LINE
  5
18194
  8
YODOROGO
 10
27977.604341291921
 20
1556.76807903343
 30
0.0
 11
27977.604341291921
 21
1532.7680790334291
 31
0.0
  0
LINE
  5
18195
  8
YODOROGO
 10
28025.828774291349
 20
1667.749496429285
 30
0.0
 11
27977.604341291921
 21
1556.76807903343
 31
0.0
  0
LINE
  5
18196
  8
YODOROGO
 10
27977.604341291921
 20
1667.749496429285
 30
0.0
 11
28025.828774291349
 21
1667.749496429285
 31
0.0
  0
LINE
  5
18197
  8
YODOROGO
 10
28050.135520230899
 20
1655.5036372746561
 30
0.0
 11
28082.135520230921
 21
1655.5036372746561
 31
0.0
1001
AUTOCAD_POSTSCRIPT_FIGURE
1002
{
1000
PSFILL
1000
Grayscale
1000
Grayscale
1070
   100
1002
}
  0
LINE
  5
18198
  8
YODOROGO
 10
28050.135520230899
 20
1631.5036372746561
 30
0.0
 11
28050.135520230899
 21
1655.5036372746561
 31
0.0
1001
AUTOCAD_POSTSCRIPT_FIGURE
1002
{
1000
PSFILL
1000
Grayscale
1000
Grayscale
1070
   100
1002
}
  0
LINE
  5
18199
  8
YODOROGO
 10
28082.135520230921
 20
1631.5036372746561
 30
0.0
 11
28050.135520230899
 21
1631.5036372746561
 31
0.0
1001
AUTOCAD_POSTSCRIPT_FIGURE
1002
{
1000
PSFILL
1000
Grayscale
1000
Grayscale
1070
   100
1002
}
  0
LINE
  5
1819A
  8
YODOROGO
 10
28082.135520230921
 20
1499.749496429288
 30
0.0
 11
28082.135520230921
 21
1631.5036372746561
 31
0.0
1001
AUTOCAD_POSTSCRIPT_FIGURE
1002
{
1000
PSFILL
1000
Grayscale
1000
Grayscale
1070
   100
1002
}
  0
LINE
  5
1819B
  8
YODOROGO
 10
28050.135520230921
 20
1499.749496429288
 30
0.0
 11
28082.135520230921
 21
1499.749496429288
 31
0.0
1001
AUTOCAD_POSTSCRIPT_FIGURE
1002
{
1000
PSFILL
1000
Grayscale
1000
Grayscale
1070
   100
1002
}
  0
LINE
  5
1819C
  8
YODOROGO
 10
28050.135520230921
 20
1475.7494964292871
 30
0.0
 11
28050.135520230921
 21
1499.749496429288
 31
0.0
1001
AUTOCAD_POSTSCRIPT_FIGURE
1002
{
1000
PSFILL
1000
Grayscale
1000
Grayscale
1070
   100
1002
}
  0
LINE
  5
1819D
  8
YODOROGO
 10
28137.604341291921
 20
1475.7494964292871
 30
0.0
 11
28050.135520230921
 21
1475.7494964292871
 31
0.0
1001
AUTOCAD_POSTSCRIPT_FIGURE
1002
{
1000
PSFILL
1000
Grayscale
1000
Grayscale
1070
   100
1002
}
  0
LINE
  5
1819E
  8
YODOROGO
 10
28137.604341291921
 20
1499.749496429288
 30
0.0
 11
28137.604341291921
 21
1475.7494964292871
 31
0.0
1001
AUTOCAD_POSTSCRIPT_FIGURE
1002
{
1000
PSFILL
1000
Grayscale
1000
Grayscale
1070
   100
1002
}
  0
LINE
  5
1819F
  8
YODOROGO
 10
28098.135520230931
 20
1499.749496429288
 30
0.0
 11
28137.604341291921
 21
1499.749496429288
 31
0.0
1001
AUTOCAD_POSTSCRIPT_FIGURE
1002
{
1000
PSFILL
1000
Grayscale
1000
Grayscale
1070
   100
1002
}
  0
LINE
  5
181A0
  8
YODOROGO
 10
28098.135520230931
 20
1631.5036372746561
 30
0.0
 11
28098.135520230931
 21
1499.749496429288
 31
0.0
1001
AUTOCAD_POSTSCRIPT_FIGURE
1002
{
1000
PSFILL
1000
Grayscale
1000
Grayscale
1070
   100
1002
}
  0
LINE
  5
181A1
  8
YODOROGO
 10
28137.604341291921
 20
1631.5036372746561
 30
0.0
 11
28098.135520230931
 21
1631.5036372746561
 31
0.0
1001
AUTOCAD_POSTSCRIPT_FIGURE
1002
{
1000
PSFILL
1000
Grayscale
1000
Grayscale
1070
   100
1002
}
  0
LINE
  5
181A2
  8
YODOROGO
 10
28137.604341291921
 20
1655.5036372746561
 30
0.0
 11
28137.604341291921
 21
1631.5036372746561
 31
0.0
1001
AUTOCAD_POSTSCRIPT_FIGURE
1002
{
1000
PSFILL
1000
Grayscale
1000
Grayscale
1070
   100
1002
}
  0
LINE
  5
181A3
  8
YODOROGO
 10
28098.135520230931
 20
1655.5036372746561
 30
0.0
 11
28137.604341291921
 21
1655.5036372746561
 31
0.0
1001
AUTOCAD_POSTSCRIPT_FIGURE
1002
{
1000
PSFILL
1000
Grayscale
1000
Grayscale
1070
   100
1002
}
  0
LINE
  5
181A4
  8
YODOROGO
 10
28401.60434129191
 20
1667.749496429288
 30
0.0
 11
28345.604341291921
 21
1667.749496429288
 31
0.0
  0
LINE
  5
181A5
  8
YODOROGO
 10
28401.60434129191
 20
1611.749496429288
 30
0.0
 11
28401.60434129191
 21
1667.749496429288
 31
0.0
  0
LINE
  5
181A6
  8
YODOROGO
 10
28345.604341291921
 20
1667.749496429288
 30
0.0
 11
28345.604341291921
 21
1611.749496429288
 31
0.0
  0
ARC
  5
181A7
  8
YODOROGO
 10
28513.60434129191
 20
1507.749496429288
 30
0.0
 40
80.0
 50
180.0
 51
270.0
  0
ARC
  5
181A8
  8
YODOROGO
 10
28537.604341291921
 20
1563.7494964292871
 30
0.0
 40
40.0
 50
180.0
 51
270.0
  0
LINE
  5
181A9
  8
YODOROGO
 10
28561.604341291932
 20
1523.7494964292871
 30
0.0
 11
28537.604341291921
 21
1523.7494964292871
 31
0.0
  0
ARC
  5
181AA
  8
YODOROGO
 10
28561.604341291932
 20
1547.749496429285
 30
0.0
 40
23.999999999996358
 50
270.0
 51
0.0000000000054281
  0
LINE
  5
181AB
  8
YODOROGO
 10
27801.604341291921
 20
1890.786580793706
 30
0.0
 11
27777.604341291921
 21
1843.776747951672
 31
0.0
1001
AUTOCAD_POSTSCRIPT_FIGURE
1002
{
1000
PSFILL
1000
Grayscale
1000
Grayscale
1070
   100
1002
}
  0
LINE
  5
181AC
  8
YODOROGO
 10
27801.604341291921
 20
1747.749496429286
 30
0.0
 11
27801.604341291921
 21
1890.786580793706
 31
0.0
1001
AUTOCAD_POSTSCRIPT_FIGURE
1002
{
1000
PSFILL
1000
Grayscale
1000
Grayscale
1070
   100
1002
}
  0
LINE
  5
181AD
  8
YODOROGO
 10
27817.604341291921
 20
1747.749496429286
 30
0.0
 11
27801.604341291921
 21
1747.749496429286
 31
0.0
1001
AUTOCAD_POSTSCRIPT_FIGURE
1002
{
1000
PSFILL
1000
Grayscale
1000
Grayscale
1070
   100
1002
}
  0
LINE
  5
181AE
  8
YODOROGO
 10
27817.604341291921
 20
1893.7713320852661
 30
0.0
 11
27817.604341291921
 21
1747.749496429286
 31
0.0
1001
AUTOCAD_POSTSCRIPT_FIGURE
1002
{
1000
PSFILL
1000
Grayscale
1000
Grayscale
1070
   100
1002
}
  0
LINE
  5
181AF
  8
YODOROGO
 10
27841.604341291921
 20
1867.6547582841361
 30
0.0
 11
27817.604341291921
 21
1893.7713320852661
 31
0.0
1001
AUTOCAD_POSTSCRIPT_FIGURE
1002
{
1000
PSFILL
1000
Grayscale
1000
Grayscale
1070
   100
1002
}
  0
LINE
  5
181B0
  8
YODOROGO
 10
27841.604341291921
 20
1883.6547582841361
 30
0.0
 11
27841.604341291921
 21
1867.6547582841361
 31
0.0
1001
AUTOCAD_POSTSCRIPT_FIGURE
1002
{
1000
PSFILL
1000
Grayscale
1000
Grayscale
1070
   100
1002
}
  0
LINE
  5
181B1
  8
YODOROGO
 10
27817.604341291921
 20
1917.7713320852649
 30
0.0
 11
27841.604341291921
 21
1883.6547582841361
 31
0.0
1001
AUTOCAD_POSTSCRIPT_FIGURE
1002
{
1000
PSFILL
1000
Grayscale
1000
Grayscale
1070
   100
1002
}
  0
LINE
  5
181B2
  8
YODOROGO
 10
27817.604341291921
 20
1939.749496429288
 30
0.0
 11
27817.604341291921
 21
1917.7713320852649
 31
0.0
1001
AUTOCAD_POSTSCRIPT_FIGURE
1002
{
1000
PSFILL
1000
Grayscale
1000
Grayscale
1070
   100
1002
}
  0
LINE
  5
181B3
  8
YODOROGO
 10
27889.604341291921
 20
1939.749496429288
 30
0.0
 11
27817.604341291921
 21
1939.749496429288
 31
0.0
1001
AUTOCAD_POSTSCRIPT_FIGURE
1002
{
1000
PSFILL
1000
Grayscale
1000
Grayscale
1070
   100
1002
}
  0
LINE
  5
181B4
  8
YODOROGO
 10
27889.604341291921
 20
1900.5683489363
 30
0.0
 11
27889.604341291921
 21
1939.749496429288
 31
0.0
1001
AUTOCAD_POSTSCRIPT_FIGURE
1002
{
1000
PSFILL
1000
Grayscale
1000
Grayscale
1070
   100
1002
}
  0
LINE
  5
181B5
  8
YODOROGO
 10
27857.604341291921
 20
1900.5683489363
 30
0.0
 11
27889.604341291921
 21
1900.5683489363
 31
0.0
1001
AUTOCAD_POSTSCRIPT_FIGURE
1002
{
1000
PSFILL
1000
Grayscale
1000
Grayscale
1070
   100
1002
}
  0
LINE
  5
181B6
  8
YODOROGO
 10
27857.604341291921
 20
1884.568348936298
 30
0.0
 11
27857.604341291921
 21
1900.5683489363
 31
0.0
1001
AUTOCAD_POSTSCRIPT_FIGURE
1002
{
1000
PSFILL
1000
Grayscale
1000
Grayscale
1070
   100
1002
}
  0
LINE
  5
181B7
  8
YODOROGO
 10
27889.604341291921
 20
1884.568348936298
 30
0.0
 11
27857.604341291921
 21
1884.568348936298
 31
0.0
1001
AUTOCAD_POSTSCRIPT_FIGURE
1002
{
1000
PSFILL
1000
Grayscale
1000
Grayscale
1070
   100
1002
}
  0
LINE
  5
181B8
  8
YODOROGO
 10
27889.604341291921
 20
1879.6191779644371
 30
0.0
 11
27889.604341291921
 21
1884.568348936298
 31
0.0
1001
AUTOCAD_POSTSCRIPT_FIGURE
1002
{
1000
PSFILL
1000
Grayscale
1000
Grayscale
1070
   100
1002
}
  0
LINE
  5
181B9
  8
YODOROGO
 10
27849.604341291921
 20
1812.974981161417
 30
0.0
 11
27889.604341291921
 21
1879.6191779644371
 31
0.0
1001
AUTOCAD_POSTSCRIPT_FIGURE
1002
{
1000
PSFILL
1000
Grayscale
1000
Grayscale
1070
   100
1002
}
  0
LINE
  5
181BA
  8
YODOROGO
 10
27849.604341291921
 20
1796.9749811614161
 30
0.0
 11
27849.604341291921
 21
1812.974981161417
 31
0.0
1001
AUTOCAD_POSTSCRIPT_FIGURE
1002
{
1000
PSFILL
1000
Grayscale
1000
Grayscale
1070
   100
1002
}
  0
LINE
  5
181BB
  8
YODOROGO
 10
27889.604341291921
 20
1847.6191779644359
 30
0.0
 11
27849.604341291921
 21
1796.9749811614161
 31
0.0
1001
AUTOCAD_POSTSCRIPT_FIGURE
1002
{
1000
PSFILL
1000
Grayscale
1000
Grayscale
1070
   100
1002
}
  0
LINE
  5
181BC
  8
YODOROGO
 10
27889.604341291921
 20
1747.749496429286
 30
0.0
 11
27889.604341291921
 21
1847.6191779644359
 31
0.0
1001
AUTOCAD_POSTSCRIPT_FIGURE
1002
{
1000
PSFILL
1000
Grayscale
1000
Grayscale
1070
   100
1002
}
  0
LINE
  5
181BD
  8
YODOROGO
 10
27905.604341291921
 20
1747.749496429286
 30
0.0
 11
27889.604341291921
 21
1747.749496429286
 31
0.0
1001
AUTOCAD_POSTSCRIPT_FIGURE
1002
{
1000
PSFILL
1000
Grayscale
1000
Grayscale
1070
   100
1002
}
  0
LINE
  5
181BE
  8
YODOROGO
 10
27905.604341291921
 20
1849.409012158806
 30
0.0
 11
27905.604341291921
 21
1747.749496429286
 31
0.0
1001
AUTOCAD_POSTSCRIPT_FIGURE
1002
{
1000
PSFILL
1000
Grayscale
1000
Grayscale
1070
   100
1002
}
  0
LINE
  5
181BF
  8
YODOROGO
 10
27937.604341291921
 20
1796.9749811614161
 30
0.0
 11
27905.604341291921
 21
1849.409012158806
 31
0.0
1001
AUTOCAD_POSTSCRIPT_FIGURE
1002
{
1000
PSFILL
1000
Grayscale
1000
Grayscale
1070
   100
1002
}
  0
LINE
  5
181C0
  8
YODOROGO
 10
27937.604341291921
 20
1812.974981161417
 30
0.0
 11
27937.604341291921
 21
1796.9749811614161
 31
0.0
1001
AUTOCAD_POSTSCRIPT_FIGURE
1002
{
1000
PSFILL
1000
Grayscale
1000
Grayscale
1070
   100
1002
}
  0
LINE
  5
181C1
  8
YODOROGO
 10
27905.604341291921
 20
1881.4090121588081
 30
0.0
 11
27937.604341291921
 21
1812.974981161417
 31
0.0
1001
AUTOCAD_POSTSCRIPT_FIGURE
1002
{
1000
PSFILL
1000
Grayscale
1000
Grayscale
1070
   100
1002
}
  0
LINE
  5
181C2
  8
YODOROGO
 10
27905.604341291921
 20
1884.5683489363
 30
0.0
 11
27905.604341291921
 21
1881.4090121588081
 31
0.0
1001
AUTOCAD_POSTSCRIPT_FIGURE
1002
{
1000
PSFILL
1000
Grayscale
1000
Grayscale
1070
   100
1002
}
  0
LINE
  5
181C3
  8
YODOROGO
 10
27937.604341291921
 20
1884.568348936298
 30
0.0
 11
27905.604341291921
 21
1884.5683489363
 31
0.0
1001
AUTOCAD_POSTSCRIPT_FIGURE
1002
{
1000
PSFILL
1000
Grayscale
1000
Grayscale
1070
   100
1002
}
  0
LINE
  5
181C4
  8
YODOROGO
 10
27937.604341291921
 20
1900.5683489363
 30
0.0
 11
27937.604341291921
 21
1884.568348936298
 31
0.0
1001
AUTOCAD_POSTSCRIPT_FIGURE
1002
{
1000
PSFILL
1000
Grayscale
1000
Grayscale
1070
   100
1002
}
  0
LINE
  5
181C5
  8
YODOROGO
 10
27905.604341291921
 20
1900.5683489363
 30
0.0
 11
27937.604341291921
 21
1900.5683489363
 31
0.0
1001
AUTOCAD_POSTSCRIPT_FIGURE
1002
{
1000
PSFILL
1000
Grayscale
1000
Grayscale
1070
   100
1002
}
  0
LINE
  5
181C6
  8
YODOROGO
 10
27905.604341291921
 20
1939.749496429288
 30
0.0
 11
27905.604341291921
 21
1900.5683489363
 31
0.0
1001
AUTOCAD_POSTSCRIPT_FIGURE
1002
{
1000
PSFILL
1000
Grayscale
1000
Grayscale
1070
   100
1002
}
  0
LINE
  5
181C7
  8
YODOROGO
 10
27937.604341291921
 20
1939.749496429288
 30
0.0
 11
27905.604341291921
 21
1939.749496429288
 31
0.0
1001
AUTOCAD_POSTSCRIPT_FIGURE
1002
{
1000
PSFILL
1000
Grayscale
1000
Grayscale
1070
   100
1002
}
  0
LINE
  5
181C8
  8
YODOROGO
 10
27937.604341291921
 20
1955.7494964292871
 30
0.0
 11
27937.604341291921
 21
1939.749496429288
 31
0.0
1001
AUTOCAD_POSTSCRIPT_FIGURE
1002
{
1000
PSFILL
1000
Grayscale
1000
Grayscale
1070
   100
1002
}
  0
LINE
  5
181C9
  8
YODOROGO
 10
27905.604341291921
 20
1955.7494964292871
 30
0.0
 11
27937.604341291921
 21
1955.7494964292871
 31
0.0
1001
AUTOCAD_POSTSCRIPT_FIGURE
1002
{
1000
PSFILL
1000
Grayscale
1000
Grayscale
1070
   100
1002
}
  0
LINE
  5
181CA
  8
YODOROGO
 10
27905.604341291921
 20
1979.749496429288
 30
0.0
 11
27905.604341291921
 21
1955.7494964292871
 31
0.0
1001
AUTOCAD_POSTSCRIPT_FIGURE
1002
{
1000
PSFILL
1000
Grayscale
1000
Grayscale
1070
   100
1002
}
  0
LINE
  5
181CB
  8
YODOROGO
 10
27889.604341291921
 20
1979.749496429288
 30
0.0
 11
27905.604341291921
 21
1979.749496429288
 31
0.0
1001
AUTOCAD_POSTSCRIPT_FIGURE
1002
{
1000
PSFILL
1000
Grayscale
1000
Grayscale
1070
   100
1002
}
  0
LINE
  5
181CC
  8
YODOROGO
 10
27889.604341291921
 20
1955.7494964292871
 30
0.0
 11
27889.604341291921
 21
1979.749496429288
 31
0.0
1001
AUTOCAD_POSTSCRIPT_FIGURE
1002
{
1000
PSFILL
1000
Grayscale
1000
Grayscale
1070
   100
1002
}
  0
LINE
  5
181CD
  8
YODOROGO
 10
27865.604341291921
 20
1955.7494964292871
 30
0.0
 11
27889.604341291921
 21
1955.7494964292871
 31
0.0
1001
AUTOCAD_POSTSCRIPT_FIGURE
1002
{
1000
PSFILL
1000
Grayscale
1000
Grayscale
1070
   100
1002
}
  0
LINE
  5
181CE
  8
YODOROGO
 10
27865.604341291921
 20
1979.749496429288
 30
0.0
 11
27865.604341291921
 21
1955.7494964292871
 31
0.0
1001
AUTOCAD_POSTSCRIPT_FIGURE
1002
{
1000
PSFILL
1000
Grayscale
1000
Grayscale
1070
   100
1002
}
  0
LINE
  5
181CF
  8
YODOROGO
 10
27849.604341291921
 20
1979.749496429288
 30
0.0
 11
27865.604341291921
 21
1979.749496429288
 31
0.0
1001
AUTOCAD_POSTSCRIPT_FIGURE
1002
{
1000
PSFILL
1000
Grayscale
1000
Grayscale
1070
   100
1002
}
  0
LINE
  5
181D0
  8
YODOROGO
 10
27849.604341291921
 20
1955.7494964292871
 30
0.0
 11
27849.604341291921
 21
1979.749496429288
 31
0.0
1001
AUTOCAD_POSTSCRIPT_FIGURE
1002
{
1000
PSFILL
1000
Grayscale
1000
Grayscale
1070
   100
1002
}
  0
LINE
  5
181D1
  8
YODOROGO
 10
27817.604341291921
 20
1955.7494964292871
 30
0.0
 11
27849.604341291921
 21
1955.7494964292871
 31
0.0
1001
AUTOCAD_POSTSCRIPT_FIGURE
1002
{
1000
PSFILL
1000
Grayscale
1000
Grayscale
1070
   100
1002
}
  0
LINE
  5
181D2
  8
YODOROGO
 10
27817.604341291921
 20
1979.749496429288
 30
0.0
 11
27817.604341291921
 21
1955.7494964292871
 31
0.0
1001
AUTOCAD_POSTSCRIPT_FIGURE
1002
{
1000
PSFILL
1000
Grayscale
1000
Grayscale
1070
   100
1002
}
  0
LINE
  5
181D3
  8
YODOROGO
 10
27801.604341291921
 20
1979.749496429288
 30
0.0
 11
27817.604341291921
 21
1979.749496429288
 31
0.0
1001
AUTOCAD_POSTSCRIPT_FIGURE
1002
{
1000
PSFILL
1000
Grayscale
1000
Grayscale
1070
   100
1002
}
  0
LINE
  5
181D4
  8
YODOROGO
 10
27801.604341291921
 20
1955.7494964292871
 30
0.0
 11
27801.604341291921
 21
1979.749496429288
 31
0.0
1001
AUTOCAD_POSTSCRIPT_FIGURE
1002
{
1000
PSFILL
1000
Grayscale
1000
Grayscale
1070
   100
1002
}
  0
LINE
  5
181D5
  8
YODOROGO
 10
27777.604341291921
 20
1955.7494964292871
 30
0.0
 11
27801.604341291921
 21
1955.7494964292871
 31
0.0
1001
AUTOCAD_POSTSCRIPT_FIGURE
1002
{
1000
PSFILL
1000
Grayscale
1000
Grayscale
1070
   100
1002
}
  0
LINE
  5
181D6
  8
YODOROGO
 10
27777.604341291921
 20
1939.749496429288
 30
0.0
 11
27777.604341291921
 21
1955.7494964292871
 31
0.0
1001
AUTOCAD_POSTSCRIPT_FIGURE
1002
{
1000
PSFILL
1000
Grayscale
1000
Grayscale
1070
   100
1002
}
  0
LINE
  5
181D7
  8
YODOROGO
 10
27801.604341291921
 20
1939.749496429288
 30
0.0
 11
27777.604341291921
 21
1939.749496429288
 31
0.0
1001
AUTOCAD_POSTSCRIPT_FIGURE
1002
{
1000
PSFILL
1000
Grayscale
1000
Grayscale
1070
   100
1002
}
  0
LINE
  5
181D8
  8
YODOROGO
 10
27801.604341291921
 20
1914.7865807937051
 30
0.0
 11
27801.604341291921
 21
1939.749496429288
 31
0.0
1001
AUTOCAD_POSTSCRIPT_FIGURE
1002
{
1000
PSFILL
1000
Grayscale
1000
Grayscale
1070
   100
1002
}
  0
LINE
  5
181D9
  8
YODOROGO
 10
27777.604341291921
 20
1859.776747951671
 30
0.0
 11
27801.604341291921
 21
1914.7865807937051
 31
0.0
1001
AUTOCAD_POSTSCRIPT_FIGURE
1002
{
1000
PSFILL
1000
Grayscale
1000
Grayscale
1070
   100
1002
}
  0
LINE
  5
181DA
  8
YODOROGO
 10
27777.604341291921
 20
1843.776747951672
 30
0.0
 11
27777.604341291921
 21
1859.776747951671
 31
0.0
1001
AUTOCAD_POSTSCRIPT_FIGURE
1002
{
1000
PSFILL
1000
Grayscale
1000
Grayscale
1070
   100
1002
}
  0
LINE
  5
181DB
  8
YODOROGO
 10
28257.604341291921
 20
1867.7494964292871
 30
0.0
 11
28401.60434129191
 21
1824.877625640306
 31
0.0
1001
AUTOCAD_POSTSCRIPT_FIGURE
1002
{
1000
PSFILL
1000
Grayscale
1000
Grayscale
1070
   100
1002
}
  0
LINE
  5
181DC
  8
YODOROGO
 10
28401.60434129191
 20
1752.877625640306
 30
0.0
 11
28257.604341291921
 21
1795.7494964292871
 31
0.0
1001
AUTOCAD_POSTSCRIPT_FIGURE
1002
{
1000
PSFILL
1000
Grayscale
1000
Grayscale
1070
   100
1002
}
  0
LINE
  5
181DD
  8
YODOROGO
 10
28401.60434129191
 20
1984.877625640306
 30
0.0
 11
28257.604341291921
 21
2027.749496429288
 31
0.0
1001
AUTOCAD_POSTSCRIPT_FIGURE
1002
{
1000
PSFILL
1000
Grayscale
1000
Grayscale
1070
   100
1002
}
  0
LINE
  5
181DE
  8
YODOROGO
 10
28257.604341291921
 20
1959.749496429288
 30
0.0
 11
28401.60434129191
 21
1916.8776256403071
 31
0.0
1001
AUTOCAD_POSTSCRIPT_FIGURE
1002
{
1000
PSFILL
1000
Grayscale
1000
Grayscale
1070
   100
1002
}
  0
LINE
  5
181DF
  8
YODOROGO
 10
28257.604341291921
 20
1795.7494964292871
 30
0.0
 11
28257.604341291921
 21
1867.7494964292871
 31
0.0
1001
AUTOCAD_POSTSCRIPT_FIGURE
1002
{
1000
PSFILL
1000
Grayscale
1000
Grayscale
1070
   100
1002
}
  0
LINE
  5
181E0
  8
YODOROGO
 10
28257.604341291921
 20
2027.749496429288
 30
0.0
 11
28257.604341291921
 21
1959.749496429288
 31
0.0
1001
AUTOCAD_POSTSCRIPT_FIGURE
1002
{
1000
PSFILL
1000
Grayscale
1000
Grayscale
1070
   100
1002
}
  0
LINE
  5
181E1
  8
YODOROGO
 10
28080.236320206739
 20
1939.749496429288
 30
0.0
 11
28129.60434129191
 21
1747.749496429286
 31
0.0
1001
AUTOCAD_POSTSCRIPT_FIGURE
1002
{
1000
PSFILL
1000
Grayscale
1000
Grayscale
1070
   100
1002
}
  0
LINE
  5
181E2
  8
YODOROGO
 10
27977.604341291921
 20
1939.749496429288
 30
0.0
 11
28080.236320206739
 21
1939.749496429288
 31
0.0
1001
AUTOCAD_POSTSCRIPT_FIGURE
1002
{
1000
PSFILL
1000
Grayscale
1000
Grayscale
1070
   100
1002
}
  0
LINE
  5
181E3
  8
YODOROGO
 10
27977.604341291921
 20
1955.7494964292871
 30
0.0
 11
27977.604341291921
 21
1939.749496429288
 31
0.0
1001
AUTOCAD_POSTSCRIPT_FIGURE
1002
{
1000
PSFILL
1000
Grayscale
1000
Grayscale
1070
   100
1002
}
  0
LINE
  5
181E4
  8
YODOROGO
 10
28076.60687851991
 20
1955.7494964292871
 30
0.0
 11
27977.604341291921
 21
1955.7494964292871
 31
0.0
1001
AUTOCAD_POSTSCRIPT_FIGURE
1002
{
1000
PSFILL
1000
Grayscale
1000
Grayscale
1070
   100
1002
}
  0
LINE
  5
181E5
  8
YODOROGO
 10
28071.162715989711
 20
1979.749496429288
 30
0.0
 11
28076.60687851991
 21
1955.7494964292871
 31
0.0
1001
AUTOCAD_POSTSCRIPT_FIGURE
1002
{
1000
PSFILL
1000
Grayscale
1000
Grayscale
1070
   100
1002
}
  0
LINE
  5
181E6
  8
YODOROGO
 10
28091.162715989711
 20
1979.749496429288
 30
0.0
 11
28071.162715989711
 21
1979.749496429288
 31
0.0
1001
AUTOCAD_POSTSCRIPT_FIGURE
1002
{
1000
PSFILL
1000
Grayscale
1000
Grayscale
1070
   100
1002
}
  0
LINE
  5
181E7
  8
YODOROGO
 10
28095.806878519939
 20
1955.7494964292871
 30
0.0
 11
28091.162715989711
 21
1979.749496429288
 31
0.0
1001
AUTOCAD_POSTSCRIPT_FIGURE
1002
{
1000
PSFILL
1000
Grayscale
1000
Grayscale
1070
   100
1002
}
  0
LINE
  5
181E8
  8
YODOROGO
 10
28121.604341291921
 20
1955.7494964292871
 30
0.0
 11
28095.806878519939
 21
1955.7494964292871
 31
0.0
1001
AUTOCAD_POSTSCRIPT_FIGURE
1002
{
1000
PSFILL
1000
Grayscale
1000
Grayscale
1070
   100
1002
}
  0
LINE
  5
181E9
  8
YODOROGO
 10
28121.604341291921
 20
1979.749496429288
 30
0.0
 11
28121.604341291921
 21
1955.7494964292871
 31
0.0
1001
AUTOCAD_POSTSCRIPT_FIGURE
1002
{
1000
PSFILL
1000
Grayscale
1000
Grayscale
1070
   100
1002
}
  0
LINE
  5
181EA
  8
YODOROGO
 10
28137.604341291921
 20
1979.749496429288
 30
0.0
 11
28121.604341291921
 21
1979.749496429288
 31
0.0
1001
AUTOCAD_POSTSCRIPT_FIGURE
1002
{
1000
PSFILL
1000
Grayscale
1000
Grayscale
1070
   100
1002
}
  0
LINE
  5
181EB
  8
YODOROGO
 10
28137.604341291921
 20
1955.7494964292871
 30
0.0
 11
28137.604341291921
 21
1979.749496429288
 31
0.0
1001
AUTOCAD_POSTSCRIPT_FIGURE
1002
{
1000
PSFILL
1000
Grayscale
1000
Grayscale
1070
   100
1002
}
  0
LINE
  5
181EC
  8
YODOROGO
 10
28137.604341291921
 20
1939.749496429288
 30
0.0
 11
28137.604341291921
 21
1955.7494964292871
 31
0.0
1001
AUTOCAD_POSTSCRIPT_FIGURE
1002
{
1000
PSFILL
1000
Grayscale
1000
Grayscale
1070
   100
1002
}
  0
LINE
  5
181ED
  8
YODOROGO
 10
28098.902986873411
 20
1939.749496429288
 30
0.0
 11
28137.604341291921
 21
1939.749496429288
 31
0.0
1001
AUTOCAD_POSTSCRIPT_FIGURE
1002
{
1000
PSFILL
1000
Grayscale
1000
Grayscale
1070
   100
1002
}
  0
LINE
  5
181EE
  8
YODOROGO
 10
28137.604341291921
 20
1747.749496429286
 30
0.0
 11
28098.902986873411
 21
1939.749496429288
 31
0.0
1001
AUTOCAD_POSTSCRIPT_FIGURE
1002
{
1000
PSFILL
1000
Grayscale
1000
Grayscale
1070
   100
1002
}
  0
LINE
  5
181EF
  8
YODOROGO
 10
28129.60434129191
 20
1747.749496429286
 30
0.0
 11
28137.604341291921
 21
1747.749496429286
 31
0.0
1001
AUTOCAD_POSTSCRIPT_FIGURE
1002
{
1000
PSFILL
1000
Grayscale
1000
Grayscale
1070
   100
1002
}
  0
LINE
  5
181F0
  8
YODOROGO
 10
28078.06921993379
 20
1775.7407762987939
 30
0.0
 11
27977.604341291921
 21
1747.749496429286
 31
0.0
  0
LINE
  5
181F1
  8
YODOROGO
 10
28078.06921993379
 20
1798.6689795290731
 30
0.0
 11
28078.06921993379
 21
1775.7407762987939
 31
0.0
  0
LINE
  5
181F2
  8
YODOROGO
 10
28033.83678061287
 20
1786.816933133767
 30
0.0
 11
28078.06921993379
 21
1798.6689795290731
 31
0.0
  0
LINE
  5
181F3
  8
YODOROGO
 10
28033.83678061287
 20
1872.5683489362989
 30
0.0
 11
28033.83678061287
 21
1786.816933133767
 31
0.0
  0
LINE
  5
181F4
  8
YODOROGO
 10
28078.06921993379
 20
1872.5683489362989
 30
0.0
 11
28033.83678061287
 21
1872.5683489362989
 31
0.0
  0
LINE
  5
181F5
  8
YODOROGO
 10
28078.06921993379
 20
1892.568348936298
 30
0.0
 11
28078.06921993379
 21
1872.5683489362989
 31
0.0
  0
LINE
  5
181F6
  8
YODOROGO
 10
27977.604341291921
 20
1892.568348936298
 30
0.0
 11
28078.06921993379
 21
1892.568348936298
 31
0.0
  0
LINE
  5
181F7
  8
YODOROGO
 10
27977.604341291921
 20
1872.5683489362989
 30
0.0
 11
27977.604341291921
 21
1892.568348936298
 31
0.0
  0
LINE
  5
181F8
  8
YODOROGO
 10
28021.836780612852
 20
1872.5683489362989
 30
0.0
 11
27977.604341291921
 21
1872.5683489362989
 31
0.0
  0
LINE
  5
181F9
  8
YODOROGO
 10
28021.836780612852
 20
1784.673339594317
 30
0.0
 11
28021.836780612852
 21
1872.5683489362989
 31
0.0
  0
LINE
  5
181FA
  8
YODOROGO
 10
27977.604341291921
 20
1771.749496429286
 30
0.0
 11
28021.836780612852
 21
1784.673339594317
 31
0.0
  0
LINE
  5
181FB
  8
YODOROGO
 10
27977.604341291921
 20
1747.749496429286
 30
0.0
 11
27977.604341291921
 21
1771.749496429286
 31
0.0
  0
LINE
  5
181FC
  8
YODOROGO
 10
28001.604341291921
 20
1707.749496429288
 30
0.0
 11
28001.604341291921
 21
1683.7494964292871
 31
0.0
  0
LINE
  5
181FD
  8
YODOROGO
 10
28017.604341291921
 20
1707.749496429288
 30
0.0
 11
28001.604341291921
 21
1707.749496429288
 31
0.0
  0
LINE
  5
181FE
  8
YODOROGO
 10
28017.604341291921
 20
1683.7494964292871
 30
0.0
 11
28017.604341291921
 21
1707.749496429288
 31
0.0
  0
LINE
  5
181FF
  8
YODOROGO
 10
28040.913204016892
 20
1683.7494964292871
 30
0.0
 11
28017.604341291921
 21
1683.7494964292871
 31
0.0
  0
LINE
  5
18200
  8
YODOROGO
 10
28001.604341291921
 20
1683.7494964292871
 30
0.0
 11
27977.604341291921
 21
1683.7494964292871
 31
0.0
  0
LINE
  5
18201
  8
YODOROGO
 10
28082.135520230921
 20
1707.749496429288
 30
0.0
 11
28098.135520230931
 21
1707.749496429288
 31
0.0
1001
AUTOCAD_POSTSCRIPT_FIGURE
1002
{
1000
PSFILL
1000
Grayscale
1000
Grayscale
1070
   100
1002
}
  0
LINE
  5
18202
  8
YODOROGO
 10
28401.60434129191
 20
1824.877625640306
 30
0.0
 11
28401.60434129191
 21
1752.877625640306
 31
0.0
1001
AUTOCAD_POSTSCRIPT_FIGURE
1002
{
1000
PSFILL
1000
Grayscale
1000
Grayscale
1070
   100
1002
}
  0
LINE
  5
18203
  8
YODOROGO
 10
28401.60434129191
 20
1916.8776256403071
 30
0.0
 11
28401.60434129191
 21
1984.877625640306
 31
0.0
1001
AUTOCAD_POSTSCRIPT_FIGURE
1002
{
1000
PSFILL
1000
Grayscale
1000
Grayscale
1070
   100
1002
}
  0
LINE
  5
18204
  8
YODOROGO
 10
28433.60434129191
 20
1819.7494964292871
 30
0.0
 11
28433.60434129191
 21
1747.74949642929
 31
0.0
  0
LINE
  5
18205
  8
YODOROGO
 10
28497.60434129191
 20
1707.749496429288
 30
0.0
 11
28433.60434129191
 21
1707.749496429288
 31
0.0
  0
LINE
  5
18206
  8
YODOROGO
 10
28433.60434129191
 20
1747.74949642929
 30
0.0
 11
28585.604341291921
 21
1747.74949642929
 31
0.0
  0
LINE
  5
18207
  8
YODOROGO
 10
28497.60434129191
 20
1867.7494964292871
 30
0.0
 11
28433.60434129191
 21
1867.7494964292871
 31
0.0
  0
LINE
  5
18208
  8
YODOROGO
 10
28497.60434129191
 20
1923.7494964292871
 30
0.0
 11
28497.60434129191
 21
1867.7494964292871
 31
0.0
  0
LINE
  5
18209
  8
YODOROGO
 10
28585.604341291921
 20
1987.7494964292871
 30
0.0
 11
28585.604341291921
 21
2027.749496429288
 31
0.0
  0
LINE
  5
1820A
  8
YODOROGO
 10
28433.60434129191
 20
1987.7494964292871
 30
0.0
 11
28585.604341291921
 21
1987.7494964292871
 31
0.0
  0
LINE
  5
1820B
  8
YODOROGO
 10
28433.60434129191
 20
1867.7494964292871
 30
0.0
 11
28433.60434129191
 21
1987.7494964292871
 31
0.0
  0
LINE
  5
1820C
  8
YODOROGO
 10
29001.60434129191
 20
2027.749496429288
 30
0.0
 11
29001.60434129191
 21
1619.749496429288
 31
0.0
  0
LINE
  5
1820D
  8
YODOROGO
 10
29073.604341291921
 20
1579.749496429288
 30
0.0
 11
29073.604341291921
 21
2027.749496429288
 31
0.0
  0
LINE
  5
1820E
  8
YODOROGO
 10
29261.604341291921
 20
1491.749496429286
 30
0.0
 11
29261.604341291921
 21
2007.749496429288
 31
0.0
  0
LINE
  5
1820F
  8
YODOROGO
 10
29197.604341291921
 20
2007.749496429288
 30
0.0
 11
29197.604341291921
 21
1491.749496429286
 31
0.0
  0
LINE
  5
18210
  8
YODOROGO
 10
29385.604341291921
 20
2027.749496429288
 30
0.0
 11
29385.604341291921
 21
1427.749496429288
 31
0.0
  0
LINE
  5
18211
  8
YODOROGO
 10
29457.604341291921
 20
1427.749496429288
 30
0.0
 11
29457.604341291921
 21
2027.749496429288
 31
0.0
  0
LINE
  5
18212
  8
YODOROGO
 10
28657.604341291921
 20
1667.749496429288
 30
0.0
 11
28657.604341291921
 21
1747.74949642929
 31
0.0
  0
LINE
  5
18213
  8
YODOROGO
 10
29885.604341291921
 20
1707.749496429288
 30
0.0
 11
29885.604341291921
 21
1667.749496429288
 31
0.0
  0
LINE
  5
18214
  8
YODOROGO
 10
29885.604341291921
 20
1707.749496429288
 30
0.0
 11
29885.604341291921
 21
1667.749496429288
 31
0.0
  0
ARC
  5
18215
  8
YODOROGO
 10
28906.911576186842
 20
1618.217864442272
 30
0.0
 40
94.705151178741644
 50
274.05244162907098
 51
0.9266642149310712
  0
ARC
  5
18216
  8
YODOROGO
 10
28909.186170719819
 20
1592.61072861044
 30
0.0
 40
164.92042356085511
 50
271.5351210653775
 51
355.52727750585052
  0
LINE
  5
18217
  8
YODOROGO
 10
28913.604341291921
 20
1523.7494964292871
 30
0.0
 11
28913.604341291921
 21
1427.749496429288
 31
0.0
  0
LINE
  5
18218
  8
YODOROGO
 10
28793.60434129191
 20
1667.749496429288
 30
0.0
 11
28657.604341291921
 21
1667.749496429288
 31
0.0
  0
LINE
  5
18219
  8
YODOROGO
 10
28793.60434129191
 20
1603.7494964292871
 30
0.0
 11
28793.60434129191
 21
1667.749496429288
 31
0.0
  0
LINE
  5
1821A
  8
YODOROGO
 10
28657.604341291921
 20
1603.7494964292871
 30
0.0
 11
28793.60434129191
 21
1603.7494964292871
 31
0.0
  0
LINE
  5
1821B
  8
YODOROGO
 10
28657.604341291921
 20
1523.7494964292871
 30
0.0
 11
28657.604341291921
 21
1603.7494964292871
 31
0.0
  0
LINE
  5
1821C
  8
YODOROGO
 10
28793.60434129191
 20
1523.7494964292871
 30
0.0
 11
28657.604341291921
 21
1523.7494964292871
 31
0.0
  0
LINE
  5
1821D
  8
YODOROGO
 10
28793.60434129191
 20
1427.749496429288
 30
0.0
 11
28793.60434129191
 21
1523.7494964292871
 31
0.0
  0
LINE
  5
1821E
  8
YODOROGO
 10
29197.604341291921
 20
1491.749496429286
 30
0.0
 11
29261.604341291921
 21
1491.749496429286
 31
0.0
  0
LINE
  5
1821F
  8
YODOROGO
 10
29385.604341291921
 20
1427.749496429288
 30
0.0
 11
29457.604341291921
 21
1427.749496429288
 31
0.0
  0
LINE
  5
18220
  8
YODOROGO
 10
29737.604341291921
 20
1528.4414521705639
 30
0.0
 11
29737.604341291921
 21
1427.749496429288
 31
0.0
  0
LINE
  5
18221
  8
YODOROGO
 10
29617.604341291921
 20
1427.749496429288
 30
0.0
 11
29737.604341291921
 21
1528.4414521705639
 31
0.0
  0
LINE
  5
18222
  8
YODOROGO
 10
29617.604341291921
 20
1547.749496429288
 30
0.0
 11
29617.604341291921
 21
1427.749496429288
 31
0.0
  0
LINE
  5
18223
  8
YODOROGO
 10
29712.94462869945
 20
1627.749496429288
 30
0.0
 11
29617.604341291921
 21
1547.749496429288
 31
0.0
  0
LINE
  5
18224
  8
YODOROGO
 10
29617.604341291921
 20
1627.749496429288
 30
0.0
 11
29712.94462869945
 21
1627.749496429288
 31
0.0
  0
LINE
  5
18225
  8
YODOROGO
 10
29617.604341291921
 20
1667.749496429288
 30
0.0
 11
29617.604341291921
 21
1627.749496429288
 31
0.0
  0
LINE
  5
18226
  8
YODOROGO
 10
29885.604341291921
 20
1667.749496429288
 30
0.0
 11
29617.604341291921
 21
1667.749496429288
 31
0.0
  0
LINE
  5
18227
  8
YODOROGO
 10
29917.604341291921
 20
1627.749496429288
 30
0.0
 11
29777.604341291921
 21
1627.749496429288
 31
0.0
  0
LINE
  5
18228
  8
YODOROGO
 10
29777.604341291921
 20
1562.0054374176559
 30
0.0
 11
29771.409872985321
 21
1556.807661346234
 31
0.0
  0
LINE
  5
18229
  8
YODOROGO
 10
29777.604341291921
 20
1627.749496429288
 30
0.0
 11
29777.604341291921
 21
1562.0054374176559
 31
0.0
  0
LINE
  5
1822A
  8
YODOROGO
 10
29737.604341291921
 20
1528.4414521705639
 30
0.0
 11
29737.604341291921
 21
1427.749496429288
 31
0.0
  0
LINE
  5
1822B
  8
YODOROGO
 10
29617.604341291921
 20
1427.749496429288
 30
0.0
 11
29737.604341291921
 21
1528.4414521705639
 31
0.0
  0
LINE
  5
1822C
  8
YODOROGO
 10
29617.604341291921
 20
1547.749496429288
 30
0.0
 11
29617.604341291921
 21
1427.749496429288
 31
0.0
  0
LINE
  5
1822D
  8
YODOROGO
 10
29712.94462869945
 20
1627.749496429288
 30
0.0
 11
29617.604341291921
 21
1547.749496429288
 31
0.0
  0
LINE
  5
1822E
  8
YODOROGO
 10
29617.604341291921
 20
1627.749496429288
 30
0.0
 11
29712.94462869945
 21
1627.749496429288
 31
0.0
  0
LINE
  5
1822F
  8
YODOROGO
 10
29617.604341291921
 20
1667.749496429288
 30
0.0
 11
29617.604341291921
 21
1627.749496429288
 31
0.0
  0
LINE
  5
18230
  8
YODOROGO
 10
29885.604341291921
 20
1667.749496429288
 30
0.0
 11
29617.604341291921
 21
1667.749496429288
 31
0.0
  0
LINE
  5
18231
  8
YODOROGO
 10
28793.60434129191
 20
1747.74949642929
 30
0.0
 11
28793.60434129191
 21
1819.7494964292871
 31
0.0
  0
LINE
  5
18232
  8
YODOROGO
 10
28657.604341291921
 20
1747.74949642929
 30
0.0
 11
28793.60434129191
 21
1747.74949642929
 31
0.0
  0
LINE
  5
18233
  8
YODOROGO
 10
28729.604341291921
 20
1867.7494964292871
 30
0.0
 11
28729.604341291921
 21
1923.7494964292871
 31
0.0
  0
LINE
  5
18234
  8
YODOROGO
 10
28793.60434129191
 20
1867.7494964292871
 30
0.0
 11
28729.604341291921
 21
1867.7494964292871
 31
0.0
  0
LINE
  5
18235
  8
YODOROGO
 10
28793.60434129191
 20
1947.749496429288
 30
0.0
 11
28793.60434129191
 21
1867.7494964292871
 31
0.0
  0
ARC
  5
18236
  8
YODOROGO
 10
28753.60434129191
 20
1947.749496429288
 30
0.0
 40
40.0
 50
0.0
 51
90.0
  0
LINE
  5
18237
  8
YODOROGO
 10
28657.604341291921
 20
1987.7494964292871
 30
0.0
 11
28753.60434129191
 21
1987.7494964292871
 31
0.0
  0
LINE
  5
18238
  8
YODOROGO
 10
28657.604341291921
 20
2027.749496429288
 30
0.0
 11
28657.604341291921
 21
1987.7494964292871
 31
0.0
  0
LINE
  5
18239
  8
YODOROGO
 10
29073.604341291921
 20
2027.749496429288
 30
0.0
 11
29001.60434129191
 21
2027.749496429288
 31
0.0
  0
LINE
  5
1823A
  8
YODOROGO
 10
29261.604341291921
 20
2007.749496429288
 30
0.0
 11
29197.604341291921
 21
2007.749496429288
 31
0.0
  0
LINE
  5
1823B
  8
YODOROGO
 10
29457.604341291921
 20
2027.749496429288
 30
0.0
 11
29385.604341291921
 21
2027.749496429288
 31
0.0
  0
LINE
  5
1823C
  8
YODOROGO
 10
29673.604341291921
 20
1707.749496429288
 30
0.0
 11
29673.604341291921
 21
1771.7494964292871
 31
0.0
1001
AUTOCAD_POSTSCRIPT_FIGURE
1002
{
1000
PSFILL
1000
Grayscale
1000
Grayscale
1070
    25
1002
}
  0
LINE
  5
1823D
  8
YODOROGO
 10
29617.604341291921
 20
1707.749496429288
 30
0.0
 11
29673.604341291921
 21
1707.749496429288
 31
0.0
1001
AUTOCAD_POSTSCRIPT_FIGURE
1002
{
1000
PSFILL
1000
Grayscale
1000
Grayscale
1070
    25
1002
}
  0
LINE
  5
1823E
  8
YODOROGO
 10
29617.604341291921
 20
1819.7494964292871
 30
0.0
 11
29617.604341291921
 21
1707.749496429288
 31
0.0
1001
AUTOCAD_POSTSCRIPT_FIGURE
1002
{
1000
PSFILL
1000
Grayscale
1000
Grayscale
1070
    25
1002
}
  0
LINE
  5
1823F
  8
YODOROGO
 10
29765.604341291921
 20
1819.7494964292871
 30
0.0
 11
29617.604341291921
 21
1819.7494964292871
 31
0.0
1001
AUTOCAD_POSTSCRIPT_FIGURE
1002
{
1000
PSFILL
1000
Grayscale
1000
Grayscale
1070
    25
1002
}
  0
LINE
  5
18240
  8
YODOROGO
 10
29765.604341291921
 20
1859.749496429288
 30
0.0
 11
29765.604341291921
 21
1819.7494964292871
 31
0.0
1001
AUTOCAD_POSTSCRIPT_FIGURE
1002
{
1000
PSFILL
1000
Grayscale
1000
Grayscale
1070
    25
1002
}
  0
LINE
  5
18241
  8
YODOROGO
 10
29617.604341291921
 20
1859.749496429288
 30
0.0
 11
29765.604341291921
 21
1859.749496429288
 31
0.0
1001
AUTOCAD_POSTSCRIPT_FIGURE
1002
{
1000
PSFILL
1000
Grayscale
1000
Grayscale
1070
    25
1002
}
  0
LINE
  5
18242
  8
YODOROGO
 10
29617.604341291921
 20
1907.7494964292871
 30
0.0
 11
29617.604341291921
 21
1859.749496429288
 31
0.0
1001
AUTOCAD_POSTSCRIPT_FIGURE
1002
{
1000
PSFILL
1000
Grayscale
1000
Grayscale
1070
    25
1002
}
  0
LINE
  5
18243
  8
YODOROGO
 10
29765.604341291921
 20
1907.7494964292871
 30
0.0
 11
29617.604341291921
 21
1907.7494964292871
 31
0.0
1001
AUTOCAD_POSTSCRIPT_FIGURE
1002
{
1000
PSFILL
1000
Grayscale
1000
Grayscale
1070
    25
1002
}
  0
LINE
  5
18244
  8
YODOROGO
 10
29765.604341291921
 20
1947.749496429288
 30
0.0
 11
29765.604341291921
 21
1907.7494964292871
 31
0.0
1001
AUTOCAD_POSTSCRIPT_FIGURE
1002
{
1000
PSFILL
1000
Grayscale
1000
Grayscale
1070
    25
1002
}
  0
LINE
  5
18245
  8
YODOROGO
 10
29617.604341291921
 20
1947.749496429288
 30
0.0
 11
29765.604341291921
 21
1947.749496429288
 31
0.0
1001
AUTOCAD_POSTSCRIPT_FIGURE
1002
{
1000
PSFILL
1000
Grayscale
1000
Grayscale
1070
    25
1002
}
  0
LINE
  5
18246
  8
YODOROGO
 10
29617.604341291921
 20
2027.749496429288
 30
0.0
 11
29617.604341291921
 21
1947.749496429288
 31
0.0
1001
AUTOCAD_POSTSCRIPT_FIGURE
1002
{
1000
PSFILL
1000
Grayscale
1000
Grayscale
1070
    25
1002
}
  0
LINE
  5
18247
  8
YODOROGO
 10
29665.604341291921
 20
2027.749496429288
 30
0.0
 11
29617.604341291921
 21
2027.749496429288
 31
0.0
1001
AUTOCAD_POSTSCRIPT_FIGURE
1002
{
1000
PSFILL
1000
Grayscale
1000
Grayscale
1070
    25
1002
}
  0
LINE
  5
18248
  8
YODOROGO
 10
29665.604341291921
 20
1995.7494964292871
 30
0.0
 11
29665.604341291921
 21
2027.749496429288
 31
0.0
1001
AUTOCAD_POSTSCRIPT_FIGURE
1002
{
1000
PSFILL
1000
Grayscale
1000
Grayscale
1070
    25
1002
}
  0
LINE
  5
18249
  8
YODOROGO
 10
29765.604341291921
 20
1995.7494964292871
 30
0.0
 11
29665.604341291921
 21
1995.7494964292871
 31
0.0
1001
AUTOCAD_POSTSCRIPT_FIGURE
1002
{
1000
PSFILL
1000
Grayscale
1000
Grayscale
1070
    25
1002
}
  0
LINE
  5
1824A
  8
YODOROGO
 10
29765.604341291921
 20
2027.749496429288
 30
0.0
 11
29765.604341291921
 21
1995.7494964292871
 31
0.0
1001
AUTOCAD_POSTSCRIPT_FIGURE
1002
{
1000
PSFILL
1000
Grayscale
1000
Grayscale
1070
    25
1002
}
  0
LINE
  5
1824B
  8
YODOROGO
 10
29829.604341291921
 20
2027.749496429288
 30
0.0
 11
29765.604341291921
 21
2027.749496429288
 31
0.0
1001
AUTOCAD_POSTSCRIPT_FIGURE
1002
{
1000
PSFILL
1000
Grayscale
1000
Grayscale
1070
    25
1002
}
  0
LINE
  5
1824C
  8
YODOROGO
 10
29829.604341291921
 20
1995.7494964292871
 30
0.0
 11
29829.604341291921
 21
2027.749496429288
 31
0.0
1001
AUTOCAD_POSTSCRIPT_FIGURE
1002
{
1000
PSFILL
1000
Grayscale
1000
Grayscale
1070
    25
1002
}
  0
LINE
  5
1824D
  8
YODOROGO
 10
29829.604341291921
 20
1907.7494964292871
 30
0.0
 11
29829.604341291921
 21
1947.749496429288
 31
0.0
1001
AUTOCAD_POSTSCRIPT_FIGURE
1002
{
1000
PSFILL
1000
Grayscale
1000
Grayscale
1070
    25
1002
}
  0
LINE
  5
1824E
  8
YODOROGO
 10
29829.604341291921
 20
1819.7494964292871
 30
0.0
 11
29829.604341291921
 21
1859.749496429288
 31
0.0
1001
AUTOCAD_POSTSCRIPT_FIGURE
1002
{
1000
PSFILL
1000
Grayscale
1000
Grayscale
1070
    25
1002
}
  0
LINE
  5
1824F
  8
YODOROGO
 10
29921.60434129191
 20
1771.7494964292871
 30
0.0
 11
29921.60434129191
 21
1707.749496429288
 31
0.0
1001
AUTOCAD_POSTSCRIPT_FIGURE
1002
{
1000
PSFILL
1000
Grayscale
1000
Grayscale
1070
    25
1002
}
  0
LINE
  5
18250
  8
YODOROGO
 10
29829.604341291921
 20
1771.7494964292871
 30
0.0
 11
29921.60434129191
 21
1771.7494964292871
 31
0.0
1001
AUTOCAD_POSTSCRIPT_FIGURE
1002
{
1000
PSFILL
1000
Grayscale
1000
Grayscale
1070
    25
1002
}
  0
LINE
  5
18251
  8
YODOROGO
 10
29829.604341291921
 20
1707.749496429288
 30
0.0
 11
29829.604341291921
 21
1771.7494964292871
 31
0.0
1001
AUTOCAD_POSTSCRIPT_FIGURE
1002
{
1000
PSFILL
1000
Grayscale
1000
Grayscale
1070
    25
1002
}
  0
LINE
  5
18252
  8
YODOROGO
 10
29765.604341291921
 20
1707.749496429288
 30
0.0
 11
29829.604341291921
 21
1707.749496429288
 31
0.0
1001
AUTOCAD_POSTSCRIPT_FIGURE
1002
{
1000
PSFILL
1000
Grayscale
1000
Grayscale
1070
    25
1002
}
  0
LINE
  5
18253
  8
YODOROGO
 10
29765.604341291921
 20
1771.7494964292871
 30
0.0
 11
29765.604341291921
 21
1707.749496429288
 31
0.0
1001
AUTOCAD_POSTSCRIPT_FIGURE
1002
{
1000
PSFILL
1000
Grayscale
1000
Grayscale
1070
    25
1002
}
  0
LINE
  5
18254
  8
YODOROGO
 10
29673.604341291921
 20
1771.7494964292871
 30
0.0
 11
29765.604341291921
 21
1771.7494964292871
 31
0.0
1001
AUTOCAD_POSTSCRIPT_FIGURE
1002
{
1000
PSFILL
1000
Grayscale
1000
Grayscale
1070
    25
1002
}
  0
ARC
  5
18255
  8
YODOROGO
 10
31059.517893357912
 20
1602.6807375155761
 30
0.0
 40
178.22128111072141
 50
281.02627495425338
 51
357.77113575573799
  0
LINE
  5
18256
  8
YODOROGO
 10
31413.604341291921
 20
1907.7494964292871
 30
0.0
 11
31165.604341291921
 21
1907.7494964292871
 31
0.0
  0
LINE
  5
18257
  8
YODOROGO
 10
31413.604341291921
 20
2027.749496429288
 30
0.0
 11
31165.604341291921
 21
2027.749496429288
 31
0.0
  0
LINE
  5
18258
  8
YODOROGO
 10
31165.604341291921
 20
1963.749496429286
 30
0.0
 11
31413.604341291921
 21
1963.749496429286
 31
0.0
  0
LINE
  5
18259
  8
YODOROGO
 10
30791.604341291921
 20
1563.7494964292871
 30
0.0
 11
30791.604341291921
 21
1755.7494964292871
 31
0.0
  0
LINE
  5
1825A
  8
YODOROGO
 10
30763.604341291921
 20
1691.749496429288
 30
0.0
 11
30763.604341291921
 21
1563.7494964292871
 31
0.0
  0
LINE
  5
1825B
  8
YODOROGO
 10
30723.604341291921
 20
1491.749496429288
 30
0.0
 11
30723.604341291921
 21
1691.749496429288
 31
0.0
  0
LINE
  5
1825C
  8
YODOROGO
 10
30899.604341291932
 20
1691.749496429288
 30
0.0
 11
30899.604341291932
 21
1491.749496429288
 31
0.0
  0
LINE
  5
1825D
  8
YODOROGO
 10
30859.604341291932
 20
1563.7494964292871
 30
0.0
 11
30859.604341291932
 21
1691.749496429288
 31
0.0
  0
LINE
  5
1825E
  8
YODOROGO
 10
30831.604341291921
 20
1755.7494964292871
 30
0.0
 11
30831.604341291921
 21
1563.7494964292871
 31
0.0
  0
LINE
  5
1825F
  8
YODOROGO
 10
30973.604341291921
 20
2027.749496429288
 30
0.0
 11
30973.604341291921
 21
1467.749496429288
 31
0.0
  0
LINE
  5
18260
  8
YODOROGO
 10
30645.604341291921
 20
1427.749496429288
 30
0.0
 11
30645.604341291921
 21
2027.749496429288
 31
0.0
  0
LINE
  5
18261
  8
YODOROGO
 10
30697.604341291932
 20
1963.749496429286
 30
0.0
 11
30697.604341291932
 21
1427.749496429288
 31
0.0
  0
LINE
  5
18262
  8
YODOROGO
 10
30925.604341291921
 20
1547.749496429288
 30
0.0
 11
30925.604341291921
 21
1963.749496429286
 31
0.0
  0
LINE
  5
18263
  8
YODOROGO
 10
30381.604341291932
 20
1627.749496429288
 30
0.0
 11
30381.604341291932
 21
1679.749496429288
 31
0.0
  0
LINE
  5
18264
  8
YODOROGO
 10
30617.604341291921
 20
1679.749496429288
 30
0.0
 11
30617.604341291921
 21
1627.749496429288
 31
0.0
  0
LINE
  5
18265
  8
YODOROGO
 10
31165.604341291921
 20
1907.7494964292871
 30
0.0
 11
31165.604341291921
 21
1635.7494964292871
 31
0.0
  0
LINE
  5
18266
  8
YODOROGO
 10
29949.60434129191
 20
1667.749496429288
 30
0.0
 11
29949.60434129191
 21
1707.749496429288
 31
0.0
  0
LINE
  5
18267
  8
YODOROGO
 10
29949.60434129191
 20
1667.749496429288
 30
0.0
 11
29949.60434129191
 21
1707.749496429288
 31
0.0
  0
ARC
  5
18268
  8
YODOROGO
 10
30537.604341291921
 20
1507.749496429288
 30
0.0
 40
80.0
 50
270.0
 51
0.0
  0
LINE
  5
18269
  8
YODOROGO
 10
30569.604341291921
 20
1599.7494964292871
 30
0.0
 11
30617.604341291921
 21
1599.7494964292871
 31
0.0
  0
LINE
  5
1826A
  8
YODOROGO
 10
30617.604341291921
 20
1627.749496429288
 30
0.0
 11
30529.604341291939
 21
1627.749496429288
 31
0.0
  0
LINE
  5
1826B
  8
YODOROGO
 10
30217.604341291921
 20
1667.749496429288
 30
0.0
 11
29949.60434129191
 21
1667.749496429288
 31
0.0
  0
LINE
  5
1826C
  8
YODOROGO
 10
30217.604341291921
 20
1627.749496429288
 30
0.0
 11
30217.604341291921
 21
1667.749496429288
 31
0.0
  0
LINE
  5
1826D
  8
YODOROGO
 10
30017.604341291921
 20
1627.749496429288
 30
0.0
 11
30217.604341291921
 21
1627.749496429288
 31
0.0
  0
ARC
  5
1826E
  8
YODOROGO
 10
30230.05882870136
 20
1868.885714952901
 30
0.0
 40
321.37763628522822
 50
228.6181454618993
 51
245.660289248906
  0
LINE
  5
1826F
  8
YODOROGO
 10
30105.604341291921
 20
1603.7494964292871
 30
0.0
 11
30097.60434129195
 21
1576.0728158699001
 31
0.0
  0
LINE
  5
18270
  8
YODOROGO
 10
30189.604341291921
 20
1603.7494964292871
 30
0.0
 11
30105.604341291921
 21
1603.7494964292871
 31
0.0
  0
LINE
  5
18271
  8
YODOROGO
 10
30177.604341291921
 20
1551.817722473427
 30
0.0
 11
30189.604341291921
 21
1603.7494964292871
 31
0.0
  0
ARC
  5
18272
  8
YODOROGO
 10
30230.05882870045
 20
1868.885714953002
 30
0.0
 40
321.37763628529081
 50
260.60629297969911
 51
267.77903556555862
  0
LINE
  5
18273
  8
YODOROGO
 10
30217.604341291921
 20
1427.749496429285
 30
0.0
 11
30217.604341291921
 21
1547.749496429288
 31
0.0
  0
LINE
  5
18274
  8
YODOROGO
 10
29937.604341291932
 20
1481.3393349155101
 30
0.0
 11
29937.604341291921
 21
1594.531090531141
 31
0.0
  0
LINE
  5
18275
  8
YODOROGO
 10
30217.604341291921
 20
1667.749496429288
 30
0.0
 11
29949.60434129191
 21
1667.749496429288
 31
0.0
  0
LINE
  5
18276
  8
YODOROGO
 10
30217.604341291921
 20
1627.749496429288
 30
0.0
 11
30217.604341291921
 21
1667.749496429288
 31
0.0
  0
LINE
  5
18277
  8
YODOROGO
 10
30017.604341291921
 20
1627.749496429288
 30
0.0
 11
30217.604341291921
 21
1627.749496429288
 31
0.0
  0
ARC
  5
18278
  8
YODOROGO
 10
30230.05882870136
 20
1868.885714952901
 30
0.0
 40
321.37763628522822
 50
228.6181454618993
 51
245.660289248906
  0
LINE
  5
18279
  8
YODOROGO
 10
30105.604341291921
 20
1603.7494964292871
 30
0.0
 11
30097.60434129195
 21
1576.0728158699001
 31
0.0
  0
LINE
  5
1827A
  8
YODOROGO
 10
30189.604341291921
 20
1603.7494964292871
 30
0.0
 11
30105.604341291921
 21
1603.7494964292871
 31
0.0
  0
LINE
  5
1827B
  8
YODOROGO
 10
30177.604341291921
 20
1551.817722473427
 30
0.0
 11
30189.604341291921
 21
1603.7494964292871
 31
0.0
  0
ARC
  5
1827C
  8
YODOROGO
 10
30230.05882870045
 20
1868.885714953002
 30
0.0
 40
321.37763628529081
 50
260.60629297969911
 51
267.77903556555862
  0
LINE
  5
1827D
  8
YODOROGO
 10
30217.604341291921
 20
1427.749496429285
 30
0.0
 11
30217.604341291921
 21
1547.749496429288
 31
0.0
  0
LINE
  5
1827E
  8
YODOROGO
 10
29937.604341291932
 20
1481.3393349155101
 30
0.0
 11
29937.604341291921
 21
1594.531090531141
 31
0.0
  0
LINE
  5
1827F
  8
YODOROGO
 10
30433.604341291921
 20
1573.749496429288
 30
0.0
 11
30381.604341291932
 21
1573.749496429288
 31
0.0
  0
LINE
  5
18280
  8
YODOROGO
 10
30433.604341291921
 20
1601.749496429285
 30
0.0
 11
30433.604341291921
 21
1573.749496429288
 31
0.0
  0
LINE
  5
18281
  8
YODOROGO
 10
30381.604341291932
 20
1601.749496429285
 30
0.0
 11
30433.604341291921
 21
1601.749496429285
 31
0.0
  0
LINE
  5
18282
  8
YODOROGO
 10
30381.604341291932
 20
1573.749496429288
 30
0.0
 11
30381.604341291932
 21
1601.749496429285
 31
0.0
  0
LINE
  5
18283
  8
YODOROGO
 10
30429.604341291921
 20
1577.7494964292871
 30
0.0
 11
30385.604341291921
 21
1577.7494964292871
 31
0.0
  0
LINE
  5
18284
  8
YODOROGO
 10
30429.604341291921
 20
1597.749496429288
 30
0.0
 11
30429.604341291921
 21
1577.7494964292871
 31
0.0
  0
LINE
  5
18285
  8
YODOROGO
 10
30385.604341291921
 20
1597.749496429288
 30
0.0
 11
30429.604341291921
 21
1597.749496429288
 31
0.0
  0
LINE
  5
18286
  8
YODOROGO
 10
30385.604341291921
 20
1577.7494964292871
 30
0.0
 11
30385.604341291921
 21
1597.749496429288
 31
0.0
  0
LINE
  5
18287
  8
YODOROGO
 10
30425.604341291921
 20
1581.749496429286
 30
0.0
 11
30389.604341291921
 21
1581.749496429286
 31
0.0
  0
LINE
  5
18288
  8
YODOROGO
 10
30425.604341291921
 20
1593.749496429288
 30
0.0
 11
30425.604341291921
 21
1581.749496429286
 31
0.0
  0
LINE
  5
18289
  8
YODOROGO
 10
30389.604341291921
 20
1593.749496429288
 30
0.0
 11
30425.604341291921
 21
1593.749496429288
 31
0.0
  0
LINE
  5
1828A
  8
YODOROGO
 10
30389.604341291921
 20
1581.749496429286
 30
0.0
 11
30389.604341291921
 21
1593.749496429288
 31
0.0
  0
LINE
  5
1828B
  8
YODOROGO
 10
30421.604341291932
 20
1585.7494964292871
 30
0.0
 11
30393.604341291921
 21
1585.7494964292871
 31
0.0
  0
LINE
  5
1828C
  8
YODOROGO
 10
30421.604341291932
 20
1589.749496429288
 30
0.0
 11
30421.604341291932
 21
1585.7494964292871
 31
0.0
  0
LINE
  5
1828D
  8
YODOROGO
 10
30393.604341291921
 20
1589.749496429288
 30
0.0
 11
30421.604341291932
 21
1589.749496429288
 31
0.0
  0
LINE
  5
1828E
  8
YODOROGO
 10
30393.604341291921
 20
1585.7494964292871
 30
0.0
 11
30393.604341291921
 21
1589.749496429288
 31
0.0
  0
LINE
  5
1828F
  8
YODOROGO
 10
30465.604341291921
 20
1627.749496429288
 30
0.0
 11
30381.604341291932
 21
1627.749496429288
 31
0.0
  0
LINE
  5
18290
  8
YODOROGO
 10
30465.604341291921
 20
1547.749496429288
 30
0.0
 11
30465.604341291921
 21
1627.749496429288
 31
0.0
  0
LINE
  5
18291
  8
YODOROGO
 10
30381.604341291932
 20
1547.749496429288
 30
0.0
 11
30465.604341291921
 21
1547.749496429288
 31
0.0
  0
LINE
  5
18292
  8
YODOROGO
 10
30381.604341291932
 20
1427.749496429288
 30
0.0
 11
30381.604341291932
 21
1547.749496429288
 31
0.0
  0
LINE
  5
18293
  8
YODOROGO
 10
30537.604341291921
 20
1427.749496429288
 30
0.0
 11
30381.604341291932
 21
1427.749496429288
 31
0.0
  0
LINE
  5
18294
  8
YODOROGO
 10
30569.604341291921
 20
1571.749496429285
 30
0.0
 11
30569.604341291921
 21
1599.7494964292871
 31
0.0
  0
ARC
  5
18295
  8
YODOROGO
 10
30545.604341291921
 20
1571.749496429291
 30
0.0
 40
24.000000000003752
 50
270.0
 51
359.99999999998772
  0
LINE
  5
18296
  8
YODOROGO
 10
30529.604341291939
 20
1547.749496429288
 30
0.0
 11
30545.604341291921
 21
1547.749496429288
 31
0.0
  0
LINE
  5
18297
  8
YODOROGO
 10
30529.604341291939
 20
1627.749496429288
 30
0.0
 11
30529.604341291939
 21
1547.749496429288
 31
0.0
  0
LINE
  5
18298
  8
YODOROGO
 10
30899.604341291932
 20
1547.749496429288
 30
0.0
 11
30925.604341291921
 21
1547.749496429288
 31
0.0
  0
LINE
  5
18299
  8
YODOROGO
 10
30933.604341291921
 20
1427.749496429288
 30
0.0
 11
30899.604341291932
 21
1427.749496429288
 31
0.0
  0
LINE
  5
1829A
  8
YODOROGO
 10
30763.604341291921
 20
1563.7494964292871
 30
0.0
 11
30791.604341291921
 21
1563.7494964292871
 31
0.0
  0
LINE
  5
1829B
  8
YODOROGO
 10
30899.604341291932
 20
1491.749496429288
 30
0.0
 11
30723.604341291921
 21
1491.749496429288
 31
0.0
  0
LINE
  5
1829C
  8
YODOROGO
 10
30831.604341291921
 20
1563.7494964292871
 30
0.0
 11
30859.604341291932
 21
1563.7494964292871
 31
0.0
  0
LINE
  5
1829D
  8
YODOROGO
 10
30899.604341291932
 20
1427.749496429288
 30
0.0
 11
30899.604341291932
 21
1547.749496429288
 31
0.0
  0
LINE
  5
1829E
  8
YODOROGO
 10
30697.604341291932
 20
1427.749496429288
 30
0.0
 11
30645.604341291921
 21
1427.749496429288
 31
0.0
  0
LINE
  5
1829F
  8
YODOROGO
 10
30617.604341291921
 20
1599.7494964292871
 30
0.0
 11
30617.604341291921
 21
1507.749496429288
 31
0.0
  0
ARC
  5
182A0
  8
YODOROGO
 10
30933.604341291921
 20
1467.749496429288
 30
0.0
 40
40.0
 50
270.0
 51
0.0
  0
LINE
  5
182A1
  8
YODOROGO
 10
31093.604341291921
 20
1523.7494964292871
 30
0.0
 11
31093.604341291921
 21
1427.749496429288
 31
0.0
  0
ARC
  5
182A2
  8
YODOROGO
 10
31039.721395566768
 20
1637.5313901097329
 30
0.0
 40
125.8955565916754
 50
295.34052442160112
 51
359.18902303418679
  0
LINE
  5
182A3
  8
YODOROGO
 10
30617.604341291921
 20
1859.749496429288
 30
0.0
 11
30497.604341291921
 21
1939.749496429288
 31
0.0
  0
LINE
  5
182A4
  8
YODOROGO
 10
30497.604341291921
 20
2027.749496429288
 30
0.0
 11
30617.604341291921
 21
1947.749496429288
 31
0.0
  0
LINE
  5
182A5
  8
YODOROGO
 10
30529.604341291939
 20
1679.749496429288
 30
0.0
 11
30617.604341291921
 21
1679.749496429288
 31
0.0
  0
LINE
  5
182A6
  8
YODOROGO
 10
30617.604341291921
 20
1735.7494964292871
 30
0.0
 11
30529.604341291939
 21
1735.7494964292871
 31
0.0
  0
LINE
  5
182A7
  8
YODOROGO
 10
30381.604341291932
 20
1795.7494964292871
 30
0.0
 11
30617.604341291921
 21
1795.7494964292871
 31
0.0
  0
LINE
  5
182A8
  8
YODOROGO
 10
30081.604341291921
 20
2027.749496429288
 30
0.0
 11
30021.604341291921
 21
2027.749496429288
 31
0.0
  0
LINE
  5
182A9
  8
YODOROGO
 10
30081.604341291921
 20
1827.7494964292871
 30
0.0
 11
30081.604341291921
 21
2027.749496429288
 31
0.0
  0
LINE
  5
182AA
  8
YODOROGO
 10
30021.604341291921
 20
1827.7494964292871
 30
0.0
 11
30081.604341291921
 21
1827.7494964292871
 31
0.0
  0
LINE
  5
182AB
  8
YODOROGO
 10
30021.604341291921
 20
2027.749496429288
 30
0.0
 11
30021.604341291921
 21
1827.7494964292871
 31
0.0
  0
LINE
  5
182AC
  8
YODOROGO
 10
30161.604341291921
 20
2027.749496429288
 30
0.0
 11
30217.604341291921
 21
2027.749496429288
 31
0.0
  0
LINE
  5
182AD
  8
YODOROGO
 10
30161.604341291921
 20
1811.749496429288
 30
0.0
 11
30161.604341291921
 21
2027.749496429288
 31
0.0
  0
ARC
  5
182AE
  8
YODOROGO
 10
30121.604341291921
 20
1811.749496429288
 30
0.0
 40
40.0
 50
270.0
 51
0.0
  0
LINE
  5
182AF
  8
YODOROGO
 10
30021.604341291921
 20
1771.7494964292871
 30
0.0
 11
30121.604341291921
 21
1771.7494964292871
 31
0.0
  0
LINE
  5
182B0
  8
YODOROGO
 10
30021.604341291921
 20
1707.749496429288
 30
0.0
 11
30021.604341291921
 21
1771.7494964292871
 31
0.0
  0
LINE
  5
182B1
  8
YODOROGO
 10
30137.604341291921
 20
1707.749496429288
 30
0.0
 11
30021.604341291921
 21
1707.749496429288
 31
0.0
  0
ARC
  5
182B2
  8
YODOROGO
 10
30137.604341291921
 20
1787.7494964292871
 30
0.0
 40
80.0
 50
270.0
 51
0.0
  0
LINE
  5
182B3
  8
YODOROGO
 10
30217.604341291921
 20
2027.749496429288
 30
0.0
 11
30217.604341291921
 21
1787.7494964292871
 31
0.0
  0
LINE
  5
182B4
  8
YODOROGO
 10
29977.604341291921
 20
1947.749496429288
 30
0.0
 11
29977.604341291921
 21
1995.7494964292871
 31
0.0
1001
AUTOCAD_POSTSCRIPT_FIGURE
1002
{
1000
PSFILL
1000
Grayscale
1000
Grayscale
1070
    25
1002
}
  0
LINE
  5
182B5
  8
YODOROGO
 10
29977.604341291921
 20
1859.749496429288
 30
0.0
 11
29977.604341291921
 21
1907.7494964292871
 31
0.0
1001
AUTOCAD_POSTSCRIPT_FIGURE
1002
{
1000
PSFILL
1000
Grayscale
1000
Grayscale
1070
    25
1002
}
  0
LINE
  5
182B6
  8
YODOROGO
 10
29977.604341291921
 20
1707.749496429288
 30
0.0
 11
29977.604341291921
 21
1819.7494964292871
 31
0.0
1001
AUTOCAD_POSTSCRIPT_FIGURE
1002
{
1000
PSFILL
1000
Grayscale
1000
Grayscale
1070
    25
1002
}
  0
LINE
  5
182B7
  8
YODOROGO
 10
30381.604341291932
 20
1907.7494964292871
 30
0.0
 11
30497.604341291921
 21
2027.749496429288
 31
0.0
  0
LINE
  5
182B8
  8
YODOROGO
 10
30381.604341291932
 20
1819.7494964292871
 30
0.0
 11
30381.604341291932
 21
1907.7494964292871
 31
0.0
  0
LINE
  5
182B9
  8
YODOROGO
 10
30497.604341291921
 20
1939.749496429288
 30
0.0
 11
30381.604341291932
 21
1819.7494964292871
 31
0.0
  0
LINE
  5
182BA
  8
YODOROGO
 10
30465.604341291921
 20
1679.749496429288
 30
0.0
 11
30465.604341291921
 21
1735.7494964292871
 31
0.0
  0
LINE
  5
182BB
  8
YODOROGO
 10
30381.604341291932
 20
1679.749496429288
 30
0.0
 11
30465.604341291921
 21
1679.749496429288
 31
0.0
  0
LINE
  5
182BC
  8
YODOROGO
 10
30529.604341291939
 20
1735.7494964292871
 30
0.0
 11
30529.604341291939
 21
1679.749496429288
 31
0.0
  0
LINE
  5
182BD
  8
YODOROGO
 10
30381.604341291932
 20
1735.7494964292871
 30
0.0
 11
30381.604341291932
 21
1795.7494964292871
 31
0.0
  0
LINE
  5
182BE
  8
YODOROGO
 10
30465.604341291921
 20
1735.7494964292871
 30
0.0
 11
30381.604341291932
 21
1735.7494964292871
 31
0.0
  0
LINE
  5
182BF
  8
YODOROGO
 10
30645.604341291921
 20
2027.749496429288
 30
0.0
 11
30973.604341291921
 21
2027.749496429288
 31
0.0
  0
LINE
  5
182C0
  8
YODOROGO
 10
30925.604341291921
 20
1963.749496429286
 30
0.0
 11
30697.604341291932
 21
1963.749496429286
 31
0.0
  0
LINE
  5
182C1
  8
YODOROGO
 10
30873.604341291921
 20
1819.7494964292871
 30
0.0
 11
30899.604341291932
 21
1819.7494964292871
 31
0.0
  0
LINE
  5
182C2
  8
YODOROGO
 10
30899.604341291932
 20
1939.749496429288
 30
0.0
 11
30873.604341291921
 21
1819.7494964292871
 31
0.0
  0
LINE
  5
182C3
  8
YODOROGO
 10
30851.604341291939
 20
1939.749496429288
 30
0.0
 11
30899.604341291932
 21
1939.749496429288
 31
0.0
  0
LINE
  5
182C4
  8
YODOROGO
 10
30825.604341291921
 20
1819.7494964292871
 30
0.0
 11
30851.604341291939
 21
1939.749496429288
 31
0.0
  0
LINE
  5
182C5
  8
YODOROGO
 10
30797.604341291921
 20
1819.7494964292871
 30
0.0
 11
30825.604341291921
 21
1819.7494964292871
 31
0.0
  0
LINE
  5
182C6
  8
YODOROGO
 10
30771.604341291939
 20
1939.749496429288
 30
0.0
 11
30797.604341291921
 21
1819.7494964292871
 31
0.0
  0
LINE
  5
182C7
  8
YODOROGO
 10
30723.604341291921
 20
1939.749496429288
 30
0.0
 11
30771.604341291939
 21
1939.749496429288
 31
0.0
  0
LINE
  5
182C8
  8
YODOROGO
 10
30749.604341291921
 20
1819.7494964292871
 30
0.0
 11
30723.604341291921
 21
1939.749496429288
 31
0.0
  0
LINE
  5
182C9
  8
YODOROGO
 10
30723.604341291921
 20
1819.7494964292871
 30
0.0
 11
30749.604341291921
 21
1819.7494964292871
 31
0.0
  0
LINE
  5
182CA
  8
YODOROGO
 10
30723.604341291921
 20
1755.7494964292871
 30
0.0
 11
30723.604341291921
 21
1819.7494964292871
 31
0.0
  0
LINE
  5
182CB
  8
YODOROGO
 10
30899.604341291932
 20
1755.7494964292871
 30
0.0
 11
30723.604341291921
 21
1755.7494964292871
 31
0.0
  0
LINE
  5
182CC
  8
YODOROGO
 10
30899.604341291932
 20
1819.7494964292871
 30
0.0
 11
30899.604341291932
 21
1755.7494964292871
 31
0.0
  0
LINE
  5
182CD
  8
YODOROGO
 10
30617.604341291921
 20
1947.749496429288
 30
0.0
 11
30617.604341291921
 21
1859.749496429288
 31
0.0
  0
LINE
  5
182CE
  8
YODOROGO
 10
30791.604341291921
 20
1755.7494964292871
 30
0.0
 11
30831.604341291921
 21
1755.7494964292871
 31
0.0
  0
LINE
  5
182CF
  8
YODOROGO
 10
30723.604341291921
 20
1691.749496429288
 30
0.0
 11
30763.604341291921
 21
1691.749496429288
 31
0.0
  0
LINE
  5
182D0
  8
YODOROGO
 10
30859.604341291932
 20
1691.749496429288
 30
0.0
 11
30899.604341291932
 21
1691.749496429288
 31
0.0
  0
LINE
  5
182D1
  8
YODOROGO
 10
30617.604341291921
 20
1795.7494964292871
 30
0.0
 11
30617.604341291921
 21
1735.7494964292871
 31
0.0
  0
LINE
  5
182D2
  8
YODOROGO
 10
31165.604341291921
 20
2027.749496429288
 30
0.0
 11
31165.604341291921
 21
1963.749496429286
 31
0.0
  0
LINE
  5
182D3
  8
YODOROGO
 10
31533.604341291921
 20
1595.7494964292871
 30
0.0
 11
31533.60434129191
 21
1811.749496429288
 31
0.0
  0
LINE
  5
182D4
  8
YODOROGO
 10
31461.60434129191
 20
1987.7494964292871
 30
0.0
 11
31461.60434129191
 21
1635.7494964292871
 31
0.0
  0
LINE
  5
182D5
  8
YODOROGO
 10
31653.604341291921
 20
1427.749496429288
 30
0.0
 11
31653.60434129191
 21
1811.749496429288
 31
0.0
  0
LINE
  5
182D6
  8
YODOROGO
 10
31589.604341291921
 20
1811.749496429288
 30
0.0
 11
31589.604341291921
 21
1427.749496429288
 31
0.0
  0
LINE
  5
182D7
  8
YODOROGO
 10
31237.604341291921
 20
1595.7494964292871
 30
0.0
 11
31237.604341291921
 21
1707.749496429288
 31
0.0
  0
ARC
  5
182D8
  8
YODOROGO
 10
31353.914865116069
 20
1607.790351288558
 30
0.0
 40
180.0924485759885
 50
268.62849102169793
 51
356.16638457330322
  0
LINE
  5
182D9
  8
YODOROGO
 10
31349.604341291939
 20
1527.749496429288
 30
0.0
 11
31349.604341291939
 21
1427.749496429288
 31
0.0
  0
ARC
  5
182DA
  8
YODOROGO
 10
31351.518075724562
 20
1637.838957017655
 30
0.0
 40
110.1060929836122
 50
269.00410209305932
 51
358.91264455492478
  0
LINE
  5
182DB
  8
YODOROGO
 10
31589.604341291921
 20
1427.749496429288
 30
0.0
 11
31653.604341291921
 21
1427.749496429288
 31
0.0
  0
LINE
  5
182DC
  8
YODOROGO
 10
31533.60434129191
 20
1811.749496429288
 30
0.0
 11
31589.604341291921
 21
1811.749496429288
 31
0.0
  0
LINE
  5
182DD
  8
YODOROGO
 10
31621.604341291939
 20
1987.7494964292871
 30
0.0
 11
31461.60434129191
 21
1987.7494964292871
 31
0.0
  0
LINE
  5
182DE
  8
YODOROGO
 10
31533.60434129191
 20
1915.7494964292871
 30
0.0
 11
31661.604341291939
 21
1915.7494964292871
 31
0.0
  0
LINE
  5
182DF
  8
YODOROGO
 10
31701.604341291939
 20
1875.7494964292871
 30
0.0
 11
31533.60434129191
 21
1875.7494964292871
 31
0.0
  0
LINE
  5
182E0
  8
YODOROGO
 10
31237.604341291921
 20
1779.749496429288
 30
0.0
 11
31349.604341291939
 21
1779.749496429288
 31
0.0
  0
LINE
  5
182E1
  8
YODOROGO
 10
31237.604341291921
 20
1835.7494964292871
 30
0.0
 11
31237.604341291921
 21
1779.749496429288
 31
0.0
  0
LINE
  5
182E2
  8
YODOROGO
 10
31349.604341291939
 20
1835.7494964292871
 30
0.0
 11
31237.604341291921
 21
1835.7494964292871
 31
0.0
  0
LINE
  5
182E3
  8
YODOROGO
 10
31349.604341291939
 20
1779.749496429288
 30
0.0
 11
31349.604341291939
 21
1835.7494964292871
 31
0.0
  0
LINE
  5
182E4
  8
YODOROGO
 10
31533.60434129191
 20
1875.7494964292871
 30
0.0
 11
31533.60434129191
 21
1915.7494964292871
 31
0.0
  0
LINE
  5
182E5
  8
YODOROGO
 10
31413.604341291921
 20
1707.749496429288
 30
0.0
 11
31413.604341291921
 21
1907.7494964292871
 31
0.0
  0
LINE
  5
182E6
  8
YODOROGO
 10
31237.604341291921
 20
1707.749496429288
 30
0.0
 11
31413.604341291921
 21
1707.749496429288
 31
0.0
  0
LINE
  5
182E7
  8
YODOROGO
 10
31413.604341291921
 20
1963.749496429286
 30
0.0
 11
31413.604341291921
 21
2027.749496429288
 31
0.0
  0
ARC
  5
182E8
  8
YODOROGO
 10
31621.604341291939
 20
2003.749496429285
 30
0.0
 40
15.999999999994539
 50
270.0
 51
0.0000000000081422
  0
LINE
  5
182E9
  8
YODOROGO
 10
31637.604341291921
 20
2027.749496429288
 30
0.0
 11
31637.604341291921
 21
2003.7494964292871
 31
0.0
  0
LINE
  5
182EA
  8
YODOROGO
 10
31701.604341291939
 20
2027.749496429288
 30
0.0
 11
31637.604341291921
 21
2027.749496429288
 31
0.0
  0
LINE
  5
182EB
  8
YODOROGO
 10
31701.604341291939
 20
1955.7494964292871
 30
0.0
 11
31701.604341291939
 21
2027.749496429288
 31
0.0
  0
ARC
  5
182EC
  8
YODOROGO
 10
31661.604341291939
 20
1955.7494964292871
 30
0.0
 40
40.0
 50
270.0
 51
0.0
  0
LINE
  5
182ED
  8
YODOROGO
 10
31701.604341291939
 20
1811.749496429288
 30
0.0
 11
31701.604341291939
 21
1875.7494964292871
 31
0.0
  0
LINE
  5
182EE
  8
YODOROGO
 10
31653.60434129191
 20
1811.749496429288
 30
0.0
 11
31701.604341291939
 21
1811.749496429288
 31
0.0
  0
LINE
  5
182EF
  8
SUNPOU
  6
CONTINUOUS
 62
     4
 10
22595.97270256676
 20
19440.486251999992
 30
0.0
 11
22595.97270256676
 21
20240.487175999991
 31
0.0
  0
LINE
  5
182F0
  8
SUNPOU
  6
CONTINUOUS
 62
     4
 10
23296.97270256676
 20
19440.486251999992
 30
0.0
 11
23296.97270256676
 21
20240.487175999991
 31
0.0
  0
LINE
  5
182F1
  8
SUNPOU
  6
CONTINUOUS
 62
     4
 10
22595.97270256676
 20
20160.487175999991
 30
0.0
 11
23296.97270256676
 21
20160.487175999991
 31
0.0
  0
LINE
  5
182F2
  8
0-6
  6
CONTINUOUS
 62
     6
 10
9448.2058206623587
 20
13839.26898309066
 30
0.0
 11
9389.4558220336439
 21
13990.486978000001
 31
0.0
  0
LINE
  5
182F3
  8
0-6
  6
CONTINUOUS
 62
     6
 10
9389.4558220336439
 20
13990.486978000001
 30
0.0
 11
9494.0668137204684
 21
13866.49107185156
 31
0.0
  0
LINE
  5
182F4
  8
0-6
  6
CONTINUOUS
 62
     6
 10
9494.0668137204684
 20
13866.49107185156
 30
0.0
 11
9448.2058206623587
 21
13839.26898309066
 31
0.0
  0
LINE
  5
182F5
  8
SUNPOU
  6
CONTINUOUS
 62
     4
 10
13808.50533818746
 20
13990.486977999981
 30
0.0
 11
14655.50511418745
 21
13990.486977999981
 31
0.0
  0
LINE
  5
182F6
  8
SUNPOU
  6
CONTINUOUS
 62
     4
 10
14575.50511418745
 20
14182.986252000001
 30
0.0
 11
14575.50511418745
 21
13990.486977999981
 31
0.0
  0
LINE
  5
182F7
  8
SUNPOU
  6
CONTINUOUS
 62
     4
 10
14575.50511418745
 20
16750.486251999992
 30
0.0
 11
14575.50511418745
 21
14182.986252000001
 31
0.0
  0
LINE
  5
182F8
  8
SUNPOU
  6
CONTINUOUS
 62
     4
 10
14575.50511418745
 20
19317.986251999992
 30
0.0
 11
14575.50511418745
 21
16750.486251999992
 31
0.0
  0
LINE
  5
182F9
  8
SUNPOU
  6
CONTINUOUS
 62
     4
 10
14495.50511418745
 20
19317.986251999992
 30
0.0
 11
14535.50511418745
 21
19317.986251999992
 31
0.0
  0
LINE
  5
182FA
  8
SUNPOU
  6
CONTINUOUS
 62
     4
 10
13803.506064187461
 20
19540.486120000001
 30
0.0
 11
14615.50511418745
 21
19540.486120000001
 31
0.0
  0
LINE
  5
182FB
  8
SUNPOU
  6
CONTINUOUS
 62
     4
 10
14575.50511418745
 20
19317.986251999992
 30
0.0
 11
14575.50511418745
 21
19540.486120000001
 31
0.0
  0
LINE
  5
182FC
  8
SUNPOU
  6
CONTINUOUS
 62
     4
 10
13735.005813187479
 20
19530.489550999991
 30
0.0
 11
14255.50577318744
 21
19530.489550999991
 31
0.0
  0
LINE
  5
182FD
  8
SUNPOU
  6
CONTINUOUS
 62
     4
 10
13803.506064187461
 20
19540.486120000001
 30
0.0
 11
14255.50577318744
 21
19540.486120000001
 31
0.0
  0
LINE
  5
182FE
  8
SUNPOU
  6
CONTINUOUS
 62
     4
 10
14175.505773187449
 20
19530.489550999991
 30
0.0
 11
14175.505773187449
 21
19290.489550999991
 31
0.0
  0
LINE
  5
182FF
  8
SUNPOU
  6
CONTINUOUS
 62
     4
 10
14175.505773187449
 20
19540.486120000001
 30
0.0
 11
14175.505773187449
 21
19780.486120000001
 31
0.0
  0
LINE
  5
18300
  8
SUNPOU
  6
CONTINUOUS
 62
     4
 10
14175.505773187449
 20
19530.489550999991
 30
0.0
 11
14175.505773187449
 21
19540.486120000001
 31
0.0
  0
LINE
  5
18301
  8
SUNPOU
  6
CONTINUOUS
 62
     4
 10
7577.5053381874577
 20
20165.488164999992
 30
0.0
 11
7577.5053381874577
 21
20240.487175999991
 31
0.0
  0
LINE
  5
18302
  8
SUNPOU
  6
CONTINUOUS
 62
     4
 10
7492.0053381874604
 20
19615.487834999982
 30
0.0
 11
7492.0053381874604
 21
20240.487175999991
 31
0.0
  0
LINE
  5
18303
  8
SUNPOU
  6
CONTINUOUS
 62
     4
 10
7577.5053381874577
 20
20160.487175999991
 30
0.0
 11
7817.5053381874586
 21
20160.487175999991
 31
0.0
  0
LINE
  5
18304
  8
SUNPOU
  6
CONTINUOUS
 62
     4
 10
7495.0053381874613
 20
20160.487175999991
 30
0.0
 11
7255.0053381874586
 21
20160.487175999991
 31
0.0
  0
LINE
  5
18305
  8
SUNPOU
  6
CONTINUOUS
 62
     4
 10
7577.5053381874577
 20
20160.487175999991
 30
0.0
 11
7495.0053381874613
 21
20160.487175999991
 31
0.0
  0
LINE
  5
18306
  8
SUNPOU
  6
CONTINUOUS
 62
     4
 10
10377.50533818746
 20
20165.488164999992
 30
0.0
 11
10377.50533818746
 21
20240.487175999991
 31
0.0
  0
LINE
  5
18307
  8
SUNPOU
  6
CONTINUOUS
 62
     4
 10
7577.5053381874577
 20
20165.488164999992
 30
0.0
 11
7577.5053381874577
 21
20240.487175999991
 31
0.0
  0
LINE
  5
18308
  8
SUNPOU
  6
CONTINUOUS
 62
     4
 10
10377.50533818746
 20
20160.487175999991
 30
0.0
 11
7577.5053381874577
 21
20160.487175999991
 31
0.0
  0
LINE
  5
18309
  8
SUNPOU
  6
CONTINUOUS
 62
     4
 10
13646.00533818745
 20
19690.487834999989
 30
0.0
 11
13646.00533818745
 21
20240.487175999991
 31
0.0
  0
LINE
  5
1830A
  8
SUNPOU
  6
CONTINUOUS
 62
     4
 10
10377.50533818746
 20
20165.488164999992
 30
0.0
 11
10377.50533818746
 21
20240.487175999991
 31
0.0
  0
LINE
  5
1830B
  8
SUNPOU
  6
CONTINUOUS
 62
     4
 10
13646.00533818745
 20
20160.487175999991
 30
0.0
 11
10377.50533818746
 21
20160.487175999991
 31
0.0
  0
LINE
  5
1830C
  8
SUNPOU
  6
CONTINUOUS
 62
     4
 10
13646.00533818745
 20
19690.487834999989
 30
0.0
 11
13646.00533818745
 21
20240.487175999991
 31
0.0
  0
LINE
  5
1830D
  8
SUNPOU
  6
CONTINUOUS
 62
     4
 10
13731.50533818745
 20
19610.487571999998
 30
0.0
 11
13731.50533818745
 21
20240.487175999991
 31
0.0
  0
LINE
  5
1830E
  8
SUNPOU
  6
CONTINUOUS
 62
     4
 10
13646.00533818745
 20
20160.487175999991
 30
0.0
 11
13406.00533818745
 21
20160.487175999991
 31
0.0
  0
LINE
  5
1830F
  8
SUNPOU
  6
CONTINUOUS
 62
     4
 10
13728.50533818745
 20
20160.487175999991
 30
0.0
 11
13968.50533818746
 21
20160.487175999991
 31
0.0
  0
LINE
  5
18310
  8
SUNPOU
  6
CONTINUOUS
 62
     4
 10
13646.00533818745
 20
20160.487175999991
 30
0.0
 11
13728.50533818745
 21
20160.487175999991
 31
0.0
  0
LINE
  5
18311
  8
SUNPOU
  6
CONTINUOUS
 62
     4
 10
13731.50533818745
 20
13910.486977999981
 30
0.0
 11
13731.50533818745
 21
12620.48618599998
 31
0.0
  0
LINE
  5
18312
  8
SUNPOU
  6
CONTINUOUS
 62
     4
 10
7492.0053381874604
 20
13910.486977999981
 30
0.0
 11
7492.0053381874604
 21
12620.48618599998
 31
0.0
  0
LINE
  5
18313
  8
SUNPOU
  6
CONTINUOUS
 62
     4
 10
13728.50533818745
 20
12700.48618599998
 30
0.0
 11
7495.0053381874613
 21
12700.48618599998
 31
0.0
  0
LINE
  5
18314
  8
0-6
  6
CONTINUOUS
 62
     6
 10
9649.1652115628567
 20
16554.267862090652
 30
0.0
 11
9707.9152101915679
 21
16705.485856999981
 31
0.0
  0
LINE
  5
18315
  8
0-6
  6
CONTINUOUS
 62
     6
 10
9707.9152101915679
 20
16705.485856999981
 30
0.0
 11
9603.3042185047434
 21
16581.489950851541
 31
0.0
  0
LINE
  5
18316
  8
0-6
  6
CONTINUOUS
 62
     6
 10
9603.3042185047434
 20
16581.489950851541
 30
0.0
 11
9649.1652115628567
 21
16554.267862090652
 31
0.0
  0
LINE
  5
18317
  8
0-6
  6
CONTINUOUS
 62
     6
 10
8550.2892637445857
 20
14826.387225927971
 30
0.0
 11
8430.4345368380546
 21
14935.7183228832
 31
0.0
  0
LINE
  5
18318
  8
0-6
  6
CONTINUOUS
 62
     6
 10
8430.4345368380546
 20
14935.7183228832
 30
0.0
 11
8508.3599348748448
 21
14793.42961404064
 31
0.0
  0
LINE
  5
18319
  8
0-6
  6
CONTINUOUS
 62
     6
 10
8508.3599348748448
 20
14793.42961404064
 30
0.0
 11
8550.2892637445857
 21
14826.387225927971
 31
0.0
  0
LINE
  5
1831A
  8
0-6
  6
CONTINUOUS
 62
     6
 10
11337.372617693591
 20
16964.603085278271
 30
0.0
 11
11305.73297132484
 21
16805.488732999998
 31
0.0
  0
LINE
  5
1831B
  8
0-6
  6
CONTINUOUS
 62
     6
 10
11305.73297132484
 20
16805.488732999998
 30
0.0
 11
11387.25909722721
 21
16945.745408843341
 31
0.0
  0
LINE
  5
1831C
  8
0-6
  6
CONTINUOUS
 62
     6
 10
11387.25909722721
 20
16945.745408843341
 30
0.0
 11
11337.372617693591
 21
16964.603085278271
 31
0.0
  0
LINE
  5
1831D
  8
0-6
  6
CONTINUOUS
 62
     6
 10
7699.3793259580052
 20
14398.067441689011
 30
0.0
 11
7630.5049691874528
 21
14544.92553117764
 31
0.0
  0
LINE
  5
1831E
  8
0-6
  6
CONTINUOUS
 62
     6
 10
7630.5049691874528
 20
14544.92553117764
 30
0.0
 11
7743.2875924035097
 21
14428.34258686483
 31
0.0
  0
LINE
  5
1831F
  8
0-6
  6
CONTINUOUS
 62
     6
 10
7743.2875924035097
 20
14428.34258686483
 30
0.0
 11
7699.3793259580052
 21
14398.067441689011
 31
0.0
  0
LINE
  5
18320
  8
SUNPOU
  6
CONTINUOUS
 62
     4
 10
25456.972702566782
 20
19440.486251999992
 30
0.0
 11
25456.972702566782
 21
20240.487175999991
 31
0.0
  0
LINE
  5
18321
  8
SUNPOU
  6
CONTINUOUS
 62
     4
 10
25499.472702566782
 20
19440.486251999992
 30
0.0
 11
25499.472702566782
 21
20240.487175999991
 31
0.0
  0
LINE
  5
18322
  8
SUNPOU
  6
CONTINUOUS
 62
     4
 10
25456.972702566782
 20
20160.487175999991
 30
0.0
 11
25216.972702566782
 21
20160.487175999991
 31
0.0
  0
LINE
  5
18323
  8
SUNPOU
  6
CONTINUOUS
 62
     4
 10
25499.472702566782
 20
20160.487175999991
 30
0.0
 11
25739.472702566782
 21
20160.487175999991
 31
0.0
  0
LINE
  5
18324
  8
SUNPOU
  6
CONTINUOUS
 62
     4
 10
25456.972702566782
 20
20160.487175999991
 30
0.0
 11
25499.472702566782
 21
20160.487175999991
 31
0.0
  0
LINE
  5
18325
  8
0-6
  6
CONTINUOUS
 62
     6
 10
19530.69874751474
 20
19102.38947925335
 30
0.0
 11
19424.370723566761
 21
19224.885710999992
 31
0.0
  0
LINE
  5
18326
  8
0-6
  6
CONTINUOUS
 62
     6
 10
19424.370723566761
 20
19224.885710999992
 30
0.0
 11
19485.222843160031
 21
19074.524404324551
 31
0.0
  0
LINE
  5
18327
  8
0-6
  6
CONTINUOUS
 62
     6
 10
19485.222843160031
 20
19074.524404324551
 30
0.0
 11
19530.69874751474
 21
19102.38947925335
 31
0.0
  0
LINE
  5
18328
  8
0-6
  6
CONTINUOUS
 62
     6
 10
19502.514402008761
 20
19518.203035932689
 30
0.0
 11
19433.470723566788
 21
19371.424475045871
 31
0.0
  0
LINE
  5
18329
  8
0-6
  6
CONTINUOUS
 62
     6
 10
19433.470723566788
 20
19371.424475045871
 30
0.0
 11
19546.387723745909
 21
19487.877272670841
 31
0.0
  0
LINE
  5
1832A
  8
0-6
  6
CONTINUOUS
 62
     6
 10
19546.387723745909
 20
19487.877272670841
 30
0.0
 11
19502.514402008761
 21
19518.203035932689
 31
0.0
  0
LINE
  5
1832B
  8
0-6
  6
CONTINUOUS
 62
     6
 10
19530.69874751474
 20
16935.08204774664
 30
0.0
 11
19424.370723566761
 21
16812.585815999981
 31
0.0
  0
LINE
  5
1832C
  8
0-6
  6
CONTINUOUS
 62
     6
 10
19424.370723566761
 20
16812.585815999981
 30
0.0
 11
19485.222843160031
 21
16962.947122675439
 31
0.0
  0
LINE
  5
1832D
  8
0-6
  6
CONTINUOUS
 62
     6
 10
19485.222843160031
 20
16962.947122675439
 30
0.0
 11
19530.69874751474
 21
16935.08204774664
 31
0.0
  0
LINE
  5
1832E
  8
0-6
  6
CONTINUOUS
 62
     6
 10
19530.69874751474
 20
14378.08248374665
 30
0.0
 11
19424.370723566761
 21
14255.58625199999
 31
0.0
  0
LINE
  5
1832F
  8
0-6
  6
CONTINUOUS
 62
     6
 10
19424.370723566761
 20
14255.58625199999
 30
0.0
 11
19485.222843160031
 21
14405.947558675451
 31
0.0
  0
LINE
  5
18330
  8
0-6
  6
CONTINUOUS
 62
     6
 10
19485.222843160031
 20
14405.947558675451
 30
0.0
 11
19530.69874751474
 21
14378.08248374665
 31
0.0
  0
LINE
  5
18331
  8
0-6
  6
CONTINUOUS
 62
     6
 10
19502.514402008761
 20
16519.268491067302
 30
0.0
 11
19433.470723566788
 21
16666.047051954109
 31
0.0
  0
LINE
  5
18332
  8
0-6
  6
CONTINUOUS
 62
     6
 10
19433.470723566788
 20
16666.047051954109
 30
0.0
 11
19546.387723745909
 21
16549.594254329131
 31
0.0
  0
LINE
  5
18333
  8
0-6
  6
CONTINUOUS
 62
     6
 10
19546.387723745909
 20
16549.594254329131
 30
0.0
 11
19502.514402008761
 21
16519.268491067302
 31
0.0
  0
LINE
  5
18334
  8
0-6
  6
CONTINUOUS
 62
     6
 10
19502.514402008761
 20
13982.20769111317
 30
0.0
 11
19433.470723566788
 21
14128.98625199999
 31
0.0
  0
LINE
  5
18335
  8
0-6
  6
CONTINUOUS
 62
     6
 10
19433.470723566788
 20
14128.98625199999
 30
0.0
 11
19546.387723745909
 21
14012.53345437502
 31
0.0
  0
LINE
  5
18336
  8
0-6
  6
CONTINUOUS
 62
     6
 10
19546.387723745909
 20
14012.53345437502
 30
0.0
 11
19502.514402008761
 21
13982.20769111317
 31
0.0
  0
LINE
  5
1834F
  8
SUNPOU
  6
CONTINUOUS
 62
     4
 10
24698.972702566782
 20
19440.486251999992
 30
0.0
 11
24698.972702566782
 21
20240.487175999991
 31
0.0
  0
LINE
  5
18350
  8
SUNPOU
  6
CONTINUOUS
 62
     4
 10
25456.972702566782
 20
19440.486251999992
 30
0.0
 11
25456.972702566782
 21
20240.487175999991
 31
0.0
  0
LINE
  5
18351
  8
SUNPOU
  6
CONTINUOUS
 62
     4
 10
24698.972702566782
 20
20160.487175999991
 30
0.0
 11
25456.972702566782
 21
20160.487175999991
 31
0.0
  0
LINE
  5
18352
  8
SUNPOU
  6
CONTINUOUS
 62
     4
 10
23997.972702566782
 20
19440.486251999992
 30
0.0
 11
23997.972702566782
 21
20240.487175999991
 31
0.0
  0
LINE
  5
18353
  8
SUNPOU
  6
CONTINUOUS
 62
     4
 10
24698.972702566782
 20
19440.486251999992
 30
0.0
 11
24698.972702566782
 21
20240.487175999991
 31
0.0
  0
LINE
  5
18354
  8
SUNPOU
  6
CONTINUOUS
 62
     4
 10
23997.972702566782
 20
20160.487175999991
 30
0.0
 11
24698.972702566782
 21
20160.487175999991
 31
0.0
  0
LINE
  5
18355
  8
SUNPOU
  6
CONTINUOUS
 62
     4
 10
23296.972702566782
 20
19440.486251999992
 30
0.0
 11
23296.972702566782
 21
20240.487175999991
 31
0.0
  0
LINE
  5
18356
  8
SUNPOU
  6
CONTINUOUS
 62
     4
 10
23997.972702566782
 20
19440.486251999992
 30
0.0
 11
23997.972702566782
 21
20240.487175999991
 31
0.0
  0
LINE
  5
18357
  8
SUNPOU
  6
CONTINUOUS
 62
     4
 10
23296.972702566782
 20
20160.487175999991
 30
0.0
 11
23997.972702566782
 21
20160.487175999991
 31
0.0
  0
LINE
  5
18358
  8
SUNPOU
  6
CONTINUOUS
 62
     4
 10
22188.472702566782
 20
19520.488758999989
 30
0.0
 11
22188.472702566782
 21
20240.487175999991
 31
0.0
  0
LINE
  5
18359
  8
SUNPOU
  6
CONTINUOUS
 62
     4
 10
22595.972702566782
 20
19440.486251999992
 30
0.0
 11
22595.972702566782
 21
20240.487175999991
 31
0.0
  0
LINE
  5
1835A
  8
SUNPOU
  6
CONTINUOUS
 62
     4
 10
22188.472702566782
 20
20160.487175999991
 30
0.0
 11
22595.972702566782
 21
20160.487175999991
 31
0.0
  0
LINE
  5
1835B
  8
SUNPOU
  6
CONTINUOUS
 62
     4
 10
22188.472702566782
 20
19520.488758999989
 30
0.0
 11
22188.472702566782
 21
20240.487175999991
 31
0.0
  0
LINE
  5
1835C
  8
SUNPOU
  6
CONTINUOUS
 62
     4
 10
22145.972702566782
 20
19440.486251999992
 30
0.0
 11
22145.972702566782
 21
20240.487175999991
 31
0.0
  0
LINE
  5
1835D
  8
SUNPOU
  6
CONTINUOUS
 62
     4
 10
22188.472702566782
 20
20160.487175999991
 30
0.0
 11
22428.472702566782
 21
20160.487175999991
 31
0.0
  0
LINE
  5
1835E
  8
SUNPOU
  6
CONTINUOUS
 62
     4
 10
22145.972702566782
 20
20160.487175999991
 30
0.0
 11
21905.972702566782
 21
20160.487175999991
 31
0.0
  0
LINE
  5
1835F
  8
SUNPOU
  6
CONTINUOUS
 62
     4
 10
22188.472702566782
 20
20160.487175999991
 30
0.0
 11
22145.972702566782
 21
20160.487175999991
 31
0.0
  0
LINE
  5
1836D
  8
SUNPOU
  6
CONTINUOUS
 62
     4
 10
22188.470723566788
 20
20560.487175999991
 30
0.0
 11
19388.470723566781
 21
20560.487175999991
 31
0.0
  0
LINE
  5
1836E
  8
SUNPOU
  6
CONTINUOUS
 62
     4
 10
25456.970723566781
 20
20560.487175999991
 30
0.0
 11
22188.470723566788
 21
20560.487175999991
 31
0.0
  0
LINE
  5
1836F
  8
SUNPOU
  6
CONTINUOUS
 62
     4
 10
19388.470723566781
 20
19684.93602587733
 30
0.0
 11
19388.470723566781
 21
20240.487175999991
 31
0.0
  0
LINE
  5
18370
  8
SUNPOU
  6
CONTINUOUS
 62
     4
 10
19430.97296656678
 20
19523.836515999988
 30
0.0
 11
19430.97296656678
 21
20240.487175999991
 31
0.0
  0
LINE
  5
18371
  8
SUNPOU
  6
CONTINUOUS
 62
     4
 10
19388.470723566781
 20
20160.487175999991
 30
0.0
 11
19148.470723566781
 21
20160.487175999991
 31
0.0
  0
LINE
  5
18372
  8
SUNPOU
  6
CONTINUOUS
 62
     4
 10
19430.97296656678
 20
20160.487175999991
 30
0.0
 11
19670.97296656678
 21
20160.487175999991
 31
0.0
  0
LINE
  5
18373
  8
SUNPOU
  6
CONTINUOUS
 62
     4
 10
19388.470723566781
 20
20160.487175999991
 30
0.0
 11
19430.97296656678
 21
20160.487175999991
 31
0.0
  0
LINE
  5
18374
  8
SUNPOU
  6
CONTINUOUS
 62
     4
 10
19388.470723566781
 20
19684.93602587733
 30
0.0
 11
19388.470723566781
 21
20240.487175999991
 31
0.0
  0
LINE
  5
18375
  8
SUNPOU
  6
CONTINUOUS
 62
     4
 10
19345.972438566791
 20
19520.488758999989
 30
0.0
 11
19345.972438566791
 21
20240.487175999991
 31
0.0
  0
LINE
  5
18376
  8
SUNPOU
  6
CONTINUOUS
 62
     4
 10
19388.470723566781
 20
20160.487175999991
 30
0.0
 11
19628.470723566781
 21
20160.487175999991
 31
0.0
  0
LINE
  5
18377
  8
SUNPOU
  6
CONTINUOUS
 62
     4
 10
19345.972438566791
 20
20160.487175999991
 30
0.0
 11
19105.972438566791
 21
20160.487175999991
 31
0.0
  0
LINE
  5
18378
  8
SUNPOU
  6
CONTINUOUS
 62
     4
 10
19388.470723566781
 20
20160.487175999991
 30
0.0
 11
19345.972438566791
 21
20160.487175999991
 31
0.0
  0
LINE
  5
18379
  8
SUNPOU
  6
CONTINUOUS
 62
     4
 10
19003.86588761484
 20
16750.486251999992
 30
0.0
 11
18090.627099198158
 21
16750.486251999992
 31
0.0
  0
LINE
  5
1837A
  8
SUNPOU
  6
CONTINUOUS
 62
     4
 10
19003.86588761484
 20
19317.986251999992
 30
0.0
 11
18090.627099198158
 21
19317.986251999992
 31
0.0
  0
LINE
  5
1837B
  8
SUNPOU
  6
CONTINUOUS
 62
     4
 10
18170.627099198158
 20
16750.486251999992
 30
0.0
 11
18170.627099198158
 21
19317.986251999992
 31
0.0
  0
LINE
  5
1837C
  8
SUNPOU
  6
CONTINUOUS
 62
     4
 10
19003.86588761484
 20
14182.986252000001
 30
0.0
 11
18090.627099198158
 21
14182.986252000001
 31
0.0
  0
LINE
  5
1837D
  8
SUNPOU
  6
CONTINUOUS
 62
     4
 10
19003.86588761484
 20
16750.486251999992
 30
0.0
 11
18090.627099198158
 21
16750.486251999992
 31
0.0
  0
LINE
  5
1837E
  8
SUNPOU
  6
CONTINUOUS
 62
     4
 10
18170.627099198158
 20
14182.986252000001
 30
0.0
 11
18170.627099198158
 21
16750.486251999992
 31
0.0
  0
ARC
  5
18396
  8
1-前柱P
 10
19378.870723566761
 20
14251.386251999989
 30
0.0
 40
1.0
 50
0.0
 51
90.0
  0
LINE
  5
18397
  8
1-前柱P
 10
19379.870723566761
 20
14251.386251999989
 30
0.0
 11
19379.870723566761
 21
14249.786252
 31
0.0
  0
LINE
  5
18398
  8
1-前柱P
 10
19379.870723566761
 20
14249.786252
 30
0.0
 11
19391.07072356678
 21
14249.786252
 31
0.0
  0
LINE
  5
18399
  8
1-前柱P
 10
19391.07072356678
 20
14249.786252
 30
0.0
 11
19391.070723566791
 21
14251.386251999989
 31
0.0
  0
ARC
  5
1839A
  8
1-前柱P
 10
19392.070723566791
 20
14251.386251999989
 30
0.0
 40
1.0
 50
90.0
 51
180.0
  0
ARC
  5
1839B
  8
1-中柱P
 10
19395.070723566791
 20
16818.786252000002
 30
0.0
 40
1.0
 50
90.0
 51
180.0
  0
LINE
  5
1839C
  8
1-中柱P
 10
19394.070723566791
 20
16818.786252000002
 30
0.0
 11
19394.070723566791
 21
16817.186252
 31
0.0
  0
LINE
  5
1839D
  8
1-中柱P
 10
19394.070723566791
 20
16817.186252
 30
0.0
 11
19382.870723566779
 21
16817.186252
 31
0.0
  0
LINE
  5
1839E
  8
1-中柱P
 10
19382.870723566779
 20
16817.186252
 30
0.0
 11
19382.870723566779
 21
16818.786252000002
 31
0.0
  0
ARC
  5
1839F
  8
1-中柱P
 10
19381.870723566801
 20
16818.786252000002
 30
0.0
 40
1.0
 50
0.0
 51
90.0
  0
ARC
  5
183A0
  8
1-後柱P
 10
19398.07072356678
 20
19249.936251999989
 30
0.0
 40
1.0
 50
180.0
 51
270.0
  0
LINE
  5
183A1
  8
1-後柱P
 10
19397.07072356678
 20
19249.936251999989
 30
0.0
 11
19397.07072356678
 21
19251.536252000002
 31
0.0
  0
LINE
  5
183A2
  8
1-後柱P
 10
19397.07072356678
 20
19251.536252000002
 30
0.0
 11
19385.870723566761
 21
19251.536252000002
 31
0.0
  0
LINE
  5
183A3
  8
1-後柱P
 10
19385.870723566761
 20
19251.536252000002
 30
0.0
 11
19385.870723566761
 21
19249.936251999989
 31
0.0
  0
ARC
  5
183A4
  8
1-後柱P
 10
19384.870723566772
 20
19249.936251999989
 30
0.0
 40
1.0
 50
270.0
 51
0.0
  0
LINE
  5
183A5
  8
SUNPOU
  6
CONTINUOUS
 62
     4
 10
25539.47072356681
 20
8669.6883999999955
 30
0.0
 11
25539.47072356681
 21
9869.1329740000037
 31
0.0
  0
LINE
  5
183A6
  8
SUNPOU
  6
CONTINUOUS
 62
     4
 10
19302.970723566788
 20
8669.6883999999955
 30
0.0
 11
19302.970723566788
 21
9869.1329740000037
 31
0.0
  0
LINE
  5
183A7
  8
SUNPOU
  6
CONTINUOUS
 62
     4
 10
25539.47072356681
 20
9789.1329740000037
 30
0.0
 11
19305.970723566788
 21
9789.1329740000037
 31
0.0
  0
LINE
  5
183A8
  8
SUNPOU
  6
CONTINUOUS
 62
     4
 10
19345.970723566781
 20
8669.6883999999955
 30
0.0
 11
19345.970723566781
 21
9469.1900499999992
 31
0.0
  0
LINE
  5
183A9
  8
SUNPOU
  6
CONTINUOUS
 62
     4
 10
19302.970723566788
 20
8669.6883999999955
 30
0.0
 11
19302.970723566788
 21
9469.1900499999992
 31
0.0
  0
LINE
  5
183AA
  8
SUNPOU
  6
CONTINUOUS
 62
     4
 10
19345.970723566781
 20
9389.1900499999992
 30
0.0
 11
19585.970723566788
 21
9389.1900499999992
 31
0.0
  0
LINE
  5
183AB
  8
SUNPOU
  6
CONTINUOUS
 62
     4
 10
19305.970723566788
 20
9389.1900499999992
 30
0.0
 11
19065.970723566781
 21
9389.1900499999992
 31
0.0
  0
LINE
  5
183AC
  8
SUNPOU
  6
CONTINUOUS
 62
     4
 10
19345.970723566781
 20
9389.1900499999992
 30
0.0
 11
19305.970723566788
 21
9389.1900499999992
 31
0.0
  0
LINE
  5
183AD
  8
SUNPOU
  6
CONTINUOUS
 62
     4
 10
25499.47072356681
 20
8539.6884659999942
 30
0.0
 11
25499.47072356681
 21
9469.1900499999992
 31
0.0
  0
LINE
  5
183AE
  8
SUNPOU
  6
CONTINUOUS
 62
     4
 10
25539.47072356681
 20
8669.6883999999955
 30
0.0
 11
25539.47072356681
 21
9469.1900499999992
 31
0.0
  0
LINE
  5
183AF
  8
SUNPOU
  6
CONTINUOUS
 62
     4
 10
25499.47072356681
 20
9389.1900499999992
 30
0.0
 11
25259.47072356681
 21
9389.1900499999992
 31
0.0
  0
LINE
  5
183B0
  8
SUNPOU
  6
CONTINUOUS
 62
     4
 10
25539.47072356681
 20
9389.1900499999992
 30
0.0
 11
25779.47072356681
 21
9389.1900499999992
 31
0.0
  0
LINE
  5
183B1
  8
SUNPOU
  6
CONTINUOUS
 62
     4
 10
25499.47072356681
 20
9389.1900499999992
 30
0.0
 11
25539.47072356681
 21
9389.1900499999992
 31
0.0
  0
LINE
  5
183B2
  8
SUNPOU
  6
CONTINUOUS
 62
     4
 10
22145.970723566781
 20
8539.6884659999942
 30
0.0
 11
22145.970723566781
 21
9469.1900499999992
 31
0.0
  0
LINE
  5
183B3
  8
SUNPOU
  6
CONTINUOUS
 62
     4
 10
25499.47072356681
 20
8539.6884659999942
 30
0.0
 11
25499.47072356681
 21
9469.1900499999992
 31
0.0
  0
LINE
  5
183B4
  8
SUNPOU
  6
CONTINUOUS
 62
     4
 10
22145.970723566781
 20
9389.1900499999992
 30
0.0
 11
25499.47072356681
 21
9389.1900499999992
 31
0.0
  0
LINE
  5
183B5
  8
SUNPOU
  6
CONTINUOUS
 62
     4
 10
25586.97336256679
 20
6241.1883740000012
 30
0.0
 11
27030.07297427153
 21
6241.1883740000003
 31
0.0
  0
LINE
  5
183B6
  8
SUNPOU
  6
CONTINUOUS
 62
     4
 10
25619.47072356681
 20
8590.1883999999955
 30
0.0
 11
27030.07297427153
 21
8590.1883999999955
 31
0.0
  0
LINE
  5
183B7
  8
SUNPOU
  6
CONTINUOUS
 62
     4
 10
26950.07297427153
 20
6241.1883740000003
 30
0.0
 11
26950.07297427153
 21
8590.1883999999955
 31
0.0
  0
LINE
  5
183B8
  8
SUNPOU
  6
CONTINUOUS
 62
     4
 10
25586.97336256679
 20
6241.1883740000012
 30
0.0
 11
26386.974022566788
 21
6241.1883740000012
 31
0.0
  0
LINE
  5
183B9
  8
SUNPOU
  6
CONTINUOUS
 62
     4
 10
25494.474418566781
 20
8132.6883740000021
 30
0.0
 11
26386.974022566788
 21
8132.6883740000021
 31
0.0
  0
LINE
  5
183BA
  8
SUNPOU
  6
CONTINUOUS
 62
     4
 10
26306.974022566788
 20
6241.1883740000012
 30
0.0
 11
26306.974022566788
 21
8132.6883740000021
 31
0.0
  0
LINE
  5
183BB
  8
SUNPOU
  6
CONTINUOUS
 62
     4
 10
22142.970723566788
 20
6161.1883740000012
 30
0.0
 11
22142.970723566788
 21
5261.1883740000012
 31
0.0
  0
LINE
  5
183BC
  8
SUNPOU
  6
CONTINUOUS
 62
     4
 10
19430.970723566781
 20
6061.1885389999989
 30
0.0
 11
19430.970723566781
 21
5261.1883740000012
 31
0.0
  0
LINE
  5
183BD
  8
SUNPOU
  6
CONTINUOUS
 62
     4
 10
22142.970723566788
 20
5341.1883740000012
 30
0.0
 11
19430.970723566781
 21
5341.1883740000012
 31
0.0
  0
LINE
  5
183BE
  8
SUNPOU
  6
CONTINUOUS
 62
     4
 10
25499.430770619259
 20
6161.1883740000012
 30
0.0
 11
25499.430770619259
 21
4461.1887040000529
 31
0.0
  0
LINE
  5
183BF
  8
SUNPOU
  6
CONTINUOUS
 62
     4
 10
19345.970723566781
 20
6061.1885389999989
 30
0.0
 11
19345.970723566781
 21
4461.1887040000529
 31
0.0
  0
LINE
  5
183C0
  8
SUNPOU
  6
CONTINUOUS
 62
     4
 10
25499.430770619259
 20
4541.1887040000547
 30
0.0
 11
19345.970723566781
 21
4541.1887040000547
 31
0.0
  0
LINE
  5
183C1
  8
SUNPOU
  6
CONTINUOUS
 62
     4
 10
25456.970723566799
 20
5798.5361160000011
 30
0.0
 11
25456.970723566799
 21
4861.1885389999989
 31
0.0
  0
LINE
  5
183C2
  8
SUNPOU
  6
CONTINUOUS
 62
     4
 10
25499.430770619259
 20
6161.1883740000012
 30
0.0
 11
25499.430770619259
 21
4861.1885389999989
 31
0.0
  0
LINE
  5
183C3
  8
SUNPOU
  6
CONTINUOUS
 62
     4
 10
25456.970723566799
 20
4941.1885389999979
 30
0.0
 11
25216.970723566799
 21
4941.1885389999979
 31
0.0
  0
LINE
  5
183C4
  8
SUNPOU
  6
CONTINUOUS
 62
     4
 10
25499.430770619259
 20
4941.1885389999979
 30
0.0
 11
25739.430770619259
 21
4941.1885389999979
 31
0.0
  0
LINE
  5
183C5
  8
SUNPOU
  6
CONTINUOUS
 62
     4
 10
25456.970723566799
 20
4941.1885389999979
 30
0.0
 11
25499.430770619259
 21
4941.1885389999979
 31
0.0
  0
LINE
  5
183C6
  8
SUNPOU
  6
CONTINUOUS
 62
     4
 10
22188.470723566788
 20
5798.5361160000011
 30
0.0
 11
22188.470723566788
 21
4861.1885389999989
 31
0.0
  0
LINE
  5
183C7
  8
SUNPOU
  6
CONTINUOUS
 62
     4
 10
25456.970723566799
 20
5798.5361160000011
 30
0.0
 11
25456.970723566799
 21
4861.1885389999989
 31
0.0
  0
LINE
  5
183C8
  8
SUNPOU
  6
CONTINUOUS
 62
     4
 10
22188.470723566788
 20
4941.1885389999979
 30
0.0
 11
25456.970723566799
 21
4941.1885389999979
 31
0.0
  0
LINE
  5
183C9
  8
SUNPOU
  6
CONTINUOUS
 62
     4
 10
25362.970723566799
 20
6061.1885389999989
 30
0.0
 11
25362.970723566799
 21
5261.1883740000012
 31
0.0
  0
LINE
  5
183CA
  8
SUNPOU
  6
CONTINUOUS
 62
     4
 10
22282.470723566799
 20
6061.1885389999989
 30
0.0
 11
22282.470723566799
 21
5261.1883740000012
 31
0.0
  0
LINE
  5
183CB
  8
SUNPOU
  6
CONTINUOUS
 62
     4
 10
25362.970723566799
 20
5341.1883740000012
 30
0.0
 11
22282.470723566799
 21
5341.1883740000012
 31
0.0
  0
LINE
  5
183CC
  8
SUNPOU
  6
CONTINUOUS
 62
     4
 10
19388.470723566781
 20
5798.5361160000011
 30
0.0
 11
19388.470723566781
 21
4861.1885389999989
 31
0.0
  0
LINE
  5
183CD
  8
SUNPOU
  6
CONTINUOUS
 62
     4
 10
19345.970723566781
 20
6061.1885389999989
 30
0.0
 11
19345.970723566781
 21
4861.1885389999989
 31
0.0
  0
LINE
  5
183CE
  8
SUNPOU
  6
CONTINUOUS
 62
     4
 10
19388.470723566781
 20
4941.1885389999979
 30
0.0
 11
19628.470723566781
 21
4941.1885389999979
 31
0.0
  0
LINE
  5
183CF
  8
SUNPOU
  6
CONTINUOUS
 62
     4
 10
19345.970723566781
 20
4941.1885389999979
 30
0.0
 11
19105.970723566781
 21
4941.1885389999979
 31
0.0
  0
LINE
  5
183D0
  8
SUNPOU
  6
CONTINUOUS
 62
     4
 10
19388.470723566781
 20
4941.1885389999979
 30
0.0
 11
19345.970723566781
 21
4941.1885389999979
 31
0.0
  0
LINE
  5
183D1
  8
SUNPOU
  6
CONTINUOUS
 62
     4
 10
22188.470723566788
 20
5798.5361160000011
 30
0.0
 11
22188.470723566788
 21
4861.1885389999989
 31
0.0
  0
LINE
  5
183D2
  8
SUNPOU
  6
CONTINUOUS
 62
     4
 10
19388.470723566781
 20
5798.5361160000011
 30
0.0
 11
19388.470723566781
 21
4861.1885389999989
 31
0.0
  0
LINE
  5
183D3
  8
SUNPOU
  6
CONTINUOUS
 62
     4
 10
22188.470723566788
 20
4941.1885389999979
 30
0.0
 11
19388.470723566781
 21
4941.1885389999979
 31
0.0
  0
LINE
  5
183D4
  8
SUNPOU
  6
CONTINUOUS
 62
     4
 10
22145.970723566781
 20
8539.6884659999942
 30
0.0
 11
22145.970723566781
 21
9469.1900499999992
 31
0.0
  0
LINE
  5
183D5
  8
SUNPOU
  6
CONTINUOUS
 62
     4
 10
19345.970723566781
 20
8669.6883999999955
 30
0.0
 11
19345.970723566781
 21
9469.1900499999992
 31
0.0
  0
LINE
  5
183D6
  8
SUNPOU
  6
CONTINUOUS
 62
     4
 10
22145.970723566781
 20
9389.1900499999992
 30
0.0
 11
19345.970723566781
 21
9389.1900499999992
 31
0.0
  0
LINE
  5
183D7
  8
SUNPOU
  6
CONTINUOUS
 62
     4
 10
19265.970723566781
 20
6242.0026620000053
 30
0.0
 11
18056.14832527241
 21
6242.0026620000071
 31
0.0
  0
LINE
  5
183D8
  8
SUNPOU
  6
CONTINUOUS
 62
     4
 10
19225.970723566781
 20
8262.0026620000026
 30
0.0
 11
18056.14832527241
 21
8262.0026620000026
 31
0.0
  0
LINE
  5
183D9
  8
SUNPOU
  6
CONTINUOUS
 62
     4
 10
18136.14832527241
 20
6242.0026620000071
 30
0.0
 11
18136.14832527241
 21
8262.0026620000026
 31
0.0
  0
LINE
  5
183DA
  8
SUNPOU
  6
CONTINUOUS
 62
     4
 10
13397.50734467521
 20
8478.188374000003
 30
0.0
 11
13397.50734467521
 21
9869.1883999999955
 31
0.0
  0
LINE
  5
183DB
  8
SUNPOU
  6
CONTINUOUS
 62
     4
 10
7847.5073446752058
 20
8610.0781974124293
 30
0.0
 11
7847.5073446752058
 21
9869.1883999999955
 31
0.0
  0
LINE
  5
183DC
  8
SUNPOU
  6
CONTINUOUS
 62
     4
 10
13397.50734467521
 20
9789.1883999999955
 30
0.0
 11
7847.5073446752058
 21
9789.1883999999955
 31
0.0
  0
LINE
  5
183DD
  8
SUNPOU
  6
CONTINUOUS
 62
     4
 10
7997.5073446751958
 20
8536.0984379999973
 30
0.0
 11
7997.5073446751958
 21
9469.1900499999992
 31
0.0
  0
LINE
  5
183DE
  8
SUNPOU
  6
CONTINUOUS
 62
     4
 10
7847.5073446752058
 20
8610.0781974124293
 30
0.0
 11
7847.5073446752058
 21
9469.1900499999992
 31
0.0
  0
LINE
  5
183DF
  8
SUNPOU
  6
CONTINUOUS
 62
     4
 10
7997.5073446751958
 20
9389.1900499999992
 30
0.0
 11
8237.5073446751994
 21
9389.1900499999992
 31
0.0
  0
LINE
  5
183E0
  8
SUNPOU
  6
CONTINUOUS
 62
     4
 10
7847.5073446752058
 20
9389.1900499999992
 30
0.0
 11
7607.5073446752067
 21
9389.1900499999992
 31
0.0
  0
LINE
  5
183E1
  8
SUNPOU
  6
CONTINUOUS
 62
     4
 10
7997.5073446751958
 20
9389.1900499999992
 30
0.0
 11
7847.5073446752058
 21
9389.1900499999992
 31
0.0
  0
LINE
  5
183E2
  8
SUNPOU
  6
CONTINUOUS
 62
     4
 10
13217.50734467521
 20
8348.3741496838084
 30
0.0
 11
13217.50734467521
 21
9469.1900499999992
 31
0.0
  0
LINE
  5
183E3
  8
SUNPOU
  6
CONTINUOUS
 62
     4
 10
7997.5073446751958
 20
8536.0984379999973
 30
0.0
 11
7997.5073446751958
 21
9469.1900499999992
 31
0.0
  0
LINE
  5
183E4
  8
SUNPOU
  6
CONTINUOUS
 62
     4
 10
13217.50734467521
 20
9389.1900499999992
 30
0.0
 11
7997.5073446751958
 21
9389.1900499999992
 31
0.0
  0
LINE
  5
183E5
  8
SUNPOU
  6
CONTINUOUS
 62
     4
 10
13397.50734467521
 20
8478.188374000003
 30
0.0
 11
13397.50734467521
 21
9469.1900499999992
 31
0.0
  0
LINE
  5
183E6
  8
SUNPOU
  6
CONTINUOUS
 62
     4
 10
13217.50734467521
 20
8348.3741496838084
 30
0.0
 11
13217.50734467521
 21
9469.1900499999992
 31
0.0
  0
LINE
  5
183E7
  8
SUNPOU
  6
CONTINUOUS
 62
     4
 10
13397.50734467521
 20
9389.1900499999992
 30
0.0
 11
13217.50734467521
 21
9389.1900499999992
 31
0.0
  0
LINE
  5
183E8
  8
SUNPOU
  6
CONTINUOUS
 62
     4
 10
7905.0073446752058
 20
6241.1883740000012
 30
0.0
 11
6827.5069486752018
 21
6241.1883740000012
 31
0.0
  0
LINE
  5
183E9
  8
SUNPOU
  6
CONTINUOUS
 62
     4
 10
7812.7000850758259
 20
8590.188374000003
 30
0.0
 11
6827.5069486752018
 21
8590.188374000003
 31
0.0
  0
LINE
  5
183EA
  8
SUNPOU
  6
CONTINUOUS
 62
     4
 10
6907.5069486752036
 20
6241.1883740000012
 30
0.0
 11
6907.5069486752036
 21
8590.188374000003
 31
0.0
  0
LINE
  5
183EB
  8
SUNPOU
  6
CONTINUOUS
 62
     4
 10
13305.00734467519
 20
6241.1883740000012
 30
0.0
 11
14387.507740675181
 21
6241.1883740000003
 31
0.0
  0
LINE
  5
183EC
  8
SUNPOU
  6
CONTINUOUS
 62
     4
 10
13477.50734467521
 20
8396.688374000003
 30
0.0
 11
14387.507740675181
 21
8396.688374000003
 31
0.0
  0
LINE
  5
183ED
  8
SUNPOU
  6
CONTINUOUS
 62
     4
 10
14307.507740675181
 20
6241.1883740000012
 30
0.0
 11
14307.507740675181
 21
8396.688374000003
 31
0.0
  0
LINE
  5
183EE
  8
SUNPOU
  6
CONTINUOUS
 62
     4
 10
13217.50734467521
 20
6161.1883740000012
 30
0.0
 11
13217.50734467521
 21
4461.1887039999956
 31
0.0
  0
LINE
  5
183EF
  8
SUNPOU
  6
CONTINUOUS
 62
     4
 10
7997.5073446751958
 20
6161.1883740000012
 30
0.0
 11
7997.5073446751958
 21
4461.1887039999956
 31
0.0
  0
LINE
  5
183F0
  8
SUNPOU
  6
CONTINUOUS
 62
     4
 10
13217.50734467521
 20
4541.1887039999938
 30
0.0
 11
7997.5073446751958
 21
4541.1887039999938
 31
0.0
  0
LINE
  5
183F1
  8
SUNPOU
  6
CONTINUOUS
 62
     4
 10
8040.0073446752076
 20
5798.5361160000011
 30
0.0
 11
8040.0073446752076
 21
4861.1885389999989
 31
0.0
  0
LINE
  5
183F2
  8
SUNPOU
  6
CONTINUOUS
 62
     4
 10
7997.5073446751958
 20
6161.1883740000012
 30
0.0
 11
7997.5073446751958
 21
4861.1885389999989
 31
0.0
  0
LINE
  5
183F3
  8
SUNPOU
  6
CONTINUOUS
 62
     4
 10
8040.0073446752076
 20
4941.1885389999979
 30
0.0
 11
8280.0073446752067
 21
4941.1885389999979
 31
0.0
  0
LINE
  5
183F4
  8
SUNPOU
  6
CONTINUOUS
 62
     4
 10
7997.5073446751958
 20
4941.1885389999979
 30
0.0
 11
7757.5073446752003
 21
4941.1885389999979
 31
0.0
  0
LINE
  5
183F5
  8
SUNPOU
  6
CONTINUOUS
 62
     4
 10
8040.0073446752076
 20
4941.1885389999979
 30
0.0
 11
7997.5073446751958
 21
4941.1885389999979
 31
0.0
  0
LINE
  5
183F6
  8
SUNPOU
  6
CONTINUOUS
 62
     4
 10
13175.007344675199
 20
5798.5361160000011
 30
0.0
 11
13175.007344675199
 21
4861.1885389999989
 31
0.0
  0
LINE
  5
183F7
  8
SUNPOU
  6
CONTINUOUS
 62
     4
 10
13217.50734467521
 20
6161.1883740000012
 30
0.0
 11
13217.50734467521
 21
4861.1885389999989
 31
0.0
  0
LINE
  5
183F8
  8
SUNPOU
  6
CONTINUOUS
 62
     4
 10
13175.007344675199
 20
4941.1885389999979
 30
0.0
 11
12935.007344675199
 21
4941.1885389999979
 31
0.0
  0
LINE
  5
183F9
  8
SUNPOU
  6
CONTINUOUS
 62
     4
 10
13217.50734467521
 20
4941.1885389999979
 30
0.0
 11
13457.50734467521
 21
4941.1885389999979
 31
0.0
  0
LINE
  5
183FA
  8
SUNPOU
  6
CONTINUOUS
 62
     4
 10
13175.007344675199
 20
4941.1885389999979
 30
0.0
 11
13217.50734467521
 21
4941.1885389999979
 31
0.0
  0
LINE
  5
183FB
  8
SUNPOU
  6
CONTINUOUS
 62
     4
 10
10607.50734467519
 20
5798.5361160000011
 30
0.0
 11
10607.50734467519
 21
4861.1885389999989
 31
0.0
  0
LINE
  5
183FC
  8
SUNPOU
  6
CONTINUOUS
 62
     4
 10
13175.007344675199
 20
5798.5361160000011
 30
0.0
 11
13175.007344675199
 21
4861.1885389999989
 31
0.0
  0
LINE
  5
183FD
  8
SUNPOU
  6
CONTINUOUS
 62
     4
 10
10607.50734467519
 20
4941.1885389999979
 30
0.0
 11
13175.007344675199
 21
4941.1885389999979
 31
0.0
  0
LINE
  5
183FE
  8
SUNPOU
  6
CONTINUOUS
 62
     4
 10
10607.50734467519
 20
5798.5361160000011
 30
0.0
 11
10607.50734467519
 21
4861.1885389999989
 31
0.0
  0
LINE
  5
183FF
  8
SUNPOU
  6
CONTINUOUS
 62
     4
 10
8040.0073446752076
 20
5798.5361160000011
 30
0.0
 11
8040.0073446752076
 21
4861.1885389999989
 31
0.0
  0
LINE
  5
18400
  8
SUNPOU
  6
CONTINUOUS
 62
     4
 10
10607.50734467519
 20
4941.1885389999979
 30
0.0
 11
8040.0073446752076
 21
4941.1885389999979
 31
0.0
  0
TEXT
  5
18401
  8
0
  6
CONTINUOUS
 62
     7
 10
8923.7573446752067
 20
5021.1885389999989
 30
0.0
 40
160.0
  1
2567.5
  0
TEXT
  5
18402
  8
0
  6
CONTINUOUS
 62
     7
 10
11491.257344675199
 20
5021.1885389999989
 30
0.0
 40
160.0
  1
2567.5
  0
TEXT
  5
18403
  8
0
  6
CONTINUOUS
 62
     7
 10
13319.496958675199
 20
5022.1790569999976
 30
0.0
 40
160.0
  1
42.5
  0
TEXT
  5
18404
  8
0
  6
CONTINUOUS
 62
     7
 10
7397.505694675202
 20
5021.1883080000007
 30
0.0
 40
160.0
  1
42.5
  0
TEXT
  5
18405
  8
0
  6
CONTINUOUS
 62
     7
 10
10327.50734467519
 20
4621.1887039999974
 30
0.0
 40
160.0
  1
5220
  0
TEXT
  5
18406
  8
0
  6
CONTINUOUS
 62
     7
 10
14227.50774067519
 20
6326.9383740000039
 30
0.0
 40
160.0
  1
2155.5（2395.5）
 50
90.0
  0
TEXT
  5
18407
  8
0
  6
CONTINUOUS
 62
     7
 10
6827.5069486752018
 20
6610.35504066667
 30
0.0
 40
160.0
  1
2349（2589）
 50
90.0
  0
TEXT
  5
18408
  8
0
  6
CONTINUOUS
 62
     7
 10
13505.18249314362
 20
9469.1900499999992
 30
0.0
 40
160.0
  1
180
  0
TEXT
  5
18409
  8
0
  6
CONTINUOUS
 62
     7
 10
10327.50734467519
 20
9469.1900499999992
 30
0.0
 40
160.0
  1
5220
  0
TEXT
  5
1840A
  8
0
  6
CONTINUOUS
 62
     7
 10
7434.1740113418718
 20
9469.1900499999992
 30
0.0
 40
160.0
  1
150
  0
TEXT
  5
1840B
  8
0
  6
CONTINUOUS
 62
     7
 10
10342.507344675199
 20
9869.1883999999955
 30
0.0
 40
160.0
  1
5550
  0
TEXT
  5
1840C
  8
0
  6
CONTINUOUS
 62
     7
 10
18056.14832527241
 20
6589.0026620000071
 30
0.0
 40
160.0
  1
有効高サ2020
 50
90.0
  0
TEXT
  5
1840D
  8
0
  6
CONTINUOUS
 62
     7
 10
20479.30405690012
 20
9469.1900499999992
 30
0.0
 40
160.0
  1
2800
  0
TEXT
  5
1840E
  8
0
  6
CONTINUOUS
 62
     7
 10
20521.80405690012
 20
5021.1885389999989
 30
0.0
 40
160.0
  1
2800
  0
TEXT
  5
1840F
  8
0
  6
CONTINUOUS
 62
     7
 10
18745.97006356679
 20
5021.1883080000007
 30
0.0
 40
160.0
  1
42.5
  0
TEXT
  5
18410
  8
0
  6
CONTINUOUS
 62
     7
 10
22969.387390233471
 20
5421.1883740000012
 30
0.0
 40
160.0
  1
有効開口巾3080.5
  0
TEXT
  5
18411
  8
0
  6
CONTINUOUS
 62
     7
 10
23422.72072356681
 20
5021.1885389999989
 30
0.0
 40
160.0
  1
3268.5
  0
TEXT
  5
18412
  8
0
  6
CONTINUOUS
 62
     7
 10
25599.293754566799
 20
5028.7357169999987
 30
0.0
 40
160.0
  1
42.5
  0
TEXT
  5
18413
  8
0
  6
CONTINUOUS
 62
     7
 10
22049.367413759701
 20
4621.188704000052
 30
0.0
 40
160.0
  1
6153.5
  0
TEXT
  5
18414
  8
0
  6
CONTINUOUS
 62
     7
 10
20040.30405690012
 20
5421.1883740000012
 30
0.0
 40
160.0
  1
有効開口巾2712
  0
TEXT
  5
18415
  8
0
  6
CONTINUOUS
 62
     7
 10
26226.974022566788
 20
6264.271707333337
 30
0.0
 40
160.0
  1
有効開口高サ1891.5
 50
90.0
  0
TEXT
  5
18416
  8
0
  6
CONTINUOUS
 62
     7
 10
26870.07297427153
 20
6610.3550536666689
 30
0.0
 40
160.0
  1
2349（2589）
 50
90.0
  0
TEXT
  5
18417
  8
0
  6
CONTINUOUS
 62
     7
 10
23422.72072356681
 20
9469.1900499999992
 30
0.0
 40
160.0
  1
3353.5
  0
TEXT
  5
18418
  8
0
  6
CONTINUOUS
 62
     7
 10
25629.278709566799
 20
9469.1893240000027
 30
0.0
 40
160.0
  1
43
  0
TEXT
  5
18419
  8
0
  6
CONTINUOUS
 62
     7
 10
18928.50490356678
 20
9469.1893240000027
 30
0.0
 40
160.0
  1
43
  0
TEXT
  5
1841A
  8
0
  6
CONTINUOUS
 62
     7
 10
22022.720723566799
 20
9869.1329740000037
 30
0.0
 40
160.0
  1
6239.5
  0
TEXT
  5
18420
  8
0
  6
CONTINUOUS
 62
     7
 10
18090.627099198151
 20
15066.736252000001
 30
0.0
 40
160.0
  1
2567.5
 50
90.0
  0
TEXT
  5
18421
  8
0
  6
CONTINUOUS
 62
     7
 10
18090.627099198151
 20
17634.236251999992
 30
0.0
 40
160.0
  1
2567.5
 50
90.0
  0
TEXT
  5
18422
  8
0
  6
CONTINUOUS
 62
     7
 10
18767.54879556681
 20
20240.485459999989
 30
0.0
 40
160.0
  1
42.5
  0
TEXT
  5
18423
  8
0
  6
CONTINUOUS
 62
     7
 10
19445.644762566761
 20
20259.829315999999
 30
0.0
 40
160.0
  1
42.5
  0
TEXT
  5
18424
  8
0
  6
CONTINUOUS
 62
     7
 10
23422.720723566781
 20
20640.487175999991
 30
0.0
 40
160.0
  1
3268.5
  0
TEXT
  5
18425
  8
0
  6
CONTINUOUS
 62
     7
 10
20521.80405690012
 20
20640.487175999991
 30
0.0
 40
160.0
  1
2800
  0
TEXT
  5
18429
  8
0
  6
CONTINUOUS
 62
     7
 10
21596.34891044645
 20
20259.829315999999
 30
0.0
 40
160.0
  1
42.5
  0
TEXT
  5
1842A
  8
0
  6
CONTINUOUS
 62
     7
 10
22263.665145643052
 20
20253.09502079618
 30
0.0
 40
160.0
  1
407.5
  0
TEXT
  5
1842B
  8
0
  6
CONTINUOUS
 62
     7
 10
23470.137007233461
 20
20252.889897288711
 30
0.0
 40
160.0
  1
701
  0
TEXT
  5
1842C
  8
0
  6
CONTINUOUS
 62
     7
 10
24175.13936923346
 20
20240.487175999991
 30
0.0
 40
160.0
  1
701
  0
TEXT
  5
1842D
  8
0
  6
CONTINUOUS
 62
     7
 10
24864.63936923345
 20
20240.487175999991
 30
0.0
 40
160.0
  1
758
  0
TEXT
  5
18436
  8
0
  6
CONTINUOUS
 62
     7
 10
25597.894630566749
 20
20240.487175999991
 30
0.0
 40
160.0
  1
42.5
  0
TEXT
  5
18437
  8
0
  6
CONTINUOUS
 62
     7
 10
9737.0886715207944
 20
12780.48618599998
 30
0.0
 40
160.0
  1
ケラバ外寸6239.5
  0
TEXT
  5
18438
  8
0
  6
CONTINUOUS
 62
     7
 10
13741.15248218745
 20
20240.485459999989
 30
0.0
 40
160.0
  1
85.5
  0
TEXT
  5
18439
  8
0
  6
CONTINUOUS
 62
     7
 10
11611.75533818745
 20
20240.487175999991
 30
0.0
 40
160.0
  1
3268.5
  0
TEXT
  5
1843A
  8
0
  6
CONTINUOUS
 62
     7
 10
8710.8386715207926
 20
20240.487175999991
 30
0.0
 40
160.0
  1
2800
  0
TEXT
  5
1843B
  8
0
  6
CONTINUOUS
 62
     7
 10
6951.1575501874468
 20
20240.485459999989
 30
0.0
 40
160.0
  1
85.5
  0
TEXT
  5
1843C
  8
0
  6
CONTINUOUS
 62
     7
 10
14110.82835186838
 20
19711.914980666661
 30
0.0
 40
160.0
  1
10
 50
90.0
  0
TEXT
  5
1843D
  8
0
  6
CONTINUOUS
 62
     7
 10
14495.50511418745
 20
19618.967774389239
 30
0.0
 40
160.0
  1
222.5
 50
90.0
  0
TEXT
  5
1843E
  8
0
  6
CONTINUOUS
 62
     7
 10
14495.50511418745
 20
17634.236251999992
 30
0.0
 40
160.0
  1
2567.5
 50
90.0
  0
TEXT
  5
1843F
  8
0
  6
CONTINUOUS
 62
     7
 10
14495.50511418745
 20
15066.736252000001
 30
0.0
 40
160.0
  1
2567.5
 50
90.0
  0
TEXT
  5
18440
  8
0
  6
CONTINUOUS
 62
     7
 10
14495.505114187459
 20
13326.497349590571
 30
0.0
 40
160.0
  1
192.5
 50
90.0
  0
TEXT
  5
18441
  8
0
  6
CONTINUOUS
 62
     7
 10
22782.095800926181
 20
19911.022992473168
 30
0.0
 40
160.0
  1
701
  0
ARC
  5
18442
  8
0
  6
BYBLOCK
 62
     0
 10
22595.97270256676
 20
20160.487175999991
 30
0.0
 40
15.0
 50
0.0
 51
180.0
  0
ARC
  5
18443
  8
0
  6
BYBLOCK
 62
     0
 10
22595.97270256676
 20
20160.487175999991
 30
0.0
 40
15.0
 50
180.0
 51
0.0
  0
ARC
  5
18444
  8
0
  6
BYBLOCK
 62
     0
 10
23296.97270256676
 20
20160.487175999991
 30
0.0
 40
15.0
 50
180.0
 51
0.0
  0
ARC
  5
18445
  8
0
  6
BYBLOCK
 62
     0
 10
23296.97270256676
 20
20160.487175999991
 30
0.0
 40
15.0
 50
0.0
 51
180.0
  0
ARC
  5
18446
  8
0
  6
BYBLOCK
 62
     0
 10
14575.50511418745
 20
14182.986252000001
 30
0.0
 40
15.0
 50
270.0
 51
90.0
  0
ARC
  5
18447
  8
0
  6
BYBLOCK
 62
     0
 10
14575.50511418745
 20
14182.986252000001
 30
0.0
 40
15.0
 50
90.0
 51
270.0
  0
ARC
  5
18448
  8
0
  6
BYBLOCK
 62
     0
 10
14575.50511418745
 20
13990.486977999981
 30
0.0
 40
15.0
 50
90.0
 51
270.0
  0
ARC
  5
18449
  8
0
  6
BYBLOCK
 62
     0
 10
14575.50511418745
 20
13990.486977999981
 30
0.0
 40
15.0
 50
270.0
 51
90.0
  0
ARC
  5
1844A
  8
0
  6
BYBLOCK
 62
     0
 10
14575.50511418745
 20
16750.486251999992
 30
0.0
 40
15.0
 50
270.0
 51
90.0
  0
ARC
  5
1844B
  8
0
  6
BYBLOCK
 62
     0
 10
14575.50511418745
 20
16750.486251999992
 30
0.0
 40
15.0
 50
90.0
 51
270.0
  0
ARC
  5
1844C
  8
0
  6
BYBLOCK
 62
     0
 10
14575.50511418745
 20
14182.986252000001
 30
0.0
 40
15.0
 50
90.0
 51
270.0
  0
ARC
  5
1844D
  8
0
  6
BYBLOCK
 62
     0
 10
14575.50511418745
 20
14182.986252000001
 30
0.0
 40
15.0
 50
270.0
 51
90.0
  0
ARC
  5
1844E
  8
0
  6
BYBLOCK
 62
     0
 10
14575.50511418745
 20
19317.986251999992
 30
0.0
 40
15.0
 50
270.0
 51
90.0
  0
ARC
  5
1844F
  8
0
  6
BYBLOCK
 62
     0
 10
14575.50511418745
 20
19317.986251999992
 30
0.0
 40
15.0
 50
90.0
 51
270.0
  0
ARC
  5
18450
  8
0
  6
BYBLOCK
 62
     0
 10
14575.50511418745
 20
16750.486251999992
 30
0.0
 40
15.0
 50
90.0
 51
270.0
  0
ARC
  5
18451
  8
0
  6
BYBLOCK
 62
     0
 10
14575.50511418745
 20
16750.486251999992
 30
0.0
 40
15.0
 50
270.0
 51
90.0
  0
ARC
  5
18452
  8
0
  6
BYBLOCK
 62
     0
 10
14575.50511418745
 20
19317.986251999992
 30
0.0
 40
15.0
 50
90.0
 51
270.0
  0
ARC
  5
18453
  8
0
  6
BYBLOCK
 62
     0
 10
14575.50511418745
 20
19317.986251999992
 30
0.0
 40
15.0
 50
270.0
 51
90.0
  0
ARC
  5
18454
  8
0
  6
BYBLOCK
 62
     0
 10
14575.50511418745
 20
19540.486120000001
 30
0.0
 40
15.0
 50
270.0
 51
90.0
  0
ARC
  5
18455
  8
0
  6
BYBLOCK
 62
     0
 10
14575.50511418745
 20
19540.486120000001
 30
0.0
 40
15.0
 50
90.0
 51
270.0
  0
ARC
  5
18456
  8
0
  6
BYBLOCK
 62
     0
 10
14175.505773187449
 20
19530.489550999991
 30
0.0
 40
15.0
 50
270.0
 51
90.0
  0
ARC
  5
18457
  8
0
  6
BYBLOCK
 62
     0
 10
14175.505773187449
 20
19530.489550999991
 30
0.0
 40
15.0
 50
90.0
 51
270.0
  0
ARC
  5
18458
  8
0
  6
BYBLOCK
 62
     0
 10
14175.505773187449
 20
19540.486120000001
 30
0.0
 40
15.0
 50
90.0
 51
270.0
  0
ARC
  5
18459
  8
0
  6
BYBLOCK
 62
     0
 10
14175.505773187449
 20
19540.486120000001
 30
0.0
 40
15.0
 50
270.0
 51
90.0
  0
ARC
  5
1845A
  8
0
  6
BYBLOCK
 62
     0
 10
7577.5053381874577
 20
20160.487175999991
 30
0.0
 40
15.0
 50
0.0
 51
180.0
  0
ARC
  5
1845B
  8
0
  6
BYBLOCK
 62
     0
 10
7577.5053381874577
 20
20160.487175999991
 30
0.0
 40
15.0
 50
180.0
 51
0.0
  0
ARC
  5
1845C
  8
0
  6
BYBLOCK
 62
     0
 10
7492.0053381874604
 20
20160.487175999991
 30
0.0
 40
15.0
 50
180.0
 51
0.0
  0
ARC
  5
1845D
  8
0
  6
BYBLOCK
 62
     0
 10
7492.0053381874604
 20
20160.487175999991
 30
0.0
 40
15.0
 50
0.0
 51
180.0
  0
ARC
  5
1845E
  8
0
  6
BYBLOCK
 62
     0
 10
10377.50533818746
 20
20160.487175999991
 30
0.0
 40
15.0
 50
180.0
 51
0.0
  0
ARC
  5
1845F
  8
0
  6
BYBLOCK
 62
     0
 10
10377.50533818746
 20
20160.487175999991
 30
0.0
 40
15.0
 50
0.0
 51
180.0
  0
ARC
  5
18460
  8
0
  6
BYBLOCK
 62
     0
 10
7577.5053381874577
 20
20160.487175999991
 30
0.0
 40
15.0
 50
0.0
 51
180.0
  0
ARC
  5
18461
  8
0
  6
BYBLOCK
 62
     0
 10
7577.5053381874577
 20
20160.487175999991
 30
0.0
 40
15.0
 50
180.0
 51
0.0
  0
ARC
  5
18462
  8
0
  6
BYBLOCK
 62
     0
 10
13646.00533818745
 20
20160.487175999991
 30
0.0
 40
15.0
 50
180.0
 51
0.0
  0
ARC
  5
18463
  8
0
  6
BYBLOCK
 62
     0
 10
13646.00533818745
 20
20160.487175999991
 30
0.0
 40
15.0
 50
0.0
 51
180.0
  0
ARC
  5
18464
  8
0
  6
BYBLOCK
 62
     0
 10
10377.50533818746
 20
20160.487175999991
 30
0.0
 40
15.0
 50
0.0
 51
180.0
  0
ARC
  5
18465
  8
0
  6
BYBLOCK
 62
     0
 10
10377.50533818746
 20
20160.487175999991
 30
0.0
 40
15.0
 50
180.0
 51
0.0
  0
ARC
  5
18466
  8
0
  6
BYBLOCK
 62
     0
 10
13646.00533818745
 20
20160.487175999991
 30
0.0
 40
15.0
 50
180.0
 51
0.0
  0
ARC
  5
18467
  8
0
  6
BYBLOCK
 62
     0
 10
13646.00533818745
 20
20160.487175999991
 30
0.0
 40
15.0
 50
0.0
 51
180.0
  0
ARC
  5
18468
  8
0
  6
BYBLOCK
 62
     0
 10
13731.50533818745
 20
20160.487175999991
 30
0.0
 40
15.0
 50
0.0
 51
180.0
  0
ARC
  5
18469
  8
0
  6
BYBLOCK
 62
     0
 10
13731.50533818745
 20
20160.487175999991
 30
0.0
 40
15.0
 50
180.0
 51
0.0
  0
ARC
  5
1846A
  8
0
  6
BYBLOCK
 62
     0
 10
13731.50533818745
 20
12700.48618599998
 30
0.0
 40
15.0
 50
180.0
 51
0.0
  0
ARC
  5
1846B
  8
0
  6
BYBLOCK
 62
     0
 10
13731.50533818745
 20
12700.48618599998
 30
0.0
 40
15.0
 50
0.0
 51
180.0
  0
ARC
  5
1846C
  8
0
  6
BYBLOCK
 62
     0
 10
7492.0053381874604
 20
12700.48618599998
 30
0.0
 40
15.0
 50
0.0
 51
180.0
  0
ARC
  5
1846D
  8
0
  6
BYBLOCK
 62
     0
 10
7492.0053381874604
 20
12700.48618599998
 30
0.0
 40
15.0
 50
180.0
 51
0.0
  0
ARC
  5
1846E
  8
0
  6
BYBLOCK
 62
     0
 10
25456.972702566782
 20
20160.487175999991
 30
0.0
 40
15.0
 50
180.0
 51
0.0
  0
ARC
  5
1846F
  8
0
  6
BYBLOCK
 62
     0
 10
25456.972702566782
 20
20160.487175999991
 30
0.0
 40
15.0
 50
0.0
 51
180.0
  0
ARC
  5
18470
  8
0
  6
BYBLOCK
 62
     0
 10
25499.472702566782
 20
20160.487175999991
 30
0.0
 40
15.0
 50
0.0
 51
180.0
  0
ARC
  5
18471
  8
0
  6
BYBLOCK
 62
     0
 10
25499.472702566782
 20
20160.487175999991
 30
0.0
 40
15.0
 50
180.0
 51
0.0
  0
ARC
  5
18492
  8
0
  6
BYBLOCK
 62
     0
 10
24698.972702566782
 20
20160.487175999991
 30
0.0
 40
15.0
 50
0.0
 51
180.0
  0
ARC
  5
18493
  8
0
  6
BYBLOCK
 62
     0
 10
24698.972702566782
 20
20160.487175999991
 30
0.0
 40
15.0
 50
180.0
 51
0.0
  0
ARC
  5
18494
  8
0
  6
BYBLOCK
 62
     0
 10
25456.972702566782
 20
20160.487175999991
 30
0.0
 40
15.0
 50
180.0
 51
0.0
  0
ARC
  5
18495
  8
0
  6
BYBLOCK
 62
     0
 10
25456.972702566782
 20
20160.487175999991
 30
0.0
 40
15.0
 50
0.0
 51
180.0
  0
ARC
  5
18496
  8
0
  6
BYBLOCK
 62
     0
 10
23997.972702566782
 20
20160.487175999991
 30
0.0
 40
15.0
 50
0.0
 51
180.0
  0
ARC
  5
18497
  8
0
  6
BYBLOCK
 62
     0
 10
23997.972702566782
 20
20160.487175999991
 30
0.0
 40
15.0
 50
180.0
 51
0.0
  0
ARC
  5
18498
  8
0
  6
BYBLOCK
 62
     0
 10
24698.972702566782
 20
20160.487175999991
 30
0.0
 40
15.0
 50
180.0
 51
0.0
  0
ARC
  5
18499
  8
0
  6
BYBLOCK
 62
     0
 10
24698.972702566782
 20
20160.487175999991
 30
0.0
 40
15.0
 50
0.0
 51
180.0
  0
ARC
  5
1849A
  8
0
  6
BYBLOCK
 62
     0
 10
23296.972702566782
 20
20160.487175999991
 30
0.0
 40
15.0
 50
0.0
 51
180.0
  0
ARC
  5
1849B
  8
0
  6
BYBLOCK
 62
     0
 10
23296.972702566782
 20
20160.487175999991
 30
0.0
 40
15.0
 50
180.0
 51
0.0
  0
ARC
  5
1849C
  8
0
  6
BYBLOCK
 62
     0
 10
23997.972702566782
 20
20160.487175999991
 30
0.0
 40
15.0
 50
180.0
 51
0.0
  0
ARC
  5
1849D
  8
0
  6
BYBLOCK
 62
     0
 10
23997.972702566782
 20
20160.487175999991
 30
0.0
 40
15.0
 50
0.0
 51
180.0
  0
ARC
  5
1849E
  8
0
  6
BYBLOCK
 62
     0
 10
22188.472702566782
 20
20160.487175999991
 30
0.0
 40
15.0
 50
0.0
 51
180.0
  0
ARC
  5
1849F
  8
0
  6
BYBLOCK
 62
     0
 10
22188.472702566782
 20
20160.487175999991
 30
0.0
 40
15.0
 50
180.0
 51
0.0
  0
ARC
  5
184A0
  8
0
  6
BYBLOCK
 62
     0
 10
22595.972702566782
 20
20160.487175999991
 30
0.0
 40
15.0
 50
180.0
 51
0.0
  0
ARC
  5
184A1
  8
0
  6
BYBLOCK
 62
     0
 10
22595.972702566782
 20
20160.487175999991
 30
0.0
 40
15.0
 50
0.0
 51
180.0
  0
ARC
  5
184A2
  8
0
  6
BYBLOCK
 62
     0
 10
22188.472702566782
 20
20160.487175999991
 30
0.0
 40
15.0
 50
0.0
 51
180.0
  0
ARC
  5
184A3
  8
0
  6
BYBLOCK
 62
     0
 10
22188.472702566782
 20
20160.487175999991
 30
0.0
 40
15.0
 50
180.0
 51
0.0
  0
ARC
  5
184A4
  8
0
  6
BYBLOCK
 62
     0
 10
22145.972702566782
 20
20160.487175999991
 30
0.0
 40
15.0
 50
180.0
 51
0.0
  0
ARC
  5
184A5
  8
0
  6
BYBLOCK
 62
     0
 10
22145.972702566782
 20
20160.487175999991
 30
0.0
 40
15.0
 50
0.0
 51
180.0
  0
ARC
  5
184B2
  8
0
  6
BYBLOCK
 62
     0
 10
22188.470723566788
 20
20560.487175999991
 30
0.0
 40
15.0
 50
180.0
 51
0.0
  0
ARC
  5
184B3
  8
0
  6
BYBLOCK
 62
     0
 10
22188.470723566788
 20
20560.487175999991
 30
0.0
 40
15.0
 50
0.0
 51
180.0
  0
ARC
  5
184B4
  8
0
  6
BYBLOCK
 62
     0
 10
19388.470723566781
 20
20560.487175999991
 30
0.0
 40
15.0
 50
0.0
 51
180.0
  0
ARC
  5
184B5
  8
0
  6
BYBLOCK
 62
     0
 10
19388.470723566781
 20
20560.487175999991
 30
0.0
 40
15.0
 50
180.0
 51
0.0
  0
ARC
  5
184B6
  8
0
  6
BYBLOCK
 62
     0
 10
25456.970723566781
 20
20560.487175999991
 30
0.0
 40
15.0
 50
180.0
 51
0.0
  0
ARC
  5
184B7
  8
0
  6
BYBLOCK
 62
     0
 10
25456.970723566781
 20
20560.487175999991
 30
0.0
 40
15.0
 50
0.0
 51
180.0
  0
ARC
  5
184B8
  8
0
  6
BYBLOCK
 62
     0
 10
22188.470723566788
 20
20560.487175999991
 30
0.0
 40
15.0
 50
0.0
 51
180.0
  0
ARC
  5
184B9
  8
0
  6
BYBLOCK
 62
     0
 10
22188.470723566788
 20
20560.487175999991
 30
0.0
 40
15.0
 50
180.0
 51
0.0
  0
ARC
  5
184BA
  8
0
  6
BYBLOCK
 62
     0
 10
19388.470723566781
 20
20160.487175999991
 30
0.0
 40
15.0
 50
180.0
 51
0.0
  0
ARC
  5
184BB
  8
0
  6
BYBLOCK
 62
     0
 10
19388.470723566781
 20
20160.487175999991
 30
0.0
 40
15.0
 50
0.0
 51
180.0
  0
ARC
  5
184BC
  8
0
  6
BYBLOCK
 62
     0
 10
19430.97296656678
 20
20160.487175999991
 30
0.0
 40
15.0
 50
0.0
 51
180.0
  0
ARC
  5
184BD
  8
0
  6
BYBLOCK
 62
     0
 10
19430.97296656678
 20
20160.487175999991
 30
0.0
 40
15.0
 50
180.0
 51
0.0
  0
ARC
  5
184BE
  8
0
  6
BYBLOCK
 62
     0
 10
19388.470723566781
 20
20160.487175999991
 30
0.0
 40
15.0
 50
0.0
 51
180.0
  0
ARC
  5
184BF
  8
0
  6
BYBLOCK
 62
     0
 10
19388.470723566781
 20
20160.487175999991
 30
0.0
 40
15.0
 50
180.0
 51
0.0
  0
ARC
  5
184C0
  8
0
  6
BYBLOCK
 62
     0
 10
19345.972438566791
 20
20160.487175999991
 30
0.0
 40
15.0
 50
180.0
 51
0.0
  0
ARC
  5
184C1
  8
0
  6
BYBLOCK
 62
     0
 10
19345.972438566791
 20
20160.487175999991
 30
0.0
 40
15.0
 50
0.0
 51
180.0
  0
ARC
  5
184C2
  8
0
  6
BYBLOCK
 62
     0
 10
18170.627099198158
 20
16750.486251999992
 30
0.0
 40
15.0
 50
90.0
 51
270.0
  0
ARC
  5
184C3
  8
0
  6
BYBLOCK
 62
     0
 10
18170.627099198158
 20
16750.486251999992
 30
0.0
 40
15.0
 50
270.0
 51
90.0
  0
ARC
  5
184C4
  8
0
  6
BYBLOCK
 62
     0
 10
18170.627099198158
 20
19317.986251999992
 30
0.0
 40
15.0
 50
270.0
 51
90.0
  0
ARC
  5
184C5
  8
0
  6
BYBLOCK
 62
     0
 10
18170.627099198158
 20
19317.986251999992
 30
0.0
 40
15.0
 50
90.0
 51
270.0
  0
ARC
  5
184C6
  8
0
  6
BYBLOCK
 62
     0
 10
18170.627099198158
 20
14182.986252000001
 30
0.0
 40
15.0
 50
90.0
 51
270.0
  0
ARC
  5
184C7
  8
0
  6
BYBLOCK
 62
     0
 10
18170.627099198158
 20
14182.986252000001
 30
0.0
 40
15.0
 50
270.0
 51
90.0
  0
ARC
  5
184C8
  8
0
  6
BYBLOCK
 62
     0
 10
18170.627099198158
 20
16750.486251999992
 30
0.0
 40
15.0
 50
270.0
 51
90.0
  0
ARC
  5
184C9
  8
0
  6
BYBLOCK
 62
     0
 10
18170.627099198158
 20
16750.486251999992
 30
0.0
 40
15.0
 50
90.0
 51
270.0
  0
ARC
  5
184DE
  8
0
  6
BYBLOCK
 62
     0
 10
25542.47072356681
 20
9789.1329740000037
 30
0.0
 40
15.0
 50
180.0
 51
0.0
  0
ARC
  5
184DF
  8
0
  6
BYBLOCK
 62
     0
 10
25542.47072356681
 20
9789.1329740000037
 30
0.0
 40
15.0
 50
0.0
 51
180.0
  0
ARC
  5
184E0
  8
0
  6
BYBLOCK
 62
     0
 10
19302.970723566788
 20
9789.1329740000037
 30
0.0
 40
15.0
 50
0.0
 51
180.0
  0
ARC
  5
184E1
  8
0
  6
BYBLOCK
 62
     0
 10
19302.970723566788
 20
9789.1329740000037
 30
0.0
 40
15.0
 50
180.0
 51
0.0
  0
ARC
  5
184E2
  8
0
  6
BYBLOCK
 62
     0
 10
19345.970723566781
 20
9389.1900499999992
 30
0.0
 40
15.0
 50
0.0
 51
180.0
  0
ARC
  5
184E3
  8
0
  6
BYBLOCK
 62
     0
 10
19345.970723566781
 20
9389.1900499999992
 30
0.0
 40
15.0
 50
180.0
 51
0.0
  0
ARC
  5
184E4
  8
0
  6
BYBLOCK
 62
     0
 10
19302.970723566788
 20
9389.1900499999992
 30
0.0
 40
15.0
 50
180.0
 51
0.0
  0
ARC
  5
184E5
  8
0
  6
BYBLOCK
 62
     0
 10
19302.970723566788
 20
9389.1900499999992
 30
0.0
 40
15.0
 50
0.0
 51
180.0
  0
ARC
  5
184E6
  8
0
  6
BYBLOCK
 62
     0
 10
25499.47072356681
 20
9389.1900499999992
 30
0.0
 40
15.0
 50
180.0
 51
0.0
  0
ARC
  5
184E7
  8
0
  6
BYBLOCK
 62
     0
 10
25499.47072356681
 20
9389.1900499999992
 30
0.0
 40
15.0
 50
0.0
 51
180.0
  0
ARC
  5
184E8
  8
0
  6
BYBLOCK
 62
     0
 10
25542.47072356681
 20
9389.1900499999992
 30
0.0
 40
15.0
 50
0.0
 51
180.0
  0
ARC
  5
184E9
  8
0
  6
BYBLOCK
 62
     0
 10
25542.47072356681
 20
9389.1900499999992
 30
0.0
 40
15.0
 50
180.0
 51
0.0
  0
ARC
  5
184EA
  8
0
  6
BYBLOCK
 62
     0
 10
22145.970723566781
 20
9389.1900499999992
 30
0.0
 40
15.0
 50
0.0
 51
180.0
  0
ARC
  5
184EB
  8
0
  6
BYBLOCK
 62
     0
 10
22145.970723566781
 20
9389.1900499999992
 30
0.0
 40
15.0
 50
180.0
 51
0.0
  0
ARC
  5
184EC
  8
0
  6
BYBLOCK
 62
     0
 10
25499.47072356681
 20
9389.1900499999992
 30
0.0
 40
15.0
 50
180.0
 51
0.0
  0
ARC
  5
184ED
  8
0
  6
BYBLOCK
 62
     0
 10
25499.47072356681
 20
9389.1900499999992
 30
0.0
 40
15.0
 50
0.0
 51
180.0
  0
ARC
  5
184EE
  8
0
  6
BYBLOCK
 62
     0
 10
26950.07297427153
 20
6241.1883740000003
 30
0.0
 40
15.0
 50
90.0
 51
270.0
  0
ARC
  5
184EF
  8
0
  6
BYBLOCK
 62
     0
 10
26950.07297427153
 20
6241.1883740000003
 30
0.0
 40
15.0
 50
270.0
 51
90.0
  0
ARC
  5
184F0
  8
0
  6
BYBLOCK
 62
     0
 10
26950.07297427153
 20
8590.1883999999955
 30
0.0
 40
15.0
 50
270.0
 51
90.0
  0
ARC
  5
184F1
  8
0
  6
BYBLOCK
 62
     0
 10
26950.07297427153
 20
8590.1883999999955
 30
0.0
 40
15.0
 50
90.0
 51
270.0
  0
ARC
  5
184F2
  8
0
  6
BYBLOCK
 62
     0
 10
26306.974022566788
 20
6241.1883740000012
 30
0.0
 40
15.0
 50
90.0
 51
270.0
  0
ARC
  5
184F3
  8
0
  6
BYBLOCK
 62
     0
 10
26306.974022566788
 20
6241.1883740000012
 30
0.0
 40
15.0
 50
270.0
 51
90.0
  0
ARC
  5
184F4
  8
0
  6
BYBLOCK
 62
     0
 10
26306.974022566788
 20
8132.6883740000021
 30
0.0
 40
15.0
 50
270.0
 51
90.0
  0
ARC
  5
184F5
  8
0
  6
BYBLOCK
 62
     0
 10
26306.974022566788
 20
8132.6883740000021
 30
0.0
 40
15.0
 50
90.0
 51
270.0
  0
ARC
  5
184F6
  8
0
  6
BYBLOCK
 62
     0
 10
22142.970723566788
 20
5341.1883740000012
 30
0.0
 40
15.0
 50
180.0
 51
0.0
  0
ARC
  5
184F7
  8
0
  6
BYBLOCK
 62
     0
 10
22142.970723566788
 20
5341.1883740000012
 30
0.0
 40
15.0
 50
0.0
 51
180.0
  0
ARC
  5
184F8
  8
0
  6
BYBLOCK
 62
     0
 10
19430.970723566781
 20
5341.1883740000012
 30
0.0
 40
15.0
 50
0.0
 51
180.0
  0
ARC
  5
184F9
  8
0
  6
BYBLOCK
 62
     0
 10
19430.970723566781
 20
5341.1883740000012
 30
0.0
 40
15.0
 50
180.0
 51
0.0
  0
ARC
  5
184FA
  8
0
  6
BYBLOCK
 62
     0
 10
25499.430770619259
 20
4541.1887040000547
 30
0.0
 40
15.0
 50
180.0
 51
0.0
  0
ARC
  5
184FB
  8
0
  6
BYBLOCK
 62
     0
 10
25499.430770619259
 20
4541.1887040000547
 30
0.0
 40
15.0
 50
0.0
 51
180.0
  0
ARC
  5
184FC
  8
0
  6
BYBLOCK
 62
     0
 10
19345.970723566781
 20
4541.1887040000547
 30
0.0
 40
15.0
 50
0.0
 51
180.0
  0
ARC
  5
184FD
  8
0
  6
BYBLOCK
 62
     0
 10
19345.970723566781
 20
4541.1887040000547
 30
0.0
 40
15.0
 50
180.0
 51
0.0
  0
ARC
  5
184FE
  8
0
  6
BYBLOCK
 62
     0
 10
25456.970723566799
 20
4941.1885389999979
 30
0.0
 40
15.0
 50
180.0
 51
0.0
  0
ARC
  5
184FF
  8
0
  6
BYBLOCK
 62
     0
 10
25456.970723566799
 20
4941.1885389999979
 30
0.0
 40
15.0
 50
0.0
 51
180.0
  0
ARC
  5
18500
  8
0
  6
BYBLOCK
 62
     0
 10
25499.430770619259
 20
4941.1885389999979
 30
0.0
 40
15.0
 50
0.0
 51
180.0
  0
ARC
  5
18501
  8
0
  6
BYBLOCK
 62
     0
 10
25499.430770619259
 20
4941.1885389999979
 30
0.0
 40
15.0
 50
180.0
 51
0.0
  0
ARC
  5
18502
  8
0
  6
BYBLOCK
 62
     0
 10
22188.470723566788
 20
4941.1885389999979
 30
0.0
 40
15.0
 50
0.0
 51
180.0
  0
ARC
  5
18503
  8
0
  6
BYBLOCK
 62
     0
 10
22188.470723566788
 20
4941.1885389999979
 30
0.0
 40
15.0
 50
180.0
 51
0.0
  0
ARC
  5
18504
  8
0
  6
BYBLOCK
 62
     0
 10
25456.970723566799
 20
4941.1885389999979
 30
0.0
 40
15.0
 50
180.0
 51
0.0
  0
ARC
  5
18505
  8
0
  6
BYBLOCK
 62
     0
 10
25456.970723566799
 20
4941.1885389999979
 30
0.0
 40
15.0
 50
0.0
 51
180.0
  0
ARC
  5
18506
  8
0
  6
BYBLOCK
 62
     0
 10
25362.970723566799
 20
5341.1883740000012
 30
0.0
 40
15.0
 50
180.0
 51
0.0
  0
ARC
  5
18507
  8
0
  6
BYBLOCK
 62
     0
 10
25362.970723566799
 20
5341.1883740000012
 30
0.0
 40
15.0
 50
0.0
 51
180.0
  0
ARC
  5
18508
  8
0
  6
BYBLOCK
 62
     0
 10
22282.470723566799
 20
5341.1883740000012
 30
0.0
 40
15.0
 50
0.0
 51
180.0
  0
ARC
  5
18509
  8
0
  6
BYBLOCK
 62
     0
 10
22282.470723566799
 20
5341.1883740000012
 30
0.0
 40
15.0
 50
180.0
 51
0.0
  0
ARC
  5
1850A
  8
0
  6
BYBLOCK
 62
     0
 10
19388.470723566781
 20
4941.1885389999979
 30
0.0
 40
15.0
 50
0.0
 51
180.0
  0
ARC
  5
1850B
  8
0
  6
BYBLOCK
 62
     0
 10
19388.470723566781
 20
4941.1885389999979
 30
0.0
 40
15.0
 50
180.0
 51
0.0
  0
ARC
  5
1850C
  8
0
  6
BYBLOCK
 62
     0
 10
19345.970723566781
 20
4941.1885389999979
 30
0.0
 40
15.0
 50
180.0
 51
0.0
  0
ARC
  5
1850D
  8
0
  6
BYBLOCK
 62
     0
 10
19345.970723566781
 20
4941.1885389999979
 30
0.0
 40
15.0
 50
0.0
 51
180.0
  0
ARC
  5
1850E
  8
0
  6
BYBLOCK
 62
     0
 10
22188.470723566788
 20
4941.1885389999979
 30
0.0
 40
15.0
 50
180.0
 51
0.0
  0
ARC
  5
1850F
  8
0
  6
BYBLOCK
 62
     0
 10
22188.470723566788
 20
4941.1885389999979
 30
0.0
 40
15.0
 50
0.0
 51
180.0
  0
ARC
  5
18510
  8
0
  6
BYBLOCK
 62
     0
 10
19388.470723566781
 20
4941.1885389999979
 30
0.0
 40
15.0
 50
0.0
 51
180.0
  0
ARC
  5
18511
  8
0
  6
BYBLOCK
 62
     0
 10
19388.470723566781
 20
4941.1885389999979
 30
0.0
 40
15.0
 50
180.0
 51
0.0
  0
ARC
  5
18512
  8
0
  6
BYBLOCK
 62
     0
 10
22145.970723566781
 20
9389.1900499999992
 30
0.0
 40
15.0
 50
180.0
 51
0.0
  0
ARC
  5
18513
  8
0
  6
BYBLOCK
 62
     0
 10
22145.970723566781
 20
9389.1900499999992
 30
0.0
 40
15.0
 50
0.0
 51
180.0
  0
ARC
  5
18514
  8
0
  6
BYBLOCK
 62
     0
 10
19345.970723566781
 20
9389.1900499999992
 30
0.0
 40
15.0
 50
0.0
 51
180.0
  0
ARC
  5
18515
  8
0
  6
BYBLOCK
 62
     0
 10
19345.970723566781
 20
9389.1900499999992
 30
0.0
 40
15.0
 50
180.0
 51
0.0
  0
ARC
  5
18516
  8
0
  6
BYBLOCK
 62
     0
 10
18136.14832527241
 20
6242.0026620000071
 30
0.0
 40
15.0
 50
90.0
 51
270.0
  0
ARC
  5
18517
  8
0
  6
BYBLOCK
 62
     0
 10
18136.14832527241
 20
6242.0026620000071
 30
0.0
 40
15.0
 50
270.0
 51
90.0
  0
ARC
  5
18518
  8
0
  6
BYBLOCK
 62
     0
 10
18136.14832527241
 20
8262.0026620000026
 30
0.0
 40
15.0
 50
270.0
 51
90.0
  0
ARC
  5
18519
  8
0
  6
BYBLOCK
 62
     0
 10
18136.14832527241
 20
8262.0026620000026
 30
0.0
 40
15.0
 50
90.0
 51
270.0
  0
ARC
  5
1851A
  8
0
  6
BYBLOCK
 62
     0
 10
13397.50734467521
 20
9789.1883999999955
 30
0.0
 40
15.0
 50
180.0
 51
0.0
  0
ARC
  5
1851B
  8
0
  6
BYBLOCK
 62
     0
 10
13397.50734467521
 20
9789.1883999999955
 30
0.0
 40
15.0
 50
0.0
 51
180.0
  0
ARC
  5
1851C
  8
0
  6
BYBLOCK
 62
     0
 10
7847.5073446752058
 20
9789.1883999999955
 30
0.0
 40
15.0
 50
0.0
 51
180.0
  0
ARC
  5
1851D
  8
0
  6
BYBLOCK
 62
     0
 10
7847.5073446752058
 20
9789.1883999999955
 30
0.0
 40
15.0
 50
180.0
 51
0.0
  0
ARC
  5
1851E
  8
0
  6
BYBLOCK
 62
     0
 10
7997.5073446751958
 20
9389.1900499999992
 30
0.0
 40
15.0
 50
0.0
 51
180.0
  0
ARC
  5
1851F
  8
0
  6
BYBLOCK
 62
     0
 10
7997.5073446751958
 20
9389.1900499999992
 30
0.0
 40
15.0
 50
180.0
 51
0.0
  0
ARC
  5
18520
  8
0
  6
BYBLOCK
 62
     0
 10
7847.5073446752058
 20
9389.1900499999992
 30
0.0
 40
15.0
 50
180.0
 51
0.0
  0
ARC
  5
18521
  8
0
  6
BYBLOCK
 62
     0
 10
7847.5073446752058
 20
9389.1900499999992
 30
0.0
 40
15.0
 50
0.0
 51
180.0
  0
ARC
  5
18522
  8
0
  6
BYBLOCK
 62
     0
 10
13217.50734467521
 20
9389.1900499999992
 30
0.0
 40
15.0
 50
180.0
 51
0.0
  0
ARC
  5
18523
  8
0
  6
BYBLOCK
 62
     0
 10
13217.50734467521
 20
9389.1900499999992
 30
0.0
 40
15.0
 50
0.0
 51
180.0
  0
ARC
  5
18524
  8
0
  6
BYBLOCK
 62
     0
 10
7997.5073446751958
 20
9389.1900499999992
 30
0.0
 40
15.0
 50
0.0
 51
180.0
  0
ARC
  5
18525
  8
0
  6
BYBLOCK
 62
     0
 10
7997.5073446751958
 20
9389.1900499999992
 30
0.0
 40
15.0
 50
180.0
 51
0.0
  0
ARC
  5
18526
  8
0
  6
BYBLOCK
 62
     0
 10
13397.50734467521
 20
9389.1900499999992
 30
0.0
 40
15.0
 50
180.0
 51
0.0
  0
ARC
  5
18527
  8
0
  6
BYBLOCK
 62
     0
 10
13397.50734467521
 20
9389.1900499999992
 30
0.0
 40
15.0
 50
0.0
 51
180.0
  0
ARC
  5
18528
  8
0
  6
BYBLOCK
 62
     0
 10
13217.50734467521
 20
9389.1900499999992
 30
0.0
 40
15.0
 50
0.0
 51
180.0
  0
ARC
  5
18529
  8
0
  6
BYBLOCK
 62
     0
 10
13217.50734467521
 20
9389.1900499999992
 30
0.0
 40
15.0
 50
180.0
 51
0.0
  0
ARC
  5
1852A
  8
0
  6
BYBLOCK
 62
     0
 10
6907.5069486752036
 20
6241.1883740000012
 30
0.0
 40
15.0
 50
90.0
 51
270.0
  0
ARC
  5
1852B
  8
0
  6
BYBLOCK
 62
     0
 10
6907.5069486752036
 20
6241.1883740000012
 30
0.0
 40
15.0
 50
270.0
 51
90.0
  0
ARC
  5
1852C
  8
0
  6
BYBLOCK
 62
     0
 10
6907.5069486752036
 20
8590.188374000003
 30
0.0
 40
15.0
 50
270.0
 51
90.0
  0
ARC
  5
1852D
  8
0
  6
BYBLOCK
 62
     0
 10
6907.5069486752036
 20
8590.188374000003
 30
0.0
 40
15.0
 50
90.0
 51
270.0
  0
ARC
  5
1852E
  8
0
  6
BYBLOCK
 62
     0
 10
14307.507740675181
 20
6241.1883740000012
 30
0.0
 40
15.0
 50
90.0
 51
270.0
  0
ARC
  5
1852F
  8
0
  6
BYBLOCK
 62
     0
 10
14307.507740675181
 20
6241.1883740000012
 30
0.0
 40
15.0
 50
270.0
 51
90.0
  0
ARC
  5
18530
  8
0
  6
BYBLOCK
 62
     0
 10
14307.507740675181
 20
8396.688374000003
 30
0.0
 40
15.0
 50
270.0
 51
90.0
  0
ARC
  5
18531
  8
0
  6
BYBLOCK
 62
     0
 10
14307.507740675181
 20
8396.688374000003
 30
0.0
 40
15.0
 50
90.0
 51
270.0
  0
ARC
  5
18532
  8
0
  6
BYBLOCK
 62
     0
 10
13217.50734467521
 20
4541.1887039999938
 30
0.0
 40
15.0
 50
180.0
 51
0.0
  0
ARC
  5
18533
  8
0
  6
BYBLOCK
 62
     0
 10
13217.50734467521
 20
4541.1887039999938
 30
0.0
 40
15.0
 50
0.0
 51
180.0
  0
ARC
  5
18534
  8
0
  6
BYBLOCK
 62
     0
 10
7997.5073446751958
 20
4541.1887039999938
 30
0.0
 40
15.0
 50
0.0
 51
180.0
  0
ARC
  5
18535
  8
0
  6
BYBLOCK
 62
     0
 10
7997.5073446751958
 20
4541.1887039999938
 30
0.0
 40
15.0
 50
180.0
 51
0.0
  0
ARC
  5
18536
  8
0
  6
BYBLOCK
 62
     0
 10
8040.0073446752076
 20
4941.1885389999979
 30
0.0
 40
15.0
 50
0.0
 51
180.0
  0
ARC
  5
18537
  8
0
  6
BYBLOCK
 62
     0
 10
8040.0073446752076
 20
4941.1885389999979
 30
0.0
 40
15.0
 50
180.0
 51
0.0
  0
ARC
  5
18538
  8
0
  6
BYBLOCK
 62
     0
 10
7997.5073446751958
 20
4941.1885389999979
 30
0.0
 40
15.0
 50
180.0
 51
0.0
  0
ARC
  5
18539
  8
0
  6
BYBLOCK
 62
     0
 10
7997.5073446751958
 20
4941.1885389999979
 30
0.0
 40
15.0
 50
0.0
 51
180.0
  0
ARC
  5
1853A
  8
0
  6
BYBLOCK
 62
     0
 10
13175.007344675199
 20
4941.1885389999979
 30
0.0
 40
15.0
 50
180.0
 51
0.0
  0
ARC
  5
1853B
  8
0
  6
BYBLOCK
 62
     0
 10
13175.007344675199
 20
4941.1885389999979
 30
0.0
 40
15.0
 50
0.0
 51
180.0
  0
ARC
  5
1853C
  8
0
  6
BYBLOCK
 62
     0
 10
13217.50734467521
 20
4941.1885389999979
 30
0.0
 40
15.0
 50
0.0
 51
180.0
  0
ARC
  5
1853D
  8
0
  6
BYBLOCK
 62
     0
 10
13217.50734467521
 20
4941.1885389999979
 30
0.0
 40
15.0
 50
180.0
 51
0.0
  0
ARC
  5
1853E
  8
0
  6
BYBLOCK
 62
     0
 10
10607.50734467519
 20
4941.1885389999979
 30
0.0
 40
15.0
 50
0.0
 51
180.0
  0
ARC
  5
1853F
  8
0
  6
BYBLOCK
 62
     0
 10
10607.50734467519
 20
4941.1885389999979
 30
0.0
 40
15.0
 50
180.0
 51
0.0
  0
ARC
  5
18540
  8
0
  6
BYBLOCK
 62
     0
 10
13175.007344675199
 20
4941.1885389999979
 30
0.0
 40
15.0
 50
180.0
 51
0.0
  0
ARC
  5
18541
  8
0
  6
BYBLOCK
 62
     0
 10
13175.007344675199
 20
4941.1885389999979
 30
0.0
 40
15.0
 50
0.0
 51
180.0
  0
ARC
  5
18542
  8
0
  6
BYBLOCK
 62
     0
 10
10607.50734467519
 20
4941.1885389999979
 30
0.0
 40
15.0
 50
180.0
 51
0.0
  0
ARC
  5
18543
  8
0
  6
BYBLOCK
 62
     0
 10
10607.50734467519
 20
4941.1885389999979
 30
0.0
 40
15.0
 50
0.0
 51
180.0
  0
ARC
  5
18544
  8
0
  6
BYBLOCK
 62
     0
 10
8040.0073446752076
 20
4941.1885389999979
 30
0.0
 40
15.0
 50
0.0
 51
180.0
  0
ARC
  5
18545
  8
0
  6
BYBLOCK
 62
     0
 10
8040.0073446752076
 20
4941.1885389999979
 30
0.0
 40
15.0
 50
180.0
 51
0.0
  0
TEXT
  5
18621
  8
NAME
 10
21595.82616625919
 20
1076.6369801169251
 30
0.0
 40
360.0
  1
VGC-3352（H）+VKC-2852（H）型-L（単棟）
 41
0.45
  0
TEXT
  5
18622
  8
NAME
 10
21933.552716389011
 20
1876.0
 30
0.0
 40
360.0
  1
ヨドガレージ ラヴィージュ
 41
0.75
  7
01
  0
LINE
  5
18623
  8
NAME
  6
CONTINUOUS
 10
26067.886878884299
 20
2236.0
 30
0.0
 11
26067.886878884299
 21
1876.0
 31
0.0
  0
LINE
  5
18624
  8
NAME
  6
CONTINUOUS
 10
26167.886878884299
 20
2236.0
 30
0.0
 11
26167.886878884299
 21
1876.0
 31
0.0
  0
LINE
  5
18625
  8
NAME
  6
CONTINUOUS
 10
26267.88687888431
 20
2236.0
 30
0.0
 11
26267.88687888431
 21
1876.0
 31
0.0
  0
LINE
  5
18626
  8
NAME
  6
CONTINUOUS
 10
26007.886878884299
 20
2236.0
 30
0.0
 11
26327.886878884299
 21
2236.0
 31
0.0
  0
LINE
  5
18627
  8
NAME
  6
CONTINUOUS
 10
26327.886878884299
 20
1876.0
 30
0.0
 11
26007.886878884299
 21
1876.0
 31
0.0
  0
LINE
  5
1888A
  8
2-0
  6
CENTER2
 62
     6
 10
22188.470723566781
 20
20960.488495000001
 30
0.0
 11
22188.470723566781
 21
13825.23237353158
 31
0.0
  0
LINE
  5
1888D
  8
2-0
  6
CENTER2
 62
     6
 10
25456.970723566781
 20
20960.488495000001
 30
0.0
 11
25456.970723566781
 21
13825.23237353158
 31
0.0
  0
LINE
  5
18890
  8
2-0
  6
CONTINUOUS
 62
     6
 10
23773.81180756677
 20
13542.985129999999
 30
0.0
 11
24773.80520956673
 21
13542.985129999999
 31
0.0
  0
LINE
  5
18891
  8
2-0
  6
CONTINUOUS
 62
     6
 10
25241.745586566769
 20
14013.40584399999
 30
0.0
 11
24773.80520956673
 21
13542.985129999999
 31
0.0
  0
LINE
  5
18892
  8
2-0
  6
CONTINUOUS
 62
     6
 10
25203.10538356677
 20
16854.513491000009
 30
0.0
 11
24898.40996556676
 21
16958.16702200002
 31
0.0
  0
LINE
  5
18893
  8
2-0
  6
CONTINUOUS
 62
     6
 10
25358.12742256674
 20
16364.891447000011
 30
0.0
 11
24898.40996556676
 21
16120.978136000011
 31
0.0
  0
LINE
  5
18894
  8
2-0
  6
CONTINUOUS
 62
     6
 10
23978.406930566769
 20
16120.978136000011
 30
0.0
 11
24898.40996556676
 21
16120.978136000011
 31
0.0
  0
LINE
  5
18895
  8
2-0
  6
CONTINUOUS
 62
     6
 10
23698.415903566769
 20
16958.16702200002
 30
0.0
 11
24898.40996556676
 21
16958.16702200002
 31
0.0
  0
LINE
  5
18896
  8
2-0
  6
CONTINUOUS
 62
     6
 10
25274.304707566778
 20
14335.08948999998
 30
0.0
 11
24898.40996556676
 21
14516.033325
 31
0.0
  0
LINE
  5
18897
  8
2-0
  6
CONTINUOUS
 62
     6
 10
24378.408249566772
 20
14516.033325
 30
0.0
 11
24898.40996556676
 21
14516.033325
 31
0.0
  0
LINE
  5
18898
  8
2-0
  6
CONTINUOUS
 62
     3
 10
25469.471383566772
 20
19251.484325999991
 30
0.0
 11
25469.471383566772
 21
19245.488364000019
 31
0.0
  0
LINE
  5
18899
  8
2-0
  6
CONTINUOUS
 62
     3
 10
25469.471383566772
 20
19245.488364000019
 30
0.0
 11
25499.469007566779
 21
19245.488364000019
 31
0.0
  0
LINE
  5
1889A
  8
2-0
  6
CONTINUOUS
 62
     3
 10
25499.469007566779
 20
19275.487968000001
 30
0.0
 11
25418.46710756675
 21
19275.487968000001
 31
0.0
  0
LINE
  5
1889B
  8
2-0
  6
CONTINUOUS
 62
     3
 10
25469.471383566772
 20
19235.19090799999
 30
0.0
 11
25499.469007566779
 21
19235.19090799999
 31
0.0
  0
LINE
  5
1889C
  8
2-0
  6
CONTINUOUS
 62
     3
 10
25469.471383566772
 20
19253.192650000001
 30
0.0
 11
25469.471383566772
 21
19235.19090799999
 31
0.0
  0
LINE
  5
1889D
  8
2-0
  6
CONTINUOUS
 62
     3
 10
25494.468743566769
 20
19253.192650000001
 30
0.0
 11
25469.471383566772
 21
19253.192650000001
 31
0.0
  0
LINE
  5
1889E
  8
2-0
  6
CONTINUOUS
 62
     3
 10
25494.468743566769
 20
19248.184467999999
 30
0.0
 11
25494.468743566769
 21
19253.192650000001
 31
0.0
  0
LINE
  5
1889F
  8
2-0
  6
CONTINUOUS
 62
     3
 10
25487.46718656677
 20
19248.184467999999
 30
0.0
 11
25494.468743566769
 21
19248.184467999999
 31
0.0
  0
LINE
  5
188A0
  8
2-0
  6
CONTINUOUS
 62
     3
 10
25387.170918566779
 20
19348.484694999999
 30
0.0
 11
25387.170918566779
 21
19355.490211000011
 31
0.0
  0
LINE
  5
188A1
  8
2-0
  6
CONTINUOUS
 62
     3
 10
25387.170918566779
 20
19355.490211000011
 30
0.0
 11
25392.171182566759
 21
19355.490211000011
 31
0.0
  0
LINE
  5
188A2
  8
2-0
  6
CONTINUOUS
 62
     3
 10
25392.171182566759
 20
19355.490211000011
 30
0.0
 11
25392.171182566759
 21
19330.480973999998
 31
0.0
  0
LINE
  5
188A3
  8
2-0
  6
CONTINUOUS
 62
     3
 10
25392.171182566759
 20
19330.480973999998
 30
0.0
 11
25374.169440566751
 21
19330.480973999998
 31
0.0
  0
LINE
  5
188A4
  8
2-0
  6
CONTINUOUS
 62
     3
 10
25374.169440566751
 20
19330.480973999998
 30
0.0
 11
25374.169440566751
 21
19360.484537000018
 31
0.0
  0
LINE
  5
188A5
  8
2-0
  6
CONTINUOUS
 62
     3
 10
25384.46689656677
 20
19360.484537000018
 30
0.0
 11
25499.469007566779
 21
19360.484537000018
 31
0.0
  0
LINE
  5
188A6
  8
2-0
  6
CONTINUOUS
 62
     3
 10
25384.46689656677
 20
19330.480973999998
 30
0.0
 11
25384.46689656677
 21
19360.484537000018
 31
0.0
  0
LINE
  5
188A7
  8
2-0
  6
CONTINUOUS
 62
     3
 10
25390.468796566769
 20
19330.480973999998
 30
0.0
 11
25384.46689656677
 21
19330.480973999998
 31
0.0
  0
LINE
  5
188A8
  8
2-0
  6
CONTINUOUS
 62
     3
 10
25487.46718656677
 20
18894.887645499952
 30
0.0
 11
25494.468743566769
 21
18894.887645499952
 31
0.0
  0
LINE
  5
188A9
  8
2-0
  6
CONTINUOUS
 62
     3
 10
25494.468743566769
 20
18894.887645499952
 30
0.0
 11
25494.468743566769
 21
18899.88790949999
 31
0.0
  0
LINE
  5
188AA
  8
2-0
  6
CONTINUOUS
 62
     3
 10
25494.468743566769
 20
18899.88790949999
 30
0.0
 11
25469.471383566772
 21
18899.88790949999
 31
0.0
  0
LINE
  5
188AB
  8
2-0
  6
CONTINUOUS
 62
     3
 10
25469.471383566772
 20
18899.88790949999
 30
0.0
 11
25469.471383566772
 21
18881.892105499999
 31
0.0
  0
LINE
  5
188AC
  8
2-0
  6
CONTINUOUS
 62
     3
 10
25469.471383566772
 20
18881.892105499999
 30
0.0
 11
25499.469007566779
 21
18881.892105499999
 31
0.0
  0
LINE
  5
188AD
  8
2-0
  6
CONTINUOUS
 62
     3
 10
25469.471383566772
 20
18897.983612499978
 30
0.0
 11
25469.471383566772
 21
18891.985671499999
 31
0.0
  0
LINE
  5
188AE
  8
2-0
  6
CONTINUOUS
 62
     3
 10
25469.471383566772
 20
18891.985671499999
 30
0.0
 11
25499.469007566779
 21
18891.985671499999
 31
0.0
  0
LINE
  5
188AF
  8
2-0
  6
CONTINUOUS
 62
     3
 10
25499.469007566779
 20
18891.985671499999
 30
0.0
 11
25499.469007566779
 21
18928.986832499999
 31
0.0
  0
LINE
  5
188B0
  8
2-0
  6
CONTINUOUS
 62
     3
 10
25469.471383566772
 20
18928.986832499999
 30
0.0
 11
25499.469007566779
 21
18928.986832499999
 31
0.0
  0
LINE
  5
188B1
  8
2-0
  6
CONTINUOUS
 62
     3
 10
25469.471383566772
 20
18922.982952499991
 30
0.0
 11
25469.471383566772
 21
18928.986832499999
 31
0.0
  0
LINE
  5
188B2
  8
2-0
  6
CONTINUOUS
 62
     3
 10
25469.471383566772
 20
18939.082377499992
 30
0.0
 11
25499.469007566779
 21
18939.082377499992
 31
0.0
  0
LINE
  5
188B3
  8
2-0
  6
CONTINUOUS
 62
     3
 10
25469.471383566772
 20
18921.080635499999
 30
0.0
 11
25469.471383566772
 21
18939.082377499992
 31
0.0
  0
LINE
  5
188B4
  8
2-0
  6
CONTINUOUS
 62
     3
 10
25494.468743566769
 20
18921.080635499999
 30
0.0
 11
25469.471383566772
 21
18921.080635499999
 31
0.0
  0
LINE
  5
188B5
  8
2-0
  6
CONTINUOUS
 62
     3
 10
25494.468743566769
 20
18926.08089949999
 30
0.0
 11
25494.468743566769
 21
18921.080635499999
 31
0.0
  0
LINE
  5
188B6
  8
2-0
  6
CONTINUOUS
 62
     3
 10
25487.46718656677
 20
18926.08089949999
 30
0.0
 11
25494.468743566769
 21
18926.08089949999
 31
0.0
  0
LINE
  5
188B7
  8
2-0
  6
CONTINUOUS
 62
     3
 10
25487.46718656677
 20
18193.886655999999
 30
0.0
 11
25494.468743566769
 21
18193.886655999999
 31
0.0
  0
LINE
  5
188B8
  8
2-0
  6
CONTINUOUS
 62
     3
 10
25494.468743566769
 20
18193.886655999999
 30
0.0
 11
25494.468743566769
 21
18198.892857999988
 31
0.0
  0
LINE
  5
188B9
  8
2-0
  6
CONTINUOUS
 62
     3
 10
25494.468743566769
 20
18198.892857999988
 30
0.0
 11
25469.471383566772
 21
18198.892857999988
 31
0.0
  0
LINE
  5
188BA
  8
2-0
  6
CONTINUOUS
 62
     3
 10
25469.471383566772
 20
18198.892857999988
 30
0.0
 11
25469.471383566772
 21
18180.891115999999
 31
0.0
  0
LINE
  5
188BB
  8
2-0
  6
CONTINUOUS
 62
     3
 10
25469.471383566772
 20
18180.891115999999
 30
0.0
 11
25499.469007566779
 21
18180.891115999999
 31
0.0
  0
LINE
  5
188BC
  8
2-0
  6
CONTINUOUS
 62
     3
 10
25469.471383566772
 20
18196.982622999989
 30
0.0
 11
25469.471383566772
 21
18190.986660999981
 31
0.0
  0
LINE
  5
188BD
  8
2-0
  6
CONTINUOUS
 62
     3
 10
25469.471383566772
 20
18190.986660999981
 30
0.0
 11
25499.469007566779
 21
18190.986660999981
 31
0.0
  0
LINE
  5
188BE
  8
2-0
  6
CONTINUOUS
 62
     3
 10
25499.469007566779
 20
18190.986660999981
 30
0.0
 11
25499.469007566779
 21
18227.985842999999
 31
0.0
  0
LINE
  5
188BF
  8
2-0
  6
CONTINUOUS
 62
     3
 10
25469.471383566772
 20
18227.985842999999
 30
0.0
 11
25499.469007566779
 21
18227.985842999999
 31
0.0
  0
LINE
  5
188C0
  8
2-0
  6
CONTINUOUS
 62
     3
 10
25469.471383566772
 20
18221.989881000009
 30
0.0
 11
25469.471383566772
 21
18227.985842999999
 31
0.0
  0
LINE
  5
188C1
  8
2-0
  6
CONTINUOUS
 62
     3
 10
25469.471383566772
 20
18238.081387999999
 30
0.0
 11
25499.469007566779
 21
18238.081387999999
 31
0.0
  0
LINE
  5
188C2
  8
2-0
  6
CONTINUOUS
 62
     3
 10
25469.471383566772
 20
18220.079645999998
 30
0.0
 11
25469.471383566772
 21
18238.081387999999
 31
0.0
  0
LINE
  5
188C3
  8
2-0
  6
CONTINUOUS
 62
     3
 10
25494.468743566769
 20
18220.079645999998
 30
0.0
 11
25469.471383566772
 21
18220.079645999998
 31
0.0
  0
LINE
  5
188C4
  8
2-0
  6
CONTINUOUS
 62
     3
 10
25494.468743566769
 20
18225.085847999981
 30
0.0
 11
25494.468743566769
 21
18220.079645999998
 31
0.0
  0
LINE
  5
188C5
  8
2-0
  6
CONTINUOUS
 62
     3
 10
25487.46718656677
 20
18225.085847999981
 30
0.0
 11
25494.468743566769
 21
18225.085847999981
 31
0.0
  0
LINE
  5
188C6
  8
2-0
  6
CONTINUOUS
 62
     3
 10
25487.46718656677
 20
17524.07991
 30
0.0
 11
25494.468743566769
 21
17524.07991
 31
0.0
  0
LINE
  5
188C7
  8
2-0
  6
CONTINUOUS
 62
     3
 10
25494.468743566769
 20
17524.07991
 30
0.0
 11
25494.468743566769
 21
17519.091522999999
 31
0.0
  0
LINE
  5
188C8
  8
2-0
  6
CONTINUOUS
 62
     3
 10
25494.468743566769
 20
17519.091522999999
 30
0.0
 11
25469.471383566772
 21
17519.091522999999
 31
0.0
  0
LINE
  5
188C9
  8
2-0
  6
CONTINUOUS
 62
     3
 10
25469.471383566772
 20
17519.091522999999
 30
0.0
 11
25469.471383566772
 21
17537.08732599999
 31
0.0
  0
LINE
  5
188CA
  8
2-0
  6
CONTINUOUS
 62
     3
 10
25469.471383566772
 20
17537.08732599999
 30
0.0
 11
25499.469007566779
 21
17537.08732599999
 31
0.0
  0
LINE
  5
188CB
  8
2-0
  6
CONTINUOUS
 62
     3
 10
25469.471383566772
 20
17520.989881000001
 30
0.0
 11
25469.471383566772
 21
17526.985842999991
 31
0.0
  0
LINE
  5
188CC
  8
2-0
  6
CONTINUOUS
 62
     3
 10
25469.471383566772
 20
17526.985842999991
 30
0.0
 11
25499.469007566779
 21
17526.985842999991
 31
0.0
  0
LINE
  5
188CD
  8
2-0
  6
CONTINUOUS
 62
     3
 10
25499.469007566779
 20
17526.985842999991
 30
0.0
 11
25499.469007566779
 21
17489.986660999999
 31
0.0
  0
LINE
  5
188CE
  8
2-0
  6
CONTINUOUS
 62
     3
 10
25469.471383566772
 20
17489.986660999999
 30
0.0
 11
25499.469007566779
 21
17489.986660999999
 31
0.0
  0
LINE
  5
188CF
  8
2-0
  6
CONTINUOUS
 62
     3
 10
25469.471383566772
 20
17495.98856199998
 30
0.0
 11
25469.471383566772
 21
17489.986660999999
 31
0.0
  0
LINE
  5
188D0
  8
2-0
  6
CONTINUOUS
 62
     3
 10
25469.471383566772
 20
17479.897055000001
 30
0.0
 11
25499.469007566779
 21
17479.897055000001
 31
0.0
  0
LINE
  5
188D1
  8
2-0
  6
CONTINUOUS
 62
     3
 10
25469.471383566772
 20
17497.892857999999
 30
0.0
 11
25469.471383566772
 21
17479.897055000001
 31
0.0
  0
LINE
  5
188D2
  8
2-0
  6
CONTINUOUS
 62
     3
 10
25494.468743566769
 20
17497.892857999999
 30
0.0
 11
25469.471383566772
 21
17497.892857999999
 31
0.0
  0
LINE
  5
188D3
  8
2-0
  6
CONTINUOUS
 62
     3
 10
25494.468743566769
 20
17492.892595000008
 30
0.0
 11
25494.468743566769
 21
17497.892857999999
 31
0.0
  0
LINE
  5
188D4
  8
2-0
  6
CONTINUOUS
 62
     3
 10
25487.46718656677
 20
17492.892595000008
 30
0.0
 11
25494.468743566769
 21
17492.892595000008
 31
0.0
  0
LINE
  5
188D5
  8
2-0
  6
CONTINUOUS
 62
     3
 10
25496.582869566781
 20
16772.983480999988
 30
0.0
 11
25496.582869566781
 21
16792.984536
 31
0.0
  0
LINE
  5
188D6
  8
2-0
  6
CONTINUOUS
 62
     3
 10
25496.582869566781
 20
16792.984536
 30
0.0
 11
25411.586300566749
 21
16792.984536
 31
0.0
  0
LINE
  5
188D7
  8
2-0
  6
CONTINUOUS
 62
     3
 10
25487.46718656677
 20
16819.591246
 30
0.0
 11
25494.468743566769
 21
16819.591246
 31
0.0
  0
LINE
  5
188D8
  8
2-0
  6
CONTINUOUS
 62
     3
 10
25494.468743566769
 20
16819.591246
 30
0.0
 11
25494.468743566769
 21
16814.59692
 31
0.0
  0
LINE
  5
188D9
  8
2-0
  6
CONTINUOUS
 62
     3
 10
25494.468743566769
 20
16814.59692
 30
0.0
 11
25469.471383566772
 21
16814.59692
 31
0.0
  0
LINE
  5
188DA
  8
2-0
  6
CONTINUOUS
 62
     3
 10
25469.471383566772
 20
16814.59692
 30
0.0
 11
25469.471383566772
 21
16832.592723999998
 31
0.0
  0
LINE
  5
188DB
  8
2-0
  6
CONTINUOUS
 62
     3
 10
25469.471383566772
 20
16832.592723999998
 30
0.0
 11
25499.469007566779
 21
16832.592723999998
 31
0.0
  0
LINE
  5
188DC
  8
2-0
  6
CONTINUOUS
 62
     3
 10
25469.471383566772
 20
16822.98413999999
 30
0.0
 11
25469.471383566772
 21
16816.98223999999
 31
0.0
  0
LINE
  5
188DD
  8
2-0
  6
CONTINUOUS
 62
     3
 10
25499.469007566779
 20
16822.98413999999
 30
0.0
 11
25469.471383566772
 21
16822.98413999999
 31
0.0
  0
LINE
  5
188DE
  8
2-0
  6
CONTINUOUS
 62
     3
 10
25499.469007566779
 20
16832.592723999998
 30
0.0
 11
25499.469007566779
 21
17479.897055000001
 31
0.0
  0
LINE
  5
188DF
  8
2-0
  6
CONTINUOUS
 62
     3
 10
25499.469007566779
 20
17537.08732599999
 30
0.0
 11
25499.469007566779
 21
18180.891115999999
 31
0.0
  0
LINE
  5
188E0
  8
2-0
  6
CONTINUOUS
 62
     3
 10
25499.469007566779
 20
16677.982424999998
 30
0.0
 11
25469.471383566772
 21
16677.982424999998
 31
0.0
  0
LINE
  5
188E1
  8
2-0
  6
CONTINUOUS
 62
     3
 10
25469.471383566772
 20
16677.982424999998
 30
0.0
 11
25469.471383566772
 21
16683.98432499999
 31
0.0
  0
LINE
  5
188E2
  8
2-0
  6
CONTINUOUS
 62
     3
 10
25411.586300566749
 20
16707.987968000001
 30
0.0
 11
25496.582869566781
 21
16707.987968000001
 31
0.0
  0
LINE
  5
188E3
  8
2-0
  6
CONTINUOUS
 62
     3
 10
25496.582869566781
 20
16707.987968000001
 30
0.0
 11
25496.582869566781
 21
16727.983085
 31
0.0
  0
LINE
  5
188E4
  8
2-0
  6
CONTINUOUS
 62
     3
 10
25469.471383566772
 20
16668.373842000012
 30
0.0
 11
25499.469007566779
 21
16668.373842000012
 31
0.0
  0
LINE
  5
188E5
  8
2-0
  6
CONTINUOUS
 62
     3
 10
25469.471383566772
 20
16686.369644999992
 30
0.0
 11
25469.471383566772
 21
16668.373842000012
 31
0.0
  0
LINE
  5
188E6
  8
2-0
  6
CONTINUOUS
 62
     3
 10
25494.468743566769
 20
16686.369644999992
 30
0.0
 11
25469.471383566772
 21
16686.369644999992
 31
0.0
  0
LINE
  5
188E7
  8
2-0
  6
CONTINUOUS
 62
     3
 10
25494.468743566769
 20
16681.36938099999
 30
0.0
 11
25494.468743566769
 21
16686.369644999992
 31
0.0
  0
LINE
  5
188E8
  8
2-0
  6
CONTINUOUS
 62
     3
 10
25487.46718656677
 20
16681.36938099999
 30
0.0
 11
25494.468743566769
 21
16681.36938099999
 31
0.0
  0
LINE
  5
188E9
  8
2-0
  6
CONTINUOUS
 62
     3
 10
25487.46718656677
 20
15976.887150499981
 30
0.0
 11
25494.468743566769
 21
15976.887150499981
 31
0.0
  0
LINE
  5
188EA
  8
2-0
  6
CONTINUOUS
 62
     3
 10
25494.468743566769
 20
15976.887150499981
 30
0.0
 11
25494.468743566769
 21
15981.887414499981
 31
0.0
  0
LINE
  5
188EB
  8
2-0
  6
CONTINUOUS
 62
     3
 10
25494.468743566769
 20
15981.887414499981
 30
0.0
 11
25469.471383566772
 21
15981.887414499981
 31
0.0
  0
LINE
  5
188EC
  8
2-0
  6
CONTINUOUS
 62
     3
 10
25469.471383566772
 20
15981.887414499981
 30
0.0
 11
25469.471383566772
 21
15963.88567249999
 31
0.0
  0
LINE
  5
188ED
  8
2-0
  6
CONTINUOUS
 62
     3
 10
25469.471383566772
 20
15963.88567249999
 30
0.0
 11
25499.469007566779
 21
15963.88567249999
 31
0.0
  0
LINE
  5
188EE
  8
2-0
  6
CONTINUOUS
 62
     3
 10
25469.471383566772
 20
15979.983117499991
 30
0.0
 11
25469.471383566772
 21
15973.98616649999
 31
0.0
  0
LINE
  5
188EF
  8
2-0
  6
CONTINUOUS
 62
     3
 10
25469.471383566772
 20
15973.98616649999
 30
0.0
 11
25499.469007566779
 21
15973.98616649999
 31
0.0
  0
LINE
  5
188F0
  8
2-0
  6
CONTINUOUS
 62
     3
 10
25499.469007566779
 20
15973.98616649999
 30
0.0
 11
25499.469007566779
 21
16010.9863375
 31
0.0
  0
LINE
  5
188F1
  8
2-0
  6
CONTINUOUS
 62
     3
 10
25469.471383566772
 20
16010.9863375
 30
0.0
 11
25499.469007566779
 21
16010.9863375
 31
0.0
  0
LINE
  5
188F2
  8
2-0
  6
CONTINUOUS
 62
     3
 10
25469.471383566772
 20
16004.98344749999
 30
0.0
 11
25469.471383566772
 21
16010.9863375
 31
0.0
  0
LINE
  5
188F3
  8
2-0
  6
CONTINUOUS
 62
     3
 10
25469.471383566772
 20
16021.081882500001
 30
0.0
 11
25499.469007566779
 21
16021.081882500001
 31
0.0
  0
LINE
  5
188F4
  8
2-0
  6
CONTINUOUS
 62
     3
 10
25469.471383566772
 20
16003.074201499991
 30
0.0
 11
25469.471383566772
 21
16021.081882500001
 31
0.0
  0
LINE
  5
188F5
  8
2-0
  6
CONTINUOUS
 62
     3
 10
25494.468743566769
 20
16003.074201499991
 30
0.0
 11
25469.471383566772
 21
16003.074201499991
 31
0.0
  0
LINE
  5
188F6
  8
2-0
  6
CONTINUOUS
 62
     3
 10
25494.468743566769
 20
16008.0804045
 30
0.0
 11
25494.468743566769
 21
16003.074201499991
 31
0.0
  0
LINE
  5
188F7
  8
2-0
  6
CONTINUOUS
 62
     3
 10
25487.46718656677
 20
16008.0804045
 30
0.0
 11
25494.468743566769
 21
16008.0804045
 31
0.0
  0
LINE
  5
188F8
  8
2-0
  6
CONTINUOUS
 62
     3
 10
25487.46718656677
 20
15307.320421000009
 30
0.0
 11
25494.468743566769
 21
15307.320421000009
 31
0.0
  0
LINE
  5
188F9
  8
2-0
  6
CONTINUOUS
 62
     3
 10
25494.468743566769
 20
15307.320421000009
 30
0.0
 11
25494.468743566769
 21
15302.326096000001
 31
0.0
  0
LINE
  5
188FA
  8
2-0
  6
CONTINUOUS
 62
     3
 10
25494.468743566769
 20
15302.326096000001
 30
0.0
 11
25469.471383566772
 21
15302.326096000001
 31
0.0
  0
LINE
  5
188FB
  8
2-0
  6
CONTINUOUS
 62
     3
 10
25469.471383566772
 20
15302.326096000001
 30
0.0
 11
25469.471383566772
 21
15320.321899
 31
0.0
  0
LINE
  5
188FC
  8
2-0
  6
CONTINUOUS
 62
     3
 10
25469.471383566772
 20
15320.321899
 30
0.0
 11
25499.469007566779
 21
15320.321899
 31
0.0
  0
LINE
  5
188FD
  8
2-0
  6
CONTINUOUS
 62
     3
 10
25469.471383566772
 20
15304.22445400001
 30
0.0
 11
25469.471383566772
 21
15310.226354000009
 31
0.0
  0
LINE
  5
188FE
  8
2-0
  6
CONTINUOUS
 62
     3
 10
25469.471383566772
 20
15310.226354000009
 30
0.0
 11
25499.469007566779
 21
15310.226354000009
 31
0.0
  0
LINE
  5
188FF
  8
2-0
  6
CONTINUOUS
 62
     3
 10
25499.469007566779
 20
15273.22717300001
 30
0.0
 11
25499.469007566779
 21
15310.226354000009
 31
0.0
  0
LINE
  5
18900
  8
2-0
  6
CONTINUOUS
 62
     3
 10
25469.471383566772
 20
15273.22717300001
 30
0.0
 11
25499.469007566779
 21
15273.22717300001
 31
0.0
  0
LINE
  5
18901
  8
2-0
  6
CONTINUOUS
 62
     3
 10
25469.471383566772
 20
15279.224123999989
 30
0.0
 11
25469.471383566772
 21
15273.22717300001
 31
0.0
  0
LINE
  5
18902
  8
2-0
  6
CONTINUOUS
 62
     3
 10
25469.471383566772
 20
15263.12568900001
 30
0.0
 11
25499.469007566779
 21
15263.12568900001
 31
0.0
  0
LINE
  5
18903
  8
2-0
  6
CONTINUOUS
 62
     3
 10
25469.471383566772
 20
15281.13337
 30
0.0
 11
25469.471383566772
 21
15263.12568900001
 31
0.0
  0
LINE
  5
18904
  8
2-0
  6
CONTINUOUS
 62
     3
 10
25494.468743566769
 20
15281.13337
 30
0.0
 11
25469.471383566772
 21
15281.13337
 31
0.0
  0
LINE
  5
18905
  8
2-0
  6
CONTINUOUS
 62
     3
 10
25494.468743566769
 20
15276.13310600001
 30
0.0
 11
25494.468743566769
 21
15281.13337
 31
0.0
  0
LINE
  5
18906
  8
2-0
  6
CONTINUOUS
 62
     3
 10
25487.46718656677
 20
15276.13310600001
 30
0.0
 11
25494.468743566769
 21
15276.13310600001
 31
0.0
  0
LINE
  5
18907
  8
2-0
  6
CONTINUOUS
 62
     3
 10
25499.469007566779
 20
16668.373842000012
 30
0.0
 11
25499.469007566779
 21
16021.081882500001
 31
0.0
  0
LINE
  5
18908
  8
2-0
  6
CONTINUOUS
 62
     3
 10
25499.469007566779
 20
16822.98413999999
 30
0.0
 11
25499.469007566779
 21
16677.982424999998
 31
0.0
  0
LINE
  5
18909
  8
2-0
  6
CONTINUOUS
 62
     3
 10
25411.586300566749
 20
16792.984536
 30
0.0
 11
25411.586300566749
 21
16707.987968000001
 31
0.0
  0
LINE
  5
1890A
  8
2-0
  6
CONTINUOUS
 62
     6
 10
23873.377633566772
 20
18561.431801499992
 30
0.0
 11
24898.40996556676
 21
18561.431801499992
 31
0.0
  0
LINE
  5
1890B
  8
2-0
  6
CONTINUOUS
 62
     3
 10
25487.46718656677
 20
14574.892099000001
 30
0.0
 11
25494.468743566769
 21
14574.892099000001
 31
0.0
  0
LINE
  5
1890C
  8
2-0
  6
CONTINUOUS
 62
     3
 10
25494.468743566769
 20
14574.892099000001
 30
0.0
 11
25494.468743566769
 21
14579.886425000001
 31
0.0
  0
LINE
  5
1890D
  8
2-0
  6
CONTINUOUS
 62
     3
 10
25494.468743566769
 20
14579.886425000001
 30
0.0
 11
25469.471383566772
 21
14579.886425000001
 31
0.0
  0
LINE
  5
1890E
  8
2-0
  6
CONTINUOUS
 62
     3
 10
25469.471383566772
 20
14579.886425000001
 30
0.0
 11
25469.471383566772
 21
14561.890621
 31
0.0
  0
LINE
  5
1890F
  8
2-0
  6
CONTINUOUS
 62
     3
 10
25469.471383566772
 20
14561.890621
 30
0.0
 11
25499.469007566779
 21
14561.890621
 31
0.0
  0
LINE
  5
18910
  8
2-0
  6
CONTINUOUS
 62
     3
 10
25469.471383566772
 20
14577.989056000009
 30
0.0
 11
25469.471383566772
 21
14571.986166000001
 31
0.0
  0
LINE
  5
18911
  8
2-0
  6
CONTINUOUS
 62
     3
 10
25469.471383566772
 20
14571.986166000001
 30
0.0
 11
25499.469007566779
 21
14571.986166000001
 31
0.0
  0
LINE
  5
18912
  8
2-0
  6
CONTINUOUS
 62
     3
 10
25499.469007566779
 20
14571.986166000001
 30
0.0
 11
25499.469007566779
 21
14608.986337999981
 31
0.0
  0
LINE
  5
18913
  8
2-0
  6
CONTINUOUS
 62
     3
 10
25469.471383566772
 20
14608.986337999981
 30
0.0
 11
25499.469007566779
 21
14608.986337999981
 31
0.0
  0
LINE
  5
18914
  8
2-0
  6
CONTINUOUS
 62
     3
 10
25469.471383566772
 20
14602.98938599999
 30
0.0
 11
25469.471383566772
 21
14608.986337999981
 31
0.0
  0
LINE
  5
18915
  8
2-0
  6
CONTINUOUS
 62
     3
 10
25469.471383566772
 20
14619.086831000001
 30
0.0
 11
25499.469007566779
 21
14619.086831000001
 31
0.0
  0
LINE
  5
18916
  8
2-0
  6
CONTINUOUS
 62
     3
 10
25469.471383566772
 20
14601.080140000009
 30
0.0
 11
25469.471383566772
 21
14619.086831000001
 31
0.0
  0
LINE
  5
18917
  8
2-0
  6
CONTINUOUS
 62
     3
 10
25494.468743566769
 20
14601.080140000009
 30
0.0
 11
25469.471383566772
 21
14601.080140000009
 31
0.0
  0
LINE
  5
18918
  8
2-0
  6
CONTINUOUS
 62
     3
 10
25494.468743566769
 20
14606.085353000009
 30
0.0
 11
25494.468743566769
 21
14601.080140000009
 31
0.0
  0
LINE
  5
18919
  8
2-0
  6
CONTINUOUS
 62
     3
 10
25487.46718656677
 20
14606.085353000009
 30
0.0
 11
25494.468743566769
 21
14606.085353000009
 31
0.0
  0
LINE
  5
1891A
  8
2-0
  6
CONTINUOUS
 62
     3
 10
25469.471383566772
 20
14249.488178999991
 30
0.0
 11
25469.471383566772
 21
14255.493048
 31
0.0
  0
LINE
  5
1891B
  8
2-0
  6
CONTINUOUS
 62
     3
 10
25469.471383566772
 20
14255.493048
 30
0.0
 11
25499.469007566779
 21
14255.493048
 31
0.0
  0
LINE
  5
1891C
  8
2-0
  6
CONTINUOUS
 62
     3
 10
25499.469007566779
 20
14255.493048
 30
0.0
 11
25499.469007566779
 21
14140.48895699999
 31
0.0
  0
LINE
  5
1891D
  8
2-0
  6
CONTINUOUS
 62
     3
 10
25499.469007566779
 20
14140.48895699999
 30
0.0
 11
25414.470459566779
 21
14140.48895699999
 31
0.0
  0
LINE
  5
1891E
  8
2-0
  6
CONTINUOUS
 62
     3
 10
25414.470459566779
 20
14140.48895699999
 30
0.0
 11
25414.470459566779
 21
14225.484536
 31
0.0
  0
LINE
  5
1891F
  8
2-0
  6
CONTINUOUS
 62
     3
 10
25414.470459566779
 20
14225.484536
 30
0.0
 11
25446.469377566769
 21
14225.484536
 31
0.0
  0
LINE
  5
18920
  8
2-0
  6
CONTINUOUS
 62
     3
 10
25487.46718656677
 20
14252.522780999991
 30
0.0
 11
25494.468743566769
 21
14252.522780999991
 31
0.0
  0
LINE
  5
18921
  8
2-0
  6
CONTINUOUS
 62
     3
 10
25494.468743566769
 20
14252.522780999991
 30
0.0
 11
25494.468743566769
 21
14247.52548599998
 31
0.0
  0
LINE
  5
18922
  8
2-0
  6
CONTINUOUS
 62
     3
 10
25494.468743566769
 20
14247.52548599998
 30
0.0
 11
25469.471383566772
 21
14247.52548599998
 31
0.0
  0
LINE
  5
18923
  8
2-0
  6
CONTINUOUS
 62
     3
 10
25469.471383566772
 20
14247.52548599998
 30
0.0
 11
25469.471383566772
 21
14265.524259
 31
0.0
  0
LINE
  5
18924
  8
2-0
  6
CONTINUOUS
 62
     3
 10
25469.471383566772
 20
14265.524259
 30
0.0
 11
25499.469007566779
 21
14265.524259
 31
0.0
  0
LINE
  5
18925
  8
2-0
  6
CENTER2
 62
     6
 10
25456.970723566781
 20
13942.99139899999
 30
0.0
 11
25456.970723566781
 21
14748.36015700001
 31
0.0
  0
LINE
  5
18926
  8
2-0
  6
CONTINUOUS
 62
     3
 10
25499.469007566779
 20
18238.081387999999
 30
0.0
 11
25499.469007566779
 21
18881.892105499999
 31
0.0
  0
LINE
  5
18927
  8
2-0
  6
CONTINUOUS
 62
     6
 10
26191.973890566758
 20
20090.487440000019
 30
0.0
 11
27391.967952566749
 21
20090.487440000019
 31
0.0
  0
LINE
  5
18928
  8
2-0
  6
CONTINUOUS
 62
     6
 10
25329.94105756675
 20
18803.586309499991
 30
0.0
 11
24898.40996556676
 21
18561.431801499992
 31
0.0
  0
LINE
  5
18929
  8
2-0
  6
CONTINUOUS
 62
     6
 10
25651.509891566729
 20
19503.164277
 30
0.0
 11
26191.973890566758
 21
20090.487440000019
 31
0.0
  0
LINE
  5
1892A
  8
2-0
  6
CONTINUOUS
 62
     3
 10
25499.469007566779
 20
15963.88567249999
 30
0.0
 11
25499.469007566779
 21
15320.321899
 31
0.0
  0
LINE
  5
1892B
  8
2-0
  6
CONTINUOUS
 62
     6
 10
25316.88415256677
 20
18826.84565349999
 30
0.0
 11
25469.471383566772
 21
18881.892105499999
 31
0.0
  0
LINE
  5
1892C
  8
2-0
  6
CONTINUOUS
 62
     6
 10
25469.471383566772
 20
18881.892105499999
 30
0.0
 11
25342.99004356677
 21
18780.332905499949
 31
0.0
  0
LINE
  5
1892D
  8
2-0
  6
CONTINUOUS
 62
     6
 10
25316.88415256677
 20
18826.84565349999
 30
0.0
 11
25342.99004356677
 21
18780.332905499949
 31
0.0
  0
LINE
  5
1892E
  8
2-0
  6
CONTINUOUS
 62
     6
 10
25342.99004356677
 20
18780.332905499949
 30
0.0
 11
25469.471383566772
 21
18881.892105499999
 31
0.0
  0
LINE
  5
1892F
  8
2-0
  6
CONTINUOUS
 62
     6
 10
25469.471383566772
 20
18881.892105499999
 30
0.0
 11
25316.88415256677
 21
18826.84565349999
 31
0.0
  0
LINE
  5
18930
  8
2-0
  6
CONTINUOUS
 62
     6
 10
25316.88415256677
 20
18826.84565349999
 30
0.0
 11
25469.471383566772
 21
18881.892105499999
 31
0.0
  0
LINE
  5
18931
  8
2-0
  6
CONTINUOUS
 62
     6
 10
25342.99004356677
 20
18780.332905499949
 30
0.0
 11
25469.471383566772
 21
18881.892105499999
 31
0.0
  0
LINE
  5
18932
  8
2-0
  6
CONTINUOUS
 62
     6
 10
25342.99004356677
 20
18780.332905499949
 30
0.0
 11
25316.88415256677
 21
18826.84565349999
 31
0.0
  0
LINE
  5
18933
  8
2-0
  6
CONTINUOUS
 62
     6
 10
25671.12692056676
 20
19485.10315000001
 30
0.0
 11
25543.164900566779
 21
19385.420532000011
 31
0.0
  0
LINE
  5
18934
  8
2-0
  6
CONTINUOUS
 62
     6
 10
25543.164900566779
 20
19385.420532000011
 30
0.0
 11
25631.879005566771
 21
19521.21748700002
 31
0.0
  0
LINE
  5
18935
  8
2-0
  6
CONTINUOUS
 62
     6
 10
25671.12692056676
 20
19485.10315000001
 30
0.0
 11
25631.879005566771
 21
19521.21748700002
 31
0.0
  0
LINE
  5
18936
  8
2-0
  6
CONTINUOUS
 62
     6
 10
25631.879005566771
 20
19521.21748700002
 30
0.0
 11
25543.164900566779
 21
19385.420532000011
 31
0.0
  0
LINE
  5
18937
  8
2-0
  6
CONTINUOUS
 62
     6
 10
25543.164900566779
 20
19385.420532000011
 30
0.0
 11
25671.12692056676
 21
19485.10315000001
 31
0.0
  0
LINE
  5
18938
  8
2-0
  6
CONTINUOUS
 62
     6
 10
25671.12692056676
 20
19485.10315000001
 30
0.0
 11
25543.164900566779
 21
19385.420532000011
 31
0.0
  0
LINE
  5
18939
  8
2-0
  6
CONTINUOUS
 62
     6
 10
25631.879005566771
 20
19521.21748700002
 30
0.0
 11
25543.164900566779
 21
19385.420532000011
 31
0.0
  0
LINE
  5
1893A
  8
2-0
  6
CONTINUOUS
 62
     6
 10
25631.879005566771
 20
19521.21748700002
 30
0.0
 11
25671.12692056676
 21
19485.10315000001
 31
0.0
  0
LINE
  5
1893B
  8
2-0
  6
CONTINUOUS
 62
     6
 10
25222.831286566779
 20
14032.216218999991
 30
0.0
 11
25354.578145566778
 21
14126.843145999999
 31
0.0
  0
LINE
  5
1893C
  8
2-0
  6
CONTINUOUS
 62
     6
 10
25354.578145566778
 20
14126.843145999999
 30
0.0
 11
25260.648009566761
 21
13994.60437599999
 31
0.0
  0
LINE
  5
1893D
  8
2-0
  6
CONTINUOUS
 62
     6
 10
25222.831286566779
 20
14032.216218999991
 30
0.0
 11
25260.648009566761
 21
13994.60437599999
 31
0.0
  0
LINE
  5
1893E
  8
2-0
  6
CONTINUOUS
 62
     6
 10
25260.648009566761
 20
13994.60437599999
 30
0.0
 11
25354.578145566778
 21
14126.843145999999
 31
0.0
  0
LINE
  5
1893F
  8
2-0
  6
CONTINUOUS
 62
     6
 10
25354.578145566778
 20
14126.843145999999
 30
0.0
 11
25222.831286566779
 21
14032.216218999991
 31
0.0
  0
LINE
  5
18940
  8
2-0
  6
CONTINUOUS
 62
     6
 10
25222.831286566779
 20
14032.216218999991
 30
0.0
 11
25354.578145566778
 21
14126.843145999999
 31
0.0
  0
LINE
  5
18941
  8
2-0
  6
CONTINUOUS
 62
     6
 10
25260.648009566761
 20
13994.60437599999
 30
0.0
 11
25354.578145566778
 21
14126.843145999999
 31
0.0
  0
LINE
  5
18942
  8
2-0
  6
CONTINUOUS
 62
     6
 10
25260.648009566761
 20
13994.60437599999
 30
0.0
 11
25222.831286566779
 21
14032.216218999991
 31
0.0
  0
LINE
  5
18943
  8
2-0
  6
CONTINUOUS
 62
     6
 10
25285.867075566781
 20
14359.120845999991
 30
0.0
 11
25418.46710756675
 21
14265.692517999991
 31
0.0
  0
LINE
  5
18944
  8
2-0
  6
CONTINUOUS
 62
     6
 10
25418.46710756675
 20
14265.692517999991
 30
0.0
 11
25262.734421566769
 21
14311.068031999999
 31
0.0
  0
LINE
  5
18945
  8
2-0
  6
CONTINUOUS
 62
     6
 10
25285.867075566781
 20
14359.120845999991
 30
0.0
 11
25262.734421566769
 21
14311.068031999999
 31
0.0
  0
LINE
  5
18946
  8
2-0
  6
CONTINUOUS
 62
     6
 10
25262.734421566769
 20
14311.068031999999
 30
0.0
 11
25418.46710756675
 21
14265.692517999991
 31
0.0
  0
LINE
  5
18947
  8
2-0
  6
CONTINUOUS
 62
     6
 10
25418.46710756675
 20
14265.692517999991
 30
0.0
 11
25285.867075566781
 21
14359.120845999991
 31
0.0
  0
LINE
  5
18948
  8
2-0
  6
CONTINUOUS
 62
     6
 10
25285.867075566781
 20
14359.120845999991
 30
0.0
 11
25418.46710756675
 21
14265.692517999991
 31
0.0
  0
LINE
  5
18949
  8
2-0
  6
CONTINUOUS
 62
     6
 10
25262.734421566769
 20
14311.068031999999
 30
0.0
 11
25418.46710756675
 21
14265.692517999991
 31
0.0
  0
LINE
  5
1894A
  8
2-0
  6
CONTINUOUS
 62
     6
 10
25262.734421566769
 20
14311.068031999999
 30
0.0
 11
25285.867075566781
 21
14359.120845999991
 31
0.0
  0
LINE
  5
1894B
  8
2-0
  6
CONTINUOUS
 62
     6
 10
25345.630721566769
 20
16388.441779000019
 30
0.0
 11
25499.469007566779
 21
16439.875610000021
 31
0.0
  0
LINE
  5
1894C
  8
2-0
  6
CONTINUOUS
 62
     6
 10
25499.469007566779
 20
16439.875610000021
 30
0.0
 11
25370.634020566751
 21
16341.33517500002
 31
0.0
  0
LINE
  5
1894D
  8
2-0
  6
CONTINUOUS
 62
     6
 10
25345.630721566769
 20
16388.441779000019
 30
0.0
 11
25370.634020566751
 21
16341.33517500002
 31
0.0
  0
LINE
  5
1894E
  8
2-0
  6
CONTINUOUS
 62
     6
 10
25370.634020566751
 20
16341.33517500002
 30
0.0
 11
25499.469007566779
 21
16439.875610000021
 31
0.0
  0
LINE
  5
1894F
  8
2-0
  6
CONTINUOUS
 62
     6
 10
25499.469007566779
 20
16439.875610000021
 30
0.0
 11
25345.630721566769
 21
16388.441779000019
 31
0.0
  0
LINE
  5
18950
  8
2-0
  6
CONTINUOUS
 62
     6
 10
25345.630721566769
 20
16388.441779000019
 30
0.0
 11
25499.469007566779
 21
16439.875610000021
 31
0.0
  0
LINE
  5
18951
  8
2-0
  6
CONTINUOUS
 62
     6
 10
25370.634020566751
 20
16341.33517500002
 30
0.0
 11
25499.469007566779
 21
16439.875610000021
 31
0.0
  0
LINE
  5
18952
  8
2-0
  6
CONTINUOUS
 62
     6
 10
25370.634020566751
 20
16341.33517500002
 30
0.0
 11
25345.630721566769
 21
16388.441779000019
 31
0.0
  0
LINE
  5
18953
  8
2-0
  6
CONTINUOUS
 62
     6
 10
25211.694514566771
 20
16879.76027100001
 30
0.0
 11
25354.578145566778
 21
16802.984641999999
 31
0.0
  0
LINE
  5
18954
  8
2-0
  6
CONTINUOUS
 62
     6
 10
25354.578145566778
 20
16802.984641999999
 30
0.0
 11
25194.516252566769
 21
16829.266711000018
 31
0.0
  0
LINE
  5
18955
  8
2-0
  6
CONTINUOUS
 62
     6
 10
25211.694514566771
 20
16879.76027100001
 30
0.0
 11
25194.516252566769
 21
16829.266711000018
 31
0.0
  0
LINE
  5
18956
  8
2-0
  6
CONTINUOUS
 62
     6
 10
25194.516252566769
 20
16829.266711000018
 30
0.0
 11
25354.578145566778
 21
16802.984641999999
 31
0.0
  0
LINE
  5
18957
  8
2-0
  6
CONTINUOUS
 62
     6
 10
25354.578145566778
 20
16802.984641999999
 30
0.0
 11
25211.694514566771
 21
16879.76027100001
 31
0.0
  0
LINE
  5
18958
  8
2-0
  6
CONTINUOUS
 62
     6
 10
25211.694514566771
 20
16879.76027100001
 30
0.0
 11
25354.578145566778
 21
16802.984641999999
 31
0.0
  0
LINE
  5
18959
  8
2-0
  6
CONTINUOUS
 62
     6
 10
25194.516252566769
 20
16829.266711000018
 30
0.0
 11
25354.578145566778
 21
16802.984641999999
 31
0.0
  0
LINE
  5
1895A
  8
2-0
  6
CONTINUOUS
 62
     6
 10
25194.516252566769
 20
16829.266711000018
 30
0.0
 11
25211.694514566771
 21
16879.76027100001
 31
0.0
  0
LINE
  5
1895B
  8
2-0
  6
CONTINUOUS
 62
     3
 10
22175.972043566759
 20
19251.484325999991
 30
0.0
 11
22175.972043566759
 21
19245.488364000019
 31
0.0
  0
LINE
  5
1895C
  8
2-0
  6
CONTINUOUS
 62
     3
 10
22175.972043566759
 20
19245.488364000019
 30
0.0
 11
22145.974418566759
 21
19245.488364000019
 31
0.0
  0
LINE
  5
1895D
  8
2-0
  6
CONTINUOUS
 62
     3
 10
22145.974418566759
 20
19245.488364000019
 30
0.0
 11
22145.974418566759
 21
19360.484537000018
 31
0.0
  0
LINE
  5
1895E
  8
2-0
  6
CONTINUOUS
 62
     3
 10
22145.974418566759
 20
19275.487968000001
 30
0.0
 11
22226.972359566771
 21
19275.487968000001
 31
0.0
  0
LINE
  5
1895F
  8
2-0
  6
CONTINUOUS
 62
     3
 10
22175.972043566759
 20
19235.19090799999
 30
0.0
 11
22145.974418566759
 21
19235.19090799999
 31
0.0
  0
LINE
  5
18960
  8
2-0
  6
CONTINUOUS
 62
     3
 10
22175.972043566759
 20
19253.192650000001
 30
0.0
 11
22175.972043566759
 21
19235.19090799999
 31
0.0
  0
LINE
  5
18961
  8
2-0
  6
CONTINUOUS
 62
     3
 10
22150.978641566759
 20
19253.192650000001
 30
0.0
 11
22175.972043566759
 21
19253.192650000001
 31
0.0
  0
LINE
  5
18962
  8
2-0
  6
CONTINUOUS
 62
     3
 10
22150.978641566759
 20
19248.184467999999
 30
0.0
 11
22150.978641566759
 21
19253.192650000001
 31
0.0
  0
LINE
  5
18963
  8
2-0
  6
CONTINUOUS
 62
     3
 10
22157.976239566749
 20
19248.184467999999
 30
0.0
 11
22150.978641566759
 21
19248.184467999999
 31
0.0
  0
LINE
  5
18964
  8
2-0
  6
CONTINUOUS
 62
     3
 10
22258.270528566762
 20
19348.484694999999
 30
0.0
 11
22258.270528566762
 21
19355.490211000011
 31
0.0
  0
LINE
  5
18965
  8
2-0
  6
CONTINUOUS
 62
     3
 10
22258.270528566762
 20
19355.490211000011
 30
0.0
 11
22253.268284566759
 21
19355.490211000011
 31
0.0
  0
LINE
  5
18966
  8
2-0
  6
CONTINUOUS
 62
     3
 10
22253.268284566759
 20
19355.490211000011
 30
0.0
 11
22253.268284566759
 21
19330.480973999998
 31
0.0
  0
LINE
  5
18967
  8
2-0
  6
CONTINUOUS
 62
     3
 10
22253.268284566759
 20
19330.480973999998
 30
0.0
 11
22271.275965566761
 21
19330.480973999998
 31
0.0
  0
LINE
  5
18968
  8
2-0
  6
CONTINUOUS
 62
     3
 10
22271.275965566761
 20
19330.480973999998
 30
0.0
 11
22271.275965566761
 21
19360.484537000018
 31
0.0
  0
LINE
  5
18969
  8
2-0
  6
CONTINUOUS
 62
     3
 10
22260.976529566778
 20
19360.484537000018
 30
0.0
 11
22145.974418566759
 21
19360.484537000018
 31
0.0
  0
LINE
  5
1896A
  8
2-0
  6
CONTINUOUS
 62
     3
 10
22260.976529566778
 20
19330.480973999998
 30
0.0
 11
22260.976529566778
 21
19360.484537000018
 31
0.0
  0
LINE
  5
1896B
  8
2-0
  6
CONTINUOUS
 62
     3
 10
22254.972650566771
 20
19330.480973999998
 30
0.0
 11
22260.976529566778
 21
19330.480973999998
 31
0.0
  0
LINE
  5
1896C
  8
2-0
  6
CONTINUOUS
 62
     3
 10
22175.972043566759
 20
19251.484325999991
 30
0.0
 11
22175.972043566759
 21
19245.488364000019
 31
0.0
  0
LINE
  5
1896D
  8
2-0
  6
CONTINUOUS
 62
     3
 10
22175.972043566759
 20
19245.488364000019
 30
0.0
 11
22145.974418566759
 21
19245.488364000019
 31
0.0
  0
LINE
  5
1896E
  8
2-0
  6
CONTINUOUS
 62
     3
 10
22145.974418566759
 20
19245.488364000019
 30
0.0
 11
22145.974418566759
 21
19360.484537000018
 31
0.0
  0
LINE
  5
1896F
  8
2-0
  6
CONTINUOUS
 62
     3
 10
22145.974418566759
 20
19275.487968000001
 30
0.0
 11
22226.972359566771
 21
19275.487968000001
 31
0.0
  0
LINE
  5
18970
  8
2-0
  6
CONTINUOUS
 62
     3
 10
22175.972043566759
 20
19235.19090799999
 30
0.0
 11
22145.974418566759
 21
19235.19090799999
 31
0.0
  0
LINE
  5
18971
  8
2-0
  6
CONTINUOUS
 62
     3
 10
22175.972043566759
 20
19253.192650000001
 30
0.0
 11
22175.972043566759
 21
19235.19090799999
 31
0.0
  0
LINE
  5
18972
  8
2-0
  6
CONTINUOUS
 62
     3
 10
22150.978641566759
 20
19253.192650000001
 30
0.0
 11
22175.972043566759
 21
19253.192650000001
 31
0.0
  0
LINE
  5
18973
  8
2-0
  6
CONTINUOUS
 62
     3
 10
22150.978641566759
 20
19248.184467999999
 30
0.0
 11
22150.978641566759
 21
19253.192650000001
 31
0.0
  0
LINE
  5
18974
  8
2-0
  6
CONTINUOUS
 62
     3
 10
22157.976239566749
 20
19248.184467999999
 30
0.0
 11
22150.978641566759
 21
19248.184467999999
 31
0.0
  0
LINE
  5
18975
  8
2-0
  6
CONTINUOUS
 62
     3
 10
22157.976239566749
 20
18894.887645499952
 30
0.0
 11
22150.978641566759
 21
18894.887645499952
 31
0.0
  0
LINE
  5
18976
  8
2-0
  6
CONTINUOUS
 62
     3
 10
22150.978641566759
 20
18894.887645499952
 30
0.0
 11
22150.978641566759
 21
18899.88790949999
 31
0.0
  0
LINE
  5
18977
  8
2-0
  6
CONTINUOUS
 62
     3
 10
22150.978641566759
 20
18899.88790949999
 30
0.0
 11
22175.972043566759
 21
18899.88790949999
 31
0.0
  0
LINE
  5
18978
  8
2-0
  6
CONTINUOUS
 62
     3
 10
22175.972043566759
 20
18899.88790949999
 30
0.0
 11
22175.972043566759
 21
18881.892105499981
 31
0.0
  0
LINE
  5
18979
  8
2-0
  6
CONTINUOUS
 62
     3
 10
22175.972043566759
 20
18881.892105499981
 30
0.0
 11
22145.974418566759
 21
18881.892105499981
 31
0.0
  0
LINE
  5
1897A
  8
2-0
  6
CONTINUOUS
 62
     3
 10
22175.972043566759
 20
18897.98361249996
 30
0.0
 11
22175.972043566759
 21
18891.985671499991
 31
0.0
  0
LINE
  5
1897B
  8
2-0
  6
CONTINUOUS
 62
     3
 10
22175.972043566759
 20
18891.985671499991
 30
0.0
 11
22145.974418566759
 21
18891.985671499991
 31
0.0
  0
LINE
  5
1897C
  8
2-0
  6
CONTINUOUS
 62
     3
 10
22145.974418566759
 20
18891.985671499991
 30
0.0
 11
22145.974418566759
 21
18928.986832499981
 31
0.0
  0
LINE
  5
1897D
  8
2-0
  6
CONTINUOUS
 62
     3
 10
22175.972043566759
 20
18928.986832499981
 30
0.0
 11
22145.974418566759
 21
18928.986832499981
 31
0.0
  0
LINE
  5
1897E
  8
2-0
  6
CONTINUOUS
 62
     3
 10
22175.972043566759
 20
18922.982952499991
 30
0.0
 11
22175.972043566759
 21
18928.986832499981
 31
0.0
  0
LINE
  5
1897F
  8
2-0
  6
CONTINUOUS
 62
     3
 10
22175.972043566759
 20
18939.082377499959
 30
0.0
 11
22145.974418566759
 21
18939.082377499959
 31
0.0
  0
LINE
  5
18980
  8
2-0
  6
CONTINUOUS
 62
     3
 10
22175.972043566759
 20
18921.080635499999
 30
0.0
 11
22175.972043566759
 21
18939.082377499959
 31
0.0
  0
LINE
  5
18981
  8
2-0
  6
CONTINUOUS
 62
     3
 10
22150.978641566759
 20
18921.080635499999
 30
0.0
 11
22175.972043566759
 21
18921.080635499999
 31
0.0
  0
LINE
  5
18982
  8
2-0
  6
CONTINUOUS
 62
     3
 10
22150.978641566759
 20
18926.08089949999
 30
0.0
 11
22150.978641566759
 21
18921.080635499999
 31
0.0
  0
LINE
  5
18983
  8
2-0
  6
CONTINUOUS
 62
     3
 10
22157.976239566749
 20
18926.08089949999
 30
0.0
 11
22150.978641566759
 21
18926.08089949999
 31
0.0
  0
LINE
  5
18984
  8
2-0
  6
CONTINUOUS
 62
     3
 10
22157.976239566749
 20
18193.886655999991
 30
0.0
 11
22150.978641566759
 21
18193.886655999991
 31
0.0
  0
LINE
  5
18985
  8
2-0
  6
CONTINUOUS
 62
     3
 10
22150.978641566759
 20
18193.886655999991
 30
0.0
 11
22150.978641566759
 21
18198.892857999959
 31
0.0
  0
LINE
  5
18986
  8
2-0
  6
CONTINUOUS
 62
     3
 10
22150.978641566759
 20
18198.892857999959
 30
0.0
 11
22175.972043566759
 21
18198.892857999959
 31
0.0
  0
LINE
  5
18987
  8
2-0
  6
CONTINUOUS
 62
     3
 10
22175.972043566759
 20
18198.892857999959
 30
0.0
 11
22175.972043566759
 21
18180.891115999999
 31
0.0
  0
LINE
  5
18988
  8
2-0
  6
CONTINUOUS
 62
     3
 10
22175.972043566759
 20
18180.891115999999
 30
0.0
 11
22145.974418566759
 21
18180.891115999999
 31
0.0
  0
LINE
  5
18989
  8
2-0
  6
CONTINUOUS
 62
     3
 10
22175.972043566759
 20
18196.98262299996
 30
0.0
 11
22175.972043566759
 21
18190.986660999981
 31
0.0
  0
LINE
  5
1898A
  8
2-0
  6
CONTINUOUS
 62
     3
 10
22175.972043566759
 20
18190.986660999981
 30
0.0
 11
22145.974418566759
 21
18190.986660999981
 31
0.0
  0
LINE
  5
1898B
  8
2-0
  6
CONTINUOUS
 62
     3
 10
22145.974418566759
 20
18190.986660999981
 30
0.0
 11
22145.974418566759
 21
18227.985842999991
 31
0.0
  0
LINE
  5
1898C
  8
2-0
  6
CONTINUOUS
 62
     3
 10
22175.972043566759
 20
18227.985842999991
 30
0.0
 11
22145.974418566759
 21
18227.985842999991
 31
0.0
  0
LINE
  5
1898D
  8
2-0
  6
CONTINUOUS
 62
     3
 10
22175.972043566759
 20
18221.98988099999
 30
0.0
 11
22175.972043566759
 21
18227.985842999991
 31
0.0
  0
LINE
  5
1898E
  8
2-0
  6
CONTINUOUS
 62
     3
 10
22175.972043566759
 20
18238.081387999999
 30
0.0
 11
22145.974418566759
 21
18238.081387999999
 31
0.0
  0
LINE
  5
1898F
  8
2-0
  6
CONTINUOUS
 62
     3
 10
22175.972043566759
 20
18220.079645999991
 30
0.0
 11
22175.972043566759
 21
18238.081387999999
 31
0.0
  0
LINE
  5
18990
  8
2-0
  6
CONTINUOUS
 62
     3
 10
22150.978641566759
 20
18220.079645999991
 30
0.0
 11
22175.972043566759
 21
18220.079645999991
 31
0.0
  0
LINE
  5
18991
  8
2-0
  6
CONTINUOUS
 62
     3
 10
22150.978641566759
 20
18225.085847999981
 30
0.0
 11
22150.978641566759
 21
18220.079645999991
 31
0.0
  0
LINE
  5
18992
  8
2-0
  6
CONTINUOUS
 62
     3
 10
22157.976239566749
 20
18225.085847999981
 30
0.0
 11
22150.978641566759
 21
18225.085847999981
 31
0.0
  0
LINE
  5
18993
  8
2-0
  6
CONTINUOUS
 62
     3
 10
22157.976239566749
 20
17524.079909999989
 30
0.0
 11
22150.978641566759
 21
17524.079909999989
 31
0.0
  0
LINE
  5
18994
  8
2-0
  6
CONTINUOUS
 62
     3
 10
22150.978641566759
 20
17524.079909999989
 30
0.0
 11
22150.978641566759
 21
17519.091522999988
 31
0.0
  0
LINE
  5
18995
  8
2-0
  6
CONTINUOUS
 62
     3
 10
22150.978641566759
 20
17519.091522999988
 30
0.0
 11
22175.972043566759
 21
17519.091522999988
 31
0.0
  0
LINE
  5
18996
  8
2-0
  6
CONTINUOUS
 62
     3
 10
22175.972043566759
 20
17519.091522999988
 30
0.0
 11
22175.972043566759
 21
17537.08732599999
 31
0.0
  0
LINE
  5
18997
  8
2-0
  6
CONTINUOUS
 62
     3
 10
22175.972043566759
 20
17537.08732599999
 30
0.0
 11
22145.974418566759
 21
17537.08732599999
 31
0.0
  0
LINE
  5
18998
  8
2-0
  6
CONTINUOUS
 62
     3
 10
22175.972043566759
 20
17520.98988099999
 30
0.0
 11
22175.972043566759
 21
17526.985842999991
 31
0.0
  0
LINE
  5
18999
  8
2-0
  6
CONTINUOUS
 62
     3
 10
22175.972043566759
 20
17526.985842999991
 30
0.0
 11
22145.974418566759
 21
17526.985842999991
 31
0.0
  0
LINE
  5
1899A
  8
2-0
  6
CONTINUOUS
 62
     3
 10
22145.974418566759
 20
17526.985842999991
 30
0.0
 11
22145.974418566759
 21
17489.986660999992
 31
0.0
  0
LINE
  5
1899B
  8
2-0
  6
CONTINUOUS
 62
     3
 10
22175.972043566759
 20
17489.986660999992
 30
0.0
 11
22145.974418566759
 21
17489.986660999992
 31
0.0
  0
LINE
  5
1899C
  8
2-0
  6
CONTINUOUS
 62
     3
 10
22175.972043566759
 20
17495.98856199998
 30
0.0
 11
22175.972043566759
 21
17489.986660999992
 31
0.0
  0
LINE
  5
1899D
  8
2-0
  6
CONTINUOUS
 62
     3
 10
22175.972043566759
 20
17479.89705499999
 30
0.0
 11
22145.974418566759
 21
17479.89705499999
 31
0.0
  0
LINE
  5
1899E
  8
2-0
  6
CONTINUOUS
 62
     3
 10
22175.972043566759
 20
17497.892857999988
 30
0.0
 11
22175.972043566759
 21
17479.89705499999
 31
0.0
  0
LINE
  5
1899F
  8
2-0
  6
CONTINUOUS
 62
     3
 10
22150.978641566759
 20
17497.892857999988
 30
0.0
 11
22175.972043566759
 21
17497.892857999988
 31
0.0
  0
LINE
  5
189A0
  8
2-0
  6
CONTINUOUS
 62
     3
 10
22150.978641566759
 20
17492.89259499999
 30
0.0
 11
22150.978641566759
 21
17497.892857999988
 31
0.0
  0
LINE
  5
189A1
  8
2-0
  6
CONTINUOUS
 62
     3
 10
22157.976239566749
 20
17492.89259499999
 30
0.0
 11
22150.978641566759
 21
17492.89259499999
 31
0.0
  0
LINE
  5
189A2
  8
2-0
  6
CONTINUOUS
 62
     3
 10
22148.86055656676
 20
16772.983480999988
 30
0.0
 11
22148.86055656676
 21
16792.984536
 31
0.0
  0
LINE
  5
189A3
  8
2-0
  6
CONTINUOUS
 62
     3
 10
22148.86055656676
 20
16792.984536
 30
0.0
 11
22233.861084566772
 21
16792.984536
 31
0.0
  0
LINE
  5
189A4
  8
2-0
  6
CONTINUOUS
 62
     3
 10
22157.976239566749
 20
16819.591246
 30
0.0
 11
22150.978641566759
 21
16819.591246
 31
0.0
  0
LINE
  5
189A5
  8
2-0
  6
CONTINUOUS
 62
     3
 10
22150.978641566759
 20
16819.591246
 30
0.0
 11
22150.978641566759
 21
16814.59692
 31
0.0
  0
LINE
  5
189A6
  8
2-0
  6
CONTINUOUS
 62
     3
 10
22150.978641566759
 20
16814.59692
 30
0.0
 11
22175.972043566759
 21
16814.59692
 31
0.0
  0
LINE
  5
189A7
  8
2-0
  6
CONTINUOUS
 62
     3
 10
22175.972043566759
 20
16814.59692
 30
0.0
 11
22175.972043566759
 21
16832.592723999998
 31
0.0
  0
LINE
  5
189A8
  8
2-0
  6
CONTINUOUS
 62
     3
 10
22175.972043566759
 20
16832.592723999998
 30
0.0
 11
22145.974418566759
 21
16832.592723999998
 31
0.0
  0
LINE
  5
189A9
  8
2-0
  6
CONTINUOUS
 62
     3
 10
22175.972043566759
 20
16822.98413999999
 30
0.0
 11
22175.972043566759
 21
16816.98223999999
 31
0.0
  0
LINE
  5
189AA
  8
2-0
  6
CONTINUOUS
 62
     3
 10
22145.974418566759
 20
16822.98413999999
 30
0.0
 11
22175.972043566759
 21
16822.98413999999
 31
0.0
  0
LINE
  5
189AB
  8
2-0
  6
CONTINUOUS
 62
     3
 10
22145.974418566759
 20
16832.592723999998
 30
0.0
 11
22145.974418566759
 21
17479.89705499999
 31
0.0
  0
LINE
  5
189AC
  8
2-0
  6
CONTINUOUS
 62
     3
 10
22145.974418566759
 20
17537.08732599999
 30
0.0
 11
22145.974418566759
 21
18180.891115999999
 31
0.0
  0
LINE
  5
189AD
  8
2-0
  6
CONTINUOUS
 62
     3
 10
22145.974418566759
 20
16677.982424999998
 30
0.0
 11
22175.972043566759
 21
16677.982424999998
 31
0.0
  0
LINE
  5
189AE
  8
2-0
  6
CONTINUOUS
 62
     3
 10
22175.972043566759
 20
16677.982424999998
 30
0.0
 11
22175.972043566759
 21
16683.98432499999
 31
0.0
  0
LINE
  5
189AF
  8
2-0
  6
CONTINUOUS
 62
     3
 10
22233.861084566772
 20
16707.987968000001
 30
0.0
 11
22148.86055656676
 21
16707.987968000001
 31
0.0
  0
LINE
  5
189B0
  8
2-0
  6
CONTINUOUS
 62
     3
 10
22148.86055656676
 20
16707.987968000001
 30
0.0
 11
22148.86055656676
 21
16727.983085
 31
0.0
  0
LINE
  5
189B1
  8
2-0
  6
CONTINUOUS
 62
     3
 10
22175.972043566759
 20
16668.373842000012
 30
0.0
 11
22145.974418566759
 21
16668.373842000012
 31
0.0
  0
LINE
  5
189B2
  8
2-0
  6
CONTINUOUS
 62
     3
 10
22175.972043566759
 20
16686.369644999992
 30
0.0
 11
22175.972043566759
 21
16668.373842000012
 31
0.0
  0
LINE
  5
189B3
  8
2-0
  6
CONTINUOUS
 62
     3
 10
22150.978641566759
 20
16686.369644999992
 30
0.0
 11
22175.972043566759
 21
16686.369644999992
 31
0.0
  0
LINE
  5
189B4
  8
2-0
  6
CONTINUOUS
 62
     3
 10
22150.978641566759
 20
16681.36938099999
 30
0.0
 11
22150.978641566759
 21
16686.369644999992
 31
0.0
  0
LINE
  5
189B5
  8
2-0
  6
CONTINUOUS
 62
     3
 10
22157.976239566749
 20
16681.36938099999
 30
0.0
 11
22150.978641566759
 21
16681.36938099999
 31
0.0
  0
LINE
  5
189B6
  8
2-0
  6
CONTINUOUS
 62
     3
 10
22157.976239566749
 20
15976.887150499981
 30
0.0
 11
22150.978641566759
 21
15976.887150499981
 31
0.0
  0
LINE
  5
189B7
  8
2-0
  6
CONTINUOUS
 62
     3
 10
22150.978641566759
 20
15976.887150499981
 30
0.0
 11
22150.978641566759
 21
15981.887414499981
 31
0.0
  0
LINE
  5
189B8
  8
2-0
  6
CONTINUOUS
 62
     3
 10
22150.978641566759
 20
15981.887414499981
 30
0.0
 11
22175.972043566759
 21
15981.887414499981
 31
0.0
  0
LINE
  5
189B9
  8
2-0
  6
CONTINUOUS
 62
     3
 10
22175.972043566759
 20
15981.887414499981
 30
0.0
 11
22175.972043566759
 21
15963.885672499981
 31
0.0
  0
LINE
  5
189BA
  8
2-0
  6
CONTINUOUS
 62
     3
 10
22175.972043566759
 20
15963.885672499981
 30
0.0
 11
22145.974418566759
 21
15963.885672499981
 31
0.0
  0
LINE
  5
189BB
  8
2-0
  6
CONTINUOUS
 62
     3
 10
22175.972043566759
 20
15979.983117499991
 30
0.0
 11
22175.972043566759
 21
15973.98616649999
 31
0.0
  0
LINE
  5
189BC
  8
2-0
  6
CONTINUOUS
 62
     3
 10
22175.972043566759
 20
15973.98616649999
 30
0.0
 11
22145.974418566759
 21
15973.98616649999
 31
0.0
  0
LINE
  5
189BD
  8
2-0
  6
CONTINUOUS
 62
     3
 10
22145.974418566759
 20
15973.98616649999
 30
0.0
 11
22145.974418566759
 21
16010.9863375
 31
0.0
  0
LINE
  5
189BE
  8
2-0
  6
CONTINUOUS
 62
     3
 10
22175.972043566759
 20
16010.9863375
 30
0.0
 11
22145.974418566759
 21
16010.9863375
 31
0.0
  0
LINE
  5
189BF
  8
2-0
  6
CONTINUOUS
 62
     3
 10
22175.972043566759
 20
16004.98344749999
 30
0.0
 11
22175.972043566759
 21
16010.9863375
 31
0.0
  0
LINE
  5
189C0
  8
2-0
  6
CONTINUOUS
 62
     3
 10
22175.972043566759
 20
16021.081882500001
 30
0.0
 11
22145.974418566759
 21
16021.081882500001
 31
0.0
  0
LINE
  5
189C1
  8
2-0
  6
CONTINUOUS
 62
     3
 10
22175.972043566759
 20
16003.074201499991
 30
0.0
 11
22175.972043566759
 21
16021.081882500001
 31
0.0
  0
LINE
  5
189C2
  8
2-0
  6
CONTINUOUS
 62
     3
 10
22150.978641566759
 20
16003.074201499991
 30
0.0
 11
22175.972043566759
 21
16003.074201499991
 31
0.0
  0
LINE
  5
189C3
  8
2-0
  6
CONTINUOUS
 62
     3
 10
22150.978641566759
 20
16008.0804045
 30
0.0
 11
22150.978641566759
 21
16003.074201499991
 31
0.0
  0
LINE
  5
189C4
  8
2-0
  6
CONTINUOUS
 62
     3
 10
22157.976239566749
 20
16008.0804045
 30
0.0
 11
22150.978641566759
 21
16008.0804045
 31
0.0
  0
LINE
  5
189C5
  8
2-0
  6
CONTINUOUS
 62
     3
 10
22157.976239566749
 20
15307.320421000009
 30
0.0
 11
22150.978641566759
 21
15307.320421000009
 31
0.0
  0
LINE
  5
189C6
  8
2-0
  6
CONTINUOUS
 62
     3
 10
22150.978641566759
 20
15307.320421000009
 30
0.0
 11
22150.978641566759
 21
15302.326096000001
 31
0.0
  0
LINE
  5
189C7
  8
2-0
  6
CONTINUOUS
 62
     3
 10
22150.978641566759
 20
15302.326096000001
 30
0.0
 11
22175.972043566759
 21
15302.326096000001
 31
0.0
  0
LINE
  5
189C8
  8
2-0
  6
CONTINUOUS
 62
     3
 10
22175.972043566759
 20
15302.326096000001
 30
0.0
 11
22175.972043566759
 21
15320.321899
 31
0.0
  0
LINE
  5
189C9
  8
2-0
  6
CONTINUOUS
 62
     3
 10
22175.972043566759
 20
15320.321899
 30
0.0
 11
22145.974418566759
 21
15320.321899
 31
0.0
  0
LINE
  5
189CA
  8
2-0
  6
CONTINUOUS
 62
     3
 10
22175.972043566759
 20
15304.224453999999
 30
0.0
 11
22175.972043566759
 21
15310.226354000009
 31
0.0
  0
LINE
  5
189CB
  8
2-0
  6
CONTINUOUS
 62
     3
 10
22175.972043566759
 20
15310.226354000009
 30
0.0
 11
22145.974418566759
 21
15310.226354000009
 31
0.0
  0
LINE
  5
189CC
  8
2-0
  6
CONTINUOUS
 62
     3
 10
22145.974418566759
 20
15273.22717300001
 30
0.0
 11
22145.974418566759
 21
15310.226354000009
 31
0.0
  0
LINE
  5
189CD
  8
2-0
  6
CONTINUOUS
 62
     3
 10
22175.972043566759
 20
15273.22717300001
 30
0.0
 11
22145.974418566759
 21
15273.22717300001
 31
0.0
  0
LINE
  5
189CE
  8
2-0
  6
CONTINUOUS
 62
     3
 10
22175.972043566759
 20
15279.224123999989
 30
0.0
 11
22175.972043566759
 21
15273.22717300001
 31
0.0
  0
LINE
  5
189CF
  8
2-0
  6
CONTINUOUS
 62
     3
 10
22175.972043566759
 20
15263.125689
 30
0.0
 11
22145.974418566759
 21
15263.125689
 31
0.0
  0
LINE
  5
189D0
  8
2-0
  6
CONTINUOUS
 62
     3
 10
22175.972043566759
 20
15281.13337
 30
0.0
 11
22175.972043566759
 21
15263.125689
 31
0.0
  0
LINE
  5
189D1
  8
2-0
  6
CONTINUOUS
 62
     3
 10
22150.978641566759
 20
15281.13337
 30
0.0
 11
22175.972043566759
 21
15281.13337
 31
0.0
  0
LINE
  5
189D2
  8
2-0
  6
CONTINUOUS
 62
     3
 10
22150.978641566759
 20
15276.13310600001
 30
0.0
 11
22150.978641566759
 21
15281.13337
 31
0.0
  0
LINE
  5
189D3
  8
2-0
  6
CONTINUOUS
 62
     3
 10
22157.976239566749
 20
15276.13310600001
 30
0.0
 11
22150.978641566759
 21
15276.13310600001
 31
0.0
  0
LINE
  5
189D4
  8
2-0
  6
CONTINUOUS
 62
     3
 10
22145.974418566759
 20
16668.373842000012
 30
0.0
 11
22145.974418566759
 21
16021.081882500001
 31
0.0
  0
LINE
  5
189D5
  8
2-0
  6
CONTINUOUS
 62
     3
 10
22145.974418566759
 20
16822.98413999999
 30
0.0
 11
22145.974418566759
 21
16677.982424999998
 31
0.0
  0
LINE
  5
189D6
  8
2-0
  6
CONTINUOUS
 62
     3
 10
22233.861084566772
 20
16792.984536
 30
0.0
 11
22233.861084566772
 21
16707.987968000001
 31
0.0
  0
LINE
  5
189D7
  8
2-0
  6
CONTINUOUS
 62
     3
 10
22157.976239566749
 20
14574.892099000001
 30
0.0
 11
22150.978641566759
 21
14574.892099000001
 31
0.0
  0
LINE
  5
189D8
  8
2-0
  6
CONTINUOUS
 62
     3
 10
22150.978641566759
 20
14574.892099000001
 30
0.0
 11
22150.978641566759
 21
14579.886425000001
 31
0.0
  0
LINE
  5
189D9
  8
2-0
  6
CONTINUOUS
 62
     3
 10
22150.978641566759
 20
14579.886425000001
 30
0.0
 11
22175.972043566759
 21
14579.886425000001
 31
0.0
  0
LINE
  5
189DA
  8
2-0
  6
CONTINUOUS
 62
     3
 10
22175.972043566759
 20
14579.886425000001
 30
0.0
 11
22175.972043566759
 21
14561.890621
 31
0.0
  0
LINE
  5
189DB
  8
2-0
  6
CONTINUOUS
 62
     3
 10
22175.972043566759
 20
14561.890621
 30
0.0
 11
22145.974418566759
 21
14561.890621
 31
0.0
  0
LINE
  5
189DC
  8
2-0
  6
CONTINUOUS
 62
     3
 10
22175.972043566759
 20
14577.989056000009
 30
0.0
 11
22175.972043566759
 21
14571.986166000001
 31
0.0
  0
LINE
  5
189DD
  8
2-0
  6
CONTINUOUS
 62
     3
 10
22175.972043566759
 20
14571.986166000001
 30
0.0
 11
22145.974418566759
 21
14571.986166000001
 31
0.0
  0
LINE
  5
189DE
  8
2-0
  6
CONTINUOUS
 62
     3
 10
22145.974418566759
 20
14571.986166000001
 30
0.0
 11
22145.974418566759
 21
14608.986337999981
 31
0.0
  0
LINE
  5
189DF
  8
2-0
  6
CONTINUOUS
 62
     3
 10
22175.972043566759
 20
14608.986337999981
 30
0.0
 11
22145.974418566759
 21
14608.986337999981
 31
0.0
  0
LINE
  5
189E0
  8
2-0
  6
CONTINUOUS
 62
     3
 10
22175.972043566759
 20
14602.989385999999
 30
0.0
 11
22175.972043566759
 21
14608.986337999981
 31
0.0
  0
LINE
  5
189E1
  8
2-0
  6
CONTINUOUS
 62
     3
 10
22175.972043566759
 20
14619.086831000001
 30
0.0
 11
22145.974418566759
 21
14619.086831000001
 31
0.0
  0
LINE
  5
189E2
  8
2-0
  6
CONTINUOUS
 62
     3
 10
22175.972043566759
 20
14601.080140000009
 30
0.0
 11
22175.972043566759
 21
14619.086831000001
 31
0.0
  0
LINE
  5
189E3
  8
2-0
  6
CONTINUOUS
 62
     3
 10
22150.978641566759
 20
14601.080140000009
 30
0.0
 11
22175.972043566759
 21
14601.080140000009
 31
0.0
  0
LINE
  5
189E4
  8
2-0
  6
CONTINUOUS
 62
     3
 10
22150.978641566759
 20
14606.085353000009
 30
0.0
 11
22150.978641566759
 21
14601.080140000009
 31
0.0
  0
LINE
  5
189E5
  8
2-0
  6
CONTINUOUS
 62
     3
 10
22157.976239566749
 20
14606.085353000009
 30
0.0
 11
22150.978641566759
 21
14606.085353000009
 31
0.0
  0
LINE
  5
189E6
  8
2-0
  6
CONTINUOUS
 62
     3
 10
22175.972043566759
 20
14249.488178999991
 30
0.0
 11
22175.972043566759
 21
14255.493048
 31
0.0
  0
LINE
  5
189E7
  8
2-0
  6
CONTINUOUS
 62
     3
 10
22175.972043566759
 20
14255.493048
 30
0.0
 11
22145.974418566759
 21
14255.493048
 31
0.0
  0
LINE
  5
189E8
  8
2-0
  6
CONTINUOUS
 62
     3
 10
22145.974418566759
 20
14255.493048
 30
0.0
 11
22145.974418566759
 21
14140.48895699999
 31
0.0
  0
LINE
  5
189E9
  8
2-0
  6
CONTINUOUS
 62
     3
 10
22145.974418566759
 20
14140.48895699999
 30
0.0
 11
22230.972966566769
 21
14140.48895699999
 31
0.0
  0
LINE
  5
189EA
  8
2-0
  6
CONTINUOUS
 62
     3
 10
22230.972966566769
 20
14140.48895699999
 30
0.0
 11
22230.972966566769
 21
14225.484536
 31
0.0
  0
LINE
  5
189EB
  8
2-0
  6
CONTINUOUS
 62
     3
 10
22230.972966566769
 20
14225.484536
 30
0.0
 11
22198.976028566762
 21
14225.484536
 31
0.0
  0
LINE
  5
189EC
  8
2-0
  6
CONTINUOUS
 62
     3
 10
22157.976239566749
 20
14252.522780999991
 30
0.0
 11
22150.978641566759
 21
14252.522780999991
 31
0.0
  0
LINE
  5
189ED
  8
2-0
  6
CONTINUOUS
 62
     3
 10
22150.978641566759
 20
14252.522780999991
 30
0.0
 11
22150.978641566759
 21
14247.52548599998
 31
0.0
  0
LINE
  5
189EE
  8
2-0
  6
CONTINUOUS
 62
     3
 10
22150.978641566759
 20
14247.52548599998
 30
0.0
 11
22175.972043566759
 21
14247.52548599998
 31
0.0
  0
LINE
  5
189EF
  8
2-0
  6
CONTINUOUS
 62
     3
 10
22175.972043566759
 20
14247.52548599998
 30
0.0
 11
22175.972043566759
 21
14265.524259
 31
0.0
  0
LINE
  5
189F0
  8
2-0
  6
CONTINUOUS
 62
     3
 10
22175.972043566759
 20
14265.524259
 30
0.0
 11
22145.974418566759
 21
14265.524259
 31
0.0
  0
LINE
  5
189F1
  8
2-0
  6
CONTINUOUS
 62
     3
 10
22145.974418566759
 20
14619.086831000001
 30
0.0
 11
22145.974418566759
 21
15263.125689
 31
0.0
  0
LINE
  5
189F2
  8
2-0
  6
CONTINUOUS
 62
     3
 10
22145.974418566759
 20
18238.081387999999
 30
0.0
 11
22145.974418566759
 21
18881.892105499981
 31
0.0
  0
LINE
  5
189F3
  8
2-0
  6
CONTINUOUS
 62
     3
 10
22145.974418566759
 20
15963.885672499981
 30
0.0
 11
22145.974418566759
 21
15320.321899
 31
0.0
  0
LINE
  5
189F4
  8
2-0
  6
CONTINUOUS
 62
     3
 10
25499.469007566779
 20
19245.488364000019
 30
0.0
 11
25499.469007566779
 21
19360.484537000018
 31
0.0
  0
LINE
  5
189F5
  8
2-0
  6
CONTINUOUS
 62
     3
 10
22145.974418566759
 20
19275.487968000001
 30
0.0
 11
25418.46710756675
 21
19275.487968000001
 31
0.0
  0
LINE
  5
189F6
  8
2-0
  6
CONTINUOUS
 62
     3
 10
22145.974418566759
 20
14265.524259
 30
0.0
 11
22145.974418566759
 21
14561.890621
 31
0.0
  0
LINE
  5
189F7
  8
2-0
  6
CONTINUOUS
 62
     3
 10
25499.469007566779
 20
19235.19090799999
 30
0.0
 11
25499.469007566779
 21
18939.082377499992
 31
0.0
  0
LINE
  5
189F8
  8
2-0
  6
CONTINUOUS
 62
     3
 10
22145.974418566759
 20
19235.19090799999
 30
0.0
 11
22145.974418566759
 21
18939.082377499959
 31
0.0
  0
LINE
  5
189F9
  8
2-0
  6
CONTINUOUS
 62
     3
 10
22226.972359566771
 20
14225.484536
 30
0.0
 11
22226.972359566771
 21
19360.484537000018
 31
0.0
  0
LINE
  5
189FA
  8
2-0
  6
CONTINUOUS
 62
     3
 10
25418.46710756675
 20
14225.484536
 30
0.0
 11
25418.46710756675
 21
19360.484537000018
 31
0.0
  0
TEXT
  5
189FB
  8
2-0
  6
CONTINUOUS
 62
     7
 10
23853.81603056677
 20
13622.987374
 30
0.0
 40
160.0
  1
前柱（右）
 50
0.000213
 72
     4
 11
24269.81573315979
 21
13702.988920500789
 31
0.0
  0
TEXT
  5
189FC
  8
2-0
  6
CONTINUOUS
 62
     7
 10
24058.411153566762
 20
16200.97939000001
 30
0.0
 40
160.0
  1
壁パネル
 50
359.99982299999999
 72
     4
 11
24421.078067370319
 21
16280.978269637881
 31
0.0
  0
TEXT
  5
189FD
  8
2-0
  6
CONTINUOUS
 62
     7
 10
23778.408249566772
 20
17038.167286
 30
0.0
 40
160.0
  1
中柱（左右）
 50
0.000354
 72
     4
 11
24295.74108861298
 21
17118.170482324658
 31
0.0
  0
TEXT
  5
189FE
  8
2-0
  6
CONTINUOUS
 62
     7
 10
24458.41049356676
 20
14596.02863999999
 30
0.0
 40
160.0
  1
下枠
 50
0.001063
 72
     4
 11
24629.075675976059
 21
14676.031806339281
 31
0.0
  0
TEXT
  5
189FF
  8
2-0
  6
CONTINUOUS
 62
     7
 10
23953.37591756678
 20
18641.436024499981
 30
0.0
 40
160.0
  1
間柱（側）
 72
     4
 11
24374.709250900109
 21
18721.436024499981
 31
0.0
  0
TEXT
  5
18A00
  8
2-0
  6
CONTINUOUS
 62
     7
 10
26271.966236566768
 20
20170.483745000001
 30
0.0
 40
160.0
  1
後柱（左右）
 50
0.000354
 72
     4
 11
26783.965742279761
 21
20250.48690837283
 31
0.0
  0
LINE
  5
18A01
  8
2-0
  6
CONTINUOUS
 62
     3
 10
24717.471304566759
 20
19360.484537000018
 30
0.0
 11
24680.470142566781
 21
19360.484537000018
 31
0.0
  0
LINE
  5
18A02
  8
2-0
  6
CONTINUOUS
 62
     3
 10
24717.471304566759
 20
19330.480973999998
 30
0.0
 11
24717.471304566759
 21
19360.484537000018
 31
0.0
  0
LINE
  5
18A03
  8
2-0
  6
CONTINUOUS
 62
     3
 10
24711.471383566761
 20
19330.480973999998
 30
0.0
 11
24717.471304566759
 21
19330.480973999998
 31
0.0
  0
LINE
  5
18A04
  8
2-0
  6
CONTINUOUS
 62
     3
 10
24727.568828566778
 20
19330.480973999998
 30
0.0
 11
24727.568828566778
 21
19360.484537000018
 31
0.0
  0
LINE
  5
18A05
  8
2-0
  6
CONTINUOUS
 62
     3
 10
24709.565107566781
 20
19330.480973999998
 30
0.0
 11
24727.568828566778
 21
19330.480973999998
 31
0.0
  0
LINE
  5
18A06
  8
2-0
  6
CONTINUOUS
 62
     3
 10
24709.565107566781
 20
19355.490211000011
 30
0.0
 11
24709.565107566781
 21
19330.480973999998
 31
0.0
  0
LINE
  5
18A07
  8
2-0
  6
CONTINUOUS
 62
     3
 10
24714.56537156679
 20
19355.490211000011
 30
0.0
 11
24709.565107566781
 21
19355.490211000011
 31
0.0
  0
LINE
  5
18A08
  8
2-0
  6
CONTINUOUS
 62
     3
 10
24714.56537156679
 20
19348.484694999999
 30
0.0
 11
24714.56537156679
 21
19355.490211000011
 31
0.0
  0
LINE
  5
18A09
  8
2-0
  6
CONTINUOUS
 62
     3
 10
24683.376076566761
 20
19348.484694999999
 30
0.0
 11
24683.376076566761
 21
19355.490211000011
 31
0.0
  0
LINE
  5
18A0A
  8
2-0
  6
CONTINUOUS
 62
     3
 10
24683.376076566761
 20
19355.490211000011
 30
0.0
 11
24688.376340566781
 21
19355.490211000011
 31
0.0
  0
LINE
  5
18A0B
  8
2-0
  6
CONTINUOUS
 62
     3
 10
24688.376340566781
 20
19355.490211000011
 30
0.0
 11
24688.376340566781
 21
19330.480973999998
 31
0.0
  0
LINE
  5
18A0C
  8
2-0
  6
CONTINUOUS
 62
     3
 10
24688.376340566781
 20
19330.480973999998
 30
0.0
 11
24670.376577566782
 21
19330.480973999998
 31
0.0
  0
LINE
  5
18A0D
  8
2-0
  6
CONTINUOUS
 62
     3
 10
24670.376577566782
 20
19330.480973999998
 30
0.0
 11
24670.376577566782
 21
19360.484537000018
 31
0.0
  0
LINE
  5
18A0E
  8
2-0
  6
CONTINUOUS
 62
     3
 10
24686.470063566769
 20
19330.480973999998
 30
0.0
 11
24680.470142566781
 21
19330.480973999998
 31
0.0
  0
LINE
  5
18A0F
  8
2-0
  6
CONTINUOUS
 62
     3
 10
24680.470142566781
 20
19330.480973999998
 30
0.0
 11
24680.470142566781
 21
19360.484537000018
 31
0.0
  0
LINE
  5
18A10
  8
2-0
  6
CONTINUOUS
 62
     3
 10
23312.56042206677
 20
19348.484694999999
 30
0.0
 11
23312.56042206677
 21
19355.490211000011
 31
0.0
  0
LINE
  5
18A11
  8
2-0
  6
CONTINUOUS
 62
     3
 10
23312.56042206677
 20
19355.490211000011
 30
0.0
 11
23307.560158066772
 21
19355.490211000011
 31
0.0
  0
LINE
  5
18A12
  8
2-0
  6
CONTINUOUS
 62
     3
 10
23307.560158066772
 20
19355.490211000011
 30
0.0
 11
23307.560158066772
 21
19330.480973999998
 31
0.0
  0
LINE
  5
18A13
  8
2-0
  6
CONTINUOUS
 62
     3
 10
23307.560158066772
 20
19330.480973999998
 30
0.0
 11
23325.56585906677
 21
19330.480973999998
 31
0.0
  0
LINE
  5
18A14
  8
2-0
  6
CONTINUOUS
 62
     3
 10
23325.56585906677
 20
19330.480973999998
 30
0.0
 11
23325.56585906677
 21
19360.484537000018
 31
0.0
  0
LINE
  5
18A15
  8
2-0
  6
CONTINUOUS
 62
     3
 10
23309.46841406676
 20
19330.480973999998
 30
0.0
 11
23315.47031406677
 21
19330.480973999998
 31
0.0
  0
LINE
  5
18A16
  8
2-0
  6
CONTINUOUS
 62
     3
 10
23315.47031406677
 20
19330.480973999998
 30
0.0
 11
23315.47031406677
 21
19360.484537000018
 31
0.0
  0
LINE
  5
18A17
  8
2-0
  6
CONTINUOUS
 62
     3
 10
23278.47113306676
 20
19360.484537000018
 30
0.0
 11
23315.47031406677
 21
19360.484537000018
 31
0.0
  0
LINE
  5
18A18
  8
2-0
  6
CONTINUOUS
 62
     3
 10
23278.47113306676
 20
19330.480973999998
 30
0.0
 11
23278.47113306676
 21
19360.484537000018
 31
0.0
  0
LINE
  5
18A19
  8
2-0
  6
CONTINUOUS
 62
     3
 10
23284.465115066771
 20
19330.480973999998
 30
0.0
 11
23278.47113306676
 21
19330.480973999998
 31
0.0
  0
LINE
  5
18A1A
  8
2-0
  6
CONTINUOUS
 62
     3
 10
23268.375588066781
 20
19330.480973999998
 30
0.0
 11
23268.375588066781
 21
19360.484537000018
 31
0.0
  0
LINE
  5
18A1B
  8
2-0
  6
CONTINUOUS
 62
     3
 10
23286.371391066768
 20
19330.480973999998
 30
0.0
 11
23268.375588066781
 21
19330.480973999998
 31
0.0
  0
LINE
  5
18A1C
  8
2-0
  6
CONTINUOUS
 62
     3
 10
23286.371391066768
 20
19355.490211000011
 30
0.0
 11
23286.371391066768
 21
19330.480973999998
 31
0.0
  0
LINE
  5
18A1D
  8
2-0
  6
CONTINUOUS
 62
     3
 10
23281.371127066781
 20
19355.490211000011
 30
0.0
 11
23286.371391066768
 21
19355.490211000011
 31
0.0
  0
LINE
  5
18A1E
  8
2-0
  6
CONTINUOUS
 62
     3
 10
23281.371127066781
 20
19348.484694999999
 30
0.0
 11
23281.371127066781
 21
19355.490211000011
 31
0.0
  0
LINE
  5
18A1F
  8
2-0
  6
CONTINUOUS
 62
     3
 10
23982.37013806677
 20
19348.484694999999
 30
0.0
 11
23982.37013806677
 21
19355.490211000011
 31
0.0
  0
LINE
  5
18A20
  8
2-0
  6
CONTINUOUS
 62
     3
 10
23982.37013806677
 20
19355.490211000011
 30
0.0
 11
23987.370401066772
 21
19355.490211000011
 31
0.0
  0
LINE
  5
18A21
  8
2-0
  6
CONTINUOUS
 62
     3
 10
23987.370401066772
 20
19355.490211000011
 30
0.0
 11
23987.370401066772
 21
19330.480973999998
 31
0.0
  0
LINE
  5
18A22
  8
2-0
  6
CONTINUOUS
 62
     3
 10
23987.370401066772
 20
19330.480973999998
 30
0.0
 11
23969.376578066771
 21
19330.480973999998
 31
0.0
  0
LINE
  5
18A23
  8
2-0
  6
CONTINUOUS
 62
     3
 10
23969.376578066771
 20
19330.480973999998
 30
0.0
 11
23969.376578066771
 21
19360.484537000018
 31
0.0
  0
LINE
  5
18A24
  8
2-0
  6
CONTINUOUS
 62
     3
 10
23985.468084066761
 20
19330.480973999998
 30
0.0
 11
23979.47014306677
 21
19330.480973999998
 31
0.0
  0
LINE
  5
18A25
  8
2-0
  6
CONTINUOUS
 62
     3
 10
23979.47014306677
 20
19330.480973999998
 30
0.0
 11
23979.47014306677
 21
19360.484537000018
 31
0.0
  0
LINE
  5
18A26
  8
2-0
  6
CONTINUOUS
 62
     3
 10
24016.47130406677
 20
19360.484537000018
 30
0.0
 11
23979.47014306677
 21
19360.484537000018
 31
0.0
  0
LINE
  5
18A27
  8
2-0
  6
CONTINUOUS
 62
     3
 10
24016.47130406677
 20
19330.480973999998
 30
0.0
 11
24016.47130406677
 21
19360.484537000018
 31
0.0
  0
LINE
  5
18A28
  8
2-0
  6
CONTINUOUS
 62
     3
 10
24010.46544506678
 20
19330.480973999998
 30
0.0
 11
24016.47130406677
 21
19330.480973999998
 31
0.0
  0
LINE
  5
18A29
  8
2-0
  6
CONTINUOUS
 62
     3
 10
24026.56486906678
 20
19330.480973999998
 30
0.0
 11
24026.56486906678
 21
19360.484537000018
 31
0.0
  0
LINE
  5
18A2A
  8
2-0
  6
CONTINUOUS
 62
     3
 10
24008.569066066771
 20
19330.480973999998
 30
0.0
 11
24026.56486906678
 21
19330.480973999998
 31
0.0
  0
LINE
  5
18A2B
  8
2-0
  6
CONTINUOUS
 62
     3
 10
24008.569066066771
 20
19355.490211000011
 30
0.0
 11
24008.569066066771
 21
19330.480973999998
 31
0.0
  0
LINE
  5
18A2C
  8
2-0
  6
CONTINUOUS
 62
     3
 10
24013.55943206677
 20
19355.490211000011
 30
0.0
 11
24008.569066066771
 21
19355.490211000011
 31
0.0
  0
LINE
  5
18A2D
  8
2-0
  6
CONTINUOUS
 62
     3
 10
24013.55943206677
 20
19348.484694999999
 30
0.0
 11
24013.55943206677
 21
19355.490211000011
 31
0.0
  0
LINE
  5
18A2E
  8
2-0
  6
CONTINUOUS
 62
     3
 10
23325.56585906677
 20
19360.484537000018
 30
0.0
 11
23969.376578066771
 21
19360.484537000018
 31
0.0
  0
LINE
  5
18A2F
  8
2-0
  6
CONTINUOUS
 62
     3
 10
22624.769749566782
 20
19360.484537000018
 30
0.0
 11
23268.375588066781
 21
19360.484537000018
 31
0.0
  0
LINE
  5
18A30
  8
2-0
  6
CONTINUOUS
 62
     3
 10
25374.854353566781
 20
19360.484537000018
 30
0.0
 11
24727.568828566778
 21
19360.484537000018
 31
0.0
  0
LINE
  5
18A31
  8
2-0
  6
CONTINUOUS
 62
     3
 10
24670.376577566782
 20
19360.484537000018
 30
0.0
 11
24026.56486906678
 21
19360.484537000018
 31
0.0
  0
LINE
  5
18A32
  8
2-0
  6
CONTINUOUS
 62
     3
 10
22611.562401566771
 20
19348.484694999999
 30
0.0
 11
22611.562401566771
 21
19355.490211000011
 31
0.0
  0
LINE
  5
18A33
  8
2-0
  6
CONTINUOUS
 62
     3
 10
22611.562401566771
 20
19355.490211000011
 30
0.0
 11
22606.562137566769
 21
19355.490211000011
 31
0.0
  0
LINE
  5
18A34
  8
2-0
  6
CONTINUOUS
 62
     3
 10
22606.562137566769
 20
19355.490211000011
 30
0.0
 11
22606.562137566769
 21
19330.480973999998
 31
0.0
  0
LINE
  5
18A35
  8
2-0
  6
CONTINUOUS
 62
     3
 10
22606.562137566769
 20
19330.480973999998
 30
0.0
 11
22624.563879566769
 21
19330.480973999998
 31
0.0
  0
LINE
  5
18A36
  8
2-0
  6
CONTINUOUS
 62
     3
 10
22624.563879566769
 20
19330.480973999998
 30
0.0
 11
22624.563879566769
 21
19360.484537000018
 31
0.0
  0
LINE
  5
18A37
  8
2-0
  6
CONTINUOUS
 62
     3
 10
22608.464454566791
 20
19330.480973999998
 30
0.0
 11
22614.468334566769
 21
19330.480973999998
 31
0.0
  0
LINE
  5
18A38
  8
2-0
  6
CONTINUOUS
 62
     3
 10
22614.468334566769
 20
19330.480973999998
 30
0.0
 11
22614.468334566769
 21
19360.484537000018
 31
0.0
  0
LINE
  5
18A39
  8
2-0
  6
CONTINUOUS
 62
     3
 10
22577.47311256676
 20
19360.484537000018
 30
0.0
 11
22614.468334566769
 21
19360.484537000018
 31
0.0
  0
LINE
  5
18A3A
  8
2-0
  6
CONTINUOUS
 62
     3
 10
22577.47311256676
 20
19330.480973999998
 30
0.0
 11
22577.47311256676
 21
19360.484537000018
 31
0.0
  0
LINE
  5
18A3B
  8
2-0
  6
CONTINUOUS
 62
     3
 10
22583.467094566779
 20
19330.480973999998
 30
0.0
 11
22577.47311256676
 21
19330.480973999998
 31
0.0
  0
LINE
  5
18A3C
  8
2-0
  6
CONTINUOUS
 62
     3
 10
22567.377567566771
 20
19330.480973999998
 30
0.0
 11
22567.377567566771
 21
19360.484537000018
 31
0.0
  0
LINE
  5
18A3D
  8
2-0
  6
CONTINUOUS
 62
     3
 10
22585.373370566769
 20
19330.480973999998
 30
0.0
 11
22567.377567566771
 21
19330.480973999998
 31
0.0
  0
LINE
  5
18A3E
  8
2-0
  6
CONTINUOUS
 62
     3
 10
22585.373370566769
 20
19355.490211000011
 30
0.0
 11
22585.373370566769
 21
19330.480973999998
 31
0.0
  0
LINE
  5
18A3F
  8
2-0
  6
CONTINUOUS
 62
     3
 10
22580.37508656679
 20
19355.490211000011
 30
0.0
 11
22585.373370566769
 21
19355.490211000011
 31
0.0
  0
LINE
  5
18A40
  8
2-0
  6
CONTINUOUS
 62
     3
 10
22580.37508656679
 20
19348.484694999999
 30
0.0
 11
22580.37508656679
 21
19355.490211000011
 31
0.0
  0
LINE
  5
18A41
  8
2-0
  6
CONTINUOUS
 62
     3
 10
22271.275965566761
 20
19360.484537000018
 30
0.0
 11
22567.377567566771
 21
19360.484537000018
 31
0.0
  0
LINE
  5
18A42
  8
2-0
  6
CONTINUOUS
 62
     3
 10
25499.469007566779
 20
15263.12568900001
 30
0.0
 11
25499.469007566779
 21
14619.086831000001
 31
0.0
  0
LINE
  5
18A43
  8
2-0
  6
CONTINUOUS
 62
     3
 10
25499.469007566779
 20
14561.890621
 30
0.0
 11
25499.469007566779
 21
14265.524259
 31
0.0
  0
LINE
  5
18A44
  8
0-6
  6
CONTINUOUS
 62
     6
 10
22539.794982066771
 20
18649.166309
 30
0.0
 11
23564.835232066769
 21
18649.166309
 31
0.0
  0
LINE
  5
18A45
  8
0-6
  6
CONTINUOUS
 62
     6
 10
23864.760010066781
 20
19206.519561000019
 30
0.0
 11
23969.375588066781
 21
19330.480973999998
 31
0.0
  0
LINE
  5
18A46
  8
0-6
  6
CONTINUOUS
 62
     6
 10
23969.375588066781
 20
19330.480973999998
 30
0.0
 11
23910.61753806677
 21
19179.289304000009
 31
0.0
  0
LINE
  5
18A47
  8
0-6
  6
CONTINUOUS
 62
     6
 10
23969.375588066781
 20
19330.480973999998
 30
0.0
 11
23864.760010066781
 21
19206.519561000019
 31
0.0
  0
LINE
  5
18A48
  8
0-6
  6
CONTINUOUS
 62
     6
 10
23864.760010066781
 20
19206.519561000019
 30
0.0
 11
23910.61753806677
 21
19179.289304000009
 31
0.0
  0
LINE
  5
18A49
  8
0-6
  6
CONTINUOUS
 62
     6
 10
23910.61753806677
 20
19179.289304000009
 30
0.0
 11
23969.375588066781
 21
19330.480973999998
 31
0.0
  0
LINE
  5
18A4A
  8
0-6
  6
CONTINUOUS
 62
     6
 10
23910.61753806677
 20
19179.289304000009
 30
0.0
 11
23864.760010066781
 21
19206.519561000019
 31
0.0
  0
LINE
  5
18A4B
  8
0-6
  6
CONTINUOUS
 62
     6
 10
23887.68877406677
 20
19192.906412000011
 30
0.0
 11
23564.835232066769
 21
18649.166309
 31
0.0
  0
TEXT
  5
18A4C
  8
0-6
  6
CONTINUOUS
 62
     7
 10
22619.79524606678
 20
18729.168553
 30
0.0
 40
160.0
  1
間柱（後）
 72
     4
 11
23041.128579400109
 21
18809.168553
 31
0.0
  0
LINE
  5
18A4D
  8
SUNPOU
  6
CONTINUOUS
 62
     4
 10
25579.469007566779
 20
14590.606507750001
 30
0.0
 11
26629.470327566771
 21
14590.606507750001
 31
0.0
  0
LINE
  5
18A4E
  8
SUNPOU
  6
CONTINUOUS
 62
     4
 10
26429.470327566782
 20
14183.106507750001
 30
0.0
 11
26629.470327566771
 21
14183.106507750001
 31
0.0
  0
LINE
  5
18A4F
  8
SUNPOU
  6
CONTINUOUS
 62
     4
 10
26549.470327566771
 20
14590.606507750001
 30
0.0
 11
26549.470327566771
 21
14183.106507750001
 31
0.0
  0
LINE
  5
18A50
  8
SUNPOU
  6
CONTINUOUS
 62
     4
 10
25579.469007566779
 20
18910.486251999992
 30
0.0
 11
26629.470327566771
 21
18910.486251999992
 31
0.0
  0
LINE
  5
18A51
  8
SUNPOU
  6
CONTINUOUS
 62
     4
 10
26429.470327566782
 20
19317.986251999992
 30
0.0
 11
26629.470327566771
 21
19317.986251999992
 31
0.0
  0
LINE
  5
18A52
  8
SUNPOU
  6
CONTINUOUS
 62
     4
 10
26549.470327566771
 20
18910.486251999992
 30
0.0
 11
26549.470327566771
 21
19317.986251999992
 31
0.0
  0
LINE
  5
18A53
  8
SUNPOU
  6
CONTINUOUS
 62
     4
 10
22188.470723566759
 20
14182.986252000001
 30
0.0
 11
22188.470723566759
 21
13131.538167999999
 31
0.0
  0
LINE
  5
18A54
  8
SUNPOU
  6
CONTINUOUS
 62
     4
 10
22145.968480566778
 20
14060.48895699999
 30
0.0
 11
22145.968480566778
 21
13131.538167999999
 31
0.0
  0
LINE
  5
18A55
  8
SUNPOU
  6
CONTINUOUS
 62
     4
 10
22188.470723566759
 20
13211.538167999999
 30
0.0
 11
22428.47072356677
 21
13211.538167999999
 31
0.0
  0
LINE
  5
18A56
  8
SUNPOU
  6
CONTINUOUS
 62
     4
 10
22145.968480566778
 20
13211.538167999999
 30
0.0
 11
21905.968480566778
 21
13211.538167999999
 31
0.0
  0
LINE
  5
18A57
  8
SUNPOU
  6
CONTINUOUS
 62
     4
 10
22188.470723566759
 20
13211.538167999999
 30
0.0
 11
22145.968480566778
 21
13211.538167999999
 31
0.0
  0
LINE
  5
18A58
  8
SUNPOU
  6
CONTINUOUS
 62
     4
 10
25456.970723566781
 20
13477.222817999989
 30
0.0
 11
25456.970723566781
 21
13131.538167999999
 31
0.0
  0
LINE
  5
18A59
  8
SUNPOU
  6
CONTINUOUS
 62
     4
 10
25499.472966566769
 20
14060.48895699999
 30
0.0
 11
25499.472966566769
 21
13131.538167999999
 31
0.0
  0
LINE
  5
18A5A
  8
SUNPOU
  6
CONTINUOUS
 62
     4
 10
25456.970723566781
 20
13211.538167999999
 30
0.0
 11
25216.970723566781
 21
13211.538167999999
 31
0.0
  0
LINE
  5
18A5B
  8
SUNPOU
  6
CONTINUOUS
 62
     4
 10
25499.472966566769
 20
13211.538167999999
 30
0.0
 11
25739.472966566769
 21
13211.538167999999
 31
0.0
  0
LINE
  5
18A5C
  8
SUNPOU
  6
CONTINUOUS
 62
     4
 10
25456.970723566781
 20
13211.538167999999
 30
0.0
 11
25499.472966566769
 21
13211.538167999999
 31
0.0
  0
LINE
  5
18A5D
  8
SUNPOU
  6
CONTINUOUS
 62
     4
 10
25456.970723566781
 20
14182.986252000001
 30
0.0
 11
25456.970723566781
 21
13131.538167999999
 31
0.0
  0
LINE
  5
18A5E
  8
SUNPOU
  6
CONTINUOUS
 62
     4
 10
25414.468480566771
 20
14060.48895699999
 30
0.0
 11
25414.468480566771
 21
13131.538167999999
 31
0.0
  0
LINE
  5
18A5F
  8
SUNPOU
  6
CONTINUOUS
 62
     4
 10
25456.970723566781
 20
13211.538167999999
 30
0.0
 11
25696.970723566781
 21
13211.538167999999
 31
0.0
  0
LINE
  5
18A60
  8
SUNPOU
  6
CONTINUOUS
 62
     4
 10
25414.468480566771
 20
13211.538167999999
 30
0.0
 11
25174.468480566771
 21
13211.538167999999
 31
0.0
  0
LINE
  5
18A61
  8
SUNPOU
  6
CONTINUOUS
 62
     4
 10
25456.970723566781
 20
13211.538167999999
 30
0.0
 11
25414.468480566771
 21
13211.538167999999
 31
0.0
  0
LINE
  5
18A62
  8
SUNPOU
  6
CONTINUOUS
 62
     4
 10
22188.470723566759
 20
14182.986252000001
 30
0.0
 11
22188.470723566759
 21
13131.538167999999
 31
0.0
  0
LINE
  5
18A63
  8
SUNPOU
  6
CONTINUOUS
 62
     4
 10
22230.972966566769
 20
14060.48895699999
 30
0.0
 11
22230.972966566769
 21
13131.538167999999
 31
0.0
  0
LINE
  5
18A64
  8
SUNPOU
  6
CONTINUOUS
 62
     4
 10
22188.470723566759
 20
13211.538167999999
 30
0.0
 11
21948.47072356677
 21
13211.538167999999
 31
0.0
  0
LINE
  5
18A65
  8
SUNPOU
  6
CONTINUOUS
 62
     4
 10
22230.972966566769
 20
13211.538167999999
 30
0.0
 11
22470.972966566769
 21
13211.538167999999
 31
0.0
  0
LINE
  5
18A66
  8
SUNPOU
  6
CONTINUOUS
 62
     4
 10
22188.470723566759
 20
13211.538167999999
 30
0.0
 11
22230.972966566769
 21
13211.538167999999
 31
0.0
  0
LINE
  5
18A67
  8
SUNPOU
  6
CONTINUOUS
 62
     4
 10
22145.968480566778
 20
14060.48895699999
 30
0.0
 11
22145.968480566778
 21
12731.538167999999
 31
0.0
  0
LINE
  5
18A68
  8
SUNPOU
  6
CONTINUOUS
 62
     4
 10
25499.472966566769
 20
14060.48895699999
 30
0.0
 11
25499.472966566769
 21
12731.538167999999
 31
0.0
  0
LINE
  5
18A69
  8
SUNPOU
  6
CONTINUOUS
 62
     4
 10
22145.968480566778
 20
12811.538167999999
 30
0.0
 11
25499.472966566769
 21
12811.538167999999
 31
0.0
  0
LINE
  5
18A6A
  8
SUNPOU
  6
CONTINUOUS
 62
     4
 10
25579.469007566779
 20
15291.726763500021
 30
0.0
 11
26629.470327566771
 21
15291.726763500021
 31
0.0
  0
LINE
  5
18A6B
  8
SUNPOU
  6
CONTINUOUS
 62
     4
 10
25579.469007566779
 20
14590.48625199999
 30
0.0
 11
26629.470327566771
 21
14590.48625199999
 31
0.0
  0
LINE
  5
18A6C
  8
SUNPOU
  6
CONTINUOUS
 62
     4
 10
26549.470327566771
 20
15291.726763500021
 30
0.0
 11
26549.470327566771
 21
14590.48625199999
 31
0.0
  0
LINE
  5
18A6D
  8
SUNPOU
  6
CONTINUOUS
 62
     4
 10
25579.469007566779
 20
15992.486252000001
 30
0.0
 11
26629.470327566771
 21
15992.486252000001
 31
0.0
  0
LINE
  5
18A6E
  8
SUNPOU
  6
CONTINUOUS
 62
     4
 10
25579.469007566779
 20
15291.726763500021
 30
0.0
 11
26629.470327566771
 21
15291.726763500021
 31
0.0
  0
LINE
  5
18A6F
  8
SUNPOU
  6
CONTINUOUS
 62
     4
 10
26549.470327566771
 20
15992.486252000001
 30
0.0
 11
26549.470327566771
 21
15291.726763500021
 31
0.0
  0
LINE
  5
18A70
  8
SUNPOU
  6
CONTINUOUS
 62
     4
 10
26429.470327566782
 20
16750.486251999992
 30
0.0
 11
26629.470327566771
 21
16750.486251999992
 31
0.0
  0
LINE
  5
18A71
  8
SUNPOU
  6
CONTINUOUS
 62
     4
 10
25579.469007566779
 20
15992.486252000001
 30
0.0
 11
26629.470327566771
 21
15992.486252000001
 31
0.0
  0
LINE
  5
18A72
  8
SUNPOU
  6
CONTINUOUS
 62
     4
 10
26549.470327566771
 20
16750.486251999992
 30
0.0
 11
26549.470327566771
 21
15992.486252000001
 31
0.0
  0
LINE
  5
18A73
  8
SUNPOU
  6
CONTINUOUS
 62
     4
 10
25579.469007566779
 20
17508.486251999981
 30
0.0
 11
26629.470327566771
 21
17508.486251999981
 31
0.0
  0
LINE
  5
18A74
  8
SUNPOU
  6
CONTINUOUS
 62
     4
 10
26429.470327566782
 20
16750.486251999992
 30
0.0
 11
26629.470327566771
 21
16750.486251999992
 31
0.0
  0
LINE
  5
18A75
  8
SUNPOU
  6
CONTINUOUS
 62
     4
 10
26549.470327566771
 20
17508.486251999981
 30
0.0
 11
26549.470327566771
 21
16750.486251999992
 31
0.0
  0
LINE
  5
18A76
  8
SUNPOU
  6
CONTINUOUS
 62
     4
 10
25579.469007566779
 20
18209.486251999981
 30
0.0
 11
26629.470327566771
 21
18209.486251999981
 31
0.0
  0
LINE
  5
18A77
  8
SUNPOU
  6
CONTINUOUS
 62
     4
 10
25579.469007566779
 20
17508.486251999981
 30
0.0
 11
26629.470327566771
 21
17508.486251999981
 31
0.0
  0
LINE
  5
18A78
  8
SUNPOU
  6
CONTINUOUS
 62
     4
 10
26549.470327566771
 20
18209.486251999981
 30
0.0
 11
26549.470327566771
 21
17508.486251999981
 31
0.0
  0
LINE
  5
18A79
  8
SUNPOU
  6
CONTINUOUS
 62
     4
 10
25579.469007566779
 20
18910.486251999992
 30
0.0
 11
26629.470327566771
 21
18910.486251999992
 31
0.0
  0
LINE
  5
18A7A
  8
SUNPOU
  6
CONTINUOUS
 62
     4
 10
25579.469007566779
 20
18209.486251999981
 30
0.0
 11
26629.470327566771
 21
18209.486251999981
 31
0.0
  0
LINE
  5
18A7B
  8
SUNPOU
  6
CONTINUOUS
 62
     4
 10
26549.470327566771
 20
18910.486251999992
 30
0.0
 11
26549.470327566771
 21
18209.486251999981
 31
0.0
  0
LINE
  5
18A7C
  8
SUNPOU
  6
CONTINUOUS
 62
     4
 10
26429.470327566782
 20
19317.986251999992
 30
0.0
 11
26629.470327566771
 21
19317.986251999992
 31
0.0
  0
LINE
  5
18A7D
  8
SUNPOU
  6
CONTINUOUS
 62
     4
 10
26429.470327566782
 20
14182.986252000001
 30
0.0
 11
26629.470327566771
 21
14182.986252000001
 31
0.0
  0
LINE
  5
18A7E
  8
SUNPOU
  6
CONTINUOUS
 62
     4
 10
25579.469007566779
 20
19360.483547
 30
0.0
 11
27029.470327566771
 21
19360.48354699996
 31
0.0
  0
LINE
  5
18A7F
  8
SUNPOU
  6
CONTINUOUS
 62
     4
 10
25579.469007566779
 20
14140.48895699999
 30
0.0
 11
27029.470327566771
 21
14140.48895699999
 31
0.0
  0
LINE
  5
18A80
  8
SUNPOU
  6
CONTINUOUS
 62
     4
 10
26949.470327566771
 20
19360.48354699996
 30
0.0
 11
26949.470327566771
 21
14140.48895699999
 31
0.0
  0
LINE
  5
18A81
  8
SUNPOU
  6
CONTINUOUS
 62
     4
 10
26429.470327566782
 20
19317.986251999992
 30
0.0
 11
26629.470327566771
 21
19317.986251999992
 31
0.0
  0
LINE
  5
18A82
  8
SUNPOU
  6
CONTINUOUS
 62
     4
 10
25579.469007566779
 20
19360.483547
 30
0.0
 11
26629.470327566771
 21
19360.483547
 31
0.0
  0
LINE
  5
18A83
  8
SUNPOU
  6
CONTINUOUS
 62
     4
 10
26549.470327566771
 20
19317.986251999992
 30
0.0
 11
26549.470327566771
 21
19077.986251999992
 31
0.0
  0
LINE
  5
18A84
  8
SUNPOU
  6
CONTINUOUS
 62
     4
 10
26549.470327566771
 20
19360.483547
 30
0.0
 11
26549.470327566771
 21
19600.483546999989
 31
0.0
  0
LINE
  5
18A85
  8
SUNPOU
  6
CONTINUOUS
 62
     4
 10
26549.470327566771
 20
19317.986251999992
 30
0.0
 11
26549.470327566771
 21
19360.483547
 31
0.0
  0
LINE
  5
18A86
  8
SUNPOU
  6
CONTINUOUS
 62
     4
 10
26429.470327566782
 20
14182.986252000001
 30
0.0
 11
26629.470327566771
 21
14182.986252000001
 31
0.0
  0
LINE
  5
18A87
  8
SUNPOU
  6
CONTINUOUS
 62
     4
 10
25579.469007566779
 20
14140.48895699999
 30
0.0
 11
26629.470327566771
 21
14140.48895699999
 31
0.0
  0
LINE
  5
18A88
  8
SUNPOU
  6
CONTINUOUS
 62
     4
 10
26549.470327566771
 20
14182.986252000001
 30
0.0
 11
26549.470327566771
 21
14422.986252000001
 31
0.0
  0
LINE
  5
18A89
  8
SUNPOU
  6
CONTINUOUS
 62
     4
 10
26549.470327566771
 20
14140.48895699999
 30
0.0
 11
26549.470327566771
 21
13900.48895699999
 31
0.0
  0
LINE
  5
18A8A
  8
SUNPOU
  6
CONTINUOUS
 62
     4
 10
26549.470327566771
 20
14182.986252000001
 30
0.0
 11
26549.470327566771
 21
14140.48895699999
 31
0.0
  0
TEXT
  5
18A8B
  8
0
  6
CONTINUOUS
 62
     7
 10
26469.470327566771
 20
13566.932720603199
 30
0.0
 40
160.0
  1
42.5
 50
90.0
  0
TEXT
  5
18A8C
  8
0
  6
CONTINUOUS
 62
     7
 10
26469.470327566771
 20
19454.03978339678
 30
0.0
 40
160.0
  1
42.5
 50
90.0
  0
TEXT
  5
18A8D
  8
0
  6
CONTINUOUS
 62
     7
 10
26869.470327566771
 20
16470.486251999999
 30
0.0
 40
160.0
  1
5220
 50
90.0
  0
TEXT
  5
18A8E
  8
0
  6
CONTINUOUS
 62
     7
 10
26469.470327566749
 20
18386.65291866667
 30
0.0
 40
160.0
  1
701
 50
90.0
  0
TEXT
  5
18A8F
  8
0
  6
CONTINUOUS
 62
     7
 10
26469.470327566749
 20
17685.65291866667
 30
0.0
 40
160.0
  1
701
 50
90.0
  0
TEXT
  5
18A90
  8
0
  6
CONTINUOUS
 62
     7
 10
26469.470327566749
 20
16916.15291866667
 30
0.0
 40
160.0
  1
758
 50
90.0
  0
TEXT
  5
18A91
  8
0
  6
CONTINUOUS
 62
     7
 10
26469.470327566749
 20
16158.15291866667
 30
0.0
 40
160.0
  1
758
 50
90.0
  0
TEXT
  5
18A92
  8
0
  6
CONTINUOUS
 62
     7
 10
26469.470327566749
 20
15468.77317441667
 30
0.0
 40
160.0
  1
701
 50
90.0
  0
TEXT
  5
18A93
  8
0
  6
CONTINUOUS
 62
     7
 10
26469.470327566749
 20
14767.77317441667
 30
0.0
 40
160.0
  1
701
 50
90.0
  0
TEXT
  5
18A94
  8
0
  6
CONTINUOUS
 62
     7
 10
23422.72072356677
 20
12891.538167999999
 30
0.0
 40
160.0
  1
3353.5
  0
TEXT
  5
18A95
  8
0
  6
CONTINUOUS
 62
     7
 10
22306.524395948862
 20
13291.538167999999
 30
0.0
 40
160.0
  1
42.5
  0
TEXT
  5
18A96
  8
0
  6
CONTINUOUS
 62
     7
 10
24858.91705118469
 20
13291.538167999999
 30
0.0
 40
160.0
  1
42.5
  0
TEXT
  5
18A97
  8
0
  6
CONTINUOUS
 62
     7
 10
25575.024395948851
 20
13291.538167999999
 30
0.0
 40
160.0
  1
42.5
  0
TEXT
  5
18A98
  8
0
  6
CONTINUOUS
 62
     7
 10
21590.417051184679
 20
13291.538167999999
 30
0.0
 40
160.0
  1
42.5
  0
TEXT
  5
18A99
  8
0
  6
CONTINUOUS
 62
     7
 10
26829.470327566771
 20
18619.864219643208
 30
0.0
 40
160.0
  1
407.5
 50
90.0
  0
TEXT
  5
18A9A
  8
0
  6
CONTINUOUS
 62
     7
 10
26829.470327566771
 20
14255.926921953551
 30
0.0
 40
160.0
  1
407.5
 50
90.0
  0
ARC
  5
18A9B
  8
0
  6
BYBLOCK
 62
     0
 10
26549.470327566771
 20
14590.606507750001
 30
0.0
 40
15.0
 50
270.0
 51
90.0
  0
ARC
  5
18A9C
  8
0
  6
BYBLOCK
 62
     0
 10
26549.470327566771
 20
14590.606507750001
 30
0.0
 40
15.0
 50
90.0
 51
270.0
  0
ARC
  5
18A9D
  8
0
  6
BYBLOCK
 62
     0
 10
26549.470327566771
 20
14183.106507750001
 30
0.0
 40
15.0
 50
90.0
 51
270.0
  0
ARC
  5
18A9E
  8
0
  6
BYBLOCK
 62
     0
 10
26549.470327566771
 20
14183.106507750001
 30
0.0
 40
15.0
 50
270.0
 51
90.0
  0
ARC
  5
18A9F
  8
0
  6
BYBLOCK
 62
     0
 10
26549.470327566771
 20
18910.486251999992
 30
0.0
 40
15.0
 50
90.0
 51
270.0
  0
ARC
  5
18AA0
  8
0
  6
BYBLOCK
 62
     0
 10
26549.470327566771
 20
18910.486251999992
 30
0.0
 40
15.0
 50
270.0
 51
90.0
  0
ARC
  5
18AA1
  8
0
  6
BYBLOCK
 62
     0
 10
26549.470327566771
 20
19317.986251999992
 30
0.0
 40
15.0
 50
270.0
 51
90.0
  0
ARC
  5
18AA2
  8
0
  6
BYBLOCK
 62
     0
 10
26549.470327566771
 20
19317.986251999992
 30
0.0
 40
15.0
 50
90.0
 51
270.0
  0
ARC
  5
18AA3
  8
0
  6
BYBLOCK
 62
     0
 10
22188.470723566759
 20
13211.538167999999
 30
0.0
 40
15.0
 50
0.0
 51
180.0
  0
ARC
  5
18AA4
  8
0
  6
BYBLOCK
 62
     0
 10
22188.470723566759
 20
13211.538167999999
 30
0.0
 40
15.0
 50
180.0
 51
0.0
  0
ARC
  5
18AA5
  8
0
  6
BYBLOCK
 62
     0
 10
22145.968480566778
 20
13211.538167999999
 30
0.0
 40
15.0
 50
180.0
 51
0.0
  0
ARC
  5
18AA6
  8
0
  6
BYBLOCK
 62
     0
 10
22145.968480566778
 20
13211.538167999999
 30
0.0
 40
15.0
 50
0.0
 51
180.0
  0
ARC
  5
18AA7
  8
0
  6
BYBLOCK
 62
     0
 10
25456.970723566781
 20
13211.538167999999
 30
0.0
 40
15.0
 50
180.0
 51
0.0
  0
ARC
  5
18AA8
  8
0
  6
BYBLOCK
 62
     0
 10
25456.970723566781
 20
13211.538167999999
 30
0.0
 40
15.0
 50
0.0
 51
180.0
  0
ARC
  5
18AA9
  8
0
  6
BYBLOCK
 62
     0
 10
25499.472966566769
 20
13211.538167999999
 30
0.0
 40
15.0
 50
0.0
 51
180.0
  0
ARC
  5
18AAA
  8
0
  6
BYBLOCK
 62
     0
 10
25499.472966566769
 20
13211.538167999999
 30
0.0
 40
15.0
 50
180.0
 51
0.0
  0
ARC
  5
18AAB
  8
0
  6
BYBLOCK
 62
     0
 10
25456.970723566781
 20
13211.538167999999
 30
0.0
 40
15.0
 50
0.0
 51
180.0
  0
ARC
  5
18AAC
  8
0
  6
BYBLOCK
 62
     0
 10
25456.970723566781
 20
13211.538167999999
 30
0.0
 40
15.0
 50
180.0
 51
0.0
  0
ARC
  5
18AAD
  8
0
  6
BYBLOCK
 62
     0
 10
25414.468480566771
 20
13211.538167999999
 30
0.0
 40
15.0
 50
180.0
 51
0.0
  0
ARC
  5
18AAE
  8
0
  6
BYBLOCK
 62
     0
 10
25414.468480566771
 20
13211.538167999999
 30
0.0
 40
15.0
 50
0.0
 51
180.0
  0
ARC
  5
18AAF
  8
0
  6
BYBLOCK
 62
     0
 10
22188.470723566759
 20
13211.538167999999
 30
0.0
 40
15.0
 50
180.0
 51
0.0
  0
ARC
  5
18AB0
  8
0
  6
BYBLOCK
 62
     0
 10
22188.470723566759
 20
13211.538167999999
 30
0.0
 40
15.0
 50
0.0
 51
180.0
  0
ARC
  5
18AB1
  8
0
  6
BYBLOCK
 62
     0
 10
22230.972966566769
 20
13211.538167999999
 30
0.0
 40
15.0
 50
0.0
 51
180.0
  0
ARC
  5
18AB2
  8
0
  6
BYBLOCK
 62
     0
 10
22230.972966566769
 20
13211.538167999999
 30
0.0
 40
15.0
 50
180.0
 51
0.0
  0
ARC
  5
18AB3
  8
0
  6
BYBLOCK
 62
     0
 10
22145.968480566778
 20
12811.538167999999
 30
0.0
 40
15.0
 50
0.0
 51
180.0
  0
ARC
  5
18AB4
  8
0
  6
BYBLOCK
 62
     0
 10
22145.968480566778
 20
12811.538167999999
 30
0.0
 40
15.0
 50
180.0
 51
0.0
  0
ARC
  5
18AB5
  8
0
  6
BYBLOCK
 62
     0
 10
25499.472966566769
 20
12811.538167999999
 30
0.0
 40
15.0
 50
180.0
 51
0.0
  0
ARC
  5
18AB6
  8
0
  6
BYBLOCK
 62
     0
 10
25499.472966566769
 20
12811.538167999999
 30
0.0
 40
15.0
 50
0.0
 51
180.0
  0
ARC
  5
18AB7
  8
0
  6
BYBLOCK
 62
     0
 10
26549.470327566771
 20
15291.726763500021
 30
0.0
 40
15.0
 50
270.0
 51
90.0
  0
ARC
  5
18AB8
  8
0
  6
BYBLOCK
 62
     0
 10
26549.470327566771
 20
15291.726763500021
 30
0.0
 40
15.0
 50
90.0
 51
270.0
  0
ARC
  5
18AB9
  8
0
  6
BYBLOCK
 62
     0
 10
26549.470327566771
 20
14590.48625199999
 30
0.0
 40
15.0
 50
90.0
 51
270.0
  0
ARC
  5
18ABA
  8
0
  6
BYBLOCK
 62
     0
 10
26549.470327566771
 20
14590.48625199999
 30
0.0
 40
15.0
 50
270.0
 51
90.0
  0
ARC
  5
18ABB
  8
0
  6
BYBLOCK
 62
     0
 10
26549.470327566771
 20
15992.486252000001
 30
0.0
 40
15.0
 50
270.0
 51
90.0
  0
ARC
  5
18ABC
  8
0
  6
BYBLOCK
 62
     0
 10
26549.470327566771
 20
15992.486252000001
 30
0.0
 40
15.0
 50
90.0
 51
270.0
  0
ARC
  5
18ABD
  8
0
  6
BYBLOCK
 62
     0
 10
26549.470327566771
 20
15291.726763500021
 30
0.0
 40
15.0
 50
90.0
 51
270.0
  0
ARC
  5
18ABE
  8
0
  6
BYBLOCK
 62
     0
 10
26549.470327566771
 20
15291.726763500021
 30
0.0
 40
15.0
 50
270.0
 51
90.0
  0
ARC
  5
18ABF
  8
0
  6
BYBLOCK
 62
     0
 10
26549.470327566771
 20
16750.486251999992
 30
0.0
 40
15.0
 50
270.0
 51
90.0
  0
ARC
  5
18AC0
  8
0
  6
BYBLOCK
 62
     0
 10
26549.470327566771
 20
16750.486251999992
 30
0.0
 40
15.0
 50
90.0
 51
270.0
  0
ARC
  5
18AC1
  8
0
  6
BYBLOCK
 62
     0
 10
26549.470327566771
 20
15992.486252000001
 30
0.0
 40
15.0
 50
90.0
 51
270.0
  0
ARC
  5
18AC2
  8
0
  6
BYBLOCK
 62
     0
 10
26549.470327566771
 20
15992.486252000001
 30
0.0
 40
15.0
 50
270.0
 51
90.0
  0
ARC
  5
18AC3
  8
0
  6
BYBLOCK
 62
     0
 10
26549.470327566771
 20
17508.486251999981
 30
0.0
 40
15.0
 50
270.0
 51
90.0
  0
ARC
  5
18AC4
  8
0
  6
BYBLOCK
 62
     0
 10
26549.470327566771
 20
17508.486251999981
 30
0.0
 40
15.0
 50
90.0
 51
270.0
  0
ARC
  5
18AC5
  8
0
  6
BYBLOCK
 62
     0
 10
26549.470327566771
 20
16750.486251999992
 30
0.0
 40
15.0
 50
90.0
 51
270.0
  0
ARC
  5
18AC6
  8
0
  6
BYBLOCK
 62
     0
 10
26549.470327566771
 20
16750.486251999992
 30
0.0
 40
15.0
 50
270.0
 51
90.0
  0
ARC
  5
18AC7
  8
0
  6
BYBLOCK
 62
     0
 10
26549.470327566771
 20
18209.486251999981
 30
0.0
 40
15.0
 50
270.0
 51
90.0
  0
ARC
  5
18AC8
  8
0
  6
BYBLOCK
 62
     0
 10
26549.470327566771
 20
18209.486251999981
 30
0.0
 40
15.0
 50
90.0
 51
270.0
  0
ARC
  5
18AC9
  8
0
  6
BYBLOCK
 62
     0
 10
26549.470327566771
 20
17508.486251999981
 30
0.0
 40
15.0
 50
90.0
 51
270.0
  0
ARC
  5
18ACA
  8
0
  6
BYBLOCK
 62
     0
 10
26549.470327566771
 20
17508.486251999981
 30
0.0
 40
15.0
 50
270.0
 51
90.0
  0
ARC
  5
18ACB
  8
0
  6
BYBLOCK
 62
     0
 10
26549.470327566771
 20
18910.486251999992
 30
0.0
 40
15.0
 50
270.0
 51
90.0
  0
ARC
  5
18ACC
  8
0
  6
BYBLOCK
 62
     0
 10
26549.470327566771
 20
18910.486251999992
 30
0.0
 40
15.0
 50
90.0
 51
270.0
  0
ARC
  5
18ACD
  8
0
  6
BYBLOCK
 62
     0
 10
26549.470327566771
 20
18209.486251999981
 30
0.0
 40
15.0
 50
90.0
 51
270.0
  0
ARC
  5
18ACE
  8
0
  6
BYBLOCK
 62
     0
 10
26549.470327566771
 20
18209.486251999981
 30
0.0
 40
15.0
 50
270.0
 51
90.0
  0
ARC
  5
18ACF
  8
0
  6
BYBLOCK
 62
     0
 10
26549.470327566771
 20
19317.986251999992
 30
0.0
 40
15.0
 50
270.0
 51
90.0
  0
ARC
  5
18AD0
  8
0
  6
BYBLOCK
 62
     0
 10
26549.470327566771
 20
19317.986251999992
 30
0.0
 40
15.0
 50
90.0
 51
270.0
  0
ARC
  5
18AD1
  8
0
  6
BYBLOCK
 62
     0
 10
26549.470327566771
 20
14182.986252000001
 30
0.0
 40
15.0
 50
90.0
 51
270.0
  0
ARC
  5
18AD2
  8
0
  6
BYBLOCK
 62
     0
 10
26549.470327566771
 20
14182.986252000001
 30
0.0
 40
15.0
 50
270.0
 51
90.0
  0
ARC
  5
18AD3
  8
0
  6
BYBLOCK
 62
     0
 10
26949.470327566771
 20
19360.48354699996
 30
0.0
 40
15.0
 50
270.0
 51
90.0
  0
ARC
  5
18AD4
  8
0
  6
BYBLOCK
 62
     0
 10
26949.470327566771
 20
19360.48354699996
 30
0.0
 40
15.0
 50
90.0
 51
270.0
  0
ARC
  5
18AD5
  8
0
  6
BYBLOCK
 62
     0
 10
26949.470327566771
 20
14140.48895699999
 30
0.0
 40
15.0
 50
90.0
 51
270.0
  0
ARC
  5
18AD6
  8
0
  6
BYBLOCK
 62
     0
 10
26949.470327566771
 20
14140.48895699999
 30
0.0
 40
15.0
 50
270.0
 51
90.0
  0
ARC
  5
18AD7
  8
0
  6
BYBLOCK
 62
     0
 10
26549.470327566771
 20
19317.986251999992
 30
0.0
 40
15.0
 50
270.0
 51
90.0
  0
ARC
  5
18AD8
  8
0
  6
BYBLOCK
 62
     0
 10
26549.470327566771
 20
19317.986251999992
 30
0.0
 40
15.0
 50
90.0
 51
270.0
  0
ARC
  5
18AD9
  8
0
  6
BYBLOCK
 62
     0
 10
26549.470327566771
 20
19360.483547
 30
0.0
 40
15.0
 50
90.0
 51
270.0
  0
ARC
  5
18ADA
  8
0
  6
BYBLOCK
 62
     0
 10
26549.470327566771
 20
19360.483547
 30
0.0
 40
15.0
 50
270.0
 51
90.0
  0
ARC
  5
18ADB
  8
0
  6
BYBLOCK
 62
     0
 10
26549.470327566771
 20
14182.986252000001
 30
0.0
 40
15.0
 50
90.0
 51
270.0
  0
ARC
  5
18ADC
  8
0
  6
BYBLOCK
 62
     0
 10
26549.470327566771
 20
14182.986252000001
 30
0.0
 40
15.0
 50
270.0
 51
90.0
  0
ARC
  5
18ADD
  8
0
  6
BYBLOCK
 62
     0
 10
26549.470327566771
 20
14140.48895699999
 30
0.0
 40
15.0
 50
270.0
 51
90.0
  0
ARC
  5
18ADE
  8
0
  6
BYBLOCK
 62
     0
 10
26549.470327566771
 20
14140.48895699999
 30
0.0
 40
15.0
 50
90.0
 51
270.0
  0
TEXT
  5
18BA7
  8
FILENAME
  6
CONTINUOUS
 10
26518.28571428571
 20
348.0
 30
0.0
 40
200.0
  1
＜VGC-3352+VKC-2852-L-1-A_0.DXF ＞
  7
FILENAME
 72
     2
 11
32764.0
 21
348.0
 31
0.0
  0
LINE
  5
18BAC
  8
WAKUSEN-01
 10
868.00000000000193
 20
827.99999999999955
 30
0.0
 11
32764.000000000011
 21
827.99999999999943
 31
0.0
  0
LINE
  5
18BAD
  8
WAKUSEN-01
 10
868.00000000000193
 20
827.99999999999955
 30
0.0
 11
868.00000000000193
 21
22484.000000000011
 31
0.0
  0
LINE
  5
18BAE
  8
WAKUSEN-01
 10
32764.000000000011
 20
827.99999999999943
 30
0.0
 11
32764.000000000011
 21
22484.000000000011
 31
0.0
  0
LINE
  5
18BAF
  8
WAKUSEN-01
 10
20560.0
 20
827.99999999999716
 30
0.0
 11
20560.0
 21
2484.0
 31
0.0
  0
LINE
  5
18BB0
  8
WAKUSEN-02
 10
26868.0
 20
827.99999999999261
 30
0.0
 11
26868.0
 21
2484.0
 31
0.0
  0
ENDSEC
  0
EOF
