  0
SECTION
  2
HEADER
  9
$ACADVER
  1
AC1009
  9
$INSBASE
 10
0.0
 20
0.0
 30
0.0
  9
$EXTMIN
 10
867.99324330406671
 20
327.38164749855792
 30
-0.0000000000000058
  9
$EXTMAX
 10
32765.33210850941
 20
22484.553276491992
 30
0.0000000000000104
  9
$LIMMIN
 10
0.0
 20
0.0
  9
$LIMMAX
 10
33600.0
 20
23760.0
  9
$ORTHOMODE
 70
     1
  9
$REGENMODE
 70
     1
  9
$FILLMODE
 70
     1
  9
$QTEXTMODE
 70
     0
  9
$MIRRTEXT
 70
     1
  9
$DRAGMODE
 70
     2
  9
$LTSCALE
 40
80.0
  9
$OSMODE
 70
  3071
  9
$ATTMODE
 70
     1
  9
$TEXTSIZE
 40
0.2
  9
$TRACEWID
 40
0.05
  9
$TEXTSTYLE
  7
00
  9
$CLAYER
  8
0
  9
$CELTYPE
  6
BYLAYER
  9
$CECOLOR
 62
   256
  9
$DIMSCALE
 40
80.0
  9
$DIMASZ
 40
3.0
  9
$DIMEXO
 40
1.0
  9
$DIMDLI
 40
0.38
  9
$DIMRND
 40
0.5
  9
$DIMDLE
 40
0.0
  9
$DIMEXE
 40
1.0
  9
$DIMTP
 40
0.0
  9
$DIMTM
 40
0.0
  9
$DIMTXT
 40
2.0
  9
$DIMCEN
 40
0.09
  9
$DIMTSZ
 40
0.0
  9
$DIMTOL
 70
     0
  9
$DIMLIM
 70
     0
  9
$DIMTIH
 70
     0
  9
$DIMTOH
 70
     0
  9
$DIMSE1
 70
     0
  9
$DIMSE2
 70
     0
  9
$DIMTAD
 70
     1
  9
$DIMZIN
 70
     8
  9
$DIMBLK
  1
DOTSMALL
  9
$DIMASO
 70
     1
  9
$DIMSHO
 70
     1
  9
$DIMPOST
  1

  9
$DIMAPOST
  1

  9
$DIMALT
 70
     0
  9
$DIMALTD
 70
     2
  9
$DIMALTF
 40
25.399999999999999
  9
$DIMLFAC
 40
1.0
  9
$DIMTOFL
 70
     1
  9
$DIMTVP
 40
0.0
  9
$DIMTIX
 70
     0
  9
$DIMSOXD
 70
     0
  9
$DIMSAH
 70
     0
  9
$DIMBLK1
  1

  9
$DIMBLK2
  1

  9
$DIMSTYLE
  2
SUNPOU
  9
$DIMCLRD
 70
     4
  9
$DIMCLRE
 70
     4
  9
$DIMCLRT
 70
     7
  9
$DIMTFAC
 40
1.0
  9
$DIMGAP
 40
1.0
  9
$LUNITS
 70
     2
  9
$LUPREC
 70
     4
  9
$SKETCHINC
 40
0.1
  9
$FILLETRAD
 40
0.0
  9
$AUNITS
 70
     0
  9
$AUPREC
 70
     0
  9
$MENU
  1
acad
  9
$ELEVATION
 40
0.0
  9
$PELEVATION
 40
0.0
  9
$THICKNESS
 40
0.0
  9
$LIMCHECK
 70
     0
  9
$BLIPMODE
 70
     1
  9
$CHAMFERA
 40
0.0
  9
$CHAMFERB
 40
0.0
  9
$SKPOLY
 70
     0
  9
$TDCREATE
 40
2311940.075052408
  9
$TDUPDATE
 40
2458942.454615104
  9
$TDINDWG
 40
0.3905912731
  9
$TDUSRTIMER
 40
0.3905905324
  9
$USRTIMER
 70
     1
  9
$ANGBASE
 50
0.0
  9
$ANGDIR
 70
     0
  9
$PDMODE
 70
     0
  9
$PDSIZE
 40
0.0
  9
$PLINEWID
 40
0.0
  9
$COORDS
 70
     1
  9
$SPLFRAME
 70
     0
  9
$SPLINETYPE
 70
     6
  9
$SPLINESEGS
 70
     8
  9
$ATTDIA
 70
     1
  9
$ATTREQ
 70
     1
  9
$HANDLING
 70
     1
  9
$HANDSEED
  5
B58D
  9
$SURFTAB1
 70
     6
  9
$SURFTAB2
 70
     6
  9
$SURFTYPE
 70
     6
  9
$SURFU
 70
     6
  9
$SURFV
 70
     6
  9
$UCSNAME
  2

  9
$UCSORG
 10
0.0
 20
0.0
 30
0.0
  9
$UCSXDIR
 10
1.0
 20
0.0
 30
0.0
  9
$UCSYDIR
 10
0.0
 20
1.0
 30
0.0
  9
$PUCSNAME
  2

  9
$PUCSORG
 10
0.0
 20
0.0
 30
0.0
  9
$PUCSXDIR
 10
1.0
 20
0.0
 30
0.0
  9
$PUCSYDIR
 10
0.0
 20
1.0
 30
0.0
  9
$USERI1
 70
     0
  9
$USERI2
 70
     0
  9
$USERI3
 70
     0
  9
$USERI4
 70
     0
  9
$USERI5
 70
     0
  9
$USERR1
 40
0.0
  9
$USERR2
 40
0.0
  9
$USERR3
 40
0.0
  9
$USERR4
 40
0.0
  9
$USERR5
 40
0.0
  9
$WORLDVIEW
 70
     1
  9
$SHADEDGE
 70
     3
  9
$SHADEDIF
 70
    70
  9
$TILEMODE
 70
     1
  9
$MAXACTVP
 70
    16
  9
$PLIMCHECK
 70
     0
  9
$PEXTMIN
 10
1.0000000000000000E+020
 20
1.0000000000000000E+020
 30
1.0000000000000000E+020
  9
$PEXTMAX
 10
-1.0000000000000000E+020
 20
-1.0000000000000000E+020
 30
-1.0000000000000000E+020
  9
$PLIMMIN
 10
0.0
 20
0.0
  9
$PLIMMAX
 10
12.0
 20
9.0
  9
$UNITMODE
 70
     0
  9
$VISRETAIN
 70
     0
  9
$PLINEGEN
 70
     1
  9
$PSLTSCALE
 70
     0
  0
ENDSEC
  0
SECTION
  2
TABLES
  0
TABLE
  2
VPORT
 70
     1
  0
VPORT
  2
*ACTIVE
 70
     0
 10
0.0
 20
0.0
 11
1.0
 21
1.0
 12
16800.0
 22
11880.0
 13
0.0
 23
0.0
 14
1.0
 24
1.0
 15
0.0
 25
0.0
 16
0.0
 26
0.0
 36
1.0
 17
0.0
 27
0.0
 37
0.0
 40
23981.023255813951
 41
2.195652173913043
 42
50.0
 43
0.0
 44
0.0
 50
0.0
 51
0.0
 71
     0
 72
 10000
 73
     1
 74
     1
 75
     0
 76
     0
 77
     0
 78
     0
  0
ENDTAB
  0
TABLE
  2
LTYPE
 70
     6
  0
LTYPE
  2
CONTINUOUS
 70
     0
  3
Solid line
 72
    65
 73
     0
 40
0.0
  0
LTYPE
  2
DASHED3
 70
     0
  3
------  ------  ------  ------  
 72
    65
 73
     2
 40
5.0
 49
3.75
 49
-1.25
  0
LTYPE
  2
CENTER2
 70
     0
  3
----------  --  ----------  --  
 72
    65
 73
     4
 40
20.0
 49
12.5
 49
-2.5
 49
2.5
 49
-2.5
  0
LTYPE
  2
HIDE-M
 70
     0
  3

 72
    65
 73
     2
 40
2.0
 49
1.0
 49
-1.0
  0
LTYPE
  2
1PL-M
 70
     0
  3

 72
    65
 73
     4
 40
15.0
 49
12.0
 49
-1.0
 49
1.0
 49
-1.0
  0
LTYPE
  2
PHANTOM2
 70
     0
  3
___ _ _ ___ _ _ ___ _ _ ___ _ _
 72
    65
 73
     6
 40
1.25
 49
0.625
 49
-0.125
 49
0.125
 49
-0.125
 49
0.125
 49
-0.125
  0
ENDTAB
  0
TABLE
  2
LAYER
 70
    24
  0
LAYER
  2
0
 70
     0
 62
     7
  6
CONTINUOUS
  0
LAYER
  2
SUNPOU
 70
     0
 62
     4
  6
CONTINUOUS
  0
LAYER
  2
0-1
 70
     0
 62
     7
  6
CONTINUOUS
  0
LAYER
  2
0-2
 70
     0
 62
     7
  6
CONTINUOUS
  0
LAYER
  2
0-5
 70
     0
 62
     7
  6
CONTINUOUS
  0
LAYER
  2
0-6
 70
     0
 62
     7
  6
CONTINUOUS
  0
LAYER
  2
2-0
 70
     0
 62
     7
  6
CONTINUOUS
  0
LAYER
  2
0-8
 70
     0
 62
     7
  6
CONTINUOUS
  0
LAYER
  2
YODOROGO
 70
     0
 62
   130
  6
CONTINUOUS
  0
LAYER
  2
WAKUSEN-01
 70
     0
 62
    50
  6
CONTINUOUS
  0
LAYER
  2
WAKUSEN-02
 70
     0
 62
   130
  6
CONTINUOUS
  0
LAYER
  2
WAKUMOJI-01
 70
     0
 62
   130
  6
CONTINUOUS
  0
LAYER
  2
FILENAME
 70
     0
 62
     7
  6
CONTINUOUS
  0
LAYER
  2
NAME
 70
     0
 62
    20
  6
CONTINUOUS
  0
LAYER
  2
0-4
 70
     0
 62
     7
  6
CONTINUOUS
  0
LAYER
  2
1-前柱P
 70
     0
 62
     3
  6
CONTINUOUS
  0
LAYER
  2
1-前柱カバ-P
 70
     0
 62
     3
  6
CONTINUOUS
  0
LAYER
  2
1-桁前P28
 70
     0
 62
     3
  6
CONTINUOUS
  0
LAYER
  2
1-後柱P
 70
     0
 62
     3
  6
CONTINUOUS
  0
LAYER
  2
1-中柱P
 70
     0
 62
     3
  6
CONTINUOUS
  0
LAYER
  2
1-後柱カバ-P
 70
     0
 62
     7
  6
CONTINUOUS
  0
LAYER
  2
1-中柱カバ-P
 70
     0
 62
     7
  6
CONTINUOUS
  0
ENDTAB
  0
TABLE
  2
STYLE
 70
     5
  0
STYLE
  2
STANDARD
 70
     0
 40
0.0
 41
1.0
 50
0.0
 71
     0
 42
0.0
  3
txt
  4
BIGFONT
  0
STYLE
  2
00
 70
     0
 40
0.0
 41
0.6666666666666666
 50
0.0
 71
     0
 42
0.2
  3
ROMANS
  4
BIGFONT
  0
STYLE
  2
01
 70
     0
 40
3.0
 41
1.0
 50
0.0
 71
     0
 42
0.2
  3
ROMANS
  4
BIGFONT
  0
STYLE
  2
WAKUMOJI
 70
     0
 40
3.0
 41
1.0
 50
0.0
 71
     0
 42
3.0
  3
SIMPLEX
  4
BIGFONT
  0
STYLE
  2
FILENAME
 70
     0
 40
200.0
 41
1.0
 50
0.0
 71
     0
 42
200.0
  3
romans
  4
bigfont
  0
ENDTAB
  0
TABLE
  2
VIEW
 70
     0
  0
ENDTAB
  0
TABLE
  2
UCS
 70
     0
  0
ENDTAB
  0
TABLE
  2
APPID
 70
    17
  0
APPID
  2
ACAD
 70
     0
  0
APPID
  2
ACADANNOTATIVE
 70
     0
  0
APPID
  2
ACAD_PSEXT
 70
     0
  0
APPID
  2
DCO15
 70
     0
  0
APPID
  2
ACAD_MLEADERVER
 70
     0
  0
APPID
  2
AUTOCAD_POSTSCRIPT_FIGURE
 70
     0
  0
APPID
  2
ACAD_EXEMPT_FROM_CAD_STANDARDS
 70
     0
  0
APPID
  2
ACLAYERTOOLS
 70
     0
  0
APPID
  2
ACAD_DSTYLE_DIMJAG
 70
     0
  0
APPID
  2
ACAD_DSTYLE_DIMTALN
 70
     0
  0
APPID
  2
ACAECLAYERSTANDARD
 70
     0
  0
APPID
  2
ACAD_DSTYLE_DIMBREAK
 70
     0
  0
APPID
  2
ACAD_DSTYLE_DIM_LINETYPE
 70
     0
  0
APPID
  2
ACAD_DSTYLE_DIM_EXT1_LINETYPE
 70
     0
  0
APPID
  2
ACAD_DSTYLE_DIM_EXT2_LINETYPE
 70
     0
  0
APPID
  2
ACAD_DSTYLE_DIMFLIPARROW_W
 70
     0
  0
APPID
  2
ACAD_NAV_VCDISPLAY
 70
     0
  0
ENDTAB
  0
TABLE
  2
DIMSTYLE
 70
     2
  0
DIMSTYLE
  2
SUNPOU
 70
     0
  3

  4

  5

  6

  7

 40
80.0
 41
3.0
 42
1.0
 43
0.38
 44
1.0
 45
0.5
 46
0.0
 47
0.0
 48
0.0
140
2.0
141
0.09
142
0.0
143
25.399999999999999
144
1.0
145
0.0
146
1.0
147
1.0
 71
     0
 72
     0
 73
     0
 74
     0
 75
     0
 76
     0
 77
     1
 78
     8
170
     0
171
     2
172
     1
173
     0
174
     0
175
     0
176
     4
177
     4
178
     7
  0
ENDTAB
  0
ENDSEC
  0
SECTION
  2
BLOCKS
  0
BLOCK
  8
0
  2
$MODEL_SPACE
 70
     0
 10
0.0
 20
0.0
 30
0.0
  3
$MODEL_SPACE
  1

  0
ENDBLK
  5
A49D
  8
0
  0
BLOCK
 67
     1
  8
0
  2
$PAPER_SPACE
 70
     0
 10
0.0
 20
0.0
 30
0.0
  3
$PAPER_SPACE
  1

  0
ENDBLK
  5
A499
 67
     1
  8
0
  0
BLOCK
  8
0
  2
_DOTSMALL
 70
     0
 10
0.0
 20
0.0
 30
0.0
  3
_DOTSMALL
  1

  0
POLYLINE
  5
A4D9
  8
0
  6
BYBLOCK
 62
     0
 66
     1
 10
0.0
 20
0.0
 30
0.0
 70
     1
 40
0.5
 41
0.5
  0
VERTEX
  5
B555
  8
0
  6
BYBLOCK
 62
     0
 10
-0.0625
 20
0.0
 30
0.0
 42
1.0
  0
VERTEX
  5
B556
  8
0
  6
BYBLOCK
 62
     0
 10
0.0625
 20
0.0
 30
0.0
 42
1.0
  0
SEQEND
  5
B557
  8
0
  6
BYBLOCK
 62
     0
  0
ENDBLK
  5
A4DD
  8
0
  0
ENDSEC
  0
SECTION
  2
ENTITIES
  0
LINE
  5
A4DE
  8
0-1
  6
CONTINUOUS
 62
     3
 10
19125.50683358515
 20
8132.6883740000021
 30
0.0
 11
21958.510264585151
 21
8132.6883740000021
 31
0.0
  0
LINE
  5
A4DF
  8
0-1
  6
CONTINUOUS
 62
     3
 10
19125.50683358515
 20
8325.6887430000024
 30
0.0
 11
21958.510264585151
 21
8325.6887430000024
 31
0.0
  0
LINE
  5
A4E0
  8
0-1
  6
CONTINUOUS
 62
     3
 10
18997.51052858515
 20
8263.5026620000008
 30
0.0
 11
18997.51052858515
 21
8589.1883999999973
 31
0.0
  0
LINE
  5
A4E1
  8
0-1
  6
CONTINUOUS
 62
     3
 10
22043.508813585151
 20
8459.1884659999978
 30
0.0
 11
18997.51052858515
 21
8459.1884659999978
 31
0.0
  0
LINE
  5
A4E2
  8
0-1
  6
CONTINUOUS
 62
     3
 10
18997.51052858515
 20
8589.1883999999973
 30
0.0
 11
22023.511716585152
 21
8589.1883999999973
 31
0.0
  0
LINE
  5
A4E3
  8
0-1
  6
CONTINUOUS
 62
     3
 10
6612.7335314709408
 20
6291.1885390000007
 30
0.0
 11
6612.7335314709408
 21
8152.234418
 31
0.0
  0
LINE
  5
A4E4
  8
0-1
  6
CONTINUOUS
 62
     3
 10
6632.7345874709363
 20
6291.1885390000007
 30
0.0
 11
6632.7345874709363
 21
8152.234418
 31
0.0
  0
LINE
  5
A4E5
  8
0-1
  6
CONTINUOUS
 62
     3
 10
6562.7338614709488
 20
6291.1885390000007
 30
0.0
 11
6562.7338614709488
 21
8152.234418
 31
0.0
  0
LINE
  5
A4E6
  8
0-1
  6
CONTINUOUS
 62
     3
 10
6682.7332674709432
 20
6291.1885390000007
 30
0.0
 11
6682.7332674709432
 21
8152.234418
 31
0.0
  0
LINE
  5
A4E7
  8
0-1
  6
CONTINUOUS
 62
     3
 10
6815.7341514709333
 20
6291.1885390000007
 30
0.0
 11
6815.7341514709333
 21
8152.234418
 31
0.0
  0
LINE
  5
A4E8
  8
0-1
  6
CONTINUOUS
 62
     3
 10
6830.7339534709436
 20
6291.1885390000007
 30
0.0
 11
6830.7339534709436
 21
8152.234418
 31
0.0
  0
LINE
  5
A4E9
  8
0-1
  6
CONTINUOUS
 62
     3
 10
6429.7339664709443
 20
6291.1885390000007
 30
0.0
 11
6429.7339664709443
 21
8152.234418
 31
0.0
  0
LINE
  5
A4EA
  8
0-1
  6
CONTINUOUS
 62
     3
 10
6414.7341644709459
 20
6291.1885390000007
 30
0.0
 11
6414.7341644709459
 21
8152.234418
 31
0.0
  0
LINE
  5
A4EB
  8
0-1
  6
CONTINUOUS
 62
     3
 10
7691.2336504709447
 20
8152.234418
 30
0.0
 11
7691.2336504709447
 21
6291.1885390000007
 31
0.0
  0
LINE
  5
A4EC
  8
0-1
  6
CONTINUOUS
 62
     3
 10
7654.2354584709419
 20
8152.234418
 30
0.0
 11
7654.2354584709419
 21
6291.1885390000007
 31
0.0
  0
LINE
  5
A4ED
  8
0-1
  6
CONTINUOUS
 62
     3
 10
6991.234309470944
 20
8152.234418
 30
0.0
 11
6991.234309470944
 21
6291.1885390000007
 31
0.0
  0
LINE
  5
A4EE
  8
0-1
  6
CONTINUOUS
 62
     3
 10
6954.2341384709289
 20
8152.234418
 30
0.0
 11
6954.2341384709289
 21
6291.1885390000007
 31
0.0
  0
LINE
  5
A4EF
  8
0-1
  6
CONTINUOUS
 62
     3
 10
8391.2329904709331
 20
8152.234418
 30
0.0
 11
8391.2329904709331
 21
6291.1885390000007
 31
0.0
  0
LINE
  5
A4F0
  8
0-1
  6
CONTINUOUS
 62
     3
 10
8354.2347984709304
 20
8152.234418
 30
0.0
 11
8354.2347984709304
 21
6291.1885390000007
 31
0.0
  0
LINE
  5
A4F1
  8
0-1
  6
CONTINUOUS
 62
     3
 10
8012.7332014709327
 20
6291.1885390000007
 30
0.0
 11
8012.7332014709327
 21
8152.234418
 31
0.0
  0
LINE
  5
A4F2
  8
0-1
  6
CONTINUOUS
 62
     3
 10
8032.7342574709428
 20
6291.1885390000007
 30
0.0
 11
8032.7342574709428
 21
8152.234418
 31
0.0
  0
LINE
  5
A4F3
  8
0-1
  6
CONTINUOUS
 62
     3
 10
7962.7345214709421
 20
6291.1885390000007
 30
0.0
 11
7962.7345214709421
 21
8152.234418
 31
0.0
  0
LINE
  5
A4F4
  8
0-1
  6
CONTINUOUS
 62
     3
 10
8082.7339274709448
 20
6291.1885390000007
 30
0.0
 11
8082.7339274709448
 21
8152.234418
 31
0.0
  0
LINE
  5
A4F5
  8
0-1
  6
CONTINUOUS
 62
     3
 10
8215.7338214709325
 20
6291.1885390000007
 30
0.0
 11
8215.7338214709325
 21
8152.234418
 31
0.0
  0
LINE
  5
A4F6
  8
0-1
  6
CONTINUOUS
 62
     3
 10
8230.7336234709437
 20
6291.1885390000007
 30
0.0
 11
8230.7336234709437
 21
8152.234418
 31
0.0
  0
LINE
  5
A4F7
  8
0-1
  6
CONTINUOUS
 62
     3
 10
7829.7336364709399
 20
6291.1885390000007
 30
0.0
 11
7829.7336364709399
 21
8152.234418
 31
0.0
  0
LINE
  5
A4F8
  8
0-1
  6
CONTINUOUS
 62
     3
 10
7814.7348244709428
 20
6291.1885390000007
 30
0.0
 11
7814.7348244709428
 21
8152.234418
 31
0.0
  0
LINE
  5
A4F9
  8
0-1
  6
CONTINUOUS
 62
     3
 10
7114.7335044709444
 20
6291.1885390000007
 30
0.0
 11
7114.7335044709444
 21
8152.234418
 31
0.0
  0
LINE
  5
A4FA
  8
0-1
  6
CONTINUOUS
 62
     3
 10
7129.7342964709323
 20
6291.1885390000007
 30
0.0
 11
7129.7342964709323
 21
8152.234418
 31
0.0
  0
LINE
  5
A4FB
  8
0-1
  6
CONTINUOUS
 62
     3
 10
7530.7342834709407
 20
6291.1885390000007
 30
0.0
 11
7530.7342834709407
 21
8152.234418
 31
0.0
  0
LINE
  5
A4FC
  8
0-1
  6
CONTINUOUS
 62
     3
 10
7515.7334914709427
 20
6291.1885390000007
 30
0.0
 11
7515.7334914709427
 21
8152.234418
 31
0.0
  0
LINE
  5
A4FD
  8
0-1
  6
CONTINUOUS
 62
     3
 10
7382.7345874709317
 20
6291.1885390000007
 30
0.0
 11
7382.7345874709317
 21
8152.234418
 31
0.0
  0
LINE
  5
A4FE
  8
0-1
  6
CONTINUOUS
 62
     3
 10
7262.7332014709418
 20
6291.1885390000007
 30
0.0
 11
7262.7332014709418
 21
8152.234418
 31
0.0
  0
LINE
  5
A4FF
  8
0-1
  6
CONTINUOUS
 62
     3
 10
7332.7359064709472
 20
6291.1885390000007
 30
0.0
 11
7332.7359064709472
 21
8152.234418
 31
0.0
  0
LINE
  5
A500
  8
0-1
  6
CONTINUOUS
 62
     3
 10
7312.7348514709456
 20
6291.1885390000007
 30
0.0
 11
7312.7348514709456
 21
8152.234418
 31
0.0
  0
LINE
  5
A501
  8
0-1
  6
CONTINUOUS
 62
     3
 10
8514.7331754709376
 20
6291.1885390000007
 30
0.0
 11
8514.7331754709376
 21
8152.234418
 31
0.0
  0
LINE
  5
A502
  8
0-1
  6
CONTINUOUS
 62
     3
 10
8529.7339664709398
 20
6291.1885390000007
 30
0.0
 11
8529.7339664709398
 21
8152.234418
 31
0.0
  0
LINE
  5
A503
  8
0-1
  6
CONTINUOUS
 62
     3
 10
8662.7348514709429
 20
6291.1885390000007
 30
0.0
 11
8662.7348514709429
 21
8152.234418
 31
0.0
  0
LINE
  5
A504
  8
0-1
  6
CONTINUOUS
 62
     3
 10
8930.7339534709445
 20
6291.1885390000007
 30
0.0
 11
8930.7339534709445
 21
8152.234418
 31
0.0
  0
LINE
  5
A505
  8
0-1
  6
CONTINUOUS
 62
     3
 10
8915.735141470941
 20
6291.1885390000007
 30
0.0
 11
8915.735141470941
 21
8152.234418
 31
0.0
  0
LINE
  5
A506
  8
0-1
  6
CONTINUOUS
 62
     3
 10
8782.734257470931
 20
6291.1885390000007
 30
0.0
 11
8782.734257470931
 21
8152.234418
 31
0.0
  0
LINE
  5
A507
  8
0-1
  6
CONTINUOUS
 62
     3
 10
8732.7345874709335
 20
6291.1885390000007
 30
0.0
 11
8732.7345874709335
 21
8152.234418
 31
0.0
  0
LINE
  5
A508
  8
0-1
  6
CONTINUOUS
 62
     3
 10
8712.7355104709422
 20
6291.1885390000007
 30
0.0
 11
8712.7355104709422
 21
8152.234418
 31
0.0
  0
LINE
  5
A509
  8
0-1
  6
CONTINUOUS
 62
     3
 10
9540.7344814709359
 20
6291.1885390000007
 30
0.0
 11
9540.7344814709359
 21
8152.234418
 31
0.0
  0
LINE
  5
A50A
  8
0-1
  6
CONTINUOUS
 62
     3
 10
9520.7354054709413
 20
6291.1885390000007
 30
0.0
 11
9520.7354054709413
 21
8152.234418
 31
0.0
  0
LINE
  5
A50B
  8
0-1
  6
CONTINUOUS
 62
     3
 10
9590.7351414709337
 20
6291.1885390000007
 30
0.0
 11
9590.7351414709337
 21
8152.234418
 31
0.0
  0
LINE
  5
A50C
  8
0-1
  6
CONTINUOUS
 62
     3
 10
9470.7347454709434
 20
6291.1885390000007
 30
0.0
 11
9470.7347454709434
 21
8152.234418
 31
0.0
  0
LINE
  5
A50D
  8
0-1
  6
CONTINUOUS
 62
     3
 10
9337.734851470932
 20
6291.1885390000007
 30
0.0
 11
9337.734851470932
 21
8152.234418
 31
0.0
  0
LINE
  5
A50E
  8
0-1
  6
CONTINUOUS
 62
     3
 10
9322.7330694709308
 20
6291.1885390000007
 30
0.0
 11
9322.7330694709308
 21
8152.234418
 31
0.0
  0
LINE
  5
A50F
  8
0-1
  6
CONTINUOUS
 62
     3
 10
9723.7350354709433
 20
6291.1885390000007
 30
0.0
 11
9723.7350354709433
 21
8152.234418
 31
0.0
  0
LINE
  5
A510
  8
0-1
  6
CONTINUOUS
 62
     3
 10
9738.7338484709435
 20
6291.1885390000007
 30
0.0
 11
9738.7338484709435
 21
8152.234418
 31
0.0
  0
LINE
  5
A511
  8
0-1
  6
CONTINUOUS
 62
     3
 10
11838.73384847094
 20
6291.1885390000007
 30
0.0
 11
11838.73384847094
 21
8152.234418
 31
0.0
  0
LINE
  5
A512
  8
0-1
  6
CONTINUOUS
 62
     3
 10
11823.735035470931
 20
6291.1885390000007
 30
0.0
 11
11823.735035470931
 21
8152.234418
 31
0.0
  0
LINE
  5
A513
  8
0-1
  6
CONTINUOUS
 62
     3
 10
11422.73405947092
 20
6291.1885390000007
 30
0.0
 11
11422.73405947092
 21
8152.234418
 31
0.0
  0
LINE
  5
A514
  8
0-1
  6
CONTINUOUS
 62
     3
 10
11437.733861470941
 20
6291.1885390000007
 30
0.0
 11
11437.733861470941
 21
8152.234418
 31
0.0
  0
LINE
  5
A515
  8
0-1
  6
CONTINUOUS
 62
     3
 10
11570.73474547094
 20
6291.1885390000007
 30
0.0
 11
11570.73474547094
 21
8152.234418
 31
0.0
  0
LINE
  5
A516
  8
0-1
  6
CONTINUOUS
 62
     3
 10
11690.734151470941
 20
6291.1885390000007
 30
0.0
 11
11690.734151470941
 21
8152.234418
 31
0.0
  0
LINE
  5
A517
  8
0-1
  6
CONTINUOUS
 62
     3
 10
11620.735405470939
 20
6291.1885390000007
 30
0.0
 11
11620.735405470939
 21
8152.234418
 31
0.0
  0
LINE
  5
A518
  8
0-1
  6
CONTINUOUS
 62
     3
 10
11640.734481470939
 20
6291.1885390000007
 30
0.0
 11
11640.734481470939
 21
8152.234418
 31
0.0
  0
LINE
  5
A519
  8
0-1
  6
CONTINUOUS
 62
     3
 10
10940.73514147093
 20
6291.1885390000007
 30
0.0
 11
10940.73514147093
 21
8152.234418
 31
0.0
  0
LINE
  5
A51A
  8
0-1
  6
CONTINUOUS
 62
     3
 10
10920.73408547094
 20
6291.1885390000007
 30
0.0
 11
10920.73408547094
 21
8152.234418
 31
0.0
  0
LINE
  5
A51B
  8
0-1
  6
CONTINUOUS
 62
     3
 10
10990.73382147094
 20
6291.1885390000007
 30
0.0
 11
10990.73382147094
 21
8152.234418
 31
0.0
  0
LINE
  5
A51C
  8
0-1
  6
CONTINUOUS
 62
     3
 10
10870.73540547093
 20
6291.1885390000007
 30
0.0
 11
10870.73540547093
 21
8152.234418
 31
0.0
  0
LINE
  5
A51D
  8
0-1
  6
CONTINUOUS
 62
     3
 10
10737.73452147094
 20
6291.1885390000007
 30
0.0
 11
10737.73452147094
 21
8152.234418
 31
0.0
  0
LINE
  5
A51E
  8
0-1
  6
CONTINUOUS
 62
     3
 10
10722.73471947092
 20
6291.1885390000007
 30
0.0
 11
10722.73471947092
 21
8152.234418
 31
0.0
  0
LINE
  5
A51F
  8
0-1
  6
CONTINUOUS
 62
     3
 10
11123.73272647094
 20
6291.1885390000007
 30
0.0
 11
11123.73272647094
 21
8152.234418
 31
0.0
  0
LINE
  5
A520
  8
0-1
  6
CONTINUOUS
 62
     3
 10
11138.73450747093
 20
6291.1885390000007
 30
0.0
 11
11138.73450747093
 21
8152.234418
 31
0.0
  0
LINE
  5
A521
  8
0-1
  6
CONTINUOUS
 62
     3
 10
10438.735167470941
 20
6291.1885390000007
 30
0.0
 11
10438.735167470941
 21
8152.234418
 31
0.0
  0
LINE
  5
A522
  8
0-1
  6
CONTINUOUS
 62
     3
 10
10423.73338647094
 20
6291.1885390000007
 30
0.0
 11
10423.73338647094
 21
8152.234418
 31
0.0
  0
LINE
  5
A523
  8
0-1
  6
CONTINUOUS
 62
     3
 10
10022.73537847093
 20
6291.1885390000007
 30
0.0
 11
10022.73537847093
 21
8152.234418
 31
0.0
  0
LINE
  5
A524
  8
0-1
  6
CONTINUOUS
 62
     3
 10
10037.73419147093
 20
6291.1885390000007
 30
0.0
 11
10037.73419147093
 21
8152.234418
 31
0.0
  0
LINE
  5
A525
  8
0-1
  6
CONTINUOUS
 62
     3
 10
10170.73309547094
 20
6291.1885390000007
 30
0.0
 11
10170.73309547094
 21
8152.234418
 31
0.0
  0
LINE
  5
A526
  8
0-1
  6
CONTINUOUS
 62
     3
 10
10290.734481470939
 20
6291.1885390000007
 30
0.0
 11
10290.734481470939
 21
8152.234418
 31
0.0
  0
LINE
  5
A527
  8
0-1
  6
CONTINUOUS
 62
     3
 10
10220.734745470931
 20
6291.1885390000007
 30
0.0
 11
10220.734745470931
 21
8152.234418
 31
0.0
  0
LINE
  5
A528
  8
0-1
  6
CONTINUOUS
 62
     3
 10
10240.73382147094
 20
6291.1885390000007
 30
0.0
 11
10240.73382147094
 21
8152.234418
 31
0.0
  0
LINE
  5
A529
  8
0-1
  6
CONTINUOUS
 62
     3
 10
9899.2351944709444
 20
8152.234418
 30
0.0
 11
9899.2351944709444
 21
6291.1885390000007
 31
0.0
  0
LINE
  5
A52A
  8
0-1
  6
CONTINUOUS
 62
     3
 10
9862.2340324709439
 20
8152.234418
 30
0.0
 11
9862.2340324709439
 21
6291.1885390000007
 31
0.0
  0
LINE
  5
A52B
  8
0-1
  6
CONTINUOUS
 62
     3
 10
11299.23288447093
 20
8152.234418
 30
0.0
 11
11299.23288447093
 21
6291.1885390000007
 31
0.0
  0
LINE
  5
A52C
  8
0-1
  6
CONTINUOUS
 62
     3
 10
11262.23370247093
 20
8152.234418
 30
0.0
 11
11262.23370247093
 21
6291.1885390000007
 31
0.0
  0
LINE
  5
A52D
  8
0-1
  6
CONTINUOUS
 62
     3
 10
10599.23453447093
 20
8152.234418
 30
0.0
 11
10599.23453447093
 21
6291.1885390000007
 31
0.0
  0
LINE
  5
A52E
  8
0-1
  6
CONTINUOUS
 62
     3
 10
10562.23436247093
 20
8152.234418
 30
0.0
 11
10562.23436247093
 21
6291.1885390000007
 31
0.0
  0
LINE
  5
A52F
  8
0-1
  6
CONTINUOUS
 62
     3
 10
11999.235194470921
 20
8152.234418
 30
0.0
 11
11999.235194470921
 21
6291.1885390000007
 31
0.0
  0
LINE
  5
A530
  8
0-1
  6
CONTINUOUS
 62
     3
 10
11962.23403247094
 20
8152.234418
 30
0.0
 11
11962.23403247094
 21
6291.1885390000007
 31
0.0
  0
LINE
  5
A531
  8
0-1
  6
CONTINUOUS
 62
     3
 10
4985.7433209367073
 20
16684.985315999991
 30
0.0
 11
7903.7433209367064
 21
16684.985315999991
 31
0.0
  0
LINE
  5
A561
  8
0-1
  6
CONTINUOUS
 62
     3
 10
7850.7436899367203
 20
13424.98635799998
 30
0.0
 11
7850.7436899367203
 21
17768.23311058123
 31
0.0
  0
LINE
  5
A562
  8
0-1
  6
CONTINUOUS
 62
     3
 10
5035.743940936718
 20
13300.986344000001
 30
0.0
 11
5035.743940936718
 21
18933.19915196484
 31
0.0
  0
LINE
  5
A563
  8
0-1
  6
CONTINUOUS
 62
     3
 10
4900.2433209367091
 20
13268.986437
 30
0.0
 11
4900.2433209367091
 21
18989.10749151139
 31
0.0
  0
LINE
  5
A6A7
  8
0-1
  6
CONTINUOUS
 62
     3
 10
4943.2440469367193
 20
13424.98635799998
 30
0.0
 11
12946.24457493672
 21
13424.98635799998
 31
0.0
  0
LINE
  5
A6A8
  8
0-1
  6
CONTINUOUS
 62
     3
 10
4985.7433209367082
 20
13503.985975
 30
0.0
 11
12903.743320936699
 21
13503.985975
 31
0.0
  0
LINE
  5
A6A9
  8
0-1
  6
CONTINUOUS
 62
     3
 10
4900.2433209367091
 20
13268.98643699999
 30
0.0
 11
12989.243320936699
 21
13268.986437
 31
0.0
  0
LINE
  5
A6AA
  8
0-1
  6
CONTINUOUS
 62
     3
 10
4900.2433209367091
 20
13300.986344000001
 30
0.0
 11
12989.243320936699
 21
13300.986344000001
 31
0.0
  0
LINE
  5
A6AB
  8
0-1
  6
CONTINUOUS
 62
     3
 10
7903.7433209367064
 20
13424.98635799998
 30
0.0
 11
7903.7433209367064
 21
17746.365060417251
 31
0.0
  0
LINE
  5
A6AC
  8
0-1
  6
CONTINUOUS
 62
     3
 10
7946.2445749367171
 20
13424.98635799998
 30
0.0
 11
7946.2445749367171
 21
17728.828720315101
 31
0.0
  0
LINE
  5
A6AD
  8
0-1
  6
CONTINUOUS
 62
     3
 10
4985.7433209367082
 20
13424.98635799998
 30
0.0
 11
4985.7433209367082
 21
18955.067610197751
 31
0.0
  0
LINE
  5
A6AE
  8
0-1
  6
CONTINUOUS
 62
     3
 10
4943.2440469367193
 20
13424.98635799998
 30
0.0
 11
4943.2440469367139
 21
18972.603133336848
 31
0.0
  0
LINE
  5
A6AF
  8
0-1
  6
CONTINUOUS
 62
     3
 10
6356.2447719367192
 20
18394.87481651704
 30
0.0
 11
6356.2447719367192
 21
19812.485685
 31
0.0
  0
LINE
  5
A6B0
  8
0-1
  6
CONTINUOUS
 62
     3
 10
6393.2449439367201
 20
18379.60826461648
 30
0.0
 11
6393.2449439367201
 21
19812.485685
 31
0.0
  0
LINE
  5
A6B1
  8
0-1
  6
CONTINUOUS
 62
     3
 10
6556.2444429367197
 20
18312.353433713281
 30
0.0
 11
6556.2444429367197
 21
19812.485685
 31
0.0
  0
LINE
  5
A6B2
  8
0-1
  6
CONTINUOUS
 62
     3
 10
6593.2456039367089
 20
18297.08647374381
 30
0.0
 11
6593.2456039367089
 21
19812.485685
 31
0.0
  0
LINE
  5
A6B3
  8
0-1
  6
CONTINUOUS
 62
     3
 10
6756.2441129367126
 20
18219.831946322141
 30
0.0
 11
6756.2441129367126
 21
19812.485685
 31
0.0
  0
LINE
  5
A6B4
  8
0-1
  6
CONTINUOUS
 62
     3
 10
6793.24329393672
 20
18204.565803315701
 30
0.0
 11
6793.24329393672
 21
19812.485685
 31
0.0
  0
LINE
  5
A6B5
  8
0-1
  6
CONTINUOUS
 62
     3
 10
6956.2447719367174
 20
18137.31015586208
 30
0.0
 11
6956.2447719367201
 21
19812.485685
 31
0.0
  0
LINE
  5
A6B6
  8
0-1
  6
CONTINUOUS
 62
     3
 10
6993.2449439367192
 20
18122.043603961509
 30
0.0
 11
6993.2449439367192
 21
19812.485685
 31
0.0
  0
LINE
  5
A6B7
  8
0-1
  6
CONTINUOUS
 62
     3
 10
7156.2444429367233
 20
18054.788773058321
 30
0.0
 11
7156.2444429367233
 21
19812.485685
 31
0.0
  0
LINE
  5
A6B8
  8
0-1
  6
CONTINUOUS
 62
     3
 10
7193.2456039367089
 20
18039.521813088861
 30
0.0
 11
7193.2456039367089
 21
19812.485685
 31
0.0
  0
LINE
  5
A6B9
  8
0-1
  6
CONTINUOUS
 62
     3
 10
7356.2441129367198
 20
17972.267390667181
 30
0.0
 11
7356.2441129367198
 21
19812.485685
 31
0.0
  0
LINE
  5
A6BA
  8
0-1
  6
CONTINUOUS
 62
     3
 10
7393.2442839367068
 20
17957.000839179222
 30
0.0
 11
7393.2442839367113
 21
19812.485685
 31
0.0
  0
LINE
  5
A6BB
  8
0-1
  6
CONTINUOUS
 62
     3
 10
7556.244771936711
 20
17889.745600207119
 30
0.0
 11
7556.244771936711
 21
19812.485685
 31
0.0
  0
LINE
  5
A6BC
  8
0-1
  6
CONTINUOUS
 62
     3
 10
7593.2449439367174
 20
17874.479048306552
 30
0.0
 11
7593.2449439367174
 21
19812.485685
 31
0.0
  0
LINE
  5
A6BD
  8
0-1
  6
CONTINUOUS
 62
     3
 10
6156.2441129367207
 20
18477.396606977101
 30
0.0
 11
6156.2441129367226
 21
19812.485685
 31
0.0
  0
LINE
  5
A6BE
  8
0-1
  6
CONTINUOUS
 62
     3
 10
6193.2432939367209
 20
18462.13046397065
 30
0.0
 11
6193.2432939367209
 21
19812.485685
 31
0.0
  0
LINE
  5
A6C3
  8
0-1
  6
CONTINUOUS
 62
     3
 10
22051.009209585161
 20
6241.1883740000012
 30
0.0
 11
21951.009868585159
 21
6241.1883740000012
 31
0.0
  0
LINE
  5
A6C4
  8
0-1
  6
CONTINUOUS
 62
     3
 10
21951.009868585159
 20
6241.1883740000012
 30
0.0
 11
21951.009868585159
 21
6141.1885389999998
 31
0.0
  0
LINE
  5
A6C5
  8
0-1
  6
CONTINUOUS
 62
     3
 10
22051.009209585161
 20
6141.1885389999998
 30
0.0
 11
22051.009209585161
 21
6241.1883740000012
 31
0.0
  0
LINE
  5
A6C6
  8
0-1
  6
CONTINUOUS
 62
     3
 10
21958.510264585151
 20
8459.1884659999978
 30
0.0
 11
21958.510264585151
 21
6241.1883740000012
 31
0.0
  0
LINE
  5
A6C7
  8
0-1
  6
CONTINUOUS
 62
     3
 10
21907.010528585161
 20
8132.6883740000021
 30
0.0
 11
21907.010528585161
 21
6141.1885389999998
 31
0.0
  0
LINE
  5
A6C8
  8
0-1
  6
CONTINUOUS
 62
     3
 10
22023.511716585152
 20
8589.1883999999973
 30
0.0
 11
22023.511716585152
 21
6241.1883740000012
 31
0.0
  0
LINE
  5
A6C9
  8
0-1
  6
CONTINUOUS
 62
     3
 10
22043.510528585161
 20
8459.1884659999978
 30
0.0
 11
22043.510528585161
 21
6241.1883740000021
 31
0.0
  0
LINE
  5
A6CA
  8
0-1
  6
CONTINUOUS
 62
     3
 10
18997.51052858515
 20
8263.5026620000008
 30
0.0
 11
19040.51052858515
 21
8263.5026620000008
 31
0.0
  0
LINE
  5
A6CB
  8
0-1
  6
CONTINUOUS
 62
     3
 10
19033.007889585158
 20
6241.1883740000012
 30
0.0
 11
19133.00722958515
 21
6241.1883740000012
 31
0.0
  0
LINE
  5
A6CC
  8
0-1
  6
CONTINUOUS
 62
     3
 10
19133.00722958515
 20
6241.1883740000012
 30
0.0
 11
19133.00722958515
 21
6141.1885389999998
 31
0.0
  0
LINE
  5
A6CD
  8
0-1
  6
CONTINUOUS
 62
     3
 10
19033.007889585158
 20
6141.1885389999998
 30
0.0
 11
19033.007889585158
 21
6241.1883740000012
 31
0.0
  0
LINE
  5
A6CE
  8
0-1
  6
CONTINUOUS
 62
     3
 10
19177.010528585139
 20
8132.6883740000021
 30
0.0
 11
19177.010528585139
 21
6141.1885389999998
 31
0.0
  0
LINE
  5
A6CF
  8
0-1
  6
CONTINUOUS
 62
     3
 10
19125.50683358515
 20
8459.1884659999978
 30
0.0
 11
19125.50683358515
 21
6241.1883740000012
 31
0.0
  0
LINE
  5
A6D0
  8
0-1
  6
CONTINUOUS
 62
     3
 10
19060.507361585162
 20
8589.1883999999973
 30
0.0
 11
19060.507361585162
 21
6241.1883740000012
 31
0.0
  0
LINE
  5
A6D1
  8
0-1
  6
CONTINUOUS
 62
     3
 10
19040.51052858515
 20
8459.1884659999978
 30
0.0
 11
19040.51052858515
 21
6241.1883740000012
 31
0.0
  0
LINE
  5
A6D2
  8
0-1
  6
CONTINUOUS
 62
     3
 10
12450.23400647093
 20
6241.1883740000012
 30
0.0
 11
12450.23400647093
 21
6141.1885389999998
 31
0.0
  0
LINE
  5
A6D3
  8
0-1
  6
CONTINUOUS
 62
     3
 10
12417.73321547092
 20
8455.5174490000027
 30
0.0
 11
12417.73321547092
 21
6241.1883740000012
 31
0.0
  0
LINE
  5
A6D4
  8
0-1
  6
CONTINUOUS
 62
     3
 10
12437.73400647093
 20
8456.0984380000027
 30
0.0
 11
12437.73400647093
 21
6241.1883740000012
 31
0.0
  0
LINE
  5
A6D5
  8
0-1
  6
CONTINUOUS
 62
     3
 10
12322.73413847092
 20
8152.234418
 30
0.0
 11
12322.73413847092
 21
6241.1883740000012
 31
0.0
  0
LINE
  5
A6D6
  8
0-1
  6
CONTINUOUS
 62
     3
 10
9126.7340064709388
 20
8356.9898809999977
 30
0.0
 11
9126.7340064709388
 21
8152.234418
 31
0.0
  0
LINE
  5
A6D7
  8
0-1
  6
CONTINUOUS
 62
     3
 10
9054.2341384709434
 20
8152.234418
 30
0.0
 11
9054.2341384709434
 21
6241.1883740000012
 31
0.0
  0
LINE
  5
A6D8
  8
0-1
  6
CONTINUOUS
 62
     3
 10
9199.2328844709318
 20
8152.234418
 30
0.0
 11
9199.2328844709318
 21
6241.1883740000012
 31
0.0
  0
LINE
  5
A6D9
  8
0-1
  6
CONTINUOUS
 62
     3
 10
9199.2328844709318
 20
6291.1885390000007
 30
0.0
 11
12322.73413847092
 21
6291.1885390000007
 31
0.0
  0
LINE
  5
A6DA
  8
0-1
  6
CONTINUOUS
 62
     3
 10
19177.010528585139
 20
6661.189265
 30
0.0
 11
21907.010528585161
 21
6661.189265
 31
0.0
  0
LINE
  5
A6DB
  8
0-1
  6
CONTINUOUS
 62
     3
 10
19177.010528585139
 20
6596.1888030000027
 30
0.0
 11
21907.010528585161
 21
6596.1888030000027
 31
0.0
  0
LINE
  5
A6DC
  8
0-1
  6
CONTINUOUS
 62
     3
 10
19177.010528585139
 20
6531.1888360000012
 30
0.0
 11
21907.010528585161
 21
6531.1888360000012
 31
0.0
  0
LINE
  5
A6DD
  8
0-1
  6
CONTINUOUS
 62
     3
 10
19177.010528585139
 20
6466.1883740000012
 30
0.0
 11
21907.010528585161
 21
6466.1883740000012
 31
0.0
  0
LINE
  5
A6DE
  8
0-1
  6
CONTINUOUS
 62
     3
 10
19177.010528585139
 20
6401.1889020000053
 30
0.0
 11
21907.010528585161
 21
6401.1889020000053
 31
0.0
  0
LINE
  5
A6DF
  8
0-1
  6
CONTINUOUS
 62
     3
 10
19177.010528585139
 20
6336.188935000001
 30
0.0
 11
21907.010528585161
 21
6336.188935000001
 31
0.0
  0
LINE
  5
A6E0
  8
0-1
  6
CONTINUOUS
 62
     3
 10
19177.010528585139
 20
6271.1889680000013
 30
0.0
 11
21907.010528585161
 21
6271.1889680000013
 31
0.0
  0
LINE
  5
A6E1
  8
0-1
  6
CONTINUOUS
 62
     3
 10
19177.010528585139
 20
6206.1885060000013
 30
0.0
 11
21907.010528585161
 21
6206.1885060000013
 31
0.0
  0
LINE
  5
A6E2
  8
0-1
  6
CONTINUOUS
 62
     3
 10
19177.010528585139
 20
8026.1885720000018
 30
0.0
 11
21907.010528585161
 21
8026.1885720000018
 31
0.0
  0
LINE
  5
A6E3
  8
0-1
  6
CONTINUOUS
 62
     3
 10
19177.010528585139
 20
7961.1886050000021
 30
0.0
 11
21907.010528585161
 21
7961.1886050000021
 31
0.0
  0
LINE
  5
A6E4
  8
0-1
  6
CONTINUOUS
 62
     3
 10
19177.010528585139
 20
7896.1891330000026
 30
0.0
 11
21907.010528585161
 21
7896.1891330000026
 31
0.0
  0
LINE
  5
A6E5
  8
0-1
  6
CONTINUOUS
 62
     3
 10
19177.010528585139
 20
7831.1891659999974
 30
0.0
 11
21907.010528585161
 21
7831.1891659999974
 31
0.0
  0
LINE
  5
A6E6
  8
0-1
  6
CONTINUOUS
 62
     3
 10
19177.010528585139
 20
7766.1891990000022
 30
0.0
 11
21907.010528585161
 21
7766.1891990000022
 31
0.0
  0
LINE
  5
A6E7
  8
0-1
  6
CONTINUOUS
 62
     3
 10
19177.010528585139
 20
7701.1887369999977
 30
0.0
 11
21907.010528585161
 21
7701.1887369999977
 31
0.0
  0
LINE
  5
A6E8
  8
0-1
  6
CONTINUOUS
 62
     3
 10
19177.010528585139
 20
7636.1887699999979
 30
0.0
 11
21907.010528585161
 21
7636.1887699999979
 31
0.0
  0
LINE
  5
A6E9
  8
0-1
  6
CONTINUOUS
 62
     3
 10
19177.010528585139
 20
7571.1892980000011
 30
0.0
 11
21907.010528585161
 21
7571.1892980000011
 31
0.0
  0
LINE
  5
A6EA
  8
0-1
  6
CONTINUOUS
 62
     3
 10
19177.010528585139
 20
7506.1893309999978
 30
0.0
 11
21907.010528585161
 21
7506.1893309999978
 31
0.0
  0
LINE
  5
A6EB
  8
0-1
  6
CONTINUOUS
 62
     3
 10
19177.010528585139
 20
7441.1888690000023
 30
0.0
 11
21907.010528585161
 21
7441.1888690000023
 31
0.0
  0
LINE
  5
A6EC
  8
0-1
  6
CONTINUOUS
 62
     3
 10
19177.010528585139
 20
7376.188901999999
 30
0.0
 11
21907.010528585161
 21
7376.188901999999
 31
0.0
  0
LINE
  5
A6ED
  8
0-1
  6
CONTINUOUS
 62
     3
 10
19177.010528585139
 20
7311.1889350000029
 30
0.0
 11
21907.010528585161
 21
7311.1889350000029
 31
0.0
  0
LINE
  5
A6EE
  8
0-1
  6
CONTINUOUS
 62
     3
 10
19177.010528585139
 20
7246.1884730000029
 30
0.0
 11
21907.010528585161
 21
7246.1884730000029
 31
0.0
  0
LINE
  5
A6EF
  8
0-1
  6
CONTINUOUS
 62
     3
 10
19177.010528585139
 20
7181.1885059999986
 30
0.0
 11
21907.010528585161
 21
7181.1885059999986
 31
0.0
  0
LINE
  5
A6F0
  8
0-1
  6
CONTINUOUS
 62
     3
 10
19177.010528585139
 20
7116.189034
 30
0.0
 11
21907.010528585161
 21
7116.189034
 31
0.0
  0
LINE
  5
A6F1
  8
0-1
  6
CONTINUOUS
 62
     3
 10
19177.010528585139
 20
7051.1890670000012
 30
0.0
 11
21907.010528585161
 21
7051.1890670000012
 31
0.0
  0
LINE
  5
A6F2
  8
0-1
  6
CONTINUOUS
 62
     3
 10
19177.010528585139
 20
6986.1890999999978
 30
0.0
 11
21907.010528585161
 21
6986.1890999999978
 31
0.0
  0
LINE
  5
A6F3
  8
0-1
  6
CONTINUOUS
 62
     3
 10
19177.010528585139
 20
6921.1886380000024
 30
0.0
 11
21907.010528585161
 21
6921.1886380000024
 31
0.0
  0
LINE
  5
A6F4
  8
0-1
  6
CONTINUOUS
 62
     3
 10
19177.010528585139
 20
6856.1886710000008
 30
0.0
 11
21907.010528585161
 21
6856.1886710000008
 31
0.0
  0
LINE
  5
A6F5
  8
0-1
  6
CONTINUOUS
 62
     3
 10
19177.010528585139
 20
6791.1891990000031
 30
0.0
 11
21907.010528585161
 21
6791.1891990000031
 31
0.0
  0
LINE
  5
A6F6
  8
0-1
  6
CONTINUOUS
 62
     3
 10
19177.010528585139
 20
6726.1892319999997
 30
0.0
 11
21907.010528585161
 21
6726.1892319999997
 31
0.0
  0
LINE
  5
A6F7
  8
0-1
  6
CONTINUOUS
 62
     3
 10
19177.010528585139
 20
8080.6485920000023
 30
0.0
 11
21907.010528585161
 21
8080.6485920000023
 31
0.0
  0
LINE
  5
A6F8
  8
0-1
  6
CONTINUOUS
 62
     3
 10
19033.007889585158
 20
6141.1885389999998
 30
0.0
 11
27612.48890471035
 21
6141.1885389999998
 31
0.0
  0
LINE
  5
A6F9
  8
0-1
  6
CONTINUOUS
 62
     3
 10
6158.7340064709351
 20
6141.1885389999998
 30
0.0
 11
6158.7340064709351
 21
6241.1883740000012
 31
0.0
  0
LINE
  5
A6FA
  8
0-1
  6
CONTINUOUS
 62
     3
 10
6186.2338084709372
 20
8268.990877000002
 30
0.0
 11
6186.2338084709372
 21
6241.1883740000012
 31
0.0
  0
LINE
  5
A6FB
  8
0-1
  6
CONTINUOUS
 62
     3
 10
6166.234006470936
 20
8268.3741496838084
 30
0.0
 11
6166.234006470936
 21
6241.1883740000012
 31
0.0
  0
LINE
  5
A6FC
  8
0-1
  6
CONTINUOUS
 62
     3
 10
6281.2328854709422
 20
8152.234418
 30
0.0
 11
6281.2328854709422
 21
6241.1883740000012
 31
0.0
  0
LINE
  5
A6FD
  8
0-1
  6
CONTINUOUS
 62
     3
 10
6158.7340064709351
 20
6241.1883740000012
 30
0.0
 11
12450.23400647093
 21
6241.1883740000012
 31
0.0
  0
LINE
  5
A6FE
  8
0-1
  6
CONTINUOUS
 62
     3
 10
6281.2328854709422
 20
6291.1885390000007
 30
0.0
 11
9054.2341384709434
 21
6291.1885390000007
 31
0.0
  0
LINE
  5
A6FF
  8
0-1
  6
CONTINUOUS
 62
     3
 10
5476.2329514709327
 20
6141.1885389999998
 30
0.0
 11
12450.23400647093
 21
6141.1885389999998
 31
0.0
  0
LINE
  5
A700
  8
0-1
  6
CONTINUOUS
 62
     3
 10
6186.2338084709372
 20
8152.234418
 30
0.0
 11
12417.73321547092
 21
8152.234418
 31
0.0
  0
LINE
  5
A701
  8
0-1
  6
CONTINUOUS
 62
     3
 10
19151.509789585161
 20
8334.6891200000027
 30
0.0
 11
19428.93931958517
 21
8334.6891200000027
 31
0.0
  0
LINE
  5
A702
  8
0-1
  6
CONTINUOUS
 62
     3
 10
19151.509789585161
 20
8376.6885650000022
 30
0.0
 11
19460.936257585159
 21
8376.6885650000022
 31
0.0
  0
LINE
  5
A703
  8
0-1
  6
CONTINUOUS
 62
     3
 10
19146.509526585141
 20
8339.6888889999973
 30
0.0
 11
19146.509526585141
 21
8371.6892910000024
 31
0.0
  0
LINE
  5
A704
  8
0-1
  6
CONTINUOUS
 62
     3
 10
19125.50683358515
 20
8385.6884470000023
 30
0.0
 11
21958.510264585151
 21
8385.6884470000023
 31
0.0
  0
LINE
  5
A705
  8
0-1
  6
CONTINUOUS
 62
     3
 10
19432.472759585158
 20
8336.1529740000024
 30
0.0
 11
19464.473657585149
 21
8368.153376000002
 31
0.0
  0
LINE
  5
A706
  8
0-1
  6
CONTINUOUS
 62
     3
 10
19146.509526585141
 20
8368.2889730000024
 30
0.0
 11
19464.602325585151
 21
8368.2889730000024
 31
0.0
  0
LINE
  5
A707
  8
0-1
  6
CONTINUOUS
 62
     3
 10
19146.509526585141
 20
8359.8888860000025
 30
0.0
 11
19456.20916758517
 21
8359.8888860000025
 31
0.0
  0
LINE
  5
A708
  8
0-1
  6
CONTINUOUS
 62
     3
 10
19146.509526585141
 20
8351.4892940000027
 30
0.0
 11
19447.810069585161
 21
8351.4892940000027
 31
0.0
  0
LINE
  5
A709
  8
0-1
  6
CONTINUOUS
 62
     3
 10
19146.509526585141
 20
8343.0892070000027
 30
0.0
 11
19439.407013585162
 21
8343.0892070000027
 31
0.0
  0
LINE
  5
A70A
  8
0-1
  6
CONTINUOUS
 62
     3
 10
21937.50955258515
 20
8368.2889730000024
 30
0.0
 11
21619.416752585152
 21
8368.2889730000024
 31
0.0
  0
LINE
  5
A70B
  8
0-1
  6
CONTINUOUS
 62
     3
 10
21937.50955258515
 20
8359.8888860000025
 30
0.0
 11
21627.81189058517
 21
8359.8888860000025
 31
0.0
  0
LINE
  5
A70C
  8
0-1
  6
CONTINUOUS
 62
     3
 10
21937.50955258515
 20
8351.4892940000027
 30
0.0
 11
21636.210987585149
 21
8351.4892940000027
 31
0.0
  0
LINE
  5
A70D
  8
0-1
  6
CONTINUOUS
 62
     3
 10
21937.50955258515
 20
8343.0892070000027
 30
0.0
 11
21644.610085585151
 21
8343.0892070000027
 31
0.0
  0
LINE
  5
A70E
  8
0-1
  6
CONTINUOUS
 62
     3
 10
21932.509288585159
 20
8376.6885650000022
 30
0.0
 11
21623.08282058515
 21
8376.6885650000022
 31
0.0
  0
LINE
  5
A70F
  8
0-1
  6
CONTINUOUS
 62
     3
 10
21932.509288585159
 20
8334.6891200000027
 30
0.0
 11
21655.079759585162
 21
8334.6891200000027
 31
0.0
  0
LINE
  5
A710
  8
0-1
  6
CONTINUOUS
 62
     3
 10
21937.50955258515
 20
8339.6888889999973
 30
0.0
 11
21937.50955258515
 21
8371.6892910000024
 31
0.0
  0
LINE
  5
A711
  8
0-1
  6
CONTINUOUS
 62
     3
 10
21651.544338585161
 20
8336.1529740000024
 30
0.0
 11
21619.547400585161
 21
8368.153376000002
 31
0.0
  0
LINE
  5
A712
  8
0-1
  6
CONTINUOUS
 62
     3
 10
4985.7433209367073
 20
16774.988087000002
 30
0.0
 11
7903.7433209367064
 21
16774.988087000002
 31
0.0
  0
LINE
  5
A713
  8
0-1
  6
CONTINUOUS
 62
     3
 10
7833.7442205805446
 20
16729.987612658861
 30
0.0
 11
5055.7440469367193
 21
13461.485710999999
 31
0.0
  0
LINE
  5
A714
  8
0-1
  6
CONTINUOUS
 62
     3
 10
5055.7440469367157
 20
16729.985711000001
 30
0.0
 11
7833.744574936718
 21
13461.485710999999
 31
0.0
  0
LINE
  5
A715
  8
0-1
  6
CONTINUOUS
 62
     3
 10
6190.1457942567777
 20
18456.415540184302
 30
0.0
 11
7833.7442205805446
 21
16729.987612658861
 31
0.0
  0
LINE
  5
A716
  8
0-1
  6
CONTINUOUS
 62
     3
 10
6555.3818292924771
 20
18305.198892138069
 30
0.0
 11
5055.7440469367157
 21
16729.985711000001
 31
0.0
  0
LINE
  5
A717
  8
0-1
  6
CONTINUOUS
 62
     3
 10
5991.9321824709377
 20
8303.1736990000027
 30
0.0
 11
12523.42367147093
 21
8498.6897600000029
 31
0.0
  0
LINE
  5
A718
  8
0-1
  6
CONTINUOUS
 62
     3
 10
12521.923196470931
 20
8548.6686450000016
 30
0.0
 11
5990.4326974709311
 21
8353.1515949999975
 31
0.0
  0
LINE
  5
A719
  8
0-1
  6
CONTINUOUS
 62
     3
 10
5987.3426694709406
 20
8356.0604970000022
 30
0.0
 11
5986.3826024709342
 21
8388.0460530000018
 31
0.0
  0
LINE
  5
A71A
  8
0-1
  6
CONTINUOUS
 62
     3
 10
5991.2314334709372
 20
8393.1932959999976
 30
0.0
 11
12541.69264847092
 21
8589.2804479999977
 31
0.0
  0
LINE
  5
A71B
  8
0-1
  6
CONTINUOUS
 62
     3
 10
12545.59724847092
 20
8459.3389100000004
 30
0.0
 11
5995.1320744709374
 21
8263.2522529999969
 31
0.0
  0
LINE
  5
A71C
  8
0-1
  6
CONTINUOUS
 62
     3
 10
5989.9843364709368
 20
8268.099599000001
 30
0.0
 11
5989.0252594709373
 21
8300.0856500000027
 31
0.0
  0
LINE
  5
A71D
  8
0-1
  6
CONTINUOUS
 62
     3
 10
5988.6936904709364
 20
8311.0803909999977
 30
0.0
 11
5987.6732484709373
 21
8345.064766000005
 31
0.0
  0
LINE
  5
A71E
  8
0-1
  6
CONTINUOUS
 62
     3
 10
5990.5821514709378
 20
8348.1538050000017
 30
0.0
 11
12522.074629470921
 21
8543.6713500000023
 31
0.0
  0
LINE
  5
A71F
  8
0-1
  6
CONTINUOUS
 62
     3
 10
12523.27421747092
 20
8503.6880440000004
 30
0.0
 11
5991.7837194709364
 21
8308.1719840000023
 31
0.0
  0
LINE
  5
A720
  8
0-1
  6
CONTINUOUS
 62
     3
 10
9126.7340064709388
 20
8356.9898809999977
 30
0.0
 11
9122.8313854709413
 21
8486.9314190000023
 31
0.0
  0
LINE
  5
A721
  8
0-1
  6
CONTINUOUS
 62
     3
 10
12512.63034647094
 20
8458.3481610000017
 30
0.0
 11
12508.72871547093
 21
8588.2896990000045
 31
0.0
  0
LINE
  5
A722
  8
0-1
  6
CONTINUOUS
 62
     3
 10
6003.7241754709348
 20
8393.5684149999979
 30
0.0
 11
6007.6267964709377
 21
8263.6273720000008
 31
0.0
  0
LINE
  5
A723
  8
0-1
  6
CONTINUOUS
 62
     3
 10
4918.2420939366966
 20
18981.68106111126
 30
0.0
 11
4918.2420939366966
 21
19852.98663499999
 31
0.0
  0
LINE
  5
A724
  8
0-1
  6
CONTINUOUS
 62
     3
 10
4973.7428459367093
 20
19835.487690000002
 30
0.0
 11
4973.7428459367093
 21
19865.487293999991
 31
0.0
  0
LINE
  5
A725
  8
0-1
  6
CONTINUOUS
 62
     3
 10
4900.2433209367091
 20
19865.487293999991
 30
0.0
 11
4900.2433209367091
 21
19830.485446999981
 31
0.0
  0
LINE
  5
A726
  8
0-1
  6
CONTINUOUS
 62
     3
 10
4968.7425819366981
 20
19870.485579
 30
0.0
 11
4905.2425949367062
 21
19870.485579
 31
0.0
  0
LINE
  5
A727
  8
0-1
  6
CONTINUOUS
 62
     3
 10
4918.2420939366966
 20
19852.98663499999
 30
0.0
 11
4900.2433209367091
 21
19852.98663499999
 31
0.0
  0
LINE
  5
A728
  8
0-1
  6
CONTINUOUS
 62
     3
 10
4918.2420939366966
 20
19830.485446999981
 30
0.0
 11
4968.7425819366981
 21
19830.485446999981
 31
0.0
  0
LINE
  5
A729
  8
0-2
  6
CONTINUOUS
 62
     4
 10
20905.698569085162
 20
6888.4152329999988
 30
0.0
 11
20805.699229085149
 21
6888.4152329999988
 31
0.0
  0
LINE
  5
A72A
  8
0-2
  6
CONTINUOUS
 62
     4
 10
20178.314569085149
 20
6888.4152329999988
 30
0.0
 11
20278.313909085151
 21
6888.4152329999988
 31
0.0
  0
LINE
  5
A72B
  8
0-5
  6
CONTINUOUS
 62
     4
 10
22001.010528585161
 20
4461.1889350000001
 30
0.0
 11
22001.010528585161
 21
4301.1893970000001
 31
0.0
  0
LINE
  5
A72C
  8
0-5
  6
CONTINUOUS
 62
     4
 10
16861.137508585161
 20
6349.0350210000024
 30
0.0
 11
16981.13592458516
 21
6141.1885389999998
 31
0.0
  0
LINE
  5
A72D
  8
0-5
  6
CONTINUOUS
 62
     4
 10
14155.31899447093
 20
6241.1883740000012
 30
0.0
 11
14275.31939047093
 21
6449.0353509999986
 31
0.0
  0
LINE
  5
A72E
  8
0-5
  6
CONTINUOUS
 62
     4
 10
14035.32057747092
 20
6449.0353509999986
 30
0.0
 11
14155.31899447093
 21
6241.1883740000012
 31
0.0
  0
LINE
  5
A72F
  8
0-5
  6
CONTINUOUS
 62
     4
 10
14275.31939047093
 20
6449.0353509999986
 30
0.0
 11
14035.32057747092
 21
6449.0353509999986
 31
0.0
  0
LINE
  5
A730
  8
0-5
  6
CONTINUOUS
 62
     4
 10
12530.231301470911
 20
6241.1883740000012
 30
0.0
 11
14247.697187470931
 21
6241.1883740000012
 31
0.0
  0
LINE
  5
A731
  8
0-5
  6
CONTINUOUS
 62
     4
 10
12530.231301470911
 20
6141.1885389999998
 30
0.0
 11
18953.00960558515
 21
6141.1885389999998
 31
0.0
  0
LINE
  5
A732
  8
0-5
  6
CONTINUOUS
 62
     4
 10
16981.13592458516
 20
6141.1885389999998
 30
0.0
 11
17101.136320585141
 21
6349.0350210000024
 31
0.0
  0
LINE
  5
A733
  8
0-5
  6
CONTINUOUS
 62
     4
 10
17101.136320585141
 20
6349.0350210000024
 30
0.0
 11
16861.137508585161
 21
6349.0350210000024
 31
0.0
  0
LINE
  5
A734
  8
0-5
  6
CONTINUOUS
 62
     4
 10
19083.01052858515
 20
4461.1889350000001
 30
0.0
 11
19083.01052858515
 21
4301.1893970000001
 31
0.0
  0
LINE
  5
A735
  8
0-5
  6
CONTINUOUS
 62
     4
 10
12395.234006470921
 20
4461.1889350000001
 30
0.0
 11
12395.234006470921
 21
4301.1893970000001
 31
0.0
  0
LINE
  5
A736
  8
0-5
  6
CONTINUOUS
 62
     4
 10
9126.7340064709388
 20
4461.1889350000001
 30
0.0
 11
9126.7340064709388
 21
4301.1893970000001
 31
0.0
  0
LINE
  5
A737
  8
0-5
  6
CONTINUOUS
 62
     4
 10
6208.7340064709351
 20
4461.1889350000001
 30
0.0
 11
6208.7340064709351
 21
4301.1893970000001
 31
0.0
  0
LINE
  5
A746
  8
0-6
  6
CONTINUOUS
 62
     6
 10
19304.077304585131
 20
13312.404854
 30
0.0
 11
19772.01174258516
 21
12841.98711
 31
0.0
  0
LINE
  5
A747
  8
0-6
  6
CONTINUOUS
 62
     6
 10
19772.01174258516
 20
12841.98711
 30
0.0
 11
20772.011083585148
 21
12841.98711
 31
0.0
  0
LINE
  5
A756
  8
0-6
  6
CONTINUOUS
 62
     6
 10
6681.6473670383011
 20
19600.068088999062
 30
0.0
 11
6825.5484700382949
 21
20112.34374399907
 31
0.0
  0
LINE
  5
A757
  8
0-6
  6
CONTINUOUS
 62
     6
 10
6161.8059920382948
 20
19828.021530999071
 30
0.0
 11
6268.5010540383009
 21
19705.84564399907
 31
0.0
  0
LINE
  5
A758
  8
0-6
  6
CONTINUOUS
 62
     6
 10
6268.5010540383009
 20
19705.84564399907
 30
0.0
 11
6207.1953640382944
 21
19856.021820999071
 31
0.0
  0
LINE
  5
A759
  8
0-6
  6
CONTINUOUS
 62
     6
 10
6268.5010540383009
 20
19705.84564399907
 30
0.0
 11
6161.8059920382948
 21
19828.021530999071
 31
0.0
  0
LINE
  5
A75A
  8
0-6
  6
CONTINUOUS
 62
     6
 10
6161.8059920382948
 20
19828.021530999071
 30
0.0
 11
6207.1953640382944
 21
19856.021820999071
 31
0.0
  0
LINE
  5
A75B
  8
0-6
  6
CONTINUOUS
 62
     6
 10
6207.1953640382944
 20
19856.021820999071
 30
0.0
 11
6268.5010540383009
 21
19705.84564399907
 31
0.0
  0
LINE
  5
A75C
  8
0-6
  6
CONTINUOUS
 62
     6
 10
6207.1953640382944
 20
19856.021820999071
 30
0.0
 11
6161.8059920382948
 21
19828.021530999071
 31
0.0
  0
LINE
  5
A75D
  8
0-6
  6
CONTINUOUS
 62
     6
 10
6268.5010540383009
 20
19705.84564399907
 30
0.0
 11
5974.573227038295
 21
20112.34374399907
 31
0.0
  0
LINE
  5
A75E
  8
0-6
  6
CONTINUOUS
 62
     6
 10
6655.7592230383016
 20
19606.46787299907
 30
0.0
 11
6643.2575730383041
 21
19444.743183999071
 31
0.0
  0
LINE
  5
A75F
  8
0-6
  6
CONTINUOUS
 62
     6
 10
6643.2575730383041
 20
19444.743183999071
 30
0.0
 11
6707.5325420382997
 21
19593.672264999081
 31
0.0
  0
LINE
  5
A760
  8
0-6
  6
CONTINUOUS
 62
     6
 10
6643.2575730383041
 20
19444.743183999071
 30
0.0
 11
6655.7592230383016
 21
19606.46787299907
 31
0.0
  0
LINE
  5
A761
  8
0-6
  6
CONTINUOUS
 62
     6
 10
6655.7592230383016
 20
19606.46787299907
 30
0.0
 11
6707.5325420382997
 21
19593.672264999081
 31
0.0
  0
LINE
  5
A762
  8
0-6
  6
CONTINUOUS
 62
     6
 10
6707.5325420382997
 20
19593.672264999081
 30
0.0
 11
6643.2575730383041
 21
19444.743183999071
 31
0.0
  0
LINE
  5
A763
  8
0-6
  6
CONTINUOUS
 62
     6
 10
6707.5325420382997
 20
19593.672264999081
 30
0.0
 11
6655.7592230383016
 21
19606.46787299907
 31
0.0
  0
LINE
  5
A764
  8
0-6
  6
CONTINUOUS
 62
     6
 10
6825.5484700382949
 20
20112.34374399907
 30
0.0
 11
7343.2371180383016
 21
20112.34374399907
 31
0.0
  0
LINE
  5
A765
  8
0-6
  6
CONTINUOUS
 62
     6
 10
5086.0604529367192
 20
18204.912788314829
 30
0.0
 11
4996.2447459367104
 21
18339.985239314839
 31
0.0
  0
LINE
  5
A766
  8
0-6
  6
CONTINUOUS
 62
     6
 10
4996.2447459367104
 20
18339.985239314839
 30
0.0
 11
5037.3989369367191
 21
18183.084637314831
 31
0.0
  0
LINE
  5
A767
  8
0-6
  6
CONTINUOUS
 62
     6
 10
4996.2447459367104
 20
18339.985239314839
 30
0.0
 11
5086.0604529367192
 21
18204.912788314829
 31
0.0
  0
LINE
  5
A768
  8
0-6
  6
CONTINUOUS
 62
     6
 10
5086.0604529367192
 20
18204.912788314829
 30
0.0
 11
5037.3989369367191
 21
18183.084637314831
 31
0.0
  0
LINE
  5
A769
  8
0-6
  6
CONTINUOUS
 62
     6
 10
5037.3989369367191
 20
18183.084637314831
 30
0.0
 11
4996.2447459367104
 21
18339.985239314839
 31
0.0
  0
LINE
  5
A76A
  8
0-6
  6
CONTINUOUS
 62
     6
 10
5037.3989369367191
 20
18183.084637314831
 30
0.0
 11
5086.0604529367192
 21
18204.912788314829
 31
0.0
  0
LINE
  5
A76B
  8
0-6
  6
CONTINUOUS
 62
     6
 10
5174.5715780382934
 20
20112.34374399907
 30
0.0
 11
5974.573227038295
 21
20112.34374399907
 31
0.0
  0
LINE
  5
A772
  8
0-6
  6
CONTINUOUS
 62
     6
 10
5160.7704529367074
 20
17973.206179314831
 30
0.0
 11
5680.7711789367204
 21
17973.206179314831
 31
0.0
  0
LINE
  5
A773
  8
0-6
  6
CONTINUOUS
 62
     6
 10
5796.1261329367189
 20
13676.376956
 30
0.0
 11
5879.0135249367204
 21
13853.31523499998
 31
0.0
  0
LINE
  5
A774
  8
0-6
  6
CONTINUOUS
 62
     6
 10
5879.0135249367204
 20
13853.31523499998
 30
0.0
 11
6679.0141849367101
 21
13853.31523499998
 31
0.0
  0
LINE
  5
A775
  8
0-6
  6
CONTINUOUS
 62
     6
 10
6403.1692599367234
 20
13166.93993099999
 30
0.0
 11
6296.8988049367172
 21
13289.48697799999
 31
0.0
  0
LINE
  5
A776
  8
0-6
  6
CONTINUOUS
 62
     6
 10
6296.8988049367172
 20
13289.48697799999
 30
0.0
 11
6357.6809129367184
 21
13139.098002000001
 31
0.0
  0
LINE
  5
A777
  8
0-6
  6
CONTINUOUS
 62
     6
 10
6296.8988049367172
 20
13289.48697799999
 30
0.0
 11
6403.1692599367234
 21
13166.93993099999
 31
0.0
  0
LINE
  5
A778
  8
0-6
  6
CONTINUOUS
 62
     6
 10
6403.1692599367234
 20
13166.93993099999
 30
0.0
 11
6357.6809129367184
 21
13139.098002000001
 31
0.0
  0
LINE
  5
A779
  8
0-6
  6
CONTINUOUS
 62
     6
 10
6357.6809129367184
 20
13139.098002000001
 30
0.0
 11
6296.8988049367172
 21
13289.48697799999
 31
0.0
  0
LINE
  5
A77A
  8
0-6
  6
CONTINUOUS
 62
     6
 10
6357.6809129367184
 20
13139.098002000001
 30
0.0
 11
6403.1692599367234
 21
13166.93993099999
 31
0.0
  0
LINE
  5
A77B
  8
0-6
  6
CONTINUOUS
 62
     6
 10
5771.9789759367113
 20
13687.688915000001
 30
0.0
 11
5728.2533899367108
 21
13531.486094
 31
0.0
  0
LINE
  5
A77C
  8
0-6
  6
CONTINUOUS
 62
     6
 10
5728.2533899367108
 20
13531.486094
 30
0.0
 11
5820.2742809367192
 21
13665.064006999981
 31
0.0
  0
LINE
  5
A77D
  8
0-6
  6
CONTINUOUS
 62
     6
 10
5728.2533899367108
 20
13531.486094
 30
0.0
 11
5771.9789759367113
 21
13687.688915000001
 31
0.0
  0
LINE
  5
A77E
  8
0-6
  6
CONTINUOUS
 62
     6
 10
5771.9789759367113
 20
13687.688915000001
 30
0.0
 11
5820.2742809367192
 21
13665.064006999981
 31
0.0
  0
LINE
  5
A77F
  8
0-6
  6
CONTINUOUS
 62
     6
 10
5820.2742809367192
 20
13665.064006999981
 30
0.0
 11
5728.2533899367108
 21
13531.486094
 31
0.0
  0
LINE
  5
A780
  8
0-6
  6
CONTINUOUS
 62
     6
 10
5820.2742809367192
 20
13665.064006999981
 30
0.0
 11
5771.9789759367113
 21
13687.688915000001
 31
0.0
  0
LINE
  5
A781
  8
0-6
  6
CONTINUOUS
 62
     6
 10
6786.5376749367197
 20
12489.487308
 30
0.0
 11
7649.1178459367211
 21
12489.487308
 31
0.0
  0
LINE
  5
A782
  8
0-6
  6
CONTINUOUS
 62
     6
 10
6380.4255819367099
 20
13153.018967
 30
0.0
 11
6786.5376749367197
 21
12489.487308
 31
0.0
  0
LINE
  5
A783
  8
0-6
  6
CONTINUOUS
 62
     6
 10
4844.2949199367222
 20
13861.776687
 30
0.0
 11
4866.7456299367186
 21
14022.42253799999
 31
0.0
  0
LINE
  5
A784
  8
0-6
  6
CONTINUOUS
 62
     6
 10
4866.7456299367186
 20
14022.42253799999
 30
0.0
 11
4793.4084259367073
 21
13877.741504
 31
0.0
  0
LINE
  5
A785
  8
0-6
  6
CONTINUOUS
 62
     6
 10
4866.7456299367186
 20
14022.42253799999
 30
0.0
 11
4844.2949199367222
 21
13861.776687
 31
0.0
  0
LINE
  5
A786
  8
0-6
  6
CONTINUOUS
 62
     6
 10
4844.2949199367222
 20
13861.776687
 30
0.0
 11
4793.4084259367073
 21
13877.741504
 31
0.0
  0
LINE
  5
A787
  8
0-6
  6
CONTINUOUS
 62
     6
 10
4793.4084259367073
 20
13877.741504
 30
0.0
 11
4866.7456299367186
 21
14022.42253799999
 31
0.0
  0
LINE
  5
A788
  8
0-6
  6
CONTINUOUS
 62
     6
 10
4793.4084259367073
 20
13877.741504
 30
0.0
 11
4844.2949199367222
 21
13861.776687
 31
0.0
  0
LINE
  5
A789
  8
0-6
  6
CONTINUOUS
 62
     6
 10
3152.1113789367182
 20
11999.48618599998
 30
0.0
 11
4232.1109829367197
 21
11999.48618599998
 31
0.0
  0
LINE
  5
A78A
  8
0-6
  6
CONTINUOUS
 62
     6
 10
4818.8511779367109
 20
13869.75810599999
 30
0.0
 11
4232.1109829367197
 21
11999.48618599998
 31
0.0
  0
LINE
  5
A78B
  8
0-6
  6
CONTINUOUS
 62
     6
 10
5061.7301899367058
 20
18193.999702314839
 30
0.0
 11
5160.7704529367074
 21
17973.206179314831
 31
0.0
  0
LINE
  5
A798
  8
0-6
  6
CONTINUOUS
 62
     6
 10
19322.985665585151
 20
13331.20929099999
 30
0.0
 11
19191.24078658516
 21
13425.84017699998
 31
0.0
  0
LINE
  5
A799
  8
0-6
  6
CONTINUOUS
 62
     6
 10
19191.24078658516
 20
13425.84017699998
 30
0.0
 11
19285.172902585149
 21
13293.598438000001
 31
0.0
  0
LINE
  5
A79A
  8
0-6
  6
CONTINUOUS
 62
     6
 10
19191.24078658516
 20
13425.84017699998
 30
0.0
 11
19322.985665585151
 21
13331.20929099999
 31
0.0
  0
LINE
  5
A79B
  8
0-6
  6
CONTINUOUS
 62
     6
 10
19322.985665585151
 20
13331.20929099999
 30
0.0
 11
19285.172902585149
 21
13293.598438000001
 31
0.0
  0
LINE
  5
A79C
  8
0-6
  6
CONTINUOUS
 62
     6
 10
19285.172902585149
 20
13293.598438000001
 30
0.0
 11
19191.24078658516
 21
13425.84017699998
 31
0.0
  0
LINE
  5
A79D
  8
0-6
  6
CONTINUOUS
 62
     6
 10
19285.172902585149
 20
13293.598438000001
 30
0.0
 11
19322.985665585151
 21
13331.20929099999
 31
0.0
  0
LINE
  5
A7A0
  8
0-6
  6
CONTINUOUS
 62
     6
 10
12986.2447059367
 20
19870.485579
 30
0.0
 11
13077.93204793672
 21
20004.293117000001
 31
0.0
  0
LINE
  5
A7A1
  8
0-6
  6
CONTINUOUS
 62
     6
 10
13116.373308936711
 20
19967.325606999992
 30
0.0
 11
12986.2447059367
 21
19870.485579
 31
0.0
  0
LINE
  5
A7A2
  8
0-6
  6
CONTINUOUS
 62
     6
 10
13116.373308936711
 20
19967.325606999992
 30
0.0
 11
13077.93204793672
 21
20004.293117000001
 31
0.0
  0
LINE
  5
A7A3
  8
0-6
  6
CONTINUOUS
 62
     6
 10
13097.15317393672
 20
19985.808372
 30
0.0
 11
13614.142061936711
 21
20490.486634999979
 31
0.0
  0
LINE
  5
A7A4
  8
0-6
  6
CONTINUOUS
 62
     6
 10
13614.142061936711
 20
20490.486634999979
 30
0.0
 11
15289.141401936709
 21
20490.486634999979
 31
0.0
  0
LINE
  5
A7A5
  8
2-0
  6
DASHED3
 62
     6
 10
4985.7433209367082
 20
19608.987215000001
 30
0.0
 11
12903.743320936699
 21
19608.987215000001
 31
0.0
  0
LINE
  5
A7A6
  8
2-0
  6
DASHED3
 62
     6
 10
4943.2440469367193
 20
18972.603133336848
 30
0.0
 11
4943.2440469367193
 21
19693.987743000002
 31
0.0
  0
LINE
  5
A7A7
  8
2-0
  6
DASHED3
 62
     6
 10
4985.7433209367082
 20
18955.067610197751
 30
0.0
 11
4985.7433209367082
 21
19693.987743000002
 31
0.0
  0
LINE
  5
A7A8
  8
2-0
  6
DASHED3
 62
     6
 10
4943.2440469367193
 20
19693.987743000002
 30
0.0
 11
12903.743320936699
 21
19693.987743000002
 31
0.0
  0
LINE
  5
A7A9
  8
2-0
  6
DASHED3
 62
     6
 10
7903.7433209367064
 20
17746.365060417251
 30
0.0
 11
7903.7433209367064
 21
19693.987743000002
 31
0.0
  0
LINE
  5
A7AA
  8
2-0
  6
DASHED3
 62
     6
 10
7946.2445749367171
 20
17728.828720315101
 30
0.0
 11
7946.2445749367171
 21
19693.987743000002
 31
0.0
  0
LINE
  5
A7AB
  8
2-0
  6
DASHED3
 62
     6
 10
5055.7440469367193
 20
19647.985711000001
 30
0.0
 11
6190.1457942567777
 21
18456.415540184302
 31
0.0
  0
LINE
  5
A7AC
  8
2-0
  6
DASHED3
 62
     6
 10
7833.744574936718
 20
19647.985711000001
 30
0.0
 11
6555.3818292924771
 21
18305.198892138069
 31
0.0
  0
LINE
  5
A7B0
  8
2-0
  6
CENTER2
 62
     6
 10
7903.7433209367064
 20
20890.487954
 30
0.0
 11
7903.7433209367064
 21
19940.487293999991
 31
0.0
  0
LINE
  5
A7B1
  8
2-0
  6
CENTER2
 62
     6
 10
3656.2432159367158
 20
19647.985711000001
 30
0.0
 11
5302.7424369367072
 21
19647.985711000001
 31
0.0
  0
LINE
  5
A7B2
  8
0-8
  6
CONTINUOUS
 62
     6
 10
4985.7433209367082
 20
20890.487954
 30
0.0
 11
4985.7433209367082
 21
19940.487293999991
 31
0.0
  0
LINE
  5
A7B4
  8
2-0
  6
CENTER2
 62
     6
 10
3656.2432159367149
 20
16729.985711000001
 30
0.0
 11
13075.542768936701
 21
16729.985711000001
 31
0.0
  0
LINE
  5
A7B5
  8
2-0
  6
CENTER2
 62
     6
 10
3656.2432159367158
 20
13461.485710999999
 30
0.0
 11
5302.7424369367072
 21
13461.485710999999
 31
0.0
  0
LINE
  5
A7B6
  8
2-0
  6
CENTER2
 62
     6
 10
17040.509605585161
 20
19647.985711000001
 30
0.0
 11
17760.508285585169
 21
19647.985711000001
 31
0.0
  0
LINE
  5
A7B7
  8
2-0
  6
CENTER2
 62
     6
 10
17040.509605585161
 20
16729.985711000001
 30
0.0
 11
17312.67938965181
 21
16729.985711000001
 31
0.0
  0
LINE
  5
A7B8
  8
2-0
  6
CENTER2
 62
     6
 10
17040.509605585161
 20
13461.485710999999
 30
0.0
 11
17760.508285585169
 21
13461.485710999999
 31
0.0
  0
LINE
  5
A7B9
  8
2-0
  6
CENTER2
 62
     6
 10
22001.010528585161
 20
5878.536116000002
 30
0.0
 11
22001.010528585161
 21
6915.6791430000021
 31
0.0
  0
LINE
  5
A7BA
  8
2-0
  6
CENTER2
 62
     6
 10
19083.01052858515
 20
5878.536116000002
 30
0.0
 11
19083.01052858515
 21
6915.6791430000021
 31
0.0
  0
LINE
  5
A7BB
  8
2-0
  6
CENTER2
 62
     6
 10
12395.234006470921
 20
5878.536116000002
 30
0.0
 11
12395.234006470921
 21
6935.6787140000024
 31
0.0
  0
LINE
  5
A7BC
  8
2-0
  6
CENTER2
 62
     6
 10
9126.7340064709388
 20
5878.536116000002
 30
0.0
 11
9126.7340064709388
 21
6935.6787140000024
 31
0.0
  0
LINE
  5
A7BD
  8
2-0
  6
CENTER2
 62
     6
 10
6208.7340064709351
 20
5878.536116000002
 30
0.0
 11
6208.7340064709351
 21
6935.6787140000024
 31
0.0
  0
ARC
  5
A7BE
  8
0-1
  6
CONTINUOUS
 62
     3
 10
19151.509789585161
 20
8371.6892910000024
 30
0.0
 40
5.0
 50
90.0
 51
180.0
  0
ARC
  5
A7BF
  8
0-1
  6
CONTINUOUS
 62
     3
 10
19151.509789585161
 20
8339.6888889999973
 30
0.0
 40
5.0
 50
180.0
 51
269.9999850001808
  0
ARC
  5
A7C0
  8
0-1
  6
CONTINUOUS
 62
     3
 10
19428.93931958517
 20
8339.6888889999973
 30
0.0
 40
5.0
 50
269.9999850001808
 51
314.99998500021371
  0
ARC
  5
A7C1
  8
0-1
  6
CONTINUOUS
 62
     3
 10
19460.936257585159
 20
8371.6892910000024
 30
0.0
 40
5.0
 50
314.99998500021371
 51
90.0
  0
ARC
  5
A7C2
  8
0-1
  6
CONTINUOUS
 62
     3
 10
21932.509288585159
 20
8339.6888889999973
 30
0.0
 40
5.0
 50
269.9999850001808
 51
0.0
  0
ARC
  5
A7C3
  8
0-1
  6
CONTINUOUS
 62
     3
 10
21932.509288585159
 20
8371.6892910000024
 30
0.0
 40
5.0
 50
0.0
 51
90.0
  0
ARC
  5
A7C4
  8
0-1
  6
CONTINUOUS
 62
     3
 10
21623.08282058515
 20
8371.6892910000024
 30
0.0
 40
5.0
 50
90.0
 51
224.99998499997221
  0
ARC
  5
A7C5
  8
0-1
  6
CONTINUOUS
 62
     3
 10
21655.079759585162
 20
8339.6888889999973
 30
0.0
 40
5.0
 50
224.99998499997221
 51
269.9999850001808
  0
ARC
  5
A7C6
  8
0-1
  6
CONTINUOUS
 62
     3
 10
12522.673433470931
 20
8523.6801920000016
 30
0.0
 40
24.999998999999999
 50
271.71998600002598
 51
91.719986000025997
  0
ARC
  5
A7C7
  8
0-1
  6
CONTINUOUS
 62
     3
 10
5990.3426294709352
 20
8356.1505650000017
 30
0.0
 40
3.0
 50
181.71998599998841
 51
271.71998600002598
  0
ARC
  5
A7C8
  8
0-1
  6
CONTINUOUS
 62
     3
 10
5991.3798974709352
 20
8388.1955070000022
 30
0.0
 40
5.0
 50
91.719986000025997
 51
181.71998599998841
  0
ARC
  5
A7C9
  8
0-1
  6
CONTINUOUS
 62
     3
 10
12517.676139470919
 20
8523.529749000003
 30
0.0
 40
69.999999000000003
 50
293.50677499978713
 51
69.933196999906173
  0
ARC
  5
A7CA
  8
0-1
  6
CONTINUOUS
 62
     3
 10
5994.9836104709393
 20
8268.2500430000018
 30
0.0
 40
5.0
 50
181.71998599998841
 51
271.71998600002598
  0
ARC
  5
A7CB
  8
0-1
  6
CONTINUOUS
 62
     3
 10
5992.0222514709376
 20
8300.1752230000002
 30
0.0
 40
3.0
 50
91.719986000025997
 51
181.71998599998841
  0
ARC
  5
A7CC
  8
0-1
  6
CONTINUOUS
 62
     3
 10
5992.0064144709349
 20
8350.6979809999975
 30
0.0
 40
2.5
 50
271.71998600002598
 51
91.719986000025997
  0
ARC
  5
A7CD
  8
0-1
  6
CONTINUOUS
 62
     3
 10
5993.3564464709334
 20
8305.7178750000003
 30
0.0
 40
2.5
 50
271.71998600002598
 51
91.719986000025997
  0
ARC
  5
A7CE
  8
0-1
  6
CONTINUOUS
 62
     3
 10
5990.6722194709373
 20
8345.1553289999974
 30
0.0
 40
3.0
 50
91.719986000025997
 51
181.71998599998841
  0
ARC
  5
A7CF
  8
0-1
  6
CONTINUOUS
 62
     3
 10
12522.673433470931
 20
8523.6801920000016
 30
0.0
 40
20.0
 50
271.71998600002598
 51
91.719986000025997
  0
ARC
  5
A7D0
  8
0-1
  6
CONTINUOUS
 62
     3
 10
5991.6926614709337
 20
8311.1699640000024
 30
0.0
 40
3.0
 50
181.71998599998841
 51
271.71998600002598
  0
ARC
  5
A7D1
  8
0-1
  6
CONTINUOUS
 62
     3
 10
4968.7425819366981
 20
19835.487690000002
 30
0.0
 40
5.0
 50
269.9999850001808
 51
0.0
  0
ARC
  5
A7D2
  8
0-1
  6
CONTINUOUS
 62
     3
 10
4968.7452832541894
 20
19865.488412922328
 30
0.0
 40
4.99729880777691
 50
359.9871711637191
 51
90.030971551784916
  0
ARC
  5
A7D3
  8
0-1
  6
CONTINUOUS
 62
     3
 10
4905.2396684604701
 20
19865.48850618611
 30
0.0
 40
4.9970736707893684
 50
89.966445412325555
 51
180.01389876465331
  0
CIRCLE
  5
A7D4
  8
0-5
  6
CONTINUOUS
 62
     4
 10
22001.010528585161
 20
21490.48663499999
 30
0.0
 40
199.9999949999999
  0
CIRCLE
  5
A7D5
  8
0-5
  6
CONTINUOUS
 62
     4
 10
16840.508945585159
 20
19647.985711000001
 30
0.0
 40
199.9999949999999
  0
CIRCLE
  5
A7D6
  8
0-5
  6
CONTINUOUS
 62
     4
 10
7903.7433209367064
 20
21090.486634999979
 30
0.0
 40
199.9999949999999
  0
CIRCLE
  5
A7D7
  8
0-5
  6
CONTINUOUS
 62
     4
 10
4985.7433209367082
 20
21090.486634999979
 30
0.0
 40
199.9999949999999
  0
CIRCLE
  5
A7D8
  8
0-5
  6
CONTINUOUS
 62
     4
 10
3456.2435449367181
 20
19647.985711000001
 30
0.0
 40
199.9999949999999
  0
CIRCLE
  5
A7D9
  8
0-5
  6
CONTINUOUS
 62
     4
 10
16840.508945585159
 20
16729.985711000001
 30
0.0
 40
199.9999949999999
  0
CIRCLE
  5
A7DA
  8
0-5
  6
CONTINUOUS
 62
     4
 10
16840.508945585159
 20
13461.485710999999
 30
0.0
 40
199.9999949999999
  0
CIRCLE
  5
A7DB
  8
0-5
  6
CONTINUOUS
 62
     4
 10
3456.2435449367181
 20
16729.985711000001
 30
0.0
 40
199.9999949999999
  0
CIRCLE
  5
A7DC
  8
0-5
  6
CONTINUOUS
 62
     4
 10
3456.2435449367181
 20
13461.485710999999
 30
0.0
 40
199.9999949999999
  0
CIRCLE
  5
A7DD
  8
0-5
  6
CONTINUOUS
 62
     4
 10
19083.01052858515
 20
21490.48663499999
 30
0.0
 40
199.9999949999999
  0
CIRCLE
  5
A7DE
  8
0-5
  6
CONTINUOUS
 62
     4
 10
22001.010528585161
 20
4101.1882420000011
 30
0.0
 40
199.9999949999999
  0
CIRCLE
  5
A7DF
  8
0-5
  6
CONTINUOUS
 62
     4
 10
9126.7340064709388
 20
4101.1882420000011
 30
0.0
 40
199.9999949999999
  0
CIRCLE
  5
A7E0
  8
0-5
  6
CONTINUOUS
 62
     4
 10
12395.234006470921
 20
4101.1882420000011
 30
0.0
 40
199.9999949999999
  0
CIRCLE
  5
A7E1
  8
0-5
  6
CONTINUOUS
 62
     4
 10
19083.01052858515
 20
4101.1882420000011
 30
0.0
 40
199.9999949999999
  0
CIRCLE
  5
A7E2
  8
0-5
  6
CONTINUOUS
 62
     4
 10
6208.7340064709351
 20
4101.1882420000011
 30
0.0
 40
199.9999949999999
  0
CIRCLE
  5
A7E3
  8
0-5
  6
CONTINUOUS
 62
     4
 10
15128.71667799999
 20
1375.999982000001
 30
0.0
 40
20.0
  0
ARC
  5
A7E4
  8
0-5
  6
CONTINUOUS
 62
     4
 10
15128.71667799999
 20
1375.999982000001
 30
0.0
 40
20.0
 50
180.0
 51
0.0
  0
ARC
  5
A7E5
  8
0-5
  6
CONTINUOUS
 62
     4
 10
15128.71667799999
 20
1375.999982000001
 30
0.0
 40
20.0
 50
0.0
 51
179.99998500000001
  0
CIRCLE
  5
A7E6
  8
0-5
  6
CONTINUOUS
 62
     4
 10
15128.71667799999
 20
1775.999321999999
 30
0.0
 40
20.0
  0
ARC
  5
A7E7
  8
0-5
  6
CONTINUOUS
 62
     4
 10
15128.71667799999
 20
1775.999321999999
 30
0.0
 40
20.0
 50
180.0
 51
0.0
  0
ARC
  5
A7E8
  8
0-5
  6
CONTINUOUS
 62
     4
 10
15128.71667799999
 20
1775.999321999999
 30
0.0
 40
20.0
 50
0.0
 51
179.99998500000001
  0
TEXT
  5
A7E9
  8
0-5
  6
CONTINUOUS
 62
     7
 10
21946.340184585151
 20
21404.260784999999
 30
0.0
 40
160.0
  1
2
 72
     4
 11
21999.67351791848
 21
21484.260784999999
 31
0.0
  0
TEXT
  5
A7EA
  8
0-5
  6
CONTINUOUS
 62
     7
 10
19028.340184585159
 20
21404.260784999999
 30
0.0
 40
160.0
  1
1
 72
     4
 11
19055.00685125183
 21
21484.260784999999
 31
0.0
  0
TEXT
  5
A7EB
  8
0-5
  6
CONTINUOUS
 62
     7
 10
16791.832583585168
 20
19556.367652000001
 30
0.0
 40
160.0
  1
C
 72
     4
 11
16845.1659169185
 21
19636.367652000001
 31
0.0
  0
TEXT
  5
A7EC
  8
0-5
  6
CONTINUOUS
 62
     7
 10
7850.026114936717
 20
21001.271712000002
 30
0.0
 40
160.0
  1
2
 72
     4
 11
7903.359448270051
 21
21081.271712000002
 31
0.0
  0
TEXT
  5
A7ED
  8
0-5
  6
CONTINUOUS
 62
     7
 10
4932.0241359367183
 20
21001.271712000002
 30
0.0
 40
160.0
  1
1
 72
     4
 11
4958.6908026033852
 21
21081.271712000002
 31
0.0
  0
TEXT
  5
A7EE
  8
0-5
  6
CONTINUOUS
 62
     7
 10
3402.78367693672
 20
19568.397186999999
 30
0.0
 40
160.0
  1
C
 72
     4
 11
3456.117010270053
 21
19648.397186999999
 31
0.0
  0
TEXT
  5
A7EF
  8
0-5
  6
CONTINUOUS
 62
     7
 10
16791.832583585168
 20
16638.367653000001
 30
0.0
 40
160.0
  1
B
 72
     4
 11
16845.1659169185
 21
16718.367653000001
 31
0.0
  0
TEXT
  5
A7F0
  8
0-5
  6
CONTINUOUS
 62
     7
 10
16791.832583585168
 20
13369.867652000001
 30
0.0
 40
160.0
  1
A
 72
     4
 11
16845.1659169185
 21
13449.867652000001
 31
0.0
  0
TEXT
  5
A7F1
  8
0-5
  6
CONTINUOUS
 62
     7
 10
3402.7836769367191
 20
16650.398176999981
 30
0.0
 40
160.0
  1
B
 72
     4
 11
3456.1170102700521
 21
16730.398176999981
 31
0.0
  0
TEXT
  5
A7F2
  8
0-5
  6
CONTINUOUS
 62
     7
 10
3402.7836769367191
 20
13381.897187
 30
0.0
 40
160.0
  1
A
 72
     4
 11
3456.1170102700521
 21
13461.897187
 31
0.0
  0
TEXT
  5
A7F3
  8
0-5
  6
CONTINUOUS
 62
     7
 10
21949.097653585151
 20
4011.7132600000009
 30
0.0
 40
160.0
  1
2
 72
     4
 11
22002.43098691848
 21
4091.7132600000009
 31
0.0
  0
TEXT
  5
A7F4
  8
0-5
  6
CONTINUOUS
 62
     7
 10
18473.01000158516
 20
6988.0104361594431
 30
0.0
 40
160.0
  1
(2131.5)
 50
90.0
 72
     4
 11
18393.01000158516
 21
7441.3437694927761
 31
0.0
  0
TEXT
  5
A7F5
  8
0-5
  6
CONTINUOUS
 62
     7
 10
13696.22706547093
 20
6529.034625000003
 30
0.0
 40
160.0
  1
布基礎天端
 72
     4
 11
14154.8937321376
 21
6609.034625000003
 31
0.0
  0
TEXT
  5
A7F6
  8
0-5
  6
CONTINUOUS
 62
     7
 10
16861.137508585161
 20
6429.0347900000006
 30
0.0
 40
160.0
  1
G.L
 72
     4
 11
17021.137508585161
 21
6509.0347900000006
 31
0.0
  0
TEXT
  5
A7F7
  8
0-5
  6
CONTINUOUS
 62
     7
 10
19031.097654585159
 20
4011.7132600000009
 30
0.0
 40
160.0
  1
1
 72
     4
 11
19057.764321251831
 21
4091.7132600000009
 31
0.0
  0
TEXT
  5
A7F8
  8
0-5
  6
CONTINUOUS
 62
     7
 10
12348.277846470921
 20
4017.9774460000021
 30
0.0
 40
160.0
  1
A
 72
     4
 11
12401.61117980426
 21
4097.9774460000026
 31
0.0
  0
TEXT
  5
A7F9
  8
0-5
  6
CONTINUOUS
 62
     7
 10
9079.7778464709299
 20
4017.9774460000021
 30
0.0
 40
160.0
  1
B
 72
     4
 11
9133.1111798042657
 21
4097.9774460000026
 31
0.0
  0
TEXT
  5
A7FA
  8
0-5
  6
CONTINUOUS
 62
     7
 10
16661.217403999992
 20
1655.999792000001
 30
0.0
 40
160.0
  1
H
  0
TEXT
  5
A7FB
  8
0-5
  6
CONTINUOUS
 62
     7
 10
6161.777846470939
 20
4017.9774460000021
 30
0.0
 40
160.0
  1
C
 72
     4
 11
6215.1111798042721
 21
4097.9774460000026
 31
0.0
  0
TEXT
  5
A7FC
  8
0-5
  6
CONTINUOUS
 62
     7
 10
15176.146933
 20
1655.999792000001
 30
0.0
 40
160.0
  1
（ ）内寸法ハ、  タイプヲ示ス。
  0
TEXT
  5
A7FD
  8
0-5
  6
CONTINUOUS
 62
     7
 10
15288.716216000001
 20
1255.999462
 30
0.0
 40
160.0
  1
有効高サハ、基礎高サヲ含ミマセン。
  0
TEXT
  5
A803
  8
0-6
  6
CONTINUOUS
 62
     7
 10
19852.012006585141
 20
12921.98737399998
 30
0.0
 40
160.0
  1
前柱（左）
 72
     4
 11
20268.012006585141
 21
13001.98737399998
 31
0.0
  0
TEXT
  5
A805
  8
0-6
  6
CONTINUOUS
 62
     7
 10
6905.5487340382979
 20
20192.344007999069
 30
0.0
 40
160.0
  1
屋根
 72
     4
 11
7076.2154007049639
 21
20272.344007999069
 31
0.0
  0
TEXT
  5
A806
  8
0-6
  6
CONTINUOUS
 62
     7
 10
5254.5728320383032
 20
20192.344007999069
 30
0.0
 40
160.0
  1
桁（後）
 72
     4
 11
5574.5728320383032
 21
20272.344007999069
 31
0.0
  0
TEXT
  5
A807
  8
0-6
  6
CONTINUOUS
 62
     7
 10
5959.0127989367102
 20
13933.315499
 30
0.0
 40
160.0
  1
桁（前）
 72
     4
 11
6279.0127989367102
 21
14013.315499
 31
0.0
  0
TEXT
  5
A808
  8
0-6
  6
CONTINUOUS
 62
     7
 10
6866.5369489367249
 20
12569.486582
 30
0.0
 40
160.0
  1
鼻隠し前
 72
     4
 11
7229.2036156033919
 21
12649.486582
 31
0.0
  0
TEXT
  5
A809
  8
0-6
  6
CONTINUOUS
 62
     7
 10
3232.1116429367189
 20
12079.485459999991
 30
0.0
 40
160.0
  1
ケラバ 左
 72
     4
 11
3648.1116429367189
 21
12159.485459999991
 31
0.0
  0
TEXT
  5
A80A
  8
0-6
  6
CONTINUOUS
 62
     7
 10
5240.7707169367213
 20
18053.20644331483
 30
0.0
 40
160.0
  1
上枠
 72
     4
 11
5411.4373836033883
 21
18133.20644331483
 31
0.0
  0
TEXT
  5
A80B
  8
0-6
  6
CONTINUOUS
 62
     7
 10
13694.14232593672
 20
20570.484918999991
 30
0.0
 40
160.0
  1
鼻隠しコーナー後
 72
     4
 11
14440.80899260339
 21
20650.484918999991
 31
0.0
  0
TEXT
  5
A80C
  8
2-0
  6
CONTINUOUS
 62
     7
 10
22172.668069228708
 20
11251.104441999991
 30
0.0
 40
160.0
  1
平　面　図
 72
     4
 11
22626.00140256204
 21
11325.77110866666
 31
0.0
  0
TEXT
  5
A80D
  8
2-0
  6
CONTINUOUS
 62
     7
 10
7397.297804796618
 20
11156.81700299998
 30
0.0
 40
160.0
  1
小 屋 伏 図
 72
     4
 11
7898.6311381299502
 21
11236.81700299998
 31
0.0
  0
TEXT
  5
A80E
  8
2-0
  6
CONTINUOUS
 62
     7
 10
21841.769232999432
 20
3292.802588999999
 30
0.0
 40
160.0
  1
正 面 立 面 図
 72
     4
 11
22487.102566332771
 21
3372.802588999999
 31
0.0
  0
TEXT
  5
A80F
  8
2-0
  6
CONTINUOUS
 62
     7
 10
7808.7002624709367
 20
3264.0669070000022
 30
0.0
 40
160.0
  1
側 面 立 面 図
 50
0.000139
 72
     4
 11
8454.0334017217574
 21
3344.0684725833762
 31
0.0
  0
CIRCLE
  5
A813
  8
0-4
  6
CONTINUOUS
 62
     4
 10
20542.00854908516
 20
6627.2449749999987
 30
0.0
 40
18.487504999999981
  0
TEXT
  5
A814
  8
2-0
  6
CONTINUOUS
 62
     7
 10
9805.5255868593831
 20
3291.2638415833758
 30
0.0
 40
160.0
  1
1
 72
     4
 11
9832.1922535260492
 21
3371.2638415833749
 31
0.0
  0
TEXT
  5
A815
  8
2-0
  6
CONTINUOUS
 62
     7
 10
10048.61430411006
 20
3211.2653095833748
 30
0.0
 40
160.0
  1
80
 72
     4
 11
10168.61430411006
 21
3291.2653095833748
 31
0.0
  0
TEXT
  5
A816
  8
2-0
  6
CONTINUOUS
 62
     7
 10
9306.5275528593793
 20
3264.0684725833762
 30
0.0
 40
160.0
  1
(S=  /   )
 72
     4
 11
9866.5275528593793
 21
3344.0684725833762
 31
0.0
  0
TEXT
  5
A817
  8
2-0
  6
CONTINUOUS
 62
     7
 10
23838.594751470391
 20
3319.9979579999999
 30
0.0
 40
160.0
  1
1
 72
     4
 11
23865.261418137059
 21
3399.9979579999999
 31
0.0
  0
TEXT
  5
A818
  8
2-0
  6
CONTINUOUS
 62
     7
 10
24081.683468721101
 20
3239.9994259999989
 30
0.0
 40
160.0
  1
80
 72
     4
 11
24201.683468721101
 21
3319.9994259999989
 31
0.0
  0
TEXT
  5
A819
  8
2-0
  6
CONTINUOUS
 62
     7
 10
23339.596717470398
 20
3292.802588999999
 30
0.0
 40
160.0
  1
(S=  /   )
 72
     4
 11
23899.596717470398
 21
3372.802588999999
 31
0.0
  0
TEXT
  5
A81A
  8
2-0
  6
CONTINUOUS
 62
     7
 10
23977.493587699679
 20
11272.96647766667
 30
0.0
 40
160.0
  1
1
 72
     4
 11
24004.160254366339
 21
11352.96647766667
 31
0.0
  0
TEXT
  5
A81B
  8
2-0
  6
CONTINUOUS
 62
     7
 10
24220.58230495036
 20
11192.967945666671
 30
0.0
 40
160.0
  1
80
 72
     4
 11
24340.58230495036
 21
11272.967945666671
 31
0.0
  0
TEXT
  5
A81C
  8
2-0
  6
CONTINUOUS
 62
     7
 10
23478.495553699671
 20
11245.77110866666
 30
0.0
 40
160.0
  1
(S=  /   )
 72
     4
 11
24038.495553699671
 21
11325.77110866666
 31
0.0
  0
TEXT
  5
A81D
  8
2-0
  6
CONTINUOUS
 62
     7
 10
9250.1233232675786
 20
11184.012371999979
 30
0.0
 40
160.0
  1
1
 72
     4
 11
9276.7899899342447
 21
11264.012371999979
 31
0.0
  0
TEXT
  5
A81E
  8
2-0
  6
CONTINUOUS
 62
     7
 10
9493.2120405182704
 20
11104.01383999998
 30
0.0
 40
160.0
  1
80
 72
     4
 11
9613.2120405182704
 21
11184.01383999998
 31
0.0
  0
TEXT
  5
A81F
  8
2-0
  6
CONTINUOUS
 62
     7
 10
8751.1252892675675
 20
11156.81700299998
 30
0.0
 40
160.0
  1
(S=  /   )
 72
     4
 11
9311.1252892675675
 21
11236.81700299998
 31
0.0
  0
LINE
  5
A820
  8
1-前柱カバ-P
 10
26958.510528585161
 20
8459.188465999996
 30
0.0
 11
26958.510528585161
 21
6141.1885389999998
 31
0.0
  0
LINE
  5
A821
  8
1-前柱カバ-P
 10
27043.510528585171
 20
8589.1884000000027
 30
0.0
 11
27043.510528585161
 21
6141.1885389999998
 31
0.0
  0
LINE
  5
A822
  8
0-1
  6
CONTINUOUS
 62
     3
 10
27086.510528585171
 20
8459.1884660000032
 30
0.0
 11
21958.510264585151
 21
8459.1884659999978
 31
0.0
  0
LINE
  5
A823
  8
0-1
  6
CONTINUOUS
 62
     3
 10
22023.511716585152
 20
8589.1883999999973
 30
0.0
 11
27086.510528585171
 21
8589.1884000000027
 31
0.0
  0
LINE
  5
A824
  8
0-1
  6
CONTINUOUS
 62
     3
 10
27086.510528585171
 20
8263.5026620000044
 30
0.0
 11
27086.510528585171
 21
8589.1884000000027
 31
0.0
  0
LINE
  5
A825
  8
0-1
  6
CONTINUOUS
 62
     3
 10
27086.510528585171
 20
8263.5026620000044
 30
0.0
 11
27043.510528585171
 21
8263.5026620000044
 31
0.0
  0
LINE
  5
A826
  8
2-0
  6
CENTER2
 62
     6
 10
27001.010528585161
 20
5878.536116000002
 30
0.0
 11
27001.010528585161
 21
6915.6791430000021
 31
0.0
  0
LINE
  5
A827
  8
1-桁前P28
 10
26958.510528585161
 20
8261.5026620000044
 30
0.0
 11
22043.510528585161
 21
8261.5026620000026
 31
0.0
  0
CIRCLE
  5
A828
  8
0-5
  6
CONTINUOUS
 62
     4
 10
27001.010528585161
 20
4101.1882420000011
 30
0.0
 40
199.9999949999999
  0
TEXT
  5
A829
  8
0-5
  6
CONTINUOUS
 62
     7
 10
26949.09765358517
 20
4011.7132600000009
 30
0.0
 40
160.0
  1
3
 72
     4
 11
27002.430986918502
 21
4091.7132600000009
 31
0.0
  0
LINE
  5
A82A
  8
0-5
  6
CONTINUOUS
 62
     4
 10
27001.010528585161
 20
4461.1889350000001
 30
0.0
 11
27001.010528585161
 21
4301.1893970000001
 31
0.0
  0
LINE
  5
A82B
  8
2-0
  6
CENTER2
 62
     6
 10
27001.010528585161
 20
21290.487954000011
 30
0.0
 11
27001.010528585161
 21
12298.986700999991
 31
0.0
  0
CIRCLE
  5
A82C
  8
0-5
  6
CONTINUOUS
 62
     4
 10
27001.010528585161
 20
21490.48663499999
 30
0.0
 40
199.9999949999999
  0
TEXT
  5
A82D
  8
0-5
  6
CONTINUOUS
 62
     7
 10
26946.340184585151
 20
21404.260784999999
 30
0.0
 40
160.0
  1
3
 72
     4
 11
26999.67351791848
 21
21484.260784999999
 31
0.0
  0
ARC
  5
A82E
  8
1-後柱P
  6
HIDE-M
 62
     6
 10
27004.61052858517
 20
19579.935710999991
 30
0.0
 40
2.6000000000000001
 50
180.0
 51
270.0
  0
LINE
  5
A82F
  8
1-後柱P
  6
HIDE-M
 62
     6
 10
26993.010528585161
 20
19577.886320846799
 30
0.0
 11
26993.010528585161
 21
19581.535711
 31
0.0
  0
LINE
  5
A830
  8
1-後柱P
  6
HIDE-M
 62
     6
 10
27003.010528585161
 20
19577.886320846799
 30
0.0
 11
27003.010528585161
 21
19581.535711
 31
0.0
  0
LINE
  5
A831
  8
1-後柱P
  6
1PL-M
 62
     6
 10
26998.010528585171
 20
19572.335710999989
 30
0.0
 11
26998.010528585171
 21
19586.535711
 31
0.0
  0
ARC
  5
A832
  8
1-後柱P
  6
HIDE-M
 62
     6
 10
26991.410528585158
 20
19579.935710999991
 30
0.0
 40
2.6000000000000001
 50
270.0
 51
0.0
  0
LINE
  5
A833
  8
1-後柱P
  6
HIDE-M
 62
     6
 10
27002.010528585161
 20
19579.935710999991
 30
0.0
 11
27002.010528585161
 21
19581.535711
 31
0.0
  0
LINE
  5
A834
  8
1-後柱P
  6
HIDE-M
 62
     6
 10
26994.010528585171
 20
19579.935710999991
 30
0.0
 11
26994.010528585171
 21
19581.535711
 31
0.0
  0
LINE
  5
A835
  8
1-後柱P
 10
27011.910528585158
 20
19692.235711000001
 30
0.0
 11
26990.11052858517
 21
19692.235711000001
 31
0.0
  0
LINE
  5
A836
  8
1-後柱P
 10
26960.11052858517
 20
19654.935710999991
 30
0.0
 11
26960.11052858517
 21
19662.235711000001
 31
0.0
  0
ARC
  5
A837
  8
1-後柱P
 10
26990.11052858517
 20
19662.235711000001
 30
0.0
 40
30.0
 50
90.0
 51
180.0
  0
ARC
  5
A838
  8
1-後柱P
 10
26990.11052858517
 20
19662.235711000001
 30
0.0
 40
31.600000000000001
 50
90.0
 51
180.0
  0
LINE
  5
A839
  8
1-後柱P
 10
27011.910528585158
 20
19693.835711
 30
0.0
 11
26990.11052858517
 21
19693.835711
 31
0.0
  0
LINE
  5
A83A
  8
1-後柱P
 10
26958.510528585161
 20
19654.935710999991
 30
0.0
 11
26958.510528585161
 21
19662.235711000001
 31
0.0
  0
LINE
  5
A83B
  8
1-後柱P
 10
26981.510528585161
 20
19633.335711
 30
0.0
 11
26981.510528585161
 21
19643.335711
 31
0.0
  0
LINE
  5
A83C
  8
1-後柱P
 10
26983.11052858517
 20
19643.335711
 30
0.0
 11
26983.11052858517
 21
19633.335711
 31
0.0
  0
LINE
  5
A83D
  8
1-後柱P
 10
27041.910528585158
 20
19654.935710999991
 30
0.0
 11
27041.910528585158
 21
19662.235711000001
 31
0.0
  0
ARC
  5
A83E
  8
1-後柱P
 10
27011.910528585158
 20
19662.235711000001
 30
0.0
 40
30.0
 50
0.0
 51
90.0
  0
ARC
  5
A83F
  8
1-後柱P
 10
27011.910528585158
 20
19662.235711000001
 30
0.0
 40
31.600000000000001
 50
0.0
 51
90.0
  0
LINE
  5
A840
  8
1-後柱P
 10
27043.510528585171
 20
19654.935710999991
 30
0.0
 11
27043.510528585171
 21
19662.235711000001
 31
0.0
  0
LINE
  5
A841
  8
1-後柱P
 10
27036.910528585158
 20
19648.335710999989
 30
0.0
 11
27025.510528585161
 21
19648.335710999989
 31
0.0
  0
ARC
  5
A842
  8
1-後柱P
 10
27036.910528585158
 20
19654.935710999991
 30
0.0
 40
6.599999999999997
 50
270.0
 51
0.0
  0
ARC
  5
A843
  8
1-後柱P
 10
27025.510528585161
 20
19643.335711
 30
0.0
 40
5.0
 50
90.0
 51
180.0
  0
LINE
  5
A844
  8
1-後柱P
 10
27036.910528585158
 20
19649.935710999991
 30
0.0
 11
27025.510528585161
 21
19649.935710999991
 31
0.0
  0
ARC
  5
A845
  8
1-後柱P
 10
27036.910528585158
 20
19654.935710999991
 30
0.0
 40
5.0
 50
270.0
 51
0.0
  0
LINE
  5
A846
  8
1-後柱P
 10
27020.510528585171
 20
19643.335711
 30
0.0
 11
27020.510528585171
 21
19583.935710999998
 31
0.0
  0
LINE
  5
A847
  8
1-後柱P
 10
27018.910528585158
 20
19643.335711
 30
0.0
 11
27018.910528585158
 21
19583.935710999998
 31
0.0
  0
ARC
  5
A848
  8
1-後柱P
 10
27025.510528585161
 20
19643.335711
 30
0.0
 40
6.599999999999997
 50
90.0
 51
180.0
  0
LINE
  5
A849
  8
1-後柱P
 10
27013.910528585158
 20
19577.335711
 30
0.0
 11
26980.510528585171
 21
19577.335711
 31
0.0
  0
ARC
  5
A84A
  8
1-後柱P
 10
27013.910528585158
 20
19583.935710999998
 30
0.0
 40
6.599999999999997
 50
270.0
 51
0.0
  0
LINE
  5
A84B
  8
1-後柱P
 10
27013.910528585158
 20
19578.935710999991
 30
0.0
 11
26980.510528585171
 21
19578.935710999991
 31
0.0
  0
ARC
  5
A84C
  8
1-後柱P
 10
27013.910528585158
 20
19583.935710999998
 30
0.0
 40
5.0
 50
270.0
 51
0.0
  0
LINE
  5
A84D
  8
1-後柱P
 10
26980.510528585171
 20
19578.935710999991
 30
0.0
 11
26980.510528585171
 21
19577.335711
 31
0.0
  0
LINE
  5
A84E
  8
1-後柱P
 10
26965.11052858517
 20
19648.335710999989
 30
0.0
 11
26976.510528585161
 21
19648.335710999989
 31
0.0
  0
ARC
  5
A84F
  8
1-後柱P
 10
26965.11052858517
 20
19654.935710999991
 30
0.0
 40
6.599999999999997
 50
180.0
 51
270.0
  0
ARC
  5
A850
  8
1-後柱P
 10
26976.510528585161
 20
19643.335711
 30
0.0
 40
5.0
 50
0.0
 51
90.0
  0
LINE
  5
A851
  8
1-後柱P
 10
26976.510528585161
 20
19649.935710999991
 30
0.0
 11
26965.11052858517
 21
19649.935710999991
 31
0.0
  0
ARC
  5
A852
  8
1-後柱P
 10
26976.510528585161
 20
19643.335711
 30
0.0
 40
6.599999999999997
 50
0.0
 51
90.0
  0
ARC
  5
A853
  8
1-後柱P
 10
26965.11052858517
 20
19654.935710999991
 30
0.0
 40
5.0
 50
180.0
 51
270.0
  0
LINE
  5
A854
  8
1-後柱P
 10
26981.510528585161
 20
19633.335711
 30
0.0
 11
26983.11052858517
 21
19633.335711
 31
0.0
  0
LINE
  5
A855
  8
1-後柱カバ-P
 10
26958.510528585161
 20
19641.635710999999
 30
0.0
 11
26958.510528585161
 21
19582.335711
 31
0.0
  0
ARC
  5
A856
  8
1-後柱カバ-P
 10
26965.11052858517
 20
19582.335711
 30
0.0
 40
6.599999999999997
 50
180.0
 51
270.0
  0
LINE
  5
A857
  8
1-後柱カバ-P
 10
26960.11052858517
 20
19641.635710999999
 30
0.0
 11
26960.11052858517
 21
19582.335711
 31
0.0
  0
ARC
  5
A858
  8
1-後柱カバ-P
 10
26965.11052858517
 20
19641.635710999999
 30
0.0
 40
5.0
 50
90.0
 51
180.0
  0
LINE
  5
A859
  8
1-後柱カバ-P
 10
26965.11052858517
 20
19575.735711000001
 30
0.0
 11
27036.910528585158
 21
19575.735711000001
 31
0.0
  0
ARC
  5
A85A
  8
1-後柱カバ-P
 10
27036.910528585158
 20
19582.335711
 30
0.0
 40
6.599999999999997
 50
270.0
 51
0.0
  0
LINE
  5
A85B
  8
1-後柱カバ-P
 10
26965.11052858517
 20
19577.335711
 30
0.0
 11
27036.910528585158
 21
19577.335711
 31
0.0
  0
ARC
  5
A85C
  8
1-後柱カバ-P
 10
27036.910528585158
 20
19582.335711
 30
0.0
 40
5.0
 50
270.0
 51
0.0
  0
ARC
  5
A85D
  8
1-後柱カバ-P
 10
26965.11052858517
 20
19582.335711
 30
0.0
 40
5.0
 50
180.0
 51
270.0
  0
LINE
  5
A85E
  8
1-後柱カバ-P
 10
27043.510528585171
 20
19582.335711
 30
0.0
 11
27043.510528585171
 21
19641.635710999999
 31
0.0
  0
LINE
  5
A85F
  8
1-後柱カバ-P
 10
27041.910528585158
 20
19582.335711
 30
0.0
 11
27041.910528585158
 21
19641.635710999999
 31
0.0
  0
ARC
  5
A860
  8
1-後柱カバ-P
 10
27036.910528585158
 20
19641.635710999999
 30
0.0
 40
5.0
 50
0.0
 51
90.0
  0
LINE
  5
A861
  8
1-後柱カバ-P
  6
1PL-M
 62
     6
 10
27001.010528585161
 20
19583.235711000001
 30
0.0
 11
27001.010528585161
 21
19570.235711000001
 31
0.0
  0
LINE
  5
A862
  8
1-後柱カバ-P
  6
HIDE-M
 62
     6
 10
26994.010528585171
 20
19575.735711000001
 30
0.0
 11
26994.010528585171
 21
19577.335711
 31
0.0
  0
LINE
  5
A863
  8
1-後柱カバ-P
  6
HIDE-M
 62
     6
 10
27008.010528585161
 20
19575.735711000001
 30
0.0
 11
27008.010528585161
 21
19577.335711
 31
0.0
  0
ARC
  5
A864
  8
1-後柱カバ-P
 10
26965.11052858517
 20
19641.635710999999
 30
0.0
 40
6.599999999999997
 50
90.0
 51
180.0
  0
ARC
  5
A865
  8
1-後柱カバ-P
 10
27036.910528585158
 20
19641.635710999999
 30
0.0
 40
6.599999999999997
 50
0.0
 51
90.0
  0
LINE
  5
A866
  8
1-後柱カバ-P
 10
27028.510528585171
 20
19648.235711000001
 30
0.0
 11
27036.910528585158
 21
19648.235711000001
 31
0.0
  0
LINE
  5
A867
  8
1-後柱カバ-P
 10
26973.510528585161
 20
19648.235711000001
 30
0.0
 11
26965.11052858517
 21
19648.235711000001
 31
0.0
  0
LINE
  5
A868
  8
1-後柱カバ-P
 10
27028.510528585171
 20
19646.635710999999
 30
0.0
 11
27036.910528585158
 21
19646.635710999999
 31
0.0
  0
LINE
  5
A869
  8
1-後柱カバ-P
 10
26973.510528585161
 20
19646.635710999999
 30
0.0
 11
26965.11052858517
 21
19646.635710999999
 31
0.0
  0
LINE
  5
A86A
  8
1-後柱カバ-P
 10
26973.510528585161
 20
19646.635710999999
 30
0.0
 11
26973.510528585161
 21
19648.235711000001
 31
0.0
  0
LINE
  5
A86B
  8
1-後柱カバ-P
 10
27028.510528585171
 20
19648.235711000001
 30
0.0
 11
27028.510528585171
 21
19646.635710999999
 31
0.0
  0
LINE
  5
A86C
  8
1-後柱カバ-P
  6
HIDE-M
 62
     6
 10
27032.410528585158
 20
19627.235711000001
 30
0.0
 11
27044.010528585161
 21
19627.235711000001
 31
0.0
  0
LINE
  5
A86D
  8
1-後柱カバ-P
  6
HIDE-M
 62
     6
 10
27032.410528585158
 20
19619.23571099999
 30
0.0
 11
27044.010528585161
 21
19619.23571099999
 31
0.0
  0
LINE
  5
A86E
  8
1-後柱カバ-P
  6
HIDE-M
 62
     6
 10
27032.410528585158
 20
19626.23571099999
 30
0.0
 11
27044.010528585161
 21
19626.23571099999
 31
0.0
  0
LINE
  5
A86F
  8
1-後柱カバ-P
  6
HIDE-M
 62
     6
 10
27032.410528585158
 20
19620.23571099999
 30
0.0
 11
27044.010528585161
 21
19620.23571099999
 31
0.0
  0
LINE
  5
A870
  8
1-後柱カバ-P
 10
27033.410528585158
 20
19617.735711000001
 30
0.0
 11
27040.410528585158
 21
19617.735711000001
 31
0.0
  0
LINE
  5
A871
  8
1-後柱カバ-P
 10
27040.410528585158
 20
19628.735711000001
 30
0.0
 11
27033.410528585158
 21
19628.735711000001
 31
0.0
  0
LINE
  5
A872
  8
1-後柱カバ-P
 10
27040.410528585158
 20
19629.485711000001
 30
0.0
 11
27040.410528585158
 21
19616.985711000001
 31
0.0
  0
LINE
  5
A873
  8
1-後柱カバ-P
 10
27044.010528585161
 20
19629.235711000001
 30
0.0
 11
27044.010528585161
 21
19617.235711000001
 31
0.0
  0
LINE
  5
A874
  8
1-後柱カバ-P
  6
HIDE-M
 62
     6
 10
27041.910528585158
 20
19617.735711000001
 30
0.0
 11
27043.510528585171
 21
19617.735711000001
 31
0.0
  0
LINE
  5
A875
  8
1-後柱カバ-P
 10
27044.010528585161
 20
19617.235711000001
 30
0.0
 11
27043.510528585171
 21
19617.735711000001
 31
0.0
  0
ARC
  5
A876
  8
1-後柱カバ-P
 10
27041.160528585158
 20
19616.985711000001
 30
0.0
 40
0.75
 50
180.0
 51
0.0
  0
LINE
  5
A877
  8
1-後柱カバ-P
  6
HIDE-M
 62
     6
 10
27043.510528585171
 20
19628.735711000001
 30
0.0
 11
27041.910528585158
 21
19628.735711000001
 31
0.0
  0
LINE
  5
A878
  8
1-後柱カバ-P
 10
27044.010528585161
 20
19629.235711000001
 30
0.0
 11
27043.510528585171
 21
19628.735711000001
 31
0.0
  0
ARC
  5
A879
  8
1-後柱カバ-P
 10
27041.160528585158
 20
19629.485711000001
 30
0.0
 40
0.75
 50
0.0
 51
180.0
  0
LINE
  5
A87A
  8
1-後柱カバ-P
 10
27032.410528585158
 20
19627.73571099999
 30
0.0
 11
27032.410528585158
 21
19618.735711000001
 31
0.0
  0
ARC
  5
A87B
  8
1-後柱カバ-P
 10
27033.410528585158
 20
19618.735711000001
 30
0.0
 40
1.0
 50
180.0
 51
270.0
  0
ARC
  5
A87C
  8
1-後柱カバ-P
 10
27033.410528585158
 20
19627.73571099999
 30
0.0
 40
1.0
 50
90.0
 51
180.0
  0
LINE
  5
A87D
  8
1-後柱カバ-P
  6
1PL-M
 62
     6
 10
27027.410528585158
 20
19623.23571099999
 30
0.0
 11
27049.010528585171
 21
19623.23571099999
 31
0.0
  0
LINE
  5
A87E
  8
1-後柱カバ-P
 10
27033.410528585158
 20
19607.735711000001
 30
0.0
 11
27040.410528585158
 21
19607.735711000001
 31
0.0
  0
LINE
  5
A87F
  8
1-後柱カバ-P
 10
27044.010528585161
 20
19615.235711000001
 30
0.0
 11
27044.010528585161
 21
19607.235711000001
 31
0.0
  0
LINE
  5
A880
  8
1-後柱カバ-P
  6
HIDE-M
 62
     6
 10
27041.910528585158
 20
19607.735711000001
 30
0.0
 11
27043.510528585171
 21
19607.735711000001
 31
0.0
  0
LINE
  5
A881
  8
1-後柱カバ-P
 10
27044.010528585161
 20
19607.235711000001
 30
0.0
 11
27043.510528585171
 21
19607.735711000001
 31
0.0
  0
ARC
  5
A882
  8
1-後柱カバ-P
 10
27041.160528585158
 20
19606.985711000001
 30
0.0
 40
0.75
 50
180.0
 51
0.0
  0
LINE
  5
A883
  8
1-後柱カバ-P
 10
27032.410528585158
 20
19616.735711000001
 30
0.0
 11
27032.410528585158
 21
19608.735711000001
 31
0.0
  0
ARC
  5
A884
  8
1-後柱カバ-P
 10
27033.410528585158
 20
19608.735711000001
 30
0.0
 40
1.0
 50
180.0
 51
270.0
  0
LINE
  5
A885
  8
1-後柱カバ-P
  6
1PL-M
 62
     6
 10
27027.410528585158
 20
19613.235711000001
 30
0.0
 11
27049.010528585171
 21
19613.235711000001
 31
0.0
  0
LINE
  5
A886
  8
1-後柱カバ-P
 10
27040.410528585158
 20
19614.985711000001
 30
0.0
 11
27040.410528585158
 21
19606.985711000001
 31
0.0
  0
LINE
  5
A887
  8
1-後柱カバ-P
  6
HIDE-M
 62
     6
 10
26969.61052858517
 20
19627.235711000001
 30
0.0
 11
26958.010528585171
 21
19627.235711000001
 31
0.0
  0
LINE
  5
A888
  8
1-後柱カバ-P
  6
HIDE-M
 62
     6
 10
26969.61052858517
 20
19619.23571099999
 30
0.0
 11
26958.010528585171
 21
19619.23571099999
 31
0.0
  0
LINE
  5
A889
  8
1-後柱カバ-P
  6
HIDE-M
 62
     6
 10
26969.61052858517
 20
19626.23571099999
 30
0.0
 11
26958.010528585171
 21
19626.23571099999
 31
0.0
  0
LINE
  5
A88A
  8
1-後柱カバ-P
  6
HIDE-M
 62
     6
 10
26969.61052858517
 20
19620.23571099999
 30
0.0
 11
26958.010528585171
 21
19620.23571099999
 31
0.0
  0
LINE
  5
A88B
  8
1-後柱カバ-P
 10
26968.61052858517
 20
19617.735711000001
 30
0.0
 11
26961.61052858517
 21
19617.735711000001
 31
0.0
  0
LINE
  5
A88C
  8
1-後柱カバ-P
 10
26961.61052858517
 20
19628.735711000001
 30
0.0
 11
26968.61052858517
 21
19628.735711000001
 31
0.0
  0
LINE
  5
A88D
  8
1-後柱カバ-P
 10
26961.61052858517
 20
19629.485711000001
 30
0.0
 11
26961.61052858517
 21
19616.985711000001
 31
0.0
  0
LINE
  5
A88E
  8
1-後柱カバ-P
 10
26958.010528585171
 20
19629.235711000001
 30
0.0
 11
26958.010528585171
 21
19617.235711000001
 31
0.0
  0
LINE
  5
A88F
  8
1-後柱カバ-P
  6
HIDE-M
 62
     6
 10
26960.11052858517
 20
19617.735711000001
 30
0.0
 11
26958.510528585161
 21
19617.735711000001
 31
0.0
  0
LINE
  5
A890
  8
1-後柱カバ-P
 10
26958.010528585171
 20
19617.235711000001
 30
0.0
 11
26958.510528585161
 21
19617.735711000001
 31
0.0
  0
ARC
  5
A891
  8
1-後柱カバ-P
 10
26960.86052858517
 20
19616.985711000001
 30
0.0
 40
0.75
 50
180.0
 51
0.0
  0
LINE
  5
A892
  8
1-後柱カバ-P
  6
HIDE-M
 62
     6
 10
26958.510528585161
 20
19628.735711000001
 30
0.0
 11
26960.11052858517
 21
19628.735711000001
 31
0.0
  0
LINE
  5
A893
  8
1-後柱カバ-P
 10
26958.010528585171
 20
19629.235711000001
 30
0.0
 11
26958.510528585161
 21
19628.735711000001
 31
0.0
  0
ARC
  5
A894
  8
1-後柱カバ-P
 10
26960.86052858517
 20
19629.485711000001
 30
0.0
 40
0.75
 50
0.0
 51
180.0
  0
LINE
  5
A895
  8
1-後柱カバ-P
 10
26969.61052858517
 20
19627.73571099999
 30
0.0
 11
26969.61052858517
 21
19618.735711000001
 31
0.0
  0
ARC
  5
A896
  8
1-後柱カバ-P
 10
26968.61052858517
 20
19618.735711000001
 30
0.0
 40
1.0
 50
270.0
 51
0.0
  0
ARC
  5
A897
  8
1-後柱カバ-P
 10
26968.61052858517
 20
19627.73571099999
 30
0.0
 40
1.0
 50
0.0
 51
90.0
  0
LINE
  5
A898
  8
1-後柱カバ-P
  6
1PL-M
 62
     6
 10
26974.61052858517
 20
19623.23571099999
 30
0.0
 11
26953.010528585161
 21
19623.23571099999
 31
0.0
  0
LINE
  5
A899
  8
1-後柱カバ-P
 10
26968.61052858517
 20
19607.735711000001
 30
0.0
 11
26961.61052858517
 21
19607.735711000001
 31
0.0
  0
LINE
  5
A89A
  8
1-後柱カバ-P
 10
26958.010528585171
 20
19615.235711000001
 30
0.0
 11
26958.010528585171
 21
19607.235711000001
 31
0.0
  0
LINE
  5
A89B
  8
1-後柱カバ-P
  6
HIDE-M
 62
     6
 10
26960.11052858517
 20
19607.735711000001
 30
0.0
 11
26958.510528585161
 21
19607.735711000001
 31
0.0
  0
LINE
  5
A89C
  8
1-後柱カバ-P
 10
26958.010528585171
 20
19607.235711000001
 30
0.0
 11
26958.510528585161
 21
19607.735711000001
 31
0.0
  0
ARC
  5
A89D
  8
1-後柱カバ-P
 10
26960.86052858517
 20
19606.985711000001
 30
0.0
 40
0.75
 50
180.0
 51
0.0
  0
LINE
  5
A89E
  8
1-後柱カバ-P
 10
26969.61052858517
 20
19616.735711000001
 30
0.0
 11
26969.61052858517
 21
19608.735711000001
 31
0.0
  0
ARC
  5
A89F
  8
1-後柱カバ-P
 10
26968.61052858517
 20
19608.735711000001
 30
0.0
 40
1.0
 50
270.0
 51
0.0
  0
LINE
  5
A8A0
  8
1-後柱カバ-P
  6
1PL-M
 62
     6
 10
26974.61052858517
 20
19613.235711000001
 30
0.0
 11
26953.010528585161
 21
19613.235711000001
 31
0.0
  0
LINE
  5
A8A1
  8
1-後柱カバ-P
 10
26961.61052858517
 20
19614.985711000001
 30
0.0
 11
26961.61052858517
 21
19606.985711000001
 31
0.0
  0
LINE
  5
A8A2
  8
1-後柱カバ-P
  6
HIDE-M
 62
     6
 10
27032.410528585158
 20
19609.235711000001
 30
0.0
 11
27044.010528585161
 21
19609.235711000001
 31
0.0
  0
LINE
  5
A8A3
  8
1-後柱カバ-P
  6
HIDE-M
 62
     6
 10
27032.410528585158
 20
19610.235711000001
 30
0.0
 11
27044.010528585161
 21
19610.235711000001
 31
0.0
  0
LINE
  5
A8A4
  8
1-後柱カバ-P
  6
HIDE-M
 62
     6
 10
26969.61052858517
 20
19609.235711000001
 30
0.0
 11
26958.010528585171
 21
19609.235711000001
 31
0.0
  0
LINE
  5
A8A5
  8
1-後柱カバ-P
  6
HIDE-M
 62
     6
 10
26969.61052858517
 20
19610.235711000001
 30
0.0
 11
26958.010528585171
 21
19610.235711000001
 31
0.0
  0
LINE
  5
A8A6
  8
1-中柱P
 10
27036.910528585158
 20
16658.985711000001
 30
0.0
 11
26965.110528585159
 21
16658.985711000001
 31
0.0
  0
ARC
  5
A8A7
  8
1-中柱P
 10
27036.910528585158
 20
16663.985711000001
 30
0.0
 40
5.0
 50
270.0
 51
0.0
  0
ARC
  5
A8A8
  8
1-中柱P
 10
26965.110528585159
 20
16663.985711000001
 30
0.0
 40
5.0
 50
180.0
 51
270.0
  0
LINE
  5
A8A9
  8
1-中柱P
 10
27036.910528585158
 20
16657.38571100001
 30
0.0
 11
26965.110528585159
 21
16657.38571100001
 31
0.0
  0
ARC
  5
A8AA
  8
1-中柱P
 10
27036.910528585158
 20
16663.985711000001
 30
0.0
 40
6.599999999999997
 50
270.0
 51
0.0
  0
LINE
  5
A8AB
  8
1-中柱P
 10
26958.510528585161
 20
16723.285711000011
 30
0.0
 11
26958.510528585161
 21
16663.985711000001
 31
0.0
  0
ARC
  5
A8AC
  8
1-中柱P
 10
26965.110528585159
 20
16663.985711000001
 30
0.0
 40
6.599999999999997
 50
180.0
 51
270.0
  0
LINE
  5
A8AD
  8
1-中柱P
 10
26960.11052858517
 20
16663.985711000001
 30
0.0
 11
26960.11052858517
 21
16723.285711000011
 31
0.0
  0
ARC
  5
A8AE
  8
1-中柱P
 10
26965.110528585159
 20
16723.285711000011
 30
0.0
 40
5.0
 50
90.0
 51
180.0
  0
LINE
  5
A8AF
  8
1-中柱P
 10
27043.510528585161
 20
16723.285711000011
 30
0.0
 11
27043.510528585161
 21
16663.985711000001
 31
0.0
  0
LINE
  5
A8B0
  8
1-中柱P
 10
27041.910528585158
 20
16663.985711000001
 30
0.0
 11
27041.910528585158
 21
16723.285711000011
 31
0.0
  0
LINE
  5
A8B1
  8
1-中柱P
 10
27036.910528585158
 20
16729.88571100001
 30
0.0
 11
27028.510528585161
 21
16729.88571100001
 31
0.0
  0
ARC
  5
A8B2
  8
1-中柱P
 10
27036.910528585158
 20
16723.285711000011
 30
0.0
 40
6.599999999999997
 50
0.0
 51
90.0
  0
LINE
  5
A8B3
  8
1-中柱P
 10
27036.910528585158
 20
16728.285711000011
 30
0.0
 11
27028.510528585161
 21
16728.285711000011
 31
0.0
  0
ARC
  5
A8B4
  8
1-中柱P
 10
27028.510528585161
 20
16734.885710999999
 30
0.0
 40
6.599999999999997
 50
180.0
 51
270.0
  0
ARC
  5
A8B5
  8
1-中柱P
 10
27036.910528585158
 20
16723.285711000011
 30
0.0
 40
5.0
 50
0.0
 51
90.0
  0
LINE
  5
A8B6
  8
1-中柱P
 10
27023.510528585161
 20
16734.885710999999
 30
0.0
 11
27023.510528585161
 21
16794.285711
 31
0.0
  0
ARC
  5
A8B7
  8
1-中柱P
 10
27028.510528585161
 20
16734.885710999999
 30
0.0
 40
5.0
 50
180.0
 51
270.0
  0
LINE
  5
A8B8
  8
1-中柱P
 10
27021.910528585158
 20
16734.885710999999
 30
0.0
 11
27021.910528585158
 21
16794.285711
 31
0.0
  0
LINE
  5
A8B9
  8
1-中柱P
 10
27016.910528585158
 20
16800.885710999992
 30
0.0
 11
26983.510528585161
 21
16800.885710999992
 31
0.0
  0
ARC
  5
A8BA
  8
1-中柱P
 10
27016.910528585158
 20
16794.285711
 30
0.0
 40
6.599999999999997
 50
0.0
 51
90.0
  0
LINE
  5
A8BB
  8
1-中柱P
 10
27016.910528585158
 20
16799.285711000011
 30
0.0
 11
26983.510528585161
 21
16799.285711000011
 31
0.0
  0
ARC
  5
A8BC
  8
1-中柱P
 10
27016.910528585158
 20
16794.285711
 30
0.0
 40
5.0
 50
0.0
 51
90.0
  0
LINE
  5
A8BD
  8
1-中柱P
 10
26983.510528585161
 20
16799.285711000011
 30
0.0
 11
26983.510528585161
 21
16800.885710999992
 31
0.0
  0
LINE
  5
A8BE
  8
1-中柱P
 10
26965.110528585159
 20
16729.88571100001
 30
0.0
 11
26973.510528585161
 21
16729.88571100001
 31
0.0
  0
ARC
  5
A8BF
  8
1-中柱P
 10
26965.110528585159
 20
16723.285711000011
 30
0.0
 40
6.599999999999997
 50
90.0
 51
180.0
  0
ARC
  5
A8C0
  8
1-中柱P
 10
26973.510528585161
 20
16734.885710999999
 30
0.0
 40
5.0
 50
270.0
 51
0.0
  0
LINE
  5
A8C1
  8
1-中柱P
 10
26973.510528585161
 20
16728.285711000011
 30
0.0
 11
26965.110528585159
 21
16728.285711000011
 31
0.0
  0
ARC
  5
A8C2
  8
1-中柱P
 10
26973.510528585161
 20
16734.885710999999
 30
0.0
 40
6.599999999999997
 50
270.0
 51
0.0
  0
ARC
  5
A8C3
  8
1-中柱P
  6
HIDE-M
 62
     6
 10
27007.610528585159
 20
16798.285711000011
 30
0.0
 40
2.6000000000000001
 50
90.0
 51
180.0
  0
LINE
  5
A8C4
  8
1-中柱P
  6
HIDE-M
 62
     6
 10
26996.010528585161
 20
16800.335101153181
 30
0.0
 11
26996.010528585161
 21
16796.685710999991
 31
0.0
  0
LINE
  5
A8C5
  8
1-中柱P
  6
HIDE-M
 62
     6
 10
27006.010528585161
 20
16800.335101153181
 30
0.0
 11
27006.010528585161
 21
16796.685710999991
 31
0.0
  0
LINE
  5
A8C6
  8
1-中柱P
  6
1PL-M
 62
     6
 10
27001.010528585161
 20
16805.88571100001
 30
0.0
 11
27001.010528585161
 21
16791.685710999991
 31
0.0
  0
ARC
  5
A8C7
  8
1-中柱P
  6
HIDE-M
 62
     6
 10
26994.410528585158
 20
16798.285711000011
 30
0.0
 40
2.6000000000000001
 50
0.0
 51
90.0
  0
LINE
  5
A8C8
  8
1-中柱P
  6
HIDE-M
 62
     6
 10
27005.010528585161
 20
16798.285711000011
 30
0.0
 11
27005.010528585161
 21
16796.685710999991
 31
0.0
  0
LINE
  5
A8C9
  8
1-中柱P
  6
HIDE-M
 62
     6
 10
26997.010528585161
 20
16798.285711000011
 30
0.0
 11
26997.010528585161
 21
16796.685710999991
 31
0.0
  0
LINE
  5
A8CA
  8
1-中柱P
 10
26980.110528585159
 20
16734.885710999999
 30
0.0
 11
26980.110528585159
 21
16744.885710999992
 31
0.0
  0
LINE
  5
A8CB
  8
1-中柱P
 10
26978.510528585161
 20
16734.885710999999
 30
0.0
 11
26978.510528585161
 21
16744.885710999992
 31
0.0
  0
LINE
  5
A8CC
  8
1-中柱P
 10
26980.110528585159
 20
16744.885710999992
 30
0.0
 11
26978.510528585161
 21
16744.885710999992
 31
0.0
  0
LINE
  5
A8CD
  8
1-中柱P
  6
1PL-M
 62
     6
 10
27028.510528585161
 20
16765.885710999992
 30
0.0
 11
27014.310528585171
 21
16765.885710999992
 31
0.0
  0
LINE
  5
A8CE
  8
1-中柱P
  6
HIDE-M
 62
     6
 10
27032.410528585158
 20
16708.885710999992
 30
0.0
 11
27044.010528585161
 21
16708.885710999992
 31
0.0
  0
LINE
  5
A8CF
  8
1-中柱P
  6
HIDE-M
 62
     6
 10
27032.410528585158
 20
16700.885710999992
 30
0.0
 11
27044.010528585161
 21
16700.885710999992
 31
0.0
  0
LINE
  5
A8D0
  8
1-中柱P
  6
HIDE-M
 62
     6
 10
27032.410528585158
 20
16707.88571100001
 30
0.0
 11
27044.010528585161
 21
16707.88571100001
 31
0.0
  0
LINE
  5
A8D1
  8
1-中柱P
  6
HIDE-M
 62
     6
 10
27032.410528585158
 20
16701.885710999992
 30
0.0
 11
27044.010528585161
 21
16701.885710999992
 31
0.0
  0
LINE
  5
A8D2
  8
1-中柱P
 10
27033.410528585158
 20
16699.38571100001
 30
0.0
 11
27040.410528585158
 21
16699.38571100001
 31
0.0
  0
LINE
  5
A8D3
  8
1-中柱P
 10
27040.410528585158
 20
16710.385710999992
 30
0.0
 11
27033.410528585158
 21
16710.385710999992
 31
0.0
  0
LINE
  5
A8D4
  8
1-中柱P
 10
27040.410528585158
 20
16711.135710999999
 30
0.0
 11
27040.410528585158
 21
16698.635710999999
 31
0.0
  0
LINE
  5
A8D5
  8
1-中柱P
 10
27044.010528585161
 20
16710.88571100001
 30
0.0
 11
27044.010528585161
 21
16698.885710999992
 31
0.0
  0
LINE
  5
A8D6
  8
1-中柱P
  6
HIDE-M
 62
     6
 10
27041.910528585158
 20
16699.38571100001
 30
0.0
 11
27043.510528585161
 21
16699.38571100001
 31
0.0
  0
LINE
  5
A8D7
  8
1-中柱P
 10
27044.010528585161
 20
16698.885710999992
 30
0.0
 11
27043.510528585161
 21
16699.38571100001
 31
0.0
  0
ARC
  5
A8D8
  8
1-中柱P
 10
27041.160528585158
 20
16698.635710999999
 30
0.0
 40
0.75
 50
180.0
 51
0.0
  0
LINE
  5
A8D9
  8
1-中柱P
  6
HIDE-M
 62
     6
 10
27043.510528585161
 20
16710.385710999992
 30
0.0
 11
27041.910528585158
 21
16710.385710999992
 31
0.0
  0
LINE
  5
A8DA
  8
1-中柱P
 10
27044.010528585161
 20
16710.88571100001
 30
0.0
 11
27043.510528585161
 21
16710.385710999992
 31
0.0
  0
ARC
  5
A8DB
  8
1-中柱P
 10
27041.160528585158
 20
16711.135710999999
 30
0.0
 40
0.75
 50
0.0
 51
180.0
  0
LINE
  5
A8DC
  8
1-中柱P
 10
27032.410528585158
 20
16709.385710999992
 30
0.0
 11
27032.410528585158
 21
16700.385710999992
 31
0.0
  0
ARC
  5
A8DD
  8
1-中柱P
 10
27033.410528585158
 20
16700.385710999992
 30
0.0
 40
1.0
 50
180.0
 51
270.0
  0
ARC
  5
A8DE
  8
1-中柱P
 10
27033.410528585158
 20
16709.385710999992
 30
0.0
 40
1.0
 50
90.0
 51
180.0
  0
LINE
  5
A8DF
  8
1-中柱P
  6
1PL-M
 62
     6
 10
27027.410528585158
 20
16704.885710999992
 30
0.0
 11
27049.010528585161
 21
16704.885710999992
 31
0.0
  0
LINE
  5
A8E0
  8
1-中柱P
 10
27033.410528585158
 20
16689.385710999992
 30
0.0
 11
27040.410528585158
 21
16689.385710999992
 31
0.0
  0
LINE
  5
A8E1
  8
1-中柱P
 10
27044.010528585161
 20
16696.885710999999
 30
0.0
 11
27044.010528585161
 21
16688.885710999992
 31
0.0
  0
LINE
  5
A8E2
  8
1-中柱P
  6
HIDE-M
 62
     6
 10
27041.910528585158
 20
16689.385710999992
 30
0.0
 11
27043.510528585161
 21
16689.385710999992
 31
0.0
  0
LINE
  5
A8E3
  8
1-中柱P
 10
27044.010528585161
 20
16688.885710999992
 30
0.0
 11
27043.510528585161
 21
16689.385710999992
 31
0.0
  0
ARC
  5
A8E4
  8
1-中柱P
 10
27041.160528585158
 20
16688.635710999992
 30
0.0
 40
0.75
 50
180.0
 51
0.0
  0
LINE
  5
A8E5
  8
1-中柱P
 10
27032.410528585158
 20
16698.38571100001
 30
0.0
 11
27032.410528585158
 21
16690.385710999992
 31
0.0
  0
ARC
  5
A8E6
  8
1-中柱P
 10
27033.410528585158
 20
16690.385710999992
 30
0.0
 40
1.0
 50
180.0
 51
270.0
  0
LINE
  5
A8E7
  8
1-中柱P
  6
1PL-M
 62
     6
 10
27027.410528585158
 20
16694.885710999999
 30
0.0
 11
27049.010528585161
 21
16694.885710999999
 31
0.0
  0
LINE
  5
A8E8
  8
1-中柱P
 10
27040.410528585158
 20
16696.635710999999
 30
0.0
 11
27040.410528585158
 21
16688.635710999992
 31
0.0
  0
LINE
  5
A8E9
  8
1-中柱P
  6
HIDE-M
 62
     6
 10
27032.410528585158
 20
16690.885710999999
 30
0.0
 11
27044.010528585161
 21
16690.885710999999
 31
0.0
  0
LINE
  5
A8EA
  8
1-中柱P
  6
HIDE-M
 62
     6
 10
27032.410528585158
 20
16691.88571100001
 30
0.0
 11
27044.010528585161
 21
16691.88571100001
 31
0.0
  0
LINE
  5
A8EB
  8
1-中柱P
  6
HIDE-M
 62
     6
 10
26969.61052858517
 20
16708.885710999992
 30
0.0
 11
26958.010528585161
 21
16708.885710999992
 31
0.0
  0
LINE
  5
A8EC
  8
1-中柱P
  6
HIDE-M
 62
     6
 10
26969.61052858517
 20
16700.885710999992
 30
0.0
 11
26958.010528585161
 21
16700.885710999992
 31
0.0
  0
LINE
  5
A8ED
  8
1-中柱P
  6
HIDE-M
 62
     6
 10
26969.61052858517
 20
16707.88571100001
 30
0.0
 11
26958.010528585161
 21
16707.88571100001
 31
0.0
  0
LINE
  5
A8EE
  8
1-中柱P
  6
HIDE-M
 62
     6
 10
26969.61052858517
 20
16701.885710999992
 30
0.0
 11
26958.010528585161
 21
16701.885710999992
 31
0.0
  0
LINE
  5
A8EF
  8
1-中柱P
 10
26968.610528585159
 20
16699.38571100001
 30
0.0
 11
26961.610528585159
 21
16699.38571100001
 31
0.0
  0
LINE
  5
A8F0
  8
1-中柱P
 10
26961.610528585159
 20
16710.385710999992
 30
0.0
 11
26968.610528585159
 21
16710.385710999992
 31
0.0
  0
LINE
  5
A8F1
  8
1-中柱P
 10
26961.610528585159
 20
16711.135710999999
 30
0.0
 11
26961.610528585159
 21
16698.635710999999
 31
0.0
  0
LINE
  5
A8F2
  8
1-中柱P
 10
26958.010528585161
 20
16710.88571100001
 30
0.0
 11
26958.010528585161
 21
16698.885710999992
 31
0.0
  0
LINE
  5
A8F3
  8
1-中柱P
  6
HIDE-M
 62
     6
 10
26960.11052858517
 20
16699.38571100001
 30
0.0
 11
26958.510528585161
 21
16699.38571100001
 31
0.0
  0
LINE
  5
A8F4
  8
1-中柱P
 10
26958.010528585161
 20
16698.885710999992
 30
0.0
 11
26958.510528585161
 21
16699.38571100001
 31
0.0
  0
ARC
  5
A8F5
  8
1-中柱P
 10
26960.860528585159
 20
16698.635710999999
 30
0.0
 40
0.75
 50
180.0
 51
0.0
  0
LINE
  5
A8F6
  8
1-中柱P
  6
HIDE-M
 62
     6
 10
26958.510528585161
 20
16710.385710999992
 30
0.0
 11
26960.11052858517
 21
16710.385710999992
 31
0.0
  0
LINE
  5
A8F7
  8
1-中柱P
 10
26958.010528585161
 20
16710.88571100001
 30
0.0
 11
26958.510528585161
 21
16710.385710999992
 31
0.0
  0
ARC
  5
A8F8
  8
1-中柱P
 10
26960.860528585159
 20
16711.135710999999
 30
0.0
 40
0.75
 50
0.0
 51
180.0
  0
LINE
  5
A8F9
  8
1-中柱P
 10
26969.61052858517
 20
16709.385710999992
 30
0.0
 11
26969.61052858517
 21
16700.385710999992
 31
0.0
  0
ARC
  5
A8FA
  8
1-中柱P
 10
26968.610528585159
 20
16700.385710999992
 30
0.0
 40
1.0
 50
270.0
 51
0.0
  0
ARC
  5
A8FB
  8
1-中柱P
 10
26968.610528585159
 20
16709.385710999992
 30
0.0
 40
1.0
 50
0.0
 51
90.0
  0
LINE
  5
A8FC
  8
1-中柱P
  6
1PL-M
 62
     6
 10
26974.610528585159
 20
16704.885710999992
 30
0.0
 11
26953.010528585161
 21
16704.885710999992
 31
0.0
  0
LINE
  5
A8FD
  8
1-中柱P
 10
26968.610528585159
 20
16689.385710999992
 30
0.0
 11
26961.610528585159
 21
16689.385710999992
 31
0.0
  0
LINE
  5
A8FE
  8
1-中柱P
 10
26958.010528585161
 20
16696.885710999999
 30
0.0
 11
26958.010528585161
 21
16688.885710999992
 31
0.0
  0
LINE
  5
A8FF
  8
1-中柱P
  6
HIDE-M
 62
     6
 10
26960.11052858517
 20
16689.385710999992
 30
0.0
 11
26958.510528585161
 21
16689.385710999992
 31
0.0
  0
LINE
  5
A900
  8
1-中柱P
 10
26958.010528585161
 20
16688.885710999992
 30
0.0
 11
26958.510528585161
 21
16689.385710999992
 31
0.0
  0
ARC
  5
A901
  8
1-中柱P
 10
26960.860528585159
 20
16688.635710999992
 30
0.0
 40
0.75
 50
180.0
 51
0.0
  0
LINE
  5
A902
  8
1-中柱P
 10
26969.61052858517
 20
16698.38571100001
 30
0.0
 11
26969.61052858517
 21
16690.385710999992
 31
0.0
  0
ARC
  5
A903
  8
1-中柱P
 10
26968.610528585159
 20
16690.385710999992
 30
0.0
 40
1.0
 50
270.0
 51
0.0
  0
LINE
  5
A904
  8
1-中柱P
  6
1PL-M
 62
     6
 10
26974.610528585159
 20
16694.885710999999
 30
0.0
 11
26953.010528585161
 21
16694.885710999999
 31
0.0
  0
LINE
  5
A905
  8
1-中柱P
 10
26961.610528585159
 20
16696.635710999999
 30
0.0
 11
26961.610528585159
 21
16688.635710999992
 31
0.0
  0
LINE
  5
A906
  8
1-中柱P
  6
HIDE-M
 62
     6
 10
26969.61052858517
 20
16690.885710999999
 30
0.0
 11
26958.010528585161
 21
16690.885710999999
 31
0.0
  0
LINE
  5
A907
  8
1-中柱P
  6
HIDE-M
 62
     6
 10
26969.61052858517
 20
16691.88571100001
 30
0.0
 11
26958.010528585161
 21
16691.88571100001
 31
0.0
  0
LINE
  5
A908
  8
1-中柱カバ-P
 10
26958.510528585161
 20
16736.585711
 30
0.0
 11
26958.510528585161
 21
16795.885710999999
 31
0.0
  0
ARC
  5
A909
  8
1-中柱カバ-P
 10
26965.110528585159
 20
16795.885710999999
 30
0.0
 40
6.599999999999997
 50
90.0
 51
180.0
  0
LINE
  5
A90A
  8
1-中柱カバ-P
 10
26960.11052858517
 20
16736.585711
 30
0.0
 11
26960.11052858517
 21
16795.885710999999
 31
0.0
  0
ARC
  5
A90B
  8
1-中柱カバ-P
 10
26965.110528585159
 20
16736.585711
 30
0.0
 40
5.0
 50
180.0
 51
270.0
  0
LINE
  5
A90C
  8
1-中柱カバ-P
 10
26965.110528585159
 20
16802.485711000001
 30
0.0
 11
27036.910528585158
 21
16802.485711000001
 31
0.0
  0
ARC
  5
A90D
  8
1-中柱カバ-P
 10
27036.910528585158
 20
16795.885710999999
 30
0.0
 40
6.599999999999997
 50
0.0
 51
90.0
  0
LINE
  5
A90E
  8
1-中柱カバ-P
 10
26965.110528585159
 20
16800.885710999992
 30
0.0
 11
27036.910528585158
 21
16800.885710999992
 31
0.0
  0
ARC
  5
A90F
  8
1-中柱カバ-P
 10
27036.910528585158
 20
16795.885710999999
 30
0.0
 40
5.0
 50
0.0
 51
90.0
  0
ARC
  5
A910
  8
1-中柱カバ-P
 10
26965.110528585159
 20
16795.885710999999
 30
0.0
 40
5.0
 50
90.0
 51
180.0
  0
LINE
  5
A911
  8
1-中柱カバ-P
 10
27043.510528585161
 20
16795.885710999999
 30
0.0
 11
27043.510528585161
 21
16736.585711
 31
0.0
  0
LINE
  5
A912
  8
1-中柱カバ-P
 10
27041.910528585158
 20
16795.885710999999
 30
0.0
 11
27041.910528585158
 21
16736.585711
 31
0.0
  0
ARC
  5
A913
  8
1-中柱カバ-P
 10
27036.910528585158
 20
16736.585711
 30
0.0
 40
5.0
 50
270.0
 51
0.0
  0
LINE
  5
A914
  8
1-中柱カバ-P
  6
1PL-M
 62
     6
 10
27001.010528585161
 20
16794.985711000001
 30
0.0
 11
27001.010528585161
 21
16807.985711000001
 31
0.0
  0
LINE
  5
A915
  8
1-中柱カバ-P
  6
HIDE-M
 62
     6
 10
26994.010528585161
 20
16802.485711000001
 30
0.0
 11
26994.010528585161
 21
16800.885710999992
 31
0.0
  0
LINE
  5
A916
  8
1-中柱カバ-P
  6
HIDE-M
 62
     6
 10
27008.010528585161
 20
16802.485711000001
 30
0.0
 11
27008.010528585161
 21
16800.885710999992
 31
0.0
  0
ARC
  5
A917
  8
1-中柱カバ-P
 10
26965.110528585159
 20
16736.585711
 30
0.0
 40
6.599999999999997
 50
180.0
 51
270.0
  0
ARC
  5
A918
  8
1-中柱カバ-P
 10
27036.910528585158
 20
16736.585711
 30
0.0
 40
6.599999999999997
 50
270.0
 51
0.0
  0
LINE
  5
A919
  8
1-中柱カバ-P
 10
27028.510528585161
 20
16729.985711000001
 30
0.0
 11
27036.910528585158
 21
16729.985711000001
 31
0.0
  0
LINE
  5
A91A
  8
1-中柱カバ-P
 10
26973.510528585161
 20
16729.985711000001
 30
0.0
 11
26965.110528585159
 21
16729.985711000001
 31
0.0
  0
LINE
  5
A91B
  8
1-中柱カバ-P
 10
27028.510528585161
 20
16731.585711
 30
0.0
 11
27036.910528585158
 21
16731.585711
 31
0.0
  0
LINE
  5
A91C
  8
1-中柱カバ-P
 10
26973.510528585161
 20
16731.585711
 30
0.0
 11
26965.110528585159
 21
16731.585711
 31
0.0
  0
LINE
  5
A91D
  8
1-中柱カバ-P
 10
26973.510528585161
 20
16731.585711
 30
0.0
 11
26973.510528585161
 21
16729.985711000001
 31
0.0
  0
LINE
  5
A91E
  8
1-中柱カバ-P
 10
27028.510528585161
 20
16729.985711000001
 30
0.0
 11
27028.510528585161
 21
16731.585711
 31
0.0
  0
LINE
  5
A91F
  8
1-中柱カバ-P
  6
HIDE-M
 62
     6
 10
27032.410528585158
 20
16750.985711000001
 30
0.0
 11
27044.010528585161
 21
16750.985711000001
 31
0.0
  0
LINE
  5
A920
  8
1-中柱カバ-P
  6
HIDE-M
 62
     6
 10
27032.410528585158
 20
16758.985711000001
 30
0.0
 11
27044.010528585161
 21
16758.985711000001
 31
0.0
  0
LINE
  5
A921
  8
1-中柱カバ-P
  6
HIDE-M
 62
     6
 10
27032.410528585158
 20
16751.985711000001
 30
0.0
 11
27044.010528585161
 21
16751.985711000001
 31
0.0
  0
LINE
  5
A922
  8
1-中柱カバ-P
  6
HIDE-M
 62
     6
 10
27032.410528585158
 20
16757.985711000001
 30
0.0
 11
27044.010528585161
 21
16757.985711000001
 31
0.0
  0
LINE
  5
A923
  8
1-中柱カバ-P
 10
27033.410528585158
 20
16760.485711000001
 30
0.0
 11
27040.410528585158
 21
16760.485711000001
 31
0.0
  0
LINE
  5
A924
  8
1-中柱カバ-P
 10
27040.410528585158
 20
16749.485711000001
 30
0.0
 11
27033.410528585158
 21
16749.485711000001
 31
0.0
  0
LINE
  5
A925
  8
1-中柱カバ-P
 10
27040.410528585158
 20
16748.735711000001
 30
0.0
 11
27040.410528585158
 21
16761.235711000001
 31
0.0
  0
LINE
  5
A926
  8
1-中柱カバ-P
 10
27044.010528585161
 20
16748.985711000001
 30
0.0
 11
27044.010528585161
 21
16760.985711000001
 31
0.0
  0
LINE
  5
A927
  8
1-中柱カバ-P
  6
HIDE-M
 62
     6
 10
27041.910528585158
 20
16760.485711000001
 30
0.0
 11
27043.510528585161
 21
16760.485711000001
 31
0.0
  0
LINE
  5
A928
  8
1-中柱カバ-P
 10
27044.010528585161
 20
16760.985711000001
 30
0.0
 11
27043.510528585161
 21
16760.485711000001
 31
0.0
  0
ARC
  5
A929
  8
1-中柱カバ-P
 10
27041.160528585158
 20
16761.235711000001
 30
0.0
 40
0.75
 50
0.0
 51
180.0
  0
LINE
  5
A92A
  8
1-中柱カバ-P
  6
HIDE-M
 62
     6
 10
27043.510528585161
 20
16749.485711000001
 30
0.0
 11
27041.910528585158
 21
16749.485711000001
 31
0.0
  0
LINE
  5
A92B
  8
1-中柱カバ-P
 10
27044.010528585161
 20
16748.985711000001
 30
0.0
 11
27043.510528585161
 21
16749.485711000001
 31
0.0
  0
ARC
  5
A92C
  8
1-中柱カバ-P
 10
27041.160528585158
 20
16748.735711000001
 30
0.0
 40
0.75
 50
180.0
 51
0.0
  0
LINE
  5
A92D
  8
1-中柱カバ-P
 10
27032.410528585158
 20
16750.485711000001
 30
0.0
 11
27032.410528585158
 21
16759.485711000001
 31
0.0
  0
ARC
  5
A92E
  8
1-中柱カバ-P
 10
27033.410528585158
 20
16759.485711000001
 30
0.0
 40
1.0
 50
90.0
 51
180.0
  0
ARC
  5
A92F
  8
1-中柱カバ-P
 10
27033.410528585158
 20
16750.485711000001
 30
0.0
 40
1.0
 50
180.0
 51
270.0
  0
LINE
  5
A930
  8
1-中柱カバ-P
  6
1PL-M
 62
     6
 10
27027.410528585158
 20
16754.985711000001
 30
0.0
 11
27049.010528585161
 21
16754.985711000001
 31
0.0
  0
LINE
  5
A931
  8
1-中柱カバ-P
 10
27033.410528585158
 20
16770.485711000001
 30
0.0
 11
27040.410528585158
 21
16770.485711000001
 31
0.0
  0
LINE
  5
A932
  8
1-中柱カバ-P
 10
27044.010528585161
 20
16762.985711000001
 30
0.0
 11
27044.010528585161
 21
16770.985711000001
 31
0.0
  0
LINE
  5
A933
  8
1-中柱カバ-P
  6
HIDE-M
 62
     6
 10
27041.910528585158
 20
16770.485711000001
 30
0.0
 11
27043.510528585161
 21
16770.485711000001
 31
0.0
  0
LINE
  5
A934
  8
1-中柱カバ-P
 10
27044.010528585161
 20
16770.985711000001
 30
0.0
 11
27043.510528585161
 21
16770.485711000001
 31
0.0
  0
ARC
  5
A935
  8
1-中柱カバ-P
 10
27041.160528585158
 20
16771.235711000001
 30
0.0
 40
0.75
 50
0.0
 51
180.0
  0
LINE
  5
A936
  8
1-中柱カバ-P
 10
27032.410528585158
 20
16761.485711000001
 30
0.0
 11
27032.410528585158
 21
16769.485711000001
 31
0.0
  0
ARC
  5
A937
  8
1-中柱カバ-P
 10
27033.410528585158
 20
16769.485711000001
 30
0.0
 40
1.0
 50
90.0
 51
180.0
  0
LINE
  5
A938
  8
1-中柱カバ-P
  6
1PL-M
 62
     6
 10
27027.410528585158
 20
16764.985711000001
 30
0.0
 11
27049.010528585161
 21
16764.985711000001
 31
0.0
  0
LINE
  5
A939
  8
1-中柱カバ-P
 10
27040.410528585158
 20
16763.235711000001
 30
0.0
 11
27040.410528585158
 21
16771.235711000001
 31
0.0
  0
LINE
  5
A93A
  8
1-中柱カバ-P
  6
HIDE-M
 62
     6
 10
26969.61052858517
 20
16750.985711000001
 30
0.0
 11
26958.010528585161
 21
16750.985711000001
 31
0.0
  0
LINE
  5
A93B
  8
1-中柱カバ-P
  6
HIDE-M
 62
     6
 10
26969.61052858517
 20
16758.985711000001
 30
0.0
 11
26958.010528585161
 21
16758.985711000001
 31
0.0
  0
LINE
  5
A93C
  8
1-中柱カバ-P
  6
HIDE-M
 62
     6
 10
26969.61052858517
 20
16751.985711000001
 30
0.0
 11
26958.010528585161
 21
16751.985711000001
 31
0.0
  0
LINE
  5
A93D
  8
1-中柱カバ-P
  6
HIDE-M
 62
     6
 10
26969.61052858517
 20
16757.985711000001
 30
0.0
 11
26958.010528585161
 21
16757.985711000001
 31
0.0
  0
LINE
  5
A93E
  8
1-中柱カバ-P
 10
26968.610528585159
 20
16760.485711000001
 30
0.0
 11
26961.610528585159
 21
16760.485711000001
 31
0.0
  0
LINE
  5
A93F
  8
1-中柱カバ-P
 10
26961.610528585159
 20
16749.485711000001
 30
0.0
 11
26968.610528585159
 21
16749.485711000001
 31
0.0
  0
LINE
  5
A940
  8
1-中柱カバ-P
 10
26961.610528585159
 20
16748.735711000001
 30
0.0
 11
26961.610528585159
 21
16761.235711000001
 31
0.0
  0
LINE
  5
A941
  8
1-中柱カバ-P
 10
26958.010528585161
 20
16748.985711000001
 30
0.0
 11
26958.010528585161
 21
16760.985711000001
 31
0.0
  0
LINE
  5
A942
  8
1-中柱カバ-P
  6
HIDE-M
 62
     6
 10
26960.11052858517
 20
16760.485711000001
 30
0.0
 11
26958.510528585161
 21
16760.485711000001
 31
0.0
  0
LINE
  5
A943
  8
1-中柱カバ-P
 10
26958.010528585161
 20
16760.985711000001
 30
0.0
 11
26958.510528585161
 21
16760.485711000001
 31
0.0
  0
ARC
  5
A944
  8
1-中柱カバ-P
 10
26960.860528585159
 20
16761.235711000001
 30
0.0
 40
0.75
 50
0.0
 51
180.0
  0
LINE
  5
A945
  8
1-中柱カバ-P
  6
HIDE-M
 62
     6
 10
26958.510528585161
 20
16749.485711000001
 30
0.0
 11
26960.11052858517
 21
16749.485711000001
 31
0.0
  0
LINE
  5
A946
  8
1-中柱カバ-P
 10
26958.010528585161
 20
16748.985711000001
 30
0.0
 11
26958.510528585161
 21
16749.485711000001
 31
0.0
  0
ARC
  5
A947
  8
1-中柱カバ-P
 10
26960.860528585159
 20
16748.735711000001
 30
0.0
 40
0.75
 50
180.0
 51
0.0
  0
LINE
  5
A948
  8
1-中柱カバ-P
 10
26969.61052858517
 20
16750.485711000001
 30
0.0
 11
26969.61052858517
 21
16759.485711000001
 31
0.0
  0
ARC
  5
A949
  8
1-中柱カバ-P
 10
26968.610528585159
 20
16759.485711000001
 30
0.0
 40
1.0
 50
0.0
 51
90.0
  0
ARC
  5
A94A
  8
1-中柱カバ-P
 10
26968.610528585159
 20
16750.485711000001
 30
0.0
 40
1.0
 50
270.0
 51
0.0
  0
LINE
  5
A94B
  8
1-中柱カバ-P
  6
1PL-M
 62
     6
 10
26974.610528585159
 20
16754.985711000001
 30
0.0
 11
26953.010528585161
 21
16754.985711000001
 31
0.0
  0
LINE
  5
A94C
  8
1-中柱カバ-P
 10
26968.610528585159
 20
16770.485711000001
 30
0.0
 11
26961.610528585159
 21
16770.485711000001
 31
0.0
  0
LINE
  5
A94D
  8
1-中柱カバ-P
 10
26958.010528585161
 20
16762.985711000001
 30
0.0
 11
26958.010528585161
 21
16770.985711000001
 31
0.0
  0
LINE
  5
A94E
  8
1-中柱カバ-P
  6
HIDE-M
 62
     6
 10
26960.11052858517
 20
16770.485711000001
 30
0.0
 11
26958.510528585161
 21
16770.485711000001
 31
0.0
  0
LINE
  5
A94F
  8
1-中柱カバ-P
 10
26958.010528585161
 20
16770.985711000001
 30
0.0
 11
26958.510528585161
 21
16770.485711000001
 31
0.0
  0
ARC
  5
A950
  8
1-中柱カバ-P
 10
26960.860528585159
 20
16771.235711000001
 30
0.0
 40
0.75
 50
0.0
 51
180.0
  0
LINE
  5
A951
  8
1-中柱カバ-P
 10
26969.61052858517
 20
16761.485711000001
 30
0.0
 11
26969.61052858517
 21
16769.485711000001
 31
0.0
  0
ARC
  5
A952
  8
1-中柱カバ-P
 10
26968.610528585159
 20
16769.485711000001
 30
0.0
 40
1.0
 50
0.0
 51
90.0
  0
LINE
  5
A953
  8
1-中柱カバ-P
  6
1PL-M
 62
     6
 10
26974.610528585159
 20
16764.985711000001
 30
0.0
 11
26953.010528585161
 21
16764.985711000001
 31
0.0
  0
LINE
  5
A954
  8
1-中柱カバ-P
 10
26961.610528585159
 20
16763.235711000001
 30
0.0
 11
26961.610528585159
 21
16771.235711000001
 31
0.0
  0
LINE
  5
A955
  8
1-中柱カバ-P
  6
HIDE-M
 62
     6
 10
27032.410528585158
 20
16768.985711000001
 30
0.0
 11
27044.010528585161
 21
16768.985711000001
 31
0.0
  0
LINE
  5
A956
  8
1-中柱カバ-P
  6
HIDE-M
 62
     6
 10
27032.410528585158
 20
16767.985711000001
 30
0.0
 11
27044.010528585161
 21
16767.985711000001
 31
0.0
  0
LINE
  5
A957
  8
1-中柱カバ-P
  6
HIDE-M
 62
     6
 10
26969.61052858517
 20
16768.985711000001
 30
0.0
 11
26958.010528585161
 21
16768.985711000001
 31
0.0
  0
LINE
  5
A958
  8
1-中柱カバ-P
  6
HIDE-M
 62
     6
 10
26969.61052858517
 20
16767.985711000001
 30
0.0
 11
26958.010528585161
 21
16767.985711000001
 31
0.0
  0
ARC
  5
A959
  8
1-前柱P
  6
HIDE-M
 62
     6
 10
26997.410528585158
 20
13529.885711000001
 30
0.0
 40
2.6000000000000001
 50
0.0
 51
90.0
  0
LINE
  5
A95A
  8
1-前柱P
  6
HIDE-M
 62
     6
 10
27009.010528585171
 20
13531.9351011532
 30
0.0
 11
27009.010528585171
 21
13528.285711
 31
0.0
  0
LINE
  5
A95B
  8
1-前柱P
  6
HIDE-M
 62
     6
 10
26999.010528585161
 20
13531.9351011532
 30
0.0
 11
26999.010528585161
 21
13528.285711
 31
0.0
  0
LINE
  5
A95C
  8
1-前柱P
  6
1PL-M
 62
     6
 10
27004.010528585161
 20
13537.48571099999
 30
0.0
 11
27004.010528585161
 21
13523.285711
 31
0.0
  0
ARC
  5
A95D
  8
1-前柱P
  6
HIDE-M
 62
     6
 10
27010.610528585159
 20
13529.885711000001
 30
0.0
 40
2.6000000000000001
 50
90.0
 51
180.0
  0
LINE
  5
A95E
  8
1-前柱P
  6
HIDE-M
 62
     6
 10
27000.010528585161
 20
13529.885711000001
 30
0.0
 11
27000.010528585161
 21
13528.285711
 31
0.0
  0
LINE
  5
A95F
  8
1-前柱P
  6
HIDE-M
 62
     6
 10
27008.010528585161
 20
13529.885711000001
 30
0.0
 11
27008.010528585161
 21
13528.285711
 31
0.0
  0
LINE
  5
A960
  8
1-前柱P
 10
26990.110528585159
 20
13417.585711000011
 30
0.0
 11
27011.910528585158
 21
13417.585711000011
 31
0.0
  0
LINE
  5
A961
  8
1-前柱P
 10
27041.910528585158
 20
13454.885711000001
 30
0.0
 11
27041.910528585158
 21
13447.585711000011
 31
0.0
  0
ARC
  5
A962
  8
1-前柱P
 10
27011.910528585158
 20
13447.585711000011
 30
0.0
 40
30.0
 50
270.0
 51
0.0
  0
ARC
  5
A963
  8
1-前柱P
 10
27011.910528585158
 20
13447.585711000011
 30
0.0
 40
31.600000000000001
 50
270.0
 51
0.0
  0
LINE
  5
A964
  8
1-前柱P
 10
26990.110528585159
 20
13415.985710999999
 30
0.0
 11
27011.910528585158
 21
13415.985710999999
 31
0.0
  0
LINE
  5
A965
  8
1-前柱P
 10
27043.510528585171
 20
13454.885711000001
 30
0.0
 11
27043.510528585171
 21
13447.585711000011
 31
0.0
  0
LINE
  5
A966
  8
1-前柱P
 10
27020.510528585171
 20
13476.48571099999
 30
0.0
 11
27020.510528585171
 21
13466.485710999999
 31
0.0
  0
LINE
  5
A967
  8
1-前柱P
 10
27018.910528585158
 20
13466.485710999999
 30
0.0
 11
27018.910528585158
 21
13476.48571099999
 31
0.0
  0
LINE
  5
A968
  8
1-前柱P
 10
26960.11052858517
 20
13454.885711000001
 30
0.0
 11
26960.11052858517
 21
13447.585711000011
 31
0.0
  0
ARC
  5
A969
  8
1-前柱P
 10
26990.110528585159
 20
13447.585711000011
 30
0.0
 40
30.0
 50
180.0
 51
270.0
  0
ARC
  5
A96A
  8
1-前柱P
 10
26990.110528585159
 20
13447.585711000011
 30
0.0
 40
31.600000000000001
 50
180.0
 51
270.0
  0
LINE
  5
A96B
  8
1-前柱P
 10
26958.510528585161
 20
13454.885711000001
 30
0.0
 11
26958.510528585161
 21
13447.585711000011
 31
0.0
  0
LINE
  5
A96C
  8
1-前柱P
 10
26965.110528585159
 20
13461.485710999999
 30
0.0
 11
26976.510528585161
 21
13461.485710999999
 31
0.0
  0
ARC
  5
A96D
  8
1-前柱P
 10
26965.110528585159
 20
13454.885711000001
 30
0.0
 40
6.599999999999997
 50
90.0
 51
180.0
  0
ARC
  5
A96E
  8
1-前柱P
 10
26976.510528585161
 20
13466.485710999999
 30
0.0
 40
5.0
 50
270.0
 51
0.0
  0
LINE
  5
A96F
  8
1-前柱P
 10
26965.110528585159
 20
13459.885711000001
 30
0.0
 11
26976.510528585161
 21
13459.885711000001
 31
0.0
  0
ARC
  5
A970
  8
1-前柱P
 10
26965.110528585159
 20
13454.885711000001
 30
0.0
 40
5.0
 50
90.0
 51
180.0
  0
LINE
  5
A971
  8
1-前柱P
 10
26981.51052858515
 20
13466.485710999999
 30
0.0
 11
26981.51052858515
 21
13525.885711000001
 31
0.0
  0
LINE
  5
A972
  8
1-前柱P
 10
26983.11052858517
 20
13466.485710999999
 30
0.0
 11
26983.11052858517
 21
13525.885711000001
 31
0.0
  0
ARC
  5
A973
  8
1-前柱P
 10
26976.510528585161
 20
13466.485710999999
 30
0.0
 40
6.599999999999997
 50
270.0
 51
0.0
  0
LINE
  5
A974
  8
1-前柱P
 10
26988.110528585159
 20
13532.48571099999
 30
0.0
 11
27021.51052858515
 21
13532.48571099999
 31
0.0
  0
ARC
  5
A975
  8
1-前柱P
 10
26988.110528585159
 20
13525.885711000001
 30
0.0
 40
6.599999999999997
 50
90.0
 51
180.0
  0
LINE
  5
A976
  8
1-前柱P
 10
26988.110528585159
 20
13530.885711000001
 30
0.0
 11
27021.51052858515
 21
13530.885711000001
 31
0.0
  0
ARC
  5
A977
  8
1-前柱P
 10
26988.110528585159
 20
13525.885711000001
 30
0.0
 40
5.0
 50
90.0
 51
180.0
  0
LINE
  5
A978
  8
1-前柱P
 10
27021.51052858515
 20
13530.885711000001
 30
0.0
 11
27021.51052858515
 21
13532.48571099999
 31
0.0
  0
LINE
  5
A979
  8
1-前柱P
 10
27036.910528585158
 20
13461.485710999999
 30
0.0
 11
27025.510528585161
 21
13461.485710999999
 31
0.0
  0
ARC
  5
A97A
  8
1-前柱P
 10
27036.910528585158
 20
13454.885711000001
 30
0.0
 40
6.599999999999997
 50
0.0
 51
90.0
  0
ARC
  5
A97B
  8
1-前柱P
 10
27025.510528585161
 20
13466.485710999999
 30
0.0
 40
5.0
 50
180.0
 51
270.0
  0
LINE
  5
A97C
  8
1-前柱P
 10
27025.510528585161
 20
13459.885711000001
 30
0.0
 11
27036.910528585158
 21
13459.885711000001
 31
0.0
  0
ARC
  5
A97D
  8
1-前柱P
 10
27025.510528585161
 20
13466.485710999999
 30
0.0
 40
6.599999999999997
 50
180.0
 51
270.0
  0
ARC
  5
A97E
  8
1-前柱P
 10
27036.910528585158
 20
13454.885711000001
 30
0.0
 40
5.0
 50
0.0
 51
90.0
  0
LINE
  5
A97F
  8
1-前柱P
 10
27020.510528585171
 20
13476.48571099999
 30
0.0
 11
27018.910528585158
 21
13476.48571099999
 31
0.0
  0
LINE
  5
A980
  8
1-前柱カバ-P
 10
27043.510528585171
 20
13468.185711
 30
0.0
 11
27043.510528585171
 21
13527.485710999999
 31
0.0
  0
ARC
  5
A981
  8
1-前柱カバ-P
 10
27036.910528585158
 20
13527.485710999999
 30
0.0
 40
6.599999999999997
 50
0.0
 51
90.0
  0
LINE
  5
A982
  8
1-前柱カバ-P
 10
27041.910528585158
 20
13468.185711
 30
0.0
 11
27041.910528585158
 21
13527.485710999999
 31
0.0
  0
ARC
  5
A983
  8
1-前柱カバ-P
 10
27036.910528585158
 20
13468.185711
 30
0.0
 40
5.0
 50
270.0
 51
0.0
  0
LINE
  5
A984
  8
1-前柱カバ-P
 10
27036.910528585158
 20
13534.085711
 30
0.0
 11
26965.110528585159
 21
13534.085711
 31
0.0
  0
ARC
  5
A985
  8
1-前柱カバ-P
 10
26965.110528585159
 20
13527.485710999999
 30
0.0
 40
6.599999999999997
 50
90.0
 51
180.0
  0
LINE
  5
A986
  8
1-前柱カバ-P
 10
27036.910528585158
 20
13532.48571099999
 30
0.0
 11
26965.110528585159
 21
13532.48571099999
 31
0.0
  0
ARC
  5
A987
  8
1-前柱カバ-P
 10
26965.110528585159
 20
13527.485710999999
 30
0.0
 40
5.0
 50
90.0
 51
180.0
  0
ARC
  5
A988
  8
1-前柱カバ-P
 10
27036.910528585158
 20
13527.485710999999
 30
0.0
 40
5.0
 50
0.0
 51
90.0
  0
LINE
  5
A989
  8
1-前柱カバ-P
 10
26958.510528585161
 20
13527.485710999999
 30
0.0
 11
26958.510528585161
 21
13468.185711
 31
0.0
  0
LINE
  5
A98A
  8
1-前柱カバ-P
 10
26960.11052858517
 20
13527.485710999999
 30
0.0
 11
26960.11052858517
 21
13468.185711
 31
0.0
  0
ARC
  5
A98B
  8
1-前柱カバ-P
 10
26965.110528585159
 20
13468.185711
 30
0.0
 40
5.0
 50
180.0
 51
270.0
  0
LINE
  5
A98C
  8
1-前柱カバ-P
  6
1PL-M
 62
     6
 10
27001.010528585161
 20
13526.585711
 30
0.0
 11
27001.010528585161
 21
13539.585711
 31
0.0
  0
LINE
  5
A98D
  8
1-前柱カバ-P
  6
HIDE-M
 62
     6
 10
27008.010528585161
 20
13534.085711
 30
0.0
 11
27008.010528585161
 21
13532.48571099999
 31
0.0
  0
LINE
  5
A98E
  8
1-前柱カバ-P
  6
HIDE-M
 62
     6
 10
26994.010528585171
 20
13534.085711
 30
0.0
 11
26994.010528585171
 21
13532.48571099999
 31
0.0
  0
ARC
  5
A98F
  8
1-前柱カバ-P
 10
27036.910528585158
 20
13468.185711
 30
0.0
 40
6.599999999999997
 50
270.0
 51
0.0
  0
ARC
  5
A990
  8
1-前柱カバ-P
 10
26965.110528585159
 20
13468.185711
 30
0.0
 40
6.599999999999997
 50
180.0
 51
270.0
  0
LINE
  5
A991
  8
1-前柱カバ-P
 10
26973.510528585161
 20
13461.585711
 30
0.0
 11
26965.110528585159
 21
13461.585711
 31
0.0
  0
LINE
  5
A992
  8
1-前柱カバ-P
 10
27028.510528585171
 20
13461.585711
 30
0.0
 11
27036.910528585158
 21
13461.585711
 31
0.0
  0
LINE
  5
A993
  8
1-前柱カバ-P
 10
26973.510528585161
 20
13463.185711
 30
0.0
 11
26965.110528585159
 21
13463.185711
 31
0.0
  0
LINE
  5
A994
  8
1-前柱カバ-P
 10
27028.510528585171
 20
13463.185711
 30
0.0
 11
27036.910528585158
 21
13463.185711
 31
0.0
  0
LINE
  5
A995
  8
1-前柱カバ-P
 10
27028.510528585171
 20
13463.185711
 30
0.0
 11
27028.510528585171
 21
13461.585711
 31
0.0
  0
LINE
  5
A996
  8
1-前柱カバ-P
 10
26973.510528585161
 20
13461.585711
 30
0.0
 11
26973.510528585161
 21
13463.185711
 31
0.0
  0
LINE
  5
A997
  8
1-前柱カバ-P
  6
HIDE-M
 62
     6
 10
26969.61052858517
 20
13482.585711
 30
0.0
 11
26958.010528585171
 21
13482.585711
 31
0.0
  0
LINE
  5
A998
  8
1-前柱カバ-P
  6
HIDE-M
 62
     6
 10
26969.61052858517
 20
13490.585711
 30
0.0
 11
26958.010528585171
 21
13490.585711
 31
0.0
  0
LINE
  5
A999
  8
1-前柱カバ-P
  6
HIDE-M
 62
     6
 10
26969.61052858517
 20
13483.585711
 30
0.0
 11
26958.010528585171
 21
13483.585711
 31
0.0
  0
LINE
  5
A99A
  8
1-前柱カバ-P
  6
HIDE-M
 62
     6
 10
26969.61052858517
 20
13489.585711
 30
0.0
 11
26958.010528585171
 21
13489.585711
 31
0.0
  0
LINE
  5
A99B
  8
1-前柱カバ-P
 10
26968.610528585159
 20
13492.085711
 30
0.0
 11
26961.610528585159
 21
13492.085711
 31
0.0
  0
LINE
  5
A99C
  8
1-前柱カバ-P
 10
26961.610528585159
 20
13481.085711
 30
0.0
 11
26968.610528585159
 21
13481.085711
 31
0.0
  0
LINE
  5
A99D
  8
1-前柱カバ-P
 10
26961.610528585159
 20
13480.335711
 30
0.0
 11
26961.610528585159
 21
13492.835711
 31
0.0
  0
LINE
  5
A99E
  8
1-前柱カバ-P
 10
26958.010528585171
 20
13480.585711
 30
0.0
 11
26958.010528585171
 21
13492.585711
 31
0.0
  0
LINE
  5
A99F
  8
1-前柱カバ-P
  6
HIDE-M
 62
     6
 10
26960.11052858517
 20
13492.085711
 30
0.0
 11
26958.510528585161
 21
13492.085711
 31
0.0
  0
LINE
  5
A9A0
  8
1-前柱カバ-P
 10
26958.010528585171
 20
13492.585711
 30
0.0
 11
26958.510528585161
 21
13492.085711
 31
0.0
  0
ARC
  5
A9A1
  8
1-前柱カバ-P
 10
26960.860528585159
 20
13492.835711
 30
0.0
 40
0.75
 50
0.0
 51
180.0
  0
LINE
  5
A9A2
  8
1-前柱カバ-P
  6
HIDE-M
 62
     6
 10
26958.510528585161
 20
13481.085711
 30
0.0
 11
26960.11052858517
 21
13481.085711
 31
0.0
  0
LINE
  5
A9A3
  8
1-前柱カバ-P
 10
26958.010528585171
 20
13480.585711
 30
0.0
 11
26958.510528585161
 21
13481.085711
 31
0.0
  0
ARC
  5
A9A4
  8
1-前柱カバ-P
 10
26960.860528585159
 20
13480.335711
 30
0.0
 40
0.75
 50
180.0
 51
0.0
  0
LINE
  5
A9A5
  8
1-前柱カバ-P
 10
26969.61052858517
 20
13482.085711
 30
0.0
 11
26969.61052858517
 21
13491.085711
 31
0.0
  0
ARC
  5
A9A6
  8
1-前柱カバ-P
 10
26968.610528585159
 20
13491.085711
 30
0.0
 40
1.0
 50
0.0
 51
90.0
  0
ARC
  5
A9A7
  8
1-前柱カバ-P
 10
26968.610528585159
 20
13482.085711
 30
0.0
 40
1.0
 50
270.0
 51
0.0
  0
LINE
  5
A9A8
  8
1-前柱カバ-P
  6
1PL-M
 62
     6
 10
26974.610528585159
 20
13486.585711
 30
0.0
 11
26953.010528585161
 21
13486.585711
 31
0.0
  0
LINE
  5
A9A9
  8
1-前柱カバ-P
 10
26968.610528585159
 20
13502.085711
 30
0.0
 11
26961.610528585159
 21
13502.085711
 31
0.0
  0
LINE
  5
A9AA
  8
1-前柱カバ-P
 10
26958.010528585171
 20
13494.585711
 30
0.0
 11
26958.010528585171
 21
13502.585711
 31
0.0
  0
LINE
  5
A9AB
  8
1-前柱カバ-P
  6
HIDE-M
 62
     6
 10
26960.11052858517
 20
13502.085711
 30
0.0
 11
26958.510528585161
 21
13502.085711
 31
0.0
  0
LINE
  5
A9AC
  8
1-前柱カバ-P
 10
26958.010528585171
 20
13502.585711
 30
0.0
 11
26958.510528585161
 21
13502.085711
 31
0.0
  0
ARC
  5
A9AD
  8
1-前柱カバ-P
 10
26960.860528585159
 20
13502.835711
 30
0.0
 40
0.75
 50
0.0
 51
180.0
  0
LINE
  5
A9AE
  8
1-前柱カバ-P
 10
26969.61052858517
 20
13493.085711
 30
0.0
 11
26969.61052858517
 21
13501.085711
 31
0.0
  0
ARC
  5
A9AF
  8
1-前柱カバ-P
 10
26968.610528585159
 20
13501.085711
 30
0.0
 40
1.0
 50
0.0
 51
90.0
  0
LINE
  5
A9B0
  8
1-前柱カバ-P
  6
1PL-M
 62
     6
 10
26974.610528585159
 20
13496.585711
 30
0.0
 11
26953.010528585161
 21
13496.585711
 31
0.0
  0
LINE
  5
A9B1
  8
1-前柱カバ-P
 10
26961.610528585159
 20
13494.835711
 30
0.0
 11
26961.610528585159
 21
13502.835711
 31
0.0
  0
LINE
  5
A9B2
  8
1-前柱カバ-P
  6
HIDE-M
 62
     6
 10
27032.410528585158
 20
13482.585711
 30
0.0
 11
27044.010528585161
 21
13482.585711
 31
0.0
  0
LINE
  5
A9B3
  8
1-前柱カバ-P
  6
HIDE-M
 62
     6
 10
27032.410528585158
 20
13490.585711
 30
0.0
 11
27044.010528585161
 21
13490.585711
 31
0.0
  0
LINE
  5
A9B4
  8
1-前柱カバ-P
  6
HIDE-M
 62
     6
 10
27032.410528585158
 20
13483.585711
 30
0.0
 11
27044.010528585161
 21
13483.585711
 31
0.0
  0
LINE
  5
A9B5
  8
1-前柱カバ-P
  6
HIDE-M
 62
     6
 10
27032.410528585158
 20
13489.585711
 30
0.0
 11
27044.010528585161
 21
13489.585711
 31
0.0
  0
LINE
  5
A9B6
  8
1-前柱カバ-P
 10
27033.410528585158
 20
13492.085711
 30
0.0
 11
27040.410528585158
 21
13492.085711
 31
0.0
  0
LINE
  5
A9B7
  8
1-前柱カバ-P
 10
27040.410528585158
 20
13481.085711
 30
0.0
 11
27033.410528585158
 21
13481.085711
 31
0.0
  0
LINE
  5
A9B8
  8
1-前柱カバ-P
 10
27040.410528585158
 20
13480.335711
 30
0.0
 11
27040.410528585158
 21
13492.835711
 31
0.0
  0
LINE
  5
A9B9
  8
1-前柱カバ-P
 10
27044.010528585161
 20
13480.585711
 30
0.0
 11
27044.010528585161
 21
13492.585711
 31
0.0
  0
LINE
  5
A9BA
  8
1-前柱カバ-P
  6
HIDE-M
 62
     6
 10
27041.910528585158
 20
13492.085711
 30
0.0
 11
27043.510528585171
 21
13492.085711
 31
0.0
  0
LINE
  5
A9BB
  8
1-前柱カバ-P
 10
27044.010528585161
 20
13492.585711
 30
0.0
 11
27043.510528585171
 21
13492.085711
 31
0.0
  0
ARC
  5
A9BC
  8
1-前柱カバ-P
 10
27041.160528585158
 20
13492.835711
 30
0.0
 40
0.75
 50
0.0
 51
180.0
  0
LINE
  5
A9BD
  8
1-前柱カバ-P
  6
HIDE-M
 62
     6
 10
27043.510528585171
 20
13481.085711
 30
0.0
 11
27041.910528585158
 21
13481.085711
 31
0.0
  0
LINE
  5
A9BE
  8
1-前柱カバ-P
 10
27044.010528585161
 20
13480.585711
 30
0.0
 11
27043.510528585171
 21
13481.085711
 31
0.0
  0
ARC
  5
A9BF
  8
1-前柱カバ-P
 10
27041.160528585158
 20
13480.335711
 30
0.0
 40
0.75
 50
180.0
 51
0.0
  0
LINE
  5
A9C0
  8
1-前柱カバ-P
 10
27032.410528585158
 20
13482.085711
 30
0.0
 11
27032.410528585158
 21
13491.085711
 31
0.0
  0
ARC
  5
A9C1
  8
1-前柱カバ-P
 10
27033.410528585158
 20
13491.085711
 30
0.0
 40
1.0
 50
90.0
 51
180.0
  0
ARC
  5
A9C2
  8
1-前柱カバ-P
 10
27033.410528585158
 20
13482.085711
 30
0.0
 40
1.0
 50
180.0
 51
270.0
  0
LINE
  5
A9C3
  8
1-前柱カバ-P
  6
1PL-M
 62
     6
 10
27027.410528585158
 20
13486.585711
 30
0.0
 11
27049.010528585171
 21
13486.585711
 31
0.0
  0
LINE
  5
A9C4
  8
1-前柱カバ-P
 10
27033.410528585158
 20
13502.085711
 30
0.0
 11
27040.410528585158
 21
13502.085711
 31
0.0
  0
LINE
  5
A9C5
  8
1-前柱カバ-P
 10
27044.010528585161
 20
13494.585711
 30
0.0
 11
27044.010528585161
 21
13502.585711
 31
0.0
  0
LINE
  5
A9C6
  8
1-前柱カバ-P
  6
HIDE-M
 62
     6
 10
27041.910528585158
 20
13502.085711
 30
0.0
 11
27043.510528585171
 21
13502.085711
 31
0.0
  0
LINE
  5
A9C7
  8
1-前柱カバ-P
 10
27044.010528585161
 20
13502.585711
 30
0.0
 11
27043.510528585171
 21
13502.085711
 31
0.0
  0
ARC
  5
A9C8
  8
1-前柱カバ-P
 10
27041.160528585158
 20
13502.835711
 30
0.0
 40
0.75
 50
0.0
 51
180.0
  0
LINE
  5
A9C9
  8
1-前柱カバ-P
 10
27032.410528585158
 20
13493.085711
 30
0.0
 11
27032.410528585158
 21
13501.085711
 31
0.0
  0
ARC
  5
A9CA
  8
1-前柱カバ-P
 10
27033.410528585158
 20
13501.085711
 30
0.0
 40
1.0
 50
90.0
 51
180.0
  0
LINE
  5
A9CB
  8
1-前柱カバ-P
  6
1PL-M
 62
     6
 10
27027.410528585158
 20
13496.585711
 30
0.0
 11
27049.010528585171
 21
13496.585711
 31
0.0
  0
LINE
  5
A9CC
  8
1-前柱カバ-P
 10
27040.410528585158
 20
13494.835711
 30
0.0
 11
27040.410528585158
 21
13502.835711
 31
0.0
  0
LINE
  5
A9CD
  8
1-前柱カバ-P
  6
HIDE-M
 62
     6
 10
26969.61052858517
 20
13500.585711
 30
0.0
 11
26958.010528585171
 21
13500.585711
 31
0.0
  0
LINE
  5
A9CE
  8
1-前柱カバ-P
  6
HIDE-M
 62
     6
 10
26969.61052858517
 20
13499.585711
 30
0.0
 11
26958.010528585171
 21
13499.585711
 31
0.0
  0
LINE
  5
A9CF
  8
1-前柱カバ-P
  6
HIDE-M
 62
     6
 10
27032.410528585158
 20
13500.585711
 30
0.0
 11
27044.010528585161
 21
13500.585711
 31
0.0
  0
LINE
  5
A9D0
  8
1-前柱カバ-P
  6
HIDE-M
 62
     6
 10
27032.410528585158
 20
13499.585711
 30
0.0
 11
27044.010528585161
 21
13499.585711
 31
0.0
  0
LINE
  5
A9D1
  8
2-0
  6
CENTER2
 62
     6
 10
17920.508285585169
 20
13461.485710999999
 30
0.0
 11
27305.615364537101
 21
13461.485710999999
 31
0.0
  0
LINE
  5
A9D2
  8
2-0
  6
CENTER2
 62
     6
 10
17920.508285585169
 20
16729.985711000001
 30
0.0
 11
27305.615364537101
 21
16729.985711000001
 31
0.0
  0
LINE
  5
A9D3
  8
2-0
  6
CENTER2
 62
     6
 10
17920.508285585169
 20
19647.985711000001
 30
0.0
 11
27305.615364537101
 21
19647.985711000001
 31
0.0
  0
LINE
  5
A9D4
  8
2-0
  6
CENTER2
 62
     6
 10
12903.743320936699
 20
20890.487954
 30
0.0
 11
12903.743320936699
 21
19940.487293999991
 31
0.0
  0
CIRCLE
  5
A9D5
  8
0-5
  6
CONTINUOUS
 62
     4
 10
12903.743320936699
 20
21090.486634999979
 30
0.0
 40
199.9999949999999
  0
TEXT
  5
A9D6
  8
0-5
  6
CONTINUOUS
 62
     7
 10
12850.026114936711
 20
21001.271712000002
 30
0.0
 40
160.0
  1
3
 72
     4
 11
12903.359448270039
 21
21081.271712000002
 31
0.0
  0
LINE
  5
A9D7
  8
0-1
  6
CONTINUOUS
 62
     3
 10
12971.243558936711
 20
15656.71323723089
 30
0.0
 11
12971.243558936711
 21
19852.98663499999
 31
0.0
  0
LINE
  5
A9D8
  8
0-1
  6
CONTINUOUS
 62
     3
 10
12971.243558936711
 20
19852.98663499999
 30
0.0
 11
12989.243320936699
 21
19852.98663499999
 31
0.0
  0
LINE
  5
A9D9
  8
0-1
  6
CONTINUOUS
 62
     3
 10
12915.74280693672
 20
19835.487690000002
 30
0.0
 11
12915.74280693672
 21
19865.487293999991
 31
0.0
  0
LINE
  5
A9DA
  8
0-1
  6
CONTINUOUS
 62
     3
 10
12971.243558936711
 20
19830.485446999981
 30
0.0
 11
12920.74406093671
 21
19830.485446999981
 31
0.0
  0
LINE
  5
A9DB
  8
0-1
  6
CONTINUOUS
 62
     3
 10
12989.243320936699
 20
19865.487293999991
 30
0.0
 11
12989.243320936699
 21
19830.485446999981
 31
0.0
  0
LINE
  5
A9DC
  8
0-1
  6
CONTINUOUS
 62
     3
 10
12920.74406093671
 20
19870.485579
 30
0.0
 11
12984.242067936701
 21
19870.485579
 31
0.0
  0
ARC
  5
A9DD
  8
0-1
  6
CONTINUOUS
 62
     3
 10
12984.242067936701
 20
19865.487293999991
 30
0.0
 40
5.0
 50
0.0
 51
90.0
  0
ARC
  5
A9DE
  8
0-1
  6
CONTINUOUS
 62
     3
 10
12920.74406093671
 20
19865.487293999991
 30
0.0
 40
5.0
 50
90.0
 51
180.0
  0
ARC
  5
A9DF
  8
0-1
  6
CONTINUOUS
 62
     3
 10
12920.74406093671
 20
19835.487690000002
 30
0.0
 40
5.0
 50
180.0
 51
269.9999850001808
  0
LINE
  5
A9E0
  8
0-1
  6
CONTINUOUS
 62
     3
 10
7903.7433209367064
 20
13424.98635799998
 30
0.0
 11
7903.7433209367064
 21
13268.986437
 31
0.0
  0
LINE
  5
A9E1
  8
0-1
  6
CONTINUOUS
 62
     3
 10
4608.7725025779928
 20
19111.14274543976
 30
0.0
 11
8312.5417742813624
 21
17577.69171465941
 31
0.0
  0
LINE
  5
A9E2
  8
0-1
  6
CONTINUOUS
 62
     3
 10
12853.74368993672
 20
13300.986344000001
 30
0.0
 11
12853.74368993672
 21
15705.1951467899
 31
0.0
  0
LINE
  5
A9E3
  8
0-1
  6
CONTINUOUS
 62
     3
 10
12989.243320936699
 20
13268.986437
 30
0.0
 11
12989.243320936699
 21
15649.28639876184
 31
0.0
  0
LINE
  5
A9E4
  8
0-1
  6
CONTINUOUS
 62
     3
 10
12903.743320936699
 20
13424.98635799998
 30
0.0
 11
12903.743320936699
 21
15683.327096625921
 31
0.0
  0
LINE
  5
A9E5
  8
0-1
  6
CONTINUOUS
 62
     3
 10
12946.24457493672
 20
13424.98635799998
 30
0.0
 11
12946.24457493672
 21
15665.79075652376
 31
0.0
  0
LINE
  5
A9E6
  8
0-1
  6
CONTINUOUS
 62
     3
 10
12853.74368993672
 20
15705.1951467899
 30
0.0
 11
12853.74368993672
 21
19812.485685
 31
0.0
  0
LINE
  5
A9E7
  8
0-1
  6
CONTINUOUS
 62
     3
 10
12989.243320936699
 20
15649.28639876184
 30
0.0
 11
12989.243320936699
 21
19852.98663499999
 31
0.0
  0
LINE
  5
A9E8
  8
0-1
  6
CONTINUOUS
 62
     3
 10
12756.243452936709
 20
15744.186662093551
 30
0.0
 11
12756.243452936709
 21
19812.485685
 31
0.0
  0
LINE
  5
A9E9
  8
0-1
  6
CONTINUOUS
 62
     3
 10
12793.245603936721
 20
15728.919293642561
 30
0.0
 11
12793.245603936721
 21
19812.485685
 31
0.0
  0
LINE
  5
A9EA
  8
2-0
  6
DASHED3
 62
     6
 10
12903.743320936699
 20
15683.327096625921
 30
0.0
 11
12903.743320936699
 21
19840.487954
 31
0.0
  0
LINE
  5
A9EB
  8
2-0
  6
DASHED3
 62
     6
 10
12946.24457493672
 20
15665.79075652376
 30
0.0
 11
12946.24457493672
 21
19830.485446999981
 31
0.0
  0
LINE
  5
A9EC
  8
0-1
  6
CONTINUOUS
 62
     3
 10
4900.2433209367091
 20
18989.10749151139
 30
0.0
 11
4900.2433209367091
 21
19860.487031000001
 31
0.0
  0
LINE
  5
A9ED
  8
0-1
  6
CONTINUOUS
 62
     3
 10
5035.743940936718
 20
18933.19915196484
 30
0.0
 11
5035.743940936718
 21
19812.485685
 31
0.0
  0
LINE
  5
A9EE
  8
0-1
  6
CONTINUOUS
 62
     3
 10
7756.2454319367234
 20
17807.22380933446
 30
0.0
 11
7756.2454319367234
 21
19812.485685
 31
0.0
  0
LINE
  5
A9EF
  8
0-1
  6
CONTINUOUS
 62
     3
 10
7793.2456039367289
 20
17791.957257433889
 30
0.0
 11
7793.2456039367289
 21
19812.485685
 31
0.0
  0
LINE
  5
A9F0
  8
0-1
  6
CONTINUOUS
 62
     3
 10
7956.2460919367313
 20
17724.70201846179
 30
0.0
 11
7956.2460919367331
 21
19812.485685
 31
0.0
  0
LINE
  5
A9F1
  8
0-1
  6
CONTINUOUS
 62
     3
 10
7993.2462639367404
 20
17709.435466561219
 30
0.0
 11
7993.2462639367404
 21
19812.485685
 31
0.0
  0
LINE
  5
A9F2
  8
0-1
  6
CONTINUOUS
 62
     3
 10
8156.246751936741
 20
17642.180227589099
 30
0.0
 11
8156.246751936741
 21
19812.485685
 31
0.0
  0
LINE
  5
A9F3
  8
0-1
  6
CONTINUOUS
 62
     3
 10
8193.2469239367492
 20
17626.913675688538
 30
0.0
 11
8193.2469239367492
 21
19812.485685
 31
0.0
  0
LINE
  5
A9F4
  8
0-1
  6
CONTINUOUS
 62
     3
 10
8356.2474119367507
 20
17683.61714701321
 30
0.0
 11
8356.2474119367507
 21
19812.485685
 31
0.0
  0
LINE
  5
A9F5
  8
0-1
  6
CONTINUOUS
 62
     3
 10
8393.2475839367598
 20
17773.291143927981
 30
0.0
 11
8393.2475839367598
 21
19812.485685
 31
0.0
  0
LINE
  5
A9F6
  8
0-1
  6
CONTINUOUS
 62
     3
 10
8556.2480719367559
 20
17638.213552947622
 30
0.0
 11
8556.2480719367559
 21
19812.485685
 31
0.0
  0
LINE
  5
A9F7
  8
0-1
  6
CONTINUOUS
 62
     3
 10
8593.2482439367686
 20
17595.670312558748
 30
0.0
 11
8593.2482439367686
 21
19812.485685
 31
0.0
  0
LINE
  5
A9F8
  8
0-1
  6
CONTINUOUS
 62
     3
 10
8756.2487319367701
 20
17408.250401524641
 30
0.0
 11
8756.2487319367701
 21
19812.485685
 31
0.0
  0
LINE
  5
A9F9
  8
0-1
  6
CONTINUOUS
 62
     3
 10
8793.2489039367792
 20
17365.707161135771
 30
0.0
 11
8793.2489039367792
 21
19812.485685
 31
0.0
  0
LINE
  5
A9FA
  8
0-1
  6
CONTINUOUS
 62
     3
 10
8956.2493919367807
 20
17178.287250101661
 30
0.0
 11
8956.2493919367807
 21
19812.485685
 31
0.0
  0
LINE
  5
A9FB
  8
0-1
  6
CONTINUOUS
 62
     3
 10
8993.2495639367917
 20
17135.74400971278
 30
0.0
 11
8993.2495639367917
 21
19812.485685
 31
0.0
  0
LINE
  5
A9FC
  8
0-1
  6
CONTINUOUS
 62
     3
 10
9156.2500519367877
 20
17000.69523749184
 30
0.0
 11
9156.2500519367877
 21
19812.485685
 31
0.0
  0
LINE
  5
A9FD
  8
0-1
  6
CONTINUOUS
 62
     3
 10
9193.250223936795
 20
17090.373517523742
 30
0.0
 11
9193.250223936795
 21
19812.485685
 31
0.0
  0
LINE
  5
A9FE
  8
0-1
  6
CONTINUOUS
 62
     3
 10
9356.2507119367983
 20
17147.049482353101
 30
0.0
 11
9356.2507119367983
 21
19812.485685
 31
0.0
  0
LINE
  5
A9FF
  8
0-1
  6
CONTINUOUS
 62
     3
 10
9393.2508839368038
 20
17131.782930452511
 30
0.0
 11
9393.2508839368038
 21
19812.485685
 31
0.0
  0
LINE
  5
AA00
  8
0-1
  6
CONTINUOUS
 62
     3
 10
9556.2513719368071
 20
17064.527691480431
 30
0.0
 11
9556.2513719368035
 21
19812.485685
 31
0.0
  0
LINE
  5
AA01
  8
0-1
  6
CONTINUOUS
 62
     3
 10
9593.2515439368144
 20
17049.261139579859
 30
0.0
 11
9593.2515439368144
 21
19812.485685
 31
0.0
  0
LINE
  5
AA02
  8
0-1
  6
CONTINUOUS
 62
     3
 10
9756.2520319368177
 20
16982.00590060775
 30
0.0
 11
9756.2520319368177
 21
19812.485685
 31
0.0
  0
LINE
  5
AA03
  8
0-1
  6
CONTINUOUS
 62
     3
 10
9793.2522039368232
 20
16966.739348707179
 30
0.0
 11
9793.2522039368232
 21
19812.485685
 31
0.0
  0
LINE
  5
AA04
  8
0-1
  6
CONTINUOUS
 62
     3
 10
9956.2526919368229
 20
16899.48410973508
 30
0.0
 11
9956.2526919368229
 21
19812.485685
 31
0.0
  0
LINE
  5
AA05
  8
0-1
  6
CONTINUOUS
 62
     3
 10
9993.2528639368338
 20
16884.217557834509
 30
0.0
 11
9993.2528639368338
 21
19812.485685
 31
0.0
  0
LINE
  5
AA06
  8
0-1
  6
CONTINUOUS
 62
     3
 10
10156.25335193683
 20
16816.962318862421
 30
0.0
 11
10156.25335193683
 21
19812.485685
 31
0.0
  0
LINE
  5
AA07
  8
0-1
  6
CONTINUOUS
 62
     3
 10
10193.253523936841
 20
16801.69576696185
 30
0.0
 11
10193.253523936841
 21
19812.485685
 31
0.0
  0
LINE
  5
AA08
  8
0-1
  6
CONTINUOUS
 62
     3
 10
10356.25401193684
 20
16734.440527989751
 30
0.0
 11
10356.25401193684
 21
19812.485685
 31
0.0
  0
LINE
  5
AA09
  8
0-1
  6
CONTINUOUS
 62
     3
 10
10393.25418393685
 20
16719.17397608918
 30
0.0
 11
10393.25418393685
 21
19812.485685
 31
0.0
  0
LINE
  5
AA0A
  8
0-1
  6
CONTINUOUS
 62
     3
 10
10556.25467193684
 20
16651.918737117048
 30
0.0
 11
10556.25467193684
 21
19812.485685
 31
0.0
  0
LINE
  5
AA0B
  8
0-1
  6
CONTINUOUS
 62
     3
 10
10593.254843936849
 20
16636.652185216499
 30
0.0
 11
10593.254843936849
 21
19812.485685
 31
0.0
  0
LINE
  5
AA0C
  8
0-1
  6
CONTINUOUS
 62
     3
 10
10756.25533193686
 20
16569.396946244411
 30
0.0
 11
10756.25533193686
 21
19812.485685
 31
0.0
  0
LINE
  5
AA0D
  8
0-1
  6
CONTINUOUS
 62
     3
 10
10793.25550393686
 20
16554.13039434384
 30
0.0
 11
10793.25550393686
 21
19812.485685
 31
0.0
  0
LINE
  5
AA0E
  8
0-1
  6
CONTINUOUS
 62
     3
 10
10956.25599193687
 20
16486.875155371741
 30
0.0
 11
10956.25599193687
 21
19812.485685
 31
0.0
  0
LINE
  5
AA0F
  8
0-1
  6
CONTINUOUS
 62
     3
 10
10993.256163936871
 20
16471.60860347117
 30
0.0
 11
10993.256163936871
 21
19812.485685
 31
0.0
  0
LINE
  5
AA10
  8
0-1
  6
CONTINUOUS
 62
     3
 10
11156.25665193687
 20
16404.353364499071
 30
0.0
 11
11156.25665193687
 21
19812.485685
 31
0.0
  0
LINE
  5
AA11
  8
0-1
  6
CONTINUOUS
 62
     3
 10
11193.25682393687
 20
16389.0868125985
 30
0.0
 11
11193.25682393687
 21
19812.485685
 31
0.0
  0
LINE
  5
AA12
  8
0-1
  6
CONTINUOUS
 62
     3
 10
11356.25731193687
 20
16321.83157362639
 30
0.0
 11
11356.25731193687
 21
19812.485685
 31
0.0
  0
LINE
  5
AA13
  8
0-1
  6
CONTINUOUS
 62
     3
 10
11393.257483936881
 20
16306.565021725821
 30
0.0
 11
11393.257483936881
 21
19812.485685
 31
0.0
  0
LINE
  5
AA14
  8
0-1
  6
CONTINUOUS
 62
     3
 10
11556.25797193688
 20
16239.309782753709
 30
0.0
 11
11556.25797193688
 21
19812.485685
 31
0.0
  0
LINE
  5
AA15
  8
0-1
  6
CONTINUOUS
 62
     3
 10
11593.25814393689
 20
16224.04323085316
 30
0.0
 11
11593.25814393689
 21
19812.485685
 31
0.0
  0
LINE
  5
AA16
  8
0-1
  6
CONTINUOUS
 62
     3
 10
11756.2586319369
 20
16156.78799188105
 30
0.0
 11
11756.2586319369
 21
19812.485685
 31
0.0
  0
LINE
  5
AA17
  8
0-1
  6
CONTINUOUS
 62
     3
 10
11793.258803936909
 20
16141.52143998049
 30
0.0
 11
11793.258803936909
 21
19812.485685
 31
0.0
  0
LINE
  5
AA18
  8
0-1
  6
CONTINUOUS
 62
     3
 10
11956.259291936911
 20
16074.26620100838
 30
0.0
 11
11956.259291936911
 21
19812.485685
 31
0.0
  0
LINE
  5
AA19
  8
0-1
  6
CONTINUOUS
 62
     3
 10
11993.25946393692
 20
16058.99964910782
 30
0.0
 11
11993.25946393692
 21
19812.485685
 31
0.0
  0
LINE
  5
AA1A
  8
0-1
  6
CONTINUOUS
 62
     3
 10
12156.25995193692
 20
15991.74441013571
 30
0.0
 11
12156.25995193692
 21
19812.485685
 31
0.0
  0
LINE
  5
AA1B
  8
0-1
  6
CONTINUOUS
 62
     3
 10
12193.260123936931
 20
15976.477858235139
 30
0.0
 11
12193.260123936931
 21
19812.485685
 31
0.0
  0
LINE
  5
AA1C
  8
0-1
  6
CONTINUOUS
 62
     3
 10
12356.260611936919
 20
15909.22261926303
 30
0.0
 11
12356.260611936919
 21
19812.485685
 31
0.0
  0
LINE
  5
AA1D
  8
0-1
  6
CONTINUOUS
 62
     3
 10
12393.260783936939
 20
15893.95606736248
 30
0.0
 11
12393.260783936939
 21
19812.485685
 31
0.0
  0
LINE
  5
AA1E
  8
0-1
  6
CONTINUOUS
 62
     3
 10
12556.261271936941
 20
15826.700828390371
 30
0.0
 11
12556.261271936941
 21
19812.485685
 31
0.0
  0
LINE
  5
AA1F
  8
0-1
  6
CONTINUOUS
 62
     3
 10
12593.261443936941
 20
15811.43427648981
 30
0.0
 11
12593.261443936941
 21
19812.485685
 31
0.0
  0
LINE
  5
AA20
  8
2-0
  6
DASHED3
 62
     6
 10
10257.982531426331
 20
16774.988087000002
 30
0.0
 11
12903.743320936699
 21
16774.988087000002
 31
0.0
  0
LINE
  5
AA21
  8
2-0
  6
DASHED3
 62
     6
 10
10476.114171705511
 20
16684.985315999991
 30
0.0
 11
12903.743320936699
 21
16684.985315999991
 31
0.0
  0
LINE
  5
AA22
  8
0-1
  6
CONTINUOUS
 62
     3
 10
7903.7433209367064
 20
16684.985315999991
 30
0.0
 11
10476.114171705511
 21
16684.985315999991
 31
0.0
  0
LINE
  5
AA23
  8
0-1
  6
CONTINUOUS
 62
     3
 10
7903.7433209367064
 20
16774.988087000002
 30
0.0
 11
10257.982531426331
 21
16774.988087000002
 31
0.0
  0
LINE
  5
AA24
  8
0-1
  6
CONTINUOUS
 62
     3
 10
7963.2436899367221
 20
13461.485710999999
 30
0.0
 11
10212.243689936709
 21
16729.985711000001
 31
0.0
  0
LINE
  5
AA25
  8
0-1
  6
CONTINUOUS
 62
     3
 10
10212.243689936709
 20
13461.48571100001
 30
0.0
 11
7963.2436899367167
 21
16729.985711000001
 31
0.0
  0
LINE
  5
AA26
  8
0-6
  6
CONTINUOUS
 62
     6
 10
12850.74368993672
 20
15432.91222811606
 30
0.0
 11
12619.036797228609
 21
14958.76626853028
 31
0.0
  0
LINE
  5
AA27
  8
2-0
  6
DASHED3
 62
     6
 10
12116.547061224061
 20
16008.130250374261
 30
0.0
 11
12613.24368993672
 21
16729.985711000001
 31
0.0
  0
LINE
  5
AA28
  8
2-0
  6
DASHED3
 62
     6
 10
7963.2436899367221
 20
19647.985711000001
 30
0.0
 11
10139.692876229979
 21
16823.795296878779
 31
0.0
  0
LINE
  5
AA29
  8
2-0
  6
DASHED3
 62
     6
 10
10212.243689936709
 20
19647.985711000001
 30
0.0
 11
8614.1570568934858
 21
17571.62910929451
 31
0.0
  0
LINE
  5
AA2A
  8
0-1
  6
CONTINUOUS
 62
     3
 10
8614.1570568934858
 20
17571.62910929451
 30
0.0
 11
7963.2436899367167
 21
16729.985711000001
 31
0.0
  0
LINE
  5
AA2B
  8
0-6
  6
CONTINUOUS
 62
     6
 10
25550.934823763761
 20
12841.98711
 30
0.0
 11
26550.934164763748
 21
12841.98711
 31
0.0
  0
TEXT
  5
AA2C
  8
0-6
  6
CONTINUOUS
 62
     7
 10
25646.935087763741
 20
12921.98737399998
 30
0.0
 40
160.0
  1
前柱（P）
 72
     4
 11
26046.935087763741
 21
13001.98737399998
 31
0.0
  0
LINE
  5
AA2D
  8
0-6
  6
CONTINUOUS
 62
     6
 10
26956.010528585171
 20
13427.986252000001
 30
0.0
 11
26550.934164763748
 21
12841.98711
 31
0.0
  0
LINE
  5
AA2E
  8
0-6
  6
CONTINUOUS
 62
     6
 10
25550.934823763761
 20
16080.047909954121
 30
0.0
 11
26550.934164763748
 21
16080.047909954121
 31
0.0
  0
TEXT
  5
AA2F
  8
0-6
  6
CONTINUOUS
 62
     7
 10
25646.935087763741
 20
16160.048173954099
 30
0.0
 40
160.0
  1
中柱（P）
 72
     4
 11
26046.935087763741
 21
16240.048173954099
 31
0.0
  0
LINE
  5
AA30
  8
0-6
  6
CONTINUOUS
 62
     6
 10
26956.010528585171
 20
16666.047051954109
 30
0.0
 11
26550.934164763748
 21
16080.047909954121
 31
0.0
  0
LINE
  5
AA31
  8
0-6
  6
CONTINUOUS
 62
     6
 10
25209.872933294209
 20
14042.976989828871
 30
0.0
 11
26665.87293329422
 21
14042.976989828871
 31
0.0
  0
TEXT
  5
AA32
  8
0-6
  6
CONTINUOUS
 62
     7
 10
25249.87820654664
 20
14122.97725382886
 30
0.0
 40
160.0
  1
前柱カバー（P）
 72
     4
 11
25937.87820654664
 21
14202.97725382886
 31
0.0
  0
LINE
  5
AA33
  8
0-6
  6
CONTINUOUS
 62
     6
 10
26965.110528585159
 20
13554.586251999999
 30
0.0
 11
26665.87293329422
 21
14042.976989828871
 31
0.0
  0
LINE
  5
AA34
  8
0-6
  6
CONTINUOUS
 62
     6
 10
25209.872933294209
 20
17300.976553828881
 30
0.0
 11
26665.87293329422
 21
17300.976553828881
 31
0.0
  0
TEXT
  5
AA35
  8
0-6
  6
CONTINUOUS
 62
     7
 10
25249.87820654664
 20
17380.976817828861
 30
0.0
 40
160.0
  1
中柱カバー（P）
 72
     4
 11
25937.87820654664
 21
17460.976817828861
 31
0.0
  0
LINE
  5
AA36
  8
0-6
  6
CONTINUOUS
 62
     6
 10
26965.110528585159
 20
16812.585815999999
 30
0.0
 11
26665.87293329422
 21
17300.976553828881
 31
0.0
  0
LINE
  5
AA37
  8
0-6
  6
CONTINUOUS
 62
     6
 10
25550.934823763761
 20
20307.923617045872
 30
0.0
 11
26550.934164763741
 21
20307.923617045872
 31
0.0
  0
TEXT
  5
AA38
  8
0-6
  6
CONTINUOUS
 62
     7
 10
25646.935087763741
 20
20387.923881045848
 30
0.0
 40
160.0
  1
後柱（P）
 72
     4
 11
26046.935087763741
 21
20467.923881045848
 31
0.0
  0
LINE
  5
AA39
  8
0-6
  6
CONTINUOUS
 62
     6
 10
26956.010528585161
 20
19721.924475045871
 30
0.0
 11
26550.934164763741
 21
20307.923617045872
 31
0.0
  0
LINE
  5
AA3A
  8
0-6
  6
CONTINUOUS
 62
     6
 10
25209.872933294209
 20
19086.994973171109
 30
0.0
 11
26665.87293329422
 21
19086.994973171109
 31
0.0
  0
TEXT
  5
AA3B
  8
0-6
  6
CONTINUOUS
 62
     7
 10
25249.878206546618
 20
19166.995237171112
 30
0.0
 40
160.0
  1
後柱カバー（P）
 72
     4
 11
25937.878206546618
 21
19246.995237171112
 31
0.0
  0
LINE
  5
AA3C
  8
0-6
  6
CONTINUOUS
 62
     6
 10
26965.110528585159
 20
19575.385710999992
 30
0.0
 11
26665.87293329422
 21
19086.994973171109
 31
0.0
  0
LINE
  5
AA3D
  8
0-1
  6
CONTINUOUS
 62
     3
 10
8312.5412365215816
 20
17577.690411339281
 30
0.0
 11
8407.8952568451059
 21
17808.791394445481
 31
0.0
  0
LINE
  5
AA3E
  8
0-1
  6
CONTINUOUS
 62
     3
 10
9141.5947890283205
 20
16965.174895287859
 30
0.0
 11
9236.9454387058413
 21
17196.278746994321
 31
0.0
  0
LINE
  5
AA3F
  8
0-1
  6
CONTINUOUS
 62
     3
 10
9141.5947890283205
 20
16965.174895287859
 30
0.0
 11
8407.8952568451059
 21
17808.791394445481
 31
0.0
  0
LINE
  5
AA40
  8
0-1
  6
CONTINUOUS
 62
     3
 10
9236.9443799269957
 20
17196.276180804489
 30
0.0
 11
13226.2447059367
 21
15550.260576499861
 31
0.0
  0
TEXT
  5
AA41
  8
0-5
  6
CONTINUOUS
 62
     7
 10
28493.335698879531
 20
7245.1821901943877
 30
0.0
 40
160.0
  1
(2260)
 50
90.0
 72
     4
 11
28413.335698879531
 21
7631.8488568610528
 31
0.0
  0
LINE
  5
AA42
  8
0-6
  6
CONTINUOUS
 62
     6
 10
5936.4893424367083
 20
16051.59948699999
 30
0.0
 11
6816.488286436721
 21
16051.59948699999
 31
0.0
  0
LINE
  5
AA43
  8
0-6
  6
CONTINUOUS
 62
     6
 10
5758.7272050883212
 20
15881.582359329661
 30
0.0
 11
5936.4893424367083
 21
16051.59948699999
 31
0.0
  0
LINE
  5
AA44
  8
0-6
  6
CONTINUOUS
 62
     6
 10
5643.0995650883297
 20
15770.99259532965
 30
0.0
 11
5740.2968970883348
 21
15900.854952329661
 31
0.0
  0
LINE
  5
AA45
  8
0-6
  6
CONTINUOUS
 62
     6
 10
5777.1585020883176
 20
15862.309766329659
 30
0.0
 11
5643.0995650883297
 21
15770.99259532965
 31
0.0
  0
LINE
  5
AA46
  8
0-6
  6
CONTINUOUS
 62
     6
 10
5777.1585020883176
 20
15862.309766329659
 30
0.0
 11
5740.2968970883348
 21
15900.854952329661
 31
0.0
  0
TEXT
  5
AA47
  8
0-6
  6
CONTINUOUS
 62
     7
 10
6016.4905964367172
 20
16131.599750999971
 30
0.0
 40
160.0
  1
ブレース
 72
     4
 11
6379.157263103385
 21
16216.93308433331
 31
0.0
  0
LINE
  5
AA48
  8
0-6
  6
CONTINUOUS
 62
     6
 10
6513.9646807702356
 20
16784.988192000001
 30
0.0
 11
6394.6670624378849
 21
17100.58053000001
 31
0.0
  0
LINE
  5
AA49
  8
0-6
  6
CONTINUOUS
 62
     6
 10
5594.0963014378958
 20
17100.58053000001
 30
0.0
 11
6394.6670624378849
 21
17100.58053000001
 31
0.0
  0
TEXT
  5
AA4A
  8
0-6
  6
CONTINUOUS
 62
     7
 10
5674.6666664378808
 20
17180.580794000001
 30
0.0
 40
160.0
  1
桁（中）
 72
     4
 11
5994.6666664378808
 21
17260.580794000001
 31
0.0
  0
LINE
  5
AA4B
  8
0-6
  6
CONTINUOUS
 62
     6
 10
9937.2975642952624
 20
15060.993967314391
 30
0.0
 11
10817.296508295271
 21
15060.993967314391
 31
0.0
  0
LINE
  5
AA4C
  8
0-6
  6
CONTINUOUS
 62
     6
 10
11185.03821386989
 20
15528.842273947561
 30
0.0
 11
10817.296508295271
 21
15060.993967314391
 31
0.0
  0
TEXT
  5
AA4D
  8
0-6
  6
CONTINUOUS
 62
     7
 10
10017.29881829525
 20
15140.9942313144
 30
0.0
 40
160.0
  1
ブレース
 72
     4
 11
10379.96548496192
 21
15226.32756464773
 31
0.0
  0
LINE
  5
AA4E
  8
0-1
  6
CONTINUOUS
 62
     3
 10
10212.243689936709
 20
16729.985711000001
 30
0.0
 11
10139.692876229979
 21
16823.795296878779
 31
0.0
  0
LINE
  5
AA4F
  8
2-0
  6
DASHED3
 62
     6
 10
10364.24368993672
 20
19647.985711000001
 30
0.0
 11
12613.24368993672
 21
16729.985711000001
 31
0.0
  0
LINE
  5
AA50
  8
2-0
  6
DASHED3
 62
     6
 10
12613.24368993672
 20
19647.985711000001
 30
0.0
 11
10364.2436899367
 21
16729.985711000001
 31
0.0
  0
LINE
  5
AA51
  8
0-1
  6
CONTINUOUS
 62
     3
 10
10364.24368993672
 20
13461.485710999999
 30
0.0
 11
12116.547061224061
 21
16008.130250374261
 31
0.0
  0
LINE
  5
AA52
  8
0-1
  6
CONTINUOUS
 62
     3
 10
12613.24368993672
 20
13461.48571100001
 30
0.0
 11
10364.24368993672
 21
16729.985711000001
 31
0.0
  0
LINE
  5
AA58
  8
0-1
  6
CONTINUOUS
 62
     3
 10
12122.73636947092
 20
6291.1885390000007
 30
0.0
 11
12122.73636947092
 21
8152.234418
 31
0.0
  0
LINE
  5
AA59
  8
0-1
  6
CONTINUOUS
 62
     3
 10
12137.73617147092
 20
6291.1885390000007
 30
0.0
 11
12137.73617147092
 21
8152.234418
 31
0.0
  0
LINE
  5
AA5D
  8
SUNPOU
  6
CONTINUOUS
 10
4056.243544936719
 20
19870.48359950001
 30
0.0
 11
4056.243544936719
 21
20667.450867278461
 31
0.0
  0
LINE
  5
AA5E
  8
SUNPOU
  6
CONTINUOUS
 10
4056.2435449367031
 20
12527.673846847811
 30
0.0
 11
4056.2435449367031
 21
13268.986437
 31
0.0
  0
LINE
  5
AA5F
  8
SUNPOU
  6
CONTINUOUS
 10
5986.2340064709351
 20
9389.1900499999992
 30
0.0
 11
5481.4461365775196
 21
9389.1900499999992
 31
0.0
  0
LINE
  5
AA60
  8
0-1
  6
CONTINUOUS
 62
     3
 10
5556.2441129367226
 20
18718.86633431452
 30
0.0
 11
5556.2441129367198
 21
19812.485685
 31
0.0
  0
LINE
  5
AA61
  8
0-1
  6
CONTINUOUS
 62
     3
 10
5593.2442849367226
 20
18703.54735850088
 30
0.0
 11
5593.2442849367226
 21
19812.485685
 31
0.0
  0
LINE
  5
AA62
  8
0-1
  6
CONTINUOUS
 62
     3
 10
5756.2437839367221
 20
18636.061580791182
 30
0.0
 11
5756.2437839367221
 21
19812.485685
 31
0.0
  0
LINE
  5
AA63
  8
0-1
  6
CONTINUOUS
 62
     3
 10
5793.2449449367132
 20
18620.742195507399
 30
0.0
 11
5793.2449449367132
 21
19812.485685
 31
0.0
  0
LINE
  5
AA64
  8
0-1
  6
CONTINUOUS
 62
     3
 10
5956.2434539367177
 20
18553.256827681871
 30
0.0
 11
5956.2434539367177
 21
19812.485685
 31
0.0
  0
LINE
  5
AA65
  8
0-1
  6
CONTINUOUS
 62
     3
 10
5993.2426349367233
 20
18537.938262166481
 30
0.0
 11
5993.2426349367242
 21
19812.485685
 31
0.0
  0
LINE
  5
AA66
  8
0-1
  6
CONTINUOUS
 62
     3
 10
4976.7418569366973
 20
19860.48900999999
 30
0.0
 11
12912.74280693672
 21
19860.489010000001
 31
0.0
  0
LINE
  5
AA67
  8
0-1
  6
CONTINUOUS
 62
     3
 10
4921.2420939366957
 20
19812.485685
 30
0.0
 11
12968.243558936711
 21
19812.485685
 31
0.0
  0
LINE
  5
AA68
  8
0-6
  6
CONTINUOUS
 62
     6
 10
9244.4961989835447
 20
19977.926428658309
 30
0.0
 11
9201.1942299835246
 21
19952.925108658321
 31
0.0
  0
LINE
  5
AA69
  8
0-6
  6
CONTINUOUS
 62
     6
 10
9244.4961989835447
 20
19977.926428658309
 30
0.0
 11
9297.8442249835462
 21
19835.523820658309
 31
0.0
  0
LINE
  5
AA6A
  8
0-6
  6
CONTINUOUS
 62
     6
 10
9201.1942299835246
 20
19952.925108658321
 30
0.0
 11
9244.4961989835447
 21
19977.926428658309
 31
0.0
  0
LINE
  5
AA6B
  8
0-6
  6
CONTINUOUS
 62
     6
 10
9297.8442249835462
 20
19835.523820658309
 30
0.0
 11
9201.1942299835246
 21
19952.925108658321
 31
0.0
  0
LINE
  5
AA6C
  8
0-6
  6
CONTINUOUS
 62
     6
 10
9297.8442249835462
 20
19835.523820658309
 30
0.0
 11
9244.4961989835447
 21
19977.926428658309
 31
0.0
  0
LINE
  5
AA6D
  8
0-6
  6
CONTINUOUS
 62
     6
 10
9201.1942299835246
 20
19952.925108658321
 30
0.0
 11
9297.8442249835462
 21
19835.523820658309
 31
0.0
  0
LINE
  5
AA6E
  8
0-6
  6
CONTINUOUS
 62
     6
 10
9222.8462039835485
 20
19965.427748658341
 30
0.0
 11
8985.6911694833925
 21
20410.825588564319
 31
0.0
  0
TEXT
  5
AA6F
  8
0-6
  6
CONTINUOUS
 62
     7
 10
8823.5891839835458
 20
20945.523028658328
 30
0.0
 40
160.0
  1
鼻隠し後
 72
     4
 11
9186.2558506502119
 21
21025.523028658328
 31
0.0
  0
LINE
  5
AA70
  8
0-6
  6
CONTINUOUS
 62
     6
 10
8743.5869399835465
 20
20865.52276465833
 30
0.0
 11
9586.0264989835487
 21
20865.52276465833
 31
0.0
  0
LINE
  5
AA71
  8
0-6
  6
CONTINUOUS
 62
     6
 10
8917.6573104308736
 20
20538.600267516609
 30
0.0
 11
8743.5869399835465
 21
20865.52276465833
 31
0.0
  0
LINE
  5
AA72
  8
0-6
  6
CONTINUOUS
 62
     6
 10
13604.17610245019
 20
13339.65920963528
 30
0.0
 11
16245.42056935895
 21
13339.65920963528
 31
0.0
  0
TEXT
  5
AA73
  8
0-6
  6
CONTINUOUS
 62
     7
 10
13675.774470800199
 20
13419.65947363528
 30
0.0
 40
160.0
  1
桁前（PU）+ 桁補強（PU）
 72
     4
 11
14923.774470800199
 21
13499.65947363528
 31
0.0
  0
LINE
  5
AA74
  8
0-6
  6
CONTINUOUS
 62
     6
 10
13604.17610245019
 20
13339.65920963528
 30
0.0
 11
12158.8046718281
 21
12913.72932027396
 31
0.0
  0
LINE
  5
AA75
  8
0-6
  6
CONTINUOUS
 62
     6
 10
12158.8046718281
 20
12913.72932027396
 30
0.0
 11
11781.862208332561
 21
13415.929304496311
 31
0.0
  0
LINE
  5
AA76
  8
0-6
  6
CONTINUOUS
 62
     6
 10
13724.510831022581
 20
16653.71561613891
 30
0.0
 11
16204.82213446387
 21
16653.71561613891
 31
0.0
  0
TEXT
  5
AA77
  8
0-6
  6
CONTINUOUS
 62
     7
 10
13817.02104500828
 20
16733.71588013892
 30
0.0
 40
160.0
  1
桁（PU）+ 桁補強（PU）
 72
     4
 11
14969.02104500828
 21
16813.71588013892
 31
0.0
  0
LINE
  5
AA78
  8
0-6
  6
CONTINUOUS
 62
     6
 10
13724.510831022581
 20
16653.71561613891
 30
0.0
 11
12279.139400400511
 21
16227.78572677762
 31
0.0
  0
LINE
  5
AA79
  8
0-6
  6
CONTINUOUS
 62
     6
 10
12279.139400400511
 20
16227.78572677762
 30
0.0
 11
11902.196936904949
 21
16729.98571099995
 31
0.0
  0
LINE
  5
AA7A
  8
0-6
  6
CONTINUOUS
 62
     6
 10
13724.510831022581
 20
19532.717120138921
 30
0.0
 11
16204.82213446387
 21
19532.717120138921
 31
0.0
  0
TEXT
  5
AA7B
  8
0-6
  6
CONTINUOUS
 62
     7
 10
13817.02104500828
 20
19612.717384138909
 30
0.0
 40
160.0
  1
桁（PU）+ 桁補強（PU）
 72
     4
 11
14969.02104500828
 21
19692.717384138909
 31
0.0
  0
LINE
  5
AA7C
  8
0-6
  6
CONTINUOUS
 62
     6
 10
13724.510831022581
 20
19532.717120138921
 30
0.0
 11
12279.139400400511
 21
19106.787230777609
 31
0.0
  0
LINE
  5
AA7D
  8
0-6
  6
CONTINUOUS
 62
     6
 10
12279.139400400511
 20
19106.787230777609
 30
0.0
 11
11902.196936904949
 21
19608.987214999961
 31
0.0
  0
TEXT
  5
AA7E
  8
0-6
  6
CONTINUOUS
 62
     7
 10
11668.244316085809
 20
15038.76554253028
 30
0.0
 40
160.0
  1
梁（P）前
 72
     4
 11
12110.910982752481
 21
15118.76554253028
 31
0.0
  0
LINE
  5
AA7F
  8
0-6
  6
CONTINUOUS
 62
     6
 10
11604.04662790377
 20
14958.76626853028
 30
0.0
 11
12619.036797228609
 21
14958.76626853028
 31
0.0
  0
LINE
  5
AA80
  8
0-1
  6
CONTINUOUS
 62
     3
 10
5156.2447719367283
 20
18884.475840947161
 30
0.0
 11
5156.2447719367283
 21
19812.485685
 31
0.0
  0
LINE
  5
AA81
  8
0-1
  6
CONTINUOUS
 62
     3
 10
5193.2449439367283
 20
18869.156865133518
 30
0.0
 11
5193.2449439367256
 21
19812.485685
 31
0.0
  0
LINE
  5
AA82
  8
0-1
  6
CONTINUOUS
 62
     3
 10
5356.2444429367279
 20
18801.67108742382
 30
0.0
 11
5356.2444429367279
 21
19812.485685
 31
0.0
  0
LINE
  5
AA83
  8
0-1
  6
CONTINUOUS
 62
     3
 10
5393.245603936718
 20
18786.351702140011
 30
0.0
 11
5393.2456039367171
 21
19812.485685
 31
0.0
  0
LINE
  5
AA86
  8
WAKUSEN-01
 10
868.00000000000193
 20
22484.000000000011
 30
0.0
 11
32764.000000000011
 21
22484.000000000011
 31
0.0
  0
LINE
  5
AA89
  8
WAKUSEN-01
 10
20560.0
 20
2484.0
 30
0.0
 11
32764.0
 21
2484.0
 31
0.0
  0
LINE
  5
AA8A
  8
WAKUSEN-02
 10
20560.0
 20
1655.9999999999991
 30
0.0
 11
26868.0
 21
1655.9999999999991
 31
0.0
  0
TEXT
  5
AA8B
  8
WAKUMOJI-01
 10
20670.260259962761
 20
2125.9030093393221
 30
0.0
 40
240.0
  1
名　称
  7
WAKUMOJI
  0
TEXT
  5
AA8C
  8
WAKUMOJI-01
 10
20656.505485091919
 20
1319.12897497982
 30
0.0
 40
240.0
  1
機種名
  7
WAKUMOJI
  0
LINE
  5
AA8F
  8
YODOROGO
 10
29977.604341291921
 20
1995.7494964292871
 30
0.0
 11
29829.604341291921
 21
1995.7494964292871
 31
0.0
1001
AUTOCAD_POSTSCRIPT_FIGURE
1002
{
1000
PSFILL
1000
Grayscale
1000
Grayscale
1070
    25
1002
}
  0
LINE
  5
AA90
  8
YODOROGO
 10
29829.604341291921
 20
1947.749496429288
 30
0.0
 11
29977.604341291921
 21
1947.749496429288
 31
0.0
1001
AUTOCAD_POSTSCRIPT_FIGURE
1002
{
1000
PSFILL
1000
Grayscale
1000
Grayscale
1070
    25
1002
}
  0
LINE
  5
AA91
  8
YODOROGO
 10
29977.604341291921
 20
1907.7494964292871
 30
0.0
 11
29829.604341291921
 21
1907.7494964292871
 31
0.0
1001
AUTOCAD_POSTSCRIPT_FIGURE
1002
{
1000
PSFILL
1000
Grayscale
1000
Grayscale
1070
    25
1002
}
  0
LINE
  5
AA92
  8
YODOROGO
 10
29829.604341291921
 20
1859.749496429288
 30
0.0
 11
29977.604341291921
 21
1859.749496429288
 31
0.0
1001
AUTOCAD_POSTSCRIPT_FIGURE
1002
{
1000
PSFILL
1000
Grayscale
1000
Grayscale
1070
    25
1002
}
  0
LINE
  5
AA93
  8
YODOROGO
 10
29977.604341291921
 20
1819.7494964292871
 30
0.0
 11
29829.604341291921
 21
1819.7494964292871
 31
0.0
1001
AUTOCAD_POSTSCRIPT_FIGURE
1002
{
1000
PSFILL
1000
Grayscale
1000
Grayscale
1070
    25
1002
}
  0
LINE
  5
AA94
  8
YODOROGO
 10
29921.60434129191
 20
1707.749496429288
 30
0.0
 11
29977.604341291921
 21
1707.749496429288
 31
0.0
1001
AUTOCAD_POSTSCRIPT_FIGURE
1002
{
1000
PSFILL
1000
Grayscale
1000
Grayscale
1070
    25
1002
}
  0
LINE
  5
AA95
  8
YODOROGO
 10
29737.604341291921
 20
1427.749496429288
 30
0.0
 11
29937.604341291932
 21
1481.3393349155101
 31
0.0
  0
LINE
  5
AA96
  8
YODOROGO
 10
29949.60434129191
 20
1707.749496429288
 30
0.0
 11
29885.604341291921
 21
1707.749496429288
 31
0.0
  0
ARC
  5
AA97
  8
YODOROGO
 10
30254.34774982791
 20
1807.864609233261
 30
0.0
 40
381.88686420564721
 50
213.96111677667841
 51
264.47872074317792
  0
ARC
  5
AA98
  8
YODOROGO
 10
30254.347749827921
 20
1807.864609233302
 30
0.0
 40
381.8868642056816
 50
208.14114420486601
 51
212.9210361185994
  0
LINE
  5
AA99
  8
YODOROGO
 10
29771.409872985321
 20
1556.807661346234
 30
0.0
 11
29933.78413250855
 21
1600.3157130570869
 31
0.0
  0
LINE
  5
AA9A
  8
YODOROGO
 10
29737.604341291921
 20
1427.749496429288
 30
0.0
 11
29937.604341291932
 21
1481.3393349155101
 31
0.0
  0
LINE
  5
AA9B
  8
YODOROGO
 10
29949.60434129191
 20
1707.749496429288
 30
0.0
 11
29885.604341291921
 21
1707.749496429288
 31
0.0
  0
ARC
  5
AA9C
  8
YODOROGO
 10
30254.34774982791
 20
1807.864609233261
 30
0.0
 40
381.88686420564721
 50
213.96111677667841
 51
264.47872074317792
  0
LINE
  5
AA9D
  8
YODOROGO
 10
28793.60434129191
 20
1819.7494964292871
 30
0.0
 11
28433.60434129191
 21
1819.7494964292871
 31
0.0
  0
LINE
  5
AA9E
  8
YODOROGO
 10
28513.60434129191
 20
1427.749496429288
 30
0.0
 11
28793.60434129191
 21
1427.749496429288
 31
0.0
  0
LINE
  5
AA9F
  8
YODOROGO
 10
28729.604341291921
 20
1923.7494964292871
 30
0.0
 11
28497.60434129191
 21
1923.7494964292871
 31
0.0
  0
LINE
  5
AAA0
  8
YODOROGO
 10
28585.604341291921
 20
2027.749496429288
 30
0.0
 11
28657.604341291921
 21
2027.749496429288
 31
0.0
  0
LINE
  5
AAA1
  8
YODOROGO
 10
28433.60434129191
 20
1707.749496429288
 30
0.0
 11
28433.60434129191
 21
1507.749496429288
 31
0.0
  0
LINE
  5
AAA2
  8
YODOROGO
 10
28497.60434129191
 20
1563.7494964292871
 30
0.0
 11
28497.60434129191
 21
1707.749496429288
 31
0.0
  0
LINE
  5
AAA3
  8
YODOROGO
 10
28585.604341291921
 20
1747.74949642929
 30
0.0
 11
28585.604341291921
 21
1547.749496429288
 31
0.0
  0
LINE
  5
AAA4
  8
YODOROGO
 10
27857.604341291921
 20
1683.749496429288
 30
0.0
 11
27777.604341291921
 21
1619.9724140445701
 31
0.0
  0
LINE
  5
AAA5
  8
YODOROGO
 10
27937.604341291921
 20
1619.9724140445701
 30
0.0
 11
27857.604341291921
 21
1683.749496429288
 31
0.0
  0
LINE
  5
AAA6
  8
YODOROGO
 10
27857.604341291921
 20
1707.749496429288
 30
0.0
 11
27937.604341291921
 21
1643.9724140445701
 31
0.0
  0
LINE
  5
AAA7
  8
YODOROGO
 10
27777.604341291921
 20
1643.9724140445701
 30
0.0
 11
27857.604341291921
 21
1707.749496429288
 31
0.0
  0
LINE
  5
AAA8
  8
YODOROGO
 10
28040.913204016892
 20
1659.749496429288
 30
0.0
 11
28040.913204016892
 21
1683.7494964292871
 31
0.0
  0
LINE
  5
AAA9
  8
YODOROGO
 10
27977.604341291921
 20
1683.7494964292871
 30
0.0
 11
27977.604341291921
 21
1667.749496429285
 31
0.0
  0
LINE
  5
AAAA
  8
YODOROGO
 10
28098.135520230931
 20
1707.749496429288
 30
0.0
 11
28098.135520230931
 21
1655.5036372746561
 31
0.0
1001
AUTOCAD_POSTSCRIPT_FIGURE
1002
{
1000
PSFILL
1000
Grayscale
1000
Grayscale
1070
   100
1002
}
  0
LINE
  5
AAAB
  8
YODOROGO
 10
28082.135520230921
 20
1655.5036372746561
 30
0.0
 11
28082.135520230921
 21
1707.749496429288
 31
0.0
1001
AUTOCAD_POSTSCRIPT_FIGURE
1002
{
1000
PSFILL
1000
Grayscale
1000
Grayscale
1070
   100
1002
}
  0
LINE
  5
AAAC
  8
YODOROGO
 10
27809.604341291921
 20
1608.771904043258
 30
0.0
 11
27809.604341291921
 21
1632.771904043258
 31
0.0
  0
LINE
  5
AAAD
  8
YODOROGO
 10
27905.604341291921
 20
1608.771904043258
 30
0.0
 11
27809.604341291921
 21
1608.771904043258
 31
0.0
  0
LINE
  5
AAAE
  8
YODOROGO
 10
27905.604341291921
 20
1632.771904043258
 30
0.0
 11
27905.604341291921
 21
1608.771904043258
 31
0.0
  0
LINE
  5
AAAF
  8
YODOROGO
 10
27809.604341291921
 20
1632.771904043258
 30
0.0
 11
27905.604341291921
 21
1632.771904043258
 31
0.0
  0
LINE
  5
AAB0
  8
YODOROGO
 10
27824.509588915738
 20
1568.5028573704751
 30
0.0
 11
27785.604341291921
 21
1475.7494964292871
 31
0.0
1001
AUTOCAD_POSTSCRIPT_FIGURE
1002
{
1000
PSFILL
1000
Grayscale
1000
Grayscale
1070
   100
1002
}
  0
LINE
  5
AAB1
  8
YODOROGO
 10
27777.604341291921
 20
1568.5028573704751
 30
0.0
 11
27824.509588915738
 21
1568.5028573704751
 31
0.0
1001
AUTOCAD_POSTSCRIPT_FIGURE
1002
{
1000
PSFILL
1000
Grayscale
1000
Grayscale
1070
   100
1002
}
  0
LINE
  5
AAB2
  8
YODOROGO
 10
27777.604341291921
 20
1588.5028573704751
 30
0.0
 11
27777.604341291921
 21
1568.5028573704751
 31
0.0
1001
AUTOCAD_POSTSCRIPT_FIGURE
1002
{
1000
PSFILL
1000
Grayscale
1000
Grayscale
1070
   100
1002
}
  0
LINE
  5
AAB3
  8
YODOROGO
 10
27937.604341291921
 20
1588.5028573704751
 30
0.0
 11
27777.604341291921
 21
1588.5028573704751
 31
0.0
1001
AUTOCAD_POSTSCRIPT_FIGURE
1002
{
1000
PSFILL
1000
Grayscale
1000
Grayscale
1070
   100
1002
}
  0
LINE
  5
AAB4
  8
YODOROGO
 10
27937.604341291921
 20
1568.5028573704751
 30
0.0
 11
27937.604341291921
 21
1588.5028573704751
 31
0.0
1001
AUTOCAD_POSTSCRIPT_FIGURE
1002
{
1000
PSFILL
1000
Grayscale
1000
Grayscale
1070
   100
1002
}
  0
LINE
  5
AAB5
  8
YODOROGO
 10
27844.509588915738
 20
1568.5028573704751
 30
0.0
 11
27937.604341291921
 21
1568.5028573704751
 31
0.0
1001
AUTOCAD_POSTSCRIPT_FIGURE
1002
{
1000
PSFILL
1000
Grayscale
1000
Grayscale
1070
   100
1002
}
  0
LINE
  5
AAB6
  8
YODOROGO
 10
27815.546718284771
 20
1495.7494964292871
 30
0.0
 11
27844.509588915738
 21
1568.5028573704751
 31
0.0
1001
AUTOCAD_POSTSCRIPT_FIGURE
1002
{
1000
PSFILL
1000
Grayscale
1000
Grayscale
1070
   100
1002
}
  0
LINE
  5
AAB7
  8
YODOROGO
 10
27902.054790808648
 20
1495.7494964292871
 30
0.0
 11
27815.546718284771
 21
1495.7494964292871
 31
0.0
1001
AUTOCAD_POSTSCRIPT_FIGURE
1002
{
1000
PSFILL
1000
Grayscale
1000
Grayscale
1070
   100
1002
}
  0
LINE
  5
AAB8
  8
YODOROGO
 10
27885.065004790951
 20
1536.2338106976929
 30
0.0
 11
27902.054790808648
 21
1495.7494964292871
 31
0.0
1001
AUTOCAD_POSTSCRIPT_FIGURE
1002
{
1000
PSFILL
1000
Grayscale
1000
Grayscale
1070
   100
1002
}
  0
LINE
  5
AAB9
  8
YODOROGO
 10
27901.065004790951
 20
1536.2338106976929
 30
0.0
 11
27885.065004790951
 21
1536.2338106976929
 31
0.0
1001
AUTOCAD_POSTSCRIPT_FIGURE
1002
{
1000
PSFILL
1000
Grayscale
1000
Grayscale
1070
   100
1002
}
  0
LINE
  5
AABA
  8
YODOROGO
 10
27929.604341291921
 20
1475.7494964292871
 30
0.0
 11
27901.065004790951
 21
1536.2338106976929
 31
0.0
1001
AUTOCAD_POSTSCRIPT_FIGURE
1002
{
1000
PSFILL
1000
Grayscale
1000
Grayscale
1070
   100
1002
}
  0
LINE
  5
AABB
  8
YODOROGO
 10
27785.604341291921
 20
1475.7494964292871
 30
0.0
 11
27929.604341291921
 21
1475.7494964292871
 31
0.0
1001
AUTOCAD_POSTSCRIPT_FIGURE
1002
{
1000
PSFILL
1000
Grayscale
1000
Grayscale
1070
   100
1002
}
  0
LINE
  5
AABC
  8
YODOROGO
 10
27777.604341291921
 20
1619.9724140445701
 30
0.0
 11
27777.604341291921
 21
1643.9724140445701
 31
0.0
  0
LINE
  5
AABD
  8
YODOROGO
 10
27937.604341291921
 20
1643.9724140445701
 30
0.0
 11
27937.604341291921
 21
1619.9724140445701
 31
0.0
  0
ARC
  5
AABE
  8
YODOROGO
 10
28225.940442146959
 20
1600.877765325326
 30
0.0
 40
175.9999999999998
 50
280.3644312771313
 51
3.5414836592180561
  0
ARC
  5
AABF
  8
YODOROGO
 10
28235.756030759301
 20
1633.5978069619041
 30
0.0
 40
111.9999999999982
 50
281.24905825041549
 51
348.75094174958321
  0
LINE
  5
AAC0
  8
YODOROGO
 10
28257.604341291921
 20
1523.7494964292871
 30
0.0
 11
28257.604341291921
 21
1427.749496429288
 31
0.0
  0
LINE
  5
AAC1
  8
YODOROGO
 10
28020.088903736909
 20
1610.650565061914
 30
0.0
 11
28040.913204016892
 21
1659.749496429288
 31
0.0
  0
LINE
  5
AAC2
  8
YODOROGO
 10
28041.604341291921
 20
1583.120489948401
 30
0.0
 11
28020.088903736909
 21
1610.650565061914
 31
0.0
  0
LINE
  5
AAC3
  8
YODOROGO
 10
28041.604341291921
 20
1563.120489948398
 30
0.0
 11
28041.604341291921
 21
1583.120489948401
 31
0.0
  0
LINE
  5
AAC4
  8
YODOROGO
 10
28017.604341291921
 20
1585.2370637495301
 30
0.0
 11
28041.604341291921
 21
1563.120489948398
 31
0.0
  0
LINE
  5
AAC5
  8
YODOROGO
 10
28017.604341291921
 20
1475.7494964292871
 30
0.0
 11
28017.604341291921
 21
1585.2370637495301
 31
0.0
  0
LINE
  5
AAC6
  8
YODOROGO
 10
28001.604341291921
 20
1475.7494964292871
 30
0.0
 11
28017.604341291921
 21
1475.7494964292871
 31
0.0
  0
LINE
  5
AAC7
  8
YODOROGO
 10
28001.604341291921
 20
1580.0053496897469
 30
0.0
 11
28001.604341291921
 21
1475.7494964292871
 31
0.0
  0
LINE
  5
AAC8
  8
YODOROGO
 10
27977.604341291921
 20
1532.7680790334291
 30
0.0
 11
28001.604341291921
 21
1580.0053496897469
 31
0.0
  0
LINE
  5
AAC9
  8
YODOROGO
 10
27977.604341291921
 20
1556.76807903343
 30
0.0
 11
27977.604341291921
 21
1532.7680790334291
 31
0.0
  0
LINE
  5
AACA
  8
YODOROGO
 10
28025.828774291349
 20
1667.749496429285
 30
0.0
 11
27977.604341291921
 21
1556.76807903343
 31
0.0
  0
LINE
  5
AACB
  8
YODOROGO
 10
27977.604341291921
 20
1667.749496429285
 30
0.0
 11
28025.828774291349
 21
1667.749496429285
 31
0.0
  0
LINE
  5
AACC
  8
YODOROGO
 10
28050.135520230899
 20
1655.5036372746561
 30
0.0
 11
28082.135520230921
 21
1655.5036372746561
 31
0.0
1001
AUTOCAD_POSTSCRIPT_FIGURE
1002
{
1000
PSFILL
1000
Grayscale
1000
Grayscale
1070
   100
1002
}
  0
LINE
  5
AACD
  8
YODOROGO
 10
28050.135520230899
 20
1631.5036372746561
 30
0.0
 11
28050.135520230899
 21
1655.5036372746561
 31
0.0
1001
AUTOCAD_POSTSCRIPT_FIGURE
1002
{
1000
PSFILL
1000
Grayscale
1000
Grayscale
1070
   100
1002
}
  0
LINE
  5
AACE
  8
YODOROGO
 10
28082.135520230921
 20
1631.5036372746561
 30
0.0
 11
28050.135520230899
 21
1631.5036372746561
 31
0.0
1001
AUTOCAD_POSTSCRIPT_FIGURE
1002
{
1000
PSFILL
1000
Grayscale
1000
Grayscale
1070
   100
1002
}
  0
LINE
  5
AACF
  8
YODOROGO
 10
28082.135520230921
 20
1499.749496429288
 30
0.0
 11
28082.135520230921
 21
1631.5036372746561
 31
0.0
1001
AUTOCAD_POSTSCRIPT_FIGURE
1002
{
1000
PSFILL
1000
Grayscale
1000
Grayscale
1070
   100
1002
}
  0
LINE
  5
AAD0
  8
YODOROGO
 10
28050.135520230921
 20
1499.749496429288
 30
0.0
 11
28082.135520230921
 21
1499.749496429288
 31
0.0
1001
AUTOCAD_POSTSCRIPT_FIGURE
1002
{
1000
PSFILL
1000
Grayscale
1000
Grayscale
1070
   100
1002
}
  0
LINE
  5
AAD1
  8
YODOROGO
 10
28050.135520230921
 20
1475.7494964292871
 30
0.0
 11
28050.135520230921
 21
1499.749496429288
 31
0.0
1001
AUTOCAD_POSTSCRIPT_FIGURE
1002
{
1000
PSFILL
1000
Grayscale
1000
Grayscale
1070
   100
1002
}
  0
LINE
  5
AAD2
  8
YODOROGO
 10
28137.604341291921
 20
1475.7494964292871
 30
0.0
 11
28050.135520230921
 21
1475.7494964292871
 31
0.0
1001
AUTOCAD_POSTSCRIPT_FIGURE
1002
{
1000
PSFILL
1000
Grayscale
1000
Grayscale
1070
   100
1002
}
  0
LINE
  5
AAD3
  8
YODOROGO
 10
28137.604341291921
 20
1499.749496429288
 30
0.0
 11
28137.604341291921
 21
1475.7494964292871
 31
0.0
1001
AUTOCAD_POSTSCRIPT_FIGURE
1002
{
1000
PSFILL
1000
Grayscale
1000
Grayscale
1070
   100
1002
}
  0
LINE
  5
AAD4
  8
YODOROGO
 10
28098.135520230931
 20
1499.749496429288
 30
0.0
 11
28137.604341291921
 21
1499.749496429288
 31
0.0
1001
AUTOCAD_POSTSCRIPT_FIGURE
1002
{
1000
PSFILL
1000
Grayscale
1000
Grayscale
1070
   100
1002
}
  0
LINE
  5
AAD5
  8
YODOROGO
 10
28098.135520230931
 20
1631.5036372746561
 30
0.0
 11
28098.135520230931
 21
1499.749496429288
 31
0.0
1001
AUTOCAD_POSTSCRIPT_FIGURE
1002
{
1000
PSFILL
1000
Grayscale
1000
Grayscale
1070
   100
1002
}
  0
LINE
  5
AAD6
  8
YODOROGO
 10
28137.604341291921
 20
1631.5036372746561
 30
0.0
 11
28098.135520230931
 21
1631.5036372746561
 31
0.0
1001
AUTOCAD_POSTSCRIPT_FIGURE
1002
{
1000
PSFILL
1000
Grayscale
1000
Grayscale
1070
   100
1002
}
  0
LINE
  5
AAD7
  8
YODOROGO
 10
28137.604341291921
 20
1655.5036372746561
 30
0.0
 11
28137.604341291921
 21
1631.5036372746561
 31
0.0
1001
AUTOCAD_POSTSCRIPT_FIGURE
1002
{
1000
PSFILL
1000
Grayscale
1000
Grayscale
1070
   100
1002
}
  0
LINE
  5
AAD8
  8
YODOROGO
 10
28098.135520230931
 20
1655.5036372746561
 30
0.0
 11
28137.604341291921
 21
1655.5036372746561
 31
0.0
1001
AUTOCAD_POSTSCRIPT_FIGURE
1002
{
1000
PSFILL
1000
Grayscale
1000
Grayscale
1070
   100
1002
}
  0
LINE
  5
AAD9
  8
YODOROGO
 10
28401.60434129191
 20
1667.749496429288
 30
0.0
 11
28345.604341291921
 21
1667.749496429288
 31
0.0
  0
LINE
  5
AADA
  8
YODOROGO
 10
28401.60434129191
 20
1611.749496429288
 30
0.0
 11
28401.60434129191
 21
1667.749496429288
 31
0.0
  0
LINE
  5
AADB
  8
YODOROGO
 10
28345.604341291921
 20
1667.749496429288
 30
0.0
 11
28345.604341291921
 21
1611.749496429288
 31
0.0
  0
ARC
  5
AADC
  8
YODOROGO
 10
28513.60434129191
 20
1507.749496429288
 30
0.0
 40
80.0
 50
180.0
 51
270.0
  0
ARC
  5
AADD
  8
YODOROGO
 10
28537.604341291921
 20
1563.7494964292871
 30
0.0
 40
40.0
 50
180.0
 51
270.0
  0
LINE
  5
AADE
  8
YODOROGO
 10
28561.604341291932
 20
1523.7494964292871
 30
0.0
 11
28537.604341291921
 21
1523.7494964292871
 31
0.0
  0
ARC
  5
AADF
  8
YODOROGO
 10
28561.604341291932
 20
1547.749496429285
 30
0.0
 40
23.999999999996358
 50
270.0
 51
0.0000000000054281
  0
LINE
  5
AAE0
  8
YODOROGO
 10
27801.604341291921
 20
1890.786580793706
 30
0.0
 11
27777.604341291921
 21
1843.776747951672
 31
0.0
1001
AUTOCAD_POSTSCRIPT_FIGURE
1002
{
1000
PSFILL
1000
Grayscale
1000
Grayscale
1070
   100
1002
}
  0
LINE
  5
AAE1
  8
YODOROGO
 10
27801.604341291921
 20
1747.749496429286
 30
0.0
 11
27801.604341291921
 21
1890.786580793706
 31
0.0
1001
AUTOCAD_POSTSCRIPT_FIGURE
1002
{
1000
PSFILL
1000
Grayscale
1000
Grayscale
1070
   100
1002
}
  0
LINE
  5
AAE2
  8
YODOROGO
 10
27817.604341291921
 20
1747.749496429286
 30
0.0
 11
27801.604341291921
 21
1747.749496429286
 31
0.0
1001
AUTOCAD_POSTSCRIPT_FIGURE
1002
{
1000
PSFILL
1000
Grayscale
1000
Grayscale
1070
   100
1002
}
  0
LINE
  5
AAE3
  8
YODOROGO
 10
27817.604341291921
 20
1893.7713320852661
 30
0.0
 11
27817.604341291921
 21
1747.749496429286
 31
0.0
1001
AUTOCAD_POSTSCRIPT_FIGURE
1002
{
1000
PSFILL
1000
Grayscale
1000
Grayscale
1070
   100
1002
}
  0
LINE
  5
AAE4
  8
YODOROGO
 10
27841.604341291921
 20
1867.6547582841361
 30
0.0
 11
27817.604341291921
 21
1893.7713320852661
 31
0.0
1001
AUTOCAD_POSTSCRIPT_FIGURE
1002
{
1000
PSFILL
1000
Grayscale
1000
Grayscale
1070
   100
1002
}
  0
LINE
  5
AAE5
  8
YODOROGO
 10
27841.604341291921
 20
1883.6547582841361
 30
0.0
 11
27841.604341291921
 21
1867.6547582841361
 31
0.0
1001
AUTOCAD_POSTSCRIPT_FIGURE
1002
{
1000
PSFILL
1000
Grayscale
1000
Grayscale
1070
   100
1002
}
  0
LINE
  5
AAE6
  8
YODOROGO
 10
27817.604341291921
 20
1917.7713320852649
 30
0.0
 11
27841.604341291921
 21
1883.6547582841361
 31
0.0
1001
AUTOCAD_POSTSCRIPT_FIGURE
1002
{
1000
PSFILL
1000
Grayscale
1000
Grayscale
1070
   100
1002
}
  0
LINE
  5
AAE7
  8
YODOROGO
 10
27817.604341291921
 20
1939.749496429288
 30
0.0
 11
27817.604341291921
 21
1917.7713320852649
 31
0.0
1001
AUTOCAD_POSTSCRIPT_FIGURE
1002
{
1000
PSFILL
1000
Grayscale
1000
Grayscale
1070
   100
1002
}
  0
LINE
  5
AAE8
  8
YODOROGO
 10
27889.604341291921
 20
1939.749496429288
 30
0.0
 11
27817.604341291921
 21
1939.749496429288
 31
0.0
1001
AUTOCAD_POSTSCRIPT_FIGURE
1002
{
1000
PSFILL
1000
Grayscale
1000
Grayscale
1070
   100
1002
}
  0
LINE
  5
AAE9
  8
YODOROGO
 10
27889.604341291921
 20
1900.5683489363
 30
0.0
 11
27889.604341291921
 21
1939.749496429288
 31
0.0
1001
AUTOCAD_POSTSCRIPT_FIGURE
1002
{
1000
PSFILL
1000
Grayscale
1000
Grayscale
1070
   100
1002
}
  0
LINE
  5
AAEA
  8
YODOROGO
 10
27857.604341291921
 20
1900.5683489363
 30
0.0
 11
27889.604341291921
 21
1900.5683489363
 31
0.0
1001
AUTOCAD_POSTSCRIPT_FIGURE
1002
{
1000
PSFILL
1000
Grayscale
1000
Grayscale
1070
   100
1002
}
  0
LINE
  5
AAEB
  8
YODOROGO
 10
27857.604341291921
 20
1884.568348936298
 30
0.0
 11
27857.604341291921
 21
1900.5683489363
 31
0.0
1001
AUTOCAD_POSTSCRIPT_FIGURE
1002
{
1000
PSFILL
1000
Grayscale
1000
Grayscale
1070
   100
1002
}
  0
LINE
  5
AAEC
  8
YODOROGO
 10
27889.604341291921
 20
1884.568348936298
 30
0.0
 11
27857.604341291921
 21
1884.568348936298
 31
0.0
1001
AUTOCAD_POSTSCRIPT_FIGURE
1002
{
1000
PSFILL
1000
Grayscale
1000
Grayscale
1070
   100
1002
}
  0
LINE
  5
AAED
  8
YODOROGO
 10
27889.604341291921
 20
1879.6191779644371
 30
0.0
 11
27889.604341291921
 21
1884.568348936298
 31
0.0
1001
AUTOCAD_POSTSCRIPT_FIGURE
1002
{
1000
PSFILL
1000
Grayscale
1000
Grayscale
1070
   100
1002
}
  0
LINE
  5
AAEE
  8
YODOROGO
 10
27849.604341291921
 20
1812.974981161417
 30
0.0
 11
27889.604341291921
 21
1879.6191779644371
 31
0.0
1001
AUTOCAD_POSTSCRIPT_FIGURE
1002
{
1000
PSFILL
1000
Grayscale
1000
Grayscale
1070
   100
1002
}
  0
LINE
  5
AAEF
  8
YODOROGO
 10
27849.604341291921
 20
1796.9749811614161
 30
0.0
 11
27849.604341291921
 21
1812.974981161417
 31
0.0
1001
AUTOCAD_POSTSCRIPT_FIGURE
1002
{
1000
PSFILL
1000
Grayscale
1000
Grayscale
1070
   100
1002
}
  0
LINE
  5
AAF0
  8
YODOROGO
 10
27889.604341291921
 20
1847.6191779644359
 30
0.0
 11
27849.604341291921
 21
1796.9749811614161
 31
0.0
1001
AUTOCAD_POSTSCRIPT_FIGURE
1002
{
1000
PSFILL
1000
Grayscale
1000
Grayscale
1070
   100
1002
}
  0
LINE
  5
AAF1
  8
YODOROGO
 10
27889.604341291921
 20
1747.749496429286
 30
0.0
 11
27889.604341291921
 21
1847.6191779644359
 31
0.0
1001
AUTOCAD_POSTSCRIPT_FIGURE
1002
{
1000
PSFILL
1000
Grayscale
1000
Grayscale
1070
   100
1002
}
  0
LINE
  5
AAF2
  8
YODOROGO
 10
27905.604341291921
 20
1747.749496429286
 30
0.0
 11
27889.604341291921
 21
1747.749496429286
 31
0.0
1001
AUTOCAD_POSTSCRIPT_FIGURE
1002
{
1000
PSFILL
1000
Grayscale
1000
Grayscale
1070
   100
1002
}
  0
LINE
  5
AAF3
  8
YODOROGO
 10
27905.604341291921
 20
1849.409012158806
 30
0.0
 11
27905.604341291921
 21
1747.749496429286
 31
0.0
1001
AUTOCAD_POSTSCRIPT_FIGURE
1002
{
1000
PSFILL
1000
Grayscale
1000
Grayscale
1070
   100
1002
}
  0
LINE
  5
AAF4
  8
YODOROGO
 10
27937.604341291921
 20
1796.9749811614161
 30
0.0
 11
27905.604341291921
 21
1849.409012158806
 31
0.0
1001
AUTOCAD_POSTSCRIPT_FIGURE
1002
{
1000
PSFILL
1000
Grayscale
1000
Grayscale
1070
   100
1002
}
  0
LINE
  5
AAF5
  8
YODOROGO
 10
27937.604341291921
 20
1812.974981161417
 30
0.0
 11
27937.604341291921
 21
1796.9749811614161
 31
0.0
1001
AUTOCAD_POSTSCRIPT_FIGURE
1002
{
1000
PSFILL
1000
Grayscale
1000
Grayscale
1070
   100
1002
}
  0
LINE
  5
AAF6
  8
YODOROGO
 10
27905.604341291921
 20
1881.4090121588081
 30
0.0
 11
27937.604341291921
 21
1812.974981161417
 31
0.0
1001
AUTOCAD_POSTSCRIPT_FIGURE
1002
{
1000
PSFILL
1000
Grayscale
1000
Grayscale
1070
   100
1002
}
  0
LINE
  5
AAF7
  8
YODOROGO
 10
27905.604341291921
 20
1884.5683489363
 30
0.0
 11
27905.604341291921
 21
1881.4090121588081
 31
0.0
1001
AUTOCAD_POSTSCRIPT_FIGURE
1002
{
1000
PSFILL
1000
Grayscale
1000
Grayscale
1070
   100
1002
}
  0
LINE
  5
AAF8
  8
YODOROGO
 10
27937.604341291921
 20
1884.568348936298
 30
0.0
 11
27905.604341291921
 21
1884.5683489363
 31
0.0
1001
AUTOCAD_POSTSCRIPT_FIGURE
1002
{
1000
PSFILL
1000
Grayscale
1000
Grayscale
1070
   100
1002
}
  0
LINE
  5
AAF9
  8
YODOROGO
 10
27937.604341291921
 20
1900.5683489363
 30
0.0
 11
27937.604341291921
 21
1884.568348936298
 31
0.0
1001
AUTOCAD_POSTSCRIPT_FIGURE
1002
{
1000
PSFILL
1000
Grayscale
1000
Grayscale
1070
   100
1002
}
  0
LINE
  5
AAFA
  8
YODOROGO
 10
27905.604341291921
 20
1900.5683489363
 30
0.0
 11
27937.604341291921
 21
1900.5683489363
 31
0.0
1001
AUTOCAD_POSTSCRIPT_FIGURE
1002
{
1000
PSFILL
1000
Grayscale
1000
Grayscale
1070
   100
1002
}
  0
LINE
  5
AAFB
  8
YODOROGO
 10
27905.604341291921
 20
1939.749496429288
 30
0.0
 11
27905.604341291921
 21
1900.5683489363
 31
0.0
1001
AUTOCAD_POSTSCRIPT_FIGURE
1002
{
1000
PSFILL
1000
Grayscale
1000
Grayscale
1070
   100
1002
}
  0
LINE
  5
AAFC
  8
YODOROGO
 10
27937.604341291921
 20
1939.749496429288
 30
0.0
 11
27905.604341291921
 21
1939.749496429288
 31
0.0
1001
AUTOCAD_POSTSCRIPT_FIGURE
1002
{
1000
PSFILL
1000
Grayscale
1000
Grayscale
1070
   100
1002
}
  0
LINE
  5
AAFD
  8
YODOROGO
 10
27937.604341291921
 20
1955.7494964292871
 30
0.0
 11
27937.604341291921
 21
1939.749496429288
 31
0.0
1001
AUTOCAD_POSTSCRIPT_FIGURE
1002
{
1000
PSFILL
1000
Grayscale
1000
Grayscale
1070
   100
1002
}
  0
LINE
  5
AAFE
  8
YODOROGO
 10
27905.604341291921
 20
1955.7494964292871
 30
0.0
 11
27937.604341291921
 21
1955.7494964292871
 31
0.0
1001
AUTOCAD_POSTSCRIPT_FIGURE
1002
{
1000
PSFILL
1000
Grayscale
1000
Grayscale
1070
   100
1002
}
  0
LINE
  5
AAFF
  8
YODOROGO
 10
27905.604341291921
 20
1979.749496429288
 30
0.0
 11
27905.604341291921
 21
1955.7494964292871
 31
0.0
1001
AUTOCAD_POSTSCRIPT_FIGURE
1002
{
1000
PSFILL
1000
Grayscale
1000
Grayscale
1070
   100
1002
}
  0
LINE
  5
AB00
  8
YODOROGO
 10
27889.604341291921
 20
1979.749496429288
 30
0.0
 11
27905.604341291921
 21
1979.749496429288
 31
0.0
1001
AUTOCAD_POSTSCRIPT_FIGURE
1002
{
1000
PSFILL
1000
Grayscale
1000
Grayscale
1070
   100
1002
}
  0
LINE
  5
AB01
  8
YODOROGO
 10
27889.604341291921
 20
1955.7494964292871
 30
0.0
 11
27889.604341291921
 21
1979.749496429288
 31
0.0
1001
AUTOCAD_POSTSCRIPT_FIGURE
1002
{
1000
PSFILL
1000
Grayscale
1000
Grayscale
1070
   100
1002
}
  0
LINE
  5
AB02
  8
YODOROGO
 10
27865.604341291921
 20
1955.7494964292871
 30
0.0
 11
27889.604341291921
 21
1955.7494964292871
 31
0.0
1001
AUTOCAD_POSTSCRIPT_FIGURE
1002
{
1000
PSFILL
1000
Grayscale
1000
Grayscale
1070
   100
1002
}
  0
LINE
  5
AB03
  8
YODOROGO
 10
27865.604341291921
 20
1979.749496429288
 30
0.0
 11
27865.604341291921
 21
1955.7494964292871
 31
0.0
1001
AUTOCAD_POSTSCRIPT_FIGURE
1002
{
1000
PSFILL
1000
Grayscale
1000
Grayscale
1070
   100
1002
}
  0
LINE
  5
AB04
  8
YODOROGO
 10
27849.604341291921
 20
1979.749496429288
 30
0.0
 11
27865.604341291921
 21
1979.749496429288
 31
0.0
1001
AUTOCAD_POSTSCRIPT_FIGURE
1002
{
1000
PSFILL
1000
Grayscale
1000
Grayscale
1070
   100
1002
}
  0
LINE
  5
AB05
  8
YODOROGO
 10
27849.604341291921
 20
1955.7494964292871
 30
0.0
 11
27849.604341291921
 21
1979.749496429288
 31
0.0
1001
AUTOCAD_POSTSCRIPT_FIGURE
1002
{
1000
PSFILL
1000
Grayscale
1000
Grayscale
1070
   100
1002
}
  0
LINE
  5
AB06
  8
YODOROGO
 10
27817.604341291921
 20
1955.7494964292871
 30
0.0
 11
27849.604341291921
 21
1955.7494964292871
 31
0.0
1001
AUTOCAD_POSTSCRIPT_FIGURE
1002
{
1000
PSFILL
1000
Grayscale
1000
Grayscale
1070
   100
1002
}
  0
LINE
  5
AB07
  8
YODOROGO
 10
27817.604341291921
 20
1979.749496429288
 30
0.0
 11
27817.604341291921
 21
1955.7494964292871
 31
0.0
1001
AUTOCAD_POSTSCRIPT_FIGURE
1002
{
1000
PSFILL
1000
Grayscale
1000
Grayscale
1070
   100
1002
}
  0
LINE
  5
AB08
  8
YODOROGO
 10
27801.604341291921
 20
1979.749496429288
 30
0.0
 11
27817.604341291921
 21
1979.749496429288
 31
0.0
1001
AUTOCAD_POSTSCRIPT_FIGURE
1002
{
1000
PSFILL
1000
Grayscale
1000
Grayscale
1070
   100
1002
}
  0
LINE
  5
AB09
  8
YODOROGO
 10
27801.604341291921
 20
1955.7494964292871
 30
0.0
 11
27801.604341291921
 21
1979.749496429288
 31
0.0
1001
AUTOCAD_POSTSCRIPT_FIGURE
1002
{
1000
PSFILL
1000
Grayscale
1000
Grayscale
1070
   100
1002
}
  0
LINE
  5
AB0A
  8
YODOROGO
 10
27777.604341291921
 20
1955.7494964292871
 30
0.0
 11
27801.604341291921
 21
1955.7494964292871
 31
0.0
1001
AUTOCAD_POSTSCRIPT_FIGURE
1002
{
1000
PSFILL
1000
Grayscale
1000
Grayscale
1070
   100
1002
}
  0
LINE
  5
AB0B
  8
YODOROGO
 10
27777.604341291921
 20
1939.749496429288
 30
0.0
 11
27777.604341291921
 21
1955.7494964292871
 31
0.0
1001
AUTOCAD_POSTSCRIPT_FIGURE
1002
{
1000
PSFILL
1000
Grayscale
1000
Grayscale
1070
   100
1002
}
  0
LINE
  5
AB0C
  8
YODOROGO
 10
27801.604341291921
 20
1939.749496429288
 30
0.0
 11
27777.604341291921
 21
1939.749496429288
 31
0.0
1001
AUTOCAD_POSTSCRIPT_FIGURE
1002
{
1000
PSFILL
1000
Grayscale
1000
Grayscale
1070
   100
1002
}
  0
LINE
  5
AB0D
  8
YODOROGO
 10
27801.604341291921
 20
1914.7865807937051
 30
0.0
 11
27801.604341291921
 21
1939.749496429288
 31
0.0
1001
AUTOCAD_POSTSCRIPT_FIGURE
1002
{
1000
PSFILL
1000
Grayscale
1000
Grayscale
1070
   100
1002
}
  0
LINE
  5
AB0E
  8
YODOROGO
 10
27777.604341291921
 20
1859.776747951671
 30
0.0
 11
27801.604341291921
 21
1914.7865807937051
 31
0.0
1001
AUTOCAD_POSTSCRIPT_FIGURE
1002
{
1000
PSFILL
1000
Grayscale
1000
Grayscale
1070
   100
1002
}
  0
LINE
  5
AB0F
  8
YODOROGO
 10
27777.604341291921
 20
1843.776747951672
 30
0.0
 11
27777.604341291921
 21
1859.776747951671
 31
0.0
1001
AUTOCAD_POSTSCRIPT_FIGURE
1002
{
1000
PSFILL
1000
Grayscale
1000
Grayscale
1070
   100
1002
}
  0
LINE
  5
AB10
  8
YODOROGO
 10
28257.604341291921
 20
1867.7494964292871
 30
0.0
 11
28401.60434129191
 21
1824.877625640306
 31
0.0
1001
AUTOCAD_POSTSCRIPT_FIGURE
1002
{
1000
PSFILL
1000
Grayscale
1000
Grayscale
1070
   100
1002
}
  0
LINE
  5
AB11
  8
YODOROGO
 10
28401.60434129191
 20
1752.877625640306
 30
0.0
 11
28257.604341291921
 21
1795.7494964292871
 31
0.0
1001
AUTOCAD_POSTSCRIPT_FIGURE
1002
{
1000
PSFILL
1000
Grayscale
1000
Grayscale
1070
   100
1002
}
  0
LINE
  5
AB12
  8
YODOROGO
 10
28401.60434129191
 20
1984.877625640306
 30
0.0
 11
28257.604341291921
 21
2027.749496429288
 31
0.0
1001
AUTOCAD_POSTSCRIPT_FIGURE
1002
{
1000
PSFILL
1000
Grayscale
1000
Grayscale
1070
   100
1002
}
  0
LINE
  5
AB13
  8
YODOROGO
 10
28257.604341291921
 20
1959.749496429288
 30
0.0
 11
28401.60434129191
 21
1916.8776256403071
 31
0.0
1001
AUTOCAD_POSTSCRIPT_FIGURE
1002
{
1000
PSFILL
1000
Grayscale
1000
Grayscale
1070
   100
1002
}
  0
LINE
  5
AB14
  8
YODOROGO
 10
28257.604341291921
 20
1795.7494964292871
 30
0.0
 11
28257.604341291921
 21
1867.7494964292871
 31
0.0
1001
AUTOCAD_POSTSCRIPT_FIGURE
1002
{
1000
PSFILL
1000
Grayscale
1000
Grayscale
1070
   100
1002
}
  0
LINE
  5
AB15
  8
YODOROGO
 10
28257.604341291921
 20
2027.749496429288
 30
0.0
 11
28257.604341291921
 21
1959.749496429288
 31
0.0
1001
AUTOCAD_POSTSCRIPT_FIGURE
1002
{
1000
PSFILL
1000
Grayscale
1000
Grayscale
1070
   100
1002
}
  0
LINE
  5
AB16
  8
YODOROGO
 10
28080.236320206739
 20
1939.749496429288
 30
0.0
 11
28129.60434129191
 21
1747.749496429286
 31
0.0
1001
AUTOCAD_POSTSCRIPT_FIGURE
1002
{
1000
PSFILL
1000
Grayscale
1000
Grayscale
1070
   100
1002
}
  0
LINE
  5
AB17
  8
YODOROGO
 10
27977.604341291921
 20
1939.749496429288
 30
0.0
 11
28080.236320206739
 21
1939.749496429288
 31
0.0
1001
AUTOCAD_POSTSCRIPT_FIGURE
1002
{
1000
PSFILL
1000
Grayscale
1000
Grayscale
1070
   100
1002
}
  0
LINE
  5
AB18
  8
YODOROGO
 10
27977.604341291921
 20
1955.7494964292871
 30
0.0
 11
27977.604341291921
 21
1939.749496429288
 31
0.0
1001
AUTOCAD_POSTSCRIPT_FIGURE
1002
{
1000
PSFILL
1000
Grayscale
1000
Grayscale
1070
   100
1002
}
  0
LINE
  5
AB19
  8
YODOROGO
 10
28076.60687851991
 20
1955.7494964292871
 30
0.0
 11
27977.604341291921
 21
1955.7494964292871
 31
0.0
1001
AUTOCAD_POSTSCRIPT_FIGURE
1002
{
1000
PSFILL
1000
Grayscale
1000
Grayscale
1070
   100
1002
}
  0
LINE
  5
AB1A
  8
YODOROGO
 10
28071.162715989711
 20
1979.749496429288
 30
0.0
 11
28076.60687851991
 21
1955.7494964292871
 31
0.0
1001
AUTOCAD_POSTSCRIPT_FIGURE
1002
{
1000
PSFILL
1000
Grayscale
1000
Grayscale
1070
   100
1002
}
  0
LINE
  5
AB1B
  8
YODOROGO
 10
28091.162715989711
 20
1979.749496429288
 30
0.0
 11
28071.162715989711
 21
1979.749496429288
 31
0.0
1001
AUTOCAD_POSTSCRIPT_FIGURE
1002
{
1000
PSFILL
1000
Grayscale
1000
Grayscale
1070
   100
1002
}
  0
LINE
  5
AB1C
  8
YODOROGO
 10
28095.806878519939
 20
1955.7494964292871
 30
0.0
 11
28091.162715989711
 21
1979.749496429288
 31
0.0
1001
AUTOCAD_POSTSCRIPT_FIGURE
1002
{
1000
PSFILL
1000
Grayscale
1000
Grayscale
1070
   100
1002
}
  0
LINE
  5
AB1D
  8
YODOROGO
 10
28121.604341291921
 20
1955.7494964292871
 30
0.0
 11
28095.806878519939
 21
1955.7494964292871
 31
0.0
1001
AUTOCAD_POSTSCRIPT_FIGURE
1002
{
1000
PSFILL
1000
Grayscale
1000
Grayscale
1070
   100
1002
}
  0
LINE
  5
AB1E
  8
YODOROGO
 10
28121.604341291921
 20
1979.749496429288
 30
0.0
 11
28121.604341291921
 21
1955.7494964292871
 31
0.0
1001
AUTOCAD_POSTSCRIPT_FIGURE
1002
{
1000
PSFILL
1000
Grayscale
1000
Grayscale
1070
   100
1002
}
  0
LINE
  5
AB1F
  8
YODOROGO
 10
28137.604341291921
 20
1979.749496429288
 30
0.0
 11
28121.604341291921
 21
1979.749496429288
 31
0.0
1001
AUTOCAD_POSTSCRIPT_FIGURE
1002
{
1000
PSFILL
1000
Grayscale
1000
Grayscale
1070
   100
1002
}
  0
LINE
  5
AB20
  8
YODOROGO
 10
28137.604341291921
 20
1955.7494964292871
 30
0.0
 11
28137.604341291921
 21
1979.749496429288
 31
0.0
1001
AUTOCAD_POSTSCRIPT_FIGURE
1002
{
1000
PSFILL
1000
Grayscale
1000
Grayscale
1070
   100
1002
}
  0
LINE
  5
AB21
  8
YODOROGO
 10
28137.604341291921
 20
1939.749496429288
 30
0.0
 11
28137.604341291921
 21
1955.7494964292871
 31
0.0
1001
AUTOCAD_POSTSCRIPT_FIGURE
1002
{
1000
PSFILL
1000
Grayscale
1000
Grayscale
1070
   100
1002
}
  0
LINE
  5
AB22
  8
YODOROGO
 10
28098.902986873411
 20
1939.749496429288
 30
0.0
 11
28137.604341291921
 21
1939.749496429288
 31
0.0
1001
AUTOCAD_POSTSCRIPT_FIGURE
1002
{
1000
PSFILL
1000
Grayscale
1000
Grayscale
1070
   100
1002
}
  0
LINE
  5
AB23
  8
YODOROGO
 10
28137.604341291921
 20
1747.749496429286
 30
0.0
 11
28098.902986873411
 21
1939.749496429288
 31
0.0
1001
AUTOCAD_POSTSCRIPT_FIGURE
1002
{
1000
PSFILL
1000
Grayscale
1000
Grayscale
1070
   100
1002
}
  0
LINE
  5
AB24
  8
YODOROGO
 10
28129.60434129191
 20
1747.749496429286
 30
0.0
 11
28137.604341291921
 21
1747.749496429286
 31
0.0
1001
AUTOCAD_POSTSCRIPT_FIGURE
1002
{
1000
PSFILL
1000
Grayscale
1000
Grayscale
1070
   100
1002
}
  0
LINE
  5
AB25
  8
YODOROGO
 10
28078.06921993379
 20
1775.7407762987939
 30
0.0
 11
27977.604341291921
 21
1747.749496429286
 31
0.0
  0
LINE
  5
AB26
  8
YODOROGO
 10
28078.06921993379
 20
1798.6689795290731
 30
0.0
 11
28078.06921993379
 21
1775.7407762987939
 31
0.0
  0
LINE
  5
AB27
  8
YODOROGO
 10
28033.83678061287
 20
1786.816933133767
 30
0.0
 11
28078.06921993379
 21
1798.6689795290731
 31
0.0
  0
LINE
  5
AB28
  8
YODOROGO
 10
28033.83678061287
 20
1872.5683489362989
 30
0.0
 11
28033.83678061287
 21
1786.816933133767
 31
0.0
  0
LINE
  5
AB29
  8
YODOROGO
 10
28078.06921993379
 20
1872.5683489362989
 30
0.0
 11
28033.83678061287
 21
1872.5683489362989
 31
0.0
  0
LINE
  5
AB2A
  8
YODOROGO
 10
28078.06921993379
 20
1892.568348936298
 30
0.0
 11
28078.06921993379
 21
1872.5683489362989
 31
0.0
  0
LINE
  5
AB2B
  8
YODOROGO
 10
27977.604341291921
 20
1892.568348936298
 30
0.0
 11
28078.06921993379
 21
1892.568348936298
 31
0.0
  0
LINE
  5
AB2C
  8
YODOROGO
 10
27977.604341291921
 20
1872.5683489362989
 30
0.0
 11
27977.604341291921
 21
1892.568348936298
 31
0.0
  0
LINE
  5
AB2D
  8
YODOROGO
 10
28021.836780612852
 20
1872.5683489362989
 30
0.0
 11
27977.604341291921
 21
1872.5683489362989
 31
0.0
  0
LINE
  5
AB2E
  8
YODOROGO
 10
28021.836780612852
 20
1784.673339594317
 30
0.0
 11
28021.836780612852
 21
1872.5683489362989
 31
0.0
  0
LINE
  5
AB2F
  8
YODOROGO
 10
27977.604341291921
 20
1771.749496429286
 30
0.0
 11
28021.836780612852
 21
1784.673339594317
 31
0.0
  0
LINE
  5
AB30
  8
YODOROGO
 10
27977.604341291921
 20
1747.749496429286
 30
0.0
 11
27977.604341291921
 21
1771.749496429286
 31
0.0
  0
LINE
  5
AB31
  8
YODOROGO
 10
28001.604341291921
 20
1707.749496429288
 30
0.0
 11
28001.604341291921
 21
1683.7494964292871
 31
0.0
  0
LINE
  5
AB32
  8
YODOROGO
 10
28017.604341291921
 20
1707.749496429288
 30
0.0
 11
28001.604341291921
 21
1707.749496429288
 31
0.0
  0
LINE
  5
AB33
  8
YODOROGO
 10
28017.604341291921
 20
1683.7494964292871
 30
0.0
 11
28017.604341291921
 21
1707.749496429288
 31
0.0
  0
LINE
  5
AB34
  8
YODOROGO
 10
28040.913204016892
 20
1683.7494964292871
 30
0.0
 11
28017.604341291921
 21
1683.7494964292871
 31
0.0
  0
LINE
  5
AB35
  8
YODOROGO
 10
28001.604341291921
 20
1683.7494964292871
 30
0.0
 11
27977.604341291921
 21
1683.7494964292871
 31
0.0
  0
LINE
  5
AB36
  8
YODOROGO
 10
28082.135520230921
 20
1707.749496429288
 30
0.0
 11
28098.135520230931
 21
1707.749496429288
 31
0.0
1001
AUTOCAD_POSTSCRIPT_FIGURE
1002
{
1000
PSFILL
1000
Grayscale
1000
Grayscale
1070
   100
1002
}
  0
LINE
  5
AB37
  8
YODOROGO
 10
28401.60434129191
 20
1824.877625640306
 30
0.0
 11
28401.60434129191
 21
1752.877625640306
 31
0.0
1001
AUTOCAD_POSTSCRIPT_FIGURE
1002
{
1000
PSFILL
1000
Grayscale
1000
Grayscale
1070
   100
1002
}
  0
LINE
  5
AB38
  8
YODOROGO
 10
28401.60434129191
 20
1916.8776256403071
 30
0.0
 11
28401.60434129191
 21
1984.877625640306
 31
0.0
1001
AUTOCAD_POSTSCRIPT_FIGURE
1002
{
1000
PSFILL
1000
Grayscale
1000
Grayscale
1070
   100
1002
}
  0
LINE
  5
AB39
  8
YODOROGO
 10
28433.60434129191
 20
1819.7494964292871
 30
0.0
 11
28433.60434129191
 21
1747.74949642929
 31
0.0
  0
LINE
  5
AB3A
  8
YODOROGO
 10
28497.60434129191
 20
1707.749496429288
 30
0.0
 11
28433.60434129191
 21
1707.749496429288
 31
0.0
  0
LINE
  5
AB3B
  8
YODOROGO
 10
28433.60434129191
 20
1747.74949642929
 30
0.0
 11
28585.604341291921
 21
1747.74949642929
 31
0.0
  0
LINE
  5
AB3C
  8
YODOROGO
 10
28497.60434129191
 20
1867.7494964292871
 30
0.0
 11
28433.60434129191
 21
1867.7494964292871
 31
0.0
  0
LINE
  5
AB3D
  8
YODOROGO
 10
28497.60434129191
 20
1923.7494964292871
 30
0.0
 11
28497.60434129191
 21
1867.7494964292871
 31
0.0
  0
LINE
  5
AB3E
  8
YODOROGO
 10
28585.604341291921
 20
1987.7494964292871
 30
0.0
 11
28585.604341291921
 21
2027.749496429288
 31
0.0
  0
LINE
  5
AB3F
  8
YODOROGO
 10
28433.60434129191
 20
1987.7494964292871
 30
0.0
 11
28585.604341291921
 21
1987.7494964292871
 31
0.0
  0
LINE
  5
AB40
  8
YODOROGO
 10
28433.60434129191
 20
1867.7494964292871
 30
0.0
 11
28433.60434129191
 21
1987.7494964292871
 31
0.0
  0
LINE
  5
AB41
  8
YODOROGO
 10
29001.60434129191
 20
2027.749496429288
 30
0.0
 11
29001.60434129191
 21
1619.749496429288
 31
0.0
  0
LINE
  5
AB42
  8
YODOROGO
 10
29073.604341291921
 20
1579.749496429288
 30
0.0
 11
29073.604341291921
 21
2027.749496429288
 31
0.0
  0
LINE
  5
AB43
  8
YODOROGO
 10
29261.604341291921
 20
1491.749496429286
 30
0.0
 11
29261.604341291921
 21
2007.749496429288
 31
0.0
  0
LINE
  5
AB44
  8
YODOROGO
 10
29197.604341291921
 20
2007.749496429288
 30
0.0
 11
29197.604341291921
 21
1491.749496429286
 31
0.0
  0
LINE
  5
AB45
  8
YODOROGO
 10
29385.604341291921
 20
2027.749496429288
 30
0.0
 11
29385.604341291921
 21
1427.749496429288
 31
0.0
  0
LINE
  5
AB46
  8
YODOROGO
 10
29457.604341291921
 20
1427.749496429288
 30
0.0
 11
29457.604341291921
 21
2027.749496429288
 31
0.0
  0
LINE
  5
AB47
  8
YODOROGO
 10
28657.604341291921
 20
1667.749496429288
 30
0.0
 11
28657.604341291921
 21
1747.74949642929
 31
0.0
  0
LINE
  5
AB48
  8
YODOROGO
 10
29885.604341291921
 20
1707.749496429288
 30
0.0
 11
29885.604341291921
 21
1667.749496429288
 31
0.0
  0
LINE
  5
AB49
  8
YODOROGO
 10
29885.604341291921
 20
1707.749496429288
 30
0.0
 11
29885.604341291921
 21
1667.749496429288
 31
0.0
  0
ARC
  5
AB4A
  8
YODOROGO
 10
28906.911576186842
 20
1618.217864442272
 30
0.0
 40
94.705151178741644
 50
274.05244162907098
 51
0.9266642149310712
  0
ARC
  5
AB4B
  8
YODOROGO
 10
28909.186170719819
 20
1592.61072861044
 30
0.0
 40
164.92042356085511
 50
271.5351210653775
 51
355.52727750585052
  0
LINE
  5
AB4C
  8
YODOROGO
 10
28913.604341291921
 20
1523.7494964292871
 30
0.0
 11
28913.604341291921
 21
1427.749496429288
 31
0.0
  0
LINE
  5
AB4D
  8
YODOROGO
 10
28793.60434129191
 20
1667.749496429288
 30
0.0
 11
28657.604341291921
 21
1667.749496429288
 31
0.0
  0
LINE
  5
AB4E
  8
YODOROGO
 10
28793.60434129191
 20
1603.7494964292871
 30
0.0
 11
28793.60434129191
 21
1667.749496429288
 31
0.0
  0
LINE
  5
AB4F
  8
YODOROGO
 10
28657.604341291921
 20
1603.7494964292871
 30
0.0
 11
28793.60434129191
 21
1603.7494964292871
 31
0.0
  0
LINE
  5
AB50
  8
YODOROGO
 10
28657.604341291921
 20
1523.7494964292871
 30
0.0
 11
28657.604341291921
 21
1603.7494964292871
 31
0.0
  0
LINE
  5
AB51
  8
YODOROGO
 10
28793.60434129191
 20
1523.7494964292871
 30
0.0
 11
28657.604341291921
 21
1523.7494964292871
 31
0.0
  0
LINE
  5
AB52
  8
YODOROGO
 10
28793.60434129191
 20
1427.749496429288
 30
0.0
 11
28793.60434129191
 21
1523.7494964292871
 31
0.0
  0
LINE
  5
AB53
  8
YODOROGO
 10
29197.604341291921
 20
1491.749496429286
 30
0.0
 11
29261.604341291921
 21
1491.749496429286
 31
0.0
  0
LINE
  5
AB54
  8
YODOROGO
 10
29385.604341291921
 20
1427.749496429288
 30
0.0
 11
29457.604341291921
 21
1427.749496429288
 31
0.0
  0
LINE
  5
AB55
  8
YODOROGO
 10
29737.604341291921
 20
1528.4414521705639
 30
0.0
 11
29737.604341291921
 21
1427.749496429288
 31
0.0
  0
LINE
  5
AB56
  8
YODOROGO
 10
29617.604341291921
 20
1427.749496429288
 30
0.0
 11
29737.604341291921
 21
1528.4414521705639
 31
0.0
  0
LINE
  5
AB57
  8
YODOROGO
 10
29617.604341291921
 20
1547.749496429288
 30
0.0
 11
29617.604341291921
 21
1427.749496429288
 31
0.0
  0
LINE
  5
AB58
  8
YODOROGO
 10
29712.94462869945
 20
1627.749496429288
 30
0.0
 11
29617.604341291921
 21
1547.749496429288
 31
0.0
  0
LINE
  5
AB59
  8
YODOROGO
 10
29617.604341291921
 20
1627.749496429288
 30
0.0
 11
29712.94462869945
 21
1627.749496429288
 31
0.0
  0
LINE
  5
AB5A
  8
YODOROGO
 10
29617.604341291921
 20
1667.749496429288
 30
0.0
 11
29617.604341291921
 21
1627.749496429288
 31
0.0
  0
LINE
  5
AB5B
  8
YODOROGO
 10
29885.604341291921
 20
1667.749496429288
 30
0.0
 11
29617.604341291921
 21
1667.749496429288
 31
0.0
  0
LINE
  5
AB5C
  8
YODOROGO
 10
29917.604341291921
 20
1627.749496429288
 30
0.0
 11
29777.604341291921
 21
1627.749496429288
 31
0.0
  0
LINE
  5
AB5D
  8
YODOROGO
 10
29777.604341291921
 20
1562.0054374176559
 30
0.0
 11
29771.409872985321
 21
1556.807661346234
 31
0.0
  0
LINE
  5
AB5E
  8
YODOROGO
 10
29777.604341291921
 20
1627.749496429288
 30
0.0
 11
29777.604341291921
 21
1562.0054374176559
 31
0.0
  0
LINE
  5
AB5F
  8
YODOROGO
 10
29737.604341291921
 20
1528.4414521705639
 30
0.0
 11
29737.604341291921
 21
1427.749496429288
 31
0.0
  0
LINE
  5
AB60
  8
YODOROGO
 10
29617.604341291921
 20
1427.749496429288
 30
0.0
 11
29737.604341291921
 21
1528.4414521705639
 31
0.0
  0
LINE
  5
AB61
  8
YODOROGO
 10
29617.604341291921
 20
1547.749496429288
 30
0.0
 11
29617.604341291921
 21
1427.749496429288
 31
0.0
  0
LINE
  5
AB62
  8
YODOROGO
 10
29712.94462869945
 20
1627.749496429288
 30
0.0
 11
29617.604341291921
 21
1547.749496429288
 31
0.0
  0
LINE
  5
AB63
  8
YODOROGO
 10
29617.604341291921
 20
1627.749496429288
 30
0.0
 11
29712.94462869945
 21
1627.749496429288
 31
0.0
  0
LINE
  5
AB64
  8
YODOROGO
 10
29617.604341291921
 20
1667.749496429288
 30
0.0
 11
29617.604341291921
 21
1627.749496429288
 31
0.0
  0
LINE
  5
AB65
  8
YODOROGO
 10
29885.604341291921
 20
1667.749496429288
 30
0.0
 11
29617.604341291921
 21
1667.749496429288
 31
0.0
  0
LINE
  5
AB66
  8
YODOROGO
 10
28793.60434129191
 20
1747.74949642929
 30
0.0
 11
28793.60434129191
 21
1819.7494964292871
 31
0.0
  0
LINE
  5
AB67
  8
YODOROGO
 10
28657.604341291921
 20
1747.74949642929
 30
0.0
 11
28793.60434129191
 21
1747.74949642929
 31
0.0
  0
LINE
  5
AB68
  8
YODOROGO
 10
28729.604341291921
 20
1867.7494964292871
 30
0.0
 11
28729.604341291921
 21
1923.7494964292871
 31
0.0
  0
LINE
  5
AB69
  8
YODOROGO
 10
28793.60434129191
 20
1867.7494964292871
 30
0.0
 11
28729.604341291921
 21
1867.7494964292871
 31
0.0
  0
LINE
  5
AB6A
  8
YODOROGO
 10
28793.60434129191
 20
1947.749496429288
 30
0.0
 11
28793.60434129191
 21
1867.7494964292871
 31
0.0
  0
ARC
  5
AB6B
  8
YODOROGO
 10
28753.60434129191
 20
1947.749496429288
 30
0.0
 40
40.0
 50
0.0
 51
90.0
  0
LINE
  5
AB6C
  8
YODOROGO
 10
28657.604341291921
 20
1987.7494964292871
 30
0.0
 11
28753.60434129191
 21
1987.7494964292871
 31
0.0
  0
LINE
  5
AB6D
  8
YODOROGO
 10
28657.604341291921
 20
2027.749496429288
 30
0.0
 11
28657.604341291921
 21
1987.7494964292871
 31
0.0
  0
LINE
  5
AB6E
  8
YODOROGO
 10
29073.604341291921
 20
2027.749496429288
 30
0.0
 11
29001.60434129191
 21
2027.749496429288
 31
0.0
  0
LINE
  5
AB6F
  8
YODOROGO
 10
29261.604341291921
 20
2007.749496429288
 30
0.0
 11
29197.604341291921
 21
2007.749496429288
 31
0.0
  0
LINE
  5
AB70
  8
YODOROGO
 10
29457.604341291921
 20
2027.749496429288
 30
0.0
 11
29385.604341291921
 21
2027.749496429288
 31
0.0
  0
LINE
  5
AB71
  8
YODOROGO
 10
29673.604341291921
 20
1707.749496429288
 30
0.0
 11
29673.604341291921
 21
1771.7494964292871
 31
0.0
1001
AUTOCAD_POSTSCRIPT_FIGURE
1002
{
1000
PSFILL
1000
Grayscale
1000
Grayscale
1070
    25
1002
}
  0
LINE
  5
AB72
  8
YODOROGO
 10
29617.604341291921
 20
1707.749496429288
 30
0.0
 11
29673.604341291921
 21
1707.749496429288
 31
0.0
1001
AUTOCAD_POSTSCRIPT_FIGURE
1002
{
1000
PSFILL
1000
Grayscale
1000
Grayscale
1070
    25
1002
}
  0
LINE
  5
AB73
  8
YODOROGO
 10
29617.604341291921
 20
1819.7494964292871
 30
0.0
 11
29617.604341291921
 21
1707.749496429288
 31
0.0
1001
AUTOCAD_POSTSCRIPT_FIGURE
1002
{
1000
PSFILL
1000
Grayscale
1000
Grayscale
1070
    25
1002
}
  0
LINE
  5
AB74
  8
YODOROGO
 10
29765.604341291921
 20
1819.7494964292871
 30
0.0
 11
29617.604341291921
 21
1819.7494964292871
 31
0.0
1001
AUTOCAD_POSTSCRIPT_FIGURE
1002
{
1000
PSFILL
1000
Grayscale
1000
Grayscale
1070
    25
1002
}
  0
LINE
  5
AB75
  8
YODOROGO
 10
29765.604341291921
 20
1859.749496429288
 30
0.0
 11
29765.604341291921
 21
1819.7494964292871
 31
0.0
1001
AUTOCAD_POSTSCRIPT_FIGURE
1002
{
1000
PSFILL
1000
Grayscale
1000
Grayscale
1070
    25
1002
}
  0
LINE
  5
AB76
  8
YODOROGO
 10
29617.604341291921
 20
1859.749496429288
 30
0.0
 11
29765.604341291921
 21
1859.749496429288
 31
0.0
1001
AUTOCAD_POSTSCRIPT_FIGURE
1002
{
1000
PSFILL
1000
Grayscale
1000
Grayscale
1070
    25
1002
}
  0
LINE
  5
AB77
  8
YODOROGO
 10
29617.604341291921
 20
1907.7494964292871
 30
0.0
 11
29617.604341291921
 21
1859.749496429288
 31
0.0
1001
AUTOCAD_POSTSCRIPT_FIGURE
1002
{
1000
PSFILL
1000
Grayscale
1000
Grayscale
1070
    25
1002
}
  0
LINE
  5
AB78
  8
YODOROGO
 10
29765.604341291921
 20
1907.7494964292871
 30
0.0
 11
29617.604341291921
 21
1907.7494964292871
 31
0.0
1001
AUTOCAD_POSTSCRIPT_FIGURE
1002
{
1000
PSFILL
1000
Grayscale
1000
Grayscale
1070
    25
1002
}
  0
LINE
  5
AB79
  8
YODOROGO
 10
29765.604341291921
 20
1947.749496429288
 30
0.0
 11
29765.604341291921
 21
1907.7494964292871
 31
0.0
1001
AUTOCAD_POSTSCRIPT_FIGURE
1002
{
1000
PSFILL
1000
Grayscale
1000
Grayscale
1070
    25
1002
}
  0
LINE
  5
AB7A
  8
YODOROGO
 10
29617.604341291921
 20
1947.749496429288
 30
0.0
 11
29765.604341291921
 21
1947.749496429288
 31
0.0
1001
AUTOCAD_POSTSCRIPT_FIGURE
1002
{
1000
PSFILL
1000
Grayscale
1000
Grayscale
1070
    25
1002
}
  0
LINE
  5
AB7B
  8
YODOROGO
 10
29617.604341291921
 20
2027.749496429288
 30
0.0
 11
29617.604341291921
 21
1947.749496429288
 31
0.0
1001
AUTOCAD_POSTSCRIPT_FIGURE
1002
{
1000
PSFILL
1000
Grayscale
1000
Grayscale
1070
    25
1002
}
  0
LINE
  5
AB7C
  8
YODOROGO
 10
29665.604341291921
 20
2027.749496429288
 30
0.0
 11
29617.604341291921
 21
2027.749496429288
 31
0.0
1001
AUTOCAD_POSTSCRIPT_FIGURE
1002
{
1000
PSFILL
1000
Grayscale
1000
Grayscale
1070
    25
1002
}
  0
LINE
  5
AB7D
  8
YODOROGO
 10
29665.604341291921
 20
1995.7494964292871
 30
0.0
 11
29665.604341291921
 21
2027.749496429288
 31
0.0
1001
AUTOCAD_POSTSCRIPT_FIGURE
1002
{
1000
PSFILL
1000
Grayscale
1000
Grayscale
1070
    25
1002
}
  0
LINE
  5
AB7E
  8
YODOROGO
 10
29765.604341291921
 20
1995.7494964292871
 30
0.0
 11
29665.604341291921
 21
1995.7494964292871
 31
0.0
1001
AUTOCAD_POSTSCRIPT_FIGURE
1002
{
1000
PSFILL
1000
Grayscale
1000
Grayscale
1070
    25
1002
}
  0
LINE
  5
AB7F
  8
YODOROGO
 10
29765.604341291921
 20
2027.749496429288
 30
0.0
 11
29765.604341291921
 21
1995.7494964292871
 31
0.0
1001
AUTOCAD_POSTSCRIPT_FIGURE
1002
{
1000
PSFILL
1000
Grayscale
1000
Grayscale
1070
    25
1002
}
  0
LINE
  5
AB80
  8
YODOROGO
 10
29829.604341291921
 20
2027.749496429288
 30
0.0
 11
29765.604341291921
 21
2027.749496429288
 31
0.0
1001
AUTOCAD_POSTSCRIPT_FIGURE
1002
{
1000
PSFILL
1000
Grayscale
1000
Grayscale
1070
    25
1002
}
  0
LINE
  5
AB81
  8
YODOROGO
 10
29829.604341291921
 20
1995.7494964292871
 30
0.0
 11
29829.604341291921
 21
2027.749496429288
 31
0.0
1001
AUTOCAD_POSTSCRIPT_FIGURE
1002
{
1000
PSFILL
1000
Grayscale
1000
Grayscale
1070
    25
1002
}
  0
LINE
  5
AB82
  8
YODOROGO
 10
29829.604341291921
 20
1907.7494964292871
 30
0.0
 11
29829.604341291921
 21
1947.749496429288
 31
0.0
1001
AUTOCAD_POSTSCRIPT_FIGURE
1002
{
1000
PSFILL
1000
Grayscale
1000
Grayscale
1070
    25
1002
}
  0
LINE
  5
AB83
  8
YODOROGO
 10
29829.604341291921
 20
1819.7494964292871
 30
0.0
 11
29829.604341291921
 21
1859.749496429288
 31
0.0
1001
AUTOCAD_POSTSCRIPT_FIGURE
1002
{
1000
PSFILL
1000
Grayscale
1000
Grayscale
1070
    25
1002
}
  0
LINE
  5
AB84
  8
YODOROGO
 10
29921.60434129191
 20
1771.7494964292871
 30
0.0
 11
29921.60434129191
 21
1707.749496429288
 31
0.0
1001
AUTOCAD_POSTSCRIPT_FIGURE
1002
{
1000
PSFILL
1000
Grayscale
1000
Grayscale
1070
    25
1002
}
  0
LINE
  5
AB85
  8
YODOROGO
 10
29829.604341291921
 20
1771.7494964292871
 30
0.0
 11
29921.60434129191
 21
1771.7494964292871
 31
0.0
1001
AUTOCAD_POSTSCRIPT_FIGURE
1002
{
1000
PSFILL
1000
Grayscale
1000
Grayscale
1070
    25
1002
}
  0
LINE
  5
AB86
  8
YODOROGO
 10
29829.604341291921
 20
1707.749496429288
 30
0.0
 11
29829.604341291921
 21
1771.7494964292871
 31
0.0
1001
AUTOCAD_POSTSCRIPT_FIGURE
1002
{
1000
PSFILL
1000
Grayscale
1000
Grayscale
1070
    25
1002
}
  0
LINE
  5
AB87
  8
YODOROGO
 10
29765.604341291921
 20
1707.749496429288
 30
0.0
 11
29829.604341291921
 21
1707.749496429288
 31
0.0
1001
AUTOCAD_POSTSCRIPT_FIGURE
1002
{
1000
PSFILL
1000
Grayscale
1000
Grayscale
1070
    25
1002
}
  0
LINE
  5
AB88
  8
YODOROGO
 10
29765.604341291921
 20
1771.7494964292871
 30
0.0
 11
29765.604341291921
 21
1707.749496429288
 31
0.0
1001
AUTOCAD_POSTSCRIPT_FIGURE
1002
{
1000
PSFILL
1000
Grayscale
1000
Grayscale
1070
    25
1002
}
  0
LINE
  5
AB89
  8
YODOROGO
 10
29673.604341291921
 20
1771.7494964292871
 30
0.0
 11
29765.604341291921
 21
1771.7494964292871
 31
0.0
1001
AUTOCAD_POSTSCRIPT_FIGURE
1002
{
1000
PSFILL
1000
Grayscale
1000
Grayscale
1070
    25
1002
}
  0
ARC
  5
AB8A
  8
YODOROGO
 10
31059.517893357912
 20
1602.6807375155761
 30
0.0
 40
178.22128111072141
 50
281.02627495425338
 51
357.77113575573799
  0
LINE
  5
AB8B
  8
YODOROGO
 10
31413.604341291921
 20
1907.7494964292871
 30
0.0
 11
31165.604341291921
 21
1907.7494964292871
 31
0.0
  0
LINE
  5
AB8C
  8
YODOROGO
 10
31413.604341291921
 20
2027.749496429288
 30
0.0
 11
31165.604341291921
 21
2027.749496429288
 31
0.0
  0
LINE
  5
AB8D
  8
YODOROGO
 10
31165.604341291921
 20
1963.749496429286
 30
0.0
 11
31413.604341291921
 21
1963.749496429286
 31
0.0
  0
LINE
  5
AB8E
  8
YODOROGO
 10
30791.604341291921
 20
1563.7494964292871
 30
0.0
 11
30791.604341291921
 21
1755.7494964292871
 31
0.0
  0
LINE
  5
AB8F
  8
YODOROGO
 10
30763.604341291921
 20
1691.749496429288
 30
0.0
 11
30763.604341291921
 21
1563.7494964292871
 31
0.0
  0
LINE
  5
AB90
  8
YODOROGO
 10
30723.604341291921
 20
1491.749496429288
 30
0.0
 11
30723.604341291921
 21
1691.749496429288
 31
0.0
  0
LINE
  5
AB91
  8
YODOROGO
 10
30899.604341291932
 20
1691.749496429288
 30
0.0
 11
30899.604341291932
 21
1491.749496429288
 31
0.0
  0
LINE
  5
AB92
  8
YODOROGO
 10
30859.604341291932
 20
1563.7494964292871
 30
0.0
 11
30859.604341291932
 21
1691.749496429288
 31
0.0
  0
LINE
  5
AB93
  8
YODOROGO
 10
30831.604341291921
 20
1755.7494964292871
 30
0.0
 11
30831.604341291921
 21
1563.7494964292871
 31
0.0
  0
LINE
  5
AB94
  8
YODOROGO
 10
30973.604341291921
 20
2027.749496429288
 30
0.0
 11
30973.604341291921
 21
1467.749496429288
 31
0.0
  0
LINE
  5
AB95
  8
YODOROGO
 10
30645.604341291921
 20
1427.749496429288
 30
0.0
 11
30645.604341291921
 21
2027.749496429288
 31
0.0
  0
LINE
  5
AB96
  8
YODOROGO
 10
30697.604341291932
 20
1963.749496429286
 30
0.0
 11
30697.604341291932
 21
1427.749496429288
 31
0.0
  0
LINE
  5
AB97
  8
YODOROGO
 10
30925.604341291921
 20
1547.749496429288
 30
0.0
 11
30925.604341291921
 21
1963.749496429286
 31
0.0
  0
LINE
  5
AB98
  8
YODOROGO
 10
30381.604341291932
 20
1627.749496429288
 30
0.0
 11
30381.604341291932
 21
1679.749496429288
 31
0.0
  0
LINE
  5
AB99
  8
YODOROGO
 10
30617.604341291921
 20
1679.749496429288
 30
0.0
 11
30617.604341291921
 21
1627.749496429288
 31
0.0
  0
LINE
  5
AB9A
  8
YODOROGO
 10
31165.604341291921
 20
1907.7494964292871
 30
0.0
 11
31165.604341291921
 21
1635.7494964292871
 31
0.0
  0
LINE
  5
AB9B
  8
YODOROGO
 10
29949.60434129191
 20
1667.749496429288
 30
0.0
 11
29949.60434129191
 21
1707.749496429288
 31
0.0
  0
LINE
  5
AB9C
  8
YODOROGO
 10
29949.60434129191
 20
1667.749496429288
 30
0.0
 11
29949.60434129191
 21
1707.749496429288
 31
0.0
  0
ARC
  5
AB9D
  8
YODOROGO
 10
30537.604341291921
 20
1507.749496429288
 30
0.0
 40
80.0
 50
270.0
 51
0.0
  0
LINE
  5
AB9E
  8
YODOROGO
 10
30569.604341291921
 20
1599.7494964292871
 30
0.0
 11
30617.604341291921
 21
1599.7494964292871
 31
0.0
  0
LINE
  5
AB9F
  8
YODOROGO
 10
30617.604341291921
 20
1627.749496429288
 30
0.0
 11
30529.604341291939
 21
1627.749496429288
 31
0.0
  0
LINE
  5
ABA0
  8
YODOROGO
 10
30217.604341291921
 20
1667.749496429288
 30
0.0
 11
29949.60434129191
 21
1667.749496429288
 31
0.0
  0
LINE
  5
ABA1
  8
YODOROGO
 10
30217.604341291921
 20
1627.749496429288
 30
0.0
 11
30217.604341291921
 21
1667.749496429288
 31
0.0
  0
LINE
  5
ABA2
  8
YODOROGO
 10
30017.604341291921
 20
1627.749496429288
 30
0.0
 11
30217.604341291921
 21
1627.749496429288
 31
0.0
  0
ARC
  5
ABA3
  8
YODOROGO
 10
30230.05882870136
 20
1868.885714952901
 30
0.0
 40
321.37763628522822
 50
228.6181454618993
 51
245.660289248906
  0
LINE
  5
ABA4
  8
YODOROGO
 10
30105.604341291921
 20
1603.7494964292871
 30
0.0
 11
30097.60434129195
 21
1576.0728158699001
 31
0.0
  0
LINE
  5
ABA5
  8
YODOROGO
 10
30189.604341291921
 20
1603.7494964292871
 30
0.0
 11
30105.604341291921
 21
1603.7494964292871
 31
0.0
  0
LINE
  5
ABA6
  8
YODOROGO
 10
30177.604341291921
 20
1551.817722473427
 30
0.0
 11
30189.604341291921
 21
1603.7494964292871
 31
0.0
  0
ARC
  5
ABA7
  8
YODOROGO
 10
30230.05882870045
 20
1868.885714953002
 30
0.0
 40
321.37763628529081
 50
260.60629297969911
 51
267.77903556555862
  0
LINE
  5
ABA8
  8
YODOROGO
 10
30217.604341291921
 20
1427.749496429285
 30
0.0
 11
30217.604341291921
 21
1547.749496429288
 31
0.0
  0
LINE
  5
ABA9
  8
YODOROGO
 10
29937.604341291932
 20
1481.3393349155101
 30
0.0
 11
29937.604341291921
 21
1594.531090531141
 31
0.0
  0
LINE
  5
ABAA
  8
YODOROGO
 10
30217.604341291921
 20
1667.749496429288
 30
0.0
 11
29949.60434129191
 21
1667.749496429288
 31
0.0
  0
LINE
  5
ABAB
  8
YODOROGO
 10
30217.604341291921
 20
1627.749496429288
 30
0.0
 11
30217.604341291921
 21
1667.749496429288
 31
0.0
  0
LINE
  5
ABAC
  8
YODOROGO
 10
30017.604341291921
 20
1627.749496429288
 30
0.0
 11
30217.604341291921
 21
1627.749496429288
 31
0.0
  0
ARC
  5
ABAD
  8
YODOROGO
 10
30230.05882870136
 20
1868.885714952901
 30
0.0
 40
321.37763628522822
 50
228.6181454618993
 51
245.660289248906
  0
LINE
  5
ABAE
  8
YODOROGO
 10
30105.604341291921
 20
1603.7494964292871
 30
0.0
 11
30097.60434129195
 21
1576.0728158699001
 31
0.0
  0
LINE
  5
ABAF
  8
YODOROGO
 10
30189.604341291921
 20
1603.7494964292871
 30
0.0
 11
30105.604341291921
 21
1603.7494964292871
 31
0.0
  0
LINE
  5
ABB0
  8
YODOROGO
 10
30177.604341291921
 20
1551.817722473427
 30
0.0
 11
30189.604341291921
 21
1603.7494964292871
 31
0.0
  0
ARC
  5
ABB1
  8
YODOROGO
 10
30230.05882870045
 20
1868.885714953002
 30
0.0
 40
321.37763628529081
 50
260.60629297969911
 51
267.77903556555862
  0
LINE
  5
ABB2
  8
YODOROGO
 10
30217.604341291921
 20
1427.749496429285
 30
0.0
 11
30217.604341291921
 21
1547.749496429288
 31
0.0
  0
LINE
  5
ABB3
  8
YODOROGO
 10
29937.604341291932
 20
1481.3393349155101
 30
0.0
 11
29937.604341291921
 21
1594.531090531141
 31
0.0
  0
LINE
  5
ABB4
  8
YODOROGO
 10
30433.604341291921
 20
1573.749496429288
 30
0.0
 11
30381.604341291932
 21
1573.749496429288
 31
0.0
  0
LINE
  5
ABB5
  8
YODOROGO
 10
30433.604341291921
 20
1601.749496429285
 30
0.0
 11
30433.604341291921
 21
1573.749496429288
 31
0.0
  0
LINE
  5
ABB6
  8
YODOROGO
 10
30381.604341291932
 20
1601.749496429285
 30
0.0
 11
30433.604341291921
 21
1601.749496429285
 31
0.0
  0
LINE
  5
ABB7
  8
YODOROGO
 10
30381.604341291932
 20
1573.749496429288
 30
0.0
 11
30381.604341291932
 21
1601.749496429285
 31
0.0
  0
LINE
  5
ABB8
  8
YODOROGO
 10
30429.604341291921
 20
1577.7494964292871
 30
0.0
 11
30385.604341291921
 21
1577.7494964292871
 31
0.0
  0
LINE
  5
ABB9
  8
YODOROGO
 10
30429.604341291921
 20
1597.749496429288
 30
0.0
 11
30429.604341291921
 21
1577.7494964292871
 31
0.0
  0
LINE
  5
ABBA
  8
YODOROGO
 10
30385.604341291921
 20
1597.749496429288
 30
0.0
 11
30429.604341291921
 21
1597.749496429288
 31
0.0
  0
LINE
  5
ABBB
  8
YODOROGO
 10
30385.604341291921
 20
1577.7494964292871
 30
0.0
 11
30385.604341291921
 21
1597.749496429288
 31
0.0
  0
LINE
  5
ABBC
  8
YODOROGO
 10
30425.604341291921
 20
1581.749496429286
 30
0.0
 11
30389.604341291921
 21
1581.749496429286
 31
0.0
  0
LINE
  5
ABBD
  8
YODOROGO
 10
30425.604341291921
 20
1593.749496429288
 30
0.0
 11
30425.604341291921
 21
1581.749496429286
 31
0.0
  0
LINE
  5
ABBE
  8
YODOROGO
 10
30389.604341291921
 20
1593.749496429288
 30
0.0
 11
30425.604341291921
 21
1593.749496429288
 31
0.0
  0
LINE
  5
ABBF
  8
YODOROGO
 10
30389.604341291921
 20
1581.749496429286
 30
0.0
 11
30389.604341291921
 21
1593.749496429288
 31
0.0
  0
LINE
  5
ABC0
  8
YODOROGO
 10
30421.604341291932
 20
1585.7494964292871
 30
0.0
 11
30393.604341291921
 21
1585.7494964292871
 31
0.0
  0
LINE
  5
ABC1
  8
YODOROGO
 10
30421.604341291932
 20
1589.749496429288
 30
0.0
 11
30421.604341291932
 21
1585.7494964292871
 31
0.0
  0
LINE
  5
ABC2
  8
YODOROGO
 10
30393.604341291921
 20
1589.749496429288
 30
0.0
 11
30421.604341291932
 21
1589.749496429288
 31
0.0
  0
LINE
  5
ABC3
  8
YODOROGO
 10
30393.604341291921
 20
1585.7494964292871
 30
0.0
 11
30393.604341291921
 21
1589.749496429288
 31
0.0
  0
LINE
  5
ABC4
  8
YODOROGO
 10
30465.604341291921
 20
1627.749496429288
 30
0.0
 11
30381.604341291932
 21
1627.749496429288
 31
0.0
  0
LINE
  5
ABC5
  8
YODOROGO
 10
30465.604341291921
 20
1547.749496429288
 30
0.0
 11
30465.604341291921
 21
1627.749496429288
 31
0.0
  0
LINE
  5
ABC6
  8
YODOROGO
 10
30381.604341291932
 20
1547.749496429288
 30
0.0
 11
30465.604341291921
 21
1547.749496429288
 31
0.0
  0
LINE
  5
ABC7
  8
YODOROGO
 10
30381.604341291932
 20
1427.749496429288
 30
0.0
 11
30381.604341291932
 21
1547.749496429288
 31
0.0
  0
LINE
  5
ABC8
  8
YODOROGO
 10
30537.604341291921
 20
1427.749496429288
 30
0.0
 11
30381.604341291932
 21
1427.749496429288
 31
0.0
  0
LINE
  5
ABC9
  8
YODOROGO
 10
30569.604341291921
 20
1571.749496429285
 30
0.0
 11
30569.604341291921
 21
1599.7494964292871
 31
0.0
  0
ARC
  5
ABCA
  8
YODOROGO
 10
30545.604341291921
 20
1571.749496429291
 30
0.0
 40
24.000000000003752
 50
270.0
 51
359.99999999998772
  0
LINE
  5
ABCB
  8
YODOROGO
 10
30529.604341291939
 20
1547.749496429288
 30
0.0
 11
30545.604341291921
 21
1547.749496429288
 31
0.0
  0
LINE
  5
ABCC
  8
YODOROGO
 10
30529.604341291939
 20
1627.749496429288
 30
0.0
 11
30529.604341291939
 21
1547.749496429288
 31
0.0
  0
LINE
  5
ABCD
  8
YODOROGO
 10
30899.604341291932
 20
1547.749496429288
 30
0.0
 11
30925.604341291921
 21
1547.749496429288
 31
0.0
  0
LINE
  5
ABCE
  8
YODOROGO
 10
30933.604341291921
 20
1427.749496429288
 30
0.0
 11
30899.604341291932
 21
1427.749496429288
 31
0.0
  0
LINE
  5
ABCF
  8
YODOROGO
 10
30763.604341291921
 20
1563.7494964292871
 30
0.0
 11
30791.604341291921
 21
1563.7494964292871
 31
0.0
  0
LINE
  5
ABD0
  8
YODOROGO
 10
30899.604341291932
 20
1491.749496429288
 30
0.0
 11
30723.604341291921
 21
1491.749496429288
 31
0.0
  0
LINE
  5
ABD1
  8
YODOROGO
 10
30831.604341291921
 20
1563.7494964292871
 30
0.0
 11
30859.604341291932
 21
1563.7494964292871
 31
0.0
  0
LINE
  5
ABD2
  8
YODOROGO
 10
30899.604341291932
 20
1427.749496429288
 30
0.0
 11
30899.604341291932
 21
1547.749496429288
 31
0.0
  0
LINE
  5
ABD3
  8
YODOROGO
 10
30697.604341291932
 20
1427.749496429288
 30
0.0
 11
30645.604341291921
 21
1427.749496429288
 31
0.0
  0
LINE
  5
ABD4
  8
YODOROGO
 10
30617.604341291921
 20
1599.7494964292871
 30
0.0
 11
30617.604341291921
 21
1507.749496429288
 31
0.0
  0
ARC
  5
ABD5
  8
YODOROGO
 10
30933.604341291921
 20
1467.749496429288
 30
0.0
 40
40.0
 50
270.0
 51
0.0
  0
LINE
  5
ABD6
  8
YODOROGO
 10
31093.604341291921
 20
1523.7494964292871
 30
0.0
 11
31093.604341291921
 21
1427.749496429288
 31
0.0
  0
ARC
  5
ABD7
  8
YODOROGO
 10
31039.721395566768
 20
1637.5313901097329
 30
0.0
 40
125.8955565916754
 50
295.34052442160112
 51
359.18902303418679
  0
LINE
  5
ABD8
  8
YODOROGO
 10
30617.604341291921
 20
1859.749496429288
 30
0.0
 11
30497.604341291921
 21
1939.749496429288
 31
0.0
  0
LINE
  5
ABD9
  8
YODOROGO
 10
30497.604341291921
 20
2027.749496429288
 30
0.0
 11
30617.604341291921
 21
1947.749496429288
 31
0.0
  0
LINE
  5
ABDA
  8
YODOROGO
 10
30529.604341291939
 20
1679.749496429288
 30
0.0
 11
30617.604341291921
 21
1679.749496429288
 31
0.0
  0
LINE
  5
ABDB
  8
YODOROGO
 10
30617.604341291921
 20
1735.7494964292871
 30
0.0
 11
30529.604341291939
 21
1735.7494964292871
 31
0.0
  0
LINE
  5
ABDC
  8
YODOROGO
 10
30381.604341291932
 20
1795.7494964292871
 30
0.0
 11
30617.604341291921
 21
1795.7494964292871
 31
0.0
  0
LINE
  5
ABDD
  8
YODOROGO
 10
30081.604341291921
 20
2027.749496429288
 30
0.0
 11
30021.604341291921
 21
2027.749496429288
 31
0.0
  0
LINE
  5
ABDE
  8
YODOROGO
 10
30081.604341291921
 20
1827.7494964292871
 30
0.0
 11
30081.604341291921
 21
2027.749496429288
 31
0.0
  0
LINE
  5
ABDF
  8
YODOROGO
 10
30021.604341291921
 20
1827.7494964292871
 30
0.0
 11
30081.604341291921
 21
1827.7494964292871
 31
0.0
  0
LINE
  5
ABE0
  8
YODOROGO
 10
30021.604341291921
 20
2027.749496429288
 30
0.0
 11
30021.604341291921
 21
1827.7494964292871
 31
0.0
  0
LINE
  5
ABE1
  8
YODOROGO
 10
30161.604341291921
 20
2027.749496429288
 30
0.0
 11
30217.604341291921
 21
2027.749496429288
 31
0.0
  0
LINE
  5
ABE2
  8
YODOROGO
 10
30161.604341291921
 20
1811.749496429288
 30
0.0
 11
30161.604341291921
 21
2027.749496429288
 31
0.0
  0
ARC
  5
ABE3
  8
YODOROGO
 10
30121.604341291921
 20
1811.749496429288
 30
0.0
 40
40.0
 50
270.0
 51
0.0
  0
LINE
  5
ABE4
  8
YODOROGO
 10
30021.604341291921
 20
1771.7494964292871
 30
0.0
 11
30121.604341291921
 21
1771.7494964292871
 31
0.0
  0
LINE
  5
ABE5
  8
YODOROGO
 10
30021.604341291921
 20
1707.749496429288
 30
0.0
 11
30021.604341291921
 21
1771.7494964292871
 31
0.0
  0
LINE
  5
ABE6
  8
YODOROGO
 10
30137.604341291921
 20
1707.749496429288
 30
0.0
 11
30021.604341291921
 21
1707.749496429288
 31
0.0
  0
ARC
  5
ABE7
  8
YODOROGO
 10
30137.604341291921
 20
1787.7494964292871
 30
0.0
 40
80.0
 50
270.0
 51
0.0
  0
LINE
  5
ABE8
  8
YODOROGO
 10
30217.604341291921
 20
2027.749496429288
 30
0.0
 11
30217.604341291921
 21
1787.7494964292871
 31
0.0
  0
LINE
  5
ABE9
  8
YODOROGO
 10
29977.604341291921
 20
1947.749496429288
 30
0.0
 11
29977.604341291921
 21
1995.7494964292871
 31
0.0
1001
AUTOCAD_POSTSCRIPT_FIGURE
1002
{
1000
PSFILL
1000
Grayscale
1000
Grayscale
1070
    25
1002
}
  0
LINE
  5
ABEA
  8
YODOROGO
 10
29977.604341291921
 20
1859.749496429288
 30
0.0
 11
29977.604341291921
 21
1907.7494964292871
 31
0.0
1001
AUTOCAD_POSTSCRIPT_FIGURE
1002
{
1000
PSFILL
1000
Grayscale
1000
Grayscale
1070
    25
1002
}
  0
LINE
  5
ABEB
  8
YODOROGO
 10
29977.604341291921
 20
1707.749496429288
 30
0.0
 11
29977.604341291921
 21
1819.7494964292871
 31
0.0
1001
AUTOCAD_POSTSCRIPT_FIGURE
1002
{
1000
PSFILL
1000
Grayscale
1000
Grayscale
1070
    25
1002
}
  0
LINE
  5
ABEC
  8
YODOROGO
 10
30381.604341291932
 20
1907.7494964292871
 30
0.0
 11
30497.604341291921
 21
2027.749496429288
 31
0.0
  0
LINE
  5
ABED
  8
YODOROGO
 10
30381.604341291932
 20
1819.7494964292871
 30
0.0
 11
30381.604341291932
 21
1907.7494964292871
 31
0.0
  0
LINE
  5
ABEE
  8
YODOROGO
 10
30497.604341291921
 20
1939.749496429288
 30
0.0
 11
30381.604341291932
 21
1819.7494964292871
 31
0.0
  0
LINE
  5
ABEF
  8
YODOROGO
 10
30465.604341291921
 20
1679.749496429288
 30
0.0
 11
30465.604341291921
 21
1735.7494964292871
 31
0.0
  0
LINE
  5
ABF0
  8
YODOROGO
 10
30381.604341291932
 20
1679.749496429288
 30
0.0
 11
30465.604341291921
 21
1679.749496429288
 31
0.0
  0
LINE
  5
ABF1
  8
YODOROGO
 10
30529.604341291939
 20
1735.7494964292871
 30
0.0
 11
30529.604341291939
 21
1679.749496429288
 31
0.0
  0
LINE
  5
ABF2
  8
YODOROGO
 10
30381.604341291932
 20
1735.7494964292871
 30
0.0
 11
30381.604341291932
 21
1795.7494964292871
 31
0.0
  0
LINE
  5
ABF3
  8
YODOROGO
 10
30465.604341291921
 20
1735.7494964292871
 30
0.0
 11
30381.604341291932
 21
1735.7494964292871
 31
0.0
  0
LINE
  5
ABF4
  8
YODOROGO
 10
30645.604341291921
 20
2027.749496429288
 30
0.0
 11
30973.604341291921
 21
2027.749496429288
 31
0.0
  0
LINE
  5
ABF5
  8
YODOROGO
 10
30925.604341291921
 20
1963.749496429286
 30
0.0
 11
30697.604341291932
 21
1963.749496429286
 31
0.0
  0
LINE
  5
ABF6
  8
YODOROGO
 10
30873.604341291921
 20
1819.7494964292871
 30
0.0
 11
30899.604341291932
 21
1819.7494964292871
 31
0.0
  0
LINE
  5
ABF7
  8
YODOROGO
 10
30899.604341291932
 20
1939.749496429288
 30
0.0
 11
30873.604341291921
 21
1819.7494964292871
 31
0.0
  0
LINE
  5
ABF8
  8
YODOROGO
 10
30851.604341291939
 20
1939.749496429288
 30
0.0
 11
30899.604341291932
 21
1939.749496429288
 31
0.0
  0
LINE
  5
ABF9
  8
YODOROGO
 10
30825.604341291921
 20
1819.7494964292871
 30
0.0
 11
30851.604341291939
 21
1939.749496429288
 31
0.0
  0
LINE
  5
ABFA
  8
YODOROGO
 10
30797.604341291921
 20
1819.7494964292871
 30
0.0
 11
30825.604341291921
 21
1819.7494964292871
 31
0.0
  0
LINE
  5
ABFB
  8
YODOROGO
 10
30771.604341291939
 20
1939.749496429288
 30
0.0
 11
30797.604341291921
 21
1819.7494964292871
 31
0.0
  0
LINE
  5
ABFC
  8
YODOROGO
 10
30723.604341291921
 20
1939.749496429288
 30
0.0
 11
30771.604341291939
 21
1939.749496429288
 31
0.0
  0
LINE
  5
ABFD
  8
YODOROGO
 10
30749.604341291921
 20
1819.7494964292871
 30
0.0
 11
30723.604341291921
 21
1939.749496429288
 31
0.0
  0
LINE
  5
ABFE
  8
YODOROGO
 10
30723.604341291921
 20
1819.7494964292871
 30
0.0
 11
30749.604341291921
 21
1819.7494964292871
 31
0.0
  0
LINE
  5
ABFF
  8
YODOROGO
 10
30723.604341291921
 20
1755.7494964292871
 30
0.0
 11
30723.604341291921
 21
1819.7494964292871
 31
0.0
  0
LINE
  5
AC00
  8
YODOROGO
 10
30899.604341291932
 20
1755.7494964292871
 30
0.0
 11
30723.604341291921
 21
1755.7494964292871
 31
0.0
  0
LINE
  5
AC01
  8
YODOROGO
 10
30899.604341291932
 20
1819.7494964292871
 30
0.0
 11
30899.604341291932
 21
1755.7494964292871
 31
0.0
  0
LINE
  5
AC02
  8
YODOROGO
 10
30617.604341291921
 20
1947.749496429288
 30
0.0
 11
30617.604341291921
 21
1859.749496429288
 31
0.0
  0
LINE
  5
AC03
  8
YODOROGO
 10
30791.604341291921
 20
1755.7494964292871
 30
0.0
 11
30831.604341291921
 21
1755.7494964292871
 31
0.0
  0
LINE
  5
AC04
  8
YODOROGO
 10
30723.604341291921
 20
1691.749496429288
 30
0.0
 11
30763.604341291921
 21
1691.749496429288
 31
0.0
  0
LINE
  5
AC05
  8
YODOROGO
 10
30859.604341291932
 20
1691.749496429288
 30
0.0
 11
30899.604341291932
 21
1691.749496429288
 31
0.0
  0
LINE
  5
AC06
  8
YODOROGO
 10
30617.604341291921
 20
1795.7494964292871
 30
0.0
 11
30617.604341291921
 21
1735.7494964292871
 31
0.0
  0
LINE
  5
AC07
  8
YODOROGO
 10
31165.604341291921
 20
2027.749496429288
 30
0.0
 11
31165.604341291921
 21
1963.749496429286
 31
0.0
  0
LINE
  5
AC08
  8
YODOROGO
 10
31533.604341291921
 20
1595.7494964292871
 30
0.0
 11
31533.60434129191
 21
1811.749496429288
 31
0.0
  0
LINE
  5
AC09
  8
YODOROGO
 10
31461.60434129191
 20
1987.7494964292871
 30
0.0
 11
31461.60434129191
 21
1635.7494964292871
 31
0.0
  0
LINE
  5
AC0A
  8
YODOROGO
 10
31653.604341291921
 20
1427.749496429288
 30
0.0
 11
31653.60434129191
 21
1811.749496429288
 31
0.0
  0
LINE
  5
AC0B
  8
YODOROGO
 10
31589.604341291921
 20
1811.749496429288
 30
0.0
 11
31589.604341291921
 21
1427.749496429288
 31
0.0
  0
LINE
  5
AC0C
  8
YODOROGO
 10
31237.604341291921
 20
1595.7494964292871
 30
0.0
 11
31237.604341291921
 21
1707.749496429288
 31
0.0
  0
ARC
  5
AC0D
  8
YODOROGO
 10
31353.914865116069
 20
1607.790351288558
 30
0.0
 40
180.0924485759885
 50
268.62849102169793
 51
356.16638457330322
  0
LINE
  5
AC0E
  8
YODOROGO
 10
31349.604341291939
 20
1527.749496429288
 30
0.0
 11
31349.604341291939
 21
1427.749496429288
 31
0.0
  0
ARC
  5
AC0F
  8
YODOROGO
 10
31351.518075724562
 20
1637.838957017655
 30
0.0
 40
110.1060929836122
 50
269.00410209305932
 51
358.91264455492478
  0
LINE
  5
AC10
  8
YODOROGO
 10
31589.604341291921
 20
1427.749496429288
 30
0.0
 11
31653.604341291921
 21
1427.749496429288
 31
0.0
  0
LINE
  5
AC11
  8
YODOROGO
 10
31533.60434129191
 20
1811.749496429288
 30
0.0
 11
31589.604341291921
 21
1811.749496429288
 31
0.0
  0
LINE
  5
AC12
  8
YODOROGO
 10
31621.604341291939
 20
1987.7494964292871
 30
0.0
 11
31461.60434129191
 21
1987.7494964292871
 31
0.0
  0
LINE
  5
AC13
  8
YODOROGO
 10
31533.60434129191
 20
1915.7494964292871
 30
0.0
 11
31661.604341291939
 21
1915.7494964292871
 31
0.0
  0
LINE
  5
AC14
  8
YODOROGO
 10
31701.604341291939
 20
1875.7494964292871
 30
0.0
 11
31533.60434129191
 21
1875.7494964292871
 31
0.0
  0
LINE
  5
AC15
  8
YODOROGO
 10
31237.604341291921
 20
1779.749496429288
 30
0.0
 11
31349.604341291939
 21
1779.749496429288
 31
0.0
  0
LINE
  5
AC16
  8
YODOROGO
 10
31237.604341291921
 20
1835.7494964292871
 30
0.0
 11
31237.604341291921
 21
1779.749496429288
 31
0.0
  0
LINE
  5
AC17
  8
YODOROGO
 10
31349.604341291939
 20
1835.7494964292871
 30
0.0
 11
31237.604341291921
 21
1835.7494964292871
 31
0.0
  0
LINE
  5
AC18
  8
YODOROGO
 10
31349.604341291939
 20
1779.749496429288
 30
0.0
 11
31349.604341291939
 21
1835.7494964292871
 31
0.0
  0
LINE
  5
AC19
  8
YODOROGO
 10
31533.60434129191
 20
1875.7494964292871
 30
0.0
 11
31533.60434129191
 21
1915.7494964292871
 31
0.0
  0
LINE
  5
AC1A
  8
YODOROGO
 10
31413.604341291921
 20
1707.749496429288
 30
0.0
 11
31413.604341291921
 21
1907.7494964292871
 31
0.0
  0
LINE
  5
AC1B
  8
YODOROGO
 10
31237.604341291921
 20
1707.749496429288
 30
0.0
 11
31413.604341291921
 21
1707.749496429288
 31
0.0
  0
LINE
  5
AC1C
  8
YODOROGO
 10
31413.604341291921
 20
1963.749496429286
 30
0.0
 11
31413.604341291921
 21
2027.749496429288
 31
0.0
  0
ARC
  5
AC1D
  8
YODOROGO
 10
31621.604341291939
 20
2003.749496429285
 30
0.0
 40
15.999999999994539
 50
270.0
 51
0.0000000000081422
  0
LINE
  5
AC1E
  8
YODOROGO
 10
31637.604341291921
 20
2027.749496429288
 30
0.0
 11
31637.604341291921
 21
2003.7494964292871
 31
0.0
  0
LINE
  5
AC1F
  8
YODOROGO
 10
31701.604341291939
 20
2027.749496429288
 30
0.0
 11
31637.604341291921
 21
2027.749496429288
 31
0.0
  0
LINE
  5
AC20
  8
YODOROGO
 10
31701.604341291939
 20
1955.7494964292871
 30
0.0
 11
31701.604341291939
 21
2027.749496429288
 31
0.0
  0
ARC
  5
AC21
  8
YODOROGO
 10
31661.604341291939
 20
1955.7494964292871
 30
0.0
 40
40.0
 50
270.0
 51
0.0
  0
LINE
  5
AC22
  8
YODOROGO
 10
31701.604341291939
 20
1811.749496429288
 30
0.0
 11
31701.604341291939
 21
1875.7494964292871
 31
0.0
  0
LINE
  5
AC23
  8
YODOROGO
 10
31653.60434129191
 20
1811.749496429288
 30
0.0
 11
31701.604341291939
 21
1811.749496429288
 31
0.0
  0
LINE
  5
AC24
  8
0-6
  6
CONTINUOUS
 62
     6
 10
11976.91668197561
 20
19465.01522062123
 30
0.0
 11
11902.19693690498
 21
19608.987214999961
 31
0.0
  0
LINE
  5
AC25
  8
0-6
  6
CONTINUOUS
 62
     6
 10
11902.19693690498
 20
19608.987214999961
 30
0.0
 11
12019.57297988864
 21
19497.030225322491
 31
0.0
  0
LINE
  5
AC26
  8
0-6
  6
CONTINUOUS
 62
     6
 10
12019.57297988864
 20
19497.030225322491
 30
0.0
 11
11976.91668197561
 21
19465.01522062123
 31
0.0
  0
LINE
  5
AC27
  8
0-6
  6
CONTINUOUS
 62
     6
 10
11976.91668197561
 20
16586.013716621241
 30
0.0
 11
11902.19693690498
 21
16729.98571099995
 31
0.0
  0
LINE
  5
AC28
  8
0-6
  6
CONTINUOUS
 62
     6
 10
11902.19693690498
 20
16729.98571099995
 30
0.0
 11
12019.57297988864
 21
16618.028721322491
 31
0.0
  0
LINE
  5
AC29
  8
0-6
  6
CONTINUOUS
 62
     6
 10
12019.57297988864
 20
16618.028721322491
 30
0.0
 11
11976.91668197561
 21
16586.013716621241
 31
0.0
  0
LINE
  5
AC2A
  8
0-6
  6
CONTINUOUS
 62
     6
 10
11856.581953403211
 20
13271.95731011759
 30
0.0
 11
11781.862208332581
 21
13415.929304496311
 31
0.0
  0
LINE
  5
AC2B
  8
0-6
  6
CONTINUOUS
 62
     6
 10
11781.862208332581
 20
13415.929304496311
 30
0.0
 11
11899.238251316239
 21
13303.97231481885
 31
0.0
  0
LINE
  5
AC2C
  8
0-6
  6
CONTINUOUS
 62
     6
 10
11899.238251316239
 20
13303.97231481885
 30
0.0
 11
11856.581953403211
 21
13271.95731011759
 31
0.0
  0
LINE
  5
AC2D
  8
SUNPOU
  6
CONTINUOUS
 62
     4
 10
4823.2433209367082
 20
13268.98643699999
 30
0.0
 11
3976.2435449367158
 21
13268.986437
 31
0.0
  0
LINE
  5
AC2E
  8
SUNPOU
  6
CONTINUOUS
 62
     4
 10
4056.2435449367149
 20
13461.485710999999
 30
0.0
 11
4056.243544936714
 21
13268.986437
 31
0.0
  0
LINE
  5
AC2F
  8
SUNPOU
  6
CONTINUOUS
 62
     4
 10
4056.2435449367149
 20
16729.985711000001
 30
0.0
 11
4056.243544936714
 21
13461.485710999999
 31
0.0
  0
LINE
  5
AC30
  8
SUNPOU
  6
CONTINUOUS
 62
     4
 10
4056.243544936719
 20
19647.985711000001
 30
0.0
 11
4056.243544936719
 21
16729.985711000001
 31
0.0
  0
LINE
  5
AC31
  8
SUNPOU
  6
CONTINUOUS
 62
     4
 10
3976.243544936719
 20
19647.985711000001
 30
0.0
 11
4016.243544936719
 21
19647.985711000001
 31
0.0
  0
LINE
  5
AC32
  8
SUNPOU
  6
CONTINUOUS
 62
     4
 10
4828.2425949367062
 20
19870.485579
 30
0.0
 11
4016.243544936719
 21
19870.485579
 31
0.0
  0
LINE
  5
AC33
  8
SUNPOU
  6
CONTINUOUS
 62
     4
 10
4056.243544936719
 20
19647.985711000001
 30
0.0
 11
4056.243544936719
 21
19870.485579
 31
0.0
  0
LINE
  5
AC34
  8
SUNPOU
  6
CONTINUOUS
 62
     4
 10
4896.7434399367203
 20
19860.48900999999
 30
0.0
 11
4376.2428859367192
 21
19860.48900999999
 31
0.0
  0
LINE
  5
AC35
  8
SUNPOU
  6
CONTINUOUS
 62
     4
 10
4828.2425949367062
 20
19870.485579
 30
0.0
 11
4376.2428859367192
 21
19870.485579
 31
0.0
  0
LINE
  5
AC36
  8
SUNPOU
  6
CONTINUOUS
 62
     4
 10
4456.2428859367174
 20
19860.48900999999
 30
0.0
 11
4456.2428859367174
 21
19620.48900999999
 31
0.0
  0
LINE
  5
AC37
  8
SUNPOU
  6
CONTINUOUS
 62
     4
 10
4456.2428859367174
 20
19870.485579
 30
0.0
 11
4456.2428859367174
 21
20110.485579000011
 31
0.0
  0
LINE
  5
AC38
  8
SUNPOU
  6
CONTINUOUS
 62
     4
 10
4456.2428859367174
 20
19860.48900999999
 30
0.0
 11
4456.2428859367174
 21
19870.485579
 31
0.0
  0
LINE
  5
AC39
  8
SUNPOU
  6
CONTINUOUS
 62
     4
 10
12903.743320936699
 20
20495.487624000001
 30
0.0
 11
12903.743320936699
 21
20570.486634999979
 31
0.0
  0
LINE
  5
AC3A
  8
SUNPOU
  6
CONTINUOUS
 62
     4
 10
12989.243320936699
 20
19945.487293999991
 30
0.0
 11
12989.243320936699
 21
20570.486634999979
 31
0.0
  0
LINE
  5
AC3B
  8
SUNPOU
  6
CONTINUOUS
 62
     4
 10
12903.743320936699
 20
20490.486634999979
 30
0.0
 11
12663.743320936699
 21
20490.486634999979
 31
0.0
  0
LINE
  5
AC3C
  8
SUNPOU
  6
CONTINUOUS
 62
     4
 10
12986.243320936699
 20
20490.486634999979
 30
0.0
 11
13226.243320936699
 21
20490.486634999979
 31
0.0
  0
LINE
  5
AC3D
  8
SUNPOU
  6
CONTINUOUS
 62
     4
 10
12903.743320936699
 20
20490.486634999979
 30
0.0
 11
12986.243320936699
 21
20490.486634999979
 31
0.0
  0
LINE
  5
AC3E
  8
SUNPOU
  6
CONTINUOUS
 62
     4
 10
7903.7433209367064
 20
20495.487624000001
 30
0.0
 11
7903.7433209367064
 21
20570.486634999979
 31
0.0
  0
LINE
  5
AC3F
  8
SUNPOU
  6
CONTINUOUS
 62
     4
 10
12903.743320936699
 20
20495.487624000001
 30
0.0
 11
12903.743320936699
 21
20570.486634999979
 31
0.0
  0
LINE
  5
AC40
  8
SUNPOU
  6
CONTINUOUS
 62
     4
 10
7903.7433209367064
 20
20490.486634999979
 30
0.0
 11
12903.743320936699
 21
20490.486634999979
 31
0.0
  0
LINE
  5
AC41
  8
SUNPOU
  6
CONTINUOUS
 62
     4
 10
4985.7433209367082
 20
20020.487293999991
 30
0.0
 11
4985.7433209367082
 21
20570.486634999979
 31
0.0
  0
LINE
  5
AC42
  8
SUNPOU
  6
CONTINUOUS
 62
     4
 10
7903.7433209367064
 20
20495.487624000001
 30
0.0
 11
7903.7433209367064
 21
20570.486634999979
 31
0.0
  0
LINE
  5
AC43
  8
SUNPOU
  6
CONTINUOUS
 62
     4
 10
4985.7433209367082
 20
20490.486634999979
 30
0.0
 11
7903.7433209367064
 21
20490.486634999979
 31
0.0
  0
LINE
  5
AC44
  8
SUNPOU
  6
CONTINUOUS
 62
     4
 10
4985.7433209367082
 20
20020.487293999991
 30
0.0
 11
4985.7433209367082
 21
20570.486634999979
 31
0.0
  0
LINE
  5
AC45
  8
SUNPOU
  6
CONTINUOUS
 62
     4
 10
4900.2433209367091
 20
19940.48703099999
 30
0.0
 11
4900.2433209367091
 21
20570.486634999979
 31
0.0
  0
LINE
  5
AC46
  8
SUNPOU
  6
CONTINUOUS
 62
     4
 10
4985.7433209367082
 20
20490.486634999979
 30
0.0
 11
5225.7433209367082
 21
20490.486634999979
 31
0.0
  0
LINE
  5
AC47
  8
SUNPOU
  6
CONTINUOUS
 62
     4
 10
4903.2433209367091
 20
20490.486634999979
 30
0.0
 11
4663.2433209367082
 21
20490.486634999979
 31
0.0
  0
LINE
  5
AC48
  8
SUNPOU
  6
CONTINUOUS
 62
     4
 10
4985.7433209367082
 20
20490.486634999979
 30
0.0
 11
4903.2433209367091
 21
20490.486634999979
 31
0.0
  0
LINE
  5
AC49
  8
SUNPOU
  6
CONTINUOUS
 62
     4
 10
4900.2433209367091
 20
13188.98643699999
 30
0.0
 11
4900.2433209367091
 21
11898.98564499999
 31
0.0
  0
LINE
  5
AC4A
  8
SUNPOU
  6
CONTINUOUS
 62
     4
 10
12989.243320936699
 20
13188.98643699999
 30
0.0
 11
12989.243320936699
 21
11898.98564499999
 31
0.0
  0
LINE
  5
AC4B
  8
SUNPOU
  6
CONTINUOUS
 62
     4
 10
4903.2433209367091
 20
11978.98564499999
 30
0.0
 11
12986.243320936699
 21
11978.98564499999
 31
0.0
  0
LINE
  5
AC67
  8
SUNPOU
  6
CONTINUOUS
 62
     4
 10
22001.010528585161
 20
19770.485711000001
 30
0.0
 11
22001.010528585161
 21
20570.486634999979
 31
0.0
  0
LINE
  5
AC68
  8
SUNPOU
  6
CONTINUOUS
 62
     4
 10
22043.510528585171
 20
19770.485711000001
 30
0.0
 11
22043.510528585171
 21
20570.486634999979
 31
0.0
  0
LINE
  5
AC69
  8
SUNPOU
  6
CONTINUOUS
 62
     4
 10
22001.010528585161
 20
20490.486634999979
 30
0.0
 11
21761.010528585161
 21
20490.486634999979
 31
0.0
  0
LINE
  5
AC6A
  8
SUNPOU
  6
CONTINUOUS
 62
     4
 10
22043.510528585171
 20
20490.486634999979
 30
0.0
 11
22283.510528585171
 21
20490.486634999979
 31
0.0
  0
LINE
  5
AC6B
  8
SUNPOU
  6
CONTINUOUS
 62
     4
 10
22001.010528585161
 20
20490.486634999979
 30
0.0
 11
22043.510528585171
 21
20490.486634999979
 31
0.0
  0
LINE
  5
AC6C
  8
SUNPOU
  6
CONTINUOUS
 62
     4
 10
21243.010528585161
 20
19770.485711000001
 30
0.0
 11
21243.010528585161
 21
20570.486634999979
 31
0.0
  0
LINE
  5
AC6D
  8
SUNPOU
  6
CONTINUOUS
 62
     4
 10
22001.010528585161
 20
19770.485711000001
 30
0.0
 11
22001.010528585161
 21
20570.486634999979
 31
0.0
  0
LINE
  5
AC6E
  8
SUNPOU
  6
CONTINUOUS
 62
     4
 10
21243.010528585161
 20
20490.486634999979
 30
0.0
 11
22001.010528585161
 21
20490.486634999979
 31
0.0
  0
LINE
  5
AC6F
  8
SUNPOU
  6
CONTINUOUS
 62
     4
 10
20542.010528585161
 20
19770.485711000001
 30
0.0
 11
20542.010528585161
 21
20570.486634999979
 31
0.0
  0
LINE
  5
AC70
  8
SUNPOU
  6
CONTINUOUS
 62
     4
 10
21243.010528585161
 20
19770.485711000001
 30
0.0
 11
21243.010528585161
 21
20570.486634999979
 31
0.0
  0
LINE
  5
AC71
  8
SUNPOU
  6
CONTINUOUS
 62
     4
 10
20542.010528585161
 20
20490.486634999979
 30
0.0
 11
21243.010528585161
 21
20490.486634999979
 31
0.0
  0
LINE
  5
AC72
  8
SUNPOU
  6
CONTINUOUS
 62
     4
 10
19841.010528585161
 20
19770.485711000001
 30
0.0
 11
19841.010528585161
 21
20570.486634999979
 31
0.0
  0
LINE
  5
AC73
  8
SUNPOU
  6
CONTINUOUS
 62
     4
 10
20542.010528585161
 20
19770.485711000001
 30
0.0
 11
20542.010528585161
 21
20570.486634999979
 31
0.0
  0
LINE
  5
AC74
  8
SUNPOU
  6
CONTINUOUS
 62
     4
 10
19841.010528585161
 20
20490.486634999979
 30
0.0
 11
20542.010528585161
 21
20490.486634999979
 31
0.0
  0
LINE
  5
AC75
  8
SUNPOU
  6
CONTINUOUS
 62
     4
 10
19083.01052858515
 20
19850.488217999991
 30
0.0
 11
19083.01052858515
 21
20570.486634999979
 31
0.0
  0
LINE
  5
AC76
  8
SUNPOU
  6
CONTINUOUS
 62
     4
 10
19841.010528585161
 20
19770.485711000001
 30
0.0
 11
19841.010528585161
 21
20570.486634999979
 31
0.0
  0
LINE
  5
AC77
  8
SUNPOU
  6
CONTINUOUS
 62
     4
 10
19083.01052858515
 20
20490.486634999979
 30
0.0
 11
19841.010528585161
 21
20490.486634999979
 31
0.0
  0
LINE
  5
AC78
  8
SUNPOU
  6
CONTINUOUS
 62
     4
 10
19083.01052858515
 20
19850.488217999991
 30
0.0
 11
19083.01052858515
 21
20570.486634999979
 31
0.0
  0
LINE
  5
AC79
  8
SUNPOU
  6
CONTINUOUS
 62
     4
 10
19040.51052858515
 20
19770.485711000001
 30
0.0
 11
19040.51052858515
 21
20570.486634999979
 31
0.0
  0
LINE
  5
AC7A
  8
SUNPOU
  6
CONTINUOUS
 62
     4
 10
19083.01052858515
 20
20490.486634999979
 30
0.0
 11
19323.010528585161
 21
20490.486634999979
 31
0.0
  0
LINE
  5
AC7B
  8
SUNPOU
  6
CONTINUOUS
 62
     4
 10
19040.51052858515
 20
20490.486634999979
 30
0.0
 11
18800.510528585139
 21
20490.486634999979
 31
0.0
  0
LINE
  5
AC7C
  8
SUNPOU
  6
CONTINUOUS
 62
     4
 10
19083.01052858515
 20
20490.486634999979
 30
0.0
 11
19040.51052858515
 21
20490.486634999979
 31
0.0
  0
LINE
  5
AC8A
  8
SUNPOU
  6
CONTINUOUS
 62
     4
 10
22001.010528585161
 20
20890.486634999979
 30
0.0
 11
27001.010528585161
 21
20890.486634999979
 31
0.0
  0
LINE
  5
AC8B
  8
SUNPOU
  6
CONTINUOUS
 62
     4
 10
19083.01052858515
 20
20890.486634999979
 30
0.0
 11
22001.010528585161
 21
20890.486634999979
 31
0.0
  0
LINE
  5
AC8C
  8
SUNPOU
  6
CONTINUOUS
 62
     4
 10
27001.010528585161
 20
20014.93548487734
 30
0.0
 11
27001.010528585161
 21
20570.486634999979
 31
0.0
  0
LINE
  5
AC8D
  8
SUNPOU
  6
CONTINUOUS
 62
     4
 10
26958.508285585162
 20
19853.835975000002
 30
0.0
 11
26958.508285585162
 21
20570.486634999979
 31
0.0
  0
LINE
  5
AC8E
  8
SUNPOU
  6
CONTINUOUS
 62
     4
 10
27001.010528585161
 20
20490.486634999979
 30
0.0
 11
27241.010528585161
 21
20490.486634999979
 31
0.0
  0
LINE
  5
AC8F
  8
SUNPOU
  6
CONTINUOUS
 62
     4
 10
26958.508285585162
 20
20490.486634999979
 30
0.0
 11
26718.508285585162
 21
20490.486634999979
 31
0.0
  0
LINE
  5
AC90
  8
SUNPOU
  6
CONTINUOUS
 62
     4
 10
27001.010528585161
 20
20490.486634999979
 30
0.0
 11
26958.508285585162
 21
20490.486634999979
 31
0.0
  0
LINE
  5
AC91
  8
SUNPOU
  6
CONTINUOUS
 62
     4
 10
27001.010528585161
 20
20014.93548487734
 30
0.0
 11
27001.010528585161
 21
20570.486634999979
 31
0.0
  0
LINE
  5
AC92
  8
SUNPOU
  6
CONTINUOUS
 62
     4
 10
27043.508813585158
 20
19850.488217999991
 30
0.0
 11
27043.508813585158
 21
20570.486634999979
 31
0.0
  0
LINE
  5
AC93
  8
SUNPOU
  6
CONTINUOUS
 62
     4
 10
27001.010528585161
 20
20490.486634999979
 30
0.0
 11
26761.010528585161
 21
20490.486634999979
 31
0.0
  0
LINE
  5
AC94
  8
SUNPOU
  6
CONTINUOUS
 62
     4
 10
27043.508813585158
 20
20490.486634999979
 30
0.0
 11
27283.508813585158
 21
20490.486634999979
 31
0.0
  0
LINE
  5
AC95
  8
SUNPOU
  6
CONTINUOUS
 62
     4
 10
27001.010528585161
 20
20490.486634999979
 30
0.0
 11
27043.508813585158
 21
20490.486634999979
 31
0.0
  0
LINE
  5
AC96
  8
SUNPOU
  6
CONTINUOUS
 62
     4
 10
27385.615364537101
 20
16729.985711000001
 30
0.0
 11
28298.854152953791
 21
16729.985711000001
 31
0.0
  0
LINE
  5
AC97
  8
SUNPOU
  6
CONTINUOUS
 62
     4
 10
27385.615364537101
 20
19647.985711000001
 30
0.0
 11
28298.854152953791
 21
19647.985711000001
 31
0.0
  0
LINE
  5
AC98
  8
SUNPOU
  6
CONTINUOUS
 62
     4
 10
28218.854152953791
 20
16729.985711000001
 30
0.0
 11
28218.854152953791
 21
19647.985711000001
 31
0.0
  0
LINE
  5
AC99
  8
SUNPOU
  6
CONTINUOUS
 62
     4
 10
27385.615364537101
 20
13461.485710999999
 30
0.0
 11
28298.854152953791
 21
13461.485710999999
 31
0.0
  0
LINE
  5
AC9A
  8
SUNPOU
  6
CONTINUOUS
 62
     4
 10
27385.615364537101
 20
16729.985711000001
 30
0.0
 11
28298.854152953791
 21
16729.985711000001
 31
0.0
  0
LINE
  5
AC9B
  8
SUNPOU
  6
CONTINUOUS
 62
     4
 10
28218.854152953791
 20
13461.485710999999
 30
0.0
 11
28218.854152953791
 21
16729.985711000001
 31
0.0
  0
LINE
  5
ACB3
  8
SUNPOU
  6
CONTINUOUS
 62
     4
 10
5986.2340064709351
 20
8478.188374000003
 30
0.0
 11
5986.2340064709351
 21
9869.1883999999955
 31
0.0
  0
LINE
  5
ACB4
  8
SUNPOU
  6
CONTINUOUS
 62
     4
 10
12587.734006470921
 20
8610.0781974124311
 30
0.0
 11
12587.734006470921
 21
9869.1883999999955
 31
0.0
  0
LINE
  5
ACB5
  8
SUNPOU
  6
CONTINUOUS
 62
     4
 10
5986.2340064709351
 20
9789.1883999999955
 30
0.0
 11
12587.734006470921
 21
9789.1883999999955
 31
0.0
  0
LINE
  5
ACB6
  8
SUNPOU
  6
CONTINUOUS
 62
     4
 10
12437.73400647093
 20
8536.0984380000027
 30
0.0
 11
12437.73400647093
 21
9469.1900499999992
 31
0.0
  0
LINE
  5
ACB7
  8
SUNPOU
  6
CONTINUOUS
 62
     4
 10
12587.734006470921
 20
8610.0781974124311
 30
0.0
 11
12587.734006470921
 21
9469.1900499999992
 31
0.0
  0
LINE
  5
ACB8
  8
SUNPOU
  6
CONTINUOUS
 62
     4
 10
12437.73400647093
 20
9389.1900499999992
 30
0.0
 11
12197.73400647093
 21
9389.1900499999992
 31
0.0
  0
LINE
  5
ACB9
  8
SUNPOU
  6
CONTINUOUS
 62
     4
 10
12587.734006470921
 20
9389.1900499999992
 30
0.0
 11
12827.734006470921
 21
9389.1900499999992
 31
0.0
  0
LINE
  5
ACBA
  8
SUNPOU
  6
CONTINUOUS
 62
     4
 10
12437.73400647093
 20
9389.1900499999992
 30
0.0
 11
12587.734006470921
 21
9389.1900499999992
 31
0.0
  0
LINE
  5
ACBB
  8
SUNPOU
  6
CONTINUOUS
 62
     4
 10
6166.234006470936
 20
8348.3741496838084
 30
0.0
 11
6166.234006470936
 21
9469.1900499999992
 31
0.0
  0
LINE
  5
ACBC
  8
SUNPOU
  6
CONTINUOUS
 62
     4
 10
12437.73400647093
 20
8536.0984380000027
 30
0.0
 11
12437.73400647093
 21
9469.1900499999992
 31
0.0
  0
LINE
  5
ACBD
  8
SUNPOU
  6
CONTINUOUS
 62
     4
 10
6166.234006470936
 20
9389.1900499999992
 30
0.0
 11
12437.73400647093
 21
9389.1900499999992
 31
0.0
  0
LINE
  5
ACBE
  8
SUNPOU
  6
CONTINUOUS
 62
     4
 10
5986.2340064709351
 20
8478.188374000003
 30
0.0
 11
5986.2340064709351
 21
9469.1900499999992
 31
0.0
  0
LINE
  5
ACBF
  8
SUNPOU
  6
CONTINUOUS
 62
     4
 10
6166.234006470936
 20
8348.3741496838084
 30
0.0
 11
6166.234006470936
 21
9469.1900499999992
 31
0.0
  0
LINE
  5
ACC0
  8
SUNPOU
  6
CONTINUOUS
 62
     4
 10
5986.2340064709351
 20
9389.1900499999992
 30
0.0
 11
6166.234006470936
 21
9389.1900499999992
 31
0.0
  0
LINE
  5
ACC1
  8
SUNPOU
  6
CONTINUOUS
 62
     4
 10
12530.23400647093
 20
6241.1883740000012
 30
0.0
 11
13607.73440247092
 21
6241.1883740000012
 31
0.0
  0
LINE
  5
ACC2
  8
SUNPOU
  6
CONTINUOUS
 62
     4
 10
12622.54126607031
 20
8589.1883739999994
 30
0.0
 11
13607.73440247092
 21
8589.1883739999994
 31
0.0
  0
LINE
  5
ACC3
  8
SUNPOU
  6
CONTINUOUS
 62
     4
 10
13527.73440247092
 20
6241.1883740000012
 30
0.0
 11
13527.73440247092
 21
8589.1883739999994
 31
0.0
  0
LINE
  5
ACC4
  8
SUNPOU
  6
CONTINUOUS
 62
     4
 10
6078.7340064709351
 20
6241.1883740000012
 30
0.0
 11
4996.2336104709384
 21
6241.1883740000012
 31
0.0
  0
LINE
  5
ACC5
  8
SUNPOU
  6
CONTINUOUS
 62
     4
 10
5906.2340064709351
 20
8398.188374000003
 30
0.0
 11
4996.2336104709384
 21
8398.188374000003
 31
0.0
  0
LINE
  5
ACC6
  8
SUNPOU
  6
CONTINUOUS
 62
     4
 10
5076.2336104709384
 20
6241.1883740000012
 30
0.0
 11
5076.2336104709384
 21
8398.188374000003
 31
0.0
  0
LINE
  5
ACC7
  8
SUNPOU
  6
CONTINUOUS
 62
     4
 10
6166.234006470936
 20
6161.1883740000012
 30
0.0
 11
6166.234006470936
 21
4461.1887040000011
 31
0.0
  0
LINE
  5
ACC8
  8
SUNPOU
  6
CONTINUOUS
 62
     4
 10
12437.73400647093
 20
6161.1883740000012
 30
0.0
 11
12437.73400647093
 21
4461.1887040000011
 31
0.0
  0
LINE
  5
ACC9
  8
SUNPOU
  6
CONTINUOUS
 62
     4
 10
6166.234006470936
 20
4541.1887040000011
 30
0.0
 11
12437.73400647093
 21
4541.1887040000011
 31
0.0
  0
LINE
  5
ACCA
  8
SUNPOU
  6
CONTINUOUS
 62
     4
 10
12395.234006470921
 20
5798.536116000002
 30
0.0
 11
12395.234006470921
 21
4861.1885389999998
 31
0.0
  0
LINE
  5
ACCB
  8
SUNPOU
  6
CONTINUOUS
 62
     4
 10
12437.73400647093
 20
6161.1883740000012
 30
0.0
 11
12437.73400647093
 21
4861.1885389999998
 31
0.0
  0
LINE
  5
ACCC
  8
SUNPOU
  6
CONTINUOUS
 62
     4
 10
12395.234006470921
 20
4941.1885390000016
 30
0.0
 11
12155.234006470921
 21
4941.1885390000016
 31
0.0
  0
LINE
  5
ACCD
  8
SUNPOU
  6
CONTINUOUS
 62
     4
 10
12437.73400647093
 20
4941.1885390000016
 30
0.0
 11
12677.73400647093
 21
4941.1885390000016
 31
0.0
  0
LINE
  5
ACCE
  8
SUNPOU
  6
CONTINUOUS
 62
     4
 10
12395.234006470921
 20
4941.1885390000016
 30
0.0
 11
12437.73400647093
 21
4941.1885390000016
 31
0.0
  0
LINE
  5
ACCF
  8
SUNPOU
  6
CONTINUOUS
 62
     4
 10
6208.7340064709351
 20
5798.536116000002
 30
0.0
 11
6208.7340064709351
 21
4861.1885389999998
 31
0.0
  0
LINE
  5
ACD0
  8
SUNPOU
  6
CONTINUOUS
 62
     4
 10
6166.234006470936
 20
6161.1883740000012
 30
0.0
 11
6166.234006470936
 21
4861.1885389999998
 31
0.0
  0
LINE
  5
ACD1
  8
SUNPOU
  6
CONTINUOUS
 62
     4
 10
6208.7340064709351
 20
4941.1885390000016
 30
0.0
 11
6448.7340064709351
 21
4941.1885390000016
 31
0.0
  0
LINE
  5
ACD2
  8
SUNPOU
  6
CONTINUOUS
 62
     4
 10
6166.234006470936
 20
4941.1885390000016
 30
0.0
 11
5926.2340064709342
 21
4941.1885390000016
 31
0.0
  0
LINE
  5
ACD3
  8
SUNPOU
  6
CONTINUOUS
 62
     4
 10
6208.7340064709351
 20
4941.1885390000016
 30
0.0
 11
6166.234006470936
 21
4941.1885390000016
 31
0.0
  0
LINE
  5
ACD4
  8
SUNPOU
  6
CONTINUOUS
 62
     4
 10
9126.7340064709388
 20
5798.536116000002
 30
0.0
 11
9126.7340064709388
 21
4861.1885389999998
 31
0.0
  0
LINE
  5
ACD5
  8
SUNPOU
  6
CONTINUOUS
 62
     4
 10
6208.7340064709351
 20
5798.536116000002
 30
0.0
 11
6208.7340064709351
 21
4861.1885389999998
 31
0.0
  0
LINE
  5
ACD6
  8
SUNPOU
  6
CONTINUOUS
 62
     4
 10
9126.7340064709388
 20
4941.1885390000016
 30
0.0
 11
6208.7340064709351
 21
4941.1885390000016
 31
0.0
  0
LINE
  5
ACD7
  8
SUNPOU
  6
CONTINUOUS
 62
     4
 10
9126.7340064709388
 20
5798.536116000002
 30
0.0
 11
9126.7340064709388
 21
4861.1885390000016
 31
0.0
  0
LINE
  5
ACD8
  8
SUNPOU
  6
CONTINUOUS
 62
     4
 10
12395.234006470921
 20
5798.536116000002
 30
0.0
 11
12395.234006470921
 21
4861.1885390000016
 31
0.0
  0
LINE
  5
ACD9
  8
SUNPOU
  6
CONTINUOUS
 62
     4
 10
9126.7340064709388
 20
4941.1885390000016
 30
0.0
 11
12395.234006470921
 21
4941.1885390000016
 31
0.0
  0
LINE
  5
ACDA
  8
SUNPOU
  6
CONTINUOUS
 62
     4
 10
18997.51052858515
 20
8669.1883999999973
 30
0.0
 11
18997.51052858515
 21
9869.1329740000037
 31
0.0
  0
LINE
  5
ACDB
  8
SUNPOU
  6
CONTINUOUS
 62
     4
 10
27086.510528585161
 20
8669.1883999999973
 30
0.0
 11
27086.510528585161
 21
9869.1329740000037
 31
0.0
  0
LINE
  5
ACDC
  8
SUNPOU
  6
CONTINUOUS
 62
     4
 10
19000.51052858515
 20
9789.1329740000037
 30
0.0
 11
27083.510528585161
 21
9789.1329740000037
 31
0.0
  0
LINE
  5
ACDD
  8
SUNPOU
  6
CONTINUOUS
 62
     4
 10
27043.510528585171
 20
8669.1884000000027
 30
0.0
 11
27043.510528585171
 21
9469.1900499999992
 31
0.0
  0
LINE
  5
ACDE
  8
SUNPOU
  6
CONTINUOUS
 62
     4
 10
27086.510528585161
 20
8669.1884000000027
 30
0.0
 11
27086.510528585161
 21
9469.1900499999992
 31
0.0
  0
LINE
  5
ACDF
  8
SUNPOU
  6
CONTINUOUS
 62
     4
 10
27043.510528585171
 20
9389.1900499999992
 30
0.0
 11
26803.510528585171
 21
9389.1900499999992
 31
0.0
  0
LINE
  5
ACE0
  8
SUNPOU
  6
CONTINUOUS
 62
     4
 10
27083.510528585161
 20
9389.1900499999992
 30
0.0
 11
27323.510528585161
 21
9389.1900499999992
 31
0.0
  0
LINE
  5
ACE1
  8
SUNPOU
  6
CONTINUOUS
 62
     4
 10
27043.510528585171
 20
9389.1900499999992
 30
0.0
 11
27083.510528585161
 21
9389.1900499999992
 31
0.0
  0
LINE
  5
ACE2
  8
SUNPOU
  6
CONTINUOUS
 62
     4
 10
19040.51052858515
 20
8539.1884659999978
 30
0.0
 11
19040.51052858515
 21
9469.1900499999992
 31
0.0
  0
LINE
  5
ACE3
  8
SUNPOU
  6
CONTINUOUS
 62
     4
 10
18997.51052858515
 20
8669.1883999999973
 30
0.0
 11
18997.51052858515
 21
9469.1900499999992
 31
0.0
  0
LINE
  5
ACE4
  8
SUNPOU
  6
CONTINUOUS
 62
     4
 10
19040.51052858515
 20
9389.1900499999992
 30
0.0
 11
19280.51052858515
 21
9389.1900499999992
 31
0.0
  0
LINE
  5
ACE5
  8
SUNPOU
  6
CONTINUOUS
 62
     4
 10
19000.51052858515
 20
9389.1900499999992
 30
0.0
 11
18760.51052858515
 21
9389.1900499999992
 31
0.0
  0
LINE
  5
ACE6
  8
SUNPOU
  6
CONTINUOUS
 62
     4
 10
19040.51052858515
 20
9389.1900499999992
 30
0.0
 11
19000.51052858515
 21
9389.1900499999992
 31
0.0
  0
LINE
  5
ACE7
  8
SUNPOU
  6
CONTINUOUS
 62
     4
 10
22043.510528585161
 20
8539.1884659999978
 30
0.0
 11
22043.510528585161
 21
9469.1900499999992
 31
0.0
  0
LINE
  5
ACE8
  8
SUNPOU
  6
CONTINUOUS
 62
     4
 10
19040.51052858515
 20
8539.1884659999978
 30
0.0
 11
19040.51052858515
 21
9469.1900499999992
 31
0.0
  0
LINE
  5
ACE9
  8
SUNPOU
  6
CONTINUOUS
 62
     4
 10
22043.510528585161
 20
9389.1900499999992
 30
0.0
 11
19040.51052858515
 21
9389.1900499999992
 31
0.0
  0
LINE
  5
ACEA
  8
SUNPOU
  6
CONTINUOUS
 62
     4
 10
18953.007889585158
 20
6241.1883740000012
 30
0.0
 11
17753.007889585151
 21
6241.1883740000021
 31
0.0
  0
LINE
  5
ACEB
  8
SUNPOU
  6
CONTINUOUS
 62
     4
 10
18920.51052858515
 20
8589.1883999999973
 30
0.0
 11
17753.007889585151
 21
8589.1883999999973
 31
0.0
  0
LINE
  5
ACEC
  8
SUNPOU
  6
CONTINUOUS
 62
     4
 10
17833.007889585151
 20
6241.1883740000021
 30
0.0
 11
17833.007889585151
 21
8589.1883999999973
 31
0.0
  0
LINE
  5
ACED
  8
SUNPOU
  6
CONTINUOUS
 62
     4
 10
18953.007889585158
 20
6241.1883740000012
 30
0.0
 11
18153.007229585161
 21
6241.1883740000021
 31
0.0
  0
LINE
  5
ACEE
  8
SUNPOU
  6
CONTINUOUS
 62
     4
 10
19045.50683358515
 20
8132.6883740000021
 30
0.0
 11
18153.007229585161
 21
8132.6883740000021
 31
0.0
  0
LINE
  5
ACEF
  8
SUNPOU
  6
CONTINUOUS
 62
     4
 10
18233.007229585161
 20
6241.1883740000021
 30
0.0
 11
18233.007229585161
 21
8132.6883740000021
 31
0.0
  0
LINE
  5
ACF0
  8
SUNPOU
  6
CONTINUOUS
 62
     4
 10
22046.510528585161
 20
6161.1883740000003
 30
0.0
 11
22046.510528585161
 21
5261.1883740000012
 31
0.0
  0
LINE
  5
ACF1
  8
SUNPOU
  6
CONTINUOUS
 62
     4
 10
26958.510528585161
 20
6061.1885389999989
 30
0.0
 11
26958.510528585161
 21
5261.1883740000012
 31
0.0
  0
LINE
  5
ACF2
  8
SUNPOU
  6
CONTINUOUS
 62
     4
 10
22046.510528585161
 20
5341.1883740000012
 30
0.0
 11
26958.510528585161
 21
5341.1883740000012
 31
0.0
  0
LINE
  5
ACF3
  8
SUNPOU
  6
CONTINUOUS
 62
     4
 10
19040.550481532679
 20
6161.1883740000003
 30
0.0
 11
19040.550481532679
 21
4461.1887040000529
 31
0.0
  0
LINE
  5
ACF4
  8
SUNPOU
  6
CONTINUOUS
 62
     4
 10
27043.510528585161
 20
6061.1885389999989
 30
0.0
 11
27043.510528585161
 21
4461.1887040000529
 31
0.0
  0
LINE
  5
ACF5
  8
SUNPOU
  6
CONTINUOUS
 62
     4
 10
19040.550481532679
 20
4541.188704000052
 30
0.0
 11
27043.510528585161
 21
4541.188704000052
 31
0.0
  0
LINE
  5
ACF6
  8
SUNPOU
  6
CONTINUOUS
 62
     4
 10
19083.01052858515
 20
5798.536116000002
 30
0.0
 11
19083.01052858515
 21
4861.1885389999998
 31
0.0
  0
LINE
  5
ACF7
  8
SUNPOU
  6
CONTINUOUS
 62
     4
 10
19040.550481532679
 20
6161.1883740000003
 30
0.0
 11
19040.550481532679
 21
4861.1885389999998
 31
0.0
  0
LINE
  5
ACF8
  8
SUNPOU
  6
CONTINUOUS
 62
     4
 10
19083.01052858515
 20
4941.1885390000016
 30
0.0
 11
19323.010528585139
 21
4941.1885390000016
 31
0.0
  0
LINE
  5
ACF9
  8
SUNPOU
  6
CONTINUOUS
 62
     4
 10
19040.550481532679
 20
4941.1885390000016
 30
0.0
 11
18800.550481532679
 21
4941.1885390000016
 31
0.0
  0
LINE
  5
ACFA
  8
SUNPOU
  6
CONTINUOUS
 62
     4
 10
19083.01052858515
 20
4941.1885390000016
 30
0.0
 11
19040.550481532679
 21
4941.1885390000016
 31
0.0
  0
LINE
  5
ACFB
  8
SUNPOU
  6
CONTINUOUS
 62
     4
 10
22001.010528585161
 20
5798.536116000002
 30
0.0
 11
22001.010528585161
 21
4861.1885389999998
 31
0.0
  0
LINE
  5
ACFC
  8
SUNPOU
  6
CONTINUOUS
 62
     4
 10
19083.01052858515
 20
5798.536116000002
 30
0.0
 11
19083.01052858515
 21
4861.1885389999998
 31
0.0
  0
LINE
  5
ACFD
  8
SUNPOU
  6
CONTINUOUS
 62
     4
 10
22001.010528585161
 20
4941.1885390000016
 30
0.0
 11
19083.01052858515
 21
4941.1885390000016
 31
0.0
  0
LINE
  5
ACFE
  8
SUNPOU
  6
CONTINUOUS
 62
     4
 10
19177.010528585139
 20
6061.1885389999989
 30
0.0
 11
19177.010528585139
 21
5261.1883740000012
 31
0.0
  0
LINE
  5
ACFF
  8
SUNPOU
  6
CONTINUOUS
 62
     4
 10
21907.010528585161
 20
6061.1885389999989
 30
0.0
 11
21907.010528585161
 21
5261.1883740000012
 31
0.0
  0
LINE
  5
AD00
  8
SUNPOU
  6
CONTINUOUS
 62
     4
 10
19177.010528585139
 20
5341.1883740000012
 30
0.0
 11
21907.010528585161
 21
5341.1883740000012
 31
0.0
  0
LINE
  5
AD01
  8
SUNPOU
  6
CONTINUOUS
 62
     4
 10
27001.010528585161
 20
5798.536116000002
 30
0.0
 11
27001.010528585161
 21
4861.1885389999998
 31
0.0
  0
LINE
  5
AD02
  8
SUNPOU
  6
CONTINUOUS
 62
     4
 10
27043.510528585161
 20
6061.1885389999989
 30
0.0
 11
27043.510528585161
 21
4861.1885389999998
 31
0.0
  0
LINE
  5
AD03
  8
SUNPOU
  6
CONTINUOUS
 62
     4
 10
27001.010528585161
 20
4941.1885389999998
 30
0.0
 11
26761.010528585161
 21
4941.1885389999998
 31
0.0
  0
LINE
  5
AD04
  8
SUNPOU
  6
CONTINUOUS
 62
     4
 10
27043.510528585161
 20
4941.1885389999998
 30
0.0
 11
27283.510528585161
 21
4941.1885389999998
 31
0.0
  0
LINE
  5
AD05
  8
SUNPOU
  6
CONTINUOUS
 62
     4
 10
27001.010528585161
 20
4941.1885389999998
 30
0.0
 11
27043.510528585161
 21
4941.1885389999998
 31
0.0
  0
LINE
  5
AD06
  8
SUNPOU
  6
CONTINUOUS
 62
     4
 10
22001.010528585161
 20
5798.536116000002
 30
0.0
 11
22001.010528585161
 21
4861.1885389999998
 31
0.0
  0
LINE
  5
AD07
  8
SUNPOU
  6
CONTINUOUS
 62
     4
 10
27001.010528585161
 20
5798.536116000002
 30
0.0
 11
27001.010528585161
 21
4861.1885389999998
 31
0.0
  0
LINE
  5
AD08
  8
SUNPOU
  6
CONTINUOUS
 62
     4
 10
22001.010528585161
 20
4941.1885389999998
 30
0.0
 11
27001.010528585161
 21
4941.1885389999998
 31
0.0
  0
LINE
  5
AD09
  8
SUNPOU
  6
CONTINUOUS
 62
     4
 10
22043.510528585161
 20
8539.1884659999978
 30
0.0
 11
22043.510528585161
 21
9469.1900499999992
 31
0.0
  0
LINE
  5
AD0A
  8
SUNPOU
  6
CONTINUOUS
 62
     4
 10
27043.510528585171
 20
8669.1884000000027
 30
0.0
 11
27043.510528585171
 21
9469.1900499999992
 31
0.0
  0
LINE
  5
AD0B
  8
SUNPOU
  6
CONTINUOUS
 62
     4
 10
22043.510528585161
 20
9389.1900499999992
 30
0.0
 11
27043.510528585171
 21
9389.1900499999992
 31
0.0
  0
LINE
  5
AD0C
  8
SUNPOU
  6
CONTINUOUS
 62
     4
 10
27123.510528585161
 20
6241.5026620000017
 30
0.0
 11
28333.332926879531
 21
6241.5026620000017
 31
0.0
  0
LINE
  5
AD0D
  8
SUNPOU
  6
CONTINUOUS
 62
     4
 10
27163.510528585171
 20
8261.5026620000044
 30
0.0
 11
28333.332926879531
 21
8261.5026620000044
 31
0.0
  0
LINE
  5
AD0E
  8
SUNPOU
  6
CONTINUOUS
 62
     4
 10
28253.332926879531
 20
6241.5026620000017
 30
0.0
 11
28253.332926879531
 21
8261.5026620000044
 31
0.0
  0
LINE
  5
AD0F
  8
0-6
  6
CONTINUOUS
 62
     6
 10
11065.18348696334
 20
15419.51117699233
 30
0.0
 11
11185.038213869881
 21
15528.842273947561
 31
0.0
  0
LINE
  5
AD10
  8
0-6
  6
CONTINUOUS
 62
     6
 10
11185.038213869881
 20
15528.842273947561
 30
0.0
 11
11107.11281583309
 21
15386.55356510502
 31
0.0
  0
LINE
  5
AD11
  8
0-6
  6
CONTINUOUS
 62
     6
 10
11107.11281583309
 20
15386.55356510502
 30
0.0
 11
11065.18348696334
 21
15419.51117699233
 31
0.0
  0
LINE
  5
AD12
  8
0-6
  6
CONTINUOUS
 62
     6
 10
6482.3250344014868
 20
16944.10254427827
 30
0.0
 11
6513.9646807702356
 21
16784.988192000001
 31
0.0
  0
LINE
  5
AD13
  8
0-6
  6
CONTINUOUS
 62
     6
 10
6513.9646807702356
 20
16784.988192000001
 30
0.0
 11
6432.4385548678729
 21
16925.24486784335
 31
0.0
  0
LINE
  5
AD14
  8
0-6
  6
CONTINUOUS
 62
     6
 10
6432.4385548678729
 20
16925.24486784335
 30
0.0
 11
6482.3250344014868
 21
16944.10254427827
 31
0.0
  0
LINE
  5
AD15
  8
0-6
  6
CONTINUOUS
 62
     6
 10
26858.782504637202
 20
19452.88947925335
 30
0.0
 11
26965.110528585159
 21
19575.385710999992
 31
0.0
  0
LINE
  5
AD16
  8
0-6
  6
CONTINUOUS
 62
     6
 10
26965.110528585159
 20
19575.385710999992
 30
0.0
 11
26904.258408991911
 21
19425.024404324551
 31
0.0
  0
LINE
  5
AD17
  8
0-6
  6
CONTINUOUS
 62
     6
 10
26904.258408991911
 20
19425.024404324551
 30
0.0
 11
26858.782504637202
 21
19452.88947925335
 31
0.0
  0
LINE
  5
AD18
  8
0-6
  6
CONTINUOUS
 62
     6
 10
26886.96685014317
 20
19868.7030359327
 30
0.0
 11
26956.010528585161
 21
19721.924475045871
 31
0.0
  0
LINE
  5
AD19
  8
0-6
  6
CONTINUOUS
 62
     6
 10
26956.010528585161
 20
19721.924475045871
 30
0.0
 11
26843.093528406011
 21
19838.377272670841
 31
0.0
  0
LINE
  5
AD1A
  8
0-6
  6
CONTINUOUS
 62
     6
 10
26843.093528406011
 20
19838.377272670841
 30
0.0
 11
26886.96685014317
 21
19868.7030359327
 31
0.0
  0
LINE
  5
AD1B
  8
0-6
  6
CONTINUOUS
 62
     6
 10
26858.782504637202
 20
16935.082047746651
 30
0.0
 11
26965.11052858517
 21
16812.585815999992
 31
0.0
  0
LINE
  5
AD1C
  8
0-6
  6
CONTINUOUS
 62
     6
 10
26965.11052858517
 20
16812.585815999992
 30
0.0
 11
26904.258408991911
 21
16962.947122675439
 31
0.0
  0
LINE
  5
AD1D
  8
0-6
  6
CONTINUOUS
 62
     6
 10
26904.258408991911
 20
16962.947122675439
 30
0.0
 11
26858.782504637202
 21
16935.082047746651
 31
0.0
  0
LINE
  5
AD1E
  8
0-6
  6
CONTINUOUS
 62
     6
 10
26858.782504637202
 20
13677.082483746641
 30
0.0
 11
26965.110528585159
 21
13554.586251999999
 31
0.0
  0
LINE
  5
AD1F
  8
0-6
  6
CONTINUOUS
 62
     6
 10
26965.110528585159
 20
13554.586251999999
 30
0.0
 11
26904.258408991911
 21
13704.947558675451
 31
0.0
  0
LINE
  5
AD20
  8
0-6
  6
CONTINUOUS
 62
     6
 10
26904.258408991911
 20
13704.947558675451
 30
0.0
 11
26858.782504637202
 21
13677.082483746641
 31
0.0
  0
LINE
  5
AD21
  8
0-6
  6
CONTINUOUS
 62
     6
 10
26886.96685014317
 20
16519.268491067302
 30
0.0
 11
26956.010528585171
 21
16666.047051954109
 31
0.0
  0
LINE
  5
AD22
  8
0-6
  6
CONTINUOUS
 62
     6
 10
26956.010528585171
 20
16666.047051954109
 30
0.0
 11
26843.093528406011
 21
16549.594254329138
 31
0.0
  0
LINE
  5
AD23
  8
0-6
  6
CONTINUOUS
 62
     6
 10
26843.093528406011
 20
16549.594254329138
 30
0.0
 11
26886.96685014317
 21
16519.268491067302
 31
0.0
  0
LINE
  5
AD24
  8
0-6
  6
CONTINUOUS
 62
     6
 10
26886.96685014317
 20
13281.207691113181
 30
0.0
 11
26956.010528585171
 21
13427.986252000001
 31
0.0
  0
LINE
  5
AD25
  8
0-6
  6
CONTINUOUS
 62
     6
 10
26956.010528585171
 20
13427.986252000001
 30
0.0
 11
26843.093528406011
 21
13311.53345437502
 31
0.0
  0
LINE
  5
AD26
  8
0-6
  6
CONTINUOUS
 62
     6
 10
26843.093528406011
 20
13311.53345437502
 30
0.0
 11
26886.96685014317
 21
13281.207691113181
 31
0.0
  0
LINE
  5
AD27
  8
0-6
  6
CONTINUOUS
 62
     6
 10
12804.45339827106
 20
15277.451029206761
 30
0.0
 11
12850.74368993672
 21
15432.91222811606
 31
0.0
  0
LINE
  5
AD28
  8
0-6
  6
CONTINUOUS
 62
     6
 10
12850.74368993672
 20
15432.91222811606
 30
0.0
 11
12756.53430393998
 21
15300.866423206309
 31
0.0
  0
LINE
  5
AD29
  8
0-6
  6
CONTINUOUS
 62
     6
 10
12756.53430393998
 20
15300.866423206309
 30
0.0
 11
12804.45339827106
 21
15277.451029206761
 31
0.0
  0
ARC
  5
AD2A
  8
1-前柱P
 10
27010.610528585159
 20
13529.885711000001
 30
0.0
 40
1.0
 50
90.0
 51
180.0
  0
LINE
  5
AD2B
  8
1-前柱P
 10
27009.610528585159
 20
13529.885711000001
 30
0.0
 11
27009.610528585159
 21
13528.285711
 31
0.0
  0
LINE
  5
AD2C
  8
1-前柱P
 10
27009.610528585159
 20
13528.285711
 30
0.0
 11
26998.410528585158
 21
13528.285711
 31
0.0
  0
LINE
  5
AD2D
  8
1-前柱P
 10
26998.410528585158
 20
13528.285711
 30
0.0
 11
26998.410528585158
 21
13529.885711000001
 31
0.0
  0
ARC
  5
AD2E
  8
1-前柱P
 10
26997.410528585158
 20
13529.885711000001
 30
0.0
 40
1.0
 50
0.0
 51
90.0
  0
ARC
  5
AD2F
  8
1-中柱P
 10
26994.410528585158
 20
16798.285711000011
 30
0.0
 40
1.0
 50
0.0
 51
90.0
  0
LINE
  5
AD30
  8
1-中柱P
 10
26995.410528585158
 20
16798.285711000011
 30
0.0
 11
26995.410528585158
 21
16796.685710999991
 31
0.0
  0
LINE
  5
AD31
  8
1-中柱P
 10
26995.410528585158
 20
16796.685710999991
 30
0.0
 11
27006.610528585159
 21
16796.685710999991
 31
0.0
  0
LINE
  5
AD32
  8
1-中柱P
 10
27006.610528585159
 20
16796.685710999991
 30
0.0
 11
27006.610528585159
 21
16798.285711000011
 31
0.0
  0
ARC
  5
AD33
  8
1-中柱P
 10
27007.610528585159
 20
16798.285711000011
 30
0.0
 40
1.0
 50
90.0
 51
180.0
  0
ARC
  5
AD34
  8
1-後柱P
 10
26991.410528585158
 20
19579.935710999991
 30
0.0
 40
1.0
 50
270.0
 51
0.0
  0
LINE
  5
AD35
  8
1-後柱P
 10
26992.410528585158
 20
19579.935710999991
 30
0.0
 11
26992.410528585158
 21
19581.535711
 31
0.0
  0
LINE
  5
AD36
  8
1-後柱P
 10
26992.410528585158
 20
19581.535711
 30
0.0
 11
27003.61052858517
 21
19581.535711
 31
0.0
  0
LINE
  5
AD37
  8
1-後柱P
 10
27003.61052858517
 20
19581.535711
 30
0.0
 11
27003.610528585181
 21
19579.935710999991
 31
0.0
  0
ARC
  5
AD38
  8
1-後柱P
 10
27004.61052858517
 20
19579.935710999991
 30
0.0
 40
1.0
 50
180.0
 51
270.0
  0
TEXT
  5
AD39
  8
0
  6
CONTINUOUS
 62
     7
 10
28173.332926879531
 20
6588.5026620000071
 30
0.0
 40
160.0
  1
有効高サ2020
 50
90.0
  0
TEXT
  5
AD3A
  8
0
  6
CONTINUOUS
 62
     7
 10
24290.177195251821
 20
9469.1900499999992
 30
0.0
 40
160.0
  1
5000
  0
TEXT
  5
AD3B
  8
0
  6
CONTINUOUS
 62
     7
 10
24247.677195251821
 20
5021.1885389999998
 30
0.0
 40
160.0
  1
5000
  0
TEXT
  5
AD3C
  8
0
  6
CONTINUOUS
 62
     7
 10
27163.511188585151
 20
5021.1883080000007
 30
0.0
 40
160.0
  1
42.5
  0
TEXT
  5
AD3D
  8
0
  6
CONTINUOUS
 62
     7
 10
19782.01052858515
 20
5421.1883740000012
 30
0.0
 40
160.0
  1
有効開口巾2730
  0
TEXT
  5
AD3E
  8
0
  6
CONTINUOUS
 62
     7
 10
20275.343861918482
 20
5021.1885389999998
 30
0.0
 40
160.0
  1
2918
  0
TEXT
  5
AD3F
  8
0
  6
CONTINUOUS
 62
     7
 10
18460.68749758515
 20
5028.7357170000014
 30
0.0
 40
160.0
  1
42.5
  0
TEXT
  5
AD40
  8
0
  6
CONTINUOUS
 62
     7
 10
22775.363838392252
 20
4621.188704000052
 30
0.0
 40
160.0
  1
8003
  0
TEXT
  5
AD41
  8
0
  6
CONTINUOUS
 62
     7
 10
23755.843861918482
 20
5421.1883740000012
 30
0.0
 40
160.0
  1
有効開口巾4912
  0
TEXT
  5
AD42
  8
0
  6
CONTINUOUS
 62
     7
 10
18153.007229585161
 20
6264.271707333337
 30
0.0
 40
160.0
  1
有効開口高サ1891.5
 50
90.0
  0
TEXT
  5
AD43
  8
0
  6
CONTINUOUS
 62
     7
 10
17753.007889585151
 20
6609.8550536666689
 30
0.0
 40
160.0
  1
2348（2588）
 50
90.0
  0
TEXT
  5
AD44
  8
0
  6
CONTINUOUS
 62
     7
 10
20275.343861918482
 20
9469.1900499999992
 30
0.0
 40
160.0
  1
3003
  0
TEXT
  5
AD45
  8
0
  6
CONTINUOUS
 62
     7
 10
18670.70254258515
 20
9469.1893240000027
 30
0.0
 40
160.0
  1
43
  0
TEXT
  5
AD46
  8
0
  6
CONTINUOUS
 62
     7
 10
27220.976348585162
 20
9469.1893240000027
 30
0.0
 40
160.0
  1
43
  0
TEXT
  5
AD47
  8
0
  6
CONTINUOUS
 62
     7
 10
22762.010528585161
 20
9869.1329740000037
 30
0.0
 40
160.0
  1
8089
  0
TEXT
  5
AD48
  8
0
  6
CONTINUOUS
 62
     7
 10
10360.98400647093
 20
5021.1885390000016
 30
0.0
 40
160.0
  1
3268.5
  0
TEXT
  5
AD49
  8
0
  6
CONTINUOUS
 62
     7
 10
7401.06733980427
 20
5021.1885389999998
 30
0.0
 40
160.0
  1
2918
  0
TEXT
  5
AD4A
  8
0
  6
CONTINUOUS
 62
     7
 10
5584.2443924709378
 20
5022.1790570000012
 30
0.0
 40
160.0
  1
42.5
  0
TEXT
  5
AD4B
  8
0
  6
CONTINUOUS
 62
     7
 10
12557.735656470941
 20
5021.1883080000007
 30
0.0
 40
160.0
  1
42.5
  0
TEXT
  5
AD4C
  8
0
  6
CONTINUOUS
 62
     7
 10
8928.650673137603
 20
4621.1887040000011
 30
0.0
 40
160.0
  1
6271.5
  0
TEXT
  5
AD4D
  8
0
  6
CONTINUOUS
 62
     7
 10
4996.2336104709366
 20
6541.0217073333351
 30
0.0
 40
160.0
  1
2157（2397）
 50
90.0
  0
TEXT
  5
AD4E
  8
0
  6
CONTINUOUS
 62
     7
 10
13447.73440247092
 20
6609.85504066667
 30
0.0
 40
160.0
  1
2348（2588）
 50
90.0
  0
TEXT
  5
AD4F
  8
0
  6
CONTINUOUS
 62
     7
 10
5531.8921913358308
 20
9469.1900499999992
 30
0.0
 40
160.0
  1
180
  0
TEXT
  5
AD50
  8
0
  6
CONTINUOUS
 62
     7
 10
8928.650673137603
 20
9469.1900499999992
 30
0.0
 40
160.0
  1
6271.5
  0
TEXT
  5
AD51
  8
0
  6
CONTINUOUS
 62
     7
 10
12654.400673137599
 20
9469.1900499999992
 30
0.0
 40
160.0
  1
150
  0
TEXT
  5
AD52
  8
0
  6
CONTINUOUS
 62
     7
 10
8926.9840064709333
 20
9869.1883999999955
 30
0.0
 40
160.0
  1
6601.5
  0
TEXT
  5
AD58
  8
0
  6
CONTINUOUS
 62
     7
 10
28138.854152953791
 20
14695.73571100001
 30
0.0
 40
160.0
  1
3268.5
 50
90.0
  0
TEXT
  5
AD59
  8
0
  6
CONTINUOUS
 62
     7
 10
28138.854152953791
 20
17922.319044333341
 30
0.0
 40
160.0
  1
2918
 50
90.0
  0
TEXT
  5
AD5A
  8
0
  6
CONTINUOUS
 62
     7
 10
27141.932456585138
 20
20570.484918999991
 30
0.0
 40
160.0
  1
42.5
  0
TEXT
  5
AD5B
  8
0
  6
CONTINUOUS
 62
     7
 10
26463.83648958517
 20
20589.828775000002
 30
0.0
 40
160.0
  1
42.5
  0
TEXT
  5
AD5C
  8
0
  6
CONTINUOUS
 62
     7
 10
20275.343861918482
 20
20970.486634999979
 30
0.0
 40
160.0
  1
2918
  0
TEXT
  5
AD5D
  8
0
  6
CONTINUOUS
 62
     7
 10
24247.677195251821
 20
20970.486634999979
 30
0.0
 40
160.0
  1
5000
  0
TEXT
  5
AD61
  8
0
  6
CONTINUOUS
 62
     7
 10
18545.83648958517
 20
20589.828775000002
 30
0.0
 40
160.0
  1
42.5
  0
TEXT
  5
AD62
  8
0
  6
CONTINUOUS
 62
     7
 10
19248.67719525181
 20
20570.486634999979
 30
0.0
 40
160.0
  1
758
  0
TEXT
  5
AD63
  8
0
  6
CONTINUOUS
 62
     7
 10
20018.177195251821
 20
20570.486634999979
 30
0.0
 40
160.0
  1
701
  0
TEXT
  5
AD64
  8
0
  6
CONTINUOUS
 62
     7
 10
20719.177195251821
 20
20570.486634999979
 30
0.0
 40
160.0
  1
701
  0
TEXT
  5
AD65
  8
0
  6
CONTINUOUS
 62
     7
 10
21408.677195251828
 20
20570.486634999979
 30
0.0
 40
160.0
  1
758
  0
TEXT
  5
AD66
  8
0
  6
CONTINUOUS
 62
     7
 10
22141.932456585138
 20
20570.486634999979
 30
0.0
 40
160.0
  1
42.5
  0
TEXT
  5
AD70
  8
0
  6
CONTINUOUS
 62
     7
 10
8190.0766542700421
 20
12058.98564499999
 30
0.0
 40
160.0
  1
ケラバ外寸8089
  0
TEXT
  5
AD71
  8
0
  6
CONTINUOUS
 62
     7
 10
4410.5961769367204
 20
20570.484918999991
 30
0.0
 40
160.0
  1
85.5
  0
TEXT
  5
AD72
  8
0
  6
CONTINUOUS
 62
     7
 10
6178.0766542700412
 20
20570.486634999979
 30
0.0
 40
160.0
  1
2918
  0
TEXT
  5
AD73
  8
0
  6
CONTINUOUS
 62
     7
 10
10150.409987603371
 20
20570.486634999979
 30
0.0
 40
160.0
  1
5000
  0
TEXT
  5
AD74
  8
0
  6
CONTINUOUS
 62
     7
 10
13050.09110893672
 20
20570.484918999991
 30
0.0
 40
160.0
  1
85.5
  0
TEXT
  5
AD75
  8
0
  6
CONTINUOUS
 62
     7
 10
4376.2436109367191
 20
20041.914439666671
 30
0.0
 40
160.0
  1
10
 50
90.0
  0
TEXT
  5
AD76
  8
0
  6
CONTINUOUS
 62
     7
 10
3976.243544936719
 20
19948.967233389241
 30
0.0
 40
160.0
  1
222.5
 50
90.0
  0
TEXT
  5
AD77
  8
0
  6
CONTINUOUS
 62
     7
 10
3976.2435449367158
 20
17922.319044333319
 30
0.0
 40
160.0
  1
2918
 50
90.0
  0
TEXT
  5
AD78
  8
0
  6
CONTINUOUS
 62
     7
 10
3976.243544936714
 20
14695.73571099999
 30
0.0
 40
160.0
  1
3268.5
 50
90.0
  0
TEXT
  5
AD79
  8
0
  6
CONTINUOUS
 62
     7
 10
3976.2435449367031
 20
12604.99680859056
 30
0.0
 40
160.0
  1
192.5
 50
90.0
  0
ARC
  5
AD7A
  8
0
  6
BYBLOCK
 62
     0
 10
4056.2435449367149
 20
13461.485710999999
 30
0.0
 40
15.0
 50
270.0
 51
90.0
  0
ARC
  5
AD7B
  8
0
  6
BYBLOCK
 62
     0
 10
4056.2435449367149
 20
13461.485710999999
 30
0.0
 40
15.0
 50
90.0
 51
270.0
  0
ARC
  5
AD7C
  8
0
  6
BYBLOCK
 62
     0
 10
4056.243544936714
 20
13268.986437
 30
0.0
 40
15.0
 50
90.0
 51
270.0
  0
ARC
  5
AD7D
  8
0
  6
BYBLOCK
 62
     0
 10
4056.243544936714
 20
13268.986437
 30
0.0
 40
15.0
 50
270.0
 51
90.0
  0
ARC
  5
AD7E
  8
0
  6
BYBLOCK
 62
     0
 10
4056.2435449367149
 20
16729.985711000001
 30
0.0
 40
15.0
 50
270.0
 51
90.0
  0
ARC
  5
AD7F
  8
0
  6
BYBLOCK
 62
     0
 10
4056.2435449367149
 20
16729.985711000001
 30
0.0
 40
15.0
 50
90.0
 51
270.0
  0
ARC
  5
AD80
  8
0
  6
BYBLOCK
 62
     0
 10
4056.243544936714
 20
13461.485710999999
 30
0.0
 40
15.0
 50
90.0
 51
270.0
  0
ARC
  5
AD81
  8
0
  6
BYBLOCK
 62
     0
 10
4056.243544936714
 20
13461.485710999999
 30
0.0
 40
15.0
 50
270.0
 51
90.0
  0
ARC
  5
AD82
  8
0
  6
BYBLOCK
 62
     0
 10
4056.243544936719
 20
19647.985711000001
 30
0.0
 40
15.0
 50
270.0
 51
90.0
  0
ARC
  5
AD83
  8
0
  6
BYBLOCK
 62
     0
 10
4056.243544936719
 20
19647.985711000001
 30
0.0
 40
15.0
 50
90.0
 51
270.0
  0
ARC
  5
AD84
  8
0
  6
BYBLOCK
 62
     0
 10
4056.243544936719
 20
16729.985711000001
 30
0.0
 40
15.0
 50
90.0
 51
270.0
  0
ARC
  5
AD85
  8
0
  6
BYBLOCK
 62
     0
 10
4056.243544936719
 20
16729.985711000001
 30
0.0
 40
15.0
 50
270.0
 51
90.0
  0
ARC
  5
AD86
  8
0
  6
BYBLOCK
 62
     0
 10
4056.243544936719
 20
19647.985711000001
 30
0.0
 40
15.0
 50
90.0
 51
270.0
  0
ARC
  5
AD87
  8
0
  6
BYBLOCK
 62
     0
 10
4056.243544936719
 20
19647.985711000001
 30
0.0
 40
15.0
 50
270.0
 51
90.0
  0
ARC
  5
AD88
  8
0
  6
BYBLOCK
 62
     0
 10
4056.243544936719
 20
19870.485579
 30
0.0
 40
15.0
 50
270.0
 51
90.0
  0
ARC
  5
AD89
  8
0
  6
BYBLOCK
 62
     0
 10
4056.243544936719
 20
19870.485579
 30
0.0
 40
15.0
 50
90.0
 51
270.0
  0
ARC
  5
AD8A
  8
0
  6
BYBLOCK
 62
     0
 10
4456.2428859367174
 20
19860.48900999999
 30
0.0
 40
15.0
 50
270.0
 51
90.0
  0
ARC
  5
AD8B
  8
0
  6
BYBLOCK
 62
     0
 10
4456.2428859367174
 20
19860.48900999999
 30
0.0
 40
15.0
 50
90.0
 51
270.0
  0
ARC
  5
AD8C
  8
0
  6
BYBLOCK
 62
     0
 10
4456.2428859367174
 20
19870.485579
 30
0.0
 40
15.0
 50
90.0
 51
270.0
  0
ARC
  5
AD8D
  8
0
  6
BYBLOCK
 62
     0
 10
4456.2428859367174
 20
19870.485579
 30
0.0
 40
15.0
 50
270.0
 51
90.0
  0
ARC
  5
AD8E
  8
0
  6
BYBLOCK
 62
     0
 10
12903.743320936699
 20
20490.486634999979
 30
0.0
 40
15.0
 50
180.0
 51
0.0
  0
ARC
  5
AD8F
  8
0
  6
BYBLOCK
 62
     0
 10
12903.743320936699
 20
20490.486634999979
 30
0.0
 40
15.0
 50
0.0
 51
180.0
  0
ARC
  5
AD90
  8
0
  6
BYBLOCK
 62
     0
 10
12989.243320936699
 20
20490.486634999979
 30
0.0
 40
15.0
 50
0.0
 51
180.0
  0
ARC
  5
AD91
  8
0
  6
BYBLOCK
 62
     0
 10
12989.243320936699
 20
20490.486634999979
 30
0.0
 40
15.0
 50
180.0
 51
0.0
  0
ARC
  5
AD92
  8
0
  6
BYBLOCK
 62
     0
 10
7903.7433209367064
 20
20490.486634999979
 30
0.0
 40
15.0
 50
0.0
 51
180.0
  0
ARC
  5
AD93
  8
0
  6
BYBLOCK
 62
     0
 10
7903.7433209367064
 20
20490.486634999979
 30
0.0
 40
15.0
 50
180.0
 51
0.0
  0
ARC
  5
AD94
  8
0
  6
BYBLOCK
 62
     0
 10
12903.743320936699
 20
20490.486634999979
 30
0.0
 40
15.0
 50
180.0
 51
0.0
  0
ARC
  5
AD95
  8
0
  6
BYBLOCK
 62
     0
 10
12903.743320936699
 20
20490.486634999979
 30
0.0
 40
15.0
 50
0.0
 51
180.0
  0
ARC
  5
AD96
  8
0
  6
BYBLOCK
 62
     0
 10
4985.7433209367082
 20
20490.486634999979
 30
0.0
 40
15.0
 50
0.0
 51
180.0
  0
ARC
  5
AD97
  8
0
  6
BYBLOCK
 62
     0
 10
4985.7433209367082
 20
20490.486634999979
 30
0.0
 40
15.0
 50
180.0
 51
0.0
  0
ARC
  5
AD98
  8
0
  6
BYBLOCK
 62
     0
 10
7903.7433209367064
 20
20490.486634999979
 30
0.0
 40
15.0
 50
180.0
 51
0.0
  0
ARC
  5
AD99
  8
0
  6
BYBLOCK
 62
     0
 10
7903.7433209367064
 20
20490.486634999979
 30
0.0
 40
15.0
 50
0.0
 51
180.0
  0
ARC
  5
AD9A
  8
0
  6
BYBLOCK
 62
     0
 10
4985.7433209367082
 20
20490.486634999979
 30
0.0
 40
15.0
 50
0.0
 51
180.0
  0
ARC
  5
AD9B
  8
0
  6
BYBLOCK
 62
     0
 10
4985.7433209367082
 20
20490.486634999979
 30
0.0
 40
15.0
 50
180.0
 51
0.0
  0
ARC
  5
AD9C
  8
0
  6
BYBLOCK
 62
     0
 10
4900.2433209367091
 20
20490.486634999979
 30
0.0
 40
15.0
 50
180.0
 51
0.0
  0
ARC
  5
AD9D
  8
0
  6
BYBLOCK
 62
     0
 10
4900.2433209367091
 20
20490.486634999979
 30
0.0
 40
15.0
 50
0.0
 51
180.0
  0
ARC
  5
AD9E
  8
0
  6
BYBLOCK
 62
     0
 10
4900.2433209367091
 20
11978.98564499999
 30
0.0
 40
15.0
 50
0.0
 51
180.0
  0
ARC
  5
AD9F
  8
0
  6
BYBLOCK
 62
     0
 10
4900.2433209367091
 20
11978.98564499999
 30
0.0
 40
15.0
 50
180.0
 51
0.0
  0
ARC
  5
ADA0
  8
0
  6
BYBLOCK
 62
     0
 10
12989.243320936699
 20
11978.98564499999
 30
0.0
 40
15.0
 50
180.0
 51
0.0
  0
ARC
  5
ADA1
  8
0
  6
BYBLOCK
 62
     0
 10
12989.243320936699
 20
11978.98564499999
 30
0.0
 40
15.0
 50
0.0
 51
180.0
  0
ARC
  5
ADC6
  8
0
  6
BYBLOCK
 62
     0
 10
22001.010528585161
 20
20490.486634999979
 30
0.0
 40
15.0
 50
180.0
 51
0.0
  0
ARC
  5
ADC7
  8
0
  6
BYBLOCK
 62
     0
 10
22001.010528585161
 20
20490.486634999979
 30
0.0
 40
15.0
 50
0.0
 51
180.0
  0
ARC
  5
ADC8
  8
0
  6
BYBLOCK
 62
     0
 10
22043.510528585171
 20
20490.486634999979
 30
0.0
 40
15.0
 50
0.0
 51
180.0
  0
ARC
  5
ADC9
  8
0
  6
BYBLOCK
 62
     0
 10
22043.510528585171
 20
20490.486634999979
 30
0.0
 40
15.0
 50
180.0
 51
0.0
  0
ARC
  5
ADCA
  8
0
  6
BYBLOCK
 62
     0
 10
21243.010528585161
 20
20490.486634999979
 30
0.0
 40
15.0
 50
0.0
 51
180.0
  0
ARC
  5
ADCB
  8
0
  6
BYBLOCK
 62
     0
 10
21243.010528585161
 20
20490.486634999979
 30
0.0
 40
15.0
 50
180.0
 51
0.0
  0
ARC
  5
ADCC
  8
0
  6
BYBLOCK
 62
     0
 10
22001.010528585161
 20
20490.486634999979
 30
0.0
 40
15.0
 50
180.0
 51
0.0
  0
ARC
  5
ADCD
  8
0
  6
BYBLOCK
 62
     0
 10
22001.010528585161
 20
20490.486634999979
 30
0.0
 40
15.0
 50
0.0
 51
180.0
  0
ARC
  5
ADCE
  8
0
  6
BYBLOCK
 62
     0
 10
20542.010528585161
 20
20490.486634999979
 30
0.0
 40
15.0
 50
0.0
 51
180.0
  0
ARC
  5
ADCF
  8
0
  6
BYBLOCK
 62
     0
 10
20542.010528585161
 20
20490.486634999979
 30
0.0
 40
15.0
 50
180.0
 51
0.0
  0
ARC
  5
ADD0
  8
0
  6
BYBLOCK
 62
     0
 10
21243.010528585161
 20
20490.486634999979
 30
0.0
 40
15.0
 50
180.0
 51
0.0
  0
ARC
  5
ADD1
  8
0
  6
BYBLOCK
 62
     0
 10
21243.010528585161
 20
20490.486634999979
 30
0.0
 40
15.0
 50
0.0
 51
180.0
  0
ARC
  5
ADD2
  8
0
  6
BYBLOCK
 62
     0
 10
19841.010528585161
 20
20490.486634999979
 30
0.0
 40
15.0
 50
0.0
 51
180.0
  0
ARC
  5
ADD3
  8
0
  6
BYBLOCK
 62
     0
 10
19841.010528585161
 20
20490.486634999979
 30
0.0
 40
15.0
 50
180.0
 51
0.0
  0
ARC
  5
ADD4
  8
0
  6
BYBLOCK
 62
     0
 10
20542.010528585161
 20
20490.486634999979
 30
0.0
 40
15.0
 50
180.0
 51
0.0
  0
ARC
  5
ADD5
  8
0
  6
BYBLOCK
 62
     0
 10
20542.010528585161
 20
20490.486634999979
 30
0.0
 40
15.0
 50
0.0
 51
180.0
  0
ARC
  5
ADD6
  8
0
  6
BYBLOCK
 62
     0
 10
19083.01052858515
 20
20490.486634999979
 30
0.0
 40
15.0
 50
0.0
 51
180.0
  0
ARC
  5
ADD7
  8
0
  6
BYBLOCK
 62
     0
 10
19083.01052858515
 20
20490.486634999979
 30
0.0
 40
15.0
 50
180.0
 51
0.0
  0
ARC
  5
ADD8
  8
0
  6
BYBLOCK
 62
     0
 10
19841.010528585161
 20
20490.486634999979
 30
0.0
 40
15.0
 50
180.0
 51
0.0
  0
ARC
  5
ADD9
  8
0
  6
BYBLOCK
 62
     0
 10
19841.010528585161
 20
20490.486634999979
 30
0.0
 40
15.0
 50
0.0
 51
180.0
  0
ARC
  5
ADDA
  8
0
  6
BYBLOCK
 62
     0
 10
19083.01052858515
 20
20490.486634999979
 30
0.0
 40
15.0
 50
0.0
 51
180.0
  0
ARC
  5
ADDB
  8
0
  6
BYBLOCK
 62
     0
 10
19083.01052858515
 20
20490.486634999979
 30
0.0
 40
15.0
 50
180.0
 51
0.0
  0
ARC
  5
ADDC
  8
0
  6
BYBLOCK
 62
     0
 10
19040.51052858515
 20
20490.486634999979
 30
0.0
 40
15.0
 50
180.0
 51
0.0
  0
ARC
  5
ADDD
  8
0
  6
BYBLOCK
 62
     0
 10
19040.51052858515
 20
20490.486634999979
 30
0.0
 40
15.0
 50
0.0
 51
180.0
  0
ARC
  5
ADEA
  8
0
  6
BYBLOCK
 62
     0
 10
22001.010528585161
 20
20890.486634999979
 30
0.0
 40
15.0
 50
0.0
 51
180.0
  0
ARC
  5
ADEB
  8
0
  6
BYBLOCK
 62
     0
 10
22001.010528585161
 20
20890.486634999979
 30
0.0
 40
15.0
 50
180.0
 51
0.0
  0
ARC
  5
ADEC
  8
0
  6
BYBLOCK
 62
     0
 10
27001.010528585161
 20
20890.486634999979
 30
0.0
 40
15.0
 50
180.0
 51
0.0
  0
ARC
  5
ADED
  8
0
  6
BYBLOCK
 62
     0
 10
27001.010528585161
 20
20890.486634999979
 30
0.0
 40
15.0
 50
0.0
 51
180.0
  0
ARC
  5
ADEE
  8
0
  6
BYBLOCK
 62
     0
 10
19083.01052858515
 20
20890.486634999979
 30
0.0
 40
15.0
 50
0.0
 51
180.0
  0
ARC
  5
ADEF
  8
0
  6
BYBLOCK
 62
     0
 10
19083.01052858515
 20
20890.486634999979
 30
0.0
 40
15.0
 50
180.0
 51
0.0
  0
ARC
  5
ADF0
  8
0
  6
BYBLOCK
 62
     0
 10
22001.010528585161
 20
20890.486634999979
 30
0.0
 40
15.0
 50
180.0
 51
0.0
  0
ARC
  5
ADF1
  8
0
  6
BYBLOCK
 62
     0
 10
22001.010528585161
 20
20890.486634999979
 30
0.0
 40
15.0
 50
0.0
 51
180.0
  0
ARC
  5
ADF2
  8
0
  6
BYBLOCK
 62
     0
 10
27001.010528585161
 20
20490.486634999979
 30
0.0
 40
15.0
 50
0.0
 51
180.0
  0
ARC
  5
ADF3
  8
0
  6
BYBLOCK
 62
     0
 10
27001.010528585161
 20
20490.486634999979
 30
0.0
 40
15.0
 50
180.0
 51
0.0
  0
ARC
  5
ADF4
  8
0
  6
BYBLOCK
 62
     0
 10
26958.508285585162
 20
20490.486634999979
 30
0.0
 40
15.0
 50
180.0
 51
0.0
  0
ARC
  5
ADF5
  8
0
  6
BYBLOCK
 62
     0
 10
26958.508285585162
 20
20490.486634999979
 30
0.0
 40
15.0
 50
0.0
 51
180.0
  0
ARC
  5
ADF6
  8
0
  6
BYBLOCK
 62
     0
 10
27001.010528585161
 20
20490.486634999979
 30
0.0
 40
15.0
 50
180.0
 51
0.0
  0
ARC
  5
ADF7
  8
0
  6
BYBLOCK
 62
     0
 10
27001.010528585161
 20
20490.486634999979
 30
0.0
 40
15.0
 50
0.0
 51
180.0
  0
ARC
  5
ADF8
  8
0
  6
BYBLOCK
 62
     0
 10
27043.508813585158
 20
20490.486634999979
 30
0.0
 40
15.0
 50
0.0
 51
180.0
  0
ARC
  5
ADF9
  8
0
  6
BYBLOCK
 62
     0
 10
27043.508813585158
 20
20490.486634999979
 30
0.0
 40
15.0
 50
180.0
 51
0.0
  0
ARC
  5
ADFA
  8
0
  6
BYBLOCK
 62
     0
 10
28218.854152953791
 20
16729.985711000001
 30
0.0
 40
15.0
 50
90.0
 51
270.0
  0
ARC
  5
ADFB
  8
0
  6
BYBLOCK
 62
     0
 10
28218.854152953791
 20
16729.985711000001
 30
0.0
 40
15.0
 50
270.0
 51
90.0
  0
ARC
  5
ADFC
  8
0
  6
BYBLOCK
 62
     0
 10
28218.854152953791
 20
19647.985711000001
 30
0.0
 40
15.0
 50
270.0
 51
90.0
  0
ARC
  5
ADFD
  8
0
  6
BYBLOCK
 62
     0
 10
28218.854152953791
 20
19647.985711000001
 30
0.0
 40
15.0
 50
90.0
 51
270.0
  0
ARC
  5
ADFE
  8
0
  6
BYBLOCK
 62
     0
 10
28218.854152953791
 20
13461.485710999999
 30
0.0
 40
15.0
 50
90.0
 51
270.0
  0
ARC
  5
ADFF
  8
0
  6
BYBLOCK
 62
     0
 10
28218.854152953791
 20
13461.485710999999
 30
0.0
 40
15.0
 50
270.0
 51
90.0
  0
ARC
  5
AE00
  8
0
  6
BYBLOCK
 62
     0
 10
28218.854152953791
 20
16729.985711000001
 30
0.0
 40
15.0
 50
270.0
 51
90.0
  0
ARC
  5
AE01
  8
0
  6
BYBLOCK
 62
     0
 10
28218.854152953791
 20
16729.985711000001
 30
0.0
 40
15.0
 50
90.0
 51
270.0
  0
ARC
  5
AE16
  8
0
  6
BYBLOCK
 62
     0
 10
5986.2340064709351
 20
9789.1883999999955
 30
0.0
 40
15.0
 50
0.0
 51
180.0
  0
ARC
  5
AE17
  8
0
  6
BYBLOCK
 62
     0
 10
5986.2340064709351
 20
9789.1883999999955
 30
0.0
 40
15.0
 50
180.0
 51
0.0
  0
ARC
  5
AE18
  8
0
  6
BYBLOCK
 62
     0
 10
12587.734006470921
 20
9789.1883999999955
 30
0.0
 40
15.0
 50
180.0
 51
0.0
  0
ARC
  5
AE19
  8
0
  6
BYBLOCK
 62
     0
 10
12587.734006470921
 20
9789.1883999999955
 30
0.0
 40
15.0
 50
0.0
 51
180.0
  0
ARC
  5
AE1A
  8
0
  6
BYBLOCK
 62
     0
 10
12437.73400647093
 20
9389.1900499999992
 30
0.0
 40
15.0
 50
180.0
 51
0.0
  0
ARC
  5
AE1B
  8
0
  6
BYBLOCK
 62
     0
 10
12437.73400647093
 20
9389.1900499999992
 30
0.0
 40
15.0
 50
0.0
 51
180.0
  0
ARC
  5
AE1C
  8
0
  6
BYBLOCK
 62
     0
 10
12587.734006470921
 20
9389.1900499999992
 30
0.0
 40
15.0
 50
0.0
 51
180.0
  0
ARC
  5
AE1D
  8
0
  6
BYBLOCK
 62
     0
 10
12587.734006470921
 20
9389.1900499999992
 30
0.0
 40
15.0
 50
180.0
 51
0.0
  0
ARC
  5
AE1E
  8
0
  6
BYBLOCK
 62
     0
 10
6166.234006470936
 20
9389.1900499999992
 30
0.0
 40
15.0
 50
0.0
 51
180.0
  0
ARC
  5
AE1F
  8
0
  6
BYBLOCK
 62
     0
 10
6166.234006470936
 20
9389.1900499999992
 30
0.0
 40
15.0
 50
180.0
 51
0.0
  0
ARC
  5
AE20
  8
0
  6
BYBLOCK
 62
     0
 10
12437.73400647093
 20
9389.1900499999992
 30
0.0
 40
15.0
 50
180.0
 51
0.0
  0
ARC
  5
AE21
  8
0
  6
BYBLOCK
 62
     0
 10
12437.73400647093
 20
9389.1900499999992
 30
0.0
 40
15.0
 50
0.0
 51
180.0
  0
ARC
  5
AE22
  8
0
  6
BYBLOCK
 62
     0
 10
5986.2340064709351
 20
9389.1900499999992
 30
0.0
 40
15.0
 50
0.0
 51
180.0
  0
ARC
  5
AE23
  8
0
  6
BYBLOCK
 62
     0
 10
5986.2340064709351
 20
9389.1900499999992
 30
0.0
 40
15.0
 50
180.0
 51
0.0
  0
ARC
  5
AE24
  8
0
  6
BYBLOCK
 62
     0
 10
6166.234006470936
 20
9389.1900499999992
 30
0.0
 40
15.0
 50
180.0
 51
0.0
  0
ARC
  5
AE25
  8
0
  6
BYBLOCK
 62
     0
 10
6166.234006470936
 20
9389.1900499999992
 30
0.0
 40
15.0
 50
0.0
 51
180.0
  0
ARC
  5
AE26
  8
0
  6
BYBLOCK
 62
     0
 10
13527.73440247092
 20
6241.1883740000012
 30
0.0
 40
15.0
 50
90.0
 51
270.0
  0
ARC
  5
AE27
  8
0
  6
BYBLOCK
 62
     0
 10
13527.73440247092
 20
6241.1883740000012
 30
0.0
 40
15.0
 50
270.0
 51
90.0
  0
ARC
  5
AE28
  8
0
  6
BYBLOCK
 62
     0
 10
13527.73440247092
 20
8589.1883739999994
 30
0.0
 40
15.0
 50
270.0
 51
90.0
  0
ARC
  5
AE29
  8
0
  6
BYBLOCK
 62
     0
 10
13527.73440247092
 20
8589.1883739999994
 30
0.0
 40
15.0
 50
90.0
 51
270.0
  0
ARC
  5
AE2A
  8
0
  6
BYBLOCK
 62
     0
 10
5076.2336104709384
 20
6241.1883740000012
 30
0.0
 40
15.0
 50
90.0
 51
270.0
  0
ARC
  5
AE2B
  8
0
  6
BYBLOCK
 62
     0
 10
5076.2336104709384
 20
6241.1883740000012
 30
0.0
 40
15.0
 50
270.0
 51
90.0
  0
ARC
  5
AE2C
  8
0
  6
BYBLOCK
 62
     0
 10
5076.2336104709384
 20
8398.188374000003
 30
0.0
 40
15.0
 50
270.0
 51
90.0
  0
ARC
  5
AE2D
  8
0
  6
BYBLOCK
 62
     0
 10
5076.2336104709384
 20
8398.188374000003
 30
0.0
 40
15.0
 50
90.0
 51
270.0
  0
ARC
  5
AE2E
  8
0
  6
BYBLOCK
 62
     0
 10
6166.234006470936
 20
4541.1887040000011
 30
0.0
 40
15.0
 50
0.0
 51
180.0
  0
ARC
  5
AE2F
  8
0
  6
BYBLOCK
 62
     0
 10
6166.234006470936
 20
4541.1887040000011
 30
0.0
 40
15.0
 50
180.0
 51
0.0
  0
ARC
  5
AE30
  8
0
  6
BYBLOCK
 62
     0
 10
12437.73400647093
 20
4541.1887040000011
 30
0.0
 40
15.0
 50
180.0
 51
0.0
  0
ARC
  5
AE31
  8
0
  6
BYBLOCK
 62
     0
 10
12437.73400647093
 20
4541.1887040000011
 30
0.0
 40
15.0
 50
0.0
 51
180.0
  0
ARC
  5
AE32
  8
0
  6
BYBLOCK
 62
     0
 10
12395.234006470921
 20
4941.1885390000016
 30
0.0
 40
15.0
 50
180.0
 51
0.0
  0
ARC
  5
AE33
  8
0
  6
BYBLOCK
 62
     0
 10
12395.234006470921
 20
4941.1885390000016
 30
0.0
 40
15.0
 50
0.0
 51
180.0
  0
ARC
  5
AE34
  8
0
  6
BYBLOCK
 62
     0
 10
12437.73400647093
 20
4941.1885390000016
 30
0.0
 40
15.0
 50
0.0
 51
180.0
  0
ARC
  5
AE35
  8
0
  6
BYBLOCK
 62
     0
 10
12437.73400647093
 20
4941.1885390000016
 30
0.0
 40
15.0
 50
180.0
 51
0.0
  0
ARC
  5
AE36
  8
0
  6
BYBLOCK
 62
     0
 10
6208.7340064709351
 20
4941.1885390000016
 30
0.0
 40
15.0
 50
0.0
 51
180.0
  0
ARC
  5
AE37
  8
0
  6
BYBLOCK
 62
     0
 10
6208.7340064709351
 20
4941.1885390000016
 30
0.0
 40
15.0
 50
180.0
 51
0.0
  0
ARC
  5
AE38
  8
0
  6
BYBLOCK
 62
     0
 10
6166.234006470936
 20
4941.1885390000016
 30
0.0
 40
15.0
 50
180.0
 51
0.0
  0
ARC
  5
AE39
  8
0
  6
BYBLOCK
 62
     0
 10
6166.234006470936
 20
4941.1885390000016
 30
0.0
 40
15.0
 50
0.0
 51
180.0
  0
ARC
  5
AE3A
  8
0
  6
BYBLOCK
 62
     0
 10
9126.7340064709388
 20
4941.1885390000016
 30
0.0
 40
15.0
 50
180.0
 51
0.0
  0
ARC
  5
AE3B
  8
0
  6
BYBLOCK
 62
     0
 10
9126.7340064709388
 20
4941.1885390000016
 30
0.0
 40
15.0
 50
0.0
 51
180.0
  0
ARC
  5
AE3C
  8
0
  6
BYBLOCK
 62
     0
 10
6208.7340064709351
 20
4941.1885390000016
 30
0.0
 40
15.0
 50
0.0
 51
180.0
  0
ARC
  5
AE3D
  8
0
  6
BYBLOCK
 62
     0
 10
6208.7340064709351
 20
4941.1885390000016
 30
0.0
 40
15.0
 50
180.0
 51
0.0
  0
ARC
  5
AE3E
  8
0
  6
BYBLOCK
 62
     0
 10
9126.7340064709388
 20
4941.1885390000016
 30
0.0
 40
15.0
 50
0.0
 51
180.0
  0
ARC
  5
AE3F
  8
0
  6
BYBLOCK
 62
     0
 10
9126.7340064709388
 20
4941.1885390000016
 30
0.0
 40
15.0
 50
180.0
 51
0.0
  0
ARC
  5
AE40
  8
0
  6
BYBLOCK
 62
     0
 10
12395.234006470921
 20
4941.1885390000016
 30
0.0
 40
15.0
 50
180.0
 51
0.0
  0
ARC
  5
AE41
  8
0
  6
BYBLOCK
 62
     0
 10
12395.234006470921
 20
4941.1885390000016
 30
0.0
 40
15.0
 50
0.0
 51
180.0
  0
ARC
  5
AE42
  8
0
  6
BYBLOCK
 62
     0
 10
18997.51052858515
 20
9789.1329740000037
 30
0.0
 40
15.0
 50
0.0
 51
180.0
  0
ARC
  5
AE43
  8
0
  6
BYBLOCK
 62
     0
 10
18997.51052858515
 20
9789.1329740000037
 30
0.0
 40
15.0
 50
180.0
 51
0.0
  0
ARC
  5
AE44
  8
0
  6
BYBLOCK
 62
     0
 10
27086.510528585161
 20
9789.1329740000037
 30
0.0
 40
15.0
 50
180.0
 51
0.0
  0
ARC
  5
AE45
  8
0
  6
BYBLOCK
 62
     0
 10
27086.510528585161
 20
9789.1329740000037
 30
0.0
 40
15.0
 50
0.0
 51
180.0
  0
ARC
  5
AE46
  8
0
  6
BYBLOCK
 62
     0
 10
27043.510528585171
 20
9389.1900499999992
 30
0.0
 40
15.0
 50
180.0
 51
0.0
  0
ARC
  5
AE47
  8
0
  6
BYBLOCK
 62
     0
 10
27043.510528585171
 20
9389.1900499999992
 30
0.0
 40
15.0
 50
0.0
 51
180.0
  0
ARC
  5
AE48
  8
0
  6
BYBLOCK
 62
     0
 10
27086.510528585161
 20
9389.1900499999992
 30
0.0
 40
15.0
 50
0.0
 51
180.0
  0
ARC
  5
AE49
  8
0
  6
BYBLOCK
 62
     0
 10
27086.510528585161
 20
9389.1900499999992
 30
0.0
 40
15.0
 50
180.0
 51
0.0
  0
ARC
  5
AE4A
  8
0
  6
BYBLOCK
 62
     0
 10
19040.51052858515
 20
9389.1900499999992
 30
0.0
 40
15.0
 50
0.0
 51
180.0
  0
ARC
  5
AE4B
  8
0
  6
BYBLOCK
 62
     0
 10
19040.51052858515
 20
9389.1900499999992
 30
0.0
 40
15.0
 50
180.0
 51
0.0
  0
ARC
  5
AE4C
  8
0
  6
BYBLOCK
 62
     0
 10
18997.51052858515
 20
9389.1900499999992
 30
0.0
 40
15.0
 50
180.0
 51
0.0
  0
ARC
  5
AE4D
  8
0
  6
BYBLOCK
 62
     0
 10
18997.51052858515
 20
9389.1900499999992
 30
0.0
 40
15.0
 50
0.0
 51
180.0
  0
ARC
  5
AE4E
  8
0
  6
BYBLOCK
 62
     0
 10
22043.510528585161
 20
9389.1900499999992
 30
0.0
 40
15.0
 50
180.0
 51
0.0
  0
ARC
  5
AE4F
  8
0
  6
BYBLOCK
 62
     0
 10
22043.510528585161
 20
9389.1900499999992
 30
0.0
 40
15.0
 50
0.0
 51
180.0
  0
ARC
  5
AE50
  8
0
  6
BYBLOCK
 62
     0
 10
19040.51052858515
 20
9389.1900499999992
 30
0.0
 40
15.0
 50
0.0
 51
180.0
  0
ARC
  5
AE51
  8
0
  6
BYBLOCK
 62
     0
 10
19040.51052858515
 20
9389.1900499999992
 30
0.0
 40
15.0
 50
180.0
 51
0.0
  0
ARC
  5
AE52
  8
0
  6
BYBLOCK
 62
     0
 10
17833.007889585151
 20
6241.1883740000021
 30
0.0
 40
15.0
 50
90.0
 51
270.0
  0
ARC
  5
AE53
  8
0
  6
BYBLOCK
 62
     0
 10
17833.007889585151
 20
6241.1883740000021
 30
0.0
 40
15.0
 50
270.0
 51
90.0
  0
ARC
  5
AE54
  8
0
  6
BYBLOCK
 62
     0
 10
17833.007889585151
 20
8589.1883999999973
 30
0.0
 40
15.0
 50
270.0
 51
90.0
  0
ARC
  5
AE55
  8
0
  6
BYBLOCK
 62
     0
 10
17833.007889585151
 20
8589.1883999999973
 30
0.0
 40
15.0
 50
90.0
 51
270.0
  0
ARC
  5
AE56
  8
0
  6
BYBLOCK
 62
     0
 10
18233.007229585161
 20
6241.1883740000021
 30
0.0
 40
15.0
 50
90.0
 51
270.0
  0
ARC
  5
AE57
  8
0
  6
BYBLOCK
 62
     0
 10
18233.007229585161
 20
6241.1883740000021
 30
0.0
 40
15.0
 50
270.0
 51
90.0
  0
ARC
  5
AE58
  8
0
  6
BYBLOCK
 62
     0
 10
18233.007229585161
 20
8132.6883740000021
 30
0.0
 40
15.0
 50
270.0
 51
90.0
  0
ARC
  5
AE59
  8
0
  6
BYBLOCK
 62
     0
 10
18233.007229585161
 20
8132.6883740000021
 30
0.0
 40
15.0
 50
90.0
 51
270.0
  0
ARC
  5
AE5A
  8
0
  6
BYBLOCK
 62
     0
 10
22046.510528585161
 20
5341.1883740000012
 30
0.0
 40
15.0
 50
0.0
 51
180.0
  0
ARC
  5
AE5B
  8
0
  6
BYBLOCK
 62
     0
 10
22046.510528585161
 20
5341.1883740000012
 30
0.0
 40
15.0
 50
180.0
 51
0.0
  0
ARC
  5
AE5C
  8
0
  6
BYBLOCK
 62
     0
 10
26958.510528585161
 20
5341.1883740000012
 30
0.0
 40
15.0
 50
180.0
 51
0.0
  0
ARC
  5
AE5D
  8
0
  6
BYBLOCK
 62
     0
 10
26958.510528585161
 20
5341.1883740000012
 30
0.0
 40
15.0
 50
0.0
 51
180.0
  0
ARC
  5
AE5E
  8
0
  6
BYBLOCK
 62
     0
 10
19040.550481532679
 20
4541.188704000052
 30
0.0
 40
15.0
 50
0.0
 51
180.0
  0
ARC
  5
AE5F
  8
0
  6
BYBLOCK
 62
     0
 10
19040.550481532679
 20
4541.188704000052
 30
0.0
 40
15.0
 50
180.0
 51
0.0
  0
ARC
  5
AE60
  8
0
  6
BYBLOCK
 62
     0
 10
27043.510528585161
 20
4541.188704000052
 30
0.0
 40
15.0
 50
180.0
 51
0.0
  0
ARC
  5
AE61
  8
0
  6
BYBLOCK
 62
     0
 10
27043.510528585161
 20
4541.188704000052
 30
0.0
 40
15.0
 50
0.0
 51
180.0
  0
ARC
  5
AE62
  8
0
  6
BYBLOCK
 62
     0
 10
19083.01052858515
 20
4941.1885390000016
 30
0.0
 40
15.0
 50
0.0
 51
180.0
  0
ARC
  5
AE63
  8
0
  6
BYBLOCK
 62
     0
 10
19083.01052858515
 20
4941.1885390000016
 30
0.0
 40
15.0
 50
180.0
 51
0.0
  0
ARC
  5
AE64
  8
0
  6
BYBLOCK
 62
     0
 10
19040.550481532679
 20
4941.1885390000016
 30
0.0
 40
15.0
 50
180.0
 51
0.0
  0
ARC
  5
AE65
  8
0
  6
BYBLOCK
 62
     0
 10
19040.550481532679
 20
4941.1885390000016
 30
0.0
 40
15.0
 50
0.0
 51
180.0
  0
ARC
  5
AE66
  8
0
  6
BYBLOCK
 62
     0
 10
22001.010528585161
 20
4941.1885390000016
 30
0.0
 40
15.0
 50
180.0
 51
0.0
  0
ARC
  5
AE67
  8
0
  6
BYBLOCK
 62
     0
 10
22001.010528585161
 20
4941.1885390000016
 30
0.0
 40
15.0
 50
0.0
 51
180.0
  0
ARC
  5
AE68
  8
0
  6
BYBLOCK
 62
     0
 10
19083.01052858515
 20
4941.1885390000016
 30
0.0
 40
15.0
 50
0.0
 51
180.0
  0
ARC
  5
AE69
  8
0
  6
BYBLOCK
 62
     0
 10
19083.01052858515
 20
4941.1885390000016
 30
0.0
 40
15.0
 50
180.0
 51
0.0
  0
ARC
  5
AE6A
  8
0
  6
BYBLOCK
 62
     0
 10
19177.010528585139
 20
5341.1883740000012
 30
0.0
 40
15.0
 50
0.0
 51
180.0
  0
ARC
  5
AE6B
  8
0
  6
BYBLOCK
 62
     0
 10
19177.010528585139
 20
5341.1883740000012
 30
0.0
 40
15.0
 50
180.0
 51
0.0
  0
ARC
  5
AE6C
  8
0
  6
BYBLOCK
 62
     0
 10
21907.010528585161
 20
5341.1883740000012
 30
0.0
 40
15.0
 50
180.0
 51
0.0
  0
ARC
  5
AE6D
  8
0
  6
BYBLOCK
 62
     0
 10
21907.010528585161
 20
5341.1883740000012
 30
0.0
 40
15.0
 50
0.0
 51
180.0
  0
ARC
  5
AE6E
  8
0
  6
BYBLOCK
 62
     0
 10
27001.010528585161
 20
4941.1885389999998
 30
0.0
 40
15.0
 50
180.0
 51
0.0
  0
ARC
  5
AE6F
  8
0
  6
BYBLOCK
 62
     0
 10
27001.010528585161
 20
4941.1885389999998
 30
0.0
 40
15.0
 50
0.0
 51
180.0
  0
ARC
  5
AE70
  8
0
  6
BYBLOCK
 62
     0
 10
27043.510528585161
 20
4941.1885389999998
 30
0.0
 40
15.0
 50
0.0
 51
180.0
  0
ARC
  5
AE71
  8
0
  6
BYBLOCK
 62
     0
 10
27043.510528585161
 20
4941.1885389999998
 30
0.0
 40
15.0
 50
180.0
 51
0.0
  0
ARC
  5
AE72
  8
0
  6
BYBLOCK
 62
     0
 10
22001.010528585161
 20
4941.1885389999998
 30
0.0
 40
15.0
 50
0.0
 51
180.0
  0
ARC
  5
AE73
  8
0
  6
BYBLOCK
 62
     0
 10
22001.010528585161
 20
4941.1885389999998
 30
0.0
 40
15.0
 50
180.0
 51
0.0
  0
ARC
  5
AE74
  8
0
  6
BYBLOCK
 62
     0
 10
27001.010528585161
 20
4941.1885389999998
 30
0.0
 40
15.0
 50
180.0
 51
0.0
  0
ARC
  5
AE75
  8
0
  6
BYBLOCK
 62
     0
 10
27001.010528585161
 20
4941.1885389999998
 30
0.0
 40
15.0
 50
0.0
 51
180.0
  0
ARC
  5
AE76
  8
0
  6
BYBLOCK
 62
     0
 10
22043.510528585161
 20
9389.1900499999992
 30
0.0
 40
15.0
 50
0.0
 51
180.0
  0
ARC
  5
AE77
  8
0
  6
BYBLOCK
 62
     0
 10
22043.510528585161
 20
9389.1900499999992
 30
0.0
 40
15.0
 50
180.0
 51
0.0
  0
ARC
  5
AE78
  8
0
  6
BYBLOCK
 62
     0
 10
27043.510528585171
 20
9389.1900499999992
 30
0.0
 40
15.0
 50
180.0
 51
0.0
  0
ARC
  5
AE79
  8
0
  6
BYBLOCK
 62
     0
 10
27043.510528585171
 20
9389.1900499999992
 30
0.0
 40
15.0
 50
0.0
 51
180.0
  0
ARC
  5
AE7A
  8
0
  6
BYBLOCK
 62
     0
 10
28253.332926879531
 20
6241.5026620000017
 30
0.0
 40
15.0
 50
90.0
 51
270.0
  0
ARC
  5
AE7B
  8
0
  6
BYBLOCK
 62
     0
 10
28253.332926879531
 20
6241.5026620000017
 30
0.0
 40
15.0
 50
270.0
 51
90.0
  0
ARC
  5
AE7C
  8
0
  6
BYBLOCK
 62
     0
 10
28253.332926879531
 20
8261.5026620000044
 30
0.0
 40
15.0
 50
270.0
 51
90.0
  0
ARC
  5
AE7D
  8
0
  6
BYBLOCK
 62
     0
 10
28253.332926879531
 20
8261.5026620000044
 30
0.0
 40
15.0
 50
90.0
 51
270.0
  0
TEXT
  5
AF54
  8
NAME
 10
21595.82616625919
 20
1076.6369801169251
 30
0.0
 40
360.0
  1
VGC-3062（H）+VKC-5062（H）型-R（単棟）
 41
0.45
  0
TEXT
  5
AF55
  8
NAME
 10
21933.552716389011
 20
1876.0
 30
0.0
 40
360.0
  1
ヨドガレージ ラヴィージュ
 41
0.75
  7
01
  0
LINE
  5
AF56
  8
NAME
  6
CONTINUOUS
 10
26067.886878884299
 20
2236.0
 30
0.0
 11
26067.886878884299
 21
1876.0
 31
0.0
  0
LINE
  5
AF57
  8
NAME
  6
CONTINUOUS
 10
26167.886878884299
 20
2236.0
 30
0.0
 11
26167.886878884299
 21
1876.0
 31
0.0
  0
LINE
  5
AF58
  8
NAME
  6
CONTINUOUS
 10
26267.88687888431
 20
2236.0
 30
0.0
 11
26267.88687888431
 21
1876.0
 31
0.0
  0
LINE
  5
AF59
  8
NAME
  6
CONTINUOUS
 10
26007.886878884299
 20
2236.0
 30
0.0
 11
26327.886878884299
 21
2236.0
 31
0.0
  0
LINE
  5
AF5A
  8
NAME
  6
CONTINUOUS
 10
26327.886878884299
 20
1876.0
 30
0.0
 11
26007.886878884299
 21
1876.0
 31
0.0
  0
LINE
  5
B1CB
  8
2-0
  6
CONTINUOUS
 62
     6
 10
19336.87586858515
 20
16834.012949999989
 30
0.0
 11
19641.571286585149
 21
16937.666481000018
 31
0.0
  0
LINE
  5
B1CC
  8
2-0
  6
CONTINUOUS
 62
     6
 10
19181.85382958519
 20
16344.390906000021
 30
0.0
 11
19641.571286585149
 21
16100.477595000009
 31
0.0
  0
LINE
  5
B1CD
  8
2-0
  6
CONTINUOUS
 62
     6
 10
20561.574321585162
 20
16100.477595000009
 30
0.0
 11
19641.571286585149
 21
16100.477595000009
 31
0.0
  0
LINE
  5
B1CE
  8
2-0
  6
CONTINUOUS
 62
     6
 10
20841.565348585162
 20
16937.666481000018
 30
0.0
 11
19641.571286585149
 21
16937.666481000018
 31
0.0
  0
LINE
  5
B1CF
  8
2-0
  6
CONTINUOUS
 62
     6
 10
19265.676544585149
 20
13613.588948999981
 30
0.0
 11
19641.571286585149
 21
13794.532784000001
 31
0.0
  0
LINE
  5
B1D0
  8
2-0
  6
CONTINUOUS
 62
     6
 10
20161.573002585152
 20
13794.532784000001
 30
0.0
 11
19641.571286585149
 21
13794.532784000001
 31
0.0
  0
LINE
  5
B1D1
  8
2-0
  6
CONTINUOUS
 62
     3
 10
19070.509868585141
 20
19581.483785000011
 30
0.0
 11
19070.509868585141
 21
19575.48782300001
 31
0.0
  0
LINE
  5
B1D2
  8
2-0
  6
CONTINUOUS
 62
     3
 10
19070.509868585141
 20
19575.48782300001
 30
0.0
 11
19040.512244585159
 21
19575.48782300001
 31
0.0
  0
LINE
  5
B1D3
  8
2-0
  6
CONTINUOUS
 62
     3
 10
19040.512244585159
 20
19605.487427
 30
0.0
 11
19121.514144585159
 21
19605.487427
 31
0.0
  0
LINE
  5
B1D4
  8
2-0
  6
CONTINUOUS
 62
     3
 10
19070.509868585141
 20
19565.190366999999
 30
0.0
 11
19040.512244585159
 21
19565.190366999999
 31
0.0
  0
LINE
  5
B1D5
  8
2-0
  6
CONTINUOUS
 62
     3
 10
19070.509868585141
 20
19583.192109
 30
0.0
 11
19070.509868585141
 21
19565.190366999999
 31
0.0
  0
LINE
  5
B1D6
  8
2-0
  6
CONTINUOUS
 62
     3
 10
19045.512508585161
 20
19583.192109
 30
0.0
 11
19070.509868585141
 21
19583.192109
 31
0.0
  0
LINE
  5
B1D7
  8
2-0
  6
CONTINUOUS
 62
     3
 10
19045.512508585161
 20
19578.183927000009
 30
0.0
 11
19045.512508585161
 21
19583.192109
 31
0.0
  0
LINE
  5
B1D8
  8
2-0
  6
CONTINUOUS
 62
     3
 10
19052.514065585139
 20
19578.183927000009
 30
0.0
 11
19045.512508585161
 21
19578.183927000009
 31
0.0
  0
LINE
  5
B1D9
  8
2-0
  6
CONTINUOUS
 62
     3
 10
19152.810333585148
 20
19678.48415400002
 30
0.0
 11
19152.810333585148
 21
19685.48967000001
 31
0.0
  0
LINE
  5
B1DA
  8
2-0
  6
CONTINUOUS
 62
     3
 10
19152.810333585148
 20
19685.48967000001
 30
0.0
 11
19147.810069585161
 21
19685.48967000001
 31
0.0
  0
LINE
  5
B1DB
  8
2-0
  6
CONTINUOUS
 62
     3
 10
19147.810069585161
 20
19685.48967000001
 30
0.0
 11
19147.810069585161
 21
19660.480433000001
 31
0.0
  0
LINE
  5
B1DC
  8
2-0
  6
CONTINUOUS
 62
     3
 10
19147.810069585161
 20
19660.480433000001
 30
0.0
 11
19165.811811585168
 21
19660.480433000001
 31
0.0
  0
LINE
  5
B1DD
  8
2-0
  6
CONTINUOUS
 62
     3
 10
19165.811811585168
 20
19660.480433000001
 30
0.0
 11
19165.811811585168
 21
19690.48399600001
 31
0.0
  0
LINE
  5
B1DE
  8
2-0
  6
CONTINUOUS
 62
     3
 10
19155.514355585161
 20
19690.48399600001
 30
0.0
 11
19040.512244585159
 21
19690.48399600001
 31
0.0
  0
LINE
  5
B1DF
  8
2-0
  6
CONTINUOUS
 62
     3
 10
19155.514355585161
 20
19660.480433000001
 30
0.0
 11
19155.514355585161
 21
19690.48399600001
 31
0.0
  0
LINE
  5
B1E0
  8
2-0
  6
CONTINUOUS
 62
     3
 10
19149.51245558514
 20
19660.480433000001
 30
0.0
 11
19155.514355585161
 21
19660.480433000001
 31
0.0
  0
LINE
  5
B1E1
  8
2-0
  6
CONTINUOUS
 62
     3
 10
19052.514065585139
 20
18874.387104499991
 30
0.0
 11
19045.512508585161
 21
18874.387104499991
 31
0.0
  0
LINE
  5
B1E2
  8
2-0
  6
CONTINUOUS
 62
     3
 10
19045.512508585161
 20
18874.387104499991
 30
0.0
 11
19045.512508585161
 21
18879.3873685
 31
0.0
  0
LINE
  5
B1E3
  8
2-0
  6
CONTINUOUS
 62
     3
 10
19045.512508585161
 20
18879.3873685
 30
0.0
 11
19070.509868585141
 21
18879.3873685
 31
0.0
  0
LINE
  5
B1E4
  8
2-0
  6
CONTINUOUS
 62
     3
 10
19070.509868585141
 20
18879.3873685
 30
0.0
 11
19070.509868585141
 21
18861.391564500002
 31
0.0
  0
LINE
  5
B1E5
  8
2-0
  6
CONTINUOUS
 62
     3
 10
19070.509868585141
 20
18861.391564500002
 30
0.0
 11
19040.512244585159
 21
18861.391564500002
 31
0.0
  0
LINE
  5
B1E6
  8
2-0
  6
CONTINUOUS
 62
     3
 10
19070.509868585141
 20
18877.483071499959
 30
0.0
 11
19070.509868585141
 21
18871.485130500001
 31
0.0
  0
LINE
  5
B1E7
  8
2-0
  6
CONTINUOUS
 62
     3
 10
19070.509868585141
 20
18871.485130500001
 30
0.0
 11
19040.512244585159
 21
18871.485130500001
 31
0.0
  0
LINE
  5
B1E8
  8
2-0
  6
CONTINUOUS
 62
     3
 10
19040.512244585159
 20
18871.485130500001
 30
0.0
 11
19040.512244585159
 21
18908.48629149999
 31
0.0
  0
LINE
  5
B1E9
  8
2-0
  6
CONTINUOUS
 62
     3
 10
19070.509868585141
 20
18908.48629149999
 30
0.0
 11
19040.512244585159
 21
18908.48629149999
 31
0.0
  0
LINE
  5
B1EA
  8
2-0
  6
CONTINUOUS
 62
     3
 10
19070.509868585141
 20
18902.48241149999
 30
0.0
 11
19070.509868585141
 21
18908.48629149999
 31
0.0
  0
LINE
  5
B1EB
  8
2-0
  6
CONTINUOUS
 62
     3
 10
19070.509868585141
 20
18918.58183649999
 30
0.0
 11
19040.512244585159
 21
18918.58183649999
 31
0.0
  0
LINE
  5
B1EC
  8
2-0
  6
CONTINUOUS
 62
     3
 10
19070.509868585141
 20
18900.580094500001
 30
0.0
 11
19070.509868585141
 21
18918.58183649999
 31
0.0
  0
LINE
  5
B1ED
  8
2-0
  6
CONTINUOUS
 62
     3
 10
19045.512508585161
 20
18900.580094500001
 30
0.0
 11
19070.509868585141
 21
18900.580094500001
 31
0.0
  0
LINE
  5
B1EE
  8
2-0
  6
CONTINUOUS
 62
     3
 10
19045.512508585161
 20
18905.580358499999
 30
0.0
 11
19045.512508585161
 21
18900.580094500001
 31
0.0
  0
LINE
  5
B1EF
  8
2-0
  6
CONTINUOUS
 62
     3
 10
19052.514065585139
 20
18905.580358499999
 30
0.0
 11
19045.512508585161
 21
18905.580358499999
 31
0.0
  0
LINE
  5
B1F0
  8
2-0
  6
CONTINUOUS
 62
     3
 10
19052.514065585139
 20
18173.386115000001
 30
0.0
 11
19045.512508585161
 21
18173.386115000001
 31
0.0
  0
LINE
  5
B1F1
  8
2-0
  6
CONTINUOUS
 62
     3
 10
19045.512508585161
 20
18173.386115000001
 30
0.0
 11
19045.512508585161
 21
18178.392317000002
 31
0.0
  0
LINE
  5
B1F2
  8
2-0
  6
CONTINUOUS
 62
     3
 10
19045.512508585161
 20
18178.392317000002
 30
0.0
 11
19070.509868585141
 21
18178.392317000002
 31
0.0
  0
LINE
  5
B1F3
  8
2-0
  6
CONTINUOUS
 62
     3
 10
19070.509868585141
 20
18178.392317000002
 30
0.0
 11
19070.509868585141
 21
18160.390575000009
 31
0.0
  0
LINE
  5
B1F4
  8
2-0
  6
CONTINUOUS
 62
     3
 10
19070.509868585141
 20
18160.390575000009
 30
0.0
 11
19040.512244585159
 21
18160.390575000009
 31
0.0
  0
LINE
  5
B1F5
  8
2-0
  6
CONTINUOUS
 62
     3
 10
19070.509868585141
 20
18176.482081999991
 30
0.0
 11
19070.509868585141
 21
18170.48611999999
 31
0.0
  0
LINE
  5
B1F6
  8
2-0
  6
CONTINUOUS
 62
     3
 10
19070.509868585141
 20
18170.48611999999
 30
0.0
 11
19040.512244585159
 21
18170.48611999999
 31
0.0
  0
LINE
  5
B1F7
  8
2-0
  6
CONTINUOUS
 62
     3
 10
19040.512244585159
 20
18170.48611999999
 30
0.0
 11
19040.512244585159
 21
18207.48530199999
 31
0.0
  0
LINE
  5
B1F8
  8
2-0
  6
CONTINUOUS
 62
     3
 10
19070.509868585141
 20
18207.48530199999
 30
0.0
 11
19040.512244585159
 21
18207.48530199999
 31
0.0
  0
LINE
  5
B1F9
  8
2-0
  6
CONTINUOUS
 62
     3
 10
19070.509868585141
 20
18201.48934
 30
0.0
 11
19070.509868585141
 21
18207.48530199999
 31
0.0
  0
LINE
  5
B1FA
  8
2-0
  6
CONTINUOUS
 62
     3
 10
19070.509868585141
 20
18217.580847000008
 30
0.0
 11
19040.512244585159
 21
18217.580847000008
 31
0.0
  0
LINE
  5
B1FB
  8
2-0
  6
CONTINUOUS
 62
     3
 10
19070.509868585141
 20
18199.579105000001
 30
0.0
 11
19070.509868585141
 21
18217.580847000008
 31
0.0
  0
LINE
  5
B1FC
  8
2-0
  6
CONTINUOUS
 62
     3
 10
19045.512508585161
 20
18199.579105000001
 30
0.0
 11
19070.509868585141
 21
18199.579105000001
 31
0.0
  0
LINE
  5
B1FD
  8
2-0
  6
CONTINUOUS
 62
     3
 10
19045.512508585161
 20
18204.58530699999
 30
0.0
 11
19045.512508585161
 21
18199.579105000001
 31
0.0
  0
LINE
  5
B1FE
  8
2-0
  6
CONTINUOUS
 62
     3
 10
19052.514065585139
 20
18204.58530699999
 30
0.0
 11
19045.512508585161
 21
18204.58530699999
 31
0.0
  0
LINE
  5
B1FF
  8
2-0
  6
CONTINUOUS
 62
     3
 10
19052.514065585139
 20
17503.579368999999
 30
0.0
 11
19045.512508585161
 21
17503.579368999999
 31
0.0
  0
LINE
  5
B200
  8
2-0
  6
CONTINUOUS
 62
     3
 10
19045.512508585161
 20
17503.579368999999
 30
0.0
 11
19045.512508585161
 21
17498.590982000002
 31
0.0
  0
LINE
  5
B201
  8
2-0
  6
CONTINUOUS
 62
     3
 10
19045.512508585161
 20
17498.590982000002
 30
0.0
 11
19070.509868585141
 21
17498.590982000002
 31
0.0
  0
LINE
  5
B202
  8
2-0
  6
CONTINUOUS
 62
     3
 10
19070.509868585141
 20
17498.590982000002
 30
0.0
 11
19070.509868585141
 21
17516.586785
 31
0.0
  0
LINE
  5
B203
  8
2-0
  6
CONTINUOUS
 62
     3
 10
19070.509868585141
 20
17516.586785
 30
0.0
 11
19040.512244585159
 21
17516.586785
 31
0.0
  0
LINE
  5
B204
  8
2-0
  6
CONTINUOUS
 62
     3
 10
19070.509868585141
 20
17500.48934
 30
0.0
 11
19070.509868585141
 21
17506.485302000001
 31
0.0
  0
LINE
  5
B205
  8
2-0
  6
CONTINUOUS
 62
     3
 10
19070.509868585141
 20
17506.485302000001
 30
0.0
 11
19040.512244585159
 21
17506.485302000001
 31
0.0
  0
LINE
  5
B206
  8
2-0
  6
CONTINUOUS
 62
     3
 10
19040.512244585159
 20
17506.485302000001
 30
0.0
 11
19040.512244585159
 21
17469.486120000009
 31
0.0
  0
LINE
  5
B207
  8
2-0
  6
CONTINUOUS
 62
     3
 10
19070.509868585141
 20
17469.486120000009
 30
0.0
 11
19040.512244585159
 21
17469.486120000009
 31
0.0
  0
LINE
  5
B208
  8
2-0
  6
CONTINUOUS
 62
     3
 10
19070.509868585141
 20
17475.48802099999
 30
0.0
 11
19070.509868585141
 21
17469.486120000009
 31
0.0
  0
LINE
  5
B209
  8
2-0
  6
CONTINUOUS
 62
     3
 10
19070.509868585141
 20
17459.396514
 30
0.0
 11
19040.512244585159
 21
17459.396514
 31
0.0
  0
LINE
  5
B20A
  8
2-0
  6
CONTINUOUS
 62
     3
 10
19070.509868585141
 20
17477.392316999991
 30
0.0
 11
19070.509868585141
 21
17459.396514
 31
0.0
  0
LINE
  5
B20B
  8
2-0
  6
CONTINUOUS
 62
     3
 10
19045.512508585161
 20
17477.392316999991
 30
0.0
 11
19070.509868585141
 21
17477.392316999991
 31
0.0
  0
LINE
  5
B20C
  8
2-0
  6
CONTINUOUS
 62
     3
 10
19045.512508585161
 20
17472.392053999989
 30
0.0
 11
19045.512508585161
 21
17477.392316999991
 31
0.0
  0
LINE
  5
B20D
  8
2-0
  6
CONTINUOUS
 62
     3
 10
19052.514065585139
 20
17472.392053999989
 30
0.0
 11
19045.512508585161
 21
17472.392053999989
 31
0.0
  0
LINE
  5
B20E
  8
2-0
  6
CONTINUOUS
 62
     3
 10
19043.398382585128
 20
16752.482940000002
 30
0.0
 11
19043.398382585128
 21
16772.483994999999
 31
0.0
  0
LINE
  5
B20F
  8
2-0
  6
CONTINUOUS
 62
     3
 10
19043.398382585128
 20
16772.483994999999
 30
0.0
 11
19128.39495158516
 21
16772.483994999999
 31
0.0
  0
LINE
  5
B210
  8
2-0
  6
CONTINUOUS
 62
     3
 10
19052.514065585139
 20
16799.090704999999
 30
0.0
 11
19045.512508585161
 21
16799.090704999999
 31
0.0
  0
LINE
  5
B211
  8
2-0
  6
CONTINUOUS
 62
     3
 10
19045.512508585161
 20
16799.090704999999
 30
0.0
 11
19045.512508585161
 21
16794.09637900001
 31
0.0
  0
LINE
  5
B212
  8
2-0
  6
CONTINUOUS
 62
     3
 10
19045.512508585161
 20
16794.09637900001
 30
0.0
 11
19070.509868585141
 21
16794.09637900001
 31
0.0
  0
LINE
  5
B213
  8
2-0
  6
CONTINUOUS
 62
     3
 10
19070.509868585141
 20
16794.09637900001
 30
0.0
 11
19070.509868585141
 21
16812.09218299999
 31
0.0
  0
LINE
  5
B214
  8
2-0
  6
CONTINUOUS
 62
     3
 10
19070.509868585141
 20
16812.09218299999
 30
0.0
 11
19040.512244585159
 21
16812.09218299999
 31
0.0
  0
LINE
  5
B215
  8
2-0
  6
CONTINUOUS
 62
     3
 10
19070.509868585141
 20
16802.483598999988
 30
0.0
 11
19070.509868585141
 21
16796.481699
 31
0.0
  0
LINE
  5
B216
  8
2-0
  6
CONTINUOUS
 62
     3
 10
19040.512244585159
 20
16802.483598999988
 30
0.0
 11
19070.509868585141
 21
16802.483598999988
 31
0.0
  0
LINE
  5
B217
  8
2-0
  6
CONTINUOUS
 62
     3
 10
19040.512244585159
 20
16812.09218299999
 30
0.0
 11
19040.512244585159
 21
17459.396514
 31
0.0
  0
LINE
  5
B218
  8
2-0
  6
CONTINUOUS
 62
     3
 10
19040.512244585159
 20
17516.586785
 30
0.0
 11
19040.512244585159
 21
18160.390575000009
 31
0.0
  0
LINE
  5
B219
  8
2-0
  6
CONTINUOUS
 62
     3
 10
19040.512244585159
 20
16657.48188399999
 30
0.0
 11
19070.509868585141
 21
16657.48188399999
 31
0.0
  0
LINE
  5
B21A
  8
2-0
  6
CONTINUOUS
 62
     3
 10
19070.509868585141
 20
16657.48188399999
 30
0.0
 11
19070.509868585141
 21
16663.483784
 31
0.0
  0
LINE
  5
B21B
  8
2-0
  6
CONTINUOUS
 62
     3
 10
19128.39495158516
 20
16687.487427
 30
0.0
 11
19043.398382585128
 21
16687.487427
 31
0.0
  0
LINE
  5
B21C
  8
2-0
  6
CONTINUOUS
 62
     3
 10
19043.398382585128
 20
16687.487427
 30
0.0
 11
19043.398382585128
 21
16707.48254400001
 31
0.0
  0
LINE
  5
B21D
  8
2-0
  6
CONTINUOUS
 62
     3
 10
19070.509868585141
 20
16647.873301
 30
0.0
 11
19040.512244585159
 21
16647.873301
 31
0.0
  0
LINE
  5
B21E
  8
2-0
  6
CONTINUOUS
 62
     3
 10
19070.509868585141
 20
16665.86910399999
 30
0.0
 11
19070.509868585141
 21
16647.873301
 31
0.0
  0
LINE
  5
B21F
  8
2-0
  6
CONTINUOUS
 62
     3
 10
19045.512508585161
 20
16665.86910399999
 30
0.0
 11
19070.509868585141
 21
16665.86910399999
 31
0.0
  0
LINE
  5
B220
  8
2-0
  6
CONTINUOUS
 62
     3
 10
19045.512508585161
 20
16660.86884000001
 30
0.0
 11
19045.512508585161
 21
16665.86910399999
 31
0.0
  0
LINE
  5
B221
  8
2-0
  6
CONTINUOUS
 62
     3
 10
19052.514065585139
 20
16660.86884000001
 30
0.0
 11
19045.512508585161
 21
16660.86884000001
 31
0.0
  0
LINE
  5
B222
  8
2-0
  6
CONTINUOUS
 62
     3
 10
19052.514065585139
 20
15956.386609499979
 30
0.0
 11
19045.512508585161
 21
15956.386609499979
 31
0.0
  0
LINE
  5
B223
  8
2-0
  6
CONTINUOUS
 62
     3
 10
19045.512508585161
 20
15956.386609499979
 30
0.0
 11
19045.512508585161
 21
15961.386873499991
 31
0.0
  0
LINE
  5
B224
  8
2-0
  6
CONTINUOUS
 62
     3
 10
19045.512508585161
 20
15961.386873499991
 30
0.0
 11
19070.509868585141
 21
15961.386873499991
 31
0.0
  0
LINE
  5
B225
  8
2-0
  6
CONTINUOUS
 62
     3
 10
19070.509868585141
 20
15961.386873499991
 30
0.0
 11
19070.509868585141
 21
15943.385131499999
 31
0.0
  0
LINE
  5
B226
  8
2-0
  6
CONTINUOUS
 62
     3
 10
19070.509868585141
 20
15943.385131499999
 30
0.0
 11
19040.512244585159
 21
15943.385131499999
 31
0.0
  0
LINE
  5
B227
  8
2-0
  6
CONTINUOUS
 62
     3
 10
19070.509868585141
 20
15959.482576500001
 30
0.0
 11
19070.509868585141
 21
15953.4856255
 31
0.0
  0
LINE
  5
B228
  8
2-0
  6
CONTINUOUS
 62
     3
 10
19070.509868585141
 20
15953.4856255
 30
0.0
 11
19040.512244585159
 21
15953.4856255
 31
0.0
  0
LINE
  5
B229
  8
2-0
  6
CONTINUOUS
 62
     3
 10
19040.512244585159
 20
15953.4856255
 30
0.0
 11
19040.512244585159
 21
15990.485796499999
 31
0.0
  0
LINE
  5
B22A
  8
2-0
  6
CONTINUOUS
 62
     3
 10
19070.509868585141
 20
15990.485796499999
 30
0.0
 11
19040.512244585159
 21
15990.485796499999
 31
0.0
  0
LINE
  5
B22B
  8
2-0
  6
CONTINUOUS
 62
     3
 10
19070.509868585141
 20
15984.482906499999
 30
0.0
 11
19070.509868585141
 21
15990.485796499999
 31
0.0
  0
LINE
  5
B22C
  8
2-0
  6
CONTINUOUS
 62
     3
 10
19070.509868585141
 20
16000.581341499999
 30
0.0
 11
19040.512244585159
 21
16000.581341499999
 31
0.0
  0
LINE
  5
B22D
  8
2-0
  6
CONTINUOUS
 62
     3
 10
19070.509868585141
 20
15982.573660499989
 30
0.0
 11
19070.509868585141
 21
16000.581341499999
 31
0.0
  0
LINE
  5
B22E
  8
2-0
  6
CONTINUOUS
 62
     3
 10
19045.512508585161
 20
15982.573660499989
 30
0.0
 11
19070.509868585141
 21
15982.573660499989
 31
0.0
  0
LINE
  5
B22F
  8
2-0
  6
CONTINUOUS
 62
     3
 10
19045.512508585161
 20
15987.579863499999
 30
0.0
 11
19045.512508585161
 21
15982.573660499989
 31
0.0
  0
LINE
  5
B230
  8
2-0
  6
CONTINUOUS
 62
     3
 10
19052.514065585139
 20
15987.579863499999
 30
0.0
 11
19045.512508585161
 21
15987.579863499999
 31
0.0
  0
LINE
  5
B231
  8
2-0
  6
CONTINUOUS
 62
     3
 10
19052.514065585139
 20
15286.819879999999
 30
0.0
 11
19045.512508585161
 21
15286.819879999999
 31
0.0
  0
LINE
  5
B232
  8
2-0
  6
CONTINUOUS
 62
     3
 10
19045.512508585161
 20
15286.819879999999
 30
0.0
 11
19045.512508585161
 21
15281.825554999999
 31
0.0
  0
LINE
  5
B233
  8
2-0
  6
CONTINUOUS
 62
     3
 10
19045.512508585161
 20
15281.825554999999
 30
0.0
 11
19070.509868585141
 21
15281.825554999999
 31
0.0
  0
LINE
  5
B234
  8
2-0
  6
CONTINUOUS
 62
     3
 10
19070.509868585141
 20
15281.825554999999
 30
0.0
 11
19070.509868585141
 21
15299.82135800001
 31
0.0
  0
LINE
  5
B235
  8
2-0
  6
CONTINUOUS
 62
     3
 10
19070.509868585141
 20
15299.82135800001
 30
0.0
 11
19040.512244585159
 21
15299.82135800001
 31
0.0
  0
LINE
  5
B236
  8
2-0
  6
CONTINUOUS
 62
     3
 10
19070.509868585141
 20
15283.723913000011
 30
0.0
 11
19070.509868585141
 21
15289.725812999999
 31
0.0
  0
LINE
  5
B237
  8
2-0
  6
CONTINUOUS
 62
     3
 10
19070.509868585141
 20
15289.725812999999
 30
0.0
 11
19040.512244585159
 21
15289.725812999999
 31
0.0
  0
LINE
  5
B238
  8
2-0
  6
CONTINUOUS
 62
     3
 10
19040.512244585159
 20
15252.726632000011
 30
0.0
 11
19040.512244585159
 21
15289.725812999999
 31
0.0
  0
LINE
  5
B239
  8
2-0
  6
CONTINUOUS
 62
     3
 10
19070.509868585141
 20
15252.726632000011
 30
0.0
 11
19040.512244585159
 21
15252.726632000011
 31
0.0
  0
LINE
  5
B23A
  8
2-0
  6
CONTINUOUS
 62
     3
 10
19070.509868585141
 20
15258.723583000001
 30
0.0
 11
19070.509868585141
 21
15252.726632000011
 31
0.0
  0
LINE
  5
B23B
  8
2-0
  6
CONTINUOUS
 62
     3
 10
19070.509868585141
 20
15242.62514799999
 30
0.0
 11
19040.512244585159
 21
15242.62514799999
 31
0.0
  0
LINE
  5
B23C
  8
2-0
  6
CONTINUOUS
 62
     3
 10
19070.509868585141
 20
15260.632828999989
 30
0.0
 11
19070.509868585141
 21
15242.62514799999
 31
0.0
  0
LINE
  5
B23D
  8
2-0
  6
CONTINUOUS
 62
     3
 10
19045.512508585161
 20
15260.632828999989
 30
0.0
 11
19070.509868585141
 21
15260.632828999989
 31
0.0
  0
LINE
  5
B23E
  8
2-0
  6
CONTINUOUS
 62
     3
 10
19045.512508585161
 20
15255.63256500002
 30
0.0
 11
19045.512508585161
 21
15260.632828999989
 31
0.0
  0
LINE
  5
B23F
  8
2-0
  6
CONTINUOUS
 62
     3
 10
19052.514065585139
 20
15255.63256500002
 30
0.0
 11
19045.512508585161
 21
15255.63256500002
 31
0.0
  0
LINE
  5
B240
  8
2-0
  6
CONTINUOUS
 62
     3
 10
19040.512244585159
 20
16647.873301
 30
0.0
 11
19040.512244585159
 21
16000.581341499999
 31
0.0
  0
LINE
  5
B241
  8
2-0
  6
CONTINUOUS
 62
     3
 10
19040.512244585159
 20
16802.483598999988
 30
0.0
 11
19040.512244585159
 21
16657.48188399999
 31
0.0
  0
LINE
  5
B242
  8
2-0
  6
CONTINUOUS
 62
     3
 10
19128.39495158516
 20
16772.483994999999
 30
0.0
 11
19128.39495158516
 21
16687.487427
 31
0.0
  0
LINE
  5
B243
  8
2-0
  6
CONTINUOUS
 62
     6
 10
20666.603618585152
 20
18540.93126049999
 30
0.0
 11
19641.571286585149
 21
18540.93126049999
 31
0.0
  0
LINE
  5
B244
  8
2-0
  6
CONTINUOUS
 62
     3
 10
19052.514065585139
 20
14554.391557999999
 30
0.0
 11
19045.512508585161
 21
14554.391557999999
 31
0.0
  0
LINE
  5
B245
  8
2-0
  6
CONTINUOUS
 62
     3
 10
19045.512508585161
 20
14554.391557999999
 30
0.0
 11
19045.512508585161
 21
14559.385883999999
 31
0.0
  0
LINE
  5
B246
  8
2-0
  6
CONTINUOUS
 62
     3
 10
19045.512508585161
 20
14559.385883999999
 30
0.0
 11
19070.509868585141
 21
14559.385883999999
 31
0.0
  0
LINE
  5
B247
  8
2-0
  6
CONTINUOUS
 62
     3
 10
19070.509868585141
 20
14559.385883999999
 30
0.0
 11
19070.509868585141
 21
14541.390079999999
 31
0.0
  0
LINE
  5
B248
  8
2-0
  6
CONTINUOUS
 62
     3
 10
19070.509868585141
 20
14541.390079999999
 30
0.0
 11
19040.512244585159
 21
14541.390079999999
 31
0.0
  0
LINE
  5
B249
  8
2-0
  6
CONTINUOUS
 62
     3
 10
19070.509868585141
 20
14557.488514999999
 30
0.0
 11
19070.509868585141
 21
14551.48562500001
 31
0.0
  0
LINE
  5
B24A
  8
2-0
  6
CONTINUOUS
 62
     3
 10
19070.509868585141
 20
14551.48562500001
 30
0.0
 11
19040.512244585159
 21
14551.48562500001
 31
0.0
  0
LINE
  5
B24B
  8
2-0
  6
CONTINUOUS
 62
     3
 10
19040.512244585159
 20
14551.48562500001
 30
0.0
 11
19040.512244585159
 21
14588.485796999979
 31
0.0
  0
LINE
  5
B24C
  8
2-0
  6
CONTINUOUS
 62
     3
 10
19070.509868585141
 20
14588.485796999979
 30
0.0
 11
19040.512244585159
 21
14588.485796999979
 31
0.0
  0
LINE
  5
B24D
  8
2-0
  6
CONTINUOUS
 62
     3
 10
19070.509868585141
 20
14582.488844999991
 30
0.0
 11
19070.509868585141
 21
14588.485796999979
 31
0.0
  0
LINE
  5
B24E
  8
2-0
  6
CONTINUOUS
 62
     3
 10
19070.509868585141
 20
14598.586289999999
 30
0.0
 11
19040.512244585159
 21
14598.586289999999
 31
0.0
  0
LINE
  5
B24F
  8
2-0
  6
CONTINUOUS
 62
     3
 10
19070.509868585141
 20
14580.579599000001
 30
0.0
 11
19070.509868585141
 21
14598.586289999999
 31
0.0
  0
LINE
  5
B250
  8
2-0
  6
CONTINUOUS
 62
     3
 10
19045.512508585161
 20
14580.579599000001
 30
0.0
 11
19070.509868585141
 21
14580.579599000001
 31
0.0
  0
LINE
  5
B251
  8
2-0
  6
CONTINUOUS
 62
     3
 10
19045.512508585161
 20
14585.584811999999
 30
0.0
 11
19045.512508585161
 21
14580.579599000001
 31
0.0
  0
LINE
  5
B252
  8
2-0
  6
CONTINUOUS
 62
     3
 10
19052.514065585139
 20
14585.584811999999
 30
0.0
 11
19045.512508585161
 21
14585.584811999999
 31
0.0
  0
LINE
  5
B253
  8
2-0
  6
CONTINUOUS
 62
     3
 10
19070.509868585141
 20
13527.987638000001
 30
0.0
 11
19070.509868585141
 21
13533.99250699999
 31
0.0
  0
LINE
  5
B254
  8
2-0
  6
CONTINUOUS
 62
     3
 10
19070.509868585141
 20
13533.99250699999
 30
0.0
 11
19040.512244585159
 21
13533.99250699999
 31
0.0
  0
LINE
  5
B255
  8
2-0
  6
CONTINUOUS
 62
     3
 10
19040.512244585159
 20
13533.99250699999
 30
0.0
 11
19040.512244585159
 21
13418.988416
 31
0.0
  0
LINE
  5
B256
  8
2-0
  6
CONTINUOUS
 62
     3
 10
19040.512244585159
 20
13418.988416
 30
0.0
 11
19125.510792585152
 21
13418.988416
 31
0.0
  0
LINE
  5
B257
  8
2-0
  6
CONTINUOUS
 62
     3
 10
19125.510792585152
 20
13418.988416
 30
0.0
 11
19125.510792585152
 21
13503.983995000001
 31
0.0
  0
LINE
  5
B258
  8
2-0
  6
CONTINUOUS
 62
     3
 10
19125.510792585152
 20
13503.983995000001
 30
0.0
 11
19093.511874585169
 21
13503.983995000001
 31
0.0
  0
LINE
  5
B259
  8
2-0
  6
CONTINUOUS
 62
     3
 10
19052.514065585139
 20
13531.02224
 30
0.0
 11
19045.512508585161
 21
13531.02224
 31
0.0
  0
LINE
  5
B25A
  8
2-0
  6
CONTINUOUS
 62
     3
 10
19045.512508585161
 20
13531.02224
 30
0.0
 11
19045.512508585161
 21
13526.024944999979
 31
0.0
  0
LINE
  5
B25B
  8
2-0
  6
CONTINUOUS
 62
     3
 10
19045.512508585161
 20
13526.024944999979
 30
0.0
 11
19070.509868585141
 21
13526.024944999979
 31
0.0
  0
LINE
  5
B25C
  8
2-0
  6
CONTINUOUS
 62
     3
 10
19070.509868585141
 20
13526.024944999979
 30
0.0
 11
19070.509868585141
 21
13544.023718
 31
0.0
  0
LINE
  5
B25D
  8
2-0
  6
CONTINUOUS
 62
     3
 10
19070.509868585141
 20
13544.023718
 30
0.0
 11
19040.512244585159
 21
13544.023718
 31
0.0
  0
LINE
  5
B25E
  8
2-0
  6
CENTER2
 62
     6
 10
19083.01052858515
 20
13221.49085799999
 30
0.0
 11
19083.01052858515
 21
14727.85961600002
 31
0.0
  0
LINE
  5
B25F
  8
2-0
  6
CONTINUOUS
 62
     3
 10
19040.512244585159
 20
18217.580847000008
 30
0.0
 11
19040.512244585159
 21
18861.391564500002
 31
0.0
  0
LINE
  5
B260
  8
2-0
  6
CONTINUOUS
 62
     6
 10
18348.007361585162
 20
20420.48689900001
 30
0.0
 11
17148.013299585182
 21
20420.48689900001
 31
0.0
  0
LINE
  5
B261
  8
2-0
  6
CONTINUOUS
 62
     6
 10
19210.040194585159
 20
18783.08576849999
 30
0.0
 11
19641.571286585149
 21
18540.93126049999
 31
0.0
  0
LINE
  5
B262
  8
2-0
  6
CONTINUOUS
 62
     6
 10
18888.471360585168
 20
19833.16373600001
 30
0.0
 11
18348.007361585162
 21
20420.48689900001
 31
0.0
  0
LINE
  5
B263
  8
2-0
  6
CONTINUOUS
 62
     3
 10
19040.512244585159
 20
15943.385131499999
 30
0.0
 11
19040.512244585159
 21
15299.82135800001
 31
0.0
  0
LINE
  5
B264
  8
2-0
  6
CONTINUOUS
 62
     6
 10
19223.097099585149
 20
18806.345112499988
 30
0.0
 11
19070.509868585141
 21
18861.391564500002
 31
0.0
  0
LINE
  5
B265
  8
2-0
  6
CONTINUOUS
 62
     6
 10
19070.509868585141
 20
18861.391564500002
 30
0.0
 11
19196.991208585161
 21
18759.83236449998
 31
0.0
  0
LINE
  5
B266
  8
2-0
  6
CONTINUOUS
 62
     6
 10
19223.097099585149
 20
18806.345112499988
 30
0.0
 11
19196.991208585161
 21
18759.83236449998
 31
0.0
  0
LINE
  5
B267
  8
2-0
  6
CONTINUOUS
 62
     6
 10
19196.991208585161
 20
18759.83236449998
 30
0.0
 11
19070.509868585141
 21
18861.391564500002
 31
0.0
  0
LINE
  5
B268
  8
2-0
  6
CONTINUOUS
 62
     6
 10
19070.509868585141
 20
18861.391564500002
 30
0.0
 11
19223.097099585149
 21
18806.345112499988
 31
0.0
  0
LINE
  5
B269
  8
2-0
  6
CONTINUOUS
 62
     6
 10
19223.097099585149
 20
18806.345112499988
 30
0.0
 11
19070.509868585141
 21
18861.391564500002
 31
0.0
  0
LINE
  5
B26A
  8
2-0
  6
CONTINUOUS
 62
     6
 10
19196.991208585161
 20
18759.83236449998
 30
0.0
 11
19070.509868585141
 21
18861.391564500002
 31
0.0
  0
LINE
  5
B26B
  8
2-0
  6
CONTINUOUS
 62
     6
 10
19196.991208585161
 20
18759.83236449998
 30
0.0
 11
19223.097099585149
 21
18806.345112499988
 31
0.0
  0
LINE
  5
B26C
  8
2-0
  6
CONTINUOUS
 62
     6
 10
18868.85433158516
 20
19815.10260900002
 30
0.0
 11
18996.816351585148
 21
19715.41999100001
 31
0.0
  0
LINE
  5
B26D
  8
2-0
  6
CONTINUOUS
 62
     6
 10
18996.816351585148
 20
19715.41999100001
 30
0.0
 11
18908.10224658516
 21
19851.216946
 31
0.0
  0
LINE
  5
B26E
  8
2-0
  6
CONTINUOUS
 62
     6
 10
18868.85433158516
 20
19815.10260900002
 30
0.0
 11
18908.10224658516
 21
19851.216946
 31
0.0
  0
LINE
  5
B26F
  8
2-0
  6
CONTINUOUS
 62
     6
 10
18908.10224658516
 20
19851.216946
 30
0.0
 11
18996.816351585148
 21
19715.41999100001
 31
0.0
  0
LINE
  5
B270
  8
2-0
  6
CONTINUOUS
 62
     6
 10
18996.816351585148
 20
19715.41999100001
 30
0.0
 11
18868.85433158516
 21
19815.10260900002
 31
0.0
  0
LINE
  5
B271
  8
2-0
  6
CONTINUOUS
 62
     6
 10
18868.85433158516
 20
19815.10260900002
 30
0.0
 11
18996.816351585148
 21
19715.41999100001
 31
0.0
  0
LINE
  5
B272
  8
2-0
  6
CONTINUOUS
 62
     6
 10
18908.10224658516
 20
19851.216946
 30
0.0
 11
18996.816351585148
 21
19715.41999100001
 31
0.0
  0
LINE
  5
B273
  8
2-0
  6
CONTINUOUS
 62
     6
 10
18908.10224658516
 20
19851.216946
 30
0.0
 11
18868.85433158516
 21
19815.10260900002
 31
0.0
  0
LINE
  5
B274
  8
2-0
  6
CONTINUOUS
 62
     6
 10
19254.11417658515
 20
13637.620304999989
 30
0.0
 11
19121.514144585159
 21
13544.191976999989
 31
0.0
  0
LINE
  5
B275
  8
2-0
  6
CONTINUOUS
 62
     6
 10
19121.514144585159
 20
13544.191976999989
 30
0.0
 11
19277.246830585169
 21
13589.567491
 31
0.0
  0
LINE
  5
B276
  8
2-0
  6
CONTINUOUS
 62
     6
 10
19254.11417658515
 20
13637.620304999989
 30
0.0
 11
19277.246830585169
 21
13589.567491
 31
0.0
  0
LINE
  5
B277
  8
2-0
  6
CONTINUOUS
 62
     6
 10
19277.246830585169
 20
13589.567491
 30
0.0
 11
19121.514144585159
 21
13544.191976999989
 31
0.0
  0
LINE
  5
B278
  8
2-0
  6
CONTINUOUS
 62
     6
 10
19121.514144585159
 20
13544.191976999989
 30
0.0
 11
19254.11417658515
 21
13637.620304999989
 31
0.0
  0
LINE
  5
B279
  8
2-0
  6
CONTINUOUS
 62
     6
 10
19254.11417658515
 20
13637.620304999989
 30
0.0
 11
19121.514144585159
 21
13544.191976999989
 31
0.0
  0
LINE
  5
B27A
  8
2-0
  6
CONTINUOUS
 62
     6
 10
19277.246830585169
 20
13589.567491
 30
0.0
 11
19121.514144585159
 21
13544.191976999989
 31
0.0
  0
LINE
  5
B27B
  8
2-0
  6
CONTINUOUS
 62
     6
 10
19277.246830585169
 20
13589.567491
 30
0.0
 11
19254.11417658515
 21
13637.620304999989
 31
0.0
  0
LINE
  5
B27C
  8
2-0
  6
CONTINUOUS
 62
     6
 10
19194.350530585169
 20
16367.941238000019
 30
0.0
 11
19040.512244585159
 21
16419.37506900002
 31
0.0
  0
LINE
  5
B27D
  8
2-0
  6
CONTINUOUS
 62
     6
 10
19040.512244585159
 20
16419.37506900002
 30
0.0
 11
19169.34723158518
 21
16320.834634000021
 31
0.0
  0
LINE
  5
B27E
  8
2-0
  6
CONTINUOUS
 62
     6
 10
19194.350530585169
 20
16367.941238000019
 30
0.0
 11
19169.34723158518
 21
16320.834634000021
 31
0.0
  0
LINE
  5
B27F
  8
2-0
  6
CONTINUOUS
 62
     6
 10
19169.34723158518
 20
16320.834634000021
 30
0.0
 11
19040.512244585159
 21
16419.37506900002
 31
0.0
  0
LINE
  5
B280
  8
2-0
  6
CONTINUOUS
 62
     6
 10
19040.512244585159
 20
16419.37506900002
 30
0.0
 11
19194.350530585169
 21
16367.941238000019
 31
0.0
  0
LINE
  5
B281
  8
2-0
  6
CONTINUOUS
 62
     6
 10
19194.350530585169
 20
16367.941238000019
 30
0.0
 11
19040.512244585159
 21
16419.37506900002
 31
0.0
  0
LINE
  5
B282
  8
2-0
  6
CONTINUOUS
 62
     6
 10
19169.34723158518
 20
16320.834634000021
 30
0.0
 11
19040.512244585159
 21
16419.37506900002
 31
0.0
  0
LINE
  5
B283
  8
2-0
  6
CONTINUOUS
 62
     6
 10
19169.34723158518
 20
16320.834634000021
 30
0.0
 11
19194.350530585169
 21
16367.941238000019
 31
0.0
  0
LINE
  5
B284
  8
2-0
  6
CONTINUOUS
 62
     6
 10
19328.28673758516
 20
16859.259730000009
 30
0.0
 11
19185.403106585149
 21
16782.484100999998
 31
0.0
  0
LINE
  5
B285
  8
2-0
  6
CONTINUOUS
 62
     6
 10
19185.403106585149
 20
16782.484100999998
 30
0.0
 11
19345.464999585151
 21
16808.76617000001
 31
0.0
  0
LINE
  5
B286
  8
2-0
  6
CONTINUOUS
 62
     6
 10
19328.28673758516
 20
16859.259730000009
 30
0.0
 11
19345.464999585151
 21
16808.76617000001
 31
0.0
  0
LINE
  5
B287
  8
2-0
  6
CONTINUOUS
 62
     6
 10
19345.464999585151
 20
16808.76617000001
 30
0.0
 11
19185.403106585149
 21
16782.484100999998
 31
0.0
  0
LINE
  5
B288
  8
2-0
  6
CONTINUOUS
 62
     6
 10
19185.403106585149
 20
16782.484100999998
 30
0.0
 11
19328.28673758516
 21
16859.259730000009
 31
0.0
  0
LINE
  5
B289
  8
2-0
  6
CONTINUOUS
 62
     6
 10
19328.28673758516
 20
16859.259730000009
 30
0.0
 11
19185.403106585149
 21
16782.484100999998
 31
0.0
  0
LINE
  5
B28A
  8
2-0
  6
CONTINUOUS
 62
     6
 10
19345.464999585151
 20
16808.76617000001
 30
0.0
 11
19185.403106585149
 21
16782.484100999998
 31
0.0
  0
LINE
  5
B28B
  8
2-0
  6
CONTINUOUS
 62
     6
 10
19345.464999585151
 20
16808.76617000001
 30
0.0
 11
19328.28673758516
 21
16859.259730000009
 31
0.0
  0
LINE
  5
B28C
  8
2-0
  6
CONTINUOUS
 62
     3
 10
22013.509208585161
 20
19581.483785000011
 30
0.0
 11
22013.509208585161
 21
19575.48782300001
 31
0.0
  0
LINE
  5
B28D
  8
2-0
  6
CONTINUOUS
 62
     3
 10
22013.509208585161
 20
19575.48782300001
 30
0.0
 11
22043.506833585161
 21
19575.48782300001
 31
0.0
  0
LINE
  5
B28E
  8
2-0
  6
CONTINUOUS
 62
     3
 10
22043.506833585161
 20
19575.48782300001
 30
0.0
 11
22043.506833585161
 21
19690.48399600001
 31
0.0
  0
LINE
  5
B28F
  8
2-0
  6
CONTINUOUS
 62
     3
 10
22043.506833585161
 20
19605.487427
 30
0.0
 11
21962.508892585149
 21
19605.487427
 31
0.0
  0
LINE
  5
B290
  8
2-0
  6
CONTINUOUS
 62
     3
 10
22013.509208585161
 20
19565.190366999999
 30
0.0
 11
22043.506833585161
 21
19565.190366999999
 31
0.0
  0
LINE
  5
B291
  8
2-0
  6
CONTINUOUS
 62
     3
 10
22013.509208585161
 20
19583.192109
 30
0.0
 11
22013.509208585161
 21
19565.190366999999
 31
0.0
  0
LINE
  5
B292
  8
2-0
  6
CONTINUOUS
 62
     3
 10
22038.502610585161
 20
19583.192109
 30
0.0
 11
22013.509208585161
 21
19583.192109
 31
0.0
  0
LINE
  5
B293
  8
2-0
  6
CONTINUOUS
 62
     3
 10
22038.502610585161
 20
19578.183927000009
 30
0.0
 11
22038.502610585161
 21
19583.192109
 31
0.0
  0
LINE
  5
B294
  8
2-0
  6
CONTINUOUS
 62
     3
 10
22031.50501258517
 20
19578.183927000009
 30
0.0
 11
22038.502610585161
 21
19578.183927000009
 31
0.0
  0
LINE
  5
B295
  8
2-0
  6
CONTINUOUS
 62
     3
 10
21931.210723585169
 20
19678.48415400002
 30
0.0
 11
21931.210723585169
 21
19685.48967000001
 31
0.0
  0
LINE
  5
B296
  8
2-0
  6
CONTINUOUS
 62
     3
 10
21931.210723585169
 20
19685.48967000001
 30
0.0
 11
21936.212967585161
 21
19685.48967000001
 31
0.0
  0
LINE
  5
B297
  8
2-0
  6
CONTINUOUS
 62
     3
 10
21936.212967585161
 20
19685.48967000001
 30
0.0
 11
21936.212967585161
 21
19660.480433000001
 31
0.0
  0
LINE
  5
B298
  8
2-0
  6
CONTINUOUS
 62
     3
 10
21936.212967585161
 20
19660.480433000001
 30
0.0
 11
21918.205286585169
 21
19660.480433000001
 31
0.0
  0
LINE
  5
B299
  8
2-0
  6
CONTINUOUS
 62
     3
 10
21918.205286585169
 20
19660.480433000001
 30
0.0
 11
21918.205286585169
 21
19690.48399600001
 31
0.0
  0
LINE
  5
B29A
  8
2-0
  6
CONTINUOUS
 62
     3
 10
21928.504722585149
 20
19690.48399600001
 30
0.0
 11
22043.506833585161
 21
19690.48399600001
 31
0.0
  0
LINE
  5
B29B
  8
2-0
  6
CONTINUOUS
 62
     3
 10
21928.504722585149
 20
19660.480433000001
 30
0.0
 11
21928.504722585149
 21
19690.48399600001
 31
0.0
  0
LINE
  5
B29C
  8
2-0
  6
CONTINUOUS
 62
     3
 10
21934.508601585159
 20
19660.480433000001
 30
0.0
 11
21928.504722585149
 21
19660.480433000001
 31
0.0
  0
LINE
  5
B29D
  8
2-0
  6
CONTINUOUS
 62
     3
 10
22013.509208585161
 20
19581.483785000011
 30
0.0
 11
22013.509208585161
 21
19575.48782300001
 31
0.0
  0
LINE
  5
B29E
  8
2-0
  6
CONTINUOUS
 62
     3
 10
22013.509208585161
 20
19575.48782300001
 30
0.0
 11
22043.506833585161
 21
19575.48782300001
 31
0.0
  0
LINE
  5
B29F
  8
2-0
  6
CONTINUOUS
 62
     3
 10
22043.506833585161
 20
19575.48782300001
 30
0.0
 11
22043.506833585161
 21
19690.48399600001
 31
0.0
  0
LINE
  5
B2A0
  8
2-0
  6
CONTINUOUS
 62
     3
 10
22043.506833585161
 20
19605.487427
 30
0.0
 11
21962.508892585149
 21
19605.487427
 31
0.0
  0
LINE
  5
B2A1
  8
2-0
  6
CONTINUOUS
 62
     3
 10
22013.509208585161
 20
19565.190366999999
 30
0.0
 11
22043.506833585161
 21
19565.190366999999
 31
0.0
  0
LINE
  5
B2A2
  8
2-0
  6
CONTINUOUS
 62
     3
 10
22013.509208585161
 20
19583.192109
 30
0.0
 11
22013.509208585161
 21
19565.190366999999
 31
0.0
  0
LINE
  5
B2A3
  8
2-0
  6
CONTINUOUS
 62
     3
 10
22038.502610585161
 20
19583.192109
 30
0.0
 11
22013.509208585161
 21
19583.192109
 31
0.0
  0
LINE
  5
B2A4
  8
2-0
  6
CONTINUOUS
 62
     3
 10
22038.502610585161
 20
19578.183927000009
 30
0.0
 11
22038.502610585161
 21
19583.192109
 31
0.0
  0
LINE
  5
B2A5
  8
2-0
  6
CONTINUOUS
 62
     3
 10
22031.50501258517
 20
19578.183927000009
 30
0.0
 11
22038.502610585161
 21
19578.183927000009
 31
0.0
  0
LINE
  5
B2A6
  8
2-0
  6
CONTINUOUS
 62
     3
 10
22031.50501258517
 20
18874.387104499991
 30
0.0
 11
22038.502610585161
 21
18874.387104499991
 31
0.0
  0
LINE
  5
B2A7
  8
2-0
  6
CONTINUOUS
 62
     3
 10
22038.502610585161
 20
18874.387104499991
 30
0.0
 11
22038.502610585161
 21
18879.3873685
 31
0.0
  0
LINE
  5
B2A8
  8
2-0
  6
CONTINUOUS
 62
     3
 10
22038.502610585161
 20
18879.3873685
 30
0.0
 11
22013.509208585161
 21
18879.3873685
 31
0.0
  0
LINE
  5
B2A9
  8
2-0
  6
CONTINUOUS
 62
     3
 10
22013.509208585161
 20
18879.3873685
 30
0.0
 11
22013.509208585161
 21
18861.39156449998
 31
0.0
  0
LINE
  5
B2AA
  8
2-0
  6
CONTINUOUS
 62
     3
 10
22013.509208585161
 20
18861.39156449998
 30
0.0
 11
22043.506833585161
 21
18861.39156449998
 31
0.0
  0
LINE
  5
B2AB
  8
2-0
  6
CONTINUOUS
 62
     3
 10
22013.509208585161
 20
18877.483071499959
 30
0.0
 11
22013.509208585161
 21
18871.48513049999
 31
0.0
  0
LINE
  5
B2AC
  8
2-0
  6
CONTINUOUS
 62
     3
 10
22013.509208585161
 20
18871.48513049999
 30
0.0
 11
22043.506833585161
 21
18871.48513049999
 31
0.0
  0
LINE
  5
B2AD
  8
2-0
  6
CONTINUOUS
 62
     3
 10
22043.506833585161
 20
18871.48513049999
 30
0.0
 11
22043.506833585161
 21
18908.48629149999
 31
0.0
  0
LINE
  5
B2AE
  8
2-0
  6
CONTINUOUS
 62
     3
 10
22013.509208585161
 20
18908.48629149999
 30
0.0
 11
22043.506833585161
 21
18908.48629149999
 31
0.0
  0
LINE
  5
B2AF
  8
2-0
  6
CONTINUOUS
 62
     3
 10
22013.509208585161
 20
18902.48241149999
 30
0.0
 11
22013.509208585161
 21
18908.48629149999
 31
0.0
  0
LINE
  5
B2B0
  8
2-0
  6
CONTINUOUS
 62
     3
 10
22013.509208585161
 20
18918.58183649998
 30
0.0
 11
22043.506833585161
 21
18918.58183649998
 31
0.0
  0
LINE
  5
B2B1
  8
2-0
  6
CONTINUOUS
 62
     3
 10
22013.509208585161
 20
18900.580094500001
 30
0.0
 11
22013.509208585161
 21
18918.58183649998
 31
0.0
  0
LINE
  5
B2B2
  8
2-0
  6
CONTINUOUS
 62
     3
 10
22038.502610585161
 20
18900.580094500001
 30
0.0
 11
22013.509208585161
 21
18900.580094500001
 31
0.0
  0
LINE
  5
B2B3
  8
2-0
  6
CONTINUOUS
 62
     3
 10
22038.502610585161
 20
18905.580358499981
 30
0.0
 11
22038.502610585161
 21
18900.580094500001
 31
0.0
  0
LINE
  5
B2B4
  8
2-0
  6
CONTINUOUS
 62
     3
 10
22031.50501258517
 20
18905.580358499981
 30
0.0
 11
22038.502610585161
 21
18905.580358499981
 31
0.0
  0
LINE
  5
B2B5
  8
2-0
  6
CONTINUOUS
 62
     3
 10
22031.50501258517
 20
18173.386115000001
 30
0.0
 11
22038.502610585161
 21
18173.386115000001
 31
0.0
  0
LINE
  5
B2B6
  8
2-0
  6
CONTINUOUS
 62
     3
 10
22038.502610585161
 20
18173.386115000001
 30
0.0
 11
22038.502610585161
 21
18178.392317000002
 31
0.0
  0
LINE
  5
B2B7
  8
2-0
  6
CONTINUOUS
 62
     3
 10
22038.502610585161
 20
18178.392317000002
 30
0.0
 11
22013.509208585161
 21
18178.392317000002
 31
0.0
  0
LINE
  5
B2B8
  8
2-0
  6
CONTINUOUS
 62
     3
 10
22013.509208585161
 20
18178.392317000002
 30
0.0
 11
22013.509208585161
 21
18160.39057499999
 31
0.0
  0
LINE
  5
B2B9
  8
2-0
  6
CONTINUOUS
 62
     3
 10
22013.509208585161
 20
18160.39057499999
 30
0.0
 11
22043.506833585161
 21
18160.39057499999
 31
0.0
  0
LINE
  5
B2BA
  8
2-0
  6
CONTINUOUS
 62
     3
 10
22013.509208585161
 20
18176.48208199998
 30
0.0
 11
22013.509208585161
 21
18170.48611999999
 31
0.0
  0
LINE
  5
B2BB
  8
2-0
  6
CONTINUOUS
 62
     3
 10
22013.509208585161
 20
18170.48611999999
 30
0.0
 11
22043.506833585161
 21
18170.48611999999
 31
0.0
  0
LINE
  5
B2BC
  8
2-0
  6
CONTINUOUS
 62
     3
 10
22043.506833585161
 20
18170.48611999999
 30
0.0
 11
22043.506833585161
 21
18207.48530199999
 31
0.0
  0
LINE
  5
B2BD
  8
2-0
  6
CONTINUOUS
 62
     3
 10
22013.509208585161
 20
18207.48530199999
 30
0.0
 11
22043.506833585161
 21
18207.48530199999
 31
0.0
  0
LINE
  5
B2BE
  8
2-0
  6
CONTINUOUS
 62
     3
 10
22013.509208585161
 20
18201.48934
 30
0.0
 11
22013.509208585161
 21
18207.48530199999
 31
0.0
  0
LINE
  5
B2BF
  8
2-0
  6
CONTINUOUS
 62
     3
 10
22013.509208585161
 20
18217.580847000001
 30
0.0
 11
22043.506833585161
 21
18217.580847000001
 31
0.0
  0
LINE
  5
B2C0
  8
2-0
  6
CONTINUOUS
 62
     3
 10
22013.509208585161
 20
18199.57910499999
 30
0.0
 11
22013.509208585161
 21
18217.580847000001
 31
0.0
  0
LINE
  5
B2C1
  8
2-0
  6
CONTINUOUS
 62
     3
 10
22038.502610585161
 20
18199.57910499999
 30
0.0
 11
22013.509208585161
 21
18199.57910499999
 31
0.0
  0
LINE
  5
B2C2
  8
2-0
  6
CONTINUOUS
 62
     3
 10
22038.502610585161
 20
18204.58530699999
 30
0.0
 11
22038.502610585161
 21
18199.57910499999
 31
0.0
  0
LINE
  5
B2C3
  8
2-0
  6
CONTINUOUS
 62
     3
 10
22031.50501258517
 20
18204.58530699999
 30
0.0
 11
22038.502610585161
 21
18204.58530699999
 31
0.0
  0
LINE
  5
B2C4
  8
2-0
  6
CONTINUOUS
 62
     3
 10
22031.50501258517
 20
17503.579368999988
 30
0.0
 11
22038.502610585161
 21
17503.579368999988
 31
0.0
  0
LINE
  5
B2C5
  8
2-0
  6
CONTINUOUS
 62
     3
 10
22038.502610585161
 20
17503.579368999988
 30
0.0
 11
22038.502610585161
 21
17498.590982000002
 31
0.0
  0
LINE
  5
B2C6
  8
2-0
  6
CONTINUOUS
 62
     3
 10
22038.502610585161
 20
17498.590982000002
 30
0.0
 11
22013.509208585161
 21
17498.590982000002
 31
0.0
  0
LINE
  5
B2C7
  8
2-0
  6
CONTINUOUS
 62
     3
 10
22013.509208585161
 20
17498.590982000002
 30
0.0
 11
22013.509208585161
 21
17516.586784999989
 31
0.0
  0
LINE
  5
B2C8
  8
2-0
  6
CONTINUOUS
 62
     3
 10
22013.509208585161
 20
17516.586784999989
 30
0.0
 11
22043.506833585161
 21
17516.586784999989
 31
0.0
  0
LINE
  5
B2C9
  8
2-0
  6
CONTINUOUS
 62
     3
 10
22013.509208585161
 20
17500.48934
 30
0.0
 11
22013.509208585161
 21
17506.48530199999
 31
0.0
  0
LINE
  5
B2CA
  8
2-0
  6
CONTINUOUS
 62
     3
 10
22013.509208585161
 20
17506.48530199999
 30
0.0
 11
22043.506833585161
 21
17506.48530199999
 31
0.0
  0
LINE
  5
B2CB
  8
2-0
  6
CONTINUOUS
 62
     3
 10
22043.506833585161
 20
17506.48530199999
 30
0.0
 11
22043.506833585161
 21
17469.48611999999
 31
0.0
  0
LINE
  5
B2CC
  8
2-0
  6
CONTINUOUS
 62
     3
 10
22013.509208585161
 20
17469.48611999999
 30
0.0
 11
22043.506833585161
 21
17469.48611999999
 31
0.0
  0
LINE
  5
B2CD
  8
2-0
  6
CONTINUOUS
 62
     3
 10
22013.509208585161
 20
17475.48802099999
 30
0.0
 11
22013.509208585161
 21
17469.48611999999
 31
0.0
  0
LINE
  5
B2CE
  8
2-0
  6
CONTINUOUS
 62
     3
 10
22013.509208585161
 20
17459.396514
 30
0.0
 11
22043.506833585161
 21
17459.396514
 31
0.0
  0
LINE
  5
B2CF
  8
2-0
  6
CONTINUOUS
 62
     3
 10
22013.509208585161
 20
17477.39231699998
 30
0.0
 11
22013.509208585161
 21
17459.396514
 31
0.0
  0
LINE
  5
B2D0
  8
2-0
  6
CONTINUOUS
 62
     3
 10
22038.502610585161
 20
17477.39231699998
 30
0.0
 11
22013.509208585161
 21
17477.39231699998
 31
0.0
  0
LINE
  5
B2D1
  8
2-0
  6
CONTINUOUS
 62
     3
 10
22038.502610585161
 20
17472.392053999989
 30
0.0
 11
22038.502610585161
 21
17477.39231699998
 31
0.0
  0
LINE
  5
B2D2
  8
2-0
  6
CONTINUOUS
 62
     3
 10
22031.50501258517
 20
17472.392053999989
 30
0.0
 11
22038.502610585161
 21
17472.392053999989
 31
0.0
  0
LINE
  5
B2D3
  8
2-0
  6
CONTINUOUS
 62
     3
 10
22040.620695585148
 20
16752.482940000002
 30
0.0
 11
22040.620695585148
 21
16772.483994999999
 31
0.0
  0
LINE
  5
B2D4
  8
2-0
  6
CONTINUOUS
 62
     3
 10
22040.620695585148
 20
16772.483994999999
 30
0.0
 11
21955.620167585152
 21
16772.483994999999
 31
0.0
  0
LINE
  5
B2D5
  8
2-0
  6
CONTINUOUS
 62
     3
 10
22031.50501258517
 20
16799.090704999999
 30
0.0
 11
22038.502610585161
 21
16799.090704999999
 31
0.0
  0
LINE
  5
B2D6
  8
2-0
  6
CONTINUOUS
 62
     3
 10
22038.502610585161
 20
16799.090704999999
 30
0.0
 11
22038.502610585161
 21
16794.09637900001
 31
0.0
  0
LINE
  5
B2D7
  8
2-0
  6
CONTINUOUS
 62
     3
 10
22038.502610585161
 20
16794.09637900001
 30
0.0
 11
22013.509208585161
 21
16794.09637900001
 31
0.0
  0
LINE
  5
B2D8
  8
2-0
  6
CONTINUOUS
 62
     3
 10
22013.509208585161
 20
16794.09637900001
 30
0.0
 11
22013.509208585161
 21
16812.09218299999
 31
0.0
  0
LINE
  5
B2D9
  8
2-0
  6
CONTINUOUS
 62
     3
 10
22013.509208585161
 20
16812.09218299999
 30
0.0
 11
22043.506833585161
 21
16812.09218299999
 31
0.0
  0
LINE
  5
B2DA
  8
2-0
  6
CONTINUOUS
 62
     3
 10
22013.509208585161
 20
16802.483598999988
 30
0.0
 11
22013.509208585161
 21
16796.481699
 31
0.0
  0
LINE
  5
B2DB
  8
2-0
  6
CONTINUOUS
 62
     3
 10
22043.506833585161
 20
16802.483598999988
 30
0.0
 11
22013.509208585161
 21
16802.483598999988
 31
0.0
  0
LINE
  5
B2DC
  8
2-0
  6
CONTINUOUS
 62
     3
 10
22043.506833585161
 20
16812.09218299999
 30
0.0
 11
22043.506833585161
 21
17459.396514
 31
0.0
  0
LINE
  5
B2DD
  8
2-0
  6
CONTINUOUS
 62
     3
 10
22043.506833585161
 20
17516.586784999989
 30
0.0
 11
22043.506833585161
 21
18160.39057499999
 31
0.0
  0
LINE
  5
B2DE
  8
2-0
  6
CONTINUOUS
 62
     3
 10
22043.506833585161
 20
16657.48188399999
 30
0.0
 11
22013.509208585161
 21
16657.48188399999
 31
0.0
  0
LINE
  5
B2DF
  8
2-0
  6
CONTINUOUS
 62
     3
 10
22013.509208585161
 20
16657.48188399999
 30
0.0
 11
22013.509208585161
 21
16663.483784
 31
0.0
  0
LINE
  5
B2E0
  8
2-0
  6
CONTINUOUS
 62
     3
 10
21955.620167585152
 20
16687.487427
 30
0.0
 11
22040.620695585148
 21
16687.487427
 31
0.0
  0
LINE
  5
B2E1
  8
2-0
  6
CONTINUOUS
 62
     3
 10
22040.620695585148
 20
16687.487427
 30
0.0
 11
22040.620695585148
 21
16707.48254400001
 31
0.0
  0
LINE
  5
B2E2
  8
2-0
  6
CONTINUOUS
 62
     3
 10
22013.509208585161
 20
16647.873301
 30
0.0
 11
22043.506833585161
 21
16647.873301
 31
0.0
  0
LINE
  5
B2E3
  8
2-0
  6
CONTINUOUS
 62
     3
 10
22013.509208585161
 20
16665.86910399999
 30
0.0
 11
22013.509208585161
 21
16647.873301
 31
0.0
  0
LINE
  5
B2E4
  8
2-0
  6
CONTINUOUS
 62
     3
 10
22038.502610585161
 20
16665.86910399999
 30
0.0
 11
22013.509208585161
 21
16665.86910399999
 31
0.0
  0
LINE
  5
B2E5
  8
2-0
  6
CONTINUOUS
 62
     3
 10
22038.502610585161
 20
16660.86884000001
 30
0.0
 11
22038.502610585161
 21
16665.86910399999
 31
0.0
  0
LINE
  5
B2E6
  8
2-0
  6
CONTINUOUS
 62
     3
 10
22031.50501258517
 20
16660.86884000001
 30
0.0
 11
22038.502610585161
 21
16660.86884000001
 31
0.0
  0
LINE
  5
B2E7
  8
2-0
  6
CONTINUOUS
 62
     3
 10
22031.50501258517
 20
15956.386609499979
 30
0.0
 11
22038.502610585161
 21
15956.386609499979
 31
0.0
  0
LINE
  5
B2E8
  8
2-0
  6
CONTINUOUS
 62
     3
 10
22038.502610585161
 20
15956.386609499979
 30
0.0
 11
22038.502610585161
 21
15961.386873499991
 31
0.0
  0
LINE
  5
B2E9
  8
2-0
  6
CONTINUOUS
 62
     3
 10
22038.502610585161
 20
15961.386873499991
 30
0.0
 11
22013.509208585161
 21
15961.386873499991
 31
0.0
  0
LINE
  5
B2EA
  8
2-0
  6
CONTINUOUS
 62
     3
 10
22013.509208585161
 20
15961.386873499991
 30
0.0
 11
22013.509208585161
 21
15943.38513149999
 31
0.0
  0
LINE
  5
B2EB
  8
2-0
  6
CONTINUOUS
 62
     3
 10
22013.509208585161
 20
15943.38513149999
 30
0.0
 11
22043.506833585161
 21
15943.38513149999
 31
0.0
  0
LINE
  5
B2EC
  8
2-0
  6
CONTINUOUS
 62
     3
 10
22013.509208585161
 20
15959.482576500001
 30
0.0
 11
22013.509208585161
 21
15953.4856255
 31
0.0
  0
LINE
  5
B2ED
  8
2-0
  6
CONTINUOUS
 62
     3
 10
22013.509208585161
 20
15953.4856255
 30
0.0
 11
22043.506833585161
 21
15953.4856255
 31
0.0
  0
LINE
  5
B2EE
  8
2-0
  6
CONTINUOUS
 62
     3
 10
22043.506833585161
 20
15953.4856255
 30
0.0
 11
22043.506833585161
 21
15990.485796499999
 31
0.0
  0
LINE
  5
B2EF
  8
2-0
  6
CONTINUOUS
 62
     3
 10
22013.509208585161
 20
15990.485796499999
 30
0.0
 11
22043.506833585161
 21
15990.485796499999
 31
0.0
  0
LINE
  5
B2F0
  8
2-0
  6
CONTINUOUS
 62
     3
 10
22013.509208585161
 20
15984.482906499999
 30
0.0
 11
22013.509208585161
 21
15990.485796499999
 31
0.0
  0
LINE
  5
B2F1
  8
2-0
  6
CONTINUOUS
 62
     3
 10
22013.509208585161
 20
16000.58134149999
 30
0.0
 11
22043.506833585161
 21
16000.58134149999
 31
0.0
  0
LINE
  5
B2F2
  8
2-0
  6
CONTINUOUS
 62
     3
 10
22013.509208585161
 20
15982.573660499989
 30
0.0
 11
22013.509208585161
 21
16000.58134149999
 31
0.0
  0
LINE
  5
B2F3
  8
2-0
  6
CONTINUOUS
 62
     3
 10
22038.502610585161
 20
15982.573660499989
 30
0.0
 11
22013.509208585161
 21
15982.573660499989
 31
0.0
  0
LINE
  5
B2F4
  8
2-0
  6
CONTINUOUS
 62
     3
 10
22038.502610585161
 20
15987.579863499999
 30
0.0
 11
22038.502610585161
 21
15982.573660499989
 31
0.0
  0
LINE
  5
B2F5
  8
2-0
  6
CONTINUOUS
 62
     3
 10
22031.50501258517
 20
15987.579863499999
 30
0.0
 11
22038.502610585161
 21
15987.579863499999
 31
0.0
  0
LINE
  5
B2F6
  8
2-0
  6
CONTINUOUS
 62
     3
 10
22031.50501258517
 20
15286.819879999999
 30
0.0
 11
22038.502610585161
 21
15286.819879999999
 31
0.0
  0
LINE
  5
B2F7
  8
2-0
  6
CONTINUOUS
 62
     3
 10
22038.502610585161
 20
15286.819879999999
 30
0.0
 11
22038.502610585161
 21
15281.825554999999
 31
0.0
  0
LINE
  5
B2F8
  8
2-0
  6
CONTINUOUS
 62
     3
 10
22038.502610585161
 20
15281.825554999999
 30
0.0
 11
22013.509208585161
 21
15281.825554999999
 31
0.0
  0
LINE
  5
B2F9
  8
2-0
  6
CONTINUOUS
 62
     3
 10
22013.509208585161
 20
15281.825554999999
 30
0.0
 11
22013.509208585161
 21
15299.82135800001
 31
0.0
  0
LINE
  5
B2FA
  8
2-0
  6
CONTINUOUS
 62
     3
 10
22013.509208585161
 20
15299.82135800001
 30
0.0
 11
22043.506833585161
 21
15299.82135800001
 31
0.0
  0
LINE
  5
B2FB
  8
2-0
  6
CONTINUOUS
 62
     3
 10
22013.509208585161
 20
15283.723912999991
 30
0.0
 11
22013.509208585161
 21
15289.725812999999
 31
0.0
  0
LINE
  5
B2FC
  8
2-0
  6
CONTINUOUS
 62
     3
 10
22013.509208585161
 20
15289.725812999999
 30
0.0
 11
22043.506833585161
 21
15289.725812999999
 31
0.0
  0
LINE
  5
B2FD
  8
2-0
  6
CONTINUOUS
 62
     3
 10
22043.506833585161
 20
15252.726632000011
 30
0.0
 11
22043.506833585161
 21
15289.725812999999
 31
0.0
  0
LINE
  5
B2FE
  8
2-0
  6
CONTINUOUS
 62
     3
 10
22013.509208585161
 20
15252.726632000011
 30
0.0
 11
22043.506833585161
 21
15252.726632000011
 31
0.0
  0
LINE
  5
B2FF
  8
2-0
  6
CONTINUOUS
 62
     3
 10
22013.509208585161
 20
15258.723583000001
 30
0.0
 11
22013.509208585161
 21
15252.726632000011
 31
0.0
  0
LINE
  5
B300
  8
2-0
  6
CONTINUOUS
 62
     3
 10
22013.509208585161
 20
15242.62514799999
 30
0.0
 11
22043.506833585161
 21
15242.62514799999
 31
0.0
  0
LINE
  5
B301
  8
2-0
  6
CONTINUOUS
 62
     3
 10
22013.509208585161
 20
15260.632828999989
 30
0.0
 11
22013.509208585161
 21
15242.62514799999
 31
0.0
  0
LINE
  5
B302
  8
2-0
  6
CONTINUOUS
 62
     3
 10
22038.502610585161
 20
15260.632828999989
 30
0.0
 11
22013.509208585161
 21
15260.632828999989
 31
0.0
  0
LINE
  5
B303
  8
2-0
  6
CONTINUOUS
 62
     3
 10
22038.502610585161
 20
15255.63256500002
 30
0.0
 11
22038.502610585161
 21
15260.632828999989
 31
0.0
  0
LINE
  5
B304
  8
2-0
  6
CONTINUOUS
 62
     3
 10
22031.50501258517
 20
15255.63256500002
 30
0.0
 11
22038.502610585161
 21
15255.63256500002
 31
0.0
  0
LINE
  5
B305
  8
2-0
  6
CONTINUOUS
 62
     3
 10
22043.506833585161
 20
16647.873301
 30
0.0
 11
22043.506833585161
 21
16000.58134149999
 31
0.0
  0
LINE
  5
B306
  8
2-0
  6
CONTINUOUS
 62
     3
 10
22043.506833585161
 20
16802.483598999988
 30
0.0
 11
22043.506833585161
 21
16657.48188399999
 31
0.0
  0
LINE
  5
B307
  8
2-0
  6
CONTINUOUS
 62
     3
 10
21955.620167585152
 20
16772.483994999999
 30
0.0
 11
21955.620167585152
 21
16687.487427
 31
0.0
  0
LINE
  5
B308
  8
2-0
  6
CONTINUOUS
 62
     3
 10
22031.50501258517
 20
14554.391557999999
 30
0.0
 11
22038.502610585161
 21
14554.391557999999
 31
0.0
  0
LINE
  5
B309
  8
2-0
  6
CONTINUOUS
 62
     3
 10
22038.502610585161
 20
14554.391557999999
 30
0.0
 11
22038.502610585161
 21
14559.38588400001
 31
0.0
  0
LINE
  5
B30A
  8
2-0
  6
CONTINUOUS
 62
     3
 10
22038.502610585161
 20
14559.38588400001
 30
0.0
 11
22013.509208585161
 21
14559.38588400001
 31
0.0
  0
LINE
  5
B30B
  8
2-0
  6
CONTINUOUS
 62
     3
 10
22013.509208585161
 20
14559.38588400001
 30
0.0
 11
22013.509208585161
 21
14541.390079999999
 31
0.0
  0
LINE
  5
B30C
  8
2-0
  6
CONTINUOUS
 62
     3
 10
22013.509208585161
 20
14541.390079999999
 30
0.0
 11
22043.506833585161
 21
14541.390079999999
 31
0.0
  0
LINE
  5
B30D
  8
2-0
  6
CONTINUOUS
 62
     3
 10
22013.509208585161
 20
14557.488514999999
 30
0.0
 11
22013.509208585161
 21
14551.48562500001
 31
0.0
  0
LINE
  5
B30E
  8
2-0
  6
CONTINUOUS
 62
     3
 10
22013.509208585161
 20
14551.48562500001
 30
0.0
 11
22043.506833585161
 21
14551.48562500001
 31
0.0
  0
LINE
  5
B30F
  8
2-0
  6
CONTINUOUS
 62
     3
 10
22043.506833585161
 20
14551.48562500001
 30
0.0
 11
22043.506833585161
 21
14588.485796999979
 31
0.0
  0
LINE
  5
B310
  8
2-0
  6
CONTINUOUS
 62
     3
 10
22013.509208585161
 20
14588.485796999979
 30
0.0
 11
22043.506833585161
 21
14588.485796999979
 31
0.0
  0
LINE
  5
B311
  8
2-0
  6
CONTINUOUS
 62
     3
 10
22013.509208585161
 20
14582.488845
 30
0.0
 11
22013.509208585161
 21
14588.485796999979
 31
0.0
  0
LINE
  5
B312
  8
2-0
  6
CONTINUOUS
 62
     3
 10
22013.509208585161
 20
14598.586289999999
 30
0.0
 11
22043.506833585161
 21
14598.586289999999
 31
0.0
  0
LINE
  5
B313
  8
2-0
  6
CONTINUOUS
 62
     3
 10
22013.509208585161
 20
14580.579599000001
 30
0.0
 11
22013.509208585161
 21
14598.586289999999
 31
0.0
  0
LINE
  5
B314
  8
2-0
  6
CONTINUOUS
 62
     3
 10
22038.502610585161
 20
14580.579599000001
 30
0.0
 11
22013.509208585161
 21
14580.579599000001
 31
0.0
  0
LINE
  5
B315
  8
2-0
  6
CONTINUOUS
 62
     3
 10
22038.502610585161
 20
14585.584811999999
 30
0.0
 11
22038.502610585161
 21
14580.579599000001
 31
0.0
  0
LINE
  5
B316
  8
2-0
  6
CONTINUOUS
 62
     3
 10
22031.50501258517
 20
14585.584811999999
 30
0.0
 11
22038.502610585161
 21
14585.584811999999
 31
0.0
  0
LINE
  5
B317
  8
2-0
  6
CONTINUOUS
 62
     3
 10
22013.509208585161
 20
13527.987638000001
 30
0.0
 11
22013.509208585161
 21
13533.99250699999
 31
0.0
  0
LINE
  5
B318
  8
2-0
  6
CONTINUOUS
 62
     3
 10
22013.509208585161
 20
13533.99250699999
 30
0.0
 11
22043.506833585161
 21
13533.99250699999
 31
0.0
  0
LINE
  5
B319
  8
2-0
  6
CONTINUOUS
 62
     3
 10
22043.506833585161
 20
13533.99250699999
 30
0.0
 11
22043.506833585161
 21
13418.988416
 31
0.0
  0
LINE
  5
B31A
  8
2-0
  6
CONTINUOUS
 62
     3
 10
22043.506833585161
 20
13418.988416
 30
0.0
 11
21958.508285585162
 21
13418.988416
 31
0.0
  0
LINE
  5
B31B
  8
2-0
  6
CONTINUOUS
 62
     3
 10
21958.508285585162
 20
13418.988416
 30
0.0
 11
21958.508285585162
 21
13503.983995000001
 31
0.0
  0
LINE
  5
B31C
  8
2-0
  6
CONTINUOUS
 62
     3
 10
21958.508285585162
 20
13503.983995000001
 30
0.0
 11
21990.505223585169
 21
13503.983995000001
 31
0.0
  0
LINE
  5
B31D
  8
2-0
  6
CONTINUOUS
 62
     3
 10
22031.50501258517
 20
13531.02224
 30
0.0
 11
22038.502610585161
 21
13531.02224
 31
0.0
  0
LINE
  5
B31E
  8
2-0
  6
CONTINUOUS
 62
     3
 10
22038.502610585161
 20
13531.02224
 30
0.0
 11
22038.502610585161
 21
13526.024944999979
 31
0.0
  0
LINE
  5
B31F
  8
2-0
  6
CONTINUOUS
 62
     3
 10
22038.502610585161
 20
13526.024944999979
 30
0.0
 11
22013.509208585161
 21
13526.024944999979
 31
0.0
  0
LINE
  5
B320
  8
2-0
  6
CONTINUOUS
 62
     3
 10
22013.509208585161
 20
13526.024944999979
 30
0.0
 11
22013.509208585161
 21
13544.023718
 31
0.0
  0
LINE
  5
B321
  8
2-0
  6
CONTINUOUS
 62
     3
 10
22013.509208585161
 20
13544.023718
 30
0.0
 11
22043.506833585161
 21
13544.023718
 31
0.0
  0
LINE
  5
B322
  8
2-0
  6
CONTINUOUS
 62
     3
 10
22043.506833585161
 20
14598.586289999999
 30
0.0
 11
22043.506833585161
 21
15242.62514799999
 31
0.0
  0
LINE
  5
B323
  8
2-0
  6
CONTINUOUS
 62
     3
 10
22043.506833585161
 20
18217.580847000001
 30
0.0
 11
22043.506833585161
 21
18861.39156449998
 31
0.0
  0
LINE
  5
B324
  8
2-0
  6
CONTINUOUS
 62
     3
 10
22043.506833585161
 20
15943.38513149999
 30
0.0
 11
22043.506833585161
 21
15299.82135800001
 31
0.0
  0
LINE
  5
B325
  8
2-0
  6
CONTINUOUS
 62
     3
 10
19040.512244585159
 20
19575.48782300001
 30
0.0
 11
19040.512244585159
 21
19690.48399600001
 31
0.0
  0
LINE
  5
B326
  8
2-0
  6
CONTINUOUS
 62
     3
 10
22043.506833585161
 20
19605.487427
 30
0.0
 11
19121.514144585159
 21
19605.487427
 31
0.0
  0
LINE
  5
B327
  8
2-0
  6
CONTINUOUS
 62
     3
 10
22043.506833585161
 20
13897.52344100001
 30
0.0
 11
22043.506833585161
 21
14541.390079999999
 31
0.0
  0
LINE
  5
B328
  8
2-0
  6
CONTINUOUS
 62
     3
 10
19040.512244585159
 20
19565.190366999999
 30
0.0
 11
19040.512244585159
 21
18918.58183649999
 31
0.0
  0
LINE
  5
B329
  8
2-0
  6
CONTINUOUS
 62
     3
 10
22043.506833585161
 20
19565.190366999999
 30
0.0
 11
22043.506833585161
 21
18918.58183649998
 31
0.0
  0
LINE
  5
B32A
  8
2-0
  6
CONTINUOUS
 62
     3
 10
22031.50501258517
 20
13853.39205300001
 30
0.0
 11
22038.502610585161
 21
13853.39205300001
 31
0.0
  0
LINE
  5
B32B
  8
2-0
  6
CONTINUOUS
 62
     3
 10
22038.502610585161
 20
13853.39205300001
 30
0.0
 11
22038.502610585161
 21
13858.386379
 31
0.0
  0
LINE
  5
B32C
  8
2-0
  6
CONTINUOUS
 62
     3
 10
22038.502610585161
 20
13858.386379
 30
0.0
 11
22013.509208585161
 21
13858.386379
 31
0.0
  0
LINE
  5
B32D
  8
2-0
  6
CONTINUOUS
 62
     3
 10
22013.509208585161
 20
13858.386379
 30
0.0
 11
22013.509208585161
 21
13840.39057500001
 31
0.0
  0
LINE
  5
B32E
  8
2-0
  6
CONTINUOUS
 62
     3
 10
22013.509208585161
 20
13840.39057500001
 30
0.0
 11
22043.506833585161
 21
13840.39057500001
 31
0.0
  0
LINE
  5
B32F
  8
2-0
  6
CONTINUOUS
 62
     3
 10
22013.509208585161
 20
13856.488020999999
 30
0.0
 11
22013.509208585161
 21
13850.48612
 31
0.0
  0
LINE
  5
B330
  8
2-0
  6
CONTINUOUS
 62
     3
 10
22013.509208585161
 20
13850.48612
 30
0.0
 11
22043.506833585161
 21
13850.48612
 31
0.0
  0
LINE
  5
B331
  8
2-0
  6
CONTINUOUS
 62
     3
 10
22043.506833585161
 20
13850.48612
 30
0.0
 11
22043.506833585161
 21
13887.485301999979
 31
0.0
  0
LINE
  5
B332
  8
2-0
  6
CONTINUOUS
 62
     3
 10
22013.509208585161
 20
13887.485301999979
 30
0.0
 11
22043.506833585161
 21
13887.485301999979
 31
0.0
  0
LINE
  5
B333
  8
2-0
  6
CONTINUOUS
 62
     3
 10
22013.509208585161
 20
13881.489340000009
 30
0.0
 11
22013.509208585161
 21
13887.485301999979
 31
0.0
  0
LINE
  5
B334
  8
2-0
  6
CONTINUOUS
 62
     3
 10
22013.509208585161
 20
13897.586785
 30
0.0
 11
22043.506833585161
 21
13897.586785
 31
0.0
  0
LINE
  5
B335
  8
2-0
  6
CONTINUOUS
 62
     3
 10
22013.509208585161
 20
13879.579104999981
 30
0.0
 11
22013.509208585161
 21
13897.586785
 31
0.0
  0
LINE
  5
B336
  8
2-0
  6
CONTINUOUS
 62
     3
 10
22038.502610585161
 20
13879.579104999981
 30
0.0
 11
22013.509208585161
 21
13879.579104999981
 31
0.0
  0
LINE
  5
B337
  8
2-0
  6
CONTINUOUS
 62
     3
 10
22038.502610585161
 20
13884.585306999999
 30
0.0
 11
22038.502610585161
 21
13879.579104999981
 31
0.0
  0
LINE
  5
B338
  8
2-0
  6
CONTINUOUS
 62
     3
 10
22031.50501258517
 20
13884.585306999999
 30
0.0
 11
22038.502610585161
 21
13884.585306999999
 31
0.0
  0
LINE
  5
B339
  8
2-0
  6
CONTINUOUS
 62
     3
 10
22043.506833585161
 20
13544.023718
 30
0.0
 11
22043.506833585161
 21
13840.39057500001
 31
0.0
  0
LINE
  5
B33A
  8
2-0
  6
CONTINUOUS
 62
     3
 10
21962.508892585149
 20
13503.983995000001
 30
0.0
 11
21962.508892585149
 21
19690.48399600001
 31
0.0
  0
LINE
  5
B33B
  8
2-0
  6
CONTINUOUS
 62
     3
 10
19052.514065585139
 20
13853.39205300001
 30
0.0
 11
19045.512508585161
 21
13853.39205300001
 31
0.0
  0
LINE
  5
B33C
  8
2-0
  6
CONTINUOUS
 62
     3
 10
19045.512508585161
 20
13853.39205300001
 30
0.0
 11
19045.512508585161
 21
13858.386379
 31
0.0
  0
LINE
  5
B33D
  8
2-0
  6
CONTINUOUS
 62
     3
 10
19045.512508585161
 20
13858.386379
 30
0.0
 11
19070.509868585141
 21
13858.386379
 31
0.0
  0
LINE
  5
B33E
  8
2-0
  6
CONTINUOUS
 62
     3
 10
19070.509868585141
 20
13858.386379
 30
0.0
 11
19070.509868585141
 21
13840.39057500001
 31
0.0
  0
LINE
  5
B33F
  8
2-0
  6
CONTINUOUS
 62
     3
 10
19070.509868585141
 20
13840.39057500001
 30
0.0
 11
19040.512244585159
 21
13840.39057500001
 31
0.0
  0
LINE
  5
B340
  8
2-0
  6
CONTINUOUS
 62
     3
 10
19070.509868585141
 20
13856.488020999999
 30
0.0
 11
19070.509868585141
 21
13850.48612
 31
0.0
  0
LINE
  5
B341
  8
2-0
  6
CONTINUOUS
 62
     3
 10
19070.509868585141
 20
13850.48612
 30
0.0
 11
19040.512244585159
 21
13850.48612
 31
0.0
  0
LINE
  5
B342
  8
2-0
  6
CONTINUOUS
 62
     3
 10
19040.512244585159
 20
13850.48612
 30
0.0
 11
19040.512244585159
 21
13887.485301999979
 31
0.0
  0
LINE
  5
B343
  8
2-0
  6
CONTINUOUS
 62
     3
 10
19070.509868585141
 20
13887.485301999979
 30
0.0
 11
19040.512244585159
 21
13887.485301999979
 31
0.0
  0
LINE
  5
B344
  8
2-0
  6
CONTINUOUS
 62
     3
 10
19070.509868585141
 20
13881.48934000002
 30
0.0
 11
19070.509868585141
 21
13887.485301999979
 31
0.0
  0
LINE
  5
B345
  8
2-0
  6
CONTINUOUS
 62
     3
 10
19070.509868585141
 20
13897.586785
 30
0.0
 11
19040.512244585159
 21
13897.586785
 31
0.0
  0
LINE
  5
B346
  8
2-0
  6
CONTINUOUS
 62
     3
 10
19070.509868585141
 20
13879.579104999981
 30
0.0
 11
19070.509868585141
 21
13897.586785
 31
0.0
  0
LINE
  5
B347
  8
2-0
  6
CONTINUOUS
 62
     3
 10
19045.512508585161
 20
13879.579104999981
 30
0.0
 11
19070.509868585141
 21
13879.579104999981
 31
0.0
  0
LINE
  5
B348
  8
2-0
  6
CONTINUOUS
 62
     3
 10
19045.512508585161
 20
13884.585306999999
 30
0.0
 11
19045.512508585161
 21
13879.579104999981
 31
0.0
  0
LINE
  5
B349
  8
2-0
  6
CONTINUOUS
 62
     3
 10
19052.514065585139
 20
13884.585306999999
 30
0.0
 11
19045.512508585161
 21
13884.585306999999
 31
0.0
  0
LINE
  5
B34A
  8
2-0
  6
CONTINUOUS
 62
     3
 10
19040.512244585159
 20
13544.023718
 30
0.0
 11
19040.512244585159
 21
13840.39057500001
 31
0.0
  0
LINE
  5
B34B
  8
2-0
  6
CONTINUOUS
 62
     3
 10
19121.514144585159
 20
13503.983995000001
 30
0.0
 11
19121.514144585159
 21
19690.48399600001
 31
0.0
  0
TEXT
  5
B34C
  8
2-0
  6
CONTINUOUS
 62
     7
 10
19756.236765255278
 20
16180.476608276511
 30
0.0
 40
160.0
  1
壁パネル
 50
0.0001770000000167
 72
     4
 11
20118.9031847816
 21
16260.477728637879
 31
0.0
  0
TEXT
  5
B34D
  8
2-0
  6
CONTINUOUS
 62
     7
 10
19726.906335938242
 20
17017.673137652371
 30
0.0
 40
160.0
  1
中柱（左右）
 50
359.99964599999998
 72
     4
 11
20244.24016353894
 21
17097.669941324672
 31
0.0
  0
TEXT
  5
B34E
  8
2-0
  6
CONTINUOUS
 62
     7
 10
19740.237425310592
 20
13874.534431706101
 30
0.0
 40
160.0
  1
下枠
 50
359.99893700000001
 72
     4
 11
19910.905576175879
 21
13954.531265339279
 31
0.0
  0
TEXT
  5
B34F
  8
2-0
  6
CONTINUOUS
 62
     7
 10
19743.938667918472
 20
18620.93548349999
 30
0.0
 40
160.0
  1
間柱（側）
 72
     4
 11
20165.272001251811
 21
18700.93548349999
 31
0.0
  0
TEXT
  5
B350
  8
2-0
  6
CONTINUOUS
 62
     7
 10
17244.015015604698
 20
20500.489530748739
 30
0.0
 40
160.0
  1
後柱（左右）
 50
359.99964599999998
 72
     4
 11
17756.01550987217
 21
20580.48636737284
 31
0.0
  0
LINE
  5
B351
  8
2-0
  6
CONTINUOUS
 62
     3
 10
19822.50994758516
 20
19690.48399600001
 30
0.0
 11
19859.51110958515
 21
19690.48399600001
 31
0.0
  0
LINE
  5
B352
  8
2-0
  6
CONTINUOUS
 62
     3
 10
19822.50994758516
 20
19660.480433000001
 30
0.0
 11
19822.50994758516
 21
19690.48399600001
 31
0.0
  0
LINE
  5
B353
  8
2-0
  6
CONTINUOUS
 62
     3
 10
19828.50986858517
 20
19660.480433000001
 30
0.0
 11
19822.50994758516
 21
19660.480433000001
 31
0.0
  0
LINE
  5
B354
  8
2-0
  6
CONTINUOUS
 62
     3
 10
19812.412423585149
 20
19660.480433000001
 30
0.0
 11
19812.412423585149
 21
19690.48399600001
 31
0.0
  0
LINE
  5
B355
  8
2-0
  6
CONTINUOUS
 62
     3
 10
19830.41614458515
 20
19660.480433000001
 30
0.0
 11
19812.412423585149
 21
19660.480433000001
 31
0.0
  0
LINE
  5
B356
  8
2-0
  6
CONTINUOUS
 62
     3
 10
19830.41614458515
 20
19685.48967000001
 30
0.0
 11
19830.41614458515
 21
19660.480433000001
 31
0.0
  0
LINE
  5
B357
  8
2-0
  6
CONTINUOUS
 62
     3
 10
19825.41588058514
 20
19685.48967000001
 30
0.0
 11
19830.41614458515
 21
19685.48967000001
 31
0.0
  0
LINE
  5
B358
  8
2-0
  6
CONTINUOUS
 62
     3
 10
19825.41588058514
 20
19678.48415400002
 30
0.0
 11
19825.41588058514
 21
19685.48967000001
 31
0.0
  0
LINE
  5
B359
  8
2-0
  6
CONTINUOUS
 62
     3
 10
19856.605175585169
 20
19678.48415400002
 30
0.0
 11
19856.605175585169
 21
19685.48967000001
 31
0.0
  0
LINE
  5
B35A
  8
2-0
  6
CONTINUOUS
 62
     3
 10
19856.605175585169
 20
19685.48967000001
 30
0.0
 11
19851.604911585149
 21
19685.48967000001
 31
0.0
  0
LINE
  5
B35B
  8
2-0
  6
CONTINUOUS
 62
     3
 10
19851.604911585149
 20
19685.48967000001
 30
0.0
 11
19851.604911585149
 21
19660.480433000001
 31
0.0
  0
LINE
  5
B35C
  8
2-0
  6
CONTINUOUS
 62
     3
 10
19851.604911585149
 20
19660.480433000001
 30
0.0
 11
19869.604674585149
 21
19660.480433000001
 31
0.0
  0
LINE
  5
B35D
  8
2-0
  6
CONTINUOUS
 62
     3
 10
19869.604674585149
 20
19660.480433000001
 30
0.0
 11
19869.604674585149
 21
19690.48399600001
 31
0.0
  0
LINE
  5
B35E
  8
2-0
  6
CONTINUOUS
 62
     3
 10
19853.51118858514
 20
19660.480433000001
 30
0.0
 11
19859.51110958515
 21
19660.480433000001
 31
0.0
  0
LINE
  5
B35F
  8
2-0
  6
CONTINUOUS
 62
     3
 10
19859.51110958515
 20
19660.480433000001
 30
0.0
 11
19859.51110958515
 21
19690.48399600001
 31
0.0
  0
LINE
  5
B360
  8
2-0
  6
CONTINUOUS
 62
     3
 10
21227.42083008515
 20
19678.48415400002
 30
0.0
 11
21227.42083008515
 21
19685.48967000001
 31
0.0
  0
LINE
  5
B361
  8
2-0
  6
CONTINUOUS
 62
     3
 10
21227.42083008515
 20
19685.48967000001
 30
0.0
 11
21232.421094085152
 21
19685.48967000001
 31
0.0
  0
LINE
  5
B362
  8
2-0
  6
CONTINUOUS
 62
     3
 10
21232.421094085152
 20
19685.48967000001
 30
0.0
 11
21232.421094085152
 21
19660.480433000001
 31
0.0
  0
LINE
  5
B363
  8
2-0
  6
CONTINUOUS
 62
     3
 10
21232.421094085152
 20
19660.480433000001
 30
0.0
 11
21214.415393085161
 21
19660.480433000001
 31
0.0
  0
LINE
  5
B364
  8
2-0
  6
CONTINUOUS
 62
     3
 10
21214.415393085161
 20
19660.480433000001
 30
0.0
 11
21214.415393085161
 21
19690.48399600001
 31
0.0
  0
LINE
  5
B365
  8
2-0
  6
CONTINUOUS
 62
     3
 10
21230.512838085149
 20
19660.480433000001
 30
0.0
 11
21224.510938085172
 21
19660.480433000001
 31
0.0
  0
LINE
  5
B366
  8
2-0
  6
CONTINUOUS
 62
     3
 10
21224.510938085172
 20
19660.480433000001
 30
0.0
 11
21224.510938085172
 21
19690.48399600001
 31
0.0
  0
LINE
  5
B367
  8
2-0
  6
CONTINUOUS
 62
     3
 10
21261.510119085171
 20
19690.48399600001
 30
0.0
 11
21224.510938085172
 21
19690.48399600001
 31
0.0
  0
LINE
  5
B368
  8
2-0
  6
CONTINUOUS
 62
     3
 10
21261.510119085171
 20
19660.480433000001
 30
0.0
 11
21261.510119085171
 21
19690.48399600001
 31
0.0
  0
LINE
  5
B369
  8
2-0
  6
CONTINUOUS
 62
     3
 10
21255.516137085171
 20
19660.480433000001
 30
0.0
 11
21261.510119085171
 21
19660.480433000001
 31
0.0
  0
LINE
  5
B36A
  8
2-0
  6
CONTINUOUS
 62
     3
 10
21271.605664085149
 20
19660.480433000001
 30
0.0
 11
21271.605664085149
 21
19690.48399600001
 31
0.0
  0
LINE
  5
B36B
  8
2-0
  6
CONTINUOUS
 62
     3
 10
21253.609861085151
 20
19660.480433000001
 30
0.0
 11
21271.605664085149
 21
19660.480433000001
 31
0.0
  0
LINE
  5
B36C
  8
2-0
  6
CONTINUOUS
 62
     3
 10
21253.609861085151
 20
19685.48967000001
 30
0.0
 11
21253.609861085151
 21
19660.480433000001
 31
0.0
  0
LINE
  5
B36D
  8
2-0
  6
CONTINUOUS
 62
     3
 10
21258.610125085161
 20
19685.48967000001
 30
0.0
 11
21253.609861085151
 21
19685.48967000001
 31
0.0
  0
LINE
  5
B36E
  8
2-0
  6
CONTINUOUS
 62
     3
 10
21258.610125085161
 20
19678.48415400002
 30
0.0
 11
21258.610125085161
 21
19685.48967000001
 31
0.0
  0
LINE
  5
B36F
  8
2-0
  6
CONTINUOUS
 62
     3
 10
20557.611114085172
 20
19678.48415400002
 30
0.0
 11
20557.611114085172
 21
19685.48967000001
 31
0.0
  0
LINE
  5
B370
  8
2-0
  6
CONTINUOUS
 62
     3
 10
20557.611114085172
 20
19685.48967000001
 30
0.0
 11
20552.610851085152
 21
19685.48967000001
 31
0.0
  0
LINE
  5
B371
  8
2-0
  6
CONTINUOUS
 62
     3
 10
20552.610851085152
 20
19685.48967000001
 30
0.0
 11
20552.610851085152
 21
19660.480433000001
 31
0.0
  0
LINE
  5
B372
  8
2-0
  6
CONTINUOUS
 62
     3
 10
20552.610851085152
 20
19660.480433000001
 30
0.0
 11
20570.604674085171
 21
19660.480433000001
 31
0.0
  0
LINE
  5
B373
  8
2-0
  6
CONTINUOUS
 62
     3
 10
20570.604674085171
 20
19660.480433000001
 30
0.0
 11
20570.604674085171
 21
19690.48399600001
 31
0.0
  0
LINE
  5
B374
  8
2-0
  6
CONTINUOUS
 62
     3
 10
20554.51316808517
 20
19660.480433000001
 30
0.0
 11
20560.511109085171
 21
19660.480433000001
 31
0.0
  0
LINE
  5
B375
  8
2-0
  6
CONTINUOUS
 62
     3
 10
20560.511109085171
 20
19660.480433000001
 30
0.0
 11
20560.511109085171
 21
19690.48399600001
 31
0.0
  0
LINE
  5
B376
  8
2-0
  6
CONTINUOUS
 62
     3
 10
20523.50994808515
 20
19690.48399600001
 30
0.0
 11
20560.511109085171
 21
19690.48399600001
 31
0.0
  0
LINE
  5
B377
  8
2-0
  6
CONTINUOUS
 62
     3
 10
20523.50994808515
 20
19660.480433000001
 30
0.0
 11
20523.50994808515
 21
19690.48399600001
 31
0.0
  0
LINE
  5
B378
  8
2-0
  6
CONTINUOUS
 62
     3
 10
20529.515807085161
 20
19660.480433000001
 30
0.0
 11
20523.50994808515
 21
19660.480433000001
 31
0.0
  0
LINE
  5
B379
  8
2-0
  6
CONTINUOUS
 62
     3
 10
20513.416383085161
 20
19660.480433000001
 30
0.0
 11
20513.416383085161
 21
19690.48399600001
 31
0.0
  0
LINE
  5
B37A
  8
2-0
  6
CONTINUOUS
 62
     3
 10
20531.412186085159
 20
19660.480433000001
 30
0.0
 11
20513.416383085161
 21
19660.480433000001
 31
0.0
  0
LINE
  5
B37B
  8
2-0
  6
CONTINUOUS
 62
     3
 10
20531.412186085159
 20
19685.48967000001
 30
0.0
 11
20531.412186085159
 21
19660.480433000001
 31
0.0
  0
LINE
  5
B37C
  8
2-0
  6
CONTINUOUS
 62
     3
 10
20526.421820085168
 20
19685.48967000001
 30
0.0
 11
20531.412186085159
 21
19685.48967000001
 31
0.0
  0
LINE
  5
B37D
  8
2-0
  6
CONTINUOUS
 62
     3
 10
20526.421820085168
 20
19678.48415400002
 30
0.0
 11
20526.421820085168
 21
19685.48967000001
 31
0.0
  0
LINE
  5
B37E
  8
2-0
  6
CONTINUOUS
 62
     3
 10
21214.415393085161
 20
19690.48399600001
 30
0.0
 11
20570.604674085171
 21
19690.48399600001
 31
0.0
  0
LINE
  5
B37F
  8
2-0
  6
CONTINUOUS
 62
     3
 10
21918.205286585169
 20
19690.48399600001
 30
0.0
 11
21271.605664085149
 21
19690.48399600001
 31
0.0
  0
LINE
  5
B380
  8
2-0
  6
CONTINUOUS
 62
     3
 10
19165.126898585149
 20
19690.48399600001
 30
0.0
 11
19812.412423585149
 21
19690.48399600001
 31
0.0
  0
LINE
  5
B381
  8
2-0
  6
CONTINUOUS
 62
     3
 10
19869.604674585149
 20
19690.48399600001
 30
0.0
 11
20513.416383085161
 21
19690.48399600001
 31
0.0
  0
LINE
  5
B382
  8
2-0
  6
CONTINUOUS
 62
     3
 10
19040.512244585159
 20
15242.62514799999
 30
0.0
 11
19040.512244585159
 21
14598.586289999999
 31
0.0
  0
LINE
  5
B383
  8
2-0
  6
CONTINUOUS
 62
     3
 10
19040.512244585159
 20
14541.390079999999
 30
0.0
 11
19040.512244585159
 21
13897.586785
 31
0.0
  0
LINE
  5
B384
  8
0-6
  6
CONTINUOUS
 62
     6
 10
20809.875037085159
 20
18979.165767999999
 30
0.0
 11
19784.834787085139
 21
18979.165767999999
 31
0.0
  0
LINE
  5
B385
  8
0-6
  6
CONTINUOUS
 62
     6
 10
21109.799815085171
 20
19536.51902
 30
0.0
 11
21214.415393085161
 21
19660.480433000001
 31
0.0
  0
LINE
  5
B386
  8
0-6
  6
CONTINUOUS
 62
     6
 10
21214.415393085161
 20
19660.480433000001
 30
0.0
 11
21155.657343085139
 21
19509.288763000019
 31
0.0
  0
LINE
  5
B387
  8
0-6
  6
CONTINUOUS
 62
     6
 10
21214.415393085161
 20
19660.480433000001
 30
0.0
 11
21109.799815085171
 21
19536.51902
 31
0.0
  0
LINE
  5
B388
  8
0-6
  6
CONTINUOUS
 62
     6
 10
21109.799815085171
 20
19536.51902
 30
0.0
 11
21155.657343085139
 21
19509.288763000019
 31
0.0
  0
LINE
  5
B389
  8
0-6
  6
CONTINUOUS
 62
     6
 10
21155.657343085139
 20
19509.288763000019
 30
0.0
 11
21214.415393085161
 21
19660.480433000001
 31
0.0
  0
LINE
  5
B38A
  8
0-6
  6
CONTINUOUS
 62
     6
 10
21155.657343085139
 20
19509.288763000019
 30
0.0
 11
21109.799815085171
 21
19536.51902
 31
0.0
  0
LINE
  5
B38B
  8
0-6
  6
CONTINUOUS
 62
     6
 10
21132.728579085138
 20
19522.90587100001
 30
0.0
 11
20809.875037085159
 21
18979.165767999999
 31
0.0
  0
TEXT
  5
B38C
  8
0-6
  6
CONTINUOUS
 62
     7
 10
19887.208106418479
 20
19059.16801200002
 30
0.0
 40
160.0
  1
間柱（後）
 72
     4
 11
20308.541439751822
 21
19139.16801200002
 31
0.0
  0
LINE
  5
B38D
  8
SUNPOU
  6
CONTINUOUS
 62
     4
 10
22001.010528585161
 20
12755.722277000001
 30
0.0
 11
22001.010528585161
 21
12410.037627
 31
0.0
  0
LINE
  5
B38E
  8
SUNPOU
  6
CONTINUOUS
 62
     4
 10
22043.512771585141
 20
13338.988416
 30
0.0
 11
22043.512771585141
 21
12410.037627
 31
0.0
  0
LINE
  5
B38F
  8
SUNPOU
  6
CONTINUOUS
 62
     4
 10
22001.010528585161
 20
12490.037627
 30
0.0
 11
21761.010528585161
 21
12490.037627
 31
0.0
  0
LINE
  5
B390
  8
SUNPOU
  6
CONTINUOUS
 62
     4
 10
22043.512771585141
 20
12490.037627
 30
0.0
 11
22283.512771585141
 21
12490.037627
 31
0.0
  0
LINE
  5
B391
  8
SUNPOU
  6
CONTINUOUS
 62
     4
 10
22001.010528585161
 20
12490.037627
 30
0.0
 11
22043.512771585141
 21
12490.037627
 31
0.0
  0
LINE
  5
B392
  8
SUNPOU
  6
CONTINUOUS
 62
     4
 10
19083.01052858515
 20
12755.722277000001
 30
0.0
 11
19083.01052858515
 21
12410.037627
 31
0.0
  0
LINE
  5
B393
  8
SUNPOU
  6
CONTINUOUS
 62
     4
 10
19040.508285585151
 20
13338.988416
 30
0.0
 11
19040.508285585151
 21
12410.037627
 31
0.0
  0
LINE
  5
B394
  8
SUNPOU
  6
CONTINUOUS
 62
     4
 10
19083.01052858515
 20
12490.037627
 30
0.0
 11
19323.01052858515
 21
12490.037627
 31
0.0
  0
LINE
  5
B395
  8
SUNPOU
  6
CONTINUOUS
 62
     4
 10
19040.508285585151
 20
12490.037627
 30
0.0
 11
18800.508285585151
 21
12490.037627
 31
0.0
  0
LINE
  5
B396
  8
SUNPOU
  6
CONTINUOUS
 62
     4
 10
19083.01052858515
 20
12490.037627
 30
0.0
 11
19040.508285585151
 21
12490.037627
 31
0.0
  0
LINE
  5
B397
  8
SUNPOU
  6
CONTINUOUS
 62
     4
 10
19083.01052858515
 20
12755.722277000001
 30
0.0
 11
19083.01052858515
 21
12410.037627
 31
0.0
  0
LINE
  5
B398
  8
SUNPOU
  6
CONTINUOUS
 62
     4
 10
19125.512771585149
 20
13338.988416
 30
0.0
 11
19125.512771585149
 21
12410.037627
 31
0.0
  0
LINE
  5
B399
  8
SUNPOU
  6
CONTINUOUS
 62
     4
 10
19083.01052858515
 20
12490.037627
 30
0.0
 11
18843.01052858515
 21
12490.037627
 31
0.0
  0
LINE
  5
B39A
  8
SUNPOU
  6
CONTINUOUS
 62
     4
 10
19125.512771585149
 20
12490.037627
 30
0.0
 11
19365.512771585141
 21
12490.037627
 31
0.0
  0
LINE
  5
B39B
  8
SUNPOU
  6
CONTINUOUS
 62
     4
 10
19083.01052858515
 20
12490.037627
 30
0.0
 11
19125.512771585149
 21
12490.037627
 31
0.0
  0
LINE
  5
B39C
  8
SUNPOU
  6
CONTINUOUS
 62
     4
 10
22001.010528585161
 20
12755.722277000001
 30
0.0
 11
22001.010528585161
 21
12410.037627
 31
0.0
  0
LINE
  5
B39D
  8
SUNPOU
  6
CONTINUOUS
 62
     4
 10
21958.508285585162
 20
13338.988416
 30
0.0
 11
21958.508285585162
 21
12410.037627
 31
0.0
  0
LINE
  5
B39E
  8
SUNPOU
  6
CONTINUOUS
 62
     4
 10
22001.010528585161
 20
12490.037627
 30
0.0
 11
22241.010528585161
 21
12490.037627
 31
0.0
  0
LINE
  5
B39F
  8
SUNPOU
  6
CONTINUOUS
 62
     4
 10
21958.508285585162
 20
12490.037627
 30
0.0
 11
21718.508285585162
 21
12490.037627
 31
0.0
  0
LINE
  5
B3A0
  8
SUNPOU
  6
CONTINUOUS
 62
     4
 10
22001.010528585161
 20
12490.037627
 30
0.0
 11
21958.508285585162
 21
12490.037627
 31
0.0
  0
LINE
  5
B3A1
  8
SUNPOU
  6
CONTINUOUS
 62
     4
 10
22043.512771585141
 20
13338.988416
 30
0.0
 11
22043.512771585141
 21
12010.037627
 31
0.0
  0
LINE
  5
B3A2
  8
SUNPOU
  6
CONTINUOUS
 62
     4
 10
19040.508285585151
 20
13338.988416
 30
0.0
 11
19040.508285585151
 21
12010.037627
 31
0.0
  0
LINE
  5
B3A3
  8
SUNPOU
  6
CONTINUOUS
 62
     4
 10
22043.512771585141
 20
12090.037627
 30
0.0
 11
19040.508285585151
 21
12090.037627
 31
0.0
  0
LINE
  5
B3A4
  8
SUNPOU
  6
CONTINUOUS
 62
     4
 10
18960.512244585159
 20
13868.985710999999
 30
0.0
 11
17910.51092458516
 21
13868.985710999999
 31
0.0
  0
LINE
  5
B3A5
  8
SUNPOU
  6
CONTINUOUS
 62
     4
 10
18110.51092458516
 20
13461.485710999999
 30
0.0
 11
17910.51092458516
 21
13461.485710999999
 31
0.0
  0
LINE
  5
B3A6
  8
SUNPOU
  6
CONTINUOUS
 62
     4
 10
17990.51092458516
 20
13868.985710999999
 30
0.0
 11
17990.51092458516
 21
13461.485710999999
 31
0.0
  0
LINE
  5
B3A7
  8
SUNPOU
  6
CONTINUOUS
 62
     4
 10
18960.512244585159
 20
14569.985710999999
 30
0.0
 11
17910.51092458516
 21
14569.985710999999
 31
0.0
  0
LINE
  5
B3A8
  8
SUNPOU
  6
CONTINUOUS
 62
     4
 10
18960.512244585159
 20
13868.985710999999
 30
0.0
 11
17910.51092458516
 21
13868.985710999999
 31
0.0
  0
LINE
  5
B3A9
  8
SUNPOU
  6
CONTINUOUS
 62
     4
 10
17990.51092458516
 20
14569.985710999999
 30
0.0
 11
17990.51092458516
 21
13868.985710999999
 31
0.0
  0
LINE
  5
B3AA
  8
SUNPOU
  6
CONTINUOUS
 62
     4
 10
18960.512244585159
 20
15271.22622250001
 30
0.0
 11
17910.51092458516
 21
15271.22622250001
 31
0.0
  0
LINE
  5
B3AB
  8
SUNPOU
  6
CONTINUOUS
 62
     4
 10
18960.512244585159
 20
14569.985710999999
 30
0.0
 11
17910.51092458516
 21
14569.985710999999
 31
0.0
  0
LINE
  5
B3AC
  8
SUNPOU
  6
CONTINUOUS
 62
     4
 10
17990.51092458516
 20
15271.22622250001
 30
0.0
 11
17990.51092458516
 21
14569.985710999999
 31
0.0
  0
LINE
  5
B3AD
  8
SUNPOU
  6
CONTINUOUS
 62
     4
 10
18960.512244585159
 20
15971.985710999999
 30
0.0
 11
17910.51092458516
 21
15971.985710999999
 31
0.0
  0
LINE
  5
B3AE
  8
SUNPOU
  6
CONTINUOUS
 62
     4
 10
18960.512244585159
 20
15271.22622250001
 30
0.0
 11
17910.51092458516
 21
15271.22622250001
 31
0.0
  0
LINE
  5
B3AF
  8
SUNPOU
  6
CONTINUOUS
 62
     4
 10
17990.51092458516
 20
15971.985710999999
 30
0.0
 11
17990.51092458516
 21
15271.22622250001
 31
0.0
  0
LINE
  5
B3B0
  8
SUNPOU
  6
CONTINUOUS
 62
     4
 10
18110.51092458516
 20
16729.98571099999
 30
0.0
 11
17910.51092458516
 21
16729.98571099999
 31
0.0
  0
LINE
  5
B3B1
  8
SUNPOU
  6
CONTINUOUS
 62
     4
 10
18960.512244585159
 20
15971.985710999999
 30
0.0
 11
17910.51092458516
 21
15971.985710999999
 31
0.0
  0
LINE
  5
B3B2
  8
SUNPOU
  6
CONTINUOUS
 62
     4
 10
17990.51092458516
 20
16729.98571099999
 30
0.0
 11
17990.51092458516
 21
15971.985710999999
 31
0.0
  0
LINE
  5
B3B3
  8
SUNPOU
  6
CONTINUOUS
 62
     4
 10
18960.512244585159
 20
17487.98571099999
 30
0.0
 11
17910.51092458516
 21
17487.98571099999
 31
0.0
  0
LINE
  5
B3B4
  8
SUNPOU
  6
CONTINUOUS
 62
     4
 10
18110.51092458516
 20
16729.98571099999
 30
0.0
 11
17910.51092458516
 21
16729.98571099999
 31
0.0
  0
LINE
  5
B3B5
  8
SUNPOU
  6
CONTINUOUS
 62
     4
 10
17990.51092458516
 20
17487.98571099999
 30
0.0
 11
17990.51092458516
 21
16729.98571099999
 31
0.0
  0
LINE
  5
B3B6
  8
SUNPOU
  6
CONTINUOUS
 62
     4
 10
18960.512244585159
 20
18188.98571099999
 30
0.0
 11
17910.51092458516
 21
18188.98571099999
 31
0.0
  0
LINE
  5
B3B7
  8
SUNPOU
  6
CONTINUOUS
 62
     4
 10
18960.512244585159
 20
17487.98571099999
 30
0.0
 11
17910.51092458516
 21
17487.98571099999
 31
0.0
  0
LINE
  5
B3B8
  8
SUNPOU
  6
CONTINUOUS
 62
     4
 10
17990.51092458516
 20
18188.98571099999
 30
0.0
 11
17990.51092458516
 21
17487.98571099999
 31
0.0
  0
LINE
  5
B3B9
  8
SUNPOU
  6
CONTINUOUS
 62
     4
 10
18960.512244585159
 20
18889.985711000001
 30
0.0
 11
17910.51092458516
 21
18889.98571099999
 31
0.0
  0
LINE
  5
B3BA
  8
SUNPOU
  6
CONTINUOUS
 62
     4
 10
18960.512244585159
 20
18188.98571099999
 30
0.0
 11
17910.51092458516
 21
18188.98571099999
 31
0.0
  0
LINE
  5
B3BB
  8
SUNPOU
  6
CONTINUOUS
 62
     4
 10
17990.51092458516
 20
18889.98571099999
 30
0.0
 11
17990.51092458516
 21
18188.98571099999
 31
0.0
  0
LINE
  5
B3BC
  8
SUNPOU
  6
CONTINUOUS
 62
     4
 10
18110.51092458516
 20
19647.98571099999
 30
0.0
 11
17910.51092458516
 21
19647.98571099999
 31
0.0
  0
LINE
  5
B3BD
  8
SUNPOU
  6
CONTINUOUS
 62
     4
 10
18960.512244585159
 20
18889.985711000001
 30
0.0
 11
17910.51092458516
 21
18889.98571099999
 31
0.0
  0
LINE
  5
B3BE
  8
SUNPOU
  6
CONTINUOUS
 62
     4
 10
17990.51092458516
 20
19647.98571099999
 30
0.0
 11
17990.51092458516
 21
18889.98571099999
 31
0.0
  0
LINE
  5
B3BF
  8
SUNPOU
  6
CONTINUOUS
 62
     4
 10
18110.51092458516
 20
16729.98571099999
 30
0.0
 11
17910.51092458516
 21
16729.98571099999
 31
0.0
  0
LINE
  5
B3C0
  8
SUNPOU
  6
CONTINUOUS
 62
     4
 10
18110.51092458516
 20
19647.98571099999
 30
0.0
 11
17910.51092458516
 21
19647.98571099999
 31
0.0
  0
LINE
  5
B3C1
  8
SUNPOU
  6
CONTINUOUS
 62
     4
 10
18110.51092458516
 20
13461.485710999999
 30
0.0
 11
17910.51092458516
 21
13461.485710999999
 31
0.0
  0
LINE
  5
B3C2
  8
SUNPOU
  6
CONTINUOUS
 62
     4
 10
18960.512244585159
 20
19690.483005999999
 30
0.0
 11
17510.510924585149
 21
19690.48300599998
 31
0.0
  0
LINE
  5
B3C3
  8
SUNPOU
  6
CONTINUOUS
 62
     4
 10
18960.512244585159
 20
13418.988416
 30
0.0
 11
17510.510924585149
 21
13418.988416
 31
0.0
  0
LINE
  5
B3C4
  8
SUNPOU
  6
CONTINUOUS
 62
     4
 10
17590.51092458516
 20
19690.48300599998
 30
0.0
 11
17590.51092458516
 21
13418.988416
 31
0.0
  0
LINE
  5
B3C5
  8
SUNPOU
  6
CONTINUOUS
 62
     4
 10
18110.51092458516
 20
19647.98571099999
 30
0.0
 11
17910.51092458516
 21
19647.98571099999
 31
0.0
  0
LINE
  5
B3C6
  8
SUNPOU
  6
CONTINUOUS
 62
     4
 10
18960.512244585159
 20
19690.483005999999
 30
0.0
 11
17910.51092458516
 21
19690.48300599998
 31
0.0
  0
LINE
  5
B3C7
  8
SUNPOU
  6
CONTINUOUS
 62
     4
 10
17990.51092458516
 20
19647.98571099999
 30
0.0
 11
17990.51092458516
 21
19407.98571099999
 31
0.0
  0
LINE
  5
B3C8
  8
SUNPOU
  6
CONTINUOUS
 62
     4
 10
17990.51092458516
 20
19690.48300599998
 30
0.0
 11
17990.51092458516
 21
19930.48300599998
 31
0.0
  0
LINE
  5
B3C9
  8
SUNPOU
  6
CONTINUOUS
 62
     4
 10
17990.51092458516
 20
19647.98571099999
 30
0.0
 11
17990.51092458516
 21
19690.48300599998
 31
0.0
  0
LINE
  5
B3CA
  8
SUNPOU
  6
CONTINUOUS
 62
     4
 10
18110.51092458516
 20
13461.485710999999
 30
0.0
 11
17910.51092458516
 21
13461.485710999999
 31
0.0
  0
LINE
  5
B3CB
  8
SUNPOU
  6
CONTINUOUS
 62
     4
 10
18960.512244585159
 20
13418.988416
 30
0.0
 11
17910.51092458516
 21
13418.988416
 31
0.0
  0
LINE
  5
B3CC
  8
SUNPOU
  6
CONTINUOUS
 62
     4
 10
17990.51092458516
 20
13461.485710999999
 30
0.0
 11
17990.51092458516
 21
13701.485710999999
 31
0.0
  0
LINE
  5
B3CD
  8
SUNPOU
  6
CONTINUOUS
 62
     4
 10
17990.51092458516
 20
13418.988416
 30
0.0
 11
17990.51092458516
 21
13178.988416
 31
0.0
  0
LINE
  5
B3CE
  8
SUNPOU
  6
CONTINUOUS
 62
     4
 10
17990.51092458516
 20
13461.485710999999
 30
0.0
 11
17990.51092458516
 21
13418.988416
 31
0.0
  0
TEXT
  5
B3CF
  8
0
  6
CONTINUOUS
 62
     7
 10
17910.51092458516
 20
12845.432179603211
 30
0.0
 40
160.0
  1
42.5
 50
90.0
  0
TEXT
  5
B3D0
  8
0
  6
CONTINUOUS
 62
     7
 10
17910.51092458516
 20
19784.03924239679
 30
0.0
 40
160.0
  1
42.5
 50
90.0
  0
TEXT
  5
B3D1
  8
0
  6
CONTINUOUS
 62
     7
 10
17510.51092458516
 20
16181.402377666671
 30
0.0
 40
160.0
  1
6271.5
 50
90.0
  0
TEXT
  5
B3D2
  8
0
  6
CONTINUOUS
 62
     7
 10
17910.51092458516
 20
19055.652377666669
 30
0.0
 40
160.0
  1
758
 50
90.0
  0
TEXT
  5
B3D3
  8
0
  6
CONTINUOUS
 62
     7
 10
17910.51092458516
 20
18366.152377666662
 30
0.0
 40
160.0
  1
701
 50
90.0
  0
TEXT
  5
B3D4
  8
0
  6
CONTINUOUS
 62
     7
 10
17910.51092458516
 20
17665.152377666669
 30
0.0
 40
160.0
  1
701
 50
90.0
  0
TEXT
  5
B3D5
  8
0
  6
CONTINUOUS
 62
     7
 10
17910.51092458516
 20
16895.652377666669
 30
0.0
 40
160.0
  1
758
 50
90.0
  0
TEXT
  5
B3D6
  8
0
  6
CONTINUOUS
 62
     7
 10
17910.51092458516
 20
16137.652377666671
 30
0.0
 40
160.0
  1
758
 50
90.0
  0
TEXT
  5
B3D7
  8
0
  6
CONTINUOUS
 62
     7
 10
17910.51092458516
 20
15448.27263341668
 30
0.0
 40
160.0
  1
701
 50
90.0
  0
TEXT
  5
B3D8
  8
0
  6
CONTINUOUS
 62
     7
 10
17910.51092458516
 20
14747.27263341668
 30
0.0
 40
160.0
  1
701
 50
90.0
  0
TEXT
  5
B3D9
  8
0
  6
CONTINUOUS
 62
     7
 10
18230.51092458516
 20
14046.152377666671
 30
0.0
 40
160.0
  1
701
 50
90.0
  0
TEXT
  5
B3DA
  8
0
  6
CONTINUOUS
 62
     7
 10
17870.51092458516
 20
13534.30612520354
 30
0.0
 40
160.0
  1
407.5
 50
90.0
  0
TEXT
  5
B3DB
  8
0
  6
CONTINUOUS
 62
     7
 10
20275.343861918482
 20
12170.037627
 30
0.0
 40
160.0
  1
3003
  0
TEXT
  5
B3DC
  8
0
  6
CONTINUOUS
 62
     7
 10
21402.956856203062
 20
12570.037627
 30
0.0
 40
160.0
  1
42.5
  0
TEXT
  5
B3DD
  8
0
  6
CONTINUOUS
 62
     7
 10
19201.064200967248
 20
12570.037627
 30
0.0
 40
160.0
  1
42.5
  0
TEXT
  5
B3DE
  8
0
  6
CONTINUOUS
 62
     7
 10
18484.956856203062
 20
12570.037627
 30
0.0
 40
160.0
  1
42.5
  0
TEXT
  5
B3DF
  8
0
  6
CONTINUOUS
 62
     7
 10
22119.064200967248
 20
12570.037627
 30
0.0
 40
160.0
  1
42.5
  0
ARC
  5
B3E0
  8
0
  6
BYBLOCK
 62
     0
 10
22001.010528585161
 20
12490.037627
 30
0.0
 40
15.0
 50
0.0
 51
180.0
  0
ARC
  5
B3E1
  8
0
  6
BYBLOCK
 62
     0
 10
22001.010528585161
 20
12490.037627
 30
0.0
 40
15.0
 50
180.0
 51
0.0
  0
ARC
  5
B3E2
  8
0
  6
BYBLOCK
 62
     0
 10
22043.512771585141
 20
12490.037627
 30
0.0
 40
15.0
 50
180.0
 51
0.0
  0
ARC
  5
B3E3
  8
0
  6
BYBLOCK
 62
     0
 10
22043.512771585141
 20
12490.037627
 30
0.0
 40
15.0
 50
0.0
 51
180.0
  0
ARC
  5
B3E4
  8
0
  6
BYBLOCK
 62
     0
 10
19083.01052858515
 20
12490.037627
 30
0.0
 40
15.0
 50
180.0
 51
0.0
  0
ARC
  5
B3E5
  8
0
  6
BYBLOCK
 62
     0
 10
19083.01052858515
 20
12490.037627
 30
0.0
 40
15.0
 50
0.0
 51
180.0
  0
ARC
  5
B3E6
  8
0
  6
BYBLOCK
 62
     0
 10
19040.508285585151
 20
12490.037627
 30
0.0
 40
15.0
 50
0.0
 51
180.0
  0
ARC
  5
B3E7
  8
0
  6
BYBLOCK
 62
     0
 10
19040.508285585151
 20
12490.037627
 30
0.0
 40
15.0
 50
180.0
 51
0.0
  0
ARC
  5
B3E8
  8
0
  6
BYBLOCK
 62
     0
 10
19083.01052858515
 20
12490.037627
 30
0.0
 40
15.0
 50
0.0
 51
180.0
  0
ARC
  5
B3E9
  8
0
  6
BYBLOCK
 62
     0
 10
19083.01052858515
 20
12490.037627
 30
0.0
 40
15.0
 50
180.0
 51
0.0
  0
ARC
  5
B3EA
  8
0
  6
BYBLOCK
 62
     0
 10
19125.512771585149
 20
12490.037627
 30
0.0
 40
15.0
 50
180.0
 51
0.0
  0
ARC
  5
B3EB
  8
0
  6
BYBLOCK
 62
     0
 10
19125.512771585149
 20
12490.037627
 30
0.0
 40
15.0
 50
0.0
 51
180.0
  0
ARC
  5
B3EC
  8
0
  6
BYBLOCK
 62
     0
 10
22001.010528585161
 20
12490.037627
 30
0.0
 40
15.0
 50
180.0
 51
0.0
  0
ARC
  5
B3ED
  8
0
  6
BYBLOCK
 62
     0
 10
22001.010528585161
 20
12490.037627
 30
0.0
 40
15.0
 50
0.0
 51
180.0
  0
ARC
  5
B3EE
  8
0
  6
BYBLOCK
 62
     0
 10
21958.508285585162
 20
12490.037627
 30
0.0
 40
15.0
 50
0.0
 51
180.0
  0
ARC
  5
B3EF
  8
0
  6
BYBLOCK
 62
     0
 10
21958.508285585162
 20
12490.037627
 30
0.0
 40
15.0
 50
180.0
 51
0.0
  0
ARC
  5
B3F0
  8
0
  6
BYBLOCK
 62
     0
 10
22043.512771585141
 20
12090.037627
 30
0.0
 40
15.0
 50
0.0
 51
180.0
  0
ARC
  5
B3F1
  8
0
  6
BYBLOCK
 62
     0
 10
22043.512771585141
 20
12090.037627
 30
0.0
 40
15.0
 50
180.0
 51
0.0
  0
ARC
  5
B3F2
  8
0
  6
BYBLOCK
 62
     0
 10
19040.508285585151
 20
12090.037627
 30
0.0
 40
15.0
 50
180.0
 51
0.0
  0
ARC
  5
B3F3
  8
0
  6
BYBLOCK
 62
     0
 10
19040.508285585151
 20
12090.037627
 30
0.0
 40
15.0
 50
0.0
 51
180.0
  0
ARC
  5
B3F4
  8
0
  6
BYBLOCK
 62
     0
 10
17990.51092458516
 20
13868.985710999999
 30
0.0
 40
15.0
 50
90.0
 51
270.0
  0
ARC
  5
B3F5
  8
0
  6
BYBLOCK
 62
     0
 10
17990.51092458516
 20
13868.985710999999
 30
0.0
 40
15.0
 50
270.0
 51
90.0
  0
ARC
  5
B3F6
  8
0
  6
BYBLOCK
 62
     0
 10
17990.51092458516
 20
13461.485710999999
 30
0.0
 40
15.0
 50
270.0
 51
90.0
  0
ARC
  5
B3F7
  8
0
  6
BYBLOCK
 62
     0
 10
17990.51092458516
 20
13461.485710999999
 30
0.0
 40
15.0
 50
90.0
 51
270.0
  0
ARC
  5
B3F8
  8
0
  6
BYBLOCK
 62
     0
 10
17990.51092458516
 20
14569.985710999999
 30
0.0
 40
15.0
 50
90.0
 51
270.0
  0
ARC
  5
B3F9
  8
0
  6
BYBLOCK
 62
     0
 10
17990.51092458516
 20
14569.985710999999
 30
0.0
 40
15.0
 50
270.0
 51
90.0
  0
ARC
  5
B3FA
  8
0
  6
BYBLOCK
 62
     0
 10
17990.51092458516
 20
13868.985710999999
 30
0.0
 40
15.0
 50
270.0
 51
90.0
  0
ARC
  5
B3FB
  8
0
  6
BYBLOCK
 62
     0
 10
17990.51092458516
 20
13868.985710999999
 30
0.0
 40
15.0
 50
90.0
 51
270.0
  0
ARC
  5
B3FC
  8
0
  6
BYBLOCK
 62
     0
 10
17990.51092458516
 20
15271.22622250001
 30
0.0
 40
15.0
 50
90.0
 51
270.0
  0
ARC
  5
B3FD
  8
0
  6
BYBLOCK
 62
     0
 10
17990.51092458516
 20
15271.22622250001
 30
0.0
 40
15.0
 50
270.0
 51
90.0
  0
ARC
  5
B3FE
  8
0
  6
BYBLOCK
 62
     0
 10
17990.51092458516
 20
14569.985710999999
 30
0.0
 40
15.0
 50
270.0
 51
90.0
  0
ARC
  5
B3FF
  8
0
  6
BYBLOCK
 62
     0
 10
17990.51092458516
 20
14569.985710999999
 30
0.0
 40
15.0
 50
90.0
 51
270.0
  0
ARC
  5
B400
  8
0
  6
BYBLOCK
 62
     0
 10
17990.51092458516
 20
15971.985710999999
 30
0.0
 40
15.0
 50
90.0
 51
270.0
  0
ARC
  5
B401
  8
0
  6
BYBLOCK
 62
     0
 10
17990.51092458516
 20
15971.985710999999
 30
0.0
 40
15.0
 50
270.0
 51
90.0
  0
ARC
  5
B402
  8
0
  6
BYBLOCK
 62
     0
 10
17990.51092458516
 20
15271.22622250001
 30
0.0
 40
15.0
 50
270.0
 51
90.0
  0
ARC
  5
B403
  8
0
  6
BYBLOCK
 62
     0
 10
17990.51092458516
 20
15271.22622250001
 30
0.0
 40
15.0
 50
90.0
 51
270.0
  0
ARC
  5
B404
  8
0
  6
BYBLOCK
 62
     0
 10
17990.51092458516
 20
16729.98571099999
 30
0.0
 40
15.0
 50
90.0
 51
270.0
  0
ARC
  5
B405
  8
0
  6
BYBLOCK
 62
     0
 10
17990.51092458516
 20
16729.98571099999
 30
0.0
 40
15.0
 50
270.0
 51
90.0
  0
ARC
  5
B406
  8
0
  6
BYBLOCK
 62
     0
 10
17990.51092458516
 20
15971.985710999999
 30
0.0
 40
15.0
 50
270.0
 51
90.0
  0
ARC
  5
B407
  8
0
  6
BYBLOCK
 62
     0
 10
17990.51092458516
 20
15971.985710999999
 30
0.0
 40
15.0
 50
90.0
 51
270.0
  0
ARC
  5
B408
  8
0
  6
BYBLOCK
 62
     0
 10
17990.51092458516
 20
17487.98571099999
 30
0.0
 40
15.0
 50
90.0
 51
270.0
  0
ARC
  5
B409
  8
0
  6
BYBLOCK
 62
     0
 10
17990.51092458516
 20
17487.98571099999
 30
0.0
 40
15.0
 50
270.0
 51
90.0
  0
ARC
  5
B40A
  8
0
  6
BYBLOCK
 62
     0
 10
17990.51092458516
 20
16729.98571099999
 30
0.0
 40
15.0
 50
270.0
 51
90.0
  0
ARC
  5
B40B
  8
0
  6
BYBLOCK
 62
     0
 10
17990.51092458516
 20
16729.98571099999
 30
0.0
 40
15.0
 50
90.0
 51
270.0
  0
ARC
  5
B40C
  8
0
  6
BYBLOCK
 62
     0
 10
17990.51092458516
 20
18188.98571099999
 30
0.0
 40
15.0
 50
90.0
 51
270.0
  0
ARC
  5
B40D
  8
0
  6
BYBLOCK
 62
     0
 10
17990.51092458516
 20
18188.98571099999
 30
0.0
 40
15.0
 50
270.0
 51
90.0
  0
ARC
  5
B40E
  8
0
  6
BYBLOCK
 62
     0
 10
17990.51092458516
 20
17487.98571099999
 30
0.0
 40
15.0
 50
270.0
 51
90.0
  0
ARC
  5
B40F
  8
0
  6
BYBLOCK
 62
     0
 10
17990.51092458516
 20
17487.98571099999
 30
0.0
 40
15.0
 50
90.0
 51
270.0
  0
ARC
  5
B410
  8
0
  6
BYBLOCK
 62
     0
 10
17990.51092458516
 20
18889.98571099999
 30
0.0
 40
15.0
 50
90.0
 51
270.0
  0
ARC
  5
B411
  8
0
  6
BYBLOCK
 62
     0
 10
17990.51092458516
 20
18889.98571099999
 30
0.0
 40
15.0
 50
270.0
 51
90.0
  0
ARC
  5
B412
  8
0
  6
BYBLOCK
 62
     0
 10
17990.51092458516
 20
18188.98571099999
 30
0.0
 40
15.0
 50
270.0
 51
90.0
  0
ARC
  5
B413
  8
0
  6
BYBLOCK
 62
     0
 10
17990.51092458516
 20
18188.98571099999
 30
0.0
 40
15.0
 50
90.0
 51
270.0
  0
ARC
  5
B414
  8
0
  6
BYBLOCK
 62
     0
 10
17990.51092458516
 20
19647.98571099999
 30
0.0
 40
15.0
 50
90.0
 51
270.0
  0
ARC
  5
B415
  8
0
  6
BYBLOCK
 62
     0
 10
17990.51092458516
 20
19647.98571099999
 30
0.0
 40
15.0
 50
270.0
 51
90.0
  0
ARC
  5
B416
  8
0
  6
BYBLOCK
 62
     0
 10
17990.51092458516
 20
18889.98571099999
 30
0.0
 40
15.0
 50
270.0
 51
90.0
  0
ARC
  5
B417
  8
0
  6
BYBLOCK
 62
     0
 10
17990.51092458516
 20
18889.98571099999
 30
0.0
 40
15.0
 50
90.0
 51
270.0
  0
ARC
  5
B418
  8
0
  6
BYBLOCK
 62
     0
 10
17990.51092458516
 20
19647.98571099999
 30
0.0
 40
15.0
 50
90.0
 51
270.0
  0
ARC
  5
B419
  8
0
  6
BYBLOCK
 62
     0
 10
17990.51092458516
 20
19647.98571099999
 30
0.0
 40
15.0
 50
270.0
 51
90.0
  0
ARC
  5
B41A
  8
0
  6
BYBLOCK
 62
     0
 10
17990.51092458516
 20
13461.485710999999
 30
0.0
 40
15.0
 50
270.0
 51
90.0
  0
ARC
  5
B41B
  8
0
  6
BYBLOCK
 62
     0
 10
17990.51092458516
 20
13461.485710999999
 30
0.0
 40
15.0
 50
90.0
 51
270.0
  0
ARC
  5
B41C
  8
0
  6
BYBLOCK
 62
     0
 10
17590.51092458516
 20
19690.48300599998
 30
0.0
 40
15.0
 50
90.0
 51
270.0
  0
ARC
  5
B41D
  8
0
  6
BYBLOCK
 62
     0
 10
17590.51092458516
 20
19690.48300599998
 30
0.0
 40
15.0
 50
270.0
 51
90.0
  0
ARC
  5
B41E
  8
0
  6
BYBLOCK
 62
     0
 10
17590.51092458516
 20
13418.988416
 30
0.0
 40
15.0
 50
270.0
 51
90.0
  0
ARC
  5
B41F
  8
0
  6
BYBLOCK
 62
     0
 10
17590.51092458516
 20
13418.988416
 30
0.0
 40
15.0
 50
90.0
 51
270.0
  0
ARC
  5
B420
  8
0
  6
BYBLOCK
 62
     0
 10
17990.51092458516
 20
19647.98571099999
 30
0.0
 40
15.0
 50
90.0
 51
270.0
  0
ARC
  5
B421
  8
0
  6
BYBLOCK
 62
     0
 10
17990.51092458516
 20
19647.98571099999
 30
0.0
 40
15.0
 50
270.0
 51
90.0
  0
ARC
  5
B422
  8
0
  6
BYBLOCK
 62
     0
 10
17990.51092458516
 20
19690.48300599998
 30
0.0
 40
15.0
 50
270.0
 51
90.0
  0
ARC
  5
B423
  8
0
  6
BYBLOCK
 62
     0
 10
17990.51092458516
 20
19690.48300599998
 30
0.0
 40
15.0
 50
90.0
 51
270.0
  0
ARC
  5
B424
  8
0
  6
BYBLOCK
 62
     0
 10
17990.51092458516
 20
13461.485710999999
 30
0.0
 40
15.0
 50
270.0
 51
90.0
  0
ARC
  5
B425
  8
0
  6
BYBLOCK
 62
     0
 10
17990.51092458516
 20
13461.485710999999
 30
0.0
 40
15.0
 50
90.0
 51
270.0
  0
ARC
  5
B426
  8
0
  6
BYBLOCK
 62
     0
 10
17990.51092458516
 20
13418.988416
 30
0.0
 40
15.0
 50
90.0
 51
270.0
  0
ARC
  5
B427
  8
0
  6
BYBLOCK
 62
     0
 10
17990.51092458516
 20
13418.988416
 30
0.0
 40
15.0
 50
270.0
 51
90.0
  0
LINE
  5
B428
  8
2-0
  6
CENTER2
 62
     6
 10
22001.010528585161
 20
21290.487954000011
 30
0.0
 11
22001.010528585161
 21
12298.986700999991
 31
0.0
  0
LINE
  5
B42B
  8
2-0
  6
CENTER2
 62
     6
 10
19083.010528585161
 20
21290.487954000011
 30
0.0
 11
19083.010528585161
 21
12298.986700999991
 31
0.0
  0
TEXT
  5
B53D
  8
FILENAME
  6
CONTINUOUS
 10
26480.19047619047
 20
348.0
 30
0.0
 40
200.0
  1
＜VGC-3062+VKC-5062-R-1-A_0.DXF ＞
  7
FILENAME
 72
     2
 11
32764.0
 21
348.0
 31
0.0
  0
LINE
  5
B542
  8
WAKUSEN-01
 10
868.00000000000193
 20
827.99999999999955
 30
0.0
 11
32764.000000000011
 21
827.99999999999943
 31
0.0
  0
LINE
  5
B543
  8
WAKUSEN-01
 10
868.00000000000193
 20
827.99999999999955
 30
0.0
 11
868.00000000000193
 21
22484.000000000011
 31
0.0
  0
LINE
  5
B544
  8
WAKUSEN-01
 10
32764.000000000011
 20
827.99999999999943
 30
0.0
 11
32764.000000000011
 21
22484.000000000011
 31
0.0
  0
LINE
  5
B545
  8
WAKUSEN-01
 10
20560.0
 20
827.99999999999716
 30
0.0
 11
20560.0
 21
2484.0
 31
0.0
  0
LINE
  5
B546
  8
WAKUSEN-02
 10
26868.0
 20
827.99999999999261
 30
0.0
 11
26868.0
 21
2484.0
 31
0.0
  0
ENDSEC
  0
EOF
