  0
SECTION
  2
HEADER
  9
$ACADVER
  1
AC1009
  9
$INSBASE
 10
0.0
 20
0.0
 30
0.0
  9
$EXTMIN
 10
867.99324330406671
 20
327.38164749855792
 30
-0.0000000000000058
  9
$EXTMAX
 10
32765.33210850941
 20
22484.553276491992
 30
0.0000000000000104
  9
$LIMMIN
 10
0.0
 20
0.0
  9
$LIMMAX
 10
33600.0
 20
23760.0
  9
$ORTHOMODE
 70
     1
  9
$REGENMODE
 70
     1
  9
$FILLMODE
 70
     1
  9
$QTEXTMODE
 70
     0
  9
$MIRRTEXT
 70
     0
  9
$DRAGMODE
 70
     2
  9
$LTSCALE
 40
80.0
  9
$OSMODE
 70
  3071
  9
$ATTMODE
 70
     1
  9
$TEXTSIZE
 40
0.2
  9
$TRACEWID
 40
0.05
  9
$TEXTSTYLE
  7
00
  9
$CLAYER
  8
0
  9
$CELTYPE
  6
BYLAYER
  9
$CECOLOR
 62
   256
  9
$DIMSCALE
 40
1.0
  9
$DIMASZ
 40
0.18
  9
$DIMEXO
 40
0.0625
  9
$DIMDLI
 40
0.38
  9
$DIMRND
 40
0.0
  9
$DIMDLE
 40
0.0
  9
$DIMEXE
 40
0.18
  9
$DIMTP
 40
0.0
  9
$DIMTM
 40
0.0
  9
$DIMTXT
 40
0.18
  9
$DIMCEN
 40
0.09
  9
$DIMTSZ
 40
0.0
  9
$DIMTOL
 70
     0
  9
$DIMLIM
 70
     0
  9
$DIMTIH
 70
     1
  9
$DIMTOH
 70
     1
  9
$DIMSE1
 70
     0
  9
$DIMSE2
 70
     0
  9
$DIMTAD
 70
     0
  9
$DIMZIN
 70
     0
  9
$DIMBLK
  1

  9
$DIMASO
 70
     1
  9
$DIMSHO
 70
     1
  9
$DIMPOST
  1

  9
$DIMAPOST
  1

  9
$DIMALT
 70
     0
  9
$DIMALTD
 70
     2
  9
$DIMALTF
 40
25.399999999999999
  9
$DIMLFAC
 40
1.0
  9
$DIMTOFL
 70
     0
  9
$DIMTVP
 40
0.0
  9
$DIMTIX
 70
     0
  9
$DIMSOXD
 70
     0
  9
$DIMSAH
 70
     0
  9
$DIMBLK1
  1

  9
$DIMBLK2
  1

  9
$DIMSTYLE
  2
STANDARD
  9
$DIMCLRD
 70
     0
  9
$DIMCLRE
 70
     0
  9
$DIMCLRT
 70
     0
  9
$DIMTFAC
 40
1.0
  9
$DIMGAP
 40
0.09
  9
$LUNITS
 70
     2
  9
$LUPREC
 70
     4
  9
$SKETCHINC
 40
0.1
  9
$FILLETRAD
 40
0.0
  9
$AUNITS
 70
     0
  9
$AUPREC
 70
     0
  9
$MENU
  1
acad
  9
$ELEVATION
 40
0.0
  9
$PELEVATION
 40
0.0
  9
$THICKNESS
 40
0.0
  9
$LIMCHECK
 70
     0
  9
$BLIPMODE
 70
     1
  9
$CHAMFERA
 40
0.0
  9
$CHAMFERB
 40
0.0
  9
$SKPOLY
 70
     0
  9
$TDCREATE
 40
2311940.075052408
  9
$TDUPDATE
 40
2458942.4547513309
  9
$TDINDWG
 40
0.3565677315
  9
$TDUSRTIMER
 40
0.3565671991
  9
$USRTIMER
 70
     1
  9
$ANGBASE
 50
0.0
  9
$ANGDIR
 70
     0
  9
$PDMODE
 70
     0
  9
$PDSIZE
 40
0.0
  9
$PLINEWID
 40
0.0
  9
$COORDS
 70
     1
  9
$SPLFRAME
 70
     0
  9
$SPLINETYPE
 70
     6
  9
$SPLINESEGS
 70
     8
  9
$ATTDIA
 70
     1
  9
$ATTREQ
 70
     1
  9
$HANDLING
 70
     1
  9
$HANDSEED
  5
DA33
  9
$SURFTAB1
 70
     6
  9
$SURFTAB2
 70
     6
  9
$SURFTYPE
 70
     6
  9
$SURFU
 70
     6
  9
$SURFV
 70
     6
  9
$UCSNAME
  2

  9
$UCSORG
 10
0.0
 20
0.0
 30
0.0
  9
$UCSXDIR
 10
1.0
 20
0.0
 30
0.0
  9
$UCSYDIR
 10
0.0
 20
1.0
 30
0.0
  9
$PUCSNAME
  2

  9
$PUCSORG
 10
0.0
 20
0.0
 30
0.0
  9
$PUCSXDIR
 10
1.0
 20
0.0
 30
0.0
  9
$PUCSYDIR
 10
0.0
 20
1.0
 30
0.0
  9
$USERI1
 70
     0
  9
$USERI2
 70
     0
  9
$USERI3
 70
     0
  9
$USERI4
 70
     0
  9
$USERI5
 70
     0
  9
$USERR1
 40
0.0
  9
$USERR2
 40
0.0
  9
$USERR3
 40
0.0
  9
$USERR4
 40
0.0
  9
$USERR5
 40
0.0
  9
$WORLDVIEW
 70
     1
  9
$SHADEDGE
 70
     3
  9
$SHADEDIF
 70
    70
  9
$TILEMODE
 70
     1
  9
$MAXACTVP
 70
    16
  9
$PLIMCHECK
 70
     0
  9
$PEXTMIN
 10
1.0000000000000000E+020
 20
1.0000000000000000E+020
 30
1.0000000000000000E+020
  9
$PEXTMAX
 10
-1.0000000000000000E+020
 20
-1.0000000000000000E+020
 30
-1.0000000000000000E+020
  9
$PLIMMIN
 10
0.0
 20
0.0
  9
$PLIMMAX
 10
12.0
 20
9.0
  9
$UNITMODE
 70
     0
  9
$VISRETAIN
 70
     0
  9
$PLINEGEN
 70
     1
  9
$PSLTSCALE
 70
     0
  0
ENDSEC
  0
SECTION
  2
TABLES
  0
TABLE
  2
VPORT
 70
     1
  0
VPORT
  2
*ACTIVE
 70
     0
 10
0.0
 20
0.0
 11
1.0
 21
1.0
 12
16800.0
 22
11880.0
 13
0.0
 23
0.0
 14
1.0
 24
1.0
 15
0.0
 25
0.0
 16
0.0
 26
0.0
 36
1.0
 17
0.0
 27
0.0
 37
0.0
 40
23981.023255813951
 41
2.195652173913043
 42
50.0
 43
0.0
 44
0.0
 50
0.0
 51
0.0
 71
     0
 72
 10000
 73
     1
 74
     1
 75
     0
 76
     0
 77
     0
 78
     0
  0
ENDTAB
  0
TABLE
  2
LTYPE
 70
     6
  0
LTYPE
  2
CONTINUOUS
 70
     0
  3
Solid line
 72
    65
 73
     0
 40
0.0
  0
LTYPE
  2
DASHED3
 70
     0
  3
------  ------  ------  ------  
 72
    65
 73
     2
 40
5.0
 49
3.75
 49
-1.25
  0
LTYPE
  2
CENTER2
 70
     0
  3
----------  --  ----------  --  
 72
    65
 73
     4
 40
20.0
 49
12.5
 49
-2.5
 49
2.5
 49
-2.5
  0
LTYPE
  2
HIDE-M
 70
     0
  3

 72
    65
 73
     2
 40
2.0
 49
1.0
 49
-1.0
  0
LTYPE
  2
1PL-M
 70
     0
  3

 72
    65
 73
     4
 40
15.0
 49
12.0
 49
-1.0
 49
1.0
 49
-1.0
  0
LTYPE
  2
PHANTOM2
 70
     0
  3
___ _ _ ___ _ _ ___ _ _ ___ _ _
 72
    65
 73
     6
 40
1.25
 49
0.625
 49
-0.125
 49
0.125
 49
-0.125
 49
0.125
 49
-0.125
  0
ENDTAB
  0
TABLE
  2
LAYER
 70
    24
  0
LAYER
  2
0
 70
     0
 62
     7
  6
CONTINUOUS
  0
LAYER
  2
SUNPOU
 70
     0
 62
     4
  6
CONTINUOUS
  0
LAYER
  2
0-1
 70
     0
 62
     7
  6
CONTINUOUS
  0
LAYER
  2
0-2
 70
     0
 62
     7
  6
CONTINUOUS
  0
LAYER
  2
0-5
 70
     0
 62
     7
  6
CONTINUOUS
  0
LAYER
  2
0-6
 70
     0
 62
     7
  6
CONTINUOUS
  0
LAYER
  2
2-0
 70
     0
 62
     7
  6
CONTINUOUS
  0
LAYER
  2
0-8
 70
     0
 62
     7
  6
CONTINUOUS
  0
LAYER
  2
YODOROGO
 70
     0
 62
   130
  6
CONTINUOUS
  0
LAYER
  2
WAKUSEN-01
 70
     0
 62
    50
  6
CONTINUOUS
  0
LAYER
  2
WAKUSEN-02
 70
     0
 62
   130
  6
CONTINUOUS
  0
LAYER
  2
WAKUMOJI-01
 70
     0
 62
   130
  6
CONTINUOUS
  0
LAYER
  2
FILENAME
 70
     0
 62
     7
  6
CONTINUOUS
  0
LAYER
  2
NAME
 70
     0
 62
    20
  6
CONTINUOUS
  0
LAYER
  2
0-4
 70
     0
 62
     7
  6
CONTINUOUS
  0
LAYER
  2
1-前柱P
 70
     0
 62
     3
  6
CONTINUOUS
  0
LAYER
  2
1-前柱カバ-P
 70
     0
 62
     3
  6
CONTINUOUS
  0
LAYER
  2
1-桁前P28
 70
     0
 62
     3
  6
CONTINUOUS
  0
LAYER
  2
1-後柱P
 70
     0
 62
     3
  6
CONTINUOUS
  0
LAYER
  2
1-中柱P
 70
     0
 62
     3
  6
CONTINUOUS
  0
LAYER
  2
1-後柱カバ-P
 70
     0
 62
     7
  6
CONTINUOUS
  0
LAYER
  2
1-中柱カバ-P
 70
     0
 62
     7
  6
CONTINUOUS
  0
ENDTAB
  0
TABLE
  2
STYLE
 70
     5
  0
STYLE
  2
STANDARD
 70
     0
 40
0.0
 41
1.0
 50
0.0
 71
     0
 42
0.0
  3
txt
  4
BIGFONT
  0
STYLE
  2
00
 70
     0
 40
0.0
 41
0.6666666666666666
 50
0.0
 71
     0
 42
0.2
  3
ROMANS
  4
BIGFONT
  0
STYLE
  2
01
 70
     0
 40
3.0
 41
1.0
 50
0.0
 71
     0
 42
0.2
  3
ROMANS
  4
BIGFONT
  0
STYLE
  2
WAKUMOJI
 70
     0
 40
3.0
 41
1.0
 50
0.0
 71
     0
 42
3.0
  3
SIMPLEX
  4
BIGFONT
  0
STYLE
  2
FILENAME
 70
     0
 40
200.0
 41
1.0
 50
0.0
 71
     0
 42
200.0
  3
romans
  4
bigfont
  0
ENDTAB
  0
TABLE
  2
VIEW
 70
     0
  0
ENDTAB
  0
TABLE
  2
UCS
 70
     0
  0
ENDTAB
  0
TABLE
  2
APPID
 70
    17
  0
APPID
  2
ACAD
 70
     0
  0
APPID
  2
ACADANNOTATIVE
 70
     0
  0
APPID
  2
ACAD_PSEXT
 70
     0
  0
APPID
  2
DCO15
 70
     0
  0
APPID
  2
ACAD_MLEADERVER
 70
     0
  0
APPID
  2
AUTOCAD_POSTSCRIPT_FIGURE
 70
     0
  0
APPID
  2
ACAD_EXEMPT_FROM_CAD_STANDARDS
 70
     0
  0
APPID
  2
ACLAYERTOOLS
 70
     0
  0
APPID
  2
ACAD_DSTYLE_DIMJAG
 70
     0
  0
APPID
  2
ACAD_DSTYLE_DIMTALN
 70
     0
  0
APPID
  2
ACAECLAYERSTANDARD
 70
     0
  0
APPID
  2
ACAD_DSTYLE_DIMBREAK
 70
     0
  0
APPID
  2
ACAD_DSTYLE_DIM_LINETYPE
 70
     0
  0
APPID
  2
ACAD_DSTYLE_DIM_EXT1_LINETYPE
 70
     0
  0
APPID
  2
ACAD_DSTYLE_DIM_EXT2_LINETYPE
 70
     0
  0
APPID
  2
ACAD_DSTYLE_DIMFLIPARROW_W
 70
     0
  0
APPID
  2
ACAD_NAV_VCDISPLAY
 70
     0
  0
ENDTAB
  0
TABLE
  2
DIMSTYLE
 70
     2
  0
DIMSTYLE
  2
STANDARD
 70
     0
  3

  4

  5

  6

  7

 40
1.0
 41
0.18
 42
0.0625
 43
0.38
 44
0.18
 45
0.0
 46
0.0
 47
0.0
 48
0.0
140
0.18
141
0.09
142
0.0
143
25.399999999999999
144
1.0
145
0.0
146
1.0
147
0.09
 71
     0
 72
     0
 73
     1
 74
     1
 75
     0
 76
     0
 77
     0
 78
     0
170
     0
171
     2
172
     0
173
     0
174
     0
175
     0
176
     0
177
     0
178
     0
  0
ENDTAB
  0
ENDSEC
  0
SECTION
  2
BLOCKS
  0
BLOCK
  8
0
  2
$MODEL_SPACE
 70
     0
 10
0.0
 20
0.0
 30
0.0
  3
$MODEL_SPACE
  1

  0
ENDBLK
  5
C930
  8
0
  0
BLOCK
 67
     1
  8
0
  2
$PAPER_SPACE
 70
     0
 10
0.0
 20
0.0
 30
0.0
  3
$PAPER_SPACE
  1

  0
ENDBLK
  5
C92C
 67
     1
  8
0
  0
ENDSEC
  0
SECTION
  2
ENTITIES
  0
CIRCLE
  5
C96A
  8
0-5
  6
CONTINUOUS
 62
     4
 10
15128.71667799999
 20
1375.999982000001
 30
0.0
 40
20.0
  0
ARC
  5
C96B
  8
0-5
  6
CONTINUOUS
 62
     4
 10
15128.71667799999
 20
1375.999982000001
 30
0.0
 40
20.0
 50
180.0
 51
0.0
  0
ARC
  5
C96C
  8
0-5
  6
CONTINUOUS
 62
     4
 10
15128.71667799999
 20
1375.999982000001
 30
0.0
 40
20.0
 50
0.0
 51
179.99998500000001
  0
CIRCLE
  5
C96D
  8
0-5
  6
CONTINUOUS
 62
     4
 10
15128.71667799999
 20
1775.9993219999981
 30
0.0
 40
20.0
  0
ARC
  5
C96E
  8
0-5
  6
CONTINUOUS
 62
     4
 10
15128.71667799999
 20
1775.9993219999981
 30
0.0
 40
20.0
 50
180.0
 51
0.0
  0
ARC
  5
C96F
  8
0-5
  6
CONTINUOUS
 62
     4
 10
15128.71667799999
 20
1775.9993219999981
 30
0.0
 40
20.0
 50
0.0
 51
179.99998500000001
  0
TEXT
  5
C970
  8
0-5
  6
CONTINUOUS
 62
     7
 10
16661.217403999992
 20
1655.9997920000001
 30
0.0
 40
160.0
  1
H
  0
TEXT
  5
C971
  8
0-5
  6
CONTINUOUS
 62
     7
 10
15176.146933
 20
1655.9997920000001
 30
0.0
 40
160.0
  1
（ ）内寸法ハ、  タイプヲ示ス。
  0
TEXT
  5
C972
  8
0-5
  6
CONTINUOUS
 62
     7
 10
15288.716216000001
 20
1255.999462
 30
0.0
 40
160.0
  1
有効高サハ、基礎高サヲ含ミマセン。
  0
TEXT
  5
C973
  8
2-0
  6
CONTINUOUS
 62
     7
 10
22778.194959206041
 20
3292.802588999999
 30
0.0
 40
160.0
  1
正 面 立 面 図
 72
     4
 11
23423.528292539369
 21
3372.802588999999
 31
0.0
  0
TEXT
  5
C974
  8
2-0
  6
CONTINUOUS
 62
     7
 10
9095.48340961143
 20
3264.0669070000022
 30
0.0
 40
160.0
  1
側 面 立 面 図
 50
0.000139
 72
     4
 11
9740.8165488622544
 21
3344.0684725833762
 31
0.0
  0
TEXT
  5
C978
  8
2-0
  6
CONTINUOUS
 62
     7
 10
11092.308733999869
 20
3291.2638415833758
 30
0.0
 40
160.0
  1
1
 72
     4
 11
11118.975400666541
 21
3371.2638415833749
 31
0.0
  0
TEXT
  5
C979
  8
2-0
  6
CONTINUOUS
 62
     7
 10
11335.39745125057
 20
3211.2653095833762
 30
0.0
 40
160.0
  1
80
 72
     4
 11
11455.39745125057
 21
3291.2653095833762
 31
0.0
  0
TEXT
  5
C97A
  8
2-0
  6
CONTINUOUS
 62
     7
 10
10593.310699999871
 20
3264.0684725833762
 30
0.0
 40
160.0
  1
(S=  /   )
 72
     4
 11
11153.310699999871
 21
3344.0684725833762
 31
0.0
  0
TEXT
  5
C97B
  8
2-0
  6
CONTINUOUS
 62
     7
 10
24775.02047767699
 20
3319.9979579999999
 30
0.0
 40
160.0
  1
1
 72
     4
 11
24801.687144343661
 21
3399.9979579999999
 31
0.0
  0
TEXT
  5
C97C
  8
2-0
  6
CONTINUOUS
 62
     7
 10
25018.109194927682
 20
3239.9994260000021
 30
0.0
 40
160.0
  1
80
 72
     4
 11
25138.109194927682
 21
3319.9994260000012
 31
0.0
  0
TEXT
  5
C97D
  8
2-0
  6
CONTINUOUS
 62
     7
 10
24276.022443676979
 20
3292.802588999999
 30
0.0
 40
160.0
  1
(S=  /   )
 72
     4
 11
24836.022443676979
 21
3372.802588999999
 31
0.0
  0
TEXT
  5
C983
  8
2-0
  6
CONTINUOUS
 62
     7
 10
22375.54557682863
 20
11251.104441999991
 30
0.0
 40
160.0
  1
平　面　図
 72
     4
 11
22828.878910161959
 21
11325.77110866666
 31
0.0
  0
TEXT
  5
C984
  8
2-0
  6
CONTINUOUS
 62
     7
 10
8556.1765810159377
 20
11156.81700299998
 30
0.0
 40
160.0
  1
小 屋 伏 図
 72
     4
 11
9057.5099143492735
 21
11236.81700299998
 31
0.0
  0
TEXT
  5
C985
  8
2-0
  6
CONTINUOUS
 62
     7
 10
24180.37109529959
 20
11272.96647766667
 30
0.0
 40
160.0
  1
1
 72
     4
 11
24207.037761966261
 21
11352.96647766667
 31
0.0
  0
TEXT
  5
C986
  8
2-0
  6
CONTINUOUS
 62
     7
 10
24423.459812550271
 20
11192.967945666671
 30
0.0
 40
160.0
  1
80
 72
     4
 11
24543.459812550271
 21
11272.967945666671
 31
0.0
  0
TEXT
  5
C987
  8
2-0
  6
CONTINUOUS
 62
     7
 10
23681.37306129959
 20
11245.77110866666
 30
0.0
 40
160.0
  1
(S=  /   )
 72
     4
 11
24241.37306129959
 21
11325.77110866666
 31
0.0
  0
TEXT
  5
C988
  8
2-0
  6
CONTINUOUS
 62
     7
 10
10409.002099486899
 20
11184.012371999979
 30
0.0
 40
160.0
  1
1
 72
     4
 11
10435.668766153571
 21
11264.012371999979
 31
0.0
  0
TEXT
  5
C989
  8
2-0
  6
CONTINUOUS
 62
     7
 10
10652.09081673758
 20
11104.013839999991
 30
0.0
 40
160.0
  1
80
 72
     4
 11
10772.09081673758
 21
11184.013839999991
 31
0.0
  0
TEXT
  5
C98A
  8
2-0
  6
CONTINUOUS
 62
     7
 10
9910.0040654868935
 20
11156.81700299998
 30
0.0
 40
160.0
  1
(S=  /   )
 72
     4
 11
10470.00406548689
 21
11236.81700299998
 31
0.0
  0
LINE
  5
C9A3
  8
0-6
  6
CONTINUOUS
 62
     6
 10
7379.9954971008256
 20
19588.21018799999
 30
0.0
 11
7523.8966001008084
 21
20100.485842999991
 31
0.0
  0
LINE
  5
C9A4
  8
0-6
  6
CONTINUOUS
 62
     6
 10
7341.605703100824
 20
19432.885282999989
 30
0.0
 11
7354.1073531008287
 21
19594.609971999991
 31
0.0
  0
LINE
  5
C9A5
  8
0-6
  6
CONTINUOUS
 62
     6
 10
7405.8806721008268
 20
19581.814364000002
 30
0.0
 11
7341.605703100824
 21
19432.885282999989
 31
0.0
  0
LINE
  5
C9A6
  8
0-6
  6
CONTINUOUS
 62
     6
 10
7405.8806721008268
 20
19581.814364000002
 30
0.0
 11
7354.1073531008287
 21
19594.609971999991
 31
0.0
  0
LINE
  5
C9A7
  8
0-6
  6
CONTINUOUS
 62
     6
 10
7523.8966001008084
 20
20100.485842999991
 30
0.0
 11
8041.5852481008169
 21
20100.485842999991
 31
0.0
  0
LINE
  5
C9A8
  8
0-6
  6
CONTINUOUS
 62
     6
 10
13433.931930100969
 20
17793.307889474359
 30
0.0
 11
13344.11622310096
 21
17928.380340474359
 31
0.0
  0
LINE
  5
C9A9
  8
0-6
  6
CONTINUOUS
 62
     6
 10
13344.11622310096
 20
17928.380340474359
 30
0.0
 11
13385.270414100971
 21
17771.479738474362
 31
0.0
  0
LINE
  5
C9AA
  8
0-6
  6
CONTINUOUS
 62
     6
 10
13344.11622310096
 20
17928.380340474359
 30
0.0
 11
13433.931930100969
 21
17793.307889474359
 31
0.0
  0
LINE
  5
C9AB
  8
0-6
  6
CONTINUOUS
 62
     6
 10
13433.931930100969
 20
17793.307889474359
 30
0.0
 11
13385.270414100971
 21
17771.479738474362
 31
0.0
  0
LINE
  5
C9AC
  8
0-6
  6
CONTINUOUS
 62
     6
 10
13385.270414100971
 20
17771.479738474362
 30
0.0
 11
13344.11622310096
 21
17928.380340474359
 31
0.0
  0
LINE
  5
C9AD
  8
0-6
  6
CONTINUOUS
 62
     6
 10
13385.270414100971
 20
17771.479738474362
 30
0.0
 11
13433.931930100969
 21
17793.307889474359
 31
0.0
  0
LINE
  5
C9B4
  8
0-6
  6
CONTINUOUS
 62
     6
 10
13508.64193010095
 20
17561.601280474351
 30
0.0
 11
14028.642656100959
 21
17561.601280474351
 31
0.0
  0
LINE
  5
C9B5
  8
0-6
  6
CONTINUOUS
 62
     6
 10
11285.49387177013
 20
13676.376956
 30
0.0
 11
11368.38126377011
 21
13853.31523499998
 31
0.0
  0
LINE
  5
C9B6
  8
0-6
  6
CONTINUOUS
 62
     6
 10
11368.38126377011
 20
13853.31523499998
 30
0.0
 11
12168.38192377011
 21
13853.31523499998
 31
0.0
  0
LINE
  5
C9B7
  8
0-6
  6
CONTINUOUS
 62
     6
 10
11441.4710532646
 20
13166.93993099999
 30
0.0
 11
11335.200598264581
 21
13289.48697799999
 31
0.0
  0
LINE
  5
C9B8
  8
0-6
  6
CONTINUOUS
 62
     6
 10
11335.200598264581
 20
13289.48697799999
 30
0.0
 11
11395.982706264591
 21
13139.098002000001
 31
0.0
  0
LINE
  5
C9B9
  8
0-6
  6
CONTINUOUS
 62
     6
 10
11335.200598264581
 20
13289.48697799999
 30
0.0
 11
11441.4710532646
 21
13166.93993099999
 31
0.0
  0
LINE
  5
C9BA
  8
0-6
  6
CONTINUOUS
 62
     6
 10
11441.4710532646
 20
13166.93993099999
 30
0.0
 11
11395.982706264591
 21
13139.098002000001
 31
0.0
  0
LINE
  5
C9BB
  8
0-6
  6
CONTINUOUS
 62
     6
 10
11395.982706264591
 20
13139.098002000001
 30
0.0
 11
11335.200598264581
 21
13289.48697799999
 31
0.0
  0
LINE
  5
C9BC
  8
0-6
  6
CONTINUOUS
 62
     6
 10
11395.982706264591
 20
13139.098002000001
 30
0.0
 11
11441.4710532646
 21
13166.93993099999
 31
0.0
  0
LINE
  5
C9BD
  8
0-6
  6
CONTINUOUS
 62
     6
 10
11261.34671477011
 20
13687.688915000001
 30
0.0
 11
11217.621128770101
 21
13531.486094
 31
0.0
  0
LINE
  5
C9BE
  8
0-6
  6
CONTINUOUS
 62
     6
 10
11217.621128770101
 20
13531.486094
 30
0.0
 11
11309.64201977011
 21
13665.064006999981
 31
0.0
  0
LINE
  5
C9BF
  8
0-6
  6
CONTINUOUS
 62
     6
 10
11217.621128770101
 20
13531.486094
 30
0.0
 11
11261.34671477011
 21
13687.688915000001
 31
0.0
  0
LINE
  5
C9C0
  8
0-6
  6
CONTINUOUS
 62
     6
 10
11261.34671477011
 20
13687.688915000001
 30
0.0
 11
11309.64201977011
 21
13665.064006999981
 31
0.0
  0
LINE
  5
C9C1
  8
0-6
  6
CONTINUOUS
 62
     6
 10
11309.64201977011
 20
13665.064006999981
 30
0.0
 11
11217.621128770101
 21
13531.486094
 31
0.0
  0
LINE
  5
C9C2
  8
0-6
  6
CONTINUOUS
 62
     6
 10
11309.64201977011
 20
13665.064006999981
 30
0.0
 11
11261.34671477011
 21
13687.688915000001
 31
0.0
  0
LINE
  5
C9C3
  8
0-6
  6
CONTINUOUS
 62
     6
 10
11824.83946826459
 20
12489.487308
 30
0.0
 11
12687.41963926459
 21
12489.487308
 31
0.0
  0
LINE
  5
C9C4
  8
0-6
  6
CONTINUOUS
 62
     6
 10
11418.727375264591
 20
13153.018967
 30
0.0
 11
11824.83946826459
 21
12489.487308
 31
0.0
  0
LINE
  5
C9C5
  8
0-6
  6
CONTINUOUS
 62
     6
 10
13406.56706510096
 20
13861.776687
 30
0.0
 11
13384.11635510097
 21
14022.42253799999
 31
0.0
  0
LINE
  5
C9C6
  8
0-6
  6
CONTINUOUS
 62
     6
 10
13384.11635510097
 20
14022.42253799999
 30
0.0
 11
13457.453559100981
 21
13877.741504
 31
0.0
  0
LINE
  5
C9C7
  8
0-6
  6
CONTINUOUS
 62
     6
 10
13384.11635510097
 20
14022.42253799999
 30
0.0
 11
13406.56706510096
 21
13861.776687
 31
0.0
  0
LINE
  5
C9C8
  8
0-6
  6
CONTINUOUS
 62
     6
 10
13406.56706510096
 20
13861.776687
 30
0.0
 11
13457.453559100981
 21
13877.741504
 31
0.0
  0
LINE
  5
C9C9
  8
0-6
  6
CONTINUOUS
 62
     6
 10
13457.453559100981
 20
13877.741504
 30
0.0
 11
13384.11635510097
 21
14022.42253799999
 31
0.0
  0
LINE
  5
C9CA
  8
0-6
  6
CONTINUOUS
 62
     6
 10
13457.453559100981
 20
13877.741504
 30
0.0
 11
13406.56706510096
 21
13861.776687
 31
0.0
  0
LINE
  5
C9CB
  8
0-6
  6
CONTINUOUS
 62
     6
 10
14018.751002100969
 20
11999.48618599998
 30
0.0
 11
15098.75060610097
 21
11999.48618599998
 31
0.0
  0
LINE
  5
C9CC
  8
0-6
  6
CONTINUOUS
 62
     6
 10
13432.010807100971
 20
13869.75810599999
 30
0.0
 11
14018.751002100949
 21
11999.48618599998
 31
0.0
  0
LINE
  5
C9CD
  8
0-6
  6
CONTINUOUS
 62
     6
 10
13409.60166710096
 20
17782.394803474352
 30
0.0
 11
13508.64193010095
 21
17561.601280474351
 31
0.0
  0
LINE
  5
C9E1
  8
0-6
  6
CONTINUOUS
 62
     6
 10
5316.7491888790537
 20
19870.485579
 30
0.0
 11
5225.061846879049
 21
20004.293117000001
 31
0.0
  0
LINE
  5
C9E2
  8
0-6
  6
CONTINUOUS
 62
     6
 10
5186.620585879049
 20
19967.325606999992
 30
0.0
 11
5316.7491888790537
 21
19870.485579
 31
0.0
  0
LINE
  5
C9E3
  8
0-6
  6
CONTINUOUS
 62
     6
 10
5186.620585879049
 20
19967.325606999992
 30
0.0
 11
5225.061846879049
 21
20004.293117000001
 31
0.0
  0
LINE
  5
C9E4
  8
0-6
  6
CONTINUOUS
 62
     6
 10
5205.840720879045
 20
19985.808372
 30
0.0
 11
4688.8518328790524
 21
20490.486634999979
 31
0.0
  0
LINE
  5
C9E5
  8
0-6
  6
CONTINUOUS
 62
     6
 10
3013.852492879043
 20
20490.486634999979
 30
0.0
 11
4688.8518328790524
 21
20490.486634999979
 31
0.0
  0
TEXT
  5
C9ED
  8
0-6
  6
CONTINUOUS
 62
     7
 10
7603.8968641008314
 20
20180.486106999979
 30
0.0
 40
160.0
  1
屋根
 72
     4
 11
7774.5635307674984
 21
20260.486106999979
 31
0.0
  0
TEXT
  5
C9EE
  8
0-6
  6
CONTINUOUS
 62
     7
 10
11448.380537770099
 20
13933.315499
 30
0.0
 40
160.0
  1
桁（前）
 72
     4
 11
11768.380537770099
 21
14013.315499
 31
0.0
  0
TEXT
  5
C9EF
  8
0-6
  6
CONTINUOUS
 62
     7
 10
11904.83874226459
 20
12569.48658199999
 30
0.0
 40
160.0
  1
鼻隠し前
 72
     4
 11
12267.50540893126
 21
12649.48658199999
 31
0.0
  0
TEXT
  5
C9F0
  8
0-6
  6
CONTINUOUS
 62
     7
 10
14098.75126610096
 20
12079.485459999991
 30
0.0
 40
160.0
  1
ケラバ 右
 72
     4
 11
14514.75126610096
 21
12159.485459999991
 31
0.0
  0
TEXT
  5
C9F1
  8
0-6
  6
CONTINUOUS
 62
     7
 10
13588.64219410097
 20
17641.601544474372
 30
0.0
 40
160.0
  1
上枠
 72
     4
 11
13759.30886076764
 21
17721.601544474372
 31
0.0
  0
TEXT
  5
C9F2
  8
0-6
  6
CONTINUOUS
 62
     7
 10
3093.852756879051
 20
20570.484918999991
 30
0.0
 40
160.0
  1
鼻隠しコーナー後
 72
     4
 11
3840.5194235457179
 21
20650.484918999991
 31
0.0
  0
TEXT
  5
C9F3
  8
0-6
  6
CONTINUOUS
 62
     7
 10
4021.013004755785
 20
14681.64230055935
 30
0.0
 40
160.0
  1
梁（P）前
 72
     4
 11
4463.6796714224529
 21
14761.64230055935
 31
0.0
  0
LINE
  5
C9F4
  8
0-6
  6
CONTINUOUS
 62
     6
 10
3956.8153165737449
 20
14601.643026559341
 30
0.0
 11
4971.8054858985906
 21
14601.643026559341
 31
0.0
  0
LINE
  5
C9F5
  8
0-6
  6
CONTINUOUS
 62
     6
 10
5307.8975284666221
 20
15289.39418566413
 30
0.0
 11
4971.8054858985906
 21
14601.643026559341
 31
0.0
  0
LINE
  5
C9F6
  8
0-6
  6
CONTINUOUS
 62
     6
 10
19800.963859563941
 20
12841.98711
 30
0.0
 11
20800.963200563929
 21
12841.98711
 31
0.0
  0
TEXT
  5
C9F7
  8
0-6
  6
CONTINUOUS
 62
     7
 10
19896.964123563921
 20
12921.98737399998
 30
0.0
 40
160.0
  1
前柱（P）
 72
     4
 11
20296.964123563921
 21
13001.98737399998
 31
0.0
  0
LINE
  5
C9F8
  8
0-6
  6
CONTINUOUS
 62
     6
 10
19395.887495742511
 20
13427.986252000001
 30
0.0
 11
19800.963859563941
 21
12841.98711
 31
0.0
  0
LINE
  5
C9F9
  8
0-6
  6
CONTINUOUS
 62
     6
 10
19800.963859563941
 20
16080.047909954121
 30
0.0
 11
20800.963200563929
 21
16080.047909954121
 31
0.0
  0
TEXT
  5
C9FA
  8
0-6
  6
CONTINUOUS
 62
     7
 10
19896.964123563921
 20
16160.048173954099
 30
0.0
 40
160.0
  1
中柱（P）
 72
     4
 11
20296.964123563921
 21
16240.048173954099
 31
0.0
  0
LINE
  5
C9FB
  8
0-6
  6
CONTINUOUS
 62
     6
 10
19395.887495742511
 20
16666.047051954109
 30
0.0
 11
19800.963859563941
 21
16080.047909954121
 31
0.0
  0
LINE
  5
C9FC
  8
0-6
  6
CONTINUOUS
 62
     6
 10
19714.85214469791
 20
14042.976989828871
 30
0.0
 11
21170.852144697921
 21
14042.976989828871
 31
0.0
  0
TEXT
  5
C9FD
  8
0-6
  6
CONTINUOUS
 62
     7
 10
19754.857417950308
 20
14122.97725382886
 30
0.0
 40
160.0
  1
前柱カバー（P）
 72
     4
 11
20442.857417950308
 21
14202.97725382886
 31
0.0
  0
LINE
  5
C9FE
  8
0-6
  6
CONTINUOUS
 62
     6
 10
19415.614549406961
 20
13554.586251999999
 30
0.0
 11
19714.85214469791
 21
14042.976989828871
 31
0.0
  0
LINE
  5
C9FF
  8
0-6
  6
CONTINUOUS
 62
     6
 10
19714.85214469791
 20
17300.976553828881
 30
0.0
 11
21170.852144697921
 21
17300.976553828881
 31
0.0
  0
TEXT
  5
CA00
  8
0-6
  6
CONTINUOUS
 62
     7
 10
19754.857417950308
 20
17380.976817828861
 30
0.0
 40
160.0
  1
中柱カバー（P）
 72
     4
 11
20442.857417950308
 21
17460.976817828861
 31
0.0
  0
LINE
  5
CA01
  8
0-6
  6
CONTINUOUS
 62
     6
 10
19415.614549406961
 20
16812.585815999999
 30
0.0
 11
19714.85214469791
 21
17300.976553828881
 31
0.0
  0
LINE
  5
CA02
  8
0-6
  6
CONTINUOUS
 62
     6
 10
19651.018618021801
 20
20091.00702862351
 30
0.0
 11
20651.017959021789
 21
20091.00702862351
 31
0.0
  0
TEXT
  5
CA03
  8
0-6
  6
CONTINUOUS
 62
     7
 10
19747.018882021792
 20
20171.007292623512
 30
0.0
 40
160.0
  1
後柱（P）
 72
     4
 11
20147.018882021792
 21
20251.007292623512
 31
0.0
  0
LINE
  5
CA04
  8
0-6
  6
CONTINUOUS
 62
     6
 10
19395.887495742511
 20
19721.924475045871
 30
0.0
 11
19651.018618021801
 21
20091.00702862351
 31
0.0
  0
LINE
  5
CA05
  8
0-6
  6
CONTINUOUS
 62
     6
 10
19714.85214469791
 20
19086.994973171109
 30
0.0
 11
21170.852144697921
 21
19086.994973171109
 31
0.0
  0
TEXT
  5
CA06
  8
0-6
  6
CONTINUOUS
 62
     7
 10
19754.857417950308
 20
19166.995237171112
 30
0.0
 40
160.0
  1
後柱カバー（P）
 72
     4
 11
20442.857417950308
 21
19246.995237171112
 31
0.0
  0
LINE
  5
CA07
  8
0-6
  6
CONTINUOUS
 62
     6
 10
19415.614549406961
 20
19575.385710999992
 30
0.0
 11
19714.85214469791
 21
19086.994973171109
 31
0.0
  0
LINE
  5
CA08
  8
0-6
  6
CONTINUOUS
 62
     6
 10
11492.22027366472
 20
16166.65469763633
 30
0.0
 11
12372.21921766475
 21
16166.65469763633
 31
0.0
  0
LINE
  5
CA09
  8
0-6
  6
CONTINUOUS
 62
     6
 10
11314.45813631634
 20
15996.637569966
 30
0.0
 11
11492.22027366472
 21
16166.65469763633
 31
0.0
  0
LINE
  5
CA0A
  8
0-6
  6
CONTINUOUS
 62
     6
 10
11198.830496316339
 20
15886.047805966
 30
0.0
 11
11296.027828316361
 21
16015.910162966
 31
0.0
  0
LINE
  5
CA0B
  8
0-6
  6
CONTINUOUS
 62
     6
 10
11332.889433316341
 20
15977.364976966001
 30
0.0
 11
11198.830496316339
 21
15886.047805966
 31
0.0
  0
LINE
  5
CA0C
  8
0-6
  6
CONTINUOUS
 62
     6
 10
11332.889433316341
 20
15977.364976966001
 30
0.0
 11
11296.027828316361
 21
16015.910162966
 31
0.0
  0
TEXT
  5
CA0D
  8
0-6
  6
CONTINUOUS
 62
     7
 10
11572.221527664729
 20
16246.654961636321
 30
0.0
 40
160.0
  1
ブレース
 72
     4
 11
11934.888194331401
 21
16331.98829496966
 31
0.0
  0
LINE
  5
CA0E
  8
0-6
  6
CONTINUOUS
 62
     6
 10
12330.455941556191
 20
16784.988192000001
 30
0.0
 11
12211.158323223841
 21
17100.580529999999
 31
0.0
  0
LINE
  5
CA0F
  8
0-6
  6
CONTINUOUS
 62
     6
 10
11410.58756222384
 20
17100.580529999999
 30
0.0
 11
12211.158323223841
 21
17100.580529999999
 31
0.0
  0
TEXT
  5
CA10
  8
0-6
  6
CONTINUOUS
 62
     7
 10
11491.15792722383
 20
17180.580794000001
 30
0.0
 40
160.0
  1
桁（中）
 72
     4
 11
11811.15792722383
 21
17260.580794000001
 31
0.0
  0
LINE
  5
CA11
  8
0-6
  6
CONTINUOUS
 62
     6
 10
7655.9582685159976
 20
15087.02979134236
 30
0.0
 11
8535.9572125160084
 21
15087.02979134236
 31
0.0
  0
LINE
  5
CA12
  8
0-6
  6
CONTINUOUS
 62
     6
 10
8903.6989180906239
 20
15554.87809797555
 30
0.0
 11
8535.9572125160084
 21
15087.02979134236
 31
0.0
  0
TEXT
  5
CA13
  8
0-6
  6
CONTINUOUS
 62
     7
 10
7735.9595225160019
 20
15167.03005534236
 30
0.0
 40
160.0
  1
ブレース
 72
     4
 11
8098.626189182668
 21
15252.3633886757
 31
0.0
  0
LINE
  5
CB94
  8
2-0
  6
CENTER2
 62
     6
 10
29348.971646566781
 20
19668.486251999992
 30
0.0
 11
28628.972966566791
 21
19668.486251999992
 31
0.0
  0
LINE
  5
CB95
  8
2-0
  6
CENTER2
 62
     6
 10
28468.972966566791
 20
19668.486251999992
 30
0.0
 11
19083.86588761484
 21
19668.486251999992
 31
0.0
  0
LINE
  5
CB96
  8
2-0
  6
CENTER2
 62
     6
 10
29348.971646566781
 20
16750.486251999992
 30
0.0
 11
28828.972966566791
 21
16750.486251999992
 31
0.0
  0
LINE
  5
CB97
  8
2-0
  6
CENTER2
 62
     6
 10
28148.973626566782
 20
16750.486251999992
 30
0.0
 11
19083.86588761484
 21
16750.486251999992
 31
0.0
  0
LINE
  5
CB98
  8
2-0
  6
CENTER2
 62
     6
 10
29348.971646566781
 20
13481.98625199999
 30
0.0
 11
28628.972966566791
 21
13481.98625199999
 31
0.0
  0
LINE
  5
CB99
  8
2-0
  6
CENTER2
 62
     6
 10
28468.972966566791
 20
13481.98625199999
 30
0.0
 11
19083.86588761484
 21
13481.986252000001
 31
0.0
  0
CIRCLE
  5
CB9A
  8
0-5
  6
CONTINUOUS
 62
     4
 10
24388.470723566781
 20
21510.987175999991
 30
0.0
 40
199.9999949999999
  0
CIRCLE
  5
CB9B
  8
0-5
  6
CONTINUOUS
 62
     4
 10
29548.972306566771
 20
19668.486251999992
 30
0.0
 40
199.9999949999999
  0
CIRCLE
  5
CB9C
  8
0-5
  6
CONTINUOUS
 62
     4
 10
29548.972306566771
 20
16750.486251999992
 30
0.0
 40
199.9999949999999
  0
CIRCLE
  5
CB9D
  8
0-5
  6
CONTINUOUS
 62
     4
 10
29548.972306566771
 20
13481.98625199999
 30
0.0
 40
199.9999949999999
  0
CIRCLE
  5
CB9E
  8
0-5
  6
CONTINUOUS
 62
     4
 10
27306.470723566788
 20
21510.987175999991
 30
0.0
 40
199.9999949999999
  0
TEXT
  5
CB9F
  8
0-5
  6
CONTINUOUS
 62
     7
 10
24336.474400900112
 20
21424.761326
 30
0.0
 40
160.0
  1
2
 72
     4
 11
24389.80773423344
 21
21504.761326
 31
0.0
  0
TEXT
  5
CBA0
  8
0-5
  6
CONTINUOUS
 62
     7
 10
27253.13739023346
 20
21430.987175999991
 30
0.0
 40
160.0
  1
3
 72
     4
 11
27306.470723566788
 21
21510.987175999991
 31
0.0
  0
TEXT
  5
CBA1
  8
0-5
  6
CONTINUOUS
 62
     7
 10
29490.982001900102
 20
19576.868192999991
 30
0.0
 40
160.0
  1
C
 72
     4
 11
29544.31533523343
 21
19656.868192999991
 31
0.0
  0
TEXT
  5
CBA2
  8
0-5
  6
CONTINUOUS
 62
     7
 10
29490.982001900109
 20
16658.868193999999
 30
0.0
 40
160.0
  1
B
 72
     4
 11
29544.315335233441
 21
16738.868193999999
 31
0.0
  0
TEXT
  5
CBA3
  8
0-5
  6
CONTINUOUS
 62
     7
 10
29490.982001900102
 20
13390.36819299998
 30
0.0
 40
160.0
  1
A
 72
     4
 11
29544.31533523343
 21
13470.36819299998
 31
0.0
  0
LINE
  5
CBA4
  8
2-0
  6
CENTER2
 62
     6
 10
19388.470723566781
 20
21310.988495000001
 30
0.0
 11
19388.470723566781
 21
13132.071627523999
 31
0.0
  0
CIRCLE
  5
CBA5
  8
0-5
  6
CONTINUOUS
 62
     4
 10
19388.470723566781
 20
21510.987175999991
 30
0.0
 40
199.9999949999999
  0
TEXT
  5
CBA6
  8
0-5
  6
CONTINUOUS
 62
     7
 10
19363.141067566768
 20
21424.761326
 30
0.0
 40
160.0
  1
1
 72
     4
 11
19389.80773423344
 21
21504.761326
 31
0.0
  0
ARC
  5
CBA7
  8
1-後柱P
  6
HIDE-M
 62
     6
 10
19384.870723566772
 20
19600.436251999981
 30
0.0
 40
2.6000000000000001
 50
270.0
 51
0.000000000000007
  0
LINE
  5
CBA8
  8
1-後柱P
  6
HIDE-M
 62
     6
 10
19396.470723566759
 20
19598.3868618468
 30
0.0
 11
19396.470723566759
 21
19602.036252000002
 31
0.0
  0
LINE
  5
CBA9
  8
1-後柱P
  6
HIDE-M
 62
     6
 10
19386.470723566748
 20
19598.3868618468
 30
0.0
 11
19386.470723566748
 21
19602.036252000002
 31
0.0
  0
LINE
  5
CBAA
  8
1-後柱P
  6
1PL-M
 62
     6
 10
19391.470723566759
 20
19592.836252000001
 30
0.0
 11
19391.470723566759
 21
19607.036252000002
 31
0.0
  0
ARC
  5
CBAB
  8
1-後柱P
  6
HIDE-M
 62
     6
 10
19398.07072356678
 20
19600.436251999981
 30
0.0
 40
2.6000000000000001
 50
180.0
 51
270.0
  0
LINE
  5
CBAC
  8
1-後柱P
  6
HIDE-M
 62
     6
 10
19387.470723566759
 20
19600.436251999981
 30
0.0
 11
19387.470723566759
 21
19602.036252000002
 31
0.0
  0
LINE
  5
CBAD
  8
1-後柱P
  6
HIDE-M
 62
     6
 10
19395.470723566759
 20
19600.436251999981
 30
0.0
 11
19395.470723566759
 21
19602.036252000002
 31
0.0
  0
LINE
  5
CBAE
  8
1-後柱P
 10
19377.57072356678
 20
19712.736251999992
 30
0.0
 11
19399.370723566761
 21
19712.736251999992
 31
0.0
  0
LINE
  5
CBAF
  8
1-後柱P
 10
19429.370723566761
 20
19675.436251999989
 30
0.0
 11
19429.370723566761
 21
19682.736251999992
 31
0.0
  0
ARC
  5
CBB0
  8
1-後柱P
 10
19399.370723566761
 20
19682.736251999992
 30
0.0
 40
30.0
 50
0.000000000000007
 51
90.0
  0
ARC
  5
CBB1
  8
1-後柱P
 10
19399.370723566761
 20
19682.736251999992
 30
0.0
 40
31.600000000000001
 50
0.000000000000007
 51
90.0
  0
LINE
  5
CBB2
  8
1-後柱P
 10
19377.57072356678
 20
19714.336252000001
 30
0.0
 11
19399.370723566761
 21
19714.336252000001
 31
0.0
  0
LINE
  5
CBB3
  8
1-後柱P
 10
19430.970723566759
 20
19675.436251999989
 30
0.0
 11
19430.970723566759
 21
19682.736251999992
 31
0.0
  0
LINE
  5
CBB4
  8
1-後柱P
 10
19407.970723566759
 20
19653.836252000001
 30
0.0
 11
19407.970723566759
 21
19663.836252000001
 31
0.0
  0
LINE
  5
CBB5
  8
1-後柱P
 10
19406.370723566761
 20
19663.836252000001
 30
0.0
 11
19406.370723566761
 21
19653.836252000001
 31
0.0
  0
LINE
  5
CBB6
  8
1-後柱P
 10
19347.57072356678
 20
19675.436251999989
 30
0.0
 11
19347.57072356678
 21
19682.736251999992
 31
0.0
  0
ARC
  5
CBB7
  8
1-後柱P
 10
19377.57072356678
 20
19682.736251999992
 30
0.0
 40
30.0
 50
90.0
 51
180.0
  0
ARC
  5
CBB8
  8
1-後柱P
 10
19377.57072356678
 20
19682.736251999992
 30
0.0
 40
31.600000000000001
 50
90.0
 51
180.0
  0
LINE
  5
CBB9
  8
1-後柱P
 10
19345.970723566759
 20
19675.436251999989
 30
0.0
 11
19345.970723566759
 21
19682.736251999992
 31
0.0
  0
LINE
  5
CBBA
  8
1-後柱P
 10
19352.57072356678
 20
19668.836252000001
 30
0.0
 11
19363.970723566748
 21
19668.836252000001
 31
0.0
  0
ARC
  5
CBBB
  8
1-後柱P
 10
19352.57072356678
 20
19675.436251999989
 30
0.0
 40
6.599999999999997
 50
180.0
 51
270.0
  0
ARC
  5
CBBC
  8
1-後柱P
 10
19363.970723566748
 20
19663.836252000001
 30
0.0
 40
5.0
 50
0.000000000000007
 51
90.0
  0
LINE
  5
CBBD
  8
1-後柱P
 10
19352.57072356678
 20
19670.436251999981
 30
0.0
 11
19363.970723566748
 21
19670.436251999981
 31
0.0
  0
ARC
  5
CBBE
  8
1-後柱P
 10
19352.57072356678
 20
19675.436251999989
 30
0.0
 40
5.0
 50
180.0
 51
270.0
  0
LINE
  5
CBBF
  8
1-後柱P
 10
19368.970723566759
 20
19663.836252000001
 30
0.0
 11
19368.970723566759
 21
19604.436251999989
 31
0.0
  0
LINE
  5
CBC0
  8
1-後柱P
 10
19370.57072356678
 20
19663.836252000001
 30
0.0
 11
19370.57072356678
 21
19604.436251999989
 31
0.0
  0
ARC
  5
CBC1
  8
1-後柱P
 10
19363.970723566748
 20
19663.836252000001
 30
0.0
 40
6.599999999999997
 50
0.000000000000007
 51
90.0
  0
LINE
  5
CBC2
  8
1-後柱P
 10
19375.57072356678
 20
19597.836252000001
 30
0.0
 11
19408.970723566759
 21
19597.836252000001
 31
0.0
  0
ARC
  5
CBC3
  8
1-後柱P
 10
19375.57072356678
 20
19604.436251999989
 30
0.0
 40
6.599999999999997
 50
180.0
 51
270.0
  0
LINE
  5
CBC4
  8
1-後柱P
 10
19375.57072356678
 20
19599.436251999981
 30
0.0
 11
19408.970723566759
 21
19599.436251999981
 31
0.0
  0
ARC
  5
CBC5
  8
1-後柱P
 10
19375.57072356678
 20
19604.436251999989
 30
0.0
 40
5.0
 50
180.0
 51
270.0
  0
LINE
  5
CBC6
  8
1-後柱P
 10
19408.970723566759
 20
19599.436251999981
 30
0.0
 11
19408.970723566759
 21
19597.836252000001
 31
0.0
  0
LINE
  5
CBC7
  8
1-後柱P
 10
19424.370723566761
 20
19668.836252000001
 30
0.0
 11
19412.970723566748
 21
19668.836252000001
 31
0.0
  0
ARC
  5
CBC8
  8
1-後柱P
 10
19424.370723566761
 20
19675.436251999989
 30
0.0
 40
6.599999999999997
 50
270.0
 51
0.000000000000007
  0
ARC
  5
CBC9
  8
1-後柱P
 10
19412.970723566748
 20
19663.836252000001
 30
0.0
 40
5.0
 50
90.0
 51
180.0
  0
LINE
  5
CBCA
  8
1-後柱P
 10
19412.970723566748
 20
19670.436251999981
 30
0.0
 11
19424.370723566761
 21
19670.436251999981
 31
0.0
  0
ARC
  5
CBCB
  8
1-後柱P
 10
19412.970723566748
 20
19663.836252000001
 30
0.0
 40
6.599999999999997
 50
90.0
 51
180.0
  0
ARC
  5
CBCC
  8
1-後柱P
 10
19424.370723566761
 20
19675.436251999989
 30
0.0
 40
5.0
 50
270.0
 51
0.000000000000007
  0
LINE
  5
CBCD
  8
1-後柱P
 10
19407.970723566759
 20
19653.836252000001
 30
0.0
 11
19406.370723566761
 21
19653.836252000001
 31
0.0
  0
LINE
  5
CBCE
  8
1-後柱カバ-P
 10
19430.970723566759
 20
19662.136252
 30
0.0
 11
19430.970723566759
 21
19602.836252000001
 31
0.0
  0
ARC
  5
CBCF
  8
1-後柱カバ-P
 10
19424.370723566761
 20
19602.836252000001
 30
0.0
 40
6.599999999999997
 50
270.0
 51
0.000000000000007
  0
LINE
  5
CBD0
  8
1-後柱カバ-P
 10
19429.370723566761
 20
19662.136252
 30
0.0
 11
19429.370723566761
 21
19602.836252000001
 31
0.0
  0
ARC
  5
CBD1
  8
1-後柱カバ-P
 10
19424.370723566761
 20
19662.136252
 30
0.0
 40
5.0
 50
0.000000000000007
 51
90.0
  0
LINE
  5
CBD2
  8
1-後柱カバ-P
 10
19424.370723566761
 20
19596.236251999992
 30
0.0
 11
19352.57072356678
 21
19596.236251999992
 31
0.0
  0
ARC
  5
CBD3
  8
1-後柱カバ-P
 10
19352.57072356678
 20
19602.836252000001
 30
0.0
 40
6.599999999999997
 50
180.0
 51
270.0
  0
LINE
  5
CBD4
  8
1-後柱カバ-P
 10
19424.370723566761
 20
19597.836252000001
 30
0.0
 11
19352.57072356678
 21
19597.836252000001
 31
0.0
  0
ARC
  5
CBD5
  8
1-後柱カバ-P
 10
19352.57072356678
 20
19602.836252000001
 30
0.0
 40
5.0
 50
180.0
 51
270.0
  0
ARC
  5
CBD6
  8
1-後柱カバ-P
 10
19424.370723566761
 20
19602.836252000001
 30
0.0
 40
5.0
 50
270.0
 51
0.000000000000007
  0
LINE
  5
CBD7
  8
1-後柱カバ-P
 10
19345.970723566759
 20
19602.836252000001
 30
0.0
 11
19345.970723566759
 21
19662.136252
 31
0.0
  0
LINE
  5
CBD8
  8
1-後柱カバ-P
 10
19347.57072356678
 20
19602.836252000001
 30
0.0
 11
19347.57072356678
 21
19662.136252
 31
0.0
  0
ARC
  5
CBD9
  8
1-後柱カバ-P
 10
19352.57072356678
 20
19662.136252
 30
0.0
 40
5.0
 50
90.0
 51
180.0
  0
LINE
  5
CBDA
  8
1-後柱カバ-P
  6
1PL-M
 62
     6
 10
19388.470723566759
 20
19603.736251999992
 30
0.0
 11
19388.470723566759
 21
19590.736251999992
 31
0.0
  0
LINE
  5
CBDB
  8
1-後柱カバ-P
  6
HIDE-M
 62
     6
 10
19395.470723566759
 20
19596.236251999992
 30
0.0
 11
19395.470723566759
 21
19597.836252000001
 31
0.0
  0
LINE
  5
CBDC
  8
1-後柱カバ-P
  6
HIDE-M
 62
     6
 10
19381.470723566759
 20
19596.236251999992
 30
0.0
 11
19381.470723566759
 21
19597.836252000001
 31
0.0
  0
ARC
  5
CBDD
  8
1-後柱カバ-P
 10
19424.370723566761
 20
19662.136252
 30
0.0
 40
6.599999999999997
 50
0.000000000000007
 51
90.0
  0
ARC
  5
CBDE
  8
1-後柱カバ-P
 10
19352.57072356678
 20
19662.136252
 30
0.0
 40
6.599999999999997
 50
90.0
 51
180.0
  0
LINE
  5
CBDF
  8
1-後柱カバ-P
 10
19360.970723566759
 20
19668.736251999992
 30
0.0
 11
19352.57072356678
 21
19668.736251999992
 31
0.0
  0
LINE
  5
CBE0
  8
1-後柱カバ-P
 10
19415.970723566759
 20
19668.736251999992
 30
0.0
 11
19424.370723566761
 21
19668.736251999992
 31
0.0
  0
LINE
  5
CBE1
  8
1-後柱カバ-P
 10
19360.970723566759
 20
19667.136252
 30
0.0
 11
19352.57072356678
 21
19667.136252
 31
0.0
  0
LINE
  5
CBE2
  8
1-後柱カバ-P
 10
19415.970723566759
 20
19667.136252
 30
0.0
 11
19424.370723566761
 21
19667.136252
 31
0.0
  0
LINE
  5
CBE3
  8
1-後柱カバ-P
 10
19415.970723566759
 20
19667.136252
 30
0.0
 11
19415.970723566759
 21
19668.736251999992
 31
0.0
  0
LINE
  5
CBE4
  8
1-後柱カバ-P
 10
19360.970723566759
 20
19668.736251999992
 30
0.0
 11
19360.970723566759
 21
19667.136252
 31
0.0
  0
LINE
  5
CBE5
  8
1-後柱カバ-P
  6
HIDE-M
 62
     6
 10
19357.07072356678
 20
19647.736251999992
 30
0.0
 11
19345.470723566748
 21
19647.736251999992
 31
0.0
  0
LINE
  5
CBE6
  8
1-後柱カバ-P
  6
HIDE-M
 62
     6
 10
19357.07072356678
 20
19639.736251999992
 30
0.0
 11
19345.470723566748
 21
19639.736251999992
 31
0.0
  0
LINE
  5
CBE7
  8
1-後柱カバ-P
  6
HIDE-M
 62
     6
 10
19357.07072356678
 20
19646.736251999992
 30
0.0
 11
19345.470723566748
 21
19646.736251999992
 31
0.0
  0
LINE
  5
CBE8
  8
1-後柱カバ-P
  6
HIDE-M
 62
     6
 10
19357.07072356678
 20
19640.736251999992
 30
0.0
 11
19345.470723566748
 21
19640.736251999992
 31
0.0
  0
LINE
  5
CBE9
  8
1-後柱カバ-P
 10
19356.07072356678
 20
19638.236251999992
 30
0.0
 11
19349.07072356678
 21
19638.236251999992
 31
0.0
  0
LINE
  5
CBEA
  8
1-後柱カバ-P
 10
19349.07072356678
 20
19649.236251999992
 30
0.0
 11
19356.07072356678
 21
19649.236251999992
 31
0.0
  0
LINE
  5
CBEB
  8
1-後柱カバ-P
 10
19349.07072356678
 20
19649.986251999992
 30
0.0
 11
19349.07072356678
 21
19637.486251999992
 31
0.0
  0
LINE
  5
CBEC
  8
1-後柱カバ-P
 10
19345.470723566748
 20
19649.736251999992
 30
0.0
 11
19345.470723566748
 21
19637.736251999992
 31
0.0
  0
LINE
  5
CBED
  8
1-後柱カバ-P
  6
HIDE-M
 62
     6
 10
19347.57072356678
 20
19638.236251999992
 30
0.0
 11
19345.970723566759
 21
19638.236251999992
 31
0.0
  0
LINE
  5
CBEE
  8
1-後柱カバ-P
 10
19345.470723566748
 20
19637.736251999992
 30
0.0
 11
19345.970723566759
 21
19638.236251999992
 31
0.0
  0
ARC
  5
CBEF
  8
1-後柱カバ-P
 10
19348.32072356678
 20
19637.486251999992
 30
0.0
 40
0.75
 50
180.0
 51
0.000000000000007
  0
LINE
  5
CBF0
  8
1-後柱カバ-P
  6
HIDE-M
 62
     6
 10
19345.970723566759
 20
19649.236251999992
 30
0.0
 11
19347.57072356678
 21
19649.236251999992
 31
0.0
  0
LINE
  5
CBF1
  8
1-後柱カバ-P
 10
19345.470723566748
 20
19649.736251999992
 30
0.0
 11
19345.970723566759
 21
19649.236251999992
 31
0.0
  0
ARC
  5
CBF2
  8
1-後柱カバ-P
 10
19348.32072356678
 20
19649.986251999992
 30
0.0
 40
0.75
 50
0.000000000000007
 51
180.0
  0
LINE
  5
CBF3
  8
1-後柱カバ-P
 10
19357.07072356678
 20
19648.236251999992
 30
0.0
 11
19357.07072356678
 21
19639.236251999992
 31
0.0
  0
ARC
  5
CBF4
  8
1-後柱カバ-P
 10
19356.07072356678
 20
19639.236251999992
 30
0.0
 40
1.0
 50
270.0
 51
0.000000000000007
  0
ARC
  5
CBF5
  8
1-後柱カバ-P
 10
19356.07072356678
 20
19648.236251999992
 30
0.0
 40
1.0
 50
0.000000000000007
 51
90.0
  0
LINE
  5
CBF6
  8
1-後柱カバ-P
  6
1PL-M
 62
     6
 10
19362.07072356678
 20
19643.736251999999
 30
0.0
 11
19340.470723566759
 21
19643.736251999999
 31
0.0
  0
LINE
  5
CBF7
  8
1-後柱カバ-P
 10
19356.07072356678
 20
19628.236251999992
 30
0.0
 11
19349.07072356678
 21
19628.236251999992
 31
0.0
  0
LINE
  5
CBF8
  8
1-後柱カバ-P
 10
19345.470723566748
 20
19635.736251999992
 30
0.0
 11
19345.470723566748
 21
19627.736251999992
 31
0.0
  0
LINE
  5
CBF9
  8
1-後柱カバ-P
  6
HIDE-M
 62
     6
 10
19347.57072356678
 20
19628.236251999992
 30
0.0
 11
19345.970723566759
 21
19628.236251999992
 31
0.0
  0
LINE
  5
CBFA
  8
1-後柱カバ-P
 10
19345.470723566748
 20
19627.736251999992
 30
0.0
 11
19345.970723566759
 21
19628.236251999992
 31
0.0
  0
ARC
  5
CBFB
  8
1-後柱カバ-P
 10
19348.32072356678
 20
19627.486251999992
 30
0.0
 40
0.75
 50
180.0
 51
0.000000000000007
  0
LINE
  5
CBFC
  8
1-後柱カバ-P
 10
19357.07072356678
 20
19637.236251999992
 30
0.0
 11
19357.07072356678
 21
19629.236251999992
 31
0.0
  0
ARC
  5
CBFD
  8
1-後柱カバ-P
 10
19356.07072356678
 20
19629.236251999992
 30
0.0
 40
1.0
 50
270.0
 51
0.000000000000007
  0
LINE
  5
CBFE
  8
1-後柱カバ-P
  6
1PL-M
 62
     6
 10
19362.07072356678
 20
19633.736251999992
 30
0.0
 11
19340.470723566759
 21
19633.736251999992
 31
0.0
  0
LINE
  5
CBFF
  8
1-後柱カバ-P
 10
19349.07072356678
 20
19635.486251999992
 30
0.0
 11
19349.07072356678
 21
19627.486251999992
 31
0.0
  0
LINE
  5
CC00
  8
1-後柱カバ-P
  6
HIDE-M
 62
     6
 10
19419.870723566772
 20
19647.736251999992
 30
0.0
 11
19431.470723566759
 21
19647.736251999992
 31
0.0
  0
LINE
  5
CC01
  8
1-後柱カバ-P
  6
HIDE-M
 62
     6
 10
19419.870723566772
 20
19639.736251999992
 30
0.0
 11
19431.470723566759
 21
19639.736251999992
 31
0.0
  0
LINE
  5
CC02
  8
1-後柱カバ-P
  6
HIDE-M
 62
     6
 10
19419.870723566772
 20
19646.736251999992
 30
0.0
 11
19431.470723566759
 21
19646.736251999992
 31
0.0
  0
LINE
  5
CC03
  8
1-後柱カバ-P
  6
HIDE-M
 62
     6
 10
19419.870723566772
 20
19640.736251999992
 30
0.0
 11
19431.470723566759
 21
19640.736251999992
 31
0.0
  0
LINE
  5
CC04
  8
1-後柱カバ-P
 10
19420.870723566761
 20
19638.236251999992
 30
0.0
 11
19427.870723566761
 21
19638.236251999992
 31
0.0
  0
LINE
  5
CC05
  8
1-後柱カバ-P
 10
19427.870723566761
 20
19649.236251999992
 30
0.0
 11
19420.870723566761
 21
19649.236251999992
 31
0.0
  0
LINE
  5
CC06
  8
1-後柱カバ-P
 10
19427.870723566761
 20
19649.986251999992
 30
0.0
 11
19427.870723566761
 21
19637.486251999992
 31
0.0
  0
LINE
  5
CC07
  8
1-後柱カバ-P
 10
19431.470723566759
 20
19649.736251999992
 30
0.0
 11
19431.470723566759
 21
19637.736251999992
 31
0.0
  0
LINE
  5
CC08
  8
1-後柱カバ-P
  6
HIDE-M
 62
     6
 10
19429.370723566761
 20
19638.236251999992
 30
0.0
 11
19430.970723566759
 21
19638.236251999992
 31
0.0
  0
LINE
  5
CC09
  8
1-後柱カバ-P
 10
19431.470723566759
 20
19637.736251999992
 30
0.0
 11
19430.970723566759
 21
19638.236251999992
 31
0.0
  0
ARC
  5
CC0A
  8
1-後柱カバ-P
 10
19428.620723566761
 20
19637.486251999992
 30
0.0
 40
0.75
 50
180.0
 51
0.000000000000007
  0
LINE
  5
CC0B
  8
1-後柱カバ-P
  6
HIDE-M
 62
     6
 10
19430.970723566759
 20
19649.236251999992
 30
0.0
 11
19429.370723566761
 21
19649.236251999992
 31
0.0
  0
LINE
  5
CC0C
  8
1-後柱カバ-P
 10
19431.470723566759
 20
19649.736251999992
 30
0.0
 11
19430.970723566759
 21
19649.236251999992
 31
0.0
  0
ARC
  5
CC0D
  8
1-後柱カバ-P
 10
19428.620723566761
 20
19649.986251999992
 30
0.0
 40
0.75
 50
0.000000000000007
 51
180.0
  0
LINE
  5
CC0E
  8
1-後柱カバ-P
 10
19419.870723566772
 20
19648.236251999992
 30
0.0
 11
19419.870723566772
 21
19639.236251999992
 31
0.0
  0
ARC
  5
CC0F
  8
1-後柱カバ-P
 10
19420.870723566761
 20
19639.236251999992
 30
0.0
 40
1.0
 50
180.0
 51
270.0
  0
ARC
  5
CC10
  8
1-後柱カバ-P
 10
19420.870723566761
 20
19648.236251999992
 30
0.0
 40
1.0
 50
90.0
 51
180.0
  0
LINE
  5
CC11
  8
1-後柱カバ-P
  6
1PL-M
 62
     6
 10
19414.870723566761
 20
19643.736251999999
 30
0.0
 11
19436.470723566759
 21
19643.736251999999
 31
0.0
  0
LINE
  5
CC12
  8
1-後柱カバ-P
 10
19420.870723566761
 20
19628.236251999992
 30
0.0
 11
19427.870723566761
 21
19628.236251999992
 31
0.0
  0
LINE
  5
CC13
  8
1-後柱カバ-P
 10
19431.470723566759
 20
19635.736251999992
 30
0.0
 11
19431.470723566759
 21
19627.736251999992
 31
0.0
  0
LINE
  5
CC14
  8
1-後柱カバ-P
  6
HIDE-M
 62
     6
 10
19429.370723566761
 20
19628.236251999992
 30
0.0
 11
19430.970723566759
 21
19628.236251999992
 31
0.0
  0
LINE
  5
CC15
  8
1-後柱カバ-P
 10
19431.470723566759
 20
19627.736251999992
 30
0.0
 11
19430.970723566759
 21
19628.236251999992
 31
0.0
  0
ARC
  5
CC16
  8
1-後柱カバ-P
 10
19428.620723566761
 20
19627.486251999992
 30
0.0
 40
0.75
 50
180.0
 51
0.000000000000007
  0
LINE
  5
CC17
  8
1-後柱カバ-P
 10
19419.870723566772
 20
19637.236251999992
 30
0.0
 11
19419.870723566772
 21
19629.236251999992
 31
0.0
  0
ARC
  5
CC18
  8
1-後柱カバ-P
 10
19420.870723566761
 20
19629.236251999992
 30
0.0
 40
1.0
 50
180.0
 51
270.0
  0
LINE
  5
CC19
  8
1-後柱カバ-P
  6
1PL-M
 62
     6
 10
19414.870723566761
 20
19633.736251999992
 30
0.0
 11
19436.470723566759
 21
19633.736251999992
 31
0.0
  0
LINE
  5
CC1A
  8
1-後柱カバ-P
 10
19427.870723566761
 20
19635.486251999992
 30
0.0
 11
19427.870723566761
 21
19627.486251999992
 31
0.0
  0
LINE
  5
CC1B
  8
1-後柱カバ-P
  6
HIDE-M
 62
     6
 10
19357.07072356678
 20
19629.736251999992
 30
0.0
 11
19345.470723566748
 21
19629.736251999992
 31
0.0
  0
LINE
  5
CC1C
  8
1-後柱カバ-P
  6
HIDE-M
 62
     6
 10
19357.07072356678
 20
19630.736251999992
 30
0.0
 11
19345.470723566748
 21
19630.736251999992
 31
0.0
  0
LINE
  5
CC1D
  8
1-後柱カバ-P
  6
HIDE-M
 62
     6
 10
19419.870723566772
 20
19629.736251999992
 30
0.0
 11
19431.470723566759
 21
19629.736251999992
 31
0.0
  0
LINE
  5
CC1E
  8
1-後柱カバ-P
  6
HIDE-M
 62
     6
 10
19419.870723566772
 20
19630.736251999992
 30
0.0
 11
19431.470723566759
 21
19630.736251999992
 31
0.0
  0
LINE
  5
CC1F
  8
1-中柱P
 10
19352.57072356678
 20
16679.486251999992
 30
0.0
 11
19424.370723566761
 21
16679.486251999992
 31
0.0
  0
ARC
  5
CC20
  8
1-中柱P
 10
19352.57072356678
 20
16684.486251999992
 30
0.0
 40
5.0
 50
180.0
 51
270.0
  0
ARC
  5
CC21
  8
1-中柱P
 10
19424.370723566761
 20
16684.486251999992
 30
0.0
 40
5.0
 50
270.0
 51
0.000000000000007
  0
LINE
  5
CC22
  8
1-中柱P
 10
19352.57072356678
 20
16677.886252
 30
0.0
 11
19424.370723566761
 21
16677.886252
 31
0.0
  0
ARC
  5
CC23
  8
1-中柱P
 10
19352.57072356678
 20
16684.486251999992
 30
0.0
 40
6.599999999999997
 50
180.0
 51
270.0
  0
LINE
  5
CC24
  8
1-中柱P
 10
19430.970723566781
 20
16743.786252000002
 30
0.0
 11
19430.970723566781
 21
16684.486251999992
 31
0.0
  0
ARC
  5
CC25
  8
1-中柱P
 10
19424.370723566761
 20
16684.486251999992
 30
0.0
 40
6.599999999999997
 50
270.0
 51
0.000000000000007
  0
LINE
  5
CC26
  8
1-中柱P
 10
19429.370723566761
 20
16684.486251999992
 30
0.0
 11
19429.370723566761
 21
16743.786252000002
 31
0.0
  0
ARC
  5
CC27
  8
1-中柱P
 10
19424.370723566761
 20
16743.786252000002
 30
0.0
 40
5.0
 50
0.000000000000007
 51
90.0
  0
LINE
  5
CC28
  8
1-中柱P
 10
19345.970723566781
 20
16743.786252000002
 30
0.0
 11
19345.970723566781
 21
16684.486251999992
 31
0.0
  0
LINE
  5
CC29
  8
1-中柱P
 10
19347.57072356678
 20
16684.486251999992
 30
0.0
 11
19347.57072356678
 21
16743.786252000002
 31
0.0
  0
LINE
  5
CC2A
  8
1-中柱P
 10
19352.57072356678
 20
16750.386252
 30
0.0
 11
19360.970723566781
 21
16750.386252
 31
0.0
  0
ARC
  5
CC2B
  8
1-中柱P
 10
19352.57072356678
 20
16743.786252000002
 30
0.0
 40
6.599999999999997
 50
90.0
 51
180.0
  0
LINE
  5
CC2C
  8
1-中柱P
 10
19352.57072356678
 20
16748.786252000002
 30
0.0
 11
19360.970723566781
 21
16748.786252000002
 31
0.0
  0
ARC
  5
CC2D
  8
1-中柱P
 10
19360.970723566781
 20
16755.386252
 30
0.0
 40
6.599999999999997
 50
270.0
 51
0.000000000000007
  0
ARC
  5
CC2E
  8
1-中柱P
 10
19352.57072356678
 20
16743.786252000002
 30
0.0
 40
5.0
 50
90.0
 51
180.0
  0
LINE
  5
CC2F
  8
1-中柱P
 10
19365.970723566781
 20
16755.386252
 30
0.0
 11
19365.970723566781
 21
16814.786252000002
 31
0.0
  0
ARC
  5
CC30
  8
1-中柱P
 10
19360.970723566781
 20
16755.386252
 30
0.0
 40
5.0
 50
270.0
 51
0.000000000000007
  0
LINE
  5
CC31
  8
1-中柱P
 10
19367.57072356678
 20
16755.386252
 30
0.0
 11
19367.57072356678
 21
16814.786252000002
 31
0.0
  0
LINE
  5
CC32
  8
1-中柱P
 10
19372.57072356678
 20
16821.386252
 30
0.0
 11
19405.970723566788
 21
16821.386252
 31
0.0
  0
ARC
  5
CC33
  8
1-中柱P
 10
19372.57072356678
 20
16814.786252000002
 30
0.0
 40
6.599999999999997
 50
90.0
 51
180.0
  0
LINE
  5
CC34
  8
1-中柱P
 10
19372.57072356678
 20
16819.786252000002
 30
0.0
 11
19405.970723566788
 21
16819.786252000002
 31
0.0
  0
ARC
  5
CC35
  8
1-中柱P
 10
19372.57072356678
 20
16814.786252000002
 30
0.0
 40
5.0
 50
90.0
 51
180.0
  0
LINE
  5
CC36
  8
1-中柱P
 10
19405.970723566788
 20
16819.786252000002
 30
0.0
 11
19405.970723566788
 21
16821.386252
 31
0.0
  0
LINE
  5
CC37
  8
1-中柱P
 10
19424.370723566761
 20
16750.386252
 30
0.0
 11
19415.970723566781
 21
16750.386252
 31
0.0
  0
ARC
  5
CC38
  8
1-中柱P
 10
19424.370723566761
 20
16743.786252000002
 30
0.0
 40
6.599999999999997
 50
0.000000000000007
 51
90.0
  0
ARC
  5
CC39
  8
1-中柱P
 10
19415.970723566781
 20
16755.386252
 30
0.0
 40
5.0
 50
180.0
 51
270.0
  0
LINE
  5
CC3A
  8
1-中柱P
 10
19415.970723566781
 20
16748.786252000002
 30
0.0
 11
19424.370723566761
 21
16748.786252000002
 31
0.0
  0
ARC
  5
CC3B
  8
1-中柱P
 10
19415.970723566781
 20
16755.386252
 30
0.0
 40
6.599999999999997
 50
180.0
 51
270.0
  0
ARC
  5
CC3C
  8
1-中柱P
  6
HIDE-M
 62
     6
 10
19381.870723566772
 20
16818.786252000002
 30
0.0
 40
2.6000000000000001
 50
0.000000000000007
 51
90.0
  0
LINE
  5
CC3D
  8
1-中柱P
  6
HIDE-M
 62
     6
 10
19393.470723566781
 20
16820.835642153179
 30
0.0
 11
19393.470723566781
 21
16817.186252
 31
0.0
  0
LINE
  5
CC3E
  8
1-中柱P
  6
HIDE-M
 62
     6
 10
19383.470723566781
 20
16820.835642153179
 30
0.0
 11
19383.470723566781
 21
16817.186252
 31
0.0
  0
LINE
  5
CC3F
  8
1-中柱P
  6
1PL-M
 62
     6
 10
19388.470723566781
 20
16826.386252
 30
0.0
 11
19388.470723566781
 21
16812.186252
 31
0.0
  0
ARC
  5
CC40
  8
1-中柱P
  6
HIDE-M
 62
     6
 10
19395.07072356678
 20
16818.786252000002
 30
0.0
 40
2.6000000000000001
 50
90.0
 51
180.0
  0
LINE
  5
CC41
  8
1-中柱P
  6
HIDE-M
 62
     6
 10
19384.470723566781
 20
16818.786252000002
 30
0.0
 11
19384.470723566781
 21
16817.186252
 31
0.0
  0
LINE
  5
CC42
  8
1-中柱P
  6
HIDE-M
 62
     6
 10
19392.470723566781
 20
16818.786252000002
 30
0.0
 11
19392.470723566781
 21
16817.186252
 31
0.0
  0
LINE
  5
CC43
  8
1-中柱P
 10
19409.370723566761
 20
16755.386252
 30
0.0
 11
19409.370723566761
 21
16765.386252
 31
0.0
  0
LINE
  5
CC44
  8
1-中柱P
 10
19410.970723566781
 20
16755.386252
 30
0.0
 11
19410.970723566781
 21
16765.386252
 31
0.0
  0
LINE
  5
CC45
  8
1-中柱P
 10
19409.370723566761
 20
16765.386252
 30
0.0
 11
19410.970723566781
 21
16765.386252
 31
0.0
  0
LINE
  5
CC46
  8
1-中柱P
  6
1PL-M
 62
     6
 10
19360.970723566781
 20
16786.386252
 30
0.0
 11
19375.170723566782
 21
16786.386252
 31
0.0
  0
LINE
  5
CC47
  8
1-中柱P
  6
HIDE-M
 62
     6
 10
19357.07072356678
 20
16729.386252
 30
0.0
 11
19345.470723566781
 21
16729.386252
 31
0.0
  0
LINE
  5
CC48
  8
1-中柱P
  6
HIDE-M
 62
     6
 10
19357.07072356678
 20
16721.386252
 30
0.0
 11
19345.470723566781
 21
16721.386252
 31
0.0
  0
LINE
  5
CC49
  8
1-中柱P
  6
HIDE-M
 62
     6
 10
19357.07072356678
 20
16728.386251999989
 30
0.0
 11
19345.470723566781
 21
16728.386251999989
 31
0.0
  0
LINE
  5
CC4A
  8
1-中柱P
  6
HIDE-M
 62
     6
 10
19357.07072356678
 20
16722.386252
 30
0.0
 11
19345.470723566781
 21
16722.386252
 31
0.0
  0
LINE
  5
CC4B
  8
1-中柱P
 10
19356.07072356678
 20
16719.886252
 30
0.0
 11
19349.07072356678
 21
16719.886252
 31
0.0
  0
LINE
  5
CC4C
  8
1-中柱P
 10
19349.07072356678
 20
16730.886252
 30
0.0
 11
19356.07072356678
 21
16730.886252
 31
0.0
  0
LINE
  5
CC4D
  8
1-中柱P
 10
19349.07072356678
 20
16731.636252
 30
0.0
 11
19349.07072356678
 21
16719.136252
 31
0.0
  0
LINE
  5
CC4E
  8
1-中柱P
 10
19345.470723566781
 20
16731.386252
 30
0.0
 11
19345.470723566781
 21
16719.386252
 31
0.0
  0
LINE
  5
CC4F
  8
1-中柱P
  6
HIDE-M
 62
     6
 10
19347.57072356678
 20
16719.886252
 30
0.0
 11
19345.970723566781
 21
16719.886252
 31
0.0
  0
LINE
  5
CC50
  8
1-中柱P
 10
19345.470723566781
 20
16719.386252
 30
0.0
 11
19345.970723566781
 21
16719.886252
 31
0.0
  0
ARC
  5
CC51
  8
1-中柱P
 10
19348.32072356678
 20
16719.136252
 30
0.0
 40
0.75
 50
180.0
 51
0.000000000000007
  0
LINE
  5
CC52
  8
1-中柱P
  6
HIDE-M
 62
     6
 10
19345.970723566781
 20
16730.886252
 30
0.0
 11
19347.57072356678
 21
16730.886252
 31
0.0
  0
LINE
  5
CC53
  8
1-中柱P
 10
19345.470723566781
 20
16731.386252
 30
0.0
 11
19345.970723566781
 21
16730.886252
 31
0.0
  0
ARC
  5
CC54
  8
1-中柱P
 10
19348.32072356678
 20
16731.636252
 30
0.0
 40
0.75
 50
0.000000000000007
 51
180.0
  0
LINE
  5
CC55
  8
1-中柱P
 10
19357.07072356678
 20
16729.886252
 30
0.0
 11
19357.07072356678
 21
16720.886251999989
 31
0.0
  0
ARC
  5
CC56
  8
1-中柱P
 10
19356.07072356678
 20
16720.886251999989
 30
0.0
 40
1.0
 50
270.0
 51
0.000000000000007
  0
ARC
  5
CC57
  8
1-中柱P
 10
19356.07072356678
 20
16729.886252
 30
0.0
 40
1.0
 50
0.000000000000007
 51
90.0
  0
LINE
  5
CC58
  8
1-中柱P
  6
1PL-M
 62
     6
 10
19362.07072356678
 20
16725.386252
 30
0.0
 11
19340.470723566781
 21
16725.386252
 31
0.0
  0
LINE
  5
CC59
  8
1-中柱P
 10
19356.07072356678
 20
16709.886252
 30
0.0
 11
19349.07072356678
 21
16709.886252
 31
0.0
  0
LINE
  5
CC5A
  8
1-中柱P
 10
19345.470723566781
 20
16717.386252
 30
0.0
 11
19345.470723566781
 21
16709.386251999989
 31
0.0
  0
LINE
  5
CC5B
  8
1-中柱P
  6
HIDE-M
 62
     6
 10
19347.57072356678
 20
16709.886252
 30
0.0
 11
19345.970723566781
 21
16709.886252
 31
0.0
  0
LINE
  5
CC5C
  8
1-中柱P
 10
19345.470723566781
 20
16709.386251999989
 30
0.0
 11
19345.970723566781
 21
16709.886252
 31
0.0
  0
ARC
  5
CC5D
  8
1-中柱P
 10
19348.32072356678
 20
16709.136252
 30
0.0
 40
0.75
 50
180.0
 51
0.000000000000007
  0
LINE
  5
CC5E
  8
1-中柱P
 10
19357.07072356678
 20
16718.886252
 30
0.0
 11
19357.07072356678
 21
16710.886252
 31
0.0
  0
ARC
  5
CC5F
  8
1-中柱P
 10
19356.07072356678
 20
16710.886252
 30
0.0
 40
1.0
 50
270.0
 51
0.000000000000007
  0
LINE
  5
CC60
  8
1-中柱P
  6
1PL-M
 62
     6
 10
19362.07072356678
 20
16715.386252
 30
0.0
 11
19340.470723566781
 21
16715.386252
 31
0.0
  0
LINE
  5
CC61
  8
1-中柱P
 10
19349.07072356678
 20
16717.136251999989
 30
0.0
 11
19349.07072356678
 21
16709.136252
 31
0.0
  0
LINE
  5
CC62
  8
1-中柱P
  6
HIDE-M
 62
     6
 10
19357.07072356678
 20
16711.386252
 30
0.0
 11
19345.470723566781
 21
16711.386252
 31
0.0
  0
LINE
  5
CC63
  8
1-中柱P
  6
HIDE-M
 62
     6
 10
19357.07072356678
 20
16712.386251999989
 30
0.0
 11
19345.470723566781
 21
16712.386251999989
 31
0.0
  0
LINE
  5
CC64
  8
1-中柱P
  6
HIDE-M
 62
     6
 10
19419.870723566772
 20
16729.386252
 30
0.0
 11
19431.470723566781
 21
16729.386252
 31
0.0
  0
LINE
  5
CC65
  8
1-中柱P
  6
HIDE-M
 62
     6
 10
19419.870723566772
 20
16721.386252
 30
0.0
 11
19431.470723566781
 21
16721.386252
 31
0.0
  0
LINE
  5
CC66
  8
1-中柱P
  6
HIDE-M
 62
     6
 10
19419.870723566772
 20
16728.386251999989
 30
0.0
 11
19431.470723566781
 21
16728.386251999989
 31
0.0
  0
LINE
  5
CC67
  8
1-中柱P
  6
HIDE-M
 62
     6
 10
19419.870723566772
 20
16722.386252
 30
0.0
 11
19431.470723566781
 21
16722.386252
 31
0.0
  0
LINE
  5
CC68
  8
1-中柱P
 10
19420.870723566761
 20
16719.886252
 30
0.0
 11
19427.870723566761
 21
16719.886252
 31
0.0
  0
LINE
  5
CC69
  8
1-中柱P
 10
19427.870723566761
 20
16730.886252
 30
0.0
 11
19420.870723566761
 21
16730.886252
 31
0.0
  0
LINE
  5
CC6A
  8
1-中柱P
 10
19427.870723566761
 20
16731.636252
 30
0.0
 11
19427.870723566761
 21
16719.136252
 31
0.0
  0
LINE
  5
CC6B
  8
1-中柱P
 10
19431.470723566781
 20
16731.386252
 30
0.0
 11
19431.470723566781
 21
16719.386252
 31
0.0
  0
LINE
  5
CC6C
  8
1-中柱P
  6
HIDE-M
 62
     6
 10
19429.370723566761
 20
16719.886252
 30
0.0
 11
19430.970723566781
 21
16719.886252
 31
0.0
  0
LINE
  5
CC6D
  8
1-中柱P
 10
19431.470723566781
 20
16719.386252
 30
0.0
 11
19430.970723566781
 21
16719.886252
 31
0.0
  0
ARC
  5
CC6E
  8
1-中柱P
 10
19428.620723566761
 20
16719.136252
 30
0.0
 40
0.75
 50
180.0
 51
0.000000000000007
  0
LINE
  5
CC6F
  8
1-中柱P
  6
HIDE-M
 62
     6
 10
19430.970723566781
 20
16730.886252
 30
0.0
 11
19429.370723566761
 21
16730.886252
 31
0.0
  0
LINE
  5
CC70
  8
1-中柱P
 10
19431.470723566781
 20
16731.386252
 30
0.0
 11
19430.970723566781
 21
16730.886252
 31
0.0
  0
ARC
  5
CC71
  8
1-中柱P
 10
19428.620723566761
 20
16731.636252
 30
0.0
 40
0.75
 50
0.000000000000007
 51
180.0
  0
LINE
  5
CC72
  8
1-中柱P
 10
19419.870723566772
 20
16729.886252
 30
0.0
 11
19419.870723566772
 21
16720.886251999989
 31
0.0
  0
ARC
  5
CC73
  8
1-中柱P
 10
19420.870723566761
 20
16720.886251999989
 30
0.0
 40
1.0
 50
180.0
 51
270.0
  0
ARC
  5
CC74
  8
1-中柱P
 10
19420.870723566761
 20
16729.886252
 30
0.0
 40
1.0
 50
90.0
 51
180.0
  0
LINE
  5
CC75
  8
1-中柱P
  6
1PL-M
 62
     6
 10
19414.870723566761
 20
16725.386252
 30
0.0
 11
19436.470723566788
 21
16725.386252
 31
0.0
  0
LINE
  5
CC76
  8
1-中柱P
 10
19420.870723566761
 20
16709.886252
 30
0.0
 11
19427.870723566761
 21
16709.886252
 31
0.0
  0
LINE
  5
CC77
  8
1-中柱P
 10
19431.470723566781
 20
16717.386252
 30
0.0
 11
19431.470723566781
 21
16709.386251999989
 31
0.0
  0
LINE
  5
CC78
  8
1-中柱P
  6
HIDE-M
 62
     6
 10
19429.370723566761
 20
16709.886252
 30
0.0
 11
19430.970723566781
 21
16709.886252
 31
0.0
  0
LINE
  5
CC79
  8
1-中柱P
 10
19431.470723566781
 20
16709.386251999989
 30
0.0
 11
19430.970723566781
 21
16709.886252
 31
0.0
  0
ARC
  5
CC7A
  8
1-中柱P
 10
19428.620723566761
 20
16709.136252
 30
0.0
 40
0.75
 50
180.0
 51
0.000000000000007
  0
LINE
  5
CC7B
  8
1-中柱P
 10
19419.870723566772
 20
16718.886252
 30
0.0
 11
19419.870723566772
 21
16710.886252
 31
0.0
  0
ARC
  5
CC7C
  8
1-中柱P
 10
19420.870723566761
 20
16710.886252
 30
0.0
 40
1.0
 50
180.0
 51
270.0
  0
LINE
  5
CC7D
  8
1-中柱P
  6
1PL-M
 62
     6
 10
19414.870723566761
 20
16715.386252
 30
0.0
 11
19436.470723566788
 21
16715.386252
 31
0.0
  0
LINE
  5
CC7E
  8
1-中柱P
 10
19427.870723566761
 20
16717.136251999989
 30
0.0
 11
19427.870723566761
 21
16709.136252
 31
0.0
  0
LINE
  5
CC7F
  8
1-中柱P
  6
HIDE-M
 62
     6
 10
19419.870723566772
 20
16711.386252
 30
0.0
 11
19431.470723566781
 21
16711.386252
 31
0.0
  0
LINE
  5
CC80
  8
1-中柱P
  6
HIDE-M
 62
     6
 10
19419.870723566772
 20
16712.386251999989
 30
0.0
 11
19431.470723566781
 21
16712.386251999989
 31
0.0
  0
LINE
  5
CC81
  8
1-中柱カバ-P
 10
19430.970723566781
 20
16757.086252000001
 30
0.0
 11
19430.970723566781
 21
16816.386252
 31
0.0
  0
ARC
  5
CC82
  8
1-中柱カバ-P
 10
19424.370723566761
 20
16816.386252
 30
0.0
 40
6.599999999999997
 50
0.000000000000007
 51
90.0
  0
LINE
  5
CC83
  8
1-中柱カバ-P
 10
19429.370723566761
 20
16757.086252000001
 30
0.0
 11
19429.370723566761
 21
16816.386252
 31
0.0
  0
ARC
  5
CC84
  8
1-中柱カバ-P
 10
19424.370723566761
 20
16757.086252000001
 30
0.0
 40
5.0
 50
270.0
 51
0.000000000000007
  0
LINE
  5
CC85
  8
1-中柱カバ-P
 10
19424.370723566761
 20
16822.986251999992
 30
0.0
 11
19352.57072356678
 21
16822.986251999992
 31
0.0
  0
ARC
  5
CC86
  8
1-中柱カバ-P
 10
19352.57072356678
 20
16816.386252
 30
0.0
 40
6.599999999999997
 50
90.0
 51
180.0
  0
LINE
  5
CC87
  8
1-中柱カバ-P
 10
19424.370723566761
 20
16821.386252
 30
0.0
 11
19352.57072356678
 21
16821.386252
 31
0.0
  0
ARC
  5
CC88
  8
1-中柱カバ-P
 10
19352.57072356678
 20
16816.386252
 30
0.0
 40
5.0
 50
90.0
 51
180.0
  0
ARC
  5
CC89
  8
1-中柱カバ-P
 10
19424.370723566761
 20
16816.386252
 30
0.0
 40
5.0
 50
0.000000000000007
 51
90.0
  0
LINE
  5
CC8A
  8
1-中柱カバ-P
 10
19345.970723566781
 20
16816.386252
 30
0.0
 11
19345.970723566781
 21
16757.086252000001
 31
0.0
  0
LINE
  5
CC8B
  8
1-中柱カバ-P
 10
19347.57072356678
 20
16816.386252
 30
0.0
 11
19347.57072356678
 21
16757.086252000001
 31
0.0
  0
ARC
  5
CC8C
  8
1-中柱カバ-P
 10
19352.57072356678
 20
16757.086252000001
 30
0.0
 40
5.0
 50
180.0
 51
270.0
  0
LINE
  5
CC8D
  8
1-中柱カバ-P
  6
1PL-M
 62
     6
 10
19388.470723566781
 20
16815.486251999992
 30
0.0
 11
19388.470723566781
 21
16828.486251999992
 31
0.0
  0
LINE
  5
CC8E
  8
1-中柱カバ-P
  6
HIDE-M
 62
     6
 10
19395.470723566788
 20
16822.986251999992
 30
0.0
 11
19395.470723566788
 21
16821.386252
 31
0.0
  0
LINE
  5
CC8F
  8
1-中柱カバ-P
  6
HIDE-M
 62
     6
 10
19381.470723566781
 20
16822.986251999992
 30
0.0
 11
19381.470723566781
 21
16821.386252
 31
0.0
  0
ARC
  5
CC90
  8
1-中柱カバ-P
 10
19424.370723566761
 20
16757.086252000001
 30
0.0
 40
6.599999999999997
 50
270.0
 51
0.000000000000007
  0
ARC
  5
CC91
  8
1-中柱カバ-P
 10
19352.57072356678
 20
16757.086252000001
 30
0.0
 40
6.599999999999997
 50
180.0
 51
270.0
  0
LINE
  5
CC92
  8
1-中柱カバ-P
 10
19360.970723566781
 20
16750.486251999992
 30
0.0
 11
19352.57072356678
 21
16750.486251999992
 31
0.0
  0
LINE
  5
CC93
  8
1-中柱カバ-P
 10
19415.970723566781
 20
16750.486251999992
 30
0.0
 11
19424.370723566761
 21
16750.486251999992
 31
0.0
  0
LINE
  5
CC94
  8
1-中柱カバ-P
 10
19360.970723566781
 20
16752.086252000001
 30
0.0
 11
19352.57072356678
 21
16752.086252000001
 31
0.0
  0
LINE
  5
CC95
  8
1-中柱カバ-P
 10
19415.970723566781
 20
16752.086252000001
 30
0.0
 11
19424.370723566761
 21
16752.086252000001
 31
0.0
  0
LINE
  5
CC96
  8
1-中柱カバ-P
 10
19415.970723566781
 20
16752.086252000001
 30
0.0
 11
19415.970723566781
 21
16750.486251999992
 31
0.0
  0
LINE
  5
CC97
  8
1-中柱カバ-P
 10
19360.970723566781
 20
16750.486251999992
 30
0.0
 11
19360.970723566781
 21
16752.086252000001
 31
0.0
  0
LINE
  5
CC98
  8
1-中柱カバ-P
  6
HIDE-M
 62
     6
 10
19357.07072356678
 20
16771.486251999992
 30
0.0
 11
19345.470723566781
 21
16771.486251999992
 31
0.0
  0
LINE
  5
CC99
  8
1-中柱カバ-P
  6
HIDE-M
 62
     6
 10
19357.07072356678
 20
16779.486251999992
 30
0.0
 11
19345.470723566781
 21
16779.486251999992
 31
0.0
  0
LINE
  5
CC9A
  8
1-中柱カバ-P
  6
HIDE-M
 62
     6
 10
19357.07072356678
 20
16772.486251999992
 30
0.0
 11
19345.470723566781
 21
16772.486251999992
 31
0.0
  0
LINE
  5
CC9B
  8
1-中柱カバ-P
  6
HIDE-M
 62
     6
 10
19357.07072356678
 20
16778.486251999992
 30
0.0
 11
19345.470723566781
 21
16778.486251999992
 31
0.0
  0
LINE
  5
CC9C
  8
1-中柱カバ-P
 10
19356.07072356678
 20
16780.986251999992
 30
0.0
 11
19349.07072356678
 21
16780.986251999992
 31
0.0
  0
LINE
  5
CC9D
  8
1-中柱カバ-P
 10
19349.07072356678
 20
16769.986251999992
 30
0.0
 11
19356.07072356678
 21
16769.986251999992
 31
0.0
  0
LINE
  5
CC9E
  8
1-中柱カバ-P
 10
19349.07072356678
 20
16769.236251999992
 30
0.0
 11
19349.07072356678
 21
16781.736251999992
 31
0.0
  0
LINE
  5
CC9F
  8
1-中柱カバ-P
 10
19345.470723566781
 20
16769.486251999992
 30
0.0
 11
19345.470723566781
 21
16781.486251999992
 31
0.0
  0
LINE
  5
CCA0
  8
1-中柱カバ-P
  6
HIDE-M
 62
     6
 10
19347.57072356678
 20
16780.986251999992
 30
0.0
 11
19345.970723566781
 21
16780.986251999992
 31
0.0
  0
LINE
  5
CCA1
  8
1-中柱カバ-P
 10
19345.470723566781
 20
16781.486251999992
 30
0.0
 11
19345.970723566781
 21
16780.986251999992
 31
0.0
  0
ARC
  5
CCA2
  8
1-中柱カバ-P
 10
19348.32072356678
 20
16781.736251999992
 30
0.0
 40
0.75
 50
0.000000000000007
 51
180.0
  0
LINE
  5
CCA3
  8
1-中柱カバ-P
  6
HIDE-M
 62
     6
 10
19345.970723566781
 20
16769.986251999992
 30
0.0
 11
19347.57072356678
 21
16769.986251999992
 31
0.0
  0
LINE
  5
CCA4
  8
1-中柱カバ-P
 10
19345.470723566781
 20
16769.486251999992
 30
0.0
 11
19345.970723566781
 21
16769.986251999992
 31
0.0
  0
ARC
  5
CCA5
  8
1-中柱カバ-P
 10
19348.32072356678
 20
16769.236251999992
 30
0.0
 40
0.75
 50
180.0
 51
0.000000000000007
  0
LINE
  5
CCA6
  8
1-中柱カバ-P
 10
19357.07072356678
 20
16770.986251999992
 30
0.0
 11
19357.07072356678
 21
16779.986251999992
 31
0.0
  0
ARC
  5
CCA7
  8
1-中柱カバ-P
 10
19356.07072356678
 20
16779.986251999992
 30
0.0
 40
1.0
 50
0.000000000000007
 51
90.0
  0
ARC
  5
CCA8
  8
1-中柱カバ-P
 10
19356.07072356678
 20
16770.986251999992
 30
0.0
 40
1.0
 50
270.0
 51
0.000000000000007
  0
LINE
  5
CCA9
  8
1-中柱カバ-P
  6
1PL-M
 62
     6
 10
19362.07072356678
 20
16775.486251999992
 30
0.0
 11
19340.470723566781
 21
16775.486251999992
 31
0.0
  0
LINE
  5
CCAA
  8
1-中柱カバ-P
 10
19356.07072356678
 20
16790.986251999992
 30
0.0
 11
19349.07072356678
 21
16790.986251999992
 31
0.0
  0
LINE
  5
CCAB
  8
1-中柱カバ-P
 10
19345.470723566781
 20
16783.486251999992
 30
0.0
 11
19345.470723566781
 21
16791.486251999992
 31
0.0
  0
LINE
  5
CCAC
  8
1-中柱カバ-P
  6
HIDE-M
 62
     6
 10
19347.57072356678
 20
16790.986251999992
 30
0.0
 11
19345.970723566781
 21
16790.986251999992
 31
0.0
  0
LINE
  5
CCAD
  8
1-中柱カバ-P
 10
19345.470723566781
 20
16791.486251999992
 30
0.0
 11
19345.970723566781
 21
16790.986251999992
 31
0.0
  0
ARC
  5
CCAE
  8
1-中柱カバ-P
 10
19348.32072356678
 20
16791.736251999992
 30
0.0
 40
0.75
 50
0.000000000000007
 51
180.0
  0
LINE
  5
CCAF
  8
1-中柱カバ-P
 10
19357.07072356678
 20
16781.986251999992
 30
0.0
 11
19357.07072356678
 21
16789.986251999992
 31
0.0
  0
ARC
  5
CCB0
  8
1-中柱カバ-P
 10
19356.07072356678
 20
16789.986251999992
 30
0.0
 40
1.0
 50
0.000000000000007
 51
90.0
  0
LINE
  5
CCB1
  8
1-中柱カバ-P
  6
1PL-M
 62
     6
 10
19362.07072356678
 20
16785.486251999992
 30
0.0
 11
19340.470723566781
 21
16785.486251999992
 31
0.0
  0
LINE
  5
CCB2
  8
1-中柱カバ-P
 10
19349.07072356678
 20
16783.736251999992
 30
0.0
 11
19349.07072356678
 21
16791.736251999992
 31
0.0
  0
LINE
  5
CCB3
  8
1-中柱カバ-P
  6
HIDE-M
 62
     6
 10
19419.870723566772
 20
16771.486251999992
 30
0.0
 11
19431.470723566781
 21
16771.486251999992
 31
0.0
  0
LINE
  5
CCB4
  8
1-中柱カバ-P
  6
HIDE-M
 62
     6
 10
19419.870723566772
 20
16779.486251999992
 30
0.0
 11
19431.470723566781
 21
16779.486251999992
 31
0.0
  0
LINE
  5
CCB5
  8
1-中柱カバ-P
  6
HIDE-M
 62
     6
 10
19419.870723566772
 20
16772.486251999992
 30
0.0
 11
19431.470723566781
 21
16772.486251999992
 31
0.0
  0
LINE
  5
CCB6
  8
1-中柱カバ-P
  6
HIDE-M
 62
     6
 10
19419.870723566772
 20
16778.486251999992
 30
0.0
 11
19431.470723566781
 21
16778.486251999992
 31
0.0
  0
LINE
  5
CCB7
  8
1-中柱カバ-P
 10
19420.870723566761
 20
16780.986251999992
 30
0.0
 11
19427.870723566761
 21
16780.986251999992
 31
0.0
  0
LINE
  5
CCB8
  8
1-中柱カバ-P
 10
19427.870723566761
 20
16769.986251999992
 30
0.0
 11
19420.870723566761
 21
16769.986251999992
 31
0.0
  0
LINE
  5
CCB9
  8
1-中柱カバ-P
 10
19427.870723566761
 20
16769.236251999992
 30
0.0
 11
19427.870723566761
 21
16781.736251999992
 31
0.0
  0
LINE
  5
CCBA
  8
1-中柱カバ-P
 10
19431.470723566781
 20
16769.486251999992
 30
0.0
 11
19431.470723566781
 21
16781.486251999992
 31
0.0
  0
LINE
  5
CCBB
  8
1-中柱カバ-P
  6
HIDE-M
 62
     6
 10
19429.370723566761
 20
16780.986251999992
 30
0.0
 11
19430.970723566781
 21
16780.986251999992
 31
0.0
  0
LINE
  5
CCBC
  8
1-中柱カバ-P
 10
19431.470723566781
 20
16781.486251999992
 30
0.0
 11
19430.970723566781
 21
16780.986251999992
 31
0.0
  0
ARC
  5
CCBD
  8
1-中柱カバ-P
 10
19428.620723566761
 20
16781.736251999992
 30
0.0
 40
0.75
 50
0.000000000000007
 51
180.0
  0
LINE
  5
CCBE
  8
1-中柱カバ-P
  6
HIDE-M
 62
     6
 10
19430.970723566781
 20
16769.986251999992
 30
0.0
 11
19429.370723566761
 21
16769.986251999992
 31
0.0
  0
LINE
  5
CCBF
  8
1-中柱カバ-P
 10
19431.470723566781
 20
16769.486251999992
 30
0.0
 11
19430.970723566781
 21
16769.986251999992
 31
0.0
  0
ARC
  5
CCC0
  8
1-中柱カバ-P
 10
19428.620723566761
 20
16769.236251999992
 30
0.0
 40
0.75
 50
180.0
 51
0.000000000000007
  0
LINE
  5
CCC1
  8
1-中柱カバ-P
 10
19419.870723566772
 20
16770.986251999992
 30
0.0
 11
19419.870723566772
 21
16779.986251999992
 31
0.0
  0
ARC
  5
CCC2
  8
1-中柱カバ-P
 10
19420.870723566761
 20
16779.986251999992
 30
0.0
 40
1.0
 50
90.0
 51
180.0
  0
ARC
  5
CCC3
  8
1-中柱カバ-P
 10
19420.870723566761
 20
16770.986251999992
 30
0.0
 40
1.0
 50
180.0
 51
270.0
  0
LINE
  5
CCC4
  8
1-中柱カバ-P
  6
1PL-M
 62
     6
 10
19414.870723566761
 20
16775.486251999992
 30
0.0
 11
19436.470723566788
 21
16775.486251999992
 31
0.0
  0
LINE
  5
CCC5
  8
1-中柱カバ-P
 10
19420.870723566761
 20
16790.986251999992
 30
0.0
 11
19427.870723566761
 21
16790.986251999992
 31
0.0
  0
LINE
  5
CCC6
  8
1-中柱カバ-P
 10
19431.470723566781
 20
16783.486251999992
 30
0.0
 11
19431.470723566781
 21
16791.486251999992
 31
0.0
  0
LINE
  5
CCC7
  8
1-中柱カバ-P
  6
HIDE-M
 62
     6
 10
19429.370723566761
 20
16790.986251999992
 30
0.0
 11
19430.970723566781
 21
16790.986251999992
 31
0.0
  0
LINE
  5
CCC8
  8
1-中柱カバ-P
 10
19431.470723566781
 20
16791.486251999992
 30
0.0
 11
19430.970723566781
 21
16790.986251999992
 31
0.0
  0
ARC
  5
CCC9
  8
1-中柱カバ-P
 10
19428.620723566761
 20
16791.736251999992
 30
0.0
 40
0.75
 50
0.000000000000007
 51
180.0
  0
LINE
  5
CCCA
  8
1-中柱カバ-P
 10
19419.870723566772
 20
16781.986251999992
 30
0.0
 11
19419.870723566772
 21
16789.986251999992
 31
0.0
  0
ARC
  5
CCCB
  8
1-中柱カバ-P
 10
19420.870723566761
 20
16789.986251999992
 30
0.0
 40
1.0
 50
90.0
 51
180.0
  0
LINE
  5
CCCC
  8
1-中柱カバ-P
  6
1PL-M
 62
     6
 10
19414.870723566761
 20
16785.486251999992
 30
0.0
 11
19436.470723566788
 21
16785.486251999992
 31
0.0
  0
LINE
  5
CCCD
  8
1-中柱カバ-P
 10
19427.870723566761
 20
16783.736251999992
 30
0.0
 11
19427.870723566761
 21
16791.736251999992
 31
0.0
  0
LINE
  5
CCCE
  8
1-中柱カバ-P
  6
HIDE-M
 62
     6
 10
19357.07072356678
 20
16789.486251999992
 30
0.0
 11
19345.470723566781
 21
16789.486251999992
 31
0.0
  0
LINE
  5
CCCF
  8
1-中柱カバ-P
  6
HIDE-M
 62
     6
 10
19357.07072356678
 20
16788.486251999992
 30
0.0
 11
19345.470723566781
 21
16788.486251999992
 31
0.0
  0
LINE
  5
CCD0
  8
1-中柱カバ-P
  6
HIDE-M
 62
     6
 10
19419.870723566772
 20
16789.486251999992
 30
0.0
 11
19431.470723566781
 21
16789.486251999992
 31
0.0
  0
LINE
  5
CCD1
  8
1-中柱カバ-P
  6
HIDE-M
 62
     6
 10
19419.870723566772
 20
16788.486251999992
 30
0.0
 11
19431.470723566781
 21
16788.486251999992
 31
0.0
  0
ARC
  5
CCD2
  8
1-前柱P
  6
HIDE-M
 62
     6
 10
19392.07072356678
 20
13550.386252
 30
0.0
 40
2.6000000000000001
 50
90.0
 51
180.0
  0
LINE
  5
CCD3
  8
1-前柱P
  6
HIDE-M
 62
     6
 10
19380.470723566781
 20
13552.43564215319
 30
0.0
 11
19380.470723566781
 21
13548.786252
 31
0.0
  0
LINE
  5
CCD4
  8
1-前柱P
  6
HIDE-M
 62
     6
 10
19390.470723566781
 20
13552.43564215319
 30
0.0
 11
19390.470723566781
 21
13548.786252
 31
0.0
  0
LINE
  5
CCD5
  8
1-前柱P
  6
1PL-M
 62
     6
 10
19385.470723566781
 20
13557.986251999981
 30
0.0
 11
19385.470723566781
 21
13543.786251999991
 31
0.0
  0
ARC
  5
CCD6
  8
1-前柱P
  6
HIDE-M
 62
     6
 10
19378.870723566761
 20
13550.386252
 30
0.0
 40
2.6000000000000001
 50
0.000000000000007
 51
90.0
  0
LINE
  5
CCD7
  8
1-前柱P
  6
HIDE-M
 62
     6
 10
19389.470723566781
 20
13550.386252
 30
0.0
 11
19389.470723566781
 21
13548.786252
 31
0.0
  0
LINE
  5
CCD8
  8
1-前柱P
  6
HIDE-M
 62
     6
 10
19381.470723566781
 20
13550.386252
 30
0.0
 11
19381.470723566781
 21
13548.786252
 31
0.0
  0
LINE
  5
CCD9
  8
1-前柱P
 10
19399.370723566761
 20
13438.08625199999
 30
0.0
 11
19377.57072356678
 21
13438.08625199999
 31
0.0
  0
LINE
  5
CCDA
  8
1-前柱P
 10
19347.57072356678
 20
13475.386252
 30
0.0
 11
19347.57072356678
 21
13468.08625199999
 31
0.0
  0
ARC
  5
CCDB
  8
1-前柱P
 10
19377.57072356678
 20
13468.08625199999
 30
0.0
 40
30.0
 50
180.0
 51
270.0
  0
ARC
  5
CCDC
  8
1-前柱P
 10
19377.57072356678
 20
13468.08625199999
 30
0.0
 40
31.600000000000001
 50
180.0
 51
270.0
  0
LINE
  5
CCDD
  8
1-前柱P
 10
19399.370723566761
 20
13436.48625199999
 30
0.0
 11
19377.57072356678
 21
13436.48625199999
 31
0.0
  0
LINE
  5
CCDE
  8
1-前柱P
 10
19345.970723566781
 20
13475.386252
 30
0.0
 11
19345.970723566781
 21
13468.08625199999
 31
0.0
  0
LINE
  5
CCDF
  8
1-前柱P
 10
19368.970723566781
 20
13496.986251999981
 30
0.0
 11
19368.970723566781
 21
13486.98625199999
 31
0.0
  0
LINE
  5
CCE0
  8
1-前柱P
 10
19370.57072356678
 20
13486.98625199999
 30
0.0
 11
19370.57072356678
 21
13496.986251999981
 31
0.0
  0
LINE
  5
CCE1
  8
1-前柱P
 10
19429.370723566761
 20
13475.386252
 30
0.0
 11
19429.370723566761
 21
13468.08625199999
 31
0.0
  0
ARC
  5
CCE2
  8
1-前柱P
 10
19399.370723566761
 20
13468.08625199999
 30
0.0
 40
30.0
 50
270.0
 51
0.000000000000007
  0
ARC
  5
CCE3
  8
1-前柱P
 10
19399.370723566761
 20
13468.08625199999
 30
0.0
 40
31.600000000000001
 50
270.0
 51
0.000000000000007
  0
LINE
  5
CCE4
  8
1-前柱P
 10
19430.970723566781
 20
13475.386252
 30
0.0
 11
19430.970723566781
 21
13468.08625199999
 31
0.0
  0
LINE
  5
CCE5
  8
1-前柱P
 10
19424.370723566761
 20
13481.98625199999
 30
0.0
 11
19412.970723566781
 21
13481.98625199999
 31
0.0
  0
ARC
  5
CCE6
  8
1-前柱P
 10
19424.370723566761
 20
13475.386252
 30
0.0
 40
6.599999999999997
 50
0.000000000000007
 51
90.0
  0
ARC
  5
CCE7
  8
1-前柱P
 10
19412.970723566781
 20
13486.98625199999
 30
0.0
 40
5.0
 50
180.0
 51
270.0
  0
LINE
  5
CCE8
  8
1-前柱P
 10
19424.370723566761
 20
13480.386252
 30
0.0
 11
19412.970723566781
 21
13480.386252
 31
0.0
  0
ARC
  5
CCE9
  8
1-前柱P
 10
19424.370723566761
 20
13475.386252
 30
0.0
 40
5.0
 50
0.000000000000007
 51
90.0
  0
LINE
  5
CCEA
  8
1-前柱P
 10
19407.970723566781
 20
13486.98625199999
 30
0.0
 11
19407.970723566781
 21
13546.386252
 31
0.0
  0
LINE
  5
CCEB
  8
1-前柱P
 10
19406.370723566761
 20
13486.98625199999
 30
0.0
 11
19406.370723566761
 21
13546.386252
 31
0.0
  0
ARC
  5
CCEC
  8
1-前柱P
 10
19412.970723566781
 20
13486.98625199999
 30
0.0
 40
6.599999999999997
 50
180.0
 51
270.0
  0
LINE
  5
CCED
  8
1-前柱P
 10
19401.370723566761
 20
13552.986251999981
 30
0.0
 11
19367.970723566781
 21
13552.986251999981
 31
0.0
  0
ARC
  5
CCEE
  8
1-前柱P
 10
19401.370723566761
 20
13546.386252
 30
0.0
 40
6.599999999999997
 50
0.000000000000007
 51
90.0
  0
LINE
  5
CCEF
  8
1-前柱P
 10
19401.370723566761
 20
13551.386252
 30
0.0
 11
19367.970723566781
 21
13551.386252
 31
0.0
  0
ARC
  5
CCF0
  8
1-前柱P
 10
19401.370723566761
 20
13546.386252
 30
0.0
 40
5.0
 50
0.000000000000007
 51
90.0
  0
LINE
  5
CCF1
  8
1-前柱P
 10
19367.970723566781
 20
13551.386252
 30
0.0
 11
19367.970723566781
 21
13552.986251999981
 31
0.0
  0
LINE
  5
CCF2
  8
1-前柱P
 10
19352.57072356678
 20
13481.98625199999
 30
0.0
 11
19363.970723566781
 21
13481.98625199999
 31
0.0
  0
ARC
  5
CCF3
  8
1-前柱P
 10
19352.57072356678
 20
13475.386252
 30
0.0
 40
6.599999999999997
 50
90.0
 51
180.0
  0
ARC
  5
CCF4
  8
1-前柱P
 10
19363.970723566781
 20
13486.98625199999
 30
0.0
 40
5.0
 50
270.0
 51
0.000000000000007
  0
LINE
  5
CCF5
  8
1-前柱P
 10
19363.970723566781
 20
13480.386252
 30
0.0
 11
19352.57072356678
 21
13480.386252
 31
0.0
  0
ARC
  5
CCF6
  8
1-前柱P
 10
19363.970723566781
 20
13486.98625199999
 30
0.0
 40
6.599999999999997
 50
270.0
 51
0.000000000000007
  0
ARC
  5
CCF7
  8
1-前柱P
 10
19352.57072356678
 20
13475.386252
 30
0.0
 40
5.0
 50
90.0
 51
180.0
  0
LINE
  5
CCF8
  8
1-前柱P
 10
19368.970723566781
 20
13496.986251999981
 30
0.0
 11
19370.57072356678
 21
13496.986251999981
 31
0.0
  0
LINE
  5
CCF9
  8
1-前柱カバ-P
 10
19345.970723566781
 20
13488.68625199999
 30
0.0
 11
19345.970723566781
 21
13547.98625199999
 31
0.0
  0
ARC
  5
CCFA
  8
1-前柱カバ-P
 10
19352.57072356678
 20
13547.98625199999
 30
0.0
 40
6.599999999999997
 50
90.0
 51
180.0
  0
LINE
  5
CCFB
  8
1-前柱カバ-P
 10
19347.57072356678
 20
13488.68625199999
 30
0.0
 11
19347.57072356678
 21
13547.98625199999
 31
0.0
  0
ARC
  5
CCFC
  8
1-前柱カバ-P
 10
19352.57072356678
 20
13488.68625199999
 30
0.0
 40
5.0
 50
180.0
 51
270.0
  0
LINE
  5
CCFD
  8
1-前柱カバ-P
 10
19352.57072356678
 20
13554.586251999999
 30
0.0
 11
19424.370723566761
 21
13554.586251999999
 31
0.0
  0
ARC
  5
CCFE
  8
1-前柱カバ-P
 10
19424.370723566761
 20
13547.98625199999
 30
0.0
 40
6.599999999999997
 50
0.000000000000007
 51
90.0
  0
LINE
  5
CCFF
  8
1-前柱カバ-P
 10
19352.57072356678
 20
13552.986251999981
 30
0.0
 11
19424.370723566761
 21
13552.986251999981
 31
0.0
  0
ARC
  5
CD00
  8
1-前柱カバ-P
 10
19424.370723566761
 20
13547.98625199999
 30
0.0
 40
5.0
 50
0.000000000000007
 51
90.0
  0
ARC
  5
CD01
  8
1-前柱カバ-P
 10
19352.57072356678
 20
13547.98625199999
 30
0.0
 40
5.0
 50
90.0
 51
180.0
  0
LINE
  5
CD02
  8
1-前柱カバ-P
 10
19430.970723566781
 20
13547.98625199999
 30
0.0
 11
19430.970723566781
 21
13488.68625199999
 31
0.0
  0
LINE
  5
CD03
  8
1-前柱カバ-P
 10
19429.370723566761
 20
13547.98625199999
 30
0.0
 11
19429.370723566761
 21
13488.68625199999
 31
0.0
  0
ARC
  5
CD04
  8
1-前柱カバ-P
 10
19424.370723566761
 20
13488.68625199999
 30
0.0
 40
5.0
 50
270.0
 51
0.000000000000007
  0
LINE
  5
CD05
  8
1-前柱カバ-P
  6
1PL-M
 62
     6
 10
19388.470723566781
 20
13547.086251999999
 30
0.0
 11
19388.470723566781
 21
13560.08625199999
 31
0.0
  0
LINE
  5
CD06
  8
1-前柱カバ-P
  6
HIDE-M
 62
     6
 10
19381.470723566781
 20
13554.586251999999
 30
0.0
 11
19381.470723566781
 21
13552.986251999981
 31
0.0
  0
LINE
  5
CD07
  8
1-前柱カバ-P
  6
HIDE-M
 62
     6
 10
19395.470723566781
 20
13554.586251999999
 30
0.0
 11
19395.470723566781
 21
13552.986251999981
 31
0.0
  0
ARC
  5
CD08
  8
1-前柱カバ-P
 10
19352.57072356678
 20
13488.68625199999
 30
0.0
 40
6.599999999999997
 50
180.0
 51
270.0
  0
ARC
  5
CD09
  8
1-前柱カバ-P
 10
19424.370723566761
 20
13488.68625199999
 30
0.0
 40
6.599999999999997
 50
270.0
 51
0.000000000000007
  0
LINE
  5
CD0A
  8
1-前柱カバ-P
 10
19415.970723566781
 20
13482.086251999999
 30
0.0
 11
19424.370723566761
 21
13482.086251999999
 31
0.0
  0
LINE
  5
CD0B
  8
1-前柱カバ-P
 10
19360.970723566781
 20
13482.086251999999
 30
0.0
 11
19352.57072356678
 21
13482.086251999999
 31
0.0
  0
LINE
  5
CD0C
  8
1-前柱カバ-P
 10
19415.970723566781
 20
13483.68625199999
 30
0.0
 11
19424.370723566761
 21
13483.68625199999
 31
0.0
  0
LINE
  5
CD0D
  8
1-前柱カバ-P
 10
19360.970723566781
 20
13483.68625199999
 30
0.0
 11
19352.57072356678
 21
13483.68625199999
 31
0.0
  0
LINE
  5
CD0E
  8
1-前柱カバ-P
 10
19360.970723566781
 20
13483.68625199999
 30
0.0
 11
19360.970723566781
 21
13482.086251999999
 31
0.0
  0
LINE
  5
CD0F
  8
1-前柱カバ-P
 10
19415.970723566781
 20
13482.086251999999
 30
0.0
 11
19415.970723566781
 21
13483.68625199999
 31
0.0
  0
LINE
  5
CD10
  8
1-前柱カバ-P
  6
HIDE-M
 62
     6
 10
19419.870723566772
 20
13503.086251999999
 30
0.0
 11
19431.470723566781
 21
13503.086251999999
 31
0.0
  0
LINE
  5
CD11
  8
1-前柱カバ-P
  6
HIDE-M
 62
     6
 10
19419.870723566772
 20
13511.08625199999
 30
0.0
 11
19431.470723566781
 21
13511.08625199999
 31
0.0
  0
LINE
  5
CD12
  8
1-前柱カバ-P
  6
HIDE-M
 62
     6
 10
19419.870723566772
 20
13504.086251999999
 30
0.0
 11
19431.470723566781
 21
13504.086251999999
 31
0.0
  0
LINE
  5
CD13
  8
1-前柱カバ-P
  6
HIDE-M
 62
     6
 10
19419.870723566772
 20
13510.08625199999
 30
0.0
 11
19431.470723566781
 21
13510.08625199999
 31
0.0
  0
LINE
  5
CD14
  8
1-前柱カバ-P
 10
19420.870723566761
 20
13512.586251999999
 30
0.0
 11
19427.870723566761
 21
13512.586251999999
 31
0.0
  0
LINE
  5
CD15
  8
1-前柱カバ-P
 10
19427.870723566761
 20
13501.58625199999
 30
0.0
 11
19420.870723566761
 21
13501.58625199999
 31
0.0
  0
LINE
  5
CD16
  8
1-前柱カバ-P
 10
19427.870723566761
 20
13500.83625199999
 30
0.0
 11
19427.870723566761
 21
13513.33625199999
 31
0.0
  0
LINE
  5
CD17
  8
1-前柱カバ-P
 10
19431.470723566781
 20
13501.086251999999
 30
0.0
 11
19431.470723566781
 21
13513.08625199999
 31
0.0
  0
LINE
  5
CD18
  8
1-前柱カバ-P
  6
HIDE-M
 62
     6
 10
19429.370723566761
 20
13512.586251999999
 30
0.0
 11
19430.970723566781
 21
13512.586251999999
 31
0.0
  0
LINE
  5
CD19
  8
1-前柱カバ-P
 10
19431.470723566781
 20
13513.08625199999
 30
0.0
 11
19430.970723566781
 21
13512.586251999999
 31
0.0
  0
ARC
  5
CD1A
  8
1-前柱カバ-P
 10
19428.620723566761
 20
13513.33625199999
 30
0.0
 40
0.75
 50
0.000000000000007
 51
180.0
  0
LINE
  5
CD1B
  8
1-前柱カバ-P
  6
HIDE-M
 62
     6
 10
19430.970723566781
 20
13501.58625199999
 30
0.0
 11
19429.370723566761
 21
13501.58625199999
 31
0.0
  0
LINE
  5
CD1C
  8
1-前柱カバ-P
 10
19431.470723566781
 20
13501.086251999999
 30
0.0
 11
19430.970723566781
 21
13501.58625199999
 31
0.0
  0
ARC
  5
CD1D
  8
1-前柱カバ-P
 10
19428.620723566761
 20
13500.83625199999
 30
0.0
 40
0.75
 50
180.0
 51
0.000000000000007
  0
LINE
  5
CD1E
  8
1-前柱カバ-P
 10
19419.870723566772
 20
13502.58625199999
 30
0.0
 11
19419.870723566772
 21
13511.586251999999
 31
0.0
  0
ARC
  5
CD1F
  8
1-前柱カバ-P
 10
19420.870723566761
 20
13511.586251999999
 30
0.0
 40
1.0
 50
90.0
 51
180.0
  0
ARC
  5
CD20
  8
1-前柱カバ-P
 10
19420.870723566761
 20
13502.58625199999
 30
0.0
 40
1.0
 50
180.0
 51
270.0
  0
LINE
  5
CD21
  8
1-前柱カバ-P
  6
1PL-M
 62
     6
 10
19414.870723566761
 20
13507.086251999999
 30
0.0
 11
19436.470723566781
 21
13507.086251999999
 31
0.0
  0
LINE
  5
CD22
  8
1-前柱カバ-P
 10
19420.870723566761
 20
13522.58625199999
 30
0.0
 11
19427.870723566761
 21
13522.58625199999
 31
0.0
  0
LINE
  5
CD23
  8
1-前柱カバ-P
 10
19431.470723566781
 20
13515.08625199999
 30
0.0
 11
19431.470723566781
 21
13523.086251999999
 31
0.0
  0
LINE
  5
CD24
  8
1-前柱カバ-P
  6
HIDE-M
 62
     6
 10
19429.370723566761
 20
13522.58625199999
 30
0.0
 11
19430.970723566781
 21
13522.58625199999
 31
0.0
  0
LINE
  5
CD25
  8
1-前柱カバ-P
 10
19431.470723566781
 20
13523.086251999999
 30
0.0
 11
19430.970723566781
 21
13522.58625199999
 31
0.0
  0
ARC
  5
CD26
  8
1-前柱カバ-P
 10
19428.620723566761
 20
13523.336251999999
 30
0.0
 40
0.75
 50
0.000000000000007
 51
180.0
  0
LINE
  5
CD27
  8
1-前柱カバ-P
 10
19419.870723566772
 20
13513.586251999999
 30
0.0
 11
19419.870723566772
 21
13521.58625199999
 31
0.0
  0
ARC
  5
CD28
  8
1-前柱カバ-P
 10
19420.870723566761
 20
13521.58625199999
 30
0.0
 40
1.0
 50
90.0
 51
180.0
  0
LINE
  5
CD29
  8
1-前柱カバ-P
  6
1PL-M
 62
     6
 10
19414.870723566761
 20
13517.08625199999
 30
0.0
 11
19436.470723566781
 21
13517.08625199999
 31
0.0
  0
LINE
  5
CD2A
  8
1-前柱カバ-P
 10
19427.870723566761
 20
13515.336251999999
 30
0.0
 11
19427.870723566761
 21
13523.336251999999
 31
0.0
  0
LINE
  5
CD2B
  8
1-前柱カバ-P
  6
HIDE-M
 62
     6
 10
19357.07072356678
 20
13503.086251999999
 30
0.0
 11
19345.470723566781
 21
13503.086251999999
 31
0.0
  0
LINE
  5
CD2C
  8
1-前柱カバ-P
  6
HIDE-M
 62
     6
 10
19357.07072356678
 20
13511.08625199999
 30
0.0
 11
19345.470723566781
 21
13511.08625199999
 31
0.0
  0
LINE
  5
CD2D
  8
1-前柱カバ-P
  6
HIDE-M
 62
     6
 10
19357.07072356678
 20
13504.086251999999
 30
0.0
 11
19345.470723566781
 21
13504.086251999999
 31
0.0
  0
LINE
  5
CD2E
  8
1-前柱カバ-P
  6
HIDE-M
 62
     6
 10
19357.07072356678
 20
13510.08625199999
 30
0.0
 11
19345.470723566781
 21
13510.08625199999
 31
0.0
  0
LINE
  5
CD2F
  8
1-前柱カバ-P
 10
19356.07072356678
 20
13512.586251999999
 30
0.0
 11
19349.07072356678
 21
13512.586251999999
 31
0.0
  0
LINE
  5
CD30
  8
1-前柱カバ-P
 10
19349.07072356678
 20
13501.58625199999
 30
0.0
 11
19356.07072356678
 21
13501.58625199999
 31
0.0
  0
LINE
  5
CD31
  8
1-前柱カバ-P
 10
19349.07072356678
 20
13500.83625199999
 30
0.0
 11
19349.07072356678
 21
13513.33625199999
 31
0.0
  0
LINE
  5
CD32
  8
1-前柱カバ-P
 10
19345.470723566781
 20
13501.086251999999
 30
0.0
 11
19345.470723566781
 21
13513.08625199999
 31
0.0
  0
LINE
  5
CD33
  8
1-前柱カバ-P
  6
HIDE-M
 62
     6
 10
19347.57072356678
 20
13512.586251999999
 30
0.0
 11
19345.970723566781
 21
13512.586251999999
 31
0.0
  0
LINE
  5
CD34
  8
1-前柱カバ-P
 10
19345.470723566781
 20
13513.08625199999
 30
0.0
 11
19345.970723566781
 21
13512.586251999999
 31
0.0
  0
ARC
  5
CD35
  8
1-前柱カバ-P
 10
19348.32072356678
 20
13513.33625199999
 30
0.0
 40
0.75
 50
0.000000000000007
 51
180.0
  0
LINE
  5
CD36
  8
1-前柱カバ-P
  6
HIDE-M
 62
     6
 10
19345.970723566781
 20
13501.58625199999
 30
0.0
 11
19347.57072356678
 21
13501.58625199999
 31
0.0
  0
LINE
  5
CD37
  8
1-前柱カバ-P
 10
19345.470723566781
 20
13501.086251999999
 30
0.0
 11
19345.970723566781
 21
13501.58625199999
 31
0.0
  0
ARC
  5
CD38
  8
1-前柱カバ-P
 10
19348.32072356678
 20
13500.83625199999
 30
0.0
 40
0.75
 50
180.0
 51
0.000000000000007
  0
LINE
  5
CD39
  8
1-前柱カバ-P
 10
19357.07072356678
 20
13502.58625199999
 30
0.0
 11
19357.07072356678
 21
13511.586251999999
 31
0.0
  0
ARC
  5
CD3A
  8
1-前柱カバ-P
 10
19356.07072356678
 20
13511.586251999999
 30
0.0
 40
1.0
 50
0.000000000000007
 51
90.0
  0
ARC
  5
CD3B
  8
1-前柱カバ-P
 10
19356.07072356678
 20
13502.58625199999
 30
0.0
 40
1.0
 50
270.0
 51
0.000000000000007
  0
LINE
  5
CD3C
  8
1-前柱カバ-P
  6
1PL-M
 62
     6
 10
19362.07072356678
 20
13507.086251999999
 30
0.0
 11
19340.470723566781
 21
13507.086251999999
 31
0.0
  0
LINE
  5
CD3D
  8
1-前柱カバ-P
 10
19356.07072356678
 20
13522.58625199999
 30
0.0
 11
19349.07072356678
 21
13522.58625199999
 31
0.0
  0
LINE
  5
CD3E
  8
1-前柱カバ-P
 10
19345.470723566781
 20
13515.08625199999
 30
0.0
 11
19345.470723566781
 21
13523.086251999999
 31
0.0
  0
LINE
  5
CD3F
  8
1-前柱カバ-P
  6
HIDE-M
 62
     6
 10
19347.57072356678
 20
13522.58625199999
 30
0.0
 11
19345.970723566781
 21
13522.58625199999
 31
0.0
  0
LINE
  5
CD40
  8
1-前柱カバ-P
 10
19345.470723566781
 20
13523.086251999999
 30
0.0
 11
19345.970723566781
 21
13522.58625199999
 31
0.0
  0
ARC
  5
CD41
  8
1-前柱カバ-P
 10
19348.32072356678
 20
13523.336251999999
 30
0.0
 40
0.75
 50
0.000000000000007
 51
180.0
  0
LINE
  5
CD42
  8
1-前柱カバ-P
 10
19357.07072356678
 20
13513.586251999999
 30
0.0
 11
19357.07072356678
 21
13521.58625199999
 31
0.0
  0
ARC
  5
CD43
  8
1-前柱カバ-P
 10
19356.07072356678
 20
13521.58625199999
 30
0.0
 40
1.0
 50
0.000000000000007
 51
90.0
  0
LINE
  5
CD44
  8
1-前柱カバ-P
  6
1PL-M
 62
     6
 10
19362.07072356678
 20
13517.08625199999
 30
0.0
 11
19340.470723566781
 21
13517.08625199999
 31
0.0
  0
LINE
  5
CD45
  8
1-前柱カバ-P
 10
19349.07072356678
 20
13515.336251999999
 30
0.0
 11
19349.07072356678
 21
13523.336251999999
 31
0.0
  0
LINE
  5
CD46
  8
1-前柱カバ-P
  6
HIDE-M
 62
     6
 10
19419.870723566772
 20
13521.086251999999
 30
0.0
 11
19431.470723566781
 21
13521.086251999999
 31
0.0
  0
LINE
  5
CD47
  8
1-前柱カバ-P
  6
HIDE-M
 62
     6
 10
19419.870723566772
 20
13520.08625199999
 30
0.0
 11
19431.470723566781
 21
13520.08625199999
 31
0.0
  0
LINE
  5
CD48
  8
1-前柱カバ-P
  6
HIDE-M
 62
     6
 10
19357.07072356678
 20
13521.086251999999
 30
0.0
 11
19345.470723566781
 21
13521.086251999999
 31
0.0
  0
LINE
  5
CD49
  8
1-前柱カバ-P
  6
HIDE-M
 62
     6
 10
19357.07072356678
 20
13520.08625199999
 30
0.0
 11
19345.470723566781
 21
13520.08625199999
 31
0.0
  0
LINE
  5
CD4D
  8
0-1
  6
CONTINUOUS
 62
     3
 10
27263.974418566781
 20
8132.6883740000021
 30
0.0
 11
24430.970987566801
 21
8132.6883740000021
 31
0.0
  0
LINE
  5
CD4E
  8
0-1
  6
CONTINUOUS
 62
     3
 10
27263.974418566781
 20
8325.6887430000024
 30
0.0
 11
24430.970987566801
 21
8325.6887430000024
 31
0.0
  0
LINE
  5
CD4F
  8
0-1
  6
CONTINUOUS
 62
     3
 10
27391.970723566799
 20
8263.5026619999953
 30
0.0
 11
27391.970723566799
 21
8589.1883999999955
 31
0.0
  0
LINE
  5
CD50
  8
0-1
  6
CONTINUOUS
 62
     3
 10
24345.972438566801
 20
8459.188465999996
 30
0.0
 11
27391.970723566799
 21
8459.188465999996
 31
0.0
  0
LINE
  5
CD51
  8
0-1
  6
CONTINUOUS
 62
     3
 10
27391.970723566799
 20
8589.1883999999955
 30
0.0
 11
24365.969535566801
 21
8589.1883999999955
 31
0.0
  0
LINE
  5
CD52
  8
0-1
  6
CONTINUOUS
 62
     3
 10
13121.507819675189
 20
6291.1885389999989
 30
0.0
 11
13121.507819675189
 21
8152.2344179999973
 31
0.0
  0
LINE
  5
CD53
  8
0-1
  6
CONTINUOUS
 62
     3
 10
13101.50676367521
 20
6291.1885389999989
 30
0.0
 11
13101.50676367521
 21
8152.2344179999973
 31
0.0
  0
LINE
  5
CD54
  8
0-1
  6
CONTINUOUS
 62
     3
 10
13171.50748967519
 20
6291.1885389999989
 30
0.0
 11
13171.50748967519
 21
8152.2344179999973
 31
0.0
  0
LINE
  5
CD55
  8
0-1
  6
CONTINUOUS
 62
     3
 10
13051.50808367518
 20
6291.1885389999989
 30
0.0
 11
13051.50808367518
 21
8152.2344179999973
 31
0.0
  0
LINE
  5
CD56
  8
0-1
  6
CONTINUOUS
 62
     3
 10
12918.50719967521
 20
6291.1885389999989
 30
0.0
 11
12918.50719967521
 21
8152.2344179999973
 31
0.0
  0
LINE
  5
CD57
  8
0-1
  6
CONTINUOUS
 62
     3
 10
12903.50739767519
 20
6291.1885389999989
 30
0.0
 11
12903.50739767519
 21
8152.2344179999973
 31
0.0
  0
LINE
  5
CD58
  8
0-1
  6
CONTINUOUS
 62
     3
 10
13304.50738467518
 20
6291.1885389999989
 30
0.0
 11
13304.50738467518
 21
8152.2344179999973
 31
0.0
  0
LINE
  5
CD59
  8
0-1
  6
CONTINUOUS
 62
     3
 10
13319.50718667519
 20
6291.1885389999989
 30
0.0
 11
13319.50718667519
 21
8152.2344179999973
 31
0.0
  0
LINE
  5
CD5A
  8
0-1
  6
CONTINUOUS
 62
     3
 10
12043.007700675191
 20
8152.2344179999973
 30
0.0
 11
12043.007700675191
 21
6291.1885389999989
 31
0.0
  0
LINE
  5
CD5B
  8
0-1
  6
CONTINUOUS
 62
     3
 10
12080.005892675181
 20
8152.2344179999973
 30
0.0
 11
12080.005892675181
 21
6291.1885389999989
 31
0.0
  0
LINE
  5
CD5C
  8
0-1
  6
CONTINUOUS
 62
     3
 10
12743.007041675201
 20
8152.2344179999973
 30
0.0
 11
12743.007041675201
 21
6291.1885389999989
 31
0.0
  0
LINE
  5
CD5D
  8
0-1
  6
CONTINUOUS
 62
     3
 10
12780.0072126752
 20
8152.2344179999973
 30
0.0
 11
12780.0072126752
 21
6291.1885389999989
 31
0.0
  0
LINE
  5
CD5E
  8
0-1
  6
CONTINUOUS
 62
     3
 10
11343.00836067519
 20
8152.2344179999973
 30
0.0
 11
11343.00836067519
 21
6291.1885389999989
 31
0.0
  0
LINE
  5
CD5F
  8
0-1
  6
CONTINUOUS
 62
     3
 10
11380.006552675201
 20
8152.2344179999973
 30
0.0
 11
11380.006552675201
 21
6291.1885389999989
 31
0.0
  0
LINE
  5
CD60
  8
0-1
  6
CONTINUOUS
 62
     3
 10
11721.50814967521
 20
6291.1885389999989
 30
0.0
 11
11721.50814967521
 21
8152.2344179999973
 31
0.0
  0
LINE
  5
CD61
  8
0-1
  6
CONTINUOUS
 62
     3
 10
11701.50709367518
 20
6291.1885389999989
 30
0.0
 11
11701.50709367518
 21
8152.2344179999973
 31
0.0
  0
LINE
  5
CD62
  8
0-1
  6
CONTINUOUS
 62
     3
 10
11771.5068296752
 20
6291.1885389999989
 30
0.0
 11
11771.5068296752
 21
8152.2344179999973
 31
0.0
  0
LINE
  5
CD63
  8
0-1
  6
CONTINUOUS
 62
     3
 10
11651.507423675201
 20
6291.1885389999989
 30
0.0
 11
11651.507423675201
 21
8152.2344179999973
 31
0.0
  0
LINE
  5
CD64
  8
0-1
  6
CONTINUOUS
 62
     3
 10
11518.5075296752
 20
6291.1885389999989
 30
0.0
 11
11518.5075296752
 21
8152.2344179999973
 31
0.0
  0
LINE
  5
CD65
  8
0-1
  6
CONTINUOUS
 62
     3
 10
11503.507727675191
 20
6291.1885389999989
 30
0.0
 11
11503.507727675191
 21
8152.2344179999973
 31
0.0
  0
LINE
  5
CD66
  8
0-1
  6
CONTINUOUS
 62
     3
 10
11904.507714675199
 20
6291.1885389999989
 30
0.0
 11
11904.507714675199
 21
8152.2344179999973
 31
0.0
  0
LINE
  5
CD67
  8
0-1
  6
CONTINUOUS
 62
     3
 10
11919.506526675181
 20
6291.1885389999989
 30
0.0
 11
11919.506526675181
 21
8152.2344179999973
 31
0.0
  0
LINE
  5
CD68
  8
0-1
  6
CONTINUOUS
 62
     3
 10
12619.50784667518
 20
6291.1885389999989
 30
0.0
 11
12619.50784667518
 21
8152.2344179999973
 31
0.0
  0
LINE
  5
CD69
  8
0-1
  6
CONTINUOUS
 62
     3
 10
12604.50705467521
 20
6291.1885389999989
 30
0.0
 11
12604.50705467521
 21
8152.2344179999973
 31
0.0
  0
LINE
  5
CD6A
  8
0-1
  6
CONTINUOUS
 62
     3
 10
12203.50706767518
 20
6291.1885389999989
 30
0.0
 11
12203.50706767518
 21
8152.2344179999973
 31
0.0
  0
LINE
  5
CD6B
  8
0-1
  6
CONTINUOUS
 62
     3
 10
12218.507859675199
 20
6291.1885389999989
 30
0.0
 11
12218.507859675199
 21
8152.2344179999973
 31
0.0
  0
LINE
  5
CD6C
  8
0-1
  6
CONTINUOUS
 62
     3
 10
12351.506763675199
 20
6291.1885389999989
 30
0.0
 11
12351.506763675199
 21
8152.2344179999973
 31
0.0
  0
LINE
  5
CD6D
  8
0-1
  6
CONTINUOUS
 62
     3
 10
12471.50814967519
 20
6291.1885389999989
 30
0.0
 11
12471.50814967519
 21
8152.2344179999973
 31
0.0
  0
LINE
  5
CD6E
  8
0-1
  6
CONTINUOUS
 62
     3
 10
12401.50544467518
 20
6291.1885389999989
 30
0.0
 11
12401.50544467518
 21
8152.2344179999973
 31
0.0
  0
LINE
  5
CD6F
  8
0-1
  6
CONTINUOUS
 62
     3
 10
12421.50649967519
 20
6291.1885389999989
 30
0.0
 11
12421.50649967519
 21
8152.2344179999973
 31
0.0
  0
LINE
  5
CD70
  8
0-1
  6
CONTINUOUS
 62
     3
 10
11219.508175675201
 20
6291.1885389999989
 30
0.0
 11
11219.508175675201
 21
8152.2344179999973
 31
0.0
  0
LINE
  5
CD71
  8
0-1
  6
CONTINUOUS
 62
     3
 10
11204.50738467518
 20
6291.1885389999989
 30
0.0
 11
11204.50738467518
 21
8152.2344179999973
 31
0.0
  0
LINE
  5
CD72
  8
0-1
  6
CONTINUOUS
 62
     3
 10
11071.506499675181
 20
6291.1885389999989
 30
0.0
 11
11071.506499675181
 21
8152.2344179999973
 31
0.0
  0
LINE
  5
CD73
  8
0-1
  6
CONTINUOUS
 62
     3
 10
10803.50739767519
 20
6291.1885389999989
 30
0.0
 11
10803.50739767519
 21
8152.2344179999973
 31
0.0
  0
LINE
  5
CD74
  8
0-1
  6
CONTINUOUS
 62
     3
 10
10818.506209675181
 20
6291.1885389999989
 30
0.0
 11
10818.506209675181
 21
8152.2344179999973
 31
0.0
  0
LINE
  5
CD75
  8
0-1
  6
CONTINUOUS
 62
     3
 10
10951.5070936752
 20
6291.1885389999989
 30
0.0
 11
10951.5070936752
 21
8152.2344179999973
 31
0.0
  0
LINE
  5
CD76
  8
0-1
  6
CONTINUOUS
 62
     3
 10
11001.506763675199
 20
6291.1885389999989
 30
0.0
 11
11001.506763675199
 21
8152.2344179999973
 31
0.0
  0
LINE
  5
CD77
  8
0-1
  6
CONTINUOUS
 62
     3
 10
11021.50584067519
 20
6291.1885389999989
 30
0.0
 11
11021.50584067519
 21
8152.2344179999973
 31
0.0
  0
LINE
  5
CD78
  8
0-1
  6
CONTINUOUS
 62
     3
 10
10193.506869675201
 20
6291.1885389999989
 30
0.0
 11
10193.506869675201
 21
8152.2344179999973
 31
0.0
  0
LINE
  5
CD79
  8
0-1
  6
CONTINUOUS
 62
     3
 10
10213.505945675181
 20
6291.1885389999989
 30
0.0
 11
10213.505945675181
 21
8152.2344179999973
 31
0.0
  0
LINE
  5
CD7A
  8
0-1
  6
CONTINUOUS
 62
     3
 10
10143.50620967521
 20
6291.1885389999989
 30
0.0
 11
10143.50620967521
 21
8152.2344179999973
 31
0.0
  0
LINE
  5
CD7B
  8
0-1
  6
CONTINUOUS
 62
     3
 10
10263.50660567518
 20
6291.1885389999989
 30
0.0
 11
10263.50660567518
 21
8152.2344179999973
 31
0.0
  0
LINE
  5
CD7C
  8
0-1
  6
CONTINUOUS
 62
     3
 10
10396.506499675201
 20
6291.1885389999989
 30
0.0
 11
10396.506499675201
 21
8152.2344179999973
 31
0.0
  0
LINE
  5
CD7D
  8
0-1
  6
CONTINUOUS
 62
     3
 10
10411.5082816752
 20
6291.1885389999989
 30
0.0
 11
10411.5082816752
 21
8152.2344179999973
 31
0.0
  0
LINE
  5
CD7E
  8
0-1
  6
CONTINUOUS
 62
     3
 10
10010.5063156752
 20
6291.1885389999989
 30
0.0
 11
10010.5063156752
 21
8152.2344179999973
 31
0.0
  0
LINE
  5
CD7F
  8
0-1
  6
CONTINUOUS
 62
     3
 10
9995.5075026751874
 20
6291.1885389999989
 30
0.0
 11
9995.5075026751874
 21
8152.2344179999973
 31
0.0
  0
LINE
  5
CD80
  8
0-1
  6
CONTINUOUS
 62
     3
 10
7895.5075026751938
 20
6291.1885389999989
 30
0.0
 11
7895.5075026751938
 21
8152.2344179999973
 31
0.0
  0
LINE
  5
CD81
  8
0-1
  6
CONTINUOUS
 62
     3
 10
7910.5063156751958
 20
6291.1885389999989
 30
0.0
 11
7910.5063156751958
 21
8152.2344179999973
 31
0.0
  0
LINE
  5
CD82
  8
0-1
  6
CONTINUOUS
 62
     3
 10
8311.5072916752106
 20
6291.1885389999989
 30
0.0
 11
8311.5072916752106
 21
8152.2344179999973
 31
0.0
  0
LINE
  5
CD83
  8
0-1
  6
CONTINUOUS
 62
     3
 10
8296.5074896751903
 20
6291.1885389999989
 30
0.0
 11
8296.5074896751903
 21
8152.2344179999973
 31
0.0
  0
LINE
  5
CD84
  8
0-1
  6
CONTINUOUS
 62
     3
 10
8163.5066056751966
 20
6291.1885389999989
 30
0.0
 11
8163.5066056751966
 21
8152.2344179999973
 31
0.0
  0
LINE
  5
CD85
  8
0-1
  6
CONTINUOUS
 62
     3
 10
8043.5071996751949
 20
6291.1885389999989
 30
0.0
 11
8043.5071996751949
 21
8152.2344179999973
 31
0.0
  0
LINE
  5
CD86
  8
0-1
  6
CONTINUOUS
 62
     3
 10
8113.5059456751906
 20
6291.1885389999989
 30
0.0
 11
8113.5059456751906
 21
8152.2344179999973
 31
0.0
  0
LINE
  5
CD87
  8
0-1
  6
CONTINUOUS
 62
     3
 10
8093.5068696751987
 20
6291.1885389999989
 30
0.0
 11
8093.5068696751987
 21
8152.2344179999973
 31
0.0
  0
LINE
  5
CD88
  8
0-1
  6
CONTINUOUS
 62
     3
 10
8793.5062096751935
 20
6291.1885389999989
 30
0.0
 11
8793.5062096751935
 21
8152.2344179999973
 31
0.0
  0
LINE
  5
CD89
  8
0-1
  6
CONTINUOUS
 62
     3
 10
8813.5072656751872
 20
6291.1885389999989
 30
0.0
 11
8813.5072656751872
 21
8152.2344179999973
 31
0.0
  0
LINE
  5
CD8A
  8
0-1
  6
CONTINUOUS
 62
     3
 10
8743.5075296751911
 20
6291.1885389999989
 30
0.0
 11
8743.5075296751911
 21
8152.2344179999973
 31
0.0
  0
LINE
  5
CD8B
  8
0-1
  6
CONTINUOUS
 62
     3
 10
8863.5059456751915
 20
6291.1885389999989
 30
0.0
 11
8863.5059456751915
 21
8152.2344179999973
 31
0.0
  0
LINE
  5
CD8C
  8
0-1
  6
CONTINUOUS
 62
     3
 10
8996.5068296751924
 20
6291.1885389999989
 30
0.0
 11
8996.5068296751924
 21
8152.2344179999973
 31
0.0
  0
LINE
  5
CD8D
  8
0-1
  6
CONTINUOUS
 62
     3
 10
9011.5066316752036
 20
6291.1885389999989
 30
0.0
 11
9011.5066316752036
 21
8152.2344179999973
 31
0.0
  0
LINE
  5
CD8E
  8
0-1
  6
CONTINUOUS
 62
     3
 10
8610.5086246751889
 20
6291.1885389999989
 30
0.0
 11
8610.5086246751889
 21
8152.2344179999973
 31
0.0
  0
LINE
  5
CD8F
  8
0-1
  6
CONTINUOUS
 62
     3
 10
8595.5068436751899
 20
6291.1885389999989
 30
0.0
 11
8595.5068436751899
 21
8152.2344179999973
 31
0.0
  0
LINE
  5
CD90
  8
0-1
  6
CONTINUOUS
 62
     3
 10
9295.5061836751993
 20
6291.1885389999989
 30
0.0
 11
9295.5061836751993
 21
8152.2344179999973
 31
0.0
  0
LINE
  5
CD91
  8
0-1
  6
CONTINUOUS
 62
     3
 10
9310.5079646752001
 20
6291.1885389999989
 30
0.0
 11
9310.5079646752001
 21
8152.2344179999973
 31
0.0
  0
LINE
  5
CD92
  8
0-1
  6
CONTINUOUS
 62
     3
 10
9711.5059726751915
 20
6291.1885389999989
 30
0.0
 11
9711.5059726751915
 21
8152.2344179999973
 31
0.0
  0
LINE
  5
CD93
  8
0-1
  6
CONTINUOUS
 62
     3
 10
9696.5071596751968
 20
6291.1885389999989
 30
0.0
 11
9696.5071596751968
 21
8152.2344179999973
 31
0.0
  0
LINE
  5
CD94
  8
0-1
  6
CONTINUOUS
 62
     3
 10
9563.5082556751877
 20
6291.1885389999989
 30
0.0
 11
9563.5082556751877
 21
8152.2344179999973
 31
0.0
  0
LINE
  5
CD95
  8
0-1
  6
CONTINUOUS
 62
     3
 10
9443.5068696751969
 20
6291.1885389999989
 30
0.0
 11
9443.5068696751969
 21
8152.2344179999973
 31
0.0
  0
LINE
  5
CD96
  8
0-1
  6
CONTINUOUS
 62
     3
 10
9513.5066056752094
 20
6291.1885389999989
 30
0.0
 11
9513.5066056752094
 21
8152.2344179999973
 31
0.0
  0
LINE
  5
CD97
  8
0-1
  6
CONTINUOUS
 62
     3
 10
9493.5075296751875
 20
6291.1885389999989
 30
0.0
 11
9493.5075296751875
 21
8152.2344179999973
 31
0.0
  0
LINE
  5
CD98
  8
0-1
  6
CONTINUOUS
 62
     3
 10
9835.0061566751974
 20
8152.2344179999973
 30
0.0
 11
9835.0061566751974
 21
6291.1885389999989
 31
0.0
  0
LINE
  5
CD99
  8
0-1
  6
CONTINUOUS
 62
     3
 10
9872.0073186751979
 20
8152.2344179999973
 30
0.0
 11
9872.0073186751979
 21
6291.1885389999989
 31
0.0
  0
LINE
  5
CD9A
  8
0-1
  6
CONTINUOUS
 62
     3
 10
8435.0084666751936
 20
8152.2344179999973
 30
0.0
 11
8435.0084666751936
 21
6291.1885389999989
 31
0.0
  0
LINE
  5
CD9B
  8
0-1
  6
CONTINUOUS
 62
     3
 10
8472.0076486752077
 20
8152.2344179999973
 30
0.0
 11
8472.0076486752077
 21
6291.1885389999989
 31
0.0
  0
LINE
  5
CD9C
  8
0-1
  6
CONTINUOUS
 62
     3
 10
9135.0068166752008
 20
8152.2344179999973
 30
0.0
 11
9135.0068166752008
 21
6291.1885389999989
 31
0.0
  0
LINE
  5
CD9D
  8
0-1
  6
CONTINUOUS
 62
     3
 10
9172.0069886751899
 20
8152.2344179999973
 30
0.0
 11
9172.0069886751899
 21
6291.1885389999989
 31
0.0
  0
LINE
  5
CD9E
  8
0-1
  6
CONTINUOUS
 62
     3
 10
7735.0061566752029
 20
8152.2344179999973
 30
0.0
 11
7735.0061566752029
 21
6291.1885389999989
 31
0.0
  0
LINE
  5
CD9F
  8
0-1
  6
CONTINUOUS
 62
     3
 10
7772.007318675197
 20
8152.2344179999973
 30
0.0
 11
7772.007318675197
 21
6291.1885389999989
 31
0.0
  0
LINE
  5
CDA0
  8
0-1
  6
CONTINUOUS
 62
     3
 10
24338.472042566791
 20
6241.1883740000012
 30
0.0
 11
24438.47138356679
 21
6241.1883740000012
 31
0.0
  0
LINE
  5
CDA1
  8
0-1
  6
CONTINUOUS
 62
     3
 10
24438.47138356679
 20
6241.1883740000012
 30
0.0
 11
24438.47138356679
 21
6141.1885389999979
 31
0.0
  0
LINE
  5
CDA2
  8
0-1
  6
CONTINUOUS
 62
     3
 10
24338.472042566791
 20
6141.1885389999979
 30
0.0
 11
24338.472042566791
 21
6241.1883740000012
 31
0.0
  0
LINE
  5
CDA3
  8
0-1
  6
CONTINUOUS
 62
     3
 10
24430.970987566801
 20
8459.188465999996
 30
0.0
 11
24430.970987566801
 21
6241.1883740000012
 31
0.0
  0
LINE
  5
CDA4
  8
0-1
  6
CONTINUOUS
 62
     3
 10
24482.470723566799
 20
8132.6883740000021
 30
0.0
 11
24482.470723566799
 21
6141.1885389999979
 31
0.0
  0
LINE
  5
CDA5
  8
0-1
  6
CONTINUOUS
 62
     3
 10
24365.969535566801
 20
8589.1883999999955
 30
0.0
 11
24365.969535566801
 21
6241.1883740000012
 31
0.0
  0
LINE
  5
CDA6
  8
0-1
  6
CONTINUOUS
 62
     3
 10
24345.970723566781
 20
8459.188465999996
 30
0.0
 11
24345.970723566781
 21
6241.1883740000012
 31
0.0
  0
LINE
  5
CDA7
  8
0-1
  6
CONTINUOUS
 62
     3
 10
27391.970723566799
 20
8263.5026619999953
 30
0.0
 11
27348.970723566799
 21
8263.5026619999953
 31
0.0
  0
LINE
  5
CDA8
  8
0-1
  6
CONTINUOUS
 62
     3
 10
27356.47336256679
 20
6241.1883740000012
 30
0.0
 11
27256.474022566788
 21
6241.1883740000012
 31
0.0
  0
LINE
  5
CDA9
  8
0-1
  6
CONTINUOUS
 62
     3
 10
27256.474022566788
 20
6241.1883740000012
 30
0.0
 11
27256.474022566788
 21
6141.1885389999979
 31
0.0
  0
LINE
  5
CDAA
  8
0-1
  6
CONTINUOUS
 62
     3
 10
27356.47336256679
 20
6141.1885389999979
 30
0.0
 11
27356.47336256679
 21
6241.1883740000012
 31
0.0
  0
LINE
  5
CDAB
  8
0-1
  6
CONTINUOUS
 62
     3
 10
27212.47072356681
 20
8132.6883740000021
 30
0.0
 11
27212.47072356681
 21
6141.1885389999979
 31
0.0
  0
LINE
  5
CDAC
  8
0-1
  6
CONTINUOUS
 62
     3
 10
27263.974418566781
 20
8459.188465999996
 30
0.0
 11
27263.974418566781
 21
6241.1883740000012
 31
0.0
  0
LINE
  5
CDAD
  8
0-1
  6
CONTINUOUS
 62
     3
 10
27328.973890566791
 20
8589.1883999999955
 30
0.0
 11
27328.973890566791
 21
6241.1883740000012
 31
0.0
  0
LINE
  5
CDAE
  8
0-1
  6
CONTINUOUS
 62
     3
 10
27348.970723566799
 20
8459.188465999996
 30
0.0
 11
27348.970723566799
 21
6241.1883740000012
 31
0.0
  0
LINE
  5
CDAF
  8
0-1
  6
CONTINUOUS
 62
     3
 10
7284.0073446752067
 20
6241.1883740000012
 30
0.0
 11
7284.0073446752067
 21
6141.1885389999979
 31
0.0
  0
LINE
  5
CDB0
  8
0-1
  6
CONTINUOUS
 62
     3
 10
7316.5081356752053
 20
8455.5174490000027
 30
0.0
 11
7316.5081356752053
 21
6241.1883740000012
 31
0.0
  0
LINE
  5
CDB1
  8
0-1
  6
CONTINUOUS
 62
     3
 10
7296.5073446752003
 20
8456.0984379999973
 30
0.0
 11
7296.5073446752003
 21
6241.1883740000012
 31
0.0
  0
LINE
  5
CDB2
  8
0-1
  6
CONTINUOUS
 62
     3
 10
7411.507212675212
 20
8152.2344179999973
 30
0.0
 11
7411.507212675212
 21
6241.1883740000012
 31
0.0
  0
LINE
  5
CDB3
  8
0-1
  6
CONTINUOUS
 62
     3
 10
10607.50734467519
 20
8356.9898809999977
 30
0.0
 11
10607.50734467519
 21
8152.2344179999973
 31
0.0
  0
LINE
  5
CDB4
  8
0-1
  6
CONTINUOUS
 62
     3
 10
10680.00721267518
 20
8152.2344179999973
 30
0.0
 11
10680.00721267518
 21
6241.1883740000012
 31
0.0
  0
LINE
  5
CDB5
  8
0-1
  6
CONTINUOUS
 62
     3
 10
10535.00846667521
 20
8152.2344179999973
 30
0.0
 11
10535.00846667521
 21
6241.1883740000012
 31
0.0
  0
LINE
  5
CDB6
  8
0-1
  6
CONTINUOUS
 62
     3
 10
10535.00846667521
 20
6291.1885389999989
 30
0.0
 11
7411.507212675212
 21
6291.1885389999989
 31
0.0
  0
LINE
  5
CDB7
  8
0-1
  6
CONTINUOUS
 62
     3
 10
27212.47072356681
 20
6661.1892649999972
 30
0.0
 11
24482.470723566799
 21
6661.1892649999972
 31
0.0
  0
LINE
  5
CDB8
  8
0-1
  6
CONTINUOUS
 62
     3
 10
27212.47072356681
 20
6596.1888030000009
 30
0.0
 11
24482.470723566799
 21
6596.1888030000009
 31
0.0
  0
LINE
  5
CDB9
  8
0-1
  6
CONTINUOUS
 62
     3
 10
27212.47072356681
 20
6531.1888359999984
 30
0.0
 11
24482.470723566799
 21
6531.1888359999984
 31
0.0
  0
LINE
  5
CDBA
  8
0-1
  6
CONTINUOUS
 62
     3
 10
27212.47072356681
 20
6466.1883740000012
 30
0.0
 11
24482.470723566799
 21
6466.1883740000012
 31
0.0
  0
LINE
  5
CDBB
  8
0-1
  6
CONTINUOUS
 62
     3
 10
27212.47072356681
 20
6401.1889020000053
 30
0.0
 11
24482.470723566799
 21
6401.1889020000053
 31
0.0
  0
LINE
  5
CDBC
  8
0-1
  6
CONTINUOUS
 62
     3
 10
27212.47072356681
 20
6336.1889350000019
 30
0.0
 11
24482.470723566799
 21
6336.1889350000019
 31
0.0
  0
LINE
  5
CDBD
  8
0-1
  6
CONTINUOUS
 62
     3
 10
27212.47072356681
 20
6271.1889679999967
 30
0.0
 11
24482.470723566799
 21
6271.1889679999967
 31
0.0
  0
LINE
  5
CDBE
  8
0-1
  6
CONTINUOUS
 62
     3
 10
27212.47072356681
 20
6206.1885060000022
 30
0.0
 11
24482.470723566799
 21
6206.1885060000022
 31
0.0
  0
LINE
  5
CDBF
  8
0-1
  6
CONTINUOUS
 62
     3
 10
27212.47072356681
 20
8026.1885720000018
 30
0.0
 11
24482.470723566799
 21
8026.1885720000018
 31
0.0
  0
LINE
  5
CDC0
  8
0-1
  6
CONTINUOUS
 62
     3
 10
27212.47072356681
 20
7961.1886050000021
 30
0.0
 11
24482.470723566799
 21
7961.1886050000021
 31
0.0
  0
LINE
  5
CDC1
  8
0-1
  6
CONTINUOUS
 62
     3
 10
27212.47072356681
 20
7896.1891330000026
 30
0.0
 11
24482.470723566799
 21
7896.1891330000026
 31
0.0
  0
LINE
  5
CDC2
  8
0-1
  6
CONTINUOUS
 62
     3
 10
27212.47072356681
 20
7831.1891659999937
 30
0.0
 11
24482.470723566799
 21
7831.1891659999937
 31
0.0
  0
LINE
  5
CDC3
  8
0-1
  6
CONTINUOUS
 62
     3
 10
27212.47072356681
 20
7766.189199000004
 30
0.0
 11
24482.470723566799
 21
7766.189199000004
 31
0.0
  0
LINE
  5
CDC4
  8
0-1
  6
CONTINUOUS
 62
     3
 10
27212.47072356681
 20
7701.1887370000022
 30
0.0
 11
24482.470723566799
 21
7701.1887370000022
 31
0.0
  0
LINE
  5
CDC5
  8
0-1
  6
CONTINUOUS
 62
     3
 10
27212.47072356681
 20
7636.1887699999979
 30
0.0
 11
24482.470723566799
 21
7636.1887699999979
 31
0.0
  0
LINE
  5
CDC6
  8
0-1
  6
CONTINUOUS
 62
     3
 10
27212.47072356681
 20
7571.1892980000011
 30
0.0
 11
24482.470723566799
 21
7571.1892980000011
 31
0.0
  0
LINE
  5
CDC7
  8
0-1
  6
CONTINUOUS
 62
     3
 10
27212.47072356681
 20
7506.1893309999978
 30
0.0
 11
24482.470723566799
 21
7506.1893309999978
 31
0.0
  0
LINE
  5
CDC8
  8
0-1
  6
CONTINUOUS
 62
     3
 10
27212.47072356681
 20
7441.1888690000023
 30
0.0
 11
24482.470723566799
 21
7441.1888690000023
 31
0.0
  0
LINE
  5
CDC9
  8
0-1
  6
CONTINUOUS
 62
     3
 10
27212.47072356681
 20
7376.188901999999
 30
0.0
 11
24482.470723566799
 21
7376.188901999999
 31
0.0
  0
LINE
  5
CDCA
  8
0-1
  6
CONTINUOUS
 62
     3
 10
27212.47072356681
 20
7311.1889350000029
 30
0.0
 11
24482.470723566799
 21
7311.1889350000029
 31
0.0
  0
LINE
  5
CDCB
  8
0-1
  6
CONTINUOUS
 62
     3
 10
27212.47072356681
 20
7246.1884729999983
 30
0.0
 11
24482.470723566799
 21
7246.1884729999983
 31
0.0
  0
LINE
  5
CDCC
  8
0-1
  6
CONTINUOUS
 62
     3
 10
27212.47072356681
 20
7181.188505999995
 30
0.0
 11
24482.470723566799
 21
7181.188505999995
 31
0.0
  0
LINE
  5
CDCD
  8
0-1
  6
CONTINUOUS
 62
     3
 10
27212.47072356681
 20
7116.189034
 30
0.0
 11
24482.470723566799
 21
7116.189034
 31
0.0
  0
LINE
  5
CDCE
  8
0-1
  6
CONTINUOUS
 62
     3
 10
27212.47072356681
 20
7051.1890669999939
 30
0.0
 11
24482.470723566799
 21
7051.1890669999939
 31
0.0
  0
LINE
  5
CDCF
  8
0-1
  6
CONTINUOUS
 62
     3
 10
27212.47072356681
 20
6986.1890999999996
 30
0.0
 11
24482.470723566799
 21
6986.1890999999996
 31
0.0
  0
LINE
  5
CDD0
  8
0-1
  6
CONTINUOUS
 62
     3
 10
27212.47072356681
 20
6921.1886380000024
 30
0.0
 11
24482.470723566799
 21
6921.1886380000024
 31
0.0
  0
LINE
  5
CDD1
  8
0-1
  6
CONTINUOUS
 62
     3
 10
27212.47072356681
 20
6856.188670999999
 30
0.0
 11
24482.470723566799
 21
6856.188670999999
 31
0.0
  0
LINE
  5
CDD2
  8
0-1
  6
CONTINUOUS
 62
     3
 10
27212.47072356681
 20
6791.1891989999967
 30
0.0
 11
24482.470723566799
 21
6791.1891989999967
 31
0.0
  0
LINE
  5
CDD3
  8
0-1
  6
CONTINUOUS
 62
     3
 10
27212.47072356681
 20
6726.1892319999997
 30
0.0
 11
24482.470723566799
 21
6726.1892319999997
 31
0.0
  0
LINE
  5
CDD4
  8
0-1
  6
CONTINUOUS
 62
     3
 10
27212.47072356681
 20
8080.6485920000023
 30
0.0
 11
24482.470723566799
 21
8080.6485920000023
 31
0.0
  0
LINE
  5
CDD5
  8
0-1
  6
CONTINUOUS
 62
     3
 10
27356.47336256679
 20
6141.1885389999979
 30
0.0
 11
18776.992347441588
 21
6141.1885389999979
 31
0.0
  0
LINE
  5
CDD6
  8
0-1
  6
CONTINUOUS
 62
     3
 10
13575.50734467519
 20
6141.1885389999979
 30
0.0
 11
13575.50734467519
 21
6241.1883740000012
 31
0.0
  0
LINE
  5
CDD7
  8
0-1
  6
CONTINUOUS
 62
     3
 10
13548.007542675199
 20
8268.9908770000002
 30
0.0
 11
13548.007542675199
 21
6241.1883740000012
 31
0.0
  0
LINE
  5
CDD8
  8
0-1
  6
CONTINUOUS
 62
     3
 10
13568.00734467521
 20
8268.3741496838084
 30
0.0
 11
13568.00734467521
 21
6241.1883740000012
 31
0.0
  0
LINE
  5
CDD9
  8
0-1
  6
CONTINUOUS
 62
     3
 10
13453.008465675201
 20
8152.2344179999973
 30
0.0
 11
13453.008465675201
 21
6241.1883740000012
 31
0.0
  0
LINE
  5
CDDA
  8
0-1
  6
CONTINUOUS
 62
     3
 10
13575.50734467519
 20
6241.1883740000012
 30
0.0
 11
7284.0073446752067
 21
6241.1883740000012
 31
0.0
  0
LINE
  5
CDDB
  8
0-1
  6
CONTINUOUS
 62
     3
 10
13453.008465675201
 20
6291.1885389999989
 30
0.0
 11
10680.00721267518
 21
6291.1885389999989
 31
0.0
  0
LINE
  5
CDDC
  8
0-1
  6
CONTINUOUS
 62
     3
 10
14258.0083996752
 20
6141.1885389999979
 30
0.0
 11
7284.0073446752067
 21
6141.1885389999979
 31
0.0
  0
LINE
  5
CDDD
  8
0-1
  6
CONTINUOUS
 62
     3
 10
13548.007542675199
 20
8152.2344179999973
 30
0.0
 11
7316.5081356752053
 21
8152.2344179999973
 31
0.0
  0
LINE
  5
CDDE
  8
0-1
  6
CONTINUOUS
 62
     3
 10
27237.971462566791
 20
8334.6891199999973
 30
0.0
 11
26960.54193256679
 21
8334.6891199999973
 31
0.0
  0
LINE
  5
CDDF
  8
0-1
  6
CONTINUOUS
 62
     3
 10
27237.971462566791
 20
8376.6885650000004
 30
0.0
 11
26928.544994566771
 21
8376.6885650000004
 31
0.0
  0
LINE
  5
CDE0
  8
0-1
  6
CONTINUOUS
 62
     3
 10
27242.9717255668
 20
8339.6888889999937
 30
0.0
 11
27242.9717255668
 21
8371.6892909999988
 31
0.0
  0
LINE
  5
CDE1
  8
0-1
  6
CONTINUOUS
 62
     3
 10
27263.974418566781
 20
8385.6884469999968
 30
0.0
 11
24430.970987566801
 21
8385.6884469999968
 31
0.0
  0
LINE
  5
CDE2
  8
0-1
  6
CONTINUOUS
 62
     3
 10
26957.008492566791
 20
8336.1529739999987
 30
0.0
 11
26925.0075945668
 21
8368.1533759999984
 31
0.0
  0
LINE
  5
CDE3
  8
0-1
  6
CONTINUOUS
 62
     3
 10
27242.9717255668
 20
8368.2889730000024
 30
0.0
 11
26924.878926566798
 21
8368.2889730000024
 31
0.0
  0
LINE
  5
CDE4
  8
0-1
  6
CONTINUOUS
 62
     3
 10
27242.9717255668
 20
8359.8888860000006
 30
0.0
 11
26933.27208456679
 21
8359.8888860000006
 31
0.0
  0
LINE
  5
CDE5
  8
0-1
  6
CONTINUOUS
 62
     3
 10
27242.9717255668
 20
8351.4892940000027
 30
0.0
 11
26941.671182566792
 21
8351.4892940000027
 31
0.0
  0
LINE
  5
CDE6
  8
0-1
  6
CONTINUOUS
 62
     3
 10
27242.9717255668
 20
8343.0892070000027
 30
0.0
 11
26950.074238566791
 21
8343.0892070000027
 31
0.0
  0
LINE
  5
CDE7
  8
0-1
  6
CONTINUOUS
 62
     3
 10
24451.971699566799
 20
8368.2889730000024
 30
0.0
 11
24770.064499566801
 21
8368.2889730000024
 31
0.0
  0
LINE
  5
CDE8
  8
0-1
  6
CONTINUOUS
 62
     3
 10
24451.971699566799
 20
8359.8888860000006
 30
0.0
 11
24761.66936156679
 21
8359.8888860000006
 31
0.0
  0
LINE
  5
CDE9
  8
0-1
  6
CONTINUOUS
 62
     3
 10
24451.971699566799
 20
8351.4892940000027
 30
0.0
 11
24753.2702645668
 21
8351.4892940000027
 31
0.0
  0
LINE
  5
CDEA
  8
0-1
  6
CONTINUOUS
 62
     3
 10
24451.971699566799
 20
8343.0892070000027
 30
0.0
 11
24744.871166566802
 21
8343.0892070000027
 31
0.0
  0
LINE
  5
CDEB
  8
0-1
  6
CONTINUOUS
 62
     3
 10
24456.971963566801
 20
8376.6885650000004
 30
0.0
 11
24766.398431566799
 21
8376.6885650000004
 31
0.0
  0
LINE
  5
CDEC
  8
0-1
  6
CONTINUOUS
 62
     3
 10
24456.971963566801
 20
8334.6891199999973
 30
0.0
 11
24734.401492566802
 21
8334.6891199999973
 31
0.0
  0
LINE
  5
CDED
  8
0-1
  6
CONTINUOUS
 62
     3
 10
24451.971699566799
 20
8339.6888889999937
 30
0.0
 11
24451.971699566799
 21
8371.6892909999988
 31
0.0
  0
LINE
  5
CDEE
  8
0-1
  6
CONTINUOUS
 62
     3
 10
24737.936913566798
 20
8336.1529739999987
 30
0.0
 11
24769.933851566791
 21
8368.1533759999984
 31
0.0
  0
LINE
  5
CDEF
  8
0-1
  6
CONTINUOUS
 62
     3
 10
13742.30916867519
 20
8303.1736990000027
 30
0.0
 11
7210.8176796752014
 21
8498.6897600000029
 31
0.0
  0
LINE
  5
CDF0
  8
0-1
  6
CONTINUOUS
 62
     3
 10
7212.3181546752012
 20
8548.6686450000016
 30
0.0
 11
13743.808653675211
 21
8353.1515949999975
 31
0.0
  0
LINE
  5
CDF1
  8
0-1
  6
CONTINUOUS
 62
     3
 10
13746.8986816752
 20
8356.0604970000022
 30
0.0
 11
13747.8587486752
 21
8388.0460529999946
 31
0.0
  0
LINE
  5
CDF2
  8
0-1
  6
CONTINUOUS
 62
     3
 10
13743.00991767519
 20
8393.193295999994
 30
0.0
 11
7192.5487026752016
 21
8589.2804480000032
 31
0.0
  0
LINE
  5
CDF3
  8
0-1
  6
CONTINUOUS
 62
     3
 10
7188.6441026751991
 20
8459.3389100000022
 30
0.0
 11
13739.109276675201
 21
8263.2522529999951
 31
0.0
  0
LINE
  5
CDF4
  8
0-1
  6
CONTINUOUS
 62
     3
 10
13744.2570146752
 20
8268.0995989999974
 30
0.0
 11
13745.2160916752
 21
8300.0856499999973
 31
0.0
  0
LINE
  5
CDF5
  8
0-1
  6
CONTINUOUS
 62
     3
 10
13745.5476606752
 20
8311.0803909999977
 30
0.0
 11
13746.568102675201
 21
8345.0647659999977
 31
0.0
  0
LINE
  5
CDF6
  8
0-1
  6
CONTINUOUS
 62
     3
 10
13743.65919967519
 20
8348.1538049999981
 30
0.0
 11
7212.166721675203
 21
8543.6713500000023
 31
0.0
  0
LINE
  5
CDF7
  8
0-1
  6
CONTINUOUS
 62
     3
 10
7210.9671336752062
 20
8503.6880439999986
 30
0.0
 11
13742.457631675201
 21
8308.1719839999969
 31
0.0
  0
LINE
  5
CDF8
  8
0-1
  6
CONTINUOUS
 62
     3
 10
10607.50734467519
 20
8356.9898809999977
 30
0.0
 11
10611.409965675181
 21
8486.9314189999968
 31
0.0
  0
LINE
  5
CDF9
  8
0-1
  6
CONTINUOUS
 62
     3
 10
7221.6110046752001
 20
8458.3481609999981
 30
0.0
 11
7225.5126356751998
 21
8588.2896989999972
 31
0.0
  0
LINE
  5
CDFA
  8
0-1
  6
CONTINUOUS
 62
     3
 10
13730.517175675181
 20
8393.5684149999979
 30
0.0
 11
13726.61455467519
 21
8263.6273720000008
 31
0.0
  0
LINE
  5
CDFB
  8
0-2
  6
CONTINUOUS
 62
     4
 10
25483.782683066791
 20
6888.4152329999961
 30
0.0
 11
25583.782023066778
 21
6888.4152329999961
 31
0.0
  0
LINE
  5
CDFC
  8
0-2
  6
CONTINUOUS
 62
     4
 10
26211.166683066778
 20
6888.4152329999961
 30
0.0
 11
26111.167343066791
 21
6888.4152329999961
 31
0.0
  0
LINE
  5
CDFD
  8
0-5
  6
CONTINUOUS
 62
     4
 10
24388.470723566781
 20
4461.1889349999919
 30
0.0
 11
24388.470723566781
 21
4301.1893969999992
 31
0.0
  0
LINE
  5
CDFE
  8
0-5
  6
CONTINUOUS
 62
     4
 10
15555.86967772149
 20
6241.1883740000003
 30
0.0
 11
15435.869281721491
 21
6449.035350999995
 31
0.0
  0
LINE
  5
CDFF
  8
0-5
  6
CONTINUOUS
 62
     4
 10
15675.868094721491
 20
6449.035350999995
 30
0.0
 11
15555.86967772149
 21
6241.1883740000003
 31
0.0
  0
LINE
  5
CE00
  8
0-5
  6
CONTINUOUS
 62
     4
 10
15435.869281721491
 20
6449.035350999995
 30
0.0
 11
15675.868094721491
 21
6449.035350999995
 31
0.0
  0
LINE
  5
CE01
  8
0-5
  6
CONTINUOUS
 62
     4
 10
16042.233458663601
 20
6241.1883740000012
 30
0.0
 11
14658.00774067519
 21
6241.1883740000003
 31
0.0
  0
LINE
  5
CE02
  8
0-5
  6
CONTINUOUS
 62
     4
 10
27306.470723566799
 20
4461.1889349999919
 30
0.0
 11
27306.470723566799
 21
4301.1893969999992
 31
0.0
  0
LINE
  5
CE03
  8
0-5
  6
CONTINUOUS
 62
     4
 10
7339.0073446752076
 20
4461.1889349999919
 30
0.0
 11
7339.0073446752076
 21
4301.1893969999992
 31
0.0
  0
LINE
  5
CE04
  8
0-5
  6
CONTINUOUS
 62
     4
 10
10607.50734467519
 20
4461.1889349999919
 30
0.0
 11
10607.50734467519
 21
4301.1893969999992
 31
0.0
  0
LINE
  5
CE05
  8
0-5
  6
CONTINUOUS
 62
     4
 10
13525.507344675199
 20
4461.1889349999919
 30
0.0
 11
13525.507344675199
 21
4301.1893969999992
 31
0.0
  0
LINE
  5
CE06
  8
2-0
  6
CENTER2
 62
     6
 10
24388.470723566781
 20
5878.5361159999993
 30
0.0
 11
24388.470723566781
 21
6915.6791429999976
 31
0.0
  0
LINE
  5
CE07
  8
2-0
  6
CENTER2
 62
     6
 10
27306.470723566799
 20
5878.5361159999993
 30
0.0
 11
27306.470723566799
 21
6915.6791429999976
 31
0.0
  0
LINE
  5
CE08
  8
2-0
  6
CENTER2
 62
     6
 10
7339.0073446752076
 20
5878.5361159999993
 30
0.0
 11
7339.0073446752076
 21
6935.6787139999979
 31
0.0
  0
LINE
  5
CE09
  8
2-0
  6
CENTER2
 62
     6
 10
10607.50734467519
 20
5878.5361159999993
 30
0.0
 11
10607.50734467519
 21
6935.6787139999979
 31
0.0
  0
LINE
  5
CE0A
  8
2-0
  6
CENTER2
 62
     6
 10
13525.507344675199
 20
5878.5361159999993
 30
0.0
 11
13525.507344675199
 21
6935.6787139999979
 31
0.0
  0
ARC
  5
CE0B
  8
0-1
  6
CONTINUOUS
 62
     3
 10
27237.971462566791
 20
8371.6892909999988
 30
0.0
 40
5.0
 50
0.000000000000007
 51
90.0
  0
ARC
  5
CE0C
  8
0-1
  6
CONTINUOUS
 62
     3
 10
27237.971462566791
 20
8339.6888889999937
 30
0.0
 40
5.0
 50
270.00001499981897
 51
0.000000000000007
  0
ARC
  5
CE0D
  8
0-1
  6
CONTINUOUS
 62
     3
 10
26960.54193256679
 20
8339.6888889999937
 30
0.0
 40
5.0
 50
225.00001499976199
 51
270.00001499981897
  0
ARC
  5
CE0E
  8
0-1
  6
CONTINUOUS
 62
     3
 10
26928.544994566771
 20
8371.6892909999988
 30
0.0
 40
5.0
 50
90.0
 51
225.00001499976199
  0
ARC
  5
CE0F
  8
0-1
  6
CONTINUOUS
 62
     3
 10
24456.971963566801
 20
8339.6888889999937
 30
0.0
 40
5.0
 50
180.0
 51
270.00001499981897
  0
ARC
  5
CE10
  8
0-1
  6
CONTINUOUS
 62
     3
 10
24456.971963566801
 20
8371.6892909999988
 30
0.0
 40
5.0
 50
90.0
 51
180.0
  0
ARC
  5
CE11
  8
0-1
  6
CONTINUOUS
 62
     3
 10
24766.398431566799
 20
8371.6892909999988
 30
0.0
 40
5.0
 50
315.00001500002008
 51
90.0
  0
ARC
  5
CE12
  8
0-1
  6
CONTINUOUS
 62
     3
 10
24734.401492566802
 20
8339.6888889999937
 30
0.0
 40
5.0
 50
270.00001499981897
 51
315.00001500002008
  0
ARC
  5
CE13
  8
0-1
  6
CONTINUOUS
 62
     3
 10
7211.5679176752101
 20
8523.680191999998
 30
0.0
 40
24.999998999999999
 50
88.280013999973605
 51
268.28001399997362
  0
ARC
  5
CE14
  8
0-1
  6
CONTINUOUS
 62
     3
 10
13743.898721675199
 20
8356.1505649999999
 30
0.0
 40
3.0
 50
268.28001399997362
 51
358.2800139999739
  0
ARC
  5
CE15
  8
0-1
  6
CONTINUOUS
 62
     3
 10
13742.86145367519
 20
8388.1955069999967
 30
0.0
 40
5.0
 50
358.2800139999739
 51
88.280013999973605
  0
ARC
  5
CE16
  8
0-1
  6
CONTINUOUS
 62
     3
 10
7216.5652116752181
 20
8523.529749000003
 30
0.0
 40
69.999999000000003
 50
110.066803000108
 51
246.49322500022339
  0
ARC
  5
CE17
  8
0-1
  6
CONTINUOUS
 62
     3
 10
13739.25774067519
 20
8268.250043
 30
0.0
 40
5.0
 50
268.28001399997362
 51
358.2800139999739
  0
ARC
  5
CE18
  8
0-1
  6
CONTINUOUS
 62
     3
 10
13742.2190996752
 20
8300.1752230000002
 30
0.0
 40
3.0
 50
358.2800139999739
 51
88.280013999973605
  0
ARC
  5
CE19
  8
0-1
  6
CONTINUOUS
 62
     3
 10
13742.234936675201
 20
8350.6979809999957
 30
0.0
 40
2.5
 50
88.280013999973605
 51
268.28001399997362
  0
ARC
  5
CE1A
  8
0-1
  6
CONTINUOUS
 62
     3
 10
13740.8849046752
 20
8305.7178749999985
 30
0.0
 40
2.5
 50
88.280013999973605
 51
268.28001399997362
  0
ARC
  5
CE1B
  8
0-1
  6
CONTINUOUS
 62
     3
 10
13743.569131675191
 20
8345.1553289999974
 30
0.0
 40
3.0
 50
358.2800139999739
 51
88.280013999973605
  0
ARC
  5
CE1C
  8
0-1
  6
CONTINUOUS
 62
     3
 10
7211.5679176752101
 20
8523.680191999998
 30
0.0
 40
20.0
 50
88.280013999973605
 51
268.28001399997362
  0
ARC
  5
CE1D
  8
0-1
  6
CONTINUOUS
 62
     3
 10
13742.548689675201
 20
8311.169963999997
 30
0.0
 40
3.0
 50
268.28001399997362
 51
358.2800139999739
  0
CIRCLE
  5
CE1E
  8
0-5
  6
CONTINUOUS
 62
     4
 10
24388.470723566781
 20
4101.1882420000002
 30
0.0
 40
199.9999949999999
  0
CIRCLE
  5
CE1F
  8
0-5
  6
CONTINUOUS
 62
     4
 10
10607.50734467519
 20
4101.1882420000002
 30
0.0
 40
199.9999949999999
  0
CIRCLE
  5
CE20
  8
0-5
  6
CONTINUOUS
 62
     4
 10
7339.0073446752076
 20
4101.1882420000002
 30
0.0
 40
199.9999949999999
  0
CIRCLE
  5
CE21
  8
0-5
  6
CONTINUOUS
 62
     4
 10
27306.470723566799
 20
4101.1882420000002
 30
0.0
 40
199.9999949999999
  0
CIRCLE
  5
CE22
  8
0-5
  6
CONTINUOUS
 62
     4
 10
13525.507344675199
 20
4101.1882420000002
 30
0.0
 40
199.9999949999999
  0
TEXT
  5
CE23
  8
0-5
  6
CONTINUOUS
 62
     7
 10
24333.71693190013
 20
4011.7132599999991
 30
0.0
 40
160.0
  1
2
 72
     4
 11
24387.050265233462
 21
4091.71326
 31
0.0
  0
TEXT
  5
CE24
  8
0-5
  6
CONTINUOUS
 62
     7
 10
28411.442488670938
 20
6988.0104361594413
 30
0.0
 40
160.0
  1
(2131.5)
 50
90.0
 72
     4
 11
28331.442488670938
 21
7441.3437694927743
 31
0.0
  0
TEXT
  5
CE25
  8
0-5
  6
CONTINUOUS
 62
     7
 10
15097.628273388151
 20
6529.0346249999966
 30
0.0
 40
160.0
  1
布基礎天端
 72
     4
 11
15556.29494005482
 21
6609.0346249999957
 31
0.0
  0
TEXT
  5
CE26
  8
0-5
  6
CONTINUOUS
 62
     7
 10
27253.137390233482
 20
4011.7132600000032
 30
0.0
 40
160.0
  1
3
 72
     4
 11
27306.47072356681
 21
4091.7132600000032
 31
0.0
  0
TEXT
  5
CE27
  8
0-5
  6
CONTINUOUS
 62
     7
 10
7279.2968380085331
 20
4017.977445999999
 30
0.0
 40
160.0
  1
A
 72
     4
 11
7332.6301713418661
 21
4097.9774459999999
 31
0.0
  0
TEXT
  5
CE28
  8
0-5
  6
CONTINUOUS
 62
     7
 10
10547.796838008509
 20
4017.977445999999
 30
0.0
 40
160.0
  1
B
 72
     4
 11
10601.130171341851
 21
4097.9774459999999
 31
0.0
  0
TEXT
  5
CE29
  8
0-5
  6
CONTINUOUS
 62
     7
 10
13465.796838008509
 20
4017.977445999999
 30
0.0
 40
160.0
  1
C
 72
     4
 11
13519.130171341851
 21
4097.9774459999999
 31
0.0
  0
CIRCLE
  5
CE2A
  8
0-4
  6
CONTINUOUS
 62
     4
 10
25847.472703066778
 20
6627.2449749999978
 30
0.0
 40
18.487504999999981
  0
LINE
  5
CE2B
  8
1-前柱カバ-P
 10
19430.970723566781
 20
8459.188465999996
 30
0.0
 11
19430.970723566781
 21
6141.1885389999979
 31
0.0
  0
LINE
  5
CE2C
  8
1-前柱カバ-P
 10
19345.970723566781
 20
8589.1883999999955
 30
0.0
 11
19345.970723566781
 21
6141.1885389999979
 31
0.0
  0
LINE
  5
CE2D
  8
0-1
  6
CONTINUOUS
 62
     3
 10
19302.970723566788
 20
8459.1884660000032
 30
0.0
 11
24430.970987566801
 21
8459.188465999996
 31
0.0
  0
LINE
  5
CE2E
  8
0-1
  6
CONTINUOUS
 62
     3
 10
24365.969535566801
 20
8589.1883999999955
 30
0.0
 11
19302.970723566788
 21
8589.1883999999955
 31
0.0
  0
LINE
  5
CE2F
  8
0-1
  6
CONTINUOUS
 62
     3
 10
19302.970723566788
 20
8263.5026620000044
 30
0.0
 11
19302.970723566788
 21
8589.1883999999955
 31
0.0
  0
LINE
  5
CE30
  8
0-1
  6
CONTINUOUS
 62
     3
 10
19302.970723566788
 20
8263.5026620000044
 30
0.0
 11
19345.970723566781
 21
8263.5026620000044
 31
0.0
  0
LINE
  5
CE31
  8
2-0
  6
CENTER2
 62
     6
 10
19388.470723566781
 20
5878.5361159999993
 30
0.0
 11
19388.470723566781
 21
6915.6791429999976
 31
0.0
  0
LINE
  5
CE32
  8
1-桁前P28
 10
19430.970723566781
 20
8261.5026620000044
 30
0.0
 11
24345.970723566781
 21
8261.5026620000044
 31
0.0
  0
LINE
  5
CE33
  8
0-5
  6
CONTINUOUS
 62
     4
 10
19388.470723566781
 20
4461.1889349999919
 30
0.0
 11
19388.470723566781
 21
4301.1893969999992
 31
0.0
  0
CIRCLE
  5
CE34
  8
0-5
  6
CONTINUOUS
 62
     4
 10
19388.470723566781
 20
4101.1882420000002
 30
0.0
 40
199.9999949999999
  0
TEXT
  5
CE35
  8
0-5
  6
CONTINUOUS
 62
     7
 10
19360.38359856679
 20
4011.7132599999991
 30
0.0
 40
160.0
  1
1
 72
     4
 11
19387.050265233462
 21
4091.71326
 31
0.0
  0
TEXT
  5
CE36
  8
0-5
  6
CONTINUOUS
 62
     7
 10
18375.599336307401
 20
7253.4937498378649
 30
0.0
 40
160.0
  1
(2260)
 50
90.0
 72
     4
 11
18295.599336307401
 21
7640.1604165045319
 31
0.0
  0
LINE
  5
CE37
  8
0-1
  6
CONTINUOUS
 62
     3
 10
7611.5049816752144
 20
6291.1885389999989
 30
0.0
 11
7611.5049816752144
 21
8152.2344179999973
 31
0.0
  0
LINE
  5
CE38
  8
0-1
  6
CONTINUOUS
 62
     3
 10
7596.5051796752023
 20
6291.1885389999989
 30
0.0
 11
7596.5051796752023
 21
8152.2344179999973
 31
0.0
  0
LINE
  5
CE39
  8
SUNPOU
  6
CONTINUOUS
 10
13748.00734467521
 20
9389.1900499999992
 30
0.0
 11
14252.795214568599
 21
9389.1900499999992
 31
0.0
  0
LINE
  5
CE3A
  8
0-5
  6
CONTINUOUS
 62
     4
 10
17008.38731353066
 20
6349.0350209999979
 30
0.0
 11
16888.388897530669
 21
6141.1885389999979
 31
0.0
  0
LINE
  5
CE3B
  8
0-5
  6
CONTINUOUS
 62
     4
 10
18701.964497920239
 20
6141.1885389999979
 30
0.0
 11
14331.568051040231
 21
6141.1885389999979
 31
0.0
  0
LINE
  5
CE3C
  8
0-5
  6
CONTINUOUS
 62
     4
 10
16888.388897530669
 20
6141.1885389999979
 30
0.0
 11
16768.38850153067
 21
6349.0350209999979
 31
0.0
  0
LINE
  5
CE3D
  8
0-5
  6
CONTINUOUS
 62
     4
 10
16768.38850153067
 20
6349.0350209999979
 30
0.0
 11
17008.38731353066
 21
6349.0350209999979
 31
0.0
  0
TEXT
  5
CE3E
  8
0-5
  6
CONTINUOUS
 62
     7
 10
16688.38731353066
 20
6429.0347899999997
 30
0.0
 40
160.0
  1
G.L
 72
     4
 11
16848.38731353066
 21
6509.0347899999997
 31
0.0
  0
LINE
  5
CE3F
  8
0-1
  6
CONTINUOUS
 62
     3
 10
13312.11698910097
 20
16705.485856999989
 30
0.0
 11
10394.116989100959
 21
16705.485856999989
 31
0.0
  0
LINE
  5
CE40
  8
0-1
  6
CONTINUOUS
 62
     3
 10
10394.116989100959
 20
16705.485856999989
 30
0.0
 11
7821.7461383321724
 21
16705.485856999989
 31
0.0
  0
LINE
  5
CE41
  8
2-0
  6
DASHED3
 62
     6
 10
7821.7461383321724
 20
16705.485856999989
 30
0.0
 11
5394.1169891009777
 21
16705.485856999989
 31
0.0
  0
LINE
  5
CE42
  8
0-1
  6
CONTINUOUS
 62
     3
 10
10447.11662010096
 20
13445.48689899998
 30
0.0
 11
10447.11662010096
 21
17788.733651581231
 31
0.0
  0
LINE
  5
CE43
  8
0-1
  6
CONTINUOUS
 62
     3
 10
13262.11636910095
 20
13321.486885
 30
0.0
 11
13262.11636910095
 21
18953.69969296483
 31
0.0
  0
LINE
  5
CE44
  8
0-1
  6
CONTINUOUS
 62
     3
 10
13262.11636910095
 20
18953.69969296483
 30
0.0
 11
13262.11636910095
 21
19832.98622599999
 31
0.0
  0
LINE
  5
CE45
  8
0-1
  6
CONTINUOUS
 62
     3
 10
13397.616989100979
 20
13289.48697799999
 30
0.0
 11
13397.616989100979
 21
19009.60803251138
 31
0.0
  0
LINE
  5
CE46
  8
0-1
  6
CONTINUOUS
 62
     3
 10
13397.616989100979
 20
19009.60803251138
 30
0.0
 11
13397.616989100979
 21
19880.987571999991
 31
0.0
  0
LINE
  5
CE47
  8
0-1
  6
CONTINUOUS
 62
     3
 10
13354.616263100959
 20
13445.48689899998
 30
0.0
 11
5351.6157351009624
 21
13445.48689899998
 31
0.0
  0
LINE
  5
CE48
  8
0-1
  6
CONTINUOUS
 62
     3
 10
13312.11698910097
 20
13524.48651599999
 30
0.0
 11
5394.1169891009777
 21
13524.48651599999
 31
0.0
  0
LINE
  5
CE49
  8
0-1
  6
CONTINUOUS
 62
     3
 10
13397.616989100979
 20
13289.48697799999
 30
0.0
 11
5308.6169891009758
 21
13289.48697799999
 31
0.0
  0
LINE
  5
CE4A
  8
0-1
  6
CONTINUOUS
 62
     3
 10
13397.616989100979
 20
13321.486885
 30
0.0
 11
5308.6169891009758
 21
13321.486885
 31
0.0
  0
LINE
  5
CE4B
  8
0-1
  6
CONTINUOUS
 62
     3
 10
10394.116989100959
 20
13445.48689899998
 30
0.0
 11
10394.116989100959
 21
17766.865601417241
 31
0.0
  0
LINE
  5
CE4C
  8
0-1
  6
CONTINUOUS
 62
     3
 10
10351.61573510095
 20
13445.48689899998
 30
0.0
 11
10351.61573510095
 21
17749.329261315092
 31
0.0
  0
LINE
  5
CE4D
  8
0-1
  6
CONTINUOUS
 62
     3
 10
13312.11698910097
 20
13445.48689899998
 30
0.0
 11
13312.11698910097
 21
18975.568151197731
 31
0.0
  0
LINE
  5
CE4E
  8
0-1
  6
CONTINUOUS
 62
     3
 10
13354.616263100959
 20
13445.48689899998
 30
0.0
 11
13354.616263100959
 21
18993.10367433686
 31
0.0
  0
LINE
  5
CE4F
  8
0-1
  6
CONTINUOUS
 62
     3
 10
11941.615538100959
 20
18415.37535751703
 30
0.0
 11
11941.615538100959
 21
19832.98622599999
 31
0.0
  0
LINE
  5
CE50
  8
0-1
  6
CONTINUOUS
 62
     3
 10
11904.61536610095
 20
18400.108805616481
 30
0.0
 11
11904.61536610095
 21
19832.98622599999
 31
0.0
  0
LINE
  5
CE51
  8
0-1
  6
CONTINUOUS
 62
     3
 10
11741.61586710096
 20
18332.853974713271
 30
0.0
 11
11741.61586710096
 21
19832.98622599999
 31
0.0
  0
LINE
  5
CE52
  8
0-1
  6
CONTINUOUS
 62
     3
 10
11704.614706100971
 20
18317.587014743822
 30
0.0
 11
11704.614706100971
 21
19832.98622599999
 31
0.0
  0
LINE
  5
CE53
  8
0-1
  6
CONTINUOUS
 62
     3
 10
11541.61619710097
 20
18240.332487322121
 30
0.0
 11
11541.61619710095
 21
19832.98622599999
 31
0.0
  0
LINE
  5
CE54
  8
0-1
  6
CONTINUOUS
 62
     3
 10
11504.61701610095
 20
18225.066344315681
 30
0.0
 11
11504.61701610095
 21
19832.98622599999
 31
0.0
  0
LINE
  5
CE55
  8
0-1
  6
CONTINUOUS
 62
     3
 10
11341.61553810095
 20
18157.810696862081
 30
0.0
 11
11341.61553810095
 21
19832.98622599999
 31
0.0
  0
LINE
  5
CE56
  8
0-1
  6
CONTINUOUS
 62
     3
 10
11304.615366100959
 20
18142.544144961521
 30
0.0
 11
11304.615366100959
 21
19832.98622599999
 31
0.0
  0
LINE
  5
CE57
  8
0-1
  6
CONTINUOUS
 62
     3
 10
11141.61586710096
 20
18075.289314058318
 30
0.0
 11
11141.61586710096
 21
19832.98622599999
 31
0.0
  0
LINE
  5
CE58
  8
0-1
  6
CONTINUOUS
 62
     3
 10
11104.614706100971
 20
18060.02235408884
 30
0.0
 11
11104.614706100971
 21
19832.98622599999
 31
0.0
  0
LINE
  5
CE59
  8
0-1
  6
CONTINUOUS
 62
     3
 10
10941.61619710095
 20
17992.767931667171
 30
0.0
 11
10941.61619710095
 21
19832.98622599999
 31
0.0
  0
LINE
  5
CE5A
  8
0-1
  6
CONTINUOUS
 62
     3
 10
10904.61602610097
 20
17977.50138017923
 30
0.0
 11
10904.61602610097
 21
19832.98622599999
 31
0.0
  0
LINE
  5
CE5B
  8
0-1
  6
CONTINUOUS
 62
     3
 10
10741.61553810097
 20
17910.246141207121
 30
0.0
 11
10741.61553810097
 21
19832.98622599999
 31
0.0
  0
LINE
  5
CE5C
  8
0-1
  6
CONTINUOUS
 62
     3
 10
10704.615366100959
 20
17894.979589306538
 30
0.0
 11
10704.615366100959
 21
19832.98622599999
 31
0.0
  0
LINE
  5
CE5D
  8
0-1
  6
CONTINUOUS
 62
     3
 10
12141.61619710095
 20
18497.897147977081
 30
0.0
 11
12141.61619710095
 21
19832.98622599999
 31
0.0
  0
LINE
  5
CE5E
  8
0-1
  6
CONTINUOUS
 62
     3
 10
12104.61701610096
 20
18482.631004970641
 30
0.0
 11
12104.61701610096
 21
19832.98622599999
 31
0.0
  0
LINE
  5
CE5F
  8
0-1
  6
CONTINUOUS
 62
     3
 10
13312.11698910097
 20
16795.488627999988
 30
0.0
 11
10394.116989100959
 21
16795.488627999988
 31
0.0
  0
LINE
  5
CE60
  8
0-1
  6
CONTINUOUS
 62
     3
 10
10394.116989100959
 20
16795.488627999988
 30
0.0
 11
8039.8777786113405
 21
16795.488627999988
 31
0.0
  0
LINE
  5
CE61
  8
2-0
  6
DASHED3
 62
     6
 10
8039.8777786113405
 20
16795.488627999988
 30
0.0
 11
5394.1169891009777
 21
16795.488627999988
 31
0.0
  0
LINE
  5
CE62
  8
0-1
  6
CONTINUOUS
 62
     3
 10
10464.11608945712
 20
16750.488153658851
 30
0.0
 11
13242.116263100959
 21
13481.986252000001
 31
0.0
  0
LINE
  5
CE63
  8
0-1
  6
CONTINUOUS
 62
     3
 10
13242.116263100959
 20
16750.486251999992
 30
0.0
 11
10464.11573510095
 21
13481.986252000001
 31
0.0
  0
LINE
  5
CE64
  8
0-1
  6
CONTINUOUS
 62
     3
 10
12107.714515780899
 20
18476.916081184281
 30
0.0
 11
10464.11608945712
 21
16750.488153658851
 31
0.0
  0
LINE
  5
CE65
  8
0-1
  6
CONTINUOUS
 62
     3
 10
11742.478480745191
 20
18325.699433138048
 30
0.0
 11
13242.116263100959
 21
16750.486251999992
 31
0.0
  0
LINE
  5
CE66
  8
0-1
  6
CONTINUOUS
 62
     3
 10
13379.618216100969
 20
19002.181602111261
 30
0.0
 11
13379.618216100969
 21
19873.487175999991
 31
0.0
  0
LINE
  5
CE67
  8
0-1
  6
CONTINUOUS
 62
     3
 10
13324.11746410096
 20
19855.988230999988
 30
0.0
 11
13324.11746410096
 21
19885.987834999982
 31
0.0
  0
LINE
  5
CE68
  8
0-1
  6
CONTINUOUS
 62
     3
 10
13397.616989100979
 20
19885.987834999982
 30
0.0
 11
13397.616989100979
 21
19850.985987999979
 31
0.0
  0
LINE
  5
CE69
  8
0-1
  6
CONTINUOUS
 62
     3
 10
13329.11772810099
 20
19890.98611999999
 30
0.0
 11
13392.617715100971
 21
19890.98611999999
 31
0.0
  0
LINE
  5
CE6A
  8
0-1
  6
CONTINUOUS
 62
     3
 10
13379.618216100969
 20
19873.487175999991
 30
0.0
 11
13397.616989100979
 21
19873.487175999991
 31
0.0
  0
LINE
  5
CE6B
  8
0-1
  6
CONTINUOUS
 62
     3
 10
13379.618216100969
 20
19850.985987999979
 30
0.0
 11
13329.11772810099
 21
19850.985987999979
 31
0.0
  0
LINE
  5
CE6C
  8
2-0
  6
DASHED3
 62
     6
 10
13312.11698910097
 20
19629.487755999991
 30
0.0
 11
5394.1169891009777
 21
19629.487755999991
 31
0.0
  0
LINE
  5
CE6D
  8
2-0
  6
DASHED3
 62
     6
 10
13354.616263100959
 20
18993.10367433686
 30
0.0
 11
13354.616263100959
 21
19714.488283999988
 31
0.0
  0
LINE
  5
CE6E
  8
2-0
  6
DASHED3
 62
     6
 10
13312.11698910097
 20
18975.568151197731
 30
0.0
 11
13312.11698910097
 21
19714.488283999988
 31
0.0
  0
LINE
  5
CE6F
  8
2-0
  6
DASHED3
 62
     6
 10
13354.616263100959
 20
19714.488283999988
 30
0.0
 11
5394.1169891009777
 21
19714.488283999988
 31
0.0
  0
LINE
  5
CE70
  8
2-0
  6
DASHED3
 62
     6
 10
10394.116989100979
 20
17766.865601417241
 30
0.0
 11
10394.116989100959
 21
19714.488283999988
 31
0.0
  0
LINE
  5
CE71
  8
2-0
  6
DASHED3
 62
     6
 10
10351.61573510095
 20
17749.329261315092
 30
0.0
 11
10351.61573510095
 21
19714.488283999988
 31
0.0
  0
LINE
  5
CE72
  8
2-0
  6
DASHED3
 62
     6
 10
13242.116263100959
 20
19668.486251999992
 30
0.0
 11
12107.714515780899
 21
18476.916081184281
 31
0.0
  0
LINE
  5
CE73
  8
2-0
  6
DASHED3
 62
     6
 10
10464.11573510095
 20
19668.486251999992
 30
0.0
 11
11742.478480745191
 21
18325.699433138048
 31
0.0
  0
LINE
  5
CE74
  8
2-0
  6
CENTER2
 62
     6
 10
10394.116989100959
 20
20910.988495000001
 30
0.0
 11
10394.116989100959
 21
19932.985565999981
 31
0.0
  0
LINE
  5
CE75
  8
2-0
  6
CENTER2
 62
     6
 10
14641.61709410095
 20
19668.486251999992
 30
0.0
 11
12995.11787310096
 21
19668.486251999992
 31
0.0
  0
LINE
  5
CE76
  8
0-8
  6
CONTINUOUS
 62
     6
 10
13312.11698910097
 20
20910.988495000001
 30
0.0
 11
13312.11698910097
 21
19960.987834999982
 31
0.0
  0
LINE
  5
CE77
  8
2-0
  6
CENTER2
 62
     6
 10
14641.61709410095
 20
16750.486251999992
 30
0.0
 11
5222.3175411009734
 21
16750.486251999992
 31
0.0
  0
LINE
  5
CE78
  8
2-0
  6
CENTER2
 62
     6
 10
14641.61709410095
 20
13481.986252000001
 30
0.0
 11
12995.11787310096
 21
13481.986252000001
 31
0.0
  0
ARC
  5
CE79
  8
0-1
  6
CONTINUOUS
 62
     3
 10
13329.11772810099
 20
19855.988230999988
 30
0.0
 40
5.0
 50
180.0
 51
270.00001499981897
  0
ARC
  5
CE7A
  8
0-1
  6
CONTINUOUS
 62
     3
 10
13329.11502678348
 20
19885.98895392233
 30
0.0
 40
4.99729880777691
 50
89.969028448222716
 51
180.0128288362661
  0
ARC
  5
CE7B
  8
0-1
  6
CONTINUOUS
 62
     3
 10
13392.620641577199
 20
19885.989047186122
 30
0.0
 40
4.9970736707893684
 50
359.9861012352485
 51
90.033554587670935
  0
CIRCLE
  5
CE7C
  8
0-5
  6
CONTINUOUS
 62
     4
 10
10394.116989100959
 20
21110.987175999991
 30
0.0
 40
199.9999949999999
  0
CIRCLE
  5
CE7D
  8
0-5
  6
CONTINUOUS
 62
     4
 10
13312.11698910097
 20
21110.987175999991
 30
0.0
 40
199.9999949999999
  0
CIRCLE
  5
CE7E
  8
0-5
  6
CONTINUOUS
 62
     4
 10
14841.61676510096
 20
19668.486251999992
 30
0.0
 40
199.9999949999999
  0
CIRCLE
  5
CE7F
  8
0-5
  6
CONTINUOUS
 62
     4
 10
14841.61676510096
 20
16750.486251999992
 30
0.0
 40
199.9999949999999
  0
CIRCLE
  5
CE80
  8
0-5
  6
CONTINUOUS
 62
     4
 10
14841.61676510096
 20
13481.986252000001
 30
0.0
 40
199.9999949999999
  0
TEXT
  5
CE81
  8
0-5
  6
CONTINUOUS
 62
     7
 10
10341.16752843428
 20
21021.772252999999
 30
0.0
 40
160.0
  1
2
 72
     4
 11
10394.500861767619
 21
21101.772252999999
 31
0.0
  0
TEXT
  5
CE82
  8
0-5
  6
CONTINUOUS
 62
     7
 10
13258.783655767629
 20
21030.987175999991
 30
0.0
 40
160.0
  1
3
 72
     4
 11
13312.11698910097
 21
21110.987175999991
 31
0.0
  0
TEXT
  5
CE83
  8
0-5
  6
CONTINUOUS
 62
     7
 10
14788.40996643427
 20
19588.897727999989
 30
0.0
 40
160.0
  1
C
 72
     4
 11
14841.74329976761
 21
19668.897727999989
 31
0.0
  0
TEXT
  5
CE84
  8
0-5
  6
CONTINUOUS
 62
     7
 10
14788.40996643427
 20
16670.898717999989
 30
0.0
 40
160.0
  1
B
 72
     4
 11
14841.74329976761
 21
16750.898717999989
 31
0.0
  0
TEXT
  5
CE85
  8
0-5
  6
CONTINUOUS
 62
     7
 10
14788.40996643427
 20
13402.397727999991
 30
0.0
 40
160.0
  1
A
 72
     4
 11
14841.74329976761
 21
13482.397727999991
 31
0.0
  0
LINE
  5
CE86
  8
2-0
  6
CENTER2
 62
     6
 10
5394.1169891009777
 20
20910.988495000001
 30
0.0
 11
5394.1169891009777
 21
19960.987834999982
 31
0.0
  0
CIRCLE
  5
CE87
  8
0-5
  6
CONTINUOUS
 62
     4
 10
5394.1169891009777
 20
21110.987175999991
 30
0.0
 40
199.9999949999999
  0
TEXT
  5
CE88
  8
0-5
  6
CONTINUOUS
 62
     7
 10
5367.8341951009606
 20
21021.772252999999
 30
0.0
 40
160.0
  1
1
 72
     4
 11
5394.5008617676276
 21
21101.772252999999
 31
0.0
  0
LINE
  5
CE89
  8
0-1
  6
CONTINUOUS
 62
     3
 10
5326.6167511009708
 20
15677.21377823088
 30
0.0
 11
5326.6167511009708
 21
19873.487175999991
 31
0.0
  0
LINE
  5
CE8A
  8
0-1
  6
CONTINUOUS
 62
     3
 10
5326.6167511009708
 20
19873.487175999991
 30
0.0
 11
5308.6169891009758
 21
19873.487175999991
 31
0.0
  0
LINE
  5
CE8B
  8
0-1
  6
CONTINUOUS
 62
     3
 10
5382.1175031009607
 20
19855.988230999988
 30
0.0
 11
5382.1175031009607
 21
19885.987834999982
 31
0.0
  0
LINE
  5
CE8C
  8
0-1
  6
CONTINUOUS
 62
     3
 10
5326.6167511009708
 20
19850.985987999979
 30
0.0
 11
5377.11624910096
 21
19850.985987999979
 31
0.0
  0
LINE
  5
CE8D
  8
0-1
  6
CONTINUOUS
 62
     3
 10
5308.6169891009758
 20
19885.987834999982
 30
0.0
 11
5308.6169891009758
 21
19850.985987999979
 31
0.0
  0
LINE
  5
CE8E
  8
0-1
  6
CONTINUOUS
 62
     3
 10
5377.11624910096
 20
19890.98611999999
 30
0.0
 11
5313.6182421009798
 21
19890.98611999999
 31
0.0
  0
ARC
  5
CE8F
  8
0-1
  6
CONTINUOUS
 62
     3
 10
5313.6182421009798
 20
19885.987834999982
 30
0.0
 40
5.0
 50
90.0
 51
180.0
  0
ARC
  5
CE90
  8
0-1
  6
CONTINUOUS
 62
     3
 10
5377.11624910096
 20
19885.987834999982
 30
0.0
 40
5.0
 50
0.000000000000007
 51
90.0
  0
ARC
  5
CE91
  8
0-1
  6
CONTINUOUS
 62
     3
 10
5377.11624910096
 20
19855.988230999988
 30
0.0
 40
5.0
 50
270.00001499981897
 51
0.000000000000007
  0
LINE
  5
CE92
  8
0-1
  6
CONTINUOUS
 62
     3
 10
10394.116989100959
 20
13445.48689899998
 30
0.0
 11
10394.116989100959
 21
13289.48697799999
 31
0.0
  0
LINE
  5
CE93
  8
0-1
  6
CONTINUOUS
 62
     3
 10
13661.40689143274
 20
19120.18271044255
 30
0.0
 11
9985.3185357563216
 21
17598.1922556594
 31
0.0
  0
LINE
  5
CE94
  8
0-1
  6
CONTINUOUS
 62
     3
 10
9060.9159301106829
 20
17216.776721804479
 30
0.0
 11
5071.6156041009763
 21
15570.761117499849
 31
0.0
  0
LINE
  5
CE95
  8
0-1
  6
CONTINUOUS
 62
     3
 10
5444.1166201009619
 20
13321.486885
 30
0.0
 11
5444.1166201009619
 21
15725.69568778989
 31
0.0
  0
LINE
  5
CE96
  8
0-1
  6
CONTINUOUS
 62
     3
 10
5308.6169891009758
 20
13289.48697799999
 30
0.0
 11
5308.6169891009758
 21
15669.78693976184
 31
0.0
  0
LINE
  5
CE97
  8
0-1
  6
CONTINUOUS
 62
     3
 10
5394.1169891009777
 20
13445.48689899998
 30
0.0
 11
5394.1169891009777
 21
15703.82763762592
 31
0.0
  0
LINE
  5
CE98
  8
0-1
  6
CONTINUOUS
 62
     3
 10
5351.6157351009624
 20
13445.48689899998
 30
0.0
 11
5351.6157351009624
 21
15686.29129752376
 31
0.0
  0
LINE
  5
CE99
  8
0-1
  6
CONTINUOUS
 62
     3
 10
5444.1166201009619
 20
15725.69568778989
 30
0.0
 11
5444.1166201009601
 21
19832.98622599999
 31
0.0
  0
LINE
  5
CE9A
  8
0-1
  6
CONTINUOUS
 62
     3
 10
5308.6169891009758
 20
15669.78693976184
 30
0.0
 11
5308.6169891009758
 21
19873.487175999991
 31
0.0
  0
LINE
  5
CE9B
  8
0-1
  6
CONTINUOUS
 62
     3
 10
5541.6168571009766
 20
15764.68720309355
 30
0.0
 11
5541.6168571009703
 21
19832.98622599999
 31
0.0
  0
LINE
  5
CE9C
  8
0-1
  6
CONTINUOUS
 62
     3
 10
5504.6147061009597
 20
15749.419834642569
 30
0.0
 11
5504.6147061009597
 21
19832.98622599999
 31
0.0
  0
LINE
  5
CE9D
  8
2-0
  6
DASHED3
 62
     6
 10
5394.1169891009777
 20
15703.82763762592
 30
0.0
 11
5394.1169891009777
 21
19832.98622599999
 31
0.0
  0
LINE
  5
CE9E
  8
2-0
  6
DASHED3
 62
     6
 10
5351.6157351009624
 20
15686.29129752376
 30
0.0
 11
5351.6157351009597
 21
19832.98622599999
 31
0.0
  0
LINE
  5
CE9F
  8
0-1
  6
CONTINUOUS
 62
     3
 10
10541.614878100951
 20
17827.724350334451
 30
0.0
 11
10541.614878100951
 21
19832.98622599999
 31
0.0
  0
LINE
  5
CEA0
  8
0-1
  6
CONTINUOUS
 62
     3
 10
10504.614706100951
 20
17812.45779843389
 30
0.0
 11
10504.614706100951
 21
19832.98622599999
 31
0.0
  0
LINE
  5
CEA1
  8
0-1
  6
CONTINUOUS
 62
     3
 10
10341.614218100951
 20
17745.202559461781
 30
0.0
 11
10341.614218100951
 21
19832.98622599999
 31
0.0
  0
LINE
  5
CEA2
  8
0-1
  6
CONTINUOUS
 62
     3
 10
10304.61404610094
 20
17729.936007561209
 30
0.0
 11
10304.61404610094
 21
19832.98622599999
 31
0.0
  0
LINE
  5
CEA3
  8
0-1
  6
CONTINUOUS
 62
     3
 10
10141.61355810092
 20
17662.6807685891
 30
0.0
 11
10141.61355810092
 21
19832.98622599999
 31
0.0
  0
LINE
  5
CEA4
  8
0-1
  6
CONTINUOUS
 62
     3
 10
10104.61338610092
 20
17647.41421668855
 30
0.0
 11
10104.61338610092
 21
19832.98622599999
 31
0.0
  0
LINE
  5
CEA5
  8
0-1
  6
CONTINUOUS
 62
     3
 10
9941.6128981009333
 20
17704.117688013212
 30
0.0
 11
9941.6128981009333
 21
19832.98622599999
 31
0.0
  0
LINE
  5
CEA6
  8
0-1
  6
CONTINUOUS
 62
     3
 10
9904.6127261009242
 20
17793.791684927972
 30
0.0
 11
9904.6127261009242
 21
19832.98622599999
 31
0.0
  0
LINE
  5
CEA7
  8
0-1
  6
CONTINUOUS
 62
     3
 10
9741.6122381009227
 20
17658.71409394763
 30
0.0
 11
9741.6122381009227
 21
19832.986225999961
 31
0.0
  0
LINE
  5
CEA8
  8
0-1
  6
CONTINUOUS
 62
     3
 10
9704.6120661009136
 20
17616.17085355876
 30
0.0
 11
9704.6120661009136
 21
19832.98622599999
 31
0.0
  0
LINE
  5
CEA9
  8
0-1
  6
CONTINUOUS
 62
     3
 10
9541.6115781009084
 20
17428.750942524639
 30
0.0
 11
9541.6115781009139
 21
19832.986225999961
 31
0.0
  0
LINE
  5
CEAA
  8
0-1
  6
CONTINUOUS
 62
     3
 10
9504.6114061008993
 20
17386.207702135762
 30
0.0
 11
9504.6114061008993
 21
19832.98622599999
 31
0.0
  0
LINE
  5
CEAB
  8
0-1
  6
CONTINUOUS
 62
     3
 10
9341.6109181009033
 20
17198.787791101659
 30
0.0
 11
9341.6109181009033
 21
19832.986225999961
 31
0.0
  0
LINE
  5
CEAC
  8
0-1
  6
CONTINUOUS
 62
     3
 10
9304.610746100896
 20
17156.244550712781
 30
0.0
 11
9304.610746100896
 21
19832.98622599999
 31
0.0
  0
LINE
  5
CEAD
  8
0-1
  6
CONTINUOUS
 62
     3
 10
9141.6102581008872
 20
17021.195778491841
 30
0.0
 11
9141.6102581008872
 21
19832.986225999961
 31
0.0
  0
LINE
  5
CEAE
  8
0-1
  6
CONTINUOUS
 62
     3
 10
9104.6100861008817
 20
17110.874058523721
 30
0.0
 11
9104.6100861008817
 21
19832.98622599999
 31
0.0
  0
LINE
  5
CEAF
  8
0-1
  6
CONTINUOUS
 62
     3
 10
8941.6095981008875
 20
17167.550023353091
 30
0.0
 11
8941.6095981008875
 21
19832.986225999961
 31
0.0
  0
LINE
  5
CEB0
  8
0-1
  6
CONTINUOUS
 62
     3
 10
8904.6094261008766
 20
17152.283471452531
 30
0.0
 11
8904.6094261008766
 21
19832.98622599999
 31
0.0
  0
LINE
  5
CEB1
  8
0-1
  6
CONTINUOUS
 62
     3
 10
8741.6089381008715
 20
17085.028232480421
 30
0.0
 11
8741.6089381008787
 21
19832.986225999961
 31
0.0
  0
LINE
  5
CEB2
  8
0-1
  6
CONTINUOUS
 62
     3
 10
8704.6087661008642
 20
17069.76168057985
 30
0.0
 11
8704.6087661008642
 21
19832.98622599999
 31
0.0
  0
LINE
  5
CEB3
  8
0-1
  6
CONTINUOUS
 62
     3
 10
8541.6082781008663
 20
17002.50644160774
 30
0.0
 11
8541.6082781008663
 21
19832.986225999961
 31
0.0
  0
LINE
  5
CEB4
  8
0-1
  6
CONTINUOUS
 62
     3
 10
8504.6081061008572
 20
16987.239889707191
 30
0.0
 11
8504.6081061008572
 21
19832.98622599999
 31
0.0
  0
LINE
  5
CEB5
  8
0-1
  6
CONTINUOUS
 62
     3
 10
8341.6076181008539
 20
16919.984650735081
 30
0.0
 11
8341.6076181008539
 21
19832.986225999961
 31
0.0
  0
LINE
  5
CEB6
  8
0-1
  6
CONTINUOUS
 62
     3
 10
8304.6074461008466
 20
16904.71809883451
 30
0.0
 11
8304.6074461008538
 21
19832.98622599999
 31
0.0
  0
LINE
  5
CEB7
  8
0-1
  6
CONTINUOUS
 62
     3
 10
8141.6069581008487
 20
16837.462859862411
 30
0.0
 11
8141.6069581008487
 21
19832.986225999961
 31
0.0
  0
LINE
  5
CEB8
  8
0-1
  6
CONTINUOUS
 62
     3
 10
8104.6067861008432
 20
16822.196307961851
 30
0.0
 11
8104.6067861008341
 21
19832.98622599999
 31
0.0
  0
LINE
  5
CEB9
  8
0-1
  6
CONTINUOUS
 62
     3
 10
7941.6062981008354
 20
16754.941068989741
 30
0.0
 11
7941.6062981008417
 21
19832.986225999961
 31
0.0
  0
LINE
  5
CEBA
  8
0-1
  6
CONTINUOUS
 62
     3
 10
7904.606126100829
 20
16739.67451708917
 30
0.0
 11
7904.606126100829
 21
19832.98622599999
 31
0.0
  0
LINE
  5
CEBB
  8
0-1
  6
CONTINUOUS
 62
     3
 10
7741.6056381008348
 20
16672.419278117071
 30
0.0
 11
7741.6056381008257
 21
19832.986225999961
 31
0.0
  0
LINE
  5
CEBC
  8
0-1
  6
CONTINUOUS
 62
     3
 10
7704.6054661008211
 20
16657.152726216511
 30
0.0
 11
7704.6054661008211
 21
19832.98622599999
 31
0.0
  0
LINE
  5
CEBD
  8
0-1
  6
CONTINUOUS
 62
     3
 10
7541.6049781008178
 20
16589.897487244391
 30
0.0
 11
7541.6049781008178
 21
19832.986225999961
 31
0.0
  0
LINE
  5
CEBE
  8
0-1
  6
CONTINUOUS
 62
     3
 10
7504.6048061008187
 20
16574.630935343819
 30
0.0
 11
7504.6048061008187
 21
19832.98622599999
 31
0.0
  0
LINE
  5
CEBF
  8
0-1
  6
CONTINUOUS
 62
     3
 10
7341.6043181008126
 20
16507.375696371731
 30
0.0
 11
7341.6043181008126
 21
19832.986225999961
 31
0.0
  0
LINE
  5
CEC0
  8
0-1
  6
CONTINUOUS
 62
     3
 10
7304.6041461008062
 20
16492.109144471171
 30
0.0
 11
7304.6041461008062
 21
19832.98622599999
 31
0.0
  0
LINE
  5
CEC1
  8
0-1
  6
CONTINUOUS
 62
     3
 10
7141.6036581008102
 20
16424.853905499062
 30
0.0
 11
7141.6036581008102
 21
19832.986225999961
 31
0.0
  0
LINE
  5
CEC2
  8
0-1
  6
CONTINUOUS
 62
     3
 10
7104.6034861007938
 20
16409.58735359849
 30
0.0
 11
7104.6034861007938
 21
19832.98622599999
 31
0.0
  0
LINE
  5
CEC3
  8
0-1
  6
CONTINUOUS
 62
     3
 10
6941.6029981007969
 20
16342.33211462639
 30
0.0
 11
6941.6029981007969
 21
19832.986225999961
 31
0.0
  0
LINE
  5
CEC4
  8
0-1
  6
CONTINUOUS
 62
     3
 10
6904.6028261007887
 20
16327.06556272582
 30
0.0
 11
6904.6028261007887
 21
19832.98622599999
 31
0.0
  0
LINE
  5
CEC5
  8
0-1
  6
CONTINUOUS
 62
     3
 10
6741.6023381007826
 20
16259.810323753711
 30
0.0
 11
6741.6023381007826
 21
19832.98622599999
 31
0.0
  0
LINE
  5
CEC6
  8
0-1
  6
CONTINUOUS
 62
     3
 10
6704.6021661007844
 20
16244.54377185315
 30
0.0
 11
6704.6021661007826
 21
19832.98622599999
 31
0.0
  0
LINE
  5
CEC7
  8
0-1
  6
CONTINUOUS
 62
     3
 10
6541.6016781007793
 20
16177.28853288105
 30
0.0
 11
6541.6016781007766
 21
19832.98622599999
 31
0.0
  0
LINE
  5
CEC8
  8
0-1
  6
CONTINUOUS
 62
     3
 10
6504.6015061007711
 20
16162.02198098048
 30
0.0
 11
6504.6015061007711
 21
19832.98622599999
 31
0.0
  0
LINE
  5
CEC9
  8
0-1
  6
CONTINUOUS
 62
     3
 10
6341.6010181007741
 20
16094.76674200838
 30
0.0
 11
6341.6010181007732
 21
19832.98622599999
 31
0.0
  0
LINE
  5
CECA
  8
0-1
  6
CONTINUOUS
 62
     3
 10
6304.6008461007577
 20
16079.50019010781
 30
0.0
 11
6304.600846100765
 21
19832.98622599999
 31
0.0
  0
LINE
  5
CECB
  8
0-1
  6
CONTINUOUS
 62
     3
 10
6141.6003581007599
 20
16012.244951135701
 30
0.0
 11
6141.6003581007599
 21
19832.986225999961
 31
0.0
  0
LINE
  5
CECC
  8
0-1
  6
CONTINUOUS
 62
     3
 10
6104.6001861007526
 20
15996.978399235149
 30
0.0
 11
6104.6001861007526
 21
19832.98622599999
 31
0.0
  0
LINE
  5
CECD
  8
0-1
  6
CONTINUOUS
 62
     3
 10
5941.5996981007493
 20
15929.72316026304
 30
0.0
 11
5941.5996981007474
 21
19832.986225999961
 31
0.0
  0
LINE
  5
CECE
  8
0-1
  6
CONTINUOUS
 62
     3
 10
5904.5995261007483
 20
15914.45660836246
 30
0.0
 11
5904.5995261007483
 21
19832.98622599999
 31
0.0
  0
LINE
  5
CECF
  8
0-1
  6
CONTINUOUS
 62
     3
 10
5741.5990381007432
 20
15847.201369390359
 30
0.0
 11
5741.5990381007423
 21
19832.986225999961
 31
0.0
  0
LINE
  5
CED0
  8
0-1
  6
CONTINUOUS
 62
     3
 10
5704.5988661007341
 20
15831.9348174898
 30
0.0
 11
5704.5988661007341
 21
19832.98622599999
 31
0.0
  0
LINE
  5
CED1
  8
0-1
  6
CONTINUOUS
 62
     3
 10
10334.61662010096
 20
13481.986252000001
 30
0.0
 11
8085.6166201009619
 21
16750.486251999992
 31
0.0
  0
LINE
  5
CED2
  8
2-0
  6
DASHED3
 62
     6
 10
6181.3132488136034
 20
16028.63079137424
 30
0.0
 11
5684.6166201009619
 21
16750.486251999992
 31
0.0
  0
LINE
  5
CED3
  8
0-1
  6
CONTINUOUS
 62
     3
 10
8085.6166201009619
 20
13481.986252000001
 30
0.0
 11
10334.61662010096
 21
16750.486251999992
 31
0.0
  0
LINE
  5
CED4
  8
2-0
  6
DASHED3
 62
     6
 10
10334.61662010096
 20
19668.486251999992
 30
0.0
 11
8158.1674338076991
 21
16844.29583787877
 31
0.0
  0
LINE
  5
CED5
  8
2-0
  6
DASHED3
 62
     6
 10
8085.6166201009619
 20
19668.486251999992
 30
0.0
 11
9683.7032531441946
 21
17592.129650294501
 31
0.0
  0
LINE
  5
CED6
  8
0-1
  6
CONTINUOUS
 62
     3
 10
9683.7032531441946
 20
17592.129650294501
 30
0.0
 11
10334.61662010096
 21
16750.486251999992
 31
0.0
  0
LINE
  5
CED7
  8
0-1
  6
CONTINUOUS
 62
     3
 10
9985.3190735161024
 20
17598.190952339261
 30
0.0
 11
9889.9650531925763
 21
17829.291935445479
 31
0.0
  0
LINE
  5
CED8
  8
0-1
  6
CONTINUOUS
 62
     3
 10
9156.2655210093562
 20
16985.675436287849
 30
0.0
 11
9060.9148713318446
 21
17216.77928799433
 31
0.0
  0
LINE
  5
CED9
  8
0-1
  6
CONTINUOUS
 62
     3
 10
9156.2655210093562
 20
16985.675436287849
 30
0.0
 11
9889.9650531925763
 21
17829.291935445479
 31
0.0
  0
LINE
  5
CEDA
  8
0-1
  6
CONTINUOUS
 62
     3
 10
8085.6166201009619
 20
16750.486251999992
 30
0.0
 11
8158.1674338076991
 21
16844.29583787877
 31
0.0
  0
LINE
  5
CEDB
  8
2-0
  6
DASHED3
 62
     6
 10
7933.6166201009628
 20
19668.486251999992
 30
0.0
 11
5684.6166201009619
 21
16750.486251999992
 31
0.0
  0
LINE
  5
CEDC
  8
2-0
  6
DASHED3
 62
     6
 10
5684.6166201009619
 20
19668.486251999992
 30
0.0
 11
7933.6166201009628
 21
16750.486251999992
 31
0.0
  0
LINE
  5
CEDD
  8
0-1
  6
CONTINUOUS
 62
     3
 10
7933.6166201009628
 20
13481.986252000001
 30
0.0
 11
6181.3132488136034
 21
16028.63079137424
 31
0.0
  0
LINE
  5
CEDE
  8
0-1
  6
CONTINUOUS
 62
     3
 10
5684.6166201009619
 20
13481.986252000001
 30
0.0
 11
7933.6166201009628
 21
16750.486251999992
 31
0.0
  0
LINE
  5
CEDF
  8
SUNPOU
  6
CONTINUOUS
 10
14241.61676510096
 20
19890.984140500001
 30
0.0
 11
14241.61676510096
 21
20687.951408278459
 31
0.0
  0
LINE
  5
CEE0
  8
SUNPOU
  6
CONTINUOUS
 10
14241.61676510096
 20
12548.17438784781
 30
0.0
 11
14241.61676510096
 21
13289.48697799999
 31
0.0
  0
LINE
  5
CEE1
  8
0-1
  6
CONTINUOUS
 62
     3
 10
12541.61553810095
 20
18656.561712735031
 30
0.0
 11
12541.61553810095
 21
19832.986225999961
 31
0.0
  0
LINE
  5
CEE2
  8
0-1
  6
CONTINUOUS
 62
     3
 10
12504.61536610095
 20
18641.242736921391
 30
0.0
 11
12504.61536610095
 21
19832.986225999961
 31
0.0
  0
LINE
  5
CEE3
  8
0-1
  6
CONTINUOUS
 62
     3
 10
12341.615867100951
 20
18573.756959211689
 30
0.0
 11
12341.615867100951
 21
19832.986225999961
 31
0.0
  0
LINE
  5
CEE4
  8
0-1
  6
CONTINUOUS
 62
     3
 10
12304.61470610096
 20
18558.43757392788
 30
0.0
 11
12304.61470610096
 21
19832.986225999961
 31
0.0
  0
LINE
  5
CEE5
  8
0-1
  6
CONTINUOUS
 62
     3
 10
12741.616197100941
 20
18739.36687531451
 30
0.0
 11
12741.61619710095
 21
19832.986225999961
 31
0.0
  0
LINE
  5
CEE6
  8
0-1
  6
CONTINUOUS
 62
     3
 10
12704.61701610095
 20
18724.04830979912
 30
0.0
 11
12704.61701610095
 21
19832.986225999961
 31
0.0
  0
LINE
  5
CEE7
  8
0-1
  6
CONTINUOUS
 62
     3
 10
5385.1165141009687
 20
19880.989550999981
 30
0.0
 11
13321.11746410096
 21
19880.989550999991
 31
0.0
  0
LINE
  5
CEE8
  8
0-1
  6
CONTINUOUS
 62
     3
 10
5329.6167511009708
 20
19832.98622599999
 30
0.0
 11
13376.61821610096
 21
19832.98622599999
 31
0.0
  0
LINE
  5
CEE9
  8
0-6
  6
CONTINUOUS
 62
     6
 10
9283.0434574719475
 20
20023.392158999992
 30
0.0
 11
9239.7414884719237
 21
19998.390838999981
 31
0.0
  0
LINE
  5
CEEA
  8
0-6
  6
CONTINUOUS
 62
     6
 10
9283.0434574719475
 20
20023.392158999992
 30
0.0
 11
9336.391483471949
 21
19880.989550999981
 31
0.0
  0
LINE
  5
CEEB
  8
0-6
  6
CONTINUOUS
 62
     6
 10
9239.7414884719237
 20
19998.390838999981
 30
0.0
 11
9283.0434574719475
 21
20023.392158999992
 31
0.0
  0
LINE
  5
CEEC
  8
0-6
  6
CONTINUOUS
 62
     6
 10
9336.391483471949
 20
19880.989550999981
 30
0.0
 11
9239.7414884719237
 21
19998.390838999981
 31
0.0
  0
LINE
  5
CEED
  8
0-6
  6
CONTINUOUS
 62
     6
 10
9336.391483471949
 20
19880.989550999981
 30
0.0
 11
9283.0434574719475
 21
20023.392158999992
 31
0.0
  0
LINE
  5
CEEE
  8
0-6
  6
CONTINUOUS
 62
     6
 10
9239.7414884719237
 20
19998.390838999981
 30
0.0
 11
9336.391483471949
 21
19880.989550999981
 31
0.0
  0
LINE
  5
CEEF
  8
0-6
  6
CONTINUOUS
 62
     6
 10
9261.3934624719477
 20
20010.893478999991
 30
0.0
 11
9035.8076458022551
 21
20434.5633187311
 31
0.0
  0
TEXT
  5
CEF0
  8
0-6
  6
CONTINUOUS
 62
     7
 10
8862.1364424719504
 20
20990.988758999982
 30
0.0
 40
160.0
  1
鼻隠し後
 72
     4
 11
9224.8031091386165
 21
21070.988758999982
 31
0.0
  0
LINE
  5
CEF1
  8
0-6
  6
CONTINUOUS
 62
     6
 10
8782.1341984719493
 20
20910.988494999991
 30
0.0
 11
9624.573757471946
 21
20910.988494999991
 31
0.0
  0
LINE
  5
CEF2
  8
0-6
  6
CONTINUOUS
 62
     6
 10
8967.7737867497362
 20
20562.3379976834
 30
0.0
 11
8782.1341984719493
 21
20910.988494999991
 31
0.0
  0
LINE
  5
CEF3
  8
0-6
  6
CONTINUOUS
 62
     6
 10
12652.63327665185
 20
19693.987743000002
 30
0.0
 11
12545.938214651829
 21
19816.163629999981
 31
0.0
  0
LINE
  5
CEF4
  8
0-6
  6
CONTINUOUS
 62
     6
 10
12591.32758665184
 20
19844.163919999992
 30
0.0
 11
12652.63327665185
 21
19693.987743000002
 31
0.0
  0
LINE
  5
CEF5
  8
0-6
  6
CONTINUOUS
 62
     6
 10
12591.32758665184
 20
19844.163919999992
 30
0.0
 11
12545.938214651829
 21
19816.163629999981
 31
0.0
  0
LINE
  5
CEF6
  8
0-6
  6
CONTINUOUS
 62
     6
 10
12652.63327665185
 20
19693.987743000002
 30
0.0
 11
12358.705449651839
 21
20100.485842999991
 31
0.0
  0
LINE
  5
CEF7
  8
0-6
  6
CONTINUOUS
 62
     6
 10
11558.703800651831
 20
20100.485842999991
 30
0.0
 11
12358.705449651839
 21
20100.485842999991
 31
0.0
  0
TEXT
  5
CEF8
  8
0-6
  6
CONTINUOUS
 62
     7
 10
11638.70505465186
 20
20180.486106999979
 30
0.0
 40
160.0
  1
桁（後）
 72
     4
 11
11958.70505465186
 21
20260.486106999979
 31
0.0
  0
LINE
  5
CEF9
  8
0-6
  6
CONTINUOUS
 62
     6
 10
1568.4499786769611
 20
13369.21680413891
 30
0.0
 11
4209.694445585731
 21
13369.21680413891
 31
0.0
  0
TEXT
  5
CEFA
  8
0-6
  6
CONTINUOUS
 62
     7
 10
1640.0483470269701
 20
13449.217068138911
 30
0.0
 40
160.0
  1
桁前（PU）+ 桁補強（PU）
 72
     4
 11
2888.0483470269701
 21
13529.217068138911
 31
0.0
  0
LINE
  5
CEFB
  8
0-6
  6
CONTINUOUS
 62
     6
 10
4209.694445585731
 20
13369.21680413891
 30
0.0
 11
5655.0658762078074
 21
12943.2869147776
 31
0.0
  0
LINE
  5
CEFC
  8
0-6
  6
CONTINUOUS
 62
     6
 10
5655.0658762078074
 20
12943.2869147776
 30
0.0
 11
6032.0083397033513
 21
13445.48689899994
 31
0.0
  0
LINE
  5
CEFD
  8
0-6
  6
CONTINUOUS
 62
     6
 10
1759.7976668322319
 20
16674.216157138912
 30
0.0
 11
4240.108970273528
 21
16674.216157138912
 31
0.0
  0
TEXT
  5
CEFE
  8
0-6
  6
CONTINUOUS
 62
     7
 10
1852.3078808179209
 20
16754.21642113891
 30
0.0
 40
160.0
  1
桁（PU）+ 桁補強（PU）
 72
     4
 11
3004.3078808179212
 21
16834.21642113891
 31
0.0
  0
LINE
  5
CEFF
  8
0-6
  6
CONTINUOUS
 62
     6
 10
4240.1089702735298
 20
16674.216157138912
 30
0.0
 11
5685.4804008956071
 21
16248.28626777761
 31
0.0
  0
LINE
  5
CF00
  8
0-6
  6
CONTINUOUS
 62
     6
 10
5685.4804008956071
 20
16248.28626777761
 30
0.0
 11
6062.4228643911474
 21
16750.486251999941
 31
0.0
  0
LINE
  5
CF01
  8
0-6
  6
CONTINUOUS
 62
     6
 10
1759.7976668322319
 20
19553.217661138911
 30
0.0
 11
4240.108970273528
 21
19553.217661138911
 31
0.0
  0
TEXT
  5
CF02
  8
0-6
  6
CONTINUOUS
 62
     7
 10
1852.3078808179209
 20
19633.217925138899
 30
0.0
 40
160.0
  1
桁（PU）+ 桁補強（PU）
 72
     4
 11
3004.3078808179212
 21
19713.217925138899
 31
0.0
  0
LINE
  5
CF03
  8
0-6
  6
CONTINUOUS
 62
     6
 10
4240.1089702735298
 20
19553.217661138911
 30
0.0
 11
5685.4804008956071
 21
19127.287771777599
 31
0.0
  0
LINE
  5
CF04
  8
0-6
  6
CONTINUOUS
 62
     6
 10
5685.4804008956071
 20
19127.287771777599
 30
0.0
 11
6062.4228643911474
 21
19629.48775599994
 31
0.0
  0
LINE
  5
CF05
  8
0-1
  6
CONTINUOUS
 62
     3
 10
12941.615868100929
 20
18822.171628837841
 30
0.0
 11
12941.615868100929
 21
19832.986225999961
 31
0.0
  0
LINE
  5
CF06
  8
0-1
  6
CONTINUOUS
 62
     3
 10
12904.61569610094
 20
18806.852653024209
 30
0.0
 11
12904.61569610094
 21
19832.986225999961
 31
0.0
  0
LINE
  5
CF07
  8
0-1
  6
CONTINUOUS
 62
     3
 10
13141.616527100939
 20
18904.976791417321
 30
0.0
 11
13141.616527100939
 21
19832.986225999961
 31
0.0
  0
LINE
  5
CF08
  8
0-1
  6
CONTINUOUS
 62
     3
 10
13104.61734610094
 20
18889.658225901941
 30
0.0
 11
13104.61734610094
 21
19832.986225999961
 31
0.0
  0
LINE
  5
CF0B
  8
WAKUSEN-01
 10
868.00000000000193
 20
22484.000000000011
 30
0.0
 11
32764.000000000011
 21
22484.000000000011
 31
0.0
  0
LINE
  5
CF0E
  8
WAKUSEN-01
 10
20560.0
 20
2484.0
 30
0.0
 11
32764.0
 21
2484.0
 31
0.0
  0
LINE
  5
CF0F
  8
WAKUSEN-02
 10
20560.0
 20
1655.9999999999991
 30
0.0
 11
26868.0
 21
1655.9999999999991
 31
0.0
  0
TEXT
  5
CF10
  8
WAKUMOJI-01
 10
20670.260259962761
 20
2125.9030093393221
 30
0.0
 40
240.0
  1
名　称
  7
WAKUMOJI
  0
TEXT
  5
CF11
  8
WAKUMOJI-01
 10
20656.505485091919
 20
1319.12897497982
 30
0.0
 40
240.0
  1
機種名
  7
WAKUMOJI
  0
LINE
  5
CF14
  8
YODOROGO
 10
29977.604341291921
 20
1995.7494964292871
 30
0.0
 11
29829.604341291921
 21
1995.7494964292871
 31
0.0
1001
AUTOCAD_POSTSCRIPT_FIGURE
1002
{
1000
PSFILL
1000
Grayscale
1000
Grayscale
1070
    25
1002
}
  0
LINE
  5
CF15
  8
YODOROGO
 10
29829.604341291921
 20
1947.749496429288
 30
0.0
 11
29977.604341291921
 21
1947.749496429288
 31
0.0
1001
AUTOCAD_POSTSCRIPT_FIGURE
1002
{
1000
PSFILL
1000
Grayscale
1000
Grayscale
1070
    25
1002
}
  0
LINE
  5
CF16
  8
YODOROGO
 10
29977.604341291921
 20
1907.7494964292871
 30
0.0
 11
29829.604341291921
 21
1907.7494964292871
 31
0.0
1001
AUTOCAD_POSTSCRIPT_FIGURE
1002
{
1000
PSFILL
1000
Grayscale
1000
Grayscale
1070
    25
1002
}
  0
LINE
  5
CF17
  8
YODOROGO
 10
29829.604341291921
 20
1859.749496429288
 30
0.0
 11
29977.604341291921
 21
1859.749496429288
 31
0.0
1001
AUTOCAD_POSTSCRIPT_FIGURE
1002
{
1000
PSFILL
1000
Grayscale
1000
Grayscale
1070
    25
1002
}
  0
LINE
  5
CF18
  8
YODOROGO
 10
29977.604341291921
 20
1819.7494964292871
 30
0.0
 11
29829.604341291921
 21
1819.7494964292871
 31
0.0
1001
AUTOCAD_POSTSCRIPT_FIGURE
1002
{
1000
PSFILL
1000
Grayscale
1000
Grayscale
1070
    25
1002
}
  0
LINE
  5
CF19
  8
YODOROGO
 10
29921.60434129191
 20
1707.749496429288
 30
0.0
 11
29977.604341291921
 21
1707.749496429288
 31
0.0
1001
AUTOCAD_POSTSCRIPT_FIGURE
1002
{
1000
PSFILL
1000
Grayscale
1000
Grayscale
1070
    25
1002
}
  0
LINE
  5
CF1A
  8
YODOROGO
 10
29737.604341291921
 20
1427.749496429288
 30
0.0
 11
29937.604341291932
 21
1481.3393349155101
 31
0.0
  0
LINE
  5
CF1B
  8
YODOROGO
 10
29949.60434129191
 20
1707.749496429288
 30
0.0
 11
29885.604341291921
 21
1707.749496429288
 31
0.0
  0
ARC
  5
CF1C
  8
YODOROGO
 10
30254.34774982791
 20
1807.864609233261
 30
0.0
 40
381.88686420564721
 50
213.96111677667841
 51
264.47872074317792
  0
ARC
  5
CF1D
  8
YODOROGO
 10
30254.347749827921
 20
1807.864609233302
 30
0.0
 40
381.8868642056816
 50
208.14114420486601
 51
212.9210361185994
  0
LINE
  5
CF1E
  8
YODOROGO
 10
29771.409872985321
 20
1556.807661346234
 30
0.0
 11
29933.78413250855
 21
1600.3157130570869
 31
0.0
  0
LINE
  5
CF1F
  8
YODOROGO
 10
29737.604341291921
 20
1427.749496429288
 30
0.0
 11
29937.604341291932
 21
1481.3393349155101
 31
0.0
  0
LINE
  5
CF20
  8
YODOROGO
 10
29949.60434129191
 20
1707.749496429288
 30
0.0
 11
29885.604341291921
 21
1707.749496429288
 31
0.0
  0
ARC
  5
CF21
  8
YODOROGO
 10
30254.34774982791
 20
1807.864609233261
 30
0.0
 40
381.88686420564721
 50
213.96111677667841
 51
264.47872074317792
  0
LINE
  5
CF22
  8
YODOROGO
 10
28793.60434129191
 20
1819.7494964292871
 30
0.0
 11
28433.60434129191
 21
1819.7494964292871
 31
0.0
  0
LINE
  5
CF23
  8
YODOROGO
 10
28513.60434129191
 20
1427.749496429288
 30
0.0
 11
28793.60434129191
 21
1427.749496429288
 31
0.0
  0
LINE
  5
CF24
  8
YODOROGO
 10
28729.604341291921
 20
1923.7494964292871
 30
0.0
 11
28497.60434129191
 21
1923.7494964292871
 31
0.0
  0
LINE
  5
CF25
  8
YODOROGO
 10
28585.604341291921
 20
2027.749496429288
 30
0.0
 11
28657.604341291921
 21
2027.749496429288
 31
0.0
  0
LINE
  5
CF26
  8
YODOROGO
 10
28433.60434129191
 20
1707.749496429288
 30
0.0
 11
28433.60434129191
 21
1507.749496429288
 31
0.0
  0
LINE
  5
CF27
  8
YODOROGO
 10
28497.60434129191
 20
1563.7494964292871
 30
0.0
 11
28497.60434129191
 21
1707.749496429288
 31
0.0
  0
LINE
  5
CF28
  8
YODOROGO
 10
28585.604341291921
 20
1747.74949642929
 30
0.0
 11
28585.604341291921
 21
1547.749496429288
 31
0.0
  0
LINE
  5
CF29
  8
YODOROGO
 10
27857.604341291921
 20
1683.749496429288
 30
0.0
 11
27777.604341291921
 21
1619.9724140445701
 31
0.0
  0
LINE
  5
CF2A
  8
YODOROGO
 10
27937.604341291921
 20
1619.9724140445701
 30
0.0
 11
27857.604341291921
 21
1683.749496429288
 31
0.0
  0
LINE
  5
CF2B
  8
YODOROGO
 10
27857.604341291921
 20
1707.749496429288
 30
0.0
 11
27937.604341291921
 21
1643.9724140445701
 31
0.0
  0
LINE
  5
CF2C
  8
YODOROGO
 10
27777.604341291921
 20
1643.9724140445701
 30
0.0
 11
27857.604341291921
 21
1707.749496429288
 31
0.0
  0
LINE
  5
CF2D
  8
YODOROGO
 10
28040.913204016892
 20
1659.749496429288
 30
0.0
 11
28040.913204016892
 21
1683.7494964292871
 31
0.0
  0
LINE
  5
CF2E
  8
YODOROGO
 10
27977.604341291921
 20
1683.7494964292871
 30
0.0
 11
27977.604341291921
 21
1667.749496429285
 31
0.0
  0
LINE
  5
CF2F
  8
YODOROGO
 10
28098.135520230931
 20
1707.749496429288
 30
0.0
 11
28098.135520230931
 21
1655.5036372746561
 31
0.0
1001
AUTOCAD_POSTSCRIPT_FIGURE
1002
{
1000
PSFILL
1000
Grayscale
1000
Grayscale
1070
   100
1002
}
  0
LINE
  5
CF30
  8
YODOROGO
 10
28082.135520230921
 20
1655.5036372746561
 30
0.0
 11
28082.135520230921
 21
1707.749496429288
 31
0.0
1001
AUTOCAD_POSTSCRIPT_FIGURE
1002
{
1000
PSFILL
1000
Grayscale
1000
Grayscale
1070
   100
1002
}
  0
LINE
  5
CF31
  8
YODOROGO
 10
27809.604341291921
 20
1608.771904043258
 30
0.0
 11
27809.604341291921
 21
1632.771904043258
 31
0.0
  0
LINE
  5
CF32
  8
YODOROGO
 10
27905.604341291921
 20
1608.771904043258
 30
0.0
 11
27809.604341291921
 21
1608.771904043258
 31
0.0
  0
LINE
  5
CF33
  8
YODOROGO
 10
27905.604341291921
 20
1632.771904043258
 30
0.0
 11
27905.604341291921
 21
1608.771904043258
 31
0.0
  0
LINE
  5
CF34
  8
YODOROGO
 10
27809.604341291921
 20
1632.771904043258
 30
0.0
 11
27905.604341291921
 21
1632.771904043258
 31
0.0
  0
LINE
  5
CF35
  8
YODOROGO
 10
27824.509588915738
 20
1568.5028573704751
 30
0.0
 11
27785.604341291921
 21
1475.7494964292871
 31
0.0
1001
AUTOCAD_POSTSCRIPT_FIGURE
1002
{
1000
PSFILL
1000
Grayscale
1000
Grayscale
1070
   100
1002
}
  0
LINE
  5
CF36
  8
YODOROGO
 10
27777.604341291921
 20
1568.5028573704751
 30
0.0
 11
27824.509588915738
 21
1568.5028573704751
 31
0.0
1001
AUTOCAD_POSTSCRIPT_FIGURE
1002
{
1000
PSFILL
1000
Grayscale
1000
Grayscale
1070
   100
1002
}
  0
LINE
  5
CF37
  8
YODOROGO
 10
27777.604341291921
 20
1588.5028573704751
 30
0.0
 11
27777.604341291921
 21
1568.5028573704751
 31
0.0
1001
AUTOCAD_POSTSCRIPT_FIGURE
1002
{
1000
PSFILL
1000
Grayscale
1000
Grayscale
1070
   100
1002
}
  0
LINE
  5
CF38
  8
YODOROGO
 10
27937.604341291921
 20
1588.5028573704751
 30
0.0
 11
27777.604341291921
 21
1588.5028573704751
 31
0.0
1001
AUTOCAD_POSTSCRIPT_FIGURE
1002
{
1000
PSFILL
1000
Grayscale
1000
Grayscale
1070
   100
1002
}
  0
LINE
  5
CF39
  8
YODOROGO
 10
27937.604341291921
 20
1568.5028573704751
 30
0.0
 11
27937.604341291921
 21
1588.5028573704751
 31
0.0
1001
AUTOCAD_POSTSCRIPT_FIGURE
1002
{
1000
PSFILL
1000
Grayscale
1000
Grayscale
1070
   100
1002
}
  0
LINE
  5
CF3A
  8
YODOROGO
 10
27844.509588915738
 20
1568.5028573704751
 30
0.0
 11
27937.604341291921
 21
1568.5028573704751
 31
0.0
1001
AUTOCAD_POSTSCRIPT_FIGURE
1002
{
1000
PSFILL
1000
Grayscale
1000
Grayscale
1070
   100
1002
}
  0
LINE
  5
CF3B
  8
YODOROGO
 10
27815.546718284771
 20
1495.7494964292871
 30
0.0
 11
27844.509588915738
 21
1568.5028573704751
 31
0.0
1001
AUTOCAD_POSTSCRIPT_FIGURE
1002
{
1000
PSFILL
1000
Grayscale
1000
Grayscale
1070
   100
1002
}
  0
LINE
  5
CF3C
  8
YODOROGO
 10
27902.054790808648
 20
1495.7494964292871
 30
0.0
 11
27815.546718284771
 21
1495.7494964292871
 31
0.0
1001
AUTOCAD_POSTSCRIPT_FIGURE
1002
{
1000
PSFILL
1000
Grayscale
1000
Grayscale
1070
   100
1002
}
  0
LINE
  5
CF3D
  8
YODOROGO
 10
27885.065004790951
 20
1536.2338106976929
 30
0.0
 11
27902.054790808648
 21
1495.7494964292871
 31
0.0
1001
AUTOCAD_POSTSCRIPT_FIGURE
1002
{
1000
PSFILL
1000
Grayscale
1000
Grayscale
1070
   100
1002
}
  0
LINE
  5
CF3E
  8
YODOROGO
 10
27901.065004790951
 20
1536.2338106976929
 30
0.0
 11
27885.065004790951
 21
1536.2338106976929
 31
0.0
1001
AUTOCAD_POSTSCRIPT_FIGURE
1002
{
1000
PSFILL
1000
Grayscale
1000
Grayscale
1070
   100
1002
}
  0
LINE
  5
CF3F
  8
YODOROGO
 10
27929.604341291921
 20
1475.7494964292871
 30
0.0
 11
27901.065004790951
 21
1536.2338106976929
 31
0.0
1001
AUTOCAD_POSTSCRIPT_FIGURE
1002
{
1000
PSFILL
1000
Grayscale
1000
Grayscale
1070
   100
1002
}
  0
LINE
  5
CF40
  8
YODOROGO
 10
27785.604341291921
 20
1475.7494964292871
 30
0.0
 11
27929.604341291921
 21
1475.7494964292871
 31
0.0
1001
AUTOCAD_POSTSCRIPT_FIGURE
1002
{
1000
PSFILL
1000
Grayscale
1000
Grayscale
1070
   100
1002
}
  0
LINE
  5
CF41
  8
YODOROGO
 10
27777.604341291921
 20
1619.9724140445701
 30
0.0
 11
27777.604341291921
 21
1643.9724140445701
 31
0.0
  0
LINE
  5
CF42
  8
YODOROGO
 10
27937.604341291921
 20
1643.9724140445701
 30
0.0
 11
27937.604341291921
 21
1619.9724140445701
 31
0.0
  0
ARC
  5
CF43
  8
YODOROGO
 10
28225.940442146959
 20
1600.877765325326
 30
0.0
 40
175.9999999999998
 50
280.3644312771313
 51
3.5414836592180561
  0
ARC
  5
CF44
  8
YODOROGO
 10
28235.756030759301
 20
1633.5978069619041
 30
0.0
 40
111.9999999999982
 50
281.24905825041549
 51
348.75094174958321
  0
LINE
  5
CF45
  8
YODOROGO
 10
28257.604341291921
 20
1523.7494964292871
 30
0.0
 11
28257.604341291921
 21
1427.749496429288
 31
0.0
  0
LINE
  5
CF46
  8
YODOROGO
 10
28020.088903736909
 20
1610.650565061914
 30
0.0
 11
28040.913204016892
 21
1659.749496429288
 31
0.0
  0
LINE
  5
CF47
  8
YODOROGO
 10
28041.604341291921
 20
1583.120489948401
 30
0.0
 11
28020.088903736909
 21
1610.650565061914
 31
0.0
  0
LINE
  5
CF48
  8
YODOROGO
 10
28041.604341291921
 20
1563.120489948398
 30
0.0
 11
28041.604341291921
 21
1583.120489948401
 31
0.0
  0
LINE
  5
CF49
  8
YODOROGO
 10
28017.604341291921
 20
1585.2370637495301
 30
0.0
 11
28041.604341291921
 21
1563.120489948398
 31
0.0
  0
LINE
  5
CF4A
  8
YODOROGO
 10
28017.604341291921
 20
1475.7494964292871
 30
0.0
 11
28017.604341291921
 21
1585.2370637495301
 31
0.0
  0
LINE
  5
CF4B
  8
YODOROGO
 10
28001.604341291921
 20
1475.7494964292871
 30
0.0
 11
28017.604341291921
 21
1475.7494964292871
 31
0.0
  0
LINE
  5
CF4C
  8
YODOROGO
 10
28001.604341291921
 20
1580.0053496897469
 30
0.0
 11
28001.604341291921
 21
1475.7494964292871
 31
0.0
  0
LINE
  5
CF4D
  8
YODOROGO
 10
27977.604341291921
 20
1532.7680790334291
 30
0.0
 11
28001.604341291921
 21
1580.0053496897469
 31
0.0
  0
LINE
  5
CF4E
  8
YODOROGO
 10
27977.604341291921
 20
1556.76807903343
 30
0.0
 11
27977.604341291921
 21
1532.7680790334291
 31
0.0
  0
LINE
  5
CF4F
  8
YODOROGO
 10
28025.828774291349
 20
1667.749496429285
 30
0.0
 11
27977.604341291921
 21
1556.76807903343
 31
0.0
  0
LINE
  5
CF50
  8
YODOROGO
 10
27977.604341291921
 20
1667.749496429285
 30
0.0
 11
28025.828774291349
 21
1667.749496429285
 31
0.0
  0
LINE
  5
CF51
  8
YODOROGO
 10
28050.135520230899
 20
1655.5036372746561
 30
0.0
 11
28082.135520230921
 21
1655.5036372746561
 31
0.0
1001
AUTOCAD_POSTSCRIPT_FIGURE
1002
{
1000
PSFILL
1000
Grayscale
1000
Grayscale
1070
   100
1002
}
  0
LINE
  5
CF52
  8
YODOROGO
 10
28050.135520230899
 20
1631.5036372746561
 30
0.0
 11
28050.135520230899
 21
1655.5036372746561
 31
0.0
1001
AUTOCAD_POSTSCRIPT_FIGURE
1002
{
1000
PSFILL
1000
Grayscale
1000
Grayscale
1070
   100
1002
}
  0
LINE
  5
CF53
  8
YODOROGO
 10
28082.135520230921
 20
1631.5036372746561
 30
0.0
 11
28050.135520230899
 21
1631.5036372746561
 31
0.0
1001
AUTOCAD_POSTSCRIPT_FIGURE
1002
{
1000
PSFILL
1000
Grayscale
1000
Grayscale
1070
   100
1002
}
  0
LINE
  5
CF54
  8
YODOROGO
 10
28082.135520230921
 20
1499.749496429288
 30
0.0
 11
28082.135520230921
 21
1631.5036372746561
 31
0.0
1001
AUTOCAD_POSTSCRIPT_FIGURE
1002
{
1000
PSFILL
1000
Grayscale
1000
Grayscale
1070
   100
1002
}
  0
LINE
  5
CF55
  8
YODOROGO
 10
28050.135520230921
 20
1499.749496429288
 30
0.0
 11
28082.135520230921
 21
1499.749496429288
 31
0.0
1001
AUTOCAD_POSTSCRIPT_FIGURE
1002
{
1000
PSFILL
1000
Grayscale
1000
Grayscale
1070
   100
1002
}
  0
LINE
  5
CF56
  8
YODOROGO
 10
28050.135520230921
 20
1475.7494964292871
 30
0.0
 11
28050.135520230921
 21
1499.749496429288
 31
0.0
1001
AUTOCAD_POSTSCRIPT_FIGURE
1002
{
1000
PSFILL
1000
Grayscale
1000
Grayscale
1070
   100
1002
}
  0
LINE
  5
CF57
  8
YODOROGO
 10
28137.604341291921
 20
1475.7494964292871
 30
0.0
 11
28050.135520230921
 21
1475.7494964292871
 31
0.0
1001
AUTOCAD_POSTSCRIPT_FIGURE
1002
{
1000
PSFILL
1000
Grayscale
1000
Grayscale
1070
   100
1002
}
  0
LINE
  5
CF58
  8
YODOROGO
 10
28137.604341291921
 20
1499.749496429288
 30
0.0
 11
28137.604341291921
 21
1475.7494964292871
 31
0.0
1001
AUTOCAD_POSTSCRIPT_FIGURE
1002
{
1000
PSFILL
1000
Grayscale
1000
Grayscale
1070
   100
1002
}
  0
LINE
  5
CF59
  8
YODOROGO
 10
28098.135520230931
 20
1499.749496429288
 30
0.0
 11
28137.604341291921
 21
1499.749496429288
 31
0.0
1001
AUTOCAD_POSTSCRIPT_FIGURE
1002
{
1000
PSFILL
1000
Grayscale
1000
Grayscale
1070
   100
1002
}
  0
LINE
  5
CF5A
  8
YODOROGO
 10
28098.135520230931
 20
1631.5036372746561
 30
0.0
 11
28098.135520230931
 21
1499.749496429288
 31
0.0
1001
AUTOCAD_POSTSCRIPT_FIGURE
1002
{
1000
PSFILL
1000
Grayscale
1000
Grayscale
1070
   100
1002
}
  0
LINE
  5
CF5B
  8
YODOROGO
 10
28137.604341291921
 20
1631.5036372746561
 30
0.0
 11
28098.135520230931
 21
1631.5036372746561
 31
0.0
1001
AUTOCAD_POSTSCRIPT_FIGURE
1002
{
1000
PSFILL
1000
Grayscale
1000
Grayscale
1070
   100
1002
}
  0
LINE
  5
CF5C
  8
YODOROGO
 10
28137.604341291921
 20
1655.5036372746561
 30
0.0
 11
28137.604341291921
 21
1631.5036372746561
 31
0.0
1001
AUTOCAD_POSTSCRIPT_FIGURE
1002
{
1000
PSFILL
1000
Grayscale
1000
Grayscale
1070
   100
1002
}
  0
LINE
  5
CF5D
  8
YODOROGO
 10
28098.135520230931
 20
1655.5036372746561
 30
0.0
 11
28137.604341291921
 21
1655.5036372746561
 31
0.0
1001
AUTOCAD_POSTSCRIPT_FIGURE
1002
{
1000
PSFILL
1000
Grayscale
1000
Grayscale
1070
   100
1002
}
  0
LINE
  5
CF5E
  8
YODOROGO
 10
28401.60434129191
 20
1667.749496429288
 30
0.0
 11
28345.604341291921
 21
1667.749496429288
 31
0.0
  0
LINE
  5
CF5F
  8
YODOROGO
 10
28401.60434129191
 20
1611.749496429288
 30
0.0
 11
28401.60434129191
 21
1667.749496429288
 31
0.0
  0
LINE
  5
CF60
  8
YODOROGO
 10
28345.604341291921
 20
1667.749496429288
 30
0.0
 11
28345.604341291921
 21
1611.749496429288
 31
0.0
  0
ARC
  5
CF61
  8
YODOROGO
 10
28513.60434129191
 20
1507.749496429288
 30
0.0
 40
80.0
 50
180.0
 51
270.0
  0
ARC
  5
CF62
  8
YODOROGO
 10
28537.604341291921
 20
1563.7494964292871
 30
0.0
 40
40.0
 50
180.0
 51
270.0
  0
LINE
  5
CF63
  8
YODOROGO
 10
28561.604341291932
 20
1523.7494964292871
 30
0.0
 11
28537.604341291921
 21
1523.7494964292871
 31
0.0
  0
ARC
  5
CF64
  8
YODOROGO
 10
28561.604341291932
 20
1547.749496429285
 30
0.0
 40
23.999999999996358
 50
270.0
 51
0.0000000000054281
  0
LINE
  5
CF65
  8
YODOROGO
 10
27801.604341291921
 20
1890.786580793706
 30
0.0
 11
27777.604341291921
 21
1843.776747951672
 31
0.0
1001
AUTOCAD_POSTSCRIPT_FIGURE
1002
{
1000
PSFILL
1000
Grayscale
1000
Grayscale
1070
   100
1002
}
  0
LINE
  5
CF66
  8
YODOROGO
 10
27801.604341291921
 20
1747.749496429286
 30
0.0
 11
27801.604341291921
 21
1890.786580793706
 31
0.0
1001
AUTOCAD_POSTSCRIPT_FIGURE
1002
{
1000
PSFILL
1000
Grayscale
1000
Grayscale
1070
   100
1002
}
  0
LINE
  5
CF67
  8
YODOROGO
 10
27817.604341291921
 20
1747.749496429286
 30
0.0
 11
27801.604341291921
 21
1747.749496429286
 31
0.0
1001
AUTOCAD_POSTSCRIPT_FIGURE
1002
{
1000
PSFILL
1000
Grayscale
1000
Grayscale
1070
   100
1002
}
  0
LINE
  5
CF68
  8
YODOROGO
 10
27817.604341291921
 20
1893.7713320852661
 30
0.0
 11
27817.604341291921
 21
1747.749496429286
 31
0.0
1001
AUTOCAD_POSTSCRIPT_FIGURE
1002
{
1000
PSFILL
1000
Grayscale
1000
Grayscale
1070
   100
1002
}
  0
LINE
  5
CF69
  8
YODOROGO
 10
27841.604341291921
 20
1867.6547582841361
 30
0.0
 11
27817.604341291921
 21
1893.7713320852661
 31
0.0
1001
AUTOCAD_POSTSCRIPT_FIGURE
1002
{
1000
PSFILL
1000
Grayscale
1000
Grayscale
1070
   100
1002
}
  0
LINE
  5
CF6A
  8
YODOROGO
 10
27841.604341291921
 20
1883.6547582841361
 30
0.0
 11
27841.604341291921
 21
1867.6547582841361
 31
0.0
1001
AUTOCAD_POSTSCRIPT_FIGURE
1002
{
1000
PSFILL
1000
Grayscale
1000
Grayscale
1070
   100
1002
}
  0
LINE
  5
CF6B
  8
YODOROGO
 10
27817.604341291921
 20
1917.7713320852649
 30
0.0
 11
27841.604341291921
 21
1883.6547582841361
 31
0.0
1001
AUTOCAD_POSTSCRIPT_FIGURE
1002
{
1000
PSFILL
1000
Grayscale
1000
Grayscale
1070
   100
1002
}
  0
LINE
  5
CF6C
  8
YODOROGO
 10
27817.604341291921
 20
1939.749496429288
 30
0.0
 11
27817.604341291921
 21
1917.7713320852649
 31
0.0
1001
AUTOCAD_POSTSCRIPT_FIGURE
1002
{
1000
PSFILL
1000
Grayscale
1000
Grayscale
1070
   100
1002
}
  0
LINE
  5
CF6D
  8
YODOROGO
 10
27889.604341291921
 20
1939.749496429288
 30
0.0
 11
27817.604341291921
 21
1939.749496429288
 31
0.0
1001
AUTOCAD_POSTSCRIPT_FIGURE
1002
{
1000
PSFILL
1000
Grayscale
1000
Grayscale
1070
   100
1002
}
  0
LINE
  5
CF6E
  8
YODOROGO
 10
27889.604341291921
 20
1900.5683489363
 30
0.0
 11
27889.604341291921
 21
1939.749496429288
 31
0.0
1001
AUTOCAD_POSTSCRIPT_FIGURE
1002
{
1000
PSFILL
1000
Grayscale
1000
Grayscale
1070
   100
1002
}
  0
LINE
  5
CF6F
  8
YODOROGO
 10
27857.604341291921
 20
1900.5683489363
 30
0.0
 11
27889.604341291921
 21
1900.5683489363
 31
0.0
1001
AUTOCAD_POSTSCRIPT_FIGURE
1002
{
1000
PSFILL
1000
Grayscale
1000
Grayscale
1070
   100
1002
}
  0
LINE
  5
CF70
  8
YODOROGO
 10
27857.604341291921
 20
1884.568348936298
 30
0.0
 11
27857.604341291921
 21
1900.5683489363
 31
0.0
1001
AUTOCAD_POSTSCRIPT_FIGURE
1002
{
1000
PSFILL
1000
Grayscale
1000
Grayscale
1070
   100
1002
}
  0
LINE
  5
CF71
  8
YODOROGO
 10
27889.604341291921
 20
1884.568348936298
 30
0.0
 11
27857.604341291921
 21
1884.568348936298
 31
0.0
1001
AUTOCAD_POSTSCRIPT_FIGURE
1002
{
1000
PSFILL
1000
Grayscale
1000
Grayscale
1070
   100
1002
}
  0
LINE
  5
CF72
  8
YODOROGO
 10
27889.604341291921
 20
1879.6191779644371
 30
0.0
 11
27889.604341291921
 21
1884.568348936298
 31
0.0
1001
AUTOCAD_POSTSCRIPT_FIGURE
1002
{
1000
PSFILL
1000
Grayscale
1000
Grayscale
1070
   100
1002
}
  0
LINE
  5
CF73
  8
YODOROGO
 10
27849.604341291921
 20
1812.974981161417
 30
0.0
 11
27889.604341291921
 21
1879.6191779644371
 31
0.0
1001
AUTOCAD_POSTSCRIPT_FIGURE
1002
{
1000
PSFILL
1000
Grayscale
1000
Grayscale
1070
   100
1002
}
  0
LINE
  5
CF74
  8
YODOROGO
 10
27849.604341291921
 20
1796.9749811614161
 30
0.0
 11
27849.604341291921
 21
1812.974981161417
 31
0.0
1001
AUTOCAD_POSTSCRIPT_FIGURE
1002
{
1000
PSFILL
1000
Grayscale
1000
Grayscale
1070
   100
1002
}
  0
LINE
  5
CF75
  8
YODOROGO
 10
27889.604341291921
 20
1847.6191779644359
 30
0.0
 11
27849.604341291921
 21
1796.9749811614161
 31
0.0
1001
AUTOCAD_POSTSCRIPT_FIGURE
1002
{
1000
PSFILL
1000
Grayscale
1000
Grayscale
1070
   100
1002
}
  0
LINE
  5
CF76
  8
YODOROGO
 10
27889.604341291921
 20
1747.749496429286
 30
0.0
 11
27889.604341291921
 21
1847.6191779644359
 31
0.0
1001
AUTOCAD_POSTSCRIPT_FIGURE
1002
{
1000
PSFILL
1000
Grayscale
1000
Grayscale
1070
   100
1002
}
  0
LINE
  5
CF77
  8
YODOROGO
 10
27905.604341291921
 20
1747.749496429286
 30
0.0
 11
27889.604341291921
 21
1747.749496429286
 31
0.0
1001
AUTOCAD_POSTSCRIPT_FIGURE
1002
{
1000
PSFILL
1000
Grayscale
1000
Grayscale
1070
   100
1002
}
  0
LINE
  5
CF78
  8
YODOROGO
 10
27905.604341291921
 20
1849.409012158806
 30
0.0
 11
27905.604341291921
 21
1747.749496429286
 31
0.0
1001
AUTOCAD_POSTSCRIPT_FIGURE
1002
{
1000
PSFILL
1000
Grayscale
1000
Grayscale
1070
   100
1002
}
  0
LINE
  5
CF79
  8
YODOROGO
 10
27937.604341291921
 20
1796.9749811614161
 30
0.0
 11
27905.604341291921
 21
1849.409012158806
 31
0.0
1001
AUTOCAD_POSTSCRIPT_FIGURE
1002
{
1000
PSFILL
1000
Grayscale
1000
Grayscale
1070
   100
1002
}
  0
LINE
  5
CF7A
  8
YODOROGO
 10
27937.604341291921
 20
1812.974981161417
 30
0.0
 11
27937.604341291921
 21
1796.9749811614161
 31
0.0
1001
AUTOCAD_POSTSCRIPT_FIGURE
1002
{
1000
PSFILL
1000
Grayscale
1000
Grayscale
1070
   100
1002
}
  0
LINE
  5
CF7B
  8
YODOROGO
 10
27905.604341291921
 20
1881.4090121588081
 30
0.0
 11
27937.604341291921
 21
1812.974981161417
 31
0.0
1001
AUTOCAD_POSTSCRIPT_FIGURE
1002
{
1000
PSFILL
1000
Grayscale
1000
Grayscale
1070
   100
1002
}
  0
LINE
  5
CF7C
  8
YODOROGO
 10
27905.604341291921
 20
1884.5683489363
 30
0.0
 11
27905.604341291921
 21
1881.4090121588081
 31
0.0
1001
AUTOCAD_POSTSCRIPT_FIGURE
1002
{
1000
PSFILL
1000
Grayscale
1000
Grayscale
1070
   100
1002
}
  0
LINE
  5
CF7D
  8
YODOROGO
 10
27937.604341291921
 20
1884.568348936298
 30
0.0
 11
27905.604341291921
 21
1884.5683489363
 31
0.0
1001
AUTOCAD_POSTSCRIPT_FIGURE
1002
{
1000
PSFILL
1000
Grayscale
1000
Grayscale
1070
   100
1002
}
  0
LINE
  5
CF7E
  8
YODOROGO
 10
27937.604341291921
 20
1900.5683489363
 30
0.0
 11
27937.604341291921
 21
1884.568348936298
 31
0.0
1001
AUTOCAD_POSTSCRIPT_FIGURE
1002
{
1000
PSFILL
1000
Grayscale
1000
Grayscale
1070
   100
1002
}
  0
LINE
  5
CF7F
  8
YODOROGO
 10
27905.604341291921
 20
1900.5683489363
 30
0.0
 11
27937.604341291921
 21
1900.5683489363
 31
0.0
1001
AUTOCAD_POSTSCRIPT_FIGURE
1002
{
1000
PSFILL
1000
Grayscale
1000
Grayscale
1070
   100
1002
}
  0
LINE
  5
CF80
  8
YODOROGO
 10
27905.604341291921
 20
1939.749496429288
 30
0.0
 11
27905.604341291921
 21
1900.5683489363
 31
0.0
1001
AUTOCAD_POSTSCRIPT_FIGURE
1002
{
1000
PSFILL
1000
Grayscale
1000
Grayscale
1070
   100
1002
}
  0
LINE
  5
CF81
  8
YODOROGO
 10
27937.604341291921
 20
1939.749496429288
 30
0.0
 11
27905.604341291921
 21
1939.749496429288
 31
0.0
1001
AUTOCAD_POSTSCRIPT_FIGURE
1002
{
1000
PSFILL
1000
Grayscale
1000
Grayscale
1070
   100
1002
}
  0
LINE
  5
CF82
  8
YODOROGO
 10
27937.604341291921
 20
1955.7494964292871
 30
0.0
 11
27937.604341291921
 21
1939.749496429288
 31
0.0
1001
AUTOCAD_POSTSCRIPT_FIGURE
1002
{
1000
PSFILL
1000
Grayscale
1000
Grayscale
1070
   100
1002
}
  0
LINE
  5
CF83
  8
YODOROGO
 10
27905.604341291921
 20
1955.7494964292871
 30
0.0
 11
27937.604341291921
 21
1955.7494964292871
 31
0.0
1001
AUTOCAD_POSTSCRIPT_FIGURE
1002
{
1000
PSFILL
1000
Grayscale
1000
Grayscale
1070
   100
1002
}
  0
LINE
  5
CF84
  8
YODOROGO
 10
27905.604341291921
 20
1979.749496429288
 30
0.0
 11
27905.604341291921
 21
1955.7494964292871
 31
0.0
1001
AUTOCAD_POSTSCRIPT_FIGURE
1002
{
1000
PSFILL
1000
Grayscale
1000
Grayscale
1070
   100
1002
}
  0
LINE
  5
CF85
  8
YODOROGO
 10
27889.604341291921
 20
1979.749496429288
 30
0.0
 11
27905.604341291921
 21
1979.749496429288
 31
0.0
1001
AUTOCAD_POSTSCRIPT_FIGURE
1002
{
1000
PSFILL
1000
Grayscale
1000
Grayscale
1070
   100
1002
}
  0
LINE
  5
CF86
  8
YODOROGO
 10
27889.604341291921
 20
1955.7494964292871
 30
0.0
 11
27889.604341291921
 21
1979.749496429288
 31
0.0
1001
AUTOCAD_POSTSCRIPT_FIGURE
1002
{
1000
PSFILL
1000
Grayscale
1000
Grayscale
1070
   100
1002
}
  0
LINE
  5
CF87
  8
YODOROGO
 10
27865.604341291921
 20
1955.7494964292871
 30
0.0
 11
27889.604341291921
 21
1955.7494964292871
 31
0.0
1001
AUTOCAD_POSTSCRIPT_FIGURE
1002
{
1000
PSFILL
1000
Grayscale
1000
Grayscale
1070
   100
1002
}
  0
LINE
  5
CF88
  8
YODOROGO
 10
27865.604341291921
 20
1979.749496429288
 30
0.0
 11
27865.604341291921
 21
1955.7494964292871
 31
0.0
1001
AUTOCAD_POSTSCRIPT_FIGURE
1002
{
1000
PSFILL
1000
Grayscale
1000
Grayscale
1070
   100
1002
}
  0
LINE
  5
CF89
  8
YODOROGO
 10
27849.604341291921
 20
1979.749496429288
 30
0.0
 11
27865.604341291921
 21
1979.749496429288
 31
0.0
1001
AUTOCAD_POSTSCRIPT_FIGURE
1002
{
1000
PSFILL
1000
Grayscale
1000
Grayscale
1070
   100
1002
}
  0
LINE
  5
CF8A
  8
YODOROGO
 10
27849.604341291921
 20
1955.7494964292871
 30
0.0
 11
27849.604341291921
 21
1979.749496429288
 31
0.0
1001
AUTOCAD_POSTSCRIPT_FIGURE
1002
{
1000
PSFILL
1000
Grayscale
1000
Grayscale
1070
   100
1002
}
  0
LINE
  5
CF8B
  8
YODOROGO
 10
27817.604341291921
 20
1955.7494964292871
 30
0.0
 11
27849.604341291921
 21
1955.7494964292871
 31
0.0
1001
AUTOCAD_POSTSCRIPT_FIGURE
1002
{
1000
PSFILL
1000
Grayscale
1000
Grayscale
1070
   100
1002
}
  0
LINE
  5
CF8C
  8
YODOROGO
 10
27817.604341291921
 20
1979.749496429288
 30
0.0
 11
27817.604341291921
 21
1955.7494964292871
 31
0.0
1001
AUTOCAD_POSTSCRIPT_FIGURE
1002
{
1000
PSFILL
1000
Grayscale
1000
Grayscale
1070
   100
1002
}
  0
LINE
  5
CF8D
  8
YODOROGO
 10
27801.604341291921
 20
1979.749496429288
 30
0.0
 11
27817.604341291921
 21
1979.749496429288
 31
0.0
1001
AUTOCAD_POSTSCRIPT_FIGURE
1002
{
1000
PSFILL
1000
Grayscale
1000
Grayscale
1070
   100
1002
}
  0
LINE
  5
CF8E
  8
YODOROGO
 10
27801.604341291921
 20
1955.7494964292871
 30
0.0
 11
27801.604341291921
 21
1979.749496429288
 31
0.0
1001
AUTOCAD_POSTSCRIPT_FIGURE
1002
{
1000
PSFILL
1000
Grayscale
1000
Grayscale
1070
   100
1002
}
  0
LINE
  5
CF8F
  8
YODOROGO
 10
27777.604341291921
 20
1955.7494964292871
 30
0.0
 11
27801.604341291921
 21
1955.7494964292871
 31
0.0
1001
AUTOCAD_POSTSCRIPT_FIGURE
1002
{
1000
PSFILL
1000
Grayscale
1000
Grayscale
1070
   100
1002
}
  0
LINE
  5
CF90
  8
YODOROGO
 10
27777.604341291921
 20
1939.749496429288
 30
0.0
 11
27777.604341291921
 21
1955.7494964292871
 31
0.0
1001
AUTOCAD_POSTSCRIPT_FIGURE
1002
{
1000
PSFILL
1000
Grayscale
1000
Grayscale
1070
   100
1002
}
  0
LINE
  5
CF91
  8
YODOROGO
 10
27801.604341291921
 20
1939.749496429288
 30
0.0
 11
27777.604341291921
 21
1939.749496429288
 31
0.0
1001
AUTOCAD_POSTSCRIPT_FIGURE
1002
{
1000
PSFILL
1000
Grayscale
1000
Grayscale
1070
   100
1002
}
  0
LINE
  5
CF92
  8
YODOROGO
 10
27801.604341291921
 20
1914.7865807937051
 30
0.0
 11
27801.604341291921
 21
1939.749496429288
 31
0.0
1001
AUTOCAD_POSTSCRIPT_FIGURE
1002
{
1000
PSFILL
1000
Grayscale
1000
Grayscale
1070
   100
1002
}
  0
LINE
  5
CF93
  8
YODOROGO
 10
27777.604341291921
 20
1859.776747951671
 30
0.0
 11
27801.604341291921
 21
1914.7865807937051
 31
0.0
1001
AUTOCAD_POSTSCRIPT_FIGURE
1002
{
1000
PSFILL
1000
Grayscale
1000
Grayscale
1070
   100
1002
}
  0
LINE
  5
CF94
  8
YODOROGO
 10
27777.604341291921
 20
1843.776747951672
 30
0.0
 11
27777.604341291921
 21
1859.776747951671
 31
0.0
1001
AUTOCAD_POSTSCRIPT_FIGURE
1002
{
1000
PSFILL
1000
Grayscale
1000
Grayscale
1070
   100
1002
}
  0
LINE
  5
CF95
  8
YODOROGO
 10
28257.604341291921
 20
1867.7494964292871
 30
0.0
 11
28401.60434129191
 21
1824.877625640306
 31
0.0
1001
AUTOCAD_POSTSCRIPT_FIGURE
1002
{
1000
PSFILL
1000
Grayscale
1000
Grayscale
1070
   100
1002
}
  0
LINE
  5
CF96
  8
YODOROGO
 10
28401.60434129191
 20
1752.877625640306
 30
0.0
 11
28257.604341291921
 21
1795.7494964292871
 31
0.0
1001
AUTOCAD_POSTSCRIPT_FIGURE
1002
{
1000
PSFILL
1000
Grayscale
1000
Grayscale
1070
   100
1002
}
  0
LINE
  5
CF97
  8
YODOROGO
 10
28401.60434129191
 20
1984.877625640306
 30
0.0
 11
28257.604341291921
 21
2027.749496429288
 31
0.0
1001
AUTOCAD_POSTSCRIPT_FIGURE
1002
{
1000
PSFILL
1000
Grayscale
1000
Grayscale
1070
   100
1002
}
  0
LINE
  5
CF98
  8
YODOROGO
 10
28257.604341291921
 20
1959.749496429288
 30
0.0
 11
28401.60434129191
 21
1916.8776256403071
 31
0.0
1001
AUTOCAD_POSTSCRIPT_FIGURE
1002
{
1000
PSFILL
1000
Grayscale
1000
Grayscale
1070
   100
1002
}
  0
LINE
  5
CF99
  8
YODOROGO
 10
28257.604341291921
 20
1795.7494964292871
 30
0.0
 11
28257.604341291921
 21
1867.7494964292871
 31
0.0
1001
AUTOCAD_POSTSCRIPT_FIGURE
1002
{
1000
PSFILL
1000
Grayscale
1000
Grayscale
1070
   100
1002
}
  0
LINE
  5
CF9A
  8
YODOROGO
 10
28257.604341291921
 20
2027.749496429288
 30
0.0
 11
28257.604341291921
 21
1959.749496429288
 31
0.0
1001
AUTOCAD_POSTSCRIPT_FIGURE
1002
{
1000
PSFILL
1000
Grayscale
1000
Grayscale
1070
   100
1002
}
  0
LINE
  5
CF9B
  8
YODOROGO
 10
28080.236320206739
 20
1939.749496429288
 30
0.0
 11
28129.60434129191
 21
1747.749496429286
 31
0.0
1001
AUTOCAD_POSTSCRIPT_FIGURE
1002
{
1000
PSFILL
1000
Grayscale
1000
Grayscale
1070
   100
1002
}
  0
LINE
  5
CF9C
  8
YODOROGO
 10
27977.604341291921
 20
1939.749496429288
 30
0.0
 11
28080.236320206739
 21
1939.749496429288
 31
0.0
1001
AUTOCAD_POSTSCRIPT_FIGURE
1002
{
1000
PSFILL
1000
Grayscale
1000
Grayscale
1070
   100
1002
}
  0
LINE
  5
CF9D
  8
YODOROGO
 10
27977.604341291921
 20
1955.7494964292871
 30
0.0
 11
27977.604341291921
 21
1939.749496429288
 31
0.0
1001
AUTOCAD_POSTSCRIPT_FIGURE
1002
{
1000
PSFILL
1000
Grayscale
1000
Grayscale
1070
   100
1002
}
  0
LINE
  5
CF9E
  8
YODOROGO
 10
28076.60687851991
 20
1955.7494964292871
 30
0.0
 11
27977.604341291921
 21
1955.7494964292871
 31
0.0
1001
AUTOCAD_POSTSCRIPT_FIGURE
1002
{
1000
PSFILL
1000
Grayscale
1000
Grayscale
1070
   100
1002
}
  0
LINE
  5
CF9F
  8
YODOROGO
 10
28071.162715989711
 20
1979.749496429288
 30
0.0
 11
28076.60687851991
 21
1955.7494964292871
 31
0.0
1001
AUTOCAD_POSTSCRIPT_FIGURE
1002
{
1000
PSFILL
1000
Grayscale
1000
Grayscale
1070
   100
1002
}
  0
LINE
  5
CFA0
  8
YODOROGO
 10
28091.162715989711
 20
1979.749496429288
 30
0.0
 11
28071.162715989711
 21
1979.749496429288
 31
0.0
1001
AUTOCAD_POSTSCRIPT_FIGURE
1002
{
1000
PSFILL
1000
Grayscale
1000
Grayscale
1070
   100
1002
}
  0
LINE
  5
CFA1
  8
YODOROGO
 10
28095.806878519939
 20
1955.7494964292871
 30
0.0
 11
28091.162715989711
 21
1979.749496429288
 31
0.0
1001
AUTOCAD_POSTSCRIPT_FIGURE
1002
{
1000
PSFILL
1000
Grayscale
1000
Grayscale
1070
   100
1002
}
  0
LINE
  5
CFA2
  8
YODOROGO
 10
28121.604341291921
 20
1955.7494964292871
 30
0.0
 11
28095.806878519939
 21
1955.7494964292871
 31
0.0
1001
AUTOCAD_POSTSCRIPT_FIGURE
1002
{
1000
PSFILL
1000
Grayscale
1000
Grayscale
1070
   100
1002
}
  0
LINE
  5
CFA3
  8
YODOROGO
 10
28121.604341291921
 20
1979.749496429288
 30
0.0
 11
28121.604341291921
 21
1955.7494964292871
 31
0.0
1001
AUTOCAD_POSTSCRIPT_FIGURE
1002
{
1000
PSFILL
1000
Grayscale
1000
Grayscale
1070
   100
1002
}
  0
LINE
  5
CFA4
  8
YODOROGO
 10
28137.604341291921
 20
1979.749496429288
 30
0.0
 11
28121.604341291921
 21
1979.749496429288
 31
0.0
1001
AUTOCAD_POSTSCRIPT_FIGURE
1002
{
1000
PSFILL
1000
Grayscale
1000
Grayscale
1070
   100
1002
}
  0
LINE
  5
CFA5
  8
YODOROGO
 10
28137.604341291921
 20
1955.7494964292871
 30
0.0
 11
28137.604341291921
 21
1979.749496429288
 31
0.0
1001
AUTOCAD_POSTSCRIPT_FIGURE
1002
{
1000
PSFILL
1000
Grayscale
1000
Grayscale
1070
   100
1002
}
  0
LINE
  5
CFA6
  8
YODOROGO
 10
28137.604341291921
 20
1939.749496429288
 30
0.0
 11
28137.604341291921
 21
1955.7494964292871
 31
0.0
1001
AUTOCAD_POSTSCRIPT_FIGURE
1002
{
1000
PSFILL
1000
Grayscale
1000
Grayscale
1070
   100
1002
}
  0
LINE
  5
CFA7
  8
YODOROGO
 10
28098.902986873411
 20
1939.749496429288
 30
0.0
 11
28137.604341291921
 21
1939.749496429288
 31
0.0
1001
AUTOCAD_POSTSCRIPT_FIGURE
1002
{
1000
PSFILL
1000
Grayscale
1000
Grayscale
1070
   100
1002
}
  0
LINE
  5
CFA8
  8
YODOROGO
 10
28137.604341291921
 20
1747.749496429286
 30
0.0
 11
28098.902986873411
 21
1939.749496429288
 31
0.0
1001
AUTOCAD_POSTSCRIPT_FIGURE
1002
{
1000
PSFILL
1000
Grayscale
1000
Grayscale
1070
   100
1002
}
  0
LINE
  5
CFA9
  8
YODOROGO
 10
28129.60434129191
 20
1747.749496429286
 30
0.0
 11
28137.604341291921
 21
1747.749496429286
 31
0.0
1001
AUTOCAD_POSTSCRIPT_FIGURE
1002
{
1000
PSFILL
1000
Grayscale
1000
Grayscale
1070
   100
1002
}
  0
LINE
  5
CFAA
  8
YODOROGO
 10
28078.06921993379
 20
1775.7407762987939
 30
0.0
 11
27977.604341291921
 21
1747.749496429286
 31
0.0
  0
LINE
  5
CFAB
  8
YODOROGO
 10
28078.06921993379
 20
1798.6689795290731
 30
0.0
 11
28078.06921993379
 21
1775.7407762987939
 31
0.0
  0
LINE
  5
CFAC
  8
YODOROGO
 10
28033.83678061287
 20
1786.816933133767
 30
0.0
 11
28078.06921993379
 21
1798.6689795290731
 31
0.0
  0
LINE
  5
CFAD
  8
YODOROGO
 10
28033.83678061287
 20
1872.5683489362989
 30
0.0
 11
28033.83678061287
 21
1786.816933133767
 31
0.0
  0
LINE
  5
CFAE
  8
YODOROGO
 10
28078.06921993379
 20
1872.5683489362989
 30
0.0
 11
28033.83678061287
 21
1872.5683489362989
 31
0.0
  0
LINE
  5
CFAF
  8
YODOROGO
 10
28078.06921993379
 20
1892.568348936298
 30
0.0
 11
28078.06921993379
 21
1872.5683489362989
 31
0.0
  0
LINE
  5
CFB0
  8
YODOROGO
 10
27977.604341291921
 20
1892.568348936298
 30
0.0
 11
28078.06921993379
 21
1892.568348936298
 31
0.0
  0
LINE
  5
CFB1
  8
YODOROGO
 10
27977.604341291921
 20
1872.5683489362989
 30
0.0
 11
27977.604341291921
 21
1892.568348936298
 31
0.0
  0
LINE
  5
CFB2
  8
YODOROGO
 10
28021.836780612852
 20
1872.5683489362989
 30
0.0
 11
27977.604341291921
 21
1872.5683489362989
 31
0.0
  0
LINE
  5
CFB3
  8
YODOROGO
 10
28021.836780612852
 20
1784.673339594317
 30
0.0
 11
28021.836780612852
 21
1872.5683489362989
 31
0.0
  0
LINE
  5
CFB4
  8
YODOROGO
 10
27977.604341291921
 20
1771.749496429286
 30
0.0
 11
28021.836780612852
 21
1784.673339594317
 31
0.0
  0
LINE
  5
CFB5
  8
YODOROGO
 10
27977.604341291921
 20
1747.749496429286
 30
0.0
 11
27977.604341291921
 21
1771.749496429286
 31
0.0
  0
LINE
  5
CFB6
  8
YODOROGO
 10
28001.604341291921
 20
1707.749496429288
 30
0.0
 11
28001.604341291921
 21
1683.7494964292871
 31
0.0
  0
LINE
  5
CFB7
  8
YODOROGO
 10
28017.604341291921
 20
1707.749496429288
 30
0.0
 11
28001.604341291921
 21
1707.749496429288
 31
0.0
  0
LINE
  5
CFB8
  8
YODOROGO
 10
28017.604341291921
 20
1683.7494964292871
 30
0.0
 11
28017.604341291921
 21
1707.749496429288
 31
0.0
  0
LINE
  5
CFB9
  8
YODOROGO
 10
28040.913204016892
 20
1683.7494964292871
 30
0.0
 11
28017.604341291921
 21
1683.7494964292871
 31
0.0
  0
LINE
  5
CFBA
  8
YODOROGO
 10
28001.604341291921
 20
1683.7494964292871
 30
0.0
 11
27977.604341291921
 21
1683.7494964292871
 31
0.0
  0
LINE
  5
CFBB
  8
YODOROGO
 10
28082.135520230921
 20
1707.749496429288
 30
0.0
 11
28098.135520230931
 21
1707.749496429288
 31
0.0
1001
AUTOCAD_POSTSCRIPT_FIGURE
1002
{
1000
PSFILL
1000
Grayscale
1000
Grayscale
1070
   100
1002
}
  0
LINE
  5
CFBC
  8
YODOROGO
 10
28401.60434129191
 20
1824.877625640306
 30
0.0
 11
28401.60434129191
 21
1752.877625640306
 31
0.0
1001
AUTOCAD_POSTSCRIPT_FIGURE
1002
{
1000
PSFILL
1000
Grayscale
1000
Grayscale
1070
   100
1002
}
  0
LINE
  5
CFBD
  8
YODOROGO
 10
28401.60434129191
 20
1916.8776256403071
 30
0.0
 11
28401.60434129191
 21
1984.877625640306
 31
0.0
1001
AUTOCAD_POSTSCRIPT_FIGURE
1002
{
1000
PSFILL
1000
Grayscale
1000
Grayscale
1070
   100
1002
}
  0
LINE
  5
CFBE
  8
YODOROGO
 10
28433.60434129191
 20
1819.7494964292871
 30
0.0
 11
28433.60434129191
 21
1747.74949642929
 31
0.0
  0
LINE
  5
CFBF
  8
YODOROGO
 10
28497.60434129191
 20
1707.749496429288
 30
0.0
 11
28433.60434129191
 21
1707.749496429288
 31
0.0
  0
LINE
  5
CFC0
  8
YODOROGO
 10
28433.60434129191
 20
1747.74949642929
 30
0.0
 11
28585.604341291921
 21
1747.74949642929
 31
0.0
  0
LINE
  5
CFC1
  8
YODOROGO
 10
28497.60434129191
 20
1867.7494964292871
 30
0.0
 11
28433.60434129191
 21
1867.7494964292871
 31
0.0
  0
LINE
  5
CFC2
  8
YODOROGO
 10
28497.60434129191
 20
1923.7494964292871
 30
0.0
 11
28497.60434129191
 21
1867.7494964292871
 31
0.0
  0
LINE
  5
CFC3
  8
YODOROGO
 10
28585.604341291921
 20
1987.7494964292871
 30
0.0
 11
28585.604341291921
 21
2027.749496429288
 31
0.0
  0
LINE
  5
CFC4
  8
YODOROGO
 10
28433.60434129191
 20
1987.7494964292871
 30
0.0
 11
28585.604341291921
 21
1987.7494964292871
 31
0.0
  0
LINE
  5
CFC5
  8
YODOROGO
 10
28433.60434129191
 20
1867.7494964292871
 30
0.0
 11
28433.60434129191
 21
1987.7494964292871
 31
0.0
  0
LINE
  5
CFC6
  8
YODOROGO
 10
29001.60434129191
 20
2027.749496429288
 30
0.0
 11
29001.60434129191
 21
1619.749496429288
 31
0.0
  0
LINE
  5
CFC7
  8
YODOROGO
 10
29073.604341291921
 20
1579.749496429288
 30
0.0
 11
29073.604341291921
 21
2027.749496429288
 31
0.0
  0
LINE
  5
CFC8
  8
YODOROGO
 10
29261.604341291921
 20
1491.749496429286
 30
0.0
 11
29261.604341291921
 21
2007.749496429288
 31
0.0
  0
LINE
  5
CFC9
  8
YODOROGO
 10
29197.604341291921
 20
2007.749496429288
 30
0.0
 11
29197.604341291921
 21
1491.749496429286
 31
0.0
  0
LINE
  5
CFCA
  8
YODOROGO
 10
29385.604341291921
 20
2027.749496429288
 30
0.0
 11
29385.604341291921
 21
1427.749496429288
 31
0.0
  0
LINE
  5
CFCB
  8
YODOROGO
 10
29457.604341291921
 20
1427.749496429288
 30
0.0
 11
29457.604341291921
 21
2027.749496429288
 31
0.0
  0
LINE
  5
CFCC
  8
YODOROGO
 10
28657.604341291921
 20
1667.749496429288
 30
0.0
 11
28657.604341291921
 21
1747.74949642929
 31
0.0
  0
LINE
  5
CFCD
  8
YODOROGO
 10
29885.604341291921
 20
1707.749496429288
 30
0.0
 11
29885.604341291921
 21
1667.749496429288
 31
0.0
  0
LINE
  5
CFCE
  8
YODOROGO
 10
29885.604341291921
 20
1707.749496429288
 30
0.0
 11
29885.604341291921
 21
1667.749496429288
 31
0.0
  0
ARC
  5
CFCF
  8
YODOROGO
 10
28906.911576186842
 20
1618.217864442272
 30
0.0
 40
94.705151178741644
 50
274.05244162907098
 51
0.9266642149310712
  0
ARC
  5
CFD0
  8
YODOROGO
 10
28909.186170719819
 20
1592.61072861044
 30
0.0
 40
164.92042356085511
 50
271.5351210653775
 51
355.52727750585052
  0
LINE
  5
CFD1
  8
YODOROGO
 10
28913.604341291921
 20
1523.7494964292871
 30
0.0
 11
28913.604341291921
 21
1427.749496429288
 31
0.0
  0
LINE
  5
CFD2
  8
YODOROGO
 10
28793.60434129191
 20
1667.749496429288
 30
0.0
 11
28657.604341291921
 21
1667.749496429288
 31
0.0
  0
LINE
  5
CFD3
  8
YODOROGO
 10
28793.60434129191
 20
1603.7494964292871
 30
0.0
 11
28793.60434129191
 21
1667.749496429288
 31
0.0
  0
LINE
  5
CFD4
  8
YODOROGO
 10
28657.604341291921
 20
1603.7494964292871
 30
0.0
 11
28793.60434129191
 21
1603.7494964292871
 31
0.0
  0
LINE
  5
CFD5
  8
YODOROGO
 10
28657.604341291921
 20
1523.7494964292871
 30
0.0
 11
28657.604341291921
 21
1603.7494964292871
 31
0.0
  0
LINE
  5
CFD6
  8
YODOROGO
 10
28793.60434129191
 20
1523.7494964292871
 30
0.0
 11
28657.604341291921
 21
1523.7494964292871
 31
0.0
  0
LINE
  5
CFD7
  8
YODOROGO
 10
28793.60434129191
 20
1427.749496429288
 30
0.0
 11
28793.60434129191
 21
1523.7494964292871
 31
0.0
  0
LINE
  5
CFD8
  8
YODOROGO
 10
29197.604341291921
 20
1491.749496429286
 30
0.0
 11
29261.604341291921
 21
1491.749496429286
 31
0.0
  0
LINE
  5
CFD9
  8
YODOROGO
 10
29385.604341291921
 20
1427.749496429288
 30
0.0
 11
29457.604341291921
 21
1427.749496429288
 31
0.0
  0
LINE
  5
CFDA
  8
YODOROGO
 10
29737.604341291921
 20
1528.4414521705639
 30
0.0
 11
29737.604341291921
 21
1427.749496429288
 31
0.0
  0
LINE
  5
CFDB
  8
YODOROGO
 10
29617.604341291921
 20
1427.749496429288
 30
0.0
 11
29737.604341291921
 21
1528.4414521705639
 31
0.0
  0
LINE
  5
CFDC
  8
YODOROGO
 10
29617.604341291921
 20
1547.749496429288
 30
0.0
 11
29617.604341291921
 21
1427.749496429288
 31
0.0
  0
LINE
  5
CFDD
  8
YODOROGO
 10
29712.94462869945
 20
1627.749496429288
 30
0.0
 11
29617.604341291921
 21
1547.749496429288
 31
0.0
  0
LINE
  5
CFDE
  8
YODOROGO
 10
29617.604341291921
 20
1627.749496429288
 30
0.0
 11
29712.94462869945
 21
1627.749496429288
 31
0.0
  0
LINE
  5
CFDF
  8
YODOROGO
 10
29617.604341291921
 20
1667.749496429288
 30
0.0
 11
29617.604341291921
 21
1627.749496429288
 31
0.0
  0
LINE
  5
CFE0
  8
YODOROGO
 10
29885.604341291921
 20
1667.749496429288
 30
0.0
 11
29617.604341291921
 21
1667.749496429288
 31
0.0
  0
LINE
  5
CFE1
  8
YODOROGO
 10
29917.604341291921
 20
1627.749496429288
 30
0.0
 11
29777.604341291921
 21
1627.749496429288
 31
0.0
  0
LINE
  5
CFE2
  8
YODOROGO
 10
29777.604341291921
 20
1562.0054374176559
 30
0.0
 11
29771.409872985321
 21
1556.807661346234
 31
0.0
  0
LINE
  5
CFE3
  8
YODOROGO
 10
29777.604341291921
 20
1627.749496429288
 30
0.0
 11
29777.604341291921
 21
1562.0054374176559
 31
0.0
  0
LINE
  5
CFE4
  8
YODOROGO
 10
29737.604341291921
 20
1528.4414521705639
 30
0.0
 11
29737.604341291921
 21
1427.749496429288
 31
0.0
  0
LINE
  5
CFE5
  8
YODOROGO
 10
29617.604341291921
 20
1427.749496429288
 30
0.0
 11
29737.604341291921
 21
1528.4414521705639
 31
0.0
  0
LINE
  5
CFE6
  8
YODOROGO
 10
29617.604341291921
 20
1547.749496429288
 30
0.0
 11
29617.604341291921
 21
1427.749496429288
 31
0.0
  0
LINE
  5
CFE7
  8
YODOROGO
 10
29712.94462869945
 20
1627.749496429288
 30
0.0
 11
29617.604341291921
 21
1547.749496429288
 31
0.0
  0
LINE
  5
CFE8
  8
YODOROGO
 10
29617.604341291921
 20
1627.749496429288
 30
0.0
 11
29712.94462869945
 21
1627.749496429288
 31
0.0
  0
LINE
  5
CFE9
  8
YODOROGO
 10
29617.604341291921
 20
1667.749496429288
 30
0.0
 11
29617.604341291921
 21
1627.749496429288
 31
0.0
  0
LINE
  5
CFEA
  8
YODOROGO
 10
29885.604341291921
 20
1667.749496429288
 30
0.0
 11
29617.604341291921
 21
1667.749496429288
 31
0.0
  0
LINE
  5
CFEB
  8
YODOROGO
 10
28793.60434129191
 20
1747.74949642929
 30
0.0
 11
28793.60434129191
 21
1819.7494964292871
 31
0.0
  0
LINE
  5
CFEC
  8
YODOROGO
 10
28657.604341291921
 20
1747.74949642929
 30
0.0
 11
28793.60434129191
 21
1747.74949642929
 31
0.0
  0
LINE
  5
CFED
  8
YODOROGO
 10
28729.604341291921
 20
1867.7494964292871
 30
0.0
 11
28729.604341291921
 21
1923.7494964292871
 31
0.0
  0
LINE
  5
CFEE
  8
YODOROGO
 10
28793.60434129191
 20
1867.7494964292871
 30
0.0
 11
28729.604341291921
 21
1867.7494964292871
 31
0.0
  0
LINE
  5
CFEF
  8
YODOROGO
 10
28793.60434129191
 20
1947.749496429288
 30
0.0
 11
28793.60434129191
 21
1867.7494964292871
 31
0.0
  0
ARC
  5
CFF0
  8
YODOROGO
 10
28753.60434129191
 20
1947.749496429288
 30
0.0
 40
40.0
 50
0.0
 51
90.0
  0
LINE
  5
CFF1
  8
YODOROGO
 10
28657.604341291921
 20
1987.7494964292871
 30
0.0
 11
28753.60434129191
 21
1987.7494964292871
 31
0.0
  0
LINE
  5
CFF2
  8
YODOROGO
 10
28657.604341291921
 20
2027.749496429288
 30
0.0
 11
28657.604341291921
 21
1987.7494964292871
 31
0.0
  0
LINE
  5
CFF3
  8
YODOROGO
 10
29073.604341291921
 20
2027.749496429288
 30
0.0
 11
29001.60434129191
 21
2027.749496429288
 31
0.0
  0
LINE
  5
CFF4
  8
YODOROGO
 10
29261.604341291921
 20
2007.749496429288
 30
0.0
 11
29197.604341291921
 21
2007.749496429288
 31
0.0
  0
LINE
  5
CFF5
  8
YODOROGO
 10
29457.604341291921
 20
2027.749496429288
 30
0.0
 11
29385.604341291921
 21
2027.749496429288
 31
0.0
  0
LINE
  5
CFF6
  8
YODOROGO
 10
29673.604341291921
 20
1707.749496429288
 30
0.0
 11
29673.604341291921
 21
1771.7494964292871
 31
0.0
1001
AUTOCAD_POSTSCRIPT_FIGURE
1002
{
1000
PSFILL
1000
Grayscale
1000
Grayscale
1070
    25
1002
}
  0
LINE
  5
CFF7
  8
YODOROGO
 10
29617.604341291921
 20
1707.749496429288
 30
0.0
 11
29673.604341291921
 21
1707.749496429288
 31
0.0
1001
AUTOCAD_POSTSCRIPT_FIGURE
1002
{
1000
PSFILL
1000
Grayscale
1000
Grayscale
1070
    25
1002
}
  0
LINE
  5
CFF8
  8
YODOROGO
 10
29617.604341291921
 20
1819.7494964292871
 30
0.0
 11
29617.604341291921
 21
1707.749496429288
 31
0.0
1001
AUTOCAD_POSTSCRIPT_FIGURE
1002
{
1000
PSFILL
1000
Grayscale
1000
Grayscale
1070
    25
1002
}
  0
LINE
  5
CFF9
  8
YODOROGO
 10
29765.604341291921
 20
1819.7494964292871
 30
0.0
 11
29617.604341291921
 21
1819.7494964292871
 31
0.0
1001
AUTOCAD_POSTSCRIPT_FIGURE
1002
{
1000
PSFILL
1000
Grayscale
1000
Grayscale
1070
    25
1002
}
  0
LINE
  5
CFFA
  8
YODOROGO
 10
29765.604341291921
 20
1859.749496429288
 30
0.0
 11
29765.604341291921
 21
1819.7494964292871
 31
0.0
1001
AUTOCAD_POSTSCRIPT_FIGURE
1002
{
1000
PSFILL
1000
Grayscale
1000
Grayscale
1070
    25
1002
}
  0
LINE
  5
CFFB
  8
YODOROGO
 10
29617.604341291921
 20
1859.749496429288
 30
0.0
 11
29765.604341291921
 21
1859.749496429288
 31
0.0
1001
AUTOCAD_POSTSCRIPT_FIGURE
1002
{
1000
PSFILL
1000
Grayscale
1000
Grayscale
1070
    25
1002
}
  0
LINE
  5
CFFC
  8
YODOROGO
 10
29617.604341291921
 20
1907.7494964292871
 30
0.0
 11
29617.604341291921
 21
1859.749496429288
 31
0.0
1001
AUTOCAD_POSTSCRIPT_FIGURE
1002
{
1000
PSFILL
1000
Grayscale
1000
Grayscale
1070
    25
1002
}
  0
LINE
  5
CFFD
  8
YODOROGO
 10
29765.604341291921
 20
1907.7494964292871
 30
0.0
 11
29617.604341291921
 21
1907.7494964292871
 31
0.0
1001
AUTOCAD_POSTSCRIPT_FIGURE
1002
{
1000
PSFILL
1000
Grayscale
1000
Grayscale
1070
    25
1002
}
  0
LINE
  5
CFFE
  8
YODOROGO
 10
29765.604341291921
 20
1947.749496429288
 30
0.0
 11
29765.604341291921
 21
1907.7494964292871
 31
0.0
1001
AUTOCAD_POSTSCRIPT_FIGURE
1002
{
1000
PSFILL
1000
Grayscale
1000
Grayscale
1070
    25
1002
}
  0
LINE
  5
CFFF
  8
YODOROGO
 10
29617.604341291921
 20
1947.749496429288
 30
0.0
 11
29765.604341291921
 21
1947.749496429288
 31
0.0
1001
AUTOCAD_POSTSCRIPT_FIGURE
1002
{
1000
PSFILL
1000
Grayscale
1000
Grayscale
1070
    25
1002
}
  0
LINE
  5
D000
  8
YODOROGO
 10
29617.604341291921
 20
2027.749496429288
 30
0.0
 11
29617.604341291921
 21
1947.749496429288
 31
0.0
1001
AUTOCAD_POSTSCRIPT_FIGURE
1002
{
1000
PSFILL
1000
Grayscale
1000
Grayscale
1070
    25
1002
}
  0
LINE
  5
D001
  8
YODOROGO
 10
29665.604341291921
 20
2027.749496429288
 30
0.0
 11
29617.604341291921
 21
2027.749496429288
 31
0.0
1001
AUTOCAD_POSTSCRIPT_FIGURE
1002
{
1000
PSFILL
1000
Grayscale
1000
Grayscale
1070
    25
1002
}
  0
LINE
  5
D002
  8
YODOROGO
 10
29665.604341291921
 20
1995.7494964292871
 30
0.0
 11
29665.604341291921
 21
2027.749496429288
 31
0.0
1001
AUTOCAD_POSTSCRIPT_FIGURE
1002
{
1000
PSFILL
1000
Grayscale
1000
Grayscale
1070
    25
1002
}
  0
LINE
  5
D003
  8
YODOROGO
 10
29765.604341291921
 20
1995.7494964292871
 30
0.0
 11
29665.604341291921
 21
1995.7494964292871
 31
0.0
1001
AUTOCAD_POSTSCRIPT_FIGURE
1002
{
1000
PSFILL
1000
Grayscale
1000
Grayscale
1070
    25
1002
}
  0
LINE
  5
D004
  8
YODOROGO
 10
29765.604341291921
 20
2027.749496429288
 30
0.0
 11
29765.604341291921
 21
1995.7494964292871
 31
0.0
1001
AUTOCAD_POSTSCRIPT_FIGURE
1002
{
1000
PSFILL
1000
Grayscale
1000
Grayscale
1070
    25
1002
}
  0
LINE
  5
D005
  8
YODOROGO
 10
29829.604341291921
 20
2027.749496429288
 30
0.0
 11
29765.604341291921
 21
2027.749496429288
 31
0.0
1001
AUTOCAD_POSTSCRIPT_FIGURE
1002
{
1000
PSFILL
1000
Grayscale
1000
Grayscale
1070
    25
1002
}
  0
LINE
  5
D006
  8
YODOROGO
 10
29829.604341291921
 20
1995.7494964292871
 30
0.0
 11
29829.604341291921
 21
2027.749496429288
 31
0.0
1001
AUTOCAD_POSTSCRIPT_FIGURE
1002
{
1000
PSFILL
1000
Grayscale
1000
Grayscale
1070
    25
1002
}
  0
LINE
  5
D007
  8
YODOROGO
 10
29829.604341291921
 20
1907.7494964292871
 30
0.0
 11
29829.604341291921
 21
1947.749496429288
 31
0.0
1001
AUTOCAD_POSTSCRIPT_FIGURE
1002
{
1000
PSFILL
1000
Grayscale
1000
Grayscale
1070
    25
1002
}
  0
LINE
  5
D008
  8
YODOROGO
 10
29829.604341291921
 20
1819.7494964292871
 30
0.0
 11
29829.604341291921
 21
1859.749496429288
 31
0.0
1001
AUTOCAD_POSTSCRIPT_FIGURE
1002
{
1000
PSFILL
1000
Grayscale
1000
Grayscale
1070
    25
1002
}
  0
LINE
  5
D009
  8
YODOROGO
 10
29921.60434129191
 20
1771.7494964292871
 30
0.0
 11
29921.60434129191
 21
1707.749496429288
 31
0.0
1001
AUTOCAD_POSTSCRIPT_FIGURE
1002
{
1000
PSFILL
1000
Grayscale
1000
Grayscale
1070
    25
1002
}
  0
LINE
  5
D00A
  8
YODOROGO
 10
29829.604341291921
 20
1771.7494964292871
 30
0.0
 11
29921.60434129191
 21
1771.7494964292871
 31
0.0
1001
AUTOCAD_POSTSCRIPT_FIGURE
1002
{
1000
PSFILL
1000
Grayscale
1000
Grayscale
1070
    25
1002
}
  0
LINE
  5
D00B
  8
YODOROGO
 10
29829.604341291921
 20
1707.749496429288
 30
0.0
 11
29829.604341291921
 21
1771.7494964292871
 31
0.0
1001
AUTOCAD_POSTSCRIPT_FIGURE
1002
{
1000
PSFILL
1000
Grayscale
1000
Grayscale
1070
    25
1002
}
  0
LINE
  5
D00C
  8
YODOROGO
 10
29765.604341291921
 20
1707.749496429288
 30
0.0
 11
29829.604341291921
 21
1707.749496429288
 31
0.0
1001
AUTOCAD_POSTSCRIPT_FIGURE
1002
{
1000
PSFILL
1000
Grayscale
1000
Grayscale
1070
    25
1002
}
  0
LINE
  5
D00D
  8
YODOROGO
 10
29765.604341291921
 20
1771.7494964292871
 30
0.0
 11
29765.604341291921
 21
1707.749496429288
 31
0.0
1001
AUTOCAD_POSTSCRIPT_FIGURE
1002
{
1000
PSFILL
1000
Grayscale
1000
Grayscale
1070
    25
1002
}
  0
LINE
  5
D00E
  8
YODOROGO
 10
29673.604341291921
 20
1771.7494964292871
 30
0.0
 11
29765.604341291921
 21
1771.7494964292871
 31
0.0
1001
AUTOCAD_POSTSCRIPT_FIGURE
1002
{
1000
PSFILL
1000
Grayscale
1000
Grayscale
1070
    25
1002
}
  0
ARC
  5
D00F
  8
YODOROGO
 10
31059.517893357912
 20
1602.6807375155761
 30
0.0
 40
178.22128111072141
 50
281.02627495425338
 51
357.77113575573799
  0
LINE
  5
D010
  8
YODOROGO
 10
31413.604341291921
 20
1907.7494964292871
 30
0.0
 11
31165.604341291921
 21
1907.7494964292871
 31
0.0
  0
LINE
  5
D011
  8
YODOROGO
 10
31413.604341291921
 20
2027.749496429288
 30
0.0
 11
31165.604341291921
 21
2027.749496429288
 31
0.0
  0
LINE
  5
D012
  8
YODOROGO
 10
31165.604341291921
 20
1963.749496429286
 30
0.0
 11
31413.604341291921
 21
1963.749496429286
 31
0.0
  0
LINE
  5
D013
  8
YODOROGO
 10
30791.604341291921
 20
1563.7494964292871
 30
0.0
 11
30791.604341291921
 21
1755.7494964292871
 31
0.0
  0
LINE
  5
D014
  8
YODOROGO
 10
30763.604341291921
 20
1691.749496429288
 30
0.0
 11
30763.604341291921
 21
1563.7494964292871
 31
0.0
  0
LINE
  5
D015
  8
YODOROGO
 10
30723.604341291921
 20
1491.749496429288
 30
0.0
 11
30723.604341291921
 21
1691.749496429288
 31
0.0
  0
LINE
  5
D016
  8
YODOROGO
 10
30899.604341291932
 20
1691.749496429288
 30
0.0
 11
30899.604341291932
 21
1491.749496429288
 31
0.0
  0
LINE
  5
D017
  8
YODOROGO
 10
30859.604341291932
 20
1563.7494964292871
 30
0.0
 11
30859.604341291932
 21
1691.749496429288
 31
0.0
  0
LINE
  5
D018
  8
YODOROGO
 10
30831.604341291921
 20
1755.7494964292871
 30
0.0
 11
30831.604341291921
 21
1563.7494964292871
 31
0.0
  0
LINE
  5
D019
  8
YODOROGO
 10
30973.604341291921
 20
2027.749496429288
 30
0.0
 11
30973.604341291921
 21
1467.749496429288
 31
0.0
  0
LINE
  5
D01A
  8
YODOROGO
 10
30645.604341291921
 20
1427.749496429288
 30
0.0
 11
30645.604341291921
 21
2027.749496429288
 31
0.0
  0
LINE
  5
D01B
  8
YODOROGO
 10
30697.604341291932
 20
1963.749496429286
 30
0.0
 11
30697.604341291932
 21
1427.749496429288
 31
0.0
  0
LINE
  5
D01C
  8
YODOROGO
 10
30925.604341291921
 20
1547.749496429288
 30
0.0
 11
30925.604341291921
 21
1963.749496429286
 31
0.0
  0
LINE
  5
D01D
  8
YODOROGO
 10
30381.604341291932
 20
1627.749496429288
 30
0.0
 11
30381.604341291932
 21
1679.749496429288
 31
0.0
  0
LINE
  5
D01E
  8
YODOROGO
 10
30617.604341291921
 20
1679.749496429288
 30
0.0
 11
30617.604341291921
 21
1627.749496429288
 31
0.0
  0
LINE
  5
D01F
  8
YODOROGO
 10
31165.604341291921
 20
1907.7494964292871
 30
0.0
 11
31165.604341291921
 21
1635.7494964292871
 31
0.0
  0
LINE
  5
D020
  8
YODOROGO
 10
29949.60434129191
 20
1667.749496429288
 30
0.0
 11
29949.60434129191
 21
1707.749496429288
 31
0.0
  0
LINE
  5
D021
  8
YODOROGO
 10
29949.60434129191
 20
1667.749496429288
 30
0.0
 11
29949.60434129191
 21
1707.749496429288
 31
0.0
  0
ARC
  5
D022
  8
YODOROGO
 10
30537.604341291921
 20
1507.749496429288
 30
0.0
 40
80.0
 50
270.0
 51
0.0
  0
LINE
  5
D023
  8
YODOROGO
 10
30569.604341291921
 20
1599.7494964292871
 30
0.0
 11
30617.604341291921
 21
1599.7494964292871
 31
0.0
  0
LINE
  5
D024
  8
YODOROGO
 10
30617.604341291921
 20
1627.749496429288
 30
0.0
 11
30529.604341291939
 21
1627.749496429288
 31
0.0
  0
LINE
  5
D025
  8
YODOROGO
 10
30217.604341291921
 20
1667.749496429288
 30
0.0
 11
29949.60434129191
 21
1667.749496429288
 31
0.0
  0
LINE
  5
D026
  8
YODOROGO
 10
30217.604341291921
 20
1627.749496429288
 30
0.0
 11
30217.604341291921
 21
1667.749496429288
 31
0.0
  0
LINE
  5
D027
  8
YODOROGO
 10
30017.604341291921
 20
1627.749496429288
 30
0.0
 11
30217.604341291921
 21
1627.749496429288
 31
0.0
  0
ARC
  5
D028
  8
YODOROGO
 10
30230.05882870136
 20
1868.885714952901
 30
0.0
 40
321.37763628522822
 50
228.6181454618993
 51
245.660289248906
  0
LINE
  5
D029
  8
YODOROGO
 10
30105.604341291921
 20
1603.7494964292871
 30
0.0
 11
30097.60434129195
 21
1576.0728158699001
 31
0.0
  0
LINE
  5
D02A
  8
YODOROGO
 10
30189.604341291921
 20
1603.7494964292871
 30
0.0
 11
30105.604341291921
 21
1603.7494964292871
 31
0.0
  0
LINE
  5
D02B
  8
YODOROGO
 10
30177.604341291921
 20
1551.817722473427
 30
0.0
 11
30189.604341291921
 21
1603.7494964292871
 31
0.0
  0
ARC
  5
D02C
  8
YODOROGO
 10
30230.05882870045
 20
1868.885714953002
 30
0.0
 40
321.37763628529081
 50
260.60629297969911
 51
267.77903556555862
  0
LINE
  5
D02D
  8
YODOROGO
 10
30217.604341291921
 20
1427.749496429285
 30
0.0
 11
30217.604341291921
 21
1547.749496429288
 31
0.0
  0
LINE
  5
D02E
  8
YODOROGO
 10
29937.604341291932
 20
1481.3393349155101
 30
0.0
 11
29937.604341291921
 21
1594.531090531141
 31
0.0
  0
LINE
  5
D02F
  8
YODOROGO
 10
30217.604341291921
 20
1667.749496429288
 30
0.0
 11
29949.60434129191
 21
1667.749496429288
 31
0.0
  0
LINE
  5
D030
  8
YODOROGO
 10
30217.604341291921
 20
1627.749496429288
 30
0.0
 11
30217.604341291921
 21
1667.749496429288
 31
0.0
  0
LINE
  5
D031
  8
YODOROGO
 10
30017.604341291921
 20
1627.749496429288
 30
0.0
 11
30217.604341291921
 21
1627.749496429288
 31
0.0
  0
ARC
  5
D032
  8
YODOROGO
 10
30230.05882870136
 20
1868.885714952901
 30
0.0
 40
321.37763628522822
 50
228.6181454618993
 51
245.660289248906
  0
LINE
  5
D033
  8
YODOROGO
 10
30105.604341291921
 20
1603.7494964292871
 30
0.0
 11
30097.60434129195
 21
1576.0728158699001
 31
0.0
  0
LINE
  5
D034
  8
YODOROGO
 10
30189.604341291921
 20
1603.7494964292871
 30
0.0
 11
30105.604341291921
 21
1603.7494964292871
 31
0.0
  0
LINE
  5
D035
  8
YODOROGO
 10
30177.604341291921
 20
1551.817722473427
 30
0.0
 11
30189.604341291921
 21
1603.7494964292871
 31
0.0
  0
ARC
  5
D036
  8
YODOROGO
 10
30230.05882870045
 20
1868.885714953002
 30
0.0
 40
321.37763628529081
 50
260.60629297969911
 51
267.77903556555862
  0
LINE
  5
D037
  8
YODOROGO
 10
30217.604341291921
 20
1427.749496429285
 30
0.0
 11
30217.604341291921
 21
1547.749496429288
 31
0.0
  0
LINE
  5
D038
  8
YODOROGO
 10
29937.604341291932
 20
1481.3393349155101
 30
0.0
 11
29937.604341291921
 21
1594.531090531141
 31
0.0
  0
LINE
  5
D039
  8
YODOROGO
 10
30433.604341291921
 20
1573.749496429288
 30
0.0
 11
30381.604341291932
 21
1573.749496429288
 31
0.0
  0
LINE
  5
D03A
  8
YODOROGO
 10
30433.604341291921
 20
1601.749496429285
 30
0.0
 11
30433.604341291921
 21
1573.749496429288
 31
0.0
  0
LINE
  5
D03B
  8
YODOROGO
 10
30381.604341291932
 20
1601.749496429285
 30
0.0
 11
30433.604341291921
 21
1601.749496429285
 31
0.0
  0
LINE
  5
D03C
  8
YODOROGO
 10
30381.604341291932
 20
1573.749496429288
 30
0.0
 11
30381.604341291932
 21
1601.749496429285
 31
0.0
  0
LINE
  5
D03D
  8
YODOROGO
 10
30429.604341291921
 20
1577.7494964292871
 30
0.0
 11
30385.604341291921
 21
1577.7494964292871
 31
0.0
  0
LINE
  5
D03E
  8
YODOROGO
 10
30429.604341291921
 20
1597.749496429288
 30
0.0
 11
30429.604341291921
 21
1577.7494964292871
 31
0.0
  0
LINE
  5
D03F
  8
YODOROGO
 10
30385.604341291921
 20
1597.749496429288
 30
0.0
 11
30429.604341291921
 21
1597.749496429288
 31
0.0
  0
LINE
  5
D040
  8
YODOROGO
 10
30385.604341291921
 20
1577.7494964292871
 30
0.0
 11
30385.604341291921
 21
1597.749496429288
 31
0.0
  0
LINE
  5
D041
  8
YODOROGO
 10
30425.604341291921
 20
1581.749496429286
 30
0.0
 11
30389.604341291921
 21
1581.749496429286
 31
0.0
  0
LINE
  5
D042
  8
YODOROGO
 10
30425.604341291921
 20
1593.749496429288
 30
0.0
 11
30425.604341291921
 21
1581.749496429286
 31
0.0
  0
LINE
  5
D043
  8
YODOROGO
 10
30389.604341291921
 20
1593.749496429288
 30
0.0
 11
30425.604341291921
 21
1593.749496429288
 31
0.0
  0
LINE
  5
D044
  8
YODOROGO
 10
30389.604341291921
 20
1581.749496429286
 30
0.0
 11
30389.604341291921
 21
1593.749496429288
 31
0.0
  0
LINE
  5
D045
  8
YODOROGO
 10
30421.604341291932
 20
1585.7494964292871
 30
0.0
 11
30393.604341291921
 21
1585.7494964292871
 31
0.0
  0
LINE
  5
D046
  8
YODOROGO
 10
30421.604341291932
 20
1589.749496429288
 30
0.0
 11
30421.604341291932
 21
1585.7494964292871
 31
0.0
  0
LINE
  5
D047
  8
YODOROGO
 10
30393.604341291921
 20
1589.749496429288
 30
0.0
 11
30421.604341291932
 21
1589.749496429288
 31
0.0
  0
LINE
  5
D048
  8
YODOROGO
 10
30393.604341291921
 20
1585.7494964292871
 30
0.0
 11
30393.604341291921
 21
1589.749496429288
 31
0.0
  0
LINE
  5
D049
  8
YODOROGO
 10
30465.604341291921
 20
1627.749496429288
 30
0.0
 11
30381.604341291932
 21
1627.749496429288
 31
0.0
  0
LINE
  5
D04A
  8
YODOROGO
 10
30465.604341291921
 20
1547.749496429288
 30
0.0
 11
30465.604341291921
 21
1627.749496429288
 31
0.0
  0
LINE
  5
D04B
  8
YODOROGO
 10
30381.604341291932
 20
1547.749496429288
 30
0.0
 11
30465.604341291921
 21
1547.749496429288
 31
0.0
  0
LINE
  5
D04C
  8
YODOROGO
 10
30381.604341291932
 20
1427.749496429288
 30
0.0
 11
30381.604341291932
 21
1547.749496429288
 31
0.0
  0
LINE
  5
D04D
  8
YODOROGO
 10
30537.604341291921
 20
1427.749496429288
 30
0.0
 11
30381.604341291932
 21
1427.749496429288
 31
0.0
  0
LINE
  5
D04E
  8
YODOROGO
 10
30569.604341291921
 20
1571.749496429285
 30
0.0
 11
30569.604341291921
 21
1599.7494964292871
 31
0.0
  0
ARC
  5
D04F
  8
YODOROGO
 10
30545.604341291921
 20
1571.749496429291
 30
0.0
 40
24.000000000003752
 50
270.0
 51
359.99999999998772
  0
LINE
  5
D050
  8
YODOROGO
 10
30529.604341291939
 20
1547.749496429288
 30
0.0
 11
30545.604341291921
 21
1547.749496429288
 31
0.0
  0
LINE
  5
D051
  8
YODOROGO
 10
30529.604341291939
 20
1627.749496429288
 30
0.0
 11
30529.604341291939
 21
1547.749496429288
 31
0.0
  0
LINE
  5
D052
  8
YODOROGO
 10
30899.604341291932
 20
1547.749496429288
 30
0.0
 11
30925.604341291921
 21
1547.749496429288
 31
0.0
  0
LINE
  5
D053
  8
YODOROGO
 10
30933.604341291921
 20
1427.749496429288
 30
0.0
 11
30899.604341291932
 21
1427.749496429288
 31
0.0
  0
LINE
  5
D054
  8
YODOROGO
 10
30763.604341291921
 20
1563.7494964292871
 30
0.0
 11
30791.604341291921
 21
1563.7494964292871
 31
0.0
  0
LINE
  5
D055
  8
YODOROGO
 10
30899.604341291932
 20
1491.749496429288
 30
0.0
 11
30723.604341291921
 21
1491.749496429288
 31
0.0
  0
LINE
  5
D056
  8
YODOROGO
 10
30831.604341291921
 20
1563.7494964292871
 30
0.0
 11
30859.604341291932
 21
1563.7494964292871
 31
0.0
  0
LINE
  5
D057
  8
YODOROGO
 10
30899.604341291932
 20
1427.749496429288
 30
0.0
 11
30899.604341291932
 21
1547.749496429288
 31
0.0
  0
LINE
  5
D058
  8
YODOROGO
 10
30697.604341291932
 20
1427.749496429288
 30
0.0
 11
30645.604341291921
 21
1427.749496429288
 31
0.0
  0
LINE
  5
D059
  8
YODOROGO
 10
30617.604341291921
 20
1599.7494964292871
 30
0.0
 11
30617.604341291921
 21
1507.749496429288
 31
0.0
  0
ARC
  5
D05A
  8
YODOROGO
 10
30933.604341291921
 20
1467.749496429288
 30
0.0
 40
40.0
 50
270.0
 51
0.0
  0
LINE
  5
D05B
  8
YODOROGO
 10
31093.604341291921
 20
1523.7494964292871
 30
0.0
 11
31093.604341291921
 21
1427.749496429288
 31
0.0
  0
ARC
  5
D05C
  8
YODOROGO
 10
31039.721395566768
 20
1637.5313901097329
 30
0.0
 40
125.8955565916754
 50
295.34052442160112
 51
359.18902303418679
  0
LINE
  5
D05D
  8
YODOROGO
 10
30617.604341291921
 20
1859.749496429288
 30
0.0
 11
30497.604341291921
 21
1939.749496429288
 31
0.0
  0
LINE
  5
D05E
  8
YODOROGO
 10
30497.604341291921
 20
2027.749496429288
 30
0.0
 11
30617.604341291921
 21
1947.749496429288
 31
0.0
  0
LINE
  5
D05F
  8
YODOROGO
 10
30529.604341291939
 20
1679.749496429288
 30
0.0
 11
30617.604341291921
 21
1679.749496429288
 31
0.0
  0
LINE
  5
D060
  8
YODOROGO
 10
30617.604341291921
 20
1735.7494964292871
 30
0.0
 11
30529.604341291939
 21
1735.7494964292871
 31
0.0
  0
LINE
  5
D061
  8
YODOROGO
 10
30381.604341291932
 20
1795.7494964292871
 30
0.0
 11
30617.604341291921
 21
1795.7494964292871
 31
0.0
  0
LINE
  5
D062
  8
YODOROGO
 10
30081.604341291921
 20
2027.749496429288
 30
0.0
 11
30021.604341291921
 21
2027.749496429288
 31
0.0
  0
LINE
  5
D063
  8
YODOROGO
 10
30081.604341291921
 20
1827.7494964292871
 30
0.0
 11
30081.604341291921
 21
2027.749496429288
 31
0.0
  0
LINE
  5
D064
  8
YODOROGO
 10
30021.604341291921
 20
1827.7494964292871
 30
0.0
 11
30081.604341291921
 21
1827.7494964292871
 31
0.0
  0
LINE
  5
D065
  8
YODOROGO
 10
30021.604341291921
 20
2027.749496429288
 30
0.0
 11
30021.604341291921
 21
1827.7494964292871
 31
0.0
  0
LINE
  5
D066
  8
YODOROGO
 10
30161.604341291921
 20
2027.749496429288
 30
0.0
 11
30217.604341291921
 21
2027.749496429288
 31
0.0
  0
LINE
  5
D067
  8
YODOROGO
 10
30161.604341291921
 20
1811.749496429288
 30
0.0
 11
30161.604341291921
 21
2027.749496429288
 31
0.0
  0
ARC
  5
D068
  8
YODOROGO
 10
30121.604341291921
 20
1811.749496429288
 30
0.0
 40
40.0
 50
270.0
 51
0.0
  0
LINE
  5
D069
  8
YODOROGO
 10
30021.604341291921
 20
1771.7494964292871
 30
0.0
 11
30121.604341291921
 21
1771.7494964292871
 31
0.0
  0
LINE
  5
D06A
  8
YODOROGO
 10
30021.604341291921
 20
1707.749496429288
 30
0.0
 11
30021.604341291921
 21
1771.7494964292871
 31
0.0
  0
LINE
  5
D06B
  8
YODOROGO
 10
30137.604341291921
 20
1707.749496429288
 30
0.0
 11
30021.604341291921
 21
1707.749496429288
 31
0.0
  0
ARC
  5
D06C
  8
YODOROGO
 10
30137.604341291921
 20
1787.7494964292871
 30
0.0
 40
80.0
 50
270.0
 51
0.0
  0
LINE
  5
D06D
  8
YODOROGO
 10
30217.604341291921
 20
2027.749496429288
 30
0.0
 11
30217.604341291921
 21
1787.7494964292871
 31
0.0
  0
LINE
  5
D06E
  8
YODOROGO
 10
29977.604341291921
 20
1947.749496429288
 30
0.0
 11
29977.604341291921
 21
1995.7494964292871
 31
0.0
1001
AUTOCAD_POSTSCRIPT_FIGURE
1002
{
1000
PSFILL
1000
Grayscale
1000
Grayscale
1070
    25
1002
}
  0
LINE
  5
D06F
  8
YODOROGO
 10
29977.604341291921
 20
1859.749496429288
 30
0.0
 11
29977.604341291921
 21
1907.7494964292871
 31
0.0
1001
AUTOCAD_POSTSCRIPT_FIGURE
1002
{
1000
PSFILL
1000
Grayscale
1000
Grayscale
1070
    25
1002
}
  0
LINE
  5
D070
  8
YODOROGO
 10
29977.604341291921
 20
1707.749496429288
 30
0.0
 11
29977.604341291921
 21
1819.7494964292871
 31
0.0
1001
AUTOCAD_POSTSCRIPT_FIGURE
1002
{
1000
PSFILL
1000
Grayscale
1000
Grayscale
1070
    25
1002
}
  0
LINE
  5
D071
  8
YODOROGO
 10
30381.604341291932
 20
1907.7494964292871
 30
0.0
 11
30497.604341291921
 21
2027.749496429288
 31
0.0
  0
LINE
  5
D072
  8
YODOROGO
 10
30381.604341291932
 20
1819.7494964292871
 30
0.0
 11
30381.604341291932
 21
1907.7494964292871
 31
0.0
  0
LINE
  5
D073
  8
YODOROGO
 10
30497.604341291921
 20
1939.749496429288
 30
0.0
 11
30381.604341291932
 21
1819.7494964292871
 31
0.0
  0
LINE
  5
D074
  8
YODOROGO
 10
30465.604341291921
 20
1679.749496429288
 30
0.0
 11
30465.604341291921
 21
1735.7494964292871
 31
0.0
  0
LINE
  5
D075
  8
YODOROGO
 10
30381.604341291932
 20
1679.749496429288
 30
0.0
 11
30465.604341291921
 21
1679.749496429288
 31
0.0
  0
LINE
  5
D076
  8
YODOROGO
 10
30529.604341291939
 20
1735.7494964292871
 30
0.0
 11
30529.604341291939
 21
1679.749496429288
 31
0.0
  0
LINE
  5
D077
  8
YODOROGO
 10
30381.604341291932
 20
1735.7494964292871
 30
0.0
 11
30381.604341291932
 21
1795.7494964292871
 31
0.0
  0
LINE
  5
D078
  8
YODOROGO
 10
30465.604341291921
 20
1735.7494964292871
 30
0.0
 11
30381.604341291932
 21
1735.7494964292871
 31
0.0
  0
LINE
  5
D079
  8
YODOROGO
 10
30645.604341291921
 20
2027.749496429288
 30
0.0
 11
30973.604341291921
 21
2027.749496429288
 31
0.0
  0
LINE
  5
D07A
  8
YODOROGO
 10
30925.604341291921
 20
1963.749496429286
 30
0.0
 11
30697.604341291932
 21
1963.749496429286
 31
0.0
  0
LINE
  5
D07B
  8
YODOROGO
 10
30873.604341291921
 20
1819.7494964292871
 30
0.0
 11
30899.604341291932
 21
1819.7494964292871
 31
0.0
  0
LINE
  5
D07C
  8
YODOROGO
 10
30899.604341291932
 20
1939.749496429288
 30
0.0
 11
30873.604341291921
 21
1819.7494964292871
 31
0.0
  0
LINE
  5
D07D
  8
YODOROGO
 10
30851.604341291939
 20
1939.749496429288
 30
0.0
 11
30899.604341291932
 21
1939.749496429288
 31
0.0
  0
LINE
  5
D07E
  8
YODOROGO
 10
30825.604341291921
 20
1819.7494964292871
 30
0.0
 11
30851.604341291939
 21
1939.749496429288
 31
0.0
  0
LINE
  5
D07F
  8
YODOROGO
 10
30797.604341291921
 20
1819.7494964292871
 30
0.0
 11
30825.604341291921
 21
1819.7494964292871
 31
0.0
  0
LINE
  5
D080
  8
YODOROGO
 10
30771.604341291939
 20
1939.749496429288
 30
0.0
 11
30797.604341291921
 21
1819.7494964292871
 31
0.0
  0
LINE
  5
D081
  8
YODOROGO
 10
30723.604341291921
 20
1939.749496429288
 30
0.0
 11
30771.604341291939
 21
1939.749496429288
 31
0.0
  0
LINE
  5
D082
  8
YODOROGO
 10
30749.604341291921
 20
1819.7494964292871
 30
0.0
 11
30723.604341291921
 21
1939.749496429288
 31
0.0
  0
LINE
  5
D083
  8
YODOROGO
 10
30723.604341291921
 20
1819.7494964292871
 30
0.0
 11
30749.604341291921
 21
1819.7494964292871
 31
0.0
  0
LINE
  5
D084
  8
YODOROGO
 10
30723.604341291921
 20
1755.7494964292871
 30
0.0
 11
30723.604341291921
 21
1819.7494964292871
 31
0.0
  0
LINE
  5
D085
  8
YODOROGO
 10
30899.604341291932
 20
1755.7494964292871
 30
0.0
 11
30723.604341291921
 21
1755.7494964292871
 31
0.0
  0
LINE
  5
D086
  8
YODOROGO
 10
30899.604341291932
 20
1819.7494964292871
 30
0.0
 11
30899.604341291932
 21
1755.7494964292871
 31
0.0
  0
LINE
  5
D087
  8
YODOROGO
 10
30617.604341291921
 20
1947.749496429288
 30
0.0
 11
30617.604341291921
 21
1859.749496429288
 31
0.0
  0
LINE
  5
D088
  8
YODOROGO
 10
30791.604341291921
 20
1755.7494964292871
 30
0.0
 11
30831.604341291921
 21
1755.7494964292871
 31
0.0
  0
LINE
  5
D089
  8
YODOROGO
 10
30723.604341291921
 20
1691.749496429288
 30
0.0
 11
30763.604341291921
 21
1691.749496429288
 31
0.0
  0
LINE
  5
D08A
  8
YODOROGO
 10
30859.604341291932
 20
1691.749496429288
 30
0.0
 11
30899.604341291932
 21
1691.749496429288
 31
0.0
  0
LINE
  5
D08B
  8
YODOROGO
 10
30617.604341291921
 20
1795.7494964292871
 30
0.0
 11
30617.604341291921
 21
1735.7494964292871
 31
0.0
  0
LINE
  5
D08C
  8
YODOROGO
 10
31165.604341291921
 20
2027.749496429288
 30
0.0
 11
31165.604341291921
 21
1963.749496429286
 31
0.0
  0
LINE
  5
D08D
  8
YODOROGO
 10
31533.604341291921
 20
1595.7494964292871
 30
0.0
 11
31533.60434129191
 21
1811.749496429288
 31
0.0
  0
LINE
  5
D08E
  8
YODOROGO
 10
31461.60434129191
 20
1987.7494964292871
 30
0.0
 11
31461.60434129191
 21
1635.7494964292871
 31
0.0
  0
LINE
  5
D08F
  8
YODOROGO
 10
31653.604341291921
 20
1427.749496429288
 30
0.0
 11
31653.60434129191
 21
1811.749496429288
 31
0.0
  0
LINE
  5
D090
  8
YODOROGO
 10
31589.604341291921
 20
1811.749496429288
 30
0.0
 11
31589.604341291921
 21
1427.749496429288
 31
0.0
  0
LINE
  5
D091
  8
YODOROGO
 10
31237.604341291921
 20
1595.7494964292871
 30
0.0
 11
31237.604341291921
 21
1707.749496429288
 31
0.0
  0
ARC
  5
D092
  8
YODOROGO
 10
31353.914865116069
 20
1607.790351288558
 30
0.0
 40
180.0924485759885
 50
268.62849102169793
 51
356.16638457330322
  0
LINE
  5
D093
  8
YODOROGO
 10
31349.604341291939
 20
1527.749496429288
 30
0.0
 11
31349.604341291939
 21
1427.749496429288
 31
0.0
  0
ARC
  5
D094
  8
YODOROGO
 10
31351.518075724562
 20
1637.838957017655
 30
0.0
 40
110.1060929836122
 50
269.00410209305932
 51
358.91264455492478
  0
LINE
  5
D095
  8
YODOROGO
 10
31589.604341291921
 20
1427.749496429288
 30
0.0
 11
31653.604341291921
 21
1427.749496429288
 31
0.0
  0
LINE
  5
D096
  8
YODOROGO
 10
31533.60434129191
 20
1811.749496429288
 30
0.0
 11
31589.604341291921
 21
1811.749496429288
 31
0.0
  0
LINE
  5
D097
  8
YODOROGO
 10
31621.604341291939
 20
1987.7494964292871
 30
0.0
 11
31461.60434129191
 21
1987.7494964292871
 31
0.0
  0
LINE
  5
D098
  8
YODOROGO
 10
31533.60434129191
 20
1915.7494964292871
 30
0.0
 11
31661.604341291939
 21
1915.7494964292871
 31
0.0
  0
LINE
  5
D099
  8
YODOROGO
 10
31701.604341291939
 20
1875.7494964292871
 30
0.0
 11
31533.60434129191
 21
1875.7494964292871
 31
0.0
  0
LINE
  5
D09A
  8
YODOROGO
 10
31237.604341291921
 20
1779.749496429288
 30
0.0
 11
31349.604341291939
 21
1779.749496429288
 31
0.0
  0
LINE
  5
D09B
  8
YODOROGO
 10
31237.604341291921
 20
1835.7494964292871
 30
0.0
 11
31237.604341291921
 21
1779.749496429288
 31
0.0
  0
LINE
  5
D09C
  8
YODOROGO
 10
31349.604341291939
 20
1835.7494964292871
 30
0.0
 11
31237.604341291921
 21
1835.7494964292871
 31
0.0
  0
LINE
  5
D09D
  8
YODOROGO
 10
31349.604341291939
 20
1779.749496429288
 30
0.0
 11
31349.604341291939
 21
1835.7494964292871
 31
0.0
  0
LINE
  5
D09E
  8
YODOROGO
 10
31533.60434129191
 20
1875.7494964292871
 30
0.0
 11
31533.60434129191
 21
1915.7494964292871
 31
0.0
  0
LINE
  5
D09F
  8
YODOROGO
 10
31413.604341291921
 20
1707.749496429288
 30
0.0
 11
31413.604341291921
 21
1907.7494964292871
 31
0.0
  0
LINE
  5
D0A0
  8
YODOROGO
 10
31237.604341291921
 20
1707.749496429288
 30
0.0
 11
31413.604341291921
 21
1707.749496429288
 31
0.0
  0
LINE
  5
D0A1
  8
YODOROGO
 10
31413.604341291921
 20
1963.749496429286
 30
0.0
 11
31413.604341291921
 21
2027.749496429288
 31
0.0
  0
ARC
  5
D0A2
  8
YODOROGO
 10
31621.604341291939
 20
2003.749496429285
 30
0.0
 40
15.999999999994539
 50
270.0
 51
0.0000000000081422
  0
LINE
  5
D0A3
  8
YODOROGO
 10
31637.604341291921
 20
2027.749496429288
 30
0.0
 11
31637.604341291921
 21
2003.7494964292871
 31
0.0
  0
LINE
  5
D0A4
  8
YODOROGO
 10
31701.604341291939
 20
2027.749496429288
 30
0.0
 11
31637.604341291921
 21
2027.749496429288
 31
0.0
  0
LINE
  5
D0A5
  8
YODOROGO
 10
31701.604341291939
 20
1955.7494964292871
 30
0.0
 11
31701.604341291939
 21
2027.749496429288
 31
0.0
  0
ARC
  5
D0A6
  8
YODOROGO
 10
31661.604341291939
 20
1955.7494964292871
 30
0.0
 40
40.0
 50
270.0
 51
0.0
  0
LINE
  5
D0A7
  8
YODOROGO
 10
31701.604341291939
 20
1811.749496429288
 30
0.0
 11
31701.604341291939
 21
1875.7494964292871
 31
0.0
  0
LINE
  5
D0A8
  8
YODOROGO
 10
31653.60434129191
 20
1811.749496429288
 30
0.0
 11
31701.604341291939
 21
1811.749496429288
 31
0.0
  0
LINE
  5
D0A9
  8
0-6
  6
CONTINUOUS
 62
     6
 10
5987.7031193205039
 20
19485.51576162122
 30
0.0
 11
6062.4228643911338
 21
19629.48775599994
 31
0.0
  0
LINE
  5
D0AA
  8
0-6
  6
CONTINUOUS
 62
     6
 10
6062.4228643911338
 20
19629.48775599994
 30
0.0
 11
5945.046821407479
 21
19517.530766322481
 31
0.0
  0
LINE
  5
D0AB
  8
0-6
  6
CONTINUOUS
 62
     6
 10
5945.046821407479
 20
19517.530766322481
 30
0.0
 11
5987.7031193205039
 21
19485.51576162122
 31
0.0
  0
LINE
  5
D0AC
  8
0-6
  6
CONTINUOUS
 62
     6
 10
5987.7031193205039
 20
16606.514257621209
 30
0.0
 11
6062.4228643911338
 21
16750.486251999941
 31
0.0
  0
LINE
  5
D0AD
  8
0-6
  6
CONTINUOUS
 62
     6
 10
6062.4228643911338
 20
16750.486251999941
 30
0.0
 11
5945.046821407479
 21
16638.529262322481
 31
0.0
  0
LINE
  5
D0AE
  8
0-6
  6
CONTINUOUS
 62
     6
 10
5945.046821407479
 20
16638.529262322481
 30
0.0
 11
5987.7031193205039
 21
16606.514257621209
 31
0.0
  0
LINE
  5
D0AF
  8
0-6
  6
CONTINUOUS
 62
     6
 10
5957.288594632706
 20
13301.514904621219
 30
0.0
 11
6032.008339703335
 21
13445.48689899994
 31
0.0
  0
LINE
  5
D0B0
  8
0-6
  6
CONTINUOUS
 62
     6
 10
6032.008339703335
 20
13445.48689899994
 30
0.0
 11
5914.6322967196802
 21
13333.52990932246
 31
0.0
  0
LINE
  5
D0B1
  8
0-6
  6
CONTINUOUS
 62
     6
 10
5914.6322967196802
 20
13333.52990932246
 30
0.0
 11
5957.288594632706
 21
13301.514904621219
 31
0.0
  0
LINE
  5
D0B2
  8
SUNPOU
  6
CONTINUOUS
 62
     4
 10
13474.616989100979
 20
13289.48697799999
 30
0.0
 11
14321.61676510096
 21
13289.48697799999
 31
0.0
  0
LINE
  5
D0B3
  8
SUNPOU
  6
CONTINUOUS
 62
     4
 10
14241.61676510096
 20
13481.986252000001
 30
0.0
 11
14241.61676510096
 21
13289.48697799999
 31
0.0
  0
LINE
  5
D0B4
  8
SUNPOU
  6
CONTINUOUS
 62
     4
 10
14241.61676510096
 20
16750.486251999992
 30
0.0
 11
14241.61676510096
 21
13481.986252000001
 31
0.0
  0
LINE
  5
D0B5
  8
SUNPOU
  6
CONTINUOUS
 62
     4
 10
14241.61676510096
 20
19668.486251999992
 30
0.0
 11
14241.61676510096
 21
16750.486251999992
 31
0.0
  0
LINE
  5
D0B6
  8
SUNPOU
  6
CONTINUOUS
 62
     4
 10
14161.61676510096
 20
19668.486251999992
 30
0.0
 11
14201.61676510096
 21
19668.486251999992
 31
0.0
  0
LINE
  5
D0B7
  8
SUNPOU
  6
CONTINUOUS
 62
     4
 10
13469.617715100971
 20
19890.98611999999
 30
0.0
 11
14281.61676510096
 21
19890.98611999999
 31
0.0
  0
LINE
  5
D0B8
  8
SUNPOU
  6
CONTINUOUS
 62
     4
 10
14241.61676510096
 20
19668.486251999992
 30
0.0
 11
14241.61676510096
 21
19890.98611999999
 31
0.0
  0
LINE
  5
D0B9
  8
SUNPOU
  6
CONTINUOUS
 62
     4
 10
13401.11687010095
 20
19880.989550999991
 30
0.0
 11
13921.617424100959
 21
19880.989550999991
 31
0.0
  0
LINE
  5
D0BA
  8
SUNPOU
  6
CONTINUOUS
 62
     4
 10
13469.617715100971
 20
19890.98611999999
 30
0.0
 11
13921.617424100959
 21
19890.98611999999
 31
0.0
  0
LINE
  5
D0BB
  8
SUNPOU
  6
CONTINUOUS
 62
     4
 10
13841.617424100959
 20
19880.989550999991
 30
0.0
 11
13841.617424100959
 21
19640.989550999991
 31
0.0
  0
LINE
  5
D0BC
  8
SUNPOU
  6
CONTINUOUS
 62
     4
 10
13841.617424100959
 20
19890.98611999999
 30
0.0
 11
13841.617424100959
 21
20130.98611999998
 31
0.0
  0
LINE
  5
D0BD
  8
SUNPOU
  6
CONTINUOUS
 62
     4
 10
13841.617424100959
 20
19880.989550999991
 30
0.0
 11
13841.617424100959
 21
19890.98611999999
 31
0.0
  0
LINE
  5
D0BE
  8
SUNPOU
  6
CONTINUOUS
 62
     4
 10
5394.1169891009777
 20
20515.988164999992
 30
0.0
 11
5394.1169891009777
 21
20590.987175999991
 31
0.0
  0
LINE
  5
D0BF
  8
SUNPOU
  6
CONTINUOUS
 62
     4
 10
5308.6169891009758
 20
19965.987834999982
 30
0.0
 11
5308.6169891009758
 21
20590.987175999991
 31
0.0
  0
LINE
  5
D0C0
  8
SUNPOU
  6
CONTINUOUS
 62
     4
 10
5394.1169891009777
 20
20510.987175999991
 30
0.0
 11
5634.1169891009768
 21
20510.987175999991
 31
0.0
  0
LINE
  5
D0C1
  8
SUNPOU
  6
CONTINUOUS
 62
     4
 10
5311.6169891009768
 20
20510.987175999991
 30
0.0
 11
5071.6169891009768
 21
20510.987175999991
 31
0.0
  0
LINE
  5
D0C2
  8
SUNPOU
  6
CONTINUOUS
 62
     4
 10
5394.1169891009777
 20
20510.987175999991
 30
0.0
 11
5311.6169891009768
 21
20510.987175999991
 31
0.0
  0
LINE
  5
D0C3
  8
SUNPOU
  6
CONTINUOUS
 62
     4
 10
10394.116989100959
 20
20515.988164999992
 30
0.0
 11
10394.116989100959
 21
20590.987175999991
 31
0.0
  0
LINE
  5
D0C4
  8
SUNPOU
  6
CONTINUOUS
 62
     4
 10
5394.1169891009777
 20
20515.988164999992
 30
0.0
 11
5394.1169891009777
 21
20590.987175999991
 31
0.0
  0
LINE
  5
D0C5
  8
SUNPOU
  6
CONTINUOUS
 62
     4
 10
10394.116989100959
 20
20510.987175999991
 30
0.0
 11
5394.1169891009777
 21
20510.987175999991
 31
0.0
  0
LINE
  5
D0C6
  8
SUNPOU
  6
CONTINUOUS
 62
     4
 10
13312.11698910097
 20
20040.987834999989
 30
0.0
 11
13312.11698910097
 21
20590.987175999991
 31
0.0
  0
LINE
  5
D0C7
  8
SUNPOU
  6
CONTINUOUS
 62
     4
 10
10394.116989100959
 20
20515.988164999992
 30
0.0
 11
10394.116989100959
 21
20590.987175999991
 31
0.0
  0
LINE
  5
D0C8
  8
SUNPOU
  6
CONTINUOUS
 62
     4
 10
13312.11698910097
 20
20510.987175999991
 30
0.0
 11
10394.116989100959
 21
20510.987175999991
 31
0.0
  0
LINE
  5
D0C9
  8
SUNPOU
  6
CONTINUOUS
 62
     4
 10
13312.11698910097
 20
20040.987834999989
 30
0.0
 11
13312.11698910097
 21
20590.987175999991
 31
0.0
  0
LINE
  5
D0CA
  8
SUNPOU
  6
CONTINUOUS
 62
     4
 10
13397.616989100979
 20
19960.987571999998
 30
0.0
 11
13397.616989100979
 21
20590.987175999991
 31
0.0
  0
LINE
  5
D0CB
  8
SUNPOU
  6
CONTINUOUS
 62
     4
 10
13312.11698910097
 20
20510.987175999991
 30
0.0
 11
13072.11698910097
 21
20510.987175999991
 31
0.0
  0
LINE
  5
D0CC
  8
SUNPOU
  6
CONTINUOUS
 62
     4
 10
13394.616989100979
 20
20510.987175999991
 30
0.0
 11
13634.616989100979
 21
20510.987175999991
 31
0.0
  0
LINE
  5
D0CD
  8
SUNPOU
  6
CONTINUOUS
 62
     4
 10
13312.11698910097
 20
20510.987175999991
 30
0.0
 11
13394.616989100979
 21
20510.987175999991
 31
0.0
  0
LINE
  5
D0CE
  8
SUNPOU
  6
CONTINUOUS
 62
     4
 10
13397.616989100979
 20
13209.48697799999
 30
0.0
 11
13397.616989100979
 21
11919.48618599998
 31
0.0
  0
LINE
  5
D0CF
  8
SUNPOU
  6
CONTINUOUS
 62
     4
 10
5308.6169891009758
 20
13209.486977999981
 30
0.0
 11
5308.6169891009758
 21
11919.48618599998
 31
0.0
  0
LINE
  5
D0D0
  8
SUNPOU
  6
CONTINUOUS
 62
     4
 10
13394.616989100979
 20
11999.48618599998
 30
0.0
 11
5311.6169891009768
 21
11999.48618599998
 31
0.0
  0
LINE
  5
D0D1
  8
SUNPOU
  6
CONTINUOUS
 62
     4
 10
26548.470723566788
 20
19790.986251999992
 30
0.0
 11
26548.470723566788
 21
20590.987175999991
 31
0.0
  0
LINE
  5
D0D2
  8
SUNPOU
  6
CONTINUOUS
 62
     4
 10
27306.470723566788
 20
19870.988758999989
 30
0.0
 11
27306.470723566788
 21
20590.987175999991
 31
0.0
  0
LINE
  5
D0D3
  8
SUNPOU
  6
CONTINUOUS
 62
     4
 10
26548.470723566788
 20
20510.987175999991
 30
0.0
 11
27306.470723566788
 21
20510.987175999991
 31
0.0
  0
LINE
  5
D0D4
  8
SUNPOU
  6
CONTINUOUS
 62
     4
 10
13748.00734467521
 20
8478.188374000003
 30
0.0
 11
13748.00734467521
 21
9869.1883999999955
 31
0.0
  0
LINE
  5
D0D5
  8
SUNPOU
  6
CONTINUOUS
 62
     4
 10
7146.5073446752067
 20
8610.0781974124293
 30
0.0
 11
7146.5073446752067
 21
9869.1883999999955
 31
0.0
  0
LINE
  5
D0D6
  8
SUNPOU
  6
CONTINUOUS
 62
     4
 10
13748.00734467521
 20
9789.1883999999955
 30
0.0
 11
7146.5073446752067
 21
9789.1883999999955
 31
0.0
  0
LINE
  5
D0D7
  8
SUNPOU
  6
CONTINUOUS
 62
     4
 10
7296.5073446752003
 20
8536.0984379999973
 30
0.0
 11
7296.5073446752003
 21
9469.1900499999992
 31
0.0
  0
LINE
  5
D0D8
  8
SUNPOU
  6
CONTINUOUS
 62
     4
 10
7146.5073446752067
 20
8610.0781974124293
 30
0.0
 11
7146.5073446752067
 21
9469.1900499999992
 31
0.0
  0
LINE
  5
D0D9
  8
SUNPOU
  6
CONTINUOUS
 62
     4
 10
7296.5073446752003
 20
9389.1900499999992
 30
0.0
 11
7536.5073446751967
 21
9389.1900499999992
 31
0.0
  0
LINE
  5
D0DA
  8
SUNPOU
  6
CONTINUOUS
 62
     4
 10
7146.5073446752067
 20
9389.1900499999992
 30
0.0
 11
6906.5073446752058
 21
9389.1900499999992
 31
0.0
  0
LINE
  5
D0DB
  8
SUNPOU
  6
CONTINUOUS
 62
     4
 10
7296.5073446752003
 20
9389.1900499999992
 30
0.0
 11
7146.5073446752067
 21
9389.1900499999992
 31
0.0
  0
LINE
  5
D0DC
  8
SUNPOU
  6
CONTINUOUS
 62
     4
 10
13568.00734467521
 20
8348.3741496838084
 30
0.0
 11
13568.00734467521
 21
9469.1900499999992
 31
0.0
  0
LINE
  5
D0DD
  8
SUNPOU
  6
CONTINUOUS
 62
     4
 10
7296.5073446752003
 20
8536.0984379999973
 30
0.0
 11
7296.5073446752003
 21
9469.1900499999992
 31
0.0
  0
LINE
  5
D0DE
  8
SUNPOU
  6
CONTINUOUS
 62
     4
 10
13568.00734467521
 20
9389.1900499999992
 30
0.0
 11
7296.5073446752003
 21
9389.1900499999992
 31
0.0
  0
LINE
  5
D0DF
  8
SUNPOU
  6
CONTINUOUS
 62
     4
 10
13748.00734467521
 20
8478.188374000003
 30
0.0
 11
13748.00734467521
 21
9469.1900499999992
 31
0.0
  0
LINE
  5
D0E0
  8
SUNPOU
  6
CONTINUOUS
 62
     4
 10
13568.00734467521
 20
8348.3741496838084
 30
0.0
 11
13568.00734467521
 21
9469.1900499999992
 31
0.0
  0
LINE
  5
D0E1
  8
SUNPOU
  6
CONTINUOUS
 62
     4
 10
13748.00734467521
 20
9389.1900499999992
 30
0.0
 11
13568.00734467521
 21
9389.1900499999992
 31
0.0
  0
LINE
  5
D0E2
  8
SUNPOU
  6
CONTINUOUS
 62
     4
 10
7204.0073446752076
 20
6241.1883740000012
 30
0.0
 11
6126.5069486752036
 21
6241.1883740000021
 31
0.0
  0
LINE
  5
D0E3
  8
SUNPOU
  6
CONTINUOUS
 62
     4
 10
7111.7000850758277
 20
8589.1883739999994
 30
0.0
 11
6126.5069486752036
 21
8589.1883739999994
 31
0.0
  0
LINE
  5
D0E4
  8
SUNPOU
  6
CONTINUOUS
 62
     4
 10
6206.5069486752036
 20
6241.1883740000012
 30
0.0
 11
6206.5069486752036
 21
8589.1883739999994
 31
0.0
  0
LINE
  5
D0E5
  8
SUNPOU
  6
CONTINUOUS
 62
     4
 10
13655.50734467519
 20
6241.1883740000012
 30
0.0
 11
14738.00774067519
 21
6241.1883740000003
 31
0.0
  0
LINE
  5
D0E6
  8
SUNPOU
  6
CONTINUOUS
 62
     4
 10
13828.00734467521
 20
8398.188374000003
 30
0.0
 11
14738.00774067519
 21
8398.188374000003
 31
0.0
  0
LINE
  5
D0E7
  8
SUNPOU
  6
CONTINUOUS
 62
     4
 10
14658.00774067519
 20
6241.1883740000003
 30
0.0
 11
14658.00774067519
 21
8398.188374000003
 31
0.0
  0
LINE
  5
D0E8
  8
SUNPOU
  6
CONTINUOUS
 62
     4
 10
13568.00734467521
 20
6161.1883740000012
 30
0.0
 11
13568.00734467521
 21
4461.1887039999956
 31
0.0
  0
LINE
  5
D0E9
  8
SUNPOU
  6
CONTINUOUS
 62
     4
 10
7296.5073446752003
 20
6161.1883740000012
 30
0.0
 11
7296.5073446752003
 21
4461.1887039999956
 31
0.0
  0
LINE
  5
D0EA
  8
SUNPOU
  6
CONTINUOUS
 62
     4
 10
13568.00734467521
 20
4541.1887039999938
 30
0.0
 11
7296.5073446752003
 21
4541.1887039999938
 31
0.0
  0
LINE
  5
D0EB
  8
SUNPOU
  6
CONTINUOUS
 62
     4
 10
7339.0073446752076
 20
5798.5361160000011
 30
0.0
 11
7339.0073446752076
 21
4861.1885389999989
 31
0.0
  0
LINE
  5
D0EC
  8
SUNPOU
  6
CONTINUOUS
 62
     4
 10
7296.5073446752003
 20
6161.1883740000012
 30
0.0
 11
7296.5073446752003
 21
4861.1885389999989
 31
0.0
  0
LINE
  5
D0ED
  8
SUNPOU
  6
CONTINUOUS
 62
     4
 10
7339.0073446752076
 20
4941.1885389999979
 30
0.0
 11
7579.0073446752076
 21
4941.1885389999979
 31
0.0
  0
LINE
  5
D0EE
  8
SUNPOU
  6
CONTINUOUS
 62
     4
 10
7296.5073446752003
 20
4941.1885389999979
 30
0.0
 11
7056.5073446752012
 21
4941.1885389999979
 31
0.0
  0
LINE
  5
D0EF
  8
SUNPOU
  6
CONTINUOUS
 62
     4
 10
7339.0073446752076
 20
4941.1885389999979
 30
0.0
 11
7296.5073446752003
 21
4941.1885389999979
 31
0.0
  0
LINE
  5
D0F0
  8
SUNPOU
  6
CONTINUOUS
 62
     4
 10
13525.507344675199
 20
5798.5361160000011
 30
0.0
 11
13525.507344675199
 21
4861.1885389999989
 31
0.0
  0
LINE
  5
D0F1
  8
SUNPOU
  6
CONTINUOUS
 62
     4
 10
13568.00734467521
 20
6161.1883740000012
 30
0.0
 11
13568.00734467521
 21
4861.1885389999989
 31
0.0
  0
LINE
  5
D0F2
  8
SUNPOU
  6
CONTINUOUS
 62
     4
 10
13525.507344675199
 20
4941.1885389999979
 30
0.0
 11
13285.507344675199
 21
4941.1885389999979
 31
0.0
  0
LINE
  5
D0F3
  8
SUNPOU
  6
CONTINUOUS
 62
     4
 10
13568.00734467521
 20
4941.1885389999979
 30
0.0
 11
13808.00734467521
 21
4941.1885389999979
 31
0.0
  0
LINE
  5
D0F4
  8
SUNPOU
  6
CONTINUOUS
 62
     4
 10
13525.507344675199
 20
4941.1885389999979
 30
0.0
 11
13568.00734467521
 21
4941.1885389999979
 31
0.0
  0
LINE
  5
D0F5
  8
SUNPOU
  6
CONTINUOUS
 62
     4
 10
10607.50734467519
 20
5798.5361160000011
 30
0.0
 11
10607.50734467519
 21
4861.1885389999989
 31
0.0
  0
LINE
  5
D0F6
  8
SUNPOU
  6
CONTINUOUS
 62
     4
 10
13525.507344675199
 20
5798.5361160000011
 30
0.0
 11
13525.507344675199
 21
4861.1885389999989
 31
0.0
  0
LINE
  5
D0F7
  8
SUNPOU
  6
CONTINUOUS
 62
     4
 10
10607.50734467519
 20
4941.1885389999979
 30
0.0
 11
13525.507344675199
 21
4941.1885389999979
 31
0.0
  0
LINE
  5
D0F8
  8
SUNPOU
  6
CONTINUOUS
 62
     4
 10
10607.50734467519
 20
5798.5361160000011
 30
0.0
 11
10607.50734467519
 21
4861.1885389999989
 31
0.0
  0
LINE
  5
D0F9
  8
SUNPOU
  6
CONTINUOUS
 62
     4
 10
7339.0073446752076
 20
5798.5361160000011
 30
0.0
 11
7339.0073446752076
 21
4861.1885389999989
 31
0.0
  0
LINE
  5
D0FA
  8
SUNPOU
  6
CONTINUOUS
 62
     4
 10
10607.50734467519
 20
4941.1885389999979
 30
0.0
 11
7339.0073446752076
 21
4941.1885389999979
 31
0.0
  0
LINE
  5
D0FB
  8
SUNPOU
  6
CONTINUOUS
 62
     4
 10
27391.970723566799
 20
8669.1883999999955
 30
0.0
 11
27391.970723566799
 21
9869.1329740000037
 31
0.0
  0
LINE
  5
D0FC
  8
SUNPOU
  6
CONTINUOUS
 62
     4
 10
19302.970723566788
 20
8669.1883999999955
 30
0.0
 11
19302.970723566788
 21
9869.1329740000037
 31
0.0
  0
LINE
  5
D0FD
  8
SUNPOU
  6
CONTINUOUS
 62
     4
 10
27388.970723566799
 20
9789.1329740000037
 30
0.0
 11
19305.970723566788
 21
9789.1329740000037
 31
0.0
  0
LINE
  5
D0FE
  8
SUNPOU
  6
CONTINUOUS
 62
     4
 10
19345.970723566781
 20
8669.1883999999955
 30
0.0
 11
19345.970723566781
 21
9469.1900499999992
 31
0.0
  0
LINE
  5
D0FF
  8
SUNPOU
  6
CONTINUOUS
 62
     4
 10
19302.970723566788
 20
8669.1883999999955
 30
0.0
 11
19302.970723566788
 21
9469.1900499999992
 31
0.0
  0
LINE
  5
D100
  8
SUNPOU
  6
CONTINUOUS
 62
     4
 10
19345.970723566781
 20
9389.1900499999992
 30
0.0
 11
19585.970723566788
 21
9389.1900499999992
 31
0.0
  0
LINE
  5
D101
  8
SUNPOU
  6
CONTINUOUS
 62
     4
 10
19345.970723566781
 20
9389.1900499999992
 30
0.0
 11
19065.970723566781
 21
9389.1900499999992
 31
0.0
  0
LINE
  5
D102
  8
SUNPOU
  6
CONTINUOUS
 62
     4
 10
19342.970723566781
 20
9389.1900499999992
 30
0.0
 11
19302.970723566788
 21
9389.1900499999992
 31
0.0
  0
LINE
  5
D103
  8
SUNPOU
  6
CONTINUOUS
 62
     4
 10
27348.970723566799
 20
8539.1884659999978
 30
0.0
 11
27348.970723566799
 21
9469.1900499999992
 31
0.0
  0
LINE
  5
D104
  8
SUNPOU
  6
CONTINUOUS
 62
     4
 10
27391.970723566799
 20
8669.1883999999955
 30
0.0
 11
27391.970723566799
 21
9469.1900499999992
 31
0.0
  0
LINE
  5
D105
  8
SUNPOU
  6
CONTINUOUS
 62
     4
 10
27348.970723566799
 20
9389.1900499999992
 30
0.0
 11
27108.970723566799
 21
9389.1900499999992
 31
0.0
  0
LINE
  5
D106
  8
SUNPOU
  6
CONTINUOUS
 62
     4
 10
27388.970723566799
 20
9389.1900499999992
 30
0.0
 11
27628.970723566799
 21
9389.1900499999992
 31
0.0
  0
LINE
  5
D107
  8
SUNPOU
  6
CONTINUOUS
 62
     4
 10
27348.970723566799
 20
9389.1900499999992
 30
0.0
 11
27388.970723566799
 21
9389.1900499999992
 31
0.0
  0
LINE
  5
D108
  8
SUNPOU
  6
CONTINUOUS
 62
     4
 10
24345.970723566781
 20
8539.1884659999978
 30
0.0
 11
24345.970723566781
 21
9469.1900499999992
 31
0.0
  0
LINE
  5
D109
  8
SUNPOU
  6
CONTINUOUS
 62
     4
 10
27348.970723566799
 20
8539.1884659999978
 30
0.0
 11
27348.970723566799
 21
9469.1900499999992
 31
0.0
  0
LINE
  5
D10A
  8
SUNPOU
  6
CONTINUOUS
 62
     4
 10
24345.970723566781
 20
9389.1900499999992
 30
0.0
 11
27348.970723566799
 21
9389.1900499999992
 31
0.0
  0
LINE
  5
D10B
  8
SUNPOU
  6
CONTINUOUS
 62
     4
 10
27436.47336256679
 20
6241.1883740000012
 30
0.0
 11
28879.572974271541
 21
6241.1883740000012
 31
0.0
  0
LINE
  5
D10C
  8
SUNPOU
  6
CONTINUOUS
 62
     4
 10
27468.970723566799
 20
8589.1883999999955
 30
0.0
 11
28879.572974271541
 21
8589.1883999999936
 31
0.0
  0
LINE
  5
D10D
  8
SUNPOU
  6
CONTINUOUS
 62
     4
 10
28799.572974271541
 20
6241.1883740000012
 30
0.0
 11
28799.572974271541
 21
8589.1883999999936
 31
0.0
  0
LINE
  5
D10E
  8
SUNPOU
  6
CONTINUOUS
 62
     4
 10
27436.47336256679
 20
6241.1883740000012
 30
0.0
 11
28236.474022566781
 21
6241.1883740000012
 31
0.0
  0
LINE
  5
D10F
  8
SUNPOU
  6
CONTINUOUS
 62
     4
 10
27343.974418566781
 20
8132.6883740000021
 30
0.0
 11
28236.474022566781
 21
8132.6883740000021
 31
0.0
  0
LINE
  5
D110
  8
SUNPOU
  6
CONTINUOUS
 62
     4
 10
28156.474022566781
 20
6241.1883740000012
 30
0.0
 11
28156.474022566781
 21
8132.6883740000021
 31
0.0
  0
LINE
  5
D111
  8
SUNPOU
  6
CONTINUOUS
 62
     4
 10
24342.970723566781
 20
6161.1883740000012
 30
0.0
 11
24342.970723566781
 21
5261.1883740000012
 31
0.0
  0
LINE
  5
D112
  8
SUNPOU
  6
CONTINUOUS
 62
     4
 10
19430.970723566781
 20
6061.1885389999989
 30
0.0
 11
19430.970723566781
 21
5261.1883740000012
 31
0.0
  0
LINE
  5
D113
  8
SUNPOU
  6
CONTINUOUS
 62
     4
 10
24342.970723566781
 20
5341.1883740000012
 30
0.0
 11
19430.970723566781
 21
5341.1883740000012
 31
0.0
  0
LINE
  5
D114
  8
SUNPOU
  6
CONTINUOUS
 62
     4
 10
27348.930770619259
 20
6161.1883740000012
 30
0.0
 11
27348.930770619259
 21
4461.1887040000529
 31
0.0
  0
LINE
  5
D115
  8
SUNPOU
  6
CONTINUOUS
 62
     4
 10
19345.970723566781
 20
6061.1885389999989
 30
0.0
 11
19345.970723566781
 21
4461.1887040000529
 31
0.0
  0
LINE
  5
D116
  8
SUNPOU
  6
CONTINUOUS
 62
     4
 10
27348.930770619259
 20
4541.1887040000547
 30
0.0
 11
19345.970723566781
 21
4541.1887040000547
 31
0.0
  0
LINE
  5
D117
  8
SUNPOU
  6
CONTINUOUS
 62
     4
 10
27306.470723566799
 20
5798.5361160000011
 30
0.0
 11
27306.470723566799
 21
4861.1885389999989
 31
0.0
  0
LINE
  5
D118
  8
SUNPOU
  6
CONTINUOUS
 62
     4
 10
27348.930770619259
 20
6161.1883740000012
 30
0.0
 11
27348.930770619259
 21
4861.1885389999989
 31
0.0
  0
LINE
  5
D119
  8
SUNPOU
  6
CONTINUOUS
 62
     4
 10
27306.470723566799
 20
4941.1885389999979
 30
0.0
 11
27066.470723566799
 21
4941.1885389999979
 31
0.0
  0
LINE
  5
D11A
  8
SUNPOU
  6
CONTINUOUS
 62
     4
 10
27348.930770619259
 20
4941.1885389999979
 30
0.0
 11
27588.930770619259
 21
4941.1885389999979
 31
0.0
  0
LINE
  5
D11B
  8
SUNPOU
  6
CONTINUOUS
 62
     4
 10
27306.470723566799
 20
4941.1885389999979
 30
0.0
 11
27348.930770619259
 21
4941.1885389999979
 31
0.0
  0
LINE
  5
D11C
  8
SUNPOU
  6
CONTINUOUS
 62
     4
 10
24388.470723566781
 20
5798.5361160000011
 30
0.0
 11
24388.470723566781
 21
4861.1885389999989
 31
0.0
  0
LINE
  5
D11D
  8
SUNPOU
  6
CONTINUOUS
 62
     4
 10
27306.470723566799
 20
5798.5361160000011
 30
0.0
 11
27306.470723566799
 21
4861.1885389999989
 31
0.0
  0
LINE
  5
D11E
  8
SUNPOU
  6
CONTINUOUS
 62
     4
 10
24388.470723566781
 20
4941.1885389999979
 30
0.0
 11
27306.470723566799
 21
4941.1885389999979
 31
0.0
  0
LINE
  5
D11F
  8
SUNPOU
  6
CONTINUOUS
 62
     4
 10
27212.47072356681
 20
6061.1885389999989
 30
0.0
 11
27212.47072356681
 21
5261.1883740000012
 31
0.0
  0
LINE
  5
D120
  8
SUNPOU
  6
CONTINUOUS
 62
     4
 10
24482.470723566799
 20
6061.1885389999989
 30
0.0
 11
24482.470723566799
 21
5261.1883740000012
 31
0.0
  0
LINE
  5
D121
  8
SUNPOU
  6
CONTINUOUS
 62
     4
 10
27212.47072356681
 20
5341.1883740000012
 30
0.0
 11
24482.470723566799
 21
5341.1883740000012
 31
0.0
  0
LINE
  5
D122
  8
SUNPOU
  6
CONTINUOUS
 62
     4
 10
19388.470723566781
 20
5798.5361160000011
 30
0.0
 11
19388.470723566781
 21
4861.1885389999989
 31
0.0
  0
LINE
  5
D123
  8
SUNPOU
  6
CONTINUOUS
 62
     4
 10
19345.970723566781
 20
6061.1885389999989
 30
0.0
 11
19345.970723566781
 21
4861.1885389999989
 31
0.0
  0
LINE
  5
D124
  8
SUNPOU
  6
CONTINUOUS
 62
     4
 10
19388.470723566781
 20
4941.1885389999979
 30
0.0
 11
19628.470723566781
 21
4941.1885389999979
 31
0.0
  0
LINE
  5
D125
  8
SUNPOU
  6
CONTINUOUS
 62
     4
 10
19345.970723566781
 20
4941.1885389999979
 30
0.0
 11
19105.970723566781
 21
4941.1885389999979
 31
0.0
  0
LINE
  5
D126
  8
SUNPOU
  6
CONTINUOUS
 62
     4
 10
19388.470723566781
 20
4941.1885389999979
 30
0.0
 11
19345.970723566781
 21
4941.1885389999979
 31
0.0
  0
LINE
  5
D127
  8
SUNPOU
  6
CONTINUOUS
 62
     4
 10
24388.470723566781
 20
5798.5361160000011
 30
0.0
 11
24388.470723566781
 21
4861.1885389999989
 31
0.0
  0
LINE
  5
D128
  8
SUNPOU
  6
CONTINUOUS
 62
     4
 10
19388.470723566781
 20
5798.5361160000011
 30
0.0
 11
19388.470723566781
 21
4861.1885389999989
 31
0.0
  0
LINE
  5
D129
  8
SUNPOU
  6
CONTINUOUS
 62
     4
 10
24388.470723566781
 20
4941.1885389999979
 30
0.0
 11
19388.470723566781
 21
4941.1885389999979
 31
0.0
  0
LINE
  5
D12A
  8
SUNPOU
  6
CONTINUOUS
 62
     4
 10
24345.970723566781
 20
8539.1884659999978
 30
0.0
 11
24345.970723566781
 21
9469.1900499999992
 31
0.0
  0
LINE
  5
D12B
  8
SUNPOU
  6
CONTINUOUS
 62
     4
 10
19345.970723566781
 20
8669.1883999999955
 30
0.0
 11
19345.970723566781
 21
9469.1900499999992
 31
0.0
  0
LINE
  5
D12C
  8
SUNPOU
  6
CONTINUOUS
 62
     4
 10
24345.970723566781
 20
9389.1900499999992
 30
0.0
 11
19345.970723566781
 21
9389.1900499999992
 31
0.0
  0
LINE
  5
D12D
  8
SUNPOU
  6
CONTINUOUS
 62
     4
 10
19265.970723566781
 20
6241.5026620000053
 30
0.0
 11
18056.14832527241
 21
6241.5026620000053
 31
0.0
  0
LINE
  5
D12E
  8
SUNPOU
  6
CONTINUOUS
 62
     4
 10
19225.970723566781
 20
8261.5026620000044
 30
0.0
 11
18056.14832527241
 21
8261.5026620000044
 31
0.0
  0
LINE
  5
D12F
  8
SUNPOU
  6
CONTINUOUS
 62
     4
 10
18136.14832527241
 20
6241.5026620000053
 30
0.0
 11
18136.14832527241
 21
8261.5026620000044
 31
0.0
  0
LINE
  5
D14B
  8
SUNPOU
  6
CONTINUOUS
 62
     4
 10
24388.470723566781
 20
19790.986251999992
 30
0.0
 11
24388.470723566781
 21
20590.987175999991
 31
0.0
  0
LINE
  5
D14C
  8
SUNPOU
  6
CONTINUOUS
 62
     4
 10
24345.970723566781
 20
19790.986251999992
 30
0.0
 11
24345.970723566781
 21
20590.987175999991
 31
0.0
  0
LINE
  5
D14D
  8
SUNPOU
  6
CONTINUOUS
 62
     4
 10
24388.470723566781
 20
20510.987175999991
 30
0.0
 11
24628.470723566781
 21
20510.987175999991
 31
0.0
  0
LINE
  5
D14E
  8
SUNPOU
  6
CONTINUOUS
 62
     4
 10
24345.970723566781
 20
20510.987175999991
 30
0.0
 11
24105.970723566781
 21
20510.987175999991
 31
0.0
  0
LINE
  5
D14F
  8
SUNPOU
  6
CONTINUOUS
 62
     4
 10
24388.470723566781
 20
20510.987175999991
 30
0.0
 11
24345.970723566781
 21
20510.987175999991
 31
0.0
  0
LINE
  5
D150
  8
SUNPOU
  6
CONTINUOUS
 62
     4
 10
25146.470723566781
 20
19790.986251999992
 30
0.0
 11
25146.470723566781
 21
20590.987175999991
 31
0.0
  0
LINE
  5
D151
  8
SUNPOU
  6
CONTINUOUS
 62
     4
 10
24388.470723566781
 20
19790.986251999992
 30
0.0
 11
24388.470723566781
 21
20590.987175999991
 31
0.0
  0
LINE
  5
D152
  8
SUNPOU
  6
CONTINUOUS
 62
     4
 10
25146.470723566781
 20
20510.987175999991
 30
0.0
 11
24388.470723566781
 21
20510.987175999991
 31
0.0
  0
LINE
  5
D153
  8
SUNPOU
  6
CONTINUOUS
 62
     4
 10
25847.470723566781
 20
19790.986251999992
 30
0.0
 11
25847.470723566781
 21
20590.987175999991
 31
0.0
  0
LINE
  5
D154
  8
SUNPOU
  6
CONTINUOUS
 62
     4
 10
25146.470723566781
 20
19790.986251999992
 30
0.0
 11
25146.470723566781
 21
20590.987175999991
 31
0.0
  0
LINE
  5
D155
  8
SUNPOU
  6
CONTINUOUS
 62
     4
 10
25847.470723566781
 20
20510.987175999991
 30
0.0
 11
25146.470723566781
 21
20510.987175999991
 31
0.0
  0
LINE
  5
D156
  8
SUNPOU
  6
CONTINUOUS
 62
     4
 10
26548.470723566788
 20
19790.986251999992
 30
0.0
 11
26548.470723566788
 21
20590.987175999991
 31
0.0
  0
LINE
  5
D157
  8
SUNPOU
  6
CONTINUOUS
 62
     4
 10
25847.470723566781
 20
19790.986251999992
 30
0.0
 11
25847.470723566781
 21
20590.987175999991
 31
0.0
  0
LINE
  5
D158
  8
SUNPOU
  6
CONTINUOUS
 62
     4
 10
26548.470723566788
 20
20510.987175999991
 30
0.0
 11
25847.470723566781
 21
20510.987175999991
 31
0.0
  0
LINE
  5
D159
  8
SUNPOU
  6
CONTINUOUS
 62
     4
 10
27306.470723566788
 20
19870.988758999989
 30
0.0
 11
27306.470723566788
 21
20590.987175999991
 31
0.0
  0
LINE
  5
D15A
  8
SUNPOU
  6
CONTINUOUS
 62
     4
 10
27348.970723566788
 20
19790.986251999992
 30
0.0
 11
27348.970723566788
 21
20590.987175999991
 31
0.0
  0
LINE
  5
D15B
  8
SUNPOU
  6
CONTINUOUS
 62
     4
 10
27306.470723566788
 20
20510.987175999991
 30
0.0
 11
27066.470723566788
 21
20510.987175999991
 31
0.0
  0
LINE
  5
D15C
  8
SUNPOU
  6
CONTINUOUS
 62
     4
 10
27348.970723566788
 20
20510.987175999991
 30
0.0
 11
27588.970723566788
 21
20510.987175999991
 31
0.0
  0
LINE
  5
D15D
  8
SUNPOU
  6
CONTINUOUS
 62
     4
 10
27306.470723566788
 20
20510.987175999991
 30
0.0
 11
27348.970723566788
 21
20510.987175999991
 31
0.0
  0
LINE
  5
D16B
  8
SUNPOU
  6
CONTINUOUS
 62
     4
 10
24388.470723566781
 20
20910.987175999991
 30
0.0
 11
19388.470723566781
 21
20910.987175999991
 31
0.0
  0
LINE
  5
D16C
  8
SUNPOU
  6
CONTINUOUS
 62
     4
 10
27306.470723566788
 20
20910.987175999991
 30
0.0
 11
24388.470723566781
 21
20910.987175999991
 31
0.0
  0
LINE
  5
D16D
  8
SUNPOU
  6
CONTINUOUS
 62
     4
 10
19388.470723566781
 20
20035.43602587733
 30
0.0
 11
19388.470723566781
 21
20590.987175999991
 31
0.0
  0
LINE
  5
D16E
  8
SUNPOU
  6
CONTINUOUS
 62
     4
 10
19430.972966566769
 20
19874.336515999988
 30
0.0
 11
19430.972966566769
 21
20590.987175999991
 31
0.0
  0
LINE
  5
D16F
  8
SUNPOU
  6
CONTINUOUS
 62
     4
 10
19388.470723566781
 20
20510.987175999991
 30
0.0
 11
19148.470723566781
 21
20510.987175999991
 31
0.0
  0
LINE
  5
D170
  8
SUNPOU
  6
CONTINUOUS
 62
     4
 10
19430.972966566769
 20
20510.987175999991
 30
0.0
 11
19670.972966566769
 21
20510.987175999991
 31
0.0
  0
LINE
  5
D171
  8
SUNPOU
  6
CONTINUOUS
 62
     4
 10
19388.470723566781
 20
20510.987175999991
 30
0.0
 11
19430.972966566769
 21
20510.987175999991
 31
0.0
  0
LINE
  5
D172
  8
SUNPOU
  6
CONTINUOUS
 62
     4
 10
19388.470723566781
 20
20035.43602587733
 30
0.0
 11
19388.470723566781
 21
20590.987175999991
 31
0.0
  0
LINE
  5
D173
  8
SUNPOU
  6
CONTINUOUS
 62
     4
 10
19345.97243856678
 20
19870.988758999989
 30
0.0
 11
19345.97243856678
 21
20590.987175999991
 31
0.0
  0
LINE
  5
D174
  8
SUNPOU
  6
CONTINUOUS
 62
     4
 10
19388.470723566781
 20
20510.987175999991
 30
0.0
 11
19628.470723566781
 21
20510.987175999991
 31
0.0
  0
LINE
  5
D175
  8
SUNPOU
  6
CONTINUOUS
 62
     4
 10
19345.97243856678
 20
20510.987175999991
 30
0.0
 11
19105.97243856678
 21
20510.987175999991
 31
0.0
  0
LINE
  5
D176
  8
SUNPOU
  6
CONTINUOUS
 62
     4
 10
19388.470723566781
 20
20510.987175999991
 30
0.0
 11
19345.97243856678
 21
20510.987175999991
 31
0.0
  0
LINE
  5
D177
  8
SUNPOU
  6
CONTINUOUS
 62
     4
 10
19003.86588761484
 20
16750.486251999992
 30
0.0
 11
18090.627099198158
 21
16750.486251999992
 31
0.0
  0
LINE
  5
D178
  8
SUNPOU
  6
CONTINUOUS
 62
     4
 10
19003.86588761484
 20
19668.486251999992
 30
0.0
 11
18090.627099198158
 21
19668.486251999992
 31
0.0
  0
LINE
  5
D179
  8
SUNPOU
  6
CONTINUOUS
 62
     4
 10
18170.627099198158
 20
16750.486251999992
 30
0.0
 11
18170.627099198158
 21
19668.486251999992
 31
0.0
  0
LINE
  5
D17A
  8
SUNPOU
  6
CONTINUOUS
 62
     4
 10
19003.86588761484
 20
13481.986252000001
 30
0.0
 11
18090.627099198158
 21
13481.986252000001
 31
0.0
  0
LINE
  5
D17B
  8
SUNPOU
  6
CONTINUOUS
 62
     4
 10
19003.86588761484
 20
16750.486251999992
 30
0.0
 11
18090.627099198158
 21
16750.486251999992
 31
0.0
  0
LINE
  5
D17C
  8
SUNPOU
  6
CONTINUOUS
 62
     4
 10
18170.627099198158
 20
13481.986252000001
 30
0.0
 11
18170.627099198158
 21
16750.486251999992
 31
0.0
  0
ARC
  5
D194
  8
1-前柱P
 10
19378.870723566761
 20
13550.386252
 30
0.0
 40
1.0
 50
0.0
 51
90.0
  0
LINE
  5
D195
  8
1-前柱P
 10
19379.870723566761
 20
13550.386252
 30
0.0
 11
19379.870723566761
 21
13548.786252
 31
0.0
  0
LINE
  5
D196
  8
1-前柱P
 10
19379.870723566761
 20
13548.786252
 30
0.0
 11
19391.07072356678
 21
13548.786252
 31
0.0
  0
LINE
  5
D197
  8
1-前柱P
 10
19391.07072356678
 20
13548.786252
 30
0.0
 11
19391.07072356678
 21
13550.386252
 31
0.0
  0
ARC
  5
D198
  8
1-前柱P
 10
19392.07072356678
 20
13550.386252
 30
0.0
 40
1.0
 50
90.0
 51
180.0
  0
ARC
  5
D199
  8
1-中柱P
 10
19395.07072356678
 20
16818.786252000002
 30
0.0
 40
1.0
 50
90.0
 51
180.0
  0
LINE
  5
D19A
  8
1-中柱P
 10
19394.07072356678
 20
16818.786252000002
 30
0.0
 11
19394.07072356678
 21
16817.186252
 31
0.0
  0
LINE
  5
D19B
  8
1-中柱P
 10
19394.07072356678
 20
16817.186252
 30
0.0
 11
19382.870723566761
 21
16817.186252
 31
0.0
  0
LINE
  5
D19C
  8
1-中柱P
 10
19382.870723566761
 20
16817.186252
 30
0.0
 11
19382.870723566761
 21
16818.786252000002
 31
0.0
  0
ARC
  5
D19D
  8
1-中柱P
 10
19381.870723566772
 20
16818.786252000002
 30
0.0
 40
1.0
 50
0.0
 51
90.0
  0
ARC
  5
D19E
  8
1-後柱P
 10
19398.07072356678
 20
19600.436251999981
 30
0.0
 40
1.0
 50
180.0
 51
270.0
  0
LINE
  5
D19F
  8
1-後柱P
 10
19397.07072356678
 20
19600.436251999981
 30
0.0
 11
19397.07072356678
 21
19602.036252000002
 31
0.0
  0
LINE
  5
D1A0
  8
1-後柱P
 10
19397.07072356678
 20
19602.036252000002
 30
0.0
 11
19385.870723566761
 21
19602.036252000002
 31
0.0
  0
LINE
  5
D1A1
  8
1-後柱P
 10
19385.870723566761
 20
19602.036252000002
 30
0.0
 11
19385.870723566761
 21
19600.436251999981
 31
0.0
  0
ARC
  5
D1A2
  8
1-後柱P
 10
19384.870723566772
 20
19600.436251999981
 30
0.0
 40
1.0
 50
270.0
 51
0.0
  0
LINE
  5
D1A3
  8
0-6
  6
CONTINUOUS
 62
     6
 10
8783.8441911840928
 20
15445.54700102031
 30
0.0
 11
8903.6989180906112
 21
15554.87809797553
 31
0.0
  0
LINE
  5
D1A4
  8
0-6
  6
CONTINUOUS
 62
     6
 10
8903.6989180906112
 20
15554.87809797553
 30
0.0
 11
8825.77352005383
 21
15412.589389132991
 31
0.0
  0
LINE
  5
D1A5
  8
0-6
  6
CONTINUOUS
 62
     6
 10
8825.77352005383
 20
15412.589389132991
 30
0.0
 11
8783.8441911840928
 21
15445.54700102031
 31
0.0
  0
LINE
  5
D1A6
  8
0-6
  6
CONTINUOUS
 62
     6
 10
12298.81629518744
 20
16944.10254427827
 30
0.0
 11
12330.455941556191
 21
16784.988192000001
 31
0.0
  0
LINE
  5
D1A7
  8
0-6
  6
CONTINUOUS
 62
     6
 10
12330.455941556191
 20
16784.988192000001
 30
0.0
 11
12248.92981565383
 21
16925.24486784335
 31
0.0
  0
LINE
  5
D1A8
  8
0-6
  6
CONTINUOUS
 62
     6
 10
12248.92981565383
 20
16925.24486784335
 30
0.0
 11
12298.81629518744
 21
16944.10254427827
 31
0.0
  0
LINE
  5
D1A9
  8
0-6
  6
CONTINUOUS
 62
     6
 10
19521.942573354921
 20
19452.88947925335
 30
0.0
 11
19415.614549406961
 21
19575.385710999999
 31
0.0
  0
LINE
  5
D1AA
  8
0-6
  6
CONTINUOUS
 62
     6
 10
19415.614549406961
 20
19575.385710999999
 30
0.0
 11
19476.46666900022
 21
19425.024404324551
 31
0.0
  0
LINE
  5
D1AB
  8
0-6
  6
CONTINUOUS
 62
     6
 10
19476.46666900022
 20
19425.024404324551
 30
0.0
 11
19521.942573354921
 21
19452.88947925335
 31
0.0
  0
LINE
  5
D1AC
  8
0-6
  6
CONTINUOUS
 62
     6
 10
19464.93117418453
 20
19868.7030359327
 30
0.0
 11
19395.887495742511
 21
19721.924475045871
 31
0.0
  0
LINE
  5
D1AD
  8
0-6
  6
CONTINUOUS
 62
     6
 10
19395.887495742511
 20
19721.924475045871
 30
0.0
 11
19508.804495921671
 21
19838.377272670841
 31
0.0
  0
LINE
  5
D1AE
  8
0-6
  6
CONTINUOUS
 62
     6
 10
19508.804495921671
 20
19838.377272670841
 30
0.0
 11
19464.93117418453
 21
19868.7030359327
 31
0.0
  0
LINE
  5
D1AF
  8
0-6
  6
CONTINUOUS
 62
     6
 10
19521.942573354921
 20
16935.082047746651
 30
0.0
 11
19415.614549406961
 21
16812.585815999999
 31
0.0
  0
LINE
  5
D1B0
  8
0-6
  6
CONTINUOUS
 62
     6
 10
19415.614549406961
 20
16812.585815999999
 30
0.0
 11
19476.46666900022
 21
16962.947122675439
 31
0.0
  0
LINE
  5
D1B1
  8
0-6
  6
CONTINUOUS
 62
     6
 10
19476.46666900022
 20
16962.947122675439
 30
0.0
 11
19521.942573354921
 21
16935.082047746651
 31
0.0
  0
LINE
  5
D1B2
  8
0-6
  6
CONTINUOUS
 62
     6
 10
19521.942573354921
 20
13677.082483746661
 30
0.0
 11
19415.614549406961
 21
13554.586251999999
 31
0.0
  0
LINE
  5
D1B3
  8
0-6
  6
CONTINUOUS
 62
     6
 10
19415.614549406961
 20
13554.586251999999
 30
0.0
 11
19476.46666900022
 21
13704.947558675451
 31
0.0
  0
LINE
  5
D1B4
  8
0-6
  6
CONTINUOUS
 62
     6
 10
19476.46666900022
 20
13704.947558675451
 30
0.0
 11
19521.942573354921
 21
13677.082483746661
 31
0.0
  0
LINE
  5
D1B5
  8
0-6
  6
CONTINUOUS
 62
     6
 10
19464.931174184509
 20
16519.268491067302
 30
0.0
 11
19395.887495742511
 21
16666.047051954109
 31
0.0
  0
LINE
  5
D1B6
  8
0-6
  6
CONTINUOUS
 62
     6
 10
19395.887495742511
 20
16666.047051954109
 30
0.0
 11
19508.804495921671
 21
16549.594254329138
 31
0.0
  0
LINE
  5
D1B7
  8
0-6
  6
CONTINUOUS
 62
     6
 10
19508.804495921671
 20
16549.594254329138
 30
0.0
 11
19464.931174184509
 21
16519.268491067302
 31
0.0
  0
LINE
  5
D1B8
  8
0-6
  6
CONTINUOUS
 62
     6
 10
19464.931174184509
 20
13281.207691113181
 30
0.0
 11
19395.887495742511
 21
13427.986252000001
 31
0.0
  0
LINE
  5
D1B9
  8
0-6
  6
CONTINUOUS
 62
     6
 10
19395.887495742511
 20
13427.986252000001
 30
0.0
 11
19508.804495921671
 21
13311.53345437502
 31
0.0
  0
LINE
  5
D1BA
  8
0-6
  6
CONTINUOUS
 62
     6
 10
19508.804495921671
 20
13311.53345437502
 30
0.0
 11
19464.931174184509
 21
13281.207691113181
 31
0.0
  0
LINE
  5
D1BB
  8
0-6
  6
CONTINUOUS
 62
     6
 10
5261.6072368009773
 20
15133.93298675484
 30
0.0
 11
5307.8975284666221
 21
15289.39418566413
 31
0.0
  0
LINE
  5
D1BC
  8
0-6
  6
CONTINUOUS
 62
     6
 10
5307.8975284666221
 20
15289.39418566413
 30
0.0
 11
5213.6881424699086
 21
15157.3483807544
 31
0.0
  0
LINE
  5
D1BD
  8
0-6
  6
CONTINUOUS
 62
     6
 10
5213.6881424699086
 20
15157.3483807544
 30
0.0
 11
5261.6072368009773
 21
15133.93298675484
 31
0.0
  0
TEXT
  5
D1C3
  8
0
  6
CONTINUOUS
 62
     7
 10
18090.627099198151
 20
14716.236252000001
 30
0.0
 40
160.0
  1
3268.5
 50
90.0
  0
TEXT
  5
D1C4
  8
0
  6
CONTINUOUS
 62
     7
 10
18090.627099198151
 20
17942.819585333331
 30
0.0
 40
160.0
  1
2918
 50
90.0
  0
TEXT
  5
D1C5
  8
0
  6
CONTINUOUS
 62
     7
 10
18767.548795566781
 20
20590.985459999989
 30
0.0
 40
160.0
  1
42.5
  0
TEXT
  5
D1C6
  8
0
  6
CONTINUOUS
 62
     7
 10
19445.644762566761
 20
20610.329315999999
 30
0.0
 40
160.0
  1
42.5
  0
TEXT
  5
D1C7
  8
0
  6
CONTINUOUS
 62
     7
 10
25580.80405690011
 20
20990.987175999991
 30
0.0
 40
160.0
  1
2918
  0
TEXT
  5
D1C8
  8
0
  6
CONTINUOUS
 62
     7
 10
21635.137390233449
 20
20990.987175999991
 30
0.0
 40
160.0
  1
5000
  0
TEXT
  5
D1CC
  8
0
  6
CONTINUOUS
 62
     7
 10
27363.644762566761
 20
20610.329315999999
 30
0.0
 40
160.0
  1
42.5
  0
TEXT
  5
D1CD
  8
0
  6
CONTINUOUS
 62
     7
 10
26024.637390233449
 20
20592.697860462478
 30
0.0
 40
160.0
  1
701
  0
TEXT
  5
D1CE
  8
0
  6
CONTINUOUS
 62
     7
 10
25323.637390233442
 20
20590.987175999991
 30
0.0
 40
160.0
  1
701
  0
TEXT
  5
D1CF
  8
0
  6
CONTINUOUS
 62
     7
 10
24542.887390233449
 20
20590.987175999991
 30
0.0
 40
160.0
  1
758
  0
TEXT
  5
D1D0
  8
0
  6
CONTINUOUS
 62
     7
 10
23767.548795566789
 20
20590.987175999991
 30
0.0
 40
160.0
  1
42.5
  0
TEXT
  5
D1DA
  8
0
  6
CONTINUOUS
 62
     7
 10
18056.14832527241
 20
6588.5026620000071
 30
0.0
 40
160.0
  1
有効高サ2020
 50
90.0
  0
TEXT
  5
D1DB
  8
0
  6
CONTINUOUS
 62
     7
 10
21592.63739023346
 20
9469.1900499999992
 30
0.0
 40
160.0
  1
5000
  0
TEXT
  5
D1DC
  8
0
  6
CONTINUOUS
 62
     7
 10
21635.13739023346
 20
5021.1885389999989
 30
0.0
 40
160.0
  1
5000
  0
TEXT
  5
D1DD
  8
0
  6
CONTINUOUS
 62
     7
 10
18745.97006356679
 20
5021.1883080000007
 30
0.0
 40
160.0
  1
42.5
  0
TEXT
  5
D1DE
  8
0
  6
CONTINUOUS
 62
     7
 10
25087.470723566799
 20
5421.1883740000012
 30
0.0
 40
160.0
  1
有効開口巾2730
  0
TEXT
  5
D1DF
  8
0
  6
CONTINUOUS
 62
     7
 10
25580.804056900131
 20
5021.1885389999989
 30
0.0
 40
160.0
  1
2918
  0
TEXT
  5
D1E0
  8
0
  6
CONTINUOUS
 62
     7
 10
27448.793754566799
 20
5028.7357169999987
 30
0.0
 40
160.0
  1
42.5
  0
TEXT
  5
D1E1
  8
0
  6
CONTINUOUS
 62
     7
 10
23080.784080426361
 20
4621.188704000052
 30
0.0
 40
160.0
  1
8003
  0
TEXT
  5
D1E2
  8
0
  6
CONTINUOUS
 62
     7
 10
21140.30405690012
 20
5421.1883740000012
 30
0.0
 40
160.0
  1
有効開口巾4912
  0
TEXT
  5
D1E3
  8
0
  6
CONTINUOUS
 62
     7
 10
28076.474022566781
 20
6264.271707333337
 30
0.0
 40
160.0
  1
有効開口高サ1891.5
 50
90.0
  0
TEXT
  5
D1E4
  8
0
  6
CONTINUOUS
 62
     7
 10
28719.572974271541
 20
6609.855053666668
 30
0.0
 40
160.0
  1
2348（2588）
 50
90.0
  0
TEXT
  5
D1E5
  8
0
  6
CONTINUOUS
 62
     7
 10
25580.804056900131
 20
9469.1900499999992
 30
0.0
 40
160.0
  1
3003
  0
TEXT
  5
D1E6
  8
0
  6
CONTINUOUS
 62
     7
 10
27478.778709566799
 20
9469.1893240000027
 30
0.0
 40
160.0
  1
43
  0
TEXT
  5
D1E7
  8
0
  6
CONTINUOUS
 62
     7
 10
18928.50490356678
 20
9469.1893240000027
 30
0.0
 40
160.0
  1
43
  0
TEXT
  5
D1E8
  8
0
  6
CONTINUOUS
 62
     7
 10
23067.470723566799
 20
9869.1329740000037
 30
0.0
 40
160.0
  1
8089
  0
TEXT
  5
D1E9
  8
0
  6
CONTINUOUS
 62
     7
 10
8573.2573446752067
 20
5021.1885389999989
 30
0.0
 40
160.0
  1
3268.5
  0
TEXT
  5
D1EA
  8
0
  6
CONTINUOUS
 62
     7
 10
11799.840678008541
 20
5021.1885389999989
 30
0.0
 40
160.0
  1
2918
  0
TEXT
  5
D1EB
  8
0
  6
CONTINUOUS
 62
     7
 10
13669.99695867519
 20
5022.1790569999976
 30
0.0
 40
160.0
  1
42.5
  0
TEXT
  5
D1EC
  8
0
  6
CONTINUOUS
 62
     7
 10
6696.5056946752011
 20
5021.1883080000007
 30
0.0
 40
160.0
  1
42.5
  0
TEXT
  5
D1ED
  8
0
  6
CONTINUOUS
 62
     7
 10
10058.92401134186
 20
4621.1887039999974
 30
0.0
 40
160.0
  1
6271.5
  0
TEXT
  5
D1EE
  8
0
  6
CONTINUOUS
 62
     7
 10
14578.00774067519
 20
6541.021707333337
 30
0.0
 40
160.0
  1
2157（2397）
 50
90.0
  0
TEXT
  5
D1EF
  8
0
  6
CONTINUOUS
 62
     7
 10
6126.5069486752018
 20
6609.8550406666691
 30
0.0
 40
160.0
  1
2348（2588）
 50
90.0
  0
TEXT
  5
D1F0
  8
0
  6
CONTINUOUS
 62
     7
 10
13855.68249314362
 20
9469.1900499999992
 30
0.0
 40
160.0
  1
180
  0
TEXT
  5
D1F1
  8
0
  6
CONTINUOUS
 62
     7
 10
10058.92401134186
 20
9469.1900499999992
 30
0.0
 40
160.0
  1
6271.5
  0
TEXT
  5
D1F2
  8
0
  6
CONTINUOUS
 62
     7
 10
6733.1740113418728
 20
9469.1900499999992
 30
0.0
 40
160.0
  1
150
  0
TEXT
  5
D1F3
  8
0
  6
CONTINUOUS
 62
     7
 10
10087.257344675199
 20
9869.1883999999955
 30
0.0
 40
160.0
  1
6601.5
  0
TEXT
  5
D1F4
  8
0
  6
CONTINUOUS
 62
     7
 10
26714.137390233449
 20
20590.987175999991
 30
0.0
 40
160.0
  1
758
  0
TEXT
  5
D1F5
  8
0
  6
CONTINUOUS
 62
     7
 10
8598.4503224343098
 20
12079.48618599998
 30
0.0
 40
160.0
  1
ケラバ外寸8089
  0
TEXT
  5
D1F6
  8
0
  6
CONTINUOUS
 62
     7
 10
13407.26413310096
 20
20590.985459999989
 30
0.0
 40
160.0
  1
85.5
  0
TEXT
  5
D1F7
  8
0
  6
CONTINUOUS
 62
     7
 10
11586.450322434301
 20
20590.987175999991
 30
0.0
 40
160.0
  1
2918
  0
TEXT
  5
D1F8
  8
0
  6
CONTINUOUS
 62
     7
 10
7640.783655767641
 20
20590.987175999991
 30
0.0
 40
160.0
  1
5000
  0
TEXT
  5
D1F9
  8
0
  6
CONTINUOUS
 62
     7
 10
4767.7692011009631
 20
20590.985459999989
 30
0.0
 40
160.0
  1
85.5
  0
TEXT
  5
D1FA
  8
0
  6
CONTINUOUS
 62
     7
 10
13793.01049349612
 20
20062.414980666661
 30
0.0
 40
160.0
  1
10
 50
90.0
  0
TEXT
  5
D1FB
  8
0
  6
CONTINUOUS
 62
     7
 10
14161.61676510096
 20
19969.467774389232
 30
0.0
 40
160.0
  1
222.5
 50
90.0
  0
TEXT
  5
D1FC
  8
0
  6
CONTINUOUS
 62
     7
 10
14161.61676510096
 20
17942.819585333331
 30
0.0
 40
160.0
  1
2918
 50
90.0
  0
TEXT
  5
D1FD
  8
0
  6
CONTINUOUS
 62
     7
 10
14161.61676510096
 20
14716.236252000001
 30
0.0
 40
160.0
  1
3268.5
 50
90.0
  0
TEXT
  5
D1FE
  8
0
  6
CONTINUOUS
 62
     7
 10
14161.61676510096
 20
12625.497349590551
 30
0.0
 40
160.0
  1
192.5
 50
90.0
  0
ARC
  5
D1FF
  8
0
  6
BYBLOCK
 62
     0
 10
14241.61676510096
 20
13481.986252000001
 30
0.0
 40
15.0
 50
270.0
 51
90.0
  0
ARC
  5
D200
  8
0
  6
BYBLOCK
 62
     0
 10
14241.61676510096
 20
13481.986252000001
 30
0.0
 40
15.0
 50
90.0
 51
270.0
  0
ARC
  5
D201
  8
0
  6
BYBLOCK
 62
     0
 10
14241.61676510096
 20
13289.48697799999
 30
0.0
 40
15.0
 50
90.0
 51
270.0
  0
ARC
  5
D202
  8
0
  6
BYBLOCK
 62
     0
 10
14241.61676510096
 20
13289.48697799999
 30
0.0
 40
15.0
 50
270.0
 51
90.0
  0
ARC
  5
D203
  8
0
  6
BYBLOCK
 62
     0
 10
14241.61676510096
 20
16750.486251999992
 30
0.0
 40
15.0
 50
270.0
 51
90.0
  0
ARC
  5
D204
  8
0
  6
BYBLOCK
 62
     0
 10
14241.61676510096
 20
16750.486251999992
 30
0.0
 40
15.0
 50
90.0
 51
270.0
  0
ARC
  5
D205
  8
0
  6
BYBLOCK
 62
     0
 10
14241.61676510096
 20
13481.986252000001
 30
0.0
 40
15.0
 50
90.0
 51
270.0
  0
ARC
  5
D206
  8
0
  6
BYBLOCK
 62
     0
 10
14241.61676510096
 20
13481.986252000001
 30
0.0
 40
15.0
 50
270.0
 51
90.0
  0
ARC
  5
D207
  8
0
  6
BYBLOCK
 62
     0
 10
14241.61676510096
 20
19668.486251999992
 30
0.0
 40
15.0
 50
270.0
 51
90.0
  0
ARC
  5
D208
  8
0
  6
BYBLOCK
 62
     0
 10
14241.61676510096
 20
19668.486251999992
 30
0.0
 40
15.0
 50
90.0
 51
270.0
  0
ARC
  5
D209
  8
0
  6
BYBLOCK
 62
     0
 10
14241.61676510096
 20
16750.486251999992
 30
0.0
 40
15.0
 50
90.0
 51
270.0
  0
ARC
  5
D20A
  8
0
  6
BYBLOCK
 62
     0
 10
14241.61676510096
 20
16750.486251999992
 30
0.0
 40
15.0
 50
270.0
 51
90.0
  0
ARC
  5
D20B
  8
0
  6
BYBLOCK
 62
     0
 10
14241.61676510096
 20
19668.486251999992
 30
0.0
 40
15.0
 50
90.0
 51
270.0
  0
ARC
  5
D20C
  8
0
  6
BYBLOCK
 62
     0
 10
14241.61676510096
 20
19668.486251999992
 30
0.0
 40
15.0
 50
270.0
 51
90.0
  0
ARC
  5
D20D
  8
0
  6
BYBLOCK
 62
     0
 10
14241.61676510096
 20
19890.98611999999
 30
0.0
 40
15.0
 50
270.0
 51
90.0
  0
ARC
  5
D20E
  8
0
  6
BYBLOCK
 62
     0
 10
14241.61676510096
 20
19890.98611999999
 30
0.0
 40
15.0
 50
90.0
 51
270.0
  0
ARC
  5
D20F
  8
0
  6
BYBLOCK
 62
     0
 10
13841.617424100959
 20
19880.989550999991
 30
0.0
 40
15.0
 50
270.0
 51
90.0
  0
ARC
  5
D210
  8
0
  6
BYBLOCK
 62
     0
 10
13841.617424100959
 20
19880.989550999991
 30
0.0
 40
15.0
 50
90.0
 51
270.0
  0
ARC
  5
D211
  8
0
  6
BYBLOCK
 62
     0
 10
13841.617424100959
 20
19890.98611999999
 30
0.0
 40
15.0
 50
90.0
 51
270.0
  0
ARC
  5
D212
  8
0
  6
BYBLOCK
 62
     0
 10
13841.617424100959
 20
19890.98611999999
 30
0.0
 40
15.0
 50
270.0
 51
90.0
  0
ARC
  5
D213
  8
0
  6
BYBLOCK
 62
     0
 10
5394.1169891009777
 20
20510.987175999991
 30
0.0
 40
15.0
 50
0.0
 51
180.0
  0
ARC
  5
D214
  8
0
  6
BYBLOCK
 62
     0
 10
5394.1169891009777
 20
20510.987175999991
 30
0.0
 40
15.0
 50
180.0
 51
0.0
  0
ARC
  5
D215
  8
0
  6
BYBLOCK
 62
     0
 10
5308.6169891009758
 20
20510.987175999991
 30
0.0
 40
15.0
 50
180.0
 51
0.0
  0
ARC
  5
D216
  8
0
  6
BYBLOCK
 62
     0
 10
5308.6169891009758
 20
20510.987175999991
 30
0.0
 40
15.0
 50
0.0
 51
180.0
  0
ARC
  5
D217
  8
0
  6
BYBLOCK
 62
     0
 10
10394.116989100959
 20
20510.987175999991
 30
0.0
 40
15.0
 50
180.0
 51
0.0
  0
ARC
  5
D218
  8
0
  6
BYBLOCK
 62
     0
 10
10394.116989100959
 20
20510.987175999991
 30
0.0
 40
15.0
 50
0.0
 51
180.0
  0
ARC
  5
D219
  8
0
  6
BYBLOCK
 62
     0
 10
5394.1169891009777
 20
20510.987175999991
 30
0.0
 40
15.0
 50
0.0
 51
180.0
  0
ARC
  5
D21A
  8
0
  6
BYBLOCK
 62
     0
 10
5394.1169891009777
 20
20510.987175999991
 30
0.0
 40
15.0
 50
180.0
 51
0.0
  0
ARC
  5
D21B
  8
0
  6
BYBLOCK
 62
     0
 10
13312.11698910097
 20
20510.987175999991
 30
0.0
 40
15.0
 50
180.0
 51
0.0
  0
ARC
  5
D21C
  8
0
  6
BYBLOCK
 62
     0
 10
13312.11698910097
 20
20510.987175999991
 30
0.0
 40
15.0
 50
0.0
 51
180.0
  0
ARC
  5
D21D
  8
0
  6
BYBLOCK
 62
     0
 10
10394.116989100959
 20
20510.987175999991
 30
0.0
 40
15.0
 50
0.0
 51
180.0
  0
ARC
  5
D21E
  8
0
  6
BYBLOCK
 62
     0
 10
10394.116989100959
 20
20510.987175999991
 30
0.0
 40
15.0
 50
180.0
 51
0.0
  0
ARC
  5
D21F
  8
0
  6
BYBLOCK
 62
     0
 10
13312.11698910097
 20
20510.987175999991
 30
0.0
 40
15.0
 50
180.0
 51
0.0
  0
ARC
  5
D220
  8
0
  6
BYBLOCK
 62
     0
 10
13312.11698910097
 20
20510.987175999991
 30
0.0
 40
15.0
 50
0.0
 51
180.0
  0
ARC
  5
D221
  8
0
  6
BYBLOCK
 62
     0
 10
13397.616989100979
 20
20510.987175999991
 30
0.0
 40
15.0
 50
0.0
 51
180.0
  0
ARC
  5
D222
  8
0
  6
BYBLOCK
 62
     0
 10
13397.616989100979
 20
20510.987175999991
 30
0.0
 40
15.0
 50
180.0
 51
0.0
  0
ARC
  5
D223
  8
0
  6
BYBLOCK
 62
     0
 10
13397.616989100979
 20
11999.48618599998
 30
0.0
 40
15.0
 50
180.0
 51
0.0
  0
ARC
  5
D224
  8
0
  6
BYBLOCK
 62
     0
 10
13397.616989100979
 20
11999.48618599998
 30
0.0
 40
15.0
 50
0.0
 51
180.0
  0
ARC
  5
D225
  8
0
  6
BYBLOCK
 62
     0
 10
5308.6169891009758
 20
11999.48618599998
 30
0.0
 40
15.0
 50
0.0
 51
180.0
  0
ARC
  5
D226
  8
0
  6
BYBLOCK
 62
     0
 10
5308.6169891009758
 20
11999.48618599998
 30
0.0
 40
15.0
 50
180.0
 51
0.0
  0
ARC
  5
D227
  8
0
  6
BYBLOCK
 62
     0
 10
26548.470723566788
 20
20510.987175999991
 30
0.0
 40
15.0
 50
0.0
 51
180.0
  0
ARC
  5
D228
  8
0
  6
BYBLOCK
 62
     0
 10
26548.470723566788
 20
20510.987175999991
 30
0.0
 40
15.0
 50
180.0
 51
0.0
  0
ARC
  5
D229
  8
0
  6
BYBLOCK
 62
     0
 10
27306.470723566788
 20
20510.987175999991
 30
0.0
 40
15.0
 50
180.0
 51
0.0
  0
ARC
  5
D22A
  8
0
  6
BYBLOCK
 62
     0
 10
27306.470723566788
 20
20510.987175999991
 30
0.0
 40
15.0
 50
0.0
 51
180.0
  0
ARC
  5
D22B
  8
0
  6
BYBLOCK
 62
     0
 10
13748.00734467521
 20
9789.1883999999955
 30
0.0
 40
15.0
 50
180.0
 51
0.0
  0
ARC
  5
D22C
  8
0
  6
BYBLOCK
 62
     0
 10
13748.00734467521
 20
9789.1883999999955
 30
0.0
 40
15.0
 50
0.0
 51
180.0
  0
ARC
  5
D22D
  8
0
  6
BYBLOCK
 62
     0
 10
7146.5073446752067
 20
9789.1883999999955
 30
0.0
 40
15.0
 50
0.0
 51
180.0
  0
ARC
  5
D22E
  8
0
  6
BYBLOCK
 62
     0
 10
7146.5073446752067
 20
9789.1883999999955
 30
0.0
 40
15.0
 50
180.0
 51
0.0
  0
ARC
  5
D22F
  8
0
  6
BYBLOCK
 62
     0
 10
7296.5073446752003
 20
9389.1900499999992
 30
0.0
 40
15.0
 50
0.0
 51
180.0
  0
ARC
  5
D230
  8
0
  6
BYBLOCK
 62
     0
 10
7296.5073446752003
 20
9389.1900499999992
 30
0.0
 40
15.0
 50
180.0
 51
0.0
  0
ARC
  5
D231
  8
0
  6
BYBLOCK
 62
     0
 10
7146.5073446752067
 20
9389.1900499999992
 30
0.0
 40
15.0
 50
180.0
 51
0.0
  0
ARC
  5
D232
  8
0
  6
BYBLOCK
 62
     0
 10
7146.5073446752067
 20
9389.1900499999992
 30
0.0
 40
15.0
 50
0.0
 51
180.0
  0
ARC
  5
D233
  8
0
  6
BYBLOCK
 62
     0
 10
13568.00734467521
 20
9389.1900499999992
 30
0.0
 40
15.0
 50
180.0
 51
0.0
  0
ARC
  5
D234
  8
0
  6
BYBLOCK
 62
     0
 10
13568.00734467521
 20
9389.1900499999992
 30
0.0
 40
15.0
 50
0.0
 51
180.0
  0
ARC
  5
D235
  8
0
  6
BYBLOCK
 62
     0
 10
7296.5073446752003
 20
9389.1900499999992
 30
0.0
 40
15.0
 50
0.0
 51
180.0
  0
ARC
  5
D236
  8
0
  6
BYBLOCK
 62
     0
 10
7296.5073446752003
 20
9389.1900499999992
 30
0.0
 40
15.0
 50
180.0
 51
0.0
  0
ARC
  5
D237
  8
0
  6
BYBLOCK
 62
     0
 10
13748.00734467521
 20
9389.1900499999992
 30
0.0
 40
15.0
 50
180.0
 51
0.0
  0
ARC
  5
D238
  8
0
  6
BYBLOCK
 62
     0
 10
13748.00734467521
 20
9389.1900499999992
 30
0.0
 40
15.0
 50
0.0
 51
180.0
  0
ARC
  5
D239
  8
0
  6
BYBLOCK
 62
     0
 10
13568.00734467521
 20
9389.1900499999992
 30
0.0
 40
15.0
 50
0.0
 51
180.0
  0
ARC
  5
D23A
  8
0
  6
BYBLOCK
 62
     0
 10
13568.00734467521
 20
9389.1900499999992
 30
0.0
 40
15.0
 50
180.0
 51
0.0
  0
ARC
  5
D23B
  8
0
  6
BYBLOCK
 62
     0
 10
6206.5069486752036
 20
6241.1883740000012
 30
0.0
 40
15.0
 50
90.0
 51
270.0
  0
ARC
  5
D23C
  8
0
  6
BYBLOCK
 62
     0
 10
6206.5069486752036
 20
6241.1883740000012
 30
0.0
 40
15.0
 50
270.0
 51
90.0
  0
ARC
  5
D23D
  8
0
  6
BYBLOCK
 62
     0
 10
6206.5069486752036
 20
8589.1883739999994
 30
0.0
 40
15.0
 50
270.0
 51
90.0
  0
ARC
  5
D23E
  8
0
  6
BYBLOCK
 62
     0
 10
6206.5069486752036
 20
8589.1883739999994
 30
0.0
 40
15.0
 50
90.0
 51
270.0
  0
ARC
  5
D23F
  8
0
  6
BYBLOCK
 62
     0
 10
14658.00774067519
 20
6241.1883740000003
 30
0.0
 40
15.0
 50
90.0
 51
270.0
  0
ARC
  5
D240
  8
0
  6
BYBLOCK
 62
     0
 10
14658.00774067519
 20
6241.1883740000003
 30
0.0
 40
15.0
 50
270.0
 51
90.0
  0
ARC
  5
D241
  8
0
  6
BYBLOCK
 62
     0
 10
14658.00774067519
 20
8398.188374000003
 30
0.0
 40
15.0
 50
270.0
 51
90.0
  0
ARC
  5
D242
  8
0
  6
BYBLOCK
 62
     0
 10
14658.00774067519
 20
8398.188374000003
 30
0.0
 40
15.0
 50
90.0
 51
270.0
  0
ARC
  5
D243
  8
0
  6
BYBLOCK
 62
     0
 10
13568.00734467521
 20
4541.1887039999938
 30
0.0
 40
15.0
 50
180.0
 51
0.0
  0
ARC
  5
D244
  8
0
  6
BYBLOCK
 62
     0
 10
13568.00734467521
 20
4541.1887039999938
 30
0.0
 40
15.0
 50
0.0
 51
180.0
  0
ARC
  5
D245
  8
0
  6
BYBLOCK
 62
     0
 10
7296.5073446752003
 20
4541.1887039999938
 30
0.0
 40
15.0
 50
0.0
 51
180.0
  0
ARC
  5
D246
  8
0
  6
BYBLOCK
 62
     0
 10
7296.5073446752003
 20
4541.1887039999938
 30
0.0
 40
15.0
 50
180.0
 51
0.0
  0
ARC
  5
D247
  8
0
  6
BYBLOCK
 62
     0
 10
7339.0073446752076
 20
4941.1885389999979
 30
0.0
 40
15.0
 50
0.0
 51
180.0
  0
ARC
  5
D248
  8
0
  6
BYBLOCK
 62
     0
 10
7339.0073446752076
 20
4941.1885389999979
 30
0.0
 40
15.0
 50
180.0
 51
0.0
  0
ARC
  5
D249
  8
0
  6
BYBLOCK
 62
     0
 10
7296.5073446752003
 20
4941.1885389999979
 30
0.0
 40
15.0
 50
180.0
 51
0.0
  0
ARC
  5
D24A
  8
0
  6
BYBLOCK
 62
     0
 10
7296.5073446752003
 20
4941.1885389999979
 30
0.0
 40
15.0
 50
0.0
 51
180.0
  0
ARC
  5
D24B
  8
0
  6
BYBLOCK
 62
     0
 10
13525.507344675199
 20
4941.1885389999979
 30
0.0
 40
15.0
 50
180.0
 51
0.0
  0
ARC
  5
D24C
  8
0
  6
BYBLOCK
 62
     0
 10
13525.507344675199
 20
4941.1885389999979
 30
0.0
 40
15.0
 50
0.0
 51
180.0
  0
ARC
  5
D24D
  8
0
  6
BYBLOCK
 62
     0
 10
13568.00734467521
 20
4941.1885389999979
 30
0.0
 40
15.0
 50
0.0
 51
180.0
  0
ARC
  5
D24E
  8
0
  6
BYBLOCK
 62
     0
 10
13568.00734467521
 20
4941.1885389999979
 30
0.0
 40
15.0
 50
180.0
 51
0.0
  0
ARC
  5
D24F
  8
0
  6
BYBLOCK
 62
     0
 10
10607.50734467519
 20
4941.1885389999979
 30
0.0
 40
15.0
 50
0.0
 51
180.0
  0
ARC
  5
D250
  8
0
  6
BYBLOCK
 62
     0
 10
10607.50734467519
 20
4941.1885389999979
 30
0.0
 40
15.0
 50
180.0
 51
0.0
  0
ARC
  5
D251
  8
0
  6
BYBLOCK
 62
     0
 10
13525.507344675199
 20
4941.1885389999979
 30
0.0
 40
15.0
 50
180.0
 51
0.0
  0
ARC
  5
D252
  8
0
  6
BYBLOCK
 62
     0
 10
13525.507344675199
 20
4941.1885389999979
 30
0.0
 40
15.0
 50
0.0
 51
180.0
  0
ARC
  5
D253
  8
0
  6
BYBLOCK
 62
     0
 10
10607.50734467519
 20
4941.1885389999979
 30
0.0
 40
15.0
 50
180.0
 51
0.0
  0
ARC
  5
D254
  8
0
  6
BYBLOCK
 62
     0
 10
10607.50734467519
 20
4941.1885389999979
 30
0.0
 40
15.0
 50
0.0
 51
180.0
  0
ARC
  5
D255
  8
0
  6
BYBLOCK
 62
     0
 10
7339.0073446752076
 20
4941.1885389999979
 30
0.0
 40
15.0
 50
0.0
 51
180.0
  0
ARC
  5
D256
  8
0
  6
BYBLOCK
 62
     0
 10
7339.0073446752076
 20
4941.1885389999979
 30
0.0
 40
15.0
 50
180.0
 51
0.0
  0
ARC
  5
D257
  8
0
  6
BYBLOCK
 62
     0
 10
27391.970723566799
 20
9789.1329740000037
 30
0.0
 40
15.0
 50
180.0
 51
0.0
  0
ARC
  5
D258
  8
0
  6
BYBLOCK
 62
     0
 10
27391.970723566799
 20
9789.1329740000037
 30
0.0
 40
15.0
 50
0.0
 51
180.0
  0
ARC
  5
D259
  8
0
  6
BYBLOCK
 62
     0
 10
19302.970723566788
 20
9789.1329740000037
 30
0.0
 40
15.0
 50
0.0
 51
180.0
  0
ARC
  5
D25A
  8
0
  6
BYBLOCK
 62
     0
 10
19302.970723566788
 20
9789.1329740000037
 30
0.0
 40
15.0
 50
180.0
 51
0.0
  0
ARC
  5
D25B
  8
0
  6
BYBLOCK
 62
     0
 10
19345.970723566781
 20
9389.1900499999992
 30
0.0
 40
15.0
 50
0.0
 51
180.0
  0
ARC
  5
D25C
  8
0
  6
BYBLOCK
 62
     0
 10
19345.970723566781
 20
9389.1900499999992
 30
0.0
 40
15.0
 50
180.0
 51
0.0
  0
ARC
  5
D25D
  8
0
  6
BYBLOCK
 62
     0
 10
19302.970723566788
 20
9389.1900499999992
 30
0.0
 40
15.0
 50
180.0
 51
0.0
  0
ARC
  5
D25E
  8
0
  6
BYBLOCK
 62
     0
 10
19302.970723566788
 20
9389.1900499999992
 30
0.0
 40
15.0
 50
0.0
 51
180.0
  0
ARC
  5
D25F
  8
0
  6
BYBLOCK
 62
     0
 10
27348.970723566799
 20
9389.1900499999992
 30
0.0
 40
15.0
 50
180.0
 51
0.0
  0
ARC
  5
D260
  8
0
  6
BYBLOCK
 62
     0
 10
27348.970723566799
 20
9389.1900499999992
 30
0.0
 40
15.0
 50
0.0
 51
180.0
  0
ARC
  5
D261
  8
0
  6
BYBLOCK
 62
     0
 10
27391.970723566799
 20
9389.1900499999992
 30
0.0
 40
15.0
 50
0.0
 51
180.0
  0
ARC
  5
D262
  8
0
  6
BYBLOCK
 62
     0
 10
27391.970723566799
 20
9389.1900499999992
 30
0.0
 40
15.0
 50
180.0
 51
0.0
  0
ARC
  5
D263
  8
0
  6
BYBLOCK
 62
     0
 10
24345.970723566781
 20
9389.1900499999992
 30
0.0
 40
15.0
 50
0.0
 51
180.0
  0
ARC
  5
D264
  8
0
  6
BYBLOCK
 62
     0
 10
24345.970723566781
 20
9389.1900499999992
 30
0.0
 40
15.0
 50
180.0
 51
0.0
  0
ARC
  5
D265
  8
0
  6
BYBLOCK
 62
     0
 10
27348.970723566799
 20
9389.1900499999992
 30
0.0
 40
15.0
 50
180.0
 51
0.0
  0
ARC
  5
D266
  8
0
  6
BYBLOCK
 62
     0
 10
27348.970723566799
 20
9389.1900499999992
 30
0.0
 40
15.0
 50
0.0
 51
180.0
  0
ARC
  5
D267
  8
0
  6
BYBLOCK
 62
     0
 10
28799.572974271541
 20
6241.1883740000012
 30
0.0
 40
15.0
 50
90.0
 51
270.0
  0
ARC
  5
D268
  8
0
  6
BYBLOCK
 62
     0
 10
28799.572974271541
 20
6241.1883740000012
 30
0.0
 40
15.0
 50
270.0
 51
90.0
  0
ARC
  5
D269
  8
0
  6
BYBLOCK
 62
     0
 10
28799.572974271541
 20
8589.1883999999936
 30
0.0
 40
15.0
 50
270.0
 51
90.0
  0
ARC
  5
D26A
  8
0
  6
BYBLOCK
 62
     0
 10
28799.572974271541
 20
8589.1883999999936
 30
0.0
 40
15.0
 50
90.0
 51
270.0
  0
ARC
  5
D26B
  8
0
  6
BYBLOCK
 62
     0
 10
28156.474022566781
 20
6241.1883740000012
 30
0.0
 40
15.0
 50
90.0
 51
270.0
  0
ARC
  5
D26C
  8
0
  6
BYBLOCK
 62
     0
 10
28156.474022566781
 20
6241.1883740000012
 30
0.0
 40
15.0
 50
270.0
 51
90.0
  0
ARC
  5
D26D
  8
0
  6
BYBLOCK
 62
     0
 10
28156.474022566781
 20
8132.6883740000021
 30
0.0
 40
15.0
 50
270.0
 51
90.0
  0
ARC
  5
D26E
  8
0
  6
BYBLOCK
 62
     0
 10
28156.474022566781
 20
8132.6883740000021
 30
0.0
 40
15.0
 50
90.0
 51
270.0
  0
ARC
  5
D26F
  8
0
  6
BYBLOCK
 62
     0
 10
24342.970723566781
 20
5341.1883740000012
 30
0.0
 40
15.0
 50
180.0
 51
0.0
  0
ARC
  5
D270
  8
0
  6
BYBLOCK
 62
     0
 10
24342.970723566781
 20
5341.1883740000012
 30
0.0
 40
15.0
 50
0.0
 51
180.0
  0
ARC
  5
D271
  8
0
  6
BYBLOCK
 62
     0
 10
19430.970723566781
 20
5341.1883740000012
 30
0.0
 40
15.0
 50
0.0
 51
180.0
  0
ARC
  5
D272
  8
0
  6
BYBLOCK
 62
     0
 10
19430.970723566781
 20
5341.1883740000012
 30
0.0
 40
15.0
 50
180.0
 51
0.0
  0
ARC
  5
D273
  8
0
  6
BYBLOCK
 62
     0
 10
27348.930770619259
 20
4541.1887040000547
 30
0.0
 40
15.0
 50
180.0
 51
0.0
  0
ARC
  5
D274
  8
0
  6
BYBLOCK
 62
     0
 10
27348.930770619259
 20
4541.1887040000547
 30
0.0
 40
15.0
 50
0.0
 51
180.0
  0
ARC
  5
D275
  8
0
  6
BYBLOCK
 62
     0
 10
19345.970723566781
 20
4541.1887040000547
 30
0.0
 40
15.0
 50
0.0
 51
180.0
  0
ARC
  5
D276
  8
0
  6
BYBLOCK
 62
     0
 10
19345.970723566781
 20
4541.1887040000547
 30
0.0
 40
15.0
 50
180.0
 51
0.0
  0
ARC
  5
D277
  8
0
  6
BYBLOCK
 62
     0
 10
27306.470723566799
 20
4941.1885389999979
 30
0.0
 40
15.0
 50
180.0
 51
0.0
  0
ARC
  5
D278
  8
0
  6
BYBLOCK
 62
     0
 10
27306.470723566799
 20
4941.1885389999979
 30
0.0
 40
15.0
 50
0.0
 51
180.0
  0
ARC
  5
D279
  8
0
  6
BYBLOCK
 62
     0
 10
27348.930770619259
 20
4941.1885389999979
 30
0.0
 40
15.0
 50
0.0
 51
180.0
  0
ARC
  5
D27A
  8
0
  6
BYBLOCK
 62
     0
 10
27348.930770619259
 20
4941.1885389999979
 30
0.0
 40
15.0
 50
180.0
 51
0.0
  0
ARC
  5
D27B
  8
0
  6
BYBLOCK
 62
     0
 10
24388.470723566781
 20
4941.1885389999979
 30
0.0
 40
15.0
 50
0.0
 51
180.0
  0
ARC
  5
D27C
  8
0
  6
BYBLOCK
 62
     0
 10
24388.470723566781
 20
4941.1885389999979
 30
0.0
 40
15.0
 50
180.0
 51
0.0
  0
ARC
  5
D27D
  8
0
  6
BYBLOCK
 62
     0
 10
27306.470723566799
 20
4941.1885389999979
 30
0.0
 40
15.0
 50
180.0
 51
0.0
  0
ARC
  5
D27E
  8
0
  6
BYBLOCK
 62
     0
 10
27306.470723566799
 20
4941.1885389999979
 30
0.0
 40
15.0
 50
0.0
 51
180.0
  0
ARC
  5
D27F
  8
0
  6
BYBLOCK
 62
     0
 10
27212.47072356681
 20
5341.1883740000012
 30
0.0
 40
15.0
 50
180.0
 51
0.0
  0
ARC
  5
D280
  8
0
  6
BYBLOCK
 62
     0
 10
27212.47072356681
 20
5341.1883740000012
 30
0.0
 40
15.0
 50
0.0
 51
180.0
  0
ARC
  5
D281
  8
0
  6
BYBLOCK
 62
     0
 10
24482.470723566799
 20
5341.1883740000012
 30
0.0
 40
15.0
 50
0.0
 51
180.0
  0
ARC
  5
D282
  8
0
  6
BYBLOCK
 62
     0
 10
24482.470723566799
 20
5341.1883740000012
 30
0.0
 40
15.0
 50
180.0
 51
0.0
  0
ARC
  5
D283
  8
0
  6
BYBLOCK
 62
     0
 10
19388.470723566781
 20
4941.1885389999979
 30
0.0
 40
15.0
 50
0.0
 51
180.0
  0
ARC
  5
D284
  8
0
  6
BYBLOCK
 62
     0
 10
19388.470723566781
 20
4941.1885389999979
 30
0.0
 40
15.0
 50
180.0
 51
0.0
  0
ARC
  5
D285
  8
0
  6
BYBLOCK
 62
     0
 10
19345.970723566781
 20
4941.1885389999979
 30
0.0
 40
15.0
 50
180.0
 51
0.0
  0
ARC
  5
D286
  8
0
  6
BYBLOCK
 62
     0
 10
19345.970723566781
 20
4941.1885389999979
 30
0.0
 40
15.0
 50
0.0
 51
180.0
  0
ARC
  5
D287
  8
0
  6
BYBLOCK
 62
     0
 10
24388.470723566781
 20
4941.1885389999979
 30
0.0
 40
15.0
 50
180.0
 51
0.0
  0
ARC
  5
D288
  8
0
  6
BYBLOCK
 62
     0
 10
24388.470723566781
 20
4941.1885389999979
 30
0.0
 40
15.0
 50
0.0
 51
180.0
  0
ARC
  5
D289
  8
0
  6
BYBLOCK
 62
     0
 10
19388.470723566781
 20
4941.1885389999979
 30
0.0
 40
15.0
 50
0.0
 51
180.0
  0
ARC
  5
D28A
  8
0
  6
BYBLOCK
 62
     0
 10
19388.470723566781
 20
4941.1885389999979
 30
0.0
 40
15.0
 50
180.0
 51
0.0
  0
ARC
  5
D28B
  8
0
  6
BYBLOCK
 62
     0
 10
24345.970723566781
 20
9389.1900499999992
 30
0.0
 40
15.0
 50
180.0
 51
0.0
  0
ARC
  5
D28C
  8
0
  6
BYBLOCK
 62
     0
 10
24345.970723566781
 20
9389.1900499999992
 30
0.0
 40
15.0
 50
0.0
 51
180.0
  0
ARC
  5
D28D
  8
0
  6
BYBLOCK
 62
     0
 10
19345.970723566781
 20
9389.1900499999992
 30
0.0
 40
15.0
 50
0.0
 51
180.0
  0
ARC
  5
D28E
  8
0
  6
BYBLOCK
 62
     0
 10
19345.970723566781
 20
9389.1900499999992
 30
0.0
 40
15.0
 50
180.0
 51
0.0
  0
ARC
  5
D28F
  8
0
  6
BYBLOCK
 62
     0
 10
18136.14832527241
 20
6241.5026620000053
 30
0.0
 40
15.0
 50
90.0
 51
270.0
  0
ARC
  5
D290
  8
0
  6
BYBLOCK
 62
     0
 10
18136.14832527241
 20
6241.5026620000053
 30
0.0
 40
15.0
 50
270.0
 51
90.0
  0
ARC
  5
D291
  8
0
  6
BYBLOCK
 62
     0
 10
18136.14832527241
 20
8261.5026620000044
 30
0.0
 40
15.0
 50
270.0
 51
90.0
  0
ARC
  5
D292
  8
0
  6
BYBLOCK
 62
     0
 10
18136.14832527241
 20
8261.5026620000044
 30
0.0
 40
15.0
 50
90.0
 51
270.0
  0
ARC
  5
D2B7
  8
0
  6
BYBLOCK
 62
     0
 10
24388.470723566781
 20
20510.987175999991
 30
0.0
 40
15.0
 50
0.0
 51
180.0
  0
ARC
  5
D2B8
  8
0
  6
BYBLOCK
 62
     0
 10
24388.470723566781
 20
20510.987175999991
 30
0.0
 40
15.0
 50
180.0
 51
0.0
  0
ARC
  5
D2B9
  8
0
  6
BYBLOCK
 62
     0
 10
24345.970723566781
 20
20510.987175999991
 30
0.0
 40
15.0
 50
180.0
 51
0.0
  0
ARC
  5
D2BA
  8
0
  6
BYBLOCK
 62
     0
 10
24345.970723566781
 20
20510.987175999991
 30
0.0
 40
15.0
 50
0.0
 51
180.0
  0
ARC
  5
D2BB
  8
0
  6
BYBLOCK
 62
     0
 10
25146.470723566781
 20
20510.987175999991
 30
0.0
 40
15.0
 50
180.0
 51
0.0
  0
ARC
  5
D2BC
  8
0
  6
BYBLOCK
 62
     0
 10
25146.470723566781
 20
20510.987175999991
 30
0.0
 40
15.0
 50
0.0
 51
180.0
  0
ARC
  5
D2BD
  8
0
  6
BYBLOCK
 62
     0
 10
24388.470723566781
 20
20510.987175999991
 30
0.0
 40
15.0
 50
0.0
 51
180.0
  0
ARC
  5
D2BE
  8
0
  6
BYBLOCK
 62
     0
 10
24388.470723566781
 20
20510.987175999991
 30
0.0
 40
15.0
 50
180.0
 51
0.0
  0
ARC
  5
D2BF
  8
0
  6
BYBLOCK
 62
     0
 10
25847.470723566781
 20
20510.987175999991
 30
0.0
 40
15.0
 50
180.0
 51
0.0
  0
ARC
  5
D2C0
  8
0
  6
BYBLOCK
 62
     0
 10
25847.470723566781
 20
20510.987175999991
 30
0.0
 40
15.0
 50
0.0
 51
180.0
  0
ARC
  5
D2C1
  8
0
  6
BYBLOCK
 62
     0
 10
25146.470723566781
 20
20510.987175999991
 30
0.0
 40
15.0
 50
0.0
 51
180.0
  0
ARC
  5
D2C2
  8
0
  6
BYBLOCK
 62
     0
 10
25146.470723566781
 20
20510.987175999991
 30
0.0
 40
15.0
 50
180.0
 51
0.0
  0
ARC
  5
D2C3
  8
0
  6
BYBLOCK
 62
     0
 10
26548.470723566788
 20
20510.987175999991
 30
0.0
 40
15.0
 50
180.0
 51
0.0
  0
ARC
  5
D2C4
  8
0
  6
BYBLOCK
 62
     0
 10
26548.470723566788
 20
20510.987175999991
 30
0.0
 40
15.0
 50
0.0
 51
180.0
  0
ARC
  5
D2C5
  8
0
  6
BYBLOCK
 62
     0
 10
25847.470723566781
 20
20510.987175999991
 30
0.0
 40
15.0
 50
0.0
 51
180.0
  0
ARC
  5
D2C6
  8
0
  6
BYBLOCK
 62
     0
 10
25847.470723566781
 20
20510.987175999991
 30
0.0
 40
15.0
 50
180.0
 51
0.0
  0
ARC
  5
D2C7
  8
0
  6
BYBLOCK
 62
     0
 10
27306.470723566788
 20
20510.987175999991
 30
0.0
 40
15.0
 50
180.0
 51
0.0
  0
ARC
  5
D2C8
  8
0
  6
BYBLOCK
 62
     0
 10
27306.470723566788
 20
20510.987175999991
 30
0.0
 40
15.0
 50
0.0
 51
180.0
  0
ARC
  5
D2C9
  8
0
  6
BYBLOCK
 62
     0
 10
27348.970723566788
 20
20510.987175999991
 30
0.0
 40
15.0
 50
0.0
 51
180.0
  0
ARC
  5
D2CA
  8
0
  6
BYBLOCK
 62
     0
 10
27348.970723566788
 20
20510.987175999991
 30
0.0
 40
15.0
 50
180.0
 51
0.0
  0
ARC
  5
D2D7
  8
0
  6
BYBLOCK
 62
     0
 10
24388.470723566781
 20
20910.987175999991
 30
0.0
 40
15.0
 50
180.0
 51
0.0
  0
ARC
  5
D2D8
  8
0
  6
BYBLOCK
 62
     0
 10
24388.470723566781
 20
20910.987175999991
 30
0.0
 40
15.0
 50
0.0
 51
180.0
  0
ARC
  5
D2D9
  8
0
  6
BYBLOCK
 62
     0
 10
19388.470723566781
 20
20910.987175999991
 30
0.0
 40
15.0
 50
0.0
 51
180.0
  0
ARC
  5
D2DA
  8
0
  6
BYBLOCK
 62
     0
 10
19388.470723566781
 20
20910.987175999991
 30
0.0
 40
15.0
 50
180.0
 51
0.0
  0
ARC
  5
D2DB
  8
0
  6
BYBLOCK
 62
     0
 10
27306.470723566788
 20
20910.987175999991
 30
0.0
 40
15.0
 50
180.0
 51
0.0
  0
ARC
  5
D2DC
  8
0
  6
BYBLOCK
 62
     0
 10
27306.470723566788
 20
20910.987175999991
 30
0.0
 40
15.0
 50
0.0
 51
180.0
  0
ARC
  5
D2DD
  8
0
  6
BYBLOCK
 62
     0
 10
24388.470723566781
 20
20910.987175999991
 30
0.0
 40
15.0
 50
0.0
 51
180.0
  0
ARC
  5
D2DE
  8
0
  6
BYBLOCK
 62
     0
 10
24388.470723566781
 20
20910.987175999991
 30
0.0
 40
15.0
 50
180.0
 51
0.0
  0
ARC
  5
D2DF
  8
0
  6
BYBLOCK
 62
     0
 10
19388.470723566781
 20
20510.987175999991
 30
0.0
 40
15.0
 50
180.0
 51
0.0
  0
ARC
  5
D2E0
  8
0
  6
BYBLOCK
 62
     0
 10
19388.470723566781
 20
20510.987175999991
 30
0.0
 40
15.0
 50
0.0
 51
180.0
  0
ARC
  5
D2E1
  8
0
  6
BYBLOCK
 62
     0
 10
19430.972966566769
 20
20510.987175999991
 30
0.0
 40
15.0
 50
0.0
 51
180.0
  0
ARC
  5
D2E2
  8
0
  6
BYBLOCK
 62
     0
 10
19430.972966566769
 20
20510.987175999991
 30
0.0
 40
15.0
 50
180.0
 51
0.0
  0
ARC
  5
D2E3
  8
0
  6
BYBLOCK
 62
     0
 10
19388.470723566781
 20
20510.987175999991
 30
0.0
 40
15.0
 50
0.0
 51
180.0
  0
ARC
  5
D2E4
  8
0
  6
BYBLOCK
 62
     0
 10
19388.470723566781
 20
20510.987175999991
 30
0.0
 40
15.0
 50
180.0
 51
0.0
  0
ARC
  5
D2E5
  8
0
  6
BYBLOCK
 62
     0
 10
19345.97243856678
 20
20510.987175999991
 30
0.0
 40
15.0
 50
180.0
 51
0.0
  0
ARC
  5
D2E6
  8
0
  6
BYBLOCK
 62
     0
 10
19345.97243856678
 20
20510.987175999991
 30
0.0
 40
15.0
 50
0.0
 51
180.0
  0
ARC
  5
D2E7
  8
0
  6
BYBLOCK
 62
     0
 10
18170.627099198158
 20
16750.486251999992
 30
0.0
 40
15.0
 50
90.0
 51
270.0
  0
ARC
  5
D2E8
  8
0
  6
BYBLOCK
 62
     0
 10
18170.627099198158
 20
16750.486251999992
 30
0.0
 40
15.0
 50
270.0
 51
90.0
  0
ARC
  5
D2E9
  8
0
  6
BYBLOCK
 62
     0
 10
18170.627099198158
 20
19668.486251999992
 30
0.0
 40
15.0
 50
270.0
 51
90.0
  0
ARC
  5
D2EA
  8
0
  6
BYBLOCK
 62
     0
 10
18170.627099198158
 20
19668.486251999992
 30
0.0
 40
15.0
 50
90.0
 51
270.0
  0
ARC
  5
D2EB
  8
0
  6
BYBLOCK
 62
     0
 10
18170.627099198158
 20
13481.986252000001
 30
0.0
 40
15.0
 50
90.0
 51
270.0
  0
ARC
  5
D2EC
  8
0
  6
BYBLOCK
 62
     0
 10
18170.627099198158
 20
13481.986252000001
 30
0.0
 40
15.0
 50
270.0
 51
90.0
  0
ARC
  5
D2ED
  8
0
  6
BYBLOCK
 62
     0
 10
18170.627099198158
 20
16750.486251999992
 30
0.0
 40
15.0
 50
270.0
 51
90.0
  0
ARC
  5
D2EE
  8
0
  6
BYBLOCK
 62
     0
 10
18170.627099198158
 20
16750.486251999992
 30
0.0
 40
15.0
 50
90.0
 51
270.0
  0
TEXT
  5
D3D8
  8
NAME
 10
21595.82616625919
 20
1076.6369801169251
 30
0.0
 40
360.0
  1
VGC-3062（H）+VKC-5062（H）型-L（単棟）
 41
0.45
  0
TEXT
  5
D3D9
  8
NAME
 10
21933.552716389011
 20
1876.0
 30
0.0
 40
360.0
  1
ヨドガレージ ラヴィージュ
 41
0.75
  7
01
  0
LINE
  5
D3DA
  8
NAME
  6
CONTINUOUS
 10
26067.886878884299
 20
2236.0
 30
0.0
 11
26067.886878884299
 21
1876.0
 31
0.0
  0
LINE
  5
D3DB
  8
NAME
  6
CONTINUOUS
 10
26167.886878884299
 20
2236.0
 30
0.0
 11
26167.886878884299
 21
1876.0
 31
0.0
  0
LINE
  5
D3DC
  8
NAME
  6
CONTINUOUS
 10
26267.88687888431
 20
2236.0
 30
0.0
 11
26267.88687888431
 21
1876.0
 31
0.0
  0
LINE
  5
D3DD
  8
NAME
  6
CONTINUOUS
 10
26007.886878884299
 20
2236.0
 30
0.0
 11
26327.886878884299
 21
2236.0
 31
0.0
  0
LINE
  5
D3DE
  8
NAME
  6
CONTINUOUS
 10
26327.886878884299
 20
1876.0
 30
0.0
 11
26007.886878884299
 21
1876.0
 31
0.0
  0
LINE
  5
D3EA
  8
2-0
  6
CENTER2
 62
     6
 10
24388.470723566781
 20
21310.988495000001
 30
0.0
 11
24388.470723566781
 21
13132.071627523999
 31
0.0
  0
LINE
  5
D3ED
  8
2-0
  6
CENTER2
 62
     6
 10
27306.470723566781
 20
21310.988495000001
 30
0.0
 11
27306.470723566781
 21
13132.071627523999
 31
0.0
  0
LINE
  5
D661
  8
2-0
  6
CONTINUOUS
 62
     6
 10
25623.311807566759
 20
12841.985129999979
 30
0.0
 11
26623.305209566741
 21
12841.985129999979
 31
0.0
  0
LINE
  5
D662
  8
2-0
  6
CONTINUOUS
 62
     6
 10
27091.245586566769
 20
13312.40584399999
 30
0.0
 11
26623.305209566741
 21
12841.985129999979
 31
0.0
  0
LINE
  5
D663
  8
2-0
  6
CONTINUOUS
 62
     6
 10
27052.60538356677
 20
16854.513490999991
 30
0.0
 11
26747.909965566781
 21
16958.167022000009
 31
0.0
  0
LINE
  5
D664
  8
2-0
  6
CONTINUOUS
 62
     6
 10
27207.62742256674
 20
16364.891447000011
 30
0.0
 11
26747.909965566781
 21
16120.978136
 31
0.0
  0
LINE
  5
D665
  8
2-0
  6
CONTINUOUS
 62
     6
 10
25827.906930566769
 20
16120.978136
 30
0.0
 11
26747.909965566781
 21
16120.978136
 31
0.0
  0
LINE
  5
D666
  8
2-0
  6
CONTINUOUS
 62
     6
 10
25547.91590356678
 20
16958.167022000009
 30
0.0
 11
26747.909965566781
 21
16958.167022000009
 31
0.0
  0
LINE
  5
D667
  8
2-0
  6
CONTINUOUS
 62
     6
 10
27123.804707566778
 20
13634.089489999969
 30
0.0
 11
26747.909965566781
 21
13815.033324999989
 31
0.0
  0
LINE
  5
D668
  8
2-0
  6
CONTINUOUS
 62
     6
 10
26227.908249566779
 20
13815.033324999989
 30
0.0
 11
26747.909965566781
 21
13815.033324999989
 31
0.0
  0
LINE
  5
D669
  8
2-0
  6
CONTINUOUS
 62
     3
 10
27318.97138356679
 20
19601.984326000002
 30
0.0
 11
27318.97138356679
 21
19595.988364000001
 31
0.0
  0
LINE
  5
D66A
  8
2-0
  6
CONTINUOUS
 62
     3
 10
27318.97138356679
 20
19595.988364000001
 30
0.0
 11
27348.969007566771
 21
19595.988364000001
 31
0.0
  0
LINE
  5
D66B
  8
2-0
  6
CONTINUOUS
 62
     3
 10
27348.969007566771
 20
19625.98796799999
 30
0.0
 11
27267.967107566761
 21
19625.98796799999
 31
0.0
  0
LINE
  5
D66C
  8
2-0
  6
CONTINUOUS
 62
     3
 10
27318.97138356679
 20
19585.69090799999
 30
0.0
 11
27348.969007566771
 21
19585.69090799999
 31
0.0
  0
LINE
  5
D66D
  8
2-0
  6
CONTINUOUS
 62
     3
 10
27318.97138356679
 20
19603.69264999999
 30
0.0
 11
27318.97138356679
 21
19585.69090799999
 31
0.0
  0
LINE
  5
D66E
  8
2-0
  6
CONTINUOUS
 62
     3
 10
27343.968743566758
 20
19603.69264999999
 30
0.0
 11
27318.97138356679
 21
19603.69264999999
 31
0.0
  0
LINE
  5
D66F
  8
2-0
  6
CONTINUOUS
 62
     3
 10
27343.968743566758
 20
19598.684467999999
 30
0.0
 11
27343.968743566758
 21
19603.69264999999
 31
0.0
  0
LINE
  5
D670
  8
2-0
  6
CONTINUOUS
 62
     3
 10
27336.967186566791
 20
19598.684467999999
 30
0.0
 11
27343.968743566758
 21
19598.684467999999
 31
0.0
  0
LINE
  5
D671
  8
2-0
  6
CONTINUOUS
 62
     3
 10
27236.670918566779
 20
19698.98469500001
 30
0.0
 11
27236.670918566779
 21
19705.990211
 31
0.0
  0
LINE
  5
D672
  8
2-0
  6
CONTINUOUS
 62
     3
 10
27236.670918566779
 20
19705.990211
 30
0.0
 11
27241.671182566759
 21
19705.990211
 31
0.0
  0
LINE
  5
D673
  8
2-0
  6
CONTINUOUS
 62
     3
 10
27241.671182566759
 20
19705.990211
 30
0.0
 11
27241.671182566759
 21
19680.980973999991
 31
0.0
  0
LINE
  5
D674
  8
2-0
  6
CONTINUOUS
 62
     3
 10
27241.671182566759
 20
19680.980973999991
 30
0.0
 11
27223.669440566759
 21
19680.980973999991
 31
0.0
  0
LINE
  5
D675
  8
2-0
  6
CONTINUOUS
 62
     3
 10
27223.669440566759
 20
19680.980973999991
 30
0.0
 11
27223.669440566759
 21
19710.984537
 31
0.0
  0
LINE
  5
D676
  8
2-0
  6
CONTINUOUS
 62
     3
 10
27233.96689656677
 20
19710.984537
 30
0.0
 11
27348.969007566771
 21
19710.984537
 31
0.0
  0
LINE
  5
D677
  8
2-0
  6
CONTINUOUS
 62
     3
 10
27233.96689656677
 20
19680.980973999991
 30
0.0
 11
27233.96689656677
 21
19710.984537
 31
0.0
  0
LINE
  5
D678
  8
2-0
  6
CONTINUOUS
 62
     3
 10
27239.968796566769
 20
19680.980973999991
 30
0.0
 11
27233.96689656677
 21
19680.980973999991
 31
0.0
  0
LINE
  5
D679
  8
2-0
  6
CONTINUOUS
 62
     3
 10
27336.967186566791
 20
18894.887645499981
 30
0.0
 11
27343.968743566758
 21
18894.887645499981
 31
0.0
  0
LINE
  5
D67A
  8
2-0
  6
CONTINUOUS
 62
     3
 10
27343.968743566758
 20
18894.887645499981
 30
0.0
 11
27343.968743566758
 21
18899.88790949999
 31
0.0
  0
LINE
  5
D67B
  8
2-0
  6
CONTINUOUS
 62
     3
 10
27343.968743566758
 20
18899.88790949999
 30
0.0
 11
27318.97138356679
 21
18899.88790949999
 31
0.0
  0
LINE
  5
D67C
  8
2-0
  6
CONTINUOUS
 62
     3
 10
27318.97138356679
 20
18899.88790949999
 30
0.0
 11
27318.97138356679
 21
18881.892105499988
 31
0.0
  0
LINE
  5
D67D
  8
2-0
  6
CONTINUOUS
 62
     3
 10
27318.97138356679
 20
18881.892105499988
 30
0.0
 11
27348.969007566771
 21
18881.892105499988
 31
0.0
  0
LINE
  5
D67E
  8
2-0
  6
CONTINUOUS
 62
     3
 10
27318.97138356679
 20
18897.983612499949
 30
0.0
 11
27318.97138356679
 21
18891.985671499991
 31
0.0
  0
LINE
  5
D67F
  8
2-0
  6
CONTINUOUS
 62
     3
 10
27318.97138356679
 20
18891.985671499991
 30
0.0
 11
27348.969007566771
 21
18891.985671499991
 31
0.0
  0
LINE
  5
D680
  8
2-0
  6
CONTINUOUS
 62
     3
 10
27348.969007566771
 20
18891.985671499991
 30
0.0
 11
27348.969007566771
 21
18928.986832499981
 31
0.0
  0
LINE
  5
D681
  8
2-0
  6
CONTINUOUS
 62
     3
 10
27318.97138356679
 20
18928.986832499981
 30
0.0
 11
27348.969007566771
 21
18928.986832499981
 31
0.0
  0
LINE
  5
D682
  8
2-0
  6
CONTINUOUS
 62
     3
 10
27318.97138356679
 20
18922.98295249998
 30
0.0
 11
27318.97138356679
 21
18928.986832499981
 31
0.0
  0
LINE
  5
D683
  8
2-0
  6
CONTINUOUS
 62
     3
 10
27318.97138356679
 20
18939.082377499981
 30
0.0
 11
27348.969007566771
 21
18939.082377499981
 31
0.0
  0
LINE
  5
D684
  8
2-0
  6
CONTINUOUS
 62
     3
 10
27318.97138356679
 20
18921.080635499991
 30
0.0
 11
27318.97138356679
 21
18939.082377499981
 31
0.0
  0
LINE
  5
D685
  8
2-0
  6
CONTINUOUS
 62
     3
 10
27343.968743566758
 20
18921.080635499991
 30
0.0
 11
27318.97138356679
 21
18921.080635499991
 31
0.0
  0
LINE
  5
D686
  8
2-0
  6
CONTINUOUS
 62
     3
 10
27343.968743566758
 20
18926.08089949999
 30
0.0
 11
27343.968743566758
 21
18921.080635499991
 31
0.0
  0
LINE
  5
D687
  8
2-0
  6
CONTINUOUS
 62
     3
 10
27336.967186566791
 20
18926.08089949999
 30
0.0
 11
27343.968743566758
 21
18926.08089949999
 31
0.0
  0
LINE
  5
D688
  8
2-0
  6
CONTINUOUS
 62
     3
 10
27336.967186566791
 20
18193.886655999991
 30
0.0
 11
27343.968743566758
 21
18193.886655999991
 31
0.0
  0
LINE
  5
D689
  8
2-0
  6
CONTINUOUS
 62
     3
 10
27343.968743566758
 20
18193.886655999991
 30
0.0
 11
27343.968743566758
 21
18198.892857999988
 31
0.0
  0
LINE
  5
D68A
  8
2-0
  6
CONTINUOUS
 62
     3
 10
27343.968743566758
 20
18198.892857999988
 30
0.0
 11
27318.97138356679
 21
18198.892857999988
 31
0.0
  0
LINE
  5
D68B
  8
2-0
  6
CONTINUOUS
 62
     3
 10
27318.97138356679
 20
18198.892857999988
 30
0.0
 11
27318.97138356679
 21
18180.891115999999
 31
0.0
  0
LINE
  5
D68C
  8
2-0
  6
CONTINUOUS
 62
     3
 10
27318.97138356679
 20
18180.891115999999
 30
0.0
 11
27348.969007566771
 21
18180.891115999999
 31
0.0
  0
LINE
  5
D68D
  8
2-0
  6
CONTINUOUS
 62
     3
 10
27318.97138356679
 20
18196.982622999982
 30
0.0
 11
27318.97138356679
 21
18190.986660999999
 31
0.0
  0
LINE
  5
D68E
  8
2-0
  6
CONTINUOUS
 62
     3
 10
27318.97138356679
 20
18190.986660999999
 30
0.0
 11
27348.969007566771
 21
18190.986660999999
 31
0.0
  0
LINE
  5
D68F
  8
2-0
  6
CONTINUOUS
 62
     3
 10
27348.969007566771
 20
18190.986660999999
 30
0.0
 11
27348.969007566771
 21
18227.98584299998
 31
0.0
  0
LINE
  5
D690
  8
2-0
  6
CONTINUOUS
 62
     3
 10
27318.97138356679
 20
18227.98584299998
 30
0.0
 11
27348.969007566771
 21
18227.98584299998
 31
0.0
  0
LINE
  5
D691
  8
2-0
  6
CONTINUOUS
 62
     3
 10
27318.97138356679
 20
18221.98988099999
 30
0.0
 11
27318.97138356679
 21
18227.98584299998
 31
0.0
  0
LINE
  5
D692
  8
2-0
  6
CONTINUOUS
 62
     3
 10
27318.97138356679
 20
18238.081387999999
 30
0.0
 11
27348.969007566771
 21
18238.081387999999
 31
0.0
  0
LINE
  5
D693
  8
2-0
  6
CONTINUOUS
 62
     3
 10
27318.97138356679
 20
18220.079645999991
 30
0.0
 11
27318.97138356679
 21
18238.081387999999
 31
0.0
  0
LINE
  5
D694
  8
2-0
  6
CONTINUOUS
 62
     3
 10
27343.968743566758
 20
18220.079645999991
 30
0.0
 11
27318.97138356679
 21
18220.079645999991
 31
0.0
  0
LINE
  5
D695
  8
2-0
  6
CONTINUOUS
 62
     3
 10
27343.968743566758
 20
18225.085847999981
 30
0.0
 11
27343.968743566758
 21
18220.079645999991
 31
0.0
  0
LINE
  5
D696
  8
2-0
  6
CONTINUOUS
 62
     3
 10
27336.967186566791
 20
18225.085847999981
 30
0.0
 11
27343.968743566758
 21
18225.085847999981
 31
0.0
  0
LINE
  5
D697
  8
2-0
  6
CONTINUOUS
 62
     3
 10
27336.967186566791
 20
17524.079909999989
 30
0.0
 11
27343.968743566758
 21
17524.079909999989
 31
0.0
  0
LINE
  5
D698
  8
2-0
  6
CONTINUOUS
 62
     3
 10
27343.968743566758
 20
17524.079909999989
 30
0.0
 11
27343.968743566758
 21
17519.091522999988
 31
0.0
  0
LINE
  5
D699
  8
2-0
  6
CONTINUOUS
 62
     3
 10
27343.968743566758
 20
17519.091522999988
 30
0.0
 11
27318.97138356679
 21
17519.091522999988
 31
0.0
  0
LINE
  5
D69A
  8
2-0
  6
CONTINUOUS
 62
     3
 10
27318.97138356679
 20
17519.091522999988
 30
0.0
 11
27318.97138356679
 21
17537.08732599999
 31
0.0
  0
LINE
  5
D69B
  8
2-0
  6
CONTINUOUS
 62
     3
 10
27318.97138356679
 20
17537.08732599999
 30
0.0
 11
27348.969007566771
 21
17537.08732599999
 31
0.0
  0
LINE
  5
D69C
  8
2-0
  6
CONTINUOUS
 62
     3
 10
27318.97138356679
 20
17520.98988099999
 30
0.0
 11
27318.97138356679
 21
17526.985842999991
 31
0.0
  0
LINE
  5
D69D
  8
2-0
  6
CONTINUOUS
 62
     3
 10
27318.97138356679
 20
17526.985842999991
 30
0.0
 11
27348.969007566771
 21
17526.985842999991
 31
0.0
  0
LINE
  5
D69E
  8
2-0
  6
CONTINUOUS
 62
     3
 10
27348.969007566771
 20
17526.985842999991
 30
0.0
 11
27348.969007566771
 21
17489.986660999999
 31
0.0
  0
LINE
  5
D69F
  8
2-0
  6
CONTINUOUS
 62
     3
 10
27318.97138356679
 20
17489.986660999999
 30
0.0
 11
27348.969007566771
 21
17489.986660999999
 31
0.0
  0
LINE
  5
D6A0
  8
2-0
  6
CONTINUOUS
 62
     3
 10
27318.97138356679
 20
17495.98856199998
 30
0.0
 11
27318.97138356679
 21
17489.986660999999
 31
0.0
  0
LINE
  5
D6A1
  8
2-0
  6
CONTINUOUS
 62
     3
 10
27318.97138356679
 20
17479.89705499999
 30
0.0
 11
27348.969007566771
 21
17479.89705499999
 31
0.0
  0
LINE
  5
D6A2
  8
2-0
  6
CONTINUOUS
 62
     3
 10
27318.97138356679
 20
17497.892857999981
 30
0.0
 11
27318.97138356679
 21
17479.89705499999
 31
0.0
  0
LINE
  5
D6A3
  8
2-0
  6
CONTINUOUS
 62
     3
 10
27343.968743566758
 20
17497.892857999981
 30
0.0
 11
27318.97138356679
 21
17497.892857999981
 31
0.0
  0
LINE
  5
D6A4
  8
2-0
  6
CONTINUOUS
 62
     3
 10
27343.968743566758
 20
17492.89259499999
 30
0.0
 11
27343.968743566758
 21
17497.892857999981
 31
0.0
  0
LINE
  5
D6A5
  8
2-0
  6
CONTINUOUS
 62
     3
 10
27336.967186566791
 20
17492.89259499999
 30
0.0
 11
27343.968743566758
 21
17492.89259499999
 31
0.0
  0
LINE
  5
D6A6
  8
2-0
  6
CONTINUOUS
 62
     3
 10
27346.082869566791
 20
16772.983480999988
 30
0.0
 11
27346.082869566791
 21
16792.984535999989
 31
0.0
  0
LINE
  5
D6A7
  8
2-0
  6
CONTINUOUS
 62
     3
 10
27346.082869566791
 20
16792.984535999989
 30
0.0
 11
27261.086300566771
 21
16792.984535999989
 31
0.0
  0
LINE
  5
D6A8
  8
2-0
  6
CONTINUOUS
 62
     3
 10
27336.967186566791
 20
16819.591245999989
 30
0.0
 11
27343.968743566758
 21
16819.591245999989
 31
0.0
  0
LINE
  5
D6A9
  8
2-0
  6
CONTINUOUS
 62
     3
 10
27343.968743566758
 20
16819.591245999989
 30
0.0
 11
27343.968743566758
 21
16814.59692
 31
0.0
  0
LINE
  5
D6AA
  8
2-0
  6
CONTINUOUS
 62
     3
 10
27343.968743566758
 20
16814.59692
 30
0.0
 11
27318.97138356679
 21
16814.59692
 31
0.0
  0
LINE
  5
D6AB
  8
2-0
  6
CONTINUOUS
 62
     3
 10
27318.97138356679
 20
16814.59692
 30
0.0
 11
27318.97138356679
 21
16832.59272399998
 31
0.0
  0
LINE
  5
D6AC
  8
2-0
  6
CONTINUOUS
 62
     3
 10
27318.97138356679
 20
16832.59272399998
 30
0.0
 11
27348.969007566771
 21
16832.59272399998
 31
0.0
  0
LINE
  5
D6AD
  8
2-0
  6
CONTINUOUS
 62
     3
 10
27318.97138356679
 20
16822.984139999979
 30
0.0
 11
27318.97138356679
 21
16816.98223999999
 31
0.0
  0
LINE
  5
D6AE
  8
2-0
  6
CONTINUOUS
 62
     3
 10
27348.969007566771
 20
16822.984139999979
 30
0.0
 11
27318.97138356679
 21
16822.984139999979
 31
0.0
  0
LINE
  5
D6AF
  8
2-0
  6
CONTINUOUS
 62
     3
 10
27348.969007566771
 20
16832.59272399998
 30
0.0
 11
27348.969007566771
 21
17479.89705499999
 31
0.0
  0
LINE
  5
D6B0
  8
2-0
  6
CONTINUOUS
 62
     3
 10
27348.969007566771
 20
17537.08732599999
 30
0.0
 11
27348.969007566771
 21
18180.891115999999
 31
0.0
  0
LINE
  5
D6B1
  8
2-0
  6
CONTINUOUS
 62
     3
 10
27348.969007566771
 20
16677.98242499998
 30
0.0
 11
27318.97138356679
 21
16677.98242499998
 31
0.0
  0
LINE
  5
D6B2
  8
2-0
  6
CONTINUOUS
 62
     3
 10
27318.97138356679
 20
16677.98242499998
 30
0.0
 11
27318.97138356679
 21
16683.98432499999
 31
0.0
  0
LINE
  5
D6B3
  8
2-0
  6
CONTINUOUS
 62
     3
 10
27261.086300566771
 20
16707.98796799999
 30
0.0
 11
27346.082869566791
 21
16707.98796799999
 31
0.0
  0
LINE
  5
D6B4
  8
2-0
  6
CONTINUOUS
 62
     3
 10
27346.082869566791
 20
16707.98796799999
 30
0.0
 11
27346.082869566791
 21
16727.983085
 31
0.0
  0
LINE
  5
D6B5
  8
2-0
  6
CONTINUOUS
 62
     3
 10
27318.97138356679
 20
16668.37384199999
 30
0.0
 11
27348.969007566771
 21
16668.37384199999
 31
0.0
  0
LINE
  5
D6B6
  8
2-0
  6
CONTINUOUS
 62
     3
 10
27318.97138356679
 20
16686.369644999981
 30
0.0
 11
27318.97138356679
 21
16668.37384199999
 31
0.0
  0
LINE
  5
D6B7
  8
2-0
  6
CONTINUOUS
 62
     3
 10
27343.968743566758
 20
16686.369644999981
 30
0.0
 11
27318.97138356679
 21
16686.369644999981
 31
0.0
  0
LINE
  5
D6B8
  8
2-0
  6
CONTINUOUS
 62
     3
 10
27343.968743566758
 20
16681.369381
 30
0.0
 11
27343.968743566758
 21
16686.369644999981
 31
0.0
  0
LINE
  5
D6B9
  8
2-0
  6
CONTINUOUS
 62
     3
 10
27336.967186566791
 20
16681.369381
 30
0.0
 11
27343.968743566758
 21
16681.369381
 31
0.0
  0
LINE
  5
D6BA
  8
2-0
  6
CONTINUOUS
 62
     3
 10
27336.967186566791
 20
15976.887150499961
 30
0.0
 11
27343.968743566758
 21
15976.887150499961
 31
0.0
  0
LINE
  5
D6BB
  8
2-0
  6
CONTINUOUS
 62
     3
 10
27343.968743566758
 20
15976.887150499961
 30
0.0
 11
27343.968743566758
 21
15981.887414499981
 31
0.0
  0
LINE
  5
D6BC
  8
2-0
  6
CONTINUOUS
 62
     3
 10
27343.968743566758
 20
15981.887414499981
 30
0.0
 11
27318.97138356679
 21
15981.887414499981
 31
0.0
  0
LINE
  5
D6BD
  8
2-0
  6
CONTINUOUS
 62
     3
 10
27318.97138356679
 20
15981.887414499981
 30
0.0
 11
27318.97138356679
 21
15963.88567249999
 31
0.0
  0
LINE
  5
D6BE
  8
2-0
  6
CONTINUOUS
 62
     3
 10
27318.97138356679
 20
15963.88567249999
 30
0.0
 11
27348.969007566771
 21
15963.88567249999
 31
0.0
  0
LINE
  5
D6BF
  8
2-0
  6
CONTINUOUS
 62
     3
 10
27318.97138356679
 20
15979.983117499991
 30
0.0
 11
27318.97138356679
 21
15973.98616649999
 31
0.0
  0
LINE
  5
D6C0
  8
2-0
  6
CONTINUOUS
 62
     3
 10
27318.97138356679
 20
15973.98616649999
 30
0.0
 11
27348.969007566771
 21
15973.98616649999
 31
0.0
  0
LINE
  5
D6C1
  8
2-0
  6
CONTINUOUS
 62
     3
 10
27348.969007566771
 20
15973.98616649999
 30
0.0
 11
27348.969007566771
 21
16010.98633749999
 31
0.0
  0
LINE
  5
D6C2
  8
2-0
  6
CONTINUOUS
 62
     3
 10
27318.97138356679
 20
16010.98633749999
 30
0.0
 11
27348.969007566771
 21
16010.98633749999
 31
0.0
  0
LINE
  5
D6C3
  8
2-0
  6
CONTINUOUS
 62
     3
 10
27318.97138356679
 20
16004.98344749999
 30
0.0
 11
27318.97138356679
 21
16010.98633749999
 31
0.0
  0
LINE
  5
D6C4
  8
2-0
  6
CONTINUOUS
 62
     3
 10
27318.97138356679
 20
16021.08188249999
 30
0.0
 11
27348.969007566771
 21
16021.08188249999
 31
0.0
  0
LINE
  5
D6C5
  8
2-0
  6
CONTINUOUS
 62
     3
 10
27318.97138356679
 20
16003.07420149998
 30
0.0
 11
27318.97138356679
 21
16021.08188249999
 31
0.0
  0
LINE
  5
D6C6
  8
2-0
  6
CONTINUOUS
 62
     3
 10
27343.968743566758
 20
16003.07420149998
 30
0.0
 11
27318.97138356679
 21
16003.07420149998
 31
0.0
  0
LINE
  5
D6C7
  8
2-0
  6
CONTINUOUS
 62
     3
 10
27343.968743566758
 20
16008.08040449999
 30
0.0
 11
27343.968743566758
 21
16003.07420149998
 31
0.0
  0
LINE
  5
D6C8
  8
2-0
  6
CONTINUOUS
 62
     3
 10
27336.967186566791
 20
16008.08040449999
 30
0.0
 11
27343.968743566758
 21
16008.08040449999
 31
0.0
  0
LINE
  5
D6C9
  8
2-0
  6
CONTINUOUS
 62
     3
 10
27336.967186566791
 20
15307.320420999989
 30
0.0
 11
27343.968743566758
 21
15307.320420999989
 31
0.0
  0
LINE
  5
D6CA
  8
2-0
  6
CONTINUOUS
 62
     3
 10
27343.968743566758
 20
15307.320420999989
 30
0.0
 11
27343.968743566758
 21
15302.32609599999
 31
0.0
  0
LINE
  5
D6CB
  8
2-0
  6
CONTINUOUS
 62
     3
 10
27343.968743566758
 20
15302.32609599999
 30
0.0
 11
27318.97138356679
 21
15302.32609599999
 31
0.0
  0
LINE
  5
D6CC
  8
2-0
  6
CONTINUOUS
 62
     3
 10
27318.97138356679
 20
15302.32609599999
 30
0.0
 11
27318.97138356679
 21
15320.321899
 31
0.0
  0
LINE
  5
D6CD
  8
2-0
  6
CONTINUOUS
 62
     3
 10
27318.97138356679
 20
15320.321899
 30
0.0
 11
27348.969007566771
 21
15320.321899
 31
0.0
  0
LINE
  5
D6CE
  8
2-0
  6
CONTINUOUS
 62
     3
 10
27318.97138356679
 20
15304.224453999999
 30
0.0
 11
27318.97138356679
 21
15310.226353999989
 31
0.0
  0
LINE
  5
D6CF
  8
2-0
  6
CONTINUOUS
 62
     3
 10
27318.97138356679
 20
15310.226353999989
 30
0.0
 11
27348.969007566771
 21
15310.226353999989
 31
0.0
  0
LINE
  5
D6D0
  8
2-0
  6
CONTINUOUS
 62
     3
 10
27348.969007566771
 20
15273.227172999999
 30
0.0
 11
27348.969007566771
 21
15310.226353999989
 31
0.0
  0
LINE
  5
D6D1
  8
2-0
  6
CONTINUOUS
 62
     3
 10
27318.97138356679
 20
15273.227172999999
 30
0.0
 11
27348.969007566771
 21
15273.227172999999
 31
0.0
  0
LINE
  5
D6D2
  8
2-0
  6
CONTINUOUS
 62
     3
 10
27318.97138356679
 20
15279.224123999989
 30
0.0
 11
27318.97138356679
 21
15273.227172999999
 31
0.0
  0
LINE
  5
D6D3
  8
2-0
  6
CONTINUOUS
 62
     3
 10
27318.97138356679
 20
15263.12568899998
 30
0.0
 11
27348.969007566771
 21
15263.12568899998
 31
0.0
  0
LINE
  5
D6D4
  8
2-0
  6
CONTINUOUS
 62
     3
 10
27318.97138356679
 20
15281.13336999998
 30
0.0
 11
27318.97138356679
 21
15263.12568899998
 31
0.0
  0
LINE
  5
D6D5
  8
2-0
  6
CONTINUOUS
 62
     3
 10
27343.968743566758
 20
15281.13336999998
 30
0.0
 11
27318.97138356679
 21
15281.13336999998
 31
0.0
  0
LINE
  5
D6D6
  8
2-0
  6
CONTINUOUS
 62
     3
 10
27343.968743566758
 20
15276.13310600001
 30
0.0
 11
27343.968743566758
 21
15281.13336999998
 31
0.0
  0
LINE
  5
D6D7
  8
2-0
  6
CONTINUOUS
 62
     3
 10
27336.967186566791
 20
15276.13310600001
 30
0.0
 11
27343.968743566758
 21
15276.13310600001
 31
0.0
  0
LINE
  5
D6D8
  8
2-0
  6
CONTINUOUS
 62
     3
 10
27348.969007566771
 20
16668.37384199999
 30
0.0
 11
27348.969007566771
 21
16021.08188249999
 31
0.0
  0
LINE
  5
D6D9
  8
2-0
  6
CONTINUOUS
 62
     3
 10
27348.969007566771
 20
16822.984139999979
 30
0.0
 11
27348.969007566771
 21
16677.98242499998
 31
0.0
  0
LINE
  5
D6DA
  8
2-0
  6
CONTINUOUS
 62
     3
 10
27261.086300566771
 20
16792.984535999989
 30
0.0
 11
27261.086300566771
 21
16707.98796799999
 31
0.0
  0
LINE
  5
D6DB
  8
2-0
  6
CONTINUOUS
 62
     6
 10
25722.877633566779
 20
18561.431801499981
 30
0.0
 11
26747.909965566781
 21
18561.431801499981
 31
0.0
  0
LINE
  5
D6DC
  8
2-0
  6
CONTINUOUS
 62
     3
 10
27336.967186566791
 20
14574.89209899999
 30
0.0
 11
27343.968743566758
 21
14574.89209899999
 31
0.0
  0
LINE
  5
D6DD
  8
2-0
  6
CONTINUOUS
 62
     3
 10
27343.968743566758
 20
14574.89209899999
 30
0.0
 11
27343.968743566758
 21
14579.88642499999
 31
0.0
  0
LINE
  5
D6DE
  8
2-0
  6
CONTINUOUS
 62
     3
 10
27343.968743566758
 20
14579.88642499999
 30
0.0
 11
27318.97138356679
 21
14579.88642499999
 31
0.0
  0
LINE
  5
D6DF
  8
2-0
  6
CONTINUOUS
 62
     3
 10
27318.97138356679
 20
14579.88642499999
 30
0.0
 11
27318.97138356679
 21
14561.89062099999
 31
0.0
  0
LINE
  5
D6E0
  8
2-0
  6
CONTINUOUS
 62
     3
 10
27318.97138356679
 20
14561.89062099999
 30
0.0
 11
27348.969007566771
 21
14561.89062099999
 31
0.0
  0
LINE
  5
D6E1
  8
2-0
  6
CONTINUOUS
 62
     3
 10
27318.97138356679
 20
14577.989055999989
 30
0.0
 11
27318.97138356679
 21
14571.986166000001
 31
0.0
  0
LINE
  5
D6E2
  8
2-0
  6
CONTINUOUS
 62
     3
 10
27318.97138356679
 20
14571.986166000001
 30
0.0
 11
27348.969007566771
 21
14571.986166000001
 31
0.0
  0
LINE
  5
D6E3
  8
2-0
  6
CONTINUOUS
 62
     3
 10
27348.969007566771
 20
14571.986166000001
 30
0.0
 11
27348.969007566771
 21
14608.98633799997
 31
0.0
  0
LINE
  5
D6E4
  8
2-0
  6
CONTINUOUS
 62
     3
 10
27318.97138356679
 20
14608.98633799997
 30
0.0
 11
27348.969007566771
 21
14608.98633799997
 31
0.0
  0
LINE
  5
D6E5
  8
2-0
  6
CONTINUOUS
 62
     3
 10
27318.97138356679
 20
14602.989385999979
 30
0.0
 11
27318.97138356679
 21
14608.98633799997
 31
0.0
  0
LINE
  5
D6E6
  8
2-0
  6
CONTINUOUS
 62
     3
 10
27318.97138356679
 20
14619.08683099999
 30
0.0
 11
27348.969007566771
 21
14619.08683099999
 31
0.0
  0
LINE
  5
D6E7
  8
2-0
  6
CONTINUOUS
 62
     3
 10
27318.97138356679
 20
14601.080139999989
 30
0.0
 11
27318.97138356679
 21
14619.08683099999
 31
0.0
  0
LINE
  5
D6E8
  8
2-0
  6
CONTINUOUS
 62
     3
 10
27343.968743566758
 20
14601.080139999989
 30
0.0
 11
27318.97138356679
 21
14601.080139999989
 31
0.0
  0
LINE
  5
D6E9
  8
2-0
  6
CONTINUOUS
 62
     3
 10
27343.968743566758
 20
14606.085352999989
 30
0.0
 11
27343.968743566758
 21
14601.080139999989
 31
0.0
  0
LINE
  5
D6EA
  8
2-0
  6
CONTINUOUS
 62
     3
 10
27336.967186566791
 20
14606.085352999989
 30
0.0
 11
27343.968743566758
 21
14606.085352999989
 31
0.0
  0
LINE
  5
D6EB
  8
2-0
  6
CONTINUOUS
 62
     3
 10
27318.97138356679
 20
13548.488178999991
 30
0.0
 11
27318.97138356679
 21
13554.49304799998
 31
0.0
  0
LINE
  5
D6EC
  8
2-0
  6
CONTINUOUS
 62
     3
 10
27318.97138356679
 20
13554.49304799998
 30
0.0
 11
27348.969007566771
 21
13554.49304799998
 31
0.0
  0
LINE
  5
D6ED
  8
2-0
  6
CONTINUOUS
 62
     3
 10
27348.969007566771
 20
13554.49304799998
 30
0.0
 11
27348.969007566771
 21
13439.48895699999
 31
0.0
  0
LINE
  5
D6EE
  8
2-0
  6
CONTINUOUS
 62
     3
 10
27348.969007566771
 20
13439.48895699999
 30
0.0
 11
27263.970459566779
 21
13439.48895699999
 31
0.0
  0
LINE
  5
D6EF
  8
2-0
  6
CONTINUOUS
 62
     3
 10
27263.970459566779
 20
13439.48895699999
 30
0.0
 11
27263.970459566779
 21
13524.484535999991
 31
0.0
  0
LINE
  5
D6F0
  8
2-0
  6
CONTINUOUS
 62
     3
 10
27263.970459566779
 20
13524.484535999991
 30
0.0
 11
27295.969377566758
 21
13524.484535999991
 31
0.0
  0
LINE
  5
D6F1
  8
2-0
  6
CONTINUOUS
 62
     3
 10
27336.967186566791
 20
13551.522780999991
 30
0.0
 11
27343.968743566758
 21
13551.522780999991
 31
0.0
  0
LINE
  5
D6F2
  8
2-0
  6
CONTINUOUS
 62
     3
 10
27343.968743566758
 20
13551.522780999991
 30
0.0
 11
27343.968743566758
 21
13546.52548599997
 31
0.0
  0
LINE
  5
D6F3
  8
2-0
  6
CONTINUOUS
 62
     3
 10
27343.968743566758
 20
13546.52548599997
 30
0.0
 11
27318.97138356679
 21
13546.52548599997
 31
0.0
  0
LINE
  5
D6F4
  8
2-0
  6
CONTINUOUS
 62
     3
 10
27318.97138356679
 20
13546.52548599997
 30
0.0
 11
27318.97138356679
 21
13564.524258999991
 31
0.0
  0
LINE
  5
D6F5
  8
2-0
  6
CONTINUOUS
 62
     3
 10
27318.97138356679
 20
13564.524258999991
 30
0.0
 11
27348.969007566771
 21
13564.524258999991
 31
0.0
  0
LINE
  5
D6F6
  8
2-0
  6
CENTER2
 62
     6
 10
27306.470723566781
 20
13241.99139899998
 30
0.0
 11
27306.470723566781
 21
14748.36015700001
 31
0.0
  0
LINE
  5
D6F7
  8
2-0
  6
CONTINUOUS
 62
     3
 10
27348.969007566771
 20
18238.081387999999
 30
0.0
 11
27348.969007566771
 21
18881.892105499988
 31
0.0
  0
LINE
  5
D6F8
  8
2-0
  6
CONTINUOUS
 62
     6
 10
28041.473890566769
 20
20440.987440000001
 30
0.0
 11
29241.467952566749
 21
20440.987440000001
 31
0.0
  0
LINE
  5
D6F9
  8
2-0
  6
CONTINUOUS
 62
     6
 10
27179.441057566772
 20
18803.58630949998
 30
0.0
 11
26747.909965566781
 21
18561.431801499981
 31
0.0
  0
LINE
  5
D6FA
  8
2-0
  6
CONTINUOUS
 62
     6
 10
27501.009891566759
 20
19853.664277000011
 30
0.0
 11
28041.473890566769
 21
20440.987440000001
 31
0.0
  0
LINE
  5
D6FB
  8
2-0
  6
CONTINUOUS
 62
     3
 10
27348.969007566771
 20
15963.88567249999
 30
0.0
 11
27348.969007566771
 21
15320.321899
 31
0.0
  0
LINE
  5
D6FC
  8
2-0
  6
CONTINUOUS
 62
     6
 10
27166.384152566781
 20
18826.845653499979
 30
0.0
 11
27318.97138356679
 21
18881.892105499988
 31
0.0
  0
LINE
  5
D6FD
  8
2-0
  6
CONTINUOUS
 62
     6
 10
27318.97138356679
 20
18881.892105499988
 30
0.0
 11
27192.49004356677
 21
18780.332905499959
 31
0.0
  0
LINE
  5
D6FE
  8
2-0
  6
CONTINUOUS
 62
     6
 10
27166.384152566781
 20
18826.845653499979
 30
0.0
 11
27192.49004356677
 21
18780.332905499959
 31
0.0
  0
LINE
  5
D6FF
  8
2-0
  6
CONTINUOUS
 62
     6
 10
27192.49004356677
 20
18780.332905499959
 30
0.0
 11
27318.97138356679
 21
18881.892105499988
 31
0.0
  0
LINE
  5
D700
  8
2-0
  6
CONTINUOUS
 62
     6
 10
27318.97138356679
 20
18881.892105499988
 30
0.0
 11
27166.384152566781
 21
18826.845653499979
 31
0.0
  0
LINE
  5
D701
  8
2-0
  6
CONTINUOUS
 62
     6
 10
27166.384152566781
 20
18826.845653499979
 30
0.0
 11
27318.97138356679
 21
18881.892105499988
 31
0.0
  0
LINE
  5
D702
  8
2-0
  6
CONTINUOUS
 62
     6
 10
27192.49004356677
 20
18780.332905499959
 30
0.0
 11
27318.97138356679
 21
18881.892105499988
 31
0.0
  0
LINE
  5
D703
  8
2-0
  6
CONTINUOUS
 62
     6
 10
27192.49004356677
 20
18780.332905499959
 30
0.0
 11
27166.384152566781
 21
18826.845653499979
 31
0.0
  0
LINE
  5
D704
  8
2-0
  6
CONTINUOUS
 62
     6
 10
27520.62692056676
 20
19835.60315000001
 30
0.0
 11
27392.664900566779
 21
19735.920532
 31
0.0
  0
LINE
  5
D705
  8
2-0
  6
CONTINUOUS
 62
     6
 10
27392.664900566779
 20
19735.920532
 30
0.0
 11
27481.379005566771
 21
19871.717487000002
 31
0.0
  0
LINE
  5
D706
  8
2-0
  6
CONTINUOUS
 62
     6
 10
27520.62692056676
 20
19835.60315000001
 30
0.0
 11
27481.379005566771
 21
19871.717487000002
 31
0.0
  0
LINE
  5
D707
  8
2-0
  6
CONTINUOUS
 62
     6
 10
27481.379005566771
 20
19871.717487000002
 30
0.0
 11
27392.664900566779
 21
19735.920532
 31
0.0
  0
LINE
  5
D708
  8
2-0
  6
CONTINUOUS
 62
     6
 10
27392.664900566779
 20
19735.920532
 30
0.0
 11
27520.62692056676
 21
19835.60315000001
 31
0.0
  0
LINE
  5
D709
  8
2-0
  6
CONTINUOUS
 62
     6
 10
27520.62692056676
 20
19835.60315000001
 30
0.0
 11
27392.664900566779
 21
19735.920532
 31
0.0
  0
LINE
  5
D70A
  8
2-0
  6
CONTINUOUS
 62
     6
 10
27481.379005566771
 20
19871.717487000002
 30
0.0
 11
27392.664900566779
 21
19735.920532
 31
0.0
  0
LINE
  5
D70B
  8
2-0
  6
CONTINUOUS
 62
     6
 10
27481.379005566771
 20
19871.717487000002
 30
0.0
 11
27520.62692056676
 21
19835.60315000001
 31
0.0
  0
LINE
  5
D70C
  8
2-0
  6
CONTINUOUS
 62
     6
 10
27072.33128656679
 20
13331.21621899998
 30
0.0
 11
27204.078145566778
 21
13425.84314599999
 31
0.0
  0
LINE
  5
D70D
  8
2-0
  6
CONTINUOUS
 62
     6
 10
27204.078145566778
 20
13425.84314599999
 30
0.0
 11
27110.148009566768
 21
13293.604375999979
 31
0.0
  0
LINE
  5
D70E
  8
2-0
  6
CONTINUOUS
 62
     6
 10
27072.33128656679
 20
13331.21621899998
 30
0.0
 11
27110.148009566768
 21
13293.604375999979
 31
0.0
  0
LINE
  5
D70F
  8
2-0
  6
CONTINUOUS
 62
     6
 10
27110.148009566768
 20
13293.604375999979
 30
0.0
 11
27204.078145566778
 21
13425.84314599999
 31
0.0
  0
LINE
  5
D710
  8
2-0
  6
CONTINUOUS
 62
     6
 10
27204.078145566778
 20
13425.84314599999
 30
0.0
 11
27072.33128656679
 21
13331.21621899998
 31
0.0
  0
LINE
  5
D711
  8
2-0
  6
CONTINUOUS
 62
     6
 10
27072.33128656679
 20
13331.21621899998
 30
0.0
 11
27204.078145566778
 21
13425.84314599999
 31
0.0
  0
LINE
  5
D712
  8
2-0
  6
CONTINUOUS
 62
     6
 10
27110.148009566768
 20
13293.604375999979
 30
0.0
 11
27204.078145566778
 21
13425.84314599999
 31
0.0
  0
LINE
  5
D713
  8
2-0
  6
CONTINUOUS
 62
     6
 10
27110.148009566768
 20
13293.604375999979
 30
0.0
 11
27072.33128656679
 21
13331.21621899998
 31
0.0
  0
LINE
  5
D714
  8
2-0
  6
CONTINUOUS
 62
     6
 10
27135.367075566781
 20
13658.12084599998
 30
0.0
 11
27267.967107566761
 21
13564.69251799998
 31
0.0
  0
LINE
  5
D715
  8
2-0
  6
CONTINUOUS
 62
     6
 10
27267.967107566761
 20
13564.69251799998
 30
0.0
 11
27112.234421566762
 21
13610.06803199999
 31
0.0
  0
LINE
  5
D716
  8
2-0
  6
CONTINUOUS
 62
     6
 10
27135.367075566781
 20
13658.12084599998
 30
0.0
 11
27112.234421566762
 21
13610.06803199999
 31
0.0
  0
LINE
  5
D717
  8
2-0
  6
CONTINUOUS
 62
     6
 10
27112.234421566762
 20
13610.06803199999
 30
0.0
 11
27267.967107566761
 21
13564.69251799998
 31
0.0
  0
LINE
  5
D718
  8
2-0
  6
CONTINUOUS
 62
     6
 10
27267.967107566761
 20
13564.69251799998
 30
0.0
 11
27135.367075566781
 21
13658.12084599998
 31
0.0
  0
LINE
  5
D719
  8
2-0
  6
CONTINUOUS
 62
     6
 10
27135.367075566781
 20
13658.12084599998
 30
0.0
 11
27267.967107566761
 21
13564.69251799998
 31
0.0
  0
LINE
  5
D71A
  8
2-0
  6
CONTINUOUS
 62
     6
 10
27112.234421566762
 20
13610.06803199999
 30
0.0
 11
27267.967107566761
 21
13564.69251799998
 31
0.0
  0
LINE
  5
D71B
  8
2-0
  6
CONTINUOUS
 62
     6
 10
27112.234421566762
 20
13610.06803199999
 30
0.0
 11
27135.367075566781
 21
13658.12084599998
 31
0.0
  0
LINE
  5
D71C
  8
2-0
  6
CONTINUOUS
 62
     6
 10
27195.130721566758
 20
16388.441779000012
 30
0.0
 11
27348.969007566771
 21
16439.87561000001
 31
0.0
  0
LINE
  5
D71D
  8
2-0
  6
CONTINUOUS
 62
     6
 10
27348.969007566771
 20
16439.87561000001
 30
0.0
 11
27220.134020566751
 21
16341.335175000009
 31
0.0
  0
LINE
  5
D71E
  8
2-0
  6
CONTINUOUS
 62
     6
 10
27195.130721566758
 20
16388.441779000012
 30
0.0
 11
27220.134020566751
 21
16341.335175000009
 31
0.0
  0
LINE
  5
D71F
  8
2-0
  6
CONTINUOUS
 62
     6
 10
27220.134020566751
 20
16341.335175000009
 30
0.0
 11
27348.969007566771
 21
16439.87561000001
 31
0.0
  0
LINE
  5
D720
  8
2-0
  6
CONTINUOUS
 62
     6
 10
27348.969007566771
 20
16439.87561000001
 30
0.0
 11
27195.130721566758
 21
16388.441779000012
 31
0.0
  0
LINE
  5
D721
  8
2-0
  6
CONTINUOUS
 62
     6
 10
27195.130721566758
 20
16388.441779000012
 30
0.0
 11
27348.969007566771
 21
16439.87561000001
 31
0.0
  0
LINE
  5
D722
  8
2-0
  6
CONTINUOUS
 62
     6
 10
27220.134020566751
 20
16341.335175000009
 30
0.0
 11
27348.969007566771
 21
16439.87561000001
 31
0.0
  0
LINE
  5
D723
  8
2-0
  6
CONTINUOUS
 62
     6
 10
27220.134020566751
 20
16341.335175000009
 30
0.0
 11
27195.130721566758
 21
16388.441779000012
 31
0.0
  0
LINE
  5
D724
  8
2-0
  6
CONTINUOUS
 62
     6
 10
27061.194514566771
 20
16879.760270999999
 30
0.0
 11
27204.078145566778
 21
16802.984641999989
 31
0.0
  0
LINE
  5
D725
  8
2-0
  6
CONTINUOUS
 62
     6
 10
27204.078145566778
 20
16802.984641999989
 30
0.0
 11
27044.016252566769
 21
16829.266711
 31
0.0
  0
LINE
  5
D726
  8
2-0
  6
CONTINUOUS
 62
     6
 10
27061.194514566771
 20
16879.760270999999
 30
0.0
 11
27044.016252566769
 21
16829.266711
 31
0.0
  0
LINE
  5
D727
  8
2-0
  6
CONTINUOUS
 62
     6
 10
27044.016252566769
 20
16829.266711
 30
0.0
 11
27204.078145566778
 21
16802.984641999989
 31
0.0
  0
LINE
  5
D728
  8
2-0
  6
CONTINUOUS
 62
     6
 10
27204.078145566778
 20
16802.984641999989
 30
0.0
 11
27061.194514566771
 21
16879.760270999999
 31
0.0
  0
LINE
  5
D729
  8
2-0
  6
CONTINUOUS
 62
     6
 10
27061.194514566771
 20
16879.760270999999
 30
0.0
 11
27204.078145566778
 21
16802.984641999989
 31
0.0
  0
LINE
  5
D72A
  8
2-0
  6
CONTINUOUS
 62
     6
 10
27044.016252566769
 20
16829.266711
 30
0.0
 11
27204.078145566778
 21
16802.984641999989
 31
0.0
  0
LINE
  5
D72B
  8
2-0
  6
CONTINUOUS
 62
     6
 10
27044.016252566769
 20
16829.266711
 30
0.0
 11
27061.194514566771
 21
16879.760270999999
 31
0.0
  0
LINE
  5
D72C
  8
2-0
  6
CONTINUOUS
 62
     3
 10
24375.97204356677
 20
19601.984326000002
 30
0.0
 11
24375.97204356677
 21
19595.988364000001
 31
0.0
  0
LINE
  5
D72D
  8
2-0
  6
CONTINUOUS
 62
     3
 10
24375.97204356677
 20
19595.988364000001
 30
0.0
 11
24345.97441856677
 21
19595.988364000001
 31
0.0
  0
LINE
  5
D72E
  8
2-0
  6
CONTINUOUS
 62
     3
 10
24345.97441856677
 20
19595.988364000001
 30
0.0
 11
24345.97441856677
 21
19710.984537
 31
0.0
  0
LINE
  5
D72F
  8
2-0
  6
CONTINUOUS
 62
     3
 10
24345.97441856677
 20
19625.98796799999
 30
0.0
 11
24426.972359566778
 21
19625.98796799999
 31
0.0
  0
LINE
  5
D730
  8
2-0
  6
CONTINUOUS
 62
     3
 10
24375.97204356677
 20
19585.69090799999
 30
0.0
 11
24345.97441856677
 21
19585.69090799999
 31
0.0
  0
LINE
  5
D731
  8
2-0
  6
CONTINUOUS
 62
     3
 10
24375.97204356677
 20
19603.69264999999
 30
0.0
 11
24375.97204356677
 21
19585.69090799999
 31
0.0
  0
LINE
  5
D732
  8
2-0
  6
CONTINUOUS
 62
     3
 10
24350.97864156677
 20
19603.69264999999
 30
0.0
 11
24375.97204356677
 21
19603.69264999999
 31
0.0
  0
LINE
  5
D733
  8
2-0
  6
CONTINUOUS
 62
     3
 10
24350.97864156677
 20
19598.684467999999
 30
0.0
 11
24350.97864156677
 21
19603.69264999999
 31
0.0
  0
LINE
  5
D734
  8
2-0
  6
CONTINUOUS
 62
     3
 10
24357.97623956676
 20
19598.684467999999
 30
0.0
 11
24350.97864156677
 21
19598.684467999999
 31
0.0
  0
LINE
  5
D735
  8
2-0
  6
CONTINUOUS
 62
     3
 10
24458.270528566762
 20
19698.98469500001
 30
0.0
 11
24458.270528566762
 21
19705.990211
 31
0.0
  0
LINE
  5
D736
  8
2-0
  6
CONTINUOUS
 62
     3
 10
24458.270528566762
 20
19705.990211
 30
0.0
 11
24453.26828456677
 21
19705.990211
 31
0.0
  0
LINE
  5
D737
  8
2-0
  6
CONTINUOUS
 62
     3
 10
24453.26828456677
 20
19705.990211
 30
0.0
 11
24453.26828456677
 21
19680.980973999991
 31
0.0
  0
LINE
  5
D738
  8
2-0
  6
CONTINUOUS
 62
     3
 10
24453.26828456677
 20
19680.980973999991
 30
0.0
 11
24471.275965566761
 21
19680.980973999991
 31
0.0
  0
LINE
  5
D739
  8
2-0
  6
CONTINUOUS
 62
     3
 10
24471.275965566761
 20
19680.980973999991
 30
0.0
 11
24471.275965566761
 21
19710.984537
 31
0.0
  0
LINE
  5
D73A
  8
2-0
  6
CONTINUOUS
 62
     3
 10
24460.976529566778
 20
19710.984537
 30
0.0
 11
24345.97441856677
 21
19710.984537
 31
0.0
  0
LINE
  5
D73B
  8
2-0
  6
CONTINUOUS
 62
     3
 10
24460.976529566778
 20
19680.980973999991
 30
0.0
 11
24460.976529566778
 21
19710.984537
 31
0.0
  0
LINE
  5
D73C
  8
2-0
  6
CONTINUOUS
 62
     3
 10
24454.972650566771
 20
19680.980973999991
 30
0.0
 11
24460.976529566778
 21
19680.980973999991
 31
0.0
  0
LINE
  5
D73D
  8
2-0
  6
CONTINUOUS
 62
     3
 10
24375.97204356677
 20
19601.984326000002
 30
0.0
 11
24375.97204356677
 21
19595.988364000001
 31
0.0
  0
LINE
  5
D73E
  8
2-0
  6
CONTINUOUS
 62
     3
 10
24375.97204356677
 20
19595.988364000001
 30
0.0
 11
24345.97441856677
 21
19595.988364000001
 31
0.0
  0
LINE
  5
D73F
  8
2-0
  6
CONTINUOUS
 62
     3
 10
24345.97441856677
 20
19595.988364000001
 30
0.0
 11
24345.97441856677
 21
19710.984537
 31
0.0
  0
LINE
  5
D740
  8
2-0
  6
CONTINUOUS
 62
     3
 10
24345.97441856677
 20
19625.98796799999
 30
0.0
 11
24426.972359566778
 21
19625.98796799999
 31
0.0
  0
LINE
  5
D741
  8
2-0
  6
CONTINUOUS
 62
     3
 10
24375.97204356677
 20
19585.69090799999
 30
0.0
 11
24345.97441856677
 21
19585.69090799999
 31
0.0
  0
LINE
  5
D742
  8
2-0
  6
CONTINUOUS
 62
     3
 10
24375.97204356677
 20
19603.69264999999
 30
0.0
 11
24375.97204356677
 21
19585.69090799999
 31
0.0
  0
LINE
  5
D743
  8
2-0
  6
CONTINUOUS
 62
     3
 10
24350.97864156677
 20
19603.69264999999
 30
0.0
 11
24375.97204356677
 21
19603.69264999999
 31
0.0
  0
LINE
  5
D744
  8
2-0
  6
CONTINUOUS
 62
     3
 10
24350.97864156677
 20
19598.684467999999
 30
0.0
 11
24350.97864156677
 21
19603.69264999999
 31
0.0
  0
LINE
  5
D745
  8
2-0
  6
CONTINUOUS
 62
     3
 10
24357.97623956676
 20
19598.684467999999
 30
0.0
 11
24350.97864156677
 21
19598.684467999999
 31
0.0
  0
LINE
  5
D746
  8
2-0
  6
CONTINUOUS
 62
     3
 10
24357.97623956676
 20
18894.887645499981
 30
0.0
 11
24350.97864156677
 21
18894.887645499981
 31
0.0
  0
LINE
  5
D747
  8
2-0
  6
CONTINUOUS
 62
     3
 10
24350.97864156677
 20
18894.887645499981
 30
0.0
 11
24350.97864156677
 21
18899.88790949999
 31
0.0
  0
LINE
  5
D748
  8
2-0
  6
CONTINUOUS
 62
     3
 10
24350.97864156677
 20
18899.88790949999
 30
0.0
 11
24375.97204356677
 21
18899.88790949999
 31
0.0
  0
LINE
  5
D749
  8
2-0
  6
CONTINUOUS
 62
     3
 10
24375.97204356677
 20
18899.88790949999
 30
0.0
 11
24375.97204356677
 21
18881.89210549997
 31
0.0
  0
LINE
  5
D74A
  8
2-0
  6
CONTINUOUS
 62
     3
 10
24375.97204356677
 20
18881.89210549997
 30
0.0
 11
24345.97441856677
 21
18881.89210549997
 31
0.0
  0
LINE
  5
D74B
  8
2-0
  6
CONTINUOUS
 62
     3
 10
24375.97204356677
 20
18897.983612499949
 30
0.0
 11
24375.97204356677
 21
18891.985671499981
 31
0.0
  0
LINE
  5
D74C
  8
2-0
  6
CONTINUOUS
 62
     3
 10
24375.97204356677
 20
18891.985671499981
 30
0.0
 11
24345.97441856677
 21
18891.985671499981
 31
0.0
  0
LINE
  5
D74D
  8
2-0
  6
CONTINUOUS
 62
     3
 10
24345.97441856677
 20
18891.985671499981
 30
0.0
 11
24345.97441856677
 21
18928.986832499981
 31
0.0
  0
LINE
  5
D74E
  8
2-0
  6
CONTINUOUS
 62
     3
 10
24375.97204356677
 20
18928.986832499981
 30
0.0
 11
24345.97441856677
 21
18928.986832499981
 31
0.0
  0
LINE
  5
D74F
  8
2-0
  6
CONTINUOUS
 62
     3
 10
24375.97204356677
 20
18922.98295249998
 30
0.0
 11
24375.97204356677
 21
18928.986832499981
 31
0.0
  0
LINE
  5
D750
  8
2-0
  6
CONTINUOUS
 62
     3
 10
24375.97204356677
 20
18939.08237749997
 30
0.0
 11
24345.97441856677
 21
18939.08237749997
 31
0.0
  0
LINE
  5
D751
  8
2-0
  6
CONTINUOUS
 62
     3
 10
24375.97204356677
 20
18921.080635499991
 30
0.0
 11
24375.97204356677
 21
18939.08237749997
 31
0.0
  0
LINE
  5
D752
  8
2-0
  6
CONTINUOUS
 62
     3
 10
24350.97864156677
 20
18921.080635499991
 30
0.0
 11
24375.97204356677
 21
18921.080635499991
 31
0.0
  0
LINE
  5
D753
  8
2-0
  6
CONTINUOUS
 62
     3
 10
24350.97864156677
 20
18926.080899499972
 30
0.0
 11
24350.97864156677
 21
18921.080635499991
 31
0.0
  0
LINE
  5
D754
  8
2-0
  6
CONTINUOUS
 62
     3
 10
24357.97623956676
 20
18926.080899499972
 30
0.0
 11
24350.97864156677
 21
18926.080899499972
 31
0.0
  0
LINE
  5
D755
  8
2-0
  6
CONTINUOUS
 62
     3
 10
24357.97623956676
 20
18193.886655999991
 30
0.0
 11
24350.97864156677
 21
18193.886655999991
 31
0.0
  0
LINE
  5
D756
  8
2-0
  6
CONTINUOUS
 62
     3
 10
24350.97864156677
 20
18193.886655999991
 30
0.0
 11
24350.97864156677
 21
18198.892857999988
 31
0.0
  0
LINE
  5
D757
  8
2-0
  6
CONTINUOUS
 62
     3
 10
24350.97864156677
 20
18198.892857999988
 30
0.0
 11
24375.97204356677
 21
18198.892857999988
 31
0.0
  0
LINE
  5
D758
  8
2-0
  6
CONTINUOUS
 62
     3
 10
24375.97204356677
 20
18198.892857999988
 30
0.0
 11
24375.97204356677
 21
18180.891115999981
 31
0.0
  0
LINE
  5
D759
  8
2-0
  6
CONTINUOUS
 62
     3
 10
24375.97204356677
 20
18180.891115999981
 30
0.0
 11
24345.97441856677
 21
18180.891115999981
 31
0.0
  0
LINE
  5
D75A
  8
2-0
  6
CONTINUOUS
 62
     3
 10
24375.97204356677
 20
18196.982622999971
 30
0.0
 11
24375.97204356677
 21
18190.986660999981
 31
0.0
  0
LINE
  5
D75B
  8
2-0
  6
CONTINUOUS
 62
     3
 10
24375.97204356677
 20
18190.986660999981
 30
0.0
 11
24345.97441856677
 21
18190.986660999981
 31
0.0
  0
LINE
  5
D75C
  8
2-0
  6
CONTINUOUS
 62
     3
 10
24345.97441856677
 20
18190.986660999981
 30
0.0
 11
24345.97441856677
 21
18227.98584299998
 31
0.0
  0
LINE
  5
D75D
  8
2-0
  6
CONTINUOUS
 62
     3
 10
24375.97204356677
 20
18227.98584299998
 30
0.0
 11
24345.97441856677
 21
18227.98584299998
 31
0.0
  0
LINE
  5
D75E
  8
2-0
  6
CONTINUOUS
 62
     3
 10
24375.97204356677
 20
18221.98988099999
 30
0.0
 11
24375.97204356677
 21
18227.98584299998
 31
0.0
  0
LINE
  5
D75F
  8
2-0
  6
CONTINUOUS
 62
     3
 10
24375.97204356677
 20
18238.081387999991
 30
0.0
 11
24345.97441856677
 21
18238.081387999991
 31
0.0
  0
LINE
  5
D760
  8
2-0
  6
CONTINUOUS
 62
     3
 10
24375.97204356677
 20
18220.07964599998
 30
0.0
 11
24375.97204356677
 21
18238.081387999991
 31
0.0
  0
LINE
  5
D761
  8
2-0
  6
CONTINUOUS
 62
     3
 10
24350.97864156677
 20
18220.07964599998
 30
0.0
 11
24375.97204356677
 21
18220.07964599998
 31
0.0
  0
LINE
  5
D762
  8
2-0
  6
CONTINUOUS
 62
     3
 10
24350.97864156677
 20
18225.085847999981
 30
0.0
 11
24350.97864156677
 21
18220.07964599998
 31
0.0
  0
LINE
  5
D763
  8
2-0
  6
CONTINUOUS
 62
     3
 10
24357.97623956676
 20
18225.085847999981
 30
0.0
 11
24350.97864156677
 21
18225.085847999981
 31
0.0
  0
LINE
  5
D764
  8
2-0
  6
CONTINUOUS
 62
     3
 10
24357.97623956676
 20
17524.079909999979
 30
0.0
 11
24350.97864156677
 21
17524.079909999979
 31
0.0
  0
LINE
  5
D765
  8
2-0
  6
CONTINUOUS
 62
     3
 10
24350.97864156677
 20
17524.079909999979
 30
0.0
 11
24350.97864156677
 21
17519.091522999988
 31
0.0
  0
LINE
  5
D766
  8
2-0
  6
CONTINUOUS
 62
     3
 10
24350.97864156677
 20
17519.091522999988
 30
0.0
 11
24375.97204356677
 21
17519.091522999988
 31
0.0
  0
LINE
  5
D767
  8
2-0
  6
CONTINUOUS
 62
     3
 10
24375.97204356677
 20
17519.091522999988
 30
0.0
 11
24375.97204356677
 21
17537.087325999979
 31
0.0
  0
LINE
  5
D768
  8
2-0
  6
CONTINUOUS
 62
     3
 10
24375.97204356677
 20
17537.087325999979
 30
0.0
 11
24345.97441856677
 21
17537.087325999979
 31
0.0
  0
LINE
  5
D769
  8
2-0
  6
CONTINUOUS
 62
     3
 10
24375.97204356677
 20
17520.98988099999
 30
0.0
 11
24375.97204356677
 21
17526.98584299998
 31
0.0
  0
LINE
  5
D76A
  8
2-0
  6
CONTINUOUS
 62
     3
 10
24375.97204356677
 20
17526.98584299998
 30
0.0
 11
24345.97441856677
 21
17526.98584299998
 31
0.0
  0
LINE
  5
D76B
  8
2-0
  6
CONTINUOUS
 62
     3
 10
24345.97441856677
 20
17526.98584299998
 30
0.0
 11
24345.97441856677
 21
17489.986660999981
 31
0.0
  0
LINE
  5
D76C
  8
2-0
  6
CONTINUOUS
 62
     3
 10
24375.97204356677
 20
17489.986660999981
 30
0.0
 11
24345.97441856677
 21
17489.986660999981
 31
0.0
  0
LINE
  5
D76D
  8
2-0
  6
CONTINUOUS
 62
     3
 10
24375.97204356677
 20
17495.98856199998
 30
0.0
 11
24375.97204356677
 21
17489.986660999981
 31
0.0
  0
LINE
  5
D76E
  8
2-0
  6
CONTINUOUS
 62
     3
 10
24375.97204356677
 20
17479.89705499999
 30
0.0
 11
24345.97441856677
 21
17479.89705499999
 31
0.0
  0
LINE
  5
D76F
  8
2-0
  6
CONTINUOUS
 62
     3
 10
24375.97204356677
 20
17497.892857999959
 30
0.0
 11
24375.97204356677
 21
17479.89705499999
 31
0.0
  0
LINE
  5
D770
  8
2-0
  6
CONTINUOUS
 62
     3
 10
24350.97864156677
 20
17497.892857999959
 30
0.0
 11
24375.97204356677
 21
17497.892857999959
 31
0.0
  0
LINE
  5
D771
  8
2-0
  6
CONTINUOUS
 62
     3
 10
24350.97864156677
 20
17492.89259499999
 30
0.0
 11
24350.97864156677
 21
17497.892857999959
 31
0.0
  0
LINE
  5
D772
  8
2-0
  6
CONTINUOUS
 62
     3
 10
24357.97623956676
 20
17492.89259499999
 30
0.0
 11
24350.97864156677
 21
17492.89259499999
 31
0.0
  0
LINE
  5
D773
  8
2-0
  6
CONTINUOUS
 62
     3
 10
24348.860556566779
 20
16772.983480999988
 30
0.0
 11
24348.860556566779
 21
16792.984535999989
 31
0.0
  0
LINE
  5
D774
  8
2-0
  6
CONTINUOUS
 62
     3
 10
24348.860556566779
 20
16792.984535999989
 30
0.0
 11
24433.86108456679
 21
16792.984535999989
 31
0.0
  0
LINE
  5
D775
  8
2-0
  6
CONTINUOUS
 62
     3
 10
24357.97623956676
 20
16819.591245999989
 30
0.0
 11
24350.97864156677
 21
16819.591245999989
 31
0.0
  0
LINE
  5
D776
  8
2-0
  6
CONTINUOUS
 62
     3
 10
24350.97864156677
 20
16819.591245999989
 30
0.0
 11
24350.97864156677
 21
16814.59692
 31
0.0
  0
LINE
  5
D777
  8
2-0
  6
CONTINUOUS
 62
     3
 10
24350.97864156677
 20
16814.59692
 30
0.0
 11
24375.97204356677
 21
16814.59692
 31
0.0
  0
LINE
  5
D778
  8
2-0
  6
CONTINUOUS
 62
     3
 10
24375.97204356677
 20
16814.59692
 30
0.0
 11
24375.97204356677
 21
16832.59272399998
 31
0.0
  0
LINE
  5
D779
  8
2-0
  6
CONTINUOUS
 62
     3
 10
24375.97204356677
 20
16832.59272399998
 30
0.0
 11
24345.97441856677
 21
16832.59272399998
 31
0.0
  0
LINE
  5
D77A
  8
2-0
  6
CONTINUOUS
 62
     3
 10
24375.97204356677
 20
16822.984139999979
 30
0.0
 11
24375.97204356677
 21
16816.98223999999
 31
0.0
  0
LINE
  5
D77B
  8
2-0
  6
CONTINUOUS
 62
     3
 10
24345.97441856677
 20
16822.984139999979
 30
0.0
 11
24375.97204356677
 21
16822.984139999979
 31
0.0
  0
LINE
  5
D77C
  8
2-0
  6
CONTINUOUS
 62
     3
 10
24345.97441856677
 20
16832.59272399998
 30
0.0
 11
24345.97441856677
 21
17479.89705499999
 31
0.0
  0
LINE
  5
D77D
  8
2-0
  6
CONTINUOUS
 62
     3
 10
24345.97441856677
 20
17537.087325999979
 30
0.0
 11
24345.97441856677
 21
18180.891115999981
 31
0.0
  0
LINE
  5
D77E
  8
2-0
  6
CONTINUOUS
 62
     3
 10
24345.97441856677
 20
16677.98242499998
 30
0.0
 11
24375.97204356677
 21
16677.98242499998
 31
0.0
  0
LINE
  5
D77F
  8
2-0
  6
CONTINUOUS
 62
     3
 10
24375.97204356677
 20
16677.98242499998
 30
0.0
 11
24375.97204356677
 21
16683.98432499999
 31
0.0
  0
LINE
  5
D780
  8
2-0
  6
CONTINUOUS
 62
     3
 10
24433.86108456679
 20
16707.98796799999
 30
0.0
 11
24348.860556566779
 21
16707.98796799999
 31
0.0
  0
LINE
  5
D781
  8
2-0
  6
CONTINUOUS
 62
     3
 10
24348.860556566779
 20
16707.98796799999
 30
0.0
 11
24348.860556566779
 21
16727.983085
 31
0.0
  0
LINE
  5
D782
  8
2-0
  6
CONTINUOUS
 62
     3
 10
24375.97204356677
 20
16668.37384199999
 30
0.0
 11
24345.97441856677
 21
16668.37384199999
 31
0.0
  0
LINE
  5
D783
  8
2-0
  6
CONTINUOUS
 62
     3
 10
24375.97204356677
 20
16686.369644999981
 30
0.0
 11
24375.97204356677
 21
16668.37384199999
 31
0.0
  0
LINE
  5
D784
  8
2-0
  6
CONTINUOUS
 62
     3
 10
24350.97864156677
 20
16686.369644999981
 30
0.0
 11
24375.97204356677
 21
16686.369644999981
 31
0.0
  0
LINE
  5
D785
  8
2-0
  6
CONTINUOUS
 62
     3
 10
24350.97864156677
 20
16681.369381
 30
0.0
 11
24350.97864156677
 21
16686.369644999981
 31
0.0
  0
LINE
  5
D786
  8
2-0
  6
CONTINUOUS
 62
     3
 10
24357.97623956676
 20
16681.369381
 30
0.0
 11
24350.97864156677
 21
16681.369381
 31
0.0
  0
LINE
  5
D787
  8
2-0
  6
CONTINUOUS
 62
     3
 10
24357.97623956676
 20
15976.887150499961
 30
0.0
 11
24350.97864156677
 21
15976.887150499961
 31
0.0
  0
LINE
  5
D788
  8
2-0
  6
CONTINUOUS
 62
     3
 10
24350.97864156677
 20
15976.887150499961
 30
0.0
 11
24350.97864156677
 21
15981.887414499981
 31
0.0
  0
LINE
  5
D789
  8
2-0
  6
CONTINUOUS
 62
     3
 10
24350.97864156677
 20
15981.887414499981
 30
0.0
 11
24375.97204356677
 21
15981.887414499981
 31
0.0
  0
LINE
  5
D78A
  8
2-0
  6
CONTINUOUS
 62
     3
 10
24375.97204356677
 20
15981.887414499981
 30
0.0
 11
24375.97204356677
 21
15963.885672499981
 31
0.0
  0
LINE
  5
D78B
  8
2-0
  6
CONTINUOUS
 62
     3
 10
24375.97204356677
 20
15963.885672499981
 30
0.0
 11
24345.97441856677
 21
15963.885672499981
 31
0.0
  0
LINE
  5
D78C
  8
2-0
  6
CONTINUOUS
 62
     3
 10
24375.97204356677
 20
15979.983117499991
 30
0.0
 11
24375.97204356677
 21
15973.98616649999
 31
0.0
  0
LINE
  5
D78D
  8
2-0
  6
CONTINUOUS
 62
     3
 10
24375.97204356677
 20
15973.98616649999
 30
0.0
 11
24345.97441856677
 21
15973.98616649999
 31
0.0
  0
LINE
  5
D78E
  8
2-0
  6
CONTINUOUS
 62
     3
 10
24345.97441856677
 20
15973.98616649999
 30
0.0
 11
24345.97441856677
 21
16010.98633749999
 31
0.0
  0
LINE
  5
D78F
  8
2-0
  6
CONTINUOUS
 62
     3
 10
24375.97204356677
 20
16010.98633749999
 30
0.0
 11
24345.97441856677
 21
16010.98633749999
 31
0.0
  0
LINE
  5
D790
  8
2-0
  6
CONTINUOUS
 62
     3
 10
24375.97204356677
 20
16004.98344749999
 30
0.0
 11
24375.97204356677
 21
16010.98633749999
 31
0.0
  0
LINE
  5
D791
  8
2-0
  6
CONTINUOUS
 62
     3
 10
24375.97204356677
 20
16021.081882499981
 30
0.0
 11
24345.97441856677
 21
16021.081882499981
 31
0.0
  0
LINE
  5
D792
  8
2-0
  6
CONTINUOUS
 62
     3
 10
24375.97204356677
 20
16003.07420149998
 30
0.0
 11
24375.97204356677
 21
16021.081882499981
 31
0.0
  0
LINE
  5
D793
  8
2-0
  6
CONTINUOUS
 62
     3
 10
24350.97864156677
 20
16003.07420149998
 30
0.0
 11
24375.97204356677
 21
16003.07420149998
 31
0.0
  0
LINE
  5
D794
  8
2-0
  6
CONTINUOUS
 62
     3
 10
24350.97864156677
 20
16008.08040449999
 30
0.0
 11
24350.97864156677
 21
16003.07420149998
 31
0.0
  0
LINE
  5
D795
  8
2-0
  6
CONTINUOUS
 62
     3
 10
24357.97623956676
 20
16008.08040449999
 30
0.0
 11
24350.97864156677
 21
16008.08040449999
 31
0.0
  0
LINE
  5
D796
  8
2-0
  6
CONTINUOUS
 62
     3
 10
24357.97623956676
 20
15307.320420999989
 30
0.0
 11
24350.97864156677
 21
15307.320420999989
 31
0.0
  0
LINE
  5
D797
  8
2-0
  6
CONTINUOUS
 62
     3
 10
24350.97864156677
 20
15307.320420999989
 30
0.0
 11
24350.97864156677
 21
15302.32609599999
 31
0.0
  0
LINE
  5
D798
  8
2-0
  6
CONTINUOUS
 62
     3
 10
24350.97864156677
 20
15302.32609599999
 30
0.0
 11
24375.97204356677
 21
15302.32609599999
 31
0.0
  0
LINE
  5
D799
  8
2-0
  6
CONTINUOUS
 62
     3
 10
24375.97204356677
 20
15302.32609599999
 30
0.0
 11
24375.97204356677
 21
15320.321899
 31
0.0
  0
LINE
  5
D79A
  8
2-0
  6
CONTINUOUS
 62
     3
 10
24375.97204356677
 20
15320.321899
 30
0.0
 11
24345.97441856677
 21
15320.321899
 31
0.0
  0
LINE
  5
D79B
  8
2-0
  6
CONTINUOUS
 62
     3
 10
24375.97204356677
 20
15304.224453999979
 30
0.0
 11
24375.97204356677
 21
15310.226353999989
 31
0.0
  0
LINE
  5
D79C
  8
2-0
  6
CONTINUOUS
 62
     3
 10
24375.97204356677
 20
15310.226353999989
 30
0.0
 11
24345.97441856677
 21
15310.226353999989
 31
0.0
  0
LINE
  5
D79D
  8
2-0
  6
CONTINUOUS
 62
     3
 10
24345.97441856677
 20
15273.227172999999
 30
0.0
 11
24345.97441856677
 21
15310.226353999989
 31
0.0
  0
LINE
  5
D79E
  8
2-0
  6
CONTINUOUS
 62
     3
 10
24375.97204356677
 20
15273.227172999999
 30
0.0
 11
24345.97441856677
 21
15273.227172999999
 31
0.0
  0
LINE
  5
D79F
  8
2-0
  6
CONTINUOUS
 62
     3
 10
24375.97204356677
 20
15279.224123999989
 30
0.0
 11
24375.97204356677
 21
15273.227172999999
 31
0.0
  0
LINE
  5
D7A0
  8
2-0
  6
CONTINUOUS
 62
     3
 10
24375.97204356677
 20
15263.12568899998
 30
0.0
 11
24345.97441856677
 21
15263.12568899998
 31
0.0
  0
LINE
  5
D7A1
  8
2-0
  6
CONTINUOUS
 62
     3
 10
24375.97204356677
 20
15281.13336999998
 30
0.0
 11
24375.97204356677
 21
15263.12568899998
 31
0.0
  0
LINE
  5
D7A2
  8
2-0
  6
CONTINUOUS
 62
     3
 10
24350.97864156677
 20
15281.13336999998
 30
0.0
 11
24375.97204356677
 21
15281.13336999998
 31
0.0
  0
LINE
  5
D7A3
  8
2-0
  6
CONTINUOUS
 62
     3
 10
24350.97864156677
 20
15276.13310600001
 30
0.0
 11
24350.97864156677
 21
15281.13336999998
 31
0.0
  0
LINE
  5
D7A4
  8
2-0
  6
CONTINUOUS
 62
     3
 10
24357.97623956676
 20
15276.13310600001
 30
0.0
 11
24350.97864156677
 21
15276.13310600001
 31
0.0
  0
LINE
  5
D7A5
  8
2-0
  6
CONTINUOUS
 62
     3
 10
24345.97441856677
 20
16668.37384199999
 30
0.0
 11
24345.97441856677
 21
16021.081882499981
 31
0.0
  0
LINE
  5
D7A6
  8
2-0
  6
CONTINUOUS
 62
     3
 10
24345.97441856677
 20
16822.984139999979
 30
0.0
 11
24345.97441856677
 21
16677.98242499998
 31
0.0
  0
LINE
  5
D7A7
  8
2-0
  6
CONTINUOUS
 62
     3
 10
24433.86108456679
 20
16792.984535999989
 30
0.0
 11
24433.86108456679
 21
16707.98796799999
 31
0.0
  0
LINE
  5
D7A8
  8
2-0
  6
CONTINUOUS
 62
     3
 10
24357.97623956676
 20
14574.89209899999
 30
0.0
 11
24350.97864156677
 21
14574.89209899999
 31
0.0
  0
LINE
  5
D7A9
  8
2-0
  6
CONTINUOUS
 62
     3
 10
24350.97864156677
 20
14574.89209899999
 30
0.0
 11
24350.97864156677
 21
14579.886425000001
 31
0.0
  0
LINE
  5
D7AA
  8
2-0
  6
CONTINUOUS
 62
     3
 10
24350.97864156677
 20
14579.886425000001
 30
0.0
 11
24375.97204356677
 21
14579.886425000001
 31
0.0
  0
LINE
  5
D7AB
  8
2-0
  6
CONTINUOUS
 62
     3
 10
24375.97204356677
 20
14579.886425000001
 30
0.0
 11
24375.97204356677
 21
14561.89062099999
 31
0.0
  0
LINE
  5
D7AC
  8
2-0
  6
CONTINUOUS
 62
     3
 10
24375.97204356677
 20
14561.89062099999
 30
0.0
 11
24345.97441856677
 21
14561.89062099999
 31
0.0
  0
LINE
  5
D7AD
  8
2-0
  6
CONTINUOUS
 62
     3
 10
24375.97204356677
 20
14577.989055999989
 30
0.0
 11
24375.97204356677
 21
14571.986166000001
 31
0.0
  0
LINE
  5
D7AE
  8
2-0
  6
CONTINUOUS
 62
     3
 10
24375.97204356677
 20
14571.986166000001
 30
0.0
 11
24345.97441856677
 21
14571.986166000001
 31
0.0
  0
LINE
  5
D7AF
  8
2-0
  6
CONTINUOUS
 62
     3
 10
24345.97441856677
 20
14571.986166000001
 30
0.0
 11
24345.97441856677
 21
14608.98633799997
 31
0.0
  0
LINE
  5
D7B0
  8
2-0
  6
CONTINUOUS
 62
     3
 10
24375.97204356677
 20
14608.98633799997
 30
0.0
 11
24345.97441856677
 21
14608.98633799997
 31
0.0
  0
LINE
  5
D7B1
  8
2-0
  6
CONTINUOUS
 62
     3
 10
24375.97204356677
 20
14602.98938599999
 30
0.0
 11
24375.97204356677
 21
14608.98633799997
 31
0.0
  0
LINE
  5
D7B2
  8
2-0
  6
CONTINUOUS
 62
     3
 10
24375.97204356677
 20
14619.08683099999
 30
0.0
 11
24345.97441856677
 21
14619.08683099999
 31
0.0
  0
LINE
  5
D7B3
  8
2-0
  6
CONTINUOUS
 62
     3
 10
24375.97204356677
 20
14601.080139999989
 30
0.0
 11
24375.97204356677
 21
14619.08683099999
 31
0.0
  0
LINE
  5
D7B4
  8
2-0
  6
CONTINUOUS
 62
     3
 10
24350.97864156677
 20
14601.080139999989
 30
0.0
 11
24375.97204356677
 21
14601.080139999989
 31
0.0
  0
LINE
  5
D7B5
  8
2-0
  6
CONTINUOUS
 62
     3
 10
24350.97864156677
 20
14606.085352999989
 30
0.0
 11
24350.97864156677
 21
14601.080139999989
 31
0.0
  0
LINE
  5
D7B6
  8
2-0
  6
CONTINUOUS
 62
     3
 10
24357.97623956676
 20
14606.085352999989
 30
0.0
 11
24350.97864156677
 21
14606.085352999989
 31
0.0
  0
LINE
  5
D7B7
  8
2-0
  6
CONTINUOUS
 62
     3
 10
24375.97204356677
 20
13548.488178999991
 30
0.0
 11
24375.97204356677
 21
13554.49304799998
 31
0.0
  0
LINE
  5
D7B8
  8
2-0
  6
CONTINUOUS
 62
     3
 10
24375.97204356677
 20
13554.49304799998
 30
0.0
 11
24345.97441856677
 21
13554.49304799998
 31
0.0
  0
LINE
  5
D7B9
  8
2-0
  6
CONTINUOUS
 62
     3
 10
24345.97441856677
 20
13554.49304799998
 30
0.0
 11
24345.97441856677
 21
13439.48895699999
 31
0.0
  0
LINE
  5
D7BA
  8
2-0
  6
CONTINUOUS
 62
     3
 10
24345.97441856677
 20
13439.48895699999
 30
0.0
 11
24430.972966566769
 21
13439.48895699999
 31
0.0
  0
LINE
  5
D7BB
  8
2-0
  6
CONTINUOUS
 62
     3
 10
24430.972966566769
 20
13439.48895699999
 30
0.0
 11
24430.972966566769
 21
13524.484535999991
 31
0.0
  0
LINE
  5
D7BC
  8
2-0
  6
CONTINUOUS
 62
     3
 10
24430.972966566769
 20
13524.484535999991
 30
0.0
 11
24398.976028566762
 21
13524.484535999991
 31
0.0
  0
LINE
  5
D7BD
  8
2-0
  6
CONTINUOUS
 62
     3
 10
24357.97623956676
 20
13551.522780999991
 30
0.0
 11
24350.97864156677
 21
13551.522780999991
 31
0.0
  0
LINE
  5
D7BE
  8
2-0
  6
CONTINUOUS
 62
     3
 10
24350.97864156677
 20
13551.522780999991
 30
0.0
 11
24350.97864156677
 21
13546.52548599997
 31
0.0
  0
LINE
  5
D7BF
  8
2-0
  6
CONTINUOUS
 62
     3
 10
24350.97864156677
 20
13546.52548599997
 30
0.0
 11
24375.97204356677
 21
13546.52548599997
 31
0.0
  0
LINE
  5
D7C0
  8
2-0
  6
CONTINUOUS
 62
     3
 10
24375.97204356677
 20
13546.52548599997
 30
0.0
 11
24375.97204356677
 21
13564.524258999991
 31
0.0
  0
LINE
  5
D7C1
  8
2-0
  6
CONTINUOUS
 62
     3
 10
24375.97204356677
 20
13564.524258999991
 30
0.0
 11
24345.97441856677
 21
13564.524258999991
 31
0.0
  0
LINE
  5
D7C2
  8
2-0
  6
CONTINUOUS
 62
     3
 10
24345.97441856677
 20
14619.08683099999
 30
0.0
 11
24345.97441856677
 21
15263.12568899998
 31
0.0
  0
LINE
  5
D7C3
  8
2-0
  6
CONTINUOUS
 62
     3
 10
24345.97441856677
 20
18238.081387999991
 30
0.0
 11
24345.97441856677
 21
18881.89210549997
 31
0.0
  0
LINE
  5
D7C4
  8
2-0
  6
CONTINUOUS
 62
     3
 10
24345.97441856677
 20
15963.885672499981
 30
0.0
 11
24345.97441856677
 21
15320.321899
 31
0.0
  0
LINE
  5
D7C5
  8
2-0
  6
CONTINUOUS
 62
     3
 10
27348.969007566771
 20
19595.988364000001
 30
0.0
 11
27348.969007566771
 21
19710.984537
 31
0.0
  0
LINE
  5
D7C6
  8
2-0
  6
CONTINUOUS
 62
     3
 10
24345.97441856677
 20
19625.98796799999
 30
0.0
 11
27267.967107566761
 21
19625.98796799999
 31
0.0
  0
LINE
  5
D7C7
  8
2-0
  6
CONTINUOUS
 62
     3
 10
24345.97441856677
 20
13918.023982000001
 30
0.0
 11
24345.97441856677
 21
14561.89062099999
 31
0.0
  0
LINE
  5
D7C8
  8
2-0
  6
CONTINUOUS
 62
     3
 10
27348.969007566771
 20
19585.69090799999
 30
0.0
 11
27348.969007566771
 21
18939.082377499981
 31
0.0
  0
LINE
  5
D7C9
  8
2-0
  6
CONTINUOUS
 62
     3
 10
24345.97441856677
 20
19585.69090799999
 30
0.0
 11
24345.97441856677
 21
18939.08237749997
 31
0.0
  0
LINE
  5
D7CA
  8
2-0
  6
CONTINUOUS
 62
     3
 10
24357.97623956676
 20
13873.892594000001
 30
0.0
 11
24350.97864156677
 21
13873.892594000001
 31
0.0
  0
LINE
  5
D7CB
  8
2-0
  6
CONTINUOUS
 62
     3
 10
24350.97864156677
 20
13873.892594000001
 30
0.0
 11
24350.97864156677
 21
13878.88691999999
 31
0.0
  0
LINE
  5
D7CC
  8
2-0
  6
CONTINUOUS
 62
     3
 10
24350.97864156677
 20
13878.88691999999
 30
0.0
 11
24375.97204356677
 21
13878.88691999999
 31
0.0
  0
LINE
  5
D7CD
  8
2-0
  6
CONTINUOUS
 62
     3
 10
24375.97204356677
 20
13878.88691999999
 30
0.0
 11
24375.97204356677
 21
13860.891116000001
 31
0.0
  0
LINE
  5
D7CE
  8
2-0
  6
CONTINUOUS
 62
     3
 10
24375.97204356677
 20
13860.891116000001
 30
0.0
 11
24345.97441856677
 21
13860.891116000001
 31
0.0
  0
LINE
  5
D7CF
  8
2-0
  6
CONTINUOUS
 62
     3
 10
24375.97204356677
 20
13876.98856199999
 30
0.0
 11
24375.97204356677
 21
13870.98666099999
 31
0.0
  0
LINE
  5
D7D0
  8
2-0
  6
CONTINUOUS
 62
     3
 10
24375.97204356677
 20
13870.98666099999
 30
0.0
 11
24345.97441856677
 21
13870.98666099999
 31
0.0
  0
LINE
  5
D7D1
  8
2-0
  6
CONTINUOUS
 62
     3
 10
24345.97441856677
 20
13870.98666099999
 30
0.0
 11
24345.97441856677
 21
13907.985842999969
 31
0.0
  0
LINE
  5
D7D2
  8
2-0
  6
CONTINUOUS
 62
     3
 10
24375.97204356677
 20
13907.985842999969
 30
0.0
 11
24345.97441856677
 21
13907.985842999969
 31
0.0
  0
LINE
  5
D7D3
  8
2-0
  6
CONTINUOUS
 62
     3
 10
24375.97204356677
 20
13901.989881
 30
0.0
 11
24375.97204356677
 21
13907.985842999969
 31
0.0
  0
LINE
  5
D7D4
  8
2-0
  6
CONTINUOUS
 62
     3
 10
24375.97204356677
 20
13918.08732599999
 30
0.0
 11
24345.97441856677
 21
13918.08732599999
 31
0.0
  0
LINE
  5
D7D5
  8
2-0
  6
CONTINUOUS
 62
     3
 10
24375.97204356677
 20
13900.079645999969
 30
0.0
 11
24375.97204356677
 21
13918.08732599999
 31
0.0
  0
LINE
  5
D7D6
  8
2-0
  6
CONTINUOUS
 62
     3
 10
24350.97864156677
 20
13900.079645999969
 30
0.0
 11
24375.97204356677
 21
13900.079645999969
 31
0.0
  0
LINE
  5
D7D7
  8
2-0
  6
CONTINUOUS
 62
     3
 10
24350.97864156677
 20
13905.08584799999
 30
0.0
 11
24350.97864156677
 21
13900.079645999969
 31
0.0
  0
LINE
  5
D7D8
  8
2-0
  6
CONTINUOUS
 62
     3
 10
24357.97623956676
 20
13905.08584799999
 30
0.0
 11
24350.97864156677
 21
13905.08584799999
 31
0.0
  0
LINE
  5
D7D9
  8
2-0
  6
CONTINUOUS
 62
     3
 10
24345.97441856677
 20
13564.524258999991
 30
0.0
 11
24345.97441856677
 21
13860.891116000001
 31
0.0
  0
LINE
  5
D7DA
  8
2-0
  6
CONTINUOUS
 62
     3
 10
24426.972359566778
 20
13524.484535999991
 30
0.0
 11
24426.972359566778
 21
19710.984537
 31
0.0
  0
LINE
  5
D7DB
  8
2-0
  6
CONTINUOUS
 62
     3
 10
27336.967186566791
 20
13873.892594000001
 30
0.0
 11
27343.968743566758
 21
13873.892594000001
 31
0.0
  0
LINE
  5
D7DC
  8
2-0
  6
CONTINUOUS
 62
     3
 10
27343.968743566758
 20
13873.892594000001
 30
0.0
 11
27343.968743566758
 21
13878.88691999999
 31
0.0
  0
LINE
  5
D7DD
  8
2-0
  6
CONTINUOUS
 62
     3
 10
27343.968743566758
 20
13878.88691999999
 30
0.0
 11
27318.97138356679
 21
13878.88691999999
 31
0.0
  0
LINE
  5
D7DE
  8
2-0
  6
CONTINUOUS
 62
     3
 10
27318.97138356679
 20
13878.88691999999
 30
0.0
 11
27318.97138356679
 21
13860.891116000001
 31
0.0
  0
LINE
  5
D7DF
  8
2-0
  6
CONTINUOUS
 62
     3
 10
27318.97138356679
 20
13860.891116000001
 30
0.0
 11
27348.969007566771
 21
13860.891116000001
 31
0.0
  0
LINE
  5
D7E0
  8
2-0
  6
CONTINUOUS
 62
     3
 10
27318.97138356679
 20
13876.98856199999
 30
0.0
 11
27318.97138356679
 21
13870.98666099999
 31
0.0
  0
LINE
  5
D7E1
  8
2-0
  6
CONTINUOUS
 62
     3
 10
27318.97138356679
 20
13870.98666099999
 30
0.0
 11
27348.969007566771
 21
13870.98666099999
 31
0.0
  0
LINE
  5
D7E2
  8
2-0
  6
CONTINUOUS
 62
     3
 10
27348.969007566771
 20
13870.98666099999
 30
0.0
 11
27348.969007566771
 21
13907.985842999969
 31
0.0
  0
LINE
  5
D7E3
  8
2-0
  6
CONTINUOUS
 62
     3
 10
27318.97138356679
 20
13907.985842999969
 30
0.0
 11
27348.969007566771
 21
13907.985842999969
 31
0.0
  0
LINE
  5
D7E4
  8
2-0
  6
CONTINUOUS
 62
     3
 10
27318.97138356679
 20
13901.98988100001
 30
0.0
 11
27318.97138356679
 21
13907.985842999969
 31
0.0
  0
LINE
  5
D7E5
  8
2-0
  6
CONTINUOUS
 62
     3
 10
27318.97138356679
 20
13918.08732599999
 30
0.0
 11
27348.969007566771
 21
13918.08732599999
 31
0.0
  0
LINE
  5
D7E6
  8
2-0
  6
CONTINUOUS
 62
     3
 10
27318.97138356679
 20
13900.079645999969
 30
0.0
 11
27318.97138356679
 21
13918.08732599999
 31
0.0
  0
LINE
  5
D7E7
  8
2-0
  6
CONTINUOUS
 62
     3
 10
27343.968743566758
 20
13900.079645999969
 30
0.0
 11
27318.97138356679
 21
13900.079645999969
 31
0.0
  0
LINE
  5
D7E8
  8
2-0
  6
CONTINUOUS
 62
     3
 10
27343.968743566758
 20
13905.08584799999
 30
0.0
 11
27343.968743566758
 21
13900.079645999969
 31
0.0
  0
LINE
  5
D7E9
  8
2-0
  6
CONTINUOUS
 62
     3
 10
27336.967186566791
 20
13905.08584799999
 30
0.0
 11
27343.968743566758
 21
13905.08584799999
 31
0.0
  0
LINE
  5
D7EA
  8
2-0
  6
CONTINUOUS
 62
     3
 10
27348.969007566771
 20
13564.524258999991
 30
0.0
 11
27348.969007566771
 21
13860.891116000001
 31
0.0
  0
LINE
  5
D7EB
  8
2-0
  6
CONTINUOUS
 62
     3
 10
27267.967107566761
 20
13524.484535999991
 30
0.0
 11
27267.967107566761
 21
19710.984537
 31
0.0
  0
TEXT
  5
D7EC
  8
2-0
  6
CONTINUOUS
 62
     7
 10
25703.316030566781
 20
12921.987373999989
 30
0.0
 40
160.0
  1
前柱（右）
 50
0.000213
 72
     4
 11
26119.315733159801
 21
13001.98892050078
 31
0.0
  0
TEXT
  5
D7ED
  8
2-0
  6
CONTINUOUS
 62
     7
 10
25907.91115356678
 20
16200.97939
 30
0.0
 40
160.0
  1
壁パネル
 50
359.99982299999999
 72
     4
 11
26270.578067370341
 21
16280.97826963787
 31
0.0
  0
TEXT
  5
D7EE
  8
2-0
  6
CONTINUOUS
 62
     7
 10
25627.908249566772
 20
17038.167286
 30
0.0
 40
160.0
  1
中柱（左右）
 50
0.000354
 72
     4
 11
26145.241088612991
 21
17118.170482324658
 31
0.0
  0
TEXT
  5
D7EF
  8
2-0
  6
CONTINUOUS
 62
     7
 10
26307.910493566749
 20
13895.02863999998
 30
0.0
 40
160.0
  1
下枠
 50
0.001063
 72
     4
 11
26478.575675976052
 21
13975.03180633927
 31
0.0
  0
TEXT
  5
D7F0
  8
2-0
  6
CONTINUOUS
 62
     7
 10
25802.875917566798
 20
18641.436024499981
 30
0.0
 40
160.0
  1
間柱（側）
 72
     4
 11
26224.20925090013
 21
18721.436024499981
 31
0.0
  0
TEXT
  5
D7F1
  8
2-0
  6
CONTINUOUS
 62
     7
 10
28121.466236566779
 20
20520.983745000001
 30
0.0
 40
160.0
  1
後柱（左右）
 50
0.000354
 72
     4
 11
28633.465742279761
 21
20600.98690837283
 31
0.0
  0
LINE
  5
D7F2
  8
2-0
  6
CONTINUOUS
 62
     3
 10
26566.971304566759
 20
19710.984537
 30
0.0
 11
26529.970142566781
 21
19710.984537
 31
0.0
  0
LINE
  5
D7F3
  8
2-0
  6
CONTINUOUS
 62
     3
 10
26566.971304566759
 20
19680.980973999991
 30
0.0
 11
26566.971304566759
 21
19710.984537
 31
0.0
  0
LINE
  5
D7F4
  8
2-0
  6
CONTINUOUS
 62
     3
 10
26560.97138356675
 20
19680.980973999991
 30
0.0
 11
26566.971304566759
 21
19680.980973999991
 31
0.0
  0
LINE
  5
D7F5
  8
2-0
  6
CONTINUOUS
 62
     3
 10
26577.068828566778
 20
19680.980973999991
 30
0.0
 11
26577.068828566778
 21
19710.984537
 31
0.0
  0
LINE
  5
D7F6
  8
2-0
  6
CONTINUOUS
 62
     3
 10
26559.065107566781
 20
19680.980973999991
 30
0.0
 11
26577.068828566778
 21
19680.980973999991
 31
0.0
  0
LINE
  5
D7F7
  8
2-0
  6
CONTINUOUS
 62
     3
 10
26559.065107566781
 20
19705.990211
 30
0.0
 11
26559.065107566781
 21
19680.980973999991
 31
0.0
  0
LINE
  5
D7F8
  8
2-0
  6
CONTINUOUS
 62
     3
 10
26564.06537156679
 20
19705.990211
 30
0.0
 11
26559.065107566781
 21
19705.990211
 31
0.0
  0
LINE
  5
D7F9
  8
2-0
  6
CONTINUOUS
 62
     3
 10
26564.06537156679
 20
19698.98469500001
 30
0.0
 11
26564.06537156679
 21
19705.990211
 31
0.0
  0
LINE
  5
D7FA
  8
2-0
  6
CONTINUOUS
 62
     3
 10
26532.876076566761
 20
19698.98469500001
 30
0.0
 11
26532.876076566761
 21
19705.990211
 31
0.0
  0
LINE
  5
D7FB
  8
2-0
  6
CONTINUOUS
 62
     3
 10
26532.876076566761
 20
19705.990211
 30
0.0
 11
26537.876340566781
 21
19705.990211
 31
0.0
  0
LINE
  5
D7FC
  8
2-0
  6
CONTINUOUS
 62
     3
 10
26537.876340566781
 20
19705.990211
 30
0.0
 11
26537.876340566781
 21
19680.980973999991
 31
0.0
  0
LINE
  5
D7FD
  8
2-0
  6
CONTINUOUS
 62
     3
 10
26537.876340566781
 20
19680.980973999991
 30
0.0
 11
26519.876577566782
 21
19680.980973999991
 31
0.0
  0
LINE
  5
D7FE
  8
2-0
  6
CONTINUOUS
 62
     3
 10
26519.876577566782
 20
19680.980973999991
 30
0.0
 11
26519.876577566782
 21
19710.984537
 31
0.0
  0
LINE
  5
D7FF
  8
2-0
  6
CONTINUOUS
 62
     3
 10
26535.97006356679
 20
19680.980973999991
 30
0.0
 11
26529.970142566781
 21
19680.980973999991
 31
0.0
  0
LINE
  5
D800
  8
2-0
  6
CONTINUOUS
 62
     3
 10
26529.970142566781
 20
19680.980973999991
 30
0.0
 11
26529.970142566781
 21
19710.984537
 31
0.0
  0
LINE
  5
D801
  8
2-0
  6
CONTINUOUS
 62
     3
 10
25162.060422066781
 20
19698.98469500001
 30
0.0
 11
25162.060422066781
 21
19705.990211
 31
0.0
  0
LINE
  5
D802
  8
2-0
  6
CONTINUOUS
 62
     3
 10
25162.060422066781
 20
19705.990211
 30
0.0
 11
25157.060158066779
 21
19705.990211
 31
0.0
  0
LINE
  5
D803
  8
2-0
  6
CONTINUOUS
 62
     3
 10
25157.060158066779
 20
19705.990211
 30
0.0
 11
25157.060158066779
 21
19680.980973999991
 31
0.0
  0
LINE
  5
D804
  8
2-0
  6
CONTINUOUS
 62
     3
 10
25157.060158066779
 20
19680.980973999991
 30
0.0
 11
25175.065859066759
 21
19680.980973999991
 31
0.0
  0
LINE
  5
D805
  8
2-0
  6
CONTINUOUS
 62
     3
 10
25175.065859066759
 20
19680.980973999991
 30
0.0
 11
25175.065859066759
 21
19710.984537
 31
0.0
  0
LINE
  5
D806
  8
2-0
  6
CONTINUOUS
 62
     3
 10
25158.968414066781
 20
19680.980973999991
 30
0.0
 11
25164.97031406677
 21
19680.980973999991
 31
0.0
  0
LINE
  5
D807
  8
2-0
  6
CONTINUOUS
 62
     3
 10
25164.97031406677
 20
19680.980973999991
 30
0.0
 11
25164.97031406677
 21
19710.984537
 31
0.0
  0
LINE
  5
D808
  8
2-0
  6
CONTINUOUS
 62
     3
 10
25127.971133066749
 20
19710.984537
 30
0.0
 11
25164.97031406677
 21
19710.984537
 31
0.0
  0
LINE
  5
D809
  8
2-0
  6
CONTINUOUS
 62
     3
 10
25127.971133066749
 20
19680.980973999991
 30
0.0
 11
25127.971133066749
 21
19710.984537
 31
0.0
  0
LINE
  5
D80A
  8
2-0
  6
CONTINUOUS
 62
     3
 10
25133.96511506676
 20
19680.980973999991
 30
0.0
 11
25127.971133066749
 21
19680.980973999991
 31
0.0
  0
LINE
  5
D80B
  8
2-0
  6
CONTINUOUS
 62
     3
 10
25117.875588066781
 20
19680.980973999991
 30
0.0
 11
25117.875588066781
 21
19710.984537
 31
0.0
  0
LINE
  5
D80C
  8
2-0
  6
CONTINUOUS
 62
     3
 10
25135.871391066779
 20
19680.980973999991
 30
0.0
 11
25117.875588066781
 21
19680.980973999991
 31
0.0
  0
LINE
  5
D80D
  8
2-0
  6
CONTINUOUS
 62
     3
 10
25135.871391066779
 20
19705.990211
 30
0.0
 11
25135.871391066779
 21
19680.980973999991
 31
0.0
  0
LINE
  5
D80E
  8
2-0
  6
CONTINUOUS
 62
     3
 10
25130.87112706677
 20
19705.990211
 30
0.0
 11
25135.871391066779
 21
19705.990211
 31
0.0
  0
LINE
  5
D80F
  8
2-0
  6
CONTINUOUS
 62
     3
 10
25130.87112706677
 20
19698.98469500001
 30
0.0
 11
25130.87112706677
 21
19705.990211
 31
0.0
  0
LINE
  5
D810
  8
2-0
  6
CONTINUOUS
 62
     3
 10
25831.870138066759
 20
19698.98469500001
 30
0.0
 11
25831.870138066759
 21
19705.990211
 31
0.0
  0
LINE
  5
D811
  8
2-0
  6
CONTINUOUS
 62
     3
 10
25831.870138066759
 20
19705.990211
 30
0.0
 11
25836.870401066779
 21
19705.990211
 31
0.0
  0
LINE
  5
D812
  8
2-0
  6
CONTINUOUS
 62
     3
 10
25836.870401066779
 20
19705.990211
 30
0.0
 11
25836.870401066779
 21
19680.980973999991
 31
0.0
  0
LINE
  5
D813
  8
2-0
  6
CONTINUOUS
 62
     3
 10
25836.870401066779
 20
19680.980973999991
 30
0.0
 11
25818.87657806676
 21
19680.980973999991
 31
0.0
  0
LINE
  5
D814
  8
2-0
  6
CONTINUOUS
 62
     3
 10
25818.87657806676
 20
19680.980973999991
 30
0.0
 11
25818.87657806676
 21
19710.984537
 31
0.0
  0
LINE
  5
D815
  8
2-0
  6
CONTINUOUS
 62
     3
 10
25834.968084066761
 20
19680.980973999991
 30
0.0
 11
25828.970143066759
 21
19680.980973999991
 31
0.0
  0
LINE
  5
D816
  8
2-0
  6
CONTINUOUS
 62
     3
 10
25828.970143066759
 20
19680.980973999991
 30
0.0
 11
25828.970143066759
 21
19710.984537
 31
0.0
  0
LINE
  5
D817
  8
2-0
  6
CONTINUOUS
 62
     3
 10
25865.971304066781
 20
19710.984537
 30
0.0
 11
25828.970143066759
 21
19710.984537
 31
0.0
  0
LINE
  5
D818
  8
2-0
  6
CONTINUOUS
 62
     3
 10
25865.971304066781
 20
19680.980973999991
 30
0.0
 11
25865.971304066781
 21
19710.984537
 31
0.0
  0
LINE
  5
D819
  8
2-0
  6
CONTINUOUS
 62
     3
 10
25859.965445066769
 20
19680.980973999991
 30
0.0
 11
25865.971304066781
 21
19680.980973999991
 31
0.0
  0
LINE
  5
D81A
  8
2-0
  6
CONTINUOUS
 62
     3
 10
25876.064869066769
 20
19680.980973999991
 30
0.0
 11
25876.064869066769
 21
19710.984537
 31
0.0
  0
LINE
  5
D81B
  8
2-0
  6
CONTINUOUS
 62
     3
 10
25858.069066066771
 20
19680.980973999991
 30
0.0
 11
25876.064869066769
 21
19680.980973999991
 31
0.0
  0
LINE
  5
D81C
  8
2-0
  6
CONTINUOUS
 62
     3
 10
25858.069066066771
 20
19705.990211
 30
0.0
 11
25858.069066066771
 21
19680.980973999991
 31
0.0
  0
LINE
  5
D81D
  8
2-0
  6
CONTINUOUS
 62
     3
 10
25863.059432066759
 20
19705.990211
 30
0.0
 11
25858.069066066771
 21
19705.990211
 31
0.0
  0
LINE
  5
D81E
  8
2-0
  6
CONTINUOUS
 62
     3
 10
25863.059432066759
 20
19698.98469500001
 30
0.0
 11
25863.059432066759
 21
19705.990211
 31
0.0
  0
LINE
  5
D81F
  8
2-0
  6
CONTINUOUS
 62
     3
 10
25175.065859066759
 20
19710.984537
 30
0.0
 11
25818.87657806676
 21
19710.984537
 31
0.0
  0
LINE
  5
D820
  8
2-0
  6
CONTINUOUS
 62
     3
 10
24471.275965566761
 20
19710.984537
 30
0.0
 11
25117.875588066781
 21
19710.984537
 31
0.0
  0
LINE
  5
D821
  8
2-0
  6
CONTINUOUS
 62
     3
 10
27224.354353566781
 20
19710.984537
 30
0.0
 11
26577.068828566778
 21
19710.984537
 31
0.0
  0
LINE
  5
D822
  8
2-0
  6
CONTINUOUS
 62
     3
 10
26519.876577566782
 20
19710.984537
 30
0.0
 11
25876.064869066769
 21
19710.984537
 31
0.0
  0
LINE
  5
D823
  8
2-0
  6
CONTINUOUS
 62
     3
 10
27348.969007566771
 20
15263.12568899998
 30
0.0
 11
27348.969007566771
 21
14619.08683099999
 31
0.0
  0
LINE
  5
D824
  8
2-0
  6
CONTINUOUS
 62
     3
 10
27348.969007566771
 20
14561.89062099999
 30
0.0
 11
27348.969007566771
 21
13918.08732599999
 31
0.0
  0
LINE
  5
D825
  8
0-6
  6
CONTINUOUS
 62
     6
 10
25579.606215066771
 20
18999.666308999989
 30
0.0
 11
26604.646465066791
 21
18999.666308999989
 31
0.0
  0
LINE
  5
D826
  8
0-6
  6
CONTINUOUS
 62
     6
 10
25279.68143706676
 20
19557.019561000001
 30
0.0
 11
25175.065859066759
 21
19680.980973999991
 31
0.0
  0
LINE
  5
D827
  8
0-6
  6
CONTINUOUS
 62
     6
 10
25175.065859066759
 20
19680.980973999991
 30
0.0
 11
25233.823909066788
 21
19529.789304000009
 31
0.0
  0
LINE
  5
D828
  8
0-6
  6
CONTINUOUS
 62
     6
 10
25175.065859066759
 20
19680.980973999991
 30
0.0
 11
25279.68143706676
 21
19557.019561000001
 31
0.0
  0
LINE
  5
D829
  8
0-6
  6
CONTINUOUS
 62
     6
 10
25279.68143706676
 20
19557.019561000001
 30
0.0
 11
25233.823909066788
 21
19529.789304000009
 31
0.0
  0
LINE
  5
D82A
  8
0-6
  6
CONTINUOUS
 62
     6
 10
25233.823909066788
 20
19529.789304000009
 30
0.0
 11
25175.065859066759
 21
19680.980973999991
 31
0.0
  0
LINE
  5
D82B
  8
0-6
  6
CONTINUOUS
 62
     6
 10
25233.823909066788
 20
19529.789304000009
 30
0.0
 11
25279.68143706676
 21
19557.019561000001
 31
0.0
  0
LINE
  5
D82C
  8
0-6
  6
CONTINUOUS
 62
     6
 10
25256.7526730668
 20
19543.406412
 30
0.0
 11
25579.606215066771
 21
18999.666308999989
 31
0.0
  0
TEXT
  5
D82D
  8
0-6
  6
CONTINUOUS
 62
     7
 10
25659.606479066781
 20
19079.66855300001
 30
0.0
 40
160.0
  1
間柱（後）
 72
     4
 11
26080.939812400109
 21
19159.66855300001
 31
0.0
  0
LINE
  5
D82E
  8
SUNPOU
  6
CONTINUOUS
 62
     4
 10
24388.47072356677
 20
13481.98625199999
 30
0.0
 11
24388.47072356677
 21
12430.53816799999
 31
0.0
  0
LINE
  5
D82F
  8
SUNPOU
  6
CONTINUOUS
 62
     4
 10
24345.968480566789
 20
13359.48895699999
 30
0.0
 11
24345.968480566789
 21
12430.53816799999
 31
0.0
  0
LINE
  5
D830
  8
SUNPOU
  6
CONTINUOUS
 62
     4
 10
24388.47072356677
 20
12510.53816799999
 30
0.0
 11
24628.47072356677
 21
12510.53816799999
 31
0.0
  0
LINE
  5
D831
  8
SUNPOU
  6
CONTINUOUS
 62
     4
 10
24345.968480566789
 20
12510.53816799999
 30
0.0
 11
24105.968480566789
 21
12510.53816799999
 31
0.0
  0
LINE
  5
D832
  8
SUNPOU
  6
CONTINUOUS
 62
     4
 10
24388.47072356677
 20
12510.53816799999
 30
0.0
 11
24345.968480566789
 21
12510.53816799999
 31
0.0
  0
LINE
  5
D833
  8
SUNPOU
  6
CONTINUOUS
 62
     4
 10
27306.470723566781
 20
12776.222817999989
 30
0.0
 11
27306.470723566781
 21
12430.53816799999
 31
0.0
  0
LINE
  5
D834
  8
SUNPOU
  6
CONTINUOUS
 62
     4
 10
27348.97296656678
 20
13359.48895699999
 30
0.0
 11
27348.97296656678
 21
12430.53816799999
 31
0.0
  0
LINE
  5
D835
  8
SUNPOU
  6
CONTINUOUS
 62
     4
 10
27306.470723566781
 20
12510.53816799999
 30
0.0
 11
27066.470723566781
 21
12510.53816799999
 31
0.0
  0
LINE
  5
D836
  8
SUNPOU
  6
CONTINUOUS
 62
     4
 10
27348.97296656678
 20
12510.53816799999
 30
0.0
 11
27588.97296656678
 21
12510.53816799999
 31
0.0
  0
LINE
  5
D837
  8
SUNPOU
  6
CONTINUOUS
 62
     4
 10
27306.470723566781
 20
12510.53816799999
 30
0.0
 11
27348.97296656678
 21
12510.53816799999
 31
0.0
  0
LINE
  5
D838
  8
SUNPOU
  6
CONTINUOUS
 62
     4
 10
27306.470723566781
 20
13481.98625199999
 30
0.0
 11
27306.470723566781
 21
12430.53816799999
 31
0.0
  0
LINE
  5
D839
  8
SUNPOU
  6
CONTINUOUS
 62
     4
 10
27263.968480566778
 20
13359.48895699999
 30
0.0
 11
27263.968480566778
 21
12430.53816799999
 31
0.0
  0
LINE
  5
D83A
  8
SUNPOU
  6
CONTINUOUS
 62
     4
 10
27306.470723566781
 20
12510.53816799999
 30
0.0
 11
27546.470723566781
 21
12510.53816799999
 31
0.0
  0
LINE
  5
D83B
  8
SUNPOU
  6
CONTINUOUS
 62
     4
 10
27263.968480566778
 20
12510.53816799999
 30
0.0
 11
27023.968480566778
 21
12510.53816799999
 31
0.0
  0
LINE
  5
D83C
  8
SUNPOU
  6
CONTINUOUS
 62
     4
 10
27306.470723566781
 20
12510.53816799999
 30
0.0
 11
27263.968480566778
 21
12510.53816799999
 31
0.0
  0
LINE
  5
D83D
  8
SUNPOU
  6
CONTINUOUS
 62
     4
 10
24388.47072356677
 20
13481.98625199999
 30
0.0
 11
24388.47072356677
 21
12430.53816799999
 31
0.0
  0
LINE
  5
D83E
  8
SUNPOU
  6
CONTINUOUS
 62
     4
 10
24430.972966566769
 20
13359.48895699999
 30
0.0
 11
24430.972966566769
 21
12430.53816799999
 31
0.0
  0
LINE
  5
D83F
  8
SUNPOU
  6
CONTINUOUS
 62
     4
 10
24388.47072356677
 20
12510.53816799999
 30
0.0
 11
24148.47072356677
 21
12510.53816799999
 31
0.0
  0
LINE
  5
D840
  8
SUNPOU
  6
CONTINUOUS
 62
     4
 10
24430.972966566769
 20
12510.53816799999
 30
0.0
 11
24670.972966566769
 21
12510.53816799999
 31
0.0
  0
LINE
  5
D841
  8
SUNPOU
  6
CONTINUOUS
 62
     4
 10
24388.47072356677
 20
12510.53816799999
 30
0.0
 11
24430.972966566769
 21
12510.53816799999
 31
0.0
  0
LINE
  5
D842
  8
SUNPOU
  6
CONTINUOUS
 62
     4
 10
24345.968480566789
 20
13359.48895699999
 30
0.0
 11
24345.968480566789
 21
12030.53816799999
 31
0.0
  0
LINE
  5
D843
  8
SUNPOU
  6
CONTINUOUS
 62
     4
 10
27348.97296656678
 20
13359.48895699999
 30
0.0
 11
27348.97296656678
 21
12030.53816799999
 31
0.0
  0
LINE
  5
D844
  8
SUNPOU
  6
CONTINUOUS
 62
     4
 10
24345.968480566789
 20
12110.53816799999
 30
0.0
 11
27348.97296656678
 21
12110.53816799999
 31
0.0
  0
LINE
  5
D845
  8
SUNPOU
  6
CONTINUOUS
 62
     4
 10
27428.969007566771
 20
13889.48625199999
 30
0.0
 11
28478.970327566771
 21
13889.48625199999
 31
0.0
  0
LINE
  5
D846
  8
SUNPOU
  6
CONTINUOUS
 62
     4
 10
28278.970327566771
 20
13481.98625199999
 30
0.0
 11
28478.970327566771
 21
13481.98625199999
 31
0.0
  0
LINE
  5
D847
  8
SUNPOU
  6
CONTINUOUS
 62
     4
 10
28398.970327566771
 20
13889.48625199999
 30
0.0
 11
28398.970327566771
 21
13481.98625199999
 31
0.0
  0
LINE
  5
D848
  8
SUNPOU
  6
CONTINUOUS
 62
     4
 10
27428.969007566771
 20
14590.48625199999
 30
0.0
 11
28478.970327566771
 21
14590.48625199999
 31
0.0
  0
LINE
  5
D849
  8
SUNPOU
  6
CONTINUOUS
 62
     4
 10
27428.969007566771
 20
13889.48625199999
 30
0.0
 11
28478.970327566771
 21
13889.48625199999
 31
0.0
  0
LINE
  5
D84A
  8
SUNPOU
  6
CONTINUOUS
 62
     4
 10
28398.970327566771
 20
14590.48625199999
 30
0.0
 11
28398.970327566771
 21
13889.48625199999
 31
0.0
  0
LINE
  5
D84B
  8
SUNPOU
  6
CONTINUOUS
 62
     4
 10
27428.969007566771
 20
15291.726763500001
 30
0.0
 11
28478.970327566771
 21
15291.726763500001
 31
0.0
  0
LINE
  5
D84C
  8
SUNPOU
  6
CONTINUOUS
 62
     4
 10
27428.969007566771
 20
14590.48625199999
 30
0.0
 11
28478.970327566771
 21
14590.48625199999
 31
0.0
  0
LINE
  5
D84D
  8
SUNPOU
  6
CONTINUOUS
 62
     4
 10
28398.970327566771
 20
15291.726763500001
 30
0.0
 11
28398.970327566771
 21
14590.48625199999
 31
0.0
  0
LINE
  5
D84E
  8
SUNPOU
  6
CONTINUOUS
 62
     4
 10
27428.969007566771
 20
15992.48625199999
 30
0.0
 11
28478.970327566771
 21
15992.48625199999
 31
0.0
  0
LINE
  5
D84F
  8
SUNPOU
  6
CONTINUOUS
 62
     4
 10
27428.969007566771
 20
15291.726763500001
 30
0.0
 11
28478.970327566771
 21
15291.726763500001
 31
0.0
  0
LINE
  5
D850
  8
SUNPOU
  6
CONTINUOUS
 62
     4
 10
28398.970327566771
 20
15992.48625199999
 30
0.0
 11
28398.970327566771
 21
15291.726763500001
 31
0.0
  0
LINE
  5
D851
  8
SUNPOU
  6
CONTINUOUS
 62
     4
 10
28278.970327566771
 20
16750.486251999981
 30
0.0
 11
28478.970327566771
 21
16750.486251999981
 31
0.0
  0
LINE
  5
D852
  8
SUNPOU
  6
CONTINUOUS
 62
     4
 10
27428.969007566771
 20
15992.48625199999
 30
0.0
 11
28478.970327566771
 21
15992.48625199999
 31
0.0
  0
LINE
  5
D853
  8
SUNPOU
  6
CONTINUOUS
 62
     4
 10
28398.970327566771
 20
16750.486251999981
 30
0.0
 11
28398.970327566771
 21
15992.48625199999
 31
0.0
  0
LINE
  5
D854
  8
SUNPOU
  6
CONTINUOUS
 62
     4
 10
27428.969007566771
 20
17508.486251999981
 30
0.0
 11
28478.970327566771
 21
17508.486251999981
 31
0.0
  0
LINE
  5
D855
  8
SUNPOU
  6
CONTINUOUS
 62
     4
 10
28278.970327566771
 20
16750.486251999981
 30
0.0
 11
28478.970327566771
 21
16750.486251999981
 31
0.0
  0
LINE
  5
D856
  8
SUNPOU
  6
CONTINUOUS
 62
     4
 10
28398.970327566771
 20
17508.486251999981
 30
0.0
 11
28398.970327566771
 21
16750.486251999981
 31
0.0
  0
LINE
  5
D857
  8
SUNPOU
  6
CONTINUOUS
 62
     4
 10
27428.969007566771
 20
18209.486251999981
 30
0.0
 11
28478.970327566771
 21
18209.486251999981
 31
0.0
  0
LINE
  5
D858
  8
SUNPOU
  6
CONTINUOUS
 62
     4
 10
27428.969007566771
 20
17508.486251999981
 30
0.0
 11
28478.970327566771
 21
17508.486251999981
 31
0.0
  0
LINE
  5
D859
  8
SUNPOU
  6
CONTINUOUS
 62
     4
 10
28398.970327566771
 20
18209.486251999981
 30
0.0
 11
28398.970327566771
 21
17508.486251999981
 31
0.0
  0
LINE
  5
D85A
  8
SUNPOU
  6
CONTINUOUS
 62
     4
 10
27428.969007566771
 20
18910.486251999992
 30
0.0
 11
28478.970327566771
 21
18910.486251999981
 31
0.0
  0
LINE
  5
D85B
  8
SUNPOU
  6
CONTINUOUS
 62
     4
 10
27428.969007566771
 20
18209.486251999981
 30
0.0
 11
28478.970327566771
 21
18209.486251999981
 31
0.0
  0
LINE
  5
D85C
  8
SUNPOU
  6
CONTINUOUS
 62
     4
 10
28398.970327566771
 20
18910.486251999981
 30
0.0
 11
28398.970327566771
 21
18209.486251999981
 31
0.0
  0
LINE
  5
D85D
  8
SUNPOU
  6
CONTINUOUS
 62
     4
 10
28278.970327566771
 20
19668.486251999981
 30
0.0
 11
28478.970327566771
 21
19668.486251999981
 31
0.0
  0
LINE
  5
D85E
  8
SUNPOU
  6
CONTINUOUS
 62
     4
 10
27428.969007566771
 20
18910.486251999992
 30
0.0
 11
28478.970327566771
 21
18910.486251999981
 31
0.0
  0
LINE
  5
D85F
  8
SUNPOU
  6
CONTINUOUS
 62
     4
 10
28398.970327566771
 20
19668.486251999981
 30
0.0
 11
28398.970327566771
 21
18910.486251999981
 31
0.0
  0
LINE
  5
D860
  8
SUNPOU
  6
CONTINUOUS
 62
     4
 10
28278.970327566771
 20
16750.486251999981
 30
0.0
 11
28478.970327566771
 21
16750.486251999992
 31
0.0
  0
LINE
  5
D861
  8
SUNPOU
  6
CONTINUOUS
 62
     4
 10
28278.970327566771
 20
19668.486251999981
 30
0.0
 11
28478.970327566771
 21
19668.486251999992
 31
0.0
  0
LINE
  5
D862
  8
SUNPOU
  6
CONTINUOUS
 62
     4
 10
28278.970327566771
 20
13481.98625199999
 30
0.0
 11
28478.970327566771
 21
13481.98625199999
 31
0.0
  0
LINE
  5
D863
  8
SUNPOU
  6
CONTINUOUS
 62
     4
 10
27428.969007566771
 20
19710.983546999989
 30
0.0
 11
28878.970327566782
 21
19710.98354699996
 31
0.0
  0
LINE
  5
D864
  8
SUNPOU
  6
CONTINUOUS
 62
     4
 10
27428.969007566771
 20
13439.48895699999
 30
0.0
 11
28878.970327566782
 21
13439.48895699999
 31
0.0
  0
LINE
  5
D865
  8
SUNPOU
  6
CONTINUOUS
 62
     4
 10
28798.970327566771
 20
19710.98354699996
 30
0.0
 11
28798.970327566771
 21
13439.48895699999
 31
0.0
  0
LINE
  5
D866
  8
SUNPOU
  6
CONTINUOUS
 62
     4
 10
28278.970327566771
 20
19668.486251999981
 30
0.0
 11
28478.970327566771
 21
19668.486251999992
 31
0.0
  0
LINE
  5
D867
  8
SUNPOU
  6
CONTINUOUS
 62
     4
 10
27428.969007566771
 20
19710.983546999989
 30
0.0
 11
28478.970327566771
 21
19710.98354699996
 31
0.0
  0
LINE
  5
D868
  8
SUNPOU
  6
CONTINUOUS
 62
     4
 10
28398.970327566771
 20
19668.486251999992
 30
0.0
 11
28398.970327566771
 21
19428.486251999992
 31
0.0
  0
LINE
  5
D869
  8
SUNPOU
  6
CONTINUOUS
 62
     4
 10
28398.970327566771
 20
19710.98354699996
 30
0.0
 11
28398.970327566771
 21
19950.98354699996
 31
0.0
  0
LINE
  5
D86A
  8
SUNPOU
  6
CONTINUOUS
 62
     4
 10
28398.970327566771
 20
19668.486251999992
 30
0.0
 11
28398.970327566771
 21
19710.98354699996
 31
0.0
  0
LINE
  5
D86B
  8
SUNPOU
  6
CONTINUOUS
 62
     4
 10
28278.970327566771
 20
13481.98625199999
 30
0.0
 11
28478.970327566771
 21
13481.98625199999
 31
0.0
  0
LINE
  5
D86C
  8
SUNPOU
  6
CONTINUOUS
 62
     4
 10
27428.969007566771
 20
13439.48895699999
 30
0.0
 11
28478.970327566771
 21
13439.48895699999
 31
0.0
  0
LINE
  5
D86D
  8
SUNPOU
  6
CONTINUOUS
 62
     4
 10
28398.970327566771
 20
13481.98625199999
 30
0.0
 11
28398.970327566771
 21
13721.98625199999
 31
0.0
  0
LINE
  5
D86E
  8
SUNPOU
  6
CONTINUOUS
 62
     4
 10
28398.970327566771
 20
13439.48895699999
 30
0.0
 11
28398.970327566771
 21
13199.48895699999
 31
0.0
  0
LINE
  5
D86F
  8
SUNPOU
  6
CONTINUOUS
 62
     4
 10
28398.970327566771
 20
13481.98625199999
 30
0.0
 11
28398.970327566771
 21
13439.48895699999
 31
0.0
  0
TEXT
  5
D870
  8
0
  6
CONTINUOUS
 62
     7
 10
28318.970327566771
 20
12865.932720603199
 30
0.0
 40
160.0
  1
42.5
 50
90.0
  0
TEXT
  5
D871
  8
0
  6
CONTINUOUS
 62
     7
 10
28318.970327566771
 20
19804.539783396791
 30
0.0
 40
160.0
  1
42.5
 50
90.0
  0
TEXT
  5
D872
  8
0
  6
CONTINUOUS
 62
     7
 10
28718.970327566771
 20
16201.902918666659
 30
0.0
 40
160.0
  1
6271.5
 50
90.0
  0
TEXT
  5
D873
  8
0
  6
CONTINUOUS
 62
     7
 10
28318.970327566771
 20
19076.152918666659
 30
0.0
 40
160.0
  1
758
 50
90.0
  0
TEXT
  5
D874
  8
0
  6
CONTINUOUS
 62
     7
 10
28318.970327566771
 20
18386.652918666648
 30
0.0
 40
160.0
  1
701
 50
90.0
  0
TEXT
  5
D875
  8
0
  6
CONTINUOUS
 62
     7
 10
28318.970327566771
 20
17685.652918666659
 30
0.0
 40
160.0
  1
701
 50
90.0
  0
TEXT
  5
D876
  8
0
  6
CONTINUOUS
 62
     7
 10
28318.970327566771
 20
16916.152918666659
 30
0.0
 40
160.0
  1
758
 50
90.0
  0
TEXT
  5
D877
  8
0
  6
CONTINUOUS
 62
     7
 10
28318.970327566771
 20
16158.152918666659
 30
0.0
 40
160.0
  1
758
 50
90.0
  0
TEXT
  5
D878
  8
0
  6
CONTINUOUS
 62
     7
 10
28318.970327566771
 20
15468.77317441667
 30
0.0
 40
160.0
  1
701
 50
90.0
  0
TEXT
  5
D879
  8
0
  6
CONTINUOUS
 62
     7
 10
28318.970327566771
 20
14767.77317441667
 30
0.0
 40
160.0
  1
701
 50
90.0
  0
TEXT
  5
D87A
  8
0
  6
CONTINUOUS
 62
     7
 10
28318.970327566771
 20
14066.652918666659
 30
0.0
 40
160.0
  1
701
 50
90.0
  0
TEXT
  5
D87B
  8
0
  6
CONTINUOUS
 62
     7
 10
28678.970327566771
 20
13554.806666203531
 30
0.0
 40
160.0
  1
407.5
 50
90.0
  0
TEXT
  5
D87C
  8
0
  6
CONTINUOUS
 62
     7
 10
25580.80405690012
 20
12190.53816799999
 30
0.0
 40
160.0
  1
3003
  0
TEXT
  5
D87D
  8
0
  6
CONTINUOUS
 62
     7
 10
24506.524395948869
 20
12590.53816799999
 30
0.0
 40
160.0
  1
42.5
  0
TEXT
  5
D87E
  8
0
  6
CONTINUOUS
 62
     7
 10
26708.417051184679
 20
12590.53816799999
 30
0.0
 40
160.0
  1
42.5
  0
TEXT
  5
D87F
  8
0
  6
CONTINUOUS
 62
     7
 10
27424.524395948869
 20
12590.53816799999
 30
0.0
 40
160.0
  1
42.5
  0
TEXT
  5
D880
  8
0
  6
CONTINUOUS
 62
     7
 10
23790.417051184679
 20
12590.53816799999
 30
0.0
 40
160.0
  1
42.5
  0
ARC
  5
D881
  8
0
  6
BYBLOCK
 62
     0
 10
24388.47072356677
 20
12510.53816799999
 30
0.0
 40
15.0
 50
0.0
 51
180.0
  0
ARC
  5
D882
  8
0
  6
BYBLOCK
 62
     0
 10
24388.47072356677
 20
12510.53816799999
 30
0.0
 40
15.0
 50
180.0
 51
0.0
  0
ARC
  5
D883
  8
0
  6
BYBLOCK
 62
     0
 10
24345.968480566789
 20
12510.53816799999
 30
0.0
 40
15.0
 50
180.0
 51
0.0
  0
ARC
  5
D884
  8
0
  6
BYBLOCK
 62
     0
 10
24345.968480566789
 20
12510.53816799999
 30
0.0
 40
15.0
 50
0.0
 51
180.0
  0
ARC
  5
D885
  8
0
  6
BYBLOCK
 62
     0
 10
27306.470723566781
 20
12510.53816799999
 30
0.0
 40
15.0
 50
180.0
 51
0.0
  0
ARC
  5
D886
  8
0
  6
BYBLOCK
 62
     0
 10
27306.470723566781
 20
12510.53816799999
 30
0.0
 40
15.0
 50
0.0
 51
180.0
  0
ARC
  5
D887
  8
0
  6
BYBLOCK
 62
     0
 10
27348.97296656678
 20
12510.53816799999
 30
0.0
 40
15.0
 50
0.0
 51
180.0
  0
ARC
  5
D888
  8
0
  6
BYBLOCK
 62
     0
 10
27348.97296656678
 20
12510.53816799999
 30
0.0
 40
15.0
 50
180.0
 51
0.0
  0
ARC
  5
D889
  8
0
  6
BYBLOCK
 62
     0
 10
27306.470723566781
 20
12510.53816799999
 30
0.0
 40
15.0
 50
0.0
 51
180.0
  0
ARC
  5
D88A
  8
0
  6
BYBLOCK
 62
     0
 10
27306.470723566781
 20
12510.53816799999
 30
0.0
 40
15.0
 50
180.0
 51
0.0
  0
ARC
  5
D88B
  8
0
  6
BYBLOCK
 62
     0
 10
27263.968480566778
 20
12510.53816799999
 30
0.0
 40
15.0
 50
180.0
 51
0.0
  0
ARC
  5
D88C
  8
0
  6
BYBLOCK
 62
     0
 10
27263.968480566778
 20
12510.53816799999
 30
0.0
 40
15.0
 50
0.0
 51
180.0
  0
ARC
  5
D88D
  8
0
  6
BYBLOCK
 62
     0
 10
24388.47072356677
 20
12510.53816799999
 30
0.0
 40
15.0
 50
180.0
 51
0.0
  0
ARC
  5
D88E
  8
0
  6
BYBLOCK
 62
     0
 10
24388.47072356677
 20
12510.53816799999
 30
0.0
 40
15.0
 50
0.0
 51
180.0
  0
ARC
  5
D88F
  8
0
  6
BYBLOCK
 62
     0
 10
24430.972966566769
 20
12510.53816799999
 30
0.0
 40
15.0
 50
0.0
 51
180.0
  0
ARC
  5
D890
  8
0
  6
BYBLOCK
 62
     0
 10
24430.972966566769
 20
12510.53816799999
 30
0.0
 40
15.0
 50
180.0
 51
0.0
  0
ARC
  5
D891
  8
0
  6
BYBLOCK
 62
     0
 10
24345.968480566789
 20
12110.53816799999
 30
0.0
 40
15.0
 50
0.0
 51
180.0
  0
ARC
  5
D892
  8
0
  6
BYBLOCK
 62
     0
 10
24345.968480566789
 20
12110.53816799999
 30
0.0
 40
15.0
 50
180.0
 51
0.0
  0
ARC
  5
D893
  8
0
  6
BYBLOCK
 62
     0
 10
27348.97296656678
 20
12110.53816799999
 30
0.0
 40
15.0
 50
180.0
 51
0.0
  0
ARC
  5
D894
  8
0
  6
BYBLOCK
 62
     0
 10
27348.97296656678
 20
12110.53816799999
 30
0.0
 40
15.0
 50
0.0
 51
180.0
  0
ARC
  5
D895
  8
0
  6
BYBLOCK
 62
     0
 10
28398.970327566771
 20
13889.48625199999
 30
0.0
 40
15.0
 50
270.0
 51
90.0
  0
ARC
  5
D896
  8
0
  6
BYBLOCK
 62
     0
 10
28398.970327566771
 20
13889.48625199999
 30
0.0
 40
15.0
 50
90.0
 51
270.0
  0
ARC
  5
D897
  8
0
  6
BYBLOCK
 62
     0
 10
28398.970327566771
 20
13481.98625199999
 30
0.0
 40
15.0
 50
90.0
 51
270.0
  0
ARC
  5
D898
  8
0
  6
BYBLOCK
 62
     0
 10
28398.970327566771
 20
13481.98625199999
 30
0.0
 40
15.0
 50
270.0
 51
90.0
  0
ARC
  5
D899
  8
0
  6
BYBLOCK
 62
     0
 10
28398.970327566771
 20
14590.48625199999
 30
0.0
 40
15.0
 50
270.0
 51
90.0
  0
ARC
  5
D89A
  8
0
  6
BYBLOCK
 62
     0
 10
28398.970327566771
 20
14590.48625199999
 30
0.0
 40
15.0
 50
90.0
 51
270.0
  0
ARC
  5
D89B
  8
0
  6
BYBLOCK
 62
     0
 10
28398.970327566771
 20
13889.48625199999
 30
0.0
 40
15.0
 50
90.0
 51
270.0
  0
ARC
  5
D89C
  8
0
  6
BYBLOCK
 62
     0
 10
28398.970327566771
 20
13889.48625199999
 30
0.0
 40
15.0
 50
270.0
 51
90.0
  0
ARC
  5
D89D
  8
0
  6
BYBLOCK
 62
     0
 10
28398.970327566771
 20
15291.726763500001
 30
0.0
 40
15.0
 50
270.0
 51
90.0
  0
ARC
  5
D89E
  8
0
  6
BYBLOCK
 62
     0
 10
28398.970327566771
 20
15291.726763500001
 30
0.0
 40
15.0
 50
90.0
 51
270.0
  0
ARC
  5
D89F
  8
0
  6
BYBLOCK
 62
     0
 10
28398.970327566771
 20
14590.48625199999
 30
0.0
 40
15.0
 50
90.0
 51
270.0
  0
ARC
  5
D8A0
  8
0
  6
BYBLOCK
 62
     0
 10
28398.970327566771
 20
14590.48625199999
 30
0.0
 40
15.0
 50
270.0
 51
90.0
  0
ARC
  5
D8A1
  8
0
  6
BYBLOCK
 62
     0
 10
28398.970327566771
 20
15992.48625199999
 30
0.0
 40
15.0
 50
270.0
 51
90.0
  0
ARC
  5
D8A2
  8
0
  6
BYBLOCK
 62
     0
 10
28398.970327566771
 20
15992.48625199999
 30
0.0
 40
15.0
 50
90.0
 51
270.0
  0
ARC
  5
D8A3
  8
0
  6
BYBLOCK
 62
     0
 10
28398.970327566771
 20
15291.726763500001
 30
0.0
 40
15.0
 50
90.0
 51
270.0
  0
ARC
  5
D8A4
  8
0
  6
BYBLOCK
 62
     0
 10
28398.970327566771
 20
15291.726763500001
 30
0.0
 40
15.0
 50
270.0
 51
90.0
  0
ARC
  5
D8A5
  8
0
  6
BYBLOCK
 62
     0
 10
28398.970327566771
 20
16750.486251999981
 30
0.0
 40
15.0
 50
270.0
 51
90.0
  0
ARC
  5
D8A6
  8
0
  6
BYBLOCK
 62
     0
 10
28398.970327566771
 20
16750.486251999981
 30
0.0
 40
15.0
 50
90.0
 51
270.0
  0
ARC
  5
D8A7
  8
0
  6
BYBLOCK
 62
     0
 10
28398.970327566771
 20
15992.48625199999
 30
0.0
 40
15.0
 50
90.0
 51
270.0
  0
ARC
  5
D8A8
  8
0
  6
BYBLOCK
 62
     0
 10
28398.970327566771
 20
15992.48625199999
 30
0.0
 40
15.0
 50
270.0
 51
90.0
  0
ARC
  5
D8A9
  8
0
  6
BYBLOCK
 62
     0
 10
28398.970327566771
 20
17508.486251999981
 30
0.0
 40
15.0
 50
270.0
 51
90.0
  0
ARC
  5
D8AA
  8
0
  6
BYBLOCK
 62
     0
 10
28398.970327566771
 20
17508.486251999981
 30
0.0
 40
15.0
 50
90.0
 51
270.0
  0
ARC
  5
D8AB
  8
0
  6
BYBLOCK
 62
     0
 10
28398.970327566771
 20
16750.486251999981
 30
0.0
 40
15.0
 50
90.0
 51
270.0
  0
ARC
  5
D8AC
  8
0
  6
BYBLOCK
 62
     0
 10
28398.970327566771
 20
16750.486251999981
 30
0.0
 40
15.0
 50
270.0
 51
90.0
  0
ARC
  5
D8AD
  8
0
  6
BYBLOCK
 62
     0
 10
28398.970327566771
 20
18209.486251999981
 30
0.0
 40
15.0
 50
270.0
 51
90.0
  0
ARC
  5
D8AE
  8
0
  6
BYBLOCK
 62
     0
 10
28398.970327566771
 20
18209.486251999981
 30
0.0
 40
15.0
 50
90.0
 51
270.0
  0
ARC
  5
D8AF
  8
0
  6
BYBLOCK
 62
     0
 10
28398.970327566771
 20
17508.486251999981
 30
0.0
 40
15.0
 50
90.0
 51
270.0
  0
ARC
  5
D8B0
  8
0
  6
BYBLOCK
 62
     0
 10
28398.970327566771
 20
17508.486251999981
 30
0.0
 40
15.0
 50
270.0
 51
90.0
  0
ARC
  5
D8B1
  8
0
  6
BYBLOCK
 62
     0
 10
28398.970327566771
 20
18910.486251999981
 30
0.0
 40
15.0
 50
270.0
 51
90.0
  0
ARC
  5
D8B2
  8
0
  6
BYBLOCK
 62
     0
 10
28398.970327566771
 20
18910.486251999981
 30
0.0
 40
15.0
 50
90.0
 51
270.0
  0
ARC
  5
D8B3
  8
0
  6
BYBLOCK
 62
     0
 10
28398.970327566771
 20
18209.486251999981
 30
0.0
 40
15.0
 50
90.0
 51
270.0
  0
ARC
  5
D8B4
  8
0
  6
BYBLOCK
 62
     0
 10
28398.970327566771
 20
18209.486251999981
 30
0.0
 40
15.0
 50
270.0
 51
90.0
  0
ARC
  5
D8B5
  8
0
  6
BYBLOCK
 62
     0
 10
28398.970327566771
 20
19668.486251999981
 30
0.0
 40
15.0
 50
270.0
 51
90.0
  0
ARC
  5
D8B6
  8
0
  6
BYBLOCK
 62
     0
 10
28398.970327566771
 20
19668.486251999981
 30
0.0
 40
15.0
 50
90.0
 51
270.0
  0
ARC
  5
D8B7
  8
0
  6
BYBLOCK
 62
     0
 10
28398.970327566771
 20
18910.486251999981
 30
0.0
 40
15.0
 50
90.0
 51
270.0
  0
ARC
  5
D8B8
  8
0
  6
BYBLOCK
 62
     0
 10
28398.970327566771
 20
18910.486251999981
 30
0.0
 40
15.0
 50
270.0
 51
90.0
  0
ARC
  5
D8B9
  8
0
  6
BYBLOCK
 62
     0
 10
28398.970327566771
 20
19668.486251999992
 30
0.0
 40
15.0
 50
270.0
 51
90.0
  0
ARC
  5
D8BA
  8
0
  6
BYBLOCK
 62
     0
 10
28398.970327566771
 20
19668.486251999992
 30
0.0
 40
15.0
 50
90.0
 51
270.0
  0
ARC
  5
D8BB
  8
0
  6
BYBLOCK
 62
     0
 10
28398.970327566771
 20
13481.98625199999
 30
0.0
 40
15.0
 50
90.0
 51
270.0
  0
ARC
  5
D8BC
  8
0
  6
BYBLOCK
 62
     0
 10
28398.970327566771
 20
13481.98625199999
 30
0.0
 40
15.0
 50
270.0
 51
90.0
  0
ARC
  5
D8BD
  8
0
  6
BYBLOCK
 62
     0
 10
28798.970327566771
 20
19710.98354699996
 30
0.0
 40
15.0
 50
270.0
 51
90.0
  0
ARC
  5
D8BE
  8
0
  6
BYBLOCK
 62
     0
 10
28798.970327566771
 20
19710.98354699996
 30
0.0
 40
15.0
 50
90.0
 51
270.0
  0
ARC
  5
D8BF
  8
0
  6
BYBLOCK
 62
     0
 10
28798.970327566771
 20
13439.48895699999
 30
0.0
 40
15.0
 50
90.0
 51
270.0
  0
ARC
  5
D8C0
  8
0
  6
BYBLOCK
 62
     0
 10
28798.970327566771
 20
13439.48895699999
 30
0.0
 40
15.0
 50
270.0
 51
90.0
  0
ARC
  5
D8C1
  8
0
  6
BYBLOCK
 62
     0
 10
28398.970327566771
 20
19668.486251999992
 30
0.0
 40
15.0
 50
270.0
 51
90.0
  0
ARC
  5
D8C2
  8
0
  6
BYBLOCK
 62
     0
 10
28398.970327566771
 20
19668.486251999992
 30
0.0
 40
15.0
 50
90.0
 51
270.0
  0
ARC
  5
D8C3
  8
0
  6
BYBLOCK
 62
     0
 10
28398.970327566771
 20
19710.98354699996
 30
0.0
 40
15.0
 50
90.0
 51
270.0
  0
ARC
  5
D8C4
  8
0
  6
BYBLOCK
 62
     0
 10
28398.970327566771
 20
19710.98354699996
 30
0.0
 40
15.0
 50
270.0
 51
90.0
  0
ARC
  5
D8C5
  8
0
  6
BYBLOCK
 62
     0
 10
28398.970327566771
 20
13481.98625199999
 30
0.0
 40
15.0
 50
90.0
 51
270.0
  0
ARC
  5
D8C6
  8
0
  6
BYBLOCK
 62
     0
 10
28398.970327566771
 20
13481.98625199999
 30
0.0
 40
15.0
 50
270.0
 51
90.0
  0
ARC
  5
D8C7
  8
0
  6
BYBLOCK
 62
     0
 10
28398.970327566771
 20
13439.48895699999
 30
0.0
 40
15.0
 50
270.0
 51
90.0
  0
ARC
  5
D8C8
  8
0
  6
BYBLOCK
 62
     0
 10
28398.970327566771
 20
13439.48895699999
 30
0.0
 40
15.0
 50
90.0
 51
270.0
  0
TEXT
  5
D9E6
  8
FILENAME
  6
CONTINUOUS
 10
26518.285714285721
 20
348.0
 30
0.0
 40
200.0
  1
＜VGC-3062+VKC-5062-L-1-A_0.DXF ＞
  7
FILENAME
 72
     2
 11
32764.0
 21
348.0
 31
0.0
  0
LINE
  5
D9EB
  8
WAKUSEN-01
 10
868.00000000000193
 20
827.99999999999955
 30
0.0
 11
32764.000000000011
 21
827.99999999999943
 31
0.0
  0
LINE
  5
D9EC
  8
WAKUSEN-01
 10
868.00000000000193
 20
827.99999999999955
 30
0.0
 11
868.00000000000193
 21
22484.000000000011
 31
0.0
  0
LINE
  5
D9ED
  8
WAKUSEN-01
 10
32764.000000000011
 20
827.99999999999943
 30
0.0
 11
32764.000000000011
 21
22484.000000000011
 31
0.0
  0
LINE
  5
D9EE
  8
WAKUSEN-01
 10
20560.0
 20
827.99999999999716
 30
0.0
 11
20560.0
 21
2484.0
 31
0.0
  0
LINE
  5
D9EF
  8
WAKUSEN-02
 10
26868.0
 20
827.99999999999261
 30
0.0
 11
26868.0
 21
2484.0
 31
0.0
  0
ENDSEC
  0
EOF
