  0
SECTION
  2
HEADER
  9
$ACADVER
  1
AC1009
  9
$INSBASE
 10
0.0
 20
0.0
 30
0.0
  9
$EXTMIN
 10
867.99324330406671
 20
327.38164749855792
 30
-0.0000000000000058
  9
$EXTMAX
 10
32765.33210850941
 20
22484.553276491992
 30
0.0000000000000104
  9
$LIMMIN
 10
0.0
 20
0.0
  9
$LIMMAX
 10
33600.0
 20
23760.0
  9
$ORTHOMODE
 70
     1
  9
$REGENMODE
 70
     1
  9
$FILLMODE
 70
     1
  9
$QTEXTMODE
 70
     0
  9
$MIRRTEXT
 70
     0
  9
$DRAGMODE
 70
     2
  9
$LTSCALE
 40
80.0
  9
$OSMODE
 70
  3071
  9
$ATTMODE
 70
     1
  9
$TEXTSIZE
 40
0.2
  9
$TRACEWID
 40
0.05
  9
$TEXTSTYLE
  7
00
  9
$CLAYER
  8
0
  9
$CELTYPE
  6
BYLAYER
  9
$CECOLOR
 62
   256
  9
$DIMSCALE
 40
80.0
  9
$DIMASZ
 40
3.0
  9
$DIMEXO
 40
1.0
  9
$DIMDLI
 40
0.38
  9
$DIMRND
 40
0.5
  9
$DIMDLE
 40
0.0
  9
$DIMEXE
 40
1.0
  9
$DIMTP
 40
0.0
  9
$DIMTM
 40
0.0
  9
$DIMTXT
 40
2.0
  9
$DIMCEN
 40
0.09
  9
$DIMTSZ
 40
0.0
  9
$DIMTOL
 70
     0
  9
$DIMLIM
 70
     0
  9
$DIMTIH
 70
     0
  9
$DIMTOH
 70
     0
  9
$DIMSE1
 70
     0
  9
$DIMSE2
 70
     0
  9
$DIMTAD
 70
     1
  9
$DIMZIN
 70
     8
  9
$DIMBLK
  1
DOTSMALL
  9
$DIMASO
 70
     1
  9
$DIMSHO
 70
     1
  9
$DIMPOST
  1

  9
$DIMAPOST
  1

  9
$DIMALT
 70
     0
  9
$DIMALTD
 70
     2
  9
$DIMALTF
 40
25.399999999999999
  9
$DIMLFAC
 40
1.0
  9
$DIMTOFL
 70
     1
  9
$DIMTVP
 40
0.0
  9
$DIMTIX
 70
     0
  9
$DIMSOXD
 70
     0
  9
$DIMSAH
 70
     0
  9
$DIMBLK1
  1

  9
$DIMBLK2
  1

  9
$DIMSTYLE
  2
SUNPOU
  9
$DIMCLRD
 70
     4
  9
$DIMCLRE
 70
     4
  9
$DIMCLRT
 70
     7
  9
$DIMTFAC
 40
1.0
  9
$DIMGAP
 40
1.0
  9
$LUNITS
 70
     2
  9
$LUPREC
 70
     4
  9
$SKETCHINC
 40
0.1
  9
$FILLETRAD
 40
0.0
  9
$AUNITS
 70
     0
  9
$AUPREC
 70
     0
  9
$MENU
  1
acad
  9
$ELEVATION
 40
0.0
  9
$PELEVATION
 40
0.0
  9
$THICKNESS
 40
0.0
  9
$LIMCHECK
 70
     0
  9
$BLIPMODE
 70
     1
  9
$CHAMFERA
 40
0.0
  9
$CHAMFERB
 40
0.0
  9
$SKPOLY
 70
     0
  9
$TDCREATE
 40
2311940.075052408
  9
$TDUPDATE
 40
2458942.4530345602
  9
$TDINDWG
 40
0.3830741204
  9
$TDUSRTIMER
 40
0.3830734028
  9
$USRTIMER
 70
     1
  9
$ANGBASE
 50
0.0
  9
$ANGDIR
 70
     0
  9
$PDMODE
 70
     0
  9
$PDSIZE
 40
0.0
  9
$PLINEWID
 40
0.0
  9
$COORDS
 70
     1
  9
$SPLFRAME
 70
     0
  9
$SPLINETYPE
 70
     6
  9
$SPLINESEGS
 70
     8
  9
$ATTDIA
 70
     1
  9
$ATTREQ
 70
     1
  9
$HANDLING
 70
     1
  9
$HANDSEED
  5
C307
  9
$SURFTAB1
 70
     6
  9
$SURFTAB2
 70
     6
  9
$SURFTYPE
 70
     6
  9
$SURFU
 70
     6
  9
$SURFV
 70
     6
  9
$UCSNAME
  2

  9
$UCSORG
 10
0.0
 20
0.0
 30
0.0
  9
$UCSXDIR
 10
1.0
 20
0.0
 30
0.0
  9
$UCSYDIR
 10
0.0
 20
1.0
 30
0.0
  9
$PUCSNAME
  2

  9
$PUCSORG
 10
0.0
 20
0.0
 30
0.0
  9
$PUCSXDIR
 10
1.0
 20
0.0
 30
0.0
  9
$PUCSYDIR
 10
0.0
 20
1.0
 30
0.0
  9
$USERI1
 70
     0
  9
$USERI2
 70
     0
  9
$USERI3
 70
     0
  9
$USERI4
 70
     0
  9
$USERI5
 70
     0
  9
$USERR1
 40
0.0
  9
$USERR2
 40
0.0
  9
$USERR3
 40
0.0
  9
$USERR4
 40
0.0
  9
$USERR5
 40
0.0
  9
$WORLDVIEW
 70
     1
  9
$SHADEDGE
 70
     3
  9
$SHADEDIF
 70
    70
  9
$TILEMODE
 70
     1
  9
$MAXACTVP
 70
    16
  9
$PLIMCHECK
 70
     0
  9
$PEXTMIN
 10
1.0000000000000000E+020
 20
1.0000000000000000E+020
 30
1.0000000000000000E+020
  9
$PEXTMAX
 10
-1.0000000000000000E+020
 20
-1.0000000000000000E+020
 30
-1.0000000000000000E+020
  9
$PLIMMIN
 10
0.0
 20
0.0
  9
$PLIMMAX
 10
12.0
 20
9.0
  9
$UNITMODE
 70
     0
  9
$VISRETAIN
 70
     0
  9
$PLINEGEN
 70
     1
  9
$PSLTSCALE
 70
     0
  0
ENDSEC
  0
SECTION
  2
TABLES
  0
TABLE
  2
VPORT
 70
     1
  0
VPORT
  2
*ACTIVE
 70
     0
 10
0.0
 20
0.0
 11
1.0
 21
1.0
 12
16800.0
 22
11880.0
 13
0.0
 23
0.0
 14
1.0
 24
1.0
 15
0.0
 25
0.0
 16
0.0
 26
0.0
 36
1.0
 17
0.0
 27
0.0
 37
0.0
 40
23981.023255813951
 41
2.195652173913043
 42
50.0
 43
0.0
 44
0.0
 50
0.0
 51
0.0
 71
     0
 72
 10000
 73
     1
 74
     1
 75
     0
 76
     0
 77
     0
 78
     0
  0
ENDTAB
  0
TABLE
  2
LTYPE
 70
     6
  0
LTYPE
  2
CONTINUOUS
 70
     0
  3
Solid line
 72
    65
 73
     0
 40
0.0
  0
LTYPE
  2
DASHED3
 70
     0
  3
------  ------  ------  ------  
 72
    65
 73
     2
 40
5.0
 49
3.75
 49
-1.25
  0
LTYPE
  2
CENTER2
 70
     0
  3
----------  --  ----------  --  
 72
    65
 73
     4
 40
20.0
 49
12.5
 49
-2.5
 49
2.5
 49
-2.5
  0
LTYPE
  2
HIDE-M
 70
     0
  3

 72
    65
 73
     2
 40
2.0
 49
1.0
 49
-1.0
  0
LTYPE
  2
1PL-M
 70
     0
  3

 72
    65
 73
     4
 40
15.0
 49
12.0
 49
-1.0
 49
1.0
 49
-1.0
  0
LTYPE
  2
PHANTOM2
 70
     0
  3
___ _ _ ___ _ _ ___ _ _ ___ _ _
 72
    65
 73
     6
 40
1.25
 49
0.625
 49
-0.125
 49
0.125
 49
-0.125
 49
0.125
 49
-0.125
  0
ENDTAB
  0
TABLE
  2
LAYER
 70
    24
  0
LAYER
  2
0
 70
     0
 62
     7
  6
CONTINUOUS
  0
LAYER
  2
SUNPOU
 70
     0
 62
     4
  6
CONTINUOUS
  0
LAYER
  2
0-1
 70
     0
 62
     7
  6
CONTINUOUS
  0
LAYER
  2
0-2
 70
     0
 62
     7
  6
CONTINUOUS
  0
LAYER
  2
0-5
 70
     0
 62
     7
  6
CONTINUOUS
  0
LAYER
  2
0-6
 70
     0
 62
     7
  6
CONTINUOUS
  0
LAYER
  2
2-0
 70
     0
 62
     7
  6
CONTINUOUS
  0
LAYER
  2
0-8
 70
     0
 62
     7
  6
CONTINUOUS
  0
LAYER
  2
YODOROGO
 70
     0
 62
   130
  6
CONTINUOUS
  0
LAYER
  2
WAKUSEN-01
 70
     0
 62
    50
  6
CONTINUOUS
  0
LAYER
  2
WAKUSEN-02
 70
     0
 62
   130
  6
CONTINUOUS
  0
LAYER
  2
WAKUMOJI-01
 70
     0
 62
   130
  6
CONTINUOUS
  0
LAYER
  2
FILENAME
 70
     0
 62
     7
  6
CONTINUOUS
  0
LAYER
  2
NAME
 70
     0
 62
    20
  6
CONTINUOUS
  0
LAYER
  2
0-4
 70
     0
 62
     7
  6
CONTINUOUS
  0
LAYER
  2
1-前柱P
 70
     0
 62
     3
  6
CONTINUOUS
  0
LAYER
  2
1-前柱カバ-P
 70
     0
 62
     3
  6
CONTINUOUS
  0
LAYER
  2
1-桁前P28
 70
     0
 62
     3
  6
CONTINUOUS
  0
LAYER
  2
1-後柱P
 70
     0
 62
     3
  6
CONTINUOUS
  0
LAYER
  2
1-中柱P
 70
     0
 62
     3
  6
CONTINUOUS
  0
LAYER
  2
1-後柱カバ-P
 70
     0
 62
     7
  6
CONTINUOUS
  0
LAYER
  2
1-中柱カバ-P
 70
     0
 62
     7
  6
CONTINUOUS
  0
ENDTAB
  0
TABLE
  2
STYLE
 70
     5
  0
STYLE
  2
STANDARD
 70
     0
 40
0.0
 41
1.0
 50
0.0
 71
     0
 42
0.0
  3
txt
  4
BIGFONT
  0
STYLE
  2
00
 70
     0
 40
0.0
 41
0.6666666666666666
 50
0.0
 71
     0
 42
0.2
  3
ROMANS
  4
BIGFONT
  0
STYLE
  2
01
 70
     0
 40
3.0
 41
1.0
 50
0.0
 71
     0
 42
0.2
  3
ROMANS
  4
BIGFONT
  0
STYLE
  2
WAKUMOJI
 70
     0
 40
3.0
 41
1.0
 50
0.0
 71
     0
 42
3.0
  3
SIMPLEX
  4
BIGFONT
  0
STYLE
  2
FILENAME
 70
     0
 40
200.0
 41
1.0
 50
0.0
 71
     0
 42
200.0
  3
romans
  4
bigfont
  0
ENDTAB
  0
TABLE
  2
VIEW
 70
     0
  0
ENDTAB
  0
TABLE
  2
UCS
 70
     0
  0
ENDTAB
  0
TABLE
  2
APPID
 70
    17
  0
APPID
  2
ACAD
 70
     0
  0
APPID
  2
ACADANNOTATIVE
 70
     0
  0
APPID
  2
ACAD_PSEXT
 70
     0
  0
APPID
  2
DCO15
 70
     0
  0
APPID
  2
ACAD_MLEADERVER
 70
     0
  0
APPID
  2
AUTOCAD_POSTSCRIPT_FIGURE
 70
     0
  0
APPID
  2
ACAD_EXEMPT_FROM_CAD_STANDARDS
 70
     0
  0
APPID
  2
ACLAYERTOOLS
 70
     0
  0
APPID
  2
ACAD_DSTYLE_DIMJAG
 70
     0
  0
APPID
  2
ACAD_DSTYLE_DIMTALN
 70
     0
  0
APPID
  2
ACAECLAYERSTANDARD
 70
     0
  0
APPID
  2
ACAD_DSTYLE_DIMBREAK
 70
     0
  0
APPID
  2
ACAD_DSTYLE_DIM_LINETYPE
 70
     0
  0
APPID
  2
ACAD_DSTYLE_DIM_EXT1_LINETYPE
 70
     0
  0
APPID
  2
ACAD_DSTYLE_DIM_EXT2_LINETYPE
 70
     0
  0
APPID
  2
ACAD_DSTYLE_DIMFLIPARROW_W
 70
     0
  0
APPID
  2
ACAD_NAV_VCDISPLAY
 70
     0
  0
ENDTAB
  0
TABLE
  2
DIMSTYLE
 70
     2
  0
DIMSTYLE
  2
SUNPOU
 70
     0
  3

  4

  5

  6

  7

 40
80.0
 41
3.0
 42
1.0
 43
0.38
 44
1.0
 45
0.5
 46
0.0
 47
0.0
 48
0.0
140
2.0
141
0.09
142
0.0
143
25.399999999999999
144
1.0
145
0.0
146
1.0
147
1.0
 71
     0
 72
     0
 73
     0
 74
     0
 75
     0
 76
     0
 77
     1
 78
     8
170
     0
171
     2
172
     1
173
     0
174
     0
175
     0
176
     4
177
     4
178
     7
  0
ENDTAB
  0
ENDSEC
  0
SECTION
  2
BLOCKS
  0
BLOCK
  8
0
  2
$MODEL_SPACE
 70
     0
 10
0.0
 20
0.0
 30
0.0
  3
$MODEL_SPACE
  1

  0
ENDBLK
  5
AD4D
  8
0
  0
BLOCK
 67
     1
  8
0
  2
$PAPER_SPACE
 70
     0
 10
0.0
 20
0.0
 30
0.0
  3
$PAPER_SPACE
  1

  0
ENDBLK
  5
AD49
 67
     1
  8
0
  0
BLOCK
  8
0
  2
_DOTSMALL
 70
     0
 10
0.0
 20
0.0
 30
0.0
  3
_DOTSMALL
  1

  0
POLYLINE
  5
AD89
  8
0
  6
BYBLOCK
 62
     0
 66
     1
 10
0.0
 20
0.0
 30
0.0
 70
     1
 40
0.5
 41
0.5
  0
VERTEX
  5
C2CF
  8
0
  6
BYBLOCK
 62
     0
 10
-0.0625
 20
0.0
 30
0.0
 42
1.0
  0
VERTEX
  5
C2D0
  8
0
  6
BYBLOCK
 62
     0
 10
0.0625
 20
0.0
 30
0.0
 42
1.0
  0
SEQEND
  5
C2D1
  8
0
  6
BYBLOCK
 62
     0
  0
ENDBLK
  5
AD8D
  8
0
  0
ENDSEC
  0
SECTION
  2
ENTITIES
  0
LINE
  5
AD8E
  8
0-1
  6
CONTINUOUS
 62
     3
 10
20024.690843456221
 20
8132.6883740000021
 30
0.0
 11
22857.694274456211
 21
8132.6883740000021
 31
0.0
  0
LINE
  5
AD8F
  8
0-1
  6
CONTINUOUS
 62
     3
 10
20024.690843456221
 20
8325.6887430000006
 30
0.0
 11
22857.694274456211
 21
8325.6887430000006
 31
0.0
  0
LINE
  5
AD90
  8
0-1
  6
CONTINUOUS
 62
     3
 10
19896.69453845621
 20
8263.5026620000008
 30
0.0
 11
19896.69453845621
 21
8589.1883999999973
 31
0.0
  0
LINE
  5
AD91
  8
0-1
  6
CONTINUOUS
 62
     3
 10
22942.6928234562
 20
8459.1884659999978
 30
0.0
 11
19896.69453845621
 21
8459.1884659999978
 31
0.0
  0
LINE
  5
AD92
  8
0-1
  6
CONTINUOUS
 62
     3
 10
19896.69453845621
 20
8589.1883999999973
 30
0.0
 11
22922.695726456201
 21
8589.1883999999973
 31
0.0
  0
LINE
  5
AD93
  8
0-1
  6
CONTINUOUS
 62
     3
 10
7511.9175413420107
 20
6291.1885390000007
 30
0.0
 11
7511.9175413420107
 21
8152.2344180000036
 31
0.0
  0
LINE
  5
AD94
  8
0-1
  6
CONTINUOUS
 62
     3
 10
7531.9185973420017
 20
6291.1885390000007
 30
0.0
 11
7531.9185973420017
 21
8152.2344180000036
 31
0.0
  0
LINE
  5
AD95
  8
0-1
  6
CONTINUOUS
 62
     3
 10
7461.917871342016
 20
6291.1885390000007
 30
0.0
 11
7461.917871342016
 21
8152.2344180000036
 31
0.0
  0
LINE
  5
AD96
  8
0-1
  6
CONTINUOUS
 62
     3
 10
7581.9172773420114
 20
6291.1885390000007
 30
0.0
 11
7581.9172773420114
 21
8152.2344180000036
 31
0.0
  0
LINE
  5
AD97
  8
0-1
  6
CONTINUOUS
 62
     3
 10
7714.9181613420023
 20
6291.1885390000007
 30
0.0
 11
7714.9181613420023
 21
8152.2344180000036
 31
0.0
  0
LINE
  5
AD98
  8
0-1
  6
CONTINUOUS
 62
     3
 10
7729.9179633420099
 20
6291.1885390000007
 30
0.0
 11
7729.9179633420099
 21
8152.2344180000036
 31
0.0
  0
LINE
  5
AD99
  8
0-1
  6
CONTINUOUS
 62
     3
 10
7328.9179763420107
 20
6291.1885390000007
 30
0.0
 11
7328.9179763420107
 21
8152.2344180000036
 31
0.0
  0
LINE
  5
AD9A
  8
0-1
  6
CONTINUOUS
 62
     3
 10
7313.9181743420131
 20
6291.1885390000007
 30
0.0
 11
7313.9181743420131
 21
8152.2344180000036
 31
0.0
  0
LINE
  5
AD9B
  8
0-1
  6
CONTINUOUS
 62
     3
 10
8590.4176603420092
 20
8152.2344180000036
 30
0.0
 11
8590.4176603420092
 21
6291.1885390000007
 31
0.0
  0
LINE
  5
AD9C
  8
0-1
  6
CONTINUOUS
 62
     3
 10
8553.4194683420101
 20
8152.2344180000036
 30
0.0
 11
8553.4194683420101
 21
6291.1885390000007
 31
0.0
  0
LINE
  5
AD9D
  8
0-1
  6
CONTINUOUS
 62
     3
 10
7890.4183193420104
 20
8152.2344180000036
 30
0.0
 11
7890.4183193420104
 21
6291.1885390000007
 31
0.0
  0
LINE
  5
AD9E
  8
0-1
  6
CONTINUOUS
 62
     3
 10
7853.418148341997
 20
8152.2344180000036
 30
0.0
 11
7853.418148341997
 21
6291.1885390000007
 31
0.0
  0
LINE
  5
AD9F
  8
0-1
  6
CONTINUOUS
 62
     3
 10
9290.4170003420004
 20
8152.2344180000036
 30
0.0
 11
9290.4170003420004
 21
6291.1885390000007
 31
0.0
  0
LINE
  5
ADA0
  8
0-1
  6
CONTINUOUS
 62
     3
 10
9253.4188083420031
 20
8152.2344180000036
 30
0.0
 11
9253.4188083420031
 21
6291.1885390000007
 31
0.0
  0
LINE
  5
ADA1
  8
0-1
  6
CONTINUOUS
 62
     3
 10
8911.9172113419972
 20
6291.1885390000007
 30
0.0
 11
8911.9172113419972
 21
8152.2344180000036
 31
0.0
  0
LINE
  5
ADA2
  8
0-1
  6
CONTINUOUS
 62
     3
 10
8931.9182673420109
 20
6291.1885390000007
 30
0.0
 11
8931.9182673420109
 21
8152.2344180000036
 31
0.0
  0
LINE
  5
ADA3
  8
0-1
  6
CONTINUOUS
 62
     3
 10
8861.9185313420112
 20
6291.1885390000007
 30
0.0
 11
8861.9185313420112
 21
8152.2344180000036
 31
0.0
  0
LINE
  5
ADA4
  8
0-1
  6
CONTINUOUS
 62
     3
 10
8981.9179373420138
 20
6291.1885390000007
 30
0.0
 11
8981.9179373420138
 21
8152.2344180000036
 31
0.0
  0
LINE
  5
ADA5
  8
0-1
  6
CONTINUOUS
 62
     3
 10
9114.917831341998
 20
6291.1885390000007
 30
0.0
 11
9114.917831341998
 21
8152.2344180000036
 31
0.0
  0
LINE
  5
ADA6
  8
0-1
  6
CONTINUOUS
 62
     3
 10
9129.9176333420073
 20
6291.1885390000007
 30
0.0
 11
9129.9176333420073
 21
8152.2344180000036
 31
0.0
  0
LINE
  5
ADA7
  8
0-1
  6
CONTINUOUS
 62
     3
 10
8728.9176463420081
 20
6291.1885390000007
 30
0.0
 11
8728.9176463420081
 21
8152.2344180000036
 31
0.0
  0
LINE
  5
ADA8
  8
0-1
  6
CONTINUOUS
 62
     3
 10
8713.9188343420101
 20
6291.1885390000007
 30
0.0
 11
8713.9188343420101
 21
8152.2344180000036
 31
0.0
  0
LINE
  5
ADA9
  8
0-1
  6
CONTINUOUS
 62
     3
 10
8013.9175143420098
 20
6291.1885390000007
 30
0.0
 11
8013.9175143420098
 21
8152.2344180000036
 31
0.0
  0
LINE
  5
ADAA
  8
0-1
  6
CONTINUOUS
 62
     3
 10
8028.9183063419969
 20
6291.1885390000007
 30
0.0
 11
8028.9183063419969
 21
8152.2344180000036
 31
0.0
  0
LINE
  5
ADAB
  8
0-1
  6
CONTINUOUS
 62
     3
 10
8429.9182933420088
 20
6291.1885390000007
 30
0.0
 11
8429.9182933420088
 21
8152.2344180000036
 31
0.0
  0
LINE
  5
ADAC
  8
0-1
  6
CONTINUOUS
 62
     3
 10
8414.9175013420099
 20
6291.1885390000007
 30
0.0
 11
8414.9175013420099
 21
8152.2344180000036
 31
0.0
  0
LINE
  5
ADAD
  8
0-1
  6
CONTINUOUS
 62
     3
 10
8281.9185973420044
 20
6291.1885390000007
 30
0.0
 11
8281.9185973420044
 21
8152.2344180000036
 31
0.0
  0
LINE
  5
ADAE
  8
0-1
  6
CONTINUOUS
 62
     3
 10
8161.9172113420109
 20
6291.1885390000007
 30
0.0
 11
8161.9172113420109
 21
8152.2344180000036
 31
0.0
  0
LINE
  5
ADAF
  8
0-1
  6
CONTINUOUS
 62
     3
 10
8231.9199163420126
 20
6291.1885390000007
 30
0.0
 11
8231.9199163420126
 21
8152.2344180000036
 31
0.0
  0
LINE
  5
ADB0
  8
0-1
  6
CONTINUOUS
 62
     3
 10
8211.9188613420101
 20
6291.1885390000007
 30
0.0
 11
8211.9188613420101
 21
8152.2344180000036
 31
0.0
  0
LINE
  5
ADB1
  8
0-1
  6
CONTINUOUS
 62
     3
 10
9413.9171853420066
 20
6291.1885390000007
 30
0.0
 11
9413.9171853420066
 21
8152.2344180000036
 31
0.0
  0
LINE
  5
ADB2
  8
0-1
  6
CONTINUOUS
 62
     3
 10
9428.9179763420107
 20
6291.1885390000007
 30
0.0
 11
9428.9179763420107
 21
8152.2344180000036
 31
0.0
  0
LINE
  5
ADB3
  8
0-1
  6
CONTINUOUS
 62
     3
 10
9561.9188613420138
 20
6291.1885390000007
 30
0.0
 11
9561.9188613420138
 21
8152.2344180000036
 31
0.0
  0
LINE
  5
ADB4
  8
0-1
  6
CONTINUOUS
 62
     3
 10
9829.9179633420099
 20
6291.1885390000007
 30
0.0
 11
9829.9179633420099
 21
8152.2344180000036
 31
0.0
  0
LINE
  5
ADB5
  8
0-1
  6
CONTINUOUS
 62
     3
 10
9814.9191513420083
 20
6291.1885390000007
 30
0.0
 11
9814.9191513420083
 21
8152.2344180000036
 31
0.0
  0
LINE
  5
ADB6
  8
0-1
  6
CONTINUOUS
 62
     3
 10
9681.918267342
 20
6291.1885390000007
 30
0.0
 11
9681.918267342
 21
8152.2344180000036
 31
0.0
  0
LINE
  5
ADB7
  8
0-1
  6
CONTINUOUS
 62
     3
 10
9631.9185973420044
 20
6291.1885390000007
 30
0.0
 11
9631.9185973420044
 21
8152.2344180000036
 31
0.0
  0
LINE
  5
ADB8
  8
0-1
  6
CONTINUOUS
 62
     3
 10
9611.9195203420077
 20
6291.1885390000007
 30
0.0
 11
9611.9195203420077
 21
8152.2344180000036
 31
0.0
  0
LINE
  5
ADB9
  8
0-1
  6
CONTINUOUS
 62
     3
 10
10439.91849134199
 20
6291.1885390000007
 30
0.0
 11
10439.91849134199
 21
8152.2344180000036
 31
0.0
  0
LINE
  5
ADBA
  8
0-1
  6
CONTINUOUS
 62
     3
 10
10419.919415341999
 20
6291.1885390000007
 30
0.0
 11
10419.919415341999
 21
8152.2344180000036
 31
0.0
  0
LINE
  5
ADBB
  8
0-1
  6
CONTINUOUS
 62
     3
 10
10489.91915134199
 20
6291.1885390000007
 30
0.0
 11
10489.91915134199
 21
8152.2344180000036
 31
0.0
  0
LINE
  5
ADBC
  8
0-1
  6
CONTINUOUS
 62
     3
 10
10369.918755342011
 20
6291.1885390000007
 30
0.0
 11
10369.918755342011
 21
8152.2344180000036
 31
0.0
  0
LINE
  5
ADBD
  8
0-1
  6
CONTINUOUS
 62
     3
 10
10236.91886134199
 20
6291.1885390000007
 30
0.0
 11
10236.91886134199
 21
8152.2344180000036
 31
0.0
  0
LINE
  5
ADBE
  8
0-1
  6
CONTINUOUS
 62
     3
 10
10221.917079342
 20
6291.1885390000007
 30
0.0
 11
10221.917079342
 21
8152.2344180000036
 31
0.0
  0
LINE
  5
ADBF
  8
0-1
  6
CONTINUOUS
 62
     3
 10
10622.919045342011
 20
6291.1885390000007
 30
0.0
 11
10622.919045342011
 21
8152.2344180000036
 31
0.0
  0
LINE
  5
ADC0
  8
0-1
  6
CONTINUOUS
 62
     3
 10
10637.917858342011
 20
6291.1885390000007
 30
0.0
 11
10637.917858342011
 21
8152.2344180000036
 31
0.0
  0
LINE
  5
ADC1
  8
0-1
  6
CONTINUOUS
 62
     3
 10
12737.917858342011
 20
6291.1885390000007
 30
0.0
 11
12737.917858342011
 21
8152.2344180000036
 31
0.0
  0
LINE
  5
ADC2
  8
0-1
  6
CONTINUOUS
 62
     3
 10
12722.919045342011
 20
6291.1885390000007
 30
0.0
 11
12722.919045342011
 21
8152.2344180000036
 31
0.0
  0
LINE
  5
ADC3
  8
0-1
  6
CONTINUOUS
 62
     3
 10
12321.918069342
 20
6291.1885390000007
 30
0.0
 11
12321.918069342
 21
8152.2344180000036
 31
0.0
  0
LINE
  5
ADC4
  8
0-1
  6
CONTINUOUS
 62
     3
 10
12336.91787134201
 20
6291.1885390000007
 30
0.0
 11
12336.91787134201
 21
8152.2344180000036
 31
0.0
  0
LINE
  5
ADC5
  8
0-1
  6
CONTINUOUS
 62
     3
 10
12469.918755342011
 20
6291.1885390000007
 30
0.0
 11
12469.918755342011
 21
8152.2344180000036
 31
0.0
  0
LINE
  5
ADC6
  8
0-1
  6
CONTINUOUS
 62
     3
 10
12589.91816134201
 20
6291.1885390000007
 30
0.0
 11
12589.91816134201
 21
8152.2344180000036
 31
0.0
  0
LINE
  5
ADC7
  8
0-1
  6
CONTINUOUS
 62
     3
 10
12519.919415341999
 20
6291.1885390000007
 30
0.0
 11
12519.919415341999
 21
8152.2344180000036
 31
0.0
  0
LINE
  5
ADC8
  8
0-1
  6
CONTINUOUS
 62
     3
 10
12539.918491341999
 20
6291.1885390000007
 30
0.0
 11
12539.918491341999
 21
8152.2344180000036
 31
0.0
  0
LINE
  5
ADC9
  8
0-1
  6
CONTINUOUS
 62
     3
 10
11839.91915134201
 20
6291.1885390000007
 30
0.0
 11
11839.91915134201
 21
8152.2344180000036
 31
0.0
  0
LINE
  5
ADCA
  8
0-1
  6
CONTINUOUS
 62
     3
 10
11819.918095342
 20
6291.1885390000007
 30
0.0
 11
11819.918095342
 21
8152.2344180000036
 31
0.0
  0
LINE
  5
ADCB
  8
0-1
  6
CONTINUOUS
 62
     3
 10
11889.917831342011
 20
6291.1885390000007
 30
0.0
 11
11889.917831342011
 21
8152.2344180000036
 31
0.0
  0
LINE
  5
ADCC
  8
0-1
  6
CONTINUOUS
 62
     3
 10
11769.919415341999
 20
6291.1885390000007
 30
0.0
 11
11769.919415341999
 21
8152.2344180000036
 31
0.0
  0
LINE
  5
ADCD
  8
0-1
  6
CONTINUOUS
 62
     3
 10
11636.918531342
 20
6291.1885390000007
 30
0.0
 11
11636.918531342
 21
8152.2344180000036
 31
0.0
  0
LINE
  5
ADCE
  8
0-1
  6
CONTINUOUS
 62
     3
 10
11621.918729342
 20
6291.1885390000007
 30
0.0
 11
11621.918729342
 21
8152.2344180000036
 31
0.0
  0
LINE
  5
ADCF
  8
0-1
  6
CONTINUOUS
 62
     3
 10
12022.916736342
 20
6291.1885390000007
 30
0.0
 11
12022.916736342
 21
8152.2344180000036
 31
0.0
  0
LINE
  5
ADD0
  8
0-1
  6
CONTINUOUS
 62
     3
 10
12037.91851734201
 20
6291.1885390000007
 30
0.0
 11
12037.91851734201
 21
8152.2344180000036
 31
0.0
  0
LINE
  5
ADD1
  8
0-1
  6
CONTINUOUS
 62
     3
 10
11337.91917734201
 20
6291.1885390000007
 30
0.0
 11
11337.91917734201
 21
8152.2344180000036
 31
0.0
  0
LINE
  5
ADD2
  8
0-1
  6
CONTINUOUS
 62
     3
 10
11322.917396342011
 20
6291.1885390000007
 30
0.0
 11
11322.917396342011
 21
8152.2344180000036
 31
0.0
  0
LINE
  5
ADD3
  8
0-1
  6
CONTINUOUS
 62
     3
 10
10921.919388341999
 20
6291.1885390000007
 30
0.0
 11
10921.919388341999
 21
8152.2344180000036
 31
0.0
  0
LINE
  5
ADD4
  8
0-1
  6
CONTINUOUS
 62
     3
 10
10936.918201342
 20
6291.1885390000007
 30
0.0
 11
10936.918201342
 21
8152.2344180000036
 31
0.0
  0
LINE
  5
ADD5
  8
0-1
  6
CONTINUOUS
 62
     3
 10
11069.917105342
 20
6291.1885390000007
 30
0.0
 11
11069.917105342
 21
8152.2344180000036
 31
0.0
  0
LINE
  5
ADD6
  8
0-1
  6
CONTINUOUS
 62
     3
 10
11189.918491341999
 20
6291.1885390000007
 30
0.0
 11
11189.918491341999
 21
8152.2344180000036
 31
0.0
  0
LINE
  5
ADD7
  8
0-1
  6
CONTINUOUS
 62
     3
 10
11119.918755341991
 20
6291.1885390000007
 30
0.0
 11
11119.918755341991
 21
8152.2344180000036
 31
0.0
  0
LINE
  5
ADD8
  8
0-1
  6
CONTINUOUS
 62
     3
 10
11139.917831342011
 20
6291.1885390000007
 30
0.0
 11
11139.917831342011
 21
8152.2344180000036
 31
0.0
  0
LINE
  5
ADD9
  8
0-1
  6
CONTINUOUS
 62
     3
 10
10798.41920434201
 20
8152.2344180000036
 30
0.0
 11
10798.41920434201
 21
6291.1885390000007
 31
0.0
  0
LINE
  5
ADDA
  8
0-1
  6
CONTINUOUS
 62
     3
 10
10761.418042342
 20
8152.2344180000036
 30
0.0
 11
10761.418042342
 21
6291.1885390000007
 31
0.0
  0
LINE
  5
ADDB
  8
0-1
  6
CONTINUOUS
 62
     3
 10
12198.41689434201
 20
8152.2344180000036
 30
0.0
 11
12198.41689434201
 21
6291.1885390000007
 31
0.0
  0
LINE
  5
ADDC
  8
0-1
  6
CONTINUOUS
 62
     3
 10
12161.41771234199
 20
8152.2344180000036
 30
0.0
 11
12161.41771234199
 21
6291.1885390000007
 31
0.0
  0
LINE
  5
ADDD
  8
0-1
  6
CONTINUOUS
 62
     3
 10
11498.41854434199
 20
8152.2344180000036
 30
0.0
 11
11498.41854434199
 21
6291.1885390000007
 31
0.0
  0
LINE
  5
ADDE
  8
0-1
  6
CONTINUOUS
 62
     3
 10
11461.41837234201
 20
8152.2344180000036
 30
0.0
 11
11461.41837234201
 21
6291.1885390000007
 31
0.0
  0
LINE
  5
ADDF
  8
0-1
  6
CONTINUOUS
 62
     3
 10
12898.41920434199
 20
8152.2344180000036
 30
0.0
 11
12898.41920434199
 21
6291.1885390000007
 31
0.0
  0
LINE
  5
ADE0
  8
0-1
  6
CONTINUOUS
 62
     3
 10
12861.418042342
 20
8152.2344180000036
 30
0.0
 11
12861.418042342
 21
6291.1885390000007
 31
0.0
  0
LINE
  5
ADE1
  8
0-1
  6
CONTINUOUS
 62
     3
 10
7565.2665818062742
 20
16684.985315999991
 30
0.0
 11
10483.266581806271
 21
16684.985315999991
 31
0.0
  0
LINE
  5
AE11
  8
0-1
  6
CONTINUOUS
 62
     3
 10
10430.266950806281
 20
13424.98635799998
 30
0.0
 11
10430.266950806281
 21
17768.23311058123
 31
0.0
  0
LINE
  5
AE12
  8
0-1
  6
CONTINUOUS
 62
     3
 10
7615.267201806284
 20
13300.986344000001
 30
0.0
 11
7615.267201806284
 21
19078.771656424949
 31
0.0
  0
LINE
  5
AE13
  8
0-1
  6
CONTINUOUS
 62
     3
 10
7479.7665818062733
 20
13268.986437
 30
0.0
 11
7479.7665818062733
 21
18989.10749151139
 31
0.0
  0
LINE
  5
AF66
  8
0-1
  6
CONTINUOUS
 62
     3
 10
7522.7673078062817
 20
13424.98635799998
 30
0.0
 11
13325.767835806269
 21
13424.98635799998
 31
0.0
  0
LINE
  5
AF67
  8
0-1
  6
CONTINUOUS
 62
     3
 10
7565.2665818062742
 20
13503.985975
 30
0.0
 11
13283.266581806271
 21
13503.985975
 31
0.0
  0
LINE
  5
AF68
  8
0-1
  6
CONTINUOUS
 62
     3
 10
7479.7665818062733
 20
13268.98643699998
 30
0.0
 11
13368.766581806271
 21
13268.986437
 31
0.0
  0
LINE
  5
AF69
  8
0-1
  6
CONTINUOUS
 62
     3
 10
7479.7665818062733
 20
13300.986344000001
 30
0.0
 11
13368.766581806271
 21
13300.986344000001
 31
0.0
  0
LINE
  5
AF6A
  8
0-1
  6
CONTINUOUS
 62
     3
 10
10483.266581806271
 20
13424.98635799998
 30
0.0
 11
10483.266581806271
 21
17746.365060417251
 31
0.0
  0
LINE
  5
AF6B
  8
0-1
  6
CONTINUOUS
 62
     3
 10
10525.767835806269
 20
13424.98635799998
 30
0.0
 11
10525.767835806269
 21
17728.828720315101
 31
0.0
  0
LINE
  5
AF6C
  8
0-1
  6
CONTINUOUS
 62
     3
 10
7565.2665818062742
 20
13424.98635799998
 30
0.0
 11
7565.2665818062742
 21
18955.067610197751
 31
0.0
  0
LINE
  5
AF6D
  8
0-1
  6
CONTINUOUS
 62
     3
 10
7522.7673078062817
 20
13424.98635799998
 30
0.0
 11
7522.7673078062817
 21
18972.603133336848
 31
0.0
  0
LINE
  5
AF6E
  8
0-1
  6
CONTINUOUS
 62
     3
 10
8935.7680328062852
 20
18394.87481651704
 30
0.0
 11
8935.7680328062852
 21
19812.485685
 31
0.0
  0
LINE
  5
AF6F
  8
0-1
  6
CONTINUOUS
 62
     3
 10
8972.7682048062852
 20
18379.60826461648
 30
0.0
 11
8972.7682048062852
 21
19812.485685
 31
0.0
  0
LINE
  5
AF70
  8
0-1
  6
CONTINUOUS
 62
     3
 10
9135.7677038062848
 20
18312.353433713281
 30
0.0
 11
9135.7677038062848
 21
19812.485685
 31
0.0
  0
LINE
  5
AF71
  8
0-1
  6
CONTINUOUS
 62
     3
 10
9172.7688648062776
 20
18297.08647374381
 30
0.0
 11
9172.7688648062776
 21
19812.485685
 31
0.0
  0
LINE
  5
AF72
  8
0-1
  6
CONTINUOUS
 62
     3
 10
9335.7673738062786
 20
18219.831946322141
 30
0.0
 11
9335.7673738062786
 21
19812.485685
 31
0.0
  0
LINE
  5
AF73
  8
0-1
  6
CONTINUOUS
 62
     3
 10
9372.7665548062887
 20
18204.565803315701
 30
0.0
 11
9372.7665548062887
 21
19812.485685
 31
0.0
  0
LINE
  5
AF74
  8
0-1
  6
CONTINUOUS
 62
     3
 10
9535.7680328062834
 20
18137.31015586208
 30
0.0
 11
9535.7680328062834
 21
19812.485685
 31
0.0
  0
LINE
  5
AF75
  8
0-1
  6
CONTINUOUS
 62
     3
 10
9572.7682048062834
 20
18122.043603961509
 30
0.0
 11
9572.7682048062834
 21
19812.485685
 31
0.0
  0
LINE
  5
AF76
  8
0-1
  6
CONTINUOUS
 62
     3
 10
9735.7677038062884
 20
18054.788773058321
 30
0.0
 11
9735.7677038062884
 21
19812.485685
 31
0.0
  0
LINE
  5
AF77
  8
0-1
  6
CONTINUOUS
 62
     3
 10
9772.7688648062776
 20
18039.521813088861
 30
0.0
 11
9772.7688648062776
 21
19812.485685
 31
0.0
  0
LINE
  5
AF78
  8
0-1
  6
CONTINUOUS
 62
     3
 10
9935.7673738062858
 20
17972.267390667181
 30
0.0
 11
9935.7673738062895
 21
19812.485685
 31
0.0
  0
LINE
  5
AF79
  8
0-1
  6
CONTINUOUS
 62
     3
 10
9972.7675448062764
 20
17957.000839179222
 30
0.0
 11
9972.7675448062764
 21
19812.485685
 31
0.0
  0
LINE
  5
AF7A
  8
0-1
  6
CONTINUOUS
 62
     3
 10
10135.76803280628
 20
17889.745600207119
 30
0.0
 11
10135.76803280628
 21
19812.485685
 31
0.0
  0
LINE
  5
AF7B
  8
0-1
  6
CONTINUOUS
 62
     3
 10
10172.768204806271
 20
17874.479048306552
 30
0.0
 11
10172.768204806271
 21
19812.485685
 31
0.0
  0
LINE
  5
AF7C
  8
0-1
  6
CONTINUOUS
 62
     3
 10
8735.7673738062858
 20
18477.396606977101
 30
0.0
 11
8735.7673738062858
 21
19812.485685
 31
0.0
  0
LINE
  5
AF7D
  8
0-1
  6
CONTINUOUS
 62
     3
 10
8772.7665548062887
 20
18462.13046397065
 30
0.0
 11
8772.7665548062887
 21
19812.485685
 31
0.0
  0
LINE
  5
AF82
  8
0-1
  6
CONTINUOUS
 62
     3
 10
22950.193219456221
 20
6241.1883740000021
 30
0.0
 11
22850.193878456201
 21
6241.1883740000021
 31
0.0
  0
LINE
  5
AF83
  8
0-1
  6
CONTINUOUS
 62
     3
 10
22850.193878456201
 20
6241.1883740000021
 30
0.0
 11
22850.193878456201
 21
6141.1885390000007
 31
0.0
  0
LINE
  5
AF84
  8
0-1
  6
CONTINUOUS
 62
     3
 10
22950.193219456221
 20
6141.1885390000007
 30
0.0
 11
22950.193219456221
 21
6241.1883740000021
 31
0.0
  0
LINE
  5
AF85
  8
0-1
  6
CONTINUOUS
 62
     3
 10
22857.694274456211
 20
8459.1884659999978
 30
0.0
 11
22857.694274456211
 21
6241.1883740000021
 31
0.0
  0
LINE
  5
AF86
  8
0-1
  6
CONTINUOUS
 62
     3
 10
22806.19453845622
 20
8132.6883740000021
 30
0.0
 11
22806.19453845622
 21
6141.1885390000007
 31
0.0
  0
LINE
  5
AF87
  8
0-1
  6
CONTINUOUS
 62
     3
 10
22922.695726456212
 20
8589.1883999999973
 30
0.0
 11
22922.695726456212
 21
6241.1883740000021
 31
0.0
  0
LINE
  5
AF88
  8
0-1
  6
CONTINUOUS
 62
     3
 10
22942.694538456231
 20
8459.1884659999978
 30
0.0
 11
22942.694538456231
 21
6241.1883740000021
 31
0.0
  0
LINE
  5
AF89
  8
0-1
  6
CONTINUOUS
 62
     3
 10
19896.69453845621
 20
8263.5026620000008
 30
0.0
 11
19939.69453845621
 21
8263.5026620000008
 31
0.0
  0
LINE
  5
AF8A
  8
0-1
  6
CONTINUOUS
 62
     3
 10
19932.191899456229
 20
6241.1883740000021
 30
0.0
 11
20032.191239456231
 21
6241.1883740000021
 31
0.0
  0
LINE
  5
AF8B
  8
0-1
  6
CONTINUOUS
 62
     3
 10
20032.191239456231
 20
6241.1883740000021
 30
0.0
 11
20032.191239456231
 21
6141.1885390000007
 31
0.0
  0
LINE
  5
AF8C
  8
0-1
  6
CONTINUOUS
 62
     3
 10
19932.191899456229
 20
6141.1885390000007
 30
0.0
 11
19932.191899456229
 21
6241.1883740000021
 31
0.0
  0
LINE
  5
AF8D
  8
0-1
  6
CONTINUOUS
 62
     3
 10
20076.19453845621
 20
8132.6883740000021
 30
0.0
 11
20076.19453845621
 21
6141.1885390000007
 31
0.0
  0
LINE
  5
AF8E
  8
0-1
  6
CONTINUOUS
 62
     3
 10
20024.690843456221
 20
8459.1884659999978
 30
0.0
 11
20024.690843456221
 21
6241.1883740000021
 31
0.0
  0
LINE
  5
AF8F
  8
0-1
  6
CONTINUOUS
 62
     3
 10
19959.691371456229
 20
8589.1883999999973
 30
0.0
 11
19959.691371456229
 21
6241.1883740000021
 31
0.0
  0
LINE
  5
AF90
  8
0-1
  6
CONTINUOUS
 62
     3
 10
19939.69453845621
 20
8459.1884659999978
 30
0.0
 11
19939.69453845621
 21
6241.1883740000021
 31
0.0
  0
LINE
  5
AF91
  8
0-1
  6
CONTINUOUS
 62
     3
 10
13349.41801634199
 20
6241.1883740000021
 30
0.0
 11
13349.41801634199
 21
6141.1885390000007
 31
0.0
  0
LINE
  5
AF92
  8
0-1
  6
CONTINUOUS
 62
     3
 10
13316.917225341989
 20
8455.5174490000027
 30
0.0
 11
13316.917225341989
 21
6241.1883740000021
 31
0.0
  0
LINE
  5
AF93
  8
0-1
  6
CONTINUOUS
 62
     3
 10
13336.91801634199
 20
8456.0984380000027
 30
0.0
 11
13336.91801634199
 21
6241.1883740000021
 31
0.0
  0
LINE
  5
AF94
  8
0-1
  6
CONTINUOUS
 62
     3
 10
13221.918148341991
 20
8152.2344180000036
 30
0.0
 11
13221.918148341991
 21
6241.1883740000021
 31
0.0
  0
LINE
  5
AF95
  8
0-1
  6
CONTINUOUS
 62
     3
 10
10025.91801634199
 20
8356.9898809999977
 30
0.0
 11
10025.91801634199
 21
8152.2344180000036
 31
0.0
  0
LINE
  5
AF96
  8
0-1
  6
CONTINUOUS
 62
     3
 10
9953.4181483420125
 20
8152.2344180000036
 30
0.0
 11
9953.4181483420125
 21
6241.1883740000021
 31
0.0
  0
LINE
  5
AF97
  8
0-1
  6
CONTINUOUS
 62
     3
 10
10098.41689434199
 20
8152.2344180000036
 30
0.0
 11
10098.41689434199
 21
6241.1883740000021
 31
0.0
  0
LINE
  5
AF98
  8
0-1
  6
CONTINUOUS
 62
     3
 10
10098.41689434199
 20
6291.1885390000007
 30
0.0
 11
13221.918148341991
 21
6291.1885390000007
 31
0.0
  0
LINE
  5
AF99
  8
0-1
  6
CONTINUOUS
 62
     3
 10
20076.19453845621
 20
6661.1892649999991
 30
0.0
 11
22806.19453845622
 21
6661.1892649999991
 31
0.0
  0
LINE
  5
AF9A
  8
0-1
  6
CONTINUOUS
 62
     3
 10
20076.19453845621
 20
6596.1888030000027
 30
0.0
 11
22806.19453845622
 21
6596.1888030000027
 31
0.0
  0
LINE
  5
AF9B
  8
0-1
  6
CONTINUOUS
 62
     3
 10
20076.19453845621
 20
6531.1888360000003
 30
0.0
 11
22806.19453845622
 21
6531.1888360000003
 31
0.0
  0
LINE
  5
AF9C
  8
0-1
  6
CONTINUOUS
 62
     3
 10
20076.19453845621
 20
6466.1883740000039
 30
0.0
 11
22806.19453845622
 21
6466.1883740000039
 31
0.0
  0
LINE
  5
AF9D
  8
0-1
  6
CONTINUOUS
 62
     3
 10
20076.19453845621
 20
6401.1889020000053
 30
0.0
 11
22806.19453845622
 21
6401.1889020000053
 31
0.0
  0
LINE
  5
AF9E
  8
0-1
  6
CONTINUOUS
 62
     3
 10
20076.19453845621
 20
6336.1889350000001
 30
0.0
 11
22806.19453845622
 21
6336.1889350000001
 31
0.0
  0
LINE
  5
AF9F
  8
0-1
  6
CONTINUOUS
 62
     3
 10
20076.19453845621
 20
6271.1889680000004
 30
0.0
 11
22806.19453845622
 21
6271.1889680000004
 31
0.0
  0
LINE
  5
AFA0
  8
0-1
  6
CONTINUOUS
 62
     3
 10
20076.19453845621
 20
6206.1885060000013
 30
0.0
 11
22806.19453845622
 21
6206.1885060000013
 31
0.0
  0
LINE
  5
AFA1
  8
0-1
  6
CONTINUOUS
 62
     3
 10
20076.19453845621
 20
8026.188572
 30
0.0
 11
22806.19453845622
 21
8026.188572
 31
0.0
  0
LINE
  5
AFA2
  8
0-1
  6
CONTINUOUS
 62
     3
 10
20076.19453845621
 20
7961.1886050000021
 30
0.0
 11
22806.19453845622
 21
7961.1886050000021
 31
0.0
  0
LINE
  5
AFA3
  8
0-1
  6
CONTINUOUS
 62
     3
 10
20076.19453845621
 20
7896.1891330000026
 30
0.0
 11
22806.19453845622
 21
7896.1891330000026
 31
0.0
  0
LINE
  5
AFA4
  8
0-1
  6
CONTINUOUS
 62
     3
 10
20076.19453845621
 20
7831.1891659999974
 30
0.0
 11
22806.19453845622
 21
7831.1891659999974
 31
0.0
  0
LINE
  5
AFA5
  8
0-1
  6
CONTINUOUS
 62
     3
 10
20076.19453845621
 20
7766.1891990000022
 30
0.0
 11
22806.19453845622
 21
7766.1891990000022
 31
0.0
  0
LINE
  5
AFA6
  8
0-1
  6
CONTINUOUS
 62
     3
 10
20076.19453845621
 20
7701.1887369999977
 30
0.0
 11
22806.19453845622
 21
7701.1887369999977
 31
0.0
  0
LINE
  5
AFA7
  8
0-1
  6
CONTINUOUS
 62
     3
 10
20076.19453845621
 20
7636.1887699999979
 30
0.0
 11
22806.19453845622
 21
7636.1887699999979
 31
0.0
  0
LINE
  5
AFA8
  8
0-1
  6
CONTINUOUS
 62
     3
 10
20076.19453845621
 20
7571.1892980000011
 30
0.0
 11
22806.19453845622
 21
7571.1892980000011
 31
0.0
  0
LINE
  5
AFA9
  8
0-1
  6
CONTINUOUS
 62
     3
 10
20076.19453845621
 20
7506.1893309999978
 30
0.0
 11
22806.19453845622
 21
7506.1893309999978
 31
0.0
  0
LINE
  5
AFAA
  8
0-1
  6
CONTINUOUS
 62
     3
 10
20076.19453845621
 20
7441.1888690000023
 30
0.0
 11
22806.19453845622
 21
7441.1888690000023
 31
0.0
  0
LINE
  5
AFAB
  8
0-1
  6
CONTINUOUS
 62
     3
 10
20076.19453845621
 20
7376.188901999999
 30
0.0
 11
22806.19453845622
 21
7376.188901999999
 31
0.0
  0
LINE
  5
AFAC
  8
0-1
  6
CONTINUOUS
 62
     3
 10
20076.19453845621
 20
7311.1889350000029
 30
0.0
 11
22806.19453845622
 21
7311.1889350000029
 31
0.0
  0
LINE
  5
AFAD
  8
0-1
  6
CONTINUOUS
 62
     3
 10
20076.19453845621
 20
7246.1884730000029
 30
0.0
 11
22806.19453845622
 21
7246.1884730000029
 31
0.0
  0
LINE
  5
AFAE
  8
0-1
  6
CONTINUOUS
 62
     3
 10
20076.19453845621
 20
7181.1885060000013
 30
0.0
 11
22806.19453845622
 21
7181.1885060000013
 31
0.0
  0
LINE
  5
AFAF
  8
0-1
  6
CONTINUOUS
 62
     3
 10
20076.19453845621
 20
7116.1890340000009
 30
0.0
 11
22806.19453845622
 21
7116.1890340000009
 31
0.0
  0
LINE
  5
AFB0
  8
0-1
  6
CONTINUOUS
 62
     3
 10
20076.19453845621
 20
7051.1890670000012
 30
0.0
 11
22806.19453845622
 21
7051.1890670000012
 31
0.0
  0
LINE
  5
AFB1
  8
0-1
  6
CONTINUOUS
 62
     3
 10
20076.19453845621
 20
6986.1890999999978
 30
0.0
 11
22806.19453845622
 21
6986.1890999999978
 31
0.0
  0
LINE
  5
AFB2
  8
0-1
  6
CONTINUOUS
 62
     3
 10
20076.19453845621
 20
6921.1886380000051
 30
0.0
 11
22806.19453845622
 21
6921.1886380000051
 31
0.0
  0
LINE
  5
AFB3
  8
0-1
  6
CONTINUOUS
 62
     3
 10
20076.19453845621
 20
6856.1886710000017
 30
0.0
 11
22806.19453845622
 21
6856.1886710000017
 31
0.0
  0
LINE
  5
AFB4
  8
0-1
  6
CONTINUOUS
 62
     3
 10
20076.19453845621
 20
6791.1891990000031
 30
0.0
 11
22806.19453845622
 21
6791.1891990000031
 31
0.0
  0
LINE
  5
AFB5
  8
0-1
  6
CONTINUOUS
 62
     3
 10
20076.19453845621
 20
6726.1892320000024
 30
0.0
 11
22806.19453845622
 21
6726.1892320000024
 31
0.0
  0
LINE
  5
AFB6
  8
0-1
  6
CONTINUOUS
 62
     3
 10
20076.19453845621
 20
8080.6485920000023
 30
0.0
 11
22806.19453845622
 21
8080.6485920000023
 31
0.0
  0
LINE
  5
AFB7
  8
0-1
  6
CONTINUOUS
 62
     3
 10
19932.191899456229
 20
6141.1885390000007
 30
0.0
 11
26311.672914581421
 21
6141.1885390000007
 31
0.0
  0
LINE
  5
AFB8
  8
0-1
  6
CONTINUOUS
 62
     3
 10
7057.9180163420024
 20
6141.1885390000007
 30
0.0
 11
7057.9180163420024
 21
6241.1883740000021
 31
0.0
  0
LINE
  5
AFB9
  8
0-1
  6
CONTINUOUS
 62
     3
 10
7085.4178183420054
 20
8268.990877000002
 30
0.0
 11
7085.4178183420054
 21
6241.1883740000021
 31
0.0
  0
LINE
  5
AFBA
  8
0-1
  6
CONTINUOUS
 62
     3
 10
7065.4180163420024
 20
8268.3741496838084
 30
0.0
 11
7065.4180163420024
 21
6241.1883740000021
 31
0.0
  0
LINE
  5
AFBB
  8
0-1
  6
CONTINUOUS
 62
     3
 10
7180.4168953420103
 20
8152.2344180000036
 30
0.0
 11
7180.4168953420103
 21
6241.1883740000021
 31
0.0
  0
LINE
  5
AFBC
  8
0-1
  6
CONTINUOUS
 62
     3
 10
7057.9180163420024
 20
6241.1883740000021
 30
0.0
 11
13349.41801634199
 21
6241.1883740000021
 31
0.0
  0
LINE
  5
AFBD
  8
0-1
  6
CONTINUOUS
 62
     3
 10
7180.4168953420103
 20
6291.1885390000007
 30
0.0
 11
9953.4181483420125
 21
6291.1885390000007
 31
0.0
  0
LINE
  5
AFBE
  8
0-1
  6
CONTINUOUS
 62
     3
 10
6375.4169613420008
 20
6141.1885390000007
 30
0.0
 11
13349.41801634199
 21
6141.1885390000007
 31
0.0
  0
LINE
  5
AFBF
  8
0-1
  6
CONTINUOUS
 62
     3
 10
7085.4178183420054
 20
8152.2344180000036
 30
0.0
 11
13316.917225341989
 21
8152.2344180000036
 31
0.0
  0
LINE
  5
AFC0
  8
0-1
  6
CONTINUOUS
 62
     3
 10
20050.693799456229
 20
8334.6891200000027
 30
0.0
 11
20328.123329456219
 21
8334.6891200000027
 31
0.0
  0
LINE
  5
AFC1
  8
0-1
  6
CONTINUOUS
 62
     3
 10
20050.693799456229
 20
8376.6885650000022
 30
0.0
 11
20360.120267456219
 21
8376.6885650000022
 31
0.0
  0
LINE
  5
AFC2
  8
0-1
  6
CONTINUOUS
 62
     3
 10
20045.693536456231
 20
8339.6888889999973
 30
0.0
 11
20045.693536456231
 21
8371.6892909999988
 31
0.0
  0
LINE
  5
AFC3
  8
0-1
  6
CONTINUOUS
 62
     3
 10
20024.690843456221
 20
8385.6884470000023
 30
0.0
 11
22857.694274456211
 21
8385.6884470000023
 31
0.0
  0
LINE
  5
AFC4
  8
0-1
  6
CONTINUOUS
 62
     3
 10
20331.656769456229
 20
8336.1529740000024
 30
0.0
 11
20363.657667456209
 21
8368.1533760000002
 31
0.0
  0
LINE
  5
AFC5
  8
0-1
  6
CONTINUOUS
 62
     3
 10
20045.693536456231
 20
8368.2889730000024
 30
0.0
 11
20363.786335456221
 21
8368.2889730000024
 31
0.0
  0
LINE
  5
AFC6
  8
0-1
  6
CONTINUOUS
 62
     3
 10
20045.693536456231
 20
8359.8888860000025
 30
0.0
 11
20355.393177456241
 21
8359.8888860000025
 31
0.0
  0
LINE
  5
AFC7
  8
0-1
  6
CONTINUOUS
 62
     3
 10
20045.693536456231
 20
8351.4892940000027
 30
0.0
 11
20346.994079456232
 21
8351.4892940000027
 31
0.0
  0
LINE
  5
AFC8
  8
0-1
  6
CONTINUOUS
 62
     3
 10
20045.693536456231
 20
8343.0892070000027
 30
0.0
 11
20338.591023456229
 21
8343.0892070000027
 31
0.0
  0
LINE
  5
AFC9
  8
0-1
  6
CONTINUOUS
 62
     3
 10
22836.693562456221
 20
8368.2889730000024
 30
0.0
 11
22518.600762456212
 21
8368.2889730000024
 31
0.0
  0
LINE
  5
AFCA
  8
0-1
  6
CONTINUOUS
 62
     3
 10
22836.693562456221
 20
8359.8888860000025
 30
0.0
 11
22526.99590045623
 21
8359.8888860000025
 31
0.0
  0
LINE
  5
AFCB
  8
0-1
  6
CONTINUOUS
 62
     3
 10
22836.693562456221
 20
8351.4892940000027
 30
0.0
 11
22535.394997456198
 21
8351.4892940000027
 31
0.0
  0
LINE
  5
AFCC
  8
0-1
  6
CONTINUOUS
 62
     3
 10
22836.693562456221
 20
8343.0892070000027
 30
0.0
 11
22543.7940954562
 21
8343.0892070000027
 31
0.0
  0
LINE
  5
AFCD
  8
0-1
  6
CONTINUOUS
 62
     3
 10
22831.693298456201
 20
8376.6885650000022
 30
0.0
 11
22522.266830456221
 21
8376.6885650000022
 31
0.0
  0
LINE
  5
AFCE
  8
0-1
  6
CONTINUOUS
 62
     3
 10
22831.693298456201
 20
8334.6891200000027
 30
0.0
 11
22554.263769456222
 21
8334.6891200000027
 31
0.0
  0
LINE
  5
AFCF
  8
0-1
  6
CONTINUOUS
 62
     3
 10
22836.693562456221
 20
8339.6888889999973
 30
0.0
 11
22836.693562456221
 21
8371.6892909999988
 31
0.0
  0
LINE
  5
AFD0
  8
0-1
  6
CONTINUOUS
 62
     3
 10
22550.728348456221
 20
8336.1529740000024
 30
0.0
 11
22518.731410456221
 21
8368.1533760000002
 31
0.0
  0
LINE
  5
AFD1
  8
0-1
  6
CONTINUOUS
 62
     3
 10
7565.2665818062742
 20
16774.988087000002
 30
0.0
 11
10483.266581806271
 21
16774.988087000002
 31
0.0
  0
LINE
  5
AFD2
  8
0-1
  6
CONTINUOUS
 62
     3
 10
10413.26748145011
 20
16729.987612658861
 30
0.0
 11
7635.2673078062853
 21
13461.485710999999
 31
0.0
  0
LINE
  5
AFD3
  8
0-1
  6
CONTINUOUS
 62
     3
 10
7635.2673078062817
 20
16729.985711000001
 30
0.0
 11
10413.267835806269
 21
13461.485710999999
 31
0.0
  0
LINE
  5
AFD4
  8
0-1
  6
CONTINUOUS
 62
     3
 10
8769.6690551263418
 20
18456.415540184302
 30
0.0
 11
10413.26748145011
 21
16729.987612658861
 31
0.0
  0
LINE
  5
AFD5
  8
0-1
  6
CONTINUOUS
 62
     3
 10
9134.9050901620485
 20
18305.198892138069
 30
0.0
 11
7635.2673078062817
 21
16729.985711000001
 31
0.0
  0
LINE
  5
AFD6
  8
0-1
  6
CONTINUOUS
 62
     3
 10
6891.1161923420032
 20
8303.1736990000027
 30
0.0
 11
13422.607681342
 21
8498.6897600000029
 31
0.0
  0
LINE
  5
AFD7
  8
0-1
  6
CONTINUOUS
 62
     3
 10
13421.107206342
 20
8548.6686450000016
 30
0.0
 11
6889.6167073419992
 21
8353.1515949999975
 31
0.0
  0
LINE
  5
AFD8
  8
0-1
  6
CONTINUOUS
 62
     3
 10
6886.5266793420114
 20
8356.0604969999968
 30
0.0
 11
6885.5666123420024
 21
8388.0460530000018
 31
0.0
  0
LINE
  5
AFD9
  8
0-1
  6
CONTINUOUS
 62
     3
 10
6890.4154433420044
 20
8393.1932959999976
 30
0.0
 11
13440.876658342
 21
8589.2804479999977
 31
0.0
  0
LINE
  5
AFDA
  8
0-1
  6
CONTINUOUS
 62
     3
 10
13444.781258342
 20
8459.3389100000004
 30
0.0
 11
6894.3160843420046
 21
8263.2522529999969
 31
0.0
  0
LINE
  5
AFDB
  8
0-1
  6
CONTINUOUS
 62
     3
 10
6889.1683463420031
 20
8268.099599000001
 30
0.0
 11
6888.2092693420063
 21
8300.0856499999973
 31
0.0
  0
LINE
  5
AFDC
  8
0-1
  6
CONTINUOUS
 62
     3
 10
6887.8777003420037
 20
8311.0803909999977
 30
0.0
 11
6886.8572583420018
 21
8345.064766000005
 31
0.0
  0
LINE
  5
AFDD
  8
0-1
  6
CONTINUOUS
 62
     3
 10
6889.7661613420059
 20
8348.1538049999999
 30
0.0
 11
13421.25863934199
 21
8543.6713500000023
 31
0.0
  0
LINE
  5
AFDE
  8
0-1
  6
CONTINUOUS
 62
     3
 10
13422.458227342
 20
8503.6880440000004
 30
0.0
 11
6890.9677293420009
 21
8308.1719840000023
 31
0.0
  0
LINE
  5
AFDF
  8
0-1
  6
CONTINUOUS
 62
     3
 10
10025.91801634199
 20
8356.9898809999977
 30
0.0
 11
10022.015395341999
 21
8486.9314190000023
 31
0.0
  0
LINE
  5
AFE0
  8
0-1
  6
CONTINUOUS
 62
     3
 10
13411.814356342
 20
8458.3481610000017
 30
0.0
 11
13407.91272534199
 21
8588.2896990000045
 31
0.0
  0
LINE
  5
AFE1
  8
0-1
  6
CONTINUOUS
 62
     3
 10
6902.9081853420048
 20
8393.5684149999979
 30
0.0
 11
6906.8108063420041
 21
8263.6273720000008
 31
0.0
  0
LINE
  5
AFE2
  8
0-1
  6
CONTINUOUS
 62
     3
 10
7497.765354806259
 20
18981.68106111126
 30
0.0
 11
7497.7653548062626
 21
19852.98663499999
 31
0.0
  0
LINE
  5
AFE3
  8
0-1
  6
CONTINUOUS
 62
     3
 10
7553.2661068062725
 20
19835.487690000002
 30
0.0
 11
7553.2661068062725
 21
19865.487293999991
 31
0.0
  0
LINE
  5
AFE4
  8
0-1
  6
CONTINUOUS
 62
     3
 10
7479.7665818062733
 20
19865.487293999991
 30
0.0
 11
7479.7665818062733
 21
19830.485446999981
 31
0.0
  0
LINE
  5
AFE5
  8
0-1
  6
CONTINUOUS
 62
     3
 10
7548.2658428062623
 20
19870.485579
 30
0.0
 11
7484.7658558062722
 21
19870.485579
 31
0.0
  0
LINE
  5
AFE6
  8
0-1
  6
CONTINUOUS
 62
     3
 10
7497.7653548062626
 20
19852.98663499999
 30
0.0
 11
7479.7665818062733
 21
19852.98663499999
 31
0.0
  0
LINE
  5
AFE7
  8
0-1
  6
CONTINUOUS
 62
     3
 10
7497.7653548062626
 20
19830.485446999981
 30
0.0
 11
7548.2658428062623
 21
19830.485446999981
 31
0.0
  0
LINE
  5
AFE8
  8
0-2
  6
CONTINUOUS
 62
     4
 10
21804.88455845623
 20
6888.4152330000024
 30
0.0
 11
21704.885218456209
 21
6888.4152330000024
 31
0.0
  0
LINE
  5
AFE9
  8
0-2
  6
CONTINUOUS
 62
     4
 10
21077.50055845621
 20
6888.4152330000024
 30
0.0
 11
21177.499898456212
 21
6888.4152330000024
 31
0.0
  0
LINE
  5
AFEA
  8
0-5
  6
CONTINUOUS
 62
     4
 10
22900.19453845621
 20
4461.1889350000001
 30
0.0
 11
22900.19453845621
 21
4301.1893970000001
 31
0.0
  0
LINE
  5
AFEB
  8
0-5
  6
CONTINUOUS
 62
     4
 10
17760.321518456229
 20
6349.0350210000024
 30
0.0
 11
17880.31993445622
 21
6141.1885390000007
 31
0.0
  0
LINE
  5
AFEC
  8
0-5
  6
CONTINUOUS
 62
     4
 10
15054.50300434199
 20
6241.1883740000021
 30
0.0
 11
15174.50340034199
 21
6449.0353509999986
 31
0.0
  0
LINE
  5
AFED
  8
0-5
  6
CONTINUOUS
 62
     4
 10
14934.504587342
 20
6449.0353509999986
 30
0.0
 11
15054.50300434199
 21
6241.1883740000021
 31
0.0
  0
LINE
  5
AFEE
  8
0-5
  6
CONTINUOUS
 62
     4
 10
15174.50340034199
 20
6449.0353509999986
 30
0.0
 11
14934.504587342
 21
6449.0353509999986
 31
0.0
  0
LINE
  5
AFEF
  8
0-5
  6
CONTINUOUS
 62
     4
 10
13429.415311342
 20
6241.1883740000021
 30
0.0
 11
15146.881197342
 21
6241.1883740000021
 31
0.0
  0
LINE
  5
AFF0
  8
0-5
  6
CONTINUOUS
 62
     4
 10
13429.415311342
 20
6141.1885390000007
 30
0.0
 11
19852.19361545621
 21
6141.1885390000007
 31
0.0
  0
LINE
  5
AFF1
  8
0-5
  6
CONTINUOUS
 62
     4
 10
17880.31993445622
 20
6141.1885390000007
 30
0.0
 11
18000.320330456219
 21
6349.0350210000024
 31
0.0
  0
LINE
  5
AFF2
  8
0-5
  6
CONTINUOUS
 62
     4
 10
18000.320330456219
 20
6349.0350210000024
 30
0.0
 11
17760.321518456229
 21
6349.0350210000024
 31
0.0
  0
LINE
  5
AFF3
  8
0-5
  6
CONTINUOUS
 62
     4
 10
19982.19453845621
 20
4461.1889350000001
 30
0.0
 11
19982.19453845621
 21
4301.1893970000001
 31
0.0
  0
LINE
  5
AFF4
  8
0-5
  6
CONTINUOUS
 62
     4
 10
13294.418016342001
 20
4461.1889350000001
 30
0.0
 11
13294.418016342001
 21
4301.1893970000001
 31
0.0
  0
LINE
  5
AFF5
  8
0-5
  6
CONTINUOUS
 62
     4
 10
10025.91801634199
 20
4461.1889350000001
 30
0.0
 11
10025.91801634199
 21
4301.1893970000001
 31
0.0
  0
LINE
  5
AFF6
  8
0-5
  6
CONTINUOUS
 62
     4
 10
7107.9180163420024
 20
4461.1889350000001
 30
0.0
 11
7107.9180163420024
 21
4301.1893970000001
 31
0.0
  0
LINE
  5
B005
  8
0-6
  6
CONTINUOUS
 62
     6
 10
20203.261314456198
 20
13312.404854
 30
0.0
 11
20671.195752456231
 21
12841.98711
 31
0.0
  0
LINE
  5
B006
  8
0-6
  6
CONTINUOUS
 62
     6
 10
20671.195752456231
 20
12841.98711
 30
0.0
 11
21671.195093456201
 21
12841.98711
 31
0.0
  0
LINE
  5
B015
  8
0-6
  6
CONTINUOUS
 62
     6
 10
9390.6211046306162
 20
19588.21018799999
 30
0.0
 11
9534.5222076306054
 21
20100.485842999991
 31
0.0
  0
LINE
  5
B016
  8
0-6
  6
CONTINUOUS
 62
     6
 10
8870.7797296306107
 20
19816.163629999999
 30
0.0
 11
8977.4747916306169
 21
19693.987743000002
 31
0.0
  0
LINE
  5
B017
  8
0-6
  6
CONTINUOUS
 62
     6
 10
8977.4747916306169
 20
19693.987743000002
 30
0.0
 11
8916.1691016306067
 21
19844.163919999992
 31
0.0
  0
LINE
  5
B018
  8
0-6
  6
CONTINUOUS
 62
     6
 10
8977.4747916306169
 20
19693.987743000002
 30
0.0
 11
8870.7797296306107
 21
19816.163629999999
 31
0.0
  0
LINE
  5
B019
  8
0-6
  6
CONTINUOUS
 62
     6
 10
8870.7797296306107
 20
19816.163629999999
 30
0.0
 11
8916.1691016306067
 21
19844.163919999992
 31
0.0
  0
LINE
  5
B01A
  8
0-6
  6
CONTINUOUS
 62
     6
 10
8916.1691016306067
 20
19844.163919999992
 30
0.0
 11
8977.4747916306169
 21
19693.987743000002
 31
0.0
  0
LINE
  5
B01B
  8
0-6
  6
CONTINUOUS
 62
     6
 10
8916.1691016306067
 20
19844.163919999992
 30
0.0
 11
8870.7797296306107
 21
19816.163629999999
 31
0.0
  0
LINE
  5
B01C
  8
0-6
  6
CONTINUOUS
 62
     6
 10
8977.4747916306169
 20
19693.987743000002
 30
0.0
 11
8683.5469646306083
 21
20100.485842999991
 31
0.0
  0
LINE
  5
B01D
  8
0-6
  6
CONTINUOUS
 62
     6
 10
9364.7329606306157
 20
19594.609971999991
 30
0.0
 11
9352.2313106306156
 21
19432.885282999989
 31
0.0
  0
LINE
  5
B01E
  8
0-6
  6
CONTINUOUS
 62
     6
 10
9352.2313106306156
 20
19432.885282999989
 30
0.0
 11
9416.5062796306156
 21
19581.814364000002
 31
0.0
  0
LINE
  5
B01F
  8
0-6
  6
CONTINUOUS
 62
     6
 10
9352.2313106306156
 20
19432.885282999989
 30
0.0
 11
9364.7329606306157
 21
19594.609971999991
 31
0.0
  0
LINE
  5
B020
  8
0-6
  6
CONTINUOUS
 62
     6
 10
9364.7329606306157
 20
19594.609971999991
 30
0.0
 11
9416.5062796306156
 21
19581.814364000002
 31
0.0
  0
LINE
  5
B021
  8
0-6
  6
CONTINUOUS
 62
     6
 10
9416.5062796306156
 20
19581.814364000002
 30
0.0
 11
9352.2313106306156
 21
19432.885282999989
 31
0.0
  0
LINE
  5
B022
  8
0-6
  6
CONTINUOUS
 62
     6
 10
9416.5062796306156
 20
19581.814364000002
 30
0.0
 11
9364.7329606306157
 21
19594.609971999991
 31
0.0
  0
LINE
  5
B023
  8
0-6
  6
CONTINUOUS
 62
     6
 10
9534.5222076306054
 20
20100.485842999991
 30
0.0
 11
10052.21085563061
 21
20100.485842999991
 31
0.0
  0
LINE
  5
B024
  8
0-6
  6
CONTINUOUS
 62
     6
 10
7665.5837138062852
 20
18111.414133085222
 30
0.0
 11
7575.7680068062773
 21
18246.486584085222
 31
0.0
  0
LINE
  5
B025
  8
0-6
  6
CONTINUOUS
 62
     6
 10
7575.7680068062773
 20
18246.486584085222
 30
0.0
 11
7616.9221978062851
 21
18089.58598208522
 31
0.0
  0
LINE
  5
B026
  8
0-6
  6
CONTINUOUS
 62
     6
 10
7575.7680068062773
 20
18246.486584085222
 30
0.0
 11
7665.5837138062852
 21
18111.414133085222
 31
0.0
  0
LINE
  5
B027
  8
0-6
  6
CONTINUOUS
 62
     6
 10
7665.5837138062852
 20
18111.414133085222
 30
0.0
 11
7616.9221978062851
 21
18089.58598208522
 31
0.0
  0
LINE
  5
B028
  8
0-6
  6
CONTINUOUS
 62
     6
 10
7616.9221978062851
 20
18089.58598208522
 30
0.0
 11
7575.7680068062773
 21
18246.486584085222
 31
0.0
  0
LINE
  5
B029
  8
0-6
  6
CONTINUOUS
 62
     6
 10
7616.9221978062851
 20
18089.58598208522
 30
0.0
 11
7665.5837138062852
 21
18111.414133085222
 31
0.0
  0
LINE
  5
B02A
  8
0-6
  6
CONTINUOUS
 62
     6
 10
7883.5453156306048
 20
20100.485842999991
 30
0.0
 11
8683.5469646306083
 21
20100.485842999991
 31
0.0
  0
LINE
  5
B031
  8
0-6
  6
CONTINUOUS
 62
     6
 10
7740.2937138062734
 20
17879.707524085221
 30
0.0
 11
8260.2944398062846
 21
17879.707524085221
 31
0.0
  0
LINE
  5
B032
  8
0-6
  6
CONTINUOUS
 62
     6
 10
8375.6493938062813
 20
13676.376956
 30
0.0
 11
8458.5367858062855
 21
13853.31523499998
 31
0.0
  0
LINE
  5
B033
  8
0-6
  6
CONTINUOUS
 62
     6
 10
8458.5367858062855
 20
13853.31523499998
 30
0.0
 11
9258.5374458062743
 21
13853.31523499998
 31
0.0
  0
LINE
  5
B034
  8
0-6
  6
CONTINUOUS
 62
     6
 10
8982.6925208062876
 20
13166.93993099999
 30
0.0
 11
8876.4220658062859
 21
13289.48697799999
 31
0.0
  0
LINE
  5
B035
  8
0-6
  6
CONTINUOUS
 62
     6
 10
8876.4220658062859
 20
13289.48697799999
 30
0.0
 11
8937.2041738062835
 21
13139.098002000001
 31
0.0
  0
LINE
  5
B036
  8
0-6
  6
CONTINUOUS
 62
     6
 10
8876.4220658062859
 20
13289.48697799999
 30
0.0
 11
8982.6925208062876
 21
13166.93993099999
 31
0.0
  0
LINE
  5
B037
  8
0-6
  6
CONTINUOUS
 62
     6
 10
8982.6925208062876
 20
13166.93993099999
 30
0.0
 11
8937.2041738062835
 21
13139.098002000001
 31
0.0
  0
LINE
  5
B038
  8
0-6
  6
CONTINUOUS
 62
     6
 10
8937.2041738062835
 20
13139.098002000001
 30
0.0
 11
8876.4220658062859
 21
13289.48697799999
 31
0.0
  0
LINE
  5
B039
  8
0-6
  6
CONTINUOUS
 62
     6
 10
8937.2041738062835
 20
13139.098002000001
 30
0.0
 11
8982.6925208062876
 21
13166.93993099999
 31
0.0
  0
LINE
  5
B03A
  8
0-6
  6
CONTINUOUS
 62
     6
 10
8351.5022368062819
 20
13687.688915000001
 30
0.0
 11
8307.7766508062778
 21
13531.486094
 31
0.0
  0
LINE
  5
B03B
  8
0-6
  6
CONTINUOUS
 62
     6
 10
8307.7766508062778
 20
13531.486094
 30
0.0
 11
8399.7975418062833
 21
13665.064006999981
 31
0.0
  0
LINE
  5
B03C
  8
0-6
  6
CONTINUOUS
 62
     6
 10
8307.7766508062778
 20
13531.486094
 30
0.0
 11
8351.5022368062819
 21
13687.688915000001
 31
0.0
  0
LINE
  5
B03D
  8
0-6
  6
CONTINUOUS
 62
     6
 10
8351.5022368062819
 20
13687.688915000001
 30
0.0
 11
8399.7975418062833
 21
13665.064006999981
 31
0.0
  0
LINE
  5
B03E
  8
0-6
  6
CONTINUOUS
 62
     6
 10
8399.7975418062833
 20
13665.064006999981
 30
0.0
 11
8307.7766508062778
 21
13531.486094
 31
0.0
  0
LINE
  5
B03F
  8
0-6
  6
CONTINUOUS
 62
     6
 10
8399.7975418062833
 20
13665.064006999981
 30
0.0
 11
8351.5022368062819
 21
13687.688915000001
 31
0.0
  0
LINE
  5
B040
  8
0-6
  6
CONTINUOUS
 62
     6
 10
9366.0609358062848
 20
12489.487308
 30
0.0
 11
10228.64110680629
 21
12489.487308
 31
0.0
  0
LINE
  5
B041
  8
0-6
  6
CONTINUOUS
 62
     6
 10
8959.9488428062741
 20
13153.018967
 30
0.0
 11
9366.0609358062848
 21
12489.487308
 31
0.0
  0
LINE
  5
B042
  8
0-6
  6
CONTINUOUS
 62
     6
 10
7423.8181808062864
 20
13861.776687
 30
0.0
 11
7446.2688908062792
 21
14022.42253799999
 31
0.0
  0
LINE
  5
B043
  8
0-6
  6
CONTINUOUS
 62
     6
 10
7446.2688908062792
 20
14022.42253799999
 30
0.0
 11
7372.9316868062742
 21
13877.741504
 31
0.0
  0
LINE
  5
B044
  8
0-6
  6
CONTINUOUS
 62
     6
 10
7446.2688908062792
 20
14022.42253799999
 30
0.0
 11
7423.8181808062864
 21
13861.776687
 31
0.0
  0
LINE
  5
B045
  8
0-6
  6
CONTINUOUS
 62
     6
 10
7423.8181808062864
 20
13861.776687
 30
0.0
 11
7372.9316868062742
 21
13877.741504
 31
0.0
  0
LINE
  5
B046
  8
0-6
  6
CONTINUOUS
 62
     6
 10
7372.9316868062742
 20
13877.741504
 30
0.0
 11
7446.2688908062792
 21
14022.42253799999
 31
0.0
  0
LINE
  5
B047
  8
0-6
  6
CONTINUOUS
 62
     6
 10
7372.9316868062742
 20
13877.741504
 30
0.0
 11
7423.8181808062864
 21
13861.776687
 31
0.0
  0
LINE
  5
B048
  8
0-6
  6
CONTINUOUS
 62
     6
 10
5731.6346398062851
 20
11999.48618599998
 30
0.0
 11
6811.6342438062857
 21
11999.48618599998
 31
0.0
  0
LINE
  5
B049
  8
0-6
  6
CONTINUOUS
 62
     6
 10
7398.3744388062769
 20
13869.75810599999
 30
0.0
 11
6811.6342438062857
 21
11999.48618599998
 31
0.0
  0
LINE
  5
B04A
  8
0-6
  6
CONTINUOUS
 62
     6
 10
7641.2534508062736
 20
18100.501047085221
 30
0.0
 11
7740.2937138062734
 21
17879.707524085221
 31
0.0
  0
LINE
  5
B057
  8
0-6
  6
CONTINUOUS
 62
     6
 10
20222.169675456222
 20
13331.20929099999
 30
0.0
 11
20090.424796456209
 21
13425.84017699998
 31
0.0
  0
LINE
  5
B058
  8
0-6
  6
CONTINUOUS
 62
     6
 10
20090.424796456209
 20
13425.84017699998
 30
0.0
 11
20184.35691245622
 21
13293.598438000001
 31
0.0
  0
LINE
  5
B059
  8
0-6
  6
CONTINUOUS
 62
     6
 10
20090.424796456209
 20
13425.84017699998
 30
0.0
 11
20222.169675456222
 21
13331.20929099999
 31
0.0
  0
LINE
  5
B05A
  8
0-6
  6
CONTINUOUS
 62
     6
 10
20222.169675456222
 20
13331.20929099999
 30
0.0
 11
20184.35691245622
 21
13293.598438000001
 31
0.0
  0
LINE
  5
B05B
  8
0-6
  6
CONTINUOUS
 62
     6
 10
20184.35691245622
 20
13293.598438000001
 30
0.0
 11
20090.424796456209
 21
13425.84017699998
 31
0.0
  0
LINE
  5
B05C
  8
0-6
  6
CONTINUOUS
 62
     6
 10
20184.35691245622
 20
13293.598438000001
 30
0.0
 11
20222.169675456222
 21
13331.20929099999
 31
0.0
  0
LINE
  5
B05F
  8
0-6
  6
CONTINUOUS
 62
     6
 10
13365.76796680627
 20
19870.485579
 30
0.0
 11
13457.455308806269
 21
20004.293117000001
 31
0.0
  0
LINE
  5
B060
  8
0-6
  6
CONTINUOUS
 62
     6
 10
13495.89656980626
 20
19967.325606999992
 30
0.0
 11
13365.76796680627
 21
19870.485579
 31
0.0
  0
LINE
  5
B061
  8
0-6
  6
CONTINUOUS
 62
     6
 10
13495.89656980626
 20
19967.325606999992
 30
0.0
 11
13457.455308806269
 21
20004.293117000001
 31
0.0
  0
LINE
  5
B062
  8
0-6
  6
CONTINUOUS
 62
     6
 10
13476.67643480627
 20
19985.808372
 30
0.0
 11
13993.66532280627
 21
20490.486634999979
 31
0.0
  0
LINE
  5
B063
  8
0-6
  6
CONTINUOUS
 62
     6
 10
13993.66532280627
 20
20490.486634999979
 30
0.0
 11
15668.66466280627
 21
20490.486634999979
 31
0.0
  0
LINE
  5
B064
  8
2-0
  6
DASHED3
 62
     6
 10
7565.2665818062742
 20
19608.987215000001
 30
0.0
 11
13283.266581806271
 21
19608.987215000001
 31
0.0
  0
LINE
  5
B065
  8
2-0
  6
DASHED3
 62
     6
 10
7522.7673078062817
 20
18972.603133336848
 30
0.0
 11
7522.7673078062817
 21
19693.987743000002
 31
0.0
  0
LINE
  5
B066
  8
2-0
  6
DASHED3
 62
     6
 10
7565.2665818062742
 20
18955.067610197751
 30
0.0
 11
7565.2665818062742
 21
19693.987743000002
 31
0.0
  0
LINE
  5
B067
  8
2-0
  6
DASHED3
 62
     6
 10
7522.7673078062817
 20
19693.987743000002
 30
0.0
 11
13283.266581806271
 21
19693.987743000002
 31
0.0
  0
LINE
  5
B068
  8
2-0
  6
DASHED3
 62
     6
 10
10483.266581806271
 20
17746.365060417251
 30
0.0
 11
10483.266581806271
 21
19693.987743000002
 31
0.0
  0
LINE
  5
B069
  8
2-0
  6
DASHED3
 62
     6
 10
10525.767835806269
 20
17728.828720315101
 30
0.0
 11
10525.767835806269
 21
19693.987743000002
 31
0.0
  0
LINE
  5
B06A
  8
2-0
  6
DASHED3
 62
     6
 10
7635.2673078062853
 20
19647.985711000001
 30
0.0
 11
8769.6690551263418
 21
18456.415540184302
 31
0.0
  0
LINE
  5
B06B
  8
2-0
  6
DASHED3
 62
     6
 10
10413.267835806269
 20
19647.985711000001
 30
0.0
 11
9134.9050901620485
 21
18305.198892138069
 31
0.0
  0
LINE
  5
B06F
  8
2-0
  6
CENTER2
 62
     6
 10
10483.266581806271
 20
20890.487954
 30
0.0
 11
10483.266581806271
 21
19940.487293999991
 31
0.0
  0
LINE
  5
B070
  8
2-0
  6
CENTER2
 62
     6
 10
6235.7664768062832
 20
19647.985711000001
 30
0.0
 11
7882.2656978062741
 21
19647.985711000001
 31
0.0
  0
LINE
  5
B071
  8
0-8
  6
CONTINUOUS
 62
     6
 10
7565.2665818062742
 20
20890.487954
 30
0.0
 11
7565.2665818062742
 21
19940.487293999991
 31
0.0
  0
LINE
  5
B073
  8
2-0
  6
CENTER2
 62
     6
 10
6235.7664768062832
 20
16729.985711000001
 30
0.0
 11
13455.06602980627
 21
16729.985711000001
 31
0.0
  0
LINE
  5
B074
  8
2-0
  6
CENTER2
 62
     6
 10
6235.7664768062832
 20
13461.485710999999
 30
0.0
 11
7882.2656978062741
 21
13461.485710999999
 31
0.0
  0
LINE
  5
B075
  8
2-0
  6
CENTER2
 62
     6
 10
17939.693615456232
 20
19647.985711000001
 30
0.0
 11
18659.69229545624
 21
19647.985711000001
 31
0.0
  0
LINE
  5
B076
  8
2-0
  6
CENTER2
 62
     6
 10
17939.693615456232
 20
16729.985711000001
 30
0.0
 11
18201.666625575341
 21
16729.985711000001
 31
0.0
  0
LINE
  5
B077
  8
2-0
  6
CENTER2
 62
     6
 10
17939.693615456232
 20
13461.485710999999
 30
0.0
 11
18659.69229545624
 21
13461.485710999999
 31
0.0
  0
LINE
  5
B078
  8
2-0
  6
CENTER2
 62
     6
 10
22900.19453845621
 20
5878.536116000002
 30
0.0
 11
22900.19453845621
 21
6915.6791430000021
 31
0.0
  0
LINE
  5
B079
  8
2-0
  6
CENTER2
 62
     6
 10
19982.19453845621
 20
5878.536116000002
 30
0.0
 11
19982.19453845621
 21
6915.6791430000021
 31
0.0
  0
LINE
  5
B07A
  8
2-0
  6
CENTER2
 62
     6
 10
13294.418016342001
 20
5878.536116000002
 30
0.0
 11
13294.418016342001
 21
6935.6787139999988
 31
0.0
  0
LINE
  5
B07B
  8
2-0
  6
CENTER2
 62
     6
 10
10025.91801634199
 20
5878.536116000002
 30
0.0
 11
10025.91801634199
 21
6935.6787139999988
 31
0.0
  0
LINE
  5
B07C
  8
2-0
  6
CENTER2
 62
     6
 10
7107.9180163420024
 20
5878.536116000002
 30
0.0
 11
7107.9180163420024
 21
6935.6787139999988
 31
0.0
  0
ARC
  5
B07D
  8
0-1
  6
CONTINUOUS
 62
     3
 10
20050.693799456229
 20
8371.6892909999988
 30
0.0
 40
5.0
 50
90.0
 51
180.0
  0
ARC
  5
B07E
  8
0-1
  6
CONTINUOUS
 62
     3
 10
20050.693799456229
 20
8339.6888889999973
 30
0.0
 40
5.0
 50
180.0
 51
269.9999850001808
  0
ARC
  5
B07F
  8
0-1
  6
CONTINUOUS
 62
     3
 10
20328.123329456219
 20
8339.6888889999973
 30
0.0
 40
5.0
 50
269.9999850001808
 51
314.99998500021371
  0
ARC
  5
B080
  8
0-1
  6
CONTINUOUS
 62
     3
 10
20360.120267456219
 20
8371.6892909999988
 30
0.0
 40
5.0
 50
314.99998500021371
 51
90.0
  0
ARC
  5
B081
  8
0-1
  6
CONTINUOUS
 62
     3
 10
22831.693298456201
 20
8339.6888889999973
 30
0.0
 40
5.0
 50
269.9999850001808
 51
0.0
  0
ARC
  5
B082
  8
0-1
  6
CONTINUOUS
 62
     3
 10
22831.693298456201
 20
8371.6892909999988
 30
0.0
 40
5.0
 50
0.0
 51
90.0
  0
ARC
  5
B083
  8
0-1
  6
CONTINUOUS
 62
     3
 10
22522.266830456221
 20
8371.6892909999988
 30
0.0
 40
5.0
 50
90.0
 51
224.99998499997221
  0
ARC
  5
B084
  8
0-1
  6
CONTINUOUS
 62
     3
 10
22554.263769456222
 20
8339.6888889999973
 30
0.0
 40
5.0
 50
224.99998499997221
 51
269.9999850001808
  0
ARC
  5
B085
  8
0-1
  6
CONTINUOUS
 62
     3
 10
13421.857443342
 20
8523.6801920000016
 30
0.0
 40
24.999998999999999
 50
271.71998600002598
 51
91.719986000025997
  0
ARC
  5
B086
  8
0-1
  6
CONTINUOUS
 62
     3
 10
6889.5266393420034
 20
8356.1505650000017
 30
0.0
 40
3.0
 50
181.71998599998841
 51
271.71998600002598
  0
ARC
  5
B087
  8
0-1
  6
CONTINUOUS
 62
     3
 10
6890.5639073420034
 20
8388.1955070000022
 30
0.0
 40
5.0
 50
91.719986000025997
 51
181.71998599998841
  0
ARC
  5
B088
  8
0-1
  6
CONTINUOUS
 62
     3
 10
13416.86014934199
 20
8523.529749000003
 30
0.0
 40
69.999999000000003
 50
293.50677499978713
 51
69.933196999906173
  0
ARC
  5
B089
  8
0-1
  6
CONTINUOUS
 62
     3
 10
6894.1676203420066
 20
8268.2500430000018
 30
0.0
 40
5.0
 50
181.71998599998841
 51
271.71998600002598
  0
ARC
  5
B08A
  8
0-1
  6
CONTINUOUS
 62
     3
 10
6891.2062613420057
 20
8300.1752230000002
 30
0.0
 40
3.0
 50
91.719986000025997
 51
181.71998599998841
  0
ARC
  5
B08B
  8
0-1
  6
CONTINUOUS
 62
     3
 10
6891.190424342004
 20
8350.6979809999975
 30
0.0
 40
2.5
 50
271.71998600002598
 51
91.719986000025997
  0
ARC
  5
B08C
  8
0-1
  6
CONTINUOUS
 62
     3
 10
6892.5404563419997
 20
8305.7178750000003
 30
0.0
 40
2.5
 50
271.71998600002598
 51
91.719986000025997
  0
ARC
  5
B08D
  8
0-1
  6
CONTINUOUS
 62
     3
 10
6889.8562293420036
 20
8345.1553289999974
 30
0.0
 40
3.0
 50
91.719986000025997
 51
181.71998599998841
  0
ARC
  5
B08E
  8
0-1
  6
CONTINUOUS
 62
     3
 10
13421.857443342
 20
8523.6801920000016
 30
0.0
 40
20.0
 50
271.71998600002598
 51
91.719986000025997
  0
ARC
  5
B08F
  8
0-1
  6
CONTINUOUS
 62
     3
 10
6890.8766713420009
 20
8311.1699640000024
 30
0.0
 40
3.0
 50
181.71998599998841
 51
271.71998600002598
  0
ARC
  5
B090
  8
0-1
  6
CONTINUOUS
 62
     3
 10
7548.2658428062623
 20
19835.487690000002
 30
0.0
 40
5.0
 50
269.9999850001808
 51
0.0
  0
ARC
  5
B091
  8
0-1
  6
CONTINUOUS
 62
     3
 10
7548.2685441237536
 20
19865.488412922328
 30
0.0
 40
4.99729880777691
 50
359.9871711637191
 51
90.030971551784916
  0
ARC
  5
B092
  8
0-1
  6
CONTINUOUS
 62
     3
 10
7484.7629293300379
 20
19865.48850618611
 30
0.0
 40
4.9970736707893684
 50
89.966445412325555
 51
180.01389876465331
  0
CIRCLE
  5
B093
  8
0-5
  6
CONTINUOUS
 62
     4
 10
22900.194538456231
 20
21490.48663499999
 30
0.0
 40
199.9999949999999
  0
CIRCLE
  5
B094
  8
0-5
  6
CONTINUOUS
 62
     4
 10
17739.692955456241
 20
19647.985711000001
 30
0.0
 40
199.9999949999999
  0
CIRCLE
  5
B095
  8
0-5
  6
CONTINUOUS
 62
     4
 10
10483.266581806271
 20
21090.486634999979
 30
0.0
 40
199.9999949999999
  0
CIRCLE
  5
B096
  8
0-5
  6
CONTINUOUS
 62
     4
 10
7565.2665818062742
 20
21090.486634999979
 30
0.0
 40
199.9999949999999
  0
CIRCLE
  5
B097
  8
0-5
  6
CONTINUOUS
 62
     4
 10
6035.7668058062864
 20
19647.985711000001
 30
0.0
 40
199.9999949999999
  0
CIRCLE
  5
B098
  8
0-5
  6
CONTINUOUS
 62
     4
 10
17739.692955456241
 20
16729.985711000001
 30
0.0
 40
199.9999949999999
  0
CIRCLE
  5
B099
  8
0-5
  6
CONTINUOUS
 62
     4
 10
17739.692955456241
 20
13461.485710999999
 30
0.0
 40
199.9999949999999
  0
CIRCLE
  5
B09A
  8
0-5
  6
CONTINUOUS
 62
     4
 10
6035.7668058062864
 20
16729.985711000001
 30
0.0
 40
199.9999949999999
  0
CIRCLE
  5
B09B
  8
0-5
  6
CONTINUOUS
 62
     4
 10
6035.7668058062864
 20
13461.485710999999
 30
0.0
 40
199.9999949999999
  0
CIRCLE
  5
B09C
  8
0-5
  6
CONTINUOUS
 62
     4
 10
19982.19453845621
 20
21490.48663499999
 30
0.0
 40
199.9999949999999
  0
CIRCLE
  5
B09D
  8
0-5
  6
CONTINUOUS
 62
     4
 10
22900.19453845621
 20
4101.1882420000011
 30
0.0
 40
199.9999949999999
  0
CIRCLE
  5
B09E
  8
0-5
  6
CONTINUOUS
 62
     4
 10
10025.91801634199
 20
4101.1882420000011
 30
0.0
 40
199.9999949999999
  0
CIRCLE
  5
B09F
  8
0-5
  6
CONTINUOUS
 62
     4
 10
13294.418016342001
 20
4101.1882420000011
 30
0.0
 40
199.9999949999999
  0
CIRCLE
  5
B0A0
  8
0-5
  6
CONTINUOUS
 62
     4
 10
19982.19453845621
 20
4101.1882420000011
 30
0.0
 40
199.9999949999999
  0
CIRCLE
  5
B0A1
  8
0-5
  6
CONTINUOUS
 62
     4
 10
7107.9180163420024
 20
4101.1882420000011
 30
0.0
 40
199.9999949999999
  0
TEXT
  5
B0A2
  8
0-5
  6
CONTINUOUS
 62
     7
 10
22845.524194456229
 20
21404.260784999999
 30
0.0
 40
160.0
  1
2
 72
     4
 11
22898.857527789562
 21
21484.260784999999
 31
0.0
  0
TEXT
  5
B0A3
  8
0-5
  6
CONTINUOUS
 62
     7
 10
19927.524194456229
 20
21404.260784999999
 30
0.0
 40
160.0
  1
1
 72
     4
 11
19954.190861122901
 21
21484.260784999999
 31
0.0
  0
TEXT
  5
B0A4
  8
0-5
  6
CONTINUOUS
 62
     7
 10
17691.016593456228
 20
19556.367652000001
 30
0.0
 40
160.0
  1
C
 72
     4
 11
17744.349926789571
 21
19636.367652000001
 31
0.0
  0
TEXT
  5
B0A5
  8
0-5
  6
CONTINUOUS
 62
     7
 10
10429.54937580628
 20
21001.271712000002
 30
0.0
 40
160.0
  1
2
 72
     4
 11
10482.88270913962
 21
21081.271712000002
 31
0.0
  0
TEXT
  5
B0A6
  8
0-5
  6
CONTINUOUS
 62
     7
 10
7511.5473968062834
 20
21001.271712000002
 30
0.0
 40
160.0
  1
1
 72
     4
 11
7538.2140634729512
 21
21081.271712000002
 31
0.0
  0
TEXT
  5
B0A7
  8
0-5
  6
CONTINUOUS
 62
     7
 10
5982.3069378062846
 20
19568.397186999999
 30
0.0
 40
160.0
  1
C
 72
     4
 11
6035.6402711396177
 21
19648.397186999999
 31
0.0
  0
TEXT
  5
B0A8
  8
0-5
  6
CONTINUOUS
 62
     7
 10
17691.016593456228
 20
16638.367653000001
 30
0.0
 40
160.0
  1
B
 72
     4
 11
17744.349926789571
 21
16718.367653000001
 31
0.0
  0
TEXT
  5
B0A9
  8
0-5
  6
CONTINUOUS
 62
     7
 10
17691.016593456228
 20
13369.867652000001
 30
0.0
 40
160.0
  1
A
 72
     4
 11
17744.349926789571
 21
13449.867652000001
 31
0.0
  0
TEXT
  5
B0AA
  8
0-5
  6
CONTINUOUS
 62
     7
 10
5982.3069378062846
 20
16650.398176999981
 30
0.0
 40
160.0
  1
B
 72
     4
 11
6035.6402711396177
 21
16730.398176999981
 31
0.0
  0
TEXT
  5
B0AB
  8
0-5
  6
CONTINUOUS
 62
     7
 10
5982.3069378062846
 20
13381.897187
 30
0.0
 40
160.0
  1
A
 72
     4
 11
6035.6402711396177
 21
13461.897187
 31
0.0
  0
TEXT
  5
B0AC
  8
0-5
  6
CONTINUOUS
 62
     7
 10
22848.281663456211
 20
4011.7132600000009
 30
0.0
 40
160.0
  1
2
 72
     4
 11
22901.61499678954
 21
4091.7132600000009
 31
0.0
  0
TEXT
  5
B0AD
  8
0-5
  6
CONTINUOUS
 62
     7
 10
19372.194011456231
 20
6988.0104361594431
 30
0.0
 40
160.0
  1
(2131.5)
 50
90.0
 72
     4
 11
19292.194011456231
 21
7441.3437694927761
 31
0.0
  0
TEXT
  5
B0AE
  8
0-5
  6
CONTINUOUS
 62
     7
 10
14595.411075341999
 20
6529.034625000003
 30
0.0
 40
160.0
  1
布基礎天端
 72
     4
 11
15054.077742008671
 21
6609.034625000003
 31
0.0
  0
TEXT
  5
B0AF
  8
0-5
  6
CONTINUOUS
 62
     7
 10
17760.321518456229
 20
6429.0347899999997
 30
0.0
 40
160.0
  1
G.L
 72
     4
 11
17920.321518456229
 21
6509.0347899999997
 31
0.0
  0
TEXT
  5
B0B0
  8
0-5
  6
CONTINUOUS
 62
     7
 10
19930.28166445623
 20
4011.7132600000009
 30
0.0
 40
160.0
  1
1
 72
     4
 11
19956.948331122901
 21
4091.7132600000009
 31
0.0
  0
TEXT
  5
B0B1
  8
0-5
  6
CONTINUOUS
 62
     7
 10
13247.461856341981
 20
4017.9774460000021
 30
0.0
 40
160.0
  1
A
 72
     4
 11
13300.79518967532
 21
4097.9774460000026
 31
0.0
  0
TEXT
  5
B0B2
  8
0-5
  6
CONTINUOUS
 62
     7
 10
9978.9618563419863
 20
4017.9774460000021
 30
0.0
 40
160.0
  1
B
 72
     4
 11
10032.29518967532
 21
4097.9774460000026
 31
0.0
  0
TEXT
  5
B0B3
  8
0-5
  6
CONTINUOUS
 62
     7
 10
7060.9618563420072
 20
4017.9774460000021
 30
0.0
 40
160.0
  1
C
 72
     4
 11
7114.2951896753402
 21
4097.9774460000026
 31
0.0
  0
TEXT
  5
B0B9
  8
0-6
  6
CONTINUOUS
 62
     7
 10
20751.196016456201
 20
12921.98737399998
 30
0.0
 40
160.0
  1
前柱（左）
 72
     4
 11
21167.196016456201
 21
13001.98737399998
 31
0.0
  0
TEXT
  5
B0BB
  8
0-6
  6
CONTINUOUS
 62
     7
 10
9614.5224716306147
 20
20180.486106999979
 30
0.0
 40
160.0
  1
屋根
 72
     4
 11
9785.1891382972808
 21
20260.486106999979
 31
0.0
  0
TEXT
  5
B0BC
  8
0-6
  6
CONTINUOUS
 62
     7
 10
7963.5465696306173
 20
20180.486106999979
 30
0.0
 40
160.0
  1
桁（後）
 72
     4
 11
8283.5465696306164
 21
20260.486106999979
 31
0.0
  0
TEXT
  5
B0BD
  8
0-6
  6
CONTINUOUS
 62
     7
 10
8538.5360598062744
 20
13933.315499
 30
0.0
 40
160.0
  1
桁（前）
 72
     4
 11
8858.5360598062744
 21
14013.315499
 31
0.0
  0
TEXT
  5
B0BE
  8
0-6
  6
CONTINUOUS
 62
     7
 10
9446.06020980629
 20
12569.486582
 30
0.0
 40
160.0
  1
鼻隠し前
 72
     4
 11
9808.7268764729561
 21
12649.486582
 31
0.0
  0
TEXT
  5
B0BF
  8
0-6
  6
CONTINUOUS
 62
     7
 10
5811.6349038062863
 20
12079.485459999991
 30
0.0
 40
160.0
  1
ケラバ 左
 72
     4
 11
6227.6349038062854
 21
12159.485459999991
 31
0.0
  0
TEXT
  5
B0C0
  8
0-6
  6
CONTINUOUS
 62
     7
 10
7820.2939778062882
 20
17959.707788085208
 30
0.0
 40
160.0
  1
上枠
 72
     4
 11
7990.9606444729552
 21
18039.707788085208
 31
0.0
  0
TEXT
  5
B0C1
  8
0-6
  6
CONTINUOUS
 62
     7
 10
14073.66558680627
 20
20570.484918999991
 30
0.0
 40
160.0
  1
鼻隠しコーナー後
 72
     4
 11
14820.33225347294
 21
20650.484918999991
 31
0.0
  0
TEXT
  5
B0C2
  8
2-0
  6
CONTINUOUS
 62
     7
 10
21712.526405504432
 20
11251.104441999991
 30
0.0
 40
160.0
  1
平　面　図
 72
     4
 11
22165.85973883776
 21
11325.77110866666
 31
0.0
  0
TEXT
  5
B0C3
  8
2-0
  6
CONTINUOUS
 62
     7
 10
9001.5997858514293
 20
11156.81700299998
 30
0.0
 40
160.0
  1
小 屋 伏 図
 72
     4
 11
9502.933119184765
 21
11236.81700299998
 31
0.0
  0
TEXT
  5
B0C4
  8
2-0
  6
CONTINUOUS
 62
     7
 10
22165.948883164408
 20
3292.8025890000022
 30
0.0
 40
160.0
  1
正 面 立 面 図
 72
     4
 11
22811.282216497741
 21
3372.8025890000008
 31
0.0
  0
TEXT
  5
B0C5
  8
2-0
  6
CONTINUOUS
 62
     7
 10
8707.8842723420003
 20
3264.0669070000022
 30
0.0
 40
160.0
  1
側 面 立 面 図
 50
0.000139
 72
     4
 11
9353.2174115928228
 21
3344.0684725833762
 31
0.0
  0
CIRCLE
  5
B0C9
  8
0-4
  6
CONTINUOUS
 62
     4
 10
21441.19453845621
 20
6627.2449749999987
 30
0.0
 40
18.487504999999981
  0
TEXT
  5
B0CA
  8
2-0
  6
CONTINUOUS
 62
     7
 10
10704.70959673043
 20
3291.2638415833771
 30
0.0
 40
160.0
  1
1
 72
     4
 11
10731.3762633971
 21
3371.2638415833771
 31
0.0
  0
TEXT
  5
B0CB
  8
2-0
  6
CONTINUOUS
 62
     7
 10
10947.79831398114
 20
3211.2653095833762
 30
0.0
 40
160.0
  1
80
 72
     4
 11
11067.79831398114
 21
3291.2653095833762
 31
0.0
  0
TEXT
  5
B0CC
  8
2-0
  6
CONTINUOUS
 62
     7
 10
10205.71156273045
 20
3264.0684725833762
 30
0.0
 40
160.0
  1
(S=  /   )
 72
     4
 11
10765.71156273045
 21
3344.0684725833762
 31
0.0
  0
TEXT
  5
B0CD
  8
2-0
  6
CONTINUOUS
 62
     7
 10
24162.77440163535
 20
3319.9979579999981
 30
0.0
 40
160.0
  1
1
 72
     4
 11
24189.441068302021
 21
3399.9979579999981
 31
0.0
  0
TEXT
  5
B0CE
  8
2-0
  6
CONTINUOUS
 62
     7
 10
24405.86311888606
 20
3239.9994260000021
 30
0.0
 40
160.0
  1
80
 72
     4
 11
24525.86311888606
 21
3319.9994260000012
 31
0.0
  0
TEXT
  5
B0CF
  8
2-0
  6
CONTINUOUS
 62
     7
 10
23663.776367635372
 20
3292.8025890000022
 30
0.0
 40
160.0
  1
(S=  /   )
 72
     4
 11
24223.776367635372
 21
3372.8025890000008
 31
0.0
  0
TEXT
  5
B0D0
  8
2-0
  6
CONTINUOUS
 62
     7
 10
23517.35192397538
 20
11272.96647766667
 30
0.0
 40
160.0
  1
1
 72
     4
 11
23544.018590642041
 21
11352.96647766667
 31
0.0
  0
TEXT
  5
B0D1
  8
2-0
  6
CONTINUOUS
 62
     7
 10
23760.440641226069
 20
11192.967945666671
 30
0.0
 40
160.0
  1
80
 72
     4
 11
23880.440641226069
 21
11272.967945666671
 31
0.0
  0
TEXT
  5
B0D2
  8
2-0
  6
CONTINUOUS
 62
     7
 10
23018.35388997538
 20
11245.77110866666
 30
0.0
 40
160.0
  1
(S=  /   )
 72
     4
 11
23578.35388997538
 21
11325.77110866666
 31
0.0
  0
TEXT
  5
B0D3
  8
2-0
  6
CONTINUOUS
 62
     7
 10
10854.425304322371
 20
11184.012371999979
 30
0.0
 40
160.0
  1
1
 72
     4
 11
10881.09197098904
 21
11264.012371999979
 31
0.0
  0
TEXT
  5
B0D4
  8
2-0
  6
CONTINUOUS
 62
     7
 10
11097.514021573081
 20
11104.01383999998
 30
0.0
 40
160.0
  1
80
 72
     4
 11
11217.514021573081
 21
11184.01383999998
 31
0.0
  0
TEXT
  5
B0D5
  8
2-0
  6
CONTINUOUS
 62
     7
 10
10355.427270322371
 20
11156.81700299998
 30
0.0
 40
160.0
  1
(S=  /   )
 72
     4
 11
10915.427270322371
 21
11236.81700299998
 31
0.0
  0
LINE
  5
B0D6
  8
1-前柱カバ-P
 10
25657.694538456231
 20
8459.188465999996
 30
0.0
 11
25657.694538456231
 21
6141.1885390000007
 31
0.0
  0
LINE
  5
B0D7
  8
1-前柱カバ-P
 10
25742.694538456231
 20
8589.1884000000027
 30
0.0
 11
25742.694538456231
 21
6141.1885390000007
 31
0.0
  0
LINE
  5
B0D8
  8
0-1
  6
CONTINUOUS
 62
     3
 10
25785.694538456231
 20
8459.1884660000032
 30
0.0
 11
22857.6942744562
 21
8459.1884659999978
 31
0.0
  0
LINE
  5
B0D9
  8
0-1
  6
CONTINUOUS
 62
     3
 10
22922.695726456201
 20
8589.1883999999973
 30
0.0
 11
25785.694538456231
 21
8589.1884000000027
 31
0.0
  0
LINE
  5
B0DA
  8
0-1
  6
CONTINUOUS
 62
     3
 10
25785.694538456231
 20
8263.5026620000044
 30
0.0
 11
25785.694538456231
 21
8589.1884000000027
 31
0.0
  0
LINE
  5
B0DB
  8
0-1
  6
CONTINUOUS
 62
     3
 10
25785.694538456231
 20
8263.5026620000044
 30
0.0
 11
25742.694538456231
 21
8263.5026620000044
 31
0.0
  0
LINE
  5
B0DC
  8
2-0
  6
CENTER2
 62
     6
 10
25700.194538456231
 20
5878.536116000002
 30
0.0
 11
25700.194538456231
 21
6915.6791430000021
 31
0.0
  0
LINE
  5
B0DD
  8
1-桁前P28
 10
25657.694538456231
 20
8261.5026620000062
 30
0.0
 11
22942.694538456231
 21
8261.5026620000062
 31
0.0
  0
CIRCLE
  5
B0DE
  8
0-5
  6
CONTINUOUS
 62
     4
 10
25700.194538456231
 20
4101.1882420000011
 30
0.0
 40
199.9999949999999
  0
TEXT
  5
B0DF
  8
0-5
  6
CONTINUOUS
 62
     7
 10
25648.28166345623
 20
4011.7132600000009
 30
0.0
 40
160.0
  1
3
 72
     4
 11
25701.614996789562
 21
4091.7132600000009
 31
0.0
  0
LINE
  5
B0E0
  8
0-5
  6
CONTINUOUS
 62
     4
 10
25700.194538456231
 20
4461.1889350000001
 30
0.0
 11
25700.194538456231
 21
4301.1893970000001
 31
0.0
  0
LINE
  5
B0E1
  8
2-0
  6
CENTER2
 62
     6
 10
25700.194538456231
 20
21290.487954000011
 30
0.0
 11
25700.194538456231
 21
12298.986700999991
 31
0.0
  0
CIRCLE
  5
B0E2
  8
0-5
  6
CONTINUOUS
 62
     4
 10
25700.194538456231
 20
21490.48663499999
 30
0.0
 40
199.9999949999999
  0
TEXT
  5
B0E3
  8
0-5
  6
CONTINUOUS
 62
     7
 10
25645.524194456229
 20
21404.260784999999
 30
0.0
 40
160.0
  1
3
 72
     4
 11
25698.857527789562
 21
21484.260784999999
 31
0.0
  0
ARC
  5
B0E4
  8
1-後柱P
  6
HIDE-M
 62
     6
 10
25703.794538456241
 20
19579.935710999991
 30
0.0
 40
2.6000000000000001
 50
180.0
 51
270.0
  0
LINE
  5
B0E5
  8
1-後柱P
  6
HIDE-M
 62
     6
 10
25692.194538456239
 20
19577.886320846799
 30
0.0
 11
25692.194538456239
 21
19581.535711
 31
0.0
  0
LINE
  5
B0E6
  8
1-後柱P
  6
HIDE-M
 62
     6
 10
25702.194538456239
 20
19577.886320846799
 30
0.0
 11
25702.194538456239
 21
19581.535711
 31
0.0
  0
LINE
  5
B0E7
  8
1-後柱P
  6
1PL-M
 62
     6
 10
25697.194538456231
 20
19572.335710999989
 30
0.0
 11
25697.194538456231
 21
19586.535711
 31
0.0
  0
ARC
  5
B0E8
  8
1-後柱P
  6
HIDE-M
 62
     6
 10
25690.594538456229
 20
19579.935710999991
 30
0.0
 40
2.6000000000000001
 50
270.0
 51
0.0
  0
LINE
  5
B0E9
  8
1-後柱P
  6
HIDE-M
 62
     6
 10
25701.194538456231
 20
19579.935710999991
 30
0.0
 11
25701.194538456231
 21
19581.535711
 31
0.0
  0
LINE
  5
B0EA
  8
1-後柱P
  6
HIDE-M
 62
     6
 10
25693.194538456231
 20
19579.935710999991
 30
0.0
 11
25693.194538456231
 21
19581.535711
 31
0.0
  0
LINE
  5
B0EB
  8
1-後柱P
 10
25711.09453845624
 20
19692.235711000001
 30
0.0
 11
25689.29453845623
 21
19692.235711000001
 31
0.0
  0
LINE
  5
B0EC
  8
1-後柱P
 10
25659.294538456219
 20
19654.935710999991
 30
0.0
 11
25659.294538456219
 21
19662.235711000001
 31
0.0
  0
ARC
  5
B0ED
  8
1-後柱P
 10
25689.29453845623
 20
19662.235711000001
 30
0.0
 40
30.0
 50
90.0
 51
180.0
  0
ARC
  5
B0EE
  8
1-後柱P
 10
25689.29453845623
 20
19662.235711000001
 30
0.0
 40
31.600000000000001
 50
90.0
 51
180.0
  0
LINE
  5
B0EF
  8
1-後柱P
 10
25711.09453845624
 20
19693.835711
 30
0.0
 11
25689.29453845623
 21
19693.835711
 31
0.0
  0
LINE
  5
B0F0
  8
1-後柱P
 10
25657.694538456239
 20
19654.935710999991
 30
0.0
 11
25657.694538456239
 21
19662.235711000001
 31
0.0
  0
LINE
  5
B0F1
  8
1-後柱P
 10
25680.694538456239
 20
19633.335711
 30
0.0
 11
25680.694538456239
 21
19643.335711
 31
0.0
  0
LINE
  5
B0F2
  8
1-後柱P
 10
25682.294538456219
 20
19643.335711
 30
0.0
 11
25682.294538456219
 21
19633.335711
 31
0.0
  0
LINE
  5
B0F3
  8
1-後柱P
 10
25741.09453845624
 20
19654.935710999991
 30
0.0
 11
25741.09453845624
 21
19662.235711000001
 31
0.0
  0
ARC
  5
B0F4
  8
1-後柱P
 10
25711.09453845624
 20
19662.235711000001
 30
0.0
 40
30.0
 50
0.0
 51
90.0
  0
ARC
  5
B0F5
  8
1-後柱P
 10
25711.09453845624
 20
19662.235711000001
 30
0.0
 40
31.600000000000001
 50
0.0
 51
90.0
  0
LINE
  5
B0F6
  8
1-後柱P
 10
25742.694538456231
 20
19654.935710999991
 30
0.0
 11
25742.694538456231
 21
19662.235711000001
 31
0.0
  0
LINE
  5
B0F7
  8
1-後柱P
 10
25736.09453845624
 20
19648.335710999989
 30
0.0
 11
25724.694538456239
 21
19648.335710999989
 31
0.0
  0
ARC
  5
B0F8
  8
1-後柱P
 10
25736.09453845624
 20
19654.935710999991
 30
0.0
 40
6.599999999999997
 50
270.0
 51
0.0
  0
ARC
  5
B0F9
  8
1-後柱P
 10
25724.694538456239
 20
19643.335711
 30
0.0
 40
5.0
 50
90.0
 51
180.0
  0
LINE
  5
B0FA
  8
1-後柱P
 10
25736.09453845624
 20
19649.935710999991
 30
0.0
 11
25724.694538456239
 21
19649.935710999991
 31
0.0
  0
ARC
  5
B0FB
  8
1-後柱P
 10
25736.09453845624
 20
19654.935710999991
 30
0.0
 40
5.0
 50
270.0
 51
0.0
  0
LINE
  5
B0FC
  8
1-後柱P
 10
25719.694538456231
 20
19643.335711
 30
0.0
 11
25719.694538456231
 21
19583.935710999998
 31
0.0
  0
LINE
  5
B0FD
  8
1-後柱P
 10
25718.09453845624
 20
19643.335711
 30
0.0
 11
25718.09453845624
 21
19583.935710999998
 31
0.0
  0
ARC
  5
B0FE
  8
1-後柱P
 10
25724.694538456239
 20
19643.335711
 30
0.0
 40
6.599999999999997
 50
90.0
 51
180.0
  0
LINE
  5
B0FF
  8
1-後柱P
 10
25713.09453845624
 20
19577.335711
 30
0.0
 11
25679.694538456231
 21
19577.335711
 31
0.0
  0
ARC
  5
B100
  8
1-後柱P
 10
25713.09453845624
 20
19583.935710999998
 30
0.0
 40
6.599999999999997
 50
270.0
 51
0.0
  0
LINE
  5
B101
  8
1-後柱P
 10
25713.09453845624
 20
19578.935710999991
 30
0.0
 11
25679.694538456231
 21
19578.935710999991
 31
0.0
  0
ARC
  5
B102
  8
1-後柱P
 10
25713.09453845624
 20
19583.935710999998
 30
0.0
 40
5.0
 50
270.0
 51
0.0
  0
LINE
  5
B103
  8
1-後柱P
 10
25679.694538456231
 20
19578.935710999991
 30
0.0
 11
25679.694538456231
 21
19577.335711
 31
0.0
  0
LINE
  5
B104
  8
1-後柱P
 10
25664.294538456241
 20
19648.335710999989
 30
0.0
 11
25675.694538456231
 21
19648.335710999989
 31
0.0
  0
ARC
  5
B105
  8
1-後柱P
 10
25664.294538456241
 20
19654.935710999991
 30
0.0
 40
6.599999999999997
 50
180.0
 51
270.0
  0
ARC
  5
B106
  8
1-後柱P
 10
25675.694538456231
 20
19643.335711
 30
0.0
 40
5.0
 50
0.0
 51
90.0
  0
LINE
  5
B107
  8
1-後柱P
 10
25675.694538456231
 20
19649.935710999991
 30
0.0
 11
25664.294538456241
 21
19649.935710999991
 31
0.0
  0
ARC
  5
B108
  8
1-後柱P
 10
25675.694538456231
 20
19643.335711
 30
0.0
 40
6.599999999999997
 50
0.0
 51
90.0
  0
ARC
  5
B109
  8
1-後柱P
 10
25664.294538456241
 20
19654.935710999991
 30
0.0
 40
5.0
 50
180.0
 51
270.0
  0
LINE
  5
B10A
  8
1-後柱P
 10
25680.694538456239
 20
19633.335711
 30
0.0
 11
25682.294538456219
 21
19633.335711
 31
0.0
  0
LINE
  5
B10B
  8
1-後柱カバ-P
 10
25657.694538456239
 20
19641.635710999999
 30
0.0
 11
25657.694538456239
 21
19582.335711
 31
0.0
  0
ARC
  5
B10C
  8
1-後柱カバ-P
 10
25664.294538456241
 20
19582.335711
 30
0.0
 40
6.599999999999997
 50
180.0
 51
270.0
  0
LINE
  5
B10D
  8
1-後柱カバ-P
 10
25659.294538456219
 20
19641.635710999999
 30
0.0
 11
25659.294538456219
 21
19582.335711
 31
0.0
  0
ARC
  5
B10E
  8
1-後柱カバ-P
 10
25664.294538456241
 20
19641.635710999999
 30
0.0
 40
5.0
 50
90.0
 51
180.0
  0
LINE
  5
B10F
  8
1-後柱カバ-P
 10
25664.294538456241
 20
19575.735711000001
 30
0.0
 11
25736.09453845624
 21
19575.735711000001
 31
0.0
  0
ARC
  5
B110
  8
1-後柱カバ-P
 10
25736.09453845624
 20
19582.335711
 30
0.0
 40
6.599999999999997
 50
270.0
 51
0.0
  0
LINE
  5
B111
  8
1-後柱カバ-P
 10
25664.294538456241
 20
19577.335711
 30
0.0
 11
25736.09453845624
 21
19577.335711
 31
0.0
  0
ARC
  5
B112
  8
1-後柱カバ-P
 10
25736.09453845624
 20
19582.335711
 30
0.0
 40
5.0
 50
270.0
 51
0.0
  0
ARC
  5
B113
  8
1-後柱カバ-P
 10
25664.294538456241
 20
19582.335711
 30
0.0
 40
5.0
 50
180.0
 51
270.0
  0
LINE
  5
B114
  8
1-後柱カバ-P
 10
25742.694538456231
 20
19582.335711
 30
0.0
 11
25742.694538456231
 21
19641.635710999999
 31
0.0
  0
LINE
  5
B115
  8
1-後柱カバ-P
 10
25741.09453845624
 20
19582.335711
 30
0.0
 11
25741.09453845624
 21
19641.635710999999
 31
0.0
  0
ARC
  5
B116
  8
1-後柱カバ-P
 10
25736.09453845624
 20
19641.635710999999
 30
0.0
 40
5.0
 50
0.0
 51
90.0
  0
LINE
  5
B117
  8
1-後柱カバ-P
  6
1PL-M
 62
     6
 10
25700.194538456239
 20
19583.235711000001
 30
0.0
 11
25700.194538456239
 21
19570.235711000001
 31
0.0
  0
LINE
  5
B118
  8
1-後柱カバ-P
  6
HIDE-M
 62
     6
 10
25693.194538456231
 20
19575.735711000001
 30
0.0
 11
25693.194538456231
 21
19577.335711
 31
0.0
  0
LINE
  5
B119
  8
1-後柱カバ-P
  6
HIDE-M
 62
     6
 10
25707.194538456239
 20
19575.735711000001
 30
0.0
 11
25707.194538456239
 21
19577.335711
 31
0.0
  0
ARC
  5
B11A
  8
1-後柱カバ-P
 10
25664.294538456241
 20
19641.635710999999
 30
0.0
 40
6.599999999999997
 50
90.0
 51
180.0
  0
ARC
  5
B11B
  8
1-後柱カバ-P
 10
25736.09453845624
 20
19641.635710999999
 30
0.0
 40
6.599999999999997
 50
0.0
 51
90.0
  0
LINE
  5
B11C
  8
1-後柱カバ-P
 10
25727.694538456231
 20
19648.235711000001
 30
0.0
 11
25736.09453845624
 21
19648.235711000001
 31
0.0
  0
LINE
  5
B11D
  8
1-後柱カバ-P
 10
25672.694538456231
 20
19648.235711000001
 30
0.0
 11
25664.294538456241
 21
19648.235711000001
 31
0.0
  0
LINE
  5
B11E
  8
1-後柱カバ-P
 10
25727.694538456231
 20
19646.635710999999
 30
0.0
 11
25736.09453845624
 21
19646.635710999999
 31
0.0
  0
LINE
  5
B11F
  8
1-後柱カバ-P
 10
25672.694538456231
 20
19646.635710999999
 30
0.0
 11
25664.294538456241
 21
19646.635710999999
 31
0.0
  0
LINE
  5
B120
  8
1-後柱カバ-P
 10
25672.694538456231
 20
19646.635710999999
 30
0.0
 11
25672.694538456231
 21
19648.235711000001
 31
0.0
  0
LINE
  5
B121
  8
1-後柱カバ-P
 10
25727.694538456231
 20
19648.235711000001
 30
0.0
 11
25727.694538456231
 21
19646.635710999999
 31
0.0
  0
LINE
  5
B122
  8
1-後柱カバ-P
  6
HIDE-M
 62
     6
 10
25731.59453845624
 20
19627.235711000001
 30
0.0
 11
25743.194538456231
 21
19627.235711000001
 31
0.0
  0
LINE
  5
B123
  8
1-後柱カバ-P
  6
HIDE-M
 62
     6
 10
25731.59453845624
 20
19619.23571099999
 30
0.0
 11
25743.194538456231
 21
19619.23571099999
 31
0.0
  0
LINE
  5
B124
  8
1-後柱カバ-P
  6
HIDE-M
 62
     6
 10
25731.59453845624
 20
19626.23571099999
 30
0.0
 11
25743.194538456231
 21
19626.23571099999
 31
0.0
  0
LINE
  5
B125
  8
1-後柱カバ-P
  6
HIDE-M
 62
     6
 10
25731.59453845624
 20
19620.23571099999
 30
0.0
 11
25743.194538456231
 21
19620.23571099999
 31
0.0
  0
LINE
  5
B126
  8
1-後柱カバ-P
 10
25732.594538456229
 20
19617.735711000001
 30
0.0
 11
25739.59453845624
 21
19617.735711000001
 31
0.0
  0
LINE
  5
B127
  8
1-後柱カバ-P
 10
25739.59453845624
 20
19628.735711000001
 30
0.0
 11
25732.594538456229
 21
19628.735711000001
 31
0.0
  0
LINE
  5
B128
  8
1-後柱カバ-P
 10
25739.59453845624
 20
19629.485711000001
 30
0.0
 11
25739.59453845624
 21
19616.985711000001
 31
0.0
  0
LINE
  5
B129
  8
1-後柱カバ-P
 10
25743.194538456231
 20
19629.235711000001
 30
0.0
 11
25743.194538456231
 21
19617.235711000001
 31
0.0
  0
LINE
  5
B12A
  8
1-後柱カバ-P
  6
HIDE-M
 62
     6
 10
25741.09453845624
 20
19617.735711000001
 30
0.0
 11
25742.694538456231
 21
19617.735711000001
 31
0.0
  0
LINE
  5
B12B
  8
1-後柱カバ-P
 10
25743.194538456231
 20
19617.235711000001
 30
0.0
 11
25742.694538456231
 21
19617.735711000001
 31
0.0
  0
ARC
  5
B12C
  8
1-後柱カバ-P
 10
25740.34453845624
 20
19616.985711000001
 30
0.0
 40
0.75
 50
180.0
 51
0.0
  0
LINE
  5
B12D
  8
1-後柱カバ-P
  6
HIDE-M
 62
     6
 10
25742.694538456231
 20
19628.735711000001
 30
0.0
 11
25741.09453845624
 21
19628.735711000001
 31
0.0
  0
LINE
  5
B12E
  8
1-後柱カバ-P
 10
25743.194538456231
 20
19629.235711000001
 30
0.0
 11
25742.694538456231
 21
19628.735711000001
 31
0.0
  0
ARC
  5
B12F
  8
1-後柱カバ-P
 10
25740.34453845624
 20
19629.485711000001
 30
0.0
 40
0.75
 50
0.0
 51
180.0
  0
LINE
  5
B130
  8
1-後柱カバ-P
 10
25731.59453845624
 20
19627.73571099999
 30
0.0
 11
25731.59453845624
 21
19618.735711000001
 31
0.0
  0
ARC
  5
B131
  8
1-後柱カバ-P
 10
25732.594538456229
 20
19618.735711000001
 30
0.0
 40
1.0
 50
180.0
 51
270.0
  0
ARC
  5
B132
  8
1-後柱カバ-P
 10
25732.594538456229
 20
19627.73571099999
 30
0.0
 40
1.0
 50
90.0
 51
180.0
  0
LINE
  5
B133
  8
1-後柱カバ-P
  6
1PL-M
 62
     6
 10
25726.59453845624
 20
19623.23571099999
 30
0.0
 11
25748.194538456231
 21
19623.23571099999
 31
0.0
  0
LINE
  5
B134
  8
1-後柱カバ-P
 10
25732.594538456229
 20
19607.735711000001
 30
0.0
 11
25739.59453845624
 21
19607.735711000001
 31
0.0
  0
LINE
  5
B135
  8
1-後柱カバ-P
 10
25743.194538456231
 20
19615.235711000001
 30
0.0
 11
25743.194538456231
 21
19607.235711000001
 31
0.0
  0
LINE
  5
B136
  8
1-後柱カバ-P
  6
HIDE-M
 62
     6
 10
25741.09453845624
 20
19607.735711000001
 30
0.0
 11
25742.694538456231
 21
19607.735711000001
 31
0.0
  0
LINE
  5
B137
  8
1-後柱カバ-P
 10
25743.194538456231
 20
19607.235711000001
 30
0.0
 11
25742.694538456231
 21
19607.735711000001
 31
0.0
  0
ARC
  5
B138
  8
1-後柱カバ-P
 10
25740.34453845624
 20
19606.985711000001
 30
0.0
 40
0.75
 50
180.0
 51
0.0
  0
LINE
  5
B139
  8
1-後柱カバ-P
 10
25731.59453845624
 20
19616.735711000001
 30
0.0
 11
25731.59453845624
 21
19608.735711000001
 31
0.0
  0
ARC
  5
B13A
  8
1-後柱カバ-P
 10
25732.594538456229
 20
19608.735711000001
 30
0.0
 40
1.0
 50
180.0
 51
270.0
  0
LINE
  5
B13B
  8
1-後柱カバ-P
  6
1PL-M
 62
     6
 10
25726.59453845624
 20
19613.235711000001
 30
0.0
 11
25748.194538456231
 21
19613.235711000001
 31
0.0
  0
LINE
  5
B13C
  8
1-後柱カバ-P
 10
25739.59453845624
 20
19614.985711000001
 30
0.0
 11
25739.59453845624
 21
19606.985711000001
 31
0.0
  0
LINE
  5
B13D
  8
1-後柱カバ-P
  6
HIDE-M
 62
     6
 10
25668.794538456219
 20
19627.235711000001
 30
0.0
 11
25657.194538456231
 21
19627.235711000001
 31
0.0
  0
LINE
  5
B13E
  8
1-後柱カバ-P
  6
HIDE-M
 62
     6
 10
25668.794538456219
 20
19619.23571099999
 30
0.0
 11
25657.194538456231
 21
19619.23571099999
 31
0.0
  0
LINE
  5
B13F
  8
1-後柱カバ-P
  6
HIDE-M
 62
     6
 10
25668.794538456219
 20
19626.23571099999
 30
0.0
 11
25657.194538456231
 21
19626.23571099999
 31
0.0
  0
LINE
  5
B140
  8
1-後柱カバ-P
  6
HIDE-M
 62
     6
 10
25668.794538456219
 20
19620.23571099999
 30
0.0
 11
25657.194538456231
 21
19620.23571099999
 31
0.0
  0
LINE
  5
B141
  8
1-後柱カバ-P
 10
25667.794538456241
 20
19617.735711000001
 30
0.0
 11
25660.79453845623
 21
19617.735711000001
 31
0.0
  0
LINE
  5
B142
  8
1-後柱カバ-P
 10
25660.79453845623
 20
19628.735711000001
 30
0.0
 11
25667.794538456241
 21
19628.735711000001
 31
0.0
  0
LINE
  5
B143
  8
1-後柱カバ-P
 10
25660.79453845623
 20
19629.485711000001
 30
0.0
 11
25660.79453845623
 21
19616.985711000001
 31
0.0
  0
LINE
  5
B144
  8
1-後柱カバ-P
 10
25657.194538456231
 20
19629.235711000001
 30
0.0
 11
25657.194538456231
 21
19617.235711000001
 31
0.0
  0
LINE
  5
B145
  8
1-後柱カバ-P
  6
HIDE-M
 62
     6
 10
25659.294538456219
 20
19617.735711000001
 30
0.0
 11
25657.694538456239
 21
19617.735711000001
 31
0.0
  0
LINE
  5
B146
  8
1-後柱カバ-P
 10
25657.194538456231
 20
19617.235711000001
 30
0.0
 11
25657.694538456239
 21
19617.735711000001
 31
0.0
  0
ARC
  5
B147
  8
1-後柱カバ-P
 10
25660.044538456241
 20
19616.985711000001
 30
0.0
 40
0.75
 50
180.0
 51
0.0
  0
LINE
  5
B148
  8
1-後柱カバ-P
  6
HIDE-M
 62
     6
 10
25657.694538456239
 20
19628.735711000001
 30
0.0
 11
25659.294538456219
 21
19628.735711000001
 31
0.0
  0
LINE
  5
B149
  8
1-後柱カバ-P
 10
25657.194538456231
 20
19629.235711000001
 30
0.0
 11
25657.694538456239
 21
19628.735711000001
 31
0.0
  0
ARC
  5
B14A
  8
1-後柱カバ-P
 10
25660.044538456241
 20
19629.485711000001
 30
0.0
 40
0.75
 50
0.0
 51
180.0
  0
LINE
  5
B14B
  8
1-後柱カバ-P
 10
25668.794538456219
 20
19627.73571099999
 30
0.0
 11
25668.794538456219
 21
19618.735711000001
 31
0.0
  0
ARC
  5
B14C
  8
1-後柱カバ-P
 10
25667.794538456241
 20
19618.735711000001
 30
0.0
 40
1.0
 50
270.0
 51
0.0
  0
ARC
  5
B14D
  8
1-後柱カバ-P
 10
25667.794538456241
 20
19627.73571099999
 30
0.0
 40
1.0
 50
0.0
 51
90.0
  0
LINE
  5
B14E
  8
1-後柱カバ-P
  6
1PL-M
 62
     6
 10
25673.794538456241
 20
19623.23571099999
 30
0.0
 11
25652.194538456239
 21
19623.23571099999
 31
0.0
  0
LINE
  5
B14F
  8
1-後柱カバ-P
 10
25667.794538456241
 20
19607.735711000001
 30
0.0
 11
25660.79453845623
 21
19607.735711000001
 31
0.0
  0
LINE
  5
B150
  8
1-後柱カバ-P
 10
25657.194538456231
 20
19615.235711000001
 30
0.0
 11
25657.194538456231
 21
19607.235711000001
 31
0.0
  0
LINE
  5
B151
  8
1-後柱カバ-P
  6
HIDE-M
 62
     6
 10
25659.294538456219
 20
19607.735711000001
 30
0.0
 11
25657.694538456239
 21
19607.735711000001
 31
0.0
  0
LINE
  5
B152
  8
1-後柱カバ-P
 10
25657.194538456231
 20
19607.235711000001
 30
0.0
 11
25657.694538456239
 21
19607.735711000001
 31
0.0
  0
ARC
  5
B153
  8
1-後柱カバ-P
 10
25660.044538456241
 20
19606.985711000001
 30
0.0
 40
0.75
 50
180.0
 51
0.0
  0
LINE
  5
B154
  8
1-後柱カバ-P
 10
25668.794538456219
 20
19616.735711000001
 30
0.0
 11
25668.794538456219
 21
19608.735711000001
 31
0.0
  0
ARC
  5
B155
  8
1-後柱カバ-P
 10
25667.794538456241
 20
19608.735711000001
 30
0.0
 40
1.0
 50
270.0
 51
0.0
  0
LINE
  5
B156
  8
1-後柱カバ-P
  6
1PL-M
 62
     6
 10
25673.794538456241
 20
19613.235711000001
 30
0.0
 11
25652.194538456239
 21
19613.235711000001
 31
0.0
  0
LINE
  5
B157
  8
1-後柱カバ-P
 10
25660.79453845623
 20
19614.985711000001
 30
0.0
 11
25660.79453845623
 21
19606.985711000001
 31
0.0
  0
LINE
  5
B158
  8
1-後柱カバ-P
  6
HIDE-M
 62
     6
 10
25731.59453845624
 20
19609.235711000001
 30
0.0
 11
25743.194538456231
 21
19609.235711000001
 31
0.0
  0
LINE
  5
B159
  8
1-後柱カバ-P
  6
HIDE-M
 62
     6
 10
25731.59453845624
 20
19610.235711000001
 30
0.0
 11
25743.194538456231
 21
19610.235711000001
 31
0.0
  0
LINE
  5
B15A
  8
1-後柱カバ-P
  6
HIDE-M
 62
     6
 10
25668.794538456219
 20
19609.235711000001
 30
0.0
 11
25657.194538456231
 21
19609.235711000001
 31
0.0
  0
LINE
  5
B15B
  8
1-後柱カバ-P
  6
HIDE-M
 62
     6
 10
25668.794538456219
 20
19610.235711000001
 30
0.0
 11
25657.194538456231
 21
19610.235711000001
 31
0.0
  0
LINE
  5
B15C
  8
1-中柱P
 10
25736.094538456218
 20
16658.985711000001
 30
0.0
 11
25664.29453845623
 21
16658.985711000001
 31
0.0
  0
ARC
  5
B15D
  8
1-中柱P
 10
25736.094538456218
 20
16663.985711000001
 30
0.0
 40
5.0
 50
270.0
 51
0.0
  0
ARC
  5
B15E
  8
1-中柱P
 10
25664.29453845623
 20
16663.985711000001
 30
0.0
 40
5.0
 50
180.0
 51
270.0
  0
LINE
  5
B15F
  8
1-中柱P
 10
25736.094538456218
 20
16657.38571100001
 30
0.0
 11
25664.29453845623
 21
16657.38571100001
 31
0.0
  0
ARC
  5
B160
  8
1-中柱P
 10
25736.094538456218
 20
16663.985711000001
 30
0.0
 40
6.599999999999997
 50
270.0
 51
0.0
  0
LINE
  5
B161
  8
1-中柱P
 10
25657.694538456231
 20
16723.285711000011
 30
0.0
 11
25657.694538456231
 21
16663.985711000001
 31
0.0
  0
ARC
  5
B162
  8
1-中柱P
 10
25664.29453845623
 20
16663.985711000001
 30
0.0
 40
6.599999999999997
 50
180.0
 51
270.0
  0
LINE
  5
B163
  8
1-中柱P
 10
25659.294538456212
 20
16663.985711000001
 30
0.0
 11
25659.294538456212
 21
16723.285711000011
 31
0.0
  0
ARC
  5
B164
  8
1-中柱P
 10
25664.29453845623
 20
16723.285711000011
 30
0.0
 40
5.0
 50
90.0
 51
180.0
  0
LINE
  5
B165
  8
1-中柱P
 10
25742.694538456231
 20
16723.285711000011
 30
0.0
 11
25742.694538456231
 21
16663.985711000001
 31
0.0
  0
LINE
  5
B166
  8
1-中柱P
 10
25741.094538456218
 20
16663.985711000001
 30
0.0
 11
25741.094538456218
 21
16723.285711000011
 31
0.0
  0
LINE
  5
B167
  8
1-中柱P
 10
25736.094538456218
 20
16729.88571100001
 30
0.0
 11
25727.694538456231
 21
16729.88571100001
 31
0.0
  0
ARC
  5
B168
  8
1-中柱P
 10
25736.094538456218
 20
16723.285711000011
 30
0.0
 40
6.599999999999997
 50
0.0
 51
90.0
  0
LINE
  5
B169
  8
1-中柱P
 10
25736.094538456218
 20
16728.285711000011
 30
0.0
 11
25727.694538456231
 21
16728.285711000011
 31
0.0
  0
ARC
  5
B16A
  8
1-中柱P
 10
25727.694538456231
 20
16734.885710999999
 30
0.0
 40
6.599999999999997
 50
180.0
 51
270.0
  0
ARC
  5
B16B
  8
1-中柱P
 10
25736.094538456218
 20
16723.285711000011
 30
0.0
 40
5.0
 50
0.0
 51
90.0
  0
LINE
  5
B16C
  8
1-中柱P
 10
25722.694538456231
 20
16734.885710999999
 30
0.0
 11
25722.694538456231
 21
16794.285711
 31
0.0
  0
ARC
  5
B16D
  8
1-中柱P
 10
25727.694538456231
 20
16734.885710999999
 30
0.0
 40
5.0
 50
180.0
 51
270.0
  0
LINE
  5
B16E
  8
1-中柱P
 10
25721.094538456218
 20
16734.885710999999
 30
0.0
 11
25721.094538456218
 21
16794.285711
 31
0.0
  0
LINE
  5
B16F
  8
1-中柱P
 10
25716.094538456218
 20
16800.885710999992
 30
0.0
 11
25682.694538456231
 21
16800.885710999992
 31
0.0
  0
ARC
  5
B170
  8
1-中柱P
 10
25716.094538456218
 20
16794.285711
 30
0.0
 40
6.599999999999997
 50
0.0
 51
90.0
  0
LINE
  5
B171
  8
1-中柱P
 10
25716.094538456218
 20
16799.285711000011
 30
0.0
 11
25682.694538456231
 21
16799.285711000011
 31
0.0
  0
ARC
  5
B172
  8
1-中柱P
 10
25716.094538456218
 20
16794.285711
 30
0.0
 40
5.0
 50
0.0
 51
90.0
  0
LINE
  5
B173
  8
1-中柱P
 10
25682.694538456231
 20
16799.285711000011
 30
0.0
 11
25682.694538456231
 21
16800.885710999992
 31
0.0
  0
LINE
  5
B174
  8
1-中柱P
 10
25664.29453845623
 20
16729.88571100001
 30
0.0
 11
25672.694538456231
 21
16729.88571100001
 31
0.0
  0
ARC
  5
B175
  8
1-中柱P
 10
25664.29453845623
 20
16723.285711000011
 30
0.0
 40
6.599999999999997
 50
90.0
 51
180.0
  0
ARC
  5
B176
  8
1-中柱P
 10
25672.694538456231
 20
16734.885710999999
 30
0.0
 40
5.0
 50
270.0
 51
0.0
  0
LINE
  5
B177
  8
1-中柱P
 10
25672.694538456231
 20
16728.285711000011
 30
0.0
 11
25664.29453845623
 21
16728.285711000011
 31
0.0
  0
ARC
  5
B178
  8
1-中柱P
 10
25672.694538456231
 20
16734.885710999999
 30
0.0
 40
6.599999999999997
 50
270.0
 51
0.0
  0
ARC
  5
B179
  8
1-中柱P
  6
HIDE-M
 62
     6
 10
25706.79453845623
 20
16798.285711000011
 30
0.0
 40
2.6000000000000001
 50
90.0
 51
180.0
  0
LINE
  5
B17A
  8
1-中柱P
  6
HIDE-M
 62
     6
 10
25695.194538456231
 20
16800.335101153181
 30
0.0
 11
25695.194538456231
 21
16796.685710999991
 31
0.0
  0
LINE
  5
B17B
  8
1-中柱P
  6
HIDE-M
 62
     6
 10
25705.194538456231
 20
16800.335101153181
 30
0.0
 11
25705.194538456231
 21
16796.685710999991
 31
0.0
  0
LINE
  5
B17C
  8
1-中柱P
  6
1PL-M
 62
     6
 10
25700.194538456231
 20
16805.88571100001
 30
0.0
 11
25700.194538456231
 21
16791.685710999991
 31
0.0
  0
ARC
  5
B17D
  8
1-中柱P
  6
HIDE-M
 62
     6
 10
25693.594538456218
 20
16798.285711000011
 30
0.0
 40
2.6000000000000001
 50
0.0
 51
90.0
  0
LINE
  5
B17E
  8
1-中柱P
  6
HIDE-M
 62
     6
 10
25704.194538456231
 20
16798.285711000011
 30
0.0
 11
25704.194538456231
 21
16796.685710999991
 31
0.0
  0
LINE
  5
B17F
  8
1-中柱P
  6
HIDE-M
 62
     6
 10
25696.194538456231
 20
16798.285711000011
 30
0.0
 11
25696.194538456231
 21
16796.685710999991
 31
0.0
  0
LINE
  5
B180
  8
1-中柱P
 10
25679.29453845623
 20
16734.885710999999
 30
0.0
 11
25679.29453845623
 21
16744.885710999992
 31
0.0
  0
LINE
  5
B181
  8
1-中柱P
 10
25677.694538456231
 20
16734.885710999999
 30
0.0
 11
25677.694538456231
 21
16744.885710999992
 31
0.0
  0
LINE
  5
B182
  8
1-中柱P
 10
25679.29453845623
 20
16744.885710999992
 30
0.0
 11
25677.694538456231
 21
16744.885710999992
 31
0.0
  0
LINE
  5
B183
  8
1-中柱P
  6
1PL-M
 62
     6
 10
25727.694538456231
 20
16765.885710999992
 30
0.0
 11
25713.49453845622
 21
16765.885710999992
 31
0.0
  0
LINE
  5
B184
  8
1-中柱P
  6
HIDE-M
 62
     6
 10
25731.594538456218
 20
16708.885710999992
 30
0.0
 11
25743.194538456231
 21
16708.885710999992
 31
0.0
  0
LINE
  5
B185
  8
1-中柱P
  6
HIDE-M
 62
     6
 10
25731.594538456218
 20
16700.885710999992
 30
0.0
 11
25743.194538456231
 21
16700.885710999992
 31
0.0
  0
LINE
  5
B186
  8
1-中柱P
  6
HIDE-M
 62
     6
 10
25731.594538456218
 20
16707.88571100001
 30
0.0
 11
25743.194538456231
 21
16707.88571100001
 31
0.0
  0
LINE
  5
B187
  8
1-中柱P
  6
HIDE-M
 62
     6
 10
25731.594538456218
 20
16701.885710999992
 30
0.0
 11
25743.194538456231
 21
16701.885710999992
 31
0.0
  0
LINE
  5
B188
  8
1-中柱P
 10
25732.594538456218
 20
16699.38571100001
 30
0.0
 11
25739.594538456218
 21
16699.38571100001
 31
0.0
  0
LINE
  5
B189
  8
1-中柱P
 10
25739.594538456218
 20
16710.385710999992
 30
0.0
 11
25732.594538456218
 21
16710.385710999992
 31
0.0
  0
LINE
  5
B18A
  8
1-中柱P
 10
25739.594538456218
 20
16711.135710999999
 30
0.0
 11
25739.594538456218
 21
16698.635710999999
 31
0.0
  0
LINE
  5
B18B
  8
1-中柱P
 10
25743.194538456231
 20
16710.88571100001
 30
0.0
 11
25743.194538456231
 21
16698.885710999992
 31
0.0
  0
LINE
  5
B18C
  8
1-中柱P
  6
HIDE-M
 62
     6
 10
25741.094538456218
 20
16699.38571100001
 30
0.0
 11
25742.694538456231
 21
16699.38571100001
 31
0.0
  0
LINE
  5
B18D
  8
1-中柱P
 10
25743.194538456231
 20
16698.885710999992
 30
0.0
 11
25742.694538456231
 21
16699.38571100001
 31
0.0
  0
ARC
  5
B18E
  8
1-中柱P
 10
25740.344538456218
 20
16698.635710999999
 30
0.0
 40
0.75
 50
180.0
 51
0.0
  0
LINE
  5
B18F
  8
1-中柱P
  6
HIDE-M
 62
     6
 10
25742.694538456231
 20
16710.385710999992
 30
0.0
 11
25741.094538456218
 21
16710.385710999992
 31
0.0
  0
LINE
  5
B190
  8
1-中柱P
 10
25743.194538456231
 20
16710.88571100001
 30
0.0
 11
25742.694538456231
 21
16710.385710999992
 31
0.0
  0
ARC
  5
B191
  8
1-中柱P
 10
25740.344538456218
 20
16711.135710999999
 30
0.0
 40
0.75
 50
0.0
 51
180.0
  0
LINE
  5
B192
  8
1-中柱P
 10
25731.594538456218
 20
16709.385710999992
 30
0.0
 11
25731.594538456218
 21
16700.385710999992
 31
0.0
  0
ARC
  5
B193
  8
1-中柱P
 10
25732.594538456218
 20
16700.385710999992
 30
0.0
 40
1.0
 50
180.0
 51
270.0
  0
ARC
  5
B194
  8
1-中柱P
 10
25732.594538456218
 20
16709.385710999992
 30
0.0
 40
1.0
 50
90.0
 51
180.0
  0
LINE
  5
B195
  8
1-中柱P
  6
1PL-M
 62
     6
 10
25726.594538456218
 20
16704.885710999992
 30
0.0
 11
25748.194538456231
 21
16704.885710999992
 31
0.0
  0
LINE
  5
B196
  8
1-中柱P
 10
25732.594538456218
 20
16689.385710999992
 30
0.0
 11
25739.594538456218
 21
16689.385710999992
 31
0.0
  0
LINE
  5
B197
  8
1-中柱P
 10
25743.194538456231
 20
16696.885710999999
 30
0.0
 11
25743.194538456231
 21
16688.885710999992
 31
0.0
  0
LINE
  5
B198
  8
1-中柱P
  6
HIDE-M
 62
     6
 10
25741.094538456218
 20
16689.385710999992
 30
0.0
 11
25742.694538456231
 21
16689.385710999992
 31
0.0
  0
LINE
  5
B199
  8
1-中柱P
 10
25743.194538456231
 20
16688.885710999992
 30
0.0
 11
25742.694538456231
 21
16689.385710999992
 31
0.0
  0
ARC
  5
B19A
  8
1-中柱P
 10
25740.344538456218
 20
16688.635710999992
 30
0.0
 40
0.75
 50
180.0
 51
0.0
  0
LINE
  5
B19B
  8
1-中柱P
 10
25731.594538456218
 20
16698.38571100001
 30
0.0
 11
25731.594538456218
 21
16690.385710999992
 31
0.0
  0
ARC
  5
B19C
  8
1-中柱P
 10
25732.594538456218
 20
16690.385710999992
 30
0.0
 40
1.0
 50
180.0
 51
270.0
  0
LINE
  5
B19D
  8
1-中柱P
  6
1PL-M
 62
     6
 10
25726.594538456218
 20
16694.885710999999
 30
0.0
 11
25748.194538456231
 21
16694.885710999999
 31
0.0
  0
LINE
  5
B19E
  8
1-中柱P
 10
25739.594538456218
 20
16696.635710999999
 30
0.0
 11
25739.594538456218
 21
16688.635710999992
 31
0.0
  0
LINE
  5
B19F
  8
1-中柱P
  6
HIDE-M
 62
     6
 10
25731.594538456218
 20
16690.885710999999
 30
0.0
 11
25743.194538456231
 21
16690.885710999999
 31
0.0
  0
LINE
  5
B1A0
  8
1-中柱P
  6
HIDE-M
 62
     6
 10
25731.594538456218
 20
16691.88571100001
 30
0.0
 11
25743.194538456231
 21
16691.88571100001
 31
0.0
  0
LINE
  5
B1A1
  8
1-中柱P
  6
HIDE-M
 62
     6
 10
25668.794538456212
 20
16708.885710999992
 30
0.0
 11
25657.194538456231
 21
16708.885710999992
 31
0.0
  0
LINE
  5
B1A2
  8
1-中柱P
  6
HIDE-M
 62
     6
 10
25668.794538456212
 20
16700.885710999992
 30
0.0
 11
25657.194538456231
 21
16700.885710999992
 31
0.0
  0
LINE
  5
B1A3
  8
1-中柱P
  6
HIDE-M
 62
     6
 10
25668.794538456212
 20
16707.88571100001
 30
0.0
 11
25657.194538456231
 21
16707.88571100001
 31
0.0
  0
LINE
  5
B1A4
  8
1-中柱P
  6
HIDE-M
 62
     6
 10
25668.794538456212
 20
16701.885710999992
 30
0.0
 11
25657.194538456231
 21
16701.885710999992
 31
0.0
  0
LINE
  5
B1A5
  8
1-中柱P
 10
25667.79453845623
 20
16699.38571100001
 30
0.0
 11
25660.79453845623
 21
16699.38571100001
 31
0.0
  0
LINE
  5
B1A6
  8
1-中柱P
 10
25660.79453845623
 20
16710.385710999992
 30
0.0
 11
25667.79453845623
 21
16710.385710999992
 31
0.0
  0
LINE
  5
B1A7
  8
1-中柱P
 10
25660.79453845623
 20
16711.135710999999
 30
0.0
 11
25660.79453845623
 21
16698.635710999999
 31
0.0
  0
LINE
  5
B1A8
  8
1-中柱P
 10
25657.194538456231
 20
16710.88571100001
 30
0.0
 11
25657.194538456231
 21
16698.885710999992
 31
0.0
  0
LINE
  5
B1A9
  8
1-中柱P
  6
HIDE-M
 62
     6
 10
25659.294538456212
 20
16699.38571100001
 30
0.0
 11
25657.694538456231
 21
16699.38571100001
 31
0.0
  0
LINE
  5
B1AA
  8
1-中柱P
 10
25657.194538456231
 20
16698.885710999992
 30
0.0
 11
25657.694538456231
 21
16699.38571100001
 31
0.0
  0
ARC
  5
B1AB
  8
1-中柱P
 10
25660.04453845623
 20
16698.635710999999
 30
0.0
 40
0.75
 50
180.0
 51
0.0
  0
LINE
  5
B1AC
  8
1-中柱P
  6
HIDE-M
 62
     6
 10
25657.694538456231
 20
16710.385710999992
 30
0.0
 11
25659.294538456212
 21
16710.385710999992
 31
0.0
  0
LINE
  5
B1AD
  8
1-中柱P
 10
25657.194538456231
 20
16710.88571100001
 30
0.0
 11
25657.694538456231
 21
16710.385710999992
 31
0.0
  0
ARC
  5
B1AE
  8
1-中柱P
 10
25660.04453845623
 20
16711.135710999999
 30
0.0
 40
0.75
 50
0.0
 51
180.0
  0
LINE
  5
B1AF
  8
1-中柱P
 10
25668.794538456212
 20
16709.385710999992
 30
0.0
 11
25668.794538456212
 21
16700.385710999992
 31
0.0
  0
ARC
  5
B1B0
  8
1-中柱P
 10
25667.79453845623
 20
16700.385710999992
 30
0.0
 40
1.0
 50
270.0
 51
0.0
  0
ARC
  5
B1B1
  8
1-中柱P
 10
25667.79453845623
 20
16709.385710999992
 30
0.0
 40
1.0
 50
0.0
 51
90.0
  0
LINE
  5
B1B2
  8
1-中柱P
  6
1PL-M
 62
     6
 10
25673.79453845623
 20
16704.885710999992
 30
0.0
 11
25652.194538456231
 21
16704.885710999992
 31
0.0
  0
LINE
  5
B1B3
  8
1-中柱P
 10
25667.79453845623
 20
16689.385710999992
 30
0.0
 11
25660.79453845623
 21
16689.385710999992
 31
0.0
  0
LINE
  5
B1B4
  8
1-中柱P
 10
25657.194538456231
 20
16696.885710999999
 30
0.0
 11
25657.194538456231
 21
16688.885710999992
 31
0.0
  0
LINE
  5
B1B5
  8
1-中柱P
  6
HIDE-M
 62
     6
 10
25659.294538456212
 20
16689.385710999992
 30
0.0
 11
25657.694538456231
 21
16689.385710999992
 31
0.0
  0
LINE
  5
B1B6
  8
1-中柱P
 10
25657.194538456231
 20
16688.885710999992
 30
0.0
 11
25657.694538456231
 21
16689.385710999992
 31
0.0
  0
ARC
  5
B1B7
  8
1-中柱P
 10
25660.04453845623
 20
16688.635710999992
 30
0.0
 40
0.75
 50
180.0
 51
0.0
  0
LINE
  5
B1B8
  8
1-中柱P
 10
25668.794538456212
 20
16698.38571100001
 30
0.0
 11
25668.794538456212
 21
16690.385710999992
 31
0.0
  0
ARC
  5
B1B9
  8
1-中柱P
 10
25667.79453845623
 20
16690.385710999992
 30
0.0
 40
1.0
 50
270.0
 51
0.0
  0
LINE
  5
B1BA
  8
1-中柱P
  6
1PL-M
 62
     6
 10
25673.79453845623
 20
16694.885710999999
 30
0.0
 11
25652.194538456231
 21
16694.885710999999
 31
0.0
  0
LINE
  5
B1BB
  8
1-中柱P
 10
25660.79453845623
 20
16696.635710999999
 30
0.0
 11
25660.79453845623
 21
16688.635710999992
 31
0.0
  0
LINE
  5
B1BC
  8
1-中柱P
  6
HIDE-M
 62
     6
 10
25668.794538456212
 20
16690.885710999999
 30
0.0
 11
25657.194538456231
 21
16690.885710999999
 31
0.0
  0
LINE
  5
B1BD
  8
1-中柱P
  6
HIDE-M
 62
     6
 10
25668.794538456212
 20
16691.88571100001
 30
0.0
 11
25657.194538456231
 21
16691.88571100001
 31
0.0
  0
LINE
  5
B1BE
  8
1-中柱カバ-P
 10
25657.694538456231
 20
16736.585711
 30
0.0
 11
25657.694538456231
 21
16795.885710999999
 31
0.0
  0
ARC
  5
B1BF
  8
1-中柱カバ-P
 10
25664.29453845623
 20
16795.885710999999
 30
0.0
 40
6.599999999999997
 50
90.0
 51
180.0
  0
LINE
  5
B1C0
  8
1-中柱カバ-P
 10
25659.294538456212
 20
16736.585711
 30
0.0
 11
25659.294538456212
 21
16795.885710999999
 31
0.0
  0
ARC
  5
B1C1
  8
1-中柱カバ-P
 10
25664.29453845623
 20
16736.585711
 30
0.0
 40
5.0
 50
180.0
 51
270.0
  0
LINE
  5
B1C2
  8
1-中柱カバ-P
 10
25664.29453845623
 20
16802.485711000001
 30
0.0
 11
25736.094538456218
 21
16802.485711000001
 31
0.0
  0
ARC
  5
B1C3
  8
1-中柱カバ-P
 10
25736.094538456218
 20
16795.885710999999
 30
0.0
 40
6.599999999999997
 50
0.0
 51
90.0
  0
LINE
  5
B1C4
  8
1-中柱カバ-P
 10
25664.29453845623
 20
16800.885710999992
 30
0.0
 11
25736.094538456218
 21
16800.885710999992
 31
0.0
  0
ARC
  5
B1C5
  8
1-中柱カバ-P
 10
25736.094538456218
 20
16795.885710999999
 30
0.0
 40
5.0
 50
0.0
 51
90.0
  0
ARC
  5
B1C6
  8
1-中柱カバ-P
 10
25664.29453845623
 20
16795.885710999999
 30
0.0
 40
5.0
 50
90.0
 51
180.0
  0
LINE
  5
B1C7
  8
1-中柱カバ-P
 10
25742.694538456231
 20
16795.885710999999
 30
0.0
 11
25742.694538456231
 21
16736.585711
 31
0.0
  0
LINE
  5
B1C8
  8
1-中柱カバ-P
 10
25741.094538456218
 20
16795.885710999999
 30
0.0
 11
25741.094538456218
 21
16736.585711
 31
0.0
  0
ARC
  5
B1C9
  8
1-中柱カバ-P
 10
25736.094538456218
 20
16736.585711
 30
0.0
 40
5.0
 50
270.0
 51
0.0
  0
LINE
  5
B1CA
  8
1-中柱カバ-P
  6
1PL-M
 62
     6
 10
25700.194538456231
 20
16794.985711000001
 30
0.0
 11
25700.194538456231
 21
16807.985711000001
 31
0.0
  0
LINE
  5
B1CB
  8
1-中柱カバ-P
  6
HIDE-M
 62
     6
 10
25693.194538456231
 20
16802.485711000001
 30
0.0
 11
25693.194538456231
 21
16800.885710999992
 31
0.0
  0
LINE
  5
B1CC
  8
1-中柱カバ-P
  6
HIDE-M
 62
     6
 10
25707.194538456231
 20
16802.485711000001
 30
0.0
 11
25707.194538456231
 21
16800.885710999992
 31
0.0
  0
ARC
  5
B1CD
  8
1-中柱カバ-P
 10
25664.29453845623
 20
16736.585711
 30
0.0
 40
6.599999999999997
 50
180.0
 51
270.0
  0
ARC
  5
B1CE
  8
1-中柱カバ-P
 10
25736.094538456218
 20
16736.585711
 30
0.0
 40
6.599999999999997
 50
270.0
 51
0.0
  0
LINE
  5
B1CF
  8
1-中柱カバ-P
 10
25727.694538456231
 20
16729.985711000001
 30
0.0
 11
25736.094538456218
 21
16729.985711000001
 31
0.0
  0
LINE
  5
B1D0
  8
1-中柱カバ-P
 10
25672.694538456231
 20
16729.985711000001
 30
0.0
 11
25664.29453845623
 21
16729.985711000001
 31
0.0
  0
LINE
  5
B1D1
  8
1-中柱カバ-P
 10
25727.694538456231
 20
16731.585711
 30
0.0
 11
25736.094538456218
 21
16731.585711
 31
0.0
  0
LINE
  5
B1D2
  8
1-中柱カバ-P
 10
25672.694538456231
 20
16731.585711
 30
0.0
 11
25664.29453845623
 21
16731.585711
 31
0.0
  0
LINE
  5
B1D3
  8
1-中柱カバ-P
 10
25672.694538456231
 20
16731.585711
 30
0.0
 11
25672.694538456231
 21
16729.985711000001
 31
0.0
  0
LINE
  5
B1D4
  8
1-中柱カバ-P
 10
25727.694538456231
 20
16729.985711000001
 30
0.0
 11
25727.694538456231
 21
16731.585711
 31
0.0
  0
LINE
  5
B1D5
  8
1-中柱カバ-P
  6
HIDE-M
 62
     6
 10
25731.594538456218
 20
16750.985711000001
 30
0.0
 11
25743.194538456231
 21
16750.985711000001
 31
0.0
  0
LINE
  5
B1D6
  8
1-中柱カバ-P
  6
HIDE-M
 62
     6
 10
25731.594538456218
 20
16758.985711000001
 30
0.0
 11
25743.194538456231
 21
16758.985711000001
 31
0.0
  0
LINE
  5
B1D7
  8
1-中柱カバ-P
  6
HIDE-M
 62
     6
 10
25731.594538456218
 20
16751.985711000001
 30
0.0
 11
25743.194538456231
 21
16751.985711000001
 31
0.0
  0
LINE
  5
B1D8
  8
1-中柱カバ-P
  6
HIDE-M
 62
     6
 10
25731.594538456218
 20
16757.985711000001
 30
0.0
 11
25743.194538456231
 21
16757.985711000001
 31
0.0
  0
LINE
  5
B1D9
  8
1-中柱カバ-P
 10
25732.594538456218
 20
16760.485711000001
 30
0.0
 11
25739.594538456218
 21
16760.485711000001
 31
0.0
  0
LINE
  5
B1DA
  8
1-中柱カバ-P
 10
25739.594538456218
 20
16749.485711000001
 30
0.0
 11
25732.594538456218
 21
16749.485711000001
 31
0.0
  0
LINE
  5
B1DB
  8
1-中柱カバ-P
 10
25739.594538456218
 20
16748.735711000001
 30
0.0
 11
25739.594538456218
 21
16761.235711000001
 31
0.0
  0
LINE
  5
B1DC
  8
1-中柱カバ-P
 10
25743.194538456231
 20
16748.985711000001
 30
0.0
 11
25743.194538456231
 21
16760.985711000001
 31
0.0
  0
LINE
  5
B1DD
  8
1-中柱カバ-P
  6
HIDE-M
 62
     6
 10
25741.094538456218
 20
16760.485711000001
 30
0.0
 11
25742.694538456231
 21
16760.485711000001
 31
0.0
  0
LINE
  5
B1DE
  8
1-中柱カバ-P
 10
25743.194538456231
 20
16760.985711000001
 30
0.0
 11
25742.694538456231
 21
16760.485711000001
 31
0.0
  0
ARC
  5
B1DF
  8
1-中柱カバ-P
 10
25740.344538456218
 20
16761.235711000001
 30
0.0
 40
0.75
 50
0.0
 51
180.0
  0
LINE
  5
B1E0
  8
1-中柱カバ-P
  6
HIDE-M
 62
     6
 10
25742.694538456231
 20
16749.485711000001
 30
0.0
 11
25741.094538456218
 21
16749.485711000001
 31
0.0
  0
LINE
  5
B1E1
  8
1-中柱カバ-P
 10
25743.194538456231
 20
16748.985711000001
 30
0.0
 11
25742.694538456231
 21
16749.485711000001
 31
0.0
  0
ARC
  5
B1E2
  8
1-中柱カバ-P
 10
25740.344538456218
 20
16748.735711000001
 30
0.0
 40
0.75
 50
180.0
 51
0.0
  0
LINE
  5
B1E3
  8
1-中柱カバ-P
 10
25731.594538456218
 20
16750.485711000001
 30
0.0
 11
25731.594538456218
 21
16759.485711000001
 31
0.0
  0
ARC
  5
B1E4
  8
1-中柱カバ-P
 10
25732.594538456218
 20
16759.485711000001
 30
0.0
 40
1.0
 50
90.0
 51
180.0
  0
ARC
  5
B1E5
  8
1-中柱カバ-P
 10
25732.594538456218
 20
16750.485711000001
 30
0.0
 40
1.0
 50
180.0
 51
270.0
  0
LINE
  5
B1E6
  8
1-中柱カバ-P
  6
1PL-M
 62
     6
 10
25726.594538456218
 20
16754.985711000001
 30
0.0
 11
25748.194538456231
 21
16754.985711000001
 31
0.0
  0
LINE
  5
B1E7
  8
1-中柱カバ-P
 10
25732.594538456218
 20
16770.485711000001
 30
0.0
 11
25739.594538456218
 21
16770.485711000001
 31
0.0
  0
LINE
  5
B1E8
  8
1-中柱カバ-P
 10
25743.194538456231
 20
16762.985711000001
 30
0.0
 11
25743.194538456231
 21
16770.985711000001
 31
0.0
  0
LINE
  5
B1E9
  8
1-中柱カバ-P
  6
HIDE-M
 62
     6
 10
25741.094538456218
 20
16770.485711000001
 30
0.0
 11
25742.694538456231
 21
16770.485711000001
 31
0.0
  0
LINE
  5
B1EA
  8
1-中柱カバ-P
 10
25743.194538456231
 20
16770.985711000001
 30
0.0
 11
25742.694538456231
 21
16770.485711000001
 31
0.0
  0
ARC
  5
B1EB
  8
1-中柱カバ-P
 10
25740.344538456218
 20
16771.235711000001
 30
0.0
 40
0.75
 50
0.0
 51
180.0
  0
LINE
  5
B1EC
  8
1-中柱カバ-P
 10
25731.594538456218
 20
16761.485711000001
 30
0.0
 11
25731.594538456218
 21
16769.485711000001
 31
0.0
  0
ARC
  5
B1ED
  8
1-中柱カバ-P
 10
25732.594538456218
 20
16769.485711000001
 30
0.0
 40
1.0
 50
90.0
 51
180.0
  0
LINE
  5
B1EE
  8
1-中柱カバ-P
  6
1PL-M
 62
     6
 10
25726.594538456218
 20
16764.985711000001
 30
0.0
 11
25748.194538456231
 21
16764.985711000001
 31
0.0
  0
LINE
  5
B1EF
  8
1-中柱カバ-P
 10
25739.594538456218
 20
16763.235711000001
 30
0.0
 11
25739.594538456218
 21
16771.235711000001
 31
0.0
  0
LINE
  5
B1F0
  8
1-中柱カバ-P
  6
HIDE-M
 62
     6
 10
25668.794538456212
 20
16750.985711000001
 30
0.0
 11
25657.194538456231
 21
16750.985711000001
 31
0.0
  0
LINE
  5
B1F1
  8
1-中柱カバ-P
  6
HIDE-M
 62
     6
 10
25668.794538456212
 20
16758.985711000001
 30
0.0
 11
25657.194538456231
 21
16758.985711000001
 31
0.0
  0
LINE
  5
B1F2
  8
1-中柱カバ-P
  6
HIDE-M
 62
     6
 10
25668.794538456212
 20
16751.985711000001
 30
0.0
 11
25657.194538456231
 21
16751.985711000001
 31
0.0
  0
LINE
  5
B1F3
  8
1-中柱カバ-P
  6
HIDE-M
 62
     6
 10
25668.794538456212
 20
16757.985711000001
 30
0.0
 11
25657.194538456231
 21
16757.985711000001
 31
0.0
  0
LINE
  5
B1F4
  8
1-中柱カバ-P
 10
25667.79453845623
 20
16760.485711000001
 30
0.0
 11
25660.79453845623
 21
16760.485711000001
 31
0.0
  0
LINE
  5
B1F5
  8
1-中柱カバ-P
 10
25660.79453845623
 20
16749.485711000001
 30
0.0
 11
25667.79453845623
 21
16749.485711000001
 31
0.0
  0
LINE
  5
B1F6
  8
1-中柱カバ-P
 10
25660.79453845623
 20
16748.735711000001
 30
0.0
 11
25660.79453845623
 21
16761.235711000001
 31
0.0
  0
LINE
  5
B1F7
  8
1-中柱カバ-P
 10
25657.194538456231
 20
16748.985711000001
 30
0.0
 11
25657.194538456231
 21
16760.985711000001
 31
0.0
  0
LINE
  5
B1F8
  8
1-中柱カバ-P
  6
HIDE-M
 62
     6
 10
25659.294538456212
 20
16760.485711000001
 30
0.0
 11
25657.694538456231
 21
16760.485711000001
 31
0.0
  0
LINE
  5
B1F9
  8
1-中柱カバ-P
 10
25657.194538456231
 20
16760.985711000001
 30
0.0
 11
25657.694538456231
 21
16760.485711000001
 31
0.0
  0
ARC
  5
B1FA
  8
1-中柱カバ-P
 10
25660.04453845623
 20
16761.235711000001
 30
0.0
 40
0.75
 50
0.0
 51
180.0
  0
LINE
  5
B1FB
  8
1-中柱カバ-P
  6
HIDE-M
 62
     6
 10
25657.694538456231
 20
16749.485711000001
 30
0.0
 11
25659.294538456212
 21
16749.485711000001
 31
0.0
  0
LINE
  5
B1FC
  8
1-中柱カバ-P
 10
25657.194538456231
 20
16748.985711000001
 30
0.0
 11
25657.694538456231
 21
16749.485711000001
 31
0.0
  0
ARC
  5
B1FD
  8
1-中柱カバ-P
 10
25660.04453845623
 20
16748.735711000001
 30
0.0
 40
0.75
 50
180.0
 51
0.0
  0
LINE
  5
B1FE
  8
1-中柱カバ-P
 10
25668.794538456212
 20
16750.485711000001
 30
0.0
 11
25668.794538456212
 21
16759.485711000001
 31
0.0
  0
ARC
  5
B1FF
  8
1-中柱カバ-P
 10
25667.79453845623
 20
16759.485711000001
 30
0.0
 40
1.0
 50
0.0
 51
90.0
  0
ARC
  5
B200
  8
1-中柱カバ-P
 10
25667.79453845623
 20
16750.485711000001
 30
0.0
 40
1.0
 50
270.0
 51
0.0
  0
LINE
  5
B201
  8
1-中柱カバ-P
  6
1PL-M
 62
     6
 10
25673.79453845623
 20
16754.985711000001
 30
0.0
 11
25652.194538456231
 21
16754.985711000001
 31
0.0
  0
LINE
  5
B202
  8
1-中柱カバ-P
 10
25667.79453845623
 20
16770.485711000001
 30
0.0
 11
25660.79453845623
 21
16770.485711000001
 31
0.0
  0
LINE
  5
B203
  8
1-中柱カバ-P
 10
25657.194538456231
 20
16762.985711000001
 30
0.0
 11
25657.194538456231
 21
16770.985711000001
 31
0.0
  0
LINE
  5
B204
  8
1-中柱カバ-P
  6
HIDE-M
 62
     6
 10
25659.294538456212
 20
16770.485711000001
 30
0.0
 11
25657.694538456231
 21
16770.485711000001
 31
0.0
  0
LINE
  5
B205
  8
1-中柱カバ-P
 10
25657.194538456231
 20
16770.985711000001
 30
0.0
 11
25657.694538456231
 21
16770.485711000001
 31
0.0
  0
ARC
  5
B206
  8
1-中柱カバ-P
 10
25660.04453845623
 20
16771.235711000001
 30
0.0
 40
0.75
 50
0.0
 51
180.0
  0
LINE
  5
B207
  8
1-中柱カバ-P
 10
25668.794538456212
 20
16761.485711000001
 30
0.0
 11
25668.794538456212
 21
16769.485711000001
 31
0.0
  0
ARC
  5
B208
  8
1-中柱カバ-P
 10
25667.79453845623
 20
16769.485711000001
 30
0.0
 40
1.0
 50
0.0
 51
90.0
  0
LINE
  5
B209
  8
1-中柱カバ-P
  6
1PL-M
 62
     6
 10
25673.79453845623
 20
16764.985711000001
 30
0.0
 11
25652.194538456231
 21
16764.985711000001
 31
0.0
  0
LINE
  5
B20A
  8
1-中柱カバ-P
 10
25660.79453845623
 20
16763.235711000001
 30
0.0
 11
25660.79453845623
 21
16771.235711000001
 31
0.0
  0
LINE
  5
B20B
  8
1-中柱カバ-P
  6
HIDE-M
 62
     6
 10
25731.594538456218
 20
16768.985711000001
 30
0.0
 11
25743.194538456231
 21
16768.985711000001
 31
0.0
  0
LINE
  5
B20C
  8
1-中柱カバ-P
  6
HIDE-M
 62
     6
 10
25731.594538456218
 20
16767.985711000001
 30
0.0
 11
25743.194538456231
 21
16767.985711000001
 31
0.0
  0
LINE
  5
B20D
  8
1-中柱カバ-P
  6
HIDE-M
 62
     6
 10
25668.794538456212
 20
16768.985711000001
 30
0.0
 11
25657.194538456231
 21
16768.985711000001
 31
0.0
  0
LINE
  5
B20E
  8
1-中柱カバ-P
  6
HIDE-M
 62
     6
 10
25668.794538456212
 20
16767.985711000001
 30
0.0
 11
25657.194538456231
 21
16767.985711000001
 31
0.0
  0
ARC
  5
B20F
  8
1-前柱P
  6
HIDE-M
 62
     6
 10
25696.594538456211
 20
13529.885711000001
 30
0.0
 40
2.6000000000000001
 50
0.0
 51
90.0
  0
LINE
  5
B210
  8
1-前柱P
  6
HIDE-M
 62
     6
 10
25708.194538456231
 20
13531.9351011532
 30
0.0
 11
25708.194538456231
 21
13528.285711
 31
0.0
  0
LINE
  5
B211
  8
1-前柱P
  6
HIDE-M
 62
     6
 10
25698.194538456231
 20
13531.9351011532
 30
0.0
 11
25698.194538456231
 21
13528.285711
 31
0.0
  0
LINE
  5
B212
  8
1-前柱P
  6
1PL-M
 62
     6
 10
25703.194538456231
 20
13537.48571099999
 30
0.0
 11
25703.194538456231
 21
13523.285711
 31
0.0
  0
ARC
  5
B213
  8
1-前柱P
  6
HIDE-M
 62
     6
 10
25709.79453845623
 20
13529.885711000001
 30
0.0
 40
2.6000000000000001
 50
90.0
 51
180.0
  0
LINE
  5
B214
  8
1-前柱P
  6
HIDE-M
 62
     6
 10
25699.194538456231
 20
13529.885711000001
 30
0.0
 11
25699.194538456231
 21
13528.285711
 31
0.0
  0
LINE
  5
B215
  8
1-前柱P
  6
HIDE-M
 62
     6
 10
25707.194538456231
 20
13529.885711000001
 30
0.0
 11
25707.194538456231
 21
13528.285711
 31
0.0
  0
LINE
  5
B216
  8
1-前柱P
 10
25689.29453845623
 20
13417.585711000011
 30
0.0
 11
25711.09453845624
 21
13417.585711000011
 31
0.0
  0
LINE
  5
B217
  8
1-前柱P
 10
25741.094538456218
 20
13454.885711000001
 30
0.0
 11
25741.094538456218
 21
13447.585711000011
 31
0.0
  0
ARC
  5
B218
  8
1-前柱P
 10
25711.09453845624
 20
13447.585711000011
 30
0.0
 40
30.0
 50
270.0
 51
0.0
  0
ARC
  5
B219
  8
1-前柱P
 10
25711.09453845624
 20
13447.585711000011
 30
0.0
 40
31.600000000000001
 50
270.0
 51
0.0
  0
LINE
  5
B21A
  8
1-前柱P
 10
25689.29453845623
 20
13415.985710999999
 30
0.0
 11
25711.09453845624
 21
13415.985710999999
 31
0.0
  0
LINE
  5
B21B
  8
1-前柱P
 10
25742.694538456231
 20
13454.885711000001
 30
0.0
 11
25742.694538456231
 21
13447.585711000011
 31
0.0
  0
LINE
  5
B21C
  8
1-前柱P
 10
25719.694538456231
 20
13476.48571099999
 30
0.0
 11
25719.694538456231
 21
13466.485710999999
 31
0.0
  0
LINE
  5
B21D
  8
1-前柱P
 10
25718.094538456218
 20
13466.485710999999
 30
0.0
 11
25718.094538456218
 21
13476.48571099999
 31
0.0
  0
LINE
  5
B21E
  8
1-前柱P
 10
25659.294538456219
 20
13454.885711000001
 30
0.0
 11
25659.294538456219
 21
13447.585711000011
 31
0.0
  0
ARC
  5
B21F
  8
1-前柱P
 10
25689.29453845623
 20
13447.585711000011
 30
0.0
 40
30.0
 50
180.0
 51
270.0
  0
ARC
  5
B220
  8
1-前柱P
 10
25689.29453845623
 20
13447.585711000011
 30
0.0
 40
31.600000000000001
 50
180.0
 51
270.0
  0
LINE
  5
B221
  8
1-前柱P
 10
25657.694538456231
 20
13454.885711000001
 30
0.0
 11
25657.694538456231
 21
13447.585711000011
 31
0.0
  0
LINE
  5
B222
  8
1-前柱P
 10
25664.29453845623
 20
13461.485710999999
 30
0.0
 11
25675.694538456231
 21
13461.485710999999
 31
0.0
  0
ARC
  5
B223
  8
1-前柱P
 10
25664.29453845623
 20
13454.885711000001
 30
0.0
 40
6.599999999999997
 50
90.0
 51
180.0
  0
ARC
  5
B224
  8
1-前柱P
 10
25675.694538456231
 20
13466.485710999999
 30
0.0
 40
5.0
 50
270.0
 51
0.0
  0
LINE
  5
B225
  8
1-前柱P
 10
25664.29453845623
 20
13459.885711000001
 30
0.0
 11
25675.694538456231
 21
13459.885711000001
 31
0.0
  0
ARC
  5
B226
  8
1-前柱P
 10
25664.29453845623
 20
13454.885711000001
 30
0.0
 40
5.0
 50
90.0
 51
180.0
  0
LINE
  5
B227
  8
1-前柱P
 10
25680.694538456231
 20
13466.485710999999
 30
0.0
 11
25680.694538456231
 21
13525.885711000001
 31
0.0
  0
LINE
  5
B228
  8
1-前柱P
 10
25682.294538456219
 20
13466.485710999999
 30
0.0
 11
25682.294538456219
 21
13525.885711000001
 31
0.0
  0
ARC
  5
B229
  8
1-前柱P
 10
25675.694538456231
 20
13466.485710999999
 30
0.0
 40
6.599999999999997
 50
270.0
 51
0.0
  0
LINE
  5
B22A
  8
1-前柱P
 10
25687.29453845623
 20
13532.48571099999
 30
0.0
 11
25720.694538456231
 21
13532.48571099999
 31
0.0
  0
ARC
  5
B22B
  8
1-前柱P
 10
25687.29453845623
 20
13525.885711000001
 30
0.0
 40
6.599999999999997
 50
90.0
 51
180.0
  0
LINE
  5
B22C
  8
1-前柱P
 10
25687.29453845623
 20
13530.885711000001
 30
0.0
 11
25720.694538456231
 21
13530.885711000001
 31
0.0
  0
ARC
  5
B22D
  8
1-前柱P
 10
25687.29453845623
 20
13525.885711000001
 30
0.0
 40
5.0
 50
90.0
 51
180.0
  0
LINE
  5
B22E
  8
1-前柱P
 10
25720.694538456231
 20
13530.885711000001
 30
0.0
 11
25720.694538456231
 21
13532.48571099999
 31
0.0
  0
LINE
  5
B22F
  8
1-前柱P
 10
25736.09453845624
 20
13461.485710999999
 30
0.0
 11
25724.694538456231
 21
13461.485710999999
 31
0.0
  0
ARC
  5
B230
  8
1-前柱P
 10
25736.09453845624
 20
13454.885711000001
 30
0.0
 40
6.599999999999997
 50
0.0
 51
90.0
  0
ARC
  5
B231
  8
1-前柱P
 10
25724.694538456231
 20
13466.485710999999
 30
0.0
 40
5.0
 50
180.0
 51
270.0
  0
LINE
  5
B232
  8
1-前柱P
 10
25724.694538456231
 20
13459.885711000001
 30
0.0
 11
25736.09453845624
 21
13459.885711000001
 31
0.0
  0
ARC
  5
B233
  8
1-前柱P
 10
25724.694538456231
 20
13466.485710999999
 30
0.0
 40
6.599999999999997
 50
180.0
 51
270.0
  0
ARC
  5
B234
  8
1-前柱P
 10
25736.09453845624
 20
13454.885711000001
 30
0.0
 40
5.0
 50
0.0
 51
90.0
  0
LINE
  5
B235
  8
1-前柱P
 10
25719.694538456231
 20
13476.48571099999
 30
0.0
 11
25718.094538456218
 21
13476.48571099999
 31
0.0
  0
LINE
  5
B236
  8
1-前柱カバ-P
 10
25742.694538456231
 20
13468.185711
 30
0.0
 11
25742.694538456231
 21
13527.485710999999
 31
0.0
  0
ARC
  5
B237
  8
1-前柱カバ-P
 10
25736.09453845624
 20
13527.485710999999
 30
0.0
 40
6.599999999999997
 50
0.0
 51
90.0
  0
LINE
  5
B238
  8
1-前柱カバ-P
 10
25741.094538456218
 20
13468.185711
 30
0.0
 11
25741.094538456218
 21
13527.485710999999
 31
0.0
  0
ARC
  5
B239
  8
1-前柱カバ-P
 10
25736.09453845624
 20
13468.185711
 30
0.0
 40
5.0
 50
270.0
 51
0.0
  0
LINE
  5
B23A
  8
1-前柱カバ-P
 10
25736.09453845624
 20
13534.085711
 30
0.0
 11
25664.29453845623
 21
13534.085711
 31
0.0
  0
ARC
  5
B23B
  8
1-前柱カバ-P
 10
25664.29453845623
 20
13527.485710999999
 30
0.0
 40
6.599999999999997
 50
90.0
 51
180.0
  0
LINE
  5
B23C
  8
1-前柱カバ-P
 10
25736.09453845624
 20
13532.48571099999
 30
0.0
 11
25664.29453845623
 21
13532.48571099999
 31
0.0
  0
ARC
  5
B23D
  8
1-前柱カバ-P
 10
25664.29453845623
 20
13527.485710999999
 30
0.0
 40
5.0
 50
90.0
 51
180.0
  0
ARC
  5
B23E
  8
1-前柱カバ-P
 10
25736.09453845624
 20
13527.485710999999
 30
0.0
 40
5.0
 50
0.0
 51
90.0
  0
LINE
  5
B23F
  8
1-前柱カバ-P
 10
25657.694538456231
 20
13527.485710999999
 30
0.0
 11
25657.694538456231
 21
13468.185711
 31
0.0
  0
LINE
  5
B240
  8
1-前柱カバ-P
 10
25659.294538456219
 20
13527.485710999999
 30
0.0
 11
25659.294538456219
 21
13468.185711
 31
0.0
  0
ARC
  5
B241
  8
1-前柱カバ-P
 10
25664.29453845623
 20
13468.185711
 30
0.0
 40
5.0
 50
180.0
 51
270.0
  0
LINE
  5
B242
  8
1-前柱カバ-P
  6
1PL-M
 62
     6
 10
25700.194538456231
 20
13526.585711
 30
0.0
 11
25700.194538456231
 21
13539.585711
 31
0.0
  0
LINE
  5
B243
  8
1-前柱カバ-P
  6
HIDE-M
 62
     6
 10
25707.194538456231
 20
13534.085711
 30
0.0
 11
25707.194538456231
 21
13532.48571099999
 31
0.0
  0
LINE
  5
B244
  8
1-前柱カバ-P
  6
HIDE-M
 62
     6
 10
25693.194538456231
 20
13534.085711
 30
0.0
 11
25693.194538456231
 21
13532.48571099999
 31
0.0
  0
ARC
  5
B245
  8
1-前柱カバ-P
 10
25736.09453845624
 20
13468.185711
 30
0.0
 40
6.599999999999997
 50
270.0
 51
0.0
  0
ARC
  5
B246
  8
1-前柱カバ-P
 10
25664.29453845623
 20
13468.185711
 30
0.0
 40
6.599999999999997
 50
180.0
 51
270.0
  0
LINE
  5
B247
  8
1-前柱カバ-P
 10
25672.694538456231
 20
13461.585711
 30
0.0
 11
25664.29453845623
 21
13461.585711
 31
0.0
  0
LINE
  5
B248
  8
1-前柱カバ-P
 10
25727.694538456231
 20
13461.585711
 30
0.0
 11
25736.09453845624
 21
13461.585711
 31
0.0
  0
LINE
  5
B249
  8
1-前柱カバ-P
 10
25672.694538456231
 20
13463.185711
 30
0.0
 11
25664.29453845623
 21
13463.185711
 31
0.0
  0
LINE
  5
B24A
  8
1-前柱カバ-P
 10
25727.694538456231
 20
13463.185711
 30
0.0
 11
25736.09453845624
 21
13463.185711
 31
0.0
  0
LINE
  5
B24B
  8
1-前柱カバ-P
 10
25727.694538456231
 20
13463.185711
 30
0.0
 11
25727.694538456231
 21
13461.585711
 31
0.0
  0
LINE
  5
B24C
  8
1-前柱カバ-P
 10
25672.694538456231
 20
13461.585711
 30
0.0
 11
25672.694538456231
 21
13463.185711
 31
0.0
  0
LINE
  5
B24D
  8
1-前柱カバ-P
  6
HIDE-M
 62
     6
 10
25668.794538456219
 20
13482.585711
 30
0.0
 11
25657.194538456231
 21
13482.585711
 31
0.0
  0
LINE
  5
B24E
  8
1-前柱カバ-P
  6
HIDE-M
 62
     6
 10
25668.794538456219
 20
13490.585711
 30
0.0
 11
25657.194538456231
 21
13490.585711
 31
0.0
  0
LINE
  5
B24F
  8
1-前柱カバ-P
  6
HIDE-M
 62
     6
 10
25668.794538456219
 20
13483.585711
 30
0.0
 11
25657.194538456231
 21
13483.585711
 31
0.0
  0
LINE
  5
B250
  8
1-前柱カバ-P
  6
HIDE-M
 62
     6
 10
25668.794538456219
 20
13489.585711
 30
0.0
 11
25657.194538456231
 21
13489.585711
 31
0.0
  0
LINE
  5
B251
  8
1-前柱カバ-P
 10
25667.79453845623
 20
13492.085711
 30
0.0
 11
25660.79453845623
 21
13492.085711
 31
0.0
  0
LINE
  5
B252
  8
1-前柱カバ-P
 10
25660.79453845623
 20
13481.085711
 30
0.0
 11
25667.79453845623
 21
13481.085711
 31
0.0
  0
LINE
  5
B253
  8
1-前柱カバ-P
 10
25660.79453845623
 20
13480.335711
 30
0.0
 11
25660.79453845623
 21
13492.835711
 31
0.0
  0
LINE
  5
B254
  8
1-前柱カバ-P
 10
25657.194538456231
 20
13480.585711
 30
0.0
 11
25657.194538456231
 21
13492.585711
 31
0.0
  0
LINE
  5
B255
  8
1-前柱カバ-P
  6
HIDE-M
 62
     6
 10
25659.294538456219
 20
13492.085711
 30
0.0
 11
25657.694538456231
 21
13492.085711
 31
0.0
  0
LINE
  5
B256
  8
1-前柱カバ-P
 10
25657.194538456231
 20
13492.585711
 30
0.0
 11
25657.694538456231
 21
13492.085711
 31
0.0
  0
ARC
  5
B257
  8
1-前柱カバ-P
 10
25660.04453845623
 20
13492.835711
 30
0.0
 40
0.75
 50
0.0
 51
180.0
  0
LINE
  5
B258
  8
1-前柱カバ-P
  6
HIDE-M
 62
     6
 10
25657.694538456231
 20
13481.085711
 30
0.0
 11
25659.294538456219
 21
13481.085711
 31
0.0
  0
LINE
  5
B259
  8
1-前柱カバ-P
 10
25657.194538456231
 20
13480.585711
 30
0.0
 11
25657.694538456231
 21
13481.085711
 31
0.0
  0
ARC
  5
B25A
  8
1-前柱カバ-P
 10
25660.04453845623
 20
13480.335711
 30
0.0
 40
0.75
 50
180.0
 51
0.0
  0
LINE
  5
B25B
  8
1-前柱カバ-P
 10
25668.794538456219
 20
13482.085711
 30
0.0
 11
25668.794538456219
 21
13491.085711
 31
0.0
  0
ARC
  5
B25C
  8
1-前柱カバ-P
 10
25667.79453845623
 20
13491.085711
 30
0.0
 40
1.0
 50
0.0
 51
90.0
  0
ARC
  5
B25D
  8
1-前柱カバ-P
 10
25667.79453845623
 20
13482.085711
 30
0.0
 40
1.0
 50
270.0
 51
0.0
  0
LINE
  5
B25E
  8
1-前柱カバ-P
  6
1PL-M
 62
     6
 10
25673.79453845623
 20
13486.585711
 30
0.0
 11
25652.194538456231
 21
13486.585711
 31
0.0
  0
LINE
  5
B25F
  8
1-前柱カバ-P
 10
25667.79453845623
 20
13502.085711
 30
0.0
 11
25660.79453845623
 21
13502.085711
 31
0.0
  0
LINE
  5
B260
  8
1-前柱カバ-P
 10
25657.194538456231
 20
13494.585711
 30
0.0
 11
25657.194538456231
 21
13502.585711
 31
0.0
  0
LINE
  5
B261
  8
1-前柱カバ-P
  6
HIDE-M
 62
     6
 10
25659.294538456219
 20
13502.085711
 30
0.0
 11
25657.694538456231
 21
13502.085711
 31
0.0
  0
LINE
  5
B262
  8
1-前柱カバ-P
 10
25657.194538456231
 20
13502.585711
 30
0.0
 11
25657.694538456231
 21
13502.085711
 31
0.0
  0
ARC
  5
B263
  8
1-前柱カバ-P
 10
25660.04453845623
 20
13502.835711
 30
0.0
 40
0.75
 50
0.0
 51
180.0
  0
LINE
  5
B264
  8
1-前柱カバ-P
 10
25668.794538456219
 20
13493.085711
 30
0.0
 11
25668.794538456219
 21
13501.085711
 31
0.0
  0
ARC
  5
B265
  8
1-前柱カバ-P
 10
25667.79453845623
 20
13501.085711
 30
0.0
 40
1.0
 50
0.0
 51
90.0
  0
LINE
  5
B266
  8
1-前柱カバ-P
  6
1PL-M
 62
     6
 10
25673.79453845623
 20
13496.585711
 30
0.0
 11
25652.194538456231
 21
13496.585711
 31
0.0
  0
LINE
  5
B267
  8
1-前柱カバ-P
 10
25660.79453845623
 20
13494.835711
 30
0.0
 11
25660.79453845623
 21
13502.835711
 31
0.0
  0
LINE
  5
B268
  8
1-前柱カバ-P
  6
HIDE-M
 62
     6
 10
25731.594538456218
 20
13482.585711
 30
0.0
 11
25743.194538456231
 21
13482.585711
 31
0.0
  0
LINE
  5
B269
  8
1-前柱カバ-P
  6
HIDE-M
 62
     6
 10
25731.594538456218
 20
13490.585711
 30
0.0
 11
25743.194538456231
 21
13490.585711
 31
0.0
  0
LINE
  5
B26A
  8
1-前柱カバ-P
  6
HIDE-M
 62
     6
 10
25731.594538456218
 20
13483.585711
 30
0.0
 11
25743.194538456231
 21
13483.585711
 31
0.0
  0
LINE
  5
B26B
  8
1-前柱カバ-P
  6
HIDE-M
 62
     6
 10
25731.594538456218
 20
13489.585711
 30
0.0
 11
25743.194538456231
 21
13489.585711
 31
0.0
  0
LINE
  5
B26C
  8
1-前柱カバ-P
 10
25732.594538456218
 20
13492.085711
 30
0.0
 11
25739.594538456218
 21
13492.085711
 31
0.0
  0
LINE
  5
B26D
  8
1-前柱カバ-P
 10
25739.594538456218
 20
13481.085711
 30
0.0
 11
25732.594538456218
 21
13481.085711
 31
0.0
  0
LINE
  5
B26E
  8
1-前柱カバ-P
 10
25739.594538456218
 20
13480.335711
 30
0.0
 11
25739.594538456218
 21
13492.835711
 31
0.0
  0
LINE
  5
B26F
  8
1-前柱カバ-P
 10
25743.194538456231
 20
13480.585711
 30
0.0
 11
25743.194538456231
 21
13492.585711
 31
0.0
  0
LINE
  5
B270
  8
1-前柱カバ-P
  6
HIDE-M
 62
     6
 10
25741.094538456218
 20
13492.085711
 30
0.0
 11
25742.694538456231
 21
13492.085711
 31
0.0
  0
LINE
  5
B271
  8
1-前柱カバ-P
 10
25743.194538456231
 20
13492.585711
 30
0.0
 11
25742.694538456231
 21
13492.085711
 31
0.0
  0
ARC
  5
B272
  8
1-前柱カバ-P
 10
25740.344538456218
 20
13492.835711
 30
0.0
 40
0.75
 50
0.0
 51
180.0
  0
LINE
  5
B273
  8
1-前柱カバ-P
  6
HIDE-M
 62
     6
 10
25742.694538456231
 20
13481.085711
 30
0.0
 11
25741.094538456218
 21
13481.085711
 31
0.0
  0
LINE
  5
B274
  8
1-前柱カバ-P
 10
25743.194538456231
 20
13480.585711
 30
0.0
 11
25742.694538456231
 21
13481.085711
 31
0.0
  0
ARC
  5
B275
  8
1-前柱カバ-P
 10
25740.344538456218
 20
13480.335711
 30
0.0
 40
0.75
 50
180.0
 51
0.0
  0
LINE
  5
B276
  8
1-前柱カバ-P
 10
25731.594538456218
 20
13482.085711
 30
0.0
 11
25731.594538456218
 21
13491.085711
 31
0.0
  0
ARC
  5
B277
  8
1-前柱カバ-P
 10
25732.594538456218
 20
13491.085711
 30
0.0
 40
1.0
 50
90.0
 51
180.0
  0
ARC
  5
B278
  8
1-前柱カバ-P
 10
25732.594538456218
 20
13482.085711
 30
0.0
 40
1.0
 50
180.0
 51
270.0
  0
LINE
  5
B279
  8
1-前柱カバ-P
  6
1PL-M
 62
     6
 10
25726.59453845624
 20
13486.585711
 30
0.0
 11
25748.194538456231
 21
13486.585711
 31
0.0
  0
LINE
  5
B27A
  8
1-前柱カバ-P
 10
25732.594538456218
 20
13502.085711
 30
0.0
 11
25739.594538456218
 21
13502.085711
 31
0.0
  0
LINE
  5
B27B
  8
1-前柱カバ-P
 10
25743.194538456231
 20
13494.585711
 30
0.0
 11
25743.194538456231
 21
13502.585711
 31
0.0
  0
LINE
  5
B27C
  8
1-前柱カバ-P
  6
HIDE-M
 62
     6
 10
25741.094538456218
 20
13502.085711
 30
0.0
 11
25742.694538456231
 21
13502.085711
 31
0.0
  0
LINE
  5
B27D
  8
1-前柱カバ-P
 10
25743.194538456231
 20
13502.585711
 30
0.0
 11
25742.694538456231
 21
13502.085711
 31
0.0
  0
ARC
  5
B27E
  8
1-前柱カバ-P
 10
25740.344538456218
 20
13502.835711
 30
0.0
 40
0.75
 50
0.0
 51
180.0
  0
LINE
  5
B27F
  8
1-前柱カバ-P
 10
25731.594538456218
 20
13493.085711
 30
0.0
 11
25731.594538456218
 21
13501.085711
 31
0.0
  0
ARC
  5
B280
  8
1-前柱カバ-P
 10
25732.594538456218
 20
13501.085711
 30
0.0
 40
1.0
 50
90.0
 51
180.0
  0
LINE
  5
B281
  8
1-前柱カバ-P
  6
1PL-M
 62
     6
 10
25726.59453845624
 20
13496.585711
 30
0.0
 11
25748.194538456231
 21
13496.585711
 31
0.0
  0
LINE
  5
B282
  8
1-前柱カバ-P
 10
25739.594538456218
 20
13494.835711
 30
0.0
 11
25739.594538456218
 21
13502.835711
 31
0.0
  0
LINE
  5
B283
  8
1-前柱カバ-P
  6
HIDE-M
 62
     6
 10
25668.794538456219
 20
13500.585711
 30
0.0
 11
25657.194538456231
 21
13500.585711
 31
0.0
  0
LINE
  5
B284
  8
1-前柱カバ-P
  6
HIDE-M
 62
     6
 10
25668.794538456219
 20
13499.585711
 30
0.0
 11
25657.194538456231
 21
13499.585711
 31
0.0
  0
LINE
  5
B285
  8
1-前柱カバ-P
  6
HIDE-M
 62
     6
 10
25731.594538456218
 20
13500.585711
 30
0.0
 11
25743.194538456231
 21
13500.585711
 31
0.0
  0
LINE
  5
B286
  8
1-前柱カバ-P
  6
HIDE-M
 62
     6
 10
25731.594538456218
 20
13499.585711
 30
0.0
 11
25743.194538456231
 21
13499.585711
 31
0.0
  0
LINE
  5
B287
  8
2-0
  6
CENTER2
 62
     6
 10
18819.69229545624
 20
13461.485710999999
 30
0.0
 11
26004.799374408161
 21
13461.485710999999
 31
0.0
  0
LINE
  5
B288
  8
2-0
  6
CENTER2
 62
     6
 10
18819.692295456229
 20
16729.985711000001
 30
0.0
 11
26004.799374408161
 21
16729.985711000001
 31
0.0
  0
LINE
  5
B289
  8
2-0
  6
CENTER2
 62
     6
 10
18819.69229545624
 20
19647.985711000001
 30
0.0
 11
26004.799374408161
 21
19647.985711000001
 31
0.0
  0
LINE
  5
B28A
  8
2-0
  6
CENTER2
 62
     6
 10
13283.266581806271
 20
20890.487954
 30
0.0
 11
13283.266581806271
 21
19940.487293999991
 31
0.0
  0
CIRCLE
  5
B28B
  8
0-5
  6
CONTINUOUS
 62
     4
 10
13283.266581806271
 20
21090.486634999979
 30
0.0
 40
199.9999949999999
  0
TEXT
  5
B28C
  8
0-5
  6
CONTINUOUS
 62
     7
 10
13229.54937580628
 20
21001.271712000002
 30
0.0
 40
160.0
  1
3
 72
     4
 11
13282.88270913962
 21
21081.271712000002
 31
0.0
  0
LINE
  5
B28D
  8
0-1
  6
CONTINUOUS
 62
     3
 10
13350.76681980626
 20
16564.450512760592
 30
0.0
 11
13350.76681980626
 21
19852.98663499999
 31
0.0
  0
LINE
  5
B28E
  8
0-1
  6
CONTINUOUS
 62
     3
 10
13350.76681980626
 20
19852.98663499999
 30
0.0
 11
13368.766581806271
 21
19852.98663499999
 31
0.0
  0
LINE
  5
B28F
  8
0-1
  6
CONTINUOUS
 62
     3
 10
13295.266067806269
 20
19835.487690000002
 30
0.0
 11
13295.266067806269
 21
19865.487293999991
 31
0.0
  0
LINE
  5
B290
  8
0-1
  6
CONTINUOUS
 62
     3
 10
13350.76681980626
 20
19830.485446999981
 30
0.0
 11
13300.26732180627
 21
19830.485446999981
 31
0.0
  0
LINE
  5
B291
  8
0-1
  6
CONTINUOUS
 62
     3
 10
13368.766581806271
 20
19865.487293999991
 30
0.0
 11
13368.766581806271
 21
19830.485446999981
 31
0.0
  0
LINE
  5
B292
  8
0-1
  6
CONTINUOUS
 62
     3
 10
13300.26732180627
 20
19870.485579
 30
0.0
 11
13363.76532880625
 21
19870.485579
 31
0.0
  0
ARC
  5
B293
  8
0-1
  6
CONTINUOUS
 62
     3
 10
13363.76532880625
 20
19865.487293999991
 30
0.0
 40
5.0
 50
0.0
 51
90.0
  0
ARC
  5
B294
  8
0-1
  6
CONTINUOUS
 62
     3
 10
13300.26732180627
 20
19865.487293999991
 30
0.0
 40
5.0
 50
90.0
 51
180.0
  0
ARC
  5
B295
  8
0-1
  6
CONTINUOUS
 62
     3
 10
13300.26732180627
 20
19835.487690000002
 30
0.0
 40
5.0
 50
180.0
 51
269.9999850001808
  0
LINE
  5
B296
  8
0-1
  6
CONTINUOUS
 62
     3
 10
10483.266581806271
 20
13424.98635799998
 30
0.0
 11
10483.266581806271
 21
13268.986437
 31
0.0
  0
LINE
  5
B297
  8
0-1
  6
CONTINUOUS
 62
     3
 10
7185.2898113402698
 20
19112.387283103752
 30
0.0
 11
10892.065035150919
 21
17577.69171465941
 31
0.0
  0
LINE
  5
B298
  8
0-1
  6
CONTINUOUS
 62
     3
 10
13233.26695080627
 20
13300.986344000001
 30
0.0
 11
13233.26695080627
 21
16612.931850858091
 31
0.0
  0
LINE
  5
B299
  8
0-1
  6
CONTINUOUS
 62
     3
 10
13368.766581806271
 20
13268.986437
 30
0.0
 11
13368.766581806271
 21
16557.02310283003
 31
0.0
  0
LINE
  5
B29A
  8
0-1
  6
CONTINUOUS
 62
     3
 10
13283.266581806271
 20
13424.98635799998
 30
0.0
 11
13283.266581806271
 21
16591.063800694112
 31
0.0
  0
LINE
  5
B29B
  8
0-1
  6
CONTINUOUS
 62
     3
 10
13325.767835806269
 20
13424.98635799998
 30
0.0
 11
13325.767835806269
 21
16573.527460591951
 31
0.0
  0
LINE
  5
B29C
  8
0-1
  6
CONTINUOUS
 62
     3
 10
13233.26695080627
 20
16612.931850858091
 30
0.0
 11
13233.26695080627
 21
19812.485685
 31
0.0
  0
LINE
  5
B29D
  8
0-1
  6
CONTINUOUS
 62
     3
 10
13368.766581806271
 20
16557.02310283003
 30
0.0
 11
13368.766581806271
 21
19852.98663499999
 31
0.0
  0
LINE
  5
B29E
  8
2-0
  6
DASHED3
 62
     6
 10
13283.266581806271
 20
16591.063800694112
 30
0.0
 11
13283.266581806271
 21
19812.485685
 31
0.0
  0
LINE
  5
B29F
  8
2-0
  6
DASHED3
 62
     6
 10
13325.767835806269
 20
16573.527460591951
 30
0.0
 11
13325.767835806269
 21
19812.485685
 31
0.0
  0
LINE
  5
B2A0
  8
0-1
  6
CONTINUOUS
 62
     3
 10
7479.7665818062733
 20
18989.10749151139
 30
0.0
 11
7479.7665818062733
 21
19860.487031000001
 31
0.0
  0
LINE
  5
B2A1
  8
0-1
  6
CONTINUOUS
 62
     3
 10
7615.267201806284
 20
19078.771656424949
 30
0.0
 11
7615.2672018062831
 21
19812.485685
 31
0.0
  0
LINE
  5
B2A2
  8
0-1
  6
CONTINUOUS
 62
     3
 10
10335.768692806279
 20
17807.22380933446
 30
0.0
 11
10335.76869280629
 21
19812.485685
 31
0.0
  0
LINE
  5
B2A3
  8
0-1
  6
CONTINUOUS
 62
     3
 10
10372.768864806279
 20
17791.957257433889
 30
0.0
 11
10372.768864806279
 21
19812.485685
 31
0.0
  0
LINE
  5
B2A4
  8
0-1
  6
CONTINUOUS
 62
     3
 10
10535.76935280629
 20
17724.70201846179
 30
0.0
 11
10535.769352806299
 21
19812.485685
 31
0.0
  0
LINE
  5
B2A5
  8
0-1
  6
CONTINUOUS
 62
     3
 10
10572.769524806299
 20
17709.435466561219
 30
0.0
 11
10572.769524806299
 21
19812.485685
 31
0.0
  0
LINE
  5
B2A6
  8
0-1
  6
CONTINUOUS
 62
     3
 10
10735.770012806301
 20
17642.180227589099
 30
0.0
 11
10735.770012806301
 21
19812.485685
 31
0.0
  0
LINE
  5
B2A7
  8
0-1
  6
CONTINUOUS
 62
     3
 10
10772.77018480631
 20
17626.913675688538
 30
0.0
 11
10772.77018480631
 21
19812.485685
 31
0.0
  0
LINE
  5
B2A8
  8
0-1
  6
CONTINUOUS
 62
     3
 10
10935.770672806309
 20
17683.61714701321
 30
0.0
 11
10935.770672806309
 21
19812.485685
 31
0.0
  0
LINE
  5
B2A9
  8
0-1
  6
CONTINUOUS
 62
     3
 10
10972.77084480632
 20
17773.291143927981
 30
0.0
 11
10972.77084480632
 21
19812.485685
 31
0.0
  0
LINE
  5
B2AA
  8
0-1
  6
CONTINUOUS
 62
     3
 10
11135.77133280632
 20
17638.213552947622
 30
0.0
 11
11135.77133280632
 21
19812.485685
 31
0.0
  0
LINE
  5
B2AB
  8
0-1
  6
CONTINUOUS
 62
     3
 10
11172.77150480632
 20
17595.670312558748
 30
0.0
 11
11172.77150480632
 21
19812.485685
 31
0.0
  0
LINE
  5
B2AC
  8
0-1
  6
CONTINUOUS
 62
     3
 10
11335.77199280634
 20
17408.250401524641
 30
0.0
 11
11335.771992806331
 21
19812.485685
 31
0.0
  0
LINE
  5
B2AD
  8
0-1
  6
CONTINUOUS
 62
     3
 10
11372.772164806331
 20
17365.707161135771
 30
0.0
 11
11372.772164806331
 21
19812.485685
 31
0.0
  0
LINE
  5
B2AE
  8
0-1
  6
CONTINUOUS
 62
     3
 10
11535.77265280633
 20
17178.287250101661
 30
0.0
 11
11535.77265280633
 21
19812.485685
 31
0.0
  0
LINE
  5
B2AF
  8
0-1
  6
CONTINUOUS
 62
     3
 10
11572.772824806339
 20
17135.74400971278
 30
0.0
 11
11572.772824806339
 21
19812.485685
 31
0.0
  0
LINE
  5
B2B0
  8
0-1
  6
CONTINUOUS
 62
     3
 10
11735.77331280635
 20
17000.69523749184
 30
0.0
 11
11735.77331280635
 21
19812.485685
 31
0.0
  0
LINE
  5
B2B1
  8
0-1
  6
CONTINUOUS
 62
     3
 10
11772.773484806359
 20
17090.373517523742
 30
0.0
 11
11772.773484806359
 21
19812.485685
 31
0.0
  0
LINE
  5
B2B2
  8
0-1
  6
CONTINUOUS
 62
     3
 10
11935.773972806361
 20
17147.049482353101
 30
0.0
 11
11935.773972806361
 21
19812.485685
 31
0.0
  0
LINE
  5
B2B3
  8
0-1
  6
CONTINUOUS
 62
     3
 10
11972.77414480637
 20
17131.782930452511
 30
0.0
 11
11972.77414480637
 21
19812.485685
 31
0.0
  0
LINE
  5
B2B4
  8
0-1
  6
CONTINUOUS
 62
     3
 10
12135.77463280636
 20
17064.527691480431
 30
0.0
 11
12135.77463280636
 21
19812.485685
 31
0.0
  0
LINE
  5
B2B5
  8
0-1
  6
CONTINUOUS
 62
     3
 10
12172.77480480637
 20
17049.261139579859
 30
0.0
 11
12172.77480480637
 21
19812.485685
 31
0.0
  0
LINE
  5
B2B6
  8
0-1
  6
CONTINUOUS
 62
     3
 10
12335.77529280638
 20
16982.00590060775
 30
0.0
 11
12335.77529280638
 21
19812.485685
 31
0.0
  0
LINE
  5
B2B7
  8
0-1
  6
CONTINUOUS
 62
     3
 10
12372.77546480638
 20
16966.739348707179
 30
0.0
 11
12372.77546480638
 21
19812.485685
 31
0.0
  0
LINE
  5
B2B8
  8
0-1
  6
CONTINUOUS
 62
     3
 10
12535.775952806391
 20
16899.48410973508
 30
0.0
 11
12535.775952806391
 21
19812.485685
 31
0.0
  0
LINE
  5
B2B9
  8
0-1
  6
CONTINUOUS
 62
     3
 10
12572.776124806391
 20
16884.217557834509
 30
0.0
 11
12572.776124806391
 21
19812.485685
 31
0.0
  0
LINE
  5
B2BA
  8
0-1
  6
CONTINUOUS
 62
     3
 10
12735.77661280639
 20
16816.962318862421
 30
0.0
 11
12735.77661280639
 21
19812.485685
 31
0.0
  0
LINE
  5
B2BB
  8
0-1
  6
CONTINUOUS
 62
     3
 10
12772.7767848064
 20
16801.69576696185
 30
0.0
 11
12772.7767848064
 21
19812.485685
 31
0.0
  0
LINE
  5
B2BC
  8
0-1
  6
CONTINUOUS
 62
     3
 10
12935.777272806399
 20
16734.440527989751
 30
0.0
 11
12935.777272806399
 21
19812.485685
 31
0.0
  0
LINE
  5
B2BD
  8
0-1
  6
CONTINUOUS
 62
     3
 10
12972.777444806399
 20
16719.17397608918
 30
0.0
 11
12972.777444806399
 21
19812.485685
 31
0.0
  0
LINE
  5
B2BE
  8
0-1
  6
CONTINUOUS
 62
     3
 10
13135.777932806421
 20
16651.918737117048
 30
0.0
 11
13135.777932806421
 21
19812.485685
 31
0.0
  0
LINE
  5
B2BF
  8
0-1
  6
CONTINUOUS
 62
     3
 10
13172.778104806421
 20
16636.652185216499
 30
0.0
 11
13172.778104806421
 21
19812.485685
 31
0.0
  0
LINE
  5
B2C0
  8
2-0
  6
DASHED3
 62
     6
 10
12837.5057922959
 20
16774.988087000002
 30
0.0
 11
13283.266581806271
 21
16774.988087000002
 31
0.0
  0
LINE
  5
B2C1
  8
2-0
  6
DASHED3
 62
     6
 10
13055.63743257508
 20
16684.985315999991
 30
0.0
 11
13283.266581806271
 21
16684.985315999991
 31
0.0
  0
LINE
  5
B2C2
  8
0-1
  6
CONTINUOUS
 62
     3
 10
10483.266581806271
 20
16684.985315999991
 30
0.0
 11
13055.63743257508
 21
16684.985315999991
 31
0.0
  0
LINE
  5
B2C3
  8
0-1
  6
CONTINUOUS
 62
     3
 10
10483.266581806271
 20
16774.988087000002
 30
0.0
 11
12837.5057922959
 21
16774.988087000002
 31
0.0
  0
LINE
  5
B2C4
  8
0-1
  6
CONTINUOUS
 62
     3
 10
10652.267835806269
 20
13461.485710999999
 30
0.0
 11
13066.617064195119
 21
16680.455036627889
 31
0.0
  0
LINE
  5
B2C5
  8
0-1
  6
CONTINUOUS
 62
     3
 10
13103.76695080627
 20
13461.48571100001
 30
0.0
 11
10652.267835806269
 21
16729.985711000001
 31
0.0
  0
LINE
  5
B2C6
  8
0-6
  6
CONTINUOUS
 62
     6
 10
13230.26695080627
 20
14330.022169064119
 30
0.0
 11
12330.8295413835
 21
12489.487308
 31
0.0
  0
LINE
  5
B2C7
  8
2-0
  6
DASHED3
 62
     6
 10
10652.267835806269
 20
19647.985711000001
 30
0.0
 11
13103.76695080627
 21
16729.985711000001
 31
0.0
  0
LINE
  5
B2C8
  8
2-0
  6
DASHED3
 62
     6
 10
13103.76695080627
 20
19647.985711000001
 30
0.0
 11
11277.95195717905
 21
17474.732570174681
 31
0.0
  0
LINE
  5
B2C9
  8
0-1
  6
CONTINUOUS
 62
     3
 10
11277.95195717905
 20
17474.732570174681
 30
0.0
 11
10652.267835806269
 21
16729.985711000001
 31
0.0
  0
LINE
  5
B2CA
  8
0-6
  6
CONTINUOUS
 62
     6
 10
24250.11883363481
 20
12841.98711
 30
0.0
 11
25250.118174634808
 21
12841.98711
 31
0.0
  0
TEXT
  5
B2CB
  8
0-6
  6
CONTINUOUS
 62
     7
 10
24346.119097634801
 20
12921.98737399998
 30
0.0
 40
160.0
  1
前柱（P）
 72
     4
 11
24746.119097634801
 21
13001.98737399998
 31
0.0
  0
LINE
  5
B2CC
  8
0-6
  6
CONTINUOUS
 62
     6
 10
25655.194538456231
 20
13427.986252000001
 30
0.0
 11
25250.118174634808
 21
12841.98711
 31
0.0
  0
LINE
  5
B2CD
  8
0-6
  6
CONTINUOUS
 62
     6
 10
24250.11883363481
 20
16080.047909954121
 30
0.0
 11
25250.118174634808
 21
16080.047909954121
 31
0.0
  0
TEXT
  5
B2CE
  8
0-6
  6
CONTINUOUS
 62
     7
 10
24346.119097634801
 20
16160.048173954099
 30
0.0
 40
160.0
  1
中柱（P）
 72
     4
 11
24746.119097634801
 21
16240.048173954099
 31
0.0
  0
LINE
  5
B2CF
  8
0-6
  6
CONTINUOUS
 62
     6
 10
25655.194538456231
 20
16666.047051954109
 30
0.0
 11
25250.118174634808
 21
16080.047909954121
 31
0.0
  0
LINE
  5
B2D0
  8
0-6
  6
CONTINUOUS
 62
     6
 10
23909.05694316528
 20
14042.976989828871
 30
0.0
 11
25365.056943165291
 21
14042.976989828871
 31
0.0
  0
TEXT
  5
B2D1
  8
0-6
  6
CONTINUOUS
 62
     7
 10
23949.0622164177
 20
14122.97725382886
 30
0.0
 40
160.0
  1
前柱カバー（P）
 72
     4
 11
24637.0622164177
 21
14202.97725382886
 31
0.0
  0
LINE
  5
B2D2
  8
0-6
  6
CONTINUOUS
 62
     6
 10
25664.29453845623
 20
13554.586251999999
 30
0.0
 11
25365.056943165291
 21
14042.976989828871
 31
0.0
  0
LINE
  5
B2D3
  8
0-6
  6
CONTINUOUS
 62
     6
 10
23909.05694316528
 20
17300.976553828881
 30
0.0
 11
25365.056943165291
 21
17300.976553828881
 31
0.0
  0
TEXT
  5
B2D4
  8
0-6
  6
CONTINUOUS
 62
     7
 10
23949.0622164177
 20
17380.976817828861
 30
0.0
 40
160.0
  1
中柱カバー（P）
 72
     4
 11
24637.0622164177
 21
17460.976817828861
 31
0.0
  0
LINE
  5
B2D5
  8
0-6
  6
CONTINUOUS
 62
     6
 10
25664.29453845623
 20
16812.585815999999
 30
0.0
 11
25365.056943165291
 21
17300.976553828881
 31
0.0
  0
LINE
  5
B2D6
  8
0-6
  6
CONTINUOUS
 62
     6
 10
24250.11883363481
 20
20307.923617045872
 30
0.0
 11
25250.118174634808
 21
20307.923617045872
 31
0.0
  0
TEXT
  5
B2D7
  8
0-6
  6
CONTINUOUS
 62
     7
 10
24346.119097634801
 20
20387.923881045848
 30
0.0
 40
160.0
  1
後柱（P）
 72
     4
 11
24746.119097634801
 21
20467.923881045848
 31
0.0
  0
LINE
  5
B2D8
  8
0-6
  6
CONTINUOUS
 62
     6
 10
25655.194538456231
 20
19721.924475045871
 30
0.0
 11
25250.118174634808
 21
20307.923617045872
 31
0.0
  0
LINE
  5
B2D9
  8
0-6
  6
CONTINUOUS
 62
     6
 10
23909.05694316528
 20
19086.994973171109
 30
0.0
 11
25365.056943165291
 21
19086.994973171109
 31
0.0
  0
TEXT
  5
B2DA
  8
0-6
  6
CONTINUOUS
 62
     7
 10
23949.0622164177
 20
19166.995237171112
 30
0.0
 40
160.0
  1
後柱カバー（P）
 72
     4
 11
24637.0622164177
 21
19246.995237171112
 31
0.0
  0
LINE
  5
B2DB
  8
0-6
  6
CONTINUOUS
 62
     6
 10
25664.29453845623
 20
19575.385710999992
 30
0.0
 11
25365.056943165291
 21
19086.994973171109
 31
0.0
  0
LINE
  5
B2DC
  8
0-1
  6
CONTINUOUS
 62
     3
 10
10892.06449739114
 20
17577.690411339281
 30
0.0
 11
10987.41851771467
 21
17808.791394445481
 31
0.0
  0
LINE
  5
B2DD
  8
0-1
  6
CONTINUOUS
 62
     3
 10
11721.118049897879
 20
16965.174895287859
 30
0.0
 11
11816.468699575389
 21
17196.278746994321
 31
0.0
  0
LINE
  5
B2DE
  8
0-1
  6
CONTINUOUS
 62
     3
 10
11721.118049897879
 20
16965.174895287859
 30
0.0
 11
10987.41851771467
 21
17808.791394445481
 31
0.0
  0
LINE
  5
B2DF
  8
0-1
  6
CONTINUOUS
 62
     3
 10
11816.467640796551
 20
17196.276180804489
 30
0.0
 11
13697.415027399749
 21
16420.183007513198
 31
0.0
  0
TEXT
  5
B2E0
  8
0-5
  6
CONTINUOUS
 62
     7
 10
27192.519708750609
 20
7242.8445675330586
 30
0.0
 40
160.0
  1
(2260)
 50
90.0
 72
     4
 11
27112.519708750609
 21
7629.5112341997274
 31
0.0
  0
LINE
  5
B2E1
  8
0-6
  6
CONTINUOUS
 62
     6
 10
8750.2960680157939
 20
16043.880397826
 30
0.0
 11
9630.2950120158075
 21
16043.880397826
 31
0.0
  0
LINE
  5
B2E2
  8
0-6
  6
CONTINUOUS
 62
     6
 10
8572.5339306674086
 20
15873.863270155671
 30
0.0
 11
8750.2960680157939
 21
16043.880397826
 31
0.0
  0
LINE
  5
B2E3
  8
0-6
  6
CONTINUOUS
 62
     6
 10
8456.9062906674189
 20
15763.27350615566
 30
0.0
 11
8554.1036226674223
 21
15893.13586315566
 31
0.0
  0
LINE
  5
B2E4
  8
0-6
  6
CONTINUOUS
 62
     6
 10
8590.9652276674096
 20
15854.590677155669
 30
0.0
 11
8456.9062906674189
 21
15763.27350615566
 31
0.0
  0
LINE
  5
B2E5
  8
0-6
  6
CONTINUOUS
 62
     6
 10
8590.9652276674096
 20
15854.590677155669
 30
0.0
 11
8554.1036226674223
 21
15893.13586315566
 31
0.0
  0
TEXT
  5
B2E6
  8
0-6
  6
CONTINUOUS
 62
     7
 10
8830.2973220158055
 20
16123.88066182601
 30
0.0
 40
160.0
  1
ブレース
 72
     4
 11
9192.9639886824716
 21
16209.21399515934
 31
0.0
  0
LINE
  5
B2E7
  8
0-6
  6
CONTINUOUS
 62
     6
 10
9093.4879416398016
 20
16784.988192000001
 30
0.0
 11
8974.1903233074518
 21
17100.58053000001
 31
0.0
  0
LINE
  5
B2E8
  8
0-6
  6
CONTINUOUS
 62
     6
 10
8173.6195623074627
 20
17100.58053000001
 30
0.0
 11
8974.1903233074518
 21
17100.58053000001
 31
0.0
  0
TEXT
  5
B2E9
  8
0-6
  6
CONTINUOUS
 62
     7
 10
8254.1899273074469
 20
17180.580794000001
 30
0.0
 40
160.0
  1
桁（中）
 72
     4
 11
8574.1899273074469
 21
17260.580794000001
 31
0.0
  0
LINE
  5
B2EA
  8
0-6
  6
CONTINUOUS
 62
     6
 10
11203.434335700111
 20
13863.715972329061
 30
0.0
 11
12083.43327970013
 21
13863.715972329061
 31
0.0
  0
LINE
  5
B2EB
  8
0-6
  6
CONTINUOUS
 62
     6
 10
12451.17498527474
 20
14331.56427896224
 30
0.0
 11
12083.43327970013
 21
13863.715972329061
 31
0.0
  0
TEXT
  5
B2EC
  8
0-6
  6
CONTINUOUS
 62
     7
 10
11283.435589700121
 20
13943.716236329041
 30
0.0
 40
160.0
  1
ブレース
 72
     4
 11
11646.10225636679
 21
14029.04956966238
 31
0.0
  0
LINE
  5
B2ED
  8
0-6
  6
CONTINUOUS
 62
     6
 10
11566.49411309622
 20
16163.814944600381
 30
0.0
 11
12359.345050518899
 21
16163.814944600381
 31
0.0
  0
TEXT
  5
B2EE
  8
0-6
  6
CONTINUOUS
 62
     7
 10
11649.113871949759
 20
16243.81520860039
 30
0.0
 40
160.0
  1
桁（P）
 72
     4
 11
11953.113871949759
 21
16323.81520860039
 31
0.0
  0
LINE
  5
B2EF
  8
0-6
  6
CONTINUOUS
 62
     6
 10
11566.49411309622
 20
16163.814944600381
 30
0.0
 11
11251.202862481639
 21
16694.985421000001
 31
0.0
  0
LINE
  5
B2F0
  8
2-0
  6
DASHED3
 62
     6
 10
13103.76695080627
 20
16729.985711000001
 30
0.0
 11
13066.617064195119
 21
16680.455036627889
 31
0.0
  0
LINE
  5
B2F6
  8
0-1
  6
CONTINUOUS
 62
     3
 10
13021.92037934198
 20
6291.1885390000007
 30
0.0
 11
13021.92037934198
 21
8152.2344180000036
 31
0.0
  0
LINE
  5
B2F7
  8
0-1
  6
CONTINUOUS
 62
     3
 10
13036.92018134199
 20
6291.1885390000007
 30
0.0
 11
13036.92018134199
 21
8152.2344180000036
 31
0.0
  0
LINE
  5
B2FC
  8
SUNPOU
  6
CONTINUOUS
 10
6635.7668058062836
 20
19870.48359950001
 30
0.0
 11
6635.7668058062836
 21
20667.450867278461
 31
0.0
  0
LINE
  5
B2FD
  8
SUNPOU
  6
CONTINUOUS
 10
6635.7668058062691
 20
12527.673846847811
 30
0.0
 11
6635.7668058062691
 21
13268.986437
 31
0.0
  0
LINE
  5
B2FE
  8
SUNPOU
  6
CONTINUOUS
 10
6885.4180163420024
 20
9389.1900499999992
 30
0.0
 11
6380.6301464485878
 21
9389.1900499999992
 31
0.0
  0
LINE
  5
B2FF
  8
0-1
  6
CONTINUOUS
 62
     3
 10
8135.7673738062858
 20
18718.86633431452
 30
0.0
 11
8135.7673738062858
 21
19812.485685
 31
0.0
  0
LINE
  5
B300
  8
0-1
  6
CONTINUOUS
 62
     3
 10
8172.7675458062868
 20
18703.54735850088
 30
0.0
 11
8172.7675458062868
 21
19812.485685
 31
0.0
  0
LINE
  5
B301
  8
0-1
  6
CONTINUOUS
 62
     3
 10
8335.7670448062909
 20
18636.061580791182
 30
0.0
 11
8335.7670448062909
 21
19812.485685
 31
0.0
  0
LINE
  5
B302
  8
0-1
  6
CONTINUOUS
 62
     3
 10
8372.7682058062783
 20
18620.742195507399
 30
0.0
 11
8372.7682058062783
 21
19812.485685
 31
0.0
  0
LINE
  5
B303
  8
0-1
  6
CONTINUOUS
 62
     3
 10
8535.7667148062847
 20
18553.256827681871
 30
0.0
 11
8535.7667148062847
 21
19812.485685
 31
0.0
  0
LINE
  5
B304
  8
0-1
  6
CONTINUOUS
 62
     3
 10
8572.7658958062857
 20
18537.938262166481
 30
0.0
 11
8572.7658958062912
 21
19812.485685
 31
0.0
  0
LINE
  5
B305
  8
0-1
  6
CONTINUOUS
 62
     3
 10
7556.2651178062624
 20
19860.48900999999
 30
0.0
 11
13292.266067806269
 21
19860.489010000001
 31
0.0
  0
LINE
  5
B306
  8
0-1
  6
CONTINUOUS
 62
     3
 10
7500.7653548062626
 20
19812.485685
 30
0.0
 11
13347.76681980626
 21
19812.485685
 31
0.0
  0
LINE
  5
B307
  8
0-6
  6
CONTINUOUS
 62
     6
 10
11274.61691449287
 20
20002.891618000001
 30
0.0
 11
11231.314945492841
 21
19977.890297999991
 31
0.0
  0
LINE
  5
B308
  8
0-6
  6
CONTINUOUS
 62
     6
 10
11274.61691449287
 20
20002.891618000001
 30
0.0
 11
11327.96494049287
 21
19860.48900999999
 31
0.0
  0
LINE
  5
B309
  8
0-6
  6
CONTINUOUS
 62
     6
 10
11231.314945492841
 20
19977.890297999991
 30
0.0
 11
11274.61691449287
 21
20002.891618000001
 31
0.0
  0
LINE
  5
B30A
  8
0-6
  6
CONTINUOUS
 62
     6
 10
11327.96494049287
 20
19860.48900999999
 30
0.0
 11
11231.314945492841
 21
19977.890297999991
 31
0.0
  0
LINE
  5
B30B
  8
0-6
  6
CONTINUOUS
 62
     6
 10
11327.96494049287
 20
19860.48900999999
 30
0.0
 11
11274.61691449287
 21
20002.891618000001
 31
0.0
  0
LINE
  5
B30C
  8
0-6
  6
CONTINUOUS
 62
     6
 10
11231.314945492841
 20
19977.890297999991
 30
0.0
 11
11327.96494049287
 21
19860.48900999999
 31
0.0
  0
LINE
  5
B30D
  8
0-6
  6
CONTINUOUS
 62
     6
 10
11252.96691949287
 20
19990.392938000001
 30
0.0
 11
11027.381102823179
 21
20414.062777731109
 31
0.0
  0
TEXT
  5
B30E
  8
0-6
  6
CONTINUOUS
 62
     7
 10
10853.709899492869
 20
20970.488217999999
 30
0.0
 40
160.0
  1
鼻隠し後
 72
     4
 11
11216.376566159541
 21
21050.488217999999
 31
0.0
  0
LINE
  5
B30F
  8
0-6
  6
CONTINUOUS
 62
     6
 10
10773.70765549287
 20
20890.487954
 30
0.0
 11
11616.14721449287
 21
20890.487954
 31
0.0
  0
LINE
  5
B310
  8
0-6
  6
CONTINUOUS
 62
     6
 10
10959.34724377065
 20
20541.837456683399
 30
0.0
 11
10773.70765549287
 21
20890.487954
 31
0.0
  0
LINE
  5
B311
  8
0-6
  6
CONTINUOUS
 62
     6
 10
12602.90025990142
 20
19816.163629999999
 30
0.0
 11
12709.595321901439
 21
19693.987743000002
 31
0.0
  0
LINE
  5
B312
  8
0-6
  6
CONTINUOUS
 62
     6
 10
12709.595321901439
 20
19693.987743000002
 30
0.0
 11
12648.289631901431
 21
19844.163919999992
 31
0.0
  0
LINE
  5
B313
  8
0-6
  6
CONTINUOUS
 62
     6
 10
12709.595321901439
 20
19693.987743000002
 30
0.0
 11
12602.90025990142
 21
19816.163629999999
 31
0.0
  0
LINE
  5
B314
  8
0-6
  6
CONTINUOUS
 62
     6
 10
12602.90025990142
 20
19816.163629999999
 30
0.0
 11
12648.289631901431
 21
19844.163919999992
 31
0.0
  0
LINE
  5
B315
  8
0-6
  6
CONTINUOUS
 62
     6
 10
12648.289631901431
 20
19844.163919999992
 30
0.0
 11
12709.595321901439
 21
19693.987743000002
 31
0.0
  0
LINE
  5
B316
  8
0-6
  6
CONTINUOUS
 62
     6
 10
12648.289631901431
 20
19844.163919999992
 30
0.0
 11
12602.90025990142
 21
19816.163629999999
 31
0.0
  0
LINE
  5
B317
  8
0-6
  6
CONTINUOUS
 62
     6
 10
12709.595321901439
 20
19693.987743000002
 30
0.0
 11
12415.66749490143
 21
20100.485842999991
 31
0.0
  0
LINE
  5
B318
  8
0-6
  6
CONTINUOUS
 62
     6
 10
11615.665845901431
 20
20100.485842999991
 30
0.0
 11
12415.66749490143
 21
20100.485842999991
 31
0.0
  0
TEXT
  5
B319
  8
0-6
  6
CONTINUOUS
 62
     7
 10
11711.66709990144
 20
20180.486106999979
 30
0.0
 40
160.0
  1
桁（P）
 72
     4
 11
12015.66709990144
 21
20260.486106999979
 31
0.0
  0
LINE
  5
B31A
  8
0-6
  6
CONTINUOUS
 62
     6
 10
11219.237667356419
 20
12898.608184135421
 30
0.0
 11
12012.088604779099
 21
12898.608184135421
 31
0.0
  0
TEXT
  5
B31B
  8
0-6
  6
CONTINUOUS
 62
     7
 10
11205.857426209959
 20
12978.608448135419
 30
0.0
 40
160.0
  1
桁前（P）
 72
     4
 11
11605.857426209959
 21
13058.608448135419
 31
0.0
  0
LINE
  5
B31C
  8
0-6
  6
CONTINUOUS
 62
     6
 10
11219.237667356419
 20
12898.608184135421
 30
0.0
 11
10903.946416741839
 21
13429.778660535019
 31
0.0
  0
TEXT
  5
B31D
  8
0-6
  6
CONTINUOUS
 62
     7
 10
11380.0370602407
 20
12569.486582
 30
0.0
 40
160.0
  1
梁（P）前
 72
     4
 11
11822.70372690737
 21
12649.486582
 31
0.0
  0
LINE
  5
B31E
  8
0-6
  6
CONTINUOUS
 62
     6
 10
11315.839372058659
 20
12489.487308
 30
0.0
 11
12330.8295413835
 21
12489.487308
 31
0.0
  0
CIRCLE
  5
B31F
  8
0-5
  6
CONTINUOUS
 62
     4
 10
15128.71667799999
 20
1375.999982000001
 30
0.0
 40
20.0
  0
ARC
  5
B320
  8
0-5
  6
CONTINUOUS
 62
     4
 10
15128.71667799999
 20
1375.999982000001
 30
0.0
 40
20.0
 50
180.0
 51
0.0
  0
ARC
  5
B321
  8
0-5
  6
CONTINUOUS
 62
     4
 10
15128.71667799999
 20
1375.999982000001
 30
0.0
 40
20.0
 50
0.0
 51
179.99998499999839
  0
CIRCLE
  5
B322
  8
0-5
  6
CONTINUOUS
 62
     4
 10
15128.71667799999
 20
1775.999321999999
 30
0.0
 40
20.0
  0
ARC
  5
B323
  8
0-5
  6
CONTINUOUS
 62
     4
 10
15128.71667799999
 20
1775.999321999999
 30
0.0
 40
20.0
 50
180.0
 51
0.0
  0
ARC
  5
B324
  8
0-5
  6
CONTINUOUS
 62
     4
 10
15128.71667799999
 20
1775.999321999999
 30
0.0
 40
20.0
 50
0.0
 51
179.99998499999839
  0
TEXT
  5
B325
  8
0-5
  6
CONTINUOUS
 62
     7
 10
16661.217403999992
 20
1655.999792000001
 30
0.0
 40
160.0
  1
H
  0
TEXT
  5
B326
  8
0-5
  6
CONTINUOUS
 62
     7
 10
15176.146933
 20
1655.999792000001
 30
0.0
 40
160.0
  1
（ ）内寸法ハ、  タイプヲ示ス。
  0
TEXT
  5
B327
  8
0-5
  6
CONTINUOUS
 62
     7
 10
15288.716216000001
 20
1255.999462
 30
0.0
 40
160.0
  1
有効高サハ、基礎高サヲ含ミマセン。
  0
LINE
  5
B328
  8
0-1
  6
CONTINUOUS
 62
     3
 10
7735.7680328062906
 20
18884.475840947161
 30
0.0
 11
7735.7680328062906
 21
19812.485685
 31
0.0
  0
LINE
  5
B329
  8
0-1
  6
CONTINUOUS
 62
     3
 10
7772.7682048062916
 20
18869.156865133518
 30
0.0
 11
7772.7682048062916
 21
19812.485685
 31
0.0
  0
LINE
  5
B32A
  8
0-1
  6
CONTINUOUS
 62
     3
 10
7935.7677038062911
 20
18801.67108742382
 30
0.0
 11
7935.7677038062911
 21
19812.485685
 31
0.0
  0
LINE
  5
B32B
  8
0-1
  6
CONTINUOUS
 62
     3
 10
7972.7688648062822
 20
18786.351702140011
 30
0.0
 11
7972.7688648062822
 21
19812.485685
 31
0.0
  0
LINE
  5
B32E
  8
WAKUSEN-01
 10
868.00000000000193
 20
22484.000000000011
 30
0.0
 11
32764.000000000011
 21
22484.000000000011
 31
0.0
  0
LINE
  5
B331
  8
WAKUSEN-01
 10
20560.0
 20
2484.0
 30
0.0
 11
32764.0
 21
2484.0
 31
0.0
  0
LINE
  5
B332
  8
WAKUSEN-02
 10
20560.0
 20
1655.9999999999991
 30
0.0
 11
26868.0
 21
1655.9999999999991
 31
0.0
  0
TEXT
  5
B333
  8
WAKUMOJI-01
 10
20670.260259962761
 20
2125.9030093393221
 30
0.0
 40
240.0
  1
名　称
  7
WAKUMOJI
  0
TEXT
  5
B334
  8
WAKUMOJI-01
 10
20656.505485091919
 20
1319.12897497982
 30
0.0
 40
240.0
  1
機種名
  7
WAKUMOJI
  0
LINE
  5
B337
  8
YODOROGO
 10
29977.604341291921
 20
1995.7494964292871
 30
0.0
 11
29829.604341291921
 21
1995.7494964292871
 31
0.0
1001
AUTOCAD_POSTSCRIPT_FIGURE
1002
{
1000
PSFILL
1000
Grayscale
1000
Grayscale
1070
    25
1002
}
  0
LINE
  5
B338
  8
YODOROGO
 10
29829.604341291921
 20
1947.749496429288
 30
0.0
 11
29977.604341291921
 21
1947.749496429288
 31
0.0
1001
AUTOCAD_POSTSCRIPT_FIGURE
1002
{
1000
PSFILL
1000
Grayscale
1000
Grayscale
1070
    25
1002
}
  0
LINE
  5
B339
  8
YODOROGO
 10
29977.604341291921
 20
1907.7494964292871
 30
0.0
 11
29829.604341291921
 21
1907.7494964292871
 31
0.0
1001
AUTOCAD_POSTSCRIPT_FIGURE
1002
{
1000
PSFILL
1000
Grayscale
1000
Grayscale
1070
    25
1002
}
  0
LINE
  5
B33A
  8
YODOROGO
 10
29829.604341291921
 20
1859.749496429288
 30
0.0
 11
29977.604341291921
 21
1859.749496429288
 31
0.0
1001
AUTOCAD_POSTSCRIPT_FIGURE
1002
{
1000
PSFILL
1000
Grayscale
1000
Grayscale
1070
    25
1002
}
  0
LINE
  5
B33B
  8
YODOROGO
 10
29977.604341291921
 20
1819.7494964292871
 30
0.0
 11
29829.604341291921
 21
1819.7494964292871
 31
0.0
1001
AUTOCAD_POSTSCRIPT_FIGURE
1002
{
1000
PSFILL
1000
Grayscale
1000
Grayscale
1070
    25
1002
}
  0
LINE
  5
B33C
  8
YODOROGO
 10
29921.60434129191
 20
1707.749496429288
 30
0.0
 11
29977.604341291921
 21
1707.749496429288
 31
0.0
1001
AUTOCAD_POSTSCRIPT_FIGURE
1002
{
1000
PSFILL
1000
Grayscale
1000
Grayscale
1070
    25
1002
}
  0
LINE
  5
B33D
  8
YODOROGO
 10
29737.604341291921
 20
1427.749496429288
 30
0.0
 11
29937.604341291932
 21
1481.3393349155101
 31
0.0
  0
LINE
  5
B33E
  8
YODOROGO
 10
29949.60434129191
 20
1707.749496429288
 30
0.0
 11
29885.604341291921
 21
1707.749496429288
 31
0.0
  0
ARC
  5
B33F
  8
YODOROGO
 10
30254.34774982791
 20
1807.864609233261
 30
0.0
 40
381.88686420564721
 50
213.96111677667841
 51
264.47872074317792
  0
ARC
  5
B340
  8
YODOROGO
 10
30254.347749827921
 20
1807.864609233302
 30
0.0
 40
381.8868642056816
 50
208.14114420486601
 51
212.9210361185994
  0
LINE
  5
B341
  8
YODOROGO
 10
29771.409872985321
 20
1556.807661346234
 30
0.0
 11
29933.78413250855
 21
1600.3157130570869
 31
0.0
  0
LINE
  5
B342
  8
YODOROGO
 10
29737.604341291921
 20
1427.749496429288
 30
0.0
 11
29937.604341291932
 21
1481.3393349155101
 31
0.0
  0
LINE
  5
B343
  8
YODOROGO
 10
29949.60434129191
 20
1707.749496429288
 30
0.0
 11
29885.604341291921
 21
1707.749496429288
 31
0.0
  0
ARC
  5
B344
  8
YODOROGO
 10
30254.34774982791
 20
1807.864609233261
 30
0.0
 40
381.88686420564721
 50
213.96111677667841
 51
264.47872074317792
  0
LINE
  5
B345
  8
YODOROGO
 10
28793.60434129191
 20
1819.7494964292871
 30
0.0
 11
28433.60434129191
 21
1819.7494964292871
 31
0.0
  0
LINE
  5
B346
  8
YODOROGO
 10
28513.60434129191
 20
1427.749496429288
 30
0.0
 11
28793.60434129191
 21
1427.749496429288
 31
0.0
  0
LINE
  5
B347
  8
YODOROGO
 10
28729.604341291921
 20
1923.7494964292871
 30
0.0
 11
28497.60434129191
 21
1923.7494964292871
 31
0.0
  0
LINE
  5
B348
  8
YODOROGO
 10
28585.604341291921
 20
2027.749496429288
 30
0.0
 11
28657.604341291921
 21
2027.749496429288
 31
0.0
  0
LINE
  5
B349
  8
YODOROGO
 10
28433.60434129191
 20
1707.749496429288
 30
0.0
 11
28433.60434129191
 21
1507.749496429288
 31
0.0
  0
LINE
  5
B34A
  8
YODOROGO
 10
28497.60434129191
 20
1563.7494964292871
 30
0.0
 11
28497.60434129191
 21
1707.749496429288
 31
0.0
  0
LINE
  5
B34B
  8
YODOROGO
 10
28585.604341291921
 20
1747.74949642929
 30
0.0
 11
28585.604341291921
 21
1547.749496429288
 31
0.0
  0
LINE
  5
B34C
  8
YODOROGO
 10
27857.604341291921
 20
1683.749496429288
 30
0.0
 11
27777.604341291921
 21
1619.9724140445701
 31
0.0
  0
LINE
  5
B34D
  8
YODOROGO
 10
27937.604341291921
 20
1619.9724140445701
 30
0.0
 11
27857.604341291921
 21
1683.749496429288
 31
0.0
  0
LINE
  5
B34E
  8
YODOROGO
 10
27857.604341291921
 20
1707.749496429288
 30
0.0
 11
27937.604341291921
 21
1643.9724140445701
 31
0.0
  0
LINE
  5
B34F
  8
YODOROGO
 10
27777.604341291921
 20
1643.9724140445701
 30
0.0
 11
27857.604341291921
 21
1707.749496429288
 31
0.0
  0
LINE
  5
B350
  8
YODOROGO
 10
28040.913204016892
 20
1659.749496429288
 30
0.0
 11
28040.913204016892
 21
1683.7494964292871
 31
0.0
  0
LINE
  5
B351
  8
YODOROGO
 10
27977.604341291921
 20
1683.7494964292871
 30
0.0
 11
27977.604341291921
 21
1667.749496429285
 31
0.0
  0
LINE
  5
B352
  8
YODOROGO
 10
28098.135520230931
 20
1707.749496429288
 30
0.0
 11
28098.135520230931
 21
1655.5036372746561
 31
0.0
1001
AUTOCAD_POSTSCRIPT_FIGURE
1002
{
1000
PSFILL
1000
Grayscale
1000
Grayscale
1070
   100
1002
}
  0
LINE
  5
B353
  8
YODOROGO
 10
28082.135520230921
 20
1655.5036372746561
 30
0.0
 11
28082.135520230921
 21
1707.749496429288
 31
0.0
1001
AUTOCAD_POSTSCRIPT_FIGURE
1002
{
1000
PSFILL
1000
Grayscale
1000
Grayscale
1070
   100
1002
}
  0
LINE
  5
B354
  8
YODOROGO
 10
27809.604341291921
 20
1608.771904043258
 30
0.0
 11
27809.604341291921
 21
1632.771904043258
 31
0.0
  0
LINE
  5
B355
  8
YODOROGO
 10
27905.604341291921
 20
1608.771904043258
 30
0.0
 11
27809.604341291921
 21
1608.771904043258
 31
0.0
  0
LINE
  5
B356
  8
YODOROGO
 10
27905.604341291921
 20
1632.771904043258
 30
0.0
 11
27905.604341291921
 21
1608.771904043258
 31
0.0
  0
LINE
  5
B357
  8
YODOROGO
 10
27809.604341291921
 20
1632.771904043258
 30
0.0
 11
27905.604341291921
 21
1632.771904043258
 31
0.0
  0
LINE
  5
B358
  8
YODOROGO
 10
27824.509588915738
 20
1568.5028573704751
 30
0.0
 11
27785.604341291921
 21
1475.7494964292871
 31
0.0
1001
AUTOCAD_POSTSCRIPT_FIGURE
1002
{
1000
PSFILL
1000
Grayscale
1000
Grayscale
1070
   100
1002
}
  0
LINE
  5
B359
  8
YODOROGO
 10
27777.604341291921
 20
1568.5028573704751
 30
0.0
 11
27824.509588915738
 21
1568.5028573704751
 31
0.0
1001
AUTOCAD_POSTSCRIPT_FIGURE
1002
{
1000
PSFILL
1000
Grayscale
1000
Grayscale
1070
   100
1002
}
  0
LINE
  5
B35A
  8
YODOROGO
 10
27777.604341291921
 20
1588.5028573704751
 30
0.0
 11
27777.604341291921
 21
1568.5028573704751
 31
0.0
1001
AUTOCAD_POSTSCRIPT_FIGURE
1002
{
1000
PSFILL
1000
Grayscale
1000
Grayscale
1070
   100
1002
}
  0
LINE
  5
B35B
  8
YODOROGO
 10
27937.604341291921
 20
1588.5028573704751
 30
0.0
 11
27777.604341291921
 21
1588.5028573704751
 31
0.0
1001
AUTOCAD_POSTSCRIPT_FIGURE
1002
{
1000
PSFILL
1000
Grayscale
1000
Grayscale
1070
   100
1002
}
  0
LINE
  5
B35C
  8
YODOROGO
 10
27937.604341291921
 20
1568.5028573704751
 30
0.0
 11
27937.604341291921
 21
1588.5028573704751
 31
0.0
1001
AUTOCAD_POSTSCRIPT_FIGURE
1002
{
1000
PSFILL
1000
Grayscale
1000
Grayscale
1070
   100
1002
}
  0
LINE
  5
B35D
  8
YODOROGO
 10
27844.509588915738
 20
1568.5028573704751
 30
0.0
 11
27937.604341291921
 21
1568.5028573704751
 31
0.0
1001
AUTOCAD_POSTSCRIPT_FIGURE
1002
{
1000
PSFILL
1000
Grayscale
1000
Grayscale
1070
   100
1002
}
  0
LINE
  5
B35E
  8
YODOROGO
 10
27815.546718284771
 20
1495.7494964292871
 30
0.0
 11
27844.509588915738
 21
1568.5028573704751
 31
0.0
1001
AUTOCAD_POSTSCRIPT_FIGURE
1002
{
1000
PSFILL
1000
Grayscale
1000
Grayscale
1070
   100
1002
}
  0
LINE
  5
B35F
  8
YODOROGO
 10
27902.054790808648
 20
1495.7494964292871
 30
0.0
 11
27815.546718284771
 21
1495.7494964292871
 31
0.0
1001
AUTOCAD_POSTSCRIPT_FIGURE
1002
{
1000
PSFILL
1000
Grayscale
1000
Grayscale
1070
   100
1002
}
  0
LINE
  5
B360
  8
YODOROGO
 10
27885.065004790951
 20
1536.2338106976929
 30
0.0
 11
27902.054790808648
 21
1495.7494964292871
 31
0.0
1001
AUTOCAD_POSTSCRIPT_FIGURE
1002
{
1000
PSFILL
1000
Grayscale
1000
Grayscale
1070
   100
1002
}
  0
LINE
  5
B361
  8
YODOROGO
 10
27901.065004790951
 20
1536.2338106976929
 30
0.0
 11
27885.065004790951
 21
1536.2338106976929
 31
0.0
1001
AUTOCAD_POSTSCRIPT_FIGURE
1002
{
1000
PSFILL
1000
Grayscale
1000
Grayscale
1070
   100
1002
}
  0
LINE
  5
B362
  8
YODOROGO
 10
27929.604341291921
 20
1475.7494964292871
 30
0.0
 11
27901.065004790951
 21
1536.2338106976929
 31
0.0
1001
AUTOCAD_POSTSCRIPT_FIGURE
1002
{
1000
PSFILL
1000
Grayscale
1000
Grayscale
1070
   100
1002
}
  0
LINE
  5
B363
  8
YODOROGO
 10
27785.604341291921
 20
1475.7494964292871
 30
0.0
 11
27929.604341291921
 21
1475.7494964292871
 31
0.0
1001
AUTOCAD_POSTSCRIPT_FIGURE
1002
{
1000
PSFILL
1000
Grayscale
1000
Grayscale
1070
   100
1002
}
  0
LINE
  5
B364
  8
YODOROGO
 10
27777.604341291921
 20
1619.9724140445701
 30
0.0
 11
27777.604341291921
 21
1643.9724140445701
 31
0.0
  0
LINE
  5
B365
  8
YODOROGO
 10
27937.604341291921
 20
1643.9724140445701
 30
0.0
 11
27937.604341291921
 21
1619.9724140445701
 31
0.0
  0
ARC
  5
B366
  8
YODOROGO
 10
28225.940442146959
 20
1600.877765325326
 30
0.0
 40
175.9999999999998
 50
280.3644312771313
 51
3.5414836592180561
  0
ARC
  5
B367
  8
YODOROGO
 10
28235.756030759301
 20
1633.5978069619041
 30
0.0
 40
111.9999999999982
 50
281.24905825041549
 51
348.75094174958321
  0
LINE
  5
B368
  8
YODOROGO
 10
28257.604341291921
 20
1523.7494964292871
 30
0.0
 11
28257.604341291921
 21
1427.749496429288
 31
0.0
  0
LINE
  5
B369
  8
YODOROGO
 10
28020.088903736909
 20
1610.650565061914
 30
0.0
 11
28040.913204016892
 21
1659.749496429288
 31
0.0
  0
LINE
  5
B36A
  8
YODOROGO
 10
28041.604341291921
 20
1583.120489948401
 30
0.0
 11
28020.088903736909
 21
1610.650565061914
 31
0.0
  0
LINE
  5
B36B
  8
YODOROGO
 10
28041.604341291921
 20
1563.120489948398
 30
0.0
 11
28041.604341291921
 21
1583.120489948401
 31
0.0
  0
LINE
  5
B36C
  8
YODOROGO
 10
28017.604341291921
 20
1585.2370637495301
 30
0.0
 11
28041.604341291921
 21
1563.120489948398
 31
0.0
  0
LINE
  5
B36D
  8
YODOROGO
 10
28017.604341291921
 20
1475.7494964292871
 30
0.0
 11
28017.604341291921
 21
1585.2370637495301
 31
0.0
  0
LINE
  5
B36E
  8
YODOROGO
 10
28001.604341291921
 20
1475.7494964292871
 30
0.0
 11
28017.604341291921
 21
1475.7494964292871
 31
0.0
  0
LINE
  5
B36F
  8
YODOROGO
 10
28001.604341291921
 20
1580.0053496897469
 30
0.0
 11
28001.604341291921
 21
1475.7494964292871
 31
0.0
  0
LINE
  5
B370
  8
YODOROGO
 10
27977.604341291921
 20
1532.7680790334291
 30
0.0
 11
28001.604341291921
 21
1580.0053496897469
 31
0.0
  0
LINE
  5
B371
  8
YODOROGO
 10
27977.604341291921
 20
1556.76807903343
 30
0.0
 11
27977.604341291921
 21
1532.7680790334291
 31
0.0
  0
LINE
  5
B372
  8
YODOROGO
 10
28025.828774291349
 20
1667.749496429285
 30
0.0
 11
27977.604341291921
 21
1556.76807903343
 31
0.0
  0
LINE
  5
B373
  8
YODOROGO
 10
27977.604341291921
 20
1667.749496429285
 30
0.0
 11
28025.828774291349
 21
1667.749496429285
 31
0.0
  0
LINE
  5
B374
  8
YODOROGO
 10
28050.135520230899
 20
1655.5036372746561
 30
0.0
 11
28082.135520230921
 21
1655.5036372746561
 31
0.0
1001
AUTOCAD_POSTSCRIPT_FIGURE
1002
{
1000
PSFILL
1000
Grayscale
1000
Grayscale
1070
   100
1002
}
  0
LINE
  5
B375
  8
YODOROGO
 10
28050.135520230899
 20
1631.5036372746561
 30
0.0
 11
28050.135520230899
 21
1655.5036372746561
 31
0.0
1001
AUTOCAD_POSTSCRIPT_FIGURE
1002
{
1000
PSFILL
1000
Grayscale
1000
Grayscale
1070
   100
1002
}
  0
LINE
  5
B376
  8
YODOROGO
 10
28082.135520230921
 20
1631.5036372746561
 30
0.0
 11
28050.135520230899
 21
1631.5036372746561
 31
0.0
1001
AUTOCAD_POSTSCRIPT_FIGURE
1002
{
1000
PSFILL
1000
Grayscale
1000
Grayscale
1070
   100
1002
}
  0
LINE
  5
B377
  8
YODOROGO
 10
28082.135520230921
 20
1499.749496429288
 30
0.0
 11
28082.135520230921
 21
1631.5036372746561
 31
0.0
1001
AUTOCAD_POSTSCRIPT_FIGURE
1002
{
1000
PSFILL
1000
Grayscale
1000
Grayscale
1070
   100
1002
}
  0
LINE
  5
B378
  8
YODOROGO
 10
28050.135520230921
 20
1499.749496429288
 30
0.0
 11
28082.135520230921
 21
1499.749496429288
 31
0.0
1001
AUTOCAD_POSTSCRIPT_FIGURE
1002
{
1000
PSFILL
1000
Grayscale
1000
Grayscale
1070
   100
1002
}
  0
LINE
  5
B379
  8
YODOROGO
 10
28050.135520230921
 20
1475.7494964292871
 30
0.0
 11
28050.135520230921
 21
1499.749496429288
 31
0.0
1001
AUTOCAD_POSTSCRIPT_FIGURE
1002
{
1000
PSFILL
1000
Grayscale
1000
Grayscale
1070
   100
1002
}
  0
LINE
  5
B37A
  8
YODOROGO
 10
28137.604341291921
 20
1475.7494964292871
 30
0.0
 11
28050.135520230921
 21
1475.7494964292871
 31
0.0
1001
AUTOCAD_POSTSCRIPT_FIGURE
1002
{
1000
PSFILL
1000
Grayscale
1000
Grayscale
1070
   100
1002
}
  0
LINE
  5
B37B
  8
YODOROGO
 10
28137.604341291921
 20
1499.749496429288
 30
0.0
 11
28137.604341291921
 21
1475.7494964292871
 31
0.0
1001
AUTOCAD_POSTSCRIPT_FIGURE
1002
{
1000
PSFILL
1000
Grayscale
1000
Grayscale
1070
   100
1002
}
  0
LINE
  5
B37C
  8
YODOROGO
 10
28098.135520230931
 20
1499.749496429288
 30
0.0
 11
28137.604341291921
 21
1499.749496429288
 31
0.0
1001
AUTOCAD_POSTSCRIPT_FIGURE
1002
{
1000
PSFILL
1000
Grayscale
1000
Grayscale
1070
   100
1002
}
  0
LINE
  5
B37D
  8
YODOROGO
 10
28098.135520230931
 20
1631.5036372746561
 30
0.0
 11
28098.135520230931
 21
1499.749496429288
 31
0.0
1001
AUTOCAD_POSTSCRIPT_FIGURE
1002
{
1000
PSFILL
1000
Grayscale
1000
Grayscale
1070
   100
1002
}
  0
LINE
  5
B37E
  8
YODOROGO
 10
28137.604341291921
 20
1631.5036372746561
 30
0.0
 11
28098.135520230931
 21
1631.5036372746561
 31
0.0
1001
AUTOCAD_POSTSCRIPT_FIGURE
1002
{
1000
PSFILL
1000
Grayscale
1000
Grayscale
1070
   100
1002
}
  0
LINE
  5
B37F
  8
YODOROGO
 10
28137.604341291921
 20
1655.5036372746561
 30
0.0
 11
28137.604341291921
 21
1631.5036372746561
 31
0.0
1001
AUTOCAD_POSTSCRIPT_FIGURE
1002
{
1000
PSFILL
1000
Grayscale
1000
Grayscale
1070
   100
1002
}
  0
LINE
  5
B380
  8
YODOROGO
 10
28098.135520230931
 20
1655.5036372746561
 30
0.0
 11
28137.604341291921
 21
1655.5036372746561
 31
0.0
1001
AUTOCAD_POSTSCRIPT_FIGURE
1002
{
1000
PSFILL
1000
Grayscale
1000
Grayscale
1070
   100
1002
}
  0
LINE
  5
B381
  8
YODOROGO
 10
28401.60434129191
 20
1667.749496429288
 30
0.0
 11
28345.604341291921
 21
1667.749496429288
 31
0.0
  0
LINE
  5
B382
  8
YODOROGO
 10
28401.60434129191
 20
1611.749496429288
 30
0.0
 11
28401.60434129191
 21
1667.749496429288
 31
0.0
  0
LINE
  5
B383
  8
YODOROGO
 10
28345.604341291921
 20
1667.749496429288
 30
0.0
 11
28345.604341291921
 21
1611.749496429288
 31
0.0
  0
ARC
  5
B384
  8
YODOROGO
 10
28513.60434129191
 20
1507.749496429288
 30
0.0
 40
80.0
 50
180.0
 51
270.0
  0
ARC
  5
B385
  8
YODOROGO
 10
28537.604341291921
 20
1563.7494964292871
 30
0.0
 40
40.0
 50
180.0
 51
270.0
  0
LINE
  5
B386
  8
YODOROGO
 10
28561.604341291932
 20
1523.7494964292871
 30
0.0
 11
28537.604341291921
 21
1523.7494964292871
 31
0.0
  0
ARC
  5
B387
  8
YODOROGO
 10
28561.604341291932
 20
1547.749496429285
 30
0.0
 40
23.999999999996358
 50
270.0
 51
0.0000000000054281
  0
LINE
  5
B388
  8
YODOROGO
 10
27801.604341291921
 20
1890.786580793706
 30
0.0
 11
27777.604341291921
 21
1843.776747951672
 31
0.0
1001
AUTOCAD_POSTSCRIPT_FIGURE
1002
{
1000
PSFILL
1000
Grayscale
1000
Grayscale
1070
   100
1002
}
  0
LINE
  5
B389
  8
YODOROGO
 10
27801.604341291921
 20
1747.749496429286
 30
0.0
 11
27801.604341291921
 21
1890.786580793706
 31
0.0
1001
AUTOCAD_POSTSCRIPT_FIGURE
1002
{
1000
PSFILL
1000
Grayscale
1000
Grayscale
1070
   100
1002
}
  0
LINE
  5
B38A
  8
YODOROGO
 10
27817.604341291921
 20
1747.749496429286
 30
0.0
 11
27801.604341291921
 21
1747.749496429286
 31
0.0
1001
AUTOCAD_POSTSCRIPT_FIGURE
1002
{
1000
PSFILL
1000
Grayscale
1000
Grayscale
1070
   100
1002
}
  0
LINE
  5
B38B
  8
YODOROGO
 10
27817.604341291921
 20
1893.7713320852661
 30
0.0
 11
27817.604341291921
 21
1747.749496429286
 31
0.0
1001
AUTOCAD_POSTSCRIPT_FIGURE
1002
{
1000
PSFILL
1000
Grayscale
1000
Grayscale
1070
   100
1002
}
  0
LINE
  5
B38C
  8
YODOROGO
 10
27841.604341291921
 20
1867.6547582841361
 30
0.0
 11
27817.604341291921
 21
1893.7713320852661
 31
0.0
1001
AUTOCAD_POSTSCRIPT_FIGURE
1002
{
1000
PSFILL
1000
Grayscale
1000
Grayscale
1070
   100
1002
}
  0
LINE
  5
B38D
  8
YODOROGO
 10
27841.604341291921
 20
1883.6547582841361
 30
0.0
 11
27841.604341291921
 21
1867.6547582841361
 31
0.0
1001
AUTOCAD_POSTSCRIPT_FIGURE
1002
{
1000
PSFILL
1000
Grayscale
1000
Grayscale
1070
   100
1002
}
  0
LINE
  5
B38E
  8
YODOROGO
 10
27817.604341291921
 20
1917.7713320852649
 30
0.0
 11
27841.604341291921
 21
1883.6547582841361
 31
0.0
1001
AUTOCAD_POSTSCRIPT_FIGURE
1002
{
1000
PSFILL
1000
Grayscale
1000
Grayscale
1070
   100
1002
}
  0
LINE
  5
B38F
  8
YODOROGO
 10
27817.604341291921
 20
1939.749496429288
 30
0.0
 11
27817.604341291921
 21
1917.7713320852649
 31
0.0
1001
AUTOCAD_POSTSCRIPT_FIGURE
1002
{
1000
PSFILL
1000
Grayscale
1000
Grayscale
1070
   100
1002
}
  0
LINE
  5
B390
  8
YODOROGO
 10
27889.604341291921
 20
1939.749496429288
 30
0.0
 11
27817.604341291921
 21
1939.749496429288
 31
0.0
1001
AUTOCAD_POSTSCRIPT_FIGURE
1002
{
1000
PSFILL
1000
Grayscale
1000
Grayscale
1070
   100
1002
}
  0
LINE
  5
B391
  8
YODOROGO
 10
27889.604341291921
 20
1900.5683489363
 30
0.0
 11
27889.604341291921
 21
1939.749496429288
 31
0.0
1001
AUTOCAD_POSTSCRIPT_FIGURE
1002
{
1000
PSFILL
1000
Grayscale
1000
Grayscale
1070
   100
1002
}
  0
LINE
  5
B392
  8
YODOROGO
 10
27857.604341291921
 20
1900.5683489363
 30
0.0
 11
27889.604341291921
 21
1900.5683489363
 31
0.0
1001
AUTOCAD_POSTSCRIPT_FIGURE
1002
{
1000
PSFILL
1000
Grayscale
1000
Grayscale
1070
   100
1002
}
  0
LINE
  5
B393
  8
YODOROGO
 10
27857.604341291921
 20
1884.568348936298
 30
0.0
 11
27857.604341291921
 21
1900.5683489363
 31
0.0
1001
AUTOCAD_POSTSCRIPT_FIGURE
1002
{
1000
PSFILL
1000
Grayscale
1000
Grayscale
1070
   100
1002
}
  0
LINE
  5
B394
  8
YODOROGO
 10
27889.604341291921
 20
1884.568348936298
 30
0.0
 11
27857.604341291921
 21
1884.568348936298
 31
0.0
1001
AUTOCAD_POSTSCRIPT_FIGURE
1002
{
1000
PSFILL
1000
Grayscale
1000
Grayscale
1070
   100
1002
}
  0
LINE
  5
B395
  8
YODOROGO
 10
27889.604341291921
 20
1879.6191779644371
 30
0.0
 11
27889.604341291921
 21
1884.568348936298
 31
0.0
1001
AUTOCAD_POSTSCRIPT_FIGURE
1002
{
1000
PSFILL
1000
Grayscale
1000
Grayscale
1070
   100
1002
}
  0
LINE
  5
B396
  8
YODOROGO
 10
27849.604341291921
 20
1812.974981161417
 30
0.0
 11
27889.604341291921
 21
1879.6191779644371
 31
0.0
1001
AUTOCAD_POSTSCRIPT_FIGURE
1002
{
1000
PSFILL
1000
Grayscale
1000
Grayscale
1070
   100
1002
}
  0
LINE
  5
B397
  8
YODOROGO
 10
27849.604341291921
 20
1796.9749811614161
 30
0.0
 11
27849.604341291921
 21
1812.974981161417
 31
0.0
1001
AUTOCAD_POSTSCRIPT_FIGURE
1002
{
1000
PSFILL
1000
Grayscale
1000
Grayscale
1070
   100
1002
}
  0
LINE
  5
B398
  8
YODOROGO
 10
27889.604341291921
 20
1847.6191779644359
 30
0.0
 11
27849.604341291921
 21
1796.9749811614161
 31
0.0
1001
AUTOCAD_POSTSCRIPT_FIGURE
1002
{
1000
PSFILL
1000
Grayscale
1000
Grayscale
1070
   100
1002
}
  0
LINE
  5
B399
  8
YODOROGO
 10
27889.604341291921
 20
1747.749496429286
 30
0.0
 11
27889.604341291921
 21
1847.6191779644359
 31
0.0
1001
AUTOCAD_POSTSCRIPT_FIGURE
1002
{
1000
PSFILL
1000
Grayscale
1000
Grayscale
1070
   100
1002
}
  0
LINE
  5
B39A
  8
YODOROGO
 10
27905.604341291921
 20
1747.749496429286
 30
0.0
 11
27889.604341291921
 21
1747.749496429286
 31
0.0
1001
AUTOCAD_POSTSCRIPT_FIGURE
1002
{
1000
PSFILL
1000
Grayscale
1000
Grayscale
1070
   100
1002
}
  0
LINE
  5
B39B
  8
YODOROGO
 10
27905.604341291921
 20
1849.409012158806
 30
0.0
 11
27905.604341291921
 21
1747.749496429286
 31
0.0
1001
AUTOCAD_POSTSCRIPT_FIGURE
1002
{
1000
PSFILL
1000
Grayscale
1000
Grayscale
1070
   100
1002
}
  0
LINE
  5
B39C
  8
YODOROGO
 10
27937.604341291921
 20
1796.9749811614161
 30
0.0
 11
27905.604341291921
 21
1849.409012158806
 31
0.0
1001
AUTOCAD_POSTSCRIPT_FIGURE
1002
{
1000
PSFILL
1000
Grayscale
1000
Grayscale
1070
   100
1002
}
  0
LINE
  5
B39D
  8
YODOROGO
 10
27937.604341291921
 20
1812.974981161417
 30
0.0
 11
27937.604341291921
 21
1796.9749811614161
 31
0.0
1001
AUTOCAD_POSTSCRIPT_FIGURE
1002
{
1000
PSFILL
1000
Grayscale
1000
Grayscale
1070
   100
1002
}
  0
LINE
  5
B39E
  8
YODOROGO
 10
27905.604341291921
 20
1881.4090121588081
 30
0.0
 11
27937.604341291921
 21
1812.974981161417
 31
0.0
1001
AUTOCAD_POSTSCRIPT_FIGURE
1002
{
1000
PSFILL
1000
Grayscale
1000
Grayscale
1070
   100
1002
}
  0
LINE
  5
B39F
  8
YODOROGO
 10
27905.604341291921
 20
1884.5683489363
 30
0.0
 11
27905.604341291921
 21
1881.4090121588081
 31
0.0
1001
AUTOCAD_POSTSCRIPT_FIGURE
1002
{
1000
PSFILL
1000
Grayscale
1000
Grayscale
1070
   100
1002
}
  0
LINE
  5
B3A0
  8
YODOROGO
 10
27937.604341291921
 20
1884.568348936298
 30
0.0
 11
27905.604341291921
 21
1884.5683489363
 31
0.0
1001
AUTOCAD_POSTSCRIPT_FIGURE
1002
{
1000
PSFILL
1000
Grayscale
1000
Grayscale
1070
   100
1002
}
  0
LINE
  5
B3A1
  8
YODOROGO
 10
27937.604341291921
 20
1900.5683489363
 30
0.0
 11
27937.604341291921
 21
1884.568348936298
 31
0.0
1001
AUTOCAD_POSTSCRIPT_FIGURE
1002
{
1000
PSFILL
1000
Grayscale
1000
Grayscale
1070
   100
1002
}
  0
LINE
  5
B3A2
  8
YODOROGO
 10
27905.604341291921
 20
1900.5683489363
 30
0.0
 11
27937.604341291921
 21
1900.5683489363
 31
0.0
1001
AUTOCAD_POSTSCRIPT_FIGURE
1002
{
1000
PSFILL
1000
Grayscale
1000
Grayscale
1070
   100
1002
}
  0
LINE
  5
B3A3
  8
YODOROGO
 10
27905.604341291921
 20
1939.749496429288
 30
0.0
 11
27905.604341291921
 21
1900.5683489363
 31
0.0
1001
AUTOCAD_POSTSCRIPT_FIGURE
1002
{
1000
PSFILL
1000
Grayscale
1000
Grayscale
1070
   100
1002
}
  0
LINE
  5
B3A4
  8
YODOROGO
 10
27937.604341291921
 20
1939.749496429288
 30
0.0
 11
27905.604341291921
 21
1939.749496429288
 31
0.0
1001
AUTOCAD_POSTSCRIPT_FIGURE
1002
{
1000
PSFILL
1000
Grayscale
1000
Grayscale
1070
   100
1002
}
  0
LINE
  5
B3A5
  8
YODOROGO
 10
27937.604341291921
 20
1955.7494964292871
 30
0.0
 11
27937.604341291921
 21
1939.749496429288
 31
0.0
1001
AUTOCAD_POSTSCRIPT_FIGURE
1002
{
1000
PSFILL
1000
Grayscale
1000
Grayscale
1070
   100
1002
}
  0
LINE
  5
B3A6
  8
YODOROGO
 10
27905.604341291921
 20
1955.7494964292871
 30
0.0
 11
27937.604341291921
 21
1955.7494964292871
 31
0.0
1001
AUTOCAD_POSTSCRIPT_FIGURE
1002
{
1000
PSFILL
1000
Grayscale
1000
Grayscale
1070
   100
1002
}
  0
LINE
  5
B3A7
  8
YODOROGO
 10
27905.604341291921
 20
1979.749496429288
 30
0.0
 11
27905.604341291921
 21
1955.7494964292871
 31
0.0
1001
AUTOCAD_POSTSCRIPT_FIGURE
1002
{
1000
PSFILL
1000
Grayscale
1000
Grayscale
1070
   100
1002
}
  0
LINE
  5
B3A8
  8
YODOROGO
 10
27889.604341291921
 20
1979.749496429288
 30
0.0
 11
27905.604341291921
 21
1979.749496429288
 31
0.0
1001
AUTOCAD_POSTSCRIPT_FIGURE
1002
{
1000
PSFILL
1000
Grayscale
1000
Grayscale
1070
   100
1002
}
  0
LINE
  5
B3A9
  8
YODOROGO
 10
27889.604341291921
 20
1955.7494964292871
 30
0.0
 11
27889.604341291921
 21
1979.749496429288
 31
0.0
1001
AUTOCAD_POSTSCRIPT_FIGURE
1002
{
1000
PSFILL
1000
Grayscale
1000
Grayscale
1070
   100
1002
}
  0
LINE
  5
B3AA
  8
YODOROGO
 10
27865.604341291921
 20
1955.7494964292871
 30
0.0
 11
27889.604341291921
 21
1955.7494964292871
 31
0.0
1001
AUTOCAD_POSTSCRIPT_FIGURE
1002
{
1000
PSFILL
1000
Grayscale
1000
Grayscale
1070
   100
1002
}
  0
LINE
  5
B3AB
  8
YODOROGO
 10
27865.604341291921
 20
1979.749496429288
 30
0.0
 11
27865.604341291921
 21
1955.7494964292871
 31
0.0
1001
AUTOCAD_POSTSCRIPT_FIGURE
1002
{
1000
PSFILL
1000
Grayscale
1000
Grayscale
1070
   100
1002
}
  0
LINE
  5
B3AC
  8
YODOROGO
 10
27849.604341291921
 20
1979.749496429288
 30
0.0
 11
27865.604341291921
 21
1979.749496429288
 31
0.0
1001
AUTOCAD_POSTSCRIPT_FIGURE
1002
{
1000
PSFILL
1000
Grayscale
1000
Grayscale
1070
   100
1002
}
  0
LINE
  5
B3AD
  8
YODOROGO
 10
27849.604341291921
 20
1955.7494964292871
 30
0.0
 11
27849.604341291921
 21
1979.749496429288
 31
0.0
1001
AUTOCAD_POSTSCRIPT_FIGURE
1002
{
1000
PSFILL
1000
Grayscale
1000
Grayscale
1070
   100
1002
}
  0
LINE
  5
B3AE
  8
YODOROGO
 10
27817.604341291921
 20
1955.7494964292871
 30
0.0
 11
27849.604341291921
 21
1955.7494964292871
 31
0.0
1001
AUTOCAD_POSTSCRIPT_FIGURE
1002
{
1000
PSFILL
1000
Grayscale
1000
Grayscale
1070
   100
1002
}
  0
LINE
  5
B3AF
  8
YODOROGO
 10
27817.604341291921
 20
1979.749496429288
 30
0.0
 11
27817.604341291921
 21
1955.7494964292871
 31
0.0
1001
AUTOCAD_POSTSCRIPT_FIGURE
1002
{
1000
PSFILL
1000
Grayscale
1000
Grayscale
1070
   100
1002
}
  0
LINE
  5
B3B0
  8
YODOROGO
 10
27801.604341291921
 20
1979.749496429288
 30
0.0
 11
27817.604341291921
 21
1979.749496429288
 31
0.0
1001
AUTOCAD_POSTSCRIPT_FIGURE
1002
{
1000
PSFILL
1000
Grayscale
1000
Grayscale
1070
   100
1002
}
  0
LINE
  5
B3B1
  8
YODOROGO
 10
27801.604341291921
 20
1955.7494964292871
 30
0.0
 11
27801.604341291921
 21
1979.749496429288
 31
0.0
1001
AUTOCAD_POSTSCRIPT_FIGURE
1002
{
1000
PSFILL
1000
Grayscale
1000
Grayscale
1070
   100
1002
}
  0
LINE
  5
B3B2
  8
YODOROGO
 10
27777.604341291921
 20
1955.7494964292871
 30
0.0
 11
27801.604341291921
 21
1955.7494964292871
 31
0.0
1001
AUTOCAD_POSTSCRIPT_FIGURE
1002
{
1000
PSFILL
1000
Grayscale
1000
Grayscale
1070
   100
1002
}
  0
LINE
  5
B3B3
  8
YODOROGO
 10
27777.604341291921
 20
1939.749496429288
 30
0.0
 11
27777.604341291921
 21
1955.7494964292871
 31
0.0
1001
AUTOCAD_POSTSCRIPT_FIGURE
1002
{
1000
PSFILL
1000
Grayscale
1000
Grayscale
1070
   100
1002
}
  0
LINE
  5
B3B4
  8
YODOROGO
 10
27801.604341291921
 20
1939.749496429288
 30
0.0
 11
27777.604341291921
 21
1939.749496429288
 31
0.0
1001
AUTOCAD_POSTSCRIPT_FIGURE
1002
{
1000
PSFILL
1000
Grayscale
1000
Grayscale
1070
   100
1002
}
  0
LINE
  5
B3B5
  8
YODOROGO
 10
27801.604341291921
 20
1914.7865807937051
 30
0.0
 11
27801.604341291921
 21
1939.749496429288
 31
0.0
1001
AUTOCAD_POSTSCRIPT_FIGURE
1002
{
1000
PSFILL
1000
Grayscale
1000
Grayscale
1070
   100
1002
}
  0
LINE
  5
B3B6
  8
YODOROGO
 10
27777.604341291921
 20
1859.776747951671
 30
0.0
 11
27801.604341291921
 21
1914.7865807937051
 31
0.0
1001
AUTOCAD_POSTSCRIPT_FIGURE
1002
{
1000
PSFILL
1000
Grayscale
1000
Grayscale
1070
   100
1002
}
  0
LINE
  5
B3B7
  8
YODOROGO
 10
27777.604341291921
 20
1843.776747951672
 30
0.0
 11
27777.604341291921
 21
1859.776747951671
 31
0.0
1001
AUTOCAD_POSTSCRIPT_FIGURE
1002
{
1000
PSFILL
1000
Grayscale
1000
Grayscale
1070
   100
1002
}
  0
LINE
  5
B3B8
  8
YODOROGO
 10
28257.604341291921
 20
1867.7494964292871
 30
0.0
 11
28401.60434129191
 21
1824.877625640306
 31
0.0
1001
AUTOCAD_POSTSCRIPT_FIGURE
1002
{
1000
PSFILL
1000
Grayscale
1000
Grayscale
1070
   100
1002
}
  0
LINE
  5
B3B9
  8
YODOROGO
 10
28401.60434129191
 20
1752.877625640306
 30
0.0
 11
28257.604341291921
 21
1795.7494964292871
 31
0.0
1001
AUTOCAD_POSTSCRIPT_FIGURE
1002
{
1000
PSFILL
1000
Grayscale
1000
Grayscale
1070
   100
1002
}
  0
LINE
  5
B3BA
  8
YODOROGO
 10
28401.60434129191
 20
1984.877625640306
 30
0.0
 11
28257.604341291921
 21
2027.749496429288
 31
0.0
1001
AUTOCAD_POSTSCRIPT_FIGURE
1002
{
1000
PSFILL
1000
Grayscale
1000
Grayscale
1070
   100
1002
}
  0
LINE
  5
B3BB
  8
YODOROGO
 10
28257.604341291921
 20
1959.749496429288
 30
0.0
 11
28401.60434129191
 21
1916.8776256403071
 31
0.0
1001
AUTOCAD_POSTSCRIPT_FIGURE
1002
{
1000
PSFILL
1000
Grayscale
1000
Grayscale
1070
   100
1002
}
  0
LINE
  5
B3BC
  8
YODOROGO
 10
28257.604341291921
 20
1795.7494964292871
 30
0.0
 11
28257.604341291921
 21
1867.7494964292871
 31
0.0
1001
AUTOCAD_POSTSCRIPT_FIGURE
1002
{
1000
PSFILL
1000
Grayscale
1000
Grayscale
1070
   100
1002
}
  0
LINE
  5
B3BD
  8
YODOROGO
 10
28257.604341291921
 20
2027.749496429288
 30
0.0
 11
28257.604341291921
 21
1959.749496429288
 31
0.0
1001
AUTOCAD_POSTSCRIPT_FIGURE
1002
{
1000
PSFILL
1000
Grayscale
1000
Grayscale
1070
   100
1002
}
  0
LINE
  5
B3BE
  8
YODOROGO
 10
28080.236320206739
 20
1939.749496429288
 30
0.0
 11
28129.60434129191
 21
1747.749496429286
 31
0.0
1001
AUTOCAD_POSTSCRIPT_FIGURE
1002
{
1000
PSFILL
1000
Grayscale
1000
Grayscale
1070
   100
1002
}
  0
LINE
  5
B3BF
  8
YODOROGO
 10
27977.604341291921
 20
1939.749496429288
 30
0.0
 11
28080.236320206739
 21
1939.749496429288
 31
0.0
1001
AUTOCAD_POSTSCRIPT_FIGURE
1002
{
1000
PSFILL
1000
Grayscale
1000
Grayscale
1070
   100
1002
}
  0
LINE
  5
B3C0
  8
YODOROGO
 10
27977.604341291921
 20
1955.7494964292871
 30
0.0
 11
27977.604341291921
 21
1939.749496429288
 31
0.0
1001
AUTOCAD_POSTSCRIPT_FIGURE
1002
{
1000
PSFILL
1000
Grayscale
1000
Grayscale
1070
   100
1002
}
  0
LINE
  5
B3C1
  8
YODOROGO
 10
28076.60687851991
 20
1955.7494964292871
 30
0.0
 11
27977.604341291921
 21
1955.7494964292871
 31
0.0
1001
AUTOCAD_POSTSCRIPT_FIGURE
1002
{
1000
PSFILL
1000
Grayscale
1000
Grayscale
1070
   100
1002
}
  0
LINE
  5
B3C2
  8
YODOROGO
 10
28071.162715989711
 20
1979.749496429288
 30
0.0
 11
28076.60687851991
 21
1955.7494964292871
 31
0.0
1001
AUTOCAD_POSTSCRIPT_FIGURE
1002
{
1000
PSFILL
1000
Grayscale
1000
Grayscale
1070
   100
1002
}
  0
LINE
  5
B3C3
  8
YODOROGO
 10
28091.162715989711
 20
1979.749496429288
 30
0.0
 11
28071.162715989711
 21
1979.749496429288
 31
0.0
1001
AUTOCAD_POSTSCRIPT_FIGURE
1002
{
1000
PSFILL
1000
Grayscale
1000
Grayscale
1070
   100
1002
}
  0
LINE
  5
B3C4
  8
YODOROGO
 10
28095.806878519939
 20
1955.7494964292871
 30
0.0
 11
28091.162715989711
 21
1979.749496429288
 31
0.0
1001
AUTOCAD_POSTSCRIPT_FIGURE
1002
{
1000
PSFILL
1000
Grayscale
1000
Grayscale
1070
   100
1002
}
  0
LINE
  5
B3C5
  8
YODOROGO
 10
28121.604341291921
 20
1955.7494964292871
 30
0.0
 11
28095.806878519939
 21
1955.7494964292871
 31
0.0
1001
AUTOCAD_POSTSCRIPT_FIGURE
1002
{
1000
PSFILL
1000
Grayscale
1000
Grayscale
1070
   100
1002
}
  0
LINE
  5
B3C6
  8
YODOROGO
 10
28121.604341291921
 20
1979.749496429288
 30
0.0
 11
28121.604341291921
 21
1955.7494964292871
 31
0.0
1001
AUTOCAD_POSTSCRIPT_FIGURE
1002
{
1000
PSFILL
1000
Grayscale
1000
Grayscale
1070
   100
1002
}
  0
LINE
  5
B3C7
  8
YODOROGO
 10
28137.604341291921
 20
1979.749496429288
 30
0.0
 11
28121.604341291921
 21
1979.749496429288
 31
0.0
1001
AUTOCAD_POSTSCRIPT_FIGURE
1002
{
1000
PSFILL
1000
Grayscale
1000
Grayscale
1070
   100
1002
}
  0
LINE
  5
B3C8
  8
YODOROGO
 10
28137.604341291921
 20
1955.7494964292871
 30
0.0
 11
28137.604341291921
 21
1979.749496429288
 31
0.0
1001
AUTOCAD_POSTSCRIPT_FIGURE
1002
{
1000
PSFILL
1000
Grayscale
1000
Grayscale
1070
   100
1002
}
  0
LINE
  5
B3C9
  8
YODOROGO
 10
28137.604341291921
 20
1939.749496429288
 30
0.0
 11
28137.604341291921
 21
1955.7494964292871
 31
0.0
1001
AUTOCAD_POSTSCRIPT_FIGURE
1002
{
1000
PSFILL
1000
Grayscale
1000
Grayscale
1070
   100
1002
}
  0
LINE
  5
B3CA
  8
YODOROGO
 10
28098.902986873411
 20
1939.749496429288
 30
0.0
 11
28137.604341291921
 21
1939.749496429288
 31
0.0
1001
AUTOCAD_POSTSCRIPT_FIGURE
1002
{
1000
PSFILL
1000
Grayscale
1000
Grayscale
1070
   100
1002
}
  0
LINE
  5
B3CB
  8
YODOROGO
 10
28137.604341291921
 20
1747.749496429286
 30
0.0
 11
28098.902986873411
 21
1939.749496429288
 31
0.0
1001
AUTOCAD_POSTSCRIPT_FIGURE
1002
{
1000
PSFILL
1000
Grayscale
1000
Grayscale
1070
   100
1002
}
  0
LINE
  5
B3CC
  8
YODOROGO
 10
28129.60434129191
 20
1747.749496429286
 30
0.0
 11
28137.604341291921
 21
1747.749496429286
 31
0.0
1001
AUTOCAD_POSTSCRIPT_FIGURE
1002
{
1000
PSFILL
1000
Grayscale
1000
Grayscale
1070
   100
1002
}
  0
LINE
  5
B3CD
  8
YODOROGO
 10
28078.06921993379
 20
1775.7407762987939
 30
0.0
 11
27977.604341291921
 21
1747.749496429286
 31
0.0
  0
LINE
  5
B3CE
  8
YODOROGO
 10
28078.06921993379
 20
1798.6689795290731
 30
0.0
 11
28078.06921993379
 21
1775.7407762987939
 31
0.0
  0
LINE
  5
B3CF
  8
YODOROGO
 10
28033.83678061287
 20
1786.816933133767
 30
0.0
 11
28078.06921993379
 21
1798.6689795290731
 31
0.0
  0
LINE
  5
B3D0
  8
YODOROGO
 10
28033.83678061287
 20
1872.5683489362989
 30
0.0
 11
28033.83678061287
 21
1786.816933133767
 31
0.0
  0
LINE
  5
B3D1
  8
YODOROGO
 10
28078.06921993379
 20
1872.5683489362989
 30
0.0
 11
28033.83678061287
 21
1872.5683489362989
 31
0.0
  0
LINE
  5
B3D2
  8
YODOROGO
 10
28078.06921993379
 20
1892.568348936298
 30
0.0
 11
28078.06921993379
 21
1872.5683489362989
 31
0.0
  0
LINE
  5
B3D3
  8
YODOROGO
 10
27977.604341291921
 20
1892.568348936298
 30
0.0
 11
28078.06921993379
 21
1892.568348936298
 31
0.0
  0
LINE
  5
B3D4
  8
YODOROGO
 10
27977.604341291921
 20
1872.5683489362989
 30
0.0
 11
27977.604341291921
 21
1892.568348936298
 31
0.0
  0
LINE
  5
B3D5
  8
YODOROGO
 10
28021.836780612852
 20
1872.5683489362989
 30
0.0
 11
27977.604341291921
 21
1872.5683489362989
 31
0.0
  0
LINE
  5
B3D6
  8
YODOROGO
 10
28021.836780612852
 20
1784.673339594317
 30
0.0
 11
28021.836780612852
 21
1872.5683489362989
 31
0.0
  0
LINE
  5
B3D7
  8
YODOROGO
 10
27977.604341291921
 20
1771.749496429286
 30
0.0
 11
28021.836780612852
 21
1784.673339594317
 31
0.0
  0
LINE
  5
B3D8
  8
YODOROGO
 10
27977.604341291921
 20
1747.749496429286
 30
0.0
 11
27977.604341291921
 21
1771.749496429286
 31
0.0
  0
LINE
  5
B3D9
  8
YODOROGO
 10
28001.604341291921
 20
1707.749496429288
 30
0.0
 11
28001.604341291921
 21
1683.7494964292871
 31
0.0
  0
LINE
  5
B3DA
  8
YODOROGO
 10
28017.604341291921
 20
1707.749496429288
 30
0.0
 11
28001.604341291921
 21
1707.749496429288
 31
0.0
  0
LINE
  5
B3DB
  8
YODOROGO
 10
28017.604341291921
 20
1683.7494964292871
 30
0.0
 11
28017.604341291921
 21
1707.749496429288
 31
0.0
  0
LINE
  5
B3DC
  8
YODOROGO
 10
28040.913204016892
 20
1683.7494964292871
 30
0.0
 11
28017.604341291921
 21
1683.7494964292871
 31
0.0
  0
LINE
  5
B3DD
  8
YODOROGO
 10
28001.604341291921
 20
1683.7494964292871
 30
0.0
 11
27977.604341291921
 21
1683.7494964292871
 31
0.0
  0
LINE
  5
B3DE
  8
YODOROGO
 10
28082.135520230921
 20
1707.749496429288
 30
0.0
 11
28098.135520230931
 21
1707.749496429288
 31
0.0
1001
AUTOCAD_POSTSCRIPT_FIGURE
1002
{
1000
PSFILL
1000
Grayscale
1000
Grayscale
1070
   100
1002
}
  0
LINE
  5
B3DF
  8
YODOROGO
 10
28401.60434129191
 20
1824.877625640306
 30
0.0
 11
28401.60434129191
 21
1752.877625640306
 31
0.0
1001
AUTOCAD_POSTSCRIPT_FIGURE
1002
{
1000
PSFILL
1000
Grayscale
1000
Grayscale
1070
   100
1002
}
  0
LINE
  5
B3E0
  8
YODOROGO
 10
28401.60434129191
 20
1916.8776256403071
 30
0.0
 11
28401.60434129191
 21
1984.877625640306
 31
0.0
1001
AUTOCAD_POSTSCRIPT_FIGURE
1002
{
1000
PSFILL
1000
Grayscale
1000
Grayscale
1070
   100
1002
}
  0
LINE
  5
B3E1
  8
YODOROGO
 10
28433.60434129191
 20
1819.7494964292871
 30
0.0
 11
28433.60434129191
 21
1747.74949642929
 31
0.0
  0
LINE
  5
B3E2
  8
YODOROGO
 10
28497.60434129191
 20
1707.749496429288
 30
0.0
 11
28433.60434129191
 21
1707.749496429288
 31
0.0
  0
LINE
  5
B3E3
  8
YODOROGO
 10
28433.60434129191
 20
1747.74949642929
 30
0.0
 11
28585.604341291921
 21
1747.74949642929
 31
0.0
  0
LINE
  5
B3E4
  8
YODOROGO
 10
28497.60434129191
 20
1867.7494964292871
 30
0.0
 11
28433.60434129191
 21
1867.7494964292871
 31
0.0
  0
LINE
  5
B3E5
  8
YODOROGO
 10
28497.60434129191
 20
1923.7494964292871
 30
0.0
 11
28497.60434129191
 21
1867.7494964292871
 31
0.0
  0
LINE
  5
B3E6
  8
YODOROGO
 10
28585.604341291921
 20
1987.7494964292871
 30
0.0
 11
28585.604341291921
 21
2027.749496429288
 31
0.0
  0
LINE
  5
B3E7
  8
YODOROGO
 10
28433.60434129191
 20
1987.7494964292871
 30
0.0
 11
28585.604341291921
 21
1987.7494964292871
 31
0.0
  0
LINE
  5
B3E8
  8
YODOROGO
 10
28433.60434129191
 20
1867.7494964292871
 30
0.0
 11
28433.60434129191
 21
1987.7494964292871
 31
0.0
  0
LINE
  5
B3E9
  8
YODOROGO
 10
29001.60434129191
 20
2027.749496429288
 30
0.0
 11
29001.60434129191
 21
1619.749496429288
 31
0.0
  0
LINE
  5
B3EA
  8
YODOROGO
 10
29073.604341291921
 20
1579.749496429288
 30
0.0
 11
29073.604341291921
 21
2027.749496429288
 31
0.0
  0
LINE
  5
B3EB
  8
YODOROGO
 10
29261.604341291921
 20
1491.749496429286
 30
0.0
 11
29261.604341291921
 21
2007.749496429288
 31
0.0
  0
LINE
  5
B3EC
  8
YODOROGO
 10
29197.604341291921
 20
2007.749496429288
 30
0.0
 11
29197.604341291921
 21
1491.749496429286
 31
0.0
  0
LINE
  5
B3ED
  8
YODOROGO
 10
29385.604341291921
 20
2027.749496429288
 30
0.0
 11
29385.604341291921
 21
1427.749496429288
 31
0.0
  0
LINE
  5
B3EE
  8
YODOROGO
 10
29457.604341291921
 20
1427.749496429288
 30
0.0
 11
29457.604341291921
 21
2027.749496429288
 31
0.0
  0
LINE
  5
B3EF
  8
YODOROGO
 10
28657.604341291921
 20
1667.749496429288
 30
0.0
 11
28657.604341291921
 21
1747.74949642929
 31
0.0
  0
LINE
  5
B3F0
  8
YODOROGO
 10
29885.604341291921
 20
1707.749496429288
 30
0.0
 11
29885.604341291921
 21
1667.749496429288
 31
0.0
  0
LINE
  5
B3F1
  8
YODOROGO
 10
29885.604341291921
 20
1707.749496429288
 30
0.0
 11
29885.604341291921
 21
1667.749496429288
 31
0.0
  0
ARC
  5
B3F2
  8
YODOROGO
 10
28906.911576186842
 20
1618.217864442272
 30
0.0
 40
94.705151178741644
 50
274.05244162907098
 51
0.9266642149310712
  0
ARC
  5
B3F3
  8
YODOROGO
 10
28909.186170719819
 20
1592.61072861044
 30
0.0
 40
164.92042356085511
 50
271.5351210653775
 51
355.52727750585052
  0
LINE
  5
B3F4
  8
YODOROGO
 10
28913.604341291921
 20
1523.7494964292871
 30
0.0
 11
28913.604341291921
 21
1427.749496429288
 31
0.0
  0
LINE
  5
B3F5
  8
YODOROGO
 10
28793.60434129191
 20
1667.749496429288
 30
0.0
 11
28657.604341291921
 21
1667.749496429288
 31
0.0
  0
LINE
  5
B3F6
  8
YODOROGO
 10
28793.60434129191
 20
1603.7494964292871
 30
0.0
 11
28793.60434129191
 21
1667.749496429288
 31
0.0
  0
LINE
  5
B3F7
  8
YODOROGO
 10
28657.604341291921
 20
1603.7494964292871
 30
0.0
 11
28793.60434129191
 21
1603.7494964292871
 31
0.0
  0
LINE
  5
B3F8
  8
YODOROGO
 10
28657.604341291921
 20
1523.7494964292871
 30
0.0
 11
28657.604341291921
 21
1603.7494964292871
 31
0.0
  0
LINE
  5
B3F9
  8
YODOROGO
 10
28793.60434129191
 20
1523.7494964292871
 30
0.0
 11
28657.604341291921
 21
1523.7494964292871
 31
0.0
  0
LINE
  5
B3FA
  8
YODOROGO
 10
28793.60434129191
 20
1427.749496429288
 30
0.0
 11
28793.60434129191
 21
1523.7494964292871
 31
0.0
  0
LINE
  5
B3FB
  8
YODOROGO
 10
29197.604341291921
 20
1491.749496429286
 30
0.0
 11
29261.604341291921
 21
1491.749496429286
 31
0.0
  0
LINE
  5
B3FC
  8
YODOROGO
 10
29385.604341291921
 20
1427.749496429288
 30
0.0
 11
29457.604341291921
 21
1427.749496429288
 31
0.0
  0
LINE
  5
B3FD
  8
YODOROGO
 10
29737.604341291921
 20
1528.4414521705639
 30
0.0
 11
29737.604341291921
 21
1427.749496429288
 31
0.0
  0
LINE
  5
B3FE
  8
YODOROGO
 10
29617.604341291921
 20
1427.749496429288
 30
0.0
 11
29737.604341291921
 21
1528.4414521705639
 31
0.0
  0
LINE
  5
B3FF
  8
YODOROGO
 10
29617.604341291921
 20
1547.749496429288
 30
0.0
 11
29617.604341291921
 21
1427.749496429288
 31
0.0
  0
LINE
  5
B400
  8
YODOROGO
 10
29712.94462869945
 20
1627.749496429288
 30
0.0
 11
29617.604341291921
 21
1547.749496429288
 31
0.0
  0
LINE
  5
B401
  8
YODOROGO
 10
29617.604341291921
 20
1627.749496429288
 30
0.0
 11
29712.94462869945
 21
1627.749496429288
 31
0.0
  0
LINE
  5
B402
  8
YODOROGO
 10
29617.604341291921
 20
1667.749496429288
 30
0.0
 11
29617.604341291921
 21
1627.749496429288
 31
0.0
  0
LINE
  5
B403
  8
YODOROGO
 10
29885.604341291921
 20
1667.749496429288
 30
0.0
 11
29617.604341291921
 21
1667.749496429288
 31
0.0
  0
LINE
  5
B404
  8
YODOROGO
 10
29917.604341291921
 20
1627.749496429288
 30
0.0
 11
29777.604341291921
 21
1627.749496429288
 31
0.0
  0
LINE
  5
B405
  8
YODOROGO
 10
29777.604341291921
 20
1562.0054374176559
 30
0.0
 11
29771.409872985321
 21
1556.807661346234
 31
0.0
  0
LINE
  5
B406
  8
YODOROGO
 10
29777.604341291921
 20
1627.749496429288
 30
0.0
 11
29777.604341291921
 21
1562.0054374176559
 31
0.0
  0
LINE
  5
B407
  8
YODOROGO
 10
29737.604341291921
 20
1528.4414521705639
 30
0.0
 11
29737.604341291921
 21
1427.749496429288
 31
0.0
  0
LINE
  5
B408
  8
YODOROGO
 10
29617.604341291921
 20
1427.749496429288
 30
0.0
 11
29737.604341291921
 21
1528.4414521705639
 31
0.0
  0
LINE
  5
B409
  8
YODOROGO
 10
29617.604341291921
 20
1547.749496429288
 30
0.0
 11
29617.604341291921
 21
1427.749496429288
 31
0.0
  0
LINE
  5
B40A
  8
YODOROGO
 10
29712.94462869945
 20
1627.749496429288
 30
0.0
 11
29617.604341291921
 21
1547.749496429288
 31
0.0
  0
LINE
  5
B40B
  8
YODOROGO
 10
29617.604341291921
 20
1627.749496429288
 30
0.0
 11
29712.94462869945
 21
1627.749496429288
 31
0.0
  0
LINE
  5
B40C
  8
YODOROGO
 10
29617.604341291921
 20
1667.749496429288
 30
0.0
 11
29617.604341291921
 21
1627.749496429288
 31
0.0
  0
LINE
  5
B40D
  8
YODOROGO
 10
29885.604341291921
 20
1667.749496429288
 30
0.0
 11
29617.604341291921
 21
1667.749496429288
 31
0.0
  0
LINE
  5
B40E
  8
YODOROGO
 10
28793.60434129191
 20
1747.74949642929
 30
0.0
 11
28793.60434129191
 21
1819.7494964292871
 31
0.0
  0
LINE
  5
B40F
  8
YODOROGO
 10
28657.604341291921
 20
1747.74949642929
 30
0.0
 11
28793.60434129191
 21
1747.74949642929
 31
0.0
  0
LINE
  5
B410
  8
YODOROGO
 10
28729.604341291921
 20
1867.7494964292871
 30
0.0
 11
28729.604341291921
 21
1923.7494964292871
 31
0.0
  0
LINE
  5
B411
  8
YODOROGO
 10
28793.60434129191
 20
1867.7494964292871
 30
0.0
 11
28729.604341291921
 21
1867.7494964292871
 31
0.0
  0
LINE
  5
B412
  8
YODOROGO
 10
28793.60434129191
 20
1947.749496429288
 30
0.0
 11
28793.60434129191
 21
1867.7494964292871
 31
0.0
  0
ARC
  5
B413
  8
YODOROGO
 10
28753.60434129191
 20
1947.749496429288
 30
0.0
 40
40.0
 50
0.0
 51
90.0
  0
LINE
  5
B414
  8
YODOROGO
 10
28657.604341291921
 20
1987.7494964292871
 30
0.0
 11
28753.60434129191
 21
1987.7494964292871
 31
0.0
  0
LINE
  5
B415
  8
YODOROGO
 10
28657.604341291921
 20
2027.749496429288
 30
0.0
 11
28657.604341291921
 21
1987.7494964292871
 31
0.0
  0
LINE
  5
B416
  8
YODOROGO
 10
29073.604341291921
 20
2027.749496429288
 30
0.0
 11
29001.60434129191
 21
2027.749496429288
 31
0.0
  0
LINE
  5
B417
  8
YODOROGO
 10
29261.604341291921
 20
2007.749496429288
 30
0.0
 11
29197.604341291921
 21
2007.749496429288
 31
0.0
  0
LINE
  5
B418
  8
YODOROGO
 10
29457.604341291921
 20
2027.749496429288
 30
0.0
 11
29385.604341291921
 21
2027.749496429288
 31
0.0
  0
LINE
  5
B419
  8
YODOROGO
 10
29673.604341291921
 20
1707.749496429288
 30
0.0
 11
29673.604341291921
 21
1771.7494964292871
 31
0.0
1001
AUTOCAD_POSTSCRIPT_FIGURE
1002
{
1000
PSFILL
1000
Grayscale
1000
Grayscale
1070
    25
1002
}
  0
LINE
  5
B41A
  8
YODOROGO
 10
29617.604341291921
 20
1707.749496429288
 30
0.0
 11
29673.604341291921
 21
1707.749496429288
 31
0.0
1001
AUTOCAD_POSTSCRIPT_FIGURE
1002
{
1000
PSFILL
1000
Grayscale
1000
Grayscale
1070
    25
1002
}
  0
LINE
  5
B41B
  8
YODOROGO
 10
29617.604341291921
 20
1819.7494964292871
 30
0.0
 11
29617.604341291921
 21
1707.749496429288
 31
0.0
1001
AUTOCAD_POSTSCRIPT_FIGURE
1002
{
1000
PSFILL
1000
Grayscale
1000
Grayscale
1070
    25
1002
}
  0
LINE
  5
B41C
  8
YODOROGO
 10
29765.604341291921
 20
1819.7494964292871
 30
0.0
 11
29617.604341291921
 21
1819.7494964292871
 31
0.0
1001
AUTOCAD_POSTSCRIPT_FIGURE
1002
{
1000
PSFILL
1000
Grayscale
1000
Grayscale
1070
    25
1002
}
  0
LINE
  5
B41D
  8
YODOROGO
 10
29765.604341291921
 20
1859.749496429288
 30
0.0
 11
29765.604341291921
 21
1819.7494964292871
 31
0.0
1001
AUTOCAD_POSTSCRIPT_FIGURE
1002
{
1000
PSFILL
1000
Grayscale
1000
Grayscale
1070
    25
1002
}
  0
LINE
  5
B41E
  8
YODOROGO
 10
29617.604341291921
 20
1859.749496429288
 30
0.0
 11
29765.604341291921
 21
1859.749496429288
 31
0.0
1001
AUTOCAD_POSTSCRIPT_FIGURE
1002
{
1000
PSFILL
1000
Grayscale
1000
Grayscale
1070
    25
1002
}
  0
LINE
  5
B41F
  8
YODOROGO
 10
29617.604341291921
 20
1907.7494964292871
 30
0.0
 11
29617.604341291921
 21
1859.749496429288
 31
0.0
1001
AUTOCAD_POSTSCRIPT_FIGURE
1002
{
1000
PSFILL
1000
Grayscale
1000
Grayscale
1070
    25
1002
}
  0
LINE
  5
B420
  8
YODOROGO
 10
29765.604341291921
 20
1907.7494964292871
 30
0.0
 11
29617.604341291921
 21
1907.7494964292871
 31
0.0
1001
AUTOCAD_POSTSCRIPT_FIGURE
1002
{
1000
PSFILL
1000
Grayscale
1000
Grayscale
1070
    25
1002
}
  0
LINE
  5
B421
  8
YODOROGO
 10
29765.604341291921
 20
1947.749496429288
 30
0.0
 11
29765.604341291921
 21
1907.7494964292871
 31
0.0
1001
AUTOCAD_POSTSCRIPT_FIGURE
1002
{
1000
PSFILL
1000
Grayscale
1000
Grayscale
1070
    25
1002
}
  0
LINE
  5
B422
  8
YODOROGO
 10
29617.604341291921
 20
1947.749496429288
 30
0.0
 11
29765.604341291921
 21
1947.749496429288
 31
0.0
1001
AUTOCAD_POSTSCRIPT_FIGURE
1002
{
1000
PSFILL
1000
Grayscale
1000
Grayscale
1070
    25
1002
}
  0
LINE
  5
B423
  8
YODOROGO
 10
29617.604341291921
 20
2027.749496429288
 30
0.0
 11
29617.604341291921
 21
1947.749496429288
 31
0.0
1001
AUTOCAD_POSTSCRIPT_FIGURE
1002
{
1000
PSFILL
1000
Grayscale
1000
Grayscale
1070
    25
1002
}
  0
LINE
  5
B424
  8
YODOROGO
 10
29665.604341291921
 20
2027.749496429288
 30
0.0
 11
29617.604341291921
 21
2027.749496429288
 31
0.0
1001
AUTOCAD_POSTSCRIPT_FIGURE
1002
{
1000
PSFILL
1000
Grayscale
1000
Grayscale
1070
    25
1002
}
  0
LINE
  5
B425
  8
YODOROGO
 10
29665.604341291921
 20
1995.7494964292871
 30
0.0
 11
29665.604341291921
 21
2027.749496429288
 31
0.0
1001
AUTOCAD_POSTSCRIPT_FIGURE
1002
{
1000
PSFILL
1000
Grayscale
1000
Grayscale
1070
    25
1002
}
  0
LINE
  5
B426
  8
YODOROGO
 10
29765.604341291921
 20
1995.7494964292871
 30
0.0
 11
29665.604341291921
 21
1995.7494964292871
 31
0.0
1001
AUTOCAD_POSTSCRIPT_FIGURE
1002
{
1000
PSFILL
1000
Grayscale
1000
Grayscale
1070
    25
1002
}
  0
LINE
  5
B427
  8
YODOROGO
 10
29765.604341291921
 20
2027.749496429288
 30
0.0
 11
29765.604341291921
 21
1995.7494964292871
 31
0.0
1001
AUTOCAD_POSTSCRIPT_FIGURE
1002
{
1000
PSFILL
1000
Grayscale
1000
Grayscale
1070
    25
1002
}
  0
LINE
  5
B428
  8
YODOROGO
 10
29829.604341291921
 20
2027.749496429288
 30
0.0
 11
29765.604341291921
 21
2027.749496429288
 31
0.0
1001
AUTOCAD_POSTSCRIPT_FIGURE
1002
{
1000
PSFILL
1000
Grayscale
1000
Grayscale
1070
    25
1002
}
  0
LINE
  5
B429
  8
YODOROGO
 10
29829.604341291921
 20
1995.7494964292871
 30
0.0
 11
29829.604341291921
 21
2027.749496429288
 31
0.0
1001
AUTOCAD_POSTSCRIPT_FIGURE
1002
{
1000
PSFILL
1000
Grayscale
1000
Grayscale
1070
    25
1002
}
  0
LINE
  5
B42A
  8
YODOROGO
 10
29829.604341291921
 20
1907.7494964292871
 30
0.0
 11
29829.604341291921
 21
1947.749496429288
 31
0.0
1001
AUTOCAD_POSTSCRIPT_FIGURE
1002
{
1000
PSFILL
1000
Grayscale
1000
Grayscale
1070
    25
1002
}
  0
LINE
  5
B42B
  8
YODOROGO
 10
29829.604341291921
 20
1819.7494964292871
 30
0.0
 11
29829.604341291921
 21
1859.749496429288
 31
0.0
1001
AUTOCAD_POSTSCRIPT_FIGURE
1002
{
1000
PSFILL
1000
Grayscale
1000
Grayscale
1070
    25
1002
}
  0
LINE
  5
B42C
  8
YODOROGO
 10
29921.60434129191
 20
1771.7494964292871
 30
0.0
 11
29921.60434129191
 21
1707.749496429288
 31
0.0
1001
AUTOCAD_POSTSCRIPT_FIGURE
1002
{
1000
PSFILL
1000
Grayscale
1000
Grayscale
1070
    25
1002
}
  0
LINE
  5
B42D
  8
YODOROGO
 10
29829.604341291921
 20
1771.7494964292871
 30
0.0
 11
29921.60434129191
 21
1771.7494964292871
 31
0.0
1001
AUTOCAD_POSTSCRIPT_FIGURE
1002
{
1000
PSFILL
1000
Grayscale
1000
Grayscale
1070
    25
1002
}
  0
LINE
  5
B42E
  8
YODOROGO
 10
29829.604341291921
 20
1707.749496429288
 30
0.0
 11
29829.604341291921
 21
1771.7494964292871
 31
0.0
1001
AUTOCAD_POSTSCRIPT_FIGURE
1002
{
1000
PSFILL
1000
Grayscale
1000
Grayscale
1070
    25
1002
}
  0
LINE
  5
B42F
  8
YODOROGO
 10
29765.604341291921
 20
1707.749496429288
 30
0.0
 11
29829.604341291921
 21
1707.749496429288
 31
0.0
1001
AUTOCAD_POSTSCRIPT_FIGURE
1002
{
1000
PSFILL
1000
Grayscale
1000
Grayscale
1070
    25
1002
}
  0
LINE
  5
B430
  8
YODOROGO
 10
29765.604341291921
 20
1771.7494964292871
 30
0.0
 11
29765.604341291921
 21
1707.749496429288
 31
0.0
1001
AUTOCAD_POSTSCRIPT_FIGURE
1002
{
1000
PSFILL
1000
Grayscale
1000
Grayscale
1070
    25
1002
}
  0
LINE
  5
B431
  8
YODOROGO
 10
29673.604341291921
 20
1771.7494964292871
 30
0.0
 11
29765.604341291921
 21
1771.7494964292871
 31
0.0
1001
AUTOCAD_POSTSCRIPT_FIGURE
1002
{
1000
PSFILL
1000
Grayscale
1000
Grayscale
1070
    25
1002
}
  0
ARC
  5
B432
  8
YODOROGO
 10
31059.517893357912
 20
1602.6807375155761
 30
0.0
 40
178.22128111072141
 50
281.02627495425338
 51
357.77113575573799
  0
LINE
  5
B433
  8
YODOROGO
 10
31413.604341291921
 20
1907.7494964292871
 30
0.0
 11
31165.604341291921
 21
1907.7494964292871
 31
0.0
  0
LINE
  5
B434
  8
YODOROGO
 10
31413.604341291921
 20
2027.749496429288
 30
0.0
 11
31165.604341291921
 21
2027.749496429288
 31
0.0
  0
LINE
  5
B435
  8
YODOROGO
 10
31165.604341291921
 20
1963.749496429286
 30
0.0
 11
31413.604341291921
 21
1963.749496429286
 31
0.0
  0
LINE
  5
B436
  8
YODOROGO
 10
30791.604341291921
 20
1563.7494964292871
 30
0.0
 11
30791.604341291921
 21
1755.7494964292871
 31
0.0
  0
LINE
  5
B437
  8
YODOROGO
 10
30763.604341291921
 20
1691.749496429288
 30
0.0
 11
30763.604341291921
 21
1563.7494964292871
 31
0.0
  0
LINE
  5
B438
  8
YODOROGO
 10
30723.604341291921
 20
1491.749496429288
 30
0.0
 11
30723.604341291921
 21
1691.749496429288
 31
0.0
  0
LINE
  5
B439
  8
YODOROGO
 10
30899.604341291932
 20
1691.749496429288
 30
0.0
 11
30899.604341291932
 21
1491.749496429288
 31
0.0
  0
LINE
  5
B43A
  8
YODOROGO
 10
30859.604341291932
 20
1563.7494964292871
 30
0.0
 11
30859.604341291932
 21
1691.749496429288
 31
0.0
  0
LINE
  5
B43B
  8
YODOROGO
 10
30831.604341291921
 20
1755.7494964292871
 30
0.0
 11
30831.604341291921
 21
1563.7494964292871
 31
0.0
  0
LINE
  5
B43C
  8
YODOROGO
 10
30973.604341291921
 20
2027.749496429288
 30
0.0
 11
30973.604341291921
 21
1467.749496429288
 31
0.0
  0
LINE
  5
B43D
  8
YODOROGO
 10
30645.604341291921
 20
1427.749496429288
 30
0.0
 11
30645.604341291921
 21
2027.749496429288
 31
0.0
  0
LINE
  5
B43E
  8
YODOROGO
 10
30697.604341291932
 20
1963.749496429286
 30
0.0
 11
30697.604341291932
 21
1427.749496429288
 31
0.0
  0
LINE
  5
B43F
  8
YODOROGO
 10
30925.604341291921
 20
1547.749496429288
 30
0.0
 11
30925.604341291921
 21
1963.749496429286
 31
0.0
  0
LINE
  5
B440
  8
YODOROGO
 10
30381.604341291932
 20
1627.749496429288
 30
0.0
 11
30381.604341291932
 21
1679.749496429288
 31
0.0
  0
LINE
  5
B441
  8
YODOROGO
 10
30617.604341291921
 20
1679.749496429288
 30
0.0
 11
30617.604341291921
 21
1627.749496429288
 31
0.0
  0
LINE
  5
B442
  8
YODOROGO
 10
31165.604341291921
 20
1907.7494964292871
 30
0.0
 11
31165.604341291921
 21
1635.7494964292871
 31
0.0
  0
LINE
  5
B443
  8
YODOROGO
 10
29949.60434129191
 20
1667.749496429288
 30
0.0
 11
29949.60434129191
 21
1707.749496429288
 31
0.0
  0
LINE
  5
B444
  8
YODOROGO
 10
29949.60434129191
 20
1667.749496429288
 30
0.0
 11
29949.60434129191
 21
1707.749496429288
 31
0.0
  0
ARC
  5
B445
  8
YODOROGO
 10
30537.604341291921
 20
1507.749496429288
 30
0.0
 40
80.0
 50
270.0
 51
0.0
  0
LINE
  5
B446
  8
YODOROGO
 10
30569.604341291921
 20
1599.7494964292871
 30
0.0
 11
30617.604341291921
 21
1599.7494964292871
 31
0.0
  0
LINE
  5
B447
  8
YODOROGO
 10
30617.604341291921
 20
1627.749496429288
 30
0.0
 11
30529.604341291939
 21
1627.749496429288
 31
0.0
  0
LINE
  5
B448
  8
YODOROGO
 10
30217.604341291921
 20
1667.749496429288
 30
0.0
 11
29949.60434129191
 21
1667.749496429288
 31
0.0
  0
LINE
  5
B449
  8
YODOROGO
 10
30217.604341291921
 20
1627.749496429288
 30
0.0
 11
30217.604341291921
 21
1667.749496429288
 31
0.0
  0
LINE
  5
B44A
  8
YODOROGO
 10
30017.604341291921
 20
1627.749496429288
 30
0.0
 11
30217.604341291921
 21
1627.749496429288
 31
0.0
  0
ARC
  5
B44B
  8
YODOROGO
 10
30230.05882870136
 20
1868.885714952901
 30
0.0
 40
321.37763628522822
 50
228.6181454618993
 51
245.660289248906
  0
LINE
  5
B44C
  8
YODOROGO
 10
30105.604341291921
 20
1603.7494964292871
 30
0.0
 11
30097.60434129195
 21
1576.0728158699001
 31
0.0
  0
LINE
  5
B44D
  8
YODOROGO
 10
30189.604341291921
 20
1603.7494964292871
 30
0.0
 11
30105.604341291921
 21
1603.7494964292871
 31
0.0
  0
LINE
  5
B44E
  8
YODOROGO
 10
30177.604341291921
 20
1551.817722473427
 30
0.0
 11
30189.604341291921
 21
1603.7494964292871
 31
0.0
  0
ARC
  5
B44F
  8
YODOROGO
 10
30230.05882870045
 20
1868.885714953002
 30
0.0
 40
321.37763628529081
 50
260.60629297969911
 51
267.77903556555862
  0
LINE
  5
B450
  8
YODOROGO
 10
30217.604341291921
 20
1427.749496429285
 30
0.0
 11
30217.604341291921
 21
1547.749496429288
 31
0.0
  0
LINE
  5
B451
  8
YODOROGO
 10
29937.604341291932
 20
1481.3393349155101
 30
0.0
 11
29937.604341291921
 21
1594.531090531141
 31
0.0
  0
LINE
  5
B452
  8
YODOROGO
 10
30217.604341291921
 20
1667.749496429288
 30
0.0
 11
29949.60434129191
 21
1667.749496429288
 31
0.0
  0
LINE
  5
B453
  8
YODOROGO
 10
30217.604341291921
 20
1627.749496429288
 30
0.0
 11
30217.604341291921
 21
1667.749496429288
 31
0.0
  0
LINE
  5
B454
  8
YODOROGO
 10
30017.604341291921
 20
1627.749496429288
 30
0.0
 11
30217.604341291921
 21
1627.749496429288
 31
0.0
  0
ARC
  5
B455
  8
YODOROGO
 10
30230.05882870136
 20
1868.885714952901
 30
0.0
 40
321.37763628522822
 50
228.6181454618993
 51
245.660289248906
  0
LINE
  5
B456
  8
YODOROGO
 10
30105.604341291921
 20
1603.7494964292871
 30
0.0
 11
30097.60434129195
 21
1576.0728158699001
 31
0.0
  0
LINE
  5
B457
  8
YODOROGO
 10
30189.604341291921
 20
1603.7494964292871
 30
0.0
 11
30105.604341291921
 21
1603.7494964292871
 31
0.0
  0
LINE
  5
B458
  8
YODOROGO
 10
30177.604341291921
 20
1551.817722473427
 30
0.0
 11
30189.604341291921
 21
1603.7494964292871
 31
0.0
  0
ARC
  5
B459
  8
YODOROGO
 10
30230.05882870045
 20
1868.885714953002
 30
0.0
 40
321.37763628529081
 50
260.60629297969911
 51
267.77903556555862
  0
LINE
  5
B45A
  8
YODOROGO
 10
30217.604341291921
 20
1427.749496429285
 30
0.0
 11
30217.604341291921
 21
1547.749496429288
 31
0.0
  0
LINE
  5
B45B
  8
YODOROGO
 10
29937.604341291932
 20
1481.3393349155101
 30
0.0
 11
29937.604341291921
 21
1594.531090531141
 31
0.0
  0
LINE
  5
B45C
  8
YODOROGO
 10
30433.604341291921
 20
1573.749496429288
 30
0.0
 11
30381.604341291932
 21
1573.749496429288
 31
0.0
  0
LINE
  5
B45D
  8
YODOROGO
 10
30433.604341291921
 20
1601.749496429285
 30
0.0
 11
30433.604341291921
 21
1573.749496429288
 31
0.0
  0
LINE
  5
B45E
  8
YODOROGO
 10
30381.604341291932
 20
1601.749496429285
 30
0.0
 11
30433.604341291921
 21
1601.749496429285
 31
0.0
  0
LINE
  5
B45F
  8
YODOROGO
 10
30381.604341291932
 20
1573.749496429288
 30
0.0
 11
30381.604341291932
 21
1601.749496429285
 31
0.0
  0
LINE
  5
B460
  8
YODOROGO
 10
30429.604341291921
 20
1577.7494964292871
 30
0.0
 11
30385.604341291921
 21
1577.7494964292871
 31
0.0
  0
LINE
  5
B461
  8
YODOROGO
 10
30429.604341291921
 20
1597.749496429288
 30
0.0
 11
30429.604341291921
 21
1577.7494964292871
 31
0.0
  0
LINE
  5
B462
  8
YODOROGO
 10
30385.604341291921
 20
1597.749496429288
 30
0.0
 11
30429.604341291921
 21
1597.749496429288
 31
0.0
  0
LINE
  5
B463
  8
YODOROGO
 10
30385.604341291921
 20
1577.7494964292871
 30
0.0
 11
30385.604341291921
 21
1597.749496429288
 31
0.0
  0
LINE
  5
B464
  8
YODOROGO
 10
30425.604341291921
 20
1581.749496429286
 30
0.0
 11
30389.604341291921
 21
1581.749496429286
 31
0.0
  0
LINE
  5
B465
  8
YODOROGO
 10
30425.604341291921
 20
1593.749496429288
 30
0.0
 11
30425.604341291921
 21
1581.749496429286
 31
0.0
  0
LINE
  5
B466
  8
YODOROGO
 10
30389.604341291921
 20
1593.749496429288
 30
0.0
 11
30425.604341291921
 21
1593.749496429288
 31
0.0
  0
LINE
  5
B467
  8
YODOROGO
 10
30389.604341291921
 20
1581.749496429286
 30
0.0
 11
30389.604341291921
 21
1593.749496429288
 31
0.0
  0
LINE
  5
B468
  8
YODOROGO
 10
30421.604341291932
 20
1585.7494964292871
 30
0.0
 11
30393.604341291921
 21
1585.7494964292871
 31
0.0
  0
LINE
  5
B469
  8
YODOROGO
 10
30421.604341291932
 20
1589.749496429288
 30
0.0
 11
30421.604341291932
 21
1585.7494964292871
 31
0.0
  0
LINE
  5
B46A
  8
YODOROGO
 10
30393.604341291921
 20
1589.749496429288
 30
0.0
 11
30421.604341291932
 21
1589.749496429288
 31
0.0
  0
LINE
  5
B46B
  8
YODOROGO
 10
30393.604341291921
 20
1585.7494964292871
 30
0.0
 11
30393.604341291921
 21
1589.749496429288
 31
0.0
  0
LINE
  5
B46C
  8
YODOROGO
 10
30465.604341291921
 20
1627.749496429288
 30
0.0
 11
30381.604341291932
 21
1627.749496429288
 31
0.0
  0
LINE
  5
B46D
  8
YODOROGO
 10
30465.604341291921
 20
1547.749496429288
 30
0.0
 11
30465.604341291921
 21
1627.749496429288
 31
0.0
  0
LINE
  5
B46E
  8
YODOROGO
 10
30381.604341291932
 20
1547.749496429288
 30
0.0
 11
30465.604341291921
 21
1547.749496429288
 31
0.0
  0
LINE
  5
B46F
  8
YODOROGO
 10
30381.604341291932
 20
1427.749496429288
 30
0.0
 11
30381.604341291932
 21
1547.749496429288
 31
0.0
  0
LINE
  5
B470
  8
YODOROGO
 10
30537.604341291921
 20
1427.749496429288
 30
0.0
 11
30381.604341291932
 21
1427.749496429288
 31
0.0
  0
LINE
  5
B471
  8
YODOROGO
 10
30569.604341291921
 20
1571.749496429285
 30
0.0
 11
30569.604341291921
 21
1599.7494964292871
 31
0.0
  0
ARC
  5
B472
  8
YODOROGO
 10
30545.604341291921
 20
1571.749496429291
 30
0.0
 40
24.000000000003752
 50
270.0
 51
359.99999999998772
  0
LINE
  5
B473
  8
YODOROGO
 10
30529.604341291939
 20
1547.749496429288
 30
0.0
 11
30545.604341291921
 21
1547.749496429288
 31
0.0
  0
LINE
  5
B474
  8
YODOROGO
 10
30529.604341291939
 20
1627.749496429288
 30
0.0
 11
30529.604341291939
 21
1547.749496429288
 31
0.0
  0
LINE
  5
B475
  8
YODOROGO
 10
30899.604341291932
 20
1547.749496429288
 30
0.0
 11
30925.604341291921
 21
1547.749496429288
 31
0.0
  0
LINE
  5
B476
  8
YODOROGO
 10
30933.604341291921
 20
1427.749496429288
 30
0.0
 11
30899.604341291932
 21
1427.749496429288
 31
0.0
  0
LINE
  5
B477
  8
YODOROGO
 10
30763.604341291921
 20
1563.7494964292871
 30
0.0
 11
30791.604341291921
 21
1563.7494964292871
 31
0.0
  0
LINE
  5
B478
  8
YODOROGO
 10
30899.604341291932
 20
1491.749496429288
 30
0.0
 11
30723.604341291921
 21
1491.749496429288
 31
0.0
  0
LINE
  5
B479
  8
YODOROGO
 10
30831.604341291921
 20
1563.7494964292871
 30
0.0
 11
30859.604341291932
 21
1563.7494964292871
 31
0.0
  0
LINE
  5
B47A
  8
YODOROGO
 10
30899.604341291932
 20
1427.749496429288
 30
0.0
 11
30899.604341291932
 21
1547.749496429288
 31
0.0
  0
LINE
  5
B47B
  8
YODOROGO
 10
30697.604341291932
 20
1427.749496429288
 30
0.0
 11
30645.604341291921
 21
1427.749496429288
 31
0.0
  0
LINE
  5
B47C
  8
YODOROGO
 10
30617.604341291921
 20
1599.7494964292871
 30
0.0
 11
30617.604341291921
 21
1507.749496429288
 31
0.0
  0
ARC
  5
B47D
  8
YODOROGO
 10
30933.604341291921
 20
1467.749496429288
 30
0.0
 40
40.0
 50
270.0
 51
0.0
  0
LINE
  5
B47E
  8
YODOROGO
 10
31093.604341291921
 20
1523.7494964292871
 30
0.0
 11
31093.604341291921
 21
1427.749496429288
 31
0.0
  0
ARC
  5
B47F
  8
YODOROGO
 10
31039.721395566768
 20
1637.5313901097329
 30
0.0
 40
125.8955565916754
 50
295.34052442160112
 51
359.18902303418679
  0
LINE
  5
B480
  8
YODOROGO
 10
30617.604341291921
 20
1859.749496429288
 30
0.0
 11
30497.604341291921
 21
1939.749496429288
 31
0.0
  0
LINE
  5
B481
  8
YODOROGO
 10
30497.604341291921
 20
2027.749496429288
 30
0.0
 11
30617.604341291921
 21
1947.749496429288
 31
0.0
  0
LINE
  5
B482
  8
YODOROGO
 10
30529.604341291939
 20
1679.749496429288
 30
0.0
 11
30617.604341291921
 21
1679.749496429288
 31
0.0
  0
LINE
  5
B483
  8
YODOROGO
 10
30617.604341291921
 20
1735.7494964292871
 30
0.0
 11
30529.604341291939
 21
1735.7494964292871
 31
0.0
  0
LINE
  5
B484
  8
YODOROGO
 10
30381.604341291932
 20
1795.7494964292871
 30
0.0
 11
30617.604341291921
 21
1795.7494964292871
 31
0.0
  0
LINE
  5
B485
  8
YODOROGO
 10
30081.604341291921
 20
2027.749496429288
 30
0.0
 11
30021.604341291921
 21
2027.749496429288
 31
0.0
  0
LINE
  5
B486
  8
YODOROGO
 10
30081.604341291921
 20
1827.7494964292871
 30
0.0
 11
30081.604341291921
 21
2027.749496429288
 31
0.0
  0
LINE
  5
B487
  8
YODOROGO
 10
30021.604341291921
 20
1827.7494964292871
 30
0.0
 11
30081.604341291921
 21
1827.7494964292871
 31
0.0
  0
LINE
  5
B488
  8
YODOROGO
 10
30021.604341291921
 20
2027.749496429288
 30
0.0
 11
30021.604341291921
 21
1827.7494964292871
 31
0.0
  0
LINE
  5
B489
  8
YODOROGO
 10
30161.604341291921
 20
2027.749496429288
 30
0.0
 11
30217.604341291921
 21
2027.749496429288
 31
0.0
  0
LINE
  5
B48A
  8
YODOROGO
 10
30161.604341291921
 20
1811.749496429288
 30
0.0
 11
30161.604341291921
 21
2027.749496429288
 31
0.0
  0
ARC
  5
B48B
  8
YODOROGO
 10
30121.604341291921
 20
1811.749496429288
 30
0.0
 40
40.0
 50
270.0
 51
0.0
  0
LINE
  5
B48C
  8
YODOROGO
 10
30021.604341291921
 20
1771.7494964292871
 30
0.0
 11
30121.604341291921
 21
1771.7494964292871
 31
0.0
  0
LINE
  5
B48D
  8
YODOROGO
 10
30021.604341291921
 20
1707.749496429288
 30
0.0
 11
30021.604341291921
 21
1771.7494964292871
 31
0.0
  0
LINE
  5
B48E
  8
YODOROGO
 10
30137.604341291921
 20
1707.749496429288
 30
0.0
 11
30021.604341291921
 21
1707.749496429288
 31
0.0
  0
ARC
  5
B48F
  8
YODOROGO
 10
30137.604341291921
 20
1787.7494964292871
 30
0.0
 40
80.0
 50
270.0
 51
0.0
  0
LINE
  5
B490
  8
YODOROGO
 10
30217.604341291921
 20
2027.749496429288
 30
0.0
 11
30217.604341291921
 21
1787.7494964292871
 31
0.0
  0
LINE
  5
B491
  8
YODOROGO
 10
29977.604341291921
 20
1947.749496429288
 30
0.0
 11
29977.604341291921
 21
1995.7494964292871
 31
0.0
1001
AUTOCAD_POSTSCRIPT_FIGURE
1002
{
1000
PSFILL
1000
Grayscale
1000
Grayscale
1070
    25
1002
}
  0
LINE
  5
B492
  8
YODOROGO
 10
29977.604341291921
 20
1859.749496429288
 30
0.0
 11
29977.604341291921
 21
1907.7494964292871
 31
0.0
1001
AUTOCAD_POSTSCRIPT_FIGURE
1002
{
1000
PSFILL
1000
Grayscale
1000
Grayscale
1070
    25
1002
}
  0
LINE
  5
B493
  8
YODOROGO
 10
29977.604341291921
 20
1707.749496429288
 30
0.0
 11
29977.604341291921
 21
1819.7494964292871
 31
0.0
1001
AUTOCAD_POSTSCRIPT_FIGURE
1002
{
1000
PSFILL
1000
Grayscale
1000
Grayscale
1070
    25
1002
}
  0
LINE
  5
B494
  8
YODOROGO
 10
30381.604341291932
 20
1907.7494964292871
 30
0.0
 11
30497.604341291921
 21
2027.749496429288
 31
0.0
  0
LINE
  5
B495
  8
YODOROGO
 10
30381.604341291932
 20
1819.7494964292871
 30
0.0
 11
30381.604341291932
 21
1907.7494964292871
 31
0.0
  0
LINE
  5
B496
  8
YODOROGO
 10
30497.604341291921
 20
1939.749496429288
 30
0.0
 11
30381.604341291932
 21
1819.7494964292871
 31
0.0
  0
LINE
  5
B497
  8
YODOROGO
 10
30465.604341291921
 20
1679.749496429288
 30
0.0
 11
30465.604341291921
 21
1735.7494964292871
 31
0.0
  0
LINE
  5
B498
  8
YODOROGO
 10
30381.604341291932
 20
1679.749496429288
 30
0.0
 11
30465.604341291921
 21
1679.749496429288
 31
0.0
  0
LINE
  5
B499
  8
YODOROGO
 10
30529.604341291939
 20
1735.7494964292871
 30
0.0
 11
30529.604341291939
 21
1679.749496429288
 31
0.0
  0
LINE
  5
B49A
  8
YODOROGO
 10
30381.604341291932
 20
1735.7494964292871
 30
0.0
 11
30381.604341291932
 21
1795.7494964292871
 31
0.0
  0
LINE
  5
B49B
  8
YODOROGO
 10
30465.604341291921
 20
1735.7494964292871
 30
0.0
 11
30381.604341291932
 21
1735.7494964292871
 31
0.0
  0
LINE
  5
B49C
  8
YODOROGO
 10
30645.604341291921
 20
2027.749496429288
 30
0.0
 11
30973.604341291921
 21
2027.749496429288
 31
0.0
  0
LINE
  5
B49D
  8
YODOROGO
 10
30925.604341291921
 20
1963.749496429286
 30
0.0
 11
30697.604341291932
 21
1963.749496429286
 31
0.0
  0
LINE
  5
B49E
  8
YODOROGO
 10
30873.604341291921
 20
1819.7494964292871
 30
0.0
 11
30899.604341291932
 21
1819.7494964292871
 31
0.0
  0
LINE
  5
B49F
  8
YODOROGO
 10
30899.604341291932
 20
1939.749496429288
 30
0.0
 11
30873.604341291921
 21
1819.7494964292871
 31
0.0
  0
LINE
  5
B4A0
  8
YODOROGO
 10
30851.604341291939
 20
1939.749496429288
 30
0.0
 11
30899.604341291932
 21
1939.749496429288
 31
0.0
  0
LINE
  5
B4A1
  8
YODOROGO
 10
30825.604341291921
 20
1819.7494964292871
 30
0.0
 11
30851.604341291939
 21
1939.749496429288
 31
0.0
  0
LINE
  5
B4A2
  8
YODOROGO
 10
30797.604341291921
 20
1819.7494964292871
 30
0.0
 11
30825.604341291921
 21
1819.7494964292871
 31
0.0
  0
LINE
  5
B4A3
  8
YODOROGO
 10
30771.604341291939
 20
1939.749496429288
 30
0.0
 11
30797.604341291921
 21
1819.7494964292871
 31
0.0
  0
LINE
  5
B4A4
  8
YODOROGO
 10
30723.604341291921
 20
1939.749496429288
 30
0.0
 11
30771.604341291939
 21
1939.749496429288
 31
0.0
  0
LINE
  5
B4A5
  8
YODOROGO
 10
30749.604341291921
 20
1819.7494964292871
 30
0.0
 11
30723.604341291921
 21
1939.749496429288
 31
0.0
  0
LINE
  5
B4A6
  8
YODOROGO
 10
30723.604341291921
 20
1819.7494964292871
 30
0.0
 11
30749.604341291921
 21
1819.7494964292871
 31
0.0
  0
LINE
  5
B4A7
  8
YODOROGO
 10
30723.604341291921
 20
1755.7494964292871
 30
0.0
 11
30723.604341291921
 21
1819.7494964292871
 31
0.0
  0
LINE
  5
B4A8
  8
YODOROGO
 10
30899.604341291932
 20
1755.7494964292871
 30
0.0
 11
30723.604341291921
 21
1755.7494964292871
 31
0.0
  0
LINE
  5
B4A9
  8
YODOROGO
 10
30899.604341291932
 20
1819.7494964292871
 30
0.0
 11
30899.604341291932
 21
1755.7494964292871
 31
0.0
  0
LINE
  5
B4AA
  8
YODOROGO
 10
30617.604341291921
 20
1947.749496429288
 30
0.0
 11
30617.604341291921
 21
1859.749496429288
 31
0.0
  0
LINE
  5
B4AB
  8
YODOROGO
 10
30791.604341291921
 20
1755.7494964292871
 30
0.0
 11
30831.604341291921
 21
1755.7494964292871
 31
0.0
  0
LINE
  5
B4AC
  8
YODOROGO
 10
30723.604341291921
 20
1691.749496429288
 30
0.0
 11
30763.604341291921
 21
1691.749496429288
 31
0.0
  0
LINE
  5
B4AD
  8
YODOROGO
 10
30859.604341291932
 20
1691.749496429288
 30
0.0
 11
30899.604341291932
 21
1691.749496429288
 31
0.0
  0
LINE
  5
B4AE
  8
YODOROGO
 10
30617.604341291921
 20
1795.7494964292871
 30
0.0
 11
30617.604341291921
 21
1735.7494964292871
 31
0.0
  0
LINE
  5
B4AF
  8
YODOROGO
 10
31165.604341291921
 20
2027.749496429288
 30
0.0
 11
31165.604341291921
 21
1963.749496429286
 31
0.0
  0
LINE
  5
B4B0
  8
YODOROGO
 10
31533.604341291921
 20
1595.7494964292871
 30
0.0
 11
31533.60434129191
 21
1811.749496429288
 31
0.0
  0
LINE
  5
B4B1
  8
YODOROGO
 10
31461.60434129191
 20
1987.7494964292871
 30
0.0
 11
31461.60434129191
 21
1635.7494964292871
 31
0.0
  0
LINE
  5
B4B2
  8
YODOROGO
 10
31653.604341291921
 20
1427.749496429288
 30
0.0
 11
31653.60434129191
 21
1811.749496429288
 31
0.0
  0
LINE
  5
B4B3
  8
YODOROGO
 10
31589.604341291921
 20
1811.749496429288
 30
0.0
 11
31589.604341291921
 21
1427.749496429288
 31
0.0
  0
LINE
  5
B4B4
  8
YODOROGO
 10
31237.604341291921
 20
1595.7494964292871
 30
0.0
 11
31237.604341291921
 21
1707.749496429288
 31
0.0
  0
ARC
  5
B4B5
  8
YODOROGO
 10
31353.914865116069
 20
1607.790351288558
 30
0.0
 40
180.0924485759885
 50
268.62849102169793
 51
356.16638457330322
  0
LINE
  5
B4B6
  8
YODOROGO
 10
31349.604341291939
 20
1527.749496429288
 30
0.0
 11
31349.604341291939
 21
1427.749496429288
 31
0.0
  0
ARC
  5
B4B7
  8
YODOROGO
 10
31351.518075724562
 20
1637.838957017655
 30
0.0
 40
110.1060929836122
 50
269.00410209305932
 51
358.91264455492478
  0
LINE
  5
B4B8
  8
YODOROGO
 10
31589.604341291921
 20
1427.749496429288
 30
0.0
 11
31653.604341291921
 21
1427.749496429288
 31
0.0
  0
LINE
  5
B4B9
  8
YODOROGO
 10
31533.60434129191
 20
1811.749496429288
 30
0.0
 11
31589.604341291921
 21
1811.749496429288
 31
0.0
  0
LINE
  5
B4BA
  8
YODOROGO
 10
31621.604341291939
 20
1987.7494964292871
 30
0.0
 11
31461.60434129191
 21
1987.7494964292871
 31
0.0
  0
LINE
  5
B4BB
  8
YODOROGO
 10
31533.60434129191
 20
1915.7494964292871
 30
0.0
 11
31661.604341291939
 21
1915.7494964292871
 31
0.0
  0
LINE
  5
B4BC
  8
YODOROGO
 10
31701.604341291939
 20
1875.7494964292871
 30
0.0
 11
31533.60434129191
 21
1875.7494964292871
 31
0.0
  0
LINE
  5
B4BD
  8
YODOROGO
 10
31237.604341291921
 20
1779.749496429288
 30
0.0
 11
31349.604341291939
 21
1779.749496429288
 31
0.0
  0
LINE
  5
B4BE
  8
YODOROGO
 10
31237.604341291921
 20
1835.7494964292871
 30
0.0
 11
31237.604341291921
 21
1779.749496429288
 31
0.0
  0
LINE
  5
B4BF
  8
YODOROGO
 10
31349.604341291939
 20
1835.7494964292871
 30
0.0
 11
31237.604341291921
 21
1835.7494964292871
 31
0.0
  0
LINE
  5
B4C0
  8
YODOROGO
 10
31349.604341291939
 20
1779.749496429288
 30
0.0
 11
31349.604341291939
 21
1835.7494964292871
 31
0.0
  0
LINE
  5
B4C1
  8
YODOROGO
 10
31533.60434129191
 20
1875.7494964292871
 30
0.0
 11
31533.60434129191
 21
1915.7494964292871
 31
0.0
  0
LINE
  5
B4C2
  8
YODOROGO
 10
31413.604341291921
 20
1707.749496429288
 30
0.0
 11
31413.604341291921
 21
1907.7494964292871
 31
0.0
  0
LINE
  5
B4C3
  8
YODOROGO
 10
31237.604341291921
 20
1707.749496429288
 30
0.0
 11
31413.604341291921
 21
1707.749496429288
 31
0.0
  0
LINE
  5
B4C4
  8
YODOROGO
 10
31413.604341291921
 20
1963.749496429286
 30
0.0
 11
31413.604341291921
 21
2027.749496429288
 31
0.0
  0
ARC
  5
B4C5
  8
YODOROGO
 10
31621.604341291939
 20
2003.749496429285
 30
0.0
 40
15.999999999994539
 50
270.0
 51
0.0000000000081422
  0
LINE
  5
B4C6
  8
YODOROGO
 10
31637.604341291921
 20
2027.749496429288
 30
0.0
 11
31637.604341291921
 21
2003.7494964292871
 31
0.0
  0
LINE
  5
B4C7
  8
YODOROGO
 10
31701.604341291939
 20
2027.749496429288
 30
0.0
 11
31637.604341291921
 21
2027.749496429288
 31
0.0
  0
LINE
  5
B4C8
  8
YODOROGO
 10
31701.604341291939
 20
1955.7494964292871
 30
0.0
 11
31701.604341291939
 21
2027.749496429288
 31
0.0
  0
ARC
  5
B4C9
  8
YODOROGO
 10
31661.604341291939
 20
1955.7494964292871
 30
0.0
 40
40.0
 50
270.0
 51
0.0
  0
LINE
  5
B4CA
  8
YODOROGO
 10
31701.604341291939
 20
1811.749496429288
 30
0.0
 11
31701.604341291939
 21
1875.7494964292871
 31
0.0
  0
LINE
  5
B4CB
  8
YODOROGO
 10
31653.60434129191
 20
1811.749496429288
 30
0.0
 11
31701.604341291939
 21
1811.749496429288
 31
0.0
  0
LINE
  5
B4CC
  8
0-6
  6
CONTINUOUS
 62
     6
 10
10962.69641537057
 20
13278.56066562569
 30
0.0
 11
10903.946416741839
 21
13429.77866053501
 31
0.0
  0
LINE
  5
B4CD
  8
0-6
  6
CONTINUOUS
 62
     6
 10
10903.946416741839
 20
13429.77866053501
 30
0.0
 11
11008.557408428671
 21
13305.78275438659
 31
0.0
  0
LINE
  5
B4CE
  8
0-6
  6
CONTINUOUS
 62
     6
 10
11008.557408428671
 20
13305.78275438659
 30
0.0
 11
10962.69641537057
 21
13278.56066562569
 31
0.0
  0
LINE
  5
B4CF
  8
SUNPOU
  6
CONTINUOUS
 62
     4
 10
7402.7665818062742
 20
13268.98643699999
 30
0.0
 11
6555.7668058062818
 21
13268.98643699999
 31
0.0
  0
LINE
  5
B4D0
  8
SUNPOU
  6
CONTINUOUS
 62
     4
 10
6635.7668058062809
 20
13461.485710999999
 30
0.0
 11
6635.7668058062809
 21
13268.98643699999
 31
0.0
  0
LINE
  5
B4D1
  8
SUNPOU
  6
CONTINUOUS
 62
     4
 10
6635.7668058062836
 20
16729.985711000001
 30
0.0
 11
6635.7668058062809
 21
13461.485710999999
 31
0.0
  0
LINE
  5
B4D2
  8
SUNPOU
  6
CONTINUOUS
 62
     4
 10
6635.7668058062836
 20
19647.985711000001
 30
0.0
 11
6635.7668058062836
 21
16729.985711000001
 31
0.0
  0
LINE
  5
B4D3
  8
SUNPOU
  6
CONTINUOUS
 62
     4
 10
6555.7668058062854
 20
19647.985711000001
 30
0.0
 11
6595.7668058062854
 21
19647.985711000001
 31
0.0
  0
LINE
  5
B4D4
  8
SUNPOU
  6
CONTINUOUS
 62
     4
 10
7407.7658558062722
 20
19870.485579
 30
0.0
 11
6595.7668058062854
 21
19870.485579
 31
0.0
  0
LINE
  5
B4D5
  8
SUNPOU
  6
CONTINUOUS
 62
     4
 10
6635.7668058062836
 20
19647.985711000001
 30
0.0
 11
6635.7668058062836
 21
19870.485579
 31
0.0
  0
LINE
  5
B4D6
  8
SUNPOU
  6
CONTINUOUS
 62
     4
 10
7476.2667008062817
 20
19860.489010000001
 30
0.0
 11
6955.7661468062834
 21
19860.489010000001
 31
0.0
  0
LINE
  5
B4D7
  8
SUNPOU
  6
CONTINUOUS
 62
     4
 10
7407.7658558062722
 20
19870.485579
 30
0.0
 11
6955.7661468062834
 21
19870.485579
 31
0.0
  0
LINE
  5
B4D8
  8
SUNPOU
  6
CONTINUOUS
 62
     4
 10
7035.7661468062834
 20
19860.489010000001
 30
0.0
 11
7035.7661468062834
 21
19620.489010000001
 31
0.0
  0
LINE
  5
B4D9
  8
SUNPOU
  6
CONTINUOUS
 62
     4
 10
7035.7661468062834
 20
19870.485579
 30
0.0
 11
7035.7661468062834
 21
20110.485579000011
 31
0.0
  0
LINE
  5
B4DA
  8
SUNPOU
  6
CONTINUOUS
 62
     4
 10
7035.7661468062834
 20
19860.489010000001
 30
0.0
 11
7035.7661468062834
 21
19870.485579
 31
0.0
  0
LINE
  5
B4DB
  8
SUNPOU
  6
CONTINUOUS
 62
     4
 10
13283.266581806271
 20
20495.487624000001
 30
0.0
 11
13283.266581806271
 21
20570.486634999979
 31
0.0
  0
LINE
  5
B4DC
  8
SUNPOU
  6
CONTINUOUS
 62
     4
 10
13368.766581806271
 20
19945.487293999991
 30
0.0
 11
13368.766581806271
 21
20570.486634999979
 31
0.0
  0
LINE
  5
B4DD
  8
SUNPOU
  6
CONTINUOUS
 62
     4
 10
13283.266581806271
 20
20490.486634999979
 30
0.0
 11
13043.266581806271
 21
20490.486634999979
 31
0.0
  0
LINE
  5
B4DE
  8
SUNPOU
  6
CONTINUOUS
 62
     4
 10
13365.766581806271
 20
20490.486634999979
 30
0.0
 11
13605.766581806271
 21
20490.486634999979
 31
0.0
  0
LINE
  5
B4DF
  8
SUNPOU
  6
CONTINUOUS
 62
     4
 10
13283.266581806271
 20
20490.486634999979
 30
0.0
 11
13365.766581806271
 21
20490.486634999979
 31
0.0
  0
LINE
  5
B4E0
  8
SUNPOU
  6
CONTINUOUS
 62
     4
 10
10483.266581806271
 20
20495.487624000001
 30
0.0
 11
10483.266581806271
 21
20570.486634999979
 31
0.0
  0
LINE
  5
B4E1
  8
SUNPOU
  6
CONTINUOUS
 62
     4
 10
13283.266581806271
 20
20495.487624000001
 30
0.0
 11
13283.266581806271
 21
20570.486634999979
 31
0.0
  0
LINE
  5
B4E2
  8
SUNPOU
  6
CONTINUOUS
 62
     4
 10
10483.266581806271
 20
20490.486634999979
 30
0.0
 11
13283.266581806271
 21
20490.486634999979
 31
0.0
  0
LINE
  5
B4E3
  8
SUNPOU
  6
CONTINUOUS
 62
     4
 10
7565.2665818062742
 20
20020.487293999991
 30
0.0
 11
7565.2665818062742
 21
20570.486634999979
 31
0.0
  0
LINE
  5
B4E4
  8
SUNPOU
  6
CONTINUOUS
 62
     4
 10
10483.266581806271
 20
20495.487624000001
 30
0.0
 11
10483.266581806271
 21
20570.486634999979
 31
0.0
  0
LINE
  5
B4E5
  8
SUNPOU
  6
CONTINUOUS
 62
     4
 10
7565.2665818062742
 20
20490.486634999979
 30
0.0
 11
10483.266581806271
 21
20490.486634999979
 31
0.0
  0
LINE
  5
B4E6
  8
SUNPOU
  6
CONTINUOUS
 62
     4
 10
7565.2665818062742
 20
20020.487293999991
 30
0.0
 11
7565.2665818062742
 21
20570.486634999979
 31
0.0
  0
LINE
  5
B4E7
  8
SUNPOU
  6
CONTINUOUS
 62
     4
 10
7479.7665818062733
 20
19940.48703099999
 30
0.0
 11
7479.7665818062733
 21
20570.486634999979
 31
0.0
  0
LINE
  5
B4E8
  8
SUNPOU
  6
CONTINUOUS
 62
     4
 10
7565.2665818062742
 20
20490.486634999979
 30
0.0
 11
7805.2665818062751
 21
20490.486634999979
 31
0.0
  0
LINE
  5
B4E9
  8
SUNPOU
  6
CONTINUOUS
 62
     4
 10
7482.7665818062742
 20
20490.486634999979
 30
0.0
 11
7242.7665818062751
 21
20490.486634999979
 31
0.0
  0
LINE
  5
B4EA
  8
SUNPOU
  6
CONTINUOUS
 62
     4
 10
7565.2665818062742
 20
20490.486634999979
 30
0.0
 11
7482.7665818062742
 21
20490.486634999979
 31
0.0
  0
LINE
  5
B4EB
  8
SUNPOU
  6
CONTINUOUS
 62
     4
 10
7479.7665818062733
 20
13188.98643699999
 30
0.0
 11
7479.7665818062733
 21
11898.98564499999
 31
0.0
  0
LINE
  5
B4EC
  8
SUNPOU
  6
CONTINUOUS
 62
     4
 10
13368.766581806271
 20
13188.98643699999
 30
0.0
 11
13368.766581806271
 21
11898.98564499999
 31
0.0
  0
LINE
  5
B4ED
  8
SUNPOU
  6
CONTINUOUS
 62
     4
 10
7482.7665818062742
 20
11978.98564499999
 30
0.0
 11
13365.766581806271
 21
11978.98564499999
 31
0.0
  0
LINE
  5
B509
  8
SUNPOU
  6
CONTINUOUS
 62
     4
 10
22900.194538456231
 20
19770.485711000001
 30
0.0
 11
22900.194538456231
 21
20570.486634999979
 31
0.0
  0
LINE
  5
B50A
  8
SUNPOU
  6
CONTINUOUS
 62
     4
 10
22942.694538456231
 20
19770.485711000001
 30
0.0
 11
22942.694538456231
 21
20570.486634999979
 31
0.0
  0
LINE
  5
B50B
  8
SUNPOU
  6
CONTINUOUS
 62
     4
 10
22900.194538456231
 20
20490.486634999979
 30
0.0
 11
22660.194538456231
 21
20490.486634999979
 31
0.0
  0
LINE
  5
B50C
  8
SUNPOU
  6
CONTINUOUS
 62
     4
 10
22942.694538456231
 20
20490.486634999979
 30
0.0
 11
23182.694538456231
 21
20490.486634999979
 31
0.0
  0
LINE
  5
B50D
  8
SUNPOU
  6
CONTINUOUS
 62
     4
 10
22900.194538456231
 20
20490.486634999979
 30
0.0
 11
22942.694538456231
 21
20490.486634999979
 31
0.0
  0
LINE
  5
B50E
  8
SUNPOU
  6
CONTINUOUS
 62
     4
 10
22142.194538456231
 20
19770.485711000001
 30
0.0
 11
22142.194538456231
 21
20570.486634999979
 31
0.0
  0
LINE
  5
B50F
  8
SUNPOU
  6
CONTINUOUS
 62
     4
 10
22900.194538456231
 20
19770.485711000001
 30
0.0
 11
22900.194538456231
 21
20570.486634999979
 31
0.0
  0
LINE
  5
B510
  8
SUNPOU
  6
CONTINUOUS
 62
     4
 10
22142.194538456231
 20
20490.486634999979
 30
0.0
 11
22900.194538456231
 21
20490.486634999979
 31
0.0
  0
LINE
  5
B511
  8
SUNPOU
  6
CONTINUOUS
 62
     4
 10
21441.194538456231
 20
19770.485711000001
 30
0.0
 11
21441.194538456231
 21
20570.486634999979
 31
0.0
  0
LINE
  5
B512
  8
SUNPOU
  6
CONTINUOUS
 62
     4
 10
22142.194538456231
 20
19770.485711000001
 30
0.0
 11
22142.194538456231
 21
20570.486634999979
 31
0.0
  0
LINE
  5
B513
  8
SUNPOU
  6
CONTINUOUS
 62
     4
 10
21441.194538456231
 20
20490.486634999979
 30
0.0
 11
22142.194538456231
 21
20490.486634999979
 31
0.0
  0
LINE
  5
B514
  8
SUNPOU
  6
CONTINUOUS
 62
     4
 10
20740.194538456231
 20
19770.485711000001
 30
0.0
 11
20740.194538456231
 21
20570.486634999979
 31
0.0
  0
LINE
  5
B515
  8
SUNPOU
  6
CONTINUOUS
 62
     4
 10
21441.194538456231
 20
19770.485711000001
 30
0.0
 11
21441.194538456231
 21
20570.486634999979
 31
0.0
  0
LINE
  5
B516
  8
SUNPOU
  6
CONTINUOUS
 62
     4
 10
20740.194538456231
 20
20490.486634999979
 30
0.0
 11
21441.194538456231
 21
20490.486634999979
 31
0.0
  0
LINE
  5
B517
  8
SUNPOU
  6
CONTINUOUS
 62
     4
 10
19982.19453845621
 20
19850.488217999991
 30
0.0
 11
19982.19453845621
 21
20570.486634999979
 31
0.0
  0
LINE
  5
B518
  8
SUNPOU
  6
CONTINUOUS
 62
     4
 10
20740.194538456231
 20
19770.485711000001
 30
0.0
 11
20740.194538456231
 21
20570.486634999979
 31
0.0
  0
LINE
  5
B519
  8
SUNPOU
  6
CONTINUOUS
 62
     4
 10
19982.19453845621
 20
20490.486634999979
 30
0.0
 11
20740.194538456231
 21
20490.486634999979
 31
0.0
  0
LINE
  5
B51A
  8
SUNPOU
  6
CONTINUOUS
 62
     4
 10
19982.19453845621
 20
19850.488217999991
 30
0.0
 11
19982.19453845621
 21
20570.486634999979
 31
0.0
  0
LINE
  5
B51B
  8
SUNPOU
  6
CONTINUOUS
 62
     4
 10
19939.69453845621
 20
19770.485711000001
 30
0.0
 11
19939.69453845621
 21
20570.486634999979
 31
0.0
  0
LINE
  5
B51C
  8
SUNPOU
  6
CONTINUOUS
 62
     4
 10
19982.19453845621
 20
20490.486634999979
 30
0.0
 11
20222.194538456231
 21
20490.486634999979
 31
0.0
  0
LINE
  5
B51D
  8
SUNPOU
  6
CONTINUOUS
 62
     4
 10
19939.69453845621
 20
20490.486634999979
 30
0.0
 11
19699.69453845621
 21
20490.486634999979
 31
0.0
  0
LINE
  5
B51E
  8
SUNPOU
  6
CONTINUOUS
 62
     4
 10
19982.19453845621
 20
20490.486634999979
 30
0.0
 11
19939.69453845621
 21
20490.486634999979
 31
0.0
  0
LINE
  5
B52C
  8
SUNPOU
  6
CONTINUOUS
 62
     4
 10
22900.194538456231
 20
20890.486634999979
 30
0.0
 11
25700.194538456231
 21
20890.486634999979
 31
0.0
  0
LINE
  5
B52D
  8
SUNPOU
  6
CONTINUOUS
 62
     4
 10
19982.19453845621
 20
20890.486634999979
 30
0.0
 11
22900.194538456231
 21
20890.486634999979
 31
0.0
  0
LINE
  5
B52E
  8
SUNPOU
  6
CONTINUOUS
 62
     4
 10
25700.194538456231
 20
20014.93548487734
 30
0.0
 11
25700.194538456231
 21
20570.486634999979
 31
0.0
  0
LINE
  5
B52F
  8
SUNPOU
  6
CONTINUOUS
 62
     4
 10
25657.69229545624
 20
19853.835975000002
 30
0.0
 11
25657.69229545624
 21
20570.486634999979
 31
0.0
  0
LINE
  5
B530
  8
SUNPOU
  6
CONTINUOUS
 62
     4
 10
25700.194538456231
 20
20490.486634999979
 30
0.0
 11
25940.194538456231
 21
20490.486634999979
 31
0.0
  0
LINE
  5
B531
  8
SUNPOU
  6
CONTINUOUS
 62
     4
 10
25657.69229545624
 20
20490.486634999979
 30
0.0
 11
25417.69229545624
 21
20490.486634999979
 31
0.0
  0
LINE
  5
B532
  8
SUNPOU
  6
CONTINUOUS
 62
     4
 10
25700.194538456231
 20
20490.486634999979
 30
0.0
 11
25657.69229545624
 21
20490.486634999979
 31
0.0
  0
LINE
  5
B533
  8
SUNPOU
  6
CONTINUOUS
 62
     4
 10
25700.194538456231
 20
20014.93548487734
 30
0.0
 11
25700.194538456231
 21
20570.486634999979
 31
0.0
  0
LINE
  5
B534
  8
SUNPOU
  6
CONTINUOUS
 62
     4
 10
25742.692823456218
 20
19850.488217999991
 30
0.0
 11
25742.692823456218
 21
20570.486634999979
 31
0.0
  0
LINE
  5
B535
  8
SUNPOU
  6
CONTINUOUS
 62
     4
 10
25700.194538456231
 20
20490.486634999979
 30
0.0
 11
25460.194538456231
 21
20490.486634999979
 31
0.0
  0
LINE
  5
B536
  8
SUNPOU
  6
CONTINUOUS
 62
     4
 10
25742.692823456218
 20
20490.486634999979
 30
0.0
 11
25982.692823456218
 21
20490.486634999979
 31
0.0
  0
LINE
  5
B537
  8
SUNPOU
  6
CONTINUOUS
 62
     4
 10
25700.194538456231
 20
20490.486634999979
 30
0.0
 11
25742.692823456218
 21
20490.486634999979
 31
0.0
  0
LINE
  5
B538
  8
SUNPOU
  6
CONTINUOUS
 62
     4
 10
26084.799374408161
 20
16729.985711000001
 30
0.0
 11
26998.03816282484
 21
16729.985711000001
 31
0.0
  0
LINE
  5
B539
  8
SUNPOU
  6
CONTINUOUS
 62
     4
 10
26084.799374408161
 20
19647.985711000001
 30
0.0
 11
26998.03816282484
 21
19647.985711000001
 31
0.0
  0
LINE
  5
B53A
  8
SUNPOU
  6
CONTINUOUS
 62
     4
 10
26918.038162824862
 20
16729.985711000001
 30
0.0
 11
26918.038162824862
 21
19647.985711000001
 31
0.0
  0
LINE
  5
B53B
  8
SUNPOU
  6
CONTINUOUS
 62
     4
 10
26084.799374408161
 20
13461.485710999999
 30
0.0
 11
26998.03816282484
 21
13461.485710999999
 31
0.0
  0
LINE
  5
B53C
  8
SUNPOU
  6
CONTINUOUS
 62
     4
 10
26084.799374408161
 20
16729.985711000001
 30
0.0
 11
26998.03816282484
 21
16729.985711000001
 31
0.0
  0
LINE
  5
B53D
  8
SUNPOU
  6
CONTINUOUS
 62
     4
 10
26918.038162824862
 20
13461.485710999999
 30
0.0
 11
26918.038162824862
 21
16729.985711000001
 31
0.0
  0
LINE
  5
B555
  8
SUNPOU
  6
CONTINUOUS
 62
     4
 10
6885.4180163420024
 20
8478.188374000003
 30
0.0
 11
6885.4180163420024
 21
9869.1883999999955
 31
0.0
  0
LINE
  5
B556
  8
SUNPOU
  6
CONTINUOUS
 62
     4
 10
13486.91801634199
 20
8610.0781974124311
 30
0.0
 11
13486.91801634199
 21
9869.1883999999955
 31
0.0
  0
LINE
  5
B557
  8
SUNPOU
  6
CONTINUOUS
 62
     4
 10
6885.4180163420024
 20
9789.1883999999955
 30
0.0
 11
13486.91801634199
 21
9789.1883999999955
 31
0.0
  0
LINE
  5
B558
  8
SUNPOU
  6
CONTINUOUS
 62
     4
 10
13336.91801634199
 20
8536.0984380000027
 30
0.0
 11
13336.91801634199
 21
9469.1900499999992
 31
0.0
  0
LINE
  5
B559
  8
SUNPOU
  6
CONTINUOUS
 62
     4
 10
13486.91801634199
 20
8610.0781974124311
 30
0.0
 11
13486.91801634199
 21
9469.1900499999992
 31
0.0
  0
LINE
  5
B55A
  8
SUNPOU
  6
CONTINUOUS
 62
     4
 10
13336.91801634199
 20
9389.1900499999992
 30
0.0
 11
13096.91801634199
 21
9389.1900499999992
 31
0.0
  0
LINE
  5
B55B
  8
SUNPOU
  6
CONTINUOUS
 62
     4
 10
13486.91801634199
 20
9389.1900499999992
 30
0.0
 11
13726.918016342001
 21
9389.1900499999992
 31
0.0
  0
LINE
  5
B55C
  8
SUNPOU
  6
CONTINUOUS
 62
     4
 10
13336.91801634199
 20
9389.1900499999992
 30
0.0
 11
13486.91801634199
 21
9389.1900499999992
 31
0.0
  0
LINE
  5
B55D
  8
SUNPOU
  6
CONTINUOUS
 62
     4
 10
7065.4180163420024
 20
8348.3741496838084
 30
0.0
 11
7065.4180163420024
 21
9469.1900499999992
 31
0.0
  0
LINE
  5
B55E
  8
SUNPOU
  6
CONTINUOUS
 62
     4
 10
13336.91801634199
 20
8536.0984380000027
 30
0.0
 11
13336.91801634199
 21
9469.1900499999992
 31
0.0
  0
LINE
  5
B55F
  8
SUNPOU
  6
CONTINUOUS
 62
     4
 10
7065.4180163420024
 20
9389.1900499999992
 30
0.0
 11
13336.91801634199
 21
9389.1900499999992
 31
0.0
  0
LINE
  5
B560
  8
SUNPOU
  6
CONTINUOUS
 62
     4
 10
6885.4180163420024
 20
8478.188374000003
 30
0.0
 11
6885.4180163420024
 21
9469.1900499999992
 31
0.0
  0
LINE
  5
B561
  8
SUNPOU
  6
CONTINUOUS
 62
     4
 10
7065.4180163420024
 20
8348.3741496838084
 30
0.0
 11
7065.4180163420024
 21
9469.1900499999992
 31
0.0
  0
LINE
  5
B562
  8
SUNPOU
  6
CONTINUOUS
 62
     4
 10
6885.4180163420024
 20
9389.1900499999992
 30
0.0
 11
7065.4180163420024
 21
9389.1900499999992
 31
0.0
  0
LINE
  5
B563
  8
SUNPOU
  6
CONTINUOUS
 62
     4
 10
13429.41801634199
 20
6241.1883740000012
 30
0.0
 11
14506.918412342
 21
6241.1883740000003
 31
0.0
  0
LINE
  5
B564
  8
SUNPOU
  6
CONTINUOUS
 62
     4
 10
13521.72527594137
 20
8589.1883739999994
 30
0.0
 11
14506.918412342
 21
8589.1883739999994
 31
0.0
  0
LINE
  5
B565
  8
SUNPOU
  6
CONTINUOUS
 62
     4
 10
14426.918412342
 20
6241.1883740000003
 30
0.0
 11
14426.918412342
 21
8589.1883739999994
 31
0.0
  0
LINE
  5
B566
  8
SUNPOU
  6
CONTINUOUS
 62
     4
 10
6977.9180163420042
 20
6241.1883740000012
 30
0.0
 11
5895.4176203420066
 21
6241.1883740000021
 31
0.0
  0
LINE
  5
B567
  8
SUNPOU
  6
CONTINUOUS
 62
     4
 10
6805.4180163420024
 20
8398.188374000003
 30
0.0
 11
5895.4176203420066
 21
8398.188374000003
 31
0.0
  0
LINE
  5
B568
  8
SUNPOU
  6
CONTINUOUS
 62
     4
 10
5975.4176203420066
 20
6241.1883740000021
 30
0.0
 11
5975.4176203420066
 21
8398.188374000003
 31
0.0
  0
LINE
  5
B569
  8
SUNPOU
  6
CONTINUOUS
 62
     4
 10
7065.4180163420024
 20
6161.1883740000012
 30
0.0
 11
7065.4180163420024
 21
4461.1887040000011
 31
0.0
  0
LINE
  5
B56A
  8
SUNPOU
  6
CONTINUOUS
 62
     4
 10
13336.91801634199
 20
6161.1883740000012
 30
0.0
 11
13336.91801634199
 21
4461.1887040000011
 31
0.0
  0
LINE
  5
B56B
  8
SUNPOU
  6
CONTINUOUS
 62
     4
 10
7065.4180163420024
 20
4541.1887040000011
 30
0.0
 11
13336.91801634199
 21
4541.1887040000011
 31
0.0
  0
LINE
  5
B56C
  8
SUNPOU
  6
CONTINUOUS
 62
     4
 10
13294.418016342001
 20
5798.536116000002
 30
0.0
 11
13294.418016342001
 21
4861.1885389999998
 31
0.0
  0
LINE
  5
B56D
  8
SUNPOU
  6
CONTINUOUS
 62
     4
 10
13336.91801634199
 20
6161.1883740000012
 30
0.0
 11
13336.91801634199
 21
4861.1885389999998
 31
0.0
  0
LINE
  5
B56E
  8
SUNPOU
  6
CONTINUOUS
 62
     4
 10
13294.418016342001
 20
4941.1885390000016
 30
0.0
 11
13054.41801634199
 21
4941.1885390000016
 31
0.0
  0
LINE
  5
B56F
  8
SUNPOU
  6
CONTINUOUS
 62
     4
 10
13336.91801634199
 20
4941.1885390000016
 30
0.0
 11
13576.91801634199
 21
4941.1885390000016
 31
0.0
  0
LINE
  5
B570
  8
SUNPOU
  6
CONTINUOUS
 62
     4
 10
13294.418016342001
 20
4941.1885390000016
 30
0.0
 11
13336.91801634199
 21
4941.1885390000016
 31
0.0
  0
LINE
  5
B571
  8
SUNPOU
  6
CONTINUOUS
 62
     4
 10
7107.9180163420024
 20
5798.536116000002
 30
0.0
 11
7107.9180163420024
 21
4861.1885389999998
 31
0.0
  0
LINE
  5
B572
  8
SUNPOU
  6
CONTINUOUS
 62
     4
 10
7065.4180163420024
 20
6161.1883740000012
 30
0.0
 11
7065.4180163420024
 21
4861.1885389999998
 31
0.0
  0
LINE
  5
B573
  8
SUNPOU
  6
CONTINUOUS
 62
     4
 10
7107.9180163420024
 20
4941.1885390000016
 30
0.0
 11
7347.9180163420042
 21
4941.1885390000016
 31
0.0
  0
LINE
  5
B574
  8
SUNPOU
  6
CONTINUOUS
 62
     4
 10
7065.4180163420024
 20
4941.1885390000016
 30
0.0
 11
6825.4180163420033
 21
4941.1885390000016
 31
0.0
  0
LINE
  5
B575
  8
SUNPOU
  6
CONTINUOUS
 62
     4
 10
7107.9180163420024
 20
4941.1885390000016
 30
0.0
 11
7065.4180163420024
 21
4941.1885390000016
 31
0.0
  0
LINE
  5
B576
  8
SUNPOU
  6
CONTINUOUS
 62
     4
 10
10025.91801634199
 20
5798.536116000002
 30
0.0
 11
10025.91801634199
 21
4861.1885389999998
 31
0.0
  0
LINE
  5
B577
  8
SUNPOU
  6
CONTINUOUS
 62
     4
 10
7107.9180163420024
 20
5798.536116000002
 30
0.0
 11
7107.9180163420024
 21
4861.1885389999998
 31
0.0
  0
LINE
  5
B578
  8
SUNPOU
  6
CONTINUOUS
 62
     4
 10
10025.91801634199
 20
4941.1885390000016
 30
0.0
 11
7107.9180163420024
 21
4941.1885390000016
 31
0.0
  0
LINE
  5
B579
  8
SUNPOU
  6
CONTINUOUS
 62
     4
 10
10025.91801634199
 20
5798.536116000002
 30
0.0
 11
10025.91801634199
 21
4861.1885390000016
 31
0.0
  0
LINE
  5
B57A
  8
SUNPOU
  6
CONTINUOUS
 62
     4
 10
13294.418016342001
 20
5798.536116000002
 30
0.0
 11
13294.418016342001
 21
4861.1885390000016
 31
0.0
  0
LINE
  5
B57B
  8
SUNPOU
  6
CONTINUOUS
 62
     4
 10
10025.91801634199
 20
4941.1885390000016
 30
0.0
 11
13294.418016342001
 21
4941.1885390000016
 31
0.0
  0
LINE
  5
B57C
  8
SUNPOU
  6
CONTINUOUS
 62
     4
 10
19896.69453845621
 20
8669.1883999999973
 30
0.0
 11
19896.69453845621
 21
9869.1329740000037
 31
0.0
  0
LINE
  5
B57D
  8
SUNPOU
  6
CONTINUOUS
 62
     4
 10
25785.694538456231
 20
8669.1883999999973
 30
0.0
 11
25785.694538456231
 21
9869.1329740000037
 31
0.0
  0
LINE
  5
B57E
  8
SUNPOU
  6
CONTINUOUS
 62
     4
 10
19899.69453845621
 20
9789.1329740000037
 30
0.0
 11
25782.694538456231
 21
9789.1329740000037
 31
0.0
  0
LINE
  5
B57F
  8
SUNPOU
  6
CONTINUOUS
 62
     4
 10
25742.694538456231
 20
8669.1884000000027
 30
0.0
 11
25742.694538456231
 21
9469.1900499999992
 31
0.0
  0
LINE
  5
B580
  8
SUNPOU
  6
CONTINUOUS
 62
     4
 10
25785.694538456231
 20
8669.1884000000027
 30
0.0
 11
25785.694538456231
 21
9469.1900499999992
 31
0.0
  0
LINE
  5
B581
  8
SUNPOU
  6
CONTINUOUS
 62
     4
 10
25742.694538456231
 20
9389.1900499999992
 30
0.0
 11
25502.694538456231
 21
9389.1900499999992
 31
0.0
  0
LINE
  5
B582
  8
SUNPOU
  6
CONTINUOUS
 62
     4
 10
25782.694538456231
 20
9389.1900499999992
 30
0.0
 11
26022.694538456231
 21
9389.1900499999992
 31
0.0
  0
LINE
  5
B583
  8
SUNPOU
  6
CONTINUOUS
 62
     4
 10
25742.694538456231
 20
9389.1900499999992
 30
0.0
 11
25782.694538456231
 21
9389.1900499999992
 31
0.0
  0
LINE
  5
B584
  8
SUNPOU
  6
CONTINUOUS
 62
     4
 10
19939.69453845621
 20
8539.1884659999978
 30
0.0
 11
19939.69453845621
 21
9469.1900499999992
 31
0.0
  0
LINE
  5
B585
  8
SUNPOU
  6
CONTINUOUS
 62
     4
 10
19896.69453845621
 20
8669.1883999999973
 30
0.0
 11
19896.69453845621
 21
9469.1900499999992
 31
0.0
  0
LINE
  5
B586
  8
SUNPOU
  6
CONTINUOUS
 62
     4
 10
19939.69453845621
 20
9389.1900499999992
 30
0.0
 11
20179.69453845621
 21
9389.1900499999992
 31
0.0
  0
LINE
  5
B587
  8
SUNPOU
  6
CONTINUOUS
 62
     4
 10
19899.69453845621
 20
9389.1900499999992
 30
0.0
 11
19659.69453845621
 21
9389.1900499999992
 31
0.0
  0
LINE
  5
B588
  8
SUNPOU
  6
CONTINUOUS
 62
     4
 10
19939.69453845621
 20
9389.1900499999992
 30
0.0
 11
19899.69453845621
 21
9389.1900499999992
 31
0.0
  0
LINE
  5
B589
  8
SUNPOU
  6
CONTINUOUS
 62
     4
 10
22942.694538456231
 20
8539.1884659999978
 30
0.0
 11
22942.694538456231
 21
9469.1900499999992
 31
0.0
  0
LINE
  5
B58A
  8
SUNPOU
  6
CONTINUOUS
 62
     4
 10
19939.69453845621
 20
8539.1884659999978
 30
0.0
 11
19939.69453845621
 21
9469.1900499999992
 31
0.0
  0
LINE
  5
B58B
  8
SUNPOU
  6
CONTINUOUS
 62
     4
 10
22942.694538456231
 20
9389.1900499999992
 30
0.0
 11
19939.69453845621
 21
9389.1900499999992
 31
0.0
  0
LINE
  5
B58C
  8
SUNPOU
  6
CONTINUOUS
 62
     4
 10
19852.191899456218
 20
6241.1883740000012
 30
0.0
 11
18652.191899456229
 21
6241.1883740000012
 31
0.0
  0
LINE
  5
B58D
  8
SUNPOU
  6
CONTINUOUS
 62
     4
 10
19819.69453845621
 20
8589.1883999999973
 30
0.0
 11
18652.191899456229
 21
8589.1883999999973
 31
0.0
  0
LINE
  5
B58E
  8
SUNPOU
  6
CONTINUOUS
 62
     4
 10
18732.191899456218
 20
6241.1883740000012
 30
0.0
 11
18732.191899456218
 21
8589.1883999999973
 31
0.0
  0
LINE
  5
B58F
  8
SUNPOU
  6
CONTINUOUS
 62
     4
 10
19852.191899456218
 20
6241.1883740000012
 30
0.0
 11
19052.191239456231
 21
6241.1883740000012
 31
0.0
  0
LINE
  5
B590
  8
SUNPOU
  6
CONTINUOUS
 62
     4
 10
19944.690843456221
 20
8132.6883740000021
 30
0.0
 11
19052.191239456231
 21
8132.6883740000021
 31
0.0
  0
LINE
  5
B591
  8
SUNPOU
  6
CONTINUOUS
 62
     4
 10
19132.191239456231
 20
6241.1883740000012
 30
0.0
 11
19132.191239456231
 21
8132.6883740000021
 31
0.0
  0
LINE
  5
B592
  8
SUNPOU
  6
CONTINUOUS
 62
     4
 10
22945.694538456231
 20
6161.1883740000003
 30
0.0
 11
22945.694538456231
 21
5261.1883740000012
 31
0.0
  0
LINE
  5
B593
  8
SUNPOU
  6
CONTINUOUS
 62
     4
 10
25657.694538456231
 20
6061.1885389999989
 30
0.0
 11
25657.694538456231
 21
5261.1883740000012
 31
0.0
  0
LINE
  5
B594
  8
SUNPOU
  6
CONTINUOUS
 62
     4
 10
22945.694538456231
 20
5341.1883740000012
 30
0.0
 11
25657.694538456231
 21
5341.1883740000012
 31
0.0
  0
LINE
  5
B595
  8
SUNPOU
  6
CONTINUOUS
 62
     4
 10
19939.734491403731
 20
6161.1883740000003
 30
0.0
 11
19939.734491403731
 21
4461.1887040000529
 31
0.0
  0
LINE
  5
B596
  8
SUNPOU
  6
CONTINUOUS
 62
     4
 10
25742.694538456231
 20
6061.1885389999989
 30
0.0
 11
25742.694538456231
 21
4461.1887040000529
 31
0.0
  0
LINE
  5
B597
  8
SUNPOU
  6
CONTINUOUS
 62
     4
 10
19939.734491403731
 20
4541.188704000052
 30
0.0
 11
25742.694538456231
 21
4541.188704000052
 31
0.0
  0
LINE
  5
B598
  8
SUNPOU
  6
CONTINUOUS
 62
     4
 10
19982.19453845621
 20
5798.536116000002
 30
0.0
 11
19982.19453845621
 21
4861.1885389999998
 31
0.0
  0
LINE
  5
B599
  8
SUNPOU
  6
CONTINUOUS
 62
     4
 10
19939.734491403731
 20
6161.1883740000003
 30
0.0
 11
19939.734491403731
 21
4861.1885389999998
 31
0.0
  0
LINE
  5
B59A
  8
SUNPOU
  6
CONTINUOUS
 62
     4
 10
19982.19453845621
 20
4941.1885390000016
 30
0.0
 11
20222.19453845621
 21
4941.1885390000016
 31
0.0
  0
LINE
  5
B59B
  8
SUNPOU
  6
CONTINUOUS
 62
     4
 10
19939.734491403731
 20
4941.1885390000016
 30
0.0
 11
19699.734491403731
 21
4941.1885390000016
 31
0.0
  0
LINE
  5
B59C
  8
SUNPOU
  6
CONTINUOUS
 62
     4
 10
19982.19453845621
 20
4941.1885390000016
 30
0.0
 11
19939.734491403731
 21
4941.1885390000016
 31
0.0
  0
LINE
  5
B59D
  8
SUNPOU
  6
CONTINUOUS
 62
     4
 10
22900.19453845621
 20
5798.536116000002
 30
0.0
 11
22900.19453845621
 21
4861.1885389999998
 31
0.0
  0
LINE
  5
B59E
  8
SUNPOU
  6
CONTINUOUS
 62
     4
 10
19982.19453845621
 20
5798.536116000002
 30
0.0
 11
19982.19453845621
 21
4861.1885389999998
 31
0.0
  0
LINE
  5
B59F
  8
SUNPOU
  6
CONTINUOUS
 62
     4
 10
22900.19453845621
 20
4941.1885390000016
 30
0.0
 11
19982.19453845621
 21
4941.1885390000016
 31
0.0
  0
LINE
  5
B5A0
  8
SUNPOU
  6
CONTINUOUS
 62
     4
 10
20076.19453845621
 20
6061.1885389999989
 30
0.0
 11
20076.19453845621
 21
5261.1883740000012
 31
0.0
  0
LINE
  5
B5A1
  8
SUNPOU
  6
CONTINUOUS
 62
     4
 10
22806.19453845622
 20
6061.1885389999989
 30
0.0
 11
22806.19453845622
 21
5261.1883740000012
 31
0.0
  0
LINE
  5
B5A2
  8
SUNPOU
  6
CONTINUOUS
 62
     4
 10
20076.19453845621
 20
5341.1883740000012
 30
0.0
 11
22806.19453845622
 21
5341.1883740000012
 31
0.0
  0
LINE
  5
B5A3
  8
SUNPOU
  6
CONTINUOUS
 62
     4
 10
25700.194538456231
 20
5798.536116000002
 30
0.0
 11
25700.194538456231
 21
4861.1885389999998
 31
0.0
  0
LINE
  5
B5A4
  8
SUNPOU
  6
CONTINUOUS
 62
     4
 10
25742.694538456231
 20
6061.1885389999989
 30
0.0
 11
25742.694538456231
 21
4861.1885389999998
 31
0.0
  0
LINE
  5
B5A5
  8
SUNPOU
  6
CONTINUOUS
 62
     4
 10
25700.194538456231
 20
4941.1885389999998
 30
0.0
 11
25460.194538456231
 21
4941.1885389999998
 31
0.0
  0
LINE
  5
B5A6
  8
SUNPOU
  6
CONTINUOUS
 62
     4
 10
25742.694538456231
 20
4941.1885389999998
 30
0.0
 11
25982.694538456231
 21
4941.1885389999998
 31
0.0
  0
LINE
  5
B5A7
  8
SUNPOU
  6
CONTINUOUS
 62
     4
 10
25700.194538456231
 20
4941.1885389999998
 30
0.0
 11
25742.694538456231
 21
4941.1885389999998
 31
0.0
  0
LINE
  5
B5A8
  8
SUNPOU
  6
CONTINUOUS
 62
     4
 10
22900.19453845621
 20
5798.536116000002
 30
0.0
 11
22900.19453845621
 21
4861.1885389999998
 31
0.0
  0
LINE
  5
B5A9
  8
SUNPOU
  6
CONTINUOUS
 62
     4
 10
25700.194538456231
 20
5798.536116000002
 30
0.0
 11
25700.194538456231
 21
4861.1885389999998
 31
0.0
  0
LINE
  5
B5AA
  8
SUNPOU
  6
CONTINUOUS
 62
     4
 10
22900.19453845621
 20
4941.1885389999998
 30
0.0
 11
25700.194538456231
 21
4941.1885389999998
 31
0.0
  0
LINE
  5
B5AB
  8
SUNPOU
  6
CONTINUOUS
 62
     4
 10
22942.694538456231
 20
8539.1884659999978
 30
0.0
 11
22942.694538456231
 21
9469.1900499999992
 31
0.0
  0
LINE
  5
B5AC
  8
SUNPOU
  6
CONTINUOUS
 62
     4
 10
25742.694538456231
 20
8669.1884000000027
 30
0.0
 11
25742.694538456231
 21
9469.1900499999992
 31
0.0
  0
LINE
  5
B5AD
  8
SUNPOU
  6
CONTINUOUS
 62
     4
 10
22942.694538456231
 20
9389.1900499999992
 30
0.0
 11
25742.694538456231
 21
9389.1900499999992
 31
0.0
  0
LINE
  5
B5AE
  8
SUNPOU
  6
CONTINUOUS
 62
     4
 10
25822.694538456231
 20
6241.5026620000017
 30
0.0
 11
27032.516936750599
 21
6241.5026620000017
 31
0.0
  0
LINE
  5
B5AF
  8
SUNPOU
  6
CONTINUOUS
 62
     4
 10
25862.694538456231
 20
8261.5026620000044
 30
0.0
 11
27032.51693675061
 21
8261.5026620000044
 31
0.0
  0
LINE
  5
B5B0
  8
SUNPOU
  6
CONTINUOUS
 62
     4
 10
26952.516936750599
 20
6241.5026620000017
 30
0.0
 11
26952.51693675061
 21
8261.5026620000044
 31
0.0
  0
LINE
  5
B5B1
  8
0-6
  6
CONTINUOUS
 62
     6
 10
11309.952861110371
 20
16543.767426090661
 30
0.0
 11
11251.20286248165
 21
16694.98542099999
 31
0.0
  0
LINE
  5
B5B2
  8
0-6
  6
CONTINUOUS
 62
     6
 10
11251.20286248165
 20
16694.98542099999
 30
0.0
 11
11355.81385416846
 21
16570.989514851561
 31
0.0
  0
LINE
  5
B5B3
  8
0-6
  6
CONTINUOUS
 62
     6
 10
11355.81385416846
 20
16570.989514851561
 30
0.0
 11
11309.952861110371
 21
16543.767426090661
 31
0.0
  0
LINE
  5
B5B4
  8
0-6
  6
CONTINUOUS
 62
     6
 10
12331.32025836821
 20
14222.233182006999
 30
0.0
 11
12451.17498527474
 21
14331.564278962231
 31
0.0
  0
LINE
  5
B5B5
  8
0-6
  6
CONTINUOUS
 62
     6
 10
12451.17498527474
 20
14331.564278962231
 30
0.0
 11
12373.24958723795
 21
14189.27557011968
 31
0.0
  0
LINE
  5
B5B6
  8
0-6
  6
CONTINUOUS
 62
     6
 10
12373.24958723795
 20
14189.27557011968
 30
0.0
 11
12331.32025836821
 21
14222.233182006999
 31
0.0
  0
LINE
  5
B5B7
  8
0-6
  6
CONTINUOUS
 62
     6
 10
9061.8482952710528
 20
16944.10254427827
 30
0.0
 11
9093.4879416398016
 21
16784.988192000001
 31
0.0
  0
LINE
  5
B5B8
  8
0-6
  6
CONTINUOUS
 62
     6
 10
9093.4879416398016
 20
16784.988192000001
 30
0.0
 11
9011.9618157374407
 21
16925.24486784335
 31
0.0
  0
LINE
  5
B5B9
  8
0-6
  6
CONTINUOUS
 62
     6
 10
9011.9618157374407
 20
16925.24486784335
 30
0.0
 11
9061.8482952710528
 21
16944.10254427827
 31
0.0
  0
LINE
  5
B5BA
  8
0-6
  6
CONTINUOUS
 62
     6
 10
25557.966514508262
 20
19452.88947925335
 30
0.0
 11
25664.29453845623
 21
19575.385710999992
 31
0.0
  0
LINE
  5
B5BB
  8
0-6
  6
CONTINUOUS
 62
     6
 10
25664.29453845623
 20
19575.385710999992
 30
0.0
 11
25603.44241886296
 21
19425.024404324551
 31
0.0
  0
LINE
  5
B5BC
  8
0-6
  6
CONTINUOUS
 62
     6
 10
25603.44241886296
 20
19425.024404324551
 30
0.0
 11
25557.966514508262
 21
19452.88947925335
 31
0.0
  0
LINE
  5
B5BD
  8
0-6
  6
CONTINUOUS
 62
     6
 10
25586.15086001423
 20
19868.7030359327
 30
0.0
 11
25655.194538456231
 21
19721.924475045871
 31
0.0
  0
LINE
  5
B5BE
  8
0-6
  6
CONTINUOUS
 62
     6
 10
25655.194538456231
 20
19721.924475045871
 30
0.0
 11
25542.277538277081
 21
19838.377272670841
 31
0.0
  0
LINE
  5
B5BF
  8
0-6
  6
CONTINUOUS
 62
     6
 10
25542.277538277081
 20
19838.377272670841
 30
0.0
 11
25586.15086001423
 21
19868.7030359327
 31
0.0
  0
LINE
  5
B5C0
  8
0-6
  6
CONTINUOUS
 62
     6
 10
25557.966514508262
 20
16935.082047746651
 30
0.0
 11
25664.294538456241
 21
16812.585815999992
 31
0.0
  0
LINE
  5
B5C1
  8
0-6
  6
CONTINUOUS
 62
     6
 10
25664.294538456241
 20
16812.585815999992
 30
0.0
 11
25603.44241886296
 21
16962.947122675439
 31
0.0
  0
LINE
  5
B5C2
  8
0-6
  6
CONTINUOUS
 62
     6
 10
25603.44241886296
 20
16962.947122675439
 30
0.0
 11
25557.966514508262
 21
16935.082047746651
 31
0.0
  0
LINE
  5
B5C3
  8
0-6
  6
CONTINUOUS
 62
     6
 10
25557.966514508262
 20
13677.082483746641
 30
0.0
 11
25664.29453845623
 21
13554.586251999999
 31
0.0
  0
LINE
  5
B5C4
  8
0-6
  6
CONTINUOUS
 62
     6
 10
25664.29453845623
 20
13554.586251999999
 30
0.0
 11
25603.44241886296
 21
13704.947558675451
 31
0.0
  0
LINE
  5
B5C5
  8
0-6
  6
CONTINUOUS
 62
     6
 10
25603.44241886296
 20
13704.947558675451
 30
0.0
 11
25557.966514508262
 21
13677.082483746641
 31
0.0
  0
LINE
  5
B5C6
  8
0-6
  6
CONTINUOUS
 62
     6
 10
25586.15086001423
 20
16519.268491067302
 30
0.0
 11
25655.194538456231
 21
16666.047051954109
 31
0.0
  0
LINE
  5
B5C7
  8
0-6
  6
CONTINUOUS
 62
     6
 10
25655.194538456231
 20
16666.047051954109
 30
0.0
 11
25542.277538277081
 21
16549.594254329138
 31
0.0
  0
LINE
  5
B5C8
  8
0-6
  6
CONTINUOUS
 62
     6
 10
25542.277538277081
 20
16549.594254329138
 30
0.0
 11
25586.15086001423
 21
16519.268491067302
 31
0.0
  0
LINE
  5
B5C9
  8
0-6
  6
CONTINUOUS
 62
     6
 10
25586.15086001423
 20
13281.207691113181
 30
0.0
 11
25655.194538456231
 21
13427.986252000001
 31
0.0
  0
LINE
  5
B5CA
  8
0-6
  6
CONTINUOUS
 62
     6
 10
25655.194538456231
 20
13427.986252000001
 30
0.0
 11
25542.277538277081
 21
13311.53345437502
 31
0.0
  0
LINE
  5
B5CB
  8
0-6
  6
CONTINUOUS
 62
     6
 10
25542.277538277081
 20
13311.53345437502
 30
0.0
 11
25586.15086001423
 21
13281.207691113181
 31
0.0
  0
LINE
  5
B5CC
  8
0-6
  6
CONTINUOUS
 62
     6
 10
13183.97665914063
 20
14174.56097015482
 30
0.0
 11
13230.26695080627
 21
14330.022169064119
 31
0.0
  0
LINE
  5
B5CD
  8
0-6
  6
CONTINUOUS
 62
     6
 10
13230.26695080627
 20
14330.022169064119
 30
0.0
 11
13136.05756480954
 21
14197.97636415439
 31
0.0
  0
LINE
  5
B5CE
  8
0-6
  6
CONTINUOUS
 62
     6
 10
13136.05756480954
 20
14197.97636415439
 30
0.0
 11
13183.97665914063
 21
14174.56097015482
 31
0.0
  0
ARC
  5
B5CF
  8
1-前柱P
 10
25709.79453845623
 20
13529.885711000001
 30
0.0
 40
1.0
 50
90.0
 51
180.0
  0
LINE
  5
B5D0
  8
1-前柱P
 10
25708.794538456219
 20
13529.885711000001
 30
0.0
 11
25708.794538456219
 21
13528.285711
 31
0.0
  0
LINE
  5
B5D1
  8
1-前柱P
 10
25708.794538456219
 20
13528.285711
 30
0.0
 11
25697.594538456218
 21
13528.285711
 31
0.0
  0
LINE
  5
B5D2
  8
1-前柱P
 10
25697.594538456218
 20
13528.285711
 30
0.0
 11
25697.594538456218
 21
13529.885711000001
 31
0.0
  0
ARC
  5
B5D3
  8
1-前柱P
 10
25696.594538456211
 20
13529.885711000001
 30
0.0
 40
1.0
 50
0.0
 51
90.0
  0
ARC
  5
B5D4
  8
1-中柱P
 10
25693.594538456218
 20
16798.285711000011
 30
0.0
 40
1.0
 50
0.0
 51
90.0
  0
LINE
  5
B5D5
  8
1-中柱P
 10
25694.594538456218
 20
16798.285711000011
 30
0.0
 11
25694.594538456218
 21
16796.685710999991
 31
0.0
  0
LINE
  5
B5D6
  8
1-中柱P
 10
25694.594538456218
 20
16796.685710999991
 30
0.0
 11
25705.79453845623
 21
16796.685710999991
 31
0.0
  0
LINE
  5
B5D7
  8
1-中柱P
 10
25705.79453845623
 20
16796.685710999991
 30
0.0
 11
25705.79453845623
 21
16798.285711000011
 31
0.0
  0
ARC
  5
B5D8
  8
1-中柱P
 10
25706.79453845623
 20
16798.285711000011
 30
0.0
 40
1.0
 50
90.0
 51
180.0
  0
ARC
  5
B5D9
  8
1-後柱P
 10
25690.594538456229
 20
19579.935710999991
 30
0.0
 40
1.0
 50
270.0
 51
0.0
  0
LINE
  5
B5DA
  8
1-後柱P
 10
25691.59453845624
 20
19579.935710999991
 30
0.0
 11
25691.59453845624
 21
19581.535711
 31
0.0
  0
LINE
  5
B5DB
  8
1-後柱P
 10
25691.59453845624
 20
19581.535711
 30
0.0
 11
25702.79453845623
 21
19581.535711
 31
0.0
  0
LINE
  5
B5DC
  8
1-後柱P
 10
25702.79453845623
 20
19581.535711
 30
0.0
 11
25702.794538456241
 21
19579.935710999991
 31
0.0
  0
ARC
  5
B5DD
  8
1-後柱P
 10
25703.794538456241
 20
19579.935710999991
 30
0.0
 40
1.0
 50
180.0
 51
270.0
  0
TEXT
  5
B5DE
  8
0
  6
CONTINUOUS
 62
     7
 10
26872.516936750599
 20
6588.5026620000071
 30
0.0
 40
160.0
  1
有効高サ2020
 50
90.0
  0
TEXT
  5
B5DF
  8
0
  6
CONTINUOUS
 62
     7
 10
24076.02787178956
 20
9469.1900499999992
 30
0.0
 40
160.0
  1
2800
  0
TEXT
  5
B5E0
  8
0
  6
CONTINUOUS
 62
     7
 10
24033.52787178956
 20
5021.1885389999998
 30
0.0
 40
160.0
  1
2800
  0
TEXT
  5
B5E1
  8
0
  6
CONTINUOUS
 62
     7
 10
25862.695198456211
 20
5021.1883080000007
 30
0.0
 40
160.0
  1
42.5
  0
TEXT
  5
B5E2
  8
0
  6
CONTINUOUS
 62
     7
 10
20681.19453845621
 20
5421.1883740000012
 30
0.0
 40
160.0
  1
有効開口巾2730
  0
TEXT
  5
B5E3
  8
0
  6
CONTINUOUS
 62
     7
 10
21174.527871789549
 20
5021.1885389999998
 30
0.0
 40
160.0
  1
2918
  0
TEXT
  5
B5E4
  8
0
  6
CONTINUOUS
 62
     7
 10
19359.871507456231
 20
5028.7357170000014
 30
0.0
 40
160.0
  1
42.5
  0
TEXT
  5
B5E5
  8
0
  6
CONTINUOUS
 62
     7
 10
22561.21451492999
 20
4621.188704000052
 30
0.0
 40
160.0
  1
5803
  0
TEXT
  5
B5E6
  8
0
  6
CONTINUOUS
 62
     7
 10
23555.027871789571
 20
5421.1883740000012
 30
0.0
 40
160.0
  1
有効開口巾2712
  0
TEXT
  5
B5E7
  8
0
  6
CONTINUOUS
 62
     7
 10
19052.191239456231
 20
6264.271707333337
 30
0.0
 40
160.0
  1
有効開口高サ1891.5
 50
90.0
  0
TEXT
  5
B5E8
  8
0
  6
CONTINUOUS
 62
     7
 10
18652.191899456229
 20
6609.8550536666689
 30
0.0
 40
160.0
  1
2348（2588）
 50
90.0
  0
TEXT
  5
B5E9
  8
0
  6
CONTINUOUS
 62
     7
 10
21174.527871789549
 20
9469.1900499999992
 30
0.0
 40
160.0
  1
3003
  0
TEXT
  5
B5EA
  8
0
  6
CONTINUOUS
 62
     7
 10
19569.88655245621
 20
9469.1893240000027
 30
0.0
 40
160.0
  1
43
  0
TEXT
  5
B5EB
  8
0
  6
CONTINUOUS
 62
     7
 10
25923.160358456229
 20
9469.1893240000027
 30
0.0
 40
160.0
  1
43
  0
TEXT
  5
B5EC
  8
0
  6
CONTINUOUS
 62
     7
 10
22547.861205122881
 20
9869.1329740000037
 30
0.0
 40
160.0
  1
5889
  0
TEXT
  5
B5ED
  8
0
  6
CONTINUOUS
 62
     7
 10
11260.168016342001
 20
5021.1885390000016
 30
0.0
 40
160.0
  1
3268.5
  0
TEXT
  5
B5EE
  8
0
  6
CONTINUOUS
 62
     7
 10
8300.2513496753363
 20
5021.1885389999998
 30
0.0
 40
160.0
  1
2918
  0
TEXT
  5
B5EF
  8
0
  6
CONTINUOUS
 62
     7
 10
6483.4284023420041
 20
5022.1790570000012
 30
0.0
 40
160.0
  1
42.5
  0
TEXT
  5
B5F0
  8
0
  6
CONTINUOUS
 62
     7
 10
13456.91966634199
 20
5021.1883080000007
 30
0.0
 40
160.0
  1
42.5
  0
TEXT
  5
B5F1
  8
0
  6
CONTINUOUS
 62
     7
 10
9827.8346830086684
 20
4621.1887040000011
 30
0.0
 40
160.0
  1
6271.5
  0
TEXT
  5
B5F2
  8
0
  6
CONTINUOUS
 62
     7
 10
5895.4176203420047
 20
6541.021707333337
 30
0.0
 40
160.0
  1
2157（2397）
 50
90.0
  0
TEXT
  5
B5F3
  8
0
  6
CONTINUOUS
 62
     7
 10
14346.918412342
 20
6609.85504066667
 30
0.0
 40
160.0
  1
2348（2588）
 50
90.0
  0
TEXT
  5
B5F4
  8
0
  6
CONTINUOUS
 62
     7
 10
6431.0762012068981
 20
9469.1900499999992
 30
0.0
 40
160.0
  1
180
  0
TEXT
  5
B5F5
  8
0
  6
CONTINUOUS
 62
     7
 10
9827.8346830086684
 20
9469.1900499999992
 30
0.0
 40
160.0
  1
6271.5
  0
TEXT
  5
B5F6
  8
0
  6
CONTINUOUS
 62
     7
 10
13553.58468300867
 20
9469.1900499999992
 30
0.0
 40
160.0
  1
150
  0
TEXT
  5
B5F7
  8
0
  6
CONTINUOUS
 62
     7
 10
9826.1680163420024
 20
9869.1883999999955
 30
0.0
 40
160.0
  1
6601.5
  0
TEXT
  5
B5FD
  8
0
  6
CONTINUOUS
 62
     7
 10
26838.03816282484
 20
14695.73571100001
 30
0.0
 40
160.0
  1
3268.5
 50
90.0
  0
TEXT
  5
B5FE
  8
0
  6
CONTINUOUS
 62
     7
 10
26838.03816282484
 20
17922.319044333341
 30
0.0
 40
160.0
  1
2918
 50
90.0
  0
TEXT
  5
B5FF
  8
0
  6
CONTINUOUS
 62
     7
 10
25841.116466456209
 20
20570.484918999991
 30
0.0
 40
160.0
  1
42.5
  0
TEXT
  5
B600
  8
0
  6
CONTINUOUS
 62
     7
 10
25163.020499456241
 20
20589.828775000002
 30
0.0
 40
160.0
  1
42.5
  0
TEXT
  5
B601
  8
0
  6
CONTINUOUS
 62
     7
 10
21174.527871789549
 20
20970.486634999979
 30
0.0
 40
160.0
  1
2918
  0
TEXT
  5
B602
  8
0
  6
CONTINUOUS
 62
     7
 10
24033.52787178956
 20
20970.486634999979
 30
0.0
 40
160.0
  1
2800
  0
TEXT
  5
B606
  8
0
  6
CONTINUOUS
 62
     7
 10
19445.020499456241
 20
20589.828775000002
 30
0.0
 40
160.0
  1
42.5
  0
TEXT
  5
B607
  8
0
  6
CONTINUOUS
 62
     7
 10
20147.861205122888
 20
20570.486634999979
 30
0.0
 40
160.0
  1
758
  0
TEXT
  5
B608
  8
0
  6
CONTINUOUS
 62
     7
 10
20917.361205122888
 20
20570.486634999979
 30
0.0
 40
160.0
  1
701
  0
TEXT
  5
B609
  8
0
  6
CONTINUOUS
 62
     7
 10
21618.361205122888
 20
20570.486634999979
 30
0.0
 40
160.0
  1
701
  0
TEXT
  5
B60A
  8
0
  6
CONTINUOUS
 62
     7
 10
22307.861205122888
 20
20570.486634999979
 30
0.0
 40
160.0
  1
758
  0
TEXT
  5
B60B
  8
0
  6
CONTINUOUS
 62
     7
 10
23041.11646645622
 20
20570.486634999979
 30
0.0
 40
160.0
  1
42.5
  0
TEXT
  5
B615
  8
0
  6
CONTINUOUS
 62
     7
 10
9656.2665818062742
 20
12058.98564499999
 30
0.0
 40
160.0
  1
ケラバ外寸5889
  0
TEXT
  5
B616
  8
0
  6
CONTINUOUS
 62
     7
 10
6990.1194378062883
 20
20570.484918999991
 30
0.0
 40
160.0
  1
85.5
  0
TEXT
  5
B617
  8
0
  6
CONTINUOUS
 62
     7
 10
8757.5999151396118
 20
20570.486634999979
 30
0.0
 40
160.0
  1
2918
  0
TEXT
  5
B618
  8
0
  6
CONTINUOUS
 62
     7
 10
11616.59991513961
 20
20570.486634999979
 30
0.0
 40
160.0
  1
2800
  0
TEXT
  5
B619
  8
0
  6
CONTINUOUS
 62
     7
 10
13429.61436980627
 20
20570.484918999991
 30
0.0
 40
160.0
  1
85.5
  0
TEXT
  5
B61A
  8
0
  6
CONTINUOUS
 62
     7
 10
6955.766871806286
 20
20041.914439666671
 30
0.0
 40
160.0
  1
10
 50
90.0
  0
TEXT
  5
B61B
  8
0
  6
CONTINUOUS
 62
     7
 10
6555.7668058062854
 20
19948.967233389241
 30
0.0
 40
160.0
  1
222.5
 50
90.0
  0
TEXT
  5
B61C
  8
0
  6
CONTINUOUS
 62
     7
 10
6555.7668058062818
 20
17922.319044333319
 30
0.0
 40
160.0
  1
2918
 50
90.0
  0
TEXT
  5
B61D
  8
0
  6
CONTINUOUS
 62
     7
 10
6555.7668058062818
 20
14695.73571099999
 30
0.0
 40
160.0
  1
3268.5
 50
90.0
  0
TEXT
  5
B61E
  8
0
  6
CONTINUOUS
 62
     7
 10
6555.7668058062709
 20
12604.99680859056
 30
0.0
 40
160.0
  1
192.5
 50
90.0
  0
ARC
  5
B61F
  8
0
  6
BYBLOCK
 62
     0
 10
6635.7668058062809
 20
13461.485710999999
 30
0.0
 40
15.0
 50
270.0
 51
90.0
  0
ARC
  5
B620
  8
0
  6
BYBLOCK
 62
     0
 10
6635.7668058062809
 20
13461.485710999999
 30
0.0
 40
15.0
 50
90.0
 51
270.0
  0
ARC
  5
B621
  8
0
  6
BYBLOCK
 62
     0
 10
6635.7668058062809
 20
13268.98643699999
 30
0.0
 40
15.0
 50
90.0
 51
270.0
  0
ARC
  5
B622
  8
0
  6
BYBLOCK
 62
     0
 10
6635.7668058062809
 20
13268.98643699999
 30
0.0
 40
15.0
 50
270.0
 51
90.0
  0
ARC
  5
B623
  8
0
  6
BYBLOCK
 62
     0
 10
6635.7668058062836
 20
16729.985711000001
 30
0.0
 40
15.0
 50
270.0
 51
90.0
  0
ARC
  5
B624
  8
0
  6
BYBLOCK
 62
     0
 10
6635.7668058062836
 20
16729.985711000001
 30
0.0
 40
15.0
 50
90.0
 51
270.0
  0
ARC
  5
B625
  8
0
  6
BYBLOCK
 62
     0
 10
6635.7668058062809
 20
13461.485710999999
 30
0.0
 40
15.0
 50
90.0
 51
270.0
  0
ARC
  5
B626
  8
0
  6
BYBLOCK
 62
     0
 10
6635.7668058062809
 20
13461.485710999999
 30
0.0
 40
15.0
 50
270.0
 51
90.0
  0
ARC
  5
B627
  8
0
  6
BYBLOCK
 62
     0
 10
6635.7668058062836
 20
19647.985711000001
 30
0.0
 40
15.0
 50
270.0
 51
90.0
  0
ARC
  5
B628
  8
0
  6
BYBLOCK
 62
     0
 10
6635.7668058062836
 20
19647.985711000001
 30
0.0
 40
15.0
 50
90.0
 51
270.0
  0
ARC
  5
B629
  8
0
  6
BYBLOCK
 62
     0
 10
6635.7668058062836
 20
16729.985711000001
 30
0.0
 40
15.0
 50
90.0
 51
270.0
  0
ARC
  5
B62A
  8
0
  6
BYBLOCK
 62
     0
 10
6635.7668058062836
 20
16729.985711000001
 30
0.0
 40
15.0
 50
270.0
 51
90.0
  0
ARC
  5
B62B
  8
0
  6
BYBLOCK
 62
     0
 10
6635.7668058062836
 20
19647.985711000001
 30
0.0
 40
15.0
 50
90.0
 51
270.0
  0
ARC
  5
B62C
  8
0
  6
BYBLOCK
 62
     0
 10
6635.7668058062836
 20
19647.985711000001
 30
0.0
 40
15.0
 50
270.0
 51
90.0
  0
ARC
  5
B62D
  8
0
  6
BYBLOCK
 62
     0
 10
6635.7668058062836
 20
19870.485579
 30
0.0
 40
15.0
 50
270.0
 51
90.0
  0
ARC
  5
B62E
  8
0
  6
BYBLOCK
 62
     0
 10
6635.7668058062836
 20
19870.485579
 30
0.0
 40
15.0
 50
90.0
 51
270.0
  0
ARC
  5
B62F
  8
0
  6
BYBLOCK
 62
     0
 10
7035.7661468062834
 20
19860.489010000001
 30
0.0
 40
15.0
 50
270.0
 51
90.0
  0
ARC
  5
B630
  8
0
  6
BYBLOCK
 62
     0
 10
7035.7661468062834
 20
19860.489010000001
 30
0.0
 40
15.0
 50
90.0
 51
270.0
  0
ARC
  5
B631
  8
0
  6
BYBLOCK
 62
     0
 10
7035.7661468062834
 20
19870.485579
 30
0.0
 40
15.0
 50
90.0
 51
270.0
  0
ARC
  5
B632
  8
0
  6
BYBLOCK
 62
     0
 10
7035.7661468062834
 20
19870.485579
 30
0.0
 40
15.0
 50
270.0
 51
90.0
  0
ARC
  5
B633
  8
0
  6
BYBLOCK
 62
     0
 10
13283.266581806271
 20
20490.486634999979
 30
0.0
 40
15.0
 50
180.0
 51
0.0
  0
ARC
  5
B634
  8
0
  6
BYBLOCK
 62
     0
 10
13283.266581806271
 20
20490.486634999979
 30
0.0
 40
15.0
 50
0.0
 51
180.0
  0
ARC
  5
B635
  8
0
  6
BYBLOCK
 62
     0
 10
13368.766581806271
 20
20490.486634999979
 30
0.0
 40
15.0
 50
0.0
 51
180.0
  0
ARC
  5
B636
  8
0
  6
BYBLOCK
 62
     0
 10
13368.766581806271
 20
20490.486634999979
 30
0.0
 40
15.0
 50
180.0
 51
0.0
  0
ARC
  5
B637
  8
0
  6
BYBLOCK
 62
     0
 10
10483.266581806271
 20
20490.486634999979
 30
0.0
 40
15.0
 50
0.0
 51
180.0
  0
ARC
  5
B638
  8
0
  6
BYBLOCK
 62
     0
 10
10483.266581806271
 20
20490.486634999979
 30
0.0
 40
15.0
 50
180.0
 51
0.0
  0
ARC
  5
B639
  8
0
  6
BYBLOCK
 62
     0
 10
13283.266581806271
 20
20490.486634999979
 30
0.0
 40
15.0
 50
180.0
 51
0.0
  0
ARC
  5
B63A
  8
0
  6
BYBLOCK
 62
     0
 10
13283.266581806271
 20
20490.486634999979
 30
0.0
 40
15.0
 50
0.0
 51
180.0
  0
ARC
  5
B63B
  8
0
  6
BYBLOCK
 62
     0
 10
7565.2665818062742
 20
20490.486634999979
 30
0.0
 40
15.0
 50
0.0
 51
180.0
  0
ARC
  5
B63C
  8
0
  6
BYBLOCK
 62
     0
 10
7565.2665818062742
 20
20490.486634999979
 30
0.0
 40
15.0
 50
180.0
 51
0.0
  0
ARC
  5
B63D
  8
0
  6
BYBLOCK
 62
     0
 10
10483.266581806271
 20
20490.486634999979
 30
0.0
 40
15.0
 50
180.0
 51
0.0
  0
ARC
  5
B63E
  8
0
  6
BYBLOCK
 62
     0
 10
10483.266581806271
 20
20490.486634999979
 30
0.0
 40
15.0
 50
0.0
 51
180.0
  0
ARC
  5
B63F
  8
0
  6
BYBLOCK
 62
     0
 10
7565.2665818062742
 20
20490.486634999979
 30
0.0
 40
15.0
 50
0.0
 51
180.0
  0
ARC
  5
B640
  8
0
  6
BYBLOCK
 62
     0
 10
7565.2665818062742
 20
20490.486634999979
 30
0.0
 40
15.0
 50
180.0
 51
0.0
  0
ARC
  5
B641
  8
0
  6
BYBLOCK
 62
     0
 10
7479.7665818062733
 20
20490.486634999979
 30
0.0
 40
15.0
 50
180.0
 51
0.0
  0
ARC
  5
B642
  8
0
  6
BYBLOCK
 62
     0
 10
7479.7665818062733
 20
20490.486634999979
 30
0.0
 40
15.0
 50
0.0
 51
180.0
  0
ARC
  5
B643
  8
0
  6
BYBLOCK
 62
     0
 10
7479.7665818062733
 20
11978.98564499999
 30
0.0
 40
15.0
 50
0.0
 51
180.0
  0
ARC
  5
B644
  8
0
  6
BYBLOCK
 62
     0
 10
7479.7665818062733
 20
11978.98564499999
 30
0.0
 40
15.0
 50
180.0
 51
0.0
  0
ARC
  5
B645
  8
0
  6
BYBLOCK
 62
     0
 10
13368.766581806271
 20
11978.98564499999
 30
0.0
 40
15.0
 50
180.0
 51
0.0
  0
ARC
  5
B646
  8
0
  6
BYBLOCK
 62
     0
 10
13368.766581806271
 20
11978.98564499999
 30
0.0
 40
15.0
 50
0.0
 51
180.0
  0
ARC
  5
B66B
  8
0
  6
BYBLOCK
 62
     0
 10
22900.194538456231
 20
20490.486634999979
 30
0.0
 40
15.0
 50
180.0
 51
0.0
  0
ARC
  5
B66C
  8
0
  6
BYBLOCK
 62
     0
 10
22900.194538456231
 20
20490.486634999979
 30
0.0
 40
15.0
 50
0.0
 51
180.0
  0
ARC
  5
B66D
  8
0
  6
BYBLOCK
 62
     0
 10
22942.694538456231
 20
20490.486634999979
 30
0.0
 40
15.0
 50
0.0
 51
180.0
  0
ARC
  5
B66E
  8
0
  6
BYBLOCK
 62
     0
 10
22942.694538456231
 20
20490.486634999979
 30
0.0
 40
15.0
 50
180.0
 51
0.0
  0
ARC
  5
B66F
  8
0
  6
BYBLOCK
 62
     0
 10
22142.194538456231
 20
20490.486634999979
 30
0.0
 40
15.0
 50
0.0
 51
180.0
  0
ARC
  5
B670
  8
0
  6
BYBLOCK
 62
     0
 10
22142.194538456231
 20
20490.486634999979
 30
0.0
 40
15.0
 50
180.0
 51
0.0
  0
ARC
  5
B671
  8
0
  6
BYBLOCK
 62
     0
 10
22900.194538456231
 20
20490.486634999979
 30
0.0
 40
15.0
 50
180.0
 51
0.0
  0
ARC
  5
B672
  8
0
  6
BYBLOCK
 62
     0
 10
22900.194538456231
 20
20490.486634999979
 30
0.0
 40
15.0
 50
0.0
 51
180.0
  0
ARC
  5
B673
  8
0
  6
BYBLOCK
 62
     0
 10
21441.194538456231
 20
20490.486634999979
 30
0.0
 40
15.0
 50
0.0
 51
180.0
  0
ARC
  5
B674
  8
0
  6
BYBLOCK
 62
     0
 10
21441.194538456231
 20
20490.486634999979
 30
0.0
 40
15.0
 50
180.0
 51
0.0
  0
ARC
  5
B675
  8
0
  6
BYBLOCK
 62
     0
 10
22142.194538456231
 20
20490.486634999979
 30
0.0
 40
15.0
 50
180.0
 51
0.0
  0
ARC
  5
B676
  8
0
  6
BYBLOCK
 62
     0
 10
22142.194538456231
 20
20490.486634999979
 30
0.0
 40
15.0
 50
0.0
 51
180.0
  0
ARC
  5
B677
  8
0
  6
BYBLOCK
 62
     0
 10
20740.194538456231
 20
20490.486634999979
 30
0.0
 40
15.0
 50
0.0
 51
180.0
  0
ARC
  5
B678
  8
0
  6
BYBLOCK
 62
     0
 10
20740.194538456231
 20
20490.486634999979
 30
0.0
 40
15.0
 50
180.0
 51
0.0
  0
ARC
  5
B679
  8
0
  6
BYBLOCK
 62
     0
 10
21441.194538456231
 20
20490.486634999979
 30
0.0
 40
15.0
 50
180.0
 51
0.0
  0
ARC
  5
B67A
  8
0
  6
BYBLOCK
 62
     0
 10
21441.194538456231
 20
20490.486634999979
 30
0.0
 40
15.0
 50
0.0
 51
180.0
  0
ARC
  5
B67B
  8
0
  6
BYBLOCK
 62
     0
 10
19982.19453845621
 20
20490.486634999979
 30
0.0
 40
15.0
 50
0.0
 51
180.0
  0
ARC
  5
B67C
  8
0
  6
BYBLOCK
 62
     0
 10
19982.19453845621
 20
20490.486634999979
 30
0.0
 40
15.0
 50
180.0
 51
0.0
  0
ARC
  5
B67D
  8
0
  6
BYBLOCK
 62
     0
 10
20740.194538456231
 20
20490.486634999979
 30
0.0
 40
15.0
 50
180.0
 51
0.0
  0
ARC
  5
B67E
  8
0
  6
BYBLOCK
 62
     0
 10
20740.194538456231
 20
20490.486634999979
 30
0.0
 40
15.0
 50
0.0
 51
180.0
  0
ARC
  5
B67F
  8
0
  6
BYBLOCK
 62
     0
 10
19982.19453845621
 20
20490.486634999979
 30
0.0
 40
15.0
 50
0.0
 51
180.0
  0
ARC
  5
B680
  8
0
  6
BYBLOCK
 62
     0
 10
19982.19453845621
 20
20490.486634999979
 30
0.0
 40
15.0
 50
180.0
 51
0.0
  0
ARC
  5
B681
  8
0
  6
BYBLOCK
 62
     0
 10
19939.69453845621
 20
20490.486634999979
 30
0.0
 40
15.0
 50
180.0
 51
0.0
  0
ARC
  5
B682
  8
0
  6
BYBLOCK
 62
     0
 10
19939.69453845621
 20
20490.486634999979
 30
0.0
 40
15.0
 50
0.0
 51
180.0
  0
ARC
  5
B68F
  8
0
  6
BYBLOCK
 62
     0
 10
22900.194538456231
 20
20890.486634999979
 30
0.0
 40
15.0
 50
0.0
 51
180.0
  0
ARC
  5
B690
  8
0
  6
BYBLOCK
 62
     0
 10
22900.194538456231
 20
20890.486634999979
 30
0.0
 40
15.0
 50
180.0
 51
0.0
  0
ARC
  5
B691
  8
0
  6
BYBLOCK
 62
     0
 10
25700.194538456231
 20
20890.486634999979
 30
0.0
 40
15.0
 50
180.0
 51
0.0
  0
ARC
  5
B692
  8
0
  6
BYBLOCK
 62
     0
 10
25700.194538456231
 20
20890.486634999979
 30
0.0
 40
15.0
 50
0.0
 51
180.0
  0
ARC
  5
B693
  8
0
  6
BYBLOCK
 62
     0
 10
19982.19453845621
 20
20890.486634999979
 30
0.0
 40
15.0
 50
0.0
 51
180.0
  0
ARC
  5
B694
  8
0
  6
BYBLOCK
 62
     0
 10
19982.19453845621
 20
20890.486634999979
 30
0.0
 40
15.0
 50
180.0
 51
0.0
  0
ARC
  5
B695
  8
0
  6
BYBLOCK
 62
     0
 10
22900.194538456231
 20
20890.486634999979
 30
0.0
 40
15.0
 50
180.0
 51
0.0
  0
ARC
  5
B696
  8
0
  6
BYBLOCK
 62
     0
 10
22900.194538456231
 20
20890.486634999979
 30
0.0
 40
15.0
 50
0.0
 51
180.0
  0
ARC
  5
B697
  8
0
  6
BYBLOCK
 62
     0
 10
25700.194538456231
 20
20490.486634999979
 30
0.0
 40
15.0
 50
0.0
 51
180.0
  0
ARC
  5
B698
  8
0
  6
BYBLOCK
 62
     0
 10
25700.194538456231
 20
20490.486634999979
 30
0.0
 40
15.0
 50
180.0
 51
0.0
  0
ARC
  5
B699
  8
0
  6
BYBLOCK
 62
     0
 10
25657.69229545624
 20
20490.486634999979
 30
0.0
 40
15.0
 50
180.0
 51
0.0
  0
ARC
  5
B69A
  8
0
  6
BYBLOCK
 62
     0
 10
25657.69229545624
 20
20490.486634999979
 30
0.0
 40
15.0
 50
0.0
 51
180.0
  0
ARC
  5
B69B
  8
0
  6
BYBLOCK
 62
     0
 10
25700.194538456231
 20
20490.486634999979
 30
0.0
 40
15.0
 50
180.0
 51
0.0
  0
ARC
  5
B69C
  8
0
  6
BYBLOCK
 62
     0
 10
25700.194538456231
 20
20490.486634999979
 30
0.0
 40
15.0
 50
0.0
 51
180.0
  0
ARC
  5
B69D
  8
0
  6
BYBLOCK
 62
     0
 10
25742.692823456218
 20
20490.486634999979
 30
0.0
 40
15.0
 50
0.0
 51
180.0
  0
ARC
  5
B69E
  8
0
  6
BYBLOCK
 62
     0
 10
25742.692823456218
 20
20490.486634999979
 30
0.0
 40
15.0
 50
180.0
 51
0.0
  0
ARC
  5
B69F
  8
0
  6
BYBLOCK
 62
     0
 10
26918.038162824862
 20
16729.985711000001
 30
0.0
 40
15.0
 50
90.0
 51
270.0
  0
ARC
  5
B6A0
  8
0
  6
BYBLOCK
 62
     0
 10
26918.038162824862
 20
16729.985711000001
 30
0.0
 40
15.0
 50
270.0
 51
90.0
  0
ARC
  5
B6A1
  8
0
  6
BYBLOCK
 62
     0
 10
26918.038162824862
 20
19647.985711000001
 30
0.0
 40
15.0
 50
270.0
 51
90.0
  0
ARC
  5
B6A2
  8
0
  6
BYBLOCK
 62
     0
 10
26918.038162824862
 20
19647.985711000001
 30
0.0
 40
15.0
 50
90.0
 51
270.0
  0
ARC
  5
B6A3
  8
0
  6
BYBLOCK
 62
     0
 10
26918.038162824862
 20
13461.485710999999
 30
0.0
 40
15.0
 50
90.0
 51
270.0
  0
ARC
  5
B6A4
  8
0
  6
BYBLOCK
 62
     0
 10
26918.038162824862
 20
13461.485710999999
 30
0.0
 40
15.0
 50
270.0
 51
90.0
  0
ARC
  5
B6A5
  8
0
  6
BYBLOCK
 62
     0
 10
26918.038162824862
 20
16729.985711000001
 30
0.0
 40
15.0
 50
270.0
 51
90.0
  0
ARC
  5
B6A6
  8
0
  6
BYBLOCK
 62
     0
 10
26918.038162824862
 20
16729.985711000001
 30
0.0
 40
15.0
 50
90.0
 51
270.0
  0
ARC
  5
B6BB
  8
0
  6
BYBLOCK
 62
     0
 10
6885.4180163420024
 20
9789.1883999999955
 30
0.0
 40
15.0
 50
0.0
 51
180.0
  0
ARC
  5
B6BC
  8
0
  6
BYBLOCK
 62
     0
 10
6885.4180163420024
 20
9789.1883999999955
 30
0.0
 40
15.0
 50
180.0
 51
0.0
  0
ARC
  5
B6BD
  8
0
  6
BYBLOCK
 62
     0
 10
13486.91801634199
 20
9789.1883999999955
 30
0.0
 40
15.0
 50
180.0
 51
0.0
  0
ARC
  5
B6BE
  8
0
  6
BYBLOCK
 62
     0
 10
13486.91801634199
 20
9789.1883999999955
 30
0.0
 40
15.0
 50
0.0
 51
180.0
  0
ARC
  5
B6BF
  8
0
  6
BYBLOCK
 62
     0
 10
13336.91801634199
 20
9389.1900499999992
 30
0.0
 40
15.0
 50
180.0
 51
0.0
  0
ARC
  5
B6C0
  8
0
  6
BYBLOCK
 62
     0
 10
13336.91801634199
 20
9389.1900499999992
 30
0.0
 40
15.0
 50
0.0
 51
180.0
  0
ARC
  5
B6C1
  8
0
  6
BYBLOCK
 62
     0
 10
13486.91801634199
 20
9389.1900499999992
 30
0.0
 40
15.0
 50
0.0
 51
180.0
  0
ARC
  5
B6C2
  8
0
  6
BYBLOCK
 62
     0
 10
13486.91801634199
 20
9389.1900499999992
 30
0.0
 40
15.0
 50
180.0
 51
0.0
  0
ARC
  5
B6C3
  8
0
  6
BYBLOCK
 62
     0
 10
7065.4180163420024
 20
9389.1900499999992
 30
0.0
 40
15.0
 50
0.0
 51
180.0
  0
ARC
  5
B6C4
  8
0
  6
BYBLOCK
 62
     0
 10
7065.4180163420024
 20
9389.1900499999992
 30
0.0
 40
15.0
 50
180.0
 51
0.0
  0
ARC
  5
B6C5
  8
0
  6
BYBLOCK
 62
     0
 10
13336.91801634199
 20
9389.1900499999992
 30
0.0
 40
15.0
 50
180.0
 51
0.0
  0
ARC
  5
B6C6
  8
0
  6
BYBLOCK
 62
     0
 10
13336.91801634199
 20
9389.1900499999992
 30
0.0
 40
15.0
 50
0.0
 51
180.0
  0
ARC
  5
B6C7
  8
0
  6
BYBLOCK
 62
     0
 10
6885.4180163420024
 20
9389.1900499999992
 30
0.0
 40
15.0
 50
0.0
 51
180.0
  0
ARC
  5
B6C8
  8
0
  6
BYBLOCK
 62
     0
 10
6885.4180163420024
 20
9389.1900499999992
 30
0.0
 40
15.0
 50
180.0
 51
0.0
  0
ARC
  5
B6C9
  8
0
  6
BYBLOCK
 62
     0
 10
7065.4180163420024
 20
9389.1900499999992
 30
0.0
 40
15.0
 50
180.0
 51
0.0
  0
ARC
  5
B6CA
  8
0
  6
BYBLOCK
 62
     0
 10
7065.4180163420024
 20
9389.1900499999992
 30
0.0
 40
15.0
 50
0.0
 51
180.0
  0
ARC
  5
B6CB
  8
0
  6
BYBLOCK
 62
     0
 10
14426.918412342
 20
6241.1883740000003
 30
0.0
 40
15.0
 50
90.0
 51
270.0
  0
ARC
  5
B6CC
  8
0
  6
BYBLOCK
 62
     0
 10
14426.918412342
 20
6241.1883740000003
 30
0.0
 40
15.0
 50
270.0
 51
90.0
  0
ARC
  5
B6CD
  8
0
  6
BYBLOCK
 62
     0
 10
14426.918412342
 20
8589.1883739999994
 30
0.0
 40
15.0
 50
270.0
 51
90.0
  0
ARC
  5
B6CE
  8
0
  6
BYBLOCK
 62
     0
 10
14426.918412342
 20
8589.1883739999994
 30
0.0
 40
15.0
 50
90.0
 51
270.0
  0
ARC
  5
B6CF
  8
0
  6
BYBLOCK
 62
     0
 10
5975.4176203420066
 20
6241.1883740000021
 30
0.0
 40
15.0
 50
90.0
 51
270.0
  0
ARC
  5
B6D0
  8
0
  6
BYBLOCK
 62
     0
 10
5975.4176203420066
 20
6241.1883740000021
 30
0.0
 40
15.0
 50
270.0
 51
90.0
  0
ARC
  5
B6D1
  8
0
  6
BYBLOCK
 62
     0
 10
5975.4176203420066
 20
8398.188374000003
 30
0.0
 40
15.0
 50
270.0
 51
90.0
  0
ARC
  5
B6D2
  8
0
  6
BYBLOCK
 62
     0
 10
5975.4176203420066
 20
8398.188374000003
 30
0.0
 40
15.0
 50
90.0
 51
270.0
  0
ARC
  5
B6D3
  8
0
  6
BYBLOCK
 62
     0
 10
7065.4180163420024
 20
4541.1887040000011
 30
0.0
 40
15.0
 50
0.0
 51
180.0
  0
ARC
  5
B6D4
  8
0
  6
BYBLOCK
 62
     0
 10
7065.4180163420024
 20
4541.1887040000011
 30
0.0
 40
15.0
 50
180.0
 51
0.0
  0
ARC
  5
B6D5
  8
0
  6
BYBLOCK
 62
     0
 10
13336.91801634199
 20
4541.1887040000011
 30
0.0
 40
15.0
 50
180.0
 51
0.0
  0
ARC
  5
B6D6
  8
0
  6
BYBLOCK
 62
     0
 10
13336.91801634199
 20
4541.1887040000011
 30
0.0
 40
15.0
 50
0.0
 51
180.0
  0
ARC
  5
B6D7
  8
0
  6
BYBLOCK
 62
     0
 10
13294.418016342001
 20
4941.1885390000016
 30
0.0
 40
15.0
 50
180.0
 51
0.0
  0
ARC
  5
B6D8
  8
0
  6
BYBLOCK
 62
     0
 10
13294.418016342001
 20
4941.1885390000016
 30
0.0
 40
15.0
 50
0.0
 51
180.0
  0
ARC
  5
B6D9
  8
0
  6
BYBLOCK
 62
     0
 10
13336.91801634199
 20
4941.1885390000016
 30
0.0
 40
15.0
 50
0.0
 51
180.0
  0
ARC
  5
B6DA
  8
0
  6
BYBLOCK
 62
     0
 10
13336.91801634199
 20
4941.1885390000016
 30
0.0
 40
15.0
 50
180.0
 51
0.0
  0
ARC
  5
B6DB
  8
0
  6
BYBLOCK
 62
     0
 10
7107.9180163420024
 20
4941.1885390000016
 30
0.0
 40
15.0
 50
0.0
 51
180.0
  0
ARC
  5
B6DC
  8
0
  6
BYBLOCK
 62
     0
 10
7107.9180163420024
 20
4941.1885390000016
 30
0.0
 40
15.0
 50
180.0
 51
0.0
  0
ARC
  5
B6DD
  8
0
  6
BYBLOCK
 62
     0
 10
7065.4180163420024
 20
4941.1885390000016
 30
0.0
 40
15.0
 50
180.0
 51
0.0
  0
ARC
  5
B6DE
  8
0
  6
BYBLOCK
 62
     0
 10
7065.4180163420024
 20
4941.1885390000016
 30
0.0
 40
15.0
 50
0.0
 51
180.0
  0
ARC
  5
B6DF
  8
0
  6
BYBLOCK
 62
     0
 10
10025.91801634199
 20
4941.1885390000016
 30
0.0
 40
15.0
 50
180.0
 51
0.0
  0
ARC
  5
B6E0
  8
0
  6
BYBLOCK
 62
     0
 10
10025.91801634199
 20
4941.1885390000016
 30
0.0
 40
15.0
 50
0.0
 51
180.0
  0
ARC
  5
B6E1
  8
0
  6
BYBLOCK
 62
     0
 10
7107.9180163420024
 20
4941.1885390000016
 30
0.0
 40
15.0
 50
0.0
 51
180.0
  0
ARC
  5
B6E2
  8
0
  6
BYBLOCK
 62
     0
 10
7107.9180163420024
 20
4941.1885390000016
 30
0.0
 40
15.0
 50
180.0
 51
0.0
  0
ARC
  5
B6E3
  8
0
  6
BYBLOCK
 62
     0
 10
10025.91801634199
 20
4941.1885390000016
 30
0.0
 40
15.0
 50
0.0
 51
180.0
  0
ARC
  5
B6E4
  8
0
  6
BYBLOCK
 62
     0
 10
10025.91801634199
 20
4941.1885390000016
 30
0.0
 40
15.0
 50
180.0
 51
0.0
  0
ARC
  5
B6E5
  8
0
  6
BYBLOCK
 62
     0
 10
13294.418016342001
 20
4941.1885390000016
 30
0.0
 40
15.0
 50
180.0
 51
0.0
  0
ARC
  5
B6E6
  8
0
  6
BYBLOCK
 62
     0
 10
13294.418016342001
 20
4941.1885390000016
 30
0.0
 40
15.0
 50
0.0
 51
180.0
  0
ARC
  5
B6E7
  8
0
  6
BYBLOCK
 62
     0
 10
19896.69453845621
 20
9789.1329740000037
 30
0.0
 40
15.0
 50
0.0
 51
180.0
  0
ARC
  5
B6E8
  8
0
  6
BYBLOCK
 62
     0
 10
19896.69453845621
 20
9789.1329740000037
 30
0.0
 40
15.0
 50
180.0
 51
0.0
  0
ARC
  5
B6E9
  8
0
  6
BYBLOCK
 62
     0
 10
25785.694538456231
 20
9789.1329740000037
 30
0.0
 40
15.0
 50
180.0
 51
0.0
  0
ARC
  5
B6EA
  8
0
  6
BYBLOCK
 62
     0
 10
25785.694538456231
 20
9789.1329740000037
 30
0.0
 40
15.0
 50
0.0
 51
180.0
  0
ARC
  5
B6EB
  8
0
  6
BYBLOCK
 62
     0
 10
25742.694538456231
 20
9389.1900499999992
 30
0.0
 40
15.0
 50
180.0
 51
0.0
  0
ARC
  5
B6EC
  8
0
  6
BYBLOCK
 62
     0
 10
25742.694538456231
 20
9389.1900499999992
 30
0.0
 40
15.0
 50
0.0
 51
180.0
  0
ARC
  5
B6ED
  8
0
  6
BYBLOCK
 62
     0
 10
25785.694538456231
 20
9389.1900499999992
 30
0.0
 40
15.0
 50
0.0
 51
180.0
  0
ARC
  5
B6EE
  8
0
  6
BYBLOCK
 62
     0
 10
25785.694538456231
 20
9389.1900499999992
 30
0.0
 40
15.0
 50
180.0
 51
0.0
  0
ARC
  5
B6EF
  8
0
  6
BYBLOCK
 62
     0
 10
19939.69453845621
 20
9389.1900499999992
 30
0.0
 40
15.0
 50
0.0
 51
180.0
  0
ARC
  5
B6F0
  8
0
  6
BYBLOCK
 62
     0
 10
19939.69453845621
 20
9389.1900499999992
 30
0.0
 40
15.0
 50
180.0
 51
0.0
  0
ARC
  5
B6F1
  8
0
  6
BYBLOCK
 62
     0
 10
19896.69453845621
 20
9389.1900499999992
 30
0.0
 40
15.0
 50
180.0
 51
0.0
  0
ARC
  5
B6F2
  8
0
  6
BYBLOCK
 62
     0
 10
19896.69453845621
 20
9389.1900499999992
 30
0.0
 40
15.0
 50
0.0
 51
180.0
  0
ARC
  5
B6F3
  8
0
  6
BYBLOCK
 62
     0
 10
22942.694538456231
 20
9389.1900499999992
 30
0.0
 40
15.0
 50
180.0
 51
0.0
  0
ARC
  5
B6F4
  8
0
  6
BYBLOCK
 62
     0
 10
22942.694538456231
 20
9389.1900499999992
 30
0.0
 40
15.0
 50
0.0
 51
180.0
  0
ARC
  5
B6F5
  8
0
  6
BYBLOCK
 62
     0
 10
19939.69453845621
 20
9389.1900499999992
 30
0.0
 40
15.0
 50
0.0
 51
180.0
  0
ARC
  5
B6F6
  8
0
  6
BYBLOCK
 62
     0
 10
19939.69453845621
 20
9389.1900499999992
 30
0.0
 40
15.0
 50
180.0
 51
0.0
  0
ARC
  5
B6F7
  8
0
  6
BYBLOCK
 62
     0
 10
18732.191899456218
 20
6241.1883740000012
 30
0.0
 40
15.0
 50
90.0
 51
270.0
  0
ARC
  5
B6F8
  8
0
  6
BYBLOCK
 62
     0
 10
18732.191899456218
 20
6241.1883740000012
 30
0.0
 40
15.0
 50
270.0
 51
90.0
  0
ARC
  5
B6F9
  8
0
  6
BYBLOCK
 62
     0
 10
18732.191899456218
 20
8589.1883999999973
 30
0.0
 40
15.0
 50
270.0
 51
90.0
  0
ARC
  5
B6FA
  8
0
  6
BYBLOCK
 62
     0
 10
18732.191899456218
 20
8589.1883999999973
 30
0.0
 40
15.0
 50
90.0
 51
270.0
  0
ARC
  5
B6FB
  8
0
  6
BYBLOCK
 62
     0
 10
19132.191239456231
 20
6241.1883740000012
 30
0.0
 40
15.0
 50
90.0
 51
270.0
  0
ARC
  5
B6FC
  8
0
  6
BYBLOCK
 62
     0
 10
19132.191239456231
 20
6241.1883740000012
 30
0.0
 40
15.0
 50
270.0
 51
90.0
  0
ARC
  5
B6FD
  8
0
  6
BYBLOCK
 62
     0
 10
19132.191239456231
 20
8132.6883740000021
 30
0.0
 40
15.0
 50
270.0
 51
90.0
  0
ARC
  5
B6FE
  8
0
  6
BYBLOCK
 62
     0
 10
19132.191239456231
 20
8132.6883740000021
 30
0.0
 40
15.0
 50
90.0
 51
270.0
  0
ARC
  5
B6FF
  8
0
  6
BYBLOCK
 62
     0
 10
22945.694538456231
 20
5341.1883740000012
 30
0.0
 40
15.0
 50
0.0
 51
180.0
  0
ARC
  5
B700
  8
0
  6
BYBLOCK
 62
     0
 10
22945.694538456231
 20
5341.1883740000012
 30
0.0
 40
15.0
 50
180.0
 51
0.0
  0
ARC
  5
B701
  8
0
  6
BYBLOCK
 62
     0
 10
25657.694538456231
 20
5341.1883740000012
 30
0.0
 40
15.0
 50
180.0
 51
0.0
  0
ARC
  5
B702
  8
0
  6
BYBLOCK
 62
     0
 10
25657.694538456231
 20
5341.1883740000012
 30
0.0
 40
15.0
 50
0.0
 51
180.0
  0
ARC
  5
B703
  8
0
  6
BYBLOCK
 62
     0
 10
19939.734491403731
 20
4541.188704000052
 30
0.0
 40
15.0
 50
0.0
 51
180.0
  0
ARC
  5
B704
  8
0
  6
BYBLOCK
 62
     0
 10
19939.734491403731
 20
4541.188704000052
 30
0.0
 40
15.0
 50
180.0
 51
0.0
  0
ARC
  5
B705
  8
0
  6
BYBLOCK
 62
     0
 10
25742.694538456231
 20
4541.188704000052
 30
0.0
 40
15.0
 50
180.0
 51
0.0
  0
ARC
  5
B706
  8
0
  6
BYBLOCK
 62
     0
 10
25742.694538456231
 20
4541.188704000052
 30
0.0
 40
15.0
 50
0.0
 51
180.0
  0
ARC
  5
B707
  8
0
  6
BYBLOCK
 62
     0
 10
19982.19453845621
 20
4941.1885390000016
 30
0.0
 40
15.0
 50
0.0
 51
180.0
  0
ARC
  5
B708
  8
0
  6
BYBLOCK
 62
     0
 10
19982.19453845621
 20
4941.1885390000016
 30
0.0
 40
15.0
 50
180.0
 51
0.0
  0
ARC
  5
B709
  8
0
  6
BYBLOCK
 62
     0
 10
19939.734491403731
 20
4941.1885390000016
 30
0.0
 40
15.0
 50
180.0
 51
0.0
  0
ARC
  5
B70A
  8
0
  6
BYBLOCK
 62
     0
 10
19939.734491403731
 20
4941.1885390000016
 30
0.0
 40
15.0
 50
0.0
 51
180.0
  0
ARC
  5
B70B
  8
0
  6
BYBLOCK
 62
     0
 10
22900.19453845621
 20
4941.1885390000016
 30
0.0
 40
15.0
 50
180.0
 51
0.0
  0
ARC
  5
B70C
  8
0
  6
BYBLOCK
 62
     0
 10
22900.19453845621
 20
4941.1885390000016
 30
0.0
 40
15.0
 50
0.0
 51
180.0
  0
ARC
  5
B70D
  8
0
  6
BYBLOCK
 62
     0
 10
19982.19453845621
 20
4941.1885390000016
 30
0.0
 40
15.0
 50
0.0
 51
180.0
  0
ARC
  5
B70E
  8
0
  6
BYBLOCK
 62
     0
 10
19982.19453845621
 20
4941.1885390000016
 30
0.0
 40
15.0
 50
180.0
 51
0.0
  0
ARC
  5
B70F
  8
0
  6
BYBLOCK
 62
     0
 10
20076.19453845621
 20
5341.1883740000012
 30
0.0
 40
15.0
 50
0.0
 51
180.0
  0
ARC
  5
B710
  8
0
  6
BYBLOCK
 62
     0
 10
20076.19453845621
 20
5341.1883740000012
 30
0.0
 40
15.0
 50
180.0
 51
0.0
  0
ARC
  5
B711
  8
0
  6
BYBLOCK
 62
     0
 10
22806.19453845622
 20
5341.1883740000012
 30
0.0
 40
15.0
 50
180.0
 51
0.0
  0
ARC
  5
B712
  8
0
  6
BYBLOCK
 62
     0
 10
22806.19453845622
 20
5341.1883740000012
 30
0.0
 40
15.0
 50
0.0
 51
180.0
  0
ARC
  5
B713
  8
0
  6
BYBLOCK
 62
     0
 10
25700.194538456231
 20
4941.1885389999998
 30
0.0
 40
15.0
 50
180.0
 51
0.0
  0
ARC
  5
B714
  8
0
  6
BYBLOCK
 62
     0
 10
25700.194538456231
 20
4941.1885389999998
 30
0.0
 40
15.0
 50
0.0
 51
180.0
  0
ARC
  5
B715
  8
0
  6
BYBLOCK
 62
     0
 10
25742.694538456231
 20
4941.1885389999998
 30
0.0
 40
15.0
 50
0.0
 51
180.0
  0
ARC
  5
B716
  8
0
  6
BYBLOCK
 62
     0
 10
25742.694538456231
 20
4941.1885389999998
 30
0.0
 40
15.0
 50
180.0
 51
0.0
  0
ARC
  5
B717
  8
0
  6
BYBLOCK
 62
     0
 10
22900.19453845621
 20
4941.1885389999998
 30
0.0
 40
15.0
 50
0.0
 51
180.0
  0
ARC
  5
B718
  8
0
  6
BYBLOCK
 62
     0
 10
22900.19453845621
 20
4941.1885389999998
 30
0.0
 40
15.0
 50
180.0
 51
0.0
  0
ARC
  5
B719
  8
0
  6
BYBLOCK
 62
     0
 10
25700.194538456231
 20
4941.1885389999998
 30
0.0
 40
15.0
 50
180.0
 51
0.0
  0
ARC
  5
B71A
  8
0
  6
BYBLOCK
 62
     0
 10
25700.194538456231
 20
4941.1885389999998
 30
0.0
 40
15.0
 50
0.0
 51
180.0
  0
ARC
  5
B71B
  8
0
  6
BYBLOCK
 62
     0
 10
22942.694538456231
 20
9389.1900499999992
 30
0.0
 40
15.0
 50
0.0
 51
180.0
  0
ARC
  5
B71C
  8
0
  6
BYBLOCK
 62
     0
 10
22942.694538456231
 20
9389.1900499999992
 30
0.0
 40
15.0
 50
180.0
 51
0.0
  0
ARC
  5
B71D
  8
0
  6
BYBLOCK
 62
     0
 10
25742.694538456231
 20
9389.1900499999992
 30
0.0
 40
15.0
 50
180.0
 51
0.0
  0
ARC
  5
B71E
  8
0
  6
BYBLOCK
 62
     0
 10
25742.694538456231
 20
9389.1900499999992
 30
0.0
 40
15.0
 50
0.0
 51
180.0
  0
ARC
  5
B71F
  8
0
  6
BYBLOCK
 62
     0
 10
26952.516936750599
 20
6241.5026620000017
 30
0.0
 40
15.0
 50
90.0
 51
270.0
  0
ARC
  5
B720
  8
0
  6
BYBLOCK
 62
     0
 10
26952.516936750599
 20
6241.5026620000017
 30
0.0
 40
15.0
 50
270.0
 51
90.0
  0
ARC
  5
B721
  8
0
  6
BYBLOCK
 62
     0
 10
26952.51693675061
 20
8261.5026620000044
 30
0.0
 40
15.0
 50
270.0
 51
90.0
  0
ARC
  5
B722
  8
0
  6
BYBLOCK
 62
     0
 10
26952.51693675061
 20
8261.5026620000044
 30
0.0
 40
15.0
 50
90.0
 51
270.0
  0
TEXT
  5
B7F9
  8
NAME
 10
21595.82616625919
 20
1076.6369801169251
 30
0.0
 40
360.0
  1
VGC-3062（H）+VKC-2862（H）型-R（単棟）
 41
0.45
  0
TEXT
  5
B7FA
  8
NAME
 10
21933.552716389011
 20
1876.0
 30
0.0
 40
360.0
  1
ヨドガレージ ラヴィージュ
 41
0.75
  7
01
  0
LINE
  5
B7FB
  8
NAME
  6
CONTINUOUS
 10
26067.886878884299
 20
2236.0
 30
0.0
 11
26067.886878884299
 21
1876.0
 31
0.0
  0
LINE
  5
B7FC
  8
NAME
  6
CONTINUOUS
 10
26167.886878884299
 20
2236.0
 30
0.0
 11
26167.886878884299
 21
1876.0
 31
0.0
  0
LINE
  5
B7FD
  8
NAME
  6
CONTINUOUS
 10
26267.88687888431
 20
2236.0
 30
0.0
 11
26267.88687888431
 21
1876.0
 31
0.0
  0
LINE
  5
B7FE
  8
NAME
  6
CONTINUOUS
 10
26007.886878884299
 20
2236.0
 30
0.0
 11
26327.886878884299
 21
2236.0
 31
0.0
  0
LINE
  5
B7FF
  8
NAME
  6
CONTINUOUS
 10
26327.886878884299
 20
1876.0
 30
0.0
 11
26007.886878884299
 21
1876.0
 31
0.0
  0
LINE
  5
BF4E
  8
2-0
  6
CONTINUOUS
 62
     6
 10
20236.059878456221
 20
16834.012949999989
 30
0.0
 11
20540.755296456209
 21
16937.666481000018
 31
0.0
  0
LINE
  5
BF4F
  8
2-0
  6
CONTINUOUS
 62
     6
 10
20081.03783945625
 20
16344.390906000021
 30
0.0
 11
20540.755296456209
 21
16100.477595000009
 31
0.0
  0
LINE
  5
BF50
  8
2-0
  6
CONTINUOUS
 62
     6
 10
21460.758331456222
 20
16100.477595000009
 30
0.0
 11
20540.755296456209
 21
16100.477595000009
 31
0.0
  0
LINE
  5
BF51
  8
2-0
  6
CONTINUOUS
 62
     6
 10
21740.749358456222
 20
16937.666481000018
 30
0.0
 11
20540.755296456209
 21
16937.666481000018
 31
0.0
  0
LINE
  5
BF52
  8
2-0
  6
CONTINUOUS
 62
     6
 10
20164.860554456209
 20
13613.588948999981
 30
0.0
 11
20540.755296456209
 21
13794.532784000001
 31
0.0
  0
LINE
  5
BF53
  8
2-0
  6
CONTINUOUS
 62
     6
 10
21060.757012456212
 20
13794.532784000001
 30
0.0
 11
20540.755296456209
 21
13794.532784000001
 31
0.0
  0
LINE
  5
BF54
  8
2-0
  6
CONTINUOUS
 62
     3
 10
19969.693878456201
 20
19581.483785000011
 30
0.0
 11
19969.693878456201
 21
19575.48782300001
 31
0.0
  0
LINE
  5
BF55
  8
2-0
  6
CONTINUOUS
 62
     3
 10
19969.693878456201
 20
19575.48782300001
 30
0.0
 11
19939.696254456219
 21
19575.48782300001
 31
0.0
  0
LINE
  5
BF56
  8
2-0
  6
CONTINUOUS
 62
     3
 10
19939.696254456219
 20
19605.487427
 30
0.0
 11
20020.69815445623
 21
19605.487427
 31
0.0
  0
LINE
  5
BF57
  8
2-0
  6
CONTINUOUS
 62
     3
 10
19969.693878456201
 20
19565.190366999999
 30
0.0
 11
19939.696254456219
 21
19565.190366999999
 31
0.0
  0
LINE
  5
BF58
  8
2-0
  6
CONTINUOUS
 62
     3
 10
19969.693878456201
 20
19583.192109
 30
0.0
 11
19969.693878456201
 21
19565.190366999999
 31
0.0
  0
LINE
  5
BF59
  8
2-0
  6
CONTINUOUS
 62
     3
 10
19944.696518456221
 20
19583.192109
 30
0.0
 11
19969.693878456201
 21
19583.192109
 31
0.0
  0
LINE
  5
BF5A
  8
2-0
  6
CONTINUOUS
 62
     3
 10
19944.696518456221
 20
19578.183927000009
 30
0.0
 11
19944.696518456221
 21
19583.192109
 31
0.0
  0
LINE
  5
BF5B
  8
2-0
  6
CONTINUOUS
 62
     3
 10
19951.698075456199
 20
19578.183927000009
 30
0.0
 11
19944.696518456221
 21
19578.183927000009
 31
0.0
  0
LINE
  5
BF5C
  8
2-0
  6
CONTINUOUS
 62
     3
 10
20051.994343456208
 20
19678.48415400002
 30
0.0
 11
20051.994343456208
 21
19685.48967000001
 31
0.0
  0
LINE
  5
BF5D
  8
2-0
  6
CONTINUOUS
 62
     3
 10
20051.994343456208
 20
19685.48967000001
 30
0.0
 11
20046.994079456232
 21
19685.48967000001
 31
0.0
  0
LINE
  5
BF5E
  8
2-0
  6
CONTINUOUS
 62
     3
 10
20046.994079456232
 20
19685.48967000001
 30
0.0
 11
20046.994079456232
 21
19660.480433000001
 31
0.0
  0
LINE
  5
BF5F
  8
2-0
  6
CONTINUOUS
 62
     3
 10
20046.994079456232
 20
19660.480433000001
 30
0.0
 11
20064.995821456228
 21
19660.480433000001
 31
0.0
  0
LINE
  5
BF60
  8
2-0
  6
CONTINUOUS
 62
     3
 10
20064.995821456228
 20
19660.480433000001
 30
0.0
 11
20064.995821456228
 21
19690.48399600001
 31
0.0
  0
LINE
  5
BF61
  8
2-0
  6
CONTINUOUS
 62
     3
 10
20054.698365456221
 20
19690.48399600001
 30
0.0
 11
19939.696254456219
 21
19690.48399600001
 31
0.0
  0
LINE
  5
BF62
  8
2-0
  6
CONTINUOUS
 62
     3
 10
20054.698365456221
 20
19660.480433000001
 30
0.0
 11
20054.698365456221
 21
19690.48399600001
 31
0.0
  0
LINE
  5
BF63
  8
2-0
  6
CONTINUOUS
 62
     3
 10
20048.696465456222
 20
19660.480433000001
 30
0.0
 11
20054.698365456221
 21
19660.480433000001
 31
0.0
  0
LINE
  5
BF64
  8
2-0
  6
CONTINUOUS
 62
     3
 10
19951.698075456199
 20
18874.387104499991
 30
0.0
 11
19944.696518456221
 21
18874.387104499991
 31
0.0
  0
LINE
  5
BF65
  8
2-0
  6
CONTINUOUS
 62
     3
 10
19944.696518456221
 20
18874.387104499991
 30
0.0
 11
19944.696518456221
 21
18879.3873685
 31
0.0
  0
LINE
  5
BF66
  8
2-0
  6
CONTINUOUS
 62
     3
 10
19944.696518456221
 20
18879.3873685
 30
0.0
 11
19969.693878456201
 21
18879.3873685
 31
0.0
  0
LINE
  5
BF67
  8
2-0
  6
CONTINUOUS
 62
     3
 10
19969.693878456201
 20
18879.3873685
 30
0.0
 11
19969.693878456201
 21
18861.391564500002
 31
0.0
  0
LINE
  5
BF68
  8
2-0
  6
CONTINUOUS
 62
     3
 10
19969.693878456201
 20
18861.391564500002
 30
0.0
 11
19939.696254456219
 21
18861.391564500002
 31
0.0
  0
LINE
  5
BF69
  8
2-0
  6
CONTINUOUS
 62
     3
 10
19969.693878456201
 20
18877.483071499959
 30
0.0
 11
19969.693878456201
 21
18871.485130500001
 31
0.0
  0
LINE
  5
BF6A
  8
2-0
  6
CONTINUOUS
 62
     3
 10
19969.693878456201
 20
18871.485130500001
 30
0.0
 11
19939.696254456219
 21
18871.485130500001
 31
0.0
  0
LINE
  5
BF6B
  8
2-0
  6
CONTINUOUS
 62
     3
 10
19939.696254456219
 20
18871.485130500001
 30
0.0
 11
19939.696254456219
 21
18908.48629149999
 31
0.0
  0
LINE
  5
BF6C
  8
2-0
  6
CONTINUOUS
 62
     3
 10
19969.693878456201
 20
18908.48629149999
 30
0.0
 11
19939.696254456219
 21
18908.48629149999
 31
0.0
  0
LINE
  5
BF6D
  8
2-0
  6
CONTINUOUS
 62
     3
 10
19969.693878456201
 20
18902.48241149999
 30
0.0
 11
19969.693878456201
 21
18908.48629149999
 31
0.0
  0
LINE
  5
BF6E
  8
2-0
  6
CONTINUOUS
 62
     3
 10
19969.693878456201
 20
18918.58183649999
 30
0.0
 11
19939.696254456219
 21
18918.58183649999
 31
0.0
  0
LINE
  5
BF6F
  8
2-0
  6
CONTINUOUS
 62
     3
 10
19969.693878456201
 20
18900.580094500001
 30
0.0
 11
19969.693878456201
 21
18918.58183649999
 31
0.0
  0
LINE
  5
BF70
  8
2-0
  6
CONTINUOUS
 62
     3
 10
19944.696518456221
 20
18900.580094500001
 30
0.0
 11
19969.693878456201
 21
18900.580094500001
 31
0.0
  0
LINE
  5
BF71
  8
2-0
  6
CONTINUOUS
 62
     3
 10
19944.696518456221
 20
18905.580358499999
 30
0.0
 11
19944.696518456221
 21
18900.580094500001
 31
0.0
  0
LINE
  5
BF72
  8
2-0
  6
CONTINUOUS
 62
     3
 10
19951.698075456199
 20
18905.580358499999
 30
0.0
 11
19944.696518456221
 21
18905.580358499999
 31
0.0
  0
LINE
  5
BF73
  8
2-0
  6
CONTINUOUS
 62
     3
 10
19951.698075456199
 20
18173.386115000001
 30
0.0
 11
19944.696518456221
 21
18173.386115000001
 31
0.0
  0
LINE
  5
BF74
  8
2-0
  6
CONTINUOUS
 62
     3
 10
19944.696518456221
 20
18173.386115000001
 30
0.0
 11
19944.696518456221
 21
18178.392317000002
 31
0.0
  0
LINE
  5
BF75
  8
2-0
  6
CONTINUOUS
 62
     3
 10
19944.696518456221
 20
18178.392317000002
 30
0.0
 11
19969.693878456201
 21
18178.392317000002
 31
0.0
  0
LINE
  5
BF76
  8
2-0
  6
CONTINUOUS
 62
     3
 10
19969.693878456201
 20
18178.392317000002
 30
0.0
 11
19969.693878456201
 21
18160.390575000009
 31
0.0
  0
LINE
  5
BF77
  8
2-0
  6
CONTINUOUS
 62
     3
 10
19969.693878456201
 20
18160.390575000009
 30
0.0
 11
19939.696254456219
 21
18160.390575000009
 31
0.0
  0
LINE
  5
BF78
  8
2-0
  6
CONTINUOUS
 62
     3
 10
19969.693878456201
 20
18176.482081999991
 30
0.0
 11
19969.693878456201
 21
18170.48611999999
 31
0.0
  0
LINE
  5
BF79
  8
2-0
  6
CONTINUOUS
 62
     3
 10
19969.693878456201
 20
18170.48611999999
 30
0.0
 11
19939.696254456219
 21
18170.48611999999
 31
0.0
  0
LINE
  5
BF7A
  8
2-0
  6
CONTINUOUS
 62
     3
 10
19939.696254456219
 20
18170.48611999999
 30
0.0
 11
19939.696254456219
 21
18207.48530199999
 31
0.0
  0
LINE
  5
BF7B
  8
2-0
  6
CONTINUOUS
 62
     3
 10
19969.693878456201
 20
18207.48530199999
 30
0.0
 11
19939.696254456219
 21
18207.48530199999
 31
0.0
  0
LINE
  5
BF7C
  8
2-0
  6
CONTINUOUS
 62
     3
 10
19969.693878456201
 20
18201.48934
 30
0.0
 11
19969.693878456201
 21
18207.48530199999
 31
0.0
  0
LINE
  5
BF7D
  8
2-0
  6
CONTINUOUS
 62
     3
 10
19969.693878456201
 20
18217.580847000008
 30
0.0
 11
19939.696254456219
 21
18217.580847000008
 31
0.0
  0
LINE
  5
BF7E
  8
2-0
  6
CONTINUOUS
 62
     3
 10
19969.693878456201
 20
18199.579105000001
 30
0.0
 11
19969.693878456201
 21
18217.580847000008
 31
0.0
  0
LINE
  5
BF7F
  8
2-0
  6
CONTINUOUS
 62
     3
 10
19944.696518456221
 20
18199.579105000001
 30
0.0
 11
19969.693878456201
 21
18199.579105000001
 31
0.0
  0
LINE
  5
BF80
  8
2-0
  6
CONTINUOUS
 62
     3
 10
19944.696518456221
 20
18204.58530699999
 30
0.0
 11
19944.696518456221
 21
18199.579105000001
 31
0.0
  0
LINE
  5
BF81
  8
2-0
  6
CONTINUOUS
 62
     3
 10
19951.698075456199
 20
18204.58530699999
 30
0.0
 11
19944.696518456221
 21
18204.58530699999
 31
0.0
  0
LINE
  5
BF82
  8
2-0
  6
CONTINUOUS
 62
     3
 10
19951.698075456199
 20
17503.579368999999
 30
0.0
 11
19944.696518456221
 21
17503.579368999999
 31
0.0
  0
LINE
  5
BF83
  8
2-0
  6
CONTINUOUS
 62
     3
 10
19944.696518456221
 20
17503.579368999999
 30
0.0
 11
19944.696518456221
 21
17498.590982000002
 31
0.0
  0
LINE
  5
BF84
  8
2-0
  6
CONTINUOUS
 62
     3
 10
19944.696518456221
 20
17498.590982000002
 30
0.0
 11
19969.693878456201
 21
17498.590982000002
 31
0.0
  0
LINE
  5
BF85
  8
2-0
  6
CONTINUOUS
 62
     3
 10
19969.693878456201
 20
17498.590982000002
 30
0.0
 11
19969.693878456201
 21
17516.586785
 31
0.0
  0
LINE
  5
BF86
  8
2-0
  6
CONTINUOUS
 62
     3
 10
19969.693878456201
 20
17516.586785
 30
0.0
 11
19939.696254456219
 21
17516.586785
 31
0.0
  0
LINE
  5
BF87
  8
2-0
  6
CONTINUOUS
 62
     3
 10
19969.693878456201
 20
17500.48934
 30
0.0
 11
19969.693878456201
 21
17506.485302000001
 31
0.0
  0
LINE
  5
BF88
  8
2-0
  6
CONTINUOUS
 62
     3
 10
19969.693878456201
 20
17506.485302000001
 30
0.0
 11
19939.696254456219
 21
17506.485302000001
 31
0.0
  0
LINE
  5
BF89
  8
2-0
  6
CONTINUOUS
 62
     3
 10
19939.696254456219
 20
17506.485302000001
 30
0.0
 11
19939.696254456219
 21
17469.486120000009
 31
0.0
  0
LINE
  5
BF8A
  8
2-0
  6
CONTINUOUS
 62
     3
 10
19969.693878456201
 20
17469.486120000009
 30
0.0
 11
19939.696254456219
 21
17469.486120000009
 31
0.0
  0
LINE
  5
BF8B
  8
2-0
  6
CONTINUOUS
 62
     3
 10
19969.693878456201
 20
17475.48802099999
 30
0.0
 11
19969.693878456201
 21
17469.486120000009
 31
0.0
  0
LINE
  5
BF8C
  8
2-0
  6
CONTINUOUS
 62
     3
 10
19969.693878456201
 20
17459.396514
 30
0.0
 11
19939.696254456219
 21
17459.396514
 31
0.0
  0
LINE
  5
BF8D
  8
2-0
  6
CONTINUOUS
 62
     3
 10
19969.693878456201
 20
17477.392316999991
 30
0.0
 11
19969.693878456201
 21
17459.396514
 31
0.0
  0
LINE
  5
BF8E
  8
2-0
  6
CONTINUOUS
 62
     3
 10
19944.696518456221
 20
17477.392316999991
 30
0.0
 11
19969.693878456201
 21
17477.392316999991
 31
0.0
  0
LINE
  5
BF8F
  8
2-0
  6
CONTINUOUS
 62
     3
 10
19944.696518456221
 20
17472.392053999989
 30
0.0
 11
19944.696518456221
 21
17477.392316999991
 31
0.0
  0
LINE
  5
BF90
  8
2-0
  6
CONTINUOUS
 62
     3
 10
19951.698075456199
 20
17472.392053999989
 30
0.0
 11
19944.696518456221
 21
17472.392053999989
 31
0.0
  0
LINE
  5
BF91
  8
2-0
  6
CONTINUOUS
 62
     3
 10
19942.582392456188
 20
16752.482940000002
 30
0.0
 11
19942.582392456188
 21
16772.483994999999
 31
0.0
  0
LINE
  5
BF92
  8
2-0
  6
CONTINUOUS
 62
     3
 10
19942.582392456188
 20
16772.483994999999
 30
0.0
 11
20027.578961456231
 21
16772.483994999999
 31
0.0
  0
LINE
  5
BF93
  8
2-0
  6
CONTINUOUS
 62
     3
 10
19951.698075456199
 20
16799.090704999999
 30
0.0
 11
19944.696518456221
 21
16799.090704999999
 31
0.0
  0
LINE
  5
BF94
  8
2-0
  6
CONTINUOUS
 62
     3
 10
19944.696518456221
 20
16799.090704999999
 30
0.0
 11
19944.696518456221
 21
16794.09637900001
 31
0.0
  0
LINE
  5
BF95
  8
2-0
  6
CONTINUOUS
 62
     3
 10
19944.696518456221
 20
16794.09637900001
 30
0.0
 11
19969.693878456201
 21
16794.09637900001
 31
0.0
  0
LINE
  5
BF96
  8
2-0
  6
CONTINUOUS
 62
     3
 10
19969.693878456201
 20
16794.09637900001
 30
0.0
 11
19969.693878456201
 21
16812.09218299999
 31
0.0
  0
LINE
  5
BF97
  8
2-0
  6
CONTINUOUS
 62
     3
 10
19969.693878456201
 20
16812.09218299999
 30
0.0
 11
19939.696254456219
 21
16812.09218299999
 31
0.0
  0
LINE
  5
BF98
  8
2-0
  6
CONTINUOUS
 62
     3
 10
19969.693878456201
 20
16802.483598999988
 30
0.0
 11
19969.693878456201
 21
16796.481699
 31
0.0
  0
LINE
  5
BF99
  8
2-0
  6
CONTINUOUS
 62
     3
 10
19939.696254456219
 20
16802.483598999988
 30
0.0
 11
19969.693878456201
 21
16802.483598999988
 31
0.0
  0
LINE
  5
BF9A
  8
2-0
  6
CONTINUOUS
 62
     3
 10
19939.696254456219
 20
16812.09218299999
 30
0.0
 11
19939.696254456219
 21
17459.396514
 31
0.0
  0
LINE
  5
BF9B
  8
2-0
  6
CONTINUOUS
 62
     3
 10
19939.696254456219
 20
17516.586785
 30
0.0
 11
19939.696254456219
 21
18160.390575000009
 31
0.0
  0
LINE
  5
BF9C
  8
2-0
  6
CONTINUOUS
 62
     3
 10
19939.696254456219
 20
16657.48188399999
 30
0.0
 11
19969.693878456201
 21
16657.48188399999
 31
0.0
  0
LINE
  5
BF9D
  8
2-0
  6
CONTINUOUS
 62
     3
 10
19969.693878456201
 20
16657.48188399999
 30
0.0
 11
19969.693878456201
 21
16663.483784
 31
0.0
  0
LINE
  5
BF9E
  8
2-0
  6
CONTINUOUS
 62
     3
 10
20027.578961456231
 20
16687.487427
 30
0.0
 11
19942.582392456188
 21
16687.487427
 31
0.0
  0
LINE
  5
BF9F
  8
2-0
  6
CONTINUOUS
 62
     3
 10
19942.582392456188
 20
16687.487427
 30
0.0
 11
19942.582392456188
 21
16707.48254400001
 31
0.0
  0
LINE
  5
BFA0
  8
2-0
  6
CONTINUOUS
 62
     3
 10
19969.693878456201
 20
16647.873301
 30
0.0
 11
19939.696254456219
 21
16647.873301
 31
0.0
  0
LINE
  5
BFA1
  8
2-0
  6
CONTINUOUS
 62
     3
 10
19969.693878456201
 20
16665.86910399999
 30
0.0
 11
19969.693878456201
 21
16647.873301
 31
0.0
  0
LINE
  5
BFA2
  8
2-0
  6
CONTINUOUS
 62
     3
 10
19944.696518456221
 20
16665.86910399999
 30
0.0
 11
19969.693878456201
 21
16665.86910399999
 31
0.0
  0
LINE
  5
BFA3
  8
2-0
  6
CONTINUOUS
 62
     3
 10
19944.696518456221
 20
16660.86884000001
 30
0.0
 11
19944.696518456221
 21
16665.86910399999
 31
0.0
  0
LINE
  5
BFA4
  8
2-0
  6
CONTINUOUS
 62
     3
 10
19951.698075456199
 20
16660.86884000001
 30
0.0
 11
19944.696518456221
 21
16660.86884000001
 31
0.0
  0
LINE
  5
BFA5
  8
2-0
  6
CONTINUOUS
 62
     3
 10
19951.698075456199
 20
15956.386609499979
 30
0.0
 11
19944.696518456221
 21
15956.386609499979
 31
0.0
  0
LINE
  5
BFA6
  8
2-0
  6
CONTINUOUS
 62
     3
 10
19944.696518456221
 20
15956.386609499979
 30
0.0
 11
19944.696518456221
 21
15961.386873499991
 31
0.0
  0
LINE
  5
BFA7
  8
2-0
  6
CONTINUOUS
 62
     3
 10
19944.696518456221
 20
15961.386873499991
 30
0.0
 11
19969.693878456201
 21
15961.386873499991
 31
0.0
  0
LINE
  5
BFA8
  8
2-0
  6
CONTINUOUS
 62
     3
 10
19969.693878456201
 20
15961.386873499991
 30
0.0
 11
19969.693878456201
 21
15943.385131499999
 31
0.0
  0
LINE
  5
BFA9
  8
2-0
  6
CONTINUOUS
 62
     3
 10
19969.693878456201
 20
15943.385131499999
 30
0.0
 11
19939.696254456219
 21
15943.385131499999
 31
0.0
  0
LINE
  5
BFAA
  8
2-0
  6
CONTINUOUS
 62
     3
 10
19969.693878456201
 20
15959.482576500001
 30
0.0
 11
19969.693878456201
 21
15953.4856255
 31
0.0
  0
LINE
  5
BFAB
  8
2-0
  6
CONTINUOUS
 62
     3
 10
19969.693878456201
 20
15953.4856255
 30
0.0
 11
19939.696254456219
 21
15953.4856255
 31
0.0
  0
LINE
  5
BFAC
  8
2-0
  6
CONTINUOUS
 62
     3
 10
19939.696254456219
 20
15953.4856255
 30
0.0
 11
19939.696254456219
 21
15990.485796499999
 31
0.0
  0
LINE
  5
BFAD
  8
2-0
  6
CONTINUOUS
 62
     3
 10
19969.693878456201
 20
15990.485796499999
 30
0.0
 11
19939.696254456219
 21
15990.485796499999
 31
0.0
  0
LINE
  5
BFAE
  8
2-0
  6
CONTINUOUS
 62
     3
 10
19969.693878456201
 20
15984.482906499999
 30
0.0
 11
19969.693878456201
 21
15990.485796499999
 31
0.0
  0
LINE
  5
BFAF
  8
2-0
  6
CONTINUOUS
 62
     3
 10
19969.693878456201
 20
16000.581341499999
 30
0.0
 11
19939.696254456219
 21
16000.581341499999
 31
0.0
  0
LINE
  5
BFB0
  8
2-0
  6
CONTINUOUS
 62
     3
 10
19969.693878456201
 20
15982.573660499989
 30
0.0
 11
19969.693878456201
 21
16000.581341499999
 31
0.0
  0
LINE
  5
BFB1
  8
2-0
  6
CONTINUOUS
 62
     3
 10
19944.696518456221
 20
15982.573660499989
 30
0.0
 11
19969.693878456201
 21
15982.573660499989
 31
0.0
  0
LINE
  5
BFB2
  8
2-0
  6
CONTINUOUS
 62
     3
 10
19944.696518456221
 20
15987.579863499999
 30
0.0
 11
19944.696518456221
 21
15982.573660499989
 31
0.0
  0
LINE
  5
BFB3
  8
2-0
  6
CONTINUOUS
 62
     3
 10
19951.698075456199
 20
15987.579863499999
 30
0.0
 11
19944.696518456221
 21
15987.579863499999
 31
0.0
  0
LINE
  5
BFB4
  8
2-0
  6
CONTINUOUS
 62
     3
 10
19951.698075456199
 20
15286.819879999999
 30
0.0
 11
19944.696518456221
 21
15286.819879999999
 31
0.0
  0
LINE
  5
BFB5
  8
2-0
  6
CONTINUOUS
 62
     3
 10
19944.696518456221
 20
15286.819879999999
 30
0.0
 11
19944.696518456221
 21
15281.825554999999
 31
0.0
  0
LINE
  5
BFB6
  8
2-0
  6
CONTINUOUS
 62
     3
 10
19944.696518456221
 20
15281.825554999999
 30
0.0
 11
19969.693878456201
 21
15281.825554999999
 31
0.0
  0
LINE
  5
BFB7
  8
2-0
  6
CONTINUOUS
 62
     3
 10
19969.693878456201
 20
15281.825554999999
 30
0.0
 11
19969.693878456201
 21
15299.82135800001
 31
0.0
  0
LINE
  5
BFB8
  8
2-0
  6
CONTINUOUS
 62
     3
 10
19969.693878456201
 20
15299.82135800001
 30
0.0
 11
19939.696254456219
 21
15299.82135800001
 31
0.0
  0
LINE
  5
BFB9
  8
2-0
  6
CONTINUOUS
 62
     3
 10
19969.693878456201
 20
15283.723913000011
 30
0.0
 11
19969.693878456201
 21
15289.725812999999
 31
0.0
  0
LINE
  5
BFBA
  8
2-0
  6
CONTINUOUS
 62
     3
 10
19969.693878456201
 20
15289.725812999999
 30
0.0
 11
19939.696254456219
 21
15289.725812999999
 31
0.0
  0
LINE
  5
BFBB
  8
2-0
  6
CONTINUOUS
 62
     3
 10
19939.696254456219
 20
15252.726632000011
 30
0.0
 11
19939.696254456219
 21
15289.725812999999
 31
0.0
  0
LINE
  5
BFBC
  8
2-0
  6
CONTINUOUS
 62
     3
 10
19969.693878456201
 20
15252.726632000011
 30
0.0
 11
19939.696254456219
 21
15252.726632000011
 31
0.0
  0
LINE
  5
BFBD
  8
2-0
  6
CONTINUOUS
 62
     3
 10
19969.693878456201
 20
15258.723583000001
 30
0.0
 11
19969.693878456201
 21
15252.726632000011
 31
0.0
  0
LINE
  5
BFBE
  8
2-0
  6
CONTINUOUS
 62
     3
 10
19969.693878456201
 20
15242.62514799999
 30
0.0
 11
19939.696254456219
 21
15242.62514799999
 31
0.0
  0
LINE
  5
BFBF
  8
2-0
  6
CONTINUOUS
 62
     3
 10
19969.693878456201
 20
15260.632828999989
 30
0.0
 11
19969.693878456201
 21
15242.62514799999
 31
0.0
  0
LINE
  5
BFC0
  8
2-0
  6
CONTINUOUS
 62
     3
 10
19944.696518456221
 20
15260.632828999989
 30
0.0
 11
19969.693878456201
 21
15260.632828999989
 31
0.0
  0
LINE
  5
BFC1
  8
2-0
  6
CONTINUOUS
 62
     3
 10
19944.696518456221
 20
15255.63256500002
 30
0.0
 11
19944.696518456221
 21
15260.632828999989
 31
0.0
  0
LINE
  5
BFC2
  8
2-0
  6
CONTINUOUS
 62
     3
 10
19951.698075456199
 20
15255.63256500002
 30
0.0
 11
19944.696518456221
 21
15255.63256500002
 31
0.0
  0
LINE
  5
BFC3
  8
2-0
  6
CONTINUOUS
 62
     3
 10
19939.696254456219
 20
16647.873301
 30
0.0
 11
19939.696254456219
 21
16000.581341499999
 31
0.0
  0
LINE
  5
BFC4
  8
2-0
  6
CONTINUOUS
 62
     3
 10
19939.696254456219
 20
16802.483598999988
 30
0.0
 11
19939.696254456219
 21
16657.48188399999
 31
0.0
  0
LINE
  5
BFC5
  8
2-0
  6
CONTINUOUS
 62
     3
 10
20027.578961456231
 20
16772.483994999999
 30
0.0
 11
20027.578961456231
 21
16687.487427
 31
0.0
  0
LINE
  5
BFC6
  8
2-0
  6
CONTINUOUS
 62
     6
 10
21565.787628456212
 20
18540.93126049999
 30
0.0
 11
20540.755296456209
 21
18540.93126049999
 31
0.0
  0
LINE
  5
BFC7
  8
2-0
  6
CONTINUOUS
 62
     3
 10
19951.698075456199
 20
14554.391557999999
 30
0.0
 11
19944.696518456221
 21
14554.391557999999
 31
0.0
  0
LINE
  5
BFC8
  8
2-0
  6
CONTINUOUS
 62
     3
 10
19944.696518456221
 20
14554.391557999999
 30
0.0
 11
19944.696518456221
 21
14559.385883999999
 31
0.0
  0
LINE
  5
BFC9
  8
2-0
  6
CONTINUOUS
 62
     3
 10
19944.696518456221
 20
14559.385883999999
 30
0.0
 11
19969.693878456201
 21
14559.385883999999
 31
0.0
  0
LINE
  5
BFCA
  8
2-0
  6
CONTINUOUS
 62
     3
 10
19969.693878456201
 20
14559.385883999999
 30
0.0
 11
19969.693878456201
 21
14541.390079999999
 31
0.0
  0
LINE
  5
BFCB
  8
2-0
  6
CONTINUOUS
 62
     3
 10
19969.693878456201
 20
14541.390079999999
 30
0.0
 11
19939.696254456219
 21
14541.390079999999
 31
0.0
  0
LINE
  5
BFCC
  8
2-0
  6
CONTINUOUS
 62
     3
 10
19969.693878456201
 20
14557.488514999999
 30
0.0
 11
19969.693878456201
 21
14551.48562500001
 31
0.0
  0
LINE
  5
BFCD
  8
2-0
  6
CONTINUOUS
 62
     3
 10
19969.693878456201
 20
14551.48562500001
 30
0.0
 11
19939.696254456219
 21
14551.48562500001
 31
0.0
  0
LINE
  5
BFCE
  8
2-0
  6
CONTINUOUS
 62
     3
 10
19939.696254456219
 20
14551.48562500001
 30
0.0
 11
19939.696254456219
 21
14588.485796999979
 31
0.0
  0
LINE
  5
BFCF
  8
2-0
  6
CONTINUOUS
 62
     3
 10
19969.693878456201
 20
14588.485796999979
 30
0.0
 11
19939.696254456219
 21
14588.485796999979
 31
0.0
  0
LINE
  5
BFD0
  8
2-0
  6
CONTINUOUS
 62
     3
 10
19969.693878456201
 20
14582.488844999991
 30
0.0
 11
19969.693878456201
 21
14588.485796999979
 31
0.0
  0
LINE
  5
BFD1
  8
2-0
  6
CONTINUOUS
 62
     3
 10
19969.693878456201
 20
14598.586289999999
 30
0.0
 11
19939.696254456219
 21
14598.586289999999
 31
0.0
  0
LINE
  5
BFD2
  8
2-0
  6
CONTINUOUS
 62
     3
 10
19969.693878456201
 20
14580.579599000001
 30
0.0
 11
19969.693878456201
 21
14598.586289999999
 31
0.0
  0
LINE
  5
BFD3
  8
2-0
  6
CONTINUOUS
 62
     3
 10
19944.696518456221
 20
14580.579599000001
 30
0.0
 11
19969.693878456201
 21
14580.579599000001
 31
0.0
  0
LINE
  5
BFD4
  8
2-0
  6
CONTINUOUS
 62
     3
 10
19944.696518456221
 20
14585.584811999999
 30
0.0
 11
19944.696518456221
 21
14580.579599000001
 31
0.0
  0
LINE
  5
BFD5
  8
2-0
  6
CONTINUOUS
 62
     3
 10
19951.698075456199
 20
14585.584811999999
 30
0.0
 11
19944.696518456221
 21
14585.584811999999
 31
0.0
  0
LINE
  5
BFD6
  8
2-0
  6
CONTINUOUS
 62
     3
 10
19969.693878456201
 20
13527.987638000001
 30
0.0
 11
19969.693878456201
 21
13533.99250699999
 31
0.0
  0
LINE
  5
BFD7
  8
2-0
  6
CONTINUOUS
 62
     3
 10
19969.693878456201
 20
13533.99250699999
 30
0.0
 11
19939.696254456219
 21
13533.99250699999
 31
0.0
  0
LINE
  5
BFD8
  8
2-0
  6
CONTINUOUS
 62
     3
 10
19939.696254456219
 20
13533.99250699999
 30
0.0
 11
19939.696254456219
 21
13418.988416
 31
0.0
  0
LINE
  5
BFD9
  8
2-0
  6
CONTINUOUS
 62
     3
 10
19939.696254456219
 20
13418.988416
 30
0.0
 11
20024.694802456212
 21
13418.988416
 31
0.0
  0
LINE
  5
BFDA
  8
2-0
  6
CONTINUOUS
 62
     3
 10
20024.694802456212
 20
13418.988416
 30
0.0
 11
20024.694802456212
 21
13503.983995000001
 31
0.0
  0
LINE
  5
BFDB
  8
2-0
  6
CONTINUOUS
 62
     3
 10
20024.694802456212
 20
13503.983995000001
 30
0.0
 11
19992.695884456229
 21
13503.983995000001
 31
0.0
  0
LINE
  5
BFDC
  8
2-0
  6
CONTINUOUS
 62
     3
 10
19951.698075456199
 20
13531.02224
 30
0.0
 11
19944.696518456221
 21
13531.02224
 31
0.0
  0
LINE
  5
BFDD
  8
2-0
  6
CONTINUOUS
 62
     3
 10
19944.696518456221
 20
13531.02224
 30
0.0
 11
19944.696518456221
 21
13526.024944999979
 31
0.0
  0
LINE
  5
BFDE
  8
2-0
  6
CONTINUOUS
 62
     3
 10
19944.696518456221
 20
13526.024944999979
 30
0.0
 11
19969.693878456201
 21
13526.024944999979
 31
0.0
  0
LINE
  5
BFDF
  8
2-0
  6
CONTINUOUS
 62
     3
 10
19969.693878456201
 20
13526.024944999979
 30
0.0
 11
19969.693878456201
 21
13544.023718
 31
0.0
  0
LINE
  5
BFE0
  8
2-0
  6
CONTINUOUS
 62
     3
 10
19969.693878456201
 20
13544.023718
 30
0.0
 11
19939.696254456219
 21
13544.023718
 31
0.0
  0
LINE
  5
BFE1
  8
2-0
  6
CENTER2
 62
     6
 10
19982.19453845621
 20
13221.49085799999
 30
0.0
 11
19982.19453845621
 21
14727.85961600002
 31
0.0
  0
LINE
  5
BFE2
  8
2-0
  6
CONTINUOUS
 62
     3
 10
19939.696254456219
 20
18217.580847000008
 30
0.0
 11
19939.696254456219
 21
18861.391564500002
 31
0.0
  0
LINE
  5
BFE3
  8
2-0
  6
CONTINUOUS
 62
     6
 10
19247.191371456222
 20
20420.48689900001
 30
0.0
 11
18047.197309456242
 21
20420.48689900001
 31
0.0
  0
LINE
  5
BFE4
  8
2-0
  6
CONTINUOUS
 62
     6
 10
20109.224204456219
 20
18783.08576849999
 30
0.0
 11
20540.755296456209
 21
18540.93126049999
 31
0.0
  0
LINE
  5
BFE5
  8
2-0
  6
CONTINUOUS
 62
     6
 10
19787.655370456228
 20
19833.16373600001
 30
0.0
 11
19247.191371456222
 21
20420.48689900001
 31
0.0
  0
LINE
  5
BFE6
  8
2-0
  6
CONTINUOUS
 62
     3
 10
19939.696254456219
 20
15943.385131499999
 30
0.0
 11
19939.696254456219
 21
15299.82135800001
 31
0.0
  0
LINE
  5
BFE7
  8
2-0
  6
CONTINUOUS
 62
     6
 10
20122.281109456209
 20
18806.345112499988
 30
0.0
 11
19969.693878456201
 21
18861.391564500002
 31
0.0
  0
LINE
  5
BFE8
  8
2-0
  6
CONTINUOUS
 62
     6
 10
19969.693878456201
 20
18861.391564500002
 30
0.0
 11
20096.175218456221
 21
18759.83236449998
 31
0.0
  0
LINE
  5
BFE9
  8
2-0
  6
CONTINUOUS
 62
     6
 10
20122.281109456209
 20
18806.345112499988
 30
0.0
 11
20096.175218456221
 21
18759.83236449998
 31
0.0
  0
LINE
  5
BFEA
  8
2-0
  6
CONTINUOUS
 62
     6
 10
20096.175218456221
 20
18759.83236449998
 30
0.0
 11
19969.693878456201
 21
18861.391564500002
 31
0.0
  0
LINE
  5
BFEB
  8
2-0
  6
CONTINUOUS
 62
     6
 10
19969.693878456201
 20
18861.391564500002
 30
0.0
 11
20122.281109456209
 21
18806.345112499988
 31
0.0
  0
LINE
  5
BFEC
  8
2-0
  6
CONTINUOUS
 62
     6
 10
20122.281109456209
 20
18806.345112499988
 30
0.0
 11
19969.693878456201
 21
18861.391564500002
 31
0.0
  0
LINE
  5
BFED
  8
2-0
  6
CONTINUOUS
 62
     6
 10
20096.175218456221
 20
18759.83236449998
 30
0.0
 11
19969.693878456201
 21
18861.391564500002
 31
0.0
  0
LINE
  5
BFEE
  8
2-0
  6
CONTINUOUS
 62
     6
 10
20096.175218456221
 20
18759.83236449998
 30
0.0
 11
20122.281109456209
 21
18806.345112499988
 31
0.0
  0
LINE
  5
BFEF
  8
2-0
  6
CONTINUOUS
 62
     6
 10
19768.038341456231
 20
19815.10260900002
 30
0.0
 11
19896.000361456208
 21
19715.41999100001
 31
0.0
  0
LINE
  5
BFF0
  8
2-0
  6
CONTINUOUS
 62
     6
 10
19896.000361456208
 20
19715.41999100001
 30
0.0
 11
19807.286256456231
 21
19851.216946
 31
0.0
  0
LINE
  5
BFF1
  8
2-0
  6
CONTINUOUS
 62
     6
 10
19768.038341456231
 20
19815.10260900002
 30
0.0
 11
19807.286256456231
 21
19851.216946
 31
0.0
  0
LINE
  5
BFF2
  8
2-0
  6
CONTINUOUS
 62
     6
 10
19807.286256456231
 20
19851.216946
 30
0.0
 11
19896.000361456208
 21
19715.41999100001
 31
0.0
  0
LINE
  5
BFF3
  8
2-0
  6
CONTINUOUS
 62
     6
 10
19896.000361456208
 20
19715.41999100001
 30
0.0
 11
19768.038341456231
 21
19815.10260900002
 31
0.0
  0
LINE
  5
BFF4
  8
2-0
  6
CONTINUOUS
 62
     6
 10
19768.038341456231
 20
19815.10260900002
 30
0.0
 11
19896.000361456208
 21
19715.41999100001
 31
0.0
  0
LINE
  5
BFF5
  8
2-0
  6
CONTINUOUS
 62
     6
 10
19807.286256456231
 20
19851.216946
 30
0.0
 11
19896.000361456208
 21
19715.41999100001
 31
0.0
  0
LINE
  5
BFF6
  8
2-0
  6
CONTINUOUS
 62
     6
 10
19807.286256456231
 20
19851.216946
 30
0.0
 11
19768.038341456231
 21
19815.10260900002
 31
0.0
  0
LINE
  5
BFF7
  8
2-0
  6
CONTINUOUS
 62
     6
 10
20153.29818645621
 20
13637.620304999989
 30
0.0
 11
20020.69815445623
 21
13544.191976999989
 31
0.0
  0
LINE
  5
BFF8
  8
2-0
  6
CONTINUOUS
 62
     6
 10
20020.69815445623
 20
13544.191976999989
 30
0.0
 11
20176.430840456229
 21
13589.567491
 31
0.0
  0
LINE
  5
BFF9
  8
2-0
  6
CONTINUOUS
 62
     6
 10
20153.29818645621
 20
13637.620304999989
 30
0.0
 11
20176.430840456229
 21
13589.567491
 31
0.0
  0
LINE
  5
BFFA
  8
2-0
  6
CONTINUOUS
 62
     6
 10
20176.430840456229
 20
13589.567491
 30
0.0
 11
20020.69815445623
 21
13544.191976999989
 31
0.0
  0
LINE
  5
BFFB
  8
2-0
  6
CONTINUOUS
 62
     6
 10
20020.69815445623
 20
13544.191976999989
 30
0.0
 11
20153.29818645621
 21
13637.620304999989
 31
0.0
  0
LINE
  5
BFFC
  8
2-0
  6
CONTINUOUS
 62
     6
 10
20153.29818645621
 20
13637.620304999989
 30
0.0
 11
20020.69815445623
 21
13544.191976999989
 31
0.0
  0
LINE
  5
BFFD
  8
2-0
  6
CONTINUOUS
 62
     6
 10
20176.430840456229
 20
13589.567491
 30
0.0
 11
20020.69815445623
 21
13544.191976999989
 31
0.0
  0
LINE
  5
BFFE
  8
2-0
  6
CONTINUOUS
 62
     6
 10
20176.430840456229
 20
13589.567491
 30
0.0
 11
20153.29818645621
 21
13637.620304999989
 31
0.0
  0
LINE
  5
BFFF
  8
2-0
  6
CONTINUOUS
 62
     6
 10
20093.534540456229
 20
16367.941238000019
 30
0.0
 11
19939.696254456219
 21
16419.37506900002
 31
0.0
  0
LINE
  5
C000
  8
2-0
  6
CONTINUOUS
 62
     6
 10
19939.696254456219
 20
16419.37506900002
 30
0.0
 11
20068.53124145624
 21
16320.834634000021
 31
0.0
  0
LINE
  5
C001
  8
2-0
  6
CONTINUOUS
 62
     6
 10
20093.534540456229
 20
16367.941238000019
 30
0.0
 11
20068.53124145624
 21
16320.834634000021
 31
0.0
  0
LINE
  5
C002
  8
2-0
  6
CONTINUOUS
 62
     6
 10
20068.53124145624
 20
16320.834634000021
 30
0.0
 11
19939.696254456219
 21
16419.37506900002
 31
0.0
  0
LINE
  5
C003
  8
2-0
  6
CONTINUOUS
 62
     6
 10
19939.696254456219
 20
16419.37506900002
 30
0.0
 11
20093.534540456229
 21
16367.941238000019
 31
0.0
  0
LINE
  5
C004
  8
2-0
  6
CONTINUOUS
 62
     6
 10
20093.534540456229
 20
16367.941238000019
 30
0.0
 11
19939.696254456219
 21
16419.37506900002
 31
0.0
  0
LINE
  5
C005
  8
2-0
  6
CONTINUOUS
 62
     6
 10
20068.53124145624
 20
16320.834634000021
 30
0.0
 11
19939.696254456219
 21
16419.37506900002
 31
0.0
  0
LINE
  5
C006
  8
2-0
  6
CONTINUOUS
 62
     6
 10
20068.53124145624
 20
16320.834634000021
 30
0.0
 11
20093.534540456229
 21
16367.941238000019
 31
0.0
  0
LINE
  5
C007
  8
2-0
  6
CONTINUOUS
 62
     6
 10
20227.470747456209
 20
16859.259730000009
 30
0.0
 11
20084.587116456209
 21
16782.484100999998
 31
0.0
  0
LINE
  5
C008
  8
2-0
  6
CONTINUOUS
 62
     6
 10
20084.587116456209
 20
16782.484100999998
 30
0.0
 11
20244.649009456221
 21
16808.76617000001
 31
0.0
  0
LINE
  5
C009
  8
2-0
  6
CONTINUOUS
 62
     6
 10
20227.470747456209
 20
16859.259730000009
 30
0.0
 11
20244.649009456221
 21
16808.76617000001
 31
0.0
  0
LINE
  5
C00A
  8
2-0
  6
CONTINUOUS
 62
     6
 10
20244.649009456221
 20
16808.76617000001
 30
0.0
 11
20084.587116456209
 21
16782.484100999998
 31
0.0
  0
LINE
  5
C00B
  8
2-0
  6
CONTINUOUS
 62
     6
 10
20084.587116456209
 20
16782.484100999998
 30
0.0
 11
20227.470747456209
 21
16859.259730000009
 31
0.0
  0
LINE
  5
C00C
  8
2-0
  6
CONTINUOUS
 62
     6
 10
20227.470747456209
 20
16859.259730000009
 30
0.0
 11
20084.587116456209
 21
16782.484100999998
 31
0.0
  0
LINE
  5
C00D
  8
2-0
  6
CONTINUOUS
 62
     6
 10
20244.649009456221
 20
16808.76617000001
 30
0.0
 11
20084.587116456209
 21
16782.484100999998
 31
0.0
  0
LINE
  5
C00E
  8
2-0
  6
CONTINUOUS
 62
     6
 10
20244.649009456221
 20
16808.76617000001
 30
0.0
 11
20227.470747456209
 21
16859.259730000009
 31
0.0
  0
LINE
  5
C00F
  8
2-0
  6
CONTINUOUS
 62
     3
 10
22912.693218456221
 20
19581.483785000011
 30
0.0
 11
22912.693218456221
 21
19575.48782300001
 31
0.0
  0
LINE
  5
C010
  8
2-0
  6
CONTINUOUS
 62
     3
 10
22912.693218456221
 20
19575.48782300001
 30
0.0
 11
22942.690843456221
 21
19575.48782300001
 31
0.0
  0
LINE
  5
C011
  8
2-0
  6
CONTINUOUS
 62
     3
 10
22942.690843456221
 20
19575.48782300001
 30
0.0
 11
22942.690843456221
 21
19690.48399600001
 31
0.0
  0
LINE
  5
C012
  8
2-0
  6
CONTINUOUS
 62
     3
 10
22942.690843456221
 20
19605.487427
 30
0.0
 11
22861.692902456209
 21
19605.487427
 31
0.0
  0
LINE
  5
C013
  8
2-0
  6
CONTINUOUS
 62
     3
 10
22912.693218456221
 20
19565.190366999999
 30
0.0
 11
22942.690843456221
 21
19565.190366999999
 31
0.0
  0
LINE
  5
C014
  8
2-0
  6
CONTINUOUS
 62
     3
 10
22912.693218456221
 20
19583.192109
 30
0.0
 11
22912.693218456221
 21
19565.190366999999
 31
0.0
  0
LINE
  5
C015
  8
2-0
  6
CONTINUOUS
 62
     3
 10
22937.686620456221
 20
19583.192109
 30
0.0
 11
22912.693218456221
 21
19583.192109
 31
0.0
  0
LINE
  5
C016
  8
2-0
  6
CONTINUOUS
 62
     3
 10
22937.686620456221
 20
19578.183927000009
 30
0.0
 11
22937.686620456221
 21
19583.192109
 31
0.0
  0
LINE
  5
C017
  8
2-0
  6
CONTINUOUS
 62
     3
 10
22930.68902245623
 20
19578.183927000009
 30
0.0
 11
22937.686620456221
 21
19578.183927000009
 31
0.0
  0
LINE
  5
C018
  8
2-0
  6
CONTINUOUS
 62
     3
 10
22830.394733456229
 20
19678.48415400002
 30
0.0
 11
22830.394733456229
 21
19685.48967000001
 31
0.0
  0
LINE
  5
C019
  8
2-0
  6
CONTINUOUS
 62
     3
 10
22830.394733456229
 20
19685.48967000001
 30
0.0
 11
22835.396977456221
 21
19685.48967000001
 31
0.0
  0
LINE
  5
C01A
  8
2-0
  6
CONTINUOUS
 62
     3
 10
22835.396977456221
 20
19685.48967000001
 30
0.0
 11
22835.396977456221
 21
19660.480433000001
 31
0.0
  0
LINE
  5
C01B
  8
2-0
  6
CONTINUOUS
 62
     3
 10
22835.396977456221
 20
19660.480433000001
 30
0.0
 11
22817.389296456229
 21
19660.480433000001
 31
0.0
  0
LINE
  5
C01C
  8
2-0
  6
CONTINUOUS
 62
     3
 10
22817.389296456229
 20
19660.480433000001
 30
0.0
 11
22817.389296456229
 21
19690.48399600001
 31
0.0
  0
LINE
  5
C01D
  8
2-0
  6
CONTINUOUS
 62
     3
 10
22827.688732456209
 20
19690.48399600001
 30
0.0
 11
22942.690843456221
 21
19690.48399600001
 31
0.0
  0
LINE
  5
C01E
  8
2-0
  6
CONTINUOUS
 62
     3
 10
22827.688732456209
 20
19660.480433000001
 30
0.0
 11
22827.688732456209
 21
19690.48399600001
 31
0.0
  0
LINE
  5
C01F
  8
2-0
  6
CONTINUOUS
 62
     3
 10
22833.692611456219
 20
19660.480433000001
 30
0.0
 11
22827.688732456209
 21
19660.480433000001
 31
0.0
  0
LINE
  5
C020
  8
2-0
  6
CONTINUOUS
 62
     3
 10
22912.693218456221
 20
19581.483785000011
 30
0.0
 11
22912.693218456221
 21
19575.48782300001
 31
0.0
  0
LINE
  5
C021
  8
2-0
  6
CONTINUOUS
 62
     3
 10
22912.693218456221
 20
19575.48782300001
 30
0.0
 11
22942.690843456221
 21
19575.48782300001
 31
0.0
  0
LINE
  5
C022
  8
2-0
  6
CONTINUOUS
 62
     3
 10
22942.690843456221
 20
19575.48782300001
 30
0.0
 11
22942.690843456221
 21
19690.48399600001
 31
0.0
  0
LINE
  5
C023
  8
2-0
  6
CONTINUOUS
 62
     3
 10
22942.690843456221
 20
19605.487427
 30
0.0
 11
22861.692902456209
 21
19605.487427
 31
0.0
  0
LINE
  5
C024
  8
2-0
  6
CONTINUOUS
 62
     3
 10
22912.693218456221
 20
19565.190366999999
 30
0.0
 11
22942.690843456221
 21
19565.190366999999
 31
0.0
  0
LINE
  5
C025
  8
2-0
  6
CONTINUOUS
 62
     3
 10
22912.693218456221
 20
19583.192109
 30
0.0
 11
22912.693218456221
 21
19565.190366999999
 31
0.0
  0
LINE
  5
C026
  8
2-0
  6
CONTINUOUS
 62
     3
 10
22937.686620456221
 20
19583.192109
 30
0.0
 11
22912.693218456221
 21
19583.192109
 31
0.0
  0
LINE
  5
C027
  8
2-0
  6
CONTINUOUS
 62
     3
 10
22937.686620456221
 20
19578.183927000009
 30
0.0
 11
22937.686620456221
 21
19583.192109
 31
0.0
  0
LINE
  5
C028
  8
2-0
  6
CONTINUOUS
 62
     3
 10
22930.68902245623
 20
19578.183927000009
 30
0.0
 11
22937.686620456221
 21
19578.183927000009
 31
0.0
  0
LINE
  5
C029
  8
2-0
  6
CONTINUOUS
 62
     3
 10
22930.68902245623
 20
18874.387104499991
 30
0.0
 11
22937.686620456221
 21
18874.387104499991
 31
0.0
  0
LINE
  5
C02A
  8
2-0
  6
CONTINUOUS
 62
     3
 10
22937.686620456221
 20
18874.387104499991
 30
0.0
 11
22937.686620456221
 21
18879.3873685
 31
0.0
  0
LINE
  5
C02B
  8
2-0
  6
CONTINUOUS
 62
     3
 10
22937.686620456221
 20
18879.3873685
 30
0.0
 11
22912.693218456221
 21
18879.3873685
 31
0.0
  0
LINE
  5
C02C
  8
2-0
  6
CONTINUOUS
 62
     3
 10
22912.693218456221
 20
18879.3873685
 30
0.0
 11
22912.693218456221
 21
18861.39156449998
 31
0.0
  0
LINE
  5
C02D
  8
2-0
  6
CONTINUOUS
 62
     3
 10
22912.693218456221
 20
18861.39156449998
 30
0.0
 11
22942.690843456221
 21
18861.39156449998
 31
0.0
  0
LINE
  5
C02E
  8
2-0
  6
CONTINUOUS
 62
     3
 10
22912.693218456221
 20
18877.483071499959
 30
0.0
 11
22912.693218456221
 21
18871.48513049999
 31
0.0
  0
LINE
  5
C02F
  8
2-0
  6
CONTINUOUS
 62
     3
 10
22912.693218456221
 20
18871.48513049999
 30
0.0
 11
22942.690843456221
 21
18871.48513049999
 31
0.0
  0
LINE
  5
C030
  8
2-0
  6
CONTINUOUS
 62
     3
 10
22942.690843456221
 20
18871.48513049999
 30
0.0
 11
22942.690843456221
 21
18908.48629149999
 31
0.0
  0
LINE
  5
C031
  8
2-0
  6
CONTINUOUS
 62
     3
 10
22912.693218456221
 20
18908.48629149999
 30
0.0
 11
22942.690843456221
 21
18908.48629149999
 31
0.0
  0
LINE
  5
C032
  8
2-0
  6
CONTINUOUS
 62
     3
 10
22912.693218456221
 20
18902.48241149999
 30
0.0
 11
22912.693218456221
 21
18908.48629149999
 31
0.0
  0
LINE
  5
C033
  8
2-0
  6
CONTINUOUS
 62
     3
 10
22912.693218456221
 20
18918.58183649998
 30
0.0
 11
22942.690843456221
 21
18918.58183649998
 31
0.0
  0
LINE
  5
C034
  8
2-0
  6
CONTINUOUS
 62
     3
 10
22912.693218456221
 20
18900.580094500001
 30
0.0
 11
22912.693218456221
 21
18918.58183649998
 31
0.0
  0
LINE
  5
C035
  8
2-0
  6
CONTINUOUS
 62
     3
 10
22937.686620456221
 20
18900.580094500001
 30
0.0
 11
22912.693218456221
 21
18900.580094500001
 31
0.0
  0
LINE
  5
C036
  8
2-0
  6
CONTINUOUS
 62
     3
 10
22937.686620456221
 20
18905.580358499981
 30
0.0
 11
22937.686620456221
 21
18900.580094500001
 31
0.0
  0
LINE
  5
C037
  8
2-0
  6
CONTINUOUS
 62
     3
 10
22930.68902245623
 20
18905.580358499981
 30
0.0
 11
22937.686620456221
 21
18905.580358499981
 31
0.0
  0
LINE
  5
C038
  8
2-0
  6
CONTINUOUS
 62
     3
 10
22930.68902245623
 20
18173.386115000001
 30
0.0
 11
22937.686620456221
 21
18173.386115000001
 31
0.0
  0
LINE
  5
C039
  8
2-0
  6
CONTINUOUS
 62
     3
 10
22937.686620456221
 20
18173.386115000001
 30
0.0
 11
22937.686620456221
 21
18178.392317000002
 31
0.0
  0
LINE
  5
C03A
  8
2-0
  6
CONTINUOUS
 62
     3
 10
22937.686620456221
 20
18178.392317000002
 30
0.0
 11
22912.693218456221
 21
18178.392317000002
 31
0.0
  0
LINE
  5
C03B
  8
2-0
  6
CONTINUOUS
 62
     3
 10
22912.693218456221
 20
18178.392317000002
 30
0.0
 11
22912.693218456221
 21
18160.39057499999
 31
0.0
  0
LINE
  5
C03C
  8
2-0
  6
CONTINUOUS
 62
     3
 10
22912.693218456221
 20
18160.39057499999
 30
0.0
 11
22942.690843456221
 21
18160.39057499999
 31
0.0
  0
LINE
  5
C03D
  8
2-0
  6
CONTINUOUS
 62
     3
 10
22912.693218456221
 20
18176.48208199998
 30
0.0
 11
22912.693218456221
 21
18170.48611999999
 31
0.0
  0
LINE
  5
C03E
  8
2-0
  6
CONTINUOUS
 62
     3
 10
22912.693218456221
 20
18170.48611999999
 30
0.0
 11
22942.690843456221
 21
18170.48611999999
 31
0.0
  0
LINE
  5
C03F
  8
2-0
  6
CONTINUOUS
 62
     3
 10
22942.690843456221
 20
18170.48611999999
 30
0.0
 11
22942.690843456221
 21
18207.48530199999
 31
0.0
  0
LINE
  5
C040
  8
2-0
  6
CONTINUOUS
 62
     3
 10
22912.693218456221
 20
18207.48530199999
 30
0.0
 11
22942.690843456221
 21
18207.48530199999
 31
0.0
  0
LINE
  5
C041
  8
2-0
  6
CONTINUOUS
 62
     3
 10
22912.693218456221
 20
18201.48934
 30
0.0
 11
22912.693218456221
 21
18207.48530199999
 31
0.0
  0
LINE
  5
C042
  8
2-0
  6
CONTINUOUS
 62
     3
 10
22912.693218456221
 20
18217.580847000001
 30
0.0
 11
22942.690843456221
 21
18217.580847000001
 31
0.0
  0
LINE
  5
C043
  8
2-0
  6
CONTINUOUS
 62
     3
 10
22912.693218456221
 20
18199.57910499999
 30
0.0
 11
22912.693218456221
 21
18217.580847000001
 31
0.0
  0
LINE
  5
C044
  8
2-0
  6
CONTINUOUS
 62
     3
 10
22937.686620456221
 20
18199.57910499999
 30
0.0
 11
22912.693218456221
 21
18199.57910499999
 31
0.0
  0
LINE
  5
C045
  8
2-0
  6
CONTINUOUS
 62
     3
 10
22937.686620456221
 20
18204.58530699999
 30
0.0
 11
22937.686620456221
 21
18199.57910499999
 31
0.0
  0
LINE
  5
C046
  8
2-0
  6
CONTINUOUS
 62
     3
 10
22930.68902245623
 20
18204.58530699999
 30
0.0
 11
22937.686620456221
 21
18204.58530699999
 31
0.0
  0
LINE
  5
C047
  8
2-0
  6
CONTINUOUS
 62
     3
 10
22930.68902245623
 20
17503.579368999988
 30
0.0
 11
22937.686620456221
 21
17503.579368999988
 31
0.0
  0
LINE
  5
C048
  8
2-0
  6
CONTINUOUS
 62
     3
 10
22937.686620456221
 20
17503.579368999988
 30
0.0
 11
22937.686620456221
 21
17498.590982000002
 31
0.0
  0
LINE
  5
C049
  8
2-0
  6
CONTINUOUS
 62
     3
 10
22937.686620456221
 20
17498.590982000002
 30
0.0
 11
22912.693218456221
 21
17498.590982000002
 31
0.0
  0
LINE
  5
C04A
  8
2-0
  6
CONTINUOUS
 62
     3
 10
22912.693218456221
 20
17498.590982000002
 30
0.0
 11
22912.693218456221
 21
17516.586784999989
 31
0.0
  0
LINE
  5
C04B
  8
2-0
  6
CONTINUOUS
 62
     3
 10
22912.693218456221
 20
17516.586784999989
 30
0.0
 11
22942.690843456221
 21
17516.586784999989
 31
0.0
  0
LINE
  5
C04C
  8
2-0
  6
CONTINUOUS
 62
     3
 10
22912.693218456221
 20
17500.48934
 30
0.0
 11
22912.693218456221
 21
17506.48530199999
 31
0.0
  0
LINE
  5
C04D
  8
2-0
  6
CONTINUOUS
 62
     3
 10
22912.693218456221
 20
17506.48530199999
 30
0.0
 11
22942.690843456221
 21
17506.48530199999
 31
0.0
  0
LINE
  5
C04E
  8
2-0
  6
CONTINUOUS
 62
     3
 10
22942.690843456221
 20
17506.48530199999
 30
0.0
 11
22942.690843456221
 21
17469.48611999999
 31
0.0
  0
LINE
  5
C04F
  8
2-0
  6
CONTINUOUS
 62
     3
 10
22912.693218456221
 20
17469.48611999999
 30
0.0
 11
22942.690843456221
 21
17469.48611999999
 31
0.0
  0
LINE
  5
C050
  8
2-0
  6
CONTINUOUS
 62
     3
 10
22912.693218456221
 20
17475.48802099999
 30
0.0
 11
22912.693218456221
 21
17469.48611999999
 31
0.0
  0
LINE
  5
C051
  8
2-0
  6
CONTINUOUS
 62
     3
 10
22912.693218456221
 20
17459.396514
 30
0.0
 11
22942.690843456221
 21
17459.396514
 31
0.0
  0
LINE
  5
C052
  8
2-0
  6
CONTINUOUS
 62
     3
 10
22912.693218456221
 20
17477.39231699998
 30
0.0
 11
22912.693218456221
 21
17459.396514
 31
0.0
  0
LINE
  5
C053
  8
2-0
  6
CONTINUOUS
 62
     3
 10
22937.686620456221
 20
17477.39231699998
 30
0.0
 11
22912.693218456221
 21
17477.39231699998
 31
0.0
  0
LINE
  5
C054
  8
2-0
  6
CONTINUOUS
 62
     3
 10
22937.686620456221
 20
17472.392053999989
 30
0.0
 11
22937.686620456221
 21
17477.39231699998
 31
0.0
  0
LINE
  5
C055
  8
2-0
  6
CONTINUOUS
 62
     3
 10
22930.68902245623
 20
17472.392053999989
 30
0.0
 11
22937.686620456221
 21
17472.392053999989
 31
0.0
  0
LINE
  5
C056
  8
2-0
  6
CONTINUOUS
 62
     3
 10
22939.804705456208
 20
16752.482940000002
 30
0.0
 11
22939.804705456208
 21
16772.483994999999
 31
0.0
  0
LINE
  5
C057
  8
2-0
  6
CONTINUOUS
 62
     3
 10
22939.804705456208
 20
16772.483994999999
 30
0.0
 11
22854.804177456212
 21
16772.483994999999
 31
0.0
  0
LINE
  5
C058
  8
2-0
  6
CONTINUOUS
 62
     3
 10
22930.68902245623
 20
16799.090704999999
 30
0.0
 11
22937.686620456221
 21
16799.090704999999
 31
0.0
  0
LINE
  5
C059
  8
2-0
  6
CONTINUOUS
 62
     3
 10
22937.686620456221
 20
16799.090704999999
 30
0.0
 11
22937.686620456221
 21
16794.09637900001
 31
0.0
  0
LINE
  5
C05A
  8
2-0
  6
CONTINUOUS
 62
     3
 10
22937.686620456221
 20
16794.09637900001
 30
0.0
 11
22912.693218456221
 21
16794.09637900001
 31
0.0
  0
LINE
  5
C05B
  8
2-0
  6
CONTINUOUS
 62
     3
 10
22912.693218456221
 20
16794.09637900001
 30
0.0
 11
22912.693218456221
 21
16812.09218299999
 31
0.0
  0
LINE
  5
C05C
  8
2-0
  6
CONTINUOUS
 62
     3
 10
22912.693218456221
 20
16812.09218299999
 30
0.0
 11
22942.690843456221
 21
16812.09218299999
 31
0.0
  0
LINE
  5
C05D
  8
2-0
  6
CONTINUOUS
 62
     3
 10
22912.693218456221
 20
16802.483598999988
 30
0.0
 11
22912.693218456221
 21
16796.481699
 31
0.0
  0
LINE
  5
C05E
  8
2-0
  6
CONTINUOUS
 62
     3
 10
22942.690843456221
 20
16802.483598999988
 30
0.0
 11
22912.693218456221
 21
16802.483598999988
 31
0.0
  0
LINE
  5
C05F
  8
2-0
  6
CONTINUOUS
 62
     3
 10
22942.690843456221
 20
16812.09218299999
 30
0.0
 11
22942.690843456221
 21
17459.396514
 31
0.0
  0
LINE
  5
C060
  8
2-0
  6
CONTINUOUS
 62
     3
 10
22942.690843456221
 20
17516.586784999989
 30
0.0
 11
22942.690843456221
 21
18160.39057499999
 31
0.0
  0
LINE
  5
C061
  8
2-0
  6
CONTINUOUS
 62
     3
 10
22942.690843456221
 20
16657.48188399999
 30
0.0
 11
22912.693218456221
 21
16657.48188399999
 31
0.0
  0
LINE
  5
C062
  8
2-0
  6
CONTINUOUS
 62
     3
 10
22912.693218456221
 20
16657.48188399999
 30
0.0
 11
22912.693218456221
 21
16663.483784
 31
0.0
  0
LINE
  5
C063
  8
2-0
  6
CONTINUOUS
 62
     3
 10
22854.804177456212
 20
16687.487427
 30
0.0
 11
22939.804705456208
 21
16687.487427
 31
0.0
  0
LINE
  5
C064
  8
2-0
  6
CONTINUOUS
 62
     3
 10
22939.804705456208
 20
16687.487427
 30
0.0
 11
22939.804705456208
 21
16707.48254400001
 31
0.0
  0
LINE
  5
C065
  8
2-0
  6
CONTINUOUS
 62
     3
 10
22912.693218456221
 20
16647.873301
 30
0.0
 11
22942.690843456221
 21
16647.873301
 31
0.0
  0
LINE
  5
C066
  8
2-0
  6
CONTINUOUS
 62
     3
 10
22912.693218456221
 20
16665.86910399999
 30
0.0
 11
22912.693218456221
 21
16647.873301
 31
0.0
  0
LINE
  5
C067
  8
2-0
  6
CONTINUOUS
 62
     3
 10
22937.686620456221
 20
16665.86910399999
 30
0.0
 11
22912.693218456221
 21
16665.86910399999
 31
0.0
  0
LINE
  5
C068
  8
2-0
  6
CONTINUOUS
 62
     3
 10
22937.686620456221
 20
16660.86884000001
 30
0.0
 11
22937.686620456221
 21
16665.86910399999
 31
0.0
  0
LINE
  5
C069
  8
2-0
  6
CONTINUOUS
 62
     3
 10
22930.68902245623
 20
16660.86884000001
 30
0.0
 11
22937.686620456221
 21
16660.86884000001
 31
0.0
  0
LINE
  5
C06A
  8
2-0
  6
CONTINUOUS
 62
     3
 10
22930.68902245623
 20
15956.386609499979
 30
0.0
 11
22937.686620456221
 21
15956.386609499979
 31
0.0
  0
LINE
  5
C06B
  8
2-0
  6
CONTINUOUS
 62
     3
 10
22937.686620456221
 20
15956.386609499979
 30
0.0
 11
22937.686620456221
 21
15961.386873499991
 31
0.0
  0
LINE
  5
C06C
  8
2-0
  6
CONTINUOUS
 62
     3
 10
22937.686620456221
 20
15961.386873499991
 30
0.0
 11
22912.693218456221
 21
15961.386873499991
 31
0.0
  0
LINE
  5
C06D
  8
2-0
  6
CONTINUOUS
 62
     3
 10
22912.693218456221
 20
15961.386873499991
 30
0.0
 11
22912.693218456221
 21
15943.38513149999
 31
0.0
  0
LINE
  5
C06E
  8
2-0
  6
CONTINUOUS
 62
     3
 10
22912.693218456221
 20
15943.38513149999
 30
0.0
 11
22942.690843456221
 21
15943.38513149999
 31
0.0
  0
LINE
  5
C06F
  8
2-0
  6
CONTINUOUS
 62
     3
 10
22912.693218456221
 20
15959.482576500001
 30
0.0
 11
22912.693218456221
 21
15953.4856255
 31
0.0
  0
LINE
  5
C070
  8
2-0
  6
CONTINUOUS
 62
     3
 10
22912.693218456221
 20
15953.4856255
 30
0.0
 11
22942.690843456221
 21
15953.4856255
 31
0.0
  0
LINE
  5
C071
  8
2-0
  6
CONTINUOUS
 62
     3
 10
22942.690843456221
 20
15953.4856255
 30
0.0
 11
22942.690843456221
 21
15990.485796499999
 31
0.0
  0
LINE
  5
C072
  8
2-0
  6
CONTINUOUS
 62
     3
 10
22912.693218456221
 20
15990.485796499999
 30
0.0
 11
22942.690843456221
 21
15990.485796499999
 31
0.0
  0
LINE
  5
C073
  8
2-0
  6
CONTINUOUS
 62
     3
 10
22912.693218456221
 20
15984.482906499999
 30
0.0
 11
22912.693218456221
 21
15990.485796499999
 31
0.0
  0
LINE
  5
C074
  8
2-0
  6
CONTINUOUS
 62
     3
 10
22912.693218456221
 20
16000.58134149999
 30
0.0
 11
22942.690843456221
 21
16000.58134149999
 31
0.0
  0
LINE
  5
C075
  8
2-0
  6
CONTINUOUS
 62
     3
 10
22912.693218456221
 20
15982.573660499989
 30
0.0
 11
22912.693218456221
 21
16000.58134149999
 31
0.0
  0
LINE
  5
C076
  8
2-0
  6
CONTINUOUS
 62
     3
 10
22937.686620456221
 20
15982.573660499989
 30
0.0
 11
22912.693218456221
 21
15982.573660499989
 31
0.0
  0
LINE
  5
C077
  8
2-0
  6
CONTINUOUS
 62
     3
 10
22937.686620456221
 20
15987.579863499999
 30
0.0
 11
22937.686620456221
 21
15982.573660499989
 31
0.0
  0
LINE
  5
C078
  8
2-0
  6
CONTINUOUS
 62
     3
 10
22930.68902245623
 20
15987.579863499999
 30
0.0
 11
22937.686620456221
 21
15987.579863499999
 31
0.0
  0
LINE
  5
C079
  8
2-0
  6
CONTINUOUS
 62
     3
 10
22930.68902245623
 20
15286.819879999999
 30
0.0
 11
22937.686620456221
 21
15286.819879999999
 31
0.0
  0
LINE
  5
C07A
  8
2-0
  6
CONTINUOUS
 62
     3
 10
22937.686620456221
 20
15286.819879999999
 30
0.0
 11
22937.686620456221
 21
15281.825554999999
 31
0.0
  0
LINE
  5
C07B
  8
2-0
  6
CONTINUOUS
 62
     3
 10
22937.686620456221
 20
15281.825554999999
 30
0.0
 11
22912.693218456221
 21
15281.825554999999
 31
0.0
  0
LINE
  5
C07C
  8
2-0
  6
CONTINUOUS
 62
     3
 10
22912.693218456221
 20
15281.825554999999
 30
0.0
 11
22912.693218456221
 21
15299.82135800001
 31
0.0
  0
LINE
  5
C07D
  8
2-0
  6
CONTINUOUS
 62
     3
 10
22912.693218456221
 20
15299.82135800001
 30
0.0
 11
22942.690843456221
 21
15299.82135800001
 31
0.0
  0
LINE
  5
C07E
  8
2-0
  6
CONTINUOUS
 62
     3
 10
22912.693218456221
 20
15283.723912999991
 30
0.0
 11
22912.693218456221
 21
15289.725812999999
 31
0.0
  0
LINE
  5
C07F
  8
2-0
  6
CONTINUOUS
 62
     3
 10
22912.693218456221
 20
15289.725812999999
 30
0.0
 11
22942.690843456221
 21
15289.725812999999
 31
0.0
  0
LINE
  5
C080
  8
2-0
  6
CONTINUOUS
 62
     3
 10
22942.690843456221
 20
15252.726632000011
 30
0.0
 11
22942.690843456221
 21
15289.725812999999
 31
0.0
  0
LINE
  5
C081
  8
2-0
  6
CONTINUOUS
 62
     3
 10
22912.693218456221
 20
15252.726632000011
 30
0.0
 11
22942.690843456221
 21
15252.726632000011
 31
0.0
  0
LINE
  5
C082
  8
2-0
  6
CONTINUOUS
 62
     3
 10
22912.693218456221
 20
15258.723583000001
 30
0.0
 11
22912.693218456221
 21
15252.726632000011
 31
0.0
  0
LINE
  5
C083
  8
2-0
  6
CONTINUOUS
 62
     3
 10
22912.693218456221
 20
15242.62514799999
 30
0.0
 11
22942.690843456221
 21
15242.62514799999
 31
0.0
  0
LINE
  5
C084
  8
2-0
  6
CONTINUOUS
 62
     3
 10
22912.693218456221
 20
15260.632828999989
 30
0.0
 11
22912.693218456221
 21
15242.62514799999
 31
0.0
  0
LINE
  5
C085
  8
2-0
  6
CONTINUOUS
 62
     3
 10
22937.686620456221
 20
15260.632828999989
 30
0.0
 11
22912.693218456221
 21
15260.632828999989
 31
0.0
  0
LINE
  5
C086
  8
2-0
  6
CONTINUOUS
 62
     3
 10
22937.686620456221
 20
15255.63256500002
 30
0.0
 11
22937.686620456221
 21
15260.632828999989
 31
0.0
  0
LINE
  5
C087
  8
2-0
  6
CONTINUOUS
 62
     3
 10
22930.68902245623
 20
15255.63256500002
 30
0.0
 11
22937.686620456221
 21
15255.63256500002
 31
0.0
  0
LINE
  5
C088
  8
2-0
  6
CONTINUOUS
 62
     3
 10
22942.690843456221
 20
16647.873301
 30
0.0
 11
22942.690843456221
 21
16000.58134149999
 31
0.0
  0
LINE
  5
C089
  8
2-0
  6
CONTINUOUS
 62
     3
 10
22942.690843456221
 20
16802.483598999988
 30
0.0
 11
22942.690843456221
 21
16657.48188399999
 31
0.0
  0
LINE
  5
C08A
  8
2-0
  6
CONTINUOUS
 62
     3
 10
22854.804177456212
 20
16772.483994999999
 30
0.0
 11
22854.804177456212
 21
16687.487427
 31
0.0
  0
LINE
  5
C08B
  8
2-0
  6
CONTINUOUS
 62
     3
 10
22930.68902245623
 20
14554.391557999999
 30
0.0
 11
22937.686620456221
 21
14554.391557999999
 31
0.0
  0
LINE
  5
C08C
  8
2-0
  6
CONTINUOUS
 62
     3
 10
22937.686620456221
 20
14554.391557999999
 30
0.0
 11
22937.686620456221
 21
14559.38588400001
 31
0.0
  0
LINE
  5
C08D
  8
2-0
  6
CONTINUOUS
 62
     3
 10
22937.686620456221
 20
14559.38588400001
 30
0.0
 11
22912.693218456221
 21
14559.38588400001
 31
0.0
  0
LINE
  5
C08E
  8
2-0
  6
CONTINUOUS
 62
     3
 10
22912.693218456221
 20
14559.38588400001
 30
0.0
 11
22912.693218456221
 21
14541.390079999999
 31
0.0
  0
LINE
  5
C08F
  8
2-0
  6
CONTINUOUS
 62
     3
 10
22912.693218456221
 20
14541.390079999999
 30
0.0
 11
22942.690843456221
 21
14541.390079999999
 31
0.0
  0
LINE
  5
C090
  8
2-0
  6
CONTINUOUS
 62
     3
 10
22912.693218456221
 20
14557.488514999999
 30
0.0
 11
22912.693218456221
 21
14551.48562500001
 31
0.0
  0
LINE
  5
C091
  8
2-0
  6
CONTINUOUS
 62
     3
 10
22912.693218456221
 20
14551.48562500001
 30
0.0
 11
22942.690843456221
 21
14551.48562500001
 31
0.0
  0
LINE
  5
C092
  8
2-0
  6
CONTINUOUS
 62
     3
 10
22942.690843456221
 20
14551.48562500001
 30
0.0
 11
22942.690843456221
 21
14588.485796999979
 31
0.0
  0
LINE
  5
C093
  8
2-0
  6
CONTINUOUS
 62
     3
 10
22912.693218456221
 20
14588.485796999979
 30
0.0
 11
22942.690843456221
 21
14588.485796999979
 31
0.0
  0
LINE
  5
C094
  8
2-0
  6
CONTINUOUS
 62
     3
 10
22912.693218456221
 20
14582.488845
 30
0.0
 11
22912.693218456221
 21
14588.485796999979
 31
0.0
  0
LINE
  5
C095
  8
2-0
  6
CONTINUOUS
 62
     3
 10
22912.693218456221
 20
14598.586289999999
 30
0.0
 11
22942.690843456221
 21
14598.586289999999
 31
0.0
  0
LINE
  5
C096
  8
2-0
  6
CONTINUOUS
 62
     3
 10
22912.693218456221
 20
14580.579599000001
 30
0.0
 11
22912.693218456221
 21
14598.586289999999
 31
0.0
  0
LINE
  5
C097
  8
2-0
  6
CONTINUOUS
 62
     3
 10
22937.686620456221
 20
14580.579599000001
 30
0.0
 11
22912.693218456221
 21
14580.579599000001
 31
0.0
  0
LINE
  5
C098
  8
2-0
  6
CONTINUOUS
 62
     3
 10
22937.686620456221
 20
14585.584811999999
 30
0.0
 11
22937.686620456221
 21
14580.579599000001
 31
0.0
  0
LINE
  5
C099
  8
2-0
  6
CONTINUOUS
 62
     3
 10
22930.68902245623
 20
14585.584811999999
 30
0.0
 11
22937.686620456221
 21
14585.584811999999
 31
0.0
  0
LINE
  5
C09A
  8
2-0
  6
CONTINUOUS
 62
     3
 10
22912.693218456221
 20
13527.987638000001
 30
0.0
 11
22912.693218456221
 21
13533.99250699999
 31
0.0
  0
LINE
  5
C09B
  8
2-0
  6
CONTINUOUS
 62
     3
 10
22912.693218456221
 20
13533.99250699999
 30
0.0
 11
22942.690843456221
 21
13533.99250699999
 31
0.0
  0
LINE
  5
C09C
  8
2-0
  6
CONTINUOUS
 62
     3
 10
22942.690843456221
 20
13533.99250699999
 30
0.0
 11
22942.690843456221
 21
13418.988416
 31
0.0
  0
LINE
  5
C09D
  8
2-0
  6
CONTINUOUS
 62
     3
 10
22942.690843456221
 20
13418.988416
 30
0.0
 11
22857.692295456221
 21
13418.988416
 31
0.0
  0
LINE
  5
C09E
  8
2-0
  6
CONTINUOUS
 62
     3
 10
22857.692295456221
 20
13418.988416
 30
0.0
 11
22857.692295456221
 21
13503.983995000001
 31
0.0
  0
LINE
  5
C09F
  8
2-0
  6
CONTINUOUS
 62
     3
 10
22857.692295456221
 20
13503.983995000001
 30
0.0
 11
22889.689233456229
 21
13503.983995000001
 31
0.0
  0
LINE
  5
C0A0
  8
2-0
  6
CONTINUOUS
 62
     3
 10
22930.68902245623
 20
13531.02224
 30
0.0
 11
22937.686620456221
 21
13531.02224
 31
0.0
  0
LINE
  5
C0A1
  8
2-0
  6
CONTINUOUS
 62
     3
 10
22937.686620456221
 20
13531.02224
 30
0.0
 11
22937.686620456221
 21
13526.024944999979
 31
0.0
  0
LINE
  5
C0A2
  8
2-0
  6
CONTINUOUS
 62
     3
 10
22937.686620456221
 20
13526.024944999979
 30
0.0
 11
22912.693218456221
 21
13526.024944999979
 31
0.0
  0
LINE
  5
C0A3
  8
2-0
  6
CONTINUOUS
 62
     3
 10
22912.693218456221
 20
13526.024944999979
 30
0.0
 11
22912.693218456221
 21
13544.023718
 31
0.0
  0
LINE
  5
C0A4
  8
2-0
  6
CONTINUOUS
 62
     3
 10
22912.693218456221
 20
13544.023718
 30
0.0
 11
22942.690843456221
 21
13544.023718
 31
0.0
  0
LINE
  5
C0A5
  8
2-0
  6
CONTINUOUS
 62
     3
 10
22942.690843456221
 20
14598.586289999999
 30
0.0
 11
22942.690843456221
 21
15242.62514799999
 31
0.0
  0
LINE
  5
C0A6
  8
2-0
  6
CONTINUOUS
 62
     3
 10
22942.690843456221
 20
18217.580847000001
 30
0.0
 11
22942.690843456221
 21
18861.39156449998
 31
0.0
  0
LINE
  5
C0A7
  8
2-0
  6
CONTINUOUS
 62
     3
 10
22942.690843456221
 20
15943.38513149999
 30
0.0
 11
22942.690843456221
 21
15299.82135800001
 31
0.0
  0
LINE
  5
C0A8
  8
2-0
  6
CONTINUOUS
 62
     3
 10
19939.696254456219
 20
19575.48782300001
 30
0.0
 11
19939.696254456219
 21
19690.48399600001
 31
0.0
  0
LINE
  5
C0A9
  8
2-0
  6
CONTINUOUS
 62
     3
 10
22942.690843456221
 20
19605.487427
 30
0.0
 11
20020.69815445623
 21
19605.487427
 31
0.0
  0
LINE
  5
C0AA
  8
2-0
  6
CONTINUOUS
 62
     3
 10
22942.690843456221
 20
13897.52344100001
 30
0.0
 11
22942.690843456221
 21
14541.390079999999
 31
0.0
  0
LINE
  5
C0AB
  8
2-0
  6
CONTINUOUS
 62
     3
 10
19939.696254456219
 20
19565.190366999999
 30
0.0
 11
19939.696254456219
 21
18918.58183649999
 31
0.0
  0
LINE
  5
C0AC
  8
2-0
  6
CONTINUOUS
 62
     3
 10
22942.690843456221
 20
19565.190366999999
 30
0.0
 11
22942.690843456221
 21
18918.58183649998
 31
0.0
  0
LINE
  5
C0AD
  8
2-0
  6
CONTINUOUS
 62
     3
 10
22930.68902245623
 20
13853.39205300001
 30
0.0
 11
22937.686620456221
 21
13853.39205300001
 31
0.0
  0
LINE
  5
C0AE
  8
2-0
  6
CONTINUOUS
 62
     3
 10
22937.686620456221
 20
13853.39205300001
 30
0.0
 11
22937.686620456221
 21
13858.386379
 31
0.0
  0
LINE
  5
C0AF
  8
2-0
  6
CONTINUOUS
 62
     3
 10
22937.686620456221
 20
13858.386379
 30
0.0
 11
22912.693218456221
 21
13858.386379
 31
0.0
  0
LINE
  5
C0B0
  8
2-0
  6
CONTINUOUS
 62
     3
 10
22912.693218456221
 20
13858.386379
 30
0.0
 11
22912.693218456221
 21
13840.39057500001
 31
0.0
  0
LINE
  5
C0B1
  8
2-0
  6
CONTINUOUS
 62
     3
 10
22912.693218456221
 20
13840.39057500001
 30
0.0
 11
22942.690843456221
 21
13840.39057500001
 31
0.0
  0
LINE
  5
C0B2
  8
2-0
  6
CONTINUOUS
 62
     3
 10
22912.693218456221
 20
13856.488020999999
 30
0.0
 11
22912.693218456221
 21
13850.48612
 31
0.0
  0
LINE
  5
C0B3
  8
2-0
  6
CONTINUOUS
 62
     3
 10
22912.693218456221
 20
13850.48612
 30
0.0
 11
22942.690843456221
 21
13850.48612
 31
0.0
  0
LINE
  5
C0B4
  8
2-0
  6
CONTINUOUS
 62
     3
 10
22942.690843456221
 20
13850.48612
 30
0.0
 11
22942.690843456221
 21
13887.485301999979
 31
0.0
  0
LINE
  5
C0B5
  8
2-0
  6
CONTINUOUS
 62
     3
 10
22912.693218456221
 20
13887.485301999979
 30
0.0
 11
22942.690843456221
 21
13887.485301999979
 31
0.0
  0
LINE
  5
C0B6
  8
2-0
  6
CONTINUOUS
 62
     3
 10
22912.693218456221
 20
13881.489340000009
 30
0.0
 11
22912.693218456221
 21
13887.485301999979
 31
0.0
  0
LINE
  5
C0B7
  8
2-0
  6
CONTINUOUS
 62
     3
 10
22912.693218456221
 20
13897.586785
 30
0.0
 11
22942.690843456221
 21
13897.586785
 31
0.0
  0
LINE
  5
C0B8
  8
2-0
  6
CONTINUOUS
 62
     3
 10
22912.693218456221
 20
13879.579104999981
 30
0.0
 11
22912.693218456221
 21
13897.586785
 31
0.0
  0
LINE
  5
C0B9
  8
2-0
  6
CONTINUOUS
 62
     3
 10
22937.686620456221
 20
13879.579104999981
 30
0.0
 11
22912.693218456221
 21
13879.579104999981
 31
0.0
  0
LINE
  5
C0BA
  8
2-0
  6
CONTINUOUS
 62
     3
 10
22937.686620456221
 20
13884.585306999999
 30
0.0
 11
22937.686620456221
 21
13879.579104999981
 31
0.0
  0
LINE
  5
C0BB
  8
2-0
  6
CONTINUOUS
 62
     3
 10
22930.68902245623
 20
13884.585306999999
 30
0.0
 11
22937.686620456221
 21
13884.585306999999
 31
0.0
  0
LINE
  5
C0BC
  8
2-0
  6
CONTINUOUS
 62
     3
 10
22942.690843456221
 20
13544.023718
 30
0.0
 11
22942.690843456221
 21
13840.39057500001
 31
0.0
  0
LINE
  5
C0BD
  8
2-0
  6
CONTINUOUS
 62
     3
 10
22861.692902456209
 20
13503.983995000001
 30
0.0
 11
22861.692902456209
 21
19690.48399600001
 31
0.0
  0
LINE
  5
C0BE
  8
2-0
  6
CONTINUOUS
 62
     3
 10
19951.698075456199
 20
13853.39205300001
 30
0.0
 11
19944.696518456221
 21
13853.39205300001
 31
0.0
  0
LINE
  5
C0BF
  8
2-0
  6
CONTINUOUS
 62
     3
 10
19944.696518456221
 20
13853.39205300001
 30
0.0
 11
19944.696518456221
 21
13858.386379
 31
0.0
  0
LINE
  5
C0C0
  8
2-0
  6
CONTINUOUS
 62
     3
 10
19944.696518456221
 20
13858.386379
 30
0.0
 11
19969.693878456201
 21
13858.386379
 31
0.0
  0
LINE
  5
C0C1
  8
2-0
  6
CONTINUOUS
 62
     3
 10
19969.693878456201
 20
13858.386379
 30
0.0
 11
19969.693878456201
 21
13840.39057500001
 31
0.0
  0
LINE
  5
C0C2
  8
2-0
  6
CONTINUOUS
 62
     3
 10
19969.693878456201
 20
13840.39057500001
 30
0.0
 11
19939.696254456219
 21
13840.39057500001
 31
0.0
  0
LINE
  5
C0C3
  8
2-0
  6
CONTINUOUS
 62
     3
 10
19969.693878456201
 20
13856.488020999999
 30
0.0
 11
19969.693878456201
 21
13850.48612
 31
0.0
  0
LINE
  5
C0C4
  8
2-0
  6
CONTINUOUS
 62
     3
 10
19969.693878456201
 20
13850.48612
 30
0.0
 11
19939.696254456219
 21
13850.48612
 31
0.0
  0
LINE
  5
C0C5
  8
2-0
  6
CONTINUOUS
 62
     3
 10
19939.696254456219
 20
13850.48612
 30
0.0
 11
19939.696254456219
 21
13887.485301999979
 31
0.0
  0
LINE
  5
C0C6
  8
2-0
  6
CONTINUOUS
 62
     3
 10
19969.693878456201
 20
13887.485301999979
 30
0.0
 11
19939.696254456219
 21
13887.485301999979
 31
0.0
  0
LINE
  5
C0C7
  8
2-0
  6
CONTINUOUS
 62
     3
 10
19969.693878456201
 20
13881.48934000002
 30
0.0
 11
19969.693878456201
 21
13887.485301999979
 31
0.0
  0
LINE
  5
C0C8
  8
2-0
  6
CONTINUOUS
 62
     3
 10
19969.693878456201
 20
13897.586785
 30
0.0
 11
19939.696254456219
 21
13897.586785
 31
0.0
  0
LINE
  5
C0C9
  8
2-0
  6
CONTINUOUS
 62
     3
 10
19969.693878456201
 20
13879.579104999981
 30
0.0
 11
19969.693878456201
 21
13897.586785
 31
0.0
  0
LINE
  5
C0CA
  8
2-0
  6
CONTINUOUS
 62
     3
 10
19944.696518456221
 20
13879.579104999981
 30
0.0
 11
19969.693878456201
 21
13879.579104999981
 31
0.0
  0
LINE
  5
C0CB
  8
2-0
  6
CONTINUOUS
 62
     3
 10
19944.696518456221
 20
13884.585306999999
 30
0.0
 11
19944.696518456221
 21
13879.579104999981
 31
0.0
  0
LINE
  5
C0CC
  8
2-0
  6
CONTINUOUS
 62
     3
 10
19951.698075456199
 20
13884.585306999999
 30
0.0
 11
19944.696518456221
 21
13884.585306999999
 31
0.0
  0
LINE
  5
C0CD
  8
2-0
  6
CONTINUOUS
 62
     3
 10
19939.696254456219
 20
13544.023718
 30
0.0
 11
19939.696254456219
 21
13840.39057500001
 31
0.0
  0
LINE
  5
C0CE
  8
2-0
  6
CONTINUOUS
 62
     3
 10
20020.69815445623
 20
13503.983995000001
 30
0.0
 11
20020.69815445623
 21
19690.48399600001
 31
0.0
  0
TEXT
  5
C0CF
  8
2-0
  6
CONTINUOUS
 62
     7
 10
20655.420775126331
 20
16180.476608276511
 30
0.0
 40
160.0
  1
壁パネル
 50
0.0001770000000167
 72
     4
 11
21018.087194652649
 21
16260.477728637879
 31
0.0
  0
TEXT
  5
C0D0
  8
2-0
  6
CONTINUOUS
 62
     7
 10
20626.090345809302
 20
17017.673137652371
 30
0.0
 40
160.0
  1
中柱（左右）
 50
359.99964599999998
 72
     4
 11
21143.42417341
 21
17097.669941324672
 31
0.0
  0
TEXT
  5
C0D1
  8
2-0
  6
CONTINUOUS
 62
     7
 10
20639.421435181652
 20
13874.534431706101
 30
0.0
 40
160.0
  1
下枠
 50
359.99893700000001
 72
     4
 11
20810.089586046939
 21
13954.531265339279
 31
0.0
  0
TEXT
  5
C0D2
  8
2-0
  6
CONTINUOUS
 62
     7
 10
20643.122677789539
 20
18620.93548349999
 30
0.0
 40
160.0
  1
間柱（側）
 72
     4
 11
21064.456011122871
 21
18700.93548349999
 31
0.0
  0
TEXT
  5
C0D3
  8
2-0
  6
CONTINUOUS
 62
     7
 10
18143.199025475758
 20
20500.489530748739
 30
0.0
 40
160.0
  1
後柱（左右）
 50
359.99964599999998
 72
     4
 11
18655.19951974323
 21
20580.48636737284
 31
0.0
  0
LINE
  5
C0D4
  8
2-0
  6
CONTINUOUS
 62
     3
 10
20721.693957456231
 20
19690.48399600001
 30
0.0
 11
20758.695119456221
 21
19690.48399600001
 31
0.0
  0
LINE
  5
C0D5
  8
2-0
  6
CONTINUOUS
 62
     3
 10
20721.693957456231
 20
19660.480433000001
 30
0.0
 11
20721.693957456231
 21
19690.48399600001
 31
0.0
  0
LINE
  5
C0D6
  8
2-0
  6
CONTINUOUS
 62
     3
 10
20727.69387845623
 20
19660.480433000001
 30
0.0
 11
20721.693957456231
 21
19660.480433000001
 31
0.0
  0
LINE
  5
C0D7
  8
2-0
  6
CONTINUOUS
 62
     3
 10
20711.596433456209
 20
19660.480433000001
 30
0.0
 11
20711.596433456209
 21
19690.48399600001
 31
0.0
  0
LINE
  5
C0D8
  8
2-0
  6
CONTINUOUS
 62
     3
 10
20729.60015445621
 20
19660.480433000001
 30
0.0
 11
20711.596433456209
 21
19660.480433000001
 31
0.0
  0
LINE
  5
C0D9
  8
2-0
  6
CONTINUOUS
 62
     3
 10
20729.60015445621
 20
19685.48967000001
 30
0.0
 11
20729.60015445621
 21
19660.480433000001
 31
0.0
  0
LINE
  5
C0DA
  8
2-0
  6
CONTINUOUS
 62
     3
 10
20724.5998904562
 20
19685.48967000001
 30
0.0
 11
20729.60015445621
 21
19685.48967000001
 31
0.0
  0
LINE
  5
C0DB
  8
2-0
  6
CONTINUOUS
 62
     3
 10
20724.5998904562
 20
19678.48415400002
 30
0.0
 11
20724.5998904562
 21
19685.48967000001
 31
0.0
  0
LINE
  5
C0DC
  8
2-0
  6
CONTINUOUS
 62
     3
 10
20755.789185456229
 20
19678.48415400002
 30
0.0
 11
20755.789185456229
 21
19685.48967000001
 31
0.0
  0
LINE
  5
C0DD
  8
2-0
  6
CONTINUOUS
 62
     3
 10
20755.789185456229
 20
19685.48967000001
 30
0.0
 11
20750.788921456209
 21
19685.48967000001
 31
0.0
  0
LINE
  5
C0DE
  8
2-0
  6
CONTINUOUS
 62
     3
 10
20750.788921456209
 20
19685.48967000001
 30
0.0
 11
20750.788921456209
 21
19660.480433000001
 31
0.0
  0
LINE
  5
C0DF
  8
2-0
  6
CONTINUOUS
 62
     3
 10
20750.788921456209
 20
19660.480433000001
 30
0.0
 11
20768.788684456209
 21
19660.480433000001
 31
0.0
  0
LINE
  5
C0E0
  8
2-0
  6
CONTINUOUS
 62
     3
 10
20768.788684456209
 20
19660.480433000001
 30
0.0
 11
20768.788684456209
 21
19690.48399600001
 31
0.0
  0
LINE
  5
C0E1
  8
2-0
  6
CONTINUOUS
 62
     3
 10
20752.6951984562
 20
19660.480433000001
 30
0.0
 11
20758.695119456221
 21
19660.480433000001
 31
0.0
  0
LINE
  5
C0E2
  8
2-0
  6
CONTINUOUS
 62
     3
 10
20758.695119456221
 20
19660.480433000001
 30
0.0
 11
20758.695119456221
 21
19690.48399600001
 31
0.0
  0
LINE
  5
C0E3
  8
2-0
  6
CONTINUOUS
 62
     3
 10
22126.60483995621
 20
19678.48415400002
 30
0.0
 11
22126.60483995621
 21
19685.48967000001
 31
0.0
  0
LINE
  5
C0E4
  8
2-0
  6
CONTINUOUS
 62
     3
 10
22126.60483995621
 20
19685.48967000001
 30
0.0
 11
22131.605103956212
 21
19685.48967000001
 31
0.0
  0
LINE
  5
C0E5
  8
2-0
  6
CONTINUOUS
 62
     3
 10
22131.605103956212
 20
19685.48967000001
 30
0.0
 11
22131.605103956212
 21
19660.480433000001
 31
0.0
  0
LINE
  5
C0E6
  8
2-0
  6
CONTINUOUS
 62
     3
 10
22131.605103956212
 20
19660.480433000001
 30
0.0
 11
22113.599402956221
 21
19660.480433000001
 31
0.0
  0
LINE
  5
C0E7
  8
2-0
  6
CONTINUOUS
 62
     3
 10
22113.599402956221
 20
19660.480433000001
 30
0.0
 11
22113.599402956221
 21
19690.48399600001
 31
0.0
  0
LINE
  5
C0E8
  8
2-0
  6
CONTINUOUS
 62
     3
 10
22129.696847956209
 20
19660.480433000001
 30
0.0
 11
22123.694947956232
 21
19660.480433000001
 31
0.0
  0
LINE
  5
C0E9
  8
2-0
  6
CONTINUOUS
 62
     3
 10
22123.694947956232
 20
19660.480433000001
 30
0.0
 11
22123.694947956232
 21
19690.48399600001
 31
0.0
  0
LINE
  5
C0EA
  8
2-0
  6
CONTINUOUS
 62
     3
 10
22160.694128956231
 20
19690.48399600001
 30
0.0
 11
22123.694947956232
 21
19690.48399600001
 31
0.0
  0
LINE
  5
C0EB
  8
2-0
  6
CONTINUOUS
 62
     3
 10
22160.694128956231
 20
19660.480433000001
 30
0.0
 11
22160.694128956231
 21
19690.48399600001
 31
0.0
  0
LINE
  5
C0EC
  8
2-0
  6
CONTINUOUS
 62
     3
 10
22154.700146956231
 20
19660.480433000001
 30
0.0
 11
22160.694128956231
 21
19660.480433000001
 31
0.0
  0
LINE
  5
C0ED
  8
2-0
  6
CONTINUOUS
 62
     3
 10
22170.789673956209
 20
19660.480433000001
 30
0.0
 11
22170.789673956209
 21
19690.48399600001
 31
0.0
  0
LINE
  5
C0EE
  8
2-0
  6
CONTINUOUS
 62
     3
 10
22152.793870956211
 20
19660.480433000001
 30
0.0
 11
22170.789673956209
 21
19660.480433000001
 31
0.0
  0
LINE
  5
C0EF
  8
2-0
  6
CONTINUOUS
 62
     3
 10
22152.793870956211
 20
19685.48967000001
 30
0.0
 11
22152.793870956211
 21
19660.480433000001
 31
0.0
  0
LINE
  5
C0F0
  8
2-0
  6
CONTINUOUS
 62
     3
 10
22157.794134956221
 20
19685.48967000001
 30
0.0
 11
22152.793870956211
 21
19685.48967000001
 31
0.0
  0
LINE
  5
C0F1
  8
2-0
  6
CONTINUOUS
 62
     3
 10
22157.794134956221
 20
19678.48415400002
 30
0.0
 11
22157.794134956221
 21
19685.48967000001
 31
0.0
  0
LINE
  5
C0F2
  8
2-0
  6
CONTINUOUS
 62
     3
 10
21456.795123956232
 20
19678.48415400002
 30
0.0
 11
21456.795123956232
 21
19685.48967000001
 31
0.0
  0
LINE
  5
C0F3
  8
2-0
  6
CONTINUOUS
 62
     3
 10
21456.795123956232
 20
19685.48967000001
 30
0.0
 11
21451.794860956212
 21
19685.48967000001
 31
0.0
  0
LINE
  5
C0F4
  8
2-0
  6
CONTINUOUS
 62
     3
 10
21451.794860956212
 20
19685.48967000001
 30
0.0
 11
21451.794860956212
 21
19660.480433000001
 31
0.0
  0
LINE
  5
C0F5
  8
2-0
  6
CONTINUOUS
 62
     3
 10
21451.794860956212
 20
19660.480433000001
 30
0.0
 11
21469.788683956231
 21
19660.480433000001
 31
0.0
  0
LINE
  5
C0F6
  8
2-0
  6
CONTINUOUS
 62
     3
 10
21469.788683956231
 20
19660.480433000001
 30
0.0
 11
21469.788683956231
 21
19690.48399600001
 31
0.0
  0
LINE
  5
C0F7
  8
2-0
  6
CONTINUOUS
 62
     3
 10
21453.69717795623
 20
19660.480433000001
 30
0.0
 11
21459.695118956231
 21
19660.480433000001
 31
0.0
  0
LINE
  5
C0F8
  8
2-0
  6
CONTINUOUS
 62
     3
 10
21459.695118956231
 20
19660.480433000001
 30
0.0
 11
21459.695118956231
 21
19690.48399600001
 31
0.0
  0
LINE
  5
C0F9
  8
2-0
  6
CONTINUOUS
 62
     3
 10
21422.693957956209
 20
19690.48399600001
 30
0.0
 11
21459.695118956231
 21
19690.48399600001
 31
0.0
  0
LINE
  5
C0FA
  8
2-0
  6
CONTINUOUS
 62
     3
 10
21422.693957956209
 20
19660.480433000001
 30
0.0
 11
21422.693957956209
 21
19690.48399600001
 31
0.0
  0
LINE
  5
C0FB
  8
2-0
  6
CONTINUOUS
 62
     3
 10
21428.699816956221
 20
19660.480433000001
 30
0.0
 11
21422.693957956209
 21
19660.480433000001
 31
0.0
  0
LINE
  5
C0FC
  8
2-0
  6
CONTINUOUS
 62
     3
 10
21412.600392956221
 20
19660.480433000001
 30
0.0
 11
21412.600392956221
 21
19690.48399600001
 31
0.0
  0
LINE
  5
C0FD
  8
2-0
  6
CONTINUOUS
 62
     3
 10
21430.596195956219
 20
19660.480433000001
 30
0.0
 11
21412.600392956221
 21
19660.480433000001
 31
0.0
  0
LINE
  5
C0FE
  8
2-0
  6
CONTINUOUS
 62
     3
 10
21430.596195956219
 20
19685.48967000001
 30
0.0
 11
21430.596195956219
 21
19660.480433000001
 31
0.0
  0
LINE
  5
C0FF
  8
2-0
  6
CONTINUOUS
 62
     3
 10
21425.605829956228
 20
19685.48967000001
 30
0.0
 11
21430.596195956219
 21
19685.48967000001
 31
0.0
  0
LINE
  5
C100
  8
2-0
  6
CONTINUOUS
 62
     3
 10
21425.605829956228
 20
19678.48415400002
 30
0.0
 11
21425.605829956228
 21
19685.48967000001
 31
0.0
  0
LINE
  5
C101
  8
2-0
  6
CONTINUOUS
 62
     3
 10
22113.599402956221
 20
19690.48399600001
 30
0.0
 11
21469.788683956231
 21
19690.48399600001
 31
0.0
  0
LINE
  5
C102
  8
2-0
  6
CONTINUOUS
 62
     3
 10
22817.389296456229
 20
19690.48399600001
 30
0.0
 11
22170.789673956209
 21
19690.48399600001
 31
0.0
  0
LINE
  5
C103
  8
2-0
  6
CONTINUOUS
 62
     3
 10
20064.310908456209
 20
19690.48399600001
 30
0.0
 11
20711.596433456209
 21
19690.48399600001
 31
0.0
  0
LINE
  5
C104
  8
2-0
  6
CONTINUOUS
 62
     3
 10
20768.788684456209
 20
19690.48399600001
 30
0.0
 11
21412.600392956221
 21
19690.48399600001
 31
0.0
  0
LINE
  5
C105
  8
2-0
  6
CONTINUOUS
 62
     3
 10
19939.696254456219
 20
15242.62514799999
 30
0.0
 11
19939.696254456219
 21
14598.586289999999
 31
0.0
  0
LINE
  5
C106
  8
2-0
  6
CONTINUOUS
 62
     3
 10
19939.696254456219
 20
14541.390079999999
 30
0.0
 11
19939.696254456219
 21
13897.586785
 31
0.0
  0
LINE
  5
C107
  8
0-6
  6
CONTINUOUS
 62
     6
 10
21709.059046956219
 20
18979.165767999999
 30
0.0
 11
20684.018796956199
 21
18979.165767999999
 31
0.0
  0
LINE
  5
C108
  8
0-6
  6
CONTINUOUS
 62
     6
 10
22008.983824956231
 20
19536.51902
 30
0.0
 11
22113.599402956221
 21
19660.480433000001
 31
0.0
  0
LINE
  5
C109
  8
0-6
  6
CONTINUOUS
 62
     6
 10
22113.599402956221
 20
19660.480433000001
 30
0.0
 11
22054.841352956199
 21
19509.288763000019
 31
0.0
  0
LINE
  5
C10A
  8
0-6
  6
CONTINUOUS
 62
     6
 10
22113.599402956221
 20
19660.480433000001
 30
0.0
 11
22008.983824956231
 21
19536.51902
 31
0.0
  0
LINE
  5
C10B
  8
0-6
  6
CONTINUOUS
 62
     6
 10
22008.983824956231
 20
19536.51902
 30
0.0
 11
22054.841352956199
 21
19509.288763000019
 31
0.0
  0
LINE
  5
C10C
  8
0-6
  6
CONTINUOUS
 62
     6
 10
22054.841352956199
 20
19509.288763000019
 30
0.0
 11
22113.599402956221
 21
19660.480433000001
 31
0.0
  0
LINE
  5
C10D
  8
0-6
  6
CONTINUOUS
 62
     6
 10
22054.841352956199
 20
19509.288763000019
 30
0.0
 11
22008.983824956231
 21
19536.51902
 31
0.0
  0
LINE
  5
C10E
  8
0-6
  6
CONTINUOUS
 62
     6
 10
22031.912588956198
 20
19522.90587100001
 30
0.0
 11
21709.059046956219
 21
18979.165767999999
 31
0.0
  0
TEXT
  5
C10F
  8
0-6
  6
CONTINUOUS
 62
     7
 10
20786.392116289549
 20
19059.16801200002
 30
0.0
 40
160.0
  1
間柱（後）
 72
     4
 11
21207.725449622882
 21
19139.16801200002
 31
0.0
  0
LINE
  5
C110
  8
SUNPOU
  6
CONTINUOUS
 62
     4
 10
22900.19453845622
 20
12755.722277000001
 30
0.0
 11
22900.19453845622
 21
12410.037627
 31
0.0
  0
LINE
  5
C111
  8
SUNPOU
  6
CONTINUOUS
 62
     4
 10
22942.696781456201
 20
13338.988416
 30
0.0
 11
22942.696781456201
 21
12410.037627
 31
0.0
  0
LINE
  5
C112
  8
SUNPOU
  6
CONTINUOUS
 62
     4
 10
22900.19453845622
 20
12490.037627
 30
0.0
 11
22660.19453845622
 21
12490.037627
 31
0.0
  0
LINE
  5
C113
  8
SUNPOU
  6
CONTINUOUS
 62
     4
 10
22942.696781456201
 20
12490.037627
 30
0.0
 11
23182.696781456201
 21
12490.037627
 31
0.0
  0
LINE
  5
C114
  8
SUNPOU
  6
CONTINUOUS
 62
     4
 10
22900.19453845622
 20
12490.037627
 30
0.0
 11
22942.696781456201
 21
12490.037627
 31
0.0
  0
LINE
  5
C115
  8
SUNPOU
  6
CONTINUOUS
 62
     4
 10
19982.19453845621
 20
12755.722277000001
 30
0.0
 11
19982.19453845621
 21
12410.037627
 31
0.0
  0
LINE
  5
C116
  8
SUNPOU
  6
CONTINUOUS
 62
     4
 10
19939.692295456211
 20
13338.988416
 30
0.0
 11
19939.692295456211
 21
12410.037627
 31
0.0
  0
LINE
  5
C117
  8
SUNPOU
  6
CONTINUOUS
 62
     4
 10
19982.19453845621
 20
12490.037627
 30
0.0
 11
20222.19453845621
 21
12490.037627
 31
0.0
  0
LINE
  5
C118
  8
SUNPOU
  6
CONTINUOUS
 62
     4
 10
19939.692295456211
 20
12490.037627
 30
0.0
 11
19699.6922954562
 21
12490.037627
 31
0.0
  0
LINE
  5
C119
  8
SUNPOU
  6
CONTINUOUS
 62
     4
 10
19982.19453845621
 20
12490.037627
 30
0.0
 11
19939.692295456211
 21
12490.037627
 31
0.0
  0
LINE
  5
C11A
  8
SUNPOU
  6
CONTINUOUS
 62
     4
 10
19982.19453845621
 20
12755.722277000001
 30
0.0
 11
19982.19453845621
 21
12410.037627
 31
0.0
  0
LINE
  5
C11B
  8
SUNPOU
  6
CONTINUOUS
 62
     4
 10
20024.696781456209
 20
13338.988416
 30
0.0
 11
20024.696781456209
 21
12410.037627
 31
0.0
  0
LINE
  5
C11C
  8
SUNPOU
  6
CONTINUOUS
 62
     4
 10
19982.19453845621
 20
12490.037627
 30
0.0
 11
19742.19453845621
 21
12490.037627
 31
0.0
  0
LINE
  5
C11D
  8
SUNPOU
  6
CONTINUOUS
 62
     4
 10
20024.696781456209
 20
12490.037627
 30
0.0
 11
20264.696781456209
 21
12490.037627
 31
0.0
  0
LINE
  5
C11E
  8
SUNPOU
  6
CONTINUOUS
 62
     4
 10
19982.19453845621
 20
12490.037627
 30
0.0
 11
20024.696781456209
 21
12490.037627
 31
0.0
  0
LINE
  5
C11F
  8
SUNPOU
  6
CONTINUOUS
 62
     4
 10
22900.19453845622
 20
12755.722277000001
 30
0.0
 11
22900.19453845622
 21
12410.037627
 31
0.0
  0
LINE
  5
C120
  8
SUNPOU
  6
CONTINUOUS
 62
     4
 10
22857.692295456221
 20
13338.988416
 30
0.0
 11
22857.692295456221
 21
12410.037627
 31
0.0
  0
LINE
  5
C121
  8
SUNPOU
  6
CONTINUOUS
 62
     4
 10
22900.19453845622
 20
12490.037627
 30
0.0
 11
23140.19453845622
 21
12490.037627
 31
0.0
  0
LINE
  5
C122
  8
SUNPOU
  6
CONTINUOUS
 62
     4
 10
22857.692295456221
 20
12490.037627
 30
0.0
 11
22617.692295456221
 21
12490.037627
 31
0.0
  0
LINE
  5
C123
  8
SUNPOU
  6
CONTINUOUS
 62
     4
 10
22900.19453845622
 20
12490.037627
 30
0.0
 11
22857.692295456221
 21
12490.037627
 31
0.0
  0
LINE
  5
C124
  8
SUNPOU
  6
CONTINUOUS
 62
     4
 10
22942.696781456201
 20
13338.988416
 30
0.0
 11
22942.696781456201
 21
12010.037627
 31
0.0
  0
LINE
  5
C125
  8
SUNPOU
  6
CONTINUOUS
 62
     4
 10
19939.692295456211
 20
13338.988416
 30
0.0
 11
19939.692295456211
 21
12010.037627
 31
0.0
  0
LINE
  5
C126
  8
SUNPOU
  6
CONTINUOUS
 62
     4
 10
22942.696781456201
 20
12090.037627
 30
0.0
 11
19939.692295456211
 21
12090.037627
 31
0.0
  0
LINE
  5
C127
  8
SUNPOU
  6
CONTINUOUS
 62
     4
 10
19859.696254456219
 20
13868.985710999999
 30
0.0
 11
18809.69493445622
 21
13868.985710999999
 31
0.0
  0
LINE
  5
C128
  8
SUNPOU
  6
CONTINUOUS
 62
     4
 10
19009.69493445622
 20
13461.485710999999
 30
0.0
 11
18809.69493445622
 21
13461.485710999999
 31
0.0
  0
LINE
  5
C129
  8
SUNPOU
  6
CONTINUOUS
 62
     4
 10
18889.69493445622
 20
13868.985710999999
 30
0.0
 11
18889.69493445622
 21
13461.485710999999
 31
0.0
  0
LINE
  5
C12A
  8
SUNPOU
  6
CONTINUOUS
 62
     4
 10
19859.696254456219
 20
14569.985710999999
 30
0.0
 11
18809.69493445622
 21
14569.985710999999
 31
0.0
  0
LINE
  5
C12B
  8
SUNPOU
  6
CONTINUOUS
 62
     4
 10
19859.696254456219
 20
13868.985710999999
 30
0.0
 11
18809.69493445622
 21
13868.985710999999
 31
0.0
  0
LINE
  5
C12C
  8
SUNPOU
  6
CONTINUOUS
 62
     4
 10
18889.69493445622
 20
14569.985710999999
 30
0.0
 11
18889.69493445622
 21
13868.985710999999
 31
0.0
  0
LINE
  5
C12D
  8
SUNPOU
  6
CONTINUOUS
 62
     4
 10
19859.696254456219
 20
15271.22622250001
 30
0.0
 11
18809.69493445622
 21
15271.22622250001
 31
0.0
  0
LINE
  5
C12E
  8
SUNPOU
  6
CONTINUOUS
 62
     4
 10
19859.696254456219
 20
14569.985710999999
 30
0.0
 11
18809.69493445622
 21
14569.985710999999
 31
0.0
  0
LINE
  5
C12F
  8
SUNPOU
  6
CONTINUOUS
 62
     4
 10
18889.69493445622
 20
15271.22622250001
 30
0.0
 11
18889.69493445622
 21
14569.985710999999
 31
0.0
  0
LINE
  5
C130
  8
SUNPOU
  6
CONTINUOUS
 62
     4
 10
19859.696254456219
 20
15971.985710999999
 30
0.0
 11
18809.69493445622
 21
15971.985710999999
 31
0.0
  0
LINE
  5
C131
  8
SUNPOU
  6
CONTINUOUS
 62
     4
 10
19859.696254456219
 20
15271.22622250001
 30
0.0
 11
18809.69493445622
 21
15271.22622250001
 31
0.0
  0
LINE
  5
C132
  8
SUNPOU
  6
CONTINUOUS
 62
     4
 10
18889.69493445622
 20
15971.985710999999
 30
0.0
 11
18889.69493445622
 21
15271.22622250001
 31
0.0
  0
LINE
  5
C133
  8
SUNPOU
  6
CONTINUOUS
 62
     4
 10
19009.69493445622
 20
16729.98571099999
 30
0.0
 11
18809.69493445622
 21
16729.98571099999
 31
0.0
  0
LINE
  5
C134
  8
SUNPOU
  6
CONTINUOUS
 62
     4
 10
19859.696254456219
 20
15971.985710999999
 30
0.0
 11
18809.69493445622
 21
15971.985710999999
 31
0.0
  0
LINE
  5
C135
  8
SUNPOU
  6
CONTINUOUS
 62
     4
 10
18889.69493445622
 20
16729.98571099999
 30
0.0
 11
18889.69493445622
 21
15971.985710999999
 31
0.0
  0
LINE
  5
C136
  8
SUNPOU
  6
CONTINUOUS
 62
     4
 10
19859.696254456219
 20
17487.98571099999
 30
0.0
 11
18809.69493445622
 21
17487.98571099999
 31
0.0
  0
LINE
  5
C137
  8
SUNPOU
  6
CONTINUOUS
 62
     4
 10
19009.69493445622
 20
16729.98571099999
 30
0.0
 11
18809.69493445622
 21
16729.98571099999
 31
0.0
  0
LINE
  5
C138
  8
SUNPOU
  6
CONTINUOUS
 62
     4
 10
18889.69493445622
 20
17487.98571099999
 30
0.0
 11
18889.69493445622
 21
16729.98571099999
 31
0.0
  0
LINE
  5
C139
  8
SUNPOU
  6
CONTINUOUS
 62
     4
 10
19859.696254456219
 20
18188.98571099999
 30
0.0
 11
18809.69493445622
 21
18188.98571099999
 31
0.0
  0
LINE
  5
C13A
  8
SUNPOU
  6
CONTINUOUS
 62
     4
 10
19859.696254456219
 20
17487.98571099999
 30
0.0
 11
18809.69493445622
 21
17487.98571099999
 31
0.0
  0
LINE
  5
C13B
  8
SUNPOU
  6
CONTINUOUS
 62
     4
 10
18889.69493445622
 20
18188.98571099999
 30
0.0
 11
18889.69493445622
 21
17487.98571099999
 31
0.0
  0
LINE
  5
C13C
  8
SUNPOU
  6
CONTINUOUS
 62
     4
 10
19859.696254456219
 20
18889.985711000001
 30
0.0
 11
18809.69493445622
 21
18889.98571099999
 31
0.0
  0
LINE
  5
C13D
  8
SUNPOU
  6
CONTINUOUS
 62
     4
 10
19859.696254456219
 20
18188.98571099999
 30
0.0
 11
18809.69493445622
 21
18188.98571099999
 31
0.0
  0
LINE
  5
C13E
  8
SUNPOU
  6
CONTINUOUS
 62
     4
 10
18889.69493445622
 20
18889.98571099999
 30
0.0
 11
18889.69493445622
 21
18188.98571099999
 31
0.0
  0
LINE
  5
C13F
  8
SUNPOU
  6
CONTINUOUS
 62
     4
 10
19009.69493445622
 20
19647.98571099999
 30
0.0
 11
18809.69493445622
 21
19647.98571099999
 31
0.0
  0
LINE
  5
C140
  8
SUNPOU
  6
CONTINUOUS
 62
     4
 10
19859.696254456219
 20
18889.985711000001
 30
0.0
 11
18809.69493445622
 21
18889.98571099999
 31
0.0
  0
LINE
  5
C141
  8
SUNPOU
  6
CONTINUOUS
 62
     4
 10
18889.69493445622
 20
19647.98571099999
 30
0.0
 11
18889.69493445622
 21
18889.98571099999
 31
0.0
  0
LINE
  5
C142
  8
SUNPOU
  6
CONTINUOUS
 62
     4
 10
19009.69493445622
 20
16729.98571099999
 30
0.0
 11
18809.69493445622
 21
16729.98571099999
 31
0.0
  0
LINE
  5
C143
  8
SUNPOU
  6
CONTINUOUS
 62
     4
 10
19009.69493445622
 20
19647.98571099999
 30
0.0
 11
18809.69493445622
 21
19647.98571099999
 31
0.0
  0
LINE
  5
C144
  8
SUNPOU
  6
CONTINUOUS
 62
     4
 10
19009.69493445622
 20
13461.485710999999
 30
0.0
 11
18809.69493445622
 21
13461.485710999999
 31
0.0
  0
LINE
  5
C145
  8
SUNPOU
  6
CONTINUOUS
 62
     4
 10
19859.696254456219
 20
19690.483005999999
 30
0.0
 11
18409.694934456209
 21
19690.48300599998
 31
0.0
  0
LINE
  5
C146
  8
SUNPOU
  6
CONTINUOUS
 62
     4
 10
19859.696254456219
 20
13418.988416
 30
0.0
 11
18409.694934456209
 21
13418.988416
 31
0.0
  0
LINE
  5
C147
  8
SUNPOU
  6
CONTINUOUS
 62
     4
 10
18489.69493445622
 20
19690.48300599998
 30
0.0
 11
18489.69493445622
 21
13418.988416
 31
0.0
  0
LINE
  5
C148
  8
SUNPOU
  6
CONTINUOUS
 62
     4
 10
19009.69493445622
 20
19647.98571099999
 30
0.0
 11
18809.69493445622
 21
19647.98571099999
 31
0.0
  0
LINE
  5
C149
  8
SUNPOU
  6
CONTINUOUS
 62
     4
 10
19859.696254456219
 20
19690.483005999999
 30
0.0
 11
18809.69493445622
 21
19690.48300599998
 31
0.0
  0
LINE
  5
C14A
  8
SUNPOU
  6
CONTINUOUS
 62
     4
 10
18889.69493445622
 20
19647.98571099999
 30
0.0
 11
18889.69493445622
 21
19407.98571099999
 31
0.0
  0
LINE
  5
C14B
  8
SUNPOU
  6
CONTINUOUS
 62
     4
 10
18889.69493445622
 20
19690.48300599998
 30
0.0
 11
18889.69493445622
 21
19930.48300599998
 31
0.0
  0
LINE
  5
C14C
  8
SUNPOU
  6
CONTINUOUS
 62
     4
 10
18889.69493445622
 20
19647.98571099999
 30
0.0
 11
18889.69493445622
 21
19690.48300599998
 31
0.0
  0
LINE
  5
C14D
  8
SUNPOU
  6
CONTINUOUS
 62
     4
 10
19009.69493445622
 20
13461.485710999999
 30
0.0
 11
18809.69493445622
 21
13461.485710999999
 31
0.0
  0
LINE
  5
C14E
  8
SUNPOU
  6
CONTINUOUS
 62
     4
 10
19859.696254456219
 20
13418.988416
 30
0.0
 11
18809.69493445622
 21
13418.988416
 31
0.0
  0
LINE
  5
C14F
  8
SUNPOU
  6
CONTINUOUS
 62
     4
 10
18889.69493445622
 20
13461.485710999999
 30
0.0
 11
18889.69493445622
 21
13701.485710999999
 31
0.0
  0
LINE
  5
C150
  8
SUNPOU
  6
CONTINUOUS
 62
     4
 10
18889.69493445622
 20
13418.988416
 30
0.0
 11
18889.69493445622
 21
13178.988416
 31
0.0
  0
LINE
  5
C151
  8
SUNPOU
  6
CONTINUOUS
 62
     4
 10
18889.69493445622
 20
13461.485710999999
 30
0.0
 11
18889.69493445622
 21
13418.988416
 31
0.0
  0
TEXT
  5
C152
  8
0
  6
CONTINUOUS
 62
     7
 10
18809.69493445622
 20
12845.432179603211
 30
0.0
 40
160.0
  1
42.5
 50
90.0
  0
TEXT
  5
C153
  8
0
  6
CONTINUOUS
 62
     7
 10
18809.69493445622
 20
19784.03924239679
 30
0.0
 40
160.0
  1
42.5
 50
90.0
  0
TEXT
  5
C154
  8
0
  6
CONTINUOUS
 62
     7
 10
18409.69493445622
 20
16181.402377666671
 30
0.0
 40
160.0
  1
6271.5
 50
90.0
  0
TEXT
  5
C155
  8
0
  6
CONTINUOUS
 62
     7
 10
18809.69493445622
 20
19055.652377666669
 30
0.0
 40
160.0
  1
758
 50
90.0
  0
TEXT
  5
C156
  8
0
  6
CONTINUOUS
 62
     7
 10
18809.69493445622
 20
18366.152377666662
 30
0.0
 40
160.0
  1
701
 50
90.0
  0
TEXT
  5
C157
  8
0
  6
CONTINUOUS
 62
     7
 10
18809.69493445622
 20
17665.152377666669
 30
0.0
 40
160.0
  1
701
 50
90.0
  0
TEXT
  5
C158
  8
0
  6
CONTINUOUS
 62
     7
 10
18809.69493445622
 20
16895.652377666669
 30
0.0
 40
160.0
  1
758
 50
90.0
  0
TEXT
  5
C159
  8
0
  6
CONTINUOUS
 62
     7
 10
18809.69493445622
 20
16137.652377666671
 30
0.0
 40
160.0
  1
758
 50
90.0
  0
TEXT
  5
C15A
  8
0
  6
CONTINUOUS
 62
     7
 10
18809.69493445622
 20
15448.27263341668
 30
0.0
 40
160.0
  1
701
 50
90.0
  0
TEXT
  5
C15B
  8
0
  6
CONTINUOUS
 62
     7
 10
18809.69493445622
 20
14747.27263341668
 30
0.0
 40
160.0
  1
701
 50
90.0
  0
TEXT
  5
C15C
  8
0
  6
CONTINUOUS
 62
     7
 10
19129.69493445622
 20
14046.152377666671
 30
0.0
 40
160.0
  1
701
 50
90.0
  0
TEXT
  5
C15D
  8
0
  6
CONTINUOUS
 62
     7
 10
18769.69493445622
 20
13534.30612520354
 30
0.0
 40
160.0
  1
407.5
 50
90.0
  0
TEXT
  5
C15E
  8
0
  6
CONTINUOUS
 62
     7
 10
21174.527871789542
 20
12170.037627
 30
0.0
 40
160.0
  1
3003
  0
TEXT
  5
C15F
  8
0
  6
CONTINUOUS
 62
     7
 10
22302.140866074122
 20
12570.037627
 30
0.0
 40
160.0
  1
42.5
  0
TEXT
  5
C160
  8
0
  6
CONTINUOUS
 62
     7
 10
20100.248210838308
 20
12570.037627
 30
0.0
 40
160.0
  1
42.5
  0
TEXT
  5
C161
  8
0
  6
CONTINUOUS
 62
     7
 10
19384.140866074122
 20
12570.037627
 30
0.0
 40
160.0
  1
42.5
  0
TEXT
  5
C162
  8
0
  6
CONTINUOUS
 62
     7
 10
23018.248210838308
 20
12570.037627
 30
0.0
 40
160.0
  1
42.5
  0
ARC
  5
C163
  8
0
  6
BYBLOCK
 62
     0
 10
22900.19453845622
 20
12490.037627
 30
0.0
 40
15.0
 50
0.0
 51
180.0
  0
ARC
  5
C164
  8
0
  6
BYBLOCK
 62
     0
 10
22900.19453845622
 20
12490.037627
 30
0.0
 40
15.0
 50
180.0
 51
0.0
  0
ARC
  5
C165
  8
0
  6
BYBLOCK
 62
     0
 10
22942.696781456201
 20
12490.037627
 30
0.0
 40
15.0
 50
180.0
 51
0.0
  0
ARC
  5
C166
  8
0
  6
BYBLOCK
 62
     0
 10
22942.696781456201
 20
12490.037627
 30
0.0
 40
15.0
 50
0.0
 51
180.0
  0
ARC
  5
C167
  8
0
  6
BYBLOCK
 62
     0
 10
19982.19453845621
 20
12490.037627
 30
0.0
 40
15.0
 50
180.0
 51
0.0
  0
ARC
  5
C168
  8
0
  6
BYBLOCK
 62
     0
 10
19982.19453845621
 20
12490.037627
 30
0.0
 40
15.0
 50
0.0
 51
180.0
  0
ARC
  5
C169
  8
0
  6
BYBLOCK
 62
     0
 10
19939.692295456211
 20
12490.037627
 30
0.0
 40
15.0
 50
0.0
 51
180.0
  0
ARC
  5
C16A
  8
0
  6
BYBLOCK
 62
     0
 10
19939.692295456211
 20
12490.037627
 30
0.0
 40
15.0
 50
180.0
 51
0.0
  0
ARC
  5
C16B
  8
0
  6
BYBLOCK
 62
     0
 10
19982.19453845621
 20
12490.037627
 30
0.0
 40
15.0
 50
0.0
 51
180.0
  0
ARC
  5
C16C
  8
0
  6
BYBLOCK
 62
     0
 10
19982.19453845621
 20
12490.037627
 30
0.0
 40
15.0
 50
180.0
 51
0.0
  0
ARC
  5
C16D
  8
0
  6
BYBLOCK
 62
     0
 10
20024.696781456209
 20
12490.037627
 30
0.0
 40
15.0
 50
180.0
 51
0.0
  0
ARC
  5
C16E
  8
0
  6
BYBLOCK
 62
     0
 10
20024.696781456209
 20
12490.037627
 30
0.0
 40
15.0
 50
0.0
 51
180.0
  0
ARC
  5
C16F
  8
0
  6
BYBLOCK
 62
     0
 10
22900.19453845622
 20
12490.037627
 30
0.0
 40
15.0
 50
180.0
 51
0.0
  0
ARC
  5
C170
  8
0
  6
BYBLOCK
 62
     0
 10
22900.19453845622
 20
12490.037627
 30
0.0
 40
15.0
 50
0.0
 51
180.0
  0
ARC
  5
C171
  8
0
  6
BYBLOCK
 62
     0
 10
22857.692295456221
 20
12490.037627
 30
0.0
 40
15.0
 50
0.0
 51
180.0
  0
ARC
  5
C172
  8
0
  6
BYBLOCK
 62
     0
 10
22857.692295456221
 20
12490.037627
 30
0.0
 40
15.0
 50
180.0
 51
0.0
  0
ARC
  5
C173
  8
0
  6
BYBLOCK
 62
     0
 10
22942.696781456201
 20
12090.037627
 30
0.0
 40
15.0
 50
0.0
 51
180.0
  0
ARC
  5
C174
  8
0
  6
BYBLOCK
 62
     0
 10
22942.696781456201
 20
12090.037627
 30
0.0
 40
15.0
 50
180.0
 51
0.0
  0
ARC
  5
C175
  8
0
  6
BYBLOCK
 62
     0
 10
19939.692295456211
 20
12090.037627
 30
0.0
 40
15.0
 50
180.0
 51
0.0
  0
ARC
  5
C176
  8
0
  6
BYBLOCK
 62
     0
 10
19939.692295456211
 20
12090.037627
 30
0.0
 40
15.0
 50
0.0
 51
180.0
  0
ARC
  5
C177
  8
0
  6
BYBLOCK
 62
     0
 10
18889.69493445622
 20
13868.985710999999
 30
0.0
 40
15.0
 50
90.0
 51
270.0
  0
ARC
  5
C178
  8
0
  6
BYBLOCK
 62
     0
 10
18889.69493445622
 20
13868.985710999999
 30
0.0
 40
15.0
 50
270.0
 51
90.0
  0
ARC
  5
C179
  8
0
  6
BYBLOCK
 62
     0
 10
18889.69493445622
 20
13461.485710999999
 30
0.0
 40
15.0
 50
270.0
 51
90.0
  0
ARC
  5
C17A
  8
0
  6
BYBLOCK
 62
     0
 10
18889.69493445622
 20
13461.485710999999
 30
0.0
 40
15.0
 50
90.0
 51
270.0
  0
ARC
  5
C17B
  8
0
  6
BYBLOCK
 62
     0
 10
18889.69493445622
 20
14569.985710999999
 30
0.0
 40
15.0
 50
90.0
 51
270.0
  0
ARC
  5
C17C
  8
0
  6
BYBLOCK
 62
     0
 10
18889.69493445622
 20
14569.985710999999
 30
0.0
 40
15.0
 50
270.0
 51
90.0
  0
ARC
  5
C17D
  8
0
  6
BYBLOCK
 62
     0
 10
18889.69493445622
 20
13868.985710999999
 30
0.0
 40
15.0
 50
270.0
 51
90.0
  0
ARC
  5
C17E
  8
0
  6
BYBLOCK
 62
     0
 10
18889.69493445622
 20
13868.985710999999
 30
0.0
 40
15.0
 50
90.0
 51
270.0
  0
ARC
  5
C17F
  8
0
  6
BYBLOCK
 62
     0
 10
18889.69493445622
 20
15271.22622250001
 30
0.0
 40
15.0
 50
90.0
 51
270.0
  0
ARC
  5
C180
  8
0
  6
BYBLOCK
 62
     0
 10
18889.69493445622
 20
15271.22622250001
 30
0.0
 40
15.0
 50
270.0
 51
90.0
  0
ARC
  5
C181
  8
0
  6
BYBLOCK
 62
     0
 10
18889.69493445622
 20
14569.985710999999
 30
0.0
 40
15.0
 50
270.0
 51
90.0
  0
ARC
  5
C182
  8
0
  6
BYBLOCK
 62
     0
 10
18889.69493445622
 20
14569.985710999999
 30
0.0
 40
15.0
 50
90.0
 51
270.0
  0
ARC
  5
C183
  8
0
  6
BYBLOCK
 62
     0
 10
18889.69493445622
 20
15971.985710999999
 30
0.0
 40
15.0
 50
90.0
 51
270.0
  0
ARC
  5
C184
  8
0
  6
BYBLOCK
 62
     0
 10
18889.69493445622
 20
15971.985710999999
 30
0.0
 40
15.0
 50
270.0
 51
90.0
  0
ARC
  5
C185
  8
0
  6
BYBLOCK
 62
     0
 10
18889.69493445622
 20
15271.22622250001
 30
0.0
 40
15.0
 50
270.0
 51
90.0
  0
ARC
  5
C186
  8
0
  6
BYBLOCK
 62
     0
 10
18889.69493445622
 20
15271.22622250001
 30
0.0
 40
15.0
 50
90.0
 51
270.0
  0
ARC
  5
C187
  8
0
  6
BYBLOCK
 62
     0
 10
18889.69493445622
 20
16729.98571099999
 30
0.0
 40
15.0
 50
90.0
 51
270.0
  0
ARC
  5
C188
  8
0
  6
BYBLOCK
 62
     0
 10
18889.69493445622
 20
16729.98571099999
 30
0.0
 40
15.0
 50
270.0
 51
90.0
  0
ARC
  5
C189
  8
0
  6
BYBLOCK
 62
     0
 10
18889.69493445622
 20
15971.985710999999
 30
0.0
 40
15.0
 50
270.0
 51
90.0
  0
ARC
  5
C18A
  8
0
  6
BYBLOCK
 62
     0
 10
18889.69493445622
 20
15971.985710999999
 30
0.0
 40
15.0
 50
90.0
 51
270.0
  0
ARC
  5
C18B
  8
0
  6
BYBLOCK
 62
     0
 10
18889.69493445622
 20
17487.98571099999
 30
0.0
 40
15.0
 50
90.0
 51
270.0
  0
ARC
  5
C18C
  8
0
  6
BYBLOCK
 62
     0
 10
18889.69493445622
 20
17487.98571099999
 30
0.0
 40
15.0
 50
270.0
 51
90.0
  0
ARC
  5
C18D
  8
0
  6
BYBLOCK
 62
     0
 10
18889.69493445622
 20
16729.98571099999
 30
0.0
 40
15.0
 50
270.0
 51
90.0
  0
ARC
  5
C18E
  8
0
  6
BYBLOCK
 62
     0
 10
18889.69493445622
 20
16729.98571099999
 30
0.0
 40
15.0
 50
90.0
 51
270.0
  0
ARC
  5
C18F
  8
0
  6
BYBLOCK
 62
     0
 10
18889.69493445622
 20
18188.98571099999
 30
0.0
 40
15.0
 50
90.0
 51
270.0
  0
ARC
  5
C190
  8
0
  6
BYBLOCK
 62
     0
 10
18889.69493445622
 20
18188.98571099999
 30
0.0
 40
15.0
 50
270.0
 51
90.0
  0
ARC
  5
C191
  8
0
  6
BYBLOCK
 62
     0
 10
18889.69493445622
 20
17487.98571099999
 30
0.0
 40
15.0
 50
270.0
 51
90.0
  0
ARC
  5
C192
  8
0
  6
BYBLOCK
 62
     0
 10
18889.69493445622
 20
17487.98571099999
 30
0.0
 40
15.0
 50
90.0
 51
270.0
  0
ARC
  5
C193
  8
0
  6
BYBLOCK
 62
     0
 10
18889.69493445622
 20
18889.98571099999
 30
0.0
 40
15.0
 50
90.0
 51
270.0
  0
ARC
  5
C194
  8
0
  6
BYBLOCK
 62
     0
 10
18889.69493445622
 20
18889.98571099999
 30
0.0
 40
15.0
 50
270.0
 51
90.0
  0
ARC
  5
C195
  8
0
  6
BYBLOCK
 62
     0
 10
18889.69493445622
 20
18188.98571099999
 30
0.0
 40
15.0
 50
270.0
 51
90.0
  0
ARC
  5
C196
  8
0
  6
BYBLOCK
 62
     0
 10
18889.69493445622
 20
18188.98571099999
 30
0.0
 40
15.0
 50
90.0
 51
270.0
  0
ARC
  5
C197
  8
0
  6
BYBLOCK
 62
     0
 10
18889.69493445622
 20
19647.98571099999
 30
0.0
 40
15.0
 50
90.0
 51
270.0
  0
ARC
  5
C198
  8
0
  6
BYBLOCK
 62
     0
 10
18889.69493445622
 20
19647.98571099999
 30
0.0
 40
15.0
 50
270.0
 51
90.0
  0
ARC
  5
C199
  8
0
  6
BYBLOCK
 62
     0
 10
18889.69493445622
 20
18889.98571099999
 30
0.0
 40
15.0
 50
270.0
 51
90.0
  0
ARC
  5
C19A
  8
0
  6
BYBLOCK
 62
     0
 10
18889.69493445622
 20
18889.98571099999
 30
0.0
 40
15.0
 50
90.0
 51
270.0
  0
ARC
  5
C19B
  8
0
  6
BYBLOCK
 62
     0
 10
18889.69493445622
 20
19647.98571099999
 30
0.0
 40
15.0
 50
90.0
 51
270.0
  0
ARC
  5
C19C
  8
0
  6
BYBLOCK
 62
     0
 10
18889.69493445622
 20
19647.98571099999
 30
0.0
 40
15.0
 50
270.0
 51
90.0
  0
ARC
  5
C19D
  8
0
  6
BYBLOCK
 62
     0
 10
18889.69493445622
 20
13461.485710999999
 30
0.0
 40
15.0
 50
270.0
 51
90.0
  0
ARC
  5
C19E
  8
0
  6
BYBLOCK
 62
     0
 10
18889.69493445622
 20
13461.485710999999
 30
0.0
 40
15.0
 50
90.0
 51
270.0
  0
ARC
  5
C19F
  8
0
  6
BYBLOCK
 62
     0
 10
18489.69493445622
 20
19690.48300599998
 30
0.0
 40
15.0
 50
90.0
 51
270.0
  0
ARC
  5
C1A0
  8
0
  6
BYBLOCK
 62
     0
 10
18489.69493445622
 20
19690.48300599998
 30
0.0
 40
15.0
 50
270.0
 51
90.0
  0
ARC
  5
C1A1
  8
0
  6
BYBLOCK
 62
     0
 10
18489.69493445622
 20
13418.988416
 30
0.0
 40
15.0
 50
270.0
 51
90.0
  0
ARC
  5
C1A2
  8
0
  6
BYBLOCK
 62
     0
 10
18489.69493445622
 20
13418.988416
 30
0.0
 40
15.0
 50
90.0
 51
270.0
  0
ARC
  5
C1A3
  8
0
  6
BYBLOCK
 62
     0
 10
18889.69493445622
 20
19647.98571099999
 30
0.0
 40
15.0
 50
90.0
 51
270.0
  0
ARC
  5
C1A4
  8
0
  6
BYBLOCK
 62
     0
 10
18889.69493445622
 20
19647.98571099999
 30
0.0
 40
15.0
 50
270.0
 51
90.0
  0
ARC
  5
C1A5
  8
0
  6
BYBLOCK
 62
     0
 10
18889.69493445622
 20
19690.48300599998
 30
0.0
 40
15.0
 50
270.0
 51
90.0
  0
ARC
  5
C1A6
  8
0
  6
BYBLOCK
 62
     0
 10
18889.69493445622
 20
19690.48300599998
 30
0.0
 40
15.0
 50
90.0
 51
270.0
  0
ARC
  5
C1A7
  8
0
  6
BYBLOCK
 62
     0
 10
18889.69493445622
 20
13461.485710999999
 30
0.0
 40
15.0
 50
270.0
 51
90.0
  0
ARC
  5
C1A8
  8
0
  6
BYBLOCK
 62
     0
 10
18889.69493445622
 20
13461.485710999999
 30
0.0
 40
15.0
 50
90.0
 51
270.0
  0
ARC
  5
C1A9
  8
0
  6
BYBLOCK
 62
     0
 10
18889.69493445622
 20
13418.988416
 30
0.0
 40
15.0
 50
90.0
 51
270.0
  0
ARC
  5
C1AA
  8
0
  6
BYBLOCK
 62
     0
 10
18889.69493445622
 20
13418.988416
 30
0.0
 40
15.0
 50
270.0
 51
90.0
  0
LINE
  5
C1AB
  8
2-0
  6
CENTER2
 62
     6
 10
22900.194538456231
 20
21290.487954000011
 30
0.0
 11
22900.194538456231
 21
12298.986700999991
 31
0.0
  0
LINE
  5
C1AE
  8
2-0
  6
CENTER2
 62
     6
 10
19982.194538456231
 20
21290.487954000011
 30
0.0
 11
19982.194538456231
 21
12298.986700999991
 31
0.0
  0
TEXT
  5
C2B7
  8
FILENAME
  6
CONTINUOUS
 10
26480.19047619047
 20
348.0
 30
0.0
 40
200.0
  1
＜VGC-3062+VKC-2862-R-1-A_0.DXF ＞
  7
FILENAME
 72
     2
 11
32764.0
 21
348.0
 31
0.0
  0
LINE
  5
C2BC
  8
WAKUSEN-01
 10
868.00000000000193
 20
827.99999999999955
 30
0.0
 11
32764.000000000011
 21
827.99999999999943
 31
0.0
  0
LINE
  5
C2BD
  8
WAKUSEN-01
 10
868.00000000000193
 20
827.99999999999955
 30
0.0
 11
868.00000000000193
 21
22484.000000000011
 31
0.0
  0
LINE
  5
C2BE
  8
WAKUSEN-01
 10
32764.000000000011
 20
827.99999999999943
 30
0.0
 11
32764.000000000011
 21
22484.000000000011
 31
0.0
  0
LINE
  5
C2BF
  8
WAKUSEN-01
 10
20560.0
 20
827.99999999999716
 30
0.0
 11
20560.0
 21
2484.0
 31
0.0
  0
LINE
  5
C2C0
  8
WAKUSEN-02
 10
26868.0
 20
827.99999999999261
 30
0.0
 11
26868.0
 21
2484.0
 31
0.0
  0
ENDSEC
  0
EOF
