  0
SECTION
  2
HEADER
  9
$ACADVER
  1
AC1009
  9
$INSBASE
 10
0.0
 20
0.0
 30
0.0
  9
$EXTMIN
 10
867.99324330406671
 20
327.38164749855792
 30
-0.0000000000112498
  9
$EXTMAX
 10
32765.33210850941
 20
22484.553276491992
 30
0.0000000000002956
  9
$LIMMIN
 10
0.0
 20
0.0
  9
$LIMMAX
 10
33600.0
 20
23760.0
  9
$ORTHOMODE
 70
     1
  9
$REGENMODE
 70
     1
  9
$FILLMODE
 70
     1
  9
$QTEXTMODE
 70
     0
  9
$MIRRTEXT
 70
     1
  9
$DRAGMODE
 70
     2
  9
$LTSCALE
 40
80.0
  9
$OSMODE
 70
  3071
  9
$ATTMODE
 70
     1
  9
$TEXTSIZE
 40
0.2
  9
$TRACEWID
 40
0.05
  9
$TEXTSTYLE
  7
00
  9
$CLAYER
  8
0
  9
$CELTYPE
  6
BYLAYER
  9
$CECOLOR
 62
   256
  9
$DIMSCALE
 40
80.0
  9
$DIMASZ
 40
3.0
  9
$DIMEXO
 40
1.0
  9
$DIMDLI
 40
0.38
  9
$DIMRND
 40
0.5
  9
$DIMDLE
 40
0.0
  9
$DIMEXE
 40
1.0
  9
$DIMTP
 40
0.0
  9
$DIMTM
 40
0.0
  9
$DIMTXT
 40
2.0
  9
$DIMCEN
 40
0.09
  9
$DIMTSZ
 40
0.0
  9
$DIMTOL
 70
     0
  9
$DIMLIM
 70
     0
  9
$DIMTIH
 70
     0
  9
$DIMTOH
 70
     0
  9
$DIMSE1
 70
     0
  9
$DIMSE2
 70
     0
  9
$DIMTAD
 70
     1
  9
$DIMZIN
 70
     8
  9
$DIMBLK
  1
DOTSMALL
  9
$DIMASO
 70
     1
  9
$DIMSHO
 70
     1
  9
$DIMPOST
  1

  9
$DIMAPOST
  1

  9
$DIMALT
 70
     0
  9
$DIMALTD
 70
     2
  9
$DIMALTF
 40
25.399999999999999
  9
$DIMLFAC
 40
1.0
  9
$DIMTOFL
 70
     1
  9
$DIMTVP
 40
0.0
  9
$DIMTIX
 70
     0
  9
$DIMSOXD
 70
     0
  9
$DIMSAH
 70
     0
  9
$DIMBLK1
  1

  9
$DIMBLK2
  1

  9
$DIMSTYLE
  2
SUNPOU
  9
$DIMCLRD
 70
     4
  9
$DIMCLRE
 70
     4
  9
$DIMCLRT
 70
     7
  9
$DIMTFAC
 40
1.0
  9
$DIMGAP
 40
1.0
  9
$LUNITS
 70
     2
  9
$LUPREC
 70
     4
  9
$SKETCHINC
 40
0.1
  9
$FILLETRAD
 40
0.0
  9
$AUNITS
 70
     0
  9
$AUPREC
 70
     0
  9
$MENU
  1
acad
  9
$ELEVATION
 40
0.0
  9
$PELEVATION
 40
0.0
  9
$THICKNESS
 40
0.0
  9
$LIMCHECK
 70
     0
  9
$BLIPMODE
 70
     1
  9
$CHAMFERA
 40
0.0
  9
$CHAMFERB
 40
0.0
  9
$SKPOLY
 70
     0
  9
$TDCREATE
 40
2311940.075052408
  9
$TDUPDATE
 40
2458942.4548845491
  9
$TDINDWG
 40
0.336885
  9
$TDUSRTIMER
 40
0.3368844907
  9
$USRTIMER
 70
     1
  9
$ANGBASE
 50
0.0
  9
$ANGDIR
 70
     0
  9
$PDMODE
 70
     0
  9
$PDSIZE
 40
0.0
  9
$PLINEWID
 40
0.0
  9
$COORDS
 70
     1
  9
$SPLFRAME
 70
     0
  9
$SPLINETYPE
 70
     6
  9
$SPLINESEGS
 70
     8
  9
$ATTDIA
 70
     1
  9
$ATTREQ
 70
     1
  9
$HANDLING
 70
     1
  9
$HANDSEED
  5
BB6C
  9
$SURFTAB1
 70
     6
  9
$SURFTAB2
 70
     6
  9
$SURFTYPE
 70
     6
  9
$SURFU
 70
     6
  9
$SURFV
 70
     6
  9
$UCSNAME
  2

  9
$UCSORG
 10
0.0
 20
0.0
 30
0.0
  9
$UCSXDIR
 10
1.0
 20
0.0
 30
0.0
  9
$UCSYDIR
 10
0.0
 20
1.0
 30
0.0
  9
$PUCSNAME
  2

  9
$PUCSORG
 10
0.0
 20
0.0
 30
0.0
  9
$PUCSXDIR
 10
1.0
 20
0.0
 30
0.0
  9
$PUCSYDIR
 10
0.0
 20
1.0
 30
0.0
  9
$USERI1
 70
     0
  9
$USERI2
 70
     0
  9
$USERI3
 70
     0
  9
$USERI4
 70
     0
  9
$USERI5
 70
     0
  9
$USERR1
 40
0.0
  9
$USERR2
 40
0.0
  9
$USERR3
 40
0.0
  9
$USERR4
 40
0.0
  9
$USERR5
 40
0.0
  9
$WORLDVIEW
 70
     1
  9
$SHADEDGE
 70
     3
  9
$SHADEDIF
 70
    70
  9
$TILEMODE
 70
     1
  9
$MAXACTVP
 70
    16
  9
$PLIMCHECK
 70
     0
  9
$PEXTMIN
 10
1.0000000000000000E+020
 20
1.0000000000000000E+020
 30
1.0000000000000000E+020
  9
$PEXTMAX
 10
-1.0000000000000000E+020
 20
-1.0000000000000000E+020
 30
-1.0000000000000000E+020
  9
$PLIMMIN
 10
0.0
 20
0.0
  9
$PLIMMAX
 10
12.0
 20
9.0
  9
$UNITMODE
 70
     0
  9
$VISRETAIN
 70
     0
  9
$PLINEGEN
 70
     1
  9
$PSLTSCALE
 70
     0
  0
ENDSEC
  0
SECTION
  2
TABLES
  0
TABLE
  2
VPORT
 70
     1
  0
VPORT
  2
*ACTIVE
 70
     0
 10
0.0
 20
0.0
 11
1.0
 21
1.0
 12
16800.0
 22
11880.0
 13
0.0
 23
0.0
 14
1.0
 24
1.0
 15
0.0
 25
0.0
 16
0.0
 26
0.0
 36
1.0
 17
0.0
 27
0.0
 37
0.0
 40
23981.023255813951
 41
2.195652173913043
 42
50.0
 43
0.0
 44
0.0
 50
0.0
 51
0.0
 71
     0
 72
 10000
 73
     1
 74
     1
 75
     0
 76
     0
 77
     0
 78
     1
  0
ENDTAB
  0
TABLE
  2
LTYPE
 70
     6
  0
LTYPE
  2
CONTINUOUS
 70
     0
  3
Solid line
 72
    65
 73
     0
 40
0.0
  0
LTYPE
  2
DASHED3
 70
     0
  3
------  ------  ------  ------  
 72
    65
 73
     2
 40
5.0
 49
3.75
 49
-1.25
  0
LTYPE
  2
CENTER2
 70
     0
  3
----------  --  ----------  --  
 72
    65
 73
     4
 40
20.0
 49
12.5
 49
-2.5
 49
2.5
 49
-2.5
  0
LTYPE
  2
HIDE-M
 70
     0
  3

 72
    65
 73
     2
 40
2.0
 49
1.0
 49
-1.0
  0
LTYPE
  2
1PL-M
 70
     0
  3

 72
    65
 73
     4
 40
15.0
 49
12.0
 49
-1.0
 49
1.0
 49
-1.0
  0
LTYPE
  2
PHANTOM2
 70
     0
  3
___ _ _ ___ _ _ ___ _ _ ___ _ _
 72
    65
 73
     6
 40
1.25
 49
0.625
 49
-0.125
 49
0.125
 49
-0.125
 49
0.125
 49
-0.125
  0
ENDTAB
  0
TABLE
  2
LAYER
 70
    24
  0
LAYER
  2
0
 70
     0
 62
     7
  6
CONTINUOUS
  0
LAYER
  2
SUNPOU
 70
     0
 62
     4
  6
CONTINUOUS
  0
LAYER
  2
0-1
 70
     0
 62
     7
  6
CONTINUOUS
  0
LAYER
  2
0-2
 70
     0
 62
     7
  6
CONTINUOUS
  0
LAYER
  2
0-5
 70
     0
 62
     7
  6
CONTINUOUS
  0
LAYER
  2
0-6
 70
     0
 62
     7
  6
CONTINUOUS
  0
LAYER
  2
2-0
 70
     0
 62
     7
  6
CONTINUOUS
  0
LAYER
  2
0-8
 70
     0
 62
     7
  6
CONTINUOUS
  0
LAYER
  2
YODOROGO
 70
     0
 62
   130
  6
CONTINUOUS
  0
LAYER
  2
WAKUSEN-01
 70
     0
 62
    50
  6
CONTINUOUS
  0
LAYER
  2
WAKUSEN-02
 70
     0
 62
   130
  6
CONTINUOUS
  0
LAYER
  2
WAKUMOJI-01
 70
     0
 62
   130
  6
CONTINUOUS
  0
LAYER
  2
FILENAME
 70
     0
 62
     7
  6
CONTINUOUS
  0
LAYER
  2
NAME
 70
     0
 62
    20
  6
CONTINUOUS
  0
LAYER
  2
0-4
 70
     0
 62
     7
  6
CONTINUOUS
  0
LAYER
  2
1-前柱P
 70
     0
 62
     3
  6
CONTINUOUS
  0
LAYER
  2
1-前柱カバ-P
 70
     0
 62
     3
  6
CONTINUOUS
  0
LAYER
  2
1-桁前P28
 70
     0
 62
     3
  6
CONTINUOUS
  0
LAYER
  2
1-後柱P
 70
     0
 62
     3
  6
CONTINUOUS
  0
LAYER
  2
1-中柱P
 70
     0
 62
     3
  6
CONTINUOUS
  0
LAYER
  2
1-後柱カバ-P
 70
     0
 62
     7
  6
CONTINUOUS
  0
LAYER
  2
1-中柱カバ-P
 70
     0
 62
     7
  6
CONTINUOUS
  0
ENDTAB
  0
TABLE
  2
STYLE
 70
     5
  0
STYLE
  2
STANDARD
 70
     0
 40
0.0
 41
1.0
 50
0.0
 71
     0
 42
0.0
  3
txt
  4
BIGFONT
  0
STYLE
  2
00
 70
     0
 40
0.0
 41
0.6666666666666666
 50
0.0
 71
     0
 42
0.2
  3
ROMANS
  4
BIGFONT
  0
STYLE
  2
01
 70
     0
 40
3.0
 41
1.0
 50
0.0
 71
     0
 42
0.2
  3
ROMANS
  4
BIGFONT
  0
STYLE
  2
WAKUMOJI
 70
     0
 40
3.0
 41
1.0
 50
0.0
 71
     0
 42
3.0
  3
SIMPLEX
  4
BIGFONT
  0
STYLE
  2
FILENAME
 70
     0
 40
200.0
 41
1.0
 50
0.0
 71
     0
 42
200.0
  3
romans
  4
bigfont
  0
ENDTAB
  0
TABLE
  2
VIEW
 70
     0
  0
ENDTAB
  0
TABLE
  2
UCS
 70
     0
  0
ENDTAB
  0
TABLE
  2
APPID
 70
    17
  0
APPID
  2
ACAD
 70
     0
  0
APPID
  2
ACADANNOTATIVE
 70
     0
  0
APPID
  2
ACAD_PSEXT
 70
     0
  0
APPID
  2
DCO15
 70
     0
  0
APPID
  2
ACAD_MLEADERVER
 70
     0
  0
APPID
  2
AUTOCAD_POSTSCRIPT_FIGURE
 70
     0
  0
APPID
  2
ACAD_EXEMPT_FROM_CAD_STANDARDS
 70
     0
  0
APPID
  2
ACLAYERTOOLS
 70
     0
  0
APPID
  2
ACAD_DSTYLE_DIMJAG
 70
     0
  0
APPID
  2
ACAD_DSTYLE_DIMTALN
 70
     0
  0
APPID
  2
ACAECLAYERSTANDARD
 70
     0
  0
APPID
  2
ACAD_DSTYLE_DIMBREAK
 70
     0
  0
APPID
  2
ACAD_DSTYLE_DIM_LINETYPE
 70
     0
  0
APPID
  2
ACAD_DSTYLE_DIM_EXT1_LINETYPE
 70
     0
  0
APPID
  2
ACAD_DSTYLE_DIM_EXT2_LINETYPE
 70
     0
  0
APPID
  2
ACAD_DSTYLE_DIMFLIPARROW_W
 70
     0
  0
APPID
  2
ACAD_NAV_VCDISPLAY
 70
     0
  0
ENDTAB
  0
TABLE
  2
DIMSTYLE
 70
     2
  0
DIMSTYLE
  2
SUNPOU
 70
     0
  3

  4

  5

  6

  7

 40
80.0
 41
3.0
 42
1.0
 43
0.38
 44
1.0
 45
0.5
 46
0.0
 47
0.0
 48
0.0
140
2.0
141
0.09
142
0.0
143
25.399999999999999
144
1.0
145
0.0
146
1.0
147
1.0
 71
     0
 72
     0
 73
     0
 74
     0
 75
     0
 76
     0
 77
     1
 78
     8
170
     0
171
     2
172
     1
173
     0
174
     0
175
     0
176
     4
177
     4
178
     7
  0
ENDTAB
  0
ENDSEC
  0
SECTION
  2
BLOCKS
  0
BLOCK
  8
0
  2
$MODEL_SPACE
 70
     0
 10
0.0
 20
0.0
 30
0.0
  3
$MODEL_SPACE
  1

  0
ENDBLK
  5
AAC7
  8
0
  0
BLOCK
 67
     1
  8
0
  2
$PAPER_SPACE
 70
     0
 10
0.0
 20
0.0
 30
0.0
  3
$PAPER_SPACE
  1

  0
ENDBLK
  5
AAC3
 67
     1
  8
0
  0
BLOCK
  8
0
  2
_DOTSMALL
 70
     0
 10
0.0
 20
0.0
 30
0.0
  3
_DOTSMALL
  1

  0
POLYLINE
  5
AB03
  8
0
  6
BYBLOCK
 62
     0
 66
     1
 10
0.0
 20
0.0
 30
0.0
 70
     1
 40
0.5
 41
0.5
  0
VERTEX
  5
BB34
  8
0
  6
BYBLOCK
 62
     0
 10
-0.0625
 20
0.0
 30
0.0
 42
1.0
  0
VERTEX
  5
BB35
  8
0
  6
BYBLOCK
 62
     0
 10
0.0625
 20
0.0
 30
0.0
 42
1.0
  0
SEQEND
  5
BB36
  8
0
  6
BYBLOCK
 62
     0
  0
ENDBLK
  5
AB07
  8
0
  0
ENDSEC
  0
SECTION
  2
ENTITIES
  0
LINE
  5
AB08
  8
0-1
  6
CONTINUOUS
 62
     3
 10
19125.50683358515
 20
8132.6883740000021
 30
0.0
 11
21958.510264585151
 21
8132.6883740000021
 31
0.0
  0
LINE
  5
AB09
  8
0-1
  6
CONTINUOUS
 62
     3
 10
19125.50683358515
 20
8326.1887430000024
 30
0.0
 11
21958.510264585151
 21
8326.1887430000024
 31
0.0
  0
LINE
  5
AB0A
  8
0-1
  6
CONTINUOUS
 62
     3
 10
18997.51052858515
 20
8264.0026620000008
 30
0.0
 11
18997.51052858515
 21
8589.6883999999973
 31
0.0
  0
LINE
  5
AB0B
  8
0-1
  6
CONTINUOUS
 62
     3
 10
22043.508813585151
 20
8459.6884660000014
 30
0.0
 11
18997.51052858515
 21
8459.6884660000014
 31
0.0
  0
LINE
  5
AB0C
  8
0-1
  6
CONTINUOUS
 62
     3
 10
18997.51052858515
 20
8589.6883999999973
 30
0.0
 11
22023.511716585152
 21
8589.6883999999973
 31
0.0
  0
LINE
  5
AB0D
  8
0-1
  6
CONTINUOUS
 62
     3
 10
6612.7335314709408
 20
6291.1885390000007
 30
0.0
 11
6612.7335314709408
 21
8152.234418
 31
0.0
  0
LINE
  5
AB0E
  8
0-1
  6
CONTINUOUS
 62
     3
 10
6632.7345874709363
 20
6291.1885390000007
 30
0.0
 11
6632.7345874709363
 21
8152.234418
 31
0.0
  0
LINE
  5
AB0F
  8
0-1
  6
CONTINUOUS
 62
     3
 10
6562.7338614709488
 20
6291.1885390000007
 30
0.0
 11
6562.7338614709488
 21
8152.234418
 31
0.0
  0
LINE
  5
AB10
  8
0-1
  6
CONTINUOUS
 62
     3
 10
6682.7332674709432
 20
6291.1885390000007
 30
0.0
 11
6682.7332674709432
 21
8152.234418
 31
0.0
  0
LINE
  5
AB11
  8
0-1
  6
CONTINUOUS
 62
     3
 10
6815.7341514709333
 20
6291.1885390000007
 30
0.0
 11
6815.7341514709333
 21
8152.234418
 31
0.0
  0
LINE
  5
AB12
  8
0-1
  6
CONTINUOUS
 62
     3
 10
6830.7339534709436
 20
6291.1885390000007
 30
0.0
 11
6830.7339534709436
 21
8152.234418
 31
0.0
  0
LINE
  5
AB13
  8
0-1
  6
CONTINUOUS
 62
     3
 10
6429.7339664709443
 20
6291.1885390000007
 30
0.0
 11
6429.7339664709443
 21
8152.234418
 31
0.0
  0
LINE
  5
AB14
  8
0-1
  6
CONTINUOUS
 62
     3
 10
6414.7341644709459
 20
6291.1885390000007
 30
0.0
 11
6414.7341644709459
 21
8152.234418
 31
0.0
  0
LINE
  5
AB15
  8
0-1
  6
CONTINUOUS
 62
     3
 10
7691.2336504709447
 20
8152.234418
 30
0.0
 11
7691.2336504709447
 21
6291.1885390000007
 31
0.0
  0
LINE
  5
AB16
  8
0-1
  6
CONTINUOUS
 62
     3
 10
7654.2354584709419
 20
8152.234418
 30
0.0
 11
7654.2354584709419
 21
6291.1885390000007
 31
0.0
  0
LINE
  5
AB17
  8
0-1
  6
CONTINUOUS
 62
     3
 10
6991.234309470944
 20
8152.234418
 30
0.0
 11
6991.234309470944
 21
6291.1885390000007
 31
0.0
  0
LINE
  5
AB18
  8
0-1
  6
CONTINUOUS
 62
     3
 10
6954.2341384709289
 20
8152.234418
 30
0.0
 11
6954.2341384709289
 21
6291.1885390000007
 31
0.0
  0
LINE
  5
AB19
  8
0-1
  6
CONTINUOUS
 62
     3
 10
8391.2329904709331
 20
8152.234418
 30
0.0
 11
8391.2329904709331
 21
6291.1885390000007
 31
0.0
  0
LINE
  5
AB1A
  8
0-1
  6
CONTINUOUS
 62
     3
 10
8354.2347984709304
 20
8152.234418
 30
0.0
 11
8354.2347984709304
 21
6291.1885390000007
 31
0.0
  0
LINE
  5
AB1B
  8
0-1
  6
CONTINUOUS
 62
     3
 10
8012.7332014709327
 20
6291.1885390000007
 30
0.0
 11
8012.7332014709327
 21
8152.234418
 31
0.0
  0
LINE
  5
AB1C
  8
0-1
  6
CONTINUOUS
 62
     3
 10
8032.7342574709428
 20
6291.1885390000007
 30
0.0
 11
8032.7342574709428
 21
8152.234418
 31
0.0
  0
LINE
  5
AB1D
  8
0-1
  6
CONTINUOUS
 62
     3
 10
7962.7345214709421
 20
6291.1885390000007
 30
0.0
 11
7962.7345214709421
 21
8152.234418
 31
0.0
  0
LINE
  5
AB1E
  8
0-1
  6
CONTINUOUS
 62
     3
 10
8082.7339274709448
 20
6291.1885390000007
 30
0.0
 11
8082.7339274709448
 21
8152.234418
 31
0.0
  0
LINE
  5
AB1F
  8
0-1
  6
CONTINUOUS
 62
     3
 10
8215.7338214709325
 20
6291.1885390000007
 30
0.0
 11
8215.7338214709325
 21
8152.234418
 31
0.0
  0
LINE
  5
AB20
  8
0-1
  6
CONTINUOUS
 62
     3
 10
8230.7336234709437
 20
6291.1885390000007
 30
0.0
 11
8230.7336234709437
 21
8152.234418
 31
0.0
  0
LINE
  5
AB21
  8
0-1
  6
CONTINUOUS
 62
     3
 10
7829.7336364709399
 20
6291.1885390000007
 30
0.0
 11
7829.7336364709399
 21
8152.234418
 31
0.0
  0
LINE
  5
AB22
  8
0-1
  6
CONTINUOUS
 62
     3
 10
7814.7348244709428
 20
6291.1885390000007
 30
0.0
 11
7814.7348244709428
 21
8152.234418
 31
0.0
  0
LINE
  5
AB23
  8
0-1
  6
CONTINUOUS
 62
     3
 10
7114.7335044709444
 20
6291.1885390000007
 30
0.0
 11
7114.7335044709444
 21
8152.234418
 31
0.0
  0
LINE
  5
AB24
  8
0-1
  6
CONTINUOUS
 62
     3
 10
7129.7342964709323
 20
6291.1885390000007
 30
0.0
 11
7129.7342964709323
 21
8152.234418
 31
0.0
  0
LINE
  5
AB25
  8
0-1
  6
CONTINUOUS
 62
     3
 10
7530.7342834709407
 20
6291.1885390000007
 30
0.0
 11
7530.7342834709407
 21
8152.234418
 31
0.0
  0
LINE
  5
AB26
  8
0-1
  6
CONTINUOUS
 62
     3
 10
7515.7334914709427
 20
6291.1885390000007
 30
0.0
 11
7515.7334914709427
 21
8152.234418
 31
0.0
  0
LINE
  5
AB27
  8
0-1
  6
CONTINUOUS
 62
     3
 10
7382.7345874709317
 20
6291.1885390000007
 30
0.0
 11
7382.7345874709317
 21
8152.234418
 31
0.0
  0
LINE
  5
AB28
  8
0-1
  6
CONTINUOUS
 62
     3
 10
7262.7332014709418
 20
6291.1885390000007
 30
0.0
 11
7262.7332014709418
 21
8152.234418
 31
0.0
  0
LINE
  5
AB29
  8
0-1
  6
CONTINUOUS
 62
     3
 10
7332.7359064709472
 20
6291.1885390000007
 30
0.0
 11
7332.7359064709472
 21
8152.234418
 31
0.0
  0
LINE
  5
AB2A
  8
0-1
  6
CONTINUOUS
 62
     3
 10
7312.7348514709456
 20
6291.1885390000007
 30
0.0
 11
7312.7348514709456
 21
8152.234418
 31
0.0
  0
LINE
  5
AB2B
  8
0-1
  6
CONTINUOUS
 62
     3
 10
8514.7331754709376
 20
6291.1885390000007
 30
0.0
 11
8514.7331754709376
 21
8152.234418
 31
0.0
  0
LINE
  5
AB2C
  8
0-1
  6
CONTINUOUS
 62
     3
 10
8529.7339664709398
 20
6291.1885390000007
 30
0.0
 11
8529.7339664709398
 21
8152.234418
 31
0.0
  0
LINE
  5
AB2D
  8
0-1
  6
CONTINUOUS
 62
     3
 10
8662.7348514709429
 20
6291.1885390000007
 30
0.0
 11
8662.7348514709429
 21
8152.234418
 31
0.0
  0
LINE
  5
AB2E
  8
0-1
  6
CONTINUOUS
 62
     3
 10
8930.7339534709445
 20
6291.1885390000007
 30
0.0
 11
8930.7339534709445
 21
8152.234418
 31
0.0
  0
LINE
  5
AB2F
  8
0-1
  6
CONTINUOUS
 62
     3
 10
8915.735141470941
 20
6291.1885390000007
 30
0.0
 11
8915.735141470941
 21
8152.234418
 31
0.0
  0
LINE
  5
AB30
  8
0-1
  6
CONTINUOUS
 62
     3
 10
8782.734257470931
 20
6291.1885390000007
 30
0.0
 11
8782.734257470931
 21
8152.234418
 31
0.0
  0
LINE
  5
AB31
  8
0-1
  6
CONTINUOUS
 62
     3
 10
8732.7345874709335
 20
6291.1885390000007
 30
0.0
 11
8732.7345874709335
 21
8152.234418
 31
0.0
  0
LINE
  5
AB32
  8
0-1
  6
CONTINUOUS
 62
     3
 10
8712.7355104709422
 20
6291.1885390000007
 30
0.0
 11
8712.7355104709422
 21
8152.234418
 31
0.0
  0
LINE
  5
AB33
  8
0-1
  6
CONTINUOUS
 62
     3
 10
9540.7344814709359
 20
6291.1885390000007
 30
0.0
 11
9540.7344814709359
 21
8152.234418
 31
0.0
  0
LINE
  5
AB34
  8
0-1
  6
CONTINUOUS
 62
     3
 10
9520.7354054709413
 20
6291.1885390000007
 30
0.0
 11
9520.7354054709413
 21
8152.234418
 31
0.0
  0
LINE
  5
AB35
  8
0-1
  6
CONTINUOUS
 62
     3
 10
9590.7351414709337
 20
6291.1885390000007
 30
0.0
 11
9590.7351414709337
 21
8152.234418
 31
0.0
  0
LINE
  5
AB36
  8
0-1
  6
CONTINUOUS
 62
     3
 10
9470.7347454709434
 20
6291.1885390000007
 30
0.0
 11
9470.7347454709434
 21
8152.234418
 31
0.0
  0
LINE
  5
AB37
  8
0-1
  6
CONTINUOUS
 62
     3
 10
9337.734851470932
 20
6291.1885390000007
 30
0.0
 11
9337.734851470932
 21
8152.234418
 31
0.0
  0
LINE
  5
AB38
  8
0-1
  6
CONTINUOUS
 62
     3
 10
9322.7330694709308
 20
6291.1885390000007
 30
0.0
 11
9322.7330694709308
 21
8152.234418
 31
0.0
  0
LINE
  5
AB39
  8
0-1
  6
CONTINUOUS
 62
     3
 10
9723.7350354709433
 20
6291.1885390000007
 30
0.0
 11
9723.7350354709433
 21
8152.234418
 31
0.0
  0
LINE
  5
AB3A
  8
0-1
  6
CONTINUOUS
 62
     3
 10
9738.7338484709435
 20
6291.1885390000007
 30
0.0
 11
9738.7338484709435
 21
8152.234418
 31
0.0
  0
LINE
  5
AB3B
  8
0-1
  6
CONTINUOUS
 62
     3
 10
10940.73514147093
 20
6291.1885390000007
 30
0.0
 11
10940.73514147093
 21
8152.234418
 31
0.0
  0
LINE
  5
AB3C
  8
0-1
  6
CONTINUOUS
 62
     3
 10
10920.73408547094
 20
6291.1885390000007
 30
0.0
 11
10920.73408547094
 21
8152.234418
 31
0.0
  0
LINE
  5
AB3D
  8
0-1
  6
CONTINUOUS
 62
     3
 10
10990.73382147094
 20
6291.1885390000007
 30
0.0
 11
10990.73382147094
 21
8152.234418
 31
0.0
  0
LINE
  5
AB3E
  8
0-1
  6
CONTINUOUS
 62
     3
 10
10870.73540547093
 20
6291.1885390000007
 30
0.0
 11
10870.73540547093
 21
8152.234418
 31
0.0
  0
LINE
  5
AB3F
  8
0-1
  6
CONTINUOUS
 62
     3
 10
10737.73452147094
 20
6291.1885390000007
 30
0.0
 11
10737.73452147094
 21
8152.234418
 31
0.0
  0
LINE
  5
AB40
  8
0-1
  6
CONTINUOUS
 62
     3
 10
10722.73471947092
 20
6291.1885390000007
 30
0.0
 11
10722.73471947092
 21
8152.234418
 31
0.0
  0
LINE
  5
AB41
  8
0-1
  6
CONTINUOUS
 62
     3
 10
11123.73272647094
 20
6291.1885390000007
 30
0.0
 11
11123.73272647094
 21
8152.234418
 31
0.0
  0
LINE
  5
AB42
  8
0-1
  6
CONTINUOUS
 62
     3
 10
11138.73450747093
 20
6291.1885390000007
 30
0.0
 11
11138.73450747093
 21
8152.234418
 31
0.0
  0
LINE
  5
AB43
  8
0-1
  6
CONTINUOUS
 62
     3
 10
10438.735167470941
 20
6291.1885390000007
 30
0.0
 11
10438.735167470941
 21
8152.234418
 31
0.0
  0
LINE
  5
AB44
  8
0-1
  6
CONTINUOUS
 62
     3
 10
10423.73338647094
 20
6291.1885390000007
 30
0.0
 11
10423.73338647094
 21
8152.234418
 31
0.0
  0
LINE
  5
AB45
  8
0-1
  6
CONTINUOUS
 62
     3
 10
10022.73537847093
 20
6291.1885390000007
 30
0.0
 11
10022.73537847093
 21
8152.234418
 31
0.0
  0
LINE
  5
AB46
  8
0-1
  6
CONTINUOUS
 62
     3
 10
10037.73419147093
 20
6291.1885390000007
 30
0.0
 11
10037.73419147093
 21
8152.234418
 31
0.0
  0
LINE
  5
AB47
  8
0-1
  6
CONTINUOUS
 62
     3
 10
10170.73309547094
 20
6291.1885390000007
 30
0.0
 11
10170.73309547094
 21
8152.234418
 31
0.0
  0
LINE
  5
AB48
  8
0-1
  6
CONTINUOUS
 62
     3
 10
10290.734481470939
 20
6291.1885390000007
 30
0.0
 11
10290.734481470939
 21
8152.234418
 31
0.0
  0
LINE
  5
AB49
  8
0-1
  6
CONTINUOUS
 62
     3
 10
10220.734745470931
 20
6291.1885390000007
 30
0.0
 11
10220.734745470931
 21
8152.234418
 31
0.0
  0
LINE
  5
AB4A
  8
0-1
  6
CONTINUOUS
 62
     3
 10
10240.73382147094
 20
6291.1885390000007
 30
0.0
 11
10240.73382147094
 21
8152.234418
 31
0.0
  0
LINE
  5
AB4B
  8
0-1
  6
CONTINUOUS
 62
     3
 10
9899.2351944709444
 20
8152.234418
 30
0.0
 11
9899.2351944709444
 21
6291.1885390000007
 31
0.0
  0
LINE
  5
AB4C
  8
0-1
  6
CONTINUOUS
 62
     3
 10
9862.2340324709439
 20
8152.234418
 30
0.0
 11
9862.2340324709439
 21
6291.1885390000007
 31
0.0
  0
LINE
  5
AB4D
  8
0-1
  6
CONTINUOUS
 62
     3
 10
11299.23288447093
 20
8152.234418
 30
0.0
 11
11299.23288447093
 21
6291.1885390000007
 31
0.0
  0
LINE
  5
AB4E
  8
0-1
  6
CONTINUOUS
 62
     3
 10
11262.23370247093
 20
8152.234418
 30
0.0
 11
11262.23370247093
 21
6291.1885390000007
 31
0.0
  0
LINE
  5
AB4F
  8
0-1
  6
CONTINUOUS
 62
     3
 10
10599.23453447093
 20
8152.234418
 30
0.0
 11
10599.23453447093
 21
6291.1885390000007
 31
0.0
  0
LINE
  5
AB50
  8
0-1
  6
CONTINUOUS
 62
     3
 10
10562.23436247093
 20
8152.234418
 30
0.0
 11
10562.23436247093
 21
6291.1885390000007
 31
0.0
  0
LINE
  5
AB51
  8
0-1
  6
CONTINUOUS
 62
     3
 10
4985.7433209367073
 20
16684.985315999991
 30
0.0
 11
7903.7433209367064
 21
16684.985315999991
 31
0.0
  0
LINE
  5
AB63
  8
0-1
  6
CONTINUOUS
 62
     3
 10
7850.7436899367203
 20
13775.48635799998
 30
0.0
 11
7850.7436899367203
 21
17768.23311058123
 31
0.0
  0
LINE
  5
AB64
  8
0-1
  6
CONTINUOUS
 62
     3
 10
5035.743940936718
 20
13651.48634400001
 30
0.0
 11
5035.743940936718
 21
18933.19915196484
 31
0.0
  0
LINE
  5
AB65
  8
0-1
  6
CONTINUOUS
 62
     3
 10
4900.2433209367091
 20
13619.486437
 30
0.0
 11
4900.2433209367091
 21
18989.10749151139
 31
0.0
  0
LINE
  5
ACA7
  8
0-1
  6
CONTINUOUS
 62
     3
 10
4943.2440469367193
 20
13775.48635799998
 30
0.0
 11
12946.24457493672
 21
13775.48635799998
 31
0.0
  0
LINE
  5
ACA8
  8
0-1
  6
CONTINUOUS
 62
     3
 10
4985.7433209367082
 20
13854.485974999991
 30
0.0
 11
12903.743320936699
 21
13854.485974999991
 31
0.0
  0
LINE
  5
ACA9
  8
0-1
  6
CONTINUOUS
 62
     3
 10
4903.2433209367091
 20
13619.48643699999
 30
0.0
 11
12986.243320936699
 21
13619.486437
 31
0.0
  0
LINE
  5
ACAA
  8
0-1
  6
CONTINUOUS
 62
     3
 10
4903.2433209367091
 20
13651.48634400001
 30
0.0
 11
12986.243320936699
 21
13651.486344000001
 31
0.0
  0
LINE
  5
ACAB
  8
0-1
  6
CONTINUOUS
 62
     3
 10
7903.7433209367064
 20
13775.48635799998
 30
0.0
 11
7903.7433209367064
 21
17746.365060417251
 31
0.0
  0
LINE
  5
ACAC
  8
0-1
  6
CONTINUOUS
 62
     3
 10
7946.2445749367171
 20
13775.48635799998
 30
0.0
 11
7946.2445749367171
 21
17728.828720315101
 31
0.0
  0
LINE
  5
ACAD
  8
0-1
  6
CONTINUOUS
 62
     3
 10
4985.7433209367082
 20
13775.48635799998
 30
0.0
 11
4985.7433209367082
 21
18955.067610197751
 31
0.0
  0
LINE
  5
ACAE
  8
0-1
  6
CONTINUOUS
 62
     3
 10
4943.2440469367193
 20
13775.48635799998
 30
0.0
 11
4943.2440469367139
 21
18972.603133336848
 31
0.0
  0
LINE
  5
ACAF
  8
0-1
  6
CONTINUOUS
 62
     3
 10
6356.2447719367192
 20
18394.87481651704
 30
0.0
 11
6356.2447719367192
 21
19812.485685
 31
0.0
  0
LINE
  5
ACB0
  8
0-1
  6
CONTINUOUS
 62
     3
 10
6393.2449439367201
 20
18379.60826461648
 30
0.0
 11
6393.2449439367201
 21
19812.485685
 31
0.0
  0
LINE
  5
ACB1
  8
0-1
  6
CONTINUOUS
 62
     3
 10
6556.2444429367197
 20
18312.353433713281
 30
0.0
 11
6556.2444429367197
 21
19812.485685
 31
0.0
  0
LINE
  5
ACB2
  8
0-1
  6
CONTINUOUS
 62
     3
 10
6593.2456039367089
 20
18297.08647374381
 30
0.0
 11
6593.2456039367089
 21
19812.485685
 31
0.0
  0
LINE
  5
ACB3
  8
0-1
  6
CONTINUOUS
 62
     3
 10
6756.2441129367126
 20
18219.831946322141
 30
0.0
 11
6756.2441129367126
 21
19812.485685
 31
0.0
  0
LINE
  5
ACB4
  8
0-1
  6
CONTINUOUS
 62
     3
 10
6793.24329393672
 20
18204.565803315701
 30
0.0
 11
6793.24329393672
 21
19812.485685
 31
0.0
  0
LINE
  5
ACB5
  8
0-1
  6
CONTINUOUS
 62
     3
 10
6956.2447719367174
 20
18137.31015586208
 30
0.0
 11
6956.2447719367201
 21
19812.485685
 31
0.0
  0
LINE
  5
ACB6
  8
0-1
  6
CONTINUOUS
 62
     3
 10
6993.2449439367192
 20
18122.043603961509
 30
0.0
 11
6993.2449439367192
 21
19812.485685
 31
0.0
  0
LINE
  5
ACB7
  8
0-1
  6
CONTINUOUS
 62
     3
 10
7156.2444429367233
 20
18054.788773058321
 30
0.0
 11
7156.2444429367233
 21
19812.485685
 31
0.0
  0
LINE
  5
ACB8
  8
0-1
  6
CONTINUOUS
 62
     3
 10
7193.2456039367089
 20
18039.521813088861
 30
0.0
 11
7193.2456039367089
 21
19812.485685
 31
0.0
  0
LINE
  5
ACB9
  8
0-1
  6
CONTINUOUS
 62
     3
 10
7356.2441129367198
 20
17972.267390667181
 30
0.0
 11
7356.2441129367198
 21
19812.485685
 31
0.0
  0
LINE
  5
ACBA
  8
0-1
  6
CONTINUOUS
 62
     3
 10
7393.2442839367068
 20
17957.000839179222
 30
0.0
 11
7393.2442839367113
 21
19812.485685
 31
0.0
  0
LINE
  5
ACBB
  8
0-1
  6
CONTINUOUS
 62
     3
 10
7556.244771936711
 20
17889.745600207119
 30
0.0
 11
7556.244771936711
 21
19812.485685
 31
0.0
  0
LINE
  5
ACBC
  8
0-1
  6
CONTINUOUS
 62
     3
 10
7593.2449439367174
 20
17874.479048306552
 30
0.0
 11
7593.2449439367174
 21
19812.485685
 31
0.0
  0
LINE
  5
ACBD
  8
0-1
  6
CONTINUOUS
 62
     3
 10
6156.2441129367207
 20
18477.396606977101
 30
0.0
 11
6156.2441129367226
 21
19812.485685
 31
0.0
  0
LINE
  5
ACBE
  8
0-1
  6
CONTINUOUS
 62
     3
 10
6193.2432939367209
 20
18462.13046397065
 30
0.0
 11
6193.2432939367209
 21
19812.485685
 31
0.0
  0
LINE
  5
ACC3
  8
0-1
  6
CONTINUOUS
 62
     3
 10
22051.009209585161
 20
6241.1883740000012
 30
0.0
 11
21951.009868585159
 21
6241.1883740000012
 31
0.0
  0
LINE
  5
ACC4
  8
0-1
  6
CONTINUOUS
 62
     3
 10
21951.009868585159
 20
6241.1883740000012
 30
0.0
 11
21951.009868585159
 21
6141.1885389999998
 31
0.0
  0
LINE
  5
ACC5
  8
0-1
  6
CONTINUOUS
 62
     3
 10
22051.009209585161
 20
6141.1885389999998
 30
0.0
 11
22051.009209585161
 21
6241.1883740000012
 31
0.0
  0
LINE
  5
ACC6
  8
0-1
  6
CONTINUOUS
 62
     3
 10
21958.510264585151
 20
8459.6884660000014
 30
0.0
 11
21958.510264585151
 21
6241.1883740000012
 31
0.0
  0
LINE
  5
ACC7
  8
0-1
  6
CONTINUOUS
 62
     3
 10
21907.010528585161
 20
8132.6883740000021
 30
0.0
 11
21907.010528585161
 21
6141.1885389999998
 31
0.0
  0
LINE
  5
ACC8
  8
0-1
  6
CONTINUOUS
 62
     3
 10
22023.511716585152
 20
8589.6883999999973
 30
0.0
 11
22023.511716585152
 21
6241.1883740000012
 31
0.0
  0
LINE
  5
ACC9
  8
0-1
  6
CONTINUOUS
 62
     3
 10
22043.510528585161
 20
8459.6884660000014
 30
0.0
 11
22043.510528585161
 21
6241.1883740000021
 31
0.0
  0
LINE
  5
ACCA
  8
0-1
  6
CONTINUOUS
 62
     3
 10
18997.51052858515
 20
8264.0026620000008
 30
0.0
 11
19040.51052858515
 21
8264.0026620000008
 31
0.0
  0
LINE
  5
ACCB
  8
0-1
  6
CONTINUOUS
 62
     3
 10
19033.007889585158
 20
6241.1883740000012
 30
0.0
 11
19133.00722958515
 21
6241.1883740000012
 31
0.0
  0
LINE
  5
ACCC
  8
0-1
  6
CONTINUOUS
 62
     3
 10
19133.00722958515
 20
6241.1883740000012
 30
0.0
 11
19133.00722958515
 21
6141.1885389999998
 31
0.0
  0
LINE
  5
ACCD
  8
0-1
  6
CONTINUOUS
 62
     3
 10
19033.007889585158
 20
6141.1885389999998
 30
0.0
 11
19033.007889585158
 21
6241.1883740000012
 31
0.0
  0
LINE
  5
ACCE
  8
0-1
  6
CONTINUOUS
 62
     3
 10
19177.010528585139
 20
8132.6883740000021
 30
0.0
 11
19177.010528585139
 21
6141.1885389999998
 31
0.0
  0
LINE
  5
ACCF
  8
0-1
  6
CONTINUOUS
 62
     3
 10
19125.50683358515
 20
8459.6884660000014
 30
0.0
 11
19125.50683358515
 21
6241.1883740000012
 31
0.0
  0
LINE
  5
ACD0
  8
0-1
  6
CONTINUOUS
 62
     3
 10
19060.507361585162
 20
8589.6883999999973
 30
0.0
 11
19060.507361585162
 21
6241.1883740000012
 31
0.0
  0
LINE
  5
ACD1
  8
0-1
  6
CONTINUOUS
 62
     3
 10
19040.51052858515
 20
8459.6884660000014
 30
0.0
 11
19040.51052858515
 21
6241.1883740000012
 31
0.0
  0
LINE
  5
ACD2
  8
0-1
  6
CONTINUOUS
 62
     3
 10
12099.73400647093
 20
6241.1883740000012
 30
0.0
 11
12099.73400647093
 21
6141.1885389999998
 31
0.0
  0
LINE
  5
ACD3
  8
0-1
  6
CONTINUOUS
 62
     3
 10
12067.23321547092
 20
8456.0174490000027
 30
0.0
 11
12067.23321547092
 21
6241.1883740000012
 31
0.0
  0
LINE
  5
ACD4
  8
0-1
  6
CONTINUOUS
 62
     3
 10
12087.23400647093
 20
8456.5984380000027
 30
0.0
 11
12087.23400647093
 21
6241.1883740000012
 31
0.0
  0
LINE
  5
ACD5
  8
0-1
  6
CONTINUOUS
 62
     3
 10
11972.23413847092
 20
8152.234418
 30
0.0
 11
11972.23413847092
 21
6241.1883740000012
 31
0.0
  0
LINE
  5
ACD6
  8
0-1
  6
CONTINUOUS
 62
     3
 10
9126.7340064709388
 20
8357.4898809999977
 30
0.0
 11
9126.7340064709388
 21
8152.234418
 31
0.0
  0
LINE
  5
ACD7
  8
0-1
  6
CONTINUOUS
 62
     3
 10
9054.2341384709434
 20
8152.234418
 30
0.0
 11
9054.2341384709434
 21
6241.1883740000012
 31
0.0
  0
LINE
  5
ACD8
  8
0-1
  6
CONTINUOUS
 62
     3
 10
9199.2328844709318
 20
8152.234418
 30
0.0
 11
9199.2328844709318
 21
6241.1883740000012
 31
0.0
  0
LINE
  5
ACD9
  8
0-1
  6
CONTINUOUS
 62
     3
 10
9199.2328844709318
 20
6291.1885390000007
 30
0.0
 11
11972.23413847092
 21
6291.1885390000007
 31
0.0
  0
LINE
  5
ACDA
  8
0-1
  6
CONTINUOUS
 62
     3
 10
19177.010528585139
 20
6661.189265
 30
0.0
 11
21907.010528585161
 21
6661.189265
 31
0.0
  0
LINE
  5
ACDB
  8
0-1
  6
CONTINUOUS
 62
     3
 10
19177.010528585139
 20
6596.1888030000027
 30
0.0
 11
21907.010528585161
 21
6596.1888030000027
 31
0.0
  0
LINE
  5
ACDC
  8
0-1
  6
CONTINUOUS
 62
     3
 10
19177.010528585139
 20
6531.1888360000012
 30
0.0
 11
21907.010528585161
 21
6531.1888360000012
 31
0.0
  0
LINE
  5
ACDD
  8
0-1
  6
CONTINUOUS
 62
     3
 10
19177.010528585139
 20
6466.1883740000012
 30
0.0
 11
21907.010528585161
 21
6466.1883740000012
 31
0.0
  0
LINE
  5
ACDE
  8
0-1
  6
CONTINUOUS
 62
     3
 10
19177.010528585139
 20
6401.1889020000053
 30
0.0
 11
21907.010528585161
 21
6401.1889020000053
 31
0.0
  0
LINE
  5
ACDF
  8
0-1
  6
CONTINUOUS
 62
     3
 10
19177.010528585139
 20
6336.188935000001
 30
0.0
 11
21907.010528585161
 21
6336.188935000001
 31
0.0
  0
LINE
  5
ACE0
  8
0-1
  6
CONTINUOUS
 62
     3
 10
19177.010528585139
 20
6271.1889680000013
 30
0.0
 11
21907.010528585161
 21
6271.1889680000013
 31
0.0
  0
LINE
  5
ACE1
  8
0-1
  6
CONTINUOUS
 62
     3
 10
19177.010528585139
 20
6206.1885060000013
 30
0.0
 11
21907.010528585161
 21
6206.1885060000013
 31
0.0
  0
LINE
  5
ACE2
  8
0-1
  6
CONTINUOUS
 62
     3
 10
19177.010528585139
 20
8026.1885720000018
 30
0.0
 11
21907.010528585161
 21
8026.1885720000018
 31
0.0
  0
LINE
  5
ACE3
  8
0-1
  6
CONTINUOUS
 62
     3
 10
19177.010528585139
 20
7961.1886050000021
 30
0.0
 11
21907.010528585161
 21
7961.1886050000021
 31
0.0
  0
LINE
  5
ACE4
  8
0-1
  6
CONTINUOUS
 62
     3
 10
19177.010528585139
 20
7896.1891330000026
 30
0.0
 11
21907.010528585161
 21
7896.1891330000026
 31
0.0
  0
LINE
  5
ACE5
  8
0-1
  6
CONTINUOUS
 62
     3
 10
19177.010528585139
 20
7831.1891659999974
 30
0.0
 11
21907.010528585161
 21
7831.1891659999974
 31
0.0
  0
LINE
  5
ACE6
  8
0-1
  6
CONTINUOUS
 62
     3
 10
19177.010528585139
 20
7766.1891990000022
 30
0.0
 11
21907.010528585161
 21
7766.1891990000022
 31
0.0
  0
LINE
  5
ACE7
  8
0-1
  6
CONTINUOUS
 62
     3
 10
19177.010528585139
 20
7701.1887369999977
 30
0.0
 11
21907.010528585161
 21
7701.1887369999977
 31
0.0
  0
LINE
  5
ACE8
  8
0-1
  6
CONTINUOUS
 62
     3
 10
19177.010528585139
 20
7636.1887699999979
 30
0.0
 11
21907.010528585161
 21
7636.1887699999979
 31
0.0
  0
LINE
  5
ACE9
  8
0-1
  6
CONTINUOUS
 62
     3
 10
19177.010528585139
 20
7571.1892980000011
 30
0.0
 11
21907.010528585161
 21
7571.1892980000011
 31
0.0
  0
LINE
  5
ACEA
  8
0-1
  6
CONTINUOUS
 62
     3
 10
19177.010528585139
 20
7506.1893309999978
 30
0.0
 11
21907.010528585161
 21
7506.1893309999978
 31
0.0
  0
LINE
  5
ACEB
  8
0-1
  6
CONTINUOUS
 62
     3
 10
19177.010528585139
 20
7441.1888690000023
 30
0.0
 11
21907.010528585161
 21
7441.1888690000023
 31
0.0
  0
LINE
  5
ACEC
  8
0-1
  6
CONTINUOUS
 62
     3
 10
19177.010528585139
 20
7376.188901999999
 30
0.0
 11
21907.010528585161
 21
7376.188901999999
 31
0.0
  0
LINE
  5
ACED
  8
0-1
  6
CONTINUOUS
 62
     3
 10
19177.010528585139
 20
7311.1889350000029
 30
0.0
 11
21907.010528585161
 21
7311.1889350000029
 31
0.0
  0
LINE
  5
ACEE
  8
0-1
  6
CONTINUOUS
 62
     3
 10
19177.010528585139
 20
7246.1884730000029
 30
0.0
 11
21907.010528585161
 21
7246.1884730000029
 31
0.0
  0
LINE
  5
ACEF
  8
0-1
  6
CONTINUOUS
 62
     3
 10
19177.010528585139
 20
7181.1885059999986
 30
0.0
 11
21907.010528585161
 21
7181.1885059999986
 31
0.0
  0
LINE
  5
ACF0
  8
0-1
  6
CONTINUOUS
 62
     3
 10
19177.010528585139
 20
7116.189034
 30
0.0
 11
21907.010528585161
 21
7116.189034
 31
0.0
  0
LINE
  5
ACF1
  8
0-1
  6
CONTINUOUS
 62
     3
 10
19177.010528585139
 20
7051.1890670000012
 30
0.0
 11
21907.010528585161
 21
7051.1890670000012
 31
0.0
  0
LINE
  5
ACF2
  8
0-1
  6
CONTINUOUS
 62
     3
 10
19177.010528585139
 20
6986.1890999999978
 30
0.0
 11
21907.010528585161
 21
6986.1890999999978
 31
0.0
  0
LINE
  5
ACF3
  8
0-1
  6
CONTINUOUS
 62
     3
 10
19177.010528585139
 20
6921.1886380000024
 30
0.0
 11
21907.010528585161
 21
6921.1886380000024
 31
0.0
  0
LINE
  5
ACF4
  8
0-1
  6
CONTINUOUS
 62
     3
 10
19177.010528585139
 20
6856.1886710000008
 30
0.0
 11
21907.010528585161
 21
6856.1886710000008
 31
0.0
  0
LINE
  5
ACF5
  8
0-1
  6
CONTINUOUS
 62
     3
 10
19177.010528585139
 20
6791.1891990000031
 30
0.0
 11
21907.010528585161
 21
6791.1891990000031
 31
0.0
  0
LINE
  5
ACF6
  8
0-1
  6
CONTINUOUS
 62
     3
 10
19177.010528585139
 20
6726.1892319999997
 30
0.0
 11
21907.010528585161
 21
6726.1892319999997
 31
0.0
  0
LINE
  5
ACF7
  8
0-1
  6
CONTINUOUS
 62
     3
 10
19177.010528585139
 20
8080.6485920000023
 30
0.0
 11
21907.010528585161
 21
8080.6485920000023
 31
0.0
  0
LINE
  5
ACF8
  8
0-1
  6
CONTINUOUS
 62
     3
 10
19033.007889585158
 20
6141.1885389999998
 30
0.0
 11
27612.48890471035
 21
6141.1885389999998
 31
0.0
  0
LINE
  5
ACF9
  8
0-1
  6
CONTINUOUS
 62
     3
 10
6158.7340064709351
 20
6141.1885389999998
 30
0.0
 11
6158.7340064709351
 21
6241.1883740000012
 31
0.0
  0
LINE
  5
ACFA
  8
0-1
  6
CONTINUOUS
 62
     3
 10
6186.2338084709372
 20
8268.4908770000038
 30
0.0
 11
6186.2338084709372
 21
6241.1883740000012
 31
0.0
  0
LINE
  5
ACFB
  8
0-1
  6
CONTINUOUS
 62
     3
 10
6166.234006470936
 20
8267.8741496838084
 30
0.0
 11
6166.234006470936
 21
6241.1883740000012
 31
0.0
  0
LINE
  5
ACFC
  8
0-1
  6
CONTINUOUS
 62
     3
 10
6281.2328854709422
 20
8152.234418
 30
0.0
 11
6281.2328854709422
 21
6241.1883740000012
 31
0.0
  0
LINE
  5
ACFD
  8
0-1
  6
CONTINUOUS
 62
     3
 10
6158.7340064709351
 20
6241.1883740000012
 30
0.0
 11
12099.73400647093
 21
6241.1883740000012
 31
0.0
  0
LINE
  5
ACFE
  8
0-1
  6
CONTINUOUS
 62
     3
 10
6281.2328854709422
 20
6291.1885390000007
 30
0.0
 11
9054.2341384709434
 21
6291.1885390000007
 31
0.0
  0
LINE
  5
ACFF
  8
0-1
  6
CONTINUOUS
 62
     3
 10
5476.2329514709327
 20
6141.1885389999998
 30
0.0
 11
12099.73400647093
 21
6141.1885389999998
 31
0.0
  0
LINE
  5
AD00
  8
0-1
  6
CONTINUOUS
 62
     3
 10
6186.2338084709372
 20
8152.234418
 30
0.0
 11
12067.23321547092
 21
8152.234418
 31
0.0
  0
LINE
  5
AD01
  8
0-1
  6
CONTINUOUS
 62
     3
 10
19151.509789585161
 20
8335.1891200000064
 30
0.0
 11
19428.93931958517
 21
8335.1891200000064
 31
0.0
  0
LINE
  5
AD02
  8
0-1
  6
CONTINUOUS
 62
     3
 10
19151.509789585161
 20
8377.1885650000022
 30
0.0
 11
19460.936257585159
 21
8377.1885650000022
 31
0.0
  0
LINE
  5
AD03
  8
0-1
  6
CONTINUOUS
 62
     3
 10
19146.509526585141
 20
8340.1888889999973
 30
0.0
 11
19146.509526585141
 21
8372.1892910000024
 31
0.0
  0
LINE
  5
AD04
  8
0-1
  6
CONTINUOUS
 62
     3
 10
19125.50683358515
 20
8386.1884470000023
 30
0.0
 11
21958.510264585151
 21
8386.1884470000023
 31
0.0
  0
LINE
  5
AD05
  8
0-1
  6
CONTINUOUS
 62
     3
 10
19432.472759585158
 20
8336.6529740000005
 30
0.0
 11
19464.473657585149
 21
8368.653376000002
 31
0.0
  0
LINE
  5
AD06
  8
0-1
  6
CONTINUOUS
 62
     3
 10
19146.509526585141
 20
8368.7889730000024
 30
0.0
 11
19464.602325585151
 21
8368.7889730000024
 31
0.0
  0
LINE
  5
AD07
  8
0-1
  6
CONTINUOUS
 62
     3
 10
19146.509526585141
 20
8360.3888860000025
 30
0.0
 11
19456.20916758517
 21
8360.3888860000025
 31
0.0
  0
LINE
  5
AD08
  8
0-1
  6
CONTINUOUS
 62
     3
 10
19146.509526585141
 20
8351.9892940000045
 30
0.0
 11
19447.810069585161
 21
8351.9892940000045
 31
0.0
  0
LINE
  5
AD09
  8
0-1
  6
CONTINUOUS
 62
     3
 10
19146.509526585141
 20
8343.5892070000064
 30
0.0
 11
19439.407013585162
 21
8343.5892070000064
 31
0.0
  0
LINE
  5
AD0A
  8
0-1
  6
CONTINUOUS
 62
     3
 10
21937.50955258515
 20
8368.7889730000024
 30
0.0
 11
21619.416752585152
 21
8368.7889730000024
 31
0.0
  0
LINE
  5
AD0B
  8
0-1
  6
CONTINUOUS
 62
     3
 10
21937.50955258515
 20
8360.3888860000025
 30
0.0
 11
21627.81189058517
 21
8360.3888860000025
 31
0.0
  0
LINE
  5
AD0C
  8
0-1
  6
CONTINUOUS
 62
     3
 10
21937.50955258515
 20
8351.9892940000045
 30
0.0
 11
21636.210987585149
 21
8351.9892940000045
 31
0.0
  0
LINE
  5
AD0D
  8
0-1
  6
CONTINUOUS
 62
     3
 10
21937.50955258515
 20
8343.5892070000064
 30
0.0
 11
21644.610085585151
 21
8343.5892070000064
 31
0.0
  0
LINE
  5
AD0E
  8
0-1
  6
CONTINUOUS
 62
     3
 10
21932.509288585159
 20
8377.1885650000022
 30
0.0
 11
21623.08282058515
 21
8377.1885650000022
 31
0.0
  0
LINE
  5
AD0F
  8
0-1
  6
CONTINUOUS
 62
     3
 10
21932.509288585159
 20
8335.1891200000064
 30
0.0
 11
21655.079759585162
 21
8335.1891200000064
 31
0.0
  0
LINE
  5
AD10
  8
0-1
  6
CONTINUOUS
 62
     3
 10
21937.50955258515
 20
8340.1888889999973
 30
0.0
 11
21937.50955258515
 21
8372.1892910000024
 31
0.0
  0
LINE
  5
AD11
  8
0-1
  6
CONTINUOUS
 62
     3
 10
21651.544338585161
 20
8336.6529740000005
 30
0.0
 11
21619.547400585161
 21
8368.653376000002
 31
0.0
  0
LINE
  5
AD12
  8
0-1
  6
CONTINUOUS
 62
     3
 10
4985.7433209367073
 20
16774.988087000002
 30
0.0
 11
7903.7433209367064
 21
16774.988087000002
 31
0.0
  0
LINE
  5
AD13
  8
0-1
  6
CONTINUOUS
 62
     3
 10
7833.7442205805446
 20
16729.987612658861
 30
0.0
 11
5055.7440469367193
 21
13811.985710999999
 31
0.0
  0
LINE
  5
AD14
  8
0-1
  6
CONTINUOUS
 62
     3
 10
5055.7440469367157
 20
16729.985711000001
 30
0.0
 11
7833.744574936718
 21
13811.985710999999
 31
0.0
  0
LINE
  5
AD15
  8
0-1
  6
CONTINUOUS
 62
     3
 10
6190.1457942567822
 20
18456.415540184302
 30
0.0
 11
7833.7442205805446
 21
16729.987612658861
 31
0.0
  0
LINE
  5
AD16
  8
0-1
  6
CONTINUOUS
 62
     3
 10
6555.3818292924771
 20
18305.198892138069
 30
0.0
 11
5055.7440469367157
 21
16729.985711000001
 31
0.0
  0
LINE
  5
AD17
  8
0-1
  6
CONTINUOUS
 62
     3
 10
5991.9321824709377
 20
8302.6736990000027
 30
0.0
 11
12172.92367147092
 21
8499.1897600000029
 31
0.0
  0
LINE
  5
AD18
  8
0-1
  6
CONTINUOUS
 62
     3
 10
12171.423196470931
 20
8549.1686450000016
 30
0.0
 11
5990.4326974709311
 21
8352.6515949999975
 31
0.0
  0
LINE
  5
AD19
  8
0-1
  6
CONTINUOUS
 62
     3
 10
5987.3426694709406
 20
8355.5604970000022
 30
0.0
 11
5986.3826024709342
 21
8387.5460529999982
 31
0.0
  0
LINE
  5
AD1A
  8
0-1
  6
CONTINUOUS
 62
     3
 10
5991.2314334709372
 20
8392.6932959999976
 30
0.0
 11
12191.19264847092
 21
8589.7804479999977
 31
0.0
  0
LINE
  5
AD1B
  8
0-1
  6
CONTINUOUS
 62
     3
 10
12195.09724847092
 20
8459.8389100000004
 30
0.0
 11
5995.1320744709374
 21
8262.7522530000006
 31
0.0
  0
LINE
  5
AD1C
  8
0-1
  6
CONTINUOUS
 62
     3
 10
5989.9843364709368
 20
8267.5995990000029
 30
0.0
 11
5989.0252594709373
 21
8299.5856500000027
 31
0.0
  0
LINE
  5
AD1D
  8
0-1
  6
CONTINUOUS
 62
     3
 10
5988.6936904709364
 20
8310.5803909999977
 30
0.0
 11
5987.6732484709373
 21
8344.5647660000031
 31
0.0
  0
LINE
  5
AD1E
  8
0-1
  6
CONTINUOUS
 62
     3
 10
5990.5821514709378
 20
8347.6538050000017
 30
0.0
 11
12171.574629470921
 21
8544.1713500000023
 31
0.0
  0
LINE
  5
AD1F
  8
0-1
  6
CONTINUOUS
 62
     3
 10
12172.77421747092
 20
8504.1880440000004
 30
0.0
 11
5991.7837194709364
 21
8307.6719840000023
 31
0.0
  0
LINE
  5
AD20
  8
0-1
  6
CONTINUOUS
 62
     3
 10
9126.7340064709388
 20
8357.4898809999977
 30
0.0
 11
9122.8313854709395
 21
8487.4314190000005
 31
0.0
  0
LINE
  5
AD21
  8
0-1
  6
CONTINUOUS
 62
     3
 10
12162.13034647094
 20
8458.8481609999999
 30
0.0
 11
12158.22871547093
 21
8588.7896990000027
 31
0.0
  0
LINE
  5
AD22
  8
0-1
  6
CONTINUOUS
 62
     3
 10
6003.7241754709348
 20
8393.0684149999979
 30
0.0
 11
6007.6267964709377
 21
8263.1273720000008
 31
0.0
  0
LINE
  5
AD23
  8
0-1
  6
CONTINUOUS
 62
     3
 10
4918.2420939366966
 20
18981.68106111126
 30
0.0
 11
4918.2420939366966
 21
19852.98663499999
 31
0.0
  0
LINE
  5
AD24
  8
0-1
  6
CONTINUOUS
 62
     3
 10
4973.7428459367093
 20
19835.487690000002
 30
0.0
 11
4973.7428459367093
 21
19865.487293999991
 31
0.0
  0
LINE
  5
AD25
  8
0-1
  6
CONTINUOUS
 62
     3
 10
4900.2433209367091
 20
19865.487293999991
 30
0.0
 11
4900.2433209367091
 21
19830.485446999981
 31
0.0
  0
LINE
  5
AD26
  8
0-1
  6
CONTINUOUS
 62
     3
 10
4968.7425819366981
 20
19870.485579
 30
0.0
 11
4905.2425949367062
 21
19870.485579
 31
0.0
  0
LINE
  5
AD27
  8
0-1
  6
CONTINUOUS
 62
     3
 10
4918.2420939366966
 20
19852.98663499999
 30
0.0
 11
4900.2433209367091
 21
19852.98663499999
 31
0.0
  0
LINE
  5
AD28
  8
0-1
  6
CONTINUOUS
 62
     3
 10
4918.2420939366966
 20
19830.485446999981
 30
0.0
 11
4968.7425819366981
 21
19830.485446999981
 31
0.0
  0
LINE
  5
AD29
  8
0-2
  6
CONTINUOUS
 62
     4
 10
20905.698569085162
 20
6888.4152329999988
 30
0.0
 11
20805.699229085149
 21
6888.4152329999988
 31
0.0
  0
LINE
  5
AD2A
  8
0-2
  6
CONTINUOUS
 62
     4
 10
20178.314569085149
 20
6888.4152329999988
 30
0.0
 11
20278.313909085151
 21
6888.4152329999988
 31
0.0
  0
LINE
  5
AD2B
  8
0-5
  6
CONTINUOUS
 62
     4
 10
22001.010528585161
 20
4461.1889350000001
 30
0.0
 11
22001.010528585161
 21
4301.1893970000001
 31
0.0
  0
LINE
  5
AD2C
  8
0-5
  6
CONTINUOUS
 62
     4
 10
16861.137508585161
 20
6349.0350210000024
 30
0.0
 11
16981.13592458516
 21
6141.1885389999998
 31
0.0
  0
LINE
  5
AD2D
  8
0-5
  6
CONTINUOUS
 62
     4
 10
13804.81899447093
 20
6241.1883740000012
 30
0.0
 11
13924.81939047093
 21
6449.0353509999986
 31
0.0
  0
LINE
  5
AD2E
  8
0-5
  6
CONTINUOUS
 62
     4
 10
13684.82057747092
 20
6449.0353509999986
 30
0.0
 11
13804.81899447093
 21
6241.1883740000012
 31
0.0
  0
LINE
  5
AD2F
  8
0-5
  6
CONTINUOUS
 62
     4
 10
13924.81939047093
 20
6449.0353509999986
 30
0.0
 11
13684.82057747092
 21
6449.0353509999986
 31
0.0
  0
LINE
  5
AD30
  8
0-5
  6
CONTINUOUS
 62
     4
 10
12179.731301470931
 20
6241.1883740000012
 30
0.0
 11
13897.197187470931
 21
6241.1883740000012
 31
0.0
  0
LINE
  5
AD31
  8
0-5
  6
CONTINUOUS
 62
     4
 10
12179.731301470931
 20
6141.1885389999998
 30
0.0
 11
18953.00960558515
 21
6141.1885389999998
 31
0.0
  0
LINE
  5
AD32
  8
0-5
  6
CONTINUOUS
 62
     4
 10
16981.13592458516
 20
6141.1885389999998
 30
0.0
 11
17101.136320585141
 21
6349.0350210000024
 31
0.0
  0
LINE
  5
AD33
  8
0-5
  6
CONTINUOUS
 62
     4
 10
17101.136320585141
 20
6349.0350210000024
 30
0.0
 11
16861.137508585161
 21
6349.0350210000024
 31
0.0
  0
LINE
  5
AD34
  8
0-5
  6
CONTINUOUS
 62
     4
 10
19083.01052858515
 20
4461.1889350000001
 30
0.0
 11
19083.01052858515
 21
4301.1893970000001
 31
0.0
  0
LINE
  5
AD35
  8
0-5
  6
CONTINUOUS
 62
     4
 10
12044.734006470921
 20
4461.1889350000001
 30
0.0
 11
12044.734006470921
 21
4301.1893970000001
 31
0.0
  0
LINE
  5
AD36
  8
0-5
  6
CONTINUOUS
 62
     4
 10
9126.7340064709388
 20
4461.1889350000001
 30
0.0
 11
9126.7340064709388
 21
4301.1893970000001
 31
0.0
  0
LINE
  5
AD37
  8
0-5
  6
CONTINUOUS
 62
     4
 10
6208.7340064709351
 20
4461.1889350000001
 30
0.0
 11
6208.7340064709351
 21
4301.1893970000001
 31
0.0
  0
LINE
  5
AD56
  8
0-6
  6
CONTINUOUS
 62
     6
 10
6231.6330879367197
 20
19588.21018799999
 30
0.0
 11
6375.5341909367107
 21
20100.485842999991
 31
0.0
  0
LINE
  5
AD57
  8
0-6
  6
CONTINUOUS
 62
     6
 10
5711.7917129367133
 20
19816.163629999999
 30
0.0
 11
5818.4867749367186
 21
19693.987743000002
 31
0.0
  0
LINE
  5
AD58
  8
0-6
  6
CONTINUOUS
 62
     6
 10
5818.4867749367186
 20
19693.987743000002
 30
0.0
 11
5757.1810849367112
 21
19844.163919999992
 31
0.0
  0
LINE
  5
AD59
  8
0-6
  6
CONTINUOUS
 62
     6
 10
5818.4867749367186
 20
19693.987743000002
 30
0.0
 11
5711.7917129367133
 21
19816.163629999999
 31
0.0
  0
LINE
  5
AD5A
  8
0-6
  6
CONTINUOUS
 62
     6
 10
5711.7917129367133
 20
19816.163629999999
 30
0.0
 11
5757.1810849367112
 21
19844.163919999992
 31
0.0
  0
LINE
  5
AD5B
  8
0-6
  6
CONTINUOUS
 62
     6
 10
5757.1810849367112
 20
19844.163919999992
 30
0.0
 11
5818.4867749367186
 21
19693.987743000002
 31
0.0
  0
LINE
  5
AD5C
  8
0-6
  6
CONTINUOUS
 62
     6
 10
5757.1810849367112
 20
19844.163919999992
 30
0.0
 11
5711.7917129367133
 21
19816.163629999999
 31
0.0
  0
LINE
  5
AD5D
  8
0-6
  6
CONTINUOUS
 62
     6
 10
5818.4867749367186
 20
19693.987743000002
 30
0.0
 11
5524.5589479367118
 21
20100.485842999991
 31
0.0
  0
LINE
  5
AD5E
  8
0-6
  6
CONTINUOUS
 62
     6
 10
6205.7449439367201
 20
19594.609971999991
 30
0.0
 11
6193.2432939367209
 21
19432.885282999989
 31
0.0
  0
LINE
  5
AD5F
  8
0-6
  6
CONTINUOUS
 62
     6
 10
6193.2432939367209
 20
19432.885282999989
 30
0.0
 11
6257.5182629367191
 21
19581.814364000002
 31
0.0
  0
LINE
  5
AD60
  8
0-6
  6
CONTINUOUS
 62
     6
 10
6193.2432939367209
 20
19432.885282999989
 30
0.0
 11
6205.7449439367201
 21
19594.609971999991
 31
0.0
  0
LINE
  5
AD61
  8
0-6
  6
CONTINUOUS
 62
     6
 10
6205.7449439367201
 20
19594.609971999991
 30
0.0
 11
6257.5182629367191
 21
19581.814364000002
 31
0.0
  0
LINE
  5
AD62
  8
0-6
  6
CONTINUOUS
 62
     6
 10
6257.5182629367191
 20
19581.814364000002
 30
0.0
 11
6193.2432939367209
 21
19432.885282999989
 31
0.0
  0
LINE
  5
AD63
  8
0-6
  6
CONTINUOUS
 62
     6
 10
6257.5182629367191
 20
19581.814364000002
 30
0.0
 11
6205.7449439367201
 21
19594.609971999991
 31
0.0
  0
LINE
  5
AD64
  8
0-6
  6
CONTINUOUS
 62
     6
 10
6375.5341909367107
 20
20100.485842999991
 30
0.0
 11
6893.2228389367192
 21
20100.485842999991
 31
0.0
  0
LINE
  5
AD65
  8
0-6
  6
CONTINUOUS
 62
     6
 10
5086.0604529367192
 20
18169.035007951192
 30
0.0
 11
4996.2447459367104
 21
18304.107458951192
 31
0.0
  0
LINE
  5
AD66
  8
0-6
  6
CONTINUOUS
 62
     6
 10
4996.2447459367104
 20
18304.107458951192
 30
0.0
 11
5037.3989369367191
 21
18147.206856951179
 31
0.0
  0
LINE
  5
AD67
  8
0-6
  6
CONTINUOUS
 62
     6
 10
4996.2447459367104
 20
18304.107458951192
 30
0.0
 11
5086.0604529367192
 21
18169.035007951192
 31
0.0
  0
LINE
  5
AD68
  8
0-6
  6
CONTINUOUS
 62
     6
 10
5086.0604529367192
 20
18169.035007951192
 30
0.0
 11
5037.3989369367191
 21
18147.206856951179
 31
0.0
  0
LINE
  5
AD69
  8
0-6
  6
CONTINUOUS
 62
     6
 10
5037.3989369367191
 20
18147.206856951179
 30
0.0
 11
4996.2447459367104
 21
18304.107458951192
 31
0.0
  0
LINE
  5
AD6A
  8
0-6
  6
CONTINUOUS
 62
     6
 10
5037.3989369367191
 20
18147.206856951179
 30
0.0
 11
5086.0604529367192
 21
18169.035007951192
 31
0.0
  0
LINE
  5
AD6B
  8
0-6
  6
CONTINUOUS
 62
     6
 10
5075.0572989367101
 20
20100.485842999991
 30
0.0
 11
5524.5589479367118
 21
20100.485842999991
 31
0.0
  0
LINE
  5
AD72
  8
0-6
  6
CONTINUOUS
 62
     6
 10
5160.7704529367074
 20
17937.328398951191
 30
0.0
 11
5680.7711789367204
 21
17937.328398951191
 31
0.0
  0
LINE
  5
AD73
  8
0-6
  6
CONTINUOUS
 62
     6
 10
5836.0176260025692
 20
13999.376837
 30
0.0
 11
5918.9050180025688
 21
14176.315115999991
 31
0.0
  0
LINE
  5
AD74
  8
0-6
  6
CONTINUOUS
 62
     6
 10
5918.9050180025688
 20
14176.315115999991
 30
0.0
 11
6718.9056780025612
 21
14176.315115999991
 31
0.0
  0
LINE
  5
AD75
  8
0-6
  6
CONTINUOUS
 62
     6
 10
6443.0607530025691
 20
13489.93981199999
 30
0.0
 11
6336.7902980025683
 21
13612.48685899999
 31
0.0
  0
LINE
  5
AD76
  8
0-6
  6
CONTINUOUS
 62
     6
 10
6336.7902980025683
 20
13612.48685899999
 30
0.0
 11
6397.5724060025659
 21
13462.09788299998
 31
0.0
  0
LINE
  5
AD77
  8
0-6
  6
CONTINUOUS
 62
     6
 10
6336.7902980025683
 20
13612.48685899999
 30
0.0
 11
6443.0607530025691
 21
13489.93981199999
 31
0.0
  0
LINE
  5
AD78
  8
0-6
  6
CONTINUOUS
 62
     6
 10
6443.0607530025691
 20
13489.93981199999
 30
0.0
 11
6397.5724060025659
 21
13462.09788299998
 31
0.0
  0
LINE
  5
AD79
  8
0-6
  6
CONTINUOUS
 62
     6
 10
6397.5724060025659
 20
13462.09788299998
 30
0.0
 11
6336.7902980025683
 21
13612.48685899999
 31
0.0
  0
LINE
  5
AD7A
  8
0-6
  6
CONTINUOUS
 62
     6
 10
6397.5724060025659
 20
13462.09788299998
 30
0.0
 11
6443.0607530025691
 21
13489.93981199999
 31
0.0
  0
LINE
  5
AD7B
  8
0-6
  6
CONTINUOUS
 62
     6
 10
5811.8704690025615
 20
14010.68879599998
 30
0.0
 11
5768.1448830025629
 21
13854.485974999991
 31
0.0
  0
LINE
  5
AD7C
  8
0-6
  6
CONTINUOUS
 62
     6
 10
5768.1448830025629
 20
13854.485974999991
 30
0.0
 11
5860.1657740025694
 21
13988.06388799999
 31
0.0
  0
LINE
  5
AD7D
  8
0-6
  6
CONTINUOUS
 62
     6
 10
5768.1448830025629
 20
13854.485974999991
 30
0.0
 11
5811.8704690025615
 21
14010.68879599998
 31
0.0
  0
LINE
  5
AD7E
  8
0-6
  6
CONTINUOUS
 62
     6
 10
5811.8704690025615
 20
14010.68879599998
 30
0.0
 11
5860.1657740025694
 21
13988.06388799999
 31
0.0
  0
LINE
  5
AD7F
  8
0-6
  6
CONTINUOUS
 62
     6
 10
5860.1657740025694
 20
13988.06388799999
 30
0.0
 11
5768.1448830025629
 21
13854.485974999991
 31
0.0
  0
LINE
  5
AD80
  8
0-6
  6
CONTINUOUS
 62
     6
 10
5860.1657740025694
 20
13988.06388799999
 30
0.0
 11
5811.8704690025615
 21
14010.68879599998
 31
0.0
  0
LINE
  5
AD81
  8
0-6
  6
CONTINUOUS
 62
     6
 10
6826.4291680025708
 20
12812.48718899999
 30
0.0
 11
7689.0093390025731
 21
12812.48718899999
 31
0.0
  0
LINE
  5
AD82
  8
0-6
  6
CONTINUOUS
 62
     6
 10
6420.3170750025611
 20
13476.018847999991
 30
0.0
 11
6826.4291680025708
 21
12812.48718899999
 31
0.0
  0
LINE
  5
AD83
  8
0-6
  6
CONTINUOUS
 62
     6
 10
4844.2949199367222
 20
13861.776687
 30
0.0
 11
4866.7456299367186
 21
14022.42253799999
 31
0.0
  0
LINE
  5
AD84
  8
0-6
  6
CONTINUOUS
 62
     6
 10
4866.7456299367186
 20
14022.42253799999
 30
0.0
 11
4793.4084259367073
 21
13877.741504
 31
0.0
  0
LINE
  5
AD85
  8
0-6
  6
CONTINUOUS
 62
     6
 10
4866.7456299367186
 20
14022.42253799999
 30
0.0
 11
4844.2949199367222
 21
13861.776687
 31
0.0
  0
LINE
  5
AD86
  8
0-6
  6
CONTINUOUS
 62
     6
 10
4844.2949199367222
 20
13861.776687
 30
0.0
 11
4793.4084259367073
 21
13877.741504
 31
0.0
  0
LINE
  5
AD87
  8
0-6
  6
CONTINUOUS
 62
     6
 10
4793.4084259367073
 20
13877.741504
 30
0.0
 11
4866.7456299367186
 21
14022.42253799999
 31
0.0
  0
LINE
  5
AD88
  8
0-6
  6
CONTINUOUS
 62
     6
 10
4793.4084259367073
 20
13877.741504
 30
0.0
 11
4844.2949199367222
 21
13861.776687
 31
0.0
  0
LINE
  5
AD89
  8
0-6
  6
CONTINUOUS
 62
     6
 10
3152.1113789367182
 20
11999.48618599998
 30
0.0
 11
4232.1109829367197
 21
11999.48618599998
 31
0.0
  0
LINE
  5
AD8A
  8
0-6
  6
CONTINUOUS
 62
     6
 10
4818.8511779367109
 20
13869.75810599999
 30
0.0
 11
4232.1109829367197
 21
11999.48618599998
 31
0.0
  0
LINE
  5
AD8B
  8
0-6
  6
CONTINUOUS
 62
     6
 10
5061.7301899367058
 20
18158.121921951191
 30
0.0
 11
5160.7704529367074
 21
17937.328398951191
 31
0.0
  0
LINE
  5
ADA0
  8
0-6
  6
CONTINUOUS
 62
     6
 10
12986.2447059367
 20
19870.485579
 30
0.0
 11
13077.93204793672
 21
20004.293117000001
 31
0.0
  0
LINE
  5
ADA1
  8
0-6
  6
CONTINUOUS
 62
     6
 10
13116.373308936711
 20
19967.325606999992
 30
0.0
 11
12986.2447059367
 21
19870.485579
 31
0.0
  0
LINE
  5
ADA2
  8
0-6
  6
CONTINUOUS
 62
     6
 10
13116.373308936711
 20
19967.325606999992
 30
0.0
 11
13077.93204793672
 21
20004.293117000001
 31
0.0
  0
LINE
  5
ADA3
  8
0-6
  6
CONTINUOUS
 62
     6
 10
13097.15317393672
 20
19985.808372
 30
0.0
 11
13614.142061936711
 21
20490.486634999979
 31
0.0
  0
LINE
  5
ADA4
  8
0-6
  6
CONTINUOUS
 62
     6
 10
13614.142061936711
 20
20490.486634999979
 30
0.0
 11
15289.141401936709
 21
20490.486634999979
 31
0.0
  0
LINE
  5
ADA5
  8
2-0
  6
DASHED3
 62
     6
 10
4985.7433209367082
 20
19608.987215000001
 30
0.0
 11
12903.743320936699
 21
19608.987215000001
 31
0.0
  0
LINE
  5
ADA6
  8
2-0
  6
DASHED3
 62
     6
 10
4943.2440469367193
 20
18972.603133336848
 30
0.0
 11
4943.2440469367193
 21
19693.987743000002
 31
0.0
  0
LINE
  5
ADA7
  8
2-0
  6
DASHED3
 62
     6
 10
4985.7433209367082
 20
18955.067610197751
 30
0.0
 11
4985.7433209367082
 21
19693.987743000002
 31
0.0
  0
LINE
  5
ADA8
  8
2-0
  6
DASHED3
 62
     6
 10
4943.2440469367193
 20
19693.987743000002
 30
0.0
 11
12903.743320936699
 21
19693.987743000002
 31
0.0
  0
LINE
  5
ADA9
  8
2-0
  6
DASHED3
 62
     6
 10
7903.7433209367064
 20
17746.365060417251
 30
0.0
 11
7903.7433209367064
 21
19693.987743000002
 31
0.0
  0
LINE
  5
ADAA
  8
2-0
  6
DASHED3
 62
     6
 10
7946.2445749367171
 20
17728.828720315101
 30
0.0
 11
7946.2445749367171
 21
19693.987743000002
 31
0.0
  0
LINE
  5
ADAB
  8
2-0
  6
DASHED3
 62
     6
 10
5055.7440469367193
 20
19647.985711000001
 30
0.0
 11
6190.1457942567822
 21
18456.415540184302
 31
0.0
  0
LINE
  5
ADAC
  8
2-0
  6
DASHED3
 62
     6
 10
7833.744574936718
 20
19647.985711000001
 30
0.0
 11
6555.3818292924771
 21
18305.198892138069
 31
0.0
  0
LINE
  5
ADAD
  8
2-0
  6
CENTER2
 62
     6
 10
22001.010528585161
 20
21290.487954000011
 30
0.0
 11
22001.010528585161
 21
19080.986264999989
 31
0.0
  0
LINE
  5
ADAF
  8
2-0
  6
CENTER2
 62
     6
 10
19083.01052858515
 20
21290.487954000011
 30
0.0
 11
19083.01052858515
 21
19080.986264999989
 31
0.0
  0
LINE
  5
ADB0
  8
2-0
  6
CENTER2
 62
     6
 10
7903.7433209367064
 20
20890.487954
 30
0.0
 11
7903.7433209367064
 21
19940.487293999991
 31
0.0
  0
LINE
  5
ADB1
  8
2-0
  6
CENTER2
 62
     6
 10
3656.2432159367158
 20
19647.985711000001
 30
0.0
 11
5302.7424369367072
 21
19647.985711000001
 31
0.0
  0
LINE
  5
ADB2
  8
0-8
  6
CONTINUOUS
 62
     6
 10
4985.7433209367082
 20
20890.487954
 30
0.0
 11
4985.7433209367082
 21
19940.487293999991
 31
0.0
  0
LINE
  5
ADB4
  8
2-0
  6
CENTER2
 62
     6
 10
3656.2432159367149
 20
16729.985711000001
 30
0.0
 11
13075.542768936701
 21
16729.985711000001
 31
0.0
  0
LINE
  5
ADB5
  8
2-0
  6
CENTER2
 62
     6
 10
3656.2432159367158
 20
13811.985710999999
 30
0.0
 11
5302.7424369367072
 21
13811.985710999999
 31
0.0
  0
LINE
  5
ADB6
  8
2-0
  6
CENTER2
 62
     6
 10
17040.509605585161
 20
19647.985711000001
 30
0.0
 11
17760.508285585169
 21
19647.985711000001
 31
0.0
  0
LINE
  5
ADB7
  8
2-0
  6
CENTER2
 62
     6
 10
17040.509605585161
 20
16729.985711000001
 30
0.0
 11
17271.454823018259
 21
16729.985711000001
 31
0.0
  0
LINE
  5
ADB8
  8
2-0
  6
CENTER2
 62
     6
 10
17040.509605585161
 20
13811.985710999999
 30
0.0
 11
17760.508285585169
 21
13811.985710999999
 31
0.0
  0
LINE
  5
ADB9
  8
2-0
  6
CENTER2
 62
     6
 10
22001.010528585161
 20
5878.536116000002
 30
0.0
 11
22001.010528585161
 21
6915.6791430000021
 31
0.0
  0
LINE
  5
ADBA
  8
2-0
  6
CENTER2
 62
     6
 10
19083.01052858515
 20
5878.536116000002
 30
0.0
 11
19083.01052858515
 21
6915.6791430000021
 31
0.0
  0
LINE
  5
ADBB
  8
2-0
  6
CENTER2
 62
     6
 10
12044.734006470921
 20
5878.536116000002
 30
0.0
 11
12044.734006470921
 21
6935.6787140000024
 31
0.0
  0
LINE
  5
ADBC
  8
2-0
  6
CENTER2
 62
     6
 10
9126.7340064709388
 20
5878.536116000002
 30
0.0
 11
9126.7340064709388
 21
6935.6787140000024
 31
0.0
  0
LINE
  5
ADBD
  8
2-0
  6
CENTER2
 62
     6
 10
6208.7340064709351
 20
5878.536116000002
 30
0.0
 11
6208.7340064709351
 21
6935.6787140000024
 31
0.0
  0
ARC
  5
ADBE
  8
0-1
  6
CONTINUOUS
 62
     3
 10
19151.509789585161
 20
8372.1892910000024
 30
0.0
 40
5.0
 50
90.0
 51
180.0
  0
ARC
  5
ADBF
  8
0-1
  6
CONTINUOUS
 62
     3
 10
19151.509789585161
 20
8340.1888889999973
 30
0.0
 40
5.0
 50
180.0
 51
269.9999850001808
  0
ARC
  5
ADC0
  8
0-1
  6
CONTINUOUS
 62
     3
 10
19428.93931958517
 20
8340.1888889999973
 30
0.0
 40
5.0
 50
269.9999850001808
 51
314.99998500021371
  0
ARC
  5
ADC1
  8
0-1
  6
CONTINUOUS
 62
     3
 10
19460.936257585159
 20
8372.1892910000024
 30
0.0
 40
5.0
 50
314.99998500021371
 51
90.0
  0
ARC
  5
ADC2
  8
0-1
  6
CONTINUOUS
 62
     3
 10
21932.509288585159
 20
8340.1888889999973
 30
0.0
 40
5.0
 50
269.9999850001808
 51
0.0
  0
ARC
  5
ADC3
  8
0-1
  6
CONTINUOUS
 62
     3
 10
21932.509288585159
 20
8372.1892910000024
 30
0.0
 40
5.0
 50
0.0
 51
90.0
  0
ARC
  5
ADC4
  8
0-1
  6
CONTINUOUS
 62
     3
 10
21623.08282058515
 20
8372.1892910000024
 30
0.0
 40
5.0
 50
90.0
 51
224.99998499997221
  0
ARC
  5
ADC5
  8
0-1
  6
CONTINUOUS
 62
     3
 10
21655.079759585162
 20
8340.1888889999973
 30
0.0
 40
5.0
 50
224.99998499997221
 51
269.9999850001808
  0
ARC
  5
ADC6
  8
0-1
  6
CONTINUOUS
 62
     3
 10
12172.173433470931
 20
8524.1801920000016
 30
0.0
 40
24.999998999999999
 50
271.71998600002598
 51
91.719986000025997
  0
ARC
  5
ADC7
  8
0-1
  6
CONTINUOUS
 62
     3
 10
5990.3426294709352
 20
8355.6505650000036
 30
0.0
 40
3.0
 50
181.71998599998841
 51
271.71998600002598
  0
ARC
  5
ADC8
  8
0-1
  6
CONTINUOUS
 62
     3
 10
5991.3798974709352
 20
8387.6955070000004
 30
0.0
 40
5.0
 50
91.719986000025997
 51
181.71998599998841
  0
ARC
  5
ADC9
  8
0-1
  6
CONTINUOUS
 62
     3
 10
12167.176139470919
 20
8524.029749000003
 30
0.0
 40
69.999999000000003
 50
293.50677499978713
 51
69.933196999906173
  0
ARC
  5
ADCA
  8
0-1
  6
CONTINUOUS
 62
     3
 10
5994.9836104709393
 20
8267.7500430000036
 30
0.0
 40
5.0
 50
181.71998599998841
 51
271.71998600002598
  0
ARC
  5
ADCB
  8
0-1
  6
CONTINUOUS
 62
     3
 10
5992.0222514709376
 20
8299.6752230000038
 30
0.0
 40
3.0
 50
91.719986000025997
 51
181.71998599998841
  0
ARC
  5
ADCC
  8
0-1
  6
CONTINUOUS
 62
     3
 10
5992.0064144709349
 20
8350.1979809999993
 30
0.0
 40
2.5
 50
271.71998600002598
 51
91.719986000025997
  0
ARC
  5
ADCD
  8
0-1
  6
CONTINUOUS
 62
     3
 10
5993.3564464709334
 20
8305.2178750000021
 30
0.0
 40
2.5
 50
271.71998600002598
 51
91.719986000025997
  0
ARC
  5
ADCE
  8
0-1
  6
CONTINUOUS
 62
     3
 10
5990.6722194709373
 20
8344.6553289999974
 30
0.0
 40
3.0
 50
91.719986000025997
 51
181.71998599998841
  0
ARC
  5
ADCF
  8
0-1
  6
CONTINUOUS
 62
     3
 10
12172.173433470931
 20
8524.1801920000016
 30
0.0
 40
20.0
 50
271.71998600002598
 51
91.719986000025997
  0
ARC
  5
ADD0
  8
0-1
  6
CONTINUOUS
 62
     3
 10
5991.6926614709337
 20
8310.6699640000043
 30
0.0
 40
3.0
 50
181.71998599998841
 51
271.71998600002598
  0
ARC
  5
ADD1
  8
0-1
  6
CONTINUOUS
 62
     3
 10
4968.7425819366981
 20
19835.487690000002
 30
0.0
 40
5.0
 50
269.9999850001808
 51
0.0
  0
ARC
  5
ADD2
  8
0-1
  6
CONTINUOUS
 62
     3
 10
4968.7452832541894
 20
19865.488412922328
 30
0.0
 40
4.99729880777691
 50
359.9871711637191
 51
90.030971551784916
  0
ARC
  5
ADD3
  8
0-1
  6
CONTINUOUS
 62
     3
 10
4905.2396684604701
 20
19865.48850618611
 30
0.0
 40
4.9970736707893684
 50
89.966445412325555
 51
180.01389876465331
  0
CIRCLE
  5
ADD4
  8
0-5
  6
CONTINUOUS
 62
     4
 10
22001.010528585161
 20
21490.48663499999
 30
0.0
 40
199.9999949999999
  0
CIRCLE
  5
ADD5
  8
0-5
  6
CONTINUOUS
 62
     4
 10
16840.508945585159
 20
19647.985711000001
 30
0.0
 40
199.9999949999999
  0
CIRCLE
  5
ADD6
  8
0-5
  6
CONTINUOUS
 62
     4
 10
7903.7433209367064
 20
21090.486634999979
 30
0.0
 40
199.9999949999999
  0
CIRCLE
  5
ADD7
  8
0-5
  6
CONTINUOUS
 62
     4
 10
4985.7433209367082
 20
21090.486634999979
 30
0.0
 40
199.9999949999999
  0
CIRCLE
  5
ADD8
  8
0-5
  6
CONTINUOUS
 62
     4
 10
3456.2435449367181
 20
19647.985711000001
 30
0.0
 40
199.9999949999999
  0
CIRCLE
  5
ADD9
  8
0-5
  6
CONTINUOUS
 62
     4
 10
16840.508945585159
 20
16729.985711000001
 30
0.0
 40
199.9999949999999
  0
CIRCLE
  5
ADDA
  8
0-5
  6
CONTINUOUS
 62
     4
 10
16840.508945585159
 20
13811.985710999999
 30
0.0
 40
199.9999949999999
  0
CIRCLE
  5
ADDB
  8
0-5
  6
CONTINUOUS
 62
     4
 10
3456.2435449367181
 20
16729.985711000001
 30
0.0
 40
199.9999949999999
  0
CIRCLE
  5
ADDC
  8
0-5
  6
CONTINUOUS
 62
     4
 10
3456.2435449367181
 20
13811.985710999999
 30
0.0
 40
199.9999949999999
  0
CIRCLE
  5
ADDD
  8
0-5
  6
CONTINUOUS
 62
     4
 10
19083.01052858515
 20
21490.48663499999
 30
0.0
 40
199.9999949999999
  0
CIRCLE
  5
ADDE
  8
0-5
  6
CONTINUOUS
 62
     4
 10
22001.010528585161
 20
4101.1882420000011
 30
0.0
 40
199.9999949999999
  0
CIRCLE
  5
ADDF
  8
0-5
  6
CONTINUOUS
 62
     4
 10
9126.7340064709388
 20
4101.1882420000011
 30
0.0
 40
199.9999949999999
  0
CIRCLE
  5
ADE0
  8
0-5
  6
CONTINUOUS
 62
     4
 10
12044.734006470921
 20
4101.1882420000011
 30
0.0
 40
199.9999949999999
  0
CIRCLE
  5
ADE1
  8
0-5
  6
CONTINUOUS
 62
     4
 10
19083.01052858515
 20
4101.1882420000011
 30
0.0
 40
199.9999949999999
  0
CIRCLE
  5
ADE2
  8
0-5
  6
CONTINUOUS
 62
     4
 10
6208.7340064709351
 20
4101.1882420000011
 30
0.0
 40
199.9999949999999
  0
CIRCLE
  5
ADE3
  8
0-5
  6
CONTINUOUS
 62
     4
 10
15128.71667799999
 20
1375.999982000001
 30
0.0
 40
20.0
  0
ARC
  5
ADE4
  8
0-5
  6
CONTINUOUS
 62
     4
 10
15128.71667799999
 20
1375.999982000001
 30
0.0
 40
20.0
 50
180.0
 51
0.0
  0
ARC
  5
ADE5
  8
0-5
  6
CONTINUOUS
 62
     4
 10
15128.71667799999
 20
1375.999982000001
 30
0.0
 40
20.0
 50
0.0
 51
179.99998500000001
  0
CIRCLE
  5
ADE6
  8
0-5
  6
CONTINUOUS
 62
     4
 10
15128.71667799999
 20
1775.999321999999
 30
0.0
 40
20.0
  0
ARC
  5
ADE7
  8
0-5
  6
CONTINUOUS
 62
     4
 10
15128.71667799999
 20
1775.999321999999
 30
0.0
 40
20.0
 50
180.0
 51
0.0
  0
ARC
  5
ADE8
  8
0-5
  6
CONTINUOUS
 62
     4
 10
15128.71667799999
 20
1775.999321999999
 30
0.0
 40
20.0
 50
0.0
 51
179.99998500000001
  0
TEXT
  5
ADE9
  8
0-5
  6
CONTINUOUS
 62
     7
 10
21946.340184585151
 20
21404.260784999999
 30
0.0
 40
160.0
  1
2
 72
     4
 11
21999.67351791848
 21
21484.260784999999
 31
0.0
  0
TEXT
  5
ADEA
  8
0-5
  6
CONTINUOUS
 62
     7
 10
19028.340184585159
 20
21404.260784999999
 30
0.0
 40
160.0
  1
1
 72
     4
 11
19055.00685125183
 21
21484.260784999999
 31
0.0
  0
TEXT
  5
ADEB
  8
0-5
  6
CONTINUOUS
 62
     7
 10
16791.832583585168
 20
19556.367652000001
 30
0.0
 40
160.0
  1
C
 72
     4
 11
16845.1659169185
 21
19636.367652000001
 31
0.0
  0
TEXT
  5
ADEC
  8
0-5
  6
CONTINUOUS
 62
     7
 10
7850.026114936717
 20
21001.271712000002
 30
0.0
 40
160.0
  1
2
 72
     4
 11
7903.359448270051
 21
21081.271712000002
 31
0.0
  0
TEXT
  5
ADED
  8
0-5
  6
CONTINUOUS
 62
     7
 10
4932.0241359367183
 20
21001.271712000002
 30
0.0
 40
160.0
  1
1
 72
     4
 11
4958.6908026033852
 21
21081.271712000002
 31
0.0
  0
TEXT
  5
ADEE
  8
0-5
  6
CONTINUOUS
 62
     7
 10
3402.78367693672
 20
19568.397186999999
 30
0.0
 40
160.0
  1
C
 72
     4
 11
3456.117010270053
 21
19648.397186999999
 31
0.0
  0
TEXT
  5
ADEF
  8
0-5
  6
CONTINUOUS
 62
     7
 10
16791.832583585168
 20
16638.367653000001
 30
0.0
 40
160.0
  1
B
 72
     4
 11
16845.1659169185
 21
16718.367653000001
 31
0.0
  0
TEXT
  5
ADF0
  8
0-5
  6
CONTINUOUS
 62
     7
 10
16791.832583585168
 20
13720.367652000001
 30
0.0
 40
160.0
  1
A
 72
     4
 11
16845.1659169185
 21
13800.367652000001
 31
0.0
  0
TEXT
  5
ADF1
  8
0-5
  6
CONTINUOUS
 62
     7
 10
3402.7836769367191
 20
16650.398176999981
 30
0.0
 40
160.0
  1
B
 72
     4
 11
3456.1170102700521
 21
16730.398176999981
 31
0.0
  0
TEXT
  5
ADF2
  8
0-5
  6
CONTINUOUS
 62
     7
 10
3402.7836769367191
 20
13732.397187
 30
0.0
 40
160.0
  1
A
 72
     4
 11
3456.1170102700521
 21
13812.397187
 31
0.0
  0
TEXT
  5
ADF3
  8
0-5
  6
CONTINUOUS
 62
     7
 10
21949.097653585151
 20
4011.7132600000009
 30
0.0
 40
160.0
  1
2
 72
     4
 11
22002.43098691848
 21
4091.7132600000009
 31
0.0
  0
TEXT
  5
ADF4
  8
0-5
  6
CONTINUOUS
 62
     7
 10
18473.01000158516
 20
6988.0104361594431
 30
0.0
 40
160.0
  1
(2131.5)
 50
90.0
 72
     4
 11
18393.01000158516
 21
7441.3437694927761
 31
0.0
  0
TEXT
  5
ADF5
  8
0-5
  6
CONTINUOUS
 62
     7
 10
13345.72706547093
 20
6529.034625000003
 30
0.0
 40
160.0
  1
布基礎天端
 72
     4
 11
13804.3937321376
 21
6609.034625000003
 31
0.0
  0
TEXT
  5
ADF6
  8
0-5
  6
CONTINUOUS
 62
     7
 10
16861.137508585161
 20
6429.0347900000006
 30
0.0
 40
160.0
  1
G.L
 72
     4
 11
17021.137508585161
 21
6509.0347900000006
 31
0.0
  0
TEXT
  5
ADF7
  8
0-5
  6
CONTINUOUS
 62
     7
 10
19031.097654585159
 20
4011.7132600000009
 30
0.0
 40
160.0
  1
1
 72
     4
 11
19057.764321251831
 21
4091.7132600000009
 31
0.0
  0
TEXT
  5
ADF8
  8
0-5
  6
CONTINUOUS
 62
     7
 10
11997.777846470921
 20
4017.9774460000021
 30
0.0
 40
160.0
  1
A
 72
     4
 11
12051.11117980426
 21
4097.9774460000026
 31
0.0
  0
TEXT
  5
ADF9
  8
0-5
  6
CONTINUOUS
 62
     7
 10
9079.7778464709299
 20
4017.9774460000021
 30
0.0
 40
160.0
  1
B
 72
     4
 11
9133.1111798042657
 21
4097.9774460000026
 31
0.0
  0
TEXT
  5
ADFA
  8
0-5
  6
CONTINUOUS
 62
     7
 10
16661.217403999992
 20
1655.999792000001
 30
0.0
 40
160.0
  1
H
  0
TEXT
  5
ADFB
  8
0-5
  6
CONTINUOUS
 62
     7
 10
6161.777846470939
 20
4017.9774460000021
 30
0.0
 40
160.0
  1
C
 72
     4
 11
6215.1111798042721
 21
4097.9774460000026
 31
0.0
  0
TEXT
  5
ADFC
  8
0-5
  6
CONTINUOUS
 62
     7
 10
15176.146933
 20
1655.999792000001
 30
0.0
 40
160.0
  1
（ ）内寸法ハ、  タイプヲ示ス。
  0
TEXT
  5
ADFD
  8
0-5
  6
CONTINUOUS
 62
     7
 10
15288.716216000001
 20
1255.999462
 30
0.0
 40
160.0
  1
有効高サハ、基礎高サヲ含ミマセン。
  0
TEXT
  5
AE05
  8
0-6
  6
CONTINUOUS
 62
     7
 10
6455.5344549367164
 20
20180.486106999979
 30
0.0
 40
160.0
  1
屋根
 72
     4
 11
6626.2011216033843
 21
20260.486106999979
 31
0.0
  0
TEXT
  5
AE06
  8
0-6
  6
CONTINUOUS
 62
     7
 10
5155.0585529367208
 20
20180.486106999979
 30
0.0
 40
160.0
  1
桁（後）
 72
     4
 11
5475.0585529367208
 21
20260.486106999979
 31
0.0
  0
TEXT
  5
AE07
  8
0-6
  6
CONTINUOUS
 62
     7
 10
5998.9042920025604
 20
14256.31538
 30
0.0
 40
160.0
  1
桁（前）
 72
     4
 11
6318.9042920025604
 21
14336.31538
 31
0.0
  0
TEXT
  5
AE08
  8
0-6
  6
CONTINUOUS
 62
     7
 10
6906.4284420025706
 20
12892.48646299999
 30
0.0
 40
160.0
  1
鼻隠し前
 72
     4
 11
7269.0951086692376
 21
12972.48646299999
 31
0.0
  0
TEXT
  5
AE09
  8
0-6
  6
CONTINUOUS
 62
     7
 10
3232.1116429367189
 20
12079.485459999991
 30
0.0
 40
160.0
  1
ケラバ 左
 72
     4
 11
3648.1116429367189
 21
12159.485459999991
 31
0.0
  0
TEXT
  5
AE0A
  8
0-6
  6
CONTINUOUS
 62
     7
 10
5240.7707169367213
 20
18017.328662951189
 30
0.0
 40
160.0
  1
上枠
 72
     4
 11
5411.4373836033883
 21
18097.328662951189
 31
0.0
  0
TEXT
  5
AE0B
  8
0-6
  6
CONTINUOUS
 62
     7
 10
13694.14232593672
 20
20570.484918999991
 30
0.0
 40
160.0
  1
鼻隠しコーナー後
 72
     4
 11
14440.80899260339
 21
20650.484918999991
 31
0.0
  0
TEXT
  5
AE0C
  8
2-0
  6
CONTINUOUS
 62
     7
 10
22172.668069228708
 20
11251.104441999991
 30
0.0
 40
160.0
  1
平　面　図
 72
     4
 11
22626.00140256204
 21
11325.77110866666
 31
0.0
  0
TEXT
  5
AE0D
  8
2-0
  6
CONTINUOUS
 62
     7
 10
7397.297804796618
 20
11156.81700299998
 30
0.0
 40
160.0
  1
小 屋 伏 図
 72
     4
 11
7898.6311381299502
 21
11236.81700299998
 31
0.0
  0
TEXT
  5
AE0E
  8
2-0
  6
CONTINUOUS
 62
     7
 10
21841.769232999432
 20
3292.802588999999
 30
0.0
 40
160.0
  1
正 面 立 面 図
 72
     4
 11
22487.102566332771
 21
3372.802588999999
 31
0.0
  0
TEXT
  5
AE0F
  8
2-0
  6
CONTINUOUS
 62
     7
 10
7808.7002624709367
 20
3264.0669070000022
 30
0.0
 40
160.0
  1
側 面 立 面 図
 50
0.000139
 72
     4
 11
8454.0334017217574
 21
3344.0684725833762
 31
0.0
  0
CIRCLE
  5
AE13
  8
0-4
  6
CONTINUOUS
 62
     4
 10
20542.00854908516
 20
6627.2449749999987
 30
0.0
 40
18.487504999999981
  0
TEXT
  5
AE14
  8
2-0
  6
CONTINUOUS
 62
     7
 10
9805.5255868593831
 20
3291.2638415833758
 30
0.0
 40
160.0
  1
1
 72
     4
 11
9832.1922535260492
 21
3371.2638415833749
 31
0.0
  0
TEXT
  5
AE15
  8
2-0
  6
CONTINUOUS
 62
     7
 10
10048.61430411006
 20
3211.2653095833748
 30
0.0
 40
160.0
  1
80
 72
     4
 11
10168.61430411006
 21
3291.2653095833748
 31
0.0
  0
TEXT
  5
AE16
  8
2-0
  6
CONTINUOUS
 62
     7
 10
9306.5275528593793
 20
3264.0684725833762
 30
0.0
 40
160.0
  1
(S=  /   )
 72
     4
 11
9866.5275528593793
 21
3344.0684725833762
 31
0.0
  0
TEXT
  5
AE17
  8
2-0
  6
CONTINUOUS
 62
     7
 10
23838.594751470391
 20
3319.9979579999999
 30
0.0
 40
160.0
  1
1
 72
     4
 11
23865.261418137059
 21
3399.9979579999999
 31
0.0
  0
TEXT
  5
AE18
  8
2-0
  6
CONTINUOUS
 62
     7
 10
24081.683468721101
 20
3239.9994259999989
 30
0.0
 40
160.0
  1
80
 72
     4
 11
24201.683468721101
 21
3319.9994259999989
 31
0.0
  0
TEXT
  5
AE19
  8
2-0
  6
CONTINUOUS
 62
     7
 10
23339.596717470398
 20
3292.802588999999
 30
0.0
 40
160.0
  1
(S=  /   )
 72
     4
 11
23899.596717470398
 21
3372.802588999999
 31
0.0
  0
TEXT
  5
AE1A
  8
2-0
  6
CONTINUOUS
 62
     7
 10
23977.493587699679
 20
11272.96647766667
 30
0.0
 40
160.0
  1
1
 72
     4
 11
24004.160254366339
 21
11352.96647766667
 31
0.0
  0
TEXT
  5
AE1B
  8
2-0
  6
CONTINUOUS
 62
     7
 10
24220.58230495036
 20
11192.967945666671
 30
0.0
 40
160.0
  1
80
 72
     4
 11
24340.58230495036
 21
11272.967945666671
 31
0.0
  0
TEXT
  5
AE1C
  8
2-0
  6
CONTINUOUS
 62
     7
 10
23478.495553699671
 20
11245.77110866666
 30
0.0
 40
160.0
  1
(S=  /   )
 72
     4
 11
24038.495553699671
 21
11325.77110866666
 31
0.0
  0
TEXT
  5
AE1D
  8
2-0
  6
CONTINUOUS
 62
     7
 10
9250.1233232675786
 20
11184.012371999979
 30
0.0
 40
160.0
  1
1
 72
     4
 11
9276.7899899342447
 21
11264.012371999979
 31
0.0
  0
TEXT
  5
AE1E
  8
2-0
  6
CONTINUOUS
 62
     7
 10
9493.2120405182704
 20
11104.01383999998
 30
0.0
 40
160.0
  1
80
 72
     4
 11
9613.2120405182704
 21
11184.01383999998
 31
0.0
  0
TEXT
  5
AE1F
  8
2-0
  6
CONTINUOUS
 62
     7
 10
8751.1252892675675
 20
11156.81700299998
 30
0.0
 40
160.0
  1
(S=  /   )
 72
     4
 11
9311.1252892675675
 21
11236.81700299998
 31
0.0
  0
LINE
  5
AE20
  8
1-前柱カバ-P
 10
26958.510528585161
 20
8459.6884659999942
 30
0.0
 11
26958.510528585161
 21
6141.1885389999998
 31
0.0
  0
LINE
  5
AE21
  8
1-前柱カバ-P
 10
27043.510528585171
 20
8589.6884000000027
 30
0.0
 11
27043.510528585161
 21
6141.1885389999998
 31
0.0
  0
LINE
  5
AE22
  8
0-1
  6
CONTINUOUS
 62
     3
 10
27086.510528585171
 20
8459.6884660000014
 30
0.0
 11
21958.510264585151
 21
8459.6884660000014
 31
0.0
  0
LINE
  5
AE23
  8
0-1
  6
CONTINUOUS
 62
     3
 10
22023.511716585152
 20
8589.6883999999973
 30
0.0
 11
27086.510528585171
 21
8589.6884000000027
 31
0.0
  0
LINE
  5
AE24
  8
0-1
  6
CONTINUOUS
 62
     3
 10
27086.510528585171
 20
8264.0026620000026
 30
0.0
 11
27086.510528585171
 21
8589.6884000000027
 31
0.0
  0
LINE
  5
AE25
  8
0-1
  6
CONTINUOUS
 62
     3
 10
27086.510528585171
 20
8264.0026620000026
 30
0.0
 11
27043.510528585171
 21
8264.0026620000026
 31
0.0
  0
LINE
  5
AE26
  8
2-0
  6
CENTER2
 62
     6
 10
27001.010528585161
 20
5878.536116000002
 30
0.0
 11
27001.010528585161
 21
6915.6791430000021
 31
0.0
  0
LINE
  5
AE27
  8
1-桁前P28
 10
26958.510528585161
 20
8262.0026620000026
 30
0.0
 11
22043.510528585161
 21
8262.0026620000008
 31
0.0
  0
CIRCLE
  5
AE28
  8
0-5
  6
CONTINUOUS
 62
     4
 10
27001.010528585161
 20
4101.1882420000011
 30
0.0
 40
199.9999949999999
  0
TEXT
  5
AE29
  8
0-5
  6
CONTINUOUS
 62
     7
 10
26949.09765358517
 20
4011.7132600000009
 30
0.0
 40
160.0
  1
3
 72
     4
 11
27002.430986918502
 21
4091.7132600000009
 31
0.0
  0
LINE
  5
AE2A
  8
0-5
  6
CONTINUOUS
 62
     4
 10
27001.010528585161
 20
4461.1889350000001
 30
0.0
 11
27001.010528585161
 21
4301.1893970000001
 31
0.0
  0
LINE
  5
AE2B
  8
2-0
  6
CENTER2
 62
     6
 10
27001.010528585161
 20
21290.487954000011
 30
0.0
 11
27001.010528585161
 21
12649.486700999991
 31
0.0
  0
CIRCLE
  5
AE2C
  8
0-5
  6
CONTINUOUS
 62
     4
 10
27001.010528585161
 20
21490.48663499999
 30
0.0
 40
199.9999949999999
  0
TEXT
  5
AE2D
  8
0-5
  6
CONTINUOUS
 62
     7
 10
26946.340184585151
 20
21404.260784999999
 30
0.0
 40
160.0
  1
3
 72
     4
 11
26999.67351791848
 21
21484.260784999999
 31
0.0
  0
ARC
  5
AE2E
  8
1-後柱P
  6
HIDE-M
 62
     6
 10
27004.61052858517
 20
19579.935710999991
 30
0.0
 40
2.6000000000000001
 50
180.0
 51
270.0
  0
LINE
  5
AE2F
  8
1-後柱P
  6
HIDE-M
 62
     6
 10
26993.010528585161
 20
19577.886320846799
 30
0.0
 11
26993.010528585161
 21
19581.535711
 31
0.0
  0
LINE
  5
AE30
  8
1-後柱P
  6
HIDE-M
 62
     6
 10
27003.010528585161
 20
19577.886320846799
 30
0.0
 11
27003.010528585161
 21
19581.535711
 31
0.0
  0
LINE
  5
AE31
  8
1-後柱P
  6
1PL-M
 62
     6
 10
26998.010528585171
 20
19572.335710999989
 30
0.0
 11
26998.010528585171
 21
19586.535711
 31
0.0
  0
ARC
  5
AE32
  8
1-後柱P
  6
HIDE-M
 62
     6
 10
26991.410528585158
 20
19579.935710999991
 30
0.0
 40
2.6000000000000001
 50
270.0
 51
0.0
  0
LINE
  5
AE33
  8
1-後柱P
  6
HIDE-M
 62
     6
 10
27002.010528585161
 20
19579.935710999991
 30
0.0
 11
27002.010528585161
 21
19581.535711
 31
0.0
  0
LINE
  5
AE34
  8
1-後柱P
  6
HIDE-M
 62
     6
 10
26994.010528585171
 20
19579.935710999991
 30
0.0
 11
26994.010528585171
 21
19581.535711
 31
0.0
  0
LINE
  5
AE35
  8
1-後柱P
 10
27011.910528585158
 20
19692.235711000001
 30
0.0
 11
26990.11052858517
 21
19692.235711000001
 31
0.0
  0
LINE
  5
AE36
  8
1-後柱P
 10
26960.11052858517
 20
19654.935710999991
 30
0.0
 11
26960.11052858517
 21
19662.235711000001
 31
0.0
  0
ARC
  5
AE37
  8
1-後柱P
 10
26990.11052858517
 20
19662.235711000001
 30
0.0
 40
30.0
 50
90.0
 51
180.0
  0
ARC
  5
AE38
  8
1-後柱P
 10
26990.11052858517
 20
19662.235711000001
 30
0.0
 40
31.600000000000001
 50
90.0
 51
180.0
  0
LINE
  5
AE39
  8
1-後柱P
 10
27011.910528585158
 20
19693.835711
 30
0.0
 11
26990.11052858517
 21
19693.835711
 31
0.0
  0
LINE
  5
AE3A
  8
1-後柱P
 10
26958.510528585161
 20
19654.935710999991
 30
0.0
 11
26958.510528585161
 21
19662.235711000001
 31
0.0
  0
LINE
  5
AE3B
  8
1-後柱P
 10
26981.510528585161
 20
19633.335711
 30
0.0
 11
26981.510528585161
 21
19643.335711
 31
0.0
  0
LINE
  5
AE3C
  8
1-後柱P
 10
26983.11052858517
 20
19643.335711
 30
0.0
 11
26983.11052858517
 21
19633.335711
 31
0.0
  0
LINE
  5
AE3D
  8
1-後柱P
 10
27041.910528585158
 20
19654.935710999991
 30
0.0
 11
27041.910528585158
 21
19662.235711000001
 31
0.0
  0
ARC
  5
AE3E
  8
1-後柱P
 10
27011.910528585158
 20
19662.235711000001
 30
0.0
 40
30.0
 50
0.0
 51
90.0
  0
ARC
  5
AE3F
  8
1-後柱P
 10
27011.910528585158
 20
19662.235711000001
 30
0.0
 40
31.600000000000001
 50
0.0
 51
90.0
  0
LINE
  5
AE40
  8
1-後柱P
 10
27043.510528585171
 20
19654.935710999991
 30
0.0
 11
27043.510528585171
 21
19662.235711000001
 31
0.0
  0
LINE
  5
AE41
  8
1-後柱P
 10
27036.910528585158
 20
19648.335710999989
 30
0.0
 11
27025.510528585161
 21
19648.335710999989
 31
0.0
  0
ARC
  5
AE42
  8
1-後柱P
 10
27036.910528585158
 20
19654.935710999991
 30
0.0
 40
6.599999999999997
 50
270.0
 51
0.0
  0
ARC
  5
AE43
  8
1-後柱P
 10
27025.510528585161
 20
19643.335711
 30
0.0
 40
5.0
 50
90.0
 51
180.0
  0
LINE
  5
AE44
  8
1-後柱P
 10
27036.910528585158
 20
19649.935710999991
 30
0.0
 11
27025.510528585161
 21
19649.935710999991
 31
0.0
  0
ARC
  5
AE45
  8
1-後柱P
 10
27036.910528585158
 20
19654.935710999991
 30
0.0
 40
5.0
 50
270.0
 51
0.0
  0
LINE
  5
AE46
  8
1-後柱P
 10
27020.510528585171
 20
19643.335711
 30
0.0
 11
27020.510528585171
 21
19583.935710999998
 31
0.0
  0
LINE
  5
AE47
  8
1-後柱P
 10
27018.910528585158
 20
19643.335711
 30
0.0
 11
27018.910528585158
 21
19583.935710999998
 31
0.0
  0
ARC
  5
AE48
  8
1-後柱P
 10
27025.510528585161
 20
19643.335711
 30
0.0
 40
6.599999999999997
 50
90.0
 51
180.0
  0
LINE
  5
AE49
  8
1-後柱P
 10
27013.910528585158
 20
19577.335711
 30
0.0
 11
26980.510528585171
 21
19577.335711
 31
0.0
  0
ARC
  5
AE4A
  8
1-後柱P
 10
27013.910528585158
 20
19583.935710999998
 30
0.0
 40
6.599999999999997
 50
270.0
 51
0.0
  0
LINE
  5
AE4B
  8
1-後柱P
 10
27013.910528585158
 20
19578.935710999991
 30
0.0
 11
26980.510528585171
 21
19578.935710999991
 31
0.0
  0
ARC
  5
AE4C
  8
1-後柱P
 10
27013.910528585158
 20
19583.935710999998
 30
0.0
 40
5.0
 50
270.0
 51
0.0
  0
LINE
  5
AE4D
  8
1-後柱P
 10
26980.510528585171
 20
19578.935710999991
 30
0.0
 11
26980.510528585171
 21
19577.335711
 31
0.0
  0
LINE
  5
AE4E
  8
1-後柱P
 10
26965.11052858517
 20
19648.335710999989
 30
0.0
 11
26976.510528585161
 21
19648.335710999989
 31
0.0
  0
ARC
  5
AE4F
  8
1-後柱P
 10
26965.11052858517
 20
19654.935710999991
 30
0.0
 40
6.599999999999997
 50
180.0
 51
270.0
  0
ARC
  5
AE50
  8
1-後柱P
 10
26976.510528585161
 20
19643.335711
 30
0.0
 40
5.0
 50
0.0
 51
90.0
  0
LINE
  5
AE51
  8
1-後柱P
 10
26976.510528585161
 20
19649.935710999991
 30
0.0
 11
26965.11052858517
 21
19649.935710999991
 31
0.0
  0
ARC
  5
AE52
  8
1-後柱P
 10
26976.510528585161
 20
19643.335711
 30
0.0
 40
6.599999999999997
 50
0.0
 51
90.0
  0
ARC
  5
AE53
  8
1-後柱P
 10
26965.11052858517
 20
19654.935710999991
 30
0.0
 40
5.0
 50
180.0
 51
270.0
  0
LINE
  5
AE54
  8
1-後柱P
 10
26981.510528585161
 20
19633.335711
 30
0.0
 11
26983.11052858517
 21
19633.335711
 31
0.0
  0
LINE
  5
AE55
  8
1-後柱カバ-P
 10
26958.510528585161
 20
19641.635710999999
 30
0.0
 11
26958.510528585161
 21
19582.335711
 31
0.0
  0
ARC
  5
AE56
  8
1-後柱カバ-P
 10
26965.11052858517
 20
19582.335711
 30
0.0
 40
6.599999999999997
 50
180.0
 51
270.0
  0
LINE
  5
AE57
  8
1-後柱カバ-P
 10
26960.11052858517
 20
19641.635710999999
 30
0.0
 11
26960.11052858517
 21
19582.335711
 31
0.0
  0
ARC
  5
AE58
  8
1-後柱カバ-P
 10
26965.11052858517
 20
19641.635710999999
 30
0.0
 40
5.0
 50
90.0
 51
180.0
  0
LINE
  5
AE59
  8
1-後柱カバ-P
 10
26965.11052858517
 20
19575.735711000001
 30
0.0
 11
27036.910528585158
 21
19575.735711000001
 31
0.0
  0
ARC
  5
AE5A
  8
1-後柱カバ-P
 10
27036.910528585158
 20
19582.335711
 30
0.0
 40
6.599999999999997
 50
270.0
 51
0.0
  0
LINE
  5
AE5B
  8
1-後柱カバ-P
 10
26965.11052858517
 20
19577.335711
 30
0.0
 11
27036.910528585158
 21
19577.335711
 31
0.0
  0
ARC
  5
AE5C
  8
1-後柱カバ-P
 10
27036.910528585158
 20
19582.335711
 30
0.0
 40
5.0
 50
270.0
 51
0.0
  0
ARC
  5
AE5D
  8
1-後柱カバ-P
 10
26965.11052858517
 20
19582.335711
 30
0.0
 40
5.0
 50
180.0
 51
270.0
  0
LINE
  5
AE5E
  8
1-後柱カバ-P
 10
27043.510528585171
 20
19582.335711
 30
0.0
 11
27043.510528585171
 21
19641.635710999999
 31
0.0
  0
LINE
  5
AE5F
  8
1-後柱カバ-P
 10
27041.910528585158
 20
19582.335711
 30
0.0
 11
27041.910528585158
 21
19641.635710999999
 31
0.0
  0
ARC
  5
AE60
  8
1-後柱カバ-P
 10
27036.910528585158
 20
19641.635710999999
 30
0.0
 40
5.0
 50
0.0
 51
90.0
  0
LINE
  5
AE61
  8
1-後柱カバ-P
  6
1PL-M
 62
     6
 10
27001.010528585161
 20
19583.235711000001
 30
0.0
 11
27001.010528585161
 21
19570.235711000001
 31
0.0
  0
LINE
  5
AE62
  8
1-後柱カバ-P
  6
HIDE-M
 62
     6
 10
26994.010528585171
 20
19575.735711000001
 30
0.0
 11
26994.010528585171
 21
19577.335711
 31
0.0
  0
LINE
  5
AE63
  8
1-後柱カバ-P
  6
HIDE-M
 62
     6
 10
27008.010528585161
 20
19575.735711000001
 30
0.0
 11
27008.010528585161
 21
19577.335711
 31
0.0
  0
ARC
  5
AE64
  8
1-後柱カバ-P
 10
26965.11052858517
 20
19641.635710999999
 30
0.0
 40
6.599999999999997
 50
90.0
 51
180.0
  0
ARC
  5
AE65
  8
1-後柱カバ-P
 10
27036.910528585158
 20
19641.635710999999
 30
0.0
 40
6.599999999999997
 50
0.0
 51
90.0
  0
LINE
  5
AE66
  8
1-後柱カバ-P
 10
27028.510528585171
 20
19648.235711000001
 30
0.0
 11
27036.910528585158
 21
19648.235711000001
 31
0.0
  0
LINE
  5
AE67
  8
1-後柱カバ-P
 10
26973.510528585161
 20
19648.235711000001
 30
0.0
 11
26965.11052858517
 21
19648.235711000001
 31
0.0
  0
LINE
  5
AE68
  8
1-後柱カバ-P
 10
27028.510528585171
 20
19646.635710999999
 30
0.0
 11
27036.910528585158
 21
19646.635710999999
 31
0.0
  0
LINE
  5
AE69
  8
1-後柱カバ-P
 10
26973.510528585161
 20
19646.635710999999
 30
0.0
 11
26965.11052858517
 21
19646.635710999999
 31
0.0
  0
LINE
  5
AE6A
  8
1-後柱カバ-P
 10
26973.510528585161
 20
19646.635710999999
 30
0.0
 11
26973.510528585161
 21
19648.235711000001
 31
0.0
  0
LINE
  5
AE6B
  8
1-後柱カバ-P
 10
27028.510528585171
 20
19648.235711000001
 30
0.0
 11
27028.510528585171
 21
19646.635710999999
 31
0.0
  0
LINE
  5
AE6C
  8
1-後柱カバ-P
  6
HIDE-M
 62
     6
 10
27032.410528585158
 20
19627.235711000001
 30
0.0
 11
27044.010528585161
 21
19627.235711000001
 31
0.0
  0
LINE
  5
AE6D
  8
1-後柱カバ-P
  6
HIDE-M
 62
     6
 10
27032.410528585158
 20
19619.23571099999
 30
0.0
 11
27044.010528585161
 21
19619.23571099999
 31
0.0
  0
LINE
  5
AE6E
  8
1-後柱カバ-P
  6
HIDE-M
 62
     6
 10
27032.410528585158
 20
19626.23571099999
 30
0.0
 11
27044.010528585161
 21
19626.23571099999
 31
0.0
  0
LINE
  5
AE6F
  8
1-後柱カバ-P
  6
HIDE-M
 62
     6
 10
27032.410528585158
 20
19620.23571099999
 30
0.0
 11
27044.010528585161
 21
19620.23571099999
 31
0.0
  0
LINE
  5
AE70
  8
1-後柱カバ-P
 10
27033.410528585158
 20
19617.735711000001
 30
0.0
 11
27040.410528585158
 21
19617.735711000001
 31
0.0
  0
LINE
  5
AE71
  8
1-後柱カバ-P
 10
27040.410528585158
 20
19628.735711000001
 30
0.0
 11
27033.410528585158
 21
19628.735711000001
 31
0.0
  0
LINE
  5
AE72
  8
1-後柱カバ-P
 10
27040.410528585158
 20
19629.485711000001
 30
0.0
 11
27040.410528585158
 21
19616.985711000001
 31
0.0
  0
LINE
  5
AE73
  8
1-後柱カバ-P
 10
27044.010528585161
 20
19629.235711000001
 30
0.0
 11
27044.010528585161
 21
19617.235711000001
 31
0.0
  0
LINE
  5
AE74
  8
1-後柱カバ-P
  6
HIDE-M
 62
     6
 10
27041.910528585158
 20
19617.735711000001
 30
0.0
 11
27043.510528585171
 21
19617.735711000001
 31
0.0
  0
LINE
  5
AE75
  8
1-後柱カバ-P
 10
27044.010528585161
 20
19617.235711000001
 30
0.0
 11
27043.510528585171
 21
19617.735711000001
 31
0.0
  0
ARC
  5
AE76
  8
1-後柱カバ-P
 10
27041.160528585158
 20
19616.985711000001
 30
0.0
 40
0.75
 50
180.0
 51
0.0
  0
LINE
  5
AE77
  8
1-後柱カバ-P
  6
HIDE-M
 62
     6
 10
27043.510528585171
 20
19628.735711000001
 30
0.0
 11
27041.910528585158
 21
19628.735711000001
 31
0.0
  0
LINE
  5
AE78
  8
1-後柱カバ-P
 10
27044.010528585161
 20
19629.235711000001
 30
0.0
 11
27043.510528585171
 21
19628.735711000001
 31
0.0
  0
ARC
  5
AE79
  8
1-後柱カバ-P
 10
27041.160528585158
 20
19629.485711000001
 30
0.0
 40
0.75
 50
0.0
 51
180.0
  0
LINE
  5
AE7A
  8
1-後柱カバ-P
 10
27032.410528585158
 20
19627.73571099999
 30
0.0
 11
27032.410528585158
 21
19618.735711000001
 31
0.0
  0
ARC
  5
AE7B
  8
1-後柱カバ-P
 10
27033.410528585158
 20
19618.735711000001
 30
0.0
 40
1.0
 50
180.0
 51
270.0
  0
ARC
  5
AE7C
  8
1-後柱カバ-P
 10
27033.410528585158
 20
19627.73571099999
 30
0.0
 40
1.0
 50
90.0
 51
180.0
  0
LINE
  5
AE7D
  8
1-後柱カバ-P
  6
1PL-M
 62
     6
 10
27027.410528585158
 20
19623.23571099999
 30
0.0
 11
27049.010528585171
 21
19623.23571099999
 31
0.0
  0
LINE
  5
AE7E
  8
1-後柱カバ-P
 10
27033.410528585158
 20
19607.735711000001
 30
0.0
 11
27040.410528585158
 21
19607.735711000001
 31
0.0
  0
LINE
  5
AE7F
  8
1-後柱カバ-P
 10
27044.010528585161
 20
19615.235711000001
 30
0.0
 11
27044.010528585161
 21
19607.235711000001
 31
0.0
  0
LINE
  5
AE80
  8
1-後柱カバ-P
  6
HIDE-M
 62
     6
 10
27041.910528585158
 20
19607.735711000001
 30
0.0
 11
27043.510528585171
 21
19607.735711000001
 31
0.0
  0
LINE
  5
AE81
  8
1-後柱カバ-P
 10
27044.010528585161
 20
19607.235711000001
 30
0.0
 11
27043.510528585171
 21
19607.735711000001
 31
0.0
  0
ARC
  5
AE82
  8
1-後柱カバ-P
 10
27041.160528585158
 20
19606.985711000001
 30
0.0
 40
0.75
 50
180.0
 51
0.0
  0
LINE
  5
AE83
  8
1-後柱カバ-P
 10
27032.410528585158
 20
19616.735711000001
 30
0.0
 11
27032.410528585158
 21
19608.735711000001
 31
0.0
  0
ARC
  5
AE84
  8
1-後柱カバ-P
 10
27033.410528585158
 20
19608.735711000001
 30
0.0
 40
1.0
 50
180.0
 51
270.0
  0
LINE
  5
AE85
  8
1-後柱カバ-P
  6
1PL-M
 62
     6
 10
27027.410528585158
 20
19613.235711000001
 30
0.0
 11
27049.010528585171
 21
19613.235711000001
 31
0.0
  0
LINE
  5
AE86
  8
1-後柱カバ-P
 10
27040.410528585158
 20
19614.985711000001
 30
0.0
 11
27040.410528585158
 21
19606.985711000001
 31
0.0
  0
LINE
  5
AE87
  8
1-後柱カバ-P
  6
HIDE-M
 62
     6
 10
26969.61052858517
 20
19627.235711000001
 30
0.0
 11
26958.010528585171
 21
19627.235711000001
 31
0.0
  0
LINE
  5
AE88
  8
1-後柱カバ-P
  6
HIDE-M
 62
     6
 10
26969.61052858517
 20
19619.23571099999
 30
0.0
 11
26958.010528585171
 21
19619.23571099999
 31
0.0
  0
LINE
  5
AE89
  8
1-後柱カバ-P
  6
HIDE-M
 62
     6
 10
26969.61052858517
 20
19626.23571099999
 30
0.0
 11
26958.010528585171
 21
19626.23571099999
 31
0.0
  0
LINE
  5
AE8A
  8
1-後柱カバ-P
  6
HIDE-M
 62
     6
 10
26969.61052858517
 20
19620.23571099999
 30
0.0
 11
26958.010528585171
 21
19620.23571099999
 31
0.0
  0
LINE
  5
AE8B
  8
1-後柱カバ-P
 10
26968.61052858517
 20
19617.735711000001
 30
0.0
 11
26961.61052858517
 21
19617.735711000001
 31
0.0
  0
LINE
  5
AE8C
  8
1-後柱カバ-P
 10
26961.61052858517
 20
19628.735711000001
 30
0.0
 11
26968.61052858517
 21
19628.735711000001
 31
0.0
  0
LINE
  5
AE8D
  8
1-後柱カバ-P
 10
26961.61052858517
 20
19629.485711000001
 30
0.0
 11
26961.61052858517
 21
19616.985711000001
 31
0.0
  0
LINE
  5
AE8E
  8
1-後柱カバ-P
 10
26958.010528585171
 20
19629.235711000001
 30
0.0
 11
26958.010528585171
 21
19617.235711000001
 31
0.0
  0
LINE
  5
AE8F
  8
1-後柱カバ-P
  6
HIDE-M
 62
     6
 10
26960.11052858517
 20
19617.735711000001
 30
0.0
 11
26958.510528585161
 21
19617.735711000001
 31
0.0
  0
LINE
  5
AE90
  8
1-後柱カバ-P
 10
26958.010528585171
 20
19617.235711000001
 30
0.0
 11
26958.510528585161
 21
19617.735711000001
 31
0.0
  0
ARC
  5
AE91
  8
1-後柱カバ-P
 10
26960.86052858517
 20
19616.985711000001
 30
0.0
 40
0.75
 50
180.0
 51
0.0
  0
LINE
  5
AE92
  8
1-後柱カバ-P
  6
HIDE-M
 62
     6
 10
26958.510528585161
 20
19628.735711000001
 30
0.0
 11
26960.11052858517
 21
19628.735711000001
 31
0.0
  0
LINE
  5
AE93
  8
1-後柱カバ-P
 10
26958.010528585171
 20
19629.235711000001
 30
0.0
 11
26958.510528585161
 21
19628.735711000001
 31
0.0
  0
ARC
  5
AE94
  8
1-後柱カバ-P
 10
26960.86052858517
 20
19629.485711000001
 30
0.0
 40
0.75
 50
0.0
 51
180.0
  0
LINE
  5
AE95
  8
1-後柱カバ-P
 10
26969.61052858517
 20
19627.73571099999
 30
0.0
 11
26969.61052858517
 21
19618.735711000001
 31
0.0
  0
ARC
  5
AE96
  8
1-後柱カバ-P
 10
26968.61052858517
 20
19618.735711000001
 30
0.0
 40
1.0
 50
270.0
 51
0.0
  0
ARC
  5
AE97
  8
1-後柱カバ-P
 10
26968.61052858517
 20
19627.73571099999
 30
0.0
 40
1.0
 50
0.0
 51
90.0
  0
LINE
  5
AE98
  8
1-後柱カバ-P
  6
1PL-M
 62
     6
 10
26974.61052858517
 20
19623.23571099999
 30
0.0
 11
26953.010528585161
 21
19623.23571099999
 31
0.0
  0
LINE
  5
AE99
  8
1-後柱カバ-P
 10
26968.61052858517
 20
19607.735711000001
 30
0.0
 11
26961.61052858517
 21
19607.735711000001
 31
0.0
  0
LINE
  5
AE9A
  8
1-後柱カバ-P
 10
26958.010528585171
 20
19615.235711000001
 30
0.0
 11
26958.010528585171
 21
19607.235711000001
 31
0.0
  0
LINE
  5
AE9B
  8
1-後柱カバ-P
  6
HIDE-M
 62
     6
 10
26960.11052858517
 20
19607.735711000001
 30
0.0
 11
26958.510528585161
 21
19607.735711000001
 31
0.0
  0
LINE
  5
AE9C
  8
1-後柱カバ-P
 10
26958.010528585171
 20
19607.235711000001
 30
0.0
 11
26958.510528585161
 21
19607.735711000001
 31
0.0
  0
ARC
  5
AE9D
  8
1-後柱カバ-P
 10
26960.86052858517
 20
19606.985711000001
 30
0.0
 40
0.75
 50
180.0
 51
0.0
  0
LINE
  5
AE9E
  8
1-後柱カバ-P
 10
26969.61052858517
 20
19616.735711000001
 30
0.0
 11
26969.61052858517
 21
19608.735711000001
 31
0.0
  0
ARC
  5
AE9F
  8
1-後柱カバ-P
 10
26968.61052858517
 20
19608.735711000001
 30
0.0
 40
1.0
 50
270.0
 51
0.0
  0
LINE
  5
AEA0
  8
1-後柱カバ-P
  6
1PL-M
 62
     6
 10
26974.61052858517
 20
19613.235711000001
 30
0.0
 11
26953.010528585161
 21
19613.235711000001
 31
0.0
  0
LINE
  5
AEA1
  8
1-後柱カバ-P
 10
26961.61052858517
 20
19614.985711000001
 30
0.0
 11
26961.61052858517
 21
19606.985711000001
 31
0.0
  0
LINE
  5
AEA2
  8
1-後柱カバ-P
  6
HIDE-M
 62
     6
 10
27032.410528585158
 20
19609.235711000001
 30
0.0
 11
27044.010528585161
 21
19609.235711000001
 31
0.0
  0
LINE
  5
AEA3
  8
1-後柱カバ-P
  6
HIDE-M
 62
     6
 10
27032.410528585158
 20
19610.235711000001
 30
0.0
 11
27044.010528585161
 21
19610.235711000001
 31
0.0
  0
LINE
  5
AEA4
  8
1-後柱カバ-P
  6
HIDE-M
 62
     6
 10
26969.61052858517
 20
19609.235711000001
 30
0.0
 11
26958.010528585171
 21
19609.235711000001
 31
0.0
  0
LINE
  5
AEA5
  8
1-後柱カバ-P
  6
HIDE-M
 62
     6
 10
26969.61052858517
 20
19610.235711000001
 30
0.0
 11
26958.010528585171
 21
19610.235711000001
 31
0.0
  0
LINE
  5
AEA6
  8
1-中柱P
 10
27036.910528585158
 20
16658.985711000001
 30
0.0
 11
26965.110528585159
 21
16658.985711000001
 31
0.0
  0
ARC
  5
AEA7
  8
1-中柱P
 10
27036.910528585158
 20
16663.985711000001
 30
0.0
 40
5.0
 50
270.0
 51
0.0
  0
ARC
  5
AEA8
  8
1-中柱P
 10
26965.110528585159
 20
16663.985711000001
 30
0.0
 40
5.0
 50
180.0
 51
270.0
  0
LINE
  5
AEA9
  8
1-中柱P
 10
27036.910528585158
 20
16657.38571100001
 30
0.0
 11
26965.110528585159
 21
16657.38571100001
 31
0.0
  0
ARC
  5
AEAA
  8
1-中柱P
 10
27036.910528585158
 20
16663.985711000001
 30
0.0
 40
6.599999999999997
 50
270.0
 51
0.0
  0
LINE
  5
AEAB
  8
1-中柱P
 10
26958.510528585161
 20
16723.285711000011
 30
0.0
 11
26958.510528585161
 21
16663.985711000001
 31
0.0
  0
ARC
  5
AEAC
  8
1-中柱P
 10
26965.110528585159
 20
16663.985711000001
 30
0.0
 40
6.599999999999997
 50
180.0
 51
270.0
  0
LINE
  5
AEAD
  8
1-中柱P
 10
26960.11052858517
 20
16663.985711000001
 30
0.0
 11
26960.11052858517
 21
16723.285711000011
 31
0.0
  0
ARC
  5
AEAE
  8
1-中柱P
 10
26965.110528585159
 20
16723.285711000011
 30
0.0
 40
5.0
 50
90.0
 51
180.0
  0
LINE
  5
AEAF
  8
1-中柱P
 10
27043.510528585161
 20
16723.285711000011
 30
0.0
 11
27043.510528585161
 21
16663.985711000001
 31
0.0
  0
LINE
  5
AEB0
  8
1-中柱P
 10
27041.910528585158
 20
16663.985711000001
 30
0.0
 11
27041.910528585158
 21
16723.285711000011
 31
0.0
  0
LINE
  5
AEB1
  8
1-中柱P
 10
27036.910528585158
 20
16729.88571100001
 30
0.0
 11
27028.510528585161
 21
16729.88571100001
 31
0.0
  0
ARC
  5
AEB2
  8
1-中柱P
 10
27036.910528585158
 20
16723.285711000011
 30
0.0
 40
6.599999999999997
 50
0.0
 51
90.0
  0
LINE
  5
AEB3
  8
1-中柱P
 10
27036.910528585158
 20
16728.285711000011
 30
0.0
 11
27028.510528585161
 21
16728.285711000011
 31
0.0
  0
ARC
  5
AEB4
  8
1-中柱P
 10
27028.510528585161
 20
16734.885710999999
 30
0.0
 40
6.599999999999997
 50
180.0
 51
270.0
  0
ARC
  5
AEB5
  8
1-中柱P
 10
27036.910528585158
 20
16723.285711000011
 30
0.0
 40
5.0
 50
0.0
 51
90.0
  0
LINE
  5
AEB6
  8
1-中柱P
 10
27023.510528585161
 20
16734.885710999999
 30
0.0
 11
27023.510528585161
 21
16794.285711
 31
0.0
  0
ARC
  5
AEB7
  8
1-中柱P
 10
27028.510528585161
 20
16734.885710999999
 30
0.0
 40
5.0
 50
180.0
 51
270.0
  0
LINE
  5
AEB8
  8
1-中柱P
 10
27021.910528585158
 20
16734.885710999999
 30
0.0
 11
27021.910528585158
 21
16794.285711
 31
0.0
  0
LINE
  5
AEB9
  8
1-中柱P
 10
27016.910528585158
 20
16800.885710999992
 30
0.0
 11
26983.510528585161
 21
16800.885710999992
 31
0.0
  0
ARC
  5
AEBA
  8
1-中柱P
 10
27016.910528585158
 20
16794.285711
 30
0.0
 40
6.599999999999997
 50
0.0
 51
90.0
  0
LINE
  5
AEBB
  8
1-中柱P
 10
27016.910528585158
 20
16799.285711000011
 30
0.0
 11
26983.510528585161
 21
16799.285711000011
 31
0.0
  0
ARC
  5
AEBC
  8
1-中柱P
 10
27016.910528585158
 20
16794.285711
 30
0.0
 40
5.0
 50
0.0
 51
90.0
  0
LINE
  5
AEBD
  8
1-中柱P
 10
26983.510528585161
 20
16799.285711000011
 30
0.0
 11
26983.510528585161
 21
16800.885710999992
 31
0.0
  0
LINE
  5
AEBE
  8
1-中柱P
 10
26965.110528585159
 20
16729.88571100001
 30
0.0
 11
26973.510528585161
 21
16729.88571100001
 31
0.0
  0
ARC
  5
AEBF
  8
1-中柱P
 10
26965.110528585159
 20
16723.285711000011
 30
0.0
 40
6.599999999999997
 50
90.0
 51
180.0
  0
ARC
  5
AEC0
  8
1-中柱P
 10
26973.510528585161
 20
16734.885710999999
 30
0.0
 40
5.0
 50
270.0
 51
0.0
  0
LINE
  5
AEC1
  8
1-中柱P
 10
26973.510528585161
 20
16728.285711000011
 30
0.0
 11
26965.110528585159
 21
16728.285711000011
 31
0.0
  0
ARC
  5
AEC2
  8
1-中柱P
 10
26973.510528585161
 20
16734.885710999999
 30
0.0
 40
6.599999999999997
 50
270.0
 51
0.0
  0
ARC
  5
AEC3
  8
1-中柱P
  6
HIDE-M
 62
     6
 10
27007.610528585159
 20
16798.285711000011
 30
0.0
 40
2.6000000000000001
 50
90.0
 51
180.0
  0
LINE
  5
AEC4
  8
1-中柱P
  6
HIDE-M
 62
     6
 10
26996.010528585161
 20
16800.335101153181
 30
0.0
 11
26996.010528585161
 21
16796.685710999991
 31
0.0
  0
LINE
  5
AEC5
  8
1-中柱P
  6
HIDE-M
 62
     6
 10
27006.010528585161
 20
16800.335101153181
 30
0.0
 11
27006.010528585161
 21
16796.685710999991
 31
0.0
  0
LINE
  5
AEC6
  8
1-中柱P
  6
1PL-M
 62
     6
 10
27001.010528585161
 20
16805.88571100001
 30
0.0
 11
27001.010528585161
 21
16791.685710999991
 31
0.0
  0
ARC
  5
AEC7
  8
1-中柱P
  6
HIDE-M
 62
     6
 10
26994.410528585158
 20
16798.285711000011
 30
0.0
 40
2.6000000000000001
 50
0.0
 51
90.0
  0
LINE
  5
AEC8
  8
1-中柱P
  6
HIDE-M
 62
     6
 10
27005.010528585161
 20
16798.285711000011
 30
0.0
 11
27005.010528585161
 21
16796.685710999991
 31
0.0
  0
LINE
  5
AEC9
  8
1-中柱P
  6
HIDE-M
 62
     6
 10
26997.010528585161
 20
16798.285711000011
 30
0.0
 11
26997.010528585161
 21
16796.685710999991
 31
0.0
  0
LINE
  5
AECA
  8
1-中柱P
 10
26980.110528585159
 20
16734.885710999999
 30
0.0
 11
26980.110528585159
 21
16744.885710999992
 31
0.0
  0
LINE
  5
AECB
  8
1-中柱P
 10
26978.510528585161
 20
16734.885710999999
 30
0.0
 11
26978.510528585161
 21
16744.885710999992
 31
0.0
  0
LINE
  5
AECC
  8
1-中柱P
 10
26980.110528585159
 20
16744.885710999992
 30
0.0
 11
26978.510528585161
 21
16744.885710999992
 31
0.0
  0
LINE
  5
AECD
  8
1-中柱P
  6
1PL-M
 62
     6
 10
27028.510528585161
 20
16765.885710999992
 30
0.0
 11
27014.310528585171
 21
16765.885710999992
 31
0.0
  0
LINE
  5
AECE
  8
1-中柱P
  6
HIDE-M
 62
     6
 10
27032.410528585158
 20
16708.885710999992
 30
0.0
 11
27044.010528585161
 21
16708.885710999992
 31
0.0
  0
LINE
  5
AECF
  8
1-中柱P
  6
HIDE-M
 62
     6
 10
27032.410528585158
 20
16700.885710999992
 30
0.0
 11
27044.010528585161
 21
16700.885710999992
 31
0.0
  0
LINE
  5
AED0
  8
1-中柱P
  6
HIDE-M
 62
     6
 10
27032.410528585158
 20
16707.88571100001
 30
0.0
 11
27044.010528585161
 21
16707.88571100001
 31
0.0
  0
LINE
  5
AED1
  8
1-中柱P
  6
HIDE-M
 62
     6
 10
27032.410528585158
 20
16701.885710999992
 30
0.0
 11
27044.010528585161
 21
16701.885710999992
 31
0.0
  0
LINE
  5
AED2
  8
1-中柱P
 10
27033.410528585158
 20
16699.38571100001
 30
0.0
 11
27040.410528585158
 21
16699.38571100001
 31
0.0
  0
LINE
  5
AED3
  8
1-中柱P
 10
27040.410528585158
 20
16710.385710999992
 30
0.0
 11
27033.410528585158
 21
16710.385710999992
 31
0.0
  0
LINE
  5
AED4
  8
1-中柱P
 10
27040.410528585158
 20
16711.135710999999
 30
0.0
 11
27040.410528585158
 21
16698.635710999999
 31
0.0
  0
LINE
  5
AED5
  8
1-中柱P
 10
27044.010528585161
 20
16710.88571100001
 30
0.0
 11
27044.010528585161
 21
16698.885710999992
 31
0.0
  0
LINE
  5
AED6
  8
1-中柱P
  6
HIDE-M
 62
     6
 10
27041.910528585158
 20
16699.38571100001
 30
0.0
 11
27043.510528585161
 21
16699.38571100001
 31
0.0
  0
LINE
  5
AED7
  8
1-中柱P
 10
27044.010528585161
 20
16698.885710999992
 30
0.0
 11
27043.510528585161
 21
16699.38571100001
 31
0.0
  0
ARC
  5
AED8
  8
1-中柱P
 10
27041.160528585158
 20
16698.635710999999
 30
0.0
 40
0.75
 50
180.0
 51
0.0
  0
LINE
  5
AED9
  8
1-中柱P
  6
HIDE-M
 62
     6
 10
27043.510528585161
 20
16710.385710999992
 30
0.0
 11
27041.910528585158
 21
16710.385710999992
 31
0.0
  0
LINE
  5
AEDA
  8
1-中柱P
 10
27044.010528585161
 20
16710.88571100001
 30
0.0
 11
27043.510528585161
 21
16710.385710999992
 31
0.0
  0
ARC
  5
AEDB
  8
1-中柱P
 10
27041.160528585158
 20
16711.135710999999
 30
0.0
 40
0.75
 50
0.0
 51
180.0
  0
LINE
  5
AEDC
  8
1-中柱P
 10
27032.410528585158
 20
16709.385710999992
 30
0.0
 11
27032.410528585158
 21
16700.385710999992
 31
0.0
  0
ARC
  5
AEDD
  8
1-中柱P
 10
27033.410528585158
 20
16700.385710999992
 30
0.0
 40
1.0
 50
180.0
 51
270.0
  0
ARC
  5
AEDE
  8
1-中柱P
 10
27033.410528585158
 20
16709.385710999992
 30
0.0
 40
1.0
 50
90.0
 51
180.0
  0
LINE
  5
AEDF
  8
1-中柱P
  6
1PL-M
 62
     6
 10
27027.410528585158
 20
16704.885710999992
 30
0.0
 11
27049.010528585161
 21
16704.885710999992
 31
0.0
  0
LINE
  5
AEE0
  8
1-中柱P
 10
27033.410528585158
 20
16689.385710999992
 30
0.0
 11
27040.410528585158
 21
16689.385710999992
 31
0.0
  0
LINE
  5
AEE1
  8
1-中柱P
 10
27044.010528585161
 20
16696.885710999999
 30
0.0
 11
27044.010528585161
 21
16688.885710999992
 31
0.0
  0
LINE
  5
AEE2
  8
1-中柱P
  6
HIDE-M
 62
     6
 10
27041.910528585158
 20
16689.385710999992
 30
0.0
 11
27043.510528585161
 21
16689.385710999992
 31
0.0
  0
LINE
  5
AEE3
  8
1-中柱P
 10
27044.010528585161
 20
16688.885710999992
 30
0.0
 11
27043.510528585161
 21
16689.385710999992
 31
0.0
  0
ARC
  5
AEE4
  8
1-中柱P
 10
27041.160528585158
 20
16688.635710999992
 30
0.0
 40
0.75
 50
180.0
 51
0.0
  0
LINE
  5
AEE5
  8
1-中柱P
 10
27032.410528585158
 20
16698.38571100001
 30
0.0
 11
27032.410528585158
 21
16690.385710999992
 31
0.0
  0
ARC
  5
AEE6
  8
1-中柱P
 10
27033.410528585158
 20
16690.385710999992
 30
0.0
 40
1.0
 50
180.0
 51
270.0
  0
LINE
  5
AEE7
  8
1-中柱P
  6
1PL-M
 62
     6
 10
27027.410528585158
 20
16694.885710999999
 30
0.0
 11
27049.010528585161
 21
16694.885710999999
 31
0.0
  0
LINE
  5
AEE8
  8
1-中柱P
 10
27040.410528585158
 20
16696.635710999999
 30
0.0
 11
27040.410528585158
 21
16688.635710999992
 31
0.0
  0
LINE
  5
AEE9
  8
1-中柱P
  6
HIDE-M
 62
     6
 10
27032.410528585158
 20
16690.885710999999
 30
0.0
 11
27044.010528585161
 21
16690.885710999999
 31
0.0
  0
LINE
  5
AEEA
  8
1-中柱P
  6
HIDE-M
 62
     6
 10
27032.410528585158
 20
16691.88571100001
 30
0.0
 11
27044.010528585161
 21
16691.88571100001
 31
0.0
  0
LINE
  5
AEEB
  8
1-中柱P
  6
HIDE-M
 62
     6
 10
26969.61052858517
 20
16708.885710999992
 30
0.0
 11
26958.010528585161
 21
16708.885710999992
 31
0.0
  0
LINE
  5
AEEC
  8
1-中柱P
  6
HIDE-M
 62
     6
 10
26969.61052858517
 20
16700.885710999992
 30
0.0
 11
26958.010528585161
 21
16700.885710999992
 31
0.0
  0
LINE
  5
AEED
  8
1-中柱P
  6
HIDE-M
 62
     6
 10
26969.61052858517
 20
16707.88571100001
 30
0.0
 11
26958.010528585161
 21
16707.88571100001
 31
0.0
  0
LINE
  5
AEEE
  8
1-中柱P
  6
HIDE-M
 62
     6
 10
26969.61052858517
 20
16701.885710999992
 30
0.0
 11
26958.010528585161
 21
16701.885710999992
 31
0.0
  0
LINE
  5
AEEF
  8
1-中柱P
 10
26968.610528585159
 20
16699.38571100001
 30
0.0
 11
26961.610528585159
 21
16699.38571100001
 31
0.0
  0
LINE
  5
AEF0
  8
1-中柱P
 10
26961.610528585159
 20
16710.385710999992
 30
0.0
 11
26968.610528585159
 21
16710.385710999992
 31
0.0
  0
LINE
  5
AEF1
  8
1-中柱P
 10
26961.610528585159
 20
16711.135710999999
 30
0.0
 11
26961.610528585159
 21
16698.635710999999
 31
0.0
  0
LINE
  5
AEF2
  8
1-中柱P
 10
26958.010528585161
 20
16710.88571100001
 30
0.0
 11
26958.010528585161
 21
16698.885710999992
 31
0.0
  0
LINE
  5
AEF3
  8
1-中柱P
  6
HIDE-M
 62
     6
 10
26960.11052858517
 20
16699.38571100001
 30
0.0
 11
26958.510528585161
 21
16699.38571100001
 31
0.0
  0
LINE
  5
AEF4
  8
1-中柱P
 10
26958.010528585161
 20
16698.885710999992
 30
0.0
 11
26958.510528585161
 21
16699.38571100001
 31
0.0
  0
ARC
  5
AEF5
  8
1-中柱P
 10
26960.860528585159
 20
16698.635710999999
 30
0.0
 40
0.75
 50
180.0
 51
0.0
  0
LINE
  5
AEF6
  8
1-中柱P
  6
HIDE-M
 62
     6
 10
26958.510528585161
 20
16710.385710999992
 30
0.0
 11
26960.11052858517
 21
16710.385710999992
 31
0.0
  0
LINE
  5
AEF7
  8
1-中柱P
 10
26958.010528585161
 20
16710.88571100001
 30
0.0
 11
26958.510528585161
 21
16710.385710999992
 31
0.0
  0
ARC
  5
AEF8
  8
1-中柱P
 10
26960.860528585159
 20
16711.135710999999
 30
0.0
 40
0.75
 50
0.0
 51
180.0
  0
LINE
  5
AEF9
  8
1-中柱P
 10
26969.61052858517
 20
16709.385710999992
 30
0.0
 11
26969.61052858517
 21
16700.385710999992
 31
0.0
  0
ARC
  5
AEFA
  8
1-中柱P
 10
26968.610528585159
 20
16700.385710999992
 30
0.0
 40
1.0
 50
270.0
 51
0.0
  0
ARC
  5
AEFB
  8
1-中柱P
 10
26968.610528585159
 20
16709.385710999992
 30
0.0
 40
1.0
 50
0.0
 51
90.0
  0
LINE
  5
AEFC
  8
1-中柱P
  6
1PL-M
 62
     6
 10
26974.610528585159
 20
16704.885710999992
 30
0.0
 11
26953.010528585161
 21
16704.885710999992
 31
0.0
  0
LINE
  5
AEFD
  8
1-中柱P
 10
26968.610528585159
 20
16689.385710999992
 30
0.0
 11
26961.610528585159
 21
16689.385710999992
 31
0.0
  0
LINE
  5
AEFE
  8
1-中柱P
 10
26958.010528585161
 20
16696.885710999999
 30
0.0
 11
26958.010528585161
 21
16688.885710999992
 31
0.0
  0
LINE
  5
AEFF
  8
1-中柱P
  6
HIDE-M
 62
     6
 10
26960.11052858517
 20
16689.385710999992
 30
0.0
 11
26958.510528585161
 21
16689.385710999992
 31
0.0
  0
LINE
  5
AF00
  8
1-中柱P
 10
26958.010528585161
 20
16688.885710999992
 30
0.0
 11
26958.510528585161
 21
16689.385710999992
 31
0.0
  0
ARC
  5
AF01
  8
1-中柱P
 10
26960.860528585159
 20
16688.635710999992
 30
0.0
 40
0.75
 50
180.0
 51
0.0
  0
LINE
  5
AF02
  8
1-中柱P
 10
26969.61052858517
 20
16698.38571100001
 30
0.0
 11
26969.61052858517
 21
16690.385710999992
 31
0.0
  0
ARC
  5
AF03
  8
1-中柱P
 10
26968.610528585159
 20
16690.385710999992
 30
0.0
 40
1.0
 50
270.0
 51
0.0
  0
LINE
  5
AF04
  8
1-中柱P
  6
1PL-M
 62
     6
 10
26974.610528585159
 20
16694.885710999999
 30
0.0
 11
26953.010528585161
 21
16694.885710999999
 31
0.0
  0
LINE
  5
AF05
  8
1-中柱P
 10
26961.610528585159
 20
16696.635710999999
 30
0.0
 11
26961.610528585159
 21
16688.635710999992
 31
0.0
  0
LINE
  5
AF06
  8
1-中柱P
  6
HIDE-M
 62
     6
 10
26969.61052858517
 20
16690.885710999999
 30
0.0
 11
26958.010528585161
 21
16690.885710999999
 31
0.0
  0
LINE
  5
AF07
  8
1-中柱P
  6
HIDE-M
 62
     6
 10
26969.61052858517
 20
16691.88571100001
 30
0.0
 11
26958.010528585161
 21
16691.88571100001
 31
0.0
  0
LINE
  5
AF08
  8
1-中柱カバ-P
 10
26958.510528585161
 20
16736.585711
 30
0.0
 11
26958.510528585161
 21
16795.885710999999
 31
0.0
  0
ARC
  5
AF09
  8
1-中柱カバ-P
 10
26965.110528585159
 20
16795.885710999999
 30
0.0
 40
6.599999999999997
 50
90.0
 51
180.0
  0
LINE
  5
AF0A
  8
1-中柱カバ-P
 10
26960.11052858517
 20
16736.585711
 30
0.0
 11
26960.11052858517
 21
16795.885710999999
 31
0.0
  0
ARC
  5
AF0B
  8
1-中柱カバ-P
 10
26965.110528585159
 20
16736.585711
 30
0.0
 40
5.0
 50
180.0
 51
270.0
  0
LINE
  5
AF0C
  8
1-中柱カバ-P
 10
26965.110528585159
 20
16802.485711000001
 30
0.0
 11
27036.910528585158
 21
16802.485711000001
 31
0.0
  0
ARC
  5
AF0D
  8
1-中柱カバ-P
 10
27036.910528585158
 20
16795.885710999999
 30
0.0
 40
6.599999999999997
 50
0.0
 51
90.0
  0
LINE
  5
AF0E
  8
1-中柱カバ-P
 10
26965.110528585159
 20
16800.885710999992
 30
0.0
 11
27036.910528585158
 21
16800.885710999992
 31
0.0
  0
ARC
  5
AF0F
  8
1-中柱カバ-P
 10
27036.910528585158
 20
16795.885710999999
 30
0.0
 40
5.0
 50
0.0
 51
90.0
  0
ARC
  5
AF10
  8
1-中柱カバ-P
 10
26965.110528585159
 20
16795.885710999999
 30
0.0
 40
5.0
 50
90.0
 51
180.0
  0
LINE
  5
AF11
  8
1-中柱カバ-P
 10
27043.510528585161
 20
16795.885710999999
 30
0.0
 11
27043.510528585161
 21
16736.585711
 31
0.0
  0
LINE
  5
AF12
  8
1-中柱カバ-P
 10
27041.910528585158
 20
16795.885710999999
 30
0.0
 11
27041.910528585158
 21
16736.585711
 31
0.0
  0
ARC
  5
AF13
  8
1-中柱カバ-P
 10
27036.910528585158
 20
16736.585711
 30
0.0
 40
5.0
 50
270.0
 51
0.0
  0
LINE
  5
AF14
  8
1-中柱カバ-P
  6
1PL-M
 62
     6
 10
27001.010528585161
 20
16794.985711000001
 30
0.0
 11
27001.010528585161
 21
16807.985711000001
 31
0.0
  0
LINE
  5
AF15
  8
1-中柱カバ-P
  6
HIDE-M
 62
     6
 10
26994.010528585161
 20
16802.485711000001
 30
0.0
 11
26994.010528585161
 21
16800.885710999992
 31
0.0
  0
LINE
  5
AF16
  8
1-中柱カバ-P
  6
HIDE-M
 62
     6
 10
27008.010528585161
 20
16802.485711000001
 30
0.0
 11
27008.010528585161
 21
16800.885710999992
 31
0.0
  0
ARC
  5
AF17
  8
1-中柱カバ-P
 10
26965.110528585159
 20
16736.585711
 30
0.0
 40
6.599999999999997
 50
180.0
 51
270.0
  0
ARC
  5
AF18
  8
1-中柱カバ-P
 10
27036.910528585158
 20
16736.585711
 30
0.0
 40
6.599999999999997
 50
270.0
 51
0.0
  0
LINE
  5
AF19
  8
1-中柱カバ-P
 10
27028.510528585161
 20
16729.985711000001
 30
0.0
 11
27036.910528585158
 21
16729.985711000001
 31
0.0
  0
LINE
  5
AF1A
  8
1-中柱カバ-P
 10
26973.510528585161
 20
16729.985711000001
 30
0.0
 11
26965.110528585159
 21
16729.985711000001
 31
0.0
  0
LINE
  5
AF1B
  8
1-中柱カバ-P
 10
27028.510528585161
 20
16731.585711
 30
0.0
 11
27036.910528585158
 21
16731.585711
 31
0.0
  0
LINE
  5
AF1C
  8
1-中柱カバ-P
 10
26973.510528585161
 20
16731.585711
 30
0.0
 11
26965.110528585159
 21
16731.585711
 31
0.0
  0
LINE
  5
AF1D
  8
1-中柱カバ-P
 10
26973.510528585161
 20
16731.585711
 30
0.0
 11
26973.510528585161
 21
16729.985711000001
 31
0.0
  0
LINE
  5
AF1E
  8
1-中柱カバ-P
 10
27028.510528585161
 20
16729.985711000001
 30
0.0
 11
27028.510528585161
 21
16731.585711
 31
0.0
  0
LINE
  5
AF1F
  8
1-中柱カバ-P
  6
HIDE-M
 62
     6
 10
27032.410528585158
 20
16750.985711000001
 30
0.0
 11
27044.010528585161
 21
16750.985711000001
 31
0.0
  0
LINE
  5
AF20
  8
1-中柱カバ-P
  6
HIDE-M
 62
     6
 10
27032.410528585158
 20
16758.985711000001
 30
0.0
 11
27044.010528585161
 21
16758.985711000001
 31
0.0
  0
LINE
  5
AF21
  8
1-中柱カバ-P
  6
HIDE-M
 62
     6
 10
27032.410528585158
 20
16751.985711000001
 30
0.0
 11
27044.010528585161
 21
16751.985711000001
 31
0.0
  0
LINE
  5
AF22
  8
1-中柱カバ-P
  6
HIDE-M
 62
     6
 10
27032.410528585158
 20
16757.985711000001
 30
0.0
 11
27044.010528585161
 21
16757.985711000001
 31
0.0
  0
LINE
  5
AF23
  8
1-中柱カバ-P
 10
27033.410528585158
 20
16760.485711000001
 30
0.0
 11
27040.410528585158
 21
16760.485711000001
 31
0.0
  0
LINE
  5
AF24
  8
1-中柱カバ-P
 10
27040.410528585158
 20
16749.485711000001
 30
0.0
 11
27033.410528585158
 21
16749.485711000001
 31
0.0
  0
LINE
  5
AF25
  8
1-中柱カバ-P
 10
27040.410528585158
 20
16748.735711000001
 30
0.0
 11
27040.410528585158
 21
16761.235711000001
 31
0.0
  0
LINE
  5
AF26
  8
1-中柱カバ-P
 10
27044.010528585161
 20
16748.985711000001
 30
0.0
 11
27044.010528585161
 21
16760.985711000001
 31
0.0
  0
LINE
  5
AF27
  8
1-中柱カバ-P
  6
HIDE-M
 62
     6
 10
27041.910528585158
 20
16760.485711000001
 30
0.0
 11
27043.510528585161
 21
16760.485711000001
 31
0.0
  0
LINE
  5
AF28
  8
1-中柱カバ-P
 10
27044.010528585161
 20
16760.985711000001
 30
0.0
 11
27043.510528585161
 21
16760.485711000001
 31
0.0
  0
ARC
  5
AF29
  8
1-中柱カバ-P
 10
27041.160528585158
 20
16761.235711000001
 30
0.0
 40
0.75
 50
0.0
 51
180.0
  0
LINE
  5
AF2A
  8
1-中柱カバ-P
  6
HIDE-M
 62
     6
 10
27043.510528585161
 20
16749.485711000001
 30
0.0
 11
27041.910528585158
 21
16749.485711000001
 31
0.0
  0
LINE
  5
AF2B
  8
1-中柱カバ-P
 10
27044.010528585161
 20
16748.985711000001
 30
0.0
 11
27043.510528585161
 21
16749.485711000001
 31
0.0
  0
ARC
  5
AF2C
  8
1-中柱カバ-P
 10
27041.160528585158
 20
16748.735711000001
 30
0.0
 40
0.75
 50
180.0
 51
0.0
  0
LINE
  5
AF2D
  8
1-中柱カバ-P
 10
27032.410528585158
 20
16750.485711000001
 30
0.0
 11
27032.410528585158
 21
16759.485711000001
 31
0.0
  0
ARC
  5
AF2E
  8
1-中柱カバ-P
 10
27033.410528585158
 20
16759.485711000001
 30
0.0
 40
1.0
 50
90.0
 51
180.0
  0
ARC
  5
AF2F
  8
1-中柱カバ-P
 10
27033.410528585158
 20
16750.485711000001
 30
0.0
 40
1.0
 50
180.0
 51
270.0
  0
LINE
  5
AF30
  8
1-中柱カバ-P
  6
1PL-M
 62
     6
 10
27027.410528585158
 20
16754.985711000001
 30
0.0
 11
27049.010528585161
 21
16754.985711000001
 31
0.0
  0
LINE
  5
AF31
  8
1-中柱カバ-P
 10
27033.410528585158
 20
16770.485711000001
 30
0.0
 11
27040.410528585158
 21
16770.485711000001
 31
0.0
  0
LINE
  5
AF32
  8
1-中柱カバ-P
 10
27044.010528585161
 20
16762.985711000001
 30
0.0
 11
27044.010528585161
 21
16770.985711000001
 31
0.0
  0
LINE
  5
AF33
  8
1-中柱カバ-P
  6
HIDE-M
 62
     6
 10
27041.910528585158
 20
16770.485711000001
 30
0.0
 11
27043.510528585161
 21
16770.485711000001
 31
0.0
  0
LINE
  5
AF34
  8
1-中柱カバ-P
 10
27044.010528585161
 20
16770.985711000001
 30
0.0
 11
27043.510528585161
 21
16770.485711000001
 31
0.0
  0
ARC
  5
AF35
  8
1-中柱カバ-P
 10
27041.160528585158
 20
16771.235711000001
 30
0.0
 40
0.75
 50
0.0
 51
180.0
  0
LINE
  5
AF36
  8
1-中柱カバ-P
 10
27032.410528585158
 20
16761.485711000001
 30
0.0
 11
27032.410528585158
 21
16769.485711000001
 31
0.0
  0
ARC
  5
AF37
  8
1-中柱カバ-P
 10
27033.410528585158
 20
16769.485711000001
 30
0.0
 40
1.0
 50
90.0
 51
180.0
  0
LINE
  5
AF38
  8
1-中柱カバ-P
  6
1PL-M
 62
     6
 10
27027.410528585158
 20
16764.985711000001
 30
0.0
 11
27049.010528585161
 21
16764.985711000001
 31
0.0
  0
LINE
  5
AF39
  8
1-中柱カバ-P
 10
27040.410528585158
 20
16763.235711000001
 30
0.0
 11
27040.410528585158
 21
16771.235711000001
 31
0.0
  0
LINE
  5
AF3A
  8
1-中柱カバ-P
  6
HIDE-M
 62
     6
 10
26969.61052858517
 20
16750.985711000001
 30
0.0
 11
26958.010528585161
 21
16750.985711000001
 31
0.0
  0
LINE
  5
AF3B
  8
1-中柱カバ-P
  6
HIDE-M
 62
     6
 10
26969.61052858517
 20
16758.985711000001
 30
0.0
 11
26958.010528585161
 21
16758.985711000001
 31
0.0
  0
LINE
  5
AF3C
  8
1-中柱カバ-P
  6
HIDE-M
 62
     6
 10
26969.61052858517
 20
16751.985711000001
 30
0.0
 11
26958.010528585161
 21
16751.985711000001
 31
0.0
  0
LINE
  5
AF3D
  8
1-中柱カバ-P
  6
HIDE-M
 62
     6
 10
26969.61052858517
 20
16757.985711000001
 30
0.0
 11
26958.010528585161
 21
16757.985711000001
 31
0.0
  0
LINE
  5
AF3E
  8
1-中柱カバ-P
 10
26968.610528585159
 20
16760.485711000001
 30
0.0
 11
26961.610528585159
 21
16760.485711000001
 31
0.0
  0
LINE
  5
AF3F
  8
1-中柱カバ-P
 10
26961.610528585159
 20
16749.485711000001
 30
0.0
 11
26968.610528585159
 21
16749.485711000001
 31
0.0
  0
LINE
  5
AF40
  8
1-中柱カバ-P
 10
26961.610528585159
 20
16748.735711000001
 30
0.0
 11
26961.610528585159
 21
16761.235711000001
 31
0.0
  0
LINE
  5
AF41
  8
1-中柱カバ-P
 10
26958.010528585161
 20
16748.985711000001
 30
0.0
 11
26958.010528585161
 21
16760.985711000001
 31
0.0
  0
LINE
  5
AF42
  8
1-中柱カバ-P
  6
HIDE-M
 62
     6
 10
26960.11052858517
 20
16760.485711000001
 30
0.0
 11
26958.510528585161
 21
16760.485711000001
 31
0.0
  0
LINE
  5
AF43
  8
1-中柱カバ-P
 10
26958.010528585161
 20
16760.985711000001
 30
0.0
 11
26958.510528585161
 21
16760.485711000001
 31
0.0
  0
ARC
  5
AF44
  8
1-中柱カバ-P
 10
26960.860528585159
 20
16761.235711000001
 30
0.0
 40
0.75
 50
0.0
 51
180.0
  0
LINE
  5
AF45
  8
1-中柱カバ-P
  6
HIDE-M
 62
     6
 10
26958.510528585161
 20
16749.485711000001
 30
0.0
 11
26960.11052858517
 21
16749.485711000001
 31
0.0
  0
LINE
  5
AF46
  8
1-中柱カバ-P
 10
26958.010528585161
 20
16748.985711000001
 30
0.0
 11
26958.510528585161
 21
16749.485711000001
 31
0.0
  0
ARC
  5
AF47
  8
1-中柱カバ-P
 10
26960.860528585159
 20
16748.735711000001
 30
0.0
 40
0.75
 50
180.0
 51
0.0
  0
LINE
  5
AF48
  8
1-中柱カバ-P
 10
26969.61052858517
 20
16750.485711000001
 30
0.0
 11
26969.61052858517
 21
16759.485711000001
 31
0.0
  0
ARC
  5
AF49
  8
1-中柱カバ-P
 10
26968.610528585159
 20
16759.485711000001
 30
0.0
 40
1.0
 50
0.0
 51
90.0
  0
ARC
  5
AF4A
  8
1-中柱カバ-P
 10
26968.610528585159
 20
16750.485711000001
 30
0.0
 40
1.0
 50
270.0
 51
0.0
  0
LINE
  5
AF4B
  8
1-中柱カバ-P
  6
1PL-M
 62
     6
 10
26974.610528585159
 20
16754.985711000001
 30
0.0
 11
26953.010528585161
 21
16754.985711000001
 31
0.0
  0
LINE
  5
AF4C
  8
1-中柱カバ-P
 10
26968.610528585159
 20
16770.485711000001
 30
0.0
 11
26961.610528585159
 21
16770.485711000001
 31
0.0
  0
LINE
  5
AF4D
  8
1-中柱カバ-P
 10
26958.010528585161
 20
16762.985711000001
 30
0.0
 11
26958.010528585161
 21
16770.985711000001
 31
0.0
  0
LINE
  5
AF4E
  8
1-中柱カバ-P
  6
HIDE-M
 62
     6
 10
26960.11052858517
 20
16770.485711000001
 30
0.0
 11
26958.510528585161
 21
16770.485711000001
 31
0.0
  0
LINE
  5
AF4F
  8
1-中柱カバ-P
 10
26958.010528585161
 20
16770.985711000001
 30
0.0
 11
26958.510528585161
 21
16770.485711000001
 31
0.0
  0
ARC
  5
AF50
  8
1-中柱カバ-P
 10
26960.860528585159
 20
16771.235711000001
 30
0.0
 40
0.75
 50
0.0
 51
180.0
  0
LINE
  5
AF51
  8
1-中柱カバ-P
 10
26969.61052858517
 20
16761.485711000001
 30
0.0
 11
26969.61052858517
 21
16769.485711000001
 31
0.0
  0
ARC
  5
AF52
  8
1-中柱カバ-P
 10
26968.610528585159
 20
16769.485711000001
 30
0.0
 40
1.0
 50
0.0
 51
90.0
  0
LINE
  5
AF53
  8
1-中柱カバ-P
  6
1PL-M
 62
     6
 10
26974.610528585159
 20
16764.985711000001
 30
0.0
 11
26953.010528585161
 21
16764.985711000001
 31
0.0
  0
LINE
  5
AF54
  8
1-中柱カバ-P
 10
26961.610528585159
 20
16763.235711000001
 30
0.0
 11
26961.610528585159
 21
16771.235711000001
 31
0.0
  0
LINE
  5
AF55
  8
1-中柱カバ-P
  6
HIDE-M
 62
     6
 10
27032.410528585158
 20
16768.985711000001
 30
0.0
 11
27044.010528585161
 21
16768.985711000001
 31
0.0
  0
LINE
  5
AF56
  8
1-中柱カバ-P
  6
HIDE-M
 62
     6
 10
27032.410528585158
 20
16767.985711000001
 30
0.0
 11
27044.010528585161
 21
16767.985711000001
 31
0.0
  0
LINE
  5
AF57
  8
1-中柱カバ-P
  6
HIDE-M
 62
     6
 10
26969.61052858517
 20
16768.985711000001
 30
0.0
 11
26958.010528585161
 21
16768.985711000001
 31
0.0
  0
LINE
  5
AF58
  8
1-中柱カバ-P
  6
HIDE-M
 62
     6
 10
26969.61052858517
 20
16767.985711000001
 30
0.0
 11
26958.010528585161
 21
16767.985711000001
 31
0.0
  0
ARC
  5
AF59
  8
1-前柱P
  6
HIDE-M
 62
     6
 10
26997.410528585158
 20
13880.385711000001
 30
0.0
 40
2.6000000000000001
 50
0.0
 51
90.0
  0
LINE
  5
AF5A
  8
1-前柱P
  6
HIDE-M
 62
     6
 10
27009.010528585171
 20
13882.4351011532
 30
0.0
 11
27009.010528585171
 21
13878.785711
 31
0.0
  0
LINE
  5
AF5B
  8
1-前柱P
  6
HIDE-M
 62
     6
 10
26999.010528585161
 20
13882.4351011532
 30
0.0
 11
26999.010528585161
 21
13878.785711
 31
0.0
  0
LINE
  5
AF5C
  8
1-前柱P
  6
1PL-M
 62
     6
 10
27004.010528585161
 20
13887.98571099999
 30
0.0
 11
27004.010528585161
 21
13873.785711
 31
0.0
  0
ARC
  5
AF5D
  8
1-前柱P
  6
HIDE-M
 62
     6
 10
27010.610528585159
 20
13880.385711000001
 30
0.0
 40
2.6000000000000001
 50
90.0
 51
180.0
  0
LINE
  5
AF5E
  8
1-前柱P
  6
HIDE-M
 62
     6
 10
27000.010528585161
 20
13880.385711000001
 30
0.0
 11
27000.010528585161
 21
13878.785711
 31
0.0
  0
LINE
  5
AF5F
  8
1-前柱P
  6
HIDE-M
 62
     6
 10
27008.010528585161
 20
13880.385711000001
 30
0.0
 11
27008.010528585161
 21
13878.785711
 31
0.0
  0
LINE
  5
AF60
  8
1-前柱P
 10
26990.110528585159
 20
13768.085711000011
 30
0.0
 11
27011.910528585158
 21
13768.085711000011
 31
0.0
  0
LINE
  5
AF61
  8
1-前柱P
 10
27041.910528585158
 20
13805.385711000001
 30
0.0
 11
27041.910528585158
 21
13798.085711000011
 31
0.0
  0
ARC
  5
AF62
  8
1-前柱P
 10
27011.910528585158
 20
13798.085711000011
 30
0.0
 40
30.0
 50
270.0
 51
0.0
  0
ARC
  5
AF63
  8
1-前柱P
 10
27011.910528585158
 20
13798.085711000011
 30
0.0
 40
31.600000000000001
 50
270.0
 51
0.0
  0
LINE
  5
AF64
  8
1-前柱P
 10
26990.110528585159
 20
13766.485710999999
 30
0.0
 11
27011.910528585158
 21
13766.485710999999
 31
0.0
  0
LINE
  5
AF65
  8
1-前柱P
 10
27043.510528585171
 20
13805.385711000001
 30
0.0
 11
27043.510528585171
 21
13798.085711000011
 31
0.0
  0
LINE
  5
AF66
  8
1-前柱P
 10
27020.510528585171
 20
13826.98571099999
 30
0.0
 11
27020.510528585171
 21
13816.985710999999
 31
0.0
  0
LINE
  5
AF67
  8
1-前柱P
 10
27018.910528585158
 20
13816.985710999999
 30
0.0
 11
27018.910528585158
 21
13826.98571099999
 31
0.0
  0
LINE
  5
AF68
  8
1-前柱P
 10
26960.11052858517
 20
13805.385711000001
 30
0.0
 11
26960.11052858517
 21
13798.085711000011
 31
0.0
  0
ARC
  5
AF69
  8
1-前柱P
 10
26990.110528585159
 20
13798.085711000011
 30
0.0
 40
30.0
 50
180.0
 51
270.0
  0
ARC
  5
AF6A
  8
1-前柱P
 10
26990.110528585159
 20
13798.085711000011
 30
0.0
 40
31.600000000000001
 50
180.0
 51
270.0
  0
LINE
  5
AF6B
  8
1-前柱P
 10
26958.510528585161
 20
13805.385711000001
 30
0.0
 11
26958.510528585161
 21
13798.085711000011
 31
0.0
  0
LINE
  5
AF6C
  8
1-前柱P
 10
26965.110528585159
 20
13811.985710999999
 30
0.0
 11
26976.510528585161
 21
13811.985710999999
 31
0.0
  0
ARC
  5
AF6D
  8
1-前柱P
 10
26965.110528585159
 20
13805.385711000001
 30
0.0
 40
6.599999999999997
 50
90.0
 51
180.0
  0
ARC
  5
AF6E
  8
1-前柱P
 10
26976.510528585161
 20
13816.985710999999
 30
0.0
 40
5.0
 50
270.0
 51
0.0
  0
LINE
  5
AF6F
  8
1-前柱P
 10
26965.110528585159
 20
13810.385711000001
 30
0.0
 11
26976.510528585161
 21
13810.385711000001
 31
0.0
  0
ARC
  5
AF70
  8
1-前柱P
 10
26965.110528585159
 20
13805.385711000001
 30
0.0
 40
5.0
 50
90.0
 51
180.0
  0
LINE
  5
AF71
  8
1-前柱P
 10
26981.51052858515
 20
13816.985710999999
 30
0.0
 11
26981.51052858515
 21
13876.385711000001
 31
0.0
  0
LINE
  5
AF72
  8
1-前柱P
 10
26983.11052858517
 20
13816.985710999999
 30
0.0
 11
26983.11052858517
 21
13876.385711000001
 31
0.0
  0
ARC
  5
AF73
  8
1-前柱P
 10
26976.510528585161
 20
13816.985710999999
 30
0.0
 40
6.599999999999997
 50
270.0
 51
0.0
  0
LINE
  5
AF74
  8
1-前柱P
 10
26988.110528585159
 20
13882.98571099999
 30
0.0
 11
27021.51052858515
 21
13882.98571099999
 31
0.0
  0
ARC
  5
AF75
  8
1-前柱P
 10
26988.110528585159
 20
13876.385711000001
 30
0.0
 40
6.599999999999997
 50
90.0
 51
180.0
  0
LINE
  5
AF76
  8
1-前柱P
 10
26988.110528585159
 20
13881.385711000001
 30
0.0
 11
27021.51052858515
 21
13881.385711000001
 31
0.0
  0
ARC
  5
AF77
  8
1-前柱P
 10
26988.110528585159
 20
13876.385711000001
 30
0.0
 40
5.0
 50
90.0
 51
180.0
  0
LINE
  5
AF78
  8
1-前柱P
 10
27021.51052858515
 20
13881.385711000001
 30
0.0
 11
27021.51052858515
 21
13882.98571099999
 31
0.0
  0
LINE
  5
AF79
  8
1-前柱P
 10
27036.910528585158
 20
13811.985710999999
 30
0.0
 11
27025.510528585161
 21
13811.985710999999
 31
0.0
  0
ARC
  5
AF7A
  8
1-前柱P
 10
27036.910528585158
 20
13805.385711000001
 30
0.0
 40
6.599999999999997
 50
0.0
 51
90.0
  0
ARC
  5
AF7B
  8
1-前柱P
 10
27025.510528585161
 20
13816.985710999999
 30
0.0
 40
5.0
 50
180.0
 51
270.0
  0
LINE
  5
AF7C
  8
1-前柱P
 10
27025.510528585161
 20
13810.385711000001
 30
0.0
 11
27036.910528585158
 21
13810.385711000001
 31
0.0
  0
ARC
  5
AF7D
  8
1-前柱P
 10
27025.510528585161
 20
13816.985710999999
 30
0.0
 40
6.599999999999997
 50
180.0
 51
270.0
  0
ARC
  5
AF7E
  8
1-前柱P
 10
27036.910528585158
 20
13805.385711000001
 30
0.0
 40
5.0
 50
0.0
 51
90.0
  0
LINE
  5
AF7F
  8
1-前柱P
 10
27020.510528585171
 20
13826.98571099999
 30
0.0
 11
27018.910528585158
 21
13826.98571099999
 31
0.0
  0
LINE
  5
AF80
  8
1-前柱カバ-P
 10
27043.510528585171
 20
13818.685711
 30
0.0
 11
27043.510528585171
 21
13877.985710999999
 31
0.0
  0
ARC
  5
AF81
  8
1-前柱カバ-P
 10
27036.910528585158
 20
13877.985710999999
 30
0.0
 40
6.599999999999997
 50
0.0
 51
90.0
  0
LINE
  5
AF82
  8
1-前柱カバ-P
 10
27041.910528585158
 20
13818.685711
 30
0.0
 11
27041.910528585158
 21
13877.985710999999
 31
0.0
  0
ARC
  5
AF83
  8
1-前柱カバ-P
 10
27036.910528585158
 20
13818.685711
 30
0.0
 40
5.0
 50
270.0
 51
0.0
  0
LINE
  5
AF84
  8
1-前柱カバ-P
 10
27036.910528585158
 20
13884.585711
 30
0.0
 11
26965.110528585159
 21
13884.585711
 31
0.0
  0
ARC
  5
AF85
  8
1-前柱カバ-P
 10
26965.110528585159
 20
13877.985710999999
 30
0.0
 40
6.599999999999997
 50
90.0
 51
180.0
  0
LINE
  5
AF86
  8
1-前柱カバ-P
 10
27036.910528585158
 20
13882.98571099999
 30
0.0
 11
26965.110528585159
 21
13882.98571099999
 31
0.0
  0
ARC
  5
AF87
  8
1-前柱カバ-P
 10
26965.110528585159
 20
13877.985710999999
 30
0.0
 40
5.0
 50
90.0
 51
180.0
  0
ARC
  5
AF88
  8
1-前柱カバ-P
 10
27036.910528585158
 20
13877.985710999999
 30
0.0
 40
5.0
 50
0.0
 51
90.0
  0
LINE
  5
AF89
  8
1-前柱カバ-P
 10
26958.510528585161
 20
13877.985710999999
 30
0.0
 11
26958.510528585161
 21
13818.685711
 31
0.0
  0
LINE
  5
AF8A
  8
1-前柱カバ-P
 10
26960.11052858517
 20
13877.985710999999
 30
0.0
 11
26960.11052858517
 21
13818.685711
 31
0.0
  0
ARC
  5
AF8B
  8
1-前柱カバ-P
 10
26965.110528585159
 20
13818.685711
 30
0.0
 40
5.0
 50
180.0
 51
270.0
  0
LINE
  5
AF8C
  8
1-前柱カバ-P
  6
1PL-M
 62
     6
 10
27001.010528585161
 20
13877.085711
 30
0.0
 11
27001.010528585161
 21
13890.085711
 31
0.0
  0
LINE
  5
AF8D
  8
1-前柱カバ-P
  6
HIDE-M
 62
     6
 10
27008.010528585161
 20
13884.585711
 30
0.0
 11
27008.010528585161
 21
13882.98571099999
 31
0.0
  0
LINE
  5
AF8E
  8
1-前柱カバ-P
  6
HIDE-M
 62
     6
 10
26994.010528585171
 20
13884.585711
 30
0.0
 11
26994.010528585171
 21
13882.98571099999
 31
0.0
  0
ARC
  5
AF8F
  8
1-前柱カバ-P
 10
27036.910528585158
 20
13818.685711
 30
0.0
 40
6.599999999999997
 50
270.0
 51
0.0
  0
ARC
  5
AF90
  8
1-前柱カバ-P
 10
26965.110528585159
 20
13818.685711
 30
0.0
 40
6.599999999999997
 50
180.0
 51
270.0
  0
LINE
  5
AF91
  8
1-前柱カバ-P
 10
26973.510528585161
 20
13812.085711
 30
0.0
 11
26965.110528585159
 21
13812.085711
 31
0.0
  0
LINE
  5
AF92
  8
1-前柱カバ-P
 10
27028.510528585171
 20
13812.085711
 30
0.0
 11
27036.910528585158
 21
13812.085711
 31
0.0
  0
LINE
  5
AF93
  8
1-前柱カバ-P
 10
26973.510528585161
 20
13813.685711
 30
0.0
 11
26965.110528585159
 21
13813.685711
 31
0.0
  0
LINE
  5
AF94
  8
1-前柱カバ-P
 10
27028.510528585171
 20
13813.685711
 30
0.0
 11
27036.910528585158
 21
13813.685711
 31
0.0
  0
LINE
  5
AF95
  8
1-前柱カバ-P
 10
27028.510528585171
 20
13813.685711
 30
0.0
 11
27028.510528585171
 21
13812.085711
 31
0.0
  0
LINE
  5
AF96
  8
1-前柱カバ-P
 10
26973.510528585161
 20
13812.085711
 30
0.0
 11
26973.510528585161
 21
13813.685711
 31
0.0
  0
LINE
  5
AF97
  8
1-前柱カバ-P
  6
HIDE-M
 62
     6
 10
26969.61052858517
 20
13833.085711
 30
0.0
 11
26958.010528585171
 21
13833.085711
 31
0.0
  0
LINE
  5
AF98
  8
1-前柱カバ-P
  6
HIDE-M
 62
     6
 10
26969.61052858517
 20
13841.085711
 30
0.0
 11
26958.010528585171
 21
13841.085711
 31
0.0
  0
LINE
  5
AF99
  8
1-前柱カバ-P
  6
HIDE-M
 62
     6
 10
26969.61052858517
 20
13834.085711
 30
0.0
 11
26958.010528585171
 21
13834.085711
 31
0.0
  0
LINE
  5
AF9A
  8
1-前柱カバ-P
  6
HIDE-M
 62
     6
 10
26969.61052858517
 20
13840.085711
 30
0.0
 11
26958.010528585171
 21
13840.085711
 31
0.0
  0
LINE
  5
AF9B
  8
1-前柱カバ-P
 10
26968.610528585159
 20
13842.585711
 30
0.0
 11
26961.610528585159
 21
13842.585711
 31
0.0
  0
LINE
  5
AF9C
  8
1-前柱カバ-P
 10
26961.610528585159
 20
13831.585711
 30
0.0
 11
26968.610528585159
 21
13831.585711
 31
0.0
  0
LINE
  5
AF9D
  8
1-前柱カバ-P
 10
26961.610528585159
 20
13830.835711
 30
0.0
 11
26961.610528585159
 21
13843.335711
 31
0.0
  0
LINE
  5
AF9E
  8
1-前柱カバ-P
 10
26958.010528585171
 20
13831.085711
 30
0.0
 11
26958.010528585171
 21
13843.085711
 31
0.0
  0
LINE
  5
AF9F
  8
1-前柱カバ-P
  6
HIDE-M
 62
     6
 10
26960.11052858517
 20
13842.585711
 30
0.0
 11
26958.510528585161
 21
13842.585711
 31
0.0
  0
LINE
  5
AFA0
  8
1-前柱カバ-P
 10
26958.010528585171
 20
13843.085711
 30
0.0
 11
26958.510528585161
 21
13842.585711
 31
0.0
  0
ARC
  5
AFA1
  8
1-前柱カバ-P
 10
26960.860528585159
 20
13843.335711
 30
0.0
 40
0.75
 50
0.0
 51
180.0
  0
LINE
  5
AFA2
  8
1-前柱カバ-P
  6
HIDE-M
 62
     6
 10
26958.510528585161
 20
13831.585711
 30
0.0
 11
26960.11052858517
 21
13831.585711
 31
0.0
  0
LINE
  5
AFA3
  8
1-前柱カバ-P
 10
26958.010528585171
 20
13831.085711
 30
0.0
 11
26958.510528585161
 21
13831.585711
 31
0.0
  0
ARC
  5
AFA4
  8
1-前柱カバ-P
 10
26960.860528585159
 20
13830.835711
 30
0.0
 40
0.75
 50
180.0
 51
0.0
  0
LINE
  5
AFA5
  8
1-前柱カバ-P
 10
26969.61052858517
 20
13832.585711
 30
0.0
 11
26969.61052858517
 21
13841.585711
 31
0.0
  0
ARC
  5
AFA6
  8
1-前柱カバ-P
 10
26968.610528585159
 20
13841.585711
 30
0.0
 40
1.0
 50
0.0
 51
90.0
  0
ARC
  5
AFA7
  8
1-前柱カバ-P
 10
26968.610528585159
 20
13832.585711
 30
0.0
 40
1.0
 50
270.0
 51
0.0
  0
LINE
  5
AFA8
  8
1-前柱カバ-P
  6
1PL-M
 62
     6
 10
26974.610528585159
 20
13837.085711
 30
0.0
 11
26953.010528585161
 21
13837.085711
 31
0.0
  0
LINE
  5
AFA9
  8
1-前柱カバ-P
 10
26968.610528585159
 20
13852.585711
 30
0.0
 11
26961.610528585159
 21
13852.585711
 31
0.0
  0
LINE
  5
AFAA
  8
1-前柱カバ-P
 10
26958.010528585171
 20
13845.085711
 30
0.0
 11
26958.010528585171
 21
13853.085711
 31
0.0
  0
LINE
  5
AFAB
  8
1-前柱カバ-P
  6
HIDE-M
 62
     6
 10
26960.11052858517
 20
13852.585711
 30
0.0
 11
26958.510528585161
 21
13852.585711
 31
0.0
  0
LINE
  5
AFAC
  8
1-前柱カバ-P
 10
26958.010528585171
 20
13853.085711
 30
0.0
 11
26958.510528585161
 21
13852.585711
 31
0.0
  0
ARC
  5
AFAD
  8
1-前柱カバ-P
 10
26960.860528585159
 20
13853.335711
 30
0.0
 40
0.75
 50
0.0
 51
180.0
  0
LINE
  5
AFAE
  8
1-前柱カバ-P
 10
26969.61052858517
 20
13843.585711
 30
0.0
 11
26969.61052858517
 21
13851.585711
 31
0.0
  0
ARC
  5
AFAF
  8
1-前柱カバ-P
 10
26968.610528585159
 20
13851.585711
 30
0.0
 40
1.0
 50
0.0
 51
90.0
  0
LINE
  5
AFB0
  8
1-前柱カバ-P
  6
1PL-M
 62
     6
 10
26974.610528585159
 20
13847.085711
 30
0.0
 11
26953.010528585161
 21
13847.085711
 31
0.0
  0
LINE
  5
AFB1
  8
1-前柱カバ-P
 10
26961.610528585159
 20
13845.335711
 30
0.0
 11
26961.610528585159
 21
13853.335711
 31
0.0
  0
LINE
  5
AFB2
  8
1-前柱カバ-P
  6
HIDE-M
 62
     6
 10
27032.410528585158
 20
13833.085711
 30
0.0
 11
27044.010528585161
 21
13833.085711
 31
0.0
  0
LINE
  5
AFB3
  8
1-前柱カバ-P
  6
HIDE-M
 62
     6
 10
27032.410528585158
 20
13841.085711
 30
0.0
 11
27044.010528585161
 21
13841.085711
 31
0.0
  0
LINE
  5
AFB4
  8
1-前柱カバ-P
  6
HIDE-M
 62
     6
 10
27032.410528585158
 20
13834.085711
 30
0.0
 11
27044.010528585161
 21
13834.085711
 31
0.0
  0
LINE
  5
AFB5
  8
1-前柱カバ-P
  6
HIDE-M
 62
     6
 10
27032.410528585158
 20
13840.085711
 30
0.0
 11
27044.010528585161
 21
13840.085711
 31
0.0
  0
LINE
  5
AFB6
  8
1-前柱カバ-P
 10
27033.410528585158
 20
13842.585711
 30
0.0
 11
27040.410528585158
 21
13842.585711
 31
0.0
  0
LINE
  5
AFB7
  8
1-前柱カバ-P
 10
27040.410528585158
 20
13831.585711
 30
0.0
 11
27033.410528585158
 21
13831.585711
 31
0.0
  0
LINE
  5
AFB8
  8
1-前柱カバ-P
 10
27040.410528585158
 20
13830.835711
 30
0.0
 11
27040.410528585158
 21
13843.335711
 31
0.0
  0
LINE
  5
AFB9
  8
1-前柱カバ-P
 10
27044.010528585161
 20
13831.085711
 30
0.0
 11
27044.010528585161
 21
13843.085711
 31
0.0
  0
LINE
  5
AFBA
  8
1-前柱カバ-P
  6
HIDE-M
 62
     6
 10
27041.910528585158
 20
13842.585711
 30
0.0
 11
27043.510528585171
 21
13842.585711
 31
0.0
  0
LINE
  5
AFBB
  8
1-前柱カバ-P
 10
27044.010528585161
 20
13843.085711
 30
0.0
 11
27043.510528585171
 21
13842.585711
 31
0.0
  0
ARC
  5
AFBC
  8
1-前柱カバ-P
 10
27041.160528585158
 20
13843.335711
 30
0.0
 40
0.75
 50
0.0
 51
180.0
  0
LINE
  5
AFBD
  8
1-前柱カバ-P
  6
HIDE-M
 62
     6
 10
27043.510528585171
 20
13831.585711
 30
0.0
 11
27041.910528585158
 21
13831.585711
 31
0.0
  0
LINE
  5
AFBE
  8
1-前柱カバ-P
 10
27044.010528585161
 20
13831.085711
 30
0.0
 11
27043.510528585171
 21
13831.585711
 31
0.0
  0
ARC
  5
AFBF
  8
1-前柱カバ-P
 10
27041.160528585158
 20
13830.835711
 30
0.0
 40
0.75
 50
180.0
 51
0.0
  0
LINE
  5
AFC0
  8
1-前柱カバ-P
 10
27032.410528585158
 20
13832.585711
 30
0.0
 11
27032.410528585158
 21
13841.585711
 31
0.0
  0
ARC
  5
AFC1
  8
1-前柱カバ-P
 10
27033.410528585158
 20
13841.585711
 30
0.0
 40
1.0
 50
90.0
 51
180.0
  0
ARC
  5
AFC2
  8
1-前柱カバ-P
 10
27033.410528585158
 20
13832.585711
 30
0.0
 40
1.0
 50
180.0
 51
270.0
  0
LINE
  5
AFC3
  8
1-前柱カバ-P
  6
1PL-M
 62
     6
 10
27027.410528585158
 20
13837.085711
 30
0.0
 11
27049.010528585171
 21
13837.085711
 31
0.0
  0
LINE
  5
AFC4
  8
1-前柱カバ-P
 10
27033.410528585158
 20
13852.585711
 30
0.0
 11
27040.410528585158
 21
13852.585711
 31
0.0
  0
LINE
  5
AFC5
  8
1-前柱カバ-P
 10
27044.010528585161
 20
13845.085711
 30
0.0
 11
27044.010528585161
 21
13853.085711
 31
0.0
  0
LINE
  5
AFC6
  8
1-前柱カバ-P
  6
HIDE-M
 62
     6
 10
27041.910528585158
 20
13852.585711
 30
0.0
 11
27043.510528585171
 21
13852.585711
 31
0.0
  0
LINE
  5
AFC7
  8
1-前柱カバ-P
 10
27044.010528585161
 20
13853.085711
 30
0.0
 11
27043.510528585171
 21
13852.585711
 31
0.0
  0
ARC
  5
AFC8
  8
1-前柱カバ-P
 10
27041.160528585158
 20
13853.335711
 30
0.0
 40
0.75
 50
0.0
 51
180.0
  0
LINE
  5
AFC9
  8
1-前柱カバ-P
 10
27032.410528585158
 20
13843.585711
 30
0.0
 11
27032.410528585158
 21
13851.585711
 31
0.0
  0
ARC
  5
AFCA
  8
1-前柱カバ-P
 10
27033.410528585158
 20
13851.585711
 30
0.0
 40
1.0
 50
90.0
 51
180.0
  0
LINE
  5
AFCB
  8
1-前柱カバ-P
  6
1PL-M
 62
     6
 10
27027.410528585158
 20
13847.085711
 30
0.0
 11
27049.010528585171
 21
13847.085711
 31
0.0
  0
LINE
  5
AFCC
  8
1-前柱カバ-P
 10
27040.410528585158
 20
13845.335711
 30
0.0
 11
27040.410528585158
 21
13853.335711
 31
0.0
  0
LINE
  5
AFCD
  8
1-前柱カバ-P
  6
HIDE-M
 62
     6
 10
26969.61052858517
 20
13851.085711
 30
0.0
 11
26958.010528585171
 21
13851.085711
 31
0.0
  0
LINE
  5
AFCE
  8
1-前柱カバ-P
  6
HIDE-M
 62
     6
 10
26969.61052858517
 20
13850.085711
 30
0.0
 11
26958.010528585171
 21
13850.085711
 31
0.0
  0
LINE
  5
AFCF
  8
1-前柱カバ-P
  6
HIDE-M
 62
     6
 10
27032.410528585158
 20
13851.085711
 30
0.0
 11
27044.010528585161
 21
13851.085711
 31
0.0
  0
LINE
  5
AFD0
  8
1-前柱カバ-P
  6
HIDE-M
 62
     6
 10
27032.410528585158
 20
13850.085711
 30
0.0
 11
27044.010528585161
 21
13850.085711
 31
0.0
  0
LINE
  5
AFD1
  8
2-0
  6
CENTER2
 62
     6
 10
17920.508285585169
 20
13811.985710999999
 30
0.0
 11
27305.615364537101
 21
13811.985710999999
 31
0.0
  0
LINE
  5
AFD2
  8
2-0
  6
CENTER2
 62
     6
 10
17920.508285585169
 20
16729.985711000001
 30
0.0
 11
27305.615364537101
 21
16729.985711000001
 31
0.0
  0
LINE
  5
AFD3
  8
2-0
  6
CENTER2
 62
     6
 10
17920.508285585169
 20
19647.985711000001
 30
0.0
 11
27305.615364537101
 21
19647.985711000001
 31
0.0
  0
LINE
  5
AFD4
  8
2-0
  6
CENTER2
 62
     6
 10
12903.743320936699
 20
20890.487954
 30
0.0
 11
12903.743320936699
 21
19940.487293999991
 31
0.0
  0
CIRCLE
  5
AFD5
  8
0-5
  6
CONTINUOUS
 62
     4
 10
12903.743320936699
 20
21090.486634999979
 30
0.0
 40
199.9999949999999
  0
TEXT
  5
AFD6
  8
0-5
  6
CONTINUOUS
 62
     7
 10
12850.026114936711
 20
21001.271712000002
 30
0.0
 40
160.0
  1
3
 72
     4
 11
12903.359448270039
 21
21081.271712000002
 31
0.0
  0
LINE
  5
AFD7
  8
0-1
  6
CONTINUOUS
 62
     3
 10
12971.243279895511
 20
15656.672320617021
 30
0.0
 11
12971.243279895511
 21
19852.94571838612
 31
0.0
  0
LINE
  5
AFD8
  8
0-1
  6
CONTINUOUS
 62
     3
 10
12971.243279895511
 20
19852.94571838612
 30
0.0
 11
12989.243041895499
 21
19852.94571838612
 31
0.0
  0
LINE
  5
AFD9
  8
0-1
  6
CONTINUOUS
 62
     3
 10
12915.742527895531
 20
19835.446773386131
 30
0.0
 11
12915.742527895531
 21
19865.446377386121
 31
0.0
  0
LINE
  5
AFDA
  8
0-1
  6
CONTINUOUS
 62
     3
 10
12971.243279895511
 20
19830.444530386099
 30
0.0
 11
12920.74378189552
 21
19830.444530386099
 31
0.0
  0
LINE
  5
AFDB
  8
0-1
  6
CONTINUOUS
 62
     3
 10
12989.243041895499
 20
19865.446377386121
 30
0.0
 11
12989.243041895499
 21
19830.444530386099
 31
0.0
  0
LINE
  5
AFDC
  8
0-1
  6
CONTINUOUS
 62
     3
 10
12920.74378189552
 20
19870.444662386129
 30
0.0
 11
12984.241788895501
 21
19870.444662386129
 31
0.0
  0
ARC
  5
AFDD
  8
0-1
  6
CONTINUOUS
 62
     3
 10
12984.241788895501
 20
19865.446377386121
 30
0.0
 40
5.0
 50
0.0
 51
90.0
  0
ARC
  5
AFDE
  8
0-1
  6
CONTINUOUS
 62
     3
 10
12920.74378189552
 20
19865.446377386121
 30
0.0
 40
5.0
 50
90.0
 51
180.0
  0
ARC
  5
AFDF
  8
0-1
  6
CONTINUOUS
 62
     3
 10
12920.74378189552
 20
19835.446773386131
 30
0.0
 40
5.0
 50
180.0
 51
269.9999850001808
  0
LINE
  5
AFE0
  8
0-1
  6
CONTINUOUS
 62
     3
 10
7903.7433209367064
 20
13775.48635799998
 30
0.0
 11
7903.7433209367064
 21
13619.486437
 31
0.0
  0
LINE
  5
AFE1
  8
0-1
  6
CONTINUOUS
 62
     3
 10
4644.2936844850592
 20
19096.43610768397
 30
0.0
 11
8312.5417742813624
 21
17577.69171465941
 31
0.0
  0
LINE
  5
AFE2
  8
0-1
  6
CONTINUOUS
 62
     3
 10
12853.74368993672
 20
13651.48634400001
 30
0.0
 11
12853.74368993672
 21
15705.1951467899
 31
0.0
  0
LINE
  5
AFE3
  8
0-1
  6
CONTINUOUS
 62
     3
 10
12989.243320936699
 20
13619.486437
 30
0.0
 11
12989.243320936699
 21
15649.28639876184
 31
0.0
  0
LINE
  5
AFE4
  8
0-1
  6
CONTINUOUS
 62
     3
 10
12903.743320936699
 20
13775.48635799998
 30
0.0
 11
12903.743320936699
 21
15683.327096625921
 31
0.0
  0
LINE
  5
AFE5
  8
0-1
  6
CONTINUOUS
 62
     3
 10
12946.24457493672
 20
13775.48635799998
 30
0.0
 11
12946.24457493672
 21
15665.79075652376
 31
0.0
  0
LINE
  5
AFE6
  8
0-1
  6
CONTINUOUS
 62
     3
 10
12853.743410895529
 20
15705.154230176029
 30
0.0
 11
12853.743410895529
 21
19812.444768386129
 31
0.0
  0
LINE
  5
AFE7
  8
0-1
  6
CONTINUOUS
 62
     3
 10
12989.243041895499
 20
15649.24548214797
 30
0.0
 11
12989.243041895499
 21
19852.94571838612
 31
0.0
  0
LINE
  5
AFE8
  8
0-1
  6
CONTINUOUS
 62
     3
 10
12756.243452936709
 20
15744.186662093551
 30
0.0
 11
12756.243452936709
 21
19812.485685
 31
0.0
  0
LINE
  5
AFE9
  8
0-1
  6
CONTINUOUS
 62
     3
 10
12793.245603936721
 20
15728.919293642561
 30
0.0
 11
12793.245603936721
 21
19812.485685
 31
0.0
  0
LINE
  5
AFEA
  8
2-0
  6
DASHED3
 62
     6
 10
12903.743320936699
 20
15683.327096625921
 30
0.0
 11
12903.743320936699
 21
19812.485685
 31
0.0
  0
LINE
  5
AFEB
  8
2-0
  6
DASHED3
 62
     6
 10
12946.24457493672
 20
15665.79075652376
 30
0.0
 11
12946.24457493672
 21
19812.485685
 31
0.0
  0
LINE
  5
AFEC
  8
0-1
  6
CONTINUOUS
 62
     3
 10
4900.2433209367091
 20
18989.10749151139
 30
0.0
 11
4900.2433209367091
 21
19860.487031000001
 31
0.0
  0
LINE
  5
AFED
  8
0-1
  6
CONTINUOUS
 62
     3
 10
5035.743940936718
 20
18933.19915196484
 30
0.0
 11
5035.743940936718
 21
19812.485685
 31
0.0
  0
LINE
  5
AFEE
  8
0-1
  6
CONTINUOUS
 62
     3
 10
7756.2454319367234
 20
17807.22380933446
 30
0.0
 11
7756.2454319367234
 21
19812.485685
 31
0.0
  0
LINE
  5
AFEF
  8
0-1
  6
CONTINUOUS
 62
     3
 10
7793.2456039367289
 20
17791.957257433889
 30
0.0
 11
7793.2456039367289
 21
19812.485685
 31
0.0
  0
LINE
  5
AFF0
  8
0-1
  6
CONTINUOUS
 62
     3
 10
7956.2460919367313
 20
17724.70201846179
 30
0.0
 11
7956.2460919367331
 21
19812.485685
 31
0.0
  0
LINE
  5
AFF1
  8
0-1
  6
CONTINUOUS
 62
     3
 10
7993.2462639367404
 20
17709.435466561219
 30
0.0
 11
7993.2462639367404
 21
19812.485685
 31
0.0
  0
LINE
  5
AFF2
  8
0-1
  6
CONTINUOUS
 62
     3
 10
8156.246751936741
 20
17642.180227589099
 30
0.0
 11
8156.246751936741
 21
19812.485685
 31
0.0
  0
LINE
  5
AFF3
  8
0-1
  6
CONTINUOUS
 62
     3
 10
8193.2469239367492
 20
17626.913675688538
 30
0.0
 11
8193.2469239367492
 21
19812.485685
 31
0.0
  0
LINE
  5
AFF4
  8
0-1
  6
CONTINUOUS
 62
     3
 10
8356.2474119367507
 20
17683.61714701321
 30
0.0
 11
8356.2474119367507
 21
19812.485685
 31
0.0
  0
LINE
  5
AFF5
  8
0-1
  6
CONTINUOUS
 62
     3
 10
8393.2475839367598
 20
17773.291143927981
 30
0.0
 11
8393.2475839367598
 21
19812.485685
 31
0.0
  0
LINE
  5
AFF6
  8
0-1
  6
CONTINUOUS
 62
     3
 10
8556.2480719367559
 20
17638.213552947622
 30
0.0
 11
8556.2480719367559
 21
19814.267285901791
 31
0.0
  0
LINE
  5
AFF7
  8
0-1
  6
CONTINUOUS
 62
     3
 10
8593.2482439367686
 20
17595.670312558748
 30
0.0
 11
8593.2482439367686
 21
19814.267285901791
 31
0.0
  0
LINE
  5
AFF8
  8
0-1
  6
CONTINUOUS
 62
     3
 10
8756.2487319367701
 20
17408.250401524641
 30
0.0
 11
8756.2487319367701
 21
19814.267285901791
 31
0.0
  0
LINE
  5
AFF9
  8
0-1
  6
CONTINUOUS
 62
     3
 10
8793.2489039367792
 20
17365.707161135771
 30
0.0
 11
8793.2489039367792
 21
19814.267285901791
 31
0.0
  0
LINE
  5
AFFA
  8
0-1
  6
CONTINUOUS
 62
     3
 10
8956.2493919367807
 20
17178.287250101661
 30
0.0
 11
8956.2493919367807
 21
19814.267285901791
 31
0.0
  0
LINE
  5
AFFB
  8
0-1
  6
CONTINUOUS
 62
     3
 10
8993.2495639367917
 20
17135.74400971278
 30
0.0
 11
8993.2495639367917
 21
19814.267285901791
 31
0.0
  0
LINE
  5
AFFC
  8
0-1
  6
CONTINUOUS
 62
     3
 10
9156.2500519367877
 20
17000.69523749184
 30
0.0
 11
9156.2500519367877
 21
19814.267285901791
 31
0.0
  0
LINE
  5
AFFD
  8
0-1
  6
CONTINUOUS
 62
     3
 10
9193.250223936795
 20
17090.373517523742
 30
0.0
 11
9193.250223936795
 21
19814.267285901791
 31
0.0
  0
LINE
  5
AFFE
  8
0-1
  6
CONTINUOUS
 62
     3
 10
9356.2507119367983
 20
17147.049482353101
 30
0.0
 11
9356.2507119367983
 21
19814.267285901791
 31
0.0
  0
LINE
  5
AFFF
  8
0-1
  6
CONTINUOUS
 62
     3
 10
9393.2508839368038
 20
17131.782930452511
 30
0.0
 11
9393.2508839368038
 21
19814.267285901791
 31
0.0
  0
LINE
  5
B000
  8
0-1
  6
CONTINUOUS
 62
     3
 10
9556.2513719368071
 20
17064.527691480431
 30
0.0
 11
9556.2513719368035
 21
19814.267285901791
 31
0.0
  0
LINE
  5
B001
  8
0-1
  6
CONTINUOUS
 62
     3
 10
9593.2515439368144
 20
17049.261139579859
 30
0.0
 11
9593.2515439368144
 21
19814.267285901791
 31
0.0
  0
LINE
  5
B002
  8
0-1
  6
CONTINUOUS
 62
     3
 10
9756.2520319368177
 20
16982.00590060775
 30
0.0
 11
9756.2520319368177
 21
19814.267285901791
 31
0.0
  0
LINE
  5
B003
  8
0-1
  6
CONTINUOUS
 62
     3
 10
9793.2522039368232
 20
16966.739348707179
 30
0.0
 11
9793.2522039368232
 21
19814.267285901791
 31
0.0
  0
LINE
  5
B004
  8
0-1
  6
CONTINUOUS
 62
     3
 10
9956.2526919368229
 20
16899.48410973508
 30
0.0
 11
9956.2526919368229
 21
19814.267285901791
 31
0.0
  0
LINE
  5
B005
  8
0-1
  6
CONTINUOUS
 62
     3
 10
9993.2528639368338
 20
16884.217557834509
 30
0.0
 11
9993.2528639368338
 21
19814.267285901791
 31
0.0
  0
LINE
  5
B006
  8
0-1
  6
CONTINUOUS
 62
     3
 10
10156.25335193683
 20
16816.962318862421
 30
0.0
 11
10156.25335193683
 21
19814.267285901791
 31
0.0
  0
LINE
  5
B007
  8
0-1
  6
CONTINUOUS
 62
     3
 10
10193.253523936841
 20
16801.69576696185
 30
0.0
 11
10193.253523936841
 21
19814.267285901791
 31
0.0
  0
LINE
  5
B008
  8
0-1
  6
CONTINUOUS
 62
     3
 10
10356.25401193684
 20
16734.440527989751
 30
0.0
 11
10356.25401193684
 21
19812.485685
 31
0.0
  0
LINE
  5
B009
  8
0-1
  6
CONTINUOUS
 62
     3
 10
10393.25418393685
 20
16719.17397608918
 30
0.0
 11
10393.25418393685
 21
19812.485685
 31
0.0
  0
LINE
  5
B00A
  8
0-1
  6
CONTINUOUS
 62
     3
 10
10556.25467193684
 20
16651.918737117048
 30
0.0
 11
10556.25467193684
 21
19812.485685
 31
0.0
  0
LINE
  5
B00B
  8
0-1
  6
CONTINUOUS
 62
     3
 10
10593.254843936849
 20
16636.652185216499
 30
0.0
 11
10593.254843936849
 21
19812.485685
 31
0.0
  0
LINE
  5
B00C
  8
0-1
  6
CONTINUOUS
 62
     3
 10
10756.25533193686
 20
16569.396946244411
 30
0.0
 11
10756.25533193686
 21
19812.485685
 31
0.0
  0
LINE
  5
B00D
  8
0-1
  6
CONTINUOUS
 62
     3
 10
10793.25550393686
 20
16554.13039434384
 30
0.0
 11
10793.25550393686
 21
19812.485685
 31
0.0
  0
LINE
  5
B00E
  8
0-1
  6
CONTINUOUS
 62
     3
 10
10956.25599193687
 20
16486.875155371741
 30
0.0
 11
10956.25599193687
 21
19812.485685
 31
0.0
  0
LINE
  5
B00F
  8
0-1
  6
CONTINUOUS
 62
     3
 10
10993.256163936871
 20
16471.60860347117
 30
0.0
 11
10993.256163936871
 21
19812.485685
 31
0.0
  0
LINE
  5
B010
  8
0-1
  6
CONTINUOUS
 62
     3
 10
11156.25665193687
 20
16404.353364499071
 30
0.0
 11
11156.25665193687
 21
19812.485685
 31
0.0
  0
LINE
  5
B011
  8
0-1
  6
CONTINUOUS
 62
     3
 10
11193.25682393687
 20
16389.0868125985
 30
0.0
 11
11193.25682393687
 21
19812.485685
 31
0.0
  0
LINE
  5
B012
  8
0-1
  6
CONTINUOUS
 62
     3
 10
11356.25731193687
 20
16321.83157362639
 30
0.0
 11
11356.25731193687
 21
19812.485685
 31
0.0
  0
LINE
  5
B013
  8
0-1
  6
CONTINUOUS
 62
     3
 10
11393.257483936881
 20
16306.565021725821
 30
0.0
 11
11393.257483936881
 21
19812.485685
 31
0.0
  0
LINE
  5
B014
  8
0-1
  6
CONTINUOUS
 62
     3
 10
11556.25797193688
 20
16239.309782753709
 30
0.0
 11
11556.25797193688
 21
19812.485685
 31
0.0
  0
LINE
  5
B015
  8
0-1
  6
CONTINUOUS
 62
     3
 10
11593.25814393689
 20
16224.04323085316
 30
0.0
 11
11593.25814393689
 21
19812.485685
 31
0.0
  0
LINE
  5
B016
  8
0-1
  6
CONTINUOUS
 62
     3
 10
11756.2586319369
 20
16156.78799188105
 30
0.0
 11
11756.2586319369
 21
19812.485685
 31
0.0
  0
LINE
  5
B017
  8
0-1
  6
CONTINUOUS
 62
     3
 10
11793.258803936909
 20
16141.52143998049
 30
0.0
 11
11793.258803936909
 21
19812.485685
 31
0.0
  0
LINE
  5
B018
  8
0-1
  6
CONTINUOUS
 62
     3
 10
11956.259291936911
 20
16074.26620100838
 30
0.0
 11
11956.259291936911
 21
19812.485685
 31
0.0
  0
LINE
  5
B019
  8
0-1
  6
CONTINUOUS
 62
     3
 10
11993.25946393692
 20
16058.99964910782
 30
0.0
 11
11993.25946393692
 21
19812.485685
 31
0.0
  0
LINE
  5
B01A
  8
0-1
  6
CONTINUOUS
 62
     3
 10
12156.25995193692
 20
15991.74441013571
 30
0.0
 11
12156.25995193692
 21
19812.485685
 31
0.0
  0
LINE
  5
B01B
  8
0-1
  6
CONTINUOUS
 62
     3
 10
12193.260123936931
 20
15976.477858235139
 30
0.0
 11
12193.260123936931
 21
19812.485685
 31
0.0
  0
LINE
  5
B01C
  8
0-1
  6
CONTINUOUS
 62
     3
 10
12356.260611936919
 20
15909.22261926303
 30
0.0
 11
12356.260611936919
 21
19812.485685
 31
0.0
  0
LINE
  5
B01D
  8
0-1
  6
CONTINUOUS
 62
     3
 10
12393.260783936939
 20
15893.95606736248
 30
0.0
 11
12393.260783936939
 21
19812.485685
 31
0.0
  0
LINE
  5
B01E
  8
0-1
  6
CONTINUOUS
 62
     3
 10
12556.261271936941
 20
15826.700828390371
 30
0.0
 11
12556.261271936941
 21
19812.485685
 31
0.0
  0
LINE
  5
B01F
  8
0-1
  6
CONTINUOUS
 62
     3
 10
12593.261443936941
 20
15811.43427648981
 30
0.0
 11
12593.261443936941
 21
19812.485685
 31
0.0
  0
LINE
  5
B020
  8
2-0
  6
DASHED3
 62
     6
 10
10257.982531426331
 20
16774.988087000002
 30
0.0
 11
12903.743320936699
 21
16774.988087000002
 31
0.0
  0
LINE
  5
B021
  8
2-0
  6
DASHED3
 62
     6
 10
10476.114171705511
 20
16684.985315999991
 30
0.0
 11
12903.743320936699
 21
16684.985315999991
 31
0.0
  0
LINE
  5
B022
  8
0-1
  6
CONTINUOUS
 62
     3
 10
7903.7433209367064
 20
16684.985315999991
 30
0.0
 11
10476.114171705511
 21
16684.985315999991
 31
0.0
  0
LINE
  5
B023
  8
0-1
  6
CONTINUOUS
 62
     3
 10
7903.7433209367064
 20
16774.988087000002
 30
0.0
 11
10257.982531426331
 21
16774.988087000002
 31
0.0
  0
LINE
  5
B024
  8
0-1
  6
CONTINUOUS
 62
     3
 10
7963.2436899367221
 20
13811.985710999999
 30
0.0
 11
10212.243689936709
 21
16729.985711000001
 31
0.0
  0
LINE
  5
B025
  8
0-1
  6
CONTINUOUS
 62
     3
 10
10212.243689936709
 20
13811.985710999999
 30
0.0
 11
7963.2436899367167
 21
16729.985711000001
 31
0.0
  0
LINE
  5
B026
  8
0-6
  6
CONTINUOUS
 62
     6
 10
12850.74368993672
 20
15523.84804919877
 30
0.0
 11
12649.95855424874
 21
15120.634537918049
 31
0.0
  0
LINE
  5
B027
  8
2-0
  6
DASHED3
 62
     6
 10
12079.118987842679
 20
16036.977315841959
 30
0.0
 11
12613.24368993672
 21
16729.985711000001
 31
0.0
  0
LINE
  5
B028
  8
2-0
  6
DASHED3
 62
     6
 10
7963.2436899367221
 20
19647.985711000001
 30
0.0
 11
10139.692876229979
 21
16823.795296878779
 31
0.0
  0
LINE
  5
B029
  8
2-0
  6
DASHED3
 62
     6
 10
10212.243689936709
 20
19647.985711000001
 30
0.0
 11
8614.1570568934858
 21
17571.62910929451
 31
0.0
  0
LINE
  5
B02A
  8
0-1
  6
CONTINUOUS
 62
     3
 10
8614.1570568934858
 20
17571.62910929451
 30
0.0
 11
7963.2436899367167
 21
16729.985711000001
 31
0.0
  0
LINE
  5
B02B
  8
0-6
  6
CONTINUOUS
 62
     6
 10
25550.934823763761
 20
13183.42614090021
 30
0.0
 11
26550.934164763748
 21
13183.42614090021
 31
0.0
  0
TEXT
  5
B02C
  8
0-6
  6
CONTINUOUS
 62
     7
 10
25646.935087763741
 20
13263.426404900199
 30
0.0
 40
160.0
  1
前柱（P）
 72
     4
 11
26046.935087763741
 21
13343.426404900199
 31
0.0
  0
LINE
  5
B02D
  8
0-6
  6
CONTINUOUS
 62
     6
 10
26956.010528585171
 20
13769.425282900211
 30
0.0
 11
26550.934164763748
 21
13183.42614090021
 31
0.0
  0
LINE
  5
B02E
  8
0-6
  6
CONTINUOUS
 62
     6
 10
25550.934823763761
 20
16080.047909954121
 30
0.0
 11
26550.934164763748
 21
16080.047909954121
 31
0.0
  0
TEXT
  5
B02F
  8
0-6
  6
CONTINUOUS
 62
     7
 10
25646.935087763741
 20
16160.048173954099
 30
0.0
 40
160.0
  1
中柱（P）
 72
     4
 11
26046.935087763741
 21
16240.048173954099
 31
0.0
  0
LINE
  5
B030
  8
0-6
  6
CONTINUOUS
 62
     6
 10
26956.010528585171
 20
16666.047051954109
 30
0.0
 11
26550.934164763748
 21
16080.047909954121
 31
0.0
  0
LINE
  5
B031
  8
0-6
  6
CONTINUOUS
 62
     6
 10
25209.872933294209
 20
14384.41602072909
 30
0.0
 11
26665.87293329422
 21
14384.41602072909
 31
0.0
  0
TEXT
  5
B032
  8
0-6
  6
CONTINUOUS
 62
     7
 10
25249.87820654664
 20
14464.416284729081
 30
0.0
 40
160.0
  1
前柱カバー（P）
 72
     4
 11
25937.87820654664
 21
14544.416284729081
 31
0.0
  0
LINE
  5
B033
  8
0-6
  6
CONTINUOUS
 62
     6
 10
26965.110528585159
 20
13896.0252829002
 30
0.0
 11
26665.87293329422
 21
14384.41602072909
 31
0.0
  0
LINE
  5
B034
  8
0-6
  6
CONTINUOUS
 62
     6
 10
25209.872933294209
 20
17300.976553828881
 30
0.0
 11
26665.87293329422
 21
17300.976553828881
 31
0.0
  0
TEXT
  5
B035
  8
0-6
  6
CONTINUOUS
 62
     7
 10
25249.87820654664
 20
17380.976817828861
 30
0.0
 40
160.0
  1
中柱カバー（P）
 72
     4
 11
25937.87820654664
 21
17460.976817828861
 31
0.0
  0
LINE
  5
B036
  8
0-6
  6
CONTINUOUS
 62
     6
 10
26965.110528585159
 20
16812.585815999999
 30
0.0
 11
26665.87293329422
 21
17300.976553828881
 31
0.0
  0
LINE
  5
B037
  8
0-6
  6
CONTINUOUS
 62
     6
 10
25550.934823763761
 20
20307.923617045872
 30
0.0
 11
26550.934164763741
 21
20307.923617045872
 31
0.0
  0
TEXT
  5
B038
  8
0-6
  6
CONTINUOUS
 62
     7
 10
25646.935087763741
 20
20387.923881045848
 30
0.0
 40
160.0
  1
後柱（P）
 72
     4
 11
26046.935087763741
 21
20467.923881045848
 31
0.0
  0
LINE
  5
B039
  8
0-6
  6
CONTINUOUS
 62
     6
 10
26956.010528585161
 20
19721.924475045871
 30
0.0
 11
26550.934164763741
 21
20307.923617045872
 31
0.0
  0
LINE
  5
B03A
  8
0-6
  6
CONTINUOUS
 62
     6
 10
25209.872933294209
 20
19086.994973171109
 30
0.0
 11
26665.87293329422
 21
19086.994973171109
 31
0.0
  0
TEXT
  5
B03B
  8
0-6
  6
CONTINUOUS
 62
     7
 10
25249.878206546618
 20
19166.995237171112
 30
0.0
 40
160.0
  1
後柱カバー（P）
 72
     4
 11
25937.878206546618
 21
19246.995237171112
 31
0.0
  0
LINE
  5
B03C
  8
0-6
  6
CONTINUOUS
 62
     6
 10
26965.110528585159
 20
19575.385710999992
 30
0.0
 11
26665.87293329422
 21
19086.994973171109
 31
0.0
  0
LINE
  5
B03D
  8
0-1
  6
CONTINUOUS
 62
     3
 10
8312.5412365215816
 20
17577.690411339281
 30
0.0
 11
8407.8952568451059
 21
17808.791394445481
 31
0.0
  0
LINE
  5
B03E
  8
0-1
  6
CONTINUOUS
 62
     3
 10
9141.5947890283205
 20
16965.174895287859
 30
0.0
 11
9236.9454387058395
 21
17196.278746994321
 31
0.0
  0
LINE
  5
B03F
  8
0-1
  6
CONTINUOUS
 62
     3
 10
9141.5947890283205
 20
16965.174895287859
 30
0.0
 11
8407.8952568451059
 21
17808.791394445481
 31
0.0
  0
LINE
  5
B040
  8
0-1
  6
CONTINUOUS
 62
     3
 10
9236.9443799269957
 20
17196.276180804489
 30
0.0
 11
13226.2447059367
 21
15550.260576499861
 31
0.0
  0
TEXT
  5
B041
  8
0-5
  6
CONTINUOUS
 62
     7
 10
28493.335698879531
 20
7245.3675080740322
 30
0.0
 40
160.0
  1
(2260)
 50
90.0
 72
     4
 11
28413.335698879531
 21
7632.0341747407001
 31
0.0
  0
LINE
  5
B042
  8
0-6
  6
CONTINUOUS
 62
     6
 10
6151.5724214263928
 20
16167.71449560819
 30
0.0
 11
7031.5713654264064
 21
16167.71449560819
 31
0.0
  0
LINE
  5
B043
  8
0-6
  6
CONTINUOUS
 62
     6
 10
5973.8102840780057
 20
15997.697367937861
 30
0.0
 11
6151.5724214263928
 21
16167.71449560819
 31
0.0
  0
LINE
  5
B044
  8
0-6
  6
CONTINUOUS
 62
     6
 10
5858.182644078016
 20
15887.107603937849
 30
0.0
 11
5955.3799760780194
 21
16016.969960937849
 31
0.0
  0
LINE
  5
B045
  8
0-6
  6
CONTINUOUS
 62
     6
 10
5992.241581078003
 20
15978.424774937859
 30
0.0
 11
5858.182644078016
 21
15887.107603937849
 31
0.0
  0
LINE
  5
B046
  8
0-6
  6
CONTINUOUS
 62
     6
 10
5992.241581078003
 20
15978.424774937859
 30
0.0
 11
5955.3799760780194
 21
16016.969960937849
 31
0.0
  0
TEXT
  5
B047
  8
0-6
  6
CONTINUOUS
 62
     7
 10
6231.5736754264026
 20
16247.71475960818
 30
0.0
 40
160.0
  1
ブレース
 72
     4
 11
6594.2403420930696
 21
16333.048092941521
 31
0.0
  0
LINE
  5
B048
  8
0-6
  6
CONTINUOUS
 62
     6
 10
6513.9646807702356
 20
16784.988192000001
 30
0.0
 11
6394.6670624378849
 21
17100.58053000001
 31
0.0
  0
LINE
  5
B049
  8
0-6
  6
CONTINUOUS
 62
     6
 10
5594.0963014378958
 20
17100.58053000001
 30
0.0
 11
6394.6670624378849
 21
17100.58053000001
 31
0.0
  0
TEXT
  5
B04A
  8
0-6
  6
CONTINUOUS
 62
     7
 10
5674.6666664378808
 20
17180.580794000001
 30
0.0
 40
160.0
  1
桁（中）
 72
     4
 11
5994.6666664378808
 21
17260.580794000001
 31
0.0
  0
LINE
  5
B04B
  8
0-6
  6
CONTINUOUS
 62
     6
 10
10003.147529384511
 20
15111.746733416439
 30
0.0
 11
10883.14647338453
 21
15111.746733416439
 31
0.0
  0
LINE
  5
B04C
  8
0-6
  6
CONTINUOUS
 62
     6
 10
11250.888178959151
 20
15579.595040049609
 30
0.0
 11
10883.14647338453
 21
15111.746733416439
 31
0.0
  0
TEXT
  5
B04D
  8
0-6
  6
CONTINUOUS
 62
     7
 10
10083.14878338452
 20
15191.74699741642
 30
0.0
 40
160.0
  1
ブレース
 72
     4
 11
10445.81545005119
 21
15277.080330749761
 31
0.0
  0
LINE
  5
B04E
  8
0-1
  6
CONTINUOUS
 62
     3
 10
10212.243689936709
 20
16729.985711000001
 30
0.0
 11
10139.692876229979
 21
16823.795296878779
 31
0.0
  0
LINE
  5
B04F
  8
2-0
  6
DASHED3
 62
     6
 10
10364.24368993672
 20
19647.985711000001
 30
0.0
 11
12613.24368993672
 21
16729.985711000001
 31
0.0
  0
LINE
  5
B050
  8
2-0
  6
DASHED3
 62
     6
 10
12613.24368993672
 20
19647.985711000001
 30
0.0
 11
10364.2436899367
 21
16729.985711000001
 31
0.0
  0
LINE
  5
B051
  8
0-1
  6
CONTINUOUS
 62
     3
 10
10364.24368993672
 20
13811.985710999999
 30
0.0
 11
12071.2807510155
 21
16026.807473662449
 31
0.0
  0
LINE
  5
B052
  8
0-1
  6
CONTINUOUS
 62
     3
 10
12613.24368993672
 20
13811.985710999999
 30
0.0
 11
10364.24368993672
 21
16729.985711000001
 31
0.0
  0
LINE
  5
B05B
  8
SUNPOU
  6
CONTINUOUS
 10
4056.243544936719
 20
19870.48359950001
 30
0.0
 11
4056.243544936719
 21
20667.450867278461
 31
0.0
  0
LINE
  5
B05C
  8
SUNPOU
  6
CONTINUOUS
 10
4056.2435449367031
 20
12878.173846847811
 30
0.0
 11
4056.2435449367031
 21
13619.486437
 31
0.0
  0
LINE
  5
B05D
  8
SUNPOU
  6
CONTINUOUS
 10
5986.2340064709351
 20
9389.1900499999992
 30
0.0
 11
5481.4461365775196
 21
9389.1900499999992
 31
0.0
  0
LINE
  5
B05E
  8
0-1
  6
CONTINUOUS
 62
     3
 10
11422.73306847094
 20
6291.1885390000007
 30
0.0
 11
11422.73306847094
 21
8152.2344180000036
 31
0.0
  0
LINE
  5
B05F
  8
0-1
  6
CONTINUOUS
 62
     3
 10
11437.731881470931
 20
6291.1885390000007
 30
0.0
 11
11437.731881470931
 21
8152.2344180000036
 31
0.0
  0
LINE
  5
B060
  8
0-1
  6
CONTINUOUS
 62
     3
 10
11570.730785470931
 20
6291.1885390000007
 30
0.0
 11
11570.730785470931
 21
8152.2344180000036
 31
0.0
  0
LINE
  5
B061
  8
0-1
  6
CONTINUOUS
 62
     3
 10
11690.73217147094
 20
6291.1885390000007
 30
0.0
 11
11690.73217147094
 21
8152.2344180000036
 31
0.0
  0
LINE
  5
B062
  8
0-1
  6
CONTINUOUS
 62
     3
 10
11620.732435470931
 20
6291.1885390000007
 30
0.0
 11
11620.732435470931
 21
8152.2344180000036
 31
0.0
  0
LINE
  5
B063
  8
0-1
  6
CONTINUOUS
 62
     3
 10
11640.73151147094
 20
6291.1885390000007
 30
0.0
 11
11640.73151147094
 21
8152.2344180000036
 31
0.0
  0
LINE
  5
B064
  8
0-1
  6
CONTINUOUS
 62
     3
 10
11823.73206547094
 20
6291.1885390000007
 30
0.0
 11
11823.73206547094
 21
8152.234418
 31
0.0
  0
LINE
  5
B065
  8
0-1
  6
CONTINUOUS
 62
     3
 10
11838.73087847094
 20
6291.1885390000007
 30
0.0
 11
11838.73087847094
 21
8152.234418
 31
0.0
  0
LINE
  5
B066
  8
0-1
  6
CONTINUOUS
 62
     3
 10
5556.2441129367226
 20
18718.86633431452
 30
0.0
 11
5556.2441129367198
 21
19812.485685
 31
0.0
  0
LINE
  5
B067
  8
0-1
  6
CONTINUOUS
 62
     3
 10
5593.2442849367226
 20
18703.54735850088
 30
0.0
 11
5593.2442849367226
 21
19812.485685
 31
0.0
  0
LINE
  5
B068
  8
0-1
  6
CONTINUOUS
 62
     3
 10
5756.2437839367221
 20
18636.061580791182
 30
0.0
 11
5756.2437839367221
 21
19812.485685
 31
0.0
  0
LINE
  5
B069
  8
0-1
  6
CONTINUOUS
 62
     3
 10
5793.2449449367132
 20
18620.742195507399
 30
0.0
 11
5793.2449449367132
 21
19812.485685
 31
0.0
  0
LINE
  5
B06A
  8
0-1
  6
CONTINUOUS
 62
     3
 10
5956.2434539367177
 20
18553.256827681871
 30
0.0
 11
5956.2434539367177
 21
19812.485685
 31
0.0
  0
LINE
  5
B06B
  8
0-1
  6
CONTINUOUS
 62
     3
 10
5993.2426349367233
 20
18537.938262166481
 30
0.0
 11
5993.2426349367242
 21
19812.485685
 31
0.0
  0
LINE
  5
B06C
  8
0-1
  6
CONTINUOUS
 62
     3
 10
4976.7418569366973
 20
19860.48900999999
 30
0.0
 11
12912.74280693672
 21
19860.48900999999
 31
0.0
  0
LINE
  5
B06D
  8
0-1
  6
CONTINUOUS
 62
     3
 10
4921.2420939366957
 20
19812.485685
 30
0.0
 11
12968.243558936711
 21
19812.485685
 31
0.0
  0
LINE
  5
B06E
  8
0-6
  6
CONTINUOUS
 62
     6
 10
8990.1876844272538
 20
20002.891618000001
 30
0.0
 11
8946.88571542723
 21
19977.890297999991
 31
0.0
  0
LINE
  5
B06F
  8
0-6
  6
CONTINUOUS
 62
     6
 10
8990.1876844272538
 20
20002.891618000001
 30
0.0
 11
9043.5357104272516
 21
19860.48900999999
 31
0.0
  0
LINE
  5
B070
  8
0-6
  6
CONTINUOUS
 62
     6
 10
8946.88571542723
 20
19977.890297999991
 30
0.0
 11
8990.1876844272538
 21
20002.891618000001
 31
0.0
  0
LINE
  5
B071
  8
0-6
  6
CONTINUOUS
 62
     6
 10
9043.5357104272516
 20
19860.48900999999
 30
0.0
 11
8946.88571542723
 21
19977.890297999991
 31
0.0
  0
LINE
  5
B072
  8
0-6
  6
CONTINUOUS
 62
     6
 10
9043.5357104272516
 20
19860.48900999999
 30
0.0
 11
8990.1876844272538
 21
20002.891618000001
 31
0.0
  0
LINE
  5
B073
  8
0-6
  6
CONTINUOUS
 62
     6
 10
8946.88571542723
 20
19977.890297999991
 30
0.0
 11
9043.5357104272516
 21
19860.48900999999
 31
0.0
  0
LINE
  5
B074
  8
0-6
  6
CONTINUOUS
 62
     6
 10
8968.5376894272504
 20
19990.392938000001
 30
0.0
 11
8742.9518727575614
 21
20414.062777731109
 31
0.0
  0
TEXT
  5
B075
  8
0-6
  6
CONTINUOUS
 62
     7
 10
8569.2806694272549
 20
20970.488217999999
 30
0.0
 40
160.0
  1
鼻隠し後
 72
     4
 11
8931.9473360939191
 21
21050.488217999999
 31
0.0
  0
LINE
  5
B076
  8
0-6
  6
CONTINUOUS
 62
     6
 10
8489.2784254272538
 20
20890.487954
 30
0.0
 11
9331.7179844272505
 21
20890.487954
 31
0.0
  0
LINE
  5
B077
  8
0-6
  6
CONTINUOUS
 62
     6
 10
8674.9180137050407
 20
20541.837456683399
 30
0.0
 11
8489.2784254272538
 21
20890.487954
 31
0.0
  0
LINE
  5
B078
  8
0-6
  6
CONTINUOUS
 62
     6
 10
13417.64357744548
 20
13695.244062411261
 30
0.0
 11
16058.88804435426
 21
13695.244062411261
 31
0.0
  0
TEXT
  5
B079
  8
0-6
  6
CONTINUOUS
 62
     7
 10
13489.24194579548
 20
13775.24432641127
 30
0.0
 40
160.0
  1
桁前（PU）+ 桁補強（PU）
 72
     4
 11
14737.24194579548
 21
13855.24432641127
 31
0.0
  0
LINE
  5
B07A
  8
0-6
  6
CONTINUOUS
 62
     6
 10
13417.64357744548
 20
13695.244062411261
 30
0.0
 11
11972.272146823399
 21
13269.314173049959
 31
0.0
  0
LINE
  5
B07B
  8
0-6
  6
CONTINUOUS
 62
     6
 10
11972.272146823399
 20
13269.314173049959
 30
0.0
 11
11595.329683327869
 21
13771.514157272301
 31
0.0
  0
LINE
  5
B07C
  8
0-6
  6
CONTINUOUS
 62
     6
 10
13537.978306017891
 20
16608.715221139031
 30
0.0
 11
16018.289609459191
 21
16608.715221139031
 31
0.0
  0
TEXT
  5
B07D
  8
0-6
  6
CONTINUOUS
 62
     7
 10
13630.488520003581
 20
16688.715485139041
 30
0.0
 40
160.0
  1
桁（PU）+ 桁補強（PU）
 72
     4
 11
14782.488520003581
 21
16768.715485139041
 31
0.0
  0
LINE
  5
B07E
  8
0-6
  6
CONTINUOUS
 62
     6
 10
13537.978306017891
 20
16608.715221139031
 30
0.0
 11
12092.60687539581
 21
16182.78533177773
 31
0.0
  0
LINE
  5
B07F
  8
0-6
  6
CONTINUOUS
 62
     6
 10
12092.60687539581
 20
16182.78533177773
 30
0.0
 11
11715.66441190027
 21
16684.985316000071
 31
0.0
  0
LINE
  5
B080
  8
0-6
  6
CONTINUOUS
 62
     6
 10
13537.978306017891
 20
19532.717120139041
 30
0.0
 11
16018.28960945918
 21
19532.717120139041
 31
0.0
  0
TEXT
  5
B081
  8
0-6
  6
CONTINUOUS
 62
     7
 10
13630.488520003581
 20
19612.717384139039
 30
0.0
 40
160.0
  1
桁（PU）+ 桁補強（PU）
 72
     4
 11
14782.488520003581
 21
19692.717384139039
 31
0.0
  0
LINE
  5
B082
  8
0-6
  6
CONTINUOUS
 62
     6
 10
13537.978306017891
 20
19532.717120139041
 30
0.0
 11
12092.60687539581
 21
19106.78723077774
 31
0.0
  0
LINE
  5
B083
  8
0-6
  6
CONTINUOUS
 62
     6
 10
12092.60687539581
 20
19106.78723077774
 30
0.0
 11
11715.66441190027
 21
19608.98721500007
 31
0.0
  0
TEXT
  5
B084
  8
0-6
  6
CONTINUOUS
 62
     7
 10
11699.166073105929
 20
15200.633811918049
 30
0.0
 40
160.0
  1
梁（P）前
 72
     4
 11
12141.832739772601
 21
15280.633811918049
 31
0.0
  0
LINE
  5
B085
  8
0-6
  6
CONTINUOUS
 62
     6
 10
11634.96838492389
 20
15120.634537918049
 30
0.0
 11
12649.95855424874
 21
15120.634537918049
 31
0.0
  0
LINE
  5
B086
  8
0-1
  6
CONTINUOUS
 62
     3
 10
5156.2447719367283
 20
18884.475840947151
 30
0.0
 11
5156.2447719367283
 21
19812.485685
 31
0.0
  0
LINE
  5
B087
  8
0-1
  6
CONTINUOUS
 62
     3
 10
5193.2449439367283
 20
18869.156865133518
 30
0.0
 11
5193.2449439367256
 21
19812.485685
 31
0.0
  0
LINE
  5
B088
  8
0-1
  6
CONTINUOUS
 62
     3
 10
5356.2444429367279
 20
18801.67108742382
 30
0.0
 11
5356.2444429367279
 21
19812.485685
 31
0.0
  0
LINE
  5
B089
  8
0-1
  6
CONTINUOUS
 62
     3
 10
5393.2456039367162
 20
18786.351702140011
 30
0.0
 11
5393.2456039367171
 21
19812.485685
 31
0.0
  0
LINE
  5
B08C
  8
WAKUSEN-01
 10
868.00000000000193
 20
22484.000000000011
 30
0.0
 11
32764.000000000011
 21
22484.000000000011
 31
0.0
  0
LINE
  5
B08F
  8
WAKUSEN-01
 10
20560.0
 20
2484.0
 30
0.0
 11
32764.0
 21
2484.0
 31
0.0
  0
LINE
  5
B090
  8
WAKUSEN-02
 10
20560.0
 20
1655.9999999999991
 30
0.0
 11
26868.0
 21
1655.9999999999991
 31
0.0
  0
TEXT
  5
B091
  8
WAKUMOJI-01
 10
20670.260259962761
 20
2125.9030093393221
 30
0.0
 40
240.0
  1
名　称
  7
WAKUMOJI
  0
TEXT
  5
B092
  8
WAKUMOJI-01
 10
20656.505485091919
 20
1319.12897497982
 30
0.0
 40
240.0
  1
機種名
  7
WAKUMOJI
  0
LINE
  5
B095
  8
YODOROGO
 10
29977.604341291921
 20
1995.7494964292871
 30
0.0
 11
29829.604341291921
 21
1995.7494964292871
 31
0.0
1001
AUTOCAD_POSTSCRIPT_FIGURE
1002
{
1000
PSFILL
1000
Grayscale
1000
Grayscale
1070
    25
1002
}
  0
LINE
  5
B096
  8
YODOROGO
 10
29829.604341291921
 20
1947.749496429288
 30
0.0
 11
29977.604341291921
 21
1947.749496429288
 31
0.0
1001
AUTOCAD_POSTSCRIPT_FIGURE
1002
{
1000
PSFILL
1000
Grayscale
1000
Grayscale
1070
    25
1002
}
  0
LINE
  5
B097
  8
YODOROGO
 10
29977.604341291921
 20
1907.7494964292871
 30
0.0
 11
29829.604341291921
 21
1907.7494964292871
 31
0.0
1001
AUTOCAD_POSTSCRIPT_FIGURE
1002
{
1000
PSFILL
1000
Grayscale
1000
Grayscale
1070
    25
1002
}
  0
LINE
  5
B098
  8
YODOROGO
 10
29829.604341291921
 20
1859.749496429288
 30
0.0
 11
29977.604341291921
 21
1859.749496429288
 31
0.0
1001
AUTOCAD_POSTSCRIPT_FIGURE
1002
{
1000
PSFILL
1000
Grayscale
1000
Grayscale
1070
    25
1002
}
  0
LINE
  5
B099
  8
YODOROGO
 10
29977.604341291921
 20
1819.7494964292871
 30
0.0
 11
29829.604341291921
 21
1819.7494964292871
 31
0.0
1001
AUTOCAD_POSTSCRIPT_FIGURE
1002
{
1000
PSFILL
1000
Grayscale
1000
Grayscale
1070
    25
1002
}
  0
LINE
  5
B09A
  8
YODOROGO
 10
29921.60434129191
 20
1707.749496429288
 30
0.0
 11
29977.604341291921
 21
1707.749496429288
 31
0.0
1001
AUTOCAD_POSTSCRIPT_FIGURE
1002
{
1000
PSFILL
1000
Grayscale
1000
Grayscale
1070
    25
1002
}
  0
LINE
  5
B09B
  8
YODOROGO
 10
29737.604341291921
 20
1427.749496429288
 30
0.0
 11
29937.604341291932
 21
1481.3393349155101
 31
0.0
  0
LINE
  5
B09C
  8
YODOROGO
 10
29949.60434129191
 20
1707.749496429288
 30
0.0
 11
29885.604341291921
 21
1707.749496429288
 31
0.0
  0
ARC
  5
B09D
  8
YODOROGO
 10
30254.34774982791
 20
1807.864609233261
 30
0.0
 40
381.88686420564721
 50
213.96111677667841
 51
264.47872074317792
  0
ARC
  5
B09E
  8
YODOROGO
 10
30254.347749827921
 20
1807.864609233302
 30
0.0
 40
381.8868642056816
 50
208.14114420486601
 51
212.9210361185994
  0
LINE
  5
B09F
  8
YODOROGO
 10
29771.409872985321
 20
1556.807661346234
 30
0.0
 11
29933.78413250855
 21
1600.3157130570869
 31
0.0
  0
LINE
  5
B0A0
  8
YODOROGO
 10
29737.604341291921
 20
1427.749496429288
 30
0.0
 11
29937.604341291932
 21
1481.3393349155101
 31
0.0
  0
LINE
  5
B0A1
  8
YODOROGO
 10
29949.60434129191
 20
1707.749496429288
 30
0.0
 11
29885.604341291921
 21
1707.749496429288
 31
0.0
  0
ARC
  5
B0A2
  8
YODOROGO
 10
30254.34774982791
 20
1807.864609233261
 30
0.0
 40
381.88686420564721
 50
213.96111677667841
 51
264.47872074317792
  0
LINE
  5
B0A3
  8
YODOROGO
 10
28793.60434129191
 20
1819.7494964292871
 30
0.0
 11
28433.60434129191
 21
1819.7494964292871
 31
0.0
  0
LINE
  5
B0A4
  8
YODOROGO
 10
28513.60434129191
 20
1427.749496429288
 30
0.0
 11
28793.60434129191
 21
1427.749496429288
 31
0.0
  0
LINE
  5
B0A5
  8
YODOROGO
 10
28729.604341291921
 20
1923.7494964292871
 30
0.0
 11
28497.60434129191
 21
1923.7494964292871
 31
0.0
  0
LINE
  5
B0A6
  8
YODOROGO
 10
28585.604341291921
 20
2027.749496429288
 30
0.0
 11
28657.604341291921
 21
2027.749496429288
 31
0.0
  0
LINE
  5
B0A7
  8
YODOROGO
 10
28433.60434129191
 20
1707.749496429288
 30
0.0
 11
28433.60434129191
 21
1507.749496429288
 31
0.0
  0
LINE
  5
B0A8
  8
YODOROGO
 10
28497.60434129191
 20
1563.7494964292871
 30
0.0
 11
28497.60434129191
 21
1707.749496429288
 31
0.0
  0
LINE
  5
B0A9
  8
YODOROGO
 10
28585.604341291921
 20
1747.74949642929
 30
0.0
 11
28585.604341291921
 21
1547.749496429288
 31
0.0
  0
LINE
  5
B0AA
  8
YODOROGO
 10
27857.604341291921
 20
1683.749496429288
 30
0.0
 11
27777.604341291921
 21
1619.9724140445701
 31
0.0
  0
LINE
  5
B0AB
  8
YODOROGO
 10
27937.604341291921
 20
1619.9724140445701
 30
0.0
 11
27857.604341291921
 21
1683.749496429288
 31
0.0
  0
LINE
  5
B0AC
  8
YODOROGO
 10
27857.604341291921
 20
1707.749496429288
 30
0.0
 11
27937.604341291921
 21
1643.9724140445701
 31
0.0
  0
LINE
  5
B0AD
  8
YODOROGO
 10
27777.604341291921
 20
1643.9724140445701
 30
0.0
 11
27857.604341291921
 21
1707.749496429288
 31
0.0
  0
LINE
  5
B0AE
  8
YODOROGO
 10
28040.913204016892
 20
1659.749496429288
 30
0.0
 11
28040.913204016892
 21
1683.7494964292871
 31
0.0
  0
LINE
  5
B0AF
  8
YODOROGO
 10
27977.604341291921
 20
1683.7494964292871
 30
0.0
 11
27977.604341291921
 21
1667.749496429285
 31
0.0
  0
LINE
  5
B0B0
  8
YODOROGO
 10
28098.135520230931
 20
1707.749496429288
 30
0.0
 11
28098.135520230931
 21
1655.5036372746561
 31
0.0
1001
AUTOCAD_POSTSCRIPT_FIGURE
1002
{
1000
PSFILL
1000
Grayscale
1000
Grayscale
1070
   100
1002
}
  0
LINE
  5
B0B1
  8
YODOROGO
 10
28082.135520230921
 20
1655.5036372746561
 30
0.0
 11
28082.135520230921
 21
1707.749496429288
 31
0.0
1001
AUTOCAD_POSTSCRIPT_FIGURE
1002
{
1000
PSFILL
1000
Grayscale
1000
Grayscale
1070
   100
1002
}
  0
LINE
  5
B0B2
  8
YODOROGO
 10
27809.604341291921
 20
1608.771904043258
 30
0.0
 11
27809.604341291921
 21
1632.771904043258
 31
0.0
  0
LINE
  5
B0B3
  8
YODOROGO
 10
27905.604341291921
 20
1608.771904043258
 30
0.0
 11
27809.604341291921
 21
1608.771904043258
 31
0.0
  0
LINE
  5
B0B4
  8
YODOROGO
 10
27905.604341291921
 20
1632.771904043258
 30
0.0
 11
27905.604341291921
 21
1608.771904043258
 31
0.0
  0
LINE
  5
B0B5
  8
YODOROGO
 10
27809.604341291921
 20
1632.771904043258
 30
0.0
 11
27905.604341291921
 21
1632.771904043258
 31
0.0
  0
LINE
  5
B0B6
  8
YODOROGO
 10
27824.509588915738
 20
1568.5028573704751
 30
0.0
 11
27785.604341291921
 21
1475.7494964292871
 31
0.0
1001
AUTOCAD_POSTSCRIPT_FIGURE
1002
{
1000
PSFILL
1000
Grayscale
1000
Grayscale
1070
   100
1002
}
  0
LINE
  5
B0B7
  8
YODOROGO
 10
27777.604341291921
 20
1568.5028573704751
 30
0.0
 11
27824.509588915738
 21
1568.5028573704751
 31
0.0
1001
AUTOCAD_POSTSCRIPT_FIGURE
1002
{
1000
PSFILL
1000
Grayscale
1000
Grayscale
1070
   100
1002
}
  0
LINE
  5
B0B8
  8
YODOROGO
 10
27777.604341291921
 20
1588.5028573704751
 30
0.0
 11
27777.604341291921
 21
1568.5028573704751
 31
0.0
1001
AUTOCAD_POSTSCRIPT_FIGURE
1002
{
1000
PSFILL
1000
Grayscale
1000
Grayscale
1070
   100
1002
}
  0
LINE
  5
B0B9
  8
YODOROGO
 10
27937.604341291921
 20
1588.5028573704751
 30
0.0
 11
27777.604341291921
 21
1588.5028573704751
 31
0.0
1001
AUTOCAD_POSTSCRIPT_FIGURE
1002
{
1000
PSFILL
1000
Grayscale
1000
Grayscale
1070
   100
1002
}
  0
LINE
  5
B0BA
  8
YODOROGO
 10
27937.604341291921
 20
1568.5028573704751
 30
0.0
 11
27937.604341291921
 21
1588.5028573704751
 31
0.0
1001
AUTOCAD_POSTSCRIPT_FIGURE
1002
{
1000
PSFILL
1000
Grayscale
1000
Grayscale
1070
   100
1002
}
  0
LINE
  5
B0BB
  8
YODOROGO
 10
27844.509588915738
 20
1568.5028573704751
 30
0.0
 11
27937.604341291921
 21
1568.5028573704751
 31
0.0
1001
AUTOCAD_POSTSCRIPT_FIGURE
1002
{
1000
PSFILL
1000
Grayscale
1000
Grayscale
1070
   100
1002
}
  0
LINE
  5
B0BC
  8
YODOROGO
 10
27815.546718284771
 20
1495.7494964292871
 30
0.0
 11
27844.509588915738
 21
1568.5028573704751
 31
0.0
1001
AUTOCAD_POSTSCRIPT_FIGURE
1002
{
1000
PSFILL
1000
Grayscale
1000
Grayscale
1070
   100
1002
}
  0
LINE
  5
B0BD
  8
YODOROGO
 10
27902.054790808648
 20
1495.7494964292871
 30
0.0
 11
27815.546718284771
 21
1495.7494964292871
 31
0.0
1001
AUTOCAD_POSTSCRIPT_FIGURE
1002
{
1000
PSFILL
1000
Grayscale
1000
Grayscale
1070
   100
1002
}
  0
LINE
  5
B0BE
  8
YODOROGO
 10
27885.065004790951
 20
1536.2338106976929
 30
0.0
 11
27902.054790808648
 21
1495.7494964292871
 31
0.0
1001
AUTOCAD_POSTSCRIPT_FIGURE
1002
{
1000
PSFILL
1000
Grayscale
1000
Grayscale
1070
   100
1002
}
  0
LINE
  5
B0BF
  8
YODOROGO
 10
27901.065004790951
 20
1536.2338106976929
 30
0.0
 11
27885.065004790951
 21
1536.2338106976929
 31
0.0
1001
AUTOCAD_POSTSCRIPT_FIGURE
1002
{
1000
PSFILL
1000
Grayscale
1000
Grayscale
1070
   100
1002
}
  0
LINE
  5
B0C0
  8
YODOROGO
 10
27929.604341291921
 20
1475.7494964292871
 30
0.0
 11
27901.065004790951
 21
1536.2338106976929
 31
0.0
1001
AUTOCAD_POSTSCRIPT_FIGURE
1002
{
1000
PSFILL
1000
Grayscale
1000
Grayscale
1070
   100
1002
}
  0
LINE
  5
B0C1
  8
YODOROGO
 10
27785.604341291921
 20
1475.7494964292871
 30
0.0
 11
27929.604341291921
 21
1475.7494964292871
 31
0.0
1001
AUTOCAD_POSTSCRIPT_FIGURE
1002
{
1000
PSFILL
1000
Grayscale
1000
Grayscale
1070
   100
1002
}
  0
LINE
  5
B0C2
  8
YODOROGO
 10
27777.604341291921
 20
1619.9724140445701
 30
0.0
 11
27777.604341291921
 21
1643.9724140445701
 31
0.0
  0
LINE
  5
B0C3
  8
YODOROGO
 10
27937.604341291921
 20
1643.9724140445701
 30
0.0
 11
27937.604341291921
 21
1619.9724140445701
 31
0.0
  0
ARC
  5
B0C4
  8
YODOROGO
 10
28225.940442146959
 20
1600.877765325326
 30
0.0
 40
175.9999999999998
 50
280.3644312771313
 51
3.5414836592180561
  0
ARC
  5
B0C5
  8
YODOROGO
 10
28235.756030759301
 20
1633.5978069619041
 30
0.0
 40
111.9999999999982
 50
281.24905825041549
 51
348.75094174958321
  0
LINE
  5
B0C6
  8
YODOROGO
 10
28257.604341291921
 20
1523.7494964292871
 30
0.0
 11
28257.604341291921
 21
1427.749496429288
 31
0.0
  0
LINE
  5
B0C7
  8
YODOROGO
 10
28020.088903736909
 20
1610.650565061914
 30
0.0
 11
28040.913204016892
 21
1659.749496429288
 31
0.0
  0
LINE
  5
B0C8
  8
YODOROGO
 10
28041.604341291921
 20
1583.120489948401
 30
0.0
 11
28020.088903736909
 21
1610.650565061914
 31
0.0
  0
LINE
  5
B0C9
  8
YODOROGO
 10
28041.604341291921
 20
1563.120489948398
 30
0.0
 11
28041.604341291921
 21
1583.120489948401
 31
0.0
  0
LINE
  5
B0CA
  8
YODOROGO
 10
28017.604341291921
 20
1585.2370637495301
 30
0.0
 11
28041.604341291921
 21
1563.120489948398
 31
0.0
  0
LINE
  5
B0CB
  8
YODOROGO
 10
28017.604341291921
 20
1475.7494964292871
 30
0.0
 11
28017.604341291921
 21
1585.2370637495301
 31
0.0
  0
LINE
  5
B0CC
  8
YODOROGO
 10
28001.604341291921
 20
1475.7494964292871
 30
0.0
 11
28017.604341291921
 21
1475.7494964292871
 31
0.0
  0
LINE
  5
B0CD
  8
YODOROGO
 10
28001.604341291921
 20
1580.0053496897469
 30
0.0
 11
28001.604341291921
 21
1475.7494964292871
 31
0.0
  0
LINE
  5
B0CE
  8
YODOROGO
 10
27977.604341291921
 20
1532.7680790334291
 30
0.0
 11
28001.604341291921
 21
1580.0053496897469
 31
0.0
  0
LINE
  5
B0CF
  8
YODOROGO
 10
27977.604341291921
 20
1556.76807903343
 30
0.0
 11
27977.604341291921
 21
1532.7680790334291
 31
0.0
  0
LINE
  5
B0D0
  8
YODOROGO
 10
28025.828774291349
 20
1667.749496429285
 30
0.0
 11
27977.604341291921
 21
1556.76807903343
 31
0.0
  0
LINE
  5
B0D1
  8
YODOROGO
 10
27977.604341291921
 20
1667.749496429285
 30
0.0
 11
28025.828774291349
 21
1667.749496429285
 31
0.0
  0
LINE
  5
B0D2
  8
YODOROGO
 10
28050.135520230899
 20
1655.5036372746561
 30
0.0
 11
28082.135520230921
 21
1655.5036372746561
 31
0.0
1001
AUTOCAD_POSTSCRIPT_FIGURE
1002
{
1000
PSFILL
1000
Grayscale
1000
Grayscale
1070
   100
1002
}
  0
LINE
  5
B0D3
  8
YODOROGO
 10
28050.135520230899
 20
1631.5036372746561
 30
0.0
 11
28050.135520230899
 21
1655.5036372746561
 31
0.0
1001
AUTOCAD_POSTSCRIPT_FIGURE
1002
{
1000
PSFILL
1000
Grayscale
1000
Grayscale
1070
   100
1002
}
  0
LINE
  5
B0D4
  8
YODOROGO
 10
28082.135520230921
 20
1631.5036372746561
 30
0.0
 11
28050.135520230899
 21
1631.5036372746561
 31
0.0
1001
AUTOCAD_POSTSCRIPT_FIGURE
1002
{
1000
PSFILL
1000
Grayscale
1000
Grayscale
1070
   100
1002
}
  0
LINE
  5
B0D5
  8
YODOROGO
 10
28082.135520230921
 20
1499.749496429288
 30
0.0
 11
28082.135520230921
 21
1631.5036372746561
 31
0.0
1001
AUTOCAD_POSTSCRIPT_FIGURE
1002
{
1000
PSFILL
1000
Grayscale
1000
Grayscale
1070
   100
1002
}
  0
LINE
  5
B0D6
  8
YODOROGO
 10
28050.135520230921
 20
1499.749496429288
 30
0.0
 11
28082.135520230921
 21
1499.749496429288
 31
0.0
1001
AUTOCAD_POSTSCRIPT_FIGURE
1002
{
1000
PSFILL
1000
Grayscale
1000
Grayscale
1070
   100
1002
}
  0
LINE
  5
B0D7
  8
YODOROGO
 10
28050.135520230921
 20
1475.7494964292871
 30
0.0
 11
28050.135520230921
 21
1499.749496429288
 31
0.0
1001
AUTOCAD_POSTSCRIPT_FIGURE
1002
{
1000
PSFILL
1000
Grayscale
1000
Grayscale
1070
   100
1002
}
  0
LINE
  5
B0D8
  8
YODOROGO
 10
28137.604341291921
 20
1475.7494964292871
 30
0.0
 11
28050.135520230921
 21
1475.7494964292871
 31
0.0
1001
AUTOCAD_POSTSCRIPT_FIGURE
1002
{
1000
PSFILL
1000
Grayscale
1000
Grayscale
1070
   100
1002
}
  0
LINE
  5
B0D9
  8
YODOROGO
 10
28137.604341291921
 20
1499.749496429288
 30
0.0
 11
28137.604341291921
 21
1475.7494964292871
 31
0.0
1001
AUTOCAD_POSTSCRIPT_FIGURE
1002
{
1000
PSFILL
1000
Grayscale
1000
Grayscale
1070
   100
1002
}
  0
LINE
  5
B0DA
  8
YODOROGO
 10
28098.135520230931
 20
1499.749496429288
 30
0.0
 11
28137.604341291921
 21
1499.749496429288
 31
0.0
1001
AUTOCAD_POSTSCRIPT_FIGURE
1002
{
1000
PSFILL
1000
Grayscale
1000
Grayscale
1070
   100
1002
}
  0
LINE
  5
B0DB
  8
YODOROGO
 10
28098.135520230931
 20
1631.5036372746561
 30
0.0
 11
28098.135520230931
 21
1499.749496429288
 31
0.0
1001
AUTOCAD_POSTSCRIPT_FIGURE
1002
{
1000
PSFILL
1000
Grayscale
1000
Grayscale
1070
   100
1002
}
  0
LINE
  5
B0DC
  8
YODOROGO
 10
28137.604341291921
 20
1631.5036372746561
 30
0.0
 11
28098.135520230931
 21
1631.5036372746561
 31
0.0
1001
AUTOCAD_POSTSCRIPT_FIGURE
1002
{
1000
PSFILL
1000
Grayscale
1000
Grayscale
1070
   100
1002
}
  0
LINE
  5
B0DD
  8
YODOROGO
 10
28137.604341291921
 20
1655.5036372746561
 30
0.0
 11
28137.604341291921
 21
1631.5036372746561
 31
0.0
1001
AUTOCAD_POSTSCRIPT_FIGURE
1002
{
1000
PSFILL
1000
Grayscale
1000
Grayscale
1070
   100
1002
}
  0
LINE
  5
B0DE
  8
YODOROGO
 10
28098.135520230931
 20
1655.5036372746561
 30
0.0
 11
28137.604341291921
 21
1655.5036372746561
 31
0.0
1001
AUTOCAD_POSTSCRIPT_FIGURE
1002
{
1000
PSFILL
1000
Grayscale
1000
Grayscale
1070
   100
1002
}
  0
LINE
  5
B0DF
  8
YODOROGO
 10
28401.60434129191
 20
1667.749496429288
 30
0.0
 11
28345.604341291921
 21
1667.749496429288
 31
0.0
  0
LINE
  5
B0E0
  8
YODOROGO
 10
28401.60434129191
 20
1611.749496429288
 30
0.0
 11
28401.60434129191
 21
1667.749496429288
 31
0.0
  0
LINE
  5
B0E1
  8
YODOROGO
 10
28345.604341291921
 20
1667.749496429288
 30
0.0
 11
28345.604341291921
 21
1611.749496429288
 31
0.0
  0
ARC
  5
B0E2
  8
YODOROGO
 10
28513.60434129191
 20
1507.749496429288
 30
0.0
 40
80.0
 50
180.0
 51
270.0
  0
ARC
  5
B0E3
  8
YODOROGO
 10
28537.604341291921
 20
1563.7494964292871
 30
0.0
 40
40.0
 50
180.0
 51
270.0
  0
LINE
  5
B0E4
  8
YODOROGO
 10
28561.604341291932
 20
1523.7494964292871
 30
0.0
 11
28537.604341291921
 21
1523.7494964292871
 31
0.0
  0
ARC
  5
B0E5
  8
YODOROGO
 10
28561.604341291932
 20
1547.749496429285
 30
0.0
 40
23.999999999996358
 50
270.0
 51
0.0000000000054281
  0
LINE
  5
B0E6
  8
YODOROGO
 10
27801.604341291921
 20
1890.786580793706
 30
0.0
 11
27777.604341291921
 21
1843.776747951672
 31
0.0
1001
AUTOCAD_POSTSCRIPT_FIGURE
1002
{
1000
PSFILL
1000
Grayscale
1000
Grayscale
1070
   100
1002
}
  0
LINE
  5
B0E7
  8
YODOROGO
 10
27801.604341291921
 20
1747.749496429286
 30
0.0
 11
27801.604341291921
 21
1890.786580793706
 31
0.0
1001
AUTOCAD_POSTSCRIPT_FIGURE
1002
{
1000
PSFILL
1000
Grayscale
1000
Grayscale
1070
   100
1002
}
  0
LINE
  5
B0E8
  8
YODOROGO
 10
27817.604341291921
 20
1747.749496429286
 30
0.0
 11
27801.604341291921
 21
1747.749496429286
 31
0.0
1001
AUTOCAD_POSTSCRIPT_FIGURE
1002
{
1000
PSFILL
1000
Grayscale
1000
Grayscale
1070
   100
1002
}
  0
LINE
  5
B0E9
  8
YODOROGO
 10
27817.604341291921
 20
1893.7713320852661
 30
0.0
 11
27817.604341291921
 21
1747.749496429286
 31
0.0
1001
AUTOCAD_POSTSCRIPT_FIGURE
1002
{
1000
PSFILL
1000
Grayscale
1000
Grayscale
1070
   100
1002
}
  0
LINE
  5
B0EA
  8
YODOROGO
 10
27841.604341291921
 20
1867.6547582841361
 30
0.0
 11
27817.604341291921
 21
1893.7713320852661
 31
0.0
1001
AUTOCAD_POSTSCRIPT_FIGURE
1002
{
1000
PSFILL
1000
Grayscale
1000
Grayscale
1070
   100
1002
}
  0
LINE
  5
B0EB
  8
YODOROGO
 10
27841.604341291921
 20
1883.6547582841361
 30
0.0
 11
27841.604341291921
 21
1867.6547582841361
 31
0.0
1001
AUTOCAD_POSTSCRIPT_FIGURE
1002
{
1000
PSFILL
1000
Grayscale
1000
Grayscale
1070
   100
1002
}
  0
LINE
  5
B0EC
  8
YODOROGO
 10
27817.604341291921
 20
1917.7713320852649
 30
0.0
 11
27841.604341291921
 21
1883.6547582841361
 31
0.0
1001
AUTOCAD_POSTSCRIPT_FIGURE
1002
{
1000
PSFILL
1000
Grayscale
1000
Grayscale
1070
   100
1002
}
  0
LINE
  5
B0ED
  8
YODOROGO
 10
27817.604341291921
 20
1939.749496429288
 30
0.0
 11
27817.604341291921
 21
1917.7713320852649
 31
0.0
1001
AUTOCAD_POSTSCRIPT_FIGURE
1002
{
1000
PSFILL
1000
Grayscale
1000
Grayscale
1070
   100
1002
}
  0
LINE
  5
B0EE
  8
YODOROGO
 10
27889.604341291921
 20
1939.749496429288
 30
0.0
 11
27817.604341291921
 21
1939.749496429288
 31
0.0
1001
AUTOCAD_POSTSCRIPT_FIGURE
1002
{
1000
PSFILL
1000
Grayscale
1000
Grayscale
1070
   100
1002
}
  0
LINE
  5
B0EF
  8
YODOROGO
 10
27889.604341291921
 20
1900.5683489363
 30
0.0
 11
27889.604341291921
 21
1939.749496429288
 31
0.0
1001
AUTOCAD_POSTSCRIPT_FIGURE
1002
{
1000
PSFILL
1000
Grayscale
1000
Grayscale
1070
   100
1002
}
  0
LINE
  5
B0F0
  8
YODOROGO
 10
27857.604341291921
 20
1900.5683489363
 30
0.0
 11
27889.604341291921
 21
1900.5683489363
 31
0.0
1001
AUTOCAD_POSTSCRIPT_FIGURE
1002
{
1000
PSFILL
1000
Grayscale
1000
Grayscale
1070
   100
1002
}
  0
LINE
  5
B0F1
  8
YODOROGO
 10
27857.604341291921
 20
1884.568348936298
 30
0.0
 11
27857.604341291921
 21
1900.5683489363
 31
0.0
1001
AUTOCAD_POSTSCRIPT_FIGURE
1002
{
1000
PSFILL
1000
Grayscale
1000
Grayscale
1070
   100
1002
}
  0
LINE
  5
B0F2
  8
YODOROGO
 10
27889.604341291921
 20
1884.568348936298
 30
0.0
 11
27857.604341291921
 21
1884.568348936298
 31
0.0
1001
AUTOCAD_POSTSCRIPT_FIGURE
1002
{
1000
PSFILL
1000
Grayscale
1000
Grayscale
1070
   100
1002
}
  0
LINE
  5
B0F3
  8
YODOROGO
 10
27889.604341291921
 20
1879.6191779644371
 30
0.0
 11
27889.604341291921
 21
1884.568348936298
 31
0.0
1001
AUTOCAD_POSTSCRIPT_FIGURE
1002
{
1000
PSFILL
1000
Grayscale
1000
Grayscale
1070
   100
1002
}
  0
LINE
  5
B0F4
  8
YODOROGO
 10
27849.604341291921
 20
1812.974981161417
 30
0.0
 11
27889.604341291921
 21
1879.6191779644371
 31
0.0
1001
AUTOCAD_POSTSCRIPT_FIGURE
1002
{
1000
PSFILL
1000
Grayscale
1000
Grayscale
1070
   100
1002
}
  0
LINE
  5
B0F5
  8
YODOROGO
 10
27849.604341291921
 20
1796.9749811614161
 30
0.0
 11
27849.604341291921
 21
1812.974981161417
 31
0.0
1001
AUTOCAD_POSTSCRIPT_FIGURE
1002
{
1000
PSFILL
1000
Grayscale
1000
Grayscale
1070
   100
1002
}
  0
LINE
  5
B0F6
  8
YODOROGO
 10
27889.604341291921
 20
1847.6191779644359
 30
0.0
 11
27849.604341291921
 21
1796.9749811614161
 31
0.0
1001
AUTOCAD_POSTSCRIPT_FIGURE
1002
{
1000
PSFILL
1000
Grayscale
1000
Grayscale
1070
   100
1002
}
  0
LINE
  5
B0F7
  8
YODOROGO
 10
27889.604341291921
 20
1747.749496429286
 30
0.0
 11
27889.604341291921
 21
1847.6191779644359
 31
0.0
1001
AUTOCAD_POSTSCRIPT_FIGURE
1002
{
1000
PSFILL
1000
Grayscale
1000
Grayscale
1070
   100
1002
}
  0
LINE
  5
B0F8
  8
YODOROGO
 10
27905.604341291921
 20
1747.749496429286
 30
0.0
 11
27889.604341291921
 21
1747.749496429286
 31
0.0
1001
AUTOCAD_POSTSCRIPT_FIGURE
1002
{
1000
PSFILL
1000
Grayscale
1000
Grayscale
1070
   100
1002
}
  0
LINE
  5
B0F9
  8
YODOROGO
 10
27905.604341291921
 20
1849.409012158806
 30
0.0
 11
27905.604341291921
 21
1747.749496429286
 31
0.0
1001
AUTOCAD_POSTSCRIPT_FIGURE
1002
{
1000
PSFILL
1000
Grayscale
1000
Grayscale
1070
   100
1002
}
  0
LINE
  5
B0FA
  8
YODOROGO
 10
27937.604341291921
 20
1796.9749811614161
 30
0.0
 11
27905.604341291921
 21
1849.409012158806
 31
0.0
1001
AUTOCAD_POSTSCRIPT_FIGURE
1002
{
1000
PSFILL
1000
Grayscale
1000
Grayscale
1070
   100
1002
}
  0
LINE
  5
B0FB
  8
YODOROGO
 10
27937.604341291921
 20
1812.974981161417
 30
0.0
 11
27937.604341291921
 21
1796.9749811614161
 31
0.0
1001
AUTOCAD_POSTSCRIPT_FIGURE
1002
{
1000
PSFILL
1000
Grayscale
1000
Grayscale
1070
   100
1002
}
  0
LINE
  5
B0FC
  8
YODOROGO
 10
27905.604341291921
 20
1881.4090121588081
 30
0.0
 11
27937.604341291921
 21
1812.974981161417
 31
0.0
1001
AUTOCAD_POSTSCRIPT_FIGURE
1002
{
1000
PSFILL
1000
Grayscale
1000
Grayscale
1070
   100
1002
}
  0
LINE
  5
B0FD
  8
YODOROGO
 10
27905.604341291921
 20
1884.5683489363
 30
0.0
 11
27905.604341291921
 21
1881.4090121588081
 31
0.0
1001
AUTOCAD_POSTSCRIPT_FIGURE
1002
{
1000
PSFILL
1000
Grayscale
1000
Grayscale
1070
   100
1002
}
  0
LINE
  5
B0FE
  8
YODOROGO
 10
27937.604341291921
 20
1884.568348936298
 30
0.0
 11
27905.604341291921
 21
1884.5683489363
 31
0.0
1001
AUTOCAD_POSTSCRIPT_FIGURE
1002
{
1000
PSFILL
1000
Grayscale
1000
Grayscale
1070
   100
1002
}
  0
LINE
  5
B0FF
  8
YODOROGO
 10
27937.604341291921
 20
1900.5683489363
 30
0.0
 11
27937.604341291921
 21
1884.568348936298
 31
0.0
1001
AUTOCAD_POSTSCRIPT_FIGURE
1002
{
1000
PSFILL
1000
Grayscale
1000
Grayscale
1070
   100
1002
}
  0
LINE
  5
B100
  8
YODOROGO
 10
27905.604341291921
 20
1900.5683489363
 30
0.0
 11
27937.604341291921
 21
1900.5683489363
 31
0.0
1001
AUTOCAD_POSTSCRIPT_FIGURE
1002
{
1000
PSFILL
1000
Grayscale
1000
Grayscale
1070
   100
1002
}
  0
LINE
  5
B101
  8
YODOROGO
 10
27905.604341291921
 20
1939.749496429288
 30
0.0
 11
27905.604341291921
 21
1900.5683489363
 31
0.0
1001
AUTOCAD_POSTSCRIPT_FIGURE
1002
{
1000
PSFILL
1000
Grayscale
1000
Grayscale
1070
   100
1002
}
  0
LINE
  5
B102
  8
YODOROGO
 10
27937.604341291921
 20
1939.749496429288
 30
0.0
 11
27905.604341291921
 21
1939.749496429288
 31
0.0
1001
AUTOCAD_POSTSCRIPT_FIGURE
1002
{
1000
PSFILL
1000
Grayscale
1000
Grayscale
1070
   100
1002
}
  0
LINE
  5
B103
  8
YODOROGO
 10
27937.604341291921
 20
1955.7494964292871
 30
0.0
 11
27937.604341291921
 21
1939.749496429288
 31
0.0
1001
AUTOCAD_POSTSCRIPT_FIGURE
1002
{
1000
PSFILL
1000
Grayscale
1000
Grayscale
1070
   100
1002
}
  0
LINE
  5
B104
  8
YODOROGO
 10
27905.604341291921
 20
1955.7494964292871
 30
0.0
 11
27937.604341291921
 21
1955.7494964292871
 31
0.0
1001
AUTOCAD_POSTSCRIPT_FIGURE
1002
{
1000
PSFILL
1000
Grayscale
1000
Grayscale
1070
   100
1002
}
  0
LINE
  5
B105
  8
YODOROGO
 10
27905.604341291921
 20
1979.749496429288
 30
0.0
 11
27905.604341291921
 21
1955.7494964292871
 31
0.0
1001
AUTOCAD_POSTSCRIPT_FIGURE
1002
{
1000
PSFILL
1000
Grayscale
1000
Grayscale
1070
   100
1002
}
  0
LINE
  5
B106
  8
YODOROGO
 10
27889.604341291921
 20
1979.749496429288
 30
0.0
 11
27905.604341291921
 21
1979.749496429288
 31
0.0
1001
AUTOCAD_POSTSCRIPT_FIGURE
1002
{
1000
PSFILL
1000
Grayscale
1000
Grayscale
1070
   100
1002
}
  0
LINE
  5
B107
  8
YODOROGO
 10
27889.604341291921
 20
1955.7494964292871
 30
0.0
 11
27889.604341291921
 21
1979.749496429288
 31
0.0
1001
AUTOCAD_POSTSCRIPT_FIGURE
1002
{
1000
PSFILL
1000
Grayscale
1000
Grayscale
1070
   100
1002
}
  0
LINE
  5
B108
  8
YODOROGO
 10
27865.604341291921
 20
1955.7494964292871
 30
0.0
 11
27889.604341291921
 21
1955.7494964292871
 31
0.0
1001
AUTOCAD_POSTSCRIPT_FIGURE
1002
{
1000
PSFILL
1000
Grayscale
1000
Grayscale
1070
   100
1002
}
  0
LINE
  5
B109
  8
YODOROGO
 10
27865.604341291921
 20
1979.749496429288
 30
0.0
 11
27865.604341291921
 21
1955.7494964292871
 31
0.0
1001
AUTOCAD_POSTSCRIPT_FIGURE
1002
{
1000
PSFILL
1000
Grayscale
1000
Grayscale
1070
   100
1002
}
  0
LINE
  5
B10A
  8
YODOROGO
 10
27849.604341291921
 20
1979.749496429288
 30
0.0
 11
27865.604341291921
 21
1979.749496429288
 31
0.0
1001
AUTOCAD_POSTSCRIPT_FIGURE
1002
{
1000
PSFILL
1000
Grayscale
1000
Grayscale
1070
   100
1002
}
  0
LINE
  5
B10B
  8
YODOROGO
 10
27849.604341291921
 20
1955.7494964292871
 30
0.0
 11
27849.604341291921
 21
1979.749496429288
 31
0.0
1001
AUTOCAD_POSTSCRIPT_FIGURE
1002
{
1000
PSFILL
1000
Grayscale
1000
Grayscale
1070
   100
1002
}
  0
LINE
  5
B10C
  8
YODOROGO
 10
27817.604341291921
 20
1955.7494964292871
 30
0.0
 11
27849.604341291921
 21
1955.7494964292871
 31
0.0
1001
AUTOCAD_POSTSCRIPT_FIGURE
1002
{
1000
PSFILL
1000
Grayscale
1000
Grayscale
1070
   100
1002
}
  0
LINE
  5
B10D
  8
YODOROGO
 10
27817.604341291921
 20
1979.749496429288
 30
0.0
 11
27817.604341291921
 21
1955.7494964292871
 31
0.0
1001
AUTOCAD_POSTSCRIPT_FIGURE
1002
{
1000
PSFILL
1000
Grayscale
1000
Grayscale
1070
   100
1002
}
  0
LINE
  5
B10E
  8
YODOROGO
 10
27801.604341291921
 20
1979.749496429288
 30
0.0
 11
27817.604341291921
 21
1979.749496429288
 31
0.0
1001
AUTOCAD_POSTSCRIPT_FIGURE
1002
{
1000
PSFILL
1000
Grayscale
1000
Grayscale
1070
   100
1002
}
  0
LINE
  5
B10F
  8
YODOROGO
 10
27801.604341291921
 20
1955.7494964292871
 30
0.0
 11
27801.604341291921
 21
1979.749496429288
 31
0.0
1001
AUTOCAD_POSTSCRIPT_FIGURE
1002
{
1000
PSFILL
1000
Grayscale
1000
Grayscale
1070
   100
1002
}
  0
LINE
  5
B110
  8
YODOROGO
 10
27777.604341291921
 20
1955.7494964292871
 30
0.0
 11
27801.604341291921
 21
1955.7494964292871
 31
0.0
1001
AUTOCAD_POSTSCRIPT_FIGURE
1002
{
1000
PSFILL
1000
Grayscale
1000
Grayscale
1070
   100
1002
}
  0
LINE
  5
B111
  8
YODOROGO
 10
27777.604341291921
 20
1939.749496429288
 30
0.0
 11
27777.604341291921
 21
1955.7494964292871
 31
0.0
1001
AUTOCAD_POSTSCRIPT_FIGURE
1002
{
1000
PSFILL
1000
Grayscale
1000
Grayscale
1070
   100
1002
}
  0
LINE
  5
B112
  8
YODOROGO
 10
27801.604341291921
 20
1939.749496429288
 30
0.0
 11
27777.604341291921
 21
1939.749496429288
 31
0.0
1001
AUTOCAD_POSTSCRIPT_FIGURE
1002
{
1000
PSFILL
1000
Grayscale
1000
Grayscale
1070
   100
1002
}
  0
LINE
  5
B113
  8
YODOROGO
 10
27801.604341291921
 20
1914.7865807937051
 30
0.0
 11
27801.604341291921
 21
1939.749496429288
 31
0.0
1001
AUTOCAD_POSTSCRIPT_FIGURE
1002
{
1000
PSFILL
1000
Grayscale
1000
Grayscale
1070
   100
1002
}
  0
LINE
  5
B114
  8
YODOROGO
 10
27777.604341291921
 20
1859.776747951671
 30
0.0
 11
27801.604341291921
 21
1914.7865807937051
 31
0.0
1001
AUTOCAD_POSTSCRIPT_FIGURE
1002
{
1000
PSFILL
1000
Grayscale
1000
Grayscale
1070
   100
1002
}
  0
LINE
  5
B115
  8
YODOROGO
 10
27777.604341291921
 20
1843.776747951672
 30
0.0
 11
27777.604341291921
 21
1859.776747951671
 31
0.0
1001
AUTOCAD_POSTSCRIPT_FIGURE
1002
{
1000
PSFILL
1000
Grayscale
1000
Grayscale
1070
   100
1002
}
  0
LINE
  5
B116
  8
YODOROGO
 10
28257.604341291921
 20
1867.7494964292871
 30
0.0
 11
28401.60434129191
 21
1824.877625640306
 31
0.0
1001
AUTOCAD_POSTSCRIPT_FIGURE
1002
{
1000
PSFILL
1000
Grayscale
1000
Grayscale
1070
   100
1002
}
  0
LINE
  5
B117
  8
YODOROGO
 10
28401.60434129191
 20
1752.877625640306
 30
0.0
 11
28257.604341291921
 21
1795.7494964292871
 31
0.0
1001
AUTOCAD_POSTSCRIPT_FIGURE
1002
{
1000
PSFILL
1000
Grayscale
1000
Grayscale
1070
   100
1002
}
  0
LINE
  5
B118
  8
YODOROGO
 10
28401.60434129191
 20
1984.877625640306
 30
0.0
 11
28257.604341291921
 21
2027.749496429288
 31
0.0
1001
AUTOCAD_POSTSCRIPT_FIGURE
1002
{
1000
PSFILL
1000
Grayscale
1000
Grayscale
1070
   100
1002
}
  0
LINE
  5
B119
  8
YODOROGO
 10
28257.604341291921
 20
1959.749496429288
 30
0.0
 11
28401.60434129191
 21
1916.8776256403071
 31
0.0
1001
AUTOCAD_POSTSCRIPT_FIGURE
1002
{
1000
PSFILL
1000
Grayscale
1000
Grayscale
1070
   100
1002
}
  0
LINE
  5
B11A
  8
YODOROGO
 10
28257.604341291921
 20
1795.7494964292871
 30
0.0
 11
28257.604341291921
 21
1867.7494964292871
 31
0.0
1001
AUTOCAD_POSTSCRIPT_FIGURE
1002
{
1000
PSFILL
1000
Grayscale
1000
Grayscale
1070
   100
1002
}
  0
LINE
  5
B11B
  8
YODOROGO
 10
28257.604341291921
 20
2027.749496429288
 30
0.0
 11
28257.604341291921
 21
1959.749496429288
 31
0.0
1001
AUTOCAD_POSTSCRIPT_FIGURE
1002
{
1000
PSFILL
1000
Grayscale
1000
Grayscale
1070
   100
1002
}
  0
LINE
  5
B11C
  8
YODOROGO
 10
28080.236320206739
 20
1939.749496429288
 30
0.0
 11
28129.60434129191
 21
1747.749496429286
 31
0.0
1001
AUTOCAD_POSTSCRIPT_FIGURE
1002
{
1000
PSFILL
1000
Grayscale
1000
Grayscale
1070
   100
1002
}
  0
LINE
  5
B11D
  8
YODOROGO
 10
27977.604341291921
 20
1939.749496429288
 30
0.0
 11
28080.236320206739
 21
1939.749496429288
 31
0.0
1001
AUTOCAD_POSTSCRIPT_FIGURE
1002
{
1000
PSFILL
1000
Grayscale
1000
Grayscale
1070
   100
1002
}
  0
LINE
  5
B11E
  8
YODOROGO
 10
27977.604341291921
 20
1955.7494964292871
 30
0.0
 11
27977.604341291921
 21
1939.749496429288
 31
0.0
1001
AUTOCAD_POSTSCRIPT_FIGURE
1002
{
1000
PSFILL
1000
Grayscale
1000
Grayscale
1070
   100
1002
}
  0
LINE
  5
B11F
  8
YODOROGO
 10
28076.60687851991
 20
1955.7494964292871
 30
0.0
 11
27977.604341291921
 21
1955.7494964292871
 31
0.0
1001
AUTOCAD_POSTSCRIPT_FIGURE
1002
{
1000
PSFILL
1000
Grayscale
1000
Grayscale
1070
   100
1002
}
  0
LINE
  5
B120
  8
YODOROGO
 10
28071.162715989711
 20
1979.749496429288
 30
0.0
 11
28076.60687851991
 21
1955.7494964292871
 31
0.0
1001
AUTOCAD_POSTSCRIPT_FIGURE
1002
{
1000
PSFILL
1000
Grayscale
1000
Grayscale
1070
   100
1002
}
  0
LINE
  5
B121
  8
YODOROGO
 10
28091.162715989711
 20
1979.749496429288
 30
0.0
 11
28071.162715989711
 21
1979.749496429288
 31
0.0
1001
AUTOCAD_POSTSCRIPT_FIGURE
1002
{
1000
PSFILL
1000
Grayscale
1000
Grayscale
1070
   100
1002
}
  0
LINE
  5
B122
  8
YODOROGO
 10
28095.806878519939
 20
1955.7494964292871
 30
0.0
 11
28091.162715989711
 21
1979.749496429288
 31
0.0
1001
AUTOCAD_POSTSCRIPT_FIGURE
1002
{
1000
PSFILL
1000
Grayscale
1000
Grayscale
1070
   100
1002
}
  0
LINE
  5
B123
  8
YODOROGO
 10
28121.604341291921
 20
1955.7494964292871
 30
0.0
 11
28095.806878519939
 21
1955.7494964292871
 31
0.0
1001
AUTOCAD_POSTSCRIPT_FIGURE
1002
{
1000
PSFILL
1000
Grayscale
1000
Grayscale
1070
   100
1002
}
  0
LINE
  5
B124
  8
YODOROGO
 10
28121.604341291921
 20
1979.749496429288
 30
0.0
 11
28121.604341291921
 21
1955.7494964292871
 31
0.0
1001
AUTOCAD_POSTSCRIPT_FIGURE
1002
{
1000
PSFILL
1000
Grayscale
1000
Grayscale
1070
   100
1002
}
  0
LINE
  5
B125
  8
YODOROGO
 10
28137.604341291921
 20
1979.749496429288
 30
0.0
 11
28121.604341291921
 21
1979.749496429288
 31
0.0
1001
AUTOCAD_POSTSCRIPT_FIGURE
1002
{
1000
PSFILL
1000
Grayscale
1000
Grayscale
1070
   100
1002
}
  0
LINE
  5
B126
  8
YODOROGO
 10
28137.604341291921
 20
1955.7494964292871
 30
0.0
 11
28137.604341291921
 21
1979.749496429288
 31
0.0
1001
AUTOCAD_POSTSCRIPT_FIGURE
1002
{
1000
PSFILL
1000
Grayscale
1000
Grayscale
1070
   100
1002
}
  0
LINE
  5
B127
  8
YODOROGO
 10
28137.604341291921
 20
1939.749496429288
 30
0.0
 11
28137.604341291921
 21
1955.7494964292871
 31
0.0
1001
AUTOCAD_POSTSCRIPT_FIGURE
1002
{
1000
PSFILL
1000
Grayscale
1000
Grayscale
1070
   100
1002
}
  0
LINE
  5
B128
  8
YODOROGO
 10
28098.902986873411
 20
1939.749496429288
 30
0.0
 11
28137.604341291921
 21
1939.749496429288
 31
0.0
1001
AUTOCAD_POSTSCRIPT_FIGURE
1002
{
1000
PSFILL
1000
Grayscale
1000
Grayscale
1070
   100
1002
}
  0
LINE
  5
B129
  8
YODOROGO
 10
28137.604341291921
 20
1747.749496429286
 30
0.0
 11
28098.902986873411
 21
1939.749496429288
 31
0.0
1001
AUTOCAD_POSTSCRIPT_FIGURE
1002
{
1000
PSFILL
1000
Grayscale
1000
Grayscale
1070
   100
1002
}
  0
LINE
  5
B12A
  8
YODOROGO
 10
28129.60434129191
 20
1747.749496429286
 30
0.0
 11
28137.604341291921
 21
1747.749496429286
 31
0.0
1001
AUTOCAD_POSTSCRIPT_FIGURE
1002
{
1000
PSFILL
1000
Grayscale
1000
Grayscale
1070
   100
1002
}
  0
LINE
  5
B12B
  8
YODOROGO
 10
28078.06921993379
 20
1775.7407762987939
 30
0.0
 11
27977.604341291921
 21
1747.749496429286
 31
0.0
  0
LINE
  5
B12C
  8
YODOROGO
 10
28078.06921993379
 20
1798.6689795290731
 30
0.0
 11
28078.06921993379
 21
1775.7407762987939
 31
0.0
  0
LINE
  5
B12D
  8
YODOROGO
 10
28033.83678061287
 20
1786.816933133767
 30
0.0
 11
28078.06921993379
 21
1798.6689795290731
 31
0.0
  0
LINE
  5
B12E
  8
YODOROGO
 10
28033.83678061287
 20
1872.5683489362989
 30
0.0
 11
28033.83678061287
 21
1786.816933133767
 31
0.0
  0
LINE
  5
B12F
  8
YODOROGO
 10
28078.06921993379
 20
1872.5683489362989
 30
0.0
 11
28033.83678061287
 21
1872.5683489362989
 31
0.0
  0
LINE
  5
B130
  8
YODOROGO
 10
28078.06921993379
 20
1892.568348936298
 30
0.0
 11
28078.06921993379
 21
1872.5683489362989
 31
0.0
  0
LINE
  5
B131
  8
YODOROGO
 10
27977.604341291921
 20
1892.568348936298
 30
0.0
 11
28078.06921993379
 21
1892.568348936298
 31
0.0
  0
LINE
  5
B132
  8
YODOROGO
 10
27977.604341291921
 20
1872.5683489362989
 30
0.0
 11
27977.604341291921
 21
1892.568348936298
 31
0.0
  0
LINE
  5
B133
  8
YODOROGO
 10
28021.836780612852
 20
1872.5683489362989
 30
0.0
 11
27977.604341291921
 21
1872.5683489362989
 31
0.0
  0
LINE
  5
B134
  8
YODOROGO
 10
28021.836780612852
 20
1784.673339594317
 30
0.0
 11
28021.836780612852
 21
1872.5683489362989
 31
0.0
  0
LINE
  5
B135
  8
YODOROGO
 10
27977.604341291921
 20
1771.749496429286
 30
0.0
 11
28021.836780612852
 21
1784.673339594317
 31
0.0
  0
LINE
  5
B136
  8
YODOROGO
 10
27977.604341291921
 20
1747.749496429286
 30
0.0
 11
27977.604341291921
 21
1771.749496429286
 31
0.0
  0
LINE
  5
B137
  8
YODOROGO
 10
28001.604341291921
 20
1707.749496429288
 30
0.0
 11
28001.604341291921
 21
1683.7494964292871
 31
0.0
  0
LINE
  5
B138
  8
YODOROGO
 10
28017.604341291921
 20
1707.749496429288
 30
0.0
 11
28001.604341291921
 21
1707.749496429288
 31
0.0
  0
LINE
  5
B139
  8
YODOROGO
 10
28017.604341291921
 20
1683.7494964292871
 30
0.0
 11
28017.604341291921
 21
1707.749496429288
 31
0.0
  0
LINE
  5
B13A
  8
YODOROGO
 10
28040.913204016892
 20
1683.7494964292871
 30
0.0
 11
28017.604341291921
 21
1683.7494964292871
 31
0.0
  0
LINE
  5
B13B
  8
YODOROGO
 10
28001.604341291921
 20
1683.7494964292871
 30
0.0
 11
27977.604341291921
 21
1683.7494964292871
 31
0.0
  0
LINE
  5
B13C
  8
YODOROGO
 10
28082.135520230921
 20
1707.749496429288
 30
0.0
 11
28098.135520230931
 21
1707.749496429288
 31
0.0
1001
AUTOCAD_POSTSCRIPT_FIGURE
1002
{
1000
PSFILL
1000
Grayscale
1000
Grayscale
1070
   100
1002
}
  0
LINE
  5
B13D
  8
YODOROGO
 10
28401.60434129191
 20
1824.877625640306
 30
0.0
 11
28401.60434129191
 21
1752.877625640306
 31
0.0
1001
AUTOCAD_POSTSCRIPT_FIGURE
1002
{
1000
PSFILL
1000
Grayscale
1000
Grayscale
1070
   100
1002
}
  0
LINE
  5
B13E
  8
YODOROGO
 10
28401.60434129191
 20
1916.8776256403071
 30
0.0
 11
28401.60434129191
 21
1984.877625640306
 31
0.0
1001
AUTOCAD_POSTSCRIPT_FIGURE
1002
{
1000
PSFILL
1000
Grayscale
1000
Grayscale
1070
   100
1002
}
  0
LINE
  5
B13F
  8
YODOROGO
 10
28433.60434129191
 20
1819.7494964292871
 30
0.0
 11
28433.60434129191
 21
1747.74949642929
 31
0.0
  0
LINE
  5
B140
  8
YODOROGO
 10
28497.60434129191
 20
1707.749496429288
 30
0.0
 11
28433.60434129191
 21
1707.749496429288
 31
0.0
  0
LINE
  5
B141
  8
YODOROGO
 10
28433.60434129191
 20
1747.74949642929
 30
0.0
 11
28585.604341291921
 21
1747.74949642929
 31
0.0
  0
LINE
  5
B142
  8
YODOROGO
 10
28497.60434129191
 20
1867.7494964292871
 30
0.0
 11
28433.60434129191
 21
1867.7494964292871
 31
0.0
  0
LINE
  5
B143
  8
YODOROGO
 10
28497.60434129191
 20
1923.7494964292871
 30
0.0
 11
28497.60434129191
 21
1867.7494964292871
 31
0.0
  0
LINE
  5
B144
  8
YODOROGO
 10
28585.604341291921
 20
1987.7494964292871
 30
0.0
 11
28585.604341291921
 21
2027.749496429288
 31
0.0
  0
LINE
  5
B145
  8
YODOROGO
 10
28433.60434129191
 20
1987.7494964292871
 30
0.0
 11
28585.604341291921
 21
1987.7494964292871
 31
0.0
  0
LINE
  5
B146
  8
YODOROGO
 10
28433.60434129191
 20
1867.7494964292871
 30
0.0
 11
28433.60434129191
 21
1987.7494964292871
 31
0.0
  0
LINE
  5
B147
  8
YODOROGO
 10
29001.60434129191
 20
2027.749496429288
 30
0.0
 11
29001.60434129191
 21
1619.749496429288
 31
0.0
  0
LINE
  5
B148
  8
YODOROGO
 10
29073.604341291921
 20
1579.749496429288
 30
0.0
 11
29073.604341291921
 21
2027.749496429288
 31
0.0
  0
LINE
  5
B149
  8
YODOROGO
 10
29261.604341291921
 20
1491.749496429286
 30
0.0
 11
29261.604341291921
 21
2007.749496429288
 31
0.0
  0
LINE
  5
B14A
  8
YODOROGO
 10
29197.604341291921
 20
2007.749496429288
 30
0.0
 11
29197.604341291921
 21
1491.749496429286
 31
0.0
  0
LINE
  5
B14B
  8
YODOROGO
 10
29385.604341291921
 20
2027.749496429288
 30
0.0
 11
29385.604341291921
 21
1427.749496429288
 31
0.0
  0
LINE
  5
B14C
  8
YODOROGO
 10
29457.604341291921
 20
1427.749496429288
 30
0.0
 11
29457.604341291921
 21
2027.749496429288
 31
0.0
  0
LINE
  5
B14D
  8
YODOROGO
 10
28657.604341291921
 20
1667.749496429288
 30
0.0
 11
28657.604341291921
 21
1747.74949642929
 31
0.0
  0
LINE
  5
B14E
  8
YODOROGO
 10
29885.604341291921
 20
1707.749496429288
 30
0.0
 11
29885.604341291921
 21
1667.749496429288
 31
0.0
  0
LINE
  5
B14F
  8
YODOROGO
 10
29885.604341291921
 20
1707.749496429288
 30
0.0
 11
29885.604341291921
 21
1667.749496429288
 31
0.0
  0
ARC
  5
B150
  8
YODOROGO
 10
28906.911576186842
 20
1618.217864442272
 30
0.0
 40
94.705151178741644
 50
274.05244162907098
 51
0.9266642149310712
  0
ARC
  5
B151
  8
YODOROGO
 10
28909.186170719819
 20
1592.61072861044
 30
0.0
 40
164.92042356085511
 50
271.5351210653775
 51
355.52727750585052
  0
LINE
  5
B152
  8
YODOROGO
 10
28913.604341291921
 20
1523.7494964292871
 30
0.0
 11
28913.604341291921
 21
1427.749496429288
 31
0.0
  0
LINE
  5
B153
  8
YODOROGO
 10
28793.60434129191
 20
1667.749496429288
 30
0.0
 11
28657.604341291921
 21
1667.749496429288
 31
0.0
  0
LINE
  5
B154
  8
YODOROGO
 10
28793.60434129191
 20
1603.7494964292871
 30
0.0
 11
28793.60434129191
 21
1667.749496429288
 31
0.0
  0
LINE
  5
B155
  8
YODOROGO
 10
28657.604341291921
 20
1603.7494964292871
 30
0.0
 11
28793.60434129191
 21
1603.7494964292871
 31
0.0
  0
LINE
  5
B156
  8
YODOROGO
 10
28657.604341291921
 20
1523.7494964292871
 30
0.0
 11
28657.604341291921
 21
1603.7494964292871
 31
0.0
  0
LINE
  5
B157
  8
YODOROGO
 10
28793.60434129191
 20
1523.7494964292871
 30
0.0
 11
28657.604341291921
 21
1523.7494964292871
 31
0.0
  0
LINE
  5
B158
  8
YODOROGO
 10
28793.60434129191
 20
1427.749496429288
 30
0.0
 11
28793.60434129191
 21
1523.7494964292871
 31
0.0
  0
LINE
  5
B159
  8
YODOROGO
 10
29197.604341291921
 20
1491.749496429286
 30
0.0
 11
29261.604341291921
 21
1491.749496429286
 31
0.0
  0
LINE
  5
B15A
  8
YODOROGO
 10
29385.604341291921
 20
1427.749496429288
 30
0.0
 11
29457.604341291921
 21
1427.749496429288
 31
0.0
  0
LINE
  5
B15B
  8
YODOROGO
 10
29737.604341291921
 20
1528.4414521705639
 30
0.0
 11
29737.604341291921
 21
1427.749496429288
 31
0.0
  0
LINE
  5
B15C
  8
YODOROGO
 10
29617.604341291921
 20
1427.749496429288
 30
0.0
 11
29737.604341291921
 21
1528.4414521705639
 31
0.0
  0
LINE
  5
B15D
  8
YODOROGO
 10
29617.604341291921
 20
1547.749496429288
 30
0.0
 11
29617.604341291921
 21
1427.749496429288
 31
0.0
  0
LINE
  5
B15E
  8
YODOROGO
 10
29712.94462869945
 20
1627.749496429288
 30
0.0
 11
29617.604341291921
 21
1547.749496429288
 31
0.0
  0
LINE
  5
B15F
  8
YODOROGO
 10
29617.604341291921
 20
1627.749496429288
 30
0.0
 11
29712.94462869945
 21
1627.749496429288
 31
0.0
  0
LINE
  5
B160
  8
YODOROGO
 10
29617.604341291921
 20
1667.749496429288
 30
0.0
 11
29617.604341291921
 21
1627.749496429288
 31
0.0
  0
LINE
  5
B161
  8
YODOROGO
 10
29885.604341291921
 20
1667.749496429288
 30
0.0
 11
29617.604341291921
 21
1667.749496429288
 31
0.0
  0
LINE
  5
B162
  8
YODOROGO
 10
29917.604341291921
 20
1627.749496429288
 30
0.0
 11
29777.604341291921
 21
1627.749496429288
 31
0.0
  0
LINE
  5
B163
  8
YODOROGO
 10
29777.604341291921
 20
1562.0054374176559
 30
0.0
 11
29771.409872985321
 21
1556.807661346234
 31
0.0
  0
LINE
  5
B164
  8
YODOROGO
 10
29777.604341291921
 20
1627.749496429288
 30
0.0
 11
29777.604341291921
 21
1562.0054374176559
 31
0.0
  0
LINE
  5
B165
  8
YODOROGO
 10
29737.604341291921
 20
1528.4414521705639
 30
0.0
 11
29737.604341291921
 21
1427.749496429288
 31
0.0
  0
LINE
  5
B166
  8
YODOROGO
 10
29617.604341291921
 20
1427.749496429288
 30
0.0
 11
29737.604341291921
 21
1528.4414521705639
 31
0.0
  0
LINE
  5
B167
  8
YODOROGO
 10
29617.604341291921
 20
1547.749496429288
 30
0.0
 11
29617.604341291921
 21
1427.749496429288
 31
0.0
  0
LINE
  5
B168
  8
YODOROGO
 10
29712.94462869945
 20
1627.749496429288
 30
0.0
 11
29617.604341291921
 21
1547.749496429288
 31
0.0
  0
LINE
  5
B169
  8
YODOROGO
 10
29617.604341291921
 20
1627.749496429288
 30
0.0
 11
29712.94462869945
 21
1627.749496429288
 31
0.0
  0
LINE
  5
B16A
  8
YODOROGO
 10
29617.604341291921
 20
1667.749496429288
 30
0.0
 11
29617.604341291921
 21
1627.749496429288
 31
0.0
  0
LINE
  5
B16B
  8
YODOROGO
 10
29885.604341291921
 20
1667.749496429288
 30
0.0
 11
29617.604341291921
 21
1667.749496429288
 31
0.0
  0
LINE
  5
B16C
  8
YODOROGO
 10
28793.60434129191
 20
1747.74949642929
 30
0.0
 11
28793.60434129191
 21
1819.7494964292871
 31
0.0
  0
LINE
  5
B16D
  8
YODOROGO
 10
28657.604341291921
 20
1747.74949642929
 30
0.0
 11
28793.60434129191
 21
1747.74949642929
 31
0.0
  0
LINE
  5
B16E
  8
YODOROGO
 10
28729.604341291921
 20
1867.7494964292871
 30
0.0
 11
28729.604341291921
 21
1923.7494964292871
 31
0.0
  0
LINE
  5
B16F
  8
YODOROGO
 10
28793.60434129191
 20
1867.7494964292871
 30
0.0
 11
28729.604341291921
 21
1867.7494964292871
 31
0.0
  0
LINE
  5
B170
  8
YODOROGO
 10
28793.60434129191
 20
1947.749496429288
 30
0.0
 11
28793.60434129191
 21
1867.7494964292871
 31
0.0
  0
ARC
  5
B171
  8
YODOROGO
 10
28753.60434129191
 20
1947.749496429288
 30
0.0
 40
40.0
 50
0.0
 51
90.0
  0
LINE
  5
B172
  8
YODOROGO
 10
28657.604341291921
 20
1987.7494964292871
 30
0.0
 11
28753.60434129191
 21
1987.7494964292871
 31
0.0
  0
LINE
  5
B173
  8
YODOROGO
 10
28657.604341291921
 20
2027.749496429288
 30
0.0
 11
28657.604341291921
 21
1987.7494964292871
 31
0.0
  0
LINE
  5
B174
  8
YODOROGO
 10
29073.604341291921
 20
2027.749496429288
 30
0.0
 11
29001.60434129191
 21
2027.749496429288
 31
0.0
  0
LINE
  5
B175
  8
YODOROGO
 10
29261.604341291921
 20
2007.749496429288
 30
0.0
 11
29197.604341291921
 21
2007.749496429288
 31
0.0
  0
LINE
  5
B176
  8
YODOROGO
 10
29457.604341291921
 20
2027.749496429288
 30
0.0
 11
29385.604341291921
 21
2027.749496429288
 31
0.0
  0
LINE
  5
B177
  8
YODOROGO
 10
29673.604341291921
 20
1707.749496429288
 30
0.0
 11
29673.604341291921
 21
1771.7494964292871
 31
0.0
1001
AUTOCAD_POSTSCRIPT_FIGURE
1002
{
1000
PSFILL
1000
Grayscale
1000
Grayscale
1070
    25
1002
}
  0
LINE
  5
B178
  8
YODOROGO
 10
29617.604341291921
 20
1707.749496429288
 30
0.0
 11
29673.604341291921
 21
1707.749496429288
 31
0.0
1001
AUTOCAD_POSTSCRIPT_FIGURE
1002
{
1000
PSFILL
1000
Grayscale
1000
Grayscale
1070
    25
1002
}
  0
LINE
  5
B179
  8
YODOROGO
 10
29617.604341291921
 20
1819.7494964292871
 30
0.0
 11
29617.604341291921
 21
1707.749496429288
 31
0.0
1001
AUTOCAD_POSTSCRIPT_FIGURE
1002
{
1000
PSFILL
1000
Grayscale
1000
Grayscale
1070
    25
1002
}
  0
LINE
  5
B17A
  8
YODOROGO
 10
29765.604341291921
 20
1819.7494964292871
 30
0.0
 11
29617.604341291921
 21
1819.7494964292871
 31
0.0
1001
AUTOCAD_POSTSCRIPT_FIGURE
1002
{
1000
PSFILL
1000
Grayscale
1000
Grayscale
1070
    25
1002
}
  0
LINE
  5
B17B
  8
YODOROGO
 10
29765.604341291921
 20
1859.749496429288
 30
0.0
 11
29765.604341291921
 21
1819.7494964292871
 31
0.0
1001
AUTOCAD_POSTSCRIPT_FIGURE
1002
{
1000
PSFILL
1000
Grayscale
1000
Grayscale
1070
    25
1002
}
  0
LINE
  5
B17C
  8
YODOROGO
 10
29617.604341291921
 20
1859.749496429288
 30
0.0
 11
29765.604341291921
 21
1859.749496429288
 31
0.0
1001
AUTOCAD_POSTSCRIPT_FIGURE
1002
{
1000
PSFILL
1000
Grayscale
1000
Grayscale
1070
    25
1002
}
  0
LINE
  5
B17D
  8
YODOROGO
 10
29617.604341291921
 20
1907.7494964292871
 30
0.0
 11
29617.604341291921
 21
1859.749496429288
 31
0.0
1001
AUTOCAD_POSTSCRIPT_FIGURE
1002
{
1000
PSFILL
1000
Grayscale
1000
Grayscale
1070
    25
1002
}
  0
LINE
  5
B17E
  8
YODOROGO
 10
29765.604341291921
 20
1907.7494964292871
 30
0.0
 11
29617.604341291921
 21
1907.7494964292871
 31
0.0
1001
AUTOCAD_POSTSCRIPT_FIGURE
1002
{
1000
PSFILL
1000
Grayscale
1000
Grayscale
1070
    25
1002
}
  0
LINE
  5
B17F
  8
YODOROGO
 10
29765.604341291921
 20
1947.749496429288
 30
0.0
 11
29765.604341291921
 21
1907.7494964292871
 31
0.0
1001
AUTOCAD_POSTSCRIPT_FIGURE
1002
{
1000
PSFILL
1000
Grayscale
1000
Grayscale
1070
    25
1002
}
  0
LINE
  5
B180
  8
YODOROGO
 10
29617.604341291921
 20
1947.749496429288
 30
0.0
 11
29765.604341291921
 21
1947.749496429288
 31
0.0
1001
AUTOCAD_POSTSCRIPT_FIGURE
1002
{
1000
PSFILL
1000
Grayscale
1000
Grayscale
1070
    25
1002
}
  0
LINE
  5
B181
  8
YODOROGO
 10
29617.604341291921
 20
2027.749496429288
 30
0.0
 11
29617.604341291921
 21
1947.749496429288
 31
0.0
1001
AUTOCAD_POSTSCRIPT_FIGURE
1002
{
1000
PSFILL
1000
Grayscale
1000
Grayscale
1070
    25
1002
}
  0
LINE
  5
B182
  8
YODOROGO
 10
29665.604341291921
 20
2027.749496429288
 30
0.0
 11
29617.604341291921
 21
2027.749496429288
 31
0.0
1001
AUTOCAD_POSTSCRIPT_FIGURE
1002
{
1000
PSFILL
1000
Grayscale
1000
Grayscale
1070
    25
1002
}
  0
LINE
  5
B183
  8
YODOROGO
 10
29665.604341291921
 20
1995.7494964292871
 30
0.0
 11
29665.604341291921
 21
2027.749496429288
 31
0.0
1001
AUTOCAD_POSTSCRIPT_FIGURE
1002
{
1000
PSFILL
1000
Grayscale
1000
Grayscale
1070
    25
1002
}
  0
LINE
  5
B184
  8
YODOROGO
 10
29765.604341291921
 20
1995.7494964292871
 30
0.0
 11
29665.604341291921
 21
1995.7494964292871
 31
0.0
1001
AUTOCAD_POSTSCRIPT_FIGURE
1002
{
1000
PSFILL
1000
Grayscale
1000
Grayscale
1070
    25
1002
}
  0
LINE
  5
B185
  8
YODOROGO
 10
29765.604341291921
 20
2027.749496429288
 30
0.0
 11
29765.604341291921
 21
1995.7494964292871
 31
0.0
1001
AUTOCAD_POSTSCRIPT_FIGURE
1002
{
1000
PSFILL
1000
Grayscale
1000
Grayscale
1070
    25
1002
}
  0
LINE
  5
B186
  8
YODOROGO
 10
29829.604341291921
 20
2027.749496429288
 30
0.0
 11
29765.604341291921
 21
2027.749496429288
 31
0.0
1001
AUTOCAD_POSTSCRIPT_FIGURE
1002
{
1000
PSFILL
1000
Grayscale
1000
Grayscale
1070
    25
1002
}
  0
LINE
  5
B187
  8
YODOROGO
 10
29829.604341291921
 20
1995.7494964292871
 30
0.0
 11
29829.604341291921
 21
2027.749496429288
 31
0.0
1001
AUTOCAD_POSTSCRIPT_FIGURE
1002
{
1000
PSFILL
1000
Grayscale
1000
Grayscale
1070
    25
1002
}
  0
LINE
  5
B188
  8
YODOROGO
 10
29829.604341291921
 20
1907.7494964292871
 30
0.0
 11
29829.604341291921
 21
1947.749496429288
 31
0.0
1001
AUTOCAD_POSTSCRIPT_FIGURE
1002
{
1000
PSFILL
1000
Grayscale
1000
Grayscale
1070
    25
1002
}
  0
LINE
  5
B189
  8
YODOROGO
 10
29829.604341291921
 20
1819.7494964292871
 30
0.0
 11
29829.604341291921
 21
1859.749496429288
 31
0.0
1001
AUTOCAD_POSTSCRIPT_FIGURE
1002
{
1000
PSFILL
1000
Grayscale
1000
Grayscale
1070
    25
1002
}
  0
LINE
  5
B18A
  8
YODOROGO
 10
29921.60434129191
 20
1771.7494964292871
 30
0.0
 11
29921.60434129191
 21
1707.749496429288
 31
0.0
1001
AUTOCAD_POSTSCRIPT_FIGURE
1002
{
1000
PSFILL
1000
Grayscale
1000
Grayscale
1070
    25
1002
}
  0
LINE
  5
B18B
  8
YODOROGO
 10
29829.604341291921
 20
1771.7494964292871
 30
0.0
 11
29921.60434129191
 21
1771.7494964292871
 31
0.0
1001
AUTOCAD_POSTSCRIPT_FIGURE
1002
{
1000
PSFILL
1000
Grayscale
1000
Grayscale
1070
    25
1002
}
  0
LINE
  5
B18C
  8
YODOROGO
 10
29829.604341291921
 20
1707.749496429288
 30
0.0
 11
29829.604341291921
 21
1771.7494964292871
 31
0.0
1001
AUTOCAD_POSTSCRIPT_FIGURE
1002
{
1000
PSFILL
1000
Grayscale
1000
Grayscale
1070
    25
1002
}
  0
LINE
  5
B18D
  8
YODOROGO
 10
29765.604341291921
 20
1707.749496429288
 30
0.0
 11
29829.604341291921
 21
1707.749496429288
 31
0.0
1001
AUTOCAD_POSTSCRIPT_FIGURE
1002
{
1000
PSFILL
1000
Grayscale
1000
Grayscale
1070
    25
1002
}
  0
LINE
  5
B18E
  8
YODOROGO
 10
29765.604341291921
 20
1771.7494964292871
 30
0.0
 11
29765.604341291921
 21
1707.749496429288
 31
0.0
1001
AUTOCAD_POSTSCRIPT_FIGURE
1002
{
1000
PSFILL
1000
Grayscale
1000
Grayscale
1070
    25
1002
}
  0
LINE
  5
B18F
  8
YODOROGO
 10
29673.604341291921
 20
1771.7494964292871
 30
0.0
 11
29765.604341291921
 21
1771.7494964292871
 31
0.0
1001
AUTOCAD_POSTSCRIPT_FIGURE
1002
{
1000
PSFILL
1000
Grayscale
1000
Grayscale
1070
    25
1002
}
  0
ARC
  5
B190
  8
YODOROGO
 10
31059.517893357912
 20
1602.6807375155761
 30
0.0
 40
178.22128111072141
 50
281.02627495425338
 51
357.77113575573799
  0
LINE
  5
B191
  8
YODOROGO
 10
31413.604341291921
 20
1907.7494964292871
 30
0.0
 11
31165.604341291921
 21
1907.7494964292871
 31
0.0
  0
LINE
  5
B192
  8
YODOROGO
 10
31413.604341291921
 20
2027.749496429288
 30
0.0
 11
31165.604341291921
 21
2027.749496429288
 31
0.0
  0
LINE
  5
B193
  8
YODOROGO
 10
31165.604341291921
 20
1963.749496429286
 30
0.0
 11
31413.604341291921
 21
1963.749496429286
 31
0.0
  0
LINE
  5
B194
  8
YODOROGO
 10
30791.604341291921
 20
1563.7494964292871
 30
0.0
 11
30791.604341291921
 21
1755.7494964292871
 31
0.0
  0
LINE
  5
B195
  8
YODOROGO
 10
30763.604341291921
 20
1691.749496429288
 30
0.0
 11
30763.604341291921
 21
1563.7494964292871
 31
0.0
  0
LINE
  5
B196
  8
YODOROGO
 10
30723.604341291921
 20
1491.749496429288
 30
0.0
 11
30723.604341291921
 21
1691.749496429288
 31
0.0
  0
LINE
  5
B197
  8
YODOROGO
 10
30899.604341291932
 20
1691.749496429288
 30
0.0
 11
30899.604341291932
 21
1491.749496429288
 31
0.0
  0
LINE
  5
B198
  8
YODOROGO
 10
30859.604341291932
 20
1563.7494964292871
 30
0.0
 11
30859.604341291932
 21
1691.749496429288
 31
0.0
  0
LINE
  5
B199
  8
YODOROGO
 10
30831.604341291921
 20
1755.7494964292871
 30
0.0
 11
30831.604341291921
 21
1563.7494964292871
 31
0.0
  0
LINE
  5
B19A
  8
YODOROGO
 10
30973.604341291921
 20
2027.749496429288
 30
0.0
 11
30973.604341291921
 21
1467.749496429288
 31
0.0
  0
LINE
  5
B19B
  8
YODOROGO
 10
30645.604341291921
 20
1427.749496429288
 30
0.0
 11
30645.604341291921
 21
2027.749496429288
 31
0.0
  0
LINE
  5
B19C
  8
YODOROGO
 10
30697.604341291932
 20
1963.749496429286
 30
0.0
 11
30697.604341291932
 21
1427.749496429288
 31
0.0
  0
LINE
  5
B19D
  8
YODOROGO
 10
30925.604341291921
 20
1547.749496429288
 30
0.0
 11
30925.604341291921
 21
1963.749496429286
 31
0.0
  0
LINE
  5
B19E
  8
YODOROGO
 10
30381.604341291932
 20
1627.749496429288
 30
0.0
 11
30381.604341291932
 21
1679.749496429288
 31
0.0
  0
LINE
  5
B19F
  8
YODOROGO
 10
30617.604341291921
 20
1679.749496429288
 30
0.0
 11
30617.604341291921
 21
1627.749496429288
 31
0.0
  0
LINE
  5
B1A0
  8
YODOROGO
 10
31165.604341291921
 20
1907.7494964292871
 30
0.0
 11
31165.604341291921
 21
1635.7494964292871
 31
0.0
  0
LINE
  5
B1A1
  8
YODOROGO
 10
29949.60434129191
 20
1667.749496429288
 30
0.0
 11
29949.60434129191
 21
1707.749496429288
 31
0.0
  0
LINE
  5
B1A2
  8
YODOROGO
 10
29949.60434129191
 20
1667.749496429288
 30
0.0
 11
29949.60434129191
 21
1707.749496429288
 31
0.0
  0
ARC
  5
B1A3
  8
YODOROGO
 10
30537.604341291921
 20
1507.749496429288
 30
0.0
 40
80.0
 50
270.0
 51
0.0
  0
LINE
  5
B1A4
  8
YODOROGO
 10
30569.604341291921
 20
1599.7494964292871
 30
0.0
 11
30617.604341291921
 21
1599.7494964292871
 31
0.0
  0
LINE
  5
B1A5
  8
YODOROGO
 10
30617.604341291921
 20
1627.749496429288
 30
0.0
 11
30529.604341291939
 21
1627.749496429288
 31
0.0
  0
LINE
  5
B1A6
  8
YODOROGO
 10
30217.604341291921
 20
1667.749496429288
 30
0.0
 11
29949.60434129191
 21
1667.749496429288
 31
0.0
  0
LINE
  5
B1A7
  8
YODOROGO
 10
30217.604341291921
 20
1627.749496429288
 30
0.0
 11
30217.604341291921
 21
1667.749496429288
 31
0.0
  0
LINE
  5
B1A8
  8
YODOROGO
 10
30017.604341291921
 20
1627.749496429288
 30
0.0
 11
30217.604341291921
 21
1627.749496429288
 31
0.0
  0
ARC
  5
B1A9
  8
YODOROGO
 10
30230.05882870136
 20
1868.885714952901
 30
0.0
 40
321.37763628522822
 50
228.6181454618993
 51
245.660289248906
  0
LINE
  5
B1AA
  8
YODOROGO
 10
30105.604341291921
 20
1603.7494964292871
 30
0.0
 11
30097.60434129195
 21
1576.0728158699001
 31
0.0
  0
LINE
  5
B1AB
  8
YODOROGO
 10
30189.604341291921
 20
1603.7494964292871
 30
0.0
 11
30105.604341291921
 21
1603.7494964292871
 31
0.0
  0
LINE
  5
B1AC
  8
YODOROGO
 10
30177.604341291921
 20
1551.817722473427
 30
0.0
 11
30189.604341291921
 21
1603.7494964292871
 31
0.0
  0
ARC
  5
B1AD
  8
YODOROGO
 10
30230.05882870045
 20
1868.885714953002
 30
0.0
 40
321.37763628529081
 50
260.60629297969911
 51
267.77903556555862
  0
LINE
  5
B1AE
  8
YODOROGO
 10
30217.604341291921
 20
1427.749496429285
 30
0.0
 11
30217.604341291921
 21
1547.749496429288
 31
0.0
  0
LINE
  5
B1AF
  8
YODOROGO
 10
29937.604341291932
 20
1481.3393349155101
 30
0.0
 11
29937.604341291921
 21
1594.531090531141
 31
0.0
  0
LINE
  5
B1B0
  8
YODOROGO
 10
30217.604341291921
 20
1667.749496429288
 30
0.0
 11
29949.60434129191
 21
1667.749496429288
 31
0.0
  0
LINE
  5
B1B1
  8
YODOROGO
 10
30217.604341291921
 20
1627.749496429288
 30
0.0
 11
30217.604341291921
 21
1667.749496429288
 31
0.0
  0
LINE
  5
B1B2
  8
YODOROGO
 10
30017.604341291921
 20
1627.749496429288
 30
0.0
 11
30217.604341291921
 21
1627.749496429288
 31
0.0
  0
ARC
  5
B1B3
  8
YODOROGO
 10
30230.05882870136
 20
1868.885714952901
 30
0.0
 40
321.37763628522822
 50
228.6181454618993
 51
245.660289248906
  0
LINE
  5
B1B4
  8
YODOROGO
 10
30105.604341291921
 20
1603.7494964292871
 30
0.0
 11
30097.60434129195
 21
1576.0728158699001
 31
0.0
  0
LINE
  5
B1B5
  8
YODOROGO
 10
30189.604341291921
 20
1603.7494964292871
 30
0.0
 11
30105.604341291921
 21
1603.7494964292871
 31
0.0
  0
LINE
  5
B1B6
  8
YODOROGO
 10
30177.604341291921
 20
1551.817722473427
 30
0.0
 11
30189.604341291921
 21
1603.7494964292871
 31
0.0
  0
ARC
  5
B1B7
  8
YODOROGO
 10
30230.05882870045
 20
1868.885714953002
 30
0.0
 40
321.37763628529081
 50
260.60629297969911
 51
267.77903556555862
  0
LINE
  5
B1B8
  8
YODOROGO
 10
30217.604341291921
 20
1427.749496429285
 30
0.0
 11
30217.604341291921
 21
1547.749496429288
 31
0.0
  0
LINE
  5
B1B9
  8
YODOROGO
 10
29937.604341291932
 20
1481.3393349155101
 30
0.0
 11
29937.604341291921
 21
1594.531090531141
 31
0.0
  0
LINE
  5
B1BA
  8
YODOROGO
 10
30433.604341291921
 20
1573.749496429288
 30
0.0
 11
30381.604341291932
 21
1573.749496429288
 31
0.0
  0
LINE
  5
B1BB
  8
YODOROGO
 10
30433.604341291921
 20
1601.749496429285
 30
0.0
 11
30433.604341291921
 21
1573.749496429288
 31
0.0
  0
LINE
  5
B1BC
  8
YODOROGO
 10
30381.604341291932
 20
1601.749496429285
 30
0.0
 11
30433.604341291921
 21
1601.749496429285
 31
0.0
  0
LINE
  5
B1BD
  8
YODOROGO
 10
30381.604341291932
 20
1573.749496429288
 30
0.0
 11
30381.604341291932
 21
1601.749496429285
 31
0.0
  0
LINE
  5
B1BE
  8
YODOROGO
 10
30429.604341291921
 20
1577.7494964292871
 30
0.0
 11
30385.604341291921
 21
1577.7494964292871
 31
0.0
  0
LINE
  5
B1BF
  8
YODOROGO
 10
30429.604341291921
 20
1597.749496429288
 30
0.0
 11
30429.604341291921
 21
1577.7494964292871
 31
0.0
  0
LINE
  5
B1C0
  8
YODOROGO
 10
30385.604341291921
 20
1597.749496429288
 30
0.0
 11
30429.604341291921
 21
1597.749496429288
 31
0.0
  0
LINE
  5
B1C1
  8
YODOROGO
 10
30385.604341291921
 20
1577.7494964292871
 30
0.0
 11
30385.604341291921
 21
1597.749496429288
 31
0.0
  0
LINE
  5
B1C2
  8
YODOROGO
 10
30425.604341291921
 20
1581.749496429286
 30
0.0
 11
30389.604341291921
 21
1581.749496429286
 31
0.0
  0
LINE
  5
B1C3
  8
YODOROGO
 10
30425.604341291921
 20
1593.749496429288
 30
0.0
 11
30425.604341291921
 21
1581.749496429286
 31
0.0
  0
LINE
  5
B1C4
  8
YODOROGO
 10
30389.604341291921
 20
1593.749496429288
 30
0.0
 11
30425.604341291921
 21
1593.749496429288
 31
0.0
  0
LINE
  5
B1C5
  8
YODOROGO
 10
30389.604341291921
 20
1581.749496429286
 30
0.0
 11
30389.604341291921
 21
1593.749496429288
 31
0.0
  0
LINE
  5
B1C6
  8
YODOROGO
 10
30421.604341291932
 20
1585.7494964292871
 30
0.0
 11
30393.604341291921
 21
1585.7494964292871
 31
0.0
  0
LINE
  5
B1C7
  8
YODOROGO
 10
30421.604341291932
 20
1589.749496429288
 30
0.0
 11
30421.604341291932
 21
1585.7494964292871
 31
0.0
  0
LINE
  5
B1C8
  8
YODOROGO
 10
30393.604341291921
 20
1589.749496429288
 30
0.0
 11
30421.604341291932
 21
1589.749496429288
 31
0.0
  0
LINE
  5
B1C9
  8
YODOROGO
 10
30393.604341291921
 20
1585.7494964292871
 30
0.0
 11
30393.604341291921
 21
1589.749496429288
 31
0.0
  0
LINE
  5
B1CA
  8
YODOROGO
 10
30465.604341291921
 20
1627.749496429288
 30
0.0
 11
30381.604341291932
 21
1627.749496429288
 31
0.0
  0
LINE
  5
B1CB
  8
YODOROGO
 10
30465.604341291921
 20
1547.749496429288
 30
0.0
 11
30465.604341291921
 21
1627.749496429288
 31
0.0
  0
LINE
  5
B1CC
  8
YODOROGO
 10
30381.604341291932
 20
1547.749496429288
 30
0.0
 11
30465.604341291921
 21
1547.749496429288
 31
0.0
  0
LINE
  5
B1CD
  8
YODOROGO
 10
30381.604341291932
 20
1427.749496429288
 30
0.0
 11
30381.604341291932
 21
1547.749496429288
 31
0.0
  0
LINE
  5
B1CE
  8
YODOROGO
 10
30537.604341291921
 20
1427.749496429288
 30
0.0
 11
30381.604341291932
 21
1427.749496429288
 31
0.0
  0
LINE
  5
B1CF
  8
YODOROGO
 10
30569.604341291921
 20
1571.749496429285
 30
0.0
 11
30569.604341291921
 21
1599.7494964292871
 31
0.0
  0
ARC
  5
B1D0
  8
YODOROGO
 10
30545.604341291921
 20
1571.749496429291
 30
0.0
 40
24.000000000003752
 50
270.0
 51
359.99999999998772
  0
LINE
  5
B1D1
  8
YODOROGO
 10
30529.604341291939
 20
1547.749496429288
 30
0.0
 11
30545.604341291921
 21
1547.749496429288
 31
0.0
  0
LINE
  5
B1D2
  8
YODOROGO
 10
30529.604341291939
 20
1627.749496429288
 30
0.0
 11
30529.604341291939
 21
1547.749496429288
 31
0.0
  0
LINE
  5
B1D3
  8
YODOROGO
 10
30899.604341291932
 20
1547.749496429288
 30
0.0
 11
30925.604341291921
 21
1547.749496429288
 31
0.0
  0
LINE
  5
B1D4
  8
YODOROGO
 10
30933.604341291921
 20
1427.749496429288
 30
0.0
 11
30899.604341291932
 21
1427.749496429288
 31
0.0
  0
LINE
  5
B1D5
  8
YODOROGO
 10
30763.604341291921
 20
1563.7494964292871
 30
0.0
 11
30791.604341291921
 21
1563.7494964292871
 31
0.0
  0
LINE
  5
B1D6
  8
YODOROGO
 10
30899.604341291932
 20
1491.749496429288
 30
0.0
 11
30723.604341291921
 21
1491.749496429288
 31
0.0
  0
LINE
  5
B1D7
  8
YODOROGO
 10
30831.604341291921
 20
1563.7494964292871
 30
0.0
 11
30859.604341291932
 21
1563.7494964292871
 31
0.0
  0
LINE
  5
B1D8
  8
YODOROGO
 10
30899.604341291932
 20
1427.749496429288
 30
0.0
 11
30899.604341291932
 21
1547.749496429288
 31
0.0
  0
LINE
  5
B1D9
  8
YODOROGO
 10
30697.604341291932
 20
1427.749496429288
 30
0.0
 11
30645.604341291921
 21
1427.749496429288
 31
0.0
  0
LINE
  5
B1DA
  8
YODOROGO
 10
30617.604341291921
 20
1599.7494964292871
 30
0.0
 11
30617.604341291921
 21
1507.749496429288
 31
0.0
  0
ARC
  5
B1DB
  8
YODOROGO
 10
30933.604341291921
 20
1467.749496429288
 30
0.0
 40
40.0
 50
270.0
 51
0.0
  0
LINE
  5
B1DC
  8
YODOROGO
 10
31093.604341291921
 20
1523.7494964292871
 30
0.0
 11
31093.604341291921
 21
1427.749496429288
 31
0.0
  0
ARC
  5
B1DD
  8
YODOROGO
 10
31039.721395566768
 20
1637.5313901097329
 30
0.0
 40
125.8955565916754
 50
295.34052442160112
 51
359.18902303418679
  0
LINE
  5
B1DE
  8
YODOROGO
 10
30617.604341291921
 20
1859.749496429288
 30
0.0
 11
30497.604341291921
 21
1939.749496429288
 31
0.0
  0
LINE
  5
B1DF
  8
YODOROGO
 10
30497.604341291921
 20
2027.749496429288
 30
0.0
 11
30617.604341291921
 21
1947.749496429288
 31
0.0
  0
LINE
  5
B1E0
  8
YODOROGO
 10
30529.604341291939
 20
1679.749496429288
 30
0.0
 11
30617.604341291921
 21
1679.749496429288
 31
0.0
  0
LINE
  5
B1E1
  8
YODOROGO
 10
30617.604341291921
 20
1735.7494964292871
 30
0.0
 11
30529.604341291939
 21
1735.7494964292871
 31
0.0
  0
LINE
  5
B1E2
  8
YODOROGO
 10
30381.604341291932
 20
1795.7494964292871
 30
0.0
 11
30617.604341291921
 21
1795.7494964292871
 31
0.0
  0
LINE
  5
B1E3
  8
YODOROGO
 10
30081.604341291921
 20
2027.749496429288
 30
0.0
 11
30021.604341291921
 21
2027.749496429288
 31
0.0
  0
LINE
  5
B1E4
  8
YODOROGO
 10
30081.604341291921
 20
1827.7494964292871
 30
0.0
 11
30081.604341291921
 21
2027.749496429288
 31
0.0
  0
LINE
  5
B1E5
  8
YODOROGO
 10
30021.604341291921
 20
1827.7494964292871
 30
0.0
 11
30081.604341291921
 21
1827.7494964292871
 31
0.0
  0
LINE
  5
B1E6
  8
YODOROGO
 10
30021.604341291921
 20
2027.749496429288
 30
0.0
 11
30021.604341291921
 21
1827.7494964292871
 31
0.0
  0
LINE
  5
B1E7
  8
YODOROGO
 10
30161.604341291921
 20
2027.749496429288
 30
0.0
 11
30217.604341291921
 21
2027.749496429288
 31
0.0
  0
LINE
  5
B1E8
  8
YODOROGO
 10
30161.604341291921
 20
1811.749496429288
 30
0.0
 11
30161.604341291921
 21
2027.749496429288
 31
0.0
  0
ARC
  5
B1E9
  8
YODOROGO
 10
30121.604341291921
 20
1811.749496429288
 30
0.0
 40
40.0
 50
270.0
 51
0.0
  0
LINE
  5
B1EA
  8
YODOROGO
 10
30021.604341291921
 20
1771.7494964292871
 30
0.0
 11
30121.604341291921
 21
1771.7494964292871
 31
0.0
  0
LINE
  5
B1EB
  8
YODOROGO
 10
30021.604341291921
 20
1707.749496429288
 30
0.0
 11
30021.604341291921
 21
1771.7494964292871
 31
0.0
  0
LINE
  5
B1EC
  8
YODOROGO
 10
30137.604341291921
 20
1707.749496429288
 30
0.0
 11
30021.604341291921
 21
1707.749496429288
 31
0.0
  0
ARC
  5
B1ED
  8
YODOROGO
 10
30137.604341291921
 20
1787.7494964292871
 30
0.0
 40
80.0
 50
270.0
 51
0.0
  0
LINE
  5
B1EE
  8
YODOROGO
 10
30217.604341291921
 20
2027.749496429288
 30
0.0
 11
30217.604341291921
 21
1787.7494964292871
 31
0.0
  0
LINE
  5
B1EF
  8
YODOROGO
 10
29977.604341291921
 20
1947.749496429288
 30
0.0
 11
29977.604341291921
 21
1995.7494964292871
 31
0.0
1001
AUTOCAD_POSTSCRIPT_FIGURE
1002
{
1000
PSFILL
1000
Grayscale
1000
Grayscale
1070
    25
1002
}
  0
LINE
  5
B1F0
  8
YODOROGO
 10
29977.604341291921
 20
1859.749496429288
 30
0.0
 11
29977.604341291921
 21
1907.7494964292871
 31
0.0
1001
AUTOCAD_POSTSCRIPT_FIGURE
1002
{
1000
PSFILL
1000
Grayscale
1000
Grayscale
1070
    25
1002
}
  0
LINE
  5
B1F1
  8
YODOROGO
 10
29977.604341291921
 20
1707.749496429288
 30
0.0
 11
29977.604341291921
 21
1819.7494964292871
 31
0.0
1001
AUTOCAD_POSTSCRIPT_FIGURE
1002
{
1000
PSFILL
1000
Grayscale
1000
Grayscale
1070
    25
1002
}
  0
LINE
  5
B1F2
  8
YODOROGO
 10
30381.604341291932
 20
1907.7494964292871
 30
0.0
 11
30497.604341291921
 21
2027.749496429288
 31
0.0
  0
LINE
  5
B1F3
  8
YODOROGO
 10
30381.604341291932
 20
1819.7494964292871
 30
0.0
 11
30381.604341291932
 21
1907.7494964292871
 31
0.0
  0
LINE
  5
B1F4
  8
YODOROGO
 10
30497.604341291921
 20
1939.749496429288
 30
0.0
 11
30381.604341291932
 21
1819.7494964292871
 31
0.0
  0
LINE
  5
B1F5
  8
YODOROGO
 10
30465.604341291921
 20
1679.749496429288
 30
0.0
 11
30465.604341291921
 21
1735.7494964292871
 31
0.0
  0
LINE
  5
B1F6
  8
YODOROGO
 10
30381.604341291932
 20
1679.749496429288
 30
0.0
 11
30465.604341291921
 21
1679.749496429288
 31
0.0
  0
LINE
  5
B1F7
  8
YODOROGO
 10
30529.604341291939
 20
1735.7494964292871
 30
0.0
 11
30529.604341291939
 21
1679.749496429288
 31
0.0
  0
LINE
  5
B1F8
  8
YODOROGO
 10
30381.604341291932
 20
1735.7494964292871
 30
0.0
 11
30381.604341291932
 21
1795.7494964292871
 31
0.0
  0
LINE
  5
B1F9
  8
YODOROGO
 10
30465.604341291921
 20
1735.7494964292871
 30
0.0
 11
30381.604341291932
 21
1735.7494964292871
 31
0.0
  0
LINE
  5
B1FA
  8
YODOROGO
 10
30645.604341291921
 20
2027.749496429288
 30
0.0
 11
30973.604341291921
 21
2027.749496429288
 31
0.0
  0
LINE
  5
B1FB
  8
YODOROGO
 10
30925.604341291921
 20
1963.749496429286
 30
0.0
 11
30697.604341291932
 21
1963.749496429286
 31
0.0
  0
LINE
  5
B1FC
  8
YODOROGO
 10
30873.604341291921
 20
1819.7494964292871
 30
0.0
 11
30899.604341291932
 21
1819.7494964292871
 31
0.0
  0
LINE
  5
B1FD
  8
YODOROGO
 10
30899.604341291932
 20
1939.749496429288
 30
0.0
 11
30873.604341291921
 21
1819.7494964292871
 31
0.0
  0
LINE
  5
B1FE
  8
YODOROGO
 10
30851.604341291939
 20
1939.749496429288
 30
0.0
 11
30899.604341291932
 21
1939.749496429288
 31
0.0
  0
LINE
  5
B1FF
  8
YODOROGO
 10
30825.604341291921
 20
1819.7494964292871
 30
0.0
 11
30851.604341291939
 21
1939.749496429288
 31
0.0
  0
LINE
  5
B200
  8
YODOROGO
 10
30797.604341291921
 20
1819.7494964292871
 30
0.0
 11
30825.604341291921
 21
1819.7494964292871
 31
0.0
  0
LINE
  5
B201
  8
YODOROGO
 10
30771.604341291939
 20
1939.749496429288
 30
0.0
 11
30797.604341291921
 21
1819.7494964292871
 31
0.0
  0
LINE
  5
B202
  8
YODOROGO
 10
30723.604341291921
 20
1939.749496429288
 30
0.0
 11
30771.604341291939
 21
1939.749496429288
 31
0.0
  0
LINE
  5
B203
  8
YODOROGO
 10
30749.604341291921
 20
1819.7494964292871
 30
0.0
 11
30723.604341291921
 21
1939.749496429288
 31
0.0
  0
LINE
  5
B204
  8
YODOROGO
 10
30723.604341291921
 20
1819.7494964292871
 30
0.0
 11
30749.604341291921
 21
1819.7494964292871
 31
0.0
  0
LINE
  5
B205
  8
YODOROGO
 10
30723.604341291921
 20
1755.7494964292871
 30
0.0
 11
30723.604341291921
 21
1819.7494964292871
 31
0.0
  0
LINE
  5
B206
  8
YODOROGO
 10
30899.604341291932
 20
1755.7494964292871
 30
0.0
 11
30723.604341291921
 21
1755.7494964292871
 31
0.0
  0
LINE
  5
B207
  8
YODOROGO
 10
30899.604341291932
 20
1819.7494964292871
 30
0.0
 11
30899.604341291932
 21
1755.7494964292871
 31
0.0
  0
LINE
  5
B208
  8
YODOROGO
 10
30617.604341291921
 20
1947.749496429288
 30
0.0
 11
30617.604341291921
 21
1859.749496429288
 31
0.0
  0
LINE
  5
B209
  8
YODOROGO
 10
30791.604341291921
 20
1755.7494964292871
 30
0.0
 11
30831.604341291921
 21
1755.7494964292871
 31
0.0
  0
LINE
  5
B20A
  8
YODOROGO
 10
30723.604341291921
 20
1691.749496429288
 30
0.0
 11
30763.604341291921
 21
1691.749496429288
 31
0.0
  0
LINE
  5
B20B
  8
YODOROGO
 10
30859.604341291932
 20
1691.749496429288
 30
0.0
 11
30899.604341291932
 21
1691.749496429288
 31
0.0
  0
LINE
  5
B20C
  8
YODOROGO
 10
30617.604341291921
 20
1795.7494964292871
 30
0.0
 11
30617.604341291921
 21
1735.7494964292871
 31
0.0
  0
LINE
  5
B20D
  8
YODOROGO
 10
31165.604341291921
 20
2027.749496429288
 30
0.0
 11
31165.604341291921
 21
1963.749496429286
 31
0.0
  0
LINE
  5
B20E
  8
YODOROGO
 10
31533.604341291921
 20
1595.7494964292871
 30
0.0
 11
31533.60434129191
 21
1811.749496429288
 31
0.0
  0
LINE
  5
B20F
  8
YODOROGO
 10
31461.60434129191
 20
1987.7494964292871
 30
0.0
 11
31461.60434129191
 21
1635.7494964292871
 31
0.0
  0
LINE
  5
B210
  8
YODOROGO
 10
31653.604341291921
 20
1427.749496429288
 30
0.0
 11
31653.60434129191
 21
1811.749496429288
 31
0.0
  0
LINE
  5
B211
  8
YODOROGO
 10
31589.604341291921
 20
1811.749496429288
 30
0.0
 11
31589.604341291921
 21
1427.749496429288
 31
0.0
  0
LINE
  5
B212
  8
YODOROGO
 10
31237.604341291921
 20
1595.7494964292871
 30
0.0
 11
31237.604341291921
 21
1707.749496429288
 31
0.0
  0
ARC
  5
B213
  8
YODOROGO
 10
31353.914865116069
 20
1607.790351288558
 30
0.0
 40
180.0924485759885
 50
268.62849102169793
 51
356.16638457330322
  0
LINE
  5
B214
  8
YODOROGO
 10
31349.604341291939
 20
1527.749496429288
 30
0.0
 11
31349.604341291939
 21
1427.749496429288
 31
0.0
  0
ARC
  5
B215
  8
YODOROGO
 10
31351.518075724562
 20
1637.838957017655
 30
0.0
 40
110.1060929836122
 50
269.00410209305932
 51
358.91264455492478
  0
LINE
  5
B216
  8
YODOROGO
 10
31589.604341291921
 20
1427.749496429288
 30
0.0
 11
31653.604341291921
 21
1427.749496429288
 31
0.0
  0
LINE
  5
B217
  8
YODOROGO
 10
31533.60434129191
 20
1811.749496429288
 30
0.0
 11
31589.604341291921
 21
1811.749496429288
 31
0.0
  0
LINE
  5
B218
  8
YODOROGO
 10
31621.604341291939
 20
1987.7494964292871
 30
0.0
 11
31461.60434129191
 21
1987.7494964292871
 31
0.0
  0
LINE
  5
B219
  8
YODOROGO
 10
31533.60434129191
 20
1915.7494964292871
 30
0.0
 11
31661.604341291939
 21
1915.7494964292871
 31
0.0
  0
LINE
  5
B21A
  8
YODOROGO
 10
31701.604341291939
 20
1875.7494964292871
 30
0.0
 11
31533.60434129191
 21
1875.7494964292871
 31
0.0
  0
LINE
  5
B21B
  8
YODOROGO
 10
31237.604341291921
 20
1779.749496429288
 30
0.0
 11
31349.604341291939
 21
1779.749496429288
 31
0.0
  0
LINE
  5
B21C
  8
YODOROGO
 10
31237.604341291921
 20
1835.7494964292871
 30
0.0
 11
31237.604341291921
 21
1779.749496429288
 31
0.0
  0
LINE
  5
B21D
  8
YODOROGO
 10
31349.604341291939
 20
1835.7494964292871
 30
0.0
 11
31237.604341291921
 21
1835.7494964292871
 31
0.0
  0
LINE
  5
B21E
  8
YODOROGO
 10
31349.604341291939
 20
1779.749496429288
 30
0.0
 11
31349.604341291939
 21
1835.7494964292871
 31
0.0
  0
LINE
  5
B21F
  8
YODOROGO
 10
31533.60434129191
 20
1875.7494964292871
 30
0.0
 11
31533.60434129191
 21
1915.7494964292871
 31
0.0
  0
LINE
  5
B220
  8
YODOROGO
 10
31413.604341291921
 20
1707.749496429288
 30
0.0
 11
31413.604341291921
 21
1907.7494964292871
 31
0.0
  0
LINE
  5
B221
  8
YODOROGO
 10
31237.604341291921
 20
1707.749496429288
 30
0.0
 11
31413.604341291921
 21
1707.749496429288
 31
0.0
  0
LINE
  5
B222
  8
YODOROGO
 10
31413.604341291921
 20
1963.749496429286
 30
0.0
 11
31413.604341291921
 21
2027.749496429288
 31
0.0
  0
ARC
  5
B223
  8
YODOROGO
 10
31621.604341291939
 20
2003.749496429285
 30
0.0
 40
15.999999999994539
 50
270.0
 51
0.0000000000081422
  0
LINE
  5
B224
  8
YODOROGO
 10
31637.604341291921
 20
2027.749496429288
 30
0.0
 11
31637.604341291921
 21
2003.7494964292871
 31
0.0
  0
LINE
  5
B225
  8
YODOROGO
 10
31701.604341291939
 20
2027.749496429288
 30
0.0
 11
31637.604341291921
 21
2027.749496429288
 31
0.0
  0
LINE
  5
B226
  8
YODOROGO
 10
31701.604341291939
 20
1955.7494964292871
 30
0.0
 11
31701.604341291939
 21
2027.749496429288
 31
0.0
  0
ARC
  5
B227
  8
YODOROGO
 10
31661.604341291939
 20
1955.7494964292871
 30
0.0
 40
40.0
 50
270.0
 51
0.0
  0
LINE
  5
B228
  8
YODOROGO
 10
31701.604341291939
 20
1811.749496429288
 30
0.0
 11
31701.604341291939
 21
1875.7494964292871
 31
0.0
  0
LINE
  5
B229
  8
YODOROGO
 10
31653.60434129191
 20
1811.749496429288
 30
0.0
 11
31701.604341291939
 21
1811.749496429288
 31
0.0
  0
LINE
  5
B22A
  8
0-6
  6
CONTINUOUS
 62
     6
 10
11790.3841569709
 20
19465.01522062135
 30
0.0
 11
11715.664411900279
 21
19608.98721500007
 31
0.0
  0
LINE
  5
B22B
  8
0-6
  6
CONTINUOUS
 62
     6
 10
11715.664411900279
 20
19608.98721500007
 30
0.0
 11
11833.04045488394
 21
19497.0302253226
 31
0.0
  0
LINE
  5
B22C
  8
0-6
  6
CONTINUOUS
 62
     6
 10
11833.04045488394
 20
19497.0302253226
 30
0.0
 11
11790.3841569709
 21
19465.01522062135
 31
0.0
  0
LINE
  5
B22D
  8
0-6
  6
CONTINUOUS
 62
     6
 10
11790.3841569709
 20
16541.01332162134
 30
0.0
 11
11715.664411900279
 21
16684.985316000071
 31
0.0
  0
LINE
  5
B22E
  8
0-6
  6
CONTINUOUS
 62
     6
 10
11715.664411900279
 20
16684.985316000071
 30
0.0
 11
11833.04045488394
 21
16573.028326322601
 31
0.0
  0
LINE
  5
B22F
  8
0-6
  6
CONTINUOUS
 62
     6
 10
11833.04045488394
 20
16573.028326322601
 30
0.0
 11
11790.3841569709
 21
16541.01332162134
 31
0.0
  0
LINE
  5
B230
  8
0-6
  6
CONTINUOUS
 62
     6
 10
11670.049428398501
 20
13627.54216289358
 30
0.0
 11
11595.329683327869
 21
13771.514157272301
 31
0.0
  0
LINE
  5
B231
  8
0-6
  6
CONTINUOUS
 62
     6
 10
11595.329683327869
 20
13771.514157272301
 30
0.0
 11
11712.70572631154
 21
13659.557167594839
 31
0.0
  0
LINE
  5
B232
  8
0-6
  6
CONTINUOUS
 62
     6
 10
11712.70572631154
 20
13659.557167594839
 30
0.0
 11
11670.049428398501
 21
13627.54216289358
 31
0.0
  0
LINE
  5
B233
  8
SUNPOU
  6
CONTINUOUS
 62
     4
 10
4823.2433209367082
 20
13619.48643699999
 30
0.0
 11
3976.2435449367158
 21
13619.486437
 31
0.0
  0
LINE
  5
B234
  8
SUNPOU
  6
CONTINUOUS
 62
     4
 10
4056.243544936714
 20
13811.985710999999
 30
0.0
 11
4056.243544936714
 21
13619.486437
 31
0.0
  0
LINE
  5
B235
  8
SUNPOU
  6
CONTINUOUS
 62
     4
 10
4056.2435449367149
 20
16729.985711000001
 30
0.0
 11
4056.243544936714
 21
13811.985710999999
 31
0.0
  0
LINE
  5
B236
  8
SUNPOU
  6
CONTINUOUS
 62
     4
 10
4056.243544936719
 20
19647.985711000001
 30
0.0
 11
4056.243544936719
 21
16729.985711000001
 31
0.0
  0
LINE
  5
B237
  8
SUNPOU
  6
CONTINUOUS
 62
     4
 10
3976.243544936719
 20
19647.985711000001
 30
0.0
 11
4016.243544936719
 21
19647.985711000001
 31
0.0
  0
LINE
  5
B238
  8
SUNPOU
  6
CONTINUOUS
 62
     4
 10
4828.2425949367062
 20
19870.485579
 30
0.0
 11
4016.243544936719
 21
19870.485579
 31
0.0
  0
LINE
  5
B239
  8
SUNPOU
  6
CONTINUOUS
 62
     4
 10
4056.243544936719
 20
19647.985711000001
 30
0.0
 11
4056.243544936719
 21
19870.485579
 31
0.0
  0
LINE
  5
B23A
  8
SUNPOU
  6
CONTINUOUS
 62
     4
 10
4896.7434399367203
 20
19860.48900999999
 30
0.0
 11
4376.2428859367192
 21
19860.48900999999
 31
0.0
  0
LINE
  5
B23B
  8
SUNPOU
  6
CONTINUOUS
 62
     4
 10
4828.2425949367062
 20
19870.485579
 30
0.0
 11
4376.2428859367192
 21
19870.485579
 31
0.0
  0
LINE
  5
B23C
  8
SUNPOU
  6
CONTINUOUS
 62
     4
 10
4456.2428859367174
 20
19860.48900999999
 30
0.0
 11
4456.2428859367174
 21
19620.48900999999
 31
0.0
  0
LINE
  5
B23D
  8
SUNPOU
  6
CONTINUOUS
 62
     4
 10
4456.2428859367174
 20
19870.485579
 30
0.0
 11
4456.2428859367174
 21
20110.485579000011
 31
0.0
  0
LINE
  5
B23E
  8
SUNPOU
  6
CONTINUOUS
 62
     4
 10
4456.2428859367174
 20
19860.48900999999
 30
0.0
 11
4456.2428859367174
 21
19870.485579
 31
0.0
  0
LINE
  5
B23F
  8
SUNPOU
  6
CONTINUOUS
 62
     4
 10
12903.743320936699
 20
20495.487624000001
 30
0.0
 11
12903.743320936699
 21
20570.486634999979
 31
0.0
  0
LINE
  5
B240
  8
SUNPOU
  6
CONTINUOUS
 62
     4
 10
12989.243041895499
 20
19945.44637738611
 30
0.0
 11
12989.243041895499
 21
20570.445718386109
 31
0.0
  0
LINE
  5
B241
  8
SUNPOU
  6
CONTINUOUS
 62
     4
 10
12903.743320936699
 20
20490.486634999979
 30
0.0
 11
12663.743320936699
 21
20490.486634999979
 31
0.0
  0
LINE
  5
B242
  8
SUNPOU
  6
CONTINUOUS
 62
     4
 10
12986.243320936699
 20
20490.486634999979
 30
0.0
 11
13226.243320936699
 21
20490.486634999979
 31
0.0
  0
LINE
  5
B243
  8
SUNPOU
  6
CONTINUOUS
 62
     4
 10
12903.743320936699
 20
20490.486634999979
 30
0.0
 11
12986.243320936699
 21
20490.486634999979
 31
0.0
  0
LINE
  5
B244
  8
SUNPOU
  6
CONTINUOUS
 62
     4
 10
7903.7433209367064
 20
20495.487624000001
 30
0.0
 11
7903.7433209367064
 21
20570.486634999979
 31
0.0
  0
LINE
  5
B245
  8
SUNPOU
  6
CONTINUOUS
 62
     4
 10
12903.743320936699
 20
20495.487624000001
 30
0.0
 11
12903.743320936699
 21
20570.486634999979
 31
0.0
  0
LINE
  5
B246
  8
SUNPOU
  6
CONTINUOUS
 62
     4
 10
7903.7433209367064
 20
20490.486634999979
 30
0.0
 11
12903.743320936699
 21
20490.486634999979
 31
0.0
  0
LINE
  5
B247
  8
SUNPOU
  6
CONTINUOUS
 62
     4
 10
4985.7433209367082
 20
20020.487293999991
 30
0.0
 11
4985.7433209367082
 21
20570.486634999979
 31
0.0
  0
LINE
  5
B248
  8
SUNPOU
  6
CONTINUOUS
 62
     4
 10
7903.7433209367064
 20
20495.487624000001
 30
0.0
 11
7903.7433209367064
 21
20570.486634999979
 31
0.0
  0
LINE
  5
B249
  8
SUNPOU
  6
CONTINUOUS
 62
     4
 10
4985.7433209367082
 20
20490.486634999979
 30
0.0
 11
7903.7433209367064
 21
20490.486634999979
 31
0.0
  0
LINE
  5
B24A
  8
SUNPOU
  6
CONTINUOUS
 62
     4
 10
4985.7433209367082
 20
20020.487293999991
 30
0.0
 11
4985.7433209367082
 21
20570.486634999979
 31
0.0
  0
LINE
  5
B24B
  8
SUNPOU
  6
CONTINUOUS
 62
     4
 10
4900.2433209367091
 20
19940.48703099999
 30
0.0
 11
4900.2433209367091
 21
20570.486634999979
 31
0.0
  0
LINE
  5
B24C
  8
SUNPOU
  6
CONTINUOUS
 62
     4
 10
4985.7433209367082
 20
20490.486634999979
 30
0.0
 11
5225.7433209367082
 21
20490.486634999979
 31
0.0
  0
LINE
  5
B24D
  8
SUNPOU
  6
CONTINUOUS
 62
     4
 10
4903.2433209367091
 20
20490.486634999979
 30
0.0
 11
4663.2433209367082
 21
20490.486634999979
 31
0.0
  0
LINE
  5
B24E
  8
SUNPOU
  6
CONTINUOUS
 62
     4
 10
4985.7433209367082
 20
20490.486634999979
 30
0.0
 11
4903.2433209367091
 21
20490.486634999979
 31
0.0
  0
LINE
  5
B24F
  8
SUNPOU
  6
CONTINUOUS
 62
     4
 10
4900.2433209367091
 20
13539.48643699999
 30
0.0
 11
4900.2433209367091
 21
12249.48564499999
 31
0.0
  0
LINE
  5
B250
  8
SUNPOU
  6
CONTINUOUS
 62
     4
 10
12989.243320936699
 20
13539.48643699999
 30
0.0
 11
12989.243320936699
 21
12249.48564499999
 31
0.0
  0
LINE
  5
B251
  8
SUNPOU
  6
CONTINUOUS
 62
     4
 10
4903.2433209367091
 20
12329.48564499999
 30
0.0
 11
12986.243320936699
 21
12329.48564499999
 31
0.0
  0
LINE
  5
B28D
  8
SUNPOU
  6
CONTINUOUS
 62
     4
 10
22001.010528585161
 20
20890.486634999979
 30
0.0
 11
27001.010528585161
 21
20890.486634999979
 31
0.0
  0
LINE
  5
B28E
  8
SUNPOU
  6
CONTINUOUS
 62
     4
 10
19083.01052858515
 20
20890.486634999979
 30
0.0
 11
22001.010528585161
 21
20890.486634999979
 31
0.0
  0
LINE
  5
B28F
  8
SUNPOU
  6
CONTINUOUS
 62
     4
 10
27001.010528585161
 20
20014.93548487734
 30
0.0
 11
27001.010528585161
 21
20570.486634999979
 31
0.0
  0
LINE
  5
B290
  8
SUNPOU
  6
CONTINUOUS
 62
     4
 10
26958.508285585162
 20
19853.835975000002
 30
0.0
 11
26958.508285585162
 21
20570.486634999979
 31
0.0
  0
LINE
  5
B291
  8
SUNPOU
  6
CONTINUOUS
 62
     4
 10
27001.010528585161
 20
20490.486634999979
 30
0.0
 11
27241.010528585161
 21
20490.486634999979
 31
0.0
  0
LINE
  5
B292
  8
SUNPOU
  6
CONTINUOUS
 62
     4
 10
26958.508285585162
 20
20490.486634999979
 30
0.0
 11
26718.508285585162
 21
20490.486634999979
 31
0.0
  0
LINE
  5
B293
  8
SUNPOU
  6
CONTINUOUS
 62
     4
 10
27001.010528585161
 20
20490.486634999979
 30
0.0
 11
26958.508285585162
 21
20490.486634999979
 31
0.0
  0
LINE
  5
B294
  8
SUNPOU
  6
CONTINUOUS
 62
     4
 10
27001.010528585161
 20
20014.93548487734
 30
0.0
 11
27001.010528585161
 21
20570.486634999979
 31
0.0
  0
LINE
  5
B295
  8
SUNPOU
  6
CONTINUOUS
 62
     4
 10
27043.508813585158
 20
19850.488217999991
 30
0.0
 11
27043.508813585158
 21
20570.486634999979
 31
0.0
  0
LINE
  5
B296
  8
SUNPOU
  6
CONTINUOUS
 62
     4
 10
27001.010528585161
 20
20490.486634999979
 30
0.0
 11
26761.010528585161
 21
20490.486634999979
 31
0.0
  0
LINE
  5
B297
  8
SUNPOU
  6
CONTINUOUS
 62
     4
 10
27043.508813585158
 20
20490.486634999979
 30
0.0
 11
27283.508813585158
 21
20490.486634999979
 31
0.0
  0
LINE
  5
B298
  8
SUNPOU
  6
CONTINUOUS
 62
     4
 10
27001.010528585161
 20
20490.486634999979
 30
0.0
 11
27043.508813585158
 21
20490.486634999979
 31
0.0
  0
LINE
  5
B299
  8
SUNPOU
  6
CONTINUOUS
 62
     4
 10
27385.615364537101
 20
16729.985711000001
 30
0.0
 11
28298.854152953791
 21
16729.985711000001
 31
0.0
  0
LINE
  5
B29A
  8
SUNPOU
  6
CONTINUOUS
 62
     4
 10
27385.615364537101
 20
19647.985711000001
 30
0.0
 11
28298.854152953791
 21
19647.985711000001
 31
0.0
  0
LINE
  5
B29B
  8
SUNPOU
  6
CONTINUOUS
 62
     4
 10
28218.854152953791
 20
16729.985711000001
 30
0.0
 11
28218.854152953791
 21
19647.985711000001
 31
0.0
  0
LINE
  5
B29C
  8
SUNPOU
  6
CONTINUOUS
 62
     4
 10
27385.615364537101
 20
13811.985710999999
 30
0.0
 11
28298.854152953791
 21
13811.985710999999
 31
0.0
  0
LINE
  5
B29D
  8
SUNPOU
  6
CONTINUOUS
 62
     4
 10
27385.615364537101
 20
16729.985711000001
 30
0.0
 11
28298.854152953791
 21
16729.985711000001
 31
0.0
  0
LINE
  5
B29E
  8
SUNPOU
  6
CONTINUOUS
 62
     4
 10
28218.854152953791
 20
13811.985710999999
 30
0.0
 11
28218.854152953791
 21
16729.985711000001
 31
0.0
  0
LINE
  5
B2B6
  8
SUNPOU
  6
CONTINUOUS
 62
     4
 10
5986.2340064709351
 20
8477.688374000003
 30
0.0
 11
5986.2340064709351
 21
9869.1883999999955
 31
0.0
  0
LINE
  5
B2B7
  8
SUNPOU
  6
CONTINUOUS
 62
     4
 10
12237.234006470921
 20
8610.5781974124347
 30
0.0
 11
12237.234006470921
 21
9869.1883999999955
 31
0.0
  0
LINE
  5
B2B8
  8
SUNPOU
  6
CONTINUOUS
 62
     4
 10
5986.2340064709351
 20
9789.1883999999955
 30
0.0
 11
12237.234006470921
 21
9789.1883999999955
 31
0.0
  0
LINE
  5
B2B9
  8
SUNPOU
  6
CONTINUOUS
 62
     4
 10
12087.23400647093
 20
8536.5984380000027
 30
0.0
 11
12087.23400647093
 21
9469.1900499999992
 31
0.0
  0
LINE
  5
B2BA
  8
SUNPOU
  6
CONTINUOUS
 62
     4
 10
12237.234006470921
 20
8610.5781974124347
 30
0.0
 11
12237.234006470921
 21
9469.1900499999992
 31
0.0
  0
LINE
  5
B2BB
  8
SUNPOU
  6
CONTINUOUS
 62
     4
 10
12087.23400647093
 20
9389.1900499999992
 30
0.0
 11
11847.23400647093
 21
9389.1900499999992
 31
0.0
  0
LINE
  5
B2BC
  8
SUNPOU
  6
CONTINUOUS
 62
     4
 10
12237.234006470921
 20
9389.1900499999992
 30
0.0
 11
12477.234006470921
 21
9389.1900499999992
 31
0.0
  0
LINE
  5
B2BD
  8
SUNPOU
  6
CONTINUOUS
 62
     4
 10
12087.23400647093
 20
9389.1900499999992
 30
0.0
 11
12237.234006470921
 21
9389.1900499999992
 31
0.0
  0
LINE
  5
B2BE
  8
SUNPOU
  6
CONTINUOUS
 62
     4
 10
6166.234006470936
 20
8347.8741496838084
 30
0.0
 11
6166.234006470936
 21
9469.1900499999992
 31
0.0
  0
LINE
  5
B2BF
  8
SUNPOU
  6
CONTINUOUS
 62
     4
 10
12087.23400647093
 20
8536.5984380000027
 30
0.0
 11
12087.23400647093
 21
9469.1900499999992
 31
0.0
  0
LINE
  5
B2C0
  8
SUNPOU
  6
CONTINUOUS
 62
     4
 10
6166.234006470936
 20
9389.1900499999992
 30
0.0
 11
12087.23400647093
 21
9389.1900499999992
 31
0.0
  0
LINE
  5
B2C1
  8
SUNPOU
  6
CONTINUOUS
 62
     4
 10
5986.2340064709351
 20
8477.688374000003
 30
0.0
 11
5986.2340064709351
 21
9469.1900499999992
 31
0.0
  0
LINE
  5
B2C2
  8
SUNPOU
  6
CONTINUOUS
 62
     4
 10
6166.234006470936
 20
8347.8741496838084
 30
0.0
 11
6166.234006470936
 21
9469.1900499999992
 31
0.0
  0
LINE
  5
B2C3
  8
SUNPOU
  6
CONTINUOUS
 62
     4
 10
5986.2340064709351
 20
9389.1900499999992
 30
0.0
 11
6166.234006470936
 21
9389.1900499999992
 31
0.0
  0
LINE
  5
B2C4
  8
SUNPOU
  6
CONTINUOUS
 62
     4
 10
12179.73400647093
 20
6241.1883740000012
 30
0.0
 11
13257.23440247092
 21
6241.1883740000012
 31
0.0
  0
LINE
  5
B2C5
  8
SUNPOU
  6
CONTINUOUS
 62
     4
 10
12272.04126607031
 20
8589.688374000003
 30
0.0
 11
13257.23440247092
 21
8589.6883739999976
 31
0.0
  0
LINE
  5
B2C6
  8
SUNPOU
  6
CONTINUOUS
 62
     4
 10
13177.23440247092
 20
6241.1883740000012
 30
0.0
 11
13177.23440247092
 21
8589.6883739999976
 31
0.0
  0
LINE
  5
B2C7
  8
SUNPOU
  6
CONTINUOUS
 62
     4
 10
6078.7340064709351
 20
6241.1883740000012
 30
0.0
 11
4996.2336104709384
 21
6241.1883740000012
 31
0.0
  0
LINE
  5
B2C8
  8
SUNPOU
  6
CONTINUOUS
 62
     4
 10
5906.2340064709351
 20
8397.688374000003
 30
0.0
 11
4996.2336104709384
 21
8397.688374000003
 31
0.0
  0
LINE
  5
B2C9
  8
SUNPOU
  6
CONTINUOUS
 62
     4
 10
5076.2336104709384
 20
6241.1883740000012
 30
0.0
 11
5076.2336104709384
 21
8397.688374000003
 31
0.0
  0
LINE
  5
B2CA
  8
SUNPOU
  6
CONTINUOUS
 62
     4
 10
6166.234006470936
 20
6161.1883740000012
 30
0.0
 11
6166.234006470936
 21
4461.1887040000011
 31
0.0
  0
LINE
  5
B2CB
  8
SUNPOU
  6
CONTINUOUS
 62
     4
 10
12087.23400647093
 20
6161.1883740000012
 30
0.0
 11
12087.23400647093
 21
4461.1887040000011
 31
0.0
  0
LINE
  5
B2CC
  8
SUNPOU
  6
CONTINUOUS
 62
     4
 10
6166.234006470936
 20
4541.1887040000011
 30
0.0
 11
12087.23400647093
 21
4541.1887040000011
 31
0.0
  0
LINE
  5
B2CD
  8
SUNPOU
  6
CONTINUOUS
 62
     4
 10
12044.734006470921
 20
5798.536116000002
 30
0.0
 11
12044.734006470921
 21
4861.1885389999998
 31
0.0
  0
LINE
  5
B2CE
  8
SUNPOU
  6
CONTINUOUS
 62
     4
 10
12087.23400647093
 20
6161.1883740000012
 30
0.0
 11
12087.23400647093
 21
4861.1885389999998
 31
0.0
  0
LINE
  5
B2CF
  8
SUNPOU
  6
CONTINUOUS
 62
     4
 10
12044.734006470921
 20
4941.1885390000016
 30
0.0
 11
11804.734006470921
 21
4941.1885390000016
 31
0.0
  0
LINE
  5
B2D0
  8
SUNPOU
  6
CONTINUOUS
 62
     4
 10
12087.23400647093
 20
4941.1885390000016
 30
0.0
 11
12327.23400647093
 21
4941.1885390000016
 31
0.0
  0
LINE
  5
B2D1
  8
SUNPOU
  6
CONTINUOUS
 62
     4
 10
12044.734006470921
 20
4941.1885390000016
 30
0.0
 11
12087.23400647093
 21
4941.1885390000016
 31
0.0
  0
LINE
  5
B2D2
  8
SUNPOU
  6
CONTINUOUS
 62
     4
 10
6208.7340064709351
 20
5798.536116000002
 30
0.0
 11
6208.7340064709351
 21
4861.1885389999998
 31
0.0
  0
LINE
  5
B2D3
  8
SUNPOU
  6
CONTINUOUS
 62
     4
 10
6166.234006470936
 20
6161.1883740000012
 30
0.0
 11
6166.234006470936
 21
4861.1885389999998
 31
0.0
  0
LINE
  5
B2D4
  8
SUNPOU
  6
CONTINUOUS
 62
     4
 10
6208.7340064709351
 20
4941.1885390000016
 30
0.0
 11
6448.7340064709351
 21
4941.1885390000016
 31
0.0
  0
LINE
  5
B2D5
  8
SUNPOU
  6
CONTINUOUS
 62
     4
 10
6166.234006470936
 20
4941.1885390000016
 30
0.0
 11
5926.2340064709342
 21
4941.1885390000016
 31
0.0
  0
LINE
  5
B2D6
  8
SUNPOU
  6
CONTINUOUS
 62
     4
 10
6208.7340064709351
 20
4941.1885390000016
 30
0.0
 11
6166.234006470936
 21
4941.1885390000016
 31
0.0
  0
LINE
  5
B2D7
  8
SUNPOU
  6
CONTINUOUS
 62
     4
 10
9126.7340064709388
 20
5798.536116000002
 30
0.0
 11
9126.7340064709388
 21
4861.1885389999998
 31
0.0
  0
LINE
  5
B2D8
  8
SUNPOU
  6
CONTINUOUS
 62
     4
 10
6208.7340064709351
 20
5798.536116000002
 30
0.0
 11
6208.7340064709351
 21
4861.1885389999998
 31
0.0
  0
LINE
  5
B2D9
  8
SUNPOU
  6
CONTINUOUS
 62
     4
 10
9126.7340064709388
 20
4941.1885390000016
 30
0.0
 11
6208.7340064709351
 21
4941.1885390000016
 31
0.0
  0
LINE
  5
B2DA
  8
SUNPOU
  6
CONTINUOUS
 62
     4
 10
9126.7340064709388
 20
5798.536116000002
 30
0.0
 11
9126.7340064709388
 21
4861.1885390000016
 31
0.0
  0
LINE
  5
B2DB
  8
SUNPOU
  6
CONTINUOUS
 62
     4
 10
12044.734006470921
 20
5798.536116000002
 30
0.0
 11
12044.734006470921
 21
4861.1885390000016
 31
0.0
  0
LINE
  5
B2DC
  8
SUNPOU
  6
CONTINUOUS
 62
     4
 10
9126.7340064709388
 20
4941.1885390000016
 30
0.0
 11
12044.734006470921
 21
4941.1885390000016
 31
0.0
  0
LINE
  5
B2DD
  8
SUNPOU
  6
CONTINUOUS
 62
     4
 10
18997.51052858515
 20
8669.6883999999955
 30
0.0
 11
18997.51052858515
 21
9869.1329740000037
 31
0.0
  0
LINE
  5
B2DE
  8
SUNPOU
  6
CONTINUOUS
 62
     4
 10
27086.510528585161
 20
8669.6883999999955
 30
0.0
 11
27086.510528585161
 21
9869.1329740000037
 31
0.0
  0
LINE
  5
B2DF
  8
SUNPOU
  6
CONTINUOUS
 62
     4
 10
19000.51052858515
 20
9789.1329740000037
 30
0.0
 11
27083.510528585161
 21
9789.1329740000037
 31
0.0
  0
LINE
  5
B2E0
  8
SUNPOU
  6
CONTINUOUS
 62
     4
 10
27043.510528585171
 20
8669.6884000000027
 30
0.0
 11
27043.510528585171
 21
9469.1900499999992
 31
0.0
  0
LINE
  5
B2E1
  8
SUNPOU
  6
CONTINUOUS
 62
     4
 10
27086.510528585161
 20
8669.6884000000027
 30
0.0
 11
27086.510528585161
 21
9469.1900499999992
 31
0.0
  0
LINE
  5
B2E2
  8
SUNPOU
  6
CONTINUOUS
 62
     4
 10
27043.510528585171
 20
9389.1900499999992
 30
0.0
 11
26803.510528585171
 21
9389.1900499999992
 31
0.0
  0
LINE
  5
B2E3
  8
SUNPOU
  6
CONTINUOUS
 62
     4
 10
27083.510528585161
 20
9389.1900499999992
 30
0.0
 11
27323.510528585161
 21
9389.1900499999992
 31
0.0
  0
LINE
  5
B2E4
  8
SUNPOU
  6
CONTINUOUS
 62
     4
 10
27043.510528585171
 20
9389.1900499999992
 30
0.0
 11
27083.510528585161
 21
9389.1900499999992
 31
0.0
  0
LINE
  5
B2E5
  8
SUNPOU
  6
CONTINUOUS
 62
     4
 10
19040.51052858515
 20
8539.6884659999996
 30
0.0
 11
19040.51052858515
 21
9469.1900499999992
 31
0.0
  0
LINE
  5
B2E6
  8
SUNPOU
  6
CONTINUOUS
 62
     4
 10
18997.51052858515
 20
8669.6883999999955
 30
0.0
 11
18997.51052858515
 21
9469.1900499999992
 31
0.0
  0
LINE
  5
B2E7
  8
SUNPOU
  6
CONTINUOUS
 62
     4
 10
19040.51052858515
 20
9389.1900499999992
 30
0.0
 11
19280.51052858515
 21
9389.1900499999992
 31
0.0
  0
LINE
  5
B2E8
  8
SUNPOU
  6
CONTINUOUS
 62
     4
 10
19000.51052858515
 20
9389.1900499999992
 30
0.0
 11
18760.51052858515
 21
9389.1900499999992
 31
0.0
  0
LINE
  5
B2E9
  8
SUNPOU
  6
CONTINUOUS
 62
     4
 10
19040.51052858515
 20
9389.1900499999992
 30
0.0
 11
19000.51052858515
 21
9389.1900499999992
 31
0.0
  0
LINE
  5
B2EA
  8
SUNPOU
  6
CONTINUOUS
 62
     4
 10
22043.510528585161
 20
8539.6884659999996
 30
0.0
 11
22043.510528585161
 21
9469.1900499999992
 31
0.0
  0
LINE
  5
B2EB
  8
SUNPOU
  6
CONTINUOUS
 62
     4
 10
19040.51052858515
 20
8539.6884659999996
 30
0.0
 11
19040.51052858515
 21
9469.1900499999992
 31
0.0
  0
LINE
  5
B2EC
  8
SUNPOU
  6
CONTINUOUS
 62
     4
 10
22043.510528585161
 20
9389.1900499999992
 30
0.0
 11
19040.51052858515
 21
9389.1900499999992
 31
0.0
  0
LINE
  5
B2ED
  8
SUNPOU
  6
CONTINUOUS
 62
     4
 10
18953.007889585158
 20
6241.1883740000012
 30
0.0
 11
17753.007889585151
 21
6241.1883740000021
 31
0.0
  0
LINE
  5
B2EE
  8
SUNPOU
  6
CONTINUOUS
 62
     4
 10
18920.51052858515
 20
8589.6883999999973
 30
0.0
 11
17753.007889585151
 21
8589.6883999999973
 31
0.0
  0
LINE
  5
B2EF
  8
SUNPOU
  6
CONTINUOUS
 62
     4
 10
17833.007889585151
 20
6241.1883740000021
 30
0.0
 11
17833.007889585151
 21
8589.6883999999973
 31
0.0
  0
LINE
  5
B2F0
  8
SUNPOU
  6
CONTINUOUS
 62
     4
 10
18953.007889585158
 20
6241.1883740000012
 30
0.0
 11
18153.007229585161
 21
6241.1883740000021
 31
0.0
  0
LINE
  5
B2F1
  8
SUNPOU
  6
CONTINUOUS
 62
     4
 10
19045.50683358515
 20
8132.6883740000021
 30
0.0
 11
18153.007229585161
 21
8132.6883740000021
 31
0.0
  0
LINE
  5
B2F2
  8
SUNPOU
  6
CONTINUOUS
 62
     4
 10
18233.007229585161
 20
6241.1883740000021
 30
0.0
 11
18233.007229585161
 21
8132.6883740000021
 31
0.0
  0
LINE
  5
B2F3
  8
SUNPOU
  6
CONTINUOUS
 62
     4
 10
22046.510528585161
 20
6161.1883740000003
 30
0.0
 11
22046.510528585161
 21
5261.1883740000012
 31
0.0
  0
LINE
  5
B2F4
  8
SUNPOU
  6
CONTINUOUS
 62
     4
 10
26958.510528585161
 20
6061.1885389999989
 30
0.0
 11
26958.510528585161
 21
5261.1883740000012
 31
0.0
  0
LINE
  5
B2F5
  8
SUNPOU
  6
CONTINUOUS
 62
     4
 10
22046.510528585161
 20
5341.1883740000012
 30
0.0
 11
26958.510528585161
 21
5341.1883740000012
 31
0.0
  0
LINE
  5
B2F6
  8
SUNPOU
  6
CONTINUOUS
 62
     4
 10
19040.550481532679
 20
6161.1883740000003
 30
0.0
 11
19040.550481532679
 21
4461.1887040000529
 31
0.0
  0
LINE
  5
B2F7
  8
SUNPOU
  6
CONTINUOUS
 62
     4
 10
27043.510528585161
 20
6061.1885389999989
 30
0.0
 11
27043.510528585161
 21
4461.1887040000529
 31
0.0
  0
LINE
  5
B2F8
  8
SUNPOU
  6
CONTINUOUS
 62
     4
 10
19040.550481532679
 20
4541.188704000052
 30
0.0
 11
27043.510528585161
 21
4541.188704000052
 31
0.0
  0
LINE
  5
B2F9
  8
SUNPOU
  6
CONTINUOUS
 62
     4
 10
19083.01052858515
 20
5798.536116000002
 30
0.0
 11
19083.01052858515
 21
4861.1885389999998
 31
0.0
  0
LINE
  5
B2FA
  8
SUNPOU
  6
CONTINUOUS
 62
     4
 10
19040.550481532679
 20
6161.1883740000003
 30
0.0
 11
19040.550481532679
 21
4861.1885389999998
 31
0.0
  0
LINE
  5
B2FB
  8
SUNPOU
  6
CONTINUOUS
 62
     4
 10
19083.01052858515
 20
4941.1885390000016
 30
0.0
 11
19323.010528585139
 21
4941.1885390000016
 31
0.0
  0
LINE
  5
B2FC
  8
SUNPOU
  6
CONTINUOUS
 62
     4
 10
19040.550481532679
 20
4941.1885390000016
 30
0.0
 11
18800.550481532679
 21
4941.1885390000016
 31
0.0
  0
LINE
  5
B2FD
  8
SUNPOU
  6
CONTINUOUS
 62
     4
 10
19083.01052858515
 20
4941.1885390000016
 30
0.0
 11
19040.550481532679
 21
4941.1885390000016
 31
0.0
  0
LINE
  5
B2FE
  8
SUNPOU
  6
CONTINUOUS
 62
     4
 10
22001.010528585161
 20
5798.536116000002
 30
0.0
 11
22001.010528585161
 21
4861.1885389999998
 31
0.0
  0
LINE
  5
B2FF
  8
SUNPOU
  6
CONTINUOUS
 62
     4
 10
19083.01052858515
 20
5798.536116000002
 30
0.0
 11
19083.01052858515
 21
4861.1885389999998
 31
0.0
  0
LINE
  5
B300
  8
SUNPOU
  6
CONTINUOUS
 62
     4
 10
22001.010528585161
 20
4941.1885390000016
 30
0.0
 11
19083.01052858515
 21
4941.1885390000016
 31
0.0
  0
LINE
  5
B301
  8
SUNPOU
  6
CONTINUOUS
 62
     4
 10
19177.010528585139
 20
6061.1885389999989
 30
0.0
 11
19177.010528585139
 21
5261.1883740000012
 31
0.0
  0
LINE
  5
B302
  8
SUNPOU
  6
CONTINUOUS
 62
     4
 10
21907.010528585161
 20
6061.1885389999989
 30
0.0
 11
21907.010528585161
 21
5261.1883740000012
 31
0.0
  0
LINE
  5
B303
  8
SUNPOU
  6
CONTINUOUS
 62
     4
 10
19177.010528585139
 20
5341.1883740000012
 30
0.0
 11
21907.010528585161
 21
5341.1883740000012
 31
0.0
  0
LINE
  5
B304
  8
SUNPOU
  6
CONTINUOUS
 62
     4
 10
27001.010528585161
 20
5798.536116000002
 30
0.0
 11
27001.010528585161
 21
4861.1885389999998
 31
0.0
  0
LINE
  5
B305
  8
SUNPOU
  6
CONTINUOUS
 62
     4
 10
27043.510528585161
 20
6061.1885389999989
 30
0.0
 11
27043.510528585161
 21
4861.1885389999998
 31
0.0
  0
LINE
  5
B306
  8
SUNPOU
  6
CONTINUOUS
 62
     4
 10
27001.010528585161
 20
4941.1885389999998
 30
0.0
 11
26761.010528585161
 21
4941.1885389999998
 31
0.0
  0
LINE
  5
B307
  8
SUNPOU
  6
CONTINUOUS
 62
     4
 10
27043.510528585161
 20
4941.1885389999998
 30
0.0
 11
27283.510528585161
 21
4941.1885389999998
 31
0.0
  0
LINE
  5
B308
  8
SUNPOU
  6
CONTINUOUS
 62
     4
 10
27001.010528585161
 20
4941.1885389999998
 30
0.0
 11
27043.510528585161
 21
4941.1885389999998
 31
0.0
  0
LINE
  5
B309
  8
SUNPOU
  6
CONTINUOUS
 62
     4
 10
22001.010528585161
 20
5798.536116000002
 30
0.0
 11
22001.010528585161
 21
4861.1885389999998
 31
0.0
  0
LINE
  5
B30A
  8
SUNPOU
  6
CONTINUOUS
 62
     4
 10
27001.010528585161
 20
5798.536116000002
 30
0.0
 11
27001.010528585161
 21
4861.1885389999998
 31
0.0
  0
LINE
  5
B30B
  8
SUNPOU
  6
CONTINUOUS
 62
     4
 10
22001.010528585161
 20
4941.1885389999998
 30
0.0
 11
27001.010528585161
 21
4941.1885389999998
 31
0.0
  0
LINE
  5
B30C
  8
SUNPOU
  6
CONTINUOUS
 62
     4
 10
22043.510528585161
 20
8539.6884659999996
 30
0.0
 11
22043.510528585161
 21
9469.1900499999992
 31
0.0
  0
LINE
  5
B30D
  8
SUNPOU
  6
CONTINUOUS
 62
     4
 10
27043.510528585171
 20
8669.6884000000027
 30
0.0
 11
27043.510528585171
 21
9469.1900499999992
 31
0.0
  0
LINE
  5
B30E
  8
SUNPOU
  6
CONTINUOUS
 62
     4
 10
22043.510528585161
 20
9389.1900499999992
 30
0.0
 11
27043.510528585171
 21
9389.1900499999992
 31
0.0
  0
LINE
  5
B30F
  8
SUNPOU
  6
CONTINUOUS
 62
     4
 10
27123.510528585161
 20
6242.0026620000026
 30
0.0
 11
28333.332926879531
 21
6242.0026620000026
 31
0.0
  0
LINE
  5
B310
  8
SUNPOU
  6
CONTINUOUS
 62
     4
 10
27163.510528585171
 20
8262.0026620000026
 30
0.0
 11
28333.332926879531
 21
8262.0026620000026
 31
0.0
  0
LINE
  5
B311
  8
SUNPOU
  6
CONTINUOUS
 62
     4
 10
28253.332926879531
 20
6242.0026620000026
 30
0.0
 11
28253.332926879531
 21
8262.0026620000026
 31
0.0
  0
LINE
  5
B312
  8
0-6
  6
CONTINUOUS
 62
     6
 10
11131.03345205261
 20
15470.26394309438
 30
0.0
 11
11250.888178959151
 21
15579.5950400496
 31
0.0
  0
LINE
  5
B313
  8
0-6
  6
CONTINUOUS
 62
     6
 10
11250.888178959151
 20
15579.5950400496
 30
0.0
 11
11172.962780922349
 21
15437.306331207061
 31
0.0
  0
LINE
  5
B314
  8
0-6
  6
CONTINUOUS
 62
     6
 10
11172.962780922349
 20
15437.306331207061
 30
0.0
 11
11131.03345205261
 21
15470.26394309438
 31
0.0
  0
LINE
  5
B315
  8
0-6
  6
CONTINUOUS
 62
     6
 10
6482.3250344014868
 20
16944.10254427827
 30
0.0
 11
6513.9646807702356
 21
16784.988192000001
 31
0.0
  0
LINE
  5
B316
  8
0-6
  6
CONTINUOUS
 62
     6
 10
6513.9646807702356
 20
16784.988192000001
 30
0.0
 11
6432.4385548678729
 21
16925.24486784335
 31
0.0
  0
LINE
  5
B317
  8
0-6
  6
CONTINUOUS
 62
     6
 10
6432.4385548678729
 20
16925.24486784335
 30
0.0
 11
6482.3250344014868
 21
16944.10254427827
 31
0.0
  0
LINE
  5
B318
  8
0-6
  6
CONTINUOUS
 62
     6
 10
26858.782504637202
 20
19452.88947925335
 30
0.0
 11
26965.110528585159
 21
19575.385710999992
 31
0.0
  0
LINE
  5
B319
  8
0-6
  6
CONTINUOUS
 62
     6
 10
26965.110528585159
 20
19575.385710999992
 30
0.0
 11
26904.258408991911
 21
19425.024404324551
 31
0.0
  0
LINE
  5
B31A
  8
0-6
  6
CONTINUOUS
 62
     6
 10
26904.258408991911
 20
19425.024404324551
 30
0.0
 11
26858.782504637202
 21
19452.88947925335
 31
0.0
  0
LINE
  5
B31B
  8
0-6
  6
CONTINUOUS
 62
     6
 10
26886.96685014317
 20
19868.7030359327
 30
0.0
 11
26956.010528585161
 21
19721.924475045871
 31
0.0
  0
LINE
  5
B31C
  8
0-6
  6
CONTINUOUS
 62
     6
 10
26956.010528585161
 20
19721.924475045871
 30
0.0
 11
26843.093528406011
 21
19838.377272670841
 31
0.0
  0
LINE
  5
B31D
  8
0-6
  6
CONTINUOUS
 62
     6
 10
26843.093528406011
 20
19838.377272670841
 30
0.0
 11
26886.96685014317
 21
19868.7030359327
 31
0.0
  0
LINE
  5
B31E
  8
0-6
  6
CONTINUOUS
 62
     6
 10
26858.782504637202
 20
16935.082047746651
 30
0.0
 11
26965.11052858517
 21
16812.585815999992
 31
0.0
  0
LINE
  5
B31F
  8
0-6
  6
CONTINUOUS
 62
     6
 10
26965.11052858517
 20
16812.585815999992
 30
0.0
 11
26904.258408991911
 21
16962.947122675439
 31
0.0
  0
LINE
  5
B320
  8
0-6
  6
CONTINUOUS
 62
     6
 10
26904.258408991911
 20
16962.947122675439
 30
0.0
 11
26858.782504637202
 21
16935.082047746651
 31
0.0
  0
LINE
  5
B321
  8
0-6
  6
CONTINUOUS
 62
     6
 10
26858.782504637202
 20
14018.521514646871
 30
0.0
 11
26965.110528585159
 21
13896.0252829002
 31
0.0
  0
LINE
  5
B322
  8
0-6
  6
CONTINUOUS
 62
     6
 10
26965.110528585159
 20
13896.0252829002
 30
0.0
 11
26904.258408991911
 21
14046.38658957567
 31
0.0
  0
LINE
  5
B323
  8
0-6
  6
CONTINUOUS
 62
     6
 10
26904.258408991911
 20
14046.38658957567
 30
0.0
 11
26858.782504637202
 21
14018.521514646871
 31
0.0
  0
LINE
  5
B324
  8
0-6
  6
CONTINUOUS
 62
     6
 10
26886.96685014317
 20
16519.268491067302
 30
0.0
 11
26956.010528585171
 21
16666.047051954109
 31
0.0
  0
LINE
  5
B325
  8
0-6
  6
CONTINUOUS
 62
     6
 10
26956.010528585171
 20
16666.047051954109
 30
0.0
 11
26843.093528406011
 21
16549.594254329138
 31
0.0
  0
LINE
  5
B326
  8
0-6
  6
CONTINUOUS
 62
     6
 10
26843.093528406011
 20
16549.594254329138
 30
0.0
 11
26886.96685014317
 21
16519.268491067302
 31
0.0
  0
LINE
  5
B327
  8
0-6
  6
CONTINUOUS
 62
     6
 10
26886.96685014317
 20
13622.646722013391
 30
0.0
 11
26956.010528585171
 21
13769.425282900211
 31
0.0
  0
LINE
  5
B328
  8
0-6
  6
CONTINUOUS
 62
     6
 10
26956.010528585171
 20
13769.425282900211
 30
0.0
 11
26843.093528406011
 21
13652.97248527523
 31
0.0
  0
LINE
  5
B329
  8
0-6
  6
CONTINUOUS
 62
     6
 10
26843.093528406011
 20
13652.97248527523
 30
0.0
 11
26886.96685014317
 21
13622.646722013391
 31
0.0
  0
LINE
  5
B32A
  8
0-6
  6
CONTINUOUS
 62
     6
 10
12804.45339827106
 20
15368.38685028948
 30
0.0
 11
12850.74368993672
 21
15523.84804919877
 31
0.0
  0
LINE
  5
B32B
  8
0-6
  6
CONTINUOUS
 62
     6
 10
12850.74368993672
 20
15523.84804919877
 30
0.0
 11
12756.53430393998
 21
15391.80224428904
 31
0.0
  0
LINE
  5
B32C
  8
0-6
  6
CONTINUOUS
 62
     6
 10
12756.53430393998
 20
15391.80224428904
 30
0.0
 11
12804.45339827106
 21
15368.38685028948
 31
0.0
  0
ARC
  5
B32D
  8
1-前柱P
 10
27010.610528585159
 20
13880.385711000001
 30
0.0
 40
1.0
 50
90.0
 51
180.0
  0
LINE
  5
B32E
  8
1-前柱P
 10
27009.610528585159
 20
13880.385711000001
 30
0.0
 11
27009.610528585159
 21
13878.785711
 31
0.0
  0
LINE
  5
B32F
  8
1-前柱P
 10
27009.610528585159
 20
13878.785711
 30
0.0
 11
26998.410528585158
 21
13878.785711
 31
0.0
  0
LINE
  5
B330
  8
1-前柱P
 10
26998.410528585158
 20
13878.785711
 30
0.0
 11
26998.410528585158
 21
13880.385711000001
 31
0.0
  0
ARC
  5
B331
  8
1-前柱P
 10
26997.410528585158
 20
13880.385711000001
 30
0.0
 40
1.0
 50
0.0
 51
90.0
  0
ARC
  5
B332
  8
1-中柱P
 10
26994.410528585158
 20
16798.285711000011
 30
0.0
 40
1.0
 50
0.0
 51
90.0
  0
LINE
  5
B333
  8
1-中柱P
 10
26995.410528585158
 20
16798.285711000011
 30
0.0
 11
26995.410528585158
 21
16796.685710999991
 31
0.0
  0
LINE
  5
B334
  8
1-中柱P
 10
26995.410528585158
 20
16796.685710999991
 30
0.0
 11
27006.610528585159
 21
16796.685710999991
 31
0.0
  0
LINE
  5
B335
  8
1-中柱P
 10
27006.610528585159
 20
16796.685710999991
 30
0.0
 11
27006.610528585159
 21
16798.285711000011
 31
0.0
  0
ARC
  5
B336
  8
1-中柱P
 10
27007.610528585159
 20
16798.285711000011
 30
0.0
 40
1.0
 50
90.0
 51
180.0
  0
ARC
  5
B337
  8
1-後柱P
 10
26991.410528585158
 20
19579.935710999991
 30
0.0
 40
1.0
 50
270.0
 51
0.0
  0
LINE
  5
B338
  8
1-後柱P
 10
26992.410528585158
 20
19579.935710999991
 30
0.0
 11
26992.410528585158
 21
19581.535711
 31
0.0
  0
LINE
  5
B339
  8
1-後柱P
 10
26992.410528585158
 20
19581.535711
 30
0.0
 11
27003.61052858517
 21
19581.535711
 31
0.0
  0
LINE
  5
B33A
  8
1-後柱P
 10
27003.61052858517
 20
19581.535711
 30
0.0
 11
27003.610528585181
 21
19579.935710999991
 31
0.0
  0
ARC
  5
B33B
  8
1-後柱P
 10
27004.61052858517
 20
19579.935710999991
 30
0.0
 40
1.0
 50
180.0
 51
270.0
  0
TEXT
  5
B33C
  8
0
  6
CONTINUOUS
 62
     7
 10
28173.332926879531
 20
6589.002662000009
 30
0.0
 40
160.0
  1
有効高サ2020
 50
90.0
  0
TEXT
  5
B33D
  8
0
  6
CONTINUOUS
 62
     7
 10
24290.177195251821
 20
9469.1900499999992
 30
0.0
 40
160.0
  1
5000
  0
TEXT
  5
B33E
  8
0
  6
CONTINUOUS
 62
     7
 10
24247.677195251821
 20
5021.1885389999998
 30
0.0
 40
160.0
  1
5000
  0
TEXT
  5
B33F
  8
0
  6
CONTINUOUS
 62
     7
 10
27163.511188585151
 20
5021.1883080000007
 30
0.0
 40
160.0
  1
42.5
  0
TEXT
  5
B340
  8
0
  6
CONTINUOUS
 62
     7
 10
19782.01052858515
 20
5421.1883740000012
 30
0.0
 40
160.0
  1
有効開口巾2730
  0
TEXT
  5
B341
  8
0
  6
CONTINUOUS
 62
     7
 10
20275.343861918482
 20
5021.1885389999998
 30
0.0
 40
160.0
  1
2918
  0
TEXT
  5
B342
  8
0
  6
CONTINUOUS
 62
     7
 10
18460.68749758515
 20
5028.7357170000014
 30
0.0
 40
160.0
  1
42.5
  0
TEXT
  5
B343
  8
0
  6
CONTINUOUS
 62
     7
 10
22775.363838392252
 20
4621.188704000052
 30
0.0
 40
160.0
  1
8003
  0
TEXT
  5
B344
  8
0
  6
CONTINUOUS
 62
     7
 10
23755.843861918482
 20
5421.1883740000012
 30
0.0
 40
160.0
  1
有効開口巾4912
  0
TEXT
  5
B345
  8
0
  6
CONTINUOUS
 62
     7
 10
18153.007229585161
 20
6264.271707333337
 30
0.0
 40
160.0
  1
有効開口高サ1891.5
 50
90.0
  0
TEXT
  5
B346
  8
0
  6
CONTINUOUS
 62
     7
 10
17753.007889585151
 20
6396.7717203333359
 30
0.0
 40
160.0
  1
2348.5（2588.5）
 50
90.0
  0
TEXT
  5
B347
  8
0
  6
CONTINUOUS
 62
     7
 10
20275.343861918482
 20
9469.1900499999992
 30
0.0
 40
160.0
  1
3003
  0
TEXT
  5
B348
  8
0
  6
CONTINUOUS
 62
     7
 10
18670.70254258515
 20
9469.1893240000027
 30
0.0
 40
160.0
  1
43
  0
TEXT
  5
B349
  8
0
  6
CONTINUOUS
 62
     7
 10
27220.976348585162
 20
9469.1893240000027
 30
0.0
 40
160.0
  1
43
  0
TEXT
  5
B34A
  8
0
  6
CONTINUOUS
 62
     7
 10
22762.010528585161
 20
9869.1329740000037
 30
0.0
 40
160.0
  1
8089
  0
TEXT
  5
B34B
  8
0
  6
CONTINUOUS
 62
     7
 10
10319.067339804271
 20
5021.1885390000016
 30
0.0
 40
160.0
  1
2918
  0
TEXT
  5
B34C
  8
0
  6
CONTINUOUS
 62
     7
 10
7401.06733980427
 20
5021.1885389999998
 30
0.0
 40
160.0
  1
2918
  0
TEXT
  5
B34D
  8
0
  6
CONTINUOUS
 62
     7
 10
5584.2443924709378
 20
5022.1790570000012
 30
0.0
 40
160.0
  1
42.5
  0
TEXT
  5
B34E
  8
0
  6
CONTINUOUS
 62
     7
 10
12207.235656470941
 20
5021.1883080000007
 30
0.0
 40
160.0
  1
42.5
  0
TEXT
  5
B34F
  8
0
  6
CONTINUOUS
 62
     7
 10
8860.0673398042691
 20
4621.1887040000011
 30
0.0
 40
160.0
  1
5921
  0
TEXT
  5
B350
  8
0
  6
CONTINUOUS
 62
     7
 10
4996.2336104709366
 20
6327.438374000003
 30
0.0
 40
160.0
  1
2156.5（2396.5）
 50
90.0
  0
TEXT
  5
B351
  8
0
  6
CONTINUOUS
 62
     7
 10
13097.23440247092
 20
6396.7717073333361
 30
0.0
 40
160.0
  1
2348.5（2588.5）
 50
90.0
  0
TEXT
  5
B352
  8
0
  6
CONTINUOUS
 62
     7
 10
5531.8921913358308
 20
9469.1900499999992
 30
0.0
 40
160.0
  1
180
  0
TEXT
  5
B353
  8
0
  6
CONTINUOUS
 62
     7
 10
8860.0673398042691
 20
9469.1900499999992
 30
0.0
 40
160.0
  1
5921
  0
TEXT
  5
B354
  8
0
  6
CONTINUOUS
 62
     7
 10
12303.90067313759
 20
9469.1900499999992
 30
0.0
 40
160.0
  1
150
  0
TEXT
  5
B355
  8
0
  6
CONTINUOUS
 62
     7
 10
8845.0673398042727
 20
9869.1883999999955
 30
0.0
 40
160.0
  1
6251
  0
TEXT
  5
B35B
  8
0
  6
CONTINUOUS
 62
     7
 10
28138.854152953791
 20
15004.319044333341
 30
0.0
 40
160.0
  1
2918
 50
90.0
  0
TEXT
  5
B35C
  8
0
  6
CONTINUOUS
 62
     7
 10
28138.854152953791
 20
17922.319044333341
 30
0.0
 40
160.0
  1
2918
 50
90.0
  0
TEXT
  5
B35D
  8
0
  6
CONTINUOUS
 62
     7
 10
27141.932456585138
 20
20570.484918999991
 30
0.0
 40
160.0
  1
42.5
  0
TEXT
  5
B35E
  8
0
  6
CONTINUOUS
 62
     7
 10
26463.83648958517
 20
20589.828775000002
 30
0.0
 40
160.0
  1
42.5
  0
TEXT
  5
B35F
  8
0
  6
CONTINUOUS
 62
     7
 10
20275.343861918482
 20
20970.486634999979
 30
0.0
 40
160.0
  1
2918
  0
TEXT
  5
B360
  8
0
  6
CONTINUOUS
 62
     7
 10
24247.677195251821
 20
20970.486634999979
 30
0.0
 40
160.0
  1
5000
  0
TEXT
  5
B372
  8
0
  6
CONTINUOUS
 62
     7
 10
8190.0766542700421
 20
12409.48564499999
 30
0.0
 40
160.0
  1
ケラバ外寸8089
  0
TEXT
  5
B373
  8
0
  6
CONTINUOUS
 62
     7
 10
4410.5961769367204
 20
20570.484918999991
 30
0.0
 40
160.0
  1
85.5
  0
TEXT
  5
B374
  8
0
  6
CONTINUOUS
 62
     7
 10
6178.0766542700412
 20
20570.486634999979
 30
0.0
 40
160.0
  1
2918
  0
TEXT
  5
B375
  8
0
  6
CONTINUOUS
 62
     7
 10
10150.409987603371
 20
20570.486634999979
 30
0.0
 40
160.0
  1
5000
  0
TEXT
  5
B376
  8
0
  6
CONTINUOUS
 62
     7
 10
13050.09110893672
 20
20570.484918999991
 30
0.0
 40
160.0
  1
85.5
  0
TEXT
  5
B377
  8
0
  6
CONTINUOUS
 62
     7
 10
4376.2436109367191
 20
20041.914439666671
 30
0.0
 40
160.0
  1
10
 50
90.0
  0
TEXT
  5
B378
  8
0
  6
CONTINUOUS
 62
     7
 10
3976.243544936719
 20
19948.967233389241
 30
0.0
 40
160.0
  1
222.5
 50
90.0
  0
TEXT
  5
B379
  8
0
  6
CONTINUOUS
 62
     7
 10
3976.2435449367158
 20
17922.319044333319
 30
0.0
 40
160.0
  1
2918
 50
90.0
  0
TEXT
  5
B37A
  8
0
  6
CONTINUOUS
 62
     7
 10
3976.243544936714
 20
15004.319044333341
 30
0.0
 40
160.0
  1
2918
 50
90.0
  0
TEXT
  5
B37B
  8
0
  6
CONTINUOUS
 62
     7
 10
3976.2435449367031
 20
12955.49680859056
 30
0.0
 40
160.0
  1
192.5
 50
90.0
  0
ARC
  5
B37C
  8
0
  6
BYBLOCK
 62
     0
 10
4056.243544936714
 20
13811.985710999999
 30
0.0
 40
15.0
 50
270.0
 51
90.0
  0
ARC
  5
B37D
  8
0
  6
BYBLOCK
 62
     0
 10
4056.243544936714
 20
13811.985710999999
 30
0.0
 40
15.0
 50
90.0
 51
270.0
  0
ARC
  5
B37E
  8
0
  6
BYBLOCK
 62
     0
 10
4056.243544936714
 20
13619.486437
 30
0.0
 40
15.0
 50
90.0
 51
270.0
  0
ARC
  5
B37F
  8
0
  6
BYBLOCK
 62
     0
 10
4056.243544936714
 20
13619.486437
 30
0.0
 40
15.0
 50
270.0
 51
90.0
  0
ARC
  5
B380
  8
0
  6
BYBLOCK
 62
     0
 10
4056.2435449367149
 20
16729.985711000001
 30
0.0
 40
15.0
 50
270.0
 51
90.0
  0
ARC
  5
B381
  8
0
  6
BYBLOCK
 62
     0
 10
4056.2435449367149
 20
16729.985711000001
 30
0.0
 40
15.0
 50
90.0
 51
270.0
  0
ARC
  5
B382
  8
0
  6
BYBLOCK
 62
     0
 10
4056.243544936714
 20
13811.985710999999
 30
0.0
 40
15.0
 50
90.0
 51
270.0
  0
ARC
  5
B383
  8
0
  6
BYBLOCK
 62
     0
 10
4056.243544936714
 20
13811.985710999999
 30
0.0
 40
15.0
 50
270.0
 51
90.0
  0
ARC
  5
B384
  8
0
  6
BYBLOCK
 62
     0
 10
4056.243544936719
 20
19647.985711000001
 30
0.0
 40
15.0
 50
270.0
 51
90.0
  0
ARC
  5
B385
  8
0
  6
BYBLOCK
 62
     0
 10
4056.243544936719
 20
19647.985711000001
 30
0.0
 40
15.0
 50
90.0
 51
270.0
  0
ARC
  5
B386
  8
0
  6
BYBLOCK
 62
     0
 10
4056.243544936719
 20
16729.985711000001
 30
0.0
 40
15.0
 50
90.0
 51
270.0
  0
ARC
  5
B387
  8
0
  6
BYBLOCK
 62
     0
 10
4056.243544936719
 20
16729.985711000001
 30
0.0
 40
15.0
 50
270.0
 51
90.0
  0
ARC
  5
B388
  8
0
  6
BYBLOCK
 62
     0
 10
4056.243544936719
 20
19647.985711000001
 30
0.0
 40
15.0
 50
90.0
 51
270.0
  0
ARC
  5
B389
  8
0
  6
BYBLOCK
 62
     0
 10
4056.243544936719
 20
19647.985711000001
 30
0.0
 40
15.0
 50
270.0
 51
90.0
  0
ARC
  5
B38A
  8
0
  6
BYBLOCK
 62
     0
 10
4056.243544936719
 20
19870.485579
 30
0.0
 40
15.0
 50
270.0
 51
90.0
  0
ARC
  5
B38B
  8
0
  6
BYBLOCK
 62
     0
 10
4056.243544936719
 20
19870.485579
 30
0.0
 40
15.0
 50
90.0
 51
270.0
  0
ARC
  5
B38C
  8
0
  6
BYBLOCK
 62
     0
 10
4456.2428859367174
 20
19860.48900999999
 30
0.0
 40
15.0
 50
270.0
 51
90.0
  0
ARC
  5
B38D
  8
0
  6
BYBLOCK
 62
     0
 10
4456.2428859367174
 20
19860.48900999999
 30
0.0
 40
15.0
 50
90.0
 51
270.0
  0
ARC
  5
B38E
  8
0
  6
BYBLOCK
 62
     0
 10
4456.2428859367174
 20
19870.485579
 30
0.0
 40
15.0
 50
90.0
 51
270.0
  0
ARC
  5
B38F
  8
0
  6
BYBLOCK
 62
     0
 10
4456.2428859367174
 20
19870.485579
 30
0.0
 40
15.0
 50
270.0
 51
90.0
  0
ARC
  5
B390
  8
0
  6
BYBLOCK
 62
     0
 10
12903.743320936699
 20
20490.486634999979
 30
0.0
 40
15.0
 50
180.0
 51
0.0
  0
ARC
  5
B391
  8
0
  6
BYBLOCK
 62
     0
 10
12903.743320936699
 20
20490.486634999979
 30
0.0
 40
15.0
 50
0.0
 51
180.0
  0
ARC
  5
B392
  8
0
  6
BYBLOCK
 62
     0
 10
12989.243041895499
 20
20490.445718386109
 30
0.0
 40
15.0
 50
0.0
 51
180.0
  0
ARC
  5
B393
  8
0
  6
BYBLOCK
 62
     0
 10
12989.243041895499
 20
20490.445718386109
 30
0.0
 40
15.0
 50
180.0
 51
0.0
  0
ARC
  5
B394
  8
0
  6
BYBLOCK
 62
     0
 10
7903.7433209367064
 20
20490.486634999979
 30
0.0
 40
15.0
 50
0.0
 51
180.0
  0
ARC
  5
B395
  8
0
  6
BYBLOCK
 62
     0
 10
7903.7433209367064
 20
20490.486634999979
 30
0.0
 40
15.0
 50
180.0
 51
0.0
  0
ARC
  5
B396
  8
0
  6
BYBLOCK
 62
     0
 10
12903.743320936699
 20
20490.486634999979
 30
0.0
 40
15.0
 50
180.0
 51
0.0
  0
ARC
  5
B397
  8
0
  6
BYBLOCK
 62
     0
 10
12903.743320936699
 20
20490.486634999979
 30
0.0
 40
15.0
 50
0.0
 51
180.0
  0
ARC
  5
B398
  8
0
  6
BYBLOCK
 62
     0
 10
4985.7433209367082
 20
20490.486634999979
 30
0.0
 40
15.0
 50
0.0
 51
180.0
  0
ARC
  5
B399
  8
0
  6
BYBLOCK
 62
     0
 10
4985.7433209367082
 20
20490.486634999979
 30
0.0
 40
15.0
 50
180.0
 51
0.0
  0
ARC
  5
B39A
  8
0
  6
BYBLOCK
 62
     0
 10
7903.7433209367064
 20
20490.486634999979
 30
0.0
 40
15.0
 50
180.0
 51
0.0
  0
ARC
  5
B39B
  8
0
  6
BYBLOCK
 62
     0
 10
7903.7433209367064
 20
20490.486634999979
 30
0.0
 40
15.0
 50
0.0
 51
180.0
  0
ARC
  5
B39C
  8
0
  6
BYBLOCK
 62
     0
 10
4985.7433209367082
 20
20490.486634999979
 30
0.0
 40
15.0
 50
0.0
 51
180.0
  0
ARC
  5
B39D
  8
0
  6
BYBLOCK
 62
     0
 10
4985.7433209367082
 20
20490.486634999979
 30
0.0
 40
15.0
 50
180.0
 51
0.0
  0
ARC
  5
B39E
  8
0
  6
BYBLOCK
 62
     0
 10
4900.2433209367091
 20
20490.486634999979
 30
0.0
 40
15.0
 50
180.0
 51
0.0
  0
ARC
  5
B39F
  8
0
  6
BYBLOCK
 62
     0
 10
4900.2433209367091
 20
20490.486634999979
 30
0.0
 40
15.0
 50
0.0
 51
180.0
  0
ARC
  5
B3A0
  8
0
  6
BYBLOCK
 62
     0
 10
4900.2433209367091
 20
12329.48564499999
 30
0.0
 40
15.0
 50
0.0
 51
180.0
  0
ARC
  5
B3A1
  8
0
  6
BYBLOCK
 62
     0
 10
4900.2433209367091
 20
12329.48564499999
 30
0.0
 40
15.0
 50
180.0
 51
0.0
  0
ARC
  5
B3A2
  8
0
  6
BYBLOCK
 62
     0
 10
12989.243320936699
 20
12329.48564499999
 30
0.0
 40
15.0
 50
180.0
 51
0.0
  0
ARC
  5
B3A3
  8
0
  6
BYBLOCK
 62
     0
 10
12989.243320936699
 20
12329.48564499999
 30
0.0
 40
15.0
 50
0.0
 51
180.0
  0
ARC
  5
B3E8
  8
0
  6
BYBLOCK
 62
     0
 10
22001.010528585161
 20
20890.486634999979
 30
0.0
 40
15.0
 50
0.0
 51
180.0
  0
ARC
  5
B3E9
  8
0
  6
BYBLOCK
 62
     0
 10
22001.010528585161
 20
20890.486634999979
 30
0.0
 40
15.0
 50
180.0
 51
0.0
  0
ARC
  5
B3EA
  8
0
  6
BYBLOCK
 62
     0
 10
27001.010528585161
 20
20890.486634999979
 30
0.0
 40
15.0
 50
180.0
 51
0.0
  0
ARC
  5
B3EB
  8
0
  6
BYBLOCK
 62
     0
 10
27001.010528585161
 20
20890.486634999979
 30
0.0
 40
15.0
 50
0.0
 51
180.0
  0
ARC
  5
B3EC
  8
0
  6
BYBLOCK
 62
     0
 10
19083.01052858515
 20
20890.486634999979
 30
0.0
 40
15.0
 50
0.0
 51
180.0
  0
ARC
  5
B3ED
  8
0
  6
BYBLOCK
 62
     0
 10
19083.01052858515
 20
20890.486634999979
 30
0.0
 40
15.0
 50
180.0
 51
0.0
  0
ARC
  5
B3EE
  8
0
  6
BYBLOCK
 62
     0
 10
22001.010528585161
 20
20890.486634999979
 30
0.0
 40
15.0
 50
180.0
 51
0.0
  0
ARC
  5
B3EF
  8
0
  6
BYBLOCK
 62
     0
 10
22001.010528585161
 20
20890.486634999979
 30
0.0
 40
15.0
 50
0.0
 51
180.0
  0
ARC
  5
B3F0
  8
0
  6
BYBLOCK
 62
     0
 10
27001.010528585161
 20
20490.486634999979
 30
0.0
 40
15.0
 50
0.0
 51
180.0
  0
ARC
  5
B3F1
  8
0
  6
BYBLOCK
 62
     0
 10
27001.010528585161
 20
20490.486634999979
 30
0.0
 40
15.0
 50
180.0
 51
0.0
  0
ARC
  5
B3F2
  8
0
  6
BYBLOCK
 62
     0
 10
26958.508285585162
 20
20490.486634999979
 30
0.0
 40
15.0
 50
180.0
 51
0.0
  0
ARC
  5
B3F3
  8
0
  6
BYBLOCK
 62
     0
 10
26958.508285585162
 20
20490.486634999979
 30
0.0
 40
15.0
 50
0.0
 51
180.0
  0
ARC
  5
B3F4
  8
0
  6
BYBLOCK
 62
     0
 10
27001.010528585161
 20
20490.486634999979
 30
0.0
 40
15.0
 50
180.0
 51
0.0
  0
ARC
  5
B3F5
  8
0
  6
BYBLOCK
 62
     0
 10
27001.010528585161
 20
20490.486634999979
 30
0.0
 40
15.0
 50
0.0
 51
180.0
  0
ARC
  5
B3F6
  8
0
  6
BYBLOCK
 62
     0
 10
27043.508813585158
 20
20490.486634999979
 30
0.0
 40
15.0
 50
0.0
 51
180.0
  0
ARC
  5
B3F7
  8
0
  6
BYBLOCK
 62
     0
 10
27043.508813585158
 20
20490.486634999979
 30
0.0
 40
15.0
 50
180.0
 51
0.0
  0
ARC
  5
B3F8
  8
0
  6
BYBLOCK
 62
     0
 10
28218.854152953791
 20
16729.985711000001
 30
0.0
 40
15.0
 50
90.0
 51
270.0
  0
ARC
  5
B3F9
  8
0
  6
BYBLOCK
 62
     0
 10
28218.854152953791
 20
16729.985711000001
 30
0.0
 40
15.0
 50
270.0
 51
90.0
  0
ARC
  5
B3FA
  8
0
  6
BYBLOCK
 62
     0
 10
28218.854152953791
 20
19647.985711000001
 30
0.0
 40
15.0
 50
270.0
 51
90.0
  0
ARC
  5
B3FB
  8
0
  6
BYBLOCK
 62
     0
 10
28218.854152953791
 20
19647.985711000001
 30
0.0
 40
15.0
 50
90.0
 51
270.0
  0
ARC
  5
B3FC
  8
0
  6
BYBLOCK
 62
     0
 10
28218.854152953791
 20
13811.985710999999
 30
0.0
 40
15.0
 50
90.0
 51
270.0
  0
ARC
  5
B3FD
  8
0
  6
BYBLOCK
 62
     0
 10
28218.854152953791
 20
13811.985710999999
 30
0.0
 40
15.0
 50
270.0
 51
90.0
  0
ARC
  5
B3FE
  8
0
  6
BYBLOCK
 62
     0
 10
28218.854152953791
 20
16729.985711000001
 30
0.0
 40
15.0
 50
270.0
 51
90.0
  0
ARC
  5
B3FF
  8
0
  6
BYBLOCK
 62
     0
 10
28218.854152953791
 20
16729.985711000001
 30
0.0
 40
15.0
 50
90.0
 51
270.0
  0
ARC
  5
B414
  8
0
  6
BYBLOCK
 62
     0
 10
5986.2340064709351
 20
9789.1883999999955
 30
0.0
 40
15.0
 50
0.0
 51
180.0
  0
ARC
  5
B415
  8
0
  6
BYBLOCK
 62
     0
 10
5986.2340064709351
 20
9789.1883999999955
 30
0.0
 40
15.0
 50
180.0
 51
0.0
  0
ARC
  5
B416
  8
0
  6
BYBLOCK
 62
     0
 10
12237.234006470921
 20
9789.1883999999955
 30
0.0
 40
15.0
 50
180.0
 51
0.0
  0
ARC
  5
B417
  8
0
  6
BYBLOCK
 62
     0
 10
12237.234006470921
 20
9789.1883999999955
 30
0.0
 40
15.0
 50
0.0
 51
180.0
  0
ARC
  5
B418
  8
0
  6
BYBLOCK
 62
     0
 10
12087.23400647093
 20
9389.1900499999992
 30
0.0
 40
15.0
 50
180.0
 51
0.0
  0
ARC
  5
B419
  8
0
  6
BYBLOCK
 62
     0
 10
12087.23400647093
 20
9389.1900499999992
 30
0.0
 40
15.0
 50
0.0
 51
180.0
  0
ARC
  5
B41A
  8
0
  6
BYBLOCK
 62
     0
 10
12237.234006470921
 20
9389.1900499999992
 30
0.0
 40
15.0
 50
0.0
 51
180.0
  0
ARC
  5
B41B
  8
0
  6
BYBLOCK
 62
     0
 10
12237.234006470921
 20
9389.1900499999992
 30
0.0
 40
15.0
 50
180.0
 51
0.0
  0
ARC
  5
B41C
  8
0
  6
BYBLOCK
 62
     0
 10
6166.234006470936
 20
9389.1900499999992
 30
0.0
 40
15.0
 50
0.0
 51
180.0
  0
ARC
  5
B41D
  8
0
  6
BYBLOCK
 62
     0
 10
6166.234006470936
 20
9389.1900499999992
 30
0.0
 40
15.0
 50
180.0
 51
0.0
  0
ARC
  5
B41E
  8
0
  6
BYBLOCK
 62
     0
 10
12087.23400647093
 20
9389.1900499999992
 30
0.0
 40
15.0
 50
180.0
 51
0.0
  0
ARC
  5
B41F
  8
0
  6
BYBLOCK
 62
     0
 10
12087.23400647093
 20
9389.1900499999992
 30
0.0
 40
15.0
 50
0.0
 51
180.0
  0
ARC
  5
B420
  8
0
  6
BYBLOCK
 62
     0
 10
5986.2340064709351
 20
9389.1900499999992
 30
0.0
 40
15.0
 50
0.0
 51
180.0
  0
ARC
  5
B421
  8
0
  6
BYBLOCK
 62
     0
 10
5986.2340064709351
 20
9389.1900499999992
 30
0.0
 40
15.0
 50
180.0
 51
0.0
  0
ARC
  5
B422
  8
0
  6
BYBLOCK
 62
     0
 10
6166.234006470936
 20
9389.1900499999992
 30
0.0
 40
15.0
 50
180.0
 51
0.0
  0
ARC
  5
B423
  8
0
  6
BYBLOCK
 62
     0
 10
6166.234006470936
 20
9389.1900499999992
 30
0.0
 40
15.0
 50
0.0
 51
180.0
  0
ARC
  5
B424
  8
0
  6
BYBLOCK
 62
     0
 10
13177.23440247092
 20
6241.1883740000012
 30
0.0
 40
15.0
 50
90.0
 51
270.0
  0
ARC
  5
B425
  8
0
  6
BYBLOCK
 62
     0
 10
13177.23440247092
 20
6241.1883740000012
 30
0.0
 40
15.0
 50
270.0
 51
90.0
  0
ARC
  5
B426
  8
0
  6
BYBLOCK
 62
     0
 10
13177.23440247092
 20
8589.6883739999976
 30
0.0
 40
15.0
 50
270.0
 51
90.0
  0
ARC
  5
B427
  8
0
  6
BYBLOCK
 62
     0
 10
13177.23440247092
 20
8589.6883739999976
 30
0.0
 40
15.0
 50
90.0
 51
270.0
  0
ARC
  5
B428
  8
0
  6
BYBLOCK
 62
     0
 10
5076.2336104709384
 20
6241.1883740000012
 30
0.0
 40
15.0
 50
90.0
 51
270.0
  0
ARC
  5
B429
  8
0
  6
BYBLOCK
 62
     0
 10
5076.2336104709384
 20
6241.1883740000012
 30
0.0
 40
15.0
 50
270.0
 51
90.0
  0
ARC
  5
B42A
  8
0
  6
BYBLOCK
 62
     0
 10
5076.2336104709384
 20
8397.688374000003
 30
0.0
 40
15.0
 50
270.0
 51
90.0
  0
ARC
  5
B42B
  8
0
  6
BYBLOCK
 62
     0
 10
5076.2336104709384
 20
8397.688374000003
 30
0.0
 40
15.0
 50
90.0
 51
270.0
  0
ARC
  5
B42C
  8
0
  6
BYBLOCK
 62
     0
 10
6166.234006470936
 20
4541.1887040000011
 30
0.0
 40
15.0
 50
0.0
 51
180.0
  0
ARC
  5
B42D
  8
0
  6
BYBLOCK
 62
     0
 10
6166.234006470936
 20
4541.1887040000011
 30
0.0
 40
15.0
 50
180.0
 51
0.0
  0
ARC
  5
B42E
  8
0
  6
BYBLOCK
 62
     0
 10
12087.23400647093
 20
4541.1887040000011
 30
0.0
 40
15.0
 50
180.0
 51
0.0
  0
ARC
  5
B42F
  8
0
  6
BYBLOCK
 62
     0
 10
12087.23400647093
 20
4541.1887040000011
 30
0.0
 40
15.0
 50
0.0
 51
180.0
  0
ARC
  5
B430
  8
0
  6
BYBLOCK
 62
     0
 10
12044.734006470921
 20
4941.1885390000016
 30
0.0
 40
15.0
 50
180.0
 51
0.0
  0
ARC
  5
B431
  8
0
  6
BYBLOCK
 62
     0
 10
12044.734006470921
 20
4941.1885390000016
 30
0.0
 40
15.0
 50
0.0
 51
180.0
  0
ARC
  5
B432
  8
0
  6
BYBLOCK
 62
     0
 10
12087.23400647093
 20
4941.1885390000016
 30
0.0
 40
15.0
 50
0.0
 51
180.0
  0
ARC
  5
B433
  8
0
  6
BYBLOCK
 62
     0
 10
12087.23400647093
 20
4941.1885390000016
 30
0.0
 40
15.0
 50
180.0
 51
0.0
  0
ARC
  5
B434
  8
0
  6
BYBLOCK
 62
     0
 10
6208.7340064709351
 20
4941.1885390000016
 30
0.0
 40
15.0
 50
0.0
 51
180.0
  0
ARC
  5
B435
  8
0
  6
BYBLOCK
 62
     0
 10
6208.7340064709351
 20
4941.1885390000016
 30
0.0
 40
15.0
 50
180.0
 51
0.0
  0
ARC
  5
B436
  8
0
  6
BYBLOCK
 62
     0
 10
6166.234006470936
 20
4941.1885390000016
 30
0.0
 40
15.0
 50
180.0
 51
0.0
  0
ARC
  5
B437
  8
0
  6
BYBLOCK
 62
     0
 10
6166.234006470936
 20
4941.1885390000016
 30
0.0
 40
15.0
 50
0.0
 51
180.0
  0
ARC
  5
B438
  8
0
  6
BYBLOCK
 62
     0
 10
9126.7340064709388
 20
4941.1885390000016
 30
0.0
 40
15.0
 50
180.0
 51
0.0
  0
ARC
  5
B439
  8
0
  6
BYBLOCK
 62
     0
 10
9126.7340064709388
 20
4941.1885390000016
 30
0.0
 40
15.0
 50
0.0
 51
180.0
  0
ARC
  5
B43A
  8
0
  6
BYBLOCK
 62
     0
 10
6208.7340064709351
 20
4941.1885390000016
 30
0.0
 40
15.0
 50
0.0
 51
180.0
  0
ARC
  5
B43B
  8
0
  6
BYBLOCK
 62
     0
 10
6208.7340064709351
 20
4941.1885390000016
 30
0.0
 40
15.0
 50
180.0
 51
0.0
  0
ARC
  5
B43C
  8
0
  6
BYBLOCK
 62
     0
 10
9126.7340064709388
 20
4941.1885390000016
 30
0.0
 40
15.0
 50
0.0
 51
180.0
  0
ARC
  5
B43D
  8
0
  6
BYBLOCK
 62
     0
 10
9126.7340064709388
 20
4941.1885390000016
 30
0.0
 40
15.0
 50
180.0
 51
0.0
  0
ARC
  5
B43E
  8
0
  6
BYBLOCK
 62
     0
 10
12044.734006470921
 20
4941.1885390000016
 30
0.0
 40
15.0
 50
180.0
 51
0.0
  0
ARC
  5
B43F
  8
0
  6
BYBLOCK
 62
     0
 10
12044.734006470921
 20
4941.1885390000016
 30
0.0
 40
15.0
 50
0.0
 51
180.0
  0
ARC
  5
B440
  8
0
  6
BYBLOCK
 62
     0
 10
18997.51052858515
 20
9789.1329740000037
 30
0.0
 40
15.0
 50
0.0
 51
180.0
  0
ARC
  5
B441
  8
0
  6
BYBLOCK
 62
     0
 10
18997.51052858515
 20
9789.1329740000037
 30
0.0
 40
15.0
 50
180.0
 51
0.0
  0
ARC
  5
B442
  8
0
  6
BYBLOCK
 62
     0
 10
27086.510528585161
 20
9789.1329740000037
 30
0.0
 40
15.0
 50
180.0
 51
0.0
  0
ARC
  5
B443
  8
0
  6
BYBLOCK
 62
     0
 10
27086.510528585161
 20
9789.1329740000037
 30
0.0
 40
15.0
 50
0.0
 51
180.0
  0
ARC
  5
B444
  8
0
  6
BYBLOCK
 62
     0
 10
27043.510528585171
 20
9389.1900499999992
 30
0.0
 40
15.0
 50
180.0
 51
0.0
  0
ARC
  5
B445
  8
0
  6
BYBLOCK
 62
     0
 10
27043.510528585171
 20
9389.1900499999992
 30
0.0
 40
15.0
 50
0.0
 51
180.0
  0
ARC
  5
B446
  8
0
  6
BYBLOCK
 62
     0
 10
27086.510528585161
 20
9389.1900499999992
 30
0.0
 40
15.0
 50
0.0
 51
180.0
  0
ARC
  5
B447
  8
0
  6
BYBLOCK
 62
     0
 10
27086.510528585161
 20
9389.1900499999992
 30
0.0
 40
15.0
 50
180.0
 51
0.0
  0
ARC
  5
B448
  8
0
  6
BYBLOCK
 62
     0
 10
19040.51052858515
 20
9389.1900499999992
 30
0.0
 40
15.0
 50
0.0
 51
180.0
  0
ARC
  5
B449
  8
0
  6
BYBLOCK
 62
     0
 10
19040.51052858515
 20
9389.1900499999992
 30
0.0
 40
15.0
 50
180.0
 51
0.0
  0
ARC
  5
B44A
  8
0
  6
BYBLOCK
 62
     0
 10
18997.51052858515
 20
9389.1900499999992
 30
0.0
 40
15.0
 50
180.0
 51
0.0
  0
ARC
  5
B44B
  8
0
  6
BYBLOCK
 62
     0
 10
18997.51052858515
 20
9389.1900499999992
 30
0.0
 40
15.0
 50
0.0
 51
180.0
  0
ARC
  5
B44C
  8
0
  6
BYBLOCK
 62
     0
 10
22043.510528585161
 20
9389.1900499999992
 30
0.0
 40
15.0
 50
180.0
 51
0.0
  0
ARC
  5
B44D
  8
0
  6
BYBLOCK
 62
     0
 10
22043.510528585161
 20
9389.1900499999992
 30
0.0
 40
15.0
 50
0.0
 51
180.0
  0
ARC
  5
B44E
  8
0
  6
BYBLOCK
 62
     0
 10
19040.51052858515
 20
9389.1900499999992
 30
0.0
 40
15.0
 50
0.0
 51
180.0
  0
ARC
  5
B44F
  8
0
  6
BYBLOCK
 62
     0
 10
19040.51052858515
 20
9389.1900499999992
 30
0.0
 40
15.0
 50
180.0
 51
0.0
  0
ARC
  5
B450
  8
0
  6
BYBLOCK
 62
     0
 10
17833.007889585151
 20
6241.1883740000021
 30
0.0
 40
15.0
 50
90.0
 51
270.0
  0
ARC
  5
B451
  8
0
  6
BYBLOCK
 62
     0
 10
17833.007889585151
 20
6241.1883740000021
 30
0.0
 40
15.0
 50
270.0
 51
90.0
  0
ARC
  5
B452
  8
0
  6
BYBLOCK
 62
     0
 10
17833.007889585151
 20
8589.6883999999973
 30
0.0
 40
15.0
 50
270.0
 51
90.0
  0
ARC
  5
B453
  8
0
  6
BYBLOCK
 62
     0
 10
17833.007889585151
 20
8589.6883999999973
 30
0.0
 40
15.0
 50
90.0
 51
270.0
  0
ARC
  5
B454
  8
0
  6
BYBLOCK
 62
     0
 10
18233.007229585161
 20
6241.1883740000021
 30
0.0
 40
15.0
 50
90.0
 51
270.0
  0
ARC
  5
B455
  8
0
  6
BYBLOCK
 62
     0
 10
18233.007229585161
 20
6241.1883740000021
 30
0.0
 40
15.0
 50
270.0
 51
90.0
  0
ARC
  5
B456
  8
0
  6
BYBLOCK
 62
     0
 10
18233.007229585161
 20
8132.6883740000021
 30
0.0
 40
15.0
 50
270.0
 51
90.0
  0
ARC
  5
B457
  8
0
  6
BYBLOCK
 62
     0
 10
18233.007229585161
 20
8132.6883740000021
 30
0.0
 40
15.0
 50
90.0
 51
270.0
  0
ARC
  5
B458
  8
0
  6
BYBLOCK
 62
     0
 10
22046.510528585161
 20
5341.1883740000012
 30
0.0
 40
15.0
 50
0.0
 51
180.0
  0
ARC
  5
B459
  8
0
  6
BYBLOCK
 62
     0
 10
22046.510528585161
 20
5341.1883740000012
 30
0.0
 40
15.0
 50
180.0
 51
0.0
  0
ARC
  5
B45A
  8
0
  6
BYBLOCK
 62
     0
 10
26958.510528585161
 20
5341.1883740000012
 30
0.0
 40
15.0
 50
180.0
 51
0.0
  0
ARC
  5
B45B
  8
0
  6
BYBLOCK
 62
     0
 10
26958.510528585161
 20
5341.1883740000012
 30
0.0
 40
15.0
 50
0.0
 51
180.0
  0
ARC
  5
B45C
  8
0
  6
BYBLOCK
 62
     0
 10
19040.550481532679
 20
4541.188704000052
 30
0.0
 40
15.0
 50
0.0
 51
180.0
  0
ARC
  5
B45D
  8
0
  6
BYBLOCK
 62
     0
 10
19040.550481532679
 20
4541.188704000052
 30
0.0
 40
15.0
 50
180.0
 51
0.0
  0
ARC
  5
B45E
  8
0
  6
BYBLOCK
 62
     0
 10
27043.510528585161
 20
4541.188704000052
 30
0.0
 40
15.0
 50
180.0
 51
0.0
  0
ARC
  5
B45F
  8
0
  6
BYBLOCK
 62
     0
 10
27043.510528585161
 20
4541.188704000052
 30
0.0
 40
15.0
 50
0.0
 51
180.0
  0
ARC
  5
B460
  8
0
  6
BYBLOCK
 62
     0
 10
19083.01052858515
 20
4941.1885390000016
 30
0.0
 40
15.0
 50
0.0
 51
180.0
  0
ARC
  5
B461
  8
0
  6
BYBLOCK
 62
     0
 10
19083.01052858515
 20
4941.1885390000016
 30
0.0
 40
15.0
 50
180.0
 51
0.0
  0
ARC
  5
B462
  8
0
  6
BYBLOCK
 62
     0
 10
19040.550481532679
 20
4941.1885390000016
 30
0.0
 40
15.0
 50
180.0
 51
0.0
  0
ARC
  5
B463
  8
0
  6
BYBLOCK
 62
     0
 10
19040.550481532679
 20
4941.1885390000016
 30
0.0
 40
15.0
 50
0.0
 51
180.0
  0
ARC
  5
B464
  8
0
  6
BYBLOCK
 62
     0
 10
22001.010528585161
 20
4941.1885390000016
 30
0.0
 40
15.0
 50
180.0
 51
0.0
  0
ARC
  5
B465
  8
0
  6
BYBLOCK
 62
     0
 10
22001.010528585161
 20
4941.1885390000016
 30
0.0
 40
15.0
 50
0.0
 51
180.0
  0
ARC
  5
B466
  8
0
  6
BYBLOCK
 62
     0
 10
19083.01052858515
 20
4941.1885390000016
 30
0.0
 40
15.0
 50
0.0
 51
180.0
  0
ARC
  5
B467
  8
0
  6
BYBLOCK
 62
     0
 10
19083.01052858515
 20
4941.1885390000016
 30
0.0
 40
15.0
 50
180.0
 51
0.0
  0
ARC
  5
B468
  8
0
  6
BYBLOCK
 62
     0
 10
19177.010528585139
 20
5341.1883740000012
 30
0.0
 40
15.0
 50
0.0
 51
180.0
  0
ARC
  5
B469
  8
0
  6
BYBLOCK
 62
     0
 10
19177.010528585139
 20
5341.1883740000012
 30
0.0
 40
15.0
 50
180.0
 51
0.0
  0
ARC
  5
B46A
  8
0
  6
BYBLOCK
 62
     0
 10
21907.010528585161
 20
5341.1883740000012
 30
0.0
 40
15.0
 50
180.0
 51
0.0
  0
ARC
  5
B46B
  8
0
  6
BYBLOCK
 62
     0
 10
21907.010528585161
 20
5341.1883740000012
 30
0.0
 40
15.0
 50
0.0
 51
180.0
  0
ARC
  5
B46C
  8
0
  6
BYBLOCK
 62
     0
 10
27001.010528585161
 20
4941.1885389999998
 30
0.0
 40
15.0
 50
180.0
 51
0.0
  0
ARC
  5
B46D
  8
0
  6
BYBLOCK
 62
     0
 10
27001.010528585161
 20
4941.1885389999998
 30
0.0
 40
15.0
 50
0.0
 51
180.0
  0
ARC
  5
B46E
  8
0
  6
BYBLOCK
 62
     0
 10
27043.510528585161
 20
4941.1885389999998
 30
0.0
 40
15.0
 50
0.0
 51
180.0
  0
ARC
  5
B46F
  8
0
  6
BYBLOCK
 62
     0
 10
27043.510528585161
 20
4941.1885389999998
 30
0.0
 40
15.0
 50
180.0
 51
0.0
  0
ARC
  5
B470
  8
0
  6
BYBLOCK
 62
     0
 10
22001.010528585161
 20
4941.1885389999998
 30
0.0
 40
15.0
 50
0.0
 51
180.0
  0
ARC
  5
B471
  8
0
  6
BYBLOCK
 62
     0
 10
22001.010528585161
 20
4941.1885389999998
 30
0.0
 40
15.0
 50
180.0
 51
0.0
  0
ARC
  5
B472
  8
0
  6
BYBLOCK
 62
     0
 10
27001.010528585161
 20
4941.1885389999998
 30
0.0
 40
15.0
 50
180.0
 51
0.0
  0
ARC
  5
B473
  8
0
  6
BYBLOCK
 62
     0
 10
27001.010528585161
 20
4941.1885389999998
 30
0.0
 40
15.0
 50
0.0
 51
180.0
  0
ARC
  5
B474
  8
0
  6
BYBLOCK
 62
     0
 10
22043.510528585161
 20
9389.1900499999992
 30
0.0
 40
15.0
 50
0.0
 51
180.0
  0
ARC
  5
B475
  8
0
  6
BYBLOCK
 62
     0
 10
22043.510528585161
 20
9389.1900499999992
 30
0.0
 40
15.0
 50
180.0
 51
0.0
  0
ARC
  5
B476
  8
0
  6
BYBLOCK
 62
     0
 10
27043.510528585171
 20
9389.1900499999992
 30
0.0
 40
15.0
 50
180.0
 51
0.0
  0
ARC
  5
B477
  8
0
  6
BYBLOCK
 62
     0
 10
27043.510528585171
 20
9389.1900499999992
 30
0.0
 40
15.0
 50
0.0
 51
180.0
  0
ARC
  5
B478
  8
0
  6
BYBLOCK
 62
     0
 10
28253.332926879531
 20
6242.0026620000026
 30
0.0
 40
15.0
 50
90.0
 51
270.0
  0
ARC
  5
B479
  8
0
  6
BYBLOCK
 62
     0
 10
28253.332926879531
 20
6242.0026620000026
 30
0.0
 40
15.0
 50
270.0
 51
90.0
  0
ARC
  5
B47A
  8
0
  6
BYBLOCK
 62
     0
 10
28253.332926879531
 20
8262.0026620000026
 30
0.0
 40
15.0
 50
270.0
 51
90.0
  0
ARC
  5
B47B
  8
0
  6
BYBLOCK
 62
     0
 10
28253.332926879531
 20
8262.0026620000026
 30
0.0
 40
15.0
 50
90.0
 51
270.0
  0
TEXT
  5
B552
  8
NAME
 10
21595.82616625919
 20
1076.6369801169251
 30
0.0
 40
360.0
  1
VGC-3059（H）+VKC-5059（H）型-R（単棟）
 41
0.45
  0
TEXT
  5
B553
  8
NAME
 10
21933.552716389011
 20
1876.0
 30
0.0
 40
360.0
  1
ヨドガレージ ラヴィージュ
 41
0.75
  7
01
  0
LINE
  5
B554
  8
NAME
  6
CONTINUOUS
 10
26067.886878884299
 20
2236.0
 30
0.0
 11
26067.886878884299
 21
1876.0
 31
0.0
  0
LINE
  5
B555
  8
NAME
  6
CONTINUOUS
 10
26167.886878884299
 20
2236.0
 30
0.0
 11
26167.886878884299
 21
1876.0
 31
0.0
  0
LINE
  5
B556
  8
NAME
  6
CONTINUOUS
 10
26267.88687888431
 20
2236.0
 30
0.0
 11
26267.88687888431
 21
1876.0
 31
0.0
  0
LINE
  5
B557
  8
NAME
  6
CONTINUOUS
 10
26007.886878884299
 20
2236.0
 30
0.0
 11
26327.886878884299
 21
2236.0
 31
0.0
  0
LINE
  5
B558
  8
NAME
  6
CONTINUOUS
 10
26327.886878884299
 20
1876.0
 30
0.0
 11
26007.886878884299
 21
1876.0
 31
0.0
  0
LINE
  5
B7E1
  8
2-0
  6
CONTINUOUS
 62
     6
 10
20766.16944458515
 20
13171.984589
 30
0.0
 11
19766.176042585179
 21
13171.984589
 31
0.0
  0
LINE
  5
B7E2
  8
2-0
  6
CONTINUOUS
 62
     6
 10
19298.23566558514
 20
13642.405303
 30
0.0
 11
19766.176042585179
 21
13171.984589
 31
0.0
  0
LINE
  5
B7E3
  8
2-0
  6
CONTINUOUS
 62
     6
 10
19336.875868585172
 20
16834.012949999989
 30
0.0
 11
19641.571286585149
 21
16937.666481000018
 31
0.0
  0
LINE
  5
B7E4
  8
2-0
  6
CONTINUOUS
 62
     6
 10
19181.85382958519
 20
16344.390906000021
 30
0.0
 11
19641.571286585149
 21
16100.477595000009
 31
0.0
  0
LINE
  5
B7E5
  8
2-0
  6
CONTINUOUS
 62
     6
 10
20561.574321585169
 20
16100.477595000009
 30
0.0
 11
19641.571286585149
 21
16100.477595000009
 31
0.0
  0
LINE
  5
B7E6
  8
2-0
  6
CONTINUOUS
 62
     6
 10
20841.565348585162
 20
16937.666481000018
 30
0.0
 11
19641.571286585149
 21
16937.666481000018
 31
0.0
  0
LINE
  5
B7E7
  8
2-0
  6
CONTINUOUS
 62
     6
 10
19265.67654458516
 20
13964.088948999981
 30
0.0
 11
19641.571286585149
 21
14145.032784000001
 31
0.0
  0
LINE
  5
B7E8
  8
2-0
  6
CONTINUOUS
 62
     6
 10
20161.573002585159
 20
14145.032784000001
 30
0.0
 11
19641.571286585149
 21
14145.032784000001
 31
0.0
  0
LINE
  5
B7E9
  8
2-0
  6
CONTINUOUS
 62
     4
 10
19083.01052858515
 20
19770.48623900002
 30
0.0
 11
19083.01052858515
 21
20500.483204
 31
0.0
  0
LINE
  5
B7EA
  8
2-0
  6
CONTINUOUS
 62
     3
 10
22013.51118858514
 20
19581.483785000011
 30
0.0
 11
22013.51118858514
 21
19575.48782300001
 31
0.0
  0
LINE
  5
B7EB
  8
2-0
  6
CONTINUOUS
 62
     3
 10
22013.51118858514
 20
19575.48782300001
 30
0.0
 11
22043.508812585129
 21
19575.48782300001
 31
0.0
  0
LINE
  5
B7EC
  8
2-0
  6
CONTINUOUS
 62
     3
 10
22043.508812585129
 20
19605.487427
 30
0.0
 11
21962.506912585141
 21
19605.487427
 31
0.0
  0
LINE
  5
B7ED
  8
2-0
  6
CONTINUOUS
 62
     3
 10
22013.51118858514
 20
19565.190366999999
 30
0.0
 11
22043.508812585129
 21
19565.190366999999
 31
0.0
  0
LINE
  5
B7EE
  8
2-0
  6
CONTINUOUS
 62
     3
 10
22013.51118858514
 20
19583.192109
 30
0.0
 11
22013.51118858514
 21
19565.190366999999
 31
0.0
  0
LINE
  5
B7EF
  8
2-0
  6
CONTINUOUS
 62
     3
 10
22038.50854858513
 20
19583.192109
 30
0.0
 11
22013.51118858514
 21
19583.192109
 31
0.0
  0
LINE
  5
B7F0
  8
2-0
  6
CONTINUOUS
 62
     3
 10
22038.50854858513
 20
19578.183927000009
 30
0.0
 11
22038.50854858513
 21
19583.192109
 31
0.0
  0
LINE
  5
B7F1
  8
2-0
  6
CONTINUOUS
 62
     3
 10
22031.506991585149
 20
19578.183927000009
 30
0.0
 11
22038.50854858513
 21
19578.183927000009
 31
0.0
  0
LINE
  5
B7F2
  8
2-0
  6
CONTINUOUS
 62
     3
 10
21931.21072358514
 20
19678.48415400002
 30
0.0
 11
21931.21072358514
 21
19685.48967000001
 31
0.0
  0
LINE
  5
B7F3
  8
2-0
  6
CONTINUOUS
 62
     3
 10
21931.21072358514
 20
19685.48967000001
 30
0.0
 11
21936.210987585098
 21
19685.48967000001
 31
0.0
  0
LINE
  5
B7F4
  8
2-0
  6
CONTINUOUS
 62
     3
 10
21936.210987585098
 20
19685.48967000001
 30
0.0
 11
21936.210987585098
 21
19660.480433000001
 31
0.0
  0
LINE
  5
B7F5
  8
2-0
  6
CONTINUOUS
 62
     3
 10
21936.210987585098
 20
19660.480433000001
 30
0.0
 11
21918.20924558512
 21
19660.480433000001
 31
0.0
  0
LINE
  5
B7F6
  8
2-0
  6
CONTINUOUS
 62
     3
 10
21918.20924558512
 20
19660.480433000001
 30
0.0
 11
21918.20924558512
 21
19690.48399600001
 31
0.0
  0
LINE
  5
B7F7
  8
2-0
  6
CONTINUOUS
 62
     3
 10
21928.506701585138
 20
19690.48399600001
 30
0.0
 11
22043.508812585129
 21
19690.48399600001
 31
0.0
  0
LINE
  5
B7F8
  8
2-0
  6
CONTINUOUS
 62
     3
 10
21928.506701585138
 20
19660.480433000001
 30
0.0
 11
21928.506701585138
 21
19690.48399600001
 31
0.0
  0
LINE
  5
B7F9
  8
2-0
  6
CONTINUOUS
 62
     3
 10
21934.50860158513
 20
19660.480433000001
 30
0.0
 11
21928.506701585138
 21
19660.480433000001
 31
0.0
  0
LINE
  5
B7FA
  8
2-0
  6
CONTINUOUS
 62
     3
 10
22031.506991585149
 20
18874.387104499991
 30
0.0
 11
22038.50854858513
 21
18874.387104499991
 31
0.0
  0
LINE
  5
B7FB
  8
2-0
  6
CONTINUOUS
 62
     3
 10
22038.50854858513
 20
18874.387104499991
 30
0.0
 11
22038.50854858513
 21
18879.3873685
 31
0.0
  0
LINE
  5
B7FC
  8
2-0
  6
CONTINUOUS
 62
     3
 10
22038.50854858513
 20
18879.3873685
 30
0.0
 11
22013.51118858514
 21
18879.3873685
 31
0.0
  0
LINE
  5
B7FD
  8
2-0
  6
CONTINUOUS
 62
     3
 10
22013.51118858514
 20
18879.3873685
 30
0.0
 11
22013.51118858514
 21
18861.391564500002
 31
0.0
  0
LINE
  5
B7FE
  8
2-0
  6
CONTINUOUS
 62
     3
 10
22013.51118858514
 20
18861.391564500002
 30
0.0
 11
22043.508812585129
 21
18861.391564500002
 31
0.0
  0
LINE
  5
B7FF
  8
2-0
  6
CONTINUOUS
 62
     3
 10
22013.51118858514
 20
18877.483071499959
 30
0.0
 11
22013.51118858514
 21
18871.485130500001
 31
0.0
  0
LINE
  5
B800
  8
2-0
  6
CONTINUOUS
 62
     3
 10
22013.51118858514
 20
18871.485130500001
 30
0.0
 11
22043.508812585129
 21
18871.485130500001
 31
0.0
  0
LINE
  5
B801
  8
2-0
  6
CONTINUOUS
 62
     3
 10
22043.508812585129
 20
18871.485130500001
 30
0.0
 11
22043.508812585129
 21
18908.48629149999
 31
0.0
  0
LINE
  5
B802
  8
2-0
  6
CONTINUOUS
 62
     3
 10
22013.51118858514
 20
18908.48629149999
 30
0.0
 11
22043.508812585129
 21
18908.48629149999
 31
0.0
  0
LINE
  5
B803
  8
2-0
  6
CONTINUOUS
 62
     3
 10
22013.51118858514
 20
18902.48241149999
 30
0.0
 11
22013.51118858514
 21
18908.48629149999
 31
0.0
  0
LINE
  5
B804
  8
2-0
  6
CONTINUOUS
 62
     3
 10
22013.51118858514
 20
18918.58183649999
 30
0.0
 11
22043.508812585129
 21
18918.58183649999
 31
0.0
  0
LINE
  5
B805
  8
2-0
  6
CONTINUOUS
 62
     3
 10
22013.51118858514
 20
18900.580094500001
 30
0.0
 11
22013.51118858514
 21
18918.58183649999
 31
0.0
  0
LINE
  5
B806
  8
2-0
  6
CONTINUOUS
 62
     3
 10
22038.50854858513
 20
18900.580094500001
 30
0.0
 11
22013.51118858514
 21
18900.580094500001
 31
0.0
  0
LINE
  5
B807
  8
2-0
  6
CONTINUOUS
 62
     3
 10
22038.50854858513
 20
18905.580358499999
 30
0.0
 11
22038.50854858513
 21
18900.580094500001
 31
0.0
  0
LINE
  5
B808
  8
2-0
  6
CONTINUOUS
 62
     3
 10
22031.506991585149
 20
18905.580358499999
 30
0.0
 11
22038.50854858513
 21
18905.580358499999
 31
0.0
  0
LINE
  5
B809
  8
2-0
  6
CONTINUOUS
 62
     3
 10
22031.506991585149
 20
18173.386115000001
 30
0.0
 11
22038.50854858513
 21
18173.386115000001
 31
0.0
  0
LINE
  5
B80A
  8
2-0
  6
CONTINUOUS
 62
     3
 10
22038.50854858513
 20
18173.386115000001
 30
0.0
 11
22038.50854858513
 21
18178.392317000002
 31
0.0
  0
LINE
  5
B80B
  8
2-0
  6
CONTINUOUS
 62
     3
 10
22038.50854858513
 20
18178.392317000002
 30
0.0
 11
22013.51118858514
 21
18178.392317000002
 31
0.0
  0
LINE
  5
B80C
  8
2-0
  6
CONTINUOUS
 62
     3
 10
22013.51118858514
 20
18178.392317000002
 30
0.0
 11
22013.51118858514
 21
18160.390575000009
 31
0.0
  0
LINE
  5
B80D
  8
2-0
  6
CONTINUOUS
 62
     3
 10
22013.51118858514
 20
18160.390575000009
 30
0.0
 11
22043.508812585129
 21
18160.390575000009
 31
0.0
  0
LINE
  5
B80E
  8
2-0
  6
CONTINUOUS
 62
     3
 10
22013.51118858514
 20
18176.482081999991
 30
0.0
 11
22013.51118858514
 21
18170.48611999999
 31
0.0
  0
LINE
  5
B80F
  8
2-0
  6
CONTINUOUS
 62
     3
 10
22013.51118858514
 20
18170.48611999999
 30
0.0
 11
22043.508812585129
 21
18170.48611999999
 31
0.0
  0
LINE
  5
B810
  8
2-0
  6
CONTINUOUS
 62
     3
 10
22043.508812585129
 20
18170.48611999999
 30
0.0
 11
22043.508812585129
 21
18207.48530199999
 31
0.0
  0
LINE
  5
B811
  8
2-0
  6
CONTINUOUS
 62
     3
 10
22013.51118858514
 20
18207.48530199999
 30
0.0
 11
22043.508812585129
 21
18207.48530199999
 31
0.0
  0
LINE
  5
B812
  8
2-0
  6
CONTINUOUS
 62
     3
 10
22013.51118858514
 20
18201.48934
 30
0.0
 11
22013.51118858514
 21
18207.48530199999
 31
0.0
  0
LINE
  5
B813
  8
2-0
  6
CONTINUOUS
 62
     3
 10
22013.51118858514
 20
18217.580847000008
 30
0.0
 11
22043.508812585129
 21
18217.580847000008
 31
0.0
  0
LINE
  5
B814
  8
2-0
  6
CONTINUOUS
 62
     3
 10
22013.51118858514
 20
18199.579105000001
 30
0.0
 11
22013.51118858514
 21
18217.580847000008
 31
0.0
  0
LINE
  5
B815
  8
2-0
  6
CONTINUOUS
 62
     3
 10
22038.50854858513
 20
18199.579105000001
 30
0.0
 11
22013.51118858514
 21
18199.579105000001
 31
0.0
  0
LINE
  5
B816
  8
2-0
  6
CONTINUOUS
 62
     3
 10
22038.50854858513
 20
18204.58530699999
 30
0.0
 11
22038.50854858513
 21
18199.579105000001
 31
0.0
  0
LINE
  5
B817
  8
2-0
  6
CONTINUOUS
 62
     3
 10
22031.506991585149
 20
18204.58530699999
 30
0.0
 11
22038.50854858513
 21
18204.58530699999
 31
0.0
  0
LINE
  5
B818
  8
2-0
  6
CONTINUOUS
 62
     3
 10
22031.506991585149
 20
17503.579368999999
 30
0.0
 11
22038.50854858513
 21
17503.579368999999
 31
0.0
  0
LINE
  5
B819
  8
2-0
  6
CONTINUOUS
 62
     3
 10
22038.50854858513
 20
17503.579368999999
 30
0.0
 11
22038.50854858513
 21
17498.590982000002
 31
0.0
  0
LINE
  5
B81A
  8
2-0
  6
CONTINUOUS
 62
     3
 10
22038.50854858513
 20
17498.590982000002
 30
0.0
 11
22013.51118858514
 21
17498.590982000002
 31
0.0
  0
LINE
  5
B81B
  8
2-0
  6
CONTINUOUS
 62
     3
 10
22013.51118858514
 20
17498.590982000002
 30
0.0
 11
22013.51118858514
 21
17516.586785
 31
0.0
  0
LINE
  5
B81C
  8
2-0
  6
CONTINUOUS
 62
     3
 10
22013.51118858514
 20
17516.586785
 30
0.0
 11
22043.508812585129
 21
17516.586785
 31
0.0
  0
LINE
  5
B81D
  8
2-0
  6
CONTINUOUS
 62
     3
 10
22013.51118858514
 20
17500.48934
 30
0.0
 11
22013.51118858514
 21
17506.485302000001
 31
0.0
  0
LINE
  5
B81E
  8
2-0
  6
CONTINUOUS
 62
     3
 10
22013.51118858514
 20
17506.485302000001
 30
0.0
 11
22043.508812585129
 21
17506.485302000001
 31
0.0
  0
LINE
  5
B81F
  8
2-0
  6
CONTINUOUS
 62
     3
 10
22043.508812585129
 20
17506.485302000001
 30
0.0
 11
22043.508812585129
 21
17469.486120000009
 31
0.0
  0
LINE
  5
B820
  8
2-0
  6
CONTINUOUS
 62
     3
 10
22013.51118858514
 20
17469.486120000009
 30
0.0
 11
22043.508812585129
 21
17469.486120000009
 31
0.0
  0
LINE
  5
B821
  8
2-0
  6
CONTINUOUS
 62
     3
 10
22013.51118858514
 20
17475.48802099999
 30
0.0
 11
22013.51118858514
 21
17469.486120000009
 31
0.0
  0
LINE
  5
B822
  8
2-0
  6
CONTINUOUS
 62
     3
 10
22013.51118858514
 20
17459.396514
 30
0.0
 11
22043.508812585129
 21
17459.396514
 31
0.0
  0
LINE
  5
B823
  8
2-0
  6
CONTINUOUS
 62
     3
 10
22013.51118858514
 20
17477.392316999991
 30
0.0
 11
22013.51118858514
 21
17459.396514
 31
0.0
  0
LINE
  5
B824
  8
2-0
  6
CONTINUOUS
 62
     3
 10
22038.50854858513
 20
17477.392316999991
 30
0.0
 11
22013.51118858514
 21
17477.392316999991
 31
0.0
  0
LINE
  5
B825
  8
2-0
  6
CONTINUOUS
 62
     3
 10
22038.50854858513
 20
17472.392053999989
 30
0.0
 11
22038.50854858513
 21
17477.392316999991
 31
0.0
  0
LINE
  5
B826
  8
2-0
  6
CONTINUOUS
 62
     3
 10
22031.506991585149
 20
17472.392053999989
 30
0.0
 11
22038.50854858513
 21
17472.392053999989
 31
0.0
  0
LINE
  5
B827
  8
2-0
  6
CONTINUOUS
 62
     3
 10
22040.622674585149
 20
16752.482940000002
 30
0.0
 11
22040.622674585149
 21
16772.483994999999
 31
0.0
  0
LINE
  5
B828
  8
2-0
  6
CONTINUOUS
 62
     3
 10
22040.622674585149
 20
16772.483994999999
 30
0.0
 11
21955.626105585139
 21
16772.483994999999
 31
0.0
  0
LINE
  5
B829
  8
2-0
  6
CONTINUOUS
 62
     3
 10
22031.506991585149
 20
16799.090704999999
 30
0.0
 11
22038.50854858513
 21
16799.090704999999
 31
0.0
  0
LINE
  5
B82A
  8
2-0
  6
CONTINUOUS
 62
     3
 10
22038.50854858513
 20
16799.090704999999
 30
0.0
 11
22038.50854858513
 21
16794.09637900001
 31
0.0
  0
LINE
  5
B82B
  8
2-0
  6
CONTINUOUS
 62
     3
 10
22038.50854858513
 20
16794.09637900001
 30
0.0
 11
22013.51118858514
 21
16794.09637900001
 31
0.0
  0
LINE
  5
B82C
  8
2-0
  6
CONTINUOUS
 62
     3
 10
22013.51118858514
 20
16794.09637900001
 30
0.0
 11
22013.51118858514
 21
16812.09218299999
 31
0.0
  0
LINE
  5
B82D
  8
2-0
  6
CONTINUOUS
 62
     3
 10
22013.51118858514
 20
16812.09218299999
 30
0.0
 11
22043.508812585129
 21
16812.09218299999
 31
0.0
  0
LINE
  5
B82E
  8
2-0
  6
CONTINUOUS
 62
     3
 10
22013.51118858514
 20
16802.483598999988
 30
0.0
 11
22013.51118858514
 21
16796.481699
 31
0.0
  0
LINE
  5
B82F
  8
2-0
  6
CONTINUOUS
 62
     3
 10
22043.508812585129
 20
16802.483598999988
 30
0.0
 11
22013.51118858514
 21
16802.483598999988
 31
0.0
  0
LINE
  5
B830
  8
2-0
  6
CONTINUOUS
 62
     3
 10
22043.508812585129
 20
16812.09218299999
 30
0.0
 11
22043.508812585129
 21
17459.396514
 31
0.0
  0
LINE
  5
B831
  8
2-0
  6
CONTINUOUS
 62
     3
 10
22043.508812585129
 20
17516.586785
 30
0.0
 11
22043.508812585129
 21
18160.390575000009
 31
0.0
  0
LINE
  5
B832
  8
2-0
  6
CONTINUOUS
 62
     3
 10
22043.508812585129
 20
16657.48188399999
 30
0.0
 11
22013.51118858514
 21
16657.48188399999
 31
0.0
  0
LINE
  5
B833
  8
2-0
  6
CONTINUOUS
 62
     3
 10
22013.51118858514
 20
16657.48188399999
 30
0.0
 11
22013.51118858514
 21
16663.483784
 31
0.0
  0
LINE
  5
B834
  8
2-0
  6
CONTINUOUS
 62
     3
 10
21955.626105585139
 20
16687.487427
 30
0.0
 11
22040.622674585149
 21
16687.487427
 31
0.0
  0
LINE
  5
B835
  8
2-0
  6
CONTINUOUS
 62
     3
 10
22040.622674585149
 20
16687.487427
 30
0.0
 11
22040.622674585149
 21
16707.48254400001
 31
0.0
  0
LINE
  5
B836
  8
2-0
  6
CONTINUOUS
 62
     3
 10
22013.51118858514
 20
16647.873301
 30
0.0
 11
22043.508812585129
 21
16647.873301
 31
0.0
  0
LINE
  5
B837
  8
2-0
  6
CONTINUOUS
 62
     3
 10
22013.51118858514
 20
16665.86910399999
 30
0.0
 11
22013.51118858514
 21
16647.873301
 31
0.0
  0
LINE
  5
B838
  8
2-0
  6
CONTINUOUS
 62
     3
 10
22038.50854858513
 20
16665.86910399999
 30
0.0
 11
22013.51118858514
 21
16665.86910399999
 31
0.0
  0
LINE
  5
B839
  8
2-0
  6
CONTINUOUS
 62
     3
 10
22038.50854858513
 20
16660.86884000001
 30
0.0
 11
22038.50854858513
 21
16665.86910399999
 31
0.0
  0
LINE
  5
B83A
  8
2-0
  6
CONTINUOUS
 62
     3
 10
22031.506991585149
 20
16660.86884000001
 30
0.0
 11
22038.50854858513
 21
16660.86884000001
 31
0.0
  0
LINE
  5
B83B
  8
2-0
  6
CONTINUOUS
 62
     3
 10
22031.506991585149
 20
15956.386609499979
 30
0.0
 11
22038.50854858513
 21
15956.386609499979
 31
0.0
  0
LINE
  5
B83C
  8
2-0
  6
CONTINUOUS
 62
     3
 10
22038.50854858513
 20
15956.386609499979
 30
0.0
 11
22038.50854858513
 21
15961.386873499991
 31
0.0
  0
LINE
  5
B83D
  8
2-0
  6
CONTINUOUS
 62
     3
 10
22038.50854858513
 20
15961.386873499991
 30
0.0
 11
22013.51118858514
 21
15961.386873499991
 31
0.0
  0
LINE
  5
B83E
  8
2-0
  6
CONTINUOUS
 62
     3
 10
22013.51118858514
 20
15961.386873499991
 30
0.0
 11
22013.51118858514
 21
15943.385131499999
 31
0.0
  0
LINE
  5
B83F
  8
2-0
  6
CONTINUOUS
 62
     3
 10
22013.51118858514
 20
15943.385131499999
 30
0.0
 11
22043.508812585129
 21
15943.385131499999
 31
0.0
  0
LINE
  5
B840
  8
2-0
  6
CONTINUOUS
 62
     3
 10
22013.51118858514
 20
15959.482576500001
 30
0.0
 11
22013.51118858514
 21
15953.4856255
 31
0.0
  0
LINE
  5
B841
  8
2-0
  6
CONTINUOUS
 62
     3
 10
22013.51118858514
 20
15953.4856255
 30
0.0
 11
22043.508812585129
 21
15953.4856255
 31
0.0
  0
LINE
  5
B842
  8
2-0
  6
CONTINUOUS
 62
     3
 10
22043.508812585129
 20
15953.4856255
 30
0.0
 11
22043.508812585129
 21
15990.485796499999
 31
0.0
  0
LINE
  5
B843
  8
2-0
  6
CONTINUOUS
 62
     3
 10
22013.51118858514
 20
15990.485796499999
 30
0.0
 11
22043.508812585129
 21
15990.485796499999
 31
0.0
  0
LINE
  5
B844
  8
2-0
  6
CONTINUOUS
 62
     3
 10
22013.51118858514
 20
15984.482906499999
 30
0.0
 11
22013.51118858514
 21
15990.485796499999
 31
0.0
  0
LINE
  5
B845
  8
2-0
  6
CONTINUOUS
 62
     3
 10
22013.51118858514
 20
16000.581341499999
 30
0.0
 11
22043.508812585129
 21
16000.581341499999
 31
0.0
  0
LINE
  5
B846
  8
2-0
  6
CONTINUOUS
 62
     3
 10
22013.51118858514
 20
15982.573660499989
 30
0.0
 11
22013.51118858514
 21
16000.581341499999
 31
0.0
  0
LINE
  5
B847
  8
2-0
  6
CONTINUOUS
 62
     3
 10
22038.50854858513
 20
15982.573660499989
 30
0.0
 11
22013.51118858514
 21
15982.573660499989
 31
0.0
  0
LINE
  5
B848
  8
2-0
  6
CONTINUOUS
 62
     3
 10
22038.50854858513
 20
15987.579863499999
 30
0.0
 11
22038.50854858513
 21
15982.573660499989
 31
0.0
  0
LINE
  5
B849
  8
2-0
  6
CONTINUOUS
 62
     3
 10
22031.506991585149
 20
15987.579863499999
 30
0.0
 11
22038.50854858513
 21
15987.579863499999
 31
0.0
  0
LINE
  5
B84A
  8
2-0
  6
CONTINUOUS
 62
     3
 10
22031.506991585149
 20
15286.819879999999
 30
0.0
 11
22038.50854858513
 21
15286.819879999999
 31
0.0
  0
LINE
  5
B84B
  8
2-0
  6
CONTINUOUS
 62
     3
 10
22038.50854858513
 20
15286.819879999999
 30
0.0
 11
22038.50854858513
 21
15281.825554999999
 31
0.0
  0
LINE
  5
B84C
  8
2-0
  6
CONTINUOUS
 62
     3
 10
22038.50854858513
 20
15281.825554999999
 30
0.0
 11
22013.51118858514
 21
15281.825554999999
 31
0.0
  0
LINE
  5
B84D
  8
2-0
  6
CONTINUOUS
 62
     3
 10
22013.51118858514
 20
15281.825554999999
 30
0.0
 11
22013.51118858514
 21
15299.82135800001
 31
0.0
  0
LINE
  5
B84E
  8
2-0
  6
CONTINUOUS
 62
     3
 10
22013.51118858514
 20
15299.82135800001
 30
0.0
 11
22043.508812585129
 21
15299.82135800001
 31
0.0
  0
LINE
  5
B84F
  8
2-0
  6
CONTINUOUS
 62
     3
 10
22013.51118858514
 20
15283.723913000011
 30
0.0
 11
22013.51118858514
 21
15289.725812999999
 31
0.0
  0
LINE
  5
B850
  8
2-0
  6
CONTINUOUS
 62
     3
 10
22013.51118858514
 20
15289.725812999999
 30
0.0
 11
22043.508812585129
 21
15289.725812999999
 31
0.0
  0
LINE
  5
B851
  8
2-0
  6
CONTINUOUS
 62
     3
 10
22043.508812585129
 20
15252.726632000011
 30
0.0
 11
22043.508812585129
 21
15289.725812999999
 31
0.0
  0
LINE
  5
B852
  8
2-0
  6
CONTINUOUS
 62
     3
 10
22013.51118858514
 20
15252.726632000011
 30
0.0
 11
22043.508812585129
 21
15252.726632000011
 31
0.0
  0
LINE
  5
B853
  8
2-0
  6
CONTINUOUS
 62
     3
 10
22013.51118858514
 20
15258.723583000001
 30
0.0
 11
22013.51118858514
 21
15252.726632000011
 31
0.0
  0
LINE
  5
B854
  8
2-0
  6
CONTINUOUS
 62
     3
 10
22013.51118858514
 20
15242.62514799999
 30
0.0
 11
22043.508812585129
 21
15242.62514799999
 31
0.0
  0
LINE
  5
B855
  8
2-0
  6
CONTINUOUS
 62
     3
 10
22013.51118858514
 20
15260.632828999989
 30
0.0
 11
22013.51118858514
 21
15242.62514799999
 31
0.0
  0
LINE
  5
B856
  8
2-0
  6
CONTINUOUS
 62
     3
 10
22038.50854858513
 20
15260.632828999989
 30
0.0
 11
22013.51118858514
 21
15260.632828999989
 31
0.0
  0
LINE
  5
B857
  8
2-0
  6
CONTINUOUS
 62
     3
 10
22038.50854858513
 20
15255.63256500002
 30
0.0
 11
22038.50854858513
 21
15260.632828999989
 31
0.0
  0
LINE
  5
B858
  8
2-0
  6
CONTINUOUS
 62
     3
 10
22031.506991585149
 20
15255.63256500002
 30
0.0
 11
22038.50854858513
 21
15255.63256500002
 31
0.0
  0
LINE
  5
B859
  8
2-0
  6
CONTINUOUS
 62
     3
 10
22043.508812585129
 20
16647.873301
 30
0.0
 11
22043.508812585129
 21
16000.581341499999
 31
0.0
  0
LINE
  5
B85A
  8
2-0
  6
CONTINUOUS
 62
     3
 10
22043.508812585129
 20
16802.483598999988
 30
0.0
 11
22043.508812585129
 21
16657.48188399999
 31
0.0
  0
LINE
  5
B85B
  8
2-0
  6
CONTINUOUS
 62
     3
 10
21955.626105585139
 20
16772.483994999999
 30
0.0
 11
21955.626105585139
 21
16687.487427
 31
0.0
  0
LINE
  5
B85C
  8
2-0
  6
CONTINUOUS
 62
     6
 10
20666.603618585159
 20
18540.93126049999
 30
0.0
 11
19641.571286585149
 21
18540.93126049999
 31
0.0
  0
LINE
  5
B85D
  8
2-0
  6
CONTINUOUS
 62
     3
 10
22031.506991585149
 20
14554.391557999999
 30
0.0
 11
22038.50854858513
 21
14554.391557999999
 31
0.0
  0
LINE
  5
B85E
  8
2-0
  6
CONTINUOUS
 62
     3
 10
22038.50854858513
 20
14554.391557999999
 30
0.0
 11
22038.50854858513
 21
14559.385883999999
 31
0.0
  0
LINE
  5
B85F
  8
2-0
  6
CONTINUOUS
 62
     3
 10
22038.50854858513
 20
14559.385883999999
 30
0.0
 11
22013.51118858514
 21
14559.385883999999
 31
0.0
  0
LINE
  5
B860
  8
2-0
  6
CONTINUOUS
 62
     3
 10
22013.51118858514
 20
14559.385883999999
 30
0.0
 11
22013.51118858514
 21
14541.390079999999
 31
0.0
  0
LINE
  5
B861
  8
2-0
  6
CONTINUOUS
 62
     3
 10
22013.51118858514
 20
14541.390079999999
 30
0.0
 11
22043.508812585129
 21
14541.390079999999
 31
0.0
  0
LINE
  5
B862
  8
2-0
  6
CONTINUOUS
 62
     3
 10
22013.51118858514
 20
14557.488514999999
 30
0.0
 11
22013.51118858514
 21
14551.48562500001
 31
0.0
  0
LINE
  5
B863
  8
2-0
  6
CONTINUOUS
 62
     3
 10
22013.51118858514
 20
14551.48562500001
 30
0.0
 11
22043.508812585129
 21
14551.48562500001
 31
0.0
  0
LINE
  5
B864
  8
2-0
  6
CONTINUOUS
 62
     3
 10
22043.508812585129
 20
14551.48562500001
 30
0.0
 11
22043.508812585129
 21
14588.485796999979
 31
0.0
  0
LINE
  5
B865
  8
2-0
  6
CONTINUOUS
 62
     3
 10
22013.51118858514
 20
14588.485796999979
 30
0.0
 11
22043.508812585129
 21
14588.485796999979
 31
0.0
  0
LINE
  5
B866
  8
2-0
  6
CONTINUOUS
 62
     3
 10
22013.51118858514
 20
14582.488844999991
 30
0.0
 11
22013.51118858514
 21
14588.485796999979
 31
0.0
  0
LINE
  5
B867
  8
2-0
  6
CONTINUOUS
 62
     3
 10
22013.51118858514
 20
14598.586289999999
 30
0.0
 11
22043.508812585129
 21
14598.586289999999
 31
0.0
  0
LINE
  5
B868
  8
2-0
  6
CONTINUOUS
 62
     3
 10
22013.51118858514
 20
14580.579599000001
 30
0.0
 11
22013.51118858514
 21
14598.586289999999
 31
0.0
  0
LINE
  5
B869
  8
2-0
  6
CONTINUOUS
 62
     3
 10
22038.50854858513
 20
14580.579599000001
 30
0.0
 11
22013.51118858514
 21
14580.579599000001
 31
0.0
  0
LINE
  5
B86A
  8
2-0
  6
CONTINUOUS
 62
     3
 10
22038.50854858513
 20
14585.584811999999
 30
0.0
 11
22038.50854858513
 21
14580.579599000001
 31
0.0
  0
LINE
  5
B86B
  8
2-0
  6
CONTINUOUS
 62
     3
 10
22031.506991585149
 20
14585.584811999999
 30
0.0
 11
22038.50854858513
 21
14585.584811999999
 31
0.0
  0
LINE
  5
B86C
  8
2-0
  6
CONTINUOUS
 62
     3
 10
22013.51118858514
 20
13878.487638000001
 30
0.0
 11
22013.51118858514
 21
13884.49250699999
 31
0.0
  0
LINE
  5
B86D
  8
2-0
  6
CONTINUOUS
 62
     3
 10
22013.51118858514
 20
13884.49250699999
 30
0.0
 11
22043.508812585129
 21
13884.49250699999
 31
0.0
  0
LINE
  5
B86E
  8
2-0
  6
CONTINUOUS
 62
     3
 10
22043.508812585129
 20
13884.49250699999
 30
0.0
 11
22043.508812585129
 21
13769.488416
 31
0.0
  0
LINE
  5
B86F
  8
2-0
  6
CONTINUOUS
 62
     3
 10
22043.508812585129
 20
13769.488416
 30
0.0
 11
21958.51026458514
 21
13769.488416
 31
0.0
  0
LINE
  5
B870
  8
2-0
  6
CONTINUOUS
 62
     3
 10
21958.51026458514
 20
13769.488416
 30
0.0
 11
21958.51026458514
 21
13854.483995000001
 31
0.0
  0
LINE
  5
B871
  8
2-0
  6
CONTINUOUS
 62
     3
 10
21958.51026458514
 20
13854.483995000001
 30
0.0
 11
21990.509182585141
 21
13854.483995000001
 31
0.0
  0
LINE
  5
B872
  8
2-0
  6
CONTINUOUS
 62
     3
 10
22031.506991585149
 20
13881.52224
 30
0.0
 11
22038.50854858513
 21
13881.52224
 31
0.0
  0
LINE
  5
B873
  8
2-0
  6
CONTINUOUS
 62
     3
 10
22038.50854858513
 20
13881.52224
 30
0.0
 11
22038.50854858513
 21
13876.524944999979
 31
0.0
  0
LINE
  5
B874
  8
2-0
  6
CONTINUOUS
 62
     3
 10
22038.50854858513
 20
13876.524944999979
 30
0.0
 11
22013.51118858514
 21
13876.524944999979
 31
0.0
  0
LINE
  5
B875
  8
2-0
  6
CONTINUOUS
 62
     3
 10
22013.51118858514
 20
13876.524944999979
 30
0.0
 11
22013.51118858514
 21
13894.523717999989
 31
0.0
  0
LINE
  5
B876
  8
2-0
  6
CONTINUOUS
 62
     3
 10
22013.51118858514
 20
13894.523717999989
 30
0.0
 11
22043.508812585129
 21
13894.523717999989
 31
0.0
  0
LINE
  5
B877
  8
2-0
  6
CENTER2
 62
     6
 10
22001.01052858515
 20
13571.99085799999
 30
0.0
 11
22001.01052858515
 21
14727.85961600002
 31
0.0
  0
LINE
  5
B878
  8
2-0
  6
CONTINUOUS
 62
     3
 10
22043.508812585129
 20
18217.580847000008
 30
0.0
 11
22043.508812585129
 21
18861.391564500002
 31
0.0
  0
LINE
  5
B879
  8
2-0
  6
CONTINUOUS
 62
     6
 10
18348.007361585169
 20
20420.48689900001
 30
0.0
 11
17148.013299585189
 21
20420.48689900001
 31
0.0
  0
LINE
  5
B87A
  8
2-0
  6
CONTINUOUS
 62
     6
 10
19210.040194585159
 20
18783.08576849999
 30
0.0
 11
19641.571286585149
 21
18540.93126049999
 31
0.0
  0
LINE
  5
B87B
  8
2-0
  6
CONTINUOUS
 62
     6
 10
18888.47136058519
 20
19833.16373600001
 30
0.0
 11
18348.007361585169
 21
20420.48689900001
 31
0.0
  0
LINE
  5
B87C
  8
2-0
  6
CONTINUOUS
 62
     3
 10
22043.508812585129
 20
15943.385131499999
 30
0.0
 11
22043.508812585129
 21
15299.82135800001
 31
0.0
  0
LINE
  5
B87D
  8
2-0
  6
CONTINUOUS
 62
     6
 10
19223.09709958516
 20
18806.345112499988
 30
0.0
 11
19070.509868585159
 21
18861.391564500002
 31
0.0
  0
LINE
  5
B87E
  8
2-0
  6
CONTINUOUS
 62
     6
 10
19070.509868585159
 20
18861.391564500002
 30
0.0
 11
19196.991208585161
 21
18759.83236449998
 31
0.0
  0
LINE
  5
B87F
  8
2-0
  6
CONTINUOUS
 62
     6
 10
19223.09709958516
 20
18806.345112499988
 30
0.0
 11
19196.991208585161
 21
18759.83236449998
 31
0.0
  0
LINE
  5
B880
  8
2-0
  6
CONTINUOUS
 62
     6
 10
19196.991208585161
 20
18759.83236449998
 30
0.0
 11
19070.509868585159
 21
18861.391564500002
 31
0.0
  0
LINE
  5
B881
  8
2-0
  6
CONTINUOUS
 62
     6
 10
19070.509868585159
 20
18861.391564500002
 30
0.0
 11
19223.09709958516
 21
18806.345112499988
 31
0.0
  0
LINE
  5
B882
  8
2-0
  6
CONTINUOUS
 62
     6
 10
19223.09709958516
 20
18806.345112499988
 30
0.0
 11
19070.509868585159
 21
18861.391564500002
 31
0.0
  0
LINE
  5
B883
  8
2-0
  6
CONTINUOUS
 62
     6
 10
19196.991208585161
 20
18759.83236449998
 30
0.0
 11
19070.509868585159
 21
18861.391564500002
 31
0.0
  0
LINE
  5
B884
  8
2-0
  6
CONTINUOUS
 62
     6
 10
19196.991208585161
 20
18759.83236449998
 30
0.0
 11
19223.09709958516
 21
18806.345112499988
 31
0.0
  0
LINE
  5
B885
  8
2-0
  6
CONTINUOUS
 62
     6
 10
18868.85433158516
 20
19815.10260900002
 30
0.0
 11
18996.816351585159
 21
19715.41999100001
 31
0.0
  0
LINE
  5
B886
  8
2-0
  6
CONTINUOUS
 62
     6
 10
18996.816351585159
 20
19715.41999100001
 30
0.0
 11
18908.10224658516
 21
19851.216946
 31
0.0
  0
LINE
  5
B887
  8
2-0
  6
CONTINUOUS
 62
     6
 10
18868.85433158516
 20
19815.10260900002
 30
0.0
 11
18908.10224658516
 21
19851.216946
 31
0.0
  0
LINE
  5
B888
  8
2-0
  6
CONTINUOUS
 62
     6
 10
18908.10224658516
 20
19851.216946
 30
0.0
 11
18996.816351585159
 21
19715.41999100001
 31
0.0
  0
LINE
  5
B889
  8
2-0
  6
CONTINUOUS
 62
     6
 10
18996.816351585159
 20
19715.41999100001
 30
0.0
 11
18868.85433158516
 21
19815.10260900002
 31
0.0
  0
LINE
  5
B88A
  8
2-0
  6
CONTINUOUS
 62
     6
 10
18868.85433158516
 20
19815.10260900002
 30
0.0
 11
18996.816351585159
 21
19715.41999100001
 31
0.0
  0
LINE
  5
B88B
  8
2-0
  6
CONTINUOUS
 62
     6
 10
18908.10224658516
 20
19851.216946
 30
0.0
 11
18996.816351585159
 21
19715.41999100001
 31
0.0
  0
LINE
  5
B88C
  8
2-0
  6
CONTINUOUS
 62
     6
 10
18908.10224658516
 20
19851.216946
 30
0.0
 11
18868.85433158516
 21
19815.10260900002
 31
0.0
  0
LINE
  5
B88D
  8
2-0
  6
CONTINUOUS
 62
     4
 10
19083.01052858515
 20
19770.48623900002
 30
0.0
 11
19083.01052858515
 21
20500.483204
 31
0.0
  0
LINE
  5
B88E
  8
2-0
  6
CONTINUOUS
 62
     6
 10
19317.149965585151
 20
13661.21567799999
 30
0.0
 11
19185.40310658516
 21
13755.842605
 31
0.0
  0
LINE
  5
B88F
  8
2-0
  6
CONTINUOUS
 62
     6
 10
19185.40310658516
 20
13755.842605
 30
0.0
 11
19279.333242585159
 21
13623.603834999991
 31
0.0
  0
LINE
  5
B890
  8
2-0
  6
CONTINUOUS
 62
     6
 10
19317.149965585151
 20
13661.21567799999
 30
0.0
 11
19279.333242585159
 21
13623.603834999991
 31
0.0
  0
LINE
  5
B891
  8
2-0
  6
CONTINUOUS
 62
     6
 10
19279.333242585159
 20
13623.603834999991
 30
0.0
 11
19185.40310658516
 21
13755.842605
 31
0.0
  0
LINE
  5
B892
  8
2-0
  6
CONTINUOUS
 62
     6
 10
19185.40310658516
 20
13755.842605
 30
0.0
 11
19317.149965585151
 21
13661.21567799999
 31
0.0
  0
LINE
  5
B893
  8
2-0
  6
CONTINUOUS
 62
     6
 10
19317.149965585151
 20
13661.21567799999
 30
0.0
 11
19185.40310658516
 21
13755.842605
 31
0.0
  0
LINE
  5
B894
  8
2-0
  6
CONTINUOUS
 62
     6
 10
19279.333242585159
 20
13623.603834999991
 30
0.0
 11
19185.40310658516
 21
13755.842605
 31
0.0
  0
LINE
  5
B895
  8
2-0
  6
CONTINUOUS
 62
     6
 10
19279.333242585159
 20
13623.603834999991
 30
0.0
 11
19317.149965585151
 21
13661.21567799999
 31
0.0
  0
LINE
  5
B896
  8
2-0
  6
CONTINUOUS
 62
     6
 10
19254.114176585161
 20
13988.120304999989
 30
0.0
 11
19121.514144585159
 21
13894.691976999989
 31
0.0
  0
LINE
  5
B897
  8
2-0
  6
CONTINUOUS
 62
     6
 10
19121.514144585159
 20
13894.691976999989
 30
0.0
 11
19277.246830585169
 21
13940.067491
 31
0.0
  0
LINE
  5
B898
  8
2-0
  6
CONTINUOUS
 62
     6
 10
19254.114176585161
 20
13988.120304999989
 30
0.0
 11
19277.246830585169
 21
13940.067491
 31
0.0
  0
LINE
  5
B899
  8
2-0
  6
CONTINUOUS
 62
     6
 10
19277.246830585169
 20
13940.067491
 30
0.0
 11
19121.514144585159
 21
13894.691976999989
 31
0.0
  0
LINE
  5
B89A
  8
2-0
  6
CONTINUOUS
 62
     6
 10
19121.514144585159
 20
13894.691976999989
 30
0.0
 11
19254.114176585161
 21
13988.120304999989
 31
0.0
  0
LINE
  5
B89B
  8
2-0
  6
CONTINUOUS
 62
     6
 10
19254.114176585161
 20
13988.120304999989
 30
0.0
 11
19121.514144585159
 21
13894.691976999989
 31
0.0
  0
LINE
  5
B89C
  8
2-0
  6
CONTINUOUS
 62
     6
 10
19277.246830585169
 20
13940.067491
 30
0.0
 11
19121.514144585159
 21
13894.691976999989
 31
0.0
  0
LINE
  5
B89D
  8
2-0
  6
CONTINUOUS
 62
     6
 10
19277.246830585169
 20
13940.067491
 30
0.0
 11
19254.114176585161
 21
13988.120304999989
 31
0.0
  0
LINE
  5
B89E
  8
2-0
  6
CONTINUOUS
 62
     6
 10
19194.35053058515
 20
16367.941238000019
 30
0.0
 11
19040.512244585159
 21
16419.37506900002
 31
0.0
  0
LINE
  5
B89F
  8
2-0
  6
CONTINUOUS
 62
     6
 10
19040.512244585159
 20
16419.37506900002
 30
0.0
 11
19169.34723158519
 21
16320.834634000021
 31
0.0
  0
LINE
  5
B8A0
  8
2-0
  6
CONTINUOUS
 62
     6
 10
19194.35053058515
 20
16367.941238000019
 30
0.0
 11
19169.34723158519
 21
16320.834634000021
 31
0.0
  0
LINE
  5
B8A1
  8
2-0
  6
CONTINUOUS
 62
     6
 10
19169.34723158519
 20
16320.834634000021
 30
0.0
 11
19040.512244585159
 21
16419.37506900002
 31
0.0
  0
LINE
  5
B8A2
  8
2-0
  6
CONTINUOUS
 62
     6
 10
19040.512244585159
 20
16419.37506900002
 30
0.0
 11
19194.35053058515
 21
16367.941238000019
 31
0.0
  0
LINE
  5
B8A3
  8
2-0
  6
CONTINUOUS
 62
     6
 10
19194.35053058515
 20
16367.941238000019
 30
0.0
 11
19040.512244585159
 21
16419.37506900002
 31
0.0
  0
LINE
  5
B8A4
  8
2-0
  6
CONTINUOUS
 62
     6
 10
19169.34723158519
 20
16320.834634000021
 30
0.0
 11
19040.512244585159
 21
16419.37506900002
 31
0.0
  0
LINE
  5
B8A5
  8
2-0
  6
CONTINUOUS
 62
     6
 10
19169.34723158519
 20
16320.834634000021
 30
0.0
 11
19194.35053058515
 21
16367.941238000019
 31
0.0
  0
LINE
  5
B8A6
  8
2-0
  6
CONTINUOUS
 62
     6
 10
19328.286737585171
 20
16859.259730000009
 30
0.0
 11
19185.40310658516
 21
16782.484100999998
 31
0.0
  0
LINE
  5
B8A7
  8
2-0
  6
CONTINUOUS
 62
     6
 10
19185.40310658516
 20
16782.484100999998
 30
0.0
 11
19345.464999585169
 21
16808.76617000001
 31
0.0
  0
LINE
  5
B8A8
  8
2-0
  6
CONTINUOUS
 62
     6
 10
19328.286737585171
 20
16859.259730000009
 30
0.0
 11
19345.464999585169
 21
16808.76617000001
 31
0.0
  0
LINE
  5
B8A9
  8
2-0
  6
CONTINUOUS
 62
     6
 10
19345.464999585169
 20
16808.76617000001
 30
0.0
 11
19185.40310658516
 21
16782.484100999998
 31
0.0
  0
LINE
  5
B8AA
  8
2-0
  6
CONTINUOUS
 62
     6
 10
19185.40310658516
 20
16782.484100999998
 30
0.0
 11
19328.286737585171
 21
16859.259730000009
 31
0.0
  0
LINE
  5
B8AB
  8
2-0
  6
CONTINUOUS
 62
     6
 10
19328.286737585171
 20
16859.259730000009
 30
0.0
 11
19185.40310658516
 21
16782.484100999998
 31
0.0
  0
LINE
  5
B8AC
  8
2-0
  6
CONTINUOUS
 62
     6
 10
19345.464999585169
 20
16808.76617000001
 30
0.0
 11
19185.40310658516
 21
16782.484100999998
 31
0.0
  0
LINE
  5
B8AD
  8
2-0
  6
CONTINUOUS
 62
     6
 10
19345.464999585169
 20
16808.76617000001
 30
0.0
 11
19328.286737585171
 21
16859.259730000009
 31
0.0
  0
LINE
  5
B8AE
  8
2-0
  6
CONTINUOUS
 62
     3
 10
19070.511848585142
 20
19581.483785000011
 30
0.0
 11
19070.511848585142
 21
19575.48782300001
 31
0.0
  0
LINE
  5
B8AF
  8
2-0
  6
CONTINUOUS
 62
     3
 10
19070.511848585142
 20
19575.48782300001
 30
0.0
 11
19040.514223585142
 21
19575.48782300001
 31
0.0
  0
LINE
  5
B8B0
  8
2-0
  6
CONTINUOUS
 62
     3
 10
19040.514223585142
 20
19575.48782300001
 30
0.0
 11
19040.514223585142
 21
19690.48399600001
 31
0.0
  0
LINE
  5
B8B1
  8
2-0
  6
CONTINUOUS
 62
     3
 10
19040.514223585142
 20
19605.487427
 30
0.0
 11
19121.51216458515
 21
19605.487427
 31
0.0
  0
LINE
  5
B8B2
  8
2-0
  6
CONTINUOUS
 62
     3
 10
19070.511848585142
 20
19565.190366999999
 30
0.0
 11
19040.514223585142
 21
19565.190366999999
 31
0.0
  0
LINE
  5
B8B3
  8
2-0
  6
CONTINUOUS
 62
     3
 10
19070.511848585142
 20
19583.192109
 30
0.0
 11
19070.511848585142
 21
19565.190366999999
 31
0.0
  0
LINE
  5
B8B4
  8
2-0
  6
CONTINUOUS
 62
     3
 10
19045.518446585142
 20
19583.192109
 30
0.0
 11
19070.511848585142
 21
19583.192109
 31
0.0
  0
LINE
  5
B8B5
  8
2-0
  6
CONTINUOUS
 62
     3
 10
19045.518446585142
 20
19578.183927000009
 30
0.0
 11
19045.518446585142
 21
19583.192109
 31
0.0
  0
LINE
  5
B8B6
  8
2-0
  6
CONTINUOUS
 62
     3
 10
19052.516044585122
 20
19578.183927000009
 30
0.0
 11
19045.518446585142
 21
19578.183927000009
 31
0.0
  0
LINE
  5
B8B7
  8
2-0
  6
CONTINUOUS
 62
     3
 10
19152.810333585141
 20
19678.48415400002
 30
0.0
 11
19152.810333585141
 21
19685.48967000001
 31
0.0
  0
LINE
  5
B8B8
  8
2-0
  6
CONTINUOUS
 62
     3
 10
19152.810333585141
 20
19685.48967000001
 30
0.0
 11
19147.808089585142
 21
19685.48967000001
 31
0.0
  0
LINE
  5
B8B9
  8
2-0
  6
CONTINUOUS
 62
     3
 10
19147.808089585142
 20
19685.48967000001
 30
0.0
 11
19147.808089585142
 21
19660.480433000001
 31
0.0
  0
LINE
  5
B8BA
  8
2-0
  6
CONTINUOUS
 62
     3
 10
19147.808089585142
 20
19660.480433000001
 30
0.0
 11
19165.81577058513
 21
19660.480433000001
 31
0.0
  0
LINE
  5
B8BB
  8
2-0
  6
CONTINUOUS
 62
     3
 10
19165.81577058513
 20
19660.480433000001
 30
0.0
 11
19165.81577058513
 21
19690.48399600001
 31
0.0
  0
LINE
  5
B8BC
  8
2-0
  6
CONTINUOUS
 62
     3
 10
19155.51633458514
 20
19690.48399600001
 30
0.0
 11
19040.514223585142
 21
19690.48399600001
 31
0.0
  0
LINE
  5
B8BD
  8
2-0
  6
CONTINUOUS
 62
     3
 10
19155.51633458514
 20
19660.480433000001
 30
0.0
 11
19155.51633458514
 21
19690.48399600001
 31
0.0
  0
LINE
  5
B8BE
  8
2-0
  6
CONTINUOUS
 62
     3
 10
19149.51245558514
 20
19660.480433000001
 30
0.0
 11
19155.51633458514
 21
19660.480433000001
 31
0.0
  0
LINE
  5
B8BF
  8
2-0
  6
CONTINUOUS
 62
     3
 10
19070.511848585142
 20
19581.483785000011
 30
0.0
 11
19070.511848585142
 21
19575.48782300001
 31
0.0
  0
LINE
  5
B8C0
  8
2-0
  6
CONTINUOUS
 62
     3
 10
19070.511848585142
 20
19575.48782300001
 30
0.0
 11
19040.514223585142
 21
19575.48782300001
 31
0.0
  0
LINE
  5
B8C1
  8
2-0
  6
CONTINUOUS
 62
     3
 10
19040.514223585142
 20
19575.48782300001
 30
0.0
 11
19040.514223585142
 21
19690.48399600001
 31
0.0
  0
LINE
  5
B8C2
  8
2-0
  6
CONTINUOUS
 62
     3
 10
19040.514223585142
 20
19605.487427
 30
0.0
 11
19121.51216458515
 21
19605.487427
 31
0.0
  0
LINE
  5
B8C3
  8
2-0
  6
CONTINUOUS
 62
     3
 10
19070.511848585142
 20
19565.190366999999
 30
0.0
 11
19040.514223585142
 21
19565.190366999999
 31
0.0
  0
LINE
  5
B8C4
  8
2-0
  6
CONTINUOUS
 62
     3
 10
19070.511848585142
 20
19583.192109
 30
0.0
 11
19070.511848585142
 21
19565.190366999999
 31
0.0
  0
LINE
  5
B8C5
  8
2-0
  6
CONTINUOUS
 62
     3
 10
19045.518446585142
 20
19583.192109
 30
0.0
 11
19070.511848585142
 21
19583.192109
 31
0.0
  0
LINE
  5
B8C6
  8
2-0
  6
CONTINUOUS
 62
     3
 10
19045.518446585142
 20
19578.183927000009
 30
0.0
 11
19045.518446585142
 21
19583.192109
 31
0.0
  0
LINE
  5
B8C7
  8
2-0
  6
CONTINUOUS
 62
     3
 10
19052.516044585122
 20
19578.183927000009
 30
0.0
 11
19045.518446585142
 21
19578.183927000009
 31
0.0
  0
LINE
  5
B8C8
  8
2-0
  6
CONTINUOUS
 62
     3
 10
19052.516044585122
 20
18874.387104499991
 30
0.0
 11
19045.518446585142
 21
18874.387104499991
 31
0.0
  0
LINE
  5
B8C9
  8
2-0
  6
CONTINUOUS
 62
     3
 10
19045.518446585142
 20
18874.387104499991
 30
0.0
 11
19045.518446585142
 21
18879.3873685
 31
0.0
  0
LINE
  5
B8CA
  8
2-0
  6
CONTINUOUS
 62
     3
 10
19045.518446585142
 20
18879.3873685
 30
0.0
 11
19070.511848585142
 21
18879.3873685
 31
0.0
  0
LINE
  5
B8CB
  8
2-0
  6
CONTINUOUS
 62
     3
 10
19070.511848585142
 20
18879.3873685
 30
0.0
 11
19070.511848585142
 21
18861.39156449998
 31
0.0
  0
LINE
  5
B8CC
  8
2-0
  6
CONTINUOUS
 62
     3
 10
19070.511848585142
 20
18861.39156449998
 30
0.0
 11
19040.514223585142
 21
18861.39156449998
 31
0.0
  0
LINE
  5
B8CD
  8
2-0
  6
CONTINUOUS
 62
     3
 10
19070.511848585142
 20
18877.483071499959
 30
0.0
 11
19070.511848585142
 21
18871.48513049999
 31
0.0
  0
LINE
  5
B8CE
  8
2-0
  6
CONTINUOUS
 62
     3
 10
19070.511848585142
 20
18871.48513049999
 30
0.0
 11
19040.514223585142
 21
18871.48513049999
 31
0.0
  0
LINE
  5
B8CF
  8
2-0
  6
CONTINUOUS
 62
     3
 10
19040.514223585142
 20
18871.48513049999
 30
0.0
 11
19040.514223585142
 21
18908.48629149999
 31
0.0
  0
LINE
  5
B8D0
  8
2-0
  6
CONTINUOUS
 62
     3
 10
19070.511848585142
 20
18908.48629149999
 30
0.0
 11
19040.514223585142
 21
18908.48629149999
 31
0.0
  0
LINE
  5
B8D1
  8
2-0
  6
CONTINUOUS
 62
     3
 10
19070.511848585142
 20
18902.48241149999
 30
0.0
 11
19070.511848585142
 21
18908.48629149999
 31
0.0
  0
LINE
  5
B8D2
  8
2-0
  6
CONTINUOUS
 62
     3
 10
19070.511848585142
 20
18918.58183649998
 30
0.0
 11
19040.514223585142
 21
18918.58183649998
 31
0.0
  0
LINE
  5
B8D3
  8
2-0
  6
CONTINUOUS
 62
     3
 10
19070.511848585142
 20
18900.580094500001
 30
0.0
 11
19070.511848585142
 21
18918.58183649998
 31
0.0
  0
LINE
  5
B8D4
  8
2-0
  6
CONTINUOUS
 62
     3
 10
19045.518446585142
 20
18900.580094500001
 30
0.0
 11
19070.511848585142
 21
18900.580094500001
 31
0.0
  0
LINE
  5
B8D5
  8
2-0
  6
CONTINUOUS
 62
     3
 10
19045.518446585142
 20
18905.580358499981
 30
0.0
 11
19045.518446585142
 21
18900.580094500001
 31
0.0
  0
LINE
  5
B8D6
  8
2-0
  6
CONTINUOUS
 62
     3
 10
19052.516044585122
 20
18905.580358499981
 30
0.0
 11
19045.518446585142
 21
18905.580358499981
 31
0.0
  0
LINE
  5
B8D7
  8
2-0
  6
CONTINUOUS
 62
     3
 10
19052.516044585122
 20
18173.386115000001
 30
0.0
 11
19045.518446585142
 21
18173.386115000001
 31
0.0
  0
LINE
  5
B8D8
  8
2-0
  6
CONTINUOUS
 62
     3
 10
19045.518446585142
 20
18173.386115000001
 30
0.0
 11
19045.518446585142
 21
18178.392317000002
 31
0.0
  0
LINE
  5
B8D9
  8
2-0
  6
CONTINUOUS
 62
     3
 10
19045.518446585142
 20
18178.392317000002
 30
0.0
 11
19070.511848585142
 21
18178.392317000002
 31
0.0
  0
LINE
  5
B8DA
  8
2-0
  6
CONTINUOUS
 62
     3
 10
19070.511848585142
 20
18178.392317000002
 30
0.0
 11
19070.511848585142
 21
18160.39057499999
 31
0.0
  0
LINE
  5
B8DB
  8
2-0
  6
CONTINUOUS
 62
     3
 10
19070.511848585142
 20
18160.39057499999
 30
0.0
 11
19040.514223585142
 21
18160.39057499999
 31
0.0
  0
LINE
  5
B8DC
  8
2-0
  6
CONTINUOUS
 62
     3
 10
19070.511848585142
 20
18176.48208199998
 30
0.0
 11
19070.511848585142
 21
18170.48611999999
 31
0.0
  0
LINE
  5
B8DD
  8
2-0
  6
CONTINUOUS
 62
     3
 10
19070.511848585142
 20
18170.48611999999
 30
0.0
 11
19040.514223585142
 21
18170.48611999999
 31
0.0
  0
LINE
  5
B8DE
  8
2-0
  6
CONTINUOUS
 62
     3
 10
19040.514223585142
 20
18170.48611999999
 30
0.0
 11
19040.514223585142
 21
18207.48530199999
 31
0.0
  0
LINE
  5
B8DF
  8
2-0
  6
CONTINUOUS
 62
     3
 10
19070.511848585142
 20
18207.48530199999
 30
0.0
 11
19040.514223585142
 21
18207.48530199999
 31
0.0
  0
LINE
  5
B8E0
  8
2-0
  6
CONTINUOUS
 62
     3
 10
19070.511848585142
 20
18201.48934
 30
0.0
 11
19070.511848585142
 21
18207.48530199999
 31
0.0
  0
LINE
  5
B8E1
  8
2-0
  6
CONTINUOUS
 62
     3
 10
19070.511848585142
 20
18217.580847000001
 30
0.0
 11
19040.514223585142
 21
18217.580847000001
 31
0.0
  0
LINE
  5
B8E2
  8
2-0
  6
CONTINUOUS
 62
     3
 10
19070.511848585142
 20
18199.57910499999
 30
0.0
 11
19070.511848585142
 21
18217.580847000001
 31
0.0
  0
LINE
  5
B8E3
  8
2-0
  6
CONTINUOUS
 62
     3
 10
19045.518446585142
 20
18199.57910499999
 30
0.0
 11
19070.511848585142
 21
18199.57910499999
 31
0.0
  0
LINE
  5
B8E4
  8
2-0
  6
CONTINUOUS
 62
     3
 10
19045.518446585142
 20
18204.58530699999
 30
0.0
 11
19045.518446585142
 21
18199.57910499999
 31
0.0
  0
LINE
  5
B8E5
  8
2-0
  6
CONTINUOUS
 62
     3
 10
19052.516044585122
 20
18204.58530699999
 30
0.0
 11
19045.518446585142
 21
18204.58530699999
 31
0.0
  0
LINE
  5
B8E6
  8
2-0
  6
CONTINUOUS
 62
     3
 10
19052.516044585122
 20
17503.579368999988
 30
0.0
 11
19045.518446585142
 21
17503.579368999988
 31
0.0
  0
LINE
  5
B8E7
  8
2-0
  6
CONTINUOUS
 62
     3
 10
19045.518446585142
 20
17503.579368999988
 30
0.0
 11
19045.518446585142
 21
17498.590982000002
 31
0.0
  0
LINE
  5
B8E8
  8
2-0
  6
CONTINUOUS
 62
     3
 10
19045.518446585142
 20
17498.590982000002
 30
0.0
 11
19070.511848585142
 21
17498.590982000002
 31
0.0
  0
LINE
  5
B8E9
  8
2-0
  6
CONTINUOUS
 62
     3
 10
19070.511848585142
 20
17498.590982000002
 30
0.0
 11
19070.511848585142
 21
17516.586784999989
 31
0.0
  0
LINE
  5
B8EA
  8
2-0
  6
CONTINUOUS
 62
     3
 10
19070.511848585142
 20
17516.586784999989
 30
0.0
 11
19040.514223585142
 21
17516.586784999989
 31
0.0
  0
LINE
  5
B8EB
  8
2-0
  6
CONTINUOUS
 62
     3
 10
19070.511848585142
 20
17500.48934
 30
0.0
 11
19070.511848585142
 21
17506.48530199999
 31
0.0
  0
LINE
  5
B8EC
  8
2-0
  6
CONTINUOUS
 62
     3
 10
19070.511848585142
 20
17506.48530199999
 30
0.0
 11
19040.514223585142
 21
17506.48530199999
 31
0.0
  0
LINE
  5
B8ED
  8
2-0
  6
CONTINUOUS
 62
     3
 10
19040.514223585142
 20
17506.48530199999
 30
0.0
 11
19040.514223585142
 21
17469.48611999999
 31
0.0
  0
LINE
  5
B8EE
  8
2-0
  6
CONTINUOUS
 62
     3
 10
19070.511848585142
 20
17469.48611999999
 30
0.0
 11
19040.514223585142
 21
17469.48611999999
 31
0.0
  0
LINE
  5
B8EF
  8
2-0
  6
CONTINUOUS
 62
     3
 10
19070.511848585142
 20
17475.48802099999
 30
0.0
 11
19070.511848585142
 21
17469.48611999999
 31
0.0
  0
LINE
  5
B8F0
  8
2-0
  6
CONTINUOUS
 62
     3
 10
19070.511848585142
 20
17459.396514
 30
0.0
 11
19040.514223585142
 21
17459.396514
 31
0.0
  0
LINE
  5
B8F1
  8
2-0
  6
CONTINUOUS
 62
     3
 10
19070.511848585142
 20
17477.39231699998
 30
0.0
 11
19070.511848585142
 21
17459.396514
 31
0.0
  0
LINE
  5
B8F2
  8
2-0
  6
CONTINUOUS
 62
     3
 10
19045.518446585142
 20
17477.39231699998
 30
0.0
 11
19070.511848585142
 21
17477.39231699998
 31
0.0
  0
LINE
  5
B8F3
  8
2-0
  6
CONTINUOUS
 62
     3
 10
19045.518446585142
 20
17472.392053999989
 30
0.0
 11
19045.518446585142
 21
17477.39231699998
 31
0.0
  0
LINE
  5
B8F4
  8
2-0
  6
CONTINUOUS
 62
     3
 10
19052.516044585122
 20
17472.392053999989
 30
0.0
 11
19045.518446585142
 21
17472.392053999989
 31
0.0
  0
LINE
  5
B8F5
  8
2-0
  6
CONTINUOUS
 62
     3
 10
19043.40036158514
 20
16752.482940000002
 30
0.0
 11
19043.40036158514
 21
16772.483994999999
 31
0.0
  0
LINE
  5
B8F6
  8
2-0
  6
CONTINUOUS
 62
     3
 10
19043.40036158514
 20
16772.483994999999
 30
0.0
 11
19128.400889585151
 21
16772.483994999999
 31
0.0
  0
LINE
  5
B8F7
  8
2-0
  6
CONTINUOUS
 62
     3
 10
19052.516044585122
 20
16799.090704999999
 30
0.0
 11
19045.518446585142
 21
16799.090704999999
 31
0.0
  0
LINE
  5
B8F8
  8
2-0
  6
CONTINUOUS
 62
     3
 10
19045.518446585142
 20
16799.090704999999
 30
0.0
 11
19045.518446585142
 21
16794.09637900001
 31
0.0
  0
LINE
  5
B8F9
  8
2-0
  6
CONTINUOUS
 62
     3
 10
19045.518446585142
 20
16794.09637900001
 30
0.0
 11
19070.511848585142
 21
16794.09637900001
 31
0.0
  0
LINE
  5
B8FA
  8
2-0
  6
CONTINUOUS
 62
     3
 10
19070.511848585142
 20
16794.09637900001
 30
0.0
 11
19070.511848585142
 21
16812.09218299999
 31
0.0
  0
LINE
  5
B8FB
  8
2-0
  6
CONTINUOUS
 62
     3
 10
19070.511848585142
 20
16812.09218299999
 30
0.0
 11
19040.514223585142
 21
16812.09218299999
 31
0.0
  0
LINE
  5
B8FC
  8
2-0
  6
CONTINUOUS
 62
     3
 10
19070.511848585142
 20
16802.483598999988
 30
0.0
 11
19070.511848585142
 21
16796.481699
 31
0.0
  0
LINE
  5
B8FD
  8
2-0
  6
CONTINUOUS
 62
     3
 10
19040.514223585142
 20
16802.483598999988
 30
0.0
 11
19070.511848585142
 21
16802.483598999988
 31
0.0
  0
LINE
  5
B8FE
  8
2-0
  6
CONTINUOUS
 62
     3
 10
19040.514223585142
 20
16812.09218299999
 30
0.0
 11
19040.514223585142
 21
17459.396514
 31
0.0
  0
LINE
  5
B8FF
  8
2-0
  6
CONTINUOUS
 62
     3
 10
19040.514223585142
 20
17516.586784999989
 30
0.0
 11
19040.514223585142
 21
18160.39057499999
 31
0.0
  0
LINE
  5
B900
  8
2-0
  6
CONTINUOUS
 62
     3
 10
19040.514223585142
 20
16657.48188399999
 30
0.0
 11
19070.511848585142
 21
16657.48188399999
 31
0.0
  0
LINE
  5
B901
  8
2-0
  6
CONTINUOUS
 62
     3
 10
19070.511848585142
 20
16657.48188399999
 30
0.0
 11
19070.511848585142
 21
16663.483784
 31
0.0
  0
LINE
  5
B902
  8
2-0
  6
CONTINUOUS
 62
     3
 10
19128.400889585151
 20
16687.487427
 30
0.0
 11
19043.40036158514
 21
16687.487427
 31
0.0
  0
LINE
  5
B903
  8
2-0
  6
CONTINUOUS
 62
     3
 10
19043.40036158514
 20
16687.487427
 30
0.0
 11
19043.40036158514
 21
16707.48254400001
 31
0.0
  0
LINE
  5
B904
  8
2-0
  6
CONTINUOUS
 62
     3
 10
19070.511848585142
 20
16647.873301
 30
0.0
 11
19040.514223585142
 21
16647.873301
 31
0.0
  0
LINE
  5
B905
  8
2-0
  6
CONTINUOUS
 62
     3
 10
19070.511848585142
 20
16665.86910399999
 30
0.0
 11
19070.511848585142
 21
16647.873301
 31
0.0
  0
LINE
  5
B906
  8
2-0
  6
CONTINUOUS
 62
     3
 10
19045.518446585142
 20
16665.86910399999
 30
0.0
 11
19070.511848585142
 21
16665.86910399999
 31
0.0
  0
LINE
  5
B907
  8
2-0
  6
CONTINUOUS
 62
     3
 10
19045.518446585142
 20
16660.86884000001
 30
0.0
 11
19045.518446585142
 21
16665.86910399999
 31
0.0
  0
LINE
  5
B908
  8
2-0
  6
CONTINUOUS
 62
     3
 10
19052.516044585122
 20
16660.86884000001
 30
0.0
 11
19045.518446585142
 21
16660.86884000001
 31
0.0
  0
LINE
  5
B909
  8
2-0
  6
CONTINUOUS
 62
     3
 10
19052.516044585122
 20
15956.386609499979
 30
0.0
 11
19045.518446585142
 21
15956.386609499979
 31
0.0
  0
LINE
  5
B90A
  8
2-0
  6
CONTINUOUS
 62
     3
 10
19045.518446585142
 20
15956.386609499979
 30
0.0
 11
19045.518446585142
 21
15961.386873499991
 31
0.0
  0
LINE
  5
B90B
  8
2-0
  6
CONTINUOUS
 62
     3
 10
19045.518446585142
 20
15961.386873499991
 30
0.0
 11
19070.511848585142
 21
15961.386873499991
 31
0.0
  0
LINE
  5
B90C
  8
2-0
  6
CONTINUOUS
 62
     3
 10
19070.511848585142
 20
15961.386873499991
 30
0.0
 11
19070.511848585142
 21
15943.38513149999
 31
0.0
  0
LINE
  5
B90D
  8
2-0
  6
CONTINUOUS
 62
     3
 10
19070.511848585142
 20
15943.38513149999
 30
0.0
 11
19040.514223585142
 21
15943.38513149999
 31
0.0
  0
LINE
  5
B90E
  8
2-0
  6
CONTINUOUS
 62
     3
 10
19070.511848585142
 20
15959.482576500001
 30
0.0
 11
19070.511848585142
 21
15953.4856255
 31
0.0
  0
LINE
  5
B90F
  8
2-0
  6
CONTINUOUS
 62
     3
 10
19070.511848585142
 20
15953.4856255
 30
0.0
 11
19040.514223585142
 21
15953.4856255
 31
0.0
  0
LINE
  5
B910
  8
2-0
  6
CONTINUOUS
 62
     3
 10
19040.514223585142
 20
15953.4856255
 30
0.0
 11
19040.514223585142
 21
15990.485796499999
 31
0.0
  0
LINE
  5
B911
  8
2-0
  6
CONTINUOUS
 62
     3
 10
19070.511848585142
 20
15990.485796499999
 30
0.0
 11
19040.514223585142
 21
15990.485796499999
 31
0.0
  0
LINE
  5
B912
  8
2-0
  6
CONTINUOUS
 62
     3
 10
19070.511848585142
 20
15984.482906499999
 30
0.0
 11
19070.511848585142
 21
15990.485796499999
 31
0.0
  0
LINE
  5
B913
  8
2-0
  6
CONTINUOUS
 62
     3
 10
19070.511848585142
 20
16000.58134149999
 30
0.0
 11
19040.514223585142
 21
16000.58134149999
 31
0.0
  0
LINE
  5
B914
  8
2-0
  6
CONTINUOUS
 62
     3
 10
19070.511848585142
 20
15982.573660499989
 30
0.0
 11
19070.511848585142
 21
16000.58134149999
 31
0.0
  0
LINE
  5
B915
  8
2-0
  6
CONTINUOUS
 62
     3
 10
19045.518446585142
 20
15982.573660499989
 30
0.0
 11
19070.511848585142
 21
15982.573660499989
 31
0.0
  0
LINE
  5
B916
  8
2-0
  6
CONTINUOUS
 62
     3
 10
19045.518446585142
 20
15987.579863499999
 30
0.0
 11
19045.518446585142
 21
15982.573660499989
 31
0.0
  0
LINE
  5
B917
  8
2-0
  6
CONTINUOUS
 62
     3
 10
19052.516044585122
 20
15987.579863499999
 30
0.0
 11
19045.518446585142
 21
15987.579863499999
 31
0.0
  0
LINE
  5
B918
  8
2-0
  6
CONTINUOUS
 62
     3
 10
19052.516044585122
 20
15286.819879999999
 30
0.0
 11
19045.518446585142
 21
15286.819879999999
 31
0.0
  0
LINE
  5
B919
  8
2-0
  6
CONTINUOUS
 62
     3
 10
19045.518446585142
 20
15286.819879999999
 30
0.0
 11
19045.518446585142
 21
15281.825554999999
 31
0.0
  0
LINE
  5
B91A
  8
2-0
  6
CONTINUOUS
 62
     3
 10
19045.518446585142
 20
15281.825554999999
 30
0.0
 11
19070.511848585142
 21
15281.825554999999
 31
0.0
  0
LINE
  5
B91B
  8
2-0
  6
CONTINUOUS
 62
     3
 10
19070.511848585142
 20
15281.825554999999
 30
0.0
 11
19070.511848585142
 21
15299.82135800001
 31
0.0
  0
LINE
  5
B91C
  8
2-0
  6
CONTINUOUS
 62
     3
 10
19070.511848585142
 20
15299.82135800001
 30
0.0
 11
19040.514223585142
 21
15299.82135800001
 31
0.0
  0
LINE
  5
B91D
  8
2-0
  6
CONTINUOUS
 62
     3
 10
19070.511848585142
 20
15283.723912999991
 30
0.0
 11
19070.511848585142
 21
15289.725812999999
 31
0.0
  0
LINE
  5
B91E
  8
2-0
  6
CONTINUOUS
 62
     3
 10
19070.511848585142
 20
15289.725812999999
 30
0.0
 11
19040.514223585142
 21
15289.725812999999
 31
0.0
  0
LINE
  5
B91F
  8
2-0
  6
CONTINUOUS
 62
     3
 10
19040.514223585142
 20
15252.726632000011
 30
0.0
 11
19040.514223585142
 21
15289.725812999999
 31
0.0
  0
LINE
  5
B920
  8
2-0
  6
CONTINUOUS
 62
     3
 10
19070.511848585142
 20
15252.726632000011
 30
0.0
 11
19040.514223585142
 21
15252.726632000011
 31
0.0
  0
LINE
  5
B921
  8
2-0
  6
CONTINUOUS
 62
     3
 10
19070.511848585142
 20
15258.723583000001
 30
0.0
 11
19070.511848585142
 21
15252.726632000011
 31
0.0
  0
LINE
  5
B922
  8
2-0
  6
CONTINUOUS
 62
     3
 10
19070.511848585142
 20
15242.62514799999
 30
0.0
 11
19040.514223585142
 21
15242.62514799999
 31
0.0
  0
LINE
  5
B923
  8
2-0
  6
CONTINUOUS
 62
     3
 10
19070.511848585142
 20
15260.632828999989
 30
0.0
 11
19070.511848585142
 21
15242.62514799999
 31
0.0
  0
LINE
  5
B924
  8
2-0
  6
CONTINUOUS
 62
     3
 10
19045.518446585142
 20
15260.632828999989
 30
0.0
 11
19070.511848585142
 21
15260.632828999989
 31
0.0
  0
LINE
  5
B925
  8
2-0
  6
CONTINUOUS
 62
     3
 10
19045.518446585142
 20
15255.63256500002
 30
0.0
 11
19045.518446585142
 21
15260.632828999989
 31
0.0
  0
LINE
  5
B926
  8
2-0
  6
CONTINUOUS
 62
     3
 10
19052.516044585122
 20
15255.63256500002
 30
0.0
 11
19045.518446585142
 21
15255.63256500002
 31
0.0
  0
LINE
  5
B927
  8
2-0
  6
CONTINUOUS
 62
     3
 10
19040.514223585142
 20
16647.873301
 30
0.0
 11
19040.514223585142
 21
16000.58134149999
 31
0.0
  0
LINE
  5
B928
  8
2-0
  6
CONTINUOUS
 62
     3
 10
19040.514223585142
 20
16802.483598999988
 30
0.0
 11
19040.514223585142
 21
16657.48188399999
 31
0.0
  0
LINE
  5
B929
  8
2-0
  6
CONTINUOUS
 62
     3
 10
19128.400889585151
 20
16772.483994999999
 30
0.0
 11
19128.400889585151
 21
16687.487427
 31
0.0
  0
LINE
  5
B92A
  8
2-0
  6
CONTINUOUS
 62
     3
 10
19052.516044585122
 20
14554.391557999999
 30
0.0
 11
19045.518446585142
 21
14554.391557999999
 31
0.0
  0
LINE
  5
B92B
  8
2-0
  6
CONTINUOUS
 62
     3
 10
19045.518446585142
 20
14554.391557999999
 30
0.0
 11
19045.518446585142
 21
14559.38588400001
 31
0.0
  0
LINE
  5
B92C
  8
2-0
  6
CONTINUOUS
 62
     3
 10
19045.518446585142
 20
14559.38588400001
 30
0.0
 11
19070.511848585142
 21
14559.38588400001
 31
0.0
  0
LINE
  5
B92D
  8
2-0
  6
CONTINUOUS
 62
     3
 10
19070.511848585142
 20
14559.38588400001
 30
0.0
 11
19070.511848585142
 21
14541.390079999999
 31
0.0
  0
LINE
  5
B92E
  8
2-0
  6
CONTINUOUS
 62
     3
 10
19070.511848585142
 20
14541.390079999999
 30
0.0
 11
19040.514223585142
 21
14541.390079999999
 31
0.0
  0
LINE
  5
B92F
  8
2-0
  6
CONTINUOUS
 62
     3
 10
19070.511848585142
 20
14557.488514999999
 30
0.0
 11
19070.511848585142
 21
14551.48562500001
 31
0.0
  0
LINE
  5
B930
  8
2-0
  6
CONTINUOUS
 62
     3
 10
19070.511848585142
 20
14551.48562500001
 30
0.0
 11
19040.514223585142
 21
14551.48562500001
 31
0.0
  0
LINE
  5
B931
  8
2-0
  6
CONTINUOUS
 62
     3
 10
19040.514223585142
 20
14551.48562500001
 30
0.0
 11
19040.514223585142
 21
14588.485796999979
 31
0.0
  0
LINE
  5
B932
  8
2-0
  6
CONTINUOUS
 62
     3
 10
19070.511848585142
 20
14588.485796999979
 30
0.0
 11
19040.514223585142
 21
14588.485796999979
 31
0.0
  0
LINE
  5
B933
  8
2-0
  6
CONTINUOUS
 62
     3
 10
19070.511848585142
 20
14582.488845
 30
0.0
 11
19070.511848585142
 21
14588.485796999979
 31
0.0
  0
LINE
  5
B934
  8
2-0
  6
CONTINUOUS
 62
     3
 10
19070.511848585142
 20
14598.586289999999
 30
0.0
 11
19040.514223585142
 21
14598.586289999999
 31
0.0
  0
LINE
  5
B935
  8
2-0
  6
CONTINUOUS
 62
     3
 10
19070.511848585142
 20
14580.579599000001
 30
0.0
 11
19070.511848585142
 21
14598.586289999999
 31
0.0
  0
LINE
  5
B936
  8
2-0
  6
CONTINUOUS
 62
     3
 10
19045.518446585142
 20
14580.579599000001
 30
0.0
 11
19070.511848585142
 21
14580.579599000001
 31
0.0
  0
LINE
  5
B937
  8
2-0
  6
CONTINUOUS
 62
     3
 10
19045.518446585142
 20
14585.584811999999
 30
0.0
 11
19045.518446585142
 21
14580.579599000001
 31
0.0
  0
LINE
  5
B938
  8
2-0
  6
CONTINUOUS
 62
     3
 10
19052.516044585122
 20
14585.584811999999
 30
0.0
 11
19045.518446585142
 21
14585.584811999999
 31
0.0
  0
LINE
  5
B939
  8
2-0
  6
CONTINUOUS
 62
     3
 10
19070.511848585142
 20
13878.487638000001
 30
0.0
 11
19070.511848585142
 21
13884.49250699999
 31
0.0
  0
LINE
  5
B93A
  8
2-0
  6
CONTINUOUS
 62
     3
 10
19070.511848585142
 20
13884.49250699999
 30
0.0
 11
19040.514223585142
 21
13884.49250699999
 31
0.0
  0
LINE
  5
B93B
  8
2-0
  6
CONTINUOUS
 62
     3
 10
19040.514223585142
 20
13884.49250699999
 30
0.0
 11
19040.514223585142
 21
13769.488416
 31
0.0
  0
LINE
  5
B93C
  8
2-0
  6
CONTINUOUS
 62
     3
 10
19040.514223585142
 20
13769.488416
 30
0.0
 11
19125.51277158513
 21
13769.488416
 31
0.0
  0
LINE
  5
B93D
  8
2-0
  6
CONTINUOUS
 62
     3
 10
19125.51277158513
 20
13769.488416
 30
0.0
 11
19125.51277158513
 21
13854.483995000001
 31
0.0
  0
LINE
  5
B93E
  8
2-0
  6
CONTINUOUS
 62
     3
 10
19125.51277158513
 20
13854.483995000001
 30
0.0
 11
19093.51583358513
 21
13854.483995000001
 31
0.0
  0
LINE
  5
B93F
  8
2-0
  6
CONTINUOUS
 62
     3
 10
19052.516044585122
 20
13881.52224
 30
0.0
 11
19045.518446585142
 21
13881.52224
 31
0.0
  0
LINE
  5
B940
  8
2-0
  6
CONTINUOUS
 62
     3
 10
19045.518446585142
 20
13881.52224
 30
0.0
 11
19045.518446585142
 21
13876.524944999979
 31
0.0
  0
LINE
  5
B941
  8
2-0
  6
CONTINUOUS
 62
     3
 10
19045.518446585142
 20
13876.524944999979
 30
0.0
 11
19070.511848585142
 21
13876.524944999979
 31
0.0
  0
LINE
  5
B942
  8
2-0
  6
CONTINUOUS
 62
     3
 10
19070.511848585142
 20
13876.524944999979
 30
0.0
 11
19070.511848585142
 21
13894.523717999989
 31
0.0
  0
LINE
  5
B943
  8
2-0
  6
CONTINUOUS
 62
     3
 10
19070.511848585142
 20
13894.523717999989
 30
0.0
 11
19040.514223585142
 21
13894.523717999989
 31
0.0
  0
LINE
  5
B944
  8
2-0
  6
CONTINUOUS
 62
     3
 10
19040.514223585142
 20
14598.586289999999
 30
0.0
 11
19040.514223585142
 21
15242.62514799999
 31
0.0
  0
LINE
  5
B945
  8
2-0
  6
CONTINUOUS
 62
     3
 10
19040.514223585142
 20
18217.580847000001
 30
0.0
 11
19040.514223585142
 21
18861.39156449998
 31
0.0
  0
LINE
  5
B946
  8
2-0
  6
CONTINUOUS
 62
     3
 10
19040.514223585142
 20
15943.38513149999
 30
0.0
 11
19040.514223585142
 21
15299.82135800001
 31
0.0
  0
LINE
  5
B947
  8
2-0
  6
CONTINUOUS
 62
     3
 10
22043.508812585129
 20
19575.48782300001
 30
0.0
 11
22043.508812585129
 21
19690.48399600001
 31
0.0
  0
LINE
  5
B948
  8
2-0
  6
CONTINUOUS
 62
     3
 10
19040.514223585142
 20
19605.487427
 30
0.0
 11
21962.506912585141
 21
19605.487427
 31
0.0
  0
LINE
  5
B949
  8
2-0
  6
CONTINUOUS
 62
     3
 10
19040.514223585142
 20
13894.523717999989
 30
0.0
 11
19040.514223585142
 21
14541.390079999999
 31
0.0
  0
LINE
  5
B94A
  8
2-0
  6
CONTINUOUS
 62
     3
 10
22043.508812585129
 20
19565.190366999999
 30
0.0
 11
22043.508812585129
 21
18918.58183649999
 31
0.0
  0
LINE
  5
B94B
  8
2-0
  6
CONTINUOUS
 62
     3
 10
19040.514223585142
 20
19565.190366999999
 30
0.0
 11
19040.514223585142
 21
18918.58183649998
 31
0.0
  0
LINE
  5
B94C
  8
2-0
  6
CONTINUOUS
 62
     3
 10
19121.51216458515
 20
13854.483995000001
 30
0.0
 11
19121.51216458515
 21
19690.48399600001
 31
0.0
  0
LINE
  5
B94D
  8
2-0
  6
CONTINUOUS
 62
     3
 10
21962.506912585141
 20
13854.483995000001
 30
0.0
 11
21962.506912585141
 21
19690.48399600001
 31
0.0
  0
TEXT
  5
B94E
  8
2-0
  6
CONTINUOUS
 62
     7
 10
19854.16522159092
 20
13251.98992600267
 30
0.0
 40
160.0
  1
前柱（左）
 50
359.99978700000003
 72
     4
 11
20270.165518992151
 21
13331.988379500781
 31
0.0
  0
TEXT
  5
B94F
  8
2-0
  6
CONTINUOUS
 62
     7
 10
19756.236765255278
 20
16180.476608276511
 30
0.0
 40
160.0
  1
壁パネル
 50
0.0001770000000167
 72
     4
 11
20118.9031847816
 21
16260.477728637879
 31
0.0
  0
TEXT
  5
B950
  8
2-0
  6
CONTINUOUS
 62
     7
 10
19726.90633593826
 20
17017.673137652371
 30
0.0
 40
160.0
  1
中柱（左右）
 50
359.99964599999998
 72
     4
 11
20244.240163538961
 21
17097.669941324672
 31
0.0
  0
TEXT
  5
B951
  8
2-0
  6
CONTINUOUS
 62
     7
 10
19740.237425310581
 20
14225.03443170611
 30
0.0
 40
160.0
  1
下枠
 50
359.99893700000001
 72
     4
 11
19910.905576175868
 21
14305.031265339279
 31
0.0
  0
TEXT
  5
B952
  8
2-0
  6
CONTINUOUS
 62
     7
 10
19743.93866791849
 20
18620.93548349999
 30
0.0
 40
160.0
  1
間柱（側）
 72
     4
 11
20165.272001251818
 21
18700.93548349999
 31
0.0
  0
TEXT
  5
B953
  8
2-0
  6
CONTINUOUS
 62
     7
 10
17244.015015604709
 20
20500.489530748739
 30
0.0
 40
160.0
  1
後柱（左右）
 50
359.99964599999998
 72
     4
 11
17756.015509872181
 21
20580.48636737284
 31
0.0
  0
LINE
  5
B954
  8
2-0
  6
CONTINUOUS
 62
     3
 10
21261.511109585121
 20
19690.48399600001
 30
0.0
 11
21224.509947585149
 21
19690.48399600001
 31
0.0
  0
LINE
  5
B955
  8
2-0
  6
CONTINUOUS
 62
     3
 10
21261.511109585121
 20
19660.480433000001
 30
0.0
 11
21261.511109585121
 21
19690.48399600001
 31
0.0
  0
LINE
  5
B956
  8
2-0
  6
CONTINUOUS
 62
     3
 10
21255.511188585118
 20
19660.480433000001
 30
0.0
 11
21261.511109585121
 21
19660.480433000001
 31
0.0
  0
LINE
  5
B957
  8
2-0
  6
CONTINUOUS
 62
     3
 10
21271.608633585151
 20
19660.480433000001
 30
0.0
 11
21271.608633585151
 21
19690.48399600001
 31
0.0
  0
LINE
  5
B958
  8
2-0
  6
CONTINUOUS
 62
     3
 10
21253.60491258515
 20
19660.480433000001
 30
0.0
 11
21271.608633585151
 21
19660.480433000001
 31
0.0
  0
LINE
  5
B959
  8
2-0
  6
CONTINUOUS
 62
     3
 10
21253.60491258515
 20
19685.48967000001
 30
0.0
 11
21253.60491258515
 21
19660.480433000001
 31
0.0
  0
LINE
  5
B95A
  8
2-0
  6
CONTINUOUS
 62
     3
 10
21258.605176585152
 20
19685.48967000001
 30
0.0
 11
21253.60491258515
 21
19685.48967000001
 31
0.0
  0
LINE
  5
B95B
  8
2-0
  6
CONTINUOUS
 62
     3
 10
21258.605176585152
 20
19678.48415400002
 30
0.0
 11
21258.605176585152
 21
19685.48967000001
 31
0.0
  0
LINE
  5
B95C
  8
2-0
  6
CONTINUOUS
 62
     3
 10
21227.41588158513
 20
19678.48415400002
 30
0.0
 11
21227.41588158513
 21
19685.48967000001
 31
0.0
  0
LINE
  5
B95D
  8
2-0
  6
CONTINUOUS
 62
     3
 10
21227.41588158513
 20
19685.48967000001
 30
0.0
 11
21232.41614558515
 21
19685.48967000001
 31
0.0
  0
LINE
  5
B95E
  8
2-0
  6
CONTINUOUS
 62
     3
 10
21232.41614558515
 20
19685.48967000001
 30
0.0
 11
21232.41614558515
 21
19660.480433000001
 31
0.0
  0
LINE
  5
B95F
  8
2-0
  6
CONTINUOUS
 62
     3
 10
21232.41614558515
 20
19660.480433000001
 30
0.0
 11
21214.41638258515
 21
19660.480433000001
 31
0.0
  0
LINE
  5
B960
  8
2-0
  6
CONTINUOUS
 62
     3
 10
21214.41638258515
 20
19660.480433000001
 30
0.0
 11
21214.41638258515
 21
19690.48399600001
 31
0.0
  0
LINE
  5
B961
  8
2-0
  6
CONTINUOUS
 62
     3
 10
21230.50986858513
 20
19660.480433000001
 30
0.0
 11
21224.509947585149
 21
19660.480433000001
 31
0.0
  0
LINE
  5
B962
  8
2-0
  6
CONTINUOUS
 62
     3
 10
21224.509947585149
 20
19660.480433000001
 30
0.0
 11
21224.509947585149
 21
19690.48399600001
 31
0.0
  0
LINE
  5
B963
  8
2-0
  6
CONTINUOUS
 62
     3
 10
19856.600227085139
 20
19678.48415400002
 30
0.0
 11
19856.600227085139
 21
19685.48967000001
 31
0.0
  0
LINE
  5
B964
  8
2-0
  6
CONTINUOUS
 62
     3
 10
19856.600227085139
 20
19685.48967000001
 30
0.0
 11
19851.59996308514
 21
19685.48967000001
 31
0.0
  0
LINE
  5
B965
  8
2-0
  6
CONTINUOUS
 62
     3
 10
19851.59996308514
 20
19685.48967000001
 30
0.0
 11
19851.59996308514
 21
19660.480433000001
 31
0.0
  0
LINE
  5
B966
  8
2-0
  6
CONTINUOUS
 62
     3
 10
19851.59996308514
 20
19660.480433000001
 30
0.0
 11
19869.605664085149
 21
19660.480433000001
 31
0.0
  0
LINE
  5
B967
  8
2-0
  6
CONTINUOUS
 62
     3
 10
19869.605664085149
 20
19660.480433000001
 30
0.0
 11
19869.605664085149
 21
19690.48399600001
 31
0.0
  0
LINE
  5
B968
  8
2-0
  6
CONTINUOUS
 62
     3
 10
19853.508219085139
 20
19660.480433000001
 30
0.0
 11
19859.510119085131
 21
19660.480433000001
 31
0.0
  0
LINE
  5
B969
  8
2-0
  6
CONTINUOUS
 62
     3
 10
19859.510119085131
 20
19660.480433000001
 30
0.0
 11
19859.510119085131
 21
19690.48399600001
 31
0.0
  0
LINE
  5
B96A
  8
2-0
  6
CONTINUOUS
 62
     3
 10
19822.510938085139
 20
19690.48399600001
 30
0.0
 11
19859.510119085131
 21
19690.48399600001
 31
0.0
  0
LINE
  5
B96B
  8
2-0
  6
CONTINUOUS
 62
     3
 10
19822.510938085139
 20
19660.480433000001
 30
0.0
 11
19822.510938085139
 21
19690.48399600001
 31
0.0
  0
LINE
  5
B96C
  8
2-0
  6
CONTINUOUS
 62
     3
 10
19828.504920085139
 20
19660.480433000001
 30
0.0
 11
19822.510938085139
 21
19660.480433000001
 31
0.0
  0
LINE
  5
B96D
  8
2-0
  6
CONTINUOUS
 62
     3
 10
19812.415393085139
 20
19660.480433000001
 30
0.0
 11
19812.415393085139
 21
19690.48399600001
 31
0.0
  0
LINE
  5
B96E
  8
2-0
  6
CONTINUOUS
 62
     3
 10
19830.411196085141
 20
19660.480433000001
 30
0.0
 11
19812.415393085139
 21
19660.480433000001
 31
0.0
  0
LINE
  5
B96F
  8
2-0
  6
CONTINUOUS
 62
     3
 10
19830.411196085141
 20
19685.48967000001
 30
0.0
 11
19830.411196085141
 21
19660.480433000001
 31
0.0
  0
LINE
  5
B970
  8
2-0
  6
CONTINUOUS
 62
     3
 10
19825.410932085138
 20
19685.48967000001
 30
0.0
 11
19830.411196085141
 21
19685.48967000001
 31
0.0
  0
LINE
  5
B971
  8
2-0
  6
CONTINUOUS
 62
     3
 10
19825.410932085138
 20
19678.48415400002
 30
0.0
 11
19825.410932085138
 21
19685.48967000001
 31
0.0
  0
LINE
  5
B972
  8
2-0
  6
CONTINUOUS
 62
     3
 10
20526.409943085138
 20
19678.48415400002
 30
0.0
 11
20526.409943085138
 21
19685.48967000001
 31
0.0
  0
LINE
  5
B973
  8
2-0
  6
CONTINUOUS
 62
     3
 10
20526.409943085138
 20
19685.48967000001
 30
0.0
 11
20531.410206085151
 21
19685.48967000001
 31
0.0
  0
LINE
  5
B974
  8
2-0
  6
CONTINUOUS
 62
     3
 10
20531.410206085151
 20
19685.48967000001
 30
0.0
 11
20531.410206085151
 21
19660.480433000001
 31
0.0
  0
LINE
  5
B975
  8
2-0
  6
CONTINUOUS
 62
     3
 10
20531.410206085151
 20
19660.480433000001
 30
0.0
 11
20513.416383085139
 21
19660.480433000001
 31
0.0
  0
LINE
  5
B976
  8
2-0
  6
CONTINUOUS
 62
     3
 10
20513.416383085139
 20
19660.480433000001
 30
0.0
 11
20513.416383085139
 21
19690.48399600001
 31
0.0
  0
LINE
  5
B977
  8
2-0
  6
CONTINUOUS
 62
     3
 10
20529.507889085118
 20
19660.480433000001
 30
0.0
 11
20523.509948085139
 21
19660.480433000001
 31
0.0
  0
LINE
  5
B978
  8
2-0
  6
CONTINUOUS
 62
     3
 10
20523.509948085139
 20
19660.480433000001
 30
0.0
 11
20523.509948085139
 21
19690.48399600001
 31
0.0
  0
LINE
  5
B979
  8
2-0
  6
CONTINUOUS
 62
     3
 10
20560.51110908515
 20
19690.48399600001
 30
0.0
 11
20523.509948085139
 21
19690.48399600001
 31
0.0
  0
LINE
  5
B97A
  8
2-0
  6
CONTINUOUS
 62
     3
 10
20560.51110908515
 20
19660.480433000001
 30
0.0
 11
20560.51110908515
 21
19690.48399600001
 31
0.0
  0
LINE
  5
B97B
  8
2-0
  6
CONTINUOUS
 62
     3
 10
20554.505250085149
 20
19660.480433000001
 30
0.0
 11
20560.51110908515
 21
19660.480433000001
 31
0.0
  0
LINE
  5
B97C
  8
2-0
  6
CONTINUOUS
 62
     3
 10
20570.604674085149
 20
19660.480433000001
 30
0.0
 11
20570.604674085149
 21
19690.48399600001
 31
0.0
  0
LINE
  5
B97D
  8
2-0
  6
CONTINUOUS
 62
     3
 10
20552.60887108514
 20
19660.480433000001
 30
0.0
 11
20570.604674085149
 21
19660.480433000001
 31
0.0
  0
LINE
  5
B97E
  8
2-0
  6
CONTINUOUS
 62
     3
 10
20552.60887108514
 20
19685.48967000001
 30
0.0
 11
20552.60887108514
 21
19660.480433000001
 31
0.0
  0
LINE
  5
B97F
  8
2-0
  6
CONTINUOUS
 62
     3
 10
20557.599237085149
 20
19685.48967000001
 30
0.0
 11
20552.60887108514
 21
19685.48967000001
 31
0.0
  0
LINE
  5
B980
  8
2-0
  6
CONTINUOUS
 62
     3
 10
20557.599237085149
 20
19678.48415400002
 30
0.0
 11
20557.599237085149
 21
19685.48967000001
 31
0.0
  0
LINE
  5
B981
  8
2-0
  6
CONTINUOUS
 62
     3
 10
19869.605664085149
 20
19690.48399600001
 30
0.0
 11
20513.416383085139
 21
19690.48399600001
 31
0.0
  0
LINE
  5
B982
  8
2-0
  6
CONTINUOUS
 62
     3
 10
19165.81577058513
 20
19690.48399600001
 30
0.0
 11
19812.415393085139
 21
19690.48399600001
 31
0.0
  0
LINE
  5
B983
  8
2-0
  6
CONTINUOUS
 62
     3
 10
21918.89415858515
 20
19690.48399600001
 30
0.0
 11
21271.608633585151
 21
19690.48399600001
 31
0.0
  0
LINE
  5
B984
  8
2-0
  6
CONTINUOUS
 62
     3
 10
21214.41638258515
 20
19690.48399600001
 30
0.0
 11
20570.604674085149
 21
19690.48399600001
 31
0.0
  0
LINE
  5
B985
  8
2-0
  6
CONTINUOUS
 62
     3
 10
22043.508812585129
 20
15242.62514799999
 30
0.0
 11
22043.508812585129
 21
14598.586289999999
 31
0.0
  0
LINE
  5
B986
  8
2-0
  6
CONTINUOUS
 62
     3
 10
22043.508812585129
 20
14541.390079999999
 30
0.0
 11
22043.508812585129
 21
13894.523717999989
 31
0.0
  0
LINE
  5
B987
  8
0-6
  6
CONTINUOUS
 62
     6
 10
20274.14602008514
 20
18979.165767999999
 30
0.0
 11
21299.186270085149
 21
18979.165767999999
 31
0.0
  0
LINE
  5
B988
  8
0-6
  6
CONTINUOUS
 62
     6
 10
19974.22124208515
 20
19536.51902
 30
0.0
 11
19869.605664085149
 21
19660.480433000001
 31
0.0
  0
LINE
  5
B989
  8
0-6
  6
CONTINUOUS
 62
     6
 10
19869.605664085149
 20
19660.480433000001
 30
0.0
 11
19928.36371408515
 21
19509.288763000019
 31
0.0
  0
LINE
  5
B98A
  8
0-6
  6
CONTINUOUS
 62
     6
 10
19869.605664085149
 20
19660.480433000001
 30
0.0
 11
19974.22124208515
 21
19536.51902
 31
0.0
  0
LINE
  5
B98B
  8
0-6
  6
CONTINUOUS
 62
     6
 10
19974.22124208515
 20
19536.51902
 30
0.0
 11
19928.36371408515
 21
19509.288763000019
 31
0.0
  0
LINE
  5
B98C
  8
0-6
  6
CONTINUOUS
 62
     6
 10
19928.36371408515
 20
19509.288763000019
 30
0.0
 11
19869.605664085149
 21
19660.480433000001
 31
0.0
  0
LINE
  5
B98D
  8
0-6
  6
CONTINUOUS
 62
     6
 10
19928.36371408515
 20
19509.288763000019
 30
0.0
 11
19974.22124208515
 21
19536.51902
 31
0.0
  0
LINE
  5
B98E
  8
0-6
  6
CONTINUOUS
 62
     6
 10
19951.29247808515
 20
19522.90587100001
 30
0.0
 11
20274.14602008514
 21
18979.165767999999
 31
0.0
  0
TEXT
  5
B98F
  8
0-6
  6
CONTINUOUS
 62
     7
 10
20354.146284085149
 20
19059.16801200002
 30
0.0
 40
160.0
  1
間柱（後）
 72
     4
 11
20775.479617418481
 21
19139.16801200002
 31
0.0
  0
LINE
  5
B990
  8
SUNPOU
  6
CONTINUOUS
 62
     4
 10
19841.01052858515
 20
19770.483996000021
 30
0.0
 11
19841.01052858515
 21
20500.48689900001
 31
0.0
  0
LINE
  5
B991
  8
SUNPOU
  6
CONTINUOUS
 62
     4
 10
19083.01052858515
 20
19770.483996000021
 30
0.0
 11
19083.01052858515
 21
20500.48689900001
 31
0.0
  0
LINE
  5
B992
  8
SUNPOU
  6
CONTINUOUS
 62
     4
 10
19841.01052858515
 20
20420.48689900001
 30
0.0
 11
19083.01052858515
 21
20420.48689900001
 31
0.0
  0
LINE
  5
B993
  8
SUNPOU
  6
CONTINUOUS
 62
     4
 10
19083.01052858515
 20
13106.222277000001
 30
0.0
 11
19083.01052858515
 21
12760.537627
 31
0.0
  0
LINE
  5
B994
  8
SUNPOU
  6
CONTINUOUS
 62
     4
 10
19040.508285585151
 20
13689.488416
 30
0.0
 11
19040.508285585151
 21
12760.537627
 31
0.0
  0
LINE
  5
B995
  8
SUNPOU
  6
CONTINUOUS
 62
     4
 10
19083.01052858515
 20
12840.537627
 30
0.0
 11
19323.01052858515
 21
12840.537627
 31
0.0
  0
LINE
  5
B996
  8
SUNPOU
  6
CONTINUOUS
 62
     4
 10
19040.508285585151
 20
12840.537627
 30
0.0
 11
18800.508285585151
 21
12840.537627
 31
0.0
  0
LINE
  5
B997
  8
SUNPOU
  6
CONTINUOUS
 62
     4
 10
19083.01052858515
 20
12840.537627
 30
0.0
 11
19040.508285585151
 21
12840.537627
 31
0.0
  0
LINE
  5
B998
  8
SUNPOU
  6
CONTINUOUS
 62
     4
 10
22001.01052858515
 20
13106.222277000001
 30
0.0
 11
22001.01052858515
 21
12760.537627
 31
0.0
  0
LINE
  5
B999
  8
SUNPOU
  6
CONTINUOUS
 62
     4
 10
22043.512771585141
 20
13689.488416
 30
0.0
 11
22043.512771585141
 21
12760.537627
 31
0.0
  0
LINE
  5
B99A
  8
SUNPOU
  6
CONTINUOUS
 62
     4
 10
22001.01052858515
 20
12840.537627
 30
0.0
 11
21761.01052858515
 21
12840.537627
 31
0.0
  0
LINE
  5
B99B
  8
SUNPOU
  6
CONTINUOUS
 62
     4
 10
22043.512771585141
 20
12840.537627
 30
0.0
 11
22283.512771585141
 21
12840.537627
 31
0.0
  0
LINE
  5
B99C
  8
SUNPOU
  6
CONTINUOUS
 62
     4
 10
22001.01052858515
 20
12840.537627
 30
0.0
 11
22043.512771585141
 21
12840.537627
 31
0.0
  0
LINE
  5
B99D
  8
SUNPOU
  6
CONTINUOUS
 62
     4
 10
22001.01052858515
 20
13106.222277000001
 30
0.0
 11
22001.01052858515
 21
12760.537627
 31
0.0
  0
LINE
  5
B99E
  8
SUNPOU
  6
CONTINUOUS
 62
     4
 10
21958.50828558514
 20
13689.488416
 30
0.0
 11
21958.50828558514
 21
12760.537627
 31
0.0
  0
LINE
  5
B99F
  8
SUNPOU
  6
CONTINUOUS
 62
     4
 10
22001.01052858515
 20
12840.537627
 30
0.0
 11
22241.01052858515
 21
12840.537627
 31
0.0
  0
LINE
  5
B9A0
  8
SUNPOU
  6
CONTINUOUS
 62
     4
 10
21958.50828558514
 20
12840.537627
 30
0.0
 11
21718.50828558514
 21
12840.537627
 31
0.0
  0
LINE
  5
B9A1
  8
SUNPOU
  6
CONTINUOUS
 62
     4
 10
22001.01052858515
 20
12840.537627
 30
0.0
 11
21958.50828558514
 21
12840.537627
 31
0.0
  0
LINE
  5
B9A2
  8
SUNPOU
  6
CONTINUOUS
 62
     4
 10
19083.01052858515
 20
13106.222277000001
 30
0.0
 11
19083.01052858515
 21
12760.537627
 31
0.0
  0
LINE
  5
B9A3
  8
SUNPOU
  6
CONTINUOUS
 62
     4
 10
19125.51277158513
 20
13689.488416
 30
0.0
 11
19125.51277158513
 21
12760.537627
 31
0.0
  0
LINE
  5
B9A4
  8
SUNPOU
  6
CONTINUOUS
 62
     4
 10
19083.01052858515
 20
12840.537627
 30
0.0
 11
18843.01052858515
 21
12840.537627
 31
0.0
  0
LINE
  5
B9A5
  8
SUNPOU
  6
CONTINUOUS
 62
     4
 10
19125.51277158513
 20
12840.537627
 30
0.0
 11
19365.512771585141
 21
12840.537627
 31
0.0
  0
LINE
  5
B9A6
  8
SUNPOU
  6
CONTINUOUS
 62
     4
 10
19083.01052858515
 20
12840.537627
 30
0.0
 11
19125.51277158513
 21
12840.537627
 31
0.0
  0
LINE
  5
B9A7
  8
SUNPOU
  6
CONTINUOUS
 62
     4
 10
19040.508285585151
 20
13689.488416
 30
0.0
 11
19040.508285585151
 21
12360.537627
 31
0.0
  0
LINE
  5
B9A8
  8
SUNPOU
  6
CONTINUOUS
 62
     4
 10
22043.512771585141
 20
13689.488416
 30
0.0
 11
22043.512771585141
 21
12360.537627
 31
0.0
  0
LINE
  5
B9A9
  8
SUNPOU
  6
CONTINUOUS
 62
     4
 10
19040.508285585151
 20
12440.537627
 30
0.0
 11
22043.512771585141
 21
12440.537627
 31
0.0
  0
LINE
  5
B9AA
  8
SUNPOU
  6
CONTINUOUS
 62
     4
 10
18960.512244585159
 20
14569.985710999999
 30
0.0
 11
17910.51092458516
 21
14569.985710999999
 31
0.0
  0
LINE
  5
B9AB
  8
SUNPOU
  6
CONTINUOUS
 62
     4
 10
18110.51092458516
 20
13811.985710999999
 30
0.0
 11
17910.51092458516
 21
13811.985710999999
 31
0.0
  0
LINE
  5
B9AC
  8
SUNPOU
  6
CONTINUOUS
 62
     4
 10
17990.51092458516
 20
14569.985710999999
 30
0.0
 11
17990.51092458516
 21
13811.985710999999
 31
0.0
  0
LINE
  5
B9AD
  8
SUNPOU
  6
CONTINUOUS
 62
     4
 10
18960.512244585159
 20
15271.22622250001
 30
0.0
 11
17910.51092458516
 21
15271.22622250001
 31
0.0
  0
LINE
  5
B9AE
  8
SUNPOU
  6
CONTINUOUS
 62
     4
 10
18960.512244585159
 20
14569.985710999999
 30
0.0
 11
17910.51092458516
 21
14569.985710999999
 31
0.0
  0
LINE
  5
B9AF
  8
SUNPOU
  6
CONTINUOUS
 62
     4
 10
17990.51092458516
 20
15271.22622250001
 30
0.0
 11
17990.51092458516
 21
14569.985710999999
 31
0.0
  0
LINE
  5
B9B0
  8
SUNPOU
  6
CONTINUOUS
 62
     4
 10
18960.512244585159
 20
15971.985710999999
 30
0.0
 11
17910.51092458516
 21
15971.985710999999
 31
0.0
  0
LINE
  5
B9B1
  8
SUNPOU
  6
CONTINUOUS
 62
     4
 10
18960.512244585159
 20
15271.22622250001
 30
0.0
 11
17910.51092458516
 21
15271.22622250001
 31
0.0
  0
LINE
  5
B9B2
  8
SUNPOU
  6
CONTINUOUS
 62
     4
 10
17990.51092458516
 20
15971.985710999999
 30
0.0
 11
17990.51092458516
 21
15271.22622250001
 31
0.0
  0
LINE
  5
B9B3
  8
SUNPOU
  6
CONTINUOUS
 62
     4
 10
18110.51092458516
 20
16729.98571099999
 30
0.0
 11
17910.51092458516
 21
16729.98571099999
 31
0.0
  0
LINE
  5
B9B4
  8
SUNPOU
  6
CONTINUOUS
 62
     4
 10
18960.512244585159
 20
15971.985710999999
 30
0.0
 11
17910.51092458516
 21
15971.985710999999
 31
0.0
  0
LINE
  5
B9B5
  8
SUNPOU
  6
CONTINUOUS
 62
     4
 10
17990.51092458516
 20
16729.98571099999
 30
0.0
 11
17990.51092458516
 21
15971.985710999999
 31
0.0
  0
LINE
  5
B9B6
  8
SUNPOU
  6
CONTINUOUS
 62
     4
 10
18960.512244585159
 20
17487.98571099999
 30
0.0
 11
17910.51092458516
 21
17487.98571099999
 31
0.0
  0
LINE
  5
B9B7
  8
SUNPOU
  6
CONTINUOUS
 62
     4
 10
18110.51092458516
 20
16729.98571099999
 30
0.0
 11
17910.51092458516
 21
16729.98571099999
 31
0.0
  0
LINE
  5
B9B8
  8
SUNPOU
  6
CONTINUOUS
 62
     4
 10
17990.51092458516
 20
17487.98571099999
 30
0.0
 11
17990.51092458516
 21
16729.98571099999
 31
0.0
  0
LINE
  5
B9B9
  8
SUNPOU
  6
CONTINUOUS
 62
     4
 10
18960.512244585159
 20
18188.98571099999
 30
0.0
 11
17910.51092458516
 21
18188.98571099999
 31
0.0
  0
LINE
  5
B9BA
  8
SUNPOU
  6
CONTINUOUS
 62
     4
 10
18960.512244585159
 20
17487.98571099999
 30
0.0
 11
17910.51092458516
 21
17487.98571099999
 31
0.0
  0
LINE
  5
B9BB
  8
SUNPOU
  6
CONTINUOUS
 62
     4
 10
17990.51092458516
 20
18188.98571099999
 30
0.0
 11
17990.51092458516
 21
17487.98571099999
 31
0.0
  0
LINE
  5
B9BC
  8
SUNPOU
  6
CONTINUOUS
 62
     4
 10
18960.512244585159
 20
18889.985711000001
 30
0.0
 11
17910.51092458516
 21
18889.98571099999
 31
0.0
  0
LINE
  5
B9BD
  8
SUNPOU
  6
CONTINUOUS
 62
     4
 10
18960.512244585159
 20
18188.98571099999
 30
0.0
 11
17910.51092458516
 21
18188.98571099999
 31
0.0
  0
LINE
  5
B9BE
  8
SUNPOU
  6
CONTINUOUS
 62
     4
 10
17990.51092458516
 20
18889.98571099999
 30
0.0
 11
17990.51092458516
 21
18188.98571099999
 31
0.0
  0
LINE
  5
B9BF
  8
SUNPOU
  6
CONTINUOUS
 62
     4
 10
18110.51092458516
 20
19647.98571099999
 30
0.0
 11
17910.51092458516
 21
19647.98571099999
 31
0.0
  0
LINE
  5
B9C0
  8
SUNPOU
  6
CONTINUOUS
 62
     4
 10
18960.512244585159
 20
18889.985711000001
 30
0.0
 11
17910.51092458516
 21
18889.98571099999
 31
0.0
  0
LINE
  5
B9C1
  8
SUNPOU
  6
CONTINUOUS
 62
     4
 10
17990.51092458516
 20
19647.98571099999
 30
0.0
 11
17990.51092458516
 21
18889.98571099999
 31
0.0
  0
LINE
  5
B9C2
  8
SUNPOU
  6
CONTINUOUS
 62
     4
 10
18110.51092458516
 20
19647.98571099999
 30
0.0
 11
17910.51092458516
 21
19647.98571099999
 31
0.0
  0
LINE
  5
B9C3
  8
SUNPOU
  6
CONTINUOUS
 62
     4
 10
18110.51092458516
 20
13811.985710999999
 30
0.0
 11
17910.51092458516
 21
13811.985710999999
 31
0.0
  0
LINE
  5
B9C4
  8
SUNPOU
  6
CONTINUOUS
 62
     4
 10
18960.512244585159
 20
19690.483005999999
 30
0.0
 11
17510.510924585149
 21
19690.48300599998
 31
0.0
  0
LINE
  5
B9C5
  8
SUNPOU
  6
CONTINUOUS
 62
     4
 10
18960.512244585159
 20
13769.488416
 30
0.0
 11
17510.510924585149
 21
13769.488416
 31
0.0
  0
LINE
  5
B9C6
  8
SUNPOU
  6
CONTINUOUS
 62
     4
 10
17590.510924585149
 20
19690.48300599998
 30
0.0
 11
17590.510924585149
 21
13769.488416
 31
0.0
  0
LINE
  5
B9C7
  8
SUNPOU
  6
CONTINUOUS
 62
     4
 10
18110.51092458516
 20
19647.98571099999
 30
0.0
 11
17910.51092458516
 21
19647.98571099999
 31
0.0
  0
LINE
  5
B9C8
  8
SUNPOU
  6
CONTINUOUS
 62
     4
 10
18960.512244585159
 20
19690.483005999999
 30
0.0
 11
17910.51092458516
 21
19690.48300599998
 31
0.0
  0
LINE
  5
B9C9
  8
SUNPOU
  6
CONTINUOUS
 62
     4
 10
17990.51092458516
 20
19647.98571099999
 30
0.0
 11
17990.51092458516
 21
19407.98571099999
 31
0.0
  0
LINE
  5
B9CA
  8
SUNPOU
  6
CONTINUOUS
 62
     4
 10
17990.51092458516
 20
19690.48300599998
 30
0.0
 11
17990.51092458516
 21
19930.48300599998
 31
0.0
  0
LINE
  5
B9CB
  8
SUNPOU
  6
CONTINUOUS
 62
     4
 10
17990.51092458516
 20
19647.98571099999
 30
0.0
 11
17990.51092458516
 21
19690.48300599998
 31
0.0
  0
LINE
  5
B9CC
  8
SUNPOU
  6
CONTINUOUS
 62
     4
 10
18110.51092458516
 20
13811.985710999999
 30
0.0
 11
17910.51092458516
 21
13811.985710999999
 31
0.0
  0
LINE
  5
B9CD
  8
SUNPOU
  6
CONTINUOUS
 62
     4
 10
18960.512244585159
 20
13769.488416
 30
0.0
 11
17910.51092458516
 21
13769.488416
 31
0.0
  0
LINE
  5
B9CE
  8
SUNPOU
  6
CONTINUOUS
 62
     4
 10
17990.51092458516
 20
13811.985710999999
 30
0.0
 11
17990.51092458516
 21
14051.985710999999
 31
0.0
  0
LINE
  5
B9CF
  8
SUNPOU
  6
CONTINUOUS
 62
     4
 10
17990.51092458516
 20
13769.488416
 30
0.0
 11
17990.51092458516
 21
13529.488416
 31
0.0
  0
LINE
  5
B9D0
  8
SUNPOU
  6
CONTINUOUS
 62
     4
 10
17990.51092458516
 20
13811.985710999999
 30
0.0
 11
17990.51092458516
 21
13769.488416
 31
0.0
  0
LINE
  5
B9D1
  8
SUNPOU
  6
CONTINUOUS
 62
     4
 10
21243.01052858515
 20
19770.483996000021
 30
0.0
 11
21243.01052858515
 21
20500.48689900001
 31
0.0
  0
LINE
  5
B9D2
  8
SUNPOU
  6
CONTINUOUS
 62
     4
 10
22001.01151808515
 20
19770.483996000021
 30
0.0
 11
22001.01151808515
 21
20500.48689900001
 31
0.0
  0
LINE
  5
B9D3
  8
SUNPOU
  6
CONTINUOUS
 62
     4
 10
21243.01052858515
 20
20420.48689900001
 30
0.0
 11
22001.01151808515
 21
20420.48689900001
 31
0.0
  0
LINE
  5
B9D4
  8
SUNPOU
  6
CONTINUOUS
 62
     4
 10
20542.01052858515
 20
19770.483996000021
 30
0.0
 11
20542.01052858515
 21
20500.48689900001
 31
0.0
  0
LINE
  5
B9D5
  8
SUNPOU
  6
CONTINUOUS
 62
     4
 10
21243.01052858515
 20
19770.483996000021
 30
0.0
 11
21243.01052858515
 21
20500.48689900001
 31
0.0
  0
LINE
  5
B9D6
  8
SUNPOU
  6
CONTINUOUS
 62
     4
 10
20542.01052858515
 20
20420.48689900001
 30
0.0
 11
21243.01052858515
 21
20420.48689900001
 31
0.0
  0
LINE
  5
B9D7
  8
SUNPOU
  6
CONTINUOUS
 62
     4
 10
19841.01052858515
 20
19770.483996000021
 30
0.0
 11
19841.01052858515
 21
20500.48689900001
 31
0.0
  0
LINE
  5
B9D8
  8
SUNPOU
  6
CONTINUOUS
 62
     4
 10
20542.01052858515
 20
19770.483996000021
 30
0.0
 11
20542.01052858515
 21
20500.48689900001
 31
0.0
  0
LINE
  5
B9D9
  8
SUNPOU
  6
CONTINUOUS
 62
     4
 10
19841.01052858515
 20
20420.48689900001
 30
0.0
 11
20542.01052858515
 21
20420.48689900001
 31
0.0
  0
LINE
  5
B9DA
  8
SUNPOU
  6
CONTINUOUS
 62
     4
 10
22001.01052858515
 20
19770.483996000021
 30
0.0
 11
22001.01052858515
 21
20500.48689900001
 31
0.0
  0
LINE
  5
B9DB
  8
SUNPOU
  6
CONTINUOUS
 62
     4
 10
22043.506833585139
 20
19770.483996000021
 30
0.0
 11
22043.506833585139
 21
20500.48689900001
 31
0.0
  0
LINE
  5
B9DC
  8
SUNPOU
  6
CONTINUOUS
 62
     4
 10
22001.01052858515
 20
20420.48689900001
 30
0.0
 11
21761.01052858515
 21
20420.48689900001
 31
0.0
  0
LINE
  5
B9DD
  8
SUNPOU
  6
CONTINUOUS
 62
     4
 10
22043.506833585139
 20
20420.48689900001
 30
0.0
 11
22283.506833585139
 21
20420.48689900001
 31
0.0
  0
LINE
  5
B9DE
  8
SUNPOU
  6
CONTINUOUS
 62
     4
 10
22001.01052858515
 20
20420.48689900001
 30
0.0
 11
22043.506833585139
 21
20420.48689900001
 31
0.0
  0
LINE
  5
B9DF
  8
SUNPOU
  6
CONTINUOUS
 62
     4
 10
19083.01052858515
 20
19770.483996000021
 30
0.0
 11
19083.01052858515
 21
20500.48689900001
 31
0.0
  0
LINE
  5
B9E0
  8
SUNPOU
  6
CONTINUOUS
 62
     4
 10
19040.514223585142
 20
19770.483996000021
 30
0.0
 11
19040.514223585142
 21
20500.48689900001
 31
0.0
  0
LINE
  5
B9E1
  8
SUNPOU
  6
CONTINUOUS
 62
     4
 10
19083.01052858515
 20
20420.48689900001
 30
0.0
 11
19323.01052858515
 21
20420.48689900001
 31
0.0
  0
LINE
  5
B9E2
  8
SUNPOU
  6
CONTINUOUS
 62
     4
 10
19040.514223585142
 20
20420.48689900001
 30
0.0
 11
18800.514223585142
 21
20420.48689900001
 31
0.0
  0
LINE
  5
B9E3
  8
SUNPOU
  6
CONTINUOUS
 62
     4
 10
19083.01052858515
 20
20420.48689900001
 30
0.0
 11
19040.514223585142
 21
20420.48689900001
 31
0.0
  0
TEXT
  5
B9E4
  8
0
  6
CONTINUOUS
 62
     7
 10
18480.198549056331
 20
20500.48689900001
 30
0.0
 40
160.0
  1
42.5
  0
TEXT
  5
B9E5
  8
0
  6
CONTINUOUS
 62
     7
 10
22123.822508113939
 20
20500.48689900001
 30
0.0
 40
160.0
  1
42.5
  0
TEXT
  5
B9E6
  8
0
  6
CONTINUOUS
 62
     7
 10
20018.17719525181
 20
20500.48689900001
 30
0.0
 40
160.0
  1
701
  0
TEXT
  5
B9E7
  8
0
  6
CONTINUOUS
 62
     7
 10
20719.17719525181
 20
20500.48689900001
 30
0.0
 40
160.0
  1
701
  0
TEXT
  5
B9E8
  8
0
  6
CONTINUOUS
 62
     7
 10
21408.677690001801
 20
20500.48689900001
 30
0.0
 40
160.0
  1
758
  0
TEXT
  5
B9E9
  8
0
  6
CONTINUOUS
 62
     7
 10
17910.51092458516
 20
13195.932179603211
 30
0.0
 40
160.0
  1
42.5
 50
90.0
  0
TEXT
  5
B9EA
  8
0
  6
CONTINUOUS
 62
     7
 10
17910.51092458516
 20
19784.03924239679
 30
0.0
 40
160.0
  1
42.5
 50
90.0
  0
TEXT
  5
B9EB
  8
0
  6
CONTINUOUS
 62
     7
 10
17510.510924585149
 20
16463.31904433333
 30
0.0
 40
160.0
  1
5921
 50
90.0
  0
TEXT
  5
B9EC
  8
0
  6
CONTINUOUS
 62
     7
 10
17910.51092458516
 20
19055.652377666669
 30
0.0
 40
160.0
  1
758
 50
90.0
  0
TEXT
  5
B9ED
  8
0
  6
CONTINUOUS
 62
     7
 10
17910.51092458516
 20
18366.152377666662
 30
0.0
 40
160.0
  1
701
 50
90.0
  0
TEXT
  5
B9EE
  8
0
  6
CONTINUOUS
 62
     7
 10
17910.51092458516
 20
17665.152377666669
 30
0.0
 40
160.0
  1
701
 50
90.0
  0
TEXT
  5
B9EF
  8
0
  6
CONTINUOUS
 62
     7
 10
17910.51092458516
 20
16895.652377666669
 30
0.0
 40
160.0
  1
758
 50
90.0
  0
TEXT
  5
B9F0
  8
0
  6
CONTINUOUS
 62
     7
 10
17910.51092458516
 20
16137.652377666671
 30
0.0
 40
160.0
  1
758
 50
90.0
  0
TEXT
  5
B9F1
  8
0
  6
CONTINUOUS
 62
     7
 10
17910.51092458516
 20
15448.27263341668
 30
0.0
 40
160.0
  1
701
 50
90.0
  0
TEXT
  5
B9F2
  8
0
  6
CONTINUOUS
 62
     7
 10
17910.51092458516
 20
14747.27263341668
 30
0.0
 40
160.0
  1
701
 50
90.0
  0
TEXT
  5
B9F3
  8
0
  6
CONTINUOUS
 62
     7
 10
17910.51092458516
 20
13977.652377666671
 30
0.0
 40
160.0
  1
758
 50
90.0
  0
TEXT
  5
B9F4
  8
0
  6
CONTINUOUS
 62
     7
 10
20275.343861918482
 20
12520.537627
 30
0.0
 40
160.0
  1
3003
  0
TEXT
  5
B9F5
  8
0
  6
CONTINUOUS
 62
     7
 10
19201.06420096723
 20
12920.537627
 30
0.0
 40
160.0
  1
42.5
  0
TEXT
  5
B9F6
  8
0
  6
CONTINUOUS
 62
     7
 10
21402.95685620304
 20
12920.537627
 30
0.0
 40
160.0
  1
42.5
  0
TEXT
  5
B9F7
  8
0
  6
CONTINUOUS
 62
     7
 10
22119.064200967241
 20
12920.537627
 30
0.0
 40
160.0
  1
42.5
  0
TEXT
  5
B9F8
  8
0
  6
CONTINUOUS
 62
     7
 10
18484.95685620304
 20
12920.537627
 30
0.0
 40
160.0
  1
42.5
  0
TEXT
  5
B9F9
  8
0
  6
CONTINUOUS
 62
     7
 10
19248.67719525181
 20
20500.48689900001
 30
0.0
 40
160.0
  1
758
  0
ARC
  5
B9FA
  8
0
  6
BYBLOCK
 62
     0
 10
19841.01052858515
 20
20420.48689900001
 30
0.0
 40
15.0
 50
180.0
 51
0.0
  0
ARC
  5
B9FB
  8
0
  6
BYBLOCK
 62
     0
 10
19841.01052858515
 20
20420.48689900001
 30
0.0
 40
15.0
 50
0.0
 51
180.0
  0
ARC
  5
B9FC
  8
0
  6
BYBLOCK
 62
     0
 10
19083.01052858515
 20
20420.48689900001
 30
0.0
 40
15.0
 50
0.0
 51
180.0
  0
ARC
  5
B9FD
  8
0
  6
BYBLOCK
 62
     0
 10
19083.01052858515
 20
20420.48689900001
 30
0.0
 40
15.0
 50
180.0
 51
0.0
  0
ARC
  5
B9FE
  8
0
  6
BYBLOCK
 62
     0
 10
19083.01052858515
 20
12840.537627
 30
0.0
 40
15.0
 50
0.0
 51
180.0
  0
ARC
  5
B9FF
  8
0
  6
BYBLOCK
 62
     0
 10
19083.01052858515
 20
12840.537627
 30
0.0
 40
15.0
 50
180.0
 51
0.0
  0
ARC
  5
BA00
  8
0
  6
BYBLOCK
 62
     0
 10
19040.508285585151
 20
12840.537627
 30
0.0
 40
15.0
 50
180.0
 51
0.0
  0
ARC
  5
BA01
  8
0
  6
BYBLOCK
 62
     0
 10
19040.508285585151
 20
12840.537627
 30
0.0
 40
15.0
 50
0.0
 51
180.0
  0
ARC
  5
BA02
  8
0
  6
BYBLOCK
 62
     0
 10
22001.01052858515
 20
12840.537627
 30
0.0
 40
15.0
 50
180.0
 51
0.0
  0
ARC
  5
BA03
  8
0
  6
BYBLOCK
 62
     0
 10
22001.01052858515
 20
12840.537627
 30
0.0
 40
15.0
 50
0.0
 51
180.0
  0
ARC
  5
BA04
  8
0
  6
BYBLOCK
 62
     0
 10
22043.512771585141
 20
12840.537627
 30
0.0
 40
15.0
 50
0.0
 51
180.0
  0
ARC
  5
BA05
  8
0
  6
BYBLOCK
 62
     0
 10
22043.512771585141
 20
12840.537627
 30
0.0
 40
15.0
 50
180.0
 51
0.0
  0
ARC
  5
BA06
  8
0
  6
BYBLOCK
 62
     0
 10
22001.01052858515
 20
12840.537627
 30
0.0
 40
15.0
 50
0.0
 51
180.0
  0
ARC
  5
BA07
  8
0
  6
BYBLOCK
 62
     0
 10
22001.01052858515
 20
12840.537627
 30
0.0
 40
15.0
 50
180.0
 51
0.0
  0
ARC
  5
BA08
  8
0
  6
BYBLOCK
 62
     0
 10
21958.50828558514
 20
12840.537627
 30
0.0
 40
15.0
 50
180.0
 51
0.0
  0
ARC
  5
BA09
  8
0
  6
BYBLOCK
 62
     0
 10
21958.50828558514
 20
12840.537627
 30
0.0
 40
15.0
 50
0.0
 51
180.0
  0
ARC
  5
BA0A
  8
0
  6
BYBLOCK
 62
     0
 10
19083.01052858515
 20
12840.537627
 30
0.0
 40
15.0
 50
180.0
 51
0.0
  0
ARC
  5
BA0B
  8
0
  6
BYBLOCK
 62
     0
 10
19083.01052858515
 20
12840.537627
 30
0.0
 40
15.0
 50
0.0
 51
180.0
  0
ARC
  5
BA0C
  8
0
  6
BYBLOCK
 62
     0
 10
19125.51277158513
 20
12840.537627
 30
0.0
 40
15.0
 50
0.0
 51
180.0
  0
ARC
  5
BA0D
  8
0
  6
BYBLOCK
 62
     0
 10
19125.51277158513
 20
12840.537627
 30
0.0
 40
15.0
 50
180.0
 51
0.0
  0
ARC
  5
BA0E
  8
0
  6
BYBLOCK
 62
     0
 10
19040.508285585151
 20
12440.537627
 30
0.0
 40
15.0
 50
0.0
 51
180.0
  0
ARC
  5
BA0F
  8
0
  6
BYBLOCK
 62
     0
 10
19040.508285585151
 20
12440.537627
 30
0.0
 40
15.0
 50
180.0
 51
0.0
  0
ARC
  5
BA10
  8
0
  6
BYBLOCK
 62
     0
 10
22043.512771585141
 20
12440.537627
 30
0.0
 40
15.0
 50
180.0
 51
0.0
  0
ARC
  5
BA11
  8
0
  6
BYBLOCK
 62
     0
 10
22043.512771585141
 20
12440.537627
 30
0.0
 40
15.0
 50
0.0
 51
180.0
  0
ARC
  5
BA12
  8
0
  6
BYBLOCK
 62
     0
 10
17990.51092458516
 20
14569.985710999999
 30
0.0
 40
15.0
 50
90.0
 51
270.0
  0
ARC
  5
BA13
  8
0
  6
BYBLOCK
 62
     0
 10
17990.51092458516
 20
14569.985710999999
 30
0.0
 40
15.0
 50
270.0
 51
90.0
  0
ARC
  5
BA14
  8
0
  6
BYBLOCK
 62
     0
 10
17990.51092458516
 20
13811.985710999999
 30
0.0
 40
15.0
 50
270.0
 51
90.0
  0
ARC
  5
BA15
  8
0
  6
BYBLOCK
 62
     0
 10
17990.51092458516
 20
13811.985710999999
 30
0.0
 40
15.0
 50
90.0
 51
270.0
  0
ARC
  5
BA16
  8
0
  6
BYBLOCK
 62
     0
 10
17990.51092458516
 20
15271.22622250001
 30
0.0
 40
15.0
 50
90.0
 51
270.0
  0
ARC
  5
BA17
  8
0
  6
BYBLOCK
 62
     0
 10
17990.51092458516
 20
15271.22622250001
 30
0.0
 40
15.0
 50
270.0
 51
90.0
  0
ARC
  5
BA18
  8
0
  6
BYBLOCK
 62
     0
 10
17990.51092458516
 20
14569.985710999999
 30
0.0
 40
15.0
 50
270.0
 51
90.0
  0
ARC
  5
BA19
  8
0
  6
BYBLOCK
 62
     0
 10
17990.51092458516
 20
14569.985710999999
 30
0.0
 40
15.0
 50
90.0
 51
270.0
  0
ARC
  5
BA1A
  8
0
  6
BYBLOCK
 62
     0
 10
17990.51092458516
 20
15971.985710999999
 30
0.0
 40
15.0
 50
90.0
 51
270.0
  0
ARC
  5
BA1B
  8
0
  6
BYBLOCK
 62
     0
 10
17990.51092458516
 20
15971.985710999999
 30
0.0
 40
15.0
 50
270.0
 51
90.0
  0
ARC
  5
BA1C
  8
0
  6
BYBLOCK
 62
     0
 10
17990.51092458516
 20
15271.22622250001
 30
0.0
 40
15.0
 50
270.0
 51
90.0
  0
ARC
  5
BA1D
  8
0
  6
BYBLOCK
 62
     0
 10
17990.51092458516
 20
15271.22622250001
 30
0.0
 40
15.0
 50
90.0
 51
270.0
  0
ARC
  5
BA1E
  8
0
  6
BYBLOCK
 62
     0
 10
17990.51092458516
 20
16729.98571099999
 30
0.0
 40
15.0
 50
90.0
 51
270.0
  0
ARC
  5
BA1F
  8
0
  6
BYBLOCK
 62
     0
 10
17990.51092458516
 20
16729.98571099999
 30
0.0
 40
15.0
 50
270.0
 51
90.0
  0
ARC
  5
BA20
  8
0
  6
BYBLOCK
 62
     0
 10
17990.51092458516
 20
15971.985710999999
 30
0.0
 40
15.0
 50
270.0
 51
90.0
  0
ARC
  5
BA21
  8
0
  6
BYBLOCK
 62
     0
 10
17990.51092458516
 20
15971.985710999999
 30
0.0
 40
15.0
 50
90.0
 51
270.0
  0
ARC
  5
BA22
  8
0
  6
BYBLOCK
 62
     0
 10
17990.51092458516
 20
17487.98571099999
 30
0.0
 40
15.0
 50
90.0
 51
270.0
  0
ARC
  5
BA23
  8
0
  6
BYBLOCK
 62
     0
 10
17990.51092458516
 20
17487.98571099999
 30
0.0
 40
15.0
 50
270.0
 51
90.0
  0
ARC
  5
BA24
  8
0
  6
BYBLOCK
 62
     0
 10
17990.51092458516
 20
16729.98571099999
 30
0.0
 40
15.0
 50
270.0
 51
90.0
  0
ARC
  5
BA25
  8
0
  6
BYBLOCK
 62
     0
 10
17990.51092458516
 20
16729.98571099999
 30
0.0
 40
15.0
 50
90.0
 51
270.0
  0
ARC
  5
BA26
  8
0
  6
BYBLOCK
 62
     0
 10
17990.51092458516
 20
18188.98571099999
 30
0.0
 40
15.0
 50
90.0
 51
270.0
  0
ARC
  5
BA27
  8
0
  6
BYBLOCK
 62
     0
 10
17990.51092458516
 20
18188.98571099999
 30
0.0
 40
15.0
 50
270.0
 51
90.0
  0
ARC
  5
BA28
  8
0
  6
BYBLOCK
 62
     0
 10
17990.51092458516
 20
17487.98571099999
 30
0.0
 40
15.0
 50
270.0
 51
90.0
  0
ARC
  5
BA29
  8
0
  6
BYBLOCK
 62
     0
 10
17990.51092458516
 20
17487.98571099999
 30
0.0
 40
15.0
 50
90.0
 51
270.0
  0
ARC
  5
BA2A
  8
0
  6
BYBLOCK
 62
     0
 10
17990.51092458516
 20
18889.98571099999
 30
0.0
 40
15.0
 50
90.0
 51
270.0
  0
ARC
  5
BA2B
  8
0
  6
BYBLOCK
 62
     0
 10
17990.51092458516
 20
18889.98571099999
 30
0.0
 40
15.0
 50
270.0
 51
90.0
  0
ARC
  5
BA2C
  8
0
  6
BYBLOCK
 62
     0
 10
17990.51092458516
 20
18188.98571099999
 30
0.0
 40
15.0
 50
270.0
 51
90.0
  0
ARC
  5
BA2D
  8
0
  6
BYBLOCK
 62
     0
 10
17990.51092458516
 20
18188.98571099999
 30
0.0
 40
15.0
 50
90.0
 51
270.0
  0
ARC
  5
BA2E
  8
0
  6
BYBLOCK
 62
     0
 10
17990.51092458516
 20
19647.98571099999
 30
0.0
 40
15.0
 50
90.0
 51
270.0
  0
ARC
  5
BA2F
  8
0
  6
BYBLOCK
 62
     0
 10
17990.51092458516
 20
19647.98571099999
 30
0.0
 40
15.0
 50
270.0
 51
90.0
  0
ARC
  5
BA30
  8
0
  6
BYBLOCK
 62
     0
 10
17990.51092458516
 20
18889.98571099999
 30
0.0
 40
15.0
 50
270.0
 51
90.0
  0
ARC
  5
BA31
  8
0
  6
BYBLOCK
 62
     0
 10
17990.51092458516
 20
18889.98571099999
 30
0.0
 40
15.0
 50
90.0
 51
270.0
  0
ARC
  5
BA32
  8
0
  6
BYBLOCK
 62
     0
 10
17990.51092458516
 20
19647.98571099999
 30
0.0
 40
15.0
 50
90.0
 51
270.0
  0
ARC
  5
BA33
  8
0
  6
BYBLOCK
 62
     0
 10
17990.51092458516
 20
19647.98571099999
 30
0.0
 40
15.0
 50
270.0
 51
90.0
  0
ARC
  5
BA34
  8
0
  6
BYBLOCK
 62
     0
 10
17990.51092458516
 20
13811.985710999999
 30
0.0
 40
15.0
 50
270.0
 51
90.0
  0
ARC
  5
BA35
  8
0
  6
BYBLOCK
 62
     0
 10
17990.51092458516
 20
13811.985710999999
 30
0.0
 40
15.0
 50
90.0
 51
270.0
  0
ARC
  5
BA36
  8
0
  6
BYBLOCK
 62
     0
 10
17590.510924585149
 20
19690.48300599998
 30
0.0
 40
15.0
 50
90.0
 51
270.0
  0
ARC
  5
BA37
  8
0
  6
BYBLOCK
 62
     0
 10
17590.510924585149
 20
19690.48300599998
 30
0.0
 40
15.0
 50
270.0
 51
90.0
  0
ARC
  5
BA38
  8
0
  6
BYBLOCK
 62
     0
 10
17590.510924585149
 20
13769.488416
 30
0.0
 40
15.0
 50
270.0
 51
90.0
  0
ARC
  5
BA39
  8
0
  6
BYBLOCK
 62
     0
 10
17590.510924585149
 20
13769.488416
 30
0.0
 40
15.0
 50
90.0
 51
270.0
  0
ARC
  5
BA3A
  8
0
  6
BYBLOCK
 62
     0
 10
17990.51092458516
 20
19647.98571099999
 30
0.0
 40
15.0
 50
90.0
 51
270.0
  0
ARC
  5
BA3B
  8
0
  6
BYBLOCK
 62
     0
 10
17990.51092458516
 20
19647.98571099999
 30
0.0
 40
15.0
 50
270.0
 51
90.0
  0
ARC
  5
BA3C
  8
0
  6
BYBLOCK
 62
     0
 10
17990.51092458516
 20
19690.48300599998
 30
0.0
 40
15.0
 50
270.0
 51
90.0
  0
ARC
  5
BA3D
  8
0
  6
BYBLOCK
 62
     0
 10
17990.51092458516
 20
19690.48300599998
 30
0.0
 40
15.0
 50
90.0
 51
270.0
  0
ARC
  5
BA3E
  8
0
  6
BYBLOCK
 62
     0
 10
17990.51092458516
 20
13811.985710999999
 30
0.0
 40
15.0
 50
270.0
 51
90.0
  0
ARC
  5
BA3F
  8
0
  6
BYBLOCK
 62
     0
 10
17990.51092458516
 20
13811.985710999999
 30
0.0
 40
15.0
 50
90.0
 51
270.0
  0
ARC
  5
BA40
  8
0
  6
BYBLOCK
 62
     0
 10
17990.51092458516
 20
13769.488416
 30
0.0
 40
15.0
 50
90.0
 51
270.0
  0
ARC
  5
BA41
  8
0
  6
BYBLOCK
 62
     0
 10
17990.51092458516
 20
13769.488416
 30
0.0
 40
15.0
 50
270.0
 51
90.0
  0
ARC
  5
BA42
  8
0
  6
BYBLOCK
 62
     0
 10
21243.01052858515
 20
20420.48689900001
 30
0.0
 40
15.0
 50
0.0
 51
180.0
  0
ARC
  5
BA43
  8
0
  6
BYBLOCK
 62
     0
 10
21243.01052858515
 20
20420.48689900001
 30
0.0
 40
15.0
 50
180.0
 51
0.0
  0
ARC
  5
BA44
  8
0
  6
BYBLOCK
 62
     0
 10
22001.01151808515
 20
20420.48689900001
 30
0.0
 40
15.0
 50
180.0
 51
0.0
  0
ARC
  5
BA45
  8
0
  6
BYBLOCK
 62
     0
 10
22001.01151808515
 20
20420.48689900001
 30
0.0
 40
15.0
 50
0.0
 51
180.0
  0
ARC
  5
BA46
  8
0
  6
BYBLOCK
 62
     0
 10
20542.01052858515
 20
20420.48689900001
 30
0.0
 40
15.0
 50
0.0
 51
180.0
  0
ARC
  5
BA47
  8
0
  6
BYBLOCK
 62
     0
 10
20542.01052858515
 20
20420.48689900001
 30
0.0
 40
15.0
 50
180.0
 51
0.0
  0
ARC
  5
BA48
  8
0
  6
BYBLOCK
 62
     0
 10
21243.01052858515
 20
20420.48689900001
 30
0.0
 40
15.0
 50
180.0
 51
0.0
  0
ARC
  5
BA49
  8
0
  6
BYBLOCK
 62
     0
 10
21243.01052858515
 20
20420.48689900001
 30
0.0
 40
15.0
 50
0.0
 51
180.0
  0
ARC
  5
BA4A
  8
0
  6
BYBLOCK
 62
     0
 10
19841.01052858515
 20
20420.48689900001
 30
0.0
 40
15.0
 50
0.0
 51
180.0
  0
ARC
  5
BA4B
  8
0
  6
BYBLOCK
 62
     0
 10
19841.01052858515
 20
20420.48689900001
 30
0.0
 40
15.0
 50
180.0
 51
0.0
  0
ARC
  5
BA4C
  8
0
  6
BYBLOCK
 62
     0
 10
20542.01052858515
 20
20420.48689900001
 30
0.0
 40
15.0
 50
180.0
 51
0.0
  0
ARC
  5
BA4D
  8
0
  6
BYBLOCK
 62
     0
 10
20542.01052858515
 20
20420.48689900001
 30
0.0
 40
15.0
 50
0.0
 51
180.0
  0
ARC
  5
BA4E
  8
0
  6
BYBLOCK
 62
     0
 10
22001.01052858515
 20
20420.48689900001
 30
0.0
 40
15.0
 50
180.0
 51
0.0
  0
ARC
  5
BA4F
  8
0
  6
BYBLOCK
 62
     0
 10
22001.01052858515
 20
20420.48689900001
 30
0.0
 40
15.0
 50
0.0
 51
180.0
  0
ARC
  5
BA50
  8
0
  6
BYBLOCK
 62
     0
 10
22043.506833585139
 20
20420.48689900001
 30
0.0
 40
15.0
 50
0.0
 51
180.0
  0
ARC
  5
BA51
  8
0
  6
BYBLOCK
 62
     0
 10
22043.506833585139
 20
20420.48689900001
 30
0.0
 40
15.0
 50
180.0
 51
0.0
  0
ARC
  5
BA52
  8
0
  6
BYBLOCK
 62
     0
 10
19083.01052858515
 20
20420.48689900001
 30
0.0
 40
15.0
 50
0.0
 51
180.0
  0
ARC
  5
BA53
  8
0
  6
BYBLOCK
 62
     0
 10
19083.01052858515
 20
20420.48689900001
 30
0.0
 40
15.0
 50
180.0
 51
0.0
  0
ARC
  5
BA54
  8
0
  6
BYBLOCK
 62
     0
 10
19040.514223585142
 20
20420.48689900001
 30
0.0
 40
15.0
 50
180.0
 51
0.0
  0
ARC
  5
BA55
  8
0
  6
BYBLOCK
 62
     0
 10
19040.514223585142
 20
20420.48689900001
 30
0.0
 40
15.0
 50
0.0
 51
180.0
  0
TEXT
  5
BB1B
  8
FILENAME
  6
CONTINUOUS
 10
26480.190476190481
 20
348.0
 30
0.0
 40
200.0
  1
＜VGC-3059+VKC-5059-R-1-A_0.DXF ＞
  7
FILENAME
 72
     2
 11
32764.0
 21
348.0
 31
0.0
  0
LINE
  5
BB20
  8
WAKUSEN-01
 10
868.00000000000193
 20
827.99999999999955
 30
0.0
 11
32764.000000000011
 21
827.99999999999943
 31
0.0
  0
LINE
  5
BB21
  8
WAKUSEN-01
 10
868.00000000000193
 20
827.99999999999955
 30
0.0
 11
868.00000000000193
 21
22484.000000000011
 31
0.0
  0
LINE
  5
BB22
  8
WAKUSEN-01
 10
32764.000000000011
 20
827.99999999999943
 30
0.0
 11
32764.000000000011
 21
22484.000000000011
 31
0.0
  0
LINE
  5
BB23
  8
WAKUSEN-01
 10
20560.0
 20
827.99999999999716
 30
0.0
 11
20560.0
 21
2484.0
 31
0.0
  0
LINE
  5
BB24
  8
WAKUSEN-02
 10
26868.0
 20
827.99999999999261
 30
0.0
 11
26868.0
 21
2484.0
 31
0.0
  0
ENDSEC
  0
EOF
