  0
SECTION
  2
HEADER
  9
$ACADVER
  1
AC1009
  9
$INSBASE
 10
0.0
 20
0.0
 30
0.0
  9
$EXTMIN
 10
867.99324330406671
 20
327.38164749855792
 30
-0.0000000000000058
  9
$EXTMAX
 10
32765.33210850941
 20
22484.553276491992
 30
0.0000000000000104
  9
$LIMMIN
 10
0.0
 20
0.0
  9
$LIMMAX
 10
33600.0
 20
23760.0
  9
$ORTHOMODE
 70
     1
  9
$REGENMODE
 70
     1
  9
$FILLMODE
 70
     1
  9
$QTEXTMODE
 70
     0
  9
$MIRRTEXT
 70
     1
  9
$DRAGMODE
 70
     2
  9
$LTSCALE
 40
80.0
  9
$OSMODE
 70
  3071
  9
$ATTMODE
 70
     1
  9
$TEXTSIZE
 40
0.2
  9
$TRACEWID
 40
0.05
  9
$TEXTSTYLE
  7
00
  9
$CLAYER
  8
0
  9
$CELTYPE
  6
BYLAYER
  9
$CECOLOR
 62
   256
  9
$DIMSCALE
 40
80.0
  9
$DIMASZ
 40
3.0
  9
$DIMEXO
 40
1.0
  9
$DIMDLI
 40
0.38
  9
$DIMRND
 40
0.5
  9
$DIMDLE
 40
0.0
  9
$DIMEXE
 40
1.0
  9
$DIMTP
 40
0.0
  9
$DIMTM
 40
0.0
  9
$DIMTXT
 40
2.0
  9
$DIMCEN
 40
0.09
  9
$DIMTSZ
 40
0.0
  9
$DIMTOL
 70
     0
  9
$DIMLIM
 70
     0
  9
$DIMTIH
 70
     0
  9
$DIMTOH
 70
     0
  9
$DIMSE1
 70
     0
  9
$DIMSE2
 70
     0
  9
$DIMTAD
 70
     1
  9
$DIMZIN
 70
     8
  9
$DIMBLK
  1
DOTSMALL
  9
$DIMASO
 70
     1
  9
$DIMSHO
 70
     1
  9
$DIMPOST
  1

  9
$DIMAPOST
  1

  9
$DIMALT
 70
     0
  9
$DIMALTD
 70
     2
  9
$DIMALTF
 40
25.399999999999999
  9
$DIMLFAC
 40
1.0
  9
$DIMTOFL
 70
     1
  9
$DIMTVP
 40
0.0
  9
$DIMTIX
 70
     0
  9
$DIMSOXD
 70
     0
  9
$DIMSAH
 70
     0
  9
$DIMBLK1
  1

  9
$DIMBLK2
  1

  9
$DIMSTYLE
  2
SUNPOU
  9
$DIMCLRD
 70
     4
  9
$DIMCLRE
 70
     4
  9
$DIMCLRT
 70
     7
  9
$DIMTFAC
 40
1.0
  9
$DIMGAP
 40
1.0
  9
$LUNITS
 70
     2
  9
$LUPREC
 70
     4
  9
$SKETCHINC
 40
0.1
  9
$FILLETRAD
 40
0.0
  9
$AUNITS
 70
     0
  9
$AUPREC
 70
     0
  9
$MENU
  1
acad
  9
$ELEVATION
 40
0.0
  9
$PELEVATION
 40
0.0
  9
$THICKNESS
 40
0.0
  9
$LIMCHECK
 70
     0
  9
$BLIPMODE
 70
     1
  9
$CHAMFERA
 40
0.0
  9
$CHAMFERB
 40
0.0
  9
$SKPOLY
 70
     0
  9
$TDCREATE
 40
2311940.075052408
  9
$TDUPDATE
 40
2458942.4551846879
  9
$TDINDWG
 40
0.3952637037
  9
$TDUSRTIMER
 40
0.3952628819
  9
$USRTIMER
 70
     1
  9
$ANGBASE
 50
0.0
  9
$ANGDIR
 70
     0
  9
$PDMODE
 70
     0
  9
$PDSIZE
 40
0.0
  9
$PLINEWID
 40
0.0
  9
$COORDS
 70
     1
  9
$SPLFRAME
 70
     0
  9
$SPLINETYPE
 70
     6
  9
$SPLINESEGS
 70
     8
  9
$ATTDIA
 70
     1
  9
$ATTREQ
 70
     1
  9
$HANDLING
 70
     1
  9
$HANDSEED
  5
1406E
  9
$SURFTAB1
 70
     6
  9
$SURFTAB2
 70
     6
  9
$SURFTYPE
 70
     6
  9
$SURFU
 70
     6
  9
$SURFV
 70
     6
  9
$UCSNAME
  2

  9
$UCSORG
 10
0.0
 20
0.0
 30
0.0
  9
$UCSXDIR
 10
1.0
 20
0.0
 30
0.0
  9
$UCSYDIR
 10
0.0
 20
1.0
 30
0.0
  9
$PUCSNAME
  2

  9
$PUCSORG
 10
0.0
 20
0.0
 30
0.0
  9
$PUCSXDIR
 10
1.0
 20
0.0
 30
0.0
  9
$PUCSYDIR
 10
0.0
 20
1.0
 30
0.0
  9
$USERI1
 70
     0
  9
$USERI2
 70
     0
  9
$USERI3
 70
     0
  9
$USERI4
 70
     0
  9
$USERI5
 70
     0
  9
$USERR1
 40
0.0
  9
$USERR2
 40
0.0
  9
$USERR3
 40
0.0
  9
$USERR4
 40
0.0
  9
$USERR5
 40
0.0
  9
$WORLDVIEW
 70
     1
  9
$SHADEDGE
 70
     3
  9
$SHADEDIF
 70
    70
  9
$TILEMODE
 70
     1
  9
$MAXACTVP
 70
    16
  9
$PLIMCHECK
 70
     0
  9
$PEXTMIN
 10
1.0000000000000000E+020
 20
1.0000000000000000E+020
 30
1.0000000000000000E+020
  9
$PEXTMAX
 10
-1.0000000000000000E+020
 20
-1.0000000000000000E+020
 30
-1.0000000000000000E+020
  9
$PLIMMIN
 10
0.0
 20
0.0
  9
$PLIMMAX
 10
12.0
 20
9.0
  9
$UNITMODE
 70
     0
  9
$VISRETAIN
 70
     0
  9
$PLINEGEN
 70
     1
  9
$PSLTSCALE
 70
     0
  0
ENDSEC
  0
SECTION
  2
TABLES
  0
TABLE
  2
VPORT
 70
     1
  0
VPORT
  2
*ACTIVE
 70
     0
 10
0.0
 20
0.0
 11
1.0
 21
1.0
 12
16800.0
 22
11880.0
 13
0.0
 23
0.0
 14
1.0
 24
1.0
 15
0.0
 25
0.0
 16
0.0
 26
0.0
 36
1.0
 17
0.0
 27
0.0
 37
0.0
 40
23981.023255813951
 41
2.195652173913043
 42
50.0
 43
0.0
 44
0.0
 50
0.0
 51
0.0
 71
     0
 72
 10000
 73
     1
 74
     1
 75
     0
 76
     0
 77
     0
 78
     0
  0
ENDTAB
  0
TABLE
  2
LTYPE
 70
     6
  0
LTYPE
  2
CONTINUOUS
 70
     0
  3
Solid line
 72
    65
 73
     0
 40
0.0
  0
LTYPE
  2
DASHED3
 70
     0
  3
------  ------  ------  ------  
 72
    65
 73
     2
 40
5.0
 49
3.75
 49
-1.25
  0
LTYPE
  2
CENTER2
 70
     0
  3
----------  --  ----------  --  
 72
    65
 73
     4
 40
20.0
 49
12.5
 49
-2.5
 49
2.5
 49
-2.5
  0
LTYPE
  2
HIDE-M
 70
     0
  3

 72
    65
 73
     2
 40
2.0
 49
1.0
 49
-1.0
  0
LTYPE
  2
1PL-M
 70
     0
  3

 72
    65
 73
     4
 40
15.0
 49
12.0
 49
-1.0
 49
1.0
 49
-1.0
  0
LTYPE
  2
PHANTOM2
 70
     0
  3
___ _ _ ___ _ _ ___ _ _ ___ _ _
 72
    65
 73
     6
 40
1.25
 49
0.625
 49
-0.125
 49
0.125
 49
-0.125
 49
0.125
 49
-0.125
  0
ENDTAB
  0
TABLE
  2
LAYER
 70
    24
  0
LAYER
  2
0
 70
     0
 62
     7
  6
CONTINUOUS
  0
LAYER
  2
SUNPOU
 70
     0
 62
     4
  6
CONTINUOUS
  0
LAYER
  2
0-1
 70
     0
 62
     7
  6
CONTINUOUS
  0
LAYER
  2
0-2
 70
     0
 62
     7
  6
CONTINUOUS
  0
LAYER
  2
0-5
 70
     0
 62
     7
  6
CONTINUOUS
  0
LAYER
  2
0-6
 70
     0
 62
     7
  6
CONTINUOUS
  0
LAYER
  2
2-0
 70
     0
 62
     7
  6
CONTINUOUS
  0
LAYER
  2
0-8
 70
     0
 62
     7
  6
CONTINUOUS
  0
LAYER
  2
YODOROGO
 70
     0
 62
   130
  6
CONTINUOUS
  0
LAYER
  2
WAKUSEN-01
 70
     0
 62
    50
  6
CONTINUOUS
  0
LAYER
  2
WAKUSEN-02
 70
     0
 62
   130
  6
CONTINUOUS
  0
LAYER
  2
WAKUMOJI-01
 70
     0
 62
   130
  6
CONTINUOUS
  0
LAYER
  2
FILENAME
 70
     0
 62
     7
  6
CONTINUOUS
  0
LAYER
  2
NAME
 70
     0
 62
    20
  6
CONTINUOUS
  0
LAYER
  2
0-4
 70
     0
 62
     7
  6
CONTINUOUS
  0
LAYER
  2
1-前柱P
 70
     0
 62
     3
  6
CONTINUOUS
  0
LAYER
  2
1-前柱カバ-P
 70
     0
 62
     3
  6
CONTINUOUS
  0
LAYER
  2
1-桁前P28
 70
     0
 62
     3
  6
CONTINUOUS
  0
LAYER
  2
1-後柱P
 70
     0
 62
     3
  6
CONTINUOUS
  0
LAYER
  2
1-中柱P
 70
     0
 62
     3
  6
CONTINUOUS
  0
LAYER
  2
1-後柱カバ-P
 70
     0
 62
     7
  6
CONTINUOUS
  0
LAYER
  2
1-中柱カバ-P
 70
     0
 62
     7
  6
CONTINUOUS
  0
ENDTAB
  0
TABLE
  2
STYLE
 70
     5
  0
STYLE
  2
STANDARD
 70
     0
 40
0.0
 41
1.0
 50
0.0
 71
     0
 42
0.0
  3
txt
  4
BIGFONT
  0
STYLE
  2
00
 70
     0
 40
0.0
 41
0.6666666666666666
 50
0.0
 71
     0
 42
0.2
  3
ROMANS
  4
BIGFONT
  0
STYLE
  2
01
 70
     0
 40
3.0
 41
1.0
 50
0.0
 71
     0
 42
0.2
  3
ROMANS
  4
BIGFONT
  0
STYLE
  2
WAKUMOJI
 70
     0
 40
3.0
 41
1.0
 50
0.0
 71
     0
 42
3.0
  3
SIMPLEX
  4
BIGFONT
  0
STYLE
  2
FILENAME
 70
     0
 40
200.0
 41
1.0
 50
0.0
 71
     0
 42
200.0
  3
romans
  4
bigfont
  0
ENDTAB
  0
TABLE
  2
VIEW
 70
     0
  0
ENDTAB
  0
TABLE
  2
UCS
 70
     0
  0
ENDTAB
  0
TABLE
  2
APPID
 70
    17
  0
APPID
  2
ACAD
 70
     0
  0
APPID
  2
ACADANNOTATIVE
 70
     0
  0
APPID
  2
ACAD_PSEXT
 70
     0
  0
APPID
  2
DCO15
 70
     0
  0
APPID
  2
ACAD_MLEADERVER
 70
     0
  0
APPID
  2
AUTOCAD_POSTSCRIPT_FIGURE
 70
     0
  0
APPID
  2
ACAD_EXEMPT_FROM_CAD_STANDARDS
 70
     0
  0
APPID
  2
ACLAYERTOOLS
 70
     0
  0
APPID
  2
ACAD_DSTYLE_DIMJAG
 70
     0
  0
APPID
  2
ACAD_DSTYLE_DIMTALN
 70
     0
  0
APPID
  2
ACAECLAYERSTANDARD
 70
     0
  0
APPID
  2
ACAD_DSTYLE_DIMBREAK
 70
     0
  0
APPID
  2
ACAD_DSTYLE_DIM_LINETYPE
 70
     0
  0
APPID
  2
ACAD_DSTYLE_DIM_EXT1_LINETYPE
 70
     0
  0
APPID
  2
ACAD_DSTYLE_DIM_EXT2_LINETYPE
 70
     0
  0
APPID
  2
ACAD_DSTYLE_DIMFLIPARROW_W
 70
     0
  0
APPID
  2
ACAD_NAV_VCDISPLAY
 70
     0
  0
ENDTAB
  0
TABLE
  2
DIMSTYLE
 70
     2
  0
DIMSTYLE
  2
SUNPOU
 70
     0
  3

  4

  5

  6

  7

 40
80.0
 41
3.0
 42
1.0
 43
0.38
 44
1.0
 45
0.5
 46
0.0
 47
0.0
 48
0.0
140
2.0
141
0.09
142
0.0
143
25.399999999999999
144
1.0
145
0.0
146
1.0
147
1.0
 71
     0
 72
     0
 73
     0
 74
     0
 75
     0
 76
     0
 77
     1
 78
     8
170
     0
171
     2
172
     1
173
     0
174
     0
175
     0
176
     4
177
     4
178
     7
  0
ENDTAB
  0
ENDSEC
  0
SECTION
  2
BLOCKS
  0
BLOCK
  8
0
  2
$MODEL_SPACE
 70
     0
 10
0.0
 20
0.0
 30
0.0
  3
$MODEL_SPACE
  1

  0
ENDBLK
  5
12F96
  8
0
  0
BLOCK
 67
     1
  8
0
  2
$PAPER_SPACE
 70
     0
 10
0.0
 20
0.0
 30
0.0
  3
$PAPER_SPACE
  1

  0
ENDBLK
  5
12F92
 67
     1
  8
0
  0
BLOCK
  8
0
  2
_DOTSMALL
 70
     0
 10
0.0
 20
0.0
 30
0.0
  3
_DOTSMALL
  1

  0
POLYLINE
  5
12FD2
  8
0
  6
BYBLOCK
 62
     0
 66
     1
 10
0.0
 20
0.0
 30
0.0
 70
     1
 40
0.5
 41
0.5
  0
VERTEX
  5
14036
  8
0
  6
BYBLOCK
 62
     0
 10
-0.0625
 20
0.0
 30
0.0
 42
1.0
  0
VERTEX
  5
14037
  8
0
  6
BYBLOCK
 62
     0
 10
0.0625
 20
0.0
 30
0.0
 42
1.0
  0
SEQEND
  5
14038
  8
0
  6
BYBLOCK
 62
     0
  0
ENDBLK
  5
12FD6
  8
0
  0
ENDSEC
  0
SECTION
  2
ENTITIES
  0
LINE
  5
12FD7
  8
0-1
  6
CONTINUOUS
 62
     3
 10
6575.4300203923412
 20
16684.985315999991
 30
0.0
 11
9493.4300203923394
 21
16684.985315999991
 31
0.0
  0
LINE
  5
12FD8
  8
0-1
  6
CONTINUOUS
 62
     3
 10
9440.4303893923516
 20
13775.48635799998
 30
0.0
 11
9440.4303893923516
 21
17768.23311058123
 31
0.0
  0
LINE
  5
12FD9
  8
0-1
  6
CONTINUOUS
 62
     3
 10
6625.4306403923511
 20
13651.48634400001
 30
0.0
 11
6625.4306403923511
 21
18788.083582700088
 31
0.0
  0
LINE
  5
12FDA
  8
0-1
  6
CONTINUOUS
 62
     3
 10
6489.9300203923422
 20
13619.486437
 30
0.0
 11
6489.9300203923422
 21
18989.10749151139
 31
0.0
  0
LINE
  5
12FDB
  8
0-1
  6
CONTINUOUS
 62
     3
 10
6532.9307463923506
 20
13775.48635799998
 30
0.0
 11
14535.931274392349
 21
13775.48635799998
 31
0.0
  0
LINE
  5
12FDC
  8
0-1
  6
CONTINUOUS
 62
     3
 10
6575.4300203923412
 20
13854.485974999991
 30
0.0
 11
14493.43002039233
 21
13854.485974999991
 31
0.0
  0
LINE
  5
12FDD
  8
0-1
  6
CONTINUOUS
 62
     3
 10
6492.9300203923422
 20
13619.48643699999
 30
0.0
 11
14575.93002039233
 21
13619.486437
 31
0.0
  0
LINE
  5
12FDE
  8
0-1
  6
CONTINUOUS
 62
     3
 10
6492.9300203923422
 20
13651.48634400001
 30
0.0
 11
14575.93002039233
 21
13651.486344000001
 31
0.0
  0
LINE
  5
12FDF
  8
0-1
  6
CONTINUOUS
 62
     3
 10
9493.4300203923394
 20
13775.48635799998
 30
0.0
 11
9493.4300203923394
 21
17746.365060417251
 31
0.0
  0
LINE
  5
12FE0
  8
0-1
  6
CONTINUOUS
 62
     3
 10
9535.9312743923529
 20
13775.48635799998
 30
0.0
 11
9535.9312743923529
 21
17728.828720315101
 31
0.0
  0
LINE
  5
12FE1
  8
0-1
  6
CONTINUOUS
 62
     3
 10
6575.4300203923412
 20
13775.48635799998
 30
0.0
 11
6575.4300203923412
 21
18955.067610197751
 31
0.0
  0
LINE
  5
12FE2
  8
0-1
  6
CONTINUOUS
 62
     3
 10
6532.9307463923506
 20
13775.48635799998
 30
0.0
 11
6532.9307463923506
 21
18972.603133336848
 31
0.0
  0
LINE
  5
12FE3
  8
0-1
  6
CONTINUOUS
 62
     3
 10
8145.9311423923536
 20
18312.353433713281
 30
0.0
 11
8145.9311423923536
 21
19461.985685
 31
0.0
  0
LINE
  5
12FE4
  8
0-1
  6
CONTINUOUS
 62
     3
 10
8182.9323033923447
 20
18297.08647374381
 30
0.0
 11
8182.9323033923447
 21
19461.985685
 31
0.0
  0
LINE
  5
12FE5
  8
0-1
  6
CONTINUOUS
 62
     3
 10
8345.9308123923474
 20
18219.831946322141
 30
0.0
 11
8345.9308123923474
 21
19461.985685
 31
0.0
  0
LINE
  5
12FE6
  8
0-1
  6
CONTINUOUS
 62
     3
 10
8382.9299933923539
 20
18204.565803315701
 30
0.0
 11
8382.9299933923539
 21
19461.985685
 31
0.0
  0
LINE
  5
12FE7
  8
0-1
  6
CONTINUOUS
 62
     3
 10
8545.9314713923523
 20
18137.31015586208
 30
0.0
 11
8545.9314713923523
 21
19461.985685
 31
0.0
  0
LINE
  5
12FE8
  8
0-1
  6
CONTINUOUS
 62
     3
 10
8582.9316433923541
 20
18122.043603961509
 30
0.0
 11
8582.9316433923541
 21
19461.985685
 31
0.0
  0
LINE
  5
12FE9
  8
0-1
  6
CONTINUOUS
 62
     3
 10
8745.9311423923536
 20
18054.788773058321
 30
0.0
 11
8745.9311423923536
 21
19461.985685
 31
0.0
  0
LINE
  5
12FEA
  8
0-1
  6
CONTINUOUS
 62
     3
 10
8782.9323033923429
 20
18039.521813088861
 30
0.0
 11
8782.9323033923429
 21
19461.985685
 31
0.0
  0
LINE
  5
12FEB
  8
0-1
  6
CONTINUOUS
 62
     3
 10
8945.9308123923529
 20
17972.267390667181
 30
0.0
 11
8945.9308123923529
 21
19461.985685
 31
0.0
  0
LINE
  5
12FEC
  8
0-1
  6
CONTINUOUS
 62
     3
 10
8982.9309833923417
 20
17957.000839179222
 30
0.0
 11
8982.9309833923417
 21
19461.985685
 31
0.0
  0
LINE
  5
12FED
  8
0-1
  6
CONTINUOUS
 62
     3
 10
9145.9314713923395
 20
17889.745600207119
 30
0.0
 11
9145.9314713923395
 21
19461.985685
 31
0.0
  0
LINE
  5
12FEE
  8
0-1
  6
CONTINUOUS
 62
     3
 10
9182.9316433923523
 20
17874.479048306552
 30
0.0
 11
9182.9316433923523
 21
19461.985685
 31
0.0
  0
LINE
  5
12FEF
  8
0-1
  6
CONTINUOUS
 62
     3
 10
6575.4300203923412
 20
16774.988087000002
 30
0.0
 11
9493.4300203923394
 21
16774.988087000002
 31
0.0
  0
LINE
  5
12FF0
  8
0-1
  6
CONTINUOUS
 62
     3
 10
9423.4309200361731
 20
16729.987612658861
 30
0.0
 11
6645.4307463923506
 21
13811.985710999999
 31
0.0
  0
LINE
  5
12FF1
  8
0-1
  6
CONTINUOUS
 62
     3
 10
6645.4307463923506
 20
16729.985711000001
 30
0.0
 11
9423.4312743923529
 21
13811.985710999999
 31
0.0
  0
LINE
  5
12FF2
  8
0-1
  6
CONTINUOUS
 62
     3
 10
7373.3795484508728
 20
18624.69699676337
 30
0.0
 11
9423.4309200361731
 21
16729.987612658861
 31
0.0
  0
LINE
  5
12FF3
  8
0-1
  6
CONTINUOUS
 62
     3
 10
8286.4539764054643
 20
18246.661860119391
 30
0.0
 11
6645.4307463923506
 21
16729.985711000001
 31
0.0
  0
LINE
  5
12FF4
  8
0-1
  6
CONTINUOUS
 62
     3
 10
6507.9287933923251
 20
18981.772695146061
 30
0.0
 11
6507.9287933923306
 21
19502.48663499999
 31
0.0
  0
LINE
  5
12FF5
  8
0-1
  6
CONTINUOUS
 62
     3
 10
6563.4295453923396
 20
19484.987690000002
 30
0.0
 11
6563.4295453923396
 21
19514.987293999991
 31
0.0
  0
LINE
  5
12FF6
  8
0-1
  6
CONTINUOUS
 62
     3
 10
6489.9300203923422
 20
19514.987293999991
 30
0.0
 11
6489.9300203923422
 21
19479.985446999988
 31
0.0
  0
LINE
  5
12FF7
  8
0-1
  6
CONTINUOUS
 62
     3
 10
6558.4292813923312
 20
19519.985579
 30
0.0
 11
6494.9292943923392
 21
19519.985579
 31
0.0
  0
LINE
  5
12FF8
  8
0-1
  6
CONTINUOUS
 62
     3
 10
6507.9287933923306
 20
19502.48663499999
 30
0.0
 11
6489.9300203923422
 21
19502.48663499999
 31
0.0
  0
LINE
  5
12FF9
  8
0-1
  6
CONTINUOUS
 62
     3
 10
6507.9287933923306
 20
19479.985446999988
 30
0.0
 11
6558.4292813923312
 21
19479.985446999988
 31
0.0
  0
LINE
  5
12FFA
  8
0-6
  6
CONTINUOUS
 62
     6
 10
8623.7733565297258
 20
19237.71018799999
 30
0.0
 11
8767.6744595297205
 21
19749.985842999991
 31
0.0
  0
LINE
  5
12FFB
  8
0-6
  6
CONTINUOUS
 62
     6
 10
8103.9319815297204
 20
19465.663629999999
 30
0.0
 11
8210.6270435297265
 21
19343.487743000002
 31
0.0
  0
LINE
  5
12FFC
  8
0-6
  6
CONTINUOUS
 62
     6
 10
8210.6270435297265
 20
19343.487743000002
 30
0.0
 11
8149.3213535297191
 21
19493.663919999992
 31
0.0
  0
LINE
  5
12FFD
  8
0-6
  6
CONTINUOUS
 62
     6
 10
8210.6270435297265
 20
19343.487743000002
 30
0.0
 11
8103.9319815297204
 21
19465.663629999999
 31
0.0
  0
LINE
  5
12FFE
  8
0-6
  6
CONTINUOUS
 62
     6
 10
8103.9319815297204
 20
19465.663629999999
 30
0.0
 11
8149.3213535297191
 21
19493.663919999992
 31
0.0
  0
LINE
  5
12FFF
  8
0-6
  6
CONTINUOUS
 62
     6
 10
8149.3213535297191
 20
19493.663919999992
 30
0.0
 11
8210.6270435297265
 21
19343.487743000002
 31
0.0
  0
LINE
  5
13000
  8
0-6
  6
CONTINUOUS
 62
     6
 10
8149.3213535297191
 20
19493.663919999992
 30
0.0
 11
8103.9319815297204
 21
19465.663629999999
 31
0.0
  0
LINE
  5
13001
  8
0-6
  6
CONTINUOUS
 62
     6
 10
8210.6270435297265
 20
19343.487743000002
 30
0.0
 11
7916.6992165297179
 21
19749.985842999991
 31
0.0
  0
LINE
  5
13002
  8
0-6
  6
CONTINUOUS
 62
     6
 10
8597.8852125297271
 20
19244.109971999991
 30
0.0
 11
8585.3835625297252
 21
19082.385282999989
 31
0.0
  0
LINE
  5
13003
  8
0-6
  6
CONTINUOUS
 62
     6
 10
8585.3835625297252
 20
19082.385282999989
 30
0.0
 11
8649.658531529727
 21
19231.314364000002
 31
0.0
  0
LINE
  5
13004
  8
0-6
  6
CONTINUOUS
 62
     6
 10
8585.3835625297252
 20
19082.385282999989
 30
0.0
 11
8597.8852125297271
 21
19244.109971999991
 31
0.0
  0
LINE
  5
13005
  8
0-6
  6
CONTINUOUS
 62
     6
 10
8597.8852125297271
 20
19244.109971999991
 30
0.0
 11
8649.658531529727
 21
19231.314364000002
 31
0.0
  0
LINE
  5
13006
  8
0-6
  6
CONTINUOUS
 62
     6
 10
8649.658531529727
 20
19231.314364000002
 30
0.0
 11
8585.3835625297252
 21
19082.385282999989
 31
0.0
  0
LINE
  5
13007
  8
0-6
  6
CONTINUOUS
 62
     6
 10
8649.658531529727
 20
19231.314364000002
 30
0.0
 11
8597.8852125297271
 21
19244.109971999991
 31
0.0
  0
LINE
  5
13008
  8
0-6
  6
CONTINUOUS
 62
     6
 10
8767.6744595297205
 20
19749.985842999991
 30
0.0
 11
9285.3631075297271
 21
19749.985842999991
 31
0.0
  0
LINE
  5
13009
  8
0-6
  6
CONTINUOUS
 62
     6
 10
6718.2463473923599
 20
18164.289045663922
 30
0.0
 11
6628.4306403923511
 21
18299.361496663922
 31
0.0
  0
LINE
  5
1300A
  8
0-6
  6
CONTINUOUS
 62
     6
 10
6628.4306403923511
 20
18299.361496663922
 30
0.0
 11
6669.5848313923598
 21
18142.46089466392
 31
0.0
  0
LINE
  5
1300B
  8
0-6
  6
CONTINUOUS
 62
     6
 10
6628.4306403923511
 20
18299.361496663922
 30
0.0
 11
6718.2463473923599
 21
18164.289045663922
 31
0.0
  0
LINE
  5
1300C
  8
0-6
  6
CONTINUOUS
 62
     6
 10
6718.2463473923599
 20
18164.289045663922
 30
0.0
 11
6669.5848313923598
 21
18142.46089466392
 31
0.0
  0
LINE
  5
1300D
  8
0-6
  6
CONTINUOUS
 62
     6
 10
6669.5848313923598
 20
18142.46089466392
 30
0.0
 11
6628.4306403923511
 21
18299.361496663922
 31
0.0
  0
LINE
  5
1300E
  8
0-6
  6
CONTINUOUS
 62
     6
 10
6669.5848313923598
 20
18142.46089466392
 30
0.0
 11
6718.2463473923599
 21
18164.289045663922
 31
0.0
  0
LINE
  5
1300F
  8
0-6
  6
CONTINUOUS
 62
     6
 10
7116.6975675297181
 20
19749.985842999991
 30
0.0
 11
7916.6992165297179
 21
19749.985842999991
 31
0.0
  0
LINE
  5
13010
  8
0-6
  6
CONTINUOUS
 62
     6
 10
6792.9563473923472
 20
17932.58243666391
 30
0.0
 11
7312.9570733923611
 21
17932.58243666391
 31
0.0
  0
LINE
  5
13011
  8
0-6
  6
CONTINUOUS
 62
     6
 10
7425.7043254582031
 20
13999.376837
 30
0.0
 11
7508.5917174582028
 21
14176.315115999991
 31
0.0
  0
LINE
  5
13012
  8
0-6
  6
CONTINUOUS
 62
     6
 10
7508.5917174582028
 20
14176.315115999991
 30
0.0
 11
8308.5923774581952
 21
14176.315115999991
 31
0.0
  0
LINE
  5
13013
  8
0-6
  6
CONTINUOUS
 62
     6
 10
8032.7474524582021
 20
13489.93981199999
 30
0.0
 11
7926.4769974582023
 21
13612.48685899999
 31
0.0
  0
LINE
  5
13014
  8
0-6
  6
CONTINUOUS
 62
     6
 10
7926.4769974582023
 20
13612.48685899999
 30
0.0
 11
7987.2591054581999
 21
13462.09788299998
 31
0.0
  0
LINE
  5
13015
  8
0-6
  6
CONTINUOUS
 62
     6
 10
7926.4769974582023
 20
13612.48685899999
 30
0.0
 11
8032.7474524582021
 21
13489.93981199999
 31
0.0
  0
LINE
  5
13016
  8
0-6
  6
CONTINUOUS
 62
     6
 10
8032.7474524582021
 20
13489.93981199999
 30
0.0
 11
7987.2591054581999
 21
13462.09788299998
 31
0.0
  0
LINE
  5
13017
  8
0-6
  6
CONTINUOUS
 62
     6
 10
7987.2591054581999
 20
13462.09788299998
 30
0.0
 11
7926.4769974582023
 21
13612.48685899999
 31
0.0
  0
LINE
  5
13018
  8
0-6
  6
CONTINUOUS
 62
     6
 10
7987.2591054581999
 20
13462.09788299998
 30
0.0
 11
8032.7474524582021
 21
13489.93981199999
 31
0.0
  0
LINE
  5
13019
  8
0-6
  6
CONTINUOUS
 62
     6
 10
7401.5571684581937
 20
14010.68879599998
 30
0.0
 11
7357.831582458195
 21
13854.485974999991
 31
0.0
  0
LINE
  5
1301A
  8
0-6
  6
CONTINUOUS
 62
     6
 10
7357.831582458195
 20
13854.485974999991
 30
0.0
 11
7449.8524734582024
 21
13988.06388799999
 31
0.0
  0
LINE
  5
1301B
  8
0-6
  6
CONTINUOUS
 62
     6
 10
7357.831582458195
 20
13854.485974999991
 30
0.0
 11
7401.5571684581937
 21
14010.68879599998
 31
0.0
  0
LINE
  5
1301C
  8
0-6
  6
CONTINUOUS
 62
     6
 10
7401.5571684581937
 20
14010.68879599998
 30
0.0
 11
7449.8524734582024
 21
13988.06388799999
 31
0.0
  0
LINE
  5
1301D
  8
0-6
  6
CONTINUOUS
 62
     6
 10
7449.8524734582024
 20
13988.06388799999
 30
0.0
 11
7357.831582458195
 21
13854.485974999991
 31
0.0
  0
LINE
  5
1301E
  8
0-6
  6
CONTINUOUS
 62
     6
 10
7449.8524734582024
 20
13988.06388799999
 30
0.0
 11
7401.5571684581937
 21
14010.68879599998
 31
0.0
  0
LINE
  5
1301F
  8
0-6
  6
CONTINUOUS
 62
     6
 10
8416.1158674582057
 20
12812.48718899999
 30
0.0
 11
9278.6960384582035
 21
12812.48718899999
 31
0.0
  0
LINE
  5
13020
  8
0-6
  6
CONTINUOUS
 62
     6
 10
8010.0037744581941
 20
13476.018847999991
 30
0.0
 11
8416.1158674582057
 21
12812.48718899999
 31
0.0
  0
LINE
  5
13021
  8
0-6
  6
CONTINUOUS
 62
     6
 10
6470.4793103923421
 20
13861.776687
 30
0.0
 11
6492.9300203923422
 21
14022.42253799999
 31
0.0
  0
LINE
  5
13022
  8
0-6
  6
CONTINUOUS
 62
     6
 10
6492.9300203923422
 20
14022.42253799999
 30
0.0
 11
6419.59281639233
 21
13877.741504
 31
0.0
  0
LINE
  5
13023
  8
0-6
  6
CONTINUOUS
 62
     6
 10
6492.9300203923422
 20
14022.42253799999
 30
0.0
 11
6470.4793103923421
 21
13861.776687
 31
0.0
  0
LINE
  5
13024
  8
0-6
  6
CONTINUOUS
 62
     6
 10
6470.4793103923421
 20
13861.776687
 30
0.0
 11
6419.59281639233
 21
13877.741504
 31
0.0
  0
LINE
  5
13025
  8
0-6
  6
CONTINUOUS
 62
     6
 10
6419.59281639233
 20
13877.741504
 30
0.0
 11
6492.9300203923422
 21
14022.42253799999
 31
0.0
  0
LINE
  5
13026
  8
0-6
  6
CONTINUOUS
 62
     6
 10
6419.59281639233
 20
13877.741504
 30
0.0
 11
6470.4793103923421
 21
13861.776687
 31
0.0
  0
LINE
  5
13027
  8
0-6
  6
CONTINUOUS
 62
     6
 10
4778.2957693923418
 20
11999.48618599998
 30
0.0
 11
5858.2953733923423
 21
11999.48618599998
 31
0.0
  0
LINE
  5
13028
  8
0-6
  6
CONTINUOUS
 62
     6
 10
6445.0355683923326
 20
13869.75810599999
 30
0.0
 11
5858.2953733923423
 21
11999.48618599998
 31
0.0
  0
LINE
  5
13029
  8
0-6
  6
CONTINUOUS
 62
     6
 10
6693.9160843923473
 20
18153.375959663921
 30
0.0
 11
6792.9563473923472
 21
17932.58243666391
 31
0.0
  0
LINE
  5
1302A
  8
0-6
  6
CONTINUOUS
 62
     6
 10
14575.93002039233
 20
19519.985579
 30
0.0
 11
14667.617362392361
 21
19653.79311699999
 31
0.0
  0
LINE
  5
1302B
  8
0-6
  6
CONTINUOUS
 62
     6
 10
14706.05862339234
 20
19616.825606999992
 30
0.0
 11
14575.93002039233
 21
19519.985579
 31
0.0
  0
LINE
  5
1302C
  8
0-6
  6
CONTINUOUS
 62
     6
 10
14706.05862339234
 20
19616.825606999992
 30
0.0
 11
14667.617362392361
 21
19653.79311699999
 31
0.0
  0
LINE
  5
1302D
  8
0-6
  6
CONTINUOUS
 62
     6
 10
14686.83848839235
 20
19635.308372
 30
0.0
 11
15203.82737639235
 21
20139.986634999979
 31
0.0
  0
LINE
  5
1302E
  8
0-6
  6
CONTINUOUS
 62
     6
 10
15203.82737639235
 20
20139.986634999979
 30
0.0
 11
16878.826716392359
 21
20139.986634999979
 31
0.0
  0
LINE
  5
1302F
  8
2-0
  6
DASHED3
 62
     6
 10
6575.4300203923412
 20
19258.487215000001
 30
0.0
 11
14493.43002039233
 21
19258.487215000001
 31
0.0
  0
LINE
  5
13030
  8
2-0
  6
DASHED3
 62
     6
 10
6532.9307463923506
 20
18972.603133336848
 30
0.0
 11
6532.9307463923506
 21
19343.487743000002
 31
0.0
  0
LINE
  5
13031
  8
2-0
  6
DASHED3
 62
     6
 10
6575.4300203923412
 20
18955.067610197751
 30
0.0
 11
6575.4300203923412
 21
19343.487743000002
 31
0.0
  0
LINE
  5
13032
  8
2-0
  6
DASHED3
 62
     6
 10
6532.9307463923506
 20
19343.487743000002
 30
0.0
 11
14493.43002039233
 21
19343.487743000002
 31
0.0
  0
LINE
  5
13033
  8
2-0
  6
DASHED3
 62
     6
 10
9493.4300203923394
 20
17746.365060417251
 30
0.0
 11
9493.4300203923394
 21
19343.487743000002
 31
0.0
  0
LINE
  5
13034
  8
2-0
  6
DASHED3
 62
     6
 10
9535.9312743923529
 20
17728.828720315101
 30
0.0
 11
9535.9312743923529
 21
19343.487743000002
 31
0.0
  0
LINE
  5
13035
  8
2-0
  6
DASHED3
 62
     6
 10
6645.4307463923506
 20
19297.485711000001
 30
0.0
 11
7373.3795484508728
 21
18624.69699676337
 31
0.0
  0
LINE
  5
13036
  8
2-0
  6
DASHED3
 62
     6
 10
9423.4312743923529
 20
19297.485711000001
 30
0.0
 11
8286.4539764054643
 21
18246.661860119391
 31
0.0
  0
LINE
  5
13037
  8
2-0
  6
CENTER2
 62
     6
 10
9493.4300203923394
 20
20539.987954
 30
0.0
 11
9493.4300203923394
 21
19561.985025000002
 31
0.0
  0
LINE
  5
13038
  8
2-0
  6
CENTER2
 62
     6
 10
5245.9299153923494
 20
19297.485711000001
 30
0.0
 11
6892.4291363923403
 21
19297.485711000001
 31
0.0
  0
LINE
  5
13039
  8
0-8
  6
CONTINUOUS
 62
     6
 10
6575.4300203923412
 20
20539.987954
 30
0.0
 11
6575.4300203923412
 21
19589.987293999991
 31
0.0
  0
LINE
  5
1303A
  8
2-0
  6
CENTER2
 62
     6
 10
5245.9299153923494
 20
16729.985711000001
 30
0.0
 11
14665.229468392339
 21
16729.985711000001
 31
0.0
  0
LINE
  5
1303B
  8
2-0
  6
CENTER2
 62
     6
 10
5245.9299153923494
 20
13811.985710999999
 30
0.0
 11
6892.4291363923403
 21
13811.985710999999
 31
0.0
  0
ARC
  5
1303C
  8
0-1
  6
CONTINUOUS
 62
     3
 10
6558.4292813923312
 20
19484.987690000002
 30
0.0
 40
5.0
 50
269.9999850001808
 51
0.0
  0
ARC
  5
1303D
  8
0-1
  6
CONTINUOUS
 62
     3
 10
6558.4319827098243
 20
19514.988412922321
 30
0.0
 40
4.99729880777691
 50
359.9871711637191
 51
90.030971551784916
  0
ARC
  5
1303E
  8
0-1
  6
CONTINUOUS
 62
     3
 10
6494.9263679161049
 20
19514.98850618611
 30
0.0
 40
4.9970736707893684
 50
89.966445412325555
 51
180.01389876465331
  0
CIRCLE
  5
1303F
  8
0-5
  6
CONTINUOUS
 62
     4
 10
9493.4300203923394
 20
20739.986634999979
 30
0.0
 40
199.9999949999999
  0
CIRCLE
  5
13040
  8
0-5
  6
CONTINUOUS
 62
     4
 10
6575.4300203923412
 20
20739.986634999979
 30
0.0
 40
199.9999949999999
  0
CIRCLE
  5
13041
  8
0-5
  6
CONTINUOUS
 62
     4
 10
5045.9302443923507
 20
19297.485711000001
 30
0.0
 40
199.9999949999999
  0
CIRCLE
  5
13042
  8
0-5
  6
CONTINUOUS
 62
     4
 10
5045.9302443923507
 20
16729.985711000001
 30
0.0
 40
199.9999949999999
  0
CIRCLE
  5
13043
  8
0-5
  6
CONTINUOUS
 62
     4
 10
5045.9302443923507
 20
13811.985710999999
 30
0.0
 40
199.9999949999999
  0
CIRCLE
  5
13044
  8
0-5
  6
CONTINUOUS
 62
     4
 10
15128.71667799999
 20
1375.999982000001
 30
0.0
 40
20.0
  0
ARC
  5
13045
  8
0-5
  6
CONTINUOUS
 62
     4
 10
15128.71667799999
 20
1375.999982000001
 30
0.0
 40
20.0
 50
180.0
 51
0.0
  0
ARC
  5
13046
  8
0-5
  6
CONTINUOUS
 62
     4
 10
15128.71667799999
 20
1375.999982000001
 30
0.0
 40
20.0
 50
0.0
 51
179.99998500000001
  0
CIRCLE
  5
13047
  8
0-5
  6
CONTINUOUS
 62
     4
 10
15128.71667799999
 20
1775.999321999999
 30
0.0
 40
20.0
  0
ARC
  5
13048
  8
0-5
  6
CONTINUOUS
 62
     4
 10
15128.71667799999
 20
1775.999321999999
 30
0.0
 40
20.0
 50
180.0
 51
0.0
  0
ARC
  5
13049
  8
0-5
  6
CONTINUOUS
 62
     4
 10
15128.71667799999
 20
1775.999321999999
 30
0.0
 40
20.0
 50
0.0
 51
179.99998500000001
  0
TEXT
  5
1304A
  8
0-5
  6
CONTINUOUS
 62
     7
 10
9439.7128143923564
 20
20650.771712000002
 30
0.0
 40
160.0
  1
2
 72
     4
 11
9493.0461477256886
 21
20730.771712000002
 31
0.0
  0
TEXT
  5
1304B
  8
0-5
  6
CONTINUOUS
 62
     7
 10
6521.7108353923522
 20
20650.771712000002
 30
0.0
 40
160.0
  1
1
 72
     4
 11
6548.3775020590183
 21
20730.771712000002
 31
0.0
  0
TEXT
  5
1304C
  8
0-5
  6
CONTINUOUS
 62
     7
 10
4992.4703763923508
 20
19217.897186999999
 30
0.0
 40
160.0
  1
C
 72
     4
 11
5045.8037097256847
 21
19297.897186999999
 31
0.0
  0
TEXT
  5
1304D
  8
0-5
  6
CONTINUOUS
 62
     7
 10
4992.4703763923508
 20
16650.398176999981
 30
0.0
 40
160.0
  1
B
 72
     4
 11
5045.8037097256847
 21
16730.398176999981
 31
0.0
  0
TEXT
  5
1304E
  8
0-5
  6
CONTINUOUS
 62
     7
 10
4992.4703763923508
 20
13732.397187
 30
0.0
 40
160.0
  1
A
 72
     4
 11
5045.8037097256847
 21
13812.397187
 31
0.0
  0
TEXT
  5
1304F
  8
0-5
  6
CONTINUOUS
 62
     7
 10
16661.217403999992
 20
1655.999792000001
 30
0.0
 40
160.0
  1
H
  0
TEXT
  5
13050
  8
0-5
  6
CONTINUOUS
 62
     7
 10
15176.146933
 20
1655.999792000001
 30
0.0
 40
160.0
  1
（ ）内寸法ハ、  タイプヲ示ス。
  0
TEXT
  5
13051
  8
0-5
  6
CONTINUOUS
 62
     7
 10
15288.716216000001
 20
1255.999462
 30
0.0
 40
160.0
  1
有効高サハ、基礎高サヲ含ミマセン。
  0
TEXT
  5
13052
  8
0-6
  6
CONTINUOUS
 62
     7
 10
8847.6747235297244
 20
19829.98610699999
 30
0.0
 40
160.0
  1
屋根
 72
     4
 11
9018.3413901963904
 21
19909.98610699999
 31
0.0
  0
TEXT
  5
13053
  8
0-6
  6
CONTINUOUS
 62
     7
 10
7196.6988215297279
 20
19829.98610699999
 30
0.0
 40
160.0
  1
桁（後）
 72
     4
 11
7516.6988215297279
 21
19909.98610699999
 31
0.0
  0
TEXT
  5
13054
  8
0-6
  6
CONTINUOUS
 62
     7
 10
7588.5909914581925
 20
14256.31538
 30
0.0
 40
160.0
  1
桁（前）
 72
     4
 11
7908.5909914581925
 21
14336.31538
 31
0.0
  0
TEXT
  5
13055
  8
0-6
  6
CONTINUOUS
 62
     7
 10
8496.1151414582091
 20
12892.48646299999
 30
0.0
 40
160.0
  1
鼻隠し前
 72
     4
 11
8858.7818081248752
 21
12972.48646299999
 31
0.0
  0
TEXT
  5
13056
  8
0-6
  6
CONTINUOUS
 62
     7
 10
4858.2960333923402
 20
12079.485459999991
 30
0.0
 40
160.0
  1
ケラバ 左
 72
     4
 11
5274.2960333923402
 21
12159.485459999991
 31
0.0
  0
TEXT
  5
13057
  8
0-6
  6
CONTINUOUS
 62
     7
 10
6872.956611392362
 20
18012.582700663908
 30
0.0
 40
160.0
  1
上枠
 72
     4
 11
7043.6232780590299
 21
18092.582700663908
 31
0.0
  0
TEXT
  5
13058
  8
0-6
  6
CONTINUOUS
 62
     7
 10
15283.827640392339
 20
20219.984918999991
 30
0.0
 40
160.0
  1
鼻隠しコーナー後
 72
     4
 11
16030.494307059011
 21
20299.984918999991
 31
0.0
  0
TEXT
  5
13059
  8
2-0
  6
CONTINUOUS
 62
     7
 10
23073.43991546092
 20
11251.104441999991
 30
0.0
 40
160.0
  1
平　面　図
 72
     4
 11
23526.773248794249
 21
11325.77110866666
 31
0.0
  0
TEXT
  5
1305A
  8
2-0
  6
CONTINUOUS
 62
     7
 10
8949.0073485997709
 20
11156.81700299998
 30
0.0
 40
160.0
  1
小 屋 伏 図
 72
     4
 11
9450.3406819331049
 21
11236.81700299998
 31
0.0
  0
TEXT
  5
1305B
  8
2-0
  6
CONTINUOUS
 62
     7
 10
22742.541079231629
 20
3292.802588999999
 30
0.0
 40
160.0
  1
正 面 立 面 図
 72
     4
 11
23387.874412564961
 21
3372.802588999999
 31
0.0
  0
TEXT
  5
1305C
  8
2-0
  6
CONTINUOUS
 62
     7
 10
8709.4721087031467
 20
3264.0669070000022
 30
0.0
 40
160.0
  1
側 面 立 面 図
 50
0.000139
 72
     4
 11
9354.8052479539692
 21
3344.0684725833762
 31
0.0
  0
TEXT
  5
13060
  8
2-0
  6
CONTINUOUS
 62
     7
 10
10706.29743309158
 20
3291.2638415833758
 30
0.0
 40
160.0
  1
1
 72
     4
 11
10732.96409975825
 21
3371.2638415833749
 31
0.0
  0
TEXT
  5
13061
  8
2-0
  6
CONTINUOUS
 62
     7
 10
10949.38615034227
 20
3211.2653095833762
 30
0.0
 40
160.0
  1
80
 72
     4
 11
11069.38615034227
 21
3291.2653095833762
 31
0.0
  0
TEXT
  5
13062
  8
2-0
  6
CONTINUOUS
 62
     7
 10
10207.29939909158
 20
3264.0684725833762
 30
0.0
 40
160.0
  1
(S=  /   )
 72
     4
 11
10767.29939909158
 21
3344.0684725833762
 31
0.0
  0
TEXT
  5
13063
  8
2-0
  6
CONTINUOUS
 62
     7
 10
24739.366597702621
 20
3319.9979579999999
 30
0.0
 40
160.0
  1
1
 72
     4
 11
24766.033264369278
 21
3399.9979579999999
 31
0.0
  0
TEXT
  5
13064
  8
2-0
  6
CONTINUOUS
 62
     7
 10
24982.455314953291
 20
3239.9994260000021
 30
0.0
 40
160.0
  1
80
 72
     4
 11
25102.455314953291
 21
3319.9994260000012
 31
0.0
  0
TEXT
  5
13065
  8
2-0
  6
CONTINUOUS
 62
     7
 10
24240.368563702599
 20
3292.802588999999
 30
0.0
 40
160.0
  1
(S=  /   )
 72
     4
 11
24800.368563702599
 21
3372.802588999999
 31
0.0
  0
TEXT
  5
13066
  8
2-0
  6
CONTINUOUS
 62
     7
 10
24878.26543393188
 20
11272.96647766667
 30
0.0
 40
160.0
  1
1
 72
     4
 11
24904.932100598551
 21
11352.96647766667
 31
0.0
  0
TEXT
  5
13067
  8
2-0
  6
CONTINUOUS
 62
     7
 10
25121.354151182572
 20
11192.967945666671
 30
0.0
 40
160.0
  1
80
 72
     4
 11
25241.354151182572
 21
11272.967945666671
 31
0.0
  0
TEXT
  5
13068
  8
2-0
  6
CONTINUOUS
 62
     7
 10
24379.267399931879
 20
11245.77110866666
 30
0.0
 40
160.0
  1
(S=  /   )
 72
     4
 11
24939.267399931879
 21
11325.77110866666
 31
0.0
  0
TEXT
  5
13069
  8
2-0
  6
CONTINUOUS
 62
     7
 10
10801.832867070711
 20
11184.012371999979
 30
0.0
 40
160.0
  1
1
 72
     4
 11
10828.49953373738
 21
11264.012371999979
 31
0.0
  0
TEXT
  5
1306A
  8
2-0
  6
CONTINUOUS
 62
     7
 10
11044.921584321421
 20
11104.01383999998
 30
0.0
 40
160.0
  1
80
 72
     4
 11
11164.921584321421
 21
11184.01383999998
 31
0.0
  0
TEXT
  5
1306B
  8
2-0
  6
CONTINUOUS
 62
     7
 10
10302.834833070719
 20
11156.81700299998
 30
0.0
 40
160.0
  1
(S=  /   )
 72
     4
 11
10862.834833070719
 21
11236.81700299998
 31
0.0
  0
LINE
  5
1306C
  8
2-0
  6
CENTER2
 62
     6
 10
14493.43002039233
 20
20539.987954
 30
0.0
 11
14493.43002039233
 21
19589.987293999991
 31
0.0
  0
CIRCLE
  5
1306D
  8
0-5
  6
CONTINUOUS
 62
     4
 10
14493.43002039233
 20
20739.986634999979
 30
0.0
 40
199.9999949999999
  0
TEXT
  5
1306E
  8
0-5
  6
CONTINUOUS
 62
     7
 10
14439.71281439234
 20
20650.771712000002
 30
0.0
 40
160.0
  1
3
 72
     4
 11
14493.046147725679
 21
20730.771712000002
 31
0.0
  0
LINE
  5
1306F
  8
0-1
  6
CONTINUOUS
 62
     3
 10
14560.93025839234
 20
16564.44994129907
 30
0.0
 11
14560.93025839234
 21
19502.48663499999
 31
0.0
  0
LINE
  5
13070
  8
0-1
  6
CONTINUOUS
 62
     3
 10
14560.93025839234
 20
19502.48663499999
 30
0.0
 11
14578.93002039233
 21
19502.48663499999
 31
0.0
  0
LINE
  5
13071
  8
0-1
  6
CONTINUOUS
 62
     3
 10
14505.42950639234
 20
19484.987690000002
 30
0.0
 11
14505.42950639234
 21
19514.987293999991
 31
0.0
  0
LINE
  5
13072
  8
0-1
  6
CONTINUOUS
 62
     3
 10
14560.93025839234
 20
19479.985446999988
 30
0.0
 11
14510.43076039235
 21
19479.985446999988
 31
0.0
  0
LINE
  5
13073
  8
0-1
  6
CONTINUOUS
 62
     3
 10
14578.93002039233
 20
19514.987293999991
 30
0.0
 11
14578.93002039233
 21
19479.985446999988
 31
0.0
  0
LINE
  5
13074
  8
0-1
  6
CONTINUOUS
 62
     3
 10
14510.43076039235
 20
19519.985579
 30
0.0
 11
14573.92876739233
 21
19519.985579
 31
0.0
  0
ARC
  5
13075
  8
0-1
  6
CONTINUOUS
 62
     3
 10
14573.92876739233
 20
19514.987293999991
 30
0.0
 40
5.0
 50
0.0
 51
90.0
  0
ARC
  5
13076
  8
0-1
  6
CONTINUOUS
 62
     3
 10
14510.43076039235
 20
19514.987293999991
 30
0.0
 40
5.0
 50
90.0
 51
180.0
  0
ARC
  5
13077
  8
0-1
  6
CONTINUOUS
 62
     3
 10
14510.43076039235
 20
19484.987690000002
 30
0.0
 40
5.0
 50
180.0
 51
269.9999850001808
  0
LINE
  5
13078
  8
0-1
  6
CONTINUOUS
 62
     3
 10
9493.4300203923394
 20
13775.48635799998
 30
0.0
 11
9493.4300203923394
 21
13619.486437
 31
0.0
  0
LINE
  5
13079
  8
0-1
  6
CONTINUOUS
 62
     3
 10
6280.7966200757373
 20
19077.05304132856
 30
0.0
 11
9902.2284737369973
 21
17577.69171465941
 31
0.0
  0
LINE
  5
1307A
  8
0-1
  6
CONTINUOUS
 62
     3
 10
14443.43038939235
 20
13651.48634400001
 30
0.0
 11
14443.43038939235
 21
16612.931850858091
 31
0.0
  0
LINE
  5
1307B
  8
0-1
  6
CONTINUOUS
 62
     3
 10
14578.93002039233
 20
13619.486437
 30
0.0
 11
14578.93002039233
 21
16557.02310283003
 31
0.0
  0
LINE
  5
1307C
  8
0-1
  6
CONTINUOUS
 62
     3
 10
14493.43002039233
 20
13775.48635799998
 30
0.0
 11
14493.43002039233
 21
16591.063800694112
 31
0.0
  0
LINE
  5
1307D
  8
0-1
  6
CONTINUOUS
 62
     3
 10
14535.931274392349
 20
13775.48635799998
 30
0.0
 11
14535.931274392349
 21
16573.527460591959
 31
0.0
  0
LINE
  5
1307E
  8
0-1
  6
CONTINUOUS
 62
     3
 10
14443.43038939235
 20
16612.931850858091
 30
0.0
 11
14443.43038939235
 21
19461.985685
 31
0.0
  0
LINE
  5
1307F
  8
0-1
  6
CONTINUOUS
 62
     3
 10
14578.93002039233
 20
16557.02310283004
 30
0.0
 11
14578.93002039233
 21
19502.48663499999
 31
0.0
  0
LINE
  5
13080
  8
2-0
  6
DASHED3
 62
     6
 10
14493.43002039233
 20
16591.063800694112
 30
0.0
 11
14493.43002039233
 21
19489.987954
 31
0.0
  0
LINE
  5
13081
  8
2-0
  6
DASHED3
 62
     6
 10
14535.931274392349
 20
16573.527460591959
 30
0.0
 11
14535.931274392349
 21
19479.985446999988
 31
0.0
  0
LINE
  5
13082
  8
0-1
  6
CONTINUOUS
 62
     3
 10
6489.9300203923422
 20
18989.10749151139
 30
0.0
 11
6489.9300203923422
 21
19509.987031000001
 31
0.0
  0
LINE
  5
13083
  8
0-1
  6
CONTINUOUS
 62
     3
 10
6625.4306403923511
 20
18788.08358270011
 30
0.0
 11
6625.4306403923511
 21
19461.985685
 31
0.0
  0
LINE
  5
13084
  8
0-1
  6
CONTINUOUS
 62
     3
 10
9345.9321313923538
 20
17807.22380933446
 30
0.0
 11
9345.9321313923556
 21
19461.985685
 31
0.0
  0
LINE
  5
13085
  8
0-1
  6
CONTINUOUS
 62
     3
 10
9382.9323033923629
 20
17791.957257433889
 30
0.0
 11
9382.9323033923629
 21
19461.985685
 31
0.0
  0
LINE
  5
13086
  8
0-1
  6
CONTINUOUS
 62
     3
 10
9545.9327913923644
 20
17724.70201846179
 30
0.0
 11
9545.9327913923644
 21
19461.985685
 31
0.0
  0
LINE
  5
13087
  8
0-1
  6
CONTINUOUS
 62
     3
 10
9582.9329633923717
 20
17709.435466561219
 30
0.0
 11
9582.9329633923717
 21
19461.985685
 31
0.0
  0
LINE
  5
13088
  8
0-1
  6
CONTINUOUS
 62
     3
 10
9745.9334513923732
 20
17642.180227589099
 30
0.0
 11
9745.9334513923732
 21
19461.985685
 31
0.0
  0
LINE
  5
13089
  8
0-1
  6
CONTINUOUS
 62
     3
 10
9782.9336233923823
 20
17626.913675688538
 30
0.0
 11
9782.9336233923823
 21
19461.985685
 31
0.0
  0
LINE
  5
1308A
  8
0-1
  6
CONTINUOUS
 62
     3
 10
9945.9341113923838
 20
17683.61714701321
 30
0.0
 11
9945.9341113923838
 21
19461.985685
 31
0.0
  0
LINE
  5
1308B
  8
0-1
  6
CONTINUOUS
 62
     3
 10
9982.9342833923947
 20
17773.291143927981
 30
0.0
 11
9982.9342833923947
 21
19461.985685
 31
0.0
  0
LINE
  5
1308C
  8
0-1
  6
CONTINUOUS
 62
     3
 10
10145.934771392391
 20
17638.213552947622
 30
0.0
 11
10145.934771392391
 21
19461.985685
 31
0.0
  0
LINE
  5
1308D
  8
0-1
  6
CONTINUOUS
 62
     3
 10
10182.9349433924
 20
17595.670312558748
 30
0.0
 11
10182.9349433924
 21
19461.985685
 31
0.0
  0
LINE
  5
1308E
  8
0-1
  6
CONTINUOUS
 62
     3
 10
10345.93543139239
 20
17408.250401524641
 30
0.0
 11
10345.93543139239
 21
19461.985685
 31
0.0
  0
LINE
  5
1308F
  8
0-1
  6
CONTINUOUS
 62
     3
 10
10382.93560339241
 20
17365.707161135771
 30
0.0
 11
10382.93560339241
 21
19461.985685
 31
0.0
  0
LINE
  5
13090
  8
0-1
  6
CONTINUOUS
 62
     3
 10
10545.93609139241
 20
17178.287250101661
 30
0.0
 11
10545.93609139241
 21
19461.985685
 31
0.0
  0
LINE
  5
13091
  8
0-1
  6
CONTINUOUS
 62
     3
 10
10582.93626339241
 20
17135.74400971278
 30
0.0
 11
10582.93626339241
 21
19461.985685
 31
0.0
  0
LINE
  5
13092
  8
0-1
  6
CONTINUOUS
 62
     3
 10
10745.93675139241
 20
17000.69523749184
 30
0.0
 11
10745.93675139241
 21
19461.985685
 31
0.0
  0
LINE
  5
13093
  8
0-1
  6
CONTINUOUS
 62
     3
 10
10782.936923392421
 20
17090.373517523742
 30
0.0
 11
10782.936923392421
 21
19461.985685
 31
0.0
  0
LINE
  5
13094
  8
0-1
  6
CONTINUOUS
 62
     3
 10
10945.93741139243
 20
17147.049482353101
 30
0.0
 11
10945.93741139243
 21
19461.985685
 31
0.0
  0
LINE
  5
13095
  8
0-1
  6
CONTINUOUS
 62
     3
 10
10982.937583392441
 20
17131.782930452511
 30
0.0
 11
10982.937583392441
 21
19461.985685
 31
0.0
  0
LINE
  5
13096
  8
0-1
  6
CONTINUOUS
 62
     3
 10
11145.93807139244
 20
17064.527691480431
 30
0.0
 11
11145.93807139244
 21
19461.985685
 31
0.0
  0
LINE
  5
13097
  8
0-1
  6
CONTINUOUS
 62
     3
 10
11182.938243392449
 20
17049.261139579859
 30
0.0
 11
11182.938243392449
 21
19461.985685
 31
0.0
  0
LINE
  5
13098
  8
2-0
  6
DASHED3
 62
     6
 10
11847.66923088196
 20
16774.988087000002
 30
0.0
 11
14493.43002039233
 21
16774.988087000002
 31
0.0
  0
LINE
  5
13099
  8
2-0
  6
DASHED3
 62
     6
 10
12065.80087116112
 20
16684.985315999991
 30
0.0
 11
14493.43002039233
 21
16684.985315999991
 31
0.0
  0
LINE
  5
1309A
  8
0-1
  6
CONTINUOUS
 62
     3
 10
9493.4300203923394
 20
16684.985315999991
 30
0.0
 11
12065.80087116112
 21
16684.985315999991
 31
0.0
  0
LINE
  5
1309B
  8
0-1
  6
CONTINUOUS
 62
     3
 10
9493.4300203923394
 20
16774.988087000002
 30
0.0
 11
11847.66923088196
 21
16774.988087000002
 31
0.0
  0
LINE
  5
1309C
  8
0-6
  6
CONTINUOUS
 62
     6
 10
14440.43038939235
 20
15538.535670111551
 30
0.0
 11
14199.245161718451
 21
15181.377846848731
 31
0.0
  0
LINE
  5
1309D
  8
0-1
  6
CONTINUOUS
 62
     3
 10
9902.2279359772165
 20
17577.690411339281
 30
0.0
 11
9997.5819563007408
 21
17808.791394445481
 31
0.0
  0
LINE
  5
1309E
  8
0-1
  6
CONTINUOUS
 62
     3
 10
10731.28148848395
 20
16965.174895287859
 30
0.0
 11
10826.632138161471
 21
17196.278746994321
 31
0.0
  0
LINE
  5
1309F
  8
0-1
  6
CONTINUOUS
 62
     3
 10
10731.28148848395
 20
16965.174895287859
 30
0.0
 11
9997.5819563007408
 21
17808.791394445481
 31
0.0
  0
LINE
  5
130A0
  8
0-1
  6
CONTINUOUS
 62
     3
 10
10826.631079382631
 20
17196.276180804489
 30
0.0
 11
14864.27418265598
 21
15530.313979545879
 31
0.0
  0
LINE
  5
130A1
  8
0-6
  6
CONTINUOUS
 62
     6
 10
7718.7984489564778
 20
16191.30709036046
 30
0.0
 11
8598.797392956496
 21
16191.30709036046
 31
0.0
  0
LINE
  5
130A2
  8
0-6
  6
CONTINUOUS
 62
     6
 10
7541.0363116080944
 20
16021.28996269014
 30
0.0
 11
7718.7984489564778
 21
16191.30709036046
 31
0.0
  0
LINE
  5
130A3
  8
0-6
  6
CONTINUOUS
 62
     6
 10
7425.4086716081019
 20
15910.70019869013
 30
0.0
 11
7522.606003608108
 21
16040.56255569014
 31
0.0
  0
LINE
  5
130A4
  8
0-6
  6
CONTINUOUS
 62
     6
 10
7559.467608608089
 20
16002.01736969014
 30
0.0
 11
7425.4086716081019
 21
15910.70019869013
 31
0.0
  0
LINE
  5
130A5
  8
0-6
  6
CONTINUOUS
 62
     6
 10
7559.467608608089
 20
16002.01736969014
 30
0.0
 11
7522.606003608108
 21
16040.56255569014
 31
0.0
  0
TEXT
  5
130A6
  8
0-6
  6
CONTINUOUS
 62
     7
 10
7798.7997029564922
 20
16271.307354360461
 30
0.0
 40
160.0
  1
ブレース
 72
     4
 11
8161.4663696231592
 21
16356.640687693791
 31
0.0
  0
LINE
  5
130A7
  8
0-6
  6
CONTINUOUS
 62
     6
 10
8565.2023872549616
 20
16784.988192000001
 30
0.0
 11
8445.9047689226063
 21
17100.58053000001
 31
0.0
  0
LINE
  5
130A8
  8
0-6
  6
CONTINUOUS
 62
     6
 10
7645.3340079226182
 20
17100.58053000001
 30
0.0
 11
8445.9047689226063
 21
17100.58053000001
 31
0.0
  0
TEXT
  5
130A9
  8
0-6
  6
CONTINUOUS
 62
     7
 10
7725.9043729226032
 20
17180.580794000001
 30
0.0
 40
160.0
  1
桁（中）
 72
     4
 11
8045.9043729226041
 21
17260.580794000001
 31
0.0
  0
LINE
  5
130AA
  8
0-6
  6
CONTINUOUS
 62
     6
 10
11503.384778527259
 20
15227.80431279082
 30
0.0
 11
12383.38372252728
 21
15227.80431279082
 31
0.0
  0
LINE
  5
130AB
  8
0-6
  6
CONTINUOUS
 62
     6
 10
12751.12542810189
 20
15695.652619424
 30
0.0
 11
12383.38372252728
 21
15227.80431279082
 31
0.0
  0
TEXT
  5
130AC
  8
0-6
  6
CONTINUOUS
 62
     7
 10
11583.386032527271
 20
15307.804576790821
 30
0.0
 40
160.0
  1
ブレース
 72
     4
 11
11946.05269919394
 21
15393.13791012416
 31
0.0
  0
LINE
  5
130B2
  8
SUNPOU
  6
CONTINUOUS
 10
5645.9302443923534
 20
19519.98359950001
 30
0.0
 11
5645.9302443923534
 21
20316.950867278461
 31
0.0
  0
LINE
  5
130B3
  8
SUNPOU
  6
CONTINUOUS
 10
5645.9302443923361
 20
12878.173846847811
 30
0.0
 11
5645.9302443923361
 21
13619.486437
 31
0.0
  0
LINE
  5
130B4
  8
0-1
  6
CONTINUOUS
 62
     3
 10
8581.505060703159
 20
8152.2344180000064
 30
0.0
 11
8581.505060703159
 21
6291.1885390000007
 31
0.0
  0
LINE
  5
130B5
  8
0-1
  6
CONTINUOUS
 62
     3
 10
8544.5068687031599
 20
8152.2344180000064
 30
0.0
 11
8544.5068687031599
 21
6291.1885390000007
 31
0.0
  0
LINE
  5
130B6
  8
0-1
  6
CONTINUOUS
 62
     3
 10
9281.504400703152
 20
8152.2344180000064
 30
0.0
 11
9281.504400703152
 21
6291.1885390000007
 31
0.0
  0
LINE
  5
130B7
  8
0-1
  6
CONTINUOUS
 62
     3
 10
9244.5062087031547
 20
8152.2344180000064
 30
0.0
 11
9244.5062087031547
 21
6291.1885390000007
 31
0.0
  0
LINE
  5
130B8
  8
0-1
  6
CONTINUOUS
 62
     3
 10
8903.0046117031452
 20
6291.1885390000007
 30
0.0
 11
8903.0046117031452
 21
8152.2344180000064
 31
0.0
  0
LINE
  5
130B9
  8
0-1
  6
CONTINUOUS
 62
     3
 10
8923.0056677031607
 20
6291.1885390000007
 30
0.0
 11
8923.0056677031607
 21
8152.2344180000064
 31
0.0
  0
LINE
  5
130BA
  8
0-1
  6
CONTINUOUS
 62
     3
 10
8853.0059317031555
 20
6291.1885390000007
 30
0.0
 11
8853.0059317031555
 21
8152.2344180000064
 31
0.0
  0
LINE
  5
130BB
  8
0-1
  6
CONTINUOUS
 62
     3
 10
8973.0053377031581
 20
6291.1885390000007
 30
0.0
 11
8973.0053377031581
 21
8152.2344180000064
 31
0.0
  0
LINE
  5
130BC
  8
0-1
  6
CONTINUOUS
 62
     3
 10
9106.0052317031514
 20
6291.1885390000007
 30
0.0
 11
9106.0052317031514
 21
8152.2344180000064
 31
0.0
  0
LINE
  5
130BD
  8
0-1
  6
CONTINUOUS
 62
     3
 10
9121.0050337031553
 20
6291.1885390000007
 30
0.0
 11
9121.0050337031553
 21
8152.2344180000064
 31
0.0
  0
LINE
  5
130BE
  8
0-1
  6
CONTINUOUS
 62
     3
 10
8720.0050467031542
 20
6291.1885390000007
 30
0.0
 11
8720.0050467031542
 21
8152.2344180000064
 31
0.0
  0
LINE
  5
130BF
  8
0-1
  6
CONTINUOUS
 62
     3
 10
8705.0062347031635
 20
6291.1885390000007
 30
0.0
 11
8705.0062347031635
 21
8152.2344180000064
 31
0.0
  0
LINE
  5
130C0
  8
0-1
  6
CONTINUOUS
 62
     3
 10
8421.0056937031623
 20
6291.1885390000007
 30
0.0
 11
8421.0056937031623
 21
8152.2344180000064
 31
0.0
  0
LINE
  5
130C1
  8
0-1
  6
CONTINUOUS
 62
     3
 10
8406.0049017031542
 20
6291.1885390000007
 30
0.0
 11
8406.0049017031542
 21
8152.2344180000064
 31
0.0
  0
LINE
  5
130C2
  8
0-1
  6
CONTINUOUS
 62
     3
 10
8273.0059977031488
 20
6291.1885390000007
 30
0.0
 11
8273.0059977031488
 21
8152.2344180000064
 31
0.0
  0
LINE
  5
130C3
  8
0-1
  6
CONTINUOUS
 62
     3
 10
8153.0046117031579
 20
6291.1885390000007
 30
0.0
 11
8153.0046117031579
 21
8152.2344180000064
 31
0.0
  0
LINE
  5
130C4
  8
0-1
  6
CONTINUOUS
 62
     3
 10
8223.0073167031642
 20
6291.1885390000007
 30
0.0
 11
8223.0073167031642
 21
8152.2344180000064
 31
0.0
  0
LINE
  5
130C5
  8
0-1
  6
CONTINUOUS
 62
     3
 10
8203.0062617031672
 20
6291.1885390000007
 30
0.0
 11
8203.0062617031672
 21
8152.2344180000064
 31
0.0
  0
LINE
  5
130C6
  8
0-1
  6
CONTINUOUS
 62
     3
 10
9405.004585703151
 20
6291.1885390000007
 30
0.0
 11
9405.004585703151
 21
8152.2344180000064
 31
0.0
  0
LINE
  5
130C7
  8
0-1
  6
CONTINUOUS
 62
     3
 10
9420.0053767031641
 20
6291.1885390000007
 30
0.0
 11
9420.0053767031641
 21
8152.2344180000064
 31
0.0
  0
LINE
  5
130C8
  8
0-1
  6
CONTINUOUS
 62
     3
 10
9553.0062617031635
 20
6291.1885390000007
 30
0.0
 11
9553.0062617031635
 21
8152.2344180000064
 31
0.0
  0
LINE
  5
130C9
  8
0-1
  6
CONTINUOUS
 62
     3
 10
9821.0053637031597
 20
6291.1885390000007
 30
0.0
 11
9821.0053637031597
 21
8152.2344180000064
 31
0.0
  0
LINE
  5
130CA
  8
0-1
  6
CONTINUOUS
 62
     3
 10
9806.0065517031635
 20
6291.1885390000007
 30
0.0
 11
9806.0065517031635
 21
8152.2344180000064
 31
0.0
  0
LINE
  5
130CB
  8
0-1
  6
CONTINUOUS
 62
     3
 10
9673.0056677031516
 20
6291.1885390000007
 30
0.0
 11
9673.0056677031516
 21
8152.2344180000064
 31
0.0
  0
LINE
  5
130CC
  8
0-1
  6
CONTINUOUS
 62
     3
 10
9623.0059977031488
 20
6291.1885390000007
 30
0.0
 11
9623.0059977031488
 21
8152.2344180000064
 31
0.0
  0
LINE
  5
130CD
  8
0-1
  6
CONTINUOUS
 62
     3
 10
9603.0069207031647
 20
6291.1885390000007
 30
0.0
 11
9603.0069207031647
 21
8152.2344180000064
 31
0.0
  0
LINE
  5
130CE
  8
0-1
  6
CONTINUOUS
 62
     3
 10
10431.005891703149
 20
6291.1885390000007
 30
0.0
 11
10431.005891703149
 21
8152.2344180000064
 31
0.0
  0
LINE
  5
130CF
  8
0-1
  6
CONTINUOUS
 62
     3
 10
10411.006815703149
 20
6291.1885390000007
 30
0.0
 11
10411.006815703149
 21
8152.2344180000064
 31
0.0
  0
LINE
  5
130D0
  8
0-1
  6
CONTINUOUS
 62
     3
 10
10481.00655170314
 20
6291.1885390000007
 30
0.0
 11
10481.00655170314
 21
8152.2344180000064
 31
0.0
  0
LINE
  5
130D1
  8
0-1
  6
CONTINUOUS
 62
     3
 10
10361.006155703149
 20
6291.1885390000007
 30
0.0
 11
10361.006155703149
 21
8152.2344180000064
 31
0.0
  0
LINE
  5
130D2
  8
0-1
  6
CONTINUOUS
 62
     3
 10
10228.006261703151
 20
6291.1885390000007
 30
0.0
 11
10228.006261703151
 21
8152.2344180000064
 31
0.0
  0
LINE
  5
130D3
  8
0-1
  6
CONTINUOUS
 62
     3
 10
10213.004479703141
 20
6291.1885390000007
 30
0.0
 11
10213.004479703141
 21
8152.2344180000064
 31
0.0
  0
LINE
  5
130D4
  8
0-1
  6
CONTINUOUS
 62
     3
 10
10614.00644570314
 20
6291.1885390000007
 30
0.0
 11
10614.00644570314
 21
8152.2344180000064
 31
0.0
  0
LINE
  5
130D5
  8
0-1
  6
CONTINUOUS
 62
     3
 10
10629.005258703161
 20
6291.1885390000007
 30
0.0
 11
10629.005258703161
 21
8152.2344180000064
 31
0.0
  0
LINE
  5
130D6
  8
0-1
  6
CONTINUOUS
 62
     3
 10
12313.00546970313
 20
6291.1885390000007
 30
0.0
 11
12313.00546970313
 21
8152.2344180000064
 31
0.0
  0
LINE
  5
130D7
  8
0-1
  6
CONTINUOUS
 62
     3
 10
12328.00527170315
 20
6291.1885390000007
 30
0.0
 11
12328.00527170315
 21
8152.2344180000064
 31
0.0
  0
LINE
  5
130D8
  8
0-1
  6
CONTINUOUS
 62
     3
 10
12461.006155703149
 20
6291.1885390000007
 30
0.0
 11
12461.006155703149
 21
8152.2344180000064
 31
0.0
  0
LINE
  5
130D9
  8
0-1
  6
CONTINUOUS
 62
     3
 10
12581.005561703159
 20
6291.1885390000007
 30
0.0
 11
12581.005561703159
 21
8152.2344180000064
 31
0.0
  0
LINE
  5
130DA
  8
0-1
  6
CONTINUOUS
 62
     3
 10
12511.006815703149
 20
6291.1885390000007
 30
0.0
 11
12511.006815703149
 21
8152.2344180000064
 31
0.0
  0
LINE
  5
130DB
  8
0-1
  6
CONTINUOUS
 62
     3
 10
12531.00589170314
 20
6291.1885390000007
 30
0.0
 11
12531.00589170314
 21
8152.2344180000064
 31
0.0
  0
LINE
  5
130DC
  8
0-1
  6
CONTINUOUS
 62
     3
 10
11831.00655170316
 20
6291.1885390000007
 30
0.0
 11
11831.00655170316
 21
8152.2344180000064
 31
0.0
  0
LINE
  5
130DD
  8
0-1
  6
CONTINUOUS
 62
     3
 10
11811.00549570317
 20
6291.1885390000007
 30
0.0
 11
11811.00549570317
 21
8152.2344180000064
 31
0.0
  0
LINE
  5
130DE
  8
0-1
  6
CONTINUOUS
 62
     3
 10
11881.00523170315
 20
6291.1885390000007
 30
0.0
 11
11881.00523170315
 21
8152.2344180000064
 31
0.0
  0
LINE
  5
130DF
  8
0-1
  6
CONTINUOUS
 62
     3
 10
11761.006815703149
 20
6291.1885390000007
 30
0.0
 11
11761.006815703149
 21
8152.2344180000064
 31
0.0
  0
LINE
  5
130E0
  8
0-1
  6
CONTINUOUS
 62
     3
 10
11628.00593170315
 20
6291.1885390000007
 30
0.0
 11
11628.00593170315
 21
8152.2344180000064
 31
0.0
  0
LINE
  5
130E1
  8
0-1
  6
CONTINUOUS
 62
     3
 10
11613.006129703141
 20
6291.1885390000007
 30
0.0
 11
11613.006129703141
 21
8152.2344180000064
 31
0.0
  0
LINE
  5
130E2
  8
0-1
  6
CONTINUOUS
 62
     3
 10
12014.004136703161
 20
6291.1885390000007
 30
0.0
 11
12014.004136703161
 21
8152.2344180000064
 31
0.0
  0
LINE
  5
130E3
  8
0-1
  6
CONTINUOUS
 62
     3
 10
12029.005917703151
 20
6291.1885390000007
 30
0.0
 11
12029.005917703151
 21
8152.2344180000064
 31
0.0
  0
LINE
  5
130E4
  8
0-1
  6
CONTINUOUS
 62
     3
 10
11329.00657770314
 20
6291.1885390000007
 30
0.0
 11
11329.00657770314
 21
8152.2344180000064
 31
0.0
  0
LINE
  5
130E5
  8
0-1
  6
CONTINUOUS
 62
     3
 10
11314.004796703141
 20
6291.1885390000007
 30
0.0
 11
11314.004796703141
 21
8152.2344180000064
 31
0.0
  0
LINE
  5
130E6
  8
0-1
  6
CONTINUOUS
 62
     3
 10
10913.00678870316
 20
6291.1885390000007
 30
0.0
 11
10913.00678870316
 21
8152.2344180000064
 31
0.0
  0
LINE
  5
130E7
  8
0-1
  6
CONTINUOUS
 62
     3
 10
10928.00560170314
 20
6291.1885390000007
 30
0.0
 11
10928.00560170314
 21
8152.2344180000064
 31
0.0
  0
LINE
  5
130E8
  8
0-1
  6
CONTINUOUS
 62
     3
 10
11061.004505703149
 20
6291.1885390000007
 30
0.0
 11
11061.004505703149
 21
8152.2344180000064
 31
0.0
  0
LINE
  5
130E9
  8
0-1
  6
CONTINUOUS
 62
     3
 10
11181.00589170314
 20
6291.1885390000007
 30
0.0
 11
11181.00589170314
 21
8152.2344180000064
 31
0.0
  0
LINE
  5
130EA
  8
0-1
  6
CONTINUOUS
 62
     3
 10
11111.00615570314
 20
6291.1885390000007
 30
0.0
 11
11111.00615570314
 21
8152.2344180000064
 31
0.0
  0
LINE
  5
130EB
  8
0-1
  6
CONTINUOUS
 62
     3
 10
11131.00523170315
 20
6291.1885390000007
 30
0.0
 11
11131.00523170315
 21
8152.2344180000064
 31
0.0
  0
LINE
  5
130EC
  8
0-1
  6
CONTINUOUS
 62
     3
 10
10789.50660470316
 20
8152.2344180000064
 30
0.0
 11
10789.50660470316
 21
6291.1885390000007
 31
0.0
  0
LINE
  5
130ED
  8
0-1
  6
CONTINUOUS
 62
     3
 10
10752.50544270315
 20
8152.2344180000064
 30
0.0
 11
10752.50544270315
 21
6291.1885390000007
 31
0.0
  0
LINE
  5
130EE
  8
0-1
  6
CONTINUOUS
 62
     3
 10
12189.504294703151
 20
8152.2344180000064
 30
0.0
 11
12189.504294703151
 21
6291.1885390000007
 31
0.0
  0
LINE
  5
130EF
  8
0-1
  6
CONTINUOUS
 62
     3
 10
12152.50511270314
 20
8152.2344180000064
 30
0.0
 11
12152.50511270314
 21
6291.1885390000007
 31
0.0
  0
LINE
  5
130F0
  8
0-1
  6
CONTINUOUS
 62
     3
 10
11489.505944703151
 20
8152.2344180000064
 30
0.0
 11
11489.505944703151
 21
6291.1885390000007
 31
0.0
  0
LINE
  5
130F1
  8
0-1
  6
CONTINUOUS
 62
     3
 10
11452.50577270316
 20
8152.2344180000064
 30
0.0
 11
11452.50577270316
 21
6291.1885390000007
 31
0.0
  0
LINE
  5
130F2
  8
0-1
  6
CONTINUOUS
 62
     3
 10
12990.005416703139
 20
6241.1883740000021
 30
0.0
 11
12990.005416703139
 21
6141.1885390000007
 31
0.0
  0
LINE
  5
130F3
  8
0-1
  6
CONTINUOUS
 62
     3
 10
12957.50462570315
 20
8455.5174490000027
 30
0.0
 11
12957.50462570315
 21
6241.1883740000021
 31
0.0
  0
LINE
  5
130F4
  8
0-1
  6
CONTINUOUS
 62
     3
 10
12977.50541670315
 20
8456.0984379999973
 30
0.0
 11
12977.50541670315
 21
6241.1883740000021
 31
0.0
  0
LINE
  5
130F5
  8
0-1
  6
CONTINUOUS
 62
     3
 10
12862.50554870314
 20
8152.2344180000064
 30
0.0
 11
12862.50554870314
 21
6241.1883740000021
 31
0.0
  0
LINE
  5
130F6
  8
0-1
  6
CONTINUOUS
 62
     3
 10
10017.005416703139
 20
8356.9898809999977
 30
0.0
 11
10017.005416703139
 21
8152.2344180000064
 31
0.0
  0
LINE
  5
130F7
  8
0-1
  6
CONTINUOUS
 62
     3
 10
9944.5055487031641
 20
8152.2344180000064
 30
0.0
 11
9944.5055487031641
 21
6241.1883740000021
 31
0.0
  0
LINE
  5
130F8
  8
0-1
  6
CONTINUOUS
 62
     3
 10
10089.50429470314
 20
8152.2344180000064
 30
0.0
 11
10089.50429470314
 21
6241.1883740000021
 31
0.0
  0
LINE
  5
130F9
  8
0-1
  6
CONTINUOUS
 62
     3
 10
10089.50429470314
 20
6291.1885390000007
 30
0.0
 11
12862.50554870314
 21
6291.1885390000007
 31
0.0
  0
LINE
  5
130FA
  8
0-1
  6
CONTINUOUS
 62
     3
 10
7399.5054167031458
 20
6141.1885390000007
 30
0.0
 11
7399.5054167031458
 21
6241.1883740000021
 31
0.0
  0
LINE
  5
130FB
  8
0-1
  6
CONTINUOUS
 62
     3
 10
7427.0052187031542
 20
8268.990877000002
 30
0.0
 11
7427.0052187031542
 21
6241.1883740000021
 31
0.0
  0
LINE
  5
130FC
  8
0-1
  6
CONTINUOUS
 62
     3
 10
7407.0054167031503
 20
8268.3741496838102
 30
0.0
 11
7407.0054167031503
 21
6241.1883740000021
 31
0.0
  0
LINE
  5
130FD
  8
0-1
  6
CONTINUOUS
 62
     3
 10
7399.5054167031458
 20
6241.1883740000021
 30
0.0
 11
12990.005416703139
 21
6241.1883740000021
 31
0.0
  0
LINE
  5
130FE
  8
0-1
  6
CONTINUOUS
 62
     3
 10
7522.0042957031546
 20
6291.1885390000007
 30
0.0
 11
9944.5055487031641
 21
6291.1885390000007
 31
0.0
  0
LINE
  5
130FF
  8
0-1
  6
CONTINUOUS
 62
     3
 10
6717.0043617031479
 20
6141.1885390000007
 30
0.0
 11
12990.005416703139
 21
6141.1885390000007
 31
0.0
  0
LINE
  5
13100
  8
0-1
  6
CONTINUOUS
 62
     3
 10
7427.0052187031542
 20
8152.2344180000064
 30
0.0
 11
12957.50462570315
 21
8152.2344180000064
 31
0.0
  0
LINE
  5
13101
  8
0-1
  6
CONTINUOUS
 62
     3
 10
7232.7035927031557
 20
8303.1736990000027
 30
0.0
 11
13063.19508170315
 21
8498.6897600000066
 31
0.0
  0
LINE
  5
13102
  8
0-1
  6
CONTINUOUS
 62
     3
 10
13061.69460670314
 20
8548.6686450000016
 30
0.0
 11
7231.2041077031454
 21
8353.151595000003
 31
0.0
  0
LINE
  5
13103
  8
0-1
  6
CONTINUOUS
 62
     3
 10
7228.1140797031549
 20
8356.0604969999968
 30
0.0
 11
7227.1540127031449
 21
8388.0460529999982
 31
0.0
  0
LINE
  5
13104
  8
0-1
  6
CONTINUOUS
 62
     3
 10
7232.0028437031579
 20
8393.1932959999976
 30
0.0
 11
13081.46405870315
 21
8589.2804480000032
 31
0.0
  0
LINE
  5
13105
  8
0-1
  6
CONTINUOUS
 62
     3
 10
13085.36865870315
 20
8459.338910000004
 30
0.0
 11
7235.903484703158
 21
8263.2522529999969
 31
0.0
  0
LINE
  5
13106
  8
0-1
  6
CONTINUOUS
 62
     3
 10
7230.7557467031602
 20
8268.099599000001
 30
0.0
 11
7229.7966697031497
 21
8300.0856499999973
 31
0.0
  0
LINE
  5
13107
  8
0-1
  6
CONTINUOUS
 62
     3
 10
7229.4651007031498
 20
8311.0803909999977
 30
0.0
 11
7228.4446587031571
 21
8345.0647660000086
 31
0.0
  0
LINE
  5
13108
  8
0-1
  6
CONTINUOUS
 62
     3
 10
7231.3535617031584
 20
8348.1538049999999
 30
0.0
 11
13061.846039703139
 21
8543.6713500000023
 31
0.0
  0
LINE
  5
13109
  8
0-1
  6
CONTINUOUS
 62
     3
 10
13063.04562770315
 20
8503.6880440000004
 30
0.0
 11
7232.5551297031498
 21
8308.1719839999969
 31
0.0
  0
LINE
  5
1310A
  8
0-1
  6
CONTINUOUS
 62
     3
 10
10017.005416703139
 20
8356.9898809999977
 30
0.0
 11
10013.102795703149
 21
8486.9314189999968
 31
0.0
  0
LINE
  5
1310B
  8
0-1
  6
CONTINUOUS
 62
     3
 10
13052.40175670315
 20
8458.3481610000017
 30
0.0
 11
13048.500125703151
 21
8588.2896989999972
 31
0.0
  0
LINE
  5
1310C
  8
0-1
  6
CONTINUOUS
 62
     3
 10
7244.4955857031518
 20
8393.5684149999979
 30
0.0
 11
7248.3982067031557
 21
8263.6273720000008
 31
0.0
  0
LINE
  5
1310D
  8
0-5
  6
CONTINUOUS
 62
     4
 10
14695.090404703151
 20
6241.1883740000021
 30
0.0
 11
14815.090800703139
 21
6449.0353509999959
 31
0.0
  0
LINE
  5
1310E
  8
0-5
  6
CONTINUOUS
 62
     4
 10
14575.091987703139
 20
6449.0353509999959
 30
0.0
 11
14695.090404703151
 21
6241.1883740000021
 31
0.0
  0
LINE
  5
1310F
  8
0-5
  6
CONTINUOUS
 62
     4
 10
14815.090800703139
 20
6449.0353509999959
 30
0.0
 11
14575.091987703139
 21
6449.0353509999959
 31
0.0
  0
LINE
  5
13110
  8
0-5
  6
CONTINUOUS
 62
     4
 10
13070.00271170314
 20
6241.1883740000021
 30
0.0
 11
14787.46859770314
 21
6241.1883740000021
 31
0.0
  0
LINE
  5
13111
  8
0-5
  6
CONTINUOUS
 62
     4
 10
13070.00271170314
 20
6141.1885390000007
 30
0.0
 11
20544.28101581736
 21
6141.1885390000007
 31
0.0
  0
LINE
  5
13112
  8
0-5
  6
CONTINUOUS
 62
     4
 10
12935.005416703139
 20
4461.1889349999938
 30
0.0
 11
12935.005416703139
 21
4301.1893970000001
 31
0.0
  0
LINE
  5
13113
  8
0-5
  6
CONTINUOUS
 62
     4
 10
10017.005416703139
 20
4461.1889349999938
 30
0.0
 11
10017.005416703139
 21
4301.1893970000001
 31
0.0
  0
LINE
  5
13114
  8
0-5
  6
CONTINUOUS
 62
     4
 10
7449.5054167031458
 20
4461.1889349999938
 30
0.0
 11
7449.5054167031458
 21
4301.1893970000001
 31
0.0
  0
LINE
  5
13115
  8
2-0
  6
CENTER2
 62
     6
 10
12935.005416703139
 20
5878.536116000002
 30
0.0
 11
12935.005416703139
 21
6935.6787139999988
 31
0.0
  0
LINE
  5
13116
  8
2-0
  6
CENTER2
 62
     6
 10
10017.005416703139
 20
5878.536116000002
 30
0.0
 11
10017.005416703139
 21
6935.6787139999988
 31
0.0
  0
LINE
  5
13117
  8
2-0
  6
CENTER2
 62
     6
 10
7449.5054167031458
 20
5878.536116000002
 30
0.0
 11
7449.5054167031458
 21
6935.6787139999988
 31
0.0
  0
ARC
  5
13118
  8
0-1
  6
CONTINUOUS
 62
     3
 10
13062.444843703141
 20
8523.680191999998
 30
0.0
 40
24.999998999999999
 50
271.71998600002598
 51
91.719986000025997
  0
ARC
  5
13119
  8
0-1
  6
CONTINUOUS
 62
     3
 10
7231.1140397031568
 20
8356.1505650000017
 30
0.0
 40
3.0
 50
181.71998600001371
 51
271.71998600002598
  0
ARC
  5
1311A
  8
0-1
  6
CONTINUOUS
 62
     3
 10
7232.151307703155
 20
8388.1955070000022
 30
0.0
 40
5.0
 50
91.719986000025997
 51
181.71998600001371
  0
ARC
  5
1311B
  8
0-1
  6
CONTINUOUS
 62
     3
 10
13057.44754970314
 20
8523.5297490000066
 30
0.0
 40
69.999999000000003
 50
293.50677499978701
 51
69.933196999905391
  0
ARC
  5
1311C
  8
0-1
  6
CONTINUOUS
 62
     3
 10
7235.7550207031618
 20
8268.2500430000073
 30
0.0
 40
5.0
 50
181.71998600001371
 51
271.71998600002598
  0
ARC
  5
1311D
  8
0-1
  6
CONTINUOUS
 62
     3
 10
7232.7936617031519
 20
8300.1752229999984
 30
0.0
 40
3.0
 50
91.719986000025997
 51
181.71998600001371
  0
ARC
  5
1311E
  8
0-1
  6
CONTINUOUS
 62
     3
 10
7232.7778247031547
 20
8350.697981000003
 30
0.0
 40
2.5
 50
271.71998600002598
 51
91.719986000025997
  0
ARC
  5
1311F
  8
0-1
  6
CONTINUOUS
 62
     3
 10
7234.1278567031568
 20
8305.7178750000003
 30
0.0
 40
2.5
 50
271.71998600002598
 51
91.719986000025997
  0
ARC
  5
13120
  8
0-1
  6
CONTINUOUS
 62
     3
 10
7231.4436297031498
 20
8345.1553289999974
 30
0.0
 40
3.0
 50
91.719986000025997
 51
181.71998600001371
  0
ARC
  5
13121
  8
0-1
  6
CONTINUOUS
 62
     3
 10
13062.444843703141
 20
8523.680191999998
 30
0.0
 40
20.0
 50
271.71998600002598
 51
91.719986000025997
  0
ARC
  5
13122
  8
0-1
  6
CONTINUOUS
 62
     3
 10
7232.4640717031498
 20
8311.1699640000006
 30
0.0
 40
3.0
 50
181.71998600001371
 51
271.71998600002598
  0
CIRCLE
  5
13123
  8
0-5
  6
CONTINUOUS
 62
     4
 10
10017.005416703139
 20
4101.1882420000011
 30
0.0
 40
199.9999949999999
  0
CIRCLE
  5
13124
  8
0-5
  6
CONTINUOUS
 62
     4
 10
12935.005416703139
 20
4101.1882420000011
 30
0.0
 40
199.9999949999999
  0
CIRCLE
  5
13125
  8
0-5
  6
CONTINUOUS
 62
     4
 10
7449.5054167031458
 20
4101.1882420000011
 30
0.0
 40
199.9999949999999
  0
TEXT
  5
13126
  8
0-5
  6
CONTINUOUS
 62
     7
 10
14235.99847570314
 20
6529.0346249999966
 30
0.0
 40
160.0
  1
布基礎天端
 72
     4
 11
14694.665142369809
 21
6609.0346249999984
 31
0.0
  0
TEXT
  5
13127
  8
0-5
  6
CONTINUOUS
 62
     7
 10
12888.04925670316
 20
4017.9774460000021
 30
0.0
 40
160.0
  1
A
 72
     4
 11
12941.38259003649
 21
4097.9774460000026
 31
0.0
  0
TEXT
  5
13128
  8
0-5
  6
CONTINUOUS
 62
     7
 10
9970.049256703147
 20
4017.9774460000021
 30
0.0
 40
160.0
  1
B
 72
     4
 11
10023.382590036481
 21
4097.9774460000026
 31
0.0
  0
TEXT
  5
13129
  8
0-5
  6
CONTINUOUS
 62
     7
 10
7402.549256703157
 20
4017.9774460000021
 30
0.0
 40
160.0
  1
C
 72
     4
 11
7455.8825900364909
 21
4097.9774460000026
 31
0.0
  0
LINE
  5
1312A
  8
SUNPOU
  6
CONTINUOUS
 10
7227.0054167031494
 20
9389.1900500000029
 30
0.0
 11
6722.2175468097421
 21
9389.1900500000029
 31
0.0
  0
LINE
  5
1312B
  8
0-1
  6
CONTINUOUS
 62
     3
 10
12729.00624770315
 20
6291.1885389999989
 30
0.0
 11
12729.00624770315
 21
8152.2344180000036
 31
0.0
  0
LINE
  5
1312C
  8
0-1
  6
CONTINUOUS
 62
     3
 10
12714.004466703151
 20
6291.1885389999989
 30
0.0
 11
12714.004466703151
 21
8152.2344180000036
 31
0.0
  0
LINE
  5
1312D
  8
0-1
  6
CONTINUOUS
 62
     3
 10
7881.5027507031482
 20
8152.2344180000036
 30
0.0
 11
7881.5027507031482
 21
6291.1885389999989
 31
0.0
  0
LINE
  5
1312E
  8
0-1
  6
CONTINUOUS
 62
     3
 10
7844.5045587031491
 20
8152.2344180000036
 30
0.0
 11
7844.5045587031491
 21
6291.1885389999989
 31
0.0
  0
LINE
  5
1312F
  8
0-1
  6
CONTINUOUS
 62
     3
 10
7706.0035817031458
 20
6291.1885389999989
 30
0.0
 11
7706.0035817031458
 21
8152.2344180000036
 31
0.0
  0
LINE
  5
13130
  8
0-1
  6
CONTINUOUS
 62
     3
 10
7721.0033837031569
 20
6291.1885389999989
 30
0.0
 11
7721.0033837031569
 21
8152.2344180000036
 31
0.0
  0
LINE
  5
13131
  8
0-1
  6
CONTINUOUS
 62
     3
 10
8005.0029357031508
 20
6291.1885389999989
 30
0.0
 11
8005.0029357031508
 21
8152.2344180000036
 31
0.0
  0
LINE
  5
13132
  8
0-1
  6
CONTINUOUS
 62
     3
 10
8020.0037267031566
 20
6291.1885389999989
 30
0.0
 11
8020.0037267031566
 21
8152.2344180000036
 31
0.0
  0
LINE
  5
13133
  8
0-1
  6
CONTINUOUS
 62
     3
 10
7522.0042957031546
 20
8152.2344180000064
 30
0.0
 11
7522.0042957031546
 21
6241.1883740000021
 31
0.0
  0
LINE
  5
1328A
  8
2-0
  6
CENTER2
 62
     6
 10
23613.283799817342
 20
20960.489221
 30
0.0
 11
23613.283799817342
 21
18750.987531999981
 31
0.0
  0
LINE
  5
1328C
  8
2-0
  6
CENTER2
 62
     6
 10
20695.283799817349
 20
20960.489221
 30
0.0
 11
20695.283799817349
 21
18750.987531999981
 31
0.0
  0
LINE
  5
1328E
  8
2-0
  6
CENTER2
 62
     6
 10
18652.782876817349
 20
19317.986978000001
 30
0.0
 11
18972.782216817359
 21
19317.986978000001
 31
0.0
  0
LINE
  5
1328F
  8
2-0
  6
CENTER2
 62
     6
 10
19132.78221681737
 20
19317.986978000001
 30
0.0
 11
28917.888635769279
 21
19317.986978000001
 31
0.0
  0
LINE
  5
13290
  8
2-0
  6
CENTER2
 62
     6
 10
18652.782876817349
 20
16750.486978000001
 30
0.0
 11
18890.027984479639
 21
16750.486978000001
 31
0.0
  0
LINE
  5
13291
  8
2-0
  6
CENTER2
 62
     6
 10
19513.003109478799
 20
16750.486978000001
 30
0.0
 11
28917.888635769279
 21
16750.486978000001
 31
0.0
  0
LINE
  5
13292
  8
2-0
  6
CENTER2
 62
     6
 10
18652.782876817349
 20
13832.486978000001
 30
0.0
 11
18972.782216817359
 21
13832.486978000001
 31
0.0
  0
LINE
  5
13293
  8
2-0
  6
CENTER2
 62
     6
 10
19132.78221681737
 20
13832.486978000001
 30
0.0
 11
28917.888635769279
 21
13832.48697800001
 31
0.0
  0
CIRCLE
  5
13294
  8
0-5
  6
CONTINUOUS
 62
     4
 10
23613.283799817342
 20
21160.487902000001
 30
0.0
 40
199.9999949999999
  0
CIRCLE
  5
13295
  8
0-5
  6
CONTINUOUS
 62
     4
 10
18452.78221681737
 20
19317.986978000001
 30
0.0
 40
199.9999949999999
  0
CIRCLE
  5
13296
  8
0-5
  6
CONTINUOUS
 62
     4
 10
18452.782216817359
 20
16750.486978000001
 30
0.0
 40
199.9999949999999
  0
CIRCLE
  5
13297
  8
0-5
  6
CONTINUOUS
 62
     4
 10
18452.78221681737
 20
13832.486978000001
 30
0.0
 40
199.9999949999999
  0
CIRCLE
  5
13298
  8
0-5
  6
CONTINUOUS
 62
     4
 10
20695.283799817349
 20
21160.487902000001
 30
0.0
 40
199.9999949999999
  0
TEXT
  5
13299
  8
0-5
  6
CONTINUOUS
 62
     7
 10
23558.61345581734
 20
21074.262051999998
 30
0.0
 40
160.0
  1
2
 72
     4
 11
23611.946789150668
 21
21154.262051999998
 31
0.0
  0
TEXT
  5
1329A
  8
0-5
  6
CONTINUOUS
 62
     7
 10
20640.61345581734
 20
21074.262051999998
 30
0.0
 40
160.0
  1
1
 72
     4
 11
20667.280122484011
 21
21154.262051999998
 31
0.0
  0
TEXT
  5
1329B
  8
0-5
  6
CONTINUOUS
 62
     7
 10
18404.105854817371
 20
19226.368919
 30
0.0
 40
160.0
  1
C
 72
     4
 11
18457.4391881507
 21
19306.368919
 31
0.0
  0
TEXT
  5
1329C
  8
0-5
  6
CONTINUOUS
 62
     7
 10
18404.105854817371
 20
16658.868920000012
 30
0.0
 40
160.0
  1
B
 72
     4
 11
18457.4391881507
 21
16738.868920000012
 31
0.0
  0
TEXT
  5
1329D
  8
0-5
  6
CONTINUOUS
 62
     7
 10
18404.105854817371
 20
13740.868919
 30
0.0
 40
160.0
  1
A
 72
     4
 11
18457.4391881507
 21
13820.868919
 31
0.0
  0
LINE
  5
1329E
  8
2-0
  6
CENTER2
 62
     6
 10
28613.283799817342
 20
20960.489221
 30
0.0
 11
28613.283799817342
 21
13474.73309953157
 31
0.0
  0
CIRCLE
  5
1329F
  8
0-5
  6
CONTINUOUS
 62
     4
 10
28613.283799817342
 20
21160.487902000001
 30
0.0
 40
199.9999949999999
  0
TEXT
  5
132A0
  8
0-5
  6
CONTINUOUS
 62
     7
 10
28558.61345581734
 20
21074.262051999998
 30
0.0
 40
160.0
  1
3
 72
     4
 11
28611.946789150668
 21
21154.262051999998
 31
0.0
  0
ARC
  5
132A1
  8
1-後柱P
  6
HIDE-M
 62
     6
 10
28616.883799817351
 20
19249.936978000002
 30
0.0
 40
2.6000000000000001
 50
180.0
 51
270.0
  0
LINE
  5
132A2
  8
1-後柱P
  6
HIDE-M
 62
     6
 10
28605.283799817349
 20
19247.887587846799
 30
0.0
 11
28605.283799817349
 21
19251.536978
 31
0.0
  0
LINE
  5
132A3
  8
1-後柱P
  6
HIDE-M
 62
     6
 10
28615.283799817349
 20
19247.887587846799
 30
0.0
 11
28615.283799817349
 21
19251.536978
 31
0.0
  0
LINE
  5
132A4
  8
1-後柱P
  6
1PL-M
 62
     6
 10
28610.283799817349
 20
19242.33697800001
 30
0.0
 11
28610.283799817349
 21
19256.536978
 31
0.0
  0
ARC
  5
132A5
  8
1-後柱P
  6
HIDE-M
 62
     6
 10
28603.683799817361
 20
19249.936978000002
 30
0.0
 40
2.6000000000000001
 50
270.0
 51
0.0
  0
LINE
  5
132A6
  8
1-後柱P
  6
HIDE-M
 62
     6
 10
28614.283799817349
 20
19249.936978000002
 30
0.0
 11
28614.283799817349
 21
19251.536978
 31
0.0
  0
LINE
  5
132A7
  8
1-後柱P
  6
HIDE-M
 62
     6
 10
28606.283799817349
 20
19249.936978000002
 30
0.0
 11
28606.283799817349
 21
19251.536978
 31
0.0
  0
LINE
  5
132A8
  8
1-後柱P
 10
28624.183799817351
 20
19362.236978000001
 30
0.0
 11
28602.383799817359
 21
19362.236978000001
 31
0.0
  0
LINE
  5
132A9
  8
1-後柱P
 10
28572.383799817351
 20
19324.936978000002
 30
0.0
 11
28572.383799817351
 21
19332.236978000001
 31
0.0
  0
ARC
  5
132AA
  8
1-後柱P
 10
28602.383799817359
 20
19332.236978000001
 30
0.0
 40
30.0
 50
90.0
 51
180.0
  0
ARC
  5
132AB
  8
1-後柱P
 10
28602.383799817359
 20
19332.236978000001
 30
0.0
 40
31.600000000000001
 50
90.0
 51
180.0
  0
LINE
  5
132AC
  8
1-後柱P
 10
28624.183799817351
 20
19363.83697800001
 30
0.0
 11
28602.383799817359
 21
19363.83697800001
 31
0.0
  0
LINE
  5
132AD
  8
1-後柱P
 10
28570.783799817342
 20
19324.936978000002
 30
0.0
 11
28570.783799817342
 21
19332.236978000001
 31
0.0
  0
LINE
  5
132AE
  8
1-後柱P
 10
28593.783799817342
 20
19303.33697800001
 30
0.0
 11
28593.783799817342
 21
19313.33697800001
 31
0.0
  0
LINE
  5
132AF
  8
1-後柱P
 10
28595.383799817351
 20
19313.33697800001
 30
0.0
 11
28595.383799817351
 21
19303.33697800001
 31
0.0
  0
LINE
  5
132B0
  8
1-後柱P
 10
28654.183799817351
 20
19324.936978000002
 30
0.0
 11
28654.183799817351
 21
19332.236978000001
 31
0.0
  0
ARC
  5
132B1
  8
1-後柱P
 10
28624.183799817351
 20
19332.236978000001
 30
0.0
 40
30.0
 50
0.0
 51
90.0
  0
ARC
  5
132B2
  8
1-後柱P
 10
28624.183799817351
 20
19332.236978000001
 30
0.0
 40
31.600000000000001
 50
0.0
 51
90.0
  0
LINE
  5
132B3
  8
1-後柱P
 10
28655.783799817349
 20
19324.936978000002
 30
0.0
 11
28655.783799817349
 21
19332.236978000001
 31
0.0
  0
LINE
  5
132B4
  8
1-後柱P
 10
28649.183799817351
 20
19318.33697800001
 30
0.0
 11
28637.783799817342
 21
19318.33697800001
 31
0.0
  0
ARC
  5
132B5
  8
1-後柱P
 10
28649.183799817351
 20
19324.936978000002
 30
0.0
 40
6.599999999999997
 50
270.0
 51
0.0
  0
ARC
  5
132B6
  8
1-後柱P
 10
28637.783799817342
 20
19313.33697800001
 30
0.0
 40
5.0
 50
90.0
 51
180.0
  0
LINE
  5
132B7
  8
1-後柱P
 10
28649.183799817351
 20
19319.936978000002
 30
0.0
 11
28637.783799817342
 21
19319.936978000002
 31
0.0
  0
ARC
  5
132B8
  8
1-後柱P
 10
28649.183799817351
 20
19324.936978000002
 30
0.0
 40
5.0
 50
270.0
 51
0.0
  0
LINE
  5
132B9
  8
1-後柱P
 10
28632.783799817349
 20
19313.33697800001
 30
0.0
 11
28632.783799817349
 21
19253.936978000002
 31
0.0
  0
LINE
  5
132BA
  8
1-後柱P
 10
28631.183799817351
 20
19313.33697800001
 30
0.0
 11
28631.183799817351
 21
19253.936978000002
 31
0.0
  0
ARC
  5
132BB
  8
1-後柱P
 10
28637.783799817342
 20
19313.33697800001
 30
0.0
 40
6.599999999999997
 50
90.0
 51
180.0
  0
LINE
  5
132BC
  8
1-後柱P
 10
28626.183799817351
 20
19247.33697800001
 30
0.0
 11
28592.783799817349
 21
19247.33697800001
 31
0.0
  0
ARC
  5
132BD
  8
1-後柱P
 10
28626.183799817351
 20
19253.936978000002
 30
0.0
 40
6.599999999999997
 50
270.0
 51
0.0
  0
LINE
  5
132BE
  8
1-後柱P
 10
28626.183799817351
 20
19248.936978000002
 30
0.0
 11
28592.783799817349
 21
19248.936978000002
 31
0.0
  0
ARC
  5
132BF
  8
1-後柱P
 10
28626.183799817351
 20
19253.936978000002
 30
0.0
 40
5.0
 50
270.0
 51
0.0
  0
LINE
  5
132C0
  8
1-後柱P
 10
28592.783799817349
 20
19248.936978000002
 30
0.0
 11
28592.783799817349
 21
19247.33697800001
 31
0.0
  0
LINE
  5
132C1
  8
1-後柱P
 10
28577.383799817359
 20
19318.33697800001
 30
0.0
 11
28588.783799817349
 21
19318.33697800001
 31
0.0
  0
ARC
  5
132C2
  8
1-後柱P
 10
28577.383799817359
 20
19324.936978000002
 30
0.0
 40
6.599999999999997
 50
180.0
 51
270.0
  0
ARC
  5
132C3
  8
1-後柱P
 10
28588.783799817349
 20
19313.33697800001
 30
0.0
 40
5.0
 50
0.0
 51
90.0
  0
LINE
  5
132C4
  8
1-後柱P
 10
28588.783799817349
 20
19319.936978000002
 30
0.0
 11
28577.383799817359
 21
19319.936978000002
 31
0.0
  0
ARC
  5
132C5
  8
1-後柱P
 10
28588.783799817349
 20
19313.33697800001
 30
0.0
 40
6.599999999999997
 50
0.0
 51
90.0
  0
ARC
  5
132C6
  8
1-後柱P
 10
28577.383799817359
 20
19324.936978000002
 30
0.0
 40
5.0
 50
180.0
 51
270.0
  0
LINE
  5
132C7
  8
1-後柱P
 10
28593.783799817342
 20
19303.33697800001
 30
0.0
 11
28595.383799817351
 21
19303.33697800001
 31
0.0
  0
LINE
  5
132C8
  8
1-後柱カバ-P
 10
28570.783799817342
 20
19311.636977999999
 30
0.0
 11
28570.783799817342
 21
19252.33697800001
 31
0.0
  0
ARC
  5
132C9
  8
1-後柱カバ-P
 10
28577.383799817359
 20
19252.33697800001
 30
0.0
 40
6.599999999999997
 50
180.0
 51
270.0
  0
LINE
  5
132CA
  8
1-後柱カバ-P
 10
28572.383799817351
 20
19311.636977999999
 30
0.0
 11
28572.383799817351
 21
19252.33697800001
 31
0.0
  0
ARC
  5
132CB
  8
1-後柱カバ-P
 10
28577.383799817359
 20
19311.636977999999
 30
0.0
 40
5.0
 50
90.0
 51
180.0
  0
LINE
  5
132CC
  8
1-後柱カバ-P
 10
28577.383799817359
 20
19245.736978000001
 30
0.0
 11
28649.183799817351
 21
19245.736978000001
 31
0.0
  0
ARC
  5
132CD
  8
1-後柱カバ-P
 10
28649.183799817351
 20
19252.33697800001
 30
0.0
 40
6.599999999999997
 50
270.0
 51
0.0
  0
LINE
  5
132CE
  8
1-後柱カバ-P
 10
28577.383799817359
 20
19247.33697800001
 30
0.0
 11
28649.183799817351
 21
19247.33697800001
 31
0.0
  0
ARC
  5
132CF
  8
1-後柱カバ-P
 10
28649.183799817351
 20
19252.33697800001
 30
0.0
 40
5.0
 50
270.0
 51
0.0
  0
ARC
  5
132D0
  8
1-後柱カバ-P
 10
28577.383799817359
 20
19252.33697800001
 30
0.0
 40
5.0
 50
180.0
 51
270.0
  0
LINE
  5
132D1
  8
1-後柱カバ-P
 10
28655.783799817349
 20
19252.33697800001
 30
0.0
 11
28655.783799817349
 21
19311.636977999999
 31
0.0
  0
LINE
  5
132D2
  8
1-後柱カバ-P
 10
28654.183799817351
 20
19252.33697800001
 30
0.0
 11
28654.183799817351
 21
19311.636977999999
 31
0.0
  0
ARC
  5
132D3
  8
1-後柱カバ-P
 10
28649.183799817351
 20
19311.636977999999
 30
0.0
 40
5.0
 50
0.0
 51
90.0
  0
LINE
  5
132D4
  8
1-後柱カバ-P
  6
1PL-M
 62
     6
 10
28613.283799817342
 20
19253.236978000001
 30
0.0
 11
28613.283799817342
 21
19240.236978000001
 31
0.0
  0
LINE
  5
132D5
  8
1-後柱カバ-P
  6
HIDE-M
 62
     6
 10
28606.283799817349
 20
19245.736978000001
 30
0.0
 11
28606.283799817349
 21
19247.33697800001
 31
0.0
  0
LINE
  5
132D6
  8
1-後柱カバ-P
  6
HIDE-M
 62
     6
 10
28620.283799817349
 20
19245.736978000001
 30
0.0
 11
28620.283799817349
 21
19247.33697800001
 31
0.0
  0
ARC
  5
132D7
  8
1-後柱カバ-P
 10
28577.383799817359
 20
19311.636977999999
 30
0.0
 40
6.599999999999997
 50
90.0
 51
180.0
  0
ARC
  5
132D8
  8
1-後柱カバ-P
 10
28649.183799817351
 20
19311.636977999999
 30
0.0
 40
6.599999999999997
 50
0.0
 51
90.0
  0
LINE
  5
132D9
  8
1-後柱カバ-P
 10
28640.783799817349
 20
19318.236978000001
 30
0.0
 11
28649.183799817351
 21
19318.236978000001
 31
0.0
  0
LINE
  5
132DA
  8
1-後柱カバ-P
 10
28585.783799817342
 20
19318.236978000001
 30
0.0
 11
28577.383799817359
 21
19318.236978000001
 31
0.0
  0
LINE
  5
132DB
  8
1-後柱カバ-P
 10
28640.783799817349
 20
19316.63697800001
 30
0.0
 11
28649.183799817351
 21
19316.63697800001
 31
0.0
  0
LINE
  5
132DC
  8
1-後柱カバ-P
 10
28585.783799817342
 20
19316.63697800001
 30
0.0
 11
28577.383799817359
 21
19316.63697800001
 31
0.0
  0
LINE
  5
132DD
  8
1-後柱カバ-P
 10
28585.783799817342
 20
19316.63697800001
 30
0.0
 11
28585.783799817342
 21
19318.236978000001
 31
0.0
  0
LINE
  5
132DE
  8
1-後柱カバ-P
 10
28640.783799817349
 20
19318.236978000001
 30
0.0
 11
28640.783799817349
 21
19316.63697800001
 31
0.0
  0
LINE
  5
132DF
  8
1-後柱カバ-P
  6
HIDE-M
 62
     6
 10
28644.683799817351
 20
19297.236978000001
 30
0.0
 11
28656.283799817349
 21
19297.236978000001
 31
0.0
  0
LINE
  5
132E0
  8
1-後柱カバ-P
  6
HIDE-M
 62
     6
 10
28644.683799817351
 20
19289.236978000001
 30
0.0
 11
28656.283799817349
 21
19289.236978000001
 31
0.0
  0
LINE
  5
132E1
  8
1-後柱カバ-P
  6
HIDE-M
 62
     6
 10
28644.683799817351
 20
19296.236978000001
 30
0.0
 11
28656.283799817349
 21
19296.236978000001
 31
0.0
  0
LINE
  5
132E2
  8
1-後柱カバ-P
  6
HIDE-M
 62
     6
 10
28644.683799817351
 20
19290.236978000001
 30
0.0
 11
28656.283799817349
 21
19290.236978000001
 31
0.0
  0
LINE
  5
132E3
  8
1-後柱カバ-P
 10
28645.683799817361
 20
19287.736978000001
 30
0.0
 11
28652.683799817351
 21
19287.736978000001
 31
0.0
  0
LINE
  5
132E4
  8
1-後柱カバ-P
 10
28652.683799817351
 20
19298.736978000001
 30
0.0
 11
28645.683799817361
 21
19298.736978000001
 31
0.0
  0
LINE
  5
132E5
  8
1-後柱カバ-P
 10
28652.683799817351
 20
19299.486978000001
 30
0.0
 11
28652.683799817351
 21
19286.986978000001
 31
0.0
  0
LINE
  5
132E6
  8
1-後柱カバ-P
 10
28656.283799817349
 20
19299.236978000001
 30
0.0
 11
28656.283799817349
 21
19287.236978000001
 31
0.0
  0
LINE
  5
132E7
  8
1-後柱カバ-P
  6
HIDE-M
 62
     6
 10
28654.183799817351
 20
19287.736978000001
 30
0.0
 11
28655.783799817349
 21
19287.736978000001
 31
0.0
  0
LINE
  5
132E8
  8
1-後柱カバ-P
 10
28656.283799817349
 20
19287.236978000001
 30
0.0
 11
28655.783799817349
 21
19287.736978000001
 31
0.0
  0
ARC
  5
132E9
  8
1-後柱カバ-P
 10
28653.433799817361
 20
19286.986978000001
 30
0.0
 40
0.75
 50
180.0
 51
0.0
  0
LINE
  5
132EA
  8
1-後柱カバ-P
  6
HIDE-M
 62
     6
 10
28655.783799817349
 20
19298.736978000001
 30
0.0
 11
28654.183799817351
 21
19298.736978000001
 31
0.0
  0
LINE
  5
132EB
  8
1-後柱カバ-P
 10
28656.283799817349
 20
19299.236978000001
 30
0.0
 11
28655.783799817349
 21
19298.736978000001
 31
0.0
  0
ARC
  5
132EC
  8
1-後柱カバ-P
 10
28653.433799817361
 20
19299.486978000001
 30
0.0
 40
0.75
 50
0.0
 51
180.0
  0
LINE
  5
132ED
  8
1-後柱カバ-P
 10
28644.683799817351
 20
19297.736978000001
 30
0.0
 11
28644.683799817351
 21
19288.736978000001
 31
0.0
  0
ARC
  5
132EE
  8
1-後柱カバ-P
 10
28645.683799817361
 20
19288.736978000001
 30
0.0
 40
1.0
 50
180.0
 51
270.0
  0
ARC
  5
132EF
  8
1-後柱カバ-P
 10
28645.683799817361
 20
19297.736978000001
 30
0.0
 40
1.0
 50
90.0
 51
180.0
  0
LINE
  5
132F0
  8
1-後柱カバ-P
  6
1PL-M
 62
     6
 10
28639.683799817351
 20
19293.236978000001
 30
0.0
 11
28661.283799817349
 21
19293.236978000001
 31
0.0
  0
LINE
  5
132F1
  8
1-後柱カバ-P
 10
28645.683799817361
 20
19277.736978000001
 30
0.0
 11
28652.683799817351
 21
19277.736978000001
 31
0.0
  0
LINE
  5
132F2
  8
1-後柱カバ-P
 10
28656.283799817349
 20
19285.236978000001
 30
0.0
 11
28656.283799817349
 21
19277.236978000001
 31
0.0
  0
LINE
  5
132F3
  8
1-後柱カバ-P
  6
HIDE-M
 62
     6
 10
28654.183799817351
 20
19277.736978000001
 30
0.0
 11
28655.783799817349
 21
19277.736978000001
 31
0.0
  0
LINE
  5
132F4
  8
1-後柱カバ-P
 10
28656.283799817349
 20
19277.236978000001
 30
0.0
 11
28655.783799817349
 21
19277.736978000001
 31
0.0
  0
ARC
  5
132F5
  8
1-後柱カバ-P
 10
28653.433799817361
 20
19276.986978000001
 30
0.0
 40
0.75
 50
180.0
 51
0.0
  0
LINE
  5
132F6
  8
1-後柱カバ-P
 10
28644.683799817351
 20
19286.736978000001
 30
0.0
 11
28644.683799817351
 21
19278.736978000001
 31
0.0
  0
ARC
  5
132F7
  8
1-後柱カバ-P
 10
28645.683799817361
 20
19278.736978000001
 30
0.0
 40
1.0
 50
180.0
 51
270.0
  0
LINE
  5
132F8
  8
1-後柱カバ-P
  6
1PL-M
 62
     6
 10
28639.683799817351
 20
19283.236978000001
 30
0.0
 11
28661.283799817349
 21
19283.236978000001
 31
0.0
  0
LINE
  5
132F9
  8
1-後柱カバ-P
 10
28652.683799817351
 20
19284.986978000001
 30
0.0
 11
28652.683799817351
 21
19276.986978000001
 31
0.0
  0
LINE
  5
132FA
  8
1-後柱カバ-P
  6
HIDE-M
 62
     6
 10
28581.883799817359
 20
19297.236978000001
 30
0.0
 11
28570.283799817349
 21
19297.236978000001
 31
0.0
  0
LINE
  5
132FB
  8
1-後柱カバ-P
  6
HIDE-M
 62
     6
 10
28581.883799817359
 20
19289.236978000001
 30
0.0
 11
28570.283799817349
 21
19289.236978000001
 31
0.0
  0
LINE
  5
132FC
  8
1-後柱カバ-P
  6
HIDE-M
 62
     6
 10
28581.883799817359
 20
19296.236978000001
 30
0.0
 11
28570.283799817349
 21
19296.236978000001
 31
0.0
  0
LINE
  5
132FD
  8
1-後柱カバ-P
  6
HIDE-M
 62
     6
 10
28581.883799817359
 20
19290.236978000001
 30
0.0
 11
28570.283799817349
 21
19290.236978000001
 31
0.0
  0
LINE
  5
132FE
  8
1-後柱カバ-P
 10
28580.883799817351
 20
19287.736978000001
 30
0.0
 11
28573.883799817369
 21
19287.736978000001
 31
0.0
  0
LINE
  5
132FF
  8
1-後柱カバ-P
 10
28573.883799817369
 20
19298.736978000001
 30
0.0
 11
28580.883799817351
 21
19298.736978000001
 31
0.0
  0
LINE
  5
13300
  8
1-後柱カバ-P
 10
28573.883799817369
 20
19299.486978000001
 30
0.0
 11
28573.883799817369
 21
19286.986978000001
 31
0.0
  0
LINE
  5
13301
  8
1-後柱カバ-P
 10
28570.283799817349
 20
19299.236978000001
 30
0.0
 11
28570.283799817349
 21
19287.236978000001
 31
0.0
  0
LINE
  5
13302
  8
1-後柱カバ-P
  6
HIDE-M
 62
     6
 10
28572.383799817351
 20
19287.736978000001
 30
0.0
 11
28570.783799817342
 21
19287.736978000001
 31
0.0
  0
LINE
  5
13303
  8
1-後柱カバ-P
 10
28570.283799817349
 20
19287.236978000001
 30
0.0
 11
28570.783799817342
 21
19287.736978000001
 31
0.0
  0
ARC
  5
13304
  8
1-後柱カバ-P
 10
28573.133799817351
 20
19286.986978000001
 30
0.0
 40
0.75
 50
180.0
 51
0.0
  0
LINE
  5
13305
  8
1-後柱カバ-P
  6
HIDE-M
 62
     6
 10
28570.783799817342
 20
19298.736978000001
 30
0.0
 11
28572.383799817351
 21
19298.736978000001
 31
0.0
  0
LINE
  5
13306
  8
1-後柱カバ-P
 10
28570.283799817349
 20
19299.236978000001
 30
0.0
 11
28570.783799817342
 21
19298.736978000001
 31
0.0
  0
ARC
  5
13307
  8
1-後柱カバ-P
 10
28573.133799817351
 20
19299.486978000001
 30
0.0
 40
0.75
 50
0.0
 51
180.0
  0
LINE
  5
13308
  8
1-後柱カバ-P
 10
28581.883799817359
 20
19297.736978000001
 30
0.0
 11
28581.883799817359
 21
19288.736978000001
 31
0.0
  0
ARC
  5
13309
  8
1-後柱カバ-P
 10
28580.883799817351
 20
19288.736978000001
 30
0.0
 40
1.0
 50
270.0
 51
0.0
  0
ARC
  5
1330A
  8
1-後柱カバ-P
 10
28580.883799817351
 20
19297.736978000001
 30
0.0
 40
1.0
 50
0.0
 51
90.0
  0
LINE
  5
1330B
  8
1-後柱カバ-P
  6
1PL-M
 62
     6
 10
28586.883799817359
 20
19293.236978000001
 30
0.0
 11
28565.283799817342
 21
19293.236978000001
 31
0.0
  0
LINE
  5
1330C
  8
1-後柱カバ-P
 10
28580.883799817351
 20
19277.736978000001
 30
0.0
 11
28573.883799817369
 21
19277.736978000001
 31
0.0
  0
LINE
  5
1330D
  8
1-後柱カバ-P
 10
28570.283799817349
 20
19285.236978000001
 30
0.0
 11
28570.283799817349
 21
19277.236978000001
 31
0.0
  0
LINE
  5
1330E
  8
1-後柱カバ-P
  6
HIDE-M
 62
     6
 10
28572.383799817351
 20
19277.736978000001
 30
0.0
 11
28570.783799817342
 21
19277.736978000001
 31
0.0
  0
LINE
  5
1330F
  8
1-後柱カバ-P
 10
28570.283799817349
 20
19277.236978000001
 30
0.0
 11
28570.783799817342
 21
19277.736978000001
 31
0.0
  0
ARC
  5
13310
  8
1-後柱カバ-P
 10
28573.133799817351
 20
19276.986978000001
 30
0.0
 40
0.75
 50
180.0
 51
0.0
  0
LINE
  5
13311
  8
1-後柱カバ-P
 10
28581.883799817359
 20
19286.736978000001
 30
0.0
 11
28581.883799817359
 21
19278.736978000001
 31
0.0
  0
ARC
  5
13312
  8
1-後柱カバ-P
 10
28580.883799817351
 20
19278.736978000001
 30
0.0
 40
1.0
 50
270.0
 51
0.0
  0
LINE
  5
13313
  8
1-後柱カバ-P
  6
1PL-M
 62
     6
 10
28586.883799817359
 20
19283.236978000001
 30
0.0
 11
28565.283799817342
 21
19283.236978000001
 31
0.0
  0
LINE
  5
13314
  8
1-後柱カバ-P
 10
28573.883799817369
 20
19284.986978000001
 30
0.0
 11
28573.883799817369
 21
19276.986978000001
 31
0.0
  0
LINE
  5
13315
  8
1-後柱カバ-P
  6
HIDE-M
 62
     6
 10
28644.683799817351
 20
19279.236978000001
 30
0.0
 11
28656.283799817349
 21
19279.236978000001
 31
0.0
  0
LINE
  5
13316
  8
1-後柱カバ-P
  6
HIDE-M
 62
     6
 10
28644.683799817351
 20
19280.236978000001
 30
0.0
 11
28656.283799817349
 21
19280.236978000001
 31
0.0
  0
LINE
  5
13317
  8
1-後柱カバ-P
  6
HIDE-M
 62
     6
 10
28581.883799817359
 20
19279.236978000001
 30
0.0
 11
28570.283799817349
 21
19279.236978000001
 31
0.0
  0
LINE
  5
13318
  8
1-後柱カバ-P
  6
HIDE-M
 62
     6
 10
28581.883799817359
 20
19280.236978000001
 30
0.0
 11
28570.283799817349
 21
19280.236978000001
 31
0.0
  0
LINE
  5
13319
  8
1-中柱P
 10
28649.18379981734
 20
16679.486978000001
 30
0.0
 11
28577.38379981734
 21
16679.486978000001
 31
0.0
  0
ARC
  5
1331A
  8
1-中柱P
 10
28649.18379981734
 20
16684.486978000001
 30
0.0
 40
5.0
 50
270.0
 51
0.0
  0
ARC
  5
1331B
  8
1-中柱P
 10
28577.38379981734
 20
16684.486978000001
 30
0.0
 40
5.0
 50
180.0
 51
270.0
  0
LINE
  5
1331C
  8
1-中柱P
 10
28649.18379981734
 20
16677.886977999999
 30
0.0
 11
28577.38379981734
 21
16677.886977999999
 31
0.0
  0
ARC
  5
1331D
  8
1-中柱P
 10
28649.18379981734
 20
16684.486978000001
 30
0.0
 40
6.599999999999997
 50
270.0
 51
0.0
  0
LINE
  5
1331E
  8
1-中柱P
 10
28570.783799817342
 20
16743.786978
 30
0.0
 11
28570.783799817342
 21
16684.486978000001
 31
0.0
  0
ARC
  5
1331F
  8
1-中柱P
 10
28577.38379981734
 20
16684.486978000001
 30
0.0
 40
6.599999999999997
 50
180.0
 51
270.0
  0
LINE
  5
13320
  8
1-中柱P
 10
28572.38379981734
 20
16684.486978000001
 30
0.0
 11
28572.38379981734
 21
16743.786978
 31
0.0
  0
ARC
  5
13321
  8
1-中柱P
 10
28577.38379981734
 20
16743.786978
 30
0.0
 40
5.0
 50
90.0
 51
180.0
  0
LINE
  5
13322
  8
1-中柱P
 10
28655.783799817349
 20
16743.786978
 30
0.0
 11
28655.783799817349
 21
16684.486978000001
 31
0.0
  0
LINE
  5
13323
  8
1-中柱P
 10
28654.18379981734
 20
16684.486978000001
 30
0.0
 11
28654.18379981734
 21
16743.786978
 31
0.0
  0
LINE
  5
13324
  8
1-中柱P
 10
28649.18379981734
 20
16750.38697800001
 30
0.0
 11
28640.783799817349
 21
16750.38697800001
 31
0.0
  0
ARC
  5
13325
  8
1-中柱P
 10
28649.18379981734
 20
16743.786978
 30
0.0
 40
6.599999999999997
 50
0.0
 51
90.0
  0
LINE
  5
13326
  8
1-中柱P
 10
28649.18379981734
 20
16748.786978
 30
0.0
 11
28640.783799817349
 21
16748.786978
 31
0.0
  0
ARC
  5
13327
  8
1-中柱P
 10
28640.783799817349
 20
16755.38697800001
 30
0.0
 40
6.599999999999997
 50
180.0
 51
270.0
  0
ARC
  5
13328
  8
1-中柱P
 10
28649.18379981734
 20
16743.786978
 30
0.0
 40
5.0
 50
0.0
 51
90.0
  0
LINE
  5
13329
  8
1-中柱P
 10
28635.783799817349
 20
16755.38697800001
 30
0.0
 11
28635.783799817349
 21
16814.786978000011
 31
0.0
  0
ARC
  5
1332A
  8
1-中柱P
 10
28640.783799817349
 20
16755.38697800001
 30
0.0
 40
5.0
 50
180.0
 51
270.0
  0
LINE
  5
1332B
  8
1-中柱P
 10
28634.18379981734
 20
16755.38697800001
 30
0.0
 11
28634.18379981734
 21
16814.786978000011
 31
0.0
  0
LINE
  5
1332C
  8
1-中柱P
 10
28629.183799817351
 20
16821.38697800001
 30
0.0
 11
28595.783799817342
 21
16821.38697800001
 31
0.0
  0
ARC
  5
1332D
  8
1-中柱P
 10
28629.183799817351
 20
16814.786978000011
 30
0.0
 40
6.599999999999997
 50
0.0
 51
90.0
  0
LINE
  5
1332E
  8
1-中柱P
 10
28629.183799817351
 20
16819.786978000011
 30
0.0
 11
28595.783799817342
 21
16819.786978000011
 31
0.0
  0
ARC
  5
1332F
  8
1-中柱P
 10
28629.183799817351
 20
16814.786978000011
 30
0.0
 40
5.0
 50
0.0
 51
90.0
  0
LINE
  5
13330
  8
1-中柱P
 10
28595.783799817342
 20
16819.786978000011
 30
0.0
 11
28595.783799817342
 21
16821.38697800001
 31
0.0
  0
LINE
  5
13331
  8
1-中柱P
 10
28577.38379981734
 20
16750.38697800001
 30
0.0
 11
28585.783799817342
 21
16750.38697800001
 31
0.0
  0
ARC
  5
13332
  8
1-中柱P
 10
28577.38379981734
 20
16743.786978
 30
0.0
 40
6.599999999999997
 50
90.0
 51
180.0
  0
ARC
  5
13333
  8
1-中柱P
 10
28585.783799817342
 20
16755.38697800001
 30
0.0
 40
5.0
 50
270.0
 51
0.0
  0
LINE
  5
13334
  8
1-中柱P
 10
28585.783799817342
 20
16748.786978
 30
0.0
 11
28577.38379981734
 21
16748.786978
 31
0.0
  0
ARC
  5
13335
  8
1-中柱P
 10
28585.783799817342
 20
16755.38697800001
 30
0.0
 40
6.599999999999997
 50
270.0
 51
0.0
  0
ARC
  5
13336
  8
1-中柱P
  6
HIDE-M
 62
     6
 10
28619.88379981734
 20
16818.786978000011
 30
0.0
 40
2.6000000000000001
 50
90.0
 51
180.0
  0
LINE
  5
13337
  8
1-中柱P
  6
HIDE-M
 62
     6
 10
28608.283799817349
 20
16820.836368153181
 30
0.0
 11
28608.283799817349
 21
16817.186978000002
 31
0.0
  0
LINE
  5
13338
  8
1-中柱P
  6
HIDE-M
 62
     6
 10
28618.283799817349
 20
16820.836368153181
 30
0.0
 11
28618.283799817349
 21
16817.186978000002
 31
0.0
  0
LINE
  5
13339
  8
1-中柱P
  6
1PL-M
 62
     6
 10
28613.283799817342
 20
16826.386977999999
 30
0.0
 11
28613.283799817342
 21
16812.186978000009
 31
0.0
  0
ARC
  5
1333A
  8
1-中柱P
  6
HIDE-M
 62
     6
 10
28606.683799817351
 20
16818.786978000011
 30
0.0
 40
2.6000000000000001
 50
0.0
 51
90.0
  0
LINE
  5
1333B
  8
1-中柱P
  6
HIDE-M
 62
     6
 10
28617.283799817349
 20
16818.786978000011
 30
0.0
 11
28617.283799817349
 21
16817.186978000002
 31
0.0
  0
LINE
  5
1333C
  8
1-中柱P
  6
HIDE-M
 62
     6
 10
28609.283799817342
 20
16818.786978000011
 30
0.0
 11
28609.283799817342
 21
16817.186978000002
 31
0.0
  0
LINE
  5
1333D
  8
1-中柱P
 10
28592.38379981734
 20
16755.38697800001
 30
0.0
 11
28592.38379981734
 21
16765.386977999999
 31
0.0
  0
LINE
  5
1333E
  8
1-中柱P
 10
28590.783799817349
 20
16755.38697800001
 30
0.0
 11
28590.783799817349
 21
16765.386977999999
 31
0.0
  0
LINE
  5
1333F
  8
1-中柱P
 10
28592.38379981734
 20
16765.386977999999
 30
0.0
 11
28590.783799817349
 21
16765.386977999999
 31
0.0
  0
LINE
  5
13340
  8
1-中柱P
  6
1PL-M
 62
     6
 10
28640.783799817349
 20
16786.38697800001
 30
0.0
 11
28626.583799817348
 21
16786.38697800001
 31
0.0
  0
LINE
  5
13341
  8
1-中柱P
  6
HIDE-M
 62
     6
 10
28644.683799817351
 20
16729.386977999999
 30
0.0
 11
28656.283799817349
 21
16729.386977999999
 31
0.0
  0
LINE
  5
13342
  8
1-中柱P
  6
HIDE-M
 62
     6
 10
28644.683799817351
 20
16721.38697800001
 30
0.0
 11
28656.283799817349
 21
16721.38697800001
 31
0.0
  0
LINE
  5
13343
  8
1-中柱P
  6
HIDE-M
 62
     6
 10
28644.683799817351
 20
16728.386977999999
 30
0.0
 11
28656.283799817349
 21
16728.386977999999
 31
0.0
  0
LINE
  5
13344
  8
1-中柱P
  6
HIDE-M
 62
     6
 10
28644.683799817351
 20
16722.38697800001
 30
0.0
 11
28656.283799817349
 21
16722.38697800001
 31
0.0
  0
LINE
  5
13345
  8
1-中柱P
 10
28645.68379981734
 20
16719.88697800001
 30
0.0
 11
28652.683799817329
 21
16719.88697800001
 31
0.0
  0
LINE
  5
13346
  8
1-中柱P
 10
28652.683799817329
 20
16730.886977999999
 30
0.0
 11
28645.68379981734
 21
16730.886977999999
 31
0.0
  0
LINE
  5
13347
  8
1-中柱P
 10
28652.683799817329
 20
16731.63697800001
 30
0.0
 11
28652.683799817329
 21
16719.13697800001
 31
0.0
  0
LINE
  5
13348
  8
1-中柱P
 10
28656.283799817349
 20
16731.38697800001
 30
0.0
 11
28656.283799817349
 21
16719.386977999999
 31
0.0
  0
LINE
  5
13349
  8
1-中柱P
  6
HIDE-M
 62
     6
 10
28654.18379981734
 20
16719.88697800001
 30
0.0
 11
28655.783799817349
 21
16719.88697800001
 31
0.0
  0
LINE
  5
1334A
  8
1-中柱P
 10
28656.283799817349
 20
16719.386977999999
 30
0.0
 11
28655.783799817349
 21
16719.88697800001
 31
0.0
  0
ARC
  5
1334B
  8
1-中柱P
 10
28653.43379981734
 20
16719.13697800001
 30
0.0
 40
0.75
 50
180.0
 51
0.0
  0
LINE
  5
1334C
  8
1-中柱P
  6
HIDE-M
 62
     6
 10
28655.783799817349
 20
16730.886977999999
 30
0.0
 11
28654.18379981734
 21
16730.886977999999
 31
0.0
  0
LINE
  5
1334D
  8
1-中柱P
 10
28656.283799817349
 20
16731.38697800001
 30
0.0
 11
28655.783799817349
 21
16730.886977999999
 31
0.0
  0
ARC
  5
1334E
  8
1-中柱P
 10
28653.43379981734
 20
16731.63697800001
 30
0.0
 40
0.75
 50
0.0
 51
180.0
  0
LINE
  5
1334F
  8
1-中柱P
 10
28644.683799817351
 20
16729.88697800001
 30
0.0
 11
28644.683799817351
 21
16720.88697800001
 31
0.0
  0
ARC
  5
13350
  8
1-中柱P
 10
28645.68379981734
 20
16720.88697800001
 30
0.0
 40
1.0
 50
180.0
 51
270.0
  0
ARC
  5
13351
  8
1-中柱P
 10
28645.68379981734
 20
16729.88697800001
 30
0.0
 40
1.0
 50
90.0
 51
180.0
  0
LINE
  5
13352
  8
1-中柱P
  6
1PL-M
 62
     6
 10
28639.683799817329
 20
16725.38697800001
 30
0.0
 11
28661.283799817349
 21
16725.38697800001
 31
0.0
  0
LINE
  5
13353
  8
1-中柱P
 10
28645.68379981734
 20
16709.88697800001
 30
0.0
 11
28652.683799817329
 21
16709.88697800001
 31
0.0
  0
LINE
  5
13354
  8
1-中柱P
 10
28656.283799817349
 20
16717.38697800001
 30
0.0
 11
28656.283799817349
 21
16709.386977999999
 31
0.0
  0
LINE
  5
13355
  8
1-中柱P
  6
HIDE-M
 62
     6
 10
28654.18379981734
 20
16709.88697800001
 30
0.0
 11
28655.783799817349
 21
16709.88697800001
 31
0.0
  0
LINE
  5
13356
  8
1-中柱P
 10
28656.283799817349
 20
16709.386977999999
 30
0.0
 11
28655.783799817349
 21
16709.88697800001
 31
0.0
  0
ARC
  5
13357
  8
1-中柱P
 10
28653.43379981734
 20
16709.136977999999
 30
0.0
 40
0.75
 50
180.0
 51
0.0
  0
LINE
  5
13358
  8
1-中柱P
 10
28644.683799817351
 20
16718.886977999999
 30
0.0
 11
28644.683799817351
 21
16710.88697800001
 31
0.0
  0
ARC
  5
13359
  8
1-中柱P
 10
28645.68379981734
 20
16710.88697800001
 30
0.0
 40
1.0
 50
180.0
 51
270.0
  0
LINE
  5
1335A
  8
1-中柱P
  6
1PL-M
 62
     6
 10
28639.683799817329
 20
16715.38697800001
 30
0.0
 11
28661.283799817349
 21
16715.38697800001
 31
0.0
  0
LINE
  5
1335B
  8
1-中柱P
 10
28652.683799817329
 20
16717.13697800001
 30
0.0
 11
28652.683799817329
 21
16709.136977999999
 31
0.0
  0
LINE
  5
1335C
  8
1-中柱P
  6
HIDE-M
 62
     6
 10
28644.683799817351
 20
16711.38697800001
 30
0.0
 11
28656.283799817349
 21
16711.38697800001
 31
0.0
  0
LINE
  5
1335D
  8
1-中柱P
  6
HIDE-M
 62
     6
 10
28644.683799817351
 20
16712.38697800001
 30
0.0
 11
28656.283799817349
 21
16712.38697800001
 31
0.0
  0
LINE
  5
1335E
  8
1-中柱P
  6
HIDE-M
 62
     6
 10
28581.88379981734
 20
16729.386977999999
 30
0.0
 11
28570.283799817349
 21
16729.386977999999
 31
0.0
  0
LINE
  5
1335F
  8
1-中柱P
  6
HIDE-M
 62
     6
 10
28581.88379981734
 20
16721.38697800001
 30
0.0
 11
28570.283799817349
 21
16721.38697800001
 31
0.0
  0
LINE
  5
13360
  8
1-中柱P
  6
HIDE-M
 62
     6
 10
28581.88379981734
 20
16728.386977999999
 30
0.0
 11
28570.283799817349
 21
16728.386977999999
 31
0.0
  0
LINE
  5
13361
  8
1-中柱P
  6
HIDE-M
 62
     6
 10
28581.88379981734
 20
16722.38697800001
 30
0.0
 11
28570.283799817349
 21
16722.38697800001
 31
0.0
  0
LINE
  5
13362
  8
1-中柱P
 10
28580.883799817329
 20
16719.88697800001
 30
0.0
 11
28573.88379981734
 21
16719.88697800001
 31
0.0
  0
LINE
  5
13363
  8
1-中柱P
 10
28573.88379981734
 20
16730.886977999999
 30
0.0
 11
28580.883799817329
 21
16730.886977999999
 31
0.0
  0
LINE
  5
13364
  8
1-中柱P
 10
28573.88379981734
 20
16731.63697800001
 30
0.0
 11
28573.88379981734
 21
16719.13697800001
 31
0.0
  0
LINE
  5
13365
  8
1-中柱P
 10
28570.283799817349
 20
16731.38697800001
 30
0.0
 11
28570.283799817349
 21
16719.386977999999
 31
0.0
  0
LINE
  5
13366
  8
1-中柱P
  6
HIDE-M
 62
     6
 10
28572.38379981734
 20
16719.88697800001
 30
0.0
 11
28570.783799817342
 21
16719.88697800001
 31
0.0
  0
LINE
  5
13367
  8
1-中柱P
 10
28570.283799817349
 20
16719.386977999999
 30
0.0
 11
28570.783799817342
 21
16719.88697800001
 31
0.0
  0
ARC
  5
13368
  8
1-中柱P
 10
28573.13379981734
 20
16719.13697800001
 30
0.0
 40
0.75
 50
180.0
 51
0.0
  0
LINE
  5
13369
  8
1-中柱P
  6
HIDE-M
 62
     6
 10
28570.783799817342
 20
16730.886977999999
 30
0.0
 11
28572.38379981734
 21
16730.886977999999
 31
0.0
  0
LINE
  5
1336A
  8
1-中柱P
 10
28570.283799817349
 20
16731.38697800001
 30
0.0
 11
28570.783799817342
 21
16730.886977999999
 31
0.0
  0
ARC
  5
1336B
  8
1-中柱P
 10
28573.13379981734
 20
16731.63697800001
 30
0.0
 40
0.75
 50
0.0
 51
180.0
  0
LINE
  5
1336C
  8
1-中柱P
 10
28581.88379981734
 20
16729.88697800001
 30
0.0
 11
28581.88379981734
 21
16720.88697800001
 31
0.0
  0
ARC
  5
1336D
  8
1-中柱P
 10
28580.883799817329
 20
16720.88697800001
 30
0.0
 40
1.0
 50
270.0
 51
0.0
  0
ARC
  5
1336E
  8
1-中柱P
 10
28580.883799817329
 20
16729.88697800001
 30
0.0
 40
1.0
 50
0.0
 51
90.0
  0
LINE
  5
1336F
  8
1-中柱P
  6
1PL-M
 62
     6
 10
28586.883799817329
 20
16725.38697800001
 30
0.0
 11
28565.283799817342
 21
16725.38697800001
 31
0.0
  0
LINE
  5
13370
  8
1-中柱P
 10
28580.883799817329
 20
16709.88697800001
 30
0.0
 11
28573.88379981734
 21
16709.88697800001
 31
0.0
  0
LINE
  5
13371
  8
1-中柱P
 10
28570.283799817349
 20
16717.38697800001
 30
0.0
 11
28570.283799817349
 21
16709.386977999999
 31
0.0
  0
LINE
  5
13372
  8
1-中柱P
  6
HIDE-M
 62
     6
 10
28572.38379981734
 20
16709.88697800001
 30
0.0
 11
28570.783799817342
 21
16709.88697800001
 31
0.0
  0
LINE
  5
13373
  8
1-中柱P
 10
28570.283799817349
 20
16709.386977999999
 30
0.0
 11
28570.783799817342
 21
16709.88697800001
 31
0.0
  0
ARC
  5
13374
  8
1-中柱P
 10
28573.13379981734
 20
16709.136977999999
 30
0.0
 40
0.75
 50
180.0
 51
0.0
  0
LINE
  5
13375
  8
1-中柱P
 10
28581.88379981734
 20
16718.886977999999
 30
0.0
 11
28581.88379981734
 21
16710.88697800001
 31
0.0
  0
ARC
  5
13376
  8
1-中柱P
 10
28580.883799817329
 20
16710.88697800001
 30
0.0
 40
1.0
 50
270.0
 51
0.0
  0
LINE
  5
13377
  8
1-中柱P
  6
1PL-M
 62
     6
 10
28586.883799817329
 20
16715.38697800001
 30
0.0
 11
28565.283799817342
 21
16715.38697800001
 31
0.0
  0
LINE
  5
13378
  8
1-中柱P
 10
28573.88379981734
 20
16717.13697800001
 30
0.0
 11
28573.88379981734
 21
16709.136977999999
 31
0.0
  0
LINE
  5
13379
  8
1-中柱P
  6
HIDE-M
 62
     6
 10
28581.88379981734
 20
16711.38697800001
 30
0.0
 11
28570.283799817349
 21
16711.38697800001
 31
0.0
  0
LINE
  5
1337A
  8
1-中柱P
  6
HIDE-M
 62
     6
 10
28581.88379981734
 20
16712.38697800001
 30
0.0
 11
28570.283799817349
 21
16712.38697800001
 31
0.0
  0
LINE
  5
1337B
  8
1-中柱カバ-P
 10
28570.783799817342
 20
16757.08697800001
 30
0.0
 11
28570.783799817342
 21
16816.38697800001
 31
0.0
  0
ARC
  5
1337C
  8
1-中柱カバ-P
 10
28577.38379981734
 20
16816.38697800001
 30
0.0
 40
6.599999999999997
 50
90.0
 51
180.0
  0
LINE
  5
1337D
  8
1-中柱カバ-P
 10
28572.38379981734
 20
16757.08697800001
 30
0.0
 11
28572.38379981734
 21
16816.38697800001
 31
0.0
  0
ARC
  5
1337E
  8
1-中柱カバ-P
 10
28577.38379981734
 20
16757.08697800001
 30
0.0
 40
5.0
 50
180.0
 51
270.0
  0
LINE
  5
1337F
  8
1-中柱カバ-P
 10
28577.38379981734
 20
16822.986978000001
 30
0.0
 11
28649.18379981734
 21
16822.986978000001
 31
0.0
  0
ARC
  5
13380
  8
1-中柱カバ-P
 10
28649.18379981734
 20
16816.38697800001
 30
0.0
 40
6.599999999999997
 50
0.0
 51
90.0
  0
LINE
  5
13381
  8
1-中柱カバ-P
 10
28577.38379981734
 20
16821.38697800001
 30
0.0
 11
28649.18379981734
 21
16821.38697800001
 31
0.0
  0
ARC
  5
13382
  8
1-中柱カバ-P
 10
28649.18379981734
 20
16816.38697800001
 30
0.0
 40
5.0
 50
0.0
 51
90.0
  0
ARC
  5
13383
  8
1-中柱カバ-P
 10
28577.38379981734
 20
16816.38697800001
 30
0.0
 40
5.0
 50
90.0
 51
180.0
  0
LINE
  5
13384
  8
1-中柱カバ-P
 10
28655.783799817349
 20
16816.38697800001
 30
0.0
 11
28655.783799817349
 21
16757.08697800001
 31
0.0
  0
LINE
  5
13385
  8
1-中柱カバ-P
 10
28654.18379981734
 20
16816.38697800001
 30
0.0
 11
28654.18379981734
 21
16757.08697800001
 31
0.0
  0
ARC
  5
13386
  8
1-中柱カバ-P
 10
28649.18379981734
 20
16757.08697800001
 30
0.0
 40
5.0
 50
270.0
 51
0.0
  0
LINE
  5
13387
  8
1-中柱カバ-P
  6
1PL-M
 62
     6
 10
28613.283799817342
 20
16815.486978000001
 30
0.0
 11
28613.283799817342
 21
16828.486978000001
 31
0.0
  0
LINE
  5
13388
  8
1-中柱カバ-P
  6
HIDE-M
 62
     6
 10
28606.283799817349
 20
16822.986978000001
 30
0.0
 11
28606.283799817349
 21
16821.38697800001
 31
0.0
  0
LINE
  5
13389
  8
1-中柱カバ-P
  6
HIDE-M
 62
     6
 10
28620.283799817349
 20
16822.986978000001
 30
0.0
 11
28620.283799817349
 21
16821.38697800001
 31
0.0
  0
ARC
  5
1338A
  8
1-中柱カバ-P
 10
28577.38379981734
 20
16757.08697800001
 30
0.0
 40
6.599999999999997
 50
180.0
 51
270.0
  0
ARC
  5
1338B
  8
1-中柱カバ-P
 10
28649.18379981734
 20
16757.08697800001
 30
0.0
 40
6.599999999999997
 50
270.0
 51
0.0
  0
LINE
  5
1338C
  8
1-中柱カバ-P
 10
28640.783799817349
 20
16750.486978000001
 30
0.0
 11
28649.18379981734
 21
16750.486978000001
 31
0.0
  0
LINE
  5
1338D
  8
1-中柱カバ-P
 10
28585.783799817342
 20
16750.486978000001
 30
0.0
 11
28577.38379981734
 21
16750.486978000001
 31
0.0
  0
LINE
  5
1338E
  8
1-中柱カバ-P
 10
28640.783799817349
 20
16752.08697800001
 30
0.0
 11
28649.18379981734
 21
16752.08697800001
 31
0.0
  0
LINE
  5
1338F
  8
1-中柱カバ-P
 10
28585.783799817342
 20
16752.08697800001
 30
0.0
 11
28577.38379981734
 21
16752.08697800001
 31
0.0
  0
LINE
  5
13390
  8
1-中柱カバ-P
 10
28585.783799817342
 20
16752.08697800001
 30
0.0
 11
28585.783799817342
 21
16750.486978000001
 31
0.0
  0
LINE
  5
13391
  8
1-中柱カバ-P
 10
28640.783799817349
 20
16750.486978000001
 30
0.0
 11
28640.783799817349
 21
16752.08697800001
 31
0.0
  0
LINE
  5
13392
  8
1-中柱カバ-P
  6
HIDE-M
 62
     6
 10
28644.683799817351
 20
16771.486978000001
 30
0.0
 11
28656.283799817349
 21
16771.486978000001
 31
0.0
  0
LINE
  5
13393
  8
1-中柱カバ-P
  6
HIDE-M
 62
     6
 10
28644.683799817351
 20
16779.486978000001
 30
0.0
 11
28656.283799817349
 21
16779.486978000001
 31
0.0
  0
LINE
  5
13394
  8
1-中柱カバ-P
  6
HIDE-M
 62
     6
 10
28644.683799817351
 20
16772.486978000001
 30
0.0
 11
28656.283799817349
 21
16772.486978000001
 31
0.0
  0
LINE
  5
13395
  8
1-中柱カバ-P
  6
HIDE-M
 62
     6
 10
28644.683799817351
 20
16778.486978000001
 30
0.0
 11
28656.283799817349
 21
16778.486978000001
 31
0.0
  0
LINE
  5
13396
  8
1-中柱カバ-P
 10
28645.68379981734
 20
16780.986978000001
 30
0.0
 11
28652.683799817329
 21
16780.986978000001
 31
0.0
  0
LINE
  5
13397
  8
1-中柱カバ-P
 10
28652.683799817329
 20
16769.986978000001
 30
0.0
 11
28645.68379981734
 21
16769.986978000001
 31
0.0
  0
LINE
  5
13398
  8
1-中柱カバ-P
 10
28652.683799817329
 20
16769.236978000001
 30
0.0
 11
28652.683799817329
 21
16781.736978000001
 31
0.0
  0
LINE
  5
13399
  8
1-中柱カバ-P
 10
28656.283799817349
 20
16769.486978000001
 30
0.0
 11
28656.283799817349
 21
16781.486978000001
 31
0.0
  0
LINE
  5
1339A
  8
1-中柱カバ-P
  6
HIDE-M
 62
     6
 10
28654.18379981734
 20
16780.986978000001
 30
0.0
 11
28655.783799817349
 21
16780.986978000001
 31
0.0
  0
LINE
  5
1339B
  8
1-中柱カバ-P
 10
28656.283799817349
 20
16781.486978000001
 30
0.0
 11
28655.783799817349
 21
16780.986978000001
 31
0.0
  0
ARC
  5
1339C
  8
1-中柱カバ-P
 10
28653.43379981734
 20
16781.736978000001
 30
0.0
 40
0.75
 50
0.0
 51
180.0
  0
LINE
  5
1339D
  8
1-中柱カバ-P
  6
HIDE-M
 62
     6
 10
28655.783799817349
 20
16769.986978000001
 30
0.0
 11
28654.18379981734
 21
16769.986978000001
 31
0.0
  0
LINE
  5
1339E
  8
1-中柱カバ-P
 10
28656.283799817349
 20
16769.486978000001
 30
0.0
 11
28655.783799817349
 21
16769.986978000001
 31
0.0
  0
ARC
  5
1339F
  8
1-中柱カバ-P
 10
28653.43379981734
 20
16769.236978000001
 30
0.0
 40
0.75
 50
180.0
 51
0.0
  0
LINE
  5
133A0
  8
1-中柱カバ-P
 10
28644.683799817351
 20
16770.986978000001
 30
0.0
 11
28644.683799817351
 21
16779.986978000001
 31
0.0
  0
ARC
  5
133A1
  8
1-中柱カバ-P
 10
28645.68379981734
 20
16779.986978000001
 30
0.0
 40
1.0
 50
90.0
 51
180.0
  0
ARC
  5
133A2
  8
1-中柱カバ-P
 10
28645.68379981734
 20
16770.986978000001
 30
0.0
 40
1.0
 50
180.0
 51
270.0
  0
LINE
  5
133A3
  8
1-中柱カバ-P
  6
1PL-M
 62
     6
 10
28639.683799817329
 20
16775.486978000001
 30
0.0
 11
28661.283799817349
 21
16775.486978000001
 31
0.0
  0
LINE
  5
133A4
  8
1-中柱カバ-P
 10
28645.68379981734
 20
16790.986978000001
 30
0.0
 11
28652.683799817329
 21
16790.986978000001
 31
0.0
  0
LINE
  5
133A5
  8
1-中柱カバ-P
 10
28656.283799817349
 20
16783.486978000001
 30
0.0
 11
28656.283799817349
 21
16791.486978000001
 31
0.0
  0
LINE
  5
133A6
  8
1-中柱カバ-P
  6
HIDE-M
 62
     6
 10
28654.18379981734
 20
16790.986978000001
 30
0.0
 11
28655.783799817349
 21
16790.986978000001
 31
0.0
  0
LINE
  5
133A7
  8
1-中柱カバ-P
 10
28656.283799817349
 20
16791.486978000001
 30
0.0
 11
28655.783799817349
 21
16790.986978000001
 31
0.0
  0
ARC
  5
133A8
  8
1-中柱カバ-P
 10
28653.43379981734
 20
16791.736978000001
 30
0.0
 40
0.75
 50
0.0
 51
180.0
  0
LINE
  5
133A9
  8
1-中柱カバ-P
 10
28644.683799817351
 20
16781.986978000001
 30
0.0
 11
28644.683799817351
 21
16789.986978000001
 31
0.0
  0
ARC
  5
133AA
  8
1-中柱カバ-P
 10
28645.68379981734
 20
16789.986978000001
 30
0.0
 40
1.0
 50
90.0
 51
180.0
  0
LINE
  5
133AB
  8
1-中柱カバ-P
  6
1PL-M
 62
     6
 10
28639.683799817329
 20
16785.486978000001
 30
0.0
 11
28661.283799817349
 21
16785.486978000001
 31
0.0
  0
LINE
  5
133AC
  8
1-中柱カバ-P
 10
28652.683799817329
 20
16783.736978000001
 30
0.0
 11
28652.683799817329
 21
16791.736978000001
 31
0.0
  0
LINE
  5
133AD
  8
1-中柱カバ-P
  6
HIDE-M
 62
     6
 10
28581.88379981734
 20
16771.486978000001
 30
0.0
 11
28570.283799817349
 21
16771.486978000001
 31
0.0
  0
LINE
  5
133AE
  8
1-中柱カバ-P
  6
HIDE-M
 62
     6
 10
28581.88379981734
 20
16779.486978000001
 30
0.0
 11
28570.283799817349
 21
16779.486978000001
 31
0.0
  0
LINE
  5
133AF
  8
1-中柱カバ-P
  6
HIDE-M
 62
     6
 10
28581.88379981734
 20
16772.486978000001
 30
0.0
 11
28570.283799817349
 21
16772.486978000001
 31
0.0
  0
LINE
  5
133B0
  8
1-中柱カバ-P
  6
HIDE-M
 62
     6
 10
28581.88379981734
 20
16778.486978000001
 30
0.0
 11
28570.283799817349
 21
16778.486978000001
 31
0.0
  0
LINE
  5
133B1
  8
1-中柱カバ-P
 10
28580.883799817329
 20
16780.986978000001
 30
0.0
 11
28573.88379981734
 21
16780.986978000001
 31
0.0
  0
LINE
  5
133B2
  8
1-中柱カバ-P
 10
28573.88379981734
 20
16769.986978000001
 30
0.0
 11
28580.883799817329
 21
16769.986978000001
 31
0.0
  0
LINE
  5
133B3
  8
1-中柱カバ-P
 10
28573.88379981734
 20
16769.236978000001
 30
0.0
 11
28573.88379981734
 21
16781.736978000001
 31
0.0
  0
LINE
  5
133B4
  8
1-中柱カバ-P
 10
28570.283799817349
 20
16769.486978000001
 30
0.0
 11
28570.283799817349
 21
16781.486978000001
 31
0.0
  0
LINE
  5
133B5
  8
1-中柱カバ-P
  6
HIDE-M
 62
     6
 10
28572.38379981734
 20
16780.986978000001
 30
0.0
 11
28570.783799817342
 21
16780.986978000001
 31
0.0
  0
LINE
  5
133B6
  8
1-中柱カバ-P
 10
28570.283799817349
 20
16781.486978000001
 30
0.0
 11
28570.783799817342
 21
16780.986978000001
 31
0.0
  0
ARC
  5
133B7
  8
1-中柱カバ-P
 10
28573.13379981734
 20
16781.736978000001
 30
0.0
 40
0.75
 50
0.0
 51
180.0
  0
LINE
  5
133B8
  8
1-中柱カバ-P
  6
HIDE-M
 62
     6
 10
28570.783799817342
 20
16769.986978000001
 30
0.0
 11
28572.38379981734
 21
16769.986978000001
 31
0.0
  0
LINE
  5
133B9
  8
1-中柱カバ-P
 10
28570.283799817349
 20
16769.486978000001
 30
0.0
 11
28570.783799817342
 21
16769.986978000001
 31
0.0
  0
ARC
  5
133BA
  8
1-中柱カバ-P
 10
28573.13379981734
 20
16769.236978000001
 30
0.0
 40
0.75
 50
180.0
 51
0.0
  0
LINE
  5
133BB
  8
1-中柱カバ-P
 10
28581.88379981734
 20
16770.986978000001
 30
0.0
 11
28581.88379981734
 21
16779.986978000001
 31
0.0
  0
ARC
  5
133BC
  8
1-中柱カバ-P
 10
28580.883799817329
 20
16779.986978000001
 30
0.0
 40
1.0
 50
0.0
 51
90.0
  0
ARC
  5
133BD
  8
1-中柱カバ-P
 10
28580.883799817329
 20
16770.986978000001
 30
0.0
 40
1.0
 50
270.0
 51
0.0
  0
LINE
  5
133BE
  8
1-中柱カバ-P
  6
1PL-M
 62
     6
 10
28586.883799817329
 20
16775.486978000001
 30
0.0
 11
28565.283799817342
 21
16775.486978000001
 31
0.0
  0
LINE
  5
133BF
  8
1-中柱カバ-P
 10
28580.883799817329
 20
16790.986978000001
 30
0.0
 11
28573.88379981734
 21
16790.986978000001
 31
0.0
  0
LINE
  5
133C0
  8
1-中柱カバ-P
 10
28570.283799817349
 20
16783.486978000001
 30
0.0
 11
28570.283799817349
 21
16791.486978000001
 31
0.0
  0
LINE
  5
133C1
  8
1-中柱カバ-P
  6
HIDE-M
 62
     6
 10
28572.38379981734
 20
16790.986978000001
 30
0.0
 11
28570.783799817342
 21
16790.986978000001
 31
0.0
  0
LINE
  5
133C2
  8
1-中柱カバ-P
 10
28570.283799817349
 20
16791.486978000001
 30
0.0
 11
28570.783799817342
 21
16790.986978000001
 31
0.0
  0
ARC
  5
133C3
  8
1-中柱カバ-P
 10
28573.13379981734
 20
16791.736978000001
 30
0.0
 40
0.75
 50
0.0
 51
180.0
  0
LINE
  5
133C4
  8
1-中柱カバ-P
 10
28581.88379981734
 20
16781.986978000001
 30
0.0
 11
28581.88379981734
 21
16789.986978000001
 31
0.0
  0
ARC
  5
133C5
  8
1-中柱カバ-P
 10
28580.883799817329
 20
16789.986978000001
 30
0.0
 40
1.0
 50
0.0
 51
90.0
  0
LINE
  5
133C6
  8
1-中柱カバ-P
  6
1PL-M
 62
     6
 10
28586.883799817329
 20
16785.486978000001
 30
0.0
 11
28565.283799817342
 21
16785.486978000001
 31
0.0
  0
LINE
  5
133C7
  8
1-中柱カバ-P
 10
28573.88379981734
 20
16783.736978000001
 30
0.0
 11
28573.88379981734
 21
16791.736978000001
 31
0.0
  0
LINE
  5
133C8
  8
1-中柱カバ-P
  6
HIDE-M
 62
     6
 10
28644.683799817351
 20
16789.486978000001
 30
0.0
 11
28656.283799817349
 21
16789.486978000001
 31
0.0
  0
LINE
  5
133C9
  8
1-中柱カバ-P
  6
HIDE-M
 62
     6
 10
28644.683799817351
 20
16788.486978000001
 30
0.0
 11
28656.283799817349
 21
16788.486978000001
 31
0.0
  0
LINE
  5
133CA
  8
1-中柱カバ-P
  6
HIDE-M
 62
     6
 10
28581.88379981734
 20
16789.486978000001
 30
0.0
 11
28570.283799817349
 21
16789.486978000001
 31
0.0
  0
LINE
  5
133CB
  8
1-中柱カバ-P
  6
HIDE-M
 62
     6
 10
28581.88379981734
 20
16788.486978000001
 30
0.0
 11
28570.283799817349
 21
16788.486978000001
 31
0.0
  0
ARC
  5
133CC
  8
1-前柱P
  6
HIDE-M
 62
     6
 10
28609.68379981734
 20
13900.88697800001
 30
0.0
 40
2.6000000000000001
 50
0.0
 51
90.0
  0
LINE
  5
133CD
  8
1-前柱P
  6
HIDE-M
 62
     6
 10
28621.283799817349
 20
13902.9363681532
 30
0.0
 11
28621.283799817349
 21
13899.286978
 31
0.0
  0
LINE
  5
133CE
  8
1-前柱P
  6
HIDE-M
 62
     6
 10
28611.283799817342
 20
13902.9363681532
 30
0.0
 11
28611.283799817342
 21
13899.286978
 31
0.0
  0
LINE
  5
133CF
  8
1-前柱P
  6
1PL-M
 62
     6
 10
28616.283799817342
 20
13908.486978000001
 30
0.0
 11
28616.283799817342
 21
13894.286978
 31
0.0
  0
ARC
  5
133D0
  8
1-前柱P
  6
HIDE-M
 62
     6
 10
28622.883799817351
 20
13900.88697800001
 30
0.0
 40
2.6000000000000001
 50
90.0
 51
180.0
  0
LINE
  5
133D1
  8
1-前柱P
  6
HIDE-M
 62
     6
 10
28612.283799817349
 20
13900.88697800001
 30
0.0
 11
28612.283799817349
 21
13899.286978
 31
0.0
  0
LINE
  5
133D2
  8
1-前柱P
  6
HIDE-M
 62
     6
 10
28620.283799817349
 20
13900.88697800001
 30
0.0
 11
28620.283799817349
 21
13899.286978
 31
0.0
  0
LINE
  5
133D3
  8
1-前柱P
 10
28602.383799817359
 20
13788.58697800001
 30
0.0
 11
28624.183799817351
 21
13788.58697800001
 31
0.0
  0
LINE
  5
133D4
  8
1-前柱P
 10
28654.183799817351
 20
13825.88697800001
 30
0.0
 11
28654.183799817351
 21
13818.586977999999
 31
0.0
  0
ARC
  5
133D5
  8
1-前柱P
 10
28624.183799817351
 20
13818.586977999999
 30
0.0
 40
30.0
 50
270.0
 51
0.0
  0
ARC
  5
133D6
  8
1-前柱P
 10
28624.183799817351
 20
13818.586977999999
 30
0.0
 40
31.600000000000001
 50
270.0
 51
0.0
  0
LINE
  5
133D7
  8
1-前柱P
 10
28602.383799817359
 20
13786.986978000001
 30
0.0
 11
28624.183799817351
 21
13786.986978000001
 31
0.0
  0
LINE
  5
133D8
  8
1-前柱P
 10
28655.783799817349
 20
13825.88697800001
 30
0.0
 11
28655.783799817349
 21
13818.586977999999
 31
0.0
  0
LINE
  5
133D9
  8
1-前柱P
 10
28632.783799817349
 20
13847.486978000001
 30
0.0
 11
28632.783799817349
 21
13837.486978000001
 31
0.0
  0
LINE
  5
133DA
  8
1-前柱P
 10
28631.183799817351
 20
13837.486978000001
 30
0.0
 11
28631.183799817351
 21
13847.486978000001
 31
0.0
  0
LINE
  5
133DB
  8
1-前柱P
 10
28572.383799817351
 20
13825.88697800001
 30
0.0
 11
28572.383799817351
 21
13818.586977999999
 31
0.0
  0
ARC
  5
133DC
  8
1-前柱P
 10
28602.383799817359
 20
13818.586977999999
 30
0.0
 40
30.0
 50
180.0
 51
270.0
  0
ARC
  5
133DD
  8
1-前柱P
 10
28602.383799817359
 20
13818.586977999999
 30
0.0
 40
31.600000000000001
 50
180.0
 51
270.0
  0
LINE
  5
133DE
  8
1-前柱P
 10
28570.783799817342
 20
13825.88697800001
 30
0.0
 11
28570.783799817342
 21
13818.586977999999
 31
0.0
  0
LINE
  5
133DF
  8
1-前柱P
 10
28577.383799817359
 20
13832.486978000001
 30
0.0
 11
28588.783799817349
 21
13832.486978000001
 31
0.0
  0
ARC
  5
133E0
  8
1-前柱P
 10
28577.383799817359
 20
13825.88697800001
 30
0.0
 40
6.599999999999997
 50
90.0
 51
180.0
  0
ARC
  5
133E1
  8
1-前柱P
 10
28588.783799817349
 20
13837.486978000001
 30
0.0
 40
5.0
 50
270.0
 51
0.0
  0
LINE
  5
133E2
  8
1-前柱P
 10
28577.383799817359
 20
13830.886978
 30
0.0
 11
28588.783799817349
 21
13830.886978
 31
0.0
  0
ARC
  5
133E3
  8
1-前柱P
 10
28577.383799817359
 20
13825.88697800001
 30
0.0
 40
5.0
 50
90.0
 51
180.0
  0
LINE
  5
133E4
  8
1-前柱P
 10
28593.783799817342
 20
13837.486978000001
 30
0.0
 11
28593.783799817342
 21
13896.886978
 31
0.0
  0
LINE
  5
133E5
  8
1-前柱P
 10
28595.383799817351
 20
13837.486978000001
 30
0.0
 11
28595.383799817351
 21
13896.886978
 31
0.0
  0
ARC
  5
133E6
  8
1-前柱P
 10
28588.783799817349
 20
13837.486978000001
 30
0.0
 40
6.599999999999997
 50
270.0
 51
0.0
  0
LINE
  5
133E7
  8
1-前柱P
 10
28600.383799817359
 20
13903.486978000001
 30
0.0
 11
28633.783799817342
 21
13903.486978000001
 31
0.0
  0
ARC
  5
133E8
  8
1-前柱P
 10
28600.383799817359
 20
13896.886978
 30
0.0
 40
6.599999999999997
 50
90.0
 51
180.0
  0
LINE
  5
133E9
  8
1-前柱P
 10
28600.383799817359
 20
13901.88697800001
 30
0.0
 11
28633.783799817342
 21
13901.88697800001
 31
0.0
  0
ARC
  5
133EA
  8
1-前柱P
 10
28600.383799817359
 20
13896.886978
 30
0.0
 40
5.0
 50
90.0
 51
180.0
  0
LINE
  5
133EB
  8
1-前柱P
 10
28633.783799817342
 20
13901.88697800001
 30
0.0
 11
28633.783799817342
 21
13903.486978000001
 31
0.0
  0
LINE
  5
133EC
  8
1-前柱P
 10
28649.183799817351
 20
13832.486978000001
 30
0.0
 11
28637.783799817342
 21
13832.486978000001
 31
0.0
  0
ARC
  5
133ED
  8
1-前柱P
 10
28649.183799817351
 20
13825.88697800001
 30
0.0
 40
6.599999999999997
 50
0.0
 51
90.0
  0
ARC
  5
133EE
  8
1-前柱P
 10
28637.783799817342
 20
13837.486978000001
 30
0.0
 40
5.0
 50
180.0
 51
270.0
  0
LINE
  5
133EF
  8
1-前柱P
 10
28637.783799817342
 20
13830.886978
 30
0.0
 11
28649.183799817351
 21
13830.886978
 31
0.0
  0
ARC
  5
133F0
  8
1-前柱P
 10
28637.783799817342
 20
13837.486978000001
 30
0.0
 40
6.599999999999997
 50
180.0
 51
270.0
  0
ARC
  5
133F1
  8
1-前柱P
 10
28649.183799817351
 20
13825.88697800001
 30
0.0
 40
5.0
 50
0.0
 51
90.0
  0
LINE
  5
133F2
  8
1-前柱P
 10
28632.783799817349
 20
13847.486978000001
 30
0.0
 11
28631.183799817351
 21
13847.486978000001
 31
0.0
  0
LINE
  5
133F3
  8
1-前柱カバ-P
 10
28655.783799817349
 20
13839.186977999991
 30
0.0
 11
28655.783799817349
 21
13898.486978000001
 31
0.0
  0
ARC
  5
133F4
  8
1-前柱カバ-P
 10
28649.183799817351
 20
13898.486978000001
 30
0.0
 40
6.599999999999997
 50
0.0
 51
90.0
  0
LINE
  5
133F5
  8
1-前柱カバ-P
 10
28654.183799817351
 20
13839.186977999991
 30
0.0
 11
28654.183799817351
 21
13898.486978000001
 31
0.0
  0
ARC
  5
133F6
  8
1-前柱カバ-P
 10
28649.183799817351
 20
13839.186977999991
 30
0.0
 40
5.0
 50
270.0
 51
0.0
  0
LINE
  5
133F7
  8
1-前柱カバ-P
 10
28649.183799817351
 20
13905.086977999999
 30
0.0
 11
28577.383799817359
 21
13905.086977999999
 31
0.0
  0
ARC
  5
133F8
  8
1-前柱カバ-P
 10
28577.383799817359
 20
13898.486978000001
 30
0.0
 40
6.599999999999997
 50
90.0
 51
180.0
  0
LINE
  5
133F9
  8
1-前柱カバ-P
 10
28649.183799817351
 20
13903.486978000001
 30
0.0
 11
28577.383799817359
 21
13903.486978000001
 31
0.0
  0
ARC
  5
133FA
  8
1-前柱カバ-P
 10
28577.383799817359
 20
13898.486978000001
 30
0.0
 40
5.0
 50
90.0
 51
180.0
  0
ARC
  5
133FB
  8
1-前柱カバ-P
 10
28649.183799817351
 20
13898.486978000001
 30
0.0
 40
5.0
 50
0.0
 51
90.0
  0
LINE
  5
133FC
  8
1-前柱カバ-P
 10
28570.783799817342
 20
13898.486978000001
 30
0.0
 11
28570.783799817342
 21
13839.186977999991
 31
0.0
  0
LINE
  5
133FD
  8
1-前柱カバ-P
 10
28572.383799817351
 20
13898.486978000001
 30
0.0
 11
28572.383799817351
 21
13839.186977999991
 31
0.0
  0
ARC
  5
133FE
  8
1-前柱カバ-P
 10
28577.383799817359
 20
13839.186977999991
 30
0.0
 40
5.0
 50
180.0
 51
270.0
  0
LINE
  5
133FF
  8
1-前柱カバ-P
  6
1PL-M
 62
     6
 10
28613.283799817342
 20
13897.586977999999
 30
0.0
 11
28613.283799817342
 21
13910.58697800001
 31
0.0
  0
LINE
  5
13400
  8
1-前柱カバ-P
  6
HIDE-M
 62
     6
 10
28620.283799817349
 20
13905.086977999999
 30
0.0
 11
28620.283799817349
 21
13903.486978000001
 31
0.0
  0
LINE
  5
13401
  8
1-前柱カバ-P
  6
HIDE-M
 62
     6
 10
28606.283799817349
 20
13905.086977999999
 30
0.0
 11
28606.283799817349
 21
13903.486978000001
 31
0.0
  0
ARC
  5
13402
  8
1-前柱カバ-P
 10
28649.183799817351
 20
13839.186977999991
 30
0.0
 40
6.599999999999997
 50
270.0
 51
0.0
  0
ARC
  5
13403
  8
1-前柱カバ-P
 10
28577.383799817359
 20
13839.186977999991
 30
0.0
 40
6.599999999999997
 50
180.0
 51
270.0
  0
LINE
  5
13404
  8
1-前柱カバ-P
 10
28585.783799817342
 20
13832.586977999999
 30
0.0
 11
28577.383799817359
 21
13832.586977999999
 31
0.0
  0
LINE
  5
13405
  8
1-前柱カバ-P
 10
28640.783799817349
 20
13832.586977999999
 30
0.0
 11
28649.183799817351
 21
13832.586977999999
 31
0.0
  0
LINE
  5
13406
  8
1-前柱カバ-P
 10
28585.783799817342
 20
13834.186978
 30
0.0
 11
28577.383799817359
 21
13834.186978
 31
0.0
  0
LINE
  5
13407
  8
1-前柱カバ-P
 10
28640.783799817349
 20
13834.186978
 30
0.0
 11
28649.183799817351
 21
13834.186978
 31
0.0
  0
LINE
  5
13408
  8
1-前柱カバ-P
 10
28640.783799817349
 20
13834.186978
 30
0.0
 11
28640.783799817349
 21
13832.586977999999
 31
0.0
  0
LINE
  5
13409
  8
1-前柱カバ-P
 10
28585.783799817342
 20
13832.586977999999
 30
0.0
 11
28585.783799817342
 21
13834.186978
 31
0.0
  0
LINE
  5
1340A
  8
1-前柱カバ-P
  6
HIDE-M
 62
     6
 10
28581.883799817359
 20
13853.586977999999
 30
0.0
 11
28570.283799817349
 21
13853.586977999999
 31
0.0
  0
LINE
  5
1340B
  8
1-前柱カバ-P
  6
HIDE-M
 62
     6
 10
28581.883799817359
 20
13861.586977999999
 30
0.0
 11
28570.283799817349
 21
13861.586977999999
 31
0.0
  0
LINE
  5
1340C
  8
1-前柱カバ-P
  6
HIDE-M
 62
     6
 10
28581.883799817359
 20
13854.586977999999
 30
0.0
 11
28570.283799817349
 21
13854.586977999999
 31
0.0
  0
LINE
  5
1340D
  8
1-前柱カバ-P
  6
HIDE-M
 62
     6
 10
28581.883799817359
 20
13860.586977999999
 30
0.0
 11
28570.283799817349
 21
13860.586977999999
 31
0.0
  0
LINE
  5
1340E
  8
1-前柱カバ-P
 10
28580.883799817351
 20
13863.086977999999
 30
0.0
 11
28573.883799817369
 21
13863.086977999999
 31
0.0
  0
LINE
  5
1340F
  8
1-前柱カバ-P
 10
28573.883799817369
 20
13852.08697799999
 30
0.0
 11
28580.883799817351
 21
13852.08697799999
 31
0.0
  0
LINE
  5
13410
  8
1-前柱カバ-P
 10
28573.883799817369
 20
13851.33697800001
 30
0.0
 11
28573.883799817369
 21
13863.83697800001
 31
0.0
  0
LINE
  5
13411
  8
1-前柱カバ-P
 10
28570.283799817349
 20
13851.58697800001
 30
0.0
 11
28570.283799817349
 21
13863.58697799999
 31
0.0
  0
LINE
  5
13412
  8
1-前柱カバ-P
  6
HIDE-M
 62
     6
 10
28572.383799817351
 20
13863.086977999999
 30
0.0
 11
28570.783799817342
 21
13863.086977999999
 31
0.0
  0
LINE
  5
13413
  8
1-前柱カバ-P
 10
28570.283799817349
 20
13863.58697799999
 30
0.0
 11
28570.783799817342
 21
13863.086977999999
 31
0.0
  0
ARC
  5
13414
  8
1-前柱カバ-P
 10
28573.133799817351
 20
13863.83697800001
 30
0.0
 40
0.75
 50
0.0
 51
180.0
  0
LINE
  5
13415
  8
1-前柱カバ-P
  6
HIDE-M
 62
     6
 10
28570.783799817342
 20
13852.08697799999
 30
0.0
 11
28572.383799817351
 21
13852.08697799999
 31
0.0
  0
LINE
  5
13416
  8
1-前柱カバ-P
 10
28570.283799817349
 20
13851.58697800001
 30
0.0
 11
28570.783799817342
 21
13852.08697799999
 31
0.0
  0
ARC
  5
13417
  8
1-前柱カバ-P
 10
28573.133799817351
 20
13851.33697800001
 30
0.0
 40
0.75
 50
180.0
 51
0.0
  0
LINE
  5
13418
  8
1-前柱カバ-P
 10
28581.883799817359
 20
13853.08697799999
 30
0.0
 11
28581.883799817359
 21
13862.086977999999
 31
0.0
  0
ARC
  5
13419
  8
1-前柱カバ-P
 10
28580.883799817351
 20
13862.086977999999
 30
0.0
 40
1.0
 50
0.0
 51
90.0
  0
ARC
  5
1341A
  8
1-前柱カバ-P
 10
28580.883799817351
 20
13853.08697799999
 30
0.0
 40
1.0
 50
270.0
 51
0.0
  0
LINE
  5
1341B
  8
1-前柱カバ-P
  6
1PL-M
 62
     6
 10
28586.883799817359
 20
13857.586977999999
 30
0.0
 11
28565.283799817342
 21
13857.586977999999
 31
0.0
  0
LINE
  5
1341C
  8
1-前柱カバ-P
 10
28580.883799817351
 20
13873.08697799999
 30
0.0
 11
28573.883799817369
 21
13873.08697799999
 31
0.0
  0
LINE
  5
1341D
  8
1-前柱カバ-P
 10
28570.283799817349
 20
13865.58697799999
 30
0.0
 11
28570.283799817349
 21
13873.586977999999
 31
0.0
  0
LINE
  5
1341E
  8
1-前柱カバ-P
  6
HIDE-M
 62
     6
 10
28572.383799817351
 20
13873.08697799999
 30
0.0
 11
28570.783799817342
 21
13873.08697799999
 31
0.0
  0
LINE
  5
1341F
  8
1-前柱カバ-P
 10
28570.283799817349
 20
13873.586977999999
 30
0.0
 11
28570.783799817342
 21
13873.08697799999
 31
0.0
  0
ARC
  5
13420
  8
1-前柱カバ-P
 10
28573.133799817351
 20
13873.836977999999
 30
0.0
 40
0.75
 50
0.0
 51
180.0
  0
LINE
  5
13421
  8
1-前柱カバ-P
 10
28581.883799817359
 20
13864.086977999999
 30
0.0
 11
28581.883799817359
 21
13872.086977999999
 31
0.0
  0
ARC
  5
13422
  8
1-前柱カバ-P
 10
28580.883799817351
 20
13872.086977999999
 30
0.0
 40
1.0
 50
0.0
 51
90.0
  0
LINE
  5
13423
  8
1-前柱カバ-P
  6
1PL-M
 62
     6
 10
28586.883799817359
 20
13867.58697800001
 30
0.0
 11
28565.283799817342
 21
13867.58697800001
 31
0.0
  0
LINE
  5
13424
  8
1-前柱カバ-P
 10
28573.883799817369
 20
13865.83697800001
 30
0.0
 11
28573.883799817369
 21
13873.836977999999
 31
0.0
  0
LINE
  5
13425
  8
1-前柱カバ-P
  6
HIDE-M
 62
     6
 10
28644.683799817351
 20
13853.586977999999
 30
0.0
 11
28656.283799817349
 21
13853.586977999999
 31
0.0
  0
LINE
  5
13426
  8
1-前柱カバ-P
  6
HIDE-M
 62
     6
 10
28644.683799817351
 20
13861.586977999999
 30
0.0
 11
28656.283799817349
 21
13861.586977999999
 31
0.0
  0
LINE
  5
13427
  8
1-前柱カバ-P
  6
HIDE-M
 62
     6
 10
28644.683799817351
 20
13854.586977999999
 30
0.0
 11
28656.283799817349
 21
13854.586977999999
 31
0.0
  0
LINE
  5
13428
  8
1-前柱カバ-P
  6
HIDE-M
 62
     6
 10
28644.683799817351
 20
13860.586977999999
 30
0.0
 11
28656.283799817349
 21
13860.586977999999
 31
0.0
  0
LINE
  5
13429
  8
1-前柱カバ-P
 10
28645.683799817361
 20
13863.086977999999
 30
0.0
 11
28652.683799817351
 21
13863.086977999999
 31
0.0
  0
LINE
  5
1342A
  8
1-前柱カバ-P
 10
28652.683799817351
 20
13852.08697799999
 30
0.0
 11
28645.683799817361
 21
13852.08697799999
 31
0.0
  0
LINE
  5
1342B
  8
1-前柱カバ-P
 10
28652.683799817351
 20
13851.33697800001
 30
0.0
 11
28652.683799817351
 21
13863.83697800001
 31
0.0
  0
LINE
  5
1342C
  8
1-前柱カバ-P
 10
28656.283799817349
 20
13851.58697800001
 30
0.0
 11
28656.283799817349
 21
13863.58697799999
 31
0.0
  0
LINE
  5
1342D
  8
1-前柱カバ-P
  6
HIDE-M
 62
     6
 10
28654.183799817351
 20
13863.086977999999
 30
0.0
 11
28655.783799817349
 21
13863.086977999999
 31
0.0
  0
LINE
  5
1342E
  8
1-前柱カバ-P
 10
28656.283799817349
 20
13863.58697799999
 30
0.0
 11
28655.783799817349
 21
13863.086977999999
 31
0.0
  0
ARC
  5
1342F
  8
1-前柱カバ-P
 10
28653.433799817361
 20
13863.83697800001
 30
0.0
 40
0.75
 50
0.0
 51
180.0
  0
LINE
  5
13430
  8
1-前柱カバ-P
  6
HIDE-M
 62
     6
 10
28655.783799817349
 20
13852.08697799999
 30
0.0
 11
28654.183799817351
 21
13852.08697799999
 31
0.0
  0
LINE
  5
13431
  8
1-前柱カバ-P
 10
28656.283799817349
 20
13851.58697800001
 30
0.0
 11
28655.783799817349
 21
13852.08697799999
 31
0.0
  0
ARC
  5
13432
  8
1-前柱カバ-P
 10
28653.433799817361
 20
13851.33697800001
 30
0.0
 40
0.75
 50
180.0
 51
0.0
  0
LINE
  5
13433
  8
1-前柱カバ-P
 10
28644.683799817351
 20
13853.08697799999
 30
0.0
 11
28644.683799817351
 21
13862.086977999999
 31
0.0
  0
ARC
  5
13434
  8
1-前柱カバ-P
 10
28645.683799817361
 20
13862.086977999999
 30
0.0
 40
1.0
 50
90.0
 51
180.0
  0
ARC
  5
13435
  8
1-前柱カバ-P
 10
28645.683799817361
 20
13853.08697799999
 30
0.0
 40
1.0
 50
180.0
 51
270.0
  0
LINE
  5
13436
  8
1-前柱カバ-P
  6
1PL-M
 62
     6
 10
28639.683799817351
 20
13857.586977999999
 30
0.0
 11
28661.283799817349
 21
13857.586977999999
 31
0.0
  0
LINE
  5
13437
  8
1-前柱カバ-P
 10
28645.683799817361
 20
13873.08697799999
 30
0.0
 11
28652.683799817351
 21
13873.08697799999
 31
0.0
  0
LINE
  5
13438
  8
1-前柱カバ-P
 10
28656.283799817349
 20
13865.58697799999
 30
0.0
 11
28656.283799817349
 21
13873.586977999999
 31
0.0
  0
LINE
  5
13439
  8
1-前柱カバ-P
  6
HIDE-M
 62
     6
 10
28654.183799817351
 20
13873.08697799999
 30
0.0
 11
28655.783799817349
 21
13873.08697799999
 31
0.0
  0
LINE
  5
1343A
  8
1-前柱カバ-P
 10
28656.283799817349
 20
13873.586977999999
 30
0.0
 11
28655.783799817349
 21
13873.08697799999
 31
0.0
  0
ARC
  5
1343B
  8
1-前柱カバ-P
 10
28653.433799817361
 20
13873.836977999999
 30
0.0
 40
0.75
 50
0.0
 51
180.0
  0
LINE
  5
1343C
  8
1-前柱カバ-P
 10
28644.683799817351
 20
13864.086977999999
 30
0.0
 11
28644.683799817351
 21
13872.086977999999
 31
0.0
  0
ARC
  5
1343D
  8
1-前柱カバ-P
 10
28645.683799817361
 20
13872.086977999999
 30
0.0
 40
1.0
 50
90.0
 51
180.0
  0
LINE
  5
1343E
  8
1-前柱カバ-P
  6
1PL-M
 62
     6
 10
28639.683799817351
 20
13867.58697800001
 30
0.0
 11
28661.283799817349
 21
13867.58697800001
 31
0.0
  0
LINE
  5
1343F
  8
1-前柱カバ-P
 10
28652.683799817351
 20
13865.83697800001
 30
0.0
 11
28652.683799817351
 21
13873.836977999999
 31
0.0
  0
LINE
  5
13440
  8
1-前柱カバ-P
  6
HIDE-M
 62
     6
 10
28581.883799817359
 20
13871.58697800001
 30
0.0
 11
28570.283799817349
 21
13871.58697800001
 31
0.0
  0
LINE
  5
13441
  8
1-前柱カバ-P
  6
HIDE-M
 62
     6
 10
28581.883799817359
 20
13870.58697800001
 30
0.0
 11
28570.283799817349
 21
13870.58697800001
 31
0.0
  0
LINE
  5
13442
  8
1-前柱カバ-P
  6
HIDE-M
 62
     6
 10
28644.683799817351
 20
13871.58697800001
 30
0.0
 11
28656.283799817349
 21
13871.58697800001
 31
0.0
  0
LINE
  5
13443
  8
1-前柱カバ-P
  6
HIDE-M
 62
     6
 10
28644.683799817351
 20
13870.58697800001
 30
0.0
 11
28656.283799817349
 21
13870.58697800001
 31
0.0
  0
LINE
  5
13447
  8
0-6
  6
CONTINUOUS
 62
     6
 10
27172.449348307789
 20
13192.487836
 30
0.0
 11
28172.44868930777
 21
13192.487836
 31
0.0
  0
TEXT
  5
13448
  8
0-6
  6
CONTINUOUS
 62
     7
 10
27268.44961230777
 20
13272.48809999999
 30
0.0
 40
160.0
  1
前柱（P）
 72
     4
 11
27668.44961230777
 21
13352.48809999999
 31
0.0
  0
LINE
  5
13449
  8
0-6
  6
CONTINUOUS
 62
     6
 10
28577.525053129171
 20
13778.486978000001
 30
0.0
 11
28172.44868930777
 21
13192.487836
 31
0.0
  0
LINE
  5
1344A
  8
0-6
  6
CONTINUOUS
 62
     6
 10
27172.449348307789
 20
16080.048635954119
 30
0.0
 11
28172.44868930777
 21
16080.048635954119
 31
0.0
  0
TEXT
  5
1344B
  8
0-6
  6
CONTINUOUS
 62
     7
 10
27268.44961230777
 20
16160.048899954099
 30
0.0
 40
160.0
  1
中柱（P）
 72
     4
 11
27668.44961230777
 21
16240.048899954099
 31
0.0
  0
LINE
  5
1344C
  8
0-6
  6
CONTINUOUS
 62
     6
 10
28577.525053129171
 20
16666.047777954122
 30
0.0
 11
28172.44868930777
 21
16080.048635954119
 31
0.0
  0
LINE
  5
1344D
  8
0-6
  6
CONTINUOUS
 62
     6
 10
26831.387457838238
 20
14393.477715828871
 30
0.0
 11
28287.387457838238
 21
14393.47771582888
 31
0.0
  0
TEXT
  5
1344E
  8
0-6
  6
CONTINUOUS
 62
     7
 10
26871.392731090651
 20
14473.47797982886
 30
0.0
 40
160.0
  1
前柱カバー（P）
 72
     4
 11
27559.392731090651
 21
14553.47797982886
 31
0.0
  0
LINE
  5
1344F
  8
0-6
  6
CONTINUOUS
 62
     6
 10
28586.625053129199
 20
13905.086977999999
 30
0.0
 11
28287.387457838238
 21
14393.47771582888
 31
0.0
  0
LINE
  5
13450
  8
0-6
  6
CONTINUOUS
 62
     6
 10
26831.387457838238
 20
17300.97727982888
 30
0.0
 11
28287.387457838238
 21
17300.97727982888
 31
0.0
  0
TEXT
  5
13451
  8
0-6
  6
CONTINUOUS
 62
     7
 10
26871.392731090651
 20
17380.977543828871
 30
0.0
 40
160.0
  1
中柱カバー（P）
 72
     4
 11
27559.392731090651
 21
17460.977543828871
 31
0.0
  0
LINE
  5
13452
  8
0-6
  6
CONTINUOUS
 62
     6
 10
28586.625053129199
 20
16812.586542000001
 30
0.0
 11
28287.387457838238
 21
17300.97727982888
 31
0.0
  0
LINE
  5
13453
  8
0-6
  6
CONTINUOUS
 62
     6
 10
27172.449348307789
 20
19957.42434304587
 30
0.0
 11
28172.44868930777
 21
19957.42434304587
 31
0.0
  0
TEXT
  5
13454
  8
0-6
  6
CONTINUOUS
 62
     7
 10
27268.44961230777
 20
20037.424607045861
 30
0.0
 40
160.0
  1
後柱（P）
 72
     4
 11
27668.44961230777
 21
20117.424607045861
 31
0.0
  0
LINE
  5
13455
  8
0-6
  6
CONTINUOUS
 62
     6
 10
28577.525053129171
 20
19371.42520104588
 30
0.0
 11
28172.44868930777
 21
19957.42434304587
 31
0.0
  0
LINE
  5
13456
  8
0-6
  6
CONTINUOUS
 62
     6
 10
26831.387457838238
 20
18736.495699171119
 30
0.0
 11
28287.387457838238
 21
18736.495699171119
 31
0.0
  0
TEXT
  5
13457
  8
0-6
  6
CONTINUOUS
 62
     7
 10
26871.392731090651
 20
18816.49596317111
 30
0.0
 40
160.0
  1
後柱カバー（P）
 72
     4
 11
27559.392731090651
 21
18896.49596317111
 31
0.0
  0
LINE
  5
13458
  8
0-6
  6
CONTINUOUS
 62
     6
 10
28586.625053129199
 20
19224.886437000001
 30
0.0
 11
28287.387457838238
 21
18736.495699171119
 31
0.0
  0
LINE
  5
13498
  8
0-1
  6
CONTINUOUS
 62
     3
 10
20716.778243817389
 20
8132.6883740000021
 30
0.0
 11
23549.781674817361
 21
8132.6883740000021
 31
0.0
  0
LINE
  5
13499
  8
0-1
  6
CONTINUOUS
 62
     3
 10
20716.778243817389
 20
8326.1887430000024
 30
0.0
 11
23549.781674817361
 21
8326.1887430000024
 31
0.0
  0
LINE
  5
1349A
  8
0-1
  6
CONTINUOUS
 62
     3
 10
20588.781938817359
 20
8264.0026619999971
 30
0.0
 11
20588.781938817359
 21
8589.6883999999973
 31
0.0
  0
LINE
  5
1349B
  8
0-1
  6
CONTINUOUS
 62
     3
 10
23634.780223817372
 20
8459.6884660000014
 30
0.0
 11
20588.781938817359
 21
8459.6884660000014
 31
0.0
  0
LINE
  5
1349C
  8
0-1
  6
CONTINUOUS
 62
     3
 10
20588.781938817359
 20
8589.6883999999973
 30
0.0
 11
23614.783126817361
 21
8589.6883999999973
 31
0.0
  0
LINE
  5
1349D
  8
0-1
  6
CONTINUOUS
 62
     3
 10
23642.280619817371
 20
6241.1883740000021
 30
0.0
 11
23542.28127881738
 21
6241.1883740000021
 31
0.0
  0
LINE
  5
1349E
  8
0-1
  6
CONTINUOUS
 62
     3
 10
23542.28127881738
 20
6241.1883740000021
 30
0.0
 11
23542.28127881738
 21
6141.1885390000007
 31
0.0
  0
LINE
  5
1349F
  8
0-1
  6
CONTINUOUS
 62
     3
 10
23642.280619817371
 20
6141.1885390000007
 30
0.0
 11
23642.280619817371
 21
6241.1883740000021
 31
0.0
  0
LINE
  5
134A0
  8
0-1
  6
CONTINUOUS
 62
     3
 10
23549.781674817361
 20
8459.6884660000014
 30
0.0
 11
23549.781674817361
 21
6241.1883740000021
 31
0.0
  0
LINE
  5
134A1
  8
0-1
  6
CONTINUOUS
 62
     3
 10
23498.281938817359
 20
8132.6883740000021
 30
0.0
 11
23498.281938817359
 21
6141.1885390000007
 31
0.0
  0
LINE
  5
134A2
  8
0-1
  6
CONTINUOUS
 62
     3
 10
23614.783126817361
 20
8589.6883999999973
 30
0.0
 11
23614.783126817361
 21
6241.1883740000021
 31
0.0
  0
LINE
  5
134A3
  8
0-1
  6
CONTINUOUS
 62
     3
 10
23634.78193881737
 20
8459.6884660000014
 30
0.0
 11
23634.78193881737
 21
6241.1883740000021
 31
0.0
  0
LINE
  5
134A4
  8
0-1
  6
CONTINUOUS
 62
     3
 10
20588.781938817359
 20
8264.0026619999971
 30
0.0
 11
20631.781938817359
 21
8264.0026619999971
 31
0.0
  0
LINE
  5
134A5
  8
0-1
  6
CONTINUOUS
 62
     3
 10
20624.279299817372
 20
6241.1883740000021
 30
0.0
 11
20724.278639817381
 21
6241.1883740000021
 31
0.0
  0
LINE
  5
134A6
  8
0-1
  6
CONTINUOUS
 62
     3
 10
20724.278639817381
 20
6241.1883740000021
 30
0.0
 11
20724.278639817381
 21
6141.1885390000007
 31
0.0
  0
LINE
  5
134A7
  8
0-1
  6
CONTINUOUS
 62
     3
 10
20624.279299817372
 20
6141.1885390000007
 30
0.0
 11
20624.279299817372
 21
6241.1883740000021
 31
0.0
  0
LINE
  5
134A8
  8
0-1
  6
CONTINUOUS
 62
     3
 10
20768.281938817359
 20
8132.6883740000021
 30
0.0
 11
20768.281938817359
 21
6141.1885390000007
 31
0.0
  0
LINE
  5
134A9
  8
0-1
  6
CONTINUOUS
 62
     3
 10
20716.778243817389
 20
8459.6884660000014
 30
0.0
 11
20716.778243817389
 21
6241.1883740000021
 31
0.0
  0
LINE
  5
134AA
  8
0-1
  6
CONTINUOUS
 62
     3
 10
20651.778771817371
 20
8589.6883999999973
 30
0.0
 11
20651.778771817371
 21
6241.1883740000021
 31
0.0
  0
LINE
  5
134AB
  8
0-1
  6
CONTINUOUS
 62
     3
 10
20631.781938817359
 20
8459.6884660000014
 30
0.0
 11
20631.781938817359
 21
6241.1883740000021
 31
0.0
  0
LINE
  5
134AC
  8
0-1
  6
CONTINUOUS
 62
     3
 10
20768.281938817359
 20
6661.1892649999991
 30
0.0
 11
23498.281938817359
 21
6661.1892649999991
 31
0.0
  0
LINE
  5
134AD
  8
0-1
  6
CONTINUOUS
 62
     3
 10
20768.281938817359
 20
6596.1888030000027
 30
0.0
 11
23498.281938817359
 21
6596.1888030000027
 31
0.0
  0
LINE
  5
134AE
  8
0-1
  6
CONTINUOUS
 62
     3
 10
20768.281938817359
 20
6531.1888360000003
 30
0.0
 11
23498.281938817359
 21
6531.1888360000003
 31
0.0
  0
LINE
  5
134AF
  8
0-1
  6
CONTINUOUS
 62
     3
 10
20768.281938817359
 20
6466.1883740000039
 30
0.0
 11
23498.281938817359
 21
6466.1883740000039
 31
0.0
  0
LINE
  5
134B0
  8
0-1
  6
CONTINUOUS
 62
     3
 10
20768.281938817359
 20
6401.1889020000071
 30
0.0
 11
23498.281938817359
 21
6401.1889020000071
 31
0.0
  0
LINE
  5
134B1
  8
0-1
  6
CONTINUOUS
 62
     3
 10
20768.281938817359
 20
6336.1889349999956
 30
0.0
 11
23498.281938817359
 21
6336.1889349999956
 31
0.0
  0
LINE
  5
134B2
  8
0-1
  6
CONTINUOUS
 62
     3
 10
20768.281938817359
 20
6271.1889680000004
 30
0.0
 11
23498.281938817359
 21
6271.1889680000004
 31
0.0
  0
LINE
  5
134B3
  8
0-1
  6
CONTINUOUS
 62
     3
 10
20768.281938817359
 20
6206.1885060000041
 30
0.0
 11
23498.281938817359
 21
6206.1885060000041
 31
0.0
  0
LINE
  5
134B4
  8
0-1
  6
CONTINUOUS
 62
     3
 10
20768.281938817359
 20
8026.1885719999982
 30
0.0
 11
23498.281938817359
 21
8026.1885719999982
 31
0.0
  0
LINE
  5
134B5
  8
0-1
  6
CONTINUOUS
 62
     3
 10
20768.281938817359
 20
7961.1886050000021
 30
0.0
 11
23498.281938817359
 21
7961.1886050000021
 31
0.0
  0
LINE
  5
134B6
  8
0-1
  6
CONTINUOUS
 62
     3
 10
20768.281938817359
 20
7896.1891330000062
 30
0.0
 11
23498.281938817359
 21
7896.1891330000062
 31
0.0
  0
LINE
  5
134B7
  8
0-1
  6
CONTINUOUS
 62
     3
 10
20768.281938817359
 20
7831.1891659999937
 30
0.0
 11
23498.281938817359
 21
7831.1891659999937
 31
0.0
  0
LINE
  5
134B8
  8
0-1
  6
CONTINUOUS
 62
     3
 10
20768.281938817359
 20
7766.1891989999967
 30
0.0
 11
23498.281938817359
 21
7766.1891989999967
 31
0.0
  0
LINE
  5
134B9
  8
0-1
  6
CONTINUOUS
 62
     3
 10
20768.281938817359
 20
7701.1887370000022
 30
0.0
 11
23498.281938817359
 21
7701.1887370000022
 31
0.0
  0
LINE
  5
134BA
  8
0-1
  6
CONTINUOUS
 62
     3
 10
20768.281938817359
 20
7636.1887699999979
 30
0.0
 11
23498.281938817359
 21
7636.1887699999979
 31
0.0
  0
LINE
  5
134BB
  8
0-1
  6
CONTINUOUS
 62
     3
 10
20768.281938817359
 20
7571.1892980000011
 30
0.0
 11
23498.281938817359
 21
7571.1892980000011
 31
0.0
  0
LINE
  5
134BC
  8
0-1
  6
CONTINUOUS
 62
     3
 10
20768.281938817359
 20
7506.1893309999978
 30
0.0
 11
23498.281938817359
 21
7506.1893309999978
 31
0.0
  0
LINE
  5
134BD
  8
0-1
  6
CONTINUOUS
 62
     3
 10
20768.281938817359
 20
7441.1888690000023
 30
0.0
 11
23498.281938817359
 21
7441.1888690000023
 31
0.0
  0
LINE
  5
134BE
  8
0-1
  6
CONTINUOUS
 62
     3
 10
20768.281938817359
 20
7376.188901999999
 30
0.0
 11
23498.281938817359
 21
7376.188901999999
 31
0.0
  0
LINE
  5
134BF
  8
0-1
  6
CONTINUOUS
 62
     3
 10
20768.281938817359
 20
7311.1889350000029
 30
0.0
 11
23498.281938817359
 21
7311.1889350000029
 31
0.0
  0
LINE
  5
134C0
  8
0-1
  6
CONTINUOUS
 62
     3
 10
20768.281938817359
 20
7246.1884730000029
 30
0.0
 11
23498.281938817359
 21
7246.1884730000029
 31
0.0
  0
LINE
  5
134C1
  8
0-1
  6
CONTINUOUS
 62
     3
 10
20768.281938817359
 20
7181.1885060000041
 30
0.0
 11
23498.281938817359
 21
7181.1885060000041
 31
0.0
  0
LINE
  5
134C2
  8
0-1
  6
CONTINUOUS
 62
     3
 10
20768.281938817359
 20
7116.1890340000009
 30
0.0
 11
23498.281938817359
 21
7116.1890340000009
 31
0.0
  0
LINE
  5
134C3
  8
0-1
  6
CONTINUOUS
 62
     3
 10
20768.281938817359
 20
7051.1890669999966
 30
0.0
 11
23498.281938817359
 21
7051.1890669999966
 31
0.0
  0
LINE
  5
134C4
  8
0-1
  6
CONTINUOUS
 62
     3
 10
20768.281938817359
 20
6986.1891000000032
 30
0.0
 11
23498.281938817359
 21
6986.1891000000032
 31
0.0
  0
LINE
  5
134C5
  8
0-1
  6
CONTINUOUS
 62
     3
 10
20768.281938817359
 20
6921.1886380000051
 30
0.0
 11
23498.281938817359
 21
6921.1886380000051
 31
0.0
  0
LINE
  5
134C6
  8
0-1
  6
CONTINUOUS
 62
     3
 10
20768.281938817359
 20
6856.1886710000017
 30
0.0
 11
23498.281938817359
 21
6856.1886710000017
 31
0.0
  0
LINE
  5
134C7
  8
0-1
  6
CONTINUOUS
 62
     3
 10
20768.281938817359
 20
6791.1891989999967
 30
0.0
 11
23498.281938817359
 21
6791.1891989999967
 31
0.0
  0
LINE
  5
134C8
  8
0-1
  6
CONTINUOUS
 62
     3
 10
20768.281938817359
 20
6726.1892320000024
 30
0.0
 11
23498.281938817359
 21
6726.1892320000024
 31
0.0
  0
LINE
  5
134C9
  8
0-1
  6
CONTINUOUS
 62
     3
 10
20768.281938817359
 20
8080.6485920000023
 30
0.0
 11
23498.281938817359
 21
8080.6485920000023
 31
0.0
  0
LINE
  5
134CA
  8
0-1
  6
CONTINUOUS
 62
     3
 10
20624.279299817372
 20
6141.1885390000007
 30
0.0
 11
29203.76031494257
 21
6141.1885390000007
 31
0.0
  0
LINE
  5
134CB
  8
0-1
  6
CONTINUOUS
 62
     3
 10
20742.781199817378
 20
8335.1891200000064
 30
0.0
 11
21020.21072981738
 21
8335.1891200000064
 31
0.0
  0
LINE
  5
134CC
  8
0-1
  6
CONTINUOUS
 62
     3
 10
20742.781199817378
 20
8377.1885650000022
 30
0.0
 11
21052.207667817391
 21
8377.1885650000022
 31
0.0
  0
LINE
  5
134CD
  8
0-1
  6
CONTINUOUS
 62
     3
 10
20737.78093681738
 20
8340.1888889999937
 30
0.0
 11
20737.78093681738
 21
8372.1892910000006
 31
0.0
  0
LINE
  5
134CE
  8
0-1
  6
CONTINUOUS
 62
     3
 10
20716.778243817389
 20
8386.1884470000077
 30
0.0
 11
23549.781674817361
 21
8386.1884470000077
 31
0.0
  0
LINE
  5
134CF
  8
0-1
  6
CONTINUOUS
 62
     3
 10
21023.744169817372
 20
8336.6529740000005
 30
0.0
 11
21055.745067817381
 21
8368.653376000002
 31
0.0
  0
LINE
  5
134D0
  8
0-1
  6
CONTINUOUS
 62
     3
 10
20737.78093681738
 20
8368.7889730000006
 30
0.0
 11
21055.87373581736
 21
8368.7889730000006
 31
0.0
  0
LINE
  5
134D1
  8
0-1
  6
CONTINUOUS
 62
     3
 10
20737.78093681738
 20
8360.3888860000006
 30
0.0
 11
21047.48057781739
 21
8360.3888860000006
 31
0.0
  0
LINE
  5
134D2
  8
0-1
  6
CONTINUOUS
 62
     3
 10
20737.78093681738
 20
8351.9892939999972
 30
0.0
 11
21039.081479817381
 21
8351.9892939999972
 31
0.0
  0
LINE
  5
134D3
  8
0-1
  6
CONTINUOUS
 62
     3
 10
20737.78093681738
 20
8343.5892070000027
 30
0.0
 11
21030.67842381739
 21
8343.5892070000027
 31
0.0
  0
LINE
  5
134D4
  8
0-1
  6
CONTINUOUS
 62
     3
 10
23528.78096281736
 20
8368.7889730000006
 30
0.0
 11
23210.688162817361
 21
8368.7889730000006
 31
0.0
  0
LINE
  5
134D5
  8
0-1
  6
CONTINUOUS
 62
     3
 10
23528.78096281736
 20
8360.3888860000006
 30
0.0
 11
23219.083300817379
 21
8360.3888860000006
 31
0.0
  0
LINE
  5
134D6
  8
0-1
  6
CONTINUOUS
 62
     3
 10
23528.78096281736
 20
8351.9892939999972
 30
0.0
 11
23227.482397817359
 21
8351.9892939999972
 31
0.0
  0
LINE
  5
134D7
  8
0-1
  6
CONTINUOUS
 62
     3
 10
23528.78096281736
 20
8343.5892070000027
 30
0.0
 11
23235.88149581735
 21
8343.5892070000027
 31
0.0
  0
LINE
  5
134D8
  8
0-1
  6
CONTINUOUS
 62
     3
 10
23523.780698817369
 20
8377.1885650000022
 30
0.0
 11
23214.35423081736
 21
8377.1885650000022
 31
0.0
  0
LINE
  5
134D9
  8
0-1
  6
CONTINUOUS
 62
     3
 10
23523.780698817369
 20
8335.1891200000064
 30
0.0
 11
23246.351169817361
 21
8335.1891200000064
 31
0.0
  0
LINE
  5
134DA
  8
0-1
  6
CONTINUOUS
 62
     3
 10
23528.78096281736
 20
8340.1888889999937
 30
0.0
 11
23528.78096281736
 21
8372.1892910000006
 31
0.0
  0
LINE
  5
134DB
  8
0-1
  6
CONTINUOUS
 62
     3
 10
23242.81574881736
 20
8336.6529740000005
 30
0.0
 11
23210.818810817382
 21
8368.653376000002
 31
0.0
  0
LINE
  5
134DC
  8
0-2
  6
CONTINUOUS
 62
     4
 10
22496.969979317371
 20
6888.415233000007
 30
0.0
 11
22396.970639317358
 21
6888.415233000007
 31
0.0
  0
LINE
  5
134DD
  8
0-2
  6
CONTINUOUS
 62
     4
 10
21769.585979317359
 20
6888.415233000007
 30
0.0
 11
21869.585319317372
 21
6888.415233000007
 31
0.0
  0
LINE
  5
134DE
  8
0-5
  6
CONTINUOUS
 62
     4
 10
23592.28193881737
 20
4461.1889349999938
 30
0.0
 11
23592.28193881737
 21
4301.1893970000001
 31
0.0
  0
LINE
  5
134DF
  8
0-5
  6
CONTINUOUS
 62
     4
 10
18452.40891881736
 20
6349.0350210000024
 30
0.0
 11
18572.40733481737
 21
6141.1885390000007
 31
0.0
  0
LINE
  5
134E0
  8
0-5
  6
CONTINUOUS
 62
     4
 10
18572.40733481737
 20
6141.1885390000007
 30
0.0
 11
18692.407730817369
 21
6349.0350210000024
 31
0.0
  0
LINE
  5
134E1
  8
0-5
  6
CONTINUOUS
 62
     4
 10
18692.407730817369
 20
6349.0350210000024
 30
0.0
 11
18452.40891881736
 21
6349.0350210000024
 31
0.0
  0
LINE
  5
134E2
  8
0-5
  6
CONTINUOUS
 62
     4
 10
20674.281938817359
 20
4461.1889349999938
 30
0.0
 11
20674.281938817359
 21
4301.1893970000001
 31
0.0
  0
LINE
  5
134E3
  8
2-0
  6
CENTER2
 62
     6
 10
23592.28193881737
 20
5878.536116000002
 30
0.0
 11
23592.28193881737
 21
6915.6791430000003
 31
0.0
  0
LINE
  5
134E4
  8
2-0
  6
CENTER2
 62
     6
 10
20674.281938817359
 20
5878.536116000002
 30
0.0
 11
20674.281938817359
 21
6915.6791430000003
 31
0.0
  0
ARC
  5
134E5
  8
0-1
  6
CONTINUOUS
 62
     3
 10
20742.781199817378
 20
8372.1892910000006
 30
0.0
 40
5.0
 50
90.0
 51
180.0
  0
ARC
  5
134E6
  8
0-1
  6
CONTINUOUS
 62
     3
 10
20742.781199817378
 20
8340.1888889999937
 30
0.0
 40
5.0
 50
180.0
 51
269.9999850001808
  0
ARC
  5
134E7
  8
0-1
  6
CONTINUOUS
 62
     3
 10
21020.21072981738
 20
8340.1888889999937
 30
0.0
 40
5.0
 50
269.9999850001808
 51
314.99998500027681
  0
ARC
  5
134E8
  8
0-1
  6
CONTINUOUS
 62
     3
 10
21052.207667817391
 20
8372.1892910000006
 30
0.0
 40
5.0
 50
314.99998500027681
 51
90.0
  0
ARC
  5
134E9
  8
0-1
  6
CONTINUOUS
 62
     3
 10
23523.780698817369
 20
8340.1888889999937
 30
0.0
 40
5.0
 50
269.9999850001808
 51
0.0
  0
ARC
  5
134EA
  8
0-1
  6
CONTINUOUS
 62
     3
 10
23523.780698817369
 20
8372.1892910000006
 30
0.0
 40
5.0
 50
0.0
 51
90.0
  0
ARC
  5
134EB
  8
0-1
  6
CONTINUOUS
 62
     3
 10
23214.35423081736
 20
8372.1892910000006
 30
0.0
 40
5.0
 50
90.0
 51
224.99998499997761
  0
ARC
  5
134EC
  8
0-1
  6
CONTINUOUS
 62
     3
 10
23246.351169817361
 20
8340.1888889999937
 30
0.0
 40
5.0
 50
224.99998499997761
 51
269.9999850001808
  0
CIRCLE
  5
134ED
  8
0-5
  6
CONTINUOUS
 62
     4
 10
23592.28193881737
 20
4101.1882420000011
 30
0.0
 40
199.9999949999999
  0
CIRCLE
  5
134EE
  8
0-5
  6
CONTINUOUS
 62
     4
 10
20674.281938817359
 20
4101.1882420000011
 30
0.0
 40
199.9999949999999
  0
TEXT
  5
134EF
  8
0-5
  6
CONTINUOUS
 62
     7
 10
23540.369063817361
 20
4011.7132600000009
 30
0.0
 40
160.0
  1
2
 72
     4
 11
23593.70239715069
 21
4091.7132600000009
 31
0.0
  0
TEXT
  5
134F0
  8
0-5
  6
CONTINUOUS
 62
     7
 10
20064.281411817381
 20
6988.0104361594431
 30
0.0
 40
160.0
  1
(2131.5)
 50
90.0
 72
     4
 11
19984.281411817381
 21
7441.3437694927761
 31
0.0
  0
TEXT
  5
134F1
  8
0-5
  6
CONTINUOUS
 62
     7
 10
18452.40891881736
 20
6429.0347900000024
 30
0.0
 40
160.0
  1
G.L
 72
     4
 11
18612.40891881736
 21
6509.0347900000043
 31
0.0
  0
TEXT
  5
134F2
  8
0-5
  6
CONTINUOUS
 62
     7
 10
20622.369064817369
 20
4011.7132600000009
 30
0.0
 40
160.0
  1
1
 72
     4
 11
20649.03573148404
 21
4091.7132600000009
 31
0.0
  0
CIRCLE
  5
134F3
  8
0-4
  6
CONTINUOUS
 62
     4
 10
22133.27995931737
 20
6627.2449749999987
 30
0.0
 40
18.487504999999981
  0
LINE
  5
134F4
  8
1-前柱カバ-P
 10
28549.78193881737
 20
8459.6884660000014
 30
0.0
 11
28549.78193881737
 21
6141.1885390000007
 31
0.0
  0
LINE
  5
134F5
  8
1-前柱カバ-P
 10
28634.78193881737
 20
8589.6883999999973
 30
0.0
 11
28634.78193881737
 21
6141.1885390000007
 31
0.0
  0
LINE
  5
134F6
  8
0-1
  6
CONTINUOUS
 62
     3
 10
28677.78193881737
 20
8459.6884660000087
 30
0.0
 11
23549.781674817361
 21
8459.6884660000014
 31
0.0
  0
LINE
  5
134F7
  8
0-1
  6
CONTINUOUS
 62
     3
 10
23614.783126817361
 20
8589.6883999999973
 30
0.0
 11
28677.78193881737
 21
8589.6883999999973
 31
0.0
  0
LINE
  5
134F8
  8
0-1
  6
CONTINUOUS
 62
     3
 10
28677.78193881737
 20
8264.0026620000026
 30
0.0
 11
28677.78193881737
 21
8589.6883999999973
 31
0.0
  0
LINE
  5
134F9
  8
0-1
  6
CONTINUOUS
 62
     3
 10
28677.78193881737
 20
8264.0026620000026
 30
0.0
 11
28634.78193881737
 21
8264.0026620000026
 31
0.0
  0
LINE
  5
134FA
  8
2-0
  6
CENTER2
 62
     6
 10
28592.281938817381
 20
5878.536116000002
 30
0.0
 11
28592.281938817381
 21
6915.6791430000003
 31
0.0
  0
LINE
  5
134FB
  8
1-桁前P28
 10
28549.78193881737
 20
8262.0026620000026
 30
0.0
 11
23634.78193881737
 21
8262.0026620000026
 31
0.0
  0
LINE
  5
134FC
  8
0-5
  6
CONTINUOUS
 62
     4
 10
28592.281938817381
 20
4461.1889349999938
 30
0.0
 11
28592.281938817381
 21
4301.1893970000001
 31
0.0
  0
CIRCLE
  5
134FD
  8
0-5
  6
CONTINUOUS
 62
     4
 10
28592.281938817381
 20
4101.1882420000011
 30
0.0
 40
199.9999949999999
  0
TEXT
  5
134FE
  8
0-5
  6
CONTINUOUS
 62
     7
 10
28540.369063817379
 20
4011.7132600000009
 30
0.0
 40
160.0
  1
3
 72
     4
 11
28593.702397150711
 21
4091.7132600000009
 31
0.0
  0
TEXT
  5
134FF
  8
0-5
  6
CONTINUOUS
 62
     7
 10
30084.607109111759
 20
7249.4069272529232
 30
0.0
 40
160.0
  1
(2260）
 50
90.0
 72
     4
 11
30004.607109111759
 21
7641.4069272529223
 31
0.0
  0
LINE
  5
13500
  8
0-1
  6
CONTINUOUS
 62
     3
 10
7345.9314723923544
 20
18636.061171321009
 30
0.0
 11
7345.9314723923544
 21
19461.985685
 31
0.0
  0
LINE
  5
13501
  8
0-1
  6
CONTINUOUS
 62
     3
 10
7382.9326333923427
 20
18620.741786037201
 30
0.0
 11
7382.9326333923427
 21
19461.985685
 31
0.0
  0
LINE
  5
13502
  8
0-1
  6
CONTINUOUS
 62
     3
 10
7545.9311423923418
 20
18553.256418211698
 30
0.0
 11
7545.9311423923482
 21
19461.985685
 31
0.0
  0
LINE
  5
13503
  8
0-1
  6
CONTINUOUS
 62
     3
 10
7582.9303233923529
 20
18537.937852696319
 30
0.0
 11
7582.9303233923529
 21
19461.985685
 31
0.0
  0
LINE
  5
13504
  8
0-1
  6
CONTINUOUS
 62
     3
 10
7745.9318013923512
 20
18470.45125563223
 30
0.0
 11
7745.9318013923512
 21
19461.985685
 31
0.0
  0
LINE
  5
13505
  8
0-1
  6
CONTINUOUS
 62
     3
 10
7782.9319733923503
 20
18455.132279818601
 30
0.0
 11
7782.9319733923503
 21
19461.985685
 31
0.0
  0
LINE
  5
13506
  8
0-1
  6
CONTINUOUS
 62
     3
 10
7945.931472392349
 20
18387.646502108881
 30
0.0
 11
7945.931472392349
 21
19461.985685
 31
0.0
  0
LINE
  5
13507
  8
0-1
  6
CONTINUOUS
 62
     3
 10
7982.9326333923427
 20
18372.327116825101
 30
0.0
 11
7982.9326333923427
 21
19461.985685
 31
0.0
  0
LINE
  5
13508
  8
0-1
  6
CONTINUOUS
 62
     3
 10
6745.9314723923544
 20
18884.475840533141
 30
0.0
 11
6745.9314723923544
 21
19461.985685
 31
0.0
  0
LINE
  5
13509
  8
0-1
  6
CONTINUOUS
 62
     3
 10
6782.93263339234
 20
18869.15645524934
 30
0.0
 11
6782.93263339234
 21
19461.985685
 31
0.0
  0
LINE
  5
1350A
  8
0-1
  6
CONTINUOUS
 62
     3
 10
6945.9311423923464
 20
18801.671087423831
 30
0.0
 11
6945.9311423923464
 21
19461.985685
 31
0.0
  0
LINE
  5
1350B
  8
0-1
  6
CONTINUOUS
 62
     3
 10
6982.930323392352
 20
18786.35252190844
 30
0.0
 11
6982.930323392352
 21
19461.985685
 31
0.0
  0
LINE
  5
1350C
  8
0-1
  6
CONTINUOUS
 62
     3
 10
7145.9318013923503
 20
18718.865924844351
 30
0.0
 11
7145.9318013923503
 21
19461.985685
 31
0.0
  0
LINE
  5
1350D
  8
0-1
  6
CONTINUOUS
 62
     3
 10
7182.9319733923512
 20
18703.546949030719
 30
0.0
 11
7182.9319733923512
 21
19461.985685
 31
0.0
  0
LINE
  5
1350E
  8
0-1
  6
CONTINUOUS
 62
     3
 10
6566.4285563923304
 20
19509.98900999999
 30
0.0
 11
14502.42950639234
 21
19509.98900999999
 31
0.0
  0
LINE
  5
1350F
  8
0-1
  6
CONTINUOUS
 62
     3
 10
6510.9287933923306
 20
19461.985685
 30
0.0
 11
14557.93025839234
 21
19461.985685
 31
0.0
  0
LINE
  5
13510
  8
0-6
  6
CONTINUOUS
 62
     6
 10
10464.3554997633
 20
19652.391617999991
 30
0.0
 11
10421.05353076328
 21
19627.390297999991
 31
0.0
  0
LINE
  5
13511
  8
0-6
  6
CONTINUOUS
 62
     6
 10
10464.3554997633
 20
19652.391617999991
 30
0.0
 11
10517.7035257633
 21
19509.98900999999
 31
0.0
  0
LINE
  5
13512
  8
0-6
  6
CONTINUOUS
 62
     6
 10
10421.05353076328
 20
19627.390297999991
 30
0.0
 11
10464.3554997633
 21
19652.391617999991
 31
0.0
  0
LINE
  5
13513
  8
0-6
  6
CONTINUOUS
 62
     6
 10
10517.7035257633
 20
19509.98900999999
 30
0.0
 11
10421.05353076328
 21
19627.390297999991
 31
0.0
  0
LINE
  5
13514
  8
0-6
  6
CONTINUOUS
 62
     6
 10
10517.7035257633
 20
19509.98900999999
 30
0.0
 11
10464.3554997633
 21
19652.391617999991
 31
0.0
  0
LINE
  5
13515
  8
0-6
  6
CONTINUOUS
 62
     6
 10
10421.05353076328
 20
19627.390297999991
 30
0.0
 11
10517.7035257633
 21
19509.98900999999
 31
0.0
  0
LINE
  5
13516
  8
0-6
  6
CONTINUOUS
 62
     6
 10
10442.7055047633
 20
19639.892938000001
 30
0.0
 11
10217.1196880936
 21
20063.562777731098
 31
0.0
  0
TEXT
  5
13517
  8
0-6
  6
CONTINUOUS
 62
     7
 10
10043.448484763299
 20
20619.988217999999
 30
0.0
 40
160.0
  1
鼻隠し後
 72
     4
 11
10406.115151429971
 21
20699.988217999999
 31
0.0
  0
LINE
  5
13518
  8
0-6
  6
CONTINUOUS
 62
     6
 10
9963.4462407633091
 20
20539.987954
 30
0.0
 11
10805.8857997633
 21
20539.987954
 31
0.0
  0
LINE
  5
13519
  8
0-6
  6
CONTINUOUS
 62
     6
 10
10149.085829041091
 20
20191.337456683399
 30
0.0
 11
9963.4462407633091
 21
20539.987954
 31
0.0
  0
LINE
  5
1351A
  8
0-1
  6
CONTINUOUS
 62
     3
 10
11345.938731392451
 20
16982.005900607772
 30
0.0
 11
11345.938731392451
 21
19461.985685
 31
0.0
  0
LINE
  5
1351B
  8
0-1
  6
CONTINUOUS
 62
     3
 10
11382.938903392451
 20
16966.739348707219
 30
0.0
 11
11382.938903392451
 21
19461.985685
 31
0.0
  0
LINE
  5
1351C
  8
0-1
  6
CONTINUOUS
 62
     3
 10
11545.93939139245
 20
16899.484109735109
 30
0.0
 11
11545.93939139245
 21
19461.985685
 31
0.0
  0
LINE
  5
1351D
  8
0-1
  6
CONTINUOUS
 62
     3
 10
11582.939563392451
 20
16884.217557834541
 30
0.0
 11
11582.939563392451
 21
19461.985685
 31
0.0
  0
LINE
  5
1351E
  8
0-1
  6
CONTINUOUS
 62
     3
 10
11745.940051392459
 20
16816.962318862439
 30
0.0
 11
11745.940051392459
 21
19461.985685
 31
0.0
  0
LINE
  5
1351F
  8
0-1
  6
CONTINUOUS
 62
     3
 10
11782.94022339247
 20
16801.695766961871
 30
0.0
 11
11782.94022339247
 21
19461.985685
 31
0.0
  0
LINE
  5
13520
  8
0-1
  6
CONTINUOUS
 62
     3
 10
11945.94071139247
 20
16734.44052798978
 30
0.0
 11
11945.94071139247
 21
19461.985685
 31
0.0
  0
LINE
  5
13521
  8
0-1
  6
CONTINUOUS
 62
     3
 10
11982.940883392481
 20
16719.173976089201
 30
0.0
 11
11982.940883392481
 21
19461.985685
 31
0.0
  0
LINE
  5
13522
  8
0-1
  6
CONTINUOUS
 62
     3
 10
12145.941371392481
 20
16651.91873711711
 30
0.0
 11
12145.941371392481
 21
19461.985685
 31
0.0
  0
LINE
  5
13523
  8
0-1
  6
CONTINUOUS
 62
     3
 10
12182.941543392481
 20
16636.652185216539
 30
0.0
 11
12182.941543392481
 21
19461.985685
 31
0.0
  0
LINE
  5
13524
  8
0-1
  6
CONTINUOUS
 62
     3
 10
12345.94203139248
 20
16569.396946244451
 30
0.0
 11
12345.94203139248
 21
19461.985685
 31
0.0
  0
LINE
  5
13525
  8
0-1
  6
CONTINUOUS
 62
     3
 10
12382.9422033925
 20
16554.13039434388
 30
0.0
 11
12382.9422033925
 21
19461.985685
 31
0.0
  0
LINE
  5
13526
  8
0-1
  6
CONTINUOUS
 62
     3
 10
12545.942691392491
 20
16486.875155371781
 30
0.0
 11
12545.942691392491
 21
19461.985685
 31
0.0
  0
LINE
  5
13527
  8
0-1
  6
CONTINUOUS
 62
     3
 10
12582.942863392511
 20
16471.60860347121
 30
0.0
 11
12582.942863392511
 21
19461.985685
 31
0.0
  0
LINE
  5
13528
  8
0-1
  6
CONTINUOUS
 62
     3
 10
12745.943351392511
 20
16404.353364499111
 30
0.0
 11
12745.943351392511
 21
19461.985685
 31
0.0
  0
LINE
  5
13529
  8
0-1
  6
CONTINUOUS
 62
     3
 10
12782.94352339252
 20
16389.08681259854
 30
0.0
 11
12782.94352339252
 21
19461.985685
 31
0.0
  0
LINE
  5
1352A
  8
0-1
  6
CONTINUOUS
 62
     3
 10
12945.944011392519
 20
16321.831573626439
 30
0.0
 11
12945.944011392519
 21
19461.985685
 31
0.0
  0
LINE
  5
1352B
  8
0-1
  6
CONTINUOUS
 62
     3
 10
12982.94418339251
 20
16306.565021725881
 30
0.0
 11
12982.94418339251
 21
19461.985685
 31
0.0
  0
LINE
  5
1352C
  8
0-1
  6
CONTINUOUS
 62
     3
 10
13145.94467139253
 20
16239.30978275376
 30
0.0
 11
13145.94467139253
 21
19461.985685
 31
0.0
  0
LINE
  5
1352D
  8
0-1
  6
CONTINUOUS
 62
     3
 10
13182.94484339253
 20
16224.043230853211
 30
0.0
 11
13182.94484339253
 21
19461.985685
 31
0.0
  0
LINE
  5
1352E
  8
0-1
  6
CONTINUOUS
 62
     3
 10
13345.94533139253
 20
16156.78799188111
 30
0.0
 11
13345.94533139253
 21
19461.985685
 31
0.0
  0
LINE
  5
1352F
  8
0-1
  6
CONTINUOUS
 62
     3
 10
13382.945503392541
 20
16141.521439980541
 30
0.0
 11
13382.945503392541
 21
19461.985685
 31
0.0
  0
LINE
  5
13530
  8
0-1
  6
CONTINUOUS
 62
     3
 10
13545.94599139254
 20
16074.26620100843
 30
0.0
 11
13545.94599139254
 21
19461.985685
 31
0.0
  0
LINE
  5
13531
  8
0-1
  6
CONTINUOUS
 62
     3
 10
13582.946163392549
 20
16058.99964910786
 30
0.0
 11
13582.946163392549
 21
19461.985685
 31
0.0
  0
LINE
  5
13532
  8
0-1
  6
CONTINUOUS
 62
     3
 10
13745.946651392551
 20
15991.744410135771
 30
0.0
 11
13745.946651392551
 21
19461.985685
 31
0.0
  0
LINE
  5
13533
  8
0-1
  6
CONTINUOUS
 62
     3
 10
13782.946823392551
 20
15976.477858235199
 30
0.0
 11
13782.946823392551
 21
19461.985685
 31
0.0
  0
LINE
  5
13534
  8
0-1
  6
CONTINUOUS
 62
     3
 10
13945.947311392551
 20
15909.222619263101
 30
0.0
 11
13945.947311392551
 21
19461.985685
 31
0.0
  0
LINE
  5
13535
  8
0-1
  6
CONTINUOUS
 62
     3
 10
13982.947483392571
 20
15893.95606736254
 30
0.0
 11
13982.947483392571
 21
19461.985685
 31
0.0
  0
LINE
  5
13536
  8
0-1
  6
CONTINUOUS
 62
     3
 10
14145.947971392559
 20
15826.700828390431
 30
0.0
 11
14145.947971392559
 21
19461.985685
 31
0.0
  0
LINE
  5
13537
  8
0-1
  6
CONTINUOUS
 62
     3
 10
14182.948143392579
 20
15811.434276489859
 30
0.0
 11
14182.948143392579
 21
19461.985685
 31
0.0
  0
LINE
  5
13538
  8
0-1
  6
CONTINUOUS
 62
     3
 10
14345.948631392581
 20
15744.179037517761
 30
0.0
 11
14345.948631392581
 21
19461.985685
 31
0.0
  0
LINE
  5
13539
  8
0-1
  6
CONTINUOUS
 62
     3
 10
14382.94880339259
 20
15728.9124856172
 30
0.0
 11
14382.94880339259
 21
19461.985685
 31
0.0
  0
LINE
  5
1353A
  8
0-1
  6
CONTINUOUS
 62
     3
 10
9552.9303893923498
 20
13811.985710999999
 30
0.0
 11
11801.93038939233
 21
16729.985711000001
 31
0.0
  0
LINE
  5
1353B
  8
2-0
  6
DASHED3
 62
     6
 10
13660.96745047112
 20
16026.807473662449
 30
0.0
 11
14202.93038939235
 21
16729.985711000001
 31
0.0
  0
LINE
  5
1353C
  8
0-1
  6
CONTINUOUS
 62
     3
 10
11801.93038939235
 20
13811.985710999999
 30
0.0
 11
9552.9303893923498
 21
16729.985711000001
 31
0.0
  0
LINE
  5
1353D
  8
2-0
  6
DASHED3
 62
     6
 10
9552.9303893923498
 20
19295.703218508079
 30
0.0
 11
11740.554139774271
 21
16819.184586890031
 31
0.0
  0
LINE
  5
1353E
  8
2-0
  6
DASHED3
 62
     6
 10
11801.93038939233
 20
19295.703218508079
 30
0.0
 11
10247.091340001591
 21
17521.9025202515
 31
0.0
  0
LINE
  5
1353F
  8
0-1
  6
CONTINUOUS
 62
     3
 10
10247.091340001591
 20
17521.9025202515
 30
0.0
 11
9552.9303893923498
 21
16729.985711000001
 31
0.0
  0
LINE
  5
13540
  8
0-1
  6
CONTINUOUS
 62
     3
 10
11801.93038939233
 20
16729.985711000001
 30
0.0
 11
11740.554139774271
 21
16819.184586890031
 31
0.0
  0
LINE
  5
13541
  8
2-0
  6
DASHED3
 62
     6
 10
11953.93038939235
 20
19295.703218508079
 30
0.0
 11
14202.93038939235
 21
16729.985711000001
 31
0.0
  0
LINE
  5
13542
  8
2-0
  6
DASHED3
 62
     6
 10
14202.93038939233
 20
19295.703218508079
 30
0.0
 11
11953.93038939235
 21
16729.985711000001
 31
0.0
  0
LINE
  5
13543
  8
0-1
  6
CONTINUOUS
 62
     3
 10
11953.93038939235
 20
13811.985710999999
 30
0.0
 11
13660.96745047112
 21
16026.807473662449
 31
0.0
  0
LINE
  5
13544
  8
0-1
  6
CONTINUOUS
 62
     3
 10
14202.93038939235
 20
13811.985710999999
 30
0.0
 11
11953.93038939235
 21
16729.985711000001
 31
0.0
  0
LINE
  5
13545
  8
0-6
  6
CONTINUOUS
 62
     6
 10
15019.53823863093
 20
13699.21626313892
 30
0.0
 11
17660.782705539681
 21
13699.21626313892
 31
0.0
  0
TEXT
  5
13546
  8
0-6
  6
CONTINUOUS
 62
     7
 10
15091.136606980939
 20
13779.216527138909
 30
0.0
 40
160.0
  1
桁前（PU）+ 桁補強（PU）
 72
     4
 11
16339.136606980939
 21
13859.216527138909
 31
0.0
  0
LINE
  5
13547
  8
0-6
  6
CONTINUOUS
 62
     6
 10
15019.53823863093
 20
13699.21626313892
 30
0.0
 11
13574.16680800884
 21
13273.28637377761
 31
0.0
  0
LINE
  5
13548
  8
0-6
  6
CONTINUOUS
 62
     6
 10
13574.16680800884
 20
13273.28637377761
 30
0.0
 11
13197.224344513301
 21
13775.48635799994
 31
0.0
  0
LINE
  5
13549
  8
0-6
  6
CONTINUOUS
 62
     6
 10
15139.872967203321
 20
16650.257437065851
 30
0.0
 11
17620.18427064463
 21
16650.257437065851
 31
0.0
  0
TEXT
  5
1354A
  8
0-6
  6
CONTINUOUS
 62
     7
 10
15232.38318118901
 20
16730.257701065839
 30
0.0
 40
160.0
  1
桁（PU）+ 桁補強（PU）
 72
     4
 11
16384.383181189009
 21
16810.257701065839
 31
0.0
  0
LINE
  5
1354B
  8
0-6
  6
CONTINUOUS
 62
     6
 10
15139.872967203321
 20
16650.257437065851
 30
0.0
 11
13694.501536581251
 21
16224.327547704541
 31
0.0
  0
LINE
  5
1354C
  8
0-6
  6
CONTINUOUS
 62
     6
 10
13694.501536581251
 20
16224.327547704541
 30
0.0
 11
13317.5590730857
 21
16726.52753192688
 31
0.0
  0
LINE
  5
1354D
  8
0-6
  6
CONTINUOUS
 62
     6
 10
15139.872967203321
 20
19182.217120138921
 30
0.0
 11
17620.18427064463
 21
19182.217120138921
 31
0.0
  0
TEXT
  5
1354E
  8
0-6
  6
CONTINUOUS
 62
     7
 10
15232.38318118903
 20
19262.217384138909
 30
0.0
 40
160.0
  1
桁（PU）+ 桁補強（PU）
 72
     4
 11
16384.38318118903
 21
19342.217384138909
 31
0.0
  0
LINE
  5
1354F
  8
0-6
  6
CONTINUOUS
 62
     6
 10
15139.872967203321
 20
19182.217120138921
 30
0.0
 11
13694.501536581251
 21
18756.287230777609
 31
0.0
  0
LINE
  5
13550
  8
0-6
  6
CONTINUOUS
 62
     6
 10
13694.501536581251
 20
18756.287230777609
 30
0.0
 11
13317.5590730857
 21
19258.48721499995
 31
0.0
  0
TEXT
  5
13551
  8
0-6
  6
CONTINUOUS
 62
     7
 10
13248.45268057563
 20
15261.37712084874
 30
0.0
 40
160.0
  1
梁（P）前
 72
     4
 11
13691.1193472423
 21
15341.37712084874
 31
0.0
  0
LINE
  5
13552
  8
0-6
  6
CONTINUOUS
 62
     6
 10
13184.2549923936
 20
15181.377846848731
 30
0.0
 11
14199.245161718451
 21
15181.377846848731
 31
0.0
  0
LINE
  5
13555
  8
WAKUSEN-01
 10
868.00000000000193
 20
22484.000000000011
 30
0.0
 11
32764.000000000011
 21
22484.000000000011
 31
0.0
  0
LINE
  5
13558
  8
WAKUSEN-01
 10
20560.0
 20
2484.0
 30
0.0
 11
32764.0
 21
2484.0
 31
0.0
  0
LINE
  5
13559
  8
WAKUSEN-02
 10
20560.0
 20
1655.9999999999991
 30
0.0
 11
26868.0
 21
1655.9999999999991
 31
0.0
  0
TEXT
  5
1355A
  8
WAKUMOJI-01
 10
20670.260259962761
 20
2125.9030093393221
 30
0.0
 40
240.0
  1
名　称
  7
WAKUMOJI
  0
TEXT
  5
1355B
  8
WAKUMOJI-01
 10
20656.505485091919
 20
1319.12897497982
 30
0.0
 40
240.0
  1
機種名
  7
WAKUMOJI
  0
LINE
  5
1355E
  8
YODOROGO
 10
29977.604341291921
 20
1995.7494964292871
 30
0.0
 11
29829.604341291921
 21
1995.7494964292871
 31
0.0
1001
AUTOCAD_POSTSCRIPT_FIGURE
1002
{
1000
PSFILL
1000
Grayscale
1000
Grayscale
1070
    25
1002
}
  0
LINE
  5
1355F
  8
YODOROGO
 10
29829.604341291921
 20
1947.749496429288
 30
0.0
 11
29977.604341291921
 21
1947.749496429288
 31
0.0
1001
AUTOCAD_POSTSCRIPT_FIGURE
1002
{
1000
PSFILL
1000
Grayscale
1000
Grayscale
1070
    25
1002
}
  0
LINE
  5
13560
  8
YODOROGO
 10
29977.604341291921
 20
1907.7494964292871
 30
0.0
 11
29829.604341291921
 21
1907.7494964292871
 31
0.0
1001
AUTOCAD_POSTSCRIPT_FIGURE
1002
{
1000
PSFILL
1000
Grayscale
1000
Grayscale
1070
    25
1002
}
  0
LINE
  5
13561
  8
YODOROGO
 10
29829.604341291921
 20
1859.749496429288
 30
0.0
 11
29977.604341291921
 21
1859.749496429288
 31
0.0
1001
AUTOCAD_POSTSCRIPT_FIGURE
1002
{
1000
PSFILL
1000
Grayscale
1000
Grayscale
1070
    25
1002
}
  0
LINE
  5
13562
  8
YODOROGO
 10
29977.604341291921
 20
1819.7494964292871
 30
0.0
 11
29829.604341291921
 21
1819.7494964292871
 31
0.0
1001
AUTOCAD_POSTSCRIPT_FIGURE
1002
{
1000
PSFILL
1000
Grayscale
1000
Grayscale
1070
    25
1002
}
  0
LINE
  5
13563
  8
YODOROGO
 10
29921.60434129191
 20
1707.749496429288
 30
0.0
 11
29977.604341291921
 21
1707.749496429288
 31
0.0
1001
AUTOCAD_POSTSCRIPT_FIGURE
1002
{
1000
PSFILL
1000
Grayscale
1000
Grayscale
1070
    25
1002
}
  0
LINE
  5
13564
  8
YODOROGO
 10
29737.604341291921
 20
1427.749496429288
 30
0.0
 11
29937.604341291932
 21
1481.3393349155101
 31
0.0
  0
LINE
  5
13565
  8
YODOROGO
 10
29949.60434129191
 20
1707.749496429288
 30
0.0
 11
29885.604341291921
 21
1707.749496429288
 31
0.0
  0
ARC
  5
13566
  8
YODOROGO
 10
30254.34774982791
 20
1807.864609233261
 30
0.0
 40
381.88686420564721
 50
213.96111677667841
 51
264.47872074317792
  0
ARC
  5
13567
  8
YODOROGO
 10
30254.347749827921
 20
1807.864609233302
 30
0.0
 40
381.8868642056816
 50
208.14114420486601
 51
212.9210361185994
  0
LINE
  5
13568
  8
YODOROGO
 10
29771.409872985321
 20
1556.807661346234
 30
0.0
 11
29933.78413250855
 21
1600.3157130570869
 31
0.0
  0
LINE
  5
13569
  8
YODOROGO
 10
29737.604341291921
 20
1427.749496429288
 30
0.0
 11
29937.604341291932
 21
1481.3393349155101
 31
0.0
  0
LINE
  5
1356A
  8
YODOROGO
 10
29949.60434129191
 20
1707.749496429288
 30
0.0
 11
29885.604341291921
 21
1707.749496429288
 31
0.0
  0
ARC
  5
1356B
  8
YODOROGO
 10
30254.34774982791
 20
1807.864609233261
 30
0.0
 40
381.88686420564721
 50
213.96111677667841
 51
264.47872074317792
  0
LINE
  5
1356C
  8
YODOROGO
 10
28793.60434129191
 20
1819.7494964292871
 30
0.0
 11
28433.60434129191
 21
1819.7494964292871
 31
0.0
  0
LINE
  5
1356D
  8
YODOROGO
 10
28513.60434129191
 20
1427.749496429288
 30
0.0
 11
28793.60434129191
 21
1427.749496429288
 31
0.0
  0
LINE
  5
1356E
  8
YODOROGO
 10
28729.604341291921
 20
1923.7494964292871
 30
0.0
 11
28497.60434129191
 21
1923.7494964292871
 31
0.0
  0
LINE
  5
1356F
  8
YODOROGO
 10
28585.604341291921
 20
2027.749496429288
 30
0.0
 11
28657.604341291921
 21
2027.749496429288
 31
0.0
  0
LINE
  5
13570
  8
YODOROGO
 10
28433.60434129191
 20
1707.749496429288
 30
0.0
 11
28433.60434129191
 21
1507.749496429288
 31
0.0
  0
LINE
  5
13571
  8
YODOROGO
 10
28497.60434129191
 20
1563.7494964292871
 30
0.0
 11
28497.60434129191
 21
1707.749496429288
 31
0.0
  0
LINE
  5
13572
  8
YODOROGO
 10
28585.604341291921
 20
1747.74949642929
 30
0.0
 11
28585.604341291921
 21
1547.749496429288
 31
0.0
  0
LINE
  5
13573
  8
YODOROGO
 10
27857.604341291921
 20
1683.749496429288
 30
0.0
 11
27777.604341291921
 21
1619.9724140445701
 31
0.0
  0
LINE
  5
13574
  8
YODOROGO
 10
27937.604341291921
 20
1619.9724140445701
 30
0.0
 11
27857.604341291921
 21
1683.749496429288
 31
0.0
  0
LINE
  5
13575
  8
YODOROGO
 10
27857.604341291921
 20
1707.749496429288
 30
0.0
 11
27937.604341291921
 21
1643.9724140445701
 31
0.0
  0
LINE
  5
13576
  8
YODOROGO
 10
27777.604341291921
 20
1643.9724140445701
 30
0.0
 11
27857.604341291921
 21
1707.749496429288
 31
0.0
  0
LINE
  5
13577
  8
YODOROGO
 10
28040.913204016892
 20
1659.749496429288
 30
0.0
 11
28040.913204016892
 21
1683.7494964292871
 31
0.0
  0
LINE
  5
13578
  8
YODOROGO
 10
27977.604341291921
 20
1683.7494964292871
 30
0.0
 11
27977.604341291921
 21
1667.749496429285
 31
0.0
  0
LINE
  5
13579
  8
YODOROGO
 10
28098.135520230931
 20
1707.749496429288
 30
0.0
 11
28098.135520230931
 21
1655.5036372746561
 31
0.0
1001
AUTOCAD_POSTSCRIPT_FIGURE
1002
{
1000
PSFILL
1000
Grayscale
1000
Grayscale
1070
   100
1002
}
  0
LINE
  5
1357A
  8
YODOROGO
 10
28082.135520230921
 20
1655.5036372746561
 30
0.0
 11
28082.135520230921
 21
1707.749496429288
 31
0.0
1001
AUTOCAD_POSTSCRIPT_FIGURE
1002
{
1000
PSFILL
1000
Grayscale
1000
Grayscale
1070
   100
1002
}
  0
LINE
  5
1357B
  8
YODOROGO
 10
27809.604341291921
 20
1608.771904043258
 30
0.0
 11
27809.604341291921
 21
1632.771904043258
 31
0.0
  0
LINE
  5
1357C
  8
YODOROGO
 10
27905.604341291921
 20
1608.771904043258
 30
0.0
 11
27809.604341291921
 21
1608.771904043258
 31
0.0
  0
LINE
  5
1357D
  8
YODOROGO
 10
27905.604341291921
 20
1632.771904043258
 30
0.0
 11
27905.604341291921
 21
1608.771904043258
 31
0.0
  0
LINE
  5
1357E
  8
YODOROGO
 10
27809.604341291921
 20
1632.771904043258
 30
0.0
 11
27905.604341291921
 21
1632.771904043258
 31
0.0
  0
LINE
  5
1357F
  8
YODOROGO
 10
27824.509588915738
 20
1568.5028573704751
 30
0.0
 11
27785.604341291921
 21
1475.7494964292871
 31
0.0
1001
AUTOCAD_POSTSCRIPT_FIGURE
1002
{
1000
PSFILL
1000
Grayscale
1000
Grayscale
1070
   100
1002
}
  0
LINE
  5
13580
  8
YODOROGO
 10
27777.604341291921
 20
1568.5028573704751
 30
0.0
 11
27824.509588915738
 21
1568.5028573704751
 31
0.0
1001
AUTOCAD_POSTSCRIPT_FIGURE
1002
{
1000
PSFILL
1000
Grayscale
1000
Grayscale
1070
   100
1002
}
  0
LINE
  5
13581
  8
YODOROGO
 10
27777.604341291921
 20
1588.5028573704751
 30
0.0
 11
27777.604341291921
 21
1568.5028573704751
 31
0.0
1001
AUTOCAD_POSTSCRIPT_FIGURE
1002
{
1000
PSFILL
1000
Grayscale
1000
Grayscale
1070
   100
1002
}
  0
LINE
  5
13582
  8
YODOROGO
 10
27937.604341291921
 20
1588.5028573704751
 30
0.0
 11
27777.604341291921
 21
1588.5028573704751
 31
0.0
1001
AUTOCAD_POSTSCRIPT_FIGURE
1002
{
1000
PSFILL
1000
Grayscale
1000
Grayscale
1070
   100
1002
}
  0
LINE
  5
13583
  8
YODOROGO
 10
27937.604341291921
 20
1568.5028573704751
 30
0.0
 11
27937.604341291921
 21
1588.5028573704751
 31
0.0
1001
AUTOCAD_POSTSCRIPT_FIGURE
1002
{
1000
PSFILL
1000
Grayscale
1000
Grayscale
1070
   100
1002
}
  0
LINE
  5
13584
  8
YODOROGO
 10
27844.509588915738
 20
1568.5028573704751
 30
0.0
 11
27937.604341291921
 21
1568.5028573704751
 31
0.0
1001
AUTOCAD_POSTSCRIPT_FIGURE
1002
{
1000
PSFILL
1000
Grayscale
1000
Grayscale
1070
   100
1002
}
  0
LINE
  5
13585
  8
YODOROGO
 10
27815.546718284771
 20
1495.7494964292871
 30
0.0
 11
27844.509588915738
 21
1568.5028573704751
 31
0.0
1001
AUTOCAD_POSTSCRIPT_FIGURE
1002
{
1000
PSFILL
1000
Grayscale
1000
Grayscale
1070
   100
1002
}
  0
LINE
  5
13586
  8
YODOROGO
 10
27902.054790808648
 20
1495.7494964292871
 30
0.0
 11
27815.546718284771
 21
1495.7494964292871
 31
0.0
1001
AUTOCAD_POSTSCRIPT_FIGURE
1002
{
1000
PSFILL
1000
Grayscale
1000
Grayscale
1070
   100
1002
}
  0
LINE
  5
13587
  8
YODOROGO
 10
27885.065004790951
 20
1536.2338106976929
 30
0.0
 11
27902.054790808648
 21
1495.7494964292871
 31
0.0
1001
AUTOCAD_POSTSCRIPT_FIGURE
1002
{
1000
PSFILL
1000
Grayscale
1000
Grayscale
1070
   100
1002
}
  0
LINE
  5
13588
  8
YODOROGO
 10
27901.065004790951
 20
1536.2338106976929
 30
0.0
 11
27885.065004790951
 21
1536.2338106976929
 31
0.0
1001
AUTOCAD_POSTSCRIPT_FIGURE
1002
{
1000
PSFILL
1000
Grayscale
1000
Grayscale
1070
   100
1002
}
  0
LINE
  5
13589
  8
YODOROGO
 10
27929.604341291921
 20
1475.7494964292871
 30
0.0
 11
27901.065004790951
 21
1536.2338106976929
 31
0.0
1001
AUTOCAD_POSTSCRIPT_FIGURE
1002
{
1000
PSFILL
1000
Grayscale
1000
Grayscale
1070
   100
1002
}
  0
LINE
  5
1358A
  8
YODOROGO
 10
27785.604341291921
 20
1475.7494964292871
 30
0.0
 11
27929.604341291921
 21
1475.7494964292871
 31
0.0
1001
AUTOCAD_POSTSCRIPT_FIGURE
1002
{
1000
PSFILL
1000
Grayscale
1000
Grayscale
1070
   100
1002
}
  0
LINE
  5
1358B
  8
YODOROGO
 10
27777.604341291921
 20
1619.9724140445701
 30
0.0
 11
27777.604341291921
 21
1643.9724140445701
 31
0.0
  0
LINE
  5
1358C
  8
YODOROGO
 10
27937.604341291921
 20
1643.9724140445701
 30
0.0
 11
27937.604341291921
 21
1619.9724140445701
 31
0.0
  0
ARC
  5
1358D
  8
YODOROGO
 10
28225.940442146959
 20
1600.877765325326
 30
0.0
 40
175.9999999999998
 50
280.3644312771313
 51
3.5414836592180561
  0
ARC
  5
1358E
  8
YODOROGO
 10
28235.756030759301
 20
1633.5978069619041
 30
0.0
 40
111.9999999999982
 50
281.24905825041549
 51
348.75094174958321
  0
LINE
  5
1358F
  8
YODOROGO
 10
28257.604341291921
 20
1523.7494964292871
 30
0.0
 11
28257.604341291921
 21
1427.749496429288
 31
0.0
  0
LINE
  5
13590
  8
YODOROGO
 10
28020.088903736909
 20
1610.650565061914
 30
0.0
 11
28040.913204016892
 21
1659.749496429288
 31
0.0
  0
LINE
  5
13591
  8
YODOROGO
 10
28041.604341291921
 20
1583.120489948401
 30
0.0
 11
28020.088903736909
 21
1610.650565061914
 31
0.0
  0
LINE
  5
13592
  8
YODOROGO
 10
28041.604341291921
 20
1563.120489948398
 30
0.0
 11
28041.604341291921
 21
1583.120489948401
 31
0.0
  0
LINE
  5
13593
  8
YODOROGO
 10
28017.604341291921
 20
1585.2370637495301
 30
0.0
 11
28041.604341291921
 21
1563.120489948398
 31
0.0
  0
LINE
  5
13594
  8
YODOROGO
 10
28017.604341291921
 20
1475.7494964292871
 30
0.0
 11
28017.604341291921
 21
1585.2370637495301
 31
0.0
  0
LINE
  5
13595
  8
YODOROGO
 10
28001.604341291921
 20
1475.7494964292871
 30
0.0
 11
28017.604341291921
 21
1475.7494964292871
 31
0.0
  0
LINE
  5
13596
  8
YODOROGO
 10
28001.604341291921
 20
1580.0053496897469
 30
0.0
 11
28001.604341291921
 21
1475.7494964292871
 31
0.0
  0
LINE
  5
13597
  8
YODOROGO
 10
27977.604341291921
 20
1532.7680790334291
 30
0.0
 11
28001.604341291921
 21
1580.0053496897469
 31
0.0
  0
LINE
  5
13598
  8
YODOROGO
 10
27977.604341291921
 20
1556.76807903343
 30
0.0
 11
27977.604341291921
 21
1532.7680790334291
 31
0.0
  0
LINE
  5
13599
  8
YODOROGO
 10
28025.828774291349
 20
1667.749496429285
 30
0.0
 11
27977.604341291921
 21
1556.76807903343
 31
0.0
  0
LINE
  5
1359A
  8
YODOROGO
 10
27977.604341291921
 20
1667.749496429285
 30
0.0
 11
28025.828774291349
 21
1667.749496429285
 31
0.0
  0
LINE
  5
1359B
  8
YODOROGO
 10
28050.135520230899
 20
1655.5036372746561
 30
0.0
 11
28082.135520230921
 21
1655.5036372746561
 31
0.0
1001
AUTOCAD_POSTSCRIPT_FIGURE
1002
{
1000
PSFILL
1000
Grayscale
1000
Grayscale
1070
   100
1002
}
  0
LINE
  5
1359C
  8
YODOROGO
 10
28050.135520230899
 20
1631.5036372746561
 30
0.0
 11
28050.135520230899
 21
1655.5036372746561
 31
0.0
1001
AUTOCAD_POSTSCRIPT_FIGURE
1002
{
1000
PSFILL
1000
Grayscale
1000
Grayscale
1070
   100
1002
}
  0
LINE
  5
1359D
  8
YODOROGO
 10
28082.135520230921
 20
1631.5036372746561
 30
0.0
 11
28050.135520230899
 21
1631.5036372746561
 31
0.0
1001
AUTOCAD_POSTSCRIPT_FIGURE
1002
{
1000
PSFILL
1000
Grayscale
1000
Grayscale
1070
   100
1002
}
  0
LINE
  5
1359E
  8
YODOROGO
 10
28082.135520230921
 20
1499.749496429288
 30
0.0
 11
28082.135520230921
 21
1631.5036372746561
 31
0.0
1001
AUTOCAD_POSTSCRIPT_FIGURE
1002
{
1000
PSFILL
1000
Grayscale
1000
Grayscale
1070
   100
1002
}
  0
LINE
  5
1359F
  8
YODOROGO
 10
28050.135520230921
 20
1499.749496429288
 30
0.0
 11
28082.135520230921
 21
1499.749496429288
 31
0.0
1001
AUTOCAD_POSTSCRIPT_FIGURE
1002
{
1000
PSFILL
1000
Grayscale
1000
Grayscale
1070
   100
1002
}
  0
LINE
  5
135A0
  8
YODOROGO
 10
28050.135520230921
 20
1475.7494964292871
 30
0.0
 11
28050.135520230921
 21
1499.749496429288
 31
0.0
1001
AUTOCAD_POSTSCRIPT_FIGURE
1002
{
1000
PSFILL
1000
Grayscale
1000
Grayscale
1070
   100
1002
}
  0
LINE
  5
135A1
  8
YODOROGO
 10
28137.604341291921
 20
1475.7494964292871
 30
0.0
 11
28050.135520230921
 21
1475.7494964292871
 31
0.0
1001
AUTOCAD_POSTSCRIPT_FIGURE
1002
{
1000
PSFILL
1000
Grayscale
1000
Grayscale
1070
   100
1002
}
  0
LINE
  5
135A2
  8
YODOROGO
 10
28137.604341291921
 20
1499.749496429288
 30
0.0
 11
28137.604341291921
 21
1475.7494964292871
 31
0.0
1001
AUTOCAD_POSTSCRIPT_FIGURE
1002
{
1000
PSFILL
1000
Grayscale
1000
Grayscale
1070
   100
1002
}
  0
LINE
  5
135A3
  8
YODOROGO
 10
28098.135520230931
 20
1499.749496429288
 30
0.0
 11
28137.604341291921
 21
1499.749496429288
 31
0.0
1001
AUTOCAD_POSTSCRIPT_FIGURE
1002
{
1000
PSFILL
1000
Grayscale
1000
Grayscale
1070
   100
1002
}
  0
LINE
  5
135A4
  8
YODOROGO
 10
28098.135520230931
 20
1631.5036372746561
 30
0.0
 11
28098.135520230931
 21
1499.749496429288
 31
0.0
1001
AUTOCAD_POSTSCRIPT_FIGURE
1002
{
1000
PSFILL
1000
Grayscale
1000
Grayscale
1070
   100
1002
}
  0
LINE
  5
135A5
  8
YODOROGO
 10
28137.604341291921
 20
1631.5036372746561
 30
0.0
 11
28098.135520230931
 21
1631.5036372746561
 31
0.0
1001
AUTOCAD_POSTSCRIPT_FIGURE
1002
{
1000
PSFILL
1000
Grayscale
1000
Grayscale
1070
   100
1002
}
  0
LINE
  5
135A6
  8
YODOROGO
 10
28137.604341291921
 20
1655.5036372746561
 30
0.0
 11
28137.604341291921
 21
1631.5036372746561
 31
0.0
1001
AUTOCAD_POSTSCRIPT_FIGURE
1002
{
1000
PSFILL
1000
Grayscale
1000
Grayscale
1070
   100
1002
}
  0
LINE
  5
135A7
  8
YODOROGO
 10
28098.135520230931
 20
1655.5036372746561
 30
0.0
 11
28137.604341291921
 21
1655.5036372746561
 31
0.0
1001
AUTOCAD_POSTSCRIPT_FIGURE
1002
{
1000
PSFILL
1000
Grayscale
1000
Grayscale
1070
   100
1002
}
  0
LINE
  5
135A8
  8
YODOROGO
 10
28401.60434129191
 20
1667.749496429288
 30
0.0
 11
28345.604341291921
 21
1667.749496429288
 31
0.0
  0
LINE
  5
135A9
  8
YODOROGO
 10
28401.60434129191
 20
1611.749496429288
 30
0.0
 11
28401.60434129191
 21
1667.749496429288
 31
0.0
  0
LINE
  5
135AA
  8
YODOROGO
 10
28345.604341291921
 20
1667.749496429288
 30
0.0
 11
28345.604341291921
 21
1611.749496429288
 31
0.0
  0
ARC
  5
135AB
  8
YODOROGO
 10
28513.60434129191
 20
1507.749496429288
 30
0.0
 40
80.0
 50
180.0
 51
270.0
  0
ARC
  5
135AC
  8
YODOROGO
 10
28537.604341291921
 20
1563.7494964292871
 30
0.0
 40
40.0
 50
180.0
 51
270.0
  0
LINE
  5
135AD
  8
YODOROGO
 10
28561.604341291932
 20
1523.7494964292871
 30
0.0
 11
28537.604341291921
 21
1523.7494964292871
 31
0.0
  0
ARC
  5
135AE
  8
YODOROGO
 10
28561.604341291932
 20
1547.749496429285
 30
0.0
 40
23.999999999996358
 50
270.0
 51
0.0000000000054281
  0
LINE
  5
135AF
  8
YODOROGO
 10
27801.604341291921
 20
1890.786580793706
 30
0.0
 11
27777.604341291921
 21
1843.776747951672
 31
0.0
1001
AUTOCAD_POSTSCRIPT_FIGURE
1002
{
1000
PSFILL
1000
Grayscale
1000
Grayscale
1070
   100
1002
}
  0
LINE
  5
135B0
  8
YODOROGO
 10
27801.604341291921
 20
1747.749496429286
 30
0.0
 11
27801.604341291921
 21
1890.786580793706
 31
0.0
1001
AUTOCAD_POSTSCRIPT_FIGURE
1002
{
1000
PSFILL
1000
Grayscale
1000
Grayscale
1070
   100
1002
}
  0
LINE
  5
135B1
  8
YODOROGO
 10
27817.604341291921
 20
1747.749496429286
 30
0.0
 11
27801.604341291921
 21
1747.749496429286
 31
0.0
1001
AUTOCAD_POSTSCRIPT_FIGURE
1002
{
1000
PSFILL
1000
Grayscale
1000
Grayscale
1070
   100
1002
}
  0
LINE
  5
135B2
  8
YODOROGO
 10
27817.604341291921
 20
1893.7713320852661
 30
0.0
 11
27817.604341291921
 21
1747.749496429286
 31
0.0
1001
AUTOCAD_POSTSCRIPT_FIGURE
1002
{
1000
PSFILL
1000
Grayscale
1000
Grayscale
1070
   100
1002
}
  0
LINE
  5
135B3
  8
YODOROGO
 10
27841.604341291921
 20
1867.6547582841361
 30
0.0
 11
27817.604341291921
 21
1893.7713320852661
 31
0.0
1001
AUTOCAD_POSTSCRIPT_FIGURE
1002
{
1000
PSFILL
1000
Grayscale
1000
Grayscale
1070
   100
1002
}
  0
LINE
  5
135B4
  8
YODOROGO
 10
27841.604341291921
 20
1883.6547582841361
 30
0.0
 11
27841.604341291921
 21
1867.6547582841361
 31
0.0
1001
AUTOCAD_POSTSCRIPT_FIGURE
1002
{
1000
PSFILL
1000
Grayscale
1000
Grayscale
1070
   100
1002
}
  0
LINE
  5
135B5
  8
YODOROGO
 10
27817.604341291921
 20
1917.7713320852649
 30
0.0
 11
27841.604341291921
 21
1883.6547582841361
 31
0.0
1001
AUTOCAD_POSTSCRIPT_FIGURE
1002
{
1000
PSFILL
1000
Grayscale
1000
Grayscale
1070
   100
1002
}
  0
LINE
  5
135B6
  8
YODOROGO
 10
27817.604341291921
 20
1939.749496429288
 30
0.0
 11
27817.604341291921
 21
1917.7713320852649
 31
0.0
1001
AUTOCAD_POSTSCRIPT_FIGURE
1002
{
1000
PSFILL
1000
Grayscale
1000
Grayscale
1070
   100
1002
}
  0
LINE
  5
135B7
  8
YODOROGO
 10
27889.604341291921
 20
1939.749496429288
 30
0.0
 11
27817.604341291921
 21
1939.749496429288
 31
0.0
1001
AUTOCAD_POSTSCRIPT_FIGURE
1002
{
1000
PSFILL
1000
Grayscale
1000
Grayscale
1070
   100
1002
}
  0
LINE
  5
135B8
  8
YODOROGO
 10
27889.604341291921
 20
1900.5683489363
 30
0.0
 11
27889.604341291921
 21
1939.749496429288
 31
0.0
1001
AUTOCAD_POSTSCRIPT_FIGURE
1002
{
1000
PSFILL
1000
Grayscale
1000
Grayscale
1070
   100
1002
}
  0
LINE
  5
135B9
  8
YODOROGO
 10
27857.604341291921
 20
1900.5683489363
 30
0.0
 11
27889.604341291921
 21
1900.5683489363
 31
0.0
1001
AUTOCAD_POSTSCRIPT_FIGURE
1002
{
1000
PSFILL
1000
Grayscale
1000
Grayscale
1070
   100
1002
}
  0
LINE
  5
135BA
  8
YODOROGO
 10
27857.604341291921
 20
1884.568348936298
 30
0.0
 11
27857.604341291921
 21
1900.5683489363
 31
0.0
1001
AUTOCAD_POSTSCRIPT_FIGURE
1002
{
1000
PSFILL
1000
Grayscale
1000
Grayscale
1070
   100
1002
}
  0
LINE
  5
135BB
  8
YODOROGO
 10
27889.604341291921
 20
1884.568348936298
 30
0.0
 11
27857.604341291921
 21
1884.568348936298
 31
0.0
1001
AUTOCAD_POSTSCRIPT_FIGURE
1002
{
1000
PSFILL
1000
Grayscale
1000
Grayscale
1070
   100
1002
}
  0
LINE
  5
135BC
  8
YODOROGO
 10
27889.604341291921
 20
1879.6191779644371
 30
0.0
 11
27889.604341291921
 21
1884.568348936298
 31
0.0
1001
AUTOCAD_POSTSCRIPT_FIGURE
1002
{
1000
PSFILL
1000
Grayscale
1000
Grayscale
1070
   100
1002
}
  0
LINE
  5
135BD
  8
YODOROGO
 10
27849.604341291921
 20
1812.974981161417
 30
0.0
 11
27889.604341291921
 21
1879.6191779644371
 31
0.0
1001
AUTOCAD_POSTSCRIPT_FIGURE
1002
{
1000
PSFILL
1000
Grayscale
1000
Grayscale
1070
   100
1002
}
  0
LINE
  5
135BE
  8
YODOROGO
 10
27849.604341291921
 20
1796.9749811614161
 30
0.0
 11
27849.604341291921
 21
1812.974981161417
 31
0.0
1001
AUTOCAD_POSTSCRIPT_FIGURE
1002
{
1000
PSFILL
1000
Grayscale
1000
Grayscale
1070
   100
1002
}
  0
LINE
  5
135BF
  8
YODOROGO
 10
27889.604341291921
 20
1847.6191779644359
 30
0.0
 11
27849.604341291921
 21
1796.9749811614161
 31
0.0
1001
AUTOCAD_POSTSCRIPT_FIGURE
1002
{
1000
PSFILL
1000
Grayscale
1000
Grayscale
1070
   100
1002
}
  0
LINE
  5
135C0
  8
YODOROGO
 10
27889.604341291921
 20
1747.749496429286
 30
0.0
 11
27889.604341291921
 21
1847.6191779644359
 31
0.0
1001
AUTOCAD_POSTSCRIPT_FIGURE
1002
{
1000
PSFILL
1000
Grayscale
1000
Grayscale
1070
   100
1002
}
  0
LINE
  5
135C1
  8
YODOROGO
 10
27905.604341291921
 20
1747.749496429286
 30
0.0
 11
27889.604341291921
 21
1747.749496429286
 31
0.0
1001
AUTOCAD_POSTSCRIPT_FIGURE
1002
{
1000
PSFILL
1000
Grayscale
1000
Grayscale
1070
   100
1002
}
  0
LINE
  5
135C2
  8
YODOROGO
 10
27905.604341291921
 20
1849.409012158806
 30
0.0
 11
27905.604341291921
 21
1747.749496429286
 31
0.0
1001
AUTOCAD_POSTSCRIPT_FIGURE
1002
{
1000
PSFILL
1000
Grayscale
1000
Grayscale
1070
   100
1002
}
  0
LINE
  5
135C3
  8
YODOROGO
 10
27937.604341291921
 20
1796.9749811614161
 30
0.0
 11
27905.604341291921
 21
1849.409012158806
 31
0.0
1001
AUTOCAD_POSTSCRIPT_FIGURE
1002
{
1000
PSFILL
1000
Grayscale
1000
Grayscale
1070
   100
1002
}
  0
LINE
  5
135C4
  8
YODOROGO
 10
27937.604341291921
 20
1812.974981161417
 30
0.0
 11
27937.604341291921
 21
1796.9749811614161
 31
0.0
1001
AUTOCAD_POSTSCRIPT_FIGURE
1002
{
1000
PSFILL
1000
Grayscale
1000
Grayscale
1070
   100
1002
}
  0
LINE
  5
135C5
  8
YODOROGO
 10
27905.604341291921
 20
1881.4090121588081
 30
0.0
 11
27937.604341291921
 21
1812.974981161417
 31
0.0
1001
AUTOCAD_POSTSCRIPT_FIGURE
1002
{
1000
PSFILL
1000
Grayscale
1000
Grayscale
1070
   100
1002
}
  0
LINE
  5
135C6
  8
YODOROGO
 10
27905.604341291921
 20
1884.5683489363
 30
0.0
 11
27905.604341291921
 21
1881.4090121588081
 31
0.0
1001
AUTOCAD_POSTSCRIPT_FIGURE
1002
{
1000
PSFILL
1000
Grayscale
1000
Grayscale
1070
   100
1002
}
  0
LINE
  5
135C7
  8
YODOROGO
 10
27937.604341291921
 20
1884.568348936298
 30
0.0
 11
27905.604341291921
 21
1884.5683489363
 31
0.0
1001
AUTOCAD_POSTSCRIPT_FIGURE
1002
{
1000
PSFILL
1000
Grayscale
1000
Grayscale
1070
   100
1002
}
  0
LINE
  5
135C8
  8
YODOROGO
 10
27937.604341291921
 20
1900.5683489363
 30
0.0
 11
27937.604341291921
 21
1884.568348936298
 31
0.0
1001
AUTOCAD_POSTSCRIPT_FIGURE
1002
{
1000
PSFILL
1000
Grayscale
1000
Grayscale
1070
   100
1002
}
  0
LINE
  5
135C9
  8
YODOROGO
 10
27905.604341291921
 20
1900.5683489363
 30
0.0
 11
27937.604341291921
 21
1900.5683489363
 31
0.0
1001
AUTOCAD_POSTSCRIPT_FIGURE
1002
{
1000
PSFILL
1000
Grayscale
1000
Grayscale
1070
   100
1002
}
  0
LINE
  5
135CA
  8
YODOROGO
 10
27905.604341291921
 20
1939.749496429288
 30
0.0
 11
27905.604341291921
 21
1900.5683489363
 31
0.0
1001
AUTOCAD_POSTSCRIPT_FIGURE
1002
{
1000
PSFILL
1000
Grayscale
1000
Grayscale
1070
   100
1002
}
  0
LINE
  5
135CB
  8
YODOROGO
 10
27937.604341291921
 20
1939.749496429288
 30
0.0
 11
27905.604341291921
 21
1939.749496429288
 31
0.0
1001
AUTOCAD_POSTSCRIPT_FIGURE
1002
{
1000
PSFILL
1000
Grayscale
1000
Grayscale
1070
   100
1002
}
  0
LINE
  5
135CC
  8
YODOROGO
 10
27937.604341291921
 20
1955.7494964292871
 30
0.0
 11
27937.604341291921
 21
1939.749496429288
 31
0.0
1001
AUTOCAD_POSTSCRIPT_FIGURE
1002
{
1000
PSFILL
1000
Grayscale
1000
Grayscale
1070
   100
1002
}
  0
LINE
  5
135CD
  8
YODOROGO
 10
27905.604341291921
 20
1955.7494964292871
 30
0.0
 11
27937.604341291921
 21
1955.7494964292871
 31
0.0
1001
AUTOCAD_POSTSCRIPT_FIGURE
1002
{
1000
PSFILL
1000
Grayscale
1000
Grayscale
1070
   100
1002
}
  0
LINE
  5
135CE
  8
YODOROGO
 10
27905.604341291921
 20
1979.749496429288
 30
0.0
 11
27905.604341291921
 21
1955.7494964292871
 31
0.0
1001
AUTOCAD_POSTSCRIPT_FIGURE
1002
{
1000
PSFILL
1000
Grayscale
1000
Grayscale
1070
   100
1002
}
  0
LINE
  5
135CF
  8
YODOROGO
 10
27889.604341291921
 20
1979.749496429288
 30
0.0
 11
27905.604341291921
 21
1979.749496429288
 31
0.0
1001
AUTOCAD_POSTSCRIPT_FIGURE
1002
{
1000
PSFILL
1000
Grayscale
1000
Grayscale
1070
   100
1002
}
  0
LINE
  5
135D0
  8
YODOROGO
 10
27889.604341291921
 20
1955.7494964292871
 30
0.0
 11
27889.604341291921
 21
1979.749496429288
 31
0.0
1001
AUTOCAD_POSTSCRIPT_FIGURE
1002
{
1000
PSFILL
1000
Grayscale
1000
Grayscale
1070
   100
1002
}
  0
LINE
  5
135D1
  8
YODOROGO
 10
27865.604341291921
 20
1955.7494964292871
 30
0.0
 11
27889.604341291921
 21
1955.7494964292871
 31
0.0
1001
AUTOCAD_POSTSCRIPT_FIGURE
1002
{
1000
PSFILL
1000
Grayscale
1000
Grayscale
1070
   100
1002
}
  0
LINE
  5
135D2
  8
YODOROGO
 10
27865.604341291921
 20
1979.749496429288
 30
0.0
 11
27865.604341291921
 21
1955.7494964292871
 31
0.0
1001
AUTOCAD_POSTSCRIPT_FIGURE
1002
{
1000
PSFILL
1000
Grayscale
1000
Grayscale
1070
   100
1002
}
  0
LINE
  5
135D3
  8
YODOROGO
 10
27849.604341291921
 20
1979.749496429288
 30
0.0
 11
27865.604341291921
 21
1979.749496429288
 31
0.0
1001
AUTOCAD_POSTSCRIPT_FIGURE
1002
{
1000
PSFILL
1000
Grayscale
1000
Grayscale
1070
   100
1002
}
  0
LINE
  5
135D4
  8
YODOROGO
 10
27849.604341291921
 20
1955.7494964292871
 30
0.0
 11
27849.604341291921
 21
1979.749496429288
 31
0.0
1001
AUTOCAD_POSTSCRIPT_FIGURE
1002
{
1000
PSFILL
1000
Grayscale
1000
Grayscale
1070
   100
1002
}
  0
LINE
  5
135D5
  8
YODOROGO
 10
27817.604341291921
 20
1955.7494964292871
 30
0.0
 11
27849.604341291921
 21
1955.7494964292871
 31
0.0
1001
AUTOCAD_POSTSCRIPT_FIGURE
1002
{
1000
PSFILL
1000
Grayscale
1000
Grayscale
1070
   100
1002
}
  0
LINE
  5
135D6
  8
YODOROGO
 10
27817.604341291921
 20
1979.749496429288
 30
0.0
 11
27817.604341291921
 21
1955.7494964292871
 31
0.0
1001
AUTOCAD_POSTSCRIPT_FIGURE
1002
{
1000
PSFILL
1000
Grayscale
1000
Grayscale
1070
   100
1002
}
  0
LINE
  5
135D7
  8
YODOROGO
 10
27801.604341291921
 20
1979.749496429288
 30
0.0
 11
27817.604341291921
 21
1979.749496429288
 31
0.0
1001
AUTOCAD_POSTSCRIPT_FIGURE
1002
{
1000
PSFILL
1000
Grayscale
1000
Grayscale
1070
   100
1002
}
  0
LINE
  5
135D8
  8
YODOROGO
 10
27801.604341291921
 20
1955.7494964292871
 30
0.0
 11
27801.604341291921
 21
1979.749496429288
 31
0.0
1001
AUTOCAD_POSTSCRIPT_FIGURE
1002
{
1000
PSFILL
1000
Grayscale
1000
Grayscale
1070
   100
1002
}
  0
LINE
  5
135D9
  8
YODOROGO
 10
27777.604341291921
 20
1955.7494964292871
 30
0.0
 11
27801.604341291921
 21
1955.7494964292871
 31
0.0
1001
AUTOCAD_POSTSCRIPT_FIGURE
1002
{
1000
PSFILL
1000
Grayscale
1000
Grayscale
1070
   100
1002
}
  0
LINE
  5
135DA
  8
YODOROGO
 10
27777.604341291921
 20
1939.749496429288
 30
0.0
 11
27777.604341291921
 21
1955.7494964292871
 31
0.0
1001
AUTOCAD_POSTSCRIPT_FIGURE
1002
{
1000
PSFILL
1000
Grayscale
1000
Grayscale
1070
   100
1002
}
  0
LINE
  5
135DB
  8
YODOROGO
 10
27801.604341291921
 20
1939.749496429288
 30
0.0
 11
27777.604341291921
 21
1939.749496429288
 31
0.0
1001
AUTOCAD_POSTSCRIPT_FIGURE
1002
{
1000
PSFILL
1000
Grayscale
1000
Grayscale
1070
   100
1002
}
  0
LINE
  5
135DC
  8
YODOROGO
 10
27801.604341291921
 20
1914.7865807937051
 30
0.0
 11
27801.604341291921
 21
1939.749496429288
 31
0.0
1001
AUTOCAD_POSTSCRIPT_FIGURE
1002
{
1000
PSFILL
1000
Grayscale
1000
Grayscale
1070
   100
1002
}
  0
LINE
  5
135DD
  8
YODOROGO
 10
27777.604341291921
 20
1859.776747951671
 30
0.0
 11
27801.604341291921
 21
1914.7865807937051
 31
0.0
1001
AUTOCAD_POSTSCRIPT_FIGURE
1002
{
1000
PSFILL
1000
Grayscale
1000
Grayscale
1070
   100
1002
}
  0
LINE
  5
135DE
  8
YODOROGO
 10
27777.604341291921
 20
1843.776747951672
 30
0.0
 11
27777.604341291921
 21
1859.776747951671
 31
0.0
1001
AUTOCAD_POSTSCRIPT_FIGURE
1002
{
1000
PSFILL
1000
Grayscale
1000
Grayscale
1070
   100
1002
}
  0
LINE
  5
135DF
  8
YODOROGO
 10
28257.604341291921
 20
1867.7494964292871
 30
0.0
 11
28401.60434129191
 21
1824.877625640306
 31
0.0
1001
AUTOCAD_POSTSCRIPT_FIGURE
1002
{
1000
PSFILL
1000
Grayscale
1000
Grayscale
1070
   100
1002
}
  0
LINE
  5
135E0
  8
YODOROGO
 10
28401.60434129191
 20
1752.877625640306
 30
0.0
 11
28257.604341291921
 21
1795.7494964292871
 31
0.0
1001
AUTOCAD_POSTSCRIPT_FIGURE
1002
{
1000
PSFILL
1000
Grayscale
1000
Grayscale
1070
   100
1002
}
  0
LINE
  5
135E1
  8
YODOROGO
 10
28401.60434129191
 20
1984.877625640306
 30
0.0
 11
28257.604341291921
 21
2027.749496429288
 31
0.0
1001
AUTOCAD_POSTSCRIPT_FIGURE
1002
{
1000
PSFILL
1000
Grayscale
1000
Grayscale
1070
   100
1002
}
  0
LINE
  5
135E2
  8
YODOROGO
 10
28257.604341291921
 20
1959.749496429288
 30
0.0
 11
28401.60434129191
 21
1916.8776256403071
 31
0.0
1001
AUTOCAD_POSTSCRIPT_FIGURE
1002
{
1000
PSFILL
1000
Grayscale
1000
Grayscale
1070
   100
1002
}
  0
LINE
  5
135E3
  8
YODOROGO
 10
28257.604341291921
 20
1795.7494964292871
 30
0.0
 11
28257.604341291921
 21
1867.7494964292871
 31
0.0
1001
AUTOCAD_POSTSCRIPT_FIGURE
1002
{
1000
PSFILL
1000
Grayscale
1000
Grayscale
1070
   100
1002
}
  0
LINE
  5
135E4
  8
YODOROGO
 10
28257.604341291921
 20
2027.749496429288
 30
0.0
 11
28257.604341291921
 21
1959.749496429288
 31
0.0
1001
AUTOCAD_POSTSCRIPT_FIGURE
1002
{
1000
PSFILL
1000
Grayscale
1000
Grayscale
1070
   100
1002
}
  0
LINE
  5
135E5
  8
YODOROGO
 10
28080.236320206739
 20
1939.749496429288
 30
0.0
 11
28129.60434129191
 21
1747.749496429286
 31
0.0
1001
AUTOCAD_POSTSCRIPT_FIGURE
1002
{
1000
PSFILL
1000
Grayscale
1000
Grayscale
1070
   100
1002
}
  0
LINE
  5
135E6
  8
YODOROGO
 10
27977.604341291921
 20
1939.749496429288
 30
0.0
 11
28080.236320206739
 21
1939.749496429288
 31
0.0
1001
AUTOCAD_POSTSCRIPT_FIGURE
1002
{
1000
PSFILL
1000
Grayscale
1000
Grayscale
1070
   100
1002
}
  0
LINE
  5
135E7
  8
YODOROGO
 10
27977.604341291921
 20
1955.7494964292871
 30
0.0
 11
27977.604341291921
 21
1939.749496429288
 31
0.0
1001
AUTOCAD_POSTSCRIPT_FIGURE
1002
{
1000
PSFILL
1000
Grayscale
1000
Grayscale
1070
   100
1002
}
  0
LINE
  5
135E8
  8
YODOROGO
 10
28076.60687851991
 20
1955.7494964292871
 30
0.0
 11
27977.604341291921
 21
1955.7494964292871
 31
0.0
1001
AUTOCAD_POSTSCRIPT_FIGURE
1002
{
1000
PSFILL
1000
Grayscale
1000
Grayscale
1070
   100
1002
}
  0
LINE
  5
135E9
  8
YODOROGO
 10
28071.162715989711
 20
1979.749496429288
 30
0.0
 11
28076.60687851991
 21
1955.7494964292871
 31
0.0
1001
AUTOCAD_POSTSCRIPT_FIGURE
1002
{
1000
PSFILL
1000
Grayscale
1000
Grayscale
1070
   100
1002
}
  0
LINE
  5
135EA
  8
YODOROGO
 10
28091.162715989711
 20
1979.749496429288
 30
0.0
 11
28071.162715989711
 21
1979.749496429288
 31
0.0
1001
AUTOCAD_POSTSCRIPT_FIGURE
1002
{
1000
PSFILL
1000
Grayscale
1000
Grayscale
1070
   100
1002
}
  0
LINE
  5
135EB
  8
YODOROGO
 10
28095.806878519939
 20
1955.7494964292871
 30
0.0
 11
28091.162715989711
 21
1979.749496429288
 31
0.0
1001
AUTOCAD_POSTSCRIPT_FIGURE
1002
{
1000
PSFILL
1000
Grayscale
1000
Grayscale
1070
   100
1002
}
  0
LINE
  5
135EC
  8
YODOROGO
 10
28121.604341291921
 20
1955.7494964292871
 30
0.0
 11
28095.806878519939
 21
1955.7494964292871
 31
0.0
1001
AUTOCAD_POSTSCRIPT_FIGURE
1002
{
1000
PSFILL
1000
Grayscale
1000
Grayscale
1070
   100
1002
}
  0
LINE
  5
135ED
  8
YODOROGO
 10
28121.604341291921
 20
1979.749496429288
 30
0.0
 11
28121.604341291921
 21
1955.7494964292871
 31
0.0
1001
AUTOCAD_POSTSCRIPT_FIGURE
1002
{
1000
PSFILL
1000
Grayscale
1000
Grayscale
1070
   100
1002
}
  0
LINE
  5
135EE
  8
YODOROGO
 10
28137.604341291921
 20
1979.749496429288
 30
0.0
 11
28121.604341291921
 21
1979.749496429288
 31
0.0
1001
AUTOCAD_POSTSCRIPT_FIGURE
1002
{
1000
PSFILL
1000
Grayscale
1000
Grayscale
1070
   100
1002
}
  0
LINE
  5
135EF
  8
YODOROGO
 10
28137.604341291921
 20
1955.7494964292871
 30
0.0
 11
28137.604341291921
 21
1979.749496429288
 31
0.0
1001
AUTOCAD_POSTSCRIPT_FIGURE
1002
{
1000
PSFILL
1000
Grayscale
1000
Grayscale
1070
   100
1002
}
  0
LINE
  5
135F0
  8
YODOROGO
 10
28137.604341291921
 20
1939.749496429288
 30
0.0
 11
28137.604341291921
 21
1955.7494964292871
 31
0.0
1001
AUTOCAD_POSTSCRIPT_FIGURE
1002
{
1000
PSFILL
1000
Grayscale
1000
Grayscale
1070
   100
1002
}
  0
LINE
  5
135F1
  8
YODOROGO
 10
28098.902986873411
 20
1939.749496429288
 30
0.0
 11
28137.604341291921
 21
1939.749496429288
 31
0.0
1001
AUTOCAD_POSTSCRIPT_FIGURE
1002
{
1000
PSFILL
1000
Grayscale
1000
Grayscale
1070
   100
1002
}
  0
LINE
  5
135F2
  8
YODOROGO
 10
28137.604341291921
 20
1747.749496429286
 30
0.0
 11
28098.902986873411
 21
1939.749496429288
 31
0.0
1001
AUTOCAD_POSTSCRIPT_FIGURE
1002
{
1000
PSFILL
1000
Grayscale
1000
Grayscale
1070
   100
1002
}
  0
LINE
  5
135F3
  8
YODOROGO
 10
28129.60434129191
 20
1747.749496429286
 30
0.0
 11
28137.604341291921
 21
1747.749496429286
 31
0.0
1001
AUTOCAD_POSTSCRIPT_FIGURE
1002
{
1000
PSFILL
1000
Grayscale
1000
Grayscale
1070
   100
1002
}
  0
LINE
  5
135F4
  8
YODOROGO
 10
28078.06921993379
 20
1775.7407762987939
 30
0.0
 11
27977.604341291921
 21
1747.749496429286
 31
0.0
  0
LINE
  5
135F5
  8
YODOROGO
 10
28078.06921993379
 20
1798.6689795290731
 30
0.0
 11
28078.06921993379
 21
1775.7407762987939
 31
0.0
  0
LINE
  5
135F6
  8
YODOROGO
 10
28033.83678061287
 20
1786.816933133767
 30
0.0
 11
28078.06921993379
 21
1798.6689795290731
 31
0.0
  0
LINE
  5
135F7
  8
YODOROGO
 10
28033.83678061287
 20
1872.5683489362989
 30
0.0
 11
28033.83678061287
 21
1786.816933133767
 31
0.0
  0
LINE
  5
135F8
  8
YODOROGO
 10
28078.06921993379
 20
1872.5683489362989
 30
0.0
 11
28033.83678061287
 21
1872.5683489362989
 31
0.0
  0
LINE
  5
135F9
  8
YODOROGO
 10
28078.06921993379
 20
1892.568348936298
 30
0.0
 11
28078.06921993379
 21
1872.5683489362989
 31
0.0
  0
LINE
  5
135FA
  8
YODOROGO
 10
27977.604341291921
 20
1892.568348936298
 30
0.0
 11
28078.06921993379
 21
1892.568348936298
 31
0.0
  0
LINE
  5
135FB
  8
YODOROGO
 10
27977.604341291921
 20
1872.5683489362989
 30
0.0
 11
27977.604341291921
 21
1892.568348936298
 31
0.0
  0
LINE
  5
135FC
  8
YODOROGO
 10
28021.836780612852
 20
1872.5683489362989
 30
0.0
 11
27977.604341291921
 21
1872.5683489362989
 31
0.0
  0
LINE
  5
135FD
  8
YODOROGO
 10
28021.836780612852
 20
1784.673339594317
 30
0.0
 11
28021.836780612852
 21
1872.5683489362989
 31
0.0
  0
LINE
  5
135FE
  8
YODOROGO
 10
27977.604341291921
 20
1771.749496429286
 30
0.0
 11
28021.836780612852
 21
1784.673339594317
 31
0.0
  0
LINE
  5
135FF
  8
YODOROGO
 10
27977.604341291921
 20
1747.749496429286
 30
0.0
 11
27977.604341291921
 21
1771.749496429286
 31
0.0
  0
LINE
  5
13600
  8
YODOROGO
 10
28001.604341291921
 20
1707.749496429288
 30
0.0
 11
28001.604341291921
 21
1683.7494964292871
 31
0.0
  0
LINE
  5
13601
  8
YODOROGO
 10
28017.604341291921
 20
1707.749496429288
 30
0.0
 11
28001.604341291921
 21
1707.749496429288
 31
0.0
  0
LINE
  5
13602
  8
YODOROGO
 10
28017.604341291921
 20
1683.7494964292871
 30
0.0
 11
28017.604341291921
 21
1707.749496429288
 31
0.0
  0
LINE
  5
13603
  8
YODOROGO
 10
28040.913204016892
 20
1683.7494964292871
 30
0.0
 11
28017.604341291921
 21
1683.7494964292871
 31
0.0
  0
LINE
  5
13604
  8
YODOROGO
 10
28001.604341291921
 20
1683.7494964292871
 30
0.0
 11
27977.604341291921
 21
1683.7494964292871
 31
0.0
  0
LINE
  5
13605
  8
YODOROGO
 10
28082.135520230921
 20
1707.749496429288
 30
0.0
 11
28098.135520230931
 21
1707.749496429288
 31
0.0
1001
AUTOCAD_POSTSCRIPT_FIGURE
1002
{
1000
PSFILL
1000
Grayscale
1000
Grayscale
1070
   100
1002
}
  0
LINE
  5
13606
  8
YODOROGO
 10
28401.60434129191
 20
1824.877625640306
 30
0.0
 11
28401.60434129191
 21
1752.877625640306
 31
0.0
1001
AUTOCAD_POSTSCRIPT_FIGURE
1002
{
1000
PSFILL
1000
Grayscale
1000
Grayscale
1070
   100
1002
}
  0
LINE
  5
13607
  8
YODOROGO
 10
28401.60434129191
 20
1916.8776256403071
 30
0.0
 11
28401.60434129191
 21
1984.877625640306
 31
0.0
1001
AUTOCAD_POSTSCRIPT_FIGURE
1002
{
1000
PSFILL
1000
Grayscale
1000
Grayscale
1070
   100
1002
}
  0
LINE
  5
13608
  8
YODOROGO
 10
28433.60434129191
 20
1819.7494964292871
 30
0.0
 11
28433.60434129191
 21
1747.74949642929
 31
0.0
  0
LINE
  5
13609
  8
YODOROGO
 10
28497.60434129191
 20
1707.749496429288
 30
0.0
 11
28433.60434129191
 21
1707.749496429288
 31
0.0
  0
LINE
  5
1360A
  8
YODOROGO
 10
28433.60434129191
 20
1747.74949642929
 30
0.0
 11
28585.604341291921
 21
1747.74949642929
 31
0.0
  0
LINE
  5
1360B
  8
YODOROGO
 10
28497.60434129191
 20
1867.7494964292871
 30
0.0
 11
28433.60434129191
 21
1867.7494964292871
 31
0.0
  0
LINE
  5
1360C
  8
YODOROGO
 10
28497.60434129191
 20
1923.7494964292871
 30
0.0
 11
28497.60434129191
 21
1867.7494964292871
 31
0.0
  0
LINE
  5
1360D
  8
YODOROGO
 10
28585.604341291921
 20
1987.7494964292871
 30
0.0
 11
28585.604341291921
 21
2027.749496429288
 31
0.0
  0
LINE
  5
1360E
  8
YODOROGO
 10
28433.60434129191
 20
1987.7494964292871
 30
0.0
 11
28585.604341291921
 21
1987.7494964292871
 31
0.0
  0
LINE
  5
1360F
  8
YODOROGO
 10
28433.60434129191
 20
1867.7494964292871
 30
0.0
 11
28433.60434129191
 21
1987.7494964292871
 31
0.0
  0
LINE
  5
13610
  8
YODOROGO
 10
29001.60434129191
 20
2027.749496429288
 30
0.0
 11
29001.60434129191
 21
1619.749496429288
 31
0.0
  0
LINE
  5
13611
  8
YODOROGO
 10
29073.604341291921
 20
1579.749496429288
 30
0.0
 11
29073.604341291921
 21
2027.749496429288
 31
0.0
  0
LINE
  5
13612
  8
YODOROGO
 10
29261.604341291921
 20
1491.749496429286
 30
0.0
 11
29261.604341291921
 21
2007.749496429288
 31
0.0
  0
LINE
  5
13613
  8
YODOROGO
 10
29197.604341291921
 20
2007.749496429288
 30
0.0
 11
29197.604341291921
 21
1491.749496429286
 31
0.0
  0
LINE
  5
13614
  8
YODOROGO
 10
29385.604341291921
 20
2027.749496429288
 30
0.0
 11
29385.604341291921
 21
1427.749496429288
 31
0.0
  0
LINE
  5
13615
  8
YODOROGO
 10
29457.604341291921
 20
1427.749496429288
 30
0.0
 11
29457.604341291921
 21
2027.749496429288
 31
0.0
  0
LINE
  5
13616
  8
YODOROGO
 10
28657.604341291921
 20
1667.749496429288
 30
0.0
 11
28657.604341291921
 21
1747.74949642929
 31
0.0
  0
LINE
  5
13617
  8
YODOROGO
 10
29885.604341291921
 20
1707.749496429288
 30
0.0
 11
29885.604341291921
 21
1667.749496429288
 31
0.0
  0
LINE
  5
13618
  8
YODOROGO
 10
29885.604341291921
 20
1707.749496429288
 30
0.0
 11
29885.604341291921
 21
1667.749496429288
 31
0.0
  0
ARC
  5
13619
  8
YODOROGO
 10
28906.911576186842
 20
1618.217864442272
 30
0.0
 40
94.705151178741644
 50
274.05244162907098
 51
0.9266642149310712
  0
ARC
  5
1361A
  8
YODOROGO
 10
28909.186170719819
 20
1592.61072861044
 30
0.0
 40
164.92042356085511
 50
271.5351210653775
 51
355.52727750585052
  0
LINE
  5
1361B
  8
YODOROGO
 10
28913.604341291921
 20
1523.7494964292871
 30
0.0
 11
28913.604341291921
 21
1427.749496429288
 31
0.0
  0
LINE
  5
1361C
  8
YODOROGO
 10
28793.60434129191
 20
1667.749496429288
 30
0.0
 11
28657.604341291921
 21
1667.749496429288
 31
0.0
  0
LINE
  5
1361D
  8
YODOROGO
 10
28793.60434129191
 20
1603.7494964292871
 30
0.0
 11
28793.60434129191
 21
1667.749496429288
 31
0.0
  0
LINE
  5
1361E
  8
YODOROGO
 10
28657.604341291921
 20
1603.7494964292871
 30
0.0
 11
28793.60434129191
 21
1603.7494964292871
 31
0.0
  0
LINE
  5
1361F
  8
YODOROGO
 10
28657.604341291921
 20
1523.7494964292871
 30
0.0
 11
28657.604341291921
 21
1603.7494964292871
 31
0.0
  0
LINE
  5
13620
  8
YODOROGO
 10
28793.60434129191
 20
1523.7494964292871
 30
0.0
 11
28657.604341291921
 21
1523.7494964292871
 31
0.0
  0
LINE
  5
13621
  8
YODOROGO
 10
28793.60434129191
 20
1427.749496429288
 30
0.0
 11
28793.60434129191
 21
1523.7494964292871
 31
0.0
  0
LINE
  5
13622
  8
YODOROGO
 10
29197.604341291921
 20
1491.749496429286
 30
0.0
 11
29261.604341291921
 21
1491.749496429286
 31
0.0
  0
LINE
  5
13623
  8
YODOROGO
 10
29385.604341291921
 20
1427.749496429288
 30
0.0
 11
29457.604341291921
 21
1427.749496429288
 31
0.0
  0
LINE
  5
13624
  8
YODOROGO
 10
29737.604341291921
 20
1528.4414521705639
 30
0.0
 11
29737.604341291921
 21
1427.749496429288
 31
0.0
  0
LINE
  5
13625
  8
YODOROGO
 10
29617.604341291921
 20
1427.749496429288
 30
0.0
 11
29737.604341291921
 21
1528.4414521705639
 31
0.0
  0
LINE
  5
13626
  8
YODOROGO
 10
29617.604341291921
 20
1547.749496429288
 30
0.0
 11
29617.604341291921
 21
1427.749496429288
 31
0.0
  0
LINE
  5
13627
  8
YODOROGO
 10
29712.94462869945
 20
1627.749496429288
 30
0.0
 11
29617.604341291921
 21
1547.749496429288
 31
0.0
  0
LINE
  5
13628
  8
YODOROGO
 10
29617.604341291921
 20
1627.749496429288
 30
0.0
 11
29712.94462869945
 21
1627.749496429288
 31
0.0
  0
LINE
  5
13629
  8
YODOROGO
 10
29617.604341291921
 20
1667.749496429288
 30
0.0
 11
29617.604341291921
 21
1627.749496429288
 31
0.0
  0
LINE
  5
1362A
  8
YODOROGO
 10
29885.604341291921
 20
1667.749496429288
 30
0.0
 11
29617.604341291921
 21
1667.749496429288
 31
0.0
  0
LINE
  5
1362B
  8
YODOROGO
 10
29917.604341291921
 20
1627.749496429288
 30
0.0
 11
29777.604341291921
 21
1627.749496429288
 31
0.0
  0
LINE
  5
1362C
  8
YODOROGO
 10
29777.604341291921
 20
1562.0054374176559
 30
0.0
 11
29771.409872985321
 21
1556.807661346234
 31
0.0
  0
LINE
  5
1362D
  8
YODOROGO
 10
29777.604341291921
 20
1627.749496429288
 30
0.0
 11
29777.604341291921
 21
1562.0054374176559
 31
0.0
  0
LINE
  5
1362E
  8
YODOROGO
 10
29737.604341291921
 20
1528.4414521705639
 30
0.0
 11
29737.604341291921
 21
1427.749496429288
 31
0.0
  0
LINE
  5
1362F
  8
YODOROGO
 10
29617.604341291921
 20
1427.749496429288
 30
0.0
 11
29737.604341291921
 21
1528.4414521705639
 31
0.0
  0
LINE
  5
13630
  8
YODOROGO
 10
29617.604341291921
 20
1547.749496429288
 30
0.0
 11
29617.604341291921
 21
1427.749496429288
 31
0.0
  0
LINE
  5
13631
  8
YODOROGO
 10
29712.94462869945
 20
1627.749496429288
 30
0.0
 11
29617.604341291921
 21
1547.749496429288
 31
0.0
  0
LINE
  5
13632
  8
YODOROGO
 10
29617.604341291921
 20
1627.749496429288
 30
0.0
 11
29712.94462869945
 21
1627.749496429288
 31
0.0
  0
LINE
  5
13633
  8
YODOROGO
 10
29617.604341291921
 20
1667.749496429288
 30
0.0
 11
29617.604341291921
 21
1627.749496429288
 31
0.0
  0
LINE
  5
13634
  8
YODOROGO
 10
29885.604341291921
 20
1667.749496429288
 30
0.0
 11
29617.604341291921
 21
1667.749496429288
 31
0.0
  0
LINE
  5
13635
  8
YODOROGO
 10
28793.60434129191
 20
1747.74949642929
 30
0.0
 11
28793.60434129191
 21
1819.7494964292871
 31
0.0
  0
LINE
  5
13636
  8
YODOROGO
 10
28657.604341291921
 20
1747.74949642929
 30
0.0
 11
28793.60434129191
 21
1747.74949642929
 31
0.0
  0
LINE
  5
13637
  8
YODOROGO
 10
28729.604341291921
 20
1867.7494964292871
 30
0.0
 11
28729.604341291921
 21
1923.7494964292871
 31
0.0
  0
LINE
  5
13638
  8
YODOROGO
 10
28793.60434129191
 20
1867.7494964292871
 30
0.0
 11
28729.604341291921
 21
1867.7494964292871
 31
0.0
  0
LINE
  5
13639
  8
YODOROGO
 10
28793.60434129191
 20
1947.749496429288
 30
0.0
 11
28793.60434129191
 21
1867.7494964292871
 31
0.0
  0
ARC
  5
1363A
  8
YODOROGO
 10
28753.60434129191
 20
1947.749496429288
 30
0.0
 40
40.0
 50
0.0
 51
90.0
  0
LINE
  5
1363B
  8
YODOROGO
 10
28657.604341291921
 20
1987.7494964292871
 30
0.0
 11
28753.60434129191
 21
1987.7494964292871
 31
0.0
  0
LINE
  5
1363C
  8
YODOROGO
 10
28657.604341291921
 20
2027.749496429288
 30
0.0
 11
28657.604341291921
 21
1987.7494964292871
 31
0.0
  0
LINE
  5
1363D
  8
YODOROGO
 10
29073.604341291921
 20
2027.749496429288
 30
0.0
 11
29001.60434129191
 21
2027.749496429288
 31
0.0
  0
LINE
  5
1363E
  8
YODOROGO
 10
29261.604341291921
 20
2007.749496429288
 30
0.0
 11
29197.604341291921
 21
2007.749496429288
 31
0.0
  0
LINE
  5
1363F
  8
YODOROGO
 10
29457.604341291921
 20
2027.749496429288
 30
0.0
 11
29385.604341291921
 21
2027.749496429288
 31
0.0
  0
LINE
  5
13640
  8
YODOROGO
 10
29673.604341291921
 20
1707.749496429288
 30
0.0
 11
29673.604341291921
 21
1771.7494964292871
 31
0.0
1001
AUTOCAD_POSTSCRIPT_FIGURE
1002
{
1000
PSFILL
1000
Grayscale
1000
Grayscale
1070
    25
1002
}
  0
LINE
  5
13641
  8
YODOROGO
 10
29617.604341291921
 20
1707.749496429288
 30
0.0
 11
29673.604341291921
 21
1707.749496429288
 31
0.0
1001
AUTOCAD_POSTSCRIPT_FIGURE
1002
{
1000
PSFILL
1000
Grayscale
1000
Grayscale
1070
    25
1002
}
  0
LINE
  5
13642
  8
YODOROGO
 10
29617.604341291921
 20
1819.7494964292871
 30
0.0
 11
29617.604341291921
 21
1707.749496429288
 31
0.0
1001
AUTOCAD_POSTSCRIPT_FIGURE
1002
{
1000
PSFILL
1000
Grayscale
1000
Grayscale
1070
    25
1002
}
  0
LINE
  5
13643
  8
YODOROGO
 10
29765.604341291921
 20
1819.7494964292871
 30
0.0
 11
29617.604341291921
 21
1819.7494964292871
 31
0.0
1001
AUTOCAD_POSTSCRIPT_FIGURE
1002
{
1000
PSFILL
1000
Grayscale
1000
Grayscale
1070
    25
1002
}
  0
LINE
  5
13644
  8
YODOROGO
 10
29765.604341291921
 20
1859.749496429288
 30
0.0
 11
29765.604341291921
 21
1819.7494964292871
 31
0.0
1001
AUTOCAD_POSTSCRIPT_FIGURE
1002
{
1000
PSFILL
1000
Grayscale
1000
Grayscale
1070
    25
1002
}
  0
LINE
  5
13645
  8
YODOROGO
 10
29617.604341291921
 20
1859.749496429288
 30
0.0
 11
29765.604341291921
 21
1859.749496429288
 31
0.0
1001
AUTOCAD_POSTSCRIPT_FIGURE
1002
{
1000
PSFILL
1000
Grayscale
1000
Grayscale
1070
    25
1002
}
  0
LINE
  5
13646
  8
YODOROGO
 10
29617.604341291921
 20
1907.7494964292871
 30
0.0
 11
29617.604341291921
 21
1859.749496429288
 31
0.0
1001
AUTOCAD_POSTSCRIPT_FIGURE
1002
{
1000
PSFILL
1000
Grayscale
1000
Grayscale
1070
    25
1002
}
  0
LINE
  5
13647
  8
YODOROGO
 10
29765.604341291921
 20
1907.7494964292871
 30
0.0
 11
29617.604341291921
 21
1907.7494964292871
 31
0.0
1001
AUTOCAD_POSTSCRIPT_FIGURE
1002
{
1000
PSFILL
1000
Grayscale
1000
Grayscale
1070
    25
1002
}
  0
LINE
  5
13648
  8
YODOROGO
 10
29765.604341291921
 20
1947.749496429288
 30
0.0
 11
29765.604341291921
 21
1907.7494964292871
 31
0.0
1001
AUTOCAD_POSTSCRIPT_FIGURE
1002
{
1000
PSFILL
1000
Grayscale
1000
Grayscale
1070
    25
1002
}
  0
LINE
  5
13649
  8
YODOROGO
 10
29617.604341291921
 20
1947.749496429288
 30
0.0
 11
29765.604341291921
 21
1947.749496429288
 31
0.0
1001
AUTOCAD_POSTSCRIPT_FIGURE
1002
{
1000
PSFILL
1000
Grayscale
1000
Grayscale
1070
    25
1002
}
  0
LINE
  5
1364A
  8
YODOROGO
 10
29617.604341291921
 20
2027.749496429288
 30
0.0
 11
29617.604341291921
 21
1947.749496429288
 31
0.0
1001
AUTOCAD_POSTSCRIPT_FIGURE
1002
{
1000
PSFILL
1000
Grayscale
1000
Grayscale
1070
    25
1002
}
  0
LINE
  5
1364B
  8
YODOROGO
 10
29665.604341291921
 20
2027.749496429288
 30
0.0
 11
29617.604341291921
 21
2027.749496429288
 31
0.0
1001
AUTOCAD_POSTSCRIPT_FIGURE
1002
{
1000
PSFILL
1000
Grayscale
1000
Grayscale
1070
    25
1002
}
  0
LINE
  5
1364C
  8
YODOROGO
 10
29665.604341291921
 20
1995.7494964292871
 30
0.0
 11
29665.604341291921
 21
2027.749496429288
 31
0.0
1001
AUTOCAD_POSTSCRIPT_FIGURE
1002
{
1000
PSFILL
1000
Grayscale
1000
Grayscale
1070
    25
1002
}
  0
LINE
  5
1364D
  8
YODOROGO
 10
29765.604341291921
 20
1995.7494964292871
 30
0.0
 11
29665.604341291921
 21
1995.7494964292871
 31
0.0
1001
AUTOCAD_POSTSCRIPT_FIGURE
1002
{
1000
PSFILL
1000
Grayscale
1000
Grayscale
1070
    25
1002
}
  0
LINE
  5
1364E
  8
YODOROGO
 10
29765.604341291921
 20
2027.749496429288
 30
0.0
 11
29765.604341291921
 21
1995.7494964292871
 31
0.0
1001
AUTOCAD_POSTSCRIPT_FIGURE
1002
{
1000
PSFILL
1000
Grayscale
1000
Grayscale
1070
    25
1002
}
  0
LINE
  5
1364F
  8
YODOROGO
 10
29829.604341291921
 20
2027.749496429288
 30
0.0
 11
29765.604341291921
 21
2027.749496429288
 31
0.0
1001
AUTOCAD_POSTSCRIPT_FIGURE
1002
{
1000
PSFILL
1000
Grayscale
1000
Grayscale
1070
    25
1002
}
  0
LINE
  5
13650
  8
YODOROGO
 10
29829.604341291921
 20
1995.7494964292871
 30
0.0
 11
29829.604341291921
 21
2027.749496429288
 31
0.0
1001
AUTOCAD_POSTSCRIPT_FIGURE
1002
{
1000
PSFILL
1000
Grayscale
1000
Grayscale
1070
    25
1002
}
  0
LINE
  5
13651
  8
YODOROGO
 10
29829.604341291921
 20
1907.7494964292871
 30
0.0
 11
29829.604341291921
 21
1947.749496429288
 31
0.0
1001
AUTOCAD_POSTSCRIPT_FIGURE
1002
{
1000
PSFILL
1000
Grayscale
1000
Grayscale
1070
    25
1002
}
  0
LINE
  5
13652
  8
YODOROGO
 10
29829.604341291921
 20
1819.7494964292871
 30
0.0
 11
29829.604341291921
 21
1859.749496429288
 31
0.0
1001
AUTOCAD_POSTSCRIPT_FIGURE
1002
{
1000
PSFILL
1000
Grayscale
1000
Grayscale
1070
    25
1002
}
  0
LINE
  5
13653
  8
YODOROGO
 10
29921.60434129191
 20
1771.7494964292871
 30
0.0
 11
29921.60434129191
 21
1707.749496429288
 31
0.0
1001
AUTOCAD_POSTSCRIPT_FIGURE
1002
{
1000
PSFILL
1000
Grayscale
1000
Grayscale
1070
    25
1002
}
  0
LINE
  5
13654
  8
YODOROGO
 10
29829.604341291921
 20
1771.7494964292871
 30
0.0
 11
29921.60434129191
 21
1771.7494964292871
 31
0.0
1001
AUTOCAD_POSTSCRIPT_FIGURE
1002
{
1000
PSFILL
1000
Grayscale
1000
Grayscale
1070
    25
1002
}
  0
LINE
  5
13655
  8
YODOROGO
 10
29829.604341291921
 20
1707.749496429288
 30
0.0
 11
29829.604341291921
 21
1771.7494964292871
 31
0.0
1001
AUTOCAD_POSTSCRIPT_FIGURE
1002
{
1000
PSFILL
1000
Grayscale
1000
Grayscale
1070
    25
1002
}
  0
LINE
  5
13656
  8
YODOROGO
 10
29765.604341291921
 20
1707.749496429288
 30
0.0
 11
29829.604341291921
 21
1707.749496429288
 31
0.0
1001
AUTOCAD_POSTSCRIPT_FIGURE
1002
{
1000
PSFILL
1000
Grayscale
1000
Grayscale
1070
    25
1002
}
  0
LINE
  5
13657
  8
YODOROGO
 10
29765.604341291921
 20
1771.7494964292871
 30
0.0
 11
29765.604341291921
 21
1707.749496429288
 31
0.0
1001
AUTOCAD_POSTSCRIPT_FIGURE
1002
{
1000
PSFILL
1000
Grayscale
1000
Grayscale
1070
    25
1002
}
  0
LINE
  5
13658
  8
YODOROGO
 10
29673.604341291921
 20
1771.7494964292871
 30
0.0
 11
29765.604341291921
 21
1771.7494964292871
 31
0.0
1001
AUTOCAD_POSTSCRIPT_FIGURE
1002
{
1000
PSFILL
1000
Grayscale
1000
Grayscale
1070
    25
1002
}
  0
ARC
  5
13659
  8
YODOROGO
 10
31059.517893357912
 20
1602.6807375155761
 30
0.0
 40
178.22128111072141
 50
281.02627495425338
 51
357.77113575573799
  0
LINE
  5
1365A
  8
YODOROGO
 10
31413.604341291921
 20
1907.7494964292871
 30
0.0
 11
31165.604341291921
 21
1907.7494964292871
 31
0.0
  0
LINE
  5
1365B
  8
YODOROGO
 10
31413.604341291921
 20
2027.749496429288
 30
0.0
 11
31165.604341291921
 21
2027.749496429288
 31
0.0
  0
LINE
  5
1365C
  8
YODOROGO
 10
31165.604341291921
 20
1963.749496429286
 30
0.0
 11
31413.604341291921
 21
1963.749496429286
 31
0.0
  0
LINE
  5
1365D
  8
YODOROGO
 10
30791.604341291921
 20
1563.7494964292871
 30
0.0
 11
30791.604341291921
 21
1755.7494964292871
 31
0.0
  0
LINE
  5
1365E
  8
YODOROGO
 10
30763.604341291921
 20
1691.749496429288
 30
0.0
 11
30763.604341291921
 21
1563.7494964292871
 31
0.0
  0
LINE
  5
1365F
  8
YODOROGO
 10
30723.604341291921
 20
1491.749496429288
 30
0.0
 11
30723.604341291921
 21
1691.749496429288
 31
0.0
  0
LINE
  5
13660
  8
YODOROGO
 10
30899.604341291932
 20
1691.749496429288
 30
0.0
 11
30899.604341291932
 21
1491.749496429288
 31
0.0
  0
LINE
  5
13661
  8
YODOROGO
 10
30859.604341291932
 20
1563.7494964292871
 30
0.0
 11
30859.604341291932
 21
1691.749496429288
 31
0.0
  0
LINE
  5
13662
  8
YODOROGO
 10
30831.604341291921
 20
1755.7494964292871
 30
0.0
 11
30831.604341291921
 21
1563.7494964292871
 31
0.0
  0
LINE
  5
13663
  8
YODOROGO
 10
30973.604341291921
 20
2027.749496429288
 30
0.0
 11
30973.604341291921
 21
1467.749496429288
 31
0.0
  0
LINE
  5
13664
  8
YODOROGO
 10
30645.604341291921
 20
1427.749496429288
 30
0.0
 11
30645.604341291921
 21
2027.749496429288
 31
0.0
  0
LINE
  5
13665
  8
YODOROGO
 10
30697.604341291932
 20
1963.749496429286
 30
0.0
 11
30697.604341291932
 21
1427.749496429288
 31
0.0
  0
LINE
  5
13666
  8
YODOROGO
 10
30925.604341291921
 20
1547.749496429288
 30
0.0
 11
30925.604341291921
 21
1963.749496429286
 31
0.0
  0
LINE
  5
13667
  8
YODOROGO
 10
30381.604341291932
 20
1627.749496429288
 30
0.0
 11
30381.604341291932
 21
1679.749496429288
 31
0.0
  0
LINE
  5
13668
  8
YODOROGO
 10
30617.604341291921
 20
1679.749496429288
 30
0.0
 11
30617.604341291921
 21
1627.749496429288
 31
0.0
  0
LINE
  5
13669
  8
YODOROGO
 10
31165.604341291921
 20
1907.7494964292871
 30
0.0
 11
31165.604341291921
 21
1635.7494964292871
 31
0.0
  0
LINE
  5
1366A
  8
YODOROGO
 10
29949.60434129191
 20
1667.749496429288
 30
0.0
 11
29949.60434129191
 21
1707.749496429288
 31
0.0
  0
LINE
  5
1366B
  8
YODOROGO
 10
29949.60434129191
 20
1667.749496429288
 30
0.0
 11
29949.60434129191
 21
1707.749496429288
 31
0.0
  0
ARC
  5
1366C
  8
YODOROGO
 10
30537.604341291921
 20
1507.749496429288
 30
0.0
 40
80.0
 50
270.0
 51
0.0
  0
LINE
  5
1366D
  8
YODOROGO
 10
30569.604341291921
 20
1599.7494964292871
 30
0.0
 11
30617.604341291921
 21
1599.7494964292871
 31
0.0
  0
LINE
  5
1366E
  8
YODOROGO
 10
30617.604341291921
 20
1627.749496429288
 30
0.0
 11
30529.604341291939
 21
1627.749496429288
 31
0.0
  0
LINE
  5
1366F
  8
YODOROGO
 10
30217.604341291921
 20
1667.749496429288
 30
0.0
 11
29949.60434129191
 21
1667.749496429288
 31
0.0
  0
LINE
  5
13670
  8
YODOROGO
 10
30217.604341291921
 20
1627.749496429288
 30
0.0
 11
30217.604341291921
 21
1667.749496429288
 31
0.0
  0
LINE
  5
13671
  8
YODOROGO
 10
30017.604341291921
 20
1627.749496429288
 30
0.0
 11
30217.604341291921
 21
1627.749496429288
 31
0.0
  0
ARC
  5
13672
  8
YODOROGO
 10
30230.05882870136
 20
1868.885714952901
 30
0.0
 40
321.37763628522822
 50
228.6181454618993
 51
245.660289248906
  0
LINE
  5
13673
  8
YODOROGO
 10
30105.604341291921
 20
1603.7494964292871
 30
0.0
 11
30097.60434129195
 21
1576.0728158699001
 31
0.0
  0
LINE
  5
13674
  8
YODOROGO
 10
30189.604341291921
 20
1603.7494964292871
 30
0.0
 11
30105.604341291921
 21
1603.7494964292871
 31
0.0
  0
LINE
  5
13675
  8
YODOROGO
 10
30177.604341291921
 20
1551.817722473427
 30
0.0
 11
30189.604341291921
 21
1603.7494964292871
 31
0.0
  0
ARC
  5
13676
  8
YODOROGO
 10
30230.05882870045
 20
1868.885714953002
 30
0.0
 40
321.37763628529081
 50
260.60629297969911
 51
267.77903556555862
  0
LINE
  5
13677
  8
YODOROGO
 10
30217.604341291921
 20
1427.749496429285
 30
0.0
 11
30217.604341291921
 21
1547.749496429288
 31
0.0
  0
LINE
  5
13678
  8
YODOROGO
 10
29937.604341291932
 20
1481.3393349155101
 30
0.0
 11
29937.604341291921
 21
1594.531090531141
 31
0.0
  0
LINE
  5
13679
  8
YODOROGO
 10
30217.604341291921
 20
1667.749496429288
 30
0.0
 11
29949.60434129191
 21
1667.749496429288
 31
0.0
  0
LINE
  5
1367A
  8
YODOROGO
 10
30217.604341291921
 20
1627.749496429288
 30
0.0
 11
30217.604341291921
 21
1667.749496429288
 31
0.0
  0
LINE
  5
1367B
  8
YODOROGO
 10
30017.604341291921
 20
1627.749496429288
 30
0.0
 11
30217.604341291921
 21
1627.749496429288
 31
0.0
  0
ARC
  5
1367C
  8
YODOROGO
 10
30230.05882870136
 20
1868.885714952901
 30
0.0
 40
321.37763628522822
 50
228.6181454618993
 51
245.660289248906
  0
LINE
  5
1367D
  8
YODOROGO
 10
30105.604341291921
 20
1603.7494964292871
 30
0.0
 11
30097.60434129195
 21
1576.0728158699001
 31
0.0
  0
LINE
  5
1367E
  8
YODOROGO
 10
30189.604341291921
 20
1603.7494964292871
 30
0.0
 11
30105.604341291921
 21
1603.7494964292871
 31
0.0
  0
LINE
  5
1367F
  8
YODOROGO
 10
30177.604341291921
 20
1551.817722473427
 30
0.0
 11
30189.604341291921
 21
1603.7494964292871
 31
0.0
  0
ARC
  5
13680
  8
YODOROGO
 10
30230.05882870045
 20
1868.885714953002
 30
0.0
 40
321.37763628529081
 50
260.60629297969911
 51
267.77903556555862
  0
LINE
  5
13681
  8
YODOROGO
 10
30217.604341291921
 20
1427.749496429285
 30
0.0
 11
30217.604341291921
 21
1547.749496429288
 31
0.0
  0
LINE
  5
13682
  8
YODOROGO
 10
29937.604341291932
 20
1481.3393349155101
 30
0.0
 11
29937.604341291921
 21
1594.531090531141
 31
0.0
  0
LINE
  5
13683
  8
YODOROGO
 10
30433.604341291921
 20
1573.749496429288
 30
0.0
 11
30381.604341291932
 21
1573.749496429288
 31
0.0
  0
LINE
  5
13684
  8
YODOROGO
 10
30433.604341291921
 20
1601.749496429285
 30
0.0
 11
30433.604341291921
 21
1573.749496429288
 31
0.0
  0
LINE
  5
13685
  8
YODOROGO
 10
30381.604341291932
 20
1601.749496429285
 30
0.0
 11
30433.604341291921
 21
1601.749496429285
 31
0.0
  0
LINE
  5
13686
  8
YODOROGO
 10
30381.604341291932
 20
1573.749496429288
 30
0.0
 11
30381.604341291932
 21
1601.749496429285
 31
0.0
  0
LINE
  5
13687
  8
YODOROGO
 10
30429.604341291921
 20
1577.7494964292871
 30
0.0
 11
30385.604341291921
 21
1577.7494964292871
 31
0.0
  0
LINE
  5
13688
  8
YODOROGO
 10
30429.604341291921
 20
1597.749496429288
 30
0.0
 11
30429.604341291921
 21
1577.7494964292871
 31
0.0
  0
LINE
  5
13689
  8
YODOROGO
 10
30385.604341291921
 20
1597.749496429288
 30
0.0
 11
30429.604341291921
 21
1597.749496429288
 31
0.0
  0
LINE
  5
1368A
  8
YODOROGO
 10
30385.604341291921
 20
1577.7494964292871
 30
0.0
 11
30385.604341291921
 21
1597.749496429288
 31
0.0
  0
LINE
  5
1368B
  8
YODOROGO
 10
30425.604341291921
 20
1581.749496429286
 30
0.0
 11
30389.604341291921
 21
1581.749496429286
 31
0.0
  0
LINE
  5
1368C
  8
YODOROGO
 10
30425.604341291921
 20
1593.749496429288
 30
0.0
 11
30425.604341291921
 21
1581.749496429286
 31
0.0
  0
LINE
  5
1368D
  8
YODOROGO
 10
30389.604341291921
 20
1593.749496429288
 30
0.0
 11
30425.604341291921
 21
1593.749496429288
 31
0.0
  0
LINE
  5
1368E
  8
YODOROGO
 10
30389.604341291921
 20
1581.749496429286
 30
0.0
 11
30389.604341291921
 21
1593.749496429288
 31
0.0
  0
LINE
  5
1368F
  8
YODOROGO
 10
30421.604341291932
 20
1585.7494964292871
 30
0.0
 11
30393.604341291921
 21
1585.7494964292871
 31
0.0
  0
LINE
  5
13690
  8
YODOROGO
 10
30421.604341291932
 20
1589.749496429288
 30
0.0
 11
30421.604341291932
 21
1585.7494964292871
 31
0.0
  0
LINE
  5
13691
  8
YODOROGO
 10
30393.604341291921
 20
1589.749496429288
 30
0.0
 11
30421.604341291932
 21
1589.749496429288
 31
0.0
  0
LINE
  5
13692
  8
YODOROGO
 10
30393.604341291921
 20
1585.7494964292871
 30
0.0
 11
30393.604341291921
 21
1589.749496429288
 31
0.0
  0
LINE
  5
13693
  8
YODOROGO
 10
30465.604341291921
 20
1627.749496429288
 30
0.0
 11
30381.604341291932
 21
1627.749496429288
 31
0.0
  0
LINE
  5
13694
  8
YODOROGO
 10
30465.604341291921
 20
1547.749496429288
 30
0.0
 11
30465.604341291921
 21
1627.749496429288
 31
0.0
  0
LINE
  5
13695
  8
YODOROGO
 10
30381.604341291932
 20
1547.749496429288
 30
0.0
 11
30465.604341291921
 21
1547.749496429288
 31
0.0
  0
LINE
  5
13696
  8
YODOROGO
 10
30381.604341291932
 20
1427.749496429288
 30
0.0
 11
30381.604341291932
 21
1547.749496429288
 31
0.0
  0
LINE
  5
13697
  8
YODOROGO
 10
30537.604341291921
 20
1427.749496429288
 30
0.0
 11
30381.604341291932
 21
1427.749496429288
 31
0.0
  0
LINE
  5
13698
  8
YODOROGO
 10
30569.604341291921
 20
1571.749496429285
 30
0.0
 11
30569.604341291921
 21
1599.7494964292871
 31
0.0
  0
ARC
  5
13699
  8
YODOROGO
 10
30545.604341291921
 20
1571.749496429291
 30
0.0
 40
24.000000000003752
 50
270.0
 51
359.99999999998772
  0
LINE
  5
1369A
  8
YODOROGO
 10
30529.604341291939
 20
1547.749496429288
 30
0.0
 11
30545.604341291921
 21
1547.749496429288
 31
0.0
  0
LINE
  5
1369B
  8
YODOROGO
 10
30529.604341291939
 20
1627.749496429288
 30
0.0
 11
30529.604341291939
 21
1547.749496429288
 31
0.0
  0
LINE
  5
1369C
  8
YODOROGO
 10
30899.604341291932
 20
1547.749496429288
 30
0.0
 11
30925.604341291921
 21
1547.749496429288
 31
0.0
  0
LINE
  5
1369D
  8
YODOROGO
 10
30933.604341291921
 20
1427.749496429288
 30
0.0
 11
30899.604341291932
 21
1427.749496429288
 31
0.0
  0
LINE
  5
1369E
  8
YODOROGO
 10
30763.604341291921
 20
1563.7494964292871
 30
0.0
 11
30791.604341291921
 21
1563.7494964292871
 31
0.0
  0
LINE
  5
1369F
  8
YODOROGO
 10
30899.604341291932
 20
1491.749496429288
 30
0.0
 11
30723.604341291921
 21
1491.749496429288
 31
0.0
  0
LINE
  5
136A0
  8
YODOROGO
 10
30831.604341291921
 20
1563.7494964292871
 30
0.0
 11
30859.604341291932
 21
1563.7494964292871
 31
0.0
  0
LINE
  5
136A1
  8
YODOROGO
 10
30899.604341291932
 20
1427.749496429288
 30
0.0
 11
30899.604341291932
 21
1547.749496429288
 31
0.0
  0
LINE
  5
136A2
  8
YODOROGO
 10
30697.604341291932
 20
1427.749496429288
 30
0.0
 11
30645.604341291921
 21
1427.749496429288
 31
0.0
  0
LINE
  5
136A3
  8
YODOROGO
 10
30617.604341291921
 20
1599.7494964292871
 30
0.0
 11
30617.604341291921
 21
1507.749496429288
 31
0.0
  0
ARC
  5
136A4
  8
YODOROGO
 10
30933.604341291921
 20
1467.749496429288
 30
0.0
 40
40.0
 50
270.0
 51
0.0
  0
LINE
  5
136A5
  8
YODOROGO
 10
31093.604341291921
 20
1523.7494964292871
 30
0.0
 11
31093.604341291921
 21
1427.749496429288
 31
0.0
  0
ARC
  5
136A6
  8
YODOROGO
 10
31039.721395566768
 20
1637.5313901097329
 30
0.0
 40
125.8955565916754
 50
295.34052442160112
 51
359.18902303418679
  0
LINE
  5
136A7
  8
YODOROGO
 10
30617.604341291921
 20
1859.749496429288
 30
0.0
 11
30497.604341291921
 21
1939.749496429288
 31
0.0
  0
LINE
  5
136A8
  8
YODOROGO
 10
30497.604341291921
 20
2027.749496429288
 30
0.0
 11
30617.604341291921
 21
1947.749496429288
 31
0.0
  0
LINE
  5
136A9
  8
YODOROGO
 10
30529.604341291939
 20
1679.749496429288
 30
0.0
 11
30617.604341291921
 21
1679.749496429288
 31
0.0
  0
LINE
  5
136AA
  8
YODOROGO
 10
30617.604341291921
 20
1735.7494964292871
 30
0.0
 11
30529.604341291939
 21
1735.7494964292871
 31
0.0
  0
LINE
  5
136AB
  8
YODOROGO
 10
30381.604341291932
 20
1795.7494964292871
 30
0.0
 11
30617.604341291921
 21
1795.7494964292871
 31
0.0
  0
LINE
  5
136AC
  8
YODOROGO
 10
30081.604341291921
 20
2027.749496429288
 30
0.0
 11
30021.604341291921
 21
2027.749496429288
 31
0.0
  0
LINE
  5
136AD
  8
YODOROGO
 10
30081.604341291921
 20
1827.7494964292871
 30
0.0
 11
30081.604341291921
 21
2027.749496429288
 31
0.0
  0
LINE
  5
136AE
  8
YODOROGO
 10
30021.604341291921
 20
1827.7494964292871
 30
0.0
 11
30081.604341291921
 21
1827.7494964292871
 31
0.0
  0
LINE
  5
136AF
  8
YODOROGO
 10
30021.604341291921
 20
2027.749496429288
 30
0.0
 11
30021.604341291921
 21
1827.7494964292871
 31
0.0
  0
LINE
  5
136B0
  8
YODOROGO
 10
30161.604341291921
 20
2027.749496429288
 30
0.0
 11
30217.604341291921
 21
2027.749496429288
 31
0.0
  0
LINE
  5
136B1
  8
YODOROGO
 10
30161.604341291921
 20
1811.749496429288
 30
0.0
 11
30161.604341291921
 21
2027.749496429288
 31
0.0
  0
ARC
  5
136B2
  8
YODOROGO
 10
30121.604341291921
 20
1811.749496429288
 30
0.0
 40
40.0
 50
270.0
 51
0.0
  0
LINE
  5
136B3
  8
YODOROGO
 10
30021.604341291921
 20
1771.7494964292871
 30
0.0
 11
30121.604341291921
 21
1771.7494964292871
 31
0.0
  0
LINE
  5
136B4
  8
YODOROGO
 10
30021.604341291921
 20
1707.749496429288
 30
0.0
 11
30021.604341291921
 21
1771.7494964292871
 31
0.0
  0
LINE
  5
136B5
  8
YODOROGO
 10
30137.604341291921
 20
1707.749496429288
 30
0.0
 11
30021.604341291921
 21
1707.749496429288
 31
0.0
  0
ARC
  5
136B6
  8
YODOROGO
 10
30137.604341291921
 20
1787.7494964292871
 30
0.0
 40
80.0
 50
270.0
 51
0.0
  0
LINE
  5
136B7
  8
YODOROGO
 10
30217.604341291921
 20
2027.749496429288
 30
0.0
 11
30217.604341291921
 21
1787.7494964292871
 31
0.0
  0
LINE
  5
136B8
  8
YODOROGO
 10
29977.604341291921
 20
1947.749496429288
 30
0.0
 11
29977.604341291921
 21
1995.7494964292871
 31
0.0
1001
AUTOCAD_POSTSCRIPT_FIGURE
1002
{
1000
PSFILL
1000
Grayscale
1000
Grayscale
1070
    25
1002
}
  0
LINE
  5
136B9
  8
YODOROGO
 10
29977.604341291921
 20
1859.749496429288
 30
0.0
 11
29977.604341291921
 21
1907.7494964292871
 31
0.0
1001
AUTOCAD_POSTSCRIPT_FIGURE
1002
{
1000
PSFILL
1000
Grayscale
1000
Grayscale
1070
    25
1002
}
  0
LINE
  5
136BA
  8
YODOROGO
 10
29977.604341291921
 20
1707.749496429288
 30
0.0
 11
29977.604341291921
 21
1819.7494964292871
 31
0.0
1001
AUTOCAD_POSTSCRIPT_FIGURE
1002
{
1000
PSFILL
1000
Grayscale
1000
Grayscale
1070
    25
1002
}
  0
LINE
  5
136BB
  8
YODOROGO
 10
30381.604341291932
 20
1907.7494964292871
 30
0.0
 11
30497.604341291921
 21
2027.749496429288
 31
0.0
  0
LINE
  5
136BC
  8
YODOROGO
 10
30381.604341291932
 20
1819.7494964292871
 30
0.0
 11
30381.604341291932
 21
1907.7494964292871
 31
0.0
  0
LINE
  5
136BD
  8
YODOROGO
 10
30497.604341291921
 20
1939.749496429288
 30
0.0
 11
30381.604341291932
 21
1819.7494964292871
 31
0.0
  0
LINE
  5
136BE
  8
YODOROGO
 10
30465.604341291921
 20
1679.749496429288
 30
0.0
 11
30465.604341291921
 21
1735.7494964292871
 31
0.0
  0
LINE
  5
136BF
  8
YODOROGO
 10
30381.604341291932
 20
1679.749496429288
 30
0.0
 11
30465.604341291921
 21
1679.749496429288
 31
0.0
  0
LINE
  5
136C0
  8
YODOROGO
 10
30529.604341291939
 20
1735.7494964292871
 30
0.0
 11
30529.604341291939
 21
1679.749496429288
 31
0.0
  0
LINE
  5
136C1
  8
YODOROGO
 10
30381.604341291932
 20
1735.7494964292871
 30
0.0
 11
30381.604341291932
 21
1795.7494964292871
 31
0.0
  0
LINE
  5
136C2
  8
YODOROGO
 10
30465.604341291921
 20
1735.7494964292871
 30
0.0
 11
30381.604341291932
 21
1735.7494964292871
 31
0.0
  0
LINE
  5
136C3
  8
YODOROGO
 10
30645.604341291921
 20
2027.749496429288
 30
0.0
 11
30973.604341291921
 21
2027.749496429288
 31
0.0
  0
LINE
  5
136C4
  8
YODOROGO
 10
30925.604341291921
 20
1963.749496429286
 30
0.0
 11
30697.604341291932
 21
1963.749496429286
 31
0.0
  0
LINE
  5
136C5
  8
YODOROGO
 10
30873.604341291921
 20
1819.7494964292871
 30
0.0
 11
30899.604341291932
 21
1819.7494964292871
 31
0.0
  0
LINE
  5
136C6
  8
YODOROGO
 10
30899.604341291932
 20
1939.749496429288
 30
0.0
 11
30873.604341291921
 21
1819.7494964292871
 31
0.0
  0
LINE
  5
136C7
  8
YODOROGO
 10
30851.604341291939
 20
1939.749496429288
 30
0.0
 11
30899.604341291932
 21
1939.749496429288
 31
0.0
  0
LINE
  5
136C8
  8
YODOROGO
 10
30825.604341291921
 20
1819.7494964292871
 30
0.0
 11
30851.604341291939
 21
1939.749496429288
 31
0.0
  0
LINE
  5
136C9
  8
YODOROGO
 10
30797.604341291921
 20
1819.7494964292871
 30
0.0
 11
30825.604341291921
 21
1819.7494964292871
 31
0.0
  0
LINE
  5
136CA
  8
YODOROGO
 10
30771.604341291939
 20
1939.749496429288
 30
0.0
 11
30797.604341291921
 21
1819.7494964292871
 31
0.0
  0
LINE
  5
136CB
  8
YODOROGO
 10
30723.604341291921
 20
1939.749496429288
 30
0.0
 11
30771.604341291939
 21
1939.749496429288
 31
0.0
  0
LINE
  5
136CC
  8
YODOROGO
 10
30749.604341291921
 20
1819.7494964292871
 30
0.0
 11
30723.604341291921
 21
1939.749496429288
 31
0.0
  0
LINE
  5
136CD
  8
YODOROGO
 10
30723.604341291921
 20
1819.7494964292871
 30
0.0
 11
30749.604341291921
 21
1819.7494964292871
 31
0.0
  0
LINE
  5
136CE
  8
YODOROGO
 10
30723.604341291921
 20
1755.7494964292871
 30
0.0
 11
30723.604341291921
 21
1819.7494964292871
 31
0.0
  0
LINE
  5
136CF
  8
YODOROGO
 10
30899.604341291932
 20
1755.7494964292871
 30
0.0
 11
30723.604341291921
 21
1755.7494964292871
 31
0.0
  0
LINE
  5
136D0
  8
YODOROGO
 10
30899.604341291932
 20
1819.7494964292871
 30
0.0
 11
30899.604341291932
 21
1755.7494964292871
 31
0.0
  0
LINE
  5
136D1
  8
YODOROGO
 10
30617.604341291921
 20
1947.749496429288
 30
0.0
 11
30617.604341291921
 21
1859.749496429288
 31
0.0
  0
LINE
  5
136D2
  8
YODOROGO
 10
30791.604341291921
 20
1755.7494964292871
 30
0.0
 11
30831.604341291921
 21
1755.7494964292871
 31
0.0
  0
LINE
  5
136D3
  8
YODOROGO
 10
30723.604341291921
 20
1691.749496429288
 30
0.0
 11
30763.604341291921
 21
1691.749496429288
 31
0.0
  0
LINE
  5
136D4
  8
YODOROGO
 10
30859.604341291932
 20
1691.749496429288
 30
0.0
 11
30899.604341291932
 21
1691.749496429288
 31
0.0
  0
LINE
  5
136D5
  8
YODOROGO
 10
30617.604341291921
 20
1795.7494964292871
 30
0.0
 11
30617.604341291921
 21
1735.7494964292871
 31
0.0
  0
LINE
  5
136D6
  8
YODOROGO
 10
31165.604341291921
 20
2027.749496429288
 30
0.0
 11
31165.604341291921
 21
1963.749496429286
 31
0.0
  0
LINE
  5
136D7
  8
YODOROGO
 10
31533.604341291921
 20
1595.7494964292871
 30
0.0
 11
31533.60434129191
 21
1811.749496429288
 31
0.0
  0
LINE
  5
136D8
  8
YODOROGO
 10
31461.60434129191
 20
1987.7494964292871
 30
0.0
 11
31461.60434129191
 21
1635.7494964292871
 31
0.0
  0
LINE
  5
136D9
  8
YODOROGO
 10
31653.604341291921
 20
1427.749496429288
 30
0.0
 11
31653.60434129191
 21
1811.749496429288
 31
0.0
  0
LINE
  5
136DA
  8
YODOROGO
 10
31589.604341291921
 20
1811.749496429288
 30
0.0
 11
31589.604341291921
 21
1427.749496429288
 31
0.0
  0
LINE
  5
136DB
  8
YODOROGO
 10
31237.604341291921
 20
1595.7494964292871
 30
0.0
 11
31237.604341291921
 21
1707.749496429288
 31
0.0
  0
ARC
  5
136DC
  8
YODOROGO
 10
31353.914865116069
 20
1607.790351288558
 30
0.0
 40
180.0924485759885
 50
268.62849102169793
 51
356.16638457330322
  0
LINE
  5
136DD
  8
YODOROGO
 10
31349.604341291939
 20
1527.749496429288
 30
0.0
 11
31349.604341291939
 21
1427.749496429288
 31
0.0
  0
ARC
  5
136DE
  8
YODOROGO
 10
31351.518075724562
 20
1637.838957017655
 30
0.0
 40
110.1060929836122
 50
269.00410209305932
 51
358.91264455492478
  0
LINE
  5
136DF
  8
YODOROGO
 10
31589.604341291921
 20
1427.749496429288
 30
0.0
 11
31653.604341291921
 21
1427.749496429288
 31
0.0
  0
LINE
  5
136E0
  8
YODOROGO
 10
31533.60434129191
 20
1811.749496429288
 30
0.0
 11
31589.604341291921
 21
1811.749496429288
 31
0.0
  0
LINE
  5
136E1
  8
YODOROGO
 10
31621.604341291939
 20
1987.7494964292871
 30
0.0
 11
31461.60434129191
 21
1987.7494964292871
 31
0.0
  0
LINE
  5
136E2
  8
YODOROGO
 10
31533.60434129191
 20
1915.7494964292871
 30
0.0
 11
31661.604341291939
 21
1915.7494964292871
 31
0.0
  0
LINE
  5
136E3
  8
YODOROGO
 10
31701.604341291939
 20
1875.7494964292871
 30
0.0
 11
31533.60434129191
 21
1875.7494964292871
 31
0.0
  0
LINE
  5
136E4
  8
YODOROGO
 10
31237.604341291921
 20
1779.749496429288
 30
0.0
 11
31349.604341291939
 21
1779.749496429288
 31
0.0
  0
LINE
  5
136E5
  8
YODOROGO
 10
31237.604341291921
 20
1835.7494964292871
 30
0.0
 11
31237.604341291921
 21
1779.749496429288
 31
0.0
  0
LINE
  5
136E6
  8
YODOROGO
 10
31349.604341291939
 20
1835.7494964292871
 30
0.0
 11
31237.604341291921
 21
1835.7494964292871
 31
0.0
  0
LINE
  5
136E7
  8
YODOROGO
 10
31349.604341291939
 20
1779.749496429288
 30
0.0
 11
31349.604341291939
 21
1835.7494964292871
 31
0.0
  0
LINE
  5
136E8
  8
YODOROGO
 10
31533.60434129191
 20
1875.7494964292871
 30
0.0
 11
31533.60434129191
 21
1915.7494964292871
 31
0.0
  0
LINE
  5
136E9
  8
YODOROGO
 10
31413.604341291921
 20
1707.749496429288
 30
0.0
 11
31413.604341291921
 21
1907.7494964292871
 31
0.0
  0
LINE
  5
136EA
  8
YODOROGO
 10
31237.604341291921
 20
1707.749496429288
 30
0.0
 11
31413.604341291921
 21
1707.749496429288
 31
0.0
  0
LINE
  5
136EB
  8
YODOROGO
 10
31413.604341291921
 20
1963.749496429286
 30
0.0
 11
31413.604341291921
 21
2027.749496429288
 31
0.0
  0
ARC
  5
136EC
  8
YODOROGO
 10
31621.604341291939
 20
2003.749496429285
 30
0.0
 40
15.999999999994539
 50
270.0
 51
0.0000000000081422
  0
LINE
  5
136ED
  8
YODOROGO
 10
31637.604341291921
 20
2027.749496429288
 30
0.0
 11
31637.604341291921
 21
2003.7494964292871
 31
0.0
  0
LINE
  5
136EE
  8
YODOROGO
 10
31701.604341291939
 20
2027.749496429288
 30
0.0
 11
31637.604341291921
 21
2027.749496429288
 31
0.0
  0
LINE
  5
136EF
  8
YODOROGO
 10
31701.604341291939
 20
1955.7494964292871
 30
0.0
 11
31701.604341291939
 21
2027.749496429288
 31
0.0
  0
ARC
  5
136F0
  8
YODOROGO
 10
31661.604341291939
 20
1955.7494964292871
 30
0.0
 40
40.0
 50
270.0
 51
0.0
  0
LINE
  5
136F1
  8
YODOROGO
 10
31701.604341291939
 20
1811.749496429288
 30
0.0
 11
31701.604341291939
 21
1875.7494964292871
 31
0.0
  0
LINE
  5
136F2
  8
YODOROGO
 10
31653.60434129191
 20
1811.749496429288
 30
0.0
 11
31701.604341291939
 21
1811.749496429288
 31
0.0
  0
LINE
  5
136F3
  8
0-6
  6
CONTINUOUS
 62
     6
 10
13392.278818156359
 20
19114.51522062123
 30
0.0
 11
13317.55907308572
 21
19258.48721499995
 31
0.0
  0
LINE
  5
136F4
  8
0-6
  6
CONTINUOUS
 62
     6
 10
13317.55907308572
 20
19258.48721499995
 30
0.0
 11
13434.93511606938
 21
19146.53022532248
 31
0.0
  0
LINE
  5
136F5
  8
0-6
  6
CONTINUOUS
 62
     6
 10
13434.93511606938
 20
19146.53022532248
 30
0.0
 11
13392.278818156359
 21
19114.51522062123
 31
0.0
  0
LINE
  5
136F6
  8
0-6
  6
CONTINUOUS
 62
     6
 10
13392.278818156359
 20
16582.555537548149
 30
0.0
 11
13317.55907308572
 21
16726.52753192688
 31
0.0
  0
LINE
  5
136F7
  8
0-6
  6
CONTINUOUS
 62
     6
 10
13317.55907308572
 20
16726.52753192688
 30
0.0
 11
13434.93511606938
 21
16614.57054224941
 31
0.0
  0
LINE
  5
136F8
  8
0-6
  6
CONTINUOUS
 62
     6
 10
13434.93511606938
 20
16614.57054224941
 30
0.0
 11
13392.278818156359
 21
16582.555537548149
 31
0.0
  0
LINE
  5
136F9
  8
0-6
  6
CONTINUOUS
 62
     6
 10
13271.94408958396
 20
13631.51436362122
 30
0.0
 11
13197.224344513321
 21
13775.48635799994
 31
0.0
  0
LINE
  5
136FA
  8
0-6
  6
CONTINUOUS
 62
     6
 10
13197.224344513321
 20
13775.48635799994
 30
0.0
 11
13314.60038749697
 21
13663.529368322481
 31
0.0
  0
LINE
  5
136FB
  8
0-6
  6
CONTINUOUS
 62
     6
 10
13314.60038749697
 20
13663.529368322481
 30
0.0
 11
13271.94408958396
 21
13631.51436362122
 31
0.0
  0
LINE
  5
136FC
  8
SUNPOU
  6
CONTINUOUS
 62
     4
 10
20588.781938817359
 20
8669.6883999999955
 30
0.0
 11
20588.781938817359
 21
9869.1329740000037
 31
0.0
  0
LINE
  5
136FD
  8
SUNPOU
  6
CONTINUOUS
 62
     4
 10
28677.78193881737
 20
8669.6883999999955
 30
0.0
 11
28677.78193881737
 21
9869.1329740000037
 31
0.0
  0
LINE
  5
136FE
  8
SUNPOU
  6
CONTINUOUS
 62
     4
 10
20591.781938817359
 20
9789.1329740000037
 30
0.0
 11
28674.78193881737
 21
9789.1329740000037
 31
0.0
  0
LINE
  5
136FF
  8
SUNPOU
  6
CONTINUOUS
 62
     4
 10
28634.78193881737
 20
8669.6883999999955
 30
0.0
 11
28634.78193881737
 21
9469.1900500000029
 31
0.0
  0
LINE
  5
13700
  8
SUNPOU
  6
CONTINUOUS
 62
     4
 10
28677.78193881737
 20
8669.6883999999955
 30
0.0
 11
28677.78193881737
 21
9469.1900500000029
 31
0.0
  0
LINE
  5
13701
  8
SUNPOU
  6
CONTINUOUS
 62
     4
 10
28634.78193881737
 20
9389.1900500000029
 30
0.0
 11
28394.78193881737
 21
9389.1900500000029
 31
0.0
  0
LINE
  5
13702
  8
SUNPOU
  6
CONTINUOUS
 62
     4
 10
28674.78193881737
 20
9389.1900500000029
 30
0.0
 11
28914.781938817381
 21
9389.1900500000029
 31
0.0
  0
LINE
  5
13703
  8
SUNPOU
  6
CONTINUOUS
 62
     4
 10
28634.78193881737
 20
9389.1900500000029
 30
0.0
 11
28674.78193881737
 21
9389.1900500000029
 31
0.0
  0
LINE
  5
13704
  8
SUNPOU
  6
CONTINUOUS
 62
     4
 10
20631.781938817359
 20
8539.6884659999996
 30
0.0
 11
20631.781938817359
 21
9469.1900500000029
 31
0.0
  0
LINE
  5
13705
  8
SUNPOU
  6
CONTINUOUS
 62
     4
 10
20588.781938817359
 20
8669.6883999999955
 30
0.0
 11
20588.781938817359
 21
9469.1900500000029
 31
0.0
  0
LINE
  5
13706
  8
SUNPOU
  6
CONTINUOUS
 62
     4
 10
20631.781938817359
 20
9389.1900500000029
 30
0.0
 11
20871.781938817359
 21
9389.1900500000029
 31
0.0
  0
LINE
  5
13707
  8
SUNPOU
  6
CONTINUOUS
 62
     4
 10
20591.781938817359
 20
9389.1900500000029
 30
0.0
 11
20351.781938817359
 21
9389.1900500000029
 31
0.0
  0
LINE
  5
13708
  8
SUNPOU
  6
CONTINUOUS
 62
     4
 10
20631.781938817359
 20
9389.1900500000029
 30
0.0
 11
20591.781938817359
 21
9389.1900500000029
 31
0.0
  0
LINE
  5
13709
  8
SUNPOU
  6
CONTINUOUS
 62
     4
 10
23634.78193881737
 20
8539.6884659999996
 30
0.0
 11
23634.78193881737
 21
9469.1900500000029
 31
0.0
  0
LINE
  5
1370A
  8
SUNPOU
  6
CONTINUOUS
 62
     4
 10
20631.781938817359
 20
8539.6884659999996
 30
0.0
 11
20631.781938817359
 21
9469.1900500000029
 31
0.0
  0
LINE
  5
1370B
  8
SUNPOU
  6
CONTINUOUS
 62
     4
 10
23634.78193881737
 20
9389.1900500000029
 30
0.0
 11
20631.781938817359
 21
9389.1900500000029
 31
0.0
  0
LINE
  5
1370C
  8
SUNPOU
  6
CONTINUOUS
 62
     4
 10
20544.279299817372
 20
6241.1883740000021
 30
0.0
 11
19344.279299817372
 21
6241.1883740000021
 31
0.0
  0
LINE
  5
1370D
  8
SUNPOU
  6
CONTINUOUS
 62
     4
 10
20511.781938817359
 20
8589.6883999999973
 30
0.0
 11
19344.279299817372
 21
8589.6883999999973
 31
0.0
  0
LINE
  5
1370E
  8
SUNPOU
  6
CONTINUOUS
 62
     4
 10
19424.279299817372
 20
6241.1883740000021
 30
0.0
 11
19424.279299817372
 21
8589.6883999999973
 31
0.0
  0
LINE
  5
1370F
  8
SUNPOU
  6
CONTINUOUS
 62
     4
 10
20544.279299817372
 20
6241.1883740000021
 30
0.0
 11
19744.278639817381
 21
6241.1883740000021
 31
0.0
  0
LINE
  5
13710
  8
SUNPOU
  6
CONTINUOUS
 62
     4
 10
20636.778243817389
 20
8132.6883740000021
 30
0.0
 11
19744.278639817381
 21
8132.6883740000021
 31
0.0
  0
LINE
  5
13711
  8
SUNPOU
  6
CONTINUOUS
 62
     4
 10
19824.278639817381
 20
6241.1883740000021
 30
0.0
 11
19824.278639817381
 21
8132.6883740000021
 31
0.0
  0
LINE
  5
13712
  8
SUNPOU
  6
CONTINUOUS
 62
     4
 10
23637.78193881737
 20
6161.1883740000021
 30
0.0
 11
23637.78193881737
 21
5261.188374000003
 31
0.0
  0
LINE
  5
13713
  8
SUNPOU
  6
CONTINUOUS
 62
     4
 10
28549.78193881737
 20
6061.1885389999989
 30
0.0
 11
28549.78193881737
 21
5261.188374000003
 31
0.0
  0
LINE
  5
13714
  8
SUNPOU
  6
CONTINUOUS
 62
     4
 10
23637.78193881737
 20
5341.188374000003
 30
0.0
 11
28549.78193881737
 21
5341.188374000003
 31
0.0
  0
LINE
  5
13715
  8
SUNPOU
  6
CONTINUOUS
 62
     4
 10
20631.82189176491
 20
6161.1883740000021
 30
0.0
 11
20631.82189176491
 21
4461.1887040000574
 31
0.0
  0
LINE
  5
13716
  8
SUNPOU
  6
CONTINUOUS
 62
     4
 10
28634.78193881737
 20
6061.1885389999989
 30
0.0
 11
28634.78193881737
 21
4461.1887040000574
 31
0.0
  0
LINE
  5
13717
  8
SUNPOU
  6
CONTINUOUS
 62
     4
 10
20631.82189176491
 20
4541.1887040000556
 30
0.0
 11
28634.78193881737
 21
4541.1887040000556
 31
0.0
  0
LINE
  5
13718
  8
SUNPOU
  6
CONTINUOUS
 62
     4
 10
20674.281938817359
 20
5798.5361160000011
 30
0.0
 11
20674.281938817359
 21
4861.1885389999998
 31
0.0
  0
LINE
  5
13719
  8
SUNPOU
  6
CONTINUOUS
 62
     4
 10
20631.82189176491
 20
6161.1883740000021
 30
0.0
 11
20631.82189176491
 21
4861.1885389999998
 31
0.0
  0
LINE
  5
1371A
  8
SUNPOU
  6
CONTINUOUS
 62
     4
 10
20674.281938817359
 20
4941.1885390000016
 30
0.0
 11
20914.281938817359
 21
4941.1885390000016
 31
0.0
  0
LINE
  5
1371B
  8
SUNPOU
  6
CONTINUOUS
 62
     4
 10
20631.82189176491
 20
4941.1885390000016
 30
0.0
 11
20391.82189176491
 21
4941.1885390000016
 31
0.0
  0
LINE
  5
1371C
  8
SUNPOU
  6
CONTINUOUS
 62
     4
 10
20674.281938817359
 20
4941.1885390000016
 30
0.0
 11
20631.82189176491
 21
4941.1885390000016
 31
0.0
  0
LINE
  5
1371D
  8
SUNPOU
  6
CONTINUOUS
 62
     4
 10
23592.28193881737
 20
5798.5361160000011
 30
0.0
 11
23592.28193881737
 21
4861.1885389999998
 31
0.0
  0
LINE
  5
1371E
  8
SUNPOU
  6
CONTINUOUS
 62
     4
 10
20674.281938817359
 20
5798.5361160000011
 30
0.0
 11
20674.281938817359
 21
4861.1885389999998
 31
0.0
  0
LINE
  5
1371F
  8
SUNPOU
  6
CONTINUOUS
 62
     4
 10
23592.28193881737
 20
4941.1885390000016
 30
0.0
 11
20674.281938817359
 21
4941.1885390000016
 31
0.0
  0
LINE
  5
13720
  8
SUNPOU
  6
CONTINUOUS
 62
     4
 10
20768.281938817359
 20
6061.1885389999989
 30
0.0
 11
20768.281938817359
 21
5261.188374000003
 31
0.0
  0
LINE
  5
13721
  8
SUNPOU
  6
CONTINUOUS
 62
     4
 10
23498.281938817359
 20
6061.1885389999989
 30
0.0
 11
23498.281938817359
 21
5261.188374000003
 31
0.0
  0
LINE
  5
13722
  8
SUNPOU
  6
CONTINUOUS
 62
     4
 10
20768.281938817359
 20
5341.188374000003
 30
0.0
 11
23498.281938817359
 21
5341.188374000003
 31
0.0
  0
LINE
  5
13723
  8
SUNPOU
  6
CONTINUOUS
 62
     4
 10
28592.281938817381
 20
5798.5361160000011
 30
0.0
 11
28592.281938817381
 21
4861.1885389999998
 31
0.0
  0
LINE
  5
13724
  8
SUNPOU
  6
CONTINUOUS
 62
     4
 10
28634.78193881737
 20
6061.1885389999989
 30
0.0
 11
28634.78193881737
 21
4861.1885389999998
 31
0.0
  0
LINE
  5
13725
  8
SUNPOU
  6
CONTINUOUS
 62
     4
 10
28592.281938817381
 20
4941.1885390000016
 30
0.0
 11
28352.281938817381
 21
4941.1885390000016
 31
0.0
  0
LINE
  5
13726
  8
SUNPOU
  6
CONTINUOUS
 62
     4
 10
28634.78193881737
 20
4941.1885390000016
 30
0.0
 11
28874.78193881737
 21
4941.1885390000016
 31
0.0
  0
LINE
  5
13727
  8
SUNPOU
  6
CONTINUOUS
 62
     4
 10
28592.281938817381
 20
4941.1885390000016
 30
0.0
 11
28634.78193881737
 21
4941.1885390000016
 31
0.0
  0
LINE
  5
13728
  8
SUNPOU
  6
CONTINUOUS
 62
     4
 10
23592.28193881737
 20
5798.5361160000011
 30
0.0
 11
23592.28193881737
 21
4861.1885389999998
 31
0.0
  0
LINE
  5
13729
  8
SUNPOU
  6
CONTINUOUS
 62
     4
 10
28592.281938817381
 20
5798.5361160000011
 30
0.0
 11
28592.281938817381
 21
4861.1885389999998
 31
0.0
  0
LINE
  5
1372A
  8
SUNPOU
  6
CONTINUOUS
 62
     4
 10
23592.28193881737
 20
4941.1885390000016
 30
0.0
 11
28592.281938817381
 21
4941.1885390000016
 31
0.0
  0
LINE
  5
1372B
  8
SUNPOU
  6
CONTINUOUS
 62
     4
 10
23634.78193881737
 20
8539.6884659999996
 30
0.0
 11
23634.78193881737
 21
9469.1900500000029
 31
0.0
  0
LINE
  5
1372C
  8
SUNPOU
  6
CONTINUOUS
 62
     4
 10
28634.78193881737
 20
8669.6883999999955
 30
0.0
 11
28634.78193881737
 21
9469.1900500000029
 31
0.0
  0
LINE
  5
1372D
  8
SUNPOU
  6
CONTINUOUS
 62
     4
 10
23634.78193881737
 20
9389.1900500000029
 30
0.0
 11
28634.78193881737
 21
9389.1900500000029
 31
0.0
  0
LINE
  5
1372E
  8
SUNPOU
  6
CONTINUOUS
 62
     4
 10
28714.78193881737
 20
6242.0026620000026
 30
0.0
 11
29924.604337111741
 21
6242.0026620000026
 31
0.0
  0
LINE
  5
1372F
  8
SUNPOU
  6
CONTINUOUS
 62
     4
 10
28754.781938817381
 20
8262.0026620000026
 30
0.0
 11
29924.604337111741
 21
8262.0026620000026
 31
0.0
  0
LINE
  5
13730
  8
SUNPOU
  6
CONTINUOUS
 62
     4
 10
29844.604337111741
 20
6242.0026620000026
 30
0.0
 11
29844.604337111741
 21
8262.0026620000026
 31
0.0
  0
LINE
  5
13731
  8
0-6
  6
CONTINUOUS
 62
     6
 10
28480.29702918122
 20
19102.390205253349
 30
0.0
 11
28586.625053129199
 21
19224.886437000001
 31
0.0
  0
LINE
  5
13732
  8
0-6
  6
CONTINUOUS
 62
     6
 10
28586.625053129199
 20
19224.886437000001
 30
0.0
 11
28525.77293353594
 21
19074.52513032455
 31
0.0
  0
LINE
  5
13733
  8
0-6
  6
CONTINUOUS
 62
     6
 10
28525.77293353594
 20
19074.52513032455
 30
0.0
 11
28480.29702918122
 21
19102.390205253349
 31
0.0
  0
LINE
  5
13734
  8
0-6
  6
CONTINUOUS
 62
     6
 10
28508.481374687199
 20
19518.20376193268
 30
0.0
 11
28577.525053129171
 21
19371.42520104588
 31
0.0
  0
LINE
  5
13735
  8
0-6
  6
CONTINUOUS
 62
     6
 10
28577.525053129171
 20
19371.42520104588
 30
0.0
 11
28464.60805295004
 21
19487.87799867084
 31
0.0
  0
LINE
  5
13736
  8
0-6
  6
CONTINUOUS
 62
     6
 10
28464.60805295004
 20
19487.87799867084
 30
0.0
 11
28508.481374687199
 21
19518.20376193268
 31
0.0
  0
LINE
  5
13737
  8
0-6
  6
CONTINUOUS
 62
     6
 10
28480.29702918122
 20
16935.08277374665
 30
0.0
 11
28586.625053129199
 21
16812.586542000001
 31
0.0
  0
LINE
  5
13738
  8
0-6
  6
CONTINUOUS
 62
     6
 10
28586.625053129199
 20
16812.586542000001
 30
0.0
 11
28525.77293353594
 21
16962.947848675441
 31
0.0
  0
LINE
  5
13739
  8
0-6
  6
CONTINUOUS
 62
     6
 10
28525.77293353594
 20
16962.947848675441
 30
0.0
 11
28480.29702918122
 21
16935.08277374665
 31
0.0
  0
LINE
  5
1373A
  8
0-6
  6
CONTINUOUS
 62
     6
 10
28480.29702918122
 20
14027.58320974665
 30
0.0
 11
28586.625053129199
 21
13905.086977999999
 31
0.0
  0
LINE
  5
1373B
  8
0-6
  6
CONTINUOUS
 62
     6
 10
28586.625053129199
 20
13905.086977999999
 30
0.0
 11
28525.77293353594
 21
14055.448284675451
 31
0.0
  0
LINE
  5
1373C
  8
0-6
  6
CONTINUOUS
 62
     6
 10
28525.77293353594
 20
14055.448284675451
 30
0.0
 11
28480.29702918122
 21
14027.58320974665
 31
0.0
  0
LINE
  5
1373D
  8
0-6
  6
CONTINUOUS
 62
     6
 10
28508.481374687199
 20
16519.2692170673
 30
0.0
 11
28577.525053129171
 21
16666.047777954122
 31
0.0
  0
LINE
  5
1373E
  8
0-6
  6
CONTINUOUS
 62
     6
 10
28577.525053129171
 20
16666.047777954122
 30
0.0
 11
28464.60805295004
 21
16549.594980329151
 31
0.0
  0
LINE
  5
1373F
  8
0-6
  6
CONTINUOUS
 62
     6
 10
28464.60805295004
 20
16549.594980329151
 30
0.0
 11
28508.481374687199
 21
16519.2692170673
 31
0.0
  0
LINE
  5
13740
  8
0-6
  6
CONTINUOUS
 62
     6
 10
28508.481374687199
 20
13631.708417113179
 30
0.0
 11
28577.525053129171
 21
13778.486978000001
 31
0.0
  0
LINE
  5
13741
  8
0-6
  6
CONTINUOUS
 62
     6
 10
28577.525053129171
 20
13778.486978000001
 30
0.0
 11
28464.60805295004
 21
13662.03418037502
 31
0.0
  0
LINE
  5
13742
  8
0-6
  6
CONTINUOUS
 62
     6
 10
28464.60805295004
 20
13662.03418037502
 30
0.0
 11
28508.481374687199
 21
13631.708417113179
 31
0.0
  0
LINE
  5
1377E
  8
SUNPOU
  6
CONTINUOUS
 62
     4
 10
23613.283799817342
 20
20560.487902000001
 30
0.0
 11
28613.283799817342
 21
20560.487902000001
 31
0.0
  0
LINE
  5
1377F
  8
SUNPOU
  6
CONTINUOUS
 62
     4
 10
20695.283799817349
 20
20560.487902000001
 30
0.0
 11
23613.283799817342
 21
20560.487902000001
 31
0.0
  0
LINE
  5
13780
  8
SUNPOU
  6
CONTINUOUS
 62
     4
 10
28613.283799817342
 20
19684.936751877329
 30
0.0
 11
28613.283799817342
 21
20240.487902000001
 31
0.0
  0
LINE
  5
13781
  8
SUNPOU
  6
CONTINUOUS
 62
     4
 10
28570.78155681735
 20
19523.837242000001
 30
0.0
 11
28570.78155681735
 21
20240.487902000001
 31
0.0
  0
LINE
  5
13782
  8
SUNPOU
  6
CONTINUOUS
 62
     4
 10
28613.283799817342
 20
20160.487902000001
 30
0.0
 11
28853.283799817342
 21
20160.487902000001
 31
0.0
  0
LINE
  5
13783
  8
SUNPOU
  6
CONTINUOUS
 62
     4
 10
28570.78155681735
 20
20160.487902000001
 30
0.0
 11
28330.781556817361
 21
20160.487902000001
 31
0.0
  0
LINE
  5
13784
  8
SUNPOU
  6
CONTINUOUS
 62
     4
 10
28613.283799817342
 20
20160.487902000001
 30
0.0
 11
28570.78155681735
 21
20160.487902000001
 31
0.0
  0
LINE
  5
13785
  8
SUNPOU
  6
CONTINUOUS
 62
     4
 10
28613.283799817342
 20
19684.936751877329
 30
0.0
 11
28613.283799817342
 21
20240.487902000001
 31
0.0
  0
LINE
  5
13786
  8
SUNPOU
  6
CONTINUOUS
 62
     4
 10
28655.78208481734
 20
19520.489484999991
 30
0.0
 11
28655.78208481734
 21
20240.487902000001
 31
0.0
  0
LINE
  5
13787
  8
SUNPOU
  6
CONTINUOUS
 62
     4
 10
28613.283799817342
 20
20160.487902000001
 30
0.0
 11
28373.283799817349
 21
20160.487902000001
 31
0.0
  0
LINE
  5
13788
  8
SUNPOU
  6
CONTINUOUS
 62
     4
 10
28655.78208481734
 20
20160.487902000001
 30
0.0
 11
28895.78208481734
 21
20160.487902000001
 31
0.0
  0
LINE
  5
13789
  8
SUNPOU
  6
CONTINUOUS
 62
     4
 10
28613.283799817342
 20
20160.487902000001
 30
0.0
 11
28655.78208481734
 21
20160.487902000001
 31
0.0
  0
LINE
  5
1378A
  8
SUNPOU
  6
CONTINUOUS
 62
     4
 10
28997.888635769279
 20
16750.486978000001
 30
0.0
 11
29911.127424185968
 21
16750.486978000001
 31
0.0
  0
LINE
  5
1378B
  8
SUNPOU
  6
CONTINUOUS
 62
     4
 10
28997.888635769279
 20
19317.986978000001
 30
0.0
 11
29911.127424185968
 21
19317.986978000001
 31
0.0
  0
LINE
  5
1378C
  8
SUNPOU
  6
CONTINUOUS
 62
     4
 10
29831.127424185968
 20
16750.486978000001
 30
0.0
 11
29831.127424185968
 21
19317.986978000001
 31
0.0
  0
LINE
  5
1378D
  8
SUNPOU
  6
CONTINUOUS
 62
     4
 10
28997.888635769279
 20
13832.48697800001
 30
0.0
 11
29911.127424185968
 21
13832.48697800001
 31
0.0
  0
LINE
  5
1378E
  8
SUNPOU
  6
CONTINUOUS
 62
     4
 10
28997.888635769279
 20
16750.486978000001
 30
0.0
 11
29911.127424185968
 21
16750.486978000001
 31
0.0
  0
LINE
  5
1378F
  8
SUNPOU
  6
CONTINUOUS
 62
     4
 10
29831.127424185968
 20
13832.48697800001
 30
0.0
 11
29831.127424185968
 21
16750.486978000001
 31
0.0
  0
ARC
  5
137A7
  8
1-前柱P
 10
28622.883799817351
 20
13900.88697800001
 30
0.0
 40
1.0
 50
90.0
 51
180.0
  0
LINE
  5
137A8
  8
1-前柱P
 10
28621.883799817359
 20
13900.88697800001
 30
0.0
 11
28621.883799817359
 21
13899.286978
 31
0.0
  0
LINE
  5
137A9
  8
1-前柱P
 10
28621.883799817359
 20
13899.286978
 30
0.0
 11
28610.683799817351
 21
13899.286978
 31
0.0
  0
LINE
  5
137AA
  8
1-前柱P
 10
28610.683799817351
 20
13899.286978
 30
0.0
 11
28610.68379981734
 21
13900.88697800001
 31
0.0
  0
ARC
  5
137AB
  8
1-前柱P
 10
28609.68379981734
 20
13900.88697800001
 30
0.0
 40
1.0
 50
0.0
 51
90.0
  0
ARC
  5
137AC
  8
1-中柱P
 10
28606.683799817351
 20
16818.786978000011
 30
0.0
 40
1.0
 50
0.0
 51
90.0
  0
LINE
  5
137AD
  8
1-中柱P
 10
28607.68379981734
 20
16818.786978000011
 30
0.0
 11
28607.68379981734
 21
16817.186978000002
 31
0.0
  0
LINE
  5
137AE
  8
1-中柱P
 10
28607.68379981734
 20
16817.186978000002
 30
0.0
 11
28618.883799817329
 21
16817.186978000002
 31
0.0
  0
LINE
  5
137AF
  8
1-中柱P
 10
28618.883799817329
 20
16817.186978000002
 30
0.0
 11
28618.883799817329
 21
16818.786978000011
 31
0.0
  0
ARC
  5
137B0
  8
1-中柱P
 10
28619.88379981734
 20
16818.786978000011
 30
0.0
 40
1.0
 50
90.0
 51
180.0
  0
ARC
  5
137B1
  8
1-後柱P
 10
28603.683799817361
 20
19249.936978000002
 30
0.0
 40
1.0
 50
270.0
 51
0.0
  0
LINE
  5
137B2
  8
1-後柱P
 10
28604.683799817351
 20
19249.936978000002
 30
0.0
 11
28604.683799817351
 21
19251.536978
 31
0.0
  0
LINE
  5
137B3
  8
1-後柱P
 10
28604.683799817351
 20
19251.536978
 30
0.0
 11
28615.883799817359
 21
19251.536978
 31
0.0
  0
LINE
  5
137B4
  8
1-後柱P
 10
28615.883799817359
 20
19251.536978
 30
0.0
 11
28615.883799817359
 21
19249.936978000002
 31
0.0
  0
ARC
  5
137B5
  8
1-後柱P
 10
28616.883799817351
 20
19249.936978000002
 30
0.0
 40
1.0
 50
180.0
 51
270.0
  0
LINE
  5
137B6
  8
SUNPOU
  6
CONTINUOUS
 62
     4
 10
7227.0054167031494
 20
8478.188374000003
 30
0.0
 11
7227.0054167031494
 21
9869.1883999999955
 31
0.0
  0
LINE
  5
137B7
  8
SUNPOU
  6
CONTINUOUS
 62
     4
 10
13127.505416703139
 20
8610.0781974124311
 30
0.0
 11
13127.505416703139
 21
9869.1883999999955
 31
0.0
  0
LINE
  5
137B8
  8
SUNPOU
  6
CONTINUOUS
 62
     4
 10
7227.0054167031494
 20
9789.1883999999955
 30
0.0
 11
13127.505416703139
 21
9789.1883999999955
 31
0.0
  0
LINE
  5
137B9
  8
SUNPOU
  6
CONTINUOUS
 62
     4
 10
12977.50541670315
 20
8536.0984379999973
 30
0.0
 11
12977.50541670315
 21
9469.1900500000029
 31
0.0
  0
LINE
  5
137BA
  8
SUNPOU
  6
CONTINUOUS
 62
     4
 10
13127.505416703139
 20
8610.0781974124311
 30
0.0
 11
13127.505416703139
 21
9469.1900500000029
 31
0.0
  0
LINE
  5
137BB
  8
SUNPOU
  6
CONTINUOUS
 62
     4
 10
12977.50541670315
 20
9389.1900500000029
 30
0.0
 11
12737.505416703139
 21
9389.1900500000029
 31
0.0
  0
LINE
  5
137BC
  8
SUNPOU
  6
CONTINUOUS
 62
     4
 10
13127.505416703139
 20
9389.1900500000029
 30
0.0
 11
13367.505416703139
 21
9389.1900500000029
 31
0.0
  0
LINE
  5
137BD
  8
SUNPOU
  6
CONTINUOUS
 62
     4
 10
12977.50541670315
 20
9389.1900500000029
 30
0.0
 11
13127.505416703139
 21
9389.1900500000029
 31
0.0
  0
LINE
  5
137BE
  8
SUNPOU
  6
CONTINUOUS
 62
     4
 10
7407.0054167031503
 20
8348.3741496838102
 30
0.0
 11
7407.0054167031503
 21
9469.1900500000029
 31
0.0
  0
LINE
  5
137BF
  8
SUNPOU
  6
CONTINUOUS
 62
     4
 10
12977.50541670315
 20
8536.0984379999973
 30
0.0
 11
12977.50541670315
 21
9469.1900500000029
 31
0.0
  0
LINE
  5
137C0
  8
SUNPOU
  6
CONTINUOUS
 62
     4
 10
7407.0054167031503
 20
9389.1900500000029
 30
0.0
 11
12977.50541670315
 21
9389.1900500000029
 31
0.0
  0
LINE
  5
137C1
  8
SUNPOU
  6
CONTINUOUS
 62
     4
 10
7227.0054167031494
 20
8478.188374000003
 30
0.0
 11
7227.0054167031494
 21
9469.1900500000029
 31
0.0
  0
LINE
  5
137C2
  8
SUNPOU
  6
CONTINUOUS
 62
     4
 10
7407.0054167031503
 20
8348.3741496838102
 30
0.0
 11
7407.0054167031503
 21
9469.1900500000029
 31
0.0
  0
LINE
  5
137C3
  8
SUNPOU
  6
CONTINUOUS
 62
     4
 10
7227.0054167031494
 20
9389.1900500000029
 30
0.0
 11
7407.0054167031503
 21
9389.1900500000029
 31
0.0
  0
LINE
  5
137C4
  8
SUNPOU
  6
CONTINUOUS
 62
     4
 10
13070.005416703139
 20
6241.1883740000021
 30
0.0
 11
14147.505812703141
 21
6241.1883740000021
 31
0.0
  0
LINE
  5
137C5
  8
SUNPOU
  6
CONTINUOUS
 62
     4
 10
13162.312676302519
 20
8589.688374000003
 30
0.0
 11
14147.505812703141
 21
8589.688374000003
 31
0.0
  0
LINE
  5
137C6
  8
SUNPOU
  6
CONTINUOUS
 62
     4
 10
14067.505812703141
 20
6241.1883740000021
 30
0.0
 11
14067.505812703141
 21
8589.688374000003
 31
0.0
  0
LINE
  5
137C7
  8
SUNPOU
  6
CONTINUOUS
 62
     4
 10
7319.505416703144
 20
6241.1883740000021
 30
0.0
 11
6237.00502070316
 21
6241.1883740000021
 31
0.0
  0
LINE
  5
137C8
  8
SUNPOU
  6
CONTINUOUS
 62
     4
 10
7147.0054167031494
 20
8397.1883740000048
 30
0.0
 11
6237.00502070316
 21
8397.1883740000048
 31
0.0
  0
LINE
  5
137C9
  8
SUNPOU
  6
CONTINUOUS
 62
     4
 10
6317.00502070316
 20
6241.1883740000021
 30
0.0
 11
6317.00502070316
 21
8397.1883740000048
 31
0.0
  0
LINE
  5
137CA
  8
SUNPOU
  6
CONTINUOUS
 62
     4
 10
7407.0054167031503
 20
6161.1883740000021
 30
0.0
 11
7407.0054167031503
 21
4461.1887039999992
 31
0.0
  0
LINE
  5
137CB
  8
SUNPOU
  6
CONTINUOUS
 62
     4
 10
12977.50541670315
 20
6161.1883740000021
 30
0.0
 11
12977.50541670315
 21
4461.1887039999992
 31
0.0
  0
LINE
  5
137CC
  8
SUNPOU
  6
CONTINUOUS
 62
     4
 10
7407.0054167031503
 20
4541.1887039999983
 30
0.0
 11
12977.50541670315
 21
4541.1887039999983
 31
0.0
  0
LINE
  5
137CD
  8
SUNPOU
  6
CONTINUOUS
 62
     4
 10
12935.005416703139
 20
5798.5361160000011
 30
0.0
 11
12935.005416703139
 21
4861.1885389999998
 31
0.0
  0
LINE
  5
137CE
  8
SUNPOU
  6
CONTINUOUS
 62
     4
 10
12977.50541670315
 20
6161.1883740000021
 30
0.0
 11
12977.50541670315
 21
4861.1885389999998
 31
0.0
  0
LINE
  5
137CF
  8
SUNPOU
  6
CONTINUOUS
 62
     4
 10
12935.005416703139
 20
4941.1885390000016
 30
0.0
 11
12695.005416703139
 21
4941.1885390000016
 31
0.0
  0
LINE
  5
137D0
  8
SUNPOU
  6
CONTINUOUS
 62
     4
 10
12977.50541670315
 20
4941.1885390000016
 30
0.0
 11
13217.505416703139
 21
4941.1885390000016
 31
0.0
  0
LINE
  5
137D1
  8
SUNPOU
  6
CONTINUOUS
 62
     4
 10
12935.005416703139
 20
4941.1885390000016
 30
0.0
 11
12977.50541670315
 21
4941.1885390000016
 31
0.0
  0
LINE
  5
137D2
  8
SUNPOU
  6
CONTINUOUS
 62
     4
 10
7449.5054167031458
 20
5798.5361160000011
 30
0.0
 11
7449.5054167031458
 21
4861.1885389999998
 31
0.0
  0
LINE
  5
137D3
  8
SUNPOU
  6
CONTINUOUS
 62
     4
 10
7407.0054167031503
 20
6161.1883740000021
 30
0.0
 11
7407.0054167031503
 21
4861.1885389999998
 31
0.0
  0
LINE
  5
137D4
  8
SUNPOU
  6
CONTINUOUS
 62
     4
 10
7449.5054167031458
 20
4941.1885390000016
 30
0.0
 11
7689.5054167031476
 21
4941.1885390000016
 31
0.0
  0
LINE
  5
137D5
  8
SUNPOU
  6
CONTINUOUS
 62
     4
 10
7407.0054167031503
 20
4941.1885390000016
 30
0.0
 11
7167.0054167031476
 21
4941.1885390000016
 31
0.0
  0
LINE
  5
137D6
  8
SUNPOU
  6
CONTINUOUS
 62
     4
 10
7449.5054167031458
 20
4941.1885390000016
 30
0.0
 11
7407.0054167031503
 21
4941.1885390000016
 31
0.0
  0
LINE
  5
137D7
  8
SUNPOU
  6
CONTINUOUS
 62
     4
 10
10017.005416703139
 20
5798.5361160000011
 30
0.0
 11
10017.005416703139
 21
4861.1885389999998
 31
0.0
  0
LINE
  5
137D8
  8
SUNPOU
  6
CONTINUOUS
 62
     4
 10
7449.5054167031458
 20
5798.5361160000011
 30
0.0
 11
7449.5054167031458
 21
4861.1885389999998
 31
0.0
  0
LINE
  5
137D9
  8
SUNPOU
  6
CONTINUOUS
 62
     4
 10
10017.005416703139
 20
4941.1885390000016
 30
0.0
 11
7449.5054167031458
 21
4941.1885390000016
 31
0.0
  0
LINE
  5
137DA
  8
SUNPOU
  6
CONTINUOUS
 62
     4
 10
10017.005416703139
 20
5798.5361160000011
 30
0.0
 11
10017.005416703139
 21
4861.1885389999998
 31
0.0
  0
LINE
  5
137DB
  8
SUNPOU
  6
CONTINUOUS
 62
     4
 10
12935.005416703139
 20
5798.5361160000011
 30
0.0
 11
12935.005416703139
 21
4861.1885389999998
 31
0.0
  0
LINE
  5
137DC
  8
SUNPOU
  6
CONTINUOUS
 62
     4
 10
10017.005416703139
 20
4941.1885390000016
 30
0.0
 11
12935.005416703139
 21
4941.1885390000016
 31
0.0
  0
LINE
  5
137DD
  8
SUNPOU
  6
CONTINUOUS
 62
     4
 10
6412.9300203923412
 20
13619.48643699999
 30
0.0
 11
5565.9302443923498
 21
13619.48643699999
 31
0.0
  0
LINE
  5
137DE
  8
SUNPOU
  6
CONTINUOUS
 62
     4
 10
5645.9302443923489
 20
13811.985710999999
 30
0.0
 11
5645.9302443923489
 21
13619.48643699999
 31
0.0
  0
LINE
  5
137DF
  8
SUNPOU
  6
CONTINUOUS
 62
     4
 10
5645.9302443923489
 20
16729.985711000001
 30
0.0
 11
5645.9302443923489
 21
13811.985710999999
 31
0.0
  0
LINE
  5
137E0
  8
SUNPOU
  6
CONTINUOUS
 62
     4
 10
5645.9302443923534
 20
19297.485711000001
 30
0.0
 11
5645.9302443923489
 21
16729.985711000001
 31
0.0
  0
LINE
  5
137E1
  8
SUNPOU
  6
CONTINUOUS
 62
     4
 10
5565.9302443923507
 20
19297.485711000001
 30
0.0
 11
5605.9302443923498
 21
19297.485711000001
 31
0.0
  0
LINE
  5
137E2
  8
SUNPOU
  6
CONTINUOUS
 62
     4
 10
6417.9292943923401
 20
19519.985579
 30
0.0
 11
5605.9302443923498
 21
19519.985579
 31
0.0
  0
LINE
  5
137E3
  8
SUNPOU
  6
CONTINUOUS
 62
     4
 10
5645.9302443923534
 20
19297.485711000001
 30
0.0
 11
5645.9302443923534
 21
19519.985579
 31
0.0
  0
LINE
  5
137E4
  8
SUNPOU
  6
CONTINUOUS
 62
     4
 10
6486.4285563923286
 20
19509.98900999999
 30
0.0
 11
5965.9295853923477
 21
19509.98900999999
 31
0.0
  0
LINE
  5
137E5
  8
SUNPOU
  6
CONTINUOUS
 62
     4
 10
6417.9292943923401
 20
19519.985579
 30
0.0
 11
5965.9295853923477
 21
19519.985579
 31
0.0
  0
LINE
  5
137E6
  8
SUNPOU
  6
CONTINUOUS
 62
     4
 10
6045.9295853923477
 20
19509.98900999999
 30
0.0
 11
6045.9295853923477
 21
19269.98900999999
 31
0.0
  0
LINE
  5
137E7
  8
SUNPOU
  6
CONTINUOUS
 62
     4
 10
6045.9295853923477
 20
19519.985579
 30
0.0
 11
6045.9295853923477
 21
19759.985579
 31
0.0
  0
LINE
  5
137E8
  8
SUNPOU
  6
CONTINUOUS
 62
     4
 10
6045.9295853923477
 20
19509.98900999999
 30
0.0
 11
6045.9295853923477
 21
19519.985579
 31
0.0
  0
LINE
  5
137E9
  8
SUNPOU
  6
CONTINUOUS
 62
     4
 10
14493.43002039233
 20
20144.987624000001
 30
0.0
 11
14493.43002039233
 21
20219.986634999979
 31
0.0
  0
LINE
  5
137EA
  8
SUNPOU
  6
CONTINUOUS
 62
     4
 10
14578.93002039233
 20
19594.987293999991
 30
0.0
 11
14578.93002039233
 21
20219.986634999979
 31
0.0
  0
LINE
  5
137EB
  8
SUNPOU
  6
CONTINUOUS
 62
     4
 10
14493.43002039233
 20
20139.986634999979
 30
0.0
 11
14253.43002039233
 21
20139.986634999979
 31
0.0
  0
LINE
  5
137EC
  8
SUNPOU
  6
CONTINUOUS
 62
     4
 10
14575.93002039233
 20
20139.986634999979
 30
0.0
 11
14815.930020392339
 21
20139.986634999979
 31
0.0
  0
LINE
  5
137ED
  8
SUNPOU
  6
CONTINUOUS
 62
     4
 10
14493.43002039233
 20
20139.986634999979
 30
0.0
 11
14575.93002039233
 21
20139.986634999979
 31
0.0
  0
LINE
  5
137EE
  8
SUNPOU
  6
CONTINUOUS
 62
     4
 10
9493.4300203923394
 20
20144.987624000001
 30
0.0
 11
9493.4300203923394
 21
20219.986634999979
 31
0.0
  0
LINE
  5
137EF
  8
SUNPOU
  6
CONTINUOUS
 62
     4
 10
14493.43002039233
 20
20144.987624000001
 30
0.0
 11
14493.43002039233
 21
20219.986634999979
 31
0.0
  0
LINE
  5
137F0
  8
SUNPOU
  6
CONTINUOUS
 62
     4
 10
9493.4300203923394
 20
20139.986634999979
 30
0.0
 11
14493.43002039233
 21
20139.986634999979
 31
0.0
  0
LINE
  5
137F1
  8
SUNPOU
  6
CONTINUOUS
 62
     4
 10
6575.4300203923412
 20
19669.987293999991
 30
0.0
 11
6575.4300203923412
 21
20219.986634999979
 31
0.0
  0
LINE
  5
137F2
  8
SUNPOU
  6
CONTINUOUS
 62
     4
 10
9493.4300203923394
 20
20144.987624000001
 30
0.0
 11
9493.4300203923394
 21
20219.986634999979
 31
0.0
  0
LINE
  5
137F3
  8
SUNPOU
  6
CONTINUOUS
 62
     4
 10
6575.4300203923412
 20
20139.986634999979
 30
0.0
 11
9493.4300203923394
 21
20139.986634999979
 31
0.0
  0
LINE
  5
137F4
  8
SUNPOU
  6
CONTINUOUS
 62
     4
 10
6575.4300203923412
 20
19669.987293999991
 30
0.0
 11
6575.4300203923412
 21
20219.986634999979
 31
0.0
  0
LINE
  5
137F5
  8
SUNPOU
  6
CONTINUOUS
 62
     4
 10
6489.9300203923422
 20
19589.987031000001
 30
0.0
 11
6489.9300203923422
 21
20219.986634999979
 31
0.0
  0
LINE
  5
137F6
  8
SUNPOU
  6
CONTINUOUS
 62
     4
 10
6575.4300203923412
 20
20139.986634999979
 30
0.0
 11
6815.4300203923412
 21
20139.986634999979
 31
0.0
  0
LINE
  5
137F7
  8
SUNPOU
  6
CONTINUOUS
 62
     4
 10
6492.9300203923422
 20
20139.986634999979
 30
0.0
 11
6252.9300203923412
 21
20139.986634999979
 31
0.0
  0
LINE
  5
137F8
  8
SUNPOU
  6
CONTINUOUS
 62
     4
 10
6575.4300203923412
 20
20139.986634999979
 30
0.0
 11
6492.9300203923422
 21
20139.986634999979
 31
0.0
  0
LINE
  5
137F9
  8
SUNPOU
  6
CONTINUOUS
 62
     4
 10
6489.9300203923422
 20
13539.48643699999
 30
0.0
 11
6489.9300203923422
 21
12249.48564499999
 31
0.0
  0
LINE
  5
137FA
  8
SUNPOU
  6
CONTINUOUS
 62
     4
 10
14578.93002039233
 20
13539.48643699999
 30
0.0
 11
14578.93002039233
 21
12249.48564499999
 31
0.0
  0
LINE
  5
137FB
  8
SUNPOU
  6
CONTINUOUS
 62
     4
 10
6492.9300203923422
 20
12329.48564499999
 30
0.0
 11
14575.93002039233
 21
12329.48564499999
 31
0.0
  0
LINE
  5
137FC
  8
0-6
  6
CONTINUOUS
 62
     6
 10
12631.27070119535
 20
15586.32152246877
 30
0.0
 11
12751.12542810189
 21
15695.652619424
 31
0.0
  0
LINE
  5
137FD
  8
0-6
  6
CONTINUOUS
 62
     6
 10
12751.12542810189
 20
15695.652619424
 30
0.0
 11
12673.200030065091
 21
15553.363910581451
 31
0.0
  0
LINE
  5
137FE
  8
0-6
  6
CONTINUOUS
 62
     6
 10
12673.200030065091
 20
15553.363910581451
 30
0.0
 11
12631.27070119535
 21
15586.32152246877
 31
0.0
  0
LINE
  5
137FF
  8
0-6
  6
CONTINUOUS
 62
     6
 10
8533.5627408862092
 20
16944.10254427827
 30
0.0
 11
8565.2023872549616
 21
16784.988192000001
 31
0.0
  0
LINE
  5
13800
  8
0-6
  6
CONTINUOUS
 62
     6
 10
8565.2023872549616
 20
16784.988192000001
 30
0.0
 11
8483.6762613525971
 21
16925.24486784335
 31
0.0
  0
LINE
  5
13801
  8
0-6
  6
CONTINUOUS
 62
     6
 10
8483.6762613525971
 20
16925.24486784335
 30
0.0
 11
8533.5627408862092
 21
16944.10254427827
 31
0.0
  0
LINE
  5
13802
  8
0-6
  6
CONTINUOUS
 62
     6
 10
14371.55603262178
 20
15391.677580622931
 30
0.0
 11
14440.43038939235
 21
15538.535670111551
 31
0.0
  0
LINE
  5
13803
  8
0-6
  6
CONTINUOUS
 62
     6
 10
14440.43038939235
 20
15538.535670111551
 30
0.0
 11
14327.647766176289
 21
15421.95272579875
 31
0.0
  0
LINE
  5
13804
  8
0-6
  6
CONTINUOUS
 62
     6
 10
14327.647766176289
 20
15421.95272579875
 30
0.0
 11
14371.55603262178
 21
15391.677580622931
 31
0.0
  0
TEXT
  5
13805
  8
0
  6
CONTINUOUS
 62
     7
 10
9779.763353725677
 20
12409.48564499999
 30
0.0
 40
160.0
  1
ケラバ外寸8089
  0
TEXT
  5
13806
  8
0
  6
CONTINUOUS
 62
     7
 10
6000.2828763923544
 20
20219.984918999991
 30
0.0
 40
160.0
  1
85.5
  0
TEXT
  5
13807
  8
0
  6
CONTINUOUS
 62
     7
 10
7767.7633537256743
 20
20219.986634999979
 30
0.0
 40
160.0
  1
2918
  0
TEXT
  5
13808
  8
0
  6
CONTINUOUS
 62
     7
 10
11740.096687058989
 20
20219.986634999979
 30
0.0
 40
160.0
  1
5000
  0
TEXT
  5
13809
  8
0
  6
CONTINUOUS
 62
     7
 10
14639.77780839234
 20
20219.984918999991
 30
0.0
 40
160.0
  1
85.5
  0
TEXT
  5
1380A
  8
0
  6
CONTINUOUS
 62
     7
 10
5965.9303103923512
 20
19691.414439666671
 30
0.0
 40
160.0
  1
10
 50
90.0
  0
TEXT
  5
1380B
  8
0
  6
CONTINUOUS
 62
     7
 10
5565.9302443923507
 20
19598.467233389241
 30
0.0
 40
160.0
  1
222.5
 50
90.0
  0
TEXT
  5
1380C
  8
0
  6
CONTINUOUS
 62
     7
 10
5565.930244392347
 20
17613.735711000001
 30
0.0
 40
160.0
  1
2567.5
 50
90.0
  0
TEXT
  5
1380D
  8
0
  6
CONTINUOUS
 62
     7
 10
5565.930244392347
 20
15004.319044333341
 30
0.0
 40
160.0
  1
2918
 50
90.0
  0
TEXT
  5
1380E
  8
0
  6
CONTINUOUS
 62
     7
 10
5565.930244392337
 20
12955.49680859056
 30
0.0
 40
160.0
  1
192.5
 50
90.0
  0
TEXT
  5
1380F
  8
0
  6
CONTINUOUS
 62
     7
 10
11209.33875003647
 20
5021.1885389999998
 30
0.0
 40
160.0
  1
2918
  0
TEXT
  5
13810
  8
0
  6
CONTINUOUS
 62
     7
 10
8333.2554167031485
 20
5021.1885389999998
 30
0.0
 40
160.0
  1
2567.5
  0
TEXT
  5
13811
  8
0
  6
CONTINUOUS
 62
     7
 10
6825.0158027031566
 20
5022.1790570000003
 30
0.0
 40
160.0
  1
42.5
  0
TEXT
  5
13812
  8
0
  6
CONTINUOUS
 62
     7
 10
13097.50706670314
 20
5021.1883080000007
 30
0.0
 40
160.0
  1
42.5
  0
TEXT
  5
13813
  8
0
  6
CONTINUOUS
 62
     7
 10
9805.5887500364843
 20
4621.1887039999983
 30
0.0
 40
160.0
  1
5570.5
  0
TEXT
  5
13814
  8
0
  6
CONTINUOUS
 62
     7
 10
6237.0050207031582
 20
6540.521707333337
 30
0.0
 40
160.0
  1
2156（2396）
 50
90.0
  0
TEXT
  5
13815
  8
0
  6
CONTINUOUS
 62
     7
 10
13987.50581270315
 20
6396.7717073333361
 30
0.0
 40
160.0
  1
2348.5（2588.5）
 50
90.0
  0
TEXT
  5
13816
  8
0
  6
CONTINUOUS
 62
     7
 10
6772.6636015680506
 20
9469.1900500000029
 30
0.0
 40
160.0
  1
180
  0
TEXT
  5
13817
  8
0
  6
CONTINUOUS
 62
     7
 10
9805.5887500364843
 20
9469.1900500000029
 30
0.0
 40
160.0
  1
5570.5
  0
TEXT
  5
13818
  8
0
  6
CONTINUOUS
 62
     7
 10
13194.1720833698
 20
9469.1900500000029
 30
0.0
 40
160.0
  1
150
  0
TEXT
  5
13819
  8
0
  6
CONTINUOUS
 62
     7
 10
9803.9220833698164
 20
9869.1883999999955
 30
0.0
 40
160.0
  1
5900.5
  0
TEXT
  5
1381F
  8
0
  6
CONTINUOUS
 62
     7
 10
29751.127424185968
 20
15024.820311333329
 30
0.0
 40
160.0
  1
2918
 50
90.0
  0
TEXT
  5
13820
  8
0
  6
CONTINUOUS
 62
     7
 10
29751.127424185968
 20
17634.236978000012
 30
0.0
 40
160.0
  1
2567.5
 50
90.0
  0
TEXT
  5
13821
  8
0
  6
CONTINUOUS
 62
     7
 10
28754.205727817331
 20
20240.486185999991
 30
0.0
 40
160.0
  1
42.5
  0
TEXT
  5
13822
  8
0
  6
CONTINUOUS
 62
     7
 10
28076.109760817351
 20
20259.830042000001
 30
0.0
 40
160.0
  1
42.5
  0
TEXT
  5
13823
  8
0
  6
CONTINUOUS
 62
     7
 10
21887.617133150681
 20
20640.487902000001
 30
0.0
 40
160.0
  1
2918
  0
TEXT
  5
13824
  8
0
  6
CONTINUOUS
 62
     7
 10
25859.95046648401
 20
20640.487902000001
 30
0.0
 40
160.0
  1
5000
  0
TEXT
  5
13836
  8
0
  6
CONTINUOUS
 62
     7
 10
29764.604337111741
 20
6589.002662000009
 30
0.0
 40
160.0
  1
有効高サ2020
 50
90.0
  0
TEXT
  5
13837
  8
0
  6
CONTINUOUS
 62
     7
 10
25881.448605484049
 20
9469.1900500000029
 30
0.0
 40
160.0
  1
5000
  0
TEXT
  5
13838
  8
0
  6
CONTINUOUS
 62
     7
 10
25838.948605484042
 20
5021.1885389999998
 30
0.0
 40
160.0
  1
5000
  0
TEXT
  5
13839
  8
0
  6
CONTINUOUS
 62
     7
 10
28754.782598817372
 20
5021.1883080000007
 30
0.0
 40
160.0
  1
42.5
  0
TEXT
  5
1383A
  8
0
  6
CONTINUOUS
 62
     7
 10
21373.281938817359
 20
5421.188374000003
 30
0.0
 40
160.0
  1
有効開口巾2730
  0
TEXT
  5
1383B
  8
0
  6
CONTINUOUS
 62
     7
 10
21866.61527215071
 20
5021.1885389999998
 30
0.0
 40
160.0
  1
2918
  0
TEXT
  5
1383C
  8
0
  6
CONTINUOUS
 62
     7
 10
20051.958907817389
 20
5028.7357170000014
 30
0.0
 40
160.0
  1
42.5
  0
TEXT
  5
1383D
  8
0
  6
CONTINUOUS
 62
     7
 10
24366.635248624469
 20
4621.1887040000584
 30
0.0
 40
160.0
  1
8003
  0
TEXT
  5
1383E
  8
0
  6
CONTINUOUS
 62
     7
 10
25347.115272150699
 20
5421.188374000003
 30
0.0
 40
160.0
  1
有効開口巾4912
  0
TEXT
  5
1383F
  8
0
  6
CONTINUOUS
 62
     7
 10
19744.278639817381
 20
6264.2717073333397
 30
0.0
 40
160.0
  1
有効開口高サ1891.5
 50
90.0
  0
TEXT
  5
13840
  8
0
  6
CONTINUOUS
 62
     7
 10
19344.279299817372
 20
6396.7717203333377
 30
0.0
 40
160.0
  1
2348.5（2588.5）
 50
90.0
  0
TEXT
  5
13841
  8
0
  6
CONTINUOUS
 62
     7
 10
21866.61527215071
 20
9469.1900500000029
 30
0.0
 40
160.0
  1
3003
  0
TEXT
  5
13842
  8
0
  6
CONTINUOUS
 62
     7
 10
20261.97395281736
 20
9469.1893240000027
 30
0.0
 40
160.0
  1
43
  0
TEXT
  5
13843
  8
0
  6
CONTINUOUS
 62
     7
 10
28812.247758817379
 20
9469.1893240000027
 30
0.0
 40
160.0
  1
43
  0
TEXT
  5
13844
  8
0
  6
CONTINUOUS
 62
     7
 10
24353.281938817359
 20
9869.1329740000037
 30
0.0
 40
160.0
  1
8089
  0
ARC
  5
13845
  8
0
  6
BYBLOCK
 62
     0
 10
20588.781938817359
 20
9789.1329740000037
 30
0.0
 40
15.0
 50
0.0
 51
180.0
  0
ARC
  5
13846
  8
0
  6
BYBLOCK
 62
     0
 10
20588.781938817359
 20
9789.1329740000037
 30
0.0
 40
15.0
 50
180.0
 51
0.0
  0
ARC
  5
13847
  8
0
  6
BYBLOCK
 62
     0
 10
28677.78193881737
 20
9789.1329740000037
 30
0.0
 40
15.0
 50
180.0
 51
0.0
  0
ARC
  5
13848
  8
0
  6
BYBLOCK
 62
     0
 10
28677.78193881737
 20
9789.1329740000037
 30
0.0
 40
15.0
 50
0.0
 51
180.0
  0
ARC
  5
13849
  8
0
  6
BYBLOCK
 62
     0
 10
28634.78193881737
 20
9389.1900500000029
 30
0.0
 40
15.0
 50
180.0
 51
0.0
  0
ARC
  5
1384A
  8
0
  6
BYBLOCK
 62
     0
 10
28634.78193881737
 20
9389.1900500000029
 30
0.0
 40
15.0
 50
0.0
 51
180.0
  0
ARC
  5
1384B
  8
0
  6
BYBLOCK
 62
     0
 10
28677.78193881737
 20
9389.1900500000029
 30
0.0
 40
15.0
 50
0.0
 51
180.0
  0
ARC
  5
1384C
  8
0
  6
BYBLOCK
 62
     0
 10
28677.78193881737
 20
9389.1900500000029
 30
0.0
 40
15.0
 50
180.0
 51
0.0
  0
ARC
  5
1384D
  8
0
  6
BYBLOCK
 62
     0
 10
20631.781938817359
 20
9389.1900500000029
 30
0.0
 40
15.0
 50
0.0
 51
180.0
  0
ARC
  5
1384E
  8
0
  6
BYBLOCK
 62
     0
 10
20631.781938817359
 20
9389.1900500000029
 30
0.0
 40
15.0
 50
180.0
 51
0.0
  0
ARC
  5
1384F
  8
0
  6
BYBLOCK
 62
     0
 10
20588.781938817359
 20
9389.1900500000029
 30
0.0
 40
15.0
 50
180.0
 51
0.0
  0
ARC
  5
13850
  8
0
  6
BYBLOCK
 62
     0
 10
20588.781938817359
 20
9389.1900500000029
 30
0.0
 40
15.0
 50
0.0
 51
180.0
  0
ARC
  5
13851
  8
0
  6
BYBLOCK
 62
     0
 10
23634.78193881737
 20
9389.1900500000029
 30
0.0
 40
15.0
 50
180.0
 51
0.0
  0
ARC
  5
13852
  8
0
  6
BYBLOCK
 62
     0
 10
23634.78193881737
 20
9389.1900500000029
 30
0.0
 40
15.0
 50
0.0
 51
180.0
  0
ARC
  5
13853
  8
0
  6
BYBLOCK
 62
     0
 10
20631.781938817359
 20
9389.1900500000029
 30
0.0
 40
15.0
 50
0.0
 51
180.0
  0
ARC
  5
13854
  8
0
  6
BYBLOCK
 62
     0
 10
20631.781938817359
 20
9389.1900500000029
 30
0.0
 40
15.0
 50
180.0
 51
0.0
  0
ARC
  5
13855
  8
0
  6
BYBLOCK
 62
     0
 10
19424.279299817372
 20
6241.1883740000021
 30
0.0
 40
15.0
 50
90.0
 51
270.0
  0
ARC
  5
13856
  8
0
  6
BYBLOCK
 62
     0
 10
19424.279299817372
 20
6241.1883740000021
 30
0.0
 40
15.0
 50
270.0
 51
90.0
  0
ARC
  5
13857
  8
0
  6
BYBLOCK
 62
     0
 10
19424.279299817372
 20
8589.6883999999973
 30
0.0
 40
15.0
 50
270.0
 51
90.0
  0
ARC
  5
13858
  8
0
  6
BYBLOCK
 62
     0
 10
19424.279299817372
 20
8589.6883999999973
 30
0.0
 40
15.0
 50
90.0
 51
270.0
  0
ARC
  5
13859
  8
0
  6
BYBLOCK
 62
     0
 10
19824.278639817381
 20
6241.1883740000021
 30
0.0
 40
15.0
 50
90.0
 51
270.0
  0
ARC
  5
1385A
  8
0
  6
BYBLOCK
 62
     0
 10
19824.278639817381
 20
6241.1883740000021
 30
0.0
 40
15.0
 50
270.0
 51
90.0
  0
ARC
  5
1385B
  8
0
  6
BYBLOCK
 62
     0
 10
19824.278639817381
 20
8132.6883740000021
 30
0.0
 40
15.0
 50
270.0
 51
90.0
  0
ARC
  5
1385C
  8
0
  6
BYBLOCK
 62
     0
 10
19824.278639817381
 20
8132.6883740000021
 30
0.0
 40
15.0
 50
90.0
 51
270.0
  0
ARC
  5
1385D
  8
0
  6
BYBLOCK
 62
     0
 10
23637.78193881737
 20
5341.188374000003
 30
0.0
 40
15.0
 50
0.0
 51
180.0
  0
ARC
  5
1385E
  8
0
  6
BYBLOCK
 62
     0
 10
23637.78193881737
 20
5341.188374000003
 30
0.0
 40
15.0
 50
180.0
 51
0.0
  0
ARC
  5
1385F
  8
0
  6
BYBLOCK
 62
     0
 10
28549.78193881737
 20
5341.188374000003
 30
0.0
 40
15.0
 50
180.0
 51
0.0
  0
ARC
  5
13860
  8
0
  6
BYBLOCK
 62
     0
 10
28549.78193881737
 20
5341.188374000003
 30
0.0
 40
15.0
 50
0.0
 51
180.0
  0
ARC
  5
13861
  8
0
  6
BYBLOCK
 62
     0
 10
20631.82189176491
 20
4541.1887040000556
 30
0.0
 40
15.0
 50
0.0
 51
180.0
  0
ARC
  5
13862
  8
0
  6
BYBLOCK
 62
     0
 10
20631.82189176491
 20
4541.1887040000556
 30
0.0
 40
15.0
 50
180.0
 51
0.0
  0
ARC
  5
13863
  8
0
  6
BYBLOCK
 62
     0
 10
28634.78193881737
 20
4541.1887040000556
 30
0.0
 40
15.0
 50
180.0
 51
0.0
  0
ARC
  5
13864
  8
0
  6
BYBLOCK
 62
     0
 10
28634.78193881737
 20
4541.1887040000556
 30
0.0
 40
15.0
 50
0.0
 51
180.0
  0
ARC
  5
13865
  8
0
  6
BYBLOCK
 62
     0
 10
20674.281938817359
 20
4941.1885390000016
 30
0.0
 40
15.0
 50
0.0
 51
180.0
  0
ARC
  5
13866
  8
0
  6
BYBLOCK
 62
     0
 10
20674.281938817359
 20
4941.1885390000016
 30
0.0
 40
15.0
 50
180.0
 51
0.0
  0
ARC
  5
13867
  8
0
  6
BYBLOCK
 62
     0
 10
20631.82189176491
 20
4941.1885390000016
 30
0.0
 40
15.0
 50
180.0
 51
0.0
  0
ARC
  5
13868
  8
0
  6
BYBLOCK
 62
     0
 10
20631.82189176491
 20
4941.1885390000016
 30
0.0
 40
15.0
 50
0.0
 51
180.0
  0
ARC
  5
13869
  8
0
  6
BYBLOCK
 62
     0
 10
23592.28193881737
 20
4941.1885390000016
 30
0.0
 40
15.0
 50
180.0
 51
0.0
  0
ARC
  5
1386A
  8
0
  6
BYBLOCK
 62
     0
 10
23592.28193881737
 20
4941.1885390000016
 30
0.0
 40
15.0
 50
0.0
 51
180.0
  0
ARC
  5
1386B
  8
0
  6
BYBLOCK
 62
     0
 10
20674.281938817359
 20
4941.1885390000016
 30
0.0
 40
15.0
 50
0.0
 51
180.0
  0
ARC
  5
1386C
  8
0
  6
BYBLOCK
 62
     0
 10
20674.281938817359
 20
4941.1885390000016
 30
0.0
 40
15.0
 50
180.0
 51
0.0
  0
ARC
  5
1386D
  8
0
  6
BYBLOCK
 62
     0
 10
20768.281938817359
 20
5341.188374000003
 30
0.0
 40
15.0
 50
0.0
 51
180.0
  0
ARC
  5
1386E
  8
0
  6
BYBLOCK
 62
     0
 10
20768.281938817359
 20
5341.188374000003
 30
0.0
 40
15.0
 50
180.0
 51
0.0
  0
ARC
  5
1386F
  8
0
  6
BYBLOCK
 62
     0
 10
23498.281938817359
 20
5341.188374000003
 30
0.0
 40
15.0
 50
180.0
 51
0.0
  0
ARC
  5
13870
  8
0
  6
BYBLOCK
 62
     0
 10
23498.281938817359
 20
5341.188374000003
 30
0.0
 40
15.0
 50
0.0
 51
180.0
  0
ARC
  5
13871
  8
0
  6
BYBLOCK
 62
     0
 10
28592.281938817381
 20
4941.1885390000016
 30
0.0
 40
15.0
 50
180.0
 51
0.0
  0
ARC
  5
13872
  8
0
  6
BYBLOCK
 62
     0
 10
28592.281938817381
 20
4941.1885390000016
 30
0.0
 40
15.0
 50
0.0
 51
180.0
  0
ARC
  5
13873
  8
0
  6
BYBLOCK
 62
     0
 10
28634.78193881737
 20
4941.1885390000016
 30
0.0
 40
15.0
 50
0.0
 51
180.0
  0
ARC
  5
13874
  8
0
  6
BYBLOCK
 62
     0
 10
28634.78193881737
 20
4941.1885390000016
 30
0.0
 40
15.0
 50
180.0
 51
0.0
  0
ARC
  5
13875
  8
0
  6
BYBLOCK
 62
     0
 10
23592.28193881737
 20
4941.1885390000016
 30
0.0
 40
15.0
 50
0.0
 51
180.0
  0
ARC
  5
13876
  8
0
  6
BYBLOCK
 62
     0
 10
23592.28193881737
 20
4941.1885390000016
 30
0.0
 40
15.0
 50
180.0
 51
0.0
  0
ARC
  5
13877
  8
0
  6
BYBLOCK
 62
     0
 10
28592.281938817381
 20
4941.1885390000016
 30
0.0
 40
15.0
 50
180.0
 51
0.0
  0
ARC
  5
13878
  8
0
  6
BYBLOCK
 62
     0
 10
28592.281938817381
 20
4941.1885390000016
 30
0.0
 40
15.0
 50
0.0
 51
180.0
  0
ARC
  5
13879
  8
0
  6
BYBLOCK
 62
     0
 10
23634.78193881737
 20
9389.1900500000029
 30
0.0
 40
15.0
 50
0.0
 51
180.0
  0
ARC
  5
1387A
  8
0
  6
BYBLOCK
 62
     0
 10
23634.78193881737
 20
9389.1900500000029
 30
0.0
 40
15.0
 50
180.0
 51
0.0
  0
ARC
  5
1387B
  8
0
  6
BYBLOCK
 62
     0
 10
28634.78193881737
 20
9389.1900500000029
 30
0.0
 40
15.0
 50
180.0
 51
0.0
  0
ARC
  5
1387C
  8
0
  6
BYBLOCK
 62
     0
 10
28634.78193881737
 20
9389.1900500000029
 30
0.0
 40
15.0
 50
0.0
 51
180.0
  0
ARC
  5
1387D
  8
0
  6
BYBLOCK
 62
     0
 10
29844.604337111741
 20
6242.0026620000026
 30
0.0
 40
15.0
 50
90.0
 51
270.0
  0
ARC
  5
1387E
  8
0
  6
BYBLOCK
 62
     0
 10
29844.604337111741
 20
6242.0026620000026
 30
0.0
 40
15.0
 50
270.0
 51
90.0
  0
ARC
  5
1387F
  8
0
  6
BYBLOCK
 62
     0
 10
29844.604337111741
 20
8262.0026620000026
 30
0.0
 40
15.0
 50
270.0
 51
90.0
  0
ARC
  5
13880
  8
0
  6
BYBLOCK
 62
     0
 10
29844.604337111741
 20
8262.0026620000026
 30
0.0
 40
15.0
 50
90.0
 51
270.0
  0
ARC
  5
138C5
  8
0
  6
BYBLOCK
 62
     0
 10
23613.283799817342
 20
20560.487902000001
 30
0.0
 40
15.0
 50
0.0
 51
180.0
  0
ARC
  5
138C6
  8
0
  6
BYBLOCK
 62
     0
 10
23613.283799817342
 20
20560.487902000001
 30
0.0
 40
15.0
 50
180.0
 51
0.0
  0
ARC
  5
138C7
  8
0
  6
BYBLOCK
 62
     0
 10
28613.283799817342
 20
20560.487902000001
 30
0.0
 40
15.0
 50
180.0
 51
0.0
  0
ARC
  5
138C8
  8
0
  6
BYBLOCK
 62
     0
 10
28613.283799817342
 20
20560.487902000001
 30
0.0
 40
15.0
 50
0.0
 51
180.0
  0
ARC
  5
138C9
  8
0
  6
BYBLOCK
 62
     0
 10
20695.283799817349
 20
20560.487902000001
 30
0.0
 40
15.0
 50
0.0
 51
180.0
  0
ARC
  5
138CA
  8
0
  6
BYBLOCK
 62
     0
 10
20695.283799817349
 20
20560.487902000001
 30
0.0
 40
15.0
 50
180.0
 51
0.0
  0
ARC
  5
138CB
  8
0
  6
BYBLOCK
 62
     0
 10
23613.283799817342
 20
20560.487902000001
 30
0.0
 40
15.0
 50
180.0
 51
0.0
  0
ARC
  5
138CC
  8
0
  6
BYBLOCK
 62
     0
 10
23613.283799817342
 20
20560.487902000001
 30
0.0
 40
15.0
 50
0.0
 51
180.0
  0
ARC
  5
138CD
  8
0
  6
BYBLOCK
 62
     0
 10
28613.283799817342
 20
20160.487902000001
 30
0.0
 40
15.0
 50
0.0
 51
180.0
  0
ARC
  5
138CE
  8
0
  6
BYBLOCK
 62
     0
 10
28613.283799817342
 20
20160.487902000001
 30
0.0
 40
15.0
 50
180.0
 51
0.0
  0
ARC
  5
138CF
  8
0
  6
BYBLOCK
 62
     0
 10
28570.78155681735
 20
20160.487902000001
 30
0.0
 40
15.0
 50
180.0
 51
0.0
  0
ARC
  5
138D0
  8
0
  6
BYBLOCK
 62
     0
 10
28570.78155681735
 20
20160.487902000001
 30
0.0
 40
15.0
 50
0.0
 51
180.0
  0
ARC
  5
138D1
  8
0
  6
BYBLOCK
 62
     0
 10
28613.283799817342
 20
20160.487902000001
 30
0.0
 40
15.0
 50
180.0
 51
0.0
  0
ARC
  5
138D2
  8
0
  6
BYBLOCK
 62
     0
 10
28613.283799817342
 20
20160.487902000001
 30
0.0
 40
15.0
 50
0.0
 51
180.0
  0
ARC
  5
138D3
  8
0
  6
BYBLOCK
 62
     0
 10
28655.78208481734
 20
20160.487902000001
 30
0.0
 40
15.0
 50
0.0
 51
180.0
  0
ARC
  5
138D4
  8
0
  6
BYBLOCK
 62
     0
 10
28655.78208481734
 20
20160.487902000001
 30
0.0
 40
15.0
 50
180.0
 51
0.0
  0
ARC
  5
138D5
  8
0
  6
BYBLOCK
 62
     0
 10
29831.127424185968
 20
16750.486978000001
 30
0.0
 40
15.0
 50
90.0
 51
270.0
  0
ARC
  5
138D6
  8
0
  6
BYBLOCK
 62
     0
 10
29831.127424185968
 20
16750.486978000001
 30
0.0
 40
15.0
 50
270.0
 51
90.0
  0
ARC
  5
138D7
  8
0
  6
BYBLOCK
 62
     0
 10
29831.127424185968
 20
19317.986978000001
 30
0.0
 40
15.0
 50
270.0
 51
90.0
  0
ARC
  5
138D8
  8
0
  6
BYBLOCK
 62
     0
 10
29831.127424185968
 20
19317.986978000001
 30
0.0
 40
15.0
 50
90.0
 51
270.0
  0
ARC
  5
138D9
  8
0
  6
BYBLOCK
 62
     0
 10
29831.127424185968
 20
13832.48697800001
 30
0.0
 40
15.0
 50
90.0
 51
270.0
  0
ARC
  5
138DA
  8
0
  6
BYBLOCK
 62
     0
 10
29831.127424185968
 20
13832.48697800001
 30
0.0
 40
15.0
 50
270.0
 51
90.0
  0
ARC
  5
138DB
  8
0
  6
BYBLOCK
 62
     0
 10
29831.127424185968
 20
16750.486978000001
 30
0.0
 40
15.0
 50
270.0
 51
90.0
  0
ARC
  5
138DC
  8
0
  6
BYBLOCK
 62
     0
 10
29831.127424185968
 20
16750.486978000001
 30
0.0
 40
15.0
 50
90.0
 51
270.0
  0
ARC
  5
138F1
  8
0
  6
BYBLOCK
 62
     0
 10
7227.0054167031494
 20
9789.1883999999955
 30
0.0
 40
15.0
 50
0.0
 51
180.0
  0
ARC
  5
138F2
  8
0
  6
BYBLOCK
 62
     0
 10
7227.0054167031494
 20
9789.1883999999955
 30
0.0
 40
15.0
 50
180.0
 51
0.0
  0
ARC
  5
138F3
  8
0
  6
BYBLOCK
 62
     0
 10
13127.505416703139
 20
9789.1883999999955
 30
0.0
 40
15.0
 50
180.0
 51
0.0
  0
ARC
  5
138F4
  8
0
  6
BYBLOCK
 62
     0
 10
13127.505416703139
 20
9789.1883999999955
 30
0.0
 40
15.0
 50
0.0
 51
180.0
  0
ARC
  5
138F5
  8
0
  6
BYBLOCK
 62
     0
 10
12977.50541670315
 20
9389.1900500000029
 30
0.0
 40
15.0
 50
180.0
 51
0.0
  0
ARC
  5
138F6
  8
0
  6
BYBLOCK
 62
     0
 10
12977.50541670315
 20
9389.1900500000029
 30
0.0
 40
15.0
 50
0.0
 51
180.0
  0
ARC
  5
138F7
  8
0
  6
BYBLOCK
 62
     0
 10
13127.505416703139
 20
9389.1900500000029
 30
0.0
 40
15.0
 50
0.0
 51
180.0
  0
ARC
  5
138F8
  8
0
  6
BYBLOCK
 62
     0
 10
13127.505416703139
 20
9389.1900500000029
 30
0.0
 40
15.0
 50
180.0
 51
0.0
  0
ARC
  5
138F9
  8
0
  6
BYBLOCK
 62
     0
 10
7407.0054167031503
 20
9389.1900500000029
 30
0.0
 40
15.0
 50
0.0
 51
180.0
  0
ARC
  5
138FA
  8
0
  6
BYBLOCK
 62
     0
 10
7407.0054167031503
 20
9389.1900500000029
 30
0.0
 40
15.0
 50
180.0
 51
0.0
  0
ARC
  5
138FB
  8
0
  6
BYBLOCK
 62
     0
 10
12977.50541670315
 20
9389.1900500000029
 30
0.0
 40
15.0
 50
180.0
 51
0.0
  0
ARC
  5
138FC
  8
0
  6
BYBLOCK
 62
     0
 10
12977.50541670315
 20
9389.1900500000029
 30
0.0
 40
15.0
 50
0.0
 51
180.0
  0
ARC
  5
138FD
  8
0
  6
BYBLOCK
 62
     0
 10
7227.0054167031494
 20
9389.1900500000029
 30
0.0
 40
15.0
 50
0.0
 51
180.0
  0
ARC
  5
138FE
  8
0
  6
BYBLOCK
 62
     0
 10
7227.0054167031494
 20
9389.1900500000029
 30
0.0
 40
15.0
 50
180.0
 51
0.0
  0
ARC
  5
138FF
  8
0
  6
BYBLOCK
 62
     0
 10
7407.0054167031503
 20
9389.1900500000029
 30
0.0
 40
15.0
 50
180.0
 51
0.0
  0
ARC
  5
13900
  8
0
  6
BYBLOCK
 62
     0
 10
7407.0054167031503
 20
9389.1900500000029
 30
0.0
 40
15.0
 50
0.0
 51
180.0
  0
ARC
  5
13901
  8
0
  6
BYBLOCK
 62
     0
 10
14067.505812703141
 20
6241.1883740000021
 30
0.0
 40
15.0
 50
90.0
 51
270.0
  0
ARC
  5
13902
  8
0
  6
BYBLOCK
 62
     0
 10
14067.505812703141
 20
6241.1883740000021
 30
0.0
 40
15.0
 50
270.0
 51
90.0
  0
ARC
  5
13903
  8
0
  6
BYBLOCK
 62
     0
 10
14067.505812703141
 20
8589.688374000003
 30
0.0
 40
15.0
 50
270.0
 51
90.0
  0
ARC
  5
13904
  8
0
  6
BYBLOCK
 62
     0
 10
14067.505812703141
 20
8589.688374000003
 30
0.0
 40
15.0
 50
90.0
 51
270.0
  0
ARC
  5
13905
  8
0
  6
BYBLOCK
 62
     0
 10
6317.00502070316
 20
6241.1883740000021
 30
0.0
 40
15.0
 50
90.0
 51
270.0
  0
ARC
  5
13906
  8
0
  6
BYBLOCK
 62
     0
 10
6317.00502070316
 20
6241.1883740000021
 30
0.0
 40
15.0
 50
270.0
 51
90.0
  0
ARC
  5
13907
  8
0
  6
BYBLOCK
 62
     0
 10
6317.00502070316
 20
8397.1883740000048
 30
0.0
 40
15.0
 50
270.0
 51
90.0
  0
ARC
  5
13908
  8
0
  6
BYBLOCK
 62
     0
 10
6317.00502070316
 20
8397.1883740000048
 30
0.0
 40
15.0
 50
90.0
 51
270.0
  0
ARC
  5
13909
  8
0
  6
BYBLOCK
 62
     0
 10
7407.0054167031503
 20
4541.1887039999983
 30
0.0
 40
15.0
 50
0.0
 51
180.0
  0
ARC
  5
1390A
  8
0
  6
BYBLOCK
 62
     0
 10
7407.0054167031503
 20
4541.1887039999983
 30
0.0
 40
15.0
 50
180.0
 51
0.0
  0
ARC
  5
1390B
  8
0
  6
BYBLOCK
 62
     0
 10
12977.50541670315
 20
4541.1887039999983
 30
0.0
 40
15.0
 50
180.0
 51
0.0
  0
ARC
  5
1390C
  8
0
  6
BYBLOCK
 62
     0
 10
12977.50541670315
 20
4541.1887039999983
 30
0.0
 40
15.0
 50
0.0
 51
180.0
  0
ARC
  5
1390D
  8
0
  6
BYBLOCK
 62
     0
 10
12935.005416703139
 20
4941.1885390000016
 30
0.0
 40
15.0
 50
180.0
 51
0.0
  0
ARC
  5
1390E
  8
0
  6
BYBLOCK
 62
     0
 10
12935.005416703139
 20
4941.1885390000016
 30
0.0
 40
15.0
 50
0.0
 51
180.0
  0
ARC
  5
1390F
  8
0
  6
BYBLOCK
 62
     0
 10
12977.50541670315
 20
4941.1885390000016
 30
0.0
 40
15.0
 50
0.0
 51
180.0
  0
ARC
  5
13910
  8
0
  6
BYBLOCK
 62
     0
 10
12977.50541670315
 20
4941.1885390000016
 30
0.0
 40
15.0
 50
180.0
 51
0.0
  0
ARC
  5
13911
  8
0
  6
BYBLOCK
 62
     0
 10
7449.5054167031458
 20
4941.1885390000016
 30
0.0
 40
15.0
 50
0.0
 51
180.0
  0
ARC
  5
13912
  8
0
  6
BYBLOCK
 62
     0
 10
7449.5054167031458
 20
4941.1885390000016
 30
0.0
 40
15.0
 50
180.0
 51
0.0
  0
ARC
  5
13913
  8
0
  6
BYBLOCK
 62
     0
 10
7407.0054167031503
 20
4941.1885390000016
 30
0.0
 40
15.0
 50
180.0
 51
0.0
  0
ARC
  5
13914
  8
0
  6
BYBLOCK
 62
     0
 10
7407.0054167031503
 20
4941.1885390000016
 30
0.0
 40
15.0
 50
0.0
 51
180.0
  0
ARC
  5
13915
  8
0
  6
BYBLOCK
 62
     0
 10
10017.005416703139
 20
4941.1885390000016
 30
0.0
 40
15.0
 50
180.0
 51
0.0
  0
ARC
  5
13916
  8
0
  6
BYBLOCK
 62
     0
 10
10017.005416703139
 20
4941.1885390000016
 30
0.0
 40
15.0
 50
0.0
 51
180.0
  0
ARC
  5
13917
  8
0
  6
BYBLOCK
 62
     0
 10
7449.5054167031458
 20
4941.1885390000016
 30
0.0
 40
15.0
 50
0.0
 51
180.0
  0
ARC
  5
13918
  8
0
  6
BYBLOCK
 62
     0
 10
7449.5054167031458
 20
4941.1885390000016
 30
0.0
 40
15.0
 50
180.0
 51
0.0
  0
ARC
  5
13919
  8
0
  6
BYBLOCK
 62
     0
 10
10017.005416703139
 20
4941.1885390000016
 30
0.0
 40
15.0
 50
0.0
 51
180.0
  0
ARC
  5
1391A
  8
0
  6
BYBLOCK
 62
     0
 10
10017.005416703139
 20
4941.1885390000016
 30
0.0
 40
15.0
 50
180.0
 51
0.0
  0
ARC
  5
1391B
  8
0
  6
BYBLOCK
 62
     0
 10
12935.005416703139
 20
4941.1885390000016
 30
0.0
 40
15.0
 50
180.0
 51
0.0
  0
ARC
  5
1391C
  8
0
  6
BYBLOCK
 62
     0
 10
12935.005416703139
 20
4941.1885390000016
 30
0.0
 40
15.0
 50
0.0
 51
180.0
  0
ARC
  5
1391D
  8
0
  6
BYBLOCK
 62
     0
 10
5645.9302443923489
 20
13811.985710999999
 30
0.0
 40
15.0
 50
270.0
 51
90.0
  0
ARC
  5
1391E
  8
0
  6
BYBLOCK
 62
     0
 10
5645.9302443923489
 20
13811.985710999999
 30
0.0
 40
15.0
 50
90.0
 51
270.0
  0
ARC
  5
1391F
  8
0
  6
BYBLOCK
 62
     0
 10
5645.9302443923489
 20
13619.48643699999
 30
0.0
 40
15.0
 50
90.0
 51
270.0
  0
ARC
  5
13920
  8
0
  6
BYBLOCK
 62
     0
 10
5645.9302443923489
 20
13619.48643699999
 30
0.0
 40
15.0
 50
270.0
 51
90.0
  0
ARC
  5
13921
  8
0
  6
BYBLOCK
 62
     0
 10
5645.9302443923489
 20
16729.985711000001
 30
0.0
 40
15.0
 50
270.0
 51
90.0
  0
ARC
  5
13922
  8
0
  6
BYBLOCK
 62
     0
 10
5645.9302443923489
 20
16729.985711000001
 30
0.0
 40
15.0
 50
90.0
 51
270.0
  0
ARC
  5
13923
  8
0
  6
BYBLOCK
 62
     0
 10
5645.9302443923489
 20
13811.985710999999
 30
0.0
 40
15.0
 50
90.0
 51
270.0
  0
ARC
  5
13924
  8
0
  6
BYBLOCK
 62
     0
 10
5645.9302443923489
 20
13811.985710999999
 30
0.0
 40
15.0
 50
270.0
 51
90.0
  0
ARC
  5
13925
  8
0
  6
BYBLOCK
 62
     0
 10
5645.9302443923534
 20
19297.485711000001
 30
0.0
 40
15.0
 50
270.0
 51
90.0
  0
ARC
  5
13926
  8
0
  6
BYBLOCK
 62
     0
 10
5645.9302443923534
 20
19297.485711000001
 30
0.0
 40
15.0
 50
90.0
 51
270.0
  0
ARC
  5
13927
  8
0
  6
BYBLOCK
 62
     0
 10
5645.9302443923489
 20
16729.985711000001
 30
0.0
 40
15.0
 50
90.0
 51
270.0
  0
ARC
  5
13928
  8
0
  6
BYBLOCK
 62
     0
 10
5645.9302443923489
 20
16729.985711000001
 30
0.0
 40
15.0
 50
270.0
 51
90.0
  0
ARC
  5
13929
  8
0
  6
BYBLOCK
 62
     0
 10
5645.9302443923534
 20
19297.485711000001
 30
0.0
 40
15.0
 50
90.0
 51
270.0
  0
ARC
  5
1392A
  8
0
  6
BYBLOCK
 62
     0
 10
5645.9302443923534
 20
19297.485711000001
 30
0.0
 40
15.0
 50
270.0
 51
90.0
  0
ARC
  5
1392B
  8
0
  6
BYBLOCK
 62
     0
 10
5645.9302443923534
 20
19519.985579
 30
0.0
 40
15.0
 50
270.0
 51
90.0
  0
ARC
  5
1392C
  8
0
  6
BYBLOCK
 62
     0
 10
5645.9302443923534
 20
19519.985579
 30
0.0
 40
15.0
 50
90.0
 51
270.0
  0
ARC
  5
1392D
  8
0
  6
BYBLOCK
 62
     0
 10
6045.9295853923477
 20
19509.98900999999
 30
0.0
 40
15.0
 50
270.0
 51
90.0
  0
ARC
  5
1392E
  8
0
  6
BYBLOCK
 62
     0
 10
6045.9295853923477
 20
19509.98900999999
 30
0.0
 40
15.0
 50
90.0
 51
270.0
  0
ARC
  5
1392F
  8
0
  6
BYBLOCK
 62
     0
 10
6045.9295853923477
 20
19519.985579
 30
0.0
 40
15.0
 50
90.0
 51
270.0
  0
ARC
  5
13930
  8
0
  6
BYBLOCK
 62
     0
 10
6045.9295853923477
 20
19519.985579
 30
0.0
 40
15.0
 50
270.0
 51
90.0
  0
ARC
  5
13931
  8
0
  6
BYBLOCK
 62
     0
 10
14493.43002039233
 20
20139.986634999979
 30
0.0
 40
15.0
 50
180.0
 51
0.0
  0
ARC
  5
13932
  8
0
  6
BYBLOCK
 62
     0
 10
14493.43002039233
 20
20139.986634999979
 30
0.0
 40
15.0
 50
0.0
 51
180.0
  0
ARC
  5
13933
  8
0
  6
BYBLOCK
 62
     0
 10
14578.93002039233
 20
20139.986634999979
 30
0.0
 40
15.0
 50
0.0
 51
180.0
  0
ARC
  5
13934
  8
0
  6
BYBLOCK
 62
     0
 10
14578.93002039233
 20
20139.986634999979
 30
0.0
 40
15.0
 50
180.0
 51
0.0
  0
ARC
  5
13935
  8
0
  6
BYBLOCK
 62
     0
 10
9493.4300203923394
 20
20139.986634999979
 30
0.0
 40
15.0
 50
0.0
 51
180.0
  0
ARC
  5
13936
  8
0
  6
BYBLOCK
 62
     0
 10
9493.4300203923394
 20
20139.986634999979
 30
0.0
 40
15.0
 50
180.0
 51
0.0
  0
ARC
  5
13937
  8
0
  6
BYBLOCK
 62
     0
 10
14493.43002039233
 20
20139.986634999979
 30
0.0
 40
15.0
 50
180.0
 51
0.0
  0
ARC
  5
13938
  8
0
  6
BYBLOCK
 62
     0
 10
14493.43002039233
 20
20139.986634999979
 30
0.0
 40
15.0
 50
0.0
 51
180.0
  0
ARC
  5
13939
  8
0
  6
BYBLOCK
 62
     0
 10
6575.4300203923412
 20
20139.986634999979
 30
0.0
 40
15.0
 50
0.0
 51
180.0
  0
ARC
  5
1393A
  8
0
  6
BYBLOCK
 62
     0
 10
6575.4300203923412
 20
20139.986634999979
 30
0.0
 40
15.0
 50
180.0
 51
0.0
  0
ARC
  5
1393B
  8
0
  6
BYBLOCK
 62
     0
 10
9493.4300203923394
 20
20139.986634999979
 30
0.0
 40
15.0
 50
180.0
 51
0.0
  0
ARC
  5
1393C
  8
0
  6
BYBLOCK
 62
     0
 10
9493.4300203923394
 20
20139.986634999979
 30
0.0
 40
15.0
 50
0.0
 51
180.0
  0
ARC
  5
1393D
  8
0
  6
BYBLOCK
 62
     0
 10
6575.4300203923412
 20
20139.986634999979
 30
0.0
 40
15.0
 50
0.0
 51
180.0
  0
ARC
  5
1393E
  8
0
  6
BYBLOCK
 62
     0
 10
6575.4300203923412
 20
20139.986634999979
 30
0.0
 40
15.0
 50
180.0
 51
0.0
  0
ARC
  5
1393F
  8
0
  6
BYBLOCK
 62
     0
 10
6489.9300203923422
 20
20139.986634999979
 30
0.0
 40
15.0
 50
180.0
 51
0.0
  0
ARC
  5
13940
  8
0
  6
BYBLOCK
 62
     0
 10
6489.9300203923422
 20
20139.986634999979
 30
0.0
 40
15.0
 50
0.0
 51
180.0
  0
ARC
  5
13941
  8
0
  6
BYBLOCK
 62
     0
 10
6489.9300203923422
 20
12329.48564499999
 30
0.0
 40
15.0
 50
0.0
 51
180.0
  0
ARC
  5
13942
  8
0
  6
BYBLOCK
 62
     0
 10
6489.9300203923422
 20
12329.48564499999
 30
0.0
 40
15.0
 50
180.0
 51
0.0
  0
ARC
  5
13943
  8
0
  6
BYBLOCK
 62
     0
 10
14578.93002039233
 20
12329.48564499999
 30
0.0
 40
15.0
 50
180.0
 51
0.0
  0
ARC
  5
13944
  8
0
  6
BYBLOCK
 62
     0
 10
14578.93002039233
 20
12329.48564499999
 30
0.0
 40
15.0
 50
0.0
 51
180.0
  0
TEXT
  5
13A1B
  8
NAME
 10
21595.82616625919
 20
1076.6369801169251
 30
0.0
 40
360.0
  1
VGC-3055（H）+VKC-5055（H）型-R（単棟）
 41
0.45
  0
TEXT
  5
13A1C
  8
NAME
 10
21933.552716389011
 20
1876.0
 30
0.0
 40
360.0
  1
ヨドガレージ ラヴィージュ
 41
0.75
  7
01
  0
LINE
  5
13A1D
  8
NAME
  6
CONTINUOUS
 10
26067.886878884299
 20
2236.0
 30
0.0
 11
26067.886878884299
 21
1876.0
 31
0.0
  0
LINE
  5
13A1E
  8
NAME
  6
CONTINUOUS
 10
26167.886878884299
 20
2236.0
 30
0.0
 11
26167.886878884299
 21
1876.0
 31
0.0
  0
LINE
  5
13A1F
  8
NAME
  6
CONTINUOUS
 10
26267.88687888431
 20
2236.0
 30
0.0
 11
26267.88687888431
 21
1876.0
 31
0.0
  0
LINE
  5
13A20
  8
NAME
  6
CONTINUOUS
 10
26007.886878884299
 20
2236.0
 30
0.0
 11
26327.886878884299
 21
2236.0
 31
0.0
  0
LINE
  5
13A21
  8
NAME
  6
CONTINUOUS
 10
26327.886878884299
 20
1876.0
 30
0.0
 11
26007.886878884299
 21
1876.0
 31
0.0
  0
LINE
  5
13CE4
  8
2-0
  6
CONTINUOUS
 62
     6
 10
22378.442715817338
 20
13192.48585600001
 30
0.0
 11
21378.449313817371
 21
13192.48585600001
 31
0.0
  0
LINE
  5
13CE5
  8
2-0
  6
CONTINUOUS
 62
     6
 10
20910.508936817339
 20
13662.90657000001
 30
0.0
 11
21378.449313817371
 21
13192.48585600001
 31
0.0
  0
LINE
  5
13CE6
  8
2-0
  6
CONTINUOUS
 62
     6
 10
20949.14913981736
 20
16854.514217000022
 30
0.0
 11
21253.844557817341
 21
16958.167748000029
 31
0.0
  0
LINE
  5
13CE7
  8
2-0
  6
CONTINUOUS
 62
     6
 10
20794.127100817372
 20
16364.892173000029
 30
0.0
 11
21253.844557817341
 21
16120.978862000011
 31
0.0
  0
LINE
  5
13CE8
  8
2-0
  6
CONTINUOUS
 62
     6
 10
22173.847592817361
 20
16120.978862000011
 30
0.0
 11
21253.844557817341
 21
16120.978862000011
 31
0.0
  0
LINE
  5
13CE9
  8
2-0
  6
CONTINUOUS
 62
     6
 10
22453.838619817339
 20
16958.167748000029
 30
0.0
 11
21253.844557817341
 21
16958.167748000029
 31
0.0
  0
LINE
  5
13CEA
  8
2-0
  6
CONTINUOUS
 62
     6
 10
20877.949815817348
 20
13984.590216000001
 30
0.0
 11
21253.844557817341
 21
14165.53405100001
 31
0.0
  0
LINE
  5
13CEB
  8
2-0
  6
CONTINUOUS
 62
     6
 10
21773.84627381734
 20
14165.53405100001
 30
0.0
 11
21253.844557817341
 21
14165.53405100001
 31
0.0
  0
LINE
  5
13CEC
  8
2-0
  6
CONTINUOUS
 62
     4
 10
20695.283799817342
 20
19440.487506000019
 30
0.0
 11
20695.283799817342
 21
20170.484471000011
 31
0.0
  0
LINE
  5
13CED
  8
2-0
  6
CONTINUOUS
 62
     3
 10
23625.784459817329
 20
19251.485052000018
 30
0.0
 11
23625.784459817329
 21
19245.489090000021
 31
0.0
  0
LINE
  5
13CEE
  8
2-0
  6
CONTINUOUS
 62
     3
 10
23625.784459817329
 20
19245.489090000021
 30
0.0
 11
23655.782083817321
 21
19245.489090000021
 31
0.0
  0
LINE
  5
13CEF
  8
2-0
  6
CONTINUOUS
 62
     3
 10
23655.782083817321
 20
19275.488694
 30
0.0
 11
23574.780183817322
 21
19275.488694
 31
0.0
  0
LINE
  5
13CF0
  8
2-0
  6
CONTINUOUS
 62
     3
 10
23625.784459817329
 20
19235.19163400001
 30
0.0
 11
23655.782083817321
 21
19235.19163400001
 31
0.0
  0
LINE
  5
13CF1
  8
2-0
  6
CONTINUOUS
 62
     3
 10
23625.784459817329
 20
19253.193376000028
 30
0.0
 11
23625.784459817329
 21
19235.19163400001
 31
0.0
  0
LINE
  5
13CF2
  8
2-0
  6
CONTINUOUS
 62
     3
 10
23650.781819817319
 20
19253.193376000028
 30
0.0
 11
23625.784459817329
 21
19253.193376000028
 31
0.0
  0
LINE
  5
13CF3
  8
2-0
  6
CONTINUOUS
 62
     3
 10
23650.781819817319
 20
19248.18519400002
 30
0.0
 11
23650.781819817319
 21
19253.193376000028
 31
0.0
  0
LINE
  5
13CF4
  8
2-0
  6
CONTINUOUS
 62
     3
 10
23643.780262817341
 20
19248.18519400002
 30
0.0
 11
23650.781819817319
 21
19248.18519400002
 31
0.0
  0
LINE
  5
13CF5
  8
2-0
  6
CONTINUOUS
 62
     3
 10
23543.483994817339
 20
19348.485421000009
 30
0.0
 11
23543.483994817339
 21
19355.49093700002
 31
0.0
  0
LINE
  5
13CF6
  8
2-0
  6
CONTINUOUS
 62
     3
 10
23543.483994817339
 20
19355.49093700002
 30
0.0
 11
23548.484258817309
 21
19355.49093700002
 31
0.0
  0
LINE
  5
13CF7
  8
2-0
  6
CONTINUOUS
 62
     3
 10
23548.484258817309
 20
19355.49093700002
 30
0.0
 11
23548.484258817309
 21
19330.481700000018
 31
0.0
  0
LINE
  5
13CF8
  8
2-0
  6
CONTINUOUS
 62
     3
 10
23548.484258817309
 20
19330.481700000018
 30
0.0
 11
23530.482516817308
 21
19330.481700000018
 31
0.0
  0
LINE
  5
13CF9
  8
2-0
  6
CONTINUOUS
 62
     3
 10
23530.482516817308
 20
19330.481700000018
 30
0.0
 11
23530.482516817308
 21
19360.48526300002
 31
0.0
  0
LINE
  5
13CFA
  8
2-0
  6
CONTINUOUS
 62
     3
 10
23540.77997281733
 20
19360.48526300002
 30
0.0
 11
23655.782083817321
 21
19360.48526300002
 31
0.0
  0
LINE
  5
13CFB
  8
2-0
  6
CONTINUOUS
 62
     3
 10
23540.77997281733
 20
19330.481700000018
 30
0.0
 11
23540.77997281733
 21
19360.48526300002
 31
0.0
  0
LINE
  5
13CFC
  8
2-0
  6
CONTINUOUS
 62
     3
 10
23546.78187281733
 20
19330.481700000018
 30
0.0
 11
23540.77997281733
 21
19330.481700000018
 31
0.0
  0
LINE
  5
13CFD
  8
2-0
  6
CONTINUOUS
 62
     3
 10
23643.780262817341
 20
18894.888371500001
 30
0.0
 11
23650.781819817319
 21
18894.888371500001
 31
0.0
  0
LINE
  5
13CFE
  8
2-0
  6
CONTINUOUS
 62
     3
 10
23650.781819817319
 20
18894.888371500001
 30
0.0
 11
23650.781819817319
 21
18899.8886355
 31
0.0
  0
LINE
  5
13CFF
  8
2-0
  6
CONTINUOUS
 62
     3
 10
23650.781819817319
 20
18899.8886355
 30
0.0
 11
23625.784459817329
 21
18899.8886355
 31
0.0
  0
LINE
  5
13D00
  8
2-0
  6
CONTINUOUS
 62
     3
 10
23625.784459817329
 20
18899.8886355
 30
0.0
 11
23625.784459817329
 21
18881.892831500008
 31
0.0
  0
LINE
  5
13D01
  8
2-0
  6
CONTINUOUS
 62
     3
 10
23625.784459817329
 20
18881.892831500008
 30
0.0
 11
23655.782083817321
 21
18881.892831500008
 31
0.0
  0
LINE
  5
13D02
  8
2-0
  6
CONTINUOUS
 62
     3
 10
23625.784459817329
 20
18897.984338499969
 30
0.0
 11
23625.784459817329
 21
18891.986397500012
 31
0.0
  0
LINE
  5
13D03
  8
2-0
  6
CONTINUOUS
 62
     3
 10
23625.784459817329
 20
18891.986397500012
 30
0.0
 11
23655.782083817321
 21
18891.986397500012
 31
0.0
  0
LINE
  5
13D04
  8
2-0
  6
CONTINUOUS
 62
     3
 10
23655.782083817321
 20
18891.986397500012
 30
0.0
 11
23655.782083817321
 21
18928.987558500012
 31
0.0
  0
LINE
  5
13D05
  8
2-0
  6
CONTINUOUS
 62
     3
 10
23625.784459817329
 20
18928.987558500012
 30
0.0
 11
23655.782083817321
 21
18928.987558500012
 31
0.0
  0
LINE
  5
13D06
  8
2-0
  6
CONTINUOUS
 62
     3
 10
23625.784459817329
 20
18922.98367849999
 30
0.0
 11
23625.784459817329
 21
18928.987558500012
 31
0.0
  0
LINE
  5
13D07
  8
2-0
  6
CONTINUOUS
 62
     3
 10
23625.784459817329
 20
18939.083103500001
 30
0.0
 11
23655.782083817321
 21
18939.083103500001
 31
0.0
  0
LINE
  5
13D08
  8
2-0
  6
CONTINUOUS
 62
     3
 10
23625.784459817329
 20
18921.081361500001
 30
0.0
 11
23625.784459817329
 21
18939.083103500001
 31
0.0
  0
LINE
  5
13D09
  8
2-0
  6
CONTINUOUS
 62
     3
 10
23650.781819817319
 20
18921.081361500001
 30
0.0
 11
23625.784459817329
 21
18921.081361500001
 31
0.0
  0
LINE
  5
13D0A
  8
2-0
  6
CONTINUOUS
 62
     3
 10
23650.781819817319
 20
18926.08162550001
 30
0.0
 11
23650.781819817319
 21
18921.081361500001
 31
0.0
  0
LINE
  5
13D0B
  8
2-0
  6
CONTINUOUS
 62
     3
 10
23643.780262817341
 20
18926.08162550001
 30
0.0
 11
23650.781819817319
 21
18926.08162550001
 31
0.0
  0
LINE
  5
13D0C
  8
2-0
  6
CONTINUOUS
 62
     3
 10
23643.780262817341
 20
18193.887382000012
 30
0.0
 11
23650.781819817319
 21
18193.887382000012
 31
0.0
  0
LINE
  5
13D0D
  8
2-0
  6
CONTINUOUS
 62
     3
 10
23650.781819817319
 20
18193.887382000012
 30
0.0
 11
23650.781819817319
 21
18198.893584000009
 31
0.0
  0
LINE
  5
13D0E
  8
2-0
  6
CONTINUOUS
 62
     3
 10
23650.781819817319
 20
18198.893584000009
 30
0.0
 11
23625.784459817329
 21
18198.893584000009
 31
0.0
  0
LINE
  5
13D0F
  8
2-0
  6
CONTINUOUS
 62
     3
 10
23625.784459817329
 20
18198.893584000009
 30
0.0
 11
23625.784459817329
 21
18180.891842000008
 31
0.0
  0
LINE
  5
13D10
  8
2-0
  6
CONTINUOUS
 62
     3
 10
23625.784459817329
 20
18180.891842000008
 30
0.0
 11
23655.782083817321
 21
18180.891842000008
 31
0.0
  0
LINE
  5
13D11
  8
2-0
  6
CONTINUOUS
 62
     3
 10
23625.784459817329
 20
18196.983348999998
 30
0.0
 11
23625.784459817329
 21
18190.987387000008
 31
0.0
  0
LINE
  5
13D12
  8
2-0
  6
CONTINUOUS
 62
     3
 10
23625.784459817329
 20
18190.987387000008
 30
0.0
 11
23655.782083817321
 21
18190.987387000008
 31
0.0
  0
LINE
  5
13D13
  8
2-0
  6
CONTINUOUS
 62
     3
 10
23655.782083817321
 20
18190.987387000008
 30
0.0
 11
23655.782083817321
 21
18227.986569000001
 31
0.0
  0
LINE
  5
13D14
  8
2-0
  6
CONTINUOUS
 62
     3
 10
23625.784459817329
 20
18227.986569000001
 30
0.0
 11
23655.782083817321
 21
18227.986569000001
 31
0.0
  0
LINE
  5
13D15
  8
2-0
  6
CONTINUOUS
 62
     3
 10
23625.784459817329
 20
18221.990607000011
 30
0.0
 11
23625.784459817329
 21
18227.986569000001
 31
0.0
  0
LINE
  5
13D16
  8
2-0
  6
CONTINUOUS
 62
     3
 10
23625.784459817329
 20
18238.082114000012
 30
0.0
 11
23655.782083817321
 21
18238.082114000012
 31
0.0
  0
LINE
  5
13D17
  8
2-0
  6
CONTINUOUS
 62
     3
 10
23625.784459817329
 20
18220.080372000011
 30
0.0
 11
23625.784459817329
 21
18238.082114000012
 31
0.0
  0
LINE
  5
13D18
  8
2-0
  6
CONTINUOUS
 62
     3
 10
23650.781819817319
 20
18220.080372000011
 30
0.0
 11
23625.784459817329
 21
18220.080372000011
 31
0.0
  0
LINE
  5
13D19
  8
2-0
  6
CONTINUOUS
 62
     3
 10
23650.781819817319
 20
18225.086574000012
 30
0.0
 11
23650.781819817319
 21
18220.080372000011
 31
0.0
  0
LINE
  5
13D1A
  8
2-0
  6
CONTINUOUS
 62
     3
 10
23643.780262817341
 20
18225.086574000012
 30
0.0
 11
23650.781819817319
 21
18225.086574000012
 31
0.0
  0
LINE
  5
13D1B
  8
2-0
  6
CONTINUOUS
 62
     3
 10
23643.780262817341
 20
17524.08063600001
 30
0.0
 11
23650.781819817319
 21
17524.08063600001
 31
0.0
  0
LINE
  5
13D1C
  8
2-0
  6
CONTINUOUS
 62
     3
 10
23650.781819817319
 20
17524.08063600001
 30
0.0
 11
23650.781819817319
 21
17519.09224900003
 31
0.0
  0
LINE
  5
13D1D
  8
2-0
  6
CONTINUOUS
 62
     3
 10
23650.781819817319
 20
17519.09224900003
 30
0.0
 11
23625.784459817329
 21
17519.09224900003
 31
0.0
  0
LINE
  5
13D1E
  8
2-0
  6
CONTINUOUS
 62
     3
 10
23625.784459817329
 20
17519.09224900003
 30
0.0
 11
23625.784459817329
 21
17537.088052000021
 31
0.0
  0
LINE
  5
13D1F
  8
2-0
  6
CONTINUOUS
 62
     3
 10
23625.784459817329
 20
17537.088052000021
 30
0.0
 11
23655.782083817321
 21
17537.088052000021
 31
0.0
  0
LINE
  5
13D20
  8
2-0
  6
CONTINUOUS
 62
     3
 10
23625.784459817329
 20
17520.990607
 30
0.0
 11
23625.784459817329
 21
17526.986569000001
 31
0.0
  0
LINE
  5
13D21
  8
2-0
  6
CONTINUOUS
 62
     3
 10
23625.784459817329
 20
17526.986569000001
 30
0.0
 11
23655.782083817321
 21
17526.986569000001
 31
0.0
  0
LINE
  5
13D22
  8
2-0
  6
CONTINUOUS
 62
     3
 10
23655.782083817321
 20
17526.986569000001
 30
0.0
 11
23655.782083817321
 21
17489.987387000019
 31
0.0
  0
LINE
  5
13D23
  8
2-0
  6
CONTINUOUS
 62
     3
 10
23625.784459817329
 20
17489.987387000019
 30
0.0
 11
23655.782083817321
 21
17489.987387000019
 31
0.0
  0
LINE
  5
13D24
  8
2-0
  6
CONTINUOUS
 62
     3
 10
23625.784459817329
 20
17495.989288000001
 30
0.0
 11
23625.784459817329
 21
17489.987387000019
 31
0.0
  0
LINE
  5
13D25
  8
2-0
  6
CONTINUOUS
 62
     3
 10
23625.784459817329
 20
17479.897781
 30
0.0
 11
23655.782083817321
 21
17479.897781
 31
0.0
  0
LINE
  5
13D26
  8
2-0
  6
CONTINUOUS
 62
     3
 10
23625.784459817329
 20
17497.893584000009
 30
0.0
 11
23625.784459817329
 21
17479.897781
 31
0.0
  0
LINE
  5
13D27
  8
2-0
  6
CONTINUOUS
 62
     3
 10
23650.781819817319
 20
17497.893584000009
 30
0.0
 11
23625.784459817329
 21
17497.893584000009
 31
0.0
  0
LINE
  5
13D28
  8
2-0
  6
CONTINUOUS
 62
     3
 10
23650.781819817319
 20
17492.893321
 30
0.0
 11
23650.781819817319
 21
17497.893584000009
 31
0.0
  0
LINE
  5
13D29
  8
2-0
  6
CONTINUOUS
 62
     3
 10
23643.780262817341
 20
17492.893321
 30
0.0
 11
23650.781819817319
 21
17492.893321
 31
0.0
  0
LINE
  5
13D2A
  8
2-0
  6
CONTINUOUS
 62
     3
 10
23652.895945817341
 20
16772.984207000009
 30
0.0
 11
23652.895945817341
 21
16792.985262000009
 31
0.0
  0
LINE
  5
13D2B
  8
2-0
  6
CONTINUOUS
 62
     3
 10
23652.895945817341
 20
16792.985262000009
 30
0.0
 11
23567.89937681731
 21
16792.985262000009
 31
0.0
  0
LINE
  5
13D2C
  8
2-0
  6
CONTINUOUS
 62
     3
 10
23643.780262817341
 20
16819.59197200002
 30
0.0
 11
23650.781819817319
 21
16819.59197200002
 31
0.0
  0
LINE
  5
13D2D
  8
2-0
  6
CONTINUOUS
 62
     3
 10
23650.781819817319
 20
16819.59197200002
 30
0.0
 11
23650.781819817319
 21
16814.59764600002
 31
0.0
  0
LINE
  5
13D2E
  8
2-0
  6
CONTINUOUS
 62
     3
 10
23650.781819817319
 20
16814.59764600002
 30
0.0
 11
23625.784459817329
 21
16814.59764600002
 31
0.0
  0
LINE
  5
13D2F
  8
2-0
  6
CONTINUOUS
 62
     3
 10
23625.784459817329
 20
16814.59764600002
 30
0.0
 11
23625.784459817329
 21
16832.593450000011
 31
0.0
  0
LINE
  5
13D30
  8
2-0
  6
CONTINUOUS
 62
     3
 10
23625.784459817329
 20
16832.593450000011
 30
0.0
 11
23655.782083817321
 21
16832.593450000011
 31
0.0
  0
LINE
  5
13D31
  8
2-0
  6
CONTINUOUS
 62
     3
 10
23625.784459817329
 20
16822.98486600001
 30
0.0
 11
23625.784459817329
 21
16816.982966
 31
0.0
  0
LINE
  5
13D32
  8
2-0
  6
CONTINUOUS
 62
     3
 10
23655.782083817321
 20
16822.98486600001
 30
0.0
 11
23625.784459817329
 21
16822.98486600001
 31
0.0
  0
LINE
  5
13D33
  8
2-0
  6
CONTINUOUS
 62
     3
 10
23655.782083817321
 20
16832.593450000011
 30
0.0
 11
23655.782083817321
 21
17479.897781
 31
0.0
  0
LINE
  5
13D34
  8
2-0
  6
CONTINUOUS
 62
     3
 10
23655.782083817321
 20
17537.088052000021
 30
0.0
 11
23655.782083817321
 21
18180.891842000008
 31
0.0
  0
LINE
  5
13D35
  8
2-0
  6
CONTINUOUS
 62
     3
 10
23655.782083817321
 20
16677.983151000019
 30
0.0
 11
23625.784459817329
 21
16677.983151000019
 31
0.0
  0
LINE
  5
13D36
  8
2-0
  6
CONTINUOUS
 62
     3
 10
23625.784459817329
 20
16677.983151000019
 30
0.0
 11
23625.784459817329
 21
16683.985051
 31
0.0
  0
LINE
  5
13D37
  8
2-0
  6
CONTINUOUS
 62
     3
 10
23567.89937681731
 20
16707.988694
 30
0.0
 11
23652.895945817341
 21
16707.988694
 31
0.0
  0
LINE
  5
13D38
  8
2-0
  6
CONTINUOUS
 62
     3
 10
23652.895945817341
 20
16707.988694
 30
0.0
 11
23652.895945817341
 21
16727.98381100002
 31
0.0
  0
LINE
  5
13D39
  8
2-0
  6
CONTINUOUS
 62
     3
 10
23625.784459817329
 20
16668.37456800001
 30
0.0
 11
23655.782083817321
 21
16668.37456800001
 31
0.0
  0
LINE
  5
13D3A
  8
2-0
  6
CONTINUOUS
 62
     3
 10
23625.784459817329
 20
16686.37037099999
 30
0.0
 11
23625.784459817329
 21
16668.37456800001
 31
0.0
  0
LINE
  5
13D3B
  8
2-0
  6
CONTINUOUS
 62
     3
 10
23650.781819817319
 20
16686.37037099999
 30
0.0
 11
23625.784459817329
 21
16686.37037099999
 31
0.0
  0
LINE
  5
13D3C
  8
2-0
  6
CONTINUOUS
 62
     3
 10
23650.781819817319
 20
16681.370107000021
 30
0.0
 11
23650.781819817319
 21
16686.37037099999
 31
0.0
  0
LINE
  5
13D3D
  8
2-0
  6
CONTINUOUS
 62
     3
 10
23643.780262817341
 20
16681.370107000021
 30
0.0
 11
23650.781819817319
 21
16681.370107000021
 31
0.0
  0
LINE
  5
13D3E
  8
2-0
  6
CONTINUOUS
 62
     3
 10
23643.780262817341
 20
15976.88787649999
 30
0.0
 11
23650.781819817319
 21
15976.88787649999
 31
0.0
  0
LINE
  5
13D3F
  8
2-0
  6
CONTINUOUS
 62
     3
 10
23650.781819817319
 20
15976.88787649999
 30
0.0
 11
23650.781819817319
 21
15981.888140499999
 31
0.0
  0
LINE
  5
13D40
  8
2-0
  6
CONTINUOUS
 62
     3
 10
23650.781819817319
 20
15981.888140499999
 30
0.0
 11
23625.784459817329
 21
15981.888140499999
 31
0.0
  0
LINE
  5
13D41
  8
2-0
  6
CONTINUOUS
 62
     3
 10
23625.784459817329
 20
15981.888140499999
 30
0.0
 11
23625.784459817329
 21
15963.886398500021
 31
0.0
  0
LINE
  5
13D42
  8
2-0
  6
CONTINUOUS
 62
     3
 10
23625.784459817329
 20
15963.886398500021
 30
0.0
 11
23655.782083817321
 21
15963.886398500021
 31
0.0
  0
LINE
  5
13D43
  8
2-0
  6
CONTINUOUS
 62
     3
 10
23625.784459817329
 20
15979.983843500009
 30
0.0
 11
23625.784459817329
 21
15973.98689250001
 31
0.0
  0
LINE
  5
13D44
  8
2-0
  6
CONTINUOUS
 62
     3
 10
23625.784459817329
 20
15973.98689250001
 30
0.0
 11
23655.782083817321
 21
15973.98689250001
 31
0.0
  0
LINE
  5
13D45
  8
2-0
  6
CONTINUOUS
 62
     3
 10
23655.782083817321
 20
15973.98689250001
 30
0.0
 11
23655.782083817321
 21
16010.98706350001
 31
0.0
  0
LINE
  5
13D46
  8
2-0
  6
CONTINUOUS
 62
     3
 10
23625.784459817329
 20
16010.98706350001
 30
0.0
 11
23655.782083817321
 21
16010.98706350001
 31
0.0
  0
LINE
  5
13D47
  8
2-0
  6
CONTINUOUS
 62
     3
 10
23625.784459817329
 20
16004.984173500001
 30
0.0
 11
23625.784459817329
 21
16010.98706350001
 31
0.0
  0
LINE
  5
13D48
  8
2-0
  6
CONTINUOUS
 62
     3
 10
23625.784459817329
 20
16021.08260850001
 30
0.0
 11
23655.782083817321
 21
16021.08260850001
 31
0.0
  0
LINE
  5
13D49
  8
2-0
  6
CONTINUOUS
 62
     3
 10
23625.784459817329
 20
16003.074927500011
 30
0.0
 11
23625.784459817329
 21
16021.08260850001
 31
0.0
  0
LINE
  5
13D4A
  8
2-0
  6
CONTINUOUS
 62
     3
 10
23650.781819817319
 20
16003.074927500011
 30
0.0
 11
23625.784459817329
 21
16003.074927500011
 31
0.0
  0
LINE
  5
13D4B
  8
2-0
  6
CONTINUOUS
 62
     3
 10
23650.781819817319
 20
16008.08113050001
 30
0.0
 11
23650.781819817319
 21
16003.074927500011
 31
0.0
  0
LINE
  5
13D4C
  8
2-0
  6
CONTINUOUS
 62
     3
 10
23643.780262817341
 20
16008.08113050001
 30
0.0
 11
23650.781819817319
 21
16008.08113050001
 31
0.0
  0
LINE
  5
13D4D
  8
2-0
  6
CONTINUOUS
 62
     3
 10
23643.780262817341
 20
15307.321147000021
 30
0.0
 11
23650.781819817319
 21
15307.321147000021
 31
0.0
  0
LINE
  5
13D4E
  8
2-0
  6
CONTINUOUS
 62
     3
 10
23650.781819817319
 20
15307.321147000021
 30
0.0
 11
23650.781819817319
 21
15302.326822000019
 31
0.0
  0
LINE
  5
13D4F
  8
2-0
  6
CONTINUOUS
 62
     3
 10
23650.781819817319
 20
15302.326822000019
 30
0.0
 11
23625.784459817329
 21
15302.326822000019
 31
0.0
  0
LINE
  5
13D50
  8
2-0
  6
CONTINUOUS
 62
     3
 10
23625.784459817329
 20
15302.326822000019
 30
0.0
 11
23625.784459817329
 21
15320.322625000021
 31
0.0
  0
LINE
  5
13D51
  8
2-0
  6
CONTINUOUS
 62
     3
 10
23625.784459817329
 20
15320.322625000021
 30
0.0
 11
23655.782083817321
 21
15320.322625000021
 31
0.0
  0
LINE
  5
13D52
  8
2-0
  6
CONTINUOUS
 62
     3
 10
23625.784459817329
 20
15304.22518000001
 30
0.0
 11
23625.784459817329
 21
15310.227080000021
 31
0.0
  0
LINE
  5
13D53
  8
2-0
  6
CONTINUOUS
 62
     3
 10
23625.784459817329
 20
15310.227080000021
 30
0.0
 11
23655.782083817321
 21
15310.227080000021
 31
0.0
  0
LINE
  5
13D54
  8
2-0
  6
CONTINUOUS
 62
     3
 10
23655.782083817321
 20
15273.22789900003
 30
0.0
 11
23655.782083817321
 21
15310.227080000021
 31
0.0
  0
LINE
  5
13D55
  8
2-0
  6
CONTINUOUS
 62
     3
 10
23625.784459817329
 20
15273.22789900003
 30
0.0
 11
23655.782083817321
 21
15273.22789900003
 31
0.0
  0
LINE
  5
13D56
  8
2-0
  6
CONTINUOUS
 62
     3
 10
23625.784459817329
 20
15279.224850000021
 30
0.0
 11
23625.784459817329
 21
15273.22789900003
 31
0.0
  0
LINE
  5
13D57
  8
2-0
  6
CONTINUOUS
 62
     3
 10
23625.784459817329
 20
15263.126415000021
 30
0.0
 11
23655.782083817321
 21
15263.126415000021
 31
0.0
  0
LINE
  5
13D58
  8
2-0
  6
CONTINUOUS
 62
     3
 10
23625.784459817329
 20
15281.134096000011
 30
0.0
 11
23625.784459817329
 21
15263.126415000021
 31
0.0
  0
LINE
  5
13D59
  8
2-0
  6
CONTINUOUS
 62
     3
 10
23650.781819817319
 20
15281.134096000011
 30
0.0
 11
23625.784459817329
 21
15281.134096000011
 31
0.0
  0
LINE
  5
13D5A
  8
2-0
  6
CONTINUOUS
 62
     3
 10
23650.781819817319
 20
15276.13383200003
 30
0.0
 11
23650.781819817319
 21
15281.134096000011
 31
0.0
  0
LINE
  5
13D5B
  8
2-0
  6
CONTINUOUS
 62
     3
 10
23643.780262817341
 20
15276.13383200003
 30
0.0
 11
23650.781819817319
 21
15276.13383200003
 31
0.0
  0
LINE
  5
13D5C
  8
2-0
  6
CONTINUOUS
 62
     3
 10
23655.782083817321
 20
16668.37456800001
 30
0.0
 11
23655.782083817321
 21
16021.08260850001
 31
0.0
  0
LINE
  5
13D5D
  8
2-0
  6
CONTINUOUS
 62
     3
 10
23655.782083817321
 20
16822.98486600001
 30
0.0
 11
23655.782083817321
 21
16677.983151000019
 31
0.0
  0
LINE
  5
13D5E
  8
2-0
  6
CONTINUOUS
 62
     3
 10
23567.89937681731
 20
16792.985262000009
 30
0.0
 11
23567.89937681731
 21
16707.988694
 31
0.0
  0
LINE
  5
13D5F
  8
2-0
  6
CONTINUOUS
 62
     6
 10
22278.876889817351
 20
18561.432527500001
 30
0.0
 11
21253.844557817341
 21
18561.432527500001
 31
0.0
  0
LINE
  5
13D60
  8
2-0
  6
CONTINUOUS
 62
     3
 10
23643.780262817341
 20
14574.89282500001
 30
0.0
 11
23650.781819817319
 21
14574.89282500001
 31
0.0
  0
LINE
  5
13D61
  8
2-0
  6
CONTINUOUS
 62
     3
 10
23650.781819817319
 20
14574.89282500001
 30
0.0
 11
23650.781819817319
 21
14579.887151000021
 31
0.0
  0
LINE
  5
13D62
  8
2-0
  6
CONTINUOUS
 62
     3
 10
23650.781819817319
 20
14579.887151000021
 30
0.0
 11
23625.784459817329
 21
14579.887151000021
 31
0.0
  0
LINE
  5
13D63
  8
2-0
  6
CONTINUOUS
 62
     3
 10
23625.784459817329
 20
14579.887151000021
 30
0.0
 11
23625.784459817329
 21
14561.89134700001
 31
0.0
  0
LINE
  5
13D64
  8
2-0
  6
CONTINUOUS
 62
     3
 10
23625.784459817329
 20
14561.89134700001
 30
0.0
 11
23655.782083817321
 21
14561.89134700001
 31
0.0
  0
LINE
  5
13D65
  8
2-0
  6
CONTINUOUS
 62
     3
 10
23625.784459817329
 20
14577.989782000021
 30
0.0
 11
23625.784459817329
 21
14571.986892000021
 31
0.0
  0
LINE
  5
13D66
  8
2-0
  6
CONTINUOUS
 62
     3
 10
23625.784459817329
 20
14571.986892000021
 30
0.0
 11
23655.782083817321
 21
14571.986892000021
 31
0.0
  0
LINE
  5
13D67
  8
2-0
  6
CONTINUOUS
 62
     3
 10
23655.782083817321
 20
14571.986892000021
 30
0.0
 11
23655.782083817321
 21
14608.987064000001
 31
0.0
  0
LINE
  5
13D68
  8
2-0
  6
CONTINUOUS
 62
     3
 10
23625.784459817329
 20
14608.987064000001
 30
0.0
 11
23655.782083817321
 21
14608.987064000001
 31
0.0
  0
LINE
  5
13D69
  8
2-0
  6
CONTINUOUS
 62
     3
 10
23625.784459817329
 20
14602.99011200001
 30
0.0
 11
23625.784459817329
 21
14608.987064000001
 31
0.0
  0
LINE
  5
13D6A
  8
2-0
  6
CONTINUOUS
 62
     3
 10
23625.784459817329
 20
14619.087557000021
 30
0.0
 11
23655.782083817321
 21
14619.087557000021
 31
0.0
  0
LINE
  5
13D6B
  8
2-0
  6
CONTINUOUS
 62
     3
 10
23625.784459817329
 20
14601.08086600002
 30
0.0
 11
23625.784459817329
 21
14619.087557000021
 31
0.0
  0
LINE
  5
13D6C
  8
2-0
  6
CONTINUOUS
 62
     3
 10
23650.781819817319
 20
14601.08086600002
 30
0.0
 11
23625.784459817329
 21
14601.08086600002
 31
0.0
  0
LINE
  5
13D6D
  8
2-0
  6
CONTINUOUS
 62
     3
 10
23650.781819817319
 20
14606.086079000021
 30
0.0
 11
23650.781819817319
 21
14601.08086600002
 31
0.0
  0
LINE
  5
13D6E
  8
2-0
  6
CONTINUOUS
 62
     3
 10
23643.780262817341
 20
14606.086079000021
 30
0.0
 11
23650.781819817319
 21
14606.086079000021
 31
0.0
  0
LINE
  5
13D6F
  8
2-0
  6
CONTINUOUS
 62
     3
 10
23625.784459817329
 20
13898.988905000009
 30
0.0
 11
23625.784459817329
 21
13904.99377400001
 31
0.0
  0
LINE
  5
13D70
  8
2-0
  6
CONTINUOUS
 62
     3
 10
23625.784459817329
 20
13904.99377400001
 30
0.0
 11
23655.782083817321
 21
13904.99377400001
 31
0.0
  0
LINE
  5
13D71
  8
2-0
  6
CONTINUOUS
 62
     3
 10
23655.782083817321
 20
13904.99377400001
 30
0.0
 11
23655.782083817321
 21
13789.989683000011
 31
0.0
  0
LINE
  5
13D72
  8
2-0
  6
CONTINUOUS
 62
     3
 10
23655.782083817321
 20
13789.989683000011
 30
0.0
 11
23570.783535817329
 21
13789.989683000011
 31
0.0
  0
LINE
  5
13D73
  8
2-0
  6
CONTINUOUS
 62
     3
 10
23570.783535817329
 20
13789.989683000011
 30
0.0
 11
23570.783535817329
 21
13874.985262000009
 31
0.0
  0
LINE
  5
13D74
  8
2-0
  6
CONTINUOUS
 62
     3
 10
23570.783535817329
 20
13874.985262000009
 30
0.0
 11
23602.78245381733
 21
13874.985262000009
 31
0.0
  0
LINE
  5
13D75
  8
2-0
  6
CONTINUOUS
 62
     3
 10
23643.780262817341
 20
13902.023507000011
 30
0.0
 11
23650.781819817319
 21
13902.023507000011
 31
0.0
  0
LINE
  5
13D76
  8
2-0
  6
CONTINUOUS
 62
     3
 10
23650.781819817319
 20
13902.023507000011
 30
0.0
 11
23650.781819817319
 21
13897.02621199999
 31
0.0
  0
LINE
  5
13D77
  8
2-0
  6
CONTINUOUS
 62
     3
 10
23650.781819817319
 20
13897.02621199999
 30
0.0
 11
23625.784459817329
 21
13897.02621199999
 31
0.0
  0
LINE
  5
13D78
  8
2-0
  6
CONTINUOUS
 62
     3
 10
23625.784459817329
 20
13897.02621199999
 30
0.0
 11
23625.784459817329
 21
13915.024985000009
 31
0.0
  0
LINE
  5
13D79
  8
2-0
  6
CONTINUOUS
 62
     3
 10
23625.784459817329
 20
13915.024985000009
 30
0.0
 11
23655.782083817321
 21
13915.024985000009
 31
0.0
  0
LINE
  5
13D7A
  8
2-0
  6
CENTER2
 62
     6
 10
23613.283799817342
 20
13592.492125000001
 30
0.0
 11
23613.283799817342
 21
14748.36088300003
 31
0.0
  0
LINE
  5
13D7B
  8
2-0
  6
CONTINUOUS
 62
     3
 10
23655.782083817321
 20
18238.082114000012
 30
0.0
 11
23655.782083817321
 21
18881.892831500008
 31
0.0
  0
LINE
  5
13D7C
  8
2-0
  6
CONTINUOUS
 62
     6
 10
19960.280632817361
 20
20090.488166000039
 30
0.0
 11
18760.286570817381
 21
20090.488166000039
 31
0.0
  0
LINE
  5
13D7D
  8
2-0
  6
CONTINUOUS
 62
     6
 10
20822.313465817369
 20
18803.587035500012
 30
0.0
 11
21253.844557817341
 21
18561.432527500001
 31
0.0
  0
LINE
  5
13D7E
  8
2-0
  6
CONTINUOUS
 62
     6
 10
20500.744631817379
 20
19503.165003000009
 30
0.0
 11
19960.280632817361
 21
20090.488166000039
 31
0.0
  0
LINE
  5
13D7F
  8
2-0
  6
CONTINUOUS
 62
     3
 10
23655.782083817321
 20
15963.886398500021
 30
0.0
 11
23655.782083817321
 21
15320.322625000021
 31
0.0
  0
LINE
  5
13D80
  8
2-0
  6
CONTINUOUS
 62
     6
 10
20835.370370817349
 20
18826.84637950001
 30
0.0
 11
20682.783139817351
 21
18881.892831500008
 31
0.0
  0
LINE
  5
13D81
  8
2-0
  6
CONTINUOUS
 62
     6
 10
20682.783139817351
 20
18881.892831500008
 30
0.0
 11
20809.26447981735
 21
18780.333631499991
 31
0.0
  0
LINE
  5
13D82
  8
2-0
  6
CONTINUOUS
 62
     6
 10
20835.370370817349
 20
18826.84637950001
 30
0.0
 11
20809.26447981735
 21
18780.333631499991
 31
0.0
  0
LINE
  5
13D83
  8
2-0
  6
CONTINUOUS
 62
     6
 10
20809.26447981735
 20
18780.333631499991
 30
0.0
 11
20682.783139817351
 21
18881.892831500008
 31
0.0
  0
LINE
  5
13D84
  8
2-0
  6
CONTINUOUS
 62
     6
 10
20682.783139817351
 20
18881.892831500008
 30
0.0
 11
20835.370370817349
 21
18826.84637950001
 31
0.0
  0
LINE
  5
13D85
  8
2-0
  6
CONTINUOUS
 62
     6
 10
20835.370370817349
 20
18826.84637950001
 30
0.0
 11
20682.783139817351
 21
18881.892831500008
 31
0.0
  0
LINE
  5
13D86
  8
2-0
  6
CONTINUOUS
 62
     6
 10
20809.26447981735
 20
18780.333631499991
 30
0.0
 11
20682.783139817351
 21
18881.892831500008
 31
0.0
  0
LINE
  5
13D87
  8
2-0
  6
CONTINUOUS
 62
     6
 10
20809.26447981735
 20
18780.333631499991
 30
0.0
 11
20835.370370817349
 21
18826.84637950001
 31
0.0
  0
LINE
  5
13D88
  8
2-0
  6
CONTINUOUS
 62
     6
 10
20481.127602817349
 20
19485.10387600003
 30
0.0
 11
20609.089622817341
 21
19385.421258000009
 31
0.0
  0
LINE
  5
13D89
  8
2-0
  6
CONTINUOUS
 62
     6
 10
20609.089622817341
 20
19385.421258000009
 30
0.0
 11
20520.375517817371
 21
19521.218213000029
 31
0.0
  0
LINE
  5
13D8A
  8
2-0
  6
CONTINUOUS
 62
     6
 10
20481.127602817349
 20
19485.10387600003
 30
0.0
 11
20520.375517817371
 21
19521.218213000029
 31
0.0
  0
LINE
  5
13D8B
  8
2-0
  6
CONTINUOUS
 62
     6
 10
20520.375517817371
 20
19521.218213000029
 30
0.0
 11
20609.089622817341
 21
19385.421258000009
 31
0.0
  0
LINE
  5
13D8C
  8
2-0
  6
CONTINUOUS
 62
     6
 10
20609.089622817341
 20
19385.421258000009
 30
0.0
 11
20481.127602817349
 21
19485.10387600003
 31
0.0
  0
LINE
  5
13D8D
  8
2-0
  6
CONTINUOUS
 62
     6
 10
20481.127602817349
 20
19485.10387600003
 30
0.0
 11
20609.089622817341
 21
19385.421258000009
 31
0.0
  0
LINE
  5
13D8E
  8
2-0
  6
CONTINUOUS
 62
     6
 10
20520.375517817371
 20
19521.218213000029
 30
0.0
 11
20609.089622817341
 21
19385.421258000009
 31
0.0
  0
LINE
  5
13D8F
  8
2-0
  6
CONTINUOUS
 62
     6
 10
20520.375517817371
 20
19521.218213000029
 30
0.0
 11
20481.127602817349
 21
19485.10387600003
 31
0.0
  0
LINE
  5
13D90
  8
2-0
  6
CONTINUOUS
 62
     4
 10
20695.283799817342
 20
19440.487506000019
 30
0.0
 11
20695.283799817342
 21
20170.484471000011
 31
0.0
  0
LINE
  5
13D91
  8
2-0
  6
CONTINUOUS
 62
     6
 10
20929.423236817351
 20
13681.716945
 30
0.0
 11
20797.676377817341
 21
13776.34387200001
 31
0.0
  0
LINE
  5
13D92
  8
2-0
  6
CONTINUOUS
 62
     6
 10
20797.676377817341
 20
13776.34387200001
 30
0.0
 11
20891.606513817351
 21
13644.10510199999
 31
0.0
  0
LINE
  5
13D93
  8
2-0
  6
CONTINUOUS
 62
     6
 10
20929.423236817351
 20
13681.716945
 30
0.0
 11
20891.606513817351
 21
13644.10510199999
 31
0.0
  0
LINE
  5
13D94
  8
2-0
  6
CONTINUOUS
 62
     6
 10
20891.606513817351
 20
13644.10510199999
 30
0.0
 11
20797.676377817341
 21
13776.34387200001
 31
0.0
  0
LINE
  5
13D95
  8
2-0
  6
CONTINUOUS
 62
     6
 10
20797.676377817341
 20
13776.34387200001
 30
0.0
 11
20929.423236817351
 21
13681.716945
 31
0.0
  0
LINE
  5
13D96
  8
2-0
  6
CONTINUOUS
 62
     6
 10
20929.423236817351
 20
13681.716945
 30
0.0
 11
20797.676377817341
 21
13776.34387200001
 31
0.0
  0
LINE
  5
13D97
  8
2-0
  6
CONTINUOUS
 62
     6
 10
20891.606513817351
 20
13644.10510199999
 30
0.0
 11
20797.676377817341
 21
13776.34387200001
 31
0.0
  0
LINE
  5
13D98
  8
2-0
  6
CONTINUOUS
 62
     6
 10
20891.606513817351
 20
13644.10510199999
 30
0.0
 11
20929.423236817351
 21
13681.716945
 31
0.0
  0
LINE
  5
13D99
  8
2-0
  6
CONTINUOUS
 62
     6
 10
20866.387447817349
 20
14008.621571999989
 30
0.0
 11
20733.787415817351
 21
13915.193243999989
 31
0.0
  0
LINE
  5
13D9A
  8
2-0
  6
CONTINUOUS
 62
     6
 10
20733.787415817351
 20
13915.193243999989
 30
0.0
 11
20889.520101817339
 21
13960.56875800001
 31
0.0
  0
LINE
  5
13D9B
  8
2-0
  6
CONTINUOUS
 62
     6
 10
20866.387447817349
 20
14008.621571999989
 30
0.0
 11
20889.520101817339
 21
13960.56875800001
 31
0.0
  0
LINE
  5
13D9C
  8
2-0
  6
CONTINUOUS
 62
     6
 10
20889.520101817339
 20
13960.56875800001
 30
0.0
 11
20733.787415817351
 21
13915.193243999989
 31
0.0
  0
LINE
  5
13D9D
  8
2-0
  6
CONTINUOUS
 62
     6
 10
20733.787415817351
 20
13915.193243999989
 30
0.0
 11
20866.387447817349
 21
14008.621571999989
 31
0.0
  0
LINE
  5
13D9E
  8
2-0
  6
CONTINUOUS
 62
     6
 10
20866.387447817349
 20
14008.621571999989
 30
0.0
 11
20733.787415817351
 21
13915.193243999989
 31
0.0
  0
LINE
  5
13D9F
  8
2-0
  6
CONTINUOUS
 62
     6
 10
20889.520101817339
 20
13960.56875800001
 30
0.0
 11
20733.787415817351
 21
13915.193243999989
 31
0.0
  0
LINE
  5
13DA0
  8
2-0
  6
CONTINUOUS
 62
     6
 10
20889.520101817339
 20
13960.56875800001
 30
0.0
 11
20866.387447817349
 21
14008.621571999989
 31
0.0
  0
LINE
  5
13DA1
  8
2-0
  6
CONTINUOUS
 62
     6
 10
20806.62380181735
 20
16388.442505000021
 30
0.0
 11
20652.785515817359
 21
16439.876336000019
 31
0.0
  0
LINE
  5
13DA2
  8
2-0
  6
CONTINUOUS
 62
     6
 10
20652.785515817359
 20
16439.876336000019
 30
0.0
 11
20781.620502817379
 21
16341.33590100002
 31
0.0
  0
LINE
  5
13DA3
  8
2-0
  6
CONTINUOUS
 62
     6
 10
20806.62380181735
 20
16388.442505000021
 30
0.0
 11
20781.620502817379
 21
16341.33590100002
 31
0.0
  0
LINE
  5
13DA4
  8
2-0
  6
CONTINUOUS
 62
     6
 10
20781.620502817379
 20
16341.33590100002
 30
0.0
 11
20652.785515817359
 21
16439.876336000019
 31
0.0
  0
LINE
  5
13DA5
  8
2-0
  6
CONTINUOUS
 62
     6
 10
20652.785515817359
 20
16439.876336000019
 30
0.0
 11
20806.62380181735
 21
16388.442505000021
 31
0.0
  0
LINE
  5
13DA6
  8
2-0
  6
CONTINUOUS
 62
     6
 10
20806.62380181735
 20
16388.442505000021
 30
0.0
 11
20652.785515817359
 21
16439.876336000019
 31
0.0
  0
LINE
  5
13DA7
  8
2-0
  6
CONTINUOUS
 62
     6
 10
20781.620502817379
 20
16341.33590100002
 30
0.0
 11
20652.785515817359
 21
16439.876336000019
 31
0.0
  0
LINE
  5
13DA8
  8
2-0
  6
CONTINUOUS
 62
     6
 10
20781.620502817379
 20
16341.33590100002
 30
0.0
 11
20806.62380181735
 21
16388.442505000021
 31
0.0
  0
LINE
  5
13DA9
  8
2-0
  6
CONTINUOUS
 62
     6
 10
20940.56000881736
 20
16879.760997000019
 30
0.0
 11
20797.676377817341
 21
16802.985368000031
 31
0.0
  0
LINE
  5
13DAA
  8
2-0
  6
CONTINUOUS
 62
     6
 10
20797.676377817341
 20
16802.985368000031
 30
0.0
 11
20957.738270817361
 21
16829.267437000031
 31
0.0
  0
LINE
  5
13DAB
  8
2-0
  6
CONTINUOUS
 62
     6
 10
20940.56000881736
 20
16879.760997000019
 30
0.0
 11
20957.738270817361
 21
16829.267437000031
 31
0.0
  0
LINE
  5
13DAC
  8
2-0
  6
CONTINUOUS
 62
     6
 10
20957.738270817361
 20
16829.267437000031
 30
0.0
 11
20797.676377817341
 21
16802.985368000031
 31
0.0
  0
LINE
  5
13DAD
  8
2-0
  6
CONTINUOUS
 62
     6
 10
20797.676377817341
 20
16802.985368000031
 30
0.0
 11
20940.56000881736
 21
16879.760997000019
 31
0.0
  0
LINE
  5
13DAE
  8
2-0
  6
CONTINUOUS
 62
     6
 10
20940.56000881736
 20
16879.760997000019
 30
0.0
 11
20797.676377817341
 21
16802.985368000031
 31
0.0
  0
LINE
  5
13DAF
  8
2-0
  6
CONTINUOUS
 62
     6
 10
20957.738270817361
 20
16829.267437000031
 30
0.0
 11
20797.676377817341
 21
16802.985368000031
 31
0.0
  0
LINE
  5
13DB0
  8
2-0
  6
CONTINUOUS
 62
     6
 10
20957.738270817361
 20
16829.267437000031
 30
0.0
 11
20940.56000881736
 21
16879.760997000019
 31
0.0
  0
LINE
  5
13DB1
  8
2-0
  6
CONTINUOUS
 62
     3
 10
20682.78511981733
 20
19251.485052000018
 30
0.0
 11
20682.78511981733
 21
19245.489090000021
 31
0.0
  0
LINE
  5
13DB2
  8
2-0
  6
CONTINUOUS
 62
     3
 10
20682.78511981733
 20
19245.489090000021
 30
0.0
 11
20652.78749481733
 21
19245.489090000021
 31
0.0
  0
LINE
  5
13DB3
  8
2-0
  6
CONTINUOUS
 62
     3
 10
20652.78749481733
 20
19245.489090000021
 30
0.0
 11
20652.78749481733
 21
19360.48526300002
 31
0.0
  0
LINE
  5
13DB4
  8
2-0
  6
CONTINUOUS
 62
     3
 10
20652.78749481733
 20
19275.488694
 30
0.0
 11
20733.785435817339
 21
19275.488694
 31
0.0
  0
LINE
  5
13DB5
  8
2-0
  6
CONTINUOUS
 62
     3
 10
20682.78511981733
 20
19235.19163400001
 30
0.0
 11
20652.78749481733
 21
19235.19163400001
 31
0.0
  0
LINE
  5
13DB6
  8
2-0
  6
CONTINUOUS
 62
     3
 10
20682.78511981733
 20
19253.193376000028
 30
0.0
 11
20682.78511981733
 21
19235.19163400001
 31
0.0
  0
LINE
  5
13DB7
  8
2-0
  6
CONTINUOUS
 62
     3
 10
20657.79171781733
 20
19253.193376000028
 30
0.0
 11
20682.78511981733
 21
19253.193376000028
 31
0.0
  0
LINE
  5
13DB8
  8
2-0
  6
CONTINUOUS
 62
     3
 10
20657.79171781733
 20
19248.18519400002
 30
0.0
 11
20657.79171781733
 21
19253.193376000028
 31
0.0
  0
LINE
  5
13DB9
  8
2-0
  6
CONTINUOUS
 62
     3
 10
20664.78931581731
 20
19248.18519400002
 30
0.0
 11
20657.79171781733
 21
19248.18519400002
 31
0.0
  0
LINE
  5
13DBA
  8
2-0
  6
CONTINUOUS
 62
     3
 10
20765.08360481733
 20
19348.485421000009
 30
0.0
 11
20765.08360481733
 21
19355.49093700002
 31
0.0
  0
LINE
  5
13DBB
  8
2-0
  6
CONTINUOUS
 62
     3
 10
20765.08360481733
 20
19355.49093700002
 30
0.0
 11
20760.08136081733
 21
19355.49093700002
 31
0.0
  0
LINE
  5
13DBC
  8
2-0
  6
CONTINUOUS
 62
     3
 10
20760.08136081733
 20
19355.49093700002
 30
0.0
 11
20760.08136081733
 21
19330.481700000018
 31
0.0
  0
LINE
  5
13DBD
  8
2-0
  6
CONTINUOUS
 62
     3
 10
20760.08136081733
 20
19330.481700000018
 30
0.0
 11
20778.089041817319
 21
19330.481700000018
 31
0.0
  0
LINE
  5
13DBE
  8
2-0
  6
CONTINUOUS
 62
     3
 10
20778.089041817319
 20
19330.481700000018
 30
0.0
 11
20778.089041817319
 21
19360.48526300002
 31
0.0
  0
LINE
  5
13DBF
  8
2-0
  6
CONTINUOUS
 62
     3
 10
20767.789605817339
 20
19360.48526300002
 30
0.0
 11
20652.78749481733
 21
19360.48526300002
 31
0.0
  0
LINE
  5
13DC0
  8
2-0
  6
CONTINUOUS
 62
     3
 10
20767.789605817339
 20
19330.481700000018
 30
0.0
 11
20767.789605817339
 21
19360.48526300002
 31
0.0
  0
LINE
  5
13DC1
  8
2-0
  6
CONTINUOUS
 62
     3
 10
20761.785726817328
 20
19330.481700000018
 30
0.0
 11
20767.789605817339
 21
19330.481700000018
 31
0.0
  0
LINE
  5
13DC2
  8
2-0
  6
CONTINUOUS
 62
     3
 10
20682.78511981733
 20
19251.485052000018
 30
0.0
 11
20682.78511981733
 21
19245.489090000021
 31
0.0
  0
LINE
  5
13DC3
  8
2-0
  6
CONTINUOUS
 62
     3
 10
20682.78511981733
 20
19245.489090000021
 30
0.0
 11
20652.78749481733
 21
19245.489090000021
 31
0.0
  0
LINE
  5
13DC4
  8
2-0
  6
CONTINUOUS
 62
     3
 10
20652.78749481733
 20
19245.489090000021
 30
0.0
 11
20652.78749481733
 21
19360.48526300002
 31
0.0
  0
LINE
  5
13DC5
  8
2-0
  6
CONTINUOUS
 62
     3
 10
20652.78749481733
 20
19275.488694
 30
0.0
 11
20733.785435817339
 21
19275.488694
 31
0.0
  0
LINE
  5
13DC6
  8
2-0
  6
CONTINUOUS
 62
     3
 10
20682.78511981733
 20
19235.19163400001
 30
0.0
 11
20652.78749481733
 21
19235.19163400001
 31
0.0
  0
LINE
  5
13DC7
  8
2-0
  6
CONTINUOUS
 62
     3
 10
20682.78511981733
 20
19253.193376000028
 30
0.0
 11
20682.78511981733
 21
19235.19163400001
 31
0.0
  0
LINE
  5
13DC8
  8
2-0
  6
CONTINUOUS
 62
     3
 10
20657.79171781733
 20
19253.193376000028
 30
0.0
 11
20682.78511981733
 21
19253.193376000028
 31
0.0
  0
LINE
  5
13DC9
  8
2-0
  6
CONTINUOUS
 62
     3
 10
20657.79171781733
 20
19248.18519400002
 30
0.0
 11
20657.79171781733
 21
19253.193376000028
 31
0.0
  0
LINE
  5
13DCA
  8
2-0
  6
CONTINUOUS
 62
     3
 10
20664.78931581731
 20
19248.18519400002
 30
0.0
 11
20657.79171781733
 21
19248.18519400002
 31
0.0
  0
LINE
  5
13DCB
  8
2-0
  6
CONTINUOUS
 62
     3
 10
20664.78931581731
 20
18894.888371500001
 30
0.0
 11
20657.79171781733
 21
18894.888371500001
 31
0.0
  0
LINE
  5
13DCC
  8
2-0
  6
CONTINUOUS
 62
     3
 10
20657.79171781733
 20
18894.888371500001
 30
0.0
 11
20657.79171781733
 21
18899.8886355
 31
0.0
  0
LINE
  5
13DCD
  8
2-0
  6
CONTINUOUS
 62
     3
 10
20657.79171781733
 20
18899.8886355
 30
0.0
 11
20682.78511981733
 21
18899.8886355
 31
0.0
  0
LINE
  5
13DCE
  8
2-0
  6
CONTINUOUS
 62
     3
 10
20682.78511981733
 20
18899.8886355
 30
0.0
 11
20682.78511981733
 21
18881.892831500001
 31
0.0
  0
LINE
  5
13DCF
  8
2-0
  6
CONTINUOUS
 62
     3
 10
20682.78511981733
 20
18881.892831500001
 30
0.0
 11
20652.78749481733
 21
18881.892831500001
 31
0.0
  0
LINE
  5
13DD0
  8
2-0
  6
CONTINUOUS
 62
     3
 10
20682.78511981733
 20
18897.984338499969
 30
0.0
 11
20682.78511981733
 21
18891.986397500001
 31
0.0
  0
LINE
  5
13DD1
  8
2-0
  6
CONTINUOUS
 62
     3
 10
20682.78511981733
 20
18891.986397500001
 30
0.0
 11
20652.78749481733
 21
18891.986397500001
 31
0.0
  0
LINE
  5
13DD2
  8
2-0
  6
CONTINUOUS
 62
     3
 10
20652.78749481733
 20
18891.986397500001
 30
0.0
 11
20652.78749481733
 21
18928.987558500012
 31
0.0
  0
LINE
  5
13DD3
  8
2-0
  6
CONTINUOUS
 62
     3
 10
20682.78511981733
 20
18928.987558500012
 30
0.0
 11
20652.78749481733
 21
18928.987558500012
 31
0.0
  0
LINE
  5
13DD4
  8
2-0
  6
CONTINUOUS
 62
     3
 10
20682.78511981733
 20
18922.98367849999
 30
0.0
 11
20682.78511981733
 21
18928.987558500012
 31
0.0
  0
LINE
  5
13DD5
  8
2-0
  6
CONTINUOUS
 62
     3
 10
20682.78511981733
 20
18939.08310349999
 30
0.0
 11
20652.78749481733
 21
18939.08310349999
 31
0.0
  0
LINE
  5
13DD6
  8
2-0
  6
CONTINUOUS
 62
     3
 10
20682.78511981733
 20
18921.081361500001
 30
0.0
 11
20682.78511981733
 21
18939.08310349999
 31
0.0
  0
LINE
  5
13DD7
  8
2-0
  6
CONTINUOUS
 62
     3
 10
20657.79171781733
 20
18921.081361500001
 30
0.0
 11
20682.78511981733
 21
18921.081361500001
 31
0.0
  0
LINE
  5
13DD8
  8
2-0
  6
CONTINUOUS
 62
     3
 10
20657.79171781733
 20
18926.081625499999
 30
0.0
 11
20657.79171781733
 21
18921.081361500001
 31
0.0
  0
LINE
  5
13DD9
  8
2-0
  6
CONTINUOUS
 62
     3
 10
20664.78931581731
 20
18926.081625499999
 30
0.0
 11
20657.79171781733
 21
18926.081625499999
 31
0.0
  0
LINE
  5
13DDA
  8
2-0
  6
CONTINUOUS
 62
     3
 10
20664.78931581731
 20
18193.887382000012
 30
0.0
 11
20657.79171781733
 21
18193.887382000012
 31
0.0
  0
LINE
  5
13DDB
  8
2-0
  6
CONTINUOUS
 62
     3
 10
20657.79171781733
 20
18193.887382000012
 30
0.0
 11
20657.79171781733
 21
18198.893584000001
 31
0.0
  0
LINE
  5
13DDC
  8
2-0
  6
CONTINUOUS
 62
     3
 10
20657.79171781733
 20
18198.893584000001
 30
0.0
 11
20682.78511981733
 21
18198.893584000001
 31
0.0
  0
LINE
  5
13DDD
  8
2-0
  6
CONTINUOUS
 62
     3
 10
20682.78511981733
 20
18198.893584000001
 30
0.0
 11
20682.78511981733
 21
18180.891842000008
 31
0.0
  0
LINE
  5
13DDE
  8
2-0
  6
CONTINUOUS
 62
     3
 10
20682.78511981733
 20
18180.891842000008
 30
0.0
 11
20652.78749481733
 21
18180.891842000008
 31
0.0
  0
LINE
  5
13DDF
  8
2-0
  6
CONTINUOUS
 62
     3
 10
20682.78511981733
 20
18196.983348999998
 30
0.0
 11
20682.78511981733
 21
18190.987387000001
 31
0.0
  0
LINE
  5
13DE0
  8
2-0
  6
CONTINUOUS
 62
     3
 10
20682.78511981733
 20
18190.987387000001
 30
0.0
 11
20652.78749481733
 21
18190.987387000001
 31
0.0
  0
LINE
  5
13DE1
  8
2-0
  6
CONTINUOUS
 62
     3
 10
20652.78749481733
 20
18190.987387000001
 30
0.0
 11
20652.78749481733
 21
18227.986569000001
 31
0.0
  0
LINE
  5
13DE2
  8
2-0
  6
CONTINUOUS
 62
     3
 10
20682.78511981733
 20
18227.986569000001
 30
0.0
 11
20652.78749481733
 21
18227.986569000001
 31
0.0
  0
LINE
  5
13DE3
  8
2-0
  6
CONTINUOUS
 62
     3
 10
20682.78511981733
 20
18221.990607
 30
0.0
 11
20682.78511981733
 21
18227.986569000001
 31
0.0
  0
LINE
  5
13DE4
  8
2-0
  6
CONTINUOUS
 62
     3
 10
20682.78511981733
 20
18238.082114000012
 30
0.0
 11
20652.78749481733
 21
18238.082114000012
 31
0.0
  0
LINE
  5
13DE5
  8
2-0
  6
CONTINUOUS
 62
     3
 10
20682.78511981733
 20
18220.080371999989
 30
0.0
 11
20682.78511981733
 21
18238.082114000012
 31
0.0
  0
LINE
  5
13DE6
  8
2-0
  6
CONTINUOUS
 62
     3
 10
20657.79171781733
 20
18220.080371999989
 30
0.0
 11
20682.78511981733
 21
18220.080371999989
 31
0.0
  0
LINE
  5
13DE7
  8
2-0
  6
CONTINUOUS
 62
     3
 10
20657.79171781733
 20
18225.086574000001
 30
0.0
 11
20657.79171781733
 21
18220.080371999989
 31
0.0
  0
LINE
  5
13DE8
  8
2-0
  6
CONTINUOUS
 62
     3
 10
20664.78931581731
 20
18225.086574000001
 30
0.0
 11
20657.79171781733
 21
18225.086574000001
 31
0.0
  0
LINE
  5
13DE9
  8
2-0
  6
CONTINUOUS
 62
     3
 10
20664.78931581731
 20
17524.080635999999
 30
0.0
 11
20657.79171781733
 21
17524.080635999999
 31
0.0
  0
LINE
  5
13DEA
  8
2-0
  6
CONTINUOUS
 62
     3
 10
20657.79171781733
 20
17524.080635999999
 30
0.0
 11
20657.79171781733
 21
17519.092249000008
 31
0.0
  0
LINE
  5
13DEB
  8
2-0
  6
CONTINUOUS
 62
     3
 10
20657.79171781733
 20
17519.092249000008
 30
0.0
 11
20682.78511981733
 21
17519.092249000008
 31
0.0
  0
LINE
  5
13DEC
  8
2-0
  6
CONTINUOUS
 62
     3
 10
20682.78511981733
 20
17519.092249000008
 30
0.0
 11
20682.78511981733
 21
17537.088052000021
 31
0.0
  0
LINE
  5
13DED
  8
2-0
  6
CONTINUOUS
 62
     3
 10
20682.78511981733
 20
17537.088052000021
 30
0.0
 11
20652.78749481733
 21
17537.088052000021
 31
0.0
  0
LINE
  5
13DEE
  8
2-0
  6
CONTINUOUS
 62
     3
 10
20682.78511981733
 20
17520.990607
 30
0.0
 11
20682.78511981733
 21
17526.98656899999
 31
0.0
  0
LINE
  5
13DEF
  8
2-0
  6
CONTINUOUS
 62
     3
 10
20682.78511981733
 20
17526.98656899999
 30
0.0
 11
20652.78749481733
 21
17526.98656899999
 31
0.0
  0
LINE
  5
13DF0
  8
2-0
  6
CONTINUOUS
 62
     3
 10
20652.78749481733
 20
17526.98656899999
 30
0.0
 11
20652.78749481733
 21
17489.987387000008
 31
0.0
  0
LINE
  5
13DF1
  8
2-0
  6
CONTINUOUS
 62
     3
 10
20682.78511981733
 20
17489.987387000008
 30
0.0
 11
20652.78749481733
 21
17489.987387000008
 31
0.0
  0
LINE
  5
13DF2
  8
2-0
  6
CONTINUOUS
 62
     3
 10
20682.78511981733
 20
17495.989288000001
 30
0.0
 11
20682.78511981733
 21
17489.987387000008
 31
0.0
  0
LINE
  5
13DF3
  8
2-0
  6
CONTINUOUS
 62
     3
 10
20682.78511981733
 20
17479.897781
 30
0.0
 11
20652.78749481733
 21
17479.897781
 31
0.0
  0
LINE
  5
13DF4
  8
2-0
  6
CONTINUOUS
 62
     3
 10
20682.78511981733
 20
17497.893584000001
 30
0.0
 11
20682.78511981733
 21
17479.897781
 31
0.0
  0
LINE
  5
13DF5
  8
2-0
  6
CONTINUOUS
 62
     3
 10
20657.79171781733
 20
17497.893584000001
 30
0.0
 11
20682.78511981733
 21
17497.893584000001
 31
0.0
  0
LINE
  5
13DF6
  8
2-0
  6
CONTINUOUS
 62
     3
 10
20657.79171781733
 20
17492.893321
 30
0.0
 11
20657.79171781733
 21
17497.893584000001
 31
0.0
  0
LINE
  5
13DF7
  8
2-0
  6
CONTINUOUS
 62
     3
 10
20664.78931581731
 20
17492.893321
 30
0.0
 11
20657.79171781733
 21
17492.893321
 31
0.0
  0
LINE
  5
13DF8
  8
2-0
  6
CONTINUOUS
 62
     3
 10
20655.673632817328
 20
16772.984207000009
 30
0.0
 11
20655.673632817328
 21
16792.985262000009
 31
0.0
  0
LINE
  5
13DF9
  8
2-0
  6
CONTINUOUS
 62
     3
 10
20655.673632817328
 20
16792.985262000009
 30
0.0
 11
20740.67416081734
 21
16792.985262000009
 31
0.0
  0
LINE
  5
13DFA
  8
2-0
  6
CONTINUOUS
 62
     3
 10
20664.78931581731
 20
16819.59197200002
 30
0.0
 11
20657.79171781733
 21
16819.59197200002
 31
0.0
  0
LINE
  5
13DFB
  8
2-0
  6
CONTINUOUS
 62
     3
 10
20657.79171781733
 20
16819.59197200002
 30
0.0
 11
20657.79171781733
 21
16814.59764600002
 31
0.0
  0
LINE
  5
13DFC
  8
2-0
  6
CONTINUOUS
 62
     3
 10
20657.79171781733
 20
16814.59764600002
 30
0.0
 11
20682.78511981733
 21
16814.59764600002
 31
0.0
  0
LINE
  5
13DFD
  8
2-0
  6
CONTINUOUS
 62
     3
 10
20682.78511981733
 20
16814.59764600002
 30
0.0
 11
20682.78511981733
 21
16832.593450000011
 31
0.0
  0
LINE
  5
13DFE
  8
2-0
  6
CONTINUOUS
 62
     3
 10
20682.78511981733
 20
16832.593450000011
 30
0.0
 11
20652.78749481733
 21
16832.593450000011
 31
0.0
  0
LINE
  5
13DFF
  8
2-0
  6
CONTINUOUS
 62
     3
 10
20682.78511981733
 20
16822.98486600001
 30
0.0
 11
20682.78511981733
 21
16816.982966
 31
0.0
  0
LINE
  5
13E00
  8
2-0
  6
CONTINUOUS
 62
     3
 10
20652.78749481733
 20
16822.98486600001
 30
0.0
 11
20682.78511981733
 21
16822.98486600001
 31
0.0
  0
LINE
  5
13E01
  8
2-0
  6
CONTINUOUS
 62
     3
 10
20652.78749481733
 20
16832.593450000011
 30
0.0
 11
20652.78749481733
 21
17479.897781
 31
0.0
  0
LINE
  5
13E02
  8
2-0
  6
CONTINUOUS
 62
     3
 10
20652.78749481733
 20
17537.088052000021
 30
0.0
 11
20652.78749481733
 21
18180.891842000008
 31
0.0
  0
LINE
  5
13E03
  8
2-0
  6
CONTINUOUS
 62
     3
 10
20652.78749481733
 20
16677.983151000019
 30
0.0
 11
20682.78511981733
 21
16677.983151000019
 31
0.0
  0
LINE
  5
13E04
  8
2-0
  6
CONTINUOUS
 62
     3
 10
20682.78511981733
 20
16677.983151000019
 30
0.0
 11
20682.78511981733
 21
16683.985051
 31
0.0
  0
LINE
  5
13E05
  8
2-0
  6
CONTINUOUS
 62
     3
 10
20740.67416081734
 20
16707.988694
 30
0.0
 11
20655.673632817328
 21
16707.988694
 31
0.0
  0
LINE
  5
13E06
  8
2-0
  6
CONTINUOUS
 62
     3
 10
20655.673632817328
 20
16707.988694
 30
0.0
 11
20655.673632817328
 21
16727.98381100002
 31
0.0
  0
LINE
  5
13E07
  8
2-0
  6
CONTINUOUS
 62
     3
 10
20682.78511981733
 20
16668.37456800001
 30
0.0
 11
20652.78749481733
 21
16668.37456800001
 31
0.0
  0
LINE
  5
13E08
  8
2-0
  6
CONTINUOUS
 62
     3
 10
20682.78511981733
 20
16686.37037099999
 30
0.0
 11
20682.78511981733
 21
16668.37456800001
 31
0.0
  0
LINE
  5
13E09
  8
2-0
  6
CONTINUOUS
 62
     3
 10
20657.79171781733
 20
16686.37037099999
 30
0.0
 11
20682.78511981733
 21
16686.37037099999
 31
0.0
  0
LINE
  5
13E0A
  8
2-0
  6
CONTINUOUS
 62
     3
 10
20657.79171781733
 20
16681.370107000021
 30
0.0
 11
20657.79171781733
 21
16686.37037099999
 31
0.0
  0
LINE
  5
13E0B
  8
2-0
  6
CONTINUOUS
 62
     3
 10
20664.78931581731
 20
16681.370107000021
 30
0.0
 11
20657.79171781733
 21
16681.370107000021
 31
0.0
  0
LINE
  5
13E0C
  8
2-0
  6
CONTINUOUS
 62
     3
 10
20664.78931581731
 20
15976.88787649999
 30
0.0
 11
20657.79171781733
 21
15976.88787649999
 31
0.0
  0
LINE
  5
13E0D
  8
2-0
  6
CONTINUOUS
 62
     3
 10
20657.79171781733
 20
15976.88787649999
 30
0.0
 11
20657.79171781733
 21
15981.888140499999
 31
0.0
  0
LINE
  5
13E0E
  8
2-0
  6
CONTINUOUS
 62
     3
 10
20657.79171781733
 20
15981.888140499999
 30
0.0
 11
20682.78511981733
 21
15981.888140499999
 31
0.0
  0
LINE
  5
13E0F
  8
2-0
  6
CONTINUOUS
 62
     3
 10
20682.78511981733
 20
15981.888140499999
 30
0.0
 11
20682.78511981733
 21
15963.886398500021
 31
0.0
  0
LINE
  5
13E10
  8
2-0
  6
CONTINUOUS
 62
     3
 10
20682.78511981733
 20
15963.886398500021
 30
0.0
 11
20652.78749481733
 21
15963.886398500021
 31
0.0
  0
LINE
  5
13E11
  8
2-0
  6
CONTINUOUS
 62
     3
 10
20682.78511981733
 20
15979.983843500009
 30
0.0
 11
20682.78511981733
 21
15973.98689250001
 31
0.0
  0
LINE
  5
13E12
  8
2-0
  6
CONTINUOUS
 62
     3
 10
20682.78511981733
 20
15973.98689250001
 30
0.0
 11
20652.78749481733
 21
15973.98689250001
 31
0.0
  0
LINE
  5
13E13
  8
2-0
  6
CONTINUOUS
 62
     3
 10
20652.78749481733
 20
15973.98689250001
 30
0.0
 11
20652.78749481733
 21
16010.98706350001
 31
0.0
  0
LINE
  5
13E14
  8
2-0
  6
CONTINUOUS
 62
     3
 10
20682.78511981733
 20
16010.98706350001
 30
0.0
 11
20652.78749481733
 21
16010.98706350001
 31
0.0
  0
LINE
  5
13E15
  8
2-0
  6
CONTINUOUS
 62
     3
 10
20682.78511981733
 20
16004.984173500001
 30
0.0
 11
20682.78511981733
 21
16010.98706350001
 31
0.0
  0
LINE
  5
13E16
  8
2-0
  6
CONTINUOUS
 62
     3
 10
20682.78511981733
 20
16021.08260850001
 30
0.0
 11
20652.78749481733
 21
16021.08260850001
 31
0.0
  0
LINE
  5
13E17
  8
2-0
  6
CONTINUOUS
 62
     3
 10
20682.78511981733
 20
16003.074927500011
 30
0.0
 11
20682.78511981733
 21
16021.08260850001
 31
0.0
  0
LINE
  5
13E18
  8
2-0
  6
CONTINUOUS
 62
     3
 10
20657.79171781733
 20
16003.074927500011
 30
0.0
 11
20682.78511981733
 21
16003.074927500011
 31
0.0
  0
LINE
  5
13E19
  8
2-0
  6
CONTINUOUS
 62
     3
 10
20657.79171781733
 20
16008.08113050001
 30
0.0
 11
20657.79171781733
 21
16003.074927500011
 31
0.0
  0
LINE
  5
13E1A
  8
2-0
  6
CONTINUOUS
 62
     3
 10
20664.78931581731
 20
16008.08113050001
 30
0.0
 11
20657.79171781733
 21
16008.08113050001
 31
0.0
  0
LINE
  5
13E1B
  8
2-0
  6
CONTINUOUS
 62
     3
 10
20664.78931581731
 20
15307.321147000021
 30
0.0
 11
20657.79171781733
 21
15307.321147000021
 31
0.0
  0
LINE
  5
13E1C
  8
2-0
  6
CONTINUOUS
 62
     3
 10
20657.79171781733
 20
15307.321147000021
 30
0.0
 11
20657.79171781733
 21
15302.326822000019
 31
0.0
  0
LINE
  5
13E1D
  8
2-0
  6
CONTINUOUS
 62
     3
 10
20657.79171781733
 20
15302.326822000019
 30
0.0
 11
20682.78511981733
 21
15302.326822000019
 31
0.0
  0
LINE
  5
13E1E
  8
2-0
  6
CONTINUOUS
 62
     3
 10
20682.78511981733
 20
15302.326822000019
 30
0.0
 11
20682.78511981733
 21
15320.322625000021
 31
0.0
  0
LINE
  5
13E1F
  8
2-0
  6
CONTINUOUS
 62
     3
 10
20682.78511981733
 20
15320.322625000021
 30
0.0
 11
20652.78749481733
 21
15320.322625000021
 31
0.0
  0
LINE
  5
13E20
  8
2-0
  6
CONTINUOUS
 62
     3
 10
20682.78511981733
 20
15304.22518000001
 30
0.0
 11
20682.78511981733
 21
15310.227080000021
 31
0.0
  0
LINE
  5
13E21
  8
2-0
  6
CONTINUOUS
 62
     3
 10
20682.78511981733
 20
15310.227080000021
 30
0.0
 11
20652.78749481733
 21
15310.227080000021
 31
0.0
  0
LINE
  5
13E22
  8
2-0
  6
CONTINUOUS
 62
     3
 10
20652.78749481733
 20
15273.22789900003
 30
0.0
 11
20652.78749481733
 21
15310.227080000021
 31
0.0
  0
LINE
  5
13E23
  8
2-0
  6
CONTINUOUS
 62
     3
 10
20682.78511981733
 20
15273.22789900003
 30
0.0
 11
20652.78749481733
 21
15273.22789900003
 31
0.0
  0
LINE
  5
13E24
  8
2-0
  6
CONTINUOUS
 62
     3
 10
20682.78511981733
 20
15279.22485000001
 30
0.0
 11
20682.78511981733
 21
15273.22789900003
 31
0.0
  0
LINE
  5
13E25
  8
2-0
  6
CONTINUOUS
 62
     3
 10
20682.78511981733
 20
15263.12641500001
 30
0.0
 11
20652.78749481733
 21
15263.12641500001
 31
0.0
  0
LINE
  5
13E26
  8
2-0
  6
CONTINUOUS
 62
     3
 10
20682.78511981733
 20
15281.134096000011
 30
0.0
 11
20682.78511981733
 21
15263.12641500001
 31
0.0
  0
LINE
  5
13E27
  8
2-0
  6
CONTINUOUS
 62
     3
 10
20657.79171781733
 20
15281.134096000011
 30
0.0
 11
20682.78511981733
 21
15281.134096000011
 31
0.0
  0
LINE
  5
13E28
  8
2-0
  6
CONTINUOUS
 62
     3
 10
20657.79171781733
 20
15276.13383200003
 30
0.0
 11
20657.79171781733
 21
15281.134096000011
 31
0.0
  0
LINE
  5
13E29
  8
2-0
  6
CONTINUOUS
 62
     3
 10
20664.78931581731
 20
15276.13383200003
 30
0.0
 11
20657.79171781733
 21
15276.13383200003
 31
0.0
  0
LINE
  5
13E2A
  8
2-0
  6
CONTINUOUS
 62
     3
 10
20652.78749481733
 20
16668.37456800001
 30
0.0
 11
20652.78749481733
 21
16021.08260850001
 31
0.0
  0
LINE
  5
13E2B
  8
2-0
  6
CONTINUOUS
 62
     3
 10
20652.78749481733
 20
16822.98486600001
 30
0.0
 11
20652.78749481733
 21
16677.983151000019
 31
0.0
  0
LINE
  5
13E2C
  8
2-0
  6
CONTINUOUS
 62
     3
 10
20740.67416081734
 20
16792.985262000009
 30
0.0
 11
20740.67416081734
 21
16707.988694
 31
0.0
  0
LINE
  5
13E2D
  8
2-0
  6
CONTINUOUS
 62
     3
 10
20664.78931581731
 20
14574.89282500001
 30
0.0
 11
20657.79171781733
 21
14574.89282500001
 31
0.0
  0
LINE
  5
13E2E
  8
2-0
  6
CONTINUOUS
 62
     3
 10
20657.79171781733
 20
14574.89282500001
 30
0.0
 11
20657.79171781733
 21
14579.887151000021
 31
0.0
  0
LINE
  5
13E2F
  8
2-0
  6
CONTINUOUS
 62
     3
 10
20657.79171781733
 20
14579.887151000021
 30
0.0
 11
20682.78511981733
 21
14579.887151000021
 31
0.0
  0
LINE
  5
13E30
  8
2-0
  6
CONTINUOUS
 62
     3
 10
20682.78511981733
 20
14579.887151000021
 30
0.0
 11
20682.78511981733
 21
14561.891347000021
 31
0.0
  0
LINE
  5
13E31
  8
2-0
  6
CONTINUOUS
 62
     3
 10
20682.78511981733
 20
14561.891347000021
 30
0.0
 11
20652.78749481733
 21
14561.891347000021
 31
0.0
  0
LINE
  5
13E32
  8
2-0
  6
CONTINUOUS
 62
     3
 10
20682.78511981733
 20
14577.989782000021
 30
0.0
 11
20682.78511981733
 21
14571.986892000021
 31
0.0
  0
LINE
  5
13E33
  8
2-0
  6
CONTINUOUS
 62
     3
 10
20682.78511981733
 20
14571.986892000021
 30
0.0
 11
20652.78749481733
 21
14571.986892000021
 31
0.0
  0
LINE
  5
13E34
  8
2-0
  6
CONTINUOUS
 62
     3
 10
20652.78749481733
 20
14571.986892000021
 30
0.0
 11
20652.78749481733
 21
14608.987064000001
 31
0.0
  0
LINE
  5
13E35
  8
2-0
  6
CONTINUOUS
 62
     3
 10
20682.78511981733
 20
14608.987064000001
 30
0.0
 11
20652.78749481733
 21
14608.987064000001
 31
0.0
  0
LINE
  5
13E36
  8
2-0
  6
CONTINUOUS
 62
     3
 10
20682.78511981733
 20
14602.99011200001
 30
0.0
 11
20682.78511981733
 21
14608.987064000001
 31
0.0
  0
LINE
  5
13E37
  8
2-0
  6
CONTINUOUS
 62
     3
 10
20682.78511981733
 20
14619.087557000021
 30
0.0
 11
20652.78749481733
 21
14619.087557000021
 31
0.0
  0
LINE
  5
13E38
  8
2-0
  6
CONTINUOUS
 62
     3
 10
20682.78511981733
 20
14601.08086600002
 30
0.0
 11
20682.78511981733
 21
14619.087557000021
 31
0.0
  0
LINE
  5
13E39
  8
2-0
  6
CONTINUOUS
 62
     3
 10
20657.79171781733
 20
14601.08086600002
 30
0.0
 11
20682.78511981733
 21
14601.08086600002
 31
0.0
  0
LINE
  5
13E3A
  8
2-0
  6
CONTINUOUS
 62
     3
 10
20657.79171781733
 20
14606.086079000021
 30
0.0
 11
20657.79171781733
 21
14601.08086600002
 31
0.0
  0
LINE
  5
13E3B
  8
2-0
  6
CONTINUOUS
 62
     3
 10
20664.78931581731
 20
14606.086079000021
 30
0.0
 11
20657.79171781733
 21
14606.086079000021
 31
0.0
  0
LINE
  5
13E3C
  8
2-0
  6
CONTINUOUS
 62
     3
 10
20682.78511981733
 20
13898.988905000009
 30
0.0
 11
20682.78511981733
 21
13904.99377400001
 31
0.0
  0
LINE
  5
13E3D
  8
2-0
  6
CONTINUOUS
 62
     3
 10
20682.78511981733
 20
13904.99377400001
 30
0.0
 11
20652.78749481733
 21
13904.99377400001
 31
0.0
  0
LINE
  5
13E3E
  8
2-0
  6
CONTINUOUS
 62
     3
 10
20652.78749481733
 20
13904.99377400001
 30
0.0
 11
20652.78749481733
 21
13789.989683000011
 31
0.0
  0
LINE
  5
13E3F
  8
2-0
  6
CONTINUOUS
 62
     3
 10
20652.78749481733
 20
13789.989683000011
 30
0.0
 11
20737.786042817319
 21
13789.989683000011
 31
0.0
  0
LINE
  5
13E40
  8
2-0
  6
CONTINUOUS
 62
     3
 10
20737.786042817319
 20
13789.989683000011
 30
0.0
 11
20737.786042817319
 21
13874.985262000009
 31
0.0
  0
LINE
  5
13E41
  8
2-0
  6
CONTINUOUS
 62
     3
 10
20737.786042817319
 20
13874.985262000009
 30
0.0
 11
20705.789104817319
 21
13874.985262000009
 31
0.0
  0
LINE
  5
13E42
  8
2-0
  6
CONTINUOUS
 62
     3
 10
20664.78931581731
 20
13902.023507000011
 30
0.0
 11
20657.79171781733
 21
13902.023507000011
 31
0.0
  0
LINE
  5
13E43
  8
2-0
  6
CONTINUOUS
 62
     3
 10
20657.79171781733
 20
13902.023507000011
 30
0.0
 11
20657.79171781733
 21
13897.02621199999
 31
0.0
  0
LINE
  5
13E44
  8
2-0
  6
CONTINUOUS
 62
     3
 10
20657.79171781733
 20
13897.02621199999
 30
0.0
 11
20682.78511981733
 21
13897.02621199999
 31
0.0
  0
LINE
  5
13E45
  8
2-0
  6
CONTINUOUS
 62
     3
 10
20682.78511981733
 20
13897.02621199999
 30
0.0
 11
20682.78511981733
 21
13915.024985000009
 31
0.0
  0
LINE
  5
13E46
  8
2-0
  6
CONTINUOUS
 62
     3
 10
20682.78511981733
 20
13915.024985000009
 30
0.0
 11
20652.78749481733
 21
13915.024985000009
 31
0.0
  0
LINE
  5
13E47
  8
2-0
  6
CONTINUOUS
 62
     3
 10
20652.78749481733
 20
14619.087557000021
 30
0.0
 11
20652.78749481733
 21
15263.12641500001
 31
0.0
  0
LINE
  5
13E48
  8
2-0
  6
CONTINUOUS
 62
     3
 10
20652.78749481733
 20
18238.082114000012
 30
0.0
 11
20652.78749481733
 21
18881.892831500001
 31
0.0
  0
LINE
  5
13E49
  8
2-0
  6
CONTINUOUS
 62
     3
 10
20652.78749481733
 20
15963.886398500021
 30
0.0
 11
20652.78749481733
 21
15320.322625000021
 31
0.0
  0
LINE
  5
13E4A
  8
2-0
  6
CONTINUOUS
 62
     3
 10
23655.782083817321
 20
19245.489090000021
 30
0.0
 11
23655.782083817321
 21
19360.48526300002
 31
0.0
  0
LINE
  5
13E4B
  8
2-0
  6
CONTINUOUS
 62
     3
 10
20652.78749481733
 20
19275.488694
 30
0.0
 11
23574.780183817322
 21
19275.488694
 31
0.0
  0
LINE
  5
13E4C
  8
2-0
  6
CONTINUOUS
 62
     3
 10
20652.78749481733
 20
13915.024985000009
 30
0.0
 11
20652.78749481733
 21
14561.891347000021
 31
0.0
  0
LINE
  5
13E4D
  8
2-0
  6
CONTINUOUS
 62
     3
 10
23655.782083817321
 20
19235.19163400001
 30
0.0
 11
23655.782083817321
 21
18939.083103500001
 31
0.0
  0
LINE
  5
13E4E
  8
2-0
  6
CONTINUOUS
 62
     3
 10
20652.78749481733
 20
19235.19163400001
 30
0.0
 11
20652.78749481733
 21
18939.08310349999
 31
0.0
  0
LINE
  5
13E4F
  8
2-0
  6
CONTINUOUS
 62
     3
 10
20733.785435817339
 20
13874.985262000009
 30
0.0
 11
20733.785435817339
 21
19360.48526300002
 31
0.0
  0
LINE
  5
13E50
  8
2-0
  6
CONTINUOUS
 62
     3
 10
23574.780183817322
 20
13874.985262000009
 30
0.0
 11
23574.780183817322
 21
19360.48526300002
 31
0.0
  0
TEXT
  5
13E51
  8
2-0
  6
CONTINUOUS
 62
     7
 10
21466.438492823108
 20
13272.491193002699
 30
0.0
 40
160.0
  1
前柱（左）
 50
359.99978700000003
 72
     4
 11
21882.43879022434
 21
13352.489646500801
 31
0.0
  0
TEXT
  5
13E52
  8
2-0
  6
CONTINUOUS
 62
     7
 10
21368.510036487471
 20
16200.977875276531
 30
0.0
 40
160.0
  1
壁パネル
 50
0.0001770000000167
 72
     4
 11
21731.176456013782
 21
16280.978995637901
 31
0.0
  0
TEXT
  5
13E53
  8
2-0
  6
CONTINUOUS
 62
     7
 10
21339.179607170448
 20
17038.174404652371
 30
0.0
 40
160.0
  1
中柱（左右）
 50
359.99964599999998
 72
     4
 11
21856.51343477115
 21
17118.171208324671
 31
0.0
  0
TEXT
  5
13E54
  8
2-0
  6
CONTINUOUS
 62
     7
 10
21352.510696542769
 20
14245.53569870612
 30
0.0
 40
160.0
  1
下枠
 50
359.99893700000001
 72
     4
 11
21523.17884740806
 21
14325.532532339301
 31
0.0
  0
TEXT
  5
13E55
  8
2-0
  6
CONTINUOUS
 62
     7
 10
21356.211939150671
 20
18641.436750500001
 30
0.0
 40
160.0
  1
間柱（側）
 72
     4
 11
21777.545272484
 21
18721.436750500001
 31
0.0
  0
TEXT
  5
13E56
  8
2-0
  6
CONTINUOUS
 62
     7
 10
18856.288286836891
 20
20170.490797748749
 30
0.0
 40
160.0
  1
後柱（左右）
 50
359.99964599999998
 72
     4
 11
19368.288781104358
 21
20250.487634372861
 31
0.0
  0
LINE
  5
13E57
  8
2-0
  6
CONTINUOUS
 62
     3
 10
22873.784380817291
 20
19360.48526300002
 30
0.0
 11
22836.783218817342
 21
19360.48526300002
 31
0.0
  0
LINE
  5
13E58
  8
2-0
  6
CONTINUOUS
 62
     3
 10
22873.784380817291
 20
19330.481700000018
 30
0.0
 11
22873.784380817291
 21
19360.48526300002
 31
0.0
  0
LINE
  5
13E59
  8
2-0
  6
CONTINUOUS
 62
     3
 10
22867.7844598173
 20
19330.481700000018
 30
0.0
 11
22873.784380817291
 21
19330.481700000018
 31
0.0
  0
LINE
  5
13E5A
  8
2-0
  6
CONTINUOUS
 62
     3
 10
22883.881904817339
 20
19330.481700000018
 30
0.0
 11
22883.881904817339
 21
19360.48526300002
 31
0.0
  0
LINE
  5
13E5B
  8
2-0
  6
CONTINUOUS
 62
     3
 10
22865.878183817331
 20
19330.481700000018
 30
0.0
 11
22883.881904817339
 21
19330.481700000018
 31
0.0
  0
LINE
  5
13E5C
  8
2-0
  6
CONTINUOUS
 62
     3
 10
22865.878183817331
 20
19355.49093700002
 30
0.0
 11
22865.878183817331
 21
19330.481700000018
 31
0.0
  0
LINE
  5
13E5D
  8
2-0
  6
CONTINUOUS
 62
     3
 10
22870.878447817329
 20
19355.49093700002
 30
0.0
 11
22865.878183817331
 21
19355.49093700002
 31
0.0
  0
LINE
  5
13E5E
  8
2-0
  6
CONTINUOUS
 62
     3
 10
22870.878447817329
 20
19348.485421000009
 30
0.0
 11
22870.878447817329
 21
19355.49093700002
 31
0.0
  0
LINE
  5
13E5F
  8
2-0
  6
CONTINUOUS
 62
     3
 10
22839.689152817318
 20
19348.485421000009
 30
0.0
 11
22839.689152817318
 21
19355.49093700002
 31
0.0
  0
LINE
  5
13E60
  8
2-0
  6
CONTINUOUS
 62
     3
 10
22839.689152817318
 20
19355.49093700002
 30
0.0
 11
22844.689416817331
 21
19355.49093700002
 31
0.0
  0
LINE
  5
13E61
  8
2-0
  6
CONTINUOUS
 62
     3
 10
22844.689416817331
 20
19355.49093700002
 30
0.0
 11
22844.689416817331
 21
19330.481700000018
 31
0.0
  0
LINE
  5
13E62
  8
2-0
  6
CONTINUOUS
 62
     3
 10
22844.689416817331
 20
19330.481700000018
 30
0.0
 11
22826.689653817339
 21
19330.481700000018
 31
0.0
  0
LINE
  5
13E63
  8
2-0
  6
CONTINUOUS
 62
     3
 10
22826.689653817339
 20
19330.481700000018
 30
0.0
 11
22826.689653817339
 21
19360.48526300002
 31
0.0
  0
LINE
  5
13E64
  8
2-0
  6
CONTINUOUS
 62
     3
 10
22842.783139817329
 20
19330.481700000018
 30
0.0
 11
22836.783218817342
 21
19330.481700000018
 31
0.0
  0
LINE
  5
13E65
  8
2-0
  6
CONTINUOUS
 62
     3
 10
22836.783218817342
 20
19330.481700000018
 30
0.0
 11
22836.783218817342
 21
19360.48526300002
 31
0.0
  0
LINE
  5
13E66
  8
2-0
  6
CONTINUOUS
 62
     3
 10
21468.87349831732
 20
19348.485421000009
 30
0.0
 11
21468.87349831732
 21
19355.49093700002
 31
0.0
  0
LINE
  5
13E67
  8
2-0
  6
CONTINUOUS
 62
     3
 10
21468.87349831732
 20
19355.49093700002
 30
0.0
 11
21463.873234317329
 21
19355.49093700002
 31
0.0
  0
LINE
  5
13E68
  8
2-0
  6
CONTINUOUS
 62
     3
 10
21463.873234317329
 20
19355.49093700002
 30
0.0
 11
21463.873234317329
 21
19330.481700000018
 31
0.0
  0
LINE
  5
13E69
  8
2-0
  6
CONTINUOUS
 62
     3
 10
21463.873234317329
 20
19330.481700000018
 30
0.0
 11
21481.878935317342
 21
19330.481700000018
 31
0.0
  0
LINE
  5
13E6A
  8
2-0
  6
CONTINUOUS
 62
     3
 10
21481.878935317342
 20
19330.481700000018
 30
0.0
 11
21481.878935317342
 21
19360.48526300002
 31
0.0
  0
LINE
  5
13E6B
  8
2-0
  6
CONTINUOUS
 62
     3
 10
21465.781490317331
 20
19330.481700000018
 30
0.0
 11
21471.78339031732
 21
19330.481700000018
 31
0.0
  0
LINE
  5
13E6C
  8
2-0
  6
CONTINUOUS
 62
     3
 10
21471.78339031732
 20
19330.481700000018
 30
0.0
 11
21471.78339031732
 21
19360.48526300002
 31
0.0
  0
LINE
  5
13E6D
  8
2-0
  6
CONTINUOUS
 62
     3
 10
21434.784209317331
 20
19360.48526300002
 30
0.0
 11
21471.78339031732
 21
19360.48526300002
 31
0.0
  0
LINE
  5
13E6E
  8
2-0
  6
CONTINUOUS
 62
     3
 10
21434.784209317331
 20
19330.481700000018
 30
0.0
 11
21434.784209317331
 21
19360.48526300002
 31
0.0
  0
LINE
  5
13E6F
  8
2-0
  6
CONTINUOUS
 62
     3
 10
21440.778191317331
 20
19330.481700000018
 30
0.0
 11
21434.784209317331
 21
19330.481700000018
 31
0.0
  0
LINE
  5
13E70
  8
2-0
  6
CONTINUOUS
 62
     3
 10
21424.688664317338
 20
19330.481700000018
 30
0.0
 11
21424.688664317338
 21
19360.48526300002
 31
0.0
  0
LINE
  5
13E71
  8
2-0
  6
CONTINUOUS
 62
     3
 10
21442.684467317329
 20
19330.481700000018
 30
0.0
 11
21424.688664317338
 21
19330.481700000018
 31
0.0
  0
LINE
  5
13E72
  8
2-0
  6
CONTINUOUS
 62
     3
 10
21442.684467317329
 20
19355.49093700002
 30
0.0
 11
21442.684467317329
 21
19330.481700000018
 31
0.0
  0
LINE
  5
13E73
  8
2-0
  6
CONTINUOUS
 62
     3
 10
21437.68420331732
 20
19355.49093700002
 30
0.0
 11
21442.684467317329
 21
19355.49093700002
 31
0.0
  0
LINE
  5
13E74
  8
2-0
  6
CONTINUOUS
 62
     3
 10
21437.68420331732
 20
19348.485421000009
 30
0.0
 11
21437.68420331732
 21
19355.49093700002
 31
0.0
  0
LINE
  5
13E75
  8
2-0
  6
CONTINUOUS
 62
     3
 10
22138.683214317331
 20
19348.485421000009
 30
0.0
 11
22138.683214317331
 21
19355.49093700002
 31
0.0
  0
LINE
  5
13E76
  8
2-0
  6
CONTINUOUS
 62
     3
 10
22138.683214317331
 20
19355.49093700002
 30
0.0
 11
22143.683477317329
 21
19355.49093700002
 31
0.0
  0
LINE
  5
13E77
  8
2-0
  6
CONTINUOUS
 62
     3
 10
22143.683477317329
 20
19355.49093700002
 30
0.0
 11
22143.683477317329
 21
19330.481700000018
 31
0.0
  0
LINE
  5
13E78
  8
2-0
  6
CONTINUOUS
 62
     3
 10
22143.683477317329
 20
19330.481700000018
 30
0.0
 11
22125.68965431731
 21
19330.481700000018
 31
0.0
  0
LINE
  5
13E79
  8
2-0
  6
CONTINUOUS
 62
     3
 10
22125.68965431731
 20
19330.481700000018
 30
0.0
 11
22125.68965431731
 21
19360.48526300002
 31
0.0
  0
LINE
  5
13E7A
  8
2-0
  6
CONTINUOUS
 62
     3
 10
22141.78116031731
 20
19330.481700000018
 30
0.0
 11
22135.783219317331
 21
19330.481700000018
 31
0.0
  0
LINE
  5
13E7B
  8
2-0
  6
CONTINUOUS
 62
     3
 10
22135.783219317331
 20
19330.481700000018
 30
0.0
 11
22135.783219317331
 21
19360.48526300002
 31
0.0
  0
LINE
  5
13E7C
  8
2-0
  6
CONTINUOUS
 62
     3
 10
22172.784380317331
 20
19360.48526300002
 30
0.0
 11
22135.783219317331
 21
19360.48526300002
 31
0.0
  0
LINE
  5
13E7D
  8
2-0
  6
CONTINUOUS
 62
     3
 10
22172.784380317331
 20
19330.481700000018
 30
0.0
 11
22172.784380317331
 21
19360.48526300002
 31
0.0
  0
LINE
  5
13E7E
  8
2-0
  6
CONTINUOUS
 62
     3
 10
22166.778521317341
 20
19330.481700000018
 30
0.0
 11
22172.784380317331
 21
19330.481700000018
 31
0.0
  0
LINE
  5
13E7F
  8
2-0
  6
CONTINUOUS
 62
     3
 10
22182.877945317341
 20
19330.481700000018
 30
0.0
 11
22182.877945317341
 21
19360.48526300002
 31
0.0
  0
LINE
  5
13E80
  8
2-0
  6
CONTINUOUS
 62
     3
 10
22164.882142317329
 20
19330.481700000018
 30
0.0
 11
22182.877945317341
 21
19330.481700000018
 31
0.0
  0
LINE
  5
13E81
  8
2-0
  6
CONTINUOUS
 62
     3
 10
22164.882142317329
 20
19355.49093700002
 30
0.0
 11
22164.882142317329
 21
19330.481700000018
 31
0.0
  0
LINE
  5
13E82
  8
2-0
  6
CONTINUOUS
 62
     3
 10
22169.872508317341
 20
19355.49093700002
 30
0.0
 11
22164.882142317329
 21
19355.49093700002
 31
0.0
  0
LINE
  5
13E83
  8
2-0
  6
CONTINUOUS
 62
     3
 10
22169.872508317341
 20
19348.485421000009
 30
0.0
 11
22169.872508317341
 21
19355.49093700002
 31
0.0
  0
LINE
  5
13E84
  8
2-0
  6
CONTINUOUS
 62
     3
 10
21481.878935317342
 20
19360.48526300002
 30
0.0
 11
22125.68965431731
 21
19360.48526300002
 31
0.0
  0
LINE
  5
13E85
  8
2-0
  6
CONTINUOUS
 62
     3
 10
20778.089041817319
 20
19360.48526300002
 30
0.0
 11
21424.688664317338
 21
19360.48526300002
 31
0.0
  0
LINE
  5
13E86
  8
2-0
  6
CONTINUOUS
 62
     3
 10
23531.167429817331
 20
19360.48526300002
 30
0.0
 11
22883.881904817339
 21
19360.48526300002
 31
0.0
  0
LINE
  5
13E87
  8
2-0
  6
CONTINUOUS
 62
     3
 10
22826.689653817339
 20
19360.48526300002
 30
0.0
 11
22182.877945317341
 21
19360.48526300002
 31
0.0
  0
LINE
  5
13E88
  8
2-0
  6
CONTINUOUS
 62
     3
 10
23655.782083817321
 20
15263.126415000021
 30
0.0
 11
23655.782083817321
 21
14619.087557000021
 31
0.0
  0
LINE
  5
13E89
  8
2-0
  6
CONTINUOUS
 62
     3
 10
23655.782083817321
 20
14561.89134700001
 30
0.0
 11
23655.782083817321
 21
13915.024985000009
 31
0.0
  0
LINE
  5
13E8A
  8
0-6
  6
CONTINUOUS
 62
     6
 10
23612.459541317348
 20
18649.16703500002
 30
0.0
 11
22587.419291317328
 21
18649.16703500002
 31
0.0
  0
LINE
  5
13E8B
  8
0-6
  6
CONTINUOUS
 62
     6
 10
22287.494513317331
 20
19206.520287000028
 30
0.0
 11
22182.878935317342
 21
19330.481700000018
 31
0.0
  0
LINE
  5
13E8C
  8
0-6
  6
CONTINUOUS
 62
     6
 10
22182.878935317342
 20
19330.481700000018
 30
0.0
 11
22241.636985317349
 21
19179.290030000018
 31
0.0
  0
LINE
  5
13E8D
  8
0-6
  6
CONTINUOUS
 62
     6
 10
22182.878935317342
 20
19330.481700000018
 30
0.0
 11
22287.494513317331
 21
19206.520287000028
 31
0.0
  0
LINE
  5
13E8E
  8
0-6
  6
CONTINUOUS
 62
     6
 10
22287.494513317331
 20
19206.520287000028
 30
0.0
 11
22241.636985317349
 21
19179.290030000018
 31
0.0
  0
LINE
  5
13E8F
  8
0-6
  6
CONTINUOUS
 62
     6
 10
22241.636985317349
 20
19179.290030000018
 30
0.0
 11
22182.878935317342
 21
19330.481700000018
 31
0.0
  0
LINE
  5
13E90
  8
0-6
  6
CONTINUOUS
 62
     6
 10
22241.636985317349
 20
19179.290030000018
 30
0.0
 11
22287.494513317331
 21
19206.520287000028
 31
0.0
  0
LINE
  5
13E91
  8
0-6
  6
CONTINUOUS
 62
     6
 10
22264.565749317338
 20
19192.90713800002
 30
0.0
 11
22587.419291317328
 21
18649.16703500002
 31
0.0
  0
TEXT
  5
13E92
  8
0-6
  6
CONTINUOUS
 62
     7
 10
22689.792610650678
 20
18729.169279000031
 30
0.0
 40
160.0
  1
間柱（後）
 72
     4
 11
23111.125943984011
 21
18809.169279000031
 31
0.0
  0
LINE
  5
13E93
  8
SUNPOU
  6
CONTINUOUS
 62
     4
 10
20695.283799817342
 20
19440.48526300002
 30
0.0
 11
20695.283799817342
 21
20170.488166000039
 31
0.0
  0
LINE
  5
13E94
  8
SUNPOU
  6
CONTINUOUS
 62
     4
 10
21453.28379981732
 20
19440.48526300002
 30
0.0
 11
21453.28379981732
 21
20170.488166000039
 31
0.0
  0
LINE
  5
13E95
  8
SUNPOU
  6
CONTINUOUS
 62
     4
 10
20695.283799817342
 20
20090.488166000039
 30
0.0
 11
21453.28379981732
 21
20090.488166000039
 31
0.0
  0
LINE
  5
13E96
  8
SUNPOU
  6
CONTINUOUS
 62
     4
 10
20572.785515817359
 20
18910.486978000001
 30
0.0
 11
19522.784195817359
 21
18910.486978000001
 31
0.0
  0
LINE
  5
13E97
  8
SUNPOU
  6
CONTINUOUS
 62
     4
 10
19722.784195817349
 20
19317.986978000012
 30
0.0
 11
19522.784195817359
 21
19317.986978000012
 31
0.0
  0
LINE
  5
13E98
  8
SUNPOU
  6
CONTINUOUS
 62
     4
 10
19602.784195817359
 20
18910.486978000001
 30
0.0
 11
19602.784195817359
 21
19317.986978000012
 31
0.0
  0
LINE
  5
13E99
  8
SUNPOU
  6
CONTINUOUS
 62
     4
 10
20695.283799817342
 20
13126.723544
 30
0.0
 11
20695.283799817342
 21
12781.038893999999
 31
0.0
  0
LINE
  5
13E9A
  8
SUNPOU
  6
CONTINUOUS
 62
     4
 10
20652.781556817339
 20
13709.989683000011
 30
0.0
 11
20652.781556817339
 21
12781.038893999999
 31
0.0
  0
LINE
  5
13E9B
  8
SUNPOU
  6
CONTINUOUS
 62
     4
 10
20695.283799817342
 20
12861.03889400001
 30
0.0
 11
20935.283799817342
 21
12861.03889400001
 31
0.0
  0
LINE
  5
13E9C
  8
SUNPOU
  6
CONTINUOUS
 62
     4
 10
20652.781556817339
 20
12861.03889400001
 30
0.0
 11
20412.781556817339
 21
12861.03889400001
 31
0.0
  0
LINE
  5
13E9D
  8
SUNPOU
  6
CONTINUOUS
 62
     4
 10
20695.283799817342
 20
12861.03889400001
 30
0.0
 11
20652.781556817339
 21
12861.03889400001
 31
0.0
  0
LINE
  5
13E9E
  8
SUNPOU
  6
CONTINUOUS
 62
     4
 10
23613.283799817342
 20
13126.723544
 30
0.0
 11
23613.283799817342
 21
12781.038893999999
 31
0.0
  0
LINE
  5
13E9F
  8
SUNPOU
  6
CONTINUOUS
 62
     4
 10
23655.78604281733
 20
13709.989683000011
 30
0.0
 11
23655.78604281733
 21
12781.038893999999
 31
0.0
  0
LINE
  5
13EA0
  8
SUNPOU
  6
CONTINUOUS
 62
     4
 10
23613.283799817342
 20
12861.03889400001
 30
0.0
 11
23373.283799817342
 21
12861.03889400001
 31
0.0
  0
LINE
  5
13EA1
  8
SUNPOU
  6
CONTINUOUS
 62
     4
 10
23655.78604281733
 20
12861.03889400001
 30
0.0
 11
23895.78604281733
 21
12861.03889400001
 31
0.0
  0
LINE
  5
13EA2
  8
SUNPOU
  6
CONTINUOUS
 62
     4
 10
23613.283799817342
 20
12861.03889400001
 30
0.0
 11
23655.78604281733
 21
12861.03889400001
 31
0.0
  0
LINE
  5
13EA3
  8
SUNPOU
  6
CONTINUOUS
 62
     4
 10
23613.283799817342
 20
13126.723544
 30
0.0
 11
23613.283799817342
 21
12781.038893999999
 31
0.0
  0
LINE
  5
13EA4
  8
SUNPOU
  6
CONTINUOUS
 62
     4
 10
23570.781556817328
 20
13709.989683000011
 30
0.0
 11
23570.781556817328
 21
12781.038893999999
 31
0.0
  0
LINE
  5
13EA5
  8
SUNPOU
  6
CONTINUOUS
 62
     4
 10
23613.283799817342
 20
12861.03889400001
 30
0.0
 11
23853.283799817342
 21
12861.03889400001
 31
0.0
  0
LINE
  5
13EA6
  8
SUNPOU
  6
CONTINUOUS
 62
     4
 10
23570.781556817328
 20
12861.03889400001
 30
0.0
 11
23330.781556817328
 21
12861.03889400001
 31
0.0
  0
LINE
  5
13EA7
  8
SUNPOU
  6
CONTINUOUS
 62
     4
 10
23613.283799817342
 20
12861.03889400001
 30
0.0
 11
23570.781556817328
 21
12861.03889400001
 31
0.0
  0
LINE
  5
13EA8
  8
SUNPOU
  6
CONTINUOUS
 62
     4
 10
20695.283799817342
 20
13126.723544
 30
0.0
 11
20695.283799817342
 21
12781.038893999999
 31
0.0
  0
LINE
  5
13EA9
  8
SUNPOU
  6
CONTINUOUS
 62
     4
 10
20737.786042817319
 20
13709.989683000011
 30
0.0
 11
20737.786042817319
 21
12781.038893999999
 31
0.0
  0
LINE
  5
13EAA
  8
SUNPOU
  6
CONTINUOUS
 62
     4
 10
20695.283799817342
 20
12861.03889400001
 30
0.0
 11
20455.283799817342
 21
12861.03889400001
 31
0.0
  0
LINE
  5
13EAB
  8
SUNPOU
  6
CONTINUOUS
 62
     4
 10
20737.786042817319
 20
12861.03889400001
 30
0.0
 11
20977.786042817319
 21
12861.03889400001
 31
0.0
  0
LINE
  5
13EAC
  8
SUNPOU
  6
CONTINUOUS
 62
     4
 10
20695.283799817342
 20
12861.03889400001
 30
0.0
 11
20737.786042817319
 21
12861.03889400001
 31
0.0
  0
LINE
  5
13EAD
  8
SUNPOU
  6
CONTINUOUS
 62
     4
 10
20652.781556817339
 20
13709.989683000011
 30
0.0
 11
20652.781556817339
 21
12381.038893999999
 31
0.0
  0
LINE
  5
13EAE
  8
SUNPOU
  6
CONTINUOUS
 62
     4
 10
23655.78604281733
 20
13709.989683000011
 30
0.0
 11
23655.78604281733
 21
12381.038893999999
 31
0.0
  0
LINE
  5
13EAF
  8
SUNPOU
  6
CONTINUOUS
 62
     4
 10
20652.781556817339
 20
12461.038893999999
 30
0.0
 11
23655.78604281733
 21
12461.038893999999
 31
0.0
  0
LINE
  5
13EB0
  8
SUNPOU
  6
CONTINUOUS
 62
     4
 10
20572.785515817359
 20
14590.48697800001
 30
0.0
 11
19522.784195817359
 21
14590.48697800001
 31
0.0
  0
LINE
  5
13EB1
  8
SUNPOU
  6
CONTINUOUS
 62
     4
 10
19722.784195817349
 20
13832.486978000001
 30
0.0
 11
19522.784195817359
 21
13832.486978000001
 31
0.0
  0
LINE
  5
13EB2
  8
SUNPOU
  6
CONTINUOUS
 62
     4
 10
19602.784195817359
 20
14590.48697800001
 30
0.0
 11
19602.784195817359
 21
13832.486978000001
 31
0.0
  0
LINE
  5
13EB3
  8
SUNPOU
  6
CONTINUOUS
 62
     4
 10
20572.785515817359
 20
15291.72748950003
 30
0.0
 11
19522.784195817359
 21
15291.72748950003
 31
0.0
  0
LINE
  5
13EB4
  8
SUNPOU
  6
CONTINUOUS
 62
     4
 10
20572.785515817359
 20
14590.48697800001
 30
0.0
 11
19522.784195817359
 21
14590.48697800001
 31
0.0
  0
LINE
  5
13EB5
  8
SUNPOU
  6
CONTINUOUS
 62
     4
 10
19602.784195817359
 20
15291.72748950003
 30
0.0
 11
19602.784195817359
 21
14590.48697800001
 31
0.0
  0
LINE
  5
13EB6
  8
SUNPOU
  6
CONTINUOUS
 62
     4
 10
20572.785515817359
 20
15992.48697800001
 30
0.0
 11
19522.784195817359
 21
15992.48697800001
 31
0.0
  0
LINE
  5
13EB7
  8
SUNPOU
  6
CONTINUOUS
 62
     4
 10
20572.785515817359
 20
15291.72748950003
 30
0.0
 11
19522.784195817359
 21
15291.72748950003
 31
0.0
  0
LINE
  5
13EB8
  8
SUNPOU
  6
CONTINUOUS
 62
     4
 10
19602.784195817359
 20
15992.48697800001
 30
0.0
 11
19602.784195817359
 21
15291.72748950003
 31
0.0
  0
LINE
  5
13EB9
  8
SUNPOU
  6
CONTINUOUS
 62
     4
 10
19722.784195817349
 20
16750.486978000012
 30
0.0
 11
19522.784195817359
 21
16750.486978000012
 31
0.0
  0
LINE
  5
13EBA
  8
SUNPOU
  6
CONTINUOUS
 62
     4
 10
20572.785515817359
 20
15992.48697800001
 30
0.0
 11
19522.784195817359
 21
15992.48697800001
 31
0.0
  0
LINE
  5
13EBB
  8
SUNPOU
  6
CONTINUOUS
 62
     4
 10
19602.784195817359
 20
16750.486978000012
 30
0.0
 11
19602.784195817359
 21
15992.48697800001
 31
0.0
  0
LINE
  5
13EBC
  8
SUNPOU
  6
CONTINUOUS
 62
     4
 10
20572.785515817359
 20
17508.486978000012
 30
0.0
 11
19522.784195817359
 21
17508.486978000012
 31
0.0
  0
LINE
  5
13EBD
  8
SUNPOU
  6
CONTINUOUS
 62
     4
 10
19722.784195817349
 20
16750.486978000012
 30
0.0
 11
19522.784195817359
 21
16750.486978000012
 31
0.0
  0
LINE
  5
13EBE
  8
SUNPOU
  6
CONTINUOUS
 62
     4
 10
19602.784195817359
 20
17508.486978000012
 30
0.0
 11
19602.784195817359
 21
16750.486978000012
 31
0.0
  0
LINE
  5
13EBF
  8
SUNPOU
  6
CONTINUOUS
 62
     4
 10
20572.785515817359
 20
18209.486978000012
 30
0.0
 11
19522.784195817359
 21
18209.486978000012
 31
0.0
  0
LINE
  5
13EC0
  8
SUNPOU
  6
CONTINUOUS
 62
     4
 10
20572.785515817359
 20
17508.486978000012
 30
0.0
 11
19522.784195817359
 21
17508.486978000012
 31
0.0
  0
LINE
  5
13EC1
  8
SUNPOU
  6
CONTINUOUS
 62
     4
 10
19602.784195817359
 20
18209.486978000012
 30
0.0
 11
19602.784195817359
 21
17508.486978000012
 31
0.0
  0
LINE
  5
13EC2
  8
SUNPOU
  6
CONTINUOUS
 62
     4
 10
20572.785515817359
 20
18910.486978000001
 30
0.0
 11
19522.784195817359
 21
18910.486978000001
 31
0.0
  0
LINE
  5
13EC3
  8
SUNPOU
  6
CONTINUOUS
 62
     4
 10
20572.785515817359
 20
18209.486978000012
 30
0.0
 11
19522.784195817359
 21
18209.486978000012
 31
0.0
  0
LINE
  5
13EC4
  8
SUNPOU
  6
CONTINUOUS
 62
     4
 10
19602.784195817359
 20
18910.486978000001
 30
0.0
 11
19602.784195817359
 21
18209.486978000012
 31
0.0
  0
LINE
  5
13EC5
  8
SUNPOU
  6
CONTINUOUS
 62
     4
 10
19722.784195817349
 20
19317.986978000012
 30
0.0
 11
19522.784195817359
 21
19317.986978000001
 31
0.0
  0
LINE
  5
13EC6
  8
SUNPOU
  6
CONTINUOUS
 62
     4
 10
19722.784195817349
 20
13832.486978000001
 30
0.0
 11
19522.784195817359
 21
13832.486978000001
 31
0.0
  0
LINE
  5
13EC7
  8
SUNPOU
  6
CONTINUOUS
 62
     4
 10
20572.785515817359
 20
19360.484273000009
 30
0.0
 11
19122.784195817349
 21
19360.484273000009
 31
0.0
  0
LINE
  5
13EC8
  8
SUNPOU
  6
CONTINUOUS
 62
     4
 10
20572.785515817359
 20
13789.989683000011
 30
0.0
 11
19122.784195817349
 21
13789.989683000011
 31
0.0
  0
LINE
  5
13EC9
  8
SUNPOU
  6
CONTINUOUS
 62
     4
 10
19202.784195817349
 20
19360.484273000009
 30
0.0
 11
19202.784195817349
 21
13789.989683000011
 31
0.0
  0
LINE
  5
13ECA
  8
SUNPOU
  6
CONTINUOUS
 62
     4
 10
19722.784195817349
 20
19317.986978000012
 30
0.0
 11
19522.784195817359
 21
19317.986978000001
 31
0.0
  0
LINE
  5
13ECB
  8
SUNPOU
  6
CONTINUOUS
 62
     4
 10
20572.785515817359
 20
19360.484273000009
 30
0.0
 11
19522.784195817359
 21
19360.484273000009
 31
0.0
  0
LINE
  5
13ECC
  8
SUNPOU
  6
CONTINUOUS
 62
     4
 10
19602.784195817359
 20
19317.986978000001
 30
0.0
 11
19602.784195817359
 21
19077.986978000001
 31
0.0
  0
LINE
  5
13ECD
  8
SUNPOU
  6
CONTINUOUS
 62
     4
 10
19602.784195817359
 20
19360.484273000009
 30
0.0
 11
19602.784195817359
 21
19600.484273000009
 31
0.0
  0
LINE
  5
13ECE
  8
SUNPOU
  6
CONTINUOUS
 62
     4
 10
19602.784195817359
 20
19317.986978000001
 30
0.0
 11
19602.784195817359
 21
19360.484273000009
 31
0.0
  0
LINE
  5
13ECF
  8
SUNPOU
  6
CONTINUOUS
 62
     4
 10
19722.784195817349
 20
13832.486978000001
 30
0.0
 11
19522.784195817359
 21
13832.486978000001
 31
0.0
  0
LINE
  5
13ED0
  8
SUNPOU
  6
CONTINUOUS
 62
     4
 10
20572.785515817359
 20
13789.989683000011
 30
0.0
 11
19522.784195817359
 21
13789.989683000011
 31
0.0
  0
LINE
  5
13ED1
  8
SUNPOU
  6
CONTINUOUS
 62
     4
 10
19602.784195817359
 20
13832.486978000001
 30
0.0
 11
19602.784195817359
 21
14072.486978000001
 31
0.0
  0
LINE
  5
13ED2
  8
SUNPOU
  6
CONTINUOUS
 62
     4
 10
19602.784195817359
 20
13789.989683000011
 30
0.0
 11
19602.784195817359
 21
13549.989683000011
 31
0.0
  0
LINE
  5
13ED3
  8
SUNPOU
  6
CONTINUOUS
 62
     4
 10
19602.784195817359
 20
13832.486978000001
 30
0.0
 11
19602.784195817359
 21
13789.989683000011
 31
0.0
  0
LINE
  5
13ED4
  8
SUNPOU
  6
CONTINUOUS
 62
     4
 10
22855.283799817342
 20
19440.48526300002
 30
0.0
 11
22855.283799817342
 21
20170.488166000039
 31
0.0
  0
LINE
  5
13ED5
  8
SUNPOU
  6
CONTINUOUS
 62
     4
 10
23613.284789317338
 20
19440.48526300002
 30
0.0
 11
23613.284789317338
 21
20170.488166000039
 31
0.0
  0
LINE
  5
13ED6
  8
SUNPOU
  6
CONTINUOUS
 62
     4
 10
22855.283799817342
 20
20090.488166000039
 30
0.0
 11
23613.284789317338
 21
20090.488166000039
 31
0.0
  0
LINE
  5
13ED7
  8
SUNPOU
  6
CONTINUOUS
 62
     4
 10
22154.283799817342
 20
19440.48526300002
 30
0.0
 11
22154.283799817342
 21
20170.488166000039
 31
0.0
  0
LINE
  5
13ED8
  8
SUNPOU
  6
CONTINUOUS
 62
     4
 10
22855.283799817342
 20
19440.48526300002
 30
0.0
 11
22855.283799817342
 21
20170.488166000039
 31
0.0
  0
LINE
  5
13ED9
  8
SUNPOU
  6
CONTINUOUS
 62
     4
 10
22154.283799817342
 20
20090.488166000039
 30
0.0
 11
22855.283799817342
 21
20090.488166000039
 31
0.0
  0
LINE
  5
13EDA
  8
SUNPOU
  6
CONTINUOUS
 62
     4
 10
21453.28379981732
 20
19440.48526300002
 30
0.0
 11
21453.28379981732
 21
20170.488166000039
 31
0.0
  0
LINE
  5
13EDB
  8
SUNPOU
  6
CONTINUOUS
 62
     4
 10
22154.283799817342
 20
19440.48526300002
 30
0.0
 11
22154.283799817342
 21
20170.488166000039
 31
0.0
  0
LINE
  5
13EDC
  8
SUNPOU
  6
CONTINUOUS
 62
     4
 10
21453.28379981732
 20
20090.488166000039
 30
0.0
 11
22154.283799817342
 21
20090.488166000039
 31
0.0
  0
LINE
  5
13EDD
  8
SUNPOU
  6
CONTINUOUS
 62
     4
 10
23613.283799817342
 20
19440.48526300002
 30
0.0
 11
23613.283799817342
 21
20170.488166000039
 31
0.0
  0
LINE
  5
13EDE
  8
SUNPOU
  6
CONTINUOUS
 62
     4
 10
23655.780104817331
 20
19440.48526300002
 30
0.0
 11
23655.780104817331
 21
20170.488166000039
 31
0.0
  0
LINE
  5
13EDF
  8
SUNPOU
  6
CONTINUOUS
 62
     4
 10
23613.283799817342
 20
20090.488166000039
 30
0.0
 11
23373.283799817342
 21
20090.488166000039
 31
0.0
  0
LINE
  5
13EE0
  8
SUNPOU
  6
CONTINUOUS
 62
     4
 10
23655.780104817331
 20
20090.488166000039
 30
0.0
 11
23895.780104817331
 21
20090.488166000039
 31
0.0
  0
LINE
  5
13EE1
  8
SUNPOU
  6
CONTINUOUS
 62
     4
 10
23613.283799817342
 20
20090.488166000039
 30
0.0
 11
23655.780104817331
 21
20090.488166000039
 31
0.0
  0
LINE
  5
13EE2
  8
SUNPOU
  6
CONTINUOUS
 62
     4
 10
20695.283799817342
 20
19440.48526300002
 30
0.0
 11
20695.283799817342
 21
20170.488166000039
 31
0.0
  0
LINE
  5
13EE3
  8
SUNPOU
  6
CONTINUOUS
 62
     4
 10
20652.78749481733
 20
19440.48526300002
 30
0.0
 11
20652.78749481733
 21
20170.488166000039
 31
0.0
  0
LINE
  5
13EE4
  8
SUNPOU
  6
CONTINUOUS
 62
     4
 10
20695.283799817342
 20
20090.488166000039
 30
0.0
 11
20935.283799817342
 21
20090.488166000039
 31
0.0
  0
LINE
  5
13EE5
  8
SUNPOU
  6
CONTINUOUS
 62
     4
 10
20652.78749481733
 20
20090.488166000039
 30
0.0
 11
20412.78749481733
 21
20090.488166000039
 31
0.0
  0
LINE
  5
13EE6
  8
SUNPOU
  6
CONTINUOUS
 62
     4
 10
20695.283799817342
 20
20090.488166000039
 30
0.0
 11
20652.78749481733
 21
20090.488166000039
 31
0.0
  0
TEXT
  5
13EE7
  8
0
  6
CONTINUOUS
 62
     7
 10
20092.471820288531
 20
20170.488166000039
 30
0.0
 40
160.0
  1
42.5
  0
TEXT
  5
13EE8
  8
0
  6
CONTINUOUS
 62
     7
 10
23736.09577934612
 20
20170.488166000039
 30
0.0
 40
160.0
  1
42.5
  0
TEXT
  5
13EE9
  8
0
  6
CONTINUOUS
 62
     7
 10
21630.450466483999
 20
20170.488166000039
 30
0.0
 40
160.0
  1
701
  0
TEXT
  5
13EEA
  8
0
  6
CONTINUOUS
 62
     7
 10
22331.450466483999
 20
20170.488166000039
 30
0.0
 40
160.0
  1
701
  0
TEXT
  5
13EEB
  8
0
  6
CONTINUOUS
 62
     7
 10
23020.95096123399
 20
20170.488166000039
 30
0.0
 40
160.0
  1
758
  0
TEXT
  5
13EEC
  8
0
  6
CONTINUOUS
 62
     7
 10
19522.784195817359
 20
13216.433446603211
 30
0.0
 40
160.0
  1
42.5
 50
90.0
  0
TEXT
  5
13EED
  8
0
  6
CONTINUOUS
 62
     7
 10
19522.784195817359
 20
19454.0405093968
 30
0.0
 40
160.0
  1
42.5
 50
90.0
  0
TEXT
  5
13EEE
  8
0
  6
CONTINUOUS
 62
     7
 10
19122.784195817349
 20
16188.570311333349
 30
0.0
 40
160.0
  1
5570.5
 50
90.0
  0
TEXT
  5
13EEF
  8
0
  6
CONTINUOUS
 62
     7
 10
19842.784195817349
 20
18386.65364466668
 30
0.0
 40
160.0
  1
701
 50
90.0
  0
TEXT
  5
13EF0
  8
0
  6
CONTINUOUS
 62
     7
 10
19522.784195817359
 20
17685.65364466668
 30
0.0
 40
160.0
  1
701
 50
90.0
  0
TEXT
  5
13EF1
  8
0
  6
CONTINUOUS
 62
     7
 10
19522.784195817359
 20
16916.15364466668
 30
0.0
 40
160.0
  1
758
 50
90.0
  0
TEXT
  5
13EF2
  8
0
  6
CONTINUOUS
 62
     7
 10
19522.784195817359
 20
16158.15364466668
 30
0.0
 40
160.0
  1
758
 50
90.0
  0
TEXT
  5
13EF3
  8
0
  6
CONTINUOUS
 62
     7
 10
19522.784195817359
 20
15468.773900416691
 30
0.0
 40
160.0
  1
701
 50
90.0
  0
TEXT
  5
13EF4
  8
0
  6
CONTINUOUS
 62
     7
 10
19522.784195817359
 20
14767.773900416691
 30
0.0
 40
160.0
  1
701
 50
90.0
  0
TEXT
  5
13EF5
  8
0
  6
CONTINUOUS
 62
     7
 10
19522.784195817359
 20
13998.153644666671
 30
0.0
 40
160.0
  1
758
 50
90.0
  0
TEXT
  5
13EF6
  8
0
  6
CONTINUOUS
 62
     7
 10
21887.61713315067
 20
12541.038893999999
 30
0.0
 40
160.0
  1
3003
  0
TEXT
  5
13EF7
  8
0
  6
CONTINUOUS
 62
     7
 10
20813.337472199419
 20
12941.03889400001
 30
0.0
 40
160.0
  1
42.5
  0
TEXT
  5
13EF8
  8
0
  6
CONTINUOUS
 62
     7
 10
23015.23012743525
 20
12941.03889400001
 30
0.0
 40
160.0
  1
42.5
  0
TEXT
  5
13EF9
  8
0
  6
CONTINUOUS
 62
     7
 10
23731.337472199419
 20
12941.03889400001
 30
0.0
 40
160.0
  1
42.5
  0
TEXT
  5
13EFA
  8
0
  6
CONTINUOUS
 62
     7
 10
20097.23012743525
 20
12941.03889400001
 30
0.0
 40
160.0
  1
42.5
  0
TEXT
  5
13EFB
  8
0
  6
CONTINUOUS
 62
     7
 10
19482.784195817349
 20
18619.864945643221
 30
0.0
 40
160.0
  1
407.5
 50
90.0
  0
TEXT
  5
13EFC
  8
0
  6
CONTINUOUS
 62
     7
 10
20860.950466483999
 20
20170.488166000039
 30
0.0
 40
160.0
  1
758
  0
ARC
  5
13EFD
  8
0
  6
BYBLOCK
 62
     0
 10
20695.283799817342
 20
20090.488166000039
 30
0.0
 40
15.0
 50
0.0
 51
180.0
  0
ARC
  5
13EFE
  8
0
  6
BYBLOCK
 62
     0
 10
20695.283799817342
 20
20090.488166000039
 30
0.0
 40
15.0
 50
180.0
 51
0.0
  0
ARC
  5
13EFF
  8
0
  6
BYBLOCK
 62
     0
 10
21453.28379981732
 20
20090.488166000039
 30
0.0
 40
15.0
 50
180.0
 51
0.0
  0
ARC
  5
13F00
  8
0
  6
BYBLOCK
 62
     0
 10
21453.28379981732
 20
20090.488166000039
 30
0.0
 40
15.0
 50
0.0
 51
180.0
  0
ARC
  5
13F01
  8
0
  6
BYBLOCK
 62
     0
 10
19602.784195817359
 20
18910.486978000001
 30
0.0
 40
15.0
 50
270.0
 51
90.0
  0
ARC
  5
13F02
  8
0
  6
BYBLOCK
 62
     0
 10
19602.784195817359
 20
18910.486978000001
 30
0.0
 40
15.0
 50
90.0
 51
270.0
  0
ARC
  5
13F03
  8
0
  6
BYBLOCK
 62
     0
 10
19602.784195817359
 20
19317.986978000012
 30
0.0
 40
15.0
 50
90.0
 51
270.0
  0
ARC
  5
13F04
  8
0
  6
BYBLOCK
 62
     0
 10
19602.784195817359
 20
19317.986978000012
 30
0.0
 40
15.0
 50
270.0
 51
90.0
  0
ARC
  5
13F05
  8
0
  6
BYBLOCK
 62
     0
 10
20695.283799817342
 20
12861.03889400001
 30
0.0
 40
15.0
 50
0.0
 51
180.0
  0
ARC
  5
13F06
  8
0
  6
BYBLOCK
 62
     0
 10
20695.283799817342
 20
12861.03889400001
 30
0.0
 40
15.0
 50
180.0
 51
0.0
  0
ARC
  5
13F07
  8
0
  6
BYBLOCK
 62
     0
 10
20652.781556817339
 20
12861.03889400001
 30
0.0
 40
15.0
 50
180.0
 51
0.0
  0
ARC
  5
13F08
  8
0
  6
BYBLOCK
 62
     0
 10
20652.781556817339
 20
12861.03889400001
 30
0.0
 40
15.0
 50
0.0
 51
180.0
  0
ARC
  5
13F09
  8
0
  6
BYBLOCK
 62
     0
 10
23613.283799817342
 20
12861.03889400001
 30
0.0
 40
15.0
 50
180.0
 51
0.0
  0
ARC
  5
13F0A
  8
0
  6
BYBLOCK
 62
     0
 10
23613.283799817342
 20
12861.03889400001
 30
0.0
 40
15.0
 50
0.0
 51
180.0
  0
ARC
  5
13F0B
  8
0
  6
BYBLOCK
 62
     0
 10
23655.78604281733
 20
12861.03889400001
 30
0.0
 40
15.0
 50
0.0
 51
180.0
  0
ARC
  5
13F0C
  8
0
  6
BYBLOCK
 62
     0
 10
23655.78604281733
 20
12861.03889400001
 30
0.0
 40
15.0
 50
180.0
 51
0.0
  0
ARC
  5
13F0D
  8
0
  6
BYBLOCK
 62
     0
 10
23613.283799817342
 20
12861.03889400001
 30
0.0
 40
15.0
 50
0.0
 51
180.0
  0
ARC
  5
13F0E
  8
0
  6
BYBLOCK
 62
     0
 10
23613.283799817342
 20
12861.03889400001
 30
0.0
 40
15.0
 50
180.0
 51
0.0
  0
ARC
  5
13F0F
  8
0
  6
BYBLOCK
 62
     0
 10
23570.781556817328
 20
12861.03889400001
 30
0.0
 40
15.0
 50
180.0
 51
0.0
  0
ARC
  5
13F10
  8
0
  6
BYBLOCK
 62
     0
 10
23570.781556817328
 20
12861.03889400001
 30
0.0
 40
15.0
 50
0.0
 51
180.0
  0
ARC
  5
13F11
  8
0
  6
BYBLOCK
 62
     0
 10
20695.283799817342
 20
12861.03889400001
 30
0.0
 40
15.0
 50
180.0
 51
0.0
  0
ARC
  5
13F12
  8
0
  6
BYBLOCK
 62
     0
 10
20695.283799817342
 20
12861.03889400001
 30
0.0
 40
15.0
 50
0.0
 51
180.0
  0
ARC
  5
13F13
  8
0
  6
BYBLOCK
 62
     0
 10
20737.786042817319
 20
12861.03889400001
 30
0.0
 40
15.0
 50
0.0
 51
180.0
  0
ARC
  5
13F14
  8
0
  6
BYBLOCK
 62
     0
 10
20737.786042817319
 20
12861.03889400001
 30
0.0
 40
15.0
 50
180.0
 51
0.0
  0
ARC
  5
13F15
  8
0
  6
BYBLOCK
 62
     0
 10
20652.781556817339
 20
12461.038893999999
 30
0.0
 40
15.0
 50
0.0
 51
180.0
  0
ARC
  5
13F16
  8
0
  6
BYBLOCK
 62
     0
 10
20652.781556817339
 20
12461.038893999999
 30
0.0
 40
15.0
 50
180.0
 51
0.0
  0
ARC
  5
13F17
  8
0
  6
BYBLOCK
 62
     0
 10
23655.78604281733
 20
12461.038893999999
 30
0.0
 40
15.0
 50
180.0
 51
0.0
  0
ARC
  5
13F18
  8
0
  6
BYBLOCK
 62
     0
 10
23655.78604281733
 20
12461.038893999999
 30
0.0
 40
15.0
 50
0.0
 51
180.0
  0
ARC
  5
13F19
  8
0
  6
BYBLOCK
 62
     0
 10
19602.784195817359
 20
14590.48697800001
 30
0.0
 40
15.0
 50
90.0
 51
270.0
  0
ARC
  5
13F1A
  8
0
  6
BYBLOCK
 62
     0
 10
19602.784195817359
 20
14590.48697800001
 30
0.0
 40
15.0
 50
270.0
 51
90.0
  0
ARC
  5
13F1B
  8
0
  6
BYBLOCK
 62
     0
 10
19602.784195817359
 20
13832.486978000001
 30
0.0
 40
15.0
 50
270.0
 51
90.0
  0
ARC
  5
13F1C
  8
0
  6
BYBLOCK
 62
     0
 10
19602.784195817359
 20
13832.486978000001
 30
0.0
 40
15.0
 50
90.0
 51
270.0
  0
ARC
  5
13F1D
  8
0
  6
BYBLOCK
 62
     0
 10
19602.784195817359
 20
15291.72748950003
 30
0.0
 40
15.0
 50
90.0
 51
270.0
  0
ARC
  5
13F1E
  8
0
  6
BYBLOCK
 62
     0
 10
19602.784195817359
 20
15291.72748950003
 30
0.0
 40
15.0
 50
270.0
 51
90.0
  0
ARC
  5
13F1F
  8
0
  6
BYBLOCK
 62
     0
 10
19602.784195817359
 20
14590.48697800001
 30
0.0
 40
15.0
 50
270.0
 51
90.0
  0
ARC
  5
13F20
  8
0
  6
BYBLOCK
 62
     0
 10
19602.784195817359
 20
14590.48697800001
 30
0.0
 40
15.0
 50
90.0
 51
270.0
  0
ARC
  5
13F21
  8
0
  6
BYBLOCK
 62
     0
 10
19602.784195817359
 20
15992.48697800001
 30
0.0
 40
15.0
 50
90.0
 51
270.0
  0
ARC
  5
13F22
  8
0
  6
BYBLOCK
 62
     0
 10
19602.784195817359
 20
15992.48697800001
 30
0.0
 40
15.0
 50
270.0
 51
90.0
  0
ARC
  5
13F23
  8
0
  6
BYBLOCK
 62
     0
 10
19602.784195817359
 20
15291.72748950003
 30
0.0
 40
15.0
 50
270.0
 51
90.0
  0
ARC
  5
13F24
  8
0
  6
BYBLOCK
 62
     0
 10
19602.784195817359
 20
15291.72748950003
 30
0.0
 40
15.0
 50
90.0
 51
270.0
  0
ARC
  5
13F25
  8
0
  6
BYBLOCK
 62
     0
 10
19602.784195817359
 20
16750.486978000012
 30
0.0
 40
15.0
 50
90.0
 51
270.0
  0
ARC
  5
13F26
  8
0
  6
BYBLOCK
 62
     0
 10
19602.784195817359
 20
16750.486978000012
 30
0.0
 40
15.0
 50
270.0
 51
90.0
  0
ARC
  5
13F27
  8
0
  6
BYBLOCK
 62
     0
 10
19602.784195817359
 20
15992.48697800001
 30
0.0
 40
15.0
 50
270.0
 51
90.0
  0
ARC
  5
13F28
  8
0
  6
BYBLOCK
 62
     0
 10
19602.784195817359
 20
15992.48697800001
 30
0.0
 40
15.0
 50
90.0
 51
270.0
  0
ARC
  5
13F29
  8
0
  6
BYBLOCK
 62
     0
 10
19602.784195817359
 20
17508.486978000012
 30
0.0
 40
15.0
 50
90.0
 51
270.0
  0
ARC
  5
13F2A
  8
0
  6
BYBLOCK
 62
     0
 10
19602.784195817359
 20
17508.486978000012
 30
0.0
 40
15.0
 50
270.0
 51
90.0
  0
ARC
  5
13F2B
  8
0
  6
BYBLOCK
 62
     0
 10
19602.784195817359
 20
16750.486978000012
 30
0.0
 40
15.0
 50
270.0
 51
90.0
  0
ARC
  5
13F2C
  8
0
  6
BYBLOCK
 62
     0
 10
19602.784195817359
 20
16750.486978000012
 30
0.0
 40
15.0
 50
90.0
 51
270.0
  0
ARC
  5
13F2D
  8
0
  6
BYBLOCK
 62
     0
 10
19602.784195817359
 20
18209.486978000012
 30
0.0
 40
15.0
 50
90.0
 51
270.0
  0
ARC
  5
13F2E
  8
0
  6
BYBLOCK
 62
     0
 10
19602.784195817359
 20
18209.486978000012
 30
0.0
 40
15.0
 50
270.0
 51
90.0
  0
ARC
  5
13F2F
  8
0
  6
BYBLOCK
 62
     0
 10
19602.784195817359
 20
17508.486978000012
 30
0.0
 40
15.0
 50
270.0
 51
90.0
  0
ARC
  5
13F30
  8
0
  6
BYBLOCK
 62
     0
 10
19602.784195817359
 20
17508.486978000012
 30
0.0
 40
15.0
 50
90.0
 51
270.0
  0
ARC
  5
13F31
  8
0
  6
BYBLOCK
 62
     0
 10
19602.784195817359
 20
18910.486978000001
 30
0.0
 40
15.0
 50
90.0
 51
270.0
  0
ARC
  5
13F32
  8
0
  6
BYBLOCK
 62
     0
 10
19602.784195817359
 20
18910.486978000001
 30
0.0
 40
15.0
 50
270.0
 51
90.0
  0
ARC
  5
13F33
  8
0
  6
BYBLOCK
 62
     0
 10
19602.784195817359
 20
18209.486978000012
 30
0.0
 40
15.0
 50
270.0
 51
90.0
  0
ARC
  5
13F34
  8
0
  6
BYBLOCK
 62
     0
 10
19602.784195817359
 20
18209.486978000012
 30
0.0
 40
15.0
 50
90.0
 51
270.0
  0
ARC
  5
13F35
  8
0
  6
BYBLOCK
 62
     0
 10
19602.784195817359
 20
19317.986978000001
 30
0.0
 40
15.0
 50
90.0
 51
270.0
  0
ARC
  5
13F36
  8
0
  6
BYBLOCK
 62
     0
 10
19602.784195817359
 20
19317.986978000001
 30
0.0
 40
15.0
 50
270.0
 51
90.0
  0
ARC
  5
13F37
  8
0
  6
BYBLOCK
 62
     0
 10
19602.784195817359
 20
13832.486978000001
 30
0.0
 40
15.0
 50
270.0
 51
90.0
  0
ARC
  5
13F38
  8
0
  6
BYBLOCK
 62
     0
 10
19602.784195817359
 20
13832.486978000001
 30
0.0
 40
15.0
 50
90.0
 51
270.0
  0
ARC
  5
13F39
  8
0
  6
BYBLOCK
 62
     0
 10
19202.784195817349
 20
19360.484273000009
 30
0.0
 40
15.0
 50
90.0
 51
270.0
  0
ARC
  5
13F3A
  8
0
  6
BYBLOCK
 62
     0
 10
19202.784195817349
 20
19360.484273000009
 30
0.0
 40
15.0
 50
270.0
 51
90.0
  0
ARC
  5
13F3B
  8
0
  6
BYBLOCK
 62
     0
 10
19202.784195817349
 20
13789.989683000011
 30
0.0
 40
15.0
 50
270.0
 51
90.0
  0
ARC
  5
13F3C
  8
0
  6
BYBLOCK
 62
     0
 10
19202.784195817349
 20
13789.989683000011
 30
0.0
 40
15.0
 50
90.0
 51
270.0
  0
ARC
  5
13F3D
  8
0
  6
BYBLOCK
 62
     0
 10
19602.784195817359
 20
19317.986978000001
 30
0.0
 40
15.0
 50
90.0
 51
270.0
  0
ARC
  5
13F3E
  8
0
  6
BYBLOCK
 62
     0
 10
19602.784195817359
 20
19317.986978000001
 30
0.0
 40
15.0
 50
270.0
 51
90.0
  0
ARC
  5
13F3F
  8
0
  6
BYBLOCK
 62
     0
 10
19602.784195817359
 20
19360.484273000009
 30
0.0
 40
15.0
 50
270.0
 51
90.0
  0
ARC
  5
13F40
  8
0
  6
BYBLOCK
 62
     0
 10
19602.784195817359
 20
19360.484273000009
 30
0.0
 40
15.0
 50
90.0
 51
270.0
  0
ARC
  5
13F41
  8
0
  6
BYBLOCK
 62
     0
 10
19602.784195817359
 20
13832.486978000001
 30
0.0
 40
15.0
 50
270.0
 51
90.0
  0
ARC
  5
13F42
  8
0
  6
BYBLOCK
 62
     0
 10
19602.784195817359
 20
13832.486978000001
 30
0.0
 40
15.0
 50
90.0
 51
270.0
  0
ARC
  5
13F43
  8
0
  6
BYBLOCK
 62
     0
 10
19602.784195817359
 20
13789.989683000011
 30
0.0
 40
15.0
 50
90.0
 51
270.0
  0
ARC
  5
13F44
  8
0
  6
BYBLOCK
 62
     0
 10
19602.784195817359
 20
13789.989683000011
 30
0.0
 40
15.0
 50
270.0
 51
90.0
  0
ARC
  5
13F45
  8
0
  6
BYBLOCK
 62
     0
 10
22855.283799817342
 20
20090.488166000039
 30
0.0
 40
15.0
 50
0.0
 51
180.0
  0
ARC
  5
13F46
  8
0
  6
BYBLOCK
 62
     0
 10
22855.283799817342
 20
20090.488166000039
 30
0.0
 40
15.0
 50
180.0
 51
0.0
  0
ARC
  5
13F47
  8
0
  6
BYBLOCK
 62
     0
 10
23613.284789317338
 20
20090.488166000039
 30
0.0
 40
15.0
 50
180.0
 51
0.0
  0
ARC
  5
13F48
  8
0
  6
BYBLOCK
 62
     0
 10
23613.284789317338
 20
20090.488166000039
 30
0.0
 40
15.0
 50
0.0
 51
180.0
  0
ARC
  5
13F49
  8
0
  6
BYBLOCK
 62
     0
 10
22154.283799817342
 20
20090.488166000039
 30
0.0
 40
15.0
 50
0.0
 51
180.0
  0
ARC
  5
13F4A
  8
0
  6
BYBLOCK
 62
     0
 10
22154.283799817342
 20
20090.488166000039
 30
0.0
 40
15.0
 50
180.0
 51
0.0
  0
ARC
  5
13F4B
  8
0
  6
BYBLOCK
 62
     0
 10
22855.283799817342
 20
20090.488166000039
 30
0.0
 40
15.0
 50
180.0
 51
0.0
  0
ARC
  5
13F4C
  8
0
  6
BYBLOCK
 62
     0
 10
22855.283799817342
 20
20090.488166000039
 30
0.0
 40
15.0
 50
0.0
 51
180.0
  0
ARC
  5
13F4D
  8
0
  6
BYBLOCK
 62
     0
 10
21453.28379981732
 20
20090.488166000039
 30
0.0
 40
15.0
 50
0.0
 51
180.0
  0
ARC
  5
13F4E
  8
0
  6
BYBLOCK
 62
     0
 10
21453.28379981732
 20
20090.488166000039
 30
0.0
 40
15.0
 50
180.0
 51
0.0
  0
ARC
  5
13F4F
  8
0
  6
BYBLOCK
 62
     0
 10
22154.283799817342
 20
20090.488166000039
 30
0.0
 40
15.0
 50
180.0
 51
0.0
  0
ARC
  5
13F50
  8
0
  6
BYBLOCK
 62
     0
 10
22154.283799817342
 20
20090.488166000039
 30
0.0
 40
15.0
 50
0.0
 51
180.0
  0
ARC
  5
13F51
  8
0
  6
BYBLOCK
 62
     0
 10
23613.283799817342
 20
20090.488166000039
 30
0.0
 40
15.0
 50
180.0
 51
0.0
  0
ARC
  5
13F52
  8
0
  6
BYBLOCK
 62
     0
 10
23613.283799817342
 20
20090.488166000039
 30
0.0
 40
15.0
 50
0.0
 51
180.0
  0
ARC
  5
13F53
  8
0
  6
BYBLOCK
 62
     0
 10
23655.780104817331
 20
20090.488166000039
 30
0.0
 40
15.0
 50
0.0
 51
180.0
  0
ARC
  5
13F54
  8
0
  6
BYBLOCK
 62
     0
 10
23655.780104817331
 20
20090.488166000039
 30
0.0
 40
15.0
 50
180.0
 51
0.0
  0
ARC
  5
13F55
  8
0
  6
BYBLOCK
 62
     0
 10
20695.283799817342
 20
20090.488166000039
 30
0.0
 40
15.0
 50
0.0
 51
180.0
  0
ARC
  5
13F56
  8
0
  6
BYBLOCK
 62
     0
 10
20695.283799817342
 20
20090.488166000039
 30
0.0
 40
15.0
 50
180.0
 51
0.0
  0
ARC
  5
13F57
  8
0
  6
BYBLOCK
 62
     0
 10
20652.78749481733
 20
20090.488166000039
 30
0.0
 40
15.0
 50
180.0
 51
0.0
  0
ARC
  5
13F58
  8
0
  6
BYBLOCK
 62
     0
 10
20652.78749481733
 20
20090.488166000039
 30
0.0
 40
15.0
 50
0.0
 51
180.0
  0
TEXT
  5
1401D
  8
FILENAME
  6
CONTINUOUS
 10
26480.190476190481
 20
348.0
 30
0.0
 40
200.0
  1
＜VGC-3055+VKC-5055-R-1-A_0.DXF ＞
  7
FILENAME
 72
     2
 11
32764.0
 21
348.0
 31
0.0
  0
LINE
  5
14022
  8
WAKUSEN-01
 10
868.00000000000193
 20
827.99999999999955
 30
0.0
 11
32764.000000000011
 21
827.99999999999943
 31
0.0
  0
LINE
  5
14023
  8
WAKUSEN-01
 10
868.00000000000193
 20
827.99999999999955
 30
0.0
 11
868.00000000000193
 21
22484.000000000011
 31
0.0
  0
LINE
  5
14024
  8
WAKUSEN-01
 10
32764.000000000011
 20
827.99999999999943
 30
0.0
 11
32764.000000000011
 21
22484.000000000011
 31
0.0
  0
LINE
  5
14025
  8
WAKUSEN-01
 10
20560.0
 20
827.99999999999716
 30
0.0
 11
20560.0
 21
2484.0
 31
0.0
  0
LINE
  5
14026
  8
WAKUSEN-02
 10
26868.0
 20
827.99999999999261
 30
0.0
 11
26868.0
 21
2484.0
 31
0.0
  0
ENDSEC
  0
EOF
