  0
SECTION
  2
HEADER
  9
$ACADVER
  1
AC1009
  9
$INSBASE
 10
0.0
 20
0.0
 30
0.0
  9
$EXTMIN
 10
867.99324330406671
 20
327.38164749855792
 30
-0.000000000000013
  9
$EXTMAX
 10
32765.33210850941
 20
22484.553276491992
 30
0.0000000000000023
  9
$LIMMIN
 10
0.0
 20
0.0
  9
$LIMMAX
 10
33600.0
 20
23760.0
  9
$ORTHOMODE
 70
     1
  9
$REGENMODE
 70
     1
  9
$FILLMODE
 70
     1
  9
$QTEXTMODE
 70
     0
  9
$MIRRTEXT
 70
     0
  9
$DRAGMODE
 70
     2
  9
$LTSCALE
 40
80.0
  9
$OSMODE
 70
  3071
  9
$ATTMODE
 70
     1
  9
$TEXTSIZE
 40
0.2
  9
$TRACEWID
 40
0.05
  9
$TEXTSTYLE
  7
00
  9
$CLAYER
  8
0
  9
$CELTYPE
  6
BYLAYER
  9
$CECOLOR
 62
   256
  9
$DIMSCALE
 40
80.0
  9
$DIMASZ
 40
3.0
  9
$DIMEXO
 40
1.0
  9
$DIMDLI
 40
0.38
  9
$DIMRND
 40
0.5
  9
$DIMDLE
 40
0.0
  9
$DIMEXE
 40
1.0
  9
$DIMTP
 40
0.0
  9
$DIMTM
 40
0.0
  9
$DIMTXT
 40
2.0
  9
$DIMCEN
 40
0.09
  9
$DIMTSZ
 40
0.0
  9
$DIMTOL
 70
     0
  9
$DIMLIM
 70
     0
  9
$DIMTIH
 70
     0
  9
$DIMTOH
 70
     0
  9
$DIMSE1
 70
     0
  9
$DIMSE2
 70
     0
  9
$DIMTAD
 70
     1
  9
$DIMZIN
 70
     8
  9
$DIMBLK
  1
DOTSMALL
  9
$DIMASO
 70
     1
  9
$DIMSHO
 70
     1
  9
$DIMPOST
  1

  9
$DIMAPOST
  1

  9
$DIMALT
 70
     0
  9
$DIMALTD
 70
     2
  9
$DIMALTF
 40
25.399999999999999
  9
$DIMLFAC
 40
1.0
  9
$DIMTOFL
 70
     1
  9
$DIMTVP
 40
0.0
  9
$DIMTIX
 70
     0
  9
$DIMSOXD
 70
     0
  9
$DIMSAH
 70
     0
  9
$DIMBLK1
  1

  9
$DIMBLK2
  1

  9
$DIMSTYLE
  2
SUNPOU
  9
$DIMCLRD
 70
     4
  9
$DIMCLRE
 70
     4
  9
$DIMCLRT
 70
     7
  9
$DIMTFAC
 40
1.0
  9
$DIMGAP
 40
1.0
  9
$LUNITS
 70
     2
  9
$LUPREC
 70
     4
  9
$SKETCHINC
 40
0.1
  9
$FILLETRAD
 40
0.0
  9
$AUNITS
 70
     0
  9
$AUPREC
 70
     0
  9
$MENU
  1
acad
  9
$ELEVATION
 40
0.0
  9
$PELEVATION
 40
0.0
  9
$THICKNESS
 40
0.0
  9
$LIMCHECK
 70
     0
  9
$BLIPMODE
 70
     1
  9
$CHAMFERA
 40
0.0
  9
$CHAMFERB
 40
0.0
  9
$SKPOLY
 70
     0
  9
$TDCREATE
 40
2311940.075052408
  9
$TDUPDATE
 40
2458942.4553033328
  9
$TDINDWG
 40
0.4087863194
  9
$TDUSRTIMER
 40
0.4087856019
  9
$USRTIMER
 70
     1
  9
$ANGBASE
 50
0.0
  9
$ANGDIR
 70
     0
  9
$PDMODE
 70
     0
  9
$PDSIZE
 40
0.0
  9
$PLINEWID
 40
0.0
  9
$COORDS
 70
     1
  9
$SPLFRAME
 70
     0
  9
$SPLINETYPE
 70
     6
  9
$SPLINESEGS
 70
     8
  9
$ATTDIA
 70
     1
  9
$ATTREQ
 70
     1
  9
$HANDLING
 70
     1
  9
$HANDSEED
  5
154B3
  9
$SURFTAB1
 70
     6
  9
$SURFTAB2
 70
     6
  9
$SURFTYPE
 70
     6
  9
$SURFU
 70
     6
  9
$SURFV
 70
     6
  9
$UCSNAME
  2

  9
$UCSORG
 10
0.0
 20
0.0
 30
0.0
  9
$UCSXDIR
 10
1.0
 20
0.0
 30
0.0
  9
$UCSYDIR
 10
0.0
 20
1.0
 30
0.0
  9
$PUCSNAME
  2

  9
$PUCSORG
 10
0.0
 20
0.0
 30
0.0
  9
$PUCSXDIR
 10
1.0
 20
0.0
 30
0.0
  9
$PUCSYDIR
 10
0.0
 20
1.0
 30
0.0
  9
$USERI1
 70
     0
  9
$USERI2
 70
     0
  9
$USERI3
 70
     0
  9
$USERI4
 70
     0
  9
$USERI5
 70
     0
  9
$USERR1
 40
0.0
  9
$USERR2
 40
0.0
  9
$USERR3
 40
0.0
  9
$USERR4
 40
0.0
  9
$USERR5
 40
0.0
  9
$WORLDVIEW
 70
     1
  9
$SHADEDGE
 70
     3
  9
$SHADEDIF
 70
    70
  9
$TILEMODE
 70
     1
  9
$MAXACTVP
 70
    16
  9
$PLIMCHECK
 70
     0
  9
$PEXTMIN
 10
1.0000000000000000E+020
 20
1.0000000000000000E+020
 30
1.0000000000000000E+020
  9
$PEXTMAX
 10
-1.0000000000000000E+020
 20
-1.0000000000000000E+020
 30
-1.0000000000000000E+020
  9
$PLIMMIN
 10
0.0
 20
0.0
  9
$PLIMMAX
 10
12.0
 20
9.0
  9
$UNITMODE
 70
     0
  9
$VISRETAIN
 70
     0
  9
$PLINEGEN
 70
     1
  9
$PSLTSCALE
 70
     0
  0
ENDSEC
  0
SECTION
  2
TABLES
  0
TABLE
  2
VPORT
 70
     1
  0
VPORT
  2
*ACTIVE
 70
     0
 10
0.0
 20
0.0
 11
1.0
 21
1.0
 12
16800.0
 22
11880.0
 13
0.0
 23
0.0
 14
1.0
 24
1.0
 15
0.0
 25
0.0
 16
0.0
 26
0.0
 36
1.0
 17
0.0
 27
0.0
 37
0.0
 40
23981.023255813951
 41
2.195652173913043
 42
50.0
 43
0.0
 44
0.0
 50
0.0
 51
0.0
 71
     0
 72
 10000
 73
     1
 74
     1
 75
     0
 76
     0
 77
     0
 78
     0
  0
ENDTAB
  0
TABLE
  2
LTYPE
 70
     6
  0
LTYPE
  2
CONTINUOUS
 70
     0
  3
Solid line
 72
    65
 73
     0
 40
0.0
  0
LTYPE
  2
DASHED3
 70
     0
  3
------  ------  ------  ------  
 72
    65
 73
     2
 40
5.0
 49
3.75
 49
-1.25
  0
LTYPE
  2
CENTER2
 70
     0
  3
----------  --  ----------  --  
 72
    65
 73
     4
 40
20.0
 49
12.5
 49
-2.5
 49
2.5
 49
-2.5
  0
LTYPE
  2
HIDE-M
 70
     0
  3

 72
    65
 73
     2
 40
2.0
 49
1.0
 49
-1.0
  0
LTYPE
  2
1PL-M
 70
     0
  3

 72
    65
 73
     4
 40
15.0
 49
12.0
 49
-1.0
 49
1.0
 49
-1.0
  0
LTYPE
  2
PHANTOM2
 70
     0
  3
___ _ _ ___ _ _ ___ _ _ ___ _ _
 72
    65
 73
     6
 40
1.25
 49
0.625
 49
-0.125
 49
0.125
 49
-0.125
 49
0.125
 49
-0.125
  0
ENDTAB
  0
TABLE
  2
LAYER
 70
    24
  0
LAYER
  2
0
 70
     0
 62
     7
  6
CONTINUOUS
  0
LAYER
  2
SUNPOU
 70
     0
 62
     4
  6
CONTINUOUS
  0
LAYER
  2
0-1
 70
     0
 62
     7
  6
CONTINUOUS
  0
LAYER
  2
0-2
 70
     0
 62
     7
  6
CONTINUOUS
  0
LAYER
  2
0-5
 70
     0
 62
     7
  6
CONTINUOUS
  0
LAYER
  2
0-6
 70
     0
 62
     7
  6
CONTINUOUS
  0
LAYER
  2
2-0
 70
     0
 62
     7
  6
CONTINUOUS
  0
LAYER
  2
0-8
 70
     0
 62
     7
  6
CONTINUOUS
  0
LAYER
  2
YODOROGO
 70
     0
 62
   130
  6
CONTINUOUS
  0
LAYER
  2
WAKUSEN-01
 70
     0
 62
    50
  6
CONTINUOUS
  0
LAYER
  2
WAKUSEN-02
 70
     0
 62
   130
  6
CONTINUOUS
  0
LAYER
  2
WAKUMOJI-01
 70
     0
 62
   130
  6
CONTINUOUS
  0
LAYER
  2
FILENAME
 70
     0
 62
     7
  6
CONTINUOUS
  0
LAYER
  2
NAME
 70
     0
 62
    20
  6
CONTINUOUS
  0
LAYER
  2
0-4
 70
     0
 62
     7
  6
CONTINUOUS
  0
LAYER
  2
1-前柱P
 70
     0
 62
     3
  6
CONTINUOUS
  0
LAYER
  2
1-前柱カバ-P
 70
     0
 62
     3
  6
CONTINUOUS
  0
LAYER
  2
1-桁前P28
 70
     0
 62
     3
  6
CONTINUOUS
  0
LAYER
  2
1-後柱P
 70
     0
 62
     3
  6
CONTINUOUS
  0
LAYER
  2
1-中柱P
 70
     0
 62
     3
  6
CONTINUOUS
  0
LAYER
  2
1-後柱カバ-P
 70
     0
 62
     7
  6
CONTINUOUS
  0
LAYER
  2
1-中柱カバ-P
 70
     0
 62
     7
  6
CONTINUOUS
  0
ENDTAB
  0
TABLE
  2
STYLE
 70
     5
  0
STYLE
  2
STANDARD
 70
     0
 40
0.0
 41
1.0
 50
0.0
 71
     0
 42
0.0
  3
txt
  4
BIGFONT
  0
STYLE
  2
00
 70
     0
 40
0.0
 41
0.6666666666666666
 50
0.0
 71
     0
 42
0.2
  3
ROMANS
  4
BIGFONT
  0
STYLE
  2
01
 70
     0
 40
3.0
 41
1.0
 50
0.0
 71
     0
 42
0.2
  3
ROMANS
  4
BIGFONT
  0
STYLE
  2
WAKUMOJI
 70
     0
 40
3.0
 41
1.0
 50
0.0
 71
     0
 42
3.0
  3
SIMPLEX
  4
BIGFONT
  0
STYLE
  2
FILENAME
 70
     0
 40
200.0
 41
1.0
 50
0.0
 71
     0
 42
200.0
  3
romans
  4
bigfont
  0
ENDTAB
  0
TABLE
  2
VIEW
 70
     0
  0
ENDTAB
  0
TABLE
  2
UCS
 70
     0
  0
ENDTAB
  0
TABLE
  2
APPID
 70
    17
  0
APPID
  2
ACAD
 70
     0
  0
APPID
  2
ACADANNOTATIVE
 70
     0
  0
APPID
  2
ACAD_PSEXT
 70
     0
  0
APPID
  2
DCO15
 70
     0
  0
APPID
  2
ACAD_MLEADERVER
 70
     0
  0
APPID
  2
AUTOCAD_POSTSCRIPT_FIGURE
 70
     0
  0
APPID
  2
ACAD_EXEMPT_FROM_CAD_STANDARDS
 70
     0
  0
APPID
  2
ACLAYERTOOLS
 70
     0
  0
APPID
  2
ACAD_DSTYLE_DIMJAG
 70
     0
  0
APPID
  2
ACAD_DSTYLE_DIMTALN
 70
     0
  0
APPID
  2
ACAECLAYERSTANDARD
 70
     0
  0
APPID
  2
ACAD_DSTYLE_DIMBREAK
 70
     0
  0
APPID
  2
ACAD_DSTYLE_DIM_LINETYPE
 70
     0
  0
APPID
  2
ACAD_DSTYLE_DIM_EXT1_LINETYPE
 70
     0
  0
APPID
  2
ACAD_DSTYLE_DIM_EXT2_LINETYPE
 70
     0
  0
APPID
  2
ACAD_DSTYLE_DIMFLIPARROW_W
 70
     0
  0
APPID
  2
ACAD_NAV_VCDISPLAY
 70
     0
  0
ENDTAB
  0
TABLE
  2
DIMSTYLE
 70
     2
  0
DIMSTYLE
  2
SUNPOU
 70
     0
  3

  4

  5

  6

  7

 40
80.0
 41
3.0
 42
1.0
 43
0.38
 44
1.0
 45
0.5
 46
0.0
 47
0.0
 48
0.0
140
2.0
141
0.09
142
0.0
143
25.399999999999999
144
1.0
145
0.0
146
1.0
147
1.0
 71
     0
 72
     0
 73
     0
 74
     0
 75
     0
 76
     0
 77
     1
 78
     8
170
     0
171
     2
172
     1
173
     0
174
     0
175
     0
176
     4
177
     4
178
     7
  0
ENDTAB
  0
ENDSEC
  0
SECTION
  2
BLOCKS
  0
BLOCK
  8
0
  2
$MODEL_SPACE
 70
     0
 10
0.0
 20
0.0
 30
0.0
  3
$MODEL_SPACE
  1

  0
ENDBLK
  5
14359
  8
0
  0
BLOCK
 67
     1
  8
0
  2
$PAPER_SPACE
 70
     0
 10
0.0
 20
0.0
 30
0.0
  3
$PAPER_SPACE
  1

  0
ENDBLK
  5
14355
 67
     1
  8
0
  0
BLOCK
  8
0
  2
_DOTSMALL
 70
     0
 10
0.0
 20
0.0
 30
0.0
  3
_DOTSMALL
  1

  0
POLYLINE
  5
14395
  8
0
  6
BYBLOCK
 62
     0
 66
     1
 10
0.0
 20
0.0
 30
0.0
 70
     1
 40
0.5
 41
0.5
  0
VERTEX
  5
1547B
  8
0
  6
BYBLOCK
 62
     0
 10
-0.0625
 20
0.0
 30
0.0
 42
1.0
  0
VERTEX
  5
1547C
  8
0
  6
BYBLOCK
 62
     0
 10
0.0625
 20
0.0
 30
0.0
 42
1.0
  0
SEQEND
  5
1547D
  8
0
  6
BYBLOCK
 62
     0
  0
ENDBLK
  5
14399
  8
0
  0
ENDSEC
  0
SECTION
  2
ENTITIES
  0
CIRCLE
  5
1439A
  8
0-5
  6
CONTINUOUS
 62
     4
 10
15128.71667799999
 20
1375.999982000001
 30
0.0
 40
20.0
  0
ARC
  5
1439B
  8
0-5
  6
CONTINUOUS
 62
     4
 10
15128.71667799999
 20
1375.999982000001
 30
0.0
 40
20.0
 50
180.0
 51
0.0
  0
ARC
  5
1439C
  8
0-5
  6
CONTINUOUS
 62
     4
 10
15128.71667799999
 20
1375.999982000001
 30
0.0
 40
20.0
 50
0.0
 51
179.99998500000001
  0
CIRCLE
  5
1439D
  8
0-5
  6
CONTINUOUS
 62
     4
 10
15128.71667799999
 20
1775.999321999999
 30
0.0
 40
20.0
  0
ARC
  5
1439E
  8
0-5
  6
CONTINUOUS
 62
     4
 10
15128.71667799999
 20
1775.999321999999
 30
0.0
 40
20.0
 50
180.0
 51
0.0
  0
ARC
  5
1439F
  8
0-5
  6
CONTINUOUS
 62
     4
 10
15128.71667799999
 20
1775.999321999999
 30
0.0
 40
20.0
 50
0.0
 51
179.99998500000001
  0
TEXT
  5
143A0
  8
0-5
  6
CONTINUOUS
 62
     7
 10
16661.217403999992
 20
1655.999792000001
 30
0.0
 40
160.0
  1
H
  0
TEXT
  5
143A1
  8
0-5
  6
CONTINUOUS
 62
     7
 10
15176.146933
 20
1655.999792000001
 30
0.0
 40
160.0
  1
（ ）内寸法ハ、  タイプヲ示ス。
  0
TEXT
  5
143A2
  8
0-5
  6
CONTINUOUS
 62
     7
 10
15288.716216000001
 20
1255.999462
 30
0.0
 40
160.0
  1
有効高サハ、基礎高サヲ含ミマセン。
  0
TEXT
  5
143A3
  8
2-0
  6
CONTINUOUS
 62
     7
 10
22773.572501657331
 20
11251.104441999991
 30
0.0
 40
160.0
  1
平　面　図
 72
     4
 11
23226.905834990659
 21
11325.77110866666
 31
0.0
  0
TEXT
  5
143A4
  8
2-0
  6
CONTINUOUS
 62
     7
 10
9548.7421762069662
 20
11156.81700299998
 30
0.0
 40
160.0
  1
小 屋 伏 図
 72
     4
 11
10050.0755095403
 21
11236.81700299998
 31
0.0
  0
TEXT
  5
143A5
  8
2-0
  6
CONTINUOUS
 62
     7
 10
22442.673665428068
 20
3292.802588999999
 30
0.0
 40
160.0
  1
正 面 立 面 図
 72
     4
 11
23088.006998761401
 21
3372.802588999999
 31
0.0
  0
TEXT
  5
143A6
  8
2-0
  6
CONTINUOUS
 62
     7
 10
9309.2069363103456
 20
3264.0669070000022
 30
0.0
 40
160.0
  1
側 面 立 面 図
 50
0.000139
 72
     4
 11
9954.5400755611681
 21
3344.0684725833762
 31
0.0
  0
TEXT
  5
143AA
  8
2-0
  6
CONTINUOUS
 62
     7
 10
11306.032260698779
 20
3291.2638415833758
 30
0.0
 40
160.0
  1
1
 72
     4
 11
11332.698927365451
 21
3371.2638415833749
 31
0.0
  0
TEXT
  5
143AB
  8
2-0
  6
CONTINUOUS
 62
     7
 10
11549.12097794948
 20
3211.2653095833762
 30
0.0
 40
160.0
  1
80
 72
     4
 11
11669.12097794948
 21
3291.2653095833762
 31
0.0
  0
TEXT
  5
143AC
  8
2-0
  6
CONTINUOUS
 62
     7
 10
10807.03422669879
 20
3264.0684725833762
 30
0.0
 40
160.0
  1
(S=  /   )
 72
     4
 11
11367.03422669879
 21
3344.0684725833762
 31
0.0
  0
TEXT
  5
143AD
  8
2-0
  6
CONTINUOUS
 62
     7
 10
24439.499183899021
 20
3319.9979579999999
 30
0.0
 40
160.0
  1
1
 72
     4
 11
24466.165850565689
 21
3399.9979579999999
 31
0.0
  0
TEXT
  5
143AE
  8
2-0
  6
CONTINUOUS
 62
     7
 10
24682.587901149709
 20
3239.9994260000021
 30
0.0
 40
160.0
  1
80
 72
     4
 11
24802.587901149709
 21
3319.9994260000012
 31
0.0
  0
TEXT
  5
143AF
  8
2-0
  6
CONTINUOUS
 62
     7
 10
23940.50114989901
 20
3292.802588999999
 30
0.0
 40
160.0
  1
(S=  /   )
 72
     4
 11
24500.50114989901
 21
3372.802588999999
 31
0.0
  0
TEXT
  5
143B0
  8
2-0
  6
CONTINUOUS
 62
     7
 10
24578.39802012829
 20
11272.96647766667
 30
0.0
 40
160.0
  1
1
 72
     4
 11
24605.064686794962
 21
11352.96647766667
 31
0.0
  0
TEXT
  5
143B1
  8
2-0
  6
CONTINUOUS
 62
     7
 10
24821.486737378978
 20
11192.967945666671
 30
0.0
 40
160.0
  1
80
 72
     4
 11
24941.486737378978
 21
11272.967945666671
 31
0.0
  0
TEXT
  5
143B2
  8
2-0
  6
CONTINUOUS
 62
     7
 10
24079.399986128301
 20
11245.77110866666
 30
0.0
 40
160.0
  1
(S=  /   )
 72
     4
 11
24639.399986128301
 21
11325.77110866666
 31
0.0
  0
TEXT
  5
143B3
  8
2-0
  6
CONTINUOUS
 62
     7
 10
11401.56769467792
 20
11184.012371999979
 30
0.0
 40
160.0
  1
1
 72
     4
 11
11428.23436134459
 21
11264.012371999979
 31
0.0
  0
TEXT
  5
143B4
  8
2-0
  6
CONTINUOUS
 62
     7
 10
11644.656411928619
 20
11104.01383999998
 30
0.0
 40
160.0
  1
80
 72
     4
 11
11764.656411928619
 21
11184.01383999998
 31
0.0
  0
TEXT
  5
143B5
  8
2-0
  6
CONTINUOUS
 62
     7
 10
10902.56966067792
 20
11156.81700299998
 30
0.0
 40
160.0
  1
(S=  /   )
 72
     4
 11
11462.56966067792
 21
11236.81700299998
 31
0.0
  0
LINE
  5
143BB
  8
0-5
  6
CONTINUOUS
 62
     4
 10
14968.46984450223
 20
6241.1883740000021
 30
0.0
 11
15088.47024050224
 21
6449.0353509999959
 31
0.0
  0
LINE
  5
143BC
  8
0-5
  6
CONTINUOUS
 62
     4
 10
14848.47142750224
 20
6449.0353509999959
 30
0.0
 11
14968.46984450223
 21
6241.1883740000021
 31
0.0
  0
LINE
  5
143BD
  8
0-5
  6
CONTINUOUS
 62
     4
 10
15088.47024050224
 20
6449.0353509999959
 30
0.0
 11
14848.47142750224
 21
6449.0353509999959
 31
0.0
  0
LINE
  5
143BE
  8
0-5
  6
CONTINUOUS
 62
     4
 10
13707.239453310351
 20
6241.1883740000021
 30
0.0
 11
15387.20342531035
 21
6241.1883740000021
 31
0.0
  0
LINE
  5
143BF
  8
0-5
  6
CONTINUOUS
 62
     4
 10
13707.239453310351
 20
6141.1885390000007
 30
0.0
 11
19646.353690217049
 21
6141.1885390000007
 31
0.0
  0
TEXT
  5
143C0
  8
0-5
  6
CONTINUOUS
 62
     7
 10
14509.377915502229
 20
6529.0346249999966
 30
0.0
 40
160.0
  1
布基礎天端
 72
     4
 11
14968.044582168901
 21
6609.0346249999984
 31
0.0
  0
LINE
  5
143C1
  8
0-5
  6
CONTINUOUS
 62
     4
 10
18152.541505013789
 20
6349.0350210000024
 30
0.0
 11
18272.53992101378
 21
6141.1885390000007
 31
0.0
  0
LINE
  5
143C2
  8
0-5
  6
CONTINUOUS
 62
     4
 10
18272.53992101378
 20
6141.1885390000007
 30
0.0
 11
18392.54031701378
 21
6349.0350210000024
 31
0.0
  0
LINE
  5
143C3
  8
0-5
  6
CONTINUOUS
 62
     4
 10
18392.54031701378
 20
6349.0350210000024
 30
0.0
 11
18152.541505013789
 21
6349.0350210000024
 31
0.0
  0
TEXT
  5
143C4
  8
0-5
  6
CONTINUOUS
 62
     7
 10
18152.541505013789
 20
6429.0347900000024
 30
0.0
 40
160.0
  1
G.L
 72
     4
 11
18312.541505013789
 21
6509.0347900000043
 31
0.0
  0
LINE
  5
143C5
  8
0-1
  6
CONTINUOUS
 62
     3
 10
11715.71912648855
 20
8152.2344180000064
 30
0.0
 11
11715.71912648855
 21
6291.1885390000007
 31
0.0
  0
LINE
  5
143C6
  8
0-1
  6
CONTINUOUS
 62
     3
 10
11752.717318488551
 20
8152.2344180000064
 30
0.0
 11
11752.717318488551
 21
6291.1885390000007
 31
0.0
  0
LINE
  5
143C7
  8
0-1
  6
CONTINUOUS
 62
     3
 10
11015.71978648856
 20
8152.2344180000064
 30
0.0
 11
11015.71978648856
 21
6291.1885390000007
 31
0.0
  0
LINE
  5
143C8
  8
0-1
  6
CONTINUOUS
 62
     3
 10
11052.71797848855
 20
8152.2344180000064
 30
0.0
 11
11052.71797848855
 21
6291.1885390000007
 31
0.0
  0
LINE
  5
143C9
  8
0-1
  6
CONTINUOUS
 62
     3
 10
11394.219575488571
 20
6291.1885390000007
 30
0.0
 11
11394.219575488571
 21
8152.2344180000064
 31
0.0
  0
LINE
  5
143CA
  8
0-1
  6
CONTINUOUS
 62
     3
 10
11374.21851948855
 20
6291.1885390000007
 30
0.0
 11
11374.21851948855
 21
8152.2344180000064
 31
0.0
  0
LINE
  5
143CB
  8
0-1
  6
CONTINUOUS
 62
     3
 10
11444.21825548856
 20
6291.1885390000007
 30
0.0
 11
11444.21825548856
 21
8152.2344180000064
 31
0.0
  0
LINE
  5
143CC
  8
0-1
  6
CONTINUOUS
 62
     3
 10
11324.218849488559
 20
6291.1885390000007
 30
0.0
 11
11324.218849488559
 21
8152.2344180000064
 31
0.0
  0
LINE
  5
143CD
  8
0-1
  6
CONTINUOUS
 62
     3
 10
11191.21895548857
 20
6291.1885390000007
 30
0.0
 11
11191.21895548857
 21
8152.2344180000064
 31
0.0
  0
LINE
  5
143CE
  8
0-1
  6
CONTINUOUS
 62
     3
 10
11176.219153488561
 20
6291.1885390000007
 30
0.0
 11
11176.219153488561
 21
8152.2344180000064
 31
0.0
  0
LINE
  5
143CF
  8
0-1
  6
CONTINUOUS
 62
     3
 10
11577.219140488571
 20
6291.1885390000007
 30
0.0
 11
11577.219140488571
 21
8152.2344180000064
 31
0.0
  0
LINE
  5
143D0
  8
0-1
  6
CONTINUOUS
 62
     3
 10
11592.217952488551
 20
6291.1885390000007
 30
0.0
 11
11592.217952488551
 21
8152.2344180000064
 31
0.0
  0
LINE
  5
143D1
  8
0-1
  6
CONTINUOUS
 62
     3
 10
11876.21849348855
 20
6291.1885390000007
 30
0.0
 11
11876.21849348855
 21
8152.2344180000064
 31
0.0
  0
LINE
  5
143D2
  8
0-1
  6
CONTINUOUS
 62
     3
 10
11891.21928548856
 20
6291.1885390000007
 30
0.0
 11
11891.21928548856
 21
8152.2344180000064
 31
0.0
  0
LINE
  5
143D3
  8
0-1
  6
CONTINUOUS
 62
     3
 10
12024.218189488571
 20
6291.1885390000007
 30
0.0
 11
12024.218189488571
 21
8152.2344180000064
 31
0.0
  0
LINE
  5
143D4
  8
0-1
  6
CONTINUOUS
 62
     3
 10
12144.219575488551
 20
6291.1885390000007
 30
0.0
 11
12144.219575488551
 21
8152.2344180000064
 31
0.0
  0
LINE
  5
143D5
  8
0-1
  6
CONTINUOUS
 62
     3
 10
12074.216870488541
 20
6291.1885390000007
 30
0.0
 11
12074.216870488541
 21
8152.2344180000064
 31
0.0
  0
LINE
  5
143D6
  8
0-1
  6
CONTINUOUS
 62
     3
 10
12094.21792548855
 20
6291.1885390000007
 30
0.0
 11
12094.21792548855
 21
8152.2344180000064
 31
0.0
  0
LINE
  5
143D7
  8
0-1
  6
CONTINUOUS
 62
     3
 10
10892.21960148857
 20
6291.1885390000007
 30
0.0
 11
10892.21960148857
 21
8152.2344180000064
 31
0.0
  0
LINE
  5
143D8
  8
0-1
  6
CONTINUOUS
 62
     3
 10
10877.218810488561
 20
6291.1885390000007
 30
0.0
 11
10877.218810488561
 21
8152.2344180000064
 31
0.0
  0
LINE
  5
143D9
  8
0-1
  6
CONTINUOUS
 62
     3
 10
10744.21792548855
 20
6291.1885390000007
 30
0.0
 11
10744.21792548855
 21
8152.2344180000064
 31
0.0
  0
LINE
  5
143DA
  8
0-1
  6
CONTINUOUS
 62
     3
 10
10476.21882348856
 20
6291.1885390000007
 30
0.0
 11
10476.21882348856
 21
8152.2344180000064
 31
0.0
  0
LINE
  5
143DB
  8
0-1
  6
CONTINUOUS
 62
     3
 10
10491.21763548856
 20
6291.1885390000007
 30
0.0
 11
10491.21763548856
 21
8152.2344180000064
 31
0.0
  0
LINE
  5
143DC
  8
0-1
  6
CONTINUOUS
 62
     3
 10
10624.21851948857
 20
6291.1885390000007
 30
0.0
 11
10624.21851948857
 21
8152.2344180000064
 31
0.0
  0
LINE
  5
143DD
  8
0-1
  6
CONTINUOUS
 62
     3
 10
10674.218189488571
 20
6291.1885390000007
 30
0.0
 11
10674.218189488571
 21
8152.2344180000064
 31
0.0
  0
LINE
  5
143DE
  8
0-1
  6
CONTINUOUS
 62
     3
 10
10694.21726648856
 20
6291.1885390000007
 30
0.0
 11
10694.21726648856
 21
8152.2344180000064
 31
0.0
  0
LINE
  5
143DF
  8
0-1
  6
CONTINUOUS
 62
     3
 10
9866.2182954885648
 20
6291.1885390000007
 30
0.0
 11
9866.2182954885648
 21
8152.2344180000064
 31
0.0
  0
LINE
  5
143E0
  8
0-1
  6
CONTINUOUS
 62
     3
 10
9886.2173714885557
 20
6291.1885390000007
 30
0.0
 11
9886.2173714885557
 21
8152.2344180000064
 31
0.0
  0
LINE
  5
143E1
  8
0-1
  6
CONTINUOUS
 62
     3
 10
9816.2176354885778
 20
6291.1885390000007
 30
0.0
 11
9816.2176354885778
 21
8152.2344180000064
 31
0.0
  0
LINE
  5
143E2
  8
0-1
  6
CONTINUOUS
 62
     3
 10
9936.2180314885645
 20
6291.1885390000007
 30
0.0
 11
9936.2180314885645
 21
8152.2344180000064
 31
0.0
  0
LINE
  5
143E3
  8
0-1
  6
CONTINUOUS
 62
     3
 10
10069.21792548857
 20
6291.1885390000007
 30
0.0
 11
10069.21792548857
 21
8152.2344180000064
 31
0.0
  0
LINE
  5
143E4
  8
0-1
  6
CONTINUOUS
 62
     3
 10
10084.21970748857
 20
6291.1885390000007
 30
0.0
 11
10084.21970748857
 21
8152.2344180000064
 31
0.0
  0
LINE
  5
143E5
  8
0-1
  6
CONTINUOUS
 62
     3
 10
9683.2177414885682
 20
6291.1885390000007
 30
0.0
 11
9683.2177414885682
 21
8152.2344180000064
 31
0.0
  0
LINE
  5
143E6
  8
0-1
  6
CONTINUOUS
 62
     3
 10
9668.2189284885644
 20
6291.1885390000007
 30
0.0
 11
9668.2189284885644
 21
8152.2344180000064
 31
0.0
  0
LINE
  5
143E7
  8
0-1
  6
CONTINUOUS
 62
     3
 10
7984.2187174885767
 20
6291.1885390000007
 30
0.0
 11
7984.2187174885767
 21
8152.2344180000064
 31
0.0
  0
LINE
  5
143E8
  8
0-1
  6
CONTINUOUS
 62
     3
 10
7969.2189154885573
 20
6291.1885390000007
 30
0.0
 11
7969.2189154885573
 21
8152.2344180000064
 31
0.0
  0
LINE
  5
143E9
  8
0-1
  6
CONTINUOUS
 62
     3
 10
7836.2180314885627
 20
6291.1885390000007
 30
0.0
 11
7836.2180314885627
 21
8152.2344180000064
 31
0.0
  0
LINE
  5
143EA
  8
0-1
  6
CONTINUOUS
 62
     3
 10
7716.2186254885601
 20
6291.1885390000007
 30
0.0
 11
7716.2186254885601
 21
8152.2344180000064
 31
0.0
  0
LINE
  5
143EB
  8
0-1
  6
CONTINUOUS
 62
     3
 10
7786.2173714885566
 20
6291.1885390000007
 30
0.0
 11
7786.2173714885566
 21
8152.2344180000064
 31
0.0
  0
LINE
  5
143EC
  8
0-1
  6
CONTINUOUS
 62
     3
 10
7766.2182954885629
 20
6291.1885390000007
 30
0.0
 11
7766.2182954885629
 21
8152.2344180000064
 31
0.0
  0
LINE
  5
143ED
  8
0-1
  6
CONTINUOUS
 62
     3
 10
8466.2176354885578
 20
6291.1885390000007
 30
0.0
 11
8466.2176354885578
 21
8152.2344180000064
 31
0.0
  0
LINE
  5
143EE
  8
0-1
  6
CONTINUOUS
 62
     3
 10
8486.2186914885533
 20
6291.1885390000007
 30
0.0
 11
8486.2186914885533
 21
8152.2344180000064
 31
0.0
  0
LINE
  5
143EF
  8
0-1
  6
CONTINUOUS
 62
     3
 10
8416.2189554885554
 20
6291.1885390000007
 30
0.0
 11
8416.2189554885554
 21
8152.2344180000064
 31
0.0
  0
LINE
  5
143F0
  8
0-1
  6
CONTINUOUS
 62
     3
 10
8536.2173714885575
 20
6291.1885390000007
 30
0.0
 11
8536.2173714885575
 21
8152.2344180000064
 31
0.0
  0
LINE
  5
143F1
  8
0-1
  6
CONTINUOUS
 62
     3
 10
8669.2182554885658
 20
6291.1885390000007
 30
0.0
 11
8669.2182554885658
 21
8152.2344180000064
 31
0.0
  0
LINE
  5
143F2
  8
0-1
  6
CONTINUOUS
 62
     3
 10
8684.2180574885697
 20
6291.1885390000007
 30
0.0
 11
8684.2180574885697
 21
8152.2344180000064
 31
0.0
  0
LINE
  5
143F3
  8
0-1
  6
CONTINUOUS
 62
     3
 10
8283.220050488555
 20
6291.1885390000007
 30
0.0
 11
8283.220050488555
 21
8152.2344180000064
 31
0.0
  0
LINE
  5
143F4
  8
0-1
  6
CONTINUOUS
 62
     3
 10
8268.2182694885541
 20
6291.1885390000007
 30
0.0
 11
8268.2182694885541
 21
8152.2344180000064
 31
0.0
  0
LINE
  5
143F5
  8
0-1
  6
CONTINUOUS
 62
     3
 10
8968.2176094885672
 20
6291.1885390000007
 30
0.0
 11
8968.2176094885672
 21
8152.2344180000064
 31
0.0
  0
LINE
  5
143F6
  8
0-1
  6
CONTINUOUS
 62
     3
 10
8983.2193904885626
 20
6291.1885390000007
 30
0.0
 11
8983.2193904885626
 21
8152.2344180000064
 31
0.0
  0
LINE
  5
143F7
  8
0-1
  6
CONTINUOUS
 62
     3
 10
9384.2173984885594
 20
6291.1885390000007
 30
0.0
 11
9384.2173984885594
 21
8152.2344180000064
 31
0.0
  0
LINE
  5
143F8
  8
0-1
  6
CONTINUOUS
 62
     3
 10
9369.2185854885665
 20
6291.1885390000007
 30
0.0
 11
9369.2185854885665
 21
8152.2344180000064
 31
0.0
  0
LINE
  5
143F9
  8
0-1
  6
CONTINUOUS
 62
     3
 10
9236.2196814885538
 20
6291.1885390000007
 30
0.0
 11
9236.2196814885538
 21
8152.2344180000064
 31
0.0
  0
LINE
  5
143FA
  8
0-1
  6
CONTINUOUS
 62
     3
 10
9116.2182954885648
 20
6291.1885390000007
 30
0.0
 11
9116.2182954885648
 21
8152.2344180000064
 31
0.0
  0
LINE
  5
143FB
  8
0-1
  6
CONTINUOUS
 62
     3
 10
9186.2180314885773
 20
6291.1885390000007
 30
0.0
 11
9186.2180314885773
 21
8152.2344180000064
 31
0.0
  0
LINE
  5
143FC
  8
0-1
  6
CONTINUOUS
 62
     3
 10
9166.2189554885554
 20
6291.1885390000007
 30
0.0
 11
9166.2189554885554
 21
8152.2344180000064
 31
0.0
  0
LINE
  5
143FD
  8
0-1
  6
CONTINUOUS
 62
     3
 10
9507.7175824885653
 20
8152.2344180000064
 30
0.0
 11
9507.7175824885653
 21
6291.1885390000007
 31
0.0
  0
LINE
  5
143FE
  8
0-1
  6
CONTINUOUS
 62
     3
 10
9544.718744488564
 20
8152.2344180000064
 30
0.0
 11
9544.718744488564
 21
6291.1885390000007
 31
0.0
  0
LINE
  5
143FF
  8
0-1
  6
CONTINUOUS
 62
     3
 10
8107.7198924885579
 20
8152.2344180000064
 30
0.0
 11
8107.7198924885579
 21
6291.1885390000007
 31
0.0
  0
LINE
  5
14400
  8
0-1
  6
CONTINUOUS
 62
     3
 10
8144.7190744885747
 20
8152.2344180000064
 30
0.0
 11
8144.7190744885747
 21
6291.1885390000007
 31
0.0
  0
LINE
  5
14401
  8
0-1
  6
CONTINUOUS
 62
     3
 10
8807.7182424885686
 20
8152.2344180000064
 30
0.0
 11
8807.7182424885686
 21
6291.1885390000007
 31
0.0
  0
LINE
  5
14402
  8
0-1
  6
CONTINUOUS
 62
     3
 10
8844.7184144885614
 20
8152.2344180000064
 30
0.0
 11
8844.7184144885614
 21
6291.1885390000007
 31
0.0
  0
LINE
  5
14403
  8
0-1
  6
CONTINUOUS
 62
     3
 10
7307.2187704885737
 20
6241.1883740000021
 30
0.0
 11
7307.2187704885737
 21
6141.1885390000007
 31
0.0
  0
LINE
  5
14404
  8
0-1
  6
CONTINUOUS
 62
     3
 10
7339.7195614885704
 20
8455.5174490000027
 30
0.0
 11
7339.7195614885704
 21
6241.1883740000021
 31
0.0
  0
LINE
  5
14405
  8
0-1
  6
CONTINUOUS
 62
     3
 10
7319.7187704885764
 20
8456.0984379999973
 30
0.0
 11
7319.7187704885764
 21
6241.1883740000021
 31
0.0
  0
LINE
  5
14406
  8
0-1
  6
CONTINUOUS
 62
     3
 10
7434.718638488579
 20
8152.2344180000064
 30
0.0
 11
7434.718638488579
 21
6241.1883740000021
 31
0.0
  0
LINE
  5
14407
  8
0-1
  6
CONTINUOUS
 62
     3
 10
10280.21877048856
 20
8356.9898809999977
 30
0.0
 11
10280.21877048856
 21
8152.2344180000064
 31
0.0
  0
LINE
  5
14408
  8
0-1
  6
CONTINUOUS
 62
     3
 10
10352.718638488561
 20
8152.2344180000064
 30
0.0
 11
10352.718638488561
 21
6241.1883740000021
 31
0.0
  0
LINE
  5
14409
  8
0-1
  6
CONTINUOUS
 62
     3
 10
10207.719892488571
 20
8152.2344180000064
 30
0.0
 11
10207.719892488571
 21
6241.1883740000021
 31
0.0
  0
LINE
  5
1440A
  8
0-1
  6
CONTINUOUS
 62
     3
 10
10207.719892488571
 20
6291.1885390000007
 30
0.0
 11
7434.718638488579
 21
6291.1885390000007
 31
0.0
  0
LINE
  5
1440B
  8
0-1
  6
CONTINUOUS
 62
     3
 10
12897.71877048856
 20
6141.1885390000007
 30
0.0
 11
12897.71877048856
 21
6241.1883740000021
 31
0.0
  0
LINE
  5
1440C
  8
0-1
  6
CONTINUOUS
 62
     3
 10
12870.21896848856
 20
8268.990877000002
 30
0.0
 11
12870.21896848856
 21
6241.1883740000021
 31
0.0
  0
LINE
  5
1440D
  8
0-1
  6
CONTINUOUS
 62
     3
 10
12890.21877048856
 20
8268.3741496838102
 30
0.0
 11
12890.21877048856
 21
6241.1883740000021
 31
0.0
  0
LINE
  5
1440E
  8
0-1
  6
CONTINUOUS
 62
     3
 10
12897.71877048856
 20
6241.1883740000021
 30
0.0
 11
7307.2187704885737
 21
6241.1883740000021
 31
0.0
  0
LINE
  5
1440F
  8
0-1
  6
CONTINUOUS
 62
     3
 10
12775.219891488559
 20
6291.1885390000007
 30
0.0
 11
10352.718638488561
 21
6291.1885390000007
 31
0.0
  0
LINE
  5
14410
  8
0-1
  6
CONTINUOUS
 62
     3
 10
13580.21982548857
 20
6141.1885390000007
 30
0.0
 11
7307.2187704885737
 21
6141.1885390000007
 31
0.0
  0
LINE
  5
14411
  8
0-1
  6
CONTINUOUS
 62
     3
 10
12870.21896848856
 20
8152.2344180000064
 30
0.0
 11
7339.7195614885704
 21
8152.2344180000064
 31
0.0
  0
LINE
  5
14412
  8
0-1
  6
CONTINUOUS
 62
     3
 10
13064.52059448856
 20
8303.1736990000027
 30
0.0
 11
7234.0291054885683
 21
8498.6897600000066
 31
0.0
  0
LINE
  5
14413
  8
0-1
  6
CONTINUOUS
 62
     3
 10
7235.5295804885682
 20
8548.6686450000016
 30
0.0
 11
13066.02007948856
 21
8353.151595000003
 31
0.0
  0
LINE
  5
14414
  8
0-1
  6
CONTINUOUS
 62
     3
 10
13069.11010748855
 20
8356.0604969999968
 30
0.0
 11
13070.07017448857
 21
8388.0460529999982
 31
0.0
  0
LINE
  5
14415
  8
0-1
  6
CONTINUOUS
 62
     3
 10
13065.22134348856
 20
8393.1932959999976
 30
0.0
 11
7215.760128488565
 21
8589.2804480000032
 31
0.0
  0
LINE
  5
14416
  8
0-1
  6
CONTINUOUS
 62
     3
 10
7211.8555284885661
 20
8459.338910000004
 30
0.0
 11
13061.320702488551
 21
8263.2522529999969
 31
0.0
  0
LINE
  5
14417
  8
0-1
  6
CONTINUOUS
 62
     3
 10
13066.46844048855
 20
8268.099599000001
 30
0.0
 11
13067.42751748857
 21
8300.0856499999973
 31
0.0
  0
LINE
  5
14418
  8
0-1
  6
CONTINUOUS
 62
     3
 10
13067.75908648857
 20
8311.0803909999977
 30
0.0
 11
13068.77952848856
 21
8345.0647660000086
 31
0.0
  0
LINE
  5
14419
  8
0-1
  6
CONTINUOUS
 62
     3
 10
13065.87062548856
 20
8348.1538049999999
 30
0.0
 11
7235.3781474885709
 21
8543.6713500000023
 31
0.0
  0
LINE
  5
1441A
  8
0-1
  6
CONTINUOUS
 62
     3
 10
7234.1785594885732
 20
8503.6880440000004
 30
0.0
 11
13064.669057488571
 21
8308.1719839999969
 31
0.0
  0
LINE
  5
1441B
  8
0-1
  6
CONTINUOUS
 62
     3
 10
10280.21877048856
 20
8356.9898809999977
 30
0.0
 11
10284.12139148855
 21
8486.9314189999968
 31
0.0
  0
LINE
  5
1441C
  8
0-1
  6
CONTINUOUS
 62
     3
 10
7244.8224304885644
 20
8458.3481610000017
 30
0.0
 11
7248.7240614885659
 21
8588.2896989999972
 31
0.0
  0
LINE
  5
1441D
  8
0-1
  6
CONTINUOUS
 62
     3
 10
13052.72860148857
 20
8393.5684149999979
 30
0.0
 11
13048.82598048856
 21
8263.6273720000008
 31
0.0
  0
LINE
  5
1441E
  8
0-5
  6
CONTINUOUS
 62
     4
 10
7362.2187704885728
 20
4461.1889349999938
 30
0.0
 11
7362.2187704885728
 21
4301.1893970000001
 31
0.0
  0
LINE
  5
1441F
  8
0-5
  6
CONTINUOUS
 62
     4
 10
10280.21877048856
 20
4461.1889349999938
 30
0.0
 11
10280.21877048856
 21
4301.1893970000001
 31
0.0
  0
LINE
  5
14420
  8
0-5
  6
CONTINUOUS
 62
     4
 10
12847.71877048856
 20
4461.1889349999938
 30
0.0
 11
12847.71877048856
 21
4301.1893970000001
 31
0.0
  0
LINE
  5
14421
  8
2-0
  6
CENTER2
 62
     6
 10
7362.2187704885728
 20
5878.536116000002
 30
0.0
 11
7362.2187704885728
 21
6935.6787139999988
 31
0.0
  0
LINE
  5
14422
  8
2-0
  6
CENTER2
 62
     6
 10
10280.21877048856
 20
5878.536116000002
 30
0.0
 11
10280.21877048856
 21
6935.6787139999988
 31
0.0
  0
LINE
  5
14423
  8
2-0
  6
CENTER2
 62
     6
 10
12847.71877048856
 20
5878.536116000002
 30
0.0
 11
12847.71877048856
 21
6935.6787139999988
 31
0.0
  0
ARC
  5
14424
  8
0-1
  6
CONTINUOUS
 62
     3
 10
7234.7793434885743
 20
8523.680191999998
 30
0.0
 40
24.999998999999999
 50
88.280013999973988
 51
268.2800139999739
  0
ARC
  5
14425
  8
0-1
  6
CONTINUOUS
 62
     3
 10
13066.11014748856
 20
8356.1505650000017
 30
0.0
 40
3.0
 50
268.2800139999739
 51
358.28001399998629
  0
ARC
  5
14426
  8
0-1
  6
CONTINUOUS
 62
     3
 10
13065.072879488551
 20
8388.1955070000022
 30
0.0
 40
5.0
 50
358.28001399998629
 51
88.280013999973988
  0
ARC
  5
14427
  8
0-1
  6
CONTINUOUS
 62
     3
 10
7239.7766374885814
 20
8523.5297490000066
 30
0.0
 40
69.999999000000003
 50
110.0668030000945
 51
246.49322500021299
  0
ARC
  5
14428
  8
0-1
  6
CONTINUOUS
 62
     3
 10
13061.46916648855
 20
8268.2500430000073
 30
0.0
 40
5.0
 50
268.2800139999739
 51
358.28001399998629
  0
ARC
  5
14429
  8
0-1
  6
CONTINUOUS
 62
     3
 10
13064.43052548856
 20
8300.1752229999984
 30
0.0
 40
3.0
 50
358.28001399998629
 51
88.280013999973988
  0
ARC
  5
1442A
  8
0-1
  6
CONTINUOUS
 62
     3
 10
13064.44636248857
 20
8350.697981000003
 30
0.0
 40
2.5
 50
88.280013999973988
 51
268.2800139999739
  0
ARC
  5
1442B
  8
0-1
  6
CONTINUOUS
 62
     3
 10
13063.09633048855
 20
8305.7178750000003
 30
0.0
 40
2.5
 50
88.280013999973988
 51
268.2800139999739
  0
ARC
  5
1442C
  8
0-1
  6
CONTINUOUS
 62
     3
 10
13065.78055748857
 20
8345.1553289999974
 30
0.0
 40
3.0
 50
358.28001399998629
 51
88.280013999973988
  0
ARC
  5
1442D
  8
0-1
  6
CONTINUOUS
 62
     3
 10
7234.7793434885743
 20
8523.680191999998
 30
0.0
 40
20.0
 50
88.280013999973988
 51
268.2800139999739
  0
ARC
  5
1442E
  8
0-1
  6
CONTINUOUS
 62
     3
 10
13064.76011548858
 20
8311.1699640000006
 30
0.0
 40
3.0
 50
268.2800139999739
 51
358.28001399998629
  0
LINE
  5
1442F
  8
SUNPOU
  6
CONTINUOUS
 10
13070.21877048856
 20
9389.1900500000029
 30
0.0
 11
13575.00664038198
 21
9389.1900500000029
 31
0.0
  0
LINE
  5
14430
  8
0-1
  6
CONTINUOUS
 62
     3
 10
7568.2179394885588
 20
6291.1885389999989
 30
0.0
 11
7568.2179394885588
 21
8152.2344180000036
 31
0.0
  0
LINE
  5
14431
  8
0-1
  6
CONTINUOUS
 62
     3
 10
7583.2197204885597
 20
6291.1885389999989
 30
0.0
 11
7583.2197204885597
 21
8152.2344180000036
 31
0.0
  0
LINE
  5
14432
  8
0-1
  6
CONTINUOUS
 62
     3
 10
12415.72143648856
 20
8152.2344180000036
 30
0.0
 11
12415.72143648856
 21
6291.1885389999989
 31
0.0
  0
LINE
  5
14433
  8
0-1
  6
CONTINUOUS
 62
     3
 10
12452.719628488559
 20
8152.2344180000036
 30
0.0
 11
12452.719628488559
 21
6291.1885389999989
 31
0.0
  0
LINE
  5
14434
  8
0-1
  6
CONTINUOUS
 62
     3
 10
12591.22060548857
 20
6291.1885389999989
 30
0.0
 11
12591.22060548857
 21
8152.2344180000036
 31
0.0
  0
LINE
  5
14435
  8
0-1
  6
CONTINUOUS
 62
     3
 10
12576.22080348857
 20
6291.1885389999989
 30
0.0
 11
12576.22080348857
 21
8152.2344180000036
 31
0.0
  0
LINE
  5
14436
  8
0-1
  6
CONTINUOUS
 62
     3
 10
12292.22125148856
 20
6291.1885389999989
 30
0.0
 11
12292.22125148856
 21
8152.2344180000036
 31
0.0
  0
LINE
  5
14437
  8
0-1
  6
CONTINUOUS
 62
     3
 10
12277.220460488559
 20
6291.1885389999989
 30
0.0
 11
12277.220460488559
 21
8152.2344180000036
 31
0.0
  0
LINE
  5
14438
  8
0-1
  6
CONTINUOUS
 62
     3
 10
12775.219891488559
 20
8152.2344180000064
 30
0.0
 11
12775.219891488559
 21
6241.1883740000021
 31
0.0
  0
LINE
  5
14439
  8
0-1
  6
CONTINUOUS
 62
     3
 10
28242.415581013789
 20
8132.6883740000021
 30
0.0
 11
25409.41215001381
 21
8132.6883740000021
 31
0.0
  0
LINE
  5
1443A
  8
0-1
  6
CONTINUOUS
 62
     3
 10
28242.415581013789
 20
8326.1887430000024
 30
0.0
 11
25409.41215001381
 21
8326.1887430000024
 31
0.0
  0
LINE
  5
1443B
  8
0-1
  6
CONTINUOUS
 62
     3
 10
28370.411886013819
 20
8264.0026619999971
 30
0.0
 11
28370.411886013819
 21
8589.6883999999973
 31
0.0
  0
LINE
  5
1443C
  8
0-1
  6
CONTINUOUS
 62
     3
 10
25324.413601013799
 20
8459.6884660000014
 30
0.0
 11
28370.411886013819
 21
8459.6884660000014
 31
0.0
  0
LINE
  5
1443D
  8
0-1
  6
CONTINUOUS
 62
     3
 10
28370.411886013819
 20
8589.6883999999973
 30
0.0
 11
25344.410698013809
 21
8589.6883999999973
 31
0.0
  0
LINE
  5
1443E
  8
0-1
  6
CONTINUOUS
 62
     3
 10
25316.9132050138
 20
6241.1883740000021
 30
0.0
 11
25416.912546013798
 21
6241.1883740000021
 31
0.0
  0
LINE
  5
1443F
  8
0-1
  6
CONTINUOUS
 62
     3
 10
25416.912546013798
 20
6241.1883740000021
 30
0.0
 11
25416.912546013798
 21
6141.1885390000007
 31
0.0
  0
LINE
  5
14440
  8
0-1
  6
CONTINUOUS
 62
     3
 10
25316.9132050138
 20
6141.1885390000007
 30
0.0
 11
25316.9132050138
 21
6241.1883740000021
 31
0.0
  0
LINE
  5
14441
  8
0-1
  6
CONTINUOUS
 62
     3
 10
25409.41215001381
 20
8459.6884660000014
 30
0.0
 11
25409.41215001381
 21
6241.1883740000021
 31
0.0
  0
LINE
  5
14442
  8
0-1
  6
CONTINUOUS
 62
     3
 10
25460.911886013801
 20
8132.6883740000021
 30
0.0
 11
25460.911886013801
 21
6141.1885390000007
 31
0.0
  0
LINE
  5
14443
  8
0-1
  6
CONTINUOUS
 62
     3
 10
25344.410698013809
 20
8589.6883999999973
 30
0.0
 11
25344.410698013809
 21
6241.1883740000021
 31
0.0
  0
LINE
  5
14444
  8
0-1
  6
CONTINUOUS
 62
     3
 10
25324.411886013801
 20
8459.6884660000014
 30
0.0
 11
25324.411886013801
 21
6241.1883740000021
 31
0.0
  0
LINE
  5
14445
  8
0-1
  6
CONTINUOUS
 62
     3
 10
28370.411886013819
 20
8264.0026619999971
 30
0.0
 11
28327.411886013819
 21
8264.0026619999971
 31
0.0
  0
LINE
  5
14446
  8
0-1
  6
CONTINUOUS
 62
     3
 10
28334.914525013792
 20
6241.1883740000021
 30
0.0
 11
28234.915185013801
 21
6241.1883740000021
 31
0.0
  0
LINE
  5
14447
  8
0-1
  6
CONTINUOUS
 62
     3
 10
28234.915185013801
 20
6241.1883740000021
 30
0.0
 11
28234.915185013801
 21
6141.1885390000007
 31
0.0
  0
LINE
  5
14448
  8
0-1
  6
CONTINUOUS
 62
     3
 10
28334.914525013792
 20
6141.1885390000007
 30
0.0
 11
28334.914525013792
 21
6241.1883740000021
 31
0.0
  0
LINE
  5
14449
  8
0-1
  6
CONTINUOUS
 62
     3
 10
28190.911886013801
 20
8132.6883740000021
 30
0.0
 11
28190.911886013801
 21
6141.1885390000007
 31
0.0
  0
LINE
  5
1444A
  8
0-1
  6
CONTINUOUS
 62
     3
 10
28242.415581013789
 20
8459.6884660000014
 30
0.0
 11
28242.415581013789
 21
6241.1883740000021
 31
0.0
  0
LINE
  5
1444B
  8
0-1
  6
CONTINUOUS
 62
     3
 10
28307.415053013799
 20
8589.6883999999973
 30
0.0
 11
28307.415053013799
 21
6241.1883740000021
 31
0.0
  0
LINE
  5
1444C
  8
0-1
  6
CONTINUOUS
 62
     3
 10
28327.411886013819
 20
8459.6884660000014
 30
0.0
 11
28327.411886013819
 21
6241.1883740000021
 31
0.0
  0
LINE
  5
1444D
  8
0-1
  6
CONTINUOUS
 62
     3
 10
28190.911886013801
 20
6661.1892649999991
 30
0.0
 11
25460.911886013801
 21
6661.1892649999991
 31
0.0
  0
LINE
  5
1444E
  8
0-1
  6
CONTINUOUS
 62
     3
 10
28190.911886013801
 20
6596.1888030000027
 30
0.0
 11
25460.911886013801
 21
6596.1888030000027
 31
0.0
  0
LINE
  5
1444F
  8
0-1
  6
CONTINUOUS
 62
     3
 10
28190.911886013801
 20
6531.1888360000003
 30
0.0
 11
25460.911886013801
 21
6531.1888360000003
 31
0.0
  0
LINE
  5
14450
  8
0-1
  6
CONTINUOUS
 62
     3
 10
28190.911886013801
 20
6466.1883740000039
 30
0.0
 11
25460.911886013801
 21
6466.1883740000039
 31
0.0
  0
LINE
  5
14451
  8
0-1
  6
CONTINUOUS
 62
     3
 10
28190.911886013801
 20
6401.1889020000071
 30
0.0
 11
25460.911886013801
 21
6401.1889020000071
 31
0.0
  0
LINE
  5
14452
  8
0-1
  6
CONTINUOUS
 62
     3
 10
28190.911886013801
 20
6336.1889349999956
 30
0.0
 11
25460.911886013801
 21
6336.1889349999956
 31
0.0
  0
LINE
  5
14453
  8
0-1
  6
CONTINUOUS
 62
     3
 10
28190.911886013801
 20
6271.1889680000004
 30
0.0
 11
25460.911886013801
 21
6271.1889680000004
 31
0.0
  0
LINE
  5
14454
  8
0-1
  6
CONTINUOUS
 62
     3
 10
28190.911886013801
 20
6206.1885060000041
 30
0.0
 11
25460.911886013801
 21
6206.1885060000041
 31
0.0
  0
LINE
  5
14455
  8
0-1
  6
CONTINUOUS
 62
     3
 10
28190.911886013801
 20
8026.1885719999982
 30
0.0
 11
25460.911886013801
 21
8026.1885719999982
 31
0.0
  0
LINE
  5
14456
  8
0-1
  6
CONTINUOUS
 62
     3
 10
28190.911886013801
 20
7961.1886050000021
 30
0.0
 11
25460.911886013801
 21
7961.1886050000021
 31
0.0
  0
LINE
  5
14457
  8
0-1
  6
CONTINUOUS
 62
     3
 10
28190.911886013801
 20
7896.1891330000062
 30
0.0
 11
25460.911886013801
 21
7896.1891330000062
 31
0.0
  0
LINE
  5
14458
  8
0-1
  6
CONTINUOUS
 62
     3
 10
28190.911886013801
 20
7831.1891659999937
 30
0.0
 11
25460.911886013801
 21
7831.1891659999937
 31
0.0
  0
LINE
  5
14459
  8
0-1
  6
CONTINUOUS
 62
     3
 10
28190.911886013801
 20
7766.1891989999967
 30
0.0
 11
25460.911886013801
 21
7766.1891989999967
 31
0.0
  0
LINE
  5
1445A
  8
0-1
  6
CONTINUOUS
 62
     3
 10
28190.911886013801
 20
7701.1887370000022
 30
0.0
 11
25460.911886013801
 21
7701.1887370000022
 31
0.0
  0
LINE
  5
1445B
  8
0-1
  6
CONTINUOUS
 62
     3
 10
28190.911886013801
 20
7636.1887699999979
 30
0.0
 11
25460.911886013801
 21
7636.1887699999979
 31
0.0
  0
LINE
  5
1445C
  8
0-1
  6
CONTINUOUS
 62
     3
 10
28190.911886013801
 20
7571.1892980000011
 30
0.0
 11
25460.911886013801
 21
7571.1892980000011
 31
0.0
  0
LINE
  5
1445D
  8
0-1
  6
CONTINUOUS
 62
     3
 10
28190.911886013801
 20
7506.1893309999978
 30
0.0
 11
25460.911886013801
 21
7506.1893309999978
 31
0.0
  0
LINE
  5
1445E
  8
0-1
  6
CONTINUOUS
 62
     3
 10
28190.911886013801
 20
7441.1888690000023
 30
0.0
 11
25460.911886013801
 21
7441.1888690000023
 31
0.0
  0
LINE
  5
1445F
  8
0-1
  6
CONTINUOUS
 62
     3
 10
28190.911886013801
 20
7376.188901999999
 30
0.0
 11
25460.911886013801
 21
7376.188901999999
 31
0.0
  0
LINE
  5
14460
  8
0-1
  6
CONTINUOUS
 62
     3
 10
28190.911886013801
 20
7311.1889350000029
 30
0.0
 11
25460.911886013801
 21
7311.1889350000029
 31
0.0
  0
LINE
  5
14461
  8
0-1
  6
CONTINUOUS
 62
     3
 10
28190.911886013801
 20
7246.1884730000029
 30
0.0
 11
25460.911886013801
 21
7246.1884730000029
 31
0.0
  0
LINE
  5
14462
  8
0-1
  6
CONTINUOUS
 62
     3
 10
28190.911886013801
 20
7181.1885060000041
 30
0.0
 11
25460.911886013801
 21
7181.1885060000041
 31
0.0
  0
LINE
  5
14463
  8
0-1
  6
CONTINUOUS
 62
     3
 10
28190.911886013801
 20
7116.1890340000009
 30
0.0
 11
25460.911886013801
 21
7116.1890340000009
 31
0.0
  0
LINE
  5
14464
  8
0-1
  6
CONTINUOUS
 62
     3
 10
28190.911886013801
 20
7051.1890669999966
 30
0.0
 11
25460.911886013801
 21
7051.1890669999966
 31
0.0
  0
LINE
  5
14465
  8
0-1
  6
CONTINUOUS
 62
     3
 10
28190.911886013801
 20
6986.1891000000032
 30
0.0
 11
25460.911886013801
 21
6986.1891000000032
 31
0.0
  0
LINE
  5
14466
  8
0-1
  6
CONTINUOUS
 62
     3
 10
28190.911886013801
 20
6921.1886380000051
 30
0.0
 11
25460.911886013801
 21
6921.1886380000051
 31
0.0
  0
LINE
  5
14467
  8
0-1
  6
CONTINUOUS
 62
     3
 10
28190.911886013801
 20
6856.1886710000017
 30
0.0
 11
25460.911886013801
 21
6856.1886710000017
 31
0.0
  0
LINE
  5
14468
  8
0-1
  6
CONTINUOUS
 62
     3
 10
28190.911886013801
 20
6791.1891989999967
 30
0.0
 11
25460.911886013801
 21
6791.1891989999967
 31
0.0
  0
LINE
  5
14469
  8
0-1
  6
CONTINUOUS
 62
     3
 10
28190.911886013801
 20
6726.1892320000024
 30
0.0
 11
25460.911886013801
 21
6726.1892320000024
 31
0.0
  0
LINE
  5
1446A
  8
0-1
  6
CONTINUOUS
 62
     3
 10
28190.911886013801
 20
8080.6485920000023
 30
0.0
 11
25460.911886013801
 21
8080.6485920000023
 31
0.0
  0
LINE
  5
1446B
  8
0-1
  6
CONTINUOUS
 62
     3
 10
28334.914525013792
 20
6141.1885390000007
 30
0.0
 11
19755.4335098886
 21
6141.1885390000007
 31
0.0
  0
LINE
  5
1446C
  8
0-1
  6
CONTINUOUS
 62
     3
 10
28216.412625013782
 20
8335.1891200000064
 30
0.0
 11
27938.983095013798
 21
8335.1891200000064
 31
0.0
  0
LINE
  5
1446D
  8
0-1
  6
CONTINUOUS
 62
     3
 10
28216.412625013782
 20
8377.1885650000022
 30
0.0
 11
27906.986157013798
 21
8377.1885650000022
 31
0.0
  0
LINE
  5
1446E
  8
0-1
  6
CONTINUOUS
 62
     3
 10
28221.412888013791
 20
8340.1888889999937
 30
0.0
 11
28221.412888013791
 21
8372.1892910000006
 31
0.0
  0
LINE
  5
1446F
  8
0-1
  6
CONTINUOUS
 62
     3
 10
28242.415581013789
 20
8386.1884470000077
 30
0.0
 11
25409.41215001381
 21
8386.1884470000077
 31
0.0
  0
LINE
  5
14470
  8
0-1
  6
CONTINUOUS
 62
     3
 10
27935.449655013788
 20
8336.6529740000005
 30
0.0
 11
27903.448757013801
 21
8368.653376000002
 31
0.0
  0
LINE
  5
14471
  8
0-1
  6
CONTINUOUS
 62
     3
 10
28221.412888013791
 20
8368.7889730000006
 30
0.0
 11
27903.3200890138
 21
8368.7889730000006
 31
0.0
  0
LINE
  5
14472
  8
0-1
  6
CONTINUOUS
 62
     3
 10
28221.412888013791
 20
8360.3888860000006
 30
0.0
 11
27911.713247013791
 21
8360.3888860000006
 31
0.0
  0
LINE
  5
14473
  8
0-1
  6
CONTINUOUS
 62
     3
 10
28221.412888013791
 20
8351.9892939999972
 30
0.0
 11
27920.1123450138
 21
8351.9892939999972
 31
0.0
  0
LINE
  5
14474
  8
0-1
  6
CONTINUOUS
 62
     3
 10
28221.412888013791
 20
8343.5892070000027
 30
0.0
 11
27928.515401013781
 21
8343.5892070000027
 31
0.0
  0
LINE
  5
14475
  8
0-1
  6
CONTINUOUS
 62
     3
 10
25430.4128620138
 20
8368.7889730000006
 30
0.0
 11
25748.505662013798
 21
8368.7889730000006
 31
0.0
  0
LINE
  5
14476
  8
0-1
  6
CONTINUOUS
 62
     3
 10
25430.4128620138
 20
8360.3888860000006
 30
0.0
 11
25740.110524013799
 21
8360.3888860000006
 31
0.0
  0
LINE
  5
14477
  8
0-1
  6
CONTINUOUS
 62
     3
 10
25430.4128620138
 20
8351.9892939999972
 30
0.0
 11
25731.711427013801
 21
8351.9892939999972
 31
0.0
  0
LINE
  5
14478
  8
0-1
  6
CONTINUOUS
 62
     3
 10
25430.4128620138
 20
8343.5892070000027
 30
0.0
 11
25723.31232901381
 21
8343.5892070000027
 31
0.0
  0
LINE
  5
14479
  8
0-1
  6
CONTINUOUS
 62
     3
 10
25435.413126013809
 20
8377.1885650000022
 30
0.0
 11
25744.839594013822
 21
8377.1885650000022
 31
0.0
  0
LINE
  5
1447A
  8
0-1
  6
CONTINUOUS
 62
     3
 10
25435.413126013809
 20
8335.1891200000064
 30
0.0
 11
25712.84265501381
 21
8335.1891200000064
 31
0.0
  0
LINE
  5
1447B
  8
0-1
  6
CONTINUOUS
 62
     3
 10
25430.4128620138
 20
8340.1888889999937
 30
0.0
 11
25430.4128620138
 21
8372.1892910000006
 31
0.0
  0
LINE
  5
1447C
  8
0-1
  6
CONTINUOUS
 62
     3
 10
25716.378076013789
 20
8336.6529740000005
 30
0.0
 11
25748.3750140138
 21
8368.653376000002
 31
0.0
  0
LINE
  5
1447D
  8
0-2
  6
CONTINUOUS
 62
     4
 10
26462.223845513789
 20
6888.415233000007
 30
0.0
 11
26562.223185513802
 21
6888.415233000007
 31
0.0
  0
LINE
  5
1447E
  8
0-2
  6
CONTINUOUS
 62
     4
 10
27189.607845513801
 20
6888.415233000007
 30
0.0
 11
27089.60850551381
 21
6888.415233000007
 31
0.0
  0
LINE
  5
1447F
  8
0-5
  6
CONTINUOUS
 62
     4
 10
25366.911886013801
 20
4461.1889349999938
 30
0.0
 11
25366.911886013801
 21
4301.1893970000001
 31
0.0
  0
LINE
  5
14480
  8
0-5
  6
CONTINUOUS
 62
     4
 10
28284.911886013801
 20
4461.1889349999938
 30
0.0
 11
28284.911886013801
 21
4301.1893970000001
 31
0.0
  0
LINE
  5
14481
  8
2-0
  6
CENTER2
 62
     6
 10
25366.911886013801
 20
5878.536116000002
 30
0.0
 11
25366.911886013801
 21
6915.6791430000003
 31
0.0
  0
LINE
  5
14482
  8
2-0
  6
CENTER2
 62
     6
 10
28284.911886013801
 20
5878.536116000002
 30
0.0
 11
28284.911886013801
 21
6915.6791430000003
 31
0.0
  0
ARC
  5
14483
  8
0-1
  6
CONTINUOUS
 62
     3
 10
28216.412625013782
 20
8372.1892910000006
 30
0.0
 40
5.0
 50
0.000000000000007
 51
90.0
  0
ARC
  5
14484
  8
0-1
  6
CONTINUOUS
 62
     3
 10
28216.412625013782
 20
8340.1888889999937
 30
0.0
 40
5.0
 50
270.00001499981897
 51
0.000000000000007
  0
ARC
  5
14485
  8
0-1
  6
CONTINUOUS
 62
     3
 10
27938.983095013798
 20
8340.1888889999937
 30
0.0
 40
5.0
 50
225.00001499972311
 51
270.00001499981897
  0
ARC
  5
14486
  8
0-1
  6
CONTINUOUS
 62
     3
 10
27906.986157013798
 20
8372.1892910000006
 30
0.0
 40
5.0
 50
90.0
 51
225.00001499972311
  0
ARC
  5
14487
  8
0-1
  6
CONTINUOUS
 62
     3
 10
25435.413126013809
 20
8340.1888889999937
 30
0.0
 40
5.0
 50
180.0
 51
270.00001499981897
  0
ARC
  5
14488
  8
0-1
  6
CONTINUOUS
 62
     3
 10
25435.413126013809
 20
8372.1892910000006
 30
0.0
 40
5.0
 50
90.0
 51
180.0
  0
ARC
  5
14489
  8
0-1
  6
CONTINUOUS
 62
     3
 10
25744.839594013822
 20
8372.1892910000006
 30
0.0
 40
5.0
 50
315.00001500002242
 51
90.0
  0
ARC
  5
1448A
  8
0-1
  6
CONTINUOUS
 62
     3
 10
25712.84265501381
 20
8340.1888889999937
 30
0.0
 40
5.0
 50
270.00001499981897
 51
315.00001500002242
  0
CIRCLE
  5
1448B
  8
0-5
  6
CONTINUOUS
 62
     4
 10
25366.911886013801
 20
4101.1882420000011
 30
0.0
 40
199.9999949999999
  0
CIRCLE
  5
1448C
  8
0-5
  6
CONTINUOUS
 62
     4
 10
28284.911886013801
 20
4101.1882420000011
 30
0.0
 40
199.9999949999999
  0
TEXT
  5
1448D
  8
0-5
  6
CONTINUOUS
 62
     7
 10
25312.158094347142
 20
4011.7132600000009
 30
0.0
 40
160.0
  1
2
 72
     4
 11
25365.49142768047
 21
4091.7132600000009
 31
0.0
  0
TEXT
  5
1448E
  8
0-5
  6
CONTINUOUS
 62
     7
 10
29352.62223333757
 20
7183.4790480839811
 30
0.0
 40
160.0
  1
(2131.5)
 50
90.0
 72
     4
 11
29272.62223333757
 21
7636.8123814173141
 31
0.0
  0
TEXT
  5
1448F
  8
0-5
  6
CONTINUOUS
 62
     7
 10
28256.824760013798
 20
4011.7132600000009
 30
0.0
 40
160.0
  1
3
 72
     4
 11
28310.15809334713
 21
4091.7132600000009
 31
0.0
  0
CIRCLE
  5
14490
  8
0-4
  6
CONTINUOUS
 62
     4
 10
26825.913865513809
 20
6627.2449749999987
 30
0.0
 40
18.487504999999981
  0
LINE
  5
14491
  8
1-前柱カバ-P
 10
20409.41188601379
 20
8459.6884660000014
 30
0.0
 11
20409.41188601379
 21
6141.1885390000007
 31
0.0
  0
LINE
  5
14492
  8
1-前柱カバ-P
 10
20324.411886013801
 20
8589.6883999999973
 30
0.0
 11
20324.411886013801
 21
6141.1885390000007
 31
0.0
  0
LINE
  5
14493
  8
0-1
  6
CONTINUOUS
 62
     3
 10
20281.411886013801
 20
8459.6884660000087
 30
0.0
 11
25409.41215001381
 21
8459.6884660000014
 31
0.0
  0
LINE
  5
14494
  8
0-1
  6
CONTINUOUS
 62
     3
 10
25344.410698013809
 20
8589.6883999999973
 30
0.0
 11
20281.411886013801
 21
8589.6883999999973
 31
0.0
  0
LINE
  5
14495
  8
0-1
  6
CONTINUOUS
 62
     3
 10
20281.411886013801
 20
8264.0026620000026
 30
0.0
 11
20281.411886013801
 21
8589.6883999999973
 31
0.0
  0
LINE
  5
14496
  8
0-1
  6
CONTINUOUS
 62
     3
 10
20281.411886013801
 20
8264.0026620000026
 30
0.0
 11
20324.411886013801
 21
8264.0026620000026
 31
0.0
  0
LINE
  5
14497
  8
2-0
  6
CENTER2
 62
     6
 10
20366.911886013801
 20
5878.536116000002
 30
0.0
 11
20366.911886013801
 21
6915.6791430000003
 31
0.0
  0
LINE
  5
14498
  8
1-桁前P28
 10
20409.411886013801
 20
8262.0026620000026
 30
0.0
 11
25324.411886013811
 21
8262.0026620000026
 31
0.0
  0
LINE
  5
14499
  8
0-5
  6
CONTINUOUS
 62
     4
 10
20366.911886013801
 20
4461.1889349999938
 30
0.0
 11
20366.911886013801
 21
4301.1893970000001
 31
0.0
  0
CIRCLE
  5
1449A
  8
0-5
  6
CONTINUOUS
 62
     4
 10
20366.911886013801
 20
4101.1882420000011
 30
0.0
 40
199.9999949999999
  0
TEXT
  5
1449B
  8
0-5
  6
CONTINUOUS
 62
     7
 10
20338.824761013781
 20
4011.7132600000009
 30
0.0
 40
160.0
  1
1
 72
     4
 11
20365.491427680448
 21
4091.7132600000009
 31
0.0
  0
TEXT
  5
1449C
  8
0-5
  6
CONTINUOUS
 62
     7
 10
19327.05158554214
 20
7249.4069272529232
 30
0.0
 40
160.0
  1
(2260）
 50
90.0
 72
     4
 11
19247.05158554214
 21
7641.4069272529223
 31
0.0
  0
CIRCLE
  5
1449D
  8
0-5
  6
CONTINUOUS
 62
     4
 10
7362.2187704885728
 20
4101.189402
 30
0.0
 40
199.9999949999999
  0
TEXT
  5
1449E
  8
0-5
  6
CONTINUOUS
 62
     7
 10
7313.5424084885708
 20
4009.571342999996
 30
0.0
 40
160.0
  1
A
 72
     4
 11
7366.8757418219038
 21
4089.5713429999969
 31
0.0
  0
CIRCLE
  5
1449F
  8
0-5
  6
CONTINUOUS
 62
     4
 10
10280.21877048856
 20
4101.1894020000009
 30
0.0
 40
199.9999949999999
  0
TEXT
  5
144A0
  8
0-5
  6
CONTINUOUS
 62
     7
 10
10231.54240848856
 20
4009.571344000009
 30
0.0
 40
160.0
  1
B
 72
     4
 11
10284.875741821899
 21
4089.571344000009
 31
0.0
  0
CIRCLE
  5
144A1
  8
0-5
  6
CONTINUOUS
 62
     4
 10
12847.71877048856
 20
4101.1894020000009
 30
0.0
 40
199.9999949999999
  0
TEXT
  5
144A2
  8
0-5
  6
CONTINUOUS
 62
     7
 10
12799.042408488551
 20
4009.571343000001
 30
0.0
 40
160.0
  1
C
 72
     4
 11
12852.37574182189
 21
4089.5713430000019
 31
0.0
  0
LINE
  5
145FD
  8
2-0
  6
CENTER2
 62
     6
 10
30327.412809013771
 20
19317.986978000001
 30
0.0
 11
29586.6675587383
 21
19317.986978000001
 31
0.0
  0
LINE
  5
145FE
  8
2-0
  6
CENTER2
 62
     6
 10
29426.6675587383
 20
19317.986978000001
 30
0.0
 11
20062.30705006186
 21
19317.986978000001
 31
0.0
  0
LINE
  5
145FF
  8
2-0
  6
CENTER2
 62
     6
 10
30327.412809013789
 20
16750.486978000001
 30
0.0
 11
29965.807785093832
 21
16750.486978000001
 31
0.0
  0
LINE
  5
14600
  8
2-0
  6
CENTER2
 62
     6
 10
29127.41478901379
 20
16750.486978000001
 30
0.0
 11
20062.30705006186
 21
16750.486978000001
 31
0.0
  0
LINE
  5
14601
  8
2-0
  6
CENTER2
 62
     6
 10
30327.412809013771
 20
13832.486978000001
 30
0.0
 11
29587.1522188694
 21
13832.486978000001
 31
0.0
  0
LINE
  5
14602
  8
2-0
  6
CENTER2
 62
     6
 10
29427.1522188694
 20
13832.486978000001
 30
0.0
 11
20062.30705006186
 21
13832.48697800001
 31
0.0
  0
CIRCLE
  5
14603
  8
0-5
  6
CONTINUOUS
 62
     4
 10
25366.91188601379
 20
21160.487902000001
 30
0.0
 40
199.9999949999999
  0
CIRCLE
  5
14604
  8
0-5
  6
CONTINUOUS
 62
     4
 10
30527.413469013769
 20
19317.986978000001
 30
0.0
 40
199.9999949999999
  0
CIRCLE
  5
14605
  8
0-5
  6
CONTINUOUS
 62
     4
 10
30527.413469013769
 20
16750.486978000001
 30
0.0
 40
199.9999949999999
  0
CIRCLE
  5
14606
  8
0-5
  6
CONTINUOUS
 62
     4
 10
30527.413469013769
 20
13832.486978000001
 30
0.0
 40
199.9999949999999
  0
CIRCLE
  5
14607
  8
0-5
  6
CONTINUOUS
 62
     4
 10
20366.911886013801
 20
21160.489216000002
 30
0.0
 40
199.9999949999999
  0
TEXT
  5
14608
  8
0-5
  6
CONTINUOUS
 62
     7
 10
25314.91556334712
 20
21074.262051999998
 30
0.0
 40
160.0
  1
2
 72
     4
 11
25368.248896680449
 21
21154.262051999998
 31
0.0
  0
TEXT
  5
14609
  8
0-5
  6
CONTINUOUS
 62
     7
 10
20368.248896680449
 20
21074.263366000021
 30
0.0
 40
160.0
  1
1
 72
     4
 11
20394.91556334712
 21
21154.263366000021
 31
0.0
  0
TEXT
  5
1460A
  8
0-5
  6
CONTINUOUS
 62
     7
 10
30469.42316434711
 20
19226.368919
 30
0.0
 40
160.0
  1
C
 72
     4
 11
30522.756497680439
 21
19306.368919
 31
0.0
  0
TEXT
  5
1460B
  8
0-5
  6
CONTINUOUS
 62
     7
 10
30469.42316434711
 20
16658.868920000012
 30
0.0
 40
160.0
  1
B
 72
     4
 11
30522.756497680439
 21
16738.868920000012
 31
0.0
  0
TEXT
  5
1460C
  8
0-5
  6
CONTINUOUS
 62
     7
 10
30469.42316434711
 20
13740.868919
 30
0.0
 40
160.0
  1
A
 72
     4
 11
30522.756497680439
 21
13820.868919
 31
0.0
  0
LINE
  5
1460D
  8
2-0
  6
CENTER2
 62
     6
 10
20366.911886013801
 20
20960.489221
 30
0.0
 11
20366.911886013801
 21
13474.73309953157
 31
0.0
  0
CIRCLE
  5
1460E
  8
0-5
  6
CONTINUOUS
 62
     4
 10
28284.91188601379
 20
21160.489216000002
 30
0.0
 40
199.9999949999999
  0
TEXT
  5
1460F
  8
0-5
  6
CONTINUOUS
 62
     7
 10
28232.91556334712
 20
21074.263366000021
 30
0.0
 40
160.0
  1
3
 72
     4
 11
28286.248896680449
 21
21154.263366000021
 31
0.0
  0
ARC
  5
14610
  8
1-後柱P
  6
HIDE-M
 62
     6
 10
20363.311886013791
 20
19249.936978000002
 30
0.0
 40
2.6000000000000001
 50
270.0
 51
0.000000000000007
  0
LINE
  5
14611
  8
1-後柱P
  6
HIDE-M
 62
     6
 10
20374.911886013801
 20
19247.887587846799
 30
0.0
 11
20374.911886013801
 21
19251.536978
 31
0.0
  0
LINE
  5
14612
  8
1-後柱P
  6
HIDE-M
 62
     6
 10
20364.911886013801
 20
19247.887587846799
 30
0.0
 11
20364.911886013801
 21
19251.536978
 31
0.0
  0
LINE
  5
14613
  8
1-後柱P
  6
1PL-M
 62
     6
 10
20369.911886013801
 20
19242.33697800001
 30
0.0
 11
20369.911886013801
 21
19256.536978
 31
0.0
  0
ARC
  5
14614
  8
1-後柱P
  6
HIDE-M
 62
     6
 10
20376.511886013792
 20
19249.936978000002
 30
0.0
 40
2.6000000000000001
 50
180.0
 51
270.0
  0
LINE
  5
14615
  8
1-後柱P
  6
HIDE-M
 62
     6
 10
20365.911886013801
 20
19249.936978000002
 30
0.0
 11
20365.911886013801
 21
19251.536978
 31
0.0
  0
LINE
  5
14616
  8
1-後柱P
  6
HIDE-M
 62
     6
 10
20373.911886013801
 20
19249.936978000002
 30
0.0
 11
20373.911886013801
 21
19251.536978
 31
0.0
  0
LINE
  5
14617
  8
1-後柱P
 10
20356.011886013792
 20
19362.236978000001
 30
0.0
 11
20377.811886013791
 21
19362.236978000001
 31
0.0
  0
LINE
  5
14618
  8
1-後柱P
 10
20407.811886013791
 20
19324.936978000002
 30
0.0
 11
20407.811886013791
 21
19332.236978000001
 31
0.0
  0
ARC
  5
14619
  8
1-後柱P
 10
20377.811886013791
 20
19332.236978000001
 30
0.0
 40
30.0
 50
0.000000000000007
 51
90.0
  0
ARC
  5
1461A
  8
1-後柱P
 10
20377.811886013791
 20
19332.236978000001
 30
0.0
 40
31.600000000000001
 50
0.000000000000007
 51
90.0
  0
LINE
  5
1461B
  8
1-後柱P
 10
20356.011886013792
 20
19363.83697800001
 30
0.0
 11
20377.811886013791
 21
19363.83697800001
 31
0.0
  0
LINE
  5
1461C
  8
1-後柱P
 10
20409.41188601379
 20
19324.936978000002
 30
0.0
 11
20409.41188601379
 21
19332.236978000001
 31
0.0
  0
LINE
  5
1461D
  8
1-後柱P
 10
20386.41188601379
 20
19303.33697800001
 30
0.0
 11
20386.41188601379
 21
19313.33697800001
 31
0.0
  0
LINE
  5
1461E
  8
1-後柱P
 10
20384.811886013791
 20
19313.33697800001
 30
0.0
 11
20384.811886013791
 21
19303.33697800001
 31
0.0
  0
LINE
  5
1461F
  8
1-後柱P
 10
20326.011886013792
 20
19324.936978000002
 30
0.0
 11
20326.011886013792
 21
19332.236978000001
 31
0.0
  0
ARC
  5
14620
  8
1-後柱P
 10
20356.011886013792
 20
19332.236978000001
 30
0.0
 40
30.0
 50
90.0
 51
180.0
  0
ARC
  5
14621
  8
1-後柱P
 10
20356.011886013792
 20
19332.236978000001
 30
0.0
 40
31.600000000000001
 50
90.0
 51
180.0
  0
LINE
  5
14622
  8
1-後柱P
 10
20324.411886013801
 20
19324.936978000002
 30
0.0
 11
20324.411886013801
 21
19332.236978000001
 31
0.0
  0
LINE
  5
14623
  8
1-後柱P
 10
20331.011886013792
 20
19318.33697800001
 30
0.0
 11
20342.411886013801
 21
19318.33697800001
 31
0.0
  0
ARC
  5
14624
  8
1-後柱P
 10
20331.011886013792
 20
19324.936978000002
 30
0.0
 40
6.599999999999997
 50
180.0
 51
270.0
  0
ARC
  5
14625
  8
1-後柱P
 10
20342.411886013801
 20
19313.33697800001
 30
0.0
 40
5.0
 50
0.000000000000007
 51
90.0
  0
LINE
  5
14626
  8
1-後柱P
 10
20331.011886013792
 20
19319.936978000002
 30
0.0
 11
20342.411886013801
 21
19319.936978000002
 31
0.0
  0
ARC
  5
14627
  8
1-後柱P
 10
20331.011886013792
 20
19324.936978000002
 30
0.0
 40
5.0
 50
180.0
 51
270.0
  0
LINE
  5
14628
  8
1-後柱P
 10
20347.411886013801
 20
19313.33697800001
 30
0.0
 11
20347.411886013801
 21
19253.936978000002
 31
0.0
  0
LINE
  5
14629
  8
1-後柱P
 10
20349.011886013792
 20
19313.33697800001
 30
0.0
 11
20349.011886013792
 21
19253.936978000002
 31
0.0
  0
ARC
  5
1462A
  8
1-後柱P
 10
20342.411886013801
 20
19313.33697800001
 30
0.0
 40
6.599999999999997
 50
0.000000000000007
 51
90.0
  0
LINE
  5
1462B
  8
1-後柱P
 10
20354.011886013792
 20
19247.33697800001
 30
0.0
 11
20387.411886013801
 21
19247.33697800001
 31
0.0
  0
ARC
  5
1462C
  8
1-後柱P
 10
20354.011886013792
 20
19253.936978000002
 30
0.0
 40
6.599999999999997
 50
180.0
 51
270.0
  0
LINE
  5
1462D
  8
1-後柱P
 10
20354.011886013792
 20
19248.936978000002
 30
0.0
 11
20387.411886013801
 21
19248.936978000002
 31
0.0
  0
ARC
  5
1462E
  8
1-後柱P
 10
20354.011886013792
 20
19253.936978000002
 30
0.0
 40
5.0
 50
180.0
 51
270.0
  0
LINE
  5
1462F
  8
1-後柱P
 10
20387.411886013801
 20
19248.936978000002
 30
0.0
 11
20387.411886013801
 21
19247.33697800001
 31
0.0
  0
LINE
  5
14630
  8
1-後柱P
 10
20402.811886013791
 20
19318.33697800001
 30
0.0
 11
20391.411886013801
 21
19318.33697800001
 31
0.0
  0
ARC
  5
14631
  8
1-後柱P
 10
20402.811886013791
 20
19324.936978000002
 30
0.0
 40
6.599999999999997
 50
270.0
 51
0.000000000000007
  0
ARC
  5
14632
  8
1-後柱P
 10
20391.411886013801
 20
19313.33697800001
 30
0.0
 40
5.0
 50
90.0
 51
180.0
  0
LINE
  5
14633
  8
1-後柱P
 10
20391.411886013801
 20
19319.936978000002
 30
0.0
 11
20402.811886013791
 21
19319.936978000002
 31
0.0
  0
ARC
  5
14634
  8
1-後柱P
 10
20391.411886013801
 20
19313.33697800001
 30
0.0
 40
6.599999999999997
 50
90.0
 51
180.0
  0
ARC
  5
14635
  8
1-後柱P
 10
20402.811886013791
 20
19324.936978000002
 30
0.0
 40
5.0
 50
270.0
 51
0.000000000000007
  0
LINE
  5
14636
  8
1-後柱P
 10
20386.41188601379
 20
19303.33697800001
 30
0.0
 11
20384.811886013791
 21
19303.33697800001
 31
0.0
  0
LINE
  5
14637
  8
1-後柱カバ-P
 10
20409.41188601379
 20
19311.636977999999
 30
0.0
 11
20409.41188601379
 21
19252.33697800001
 31
0.0
  0
ARC
  5
14638
  8
1-後柱カバ-P
 10
20402.811886013791
 20
19252.33697800001
 30
0.0
 40
6.599999999999997
 50
270.0
 51
0.000000000000007
  0
LINE
  5
14639
  8
1-後柱カバ-P
 10
20407.811886013791
 20
19311.636977999999
 30
0.0
 11
20407.811886013791
 21
19252.33697800001
 31
0.0
  0
ARC
  5
1463A
  8
1-後柱カバ-P
 10
20402.811886013791
 20
19311.636977999999
 30
0.0
 40
5.0
 50
0.000000000000007
 51
90.0
  0
LINE
  5
1463B
  8
1-後柱カバ-P
 10
20402.811886013791
 20
19245.736978000001
 30
0.0
 11
20331.011886013792
 21
19245.736978000001
 31
0.0
  0
ARC
  5
1463C
  8
1-後柱カバ-P
 10
20331.011886013792
 20
19252.33697800001
 30
0.0
 40
6.599999999999997
 50
180.0
 51
270.0
  0
LINE
  5
1463D
  8
1-後柱カバ-P
 10
20402.811886013791
 20
19247.33697800001
 30
0.0
 11
20331.011886013792
 21
19247.33697800001
 31
0.0
  0
ARC
  5
1463E
  8
1-後柱カバ-P
 10
20331.011886013792
 20
19252.33697800001
 30
0.0
 40
5.0
 50
180.0
 51
270.0
  0
ARC
  5
1463F
  8
1-後柱カバ-P
 10
20402.811886013791
 20
19252.33697800001
 30
0.0
 40
5.0
 50
270.0
 51
0.000000000000007
  0
LINE
  5
14640
  8
1-後柱カバ-P
 10
20324.411886013801
 20
19252.33697800001
 30
0.0
 11
20324.411886013801
 21
19311.636977999999
 31
0.0
  0
LINE
  5
14641
  8
1-後柱カバ-P
 10
20326.011886013792
 20
19252.33697800001
 30
0.0
 11
20326.011886013792
 21
19311.636977999999
 31
0.0
  0
ARC
  5
14642
  8
1-後柱カバ-P
 10
20331.011886013792
 20
19311.636977999999
 30
0.0
 40
5.0
 50
90.0
 51
180.0
  0
LINE
  5
14643
  8
1-後柱カバ-P
  6
1PL-M
 62
     6
 10
20366.911886013801
 20
19253.236978000001
 30
0.0
 11
20366.911886013801
 21
19240.236978000001
 31
0.0
  0
LINE
  5
14644
  8
1-後柱カバ-P
  6
HIDE-M
 62
     6
 10
20373.911886013801
 20
19245.736978000001
 30
0.0
 11
20373.911886013801
 21
19247.33697800001
 31
0.0
  0
LINE
  5
14645
  8
1-後柱カバ-P
  6
HIDE-M
 62
     6
 10
20359.91188601379
 20
19245.736978000001
 30
0.0
 11
20359.91188601379
 21
19247.33697800001
 31
0.0
  0
ARC
  5
14646
  8
1-後柱カバ-P
 10
20402.811886013791
 20
19311.636977999999
 30
0.0
 40
6.599999999999997
 50
0.000000000000007
 51
90.0
  0
ARC
  5
14647
  8
1-後柱カバ-P
 10
20331.011886013792
 20
19311.636977999999
 30
0.0
 40
6.599999999999997
 50
90.0
 51
180.0
  0
LINE
  5
14648
  8
1-後柱カバ-P
 10
20339.411886013801
 20
19318.236978000001
 30
0.0
 11
20331.011886013792
 21
19318.236978000001
 31
0.0
  0
LINE
  5
14649
  8
1-後柱カバ-P
 10
20394.411886013801
 20
19318.236978000001
 30
0.0
 11
20402.811886013791
 21
19318.236978000001
 31
0.0
  0
LINE
  5
1464A
  8
1-後柱カバ-P
 10
20339.411886013801
 20
19316.63697800001
 30
0.0
 11
20331.011886013792
 21
19316.63697800001
 31
0.0
  0
LINE
  5
1464B
  8
1-後柱カバ-P
 10
20394.411886013801
 20
19316.63697800001
 30
0.0
 11
20402.811886013791
 21
19316.63697800001
 31
0.0
  0
LINE
  5
1464C
  8
1-後柱カバ-P
 10
20394.411886013801
 20
19316.63697800001
 30
0.0
 11
20394.411886013801
 21
19318.236978000001
 31
0.0
  0
LINE
  5
1464D
  8
1-後柱カバ-P
 10
20339.411886013801
 20
19318.236978000001
 30
0.0
 11
20339.411886013801
 21
19316.63697800001
 31
0.0
  0
LINE
  5
1464E
  8
1-後柱カバ-P
  6
HIDE-M
 62
     6
 10
20335.511886013792
 20
19297.236978000001
 30
0.0
 11
20323.911886013801
 21
19297.236978000001
 31
0.0
  0
LINE
  5
1464F
  8
1-後柱カバ-P
  6
HIDE-M
 62
     6
 10
20335.511886013792
 20
19289.236978000001
 30
0.0
 11
20323.911886013801
 21
19289.236978000001
 31
0.0
  0
LINE
  5
14650
  8
1-後柱カバ-P
  6
HIDE-M
 62
     6
 10
20335.511886013792
 20
19296.236978000001
 30
0.0
 11
20323.911886013801
 21
19296.236978000001
 31
0.0
  0
LINE
  5
14651
  8
1-後柱カバ-P
  6
HIDE-M
 62
     6
 10
20335.511886013792
 20
19290.236978000001
 30
0.0
 11
20323.911886013801
 21
19290.236978000001
 31
0.0
  0
LINE
  5
14652
  8
1-後柱カバ-P
 10
20334.511886013792
 20
19287.736978000001
 30
0.0
 11
20327.511886013792
 21
19287.736978000001
 31
0.0
  0
LINE
  5
14653
  8
1-後柱カバ-P
 10
20327.511886013792
 20
19298.736978000001
 30
0.0
 11
20334.511886013792
 21
19298.736978000001
 31
0.0
  0
LINE
  5
14654
  8
1-後柱カバ-P
 10
20327.511886013792
 20
19299.486978000001
 30
0.0
 11
20327.511886013792
 21
19286.986978000001
 31
0.0
  0
LINE
  5
14655
  8
1-後柱カバ-P
 10
20323.911886013801
 20
19299.236978000001
 30
0.0
 11
20323.911886013801
 21
19287.236978000001
 31
0.0
  0
LINE
  5
14656
  8
1-後柱カバ-P
  6
HIDE-M
 62
     6
 10
20326.011886013792
 20
19287.736978000001
 30
0.0
 11
20324.411886013801
 21
19287.736978000001
 31
0.0
  0
LINE
  5
14657
  8
1-後柱カバ-P
 10
20323.911886013801
 20
19287.236978000001
 30
0.0
 11
20324.411886013801
 21
19287.736978000001
 31
0.0
  0
ARC
  5
14658
  8
1-後柱カバ-P
 10
20326.761886013792
 20
19286.986978000001
 30
0.0
 40
0.75
 50
180.0
 51
0.000000000000007
  0
LINE
  5
14659
  8
1-後柱カバ-P
  6
HIDE-M
 62
     6
 10
20324.411886013801
 20
19298.736978000001
 30
0.0
 11
20326.011886013792
 21
19298.736978000001
 31
0.0
  0
LINE
  5
1465A
  8
1-後柱カバ-P
 10
20323.911886013801
 20
19299.236978000001
 30
0.0
 11
20324.411886013801
 21
19298.736978000001
 31
0.0
  0
ARC
  5
1465B
  8
1-後柱カバ-P
 10
20326.761886013792
 20
19299.486978000001
 30
0.0
 40
0.75
 50
0.000000000000007
 51
180.0
  0
LINE
  5
1465C
  8
1-後柱カバ-P
 10
20335.511886013792
 20
19297.736978000001
 30
0.0
 11
20335.511886013792
 21
19288.736978000001
 31
0.0
  0
ARC
  5
1465D
  8
1-後柱カバ-P
 10
20334.511886013792
 20
19288.736978000001
 30
0.0
 40
1.0
 50
270.0
 51
0.000000000000007
  0
ARC
  5
1465E
  8
1-後柱カバ-P
 10
20334.511886013792
 20
19297.736978000001
 30
0.0
 40
1.0
 50
0.000000000000007
 51
90.0
  0
LINE
  5
1465F
  8
1-後柱カバ-P
  6
1PL-M
 62
     6
 10
20340.511886013792
 20
19293.236978000001
 30
0.0
 11
20318.911886013801
 21
19293.236978000001
 31
0.0
  0
LINE
  5
14660
  8
1-後柱カバ-P
 10
20334.511886013792
 20
19277.736978000001
 30
0.0
 11
20327.511886013792
 21
19277.736978000001
 31
0.0
  0
LINE
  5
14661
  8
1-後柱カバ-P
 10
20323.911886013801
 20
19285.236978000001
 30
0.0
 11
20323.911886013801
 21
19277.236978000001
 31
0.0
  0
LINE
  5
14662
  8
1-後柱カバ-P
  6
HIDE-M
 62
     6
 10
20326.011886013792
 20
19277.736978000001
 30
0.0
 11
20324.411886013801
 21
19277.736978000001
 31
0.0
  0
LINE
  5
14663
  8
1-後柱カバ-P
 10
20323.911886013801
 20
19277.236978000001
 30
0.0
 11
20324.411886013801
 21
19277.736978000001
 31
0.0
  0
ARC
  5
14664
  8
1-後柱カバ-P
 10
20326.761886013792
 20
19276.986978000001
 30
0.0
 40
0.75
 50
180.0
 51
0.000000000000007
  0
LINE
  5
14665
  8
1-後柱カバ-P
 10
20335.511886013792
 20
19286.736978000001
 30
0.0
 11
20335.511886013792
 21
19278.736978000001
 31
0.0
  0
ARC
  5
14666
  8
1-後柱カバ-P
 10
20334.511886013792
 20
19278.736978000001
 30
0.0
 40
1.0
 50
270.0
 51
0.000000000000007
  0
LINE
  5
14667
  8
1-後柱カバ-P
  6
1PL-M
 62
     6
 10
20340.511886013792
 20
19283.236978000001
 30
0.0
 11
20318.911886013801
 21
19283.236978000001
 31
0.0
  0
LINE
  5
14668
  8
1-後柱カバ-P
 10
20327.511886013792
 20
19284.986978000001
 30
0.0
 11
20327.511886013792
 21
19276.986978000001
 31
0.0
  0
LINE
  5
14669
  8
1-後柱カバ-P
  6
HIDE-M
 62
     6
 10
20398.311886013791
 20
19297.236978000001
 30
0.0
 11
20409.911886013801
 21
19297.236978000001
 31
0.0
  0
LINE
  5
1466A
  8
1-後柱カバ-P
  6
HIDE-M
 62
     6
 10
20398.311886013791
 20
19289.236978000001
 30
0.0
 11
20409.911886013801
 21
19289.236978000001
 31
0.0
  0
LINE
  5
1466B
  8
1-後柱カバ-P
  6
HIDE-M
 62
     6
 10
20398.311886013791
 20
19296.236978000001
 30
0.0
 11
20409.911886013801
 21
19296.236978000001
 31
0.0
  0
LINE
  5
1466C
  8
1-後柱カバ-P
  6
HIDE-M
 62
     6
 10
20398.311886013791
 20
19290.236978000001
 30
0.0
 11
20409.911886013801
 21
19290.236978000001
 31
0.0
  0
LINE
  5
1466D
  8
1-後柱カバ-P
 10
20399.311886013791
 20
19287.736978000001
 30
0.0
 11
20406.311886013791
 21
19287.736978000001
 31
0.0
  0
LINE
  5
1466E
  8
1-後柱カバ-P
 10
20406.311886013791
 20
19298.736978000001
 30
0.0
 11
20399.311886013791
 21
19298.736978000001
 31
0.0
  0
LINE
  5
1466F
  8
1-後柱カバ-P
 10
20406.311886013791
 20
19299.486978000001
 30
0.0
 11
20406.311886013791
 21
19286.986978000001
 31
0.0
  0
LINE
  5
14670
  8
1-後柱カバ-P
 10
20409.911886013801
 20
19299.236978000001
 30
0.0
 11
20409.911886013801
 21
19287.236978000001
 31
0.0
  0
LINE
  5
14671
  8
1-後柱カバ-P
  6
HIDE-M
 62
     6
 10
20407.811886013791
 20
19287.736978000001
 30
0.0
 11
20409.41188601379
 21
19287.736978000001
 31
0.0
  0
LINE
  5
14672
  8
1-後柱カバ-P
 10
20409.911886013801
 20
19287.236978000001
 30
0.0
 11
20409.41188601379
 21
19287.736978000001
 31
0.0
  0
ARC
  5
14673
  8
1-後柱カバ-P
 10
20407.061886013791
 20
19286.986978000001
 30
0.0
 40
0.75
 50
180.0
 51
0.000000000000007
  0
LINE
  5
14674
  8
1-後柱カバ-P
  6
HIDE-M
 62
     6
 10
20409.41188601379
 20
19298.736978000001
 30
0.0
 11
20407.811886013791
 21
19298.736978000001
 31
0.0
  0
LINE
  5
14675
  8
1-後柱カバ-P
 10
20409.911886013801
 20
19299.236978000001
 30
0.0
 11
20409.41188601379
 21
19298.736978000001
 31
0.0
  0
ARC
  5
14676
  8
1-後柱カバ-P
 10
20407.061886013791
 20
19299.486978000001
 30
0.0
 40
0.75
 50
0.000000000000007
 51
180.0
  0
LINE
  5
14677
  8
1-後柱カバ-P
 10
20398.311886013791
 20
19297.736978000001
 30
0.0
 11
20398.311886013791
 21
19288.736978000001
 31
0.0
  0
ARC
  5
14678
  8
1-後柱カバ-P
 10
20399.311886013791
 20
19288.736978000001
 30
0.0
 40
1.0
 50
180.0
 51
270.0
  0
ARC
  5
14679
  8
1-後柱カバ-P
 10
20399.311886013791
 20
19297.736978000001
 30
0.0
 40
1.0
 50
90.0
 51
180.0
  0
LINE
  5
1467A
  8
1-後柱カバ-P
  6
1PL-M
 62
     6
 10
20393.311886013791
 20
19293.236978000001
 30
0.0
 11
20414.911886013801
 21
19293.236978000001
 31
0.0
  0
LINE
  5
1467B
  8
1-後柱カバ-P
 10
20399.311886013791
 20
19277.736978000001
 30
0.0
 11
20406.311886013791
 21
19277.736978000001
 31
0.0
  0
LINE
  5
1467C
  8
1-後柱カバ-P
 10
20409.911886013801
 20
19285.236978000001
 30
0.0
 11
20409.911886013801
 21
19277.236978000001
 31
0.0
  0
LINE
  5
1467D
  8
1-後柱カバ-P
  6
HIDE-M
 62
     6
 10
20407.811886013791
 20
19277.736978000001
 30
0.0
 11
20409.41188601379
 21
19277.736978000001
 31
0.0
  0
LINE
  5
1467E
  8
1-後柱カバ-P
 10
20409.911886013801
 20
19277.236978000001
 30
0.0
 11
20409.41188601379
 21
19277.736978000001
 31
0.0
  0
ARC
  5
1467F
  8
1-後柱カバ-P
 10
20407.061886013791
 20
19276.986978000001
 30
0.0
 40
0.75
 50
180.0
 51
0.000000000000007
  0
LINE
  5
14680
  8
1-後柱カバ-P
 10
20398.311886013791
 20
19286.736978000001
 30
0.0
 11
20398.311886013791
 21
19278.736978000001
 31
0.0
  0
ARC
  5
14681
  8
1-後柱カバ-P
 10
20399.311886013791
 20
19278.736978000001
 30
0.0
 40
1.0
 50
180.0
 51
270.0
  0
LINE
  5
14682
  8
1-後柱カバ-P
  6
1PL-M
 62
     6
 10
20393.311886013791
 20
19283.236978000001
 30
0.0
 11
20414.911886013801
 21
19283.236978000001
 31
0.0
  0
LINE
  5
14683
  8
1-後柱カバ-P
 10
20406.311886013791
 20
19284.986978000001
 30
0.0
 11
20406.311886013791
 21
19276.986978000001
 31
0.0
  0
LINE
  5
14684
  8
1-後柱カバ-P
  6
HIDE-M
 62
     6
 10
20335.511886013792
 20
19279.236978000001
 30
0.0
 11
20323.911886013801
 21
19279.236978000001
 31
0.0
  0
LINE
  5
14685
  8
1-後柱カバ-P
  6
HIDE-M
 62
     6
 10
20335.511886013792
 20
19280.236978000001
 30
0.0
 11
20323.911886013801
 21
19280.236978000001
 31
0.0
  0
LINE
  5
14686
  8
1-後柱カバ-P
  6
HIDE-M
 62
     6
 10
20398.311886013791
 20
19279.236978000001
 30
0.0
 11
20409.911886013801
 21
19279.236978000001
 31
0.0
  0
LINE
  5
14687
  8
1-後柱カバ-P
  6
HIDE-M
 62
     6
 10
20398.311886013791
 20
19280.236978000001
 30
0.0
 11
20409.911886013801
 21
19280.236978000001
 31
0.0
  0
LINE
  5
14688
  8
1-中柱P
 10
20331.01188601381
 20
16679.486978000001
 30
0.0
 11
20402.811886013798
 21
16679.486978000001
 31
0.0
  0
ARC
  5
14689
  8
1-中柱P
 10
20331.01188601381
 20
16684.486978000001
 30
0.0
 40
5.0
 50
180.0
 51
270.0
  0
ARC
  5
1468A
  8
1-中柱P
 10
20402.811886013798
 20
16684.486978000001
 30
0.0
 40
5.0
 50
270.0
 51
0.000000000000007
  0
LINE
  5
1468B
  8
1-中柱P
 10
20331.01188601381
 20
16677.886977999999
 30
0.0
 11
20402.811886013798
 21
16677.886977999999
 31
0.0
  0
ARC
  5
1468C
  8
1-中柱P
 10
20331.01188601381
 20
16684.486978000001
 30
0.0
 40
6.599999999999997
 50
180.0
 51
270.0
  0
LINE
  5
1468D
  8
1-中柱P
 10
20409.41188601379
 20
16743.786978
 30
0.0
 11
20409.41188601379
 21
16684.486978000001
 31
0.0
  0
ARC
  5
1468E
  8
1-中柱P
 10
20402.811886013798
 20
16684.486978000001
 30
0.0
 40
6.599999999999997
 50
270.0
 51
0.000000000000007
  0
LINE
  5
1468F
  8
1-中柱P
 10
20407.811886013809
 20
16684.486978000001
 30
0.0
 11
20407.811886013809
 21
16743.786978
 31
0.0
  0
ARC
  5
14690
  8
1-中柱P
 10
20402.811886013798
 20
16743.786978
 30
0.0
 40
5.0
 50
0.000000000000007
 51
90.0
  0
LINE
  5
14691
  8
1-中柱P
 10
20324.411886013801
 20
16743.786978
 30
0.0
 11
20324.411886013801
 21
16684.486978000001
 31
0.0
  0
LINE
  5
14692
  8
1-中柱P
 10
20326.011886013792
 20
16684.486978000001
 30
0.0
 11
20326.011886013792
 21
16743.786978
 31
0.0
  0
LINE
  5
14693
  8
1-中柱P
 10
20331.01188601381
 20
16750.38697800001
 30
0.0
 11
20339.411886013801
 21
16750.38697800001
 31
0.0
  0
ARC
  5
14694
  8
1-中柱P
 10
20331.01188601381
 20
16743.786978
 30
0.0
 40
6.599999999999997
 50
90.0
 51
180.0
  0
LINE
  5
14695
  8
1-中柱P
 10
20331.01188601381
 20
16748.786978
 30
0.0
 11
20339.411886013801
 21
16748.786978
 31
0.0
  0
ARC
  5
14696
  8
1-中柱P
 10
20339.411886013801
 20
16755.38697800001
 30
0.0
 40
6.599999999999997
 50
270.0
 51
0.000000000000007
  0
ARC
  5
14697
  8
1-中柱P
 10
20331.01188601381
 20
16743.786978
 30
0.0
 40
5.0
 50
90.0
 51
180.0
  0
LINE
  5
14698
  8
1-中柱P
 10
20344.411886013801
 20
16755.38697800001
 30
0.0
 11
20344.411886013801
 21
16814.786978000011
 31
0.0
  0
ARC
  5
14699
  8
1-中柱P
 10
20339.411886013801
 20
16755.38697800001
 30
0.0
 40
5.0
 50
270.0
 51
0.000000000000007
  0
LINE
  5
1469A
  8
1-中柱P
 10
20346.011886013799
 20
16755.38697800001
 30
0.0
 11
20346.011886013799
 21
16814.786978000011
 31
0.0
  0
LINE
  5
1469B
  8
1-中柱P
 10
20351.011886013792
 20
16821.38697800001
 30
0.0
 11
20384.411886013801
 21
16821.38697800001
 31
0.0
  0
ARC
  5
1469C
  8
1-中柱P
 10
20351.011886013792
 20
16814.786978000011
 30
0.0
 40
6.599999999999997
 50
90.0
 51
180.0
  0
LINE
  5
1469D
  8
1-中柱P
 10
20351.011886013792
 20
16819.786978000011
 30
0.0
 11
20384.411886013801
 21
16819.786978000011
 31
0.0
  0
ARC
  5
1469E
  8
1-中柱P
 10
20351.011886013792
 20
16814.786978000011
 30
0.0
 40
5.0
 50
90.0
 51
180.0
  0
LINE
  5
1469F
  8
1-中柱P
 10
20384.411886013801
 20
16819.786978000011
 30
0.0
 11
20384.411886013801
 21
16821.38697800001
 31
0.0
  0
LINE
  5
146A0
  8
1-中柱P
 10
20402.811886013798
 20
16750.38697800001
 30
0.0
 11
20394.411886013801
 21
16750.38697800001
 31
0.0
  0
ARC
  5
146A1
  8
1-中柱P
 10
20402.811886013798
 20
16743.786978
 30
0.0
 40
6.599999999999997
 50
0.000000000000007
 51
90.0
  0
ARC
  5
146A2
  8
1-中柱P
 10
20394.411886013801
 20
16755.38697800001
 30
0.0
 40
5.0
 50
180.0
 51
270.0
  0
LINE
  5
146A3
  8
1-中柱P
 10
20394.411886013801
 20
16748.786978
 30
0.0
 11
20402.811886013798
 21
16748.786978
 31
0.0
  0
ARC
  5
146A4
  8
1-中柱P
 10
20394.411886013801
 20
16755.38697800001
 30
0.0
 40
6.599999999999997
 50
180.0
 51
270.0
  0
ARC
  5
146A5
  8
1-中柱P
  6
HIDE-M
 62
     6
 10
20360.311886013809
 20
16818.786978000011
 30
0.0
 40
2.6000000000000001
 50
0.000000000000007
 51
90.0
  0
LINE
  5
146A6
  8
1-中柱P
  6
HIDE-M
 62
     6
 10
20371.911886013801
 20
16820.836368153181
 30
0.0
 11
20371.911886013801
 21
16817.186978000002
 31
0.0
  0
LINE
  5
146A7
  8
1-中柱P
  6
HIDE-M
 62
     6
 10
20361.91188601379
 20
16820.836368153181
 30
0.0
 11
20361.91188601379
 21
16817.186978000002
 31
0.0
  0
LINE
  5
146A8
  8
1-中柱P
  6
1PL-M
 62
     6
 10
20366.911886013801
 20
16826.386977999999
 30
0.0
 11
20366.911886013801
 21
16812.186978000009
 31
0.0
  0
ARC
  5
146A9
  8
1-中柱P
  6
HIDE-M
 62
     6
 10
20373.511886013792
 20
16818.786978000011
 30
0.0
 40
2.6000000000000001
 50
90.0
 51
180.0
  0
LINE
  5
146AA
  8
1-中柱P
  6
HIDE-M
 62
     6
 10
20362.911886013801
 20
16818.786978000011
 30
0.0
 11
20362.911886013801
 21
16817.186978000002
 31
0.0
  0
LINE
  5
146AB
  8
1-中柱P
  6
HIDE-M
 62
     6
 10
20370.911886013801
 20
16818.786978000011
 30
0.0
 11
20370.911886013801
 21
16817.186978000002
 31
0.0
  0
LINE
  5
146AC
  8
1-中柱P
 10
20387.811886013798
 20
16755.38697800001
 30
0.0
 11
20387.811886013798
 21
16765.386977999999
 31
0.0
  0
LINE
  5
146AD
  8
1-中柱P
 10
20389.411886013801
 20
16755.38697800001
 30
0.0
 11
20389.411886013801
 21
16765.386977999999
 31
0.0
  0
LINE
  5
146AE
  8
1-中柱P
 10
20387.811886013798
 20
16765.386977999999
 30
0.0
 11
20389.411886013801
 21
16765.386977999999
 31
0.0
  0
LINE
  5
146AF
  8
1-中柱P
  6
1PL-M
 62
     6
 10
20339.411886013801
 20
16786.38697800001
 30
0.0
 11
20353.611886013779
 21
16786.38697800001
 31
0.0
  0
LINE
  5
146B0
  8
1-中柱P
  6
HIDE-M
 62
     6
 10
20335.511886013792
 20
16729.386977999999
 30
0.0
 11
20323.911886013801
 21
16729.386977999999
 31
0.0
  0
LINE
  5
146B1
  8
1-中柱P
  6
HIDE-M
 62
     6
 10
20335.511886013792
 20
16721.38697800001
 30
0.0
 11
20323.911886013801
 21
16721.38697800001
 31
0.0
  0
LINE
  5
146B2
  8
1-中柱P
  6
HIDE-M
 62
     6
 10
20335.511886013792
 20
16728.386977999999
 30
0.0
 11
20323.911886013801
 21
16728.386977999999
 31
0.0
  0
LINE
  5
146B3
  8
1-中柱P
  6
HIDE-M
 62
     6
 10
20335.511886013792
 20
16722.38697800001
 30
0.0
 11
20323.911886013801
 21
16722.38697800001
 31
0.0
  0
LINE
  5
146B4
  8
1-中柱P
 10
20334.511886013799
 20
16719.88697800001
 30
0.0
 11
20327.511886013799
 21
16719.88697800001
 31
0.0
  0
LINE
  5
146B5
  8
1-中柱P
 10
20327.511886013799
 20
16730.886977999999
 30
0.0
 11
20334.511886013799
 21
16730.886977999999
 31
0.0
  0
LINE
  5
146B6
  8
1-中柱P
 10
20327.511886013799
 20
16731.63697800001
 30
0.0
 11
20327.511886013799
 21
16719.13697800001
 31
0.0
  0
LINE
  5
146B7
  8
1-中柱P
 10
20323.911886013801
 20
16731.38697800001
 30
0.0
 11
20323.911886013801
 21
16719.386977999999
 31
0.0
  0
LINE
  5
146B8
  8
1-中柱P
  6
HIDE-M
 62
     6
 10
20326.011886013792
 20
16719.88697800001
 30
0.0
 11
20324.411886013801
 21
16719.88697800001
 31
0.0
  0
LINE
  5
146B9
  8
1-中柱P
 10
20323.911886013801
 20
16719.386977999999
 30
0.0
 11
20324.411886013801
 21
16719.88697800001
 31
0.0
  0
ARC
  5
146BA
  8
1-中柱P
 10
20326.761886013799
 20
16719.13697800001
 30
0.0
 40
0.75
 50
180.0
 51
0.000000000000007
  0
LINE
  5
146BB
  8
1-中柱P
  6
HIDE-M
 62
     6
 10
20324.411886013801
 20
16730.886977999999
 30
0.0
 11
20326.011886013792
 21
16730.886977999999
 31
0.0
  0
LINE
  5
146BC
  8
1-中柱P
 10
20323.911886013801
 20
16731.38697800001
 30
0.0
 11
20324.411886013801
 21
16730.886977999999
 31
0.0
  0
ARC
  5
146BD
  8
1-中柱P
 10
20326.761886013799
 20
16731.63697800001
 30
0.0
 40
0.75
 50
0.000000000000007
 51
180.0
  0
LINE
  5
146BE
  8
1-中柱P
 10
20335.511886013792
 20
16729.88697800001
 30
0.0
 11
20335.511886013792
 21
16720.88697800001
 31
0.0
  0
ARC
  5
146BF
  8
1-中柱P
 10
20334.511886013799
 20
16720.88697800001
 30
0.0
 40
1.0
 50
270.0
 51
0.000000000000007
  0
ARC
  5
146C0
  8
1-中柱P
 10
20334.511886013799
 20
16729.88697800001
 30
0.0
 40
1.0
 50
0.000000000000007
 51
90.0
  0
LINE
  5
146C1
  8
1-中柱P
  6
1PL-M
 62
     6
 10
20340.51188601381
 20
16725.38697800001
 30
0.0
 11
20318.911886013801
 21
16725.38697800001
 31
0.0
  0
LINE
  5
146C2
  8
1-中柱P
 10
20334.511886013799
 20
16709.88697800001
 30
0.0
 11
20327.511886013799
 21
16709.88697800001
 31
0.0
  0
LINE
  5
146C3
  8
1-中柱P
 10
20323.911886013801
 20
16717.38697800001
 30
0.0
 11
20323.911886013801
 21
16709.386977999999
 31
0.0
  0
LINE
  5
146C4
  8
1-中柱P
  6
HIDE-M
 62
     6
 10
20326.011886013792
 20
16709.88697800001
 30
0.0
 11
20324.411886013801
 21
16709.88697800001
 31
0.0
  0
LINE
  5
146C5
  8
1-中柱P
 10
20323.911886013801
 20
16709.386977999999
 30
0.0
 11
20324.411886013801
 21
16709.88697800001
 31
0.0
  0
ARC
  5
146C6
  8
1-中柱P
 10
20326.761886013799
 20
16709.136977999999
 30
0.0
 40
0.75
 50
180.0
 51
0.000000000000007
  0
LINE
  5
146C7
  8
1-中柱P
 10
20335.511886013792
 20
16718.886977999999
 30
0.0
 11
20335.511886013792
 21
16710.88697800001
 31
0.0
  0
ARC
  5
146C8
  8
1-中柱P
 10
20334.511886013799
 20
16710.88697800001
 30
0.0
 40
1.0
 50
270.0
 51
0.000000000000007
  0
LINE
  5
146C9
  8
1-中柱P
  6
1PL-M
 62
     6
 10
20340.51188601381
 20
16715.38697800001
 30
0.0
 11
20318.911886013801
 21
16715.38697800001
 31
0.0
  0
LINE
  5
146CA
  8
1-中柱P
 10
20327.511886013799
 20
16717.13697800001
 30
0.0
 11
20327.511886013799
 21
16709.136977999999
 31
0.0
  0
LINE
  5
146CB
  8
1-中柱P
  6
HIDE-M
 62
     6
 10
20335.511886013792
 20
16711.38697800001
 30
0.0
 11
20323.911886013801
 21
16711.38697800001
 31
0.0
  0
LINE
  5
146CC
  8
1-中柱P
  6
HIDE-M
 62
     6
 10
20335.511886013792
 20
16712.38697800001
 30
0.0
 11
20323.911886013801
 21
16712.38697800001
 31
0.0
  0
LINE
  5
146CD
  8
1-中柱P
  6
HIDE-M
 62
     6
 10
20398.311886013809
 20
16729.386977999999
 30
0.0
 11
20409.911886013801
 21
16729.386977999999
 31
0.0
  0
LINE
  5
146CE
  8
1-中柱P
  6
HIDE-M
 62
     6
 10
20398.311886013809
 20
16721.38697800001
 30
0.0
 11
20409.911886013801
 21
16721.38697800001
 31
0.0
  0
LINE
  5
146CF
  8
1-中柱P
  6
HIDE-M
 62
     6
 10
20398.311886013809
 20
16728.386977999999
 30
0.0
 11
20409.911886013801
 21
16728.386977999999
 31
0.0
  0
LINE
  5
146D0
  8
1-中柱P
  6
HIDE-M
 62
     6
 10
20398.311886013809
 20
16722.38697800001
 30
0.0
 11
20409.911886013801
 21
16722.38697800001
 31
0.0
  0
LINE
  5
146D1
  8
1-中柱P
 10
20399.311886013798
 20
16719.88697800001
 30
0.0
 11
20406.311886013809
 21
16719.88697800001
 31
0.0
  0
LINE
  5
146D2
  8
1-中柱P
 10
20406.311886013809
 20
16730.886977999999
 30
0.0
 11
20399.311886013798
 21
16730.886977999999
 31
0.0
  0
LINE
  5
146D3
  8
1-中柱P
 10
20406.311886013809
 20
16731.63697800001
 30
0.0
 11
20406.311886013809
 21
16719.13697800001
 31
0.0
  0
LINE
  5
146D4
  8
1-中柱P
 10
20409.911886013801
 20
16731.38697800001
 30
0.0
 11
20409.911886013801
 21
16719.386977999999
 31
0.0
  0
LINE
  5
146D5
  8
1-中柱P
  6
HIDE-M
 62
     6
 10
20407.811886013809
 20
16719.88697800001
 30
0.0
 11
20409.41188601379
 21
16719.88697800001
 31
0.0
  0
LINE
  5
146D6
  8
1-中柱P
 10
20409.911886013801
 20
16719.386977999999
 30
0.0
 11
20409.41188601379
 21
16719.88697800001
 31
0.0
  0
ARC
  5
146D7
  8
1-中柱P
 10
20407.061886013798
 20
16719.13697800001
 30
0.0
 40
0.75
 50
180.0
 51
0.000000000000007
  0
LINE
  5
146D8
  8
1-中柱P
  6
HIDE-M
 62
     6
 10
20409.41188601379
 20
16730.886977999999
 30
0.0
 11
20407.811886013809
 21
16730.886977999999
 31
0.0
  0
LINE
  5
146D9
  8
1-中柱P
 10
20409.911886013801
 20
16731.38697800001
 30
0.0
 11
20409.41188601379
 21
16730.886977999999
 31
0.0
  0
ARC
  5
146DA
  8
1-中柱P
 10
20407.061886013798
 20
16731.63697800001
 30
0.0
 40
0.75
 50
0.000000000000007
 51
180.0
  0
LINE
  5
146DB
  8
1-中柱P
 10
20398.311886013809
 20
16729.88697800001
 30
0.0
 11
20398.311886013809
 21
16720.88697800001
 31
0.0
  0
ARC
  5
146DC
  8
1-中柱P
 10
20399.311886013798
 20
16720.88697800001
 30
0.0
 40
1.0
 50
180.0
 51
270.0
  0
ARC
  5
146DD
  8
1-中柱P
 10
20399.311886013798
 20
16729.88697800001
 30
0.0
 40
1.0
 50
90.0
 51
180.0
  0
LINE
  5
146DE
  8
1-中柱P
  6
1PL-M
 62
     6
 10
20393.311886013798
 20
16725.38697800001
 30
0.0
 11
20414.911886013801
 21
16725.38697800001
 31
0.0
  0
LINE
  5
146DF
  8
1-中柱P
 10
20399.311886013798
 20
16709.88697800001
 30
0.0
 11
20406.311886013809
 21
16709.88697800001
 31
0.0
  0
LINE
  5
146E0
  8
1-中柱P
 10
20409.911886013801
 20
16717.38697800001
 30
0.0
 11
20409.911886013801
 21
16709.386977999999
 31
0.0
  0
LINE
  5
146E1
  8
1-中柱P
  6
HIDE-M
 62
     6
 10
20407.811886013809
 20
16709.88697800001
 30
0.0
 11
20409.41188601379
 21
16709.88697800001
 31
0.0
  0
LINE
  5
146E2
  8
1-中柱P
 10
20409.911886013801
 20
16709.386977999999
 30
0.0
 11
20409.41188601379
 21
16709.88697800001
 31
0.0
  0
ARC
  5
146E3
  8
1-中柱P
 10
20407.061886013798
 20
16709.136977999999
 30
0.0
 40
0.75
 50
180.0
 51
0.000000000000007
  0
LINE
  5
146E4
  8
1-中柱P
 10
20398.311886013809
 20
16718.886977999999
 30
0.0
 11
20398.311886013809
 21
16710.88697800001
 31
0.0
  0
ARC
  5
146E5
  8
1-中柱P
 10
20399.311886013798
 20
16710.88697800001
 30
0.0
 40
1.0
 50
180.0
 51
270.0
  0
LINE
  5
146E6
  8
1-中柱P
  6
1PL-M
 62
     6
 10
20393.311886013798
 20
16715.38697800001
 30
0.0
 11
20414.911886013801
 21
16715.38697800001
 31
0.0
  0
LINE
  5
146E7
  8
1-中柱P
 10
20406.311886013809
 20
16717.13697800001
 30
0.0
 11
20406.311886013809
 21
16709.136977999999
 31
0.0
  0
LINE
  5
146E8
  8
1-中柱P
  6
HIDE-M
 62
     6
 10
20398.311886013809
 20
16711.38697800001
 30
0.0
 11
20409.911886013801
 21
16711.38697800001
 31
0.0
  0
LINE
  5
146E9
  8
1-中柱P
  6
HIDE-M
 62
     6
 10
20398.311886013809
 20
16712.38697800001
 30
0.0
 11
20409.911886013801
 21
16712.38697800001
 31
0.0
  0
LINE
  5
146EA
  8
1-中柱カバ-P
 10
20409.41188601379
 20
16757.08697800001
 30
0.0
 11
20409.41188601379
 21
16816.38697800001
 31
0.0
  0
ARC
  5
146EB
  8
1-中柱カバ-P
 10
20402.811886013798
 20
16816.38697800001
 30
0.0
 40
6.599999999999997
 50
0.000000000000007
 51
90.0
  0
LINE
  5
146EC
  8
1-中柱カバ-P
 10
20407.811886013809
 20
16757.08697800001
 30
0.0
 11
20407.811886013809
 21
16816.38697800001
 31
0.0
  0
ARC
  5
146ED
  8
1-中柱カバ-P
 10
20402.811886013798
 20
16757.08697800001
 30
0.0
 40
5.0
 50
270.0
 51
0.000000000000007
  0
LINE
  5
146EE
  8
1-中柱カバ-P
 10
20402.811886013798
 20
16822.986978000001
 30
0.0
 11
20331.01188601381
 21
16822.986978000001
 31
0.0
  0
ARC
  5
146EF
  8
1-中柱カバ-P
 10
20331.01188601381
 20
16816.38697800001
 30
0.0
 40
6.599999999999997
 50
90.0
 51
180.0
  0
LINE
  5
146F0
  8
1-中柱カバ-P
 10
20402.811886013798
 20
16821.38697800001
 30
0.0
 11
20331.01188601381
 21
16821.38697800001
 31
0.0
  0
ARC
  5
146F1
  8
1-中柱カバ-P
 10
20331.01188601381
 20
16816.38697800001
 30
0.0
 40
5.0
 50
90.0
 51
180.0
  0
ARC
  5
146F2
  8
1-中柱カバ-P
 10
20402.811886013798
 20
16816.38697800001
 30
0.0
 40
5.0
 50
0.000000000000007
 51
90.0
  0
LINE
  5
146F3
  8
1-中柱カバ-P
 10
20324.411886013801
 20
16816.38697800001
 30
0.0
 11
20324.411886013801
 21
16757.08697800001
 31
0.0
  0
LINE
  5
146F4
  8
1-中柱カバ-P
 10
20326.011886013792
 20
16816.38697800001
 30
0.0
 11
20326.011886013792
 21
16757.08697800001
 31
0.0
  0
ARC
  5
146F5
  8
1-中柱カバ-P
 10
20331.01188601381
 20
16757.08697800001
 30
0.0
 40
5.0
 50
180.0
 51
270.0
  0
LINE
  5
146F6
  8
1-中柱カバ-P
  6
1PL-M
 62
     6
 10
20366.911886013801
 20
16815.486978000001
 30
0.0
 11
20366.911886013801
 21
16828.486978000001
 31
0.0
  0
LINE
  5
146F7
  8
1-中柱カバ-P
  6
HIDE-M
 62
     6
 10
20373.911886013801
 20
16822.986978000001
 30
0.0
 11
20373.911886013801
 21
16821.38697800001
 31
0.0
  0
LINE
  5
146F8
  8
1-中柱カバ-P
  6
HIDE-M
 62
     6
 10
20359.91188601379
 20
16822.986978000001
 30
0.0
 11
20359.91188601379
 21
16821.38697800001
 31
0.0
  0
ARC
  5
146F9
  8
1-中柱カバ-P
 10
20402.811886013798
 20
16757.08697800001
 30
0.0
 40
6.599999999999997
 50
270.0
 51
0.000000000000007
  0
ARC
  5
146FA
  8
1-中柱カバ-P
 10
20331.01188601381
 20
16757.08697800001
 30
0.0
 40
6.599999999999997
 50
180.0
 51
270.0
  0
LINE
  5
146FB
  8
1-中柱カバ-P
 10
20339.411886013801
 20
16750.486978000001
 30
0.0
 11
20331.01188601381
 21
16750.486978000001
 31
0.0
  0
LINE
  5
146FC
  8
1-中柱カバ-P
 10
20394.411886013801
 20
16750.486978000001
 30
0.0
 11
20402.811886013798
 21
16750.486978000001
 31
0.0
  0
LINE
  5
146FD
  8
1-中柱カバ-P
 10
20339.411886013801
 20
16752.08697800001
 30
0.0
 11
20331.01188601381
 21
16752.08697800001
 31
0.0
  0
LINE
  5
146FE
  8
1-中柱カバ-P
 10
20394.411886013801
 20
16752.08697800001
 30
0.0
 11
20402.811886013798
 21
16752.08697800001
 31
0.0
  0
LINE
  5
146FF
  8
1-中柱カバ-P
 10
20394.411886013801
 20
16752.08697800001
 30
0.0
 11
20394.411886013801
 21
16750.486978000001
 31
0.0
  0
LINE
  5
14700
  8
1-中柱カバ-P
 10
20339.411886013801
 20
16750.486978000001
 30
0.0
 11
20339.411886013801
 21
16752.08697800001
 31
0.0
  0
LINE
  5
14701
  8
1-中柱カバ-P
  6
HIDE-M
 62
     6
 10
20335.511886013792
 20
16771.486978000001
 30
0.0
 11
20323.911886013801
 21
16771.486978000001
 31
0.0
  0
LINE
  5
14702
  8
1-中柱カバ-P
  6
HIDE-M
 62
     6
 10
20335.511886013792
 20
16779.486978000001
 30
0.0
 11
20323.911886013801
 21
16779.486978000001
 31
0.0
  0
LINE
  5
14703
  8
1-中柱カバ-P
  6
HIDE-M
 62
     6
 10
20335.511886013792
 20
16772.486978000001
 30
0.0
 11
20323.911886013801
 21
16772.486978000001
 31
0.0
  0
LINE
  5
14704
  8
1-中柱カバ-P
  6
HIDE-M
 62
     6
 10
20335.511886013792
 20
16778.486978000001
 30
0.0
 11
20323.911886013801
 21
16778.486978000001
 31
0.0
  0
LINE
  5
14705
  8
1-中柱カバ-P
 10
20334.511886013799
 20
16780.986978000001
 30
0.0
 11
20327.511886013799
 21
16780.986978000001
 31
0.0
  0
LINE
  5
14706
  8
1-中柱カバ-P
 10
20327.511886013799
 20
16769.986978000001
 30
0.0
 11
20334.511886013799
 21
16769.986978000001
 31
0.0
  0
LINE
  5
14707
  8
1-中柱カバ-P
 10
20327.511886013799
 20
16769.236978000001
 30
0.0
 11
20327.511886013799
 21
16781.736978000001
 31
0.0
  0
LINE
  5
14708
  8
1-中柱カバ-P
 10
20323.911886013801
 20
16769.486978000001
 30
0.0
 11
20323.911886013801
 21
16781.486978000001
 31
0.0
  0
LINE
  5
14709
  8
1-中柱カバ-P
  6
HIDE-M
 62
     6
 10
20326.011886013792
 20
16780.986978000001
 30
0.0
 11
20324.411886013801
 21
16780.986978000001
 31
0.0
  0
LINE
  5
1470A
  8
1-中柱カバ-P
 10
20323.911886013801
 20
16781.486978000001
 30
0.0
 11
20324.411886013801
 21
16780.986978000001
 31
0.0
  0
ARC
  5
1470B
  8
1-中柱カバ-P
 10
20326.761886013799
 20
16781.736978000001
 30
0.0
 40
0.75
 50
0.000000000000007
 51
180.0
  0
LINE
  5
1470C
  8
1-中柱カバ-P
  6
HIDE-M
 62
     6
 10
20324.411886013801
 20
16769.986978000001
 30
0.0
 11
20326.011886013792
 21
16769.986978000001
 31
0.0
  0
LINE
  5
1470D
  8
1-中柱カバ-P
 10
20323.911886013801
 20
16769.486978000001
 30
0.0
 11
20324.411886013801
 21
16769.986978000001
 31
0.0
  0
ARC
  5
1470E
  8
1-中柱カバ-P
 10
20326.761886013799
 20
16769.236978000001
 30
0.0
 40
0.75
 50
180.0
 51
0.000000000000007
  0
LINE
  5
1470F
  8
1-中柱カバ-P
 10
20335.511886013792
 20
16770.986978000001
 30
0.0
 11
20335.511886013792
 21
16779.986978000001
 31
0.0
  0
ARC
  5
14710
  8
1-中柱カバ-P
 10
20334.511886013799
 20
16779.986978000001
 30
0.0
 40
1.0
 50
0.000000000000007
 51
90.0
  0
ARC
  5
14711
  8
1-中柱カバ-P
 10
20334.511886013799
 20
16770.986978000001
 30
0.0
 40
1.0
 50
270.0
 51
0.000000000000007
  0
LINE
  5
14712
  8
1-中柱カバ-P
  6
1PL-M
 62
     6
 10
20340.51188601381
 20
16775.486978000001
 30
0.0
 11
20318.911886013801
 21
16775.486978000001
 31
0.0
  0
LINE
  5
14713
  8
1-中柱カバ-P
 10
20334.511886013799
 20
16790.986978000001
 30
0.0
 11
20327.511886013799
 21
16790.986978000001
 31
0.0
  0
LINE
  5
14714
  8
1-中柱カバ-P
 10
20323.911886013801
 20
16783.486978000001
 30
0.0
 11
20323.911886013801
 21
16791.486978000001
 31
0.0
  0
LINE
  5
14715
  8
1-中柱カバ-P
  6
HIDE-M
 62
     6
 10
20326.011886013792
 20
16790.986978000001
 30
0.0
 11
20324.411886013801
 21
16790.986978000001
 31
0.0
  0
LINE
  5
14716
  8
1-中柱カバ-P
 10
20323.911886013801
 20
16791.486978000001
 30
0.0
 11
20324.411886013801
 21
16790.986978000001
 31
0.0
  0
ARC
  5
14717
  8
1-中柱カバ-P
 10
20326.761886013799
 20
16791.736978000001
 30
0.0
 40
0.75
 50
0.000000000000007
 51
180.0
  0
LINE
  5
14718
  8
1-中柱カバ-P
 10
20335.511886013792
 20
16781.986978000001
 30
0.0
 11
20335.511886013792
 21
16789.986978000001
 31
0.0
  0
ARC
  5
14719
  8
1-中柱カバ-P
 10
20334.511886013799
 20
16789.986978000001
 30
0.0
 40
1.0
 50
0.000000000000007
 51
90.0
  0
LINE
  5
1471A
  8
1-中柱カバ-P
  6
1PL-M
 62
     6
 10
20340.51188601381
 20
16785.486978000001
 30
0.0
 11
20318.911886013801
 21
16785.486978000001
 31
0.0
  0
LINE
  5
1471B
  8
1-中柱カバ-P
 10
20327.511886013799
 20
16783.736978000001
 30
0.0
 11
20327.511886013799
 21
16791.736978000001
 31
0.0
  0
LINE
  5
1471C
  8
1-中柱カバ-P
  6
HIDE-M
 62
     6
 10
20398.311886013809
 20
16771.486978000001
 30
0.0
 11
20409.911886013801
 21
16771.486978000001
 31
0.0
  0
LINE
  5
1471D
  8
1-中柱カバ-P
  6
HIDE-M
 62
     6
 10
20398.311886013809
 20
16779.486978000001
 30
0.0
 11
20409.911886013801
 21
16779.486978000001
 31
0.0
  0
LINE
  5
1471E
  8
1-中柱カバ-P
  6
HIDE-M
 62
     6
 10
20398.311886013809
 20
16772.486978000001
 30
0.0
 11
20409.911886013801
 21
16772.486978000001
 31
0.0
  0
LINE
  5
1471F
  8
1-中柱カバ-P
  6
HIDE-M
 62
     6
 10
20398.311886013809
 20
16778.486978000001
 30
0.0
 11
20409.911886013801
 21
16778.486978000001
 31
0.0
  0
LINE
  5
14720
  8
1-中柱カバ-P
 10
20399.311886013798
 20
16780.986978000001
 30
0.0
 11
20406.311886013809
 21
16780.986978000001
 31
0.0
  0
LINE
  5
14721
  8
1-中柱カバ-P
 10
20406.311886013809
 20
16769.986978000001
 30
0.0
 11
20399.311886013798
 21
16769.986978000001
 31
0.0
  0
LINE
  5
14722
  8
1-中柱カバ-P
 10
20406.311886013809
 20
16769.236978000001
 30
0.0
 11
20406.311886013809
 21
16781.736978000001
 31
0.0
  0
LINE
  5
14723
  8
1-中柱カバ-P
 10
20409.911886013801
 20
16769.486978000001
 30
0.0
 11
20409.911886013801
 21
16781.486978000001
 31
0.0
  0
LINE
  5
14724
  8
1-中柱カバ-P
  6
HIDE-M
 62
     6
 10
20407.811886013809
 20
16780.986978000001
 30
0.0
 11
20409.41188601379
 21
16780.986978000001
 31
0.0
  0
LINE
  5
14725
  8
1-中柱カバ-P
 10
20409.911886013801
 20
16781.486978000001
 30
0.0
 11
20409.41188601379
 21
16780.986978000001
 31
0.0
  0
ARC
  5
14726
  8
1-中柱カバ-P
 10
20407.061886013798
 20
16781.736978000001
 30
0.0
 40
0.75
 50
0.000000000000007
 51
180.0
  0
LINE
  5
14727
  8
1-中柱カバ-P
  6
HIDE-M
 62
     6
 10
20409.41188601379
 20
16769.986978000001
 30
0.0
 11
20407.811886013809
 21
16769.986978000001
 31
0.0
  0
LINE
  5
14728
  8
1-中柱カバ-P
 10
20409.911886013801
 20
16769.486978000001
 30
0.0
 11
20409.41188601379
 21
16769.986978000001
 31
0.0
  0
ARC
  5
14729
  8
1-中柱カバ-P
 10
20407.061886013798
 20
16769.236978000001
 30
0.0
 40
0.75
 50
180.0
 51
0.000000000000007
  0
LINE
  5
1472A
  8
1-中柱カバ-P
 10
20398.311886013809
 20
16770.986978000001
 30
0.0
 11
20398.311886013809
 21
16779.986978000001
 31
0.0
  0
ARC
  5
1472B
  8
1-中柱カバ-P
 10
20399.311886013798
 20
16779.986978000001
 30
0.0
 40
1.0
 50
90.0
 51
180.0
  0
ARC
  5
1472C
  8
1-中柱カバ-P
 10
20399.311886013798
 20
16770.986978000001
 30
0.0
 40
1.0
 50
180.0
 51
270.0
  0
LINE
  5
1472D
  8
1-中柱カバ-P
  6
1PL-M
 62
     6
 10
20393.311886013798
 20
16775.486978000001
 30
0.0
 11
20414.911886013801
 21
16775.486978000001
 31
0.0
  0
LINE
  5
1472E
  8
1-中柱カバ-P
 10
20399.311886013798
 20
16790.986978000001
 30
0.0
 11
20406.311886013809
 21
16790.986978000001
 31
0.0
  0
LINE
  5
1472F
  8
1-中柱カバ-P
 10
20409.911886013801
 20
16783.486978000001
 30
0.0
 11
20409.911886013801
 21
16791.486978000001
 31
0.0
  0
LINE
  5
14730
  8
1-中柱カバ-P
  6
HIDE-M
 62
     6
 10
20407.811886013809
 20
16790.986978000001
 30
0.0
 11
20409.41188601379
 21
16790.986978000001
 31
0.0
  0
LINE
  5
14731
  8
1-中柱カバ-P
 10
20409.911886013801
 20
16791.486978000001
 30
0.0
 11
20409.41188601379
 21
16790.986978000001
 31
0.0
  0
ARC
  5
14732
  8
1-中柱カバ-P
 10
20407.061886013798
 20
16791.736978000001
 30
0.0
 40
0.75
 50
0.000000000000007
 51
180.0
  0
LINE
  5
14733
  8
1-中柱カバ-P
 10
20398.311886013809
 20
16781.986978000001
 30
0.0
 11
20398.311886013809
 21
16789.986978000001
 31
0.0
  0
ARC
  5
14734
  8
1-中柱カバ-P
 10
20399.311886013798
 20
16789.986978000001
 30
0.0
 40
1.0
 50
90.0
 51
180.0
  0
LINE
  5
14735
  8
1-中柱カバ-P
  6
1PL-M
 62
     6
 10
20393.311886013798
 20
16785.486978000001
 30
0.0
 11
20414.911886013801
 21
16785.486978000001
 31
0.0
  0
LINE
  5
14736
  8
1-中柱カバ-P
 10
20406.311886013809
 20
16783.736978000001
 30
0.0
 11
20406.311886013809
 21
16791.736978000001
 31
0.0
  0
LINE
  5
14737
  8
1-中柱カバ-P
  6
HIDE-M
 62
     6
 10
20335.511886013792
 20
16789.486978000001
 30
0.0
 11
20323.911886013801
 21
16789.486978000001
 31
0.0
  0
LINE
  5
14738
  8
1-中柱カバ-P
  6
HIDE-M
 62
     6
 10
20335.511886013792
 20
16788.486978000001
 30
0.0
 11
20323.911886013801
 21
16788.486978000001
 31
0.0
  0
LINE
  5
14739
  8
1-中柱カバ-P
  6
HIDE-M
 62
     6
 10
20398.311886013809
 20
16789.486978000001
 30
0.0
 11
20409.911886013801
 21
16789.486978000001
 31
0.0
  0
LINE
  5
1473A
  8
1-中柱カバ-P
  6
HIDE-M
 62
     6
 10
20398.311886013809
 20
16788.486978000001
 30
0.0
 11
20409.911886013801
 21
16788.486978000001
 31
0.0
  0
ARC
  5
1473B
  8
1-前柱P
  6
HIDE-M
 62
     6
 10
20370.511886013792
 20
13900.88697800001
 30
0.0
 40
2.6000000000000001
 50
90.0
 51
180.0
  0
LINE
  5
1473C
  8
1-前柱P
  6
HIDE-M
 62
     6
 10
20358.911886013801
 20
13902.9363681532
 30
0.0
 11
20358.911886013801
 21
13899.286978
 31
0.0
  0
LINE
  5
1473D
  8
1-前柱P
  6
HIDE-M
 62
     6
 10
20368.911886013801
 20
13902.9363681532
 30
0.0
 11
20368.911886013801
 21
13899.286978
 31
0.0
  0
LINE
  5
1473E
  8
1-前柱P
  6
1PL-M
 62
     6
 10
20363.911886013801
 20
13908.486978000001
 30
0.0
 11
20363.911886013801
 21
13894.286978
 31
0.0
  0
ARC
  5
1473F
  8
1-前柱P
  6
HIDE-M
 62
     6
 10
20357.311886013791
 20
13900.88697800001
 30
0.0
 40
2.6000000000000001
 50
0.000000000000007
 51
90.0
  0
LINE
  5
14740
  8
1-前柱P
  6
HIDE-M
 62
     6
 10
20367.911886013801
 20
13900.88697800001
 30
0.0
 11
20367.911886013801
 21
13899.286978
 31
0.0
  0
LINE
  5
14741
  8
1-前柱P
  6
HIDE-M
 62
     6
 10
20359.91188601379
 20
13900.88697800001
 30
0.0
 11
20359.91188601379
 21
13899.286978
 31
0.0
  0
LINE
  5
14742
  8
1-前柱P
 10
20377.811886013791
 20
13788.58697800001
 30
0.0
 11
20356.011886013792
 21
13788.58697800001
 31
0.0
  0
LINE
  5
14743
  8
1-前柱P
 10
20326.011886013792
 20
13825.88697800001
 30
0.0
 11
20326.011886013792
 21
13818.586977999999
 31
0.0
  0
ARC
  5
14744
  8
1-前柱P
 10
20356.011886013792
 20
13818.586977999999
 30
0.0
 40
30.0
 50
180.0
 51
270.0
  0
ARC
  5
14745
  8
1-前柱P
 10
20356.011886013792
 20
13818.586977999999
 30
0.0
 40
31.600000000000001
 50
180.0
 51
270.0
  0
LINE
  5
14746
  8
1-前柱P
 10
20377.811886013791
 20
13786.986978000001
 30
0.0
 11
20356.011886013792
 21
13786.986978000001
 31
0.0
  0
LINE
  5
14747
  8
1-前柱P
 10
20324.411886013801
 20
13825.88697800001
 30
0.0
 11
20324.411886013801
 21
13818.586977999999
 31
0.0
  0
LINE
  5
14748
  8
1-前柱P
 10
20347.411886013801
 20
13847.486978000001
 30
0.0
 11
20347.411886013801
 21
13837.486978000001
 31
0.0
  0
LINE
  5
14749
  8
1-前柱P
 10
20349.011886013792
 20
13837.486978000001
 30
0.0
 11
20349.011886013792
 21
13847.486978000001
 31
0.0
  0
LINE
  5
1474A
  8
1-前柱P
 10
20407.811886013791
 20
13825.88697800001
 30
0.0
 11
20407.811886013791
 21
13818.586977999999
 31
0.0
  0
ARC
  5
1474B
  8
1-前柱P
 10
20377.811886013791
 20
13818.586977999999
 30
0.0
 40
30.0
 50
270.0
 51
0.000000000000007
  0
ARC
  5
1474C
  8
1-前柱P
 10
20377.811886013791
 20
13818.586977999999
 30
0.0
 40
31.600000000000001
 50
270.0
 51
0.000000000000007
  0
LINE
  5
1474D
  8
1-前柱P
 10
20409.41188601379
 20
13825.88697800001
 30
0.0
 11
20409.41188601379
 21
13818.586977999999
 31
0.0
  0
LINE
  5
1474E
  8
1-前柱P
 10
20402.811886013791
 20
13832.486978000001
 30
0.0
 11
20391.411886013801
 21
13832.486978000001
 31
0.0
  0
ARC
  5
1474F
  8
1-前柱P
 10
20402.811886013791
 20
13825.88697800001
 30
0.0
 40
6.599999999999997
 50
0.000000000000007
 51
90.0
  0
ARC
  5
14750
  8
1-前柱P
 10
20391.411886013801
 20
13837.486978000001
 30
0.0
 40
5.0
 50
180.0
 51
270.0
  0
LINE
  5
14751
  8
1-前柱P
 10
20402.811886013791
 20
13830.886978
 30
0.0
 11
20391.411886013801
 21
13830.886978
 31
0.0
  0
ARC
  5
14752
  8
1-前柱P
 10
20402.811886013791
 20
13825.88697800001
 30
0.0
 40
5.0
 50
0.000000000000007
 51
90.0
  0
LINE
  5
14753
  8
1-前柱P
 10
20386.41188601379
 20
13837.486978000001
 30
0.0
 11
20386.41188601379
 21
13896.886978
 31
0.0
  0
LINE
  5
14754
  8
1-前柱P
 10
20384.811886013791
 20
13837.486978000001
 30
0.0
 11
20384.811886013791
 21
13896.886978
 31
0.0
  0
ARC
  5
14755
  8
1-前柱P
 10
20391.411886013801
 20
13837.486978000001
 30
0.0
 40
6.599999999999997
 50
180.0
 51
270.0
  0
LINE
  5
14756
  8
1-前柱P
 10
20379.811886013791
 20
13903.486978000001
 30
0.0
 11
20346.41188601379
 21
13903.486978000001
 31
0.0
  0
ARC
  5
14757
  8
1-前柱P
 10
20379.811886013791
 20
13896.886978
 30
0.0
 40
6.599999999999997
 50
0.000000000000007
 51
90.0
  0
LINE
  5
14758
  8
1-前柱P
 10
20379.811886013791
 20
13901.88697800001
 30
0.0
 11
20346.41188601379
 21
13901.88697800001
 31
0.0
  0
ARC
  5
14759
  8
1-前柱P
 10
20379.811886013791
 20
13896.886978
 30
0.0
 40
5.0
 50
0.000000000000007
 51
90.0
  0
LINE
  5
1475A
  8
1-前柱P
 10
20346.41188601379
 20
13901.88697800001
 30
0.0
 11
20346.41188601379
 21
13903.486978000001
 31
0.0
  0
LINE
  5
1475B
  8
1-前柱P
 10
20331.011886013792
 20
13832.486978000001
 30
0.0
 11
20342.411886013801
 21
13832.486978000001
 31
0.0
  0
ARC
  5
1475C
  8
1-前柱P
 10
20331.011886013792
 20
13825.88697800001
 30
0.0
 40
6.599999999999997
 50
90.0
 51
180.0
  0
ARC
  5
1475D
  8
1-前柱P
 10
20342.411886013801
 20
13837.486978000001
 30
0.0
 40
5.0
 50
270.0
 51
0.000000000000007
  0
LINE
  5
1475E
  8
1-前柱P
 10
20342.411886013801
 20
13830.886978
 30
0.0
 11
20331.011886013792
 21
13830.886978
 31
0.0
  0
ARC
  5
1475F
  8
1-前柱P
 10
20342.411886013801
 20
13837.486978000001
 30
0.0
 40
6.599999999999997
 50
270.0
 51
0.000000000000007
  0
ARC
  5
14760
  8
1-前柱P
 10
20331.011886013792
 20
13825.88697800001
 30
0.0
 40
5.0
 50
90.0
 51
180.0
  0
LINE
  5
14761
  8
1-前柱P
 10
20347.411886013801
 20
13847.486978000001
 30
0.0
 11
20349.011886013792
 21
13847.486978000001
 31
0.0
  0
LINE
  5
14762
  8
1-前柱カバ-P
 10
20324.411886013801
 20
13839.186977999991
 30
0.0
 11
20324.411886013801
 21
13898.486978000001
 31
0.0
  0
ARC
  5
14763
  8
1-前柱カバ-P
 10
20331.011886013792
 20
13898.486978000001
 30
0.0
 40
6.599999999999997
 50
90.0
 51
180.0
  0
LINE
  5
14764
  8
1-前柱カバ-P
 10
20326.011886013792
 20
13839.186977999991
 30
0.0
 11
20326.011886013792
 21
13898.486978000001
 31
0.0
  0
ARC
  5
14765
  8
1-前柱カバ-P
 10
20331.011886013792
 20
13839.186977999991
 30
0.0
 40
5.0
 50
180.0
 51
270.0
  0
LINE
  5
14766
  8
1-前柱カバ-P
 10
20331.011886013792
 20
13905.086977999999
 30
0.0
 11
20402.811886013791
 21
13905.086977999999
 31
0.0
  0
ARC
  5
14767
  8
1-前柱カバ-P
 10
20402.811886013791
 20
13898.486978000001
 30
0.0
 40
6.599999999999997
 50
0.000000000000007
 51
90.0
  0
LINE
  5
14768
  8
1-前柱カバ-P
 10
20331.011886013792
 20
13903.486978000001
 30
0.0
 11
20402.811886013791
 21
13903.486978000001
 31
0.0
  0
ARC
  5
14769
  8
1-前柱カバ-P
 10
20402.811886013791
 20
13898.486978000001
 30
0.0
 40
5.0
 50
0.000000000000007
 51
90.0
  0
ARC
  5
1476A
  8
1-前柱カバ-P
 10
20331.011886013792
 20
13898.486978000001
 30
0.0
 40
5.0
 50
90.0
 51
180.0
  0
LINE
  5
1476B
  8
1-前柱カバ-P
 10
20409.41188601379
 20
13898.486978000001
 30
0.0
 11
20409.41188601379
 21
13839.186977999991
 31
0.0
  0
LINE
  5
1476C
  8
1-前柱カバ-P
 10
20407.811886013791
 20
13898.486978000001
 30
0.0
 11
20407.811886013791
 21
13839.186977999991
 31
0.0
  0
ARC
  5
1476D
  8
1-前柱カバ-P
 10
20402.811886013791
 20
13839.186977999991
 30
0.0
 40
5.0
 50
270.0
 51
0.000000000000007
  0
LINE
  5
1476E
  8
1-前柱カバ-P
  6
1PL-M
 62
     6
 10
20366.911886013801
 20
13897.586977999999
 30
0.0
 11
20366.911886013801
 21
13910.58697800001
 31
0.0
  0
LINE
  5
1476F
  8
1-前柱カバ-P
  6
HIDE-M
 62
     6
 10
20359.91188601379
 20
13905.086977999999
 30
0.0
 11
20359.91188601379
 21
13903.486978000001
 31
0.0
  0
LINE
  5
14770
  8
1-前柱カバ-P
  6
HIDE-M
 62
     6
 10
20373.911886013801
 20
13905.086977999999
 30
0.0
 11
20373.911886013801
 21
13903.486978000001
 31
0.0
  0
ARC
  5
14771
  8
1-前柱カバ-P
 10
20331.011886013792
 20
13839.186977999991
 30
0.0
 40
6.599999999999997
 50
180.0
 51
270.0
  0
ARC
  5
14772
  8
1-前柱カバ-P
 10
20402.811886013791
 20
13839.186977999991
 30
0.0
 40
6.599999999999997
 50
270.0
 51
0.000000000000007
  0
LINE
  5
14773
  8
1-前柱カバ-P
 10
20394.411886013801
 20
13832.586977999999
 30
0.0
 11
20402.811886013791
 21
13832.586977999999
 31
0.0
  0
LINE
  5
14774
  8
1-前柱カバ-P
 10
20339.411886013801
 20
13832.586977999999
 30
0.0
 11
20331.011886013792
 21
13832.586977999999
 31
0.0
  0
LINE
  5
14775
  8
1-前柱カバ-P
 10
20394.411886013801
 20
13834.186978
 30
0.0
 11
20402.811886013791
 21
13834.186978
 31
0.0
  0
LINE
  5
14776
  8
1-前柱カバ-P
 10
20339.411886013801
 20
13834.186978
 30
0.0
 11
20331.011886013792
 21
13834.186978
 31
0.0
  0
LINE
  5
14777
  8
1-前柱カバ-P
 10
20339.411886013801
 20
13834.186978
 30
0.0
 11
20339.411886013801
 21
13832.586977999999
 31
0.0
  0
LINE
  5
14778
  8
1-前柱カバ-P
 10
20394.411886013801
 20
13832.586977999999
 30
0.0
 11
20394.411886013801
 21
13834.186978
 31
0.0
  0
LINE
  5
14779
  8
1-前柱カバ-P
  6
HIDE-M
 62
     6
 10
20398.311886013791
 20
13853.586977999999
 30
0.0
 11
20409.911886013801
 21
13853.586977999999
 31
0.0
  0
LINE
  5
1477A
  8
1-前柱カバ-P
  6
HIDE-M
 62
     6
 10
20398.311886013791
 20
13861.586977999999
 30
0.0
 11
20409.911886013801
 21
13861.586977999999
 31
0.0
  0
LINE
  5
1477B
  8
1-前柱カバ-P
  6
HIDE-M
 62
     6
 10
20398.311886013791
 20
13854.586977999999
 30
0.0
 11
20409.911886013801
 21
13854.586977999999
 31
0.0
  0
LINE
  5
1477C
  8
1-前柱カバ-P
  6
HIDE-M
 62
     6
 10
20398.311886013791
 20
13860.586977999999
 30
0.0
 11
20409.911886013801
 21
13860.586977999999
 31
0.0
  0
LINE
  5
1477D
  8
1-前柱カバ-P
 10
20399.311886013791
 20
13863.086977999999
 30
0.0
 11
20406.311886013791
 21
13863.086977999999
 31
0.0
  0
LINE
  5
1477E
  8
1-前柱カバ-P
 10
20406.311886013791
 20
13852.08697799999
 30
0.0
 11
20399.311886013791
 21
13852.08697799999
 31
0.0
  0
LINE
  5
1477F
  8
1-前柱カバ-P
 10
20406.311886013791
 20
13851.33697800001
 30
0.0
 11
20406.311886013791
 21
13863.83697800001
 31
0.0
  0
LINE
  5
14780
  8
1-前柱カバ-P
 10
20409.911886013801
 20
13851.58697800001
 30
0.0
 11
20409.911886013801
 21
13863.58697799999
 31
0.0
  0
LINE
  5
14781
  8
1-前柱カバ-P
  6
HIDE-M
 62
     6
 10
20407.811886013791
 20
13863.086977999999
 30
0.0
 11
20409.41188601379
 21
13863.086977999999
 31
0.0
  0
LINE
  5
14782
  8
1-前柱カバ-P
 10
20409.911886013801
 20
13863.58697799999
 30
0.0
 11
20409.41188601379
 21
13863.086977999999
 31
0.0
  0
ARC
  5
14783
  8
1-前柱カバ-P
 10
20407.061886013791
 20
13863.83697800001
 30
0.0
 40
0.75
 50
0.000000000000007
 51
180.0
  0
LINE
  5
14784
  8
1-前柱カバ-P
  6
HIDE-M
 62
     6
 10
20409.41188601379
 20
13852.08697799999
 30
0.0
 11
20407.811886013791
 21
13852.08697799999
 31
0.0
  0
LINE
  5
14785
  8
1-前柱カバ-P
 10
20409.911886013801
 20
13851.58697800001
 30
0.0
 11
20409.41188601379
 21
13852.08697799999
 31
0.0
  0
ARC
  5
14786
  8
1-前柱カバ-P
 10
20407.061886013791
 20
13851.33697800001
 30
0.0
 40
0.75
 50
180.0
 51
0.000000000000007
  0
LINE
  5
14787
  8
1-前柱カバ-P
 10
20398.311886013791
 20
13853.08697799999
 30
0.0
 11
20398.311886013791
 21
13862.086977999999
 31
0.0
  0
ARC
  5
14788
  8
1-前柱カバ-P
 10
20399.311886013791
 20
13862.086977999999
 30
0.0
 40
1.0
 50
90.0
 51
180.0
  0
ARC
  5
14789
  8
1-前柱カバ-P
 10
20399.311886013791
 20
13853.08697799999
 30
0.0
 40
1.0
 50
180.0
 51
270.0
  0
LINE
  5
1478A
  8
1-前柱カバ-P
  6
1PL-M
 62
     6
 10
20393.311886013791
 20
13857.586977999999
 30
0.0
 11
20414.911886013801
 21
13857.586977999999
 31
0.0
  0
LINE
  5
1478B
  8
1-前柱カバ-P
 10
20399.311886013791
 20
13873.08697799999
 30
0.0
 11
20406.311886013791
 21
13873.08697799999
 31
0.0
  0
LINE
  5
1478C
  8
1-前柱カバ-P
 10
20409.911886013801
 20
13865.58697799999
 30
0.0
 11
20409.911886013801
 21
13873.586977999999
 31
0.0
  0
LINE
  5
1478D
  8
1-前柱カバ-P
  6
HIDE-M
 62
     6
 10
20407.811886013791
 20
13873.08697799999
 30
0.0
 11
20409.41188601379
 21
13873.08697799999
 31
0.0
  0
LINE
  5
1478E
  8
1-前柱カバ-P
 10
20409.911886013801
 20
13873.586977999999
 30
0.0
 11
20409.41188601379
 21
13873.08697799999
 31
0.0
  0
ARC
  5
1478F
  8
1-前柱カバ-P
 10
20407.061886013791
 20
13873.836977999999
 30
0.0
 40
0.75
 50
0.000000000000007
 51
180.0
  0
LINE
  5
14790
  8
1-前柱カバ-P
 10
20398.311886013791
 20
13864.086977999999
 30
0.0
 11
20398.311886013791
 21
13872.086977999999
 31
0.0
  0
ARC
  5
14791
  8
1-前柱カバ-P
 10
20399.311886013791
 20
13872.086977999999
 30
0.0
 40
1.0
 50
90.0
 51
180.0
  0
LINE
  5
14792
  8
1-前柱カバ-P
  6
1PL-M
 62
     6
 10
20393.311886013791
 20
13867.58697800001
 30
0.0
 11
20414.911886013801
 21
13867.58697800001
 31
0.0
  0
LINE
  5
14793
  8
1-前柱カバ-P
 10
20406.311886013791
 20
13865.83697800001
 30
0.0
 11
20406.311886013791
 21
13873.836977999999
 31
0.0
  0
LINE
  5
14794
  8
1-前柱カバ-P
  6
HIDE-M
 62
     6
 10
20335.511886013792
 20
13853.586977999999
 30
0.0
 11
20323.911886013801
 21
13853.586977999999
 31
0.0
  0
LINE
  5
14795
  8
1-前柱カバ-P
  6
HIDE-M
 62
     6
 10
20335.511886013792
 20
13861.586977999999
 30
0.0
 11
20323.911886013801
 21
13861.586977999999
 31
0.0
  0
LINE
  5
14796
  8
1-前柱カバ-P
  6
HIDE-M
 62
     6
 10
20335.511886013792
 20
13854.586977999999
 30
0.0
 11
20323.911886013801
 21
13854.586977999999
 31
0.0
  0
LINE
  5
14797
  8
1-前柱カバ-P
  6
HIDE-M
 62
     6
 10
20335.511886013792
 20
13860.586977999999
 30
0.0
 11
20323.911886013801
 21
13860.586977999999
 31
0.0
  0
LINE
  5
14798
  8
1-前柱カバ-P
 10
20334.511886013792
 20
13863.086977999999
 30
0.0
 11
20327.511886013792
 21
13863.086977999999
 31
0.0
  0
LINE
  5
14799
  8
1-前柱カバ-P
 10
20327.511886013792
 20
13852.08697799999
 30
0.0
 11
20334.511886013792
 21
13852.08697799999
 31
0.0
  0
LINE
  5
1479A
  8
1-前柱カバ-P
 10
20327.511886013792
 20
13851.33697800001
 30
0.0
 11
20327.511886013792
 21
13863.83697800001
 31
0.0
  0
LINE
  5
1479B
  8
1-前柱カバ-P
 10
20323.911886013801
 20
13851.58697800001
 30
0.0
 11
20323.911886013801
 21
13863.58697799999
 31
0.0
  0
LINE
  5
1479C
  8
1-前柱カバ-P
  6
HIDE-M
 62
     6
 10
20326.011886013792
 20
13863.086977999999
 30
0.0
 11
20324.411886013801
 21
13863.086977999999
 31
0.0
  0
LINE
  5
1479D
  8
1-前柱カバ-P
 10
20323.911886013801
 20
13863.58697799999
 30
0.0
 11
20324.411886013801
 21
13863.086977999999
 31
0.0
  0
ARC
  5
1479E
  8
1-前柱カバ-P
 10
20326.761886013792
 20
13863.83697800001
 30
0.0
 40
0.75
 50
0.000000000000007
 51
180.0
  0
LINE
  5
1479F
  8
1-前柱カバ-P
  6
HIDE-M
 62
     6
 10
20324.411886013801
 20
13852.08697799999
 30
0.0
 11
20326.011886013792
 21
13852.08697799999
 31
0.0
  0
LINE
  5
147A0
  8
1-前柱カバ-P
 10
20323.911886013801
 20
13851.58697800001
 30
0.0
 11
20324.411886013801
 21
13852.08697799999
 31
0.0
  0
ARC
  5
147A1
  8
1-前柱カバ-P
 10
20326.761886013792
 20
13851.33697800001
 30
0.0
 40
0.75
 50
180.0
 51
0.000000000000007
  0
LINE
  5
147A2
  8
1-前柱カバ-P
 10
20335.511886013792
 20
13853.08697799999
 30
0.0
 11
20335.511886013792
 21
13862.086977999999
 31
0.0
  0
ARC
  5
147A3
  8
1-前柱カバ-P
 10
20334.511886013792
 20
13862.086977999999
 30
0.0
 40
1.0
 50
0.000000000000007
 51
90.0
  0
ARC
  5
147A4
  8
1-前柱カバ-P
 10
20334.511886013792
 20
13853.08697799999
 30
0.0
 40
1.0
 50
270.0
 51
0.000000000000007
  0
LINE
  5
147A5
  8
1-前柱カバ-P
  6
1PL-M
 62
     6
 10
20340.511886013792
 20
13857.586977999999
 30
0.0
 11
20318.911886013801
 21
13857.586977999999
 31
0.0
  0
LINE
  5
147A6
  8
1-前柱カバ-P
 10
20334.511886013792
 20
13873.08697799999
 30
0.0
 11
20327.511886013792
 21
13873.08697799999
 31
0.0
  0
LINE
  5
147A7
  8
1-前柱カバ-P
 10
20323.911886013801
 20
13865.58697799999
 30
0.0
 11
20323.911886013801
 21
13873.586977999999
 31
0.0
  0
LINE
  5
147A8
  8
1-前柱カバ-P
  6
HIDE-M
 62
     6
 10
20326.011886013792
 20
13873.08697799999
 30
0.0
 11
20324.411886013801
 21
13873.08697799999
 31
0.0
  0
LINE
  5
147A9
  8
1-前柱カバ-P
 10
20323.911886013801
 20
13873.586977999999
 30
0.0
 11
20324.411886013801
 21
13873.08697799999
 31
0.0
  0
ARC
  5
147AA
  8
1-前柱カバ-P
 10
20326.761886013792
 20
13873.836977999999
 30
0.0
 40
0.75
 50
0.000000000000007
 51
180.0
  0
LINE
  5
147AB
  8
1-前柱カバ-P
 10
20335.511886013792
 20
13864.086977999999
 30
0.0
 11
20335.511886013792
 21
13872.086977999999
 31
0.0
  0
ARC
  5
147AC
  8
1-前柱カバ-P
 10
20334.511886013792
 20
13872.086977999999
 30
0.0
 40
1.0
 50
0.000000000000007
 51
90.0
  0
LINE
  5
147AD
  8
1-前柱カバ-P
  6
1PL-M
 62
     6
 10
20340.511886013792
 20
13867.58697800001
 30
0.0
 11
20318.911886013801
 21
13867.58697800001
 31
0.0
  0
LINE
  5
147AE
  8
1-前柱カバ-P
 10
20327.511886013792
 20
13865.83697800001
 30
0.0
 11
20327.511886013792
 21
13873.836977999999
 31
0.0
  0
LINE
  5
147AF
  8
1-前柱カバ-P
  6
HIDE-M
 62
     6
 10
20398.311886013791
 20
13871.58697800001
 30
0.0
 11
20409.911886013801
 21
13871.58697800001
 31
0.0
  0
LINE
  5
147B0
  8
1-前柱カバ-P
  6
HIDE-M
 62
     6
 10
20398.311886013791
 20
13870.58697800001
 30
0.0
 11
20409.911886013801
 21
13870.58697800001
 31
0.0
  0
LINE
  5
147B1
  8
1-前柱カバ-P
  6
HIDE-M
 62
     6
 10
20335.511886013792
 20
13871.58697800001
 30
0.0
 11
20323.911886013801
 21
13871.58697800001
 31
0.0
  0
LINE
  5
147B2
  8
1-前柱カバ-P
  6
HIDE-M
 62
     6
 10
20335.511886013792
 20
13870.58697800001
 30
0.0
 11
20323.911886013801
 21
13870.58697800001
 31
0.0
  0
LINE
  5
147B6
  8
0-6
  6
CONTINUOUS
 62
     6
 10
21807.746337523349
 20
13192.487836
 30
0.0
 11
20807.746996523369
 21
13192.487836
 31
0.0
  0
TEXT
  5
147B7
  8
0-6
  6
CONTINUOUS
 62
     7
 10
20911.746073523369
 20
13272.48809999999
 30
0.0
 40
160.0
  1
前柱（P）
 72
     4
 11
21311.746073523369
 21
13352.48809999999
 31
0.0
  0
LINE
  5
147B8
  8
0-6
  6
CONTINUOUS
 62
     6
 10
20402.67063270196
 20
13778.486978000001
 30
0.0
 11
20807.746996523369
 21
13192.487836
 31
0.0
  0
LINE
  5
147B9
  8
0-6
  6
CONTINUOUS
 62
     6
 10
21807.746337523349
 20
16080.048635954119
 30
0.0
 11
20807.746996523369
 21
16080.048635954119
 31
0.0
  0
TEXT
  5
147BA
  8
0-6
  6
CONTINUOUS
 62
     7
 10
20911.746073523369
 20
16160.048899954099
 30
0.0
 40
160.0
  1
中柱（P）
 72
     4
 11
21311.746073523369
 21
16240.048899954099
 31
0.0
  0
LINE
  5
147BB
  8
0-6
  6
CONTINUOUS
 62
     6
 10
20402.67063270196
 20
16666.047777954122
 30
0.0
 11
20807.746996523369
 21
16080.048635954119
 31
0.0
  0
LINE
  5
147BC
  8
0-6
  6
CONTINUOUS
 62
     6
 10
22148.808227992879
 20
14393.477715828871
 30
0.0
 11
20692.8082279929
 21
14393.47771582888
 31
0.0
  0
TEXT
  5
147BD
  8
0-6
  6
CONTINUOUS
 62
     7
 10
20732.80295474048
 20
14473.47797982886
 30
0.0
 40
160.0
  1
前柱カバー（P）
 72
     4
 11
21420.80295474048
 21
14553.47797982886
 31
0.0
  0
LINE
  5
147BE
  8
0-6
  6
CONTINUOUS
 62
     6
 10
20393.570632701962
 20
13905.086977999999
 30
0.0
 11
20692.8082279929
 21
14393.47771582888
 31
0.0
  0
LINE
  5
147BF
  8
0-6
  6
CONTINUOUS
 62
     6
 10
22148.808227992879
 20
17300.97727982888
 30
0.0
 11
20692.8082279929
 21
17300.97727982888
 31
0.0
  0
TEXT
  5
147C0
  8
0-6
  6
CONTINUOUS
 62
     7
 10
20732.80295474048
 20
17380.977543828871
 30
0.0
 40
160.0
  1
中柱カバー（P）
 72
     4
 11
21420.80295474048
 21
17460.977543828871
 31
0.0
  0
LINE
  5
147C1
  8
0-6
  6
CONTINUOUS
 62
     6
 10
20393.570632701962
 20
16812.586542000001
 30
0.0
 11
20692.8082279929
 21
17300.97727982888
 31
0.0
  0
LINE
  5
147C2
  8
0-6
  6
CONTINUOUS
 62
     6
 10
21807.746337523349
 20
19957.42434304587
 30
0.0
 11
20807.746996523369
 21
19957.42434304587
 31
0.0
  0
TEXT
  5
147C3
  8
0-6
  6
CONTINUOUS
 62
     7
 10
20911.746073523369
 20
20037.424607045861
 30
0.0
 40
160.0
  1
後柱（P）
 72
     4
 11
21311.746073523369
 21
20117.424607045861
 31
0.0
  0
LINE
  5
147C4
  8
0-6
  6
CONTINUOUS
 62
     6
 10
20402.67063270196
 20
19371.42520104588
 30
0.0
 11
20807.746996523369
 21
19957.42434304587
 31
0.0
  0
LINE
  5
147C5
  8
0-6
  6
CONTINUOUS
 62
     6
 10
22148.808227992911
 20
18736.495699171119
 30
0.0
 11
20692.808227992911
 21
18736.495699171119
 31
0.0
  0
TEXT
  5
147C6
  8
0-6
  6
CONTINUOUS
 62
     7
 10
20732.80295474048
 20
18816.49596317111
 30
0.0
 40
160.0
  1
後柱カバー（P）
 72
     4
 11
21420.80295474048
 21
18896.49596317111
 31
0.0
  0
LINE
  5
147C7
  8
0-6
  6
CONTINUOUS
 62
     6
 10
20393.570632701962
 20
19224.886437000001
 30
0.0
 11
20692.808227992911
 21
18736.495699171119
 31
0.0
  0
LINE
  5
14807
  8
0-1
  6
CONTINUOUS
 62
     3
 10
14682.220021282659
 20
16684.985315999991
 30
0.0
 11
11764.220021282659
 21
16684.985315999991
 31
0.0
  0
LINE
  5
14808
  8
0-1
  6
CONTINUOUS
 62
     3
 10
11764.220021282659
 20
16684.985315999991
 30
0.0
 11
9191.8491705138676
 21
16684.985315999991
 31
0.0
  0
LINE
  5
14809
  8
2-0
  6
DASHED3
 62
     6
 10
9191.8491705138676
 20
16684.985315999991
 30
0.0
 11
6764.2200212826647
 21
16684.985315999991
 31
0.0
  0
LINE
  5
1480A
  8
0-1
  6
CONTINUOUS
 62
     3
 10
11817.219652282651
 20
13775.48635799998
 30
0.0
 11
11817.219652282651
 21
17768.23311058123
 31
0.0
  0
LINE
  5
1480B
  8
0-1
  6
CONTINUOUS
 62
     3
 10
14632.21877138978
 20
13651.54781724959
 30
0.0
 11
14632.21877138978
 21
18788.14505594967
 31
0.0
  0
LINE
  5
1480C
  8
0-1
  6
CONTINUOUS
 62
     3
 10
14632.21877138978
 20
18788.145055949692
 30
0.0
 11
14632.21877138978
 21
19462.047158249581
 31
0.0
  0
LINE
  5
1480D
  8
0-1
  6
CONTINUOUS
 62
     3
 10
14767.71939138979
 20
13619.547910249579
 30
0.0
 11
14767.71939138979
 21
18989.168964760971
 31
0.0
  0
LINE
  5
1480E
  8
0-1
  6
CONTINUOUS
 62
     3
 10
14767.71939138979
 20
18989.168964760971
 30
0.0
 11
14767.71939138979
 21
19510.048504249578
 31
0.0
  0
LINE
  5
1480F
  8
0-1
  6
CONTINUOUS
 62
     3
 10
14724.719295282641
 20
13775.48635799998
 30
0.0
 11
6721.7187672826576
 21
13775.48635799998
 31
0.0
  0
LINE
  5
14810
  8
0-1
  6
CONTINUOUS
 62
     3
 10
14682.220021282659
 20
13854.485974999991
 30
0.0
 11
6764.2200212826647
 21
13854.485974999991
 31
0.0
  0
LINE
  5
14811
  8
0-1
  6
CONTINUOUS
 62
     3
 10
14764.720021282659
 20
13619.48643699999
 30
0.0
 11
6681.7200212826629
 21
13619.486437
 31
0.0
  0
LINE
  5
14812
  8
0-1
  6
CONTINUOUS
 62
     3
 10
14764.720021282659
 20
13651.48634400001
 30
0.0
 11
6681.7200212826629
 21
13651.486344000001
 31
0.0
  0
LINE
  5
14813
  8
0-1
  6
CONTINUOUS
 62
     3
 10
11764.220021282659
 20
13775.48635799998
 30
0.0
 11
11764.220021282659
 21
17746.365060417251
 31
0.0
  0
LINE
  5
14814
  8
0-1
  6
CONTINUOUS
 62
     3
 10
11721.71876728264
 20
13775.48635799998
 30
0.0
 11
11721.71876728264
 21
17728.828720315101
 31
0.0
  0
LINE
  5
14815
  8
0-1
  6
CONTINUOUS
 62
     3
 10
14682.220021282659
 20
13775.48635799998
 30
0.0
 11
14682.220021282659
 21
18955.067610197751
 31
0.0
  0
LINE
  5
14816
  8
0-1
  6
CONTINUOUS
 62
     3
 10
14724.719295282641
 20
13775.48635799998
 30
0.0
 11
14724.719295282641
 21
18972.603133336848
 31
0.0
  0
LINE
  5
14817
  8
0-1
  6
CONTINUOUS
 62
     3
 10
13111.71889928264
 20
18312.353433713281
 30
0.0
 11
13111.71889928264
 21
19461.985685
 31
0.0
  0
LINE
  5
14818
  8
0-1
  6
CONTINUOUS
 62
     3
 10
13074.717738282659
 20
18297.08647374381
 30
0.0
 11
13074.717738282659
 21
19461.985685
 31
0.0
  0
LINE
  5
14819
  8
0-1
  6
CONTINUOUS
 62
     3
 10
12911.719229282649
 20
18219.831946322141
 30
0.0
 11
12911.719229282649
 21
19461.985685
 31
0.0
  0
LINE
  5
1481A
  8
0-1
  6
CONTINUOUS
 62
     3
 10
12874.720048282639
 20
18204.565803315701
 30
0.0
 11
12874.720048282639
 21
19461.985685
 31
0.0
  0
LINE
  5
1481B
  8
0-1
  6
CONTINUOUS
 62
     3
 10
12711.718570282639
 20
18137.31015586208
 30
0.0
 11
12711.718570282639
 21
19461.985685
 31
0.0
  0
LINE
  5
1481C
  8
0-1
  6
CONTINUOUS
 62
     3
 10
12674.718398282639
 20
18122.043603961509
 30
0.0
 11
12674.718398282639
 21
19461.985685
 31
0.0
  0
LINE
  5
1481D
  8
0-1
  6
CONTINUOUS
 62
     3
 10
12511.71889928264
 20
18054.788773058321
 30
0.0
 11
12511.71889928264
 21
19461.985685
 31
0.0
  0
LINE
  5
1481E
  8
0-1
  6
CONTINUOUS
 62
     3
 10
12474.717738282659
 20
18039.521813088861
 30
0.0
 11
12474.717738282659
 21
19461.985685
 31
0.0
  0
LINE
  5
1481F
  8
0-1
  6
CONTINUOUS
 62
     3
 10
12311.71922928264
 20
17972.267390667181
 30
0.0
 11
12311.71922928264
 21
19461.985685
 31
0.0
  0
LINE
  5
14820
  8
0-1
  6
CONTINUOUS
 62
     3
 10
12274.719058282661
 20
17957.000839179222
 30
0.0
 11
12274.719058282661
 21
19461.985685
 31
0.0
  0
LINE
  5
14821
  8
0-1
  6
CONTINUOUS
 62
     3
 10
12111.718570282659
 20
17889.745600207119
 30
0.0
 11
12111.718570282659
 21
19461.985685
 31
0.0
  0
LINE
  5
14822
  8
0-1
  6
CONTINUOUS
 62
     3
 10
12074.718398282639
 20
17874.479048306552
 30
0.0
 11
12074.718398282639
 21
19461.985685
 31
0.0
  0
LINE
  5
14823
  8
0-1
  6
CONTINUOUS
 62
     3
 10
14682.220021282659
 20
16774.988087000002
 30
0.0
 11
11764.220021282659
 21
16774.988087000002
 31
0.0
  0
LINE
  5
14824
  8
0-1
  6
CONTINUOUS
 62
     3
 10
11764.220021282659
 20
16774.988087000002
 30
0.0
 11
9409.9808107930403
 21
16774.988087000002
 31
0.0
  0
LINE
  5
14825
  8
2-0
  6
DASHED3
 62
     6
 10
9409.9808107930403
 20
16774.988087000002
 30
0.0
 11
6764.2200212826647
 21
16774.988087000002
 31
0.0
  0
LINE
  5
14826
  8
0-1
  6
CONTINUOUS
 62
     3
 10
11834.21912163882
 20
16729.987612658861
 30
0.0
 11
14612.219295282641
 21
13811.985710999999
 31
0.0
  0
LINE
  5
14827
  8
0-1
  6
CONTINUOUS
 62
     3
 10
14612.219295282641
 20
16729.985711000001
 30
0.0
 11
11834.21876728264
 21
13811.985710999999
 31
0.0
  0
LINE
  5
14828
  8
0-1
  6
CONTINUOUS
 62
     3
 10
13884.27049322413
 20
18624.69699676337
 30
0.0
 11
11834.21912163882
 21
16729.987612658861
 31
0.0
  0
LINE
  5
14829
  8
0-1
  6
CONTINUOUS
 62
     3
 10
12971.19606526954
 20
18246.661860119391
 30
0.0
 11
14612.219295282641
 21
16729.985711000001
 31
0.0
  0
LINE
  5
1482A
  8
0-1
  6
CONTINUOUS
 62
     3
 10
14749.720618389811
 20
18981.834168395639
 30
0.0
 11
14749.720618389791
 21
19502.548108249572
 31
0.0
  0
LINE
  5
1482B
  8
0-1
  6
CONTINUOUS
 62
     3
 10
14694.21986638978
 20
19485.04916324958
 30
0.0
 11
14694.21986638978
 21
19515.048767249569
 31
0.0
  0
LINE
  5
1482C
  8
0-1
  6
CONTINUOUS
 62
     3
 10
14767.71939138979
 20
19515.048767249569
 30
0.0
 11
14767.71939138979
 21
19480.04692024957
 31
0.0
  0
LINE
  5
1482D
  8
0-1
  6
CONTINUOUS
 62
     3
 10
14699.220130389789
 20
19520.047052249582
 30
0.0
 11
14762.72011738979
 21
19520.047052249582
 31
0.0
  0
LINE
  5
1482E
  8
0-1
  6
CONTINUOUS
 62
     3
 10
14749.720618389791
 20
19502.548108249572
 30
0.0
 11
14767.71939138979
 21
19502.548108249572
 31
0.0
  0
LINE
  5
1482F
  8
0-1
  6
CONTINUOUS
 62
     3
 10
14749.720618389791
 20
19480.04692024957
 30
0.0
 11
14699.220130389789
 21
19480.04692024957
 31
0.0
  0
LINE
  5
14830
  8
0-6
  6
CONTINUOUS
 62
     6
 10
12633.876685145269
 20
19237.71018799999
 30
0.0
 11
12489.97558214528
 21
19749.985842999991
 31
0.0
  0
LINE
  5
14831
  8
0-6
  6
CONTINUOUS
 62
     6
 10
13153.71806014528
 20
19465.663629999999
 30
0.0
 11
13047.022998145279
 21
19343.487743000002
 31
0.0
  0
LINE
  5
14832
  8
0-6
  6
CONTINUOUS
 62
     6
 10
13047.022998145279
 20
19343.487743000002
 30
0.0
 11
13108.32868814528
 21
19493.663919999992
 31
0.0
  0
LINE
  5
14833
  8
0-6
  6
CONTINUOUS
 62
     6
 10
13047.022998145279
 20
19343.487743000002
 30
0.0
 11
13153.71806014528
 21
19465.663629999999
 31
0.0
  0
LINE
  5
14834
  8
0-6
  6
CONTINUOUS
 62
     6
 10
13153.71806014528
 20
19465.663629999999
 30
0.0
 11
13108.32868814528
 21
19493.663919999992
 31
0.0
  0
LINE
  5
14835
  8
0-6
  6
CONTINUOUS
 62
     6
 10
13108.32868814528
 20
19493.663919999992
 30
0.0
 11
13047.022998145279
 21
19343.487743000002
 31
0.0
  0
LINE
  5
14836
  8
0-6
  6
CONTINUOUS
 62
     6
 10
13108.32868814528
 20
19493.663919999992
 30
0.0
 11
13153.71806014528
 21
19465.663629999999
 31
0.0
  0
LINE
  5
14837
  8
0-6
  6
CONTINUOUS
 62
     6
 10
13047.022998145279
 20
19343.487743000002
 30
0.0
 11
13340.95082514529
 21
19749.985842999991
 31
0.0
  0
LINE
  5
14838
  8
0-6
  6
CONTINUOUS
 62
     6
 10
12659.764829145281
 20
19244.109971999991
 30
0.0
 11
12672.26647914527
 21
19082.385282999989
 31
0.0
  0
LINE
  5
14839
  8
0-6
  6
CONTINUOUS
 62
     6
 10
12672.26647914527
 20
19082.385282999989
 30
0.0
 11
12607.991510145281
 21
19231.314364000002
 31
0.0
  0
LINE
  5
1483A
  8
0-6
  6
CONTINUOUS
 62
     6
 10
12672.26647914527
 20
19082.385282999989
 30
0.0
 11
12659.764829145281
 21
19244.109971999991
 31
0.0
  0
LINE
  5
1483B
  8
0-6
  6
CONTINUOUS
 62
     6
 10
12659.764829145281
 20
19244.109971999991
 30
0.0
 11
12607.991510145281
 21
19231.314364000002
 31
0.0
  0
LINE
  5
1483C
  8
0-6
  6
CONTINUOUS
 62
     6
 10
12607.991510145281
 20
19231.314364000002
 30
0.0
 11
12672.26647914527
 21
19082.385282999989
 31
0.0
  0
LINE
  5
1483D
  8
0-6
  6
CONTINUOUS
 62
     6
 10
12607.991510145281
 20
19231.314364000002
 30
0.0
 11
12659.764829145281
 21
19244.109971999991
 31
0.0
  0
LINE
  5
1483E
  8
0-6
  6
CONTINUOUS
 62
     6
 10
12489.97558214528
 20
19749.985842999991
 30
0.0
 11
11972.286934145281
 21
19749.985842999991
 31
0.0
  0
LINE
  5
1483F
  8
0-6
  6
CONTINUOUS
 62
     6
 10
14539.403694282641
 20
18164.289045663922
 30
0.0
 11
14629.21940128264
 21
18299.361496663922
 31
0.0
  0
LINE
  5
14840
  8
0-6
  6
CONTINUOUS
 62
     6
 10
14629.21940128264
 20
18299.361496663922
 30
0.0
 11
14588.06521028263
 21
18142.46089466392
 31
0.0
  0
LINE
  5
14841
  8
0-6
  6
CONTINUOUS
 62
     6
 10
14629.21940128264
 20
18299.361496663922
 30
0.0
 11
14539.403694282641
 21
18164.289045663922
 31
0.0
  0
LINE
  5
14842
  8
0-6
  6
CONTINUOUS
 62
     6
 10
14539.403694282641
 20
18164.289045663922
 30
0.0
 11
14588.06521028263
 21
18142.46089466392
 31
0.0
  0
LINE
  5
14843
  8
0-6
  6
CONTINUOUS
 62
     6
 10
14588.06521028263
 20
18142.46089466392
 30
0.0
 11
14629.21940128264
 21
18299.361496663922
 31
0.0
  0
LINE
  5
14844
  8
0-6
  6
CONTINUOUS
 62
     6
 10
14588.06521028263
 20
18142.46089466392
 30
0.0
 11
14539.403694282641
 21
18164.289045663922
 31
0.0
  0
LINE
  5
14845
  8
0-6
  6
CONTINUOUS
 62
     6
 10
14140.952474145281
 20
19749.985842999991
 30
0.0
 11
13340.95082514529
 21
19749.985842999991
 31
0.0
  0
LINE
  5
14846
  8
0-6
  6
CONTINUOUS
 62
     6
 10
14464.693694282651
 20
17932.58243666391
 30
0.0
 11
13944.69296828263
 21
17932.58243666391
 31
0.0
  0
LINE
  5
14847
  8
0-6
  6
CONTINUOUS
 62
     6
 10
13831.9457162168
 20
13999.376837
 30
0.0
 11
13749.0583242168
 21
14176.315115999991
 31
0.0
  0
LINE
  5
14848
  8
0-6
  6
CONTINUOUS
 62
     6
 10
13749.0583242168
 20
14176.315115999991
 30
0.0
 11
12949.057664216811
 21
14176.315115999991
 31
0.0
  0
LINE
  5
14849
  8
0-6
  6
CONTINUOUS
 62
     6
 10
13224.902589216799
 20
13489.93981199999
 30
0.0
 11
13331.17304421679
 21
13612.48685899999
 31
0.0
  0
LINE
  5
1484A
  8
0-6
  6
CONTINUOUS
 62
     6
 10
13331.17304421679
 20
13612.48685899999
 30
0.0
 11
13270.3909362168
 21
13462.09788299998
 31
0.0
  0
LINE
  5
1484B
  8
0-6
  6
CONTINUOUS
 62
     6
 10
13331.17304421679
 20
13612.48685899999
 30
0.0
 11
13224.902589216799
 21
13489.93981199999
 31
0.0
  0
LINE
  5
1484C
  8
0-6
  6
CONTINUOUS
 62
     6
 10
13224.902589216799
 20
13489.93981199999
 30
0.0
 11
13270.3909362168
 21
13462.09788299998
 31
0.0
  0
LINE
  5
1484D
  8
0-6
  6
CONTINUOUS
 62
     6
 10
13270.3909362168
 20
13462.09788299998
 30
0.0
 11
13331.17304421679
 21
13612.48685899999
 31
0.0
  0
LINE
  5
1484E
  8
0-6
  6
CONTINUOUS
 62
     6
 10
13270.3909362168
 20
13462.09788299998
 30
0.0
 11
13224.902589216799
 21
13489.93981199999
 31
0.0
  0
LINE
  5
1484F
  8
0-6
  6
CONTINUOUS
 62
     6
 10
13856.092873216799
 20
14010.68879599998
 30
0.0
 11
13899.818459216811
 21
13854.485974999991
 31
0.0
  0
LINE
  5
14850
  8
0-6
  6
CONTINUOUS
 62
     6
 10
13899.818459216811
 20
13854.485974999991
 30
0.0
 11
13807.797568216791
 21
13988.06388799999
 31
0.0
  0
LINE
  5
14851
  8
0-6
  6
CONTINUOUS
 62
     6
 10
13899.818459216811
 20
13854.485974999991
 30
0.0
 11
13856.092873216799
 21
14010.68879599998
 31
0.0
  0
LINE
  5
14852
  8
0-6
  6
CONTINUOUS
 62
     6
 10
13856.092873216799
 20
14010.68879599998
 30
0.0
 11
13807.797568216791
 21
13988.06388799999
 31
0.0
  0
LINE
  5
14853
  8
0-6
  6
CONTINUOUS
 62
     6
 10
13807.797568216791
 20
13988.06388799999
 30
0.0
 11
13899.818459216811
 21
13854.485974999991
 31
0.0
  0
LINE
  5
14854
  8
0-6
  6
CONTINUOUS
 62
     6
 10
13807.797568216791
 20
13988.06388799999
 30
0.0
 11
13856.092873216799
 21
14010.68879599998
 31
0.0
  0
LINE
  5
14855
  8
0-6
  6
CONTINUOUS
 62
     6
 10
12841.534174216789
 20
12812.48718899999
 30
0.0
 11
11978.95400321679
 21
12812.48718899999
 31
0.0
  0
LINE
  5
14856
  8
0-6
  6
CONTINUOUS
 62
     6
 10
13247.646267216811
 20
13476.018847999991
 30
0.0
 11
12841.534174216789
 21
12812.48718899999
 31
0.0
  0
LINE
  5
14857
  8
0-6
  6
CONTINUOUS
 62
     6
 10
14787.170731282649
 20
13861.776687
 30
0.0
 11
14764.720021282659
 21
14022.42253799999
 31
0.0
  0
LINE
  5
14858
  8
0-6
  6
CONTINUOUS
 62
     6
 10
14764.720021282659
 20
14022.42253799999
 30
0.0
 11
14838.057225282661
 21
13877.741504
 31
0.0
  0
LINE
  5
14859
  8
0-6
  6
CONTINUOUS
 62
     6
 10
14764.720021282659
 20
14022.42253799999
 30
0.0
 11
14787.170731282649
 21
13861.776687
 31
0.0
  0
LINE
  5
1485A
  8
0-6
  6
CONTINUOUS
 62
     6
 10
14787.170731282649
 20
13861.776687
 30
0.0
 11
14838.057225282661
 21
13877.741504
 31
0.0
  0
LINE
  5
1485B
  8
0-6
  6
CONTINUOUS
 62
     6
 10
14838.057225282661
 20
13877.741504
 30
0.0
 11
14764.720021282659
 21
14022.42253799999
 31
0.0
  0
LINE
  5
1485C
  8
0-6
  6
CONTINUOUS
 62
     6
 10
14838.057225282661
 20
13877.741504
 30
0.0
 11
14787.170731282649
 21
13861.776687
 31
0.0
  0
LINE
  5
1485D
  8
0-6
  6
CONTINUOUS
 62
     6
 10
16479.354272282661
 20
11999.48618599998
 30
0.0
 11
15399.354668282651
 21
11999.48618599998
 31
0.0
  0
LINE
  5
1485E
  8
0-6
  6
CONTINUOUS
 62
     6
 10
14812.61447328266
 20
13869.75810599999
 30
0.0
 11
15399.354668282651
 21
11999.48618599998
 31
0.0
  0
LINE
  5
1485F
  8
0-6
  6
CONTINUOUS
 62
     6
 10
14563.733957282649
 20
18153.375959663921
 30
0.0
 11
14464.693694282651
 21
17932.58243666391
 31
0.0
  0
LINE
  5
14860
  8
0-6
  6
CONTINUOUS
 62
     6
 10
6681.7200212826629
 20
19519.985579
 30
0.0
 11
6590.0326792826463
 21
19653.79311699999
 31
0.0
  0
LINE
  5
14861
  8
0-6
  6
CONTINUOUS
 62
     6
 10
6551.5914182826609
 20
19616.825606999992
 30
0.0
 11
6681.7200212826629
 21
19519.985579
 31
0.0
  0
LINE
  5
14862
  8
0-6
  6
CONTINUOUS
 62
     6
 10
6551.5914182826609
 20
19616.825606999992
 30
0.0
 11
6590.0326792826463
 21
19653.79311699999
 31
0.0
  0
LINE
  5
14863
  8
0-6
  6
CONTINUOUS
 62
     6
 10
6570.8115532826478
 20
19635.308372
 30
0.0
 11
6053.8226652826552
 21
20139.986634999979
 31
0.0
  0
LINE
  5
14864
  8
0-6
  6
CONTINUOUS
 62
     6
 10
6053.8226652826552
 20
20139.986634999979
 30
0.0
 11
4378.823325282644
 21
20139.986634999979
 31
0.0
  0
LINE
  5
14865
  8
2-0
  6
DASHED3
 62
     6
 10
14682.220021282659
 20
19258.487215000001
 30
0.0
 11
6764.2200212826647
 21
19258.487215000001
 31
0.0
  0
LINE
  5
14866
  8
2-0
  6
DASHED3
 62
     6
 10
14724.719295282641
 20
18972.603133336848
 30
0.0
 11
14724.719295282641
 21
19343.487743000002
 31
0.0
  0
LINE
  5
14867
  8
2-0
  6
DASHED3
 62
     6
 10
14682.220021282659
 20
18955.067610197751
 30
0.0
 11
14682.220021282659
 21
19343.487743000002
 31
0.0
  0
LINE
  5
14868
  8
2-0
  6
DASHED3
 62
     6
 10
14724.719295282641
 20
19343.487743000002
 30
0.0
 11
6764.2200212826647
 21
19343.487743000002
 31
0.0
  0
LINE
  5
14869
  8
2-0
  6
DASHED3
 62
     6
 10
11764.220021282659
 20
17746.365060417251
 30
0.0
 11
11764.220021282659
 21
19343.487743000002
 31
0.0
  0
LINE
  5
1486A
  8
2-0
  6
DASHED3
 62
     6
 10
11721.71876728264
 20
17728.828720315101
 30
0.0
 11
11721.71876728264
 21
19343.487743000002
 31
0.0
  0
LINE
  5
1486B
  8
2-0
  6
DASHED3
 62
     6
 10
14612.219295282641
 20
19297.485711000001
 30
0.0
 11
13884.27049322413
 21
18624.69699676337
 31
0.0
  0
LINE
  5
1486C
  8
2-0
  6
DASHED3
 62
     6
 10
11834.21876728264
 20
19297.485711000001
 30
0.0
 11
12971.19606526954
 21
18246.661860119391
 31
0.0
  0
LINE
  5
1486D
  8
2-0
  6
CENTER2
 62
     6
 10
11764.220021282659
 20
20539.987954
 30
0.0
 11
11764.220021282659
 21
19561.985025000002
 31
0.0
  0
LINE
  5
1486E
  8
2-0
  6
CENTER2
 62
     6
 10
16011.720126282649
 20
19297.485711000001
 30
0.0
 11
14365.220905282649
 21
19297.485711000001
 31
0.0
  0
LINE
  5
1486F
  8
0-8
  6
CONTINUOUS
 62
     6
 10
14682.220021282659
 20
20539.987954
 30
0.0
 11
14682.220021282659
 21
19589.987293999991
 31
0.0
  0
LINE
  5
14870
  8
2-0
  6
CENTER2
 62
     6
 10
16011.720126282649
 20
16729.985711000001
 30
0.0
 11
6592.4205732826631
 21
16729.985711000001
 31
0.0
  0
LINE
  5
14871
  8
2-0
  6
CENTER2
 62
     6
 10
16011.720126282649
 20
13811.985710999999
 30
0.0
 11
14365.220905282649
 21
13811.985710999999
 31
0.0
  0
ARC
  5
14872
  8
0-1
  6
CONTINUOUS
 62
     3
 10
14699.220130389789
 20
19485.04916324958
 30
0.0
 40
5.0
 50
180.0
 51
270.00001499981897
  0
ARC
  5
14873
  8
0-1
  6
CONTINUOUS
 62
     3
 10
14699.217429072311
 20
19515.049886171899
 30
0.0
 40
4.99729880777691
 50
89.96902844821507
 51
180.01282883628079
  0
ARC
  5
14874
  8
0-1
  6
CONTINUOUS
 62
     3
 10
14762.72304386603
 20
19515.049979435691
 30
0.0
 40
4.9970736707893684
 50
359.98610123534661
 51
90.033554587674416
  0
CIRCLE
  5
14875
  8
0-5
  6
CONTINUOUS
 62
     4
 10
16211.719797282651
 20
19297.485711000001
 30
0.0
 40
199.9999949999999
  0
CIRCLE
  5
14876
  8
0-5
  6
CONTINUOUS
 62
     4
 10
16211.719797282651
 20
16729.985711000001
 30
0.0
 40
199.9999949999999
  0
CIRCLE
  5
14877
  8
0-5
  6
CONTINUOUS
 62
     4
 10
16211.719797282651
 20
13811.985710999999
 30
0.0
 40
199.9999949999999
  0
TEXT
  5
14878
  8
0-5
  6
CONTINUOUS
 62
     7
 10
16158.512998615981
 20
19217.897186999999
 30
0.0
 40
160.0
  1
C
 72
     4
 11
16211.84633194932
 21
19297.897186999999
 31
0.0
  0
TEXT
  5
14879
  8
0-5
  6
CONTINUOUS
 62
     7
 10
16158.512998615981
 20
16650.398176999981
 30
0.0
 40
160.0
  1
B
 72
     4
 11
16211.84633194932
 21
16730.398176999981
 31
0.0
  0
TEXT
  5
1487A
  8
0-5
  6
CONTINUOUS
 62
     7
 10
16158.512998615981
 20
13732.397187
 30
0.0
 40
160.0
  1
A
 72
     4
 11
16211.84633194932
 21
13812.397187
 31
0.0
  0
TEXT
  5
1487B
  8
0-6
  6
CONTINUOUS
 62
     7
 10
12068.641984811929
 20
19829.98610699999
 30
0.0
 40
160.0
  1
屋根
 72
     4
 11
12239.308651478599
 21
19909.98610699999
 31
0.0
  0
TEXT
  5
1487C
  8
0-6
  6
CONTINUOUS
 62
     7
 10
13420.95122014528
 20
19829.98610699999
 30
0.0
 40
160.0
  1
桁（後）
 72
     4
 11
13740.95122014528
 21
19909.98610699999
 31
0.0
  0
TEXT
  5
1487D
  8
0-6
  6
CONTINUOUS
 62
     7
 10
13029.059050216811
 20
14256.31538
 30
0.0
 40
160.0
  1
桁（前）
 72
     4
 11
13349.059050216811
 21
14336.31538
 31
0.0
  0
TEXT
  5
1487E
  8
0-6
  6
CONTINUOUS
 62
     7
 10
12036.201566883459
 20
12892.48646299999
 30
0.0
 40
160.0
  1
鼻隠し前
 72
     4
 11
12398.868233550131
 21
12972.48646299999
 31
0.0
  0
TEXT
  5
1487F
  8
0-6
  6
CONTINUOUS
 62
     7
 10
15567.35400828266
 20
12079.485459999991
 30
0.0
 40
160.0
  1
ケラバ 左
 72
     4
 11
15983.35400828266
 21
12159.485459999991
 31
0.0
  0
TEXT
  5
14880
  8
0-6
  6
CONTINUOUS
 62
     7
 10
14043.3600969493
 20
18012.582700663908
 30
0.0
 40
160.0
  1
上枠
 72
     4
 11
14214.02676361597
 21
18092.582700663908
 31
0.0
  0
TEXT
  5
14881
  8
0-6
  6
CONTINUOUS
 62
     7
 10
4480.4890679493146
 20
20219.984918999991
 30
0.0
 40
160.0
  1
鼻隠しコーナー後
 72
     4
 11
5227.1557346159816
 21
20299.984918999991
 31
0.0
  0
LINE
  5
14882
  8
2-0
  6
CENTER2
 62
     6
 10
6764.2200212826647
 20
20539.987954
 30
0.0
 11
6764.2200212826647
 21
19589.987293999991
 31
0.0
  0
LINE
  5
14883
  8
0-1
  6
CONTINUOUS
 62
     3
 10
6696.7197832826632
 20
16564.44994129907
 30
0.0
 11
6696.7197832826587
 21
19502.48663499999
 31
0.0
  0
LINE
  5
14884
  8
0-1
  6
CONTINUOUS
 62
     3
 10
6696.7197832826587
 20
19502.48663499999
 30
0.0
 11
6678.7200212826629
 21
19502.48663499999
 31
0.0
  0
LINE
  5
14885
  8
0-1
  6
CONTINUOUS
 62
     3
 10
6752.2205352826522
 20
19484.987690000002
 30
0.0
 11
6752.2205352826522
 21
19514.987293999991
 31
0.0
  0
LINE
  5
14886
  8
0-1
  6
CONTINUOUS
 62
     3
 10
6696.7197832826587
 20
19479.985446999988
 30
0.0
 11
6747.2192812826488
 21
19479.985446999988
 31
0.0
  0
LINE
  5
14887
  8
0-1
  6
CONTINUOUS
 62
     3
 10
6678.7200212826629
 20
19514.987293999991
 30
0.0
 11
6678.7200212826629
 21
19479.985446999988
 31
0.0
  0
LINE
  5
14888
  8
0-1
  6
CONTINUOUS
 62
     3
 10
6747.2192812826488
 20
19519.985579
 30
0.0
 11
6683.7212742826723
 21
19519.985579
 31
0.0
  0
ARC
  5
14889
  8
0-1
  6
CONTINUOUS
 62
     3
 10
6683.7212742826723
 20
19514.987293999991
 30
0.0
 40
5.0
 50
90.0
 51
180.0
  0
ARC
  5
1488A
  8
0-1
  6
CONTINUOUS
 62
     3
 10
6747.2192812826488
 20
19514.987293999991
 30
0.0
 40
5.0
 50
0.000000000000007
 51
90.0
  0
ARC
  5
1488B
  8
0-1
  6
CONTINUOUS
 62
     3
 10
6747.2192812826488
 20
19484.987690000002
 30
0.0
 40
5.0
 50
270.00001499981897
 51
0.000000000000007
  0
LINE
  5
1488C
  8
0-1
  6
CONTINUOUS
 62
     3
 10
11764.220021282659
 20
13775.48635799998
 30
0.0
 11
11764.220021282659
 21
13619.486437
 31
0.0
  0
LINE
  5
1488D
  8
0-1
  6
CONTINUOUS
 62
     3
 10
14976.85342159926
 20
19077.05304132856
 30
0.0
 11
11355.42156793801
 21
17577.69171465941
 31
0.0
  0
LINE
  5
1488E
  8
0-1
  6
CONTINUOUS
 62
     3
 10
10431.01896229237
 20
17196.276180804489
 30
0.0
 11
6393.3758590190273
 21
15530.313979545879
 31
0.0
  0
LINE
  5
1488F
  8
0-1
  6
CONTINUOUS
 62
     3
 10
6814.2196522826516
 20
13651.48634400001
 30
0.0
 11
6814.2196522826516
 21
16612.931850858091
 31
0.0
  0
LINE
  5
14890
  8
0-1
  6
CONTINUOUS
 62
     3
 10
6678.7200212826629
 20
13619.486437
 30
0.0
 11
6678.7200212826629
 21
16557.02310283003
 31
0.0
  0
LINE
  5
14891
  8
0-1
  6
CONTINUOUS
 62
     3
 10
6764.2200212826647
 20
13775.48635799998
 30
0.0
 11
6764.2200212826647
 21
16591.063800694112
 31
0.0
  0
LINE
  5
14892
  8
0-1
  6
CONTINUOUS
 62
     3
 10
6721.7187672826576
 20
13775.48635799998
 30
0.0
 11
6721.7187672826576
 21
16573.527460591959
 31
0.0
  0
LINE
  5
14893
  8
0-1
  6
CONTINUOUS
 62
     3
 10
6814.2196522826516
 20
16612.931850858091
 30
0.0
 11
6814.2196522826516
 21
19461.985685
 31
0.0
  0
LINE
  5
14894
  8
0-1
  6
CONTINUOUS
 62
     3
 10
6678.7200212826629
 20
16557.02310283004
 30
0.0
 11
6678.7200212826629
 21
19502.48663499999
 31
0.0
  0
LINE
  5
14895
  8
2-0
  6
DASHED3
 62
     6
 10
6764.2200212826647
 20
16591.063800694112
 30
0.0
 11
6764.2200212826647
 21
19489.987954
 31
0.0
  0
LINE
  5
14896
  8
2-0
  6
DASHED3
 62
     6
 10
6721.7187672826576
 20
16573.527460591959
 30
0.0
 11
6721.7187672826576
 21
19479.985446999988
 31
0.0
  0
LINE
  5
14897
  8
0-1
  6
CONTINUOUS
 62
     3
 10
11911.717910282639
 20
17807.22380933446
 30
0.0
 11
11911.717910282639
 21
19461.985685
 31
0.0
  0
LINE
  5
14898
  8
0-1
  6
CONTINUOUS
 62
     3
 10
11874.717738282639
 20
17791.957257433889
 30
0.0
 11
11874.717738282639
 21
19461.985685
 31
0.0
  0
LINE
  5
14899
  8
0-1
  6
CONTINUOUS
 62
     3
 10
11711.71725028264
 20
17724.70201846179
 30
0.0
 11
11711.71725028264
 21
19461.985685
 31
0.0
  0
LINE
  5
1489A
  8
0-1
  6
CONTINUOUS
 62
     3
 10
11674.717078282631
 20
17709.435466561219
 30
0.0
 11
11674.717078282631
 21
19461.985685
 31
0.0
  0
LINE
  5
1489B
  8
0-1
  6
CONTINUOUS
 62
     3
 10
11511.71659028262
 20
17642.180227589099
 30
0.0
 11
11511.71659028262
 21
19461.985685
 31
0.0
  0
LINE
  5
1489C
  8
0-1
  6
CONTINUOUS
 62
     3
 10
11474.71641828262
 20
17626.913675688538
 30
0.0
 11
11474.71641828262
 21
19461.985685
 31
0.0
  0
LINE
  5
1489D
  8
0-1
  6
CONTINUOUS
 62
     3
 10
11311.715930282609
 20
17683.61714701321
 30
0.0
 11
11311.715930282609
 21
19461.985685
 31
0.0
  0
LINE
  5
1489E
  8
0-1
  6
CONTINUOUS
 62
     3
 10
11274.7157582826
 20
17773.291143927981
 30
0.0
 11
11274.7157582826
 21
19461.985685
 31
0.0
  0
LINE
  5
1489F
  8
0-1
  6
CONTINUOUS
 62
     3
 10
11111.715270282601
 20
17638.213552947622
 30
0.0
 11
11111.715270282601
 21
19461.985685
 31
0.0
  0
LINE
  5
148A0
  8
0-1
  6
CONTINUOUS
 62
     3
 10
11074.715098282601
 20
17595.670312558748
 30
0.0
 11
11074.715098282601
 21
19461.985685
 31
0.0
  0
LINE
  5
148A1
  8
0-1
  6
CONTINUOUS
 62
     3
 10
10911.714610282599
 20
17408.250401524641
 30
0.0
 11
10911.714610282599
 21
19461.985685
 31
0.0
  0
LINE
  5
148A2
  8
0-1
  6
CONTINUOUS
 62
     3
 10
10874.71443828259
 20
17365.707161135771
 30
0.0
 11
10874.71443828259
 21
19461.985685
 31
0.0
  0
LINE
  5
148A3
  8
0-1
  6
CONTINUOUS
 62
     3
 10
10711.71395028259
 20
17178.287250101661
 30
0.0
 11
10711.71395028259
 21
19461.985685
 31
0.0
  0
LINE
  5
148A4
  8
0-1
  6
CONTINUOUS
 62
     3
 10
10674.713778282579
 20
17135.74400971278
 30
0.0
 11
10674.713778282579
 21
19461.985685
 31
0.0
  0
LINE
  5
148A5
  8
0-1
  6
CONTINUOUS
 62
     3
 10
10511.71329028258
 20
17000.69523749184
 30
0.0
 11
10511.71329028258
 21
19461.985685
 31
0.0
  0
LINE
  5
148A6
  8
0-1
  6
CONTINUOUS
 62
     3
 10
10474.713118282571
 20
17090.373517523742
 30
0.0
 11
10474.713118282571
 21
19461.985685
 31
0.0
  0
LINE
  5
148A7
  8
0-1
  6
CONTINUOUS
 62
     3
 10
10311.712630282571
 20
17147.049482353101
 30
0.0
 11
10311.712630282571
 21
19461.985685
 31
0.0
  0
LINE
  5
148A8
  8
0-1
  6
CONTINUOUS
 62
     3
 10
10274.712458282551
 20
17131.782930452511
 30
0.0
 11
10274.712458282551
 21
19461.985685
 31
0.0
  0
LINE
  5
148A9
  8
0-1
  6
CONTINUOUS
 62
     3
 10
10111.711970282549
 20
17064.527691480431
 30
0.0
 11
10111.711970282549
 21
19461.985685
 31
0.0
  0
LINE
  5
148AA
  8
0-1
  6
CONTINUOUS
 62
     3
 10
10074.71179828256
 20
17049.261139579859
 30
0.0
 11
10074.71179828256
 21
19461.985685
 31
0.0
  0
LINE
  5
148AB
  8
0-6
  6
CONTINUOUS
 62
     6
 10
6717.6414778917706
 20
15048.659668376409
 30
0.0
 11
6425.9102093331603
 21
14731.4454005524
 31
0.0
  0
LINE
  5
148AC
  8
0-1
  6
CONTINUOUS
 62
     3
 10
11355.42210569778
 20
17577.690411339281
 30
0.0
 11
11260.068085374271
 21
17808.791394445481
 31
0.0
  0
LINE
  5
148AD
  8
0-1
  6
CONTINUOUS
 62
     3
 10
10526.368553191051
 20
16965.174895287859
 30
0.0
 11
10431.01790351353
 21
17196.278746994321
 31
0.0
  0
LINE
  5
148AE
  8
0-1
  6
CONTINUOUS
 62
     3
 10
10526.368553191051
 20
16965.174895287859
 30
0.0
 11
11260.068085374271
 21
17808.791394445481
 31
0.0
  0
LINE
  5
148AF
  8
0-6
  6
CONTINUOUS
 62
     6
 10
13538.85159271852
 20
16191.30709036046
 30
0.0
 11
12658.852648718501
 21
16191.30709036046
 31
0.0
  0
LINE
  5
148B0
  8
0-6
  6
CONTINUOUS
 62
     6
 10
13716.613730066911
 20
16021.28996269014
 30
0.0
 11
13538.85159271852
 21
16191.30709036046
 31
0.0
  0
LINE
  5
148B1
  8
0-6
  6
CONTINUOUS
 62
     6
 10
13832.241370066889
 20
15910.70019869013
 30
0.0
 11
13735.04403806689
 21
16040.56255569014
 31
0.0
  0
LINE
  5
148B2
  8
0-6
  6
CONTINUOUS
 62
     6
 10
13698.182433066901
 20
16002.01736969014
 30
0.0
 11
13832.241370066889
 21
15910.70019869013
 31
0.0
  0
LINE
  5
148B3
  8
0-6
  6
CONTINUOUS
 62
     6
 10
13698.182433066901
 20
16002.01736969014
 30
0.0
 11
13735.04403806689
 21
16040.56255569014
 31
0.0
  0
TEXT
  5
148B4
  8
0-6
  6
CONTINUOUS
 62
     7
 10
12733.517005385171
 20
16271.307354360461
 30
0.0
 40
160.0
  1
ブレース
 72
     4
 11
13096.18367205184
 21
16356.640687693791
 31
0.0
  0
LINE
  5
148B5
  8
0-6
  6
CONTINUOUS
 62
     6
 10
12692.447654420041
 20
16784.988192000001
 30
0.0
 11
12811.745272752391
 21
17100.58053000001
 31
0.0
  0
LINE
  5
148B6
  8
0-6
  6
CONTINUOUS
 62
     6
 10
13612.31603375238
 20
17100.58053000001
 30
0.0
 11
12811.745272752391
 21
17100.58053000001
 31
0.0
  0
TEXT
  5
148B7
  8
0-6
  6
CONTINUOUS
 62
     7
 10
12891.74566875239
 20
17180.580794000001
 30
0.0
 40
160.0
  1
桁（中）
 72
     4
 11
13211.74566875239
 21
17260.580794000001
 31
0.0
  0
LINE
  5
148B8
  8
0-6
  6
CONTINUOUS
 62
     6
 10
9754.2652631477413
 20
15227.80431279082
 30
0.0
 11
8874.2663191477277
 21
15227.80431279082
 31
0.0
  0
LINE
  5
148B9
  8
0-6
  6
CONTINUOUS
 62
     6
 10
8506.5246135731068
 20
15695.652619424
 30
0.0
 11
8874.2663191477277
 21
15227.80431279082
 31
0.0
  0
TEXT
  5
148BA
  8
0-6
  6
CONTINUOUS
 62
     7
 10
8948.9306758143939
 20
15307.804576790821
 30
0.0
 40
160.0
  1
ブレース
 72
     4
 11
9311.5973424810618
 21
15393.13791012416
 31
0.0
  0
LINE
  5
148BB
  8
SUNPOU
  6
CONTINUOUS
 10
15611.719797282651
 20
19519.98359950001
 30
0.0
 11
15611.719797282651
 21
20316.950867278461
 31
0.0
  0
LINE
  5
148BC
  8
SUNPOU
  6
CONTINUOUS
 10
15611.719797282671
 20
12878.173846847811
 30
0.0
 11
15611.719797282671
 21
13619.486437
 31
0.0
  0
LINE
  5
148BD
  8
0-1
  6
CONTINUOUS
 62
     3
 10
13911.718569282641
 20
18636.061171321009
 30
0.0
 11
13911.718569282641
 21
19461.985685
 31
0.0
  0
LINE
  5
148BE
  8
0-1
  6
CONTINUOUS
 62
     3
 10
13874.71740828265
 20
18620.741786037201
 30
0.0
 11
13874.71740828265
 21
19461.985685
 31
0.0
  0
LINE
  5
148BF
  8
0-1
  6
CONTINUOUS
 62
     3
 10
13711.71889928266
 20
18553.256418211698
 30
0.0
 11
13711.71889928266
 21
19461.985685
 31
0.0
  0
LINE
  5
148C0
  8
0-1
  6
CONTINUOUS
 62
     3
 10
13674.719718282649
 20
18537.937852696319
 30
0.0
 11
13674.719718282649
 21
19461.985685
 31
0.0
  0
LINE
  5
148C1
  8
0-1
  6
CONTINUOUS
 62
     3
 10
13511.718240282649
 20
18470.45125563223
 30
0.0
 11
13511.718240282649
 21
19461.985685
 31
0.0
  0
LINE
  5
148C2
  8
0-1
  6
CONTINUOUS
 62
     3
 10
13474.71806828264
 20
18455.132279818601
 30
0.0
 11
13474.71806828264
 21
19461.985685
 31
0.0
  0
LINE
  5
148C3
  8
0-1
  6
CONTINUOUS
 62
     3
 10
13311.71856928265
 20
18387.646502108881
 30
0.0
 11
13311.71856928265
 21
19461.985685
 31
0.0
  0
LINE
  5
148C4
  8
0-1
  6
CONTINUOUS
 62
     3
 10
13274.71740828265
 20
18372.327116825101
 30
0.0
 11
13274.71740828265
 21
19461.985685
 31
0.0
  0
LINE
  5
148C5
  8
0-1
  6
CONTINUOUS
 62
     3
 10
14511.718569282641
 20
18884.475840533141
 30
0.0
 11
14511.718569282641
 21
19461.985685
 31
0.0
  0
LINE
  5
148C6
  8
0-1
  6
CONTINUOUS
 62
     3
 10
14474.71740828266
 20
18869.15645524934
 30
0.0
 11
14474.71740828266
 21
19461.985685
 31
0.0
  0
LINE
  5
148C7
  8
0-1
  6
CONTINUOUS
 62
     3
 10
14311.71889928265
 20
18801.671087423831
 30
0.0
 11
14311.71889928265
 21
19461.985685
 31
0.0
  0
LINE
  5
148C8
  8
0-1
  6
CONTINUOUS
 62
     3
 10
14274.71971828264
 20
18786.35252190844
 30
0.0
 11
14274.71971828264
 21
19461.985685
 31
0.0
  0
LINE
  5
148C9
  8
0-1
  6
CONTINUOUS
 62
     3
 10
14111.71824028264
 20
18718.865924844351
 30
0.0
 11
14111.71824028264
 21
19461.985685
 31
0.0
  0
LINE
  5
148CA
  8
0-1
  6
CONTINUOUS
 62
     3
 10
14074.71806828264
 20
18703.546949030719
 30
0.0
 11
14074.71806828264
 21
19461.985685
 31
0.0
  0
LINE
  5
148CB
  8
0-1
  6
CONTINUOUS
 62
     3
 10
14691.221485282669
 20
19509.98900999999
 30
0.0
 11
6755.2205352826568
 21
19509.98900999999
 31
0.0
  0
LINE
  5
148CC
  8
0-1
  6
CONTINUOUS
 62
     3
 10
14746.72124828266
 20
19461.985685
 30
0.0
 11
6699.7197832826632
 21
19461.985685
 31
0.0
  0
LINE
  5
148CD
  8
0-1
  6
CONTINUOUS
 62
     3
 10
9911.711310282557
 20
16982.005900607772
 30
0.0
 11
9911.711310282557
 21
19461.985685
 31
0.0
  0
LINE
  5
148CE
  8
0-1
  6
CONTINUOUS
 62
     3
 10
9874.7111382825497
 20
16966.739348707219
 30
0.0
 11
9874.7111382825497
 21
19461.985685
 31
0.0
  0
LINE
  5
148CF
  8
0-1
  6
CONTINUOUS
 62
     3
 10
9711.7106502825536
 20
16899.484109735109
 30
0.0
 11
9711.7106502825463
 21
19461.985685
 31
0.0
  0
LINE
  5
148D0
  8
0-1
  6
CONTINUOUS
 62
     3
 10
9674.7104782825409
 20
16884.217557834541
 30
0.0
 11
9674.7104782825409
 21
19461.985685
 31
0.0
  0
LINE
  5
148D1
  8
0-1
  6
CONTINUOUS
 62
     3
 10
9511.7099902825412
 20
16816.962318862439
 30
0.0
 11
9511.7099902825412
 21
19461.985685
 31
0.0
  0
LINE
  5
148D2
  8
0-1
  6
CONTINUOUS
 62
     3
 10
9474.7098182825321
 20
16801.695766961871
 30
0.0
 11
9474.7098182825321
 21
19461.985685
 31
0.0
  0
LINE
  5
148D3
  8
0-1
  6
CONTINUOUS
 62
     3
 10
9311.7093302825306
 20
16734.44052798978
 30
0.0
 11
9311.7093302825306
 21
19461.985685
 31
0.0
  0
LINE
  5
148D4
  8
0-1
  6
CONTINUOUS
 62
     3
 10
9274.7091582825196
 20
16719.173976089201
 30
0.0
 11
9274.7091582825233
 21
19461.985685
 31
0.0
  0
LINE
  5
148D5
  8
0-1
  6
CONTINUOUS
 62
     3
 10
9111.7086702825218
 20
16651.91873711711
 30
0.0
 11
9111.7086702825218
 21
19461.985685
 31
0.0
  0
LINE
  5
148D6
  8
0-1
  6
CONTINUOUS
 62
     3
 10
9074.7084982825127
 20
16636.652185216539
 30
0.0
 11
9074.7084982825127
 21
19461.985685
 31
0.0
  0
LINE
  5
148D7
  8
0-1
  6
CONTINUOUS
 62
     3
 10
8911.7080102825093
 20
16569.396946244451
 30
0.0
 11
8911.708010282513
 21
19461.985685
 31
0.0
  0
LINE
  5
148D8
  8
0-1
  6
CONTINUOUS
 62
     3
 10
8874.7078382825002
 20
16554.13039434388
 30
0.0
 11
8874.7078382825057
 21
19461.985685
 31
0.0
  0
LINE
  5
148D9
  8
0-1
  6
CONTINUOUS
 62
     3
 10
8711.7073502825042
 20
16486.875155371781
 30
0.0
 11
8711.7073502825042
 21
19461.985685
 31
0.0
  0
LINE
  5
148DA
  8
0-1
  6
CONTINUOUS
 62
     3
 10
8674.7071782824969
 20
16471.60860347121
 30
0.0
 11
8674.7071782824969
 21
19461.985685
 31
0.0
  0
LINE
  5
148DB
  8
0-1
  6
CONTINUOUS
 62
     3
 10
8511.7066902824918
 20
16404.353364499111
 30
0.0
 11
8511.7066902824918
 21
19461.985685
 31
0.0
  0
LINE
  5
148DC
  8
0-1
  6
CONTINUOUS
 62
     3
 10
8474.7065182824881
 20
16389.08681259854
 30
0.0
 11
8474.7065182824881
 21
19461.985685
 31
0.0
  0
LINE
  5
148DD
  8
0-1
  6
CONTINUOUS
 62
     3
 10
8311.7060302824866
 20
16321.831573626439
 30
0.0
 11
8311.7060302824866
 21
19461.985685
 31
0.0
  0
LINE
  5
148DE
  8
0-1
  6
CONTINUOUS
 62
     3
 10
8274.7058582824848
 20
16306.565021725881
 30
0.0
 11
8274.7058582824775
 21
19461.985685
 31
0.0
  0
LINE
  5
148DF
  8
0-1
  6
CONTINUOUS
 62
     3
 10
8111.7053702824769
 20
16239.30978275376
 30
0.0
 11
8111.7053702824769
 21
19461.985685
 31
0.0
  0
LINE
  5
148E0
  8
0-1
  6
CONTINUOUS
 62
     3
 10
8074.7051982824714
 20
16224.043230853211
 30
0.0
 11
8074.7051982824714
 21
19461.985685
 31
0.0
  0
LINE
  5
148E1
  8
0-1
  6
CONTINUOUS
 62
     3
 10
7911.7047102824663
 20
16156.78799188111
 30
0.0
 11
7911.7047102824672
 21
19461.985685
 31
0.0
  0
LINE
  5
148E2
  8
0-1
  6
CONTINUOUS
 62
     3
 10
7874.7045382824608
 20
16141.521439980541
 30
0.0
 11
7874.7045382824608
 21
19461.985685
 31
0.0
  0
LINE
  5
148E3
  8
0-1
  6
CONTINUOUS
 62
     3
 10
7711.7040502824602
 20
16074.26620100843
 30
0.0
 11
7711.7040502824602
 21
19461.985685
 31
0.0
  0
LINE
  5
148E4
  8
0-1
  6
CONTINUOUS
 62
     3
 10
7674.703878282452
 20
16058.99964910786
 30
0.0
 11
7674.703878282452
 21
19461.985685
 31
0.0
  0
LINE
  5
148E5
  8
0-1
  6
CONTINUOUS
 62
     3
 10
7511.7033902824533
 20
15991.744410135771
 30
0.0
 11
7511.7033902824533
 21
19461.985685
 31
0.0
  0
LINE
  5
148E6
  8
0-1
  6
CONTINUOUS
 62
     3
 10
7474.703218282446
 20
15976.477858235199
 30
0.0
 11
7474.703218282446
 21
19461.985685
 31
0.0
  0
LINE
  5
148E7
  8
0-1
  6
CONTINUOUS
 62
     3
 10
7311.7027302824417
 20
15909.222619263101
 30
0.0
 11
7311.7027302824417
 21
19461.985685
 31
0.0
  0
LINE
  5
148E8
  8
0-1
  6
CONTINUOUS
 62
     3
 10
7274.7025582824344
 20
15893.95606736254
 30
0.0
 11
7274.7025582824344
 21
19461.985685
 31
0.0
  0
LINE
  5
148E9
  8
0-1
  6
CONTINUOUS
 62
     3
 10
7111.7020702824329
 20
15826.700828390431
 30
0.0
 11
7111.7020702824329
 21
19461.985685
 31
0.0
  0
LINE
  5
148EA
  8
0-1
  6
CONTINUOUS
 62
     3
 10
7074.7018982824256
 20
15811.434276489859
 30
0.0
 11
7074.7018982824256
 21
19461.985685
 31
0.0
  0
LINE
  5
148EB
  8
0-1
  6
CONTINUOUS
 62
     3
 10
6911.7014102824251
 20
15744.179037517761
 30
0.0
 11
6911.7014102824251
 21
19461.985685
 31
0.0
  0
LINE
  5
148EC
  8
0-1
  6
CONTINUOUS
 62
     3
 10
6874.7012382824178
 20
15728.9124856172
 30
0.0
 11
6874.7012382824178
 21
19461.985685
 31
0.0
  0
LINE
  5
148ED
  8
0-1
  6
CONTINUOUS
 62
     3
 10
11704.719652282651
 20
13811.985710999999
 30
0.0
 11
9455.719652282658
 21
16729.985711000001
 31
0.0
  0
LINE
  5
148EE
  8
2-0
  6
DASHED3
 62
     6
 10
7596.6825912038721
 20
16026.807473662449
 30
0.0
 11
7054.7196522826562
 21
16729.985711000001
 31
0.0
  0
LINE
  5
148EF
  8
0-1
  6
CONTINUOUS
 62
     3
 10
9455.7196522826562
 20
13811.985710999999
 30
0.0
 11
11704.719652282651
 21
16729.985711000001
 31
0.0
  0
LINE
  5
148F0
  8
2-0
  6
DASHED3
 62
     6
 10
11704.719652282651
 20
19295.703218508079
 30
0.0
 11
9517.0959019007332
 21
16819.184586890031
 31
0.0
  0
LINE
  5
148F1
  8
2-0
  6
DASHED3
 62
     6
 10
9455.719652282658
 20
19295.703218508079
 30
0.0
 11
11010.558701673401
 21
17521.9025202515
 31
0.0
  0
LINE
  5
148F2
  8
0-1
  6
CONTINUOUS
 62
     3
 10
11010.558701673401
 20
17521.9025202515
 30
0.0
 11
11704.719652282651
 21
16729.985711000001
 31
0.0
  0
LINE
  5
148F3
  8
0-1
  6
CONTINUOUS
 62
     3
 10
9455.719652282658
 20
16729.985711000001
 30
0.0
 11
9517.0959019007332
 21
16819.184586890031
 31
0.0
  0
LINE
  5
148F4
  8
2-0
  6
DASHED3
 62
     6
 10
9303.7196522826562
 20
19295.703218508079
 30
0.0
 11
7054.7196522826562
 21
16729.985711000001
 31
0.0
  0
LINE
  5
148F5
  8
2-0
  6
DASHED3
 62
     6
 10
7054.7196522826562
 20
19295.703218508079
 30
0.0
 11
9303.7196522826562
 21
16729.985711000001
 31
0.0
  0
LINE
  5
148F6
  8
0-1
  6
CONTINUOUS
 62
     3
 10
9303.7196522826562
 20
13811.985710999999
 30
0.0
 11
7596.6825912038721
 21
16026.807473662449
 31
0.0
  0
LINE
  5
148F7
  8
0-1
  6
CONTINUOUS
 62
     3
 10
7054.7196522826562
 20
13811.985710999999
 30
0.0
 11
9303.7196522826562
 21
16729.985711000001
 31
0.0
  0
LINE
  5
148F8
  8
0-6
  6
CONTINUOUS
 62
     6
 10
6238.111803044073
 20
13699.21626313892
 30
0.0
 11
3596.867336135304
 21
13699.21626313892
 31
0.0
  0
TEXT
  5
148F9
  8
0-6
  6
CONTINUOUS
 62
     7
 10
3670.5134346940649
 20
13779.216527138909
 30
0.0
 40
160.0
  1
桁前（PU）+ 桁補強（PU）
 72
     4
 11
4918.5134346940649
 21
13859.216527138909
 31
0.0
  0
LINE
  5
148FA
  8
0-6
  6
CONTINUOUS
 62
     6
 10
6238.111803044073
 20
13699.21626313892
 30
0.0
 11
7683.4832336661493
 21
13273.28637377761
 31
0.0
  0
LINE
  5
148FB
  8
0-6
  6
CONTINUOUS
 62
     6
 10
7683.4832336661493
 20
13273.28637377761
 30
0.0
 11
8060.4256971616951
 21
13775.48635799994
 31
0.0
  0
LINE
  5
148FC
  8
0-6
  6
CONTINUOUS
 62
     6
 10
6117.7770744716718
 20
16650.257437065851
 30
0.0
 11
3637.4657710303768
 21
16650.257437065851
 31
0.0
  0
TEXT
  5
148FD
  8
0-6
  6
CONTINUOUS
 62
     7
 10
3721.2668604859841
 20
16730.257701065839
 30
0.0
 40
160.0
  1
桁（PU）+ 桁補強（PU）
 72
     4
 11
4873.2668604859828
 21
16810.257701065839
 31
0.0
  0
LINE
  5
148FE
  8
0-6
  6
CONTINUOUS
 62
     6
 10
6117.7770744716772
 20
16650.257437065851
 30
0.0
 11
7563.148505093749
 21
16224.327547704541
 31
0.0
  0
LINE
  5
148FF
  8
0-6
  6
CONTINUOUS
 62
     6
 10
7563.148505093749
 20
16224.327547704541
 30
0.0
 11
7940.0909685892912
 21
16726.52753192688
 31
0.0
  0
LINE
  5
14900
  8
0-6
  6
CONTINUOUS
 62
     6
 10
6117.777074471669
 20
19182.217120138921
 30
0.0
 11
3637.4657710303732
 21
19182.217120138921
 31
0.0
  0
TEXT
  5
14901
  8
0-6
  6
CONTINUOUS
 62
     7
 10
3721.2668604859791
 20
19262.217384138909
 30
0.0
 40
160.0
  1
桁（PU）+ 桁補強（PU）
 72
     4
 11
4873.2668604859791
 21
19342.217384138909
 31
0.0
  0
LINE
  5
14902
  8
0-6
  6
CONTINUOUS
 62
     6
 10
6117.7770744716718
 20
19182.217120138921
 30
0.0
 11
7563.148505093749
 21
18756.287230777609
 31
0.0
  0
LINE
  5
14903
  8
0-6
  6
CONTINUOUS
 62
     6
 10
7563.148505093749
 20
18756.287230777609
 30
0.0
 11
7940.0909685892912
 21
19258.48721499995
 31
0.0
  0
CIRCLE
  5
14904
  8
0-5
  6
CONTINUOUS
 62
     4
 10
6764.2200212826647
 20
20739.986634999979
 30
0.0
 40
199.9999949999999
  0
TEXT
  5
14905
  8
0-5
  6
CONTINUOUS
 62
     7
 10
6737.5533546159968
 20
20659.986634999979
 30
0.0
 40
160.0
  1
1
 72
     4
 11
6764.2200212826647
 21
20739.986634999979
 31
0.0
  0
CIRCLE
  5
14906
  8
0-5
  6
CONTINUOUS
 62
     4
 10
11764.220021282659
 20
20739.986634999979
 30
0.0
 40
199.9999949999999
  0
TEXT
  5
14907
  8
0-5
  6
CONTINUOUS
 62
     7
 10
11710.502815282671
 20
20650.771712000002
 30
0.0
 40
160.0
  1
2
 72
     4
 11
11763.836148615999
 21
20730.771712000002
 31
0.0
  0
CIRCLE
  5
14908
  8
0-5
  6
CONTINUOUS
 62
     4
 10
14682.220021282659
 20
20739.986634999979
 30
0.0
 40
199.9999949999999
  0
TEXT
  5
14909
  8
0-5
  6
CONTINUOUS
 62
     7
 10
14628.50281528266
 20
20650.771712000002
 30
0.0
 40
160.0
  1
3
 72
     4
 11
14681.836148615999
 21
20730.771712000002
 31
0.0
  0
LINE
  5
1490A
  8
0-6
  6
CONTINUOUS
 62
     6
 10
10518.031048927911
 20
19652.391617999991
 30
0.0
 11
10474.729079927891
 21
19627.390297999991
 31
0.0
  0
LINE
  5
1490B
  8
0-6
  6
CONTINUOUS
 62
     6
 10
10518.031048927911
 20
19652.391617999991
 30
0.0
 11
10571.379074927911
 21
19509.98900999999
 31
0.0
  0
LINE
  5
1490C
  8
0-6
  6
CONTINUOUS
 62
     6
 10
10474.729079927891
 20
19627.390297999991
 30
0.0
 11
10518.031048927911
 21
19652.391617999991
 31
0.0
  0
LINE
  5
1490D
  8
0-6
  6
CONTINUOUS
 62
     6
 10
10571.379074927911
 20
19509.98900999999
 30
0.0
 11
10474.729079927891
 21
19627.390297999991
 31
0.0
  0
LINE
  5
1490E
  8
0-6
  6
CONTINUOUS
 62
     6
 10
10571.379074927911
 20
19509.98900999999
 30
0.0
 11
10518.031048927911
 21
19652.391617999991
 31
0.0
  0
LINE
  5
1490F
  8
0-6
  6
CONTINUOUS
 62
     6
 10
10474.729079927891
 20
19627.390297999991
 30
0.0
 11
10571.379074927911
 21
19509.98900999999
 31
0.0
  0
LINE
  5
14910
  8
0-6
  6
CONTINUOUS
 62
     6
 10
10496.3810539279
 20
19639.892938000001
 30
0.0
 11
10270.79523725822
 21
20063.562777731098
 31
0.0
  0
TEXT
  5
14911
  8
0-6
  6
CONTINUOUS
 62
     7
 10
10097.12403392791
 20
20619.988217999999
 30
0.0
 40
160.0
  1
鼻隠し後
 72
     4
 11
10459.79070059458
 21
20699.988217999999
 31
0.0
  0
LINE
  5
14912
  8
0-6
  6
CONTINUOUS
 62
     6
 10
10017.121789927911
 20
20539.987954
 30
0.0
 11
10859.5613489279
 21
20539.987954
 31
0.0
  0
LINE
  5
14913
  8
0-6
  6
CONTINUOUS
 62
     6
 10
10202.7613782057
 20
20191.337456683399
 30
0.0
 11
10017.121789927911
 21
20539.987954
 31
0.0
  0
TEXT
  5
14914
  8
0-6
  6
CONTINUOUS
 62
     7
 10
5475.1177281903547
 20
14811.4446745524
 30
0.0
 40
160.0
  1
梁（P）前
 72
     4
 11
5917.7843948570217
 21
14891.4446745524
 31
0.0
  0
LINE
  5
14915
  8
0-6
  6
CONTINUOUS
 62
     6
 10
5410.9200400083137
 20
14731.4454005524
 30
0.0
 11
6425.9102093331603
 21
14731.4454005524
 31
0.0
  0
LINE
  5
14918
  8
WAKUSEN-01
 10
868.00000000000193
 20
22484.000000000011
 30
0.0
 11
32764.000000000011
 21
22484.000000000011
 31
0.0
  0
LINE
  5
1491B
  8
WAKUSEN-01
 10
20560.0
 20
2484.0
 30
0.0
 11
32764.0
 21
2484.0
 31
0.0
  0
LINE
  5
1491C
  8
WAKUSEN-02
 10
20560.0
 20
1655.9999999999991
 30
0.0
 11
26868.0
 21
1655.9999999999991
 31
0.0
  0
TEXT
  5
1491D
  8
WAKUMOJI-01
 10
20670.260259962761
 20
2125.9030093393221
 30
0.0
 40
240.0
  1
名　称
  7
WAKUMOJI
  0
TEXT
  5
1491E
  8
WAKUMOJI-01
 10
20656.505485091919
 20
1319.12897497982
 30
0.0
 40
240.0
  1
機種名
  7
WAKUMOJI
  0
LINE
  5
14921
  8
YODOROGO
 10
29977.604341291921
 20
1995.7494964292871
 30
0.0
 11
29829.604341291921
 21
1995.7494964292871
 31
0.0
1001
AUTOCAD_POSTSCRIPT_FIGURE
1002
{
1000
PSFILL
1000
Grayscale
1000
Grayscale
1070
    25
1002
}
  0
LINE
  5
14922
  8
YODOROGO
 10
29829.604341291921
 20
1947.749496429288
 30
0.0
 11
29977.604341291921
 21
1947.749496429288
 31
0.0
1001
AUTOCAD_POSTSCRIPT_FIGURE
1002
{
1000
PSFILL
1000
Grayscale
1000
Grayscale
1070
    25
1002
}
  0
LINE
  5
14923
  8
YODOROGO
 10
29977.604341291921
 20
1907.7494964292871
 30
0.0
 11
29829.604341291921
 21
1907.7494964292871
 31
0.0
1001
AUTOCAD_POSTSCRIPT_FIGURE
1002
{
1000
PSFILL
1000
Grayscale
1000
Grayscale
1070
    25
1002
}
  0
LINE
  5
14924
  8
YODOROGO
 10
29829.604341291921
 20
1859.749496429288
 30
0.0
 11
29977.604341291921
 21
1859.749496429288
 31
0.0
1001
AUTOCAD_POSTSCRIPT_FIGURE
1002
{
1000
PSFILL
1000
Grayscale
1000
Grayscale
1070
    25
1002
}
  0
LINE
  5
14925
  8
YODOROGO
 10
29977.604341291921
 20
1819.7494964292871
 30
0.0
 11
29829.604341291921
 21
1819.7494964292871
 31
0.0
1001
AUTOCAD_POSTSCRIPT_FIGURE
1002
{
1000
PSFILL
1000
Grayscale
1000
Grayscale
1070
    25
1002
}
  0
LINE
  5
14926
  8
YODOROGO
 10
29921.60434129191
 20
1707.749496429288
 30
0.0
 11
29977.604341291921
 21
1707.749496429288
 31
0.0
1001
AUTOCAD_POSTSCRIPT_FIGURE
1002
{
1000
PSFILL
1000
Grayscale
1000
Grayscale
1070
    25
1002
}
  0
LINE
  5
14927
  8
YODOROGO
 10
29737.604341291921
 20
1427.749496429288
 30
0.0
 11
29937.604341291932
 21
1481.3393349155101
 31
0.0
  0
LINE
  5
14928
  8
YODOROGO
 10
29949.60434129191
 20
1707.749496429288
 30
0.0
 11
29885.604341291921
 21
1707.749496429288
 31
0.0
  0
ARC
  5
14929
  8
YODOROGO
 10
30254.34774982791
 20
1807.864609233261
 30
0.0
 40
381.88686420564721
 50
213.96111677667841
 51
264.47872074317792
  0
ARC
  5
1492A
  8
YODOROGO
 10
30254.347749827921
 20
1807.864609233302
 30
0.0
 40
381.8868642056816
 50
208.14114420486601
 51
212.9210361185994
  0
LINE
  5
1492B
  8
YODOROGO
 10
29771.409872985321
 20
1556.807661346234
 30
0.0
 11
29933.78413250855
 21
1600.3157130570869
 31
0.0
  0
LINE
  5
1492C
  8
YODOROGO
 10
29737.604341291921
 20
1427.749496429288
 30
0.0
 11
29937.604341291932
 21
1481.3393349155101
 31
0.0
  0
LINE
  5
1492D
  8
YODOROGO
 10
29949.60434129191
 20
1707.749496429288
 30
0.0
 11
29885.604341291921
 21
1707.749496429288
 31
0.0
  0
ARC
  5
1492E
  8
YODOROGO
 10
30254.34774982791
 20
1807.864609233261
 30
0.0
 40
381.88686420564721
 50
213.96111677667841
 51
264.47872074317792
  0
LINE
  5
1492F
  8
YODOROGO
 10
28793.60434129191
 20
1819.7494964292871
 30
0.0
 11
28433.60434129191
 21
1819.7494964292871
 31
0.0
  0
LINE
  5
14930
  8
YODOROGO
 10
28513.60434129191
 20
1427.749496429288
 30
0.0
 11
28793.60434129191
 21
1427.749496429288
 31
0.0
  0
LINE
  5
14931
  8
YODOROGO
 10
28729.604341291921
 20
1923.7494964292871
 30
0.0
 11
28497.60434129191
 21
1923.7494964292871
 31
0.0
  0
LINE
  5
14932
  8
YODOROGO
 10
28585.604341291921
 20
2027.749496429288
 30
0.0
 11
28657.604341291921
 21
2027.749496429288
 31
0.0
  0
LINE
  5
14933
  8
YODOROGO
 10
28433.60434129191
 20
1707.749496429288
 30
0.0
 11
28433.60434129191
 21
1507.749496429288
 31
0.0
  0
LINE
  5
14934
  8
YODOROGO
 10
28497.60434129191
 20
1563.7494964292871
 30
0.0
 11
28497.60434129191
 21
1707.749496429288
 31
0.0
  0
LINE
  5
14935
  8
YODOROGO
 10
28585.604341291921
 20
1747.74949642929
 30
0.0
 11
28585.604341291921
 21
1547.749496429288
 31
0.0
  0
LINE
  5
14936
  8
YODOROGO
 10
27857.604341291921
 20
1683.749496429288
 30
0.0
 11
27777.604341291921
 21
1619.9724140445701
 31
0.0
  0
LINE
  5
14937
  8
YODOROGO
 10
27937.604341291921
 20
1619.9724140445701
 30
0.0
 11
27857.604341291921
 21
1683.749496429288
 31
0.0
  0
LINE
  5
14938
  8
YODOROGO
 10
27857.604341291921
 20
1707.749496429288
 30
0.0
 11
27937.604341291921
 21
1643.9724140445701
 31
0.0
  0
LINE
  5
14939
  8
YODOROGO
 10
27777.604341291921
 20
1643.9724140445701
 30
0.0
 11
27857.604341291921
 21
1707.749496429288
 31
0.0
  0
LINE
  5
1493A
  8
YODOROGO
 10
28040.913204016892
 20
1659.749496429288
 30
0.0
 11
28040.913204016892
 21
1683.7494964292871
 31
0.0
  0
LINE
  5
1493B
  8
YODOROGO
 10
27977.604341291921
 20
1683.7494964292871
 30
0.0
 11
27977.604341291921
 21
1667.749496429285
 31
0.0
  0
LINE
  5
1493C
  8
YODOROGO
 10
28098.135520230931
 20
1707.749496429288
 30
0.0
 11
28098.135520230931
 21
1655.5036372746561
 31
0.0
1001
AUTOCAD_POSTSCRIPT_FIGURE
1002
{
1000
PSFILL
1000
Grayscale
1000
Grayscale
1070
   100
1002
}
  0
LINE
  5
1493D
  8
YODOROGO
 10
28082.135520230921
 20
1655.5036372746561
 30
0.0
 11
28082.135520230921
 21
1707.749496429288
 31
0.0
1001
AUTOCAD_POSTSCRIPT_FIGURE
1002
{
1000
PSFILL
1000
Grayscale
1000
Grayscale
1070
   100
1002
}
  0
LINE
  5
1493E
  8
YODOROGO
 10
27809.604341291921
 20
1608.771904043258
 30
0.0
 11
27809.604341291921
 21
1632.771904043258
 31
0.0
  0
LINE
  5
1493F
  8
YODOROGO
 10
27905.604341291921
 20
1608.771904043258
 30
0.0
 11
27809.604341291921
 21
1608.771904043258
 31
0.0
  0
LINE
  5
14940
  8
YODOROGO
 10
27905.604341291921
 20
1632.771904043258
 30
0.0
 11
27905.604341291921
 21
1608.771904043258
 31
0.0
  0
LINE
  5
14941
  8
YODOROGO
 10
27809.604341291921
 20
1632.771904043258
 30
0.0
 11
27905.604341291921
 21
1632.771904043258
 31
0.0
  0
LINE
  5
14942
  8
YODOROGO
 10
27824.509588915738
 20
1568.5028573704751
 30
0.0
 11
27785.604341291921
 21
1475.7494964292871
 31
0.0
1001
AUTOCAD_POSTSCRIPT_FIGURE
1002
{
1000
PSFILL
1000
Grayscale
1000
Grayscale
1070
   100
1002
}
  0
LINE
  5
14943
  8
YODOROGO
 10
27777.604341291921
 20
1568.5028573704751
 30
0.0
 11
27824.509588915738
 21
1568.5028573704751
 31
0.0
1001
AUTOCAD_POSTSCRIPT_FIGURE
1002
{
1000
PSFILL
1000
Grayscale
1000
Grayscale
1070
   100
1002
}
  0
LINE
  5
14944
  8
YODOROGO
 10
27777.604341291921
 20
1588.5028573704751
 30
0.0
 11
27777.604341291921
 21
1568.5028573704751
 31
0.0
1001
AUTOCAD_POSTSCRIPT_FIGURE
1002
{
1000
PSFILL
1000
Grayscale
1000
Grayscale
1070
   100
1002
}
  0
LINE
  5
14945
  8
YODOROGO
 10
27937.604341291921
 20
1588.5028573704751
 30
0.0
 11
27777.604341291921
 21
1588.5028573704751
 31
0.0
1001
AUTOCAD_POSTSCRIPT_FIGURE
1002
{
1000
PSFILL
1000
Grayscale
1000
Grayscale
1070
   100
1002
}
  0
LINE
  5
14946
  8
YODOROGO
 10
27937.604341291921
 20
1568.5028573704751
 30
0.0
 11
27937.604341291921
 21
1588.5028573704751
 31
0.0
1001
AUTOCAD_POSTSCRIPT_FIGURE
1002
{
1000
PSFILL
1000
Grayscale
1000
Grayscale
1070
   100
1002
}
  0
LINE
  5
14947
  8
YODOROGO
 10
27844.509588915738
 20
1568.5028573704751
 30
0.0
 11
27937.604341291921
 21
1568.5028573704751
 31
0.0
1001
AUTOCAD_POSTSCRIPT_FIGURE
1002
{
1000
PSFILL
1000
Grayscale
1000
Grayscale
1070
   100
1002
}
  0
LINE
  5
14948
  8
YODOROGO
 10
27815.546718284771
 20
1495.7494964292871
 30
0.0
 11
27844.509588915738
 21
1568.5028573704751
 31
0.0
1001
AUTOCAD_POSTSCRIPT_FIGURE
1002
{
1000
PSFILL
1000
Grayscale
1000
Grayscale
1070
   100
1002
}
  0
LINE
  5
14949
  8
YODOROGO
 10
27902.054790808648
 20
1495.7494964292871
 30
0.0
 11
27815.546718284771
 21
1495.7494964292871
 31
0.0
1001
AUTOCAD_POSTSCRIPT_FIGURE
1002
{
1000
PSFILL
1000
Grayscale
1000
Grayscale
1070
   100
1002
}
  0
LINE
  5
1494A
  8
YODOROGO
 10
27885.065004790951
 20
1536.2338106976929
 30
0.0
 11
27902.054790808648
 21
1495.7494964292871
 31
0.0
1001
AUTOCAD_POSTSCRIPT_FIGURE
1002
{
1000
PSFILL
1000
Grayscale
1000
Grayscale
1070
   100
1002
}
  0
LINE
  5
1494B
  8
YODOROGO
 10
27901.065004790951
 20
1536.2338106976929
 30
0.0
 11
27885.065004790951
 21
1536.2338106976929
 31
0.0
1001
AUTOCAD_POSTSCRIPT_FIGURE
1002
{
1000
PSFILL
1000
Grayscale
1000
Grayscale
1070
   100
1002
}
  0
LINE
  5
1494C
  8
YODOROGO
 10
27929.604341291921
 20
1475.7494964292871
 30
0.0
 11
27901.065004790951
 21
1536.2338106976929
 31
0.0
1001
AUTOCAD_POSTSCRIPT_FIGURE
1002
{
1000
PSFILL
1000
Grayscale
1000
Grayscale
1070
   100
1002
}
  0
LINE
  5
1494D
  8
YODOROGO
 10
27785.604341291921
 20
1475.7494964292871
 30
0.0
 11
27929.604341291921
 21
1475.7494964292871
 31
0.0
1001
AUTOCAD_POSTSCRIPT_FIGURE
1002
{
1000
PSFILL
1000
Grayscale
1000
Grayscale
1070
   100
1002
}
  0
LINE
  5
1494E
  8
YODOROGO
 10
27777.604341291921
 20
1619.9724140445701
 30
0.0
 11
27777.604341291921
 21
1643.9724140445701
 31
0.0
  0
LINE
  5
1494F
  8
YODOROGO
 10
27937.604341291921
 20
1643.9724140445701
 30
0.0
 11
27937.604341291921
 21
1619.9724140445701
 31
0.0
  0
ARC
  5
14950
  8
YODOROGO
 10
28225.940442146959
 20
1600.877765325326
 30
0.0
 40
175.9999999999998
 50
280.3644312771313
 51
3.5414836592180561
  0
ARC
  5
14951
  8
YODOROGO
 10
28235.756030759301
 20
1633.5978069619041
 30
0.0
 40
111.9999999999982
 50
281.24905825041549
 51
348.75094174958321
  0
LINE
  5
14952
  8
YODOROGO
 10
28257.604341291921
 20
1523.7494964292871
 30
0.0
 11
28257.604341291921
 21
1427.749496429288
 31
0.0
  0
LINE
  5
14953
  8
YODOROGO
 10
28020.088903736909
 20
1610.650565061914
 30
0.0
 11
28040.913204016892
 21
1659.749496429288
 31
0.0
  0
LINE
  5
14954
  8
YODOROGO
 10
28041.604341291921
 20
1583.120489948401
 30
0.0
 11
28020.088903736909
 21
1610.650565061914
 31
0.0
  0
LINE
  5
14955
  8
YODOROGO
 10
28041.604341291921
 20
1563.120489948398
 30
0.0
 11
28041.604341291921
 21
1583.120489948401
 31
0.0
  0
LINE
  5
14956
  8
YODOROGO
 10
28017.604341291921
 20
1585.2370637495301
 30
0.0
 11
28041.604341291921
 21
1563.120489948398
 31
0.0
  0
LINE
  5
14957
  8
YODOROGO
 10
28017.604341291921
 20
1475.7494964292871
 30
0.0
 11
28017.604341291921
 21
1585.2370637495301
 31
0.0
  0
LINE
  5
14958
  8
YODOROGO
 10
28001.604341291921
 20
1475.7494964292871
 30
0.0
 11
28017.604341291921
 21
1475.7494964292871
 31
0.0
  0
LINE
  5
14959
  8
YODOROGO
 10
28001.604341291921
 20
1580.0053496897469
 30
0.0
 11
28001.604341291921
 21
1475.7494964292871
 31
0.0
  0
LINE
  5
1495A
  8
YODOROGO
 10
27977.604341291921
 20
1532.7680790334291
 30
0.0
 11
28001.604341291921
 21
1580.0053496897469
 31
0.0
  0
LINE
  5
1495B
  8
YODOROGO
 10
27977.604341291921
 20
1556.76807903343
 30
0.0
 11
27977.604341291921
 21
1532.7680790334291
 31
0.0
  0
LINE
  5
1495C
  8
YODOROGO
 10
28025.828774291349
 20
1667.749496429285
 30
0.0
 11
27977.604341291921
 21
1556.76807903343
 31
0.0
  0
LINE
  5
1495D
  8
YODOROGO
 10
27977.604341291921
 20
1667.749496429285
 30
0.0
 11
28025.828774291349
 21
1667.749496429285
 31
0.0
  0
LINE
  5
1495E
  8
YODOROGO
 10
28050.135520230899
 20
1655.5036372746561
 30
0.0
 11
28082.135520230921
 21
1655.5036372746561
 31
0.0
1001
AUTOCAD_POSTSCRIPT_FIGURE
1002
{
1000
PSFILL
1000
Grayscale
1000
Grayscale
1070
   100
1002
}
  0
LINE
  5
1495F
  8
YODOROGO
 10
28050.135520230899
 20
1631.5036372746561
 30
0.0
 11
28050.135520230899
 21
1655.5036372746561
 31
0.0
1001
AUTOCAD_POSTSCRIPT_FIGURE
1002
{
1000
PSFILL
1000
Grayscale
1000
Grayscale
1070
   100
1002
}
  0
LINE
  5
14960
  8
YODOROGO
 10
28082.135520230921
 20
1631.5036372746561
 30
0.0
 11
28050.135520230899
 21
1631.5036372746561
 31
0.0
1001
AUTOCAD_POSTSCRIPT_FIGURE
1002
{
1000
PSFILL
1000
Grayscale
1000
Grayscale
1070
   100
1002
}
  0
LINE
  5
14961
  8
YODOROGO
 10
28082.135520230921
 20
1499.749496429288
 30
0.0
 11
28082.135520230921
 21
1631.5036372746561
 31
0.0
1001
AUTOCAD_POSTSCRIPT_FIGURE
1002
{
1000
PSFILL
1000
Grayscale
1000
Grayscale
1070
   100
1002
}
  0
LINE
  5
14962
  8
YODOROGO
 10
28050.135520230921
 20
1499.749496429288
 30
0.0
 11
28082.135520230921
 21
1499.749496429288
 31
0.0
1001
AUTOCAD_POSTSCRIPT_FIGURE
1002
{
1000
PSFILL
1000
Grayscale
1000
Grayscale
1070
   100
1002
}
  0
LINE
  5
14963
  8
YODOROGO
 10
28050.135520230921
 20
1475.7494964292871
 30
0.0
 11
28050.135520230921
 21
1499.749496429288
 31
0.0
1001
AUTOCAD_POSTSCRIPT_FIGURE
1002
{
1000
PSFILL
1000
Grayscale
1000
Grayscale
1070
   100
1002
}
  0
LINE
  5
14964
  8
YODOROGO
 10
28137.604341291921
 20
1475.7494964292871
 30
0.0
 11
28050.135520230921
 21
1475.7494964292871
 31
0.0
1001
AUTOCAD_POSTSCRIPT_FIGURE
1002
{
1000
PSFILL
1000
Grayscale
1000
Grayscale
1070
   100
1002
}
  0
LINE
  5
14965
  8
YODOROGO
 10
28137.604341291921
 20
1499.749496429288
 30
0.0
 11
28137.604341291921
 21
1475.7494964292871
 31
0.0
1001
AUTOCAD_POSTSCRIPT_FIGURE
1002
{
1000
PSFILL
1000
Grayscale
1000
Grayscale
1070
   100
1002
}
  0
LINE
  5
14966
  8
YODOROGO
 10
28098.135520230931
 20
1499.749496429288
 30
0.0
 11
28137.604341291921
 21
1499.749496429288
 31
0.0
1001
AUTOCAD_POSTSCRIPT_FIGURE
1002
{
1000
PSFILL
1000
Grayscale
1000
Grayscale
1070
   100
1002
}
  0
LINE
  5
14967
  8
YODOROGO
 10
28098.135520230931
 20
1631.5036372746561
 30
0.0
 11
28098.135520230931
 21
1499.749496429288
 31
0.0
1001
AUTOCAD_POSTSCRIPT_FIGURE
1002
{
1000
PSFILL
1000
Grayscale
1000
Grayscale
1070
   100
1002
}
  0
LINE
  5
14968
  8
YODOROGO
 10
28137.604341291921
 20
1631.5036372746561
 30
0.0
 11
28098.135520230931
 21
1631.5036372746561
 31
0.0
1001
AUTOCAD_POSTSCRIPT_FIGURE
1002
{
1000
PSFILL
1000
Grayscale
1000
Grayscale
1070
   100
1002
}
  0
LINE
  5
14969
  8
YODOROGO
 10
28137.604341291921
 20
1655.5036372746561
 30
0.0
 11
28137.604341291921
 21
1631.5036372746561
 31
0.0
1001
AUTOCAD_POSTSCRIPT_FIGURE
1002
{
1000
PSFILL
1000
Grayscale
1000
Grayscale
1070
   100
1002
}
  0
LINE
  5
1496A
  8
YODOROGO
 10
28098.135520230931
 20
1655.5036372746561
 30
0.0
 11
28137.604341291921
 21
1655.5036372746561
 31
0.0
1001
AUTOCAD_POSTSCRIPT_FIGURE
1002
{
1000
PSFILL
1000
Grayscale
1000
Grayscale
1070
   100
1002
}
  0
LINE
  5
1496B
  8
YODOROGO
 10
28401.60434129191
 20
1667.749496429288
 30
0.0
 11
28345.604341291921
 21
1667.749496429288
 31
0.0
  0
LINE
  5
1496C
  8
YODOROGO
 10
28401.60434129191
 20
1611.749496429288
 30
0.0
 11
28401.60434129191
 21
1667.749496429288
 31
0.0
  0
LINE
  5
1496D
  8
YODOROGO
 10
28345.604341291921
 20
1667.749496429288
 30
0.0
 11
28345.604341291921
 21
1611.749496429288
 31
0.0
  0
ARC
  5
1496E
  8
YODOROGO
 10
28513.60434129191
 20
1507.749496429288
 30
0.0
 40
80.0
 50
180.0
 51
270.0
  0
ARC
  5
1496F
  8
YODOROGO
 10
28537.604341291921
 20
1563.7494964292871
 30
0.0
 40
40.0
 50
180.0
 51
270.0
  0
LINE
  5
14970
  8
YODOROGO
 10
28561.604341291932
 20
1523.7494964292871
 30
0.0
 11
28537.604341291921
 21
1523.7494964292871
 31
0.0
  0
ARC
  5
14971
  8
YODOROGO
 10
28561.604341291932
 20
1547.749496429285
 30
0.0
 40
23.999999999996358
 50
270.0
 51
0.0000000000054281
  0
LINE
  5
14972
  8
YODOROGO
 10
27801.604341291921
 20
1890.786580793706
 30
0.0
 11
27777.604341291921
 21
1843.776747951672
 31
0.0
1001
AUTOCAD_POSTSCRIPT_FIGURE
1002
{
1000
PSFILL
1000
Grayscale
1000
Grayscale
1070
   100
1002
}
  0
LINE
  5
14973
  8
YODOROGO
 10
27801.604341291921
 20
1747.749496429286
 30
0.0
 11
27801.604341291921
 21
1890.786580793706
 31
0.0
1001
AUTOCAD_POSTSCRIPT_FIGURE
1002
{
1000
PSFILL
1000
Grayscale
1000
Grayscale
1070
   100
1002
}
  0
LINE
  5
14974
  8
YODOROGO
 10
27817.604341291921
 20
1747.749496429286
 30
0.0
 11
27801.604341291921
 21
1747.749496429286
 31
0.0
1001
AUTOCAD_POSTSCRIPT_FIGURE
1002
{
1000
PSFILL
1000
Grayscale
1000
Grayscale
1070
   100
1002
}
  0
LINE
  5
14975
  8
YODOROGO
 10
27817.604341291921
 20
1893.7713320852661
 30
0.0
 11
27817.604341291921
 21
1747.749496429286
 31
0.0
1001
AUTOCAD_POSTSCRIPT_FIGURE
1002
{
1000
PSFILL
1000
Grayscale
1000
Grayscale
1070
   100
1002
}
  0
LINE
  5
14976
  8
YODOROGO
 10
27841.604341291921
 20
1867.6547582841361
 30
0.0
 11
27817.604341291921
 21
1893.7713320852661
 31
0.0
1001
AUTOCAD_POSTSCRIPT_FIGURE
1002
{
1000
PSFILL
1000
Grayscale
1000
Grayscale
1070
   100
1002
}
  0
LINE
  5
14977
  8
YODOROGO
 10
27841.604341291921
 20
1883.6547582841361
 30
0.0
 11
27841.604341291921
 21
1867.6547582841361
 31
0.0
1001
AUTOCAD_POSTSCRIPT_FIGURE
1002
{
1000
PSFILL
1000
Grayscale
1000
Grayscale
1070
   100
1002
}
  0
LINE
  5
14978
  8
YODOROGO
 10
27817.604341291921
 20
1917.7713320852649
 30
0.0
 11
27841.604341291921
 21
1883.6547582841361
 31
0.0
1001
AUTOCAD_POSTSCRIPT_FIGURE
1002
{
1000
PSFILL
1000
Grayscale
1000
Grayscale
1070
   100
1002
}
  0
LINE
  5
14979
  8
YODOROGO
 10
27817.604341291921
 20
1939.749496429288
 30
0.0
 11
27817.604341291921
 21
1917.7713320852649
 31
0.0
1001
AUTOCAD_POSTSCRIPT_FIGURE
1002
{
1000
PSFILL
1000
Grayscale
1000
Grayscale
1070
   100
1002
}
  0
LINE
  5
1497A
  8
YODOROGO
 10
27889.604341291921
 20
1939.749496429288
 30
0.0
 11
27817.604341291921
 21
1939.749496429288
 31
0.0
1001
AUTOCAD_POSTSCRIPT_FIGURE
1002
{
1000
PSFILL
1000
Grayscale
1000
Grayscale
1070
   100
1002
}
  0
LINE
  5
1497B
  8
YODOROGO
 10
27889.604341291921
 20
1900.5683489363
 30
0.0
 11
27889.604341291921
 21
1939.749496429288
 31
0.0
1001
AUTOCAD_POSTSCRIPT_FIGURE
1002
{
1000
PSFILL
1000
Grayscale
1000
Grayscale
1070
   100
1002
}
  0
LINE
  5
1497C
  8
YODOROGO
 10
27857.604341291921
 20
1900.5683489363
 30
0.0
 11
27889.604341291921
 21
1900.5683489363
 31
0.0
1001
AUTOCAD_POSTSCRIPT_FIGURE
1002
{
1000
PSFILL
1000
Grayscale
1000
Grayscale
1070
   100
1002
}
  0
LINE
  5
1497D
  8
YODOROGO
 10
27857.604341291921
 20
1884.568348936298
 30
0.0
 11
27857.604341291921
 21
1900.5683489363
 31
0.0
1001
AUTOCAD_POSTSCRIPT_FIGURE
1002
{
1000
PSFILL
1000
Grayscale
1000
Grayscale
1070
   100
1002
}
  0
LINE
  5
1497E
  8
YODOROGO
 10
27889.604341291921
 20
1884.568348936298
 30
0.0
 11
27857.604341291921
 21
1884.568348936298
 31
0.0
1001
AUTOCAD_POSTSCRIPT_FIGURE
1002
{
1000
PSFILL
1000
Grayscale
1000
Grayscale
1070
   100
1002
}
  0
LINE
  5
1497F
  8
YODOROGO
 10
27889.604341291921
 20
1879.6191779644371
 30
0.0
 11
27889.604341291921
 21
1884.568348936298
 31
0.0
1001
AUTOCAD_POSTSCRIPT_FIGURE
1002
{
1000
PSFILL
1000
Grayscale
1000
Grayscale
1070
   100
1002
}
  0
LINE
  5
14980
  8
YODOROGO
 10
27849.604341291921
 20
1812.974981161417
 30
0.0
 11
27889.604341291921
 21
1879.6191779644371
 31
0.0
1001
AUTOCAD_POSTSCRIPT_FIGURE
1002
{
1000
PSFILL
1000
Grayscale
1000
Grayscale
1070
   100
1002
}
  0
LINE
  5
14981
  8
YODOROGO
 10
27849.604341291921
 20
1796.9749811614161
 30
0.0
 11
27849.604341291921
 21
1812.974981161417
 31
0.0
1001
AUTOCAD_POSTSCRIPT_FIGURE
1002
{
1000
PSFILL
1000
Grayscale
1000
Grayscale
1070
   100
1002
}
  0
LINE
  5
14982
  8
YODOROGO
 10
27889.604341291921
 20
1847.6191779644359
 30
0.0
 11
27849.604341291921
 21
1796.9749811614161
 31
0.0
1001
AUTOCAD_POSTSCRIPT_FIGURE
1002
{
1000
PSFILL
1000
Grayscale
1000
Grayscale
1070
   100
1002
}
  0
LINE
  5
14983
  8
YODOROGO
 10
27889.604341291921
 20
1747.749496429286
 30
0.0
 11
27889.604341291921
 21
1847.6191779644359
 31
0.0
1001
AUTOCAD_POSTSCRIPT_FIGURE
1002
{
1000
PSFILL
1000
Grayscale
1000
Grayscale
1070
   100
1002
}
  0
LINE
  5
14984
  8
YODOROGO
 10
27905.604341291921
 20
1747.749496429286
 30
0.0
 11
27889.604341291921
 21
1747.749496429286
 31
0.0
1001
AUTOCAD_POSTSCRIPT_FIGURE
1002
{
1000
PSFILL
1000
Grayscale
1000
Grayscale
1070
   100
1002
}
  0
LINE
  5
14985
  8
YODOROGO
 10
27905.604341291921
 20
1849.409012158806
 30
0.0
 11
27905.604341291921
 21
1747.749496429286
 31
0.0
1001
AUTOCAD_POSTSCRIPT_FIGURE
1002
{
1000
PSFILL
1000
Grayscale
1000
Grayscale
1070
   100
1002
}
  0
LINE
  5
14986
  8
YODOROGO
 10
27937.604341291921
 20
1796.9749811614161
 30
0.0
 11
27905.604341291921
 21
1849.409012158806
 31
0.0
1001
AUTOCAD_POSTSCRIPT_FIGURE
1002
{
1000
PSFILL
1000
Grayscale
1000
Grayscale
1070
   100
1002
}
  0
LINE
  5
14987
  8
YODOROGO
 10
27937.604341291921
 20
1812.974981161417
 30
0.0
 11
27937.604341291921
 21
1796.9749811614161
 31
0.0
1001
AUTOCAD_POSTSCRIPT_FIGURE
1002
{
1000
PSFILL
1000
Grayscale
1000
Grayscale
1070
   100
1002
}
  0
LINE
  5
14988
  8
YODOROGO
 10
27905.604341291921
 20
1881.4090121588081
 30
0.0
 11
27937.604341291921
 21
1812.974981161417
 31
0.0
1001
AUTOCAD_POSTSCRIPT_FIGURE
1002
{
1000
PSFILL
1000
Grayscale
1000
Grayscale
1070
   100
1002
}
  0
LINE
  5
14989
  8
YODOROGO
 10
27905.604341291921
 20
1884.5683489363
 30
0.0
 11
27905.604341291921
 21
1881.4090121588081
 31
0.0
1001
AUTOCAD_POSTSCRIPT_FIGURE
1002
{
1000
PSFILL
1000
Grayscale
1000
Grayscale
1070
   100
1002
}
  0
LINE
  5
1498A
  8
YODOROGO
 10
27937.604341291921
 20
1884.568348936298
 30
0.0
 11
27905.604341291921
 21
1884.5683489363
 31
0.0
1001
AUTOCAD_POSTSCRIPT_FIGURE
1002
{
1000
PSFILL
1000
Grayscale
1000
Grayscale
1070
   100
1002
}
  0
LINE
  5
1498B
  8
YODOROGO
 10
27937.604341291921
 20
1900.5683489363
 30
0.0
 11
27937.604341291921
 21
1884.568348936298
 31
0.0
1001
AUTOCAD_POSTSCRIPT_FIGURE
1002
{
1000
PSFILL
1000
Grayscale
1000
Grayscale
1070
   100
1002
}
  0
LINE
  5
1498C
  8
YODOROGO
 10
27905.604341291921
 20
1900.5683489363
 30
0.0
 11
27937.604341291921
 21
1900.5683489363
 31
0.0
1001
AUTOCAD_POSTSCRIPT_FIGURE
1002
{
1000
PSFILL
1000
Grayscale
1000
Grayscale
1070
   100
1002
}
  0
LINE
  5
1498D
  8
YODOROGO
 10
27905.604341291921
 20
1939.749496429288
 30
0.0
 11
27905.604341291921
 21
1900.5683489363
 31
0.0
1001
AUTOCAD_POSTSCRIPT_FIGURE
1002
{
1000
PSFILL
1000
Grayscale
1000
Grayscale
1070
   100
1002
}
  0
LINE
  5
1498E
  8
YODOROGO
 10
27937.604341291921
 20
1939.749496429288
 30
0.0
 11
27905.604341291921
 21
1939.749496429288
 31
0.0
1001
AUTOCAD_POSTSCRIPT_FIGURE
1002
{
1000
PSFILL
1000
Grayscale
1000
Grayscale
1070
   100
1002
}
  0
LINE
  5
1498F
  8
YODOROGO
 10
27937.604341291921
 20
1955.7494964292871
 30
0.0
 11
27937.604341291921
 21
1939.749496429288
 31
0.0
1001
AUTOCAD_POSTSCRIPT_FIGURE
1002
{
1000
PSFILL
1000
Grayscale
1000
Grayscale
1070
   100
1002
}
  0
LINE
  5
14990
  8
YODOROGO
 10
27905.604341291921
 20
1955.7494964292871
 30
0.0
 11
27937.604341291921
 21
1955.7494964292871
 31
0.0
1001
AUTOCAD_POSTSCRIPT_FIGURE
1002
{
1000
PSFILL
1000
Grayscale
1000
Grayscale
1070
   100
1002
}
  0
LINE
  5
14991
  8
YODOROGO
 10
27905.604341291921
 20
1979.749496429288
 30
0.0
 11
27905.604341291921
 21
1955.7494964292871
 31
0.0
1001
AUTOCAD_POSTSCRIPT_FIGURE
1002
{
1000
PSFILL
1000
Grayscale
1000
Grayscale
1070
   100
1002
}
  0
LINE
  5
14992
  8
YODOROGO
 10
27889.604341291921
 20
1979.749496429288
 30
0.0
 11
27905.604341291921
 21
1979.749496429288
 31
0.0
1001
AUTOCAD_POSTSCRIPT_FIGURE
1002
{
1000
PSFILL
1000
Grayscale
1000
Grayscale
1070
   100
1002
}
  0
LINE
  5
14993
  8
YODOROGO
 10
27889.604341291921
 20
1955.7494964292871
 30
0.0
 11
27889.604341291921
 21
1979.749496429288
 31
0.0
1001
AUTOCAD_POSTSCRIPT_FIGURE
1002
{
1000
PSFILL
1000
Grayscale
1000
Grayscale
1070
   100
1002
}
  0
LINE
  5
14994
  8
YODOROGO
 10
27865.604341291921
 20
1955.7494964292871
 30
0.0
 11
27889.604341291921
 21
1955.7494964292871
 31
0.0
1001
AUTOCAD_POSTSCRIPT_FIGURE
1002
{
1000
PSFILL
1000
Grayscale
1000
Grayscale
1070
   100
1002
}
  0
LINE
  5
14995
  8
YODOROGO
 10
27865.604341291921
 20
1979.749496429288
 30
0.0
 11
27865.604341291921
 21
1955.7494964292871
 31
0.0
1001
AUTOCAD_POSTSCRIPT_FIGURE
1002
{
1000
PSFILL
1000
Grayscale
1000
Grayscale
1070
   100
1002
}
  0
LINE
  5
14996
  8
YODOROGO
 10
27849.604341291921
 20
1979.749496429288
 30
0.0
 11
27865.604341291921
 21
1979.749496429288
 31
0.0
1001
AUTOCAD_POSTSCRIPT_FIGURE
1002
{
1000
PSFILL
1000
Grayscale
1000
Grayscale
1070
   100
1002
}
  0
LINE
  5
14997
  8
YODOROGO
 10
27849.604341291921
 20
1955.7494964292871
 30
0.0
 11
27849.604341291921
 21
1979.749496429288
 31
0.0
1001
AUTOCAD_POSTSCRIPT_FIGURE
1002
{
1000
PSFILL
1000
Grayscale
1000
Grayscale
1070
   100
1002
}
  0
LINE
  5
14998
  8
YODOROGO
 10
27817.604341291921
 20
1955.7494964292871
 30
0.0
 11
27849.604341291921
 21
1955.7494964292871
 31
0.0
1001
AUTOCAD_POSTSCRIPT_FIGURE
1002
{
1000
PSFILL
1000
Grayscale
1000
Grayscale
1070
   100
1002
}
  0
LINE
  5
14999
  8
YODOROGO
 10
27817.604341291921
 20
1979.749496429288
 30
0.0
 11
27817.604341291921
 21
1955.7494964292871
 31
0.0
1001
AUTOCAD_POSTSCRIPT_FIGURE
1002
{
1000
PSFILL
1000
Grayscale
1000
Grayscale
1070
   100
1002
}
  0
LINE
  5
1499A
  8
YODOROGO
 10
27801.604341291921
 20
1979.749496429288
 30
0.0
 11
27817.604341291921
 21
1979.749496429288
 31
0.0
1001
AUTOCAD_POSTSCRIPT_FIGURE
1002
{
1000
PSFILL
1000
Grayscale
1000
Grayscale
1070
   100
1002
}
  0
LINE
  5
1499B
  8
YODOROGO
 10
27801.604341291921
 20
1955.7494964292871
 30
0.0
 11
27801.604341291921
 21
1979.749496429288
 31
0.0
1001
AUTOCAD_POSTSCRIPT_FIGURE
1002
{
1000
PSFILL
1000
Grayscale
1000
Grayscale
1070
   100
1002
}
  0
LINE
  5
1499C
  8
YODOROGO
 10
27777.604341291921
 20
1955.7494964292871
 30
0.0
 11
27801.604341291921
 21
1955.7494964292871
 31
0.0
1001
AUTOCAD_POSTSCRIPT_FIGURE
1002
{
1000
PSFILL
1000
Grayscale
1000
Grayscale
1070
   100
1002
}
  0
LINE
  5
1499D
  8
YODOROGO
 10
27777.604341291921
 20
1939.749496429288
 30
0.0
 11
27777.604341291921
 21
1955.7494964292871
 31
0.0
1001
AUTOCAD_POSTSCRIPT_FIGURE
1002
{
1000
PSFILL
1000
Grayscale
1000
Grayscale
1070
   100
1002
}
  0
LINE
  5
1499E
  8
YODOROGO
 10
27801.604341291921
 20
1939.749496429288
 30
0.0
 11
27777.604341291921
 21
1939.749496429288
 31
0.0
1001
AUTOCAD_POSTSCRIPT_FIGURE
1002
{
1000
PSFILL
1000
Grayscale
1000
Grayscale
1070
   100
1002
}
  0
LINE
  5
1499F
  8
YODOROGO
 10
27801.604341291921
 20
1914.7865807937051
 30
0.0
 11
27801.604341291921
 21
1939.749496429288
 31
0.0
1001
AUTOCAD_POSTSCRIPT_FIGURE
1002
{
1000
PSFILL
1000
Grayscale
1000
Grayscale
1070
   100
1002
}
  0
LINE
  5
149A0
  8
YODOROGO
 10
27777.604341291921
 20
1859.776747951671
 30
0.0
 11
27801.604341291921
 21
1914.7865807937051
 31
0.0
1001
AUTOCAD_POSTSCRIPT_FIGURE
1002
{
1000
PSFILL
1000
Grayscale
1000
Grayscale
1070
   100
1002
}
  0
LINE
  5
149A1
  8
YODOROGO
 10
27777.604341291921
 20
1843.776747951672
 30
0.0
 11
27777.604341291921
 21
1859.776747951671
 31
0.0
1001
AUTOCAD_POSTSCRIPT_FIGURE
1002
{
1000
PSFILL
1000
Grayscale
1000
Grayscale
1070
   100
1002
}
  0
LINE
  5
149A2
  8
YODOROGO
 10
28257.604341291921
 20
1867.7494964292871
 30
0.0
 11
28401.60434129191
 21
1824.877625640306
 31
0.0
1001
AUTOCAD_POSTSCRIPT_FIGURE
1002
{
1000
PSFILL
1000
Grayscale
1000
Grayscale
1070
   100
1002
}
  0
LINE
  5
149A3
  8
YODOROGO
 10
28401.60434129191
 20
1752.877625640306
 30
0.0
 11
28257.604341291921
 21
1795.7494964292871
 31
0.0
1001
AUTOCAD_POSTSCRIPT_FIGURE
1002
{
1000
PSFILL
1000
Grayscale
1000
Grayscale
1070
   100
1002
}
  0
LINE
  5
149A4
  8
YODOROGO
 10
28401.60434129191
 20
1984.877625640306
 30
0.0
 11
28257.604341291921
 21
2027.749496429288
 31
0.0
1001
AUTOCAD_POSTSCRIPT_FIGURE
1002
{
1000
PSFILL
1000
Grayscale
1000
Grayscale
1070
   100
1002
}
  0
LINE
  5
149A5
  8
YODOROGO
 10
28257.604341291921
 20
1959.749496429288
 30
0.0
 11
28401.60434129191
 21
1916.8776256403071
 31
0.0
1001
AUTOCAD_POSTSCRIPT_FIGURE
1002
{
1000
PSFILL
1000
Grayscale
1000
Grayscale
1070
   100
1002
}
  0
LINE
  5
149A6
  8
YODOROGO
 10
28257.604341291921
 20
1795.7494964292871
 30
0.0
 11
28257.604341291921
 21
1867.7494964292871
 31
0.0
1001
AUTOCAD_POSTSCRIPT_FIGURE
1002
{
1000
PSFILL
1000
Grayscale
1000
Grayscale
1070
   100
1002
}
  0
LINE
  5
149A7
  8
YODOROGO
 10
28257.604341291921
 20
2027.749496429288
 30
0.0
 11
28257.604341291921
 21
1959.749496429288
 31
0.0
1001
AUTOCAD_POSTSCRIPT_FIGURE
1002
{
1000
PSFILL
1000
Grayscale
1000
Grayscale
1070
   100
1002
}
  0
LINE
  5
149A8
  8
YODOROGO
 10
28080.236320206739
 20
1939.749496429288
 30
0.0
 11
28129.60434129191
 21
1747.749496429286
 31
0.0
1001
AUTOCAD_POSTSCRIPT_FIGURE
1002
{
1000
PSFILL
1000
Grayscale
1000
Grayscale
1070
   100
1002
}
  0
LINE
  5
149A9
  8
YODOROGO
 10
27977.604341291921
 20
1939.749496429288
 30
0.0
 11
28080.236320206739
 21
1939.749496429288
 31
0.0
1001
AUTOCAD_POSTSCRIPT_FIGURE
1002
{
1000
PSFILL
1000
Grayscale
1000
Grayscale
1070
   100
1002
}
  0
LINE
  5
149AA
  8
YODOROGO
 10
27977.604341291921
 20
1955.7494964292871
 30
0.0
 11
27977.604341291921
 21
1939.749496429288
 31
0.0
1001
AUTOCAD_POSTSCRIPT_FIGURE
1002
{
1000
PSFILL
1000
Grayscale
1000
Grayscale
1070
   100
1002
}
  0
LINE
  5
149AB
  8
YODOROGO
 10
28076.60687851991
 20
1955.7494964292871
 30
0.0
 11
27977.604341291921
 21
1955.7494964292871
 31
0.0
1001
AUTOCAD_POSTSCRIPT_FIGURE
1002
{
1000
PSFILL
1000
Grayscale
1000
Grayscale
1070
   100
1002
}
  0
LINE
  5
149AC
  8
YODOROGO
 10
28071.162715989711
 20
1979.749496429288
 30
0.0
 11
28076.60687851991
 21
1955.7494964292871
 31
0.0
1001
AUTOCAD_POSTSCRIPT_FIGURE
1002
{
1000
PSFILL
1000
Grayscale
1000
Grayscale
1070
   100
1002
}
  0
LINE
  5
149AD
  8
YODOROGO
 10
28091.162715989711
 20
1979.749496429288
 30
0.0
 11
28071.162715989711
 21
1979.749496429288
 31
0.0
1001
AUTOCAD_POSTSCRIPT_FIGURE
1002
{
1000
PSFILL
1000
Grayscale
1000
Grayscale
1070
   100
1002
}
  0
LINE
  5
149AE
  8
YODOROGO
 10
28095.806878519939
 20
1955.7494964292871
 30
0.0
 11
28091.162715989711
 21
1979.749496429288
 31
0.0
1001
AUTOCAD_POSTSCRIPT_FIGURE
1002
{
1000
PSFILL
1000
Grayscale
1000
Grayscale
1070
   100
1002
}
  0
LINE
  5
149AF
  8
YODOROGO
 10
28121.604341291921
 20
1955.7494964292871
 30
0.0
 11
28095.806878519939
 21
1955.7494964292871
 31
0.0
1001
AUTOCAD_POSTSCRIPT_FIGURE
1002
{
1000
PSFILL
1000
Grayscale
1000
Grayscale
1070
   100
1002
}
  0
LINE
  5
149B0
  8
YODOROGO
 10
28121.604341291921
 20
1979.749496429288
 30
0.0
 11
28121.604341291921
 21
1955.7494964292871
 31
0.0
1001
AUTOCAD_POSTSCRIPT_FIGURE
1002
{
1000
PSFILL
1000
Grayscale
1000
Grayscale
1070
   100
1002
}
  0
LINE
  5
149B1
  8
YODOROGO
 10
28137.604341291921
 20
1979.749496429288
 30
0.0
 11
28121.604341291921
 21
1979.749496429288
 31
0.0
1001
AUTOCAD_POSTSCRIPT_FIGURE
1002
{
1000
PSFILL
1000
Grayscale
1000
Grayscale
1070
   100
1002
}
  0
LINE
  5
149B2
  8
YODOROGO
 10
28137.604341291921
 20
1955.7494964292871
 30
0.0
 11
28137.604341291921
 21
1979.749496429288
 31
0.0
1001
AUTOCAD_POSTSCRIPT_FIGURE
1002
{
1000
PSFILL
1000
Grayscale
1000
Grayscale
1070
   100
1002
}
  0
LINE
  5
149B3
  8
YODOROGO
 10
28137.604341291921
 20
1939.749496429288
 30
0.0
 11
28137.604341291921
 21
1955.7494964292871
 31
0.0
1001
AUTOCAD_POSTSCRIPT_FIGURE
1002
{
1000
PSFILL
1000
Grayscale
1000
Grayscale
1070
   100
1002
}
  0
LINE
  5
149B4
  8
YODOROGO
 10
28098.902986873411
 20
1939.749496429288
 30
0.0
 11
28137.604341291921
 21
1939.749496429288
 31
0.0
1001
AUTOCAD_POSTSCRIPT_FIGURE
1002
{
1000
PSFILL
1000
Grayscale
1000
Grayscale
1070
   100
1002
}
  0
LINE
  5
149B5
  8
YODOROGO
 10
28137.604341291921
 20
1747.749496429286
 30
0.0
 11
28098.902986873411
 21
1939.749496429288
 31
0.0
1001
AUTOCAD_POSTSCRIPT_FIGURE
1002
{
1000
PSFILL
1000
Grayscale
1000
Grayscale
1070
   100
1002
}
  0
LINE
  5
149B6
  8
YODOROGO
 10
28129.60434129191
 20
1747.749496429286
 30
0.0
 11
28137.604341291921
 21
1747.749496429286
 31
0.0
1001
AUTOCAD_POSTSCRIPT_FIGURE
1002
{
1000
PSFILL
1000
Grayscale
1000
Grayscale
1070
   100
1002
}
  0
LINE
  5
149B7
  8
YODOROGO
 10
28078.06921993379
 20
1775.7407762987939
 30
0.0
 11
27977.604341291921
 21
1747.749496429286
 31
0.0
  0
LINE
  5
149B8
  8
YODOROGO
 10
28078.06921993379
 20
1798.6689795290731
 30
0.0
 11
28078.06921993379
 21
1775.7407762987939
 31
0.0
  0
LINE
  5
149B9
  8
YODOROGO
 10
28033.83678061287
 20
1786.816933133767
 30
0.0
 11
28078.06921993379
 21
1798.6689795290731
 31
0.0
  0
LINE
  5
149BA
  8
YODOROGO
 10
28033.83678061287
 20
1872.5683489362989
 30
0.0
 11
28033.83678061287
 21
1786.816933133767
 31
0.0
  0
LINE
  5
149BB
  8
YODOROGO
 10
28078.06921993379
 20
1872.5683489362989
 30
0.0
 11
28033.83678061287
 21
1872.5683489362989
 31
0.0
  0
LINE
  5
149BC
  8
YODOROGO
 10
28078.06921993379
 20
1892.568348936298
 30
0.0
 11
28078.06921993379
 21
1872.5683489362989
 31
0.0
  0
LINE
  5
149BD
  8
YODOROGO
 10
27977.604341291921
 20
1892.568348936298
 30
0.0
 11
28078.06921993379
 21
1892.568348936298
 31
0.0
  0
LINE
  5
149BE
  8
YODOROGO
 10
27977.604341291921
 20
1872.5683489362989
 30
0.0
 11
27977.604341291921
 21
1892.568348936298
 31
0.0
  0
LINE
  5
149BF
  8
YODOROGO
 10
28021.836780612852
 20
1872.5683489362989
 30
0.0
 11
27977.604341291921
 21
1872.5683489362989
 31
0.0
  0
LINE
  5
149C0
  8
YODOROGO
 10
28021.836780612852
 20
1784.673339594317
 30
0.0
 11
28021.836780612852
 21
1872.5683489362989
 31
0.0
  0
LINE
  5
149C1
  8
YODOROGO
 10
27977.604341291921
 20
1771.749496429286
 30
0.0
 11
28021.836780612852
 21
1784.673339594317
 31
0.0
  0
LINE
  5
149C2
  8
YODOROGO
 10
27977.604341291921
 20
1747.749496429286
 30
0.0
 11
27977.604341291921
 21
1771.749496429286
 31
0.0
  0
LINE
  5
149C3
  8
YODOROGO
 10
28001.604341291921
 20
1707.749496429288
 30
0.0
 11
28001.604341291921
 21
1683.7494964292871
 31
0.0
  0
LINE
  5
149C4
  8
YODOROGO
 10
28017.604341291921
 20
1707.749496429288
 30
0.0
 11
28001.604341291921
 21
1707.749496429288
 31
0.0
  0
LINE
  5
149C5
  8
YODOROGO
 10
28017.604341291921
 20
1683.7494964292871
 30
0.0
 11
28017.604341291921
 21
1707.749496429288
 31
0.0
  0
LINE
  5
149C6
  8
YODOROGO
 10
28040.913204016892
 20
1683.7494964292871
 30
0.0
 11
28017.604341291921
 21
1683.7494964292871
 31
0.0
  0
LINE
  5
149C7
  8
YODOROGO
 10
28001.604341291921
 20
1683.7494964292871
 30
0.0
 11
27977.604341291921
 21
1683.7494964292871
 31
0.0
  0
LINE
  5
149C8
  8
YODOROGO
 10
28082.135520230921
 20
1707.749496429288
 30
0.0
 11
28098.135520230931
 21
1707.749496429288
 31
0.0
1001
AUTOCAD_POSTSCRIPT_FIGURE
1002
{
1000
PSFILL
1000
Grayscale
1000
Grayscale
1070
   100
1002
}
  0
LINE
  5
149C9
  8
YODOROGO
 10
28401.60434129191
 20
1824.877625640306
 30
0.0
 11
28401.60434129191
 21
1752.877625640306
 31
0.0
1001
AUTOCAD_POSTSCRIPT_FIGURE
1002
{
1000
PSFILL
1000
Grayscale
1000
Grayscale
1070
   100
1002
}
  0
LINE
  5
149CA
  8
YODOROGO
 10
28401.60434129191
 20
1916.8776256403071
 30
0.0
 11
28401.60434129191
 21
1984.877625640306
 31
0.0
1001
AUTOCAD_POSTSCRIPT_FIGURE
1002
{
1000
PSFILL
1000
Grayscale
1000
Grayscale
1070
   100
1002
}
  0
LINE
  5
149CB
  8
YODOROGO
 10
28433.60434129191
 20
1819.7494964292871
 30
0.0
 11
28433.60434129191
 21
1747.74949642929
 31
0.0
  0
LINE
  5
149CC
  8
YODOROGO
 10
28497.60434129191
 20
1707.749496429288
 30
0.0
 11
28433.60434129191
 21
1707.749496429288
 31
0.0
  0
LINE
  5
149CD
  8
YODOROGO
 10
28433.60434129191
 20
1747.74949642929
 30
0.0
 11
28585.604341291921
 21
1747.74949642929
 31
0.0
  0
LINE
  5
149CE
  8
YODOROGO
 10
28497.60434129191
 20
1867.7494964292871
 30
0.0
 11
28433.60434129191
 21
1867.7494964292871
 31
0.0
  0
LINE
  5
149CF
  8
YODOROGO
 10
28497.60434129191
 20
1923.7494964292871
 30
0.0
 11
28497.60434129191
 21
1867.7494964292871
 31
0.0
  0
LINE
  5
149D0
  8
YODOROGO
 10
28585.604341291921
 20
1987.7494964292871
 30
0.0
 11
28585.604341291921
 21
2027.749496429288
 31
0.0
  0
LINE
  5
149D1
  8
YODOROGO
 10
28433.60434129191
 20
1987.7494964292871
 30
0.0
 11
28585.604341291921
 21
1987.7494964292871
 31
0.0
  0
LINE
  5
149D2
  8
YODOROGO
 10
28433.60434129191
 20
1867.7494964292871
 30
0.0
 11
28433.60434129191
 21
1987.7494964292871
 31
0.0
  0
LINE
  5
149D3
  8
YODOROGO
 10
29001.60434129191
 20
2027.749496429288
 30
0.0
 11
29001.60434129191
 21
1619.749496429288
 31
0.0
  0
LINE
  5
149D4
  8
YODOROGO
 10
29073.604341291921
 20
1579.749496429288
 30
0.0
 11
29073.604341291921
 21
2027.749496429288
 31
0.0
  0
LINE
  5
149D5
  8
YODOROGO
 10
29261.604341291921
 20
1491.749496429286
 30
0.0
 11
29261.604341291921
 21
2007.749496429288
 31
0.0
  0
LINE
  5
149D6
  8
YODOROGO
 10
29197.604341291921
 20
2007.749496429288
 30
0.0
 11
29197.604341291921
 21
1491.749496429286
 31
0.0
  0
LINE
  5
149D7
  8
YODOROGO
 10
29385.604341291921
 20
2027.749496429288
 30
0.0
 11
29385.604341291921
 21
1427.749496429288
 31
0.0
  0
LINE
  5
149D8
  8
YODOROGO
 10
29457.604341291921
 20
1427.749496429288
 30
0.0
 11
29457.604341291921
 21
2027.749496429288
 31
0.0
  0
LINE
  5
149D9
  8
YODOROGO
 10
28657.604341291921
 20
1667.749496429288
 30
0.0
 11
28657.604341291921
 21
1747.74949642929
 31
0.0
  0
LINE
  5
149DA
  8
YODOROGO
 10
29885.604341291921
 20
1707.749496429288
 30
0.0
 11
29885.604341291921
 21
1667.749496429288
 31
0.0
  0
LINE
  5
149DB
  8
YODOROGO
 10
29885.604341291921
 20
1707.749496429288
 30
0.0
 11
29885.604341291921
 21
1667.749496429288
 31
0.0
  0
ARC
  5
149DC
  8
YODOROGO
 10
28906.911576186842
 20
1618.217864442272
 30
0.0
 40
94.705151178741644
 50
274.05244162907098
 51
0.9266642149310712
  0
ARC
  5
149DD
  8
YODOROGO
 10
28909.186170719819
 20
1592.61072861044
 30
0.0
 40
164.92042356085511
 50
271.5351210653775
 51
355.52727750585052
  0
LINE
  5
149DE
  8
YODOROGO
 10
28913.604341291921
 20
1523.7494964292871
 30
0.0
 11
28913.604341291921
 21
1427.749496429288
 31
0.0
  0
LINE
  5
149DF
  8
YODOROGO
 10
28793.60434129191
 20
1667.749496429288
 30
0.0
 11
28657.604341291921
 21
1667.749496429288
 31
0.0
  0
LINE
  5
149E0
  8
YODOROGO
 10
28793.60434129191
 20
1603.7494964292871
 30
0.0
 11
28793.60434129191
 21
1667.749496429288
 31
0.0
  0
LINE
  5
149E1
  8
YODOROGO
 10
28657.604341291921
 20
1603.7494964292871
 30
0.0
 11
28793.60434129191
 21
1603.7494964292871
 31
0.0
  0
LINE
  5
149E2
  8
YODOROGO
 10
28657.604341291921
 20
1523.7494964292871
 30
0.0
 11
28657.604341291921
 21
1603.7494964292871
 31
0.0
  0
LINE
  5
149E3
  8
YODOROGO
 10
28793.60434129191
 20
1523.7494964292871
 30
0.0
 11
28657.604341291921
 21
1523.7494964292871
 31
0.0
  0
LINE
  5
149E4
  8
YODOROGO
 10
28793.60434129191
 20
1427.749496429288
 30
0.0
 11
28793.60434129191
 21
1523.7494964292871
 31
0.0
  0
LINE
  5
149E5
  8
YODOROGO
 10
29197.604341291921
 20
1491.749496429286
 30
0.0
 11
29261.604341291921
 21
1491.749496429286
 31
0.0
  0
LINE
  5
149E6
  8
YODOROGO
 10
29385.604341291921
 20
1427.749496429288
 30
0.0
 11
29457.604341291921
 21
1427.749496429288
 31
0.0
  0
LINE
  5
149E7
  8
YODOROGO
 10
29737.604341291921
 20
1528.4414521705639
 30
0.0
 11
29737.604341291921
 21
1427.749496429288
 31
0.0
  0
LINE
  5
149E8
  8
YODOROGO
 10
29617.604341291921
 20
1427.749496429288
 30
0.0
 11
29737.604341291921
 21
1528.4414521705639
 31
0.0
  0
LINE
  5
149E9
  8
YODOROGO
 10
29617.604341291921
 20
1547.749496429288
 30
0.0
 11
29617.604341291921
 21
1427.749496429288
 31
0.0
  0
LINE
  5
149EA
  8
YODOROGO
 10
29712.94462869945
 20
1627.749496429288
 30
0.0
 11
29617.604341291921
 21
1547.749496429288
 31
0.0
  0
LINE
  5
149EB
  8
YODOROGO
 10
29617.604341291921
 20
1627.749496429288
 30
0.0
 11
29712.94462869945
 21
1627.749496429288
 31
0.0
  0
LINE
  5
149EC
  8
YODOROGO
 10
29617.604341291921
 20
1667.749496429288
 30
0.0
 11
29617.604341291921
 21
1627.749496429288
 31
0.0
  0
LINE
  5
149ED
  8
YODOROGO
 10
29885.604341291921
 20
1667.749496429288
 30
0.0
 11
29617.604341291921
 21
1667.749496429288
 31
0.0
  0
LINE
  5
149EE
  8
YODOROGO
 10
29917.604341291921
 20
1627.749496429288
 30
0.0
 11
29777.604341291921
 21
1627.749496429288
 31
0.0
  0
LINE
  5
149EF
  8
YODOROGO
 10
29777.604341291921
 20
1562.0054374176559
 30
0.0
 11
29771.409872985321
 21
1556.807661346234
 31
0.0
  0
LINE
  5
149F0
  8
YODOROGO
 10
29777.604341291921
 20
1627.749496429288
 30
0.0
 11
29777.604341291921
 21
1562.0054374176559
 31
0.0
  0
LINE
  5
149F1
  8
YODOROGO
 10
29737.604341291921
 20
1528.4414521705639
 30
0.0
 11
29737.604341291921
 21
1427.749496429288
 31
0.0
  0
LINE
  5
149F2
  8
YODOROGO
 10
29617.604341291921
 20
1427.749496429288
 30
0.0
 11
29737.604341291921
 21
1528.4414521705639
 31
0.0
  0
LINE
  5
149F3
  8
YODOROGO
 10
29617.604341291921
 20
1547.749496429288
 30
0.0
 11
29617.604341291921
 21
1427.749496429288
 31
0.0
  0
LINE
  5
149F4
  8
YODOROGO
 10
29712.94462869945
 20
1627.749496429288
 30
0.0
 11
29617.604341291921
 21
1547.749496429288
 31
0.0
  0
LINE
  5
149F5
  8
YODOROGO
 10
29617.604341291921
 20
1627.749496429288
 30
0.0
 11
29712.94462869945
 21
1627.749496429288
 31
0.0
  0
LINE
  5
149F6
  8
YODOROGO
 10
29617.604341291921
 20
1667.749496429288
 30
0.0
 11
29617.604341291921
 21
1627.749496429288
 31
0.0
  0
LINE
  5
149F7
  8
YODOROGO
 10
29885.604341291921
 20
1667.749496429288
 30
0.0
 11
29617.604341291921
 21
1667.749496429288
 31
0.0
  0
LINE
  5
149F8
  8
YODOROGO
 10
28793.60434129191
 20
1747.74949642929
 30
0.0
 11
28793.60434129191
 21
1819.7494964292871
 31
0.0
  0
LINE
  5
149F9
  8
YODOROGO
 10
28657.604341291921
 20
1747.74949642929
 30
0.0
 11
28793.60434129191
 21
1747.74949642929
 31
0.0
  0
LINE
  5
149FA
  8
YODOROGO
 10
28729.604341291921
 20
1867.7494964292871
 30
0.0
 11
28729.604341291921
 21
1923.7494964292871
 31
0.0
  0
LINE
  5
149FB
  8
YODOROGO
 10
28793.60434129191
 20
1867.7494964292871
 30
0.0
 11
28729.604341291921
 21
1867.7494964292871
 31
0.0
  0
LINE
  5
149FC
  8
YODOROGO
 10
28793.60434129191
 20
1947.749496429288
 30
0.0
 11
28793.60434129191
 21
1867.7494964292871
 31
0.0
  0
ARC
  5
149FD
  8
YODOROGO
 10
28753.60434129191
 20
1947.749496429288
 30
0.0
 40
40.0
 50
0.0
 51
90.0
  0
LINE
  5
149FE
  8
YODOROGO
 10
28657.604341291921
 20
1987.7494964292871
 30
0.0
 11
28753.60434129191
 21
1987.7494964292871
 31
0.0
  0
LINE
  5
149FF
  8
YODOROGO
 10
28657.604341291921
 20
2027.749496429288
 30
0.0
 11
28657.604341291921
 21
1987.7494964292871
 31
0.0
  0
LINE
  5
14A00
  8
YODOROGO
 10
29073.604341291921
 20
2027.749496429288
 30
0.0
 11
29001.60434129191
 21
2027.749496429288
 31
0.0
  0
LINE
  5
14A01
  8
YODOROGO
 10
29261.604341291921
 20
2007.749496429288
 30
0.0
 11
29197.604341291921
 21
2007.749496429288
 31
0.0
  0
LINE
  5
14A02
  8
YODOROGO
 10
29457.604341291921
 20
2027.749496429288
 30
0.0
 11
29385.604341291921
 21
2027.749496429288
 31
0.0
  0
LINE
  5
14A03
  8
YODOROGO
 10
29673.604341291921
 20
1707.749496429288
 30
0.0
 11
29673.604341291921
 21
1771.7494964292871
 31
0.0
1001
AUTOCAD_POSTSCRIPT_FIGURE
1002
{
1000
PSFILL
1000
Grayscale
1000
Grayscale
1070
    25
1002
}
  0
LINE
  5
14A04
  8
YODOROGO
 10
29617.604341291921
 20
1707.749496429288
 30
0.0
 11
29673.604341291921
 21
1707.749496429288
 31
0.0
1001
AUTOCAD_POSTSCRIPT_FIGURE
1002
{
1000
PSFILL
1000
Grayscale
1000
Grayscale
1070
    25
1002
}
  0
LINE
  5
14A05
  8
YODOROGO
 10
29617.604341291921
 20
1819.7494964292871
 30
0.0
 11
29617.604341291921
 21
1707.749496429288
 31
0.0
1001
AUTOCAD_POSTSCRIPT_FIGURE
1002
{
1000
PSFILL
1000
Grayscale
1000
Grayscale
1070
    25
1002
}
  0
LINE
  5
14A06
  8
YODOROGO
 10
29765.604341291921
 20
1819.7494964292871
 30
0.0
 11
29617.604341291921
 21
1819.7494964292871
 31
0.0
1001
AUTOCAD_POSTSCRIPT_FIGURE
1002
{
1000
PSFILL
1000
Grayscale
1000
Grayscale
1070
    25
1002
}
  0
LINE
  5
14A07
  8
YODOROGO
 10
29765.604341291921
 20
1859.749496429288
 30
0.0
 11
29765.604341291921
 21
1819.7494964292871
 31
0.0
1001
AUTOCAD_POSTSCRIPT_FIGURE
1002
{
1000
PSFILL
1000
Grayscale
1000
Grayscale
1070
    25
1002
}
  0
LINE
  5
14A08
  8
YODOROGO
 10
29617.604341291921
 20
1859.749496429288
 30
0.0
 11
29765.604341291921
 21
1859.749496429288
 31
0.0
1001
AUTOCAD_POSTSCRIPT_FIGURE
1002
{
1000
PSFILL
1000
Grayscale
1000
Grayscale
1070
    25
1002
}
  0
LINE
  5
14A09
  8
YODOROGO
 10
29617.604341291921
 20
1907.7494964292871
 30
0.0
 11
29617.604341291921
 21
1859.749496429288
 31
0.0
1001
AUTOCAD_POSTSCRIPT_FIGURE
1002
{
1000
PSFILL
1000
Grayscale
1000
Grayscale
1070
    25
1002
}
  0
LINE
  5
14A0A
  8
YODOROGO
 10
29765.604341291921
 20
1907.7494964292871
 30
0.0
 11
29617.604341291921
 21
1907.7494964292871
 31
0.0
1001
AUTOCAD_POSTSCRIPT_FIGURE
1002
{
1000
PSFILL
1000
Grayscale
1000
Grayscale
1070
    25
1002
}
  0
LINE
  5
14A0B
  8
YODOROGO
 10
29765.604341291921
 20
1947.749496429288
 30
0.0
 11
29765.604341291921
 21
1907.7494964292871
 31
0.0
1001
AUTOCAD_POSTSCRIPT_FIGURE
1002
{
1000
PSFILL
1000
Grayscale
1000
Grayscale
1070
    25
1002
}
  0
LINE
  5
14A0C
  8
YODOROGO
 10
29617.604341291921
 20
1947.749496429288
 30
0.0
 11
29765.604341291921
 21
1947.749496429288
 31
0.0
1001
AUTOCAD_POSTSCRIPT_FIGURE
1002
{
1000
PSFILL
1000
Grayscale
1000
Grayscale
1070
    25
1002
}
  0
LINE
  5
14A0D
  8
YODOROGO
 10
29617.604341291921
 20
2027.749496429288
 30
0.0
 11
29617.604341291921
 21
1947.749496429288
 31
0.0
1001
AUTOCAD_POSTSCRIPT_FIGURE
1002
{
1000
PSFILL
1000
Grayscale
1000
Grayscale
1070
    25
1002
}
  0
LINE
  5
14A0E
  8
YODOROGO
 10
29665.604341291921
 20
2027.749496429288
 30
0.0
 11
29617.604341291921
 21
2027.749496429288
 31
0.0
1001
AUTOCAD_POSTSCRIPT_FIGURE
1002
{
1000
PSFILL
1000
Grayscale
1000
Grayscale
1070
    25
1002
}
  0
LINE
  5
14A0F
  8
YODOROGO
 10
29665.604341291921
 20
1995.7494964292871
 30
0.0
 11
29665.604341291921
 21
2027.749496429288
 31
0.0
1001
AUTOCAD_POSTSCRIPT_FIGURE
1002
{
1000
PSFILL
1000
Grayscale
1000
Grayscale
1070
    25
1002
}
  0
LINE
  5
14A10
  8
YODOROGO
 10
29765.604341291921
 20
1995.7494964292871
 30
0.0
 11
29665.604341291921
 21
1995.7494964292871
 31
0.0
1001
AUTOCAD_POSTSCRIPT_FIGURE
1002
{
1000
PSFILL
1000
Grayscale
1000
Grayscale
1070
    25
1002
}
  0
LINE
  5
14A11
  8
YODOROGO
 10
29765.604341291921
 20
2027.749496429288
 30
0.0
 11
29765.604341291921
 21
1995.7494964292871
 31
0.0
1001
AUTOCAD_POSTSCRIPT_FIGURE
1002
{
1000
PSFILL
1000
Grayscale
1000
Grayscale
1070
    25
1002
}
  0
LINE
  5
14A12
  8
YODOROGO
 10
29829.604341291921
 20
2027.749496429288
 30
0.0
 11
29765.604341291921
 21
2027.749496429288
 31
0.0
1001
AUTOCAD_POSTSCRIPT_FIGURE
1002
{
1000
PSFILL
1000
Grayscale
1000
Grayscale
1070
    25
1002
}
  0
LINE
  5
14A13
  8
YODOROGO
 10
29829.604341291921
 20
1995.7494964292871
 30
0.0
 11
29829.604341291921
 21
2027.749496429288
 31
0.0
1001
AUTOCAD_POSTSCRIPT_FIGURE
1002
{
1000
PSFILL
1000
Grayscale
1000
Grayscale
1070
    25
1002
}
  0
LINE
  5
14A14
  8
YODOROGO
 10
29829.604341291921
 20
1907.7494964292871
 30
0.0
 11
29829.604341291921
 21
1947.749496429288
 31
0.0
1001
AUTOCAD_POSTSCRIPT_FIGURE
1002
{
1000
PSFILL
1000
Grayscale
1000
Grayscale
1070
    25
1002
}
  0
LINE
  5
14A15
  8
YODOROGO
 10
29829.604341291921
 20
1819.7494964292871
 30
0.0
 11
29829.604341291921
 21
1859.749496429288
 31
0.0
1001
AUTOCAD_POSTSCRIPT_FIGURE
1002
{
1000
PSFILL
1000
Grayscale
1000
Grayscale
1070
    25
1002
}
  0
LINE
  5
14A16
  8
YODOROGO
 10
29921.60434129191
 20
1771.7494964292871
 30
0.0
 11
29921.60434129191
 21
1707.749496429288
 31
0.0
1001
AUTOCAD_POSTSCRIPT_FIGURE
1002
{
1000
PSFILL
1000
Grayscale
1000
Grayscale
1070
    25
1002
}
  0
LINE
  5
14A17
  8
YODOROGO
 10
29829.604341291921
 20
1771.7494964292871
 30
0.0
 11
29921.60434129191
 21
1771.7494964292871
 31
0.0
1001
AUTOCAD_POSTSCRIPT_FIGURE
1002
{
1000
PSFILL
1000
Grayscale
1000
Grayscale
1070
    25
1002
}
  0
LINE
  5
14A18
  8
YODOROGO
 10
29829.604341291921
 20
1707.749496429288
 30
0.0
 11
29829.604341291921
 21
1771.7494964292871
 31
0.0
1001
AUTOCAD_POSTSCRIPT_FIGURE
1002
{
1000
PSFILL
1000
Grayscale
1000
Grayscale
1070
    25
1002
}
  0
LINE
  5
14A19
  8
YODOROGO
 10
29765.604341291921
 20
1707.749496429288
 30
0.0
 11
29829.604341291921
 21
1707.749496429288
 31
0.0
1001
AUTOCAD_POSTSCRIPT_FIGURE
1002
{
1000
PSFILL
1000
Grayscale
1000
Grayscale
1070
    25
1002
}
  0
LINE
  5
14A1A
  8
YODOROGO
 10
29765.604341291921
 20
1771.7494964292871
 30
0.0
 11
29765.604341291921
 21
1707.749496429288
 31
0.0
1001
AUTOCAD_POSTSCRIPT_FIGURE
1002
{
1000
PSFILL
1000
Grayscale
1000
Grayscale
1070
    25
1002
}
  0
LINE
  5
14A1B
  8
YODOROGO
 10
29673.604341291921
 20
1771.7494964292871
 30
0.0
 11
29765.604341291921
 21
1771.7494964292871
 31
0.0
1001
AUTOCAD_POSTSCRIPT_FIGURE
1002
{
1000
PSFILL
1000
Grayscale
1000
Grayscale
1070
    25
1002
}
  0
ARC
  5
14A1C
  8
YODOROGO
 10
31059.517893357912
 20
1602.6807375155761
 30
0.0
 40
178.22128111072141
 50
281.02627495425338
 51
357.77113575573799
  0
LINE
  5
14A1D
  8
YODOROGO
 10
31413.604341291921
 20
1907.7494964292871
 30
0.0
 11
31165.604341291921
 21
1907.7494964292871
 31
0.0
  0
LINE
  5
14A1E
  8
YODOROGO
 10
31413.604341291921
 20
2027.749496429288
 30
0.0
 11
31165.604341291921
 21
2027.749496429288
 31
0.0
  0
LINE
  5
14A1F
  8
YODOROGO
 10
31165.604341291921
 20
1963.749496429286
 30
0.0
 11
31413.604341291921
 21
1963.749496429286
 31
0.0
  0
LINE
  5
14A20
  8
YODOROGO
 10
30791.604341291921
 20
1563.7494964292871
 30
0.0
 11
30791.604341291921
 21
1755.7494964292871
 31
0.0
  0
LINE
  5
14A21
  8
YODOROGO
 10
30763.604341291921
 20
1691.749496429288
 30
0.0
 11
30763.604341291921
 21
1563.7494964292871
 31
0.0
  0
LINE
  5
14A22
  8
YODOROGO
 10
30723.604341291921
 20
1491.749496429288
 30
0.0
 11
30723.604341291921
 21
1691.749496429288
 31
0.0
  0
LINE
  5
14A23
  8
YODOROGO
 10
30899.604341291932
 20
1691.749496429288
 30
0.0
 11
30899.604341291932
 21
1491.749496429288
 31
0.0
  0
LINE
  5
14A24
  8
YODOROGO
 10
30859.604341291932
 20
1563.7494964292871
 30
0.0
 11
30859.604341291932
 21
1691.749496429288
 31
0.0
  0
LINE
  5
14A25
  8
YODOROGO
 10
30831.604341291921
 20
1755.7494964292871
 30
0.0
 11
30831.604341291921
 21
1563.7494964292871
 31
0.0
  0
LINE
  5
14A26
  8
YODOROGO
 10
30973.604341291921
 20
2027.749496429288
 30
0.0
 11
30973.604341291921
 21
1467.749496429288
 31
0.0
  0
LINE
  5
14A27
  8
YODOROGO
 10
30645.604341291921
 20
1427.749496429288
 30
0.0
 11
30645.604341291921
 21
2027.749496429288
 31
0.0
  0
LINE
  5
14A28
  8
YODOROGO
 10
30697.604341291932
 20
1963.749496429286
 30
0.0
 11
30697.604341291932
 21
1427.749496429288
 31
0.0
  0
LINE
  5
14A29
  8
YODOROGO
 10
30925.604341291921
 20
1547.749496429288
 30
0.0
 11
30925.604341291921
 21
1963.749496429286
 31
0.0
  0
LINE
  5
14A2A
  8
YODOROGO
 10
30381.604341291932
 20
1627.749496429288
 30
0.0
 11
30381.604341291932
 21
1679.749496429288
 31
0.0
  0
LINE
  5
14A2B
  8
YODOROGO
 10
30617.604341291921
 20
1679.749496429288
 30
0.0
 11
30617.604341291921
 21
1627.749496429288
 31
0.0
  0
LINE
  5
14A2C
  8
YODOROGO
 10
31165.604341291921
 20
1907.7494964292871
 30
0.0
 11
31165.604341291921
 21
1635.7494964292871
 31
0.0
  0
LINE
  5
14A2D
  8
YODOROGO
 10
29949.60434129191
 20
1667.749496429288
 30
0.0
 11
29949.60434129191
 21
1707.749496429288
 31
0.0
  0
LINE
  5
14A2E
  8
YODOROGO
 10
29949.60434129191
 20
1667.749496429288
 30
0.0
 11
29949.60434129191
 21
1707.749496429288
 31
0.0
  0
ARC
  5
14A2F
  8
YODOROGO
 10
30537.604341291921
 20
1507.749496429288
 30
0.0
 40
80.0
 50
270.0
 51
0.0
  0
LINE
  5
14A30
  8
YODOROGO
 10
30569.604341291921
 20
1599.7494964292871
 30
0.0
 11
30617.604341291921
 21
1599.7494964292871
 31
0.0
  0
LINE
  5
14A31
  8
YODOROGO
 10
30617.604341291921
 20
1627.749496429288
 30
0.0
 11
30529.604341291939
 21
1627.749496429288
 31
0.0
  0
LINE
  5
14A32
  8
YODOROGO
 10
30217.604341291921
 20
1667.749496429288
 30
0.0
 11
29949.60434129191
 21
1667.749496429288
 31
0.0
  0
LINE
  5
14A33
  8
YODOROGO
 10
30217.604341291921
 20
1627.749496429288
 30
0.0
 11
30217.604341291921
 21
1667.749496429288
 31
0.0
  0
LINE
  5
14A34
  8
YODOROGO
 10
30017.604341291921
 20
1627.749496429288
 30
0.0
 11
30217.604341291921
 21
1627.749496429288
 31
0.0
  0
ARC
  5
14A35
  8
YODOROGO
 10
30230.05882870136
 20
1868.885714952901
 30
0.0
 40
321.37763628522822
 50
228.6181454618993
 51
245.660289248906
  0
LINE
  5
14A36
  8
YODOROGO
 10
30105.604341291921
 20
1603.7494964292871
 30
0.0
 11
30097.60434129195
 21
1576.0728158699001
 31
0.0
  0
LINE
  5
14A37
  8
YODOROGO
 10
30189.604341291921
 20
1603.7494964292871
 30
0.0
 11
30105.604341291921
 21
1603.7494964292871
 31
0.0
  0
LINE
  5
14A38
  8
YODOROGO
 10
30177.604341291921
 20
1551.817722473427
 30
0.0
 11
30189.604341291921
 21
1603.7494964292871
 31
0.0
  0
ARC
  5
14A39
  8
YODOROGO
 10
30230.05882870045
 20
1868.885714953002
 30
0.0
 40
321.37763628529081
 50
260.60629297969911
 51
267.77903556555862
  0
LINE
  5
14A3A
  8
YODOROGO
 10
30217.604341291921
 20
1427.749496429285
 30
0.0
 11
30217.604341291921
 21
1547.749496429288
 31
0.0
  0
LINE
  5
14A3B
  8
YODOROGO
 10
29937.604341291932
 20
1481.3393349155101
 30
0.0
 11
29937.604341291921
 21
1594.531090531141
 31
0.0
  0
LINE
  5
14A3C
  8
YODOROGO
 10
30217.604341291921
 20
1667.749496429288
 30
0.0
 11
29949.60434129191
 21
1667.749496429288
 31
0.0
  0
LINE
  5
14A3D
  8
YODOROGO
 10
30217.604341291921
 20
1627.749496429288
 30
0.0
 11
30217.604341291921
 21
1667.749496429288
 31
0.0
  0
LINE
  5
14A3E
  8
YODOROGO
 10
30017.604341291921
 20
1627.749496429288
 30
0.0
 11
30217.604341291921
 21
1627.749496429288
 31
0.0
  0
ARC
  5
14A3F
  8
YODOROGO
 10
30230.05882870136
 20
1868.885714952901
 30
0.0
 40
321.37763628522822
 50
228.6181454618993
 51
245.660289248906
  0
LINE
  5
14A40
  8
YODOROGO
 10
30105.604341291921
 20
1603.7494964292871
 30
0.0
 11
30097.60434129195
 21
1576.0728158699001
 31
0.0
  0
LINE
  5
14A41
  8
YODOROGO
 10
30189.604341291921
 20
1603.7494964292871
 30
0.0
 11
30105.604341291921
 21
1603.7494964292871
 31
0.0
  0
LINE
  5
14A42
  8
YODOROGO
 10
30177.604341291921
 20
1551.817722473427
 30
0.0
 11
30189.604341291921
 21
1603.7494964292871
 31
0.0
  0
ARC
  5
14A43
  8
YODOROGO
 10
30230.05882870045
 20
1868.885714953002
 30
0.0
 40
321.37763628529081
 50
260.60629297969911
 51
267.77903556555862
  0
LINE
  5
14A44
  8
YODOROGO
 10
30217.604341291921
 20
1427.749496429285
 30
0.0
 11
30217.604341291921
 21
1547.749496429288
 31
0.0
  0
LINE
  5
14A45
  8
YODOROGO
 10
29937.604341291932
 20
1481.3393349155101
 30
0.0
 11
29937.604341291921
 21
1594.531090531141
 31
0.0
  0
LINE
  5
14A46
  8
YODOROGO
 10
30433.604341291921
 20
1573.749496429288
 30
0.0
 11
30381.604341291932
 21
1573.749496429288
 31
0.0
  0
LINE
  5
14A47
  8
YODOROGO
 10
30433.604341291921
 20
1601.749496429285
 30
0.0
 11
30433.604341291921
 21
1573.749496429288
 31
0.0
  0
LINE
  5
14A48
  8
YODOROGO
 10
30381.604341291932
 20
1601.749496429285
 30
0.0
 11
30433.604341291921
 21
1601.749496429285
 31
0.0
  0
LINE
  5
14A49
  8
YODOROGO
 10
30381.604341291932
 20
1573.749496429288
 30
0.0
 11
30381.604341291932
 21
1601.749496429285
 31
0.0
  0
LINE
  5
14A4A
  8
YODOROGO
 10
30429.604341291921
 20
1577.7494964292871
 30
0.0
 11
30385.604341291921
 21
1577.7494964292871
 31
0.0
  0
LINE
  5
14A4B
  8
YODOROGO
 10
30429.604341291921
 20
1597.749496429288
 30
0.0
 11
30429.604341291921
 21
1577.7494964292871
 31
0.0
  0
LINE
  5
14A4C
  8
YODOROGO
 10
30385.604341291921
 20
1597.749496429288
 30
0.0
 11
30429.604341291921
 21
1597.749496429288
 31
0.0
  0
LINE
  5
14A4D
  8
YODOROGO
 10
30385.604341291921
 20
1577.7494964292871
 30
0.0
 11
30385.604341291921
 21
1597.749496429288
 31
0.0
  0
LINE
  5
14A4E
  8
YODOROGO
 10
30425.604341291921
 20
1581.749496429286
 30
0.0
 11
30389.604341291921
 21
1581.749496429286
 31
0.0
  0
LINE
  5
14A4F
  8
YODOROGO
 10
30425.604341291921
 20
1593.749496429288
 30
0.0
 11
30425.604341291921
 21
1581.749496429286
 31
0.0
  0
LINE
  5
14A50
  8
YODOROGO
 10
30389.604341291921
 20
1593.749496429288
 30
0.0
 11
30425.604341291921
 21
1593.749496429288
 31
0.0
  0
LINE
  5
14A51
  8
YODOROGO
 10
30389.604341291921
 20
1581.749496429286
 30
0.0
 11
30389.604341291921
 21
1593.749496429288
 31
0.0
  0
LINE
  5
14A52
  8
YODOROGO
 10
30421.604341291932
 20
1585.7494964292871
 30
0.0
 11
30393.604341291921
 21
1585.7494964292871
 31
0.0
  0
LINE
  5
14A53
  8
YODOROGO
 10
30421.604341291932
 20
1589.749496429288
 30
0.0
 11
30421.604341291932
 21
1585.7494964292871
 31
0.0
  0
LINE
  5
14A54
  8
YODOROGO
 10
30393.604341291921
 20
1589.749496429288
 30
0.0
 11
30421.604341291932
 21
1589.749496429288
 31
0.0
  0
LINE
  5
14A55
  8
YODOROGO
 10
30393.604341291921
 20
1585.7494964292871
 30
0.0
 11
30393.604341291921
 21
1589.749496429288
 31
0.0
  0
LINE
  5
14A56
  8
YODOROGO
 10
30465.604341291921
 20
1627.749496429288
 30
0.0
 11
30381.604341291932
 21
1627.749496429288
 31
0.0
  0
LINE
  5
14A57
  8
YODOROGO
 10
30465.604341291921
 20
1547.749496429288
 30
0.0
 11
30465.604341291921
 21
1627.749496429288
 31
0.0
  0
LINE
  5
14A58
  8
YODOROGO
 10
30381.604341291932
 20
1547.749496429288
 30
0.0
 11
30465.604341291921
 21
1547.749496429288
 31
0.0
  0
LINE
  5
14A59
  8
YODOROGO
 10
30381.604341291932
 20
1427.749496429288
 30
0.0
 11
30381.604341291932
 21
1547.749496429288
 31
0.0
  0
LINE
  5
14A5A
  8
YODOROGO
 10
30537.604341291921
 20
1427.749496429288
 30
0.0
 11
30381.604341291932
 21
1427.749496429288
 31
0.0
  0
LINE
  5
14A5B
  8
YODOROGO
 10
30569.604341291921
 20
1571.749496429285
 30
0.0
 11
30569.604341291921
 21
1599.7494964292871
 31
0.0
  0
ARC
  5
14A5C
  8
YODOROGO
 10
30545.604341291921
 20
1571.749496429291
 30
0.0
 40
24.000000000003752
 50
270.0
 51
359.99999999998772
  0
LINE
  5
14A5D
  8
YODOROGO
 10
30529.604341291939
 20
1547.749496429288
 30
0.0
 11
30545.604341291921
 21
1547.749496429288
 31
0.0
  0
LINE
  5
14A5E
  8
YODOROGO
 10
30529.604341291939
 20
1627.749496429288
 30
0.0
 11
30529.604341291939
 21
1547.749496429288
 31
0.0
  0
LINE
  5
14A5F
  8
YODOROGO
 10
30899.604341291932
 20
1547.749496429288
 30
0.0
 11
30925.604341291921
 21
1547.749496429288
 31
0.0
  0
LINE
  5
14A60
  8
YODOROGO
 10
30933.604341291921
 20
1427.749496429288
 30
0.0
 11
30899.604341291932
 21
1427.749496429288
 31
0.0
  0
LINE
  5
14A61
  8
YODOROGO
 10
30763.604341291921
 20
1563.7494964292871
 30
0.0
 11
30791.604341291921
 21
1563.7494964292871
 31
0.0
  0
LINE
  5
14A62
  8
YODOROGO
 10
30899.604341291932
 20
1491.749496429288
 30
0.0
 11
30723.604341291921
 21
1491.749496429288
 31
0.0
  0
LINE
  5
14A63
  8
YODOROGO
 10
30831.604341291921
 20
1563.7494964292871
 30
0.0
 11
30859.604341291932
 21
1563.7494964292871
 31
0.0
  0
LINE
  5
14A64
  8
YODOROGO
 10
30899.604341291932
 20
1427.749496429288
 30
0.0
 11
30899.604341291932
 21
1547.749496429288
 31
0.0
  0
LINE
  5
14A65
  8
YODOROGO
 10
30697.604341291932
 20
1427.749496429288
 30
0.0
 11
30645.604341291921
 21
1427.749496429288
 31
0.0
  0
LINE
  5
14A66
  8
YODOROGO
 10
30617.604341291921
 20
1599.7494964292871
 30
0.0
 11
30617.604341291921
 21
1507.749496429288
 31
0.0
  0
ARC
  5
14A67
  8
YODOROGO
 10
30933.604341291921
 20
1467.749496429288
 30
0.0
 40
40.0
 50
270.0
 51
0.0
  0
LINE
  5
14A68
  8
YODOROGO
 10
31093.604341291921
 20
1523.7494964292871
 30
0.0
 11
31093.604341291921
 21
1427.749496429288
 31
0.0
  0
ARC
  5
14A69
  8
YODOROGO
 10
31039.721395566768
 20
1637.5313901097329
 30
0.0
 40
125.8955565916754
 50
295.34052442160112
 51
359.18902303418679
  0
LINE
  5
14A6A
  8
YODOROGO
 10
30617.604341291921
 20
1859.749496429288
 30
0.0
 11
30497.604341291921
 21
1939.749496429288
 31
0.0
  0
LINE
  5
14A6B
  8
YODOROGO
 10
30497.604341291921
 20
2027.749496429288
 30
0.0
 11
30617.604341291921
 21
1947.749496429288
 31
0.0
  0
LINE
  5
14A6C
  8
YODOROGO
 10
30529.604341291939
 20
1679.749496429288
 30
0.0
 11
30617.604341291921
 21
1679.749496429288
 31
0.0
  0
LINE
  5
14A6D
  8
YODOROGO
 10
30617.604341291921
 20
1735.7494964292871
 30
0.0
 11
30529.604341291939
 21
1735.7494964292871
 31
0.0
  0
LINE
  5
14A6E
  8
YODOROGO
 10
30381.604341291932
 20
1795.7494964292871
 30
0.0
 11
30617.604341291921
 21
1795.7494964292871
 31
0.0
  0
LINE
  5
14A6F
  8
YODOROGO
 10
30081.604341291921
 20
2027.749496429288
 30
0.0
 11
30021.604341291921
 21
2027.749496429288
 31
0.0
  0
LINE
  5
14A70
  8
YODOROGO
 10
30081.604341291921
 20
1827.7494964292871
 30
0.0
 11
30081.604341291921
 21
2027.749496429288
 31
0.0
  0
LINE
  5
14A71
  8
YODOROGO
 10
30021.604341291921
 20
1827.7494964292871
 30
0.0
 11
30081.604341291921
 21
1827.7494964292871
 31
0.0
  0
LINE
  5
14A72
  8
YODOROGO
 10
30021.604341291921
 20
2027.749496429288
 30
0.0
 11
30021.604341291921
 21
1827.7494964292871
 31
0.0
  0
LINE
  5
14A73
  8
YODOROGO
 10
30161.604341291921
 20
2027.749496429288
 30
0.0
 11
30217.604341291921
 21
2027.749496429288
 31
0.0
  0
LINE
  5
14A74
  8
YODOROGO
 10
30161.604341291921
 20
1811.749496429288
 30
0.0
 11
30161.604341291921
 21
2027.749496429288
 31
0.0
  0
ARC
  5
14A75
  8
YODOROGO
 10
30121.604341291921
 20
1811.749496429288
 30
0.0
 40
40.0
 50
270.0
 51
0.0
  0
LINE
  5
14A76
  8
YODOROGO
 10
30021.604341291921
 20
1771.7494964292871
 30
0.0
 11
30121.604341291921
 21
1771.7494964292871
 31
0.0
  0
LINE
  5
14A77
  8
YODOROGO
 10
30021.604341291921
 20
1707.749496429288
 30
0.0
 11
30021.604341291921
 21
1771.7494964292871
 31
0.0
  0
LINE
  5
14A78
  8
YODOROGO
 10
30137.604341291921
 20
1707.749496429288
 30
0.0
 11
30021.604341291921
 21
1707.749496429288
 31
0.0
  0
ARC
  5
14A79
  8
YODOROGO
 10
30137.604341291921
 20
1787.7494964292871
 30
0.0
 40
80.0
 50
270.0
 51
0.0
  0
LINE
  5
14A7A
  8
YODOROGO
 10
30217.604341291921
 20
2027.749496429288
 30
0.0
 11
30217.604341291921
 21
1787.7494964292871
 31
0.0
  0
LINE
  5
14A7B
  8
YODOROGO
 10
29977.604341291921
 20
1947.749496429288
 30
0.0
 11
29977.604341291921
 21
1995.7494964292871
 31
0.0
1001
AUTOCAD_POSTSCRIPT_FIGURE
1002
{
1000
PSFILL
1000
Grayscale
1000
Grayscale
1070
    25
1002
}
  0
LINE
  5
14A7C
  8
YODOROGO
 10
29977.604341291921
 20
1859.749496429288
 30
0.0
 11
29977.604341291921
 21
1907.7494964292871
 31
0.0
1001
AUTOCAD_POSTSCRIPT_FIGURE
1002
{
1000
PSFILL
1000
Grayscale
1000
Grayscale
1070
    25
1002
}
  0
LINE
  5
14A7D
  8
YODOROGO
 10
29977.604341291921
 20
1707.749496429288
 30
0.0
 11
29977.604341291921
 21
1819.7494964292871
 31
0.0
1001
AUTOCAD_POSTSCRIPT_FIGURE
1002
{
1000
PSFILL
1000
Grayscale
1000
Grayscale
1070
    25
1002
}
  0
LINE
  5
14A7E
  8
YODOROGO
 10
30381.604341291932
 20
1907.7494964292871
 30
0.0
 11
30497.604341291921
 21
2027.749496429288
 31
0.0
  0
LINE
  5
14A7F
  8
YODOROGO
 10
30381.604341291932
 20
1819.7494964292871
 30
0.0
 11
30381.604341291932
 21
1907.7494964292871
 31
0.0
  0
LINE
  5
14A80
  8
YODOROGO
 10
30497.604341291921
 20
1939.749496429288
 30
0.0
 11
30381.604341291932
 21
1819.7494964292871
 31
0.0
  0
LINE
  5
14A81
  8
YODOROGO
 10
30465.604341291921
 20
1679.749496429288
 30
0.0
 11
30465.604341291921
 21
1735.7494964292871
 31
0.0
  0
LINE
  5
14A82
  8
YODOROGO
 10
30381.604341291932
 20
1679.749496429288
 30
0.0
 11
30465.604341291921
 21
1679.749496429288
 31
0.0
  0
LINE
  5
14A83
  8
YODOROGO
 10
30529.604341291939
 20
1735.7494964292871
 30
0.0
 11
30529.604341291939
 21
1679.749496429288
 31
0.0
  0
LINE
  5
14A84
  8
YODOROGO
 10
30381.604341291932
 20
1735.7494964292871
 30
0.0
 11
30381.604341291932
 21
1795.7494964292871
 31
0.0
  0
LINE
  5
14A85
  8
YODOROGO
 10
30465.604341291921
 20
1735.7494964292871
 30
0.0
 11
30381.604341291932
 21
1735.7494964292871
 31
0.0
  0
LINE
  5
14A86
  8
YODOROGO
 10
30645.604341291921
 20
2027.749496429288
 30
0.0
 11
30973.604341291921
 21
2027.749496429288
 31
0.0
  0
LINE
  5
14A87
  8
YODOROGO
 10
30925.604341291921
 20
1963.749496429286
 30
0.0
 11
30697.604341291932
 21
1963.749496429286
 31
0.0
  0
LINE
  5
14A88
  8
YODOROGO
 10
30873.604341291921
 20
1819.7494964292871
 30
0.0
 11
30899.604341291932
 21
1819.7494964292871
 31
0.0
  0
LINE
  5
14A89
  8
YODOROGO
 10
30899.604341291932
 20
1939.749496429288
 30
0.0
 11
30873.604341291921
 21
1819.7494964292871
 31
0.0
  0
LINE
  5
14A8A
  8
YODOROGO
 10
30851.604341291939
 20
1939.749496429288
 30
0.0
 11
30899.604341291932
 21
1939.749496429288
 31
0.0
  0
LINE
  5
14A8B
  8
YODOROGO
 10
30825.604341291921
 20
1819.7494964292871
 30
0.0
 11
30851.604341291939
 21
1939.749496429288
 31
0.0
  0
LINE
  5
14A8C
  8
YODOROGO
 10
30797.604341291921
 20
1819.7494964292871
 30
0.0
 11
30825.604341291921
 21
1819.7494964292871
 31
0.0
  0
LINE
  5
14A8D
  8
YODOROGO
 10
30771.604341291939
 20
1939.749496429288
 30
0.0
 11
30797.604341291921
 21
1819.7494964292871
 31
0.0
  0
LINE
  5
14A8E
  8
YODOROGO
 10
30723.604341291921
 20
1939.749496429288
 30
0.0
 11
30771.604341291939
 21
1939.749496429288
 31
0.0
  0
LINE
  5
14A8F
  8
YODOROGO
 10
30749.604341291921
 20
1819.7494964292871
 30
0.0
 11
30723.604341291921
 21
1939.749496429288
 31
0.0
  0
LINE
  5
14A90
  8
YODOROGO
 10
30723.604341291921
 20
1819.7494964292871
 30
0.0
 11
30749.604341291921
 21
1819.7494964292871
 31
0.0
  0
LINE
  5
14A91
  8
YODOROGO
 10
30723.604341291921
 20
1755.7494964292871
 30
0.0
 11
30723.604341291921
 21
1819.7494964292871
 31
0.0
  0
LINE
  5
14A92
  8
YODOROGO
 10
30899.604341291932
 20
1755.7494964292871
 30
0.0
 11
30723.604341291921
 21
1755.7494964292871
 31
0.0
  0
LINE
  5
14A93
  8
YODOROGO
 10
30899.604341291932
 20
1819.7494964292871
 30
0.0
 11
30899.604341291932
 21
1755.7494964292871
 31
0.0
  0
LINE
  5
14A94
  8
YODOROGO
 10
30617.604341291921
 20
1947.749496429288
 30
0.0
 11
30617.604341291921
 21
1859.749496429288
 31
0.0
  0
LINE
  5
14A95
  8
YODOROGO
 10
30791.604341291921
 20
1755.7494964292871
 30
0.0
 11
30831.604341291921
 21
1755.7494964292871
 31
0.0
  0
LINE
  5
14A96
  8
YODOROGO
 10
30723.604341291921
 20
1691.749496429288
 30
0.0
 11
30763.604341291921
 21
1691.749496429288
 31
0.0
  0
LINE
  5
14A97
  8
YODOROGO
 10
30859.604341291932
 20
1691.749496429288
 30
0.0
 11
30899.604341291932
 21
1691.749496429288
 31
0.0
  0
LINE
  5
14A98
  8
YODOROGO
 10
30617.604341291921
 20
1795.7494964292871
 30
0.0
 11
30617.604341291921
 21
1735.7494964292871
 31
0.0
  0
LINE
  5
14A99
  8
YODOROGO
 10
31165.604341291921
 20
2027.749496429288
 30
0.0
 11
31165.604341291921
 21
1963.749496429286
 31
0.0
  0
LINE
  5
14A9A
  8
YODOROGO
 10
31533.604341291921
 20
1595.7494964292871
 30
0.0
 11
31533.60434129191
 21
1811.749496429288
 31
0.0
  0
LINE
  5
14A9B
  8
YODOROGO
 10
31461.60434129191
 20
1987.7494964292871
 30
0.0
 11
31461.60434129191
 21
1635.7494964292871
 31
0.0
  0
LINE
  5
14A9C
  8
YODOROGO
 10
31653.604341291921
 20
1427.749496429288
 30
0.0
 11
31653.60434129191
 21
1811.749496429288
 31
0.0
  0
LINE
  5
14A9D
  8
YODOROGO
 10
31589.604341291921
 20
1811.749496429288
 30
0.0
 11
31589.604341291921
 21
1427.749496429288
 31
0.0
  0
LINE
  5
14A9E
  8
YODOROGO
 10
31237.604341291921
 20
1595.7494964292871
 30
0.0
 11
31237.604341291921
 21
1707.749496429288
 31
0.0
  0
ARC
  5
14A9F
  8
YODOROGO
 10
31353.914865116069
 20
1607.790351288558
 30
0.0
 40
180.0924485759885
 50
268.62849102169793
 51
356.16638457330322
  0
LINE
  5
14AA0
  8
YODOROGO
 10
31349.604341291939
 20
1527.749496429288
 30
0.0
 11
31349.604341291939
 21
1427.749496429288
 31
0.0
  0
ARC
  5
14AA1
  8
YODOROGO
 10
31351.518075724562
 20
1637.838957017655
 30
0.0
 40
110.1060929836122
 50
269.00410209305932
 51
358.91264455492478
  0
LINE
  5
14AA2
  8
YODOROGO
 10
31589.604341291921
 20
1427.749496429288
 30
0.0
 11
31653.604341291921
 21
1427.749496429288
 31
0.0
  0
LINE
  5
14AA3
  8
YODOROGO
 10
31533.60434129191
 20
1811.749496429288
 30
0.0
 11
31589.604341291921
 21
1811.749496429288
 31
0.0
  0
LINE
  5
14AA4
  8
YODOROGO
 10
31621.604341291939
 20
1987.7494964292871
 30
0.0
 11
31461.60434129191
 21
1987.7494964292871
 31
0.0
  0
LINE
  5
14AA5
  8
YODOROGO
 10
31533.60434129191
 20
1915.7494964292871
 30
0.0
 11
31661.604341291939
 21
1915.7494964292871
 31
0.0
  0
LINE
  5
14AA6
  8
YODOROGO
 10
31701.604341291939
 20
1875.7494964292871
 30
0.0
 11
31533.60434129191
 21
1875.7494964292871
 31
0.0
  0
LINE
  5
14AA7
  8
YODOROGO
 10
31237.604341291921
 20
1779.749496429288
 30
0.0
 11
31349.604341291939
 21
1779.749496429288
 31
0.0
  0
LINE
  5
14AA8
  8
YODOROGO
 10
31237.604341291921
 20
1835.7494964292871
 30
0.0
 11
31237.604341291921
 21
1779.749496429288
 31
0.0
  0
LINE
  5
14AA9
  8
YODOROGO
 10
31349.604341291939
 20
1835.7494964292871
 30
0.0
 11
31237.604341291921
 21
1835.7494964292871
 31
0.0
  0
LINE
  5
14AAA
  8
YODOROGO
 10
31349.604341291939
 20
1779.749496429288
 30
0.0
 11
31349.604341291939
 21
1835.7494964292871
 31
0.0
  0
LINE
  5
14AAB
  8
YODOROGO
 10
31533.60434129191
 20
1875.7494964292871
 30
0.0
 11
31533.60434129191
 21
1915.7494964292871
 31
0.0
  0
LINE
  5
14AAC
  8
YODOROGO
 10
31413.604341291921
 20
1707.749496429288
 30
0.0
 11
31413.604341291921
 21
1907.7494964292871
 31
0.0
  0
LINE
  5
14AAD
  8
YODOROGO
 10
31237.604341291921
 20
1707.749496429288
 30
0.0
 11
31413.604341291921
 21
1707.749496429288
 31
0.0
  0
LINE
  5
14AAE
  8
YODOROGO
 10
31413.604341291921
 20
1963.749496429286
 30
0.0
 11
31413.604341291921
 21
2027.749496429288
 31
0.0
  0
ARC
  5
14AAF
  8
YODOROGO
 10
31621.604341291939
 20
2003.749496429285
 30
0.0
 40
15.999999999994539
 50
270.0
 51
0.0000000000081422
  0
LINE
  5
14AB0
  8
YODOROGO
 10
31637.604341291921
 20
2027.749496429288
 30
0.0
 11
31637.604341291921
 21
2003.7494964292871
 31
0.0
  0
LINE
  5
14AB1
  8
YODOROGO
 10
31701.604341291939
 20
2027.749496429288
 30
0.0
 11
31637.604341291921
 21
2027.749496429288
 31
0.0
  0
LINE
  5
14AB2
  8
YODOROGO
 10
31701.604341291939
 20
1955.7494964292871
 30
0.0
 11
31701.604341291939
 21
2027.749496429288
 31
0.0
  0
ARC
  5
14AB3
  8
YODOROGO
 10
31661.604341291939
 20
1955.7494964292871
 30
0.0
 40
40.0
 50
270.0
 51
0.0
  0
LINE
  5
14AB4
  8
YODOROGO
 10
31701.604341291939
 20
1811.749496429288
 30
0.0
 11
31701.604341291939
 21
1875.7494964292871
 31
0.0
  0
LINE
  5
14AB5
  8
YODOROGO
 10
31653.60434129191
 20
1811.749496429288
 30
0.0
 11
31701.604341291939
 21
1811.749496429288
 31
0.0
  0
LINE
  5
14AB6
  8
0-6
  6
CONTINUOUS
 62
     6
 10
7865.3712235186458
 20
19114.51522062123
 30
0.0
 11
7940.0909685892766
 21
19258.48721499995
 31
0.0
  0
LINE
  5
14AB7
  8
0-6
  6
CONTINUOUS
 62
     6
 10
7940.0909685892766
 20
19258.48721499995
 30
0.0
 11
7822.7149256056218
 21
19146.53022532248
 31
0.0
  0
LINE
  5
14AB8
  8
0-6
  6
CONTINUOUS
 62
     6
 10
7822.7149256056218
 20
19146.53022532248
 30
0.0
 11
7865.3712235186458
 21
19114.51522062123
 31
0.0
  0
LINE
  5
14AB9
  8
0-6
  6
CONTINUOUS
 62
     6
 10
7865.3712235186458
 20
16582.555537548149
 30
0.0
 11
7940.0909685892766
 21
16726.52753192688
 31
0.0
  0
LINE
  5
14ABA
  8
0-6
  6
CONTINUOUS
 62
     6
 10
7940.0909685892766
 20
16726.52753192688
 30
0.0
 11
7822.7149256056218
 21
16614.57054224941
 31
0.0
  0
LINE
  5
14ABB
  8
0-6
  6
CONTINUOUS
 62
     6
 10
7822.7149256056218
 20
16614.57054224941
 30
0.0
 11
7865.3712235186458
 21
16582.555537548149
 31
0.0
  0
LINE
  5
14ABC
  8
0-6
  6
CONTINUOUS
 62
     6
 10
7985.7059520910489
 20
13631.51436362122
 30
0.0
 11
8060.4256971616787
 21
13775.48635799994
 31
0.0
  0
LINE
  5
14ABD
  8
0-6
  6
CONTINUOUS
 62
     6
 10
8060.4256971616787
 20
13775.48635799994
 30
0.0
 11
7943.049654178023
 21
13663.529368322481
 31
0.0
  0
LINE
  5
14ABE
  8
0-6
  6
CONTINUOUS
 62
     6
 10
7943.049654178023
 20
13663.529368322481
 30
0.0
 11
7985.7059520910489
 21
13631.51436362122
 31
0.0
  0
LINE
  5
14ABF
  8
SUNPOU
  6
CONTINUOUS
 62
     4
 10
14844.720021282659
 20
13619.48643699999
 30
0.0
 11
15691.719797282651
 21
13619.48643699999
 31
0.0
  0
LINE
  5
14AC0
  8
SUNPOU
  6
CONTINUOUS
 62
     4
 10
15611.719797282651
 20
13811.985710999999
 30
0.0
 11
15611.719797282651
 21
13619.48643699999
 31
0.0
  0
LINE
  5
14AC1
  8
SUNPOU
  6
CONTINUOUS
 62
     4
 10
15611.719797282651
 20
16729.985711000001
 30
0.0
 11
15611.719797282651
 21
13811.985710999999
 31
0.0
  0
LINE
  5
14AC2
  8
SUNPOU
  6
CONTINUOUS
 62
     4
 10
15611.719797282651
 20
19297.485711000001
 30
0.0
 11
15611.719797282651
 21
16729.985711000001
 31
0.0
  0
LINE
  5
14AC3
  8
SUNPOU
  6
CONTINUOUS
 62
     4
 10
15531.719797282651
 20
19297.485711000001
 30
0.0
 11
15571.719797282651
 21
19297.485711000001
 31
0.0
  0
LINE
  5
14AC4
  8
SUNPOU
  6
CONTINUOUS
 62
     4
 10
14839.720747282659
 20
19519.985579
 30
0.0
 11
15651.719797282651
 21
19519.985579
 31
0.0
  0
LINE
  5
14AC5
  8
SUNPOU
  6
CONTINUOUS
 62
     4
 10
15611.719797282651
 20
19297.485711000001
 30
0.0
 11
15611.719797282651
 21
19519.985579
 31
0.0
  0
LINE
  5
14AC6
  8
SUNPOU
  6
CONTINUOUS
 62
     4
 10
14771.221485282669
 20
19509.98900999999
 30
0.0
 11
15291.720456282639
 21
19509.98900999999
 31
0.0
  0
LINE
  5
14AC7
  8
SUNPOU
  6
CONTINUOUS
 62
     4
 10
14839.720747282659
 20
19519.985579
 30
0.0
 11
15291.720456282639
 21
19519.985579
 31
0.0
  0
LINE
  5
14AC8
  8
SUNPOU
  6
CONTINUOUS
 62
     4
 10
15211.720456282639
 20
19509.98900999999
 30
0.0
 11
15211.720456282639
 21
19269.98900999999
 31
0.0
  0
LINE
  5
14AC9
  8
SUNPOU
  6
CONTINUOUS
 62
     4
 10
15211.720456282639
 20
19519.985579
 30
0.0
 11
15211.720456282639
 21
19759.985579
 31
0.0
  0
LINE
  5
14ACA
  8
SUNPOU
  6
CONTINUOUS
 62
     4
 10
15211.720456282639
 20
19509.98900999999
 30
0.0
 11
15211.720456282639
 21
19519.985579
 31
0.0
  0
LINE
  5
14ACB
  8
SUNPOU
  6
CONTINUOUS
 62
     4
 10
6764.2200212826647
 20
20144.987624000001
 30
0.0
 11
6764.2200212826647
 21
20219.986634999979
 31
0.0
  0
LINE
  5
14ACC
  8
SUNPOU
  6
CONTINUOUS
 62
     4
 10
6678.7200212826629
 20
19594.987293999991
 30
0.0
 11
6678.7200212826629
 21
20219.986634999979
 31
0.0
  0
LINE
  5
14ACD
  8
SUNPOU
  6
CONTINUOUS
 62
     4
 10
6764.2200212826647
 20
20139.986634999979
 30
0.0
 11
7004.2200212826638
 21
20139.986634999979
 31
0.0
  0
LINE
  5
14ACE
  8
SUNPOU
  6
CONTINUOUS
 62
     4
 10
6681.7200212826629
 20
20139.986634999979
 30
0.0
 11
6441.7200212826638
 21
20139.986634999979
 31
0.0
  0
LINE
  5
14ACF
  8
SUNPOU
  6
CONTINUOUS
 62
     4
 10
6764.2200212826647
 20
20139.986634999979
 30
0.0
 11
6681.7200212826629
 21
20139.986634999979
 31
0.0
  0
LINE
  5
14AD0
  8
SUNPOU
  6
CONTINUOUS
 62
     4
 10
11764.220021282659
 20
20144.987624000001
 30
0.0
 11
11764.220021282659
 21
20219.986634999979
 31
0.0
  0
LINE
  5
14AD1
  8
SUNPOU
  6
CONTINUOUS
 62
     4
 10
6764.2200212826647
 20
20144.987624000001
 30
0.0
 11
6764.2200212826647
 21
20219.986634999979
 31
0.0
  0
LINE
  5
14AD2
  8
SUNPOU
  6
CONTINUOUS
 62
     4
 10
11764.220021282659
 20
20139.986634999979
 30
0.0
 11
6764.2200212826647
 21
20139.986634999979
 31
0.0
  0
LINE
  5
14AD3
  8
SUNPOU
  6
CONTINUOUS
 62
     4
 10
14682.220021282659
 20
19669.987293999991
 30
0.0
 11
14682.220021282659
 21
20219.986634999979
 31
0.0
  0
LINE
  5
14AD4
  8
SUNPOU
  6
CONTINUOUS
 62
     4
 10
11764.220021282659
 20
20144.987624000001
 30
0.0
 11
11764.220021282659
 21
20219.986634999979
 31
0.0
  0
LINE
  5
14AD5
  8
SUNPOU
  6
CONTINUOUS
 62
     4
 10
14682.220021282659
 20
20139.986634999979
 30
0.0
 11
11764.220021282659
 21
20139.986634999979
 31
0.0
  0
LINE
  5
14AD6
  8
SUNPOU
  6
CONTINUOUS
 62
     4
 10
14682.220021282659
 20
19669.987293999991
 30
0.0
 11
14682.220021282659
 21
20219.986634999979
 31
0.0
  0
LINE
  5
14AD7
  8
SUNPOU
  6
CONTINUOUS
 62
     4
 10
14767.71939138979
 20
19590.048504249578
 30
0.0
 11
14767.71939138979
 21
20220.048108249561
 31
0.0
  0
LINE
  5
14AD8
  8
SUNPOU
  6
CONTINUOUS
 62
     4
 10
14682.220021282659
 20
20139.986634999979
 30
0.0
 11
14442.220021282659
 21
20139.986634999979
 31
0.0
  0
LINE
  5
14AD9
  8
SUNPOU
  6
CONTINUOUS
 62
     4
 10
14764.720021282659
 20
20139.986634999979
 30
0.0
 11
15004.720021282659
 21
20139.986634999979
 31
0.0
  0
LINE
  5
14ADA
  8
SUNPOU
  6
CONTINUOUS
 62
     4
 10
14682.220021282659
 20
20139.986634999979
 30
0.0
 11
14764.720021282659
 21
20139.986634999979
 31
0.0
  0
LINE
  5
14ADB
  8
SUNPOU
  6
CONTINUOUS
 62
     4
 10
14767.720021282659
 20
13539.48643699999
 30
0.0
 11
14767.720021282659
 21
12249.48564499999
 31
0.0
  0
LINE
  5
14ADC
  8
SUNPOU
  6
CONTINUOUS
 62
     4
 10
6678.7200212826629
 20
13539.48643699999
 30
0.0
 11
6678.7200212826629
 21
12249.48564499999
 31
0.0
  0
LINE
  5
14ADD
  8
SUNPOU
  6
CONTINUOUS
 62
     4
 10
14764.720021282659
 20
12329.48564499999
 30
0.0
 11
6681.7200212826629
 21
12329.48564499999
 31
0.0
  0
LINE
  5
14ADE
  8
0-6
  6
CONTINUOUS
 62
     6
 10
8626.3793404796452
 20
15586.32152246877
 30
0.0
 11
8506.524613573114
 21
15695.652619424
 31
0.0
  0
LINE
  5
14ADF
  8
0-6
  6
CONTINUOUS
 62
     6
 10
8506.524613573114
 20
15695.652619424
 30
0.0
 11
8584.4500116099043
 21
15553.363910581451
 31
0.0
  0
LINE
  5
14AE0
  8
0-6
  6
CONTINUOUS
 62
     6
 10
8584.4500116099043
 20
15553.363910581451
 30
0.0
 11
8626.3793404796452
 21
15586.32152246877
 31
0.0
  0
LINE
  5
14AE1
  8
0-6
  6
CONTINUOUS
 62
     6
 10
12724.0873007888
 20
16944.10254427827
 30
0.0
 11
12692.447654420041
 21
16784.988192000001
 31
0.0
  0
LINE
  5
14AE2
  8
0-6
  6
CONTINUOUS
 62
     6
 10
12692.447654420041
 20
16784.988192000001
 30
0.0
 11
12773.973780322411
 21
16925.24486784335
 31
0.0
  0
LINE
  5
14AE3
  8
0-6
  6
CONTINUOUS
 62
     6
 10
12773.973780322411
 20
16925.24486784335
 30
0.0
 11
12724.0873007888
 21
16944.10254427827
 31
0.0
  0
LINE
  5
14AE4
  8
0-6
  6
CONTINUOUS
 62
     6
 10
6590.6821887502392
 20
14947.702675703889
 30
0.0
 11
6717.6414778917706
 21
15048.659668376409
 31
0.0
  0
LINE
  5
14AE5
  8
0-6
  6
CONTINUOUS
 62
     6
 10
6717.6414778917706
 20
15048.659668376409
 30
0.0
 11
6630.2872820970997
 21
14911.98213737295
 31
0.0
  0
LINE
  5
14AE6
  8
0-6
  6
CONTINUOUS
 62
     6
 10
6630.2872820970997
 20
14911.98213737295
 30
0.0
 11
6590.6821887502392
 21
14947.702675703889
 31
0.0
  0
LINE
  5
14AE7
  8
0-6
  6
CONTINUOUS
 62
     6
 10
20499.898656649919
 20
19102.390205253349
 30
0.0
 11
20393.570632701962
 21
19224.886437000001
 31
0.0
  0
LINE
  5
14AE8
  8
0-6
  6
CONTINUOUS
 62
     6
 10
20393.570632701962
 20
19224.886437000001
 30
0.0
 11
20454.422752295199
 21
19074.52513032455
 31
0.0
  0
LINE
  5
14AE9
  8
0-6
  6
CONTINUOUS
 62
     6
 10
20454.422752295199
 20
19074.52513032455
 30
0.0
 11
20499.898656649919
 21
19102.390205253349
 31
0.0
  0
LINE
  5
14AEA
  8
0-6
  6
CONTINUOUS
 62
     6
 10
20471.714311143951
 20
19518.20376193268
 30
0.0
 11
20402.67063270196
 21
19371.42520104588
 31
0.0
  0
LINE
  5
14AEB
  8
0-6
  6
CONTINUOUS
 62
     6
 10
20402.67063270196
 20
19371.42520104588
 30
0.0
 11
20515.587632881099
 21
19487.87799867084
 31
0.0
  0
LINE
  5
14AEC
  8
0-6
  6
CONTINUOUS
 62
     6
 10
20515.587632881099
 20
19487.87799867084
 30
0.0
 11
20471.714311143951
 21
19518.20376193268
 31
0.0
  0
LINE
  5
14AED
  8
0-6
  6
CONTINUOUS
 62
     6
 10
20499.898656649919
 20
16935.08277374665
 30
0.0
 11
20393.570632701962
 21
16812.586542000001
 31
0.0
  0
LINE
  5
14AEE
  8
0-6
  6
CONTINUOUS
 62
     6
 10
20393.570632701962
 20
16812.586542000001
 30
0.0
 11
20454.422752295199
 21
16962.947848675441
 31
0.0
  0
LINE
  5
14AEF
  8
0-6
  6
CONTINUOUS
 62
     6
 10
20454.422752295199
 20
16962.947848675441
 30
0.0
 11
20499.898656649919
 21
16935.08277374665
 31
0.0
  0
LINE
  5
14AF0
  8
0-6
  6
CONTINUOUS
 62
     6
 10
20499.898656649919
 20
14027.58320974665
 30
0.0
 11
20393.570632701962
 21
13905.086977999999
 31
0.0
  0
LINE
  5
14AF1
  8
0-6
  6
CONTINUOUS
 62
     6
 10
20393.570632701962
 20
13905.086977999999
 30
0.0
 11
20454.422752295199
 21
14055.448284675451
 31
0.0
  0
LINE
  5
14AF2
  8
0-6
  6
CONTINUOUS
 62
     6
 10
20454.422752295199
 20
14055.448284675451
 30
0.0
 11
20499.898656649919
 21
14027.58320974665
 31
0.0
  0
LINE
  5
14AF3
  8
0-6
  6
CONTINUOUS
 62
     6
 10
20471.714311143951
 20
16519.2692170673
 30
0.0
 11
20402.67063270196
 21
16666.047777954122
 31
0.0
  0
LINE
  5
14AF4
  8
0-6
  6
CONTINUOUS
 62
     6
 10
20402.67063270196
 20
16666.047777954122
 30
0.0
 11
20515.587632881099
 21
16549.594980329151
 31
0.0
  0
LINE
  5
14AF5
  8
0-6
  6
CONTINUOUS
 62
     6
 10
20515.587632881099
 20
16549.594980329151
 30
0.0
 11
20471.714311143951
 21
16519.2692170673
 31
0.0
  0
LINE
  5
14AF6
  8
0-6
  6
CONTINUOUS
 62
     6
 10
20471.714311143951
 20
13631.708417113179
 30
0.0
 11
20402.67063270196
 21
13778.486978000001
 31
0.0
  0
LINE
  5
14AF7
  8
0-6
  6
CONTINUOUS
 62
     6
 10
20402.67063270196
 20
13778.486978000001
 30
0.0
 11
20515.587632881099
 21
13662.03418037502
 31
0.0
  0
LINE
  5
14AF8
  8
0-6
  6
CONTINUOUS
 62
     6
 10
20515.587632881099
 20
13662.03418037502
 30
0.0
 11
20471.714311143951
 21
13631.708417113179
 31
0.0
  0
LINE
  5
14B34
  8
SUNPOU
  6
CONTINUOUS
 62
     4
 10
25366.91188601379
 20
20560.487902000001
 30
0.0
 11
20366.911886013801
 21
20560.487902000001
 31
0.0
  0
LINE
  5
14B35
  8
SUNPOU
  6
CONTINUOUS
 62
     4
 10
28284.91188601379
 20
20560.487902000001
 30
0.0
 11
25366.91188601379
 21
20560.487902000001
 31
0.0
  0
LINE
  5
14B36
  8
SUNPOU
  6
CONTINUOUS
 62
     4
 10
20366.911886013801
 20
19684.936751877329
 30
0.0
 11
20366.911886013801
 21
20240.487902000001
 31
0.0
  0
LINE
  5
14B37
  8
SUNPOU
  6
CONTINUOUS
 62
     4
 10
20409.414129013781
 20
19523.837242000001
 30
0.0
 11
20409.414129013781
 21
20240.487902000001
 31
0.0
  0
LINE
  5
14B38
  8
SUNPOU
  6
CONTINUOUS
 62
     4
 10
20366.911886013801
 20
20160.487902000001
 30
0.0
 11
20126.911886013801
 21
20160.487902000001
 31
0.0
  0
LINE
  5
14B39
  8
SUNPOU
  6
CONTINUOUS
 62
     4
 10
20409.414129013781
 20
20160.487902000001
 30
0.0
 11
20649.414129013789
 21
20160.487902000001
 31
0.0
  0
LINE
  5
14B3A
  8
SUNPOU
  6
CONTINUOUS
 62
     4
 10
20366.911886013801
 20
20160.487902000001
 30
0.0
 11
20409.414129013781
 21
20160.487902000001
 31
0.0
  0
LINE
  5
14B3B
  8
SUNPOU
  6
CONTINUOUS
 62
     4
 10
20366.911886013801
 20
19684.936751877329
 30
0.0
 11
20366.911886013801
 21
20240.487902000001
 31
0.0
  0
LINE
  5
14B3C
  8
SUNPOU
  6
CONTINUOUS
 62
     4
 10
20324.413601013799
 20
19520.489484999991
 30
0.0
 11
20324.413601013799
 21
20240.487902000001
 31
0.0
  0
LINE
  5
14B3D
  8
SUNPOU
  6
CONTINUOUS
 62
     4
 10
20366.911886013801
 20
20160.487902000001
 30
0.0
 11
20606.911886013801
 21
20160.487902000001
 31
0.0
  0
LINE
  5
14B3E
  8
SUNPOU
  6
CONTINUOUS
 62
     4
 10
20324.413601013799
 20
20160.487902000001
 30
0.0
 11
20084.413601013799
 21
20160.487902000001
 31
0.0
  0
LINE
  5
14B3F
  8
SUNPOU
  6
CONTINUOUS
 62
     4
 10
20366.911886013801
 20
20160.487902000001
 30
0.0
 11
20324.413601013799
 21
20160.487902000001
 31
0.0
  0
LINE
  5
14B40
  8
SUNPOU
  6
CONTINUOUS
 62
     4
 10
19982.30705006186
 20
16750.486978000001
 30
0.0
 11
19069.06826164516
 21
16750.486978000001
 31
0.0
  0
LINE
  5
14B41
  8
SUNPOU
  6
CONTINUOUS
 62
     4
 10
19982.30705006186
 20
19317.986978000001
 30
0.0
 11
19069.06826164516
 21
19317.986978000001
 31
0.0
  0
LINE
  5
14B42
  8
SUNPOU
  6
CONTINUOUS
 62
     4
 10
19149.06826164516
 20
16750.486978000001
 30
0.0
 11
19149.06826164516
 21
19317.986978000001
 31
0.0
  0
LINE
  5
14B43
  8
SUNPOU
  6
CONTINUOUS
 62
     4
 10
19982.30705006186
 20
13832.48697800001
 30
0.0
 11
19069.06826164516
 21
13832.48697800001
 31
0.0
  0
LINE
  5
14B44
  8
SUNPOU
  6
CONTINUOUS
 62
     4
 10
19982.30705006186
 20
16750.486978000001
 30
0.0
 11
19069.06826164516
 21
16750.486978000001
 31
0.0
  0
LINE
  5
14B45
  8
SUNPOU
  6
CONTINUOUS
 62
     4
 10
19149.06826164516
 20
13832.48697800001
 30
0.0
 11
19149.06826164516
 21
16750.486978000001
 31
0.0
  0
ARC
  5
14B5D
  8
1-前柱P
 10
20357.311886013791
 20
13900.88697800001
 30
0.0
 40
1.0
 50
0.0
 51
90.0
  0
LINE
  5
14B5E
  8
1-前柱P
 10
20358.311886013791
 20
13900.88697800001
 30
0.0
 11
20358.311886013791
 21
13899.286978
 31
0.0
  0
LINE
  5
14B5F
  8
1-前柱P
 10
20358.311886013791
 20
13899.286978
 30
0.0
 11
20369.511886013792
 21
13899.286978
 31
0.0
  0
LINE
  5
14B60
  8
1-前柱P
 10
20369.511886013792
 20
13899.286978
 30
0.0
 11
20369.511886013799
 21
13900.88697800001
 31
0.0
  0
ARC
  5
14B61
  8
1-前柱P
 10
20370.511886013792
 20
13900.88697800001
 30
0.0
 40
1.0
 50
90.0
 51
180.0
  0
ARC
  5
14B62
  8
1-中柱P
 10
20373.511886013792
 20
16818.786978000011
 30
0.0
 40
1.0
 50
90.0
 51
180.0
  0
LINE
  5
14B63
  8
1-中柱P
 10
20372.511886013799
 20
16818.786978000011
 30
0.0
 11
20372.511886013799
 21
16817.186978000002
 31
0.0
  0
LINE
  5
14B64
  8
1-中柱P
 10
20372.511886013799
 20
16817.186978000002
 30
0.0
 11
20361.311886013798
 21
16817.186978000002
 31
0.0
  0
LINE
  5
14B65
  8
1-中柱P
 10
20361.311886013798
 20
16817.186978000002
 30
0.0
 11
20361.311886013798
 21
16818.786978000011
 31
0.0
  0
ARC
  5
14B66
  8
1-中柱P
 10
20360.311886013809
 20
16818.786978000011
 30
0.0
 40
1.0
 50
0.0
 51
90.0
  0
ARC
  5
14B67
  8
1-後柱P
 10
20376.511886013792
 20
19249.936978000002
 30
0.0
 40
1.0
 50
180.0
 51
270.0
  0
LINE
  5
14B68
  8
1-後柱P
 10
20375.511886013792
 20
19249.936978000002
 30
0.0
 11
20375.511886013792
 21
19251.536978
 31
0.0
  0
LINE
  5
14B69
  8
1-後柱P
 10
20375.511886013792
 20
19251.536978
 30
0.0
 11
20364.311886013791
 21
19251.536978
 31
0.0
  0
LINE
  5
14B6A
  8
1-後柱P
 10
20364.311886013791
 20
19251.536978
 30
0.0
 11
20364.311886013791
 21
19249.936978000002
 31
0.0
  0
ARC
  5
14B6B
  8
1-後柱P
 10
20363.311886013791
 20
19249.936978000002
 30
0.0
 40
1.0
 50
270.0
 51
0.0
  0
LINE
  5
14B6C
  8
SUNPOU
  6
CONTINUOUS
 62
     4
 10
28370.411886013819
 20
8669.6883999999955
 30
0.0
 11
28370.411886013819
 21
9869.1329740000037
 31
0.0
  0
LINE
  5
14B6D
  8
SUNPOU
  6
CONTINUOUS
 62
     4
 10
20281.411886013801
 20
8669.6883999999955
 30
0.0
 11
20281.411886013801
 21
9869.1329740000037
 31
0.0
  0
LINE
  5
14B6E
  8
SUNPOU
  6
CONTINUOUS
 62
     4
 10
28367.411886013811
 20
9789.1329740000037
 30
0.0
 11
20284.411886013801
 21
9789.1329740000037
 31
0.0
  0
LINE
  5
14B6F
  8
SUNPOU
  6
CONTINUOUS
 62
     4
 10
20324.411886013801
 20
8669.6883999999955
 30
0.0
 11
20324.411886013801
 21
9469.1900500000029
 31
0.0
  0
LINE
  5
14B70
  8
SUNPOU
  6
CONTINUOUS
 62
     4
 10
20281.411886013801
 20
8669.6883999999955
 30
0.0
 11
20281.411886013801
 21
9469.1900500000029
 31
0.0
  0
LINE
  5
14B71
  8
SUNPOU
  6
CONTINUOUS
 62
     4
 10
20324.411886013801
 20
9389.1900500000029
 30
0.0
 11
20564.411886013801
 21
9389.1900500000029
 31
0.0
  0
LINE
  5
14B72
  8
SUNPOU
  6
CONTINUOUS
 62
     4
 10
20284.411886013801
 20
9389.1900500000029
 30
0.0
 11
20044.411886013801
 21
9389.1900500000029
 31
0.0
  0
LINE
  5
14B73
  8
SUNPOU
  6
CONTINUOUS
 62
     4
 10
20324.411886013801
 20
9389.1900500000029
 30
0.0
 11
20284.411886013801
 21
9389.1900500000029
 31
0.0
  0
LINE
  5
14B74
  8
SUNPOU
  6
CONTINUOUS
 62
     4
 10
28327.411886013819
 20
8539.6884659999996
 30
0.0
 11
28327.411886013819
 21
9469.1900500000029
 31
0.0
  0
LINE
  5
14B75
  8
SUNPOU
  6
CONTINUOUS
 62
     4
 10
28370.411886013819
 20
8669.6883999999955
 30
0.0
 11
28370.411886013819
 21
9469.1900500000029
 31
0.0
  0
LINE
  5
14B76
  8
SUNPOU
  6
CONTINUOUS
 62
     4
 10
28327.411886013819
 20
9389.1900500000029
 30
0.0
 11
28087.411886013811
 21
9389.1900500000029
 31
0.0
  0
LINE
  5
14B77
  8
SUNPOU
  6
CONTINUOUS
 62
     4
 10
28367.411886013811
 20
9389.1900500000029
 30
0.0
 11
28607.411886013801
 21
9389.1900500000029
 31
0.0
  0
LINE
  5
14B78
  8
SUNPOU
  6
CONTINUOUS
 62
     4
 10
28327.411886013819
 20
9389.1900500000029
 30
0.0
 11
28367.411886013811
 21
9389.1900500000029
 31
0.0
  0
LINE
  5
14B79
  8
SUNPOU
  6
CONTINUOUS
 62
     4
 10
25324.411886013801
 20
8539.6884659999996
 30
0.0
 11
25324.411886013801
 21
9469.1900500000029
 31
0.0
  0
LINE
  5
14B7A
  8
SUNPOU
  6
CONTINUOUS
 62
     4
 10
28327.411886013819
 20
8539.6884659999996
 30
0.0
 11
28327.411886013819
 21
9469.1900500000029
 31
0.0
  0
LINE
  5
14B7B
  8
SUNPOU
  6
CONTINUOUS
 62
     4
 10
25324.411886013801
 20
9389.1900500000029
 30
0.0
 11
28327.411886013819
 21
9389.1900500000029
 31
0.0
  0
LINE
  5
14B7C
  8
SUNPOU
  6
CONTINUOUS
 62
     4
 10
28414.914525013792
 20
6241.1883740000021
 30
0.0
 11
29888.641167015729
 21
6241.1883740000021
 31
0.0
  0
LINE
  5
14B7D
  8
SUNPOU
  6
CONTINUOUS
 62
     4
 10
28447.411886013801
 20
8589.6883999999973
 30
0.0
 11
29888.641167015729
 21
8589.6883999999955
 31
0.0
  0
LINE
  5
14B7E
  8
SUNPOU
  6
CONTINUOUS
 62
     4
 10
29808.641167015729
 20
6241.1883740000021
 30
0.0
 11
29808.641167015729
 21
8589.6883999999955
 31
0.0
  0
LINE
  5
14B7F
  8
SUNPOU
  6
CONTINUOUS
 62
     4
 10
28414.914525013792
 20
6241.1883740000021
 30
0.0
 11
29214.915185013811
 21
6241.1883740000021
 31
0.0
  0
LINE
  5
14B80
  8
SUNPOU
  6
CONTINUOUS
 62
     4
 10
28322.415581013789
 20
8132.6883740000021
 30
0.0
 11
29214.915185013811
 21
8132.6883740000021
 31
0.0
  0
LINE
  5
14B81
  8
SUNPOU
  6
CONTINUOUS
 62
     4
 10
29134.915185013801
 20
6241.1883740000021
 30
0.0
 11
29134.915185013801
 21
8132.6883740000021
 31
0.0
  0
LINE
  5
14B82
  8
SUNPOU
  6
CONTINUOUS
 62
     4
 10
25321.411886013801
 20
6161.1883740000021
 30
0.0
 11
25321.411886013801
 21
5261.188374000003
 31
0.0
  0
LINE
  5
14B83
  8
SUNPOU
  6
CONTINUOUS
 62
     4
 10
20409.41188601379
 20
6061.1885389999989
 30
0.0
 11
20409.41188601379
 21
5261.188374000003
 31
0.0
  0
LINE
  5
14B84
  8
SUNPOU
  6
CONTINUOUS
 62
     4
 10
25321.411886013801
 20
5341.188374000003
 30
0.0
 11
20409.41188601379
 21
5341.188374000003
 31
0.0
  0
LINE
  5
14B85
  8
SUNPOU
  6
CONTINUOUS
 62
     4
 10
28327.371933066272
 20
6161.1883740000021
 30
0.0
 11
28327.371933066272
 21
4461.1887040000574
 31
0.0
  0
LINE
  5
14B86
  8
SUNPOU
  6
CONTINUOUS
 62
     4
 10
20324.411886013801
 20
6061.1885389999989
 30
0.0
 11
20324.411886013801
 21
4461.1887040000574
 31
0.0
  0
LINE
  5
14B87
  8
SUNPOU
  6
CONTINUOUS
 62
     4
 10
28327.371933066272
 20
4541.1887040000556
 30
0.0
 11
20324.411886013801
 21
4541.1887040000556
 31
0.0
  0
LINE
  5
14B88
  8
SUNPOU
  6
CONTINUOUS
 62
     4
 10
28284.911886013801
 20
5798.5361160000011
 30
0.0
 11
28284.911886013801
 21
4861.1885389999998
 31
0.0
  0
LINE
  5
14B89
  8
SUNPOU
  6
CONTINUOUS
 62
     4
 10
28327.371933066272
 20
6161.1883740000021
 30
0.0
 11
28327.371933066272
 21
4861.1885389999998
 31
0.0
  0
LINE
  5
14B8A
  8
SUNPOU
  6
CONTINUOUS
 62
     4
 10
28284.911886013801
 20
4941.1885390000016
 30
0.0
 11
28044.911886013801
 21
4941.1885390000016
 31
0.0
  0
LINE
  5
14B8B
  8
SUNPOU
  6
CONTINUOUS
 62
     4
 10
28327.371933066272
 20
4941.1885390000016
 30
0.0
 11
28567.371933066272
 21
4941.1885390000016
 31
0.0
  0
LINE
  5
14B8C
  8
SUNPOU
  6
CONTINUOUS
 62
     4
 10
28284.911886013801
 20
4941.1885390000016
 30
0.0
 11
28327.371933066272
 21
4941.1885390000016
 31
0.0
  0
LINE
  5
14B8D
  8
SUNPOU
  6
CONTINUOUS
 62
     4
 10
25366.911886013801
 20
5798.5361160000011
 30
0.0
 11
25366.911886013801
 21
4861.1885389999998
 31
0.0
  0
LINE
  5
14B8E
  8
SUNPOU
  6
CONTINUOUS
 62
     4
 10
28284.911886013801
 20
5798.5361160000011
 30
0.0
 11
28284.911886013801
 21
4861.1885389999998
 31
0.0
  0
LINE
  5
14B8F
  8
SUNPOU
  6
CONTINUOUS
 62
     4
 10
25366.911886013801
 20
4941.1885390000016
 30
0.0
 11
28284.911886013801
 21
4941.1885390000016
 31
0.0
  0
LINE
  5
14B90
  8
SUNPOU
  6
CONTINUOUS
 62
     4
 10
28190.911886013801
 20
6061.1885389999989
 30
0.0
 11
28190.911886013801
 21
5261.188374000003
 31
0.0
  0
LINE
  5
14B91
  8
SUNPOU
  6
CONTINUOUS
 62
     4
 10
25460.911886013801
 20
6061.1885389999989
 30
0.0
 11
25460.911886013801
 21
5261.188374000003
 31
0.0
  0
LINE
  5
14B92
  8
SUNPOU
  6
CONTINUOUS
 62
     4
 10
28190.911886013801
 20
5341.188374000003
 30
0.0
 11
25460.911886013801
 21
5341.188374000003
 31
0.0
  0
LINE
  5
14B93
  8
SUNPOU
  6
CONTINUOUS
 62
     4
 10
20366.911886013801
 20
5798.5361160000011
 30
0.0
 11
20366.911886013801
 21
4861.1885389999998
 31
0.0
  0
LINE
  5
14B94
  8
SUNPOU
  6
CONTINUOUS
 62
     4
 10
20324.411886013801
 20
6061.1885389999989
 30
0.0
 11
20324.411886013801
 21
4861.1885389999998
 31
0.0
  0
LINE
  5
14B95
  8
SUNPOU
  6
CONTINUOUS
 62
     4
 10
20366.911886013801
 20
4941.1885390000016
 30
0.0
 11
20606.911886013801
 21
4941.1885390000016
 31
0.0
  0
LINE
  5
14B96
  8
SUNPOU
  6
CONTINUOUS
 62
     4
 10
20324.411886013801
 20
4941.1885390000016
 30
0.0
 11
20084.411886013801
 21
4941.1885390000016
 31
0.0
  0
LINE
  5
14B97
  8
SUNPOU
  6
CONTINUOUS
 62
     4
 10
20366.911886013801
 20
4941.1885390000016
 30
0.0
 11
20324.411886013801
 21
4941.1885390000016
 31
0.0
  0
LINE
  5
14B98
  8
SUNPOU
  6
CONTINUOUS
 62
     4
 10
25366.911886013801
 20
5798.5361160000011
 30
0.0
 11
25366.911886013801
 21
4861.1885389999998
 31
0.0
  0
LINE
  5
14B99
  8
SUNPOU
  6
CONTINUOUS
 62
     4
 10
20366.911886013801
 20
5798.5361160000011
 30
0.0
 11
20366.911886013801
 21
4861.1885389999998
 31
0.0
  0
LINE
  5
14B9A
  8
SUNPOU
  6
CONTINUOUS
 62
     4
 10
25366.911886013801
 20
4941.1885390000016
 30
0.0
 11
20366.911886013801
 21
4941.1885390000016
 31
0.0
  0
LINE
  5
14B9B
  8
SUNPOU
  6
CONTINUOUS
 62
     4
 10
25324.411886013801
 20
8539.6884659999996
 30
0.0
 11
25324.411886013801
 21
9469.1900500000029
 31
0.0
  0
LINE
  5
14B9C
  8
SUNPOU
  6
CONTINUOUS
 62
     4
 10
20324.411886013801
 20
8669.6883999999955
 30
0.0
 11
20324.411886013801
 21
9469.1900500000029
 31
0.0
  0
LINE
  5
14B9D
  8
SUNPOU
  6
CONTINUOUS
 62
     4
 10
25324.411886013801
 20
9389.1900500000029
 30
0.0
 11
20324.411886013801
 21
9389.1900500000029
 31
0.0
  0
LINE
  5
14B9E
  8
SUNPOU
  6
CONTINUOUS
 62
     4
 10
20244.411886013801
 20
6242.0026620000026
 30
0.0
 11
19034.5894877194
 21
6242.0026620000026
 31
0.0
  0
LINE
  5
14B9F
  8
SUNPOU
  6
CONTINUOUS
 62
     4
 10
20204.411886013801
 20
8262.0026620000026
 30
0.0
 11
19034.5894877194
 21
8262.0026620000026
 31
0.0
  0
LINE
  5
14BA0
  8
SUNPOU
  6
CONTINUOUS
 62
     4
 10
19114.5894877194
 20
6242.0026620000026
 30
0.0
 11
19114.5894877194
 21
8262.0026620000026
 31
0.0
  0
LINE
  5
14BA1
  8
SUNPOU
  6
CONTINUOUS
 62
     4
 10
13070.21877048856
 20
8478.188374000003
 30
0.0
 11
13070.21877048856
 21
9869.1883999999955
 31
0.0
  0
LINE
  5
14BA2
  8
SUNPOU
  6
CONTINUOUS
 62
     4
 10
7169.7187704885728
 20
8610.0781974124311
 30
0.0
 11
7169.7187704885728
 21
9869.1883999999955
 31
0.0
  0
LINE
  5
14BA3
  8
SUNPOU
  6
CONTINUOUS
 62
     4
 10
13070.21877048856
 20
9789.1883999999955
 30
0.0
 11
7169.7187704885728
 21
9789.1883999999955
 31
0.0
  0
LINE
  5
14BA4
  8
SUNPOU
  6
CONTINUOUS
 62
     4
 10
7319.7187704885764
 20
8536.0984379999973
 30
0.0
 11
7319.7187704885764
 21
9469.1900500000029
 31
0.0
  0
LINE
  5
14BA5
  8
SUNPOU
  6
CONTINUOUS
 62
     4
 10
7169.7187704885728
 20
8610.0781974124311
 30
0.0
 11
7169.7187704885728
 21
9469.1900500000029
 31
0.0
  0
LINE
  5
14BA6
  8
SUNPOU
  6
CONTINUOUS
 62
     4
 10
7319.7187704885764
 20
9389.1900500000029
 30
0.0
 11
7559.7187704885719
 21
9389.1900500000029
 31
0.0
  0
LINE
  5
14BA7
  8
SUNPOU
  6
CONTINUOUS
 62
     4
 10
7169.7187704885728
 20
9389.1900500000029
 30
0.0
 11
6929.7187704885728
 21
9389.1900500000029
 31
0.0
  0
LINE
  5
14BA8
  8
SUNPOU
  6
CONTINUOUS
 62
     4
 10
7319.7187704885764
 20
9389.1900500000029
 30
0.0
 11
7169.7187704885728
 21
9389.1900500000029
 31
0.0
  0
LINE
  5
14BA9
  8
SUNPOU
  6
CONTINUOUS
 62
     4
 10
12890.21877048856
 20
8348.3741496838102
 30
0.0
 11
12890.21877048856
 21
9469.1900500000029
 31
0.0
  0
LINE
  5
14BAA
  8
SUNPOU
  6
CONTINUOUS
 62
     4
 10
7319.7187704885764
 20
8536.0984379999973
 30
0.0
 11
7319.7187704885764
 21
9469.1900500000029
 31
0.0
  0
LINE
  5
14BAB
  8
SUNPOU
  6
CONTINUOUS
 62
     4
 10
12890.21877048856
 20
9389.1900500000029
 30
0.0
 11
7319.7187704885764
 21
9389.1900500000029
 31
0.0
  0
LINE
  5
14BAC
  8
SUNPOU
  6
CONTINUOUS
 62
     4
 10
13070.21877048856
 20
8478.188374000003
 30
0.0
 11
13070.21877048856
 21
9469.1900500000029
 31
0.0
  0
LINE
  5
14BAD
  8
SUNPOU
  6
CONTINUOUS
 62
     4
 10
12890.21877048856
 20
8348.3741496838102
 30
0.0
 11
12890.21877048856
 21
9469.1900500000029
 31
0.0
  0
LINE
  5
14BAE
  8
SUNPOU
  6
CONTINUOUS
 62
     4
 10
13070.21877048856
 20
9389.1900500000029
 30
0.0
 11
12890.21877048856
 21
9389.1900500000029
 31
0.0
  0
LINE
  5
14BAF
  8
SUNPOU
  6
CONTINUOUS
 62
     4
 10
7227.2187704885728
 20
6241.1883740000021
 30
0.0
 11
6149.7183744885688
 21
6241.1883740000021
 31
0.0
  0
LINE
  5
14BB0
  8
SUNPOU
  6
CONTINUOUS
 62
     4
 10
7134.9115108891847
 20
8589.688374000003
 30
0.0
 11
6149.7183744885688
 21
8589.688374000003
 31
0.0
  0
LINE
  5
14BB1
  8
SUNPOU
  6
CONTINUOUS
 62
     4
 10
6229.7183744885697
 20
6241.1883740000021
 30
0.0
 11
6229.7183744885697
 21
8589.688374000003
 31
0.0
  0
LINE
  5
14BB2
  8
SUNPOU
  6
CONTINUOUS
 62
     4
 10
12977.71877048856
 20
6241.1883740000021
 30
0.0
 11
14060.219166488559
 21
6241.1883740000021
 31
0.0
  0
LINE
  5
14BB3
  8
SUNPOU
  6
CONTINUOUS
 62
     4
 10
13150.21877048856
 20
8397.1883740000048
 30
0.0
 11
14060.219166488559
 21
8397.1883740000048
 31
0.0
  0
LINE
  5
14BB4
  8
SUNPOU
  6
CONTINUOUS
 62
     4
 10
13980.219166488559
 20
6241.1883740000021
 30
0.0
 11
13980.219166488559
 21
8397.1883740000048
 31
0.0
  0
LINE
  5
14BB5
  8
SUNPOU
  6
CONTINUOUS
 62
     4
 10
12890.21877048856
 20
6161.1883740000021
 30
0.0
 11
12890.21877048856
 21
4461.1887039999992
 31
0.0
  0
LINE
  5
14BB6
  8
SUNPOU
  6
CONTINUOUS
 62
     4
 10
7319.7187704885764
 20
6161.1883740000021
 30
0.0
 11
7319.7187704885764
 21
4461.1887039999992
 31
0.0
  0
LINE
  5
14BB7
  8
SUNPOU
  6
CONTINUOUS
 62
     4
 10
12890.21877048856
 20
4541.1887039999983
 30
0.0
 11
7319.7187704885764
 21
4541.1887039999983
 31
0.0
  0
LINE
  5
14BB8
  8
SUNPOU
  6
CONTINUOUS
 62
     4
 10
7362.2187704885728
 20
5798.5361160000011
 30
0.0
 11
7362.2187704885728
 21
4861.1885389999998
 31
0.0
  0
LINE
  5
14BB9
  8
SUNPOU
  6
CONTINUOUS
 62
     4
 10
7319.7187704885764
 20
6161.1883740000021
 30
0.0
 11
7319.7187704885764
 21
4861.1885389999998
 31
0.0
  0
LINE
  5
14BBA
  8
SUNPOU
  6
CONTINUOUS
 62
     4
 10
7362.2187704885728
 20
4941.1885390000016
 30
0.0
 11
7602.2187704885728
 21
4941.1885390000016
 31
0.0
  0
LINE
  5
14BBB
  8
SUNPOU
  6
CONTINUOUS
 62
     4
 10
7319.7187704885764
 20
4941.1885390000016
 30
0.0
 11
7079.7187704885728
 21
4941.1885390000016
 31
0.0
  0
LINE
  5
14BBC
  8
SUNPOU
  6
CONTINUOUS
 62
     4
 10
7362.2187704885728
 20
4941.1885390000016
 30
0.0
 11
7319.7187704885764
 21
4941.1885390000016
 31
0.0
  0
LINE
  5
14BBD
  8
SUNPOU
  6
CONTINUOUS
 62
     4
 10
12847.71877048856
 20
5798.5361160000011
 30
0.0
 11
12847.71877048856
 21
4861.1885389999998
 31
0.0
  0
LINE
  5
14BBE
  8
SUNPOU
  6
CONTINUOUS
 62
     4
 10
12890.21877048856
 20
6161.1883740000021
 30
0.0
 11
12890.21877048856
 21
4861.1885389999998
 31
0.0
  0
LINE
  5
14BBF
  8
SUNPOU
  6
CONTINUOUS
 62
     4
 10
12847.71877048856
 20
4941.1885390000016
 30
0.0
 11
12607.71877048856
 21
4941.1885390000016
 31
0.0
  0
LINE
  5
14BC0
  8
SUNPOU
  6
CONTINUOUS
 62
     4
 10
12890.21877048856
 20
4941.1885390000016
 30
0.0
 11
13130.21877048856
 21
4941.1885390000016
 31
0.0
  0
LINE
  5
14BC1
  8
SUNPOU
  6
CONTINUOUS
 62
     4
 10
12847.71877048856
 20
4941.1885390000016
 30
0.0
 11
12890.21877048856
 21
4941.1885390000016
 31
0.0
  0
LINE
  5
14BC2
  8
SUNPOU
  6
CONTINUOUS
 62
     4
 10
10280.21877048856
 20
5798.5361160000011
 30
0.0
 11
10280.21877048856
 21
4861.1885389999998
 31
0.0
  0
LINE
  5
14BC3
  8
SUNPOU
  6
CONTINUOUS
 62
     4
 10
12847.71877048856
 20
5798.5361160000011
 30
0.0
 11
12847.71877048856
 21
4861.1885389999998
 31
0.0
  0
LINE
  5
14BC4
  8
SUNPOU
  6
CONTINUOUS
 62
     4
 10
10280.21877048856
 20
4941.1885390000016
 30
0.0
 11
12847.71877048856
 21
4941.1885390000016
 31
0.0
  0
LINE
  5
14BC5
  8
SUNPOU
  6
CONTINUOUS
 62
     4
 10
10280.21877048856
 20
5798.5361160000011
 30
0.0
 11
10280.21877048856
 21
4861.1885389999998
 31
0.0
  0
LINE
  5
14BC6
  8
SUNPOU
  6
CONTINUOUS
 62
     4
 10
7362.2187704885728
 20
5798.5361160000011
 30
0.0
 11
7362.2187704885728
 21
4861.1885389999998
 31
0.0
  0
LINE
  5
14BC7
  8
SUNPOU
  6
CONTINUOUS
 62
     4
 10
10280.21877048856
 20
4941.1885390000016
 30
0.0
 11
7362.2187704885728
 21
4941.1885390000016
 31
0.0
  0
TEXT
  5
14BC8
  8
0
  6
CONTINUOUS
 62
     7
 10
8554.5521038219049
 20
5021.1885389999998
 30
0.0
 40
160.0
  1
2918
  0
TEXT
  5
14BC9
  8
0
  6
CONTINUOUS
 62
     7
 10
11163.96877048856
 20
5021.1885389999998
 30
0.0
 40
160.0
  1
2567.5
  0
TEXT
  5
14BCA
  8
0
  6
CONTINUOUS
 62
     7
 10
12992.20838448856
 20
5022.1790570000003
 30
0.0
 40
160.0
  1
42.5
  0
TEXT
  5
14BCB
  8
0
  6
CONTINUOUS
 62
     7
 10
6719.7171204885672
 20
5021.1883080000007
 30
0.0
 40
160.0
  1
42.5
  0
TEXT
  5
14BCC
  8
0
  6
CONTINUOUS
 62
     7
 10
9718.3021038219049
 20
4621.1887039999983
 30
0.0
 40
160.0
  1
5570.5
  0
TEXT
  5
14BCD
  8
0
  6
CONTINUOUS
 62
     7
 10
13900.219166488559
 20
6540.521707333337
 30
0.0
 40
160.0
  1
2156（2396）
 50
90.0
  0
TEXT
  5
14BCE
  8
0
  6
CONTINUOUS
 62
     7
 10
6149.7183744885679
 20
6396.7717073333361
 30
0.0
 40
160.0
  1
2348.5（2588.5）
 50
90.0
  0
TEXT
  5
14BCF
  8
0
  6
CONTINUOUS
 62
     7
 10
13177.89391895699
 20
9469.1900500000029
 30
0.0
 40
160.0
  1
180
  0
TEXT
  5
14BD0
  8
0
  6
CONTINUOUS
 62
     7
 10
9718.3021038219049
 20
9469.1900500000029
 30
0.0
 40
160.0
  1
5570.5
  0
TEXT
  5
14BD1
  8
0
  6
CONTINUOUS
 62
     7
 10
6756.3854371552388
 20
9469.1900500000029
 30
0.0
 40
160.0
  1
150
  0
TEXT
  5
14BD2
  8
0
  6
CONTINUOUS
 62
     7
 10
9746.6354371552407
 20
9869.1883999999955
 30
0.0
 40
160.0
  1
5900.5
  0
TEXT
  5
14BD3
  8
0
  6
CONTINUOUS
 62
     7
 10
19034.5894877194
 20
6589.0026620000071
 30
0.0
 40
160.0
  1
有効高サ2020
 50
90.0
  0
TEXT
  5
14BD4
  8
0
  6
CONTINUOUS
 62
     7
 10
22571.078552680468
 20
9469.1900500000029
 30
0.0
 40
160.0
  1
5000
  0
TEXT
  5
14BD5
  8
0
  6
CONTINUOUS
 62
     7
 10
22613.578552680461
 20
5021.1885389999998
 30
0.0
 40
160.0
  1
5000
  0
TEXT
  5
14BD6
  8
0
  6
CONTINUOUS
 62
     7
 10
19724.41122601381
 20
5021.1883080000007
 30
0.0
 40
160.0
  1
42.5
  0
TEXT
  5
14BD7
  8
0
  6
CONTINUOUS
 62
     7
 10
26065.911886013811
 20
5421.188374000003
 30
0.0
 40
160.0
  1
有効開口巾2730
  0
TEXT
  5
14BD8
  8
0
  6
CONTINUOUS
 62
     7
 10
26559.24521934714
 20
5021.1885389999998
 30
0.0
 40
160.0
  1
2918
  0
TEXT
  5
14BD9
  8
0
  6
CONTINUOUS
 62
     7
 10
28427.2349170138
 20
5028.7357170000014
 30
0.0
 40
160.0
  1
42.5
  0
TEXT
  5
14BDA
  8
0
  6
CONTINUOUS
 62
     7
 10
24059.225242873359
 20
4621.1887040000584
 30
0.0
 40
160.0
  1
8003
  0
TEXT
  5
14BDB
  8
0
  6
CONTINUOUS
 62
     7
 10
22118.745219347129
 20
5421.188374000003
 30
0.0
 40
160.0
  1
有効開口巾4912
  0
TEXT
  5
14BDC
  8
0
  6
CONTINUOUS
 62
     7
 10
29054.915185013801
 20
6264.2717073333424
 30
0.0
 40
160.0
  1
有効開口高サ1891.5
 50
90.0
  0
TEXT
  5
14BDD
  8
0
  6
CONTINUOUS
 62
     7
 10
29728.641167015729
 20
6396.7717203333377
 30
0.0
 40
160.0
  1
2348.5（2588.5）
 50
90.0
  0
TEXT
  5
14BDE
  8
0
  6
CONTINUOUS
 62
     7
 10
26559.24521934714
 20
9469.1900500000029
 30
0.0
 40
160.0
  1
3003
  0
TEXT
  5
14BDF
  8
0
  6
CONTINUOUS
 62
     7
 10
28457.219872013819
 20
9469.1893240000027
 30
0.0
 40
160.0
  1
43
  0
TEXT
  5
14BE0
  8
0
  6
CONTINUOUS
 62
     7
 10
19906.946066013781
 20
9469.1893240000027
 30
0.0
 40
160.0
  1
43
  0
TEXT
  5
14BE1
  8
0
  6
CONTINUOUS
 62
     7
 10
24045.911886013811
 20
9869.1329740000037
 30
0.0
 40
160.0
  1
8089
  0
TEXT
  5
14BE7
  8
0
  6
CONTINUOUS
 62
     7
 10
19069.06826164516
 20
15024.820311333329
 30
0.0
 40
160.0
  1
2918
 50
90.0
  0
TEXT
  5
14BE8
  8
0
  6
CONTINUOUS
 62
     7
 10
19069.06826164516
 20
17634.236978000012
 30
0.0
 40
160.0
  1
2567.5
 50
90.0
  0
TEXT
  5
14BE9
  8
0
  6
CONTINUOUS
 62
     7
 10
19745.989958013812
 20
20240.486185999991
 30
0.0
 40
160.0
  1
42.5
  0
TEXT
  5
14BEA
  8
0
  6
CONTINUOUS
 62
     7
 10
20424.085925013791
 20
20259.830042000001
 30
0.0
 40
160.0
  1
42.5
  0
TEXT
  5
14BEB
  8
0
  6
CONTINUOUS
 62
     7
 10
26559.245219347122
 20
20640.487902000001
 30
0.0
 40
160.0
  1
2918
  0
TEXT
  5
14BEC
  8
0
  6
CONTINUOUS
 62
     7
 10
22613.578552680461
 20
20640.487902000001
 30
0.0
 40
160.0
  1
5000
  0
TEXT
  5
14BFE
  8
0
  6
CONTINUOUS
 62
     7
 10
9968.5533546159986
 20
12409.48564499999
 30
0.0
 40
160.0
  1
ケラバ外寸8089
  0
TEXT
  5
14BFF
  8
0
  6
CONTINUOUS
 62
     7
 10
14777.367165282651
 20
20219.984918999991
 30
0.0
 40
160.0
  1
85.5
  0
TEXT
  5
14C00
  8
0
  6
CONTINUOUS
 62
     7
 10
12956.553354616
 20
20219.986634999979
 30
0.0
 40
160.0
  1
2918
  0
TEXT
  5
14C01
  8
0
  6
CONTINUOUS
 62
     7
 10
9010.8866879493307
 20
20219.986634999979
 30
0.0
 40
160.0
  1
5000
  0
TEXT
  5
14C02
  8
0
  6
CONTINUOUS
 62
     7
 10
6137.872233282651
 20
20219.984918999991
 30
0.0
 40
160.0
  1
85.5
  0
TEXT
  5
14C03
  8
0
  6
CONTINUOUS
 62
     7
 10
15154.939162889221
 20
19691.414439666671
 30
0.0
 40
160.0
  1
10
 50
90.0
  0
TEXT
  5
14C04
  8
0
  6
CONTINUOUS
 62
     7
 10
15531.719797282651
 20
19598.467233389241
 30
0.0
 40
160.0
  1
222.5
 50
90.0
  0
TEXT
  5
14C05
  8
0
  6
CONTINUOUS
 62
     7
 10
15531.719797282651
 20
17613.735711000001
 30
0.0
 40
160.0
  1
2567.5
 50
90.0
  0
TEXT
  5
14C06
  8
0
  6
CONTINUOUS
 62
     7
 10
15531.719797282651
 20
15004.319044333341
 30
0.0
 40
160.0
  1
2918
 50
90.0
  0
TEXT
  5
14C07
  8
0
  6
CONTINUOUS
 62
     7
 10
15531.719797282671
 20
12955.49680859056
 30
0.0
 40
160.0
  1
192.5
 50
90.0
  0
ARC
  5
14C08
  8
0
  6
BYBLOCK
 62
     0
 10
15611.719797282651
 20
13811.985710999999
 30
0.0
 40
15.0
 50
270.0
 51
90.0
  0
ARC
  5
14C09
  8
0
  6
BYBLOCK
 62
     0
 10
15611.719797282651
 20
13811.985710999999
 30
0.0
 40
15.0
 50
90.0
 51
270.0
  0
ARC
  5
14C0A
  8
0
  6
BYBLOCK
 62
     0
 10
15611.719797282651
 20
13619.48643699999
 30
0.0
 40
15.0
 50
90.0
 51
270.0
  0
ARC
  5
14C0B
  8
0
  6
BYBLOCK
 62
     0
 10
15611.719797282651
 20
13619.48643699999
 30
0.0
 40
15.0
 50
270.0
 51
90.0
  0
ARC
  5
14C0C
  8
0
  6
BYBLOCK
 62
     0
 10
15611.719797282651
 20
16729.985711000001
 30
0.0
 40
15.0
 50
270.0
 51
90.0
  0
ARC
  5
14C0D
  8
0
  6
BYBLOCK
 62
     0
 10
15611.719797282651
 20
16729.985711000001
 30
0.0
 40
15.0
 50
90.0
 51
270.0
  0
ARC
  5
14C0E
  8
0
  6
BYBLOCK
 62
     0
 10
15611.719797282651
 20
13811.985710999999
 30
0.0
 40
15.0
 50
90.0
 51
270.0
  0
ARC
  5
14C0F
  8
0
  6
BYBLOCK
 62
     0
 10
15611.719797282651
 20
13811.985710999999
 30
0.0
 40
15.0
 50
270.0
 51
90.0
  0
ARC
  5
14C10
  8
0
  6
BYBLOCK
 62
     0
 10
15611.719797282651
 20
19297.485711000001
 30
0.0
 40
15.0
 50
270.0
 51
90.0
  0
ARC
  5
14C11
  8
0
  6
BYBLOCK
 62
     0
 10
15611.719797282651
 20
19297.485711000001
 30
0.0
 40
15.0
 50
90.0
 51
270.0
  0
ARC
  5
14C12
  8
0
  6
BYBLOCK
 62
     0
 10
15611.719797282651
 20
16729.985711000001
 30
0.0
 40
15.0
 50
90.0
 51
270.0
  0
ARC
  5
14C13
  8
0
  6
BYBLOCK
 62
     0
 10
15611.719797282651
 20
16729.985711000001
 30
0.0
 40
15.0
 50
270.0
 51
90.0
  0
ARC
  5
14C14
  8
0
  6
BYBLOCK
 62
     0
 10
15611.719797282651
 20
19297.485711000001
 30
0.0
 40
15.0
 50
90.0
 51
270.0
  0
ARC
  5
14C15
  8
0
  6
BYBLOCK
 62
     0
 10
15611.719797282651
 20
19297.485711000001
 30
0.0
 40
15.0
 50
270.0
 51
90.0
  0
ARC
  5
14C16
  8
0
  6
BYBLOCK
 62
     0
 10
15611.719797282651
 20
19519.985579
 30
0.0
 40
15.0
 50
270.0
 51
90.0
  0
ARC
  5
14C17
  8
0
  6
BYBLOCK
 62
     0
 10
15611.719797282651
 20
19519.985579
 30
0.0
 40
15.0
 50
90.0
 51
270.0
  0
ARC
  5
14C18
  8
0
  6
BYBLOCK
 62
     0
 10
15211.720456282639
 20
19509.98900999999
 30
0.0
 40
15.0
 50
270.0
 51
90.0
  0
ARC
  5
14C19
  8
0
  6
BYBLOCK
 62
     0
 10
15211.720456282639
 20
19509.98900999999
 30
0.0
 40
15.0
 50
90.0
 51
270.0
  0
ARC
  5
14C1A
  8
0
  6
BYBLOCK
 62
     0
 10
15211.720456282639
 20
19519.985579
 30
0.0
 40
15.0
 50
90.0
 51
270.0
  0
ARC
  5
14C1B
  8
0
  6
BYBLOCK
 62
     0
 10
15211.720456282639
 20
19519.985579
 30
0.0
 40
15.0
 50
270.0
 51
90.0
  0
ARC
  5
14C1C
  8
0
  6
BYBLOCK
 62
     0
 10
6764.2200212826647
 20
20139.986634999979
 30
0.0
 40
15.0
 50
0.0
 51
180.0
  0
ARC
  5
14C1D
  8
0
  6
BYBLOCK
 62
     0
 10
6764.2200212826647
 20
20139.986634999979
 30
0.0
 40
15.0
 50
180.0
 51
0.0
  0
ARC
  5
14C1E
  8
0
  6
BYBLOCK
 62
     0
 10
6678.7200212826629
 20
20139.986634999979
 30
0.0
 40
15.0
 50
180.0
 51
0.0
  0
ARC
  5
14C1F
  8
0
  6
BYBLOCK
 62
     0
 10
6678.7200212826629
 20
20139.986634999979
 30
0.0
 40
15.0
 50
0.0
 51
180.0
  0
ARC
  5
14C20
  8
0
  6
BYBLOCK
 62
     0
 10
11764.220021282659
 20
20139.986634999979
 30
0.0
 40
15.0
 50
180.0
 51
0.0
  0
ARC
  5
14C21
  8
0
  6
BYBLOCK
 62
     0
 10
11764.220021282659
 20
20139.986634999979
 30
0.0
 40
15.0
 50
0.0
 51
180.0
  0
ARC
  5
14C22
  8
0
  6
BYBLOCK
 62
     0
 10
6764.2200212826647
 20
20139.986634999979
 30
0.0
 40
15.0
 50
0.0
 51
180.0
  0
ARC
  5
14C23
  8
0
  6
BYBLOCK
 62
     0
 10
6764.2200212826647
 20
20139.986634999979
 30
0.0
 40
15.0
 50
180.0
 51
0.0
  0
ARC
  5
14C24
  8
0
  6
BYBLOCK
 62
     0
 10
14682.220021282659
 20
20139.986634999979
 30
0.0
 40
15.0
 50
180.0
 51
0.0
  0
ARC
  5
14C25
  8
0
  6
BYBLOCK
 62
     0
 10
14682.220021282659
 20
20139.986634999979
 30
0.0
 40
15.0
 50
0.0
 51
180.0
  0
ARC
  5
14C26
  8
0
  6
BYBLOCK
 62
     0
 10
11764.220021282659
 20
20139.986634999979
 30
0.0
 40
15.0
 50
0.0
 51
180.0
  0
ARC
  5
14C27
  8
0
  6
BYBLOCK
 62
     0
 10
11764.220021282659
 20
20139.986634999979
 30
0.0
 40
15.0
 50
180.0
 51
0.0
  0
ARC
  5
14C28
  8
0
  6
BYBLOCK
 62
     0
 10
14682.220021282659
 20
20139.986634999979
 30
0.0
 40
15.0
 50
180.0
 51
0.0
  0
ARC
  5
14C29
  8
0
  6
BYBLOCK
 62
     0
 10
14682.220021282659
 20
20139.986634999979
 30
0.0
 40
15.0
 50
0.0
 51
180.0
  0
ARC
  5
14C2A
  8
0
  6
BYBLOCK
 62
     0
 10
14767.71939138979
 20
20140.048108249561
 30
0.0
 40
15.0
 50
0.0
 51
180.0
  0
ARC
  5
14C2B
  8
0
  6
BYBLOCK
 62
     0
 10
14767.71939138979
 20
20140.048108249561
 30
0.0
 40
15.0
 50
180.0
 51
0.0
  0
ARC
  5
14C2C
  8
0
  6
BYBLOCK
 62
     0
 10
14767.720021282659
 20
12329.48564499999
 30
0.0
 40
15.0
 50
180.0
 51
0.0
  0
ARC
  5
14C2D
  8
0
  6
BYBLOCK
 62
     0
 10
14767.720021282659
 20
12329.48564499999
 30
0.0
 40
15.0
 50
0.0
 51
180.0
  0
ARC
  5
14C2E
  8
0
  6
BYBLOCK
 62
     0
 10
6678.7200212826629
 20
12329.48564499999
 30
0.0
 40
15.0
 50
0.0
 51
180.0
  0
ARC
  5
14C2F
  8
0
  6
BYBLOCK
 62
     0
 10
6678.7200212826629
 20
12329.48564499999
 30
0.0
 40
15.0
 50
180.0
 51
0.0
  0
ARC
  5
14C74
  8
0
  6
BYBLOCK
 62
     0
 10
25366.91188601379
 20
20560.487902000001
 30
0.0
 40
15.0
 50
180.0
 51
0.0
  0
ARC
  5
14C75
  8
0
  6
BYBLOCK
 62
     0
 10
25366.91188601379
 20
20560.487902000001
 30
0.0
 40
15.0
 50
0.0
 51
180.0
  0
ARC
  5
14C76
  8
0
  6
BYBLOCK
 62
     0
 10
20366.911886013801
 20
20560.487902000001
 30
0.0
 40
15.0
 50
0.0
 51
180.0
  0
ARC
  5
14C77
  8
0
  6
BYBLOCK
 62
     0
 10
20366.911886013801
 20
20560.487902000001
 30
0.0
 40
15.0
 50
180.0
 51
0.0
  0
ARC
  5
14C78
  8
0
  6
BYBLOCK
 62
     0
 10
28284.91188601379
 20
20560.487902000001
 30
0.0
 40
15.0
 50
180.0
 51
0.0
  0
ARC
  5
14C79
  8
0
  6
BYBLOCK
 62
     0
 10
28284.91188601379
 20
20560.487902000001
 30
0.0
 40
15.0
 50
0.0
 51
180.0
  0
ARC
  5
14C7A
  8
0
  6
BYBLOCK
 62
     0
 10
25366.91188601379
 20
20560.487902000001
 30
0.0
 40
15.0
 50
0.0
 51
180.0
  0
ARC
  5
14C7B
  8
0
  6
BYBLOCK
 62
     0
 10
25366.91188601379
 20
20560.487902000001
 30
0.0
 40
15.0
 50
180.0
 51
0.0
  0
ARC
  5
14C7C
  8
0
  6
BYBLOCK
 62
     0
 10
20366.911886013801
 20
20160.487902000001
 30
0.0
 40
15.0
 50
180.0
 51
0.0
  0
ARC
  5
14C7D
  8
0
  6
BYBLOCK
 62
     0
 10
20366.911886013801
 20
20160.487902000001
 30
0.0
 40
15.0
 50
0.0
 51
180.0
  0
ARC
  5
14C7E
  8
0
  6
BYBLOCK
 62
     0
 10
20409.414129013781
 20
20160.487902000001
 30
0.0
 40
15.0
 50
0.0
 51
180.0
  0
ARC
  5
14C7F
  8
0
  6
BYBLOCK
 62
     0
 10
20409.414129013781
 20
20160.487902000001
 30
0.0
 40
15.0
 50
180.0
 51
0.0
  0
ARC
  5
14C80
  8
0
  6
BYBLOCK
 62
     0
 10
20366.911886013801
 20
20160.487902000001
 30
0.0
 40
15.0
 50
0.0
 51
180.0
  0
ARC
  5
14C81
  8
0
  6
BYBLOCK
 62
     0
 10
20366.911886013801
 20
20160.487902000001
 30
0.0
 40
15.0
 50
180.0
 51
0.0
  0
ARC
  5
14C82
  8
0
  6
BYBLOCK
 62
     0
 10
20324.413601013799
 20
20160.487902000001
 30
0.0
 40
15.0
 50
180.0
 51
0.0
  0
ARC
  5
14C83
  8
0
  6
BYBLOCK
 62
     0
 10
20324.413601013799
 20
20160.487902000001
 30
0.0
 40
15.0
 50
0.0
 51
180.0
  0
ARC
  5
14C84
  8
0
  6
BYBLOCK
 62
     0
 10
19149.06826164516
 20
16750.486978000001
 30
0.0
 40
15.0
 50
90.0
 51
270.0
  0
ARC
  5
14C85
  8
0
  6
BYBLOCK
 62
     0
 10
19149.06826164516
 20
16750.486978000001
 30
0.0
 40
15.0
 50
270.0
 51
90.0
  0
ARC
  5
14C86
  8
0
  6
BYBLOCK
 62
     0
 10
19149.06826164516
 20
19317.986978000001
 30
0.0
 40
15.0
 50
270.0
 51
90.0
  0
ARC
  5
14C87
  8
0
  6
BYBLOCK
 62
     0
 10
19149.06826164516
 20
19317.986978000001
 30
0.0
 40
15.0
 50
90.0
 51
270.0
  0
ARC
  5
14C88
  8
0
  6
BYBLOCK
 62
     0
 10
19149.06826164516
 20
13832.48697800001
 30
0.0
 40
15.0
 50
90.0
 51
270.0
  0
ARC
  5
14C89
  8
0
  6
BYBLOCK
 62
     0
 10
19149.06826164516
 20
13832.48697800001
 30
0.0
 40
15.0
 50
270.0
 51
90.0
  0
ARC
  5
14C8A
  8
0
  6
BYBLOCK
 62
     0
 10
19149.06826164516
 20
16750.486978000001
 30
0.0
 40
15.0
 50
270.0
 51
90.0
  0
ARC
  5
14C8B
  8
0
  6
BYBLOCK
 62
     0
 10
19149.06826164516
 20
16750.486978000001
 30
0.0
 40
15.0
 50
90.0
 51
270.0
  0
ARC
  5
14CA0
  8
0
  6
BYBLOCK
 62
     0
 10
28370.411886013819
 20
9789.1329740000037
 30
0.0
 40
15.0
 50
180.0
 51
0.0
  0
ARC
  5
14CA1
  8
0
  6
BYBLOCK
 62
     0
 10
28370.411886013819
 20
9789.1329740000037
 30
0.0
 40
15.0
 50
0.0
 51
180.0
  0
ARC
  5
14CA2
  8
0
  6
BYBLOCK
 62
     0
 10
20281.411886013801
 20
9789.1329740000037
 30
0.0
 40
15.0
 50
0.0
 51
180.0
  0
ARC
  5
14CA3
  8
0
  6
BYBLOCK
 62
     0
 10
20281.411886013801
 20
9789.1329740000037
 30
0.0
 40
15.0
 50
180.0
 51
0.0
  0
ARC
  5
14CA4
  8
0
  6
BYBLOCK
 62
     0
 10
20324.411886013801
 20
9389.1900500000029
 30
0.0
 40
15.0
 50
0.0
 51
180.0
  0
ARC
  5
14CA5
  8
0
  6
BYBLOCK
 62
     0
 10
20324.411886013801
 20
9389.1900500000029
 30
0.0
 40
15.0
 50
180.0
 51
0.0
  0
ARC
  5
14CA6
  8
0
  6
BYBLOCK
 62
     0
 10
20281.411886013801
 20
9389.1900500000029
 30
0.0
 40
15.0
 50
180.0
 51
0.0
  0
ARC
  5
14CA7
  8
0
  6
BYBLOCK
 62
     0
 10
20281.411886013801
 20
9389.1900500000029
 30
0.0
 40
15.0
 50
0.0
 51
180.0
  0
ARC
  5
14CA8
  8
0
  6
BYBLOCK
 62
     0
 10
28327.411886013819
 20
9389.1900500000029
 30
0.0
 40
15.0
 50
180.0
 51
0.0
  0
ARC
  5
14CA9
  8
0
  6
BYBLOCK
 62
     0
 10
28327.411886013819
 20
9389.1900500000029
 30
0.0
 40
15.0
 50
0.0
 51
180.0
  0
ARC
  5
14CAA
  8
0
  6
BYBLOCK
 62
     0
 10
28370.411886013819
 20
9389.1900500000029
 30
0.0
 40
15.0
 50
0.0
 51
180.0
  0
ARC
  5
14CAB
  8
0
  6
BYBLOCK
 62
     0
 10
28370.411886013819
 20
9389.1900500000029
 30
0.0
 40
15.0
 50
180.0
 51
0.0
  0
ARC
  5
14CAC
  8
0
  6
BYBLOCK
 62
     0
 10
25324.411886013801
 20
9389.1900500000029
 30
0.0
 40
15.0
 50
0.0
 51
180.0
  0
ARC
  5
14CAD
  8
0
  6
BYBLOCK
 62
     0
 10
25324.411886013801
 20
9389.1900500000029
 30
0.0
 40
15.0
 50
180.0
 51
0.0
  0
ARC
  5
14CAE
  8
0
  6
BYBLOCK
 62
     0
 10
28327.411886013819
 20
9389.1900500000029
 30
0.0
 40
15.0
 50
180.0
 51
0.0
  0
ARC
  5
14CAF
  8
0
  6
BYBLOCK
 62
     0
 10
28327.411886013819
 20
9389.1900500000029
 30
0.0
 40
15.0
 50
0.0
 51
180.0
  0
ARC
  5
14CB0
  8
0
  6
BYBLOCK
 62
     0
 10
29808.641167015729
 20
6241.1883740000021
 30
0.0
 40
15.0
 50
90.0
 51
270.0
  0
ARC
  5
14CB1
  8
0
  6
BYBLOCK
 62
     0
 10
29808.641167015729
 20
6241.1883740000021
 30
0.0
 40
15.0
 50
270.0
 51
90.0
  0
ARC
  5
14CB2
  8
0
  6
BYBLOCK
 62
     0
 10
29808.641167015729
 20
8589.6883999999955
 30
0.0
 40
15.0
 50
270.0
 51
90.0
  0
ARC
  5
14CB3
  8
0
  6
BYBLOCK
 62
     0
 10
29808.641167015729
 20
8589.6883999999955
 30
0.0
 40
15.0
 50
90.0
 51
270.0
  0
ARC
  5
14CB4
  8
0
  6
BYBLOCK
 62
     0
 10
29134.915185013801
 20
6241.1883740000021
 30
0.0
 40
15.0
 50
90.0
 51
270.0
  0
ARC
  5
14CB5
  8
0
  6
BYBLOCK
 62
     0
 10
29134.915185013801
 20
6241.1883740000021
 30
0.0
 40
15.0
 50
270.0
 51
90.0
  0
ARC
  5
14CB6
  8
0
  6
BYBLOCK
 62
     0
 10
29134.915185013801
 20
8132.6883740000021
 30
0.0
 40
15.0
 50
270.0
 51
90.0
  0
ARC
  5
14CB7
  8
0
  6
BYBLOCK
 62
     0
 10
29134.915185013801
 20
8132.6883740000021
 30
0.0
 40
15.0
 50
90.0
 51
270.0
  0
ARC
  5
14CB8
  8
0
  6
BYBLOCK
 62
     0
 10
25321.411886013801
 20
5341.188374000003
 30
0.0
 40
15.0
 50
180.0
 51
0.0
  0
ARC
  5
14CB9
  8
0
  6
BYBLOCK
 62
     0
 10
25321.411886013801
 20
5341.188374000003
 30
0.0
 40
15.0
 50
0.0
 51
180.0
  0
ARC
  5
14CBA
  8
0
  6
BYBLOCK
 62
     0
 10
20409.41188601379
 20
5341.188374000003
 30
0.0
 40
15.0
 50
0.0
 51
180.0
  0
ARC
  5
14CBB
  8
0
  6
BYBLOCK
 62
     0
 10
20409.41188601379
 20
5341.188374000003
 30
0.0
 40
15.0
 50
180.0
 51
0.0
  0
ARC
  5
14CBC
  8
0
  6
BYBLOCK
 62
     0
 10
28327.371933066272
 20
4541.1887040000556
 30
0.0
 40
15.0
 50
180.0
 51
0.0
  0
ARC
  5
14CBD
  8
0
  6
BYBLOCK
 62
     0
 10
28327.371933066272
 20
4541.1887040000556
 30
0.0
 40
15.0
 50
0.0
 51
180.0
  0
ARC
  5
14CBE
  8
0
  6
BYBLOCK
 62
     0
 10
20324.411886013801
 20
4541.1887040000556
 30
0.0
 40
15.0
 50
0.0
 51
180.0
  0
ARC
  5
14CBF
  8
0
  6
BYBLOCK
 62
     0
 10
20324.411886013801
 20
4541.1887040000556
 30
0.0
 40
15.0
 50
180.0
 51
0.0
  0
ARC
  5
14CC0
  8
0
  6
BYBLOCK
 62
     0
 10
28284.911886013801
 20
4941.1885390000016
 30
0.0
 40
15.0
 50
180.0
 51
0.0
  0
ARC
  5
14CC1
  8
0
  6
BYBLOCK
 62
     0
 10
28284.911886013801
 20
4941.1885390000016
 30
0.0
 40
15.0
 50
0.0
 51
180.0
  0
ARC
  5
14CC2
  8
0
  6
BYBLOCK
 62
     0
 10
28327.371933066272
 20
4941.1885390000016
 30
0.0
 40
15.0
 50
0.0
 51
180.0
  0
ARC
  5
14CC3
  8
0
  6
BYBLOCK
 62
     0
 10
28327.371933066272
 20
4941.1885390000016
 30
0.0
 40
15.0
 50
180.0
 51
0.0
  0
ARC
  5
14CC4
  8
0
  6
BYBLOCK
 62
     0
 10
25366.911886013801
 20
4941.1885390000016
 30
0.0
 40
15.0
 50
0.0
 51
180.0
  0
ARC
  5
14CC5
  8
0
  6
BYBLOCK
 62
     0
 10
25366.911886013801
 20
4941.1885390000016
 30
0.0
 40
15.0
 50
180.0
 51
0.0
  0
ARC
  5
14CC6
  8
0
  6
BYBLOCK
 62
     0
 10
28284.911886013801
 20
4941.1885390000016
 30
0.0
 40
15.0
 50
180.0
 51
0.0
  0
ARC
  5
14CC7
  8
0
  6
BYBLOCK
 62
     0
 10
28284.911886013801
 20
4941.1885390000016
 30
0.0
 40
15.0
 50
0.0
 51
180.0
  0
ARC
  5
14CC8
  8
0
  6
BYBLOCK
 62
     0
 10
28190.911886013801
 20
5341.188374000003
 30
0.0
 40
15.0
 50
180.0
 51
0.0
  0
ARC
  5
14CC9
  8
0
  6
BYBLOCK
 62
     0
 10
28190.911886013801
 20
5341.188374000003
 30
0.0
 40
15.0
 50
0.0
 51
180.0
  0
ARC
  5
14CCA
  8
0
  6
BYBLOCK
 62
     0
 10
25460.911886013801
 20
5341.188374000003
 30
0.0
 40
15.0
 50
0.0
 51
180.0
  0
ARC
  5
14CCB
  8
0
  6
BYBLOCK
 62
     0
 10
25460.911886013801
 20
5341.188374000003
 30
0.0
 40
15.0
 50
180.0
 51
0.0
  0
ARC
  5
14CCC
  8
0
  6
BYBLOCK
 62
     0
 10
20366.911886013801
 20
4941.1885390000016
 30
0.0
 40
15.0
 50
0.0
 51
180.0
  0
ARC
  5
14CCD
  8
0
  6
BYBLOCK
 62
     0
 10
20366.911886013801
 20
4941.1885390000016
 30
0.0
 40
15.0
 50
180.0
 51
0.0
  0
ARC
  5
14CCE
  8
0
  6
BYBLOCK
 62
     0
 10
20324.411886013801
 20
4941.1885390000016
 30
0.0
 40
15.0
 50
180.0
 51
0.0
  0
ARC
  5
14CCF
  8
0
  6
BYBLOCK
 62
     0
 10
20324.411886013801
 20
4941.1885390000016
 30
0.0
 40
15.0
 50
0.0
 51
180.0
  0
ARC
  5
14CD0
  8
0
  6
BYBLOCK
 62
     0
 10
25366.911886013801
 20
4941.1885390000016
 30
0.0
 40
15.0
 50
180.0
 51
0.0
  0
ARC
  5
14CD1
  8
0
  6
BYBLOCK
 62
     0
 10
25366.911886013801
 20
4941.1885390000016
 30
0.0
 40
15.0
 50
0.0
 51
180.0
  0
ARC
  5
14CD2
  8
0
  6
BYBLOCK
 62
     0
 10
20366.911886013801
 20
4941.1885390000016
 30
0.0
 40
15.0
 50
0.0
 51
180.0
  0
ARC
  5
14CD3
  8
0
  6
BYBLOCK
 62
     0
 10
20366.911886013801
 20
4941.1885390000016
 30
0.0
 40
15.0
 50
180.0
 51
0.0
  0
ARC
  5
14CD4
  8
0
  6
BYBLOCK
 62
     0
 10
25324.411886013801
 20
9389.1900500000029
 30
0.0
 40
15.0
 50
180.0
 51
0.0
  0
ARC
  5
14CD5
  8
0
  6
BYBLOCK
 62
     0
 10
25324.411886013801
 20
9389.1900500000029
 30
0.0
 40
15.0
 50
0.0
 51
180.0
  0
ARC
  5
14CD6
  8
0
  6
BYBLOCK
 62
     0
 10
20324.411886013801
 20
9389.1900500000029
 30
0.0
 40
15.0
 50
0.0
 51
180.0
  0
ARC
  5
14CD7
  8
0
  6
BYBLOCK
 62
     0
 10
20324.411886013801
 20
9389.1900500000029
 30
0.0
 40
15.0
 50
180.0
 51
0.0
  0
ARC
  5
14CD8
  8
0
  6
BYBLOCK
 62
     0
 10
19114.5894877194
 20
6242.0026620000026
 30
0.0
 40
15.0
 50
90.0
 51
270.0
  0
ARC
  5
14CD9
  8
0
  6
BYBLOCK
 62
     0
 10
19114.5894877194
 20
6242.0026620000026
 30
0.0
 40
15.0
 50
270.0
 51
90.0
  0
ARC
  5
14CDA
  8
0
  6
BYBLOCK
 62
     0
 10
19114.5894877194
 20
8262.0026620000026
 30
0.0
 40
15.0
 50
270.0
 51
90.0
  0
ARC
  5
14CDB
  8
0
  6
BYBLOCK
 62
     0
 10
19114.5894877194
 20
8262.0026620000026
 30
0.0
 40
15.0
 50
90.0
 51
270.0
  0
ARC
  5
14CDC
  8
0
  6
BYBLOCK
 62
     0
 10
13070.21877048856
 20
9789.1883999999955
 30
0.0
 40
15.0
 50
180.0
 51
0.0
  0
ARC
  5
14CDD
  8
0
  6
BYBLOCK
 62
     0
 10
13070.21877048856
 20
9789.1883999999955
 30
0.0
 40
15.0
 50
0.0
 51
180.0
  0
ARC
  5
14CDE
  8
0
  6
BYBLOCK
 62
     0
 10
7169.7187704885728
 20
9789.1883999999955
 30
0.0
 40
15.0
 50
0.0
 51
180.0
  0
ARC
  5
14CDF
  8
0
  6
BYBLOCK
 62
     0
 10
7169.7187704885728
 20
9789.1883999999955
 30
0.0
 40
15.0
 50
180.0
 51
0.0
  0
ARC
  5
14CE0
  8
0
  6
BYBLOCK
 62
     0
 10
7319.7187704885764
 20
9389.1900500000029
 30
0.0
 40
15.0
 50
0.0
 51
180.0
  0
ARC
  5
14CE1
  8
0
  6
BYBLOCK
 62
     0
 10
7319.7187704885764
 20
9389.1900500000029
 30
0.0
 40
15.0
 50
180.0
 51
0.0
  0
ARC
  5
14CE2
  8
0
  6
BYBLOCK
 62
     0
 10
7169.7187704885728
 20
9389.1900500000029
 30
0.0
 40
15.0
 50
180.0
 51
0.0
  0
ARC
  5
14CE3
  8
0
  6
BYBLOCK
 62
     0
 10
7169.7187704885728
 20
9389.1900500000029
 30
0.0
 40
15.0
 50
0.0
 51
180.0
  0
ARC
  5
14CE4
  8
0
  6
BYBLOCK
 62
     0
 10
12890.21877048856
 20
9389.1900500000029
 30
0.0
 40
15.0
 50
180.0
 51
0.0
  0
ARC
  5
14CE5
  8
0
  6
BYBLOCK
 62
     0
 10
12890.21877048856
 20
9389.1900500000029
 30
0.0
 40
15.0
 50
0.0
 51
180.0
  0
ARC
  5
14CE6
  8
0
  6
BYBLOCK
 62
     0
 10
7319.7187704885764
 20
9389.1900500000029
 30
0.0
 40
15.0
 50
0.0
 51
180.0
  0
ARC
  5
14CE7
  8
0
  6
BYBLOCK
 62
     0
 10
7319.7187704885764
 20
9389.1900500000029
 30
0.0
 40
15.0
 50
180.0
 51
0.0
  0
ARC
  5
14CE8
  8
0
  6
BYBLOCK
 62
     0
 10
13070.21877048856
 20
9389.1900500000029
 30
0.0
 40
15.0
 50
180.0
 51
0.0
  0
ARC
  5
14CE9
  8
0
  6
BYBLOCK
 62
     0
 10
13070.21877048856
 20
9389.1900500000029
 30
0.0
 40
15.0
 50
0.0
 51
180.0
  0
ARC
  5
14CEA
  8
0
  6
BYBLOCK
 62
     0
 10
12890.21877048856
 20
9389.1900500000029
 30
0.0
 40
15.0
 50
0.0
 51
180.0
  0
ARC
  5
14CEB
  8
0
  6
BYBLOCK
 62
     0
 10
12890.21877048856
 20
9389.1900500000029
 30
0.0
 40
15.0
 50
180.0
 51
0.0
  0
ARC
  5
14CEC
  8
0
  6
BYBLOCK
 62
     0
 10
6229.7183744885697
 20
6241.1883740000021
 30
0.0
 40
15.0
 50
90.0
 51
270.0
  0
ARC
  5
14CED
  8
0
  6
BYBLOCK
 62
     0
 10
6229.7183744885697
 20
6241.1883740000021
 30
0.0
 40
15.0
 50
270.0
 51
90.0
  0
ARC
  5
14CEE
  8
0
  6
BYBLOCK
 62
     0
 10
6229.7183744885697
 20
8589.688374000003
 30
0.0
 40
15.0
 50
270.0
 51
90.0
  0
ARC
  5
14CEF
  8
0
  6
BYBLOCK
 62
     0
 10
6229.7183744885697
 20
8589.688374000003
 30
0.0
 40
15.0
 50
90.0
 51
270.0
  0
ARC
  5
14CF0
  8
0
  6
BYBLOCK
 62
     0
 10
13980.219166488559
 20
6241.1883740000021
 30
0.0
 40
15.0
 50
90.0
 51
270.0
  0
ARC
  5
14CF1
  8
0
  6
BYBLOCK
 62
     0
 10
13980.219166488559
 20
6241.1883740000021
 30
0.0
 40
15.0
 50
270.0
 51
90.0
  0
ARC
  5
14CF2
  8
0
  6
BYBLOCK
 62
     0
 10
13980.219166488559
 20
8397.1883740000048
 30
0.0
 40
15.0
 50
270.0
 51
90.0
  0
ARC
  5
14CF3
  8
0
  6
BYBLOCK
 62
     0
 10
13980.219166488559
 20
8397.1883740000048
 30
0.0
 40
15.0
 50
90.0
 51
270.0
  0
ARC
  5
14CF4
  8
0
  6
BYBLOCK
 62
     0
 10
12890.21877048856
 20
4541.1887039999983
 30
0.0
 40
15.0
 50
180.0
 51
0.0
  0
ARC
  5
14CF5
  8
0
  6
BYBLOCK
 62
     0
 10
12890.21877048856
 20
4541.1887039999983
 30
0.0
 40
15.0
 50
0.0
 51
180.0
  0
ARC
  5
14CF6
  8
0
  6
BYBLOCK
 62
     0
 10
7319.7187704885764
 20
4541.1887039999983
 30
0.0
 40
15.0
 50
0.0
 51
180.0
  0
ARC
  5
14CF7
  8
0
  6
BYBLOCK
 62
     0
 10
7319.7187704885764
 20
4541.1887039999983
 30
0.0
 40
15.0
 50
180.0
 51
0.0
  0
ARC
  5
14CF8
  8
0
  6
BYBLOCK
 62
     0
 10
7362.2187704885728
 20
4941.1885390000016
 30
0.0
 40
15.0
 50
0.0
 51
180.0
  0
ARC
  5
14CF9
  8
0
  6
BYBLOCK
 62
     0
 10
7362.2187704885728
 20
4941.1885390000016
 30
0.0
 40
15.0
 50
180.0
 51
0.0
  0
ARC
  5
14CFA
  8
0
  6
BYBLOCK
 62
     0
 10
7319.7187704885764
 20
4941.1885390000016
 30
0.0
 40
15.0
 50
180.0
 51
0.0
  0
ARC
  5
14CFB
  8
0
  6
BYBLOCK
 62
     0
 10
7319.7187704885764
 20
4941.1885390000016
 30
0.0
 40
15.0
 50
0.0
 51
180.0
  0
ARC
  5
14CFC
  8
0
  6
BYBLOCK
 62
     0
 10
12847.71877048856
 20
4941.1885390000016
 30
0.0
 40
15.0
 50
180.0
 51
0.0
  0
ARC
  5
14CFD
  8
0
  6
BYBLOCK
 62
     0
 10
12847.71877048856
 20
4941.1885390000016
 30
0.0
 40
15.0
 50
0.0
 51
180.0
  0
ARC
  5
14CFE
  8
0
  6
BYBLOCK
 62
     0
 10
12890.21877048856
 20
4941.1885390000016
 30
0.0
 40
15.0
 50
0.0
 51
180.0
  0
ARC
  5
14CFF
  8
0
  6
BYBLOCK
 62
     0
 10
12890.21877048856
 20
4941.1885390000016
 30
0.0
 40
15.0
 50
180.0
 51
0.0
  0
ARC
  5
14D00
  8
0
  6
BYBLOCK
 62
     0
 10
10280.21877048856
 20
4941.1885390000016
 30
0.0
 40
15.0
 50
0.0
 51
180.0
  0
ARC
  5
14D01
  8
0
  6
BYBLOCK
 62
     0
 10
10280.21877048856
 20
4941.1885390000016
 30
0.0
 40
15.0
 50
180.0
 51
0.0
  0
ARC
  5
14D02
  8
0
  6
BYBLOCK
 62
     0
 10
12847.71877048856
 20
4941.1885390000016
 30
0.0
 40
15.0
 50
180.0
 51
0.0
  0
ARC
  5
14D03
  8
0
  6
BYBLOCK
 62
     0
 10
12847.71877048856
 20
4941.1885390000016
 30
0.0
 40
15.0
 50
0.0
 51
180.0
  0
ARC
  5
14D04
  8
0
  6
BYBLOCK
 62
     0
 10
10280.21877048856
 20
4941.1885390000016
 30
0.0
 40
15.0
 50
180.0
 51
0.0
  0
ARC
  5
14D05
  8
0
  6
BYBLOCK
 62
     0
 10
10280.21877048856
 20
4941.1885390000016
 30
0.0
 40
15.0
 50
0.0
 51
180.0
  0
ARC
  5
14D06
  8
0
  6
BYBLOCK
 62
     0
 10
7362.2187704885728
 20
4941.1885390000016
 30
0.0
 40
15.0
 50
0.0
 51
180.0
  0
ARC
  5
14D07
  8
0
  6
BYBLOCK
 62
     0
 10
7362.2187704885728
 20
4941.1885390000016
 30
0.0
 40
15.0
 50
180.0
 51
0.0
  0
TEXT
  5
14DDE
  8
NAME
 10
21595.82616625919
 20
1076.6369801169251
 30
0.0
 40
360.0
  1
VGC-3055（H）+VKC-5055（H）型-L（単棟）
 41
0.45
  0
TEXT
  5
14DDF
  8
NAME
 10
21933.552716389011
 20
1876.0
 30
0.0
 40
360.0
  1
ヨドガレージ ラヴィージュ
 41
0.75
  7
01
  0
LINE
  5
14DE0
  8
NAME
  6
CONTINUOUS
 10
26067.886878884299
 20
2236.0
 30
0.0
 11
26067.886878884299
 21
1876.0
 31
0.0
  0
LINE
  5
14DE1
  8
NAME
  6
CONTINUOUS
 10
26167.886878884299
 20
2236.0
 30
0.0
 11
26167.886878884299
 21
1876.0
 31
0.0
  0
LINE
  5
14DE2
  8
NAME
  6
CONTINUOUS
 10
26267.88687888431
 20
2236.0
 30
0.0
 11
26267.88687888431
 21
1876.0
 31
0.0
  0
LINE
  5
14DE3
  8
NAME
  6
CONTINUOUS
 10
26007.886878884299
 20
2236.0
 30
0.0
 11
26327.886878884299
 21
2236.0
 31
0.0
  0
LINE
  5
14DE4
  8
NAME
  6
CONTINUOUS
 10
26327.886878884299
 20
1876.0
 30
0.0
 11
26007.886878884299
 21
1876.0
 31
0.0
  0
LINE
  5
14E2C
  8
2-0
  6
CENTER2
 62
     6
 10
25366.911886013801
 20
20960.489221
 30
0.0
 11
25366.911886013801
 21
13474.73309953157
 31
0.0
  0
LINE
  5
14E2F
  8
2-0
  6
CENTER2
 62
     6
 10
28284.911886013801
 20
20960.489221
 30
0.0
 11
28284.911886013801
 21
13474.73309953157
 31
0.0
  0
LINE
  5
150A9
  8
2-0
  6
CONTINUOUS
 62
     6
 10
26601.7529700138
 20
13192.48585600001
 30
0.0
 11
27601.74637201376
 21
13192.48585600001
 31
0.0
  0
LINE
  5
150AA
  8
2-0
  6
CONTINUOUS
 62
     6
 10
28069.686749013799
 20
13662.90657000001
 30
0.0
 11
27601.74637201376
 21
13192.48585600001
 31
0.0
  0
LINE
  5
150AB
  8
2-0
  6
CONTINUOUS
 62
     6
 10
28031.046546013778
 20
16854.514217000022
 30
0.0
 11
27726.35112801379
 21
16958.167748000029
 31
0.0
  0
LINE
  5
150AC
  8
2-0
  6
CONTINUOUS
 62
     6
 10
28186.068585013771
 20
16364.892173000029
 30
0.0
 11
27726.35112801379
 21
16120.978862000011
 31
0.0
  0
LINE
  5
150AD
  8
2-0
  6
CONTINUOUS
 62
     6
 10
26806.348093013781
 20
16120.978862000011
 30
0.0
 11
27726.35112801379
 21
16120.978862000011
 31
0.0
  0
LINE
  5
150AE
  8
2-0
  6
CONTINUOUS
 62
     6
 10
26526.357066013788
 20
16958.167748000029
 30
0.0
 11
27726.35112801379
 21
16958.167748000029
 31
0.0
  0
LINE
  5
150AF
  8
2-0
  6
CONTINUOUS
 62
     6
 10
28102.24587001379
 20
13984.590216000001
 30
0.0
 11
27726.35112801379
 21
14165.53405100001
 31
0.0
  0
LINE
  5
150B0
  8
2-0
  6
CONTINUOUS
 62
     6
 10
27206.349412013791
 20
14165.53405100001
 30
0.0
 11
27726.35112801379
 21
14165.53405100001
 31
0.0
  0
LINE
  5
150B1
  8
2-0
  6
CONTINUOUS
 62
     4
 10
25366.911886013801
 20
19440.487506000019
 30
0.0
 11
25366.911886013801
 21
20170.484471000011
 31
0.0
  0
LINE
  5
150B2
  8
2-0
  6
CONTINUOUS
 62
     3
 10
28297.412546013791
 20
19251.485052000018
 30
0.0
 11
28297.412546013791
 21
19245.489090000021
 31
0.0
  0
LINE
  5
150B3
  8
2-0
  6
CONTINUOUS
 62
     3
 10
28297.412546013791
 20
19245.489090000021
 30
0.0
 11
28327.41017001378
 21
19245.489090000021
 31
0.0
  0
LINE
  5
150B4
  8
2-0
  6
CONTINUOUS
 62
     3
 10
28327.41017001378
 20
19275.488694
 30
0.0
 11
28246.408270013781
 21
19275.488694
 31
0.0
  0
LINE
  5
150B5
  8
2-0
  6
CONTINUOUS
 62
     3
 10
28297.412546013791
 20
19235.19163400001
 30
0.0
 11
28327.41017001378
 21
19235.19163400001
 31
0.0
  0
LINE
  5
150B6
  8
2-0
  6
CONTINUOUS
 62
     3
 10
28297.412546013791
 20
19253.193376000028
 30
0.0
 11
28297.412546013791
 21
19235.19163400001
 31
0.0
  0
LINE
  5
150B7
  8
2-0
  6
CONTINUOUS
 62
     3
 10
28322.409906013789
 20
19253.193376000028
 30
0.0
 11
28297.412546013791
 21
19253.193376000028
 31
0.0
  0
LINE
  5
150B8
  8
2-0
  6
CONTINUOUS
 62
     3
 10
28322.409906013789
 20
19248.18519400002
 30
0.0
 11
28322.409906013789
 21
19253.193376000028
 31
0.0
  0
LINE
  5
150B9
  8
2-0
  6
CONTINUOUS
 62
     3
 10
28315.4083490138
 20
19248.18519400002
 30
0.0
 11
28322.409906013789
 21
19248.18519400002
 31
0.0
  0
LINE
  5
150BA
  8
2-0
  6
CONTINUOUS
 62
     3
 10
28215.112081013802
 20
19348.485421000009
 30
0.0
 11
28215.112081013802
 21
19355.49093700002
 31
0.0
  0
LINE
  5
150BB
  8
2-0
  6
CONTINUOUS
 62
     3
 10
28215.112081013802
 20
19355.49093700002
 30
0.0
 11
28220.112345013771
 21
19355.49093700002
 31
0.0
  0
LINE
  5
150BC
  8
2-0
  6
CONTINUOUS
 62
     3
 10
28220.112345013771
 20
19355.49093700002
 30
0.0
 11
28220.112345013771
 21
19330.481700000018
 31
0.0
  0
LINE
  5
150BD
  8
2-0
  6
CONTINUOUS
 62
     3
 10
28220.112345013771
 20
19330.481700000018
 30
0.0
 11
28202.110603013771
 21
19330.481700000018
 31
0.0
  0
LINE
  5
150BE
  8
2-0
  6
CONTINUOUS
 62
     3
 10
28202.110603013771
 20
19330.481700000018
 30
0.0
 11
28202.110603013771
 21
19360.48526300002
 31
0.0
  0
LINE
  5
150BF
  8
2-0
  6
CONTINUOUS
 62
     3
 10
28212.408059013789
 20
19360.48526300002
 30
0.0
 11
28327.41017001378
 21
19360.48526300002
 31
0.0
  0
LINE
  5
150C0
  8
2-0
  6
CONTINUOUS
 62
     3
 10
28212.408059013789
 20
19330.481700000018
 30
0.0
 11
28212.408059013789
 21
19360.48526300002
 31
0.0
  0
LINE
  5
150C1
  8
2-0
  6
CONTINUOUS
 62
     3
 10
28218.409959013788
 20
19330.481700000018
 30
0.0
 11
28212.408059013789
 21
19330.481700000018
 31
0.0
  0
LINE
  5
150C2
  8
2-0
  6
CONTINUOUS
 62
     3
 10
28315.4083490138
 20
18894.888371500001
 30
0.0
 11
28322.409906013789
 21
18894.888371500001
 31
0.0
  0
LINE
  5
150C3
  8
2-0
  6
CONTINUOUS
 62
     3
 10
28322.409906013789
 20
18894.888371500001
 30
0.0
 11
28322.409906013789
 21
18899.8886355
 31
0.0
  0
LINE
  5
150C4
  8
2-0
  6
CONTINUOUS
 62
     3
 10
28322.409906013789
 20
18899.8886355
 30
0.0
 11
28297.412546013791
 21
18899.8886355
 31
0.0
  0
LINE
  5
150C5
  8
2-0
  6
CONTINUOUS
 62
     3
 10
28297.412546013791
 20
18899.8886355
 30
0.0
 11
28297.412546013791
 21
18881.892831500008
 31
0.0
  0
LINE
  5
150C6
  8
2-0
  6
CONTINUOUS
 62
     3
 10
28297.412546013791
 20
18881.892831500008
 30
0.0
 11
28327.41017001378
 21
18881.892831500008
 31
0.0
  0
LINE
  5
150C7
  8
2-0
  6
CONTINUOUS
 62
     3
 10
28297.412546013791
 20
18897.984338499969
 30
0.0
 11
28297.412546013791
 21
18891.986397500012
 31
0.0
  0
LINE
  5
150C8
  8
2-0
  6
CONTINUOUS
 62
     3
 10
28297.412546013791
 20
18891.986397500012
 30
0.0
 11
28327.41017001378
 21
18891.986397500012
 31
0.0
  0
LINE
  5
150C9
  8
2-0
  6
CONTINUOUS
 62
     3
 10
28327.41017001378
 20
18891.986397500012
 30
0.0
 11
28327.41017001378
 21
18928.987558500012
 31
0.0
  0
LINE
  5
150CA
  8
2-0
  6
CONTINUOUS
 62
     3
 10
28297.412546013791
 20
18928.987558500012
 30
0.0
 11
28327.41017001378
 21
18928.987558500012
 31
0.0
  0
LINE
  5
150CB
  8
2-0
  6
CONTINUOUS
 62
     3
 10
28297.412546013791
 20
18922.98367849999
 30
0.0
 11
28297.412546013791
 21
18928.987558500012
 31
0.0
  0
LINE
  5
150CC
  8
2-0
  6
CONTINUOUS
 62
     3
 10
28297.412546013791
 20
18939.083103500001
 30
0.0
 11
28327.41017001378
 21
18939.083103500001
 31
0.0
  0
LINE
  5
150CD
  8
2-0
  6
CONTINUOUS
 62
     3
 10
28297.412546013791
 20
18921.081361500001
 30
0.0
 11
28297.412546013791
 21
18939.083103500001
 31
0.0
  0
LINE
  5
150CE
  8
2-0
  6
CONTINUOUS
 62
     3
 10
28322.409906013789
 20
18921.081361500001
 30
0.0
 11
28297.412546013791
 21
18921.081361500001
 31
0.0
  0
LINE
  5
150CF
  8
2-0
  6
CONTINUOUS
 62
     3
 10
28322.409906013789
 20
18926.08162550001
 30
0.0
 11
28322.409906013789
 21
18921.081361500001
 31
0.0
  0
LINE
  5
150D0
  8
2-0
  6
CONTINUOUS
 62
     3
 10
28315.4083490138
 20
18926.08162550001
 30
0.0
 11
28322.409906013789
 21
18926.08162550001
 31
0.0
  0
LINE
  5
150D1
  8
2-0
  6
CONTINUOUS
 62
     3
 10
28315.4083490138
 20
18193.887382000012
 30
0.0
 11
28322.409906013789
 21
18193.887382000012
 31
0.0
  0
LINE
  5
150D2
  8
2-0
  6
CONTINUOUS
 62
     3
 10
28322.409906013789
 20
18193.887382000012
 30
0.0
 11
28322.409906013789
 21
18198.893584000009
 31
0.0
  0
LINE
  5
150D3
  8
2-0
  6
CONTINUOUS
 62
     3
 10
28322.409906013789
 20
18198.893584000009
 30
0.0
 11
28297.412546013791
 21
18198.893584000009
 31
0.0
  0
LINE
  5
150D4
  8
2-0
  6
CONTINUOUS
 62
     3
 10
28297.412546013791
 20
18198.893584000009
 30
0.0
 11
28297.412546013791
 21
18180.891842000008
 31
0.0
  0
LINE
  5
150D5
  8
2-0
  6
CONTINUOUS
 62
     3
 10
28297.412546013791
 20
18180.891842000008
 30
0.0
 11
28327.41017001378
 21
18180.891842000008
 31
0.0
  0
LINE
  5
150D6
  8
2-0
  6
CONTINUOUS
 62
     3
 10
28297.412546013791
 20
18196.983348999998
 30
0.0
 11
28297.412546013791
 21
18190.987387000008
 31
0.0
  0
LINE
  5
150D7
  8
2-0
  6
CONTINUOUS
 62
     3
 10
28297.412546013791
 20
18190.987387000008
 30
0.0
 11
28327.41017001378
 21
18190.987387000008
 31
0.0
  0
LINE
  5
150D8
  8
2-0
  6
CONTINUOUS
 62
     3
 10
28327.41017001378
 20
18190.987387000008
 30
0.0
 11
28327.41017001378
 21
18227.986569000001
 31
0.0
  0
LINE
  5
150D9
  8
2-0
  6
CONTINUOUS
 62
     3
 10
28297.412546013791
 20
18227.986569000001
 30
0.0
 11
28327.41017001378
 21
18227.986569000001
 31
0.0
  0
LINE
  5
150DA
  8
2-0
  6
CONTINUOUS
 62
     3
 10
28297.412546013791
 20
18221.990607000011
 30
0.0
 11
28297.412546013791
 21
18227.986569000001
 31
0.0
  0
LINE
  5
150DB
  8
2-0
  6
CONTINUOUS
 62
     3
 10
28297.412546013791
 20
18238.082114000012
 30
0.0
 11
28327.41017001378
 21
18238.082114000012
 31
0.0
  0
LINE
  5
150DC
  8
2-0
  6
CONTINUOUS
 62
     3
 10
28297.412546013791
 20
18220.080372
 30
0.0
 11
28297.412546013791
 21
18238.082114000012
 31
0.0
  0
LINE
  5
150DD
  8
2-0
  6
CONTINUOUS
 62
     3
 10
28322.409906013789
 20
18220.080372
 30
0.0
 11
28297.412546013791
 21
18220.080372
 31
0.0
  0
LINE
  5
150DE
  8
2-0
  6
CONTINUOUS
 62
     3
 10
28322.409906013789
 20
18225.086574000012
 30
0.0
 11
28322.409906013789
 21
18220.080372
 31
0.0
  0
LINE
  5
150DF
  8
2-0
  6
CONTINUOUS
 62
     3
 10
28315.4083490138
 20
18225.086574000012
 30
0.0
 11
28322.409906013789
 21
18225.086574000012
 31
0.0
  0
LINE
  5
150E0
  8
2-0
  6
CONTINUOUS
 62
     3
 10
28315.4083490138
 20
17524.08063600001
 30
0.0
 11
28322.409906013789
 21
17524.08063600001
 31
0.0
  0
LINE
  5
150E1
  8
2-0
  6
CONTINUOUS
 62
     3
 10
28322.409906013789
 20
17524.08063600001
 30
0.0
 11
28322.409906013789
 21
17519.092249000019
 31
0.0
  0
LINE
  5
150E2
  8
2-0
  6
CONTINUOUS
 62
     3
 10
28322.409906013789
 20
17519.092249000019
 30
0.0
 11
28297.412546013791
 21
17519.092249000019
 31
0.0
  0
LINE
  5
150E3
  8
2-0
  6
CONTINUOUS
 62
     3
 10
28297.412546013791
 20
17519.092249000019
 30
0.0
 11
28297.412546013791
 21
17537.08805200001
 31
0.0
  0
LINE
  5
150E4
  8
2-0
  6
CONTINUOUS
 62
     3
 10
28297.412546013791
 20
17537.08805200001
 30
0.0
 11
28327.41017001378
 21
17537.08805200001
 31
0.0
  0
LINE
  5
150E5
  8
2-0
  6
CONTINUOUS
 62
     3
 10
28297.412546013791
 20
17520.990607
 30
0.0
 11
28297.412546013791
 21
17526.986569000001
 31
0.0
  0
LINE
  5
150E6
  8
2-0
  6
CONTINUOUS
 62
     3
 10
28297.412546013791
 20
17526.986569000001
 30
0.0
 11
28327.41017001378
 21
17526.986569000001
 31
0.0
  0
LINE
  5
150E7
  8
2-0
  6
CONTINUOUS
 62
     3
 10
28327.41017001378
 20
17526.986569000001
 30
0.0
 11
28327.41017001378
 21
17489.987387000019
 31
0.0
  0
LINE
  5
150E8
  8
2-0
  6
CONTINUOUS
 62
     3
 10
28297.412546013791
 20
17489.987387000019
 30
0.0
 11
28327.41017001378
 21
17489.987387000019
 31
0.0
  0
LINE
  5
150E9
  8
2-0
  6
CONTINUOUS
 62
     3
 10
28297.412546013791
 20
17495.989288000001
 30
0.0
 11
28297.412546013791
 21
17489.987387000019
 31
0.0
  0
LINE
  5
150EA
  8
2-0
  6
CONTINUOUS
 62
     3
 10
28297.412546013791
 20
17479.897781
 30
0.0
 11
28327.41017001378
 21
17479.897781
 31
0.0
  0
LINE
  5
150EB
  8
2-0
  6
CONTINUOUS
 62
     3
 10
28297.412546013791
 20
17497.893584000009
 30
0.0
 11
28297.412546013791
 21
17479.897781
 31
0.0
  0
LINE
  5
150EC
  8
2-0
  6
CONTINUOUS
 62
     3
 10
28322.409906013789
 20
17497.893584000009
 30
0.0
 11
28297.412546013791
 21
17497.893584000009
 31
0.0
  0
LINE
  5
150ED
  8
2-0
  6
CONTINUOUS
 62
     3
 10
28322.409906013789
 20
17492.893321
 30
0.0
 11
28322.409906013789
 21
17497.893584000009
 31
0.0
  0
LINE
  5
150EE
  8
2-0
  6
CONTINUOUS
 62
     3
 10
28315.4083490138
 20
17492.893321
 30
0.0
 11
28322.409906013789
 21
17492.893321
 31
0.0
  0
LINE
  5
150EF
  8
2-0
  6
CONTINUOUS
 62
     3
 10
28324.5240320138
 20
16772.984207000009
 30
0.0
 11
28324.5240320138
 21
16792.985262000009
 31
0.0
  0
LINE
  5
150F0
  8
2-0
  6
CONTINUOUS
 62
     3
 10
28324.5240320138
 20
16792.985262000009
 30
0.0
 11
28239.527463013779
 21
16792.985262000009
 31
0.0
  0
LINE
  5
150F1
  8
2-0
  6
CONTINUOUS
 62
     3
 10
28315.4083490138
 20
16819.591972000009
 30
0.0
 11
28322.409906013789
 21
16819.591972000009
 31
0.0
  0
LINE
  5
150F2
  8
2-0
  6
CONTINUOUS
 62
     3
 10
28322.409906013789
 20
16819.591972000009
 30
0.0
 11
28322.409906013789
 21
16814.59764600002
 31
0.0
  0
LINE
  5
150F3
  8
2-0
  6
CONTINUOUS
 62
     3
 10
28322.409906013789
 20
16814.59764600002
 30
0.0
 11
28297.412546013791
 21
16814.59764600002
 31
0.0
  0
LINE
  5
150F4
  8
2-0
  6
CONTINUOUS
 62
     3
 10
28297.412546013791
 20
16814.59764600002
 30
0.0
 11
28297.412546013791
 21
16832.593450000011
 31
0.0
  0
LINE
  5
150F5
  8
2-0
  6
CONTINUOUS
 62
     3
 10
28297.412546013791
 20
16832.593450000011
 30
0.0
 11
28327.41017001378
 21
16832.593450000011
 31
0.0
  0
LINE
  5
150F6
  8
2-0
  6
CONTINUOUS
 62
     3
 10
28297.412546013791
 20
16822.984865999999
 30
0.0
 11
28297.412546013791
 21
16816.982966
 31
0.0
  0
LINE
  5
150F7
  8
2-0
  6
CONTINUOUS
 62
     3
 10
28327.41017001378
 20
16822.984865999999
 30
0.0
 11
28297.412546013791
 21
16822.984865999999
 31
0.0
  0
LINE
  5
150F8
  8
2-0
  6
CONTINUOUS
 62
     3
 10
28327.41017001378
 20
16832.593450000011
 30
0.0
 11
28327.41017001378
 21
17479.897781
 31
0.0
  0
LINE
  5
150F9
  8
2-0
  6
CONTINUOUS
 62
     3
 10
28327.41017001378
 20
17537.08805200001
 30
0.0
 11
28327.41017001378
 21
18180.891842000008
 31
0.0
  0
LINE
  5
150FA
  8
2-0
  6
CONTINUOUS
 62
     3
 10
28327.41017001378
 20
16677.983151000019
 30
0.0
 11
28297.412546013791
 21
16677.983151000019
 31
0.0
  0
LINE
  5
150FB
  8
2-0
  6
CONTINUOUS
 62
     3
 10
28297.412546013791
 20
16677.983151000019
 30
0.0
 11
28297.412546013791
 21
16683.985051
 31
0.0
  0
LINE
  5
150FC
  8
2-0
  6
CONTINUOUS
 62
     3
 10
28239.527463013779
 20
16707.988694
 30
0.0
 11
28324.5240320138
 21
16707.988694
 31
0.0
  0
LINE
  5
150FD
  8
2-0
  6
CONTINUOUS
 62
     3
 10
28324.5240320138
 20
16707.988694
 30
0.0
 11
28324.5240320138
 21
16727.98381100002
 31
0.0
  0
LINE
  5
150FE
  8
2-0
  6
CONTINUOUS
 62
     3
 10
28297.412546013791
 20
16668.37456800001
 30
0.0
 11
28327.41017001378
 21
16668.37456800001
 31
0.0
  0
LINE
  5
150FF
  8
2-0
  6
CONTINUOUS
 62
     3
 10
28297.412546013791
 20
16686.37037099999
 30
0.0
 11
28297.412546013791
 21
16668.37456800001
 31
0.0
  0
LINE
  5
15100
  8
2-0
  6
CONTINUOUS
 62
     3
 10
28322.409906013789
 20
16686.37037099999
 30
0.0
 11
28297.412546013791
 21
16686.37037099999
 31
0.0
  0
LINE
  5
15101
  8
2-0
  6
CONTINUOUS
 62
     3
 10
28322.409906013789
 20
16681.37010700001
 30
0.0
 11
28322.409906013789
 21
16686.37037099999
 31
0.0
  0
LINE
  5
15102
  8
2-0
  6
CONTINUOUS
 62
     3
 10
28315.4083490138
 20
16681.37010700001
 30
0.0
 11
28322.409906013789
 21
16681.37010700001
 31
0.0
  0
LINE
  5
15103
  8
2-0
  6
CONTINUOUS
 62
     3
 10
28315.4083490138
 20
15976.88787649999
 30
0.0
 11
28322.409906013789
 21
15976.88787649999
 31
0.0
  0
LINE
  5
15104
  8
2-0
  6
CONTINUOUS
 62
     3
 10
28322.409906013789
 20
15976.88787649999
 30
0.0
 11
28322.409906013789
 21
15981.888140499999
 31
0.0
  0
LINE
  5
15105
  8
2-0
  6
CONTINUOUS
 62
     3
 10
28322.409906013789
 20
15981.888140499999
 30
0.0
 11
28297.412546013791
 21
15981.888140499999
 31
0.0
  0
LINE
  5
15106
  8
2-0
  6
CONTINUOUS
 62
     3
 10
28297.412546013791
 20
15981.888140499999
 30
0.0
 11
28297.412546013791
 21
15963.88639850001
 31
0.0
  0
LINE
  5
15107
  8
2-0
  6
CONTINUOUS
 62
     3
 10
28297.412546013791
 20
15963.88639850001
 30
0.0
 11
28327.41017001378
 21
15963.88639850001
 31
0.0
  0
LINE
  5
15108
  8
2-0
  6
CONTINUOUS
 62
     3
 10
28297.412546013791
 20
15979.983843500009
 30
0.0
 11
28297.412546013791
 21
15973.98689250001
 31
0.0
  0
LINE
  5
15109
  8
2-0
  6
CONTINUOUS
 62
     3
 10
28297.412546013791
 20
15973.98689250001
 30
0.0
 11
28327.41017001378
 21
15973.98689250001
 31
0.0
  0
LINE
  5
1510A
  8
2-0
  6
CONTINUOUS
 62
     3
 10
28327.41017001378
 20
15973.98689250001
 30
0.0
 11
28327.41017001378
 21
16010.98706350001
 31
0.0
  0
LINE
  5
1510B
  8
2-0
  6
CONTINUOUS
 62
     3
 10
28297.412546013791
 20
16010.98706350001
 30
0.0
 11
28327.41017001378
 21
16010.98706350001
 31
0.0
  0
LINE
  5
1510C
  8
2-0
  6
CONTINUOUS
 62
     3
 10
28297.412546013791
 20
16004.984173500001
 30
0.0
 11
28297.412546013791
 21
16010.98706350001
 31
0.0
  0
LINE
  5
1510D
  8
2-0
  6
CONTINUOUS
 62
     3
 10
28297.412546013791
 20
16021.08260850001
 30
0.0
 11
28327.41017001378
 21
16021.08260850001
 31
0.0
  0
LINE
  5
1510E
  8
2-0
  6
CONTINUOUS
 62
     3
 10
28297.412546013791
 20
16003.074927500011
 30
0.0
 11
28297.412546013791
 21
16021.08260850001
 31
0.0
  0
LINE
  5
1510F
  8
2-0
  6
CONTINUOUS
 62
     3
 10
28322.409906013789
 20
16003.074927500011
 30
0.0
 11
28297.412546013791
 21
16003.074927500011
 31
0.0
  0
LINE
  5
15110
  8
2-0
  6
CONTINUOUS
 62
     3
 10
28322.409906013789
 20
16008.08113050001
 30
0.0
 11
28322.409906013789
 21
16003.074927500011
 31
0.0
  0
LINE
  5
15111
  8
2-0
  6
CONTINUOUS
 62
     3
 10
28315.4083490138
 20
16008.08113050001
 30
0.0
 11
28322.409906013789
 21
16008.08113050001
 31
0.0
  0
LINE
  5
15112
  8
2-0
  6
CONTINUOUS
 62
     3
 10
28315.4083490138
 20
15307.321147000021
 30
0.0
 11
28322.409906013789
 21
15307.321147000021
 31
0.0
  0
LINE
  5
15113
  8
2-0
  6
CONTINUOUS
 62
     3
 10
28322.409906013789
 20
15307.321147000021
 30
0.0
 11
28322.409906013789
 21
15302.326822000019
 31
0.0
  0
LINE
  5
15114
  8
2-0
  6
CONTINUOUS
 62
     3
 10
28322.409906013789
 20
15302.326822000019
 30
0.0
 11
28297.412546013791
 21
15302.326822000019
 31
0.0
  0
LINE
  5
15115
  8
2-0
  6
CONTINUOUS
 62
     3
 10
28297.412546013791
 20
15302.326822000019
 30
0.0
 11
28297.412546013791
 21
15320.322625000021
 31
0.0
  0
LINE
  5
15116
  8
2-0
  6
CONTINUOUS
 62
     3
 10
28297.412546013791
 20
15320.322625000021
 30
0.0
 11
28327.41017001378
 21
15320.322625000021
 31
0.0
  0
LINE
  5
15117
  8
2-0
  6
CONTINUOUS
 62
     3
 10
28297.412546013791
 20
15304.22518000001
 30
0.0
 11
28297.412546013791
 21
15310.227080000021
 31
0.0
  0
LINE
  5
15118
  8
2-0
  6
CONTINUOUS
 62
     3
 10
28297.412546013791
 20
15310.227080000021
 30
0.0
 11
28327.41017001378
 21
15310.227080000021
 31
0.0
  0
LINE
  5
15119
  8
2-0
  6
CONTINUOUS
 62
     3
 10
28327.41017001378
 20
15273.22789900003
 30
0.0
 11
28327.41017001378
 21
15310.227080000021
 31
0.0
  0
LINE
  5
1511A
  8
2-0
  6
CONTINUOUS
 62
     3
 10
28297.412546013791
 20
15273.22789900003
 30
0.0
 11
28327.41017001378
 21
15273.22789900003
 31
0.0
  0
LINE
  5
1511B
  8
2-0
  6
CONTINUOUS
 62
     3
 10
28297.412546013791
 20
15279.224850000021
 30
0.0
 11
28297.412546013791
 21
15273.22789900003
 31
0.0
  0
LINE
  5
1511C
  8
2-0
  6
CONTINUOUS
 62
     3
 10
28297.412546013791
 20
15263.126415000021
 30
0.0
 11
28327.41017001378
 21
15263.126415000021
 31
0.0
  0
LINE
  5
1511D
  8
2-0
  6
CONTINUOUS
 62
     3
 10
28297.412546013791
 20
15281.134096000011
 30
0.0
 11
28297.412546013791
 21
15263.126415000021
 31
0.0
  0
LINE
  5
1511E
  8
2-0
  6
CONTINUOUS
 62
     3
 10
28322.409906013789
 20
15281.134096000011
 30
0.0
 11
28297.412546013791
 21
15281.134096000011
 31
0.0
  0
LINE
  5
1511F
  8
2-0
  6
CONTINUOUS
 62
     3
 10
28322.409906013789
 20
15276.13383200003
 30
0.0
 11
28322.409906013789
 21
15281.134096000011
 31
0.0
  0
LINE
  5
15120
  8
2-0
  6
CONTINUOUS
 62
     3
 10
28315.4083490138
 20
15276.13383200003
 30
0.0
 11
28322.409906013789
 21
15276.13383200003
 31
0.0
  0
LINE
  5
15121
  8
2-0
  6
CONTINUOUS
 62
     3
 10
28327.41017001378
 20
16668.37456800001
 30
0.0
 11
28327.41017001378
 21
16021.08260850001
 31
0.0
  0
LINE
  5
15122
  8
2-0
  6
CONTINUOUS
 62
     3
 10
28327.41017001378
 20
16822.984865999999
 30
0.0
 11
28327.41017001378
 21
16677.983151000019
 31
0.0
  0
LINE
  5
15123
  8
2-0
  6
CONTINUOUS
 62
     3
 10
28239.527463013779
 20
16792.985262000009
 30
0.0
 11
28239.527463013779
 21
16707.988694
 31
0.0
  0
LINE
  5
15124
  8
2-0
  6
CONTINUOUS
 62
     6
 10
26701.318796013791
 20
18561.43252749999
 30
0.0
 11
27726.35112801379
 21
18561.43252749999
 31
0.0
  0
LINE
  5
15125
  8
2-0
  6
CONTINUOUS
 62
     3
 10
28315.4083490138
 20
14574.89282500001
 30
0.0
 11
28322.409906013789
 21
14574.89282500001
 31
0.0
  0
LINE
  5
15126
  8
2-0
  6
CONTINUOUS
 62
     3
 10
28322.409906013789
 20
14574.89282500001
 30
0.0
 11
28322.409906013789
 21
14579.887151000021
 31
0.0
  0
LINE
  5
15127
  8
2-0
  6
CONTINUOUS
 62
     3
 10
28322.409906013789
 20
14579.887151000021
 30
0.0
 11
28297.412546013791
 21
14579.887151000021
 31
0.0
  0
LINE
  5
15128
  8
2-0
  6
CONTINUOUS
 62
     3
 10
28297.412546013791
 20
14579.887151000021
 30
0.0
 11
28297.412546013791
 21
14561.89134700001
 31
0.0
  0
LINE
  5
15129
  8
2-0
  6
CONTINUOUS
 62
     3
 10
28297.412546013791
 20
14561.89134700001
 30
0.0
 11
28327.41017001378
 21
14561.89134700001
 31
0.0
  0
LINE
  5
1512A
  8
2-0
  6
CONTINUOUS
 62
     3
 10
28297.412546013791
 20
14577.989782000021
 30
0.0
 11
28297.412546013791
 21
14571.986892000021
 31
0.0
  0
LINE
  5
1512B
  8
2-0
  6
CONTINUOUS
 62
     3
 10
28297.412546013791
 20
14571.986892000021
 30
0.0
 11
28327.41017001378
 21
14571.986892000021
 31
0.0
  0
LINE
  5
1512C
  8
2-0
  6
CONTINUOUS
 62
     3
 10
28327.41017001378
 20
14571.986892000021
 30
0.0
 11
28327.41017001378
 21
14608.987064000001
 31
0.0
  0
LINE
  5
1512D
  8
2-0
  6
CONTINUOUS
 62
     3
 10
28297.412546013791
 20
14608.987064000001
 30
0.0
 11
28327.41017001378
 21
14608.987064000001
 31
0.0
  0
LINE
  5
1512E
  8
2-0
  6
CONTINUOUS
 62
     3
 10
28297.412546013791
 20
14602.99011200001
 30
0.0
 11
28297.412546013791
 21
14608.987064000001
 31
0.0
  0
LINE
  5
1512F
  8
2-0
  6
CONTINUOUS
 62
     3
 10
28297.412546013791
 20
14619.087557000021
 30
0.0
 11
28327.41017001378
 21
14619.087557000021
 31
0.0
  0
LINE
  5
15130
  8
2-0
  6
CONTINUOUS
 62
     3
 10
28297.412546013791
 20
14601.08086600002
 30
0.0
 11
28297.412546013791
 21
14619.087557000021
 31
0.0
  0
LINE
  5
15131
  8
2-0
  6
CONTINUOUS
 62
     3
 10
28322.409906013789
 20
14601.08086600002
 30
0.0
 11
28297.412546013791
 21
14601.08086600002
 31
0.0
  0
LINE
  5
15132
  8
2-0
  6
CONTINUOUS
 62
     3
 10
28322.409906013789
 20
14606.086079000021
 30
0.0
 11
28322.409906013789
 21
14601.08086600002
 31
0.0
  0
LINE
  5
15133
  8
2-0
  6
CONTINUOUS
 62
     3
 10
28315.4083490138
 20
14606.086079000021
 30
0.0
 11
28322.409906013789
 21
14606.086079000021
 31
0.0
  0
LINE
  5
15134
  8
2-0
  6
CONTINUOUS
 62
     3
 10
28297.412546013791
 20
13898.988905000009
 30
0.0
 11
28297.412546013791
 21
13904.99377400001
 31
0.0
  0
LINE
  5
15135
  8
2-0
  6
CONTINUOUS
 62
     3
 10
28297.412546013791
 20
13904.99377400001
 30
0.0
 11
28327.41017001378
 21
13904.99377400001
 31
0.0
  0
LINE
  5
15136
  8
2-0
  6
CONTINUOUS
 62
     3
 10
28327.41017001378
 20
13904.99377400001
 30
0.0
 11
28327.41017001378
 21
13789.989683000011
 31
0.0
  0
LINE
  5
15137
  8
2-0
  6
CONTINUOUS
 62
     3
 10
28327.41017001378
 20
13789.989683000011
 30
0.0
 11
28242.411622013791
 21
13789.989683000011
 31
0.0
  0
LINE
  5
15138
  8
2-0
  6
CONTINUOUS
 62
     3
 10
28242.411622013791
 20
13789.989683000011
 30
0.0
 11
28242.411622013791
 21
13874.985262000009
 31
0.0
  0
LINE
  5
15139
  8
2-0
  6
CONTINUOUS
 62
     3
 10
28242.411622013791
 20
13874.985262000009
 30
0.0
 11
28274.410540013789
 21
13874.985262000009
 31
0.0
  0
LINE
  5
1513A
  8
2-0
  6
CONTINUOUS
 62
     3
 10
28315.4083490138
 20
13902.023507000011
 30
0.0
 11
28322.409906013789
 21
13902.023507000011
 31
0.0
  0
LINE
  5
1513B
  8
2-0
  6
CONTINUOUS
 62
     3
 10
28322.409906013789
 20
13902.023507000011
 30
0.0
 11
28322.409906013789
 21
13897.02621199999
 31
0.0
  0
LINE
  5
1513C
  8
2-0
  6
CONTINUOUS
 62
     3
 10
28322.409906013789
 20
13897.02621199999
 30
0.0
 11
28297.412546013791
 21
13897.02621199999
 31
0.0
  0
LINE
  5
1513D
  8
2-0
  6
CONTINUOUS
 62
     3
 10
28297.412546013791
 20
13897.02621199999
 30
0.0
 11
28297.412546013791
 21
13915.024985000009
 31
0.0
  0
LINE
  5
1513E
  8
2-0
  6
CONTINUOUS
 62
     3
 10
28297.412546013791
 20
13915.024985000009
 30
0.0
 11
28327.41017001378
 21
13915.024985000009
 31
0.0
  0
LINE
  5
1513F
  8
2-0
  6
CENTER2
 62
     6
 10
28284.911886013801
 20
13592.492125000001
 30
0.0
 11
28284.911886013801
 21
14748.36088300003
 31
0.0
  0
LINE
  5
15140
  8
2-0
  6
CONTINUOUS
 62
     3
 10
28327.41017001378
 20
18238.082114000012
 30
0.0
 11
28327.41017001378
 21
18881.892831500008
 31
0.0
  0
LINE
  5
15141
  8
2-0
  6
CONTINUOUS
 62
     6
 10
29019.915053013781
 20
20090.488166000039
 30
0.0
 11
30219.909115013768
 21
20090.488166000039
 31
0.0
  0
LINE
  5
15142
  8
2-0
  6
CONTINUOUS
 62
     6
 10
28157.882220013769
 20
18803.587035500012
 30
0.0
 11
27726.35112801379
 21
18561.43252749999
 31
0.0
  0
LINE
  5
15143
  8
2-0
  6
CONTINUOUS
 62
     6
 10
28479.451054013771
 20
19503.165003000009
 30
0.0
 11
29019.915053013781
 21
20090.488166000039
 31
0.0
  0
LINE
  5
15144
  8
2-0
  6
CONTINUOUS
 62
     3
 10
28327.41017001378
 20
15963.88639850001
 30
0.0
 11
28327.41017001378
 21
15320.322625000021
 31
0.0
  0
LINE
  5
15145
  8
2-0
  6
CONTINUOUS
 62
     6
 10
28144.82531501379
 20
18826.84637950001
 30
0.0
 11
28297.412546013791
 21
18881.892831500008
 31
0.0
  0
LINE
  5
15146
  8
2-0
  6
CONTINUOUS
 62
     6
 10
28297.412546013791
 20
18881.892831500008
 30
0.0
 11
28170.931206013789
 21
18780.333631499991
 31
0.0
  0
LINE
  5
15147
  8
2-0
  6
CONTINUOUS
 62
     6
 10
28144.82531501379
 20
18826.84637950001
 30
0.0
 11
28170.931206013789
 21
18780.333631499991
 31
0.0
  0
LINE
  5
15148
  8
2-0
  6
CONTINUOUS
 62
     6
 10
28170.931206013789
 20
18780.333631499991
 30
0.0
 11
28297.412546013791
 21
18881.892831500008
 31
0.0
  0
LINE
  5
15149
  8
2-0
  6
CONTINUOUS
 62
     6
 10
28297.412546013791
 20
18881.892831500008
 30
0.0
 11
28144.82531501379
 21
18826.84637950001
 31
0.0
  0
LINE
  5
1514A
  8
2-0
  6
CONTINUOUS
 62
     6
 10
28144.82531501379
 20
18826.84637950001
 30
0.0
 11
28297.412546013791
 21
18881.892831500008
 31
0.0
  0
LINE
  5
1514B
  8
2-0
  6
CONTINUOUS
 62
     6
 10
28170.931206013789
 20
18780.333631499991
 30
0.0
 11
28297.412546013791
 21
18881.892831500008
 31
0.0
  0
LINE
  5
1514C
  8
2-0
  6
CONTINUOUS
 62
     6
 10
28170.931206013789
 20
18780.333631499991
 30
0.0
 11
28144.82531501379
 21
18826.84637950001
 31
0.0
  0
LINE
  5
1514D
  8
2-0
  6
CONTINUOUS
 62
     6
 10
28499.06808301379
 20
19485.10387600003
 30
0.0
 11
28371.106063013802
 21
19385.421258000009
 31
0.0
  0
LINE
  5
1514E
  8
2-0
  6
CONTINUOUS
 62
     6
 10
28371.106063013802
 20
19385.421258000009
 30
0.0
 11
28459.820168013772
 21
19521.218213000029
 31
0.0
  0
LINE
  5
1514F
  8
2-0
  6
CONTINUOUS
 62
     6
 10
28499.06808301379
 20
19485.10387600003
 30
0.0
 11
28459.820168013772
 21
19521.218213000029
 31
0.0
  0
LINE
  5
15150
  8
2-0
  6
CONTINUOUS
 62
     6
 10
28459.820168013772
 20
19521.218213000029
 30
0.0
 11
28371.106063013802
 21
19385.421258000009
 31
0.0
  0
LINE
  5
15151
  8
2-0
  6
CONTINUOUS
 62
     6
 10
28371.106063013802
 20
19385.421258000009
 30
0.0
 11
28499.06808301379
 21
19485.10387600003
 31
0.0
  0
LINE
  5
15152
  8
2-0
  6
CONTINUOUS
 62
     6
 10
28499.06808301379
 20
19485.10387600003
 30
0.0
 11
28371.106063013802
 21
19385.421258000009
 31
0.0
  0
LINE
  5
15153
  8
2-0
  6
CONTINUOUS
 62
     6
 10
28459.820168013772
 20
19521.218213000029
 30
0.0
 11
28371.106063013802
 21
19385.421258000009
 31
0.0
  0
LINE
  5
15154
  8
2-0
  6
CONTINUOUS
 62
     6
 10
28459.820168013772
 20
19521.218213000029
 30
0.0
 11
28499.06808301379
 21
19485.10387600003
 31
0.0
  0
LINE
  5
15155
  8
2-0
  6
CONTINUOUS
 62
     4
 10
25366.911886013801
 20
19440.487506000019
 30
0.0
 11
25366.911886013801
 21
20170.484471000011
 31
0.0
  0
LINE
  5
15156
  8
2-0
  6
CONTINUOUS
 62
     6
 10
28050.772449013792
 20
13681.716945
 30
0.0
 11
28182.519308013801
 21
13776.34387200001
 31
0.0
  0
LINE
  5
15157
  8
2-0
  6
CONTINUOUS
 62
     6
 10
28182.519308013801
 20
13776.34387200001
 30
0.0
 11
28088.589172013792
 21
13644.10510199999
 31
0.0
  0
LINE
  5
15158
  8
2-0
  6
CONTINUOUS
 62
     6
 10
28050.772449013792
 20
13681.716945
 30
0.0
 11
28088.589172013792
 21
13644.10510199999
 31
0.0
  0
LINE
  5
15159
  8
2-0
  6
CONTINUOUS
 62
     6
 10
28088.589172013792
 20
13644.10510199999
 30
0.0
 11
28182.519308013801
 21
13776.34387200001
 31
0.0
  0
LINE
  5
1515A
  8
2-0
  6
CONTINUOUS
 62
     6
 10
28182.519308013801
 20
13776.34387200001
 30
0.0
 11
28050.772449013792
 21
13681.716945
 31
0.0
  0
LINE
  5
1515B
  8
2-0
  6
CONTINUOUS
 62
     6
 10
28050.772449013792
 20
13681.716945
 30
0.0
 11
28182.519308013801
 21
13776.34387200001
 31
0.0
  0
LINE
  5
1515C
  8
2-0
  6
CONTINUOUS
 62
     6
 10
28088.589172013792
 20
13644.10510199999
 30
0.0
 11
28182.519308013801
 21
13776.34387200001
 31
0.0
  0
LINE
  5
1515D
  8
2-0
  6
CONTINUOUS
 62
     6
 10
28088.589172013792
 20
13644.10510199999
 30
0.0
 11
28050.772449013792
 21
13681.716945
 31
0.0
  0
LINE
  5
1515E
  8
2-0
  6
CONTINUOUS
 62
     6
 10
28113.808238013789
 20
14008.621571999989
 30
0.0
 11
28246.408270013781
 21
13915.193243999989
 31
0.0
  0
LINE
  5
1515F
  8
2-0
  6
CONTINUOUS
 62
     6
 10
28246.408270013781
 20
13915.193243999989
 30
0.0
 11
28090.675584013799
 21
13960.56875800001
 31
0.0
  0
LINE
  5
15160
  8
2-0
  6
CONTINUOUS
 62
     6
 10
28113.808238013789
 20
14008.621571999989
 30
0.0
 11
28090.675584013799
 21
13960.56875800001
 31
0.0
  0
LINE
  5
15161
  8
2-0
  6
CONTINUOUS
 62
     6
 10
28090.675584013799
 20
13960.56875800001
 30
0.0
 11
28246.408270013781
 21
13915.193243999989
 31
0.0
  0
LINE
  5
15162
  8
2-0
  6
CONTINUOUS
 62
     6
 10
28246.408270013781
 20
13915.193243999989
 30
0.0
 11
28113.808238013789
 21
14008.621571999989
 31
0.0
  0
LINE
  5
15163
  8
2-0
  6
CONTINUOUS
 62
     6
 10
28113.808238013789
 20
14008.621571999989
 30
0.0
 11
28246.408270013781
 21
13915.193243999989
 31
0.0
  0
LINE
  5
15164
  8
2-0
  6
CONTINUOUS
 62
     6
 10
28090.675584013799
 20
13960.56875800001
 30
0.0
 11
28246.408270013781
 21
13915.193243999989
 31
0.0
  0
LINE
  5
15165
  8
2-0
  6
CONTINUOUS
 62
     6
 10
28090.675584013799
 20
13960.56875800001
 30
0.0
 11
28113.808238013789
 21
14008.621571999989
 31
0.0
  0
LINE
  5
15166
  8
2-0
  6
CONTINUOUS
 62
     6
 10
28173.571884013789
 20
16388.442505000021
 30
0.0
 11
28327.41017001378
 21
16439.876336000019
 31
0.0
  0
LINE
  5
15167
  8
2-0
  6
CONTINUOUS
 62
     6
 10
28327.41017001378
 20
16439.876336000019
 30
0.0
 11
28198.57518301376
 21
16341.33590100002
 31
0.0
  0
LINE
  5
15168
  8
2-0
  6
CONTINUOUS
 62
     6
 10
28173.571884013789
 20
16388.442505000021
 30
0.0
 11
28198.57518301376
 21
16341.33590100002
 31
0.0
  0
LINE
  5
15169
  8
2-0
  6
CONTINUOUS
 62
     6
 10
28198.57518301376
 20
16341.33590100002
 30
0.0
 11
28327.41017001378
 21
16439.876336000019
 31
0.0
  0
LINE
  5
1516A
  8
2-0
  6
CONTINUOUS
 62
     6
 10
28327.41017001378
 20
16439.876336000019
 30
0.0
 11
28173.571884013789
 21
16388.442505000021
 31
0.0
  0
LINE
  5
1516B
  8
2-0
  6
CONTINUOUS
 62
     6
 10
28173.571884013789
 20
16388.442505000021
 30
0.0
 11
28327.41017001378
 21
16439.876336000019
 31
0.0
  0
LINE
  5
1516C
  8
2-0
  6
CONTINUOUS
 62
     6
 10
28198.57518301376
 20
16341.33590100002
 30
0.0
 11
28327.41017001378
 21
16439.876336000019
 31
0.0
  0
LINE
  5
1516D
  8
2-0
  6
CONTINUOUS
 62
     6
 10
28198.57518301376
 20
16341.33590100002
 30
0.0
 11
28173.571884013789
 21
16388.442505000021
 31
0.0
  0
LINE
  5
1516E
  8
2-0
  6
CONTINUOUS
 62
     6
 10
28039.635677013779
 20
16879.760997000019
 30
0.0
 11
28182.519308013801
 21
16802.98536800002
 31
0.0
  0
LINE
  5
1516F
  8
2-0
  6
CONTINUOUS
 62
     6
 10
28182.519308013801
 20
16802.98536800002
 30
0.0
 11
28022.457415013781
 21
16829.267437000031
 31
0.0
  0
LINE
  5
15170
  8
2-0
  6
CONTINUOUS
 62
     6
 10
28039.635677013779
 20
16879.760997000019
 30
0.0
 11
28022.457415013781
 21
16829.267437000031
 31
0.0
  0
LINE
  5
15171
  8
2-0
  6
CONTINUOUS
 62
     6
 10
28022.457415013781
 20
16829.267437000031
 30
0.0
 11
28182.519308013801
 21
16802.98536800002
 31
0.0
  0
LINE
  5
15172
  8
2-0
  6
CONTINUOUS
 62
     6
 10
28182.519308013801
 20
16802.98536800002
 30
0.0
 11
28039.635677013779
 21
16879.760997000019
 31
0.0
  0
LINE
  5
15173
  8
2-0
  6
CONTINUOUS
 62
     6
 10
28039.635677013779
 20
16879.760997000019
 30
0.0
 11
28182.519308013801
 21
16802.98536800002
 31
0.0
  0
LINE
  5
15174
  8
2-0
  6
CONTINUOUS
 62
     6
 10
28022.457415013781
 20
16829.267437000031
 30
0.0
 11
28182.519308013801
 21
16802.98536800002
 31
0.0
  0
LINE
  5
15175
  8
2-0
  6
CONTINUOUS
 62
     6
 10
28022.457415013781
 20
16829.267437000031
 30
0.0
 11
28039.635677013779
 21
16879.760997000019
 31
0.0
  0
LINE
  5
15176
  8
2-0
  6
CONTINUOUS
 62
     3
 10
25354.413206013789
 20
19251.485052000018
 30
0.0
 11
25354.413206013789
 21
19245.489090000021
 31
0.0
  0
LINE
  5
15177
  8
2-0
  6
CONTINUOUS
 62
     3
 10
25354.413206013789
 20
19245.489090000021
 30
0.0
 11
25324.415581013789
 21
19245.489090000021
 31
0.0
  0
LINE
  5
15178
  8
2-0
  6
CONTINUOUS
 62
     3
 10
25324.415581013789
 20
19245.489090000021
 30
0.0
 11
25324.415581013789
 21
19360.48526300002
 31
0.0
  0
LINE
  5
15179
  8
2-0
  6
CONTINUOUS
 62
     3
 10
25324.415581013789
 20
19275.488694
 30
0.0
 11
25405.413522013801
 21
19275.488694
 31
0.0
  0
LINE
  5
1517A
  8
2-0
  6
CONTINUOUS
 62
     3
 10
25354.413206013789
 20
19235.19163400001
 30
0.0
 11
25324.415581013789
 21
19235.19163400001
 31
0.0
  0
LINE
  5
1517B
  8
2-0
  6
CONTINUOUS
 62
     3
 10
25354.413206013789
 20
19253.193376000028
 30
0.0
 11
25354.413206013789
 21
19235.19163400001
 31
0.0
  0
LINE
  5
1517C
  8
2-0
  6
CONTINUOUS
 62
     3
 10
25329.419804013789
 20
19253.193376000028
 30
0.0
 11
25354.413206013789
 21
19253.193376000028
 31
0.0
  0
LINE
  5
1517D
  8
2-0
  6
CONTINUOUS
 62
     3
 10
25329.419804013789
 20
19248.18519400002
 30
0.0
 11
25329.419804013789
 21
19253.193376000028
 31
0.0
  0
LINE
  5
1517E
  8
2-0
  6
CONTINUOUS
 62
     3
 10
25336.417402013769
 20
19248.18519400002
 30
0.0
 11
25329.419804013789
 21
19248.18519400002
 31
0.0
  0
LINE
  5
1517F
  8
2-0
  6
CONTINUOUS
 62
     3
 10
25436.711691013788
 20
19348.485421000009
 30
0.0
 11
25436.711691013788
 21
19355.49093700002
 31
0.0
  0
LINE
  5
15180
  8
2-0
  6
CONTINUOUS
 62
     3
 10
25436.711691013788
 20
19355.49093700002
 30
0.0
 11
25431.709447013789
 21
19355.49093700002
 31
0.0
  0
LINE
  5
15181
  8
2-0
  6
CONTINUOUS
 62
     3
 10
25431.709447013789
 20
19355.49093700002
 30
0.0
 11
25431.709447013789
 21
19330.481700000018
 31
0.0
  0
LINE
  5
15182
  8
2-0
  6
CONTINUOUS
 62
     3
 10
25431.709447013789
 20
19330.481700000018
 30
0.0
 11
25449.717128013781
 21
19330.481700000018
 31
0.0
  0
LINE
  5
15183
  8
2-0
  6
CONTINUOUS
 62
     3
 10
25449.717128013781
 20
19330.481700000018
 30
0.0
 11
25449.717128013781
 21
19360.48526300002
 31
0.0
  0
LINE
  5
15184
  8
2-0
  6
CONTINUOUS
 62
     3
 10
25439.417692013802
 20
19360.48526300002
 30
0.0
 11
25324.415581013789
 21
19360.48526300002
 31
0.0
  0
LINE
  5
15185
  8
2-0
  6
CONTINUOUS
 62
     3
 10
25439.417692013802
 20
19330.481700000018
 30
0.0
 11
25439.417692013802
 21
19360.48526300002
 31
0.0
  0
LINE
  5
15186
  8
2-0
  6
CONTINUOUS
 62
     3
 10
25433.413813013791
 20
19330.481700000018
 30
0.0
 11
25439.417692013802
 21
19330.481700000018
 31
0.0
  0
LINE
  5
15187
  8
2-0
  6
CONTINUOUS
 62
     3
 10
25354.413206013789
 20
19251.485052000018
 30
0.0
 11
25354.413206013789
 21
19245.489090000021
 31
0.0
  0
LINE
  5
15188
  8
2-0
  6
CONTINUOUS
 62
     3
 10
25354.413206013789
 20
19245.489090000021
 30
0.0
 11
25324.415581013789
 21
19245.489090000021
 31
0.0
  0
LINE
  5
15189
  8
2-0
  6
CONTINUOUS
 62
     3
 10
25324.415581013789
 20
19245.489090000021
 30
0.0
 11
25324.415581013789
 21
19360.48526300002
 31
0.0
  0
LINE
  5
1518A
  8
2-0
  6
CONTINUOUS
 62
     3
 10
25324.415581013789
 20
19275.488694
 30
0.0
 11
25405.413522013801
 21
19275.488694
 31
0.0
  0
LINE
  5
1518B
  8
2-0
  6
CONTINUOUS
 62
     3
 10
25354.413206013789
 20
19235.19163400001
 30
0.0
 11
25324.415581013789
 21
19235.19163400001
 31
0.0
  0
LINE
  5
1518C
  8
2-0
  6
CONTINUOUS
 62
     3
 10
25354.413206013789
 20
19253.193376000028
 30
0.0
 11
25354.413206013789
 21
19235.19163400001
 31
0.0
  0
LINE
  5
1518D
  8
2-0
  6
CONTINUOUS
 62
     3
 10
25329.419804013789
 20
19253.193376000028
 30
0.0
 11
25354.413206013789
 21
19253.193376000028
 31
0.0
  0
LINE
  5
1518E
  8
2-0
  6
CONTINUOUS
 62
     3
 10
25329.419804013789
 20
19248.18519400002
 30
0.0
 11
25329.419804013789
 21
19253.193376000028
 31
0.0
  0
LINE
  5
1518F
  8
2-0
  6
CONTINUOUS
 62
     3
 10
25336.417402013769
 20
19248.18519400002
 30
0.0
 11
25329.419804013789
 21
19248.18519400002
 31
0.0
  0
LINE
  5
15190
  8
2-0
  6
CONTINUOUS
 62
     3
 10
25336.417402013769
 20
18894.888371500001
 30
0.0
 11
25329.419804013789
 21
18894.888371500001
 31
0.0
  0
LINE
  5
15191
  8
2-0
  6
CONTINUOUS
 62
     3
 10
25329.419804013789
 20
18894.888371500001
 30
0.0
 11
25329.419804013789
 21
18899.8886355
 31
0.0
  0
LINE
  5
15192
  8
2-0
  6
CONTINUOUS
 62
     3
 10
25329.419804013789
 20
18899.8886355
 30
0.0
 11
25354.413206013789
 21
18899.8886355
 31
0.0
  0
LINE
  5
15193
  8
2-0
  6
CONTINUOUS
 62
     3
 10
25354.413206013789
 20
18899.8886355
 30
0.0
 11
25354.413206013789
 21
18881.892831500001
 31
0.0
  0
LINE
  5
15194
  8
2-0
  6
CONTINUOUS
 62
     3
 10
25354.413206013789
 20
18881.892831500001
 30
0.0
 11
25324.415581013789
 21
18881.892831500001
 31
0.0
  0
LINE
  5
15195
  8
2-0
  6
CONTINUOUS
 62
     3
 10
25354.413206013789
 20
18897.984338499969
 30
0.0
 11
25354.413206013789
 21
18891.986397500001
 31
0.0
  0
LINE
  5
15196
  8
2-0
  6
CONTINUOUS
 62
     3
 10
25354.413206013789
 20
18891.986397500001
 30
0.0
 11
25324.415581013789
 21
18891.986397500001
 31
0.0
  0
LINE
  5
15197
  8
2-0
  6
CONTINUOUS
 62
     3
 10
25324.415581013789
 20
18891.986397500001
 30
0.0
 11
25324.415581013789
 21
18928.987558500012
 31
0.0
  0
LINE
  5
15198
  8
2-0
  6
CONTINUOUS
 62
     3
 10
25354.413206013789
 20
18928.987558500012
 30
0.0
 11
25324.415581013789
 21
18928.987558500012
 31
0.0
  0
LINE
  5
15199
  8
2-0
  6
CONTINUOUS
 62
     3
 10
25354.413206013789
 20
18922.98367849999
 30
0.0
 11
25354.413206013789
 21
18928.987558500012
 31
0.0
  0
LINE
  5
1519A
  8
2-0
  6
CONTINUOUS
 62
     3
 10
25354.413206013789
 20
18939.08310349999
 30
0.0
 11
25324.415581013789
 21
18939.08310349999
 31
0.0
  0
LINE
  5
1519B
  8
2-0
  6
CONTINUOUS
 62
     3
 10
25354.413206013789
 20
18921.081361500001
 30
0.0
 11
25354.413206013789
 21
18939.08310349999
 31
0.0
  0
LINE
  5
1519C
  8
2-0
  6
CONTINUOUS
 62
     3
 10
25329.419804013789
 20
18921.081361500001
 30
0.0
 11
25354.413206013789
 21
18921.081361500001
 31
0.0
  0
LINE
  5
1519D
  8
2-0
  6
CONTINUOUS
 62
     3
 10
25329.419804013789
 20
18926.081625499999
 30
0.0
 11
25329.419804013789
 21
18921.081361500001
 31
0.0
  0
LINE
  5
1519E
  8
2-0
  6
CONTINUOUS
 62
     3
 10
25336.417402013769
 20
18926.081625499999
 30
0.0
 11
25329.419804013789
 21
18926.081625499999
 31
0.0
  0
LINE
  5
1519F
  8
2-0
  6
CONTINUOUS
 62
     3
 10
25336.417402013769
 20
18193.887382000012
 30
0.0
 11
25329.419804013789
 21
18193.887382000012
 31
0.0
  0
LINE
  5
151A0
  8
2-0
  6
CONTINUOUS
 62
     3
 10
25329.419804013789
 20
18193.887382000012
 30
0.0
 11
25329.419804013789
 21
18198.893584000001
 31
0.0
  0
LINE
  5
151A1
  8
2-0
  6
CONTINUOUS
 62
     3
 10
25329.419804013789
 20
18198.893584000001
 30
0.0
 11
25354.413206013789
 21
18198.893584000001
 31
0.0
  0
LINE
  5
151A2
  8
2-0
  6
CONTINUOUS
 62
     3
 10
25354.413206013789
 20
18198.893584000001
 30
0.0
 11
25354.413206013789
 21
18180.891842000008
 31
0.0
  0
LINE
  5
151A3
  8
2-0
  6
CONTINUOUS
 62
     3
 10
25354.413206013789
 20
18180.891842000008
 30
0.0
 11
25324.415581013789
 21
18180.891842000008
 31
0.0
  0
LINE
  5
151A4
  8
2-0
  6
CONTINUOUS
 62
     3
 10
25354.413206013789
 20
18196.983348999998
 30
0.0
 11
25354.413206013789
 21
18190.987387000001
 31
0.0
  0
LINE
  5
151A5
  8
2-0
  6
CONTINUOUS
 62
     3
 10
25354.413206013789
 20
18190.987387000001
 30
0.0
 11
25324.415581013789
 21
18190.987387000001
 31
0.0
  0
LINE
  5
151A6
  8
2-0
  6
CONTINUOUS
 62
     3
 10
25324.415581013789
 20
18190.987387000001
 30
0.0
 11
25324.415581013789
 21
18227.986569000001
 31
0.0
  0
LINE
  5
151A7
  8
2-0
  6
CONTINUOUS
 62
     3
 10
25354.413206013789
 20
18227.986569000001
 30
0.0
 11
25324.415581013789
 21
18227.986569000001
 31
0.0
  0
LINE
  5
151A8
  8
2-0
  6
CONTINUOUS
 62
     3
 10
25354.413206013789
 20
18221.990607
 30
0.0
 11
25354.413206013789
 21
18227.986569000001
 31
0.0
  0
LINE
  5
151A9
  8
2-0
  6
CONTINUOUS
 62
     3
 10
25354.413206013789
 20
18238.082114000012
 30
0.0
 11
25324.415581013789
 21
18238.082114000012
 31
0.0
  0
LINE
  5
151AA
  8
2-0
  6
CONTINUOUS
 62
     3
 10
25354.413206013789
 20
18220.080371999989
 30
0.0
 11
25354.413206013789
 21
18238.082114000012
 31
0.0
  0
LINE
  5
151AB
  8
2-0
  6
CONTINUOUS
 62
     3
 10
25329.419804013789
 20
18220.080371999989
 30
0.0
 11
25354.413206013789
 21
18220.080371999989
 31
0.0
  0
LINE
  5
151AC
  8
2-0
  6
CONTINUOUS
 62
     3
 10
25329.419804013789
 20
18225.086574000001
 30
0.0
 11
25329.419804013789
 21
18220.080371999989
 31
0.0
  0
LINE
  5
151AD
  8
2-0
  6
CONTINUOUS
 62
     3
 10
25336.417402013769
 20
18225.086574000001
 30
0.0
 11
25329.419804013789
 21
18225.086574000001
 31
0.0
  0
LINE
  5
151AE
  8
2-0
  6
CONTINUOUS
 62
     3
 10
25336.417402013769
 20
17524.080635999999
 30
0.0
 11
25329.419804013789
 21
17524.080635999999
 31
0.0
  0
LINE
  5
151AF
  8
2-0
  6
CONTINUOUS
 62
     3
 10
25329.419804013789
 20
17524.080635999999
 30
0.0
 11
25329.419804013789
 21
17519.092249000008
 31
0.0
  0
LINE
  5
151B0
  8
2-0
  6
CONTINUOUS
 62
     3
 10
25329.419804013789
 20
17519.092249000008
 30
0.0
 11
25354.413206013789
 21
17519.092249000008
 31
0.0
  0
LINE
  5
151B1
  8
2-0
  6
CONTINUOUS
 62
     3
 10
25354.413206013789
 20
17519.092249000008
 30
0.0
 11
25354.413206013789
 21
17537.08805200001
 31
0.0
  0
LINE
  5
151B2
  8
2-0
  6
CONTINUOUS
 62
     3
 10
25354.413206013789
 20
17537.08805200001
 30
0.0
 11
25324.415581013789
 21
17537.08805200001
 31
0.0
  0
LINE
  5
151B3
  8
2-0
  6
CONTINUOUS
 62
     3
 10
25354.413206013789
 20
17520.990607
 30
0.0
 11
25354.413206013789
 21
17526.98656899999
 31
0.0
  0
LINE
  5
151B4
  8
2-0
  6
CONTINUOUS
 62
     3
 10
25354.413206013789
 20
17526.98656899999
 30
0.0
 11
25324.415581013789
 21
17526.98656899999
 31
0.0
  0
LINE
  5
151B5
  8
2-0
  6
CONTINUOUS
 62
     3
 10
25324.415581013789
 20
17526.98656899999
 30
0.0
 11
25324.415581013789
 21
17489.987387000008
 31
0.0
  0
LINE
  5
151B6
  8
2-0
  6
CONTINUOUS
 62
     3
 10
25354.413206013789
 20
17489.987387000008
 30
0.0
 11
25324.415581013789
 21
17489.987387000008
 31
0.0
  0
LINE
  5
151B7
  8
2-0
  6
CONTINUOUS
 62
     3
 10
25354.413206013789
 20
17495.989288000001
 30
0.0
 11
25354.413206013789
 21
17489.987387000008
 31
0.0
  0
LINE
  5
151B8
  8
2-0
  6
CONTINUOUS
 62
     3
 10
25354.413206013789
 20
17479.897781
 30
0.0
 11
25324.415581013789
 21
17479.897781
 31
0.0
  0
LINE
  5
151B9
  8
2-0
  6
CONTINUOUS
 62
     3
 10
25354.413206013789
 20
17497.893584000001
 30
0.0
 11
25354.413206013789
 21
17479.897781
 31
0.0
  0
LINE
  5
151BA
  8
2-0
  6
CONTINUOUS
 62
     3
 10
25329.419804013789
 20
17497.893584000001
 30
0.0
 11
25354.413206013789
 21
17497.893584000001
 31
0.0
  0
LINE
  5
151BB
  8
2-0
  6
CONTINUOUS
 62
     3
 10
25329.419804013789
 20
17492.893321
 30
0.0
 11
25329.419804013789
 21
17497.893584000001
 31
0.0
  0
LINE
  5
151BC
  8
2-0
  6
CONTINUOUS
 62
     3
 10
25336.417402013769
 20
17492.893321
 30
0.0
 11
25329.419804013789
 21
17492.893321
 31
0.0
  0
LINE
  5
151BD
  8
2-0
  6
CONTINUOUS
 62
     3
 10
25327.301719013791
 20
16772.984207000009
 30
0.0
 11
25327.301719013791
 21
16792.985262000009
 31
0.0
  0
LINE
  5
151BE
  8
2-0
  6
CONTINUOUS
 62
     3
 10
25327.301719013791
 20
16792.985262000009
 30
0.0
 11
25412.302247013798
 21
16792.985262000009
 31
0.0
  0
LINE
  5
151BF
  8
2-0
  6
CONTINUOUS
 62
     3
 10
25336.417402013769
 20
16819.591972000009
 30
0.0
 11
25329.419804013789
 21
16819.591972000009
 31
0.0
  0
LINE
  5
151C0
  8
2-0
  6
CONTINUOUS
 62
     3
 10
25329.419804013789
 20
16819.591972000009
 30
0.0
 11
25329.419804013789
 21
16814.59764600002
 31
0.0
  0
LINE
  5
151C1
  8
2-0
  6
CONTINUOUS
 62
     3
 10
25329.419804013789
 20
16814.59764600002
 30
0.0
 11
25354.413206013789
 21
16814.59764600002
 31
0.0
  0
LINE
  5
151C2
  8
2-0
  6
CONTINUOUS
 62
     3
 10
25354.413206013789
 20
16814.59764600002
 30
0.0
 11
25354.413206013789
 21
16832.593450000011
 31
0.0
  0
LINE
  5
151C3
  8
2-0
  6
CONTINUOUS
 62
     3
 10
25354.413206013789
 20
16832.593450000011
 30
0.0
 11
25324.415581013789
 21
16832.593450000011
 31
0.0
  0
LINE
  5
151C4
  8
2-0
  6
CONTINUOUS
 62
     3
 10
25354.413206013789
 20
16822.984865999999
 30
0.0
 11
25354.413206013789
 21
16816.982966
 31
0.0
  0
LINE
  5
151C5
  8
2-0
  6
CONTINUOUS
 62
     3
 10
25324.415581013789
 20
16822.984865999999
 30
0.0
 11
25354.413206013789
 21
16822.984865999999
 31
0.0
  0
LINE
  5
151C6
  8
2-0
  6
CONTINUOUS
 62
     3
 10
25324.415581013789
 20
16832.593450000011
 30
0.0
 11
25324.415581013789
 21
17479.897781
 31
0.0
  0
LINE
  5
151C7
  8
2-0
  6
CONTINUOUS
 62
     3
 10
25324.415581013789
 20
17537.08805200001
 30
0.0
 11
25324.415581013789
 21
18180.891842000008
 31
0.0
  0
LINE
  5
151C8
  8
2-0
  6
CONTINUOUS
 62
     3
 10
25324.415581013789
 20
16677.983151000019
 30
0.0
 11
25354.413206013789
 21
16677.983151000019
 31
0.0
  0
LINE
  5
151C9
  8
2-0
  6
CONTINUOUS
 62
     3
 10
25354.413206013789
 20
16677.983151000019
 30
0.0
 11
25354.413206013789
 21
16683.985051
 31
0.0
  0
LINE
  5
151CA
  8
2-0
  6
CONTINUOUS
 62
     3
 10
25412.302247013798
 20
16707.988694
 30
0.0
 11
25327.301719013791
 21
16707.988694
 31
0.0
  0
LINE
  5
151CB
  8
2-0
  6
CONTINUOUS
 62
     3
 10
25327.301719013791
 20
16707.988694
 30
0.0
 11
25327.301719013791
 21
16727.98381100002
 31
0.0
  0
LINE
  5
151CC
  8
2-0
  6
CONTINUOUS
 62
     3
 10
25354.413206013789
 20
16668.37456800001
 30
0.0
 11
25324.415581013789
 21
16668.37456800001
 31
0.0
  0
LINE
  5
151CD
  8
2-0
  6
CONTINUOUS
 62
     3
 10
25354.413206013789
 20
16686.37037099999
 30
0.0
 11
25354.413206013789
 21
16668.37456800001
 31
0.0
  0
LINE
  5
151CE
  8
2-0
  6
CONTINUOUS
 62
     3
 10
25329.419804013789
 20
16686.37037099999
 30
0.0
 11
25354.413206013789
 21
16686.37037099999
 31
0.0
  0
LINE
  5
151CF
  8
2-0
  6
CONTINUOUS
 62
     3
 10
25329.419804013789
 20
16681.37010700001
 30
0.0
 11
25329.419804013789
 21
16686.37037099999
 31
0.0
  0
LINE
  5
151D0
  8
2-0
  6
CONTINUOUS
 62
     3
 10
25336.417402013769
 20
16681.37010700001
 30
0.0
 11
25329.419804013789
 21
16681.37010700001
 31
0.0
  0
LINE
  5
151D1
  8
2-0
  6
CONTINUOUS
 62
     3
 10
25336.417402013769
 20
15976.88787649999
 30
0.0
 11
25329.419804013789
 21
15976.88787649999
 31
0.0
  0
LINE
  5
151D2
  8
2-0
  6
CONTINUOUS
 62
     3
 10
25329.419804013789
 20
15976.88787649999
 30
0.0
 11
25329.419804013789
 21
15981.888140499999
 31
0.0
  0
LINE
  5
151D3
  8
2-0
  6
CONTINUOUS
 62
     3
 10
25329.419804013789
 20
15981.888140499999
 30
0.0
 11
25354.413206013789
 21
15981.888140499999
 31
0.0
  0
LINE
  5
151D4
  8
2-0
  6
CONTINUOUS
 62
     3
 10
25354.413206013789
 20
15981.888140499999
 30
0.0
 11
25354.413206013789
 21
15963.88639850001
 31
0.0
  0
LINE
  5
151D5
  8
2-0
  6
CONTINUOUS
 62
     3
 10
25354.413206013789
 20
15963.88639850001
 30
0.0
 11
25324.415581013789
 21
15963.88639850001
 31
0.0
  0
LINE
  5
151D6
  8
2-0
  6
CONTINUOUS
 62
     3
 10
25354.413206013789
 20
15979.983843500009
 30
0.0
 11
25354.413206013789
 21
15973.98689250001
 31
0.0
  0
LINE
  5
151D7
  8
2-0
  6
CONTINUOUS
 62
     3
 10
25354.413206013789
 20
15973.98689250001
 30
0.0
 11
25324.415581013789
 21
15973.98689250001
 31
0.0
  0
LINE
  5
151D8
  8
2-0
  6
CONTINUOUS
 62
     3
 10
25324.415581013789
 20
15973.98689250001
 30
0.0
 11
25324.415581013789
 21
16010.98706350001
 31
0.0
  0
LINE
  5
151D9
  8
2-0
  6
CONTINUOUS
 62
     3
 10
25354.413206013789
 20
16010.98706350001
 30
0.0
 11
25324.415581013789
 21
16010.98706350001
 31
0.0
  0
LINE
  5
151DA
  8
2-0
  6
CONTINUOUS
 62
     3
 10
25354.413206013789
 20
16004.984173500001
 30
0.0
 11
25354.413206013789
 21
16010.98706350001
 31
0.0
  0
LINE
  5
151DB
  8
2-0
  6
CONTINUOUS
 62
     3
 10
25354.413206013789
 20
16021.08260850001
 30
0.0
 11
25324.415581013789
 21
16021.08260850001
 31
0.0
  0
LINE
  5
151DC
  8
2-0
  6
CONTINUOUS
 62
     3
 10
25354.413206013789
 20
16003.074927500011
 30
0.0
 11
25354.413206013789
 21
16021.08260850001
 31
0.0
  0
LINE
  5
151DD
  8
2-0
  6
CONTINUOUS
 62
     3
 10
25329.419804013789
 20
16003.074927500011
 30
0.0
 11
25354.413206013789
 21
16003.074927500011
 31
0.0
  0
LINE
  5
151DE
  8
2-0
  6
CONTINUOUS
 62
     3
 10
25329.419804013789
 20
16008.08113050001
 30
0.0
 11
25329.419804013789
 21
16003.074927500011
 31
0.0
  0
LINE
  5
151DF
  8
2-0
  6
CONTINUOUS
 62
     3
 10
25336.417402013769
 20
16008.08113050001
 30
0.0
 11
25329.419804013789
 21
16008.08113050001
 31
0.0
  0
LINE
  5
151E0
  8
2-0
  6
CONTINUOUS
 62
     3
 10
25336.417402013769
 20
15307.321147000021
 30
0.0
 11
25329.419804013789
 21
15307.321147000021
 31
0.0
  0
LINE
  5
151E1
  8
2-0
  6
CONTINUOUS
 62
     3
 10
25329.419804013789
 20
15307.321147000021
 30
0.0
 11
25329.419804013789
 21
15302.326822000019
 31
0.0
  0
LINE
  5
151E2
  8
2-0
  6
CONTINUOUS
 62
     3
 10
25329.419804013789
 20
15302.326822000019
 30
0.0
 11
25354.413206013789
 21
15302.326822000019
 31
0.0
  0
LINE
  5
151E3
  8
2-0
  6
CONTINUOUS
 62
     3
 10
25354.413206013789
 20
15302.326822000019
 30
0.0
 11
25354.413206013789
 21
15320.322625000021
 31
0.0
  0
LINE
  5
151E4
  8
2-0
  6
CONTINUOUS
 62
     3
 10
25354.413206013789
 20
15320.322625000021
 30
0.0
 11
25324.415581013789
 21
15320.322625000021
 31
0.0
  0
LINE
  5
151E5
  8
2-0
  6
CONTINUOUS
 62
     3
 10
25354.413206013789
 20
15304.22518000001
 30
0.0
 11
25354.413206013789
 21
15310.227080000021
 31
0.0
  0
LINE
  5
151E6
  8
2-0
  6
CONTINUOUS
 62
     3
 10
25354.413206013789
 20
15310.227080000021
 30
0.0
 11
25324.415581013789
 21
15310.227080000021
 31
0.0
  0
LINE
  5
151E7
  8
2-0
  6
CONTINUOUS
 62
     3
 10
25324.415581013789
 20
15273.22789900003
 30
0.0
 11
25324.415581013789
 21
15310.227080000021
 31
0.0
  0
LINE
  5
151E8
  8
2-0
  6
CONTINUOUS
 62
     3
 10
25354.413206013789
 20
15273.22789900003
 30
0.0
 11
25324.415581013789
 21
15273.22789900003
 31
0.0
  0
LINE
  5
151E9
  8
2-0
  6
CONTINUOUS
 62
     3
 10
25354.413206013789
 20
15279.22485000001
 30
0.0
 11
25354.413206013789
 21
15273.22789900003
 31
0.0
  0
LINE
  5
151EA
  8
2-0
  6
CONTINUOUS
 62
     3
 10
25354.413206013789
 20
15263.12641500001
 30
0.0
 11
25324.415581013789
 21
15263.12641500001
 31
0.0
  0
LINE
  5
151EB
  8
2-0
  6
CONTINUOUS
 62
     3
 10
25354.413206013789
 20
15281.134096000011
 30
0.0
 11
25354.413206013789
 21
15263.12641500001
 31
0.0
  0
LINE
  5
151EC
  8
2-0
  6
CONTINUOUS
 62
     3
 10
25329.419804013789
 20
15281.134096000011
 30
0.0
 11
25354.413206013789
 21
15281.134096000011
 31
0.0
  0
LINE
  5
151ED
  8
2-0
  6
CONTINUOUS
 62
     3
 10
25329.419804013789
 20
15276.13383200003
 30
0.0
 11
25329.419804013789
 21
15281.134096000011
 31
0.0
  0
LINE
  5
151EE
  8
2-0
  6
CONTINUOUS
 62
     3
 10
25336.417402013769
 20
15276.13383200003
 30
0.0
 11
25329.419804013789
 21
15276.13383200003
 31
0.0
  0
LINE
  5
151EF
  8
2-0
  6
CONTINUOUS
 62
     3
 10
25324.415581013789
 20
16668.37456800001
 30
0.0
 11
25324.415581013789
 21
16021.08260850001
 31
0.0
  0
LINE
  5
151F0
  8
2-0
  6
CONTINUOUS
 62
     3
 10
25324.415581013789
 20
16822.984865999999
 30
0.0
 11
25324.415581013789
 21
16677.983151000019
 31
0.0
  0
LINE
  5
151F1
  8
2-0
  6
CONTINUOUS
 62
     3
 10
25412.302247013798
 20
16792.985262000009
 30
0.0
 11
25412.302247013798
 21
16707.988694
 31
0.0
  0
LINE
  5
151F2
  8
2-0
  6
CONTINUOUS
 62
     3
 10
25336.417402013769
 20
14574.89282500001
 30
0.0
 11
25329.419804013789
 21
14574.89282500001
 31
0.0
  0
LINE
  5
151F3
  8
2-0
  6
CONTINUOUS
 62
     3
 10
25329.419804013789
 20
14574.89282500001
 30
0.0
 11
25329.419804013789
 21
14579.887151000021
 31
0.0
  0
LINE
  5
151F4
  8
2-0
  6
CONTINUOUS
 62
     3
 10
25329.419804013789
 20
14579.887151000021
 30
0.0
 11
25354.413206013789
 21
14579.887151000021
 31
0.0
  0
LINE
  5
151F5
  8
2-0
  6
CONTINUOUS
 62
     3
 10
25354.413206013789
 20
14579.887151000021
 30
0.0
 11
25354.413206013789
 21
14561.891347000021
 31
0.0
  0
LINE
  5
151F6
  8
2-0
  6
CONTINUOUS
 62
     3
 10
25354.413206013789
 20
14561.891347000021
 30
0.0
 11
25324.415581013789
 21
14561.891347000021
 31
0.0
  0
LINE
  5
151F7
  8
2-0
  6
CONTINUOUS
 62
     3
 10
25354.413206013789
 20
14577.989782000021
 30
0.0
 11
25354.413206013789
 21
14571.986892000021
 31
0.0
  0
LINE
  5
151F8
  8
2-0
  6
CONTINUOUS
 62
     3
 10
25354.413206013789
 20
14571.986892000021
 30
0.0
 11
25324.415581013789
 21
14571.986892000021
 31
0.0
  0
LINE
  5
151F9
  8
2-0
  6
CONTINUOUS
 62
     3
 10
25324.415581013789
 20
14571.986892000021
 30
0.0
 11
25324.415581013789
 21
14608.987064000001
 31
0.0
  0
LINE
  5
151FA
  8
2-0
  6
CONTINUOUS
 62
     3
 10
25354.413206013789
 20
14608.987064000001
 30
0.0
 11
25324.415581013789
 21
14608.987064000001
 31
0.0
  0
LINE
  5
151FB
  8
2-0
  6
CONTINUOUS
 62
     3
 10
25354.413206013789
 20
14602.99011200001
 30
0.0
 11
25354.413206013789
 21
14608.987064000001
 31
0.0
  0
LINE
  5
151FC
  8
2-0
  6
CONTINUOUS
 62
     3
 10
25354.413206013789
 20
14619.087557000021
 30
0.0
 11
25324.415581013789
 21
14619.087557000021
 31
0.0
  0
LINE
  5
151FD
  8
2-0
  6
CONTINUOUS
 62
     3
 10
25354.413206013789
 20
14601.08086600002
 30
0.0
 11
25354.413206013789
 21
14619.087557000021
 31
0.0
  0
LINE
  5
151FE
  8
2-0
  6
CONTINUOUS
 62
     3
 10
25329.419804013789
 20
14601.08086600002
 30
0.0
 11
25354.413206013789
 21
14601.08086600002
 31
0.0
  0
LINE
  5
151FF
  8
2-0
  6
CONTINUOUS
 62
     3
 10
25329.419804013789
 20
14606.086079000021
 30
0.0
 11
25329.419804013789
 21
14601.08086600002
 31
0.0
  0
LINE
  5
15200
  8
2-0
  6
CONTINUOUS
 62
     3
 10
25336.417402013769
 20
14606.086079000021
 30
0.0
 11
25329.419804013789
 21
14606.086079000021
 31
0.0
  0
LINE
  5
15201
  8
2-0
  6
CONTINUOUS
 62
     3
 10
25354.413206013789
 20
13898.988905000009
 30
0.0
 11
25354.413206013789
 21
13904.99377400001
 31
0.0
  0
LINE
  5
15202
  8
2-0
  6
CONTINUOUS
 62
     3
 10
25354.413206013789
 20
13904.99377400001
 30
0.0
 11
25324.415581013789
 21
13904.99377400001
 31
0.0
  0
LINE
  5
15203
  8
2-0
  6
CONTINUOUS
 62
     3
 10
25324.415581013789
 20
13904.99377400001
 30
0.0
 11
25324.415581013789
 21
13789.989683000011
 31
0.0
  0
LINE
  5
15204
  8
2-0
  6
CONTINUOUS
 62
     3
 10
25324.415581013789
 20
13789.989683000011
 30
0.0
 11
25409.414129013781
 21
13789.989683000011
 31
0.0
  0
LINE
  5
15205
  8
2-0
  6
CONTINUOUS
 62
     3
 10
25409.414129013781
 20
13789.989683000011
 30
0.0
 11
25409.414129013781
 21
13874.985262000009
 31
0.0
  0
LINE
  5
15206
  8
2-0
  6
CONTINUOUS
 62
     3
 10
25409.414129013781
 20
13874.985262000009
 30
0.0
 11
25377.417191013781
 21
13874.985262000009
 31
0.0
  0
LINE
  5
15207
  8
2-0
  6
CONTINUOUS
 62
     3
 10
25336.417402013769
 20
13902.023507000011
 30
0.0
 11
25329.419804013789
 21
13902.023507000011
 31
0.0
  0
LINE
  5
15208
  8
2-0
  6
CONTINUOUS
 62
     3
 10
25329.419804013789
 20
13902.023507000011
 30
0.0
 11
25329.419804013789
 21
13897.02621199999
 31
0.0
  0
LINE
  5
15209
  8
2-0
  6
CONTINUOUS
 62
     3
 10
25329.419804013789
 20
13897.02621199999
 30
0.0
 11
25354.413206013789
 21
13897.02621199999
 31
0.0
  0
LINE
  5
1520A
  8
2-0
  6
CONTINUOUS
 62
     3
 10
25354.413206013789
 20
13897.02621199999
 30
0.0
 11
25354.413206013789
 21
13915.024985000009
 31
0.0
  0
LINE
  5
1520B
  8
2-0
  6
CONTINUOUS
 62
     3
 10
25354.413206013789
 20
13915.024985000009
 30
0.0
 11
25324.415581013789
 21
13915.024985000009
 31
0.0
  0
LINE
  5
1520C
  8
2-0
  6
CONTINUOUS
 62
     3
 10
25324.415581013789
 20
14619.087557000021
 30
0.0
 11
25324.415581013789
 21
15263.12641500001
 31
0.0
  0
LINE
  5
1520D
  8
2-0
  6
CONTINUOUS
 62
     3
 10
25324.415581013789
 20
18238.082114000012
 30
0.0
 11
25324.415581013789
 21
18881.892831500001
 31
0.0
  0
LINE
  5
1520E
  8
2-0
  6
CONTINUOUS
 62
     3
 10
25324.415581013789
 20
15963.88639850001
 30
0.0
 11
25324.415581013789
 21
15320.322625000021
 31
0.0
  0
LINE
  5
1520F
  8
2-0
  6
CONTINUOUS
 62
     3
 10
28327.41017001378
 20
19245.489090000021
 30
0.0
 11
28327.41017001378
 21
19360.48526300002
 31
0.0
  0
LINE
  5
15210
  8
2-0
  6
CONTINUOUS
 62
     3
 10
25324.415581013789
 20
19275.488694
 30
0.0
 11
28246.408270013781
 21
19275.488694
 31
0.0
  0
LINE
  5
15211
  8
2-0
  6
CONTINUOUS
 62
     3
 10
25324.415581013789
 20
13915.024985000009
 30
0.0
 11
25324.415581013789
 21
14561.891347000021
 31
0.0
  0
LINE
  5
15212
  8
2-0
  6
CONTINUOUS
 62
     3
 10
28327.41017001378
 20
19235.19163400001
 30
0.0
 11
28327.41017001378
 21
18939.083103500001
 31
0.0
  0
LINE
  5
15213
  8
2-0
  6
CONTINUOUS
 62
     3
 10
25324.415581013789
 20
19235.19163400001
 30
0.0
 11
25324.415581013789
 21
18939.08310349999
 31
0.0
  0
LINE
  5
15214
  8
2-0
  6
CONTINUOUS
 62
     3
 10
25405.413522013801
 20
13874.985262000009
 30
0.0
 11
25405.413522013801
 21
19360.48526300002
 31
0.0
  0
LINE
  5
15215
  8
2-0
  6
CONTINUOUS
 62
     3
 10
28246.408270013781
 20
13874.985262000009
 30
0.0
 11
28246.408270013781
 21
19360.48526300002
 31
0.0
  0
TEXT
  5
15216
  8
2-0
  6
CONTINUOUS
 62
     7
 10
26681.757193013789
 20
13272.48810000001
 30
0.0
 40
160.0
  1
前柱（右）
 50
0.000213
 72
     4
 11
27097.75689560681
 21
13352.489646500801
 31
0.0
  0
TEXT
  5
15217
  8
2-0
  6
CONTINUOUS
 62
     7
 10
26886.352316013788
 20
16200.980116000041
 30
0.0
 40
160.0
  1
壁パネル
 50
359.99982299999999
 72
     4
 11
27249.01922981735
 21
16280.978995637901
 31
0.0
  0
TEXT
  5
15218
  8
2-0
  6
CONTINUOUS
 62
     7
 10
26606.349412013769
 20
17038.168012000009
 30
0.0
 40
160.0
  1
中柱（左右）
 50
0.000354
 72
     4
 11
27123.682251059989
 21
17118.171208324671
 31
0.0
  0
TEXT
  5
15219
  8
2-0
  6
CONTINUOUS
 62
     7
 10
27286.35165601378
 20
14245.52936600001
 30
0.0
 40
160.0
  1
下枠
 50
0.001063
 72
     4
 11
27457.016838423078
 21
14325.532532339301
 31
0.0
  0
TEXT
  5
1521A
  8
2-0
  6
CONTINUOUS
 62
     7
 10
26781.3170800138
 20
18641.436750500001
 30
0.0
 40
160.0
  1
間柱（側）
 72
     4
 11
27202.650413347132
 21
18721.436750500001
 31
0.0
  0
TEXT
  5
1521B
  8
2-0
  6
CONTINUOUS
 62
     7
 10
29099.90739901378
 20
20170.484471000011
 30
0.0
 40
160.0
  1
後柱（左右）
 50
0.000354
 72
     4
 11
29611.906904726759
 21
20250.48763437285
 31
0.0
  0
LINE
  5
1521C
  8
2-0
  6
CONTINUOUS
 62
     3
 10
27545.412467013761
 20
19360.48526300002
 30
0.0
 11
27508.4113050138
 21
19360.48526300002
 31
0.0
  0
LINE
  5
1521D
  8
2-0
  6
CONTINUOUS
 62
     3
 10
27545.412467013761
 20
19330.481700000018
 30
0.0
 11
27545.412467013761
 21
19360.48526300002
 31
0.0
  0
LINE
  5
1521E
  8
2-0
  6
CONTINUOUS
 62
     3
 10
27539.412546013758
 20
19330.481700000018
 30
0.0
 11
27545.412467013761
 21
19330.481700000018
 31
0.0
  0
LINE
  5
1521F
  8
2-0
  6
CONTINUOUS
 62
     3
 10
27555.509991013801
 20
19330.481700000018
 30
0.0
 11
27555.509991013801
 21
19360.48526300002
 31
0.0
  0
LINE
  5
15220
  8
2-0
  6
CONTINUOUS
 62
     3
 10
27537.506270013801
 20
19330.481700000018
 30
0.0
 11
27555.509991013801
 21
19330.481700000018
 31
0.0
  0
LINE
  5
15221
  8
2-0
  6
CONTINUOUS
 62
     3
 10
27537.506270013801
 20
19355.49093700002
 30
0.0
 11
27537.506270013801
 21
19330.481700000018
 31
0.0
  0
LINE
  5
15222
  8
2-0
  6
CONTINUOUS
 62
     3
 10
27542.506534013799
 20
19355.49093700002
 30
0.0
 11
27537.506270013801
 21
19355.49093700002
 31
0.0
  0
LINE
  5
15223
  8
2-0
  6
CONTINUOUS
 62
     3
 10
27542.506534013799
 20
19348.485421000009
 30
0.0
 11
27542.506534013799
 21
19355.49093700002
 31
0.0
  0
LINE
  5
15224
  8
2-0
  6
CONTINUOUS
 62
     3
 10
27511.317239013781
 20
19348.485421000009
 30
0.0
 11
27511.317239013781
 21
19355.49093700002
 31
0.0
  0
LINE
  5
15225
  8
2-0
  6
CONTINUOUS
 62
     3
 10
27511.317239013781
 20
19355.49093700002
 30
0.0
 11
27516.317503013801
 21
19355.49093700002
 31
0.0
  0
LINE
  5
15226
  8
2-0
  6
CONTINUOUS
 62
     3
 10
27516.317503013801
 20
19355.49093700002
 30
0.0
 11
27516.317503013801
 21
19330.481700000018
 31
0.0
  0
LINE
  5
15227
  8
2-0
  6
CONTINUOUS
 62
     3
 10
27516.317503013801
 20
19330.481700000018
 30
0.0
 11
27498.317740013801
 21
19330.481700000018
 31
0.0
  0
LINE
  5
15228
  8
2-0
  6
CONTINUOUS
 62
     3
 10
27498.317740013801
 20
19330.481700000018
 30
0.0
 11
27498.317740013801
 21
19360.48526300002
 31
0.0
  0
LINE
  5
15229
  8
2-0
  6
CONTINUOUS
 62
     3
 10
27514.411226013792
 20
19330.481700000018
 30
0.0
 11
27508.4113050138
 21
19330.481700000018
 31
0.0
  0
LINE
  5
1522A
  8
2-0
  6
CONTINUOUS
 62
     3
 10
27508.4113050138
 20
19330.481700000018
 30
0.0
 11
27508.4113050138
 21
19360.48526300002
 31
0.0
  0
LINE
  5
1522B
  8
2-0
  6
CONTINUOUS
 62
     3
 10
26140.50158451379
 20
19348.485421000009
 30
0.0
 11
26140.50158451379
 21
19355.49093700002
 31
0.0
  0
LINE
  5
1522C
  8
2-0
  6
CONTINUOUS
 62
     3
 10
26140.50158451379
 20
19355.49093700002
 30
0.0
 11
26135.501320513791
 21
19355.49093700002
 31
0.0
  0
LINE
  5
1522D
  8
2-0
  6
CONTINUOUS
 62
     3
 10
26135.501320513791
 20
19355.49093700002
 30
0.0
 11
26135.501320513791
 21
19330.481700000018
 31
0.0
  0
LINE
  5
1522E
  8
2-0
  6
CONTINUOUS
 62
     3
 10
26135.501320513791
 20
19330.481700000018
 30
0.0
 11
26153.5070215138
 21
19330.481700000018
 31
0.0
  0
LINE
  5
1522F
  8
2-0
  6
CONTINUOUS
 62
     3
 10
26153.5070215138
 20
19330.481700000018
 30
0.0
 11
26153.5070215138
 21
19360.48526300002
 31
0.0
  0
LINE
  5
15230
  8
2-0
  6
CONTINUOUS
 62
     3
 10
26137.40957651379
 20
19330.481700000018
 30
0.0
 11
26143.411476513778
 21
19330.481700000018
 31
0.0
  0
LINE
  5
15231
  8
2-0
  6
CONTINUOUS
 62
     3
 10
26143.411476513778
 20
19330.481700000018
 30
0.0
 11
26143.411476513778
 21
19360.48526300002
 31
0.0
  0
LINE
  5
15232
  8
2-0
  6
CONTINUOUS
 62
     3
 10
26106.41229551379
 20
19360.48526300002
 30
0.0
 11
26143.411476513778
 21
19360.48526300002
 31
0.0
  0
LINE
  5
15233
  8
2-0
  6
CONTINUOUS
 62
     3
 10
26106.41229551379
 20
19330.481700000018
 30
0.0
 11
26106.41229551379
 21
19360.48526300002
 31
0.0
  0
LINE
  5
15234
  8
2-0
  6
CONTINUOUS
 62
     3
 10
26112.40627751379
 20
19330.481700000018
 30
0.0
 11
26106.41229551379
 21
19330.481700000018
 31
0.0
  0
LINE
  5
15235
  8
2-0
  6
CONTINUOUS
 62
     3
 10
26096.316750513801
 20
19330.481700000018
 30
0.0
 11
26096.316750513801
 21
19360.48526300002
 31
0.0
  0
LINE
  5
15236
  8
2-0
  6
CONTINUOUS
 62
     3
 10
26114.312553513791
 20
19330.481700000018
 30
0.0
 11
26096.316750513801
 21
19330.481700000018
 31
0.0
  0
LINE
  5
15237
  8
2-0
  6
CONTINUOUS
 62
     3
 10
26114.312553513791
 20
19355.49093700002
 30
0.0
 11
26114.312553513791
 21
19330.481700000018
 31
0.0
  0
LINE
  5
15238
  8
2-0
  6
CONTINUOUS
 62
     3
 10
26109.312289513779
 20
19355.49093700002
 30
0.0
 11
26114.312553513791
 21
19355.49093700002
 31
0.0
  0
LINE
  5
15239
  8
2-0
  6
CONTINUOUS
 62
     3
 10
26109.312289513779
 20
19348.485421000009
 30
0.0
 11
26109.312289513779
 21
19355.49093700002
 31
0.0
  0
LINE
  5
1523A
  8
2-0
  6
CONTINUOUS
 62
     3
 10
26810.311300513789
 20
19348.485421000009
 30
0.0
 11
26810.311300513789
 21
19355.49093700002
 31
0.0
  0
LINE
  5
1523B
  8
2-0
  6
CONTINUOUS
 62
     3
 10
26810.311300513789
 20
19355.49093700002
 30
0.0
 11
26815.311563513798
 21
19355.49093700002
 31
0.0
  0
LINE
  5
1523C
  8
2-0
  6
CONTINUOUS
 62
     3
 10
26815.311563513798
 20
19355.49093700002
 30
0.0
 11
26815.311563513798
 21
19330.481700000018
 31
0.0
  0
LINE
  5
1523D
  8
2-0
  6
CONTINUOUS
 62
     3
 10
26815.311563513798
 20
19330.481700000018
 30
0.0
 11
26797.317740513769
 21
19330.481700000018
 31
0.0
  0
LINE
  5
1523E
  8
2-0
  6
CONTINUOUS
 62
     3
 10
26797.317740513769
 20
19330.481700000018
 30
0.0
 11
26797.317740513769
 21
19360.48526300002
 31
0.0
  0
LINE
  5
1523F
  8
2-0
  6
CONTINUOUS
 62
     3
 10
26813.409246513769
 20
19330.481700000018
 30
0.0
 11
26807.41130551379
 21
19330.481700000018
 31
0.0
  0
LINE
  5
15240
  8
2-0
  6
CONTINUOUS
 62
     3
 10
26807.41130551379
 20
19330.481700000018
 30
0.0
 11
26807.41130551379
 21
19360.48526300002
 31
0.0
  0
LINE
  5
15241
  8
2-0
  6
CONTINUOUS
 62
     3
 10
26844.412466513801
 20
19360.48526300002
 30
0.0
 11
26807.41130551379
 21
19360.48526300002
 31
0.0
  0
LINE
  5
15242
  8
2-0
  6
CONTINUOUS
 62
     3
 10
26844.412466513801
 20
19330.481700000018
 30
0.0
 11
26844.412466513801
 21
19360.48526300002
 31
0.0
  0
LINE
  5
15243
  8
2-0
  6
CONTINUOUS
 62
     3
 10
26838.4066075138
 20
19330.481700000018
 30
0.0
 11
26844.412466513801
 21
19330.481700000018
 31
0.0
  0
LINE
  5
15244
  8
2-0
  6
CONTINUOUS
 62
     3
 10
26854.5060315138
 20
19330.481700000018
 30
0.0
 11
26854.5060315138
 21
19360.48526300002
 31
0.0
  0
LINE
  5
15245
  8
2-0
  6
CONTINUOUS
 62
     3
 10
26836.510228513791
 20
19330.481700000018
 30
0.0
 11
26854.5060315138
 21
19330.481700000018
 31
0.0
  0
LINE
  5
15246
  8
2-0
  6
CONTINUOUS
 62
     3
 10
26836.510228513791
 20
19355.49093700002
 30
0.0
 11
26836.510228513791
 21
19330.481700000018
 31
0.0
  0
LINE
  5
15247
  8
2-0
  6
CONTINUOUS
 62
     3
 10
26841.5005945138
 20
19355.49093700002
 30
0.0
 11
26836.510228513791
 21
19355.49093700002
 31
0.0
  0
LINE
  5
15248
  8
2-0
  6
CONTINUOUS
 62
     3
 10
26841.5005945138
 20
19348.485421000009
 30
0.0
 11
26841.5005945138
 21
19355.49093700002
 31
0.0
  0
LINE
  5
15249
  8
2-0
  6
CONTINUOUS
 62
     3
 10
26153.5070215138
 20
19360.48526300002
 30
0.0
 11
26797.317740513769
 21
19360.48526300002
 31
0.0
  0
LINE
  5
1524A
  8
2-0
  6
CONTINUOUS
 62
     3
 10
25449.717128013781
 20
19360.48526300002
 30
0.0
 11
26096.316750513801
 21
19360.48526300002
 31
0.0
  0
LINE
  5
1524B
  8
2-0
  6
CONTINUOUS
 62
     3
 10
28202.795516013801
 20
19360.48526300002
 30
0.0
 11
27555.509991013801
 21
19360.48526300002
 31
0.0
  0
LINE
  5
1524C
  8
2-0
  6
CONTINUOUS
 62
     3
 10
27498.317740013801
 20
19360.48526300002
 30
0.0
 11
26854.5060315138
 21
19360.48526300002
 31
0.0
  0
LINE
  5
1524D
  8
2-0
  6
CONTINUOUS
 62
     3
 10
28327.41017001378
 20
15263.126415000021
 30
0.0
 11
28327.41017001378
 21
14619.087557000021
 31
0.0
  0
LINE
  5
1524E
  8
2-0
  6
CONTINUOUS
 62
     3
 10
28327.41017001378
 20
14561.89134700001
 30
0.0
 11
28327.41017001378
 21
13915.024985000009
 31
0.0
  0
LINE
  5
1524F
  8
0-6
  6
CONTINUOUS
 62
     6
 10
25367.73614451379
 20
18649.16703500002
 30
0.0
 11
26392.77639451381
 21
18649.16703500002
 31
0.0
  0
LINE
  5
15250
  8
0-6
  6
CONTINUOUS
 62
     6
 10
26692.7011725138
 20
19206.520287000028
 30
0.0
 11
26797.316750513801
 21
19330.481700000018
 31
0.0
  0
LINE
  5
15251
  8
0-6
  6
CONTINUOUS
 62
     6
 10
26797.316750513801
 20
19330.481700000018
 30
0.0
 11
26738.55870051379
 21
19179.290030000018
 31
0.0
  0
LINE
  5
15252
  8
0-6
  6
CONTINUOUS
 62
     6
 10
26797.316750513801
 20
19330.481700000018
 30
0.0
 11
26692.7011725138
 21
19206.520287000028
 31
0.0
  0
LINE
  5
15253
  8
0-6
  6
CONTINUOUS
 62
     6
 10
26692.7011725138
 20
19206.520287000028
 30
0.0
 11
26738.55870051379
 21
19179.290030000018
 31
0.0
  0
LINE
  5
15254
  8
0-6
  6
CONTINUOUS
 62
     6
 10
26738.55870051379
 20
19179.290030000018
 30
0.0
 11
26797.316750513801
 21
19330.481700000018
 31
0.0
  0
LINE
  5
15255
  8
0-6
  6
CONTINUOUS
 62
     6
 10
26738.55870051379
 20
19179.290030000018
 30
0.0
 11
26692.7011725138
 21
19206.520287000028
 31
0.0
  0
LINE
  5
15256
  8
0-6
  6
CONTINUOUS
 62
     6
 10
26715.6299365138
 20
19192.90713800002
 30
0.0
 11
26392.77639451381
 21
18649.16703500002
 31
0.0
  0
TEXT
  5
15257
  8
0-6
  6
CONTINUOUS
 62
     7
 10
25447.7364085138
 20
18729.16927900002
 30
0.0
 40
160.0
  1
間柱（後）
 72
     4
 11
25869.069741847132
 21
18809.16927900002
 31
0.0
  0
LINE
  5
15258
  8
SUNPOU
  6
CONTINUOUS
 62
     4
 10
25366.911886013801
 20
19440.48526300002
 30
0.0
 11
25366.911886013801
 21
20170.488166000039
 31
0.0
  0
LINE
  5
15259
  8
SUNPOU
  6
CONTINUOUS
 62
     4
 10
26124.91188601379
 20
19440.48526300002
 30
0.0
 11
26124.91188601379
 21
20170.488166000039
 31
0.0
  0
LINE
  5
1525A
  8
SUNPOU
  6
CONTINUOUS
 62
     4
 10
25366.911886013801
 20
20090.488166000039
 30
0.0
 11
26124.91188601379
 21
20090.488166000039
 31
0.0
  0
LINE
  5
1525B
  8
SUNPOU
  6
CONTINUOUS
 62
     4
 10
28407.41017001378
 20
18910.486978000001
 30
0.0
 11
29457.411490013779
 21
18910.486978000001
 31
0.0
  0
LINE
  5
1525C
  8
SUNPOU
  6
CONTINUOUS
 62
     4
 10
29257.411490013779
 20
19317.986978000012
 30
0.0
 11
29457.411490013779
 21
19317.986978000012
 31
0.0
  0
LINE
  5
1525D
  8
SUNPOU
  6
CONTINUOUS
 62
     4
 10
29377.411490013779
 20
18910.486978000001
 30
0.0
 11
29377.411490013779
 21
19317.986978000012
 31
0.0
  0
LINE
  5
1525E
  8
SUNPOU
  6
CONTINUOUS
 62
     4
 10
25366.911886013801
 20
13126.723544
 30
0.0
 11
25366.911886013801
 21
12781.038893999999
 31
0.0
  0
LINE
  5
1525F
  8
SUNPOU
  6
CONTINUOUS
 62
     4
 10
25324.409643013802
 20
13709.989683000011
 30
0.0
 11
25324.409643013802
 21
12781.038893999999
 31
0.0
  0
LINE
  5
15260
  8
SUNPOU
  6
CONTINUOUS
 62
     4
 10
25366.911886013801
 20
12861.03889400001
 30
0.0
 11
25606.911886013801
 21
12861.03889400001
 31
0.0
  0
LINE
  5
15261
  8
SUNPOU
  6
CONTINUOUS
 62
     4
 10
25324.409643013802
 20
12861.03889400001
 30
0.0
 11
25084.409643013802
 21
12861.03889400001
 31
0.0
  0
LINE
  5
15262
  8
SUNPOU
  6
CONTINUOUS
 62
     4
 10
25366.911886013801
 20
12861.03889400001
 30
0.0
 11
25324.409643013802
 21
12861.03889400001
 31
0.0
  0
LINE
  5
15263
  8
SUNPOU
  6
CONTINUOUS
 62
     4
 10
28284.911886013801
 20
13126.723544
 30
0.0
 11
28284.911886013801
 21
12781.038893999999
 31
0.0
  0
LINE
  5
15264
  8
SUNPOU
  6
CONTINUOUS
 62
     4
 10
28327.414129013789
 20
13709.989683000011
 30
0.0
 11
28327.414129013789
 21
12781.038893999999
 31
0.0
  0
LINE
  5
15265
  8
SUNPOU
  6
CONTINUOUS
 62
     4
 10
28284.911886013801
 20
12861.03889400001
 30
0.0
 11
28044.911886013801
 21
12861.03889400001
 31
0.0
  0
LINE
  5
15266
  8
SUNPOU
  6
CONTINUOUS
 62
     4
 10
28327.414129013789
 20
12861.03889400001
 30
0.0
 11
28567.414129013789
 21
12861.03889400001
 31
0.0
  0
LINE
  5
15267
  8
SUNPOU
  6
CONTINUOUS
 62
     4
 10
28284.911886013801
 20
12861.03889400001
 30
0.0
 11
28327.414129013789
 21
12861.03889400001
 31
0.0
  0
LINE
  5
15268
  8
SUNPOU
  6
CONTINUOUS
 62
     4
 10
28284.911886013801
 20
13126.723544
 30
0.0
 11
28284.911886013801
 21
12781.038893999999
 31
0.0
  0
LINE
  5
15269
  8
SUNPOU
  6
CONTINUOUS
 62
     4
 10
28242.409643013791
 20
13709.989683000011
 30
0.0
 11
28242.409643013791
 21
12781.038893999999
 31
0.0
  0
LINE
  5
1526A
  8
SUNPOU
  6
CONTINUOUS
 62
     4
 10
28284.911886013801
 20
12861.03889400001
 30
0.0
 11
28524.911886013801
 21
12861.03889400001
 31
0.0
  0
LINE
  5
1526B
  8
SUNPOU
  6
CONTINUOUS
 62
     4
 10
28242.409643013791
 20
12861.03889400001
 30
0.0
 11
28002.409643013791
 21
12861.03889400001
 31
0.0
  0
LINE
  5
1526C
  8
SUNPOU
  6
CONTINUOUS
 62
     4
 10
28284.911886013801
 20
12861.03889400001
 30
0.0
 11
28242.409643013791
 21
12861.03889400001
 31
0.0
  0
LINE
  5
1526D
  8
SUNPOU
  6
CONTINUOUS
 62
     4
 10
25366.911886013801
 20
13126.723544
 30
0.0
 11
25366.911886013801
 21
12781.038893999999
 31
0.0
  0
LINE
  5
1526E
  8
SUNPOU
  6
CONTINUOUS
 62
     4
 10
25409.414129013781
 20
13709.989683000011
 30
0.0
 11
25409.414129013781
 21
12781.038893999999
 31
0.0
  0
LINE
  5
1526F
  8
SUNPOU
  6
CONTINUOUS
 62
     4
 10
25366.911886013801
 20
12861.03889400001
 30
0.0
 11
25126.911886013801
 21
12861.03889400001
 31
0.0
  0
LINE
  5
15270
  8
SUNPOU
  6
CONTINUOUS
 62
     4
 10
25409.414129013781
 20
12861.03889400001
 30
0.0
 11
25649.414129013781
 21
12861.03889400001
 31
0.0
  0
LINE
  5
15271
  8
SUNPOU
  6
CONTINUOUS
 62
     4
 10
25366.911886013801
 20
12861.03889400001
 30
0.0
 11
25409.414129013781
 21
12861.03889400001
 31
0.0
  0
LINE
  5
15272
  8
SUNPOU
  6
CONTINUOUS
 62
     4
 10
25324.409643013802
 20
13709.989683000011
 30
0.0
 11
25324.409643013802
 21
12381.038893999999
 31
0.0
  0
LINE
  5
15273
  8
SUNPOU
  6
CONTINUOUS
 62
     4
 10
28327.414129013789
 20
13709.989683000011
 30
0.0
 11
28327.414129013789
 21
12381.038893999999
 31
0.0
  0
LINE
  5
15274
  8
SUNPOU
  6
CONTINUOUS
 62
     4
 10
25324.409643013802
 20
12461.038893999999
 30
0.0
 11
28327.414129013789
 21
12461.038893999999
 31
0.0
  0
LINE
  5
15275
  8
SUNPOU
  6
CONTINUOUS
 62
     4
 10
28407.41017001378
 20
14590.48697800001
 30
0.0
 11
29457.411490013779
 21
14590.48697800001
 31
0.0
  0
LINE
  5
15276
  8
SUNPOU
  6
CONTINUOUS
 62
     4
 10
29257.411490013779
 20
13832.486978000001
 30
0.0
 11
29457.411490013779
 21
13832.486978000001
 31
0.0
  0
LINE
  5
15277
  8
SUNPOU
  6
CONTINUOUS
 62
     4
 10
29377.411490013779
 20
14590.48697800001
 30
0.0
 11
29377.411490013779
 21
13832.486978000001
 31
0.0
  0
LINE
  5
15278
  8
SUNPOU
  6
CONTINUOUS
 62
     4
 10
28407.41017001378
 20
15291.72748950003
 30
0.0
 11
29457.411490013779
 21
15291.72748950003
 31
0.0
  0
LINE
  5
15279
  8
SUNPOU
  6
CONTINUOUS
 62
     4
 10
28407.41017001378
 20
14590.48697800001
 30
0.0
 11
29457.411490013779
 21
14590.48697800001
 31
0.0
  0
LINE
  5
1527A
  8
SUNPOU
  6
CONTINUOUS
 62
     4
 10
29377.411490013779
 20
15291.72748950003
 30
0.0
 11
29377.411490013779
 21
14590.48697800001
 31
0.0
  0
LINE
  5
1527B
  8
SUNPOU
  6
CONTINUOUS
 62
     4
 10
28407.41017001378
 20
15992.48697800001
 30
0.0
 11
29457.411490013779
 21
15992.48697800001
 31
0.0
  0
LINE
  5
1527C
  8
SUNPOU
  6
CONTINUOUS
 62
     4
 10
28407.41017001378
 20
15291.72748950003
 30
0.0
 11
29457.411490013779
 21
15291.72748950003
 31
0.0
  0
LINE
  5
1527D
  8
SUNPOU
  6
CONTINUOUS
 62
     4
 10
29377.411490013779
 20
15992.48697800001
 30
0.0
 11
29377.411490013779
 21
15291.72748950003
 31
0.0
  0
LINE
  5
1527E
  8
SUNPOU
  6
CONTINUOUS
 62
     4
 10
29257.411490013779
 20
16750.486978000012
 30
0.0
 11
29457.411490013779
 21
16750.486978000012
 31
0.0
  0
LINE
  5
1527F
  8
SUNPOU
  6
CONTINUOUS
 62
     4
 10
28407.41017001378
 20
15992.48697800001
 30
0.0
 11
29457.411490013779
 21
15992.48697800001
 31
0.0
  0
LINE
  5
15280
  8
SUNPOU
  6
CONTINUOUS
 62
     4
 10
29377.411490013779
 20
16750.486978000012
 30
0.0
 11
29377.411490013779
 21
15992.48697800001
 31
0.0
  0
LINE
  5
15281
  8
SUNPOU
  6
CONTINUOUS
 62
     4
 10
28407.41017001378
 20
17508.486978000012
 30
0.0
 11
29457.411490013779
 21
17508.486978000012
 31
0.0
  0
LINE
  5
15282
  8
SUNPOU
  6
CONTINUOUS
 62
     4
 10
29257.411490013779
 20
16750.486978000012
 30
0.0
 11
29457.411490013779
 21
16750.486978000012
 31
0.0
  0
LINE
  5
15283
  8
SUNPOU
  6
CONTINUOUS
 62
     4
 10
29377.411490013779
 20
17508.486978000012
 30
0.0
 11
29377.411490013779
 21
16750.486978000012
 31
0.0
  0
LINE
  5
15284
  8
SUNPOU
  6
CONTINUOUS
 62
     4
 10
28407.41017001378
 20
18209.486978000012
 30
0.0
 11
29457.411490013779
 21
18209.486978000012
 31
0.0
  0
LINE
  5
15285
  8
SUNPOU
  6
CONTINUOUS
 62
     4
 10
28407.41017001378
 20
17508.486978000012
 30
0.0
 11
29457.411490013779
 21
17508.486978000012
 31
0.0
  0
LINE
  5
15286
  8
SUNPOU
  6
CONTINUOUS
 62
     4
 10
29377.411490013779
 20
18209.486978000012
 30
0.0
 11
29377.411490013779
 21
17508.486978000012
 31
0.0
  0
LINE
  5
15287
  8
SUNPOU
  6
CONTINUOUS
 62
     4
 10
28407.41017001378
 20
18910.486978000001
 30
0.0
 11
29457.411490013779
 21
18910.486978000001
 31
0.0
  0
LINE
  5
15288
  8
SUNPOU
  6
CONTINUOUS
 62
     4
 10
28407.41017001378
 20
18209.486978000012
 30
0.0
 11
29457.411490013779
 21
18209.486978000012
 31
0.0
  0
LINE
  5
15289
  8
SUNPOU
  6
CONTINUOUS
 62
     4
 10
29377.411490013779
 20
18910.486978000001
 30
0.0
 11
29377.411490013779
 21
18209.486978000012
 31
0.0
  0
LINE
  5
1528A
  8
SUNPOU
  6
CONTINUOUS
 62
     4
 10
29257.411490013779
 20
19317.986978000012
 30
0.0
 11
29457.411490013779
 21
19317.98697799999
 31
0.0
  0
LINE
  5
1528B
  8
SUNPOU
  6
CONTINUOUS
 62
     4
 10
29257.411490013779
 20
13832.486978000001
 30
0.0
 11
29457.411490013779
 21
13832.486978000001
 31
0.0
  0
LINE
  5
1528C
  8
SUNPOU
  6
CONTINUOUS
 62
     4
 10
28407.41017001378
 20
19360.484273000009
 30
0.0
 11
29857.41149001379
 21
19360.484273000009
 31
0.0
  0
LINE
  5
1528D
  8
SUNPOU
  6
CONTINUOUS
 62
     4
 10
28407.41017001378
 20
13789.989683000011
 30
0.0
 11
29857.41149001379
 21
13789.989683000011
 31
0.0
  0
LINE
  5
1528E
  8
SUNPOU
  6
CONTINUOUS
 62
     4
 10
29777.41149001379
 20
19360.484273000009
 30
0.0
 11
29777.41149001379
 21
13789.989683000011
 31
0.0
  0
LINE
  5
1528F
  8
SUNPOU
  6
CONTINUOUS
 62
     4
 10
29257.411490013779
 20
19317.986978000012
 30
0.0
 11
29457.411490013779
 21
19317.98697799999
 31
0.0
  0
LINE
  5
15290
  8
SUNPOU
  6
CONTINUOUS
 62
     4
 10
28407.41017001378
 20
19360.484273000009
 30
0.0
 11
29457.411490013779
 21
19360.484273000009
 31
0.0
  0
LINE
  5
15291
  8
SUNPOU
  6
CONTINUOUS
 62
     4
 10
29377.411490013779
 20
19317.98697799999
 30
0.0
 11
29377.411490013779
 21
19077.98697799999
 31
0.0
  0
LINE
  5
15292
  8
SUNPOU
  6
CONTINUOUS
 62
     4
 10
29377.411490013779
 20
19360.484273000009
 30
0.0
 11
29377.411490013779
 21
19600.484273000009
 31
0.0
  0
LINE
  5
15293
  8
SUNPOU
  6
CONTINUOUS
 62
     4
 10
29377.411490013779
 20
19317.98697799999
 30
0.0
 11
29377.411490013779
 21
19360.484273000009
 31
0.0
  0
LINE
  5
15294
  8
SUNPOU
  6
CONTINUOUS
 62
     4
 10
29257.411490013779
 20
13832.486978000001
 30
0.0
 11
29457.411490013779
 21
13832.486978000001
 31
0.0
  0
LINE
  5
15295
  8
SUNPOU
  6
CONTINUOUS
 62
     4
 10
28407.41017001378
 20
13789.989683000011
 30
0.0
 11
29457.411490013779
 21
13789.989683000011
 31
0.0
  0
LINE
  5
15296
  8
SUNPOU
  6
CONTINUOUS
 62
     4
 10
29377.411490013779
 20
13832.486978000001
 30
0.0
 11
29377.411490013779
 21
14072.486978000001
 31
0.0
  0
LINE
  5
15297
  8
SUNPOU
  6
CONTINUOUS
 62
     4
 10
29377.411490013779
 20
13789.989683000011
 30
0.0
 11
29377.411490013779
 21
13549.989683000011
 31
0.0
  0
LINE
  5
15298
  8
SUNPOU
  6
CONTINUOUS
 62
     4
 10
29377.411490013779
 20
13832.486978000001
 30
0.0
 11
29377.411490013779
 21
13789.989683000011
 31
0.0
  0
LINE
  5
15299
  8
SUNPOU
  6
CONTINUOUS
 62
     4
 10
27526.911886013801
 20
19440.48526300002
 30
0.0
 11
27526.911886013801
 21
20170.488166000039
 31
0.0
  0
LINE
  5
1529A
  8
SUNPOU
  6
CONTINUOUS
 62
     4
 10
28284.912875513801
 20
19440.48526300002
 30
0.0
 11
28284.912875513801
 21
20170.488166000039
 31
0.0
  0
LINE
  5
1529B
  8
SUNPOU
  6
CONTINUOUS
 62
     4
 10
27526.911886013801
 20
20090.488166000039
 30
0.0
 11
28284.912875513801
 21
20090.488166000039
 31
0.0
  0
LINE
  5
1529C
  8
SUNPOU
  6
CONTINUOUS
 62
     4
 10
26825.911886013801
 20
19440.48526300002
 30
0.0
 11
26825.911886013801
 21
20170.488166000039
 31
0.0
  0
LINE
  5
1529D
  8
SUNPOU
  6
CONTINUOUS
 62
     4
 10
27526.911886013801
 20
19440.48526300002
 30
0.0
 11
27526.911886013801
 21
20170.488166000039
 31
0.0
  0
LINE
  5
1529E
  8
SUNPOU
  6
CONTINUOUS
 62
     4
 10
26825.911886013801
 20
20090.488166000039
 30
0.0
 11
27526.911886013801
 21
20090.488166000039
 31
0.0
  0
LINE
  5
1529F
  8
SUNPOU
  6
CONTINUOUS
 62
     4
 10
26124.91188601379
 20
19440.48526300002
 30
0.0
 11
26124.91188601379
 21
20170.488166000039
 31
0.0
  0
LINE
  5
152A0
  8
SUNPOU
  6
CONTINUOUS
 62
     4
 10
26825.911886013801
 20
19440.48526300002
 30
0.0
 11
26825.911886013801
 21
20170.488166000039
 31
0.0
  0
LINE
  5
152A1
  8
SUNPOU
  6
CONTINUOUS
 62
     4
 10
26124.91188601379
 20
20090.488166000039
 30
0.0
 11
26825.911886013801
 21
20090.488166000039
 31
0.0
  0
LINE
  5
152A2
  8
SUNPOU
  6
CONTINUOUS
 62
     4
 10
28284.911886013801
 20
19440.48526300002
 30
0.0
 11
28284.911886013801
 21
20170.488166000039
 31
0.0
  0
LINE
  5
152A3
  8
SUNPOU
  6
CONTINUOUS
 62
     4
 10
28327.40819101379
 20
19440.48526300002
 30
0.0
 11
28327.40819101379
 21
20170.488166000039
 31
0.0
  0
LINE
  5
152A4
  8
SUNPOU
  6
CONTINUOUS
 62
     4
 10
28284.911886013801
 20
20090.488166000039
 30
0.0
 11
28044.911886013801
 21
20090.488166000039
 31
0.0
  0
LINE
  5
152A5
  8
SUNPOU
  6
CONTINUOUS
 62
     4
 10
28327.40819101379
 20
20090.488166000039
 30
0.0
 11
28567.40819101379
 21
20090.488166000039
 31
0.0
  0
LINE
  5
152A6
  8
SUNPOU
  6
CONTINUOUS
 62
     4
 10
28284.911886013801
 20
20090.488166000039
 30
0.0
 11
28327.40819101379
 21
20090.488166000039
 31
0.0
  0
LINE
  5
152A7
  8
SUNPOU
  6
CONTINUOUS
 62
     4
 10
25366.911886013801
 20
19440.48526300002
 30
0.0
 11
25366.911886013801
 21
20170.488166000039
 31
0.0
  0
LINE
  5
152A8
  8
SUNPOU
  6
CONTINUOUS
 62
     4
 10
25324.415581013789
 20
19440.48526300002
 30
0.0
 11
25324.415581013789
 21
20170.488166000039
 31
0.0
  0
LINE
  5
152A9
  8
SUNPOU
  6
CONTINUOUS
 62
     4
 10
25366.911886013801
 20
20090.488166000039
 30
0.0
 11
25606.911886013801
 21
20090.488166000039
 31
0.0
  0
LINE
  5
152AA
  8
SUNPOU
  6
CONTINUOUS
 62
     4
 10
25324.415581013789
 20
20090.488166000039
 30
0.0
 11
25084.415581013789
 21
20090.488166000039
 31
0.0
  0
LINE
  5
152AB
  8
SUNPOU
  6
CONTINUOUS
 62
     4
 10
25366.911886013801
 20
20090.488166000039
 30
0.0
 11
25324.415581013789
 21
20090.488166000039
 31
0.0
  0
TEXT
  5
152AC
  8
0
  6
CONTINUOUS
 62
     7
 10
24764.099906484989
 20
20170.488166000039
 30
0.0
 40
160.0
  1
42.5
  0
TEXT
  5
152AD
  8
0
  6
CONTINUOUS
 62
     7
 10
28407.723865542579
 20
20170.488166000039
 30
0.0
 40
160.0
  1
42.5
  0
TEXT
  5
152AE
  8
0
  6
CONTINUOUS
 62
     7
 10
26302.078552680461
 20
20170.488166000039
 30
0.0
 40
160.0
  1
701
  0
TEXT
  5
152AF
  8
0
  6
CONTINUOUS
 62
     7
 10
27003.078552680461
 20
20170.488166000039
 30
0.0
 40
160.0
  1
701
  0
TEXT
  5
152B0
  8
0
  6
CONTINUOUS
 62
     7
 10
27692.579047430459
 20
20170.488166000039
 30
0.0
 40
160.0
  1
758
  0
TEXT
  5
152B1
  8
0
  6
CONTINUOUS
 62
     7
 10
29297.411490013779
 20
13216.433446603211
 30
0.0
 40
160.0
  1
42.5
 50
90.0
  0
TEXT
  5
152B2
  8
0
  6
CONTINUOUS
 62
     7
 10
29297.411490013779
 20
19454.0405093968
 30
0.0
 40
160.0
  1
42.5
 50
90.0
  0
TEXT
  5
152B3
  8
0
  6
CONTINUOUS
 62
     7
 10
29697.41149001379
 20
16188.570311333349
 30
0.0
 40
160.0
  1
5570.5
 50
90.0
  0
TEXT
  5
152B4
  8
0
  6
CONTINUOUS
 62
     7
 10
29297.411490013779
 20
18386.65364466668
 30
0.0
 40
160.0
  1
701
 50
90.0
  0
TEXT
  5
152B5
  8
0
  6
CONTINUOUS
 62
     7
 10
29297.411490013779
 20
17685.65364466668
 30
0.0
 40
160.0
  1
701
 50
90.0
  0
TEXT
  5
152B6
  8
0
  6
CONTINUOUS
 62
     7
 10
29297.411490013779
 20
16916.15364466668
 30
0.0
 40
160.0
  1
758
 50
90.0
  0
TEXT
  5
152B7
  8
0
  6
CONTINUOUS
 62
     7
 10
29297.411490013779
 20
16158.15364466668
 30
0.0
 40
160.0
  1
758
 50
90.0
  0
TEXT
  5
152B8
  8
0
  6
CONTINUOUS
 62
     7
 10
29297.411490013779
 20
15468.773900416691
 30
0.0
 40
160.0
  1
701
 50
90.0
  0
TEXT
  5
152B9
  8
0
  6
CONTINUOUS
 62
     7
 10
29297.411490013779
 20
14767.773900416691
 30
0.0
 40
160.0
  1
701
 50
90.0
  0
TEXT
  5
152BA
  8
0
  6
CONTINUOUS
 62
     7
 10
29297.411490013779
 20
13998.153644666671
 30
0.0
 40
160.0
  1
758
 50
90.0
  0
TEXT
  5
152BB
  8
0
  6
CONTINUOUS
 62
     7
 10
26559.245219347129
 20
12541.038893999999
 30
0.0
 40
160.0
  1
3003
  0
TEXT
  5
152BC
  8
0
  6
CONTINUOUS
 62
     7
 10
25484.965558395881
 20
12941.03889400001
 30
0.0
 40
160.0
  1
42.5
  0
TEXT
  5
152BD
  8
0
  6
CONTINUOUS
 62
     7
 10
27686.858213631709
 20
12941.03889400001
 30
0.0
 40
160.0
  1
42.5
  0
TEXT
  5
152BE
  8
0
  6
CONTINUOUS
 62
     7
 10
28402.965558395881
 20
12941.03889400001
 30
0.0
 40
160.0
  1
42.5
  0
TEXT
  5
152BF
  8
0
  6
CONTINUOUS
 62
     7
 10
24768.858213631702
 20
12941.03889400001
 30
0.0
 40
160.0
  1
42.5
  0
TEXT
  5
152C0
  8
0
  6
CONTINUOUS
 62
     7
 10
29657.411490013779
 20
18619.864945643221
 30
0.0
 40
160.0
  1
407.5
 50
90.0
  0
TEXT
  5
152C1
  8
0
  6
CONTINUOUS
 62
     7
 10
25532.578552680461
 20
20170.488166000039
 30
0.0
 40
160.0
  1
758
  0
ARC
  5
152C2
  8
0
  6
BYBLOCK
 62
     0
 10
25366.911886013801
 20
20090.488166000039
 30
0.0
 40
15.0
 50
0.0
 51
180.0
  0
ARC
  5
152C3
  8
0
  6
BYBLOCK
 62
     0
 10
25366.911886013801
 20
20090.488166000039
 30
0.0
 40
15.0
 50
180.0
 51
0.0
  0
ARC
  5
152C4
  8
0
  6
BYBLOCK
 62
     0
 10
26124.91188601379
 20
20090.488166000039
 30
0.0
 40
15.0
 50
180.0
 51
0.0
  0
ARC
  5
152C5
  8
0
  6
BYBLOCK
 62
     0
 10
26124.91188601379
 20
20090.488166000039
 30
0.0
 40
15.0
 50
0.0
 51
180.0
  0
ARC
  5
152C6
  8
0
  6
BYBLOCK
 62
     0
 10
29377.411490013779
 20
18910.486978000001
 30
0.0
 40
15.0
 50
90.0
 51
270.0
  0
ARC
  5
152C7
  8
0
  6
BYBLOCK
 62
     0
 10
29377.411490013779
 20
18910.486978000001
 30
0.0
 40
15.0
 50
270.0
 51
90.0
  0
ARC
  5
152C8
  8
0
  6
BYBLOCK
 62
     0
 10
29377.411490013779
 20
19317.986978000012
 30
0.0
 40
15.0
 50
270.0
 51
90.0
  0
ARC
  5
152C9
  8
0
  6
BYBLOCK
 62
     0
 10
29377.411490013779
 20
19317.986978000012
 30
0.0
 40
15.0
 50
90.0
 51
270.0
  0
ARC
  5
152CA
  8
0
  6
BYBLOCK
 62
     0
 10
25366.911886013801
 20
12861.03889400001
 30
0.0
 40
15.0
 50
0.0
 51
180.0
  0
ARC
  5
152CB
  8
0
  6
BYBLOCK
 62
     0
 10
25366.911886013801
 20
12861.03889400001
 30
0.0
 40
15.0
 50
180.0
 51
0.0
  0
ARC
  5
152CC
  8
0
  6
BYBLOCK
 62
     0
 10
25324.409643013802
 20
12861.03889400001
 30
0.0
 40
15.0
 50
180.0
 51
0.0
  0
ARC
  5
152CD
  8
0
  6
BYBLOCK
 62
     0
 10
25324.409643013802
 20
12861.03889400001
 30
0.0
 40
15.0
 50
0.0
 51
180.0
  0
ARC
  5
152CE
  8
0
  6
BYBLOCK
 62
     0
 10
28284.911886013801
 20
12861.03889400001
 30
0.0
 40
15.0
 50
180.0
 51
0.0
  0
ARC
  5
152CF
  8
0
  6
BYBLOCK
 62
     0
 10
28284.911886013801
 20
12861.03889400001
 30
0.0
 40
15.0
 50
0.0
 51
180.0
  0
ARC
  5
152D0
  8
0
  6
BYBLOCK
 62
     0
 10
28327.414129013789
 20
12861.03889400001
 30
0.0
 40
15.0
 50
0.0
 51
180.0
  0
ARC
  5
152D1
  8
0
  6
BYBLOCK
 62
     0
 10
28327.414129013789
 20
12861.03889400001
 30
0.0
 40
15.0
 50
180.0
 51
0.0
  0
ARC
  5
152D2
  8
0
  6
BYBLOCK
 62
     0
 10
28284.911886013801
 20
12861.03889400001
 30
0.0
 40
15.0
 50
0.0
 51
180.0
  0
ARC
  5
152D3
  8
0
  6
BYBLOCK
 62
     0
 10
28284.911886013801
 20
12861.03889400001
 30
0.0
 40
15.0
 50
180.0
 51
0.0
  0
ARC
  5
152D4
  8
0
  6
BYBLOCK
 62
     0
 10
28242.409643013791
 20
12861.03889400001
 30
0.0
 40
15.0
 50
180.0
 51
0.0
  0
ARC
  5
152D5
  8
0
  6
BYBLOCK
 62
     0
 10
28242.409643013791
 20
12861.03889400001
 30
0.0
 40
15.0
 50
0.0
 51
180.0
  0
ARC
  5
152D6
  8
0
  6
BYBLOCK
 62
     0
 10
25366.911886013801
 20
12861.03889400001
 30
0.0
 40
15.0
 50
180.0
 51
0.0
  0
ARC
  5
152D7
  8
0
  6
BYBLOCK
 62
     0
 10
25366.911886013801
 20
12861.03889400001
 30
0.0
 40
15.0
 50
0.0
 51
180.0
  0
ARC
  5
152D8
  8
0
  6
BYBLOCK
 62
     0
 10
25409.414129013781
 20
12861.03889400001
 30
0.0
 40
15.0
 50
0.0
 51
180.0
  0
ARC
  5
152D9
  8
0
  6
BYBLOCK
 62
     0
 10
25409.414129013781
 20
12861.03889400001
 30
0.0
 40
15.0
 50
180.0
 51
0.0
  0
ARC
  5
152DA
  8
0
  6
BYBLOCK
 62
     0
 10
25324.409643013802
 20
12461.038893999999
 30
0.0
 40
15.0
 50
0.0
 51
180.0
  0
ARC
  5
152DB
  8
0
  6
BYBLOCK
 62
     0
 10
25324.409643013802
 20
12461.038893999999
 30
0.0
 40
15.0
 50
180.0
 51
0.0
  0
ARC
  5
152DC
  8
0
  6
BYBLOCK
 62
     0
 10
28327.414129013789
 20
12461.038893999999
 30
0.0
 40
15.0
 50
180.0
 51
0.0
  0
ARC
  5
152DD
  8
0
  6
BYBLOCK
 62
     0
 10
28327.414129013789
 20
12461.038893999999
 30
0.0
 40
15.0
 50
0.0
 51
180.0
  0
ARC
  5
152DE
  8
0
  6
BYBLOCK
 62
     0
 10
29377.411490013779
 20
14590.48697800001
 30
0.0
 40
15.0
 50
270.0
 51
90.0
  0
ARC
  5
152DF
  8
0
  6
BYBLOCK
 62
     0
 10
29377.411490013779
 20
14590.48697800001
 30
0.0
 40
15.0
 50
90.0
 51
270.0
  0
ARC
  5
152E0
  8
0
  6
BYBLOCK
 62
     0
 10
29377.411490013779
 20
13832.486978000001
 30
0.0
 40
15.0
 50
90.0
 51
270.0
  0
ARC
  5
152E1
  8
0
  6
BYBLOCK
 62
     0
 10
29377.411490013779
 20
13832.486978000001
 30
0.0
 40
15.0
 50
270.0
 51
90.0
  0
ARC
  5
152E2
  8
0
  6
BYBLOCK
 62
     0
 10
29377.411490013779
 20
15291.72748950003
 30
0.0
 40
15.0
 50
270.0
 51
90.0
  0
ARC
  5
152E3
  8
0
  6
BYBLOCK
 62
     0
 10
29377.411490013779
 20
15291.72748950003
 30
0.0
 40
15.0
 50
90.0
 51
270.0
  0
ARC
  5
152E4
  8
0
  6
BYBLOCK
 62
     0
 10
29377.411490013779
 20
14590.48697800001
 30
0.0
 40
15.0
 50
90.0
 51
270.0
  0
ARC
  5
152E5
  8
0
  6
BYBLOCK
 62
     0
 10
29377.411490013779
 20
14590.48697800001
 30
0.0
 40
15.0
 50
270.0
 51
90.0
  0
ARC
  5
152E6
  8
0
  6
BYBLOCK
 62
     0
 10
29377.411490013779
 20
15992.48697800001
 30
0.0
 40
15.0
 50
270.0
 51
90.0
  0
ARC
  5
152E7
  8
0
  6
BYBLOCK
 62
     0
 10
29377.411490013779
 20
15992.48697800001
 30
0.0
 40
15.0
 50
90.0
 51
270.0
  0
ARC
  5
152E8
  8
0
  6
BYBLOCK
 62
     0
 10
29377.411490013779
 20
15291.72748950003
 30
0.0
 40
15.0
 50
90.0
 51
270.0
  0
ARC
  5
152E9
  8
0
  6
BYBLOCK
 62
     0
 10
29377.411490013779
 20
15291.72748950003
 30
0.0
 40
15.0
 50
270.0
 51
90.0
  0
ARC
  5
152EA
  8
0
  6
BYBLOCK
 62
     0
 10
29377.411490013779
 20
16750.486978000012
 30
0.0
 40
15.0
 50
270.0
 51
90.0
  0
ARC
  5
152EB
  8
0
  6
BYBLOCK
 62
     0
 10
29377.411490013779
 20
16750.486978000012
 30
0.0
 40
15.0
 50
90.0
 51
270.0
  0
ARC
  5
152EC
  8
0
  6
BYBLOCK
 62
     0
 10
29377.411490013779
 20
15992.48697800001
 30
0.0
 40
15.0
 50
90.0
 51
270.0
  0
ARC
  5
152ED
  8
0
  6
BYBLOCK
 62
     0
 10
29377.411490013779
 20
15992.48697800001
 30
0.0
 40
15.0
 50
270.0
 51
90.0
  0
ARC
  5
152EE
  8
0
  6
BYBLOCK
 62
     0
 10
29377.411490013779
 20
17508.486978000012
 30
0.0
 40
15.0
 50
270.0
 51
90.0
  0
ARC
  5
152EF
  8
0
  6
BYBLOCK
 62
     0
 10
29377.411490013779
 20
17508.486978000012
 30
0.0
 40
15.0
 50
90.0
 51
270.0
  0
ARC
  5
152F0
  8
0
  6
BYBLOCK
 62
     0
 10
29377.411490013779
 20
16750.486978000012
 30
0.0
 40
15.0
 50
90.0
 51
270.0
  0
ARC
  5
152F1
  8
0
  6
BYBLOCK
 62
     0
 10
29377.411490013779
 20
16750.486978000012
 30
0.0
 40
15.0
 50
270.0
 51
90.0
  0
ARC
  5
152F2
  8
0
  6
BYBLOCK
 62
     0
 10
29377.411490013779
 20
18209.486978000012
 30
0.0
 40
15.0
 50
270.0
 51
90.0
  0
ARC
  5
152F3
  8
0
  6
BYBLOCK
 62
     0
 10
29377.411490013779
 20
18209.486978000012
 30
0.0
 40
15.0
 50
90.0
 51
270.0
  0
ARC
  5
152F4
  8
0
  6
BYBLOCK
 62
     0
 10
29377.411490013779
 20
17508.486978000012
 30
0.0
 40
15.0
 50
90.0
 51
270.0
  0
ARC
  5
152F5
  8
0
  6
BYBLOCK
 62
     0
 10
29377.411490013779
 20
17508.486978000012
 30
0.0
 40
15.0
 50
270.0
 51
90.0
  0
ARC
  5
152F6
  8
0
  6
BYBLOCK
 62
     0
 10
29377.411490013779
 20
18910.486978000001
 30
0.0
 40
15.0
 50
270.0
 51
90.0
  0
ARC
  5
152F7
  8
0
  6
BYBLOCK
 62
     0
 10
29377.411490013779
 20
18910.486978000001
 30
0.0
 40
15.0
 50
90.0
 51
270.0
  0
ARC
  5
152F8
  8
0
  6
BYBLOCK
 62
     0
 10
29377.411490013779
 20
18209.486978000012
 30
0.0
 40
15.0
 50
90.0
 51
270.0
  0
ARC
  5
152F9
  8
0
  6
BYBLOCK
 62
     0
 10
29377.411490013779
 20
18209.486978000012
 30
0.0
 40
15.0
 50
270.0
 51
90.0
  0
ARC
  5
152FA
  8
0
  6
BYBLOCK
 62
     0
 10
29377.411490013779
 20
19317.98697799999
 30
0.0
 40
15.0
 50
270.0
 51
90.0
  0
ARC
  5
152FB
  8
0
  6
BYBLOCK
 62
     0
 10
29377.411490013779
 20
19317.98697799999
 30
0.0
 40
15.0
 50
90.0
 51
270.0
  0
ARC
  5
152FC
  8
0
  6
BYBLOCK
 62
     0
 10
29377.411490013779
 20
13832.486978000001
 30
0.0
 40
15.0
 50
90.0
 51
270.0
  0
ARC
  5
152FD
  8
0
  6
BYBLOCK
 62
     0
 10
29377.411490013779
 20
13832.486978000001
 30
0.0
 40
15.0
 50
270.0
 51
90.0
  0
ARC
  5
152FE
  8
0
  6
BYBLOCK
 62
     0
 10
29777.41149001379
 20
19360.484273000009
 30
0.0
 40
15.0
 50
270.0
 51
90.0
  0
ARC
  5
152FF
  8
0
  6
BYBLOCK
 62
     0
 10
29777.41149001379
 20
19360.484273000009
 30
0.0
 40
15.0
 50
90.0
 51
270.0
  0
ARC
  5
15300
  8
0
  6
BYBLOCK
 62
     0
 10
29777.41149001379
 20
13789.989683000011
 30
0.0
 40
15.0
 50
90.0
 51
270.0
  0
ARC
  5
15301
  8
0
  6
BYBLOCK
 62
     0
 10
29777.41149001379
 20
13789.989683000011
 30
0.0
 40
15.0
 50
270.0
 51
90.0
  0
ARC
  5
15302
  8
0
  6
BYBLOCK
 62
     0
 10
29377.411490013779
 20
19317.98697799999
 30
0.0
 40
15.0
 50
270.0
 51
90.0
  0
ARC
  5
15303
  8
0
  6
BYBLOCK
 62
     0
 10
29377.411490013779
 20
19317.98697799999
 30
0.0
 40
15.0
 50
90.0
 51
270.0
  0
ARC
  5
15304
  8
0
  6
BYBLOCK
 62
     0
 10
29377.411490013779
 20
19360.484273000009
 30
0.0
 40
15.0
 50
90.0
 51
270.0
  0
ARC
  5
15305
  8
0
  6
BYBLOCK
 62
     0
 10
29377.411490013779
 20
19360.484273000009
 30
0.0
 40
15.0
 50
270.0
 51
90.0
  0
ARC
  5
15306
  8
0
  6
BYBLOCK
 62
     0
 10
29377.411490013779
 20
13832.486978000001
 30
0.0
 40
15.0
 50
90.0
 51
270.0
  0
ARC
  5
15307
  8
0
  6
BYBLOCK
 62
     0
 10
29377.411490013779
 20
13832.486978000001
 30
0.0
 40
15.0
 50
270.0
 51
90.0
  0
ARC
  5
15308
  8
0
  6
BYBLOCK
 62
     0
 10
29377.411490013779
 20
13789.989683000011
 30
0.0
 40
15.0
 50
270.0
 51
90.0
  0
ARC
  5
15309
  8
0
  6
BYBLOCK
 62
     0
 10
29377.411490013779
 20
13789.989683000011
 30
0.0
 40
15.0
 50
90.0
 51
270.0
  0
ARC
  5
1530A
  8
0
  6
BYBLOCK
 62
     0
 10
27526.911886013801
 20
20090.488166000039
 30
0.0
 40
15.0
 50
0.0
 51
180.0
  0
ARC
  5
1530B
  8
0
  6
BYBLOCK
 62
     0
 10
27526.911886013801
 20
20090.488166000039
 30
0.0
 40
15.0
 50
180.0
 51
0.0
  0
ARC
  5
1530C
  8
0
  6
BYBLOCK
 62
     0
 10
28284.912875513801
 20
20090.488166000039
 30
0.0
 40
15.0
 50
180.0
 51
0.0
  0
ARC
  5
1530D
  8
0
  6
BYBLOCK
 62
     0
 10
28284.912875513801
 20
20090.488166000039
 30
0.0
 40
15.0
 50
0.0
 51
180.0
  0
ARC
  5
1530E
  8
0
  6
BYBLOCK
 62
     0
 10
26825.911886013801
 20
20090.488166000039
 30
0.0
 40
15.0
 50
0.0
 51
180.0
  0
ARC
  5
1530F
  8
0
  6
BYBLOCK
 62
     0
 10
26825.911886013801
 20
20090.488166000039
 30
0.0
 40
15.0
 50
180.0
 51
0.0
  0
ARC
  5
15310
  8
0
  6
BYBLOCK
 62
     0
 10
27526.911886013801
 20
20090.488166000039
 30
0.0
 40
15.0
 50
180.0
 51
0.0
  0
ARC
  5
15311
  8
0
  6
BYBLOCK
 62
     0
 10
27526.911886013801
 20
20090.488166000039
 30
0.0
 40
15.0
 50
0.0
 51
180.0
  0
ARC
  5
15312
  8
0
  6
BYBLOCK
 62
     0
 10
26124.91188601379
 20
20090.488166000039
 30
0.0
 40
15.0
 50
0.0
 51
180.0
  0
ARC
  5
15313
  8
0
  6
BYBLOCK
 62
     0
 10
26124.91188601379
 20
20090.488166000039
 30
0.0
 40
15.0
 50
180.0
 51
0.0
  0
ARC
  5
15314
  8
0
  6
BYBLOCK
 62
     0
 10
26825.911886013801
 20
20090.488166000039
 30
0.0
 40
15.0
 50
180.0
 51
0.0
  0
ARC
  5
15315
  8
0
  6
BYBLOCK
 62
     0
 10
26825.911886013801
 20
20090.488166000039
 30
0.0
 40
15.0
 50
0.0
 51
180.0
  0
ARC
  5
15316
  8
0
  6
BYBLOCK
 62
     0
 10
28284.911886013801
 20
20090.488166000039
 30
0.0
 40
15.0
 50
180.0
 51
0.0
  0
ARC
  5
15317
  8
0
  6
BYBLOCK
 62
     0
 10
28284.911886013801
 20
20090.488166000039
 30
0.0
 40
15.0
 50
0.0
 51
180.0
  0
ARC
  5
15318
  8
0
  6
BYBLOCK
 62
     0
 10
28327.40819101379
 20
20090.488166000039
 30
0.0
 40
15.0
 50
0.0
 51
180.0
  0
ARC
  5
15319
  8
0
  6
BYBLOCK
 62
     0
 10
28327.40819101379
 20
20090.488166000039
 30
0.0
 40
15.0
 50
180.0
 51
0.0
  0
ARC
  5
1531A
  8
0
  6
BYBLOCK
 62
     0
 10
25366.911886013801
 20
20090.488166000039
 30
0.0
 40
15.0
 50
0.0
 51
180.0
  0
ARC
  5
1531B
  8
0
  6
BYBLOCK
 62
     0
 10
25366.911886013801
 20
20090.488166000039
 30
0.0
 40
15.0
 50
180.0
 51
0.0
  0
ARC
  5
1531C
  8
0
  6
BYBLOCK
 62
     0
 10
25324.415581013789
 20
20090.488166000039
 30
0.0
 40
15.0
 50
180.0
 51
0.0
  0
ARC
  5
1531D
  8
0
  6
BYBLOCK
 62
     0
 10
25324.415581013789
 20
20090.488166000039
 30
0.0
 40
15.0
 50
0.0
 51
180.0
  0
LINE
  5
1531E
  8
SUNPOU
  6
CONTINUOUS
 10
25366.911886013801
 20
13126.723544
 30
0.0
 11
25366.911886013801
 21
13474.73309953157
 31
0.0
  0
LINE
  5
1531F
  8
SUNPOU
  6
CONTINUOUS
 10
28284.911886013801
 20
13126.723544
 30
0.0
 11
28284.911886013801
 21
13514.31369098508
 31
0.0
  0
TEXT
  5
15463
  8
FILENAME
  6
CONTINUOUS
 10
26518.285714285721
 20
348.0
 30
0.0
 40
200.0
  1
＜VGC-3055+VKC-5055-L-1-A_0.DXF ＞
  7
FILENAME
 72
     2
 11
32764.0
 21
348.0
 31
0.0
  0
LINE
  5
15468
  8
WAKUSEN-01
 10
868.00000000000193
 20
827.99999999999955
 30
0.0
 11
32764.000000000011
 21
827.99999999999943
 31
0.0
  0
LINE
  5
15469
  8
WAKUSEN-01
 10
868.00000000000193
 20
827.99999999999955
 30
0.0
 11
868.00000000000193
 21
22484.000000000011
 31
0.0
  0
LINE
  5
1546A
  8
WAKUSEN-01
 10
32764.000000000011
 20
827.99999999999943
 30
0.0
 11
32764.000000000011
 21
22484.000000000011
 31
0.0
  0
LINE
  5
1546B
  8
WAKUSEN-01
 10
20560.0
 20
827.99999999999716
 30
0.0
 11
20560.0
 21
2484.0
 31
0.0
  0
LINE
  5
1546C
  8
WAKUSEN-02
 10
26868.0
 20
827.99999999999261
 30
0.0
 11
26868.0
 21
2484.0
 31
0.0
  0
ENDSEC
  0
EOF
