  0
SECTION
  2
HEADER
  9
$ACADVER
  1
AC1009
  9
$INSBASE
 10
0.0
 20
0.0
 30
0.0
  9
$EXTMIN
 10
867.99324330406671
 20
327.38164749855792
 30
-0.0000000000112498
  9
$EXTMAX
 10
32765.33210850941
 20
22484.553276491992
 30
0.0000000000002956
  9
$LIMMIN
 10
0.0
 20
0.0
  9
$LIMMAX
 10
33600.0
 20
23760.0
  9
$ORTHOMODE
 70
     1
  9
$REGENMODE
 70
     1
  9
$FILLMODE
 70
     1
  9
$QTEXTMODE
 70
     0
  9
$MIRRTEXT
 70
     1
  9
$DRAGMODE
 70
     2
  9
$LTSCALE
 40
80.0
  9
$OSMODE
 70
  3071
  9
$ATTMODE
 70
     1
  9
$TEXTSIZE
 40
0.2
  9
$TRACEWID
 40
0.05
  9
$TEXTSTYLE
  7
00
  9
$CLAYER
  8
0
  9
$CELTYPE
  6
BYLAYER
  9
$CECOLOR
 62
   256
  9
$DIMSCALE
 40
80.0
  9
$DIMASZ
 40
3.0
  9
$DIMEXO
 40
1.0
  9
$DIMDLI
 40
0.38
  9
$DIMRND
 40
0.5
  9
$DIMDLE
 40
0.0
  9
$DIMEXE
 40
1.0
  9
$DIMTP
 40
0.0
  9
$DIMTM
 40
0.0
  9
$DIMTXT
 40
2.0
  9
$DIMCEN
 40
0.09
  9
$DIMTSZ
 40
0.0
  9
$DIMTOL
 70
     0
  9
$DIMLIM
 70
     0
  9
$DIMTIH
 70
     0
  9
$DIMTOH
 70
     0
  9
$DIMSE1
 70
     0
  9
$DIMSE2
 70
     0
  9
$DIMTAD
 70
     1
  9
$DIMZIN
 70
     8
  9
$DIMBLK
  1
DOTSMALL
  9
$DIMASO
 70
     1
  9
$DIMSHO
 70
     1
  9
$DIMPOST
  1

  9
$DIMAPOST
  1

  9
$DIMALT
 70
     0
  9
$DIMALTD
 70
     2
  9
$DIMALTF
 40
25.399999999999999
  9
$DIMLFAC
 40
1.0
  9
$DIMTOFL
 70
     1
  9
$DIMTVP
 40
0.0
  9
$DIMTIX
 70
     0
  9
$DIMSOXD
 70
     0
  9
$DIMSAH
 70
     0
  9
$DIMBLK1
  1

  9
$DIMBLK2
  1

  9
$DIMSTYLE
  2
SUNPOU
  9
$DIMCLRD
 70
     4
  9
$DIMCLRE
 70
     4
  9
$DIMCLRT
 70
     7
  9
$DIMTFAC
 40
1.0
  9
$DIMGAP
 40
1.0
  9
$LUNITS
 70
     2
  9
$LUPREC
 70
     4
  9
$SKETCHINC
 40
0.1
  9
$FILLETRAD
 40
0.0
  9
$AUNITS
 70
     0
  9
$AUPREC
 70
     0
  9
$MENU
  1
acad
  9
$ELEVATION
 40
0.0
  9
$PELEVATION
 40
0.0
  9
$THICKNESS
 40
0.0
  9
$LIMCHECK
 70
     0
  9
$BLIPMODE
 70
     1
  9
$CHAMFERA
 40
0.0
  9
$CHAMFERB
 40
0.0
  9
$SKPOLY
 70
     0
  9
$TDCREATE
 40
2311940.075052408
  9
$TDUPDATE
 40
2458942.4554208452
  9
$TDINDWG
 40
0.3578632176
  9
$TDUSRTIMER
 40
0.3578626852
  9
$USRTIMER
 70
     1
  9
$ANGBASE
 50
0.0
  9
$ANGDIR
 70
     0
  9
$PDMODE
 70
     0
  9
$PDSIZE
 40
0.0
  9
$PLINEWID
 40
0.0
  9
$COORDS
 70
     1
  9
$SPLFRAME
 70
     0
  9
$SPLINETYPE
 70
     6
  9
$SPLINESEGS
 70
     8
  9
$ATTDIA
 70
     1
  9
$ATTREQ
 70
     1
  9
$HANDLING
 70
     1
  9
$HANDSEED
  5
10A5C
  9
$SURFTAB1
 70
     6
  9
$SURFTAB2
 70
     6
  9
$SURFTYPE
 70
     6
  9
$SURFU
 70
     6
  9
$SURFV
 70
     6
  9
$UCSNAME
  2

  9
$UCSORG
 10
0.0
 20
0.0
 30
0.0
  9
$UCSXDIR
 10
1.0
 20
0.0
 30
0.0
  9
$UCSYDIR
 10
0.0
 20
1.0
 30
0.0
  9
$PUCSNAME
  2

  9
$PUCSORG
 10
0.0
 20
0.0
 30
0.0
  9
$PUCSXDIR
 10
1.0
 20
0.0
 30
0.0
  9
$PUCSYDIR
 10
0.0
 20
1.0
 30
0.0
  9
$USERI1
 70
     0
  9
$USERI2
 70
     0
  9
$USERI3
 70
     0
  9
$USERI4
 70
     0
  9
$USERI5
 70
     0
  9
$USERR1
 40
0.0
  9
$USERR2
 40
0.0
  9
$USERR3
 40
0.0
  9
$USERR4
 40
0.0
  9
$USERR5
 40
0.0
  9
$WORLDVIEW
 70
     1
  9
$SHADEDGE
 70
     3
  9
$SHADEDIF
 70
    70
  9
$TILEMODE
 70
     1
  9
$MAXACTVP
 70
    16
  9
$PLIMCHECK
 70
     0
  9
$PEXTMIN
 10
1.0000000000000000E+020
 20
1.0000000000000000E+020
 30
1.0000000000000000E+020
  9
$PEXTMAX
 10
-1.0000000000000000E+020
 20
-1.0000000000000000E+020
 30
-1.0000000000000000E+020
  9
$PLIMMIN
 10
0.0
 20
0.0
  9
$PLIMMAX
 10
12.0
 20
9.0
  9
$UNITMODE
 70
     0
  9
$VISRETAIN
 70
     0
  9
$PLINEGEN
 70
     1
  9
$PSLTSCALE
 70
     0
  0
ENDSEC
  0
SECTION
  2
TABLES
  0
TABLE
  2
VPORT
 70
     1
  0
VPORT
  2
*ACTIVE
 70
     0
 10
0.0
 20
0.0
 11
1.0
 21
1.0
 12
16800.0
 22
11880.0
 13
0.0
 23
0.0
 14
1.0
 24
1.0
 15
0.0
 25
0.0
 16
0.0
 26
0.0
 36
1.0
 17
0.0
 27
0.0
 37
0.0
 40
23981.023255813951
 41
2.195652173913043
 42
50.0
 43
0.0
 44
0.0
 50
0.0
 51
0.0
 71
     0
 72
 10000
 73
     1
 74
     1
 75
     0
 76
     0
 77
     0
 78
     0
  0
ENDTAB
  0
TABLE
  2
LTYPE
 70
     6
  0
LTYPE
  2
CONTINUOUS
 70
     0
  3
Solid line
 72
    65
 73
     0
 40
0.0
  0
LTYPE
  2
DASHED3
 70
     0
  3
------  ------  ------  ------  
 72
    65
 73
     2
 40
5.0
 49
3.75
 49
-1.25
  0
LTYPE
  2
CENTER2
 70
     0
  3
----------  --  ----------  --  
 72
    65
 73
     4
 40
20.0
 49
12.5
 49
-2.5
 49
2.5
 49
-2.5
  0
LTYPE
  2
HIDE-M
 70
     0
  3

 72
    65
 73
     2
 40
2.0
 49
1.0
 49
-1.0
  0
LTYPE
  2
1PL-M
 70
     0
  3

 72
    65
 73
     4
 40
15.0
 49
12.0
 49
-1.0
 49
1.0
 49
-1.0
  0
LTYPE
  2
PHANTOM2
 70
     0
  3
___ _ _ ___ _ _ ___ _ _ ___ _ _
 72
    65
 73
     6
 40
1.25
 49
0.625
 49
-0.125
 49
0.125
 49
-0.125
 49
0.125
 49
-0.125
  0
ENDTAB
  0
TABLE
  2
LAYER
 70
    24
  0
LAYER
  2
0
 70
     0
 62
     7
  6
CONTINUOUS
  0
LAYER
  2
SUNPOU
 70
     0
 62
     4
  6
CONTINUOUS
  0
LAYER
  2
0-1
 70
     0
 62
     7
  6
CONTINUOUS
  0
LAYER
  2
0-2
 70
     0
 62
     7
  6
CONTINUOUS
  0
LAYER
  2
0-5
 70
     0
 62
     7
  6
CONTINUOUS
  0
LAYER
  2
0-6
 70
     0
 62
     7
  6
CONTINUOUS
  0
LAYER
  2
2-0
 70
     0
 62
     7
  6
CONTINUOUS
  0
LAYER
  2
0-8
 70
     0
 62
     7
  6
CONTINUOUS
  0
LAYER
  2
YODOROGO
 70
     0
 62
   130
  6
CONTINUOUS
  0
LAYER
  2
WAKUSEN-01
 70
     0
 62
    50
  6
CONTINUOUS
  0
LAYER
  2
WAKUSEN-02
 70
     0
 62
   130
  6
CONTINUOUS
  0
LAYER
  2
WAKUMOJI-01
 70
     0
 62
   130
  6
CONTINUOUS
  0
LAYER
  2
FILENAME
 70
     0
 62
     7
  6
CONTINUOUS
  0
LAYER
  2
NAME
 70
     0
 62
    20
  6
CONTINUOUS
  0
LAYER
  2
0-4
 70
     0
 62
     7
  6
CONTINUOUS
  0
LAYER
  2
1-前柱P
 70
     0
 62
     3
  6
CONTINUOUS
  0
LAYER
  2
1-前柱カバ-P
 70
     0
 62
     3
  6
CONTINUOUS
  0
LAYER
  2
1-桁前P28
 70
     0
 62
     3
  6
CONTINUOUS
  0
LAYER
  2
1-後柱P
 70
     0
 62
     3
  6
CONTINUOUS
  0
LAYER
  2
1-中柱P
 70
     0
 62
     3
  6
CONTINUOUS
  0
LAYER
  2
1-後柱カバ-P
 70
     0
 62
     7
  6
CONTINUOUS
  0
LAYER
  2
1-中柱カバ-P
 70
     0
 62
     7
  6
CONTINUOUS
  0
ENDTAB
  0
TABLE
  2
STYLE
 70
     5
  0
STYLE
  2
STANDARD
 70
     0
 40
0.0
 41
1.0
 50
0.0
 71
     0
 42
0.0
  3
txt
  4
BIGFONT
  0
STYLE
  2
00
 70
     0
 40
0.0
 41
0.6666666666666666
 50
0.0
 71
     0
 42
0.2
  3
ROMANS
  4
BIGFONT
  0
STYLE
  2
01
 70
     0
 40
3.0
 41
1.0
 50
0.0
 71
     0
 42
0.2
  3
ROMANS
  4
BIGFONT
  0
STYLE
  2
WAKUMOJI
 70
     0
 40
3.0
 41
1.0
 50
0.0
 71
     0
 42
3.0
  3
SIMPLEX
  4
BIGFONT
  0
STYLE
  2
FILENAME
 70
     0
 40
200.0
 41
1.0
 50
0.0
 71
     0
 42
200.0
  3
romans
  4
bigfont
  0
ENDTAB
  0
TABLE
  2
VIEW
 70
     0
  0
ENDTAB
  0
TABLE
  2
UCS
 70
     0
  0
ENDTAB
  0
TABLE
  2
APPID
 70
    17
  0
APPID
  2
ACAD
 70
     0
  0
APPID
  2
ACADANNOTATIVE
 70
     0
  0
APPID
  2
ACAD_PSEXT
 70
     0
  0
APPID
  2
DCO15
 70
     0
  0
APPID
  2
ACAD_MLEADERVER
 70
     0
  0
APPID
  2
AUTOCAD_POSTSCRIPT_FIGURE
 70
     0
  0
APPID
  2
ACAD_EXEMPT_FROM_CAD_STANDARDS
 70
     0
  0
APPID
  2
ACLAYERTOOLS
 70
     0
  0
APPID
  2
ACAD_DSTYLE_DIMJAG
 70
     0
  0
APPID
  2
ACAD_DSTYLE_DIMTALN
 70
     0
  0
APPID
  2
ACAECLAYERSTANDARD
 70
     0
  0
APPID
  2
ACAD_DSTYLE_DIMBREAK
 70
     0
  0
APPID
  2
ACAD_DSTYLE_DIM_LINETYPE
 70
     0
  0
APPID
  2
ACAD_DSTYLE_DIM_EXT1_LINETYPE
 70
     0
  0
APPID
  2
ACAD_DSTYLE_DIM_EXT2_LINETYPE
 70
     0
  0
APPID
  2
ACAD_DSTYLE_DIMFLIPARROW_W
 70
     0
  0
APPID
  2
ACAD_NAV_VCDISPLAY
 70
     0
  0
ENDTAB
  0
TABLE
  2
DIMSTYLE
 70
     2
  0
DIMSTYLE
  2
SUNPOU
 70
     0
  3

  4

  5

  6

  7

 40
80.0
 41
3.0
 42
1.0
 43
0.38
 44
1.0
 45
0.5
 46
0.0
 47
0.0
 48
0.0
140
2.0
141
0.09
142
0.0
143
25.399999999999999
144
1.0
145
0.0
146
1.0
147
1.0
 71
     0
 72
     0
 73
     0
 74
     0
 75
     0
 76
     0
 77
     1
 78
     8
170
     0
171
     2
172
     1
173
     0
174
     0
175
     0
176
     4
177
     4
178
     7
  0
ENDTAB
  0
ENDSEC
  0
SECTION
  2
BLOCKS
  0
BLOCK
  8
0
  2
$MODEL_SPACE
 70
     0
 10
0.0
 20
0.0
 30
0.0
  3
$MODEL_SPACE
  1

  0
ENDBLK
  5
F98B
  8
0
  0
BLOCK
 67
     1
  8
0
  2
$PAPER_SPACE
 70
     0
 10
0.0
 20
0.0
 30
0.0
  3
$PAPER_SPACE
  1

  0
ENDBLK
  5
F987
 67
     1
  8
0
  0
BLOCK
  8
0
  2
_DOTSMALL
 70
     0
 10
0.0
 20
0.0
 30
0.0
  3
_DOTSMALL
  1

  0
POLYLINE
  5
F9C7
  8
0
  6
BYBLOCK
 62
     0
 66
     1
 10
0.0
 20
0.0
 30
0.0
 70
     1
 40
0.5
 41
0.5
  0
VERTEX
  5
10A24
  8
0
  6
BYBLOCK
 62
     0
 10
-0.0625
 20
0.0
 30
0.0
 42
1.0
  0
VERTEX
  5
10A25
  8
0
  6
BYBLOCK
 62
     0
 10
0.0625
 20
0.0
 30
0.0
 42
1.0
  0
SEQEND
  5
10A26
  8
0
  6
BYBLOCK
 62
     0
  0
ENDBLK
  5
F9CB
  8
0
  0
ENDSEC
  0
SECTION
  2
ENTITIES
  0
LINE
  5
F9CC
  8
0-1
  6
CONTINUOUS
 62
     3
 10
5669.6435181510378
 20
16684.985315999991
 30
0.0
 11
8587.6435181510387
 21
16684.985315999991
 31
0.0
  0
LINE
  5
F9CD
  8
0-1
  6
CONTINUOUS
 62
     3
 10
8534.6438871510527
 20
14125.986358
 30
0.0
 11
8534.6438871510527
 21
17768.23311058123
 31
0.0
  0
LINE
  5
F9CE
  8
0-1
  6
CONTINUOUS
 62
     3
 10
5719.6441381510494
 20
14001.986344000001
 30
0.0
 11
5719.6441381510504
 21
18933.19915196484
 31
0.0
  0
LINE
  5
F9CF
  8
0-1
  6
CONTINUOUS
 62
     3
 10
5584.1435181510369
 20
13969.98643699999
 30
0.0
 11
5584.1435181510396
 21
18989.10749151139
 31
0.0
  0
LINE
  5
F9D0
  8
0-1
  6
CONTINUOUS
 62
     3
 10
5627.144244151049
 20
14125.986358
 30
0.0
 11
13630.14477215105
 21
14125.986358
 31
0.0
  0
LINE
  5
F9D1
  8
0-1
  6
CONTINUOUS
 62
     3
 10
5669.6435181510387
 20
14204.985974999991
 30
0.0
 11
13587.643518151041
 21
14204.985974999991
 31
0.0
  0
LINE
  5
F9D2
  8
0-1
  6
CONTINUOUS
 62
     3
 10
5587.1435181510369
 20
13969.98643699999
 30
0.0
 11
13670.143518151041
 21
13969.98643699999
 31
0.0
  0
LINE
  5
F9D3
  8
0-1
  6
CONTINUOUS
 62
     3
 10
5587.1435181510369
 20
14001.98634400001
 30
0.0
 11
13670.143518151041
 21
14001.986344000001
 31
0.0
  0
LINE
  5
F9D4
  8
0-1
  6
CONTINUOUS
 62
     3
 10
8587.6435181510387
 20
14125.986358
 30
0.0
 11
8587.6435181510387
 21
17746.365060417251
 31
0.0
  0
LINE
  5
F9D5
  8
0-1
  6
CONTINUOUS
 62
     3
 10
8630.1447721510485
 20
14125.986358
 30
0.0
 11
8630.1447721510485
 21
17728.828720315101
 31
0.0
  0
LINE
  5
F9D6
  8
0-1
  6
CONTINUOUS
 62
     3
 10
5669.6435181510387
 20
14125.986358
 30
0.0
 11
5669.6435181510396
 21
18955.067610197751
 31
0.0
  0
LINE
  5
F9D7
  8
0-1
  6
CONTINUOUS
 62
     3
 10
5627.144244151049
 20
14125.986358
 30
0.0
 11
5627.144244151049
 21
18972.603133336848
 31
0.0
  0
LINE
  5
F9D8
  8
0-1
  6
CONTINUOUS
 62
     3
 10
7040.1449691510488
 20
18394.87481651704
 30
0.0
 11
7040.1449691510488
 21
19461.985685
 31
0.0
  0
LINE
  5
F9D9
  8
0-1
  6
CONTINUOUS
 62
     3
 10
7077.1451411510479
 20
18379.60826461648
 30
0.0
 11
7077.1451411510479
 21
19461.985685
 31
0.0
  0
LINE
  5
F9DA
  8
0-1
  6
CONTINUOUS
 62
     3
 10
7240.1446401510511
 20
18312.353433713281
 30
0.0
 11
7240.144640151052
 21
19461.985685
 31
0.0
  0
LINE
  5
F9DB
  8
0-1
  6
CONTINUOUS
 62
     3
 10
7277.1458011510404
 20
18297.08647374381
 30
0.0
 11
7277.1458011510422
 21
19461.985685
 31
0.0
  0
LINE
  5
F9DC
  8
0-1
  6
CONTINUOUS
 62
     3
 10
7440.144310151044
 20
18219.831946322141
 30
0.0
 11
7440.1443101510449
 21
19461.985685
 31
0.0
  0
LINE
  5
F9DD
  8
0-1
  6
CONTINUOUS
 62
     3
 10
7477.1434911510514
 20
18204.565803315701
 30
0.0
 11
7477.1434911510514
 21
19461.985685
 31
0.0
  0
LINE
  5
F9DE
  8
0-1
  6
CONTINUOUS
 62
     3
 10
7640.1449691510488
 20
18137.31015586208
 30
0.0
 11
7640.1449691510488
 21
19461.985685
 31
0.0
  0
LINE
  5
F9DF
  8
0-1
  6
CONTINUOUS
 62
     3
 10
7677.1451411510498
 20
18122.043603961509
 30
0.0
 11
7677.1451411510498
 21
19461.985685
 31
0.0
  0
LINE
  5
F9E0
  8
0-1
  6
CONTINUOUS
 62
     3
 10
7840.1446401510493
 20
18054.788773058321
 30
0.0
 11
7840.1446401510511
 21
19461.985685
 31
0.0
  0
LINE
  5
F9E1
  8
0-1
  6
CONTINUOUS
 62
     3
 10
7877.1458011510422
 20
18039.521813088861
 30
0.0
 11
7877.1458011510422
 21
19461.985685
 31
0.0
  0
LINE
  5
F9E2
  8
0-1
  6
CONTINUOUS
 62
     3
 10
8040.1443101510513
 20
17972.267390667181
 30
0.0
 11
8040.144310151054
 21
19461.985685
 31
0.0
  0
LINE
  5
F9E3
  8
0-1
  6
CONTINUOUS
 62
     3
 10
8077.144481151041
 20
17957.000839179222
 30
0.0
 11
8077.144481151041
 21
19461.985685
 31
0.0
  0
LINE
  5
F9E4
  8
0-1
  6
CONTINUOUS
 62
     3
 10
8240.1449691510425
 20
17889.745600207119
 30
0.0
 11
8240.1449691510425
 21
19461.985685
 31
0.0
  0
LINE
  5
F9E5
  8
0-1
  6
CONTINUOUS
 62
     3
 10
8277.1451411510498
 20
17874.479048306552
 30
0.0
 11
8277.1451411510498
 21
19461.985685
 31
0.0
  0
LINE
  5
F9E6
  8
0-1
  6
CONTINUOUS
 62
     3
 10
6840.1443101510513
 20
18477.396606977101
 30
0.0
 11
6840.1443101510531
 21
19461.985685
 31
0.0
  0
LINE
  5
F9E7
  8
0-1
  6
CONTINUOUS
 62
     3
 10
6877.1434911510523
 20
18462.13046397065
 30
0.0
 11
6877.1434911510523
 21
19461.985685
 31
0.0
  0
LINE
  5
F9E8
  8
0-1
  6
CONTINUOUS
 62
     3
 10
5669.6435181510378
 20
16774.988087000002
 30
0.0
 11
8587.6435181510387
 21
16774.988087000002
 31
0.0
  0
LINE
  5
F9E9
  8
0-1
  6
CONTINUOUS
 62
     3
 10
8517.6444177948742
 20
16729.987612658861
 30
0.0
 11
5739.644244151048
 21
14162.48571100001
 31
0.0
  0
LINE
  5
F9EA
  8
0-1
  6
CONTINUOUS
 62
     3
 10
5739.644244151048
 20
16729.985711000001
 30
0.0
 11
8517.6447721510485
 21
14162.48571100001
 31
0.0
  0
LINE
  5
F9EB
  8
0-1
  6
CONTINUOUS
 62
     3
 10
6467.5930462095748
 20
18624.69699676337
 30
0.0
 11
8517.6444177948724
 21
16729.987612658861
 31
0.0
  0
LINE
  5
F9EC
  8
0-1
  6
CONTINUOUS
 62
     3
 10
7380.6674741641618
 20
18246.661860119391
 30
0.0
 11
5739.644244151048
 21
16729.985711000001
 31
0.0
  0
LINE
  5
F9ED
  8
0-1
  6
CONTINUOUS
 62
     3
 10
5602.1422911510253
 20
18981.772695146061
 30
0.0
 11
5602.1422911510253
 21
19502.48663499999
 31
0.0
  0
LINE
  5
F9EE
  8
0-1
  6
CONTINUOUS
 62
     3
 10
5657.643043151038
 20
19484.987690000002
 30
0.0
 11
5657.643043151038
 21
19514.987293999991
 31
0.0
  0
LINE
  5
F9EF
  8
0-1
  6
CONTINUOUS
 62
     3
 10
5584.1435181510369
 20
19514.987293999991
 30
0.0
 11
5584.1435181510369
 21
19479.985446999988
 31
0.0
  0
LINE
  5
F9F0
  8
0-1
  6
CONTINUOUS
 62
     3
 10
5652.6427791510287
 20
19519.985579
 30
0.0
 11
5589.1427921510367
 21
19519.985579
 31
0.0
  0
LINE
  5
F9F1
  8
0-1
  6
CONTINUOUS
 62
     3
 10
5602.1422911510253
 20
19502.48663499999
 30
0.0
 11
5584.1435181510369
 21
19502.48663499999
 31
0.0
  0
LINE
  5
F9F2
  8
0-1
  6
CONTINUOUS
 62
     3
 10
5602.1422911510253
 20
19479.985446999988
 30
0.0
 11
5652.6427791510287
 21
19479.985446999988
 31
0.0
  0
LINE
  5
F9F3
  8
0-6
  6
CONTINUOUS
 62
     6
 10
7717.986854288426
 20
19237.71018799999
 30
0.0
 11
7861.887957288418
 21
19749.985842999991
 31
0.0
  0
LINE
  5
F9F4
  8
0-6
  6
CONTINUOUS
 62
     6
 10
6847.9543181389881
 20
19465.663629999999
 30
0.0
 11
6954.6493801389952
 21
19343.487743000002
 31
0.0
  0
LINE
  5
F9F5
  8
0-6
  6
CONTINUOUS
 62
     6
 10
6954.6493801389952
 20
19343.487743000002
 30
0.0
 11
6893.3436901389869
 21
19493.663919999992
 31
0.0
  0
LINE
  5
F9F6
  8
0-6
  6
CONTINUOUS
 62
     6
 10
6954.6493801389952
 20
19343.487743000002
 30
0.0
 11
6847.9543181389881
 21
19465.663629999999
 31
0.0
  0
LINE
  5
F9F7
  8
0-6
  6
CONTINUOUS
 62
     6
 10
6847.9543181389881
 20
19465.663629999999
 30
0.0
 11
6893.3436901389869
 21
19493.663919999992
 31
0.0
  0
LINE
  5
F9F8
  8
0-6
  6
CONTINUOUS
 62
     6
 10
6893.3436901389869
 20
19493.663919999992
 30
0.0
 11
6954.6493801389952
 21
19343.487743000002
 31
0.0
  0
LINE
  5
F9F9
  8
0-6
  6
CONTINUOUS
 62
     6
 10
6893.3436901389869
 20
19493.663919999992
 30
0.0
 11
6847.9543181389881
 21
19465.663629999999
 31
0.0
  0
LINE
  5
F9FA
  8
0-6
  6
CONTINUOUS
 62
     6
 10
6954.6493801389952
 20
19343.487743000002
 30
0.0
 11
6660.7215531389902
 21
19749.985842999991
 31
0.0
  0
LINE
  5
F9FB
  8
0-6
  6
CONTINUOUS
 62
     6
 10
7692.0987102884228
 20
19244.109971999991
 30
0.0
 11
7679.5970602884263
 21
19082.385282999989
 31
0.0
  0
LINE
  5
F9FC
  8
0-6
  6
CONTINUOUS
 62
     6
 10
7679.5970602884263
 20
19082.385282999989
 30
0.0
 11
7743.87202928842
 21
19231.314364000002
 31
0.0
  0
LINE
  5
F9FD
  8
0-6
  6
CONTINUOUS
 62
     6
 10
7679.5970602884263
 20
19082.385282999989
 30
0.0
 11
7692.0987102884228
 21
19244.109971999991
 31
0.0
  0
LINE
  5
F9FE
  8
0-6
  6
CONTINUOUS
 62
     6
 10
7692.0987102884228
 20
19244.109971999991
 30
0.0
 11
7743.87202928842
 21
19231.314364000002
 31
0.0
  0
LINE
  5
F9FF
  8
0-6
  6
CONTINUOUS
 62
     6
 10
7743.87202928842
 20
19231.314364000002
 30
0.0
 11
7679.5970602884263
 21
19082.385282999989
 31
0.0
  0
LINE
  5
FA00
  8
0-6
  6
CONTINUOUS
 62
     6
 10
7743.87202928842
 20
19231.314364000002
 30
0.0
 11
7692.0987102884228
 21
19244.109971999991
 31
0.0
  0
LINE
  5
FA01
  8
0-6
  6
CONTINUOUS
 62
     6
 10
7861.887957288418
 20
19749.985842999991
 30
0.0
 11
8379.5766052884246
 21
19749.985842999991
 31
0.0
  0
LINE
  5
FA02
  8
0-6
  6
CONTINUOUS
 62
     6
 10
5769.9606501510498
 20
18164.289045663922
 30
0.0
 11
5680.1449431510418
 21
18299.361496663922
 31
0.0
  0
LINE
  5
FA03
  8
0-6
  6
CONTINUOUS
 62
     6
 10
5680.1449431510418
 20
18299.361496663922
 30
0.0
 11
5721.2991341510487
 21
18142.46089466392
 31
0.0
  0
LINE
  5
FA04
  8
0-6
  6
CONTINUOUS
 62
     6
 10
5680.1449431510418
 20
18299.361496663922
 30
0.0
 11
5769.9606501510498
 21
18164.289045663922
 31
0.0
  0
LINE
  5
FA05
  8
0-6
  6
CONTINUOUS
 62
     6
 10
5769.9606501510498
 20
18164.289045663922
 30
0.0
 11
5721.2991341510487
 21
18142.46089466392
 31
0.0
  0
LINE
  5
FA06
  8
0-6
  6
CONTINUOUS
 62
     6
 10
5721.2991341510487
 20
18142.46089466392
 30
0.0
 11
5680.1449431510418
 21
18299.361496663922
 31
0.0
  0
LINE
  5
FA07
  8
0-6
  6
CONTINUOUS
 62
     6
 10
5721.2991341510487
 20
18142.46089466392
 30
0.0
 11
5769.9606501510498
 21
18164.289045663922
 31
0.0
  0
LINE
  5
FA08
  8
0-6
  6
CONTINUOUS
 62
     6
 10
5860.7199041389858
 20
19749.985842999991
 30
0.0
 11
6660.7215531389902
 21
19749.985842999991
 31
0.0
  0
LINE
  5
FA09
  8
0-6
  6
CONTINUOUS
 62
     6
 10
5844.670650151038
 20
17932.58243666391
 30
0.0
 11
6364.6713761510509
 21
17932.58243666391
 31
0.0
  0
LINE
  5
FA0A
  8
0-6
  6
CONTINUOUS
 62
     6
 10
6491.8197889172798
 20
14349.876837
 30
0.0
 11
6574.7071809172812
 21
14526.815115999991
 31
0.0
  0
LINE
  5
FA0B
  8
0-6
  6
CONTINUOUS
 62
     6
 10
6574.7071809172812
 20
14526.815115999991
 30
0.0
 11
7374.7078409172709
 21
14526.815115999991
 31
0.0
  0
LINE
  5
FA0C
  8
0-6
  6
CONTINUOUS
 62
     6
 10
7126.9609502169014
 20
13840.439811999981
 30
0.0
 11
7020.6904952168979
 21
13962.98685899999
 31
0.0
  0
LINE
  5
FA0D
  8
0-6
  6
CONTINUOUS
 62
     6
 10
7020.6904952168979
 20
13962.98685899999
 30
0.0
 11
7081.4726032168992
 21
13812.59788299998
 31
0.0
  0
LINE
  5
FA0E
  8
0-6
  6
CONTINUOUS
 62
     6
 10
7020.6904952168979
 20
13962.98685899999
 30
0.0
 11
7126.9609502169014
 21
13840.439811999981
 31
0.0
  0
LINE
  5
FA0F
  8
0-6
  6
CONTINUOUS
 62
     6
 10
7126.9609502169014
 20
13840.439811999981
 30
0.0
 11
7081.4726032168992
 21
13812.59788299998
 31
0.0
  0
LINE
  5
FA10
  8
0-6
  6
CONTINUOUS
 62
     6
 10
7081.4726032168992
 20
13812.59788299998
 30
0.0
 11
7020.6904952168979
 21
13962.98685899999
 31
0.0
  0
LINE
  5
FA11
  8
0-6
  6
CONTINUOUS
 62
     6
 10
7081.4726032168992
 20
13812.59788299998
 30
0.0
 11
7126.9609502169014
 21
13840.439811999981
 31
0.0
  0
LINE
  5
FA12
  8
0-6
  6
CONTINUOUS
 62
     6
 10
6467.672631917274
 20
14361.18879599998
 30
0.0
 11
6423.9470459172717
 21
14204.985974999991
 31
0.0
  0
LINE
  5
FA13
  8
0-6
  6
CONTINUOUS
 62
     6
 10
6423.9470459172717
 20
14204.985974999991
 30
0.0
 11
6515.9679369172818
 21
14338.56388799999
 31
0.0
  0
LINE
  5
FA14
  8
0-6
  6
CONTINUOUS
 62
     6
 10
6423.9470459172717
 20
14204.985974999991
 30
0.0
 11
6467.672631917274
 21
14361.18879599998
 31
0.0
  0
LINE
  5
FA15
  8
0-6
  6
CONTINUOUS
 62
     6
 10
6467.672631917274
 20
14361.18879599998
 30
0.0
 11
6515.9679369172818
 21
14338.56388799999
 31
0.0
  0
LINE
  5
FA16
  8
0-6
  6
CONTINUOUS
 62
     6
 10
6515.9679369172818
 20
14338.56388799999
 30
0.0
 11
6423.9470459172717
 21
14204.985974999991
 31
0.0
  0
LINE
  5
FA17
  8
0-6
  6
CONTINUOUS
 62
     6
 10
6515.9679369172818
 20
14338.56388799999
 30
0.0
 11
6467.672631917274
 21
14361.18879599998
 31
0.0
  0
LINE
  5
FA18
  8
0-6
  6
CONTINUOUS
 62
     6
 10
7510.3293652169004
 20
13162.98718899999
 30
0.0
 11
8372.9095362168991
 21
13162.98718899999
 31
0.0
  0
LINE
  5
FA19
  8
0-6
  6
CONTINUOUS
 62
     6
 10
7104.2172722168907
 20
13826.518848
 30
0.0
 11
7510.3293652169004
 21
13162.98718899999
 31
0.0
  0
LINE
  5
FA1A
  8
0-6
  6
CONTINUOUS
 62
     6
 10
5528.1951171510518
 20
14212.276687
 30
0.0
 11
5550.645827151051
 21
14372.92253799999
 31
0.0
  0
LINE
  5
FA1B
  8
0-6
  6
CONTINUOUS
 62
     6
 10
5550.645827151051
 20
14372.92253799999
 30
0.0
 11
5477.3086231510388
 21
14228.241504
 31
0.0
  0
LINE
  5
FA1C
  8
0-6
  6
CONTINUOUS
 62
     6
 10
5550.645827151051
 20
14372.92253799999
 30
0.0
 11
5528.1951171510518
 21
14212.276687
 31
0.0
  0
LINE
  5
FA1D
  8
0-6
  6
CONTINUOUS
 62
     6
 10
5528.1951171510518
 20
14212.276687
 30
0.0
 11
5477.3086231510388
 21
14228.241504
 31
0.0
  0
LINE
  5
FA1E
  8
0-6
  6
CONTINUOUS
 62
     6
 10
5477.3086231510388
 20
14228.241504
 30
0.0
 11
5550.645827151051
 21
14372.92253799999
 31
0.0
  0
LINE
  5
FA1F
  8
0-6
  6
CONTINUOUS
 62
     6
 10
5477.3086231510388
 20
14228.241504
 30
0.0
 11
5528.1951171510518
 21
14212.276687
 31
0.0
  0
LINE
  5
FA20
  8
0-6
  6
CONTINUOUS
 62
     6
 10
3836.0115761510492
 20
12349.98618599998
 30
0.0
 11
4916.0111801510502
 21
12349.98618599998
 31
0.0
  0
LINE
  5
FA21
  8
0-6
  6
CONTINUOUS
 62
     6
 10
5502.7513751510423
 20
14220.25810599999
 30
0.0
 11
4916.0111801510502
 21
12349.98618599998
 31
0.0
  0
LINE
  5
FA22
  8
0-6
  6
CONTINUOUS
 62
     6
 10
5745.630387151039
 20
18153.375959663921
 30
0.0
 11
5844.670650151038
 21
17932.58243666391
 31
0.0
  0
LINE
  5
FA23
  8
0-6
  6
CONTINUOUS
 62
     6
 10
13670.14490315104
 20
19519.985579
 30
0.0
 11
13761.83224515105
 21
19653.79311699999
 31
0.0
  0
LINE
  5
FA24
  8
0-6
  6
CONTINUOUS
 62
     6
 10
13800.27350615103
 20
19616.825606999992
 30
0.0
 11
13670.14490315104
 21
19519.985579
 31
0.0
  0
LINE
  5
FA25
  8
0-6
  6
CONTINUOUS
 62
     6
 10
13800.27350615103
 20
19616.825606999992
 30
0.0
 11
13761.83224515105
 21
19653.79311699999
 31
0.0
  0
LINE
  5
FA26
  8
0-6
  6
CONTINUOUS
 62
     6
 10
13781.053371151051
 20
19635.308372
 30
0.0
 11
14298.04225915104
 21
20139.986634999979
 31
0.0
  0
LINE
  5
FA27
  8
0-6
  6
CONTINUOUS
 62
     6
 10
14298.04225915104
 20
20139.986634999979
 30
0.0
 11
15973.041599151051
 21
20139.986634999979
 31
0.0
  0
LINE
  5
FA28
  8
2-0
  6
DASHED3
 62
     6
 10
5669.6435181510387
 20
19258.487215000001
 30
0.0
 11
13587.643518151041
 21
19258.487215000001
 31
0.0
  0
LINE
  5
FA29
  8
2-0
  6
DASHED3
 62
     6
 10
5627.144244151049
 20
18972.603133336848
 30
0.0
 11
5627.144244151049
 21
19343.487743000002
 31
0.0
  0
LINE
  5
FA2A
  8
2-0
  6
DASHED3
 62
     6
 10
5669.6435181510396
 20
18955.067610197751
 30
0.0
 11
5669.6435181510387
 21
19343.487743000002
 31
0.0
  0
LINE
  5
FA2B
  8
2-0
  6
DASHED3
 62
     6
 10
5627.144244151049
 20
19343.487743000002
 30
0.0
 11
13587.643518151041
 21
19343.487743000002
 31
0.0
  0
LINE
  5
FA2C
  8
2-0
  6
DASHED3
 62
     6
 10
8587.6435181510387
 20
17746.365060417251
 30
0.0
 11
8587.6435181510387
 21
19343.487743000002
 31
0.0
  0
LINE
  5
FA2D
  8
2-0
  6
DASHED3
 62
     6
 10
8630.1447721510485
 20
17728.828720315101
 30
0.0
 11
8630.1447721510485
 21
19343.487743000002
 31
0.0
  0
LINE
  5
FA2E
  8
2-0
  6
DASHED3
 62
     6
 10
5739.644244151048
 20
19297.485711000001
 30
0.0
 11
6467.5930462095748
 21
18624.69699676337
 31
0.0
  0
LINE
  5
FA2F
  8
2-0
  6
DASHED3
 62
     6
 10
8517.6447721510485
 20
19297.485711000001
 30
0.0
 11
7380.6674741641618
 21
18246.661860119391
 31
0.0
  0
LINE
  5
FA30
  8
2-0
  6
CENTER2
 62
     6
 10
8587.6435181510387
 20
20539.987954
 30
0.0
 11
8587.6435181510387
 21
19589.987293999991
 31
0.0
  0
LINE
  5
FA31
  8
2-0
  6
CENTER2
 62
     6
 10
4340.1434131510468
 20
19297.485711000001
 30
0.0
 11
5986.6426341510378
 21
19297.485711000001
 31
0.0
  0
LINE
  5
FA32
  8
0-8
  6
CONTINUOUS
 62
     6
 10
5669.6435181510387
 20
20539.987954
 30
0.0
 11
5669.6435181510387
 21
19589.987293999991
 31
0.0
  0
LINE
  5
FA33
  8
2-0
  6
CENTER2
 62
     6
 10
4340.1434131510459
 20
16729.985711000001
 30
0.0
 11
13759.44296615104
 21
16729.985711000001
 31
0.0
  0
LINE
  5
FA34
  8
2-0
  6
CENTER2
 62
     6
 10
4340.1434131510468
 20
14162.48571100001
 30
0.0
 11
5986.6426341510378
 21
14162.48571100001
 31
0.0
  0
ARC
  5
FA35
  8
0-1
  6
CONTINUOUS
 62
     3
 10
5652.6427791510287
 20
19484.987690000002
 30
0.0
 40
5.0
 50
269.9999850001808
 51
0.0
  0
ARC
  5
FA36
  8
0-1
  6
CONTINUOUS
 62
     3
 10
5652.6454804685181
 20
19514.988412922321
 30
0.0
 40
4.99729880777691
 50
359.9871711637191
 51
90.030971551784916
  0
ARC
  5
FA37
  8
0-1
  6
CONTINUOUS
 62
     3
 10
5589.1398656748024
 20
19514.98850618611
 30
0.0
 40
4.9970736707893684
 50
89.966445412325555
 51
180.01389876465331
  0
CIRCLE
  5
FA38
  8
0-5
  6
CONTINUOUS
 62
     4
 10
8587.6435181510387
 20
20739.986634999979
 30
0.0
 40
199.9999949999999
  0
CIRCLE
  5
FA39
  8
0-5
  6
CONTINUOUS
 62
     4
 10
5669.6435181510387
 20
20739.986634999979
 30
0.0
 40
199.9999949999999
  0
CIRCLE
  5
FA3A
  8
0-5
  6
CONTINUOUS
 62
     4
 10
4140.1437421510491
 20
19297.485711000001
 30
0.0
 40
199.9999949999999
  0
CIRCLE
  5
FA3B
  8
0-5
  6
CONTINUOUS
 62
     4
 10
4140.1437421510482
 20
16729.985711000001
 30
0.0
 40
199.9999949999999
  0
CIRCLE
  5
FA3C
  8
0-5
  6
CONTINUOUS
 62
     4
 10
4140.1437421510491
 20
14162.48571100001
 30
0.0
 40
199.9999949999999
  0
CIRCLE
  5
FA3D
  8
0-5
  6
CONTINUOUS
 62
     4
 10
15128.71667799999
 20
1375.999982000001
 30
0.0
 40
20.0
  0
ARC
  5
FA3E
  8
0-5
  6
CONTINUOUS
 62
     4
 10
15128.71667799999
 20
1375.999982000001
 30
0.0
 40
20.0
 50
180.0
 51
0.0
  0
ARC
  5
FA3F
  8
0-5
  6
CONTINUOUS
 62
     4
 10
15128.71667799999
 20
1375.999982000001
 30
0.0
 40
20.0
 50
0.0
 51
179.99998500000001
  0
CIRCLE
  5
FA40
  8
0-5
  6
CONTINUOUS
 62
     4
 10
15128.71667799999
 20
1775.999321999999
 30
0.0
 40
20.0
  0
ARC
  5
FA41
  8
0-5
  6
CONTINUOUS
 62
     4
 10
15128.71667799999
 20
1775.999321999999
 30
0.0
 40
20.0
 50
180.0
 51
0.0
  0
ARC
  5
FA42
  8
0-5
  6
CONTINUOUS
 62
     4
 10
15128.71667799999
 20
1775.999321999999
 30
0.0
 40
20.0
 50
0.0
 51
179.99998500000001
  0
TEXT
  5
FA43
  8
0-5
  6
CONTINUOUS
 62
     7
 10
8533.9263121510503
 20
20650.771712000002
 30
0.0
 40
160.0
  1
2
 72
     4
 11
8587.2596454843842
 21
20730.771712000002
 31
0.0
  0
TEXT
  5
FA44
  8
0-5
  6
CONTINUOUS
 62
     7
 10
5615.9243331510488
 20
20650.771712000002
 30
0.0
 40
160.0
  1
1
 72
     4
 11
5642.5909998177158
 21
20730.771712000002
 31
0.0
  0
TEXT
  5
FA45
  8
0-5
  6
CONTINUOUS
 62
     7
 10
4086.6838741510478
 20
19217.897186999999
 30
0.0
 40
160.0
  1
C
 72
     4
 11
4140.0172074843813
 21
19297.897186999999
 31
0.0
  0
TEXT
  5
FA46
  8
0-5
  6
CONTINUOUS
 62
     7
 10
4086.6838741510478
 20
16650.398176999981
 30
0.0
 40
160.0
  1
B
 72
     4
 11
4140.0172074843813
 21
16730.398176999981
 31
0.0
  0
TEXT
  5
FA47
  8
0-5
  6
CONTINUOUS
 62
     7
 10
4086.6838741510478
 20
14082.897187
 30
0.0
 40
160.0
  1
A
 72
     4
 11
4140.0172074843813
 21
14162.897187
 31
0.0
  0
TEXT
  5
FA48
  8
0-5
  6
CONTINUOUS
 62
     7
 10
16661.217403999992
 20
1655.999792000001
 30
0.0
 40
160.0
  1
H
  0
TEXT
  5
FA49
  8
0-5
  6
CONTINUOUS
 62
     7
 10
15176.146933
 20
1655.999792000001
 30
0.0
 40
160.0
  1
（ ）内寸法ハ、  タイプヲ示ス。
  0
TEXT
  5
FA4A
  8
0-5
  6
CONTINUOUS
 62
     7
 10
15288.716216000001
 20
1255.999462
 30
0.0
 40
160.0
  1
有効高サハ、基礎高サヲ含ミマセン。
  0
TEXT
  5
FA4B
  8
0-6
  6
CONTINUOUS
 62
     7
 10
7941.8882212884209
 20
19829.98610699999
 30
0.0
 40
160.0
  1
屋根
 72
     4
 11
8112.5548879550879
 21
19909.98610699999
 31
0.0
  0
TEXT
  5
FA4C
  8
0-6
  6
CONTINUOUS
 62
     7
 10
5940.7211581389975
 20
19829.98610699999
 30
0.0
 40
160.0
  1
桁（後）
 72
     4
 11
6260.7211581389984
 21
19909.98610699999
 31
0.0
  0
TEXT
  5
FA4D
  8
0-6
  6
CONTINUOUS
 62
     7
 10
6654.706454917271
 20
14606.81538
 30
0.0
 40
160.0
  1
桁（前）
 72
     4
 11
6974.7064549172719
 21
14686.81538
 31
0.0
  0
TEXT
  5
FA4E
  8
0-6
  6
CONTINUOUS
 62
     7
 10
7590.3286392169048
 20
13242.98646299999
 30
0.0
 40
160.0
  1
鼻隠し前
 72
     4
 11
7952.9953058835717
 21
13322.98646299999
 31
0.0
  0
TEXT
  5
FA4F
  8
0-6
  6
CONTINUOUS
 62
     7
 10
3916.0118401510481
 20
12429.985459999991
 30
0.0
 40
160.0
  1
ケラバ 左
 72
     4
 11
4332.0118401510481
 21
12509.985459999991
 31
0.0
  0
TEXT
  5
FA50
  8
0-6
  6
CONTINUOUS
 62
     7
 10
5924.6709141510519
 20
18012.582700663908
 30
0.0
 40
160.0
  1
上枠
 72
     4
 11
6095.3375808177188
 21
18092.582700663908
 31
0.0
  0
TEXT
  5
FA51
  8
0-6
  6
CONTINUOUS
 62
     7
 10
14378.042523151051
 20
20219.984918999991
 30
0.0
 40
160.0
  1
鼻隠しコーナー後
 72
     4
 11
15124.70918981772
 21
20299.984918999991
 31
0.0
  0
TEXT
  5
FA52
  8
2-0
  6
CONTINUOUS
 62
     7
 10
22873.668069228708
 20
11251.104441999991
 30
0.0
 40
160.0
  1
平　面　図
 72
     4
 11
23327.00140256204
 21
11325.77110866666
 31
0.0
  0
TEXT
  5
FA53
  8
2-0
  6
CONTINUOUS
 62
     7
 10
8081.198002010944
 20
11156.81700299998
 30
0.0
 40
160.0
  1
小 屋 伏 図
 72
     4
 11
8582.531335344278
 21
11236.81700299998
 31
0.0
  0
TEXT
  5
FA54
  8
2-0
  6
CONTINUOUS
 62
     7
 10
21491.26923299945
 20
3292.802588999999
 30
0.0
 40
160.0
  1
正 面 立 面 図
 72
     4
 11
22136.602566332778
 21
3372.802588999999
 31
0.0
  0
TEXT
  5
FA55
  8
2-0
  6
CONTINUOUS
 62
     7
 10
7808.7002624709367
 20
3264.0669070000022
 30
0.0
 40
160.0
  1
側 面 立 面 図
 50
0.000139
 72
     4
 11
8454.0334017217574
 21
3344.0684725833762
 31
0.0
  0
TEXT
  5
FA59
  8
2-0
  6
CONTINUOUS
 62
     7
 10
9805.5255868593831
 20
3291.2638415833758
 30
0.0
 40
160.0
  1
1
 72
     4
 11
9832.1922535260492
 21
3371.2638415833749
 31
0.0
  0
TEXT
  5
FA5A
  8
2-0
  6
CONTINUOUS
 62
     7
 10
10048.61430411006
 20
3211.2653095833748
 30
0.0
 40
160.0
  1
80
 72
     4
 11
10168.61430411006
 21
3291.2653095833748
 31
0.0
  0
TEXT
  5
FA5B
  8
2-0
  6
CONTINUOUS
 62
     7
 10
9306.5275528593793
 20
3264.0684725833762
 30
0.0
 40
160.0
  1
(S=  /   )
 72
     4
 11
9866.5275528593793
 21
3344.0684725833762
 31
0.0
  0
TEXT
  5
FA5C
  8
2-0
  6
CONTINUOUS
 62
     7
 10
23488.094751470391
 20
3319.9979579999999
 30
0.0
 40
160.0
  1
1
 72
     4
 11
23514.761418137059
 21
3399.9979579999999
 31
0.0
  0
TEXT
  5
FA5D
  8
2-0
  6
CONTINUOUS
 62
     7
 10
23731.18346872109
 20
3239.9994259999989
 30
0.0
 40
160.0
  1
80
 72
     4
 11
23851.18346872109
 21
3319.9994259999989
 31
0.0
  0
TEXT
  5
FA5E
  8
2-0
  6
CONTINUOUS
 62
     7
 10
22989.096717470398
 20
3292.802588999999
 30
0.0
 40
160.0
  1
(S=  /   )
 72
     4
 11
23549.096717470398
 21
3372.802588999999
 31
0.0
  0
TEXT
  5
FA5F
  8
2-0
  6
CONTINUOUS
 62
     7
 10
24678.493587699679
 20
11272.96647766667
 30
0.0
 40
160.0
  1
1
 72
     4
 11
24705.160254366339
 21
11352.96647766667
 31
0.0
  0
TEXT
  5
FA60
  8
2-0
  6
CONTINUOUS
 62
     7
 10
24921.58230495036
 20
11192.967945666671
 30
0.0
 40
160.0
  1
80
 72
     4
 11
25041.58230495036
 21
11272.967945666671
 31
0.0
  0
TEXT
  5
FA61
  8
2-0
  6
CONTINUOUS
 62
     7
 10
24179.495553699671
 20
11245.77110866666
 30
0.0
 40
160.0
  1
(S=  /   )
 72
     4
 11
24739.495553699671
 21
11325.77110866666
 31
0.0
  0
TEXT
  5
FA62
  8
2-0
  6
CONTINUOUS
 62
     7
 10
9934.0235204819055
 20
11184.012371999979
 30
0.0
 40
160.0
  1
1
 72
     4
 11
9960.6901871485716
 21
11264.012371999979
 31
0.0
  0
TEXT
  5
FA63
  8
2-0
  6
CONTINUOUS
 62
     7
 10
10177.112237732599
 20
11104.01383999998
 30
0.0
 40
160.0
  1
80
 72
     4
 11
10297.112237732599
 21
11184.01383999998
 31
0.0
  0
TEXT
  5
FA64
  8
2-0
  6
CONTINUOUS
 62
     7
 10
9435.0254864819035
 20
11156.81700299998
 30
0.0
 40
160.0
  1
(S=  /   )
 72
     4
 11
9995.0254864819053
 21
11236.81700299998
 31
0.0
  0
LINE
  5
FA65
  8
2-0
  6
CENTER2
 62
     6
 10
13587.643518151041
 20
20539.987954
 30
0.0
 11
13587.643518151041
 21
19589.987293999991
 31
0.0
  0
CIRCLE
  5
FA66
  8
0-5
  6
CONTINUOUS
 62
     4
 10
13587.643518151041
 20
20739.986634999979
 30
0.0
 40
199.9999949999999
  0
TEXT
  5
FA67
  8
0-5
  6
CONTINUOUS
 62
     7
 10
13533.92631215105
 20
20650.771712000002
 30
0.0
 40
160.0
  1
3
 72
     4
 11
13587.259645484381
 21
20730.771712000002
 31
0.0
  0
LINE
  5
FA68
  8
0-1
  6
CONTINUOUS
 62
     3
 10
13655.143756151039
 20
15656.71323723089
 30
0.0
 11
13655.143756151039
 21
19502.48663499999
 31
0.0
  0
LINE
  5
FA69
  8
0-1
  6
CONTINUOUS
 62
     3
 10
13655.143756151039
 20
19502.48663499999
 30
0.0
 11
13673.143518151041
 21
19502.48663499999
 31
0.0
  0
LINE
  5
FA6A
  8
0-1
  6
CONTINUOUS
 62
     3
 10
13599.643004151039
 20
19484.987690000002
 30
0.0
 11
13599.643004151039
 21
19514.987293999991
 31
0.0
  0
LINE
  5
FA6B
  8
0-1
  6
CONTINUOUS
 62
     3
 10
13655.143756151039
 20
19479.985446999988
 30
0.0
 11
13604.64425815104
 21
19479.985446999988
 31
0.0
  0
LINE
  5
FA6C
  8
0-1
  6
CONTINUOUS
 62
     3
 10
13673.143518151041
 20
19514.987293999991
 30
0.0
 11
13673.143518151041
 21
19479.985446999988
 31
0.0
  0
LINE
  5
FA6D
  8
0-1
  6
CONTINUOUS
 62
     3
 10
13604.64425815104
 20
19519.985579
 30
0.0
 11
13668.14226515102
 21
19519.985579
 31
0.0
  0
ARC
  5
FA6E
  8
0-1
  6
CONTINUOUS
 62
     3
 10
13668.14226515102
 20
19514.987293999991
 30
0.0
 40
5.0
 50
0.0
 51
90.0
  0
ARC
  5
FA6F
  8
0-1
  6
CONTINUOUS
 62
     3
 10
13604.64425815104
 20
19514.987293999991
 30
0.0
 40
5.0
 50
90.0
 51
180.0
  0
ARC
  5
FA70
  8
0-1
  6
CONTINUOUS
 62
     3
 10
13604.64425815104
 20
19484.987690000002
 30
0.0
 40
5.0
 50
180.0
 51
269.9999850001808
  0
LINE
  5
FA71
  8
0-1
  6
CONTINUOUS
 62
     3
 10
8587.6435181510387
 20
14125.986358
 30
0.0
 11
8587.6435181510387
 21
13969.98643699999
 31
0.0
  0
LINE
  5
FA72
  8
0-1
  6
CONTINUOUS
 62
     3
 10
5356.3253452999325
 20
19084.788993975999
 30
0.0
 11
8996.4419714956912
 21
17577.69171465941
 31
0.0
  0
LINE
  5
FA73
  8
0-1
  6
CONTINUOUS
 62
     3
 10
13537.643887151051
 20
14001.986344000001
 30
0.0
 11
13537.643887151051
 21
15705.1951467899
 31
0.0
  0
LINE
  5
FA74
  8
0-1
  6
CONTINUOUS
 62
     3
 10
13673.143518151041
 20
13969.98643699999
 30
0.0
 11
13673.143518151041
 21
15649.28639876184
 31
0.0
  0
LINE
  5
FA75
  8
0-1
  6
CONTINUOUS
 62
     3
 10
13587.643518151041
 20
14125.986358
 30
0.0
 11
13587.643518151041
 21
15683.327096625921
 31
0.0
  0
LINE
  5
FA76
  8
0-1
  6
CONTINUOUS
 62
     3
 10
13630.14477215105
 20
14125.986358
 30
0.0
 11
13630.14477215105
 21
15665.79075652376
 31
0.0
  0
LINE
  5
FA77
  8
0-1
  6
CONTINUOUS
 62
     3
 10
13537.643887151051
 20
15705.1951467899
 30
0.0
 11
13537.643887151051
 21
19461.985685
 31
0.0
  0
LINE
  5
FA78
  8
0-1
  6
CONTINUOUS
 62
     3
 10
13673.143518151041
 20
15649.28639876184
 30
0.0
 11
13673.143518151041
 21
19502.48663499999
 31
0.0
  0
LINE
  5
FA79
  8
0-1
  6
CONTINUOUS
 62
     3
 10
13440.143650151031
 20
15744.186662093551
 30
0.0
 11
13440.143650151031
 21
19461.985685
 31
0.0
  0
LINE
  5
FA7A
  8
0-1
  6
CONTINUOUS
 62
     3
 10
13477.14580115104
 20
15728.919293642561
 30
0.0
 11
13477.14580115104
 21
19461.985685
 31
0.0
  0
LINE
  5
FA7B
  8
2-0
  6
DASHED3
 62
     6
 10
13587.643518151041
 20
15683.327096625921
 30
0.0
 11
13587.64351815103
 21
19461.985685
 31
0.0
  0
LINE
  5
FA7C
  8
2-0
  6
DASHED3
 62
     6
 10
13630.14477215105
 20
15665.79075652376
 30
0.0
 11
13630.14477215105
 21
19461.985685
 31
0.0
  0
LINE
  5
FA7D
  8
0-1
  6
CONTINUOUS
 62
     3
 10
5584.1435181510396
 20
18989.10749151139
 30
0.0
 11
5584.1435181510369
 21
19509.987031000001
 31
0.0
  0
LINE
  5
FA7E
  8
0-1
  6
CONTINUOUS
 62
     3
 10
5719.6441381510504
 20
18933.19915196484
 30
0.0
 11
5719.6441381510504
 21
19461.985685
 31
0.0
  0
LINE
  5
FA7F
  8
0-1
  6
CONTINUOUS
 62
     3
 10
8440.1456291510513
 20
17807.22380933446
 30
0.0
 11
8440.1456291510513
 21
19461.985685
 31
0.0
  0
LINE
  5
FA80
  8
0-1
  6
CONTINUOUS
 62
     3
 10
8477.1458011510585
 20
17791.957257433889
 30
0.0
 11
8477.1458011510585
 21
19461.985685
 31
0.0
  0
LINE
  5
FA81
  8
0-1
  6
CONTINUOUS
 62
     3
 10
8640.14628915106
 20
17724.70201846179
 30
0.0
 11
8640.14628915106
 21
19461.985685
 31
0.0
  0
LINE
  5
FA82
  8
0-1
  6
CONTINUOUS
 62
     3
 10
8677.1464611510692
 20
17709.435466561219
 30
0.0
 11
8677.1464611510692
 21
19461.985685
 31
0.0
  0
LINE
  5
FA83
  8
0-1
  6
CONTINUOUS
 62
     3
 10
8840.1469491510725
 20
17642.180227589099
 30
0.0
 11
8840.1469491510725
 21
19461.985685
 31
0.0
  0
LINE
  5
FA84
  8
0-1
  6
CONTINUOUS
 62
     3
 10
8877.1471211510816
 20
17626.913675688538
 30
0.0
 11
8877.1471211510816
 21
19461.985685
 31
0.0
  0
LINE
  5
FA85
  8
0-1
  6
CONTINUOUS
 62
     3
 10
9040.1476091510795
 20
17683.61714701321
 30
0.0
 11
9040.1476091510795
 21
19461.985685
 31
0.0
  0
LINE
  5
FA86
  8
0-1
  6
CONTINUOUS
 62
     3
 10
9077.1477811510867
 20
17773.291143927981
 30
0.0
 11
9077.1477811510867
 21
19461.985685
 31
0.0
  0
LINE
  5
FA87
  8
0-1
  6
CONTINUOUS
 62
     3
 10
9240.1482691510901
 20
17638.213552947622
 30
0.0
 11
9240.1482691510901
 21
19461.985685
 31
0.0
  0
LINE
  5
FA88
  8
0-1
  6
CONTINUOUS
 62
     3
 10
9277.1484411510955
 20
17595.670312558748
 30
0.0
 11
9277.1484411510955
 21
19461.985685
 31
0.0
  0
LINE
  5
FA89
  8
0-1
  6
CONTINUOUS
 62
     3
 10
9440.1489291511043
 20
17408.250401524641
 30
0.0
 11
9440.1489291511007
 21
19461.985685
 31
0.0
  0
LINE
  5
FA8A
  8
0-1
  6
CONTINUOUS
 62
     3
 10
9477.1491011511116
 20
17365.707161135771
 30
0.0
 11
9477.1491011511098
 21
19461.985685
 31
0.0
  0
LINE
  5
FA8B
  8
0-1
  6
CONTINUOUS
 62
     3
 10
9640.1495891511113
 20
17178.287250101661
 30
0.0
 11
9640.1495891511113
 21
19461.985685
 31
0.0
  0
LINE
  5
FA8C
  8
0-1
  6
CONTINUOUS
 62
     3
 10
9677.1497611511204
 20
17135.74400971278
 30
0.0
 11
9677.1497611511204
 21
19461.985685
 31
0.0
  0
LINE
  5
FA8D
  8
0-1
  6
CONTINUOUS
 62
     3
 10
9840.1502491511219
 20
17000.69523749184
 30
0.0
 11
9840.1502491511219
 21
19461.985685
 31
0.0
  0
LINE
  5
FA8E
  8
0-1
  6
CONTINUOUS
 62
     3
 10
9877.1504211511274
 20
17090.373517523742
 30
0.0
 11
9877.1504211511274
 21
19461.985685
 31
0.0
  0
LINE
  5
FA8F
  8
0-1
  6
CONTINUOUS
 62
     3
 10
10040.150909151131
 20
17147.049482353101
 30
0.0
 11
10040.150909151131
 21
19461.985685
 31
0.0
  0
LINE
  5
FA90
  8
0-1
  6
CONTINUOUS
 62
     3
 10
10077.151081151131
 20
17131.782930452511
 30
0.0
 11
10077.15108115114
 21
19461.985685
 31
0.0
  0
LINE
  5
FA91
  8
0-1
  6
CONTINUOUS
 62
     3
 10
10240.15156915113
 20
17064.527691480431
 30
0.0
 11
10240.15156915113
 21
19461.985685
 31
0.0
  0
LINE
  5
FA92
  8
0-1
  6
CONTINUOUS
 62
     3
 10
10277.15174115114
 20
17049.261139579859
 30
0.0
 11
10277.15174115114
 21
19461.985685
 31
0.0
  0
LINE
  5
FA93
  8
0-1
  6
CONTINUOUS
 62
     3
 10
10440.152229151139
 20
16982.00590060775
 30
0.0
 11
10440.152229151139
 21
19461.985685
 31
0.0
  0
LINE
  5
FA94
  8
0-1
  6
CONTINUOUS
 62
     3
 10
10477.15240115115
 20
16966.739348707179
 30
0.0
 11
10477.15240115115
 21
19461.985685
 31
0.0
  0
LINE
  5
FA95
  8
0-1
  6
CONTINUOUS
 62
     3
 10
10640.15288915115
 20
16899.48410973508
 30
0.0
 11
10640.15288915115
 21
19461.985685
 31
0.0
  0
LINE
  5
FA96
  8
0-1
  6
CONTINUOUS
 62
     3
 10
10677.15306115115
 20
16884.217557834509
 30
0.0
 11
10677.15306115115
 21
19461.985685
 31
0.0
  0
LINE
  5
FA97
  8
0-1
  6
CONTINUOUS
 62
     3
 10
10840.15354915116
 20
16816.962318862421
 30
0.0
 11
10840.15354915116
 21
19461.985685
 31
0.0
  0
LINE
  5
FA98
  8
0-1
  6
CONTINUOUS
 62
     3
 10
10877.15372115117
 20
16801.69576696185
 30
0.0
 11
10877.15372115117
 21
19461.985685
 31
0.0
  0
LINE
  5
FA99
  8
0-1
  6
CONTINUOUS
 62
     3
 10
11040.15420915116
 20
16734.440527989751
 30
0.0
 11
11040.15420915116
 21
19461.985685
 31
0.0
  0
LINE
  5
FA9A
  8
0-1
  6
CONTINUOUS
 62
     3
 10
11077.154381151169
 20
16719.17397608918
 30
0.0
 11
11077.154381151169
 21
19461.985685
 31
0.0
  0
LINE
  5
FA9B
  8
0-1
  6
CONTINUOUS
 62
     3
 10
11240.154869151171
 20
16651.918737117048
 30
0.0
 11
11240.154869151171
 21
19461.985685
 31
0.0
  0
LINE
  5
FA9C
  8
0-1
  6
CONTINUOUS
 62
     3
 10
11277.155041151191
 20
16636.652185216499
 30
0.0
 11
11277.155041151191
 21
19461.985685
 31
0.0
  0
LINE
  5
FA9D
  8
0-1
  6
CONTINUOUS
 62
     3
 10
11440.15552915119
 20
16569.396946244411
 30
0.0
 11
11440.15552915119
 21
19461.985685
 31
0.0
  0
LINE
  5
FA9E
  8
0-1
  6
CONTINUOUS
 62
     3
 10
11477.1557011512
 20
16554.13039434384
 30
0.0
 11
11477.1557011512
 21
19461.985685
 31
0.0
  0
LINE
  5
FA9F
  8
0-1
  6
CONTINUOUS
 62
     3
 10
11640.156189151199
 20
16486.875155371741
 30
0.0
 11
11640.156189151199
 21
19461.985685
 31
0.0
  0
LINE
  5
FAA0
  8
0-1
  6
CONTINUOUS
 62
     3
 10
11677.156361151199
 20
16471.60860347117
 30
0.0
 11
11677.156361151199
 21
19461.985685
 31
0.0
  0
LINE
  5
FAA1
  8
0-1
  6
CONTINUOUS
 62
     3
 10
11840.156849151201
 20
16404.353364499071
 30
0.0
 11
11840.156849151201
 21
19461.985685
 31
0.0
  0
LINE
  5
FAA2
  8
0-1
  6
CONTINUOUS
 62
     3
 10
11877.157021151201
 20
16389.0868125985
 30
0.0
 11
11877.157021151201
 21
19461.985685
 31
0.0
  0
LINE
  5
FAA3
  8
0-1
  6
CONTINUOUS
 62
     3
 10
12040.1575091512
 20
16321.83157362639
 30
0.0
 11
12040.15750915122
 21
19461.985685
 31
0.0
  0
LINE
  5
FAA4
  8
0-1
  6
CONTINUOUS
 62
     3
 10
12077.15768115122
 20
16306.565021725821
 30
0.0
 11
12077.15768115122
 21
19461.985685
 31
0.0
  0
LINE
  5
FAA5
  8
0-1
  6
CONTINUOUS
 62
     3
 10
12240.15816915122
 20
16239.309782753709
 30
0.0
 11
12240.15816915122
 21
19461.985685
 31
0.0
  0
LINE
  5
FAA6
  8
0-1
  6
CONTINUOUS
 62
     3
 10
12277.15834115122
 20
16224.04323085316
 30
0.0
 11
12277.15834115122
 21
19461.985685
 31
0.0
  0
LINE
  5
FAA7
  8
0-1
  6
CONTINUOUS
 62
     3
 10
12440.158829151231
 20
16156.78799188105
 30
0.0
 11
12440.158829151231
 21
19461.985685
 31
0.0
  0
LINE
  5
FAA8
  8
0-1
  6
CONTINUOUS
 62
     3
 10
12477.15900115124
 20
16141.52143998049
 30
0.0
 11
12477.15900115124
 21
19461.985685
 31
0.0
  0
LINE
  5
FAA9
  8
0-1
  6
CONTINUOUS
 62
     3
 10
12640.15948915123
 20
16074.26620100838
 30
0.0
 11
12640.15948915123
 21
19461.985685
 31
0.0
  0
LINE
  5
FAAA
  8
0-1
  6
CONTINUOUS
 62
     3
 10
12677.15966115125
 20
16058.99964910782
 30
0.0
 11
12677.15966115125
 21
19461.985685
 31
0.0
  0
LINE
  5
FAAB
  8
0-1
  6
CONTINUOUS
 62
     3
 10
12840.16014915125
 20
15991.74441013571
 30
0.0
 11
12840.16014915125
 21
19461.985685
 31
0.0
  0
LINE
  5
FAAC
  8
0-1
  6
CONTINUOUS
 62
     3
 10
12877.16032115125
 20
15976.477858235139
 30
0.0
 11
12877.16032115125
 21
19461.985685
 31
0.0
  0
LINE
  5
FAAD
  8
0-1
  6
CONTINUOUS
 62
     3
 10
13040.16080915125
 20
15909.22261926303
 30
0.0
 11
13040.16080915125
 21
19461.985685
 31
0.0
  0
LINE
  5
FAAE
  8
0-1
  6
CONTINUOUS
 62
     3
 10
13077.16098115127
 20
15893.95606736248
 30
0.0
 11
13077.16098115127
 21
19461.985685
 31
0.0
  0
LINE
  5
FAAF
  8
0-1
  6
CONTINUOUS
 62
     3
 10
13240.16146915127
 20
15826.700828390371
 30
0.0
 11
13240.16146915127
 21
19461.985685
 31
0.0
  0
LINE
  5
FAB0
  8
0-1
  6
CONTINUOUS
 62
     3
 10
13277.16164115127
 20
15811.43427648981
 30
0.0
 11
13277.16164115127
 21
19461.985685
 31
0.0
  0
LINE
  5
FAB1
  8
2-0
  6
DASHED3
 62
     6
 10
10941.88272864067
 20
16774.988087000002
 30
0.0
 11
13587.643518151041
 21
16774.988087000002
 31
0.0
  0
LINE
  5
FAB2
  8
2-0
  6
DASHED3
 62
     6
 10
11160.01436891983
 20
16684.985315999991
 30
0.0
 11
13587.643518151041
 21
16684.985315999991
 31
0.0
  0
LINE
  5
FAB3
  8
0-1
  6
CONTINUOUS
 62
     3
 10
8587.6435181510387
 20
16684.985315999991
 30
0.0
 11
11160.01436891983
 21
16684.985315999991
 31
0.0
  0
LINE
  5
FAB4
  8
0-1
  6
CONTINUOUS
 62
     3
 10
8587.6435181510387
 20
16774.988087000002
 30
0.0
 11
10941.88272864067
 21
16774.988087000002
 31
0.0
  0
LINE
  5
FAB5
  8
0-1
  6
CONTINUOUS
 62
     3
 10
8647.1438871510509
 20
14162.48571100001
 30
0.0
 11
10896.143887151051
 21
16729.985711000001
 31
0.0
  0
LINE
  5
FAB6
  8
0-1
  6
CONTINUOUS
 62
     3
 10
10896.143887151051
 20
14162.48571100001
 30
0.0
 11
8647.1438871510509
 21
16729.985711000001
 31
0.0
  0
LINE
  5
FAB7
  8
0-6
  6
CONTINUOUS
 62
     6
 10
13534.643887151051
 20
15622.07550424462
 30
0.0
 11
13276.58890654774
 21
15239.93619976359
 31
0.0
  0
LINE
  5
FAB8
  8
2-0
  6
DASHED3
 62
     6
 10
12700.836652977239
 20
16049.23034250678
 30
0.0
 11
13297.143887151051
 21
16729.985711000001
 31
0.0
  0
LINE
  5
FAB9
  8
2-0
  6
DASHED3
 62
     6
 10
8647.1438871510509
 20
19297.485711000001
 30
0.0
 11
10823.593073444301
 21
16823.795296878779
 31
0.0
  0
LINE
  5
FABA
  8
2-0
  6
DASHED3
 62
     6
 10
10896.143887151051
 20
19297.485711000001
 30
0.0
 11
9341.0647379863785
 21
17522.178589843788
 31
0.0
  0
LINE
  5
FABB
  8
0-1
  6
CONTINUOUS
 62
     3
 10
9341.0647379863785
 20
17522.178589843788
 30
0.0
 11
8647.1438871510509
 21
16729.985711000001
 31
0.0
  0
LINE
  5
FABC
  8
0-1
  6
CONTINUOUS
 62
     3
 10
8996.4414337359103
 20
17577.690411339281
 30
0.0
 11
9091.7954540594365
 21
17808.791394445481
 31
0.0
  0
LINE
  5
FABD
  8
0-1
  6
CONTINUOUS
 62
     3
 10
9825.4949862426547
 20
16965.174895287859
 30
0.0
 11
9920.8456359201737
 21
17196.278746994321
 31
0.0
  0
LINE
  5
FABE
  8
0-1
  6
CONTINUOUS
 62
     3
 10
9825.4949862426547
 20
16965.174895287859
 30
0.0
 11
9091.7954540594365
 21
17808.791394445481
 31
0.0
  0
LINE
  5
FABF
  8
0-1
  6
CONTINUOUS
 62
     3
 10
9920.8445771413299
 20
17196.276180804489
 30
0.0
 11
13910.14490315104
 21
15550.260576499861
 31
0.0
  0
LINE
  5
FAC0
  8
0-6
  6
CONTINUOUS
 62
     6
 10
6799.3507079837873
 20
16307.70231181539
 30
0.0
 11
7679.3496519838027
 21
16307.70231181539
 31
0.0
  0
LINE
  5
FAC1
  8
0-6
  6
CONTINUOUS
 62
     6
 10
6621.588570635402
 20
16137.68518414507
 30
0.0
 11
6799.3507079837873
 21
16307.70231181539
 31
0.0
  0
LINE
  5
FAC2
  8
0-6
  6
CONTINUOUS
 62
     6
 10
6505.9609306354096
 20
16027.09542014505
 30
0.0
 11
6603.1582626354138
 21
16156.95777714506
 31
0.0
  0
LINE
  5
FAC3
  8
0-6
  6
CONTINUOUS
 62
     6
 10
6640.0198676353984
 20
16118.412591145059
 30
0.0
 11
6505.9609306354096
 21
16027.09542014505
 31
0.0
  0
LINE
  5
FAC4
  8
0-6
  6
CONTINUOUS
 62
     6
 10
6640.0198676353984
 20
16118.412591145059
 30
0.0
 11
6603.1582626354138
 21
16156.95777714506
 31
0.0
  0
TEXT
  5
FAC5
  8
0-6
  6
CONTINUOUS
 62
     7
 10
6879.3519619837971
 20
16387.70257581539
 30
0.0
 40
160.0
  1
ブレース
 72
     4
 11
7242.0186286504641
 21
16473.035909148719
 31
0.0
  0
LINE
  5
FAC6
  8
0-6
  6
CONTINUOUS
 62
     6
 10
7279.9483397106942
 20
16784.988192000001
 30
0.0
 11
7160.6507213783434
 21
17100.58053000001
 31
0.0
  0
LINE
  5
FAC7
  8
0-6
  6
CONTINUOUS
 62
     6
 10
6360.0799603783544
 20
17100.58053000001
 30
0.0
 11
7160.6507213783434
 21
17100.58053000001
 31
0.0
  0
TEXT
  5
FAC8
  8
0-6
  6
CONTINUOUS
 62
     7
 10
6440.6503253783403
 20
17180.580794000001
 30
0.0
 40
160.0
  1
桁（中）
 72
     4
 11
6760.6503253783403
 21
17260.580794000001
 31
0.0
  0
LINE
  5
FAC9
  8
0-6
  6
CONTINUOUS
 62
     6
 10
10404.48774209701
 20
15572.503360188721
 30
0.0
 11
11284.48668609702
 21
15572.503360188721
 31
0.0
  0
LINE
  5
FACA
  8
0-6
  6
CONTINUOUS
 62
     6
 10
11652.228391671641
 20
16040.3516668219
 30
0.0
 11
11284.48668609702
 21
15572.503360188721
 31
0.0
  0
TEXT
  5
FACB
  8
0-6
  6
CONTINUOUS
 62
     7
 10
10484.48899609701
 20
15652.503624188699
 30
0.0
 40
160.0
  1
ブレース
 72
     4
 11
10847.15566276368
 21
15737.83695752204
 31
0.0
  0
LINE
  5
FACC
  8
0-1
  6
CONTINUOUS
 62
     3
 10
10896.143887151051
 20
16729.985711000001
 30
0.0
 11
10823.593073444301
 21
16823.795296878779
 31
0.0
  0
LINE
  5
FACD
  8
2-0
  6
DASHED3
 62
     6
 10
11048.143887151051
 20
19297.485711000001
 30
0.0
 11
13297.143887151051
 21
16729.985711000001
 31
0.0
  0
LINE
  5
FACE
  8
2-0
  6
DASHED3
 62
     6
 10
13297.143887151051
 20
19297.485711000001
 30
0.0
 11
11048.14388715104
 21
16729.985711000001
 31
0.0
  0
LINE
  5
FACF
  8
0-1
  6
CONTINUOUS
 62
     3
 10
11048.143887151051
 20
14162.48571100001
 30
0.0
 11
12700.836652977239
 21
16049.23034250678
 31
0.0
  0
LINE
  5
FAD0
  8
0-1
  6
CONTINUOUS
 62
     3
 10
13297.143887151051
 20
14162.48571100001
 30
0.0
 11
11048.143887151051
 21
16729.985711000001
 31
0.0
  0
LINE
  5
FAD6
  8
SUNPOU
  6
CONTINUOUS
 10
4740.1437421510491
 20
19519.98359950001
 30
0.0
 11
4740.1437421510491
 21
20316.950867278461
 31
0.0
  0
LINE
  5
FAD7
  8
SUNPOU
  6
CONTINUOUS
 10
4740.1437421510309
 20
13228.673846847811
 30
0.0
 11
4740.1437421510309
 21
13969.98643699999
 31
0.0
  0
LINE
  5
FAD8
  8
0-1
  6
CONTINUOUS
 62
     3
 10
6440.1449691510579
 20
18636.061171735011
 30
0.0
 11
6440.1449691510579
 21
19461.985685
 31
0.0
  0
LINE
  5
FAD9
  8
0-1
  6
CONTINUOUS
 62
     3
 10
6477.145141151057
 20
18620.742195921401
 30
0.0
 11
6477.1451411510579
 21
19461.985685
 31
0.0
  0
LINE
  5
FADA
  8
0-1
  6
CONTINUOUS
 62
     3
 10
6640.1446401510584
 20
18553.256418211698
 30
0.0
 11
6640.1446401510602
 21
19461.985685
 31
0.0
  0
LINE
  5
FADB
  8
0-1
  6
CONTINUOUS
 62
     3
 10
6677.1458011510476
 20
18537.937032927912
 30
0.0
 11
6677.1458011510476
 21
19461.985685
 31
0.0
  0
LINE
  5
FADC
  8
0-1
  6
CONTINUOUS
 62
     3
 10
6240.1443101510586
 20
18718.86633431452
 30
0.0
 11
6240.1443101510613
 21
19461.985685
 31
0.0
  0
LINE
  5
FADD
  8
0-1
  6
CONTINUOUS
 62
     3
 10
6277.1434911510587
 20
18703.54776879913
 30
0.0
 11
6277.1434911510587
 21
19461.985685
 31
0.0
  0
LINE
  5
FADE
  8
0-1
  6
CONTINUOUS
 62
     3
 10
19816.006397585181
 20
8132.6883740000021
 30
0.0
 11
22649.00982858516
 21
8132.6883740000021
 31
0.0
  0
LINE
  5
FADF
  8
0-1
  6
CONTINUOUS
 62
     3
 10
19816.006397585181
 20
8326.1887430000024
 30
0.0
 11
22649.00982858516
 21
8326.1887430000024
 31
0.0
  0
LINE
  5
FAE0
  8
0-1
  6
CONTINUOUS
 62
     3
 10
19688.010092585158
 20
8264.0026619999971
 30
0.0
 11
19688.010092585158
 21
8589.6883999999973
 31
0.0
  0
LINE
  5
FAE1
  8
0-1
  6
CONTINUOUS
 62
     3
 10
22734.00837758516
 20
8459.6884660000014
 30
0.0
 11
19688.010092585158
 21
8459.6884660000014
 31
0.0
  0
LINE
  5
FAE2
  8
0-1
  6
CONTINUOUS
 62
     3
 10
19688.010092585158
 20
8589.6883999999973
 30
0.0
 11
22714.01128058515
 21
8589.6883999999973
 31
0.0
  0
LINE
  5
FAE3
  8
0-1
  6
CONTINUOUS
 62
     3
 10
7680.7332144709508
 20
8152.2344180000064
 30
0.0
 11
7680.7332144709508
 21
6291.1885390000007
 31
0.0
  0
LINE
  5
FAE4
  8
0-1
  6
CONTINUOUS
 62
     3
 10
7643.7350224709498
 20
8152.2344180000064
 30
0.0
 11
7643.7350224709498
 21
6291.1885390000007
 31
0.0
  0
LINE
  5
FAE5
  8
0-1
  6
CONTINUOUS
 62
     3
 10
8380.7325544709456
 20
8152.2344180000064
 30
0.0
 11
8380.7325544709456
 21
6291.1885390000007
 31
0.0
  0
LINE
  5
FAE6
  8
0-1
  6
CONTINUOUS
 62
     3
 10
8343.7343624709465
 20
8152.2344180000064
 30
0.0
 11
8343.7343624709465
 21
6291.1885390000007
 31
0.0
  0
LINE
  5
FAE7
  8
0-1
  6
CONTINUOUS
 62
     3
 10
8002.2327654709388
 20
6291.1885390000007
 30
0.0
 11
8002.2327654709388
 21
8152.2344180000064
 31
0.0
  0
LINE
  5
FAE8
  8
0-1
  6
CONTINUOUS
 62
     3
 10
8022.2338214709553
 20
6291.1885390000007
 30
0.0
 11
8022.2338214709553
 21
8152.2344180000064
 31
0.0
  0
LINE
  5
FAE9
  8
0-1
  6
CONTINUOUS
 62
     3
 10
7952.2340854709473
 20
6291.1885390000007
 30
0.0
 11
7952.2340854709473
 21
8152.2344180000064
 31
0.0
  0
LINE
  5
FAEA
  8
0-1
  6
CONTINUOUS
 62
     3
 10
8072.2334914709509
 20
6291.1885390000007
 30
0.0
 11
8072.2334914709509
 21
8152.2344180000064
 31
0.0
  0
LINE
  5
FAEB
  8
0-1
  6
CONTINUOUS
 62
     3
 10
8205.2333854709432
 20
6291.1885390000007
 30
0.0
 11
8205.2333854709432
 21
8152.2344180000064
 31
0.0
  0
LINE
  5
FAEC
  8
0-1
  6
CONTINUOUS
 62
     3
 10
8220.2331874709489
 20
6291.1885390000007
 30
0.0
 11
8220.2331874709489
 21
8152.2344180000064
 31
0.0
  0
LINE
  5
FAED
  8
0-1
  6
CONTINUOUS
 62
     3
 10
7819.233200470946
 20
6291.1885390000007
 30
0.0
 11
7819.233200470946
 21
8152.2344180000064
 31
0.0
  0
LINE
  5
FAEE
  8
0-1
  6
CONTINUOUS
 62
     3
 10
7804.2343884709553
 20
6291.1885390000007
 30
0.0
 11
7804.2343884709553
 21
8152.2344180000064
 31
0.0
  0
LINE
  5
FAEF
  8
0-1
  6
CONTINUOUS
 62
     3
 10
7520.2338474709541
 20
6291.1885390000007
 30
0.0
 11
7520.2338474709541
 21
8152.2344180000064
 31
0.0
  0
LINE
  5
FAF0
  8
0-1
  6
CONTINUOUS
 62
     3
 10
7505.233055470947
 20
6291.1885390000007
 30
0.0
 11
7505.233055470947
 21
8152.2344180000064
 31
0.0
  0
LINE
  5
FAF1
  8
0-1
  6
CONTINUOUS
 62
     3
 10
7372.2341514709406
 20
6291.1885390000007
 30
0.0
 11
7372.2341514709406
 21
8152.2344180000064
 31
0.0
  0
LINE
  5
FAF2
  8
0-1
  6
CONTINUOUS
 62
     3
 10
7252.232765470947
 20
6291.1885390000007
 30
0.0
 11
7252.232765470947
 21
8152.2344180000064
 31
0.0
  0
LINE
  5
FAF3
  8
0-1
  6
CONTINUOUS
 62
     3
 10
7322.2354704709569
 20
6291.1885390000007
 30
0.0
 11
7322.2354704709569
 21
8152.2344180000064
 31
0.0
  0
LINE
  5
FAF4
  8
0-1
  6
CONTINUOUS
 62
     3
 10
7302.2344154709572
 20
6291.1885390000007
 30
0.0
 11
7302.2344154709572
 21
8152.2344180000064
 31
0.0
  0
LINE
  5
FAF5
  8
0-1
  6
CONTINUOUS
 62
     3
 10
8504.2327394709428
 20
6291.1885390000007
 30
0.0
 11
8504.2327394709428
 21
8152.2344180000064
 31
0.0
  0
LINE
  5
FAF6
  8
0-1
  6
CONTINUOUS
 62
     3
 10
8519.2335304709577
 20
6291.1885390000007
 30
0.0
 11
8519.2335304709577
 21
8152.2344180000064
 31
0.0
  0
LINE
  5
FAF7
  8
0-1
  6
CONTINUOUS
 62
     3
 10
8652.2344154709572
 20
6291.1885390000007
 30
0.0
 11
8652.2344154709572
 21
8152.2344180000064
 31
0.0
  0
LINE
  5
FAF8
  8
0-1
  6
CONTINUOUS
 62
     3
 10
8920.2335174709515
 20
6291.1885390000007
 30
0.0
 11
8920.2335174709515
 21
8152.2344180000064
 31
0.0
  0
LINE
  5
FAF9
  8
0-1
  6
CONTINUOUS
 62
     3
 10
8905.2347054709553
 20
6291.1885390000007
 30
0.0
 11
8905.2347054709553
 21
8152.2344180000064
 31
0.0
  0
LINE
  5
FAFA
  8
0-1
  6
CONTINUOUS
 62
     3
 10
8772.2338214709453
 20
6291.1885390000007
 30
0.0
 11
8772.2338214709453
 21
8152.2344180000064
 31
0.0
  0
LINE
  5
FAFB
  8
0-1
  6
CONTINUOUS
 62
     3
 10
8722.2341514709406
 20
6291.1885390000007
 30
0.0
 11
8722.2341514709406
 21
8152.2344180000064
 31
0.0
  0
LINE
  5
FAFC
  8
0-1
  6
CONTINUOUS
 62
     3
 10
8702.2350744709547
 20
6291.1885390000007
 30
0.0
 11
8702.2350744709547
 21
8152.2344180000064
 31
0.0
  0
LINE
  5
FAFD
  8
0-1
  6
CONTINUOUS
 62
     3
 10
9530.2340454709465
 20
6291.1885390000007
 30
0.0
 11
9530.2340454709465
 21
8152.2344180000064
 31
0.0
  0
LINE
  5
FAFE
  8
0-1
  6
CONTINUOUS
 62
     3
 10
9510.2349694709555
 20
6291.1885390000007
 30
0.0
 11
9510.2349694709555
 21
8152.2344180000064
 31
0.0
  0
LINE
  5
FAFF
  8
0-1
  6
CONTINUOUS
 62
     3
 10
9580.2347054709408
 20
6291.1885390000007
 30
0.0
 11
9580.2347054709408
 21
8152.2344180000064
 31
0.0
  0
LINE
  5
FB00
  8
0-1
  6
CONTINUOUS
 62
     3
 10
9460.2343094709522
 20
6291.1885390000007
 30
0.0
 11
9460.2343094709522
 21
8152.2344180000064
 31
0.0
  0
LINE
  5
FB01
  8
0-1
  6
CONTINUOUS
 62
     3
 10
9327.2344154709444
 20
6291.1885390000007
 30
0.0
 11
9327.2344154709444
 21
8152.2344180000064
 31
0.0
  0
LINE
  5
FB02
  8
0-1
  6
CONTINUOUS
 62
     3
 10
9312.2326334709342
 20
6291.1885390000007
 30
0.0
 11
9312.2326334709342
 21
8152.2344180000064
 31
0.0
  0
LINE
  5
FB03
  8
0-1
  6
CONTINUOUS
 62
     3
 10
9713.2345994709485
 20
6291.1885390000007
 30
0.0
 11
9713.2345994709485
 21
8152.2344180000064
 31
0.0
  0
LINE
  5
FB04
  8
0-1
  6
CONTINUOUS
 62
     3
 10
9728.2334124709523
 20
6291.1885390000007
 30
0.0
 11
9728.2334124709523
 21
8152.2344180000064
 31
0.0
  0
LINE
  5
FB05
  8
0-1
  6
CONTINUOUS
 62
     3
 10
10930.23470547095
 20
6291.1885390000007
 30
0.0
 11
10930.23470547095
 21
8152.2344180000064
 31
0.0
  0
LINE
  5
FB06
  8
0-1
  6
CONTINUOUS
 62
     3
 10
10910.233649470951
 20
6291.1885390000007
 30
0.0
 11
10910.233649470951
 21
8152.2344180000064
 31
0.0
  0
LINE
  5
FB07
  8
0-1
  6
CONTINUOUS
 62
     3
 10
10980.23338547096
 20
6291.1885390000007
 30
0.0
 11
10980.23338547096
 21
8152.2344180000064
 31
0.0
  0
LINE
  5
FB08
  8
0-1
  6
CONTINUOUS
 62
     3
 10
10860.234969470939
 20
6291.1885390000007
 30
0.0
 11
10860.234969470939
 21
8152.2344180000064
 31
0.0
  0
LINE
  5
FB09
  8
0-1
  6
CONTINUOUS
 62
     3
 10
10727.23408547094
 20
6291.1885390000007
 30
0.0
 11
10727.23408547094
 21
8152.2344180000064
 31
0.0
  0
LINE
  5
FB0A
  8
0-1
  6
CONTINUOUS
 62
     3
 10
10712.23428347094
 20
6291.1885390000007
 30
0.0
 11
10712.23428347094
 21
8152.2344180000064
 31
0.0
  0
LINE
  5
FB0B
  8
0-1
  6
CONTINUOUS
 62
     3
 10
11113.23229047096
 20
6291.1885390000007
 30
0.0
 11
11113.23229047096
 21
8152.2344180000064
 31
0.0
  0
LINE
  5
FB0C
  8
0-1
  6
CONTINUOUS
 62
     3
 10
11128.23407147095
 20
6291.1885390000007
 30
0.0
 11
11128.23407147095
 21
8152.2344180000064
 31
0.0
  0
LINE
  5
FB0D
  8
0-1
  6
CONTINUOUS
 62
     3
 10
10428.23473147095
 20
6291.1885390000007
 30
0.0
 11
10428.23473147095
 21
8152.2344180000064
 31
0.0
  0
LINE
  5
FB0E
  8
0-1
  6
CONTINUOUS
 62
     3
 10
10413.232950470951
 20
6291.1885390000007
 30
0.0
 11
10413.232950470951
 21
8152.2344180000064
 31
0.0
  0
LINE
  5
FB0F
  8
0-1
  6
CONTINUOUS
 62
     3
 10
10012.23494247095
 20
6291.1885390000007
 30
0.0
 11
10012.23494247095
 21
8152.2344180000064
 31
0.0
  0
LINE
  5
FB10
  8
0-1
  6
CONTINUOUS
 62
     3
 10
10027.23375547093
 20
6291.1885390000007
 30
0.0
 11
10027.23375547093
 21
8152.2344180000064
 31
0.0
  0
LINE
  5
FB11
  8
0-1
  6
CONTINUOUS
 62
     3
 10
10160.232659470959
 20
6291.1885390000007
 30
0.0
 11
10160.232659470959
 21
8152.2344180000064
 31
0.0
  0
LINE
  5
FB12
  8
0-1
  6
CONTINUOUS
 62
     3
 10
10280.23404547095
 20
6291.1885390000007
 30
0.0
 11
10280.23404547095
 21
8152.2344180000064
 31
0.0
  0
LINE
  5
FB13
  8
0-1
  6
CONTINUOUS
 62
     3
 10
10210.23430947093
 20
6291.1885390000007
 30
0.0
 11
10210.23430947093
 21
8152.2344180000064
 31
0.0
  0
LINE
  5
FB14
  8
0-1
  6
CONTINUOUS
 62
     3
 10
10230.23338547095
 20
6291.1885390000007
 30
0.0
 11
10230.23338547095
 21
8152.2344180000064
 31
0.0
  0
LINE
  5
FB15
  8
0-1
  6
CONTINUOUS
 62
     3
 10
9888.7347584709532
 20
8152.2344180000064
 30
0.0
 11
9888.7347584709532
 21
6291.1885390000007
 31
0.0
  0
LINE
  5
FB16
  8
0-1
  6
CONTINUOUS
 62
     3
 10
9851.7335964709491
 20
8152.2344180000064
 30
0.0
 11
9851.7335964709491
 21
6291.1885390000007
 31
0.0
  0
LINE
  5
FB17
  8
0-1
  6
CONTINUOUS
 62
     3
 10
11288.73244847095
 20
8152.2344180000064
 30
0.0
 11
11288.73244847095
 21
6291.1885390000007
 31
0.0
  0
LINE
  5
FB18
  8
0-1
  6
CONTINUOUS
 62
     3
 10
11251.733266470939
 20
8152.2344180000064
 30
0.0
 11
11251.733266470939
 21
6291.1885390000007
 31
0.0
  0
LINE
  5
FB19
  8
0-1
  6
CONTINUOUS
 62
     3
 10
10588.734098470941
 20
8152.2344180000064
 30
0.0
 11
10588.734098470941
 21
6291.1885390000007
 31
0.0
  0
LINE
  5
FB1A
  8
0-1
  6
CONTINUOUS
 62
     3
 10
10551.733926470941
 20
8152.2344180000064
 30
0.0
 11
10551.733926470941
 21
6291.1885390000007
 31
0.0
  0
LINE
  5
FB1B
  8
0-1
  6
CONTINUOUS
 62
     3
 10
22741.50877358517
 20
6241.1883740000021
 30
0.0
 11
22641.509432585161
 21
6241.1883740000021
 31
0.0
  0
LINE
  5
FB1C
  8
0-1
  6
CONTINUOUS
 62
     3
 10
22641.509432585161
 20
6241.1883740000021
 30
0.0
 11
22641.509432585161
 21
6141.1885390000007
 31
0.0
  0
LINE
  5
FB1D
  8
0-1
  6
CONTINUOUS
 62
     3
 10
22741.50877358517
 20
6141.1885390000007
 30
0.0
 11
22741.50877358517
 21
6241.1883740000021
 31
0.0
  0
LINE
  5
FB1E
  8
0-1
  6
CONTINUOUS
 62
     3
 10
22649.00982858516
 20
8459.6884660000014
 30
0.0
 11
22649.00982858516
 21
6241.1883740000021
 31
0.0
  0
LINE
  5
FB1F
  8
0-1
  6
CONTINUOUS
 62
     3
 10
22597.510092585158
 20
8132.6883740000021
 30
0.0
 11
22597.510092585158
 21
6141.1885390000007
 31
0.0
  0
LINE
  5
FB20
  8
0-1
  6
CONTINUOUS
 62
     3
 10
22714.01128058515
 20
8589.6883999999973
 30
0.0
 11
22714.01128058515
 21
6241.1883740000021
 31
0.0
  0
LINE
  5
FB21
  8
0-1
  6
CONTINUOUS
 62
     3
 10
22734.010092585158
 20
8459.6884660000014
 30
0.0
 11
22734.010092585158
 21
6241.1883740000021
 31
0.0
  0
LINE
  5
FB22
  8
0-1
  6
CONTINUOUS
 62
     3
 10
19688.010092585158
 20
8264.0026619999971
 30
0.0
 11
19731.010092585158
 21
8264.0026619999971
 31
0.0
  0
LINE
  5
FB23
  8
0-1
  6
CONTINUOUS
 62
     3
 10
19723.50745358516
 20
6241.1883740000021
 30
0.0
 11
19823.506793585169
 21
6241.1883740000021
 31
0.0
  0
LINE
  5
FB24
  8
0-1
  6
CONTINUOUS
 62
     3
 10
19823.506793585169
 20
6241.1883740000021
 30
0.0
 11
19823.506793585169
 21
6141.1885390000007
 31
0.0
  0
LINE
  5
FB25
  8
0-1
  6
CONTINUOUS
 62
     3
 10
19723.50745358516
 20
6141.1885390000007
 30
0.0
 11
19723.50745358516
 21
6241.1883740000021
 31
0.0
  0
LINE
  5
FB26
  8
0-1
  6
CONTINUOUS
 62
     3
 10
19867.510092585158
 20
8132.6883740000021
 30
0.0
 11
19867.510092585158
 21
6141.1885390000007
 31
0.0
  0
LINE
  5
FB27
  8
0-1
  6
CONTINUOUS
 62
     3
 10
19816.006397585181
 20
8459.6884660000014
 30
0.0
 11
19816.006397585181
 21
6241.1883740000021
 31
0.0
  0
LINE
  5
FB28
  8
0-1
  6
CONTINUOUS
 62
     3
 10
19751.006925585149
 20
8589.6883999999973
 30
0.0
 11
19751.006925585149
 21
6241.1883740000021
 31
0.0
  0
LINE
  5
FB29
  8
0-1
  6
CONTINUOUS
 62
     3
 10
19731.010092585158
 20
8459.6884660000014
 30
0.0
 11
19731.010092585158
 21
6241.1883740000021
 31
0.0
  0
LINE
  5
FB2A
  8
0-1
  6
CONTINUOUS
 62
     3
 10
11738.73357047094
 20
6241.1883740000021
 30
0.0
 11
11738.73357047094
 21
6141.1885390000007
 31
0.0
  0
LINE
  5
FB2B
  8
0-1
  6
CONTINUOUS
 62
     3
 10
11706.232779470931
 20
8455.5174490000027
 30
0.0
 11
11706.232779470931
 21
6241.1883740000021
 31
0.0
  0
LINE
  5
FB2C
  8
0-1
  6
CONTINUOUS
 62
     3
 10
11726.23357047094
 20
8456.0984379999973
 30
0.0
 11
11726.23357047094
 21
6241.1883740000021
 31
0.0
  0
LINE
  5
FB2D
  8
0-1
  6
CONTINUOUS
 62
     3
 10
9116.2335704709403
 20
8356.9898809999977
 30
0.0
 11
9116.2335704709403
 21
8152.2344180000064
 31
0.0
  0
LINE
  5
FB2E
  8
0-1
  6
CONTINUOUS
 62
     3
 10
9043.7337024709577
 20
8152.2344180000064
 30
0.0
 11
9043.7337024709577
 21
6241.1883740000021
 31
0.0
  0
LINE
  5
FB2F
  8
0-1
  6
CONTINUOUS
 62
     3
 10
9188.7324484709425
 20
8152.2344180000064
 30
0.0
 11
9188.7324484709425
 21
6241.1883740000021
 31
0.0
  0
LINE
  5
FB30
  8
0-1
  6
CONTINUOUS
 62
     3
 10
9188.7324484709425
 20
6291.1885390000007
 30
0.0
 11
11611.23370247093
 21
6291.1885390000007
 31
0.0
  0
LINE
  5
FB31
  8
0-1
  6
CONTINUOUS
 62
     3
 10
19867.510092585158
 20
6661.1892649999991
 30
0.0
 11
22597.510092585158
 21
6661.1892649999991
 31
0.0
  0
LINE
  5
FB32
  8
0-1
  6
CONTINUOUS
 62
     3
 10
19867.510092585158
 20
6596.1888030000027
 30
0.0
 11
22597.510092585158
 21
6596.1888030000027
 31
0.0
  0
LINE
  5
FB33
  8
0-1
  6
CONTINUOUS
 62
     3
 10
19867.510092585158
 20
6531.1888360000003
 30
0.0
 11
22597.510092585158
 21
6531.1888360000003
 31
0.0
  0
LINE
  5
FB34
  8
0-1
  6
CONTINUOUS
 62
     3
 10
19867.510092585158
 20
6466.1883740000039
 30
0.0
 11
22597.510092585158
 21
6466.1883740000039
 31
0.0
  0
LINE
  5
FB35
  8
0-1
  6
CONTINUOUS
 62
     3
 10
19867.510092585158
 20
6401.1889020000071
 30
0.0
 11
22597.510092585158
 21
6401.1889020000071
 31
0.0
  0
LINE
  5
FB36
  8
0-1
  6
CONTINUOUS
 62
     3
 10
19867.510092585158
 20
6336.1889349999956
 30
0.0
 11
22597.510092585158
 21
6336.1889349999956
 31
0.0
  0
LINE
  5
FB37
  8
0-1
  6
CONTINUOUS
 62
     3
 10
19867.510092585158
 20
6271.1889680000004
 30
0.0
 11
22597.510092585158
 21
6271.1889680000004
 31
0.0
  0
LINE
  5
FB38
  8
0-1
  6
CONTINUOUS
 62
     3
 10
19867.510092585158
 20
6206.1885060000041
 30
0.0
 11
22597.510092585158
 21
6206.1885060000041
 31
0.0
  0
LINE
  5
FB39
  8
0-1
  6
CONTINUOUS
 62
     3
 10
19867.510092585158
 20
8026.1885719999982
 30
0.0
 11
22597.510092585158
 21
8026.1885719999982
 31
0.0
  0
LINE
  5
FB3A
  8
0-1
  6
CONTINUOUS
 62
     3
 10
19867.510092585158
 20
7961.1886050000021
 30
0.0
 11
22597.510092585158
 21
7961.1886050000021
 31
0.0
  0
LINE
  5
FB3B
  8
0-1
  6
CONTINUOUS
 62
     3
 10
19867.510092585158
 20
7896.1891330000062
 30
0.0
 11
22597.510092585158
 21
7896.1891330000062
 31
0.0
  0
LINE
  5
FB3C
  8
0-1
  6
CONTINUOUS
 62
     3
 10
19867.510092585158
 20
7831.1891659999937
 30
0.0
 11
22597.510092585158
 21
7831.1891659999937
 31
0.0
  0
LINE
  5
FB3D
  8
0-1
  6
CONTINUOUS
 62
     3
 10
19867.510092585158
 20
7766.1891989999967
 30
0.0
 11
22597.510092585158
 21
7766.1891989999967
 31
0.0
  0
LINE
  5
FB3E
  8
0-1
  6
CONTINUOUS
 62
     3
 10
19867.510092585158
 20
7701.1887370000022
 30
0.0
 11
22597.510092585158
 21
7701.1887370000022
 31
0.0
  0
LINE
  5
FB3F
  8
0-1
  6
CONTINUOUS
 62
     3
 10
19867.510092585158
 20
7636.1887699999979
 30
0.0
 11
22597.510092585158
 21
7636.1887699999979
 31
0.0
  0
LINE
  5
FB40
  8
0-1
  6
CONTINUOUS
 62
     3
 10
19867.510092585158
 20
7571.1892980000011
 30
0.0
 11
22597.510092585158
 21
7571.1892980000011
 31
0.0
  0
LINE
  5
FB41
  8
0-1
  6
CONTINUOUS
 62
     3
 10
19867.510092585158
 20
7506.1893309999978
 30
0.0
 11
22597.510092585158
 21
7506.1893309999978
 31
0.0
  0
LINE
  5
FB42
  8
0-1
  6
CONTINUOUS
 62
     3
 10
19867.510092585158
 20
7441.1888690000023
 30
0.0
 11
22597.510092585158
 21
7441.1888690000023
 31
0.0
  0
LINE
  5
FB43
  8
0-1
  6
CONTINUOUS
 62
     3
 10
19867.510092585158
 20
7376.188901999999
 30
0.0
 11
22597.510092585158
 21
7376.188901999999
 31
0.0
  0
LINE
  5
FB44
  8
0-1
  6
CONTINUOUS
 62
     3
 10
19867.510092585158
 20
7311.1889350000029
 30
0.0
 11
22597.510092585158
 21
7311.1889350000029
 31
0.0
  0
LINE
  5
FB45
  8
0-1
  6
CONTINUOUS
 62
     3
 10
19867.510092585158
 20
7246.1884730000029
 30
0.0
 11
22597.510092585158
 21
7246.1884730000029
 31
0.0
  0
LINE
  5
FB46
  8
0-1
  6
CONTINUOUS
 62
     3
 10
19867.510092585158
 20
7181.1885060000041
 30
0.0
 11
22597.510092585158
 21
7181.1885060000041
 31
0.0
  0
LINE
  5
FB47
  8
0-1
  6
CONTINUOUS
 62
     3
 10
19867.510092585158
 20
7116.1890340000009
 30
0.0
 11
22597.510092585158
 21
7116.1890340000009
 31
0.0
  0
LINE
  5
FB48
  8
0-1
  6
CONTINUOUS
 62
     3
 10
19867.510092585158
 20
7051.1890669999966
 30
0.0
 11
22597.510092585158
 21
7051.1890669999966
 31
0.0
  0
LINE
  5
FB49
  8
0-1
  6
CONTINUOUS
 62
     3
 10
19867.510092585158
 20
6986.1891000000032
 30
0.0
 11
22597.510092585158
 21
6986.1891000000032
 31
0.0
  0
LINE
  5
FB4A
  8
0-1
  6
CONTINUOUS
 62
     3
 10
19867.510092585158
 20
6921.1886380000051
 30
0.0
 11
22597.510092585158
 21
6921.1886380000051
 31
0.0
  0
LINE
  5
FB4B
  8
0-1
  6
CONTINUOUS
 62
     3
 10
19867.510092585158
 20
6856.1886710000017
 30
0.0
 11
22597.510092585158
 21
6856.1886710000017
 31
0.0
  0
LINE
  5
FB4C
  8
0-1
  6
CONTINUOUS
 62
     3
 10
19867.510092585158
 20
6791.1891989999967
 30
0.0
 11
22597.510092585158
 21
6791.1891989999967
 31
0.0
  0
LINE
  5
FB4D
  8
0-1
  6
CONTINUOUS
 62
     3
 10
19867.510092585158
 20
6726.1892320000024
 30
0.0
 11
22597.510092585158
 21
6726.1892320000024
 31
0.0
  0
LINE
  5
FB4E
  8
0-1
  6
CONTINUOUS
 62
     3
 10
19867.510092585158
 20
8080.6485920000023
 30
0.0
 11
22597.510092585158
 21
8080.6485920000023
 31
0.0
  0
LINE
  5
FB4F
  8
0-1
  6
CONTINUOUS
 62
     3
 10
19723.50745358516
 20
6141.1885390000007
 30
0.0
 11
28302.988468710359
 21
6141.1885390000007
 31
0.0
  0
LINE
  5
FB50
  8
0-1
  6
CONTINUOUS
 62
     3
 10
6498.7335704709412
 20
6141.1885390000007
 30
0.0
 11
6498.7335704709412
 21
6241.1883740000021
 31
0.0
  0
LINE
  5
FB51
  8
0-1
  6
CONTINUOUS
 62
     3
 10
6526.2333724709461
 20
8268.990877000002
 30
0.0
 11
6526.2333724709461
 21
6241.1883740000021
 31
0.0
  0
LINE
  5
FB52
  8
0-1
  6
CONTINUOUS
 62
     3
 10
6506.2335704709376
 20
8268.3741496838102
 30
0.0
 11
6506.2335704709376
 21
6241.1883740000021
 31
0.0
  0
LINE
  5
FB53
  8
0-1
  6
CONTINUOUS
 62
     3
 10
6498.7335704709412
 20
6241.1883740000021
 30
0.0
 11
11738.73357047094
 21
6241.1883740000021
 31
0.0
  0
LINE
  5
FB54
  8
0-1
  6
CONTINUOUS
 62
     3
 10
6621.2324494709464
 20
6291.1885390000007
 30
0.0
 11
9043.7337024709577
 21
6291.1885390000007
 31
0.0
  0
LINE
  5
FB55
  8
0-1
  6
CONTINUOUS
 62
     3
 10
5816.2325154709397
 20
6141.1885390000007
 30
0.0
 11
11738.73357047094
 21
6141.1885390000007
 31
0.0
  0
LINE
  5
FB56
  8
0-1
  6
CONTINUOUS
 62
     3
 10
6526.2333724709461
 20
8152.2344180000064
 30
0.0
 11
11706.232779470931
 21
8152.2344180000064
 31
0.0
  0
LINE
  5
FB57
  8
0-1
  6
CONTINUOUS
 62
     3
 10
19842.009353585181
 20
8335.1891200000064
 30
0.0
 11
20119.438883585171
 21
8335.1891200000064
 31
0.0
  0
LINE
  5
FB58
  8
0-1
  6
CONTINUOUS
 62
     3
 10
19842.009353585181
 20
8377.1885650000022
 30
0.0
 11
20151.435821585172
 21
8377.1885650000022
 31
0.0
  0
LINE
  5
FB59
  8
0-1
  6
CONTINUOUS
 62
     3
 10
19837.009090585161
 20
8340.1888889999937
 30
0.0
 11
19837.009090585161
 21
8372.1892910000006
 31
0.0
  0
LINE
  5
FB5A
  8
0-1
  6
CONTINUOUS
 62
     3
 10
19816.006397585181
 20
8386.1884470000077
 30
0.0
 11
22649.00982858516
 21
8386.1884470000077
 31
0.0
  0
LINE
  5
FB5B
  8
0-1
  6
CONTINUOUS
 62
     3
 10
20122.97232358516
 20
8336.6529740000005
 30
0.0
 11
20154.973221585169
 21
8368.653376000002
 31
0.0
  0
LINE
  5
FB5C
  8
0-1
  6
CONTINUOUS
 62
     3
 10
19837.009090585161
 20
8368.7889730000006
 30
0.0
 11
20155.101889585148
 21
8368.7889730000006
 31
0.0
  0
LINE
  5
FB5D
  8
0-1
  6
CONTINUOUS
 62
     3
 10
19837.009090585161
 20
8360.3888860000006
 30
0.0
 11
20146.708731585171
 21
8360.3888860000006
 31
0.0
  0
LINE
  5
FB5E
  8
0-1
  6
CONTINUOUS
 62
     3
 10
19837.009090585161
 20
8351.9892939999972
 30
0.0
 11
20138.309633585159
 21
8351.9892939999972
 31
0.0
  0
LINE
  5
FB5F
  8
0-1
  6
CONTINUOUS
 62
     3
 10
19837.009090585161
 20
8343.5892070000027
 30
0.0
 11
20129.906577585181
 21
8343.5892070000027
 31
0.0
  0
LINE
  5
FB60
  8
0-1
  6
CONTINUOUS
 62
     3
 10
22628.00911658517
 20
8368.7889730000006
 30
0.0
 11
22309.916316585161
 21
8368.7889730000006
 31
0.0
  0
LINE
  5
FB61
  8
0-1
  6
CONTINUOUS
 62
     3
 10
22628.00911658517
 20
8360.3888860000006
 30
0.0
 11
22318.31145458516
 21
8360.3888860000006
 31
0.0
  0
LINE
  5
FB62
  8
0-1
  6
CONTINUOUS
 62
     3
 10
22628.00911658517
 20
8351.9892939999972
 30
0.0
 11
22326.710551585162
 21
8351.9892939999972
 31
0.0
  0
LINE
  5
FB63
  8
0-1
  6
CONTINUOUS
 62
     3
 10
22628.00911658517
 20
8343.5892070000027
 30
0.0
 11
22335.109649585142
 21
8343.5892070000027
 31
0.0
  0
LINE
  5
FB64
  8
0-1
  6
CONTINUOUS
 62
     3
 10
22623.008852585161
 20
8377.1885650000022
 30
0.0
 11
22313.582384585159
 21
8377.1885650000022
 31
0.0
  0
LINE
  5
FB65
  8
0-1
  6
CONTINUOUS
 62
     3
 10
22623.008852585161
 20
8335.1891200000064
 30
0.0
 11
22345.57932358516
 21
8335.1891200000064
 31
0.0
  0
LINE
  5
FB66
  8
0-1
  6
CONTINUOUS
 62
     3
 10
22628.00911658517
 20
8340.1888889999937
 30
0.0
 11
22628.00911658517
 21
8372.1892910000006
 31
0.0
  0
LINE
  5
FB67
  8
0-1
  6
CONTINUOUS
 62
     3
 10
22342.04390258517
 20
8336.6529740000005
 30
0.0
 11
22310.04696458517
 21
8368.653376000002
 31
0.0
  0
LINE
  5
FB68
  8
0-1
  6
CONTINUOUS
 62
     3
 10
6331.9317464709457
 20
8303.1736990000027
 30
0.0
 11
11811.92323547094
 21
8498.6897600000066
 31
0.0
  0
LINE
  5
FB69
  8
0-1
  6
CONTINUOUS
 62
     3
 10
11810.422760470939
 20
8548.6686450000016
 30
0.0
 11
6330.432261470939
 21
8353.151595000003
 31
0.0
  0
LINE
  5
FB6A
  8
0-1
  6
CONTINUOUS
 62
     3
 10
6327.3422334709458
 20
8356.0604969999968
 30
0.0
 11
6326.3821664709376
 21
8388.0460529999982
 31
0.0
  0
LINE
  5
FB6B
  8
0-1
  6
CONTINUOUS
 62
     3
 10
6331.2309974709488
 20
8393.1932959999976
 30
0.0
 11
11830.19221247094
 21
8589.2804480000032
 31
0.0
  0
LINE
  5
FB6C
  8
0-1
  6
CONTINUOUS
 62
     3
 10
11834.09681247094
 20
8459.338910000004
 30
0.0
 11
6335.1316384709498
 21
8263.2522529999969
 31
0.0
  0
LINE
  5
FB6D
  8
0-1
  6
CONTINUOUS
 62
     3
 10
6329.9839004709484
 20
8268.099599000001
 30
0.0
 11
6329.0248234709443
 21
8300.0856499999973
 31
0.0
  0
LINE
  5
FB6E
  8
0-1
  6
CONTINUOUS
 62
     3
 10
6328.6932544709407
 20
8311.0803909999977
 30
0.0
 11
6327.6728124709489
 21
8345.0647660000086
 31
0.0
  0
LINE
  5
FB6F
  8
0-1
  6
CONTINUOUS
 62
     3
 10
6330.5817154709521
 20
8348.1538049999999
 30
0.0
 11
11810.57419347094
 21
8543.6713500000023
 31
0.0
  0
LINE
  5
FB70
  8
0-1
  6
CONTINUOUS
 62
     3
 10
11811.77378147094
 20
8503.6880440000004
 30
0.0
 11
6331.7832834709398
 21
8308.1719839999969
 31
0.0
  0
LINE
  5
FB71
  8
0-1
  6
CONTINUOUS
 62
     3
 10
9116.2335704709403
 20
8356.9898809999977
 30
0.0
 11
9112.3309494709574
 21
8486.9314189999968
 31
0.0
  0
LINE
  5
FB72
  8
0-1
  6
CONTINUOUS
 62
     3
 10
11801.129910470931
 20
8458.3481610000017
 30
0.0
 11
11797.228279470941
 21
8588.2896989999972
 31
0.0
  0
LINE
  5
FB73
  8
0-1
  6
CONTINUOUS
 62
     3
 10
6343.7237394709446
 20
8393.5684149999979
 30
0.0
 11
6347.6263604709457
 21
8263.6273720000008
 31
0.0
  0
LINE
  5
FB74
  8
0-2
  6
CONTINUOUS
 62
     4
 10
21596.198133085181
 20
6888.4152330000052
 30
0.0
 11
21496.198793085168
 21
6888.4152330000052
 31
0.0
  0
LINE
  5
FB75
  8
0-2
  6
CONTINUOUS
 62
     4
 10
20868.814133085169
 20
6888.4152330000052
 30
0.0
 11
20968.81347308516
 21
6888.4152330000052
 31
0.0
  0
LINE
  5
FB76
  8
0-5
  6
CONTINUOUS
 62
     4
 10
22691.510092585158
 20
4461.1889349999938
 30
0.0
 11
22691.510092585158
 21
4301.1893970000001
 31
0.0
  0
LINE
  5
FB77
  8
0-5
  6
CONTINUOUS
 62
     4
 10
17551.63707258517
 20
6349.0350210000024
 30
0.0
 11
17671.635488585162
 21
6141.1885390000007
 31
0.0
  0
LINE
  5
FB78
  8
0-5
  6
CONTINUOUS
 62
     4
 10
13443.818558470941
 20
6241.1883740000021
 30
0.0
 11
13563.81895447094
 21
6449.0353509999959
 31
0.0
  0
LINE
  5
FB79
  8
0-5
  6
CONTINUOUS
 62
     4
 10
13323.82014147094
 20
6449.0353509999959
 30
0.0
 11
13443.818558470941
 21
6241.1883740000021
 31
0.0
  0
LINE
  5
FB7A
  8
0-5
  6
CONTINUOUS
 62
     4
 10
13563.81895447094
 20
6449.0353509999959
 30
0.0
 11
13323.82014147094
 21
6449.0353509999959
 31
0.0
  0
LINE
  5
FB7B
  8
0-5
  6
CONTINUOUS
 62
     4
 10
11818.73086547094
 20
6241.1883740000021
 30
0.0
 11
13536.19675147093
 21
6241.1883740000021
 31
0.0
  0
LINE
  5
FB7C
  8
0-5
  6
CONTINUOUS
 62
     4
 10
11818.73086547094
 20
6141.1885390000007
 30
0.0
 11
19643.509169585159
 21
6141.1885390000007
 31
0.0
  0
LINE
  5
FB7D
  8
0-5
  6
CONTINUOUS
 62
     4
 10
17671.635488585162
 20
6141.1885390000007
 30
0.0
 11
17791.635884585161
 21
6349.0350210000024
 31
0.0
  0
LINE
  5
FB7E
  8
0-5
  6
CONTINUOUS
 62
     4
 10
17791.635884585161
 20
6349.0350210000024
 30
0.0
 11
17551.63707258517
 21
6349.0350210000024
 31
0.0
  0
LINE
  5
FB7F
  8
0-5
  6
CONTINUOUS
 62
     4
 10
19773.510092585158
 20
4461.1889349999938
 30
0.0
 11
19773.510092585158
 21
4301.1893970000001
 31
0.0
  0
LINE
  5
FB80
  8
0-5
  6
CONTINUOUS
 62
     4
 10
11683.733570470929
 20
4461.1889349999938
 30
0.0
 11
11683.733570470929
 21
4301.1893970000001
 31
0.0
  0
LINE
  5
FB81
  8
0-5
  6
CONTINUOUS
 62
     4
 10
9116.2335704709403
 20
4461.1889349999938
 30
0.0
 11
9116.2335704709403
 21
4301.1893970000001
 31
0.0
  0
LINE
  5
FB82
  8
0-5
  6
CONTINUOUS
 62
     4
 10
6548.7335704709412
 20
4461.1889349999938
 30
0.0
 11
6548.7335704709412
 21
4301.1893970000001
 31
0.0
  0
LINE
  5
FB83
  8
2-0
  6
CENTER2
 62
     6
 10
22691.510092585158
 20
5878.536116000002
 30
0.0
 11
22691.510092585158
 21
6915.6791430000003
 31
0.0
  0
LINE
  5
FB84
  8
2-0
  6
CENTER2
 62
     6
 10
19773.510092585158
 20
5878.536116000002
 30
0.0
 11
19773.510092585158
 21
6915.6791430000003
 31
0.0
  0
LINE
  5
FB85
  8
2-0
  6
CENTER2
 62
     6
 10
11683.733570470929
 20
5878.536116000002
 30
0.0
 11
11683.733570470929
 21
6935.6787139999988
 31
0.0
  0
LINE
  5
FB86
  8
2-0
  6
CENTER2
 62
     6
 10
9116.2335704709403
 20
5878.536116000002
 30
0.0
 11
9116.2335704709403
 21
6935.6787139999988
 31
0.0
  0
LINE
  5
FB87
  8
2-0
  6
CENTER2
 62
     6
 10
6548.7335704709412
 20
5878.536116000002
 30
0.0
 11
6548.7335704709412
 21
6935.6787139999988
 31
0.0
  0
ARC
  5
FB88
  8
0-1
  6
CONTINUOUS
 62
     3
 10
19842.009353585181
 20
8372.1892910000006
 30
0.0
 40
5.0
 50
90.0
 51
180.0
  0
ARC
  5
FB89
  8
0-1
  6
CONTINUOUS
 62
     3
 10
19842.009353585181
 20
8340.1888889999937
 30
0.0
 40
5.0
 50
180.0
 51
269.9999850001808
  0
ARC
  5
FB8A
  8
0-1
  6
CONTINUOUS
 62
     3
 10
20119.438883585171
 20
8340.1888889999937
 30
0.0
 40
5.0
 50
269.9999850001808
 51
314.9999850002792
  0
ARC
  5
FB8B
  8
0-1
  6
CONTINUOUS
 62
     3
 10
20151.435821585172
 20
8372.1892910000006
 30
0.0
 40
5.0
 50
314.9999850002792
 51
90.0
  0
ARC
  5
FB8C
  8
0-1
  6
CONTINUOUS
 62
     3
 10
22623.008852585161
 20
8340.1888889999937
 30
0.0
 40
5.0
 50
269.9999850001808
 51
0.0
  0
ARC
  5
FB8D
  8
0-1
  6
CONTINUOUS
 62
     3
 10
22623.008852585161
 20
8372.1892910000006
 30
0.0
 40
5.0
 50
0.0
 51
90.0
  0
ARC
  5
FB8E
  8
0-1
  6
CONTINUOUS
 62
     3
 10
22313.582384585159
 20
8372.1892910000006
 30
0.0
 40
5.0
 50
90.0
 51
224.9999849999752
  0
ARC
  5
FB8F
  8
0-1
  6
CONTINUOUS
 62
     3
 10
22345.57932358516
 20
8340.1888889999937
 30
0.0
 40
5.0
 50
224.9999849999752
 51
269.9999850001808
  0
ARC
  5
FB90
  8
0-1
  6
CONTINUOUS
 62
     3
 10
11811.17299747094
 20
8523.680191999998
 30
0.0
 40
24.999998999999999
 50
271.71998600002598
 51
91.719986000025997
  0
ARC
  5
FB91
  8
0-1
  6
CONTINUOUS
 62
     3
 10
6330.3421934709459
 20
8356.1505650000017
 30
0.0
 40
3.0
 50
181.71998600001371
 51
271.71998600002598
  0
ARC
  5
FB92
  8
0-1
  6
CONTINUOUS
 62
     3
 10
6331.3794614709477
 20
8388.1955070000022
 30
0.0
 40
5.0
 50
91.719986000025997
 51
181.71998600001371
  0
ARC
  5
FB93
  8
0-1
  6
CONTINUOUS
 62
     3
 10
11806.17570347093
 20
8523.5297490000066
 30
0.0
 40
69.999999000000003
 50
293.50677499978701
 51
69.933196999905391
  0
ARC
  5
FB94
  8
0-1
  6
CONTINUOUS
 62
     3
 10
6334.9831744709518
 20
8268.2500430000073
 30
0.0
 40
5.0
 50
181.71998600001371
 51
271.71998600002598
  0
ARC
  5
FB95
  8
0-1
  6
CONTINUOUS
 62
     3
 10
6332.0218154709437
 20
8300.1752229999984
 30
0.0
 40
3.0
 50
91.719986000025997
 51
181.71998600001371
  0
ARC
  5
FB96
  8
0-1
  6
CONTINUOUS
 62
     3
 10
6332.0059784709447
 20
8350.697981000003
 30
0.0
 40
2.5
 50
271.71998600002598
 51
91.719986000025997
  0
ARC
  5
FB97
  8
0-1
  6
CONTINUOUS
 62
     3
 10
6333.3560104709459
 20
8305.7178750000003
 30
0.0
 40
2.5
 50
271.71998600002598
 51
91.719986000025997
  0
ARC
  5
FB98
  8
0-1
  6
CONTINUOUS
 62
     3
 10
6330.6717834709416
 20
8345.1553289999974
 30
0.0
 40
3.0
 50
91.719986000025997
 51
181.71998600001371
  0
ARC
  5
FB99
  8
0-1
  6
CONTINUOUS
 62
     3
 10
11811.17299747094
 20
8523.680191999998
 30
0.0
 40
20.0
 50
271.71998600002598
 51
91.719986000025997
  0
ARC
  5
FB9A
  8
0-1
  6
CONTINUOUS
 62
     3
 10
6331.6922254709416
 20
8311.1699640000006
 30
0.0
 40
3.0
 50
181.71998600001371
 51
271.71998600002598
  0
CIRCLE
  5
FB9B
  8
0-5
  6
CONTINUOUS
 62
     4
 10
22691.510092585158
 20
4101.1882420000011
 30
0.0
 40
199.9999949999999
  0
CIRCLE
  5
FB9C
  8
0-5
  6
CONTINUOUS
 62
     4
 10
9116.2335704709403
 20
4101.1882420000011
 30
0.0
 40
199.9999949999999
  0
CIRCLE
  5
FB9D
  8
0-5
  6
CONTINUOUS
 62
     4
 10
11683.733570470929
 20
4101.1882420000011
 30
0.0
 40
199.9999949999999
  0
CIRCLE
  5
FB9E
  8
0-5
  6
CONTINUOUS
 62
     4
 10
19773.510092585158
 20
4101.1882420000011
 30
0.0
 40
199.9999949999999
  0
CIRCLE
  5
FB9F
  8
0-5
  6
CONTINUOUS
 62
     4
 10
6548.7335704709412
 20
4101.1882420000011
 30
0.0
 40
199.9999949999999
  0
TEXT
  5
FBA0
  8
0-5
  6
CONTINUOUS
 62
     7
 10
22639.597217585149
 20
4011.7132600000009
 30
0.0
 40
160.0
  1
2
 72
     4
 11
22692.930550918481
 21
4091.7132600000009
 31
0.0
  0
TEXT
  5
FBA1
  8
0-5
  6
CONTINUOUS
 62
     7
 10
19163.509565585169
 20
6988.0104361594431
 30
0.0
 40
160.0
  1
(2131.5)
 50
90.0
 72
     4
 11
19083.509565585169
 21
7441.3437694927761
 31
0.0
  0
TEXT
  5
FBA2
  8
0-5
  6
CONTINUOUS
 62
     7
 10
12984.726629470941
 20
6529.0346249999966
 30
0.0
 40
160.0
  1
布基礎天端
 72
     4
 11
13443.39329613761
 21
6609.0346249999984
 31
0.0
  0
TEXT
  5
FBA3
  8
0-5
  6
CONTINUOUS
 62
     7
 10
17551.63707258517
 20
6429.0347900000024
 30
0.0
 40
160.0
  1
G.L
 72
     4
 11
17711.63707258517
 21
6509.0347900000043
 31
0.0
  0
TEXT
  5
FBA4
  8
0-5
  6
CONTINUOUS
 62
     7
 10
19721.597218585161
 20
4011.7132600000009
 30
0.0
 40
160.0
  1
1
 72
     4
 11
19748.263885251828
 21
4091.7132600000009
 31
0.0
  0
TEXT
  5
FBA5
  8
0-5
  6
CONTINUOUS
 62
     7
 10
11636.777410470941
 20
4017.9774460000021
 30
0.0
 40
160.0
  1
A
 72
     4
 11
11690.11074380428
 21
4097.9774460000026
 31
0.0
  0
TEXT
  5
FBA6
  8
0-5
  6
CONTINUOUS
 62
     7
 10
9069.2774104709424
 20
4017.9774460000021
 30
0.0
 40
160.0
  1
B
 72
     4
 11
9122.6107438042745
 21
4097.9774460000026
 31
0.0
  0
TEXT
  5
FBA7
  8
0-5
  6
CONTINUOUS
 62
     7
 10
6501.7774104709488
 20
4017.9774460000021
 30
0.0
 40
160.0
  1
C
 72
     4
 11
6555.1107438042818
 21
4097.9774460000026
 31
0.0
  0
CIRCLE
  5
FBA8
  8
0-4
  6
CONTINUOUS
 62
     4
 10
21232.508113085161
 20
6627.2449749999987
 30
0.0
 40
18.487504999999981
  0
LINE
  5
FBA9
  8
1-前柱カバ-P
 10
27649.01009258518
 20
8459.6884660000014
 30
0.0
 11
27649.01009258518
 21
6141.1885390000007
 31
0.0
  0
LINE
  5
FBAA
  8
1-前柱カバ-P
 10
27734.010092585158
 20
8589.6883999999973
 30
0.0
 11
27734.010092585158
 21
6141.1885390000007
 31
0.0
  0
LINE
  5
FBAB
  8
0-1
  6
CONTINUOUS
 62
     3
 10
27777.010092585158
 20
8459.6884660000087
 30
0.0
 11
22649.00982858516
 21
8459.6884660000014
 31
0.0
  0
LINE
  5
FBAC
  8
0-1
  6
CONTINUOUS
 62
     3
 10
22714.01128058515
 20
8589.6883999999973
 30
0.0
 11
27777.010092585158
 21
8589.6883999999973
 31
0.0
  0
LINE
  5
FBAD
  8
0-1
  6
CONTINUOUS
 62
     3
 10
27777.010092585158
 20
8264.0026620000026
 30
0.0
 11
27777.010092585158
 21
8589.6883999999973
 31
0.0
  0
LINE
  5
FBAE
  8
0-1
  6
CONTINUOUS
 62
     3
 10
27777.010092585158
 20
8264.0026620000026
 30
0.0
 11
27734.010092585158
 21
8264.0026620000026
 31
0.0
  0
LINE
  5
FBAF
  8
2-0
  6
CENTER2
 62
     6
 10
27691.510092585158
 20
5878.536116000002
 30
0.0
 11
27691.510092585158
 21
6915.6791430000003
 31
0.0
  0
LINE
  5
FBB0
  8
1-桁前P28
 10
27649.01009258518
 20
8262.0026620000026
 30
0.0
 11
22734.010092585158
 21
8262.0026620000026
 31
0.0
  0
LINE
  5
FBB1
  8
0-5
  6
CONTINUOUS
 62
     4
 10
27691.510092585158
 20
4461.1889349999938
 30
0.0
 11
27691.510092585158
 21
4301.1893970000001
 31
0.0
  0
CIRCLE
  5
FBB2
  8
0-5
  6
CONTINUOUS
 62
     4
 10
27691.510092585158
 20
4101.1882420000011
 30
0.0
 40
199.9999949999999
  0
TEXT
  5
FBB3
  8
0-5
  6
CONTINUOUS
 62
     7
 10
27639.597217585178
 20
4011.7132600000009
 30
0.0
 40
160.0
  1
3
 72
     4
 11
27692.930550918511
 21
4091.7132600000009
 31
0.0
  0
TEXT
  5
FBB4
  8
0-5
  6
CONTINUOUS
 62
     7
 10
29183.835262879558
 20
7224.043572309487
 30
0.0
 40
160.0
  1
(2260)
 50
90.0
 72
     4
 11
29103.835262879558
 21
7610.7102389761549
 31
0.0
  0
LINE
  5
FBB5
  8
SUNPOU
  6
CONTINUOUS
 10
6326.2335704709403
 20
9389.1900500000029
 30
0.0
 11
5821.445700577533
 21
9389.1900500000029
 31
0.0
  0
LINE
  5
FD00
  8
2-0
  6
CENTER2
 62
     6
 10
17752.011030585141
 20
19317.986251999992
 30
0.0
 11
18472.00971058516
 21
19317.986251999992
 31
0.0
  0
LINE
  5
FD01
  8
2-0
  6
CENTER2
 62
     6
 10
18632.00971058516
 20
19317.986251999992
 30
0.0
 11
28017.116789537082
 21
19317.986251999992
 31
0.0
  0
LINE
  5
FD02
  8
2-0
  6
CENTER2
 62
     6
 10
17752.01103058513
 20
16750.486251999992
 30
0.0
 11
18007.331569897779
 21
16750.486251999992
 31
0.0
  0
LINE
  5
FD03
  8
2-0
  6
CENTER2
 62
     6
 10
18632.009710585138
 20
16750.486251999992
 30
0.0
 11
28017.116789537082
 21
16750.486251999992
 31
0.0
  0
LINE
  5
FD04
  8
2-0
  6
CENTER2
 62
     6
 10
17752.011030585141
 20
14182.986252000001
 30
0.0
 11
18472.00971058516
 21
14182.986252000001
 31
0.0
  0
LINE
  5
FD05
  8
2-0
  6
CENTER2
 62
     6
 10
18632.00971058516
 20
14182.986252000001
 30
0.0
 11
28017.116789537082
 21
14182.986252000001
 31
0.0
  0
CIRCLE
  5
FD06
  8
0-5
  6
CONTINUOUS
 62
     4
 10
22712.511953585141
 20
21160.487175999999
 30
0.0
 40
199.9999949999999
  0
CIRCLE
  5
FD07
  8
0-5
  6
CONTINUOUS
 62
     4
 10
17552.010370585162
 20
19317.986251999992
 30
0.0
 40
199.9999949999999
  0
CIRCLE
  5
FD08
  8
0-5
  6
CONTINUOUS
 62
     4
 10
17552.010370585151
 20
16750.486251999992
 30
0.0
 40
199.9999949999999
  0
CIRCLE
  5
FD09
  8
0-5
  6
CONTINUOUS
 62
     4
 10
17552.010370585162
 20
14182.986252000001
 30
0.0
 40
199.9999949999999
  0
CIRCLE
  5
FD0A
  8
0-5
  6
CONTINUOUS
 62
     4
 10
19794.511953585141
 20
21160.487175999999
 30
0.0
 40
199.9999949999999
  0
TEXT
  5
FD0B
  8
0-5
  6
CONTINUOUS
 62
     7
 10
22657.841609585139
 20
21074.261326000011
 30
0.0
 40
160.0
  1
2
 72
     4
 11
22711.174942918471
 21
21154.261326000011
 31
0.0
  0
TEXT
  5
FD0C
  8
0-5
  6
CONTINUOUS
 62
     7
 10
19739.841609585139
 20
21074.261326000011
 30
0.0
 40
160.0
  1
1
 72
     4
 11
19766.50827625181
 21
21154.261326000011
 31
0.0
  0
TEXT
  5
FD0D
  8
0-5
  6
CONTINUOUS
 62
     7
 10
17503.33400858516
 20
19226.368192999991
 30
0.0
 40
160.0
  1
C
 72
     4
 11
17556.667341918492
 21
19306.368192999991
 31
0.0
  0
TEXT
  5
FD0E
  8
0-5
  6
CONTINUOUS
 62
     7
 10
17503.33400858516
 20
16658.868193999999
 30
0.0
 40
160.0
  1
B
 72
     4
 11
17556.667341918492
 21
16738.868193999999
 31
0.0
  0
TEXT
  5
FD0F
  8
0-5
  6
CONTINUOUS
 62
     7
 10
17503.33400858516
 20
14091.368193
 30
0.0
 40
160.0
  1
A
 72
     4
 11
17556.667341918492
 21
14171.368193
 31
0.0
  0
LINE
  5
FD10
  8
2-0
  6
CENTER2
 62
     6
 10
27712.511953585141
 20
20960.488495000009
 30
0.0
 11
27712.511953585141
 21
13825.23237353158
 31
0.0
  0
CIRCLE
  5
FD11
  8
0-5
  6
CONTINUOUS
 62
     4
 10
27712.511953585141
 20
21160.487175999999
 30
0.0
 40
199.9999949999999
  0
TEXT
  5
FD12
  8
0-5
  6
CONTINUOUS
 62
     7
 10
27657.841609585139
 20
21074.261326000011
 30
0.0
 40
160.0
  1
3
 72
     4
 11
27711.174942918471
 21
21154.261326000011
 31
0.0
  0
ARC
  5
FD13
  8
1-後柱P
  6
HIDE-M
 62
     6
 10
27716.11195358515
 20
19249.936251999989
 30
0.0
 40
2.6000000000000001
 50
180.0
 51
270.0
  0
LINE
  5
FD14
  8
1-後柱P
  6
HIDE-M
 62
     6
 10
27704.511953585141
 20
19247.8868618468
 30
0.0
 11
27704.511953585141
 21
19251.536252000002
 31
0.0
  0
LINE
  5
FD15
  8
1-後柱P
  6
HIDE-M
 62
     6
 10
27714.511953585141
 20
19247.8868618468
 30
0.0
 11
27714.511953585141
 21
19251.536252000002
 31
0.0
  0
LINE
  5
FD16
  8
1-後柱P
  6
1PL-M
 62
     6
 10
27709.511953585141
 20
19242.336252000008
 30
0.0
 11
27709.511953585141
 21
19256.536252000002
 31
0.0
  0
ARC
  5
FD17
  8
1-後柱P
  6
HIDE-M
 62
     6
 10
27702.911953585139
 20
19249.936251999989
 30
0.0
 40
2.6000000000000001
 50
270.0
 51
0.0
  0
LINE
  5
FD18
  8
1-後柱P
  6
HIDE-M
 62
     6
 10
27713.511953585141
 20
19249.936251999989
 30
0.0
 11
27713.511953585141
 21
19251.536252000002
 31
0.0
  0
LINE
  5
FD19
  8
1-後柱P
  6
HIDE-M
 62
     6
 10
27705.511953585141
 20
19249.936251999989
 30
0.0
 11
27705.511953585141
 21
19251.536252000002
 31
0.0
  0
LINE
  5
FD1A
  8
1-後柱P
 10
27723.41195358515
 20
19362.236251999999
 30
0.0
 11
27701.61195358515
 21
19362.236251999999
 31
0.0
  0
LINE
  5
FD1B
  8
1-後柱P
 10
27671.61195358515
 20
19324.936252
 30
0.0
 11
27671.61195358515
 21
19332.236251999992
 31
0.0
  0
ARC
  5
FD1C
  8
1-後柱P
 10
27701.61195358515
 20
19332.236251999992
 30
0.0
 40
30.0
 50
90.0
 51
180.0
  0
ARC
  5
FD1D
  8
1-後柱P
 10
27701.61195358515
 20
19332.236251999992
 30
0.0
 40
31.600000000000001
 50
90.0
 51
180.0
  0
LINE
  5
FD1E
  8
1-後柱P
 10
27723.41195358515
 20
19363.836252000001
 30
0.0
 11
27701.61195358515
 21
19363.836252000001
 31
0.0
  0
LINE
  5
FD1F
  8
1-後柱P
 10
27670.011953585141
 20
19324.936252
 30
0.0
 11
27670.011953585141
 21
19332.236251999992
 31
0.0
  0
LINE
  5
FD20
  8
1-後柱P
 10
27693.011953585141
 20
19303.336252000008
 30
0.0
 11
27693.011953585141
 21
19313.336252000001
 31
0.0
  0
LINE
  5
FD21
  8
1-後柱P
 10
27694.61195358515
 20
19313.336252000001
 30
0.0
 11
27694.61195358515
 21
19303.336252000008
 31
0.0
  0
LINE
  5
FD22
  8
1-後柱P
 10
27753.41195358515
 20
19324.936252
 30
0.0
 11
27753.41195358515
 21
19332.236251999992
 31
0.0
  0
ARC
  5
FD23
  8
1-後柱P
 10
27723.41195358515
 20
19332.236251999992
 30
0.0
 40
30.0
 50
0.0
 51
90.0
  0
ARC
  5
FD24
  8
1-後柱P
 10
27723.41195358515
 20
19332.236251999992
 30
0.0
 40
31.600000000000001
 50
0.0
 51
90.0
  0
LINE
  5
FD25
  8
1-後柱P
 10
27755.011953585141
 20
19324.936252
 30
0.0
 11
27755.011953585141
 21
19332.236251999992
 31
0.0
  0
LINE
  5
FD26
  8
1-後柱P
 10
27748.41195358515
 20
19318.336252000008
 30
0.0
 11
27737.011953585141
 21
19318.336252000008
 31
0.0
  0
ARC
  5
FD27
  8
1-後柱P
 10
27748.41195358515
 20
19324.936252
 30
0.0
 40
6.599999999999997
 50
270.0
 51
0.0
  0
ARC
  5
FD28
  8
1-後柱P
 10
27737.011953585141
 20
19313.336252000001
 30
0.0
 40
5.0
 50
90.0
 51
180.0
  0
LINE
  5
FD29
  8
1-後柱P
 10
27748.41195358515
 20
19319.936252
 30
0.0
 11
27737.011953585141
 21
19319.936252
 31
0.0
  0
ARC
  5
FD2A
  8
1-後柱P
 10
27748.41195358515
 20
19324.936252
 30
0.0
 40
5.0
 50
270.0
 51
0.0
  0
LINE
  5
FD2B
  8
1-後柱P
 10
27732.011953585141
 20
19313.336252000001
 30
0.0
 11
27732.011953585141
 21
19253.936252
 31
0.0
  0
LINE
  5
FD2C
  8
1-後柱P
 10
27730.41195358515
 20
19313.336252000001
 30
0.0
 11
27730.41195358515
 21
19253.936252
 31
0.0
  0
ARC
  5
FD2D
  8
1-後柱P
 10
27737.011953585141
 20
19313.336252000001
 30
0.0
 40
6.599999999999997
 50
90.0
 51
180.0
  0
LINE
  5
FD2E
  8
1-後柱P
 10
27725.41195358515
 20
19247.336252000001
 30
0.0
 11
27692.011953585141
 21
19247.336252000001
 31
0.0
  0
ARC
  5
FD2F
  8
1-後柱P
 10
27725.41195358515
 20
19253.936252
 30
0.0
 40
6.599999999999997
 50
270.0
 51
0.0
  0
LINE
  5
FD30
  8
1-後柱P
 10
27725.41195358515
 20
19248.936252
 30
0.0
 11
27692.011953585141
 21
19248.936252
 31
0.0
  0
ARC
  5
FD31
  8
1-後柱P
 10
27725.41195358515
 20
19253.936252
 30
0.0
 40
5.0
 50
270.0
 51
0.0
  0
LINE
  5
FD32
  8
1-後柱P
 10
27692.011953585141
 20
19248.936252
 30
0.0
 11
27692.011953585141
 21
19247.336252000001
 31
0.0
  0
LINE
  5
FD33
  8
1-後柱P
 10
27676.61195358515
 20
19318.336252000008
 30
0.0
 11
27688.011953585141
 21
19318.336252000008
 31
0.0
  0
ARC
  5
FD34
  8
1-後柱P
 10
27676.61195358515
 20
19324.936252
 30
0.0
 40
6.599999999999997
 50
180.0
 51
270.0
  0
ARC
  5
FD35
  8
1-後柱P
 10
27688.011953585141
 20
19313.336252000001
 30
0.0
 40
5.0
 50
0.0
 51
90.0
  0
LINE
  5
FD36
  8
1-後柱P
 10
27688.011953585141
 20
19319.936252
 30
0.0
 11
27676.61195358515
 21
19319.936252
 31
0.0
  0
ARC
  5
FD37
  8
1-後柱P
 10
27688.011953585141
 20
19313.336252000001
 30
0.0
 40
6.599999999999997
 50
0.0
 51
90.0
  0
ARC
  5
FD38
  8
1-後柱P
 10
27676.61195358515
 20
19324.936252
 30
0.0
 40
5.0
 50
180.0
 51
270.0
  0
LINE
  5
FD39
  8
1-後柱P
 10
27693.011953585141
 20
19303.336252000008
 30
0.0
 11
27694.61195358515
 21
19303.336252000008
 31
0.0
  0
LINE
  5
FD3A
  8
1-後柱カバ-P
 10
27670.011953585141
 20
19311.636252
 30
0.0
 11
27670.011953585141
 21
19252.336252000001
 31
0.0
  0
ARC
  5
FD3B
  8
1-後柱カバ-P
 10
27676.61195358515
 20
19252.336252000001
 30
0.0
 40
6.599999999999997
 50
180.0
 51
270.0
  0
LINE
  5
FD3C
  8
1-後柱カバ-P
 10
27671.61195358515
 20
19311.636252
 30
0.0
 11
27671.61195358515
 21
19252.336252000001
 31
0.0
  0
ARC
  5
FD3D
  8
1-後柱カバ-P
 10
27676.61195358515
 20
19311.636252
 30
0.0
 40
5.0
 50
90.0
 51
180.0
  0
LINE
  5
FD3E
  8
1-後柱カバ-P
 10
27676.61195358515
 20
19245.736251999992
 30
0.0
 11
27748.41195358515
 21
19245.736251999992
 31
0.0
  0
ARC
  5
FD3F
  8
1-後柱カバ-P
 10
27748.41195358515
 20
19252.336252000001
 30
0.0
 40
6.599999999999997
 50
270.0
 51
0.0
  0
LINE
  5
FD40
  8
1-後柱カバ-P
 10
27676.61195358515
 20
19247.336252000001
 30
0.0
 11
27748.41195358515
 21
19247.336252000001
 31
0.0
  0
ARC
  5
FD41
  8
1-後柱カバ-P
 10
27748.41195358515
 20
19252.336252000001
 30
0.0
 40
5.0
 50
270.0
 51
0.0
  0
ARC
  5
FD42
  8
1-後柱カバ-P
 10
27676.61195358515
 20
19252.336252000001
 30
0.0
 40
5.0
 50
180.0
 51
270.0
  0
LINE
  5
FD43
  8
1-後柱カバ-P
 10
27755.011953585141
 20
19252.336252000001
 30
0.0
 11
27755.011953585141
 21
19311.636252
 31
0.0
  0
LINE
  5
FD44
  8
1-後柱カバ-P
 10
27753.41195358515
 20
19252.336252000001
 30
0.0
 11
27753.41195358515
 21
19311.636252
 31
0.0
  0
ARC
  5
FD45
  8
1-後柱カバ-P
 10
27748.41195358515
 20
19311.636252
 30
0.0
 40
5.0
 50
0.0
 51
90.0
  0
LINE
  5
FD46
  8
1-後柱カバ-P
  6
1PL-M
 62
     6
 10
27712.511953585141
 20
19253.236251999992
 30
0.0
 11
27712.511953585141
 21
19240.236251999999
 31
0.0
  0
LINE
  5
FD47
  8
1-後柱カバ-P
  6
HIDE-M
 62
     6
 10
27705.511953585141
 20
19245.736251999992
 30
0.0
 11
27705.511953585141
 21
19247.336252000001
 31
0.0
  0
LINE
  5
FD48
  8
1-後柱カバ-P
  6
HIDE-M
 62
     6
 10
27719.511953585141
 20
19245.736251999992
 30
0.0
 11
27719.511953585141
 21
19247.336252000001
 31
0.0
  0
ARC
  5
FD49
  8
1-後柱カバ-P
 10
27676.61195358515
 20
19311.636252
 30
0.0
 40
6.599999999999997
 50
90.0
 51
180.0
  0
ARC
  5
FD4A
  8
1-後柱カバ-P
 10
27748.41195358515
 20
19311.636252
 30
0.0
 40
6.599999999999997
 50
0.0
 51
90.0
  0
LINE
  5
FD4B
  8
1-後柱カバ-P
 10
27740.011953585141
 20
19318.236251999999
 30
0.0
 11
27748.41195358515
 21
19318.236251999999
 31
0.0
  0
LINE
  5
FD4C
  8
1-後柱カバ-P
 10
27685.011953585141
 20
19318.236251999999
 30
0.0
 11
27676.61195358515
 21
19318.236251999999
 31
0.0
  0
LINE
  5
FD4D
  8
1-後柱カバ-P
 10
27740.011953585141
 20
19316.636252
 30
0.0
 11
27748.41195358515
 21
19316.636252
 31
0.0
  0
LINE
  5
FD4E
  8
1-後柱カバ-P
 10
27685.011953585141
 20
19316.636252
 30
0.0
 11
27676.61195358515
 21
19316.636252
 31
0.0
  0
LINE
  5
FD4F
  8
1-後柱カバ-P
 10
27685.011953585141
 20
19316.636252
 30
0.0
 11
27685.011953585141
 21
19318.236251999999
 31
0.0
  0
LINE
  5
FD50
  8
1-後柱カバ-P
 10
27740.011953585141
 20
19318.236251999999
 30
0.0
 11
27740.011953585141
 21
19316.636252
 31
0.0
  0
LINE
  5
FD51
  8
1-後柱カバ-P
  6
HIDE-M
 62
     6
 10
27743.91195358515
 20
19297.236251999999
 30
0.0
 11
27755.511953585141
 21
19297.236251999999
 31
0.0
  0
LINE
  5
FD52
  8
1-後柱カバ-P
  6
HIDE-M
 62
     6
 10
27743.91195358515
 20
19289.236251999992
 30
0.0
 11
27755.511953585141
 21
19289.236251999992
 31
0.0
  0
LINE
  5
FD53
  8
1-後柱カバ-P
  6
HIDE-M
 62
     6
 10
27743.91195358515
 20
19296.236251999992
 30
0.0
 11
27755.511953585141
 21
19296.236251999992
 31
0.0
  0
LINE
  5
FD54
  8
1-後柱カバ-P
  6
HIDE-M
 62
     6
 10
27743.91195358515
 20
19290.236251999992
 30
0.0
 11
27755.511953585141
 21
19290.236251999992
 31
0.0
  0
LINE
  5
FD55
  8
1-後柱カバ-P
 10
27744.911953585139
 20
19287.736251999999
 30
0.0
 11
27751.91195358515
 21
19287.736251999999
 31
0.0
  0
LINE
  5
FD56
  8
1-後柱カバ-P
 10
27751.91195358515
 20
19298.736251999992
 30
0.0
 11
27744.911953585139
 21
19298.736251999992
 31
0.0
  0
LINE
  5
FD57
  8
1-後柱カバ-P
 10
27751.91195358515
 20
19299.486251999992
 30
0.0
 11
27751.91195358515
 21
19286.986251999999
 31
0.0
  0
LINE
  5
FD58
  8
1-後柱カバ-P
 10
27755.511953585141
 20
19299.236251999999
 30
0.0
 11
27755.511953585141
 21
19287.236251999992
 31
0.0
  0
LINE
  5
FD59
  8
1-後柱カバ-P
  6
HIDE-M
 62
     6
 10
27753.41195358515
 20
19287.736251999999
 30
0.0
 11
27755.011953585141
 21
19287.736251999999
 31
0.0
  0
LINE
  5
FD5A
  8
1-後柱カバ-P
 10
27755.511953585141
 20
19287.236251999992
 30
0.0
 11
27755.011953585141
 21
19287.736251999999
 31
0.0
  0
ARC
  5
FD5B
  8
1-後柱カバ-P
 10
27752.661953585139
 20
19286.986251999999
 30
0.0
 40
0.75
 50
180.0
 51
0.0
  0
LINE
  5
FD5C
  8
1-後柱カバ-P
  6
HIDE-M
 62
     6
 10
27755.011953585141
 20
19298.736251999992
 30
0.0
 11
27753.41195358515
 21
19298.736251999992
 31
0.0
  0
LINE
  5
FD5D
  8
1-後柱カバ-P
 10
27755.511953585141
 20
19299.236251999999
 30
0.0
 11
27755.011953585141
 21
19298.736251999992
 31
0.0
  0
ARC
  5
FD5E
  8
1-後柱カバ-P
 10
27752.661953585139
 20
19299.486251999992
 30
0.0
 40
0.75
 50
0.0
 51
180.0
  0
LINE
  5
FD5F
  8
1-後柱カバ-P
 10
27743.91195358515
 20
19297.736251999992
 30
0.0
 11
27743.91195358515
 21
19288.736251999992
 31
0.0
  0
ARC
  5
FD60
  8
1-後柱カバ-P
 10
27744.911953585139
 20
19288.736251999992
 30
0.0
 40
1.0
 50
180.0
 51
270.0
  0
ARC
  5
FD61
  8
1-後柱カバ-P
 10
27744.911953585139
 20
19297.736251999992
 30
0.0
 40
1.0
 50
90.0
 51
180.0
  0
LINE
  5
FD62
  8
1-後柱カバ-P
  6
1PL-M
 62
     6
 10
27738.91195358515
 20
19293.236251999992
 30
0.0
 11
27760.511953585141
 21
19293.236251999992
 31
0.0
  0
LINE
  5
FD63
  8
1-後柱カバ-P
 10
27744.911953585139
 20
19277.736251999999
 30
0.0
 11
27751.91195358515
 21
19277.736251999999
 31
0.0
  0
LINE
  5
FD64
  8
1-後柱カバ-P
 10
27755.511953585141
 20
19285.236251999999
 30
0.0
 11
27755.511953585141
 21
19277.236251999999
 31
0.0
  0
LINE
  5
FD65
  8
1-後柱カバ-P
  6
HIDE-M
 62
     6
 10
27753.41195358515
 20
19277.736251999999
 30
0.0
 11
27755.011953585141
 21
19277.736251999999
 31
0.0
  0
LINE
  5
FD66
  8
1-後柱カバ-P
 10
27755.511953585141
 20
19277.236251999999
 30
0.0
 11
27755.011953585141
 21
19277.736251999999
 31
0.0
  0
ARC
  5
FD67
  8
1-後柱カバ-P
 10
27752.661953585139
 20
19276.986251999992
 30
0.0
 40
0.75
 50
180.0
 51
0.0
  0
LINE
  5
FD68
  8
1-後柱カバ-P
 10
27743.91195358515
 20
19286.736251999999
 30
0.0
 11
27743.91195358515
 21
19278.736251999992
 31
0.0
  0
ARC
  5
FD69
  8
1-後柱カバ-P
 10
27744.911953585139
 20
19278.736251999992
 30
0.0
 40
1.0
 50
180.0
 51
270.0
  0
LINE
  5
FD6A
  8
1-後柱カバ-P
  6
1PL-M
 62
     6
 10
27738.91195358515
 20
19283.236251999999
 30
0.0
 11
27760.511953585141
 21
19283.236251999999
 31
0.0
  0
LINE
  5
FD6B
  8
1-後柱カバ-P
 10
27751.91195358515
 20
19284.986251999992
 30
0.0
 11
27751.91195358515
 21
19276.986251999992
 31
0.0
  0
LINE
  5
FD6C
  8
1-後柱カバ-P
  6
HIDE-M
 62
     6
 10
27681.11195358515
 20
19297.236251999999
 30
0.0
 11
27669.511953585141
 21
19297.236251999999
 31
0.0
  0
LINE
  5
FD6D
  8
1-後柱カバ-P
  6
HIDE-M
 62
     6
 10
27681.11195358515
 20
19289.236251999992
 30
0.0
 11
27669.511953585141
 21
19289.236251999992
 31
0.0
  0
LINE
  5
FD6E
  8
1-後柱カバ-P
  6
HIDE-M
 62
     6
 10
27681.11195358515
 20
19296.236251999992
 30
0.0
 11
27669.511953585141
 21
19296.236251999992
 31
0.0
  0
LINE
  5
FD6F
  8
1-後柱カバ-P
  6
HIDE-M
 62
     6
 10
27681.11195358515
 20
19290.236251999992
 30
0.0
 11
27669.511953585141
 21
19290.236251999992
 31
0.0
  0
LINE
  5
FD70
  8
1-後柱カバ-P
 10
27680.11195358515
 20
19287.736251999999
 30
0.0
 11
27673.111953585139
 21
19287.736251999999
 31
0.0
  0
LINE
  5
FD71
  8
1-後柱カバ-P
 10
27673.111953585139
 20
19298.736251999992
 30
0.0
 11
27680.11195358515
 21
19298.736251999992
 31
0.0
  0
LINE
  5
FD72
  8
1-後柱カバ-P
 10
27673.111953585139
 20
19299.486251999992
 30
0.0
 11
27673.111953585139
 21
19286.986251999999
 31
0.0
  0
LINE
  5
FD73
  8
1-後柱カバ-P
 10
27669.511953585141
 20
19299.236251999999
 30
0.0
 11
27669.511953585141
 21
19287.236251999992
 31
0.0
  0
LINE
  5
FD74
  8
1-後柱カバ-P
  6
HIDE-M
 62
     6
 10
27671.61195358515
 20
19287.736251999999
 30
0.0
 11
27670.011953585141
 21
19287.736251999999
 31
0.0
  0
LINE
  5
FD75
  8
1-後柱カバ-P
 10
27669.511953585141
 20
19287.236251999992
 30
0.0
 11
27670.011953585141
 21
19287.736251999999
 31
0.0
  0
ARC
  5
FD76
  8
1-後柱カバ-P
 10
27672.36195358515
 20
19286.986251999999
 30
0.0
 40
0.75
 50
180.0
 51
0.0
  0
LINE
  5
FD77
  8
1-後柱カバ-P
  6
HIDE-M
 62
     6
 10
27670.011953585141
 20
19298.736251999992
 30
0.0
 11
27671.61195358515
 21
19298.736251999992
 31
0.0
  0
LINE
  5
FD78
  8
1-後柱カバ-P
 10
27669.511953585141
 20
19299.236251999999
 30
0.0
 11
27670.011953585141
 21
19298.736251999992
 31
0.0
  0
ARC
  5
FD79
  8
1-後柱カバ-P
 10
27672.36195358515
 20
19299.486251999992
 30
0.0
 40
0.75
 50
0.0
 51
180.0
  0
LINE
  5
FD7A
  8
1-後柱カバ-P
 10
27681.11195358515
 20
19297.736251999992
 30
0.0
 11
27681.11195358515
 21
19288.736251999992
 31
0.0
  0
ARC
  5
FD7B
  8
1-後柱カバ-P
 10
27680.11195358515
 20
19288.736251999992
 30
0.0
 40
1.0
 50
270.0
 51
0.0
  0
ARC
  5
FD7C
  8
1-後柱カバ-P
 10
27680.11195358515
 20
19297.736251999992
 30
0.0
 40
1.0
 50
0.0
 51
90.0
  0
LINE
  5
FD7D
  8
1-後柱カバ-P
  6
1PL-M
 62
     6
 10
27686.11195358515
 20
19293.236251999992
 30
0.0
 11
27664.511953585141
 21
19293.236251999992
 31
0.0
  0
LINE
  5
FD7E
  8
1-後柱カバ-P
 10
27680.11195358515
 20
19277.736251999999
 30
0.0
 11
27673.111953585139
 21
19277.736251999999
 31
0.0
  0
LINE
  5
FD7F
  8
1-後柱カバ-P
 10
27669.511953585141
 20
19285.236251999999
 30
0.0
 11
27669.511953585141
 21
19277.236251999999
 31
0.0
  0
LINE
  5
FD80
  8
1-後柱カバ-P
  6
HIDE-M
 62
     6
 10
27671.61195358515
 20
19277.736251999999
 30
0.0
 11
27670.011953585141
 21
19277.736251999999
 31
0.0
  0
LINE
  5
FD81
  8
1-後柱カバ-P
 10
27669.511953585141
 20
19277.236251999999
 30
0.0
 11
27670.011953585141
 21
19277.736251999999
 31
0.0
  0
ARC
  5
FD82
  8
1-後柱カバ-P
 10
27672.36195358515
 20
19276.986251999992
 30
0.0
 40
0.75
 50
180.0
 51
0.0
  0
LINE
  5
FD83
  8
1-後柱カバ-P
 10
27681.11195358515
 20
19286.736251999999
 30
0.0
 11
27681.11195358515
 21
19278.736251999992
 31
0.0
  0
ARC
  5
FD84
  8
1-後柱カバ-P
 10
27680.11195358515
 20
19278.736251999992
 30
0.0
 40
1.0
 50
270.0
 51
0.0
  0
LINE
  5
FD85
  8
1-後柱カバ-P
  6
1PL-M
 62
     6
 10
27686.11195358515
 20
19283.236251999999
 30
0.0
 11
27664.511953585141
 21
19283.236251999999
 31
0.0
  0
LINE
  5
FD86
  8
1-後柱カバ-P
 10
27673.111953585139
 20
19284.986251999992
 30
0.0
 11
27673.111953585139
 21
19276.986251999992
 31
0.0
  0
LINE
  5
FD87
  8
1-後柱カバ-P
  6
HIDE-M
 62
     6
 10
27743.91195358515
 20
19279.236251999999
 30
0.0
 11
27755.511953585141
 21
19279.236251999999
 31
0.0
  0
LINE
  5
FD88
  8
1-後柱カバ-P
  6
HIDE-M
 62
     6
 10
27743.91195358515
 20
19280.236251999992
 30
0.0
 11
27755.511953585141
 21
19280.236251999992
 31
0.0
  0
LINE
  5
FD89
  8
1-後柱カバ-P
  6
HIDE-M
 62
     6
 10
27681.11195358515
 20
19279.236251999999
 30
0.0
 11
27669.511953585141
 21
19279.236251999999
 31
0.0
  0
LINE
  5
FD8A
  8
1-後柱カバ-P
  6
HIDE-M
 62
     6
 10
27681.11195358515
 20
19280.236251999992
 30
0.0
 11
27669.511953585141
 21
19280.236251999992
 31
0.0
  0
LINE
  5
FD8B
  8
1-中柱P
 10
27748.411953585131
 20
16679.486251999999
 30
0.0
 11
27676.611953585121
 21
16679.486251999999
 31
0.0
  0
ARC
  5
FD8C
  8
1-中柱P
 10
27748.411953585131
 20
16684.486251999992
 30
0.0
 40
5.0
 50
270.0
 51
0.0
  0
ARC
  5
FD8D
  8
1-中柱P
 10
27676.611953585121
 20
16684.486251999992
 30
0.0
 40
5.0
 50
180.0
 51
270.0
  0
LINE
  5
FD8E
  8
1-中柱P
 10
27748.411953585131
 20
16677.886252000011
 30
0.0
 11
27676.611953585121
 21
16677.886252000011
 31
0.0
  0
ARC
  5
FD8F
  8
1-中柱P
 10
27748.411953585131
 20
16684.486251999992
 30
0.0
 40
6.599999999999997
 50
270.0
 51
0.0
  0
LINE
  5
FD90
  8
1-中柱P
 10
27670.011953585141
 20
16743.786252000002
 30
0.0
 11
27670.011953585141
 21
16684.486251999992
 31
0.0
  0
ARC
  5
FD91
  8
1-中柱P
 10
27676.611953585121
 20
16684.486251999992
 30
0.0
 40
6.599999999999997
 50
180.0
 51
270.0
  0
LINE
  5
FD92
  8
1-中柱P
 10
27671.611953585129
 20
16684.486251999992
 30
0.0
 11
27671.611953585129
 21
16743.786252000002
 31
0.0
  0
ARC
  5
FD93
  8
1-中柱P
 10
27676.611953585121
 20
16743.786252000002
 30
0.0
 40
5.0
 50
90.0
 51
180.0
  0
LINE
  5
FD94
  8
1-中柱P
 10
27755.011953585141
 20
16743.786252000002
 30
0.0
 11
27755.011953585141
 21
16684.486251999992
 31
0.0
  0
LINE
  5
FD95
  8
1-中柱P
 10
27753.411953585121
 20
16684.486251999992
 30
0.0
 11
27753.411953585121
 21
16743.786252000002
 31
0.0
  0
LINE
  5
FD96
  8
1-中柱P
 10
27748.411953585131
 20
16750.386252000011
 30
0.0
 11
27740.011953585141
 21
16750.386252000011
 31
0.0
  0
ARC
  5
FD97
  8
1-中柱P
 10
27748.411953585131
 20
16743.786252000002
 30
0.0
 40
6.599999999999997
 50
0.0
 51
90.0
  0
LINE
  5
FD98
  8
1-中柱P
 10
27748.411953585131
 20
16748.786252000002
 30
0.0
 11
27740.011953585141
 21
16748.786252000002
 31
0.0
  0
ARC
  5
FD99
  8
1-中柱P
 10
27740.011953585141
 20
16755.386252000011
 30
0.0
 40
6.599999999999997
 50
180.0
 51
270.0
  0
ARC
  5
FD9A
  8
1-中柱P
 10
27748.411953585131
 20
16743.786252000002
 30
0.0
 40
5.0
 50
0.0
 51
90.0
  0
LINE
  5
FD9B
  8
1-中柱P
 10
27735.011953585141
 20
16755.386252000011
 30
0.0
 11
27735.011953585141
 21
16814.786252000002
 31
0.0
  0
ARC
  5
FD9C
  8
1-中柱P
 10
27740.011953585141
 20
16755.386252000011
 30
0.0
 40
5.0
 50
180.0
 51
270.0
  0
LINE
  5
FD9D
  8
1-中柱P
 10
27733.411953585131
 20
16755.386252000011
 30
0.0
 11
27733.411953585131
 21
16814.786252000002
 31
0.0
  0
LINE
  5
FD9E
  8
1-中柱P
 10
27728.411953585131
 20
16821.386252000011
 30
0.0
 11
27695.011953585141
 21
16821.386252000011
 31
0.0
  0
ARC
  5
FD9F
  8
1-中柱P
 10
27728.411953585131
 20
16814.786252000002
 30
0.0
 40
6.599999999999997
 50
0.0
 51
90.0
  0
LINE
  5
FDA0
  8
1-中柱P
 10
27728.411953585131
 20
16819.786252000002
 30
0.0
 11
27695.011953585141
 21
16819.786252000002
 31
0.0
  0
ARC
  5
FDA1
  8
1-中柱P
 10
27728.411953585131
 20
16814.786252000002
 30
0.0
 40
5.0
 50
0.0
 51
90.0
  0
LINE
  5
FDA2
  8
1-中柱P
 10
27695.011953585141
 20
16819.786252000002
 30
0.0
 11
27695.011953585141
 21
16821.386252000011
 31
0.0
  0
LINE
  5
FDA3
  8
1-中柱P
 10
27676.611953585121
 20
16750.386252000011
 30
0.0
 11
27685.011953585141
 21
16750.386252000011
 31
0.0
  0
ARC
  5
FDA4
  8
1-中柱P
 10
27676.611953585121
 20
16743.786252000002
 30
0.0
 40
6.599999999999997
 50
90.0
 51
180.0
  0
ARC
  5
FDA5
  8
1-中柱P
 10
27685.011953585141
 20
16755.386252000011
 30
0.0
 40
5.0
 50
270.0
 51
0.0
  0
LINE
  5
FDA6
  8
1-中柱P
 10
27685.011953585141
 20
16748.786252000002
 30
0.0
 11
27676.611953585121
 21
16748.786252000002
 31
0.0
  0
ARC
  5
FDA7
  8
1-中柱P
 10
27685.011953585141
 20
16755.386252000011
 30
0.0
 40
6.599999999999997
 50
270.0
 51
0.0
  0
ARC
  5
FDA8
  8
1-中柱P
  6
HIDE-M
 62
     6
 10
27719.111953585129
 20
16818.786252000002
 30
0.0
 40
2.6000000000000001
 50
90.0
 51
180.0
  0
LINE
  5
FDA9
  8
1-中柱P
  6
HIDE-M
 62
     6
 10
27707.511953585141
 20
16820.83564215319
 30
0.0
 11
27707.511953585141
 21
16817.18625200001
 31
0.0
  0
LINE
  5
FDAA
  8
1-中柱P
  6
HIDE-M
 62
     6
 10
27717.511953585141
 20
16820.83564215319
 30
0.0
 11
27717.511953585141
 21
16817.18625200001
 31
0.0
  0
LINE
  5
FDAB
  8
1-中柱P
  6
1PL-M
 62
     6
 10
27712.511953585141
 20
16826.386252000011
 30
0.0
 11
27712.511953585141
 21
16812.18625200001
 31
0.0
  0
ARC
  5
FDAC
  8
1-中柱P
  6
HIDE-M
 62
     6
 10
27705.911953585131
 20
16818.786252000002
 30
0.0
 40
2.6000000000000001
 50
0.0
 51
90.0
  0
LINE
  5
FDAD
  8
1-中柱P
  6
HIDE-M
 62
     6
 10
27716.511953585141
 20
16818.786252000002
 30
0.0
 11
27716.511953585141
 21
16817.18625200001
 31
0.0
  0
LINE
  5
FDAE
  8
1-中柱P
  6
HIDE-M
 62
     6
 10
27708.511953585141
 20
16818.786252000002
 30
0.0
 11
27708.511953585141
 21
16817.18625200001
 31
0.0
  0
LINE
  5
FDAF
  8
1-中柱P
 10
27691.611953585121
 20
16755.386252000011
 30
0.0
 11
27691.611953585121
 21
16765.386252000011
 31
0.0
  0
LINE
  5
FDB0
  8
1-中柱P
 10
27690.011953585141
 20
16755.386252000011
 30
0.0
 11
27690.011953585141
 21
16765.386252000011
 31
0.0
  0
LINE
  5
FDB1
  8
1-中柱P
 10
27691.611953585121
 20
16765.386252000011
 30
0.0
 11
27690.011953585141
 21
16765.386252000011
 31
0.0
  0
LINE
  5
FDB2
  8
1-中柱P
  6
1PL-M
 62
     6
 10
27740.011953585141
 20
16786.386252000011
 30
0.0
 11
27725.811953585129
 21
16786.386252000011
 31
0.0
  0
LINE
  5
FDB3
  8
1-中柱P
  6
HIDE-M
 62
     6
 10
27743.911953585121
 20
16729.386252000011
 30
0.0
 11
27755.511953585141
 21
16729.386252000011
 31
0.0
  0
LINE
  5
FDB4
  8
1-中柱P
  6
HIDE-M
 62
     6
 10
27743.911953585121
 20
16721.386252000011
 30
0.0
 11
27755.511953585141
 21
16721.386252000011
 31
0.0
  0
LINE
  5
FDB5
  8
1-中柱P
  6
HIDE-M
 62
     6
 10
27743.911953585121
 20
16728.386252000011
 30
0.0
 11
27755.511953585141
 21
16728.386252000011
 31
0.0
  0
LINE
  5
FDB6
  8
1-中柱P
  6
HIDE-M
 62
     6
 10
27743.911953585121
 20
16722.386252000011
 30
0.0
 11
27755.511953585141
 21
16722.386252000011
 31
0.0
  0
LINE
  5
FDB7
  8
1-中柱P
 10
27744.911953585131
 20
16719.886252000011
 30
0.0
 11
27751.911953585131
 21
16719.886252000011
 31
0.0
  0
LINE
  5
FDB8
  8
1-中柱P
 10
27751.911953585131
 20
16730.886252000011
 30
0.0
 11
27744.911953585131
 21
16730.886252000011
 31
0.0
  0
LINE
  5
FDB9
  8
1-中柱P
 10
27751.911953585131
 20
16731.636252000011
 30
0.0
 11
27751.911953585131
 21
16719.136252000011
 31
0.0
  0
LINE
  5
FDBA
  8
1-中柱P
 10
27755.511953585141
 20
16731.386252000011
 30
0.0
 11
27755.511953585141
 21
16719.386252000011
 31
0.0
  0
LINE
  5
FDBB
  8
1-中柱P
  6
HIDE-M
 62
     6
 10
27753.411953585121
 20
16719.886252000011
 30
0.0
 11
27755.011953585141
 21
16719.886252000011
 31
0.0
  0
LINE
  5
FDBC
  8
1-中柱P
 10
27755.511953585141
 20
16719.386252000011
 30
0.0
 11
27755.011953585141
 21
16719.886252000011
 31
0.0
  0
ARC
  5
FDBD
  8
1-中柱P
 10
27752.661953585131
 20
16719.136252000011
 30
0.0
 40
0.75
 50
180.0
 51
0.0
  0
LINE
  5
FDBE
  8
1-中柱P
  6
HIDE-M
 62
     6
 10
27755.011953585141
 20
16730.886252000011
 30
0.0
 11
27753.411953585121
 21
16730.886252000011
 31
0.0
  0
LINE
  5
FDBF
  8
1-中柱P
 10
27755.511953585141
 20
16731.386252000011
 30
0.0
 11
27755.011953585141
 21
16730.886252000011
 31
0.0
  0
ARC
  5
FDC0
  8
1-中柱P
 10
27752.661953585131
 20
16731.636252000011
 30
0.0
 40
0.75
 50
0.0
 51
180.0
  0
LINE
  5
FDC1
  8
1-中柱P
 10
27743.911953585121
 20
16729.886252000011
 30
0.0
 11
27743.911953585121
 21
16720.886252000011
 31
0.0
  0
ARC
  5
FDC2
  8
1-中柱P
 10
27744.911953585131
 20
16720.886252000011
 30
0.0
 40
1.0
 50
180.0
 51
270.0
  0
ARC
  5
FDC3
  8
1-中柱P
 10
27744.911953585131
 20
16729.886252000011
 30
0.0
 40
1.0
 50
90.0
 51
180.0
  0
LINE
  5
FDC4
  8
1-中柱P
  6
1PL-M
 62
     6
 10
27738.911953585131
 20
16725.386252000011
 30
0.0
 11
27760.511953585141
 21
16725.386252000011
 31
0.0
  0
LINE
  5
FDC5
  8
1-中柱P
 10
27744.911953585131
 20
16709.886252000011
 30
0.0
 11
27751.911953585131
 21
16709.886252000011
 31
0.0
  0
LINE
  5
FDC6
  8
1-中柱P
 10
27755.511953585141
 20
16717.386252000011
 30
0.0
 11
27755.511953585141
 21
16709.386252000011
 31
0.0
  0
LINE
  5
FDC7
  8
1-中柱P
  6
HIDE-M
 62
     6
 10
27753.411953585121
 20
16709.886252000011
 30
0.0
 11
27755.011953585141
 21
16709.886252000011
 31
0.0
  0
LINE
  5
FDC8
  8
1-中柱P
 10
27755.511953585141
 20
16709.386252000011
 30
0.0
 11
27755.011953585141
 21
16709.886252000011
 31
0.0
  0
ARC
  5
FDC9
  8
1-中柱P
 10
27752.661953585131
 20
16709.136252000011
 30
0.0
 40
0.75
 50
180.0
 51
0.0
  0
LINE
  5
FDCA
  8
1-中柱P
 10
27743.911953585121
 20
16718.886252000011
 30
0.0
 11
27743.911953585121
 21
16710.886252000011
 31
0.0
  0
ARC
  5
FDCB
  8
1-中柱P
 10
27744.911953585131
 20
16710.886252000011
 30
0.0
 40
1.0
 50
180.0
 51
270.0
  0
LINE
  5
FDCC
  8
1-中柱P
  6
1PL-M
 62
     6
 10
27738.911953585131
 20
16715.386252000011
 30
0.0
 11
27760.511953585141
 21
16715.386252000011
 31
0.0
  0
LINE
  5
FDCD
  8
1-中柱P
 10
27751.911953585131
 20
16717.136252000011
 30
0.0
 11
27751.911953585131
 21
16709.136252000011
 31
0.0
  0
LINE
  5
FDCE
  8
1-中柱P
  6
HIDE-M
 62
     6
 10
27743.911953585121
 20
16711.386252000011
 30
0.0
 11
27755.511953585141
 21
16711.386252000011
 31
0.0
  0
LINE
  5
FDCF
  8
1-中柱P
  6
HIDE-M
 62
     6
 10
27743.911953585121
 20
16712.386252000011
 30
0.0
 11
27755.511953585141
 21
16712.386252000011
 31
0.0
  0
LINE
  5
FDD0
  8
1-中柱P
  6
HIDE-M
 62
     6
 10
27681.111953585129
 20
16729.386252000011
 30
0.0
 11
27669.511953585141
 21
16729.386252000011
 31
0.0
  0
LINE
  5
FDD1
  8
1-中柱P
  6
HIDE-M
 62
     6
 10
27681.111953585129
 20
16721.386252000011
 30
0.0
 11
27669.511953585141
 21
16721.386252000011
 31
0.0
  0
LINE
  5
FDD2
  8
1-中柱P
  6
HIDE-M
 62
     6
 10
27681.111953585129
 20
16728.386252000011
 30
0.0
 11
27669.511953585141
 21
16728.386252000011
 31
0.0
  0
LINE
  5
FDD3
  8
1-中柱P
  6
HIDE-M
 62
     6
 10
27681.111953585129
 20
16722.386252000011
 30
0.0
 11
27669.511953585141
 21
16722.386252000011
 31
0.0
  0
LINE
  5
FDD4
  8
1-中柱P
 10
27680.111953585121
 20
16719.886252000011
 30
0.0
 11
27673.111953585121
 21
16719.886252000011
 31
0.0
  0
LINE
  5
FDD5
  8
1-中柱P
 10
27673.111953585121
 20
16730.886252000011
 30
0.0
 11
27680.111953585121
 21
16730.886252000011
 31
0.0
  0
LINE
  5
FDD6
  8
1-中柱P
 10
27673.111953585121
 20
16731.636252000011
 30
0.0
 11
27673.111953585121
 21
16719.136252000011
 31
0.0
  0
LINE
  5
FDD7
  8
1-中柱P
 10
27669.511953585141
 20
16731.386252000011
 30
0.0
 11
27669.511953585141
 21
16719.386252000011
 31
0.0
  0
LINE
  5
FDD8
  8
1-中柱P
  6
HIDE-M
 62
     6
 10
27671.611953585129
 20
16719.886252000011
 30
0.0
 11
27670.011953585141
 21
16719.886252000011
 31
0.0
  0
LINE
  5
FDD9
  8
1-中柱P
 10
27669.511953585141
 20
16719.386252000011
 30
0.0
 11
27670.011953585141
 21
16719.886252000011
 31
0.0
  0
ARC
  5
FDDA
  8
1-中柱P
 10
27672.361953585121
 20
16719.136252000011
 30
0.0
 40
0.75
 50
180.0
 51
0.0
  0
LINE
  5
FDDB
  8
1-中柱P
  6
HIDE-M
 62
     6
 10
27670.011953585141
 20
16730.886252000011
 30
0.0
 11
27671.611953585129
 21
16730.886252000011
 31
0.0
  0
LINE
  5
FDDC
  8
1-中柱P
 10
27669.511953585141
 20
16731.386252000011
 30
0.0
 11
27670.011953585141
 21
16730.886252000011
 31
0.0
  0
ARC
  5
FDDD
  8
1-中柱P
 10
27672.361953585121
 20
16731.636252000011
 30
0.0
 40
0.75
 50
0.0
 51
180.0
  0
LINE
  5
FDDE
  8
1-中柱P
 10
27681.111953585129
 20
16729.886252000011
 30
0.0
 11
27681.111953585129
 21
16720.886252000011
 31
0.0
  0
ARC
  5
FDDF
  8
1-中柱P
 10
27680.111953585121
 20
16720.886252000011
 30
0.0
 40
1.0
 50
270.0
 51
0.0
  0
ARC
  5
FDE0
  8
1-中柱P
 10
27680.111953585121
 20
16729.886252000011
 30
0.0
 40
1.0
 50
0.0
 51
90.0
  0
LINE
  5
FDE1
  8
1-中柱P
  6
1PL-M
 62
     6
 10
27686.111953585121
 20
16725.386252000011
 30
0.0
 11
27664.511953585141
 21
16725.386252000011
 31
0.0
  0
LINE
  5
FDE2
  8
1-中柱P
 10
27680.111953585121
 20
16709.886252000011
 30
0.0
 11
27673.111953585121
 21
16709.886252000011
 31
0.0
  0
LINE
  5
FDE3
  8
1-中柱P
 10
27669.511953585141
 20
16717.386252000011
 30
0.0
 11
27669.511953585141
 21
16709.386252000011
 31
0.0
  0
LINE
  5
FDE4
  8
1-中柱P
  6
HIDE-M
 62
     6
 10
27671.611953585129
 20
16709.886252000011
 30
0.0
 11
27670.011953585141
 21
16709.886252000011
 31
0.0
  0
LINE
  5
FDE5
  8
1-中柱P
 10
27669.511953585141
 20
16709.386252000011
 30
0.0
 11
27670.011953585141
 21
16709.886252000011
 31
0.0
  0
ARC
  5
FDE6
  8
1-中柱P
 10
27672.361953585121
 20
16709.136252000011
 30
0.0
 40
0.75
 50
180.0
 51
0.0
  0
LINE
  5
FDE7
  8
1-中柱P
 10
27681.111953585129
 20
16718.886252000011
 30
0.0
 11
27681.111953585129
 21
16710.886252000011
 31
0.0
  0
ARC
  5
FDE8
  8
1-中柱P
 10
27680.111953585121
 20
16710.886252000011
 30
0.0
 40
1.0
 50
270.0
 51
0.0
  0
LINE
  5
FDE9
  8
1-中柱P
  6
1PL-M
 62
     6
 10
27686.111953585121
 20
16715.386252000011
 30
0.0
 11
27664.511953585141
 21
16715.386252000011
 31
0.0
  0
LINE
  5
FDEA
  8
1-中柱P
 10
27673.111953585121
 20
16717.136252000011
 30
0.0
 11
27673.111953585121
 21
16709.136252000011
 31
0.0
  0
LINE
  5
FDEB
  8
1-中柱P
  6
HIDE-M
 62
     6
 10
27681.111953585129
 20
16711.386252000011
 30
0.0
 11
27669.511953585141
 21
16711.386252000011
 31
0.0
  0
LINE
  5
FDEC
  8
1-中柱P
  6
HIDE-M
 62
     6
 10
27681.111953585129
 20
16712.386252000011
 30
0.0
 11
27669.511953585141
 21
16712.386252000011
 31
0.0
  0
LINE
  5
FDED
  8
1-中柱カバ-P
 10
27670.011953585141
 20
16757.086252000001
 30
0.0
 11
27670.011953585141
 21
16816.386252000011
 31
0.0
  0
ARC
  5
FDEE
  8
1-中柱カバ-P
 10
27676.611953585121
 20
16816.386252000011
 30
0.0
 40
6.599999999999997
 50
90.0
 51
180.0
  0
LINE
  5
FDEF
  8
1-中柱カバ-P
 10
27671.611953585129
 20
16757.086252000001
 30
0.0
 11
27671.611953585129
 21
16816.386252000011
 31
0.0
  0
ARC
  5
FDF0
  8
1-中柱カバ-P
 10
27676.611953585121
 20
16757.086252000001
 30
0.0
 40
5.0
 50
180.0
 51
270.0
  0
LINE
  5
FDF1
  8
1-中柱カバ-P
 10
27676.611953585121
 20
16822.986251999999
 30
0.0
 11
27748.411953585131
 21
16822.986251999999
 31
0.0
  0
ARC
  5
FDF2
  8
1-中柱カバ-P
 10
27748.411953585131
 20
16816.386252000011
 30
0.0
 40
6.599999999999997
 50
0.0
 51
90.0
  0
LINE
  5
FDF3
  8
1-中柱カバ-P
 10
27676.611953585121
 20
16821.386252000011
 30
0.0
 11
27748.411953585131
 21
16821.386252000011
 31
0.0
  0
ARC
  5
FDF4
  8
1-中柱カバ-P
 10
27748.411953585131
 20
16816.386252000011
 30
0.0
 40
5.0
 50
0.0
 51
90.0
  0
ARC
  5
FDF5
  8
1-中柱カバ-P
 10
27676.611953585121
 20
16816.386252000011
 30
0.0
 40
5.0
 50
90.0
 51
180.0
  0
LINE
  5
FDF6
  8
1-中柱カバ-P
 10
27755.011953585141
 20
16816.386252000011
 30
0.0
 11
27755.011953585141
 21
16757.086252000001
 31
0.0
  0
LINE
  5
FDF7
  8
1-中柱カバ-P
 10
27753.411953585121
 20
16816.386252000011
 30
0.0
 11
27753.411953585121
 21
16757.086252000001
 31
0.0
  0
ARC
  5
FDF8
  8
1-中柱カバ-P
 10
27748.411953585131
 20
16757.086252000001
 30
0.0
 40
5.0
 50
270.0
 51
0.0
  0
LINE
  5
FDF9
  8
1-中柱カバ-P
  6
1PL-M
 62
     6
 10
27712.511953585141
 20
16815.486251999999
 30
0.0
 11
27712.511953585141
 21
16828.486251999992
 31
0.0
  0
LINE
  5
FDFA
  8
1-中柱カバ-P
  6
HIDE-M
 62
     6
 10
27705.511953585141
 20
16822.986251999999
 30
0.0
 11
27705.511953585141
 21
16821.386252000011
 31
0.0
  0
LINE
  5
FDFB
  8
1-中柱カバ-P
  6
HIDE-M
 62
     6
 10
27719.511953585141
 20
16822.986251999999
 30
0.0
 11
27719.511953585141
 21
16821.386252000011
 31
0.0
  0
ARC
  5
FDFC
  8
1-中柱カバ-P
 10
27676.611953585121
 20
16757.086252000001
 30
0.0
 40
6.599999999999997
 50
180.0
 51
270.0
  0
ARC
  5
FDFD
  8
1-中柱カバ-P
 10
27748.411953585131
 20
16757.086252000001
 30
0.0
 40
6.599999999999997
 50
270.0
 51
0.0
  0
LINE
  5
FDFE
  8
1-中柱カバ-P
 10
27740.011953585141
 20
16750.486251999992
 30
0.0
 11
27748.411953585131
 21
16750.486251999992
 31
0.0
  0
LINE
  5
FDFF
  8
1-中柱カバ-P
 10
27685.011953585141
 20
16750.486251999992
 30
0.0
 11
27676.611953585121
 21
16750.486251999992
 31
0.0
  0
LINE
  5
FE00
  8
1-中柱カバ-P
 10
27740.011953585141
 20
16752.086252000001
 30
0.0
 11
27748.411953585131
 21
16752.086252000001
 31
0.0
  0
LINE
  5
FE01
  8
1-中柱カバ-P
 10
27685.011953585141
 20
16752.086252000001
 30
0.0
 11
27676.611953585121
 21
16752.086252000001
 31
0.0
  0
LINE
  5
FE02
  8
1-中柱カバ-P
 10
27685.011953585141
 20
16752.086252000001
 30
0.0
 11
27685.011953585141
 21
16750.486251999992
 31
0.0
  0
LINE
  5
FE03
  8
1-中柱カバ-P
 10
27740.011953585141
 20
16750.486251999992
 30
0.0
 11
27740.011953585141
 21
16752.086252000001
 31
0.0
  0
LINE
  5
FE04
  8
1-中柱カバ-P
  6
HIDE-M
 62
     6
 10
27743.911953585121
 20
16771.486251999992
 30
0.0
 11
27755.511953585141
 21
16771.486251999992
 31
0.0
  0
LINE
  5
FE05
  8
1-中柱カバ-P
  6
HIDE-M
 62
     6
 10
27743.911953585121
 20
16779.486251999992
 30
0.0
 11
27755.511953585141
 21
16779.486251999992
 31
0.0
  0
LINE
  5
FE06
  8
1-中柱カバ-P
  6
HIDE-M
 62
     6
 10
27743.911953585121
 20
16772.486251999999
 30
0.0
 11
27755.511953585141
 21
16772.486251999999
 31
0.0
  0
LINE
  5
FE07
  8
1-中柱カバ-P
  6
HIDE-M
 62
     6
 10
27743.911953585121
 20
16778.486251999999
 30
0.0
 11
27755.511953585141
 21
16778.486251999999
 31
0.0
  0
LINE
  5
FE08
  8
1-中柱カバ-P
 10
27744.911953585131
 20
16780.986251999992
 30
0.0
 11
27751.911953585131
 21
16780.986251999992
 31
0.0
  0
LINE
  5
FE09
  8
1-中柱カバ-P
 10
27751.911953585131
 20
16769.986251999992
 30
0.0
 11
27744.911953585131
 21
16769.986251999992
 31
0.0
  0
LINE
  5
FE0A
  8
1-中柱カバ-P
 10
27751.911953585131
 20
16769.236251999992
 30
0.0
 11
27751.911953585131
 21
16781.736251999992
 31
0.0
  0
LINE
  5
FE0B
  8
1-中柱カバ-P
 10
27755.511953585141
 20
16769.486251999992
 30
0.0
 11
27755.511953585141
 21
16781.486251999992
 31
0.0
  0
LINE
  5
FE0C
  8
1-中柱カバ-P
  6
HIDE-M
 62
     6
 10
27753.411953585121
 20
16780.986251999992
 30
0.0
 11
27755.011953585141
 21
16780.986251999992
 31
0.0
  0
LINE
  5
FE0D
  8
1-中柱カバ-P
 10
27755.511953585141
 20
16781.486251999992
 30
0.0
 11
27755.011953585141
 21
16780.986251999992
 31
0.0
  0
ARC
  5
FE0E
  8
1-中柱カバ-P
 10
27752.661953585131
 20
16781.736251999992
 30
0.0
 40
0.75
 50
0.0
 51
180.0
  0
LINE
  5
FE0F
  8
1-中柱カバ-P
  6
HIDE-M
 62
     6
 10
27755.011953585141
 20
16769.986251999992
 30
0.0
 11
27753.411953585121
 21
16769.986251999992
 31
0.0
  0
LINE
  5
FE10
  8
1-中柱カバ-P
 10
27755.511953585141
 20
16769.486251999992
 30
0.0
 11
27755.011953585141
 21
16769.986251999992
 31
0.0
  0
ARC
  5
FE11
  8
1-中柱カバ-P
 10
27752.661953585131
 20
16769.236251999992
 30
0.0
 40
0.75
 50
180.0
 51
0.0
  0
LINE
  5
FE12
  8
1-中柱カバ-P
 10
27743.911953585121
 20
16770.986251999999
 30
0.0
 11
27743.911953585121
 21
16779.986251999992
 31
0.0
  0
ARC
  5
FE13
  8
1-中柱カバ-P
 10
27744.911953585131
 20
16779.986251999992
 30
0.0
 40
1.0
 50
90.0
 51
180.0
  0
ARC
  5
FE14
  8
1-中柱カバ-P
 10
27744.911953585131
 20
16770.986251999999
 30
0.0
 40
1.0
 50
180.0
 51
270.0
  0
LINE
  5
FE15
  8
1-中柱カバ-P
  6
1PL-M
 62
     6
 10
27738.911953585131
 20
16775.486251999999
 30
0.0
 11
27760.511953585141
 21
16775.486251999999
 31
0.0
  0
LINE
  5
FE16
  8
1-中柱カバ-P
 10
27744.911953585131
 20
16790.986251999992
 30
0.0
 11
27751.911953585131
 21
16790.986251999992
 31
0.0
  0
LINE
  5
FE17
  8
1-中柱カバ-P
 10
27755.511953585141
 20
16783.486251999992
 30
0.0
 11
27755.511953585141
 21
16791.486251999992
 31
0.0
  0
LINE
  5
FE18
  8
1-中柱カバ-P
  6
HIDE-M
 62
     6
 10
27753.411953585121
 20
16790.986251999992
 30
0.0
 11
27755.011953585141
 21
16790.986251999992
 31
0.0
  0
LINE
  5
FE19
  8
1-中柱カバ-P
 10
27755.511953585141
 20
16791.486251999992
 30
0.0
 11
27755.011953585141
 21
16790.986251999992
 31
0.0
  0
ARC
  5
FE1A
  8
1-中柱カバ-P
 10
27752.661953585131
 20
16791.736251999992
 30
0.0
 40
0.75
 50
0.0
 51
180.0
  0
LINE
  5
FE1B
  8
1-中柱カバ-P
 10
27743.911953585121
 20
16781.986251999992
 30
0.0
 11
27743.911953585121
 21
16789.986251999999
 31
0.0
  0
ARC
  5
FE1C
  8
1-中柱カバ-P
 10
27744.911953585131
 20
16789.986251999999
 30
0.0
 40
1.0
 50
90.0
 51
180.0
  0
LINE
  5
FE1D
  8
1-中柱カバ-P
  6
1PL-M
 62
     6
 10
27738.911953585131
 20
16785.486251999992
 30
0.0
 11
27760.511953585141
 21
16785.486251999992
 31
0.0
  0
LINE
  5
FE1E
  8
1-中柱カバ-P
 10
27751.911953585131
 20
16783.736251999992
 30
0.0
 11
27751.911953585131
 21
16791.736251999992
 31
0.0
  0
LINE
  5
FE1F
  8
1-中柱カバ-P
  6
HIDE-M
 62
     6
 10
27681.111953585129
 20
16771.486251999992
 30
0.0
 11
27669.511953585141
 21
16771.486251999992
 31
0.0
  0
LINE
  5
FE20
  8
1-中柱カバ-P
  6
HIDE-M
 62
     6
 10
27681.111953585129
 20
16779.486251999992
 30
0.0
 11
27669.511953585141
 21
16779.486251999992
 31
0.0
  0
LINE
  5
FE21
  8
1-中柱カバ-P
  6
HIDE-M
 62
     6
 10
27681.111953585129
 20
16772.486251999999
 30
0.0
 11
27669.511953585141
 21
16772.486251999999
 31
0.0
  0
LINE
  5
FE22
  8
1-中柱カバ-P
  6
HIDE-M
 62
     6
 10
27681.111953585129
 20
16778.486251999999
 30
0.0
 11
27669.511953585141
 21
16778.486251999999
 31
0.0
  0
LINE
  5
FE23
  8
1-中柱カバ-P
 10
27680.111953585121
 20
16780.986251999992
 30
0.0
 11
27673.111953585121
 21
16780.986251999992
 31
0.0
  0
LINE
  5
FE24
  8
1-中柱カバ-P
 10
27673.111953585121
 20
16769.986251999992
 30
0.0
 11
27680.111953585121
 21
16769.986251999992
 31
0.0
  0
LINE
  5
FE25
  8
1-中柱カバ-P
 10
27673.111953585121
 20
16769.236251999992
 30
0.0
 11
27673.111953585121
 21
16781.736251999992
 31
0.0
  0
LINE
  5
FE26
  8
1-中柱カバ-P
 10
27669.511953585141
 20
16769.486251999992
 30
0.0
 11
27669.511953585141
 21
16781.486251999992
 31
0.0
  0
LINE
  5
FE27
  8
1-中柱カバ-P
  6
HIDE-M
 62
     6
 10
27671.611953585129
 20
16780.986251999992
 30
0.0
 11
27670.011953585141
 21
16780.986251999992
 31
0.0
  0
LINE
  5
FE28
  8
1-中柱カバ-P
 10
27669.511953585141
 20
16781.486251999992
 30
0.0
 11
27670.011953585141
 21
16780.986251999992
 31
0.0
  0
ARC
  5
FE29
  8
1-中柱カバ-P
 10
27672.361953585121
 20
16781.736251999992
 30
0.0
 40
0.75
 50
0.0
 51
180.0
  0
LINE
  5
FE2A
  8
1-中柱カバ-P
  6
HIDE-M
 62
     6
 10
27670.011953585141
 20
16769.986251999992
 30
0.0
 11
27671.611953585129
 21
16769.986251999992
 31
0.0
  0
LINE
  5
FE2B
  8
1-中柱カバ-P
 10
27669.511953585141
 20
16769.486251999992
 30
0.0
 11
27670.011953585141
 21
16769.986251999992
 31
0.0
  0
ARC
  5
FE2C
  8
1-中柱カバ-P
 10
27672.361953585121
 20
16769.236251999992
 30
0.0
 40
0.75
 50
180.0
 51
0.0
  0
LINE
  5
FE2D
  8
1-中柱カバ-P
 10
27681.111953585129
 20
16770.986251999999
 30
0.0
 11
27681.111953585129
 21
16779.986251999992
 31
0.0
  0
ARC
  5
FE2E
  8
1-中柱カバ-P
 10
27680.111953585121
 20
16779.986251999992
 30
0.0
 40
1.0
 50
0.0
 51
90.0
  0
ARC
  5
FE2F
  8
1-中柱カバ-P
 10
27680.111953585121
 20
16770.986251999999
 30
0.0
 40
1.0
 50
270.0
 51
0.0
  0
LINE
  5
FE30
  8
1-中柱カバ-P
  6
1PL-M
 62
     6
 10
27686.111953585121
 20
16775.486251999999
 30
0.0
 11
27664.511953585141
 21
16775.486251999999
 31
0.0
  0
LINE
  5
FE31
  8
1-中柱カバ-P
 10
27680.111953585121
 20
16790.986251999992
 30
0.0
 11
27673.111953585121
 21
16790.986251999992
 31
0.0
  0
LINE
  5
FE32
  8
1-中柱カバ-P
 10
27669.511953585141
 20
16783.486251999992
 30
0.0
 11
27669.511953585141
 21
16791.486251999992
 31
0.0
  0
LINE
  5
FE33
  8
1-中柱カバ-P
  6
HIDE-M
 62
     6
 10
27671.611953585129
 20
16790.986251999992
 30
0.0
 11
27670.011953585141
 21
16790.986251999992
 31
0.0
  0
LINE
  5
FE34
  8
1-中柱カバ-P
 10
27669.511953585141
 20
16791.486251999992
 30
0.0
 11
27670.011953585141
 21
16790.986251999992
 31
0.0
  0
ARC
  5
FE35
  8
1-中柱カバ-P
 10
27672.361953585121
 20
16791.736251999992
 30
0.0
 40
0.75
 50
0.0
 51
180.0
  0
LINE
  5
FE36
  8
1-中柱カバ-P
 10
27681.111953585129
 20
16781.986251999992
 30
0.0
 11
27681.111953585129
 21
16789.986251999999
 31
0.0
  0
ARC
  5
FE37
  8
1-中柱カバ-P
 10
27680.111953585121
 20
16789.986251999999
 30
0.0
 40
1.0
 50
0.0
 51
90.0
  0
LINE
  5
FE38
  8
1-中柱カバ-P
  6
1PL-M
 62
     6
 10
27686.111953585121
 20
16785.486251999992
 30
0.0
 11
27664.511953585141
 21
16785.486251999992
 31
0.0
  0
LINE
  5
FE39
  8
1-中柱カバ-P
 10
27673.111953585121
 20
16783.736251999992
 30
0.0
 11
27673.111953585121
 21
16791.736251999992
 31
0.0
  0
LINE
  5
FE3A
  8
1-中柱カバ-P
  6
HIDE-M
 62
     6
 10
27743.911953585121
 20
16789.486251999992
 30
0.0
 11
27755.511953585141
 21
16789.486251999992
 31
0.0
  0
LINE
  5
FE3B
  8
1-中柱カバ-P
  6
HIDE-M
 62
     6
 10
27743.911953585121
 20
16788.486251999992
 30
0.0
 11
27755.511953585141
 21
16788.486251999992
 31
0.0
  0
LINE
  5
FE3C
  8
1-中柱カバ-P
  6
HIDE-M
 62
     6
 10
27681.111953585129
 20
16789.486251999992
 30
0.0
 11
27669.511953585141
 21
16789.486251999992
 31
0.0
  0
LINE
  5
FE3D
  8
1-中柱カバ-P
  6
HIDE-M
 62
     6
 10
27681.111953585129
 20
16788.486251999992
 30
0.0
 11
27669.511953585141
 21
16788.486251999992
 31
0.0
  0
ARC
  5
FE3E
  8
1-前柱P
  6
HIDE-M
 62
     6
 10
27708.911953585131
 20
14251.386252
 30
0.0
 40
2.6000000000000001
 50
0.0
 51
90.0
  0
LINE
  5
FE3F
  8
1-前柱P
  6
HIDE-M
 62
     6
 10
27720.511953585141
 20
14253.435642153199
 30
0.0
 11
27720.511953585141
 21
14249.786252
 31
0.0
  0
LINE
  5
FE40
  8
1-前柱P
  6
HIDE-M
 62
     6
 10
27710.511953585141
 20
14253.435642153199
 30
0.0
 11
27710.511953585141
 21
14249.786252
 31
0.0
  0
LINE
  5
FE41
  8
1-前柱P
  6
1PL-M
 62
     6
 10
27715.511953585141
 20
14258.986252000001
 30
0.0
 11
27715.511953585141
 21
14244.786252
 31
0.0
  0
ARC
  5
FE42
  8
1-前柱P
  6
HIDE-M
 62
     6
 10
27722.11195358515
 20
14251.386252
 30
0.0
 40
2.6000000000000001
 50
90.0
 51
180.0
  0
LINE
  5
FE43
  8
1-前柱P
  6
HIDE-M
 62
     6
 10
27711.511953585141
 20
14251.386252
 30
0.0
 11
27711.511953585141
 21
14249.786252
 31
0.0
  0
LINE
  5
FE44
  8
1-前柱P
  6
HIDE-M
 62
     6
 10
27719.511953585141
 20
14251.386252
 30
0.0
 11
27719.511953585141
 21
14249.786252
 31
0.0
  0
LINE
  5
FE45
  8
1-前柱P
 10
27701.61195358515
 20
14139.08625200001
 30
0.0
 11
27723.41195358515
 21
14139.08625200001
 31
0.0
  0
LINE
  5
FE46
  8
1-前柱P
 10
27753.41195358515
 20
14176.386252
 30
0.0
 11
27753.41195358515
 21
14169.08625200001
 31
0.0
  0
ARC
  5
FE47
  8
1-前柱P
 10
27723.41195358515
 20
14169.08625200001
 30
0.0
 40
30.0
 50
270.0
 51
0.0
  0
ARC
  5
FE48
  8
1-前柱P
 10
27723.41195358515
 20
14169.08625200001
 30
0.0
 40
31.600000000000001
 50
270.0
 51
0.0
  0
LINE
  5
FE49
  8
1-前柱P
 10
27701.61195358515
 20
14137.486252000001
 30
0.0
 11
27723.41195358515
 21
14137.486252000001
 31
0.0
  0
LINE
  5
FE4A
  8
1-前柱P
 10
27755.011953585141
 20
14176.386252
 30
0.0
 11
27755.011953585141
 21
14169.08625200001
 31
0.0
  0
LINE
  5
FE4B
  8
1-前柱P
 10
27732.011953585141
 20
14197.986252000001
 30
0.0
 11
27732.011953585141
 21
14187.986252000001
 31
0.0
  0
LINE
  5
FE4C
  8
1-前柱P
 10
27730.41195358515
 20
14187.986252000001
 30
0.0
 11
27730.41195358515
 21
14197.986252000001
 31
0.0
  0
LINE
  5
FE4D
  8
1-前柱P
 10
27671.61195358515
 20
14176.386252
 30
0.0
 11
27671.61195358515
 21
14169.08625200001
 31
0.0
  0
ARC
  5
FE4E
  8
1-前柱P
 10
27701.61195358515
 20
14169.08625200001
 30
0.0
 40
30.0
 50
180.0
 51
270.0
  0
ARC
  5
FE4F
  8
1-前柱P
 10
27701.61195358515
 20
14169.08625200001
 30
0.0
 40
31.600000000000001
 50
180.0
 51
270.0
  0
LINE
  5
FE50
  8
1-前柱P
 10
27670.011953585141
 20
14176.386252
 30
0.0
 11
27670.011953585141
 21
14169.08625200001
 31
0.0
  0
LINE
  5
FE51
  8
1-前柱P
 10
27676.61195358515
 20
14182.986252000001
 30
0.0
 11
27688.011953585141
 21
14182.986252000001
 31
0.0
  0
ARC
  5
FE52
  8
1-前柱P
 10
27676.61195358515
 20
14176.386252
 30
0.0
 40
6.599999999999997
 50
90.0
 51
180.0
  0
ARC
  5
FE53
  8
1-前柱P
 10
27688.011953585141
 20
14187.986252000001
 30
0.0
 40
5.0
 50
270.0
 51
0.0
  0
LINE
  5
FE54
  8
1-前柱P
 10
27676.61195358515
 20
14181.386252
 30
0.0
 11
27688.011953585141
 21
14181.386252
 31
0.0
  0
ARC
  5
FE55
  8
1-前柱P
 10
27676.61195358515
 20
14176.386252
 30
0.0
 40
5.0
 50
90.0
 51
180.0
  0
LINE
  5
FE56
  8
1-前柱P
 10
27693.011953585141
 20
14187.986252000001
 30
0.0
 11
27693.011953585141
 21
14247.386252
 31
0.0
  0
LINE
  5
FE57
  8
1-前柱P
 10
27694.61195358515
 20
14187.986252000001
 30
0.0
 11
27694.61195358515
 21
14247.386252
 31
0.0
  0
ARC
  5
FE58
  8
1-前柱P
 10
27688.011953585141
 20
14187.986252000001
 30
0.0
 40
6.599999999999997
 50
270.0
 51
0.0
  0
LINE
  5
FE59
  8
1-前柱P
 10
27699.61195358515
 20
14253.986252000001
 30
0.0
 11
27733.011953585141
 21
14253.986252000001
 31
0.0
  0
ARC
  5
FE5A
  8
1-前柱P
 10
27699.61195358515
 20
14247.386252
 30
0.0
 40
6.599999999999997
 50
90.0
 51
180.0
  0
LINE
  5
FE5B
  8
1-前柱P
 10
27699.61195358515
 20
14252.386252
 30
0.0
 11
27733.011953585141
 21
14252.386252
 31
0.0
  0
ARC
  5
FE5C
  8
1-前柱P
 10
27699.61195358515
 20
14247.386252
 30
0.0
 40
5.0
 50
90.0
 51
180.0
  0
LINE
  5
FE5D
  8
1-前柱P
 10
27733.011953585141
 20
14252.386252
 30
0.0
 11
27733.011953585141
 21
14253.986252000001
 31
0.0
  0
LINE
  5
FE5E
  8
1-前柱P
 10
27748.41195358515
 20
14182.986252000001
 30
0.0
 11
27737.011953585141
 21
14182.986252000001
 31
0.0
  0
ARC
  5
FE5F
  8
1-前柱P
 10
27748.41195358515
 20
14176.386252
 30
0.0
 40
6.599999999999997
 50
0.0
 51
90.0
  0
ARC
  5
FE60
  8
1-前柱P
 10
27737.011953585141
 20
14187.986252000001
 30
0.0
 40
5.0
 50
180.0
 51
270.0
  0
LINE
  5
FE61
  8
1-前柱P
 10
27737.011953585141
 20
14181.386252
 30
0.0
 11
27748.41195358515
 21
14181.386252
 31
0.0
  0
ARC
  5
FE62
  8
1-前柱P
 10
27737.011953585141
 20
14187.986252000001
 30
0.0
 40
6.599999999999997
 50
180.0
 51
270.0
  0
ARC
  5
FE63
  8
1-前柱P
 10
27748.41195358515
 20
14176.386252
 30
0.0
 40
5.0
 50
0.0
 51
90.0
  0
LINE
  5
FE64
  8
1-前柱P
 10
27732.011953585141
 20
14197.986252000001
 30
0.0
 11
27730.41195358515
 21
14197.986252000001
 31
0.0
  0
LINE
  5
FE65
  8
1-前柱カバ-P
 10
27755.011953585141
 20
14189.686252
 30
0.0
 11
27755.011953585141
 21
14248.986252000001
 31
0.0
  0
ARC
  5
FE66
  8
1-前柱カバ-P
 10
27748.41195358515
 20
14248.986252000001
 30
0.0
 40
6.599999999999997
 50
0.0
 51
90.0
  0
LINE
  5
FE67
  8
1-前柱カバ-P
 10
27753.41195358515
 20
14189.686252
 30
0.0
 11
27753.41195358515
 21
14248.986252000001
 31
0.0
  0
ARC
  5
FE68
  8
1-前柱カバ-P
 10
27748.41195358515
 20
14189.686252
 30
0.0
 40
5.0
 50
270.0
 51
0.0
  0
LINE
  5
FE69
  8
1-前柱カバ-P
 10
27748.41195358515
 20
14255.586251999999
 30
0.0
 11
27676.61195358515
 21
14255.586251999999
 31
0.0
  0
ARC
  5
FE6A
  8
1-前柱カバ-P
 10
27676.61195358515
 20
14248.986252000001
 30
0.0
 40
6.599999999999997
 50
90.0
 51
180.0
  0
LINE
  5
FE6B
  8
1-前柱カバ-P
 10
27748.41195358515
 20
14253.986252000001
 30
0.0
 11
27676.61195358515
 21
14253.986252000001
 31
0.0
  0
ARC
  5
FE6C
  8
1-前柱カバ-P
 10
27676.61195358515
 20
14248.986252000001
 30
0.0
 40
5.0
 50
90.0
 51
180.0
  0
ARC
  5
FE6D
  8
1-前柱カバ-P
 10
27748.41195358515
 20
14248.986252000001
 30
0.0
 40
5.0
 50
0.0
 51
90.0
  0
LINE
  5
FE6E
  8
1-前柱カバ-P
 10
27670.011953585141
 20
14248.986252000001
 30
0.0
 11
27670.011953585141
 21
14189.686252
 31
0.0
  0
LINE
  5
FE6F
  8
1-前柱カバ-P
 10
27671.61195358515
 20
14248.986252000001
 30
0.0
 11
27671.61195358515
 21
14189.686252
 31
0.0
  0
ARC
  5
FE70
  8
1-前柱カバ-P
 10
27676.61195358515
 20
14189.686252
 30
0.0
 40
5.0
 50
180.0
 51
270.0
  0
LINE
  5
FE71
  8
1-前柱カバ-P
  6
1PL-M
 62
     6
 10
27712.511953585141
 20
14248.08625200001
 30
0.0
 11
27712.511953585141
 21
14261.08625200001
 31
0.0
  0
LINE
  5
FE72
  8
1-前柱カバ-P
  6
HIDE-M
 62
     6
 10
27719.511953585141
 20
14255.586251999999
 30
0.0
 11
27719.511953585141
 21
14253.986252000001
 31
0.0
  0
LINE
  5
FE73
  8
1-前柱カバ-P
  6
HIDE-M
 62
     6
 10
27705.511953585141
 20
14255.586251999999
 30
0.0
 11
27705.511953585141
 21
14253.986252000001
 31
0.0
  0
ARC
  5
FE74
  8
1-前柱カバ-P
 10
27748.41195358515
 20
14189.686252
 30
0.0
 40
6.599999999999997
 50
270.0
 51
0.0
  0
ARC
  5
FE75
  8
1-前柱カバ-P
 10
27676.61195358515
 20
14189.686252
 30
0.0
 40
6.599999999999997
 50
180.0
 51
270.0
  0
LINE
  5
FE76
  8
1-前柱カバ-P
 10
27685.011953585141
 20
14183.08625199999
 30
0.0
 11
27676.61195358515
 21
14183.08625199999
 31
0.0
  0
LINE
  5
FE77
  8
1-前柱カバ-P
 10
27740.011953585141
 20
14183.08625199999
 30
0.0
 11
27748.41195358515
 21
14183.08625199999
 31
0.0
  0
LINE
  5
FE78
  8
1-前柱カバ-P
 10
27685.011953585141
 20
14184.686252
 30
0.0
 11
27676.61195358515
 21
14184.686252
 31
0.0
  0
LINE
  5
FE79
  8
1-前柱カバ-P
 10
27740.011953585141
 20
14184.686252
 30
0.0
 11
27748.41195358515
 21
14184.686252
 31
0.0
  0
LINE
  5
FE7A
  8
1-前柱カバ-P
 10
27740.011953585141
 20
14184.686252
 30
0.0
 11
27740.011953585141
 21
14183.08625199999
 31
0.0
  0
LINE
  5
FE7B
  8
1-前柱カバ-P
 10
27685.011953585141
 20
14183.08625199999
 30
0.0
 11
27685.011953585141
 21
14184.686252
 31
0.0
  0
LINE
  5
FE7C
  8
1-前柱カバ-P
  6
HIDE-M
 62
     6
 10
27681.11195358515
 20
14204.08625200001
 30
0.0
 11
27669.511953585141
 21
14204.08625200001
 31
0.0
  0
LINE
  5
FE7D
  8
1-前柱カバ-P
  6
HIDE-M
 62
     6
 10
27681.11195358515
 20
14212.08625200001
 30
0.0
 11
27669.511953585141
 21
14212.08625200001
 31
0.0
  0
LINE
  5
FE7E
  8
1-前柱カバ-P
  6
HIDE-M
 62
     6
 10
27681.11195358515
 20
14205.086251999999
 30
0.0
 11
27669.511953585141
 21
14205.086251999999
 31
0.0
  0
LINE
  5
FE7F
  8
1-前柱カバ-P
  6
HIDE-M
 62
     6
 10
27681.11195358515
 20
14211.08625200001
 30
0.0
 11
27669.511953585141
 21
14211.08625200001
 31
0.0
  0
LINE
  5
FE80
  8
1-前柱カバ-P
 10
27680.11195358515
 20
14213.586251999999
 30
0.0
 11
27673.111953585139
 21
14213.586251999999
 31
0.0
  0
LINE
  5
FE81
  8
1-前柱カバ-P
 10
27673.111953585139
 20
14202.58625200001
 30
0.0
 11
27680.11195358515
 21
14202.58625200001
 31
0.0
  0
LINE
  5
FE82
  8
1-前柱カバ-P
 10
27673.111953585139
 20
14201.83625200001
 30
0.0
 11
27673.111953585139
 21
14214.33625200001
 31
0.0
  0
LINE
  5
FE83
  8
1-前柱カバ-P
 10
27669.511953585141
 20
14202.08625199999
 30
0.0
 11
27669.511953585141
 21
14214.08625200001
 31
0.0
  0
LINE
  5
FE84
  8
1-前柱カバ-P
  6
HIDE-M
 62
     6
 10
27671.61195358515
 20
14213.586251999999
 30
0.0
 11
27670.011953585141
 21
14213.586251999999
 31
0.0
  0
LINE
  5
FE85
  8
1-前柱カバ-P
 10
27669.511953585141
 20
14214.08625200001
 30
0.0
 11
27670.011953585141
 21
14213.586251999999
 31
0.0
  0
ARC
  5
FE86
  8
1-前柱カバ-P
 10
27672.36195358515
 20
14214.33625200001
 30
0.0
 40
0.75
 50
0.0
 51
180.0
  0
LINE
  5
FE87
  8
1-前柱カバ-P
  6
HIDE-M
 62
     6
 10
27670.011953585141
 20
14202.58625200001
 30
0.0
 11
27671.61195358515
 21
14202.58625200001
 31
0.0
  0
LINE
  5
FE88
  8
1-前柱カバ-P
 10
27669.511953585141
 20
14202.08625199999
 30
0.0
 11
27670.011953585141
 21
14202.58625200001
 31
0.0
  0
ARC
  5
FE89
  8
1-前柱カバ-P
 10
27672.36195358515
 20
14201.83625200001
 30
0.0
 40
0.75
 50
180.0
 51
0.0
  0
LINE
  5
FE8A
  8
1-前柱カバ-P
 10
27681.11195358515
 20
14203.58625200001
 30
0.0
 11
27681.11195358515
 21
14212.58625200001
 31
0.0
  0
ARC
  5
FE8B
  8
1-前柱カバ-P
 10
27680.11195358515
 20
14212.58625200001
 30
0.0
 40
1.0
 50
0.0
 51
90.0
  0
ARC
  5
FE8C
  8
1-前柱カバ-P
 10
27680.11195358515
 20
14203.58625200001
 30
0.0
 40
1.0
 50
270.0
 51
0.0
  0
LINE
  5
FE8D
  8
1-前柱カバ-P
  6
1PL-M
 62
     6
 10
27686.11195358515
 20
14208.08625200001
 30
0.0
 11
27664.511953585141
 21
14208.08625200001
 31
0.0
  0
LINE
  5
FE8E
  8
1-前柱カバ-P
 10
27680.11195358515
 20
14223.58625200001
 30
0.0
 11
27673.111953585139
 21
14223.58625200001
 31
0.0
  0
LINE
  5
FE8F
  8
1-前柱カバ-P
 10
27669.511953585141
 20
14216.08625200001
 30
0.0
 11
27669.511953585141
 21
14224.086251999999
 31
0.0
  0
LINE
  5
FE90
  8
1-前柱カバ-P
  6
HIDE-M
 62
     6
 10
27671.61195358515
 20
14223.58625200001
 30
0.0
 11
27670.011953585141
 21
14223.58625200001
 31
0.0
  0
LINE
  5
FE91
  8
1-前柱カバ-P
 10
27669.511953585141
 20
14224.086251999999
 30
0.0
 11
27670.011953585141
 21
14223.58625200001
 31
0.0
  0
ARC
  5
FE92
  8
1-前柱カバ-P
 10
27672.36195358515
 20
14224.33625200001
 30
0.0
 40
0.75
 50
0.0
 51
180.0
  0
LINE
  5
FE93
  8
1-前柱カバ-P
 10
27681.11195358515
 20
14214.586251999999
 30
0.0
 11
27681.11195358515
 21
14222.58625200001
 31
0.0
  0
ARC
  5
FE94
  8
1-前柱カバ-P
 10
27680.11195358515
 20
14222.58625200001
 30
0.0
 40
1.0
 50
0.0
 51
90.0
  0
LINE
  5
FE95
  8
1-前柱カバ-P
  6
1PL-M
 62
     6
 10
27686.11195358515
 20
14218.08625200001
 30
0.0
 11
27664.511953585141
 21
14218.08625200001
 31
0.0
  0
LINE
  5
FE96
  8
1-前柱カバ-P
 10
27673.111953585139
 20
14216.33625200001
 30
0.0
 11
27673.111953585139
 21
14224.33625200001
 31
0.0
  0
LINE
  5
FE97
  8
1-前柱カバ-P
  6
HIDE-M
 62
     6
 10
27743.91195358515
 20
14204.08625200001
 30
0.0
 11
27755.511953585141
 21
14204.08625200001
 31
0.0
  0
LINE
  5
FE98
  8
1-前柱カバ-P
  6
HIDE-M
 62
     6
 10
27743.91195358515
 20
14212.08625200001
 30
0.0
 11
27755.511953585141
 21
14212.08625200001
 31
0.0
  0
LINE
  5
FE99
  8
1-前柱カバ-P
  6
HIDE-M
 62
     6
 10
27743.91195358515
 20
14205.086251999999
 30
0.0
 11
27755.511953585141
 21
14205.086251999999
 31
0.0
  0
LINE
  5
FE9A
  8
1-前柱カバ-P
  6
HIDE-M
 62
     6
 10
27743.91195358515
 20
14211.08625200001
 30
0.0
 11
27755.511953585141
 21
14211.08625200001
 31
0.0
  0
LINE
  5
FE9B
  8
1-前柱カバ-P
 10
27744.911953585139
 20
14213.586251999999
 30
0.0
 11
27751.91195358515
 21
14213.586251999999
 31
0.0
  0
LINE
  5
FE9C
  8
1-前柱カバ-P
 10
27751.91195358515
 20
14202.58625200001
 30
0.0
 11
27744.911953585139
 21
14202.58625200001
 31
0.0
  0
LINE
  5
FE9D
  8
1-前柱カバ-P
 10
27751.91195358515
 20
14201.83625200001
 30
0.0
 11
27751.91195358515
 21
14214.33625200001
 31
0.0
  0
LINE
  5
FE9E
  8
1-前柱カバ-P
 10
27755.511953585141
 20
14202.08625199999
 30
0.0
 11
27755.511953585141
 21
14214.08625200001
 31
0.0
  0
LINE
  5
FE9F
  8
1-前柱カバ-P
  6
HIDE-M
 62
     6
 10
27753.41195358515
 20
14213.586251999999
 30
0.0
 11
27755.011953585141
 21
14213.586251999999
 31
0.0
  0
LINE
  5
FEA0
  8
1-前柱カバ-P
 10
27755.511953585141
 20
14214.08625200001
 30
0.0
 11
27755.011953585141
 21
14213.586251999999
 31
0.0
  0
ARC
  5
FEA1
  8
1-前柱カバ-P
 10
27752.661953585139
 20
14214.33625200001
 30
0.0
 40
0.75
 50
0.0
 51
180.0
  0
LINE
  5
FEA2
  8
1-前柱カバ-P
  6
HIDE-M
 62
     6
 10
27755.011953585141
 20
14202.58625200001
 30
0.0
 11
27753.41195358515
 21
14202.58625200001
 31
0.0
  0
LINE
  5
FEA3
  8
1-前柱カバ-P
 10
27755.511953585141
 20
14202.08625199999
 30
0.0
 11
27755.011953585141
 21
14202.58625200001
 31
0.0
  0
ARC
  5
FEA4
  8
1-前柱カバ-P
 10
27752.661953585139
 20
14201.83625200001
 30
0.0
 40
0.75
 50
180.0
 51
0.0
  0
LINE
  5
FEA5
  8
1-前柱カバ-P
 10
27743.91195358515
 20
14203.58625200001
 30
0.0
 11
27743.91195358515
 21
14212.58625200001
 31
0.0
  0
ARC
  5
FEA6
  8
1-前柱カバ-P
 10
27744.911953585139
 20
14212.58625200001
 30
0.0
 40
1.0
 50
90.0
 51
180.0
  0
ARC
  5
FEA7
  8
1-前柱カバ-P
 10
27744.911953585139
 20
14203.58625200001
 30
0.0
 40
1.0
 50
180.0
 51
270.0
  0
LINE
  5
FEA8
  8
1-前柱カバ-P
  6
1PL-M
 62
     6
 10
27738.91195358515
 20
14208.08625200001
 30
0.0
 11
27760.511953585141
 21
14208.08625200001
 31
0.0
  0
LINE
  5
FEA9
  8
1-前柱カバ-P
 10
27744.911953585139
 20
14223.58625200001
 30
0.0
 11
27751.91195358515
 21
14223.58625200001
 31
0.0
  0
LINE
  5
FEAA
  8
1-前柱カバ-P
 10
27755.511953585141
 20
14216.08625200001
 30
0.0
 11
27755.511953585141
 21
14224.086251999999
 31
0.0
  0
LINE
  5
FEAB
  8
1-前柱カバ-P
  6
HIDE-M
 62
     6
 10
27753.41195358515
 20
14223.58625200001
 30
0.0
 11
27755.011953585141
 21
14223.58625200001
 31
0.0
  0
LINE
  5
FEAC
  8
1-前柱カバ-P
 10
27755.511953585141
 20
14224.086251999999
 30
0.0
 11
27755.011953585141
 21
14223.58625200001
 31
0.0
  0
ARC
  5
FEAD
  8
1-前柱カバ-P
 10
27752.661953585139
 20
14224.33625200001
 30
0.0
 40
0.75
 50
0.0
 51
180.0
  0
LINE
  5
FEAE
  8
1-前柱カバ-P
 10
27743.91195358515
 20
14214.586251999999
 30
0.0
 11
27743.91195358515
 21
14222.58625200001
 31
0.0
  0
ARC
  5
FEAF
  8
1-前柱カバ-P
 10
27744.911953585139
 20
14222.58625200001
 30
0.0
 40
1.0
 50
90.0
 51
180.0
  0
LINE
  5
FEB0
  8
1-前柱カバ-P
  6
1PL-M
 62
     6
 10
27738.91195358515
 20
14218.08625200001
 30
0.0
 11
27760.511953585141
 21
14218.08625200001
 31
0.0
  0
LINE
  5
FEB1
  8
1-前柱カバ-P
 10
27751.91195358515
 20
14216.33625200001
 30
0.0
 11
27751.91195358515
 21
14224.33625200001
 31
0.0
  0
LINE
  5
FEB2
  8
1-前柱カバ-P
  6
HIDE-M
 62
     6
 10
27681.11195358515
 20
14222.08625200001
 30
0.0
 11
27669.511953585141
 21
14222.08625200001
 31
0.0
  0
LINE
  5
FEB3
  8
1-前柱カバ-P
  6
HIDE-M
 62
     6
 10
27681.11195358515
 20
14221.08625199999
 30
0.0
 11
27669.511953585141
 21
14221.08625199999
 31
0.0
  0
LINE
  5
FEB4
  8
1-前柱カバ-P
  6
HIDE-M
 62
     6
 10
27743.91195358515
 20
14222.08625200001
 30
0.0
 11
27755.511953585141
 21
14222.08625200001
 31
0.0
  0
LINE
  5
FEB5
  8
1-前柱カバ-P
  6
HIDE-M
 62
     6
 10
27743.91195358515
 20
14221.08625199999
 30
0.0
 11
27755.511953585141
 21
14221.08625199999
 31
0.0
  0
LINE
  5
FEB8
  8
0-6
  6
CONTINUOUS
 62
     6
 10
26262.436248763741
 20
13542.987109999989
 30
0.0
 11
27262.435589763722
 21
13542.987109999989
 31
0.0
  0
TEXT
  5
FEB9
  8
0-6
  6
CONTINUOUS
 62
     7
 10
26358.436512763721
 20
13622.98737399998
 30
0.0
 40
160.0
  1
前柱（P）
 72
     4
 11
26758.436512763721
 21
13702.98737399998
 31
0.0
  0
LINE
  5
FEBA
  8
0-6
  6
CONTINUOUS
 62
     6
 10
27667.511953585141
 20
14128.986252000001
 30
0.0
 11
27262.435589763722
 21
13542.987109999989
 31
0.0
  0
LINE
  5
FEBB
  8
0-6
  6
CONTINUOUS
 62
     6
 10
26262.436248763741
 20
16080.047909954121
 30
0.0
 11
27262.435589763722
 21
16080.047909954121
 31
0.0
  0
TEXT
  5
FEBC
  8
0-6
  6
CONTINUOUS
 62
     7
 10
26358.436512763721
 20
16160.048173954099
 30
0.0
 40
160.0
  1
中柱（P）
 72
     4
 11
26758.436512763721
 21
16240.048173954099
 31
0.0
  0
LINE
  5
FEBD
  8
0-6
  6
CONTINUOUS
 62
     6
 10
27667.511953585141
 20
16666.047051954109
 30
0.0
 11
27262.435589763722
 21
16080.047909954121
 31
0.0
  0
LINE
  5
FEBE
  8
0-6
  6
CONTINUOUS
 62
     6
 10
25921.374358294212
 20
14743.97698982888
 30
0.0
 11
27377.374358294212
 21
14743.97698982888
 31
0.0
  0
TEXT
  5
FEBF
  8
0-6
  6
CONTINUOUS
 62
     7
 10
25961.379631546621
 20
14823.977253828871
 30
0.0
 40
160.0
  1
前柱カバー（P）
 72
     4
 11
26649.379631546621
 21
14903.977253828871
 31
0.0
  0
LINE
  5
FEC0
  8
0-6
  6
CONTINUOUS
 62
     6
 10
27676.61195358515
 20
14255.58625199999
 30
0.0
 11
27377.374358294212
 21
14743.97698982888
 31
0.0
  0
LINE
  5
FEC1
  8
0-6
  6
CONTINUOUS
 62
     6
 10
25921.374358294212
 20
17300.976553828881
 30
0.0
 11
27377.374358294212
 21
17300.976553828881
 31
0.0
  0
TEXT
  5
FEC2
  8
0-6
  6
CONTINUOUS
 62
     7
 10
25961.379631546621
 20
17380.976817828861
 30
0.0
 40
160.0
  1
中柱カバー（P）
 72
     4
 11
26649.379631546621
 21
17460.976817828861
 31
0.0
  0
LINE
  5
FEC3
  8
0-6
  6
CONTINUOUS
 62
     6
 10
27676.61195358515
 20
16812.585815999999
 30
0.0
 11
27377.374358294212
 21
17300.976553828881
 31
0.0
  0
LINE
  5
FEC4
  8
0-6
  6
CONTINUOUS
 62
     6
 10
26262.436248763741
 20
19957.423617045872
 30
0.0
 11
27262.435589763722
 21
19957.423617045872
 31
0.0
  0
TEXT
  5
FEC5
  8
0-6
  6
CONTINUOUS
 62
     7
 10
26358.436512763721
 20
20037.423881045848
 30
0.0
 40
160.0
  1
後柱（P）
 72
     4
 11
26758.436512763721
 21
20117.423881045848
 31
0.0
  0
LINE
  5
FEC6
  8
0-6
  6
CONTINUOUS
 62
     6
 10
27667.511953585141
 20
19371.424475045871
 30
0.0
 11
27262.435589763722
 21
19957.423617045872
 31
0.0
  0
LINE
  5
FEC7
  8
0-6
  6
CONTINUOUS
 62
     6
 10
25921.374358294201
 20
18736.494973171109
 30
0.0
 11
27377.374358294201
 21
18736.494973171109
 31
0.0
  0
TEXT
  5
FEC8
  8
0-6
  6
CONTINUOUS
 62
     7
 10
25961.379631546621
 20
18816.495237171112
 30
0.0
 40
160.0
  1
後柱カバー（P）
 72
     4
 11
26649.379631546621
 21
18896.495237171112
 31
0.0
  0
LINE
  5
FEC9
  8
0-6
  6
CONTINUOUS
 62
     6
 10
27676.61195358515
 20
19224.885710999992
 30
0.0
 11
27377.374358294201
 21
18736.494973171109
 31
0.0
  0
LINE
  5
FF09
  8
0-1
  6
CONTINUOUS
 62
     3
 10
6980.73090447094
 20
8152.2344180000036
 30
0.0
 11
6980.73090447094
 21
6291.1885389999989
 31
0.0
  0
LINE
  5
FF0A
  8
0-1
  6
CONTINUOUS
 62
     3
 10
6943.7327124709409
 20
8152.2344180000036
 30
0.0
 11
6943.7327124709409
 21
6291.1885389999989
 31
0.0
  0
LINE
  5
FF0B
  8
0-1
  6
CONTINUOUS
 62
     3
 10
6805.2317354709367
 20
6291.1885389999989
 30
0.0
 11
6805.2317354709367
 21
8152.2344180000036
 31
0.0
  0
LINE
  5
FF0C
  8
0-1
  6
CONTINUOUS
 62
     3
 10
6820.2315374709506
 20
6291.1885389999989
 30
0.0
 11
6820.2315374709506
 21
8152.2344180000036
 31
0.0
  0
LINE
  5
FF0D
  8
0-1
  6
CONTINUOUS
 62
     3
 10
7104.2310894709426
 20
6291.1885389999989
 30
0.0
 11
7104.2310894709426
 21
8152.2344180000036
 31
0.0
  0
LINE
  5
FF0E
  8
0-1
  6
CONTINUOUS
 62
     3
 10
7119.2318804709503
 20
6291.1885389999989
 30
0.0
 11
7119.2318804709503
 21
8152.2344180000036
 31
0.0
  0
LINE
  5
FF0F
  8
0-1
  6
CONTINUOUS
 62
     3
 10
6621.2324494709464
 20
8152.2344180000064
 30
0.0
 11
6621.2324494709464
 21
6241.1883740000021
 31
0.0
  0
LINE
  5
FF10
  8
0-1
  6
CONTINUOUS
 62
     3
 10
11611.23370247093
 20
8152.2344180000064
 30
0.0
 11
11611.23370247093
 21
6241.1883740000021
 31
0.0
  0
LINE
  5
FF11
  8
0-1
  6
CONTINUOUS
 62
     3
 10
11427.232435470951
 20
6291.1885390000007
 30
0.0
 11
11427.232435470951
 21
8152.2344180000064
 31
0.0
  0
LINE
  5
FF12
  8
0-1
  6
CONTINUOUS
 62
     3
 10
11412.232633470951
 20
6291.1885390000007
 30
0.0
 11
11412.232633470951
 21
8152.2344180000064
 31
0.0
  0
LINE
  5
FF13
  8
0-1
  6
CONTINUOUS
 62
     3
 10
5660.6420541510261
 20
19509.98900999999
 30
0.0
 11
13596.643004151019
 21
19509.98900999999
 31
0.0
  0
LINE
  5
FF14
  8
0-1
  6
CONTINUOUS
 62
     3
 10
5605.1422911510253
 20
19461.985685
 30
0.0
 11
13652.143756151039
 21
19461.985685
 31
0.0
  0
LINE
  5
FF15
  8
0-6
  6
CONTINUOUS
 62
     6
 10
9796.3462419389725
 20
19652.391617999991
 30
0.0
 11
9753.0442729389506
 21
19627.390297999991
 31
0.0
  0
LINE
  5
FF16
  8
0-6
  6
CONTINUOUS
 62
     6
 10
9796.3462419389725
 20
19652.391617999991
 30
0.0
 11
9849.6942679389704
 21
19509.98900999999
 31
0.0
  0
LINE
  5
FF17
  8
0-6
  6
CONTINUOUS
 62
     6
 10
9753.0442729389506
 20
19627.390297999991
 30
0.0
 11
9796.3462419389725
 21
19652.391617999991
 31
0.0
  0
LINE
  5
FF18
  8
0-6
  6
CONTINUOUS
 62
     6
 10
9849.6942679389704
 20
19509.98900999999
 30
0.0
 11
9753.0442729389506
 21
19627.390297999991
 31
0.0
  0
LINE
  5
FF19
  8
0-6
  6
CONTINUOUS
 62
     6
 10
9849.6942679389704
 20
19509.98900999999
 30
0.0
 11
9796.3462419389725
 21
19652.391617999991
 31
0.0
  0
LINE
  5
FF1A
  8
0-6
  6
CONTINUOUS
 62
     6
 10
9753.0442729389506
 20
19627.390297999991
 30
0.0
 11
9849.6942679389704
 21
19509.98900999999
 31
0.0
  0
LINE
  5
FF1B
  8
0-6
  6
CONTINUOUS
 62
     6
 10
9774.6962469389728
 20
19639.892938000001
 30
0.0
 11
9549.110430269282
 21
20063.562777731098
 31
0.0
  0
TEXT
  5
FF1C
  8
0-6
  6
CONTINUOUS
 62
     7
 10
9375.4392269389737
 20
20619.988217999999
 30
0.0
 40
160.0
  1
鼻隠し後
 72
     4
 11
9738.1058936056415
 21
20699.988217999999
 31
0.0
  0
LINE
  5
FF1D
  8
0-6
  6
CONTINUOUS
 62
     6
 10
9295.4369829389725
 20
20539.987954
 30
0.0
 11
10137.876541938969
 21
20539.987954
 31
0.0
  0
LINE
  5
FF1E
  8
0-6
  6
CONTINUOUS
 62
     6
 10
9481.0765712167595
 20
20191.337456683399
 30
0.0
 11
9295.4369829389725
 21
20539.987954
 31
0.0
  0
LINE
  5
FF1F
  8
0-6
  6
CONTINUOUS
 62
     6
 10
14121.148330397969
 20
14049.7162631389
 30
0.0
 11
16762.392797306751
 21
14049.7162631389
 31
0.0
  0
TEXT
  5
FF20
  8
0-6
  6
CONTINUOUS
 62
     7
 10
14192.74669874798
 20
14129.716527138889
 30
0.0
 40
160.0
  1
桁前（PU）+ 桁補強（PU）
 72
     4
 11
15440.74669874798
 21
14209.716527138889
 31
0.0
  0
LINE
  5
FF21
  8
0-6
  6
CONTINUOUS
 62
     6
 10
14121.148330397969
 20
14049.7162631389
 30
0.0
 11
12675.776899775899
 21
13623.78637377761
 31
0.0
  0
LINE
  5
FF22
  8
0-6
  6
CONTINUOUS
 62
     6
 10
12675.776899775899
 20
13623.78637377761
 30
0.0
 11
12298.834436280349
 21
14125.98635799994
 31
0.0
  0
LINE
  5
FF23
  8
0-6
  6
CONTINUOUS
 62
     6
 10
14241.48305897038
 20
16653.715616139041
 30
0.0
 11
16721.794362411671
 21
16653.715616139041
 31
0.0
  0
TEXT
  5
FF24
  8
0-6
  6
CONTINUOUS
 62
     7
 10
14333.99327295607
 20
16733.715880139021
 30
0.0
 40
160.0
  1
桁（PU）+ 桁補強（PU）
 72
     4
 11
15485.99327295607
 21
16813.715880139021
 31
0.0
  0
LINE
  5
FF25
  8
0-6
  6
CONTINUOUS
 62
     6
 10
14241.483058970371
 20
16653.715616139041
 30
0.0
 11
12796.111628348301
 21
16227.785726777731
 31
0.0
  0
LINE
  5
FF26
  8
0-6
  6
CONTINUOUS
 62
     6
 10
12796.111628348301
 20
16227.785726777731
 30
0.0
 11
12419.16916485275
 21
16729.985711000059
 31
0.0
  0
LINE
  5
FF27
  8
0-6
  6
CONTINUOUS
 62
     6
 10
14241.48305897038
 20
19184.8286867149
 30
0.0
 11
16721.794362411671
 21
19184.8286867149
 31
0.0
  0
TEXT
  5
FF28
  8
0-6
  6
CONTINUOUS
 62
     7
 10
14333.99327295607
 20
19264.82895071488
 30
0.0
 40
160.0
  1
桁（PU）+ 桁補強（PU）
 72
     4
 11
15485.99327295607
 21
19344.82895071488
 31
0.0
  0
LINE
  5
FF29
  8
0-6
  6
CONTINUOUS
 62
     6
 10
14241.483058970371
 20
19184.8286867149
 30
0.0
 11
12796.111628348301
 21
18758.898797353591
 31
0.0
  0
LINE
  5
FF2A
  8
0-6
  6
CONTINUOUS
 62
     6
 10
12796.111628348301
 20
18758.898797353591
 30
0.0
 11
12419.16916485275
 21
19261.098781575922
 31
0.0
  0
TEXT
  5
FF2B
  8
0-6
  6
CONTINUOUS
 62
     7
 10
12325.796425404929
 20
15319.935473763589
 30
0.0
 40
160.0
  1
梁（P）前
 72
     4
 11
12768.463092071601
 21
15399.935473763589
 31
0.0
  0
LINE
  5
FF2C
  8
0-6
  6
CONTINUOUS
 62
     6
 10
12261.598737222899
 20
15239.93619976359
 30
0.0
 11
13276.58890654774
 21
15239.93619976359
 31
0.0
  0
LINE
  5
FF3E
  8
0-1
  6
CONTINUOUS
 62
     3
 10
6040.1446391510563
 20
18801.67108783784
 30
0.0
 11
6040.1446391510581
 21
19461.985685
 31
0.0
  0
LINE
  5
FF3F
  8
0-1
  6
CONTINUOUS
 62
     3
 10
6077.1448111510572
 20
18786.352112024219
 30
0.0
 11
6077.1448111510599
 21
19461.985685
 31
0.0
  0
LINE
  5
FF40
  8
0-1
  6
CONTINUOUS
 62
     3
 10
5840.1439801510596
 20
18884.47625041733
 30
0.0
 11
5840.1439801510614
 21
19461.985685
 31
0.0
  0
LINE
  5
FF41
  8
0-1
  6
CONTINUOUS
 62
     3
 10
5877.1431611510598
 20
18869.15768490194
 30
0.0
 11
5877.1431611510598
 21
19461.985685
 31
0.0
  0
LINE
  5
FF44
  8
WAKUSEN-01
 10
868.00000000000193
 20
22484.000000000011
 30
0.0
 11
32764.000000000011
 21
22484.000000000011
 31
0.0
  0
LINE
  5
FF47
  8
WAKUSEN-01
 10
20560.0
 20
2484.0
 30
0.0
 11
32764.0
 21
2484.0
 31
0.0
  0
LINE
  5
FF48
  8
WAKUSEN-02
 10
20560.0
 20
1655.9999999999991
 30
0.0
 11
26868.0
 21
1655.9999999999991
 31
0.0
  0
TEXT
  5
FF49
  8
WAKUMOJI-01
 10
20670.260259962761
 20
2125.9030093393221
 30
0.0
 40
240.0
  1
名　称
  7
WAKUMOJI
  0
TEXT
  5
FF4A
  8
WAKUMOJI-01
 10
20656.505485091919
 20
1319.12897497982
 30
0.0
 40
240.0
  1
機種名
  7
WAKUMOJI
  0
LINE
  5
FF4D
  8
YODOROGO
 10
29977.604341291921
 20
1995.7494964292871
 30
0.0
 11
29829.604341291921
 21
1995.7494964292871
 31
0.0
1001
AUTOCAD_POSTSCRIPT_FIGURE
1002
{
1000
PSFILL
1000
Grayscale
1000
Grayscale
1070
    25
1002
}
  0
LINE
  5
FF4E
  8
YODOROGO
 10
29829.604341291921
 20
1947.749496429288
 30
0.0
 11
29977.604341291921
 21
1947.749496429288
 31
0.0
1001
AUTOCAD_POSTSCRIPT_FIGURE
1002
{
1000
PSFILL
1000
Grayscale
1000
Grayscale
1070
    25
1002
}
  0
LINE
  5
FF4F
  8
YODOROGO
 10
29977.604341291921
 20
1907.7494964292871
 30
0.0
 11
29829.604341291921
 21
1907.7494964292871
 31
0.0
1001
AUTOCAD_POSTSCRIPT_FIGURE
1002
{
1000
PSFILL
1000
Grayscale
1000
Grayscale
1070
    25
1002
}
  0
LINE
  5
FF50
  8
YODOROGO
 10
29829.604341291921
 20
1859.749496429288
 30
0.0
 11
29977.604341291921
 21
1859.749496429288
 31
0.0
1001
AUTOCAD_POSTSCRIPT_FIGURE
1002
{
1000
PSFILL
1000
Grayscale
1000
Grayscale
1070
    25
1002
}
  0
LINE
  5
FF51
  8
YODOROGO
 10
29977.604341291921
 20
1819.7494964292871
 30
0.0
 11
29829.604341291921
 21
1819.7494964292871
 31
0.0
1001
AUTOCAD_POSTSCRIPT_FIGURE
1002
{
1000
PSFILL
1000
Grayscale
1000
Grayscale
1070
    25
1002
}
  0
LINE
  5
FF52
  8
YODOROGO
 10
29921.60434129191
 20
1707.749496429288
 30
0.0
 11
29977.604341291921
 21
1707.749496429288
 31
0.0
1001
AUTOCAD_POSTSCRIPT_FIGURE
1002
{
1000
PSFILL
1000
Grayscale
1000
Grayscale
1070
    25
1002
}
  0
LINE
  5
FF53
  8
YODOROGO
 10
29737.604341291921
 20
1427.749496429288
 30
0.0
 11
29937.604341291932
 21
1481.3393349155101
 31
0.0
  0
LINE
  5
FF54
  8
YODOROGO
 10
29949.60434129191
 20
1707.749496429288
 30
0.0
 11
29885.604341291921
 21
1707.749496429288
 31
0.0
  0
ARC
  5
FF55
  8
YODOROGO
 10
30254.34774982791
 20
1807.864609233261
 30
0.0
 40
381.88686420564721
 50
213.96111677667841
 51
264.47872074317792
  0
ARC
  5
FF56
  8
YODOROGO
 10
30254.347749827921
 20
1807.864609233302
 30
0.0
 40
381.8868642056816
 50
208.14114420486601
 51
212.9210361185994
  0
LINE
  5
FF57
  8
YODOROGO
 10
29771.409872985321
 20
1556.807661346234
 30
0.0
 11
29933.78413250855
 21
1600.3157130570869
 31
0.0
  0
LINE
  5
FF58
  8
YODOROGO
 10
29737.604341291921
 20
1427.749496429288
 30
0.0
 11
29937.604341291932
 21
1481.3393349155101
 31
0.0
  0
LINE
  5
FF59
  8
YODOROGO
 10
29949.60434129191
 20
1707.749496429288
 30
0.0
 11
29885.604341291921
 21
1707.749496429288
 31
0.0
  0
ARC
  5
FF5A
  8
YODOROGO
 10
30254.34774982791
 20
1807.864609233261
 30
0.0
 40
381.88686420564721
 50
213.96111677667841
 51
264.47872074317792
  0
LINE
  5
FF5B
  8
YODOROGO
 10
28793.60434129191
 20
1819.7494964292871
 30
0.0
 11
28433.60434129191
 21
1819.7494964292871
 31
0.0
  0
LINE
  5
FF5C
  8
YODOROGO
 10
28513.60434129191
 20
1427.749496429288
 30
0.0
 11
28793.60434129191
 21
1427.749496429288
 31
0.0
  0
LINE
  5
FF5D
  8
YODOROGO
 10
28729.604341291921
 20
1923.7494964292871
 30
0.0
 11
28497.60434129191
 21
1923.7494964292871
 31
0.0
  0
LINE
  5
FF5E
  8
YODOROGO
 10
28585.604341291921
 20
2027.749496429288
 30
0.0
 11
28657.604341291921
 21
2027.749496429288
 31
0.0
  0
LINE
  5
FF5F
  8
YODOROGO
 10
28433.60434129191
 20
1707.749496429288
 30
0.0
 11
28433.60434129191
 21
1507.749496429288
 31
0.0
  0
LINE
  5
FF60
  8
YODOROGO
 10
28497.60434129191
 20
1563.7494964292871
 30
0.0
 11
28497.60434129191
 21
1707.749496429288
 31
0.0
  0
LINE
  5
FF61
  8
YODOROGO
 10
28585.604341291921
 20
1747.74949642929
 30
0.0
 11
28585.604341291921
 21
1547.749496429288
 31
0.0
  0
LINE
  5
FF62
  8
YODOROGO
 10
27857.604341291921
 20
1683.749496429288
 30
0.0
 11
27777.604341291921
 21
1619.9724140445701
 31
0.0
  0
LINE
  5
FF63
  8
YODOROGO
 10
27937.604341291921
 20
1619.9724140445701
 30
0.0
 11
27857.604341291921
 21
1683.749496429288
 31
0.0
  0
LINE
  5
FF64
  8
YODOROGO
 10
27857.604341291921
 20
1707.749496429288
 30
0.0
 11
27937.604341291921
 21
1643.9724140445701
 31
0.0
  0
LINE
  5
FF65
  8
YODOROGO
 10
27777.604341291921
 20
1643.9724140445701
 30
0.0
 11
27857.604341291921
 21
1707.749496429288
 31
0.0
  0
LINE
  5
FF66
  8
YODOROGO
 10
28040.913204016892
 20
1659.749496429288
 30
0.0
 11
28040.913204016892
 21
1683.7494964292871
 31
0.0
  0
LINE
  5
FF67
  8
YODOROGO
 10
27977.604341291921
 20
1683.7494964292871
 30
0.0
 11
27977.604341291921
 21
1667.749496429285
 31
0.0
  0
LINE
  5
FF68
  8
YODOROGO
 10
28098.135520230931
 20
1707.749496429288
 30
0.0
 11
28098.135520230931
 21
1655.5036372746561
 31
0.0
1001
AUTOCAD_POSTSCRIPT_FIGURE
1002
{
1000
PSFILL
1000
Grayscale
1000
Grayscale
1070
   100
1002
}
  0
LINE
  5
FF69
  8
YODOROGO
 10
28082.135520230921
 20
1655.5036372746561
 30
0.0
 11
28082.135520230921
 21
1707.749496429288
 31
0.0
1001
AUTOCAD_POSTSCRIPT_FIGURE
1002
{
1000
PSFILL
1000
Grayscale
1000
Grayscale
1070
   100
1002
}
  0
LINE
  5
FF6A
  8
YODOROGO
 10
27809.604341291921
 20
1608.771904043258
 30
0.0
 11
27809.604341291921
 21
1632.771904043258
 31
0.0
  0
LINE
  5
FF6B
  8
YODOROGO
 10
27905.604341291921
 20
1608.771904043258
 30
0.0
 11
27809.604341291921
 21
1608.771904043258
 31
0.0
  0
LINE
  5
FF6C
  8
YODOROGO
 10
27905.604341291921
 20
1632.771904043258
 30
0.0
 11
27905.604341291921
 21
1608.771904043258
 31
0.0
  0
LINE
  5
FF6D
  8
YODOROGO
 10
27809.604341291921
 20
1632.771904043258
 30
0.0
 11
27905.604341291921
 21
1632.771904043258
 31
0.0
  0
LINE
  5
FF6E
  8
YODOROGO
 10
27824.509588915738
 20
1568.5028573704751
 30
0.0
 11
27785.604341291921
 21
1475.7494964292871
 31
0.0
1001
AUTOCAD_POSTSCRIPT_FIGURE
1002
{
1000
PSFILL
1000
Grayscale
1000
Grayscale
1070
   100
1002
}
  0
LINE
  5
FF6F
  8
YODOROGO
 10
27777.604341291921
 20
1568.5028573704751
 30
0.0
 11
27824.509588915738
 21
1568.5028573704751
 31
0.0
1001
AUTOCAD_POSTSCRIPT_FIGURE
1002
{
1000
PSFILL
1000
Grayscale
1000
Grayscale
1070
   100
1002
}
  0
LINE
  5
FF70
  8
YODOROGO
 10
27777.604341291921
 20
1588.5028573704751
 30
0.0
 11
27777.604341291921
 21
1568.5028573704751
 31
0.0
1001
AUTOCAD_POSTSCRIPT_FIGURE
1002
{
1000
PSFILL
1000
Grayscale
1000
Grayscale
1070
   100
1002
}
  0
LINE
  5
FF71
  8
YODOROGO
 10
27937.604341291921
 20
1588.5028573704751
 30
0.0
 11
27777.604341291921
 21
1588.5028573704751
 31
0.0
1001
AUTOCAD_POSTSCRIPT_FIGURE
1002
{
1000
PSFILL
1000
Grayscale
1000
Grayscale
1070
   100
1002
}
  0
LINE
  5
FF72
  8
YODOROGO
 10
27937.604341291921
 20
1568.5028573704751
 30
0.0
 11
27937.604341291921
 21
1588.5028573704751
 31
0.0
1001
AUTOCAD_POSTSCRIPT_FIGURE
1002
{
1000
PSFILL
1000
Grayscale
1000
Grayscale
1070
   100
1002
}
  0
LINE
  5
FF73
  8
YODOROGO
 10
27844.509588915738
 20
1568.5028573704751
 30
0.0
 11
27937.604341291921
 21
1568.5028573704751
 31
0.0
1001
AUTOCAD_POSTSCRIPT_FIGURE
1002
{
1000
PSFILL
1000
Grayscale
1000
Grayscale
1070
   100
1002
}
  0
LINE
  5
FF74
  8
YODOROGO
 10
27815.546718284771
 20
1495.7494964292871
 30
0.0
 11
27844.509588915738
 21
1568.5028573704751
 31
0.0
1001
AUTOCAD_POSTSCRIPT_FIGURE
1002
{
1000
PSFILL
1000
Grayscale
1000
Grayscale
1070
   100
1002
}
  0
LINE
  5
FF75
  8
YODOROGO
 10
27902.054790808648
 20
1495.7494964292871
 30
0.0
 11
27815.546718284771
 21
1495.7494964292871
 31
0.0
1001
AUTOCAD_POSTSCRIPT_FIGURE
1002
{
1000
PSFILL
1000
Grayscale
1000
Grayscale
1070
   100
1002
}
  0
LINE
  5
FF76
  8
YODOROGO
 10
27885.065004790951
 20
1536.2338106976929
 30
0.0
 11
27902.054790808648
 21
1495.7494964292871
 31
0.0
1001
AUTOCAD_POSTSCRIPT_FIGURE
1002
{
1000
PSFILL
1000
Grayscale
1000
Grayscale
1070
   100
1002
}
  0
LINE
  5
FF77
  8
YODOROGO
 10
27901.065004790951
 20
1536.2338106976929
 30
0.0
 11
27885.065004790951
 21
1536.2338106976929
 31
0.0
1001
AUTOCAD_POSTSCRIPT_FIGURE
1002
{
1000
PSFILL
1000
Grayscale
1000
Grayscale
1070
   100
1002
}
  0
LINE
  5
FF78
  8
YODOROGO
 10
27929.604341291921
 20
1475.7494964292871
 30
0.0
 11
27901.065004790951
 21
1536.2338106976929
 31
0.0
1001
AUTOCAD_POSTSCRIPT_FIGURE
1002
{
1000
PSFILL
1000
Grayscale
1000
Grayscale
1070
   100
1002
}
  0
LINE
  5
FF79
  8
YODOROGO
 10
27785.604341291921
 20
1475.7494964292871
 30
0.0
 11
27929.604341291921
 21
1475.7494964292871
 31
0.0
1001
AUTOCAD_POSTSCRIPT_FIGURE
1002
{
1000
PSFILL
1000
Grayscale
1000
Grayscale
1070
   100
1002
}
  0
LINE
  5
FF7A
  8
YODOROGO
 10
27777.604341291921
 20
1619.9724140445701
 30
0.0
 11
27777.604341291921
 21
1643.9724140445701
 31
0.0
  0
LINE
  5
FF7B
  8
YODOROGO
 10
27937.604341291921
 20
1643.9724140445701
 30
0.0
 11
27937.604341291921
 21
1619.9724140445701
 31
0.0
  0
ARC
  5
FF7C
  8
YODOROGO
 10
28225.940442146959
 20
1600.877765325326
 30
0.0
 40
175.9999999999998
 50
280.3644312771313
 51
3.5414836592180561
  0
ARC
  5
FF7D
  8
YODOROGO
 10
28235.756030759301
 20
1633.5978069619041
 30
0.0
 40
111.9999999999982
 50
281.24905825041549
 51
348.75094174958321
  0
LINE
  5
FF7E
  8
YODOROGO
 10
28257.604341291921
 20
1523.7494964292871
 30
0.0
 11
28257.604341291921
 21
1427.749496429288
 31
0.0
  0
LINE
  5
FF7F
  8
YODOROGO
 10
28020.088903736909
 20
1610.650565061914
 30
0.0
 11
28040.913204016892
 21
1659.749496429288
 31
0.0
  0
LINE
  5
FF80
  8
YODOROGO
 10
28041.604341291921
 20
1583.120489948401
 30
0.0
 11
28020.088903736909
 21
1610.650565061914
 31
0.0
  0
LINE
  5
FF81
  8
YODOROGO
 10
28041.604341291921
 20
1563.120489948398
 30
0.0
 11
28041.604341291921
 21
1583.120489948401
 31
0.0
  0
LINE
  5
FF82
  8
YODOROGO
 10
28017.604341291921
 20
1585.2370637495301
 30
0.0
 11
28041.604341291921
 21
1563.120489948398
 31
0.0
  0
LINE
  5
FF83
  8
YODOROGO
 10
28017.604341291921
 20
1475.7494964292871
 30
0.0
 11
28017.604341291921
 21
1585.2370637495301
 31
0.0
  0
LINE
  5
FF84
  8
YODOROGO
 10
28001.604341291921
 20
1475.7494964292871
 30
0.0
 11
28017.604341291921
 21
1475.7494964292871
 31
0.0
  0
LINE
  5
FF85
  8
YODOROGO
 10
28001.604341291921
 20
1580.0053496897469
 30
0.0
 11
28001.604341291921
 21
1475.7494964292871
 31
0.0
  0
LINE
  5
FF86
  8
YODOROGO
 10
27977.604341291921
 20
1532.7680790334291
 30
0.0
 11
28001.604341291921
 21
1580.0053496897469
 31
0.0
  0
LINE
  5
FF87
  8
YODOROGO
 10
27977.604341291921
 20
1556.76807903343
 30
0.0
 11
27977.604341291921
 21
1532.7680790334291
 31
0.0
  0
LINE
  5
FF88
  8
YODOROGO
 10
28025.828774291349
 20
1667.749496429285
 30
0.0
 11
27977.604341291921
 21
1556.76807903343
 31
0.0
  0
LINE
  5
FF89
  8
YODOROGO
 10
27977.604341291921
 20
1667.749496429285
 30
0.0
 11
28025.828774291349
 21
1667.749496429285
 31
0.0
  0
LINE
  5
FF8A
  8
YODOROGO
 10
28050.135520230899
 20
1655.5036372746561
 30
0.0
 11
28082.135520230921
 21
1655.5036372746561
 31
0.0
1001
AUTOCAD_POSTSCRIPT_FIGURE
1002
{
1000
PSFILL
1000
Grayscale
1000
Grayscale
1070
   100
1002
}
  0
LINE
  5
FF8B
  8
YODOROGO
 10
28050.135520230899
 20
1631.5036372746561
 30
0.0
 11
28050.135520230899
 21
1655.5036372746561
 31
0.0
1001
AUTOCAD_POSTSCRIPT_FIGURE
1002
{
1000
PSFILL
1000
Grayscale
1000
Grayscale
1070
   100
1002
}
  0
LINE
  5
FF8C
  8
YODOROGO
 10
28082.135520230921
 20
1631.5036372746561
 30
0.0
 11
28050.135520230899
 21
1631.5036372746561
 31
0.0
1001
AUTOCAD_POSTSCRIPT_FIGURE
1002
{
1000
PSFILL
1000
Grayscale
1000
Grayscale
1070
   100
1002
}
  0
LINE
  5
FF8D
  8
YODOROGO
 10
28082.135520230921
 20
1499.749496429288
 30
0.0
 11
28082.135520230921
 21
1631.5036372746561
 31
0.0
1001
AUTOCAD_POSTSCRIPT_FIGURE
1002
{
1000
PSFILL
1000
Grayscale
1000
Grayscale
1070
   100
1002
}
  0
LINE
  5
FF8E
  8
YODOROGO
 10
28050.135520230921
 20
1499.749496429288
 30
0.0
 11
28082.135520230921
 21
1499.749496429288
 31
0.0
1001
AUTOCAD_POSTSCRIPT_FIGURE
1002
{
1000
PSFILL
1000
Grayscale
1000
Grayscale
1070
   100
1002
}
  0
LINE
  5
FF8F
  8
YODOROGO
 10
28050.135520230921
 20
1475.7494964292871
 30
0.0
 11
28050.135520230921
 21
1499.749496429288
 31
0.0
1001
AUTOCAD_POSTSCRIPT_FIGURE
1002
{
1000
PSFILL
1000
Grayscale
1000
Grayscale
1070
   100
1002
}
  0
LINE
  5
FF90
  8
YODOROGO
 10
28137.604341291921
 20
1475.7494964292871
 30
0.0
 11
28050.135520230921
 21
1475.7494964292871
 31
0.0
1001
AUTOCAD_POSTSCRIPT_FIGURE
1002
{
1000
PSFILL
1000
Grayscale
1000
Grayscale
1070
   100
1002
}
  0
LINE
  5
FF91
  8
YODOROGO
 10
28137.604341291921
 20
1499.749496429288
 30
0.0
 11
28137.604341291921
 21
1475.7494964292871
 31
0.0
1001
AUTOCAD_POSTSCRIPT_FIGURE
1002
{
1000
PSFILL
1000
Grayscale
1000
Grayscale
1070
   100
1002
}
  0
LINE
  5
FF92
  8
YODOROGO
 10
28098.135520230931
 20
1499.749496429288
 30
0.0
 11
28137.604341291921
 21
1499.749496429288
 31
0.0
1001
AUTOCAD_POSTSCRIPT_FIGURE
1002
{
1000
PSFILL
1000
Grayscale
1000
Grayscale
1070
   100
1002
}
  0
LINE
  5
FF93
  8
YODOROGO
 10
28098.135520230931
 20
1631.5036372746561
 30
0.0
 11
28098.135520230931
 21
1499.749496429288
 31
0.0
1001
AUTOCAD_POSTSCRIPT_FIGURE
1002
{
1000
PSFILL
1000
Grayscale
1000
Grayscale
1070
   100
1002
}
  0
LINE
  5
FF94
  8
YODOROGO
 10
28137.604341291921
 20
1631.5036372746561
 30
0.0
 11
28098.135520230931
 21
1631.5036372746561
 31
0.0
1001
AUTOCAD_POSTSCRIPT_FIGURE
1002
{
1000
PSFILL
1000
Grayscale
1000
Grayscale
1070
   100
1002
}
  0
LINE
  5
FF95
  8
YODOROGO
 10
28137.604341291921
 20
1655.5036372746561
 30
0.0
 11
28137.604341291921
 21
1631.5036372746561
 31
0.0
1001
AUTOCAD_POSTSCRIPT_FIGURE
1002
{
1000
PSFILL
1000
Grayscale
1000
Grayscale
1070
   100
1002
}
  0
LINE
  5
FF96
  8
YODOROGO
 10
28098.135520230931
 20
1655.5036372746561
 30
0.0
 11
28137.604341291921
 21
1655.5036372746561
 31
0.0
1001
AUTOCAD_POSTSCRIPT_FIGURE
1002
{
1000
PSFILL
1000
Grayscale
1000
Grayscale
1070
   100
1002
}
  0
LINE
  5
FF97
  8
YODOROGO
 10
28401.60434129191
 20
1667.749496429288
 30
0.0
 11
28345.604341291921
 21
1667.749496429288
 31
0.0
  0
LINE
  5
FF98
  8
YODOROGO
 10
28401.60434129191
 20
1611.749496429288
 30
0.0
 11
28401.60434129191
 21
1667.749496429288
 31
0.0
  0
LINE
  5
FF99
  8
YODOROGO
 10
28345.604341291921
 20
1667.749496429288
 30
0.0
 11
28345.604341291921
 21
1611.749496429288
 31
0.0
  0
ARC
  5
FF9A
  8
YODOROGO
 10
28513.60434129191
 20
1507.749496429288
 30
0.0
 40
80.0
 50
180.0
 51
270.0
  0
ARC
  5
FF9B
  8
YODOROGO
 10
28537.604341291921
 20
1563.7494964292871
 30
0.0
 40
40.0
 50
180.0
 51
270.0
  0
LINE
  5
FF9C
  8
YODOROGO
 10
28561.604341291932
 20
1523.7494964292871
 30
0.0
 11
28537.604341291921
 21
1523.7494964292871
 31
0.0
  0
ARC
  5
FF9D
  8
YODOROGO
 10
28561.604341291932
 20
1547.749496429285
 30
0.0
 40
23.999999999996358
 50
270.0
 51
0.0000000000054281
  0
LINE
  5
FF9E
  8
YODOROGO
 10
27801.604341291921
 20
1890.786580793706
 30
0.0
 11
27777.604341291921
 21
1843.776747951672
 31
0.0
1001
AUTOCAD_POSTSCRIPT_FIGURE
1002
{
1000
PSFILL
1000
Grayscale
1000
Grayscale
1070
   100
1002
}
  0
LINE
  5
FF9F
  8
YODOROGO
 10
27801.604341291921
 20
1747.749496429286
 30
0.0
 11
27801.604341291921
 21
1890.786580793706
 31
0.0
1001
AUTOCAD_POSTSCRIPT_FIGURE
1002
{
1000
PSFILL
1000
Grayscale
1000
Grayscale
1070
   100
1002
}
  0
LINE
  5
FFA0
  8
YODOROGO
 10
27817.604341291921
 20
1747.749496429286
 30
0.0
 11
27801.604341291921
 21
1747.749496429286
 31
0.0
1001
AUTOCAD_POSTSCRIPT_FIGURE
1002
{
1000
PSFILL
1000
Grayscale
1000
Grayscale
1070
   100
1002
}
  0
LINE
  5
FFA1
  8
YODOROGO
 10
27817.604341291921
 20
1893.7713320852661
 30
0.0
 11
27817.604341291921
 21
1747.749496429286
 31
0.0
1001
AUTOCAD_POSTSCRIPT_FIGURE
1002
{
1000
PSFILL
1000
Grayscale
1000
Grayscale
1070
   100
1002
}
  0
LINE
  5
FFA2
  8
YODOROGO
 10
27841.604341291921
 20
1867.6547582841361
 30
0.0
 11
27817.604341291921
 21
1893.7713320852661
 31
0.0
1001
AUTOCAD_POSTSCRIPT_FIGURE
1002
{
1000
PSFILL
1000
Grayscale
1000
Grayscale
1070
   100
1002
}
  0
LINE
  5
FFA3
  8
YODOROGO
 10
27841.604341291921
 20
1883.6547582841361
 30
0.0
 11
27841.604341291921
 21
1867.6547582841361
 31
0.0
1001
AUTOCAD_POSTSCRIPT_FIGURE
1002
{
1000
PSFILL
1000
Grayscale
1000
Grayscale
1070
   100
1002
}
  0
LINE
  5
FFA4
  8
YODOROGO
 10
27817.604341291921
 20
1917.7713320852649
 30
0.0
 11
27841.604341291921
 21
1883.6547582841361
 31
0.0
1001
AUTOCAD_POSTSCRIPT_FIGURE
1002
{
1000
PSFILL
1000
Grayscale
1000
Grayscale
1070
   100
1002
}
  0
LINE
  5
FFA5
  8
YODOROGO
 10
27817.604341291921
 20
1939.749496429288
 30
0.0
 11
27817.604341291921
 21
1917.7713320852649
 31
0.0
1001
AUTOCAD_POSTSCRIPT_FIGURE
1002
{
1000
PSFILL
1000
Grayscale
1000
Grayscale
1070
   100
1002
}
  0
LINE
  5
FFA6
  8
YODOROGO
 10
27889.604341291921
 20
1939.749496429288
 30
0.0
 11
27817.604341291921
 21
1939.749496429288
 31
0.0
1001
AUTOCAD_POSTSCRIPT_FIGURE
1002
{
1000
PSFILL
1000
Grayscale
1000
Grayscale
1070
   100
1002
}
  0
LINE
  5
FFA7
  8
YODOROGO
 10
27889.604341291921
 20
1900.5683489363
 30
0.0
 11
27889.604341291921
 21
1939.749496429288
 31
0.0
1001
AUTOCAD_POSTSCRIPT_FIGURE
1002
{
1000
PSFILL
1000
Grayscale
1000
Grayscale
1070
   100
1002
}
  0
LINE
  5
FFA8
  8
YODOROGO
 10
27857.604341291921
 20
1900.5683489363
 30
0.0
 11
27889.604341291921
 21
1900.5683489363
 31
0.0
1001
AUTOCAD_POSTSCRIPT_FIGURE
1002
{
1000
PSFILL
1000
Grayscale
1000
Grayscale
1070
   100
1002
}
  0
LINE
  5
FFA9
  8
YODOROGO
 10
27857.604341291921
 20
1884.568348936298
 30
0.0
 11
27857.604341291921
 21
1900.5683489363
 31
0.0
1001
AUTOCAD_POSTSCRIPT_FIGURE
1002
{
1000
PSFILL
1000
Grayscale
1000
Grayscale
1070
   100
1002
}
  0
LINE
  5
FFAA
  8
YODOROGO
 10
27889.604341291921
 20
1884.568348936298
 30
0.0
 11
27857.604341291921
 21
1884.568348936298
 31
0.0
1001
AUTOCAD_POSTSCRIPT_FIGURE
1002
{
1000
PSFILL
1000
Grayscale
1000
Grayscale
1070
   100
1002
}
  0
LINE
  5
FFAB
  8
YODOROGO
 10
27889.604341291921
 20
1879.6191779644371
 30
0.0
 11
27889.604341291921
 21
1884.568348936298
 31
0.0
1001
AUTOCAD_POSTSCRIPT_FIGURE
1002
{
1000
PSFILL
1000
Grayscale
1000
Grayscale
1070
   100
1002
}
  0
LINE
  5
FFAC
  8
YODOROGO
 10
27849.604341291921
 20
1812.974981161417
 30
0.0
 11
27889.604341291921
 21
1879.6191779644371
 31
0.0
1001
AUTOCAD_POSTSCRIPT_FIGURE
1002
{
1000
PSFILL
1000
Grayscale
1000
Grayscale
1070
   100
1002
}
  0
LINE
  5
FFAD
  8
YODOROGO
 10
27849.604341291921
 20
1796.9749811614161
 30
0.0
 11
27849.604341291921
 21
1812.974981161417
 31
0.0
1001
AUTOCAD_POSTSCRIPT_FIGURE
1002
{
1000
PSFILL
1000
Grayscale
1000
Grayscale
1070
   100
1002
}
  0
LINE
  5
FFAE
  8
YODOROGO
 10
27889.604341291921
 20
1847.6191779644359
 30
0.0
 11
27849.604341291921
 21
1796.9749811614161
 31
0.0
1001
AUTOCAD_POSTSCRIPT_FIGURE
1002
{
1000
PSFILL
1000
Grayscale
1000
Grayscale
1070
   100
1002
}
  0
LINE
  5
FFAF
  8
YODOROGO
 10
27889.604341291921
 20
1747.749496429286
 30
0.0
 11
27889.604341291921
 21
1847.6191779644359
 31
0.0
1001
AUTOCAD_POSTSCRIPT_FIGURE
1002
{
1000
PSFILL
1000
Grayscale
1000
Grayscale
1070
   100
1002
}
  0
LINE
  5
FFB0
  8
YODOROGO
 10
27905.604341291921
 20
1747.749496429286
 30
0.0
 11
27889.604341291921
 21
1747.749496429286
 31
0.0
1001
AUTOCAD_POSTSCRIPT_FIGURE
1002
{
1000
PSFILL
1000
Grayscale
1000
Grayscale
1070
   100
1002
}
  0
LINE
  5
FFB1
  8
YODOROGO
 10
27905.604341291921
 20
1849.409012158806
 30
0.0
 11
27905.604341291921
 21
1747.749496429286
 31
0.0
1001
AUTOCAD_POSTSCRIPT_FIGURE
1002
{
1000
PSFILL
1000
Grayscale
1000
Grayscale
1070
   100
1002
}
  0
LINE
  5
FFB2
  8
YODOROGO
 10
27937.604341291921
 20
1796.9749811614161
 30
0.0
 11
27905.604341291921
 21
1849.409012158806
 31
0.0
1001
AUTOCAD_POSTSCRIPT_FIGURE
1002
{
1000
PSFILL
1000
Grayscale
1000
Grayscale
1070
   100
1002
}
  0
LINE
  5
FFB3
  8
YODOROGO
 10
27937.604341291921
 20
1812.974981161417
 30
0.0
 11
27937.604341291921
 21
1796.9749811614161
 31
0.0
1001
AUTOCAD_POSTSCRIPT_FIGURE
1002
{
1000
PSFILL
1000
Grayscale
1000
Grayscale
1070
   100
1002
}
  0
LINE
  5
FFB4
  8
YODOROGO
 10
27905.604341291921
 20
1881.4090121588081
 30
0.0
 11
27937.604341291921
 21
1812.974981161417
 31
0.0
1001
AUTOCAD_POSTSCRIPT_FIGURE
1002
{
1000
PSFILL
1000
Grayscale
1000
Grayscale
1070
   100
1002
}
  0
LINE
  5
FFB5
  8
YODOROGO
 10
27905.604341291921
 20
1884.5683489363
 30
0.0
 11
27905.604341291921
 21
1881.4090121588081
 31
0.0
1001
AUTOCAD_POSTSCRIPT_FIGURE
1002
{
1000
PSFILL
1000
Grayscale
1000
Grayscale
1070
   100
1002
}
  0
LINE
  5
FFB6
  8
YODOROGO
 10
27937.604341291921
 20
1884.568348936298
 30
0.0
 11
27905.604341291921
 21
1884.5683489363
 31
0.0
1001
AUTOCAD_POSTSCRIPT_FIGURE
1002
{
1000
PSFILL
1000
Grayscale
1000
Grayscale
1070
   100
1002
}
  0
LINE
  5
FFB7
  8
YODOROGO
 10
27937.604341291921
 20
1900.5683489363
 30
0.0
 11
27937.604341291921
 21
1884.568348936298
 31
0.0
1001
AUTOCAD_POSTSCRIPT_FIGURE
1002
{
1000
PSFILL
1000
Grayscale
1000
Grayscale
1070
   100
1002
}
  0
LINE
  5
FFB8
  8
YODOROGO
 10
27905.604341291921
 20
1900.5683489363
 30
0.0
 11
27937.604341291921
 21
1900.5683489363
 31
0.0
1001
AUTOCAD_POSTSCRIPT_FIGURE
1002
{
1000
PSFILL
1000
Grayscale
1000
Grayscale
1070
   100
1002
}
  0
LINE
  5
FFB9
  8
YODOROGO
 10
27905.604341291921
 20
1939.749496429288
 30
0.0
 11
27905.604341291921
 21
1900.5683489363
 31
0.0
1001
AUTOCAD_POSTSCRIPT_FIGURE
1002
{
1000
PSFILL
1000
Grayscale
1000
Grayscale
1070
   100
1002
}
  0
LINE
  5
FFBA
  8
YODOROGO
 10
27937.604341291921
 20
1939.749496429288
 30
0.0
 11
27905.604341291921
 21
1939.749496429288
 31
0.0
1001
AUTOCAD_POSTSCRIPT_FIGURE
1002
{
1000
PSFILL
1000
Grayscale
1000
Grayscale
1070
   100
1002
}
  0
LINE
  5
FFBB
  8
YODOROGO
 10
27937.604341291921
 20
1955.7494964292871
 30
0.0
 11
27937.604341291921
 21
1939.749496429288
 31
0.0
1001
AUTOCAD_POSTSCRIPT_FIGURE
1002
{
1000
PSFILL
1000
Grayscale
1000
Grayscale
1070
   100
1002
}
  0
LINE
  5
FFBC
  8
YODOROGO
 10
27905.604341291921
 20
1955.7494964292871
 30
0.0
 11
27937.604341291921
 21
1955.7494964292871
 31
0.0
1001
AUTOCAD_POSTSCRIPT_FIGURE
1002
{
1000
PSFILL
1000
Grayscale
1000
Grayscale
1070
   100
1002
}
  0
LINE
  5
FFBD
  8
YODOROGO
 10
27905.604341291921
 20
1979.749496429288
 30
0.0
 11
27905.604341291921
 21
1955.7494964292871
 31
0.0
1001
AUTOCAD_POSTSCRIPT_FIGURE
1002
{
1000
PSFILL
1000
Grayscale
1000
Grayscale
1070
   100
1002
}
  0
LINE
  5
FFBE
  8
YODOROGO
 10
27889.604341291921
 20
1979.749496429288
 30
0.0
 11
27905.604341291921
 21
1979.749496429288
 31
0.0
1001
AUTOCAD_POSTSCRIPT_FIGURE
1002
{
1000
PSFILL
1000
Grayscale
1000
Grayscale
1070
   100
1002
}
  0
LINE
  5
FFBF
  8
YODOROGO
 10
27889.604341291921
 20
1955.7494964292871
 30
0.0
 11
27889.604341291921
 21
1979.749496429288
 31
0.0
1001
AUTOCAD_POSTSCRIPT_FIGURE
1002
{
1000
PSFILL
1000
Grayscale
1000
Grayscale
1070
   100
1002
}
  0
LINE
  5
FFC0
  8
YODOROGO
 10
27865.604341291921
 20
1955.7494964292871
 30
0.0
 11
27889.604341291921
 21
1955.7494964292871
 31
0.0
1001
AUTOCAD_POSTSCRIPT_FIGURE
1002
{
1000
PSFILL
1000
Grayscale
1000
Grayscale
1070
   100
1002
}
  0
LINE
  5
FFC1
  8
YODOROGO
 10
27865.604341291921
 20
1979.749496429288
 30
0.0
 11
27865.604341291921
 21
1955.7494964292871
 31
0.0
1001
AUTOCAD_POSTSCRIPT_FIGURE
1002
{
1000
PSFILL
1000
Grayscale
1000
Grayscale
1070
   100
1002
}
  0
LINE
  5
FFC2
  8
YODOROGO
 10
27849.604341291921
 20
1979.749496429288
 30
0.0
 11
27865.604341291921
 21
1979.749496429288
 31
0.0
1001
AUTOCAD_POSTSCRIPT_FIGURE
1002
{
1000
PSFILL
1000
Grayscale
1000
Grayscale
1070
   100
1002
}
  0
LINE
  5
FFC3
  8
YODOROGO
 10
27849.604341291921
 20
1955.7494964292871
 30
0.0
 11
27849.604341291921
 21
1979.749496429288
 31
0.0
1001
AUTOCAD_POSTSCRIPT_FIGURE
1002
{
1000
PSFILL
1000
Grayscale
1000
Grayscale
1070
   100
1002
}
  0
LINE
  5
FFC4
  8
YODOROGO
 10
27817.604341291921
 20
1955.7494964292871
 30
0.0
 11
27849.604341291921
 21
1955.7494964292871
 31
0.0
1001
AUTOCAD_POSTSCRIPT_FIGURE
1002
{
1000
PSFILL
1000
Grayscale
1000
Grayscale
1070
   100
1002
}
  0
LINE
  5
FFC5
  8
YODOROGO
 10
27817.604341291921
 20
1979.749496429288
 30
0.0
 11
27817.604341291921
 21
1955.7494964292871
 31
0.0
1001
AUTOCAD_POSTSCRIPT_FIGURE
1002
{
1000
PSFILL
1000
Grayscale
1000
Grayscale
1070
   100
1002
}
  0
LINE
  5
FFC6
  8
YODOROGO
 10
27801.604341291921
 20
1979.749496429288
 30
0.0
 11
27817.604341291921
 21
1979.749496429288
 31
0.0
1001
AUTOCAD_POSTSCRIPT_FIGURE
1002
{
1000
PSFILL
1000
Grayscale
1000
Grayscale
1070
   100
1002
}
  0
LINE
  5
FFC7
  8
YODOROGO
 10
27801.604341291921
 20
1955.7494964292871
 30
0.0
 11
27801.604341291921
 21
1979.749496429288
 31
0.0
1001
AUTOCAD_POSTSCRIPT_FIGURE
1002
{
1000
PSFILL
1000
Grayscale
1000
Grayscale
1070
   100
1002
}
  0
LINE
  5
FFC8
  8
YODOROGO
 10
27777.604341291921
 20
1955.7494964292871
 30
0.0
 11
27801.604341291921
 21
1955.7494964292871
 31
0.0
1001
AUTOCAD_POSTSCRIPT_FIGURE
1002
{
1000
PSFILL
1000
Grayscale
1000
Grayscale
1070
   100
1002
}
  0
LINE
  5
FFC9
  8
YODOROGO
 10
27777.604341291921
 20
1939.749496429288
 30
0.0
 11
27777.604341291921
 21
1955.7494964292871
 31
0.0
1001
AUTOCAD_POSTSCRIPT_FIGURE
1002
{
1000
PSFILL
1000
Grayscale
1000
Grayscale
1070
   100
1002
}
  0
LINE
  5
FFCA
  8
YODOROGO
 10
27801.604341291921
 20
1939.749496429288
 30
0.0
 11
27777.604341291921
 21
1939.749496429288
 31
0.0
1001
AUTOCAD_POSTSCRIPT_FIGURE
1002
{
1000
PSFILL
1000
Grayscale
1000
Grayscale
1070
   100
1002
}
  0
LINE
  5
FFCB
  8
YODOROGO
 10
27801.604341291921
 20
1914.7865807937051
 30
0.0
 11
27801.604341291921
 21
1939.749496429288
 31
0.0
1001
AUTOCAD_POSTSCRIPT_FIGURE
1002
{
1000
PSFILL
1000
Grayscale
1000
Grayscale
1070
   100
1002
}
  0
LINE
  5
FFCC
  8
YODOROGO
 10
27777.604341291921
 20
1859.776747951671
 30
0.0
 11
27801.604341291921
 21
1914.7865807937051
 31
0.0
1001
AUTOCAD_POSTSCRIPT_FIGURE
1002
{
1000
PSFILL
1000
Grayscale
1000
Grayscale
1070
   100
1002
}
  0
LINE
  5
FFCD
  8
YODOROGO
 10
27777.604341291921
 20
1843.776747951672
 30
0.0
 11
27777.604341291921
 21
1859.776747951671
 31
0.0
1001
AUTOCAD_POSTSCRIPT_FIGURE
1002
{
1000
PSFILL
1000
Grayscale
1000
Grayscale
1070
   100
1002
}
  0
LINE
  5
FFCE
  8
YODOROGO
 10
28257.604341291921
 20
1867.7494964292871
 30
0.0
 11
28401.60434129191
 21
1824.877625640306
 31
0.0
1001
AUTOCAD_POSTSCRIPT_FIGURE
1002
{
1000
PSFILL
1000
Grayscale
1000
Grayscale
1070
   100
1002
}
  0
LINE
  5
FFCF
  8
YODOROGO
 10
28401.60434129191
 20
1752.877625640306
 30
0.0
 11
28257.604341291921
 21
1795.7494964292871
 31
0.0
1001
AUTOCAD_POSTSCRIPT_FIGURE
1002
{
1000
PSFILL
1000
Grayscale
1000
Grayscale
1070
   100
1002
}
  0
LINE
  5
FFD0
  8
YODOROGO
 10
28401.60434129191
 20
1984.877625640306
 30
0.0
 11
28257.604341291921
 21
2027.749496429288
 31
0.0
1001
AUTOCAD_POSTSCRIPT_FIGURE
1002
{
1000
PSFILL
1000
Grayscale
1000
Grayscale
1070
   100
1002
}
  0
LINE
  5
FFD1
  8
YODOROGO
 10
28257.604341291921
 20
1959.749496429288
 30
0.0
 11
28401.60434129191
 21
1916.8776256403071
 31
0.0
1001
AUTOCAD_POSTSCRIPT_FIGURE
1002
{
1000
PSFILL
1000
Grayscale
1000
Grayscale
1070
   100
1002
}
  0
LINE
  5
FFD2
  8
YODOROGO
 10
28257.604341291921
 20
1795.7494964292871
 30
0.0
 11
28257.604341291921
 21
1867.7494964292871
 31
0.0
1001
AUTOCAD_POSTSCRIPT_FIGURE
1002
{
1000
PSFILL
1000
Grayscale
1000
Grayscale
1070
   100
1002
}
  0
LINE
  5
FFD3
  8
YODOROGO
 10
28257.604341291921
 20
2027.749496429288
 30
0.0
 11
28257.604341291921
 21
1959.749496429288
 31
0.0
1001
AUTOCAD_POSTSCRIPT_FIGURE
1002
{
1000
PSFILL
1000
Grayscale
1000
Grayscale
1070
   100
1002
}
  0
LINE
  5
FFD4
  8
YODOROGO
 10
28080.236320206739
 20
1939.749496429288
 30
0.0
 11
28129.60434129191
 21
1747.749496429286
 31
0.0
1001
AUTOCAD_POSTSCRIPT_FIGURE
1002
{
1000
PSFILL
1000
Grayscale
1000
Grayscale
1070
   100
1002
}
  0
LINE
  5
FFD5
  8
YODOROGO
 10
27977.604341291921
 20
1939.749496429288
 30
0.0
 11
28080.236320206739
 21
1939.749496429288
 31
0.0
1001
AUTOCAD_POSTSCRIPT_FIGURE
1002
{
1000
PSFILL
1000
Grayscale
1000
Grayscale
1070
   100
1002
}
  0
LINE
  5
FFD6
  8
YODOROGO
 10
27977.604341291921
 20
1955.7494964292871
 30
0.0
 11
27977.604341291921
 21
1939.749496429288
 31
0.0
1001
AUTOCAD_POSTSCRIPT_FIGURE
1002
{
1000
PSFILL
1000
Grayscale
1000
Grayscale
1070
   100
1002
}
  0
LINE
  5
FFD7
  8
YODOROGO
 10
28076.60687851991
 20
1955.7494964292871
 30
0.0
 11
27977.604341291921
 21
1955.7494964292871
 31
0.0
1001
AUTOCAD_POSTSCRIPT_FIGURE
1002
{
1000
PSFILL
1000
Grayscale
1000
Grayscale
1070
   100
1002
}
  0
LINE
  5
FFD8
  8
YODOROGO
 10
28071.162715989711
 20
1979.749496429288
 30
0.0
 11
28076.60687851991
 21
1955.7494964292871
 31
0.0
1001
AUTOCAD_POSTSCRIPT_FIGURE
1002
{
1000
PSFILL
1000
Grayscale
1000
Grayscale
1070
   100
1002
}
  0
LINE
  5
FFD9
  8
YODOROGO
 10
28091.162715989711
 20
1979.749496429288
 30
0.0
 11
28071.162715989711
 21
1979.749496429288
 31
0.0
1001
AUTOCAD_POSTSCRIPT_FIGURE
1002
{
1000
PSFILL
1000
Grayscale
1000
Grayscale
1070
   100
1002
}
  0
LINE
  5
FFDA
  8
YODOROGO
 10
28095.806878519939
 20
1955.7494964292871
 30
0.0
 11
28091.162715989711
 21
1979.749496429288
 31
0.0
1001
AUTOCAD_POSTSCRIPT_FIGURE
1002
{
1000
PSFILL
1000
Grayscale
1000
Grayscale
1070
   100
1002
}
  0
LINE
  5
FFDB
  8
YODOROGO
 10
28121.604341291921
 20
1955.7494964292871
 30
0.0
 11
28095.806878519939
 21
1955.7494964292871
 31
0.0
1001
AUTOCAD_POSTSCRIPT_FIGURE
1002
{
1000
PSFILL
1000
Grayscale
1000
Grayscale
1070
   100
1002
}
  0
LINE
  5
FFDC
  8
YODOROGO
 10
28121.604341291921
 20
1979.749496429288
 30
0.0
 11
28121.604341291921
 21
1955.7494964292871
 31
0.0
1001
AUTOCAD_POSTSCRIPT_FIGURE
1002
{
1000
PSFILL
1000
Grayscale
1000
Grayscale
1070
   100
1002
}
  0
LINE
  5
FFDD
  8
YODOROGO
 10
28137.604341291921
 20
1979.749496429288
 30
0.0
 11
28121.604341291921
 21
1979.749496429288
 31
0.0
1001
AUTOCAD_POSTSCRIPT_FIGURE
1002
{
1000
PSFILL
1000
Grayscale
1000
Grayscale
1070
   100
1002
}
  0
LINE
  5
FFDE
  8
YODOROGO
 10
28137.604341291921
 20
1955.7494964292871
 30
0.0
 11
28137.604341291921
 21
1979.749496429288
 31
0.0
1001
AUTOCAD_POSTSCRIPT_FIGURE
1002
{
1000
PSFILL
1000
Grayscale
1000
Grayscale
1070
   100
1002
}
  0
LINE
  5
FFDF
  8
YODOROGO
 10
28137.604341291921
 20
1939.749496429288
 30
0.0
 11
28137.604341291921
 21
1955.7494964292871
 31
0.0
1001
AUTOCAD_POSTSCRIPT_FIGURE
1002
{
1000
PSFILL
1000
Grayscale
1000
Grayscale
1070
   100
1002
}
  0
LINE
  5
FFE0
  8
YODOROGO
 10
28098.902986873411
 20
1939.749496429288
 30
0.0
 11
28137.604341291921
 21
1939.749496429288
 31
0.0
1001
AUTOCAD_POSTSCRIPT_FIGURE
1002
{
1000
PSFILL
1000
Grayscale
1000
Grayscale
1070
   100
1002
}
  0
LINE
  5
FFE1
  8
YODOROGO
 10
28137.604341291921
 20
1747.749496429286
 30
0.0
 11
28098.902986873411
 21
1939.749496429288
 31
0.0
1001
AUTOCAD_POSTSCRIPT_FIGURE
1002
{
1000
PSFILL
1000
Grayscale
1000
Grayscale
1070
   100
1002
}
  0
LINE
  5
FFE2
  8
YODOROGO
 10
28129.60434129191
 20
1747.749496429286
 30
0.0
 11
28137.604341291921
 21
1747.749496429286
 31
0.0
1001
AUTOCAD_POSTSCRIPT_FIGURE
1002
{
1000
PSFILL
1000
Grayscale
1000
Grayscale
1070
   100
1002
}
  0
LINE
  5
FFE3
  8
YODOROGO
 10
28078.06921993379
 20
1775.7407762987939
 30
0.0
 11
27977.604341291921
 21
1747.749496429286
 31
0.0
  0
LINE
  5
FFE4
  8
YODOROGO
 10
28078.06921993379
 20
1798.6689795290731
 30
0.0
 11
28078.06921993379
 21
1775.7407762987939
 31
0.0
  0
LINE
  5
FFE5
  8
YODOROGO
 10
28033.83678061287
 20
1786.816933133767
 30
0.0
 11
28078.06921993379
 21
1798.6689795290731
 31
0.0
  0
LINE
  5
FFE6
  8
YODOROGO
 10
28033.83678061287
 20
1872.5683489362989
 30
0.0
 11
28033.83678061287
 21
1786.816933133767
 31
0.0
  0
LINE
  5
FFE7
  8
YODOROGO
 10
28078.06921993379
 20
1872.5683489362989
 30
0.0
 11
28033.83678061287
 21
1872.5683489362989
 31
0.0
  0
LINE
  5
FFE8
  8
YODOROGO
 10
28078.06921993379
 20
1892.568348936298
 30
0.0
 11
28078.06921993379
 21
1872.5683489362989
 31
0.0
  0
LINE
  5
FFE9
  8
YODOROGO
 10
27977.604341291921
 20
1892.568348936298
 30
0.0
 11
28078.06921993379
 21
1892.568348936298
 31
0.0
  0
LINE
  5
FFEA
  8
YODOROGO
 10
27977.604341291921
 20
1872.5683489362989
 30
0.0
 11
27977.604341291921
 21
1892.568348936298
 31
0.0
  0
LINE
  5
FFEB
  8
YODOROGO
 10
28021.836780612852
 20
1872.5683489362989
 30
0.0
 11
27977.604341291921
 21
1872.5683489362989
 31
0.0
  0
LINE
  5
FFEC
  8
YODOROGO
 10
28021.836780612852
 20
1784.673339594317
 30
0.0
 11
28021.836780612852
 21
1872.5683489362989
 31
0.0
  0
LINE
  5
FFED
  8
YODOROGO
 10
27977.604341291921
 20
1771.749496429286
 30
0.0
 11
28021.836780612852
 21
1784.673339594317
 31
0.0
  0
LINE
  5
FFEE
  8
YODOROGO
 10
27977.604341291921
 20
1747.749496429286
 30
0.0
 11
27977.604341291921
 21
1771.749496429286
 31
0.0
  0
LINE
  5
FFEF
  8
YODOROGO
 10
28001.604341291921
 20
1707.749496429288
 30
0.0
 11
28001.604341291921
 21
1683.7494964292871
 31
0.0
  0
LINE
  5
FFF0
  8
YODOROGO
 10
28017.604341291921
 20
1707.749496429288
 30
0.0
 11
28001.604341291921
 21
1707.749496429288
 31
0.0
  0
LINE
  5
FFF1
  8
YODOROGO
 10
28017.604341291921
 20
1683.7494964292871
 30
0.0
 11
28017.604341291921
 21
1707.749496429288
 31
0.0
  0
LINE
  5
FFF2
  8
YODOROGO
 10
28040.913204016892
 20
1683.7494964292871
 30
0.0
 11
28017.604341291921
 21
1683.7494964292871
 31
0.0
  0
LINE
  5
FFF3
  8
YODOROGO
 10
28001.604341291921
 20
1683.7494964292871
 30
0.0
 11
27977.604341291921
 21
1683.7494964292871
 31
0.0
  0
LINE
  5
FFF4
  8
YODOROGO
 10
28082.135520230921
 20
1707.749496429288
 30
0.0
 11
28098.135520230931
 21
1707.749496429288
 31
0.0
1001
AUTOCAD_POSTSCRIPT_FIGURE
1002
{
1000
PSFILL
1000
Grayscale
1000
Grayscale
1070
   100
1002
}
  0
LINE
  5
FFF5
  8
YODOROGO
 10
28401.60434129191
 20
1824.877625640306
 30
0.0
 11
28401.60434129191
 21
1752.877625640306
 31
0.0
1001
AUTOCAD_POSTSCRIPT_FIGURE
1002
{
1000
PSFILL
1000
Grayscale
1000
Grayscale
1070
   100
1002
}
  0
LINE
  5
FFF6
  8
YODOROGO
 10
28401.60434129191
 20
1916.8776256403071
 30
0.0
 11
28401.60434129191
 21
1984.877625640306
 31
0.0
1001
AUTOCAD_POSTSCRIPT_FIGURE
1002
{
1000
PSFILL
1000
Grayscale
1000
Grayscale
1070
   100
1002
}
  0
LINE
  5
FFF7
  8
YODOROGO
 10
28433.60434129191
 20
1819.7494964292871
 30
0.0
 11
28433.60434129191
 21
1747.74949642929
 31
0.0
  0
LINE
  5
FFF8
  8
YODOROGO
 10
28497.60434129191
 20
1707.749496429288
 30
0.0
 11
28433.60434129191
 21
1707.749496429288
 31
0.0
  0
LINE
  5
FFF9
  8
YODOROGO
 10
28433.60434129191
 20
1747.74949642929
 30
0.0
 11
28585.604341291921
 21
1747.74949642929
 31
0.0
  0
LINE
  5
FFFA
  8
YODOROGO
 10
28497.60434129191
 20
1867.7494964292871
 30
0.0
 11
28433.60434129191
 21
1867.7494964292871
 31
0.0
  0
LINE
  5
FFFB
  8
YODOROGO
 10
28497.60434129191
 20
1923.7494964292871
 30
0.0
 11
28497.60434129191
 21
1867.7494964292871
 31
0.0
  0
LINE
  5
FFFC
  8
YODOROGO
 10
28585.604341291921
 20
1987.7494964292871
 30
0.0
 11
28585.604341291921
 21
2027.749496429288
 31
0.0
  0
LINE
  5
FFFD
  8
YODOROGO
 10
28433.60434129191
 20
1987.7494964292871
 30
0.0
 11
28585.604341291921
 21
1987.7494964292871
 31
0.0
  0
LINE
  5
FFFE
  8
YODOROGO
 10
28433.60434129191
 20
1867.7494964292871
 30
0.0
 11
28433.60434129191
 21
1987.7494964292871
 31
0.0
  0
LINE
  5
FFFF
  8
YODOROGO
 10
29001.60434129191
 20
2027.749496429288
 30
0.0
 11
29001.60434129191
 21
1619.749496429288
 31
0.0
  0
LINE
  5
10000
  8
YODOROGO
 10
29073.604341291921
 20
1579.749496429288
 30
0.0
 11
29073.604341291921
 21
2027.749496429288
 31
0.0
  0
LINE
  5
10001
  8
YODOROGO
 10
29261.604341291921
 20
1491.749496429286
 30
0.0
 11
29261.604341291921
 21
2007.749496429288
 31
0.0
  0
LINE
  5
10002
  8
YODOROGO
 10
29197.604341291921
 20
2007.749496429288
 30
0.0
 11
29197.604341291921
 21
1491.749496429286
 31
0.0
  0
LINE
  5
10003
  8
YODOROGO
 10
29385.604341291921
 20
2027.749496429288
 30
0.0
 11
29385.604341291921
 21
1427.749496429288
 31
0.0
  0
LINE
  5
10004
  8
YODOROGO
 10
29457.604341291921
 20
1427.749496429288
 30
0.0
 11
29457.604341291921
 21
2027.749496429288
 31
0.0
  0
LINE
  5
10005
  8
YODOROGO
 10
28657.604341291921
 20
1667.749496429288
 30
0.0
 11
28657.604341291921
 21
1747.74949642929
 31
0.0
  0
LINE
  5
10006
  8
YODOROGO
 10
29885.604341291921
 20
1707.749496429288
 30
0.0
 11
29885.604341291921
 21
1667.749496429288
 31
0.0
  0
LINE
  5
10007
  8
YODOROGO
 10
29885.604341291921
 20
1707.749496429288
 30
0.0
 11
29885.604341291921
 21
1667.749496429288
 31
0.0
  0
ARC
  5
10008
  8
YODOROGO
 10
28906.911576186842
 20
1618.217864442272
 30
0.0
 40
94.705151178741644
 50
274.05244162907098
 51
0.9266642149310712
  0
ARC
  5
10009
  8
YODOROGO
 10
28909.186170719819
 20
1592.61072861044
 30
0.0
 40
164.92042356085511
 50
271.5351210653775
 51
355.52727750585052
  0
LINE
  5
1000A
  8
YODOROGO
 10
28913.604341291921
 20
1523.7494964292871
 30
0.0
 11
28913.604341291921
 21
1427.749496429288
 31
0.0
  0
LINE
  5
1000B
  8
YODOROGO
 10
28793.60434129191
 20
1667.749496429288
 30
0.0
 11
28657.604341291921
 21
1667.749496429288
 31
0.0
  0
LINE
  5
1000C
  8
YODOROGO
 10
28793.60434129191
 20
1603.7494964292871
 30
0.0
 11
28793.60434129191
 21
1667.749496429288
 31
0.0
  0
LINE
  5
1000D
  8
YODOROGO
 10
28657.604341291921
 20
1603.7494964292871
 30
0.0
 11
28793.60434129191
 21
1603.7494964292871
 31
0.0
  0
LINE
  5
1000E
  8
YODOROGO
 10
28657.604341291921
 20
1523.7494964292871
 30
0.0
 11
28657.604341291921
 21
1603.7494964292871
 31
0.0
  0
LINE
  5
1000F
  8
YODOROGO
 10
28793.60434129191
 20
1523.7494964292871
 30
0.0
 11
28657.604341291921
 21
1523.7494964292871
 31
0.0
  0
LINE
  5
10010
  8
YODOROGO
 10
28793.60434129191
 20
1427.749496429288
 30
0.0
 11
28793.60434129191
 21
1523.7494964292871
 31
0.0
  0
LINE
  5
10011
  8
YODOROGO
 10
29197.604341291921
 20
1491.749496429286
 30
0.0
 11
29261.604341291921
 21
1491.749496429286
 31
0.0
  0
LINE
  5
10012
  8
YODOROGO
 10
29385.604341291921
 20
1427.749496429288
 30
0.0
 11
29457.604341291921
 21
1427.749496429288
 31
0.0
  0
LINE
  5
10013
  8
YODOROGO
 10
29737.604341291921
 20
1528.4414521705639
 30
0.0
 11
29737.604341291921
 21
1427.749496429288
 31
0.0
  0
LINE
  5
10014
  8
YODOROGO
 10
29617.604341291921
 20
1427.749496429288
 30
0.0
 11
29737.604341291921
 21
1528.4414521705639
 31
0.0
  0
LINE
  5
10015
  8
YODOROGO
 10
29617.604341291921
 20
1547.749496429288
 30
0.0
 11
29617.604341291921
 21
1427.749496429288
 31
0.0
  0
LINE
  5
10016
  8
YODOROGO
 10
29712.94462869945
 20
1627.749496429288
 30
0.0
 11
29617.604341291921
 21
1547.749496429288
 31
0.0
  0
LINE
  5
10017
  8
YODOROGO
 10
29617.604341291921
 20
1627.749496429288
 30
0.0
 11
29712.94462869945
 21
1627.749496429288
 31
0.0
  0
LINE
  5
10018
  8
YODOROGO
 10
29617.604341291921
 20
1667.749496429288
 30
0.0
 11
29617.604341291921
 21
1627.749496429288
 31
0.0
  0
LINE
  5
10019
  8
YODOROGO
 10
29885.604341291921
 20
1667.749496429288
 30
0.0
 11
29617.604341291921
 21
1667.749496429288
 31
0.0
  0
LINE
  5
1001A
  8
YODOROGO
 10
29917.604341291921
 20
1627.749496429288
 30
0.0
 11
29777.604341291921
 21
1627.749496429288
 31
0.0
  0
LINE
  5
1001B
  8
YODOROGO
 10
29777.604341291921
 20
1562.0054374176559
 30
0.0
 11
29771.409872985321
 21
1556.807661346234
 31
0.0
  0
LINE
  5
1001C
  8
YODOROGO
 10
29777.604341291921
 20
1627.749496429288
 30
0.0
 11
29777.604341291921
 21
1562.0054374176559
 31
0.0
  0
LINE
  5
1001D
  8
YODOROGO
 10
29737.604341291921
 20
1528.4414521705639
 30
0.0
 11
29737.604341291921
 21
1427.749496429288
 31
0.0
  0
LINE
  5
1001E
  8
YODOROGO
 10
29617.604341291921
 20
1427.749496429288
 30
0.0
 11
29737.604341291921
 21
1528.4414521705639
 31
0.0
  0
LINE
  5
1001F
  8
YODOROGO
 10
29617.604341291921
 20
1547.749496429288
 30
0.0
 11
29617.604341291921
 21
1427.749496429288
 31
0.0
  0
LINE
  5
10020
  8
YODOROGO
 10
29712.94462869945
 20
1627.749496429288
 30
0.0
 11
29617.604341291921
 21
1547.749496429288
 31
0.0
  0
LINE
  5
10021
  8
YODOROGO
 10
29617.604341291921
 20
1627.749496429288
 30
0.0
 11
29712.94462869945
 21
1627.749496429288
 31
0.0
  0
LINE
  5
10022
  8
YODOROGO
 10
29617.604341291921
 20
1667.749496429288
 30
0.0
 11
29617.604341291921
 21
1627.749496429288
 31
0.0
  0
LINE
  5
10023
  8
YODOROGO
 10
29885.604341291921
 20
1667.749496429288
 30
0.0
 11
29617.604341291921
 21
1667.749496429288
 31
0.0
  0
LINE
  5
10024
  8
YODOROGO
 10
28793.60434129191
 20
1747.74949642929
 30
0.0
 11
28793.60434129191
 21
1819.7494964292871
 31
0.0
  0
LINE
  5
10025
  8
YODOROGO
 10
28657.604341291921
 20
1747.74949642929
 30
0.0
 11
28793.60434129191
 21
1747.74949642929
 31
0.0
  0
LINE
  5
10026
  8
YODOROGO
 10
28729.604341291921
 20
1867.7494964292871
 30
0.0
 11
28729.604341291921
 21
1923.7494964292871
 31
0.0
  0
LINE
  5
10027
  8
YODOROGO
 10
28793.60434129191
 20
1867.7494964292871
 30
0.0
 11
28729.604341291921
 21
1867.7494964292871
 31
0.0
  0
LINE
  5
10028
  8
YODOROGO
 10
28793.60434129191
 20
1947.749496429288
 30
0.0
 11
28793.60434129191
 21
1867.7494964292871
 31
0.0
  0
ARC
  5
10029
  8
YODOROGO
 10
28753.60434129191
 20
1947.749496429288
 30
0.0
 40
40.0
 50
0.0
 51
90.0
  0
LINE
  5
1002A
  8
YODOROGO
 10
28657.604341291921
 20
1987.7494964292871
 30
0.0
 11
28753.60434129191
 21
1987.7494964292871
 31
0.0
  0
LINE
  5
1002B
  8
YODOROGO
 10
28657.604341291921
 20
2027.749496429288
 30
0.0
 11
28657.604341291921
 21
1987.7494964292871
 31
0.0
  0
LINE
  5
1002C
  8
YODOROGO
 10
29073.604341291921
 20
2027.749496429288
 30
0.0
 11
29001.60434129191
 21
2027.749496429288
 31
0.0
  0
LINE
  5
1002D
  8
YODOROGO
 10
29261.604341291921
 20
2007.749496429288
 30
0.0
 11
29197.604341291921
 21
2007.749496429288
 31
0.0
  0
LINE
  5
1002E
  8
YODOROGO
 10
29457.604341291921
 20
2027.749496429288
 30
0.0
 11
29385.604341291921
 21
2027.749496429288
 31
0.0
  0
LINE
  5
1002F
  8
YODOROGO
 10
29673.604341291921
 20
1707.749496429288
 30
0.0
 11
29673.604341291921
 21
1771.7494964292871
 31
0.0
1001
AUTOCAD_POSTSCRIPT_FIGURE
1002
{
1000
PSFILL
1000
Grayscale
1000
Grayscale
1070
    25
1002
}
  0
LINE
  5
10030
  8
YODOROGO
 10
29617.604341291921
 20
1707.749496429288
 30
0.0
 11
29673.604341291921
 21
1707.749496429288
 31
0.0
1001
AUTOCAD_POSTSCRIPT_FIGURE
1002
{
1000
PSFILL
1000
Grayscale
1000
Grayscale
1070
    25
1002
}
  0
LINE
  5
10031
  8
YODOROGO
 10
29617.604341291921
 20
1819.7494964292871
 30
0.0
 11
29617.604341291921
 21
1707.749496429288
 31
0.0
1001
AUTOCAD_POSTSCRIPT_FIGURE
1002
{
1000
PSFILL
1000
Grayscale
1000
Grayscale
1070
    25
1002
}
  0
LINE
  5
10032
  8
YODOROGO
 10
29765.604341291921
 20
1819.7494964292871
 30
0.0
 11
29617.604341291921
 21
1819.7494964292871
 31
0.0
1001
AUTOCAD_POSTSCRIPT_FIGURE
1002
{
1000
PSFILL
1000
Grayscale
1000
Grayscale
1070
    25
1002
}
  0
LINE
  5
10033
  8
YODOROGO
 10
29765.604341291921
 20
1859.749496429288
 30
0.0
 11
29765.604341291921
 21
1819.7494964292871
 31
0.0
1001
AUTOCAD_POSTSCRIPT_FIGURE
1002
{
1000
PSFILL
1000
Grayscale
1000
Grayscale
1070
    25
1002
}
  0
LINE
  5
10034
  8
YODOROGO
 10
29617.604341291921
 20
1859.749496429288
 30
0.0
 11
29765.604341291921
 21
1859.749496429288
 31
0.0
1001
AUTOCAD_POSTSCRIPT_FIGURE
1002
{
1000
PSFILL
1000
Grayscale
1000
Grayscale
1070
    25
1002
}
  0
LINE
  5
10035
  8
YODOROGO
 10
29617.604341291921
 20
1907.7494964292871
 30
0.0
 11
29617.604341291921
 21
1859.749496429288
 31
0.0
1001
AUTOCAD_POSTSCRIPT_FIGURE
1002
{
1000
PSFILL
1000
Grayscale
1000
Grayscale
1070
    25
1002
}
  0
LINE
  5
10036
  8
YODOROGO
 10
29765.604341291921
 20
1907.7494964292871
 30
0.0
 11
29617.604341291921
 21
1907.7494964292871
 31
0.0
1001
AUTOCAD_POSTSCRIPT_FIGURE
1002
{
1000
PSFILL
1000
Grayscale
1000
Grayscale
1070
    25
1002
}
  0
LINE
  5
10037
  8
YODOROGO
 10
29765.604341291921
 20
1947.749496429288
 30
0.0
 11
29765.604341291921
 21
1907.7494964292871
 31
0.0
1001
AUTOCAD_POSTSCRIPT_FIGURE
1002
{
1000
PSFILL
1000
Grayscale
1000
Grayscale
1070
    25
1002
}
  0
LINE
  5
10038
  8
YODOROGO
 10
29617.604341291921
 20
1947.749496429288
 30
0.0
 11
29765.604341291921
 21
1947.749496429288
 31
0.0
1001
AUTOCAD_POSTSCRIPT_FIGURE
1002
{
1000
PSFILL
1000
Grayscale
1000
Grayscale
1070
    25
1002
}
  0
LINE
  5
10039
  8
YODOROGO
 10
29617.604341291921
 20
2027.749496429288
 30
0.0
 11
29617.604341291921
 21
1947.749496429288
 31
0.0
1001
AUTOCAD_POSTSCRIPT_FIGURE
1002
{
1000
PSFILL
1000
Grayscale
1000
Grayscale
1070
    25
1002
}
  0
LINE
  5
1003A
  8
YODOROGO
 10
29665.604341291921
 20
2027.749496429288
 30
0.0
 11
29617.604341291921
 21
2027.749496429288
 31
0.0
1001
AUTOCAD_POSTSCRIPT_FIGURE
1002
{
1000
PSFILL
1000
Grayscale
1000
Grayscale
1070
    25
1002
}
  0
LINE
  5
1003B
  8
YODOROGO
 10
29665.604341291921
 20
1995.7494964292871
 30
0.0
 11
29665.604341291921
 21
2027.749496429288
 31
0.0
1001
AUTOCAD_POSTSCRIPT_FIGURE
1002
{
1000
PSFILL
1000
Grayscale
1000
Grayscale
1070
    25
1002
}
  0
LINE
  5
1003C
  8
YODOROGO
 10
29765.604341291921
 20
1995.7494964292871
 30
0.0
 11
29665.604341291921
 21
1995.7494964292871
 31
0.0
1001
AUTOCAD_POSTSCRIPT_FIGURE
1002
{
1000
PSFILL
1000
Grayscale
1000
Grayscale
1070
    25
1002
}
  0
LINE
  5
1003D
  8
YODOROGO
 10
29765.604341291921
 20
2027.749496429288
 30
0.0
 11
29765.604341291921
 21
1995.7494964292871
 31
0.0
1001
AUTOCAD_POSTSCRIPT_FIGURE
1002
{
1000
PSFILL
1000
Grayscale
1000
Grayscale
1070
    25
1002
}
  0
LINE
  5
1003E
  8
YODOROGO
 10
29829.604341291921
 20
2027.749496429288
 30
0.0
 11
29765.604341291921
 21
2027.749496429288
 31
0.0
1001
AUTOCAD_POSTSCRIPT_FIGURE
1002
{
1000
PSFILL
1000
Grayscale
1000
Grayscale
1070
    25
1002
}
  0
LINE
  5
1003F
  8
YODOROGO
 10
29829.604341291921
 20
1995.7494964292871
 30
0.0
 11
29829.604341291921
 21
2027.749496429288
 31
0.0
1001
AUTOCAD_POSTSCRIPT_FIGURE
1002
{
1000
PSFILL
1000
Grayscale
1000
Grayscale
1070
    25
1002
}
  0
LINE
  5
10040
  8
YODOROGO
 10
29829.604341291921
 20
1907.7494964292871
 30
0.0
 11
29829.604341291921
 21
1947.749496429288
 31
0.0
1001
AUTOCAD_POSTSCRIPT_FIGURE
1002
{
1000
PSFILL
1000
Grayscale
1000
Grayscale
1070
    25
1002
}
  0
LINE
  5
10041
  8
YODOROGO
 10
29829.604341291921
 20
1819.7494964292871
 30
0.0
 11
29829.604341291921
 21
1859.749496429288
 31
0.0
1001
AUTOCAD_POSTSCRIPT_FIGURE
1002
{
1000
PSFILL
1000
Grayscale
1000
Grayscale
1070
    25
1002
}
  0
LINE
  5
10042
  8
YODOROGO
 10
29921.60434129191
 20
1771.7494964292871
 30
0.0
 11
29921.60434129191
 21
1707.749496429288
 31
0.0
1001
AUTOCAD_POSTSCRIPT_FIGURE
1002
{
1000
PSFILL
1000
Grayscale
1000
Grayscale
1070
    25
1002
}
  0
LINE
  5
10043
  8
YODOROGO
 10
29829.604341291921
 20
1771.7494964292871
 30
0.0
 11
29921.60434129191
 21
1771.7494964292871
 31
0.0
1001
AUTOCAD_POSTSCRIPT_FIGURE
1002
{
1000
PSFILL
1000
Grayscale
1000
Grayscale
1070
    25
1002
}
  0
LINE
  5
10044
  8
YODOROGO
 10
29829.604341291921
 20
1707.749496429288
 30
0.0
 11
29829.604341291921
 21
1771.7494964292871
 31
0.0
1001
AUTOCAD_POSTSCRIPT_FIGURE
1002
{
1000
PSFILL
1000
Grayscale
1000
Grayscale
1070
    25
1002
}
  0
LINE
  5
10045
  8
YODOROGO
 10
29765.604341291921
 20
1707.749496429288
 30
0.0
 11
29829.604341291921
 21
1707.749496429288
 31
0.0
1001
AUTOCAD_POSTSCRIPT_FIGURE
1002
{
1000
PSFILL
1000
Grayscale
1000
Grayscale
1070
    25
1002
}
  0
LINE
  5
10046
  8
YODOROGO
 10
29765.604341291921
 20
1771.7494964292871
 30
0.0
 11
29765.604341291921
 21
1707.749496429288
 31
0.0
1001
AUTOCAD_POSTSCRIPT_FIGURE
1002
{
1000
PSFILL
1000
Grayscale
1000
Grayscale
1070
    25
1002
}
  0
LINE
  5
10047
  8
YODOROGO
 10
29673.604341291921
 20
1771.7494964292871
 30
0.0
 11
29765.604341291921
 21
1771.7494964292871
 31
0.0
1001
AUTOCAD_POSTSCRIPT_FIGURE
1002
{
1000
PSFILL
1000
Grayscale
1000
Grayscale
1070
    25
1002
}
  0
ARC
  5
10048
  8
YODOROGO
 10
31059.517893357912
 20
1602.6807375155761
 30
0.0
 40
178.22128111072141
 50
281.02627495425338
 51
357.77113575573799
  0
LINE
  5
10049
  8
YODOROGO
 10
31413.604341291921
 20
1907.7494964292871
 30
0.0
 11
31165.604341291921
 21
1907.7494964292871
 31
0.0
  0
LINE
  5
1004A
  8
YODOROGO
 10
31413.604341291921
 20
2027.749496429288
 30
0.0
 11
31165.604341291921
 21
2027.749496429288
 31
0.0
  0
LINE
  5
1004B
  8
YODOROGO
 10
31165.604341291921
 20
1963.749496429286
 30
0.0
 11
31413.604341291921
 21
1963.749496429286
 31
0.0
  0
LINE
  5
1004C
  8
YODOROGO
 10
30791.604341291921
 20
1563.7494964292871
 30
0.0
 11
30791.604341291921
 21
1755.7494964292871
 31
0.0
  0
LINE
  5
1004D
  8
YODOROGO
 10
30763.604341291921
 20
1691.749496429288
 30
0.0
 11
30763.604341291921
 21
1563.7494964292871
 31
0.0
  0
LINE
  5
1004E
  8
YODOROGO
 10
30723.604341291921
 20
1491.749496429288
 30
0.0
 11
30723.604341291921
 21
1691.749496429288
 31
0.0
  0
LINE
  5
1004F
  8
YODOROGO
 10
30899.604341291932
 20
1691.749496429288
 30
0.0
 11
30899.604341291932
 21
1491.749496429288
 31
0.0
  0
LINE
  5
10050
  8
YODOROGO
 10
30859.604341291932
 20
1563.7494964292871
 30
0.0
 11
30859.604341291932
 21
1691.749496429288
 31
0.0
  0
LINE
  5
10051
  8
YODOROGO
 10
30831.604341291921
 20
1755.7494964292871
 30
0.0
 11
30831.604341291921
 21
1563.7494964292871
 31
0.0
  0
LINE
  5
10052
  8
YODOROGO
 10
30973.604341291921
 20
2027.749496429288
 30
0.0
 11
30973.604341291921
 21
1467.749496429288
 31
0.0
  0
LINE
  5
10053
  8
YODOROGO
 10
30645.604341291921
 20
1427.749496429288
 30
0.0
 11
30645.604341291921
 21
2027.749496429288
 31
0.0
  0
LINE
  5
10054
  8
YODOROGO
 10
30697.604341291932
 20
1963.749496429286
 30
0.0
 11
30697.604341291932
 21
1427.749496429288
 31
0.0
  0
LINE
  5
10055
  8
YODOROGO
 10
30925.604341291921
 20
1547.749496429288
 30
0.0
 11
30925.604341291921
 21
1963.749496429286
 31
0.0
  0
LINE
  5
10056
  8
YODOROGO
 10
30381.604341291932
 20
1627.749496429288
 30
0.0
 11
30381.604341291932
 21
1679.749496429288
 31
0.0
  0
LINE
  5
10057
  8
YODOROGO
 10
30617.604341291921
 20
1679.749496429288
 30
0.0
 11
30617.604341291921
 21
1627.749496429288
 31
0.0
  0
LINE
  5
10058
  8
YODOROGO
 10
31165.604341291921
 20
1907.7494964292871
 30
0.0
 11
31165.604341291921
 21
1635.7494964292871
 31
0.0
  0
LINE
  5
10059
  8
YODOROGO
 10
29949.60434129191
 20
1667.749496429288
 30
0.0
 11
29949.60434129191
 21
1707.749496429288
 31
0.0
  0
LINE
  5
1005A
  8
YODOROGO
 10
29949.60434129191
 20
1667.749496429288
 30
0.0
 11
29949.60434129191
 21
1707.749496429288
 31
0.0
  0
ARC
  5
1005B
  8
YODOROGO
 10
30537.604341291921
 20
1507.749496429288
 30
0.0
 40
80.0
 50
270.0
 51
0.0
  0
LINE
  5
1005C
  8
YODOROGO
 10
30569.604341291921
 20
1599.7494964292871
 30
0.0
 11
30617.604341291921
 21
1599.7494964292871
 31
0.0
  0
LINE
  5
1005D
  8
YODOROGO
 10
30617.604341291921
 20
1627.749496429288
 30
0.0
 11
30529.604341291939
 21
1627.749496429288
 31
0.0
  0
LINE
  5
1005E
  8
YODOROGO
 10
30217.604341291921
 20
1667.749496429288
 30
0.0
 11
29949.60434129191
 21
1667.749496429288
 31
0.0
  0
LINE
  5
1005F
  8
YODOROGO
 10
30217.604341291921
 20
1627.749496429288
 30
0.0
 11
30217.604341291921
 21
1667.749496429288
 31
0.0
  0
LINE
  5
10060
  8
YODOROGO
 10
30017.604341291921
 20
1627.749496429288
 30
0.0
 11
30217.604341291921
 21
1627.749496429288
 31
0.0
  0
ARC
  5
10061
  8
YODOROGO
 10
30230.05882870136
 20
1868.885714952901
 30
0.0
 40
321.37763628522822
 50
228.6181454618993
 51
245.660289248906
  0
LINE
  5
10062
  8
YODOROGO
 10
30105.604341291921
 20
1603.7494964292871
 30
0.0
 11
30097.60434129195
 21
1576.0728158699001
 31
0.0
  0
LINE
  5
10063
  8
YODOROGO
 10
30189.604341291921
 20
1603.7494964292871
 30
0.0
 11
30105.604341291921
 21
1603.7494964292871
 31
0.0
  0
LINE
  5
10064
  8
YODOROGO
 10
30177.604341291921
 20
1551.817722473427
 30
0.0
 11
30189.604341291921
 21
1603.7494964292871
 31
0.0
  0
ARC
  5
10065
  8
YODOROGO
 10
30230.05882870045
 20
1868.885714953002
 30
0.0
 40
321.37763628529081
 50
260.60629297969911
 51
267.77903556555862
  0
LINE
  5
10066
  8
YODOROGO
 10
30217.604341291921
 20
1427.749496429285
 30
0.0
 11
30217.604341291921
 21
1547.749496429288
 31
0.0
  0
LINE
  5
10067
  8
YODOROGO
 10
29937.604341291932
 20
1481.3393349155101
 30
0.0
 11
29937.604341291921
 21
1594.531090531141
 31
0.0
  0
LINE
  5
10068
  8
YODOROGO
 10
30217.604341291921
 20
1667.749496429288
 30
0.0
 11
29949.60434129191
 21
1667.749496429288
 31
0.0
  0
LINE
  5
10069
  8
YODOROGO
 10
30217.604341291921
 20
1627.749496429288
 30
0.0
 11
30217.604341291921
 21
1667.749496429288
 31
0.0
  0
LINE
  5
1006A
  8
YODOROGO
 10
30017.604341291921
 20
1627.749496429288
 30
0.0
 11
30217.604341291921
 21
1627.749496429288
 31
0.0
  0
ARC
  5
1006B
  8
YODOROGO
 10
30230.05882870136
 20
1868.885714952901
 30
0.0
 40
321.37763628522822
 50
228.6181454618993
 51
245.660289248906
  0
LINE
  5
1006C
  8
YODOROGO
 10
30105.604341291921
 20
1603.7494964292871
 30
0.0
 11
30097.60434129195
 21
1576.0728158699001
 31
0.0
  0
LINE
  5
1006D
  8
YODOROGO
 10
30189.604341291921
 20
1603.7494964292871
 30
0.0
 11
30105.604341291921
 21
1603.7494964292871
 31
0.0
  0
LINE
  5
1006E
  8
YODOROGO
 10
30177.604341291921
 20
1551.817722473427
 30
0.0
 11
30189.604341291921
 21
1603.7494964292871
 31
0.0
  0
ARC
  5
1006F
  8
YODOROGO
 10
30230.05882870045
 20
1868.885714953002
 30
0.0
 40
321.37763628529081
 50
260.60629297969911
 51
267.77903556555862
  0
LINE
  5
10070
  8
YODOROGO
 10
30217.604341291921
 20
1427.749496429285
 30
0.0
 11
30217.604341291921
 21
1547.749496429288
 31
0.0
  0
LINE
  5
10071
  8
YODOROGO
 10
29937.604341291932
 20
1481.3393349155101
 30
0.0
 11
29937.604341291921
 21
1594.531090531141
 31
0.0
  0
LINE
  5
10072
  8
YODOROGO
 10
30433.604341291921
 20
1573.749496429288
 30
0.0
 11
30381.604341291932
 21
1573.749496429288
 31
0.0
  0
LINE
  5
10073
  8
YODOROGO
 10
30433.604341291921
 20
1601.749496429285
 30
0.0
 11
30433.604341291921
 21
1573.749496429288
 31
0.0
  0
LINE
  5
10074
  8
YODOROGO
 10
30381.604341291932
 20
1601.749496429285
 30
0.0
 11
30433.604341291921
 21
1601.749496429285
 31
0.0
  0
LINE
  5
10075
  8
YODOROGO
 10
30381.604341291932
 20
1573.749496429288
 30
0.0
 11
30381.604341291932
 21
1601.749496429285
 31
0.0
  0
LINE
  5
10076
  8
YODOROGO
 10
30429.604341291921
 20
1577.7494964292871
 30
0.0
 11
30385.604341291921
 21
1577.7494964292871
 31
0.0
  0
LINE
  5
10077
  8
YODOROGO
 10
30429.604341291921
 20
1597.749496429288
 30
0.0
 11
30429.604341291921
 21
1577.7494964292871
 31
0.0
  0
LINE
  5
10078
  8
YODOROGO
 10
30385.604341291921
 20
1597.749496429288
 30
0.0
 11
30429.604341291921
 21
1597.749496429288
 31
0.0
  0
LINE
  5
10079
  8
YODOROGO
 10
30385.604341291921
 20
1577.7494964292871
 30
0.0
 11
30385.604341291921
 21
1597.749496429288
 31
0.0
  0
LINE
  5
1007A
  8
YODOROGO
 10
30425.604341291921
 20
1581.749496429286
 30
0.0
 11
30389.604341291921
 21
1581.749496429286
 31
0.0
  0
LINE
  5
1007B
  8
YODOROGO
 10
30425.604341291921
 20
1593.749496429288
 30
0.0
 11
30425.604341291921
 21
1581.749496429286
 31
0.0
  0
LINE
  5
1007C
  8
YODOROGO
 10
30389.604341291921
 20
1593.749496429288
 30
0.0
 11
30425.604341291921
 21
1593.749496429288
 31
0.0
  0
LINE
  5
1007D
  8
YODOROGO
 10
30389.604341291921
 20
1581.749496429286
 30
0.0
 11
30389.604341291921
 21
1593.749496429288
 31
0.0
  0
LINE
  5
1007E
  8
YODOROGO
 10
30421.604341291932
 20
1585.7494964292871
 30
0.0
 11
30393.604341291921
 21
1585.7494964292871
 31
0.0
  0
LINE
  5
1007F
  8
YODOROGO
 10
30421.604341291932
 20
1589.749496429288
 30
0.0
 11
30421.604341291932
 21
1585.7494964292871
 31
0.0
  0
LINE
  5
10080
  8
YODOROGO
 10
30393.604341291921
 20
1589.749496429288
 30
0.0
 11
30421.604341291932
 21
1589.749496429288
 31
0.0
  0
LINE
  5
10081
  8
YODOROGO
 10
30393.604341291921
 20
1585.7494964292871
 30
0.0
 11
30393.604341291921
 21
1589.749496429288
 31
0.0
  0
LINE
  5
10082
  8
YODOROGO
 10
30465.604341291921
 20
1627.749496429288
 30
0.0
 11
30381.604341291932
 21
1627.749496429288
 31
0.0
  0
LINE
  5
10083
  8
YODOROGO
 10
30465.604341291921
 20
1547.749496429288
 30
0.0
 11
30465.604341291921
 21
1627.749496429288
 31
0.0
  0
LINE
  5
10084
  8
YODOROGO
 10
30381.604341291932
 20
1547.749496429288
 30
0.0
 11
30465.604341291921
 21
1547.749496429288
 31
0.0
  0
LINE
  5
10085
  8
YODOROGO
 10
30381.604341291932
 20
1427.749496429288
 30
0.0
 11
30381.604341291932
 21
1547.749496429288
 31
0.0
  0
LINE
  5
10086
  8
YODOROGO
 10
30537.604341291921
 20
1427.749496429288
 30
0.0
 11
30381.604341291932
 21
1427.749496429288
 31
0.0
  0
LINE
  5
10087
  8
YODOROGO
 10
30569.604341291921
 20
1571.749496429285
 30
0.0
 11
30569.604341291921
 21
1599.7494964292871
 31
0.0
  0
ARC
  5
10088
  8
YODOROGO
 10
30545.604341291921
 20
1571.749496429291
 30
0.0
 40
24.000000000003752
 50
270.0
 51
359.99999999998772
  0
LINE
  5
10089
  8
YODOROGO
 10
30529.604341291939
 20
1547.749496429288
 30
0.0
 11
30545.604341291921
 21
1547.749496429288
 31
0.0
  0
LINE
  5
1008A
  8
YODOROGO
 10
30529.604341291939
 20
1627.749496429288
 30
0.0
 11
30529.604341291939
 21
1547.749496429288
 31
0.0
  0
LINE
  5
1008B
  8
YODOROGO
 10
30899.604341291932
 20
1547.749496429288
 30
0.0
 11
30925.604341291921
 21
1547.749496429288
 31
0.0
  0
LINE
  5
1008C
  8
YODOROGO
 10
30933.604341291921
 20
1427.749496429288
 30
0.0
 11
30899.604341291932
 21
1427.749496429288
 31
0.0
  0
LINE
  5
1008D
  8
YODOROGO
 10
30763.604341291921
 20
1563.7494964292871
 30
0.0
 11
30791.604341291921
 21
1563.7494964292871
 31
0.0
  0
LINE
  5
1008E
  8
YODOROGO
 10
30899.604341291932
 20
1491.749496429288
 30
0.0
 11
30723.604341291921
 21
1491.749496429288
 31
0.0
  0
LINE
  5
1008F
  8
YODOROGO
 10
30831.604341291921
 20
1563.7494964292871
 30
0.0
 11
30859.604341291932
 21
1563.7494964292871
 31
0.0
  0
LINE
  5
10090
  8
YODOROGO
 10
30899.604341291932
 20
1427.749496429288
 30
0.0
 11
30899.604341291932
 21
1547.749496429288
 31
0.0
  0
LINE
  5
10091
  8
YODOROGO
 10
30697.604341291932
 20
1427.749496429288
 30
0.0
 11
30645.604341291921
 21
1427.749496429288
 31
0.0
  0
LINE
  5
10092
  8
YODOROGO
 10
30617.604341291921
 20
1599.7494964292871
 30
0.0
 11
30617.604341291921
 21
1507.749496429288
 31
0.0
  0
ARC
  5
10093
  8
YODOROGO
 10
30933.604341291921
 20
1467.749496429288
 30
0.0
 40
40.0
 50
270.0
 51
0.0
  0
LINE
  5
10094
  8
YODOROGO
 10
31093.604341291921
 20
1523.7494964292871
 30
0.0
 11
31093.604341291921
 21
1427.749496429288
 31
0.0
  0
ARC
  5
10095
  8
YODOROGO
 10
31039.721395566768
 20
1637.5313901097329
 30
0.0
 40
125.8955565916754
 50
295.34052442160112
 51
359.18902303418679
  0
LINE
  5
10096
  8
YODOROGO
 10
30617.604341291921
 20
1859.749496429288
 30
0.0
 11
30497.604341291921
 21
1939.749496429288
 31
0.0
  0
LINE
  5
10097
  8
YODOROGO
 10
30497.604341291921
 20
2027.749496429288
 30
0.0
 11
30617.604341291921
 21
1947.749496429288
 31
0.0
  0
LINE
  5
10098
  8
YODOROGO
 10
30529.604341291939
 20
1679.749496429288
 30
0.0
 11
30617.604341291921
 21
1679.749496429288
 31
0.0
  0
LINE
  5
10099
  8
YODOROGO
 10
30617.604341291921
 20
1735.7494964292871
 30
0.0
 11
30529.604341291939
 21
1735.7494964292871
 31
0.0
  0
LINE
  5
1009A
  8
YODOROGO
 10
30381.604341291932
 20
1795.7494964292871
 30
0.0
 11
30617.604341291921
 21
1795.7494964292871
 31
0.0
  0
LINE
  5
1009B
  8
YODOROGO
 10
30081.604341291921
 20
2027.749496429288
 30
0.0
 11
30021.604341291921
 21
2027.749496429288
 31
0.0
  0
LINE
  5
1009C
  8
YODOROGO
 10
30081.604341291921
 20
1827.7494964292871
 30
0.0
 11
30081.604341291921
 21
2027.749496429288
 31
0.0
  0
LINE
  5
1009D
  8
YODOROGO
 10
30021.604341291921
 20
1827.7494964292871
 30
0.0
 11
30081.604341291921
 21
1827.7494964292871
 31
0.0
  0
LINE
  5
1009E
  8
YODOROGO
 10
30021.604341291921
 20
2027.749496429288
 30
0.0
 11
30021.604341291921
 21
1827.7494964292871
 31
0.0
  0
LINE
  5
1009F
  8
YODOROGO
 10
30161.604341291921
 20
2027.749496429288
 30
0.0
 11
30217.604341291921
 21
2027.749496429288
 31
0.0
  0
LINE
  5
100A0
  8
YODOROGO
 10
30161.604341291921
 20
1811.749496429288
 30
0.0
 11
30161.604341291921
 21
2027.749496429288
 31
0.0
  0
ARC
  5
100A1
  8
YODOROGO
 10
30121.604341291921
 20
1811.749496429288
 30
0.0
 40
40.0
 50
270.0
 51
0.0
  0
LINE
  5
100A2
  8
YODOROGO
 10
30021.604341291921
 20
1771.7494964292871
 30
0.0
 11
30121.604341291921
 21
1771.7494964292871
 31
0.0
  0
LINE
  5
100A3
  8
YODOROGO
 10
30021.604341291921
 20
1707.749496429288
 30
0.0
 11
30021.604341291921
 21
1771.7494964292871
 31
0.0
  0
LINE
  5
100A4
  8
YODOROGO
 10
30137.604341291921
 20
1707.749496429288
 30
0.0
 11
30021.604341291921
 21
1707.749496429288
 31
0.0
  0
ARC
  5
100A5
  8
YODOROGO
 10
30137.604341291921
 20
1787.7494964292871
 30
0.0
 40
80.0
 50
270.0
 51
0.0
  0
LINE
  5
100A6
  8
YODOROGO
 10
30217.604341291921
 20
2027.749496429288
 30
0.0
 11
30217.604341291921
 21
1787.7494964292871
 31
0.0
  0
LINE
  5
100A7
  8
YODOROGO
 10
29977.604341291921
 20
1947.749496429288
 30
0.0
 11
29977.604341291921
 21
1995.7494964292871
 31
0.0
1001
AUTOCAD_POSTSCRIPT_FIGURE
1002
{
1000
PSFILL
1000
Grayscale
1000
Grayscale
1070
    25
1002
}
  0
LINE
  5
100A8
  8
YODOROGO
 10
29977.604341291921
 20
1859.749496429288
 30
0.0
 11
29977.604341291921
 21
1907.7494964292871
 31
0.0
1001
AUTOCAD_POSTSCRIPT_FIGURE
1002
{
1000
PSFILL
1000
Grayscale
1000
Grayscale
1070
    25
1002
}
  0
LINE
  5
100A9
  8
YODOROGO
 10
29977.604341291921
 20
1707.749496429288
 30
0.0
 11
29977.604341291921
 21
1819.7494964292871
 31
0.0
1001
AUTOCAD_POSTSCRIPT_FIGURE
1002
{
1000
PSFILL
1000
Grayscale
1000
Grayscale
1070
    25
1002
}
  0
LINE
  5
100AA
  8
YODOROGO
 10
30381.604341291932
 20
1907.7494964292871
 30
0.0
 11
30497.604341291921
 21
2027.749496429288
 31
0.0
  0
LINE
  5
100AB
  8
YODOROGO
 10
30381.604341291932
 20
1819.7494964292871
 30
0.0
 11
30381.604341291932
 21
1907.7494964292871
 31
0.0
  0
LINE
  5
100AC
  8
YODOROGO
 10
30497.604341291921
 20
1939.749496429288
 30
0.0
 11
30381.604341291932
 21
1819.7494964292871
 31
0.0
  0
LINE
  5
100AD
  8
YODOROGO
 10
30465.604341291921
 20
1679.749496429288
 30
0.0
 11
30465.604341291921
 21
1735.7494964292871
 31
0.0
  0
LINE
  5
100AE
  8
YODOROGO
 10
30381.604341291932
 20
1679.749496429288
 30
0.0
 11
30465.604341291921
 21
1679.749496429288
 31
0.0
  0
LINE
  5
100AF
  8
YODOROGO
 10
30529.604341291939
 20
1735.7494964292871
 30
0.0
 11
30529.604341291939
 21
1679.749496429288
 31
0.0
  0
LINE
  5
100B0
  8
YODOROGO
 10
30381.604341291932
 20
1735.7494964292871
 30
0.0
 11
30381.604341291932
 21
1795.7494964292871
 31
0.0
  0
LINE
  5
100B1
  8
YODOROGO
 10
30465.604341291921
 20
1735.7494964292871
 30
0.0
 11
30381.604341291932
 21
1735.7494964292871
 31
0.0
  0
LINE
  5
100B2
  8
YODOROGO
 10
30645.604341291921
 20
2027.749496429288
 30
0.0
 11
30973.604341291921
 21
2027.749496429288
 31
0.0
  0
LINE
  5
100B3
  8
YODOROGO
 10
30925.604341291921
 20
1963.749496429286
 30
0.0
 11
30697.604341291932
 21
1963.749496429286
 31
0.0
  0
LINE
  5
100B4
  8
YODOROGO
 10
30873.604341291921
 20
1819.7494964292871
 30
0.0
 11
30899.604341291932
 21
1819.7494964292871
 31
0.0
  0
LINE
  5
100B5
  8
YODOROGO
 10
30899.604341291932
 20
1939.749496429288
 30
0.0
 11
30873.604341291921
 21
1819.7494964292871
 31
0.0
  0
LINE
  5
100B6
  8
YODOROGO
 10
30851.604341291939
 20
1939.749496429288
 30
0.0
 11
30899.604341291932
 21
1939.749496429288
 31
0.0
  0
LINE
  5
100B7
  8
YODOROGO
 10
30825.604341291921
 20
1819.7494964292871
 30
0.0
 11
30851.604341291939
 21
1939.749496429288
 31
0.0
  0
LINE
  5
100B8
  8
YODOROGO
 10
30797.604341291921
 20
1819.7494964292871
 30
0.0
 11
30825.604341291921
 21
1819.7494964292871
 31
0.0
  0
LINE
  5
100B9
  8
YODOROGO
 10
30771.604341291939
 20
1939.749496429288
 30
0.0
 11
30797.604341291921
 21
1819.7494964292871
 31
0.0
  0
LINE
  5
100BA
  8
YODOROGO
 10
30723.604341291921
 20
1939.749496429288
 30
0.0
 11
30771.604341291939
 21
1939.749496429288
 31
0.0
  0
LINE
  5
100BB
  8
YODOROGO
 10
30749.604341291921
 20
1819.7494964292871
 30
0.0
 11
30723.604341291921
 21
1939.749496429288
 31
0.0
  0
LINE
  5
100BC
  8
YODOROGO
 10
30723.604341291921
 20
1819.7494964292871
 30
0.0
 11
30749.604341291921
 21
1819.7494964292871
 31
0.0
  0
LINE
  5
100BD
  8
YODOROGO
 10
30723.604341291921
 20
1755.7494964292871
 30
0.0
 11
30723.604341291921
 21
1819.7494964292871
 31
0.0
  0
LINE
  5
100BE
  8
YODOROGO
 10
30899.604341291932
 20
1755.7494964292871
 30
0.0
 11
30723.604341291921
 21
1755.7494964292871
 31
0.0
  0
LINE
  5
100BF
  8
YODOROGO
 10
30899.604341291932
 20
1819.7494964292871
 30
0.0
 11
30899.604341291932
 21
1755.7494964292871
 31
0.0
  0
LINE
  5
100C0
  8
YODOROGO
 10
30617.604341291921
 20
1947.749496429288
 30
0.0
 11
30617.604341291921
 21
1859.749496429288
 31
0.0
  0
LINE
  5
100C1
  8
YODOROGO
 10
30791.604341291921
 20
1755.7494964292871
 30
0.0
 11
30831.604341291921
 21
1755.7494964292871
 31
0.0
  0
LINE
  5
100C2
  8
YODOROGO
 10
30723.604341291921
 20
1691.749496429288
 30
0.0
 11
30763.604341291921
 21
1691.749496429288
 31
0.0
  0
LINE
  5
100C3
  8
YODOROGO
 10
30859.604341291932
 20
1691.749496429288
 30
0.0
 11
30899.604341291932
 21
1691.749496429288
 31
0.0
  0
LINE
  5
100C4
  8
YODOROGO
 10
30617.604341291921
 20
1795.7494964292871
 30
0.0
 11
30617.604341291921
 21
1735.7494964292871
 31
0.0
  0
LINE
  5
100C5
  8
YODOROGO
 10
31165.604341291921
 20
2027.749496429288
 30
0.0
 11
31165.604341291921
 21
1963.749496429286
 31
0.0
  0
LINE
  5
100C6
  8
YODOROGO
 10
31533.604341291921
 20
1595.7494964292871
 30
0.0
 11
31533.60434129191
 21
1811.749496429288
 31
0.0
  0
LINE
  5
100C7
  8
YODOROGO
 10
31461.60434129191
 20
1987.7494964292871
 30
0.0
 11
31461.60434129191
 21
1635.7494964292871
 31
0.0
  0
LINE
  5
100C8
  8
YODOROGO
 10
31653.604341291921
 20
1427.749496429288
 30
0.0
 11
31653.60434129191
 21
1811.749496429288
 31
0.0
  0
LINE
  5
100C9
  8
YODOROGO
 10
31589.604341291921
 20
1811.749496429288
 30
0.0
 11
31589.604341291921
 21
1427.749496429288
 31
0.0
  0
LINE
  5
100CA
  8
YODOROGO
 10
31237.604341291921
 20
1595.7494964292871
 30
0.0
 11
31237.604341291921
 21
1707.749496429288
 31
0.0
  0
ARC
  5
100CB
  8
YODOROGO
 10
31353.914865116069
 20
1607.790351288558
 30
0.0
 40
180.0924485759885
 50
268.62849102169793
 51
356.16638457330322
  0
LINE
  5
100CC
  8
YODOROGO
 10
31349.604341291939
 20
1527.749496429288
 30
0.0
 11
31349.604341291939
 21
1427.749496429288
 31
0.0
  0
ARC
  5
100CD
  8
YODOROGO
 10
31351.518075724562
 20
1637.838957017655
 30
0.0
 40
110.1060929836122
 50
269.00410209305932
 51
358.91264455492478
  0
LINE
  5
100CE
  8
YODOROGO
 10
31589.604341291921
 20
1427.749496429288
 30
0.0
 11
31653.604341291921
 21
1427.749496429288
 31
0.0
  0
LINE
  5
100CF
  8
YODOROGO
 10
31533.60434129191
 20
1811.749496429288
 30
0.0
 11
31589.604341291921
 21
1811.749496429288
 31
0.0
  0
LINE
  5
100D0
  8
YODOROGO
 10
31621.604341291939
 20
1987.7494964292871
 30
0.0
 11
31461.60434129191
 21
1987.7494964292871
 31
0.0
  0
LINE
  5
100D1
  8
YODOROGO
 10
31533.60434129191
 20
1915.7494964292871
 30
0.0
 11
31661.604341291939
 21
1915.7494964292871
 31
0.0
  0
LINE
  5
100D2
  8
YODOROGO
 10
31701.604341291939
 20
1875.7494964292871
 30
0.0
 11
31533.60434129191
 21
1875.7494964292871
 31
0.0
  0
LINE
  5
100D3
  8
YODOROGO
 10
31237.604341291921
 20
1779.749496429288
 30
0.0
 11
31349.604341291939
 21
1779.749496429288
 31
0.0
  0
LINE
  5
100D4
  8
YODOROGO
 10
31237.604341291921
 20
1835.7494964292871
 30
0.0
 11
31237.604341291921
 21
1779.749496429288
 31
0.0
  0
LINE
  5
100D5
  8
YODOROGO
 10
31349.604341291939
 20
1835.7494964292871
 30
0.0
 11
31237.604341291921
 21
1835.7494964292871
 31
0.0
  0
LINE
  5
100D6
  8
YODOROGO
 10
31349.604341291939
 20
1779.749496429288
 30
0.0
 11
31349.604341291939
 21
1835.7494964292871
 31
0.0
  0
LINE
  5
100D7
  8
YODOROGO
 10
31533.60434129191
 20
1875.7494964292871
 30
0.0
 11
31533.60434129191
 21
1915.7494964292871
 31
0.0
  0
LINE
  5
100D8
  8
YODOROGO
 10
31413.604341291921
 20
1707.749496429288
 30
0.0
 11
31413.604341291921
 21
1907.7494964292871
 31
0.0
  0
LINE
  5
100D9
  8
YODOROGO
 10
31237.604341291921
 20
1707.749496429288
 30
0.0
 11
31413.604341291921
 21
1707.749496429288
 31
0.0
  0
LINE
  5
100DA
  8
YODOROGO
 10
31413.604341291921
 20
1963.749496429286
 30
0.0
 11
31413.604341291921
 21
2027.749496429288
 31
0.0
  0
ARC
  5
100DB
  8
YODOROGO
 10
31621.604341291939
 20
2003.749496429285
 30
0.0
 40
15.999999999994539
 50
270.0
 51
0.0000000000081422
  0
LINE
  5
100DC
  8
YODOROGO
 10
31637.604341291921
 20
2027.749496429288
 30
0.0
 11
31637.604341291921
 21
2003.7494964292871
 31
0.0
  0
LINE
  5
100DD
  8
YODOROGO
 10
31701.604341291939
 20
2027.749496429288
 30
0.0
 11
31637.604341291921
 21
2027.749496429288
 31
0.0
  0
LINE
  5
100DE
  8
YODOROGO
 10
31701.604341291939
 20
1955.7494964292871
 30
0.0
 11
31701.604341291939
 21
2027.749496429288
 31
0.0
  0
ARC
  5
100DF
  8
YODOROGO
 10
31661.604341291939
 20
1955.7494964292871
 30
0.0
 40
40.0
 50
270.0
 51
0.0
  0
LINE
  5
100E0
  8
YODOROGO
 10
31701.604341291939
 20
1811.749496429288
 30
0.0
 11
31701.604341291939
 21
1875.7494964292871
 31
0.0
  0
LINE
  5
100E1
  8
YODOROGO
 10
31653.60434129191
 20
1811.749496429288
 30
0.0
 11
31701.604341291939
 21
1811.749496429288
 31
0.0
  0
LINE
  5
100E5
  8
0-6
  6
CONTINUOUS
 62
     6
 10
12493.8889099234
 20
19117.126787197201
 30
0.0
 11
12419.16916485277
 21
19261.098781575922
 31
0.0
  0
LINE
  5
100E6
  8
0-6
  6
CONTINUOUS
 62
     6
 10
12419.16916485277
 20
19261.098781575922
 30
0.0
 11
12536.54520783642
 21
19149.141791898459
 31
0.0
  0
LINE
  5
100E7
  8
0-6
  6
CONTINUOUS
 62
     6
 10
12536.54520783642
 20
19149.141791898459
 30
0.0
 11
12493.8889099234
 21
19117.126787197201
 31
0.0
  0
LINE
  5
100E8
  8
0-6
  6
CONTINUOUS
 62
     6
 10
12493.8889099234
 20
16586.013716621332
 30
0.0
 11
12419.16916485277
 21
16729.985711000059
 31
0.0
  0
LINE
  5
100E9
  8
0-6
  6
CONTINUOUS
 62
     6
 10
12419.16916485277
 20
16729.985711000059
 30
0.0
 11
12536.54520783642
 21
16618.0287213226
 31
0.0
  0
LINE
  5
100EA
  8
0-6
  6
CONTINUOUS
 62
     6
 10
12536.54520783642
 20
16618.0287213226
 30
0.0
 11
12493.8889099234
 21
16586.013716621332
 31
0.0
  0
LINE
  5
100EB
  8
0-6
  6
CONTINUOUS
 62
     6
 10
12373.554181351001
 20
13982.01436362122
 30
0.0
 11
12298.834436280369
 21
14125.98635799994
 31
0.0
  0
LINE
  5
100EC
  8
0-6
  6
CONTINUOUS
 62
     6
 10
12298.834436280369
 20
14125.98635799994
 30
0.0
 11
12416.21047926402
 21
14014.029368322481
 31
0.0
  0
LINE
  5
100ED
  8
0-6
  6
CONTINUOUS
 62
     6
 10
12416.21047926402
 20
14014.029368322481
 30
0.0
 11
12373.554181351001
 21
13982.01436362122
 31
0.0
  0
LINE
  5
100EE
  8
0-6
  6
CONTINUOUS
 62
     6
 10
27570.283929637179
 20
19102.38947925335
 30
0.0
 11
27676.61195358515
 21
19224.885710999992
 31
0.0
  0
LINE
  5
100EF
  8
0-6
  6
CONTINUOUS
 62
     6
 10
27676.61195358515
 20
19224.885710999992
 30
0.0
 11
27615.759833991891
 21
19074.524404324551
 31
0.0
  0
LINE
  5
100F0
  8
0-6
  6
CONTINUOUS
 62
     6
 10
27615.759833991891
 20
19074.524404324551
 30
0.0
 11
27570.283929637179
 21
19102.38947925335
 31
0.0
  0
LINE
  5
100F1
  8
0-6
  6
CONTINUOUS
 62
     6
 10
27598.46827514315
 20
19518.2030359327
 30
0.0
 11
27667.511953585141
 21
19371.424475045871
 31
0.0
  0
LINE
  5
100F2
  8
0-6
  6
CONTINUOUS
 62
     6
 10
27667.511953585141
 20
19371.424475045871
 30
0.0
 11
27554.594953405991
 21
19487.877272670848
 31
0.0
  0
LINE
  5
100F3
  8
0-6
  6
CONTINUOUS
 62
     6
 10
27554.594953405991
 20
19487.877272670848
 30
0.0
 11
27598.46827514315
 21
19518.2030359327
 31
0.0
  0
LINE
  5
100F4
  8
0-6
  6
CONTINUOUS
 62
     6
 10
27570.283929637179
 20
16935.082047746651
 30
0.0
 11
27676.61195358515
 21
16812.585815999992
 31
0.0
  0
LINE
  5
100F5
  8
0-6
  6
CONTINUOUS
 62
     6
 10
27676.61195358515
 20
16812.585815999992
 30
0.0
 11
27615.759833991891
 21
16962.947122675439
 31
0.0
  0
LINE
  5
100F6
  8
0-6
  6
CONTINUOUS
 62
     6
 10
27615.759833991891
 20
16962.947122675439
 30
0.0
 11
27570.283929637179
 21
16935.082047746651
 31
0.0
  0
LINE
  5
100F7
  8
0-6
  6
CONTINUOUS
 62
     6
 10
27570.283929637179
 20
14378.08248374665
 30
0.0
 11
27676.61195358515
 21
14255.58625199999
 31
0.0
  0
LINE
  5
100F8
  8
0-6
  6
CONTINUOUS
 62
     6
 10
27676.61195358515
 20
14255.58625199999
 30
0.0
 11
27615.759833991891
 21
14405.947558675451
 31
0.0
  0
LINE
  5
100F9
  8
0-6
  6
CONTINUOUS
 62
     6
 10
27615.759833991891
 20
14405.947558675451
 30
0.0
 11
27570.283929637179
 21
14378.08248374665
 31
0.0
  0
LINE
  5
100FA
  8
0-6
  6
CONTINUOUS
 62
     6
 10
27598.46827514315
 20
16519.268491067302
 30
0.0
 11
27667.511953585141
 21
16666.047051954109
 31
0.0
  0
LINE
  5
100FB
  8
0-6
  6
CONTINUOUS
 62
     6
 10
27667.511953585141
 20
16666.047051954109
 30
0.0
 11
27554.594953405991
 21
16549.594254329138
 31
0.0
  0
LINE
  5
100FC
  8
0-6
  6
CONTINUOUS
 62
     6
 10
27554.594953405991
 20
16549.594254329138
 30
0.0
 11
27598.46827514315
 21
16519.268491067302
 31
0.0
  0
LINE
  5
100FD
  8
0-6
  6
CONTINUOUS
 62
     6
 10
27598.46827514315
 20
13982.207691113181
 30
0.0
 11
27667.511953585141
 21
14128.986252000001
 31
0.0
  0
LINE
  5
100FE
  8
0-6
  6
CONTINUOUS
 62
     6
 10
27667.511953585141
 20
14128.986252000001
 30
0.0
 11
27554.594953405991
 21
14012.53345437502
 31
0.0
  0
LINE
  5
100FF
  8
0-6
  6
CONTINUOUS
 62
     6
 10
27554.594953405991
 20
14012.53345437502
 30
0.0
 11
27598.46827514315
 21
13982.207691113181
 31
0.0
  0
LINE
  5
10138
  8
SUNPOU
  6
CONTINUOUS
 62
     4
 10
22712.511953585141
 20
20560.487175999991
 30
0.0
 11
27712.511953585141
 21
20560.487175999991
 31
0.0
  0
LINE
  5
10139
  8
SUNPOU
  6
CONTINUOUS
 62
     4
 10
19794.511953585141
 20
20560.487175999991
 30
0.0
 11
22712.511953585141
 21
20560.487175999991
 31
0.0
  0
LINE
  5
1013A
  8
SUNPOU
  6
CONTINUOUS
 62
     4
 10
27712.511953585141
 20
19684.93602587733
 30
0.0
 11
27712.511953585141
 21
20240.487175999991
 31
0.0
  0
LINE
  5
1013B
  8
SUNPOU
  6
CONTINUOUS
 62
     4
 10
27670.009710585138
 20
19523.83651600001
 30
0.0
 11
27670.009710585138
 21
20240.487175999991
 31
0.0
  0
LINE
  5
1013C
  8
SUNPOU
  6
CONTINUOUS
 62
     4
 10
27712.511953585141
 20
20160.487175999991
 30
0.0
 11
27952.511953585141
 21
20160.487175999991
 31
0.0
  0
LINE
  5
1013D
  8
SUNPOU
  6
CONTINUOUS
 62
     4
 10
27670.009710585138
 20
20160.487175999991
 30
0.0
 11
27430.009710585138
 21
20160.487175999991
 31
0.0
  0
LINE
  5
1013E
  8
SUNPOU
  6
CONTINUOUS
 62
     4
 10
27712.511953585141
 20
20160.487175999991
 30
0.0
 11
27670.009710585138
 21
20160.487175999991
 31
0.0
  0
LINE
  5
1013F
  8
SUNPOU
  6
CONTINUOUS
 62
     4
 10
27712.511953585141
 20
19684.93602587733
 30
0.0
 11
27712.511953585141
 21
20240.487175999991
 31
0.0
  0
LINE
  5
10140
  8
SUNPOU
  6
CONTINUOUS
 62
     4
 10
27755.010238585131
 20
19520.488759
 30
0.0
 11
27755.010238585131
 21
20240.487175999991
 31
0.0
  0
LINE
  5
10141
  8
SUNPOU
  6
CONTINUOUS
 62
     4
 10
27712.511953585141
 20
20160.487175999991
 30
0.0
 11
27472.511953585141
 21
20160.487175999991
 31
0.0
  0
LINE
  5
10142
  8
SUNPOU
  6
CONTINUOUS
 62
     4
 10
27755.010238585131
 20
20160.487175999991
 30
0.0
 11
27995.010238585131
 21
20160.487175999991
 31
0.0
  0
LINE
  5
10143
  8
SUNPOU
  6
CONTINUOUS
 62
     4
 10
27712.511953585141
 20
20160.487175999991
 30
0.0
 11
27755.010238585131
 21
20160.487175999991
 31
0.0
  0
LINE
  5
10144
  8
SUNPOU
  6
CONTINUOUS
 62
     4
 10
28097.116789537071
 20
16750.486251999992
 30
0.0
 11
29010.355577953771
 21
16750.486251999992
 31
0.0
  0
LINE
  5
10145
  8
SUNPOU
  6
CONTINUOUS
 62
     4
 10
28097.116789537071
 20
19317.986251999992
 30
0.0
 11
29010.355577953771
 21
19317.986251999992
 31
0.0
  0
LINE
  5
10146
  8
SUNPOU
  6
CONTINUOUS
 62
     4
 10
28930.355577953771
 20
16750.486251999992
 30
0.0
 11
28930.355577953771
 21
19317.986251999992
 31
0.0
  0
LINE
  5
10147
  8
SUNPOU
  6
CONTINUOUS
 62
     4
 10
28097.116789537071
 20
14182.986252000001
 30
0.0
 11
29010.355577953771
 21
14182.986252000001
 31
0.0
  0
LINE
  5
10148
  8
SUNPOU
  6
CONTINUOUS
 62
     4
 10
28097.116789537071
 20
16750.486251999992
 30
0.0
 11
29010.355577953771
 21
16750.486251999992
 31
0.0
  0
LINE
  5
10149
  8
SUNPOU
  6
CONTINUOUS
 62
     4
 10
28930.355577953771
 20
14182.986252000001
 30
0.0
 11
28930.355577953771
 21
16750.486251999992
 31
0.0
  0
ARC
  5
10161
  8
1-前柱P
 10
27722.11195358515
 20
14251.386252
 30
0.0
 40
1.0
 50
90.0
 51
180.0
  0
LINE
  5
10162
  8
1-前柱P
 10
27721.11195358515
 20
14251.386252
 30
0.0
 11
27721.11195358515
 21
14249.786252
 31
0.0
  0
LINE
  5
10163
  8
1-前柱P
 10
27721.11195358515
 20
14249.786252
 30
0.0
 11
27709.91195358515
 21
14249.786252
 31
0.0
  0
LINE
  5
10164
  8
1-前柱P
 10
27709.91195358515
 20
14249.786252
 30
0.0
 11
27709.911953585131
 21
14251.386252
 31
0.0
  0
ARC
  5
10165
  8
1-前柱P
 10
27708.911953585131
 20
14251.386252
 30
0.0
 40
1.0
 50
0.0
 51
90.0
  0
ARC
  5
10166
  8
1-中柱P
 10
27705.911953585131
 20
16818.786252000002
 30
0.0
 40
1.0
 50
0.0
 51
90.0
  0
LINE
  5
10167
  8
1-中柱P
 10
27706.911953585131
 20
16818.786252000002
 30
0.0
 11
27706.911953585131
 21
16817.18625200001
 31
0.0
  0
LINE
  5
10168
  8
1-中柱P
 10
27706.911953585131
 20
16817.18625200001
 30
0.0
 11
27718.111953585121
 21
16817.18625200001
 31
0.0
  0
LINE
  5
10169
  8
1-中柱P
 10
27718.111953585121
 20
16817.18625200001
 30
0.0
 11
27718.111953585121
 21
16818.786252000002
 31
0.0
  0
ARC
  5
1016A
  8
1-中柱P
 10
27719.111953585129
 20
16818.786252000002
 30
0.0
 40
1.0
 50
90.0
 51
180.0
  0
ARC
  5
1016B
  8
1-後柱P
 10
27702.911953585139
 20
19249.936251999989
 30
0.0
 40
1.0
 50
270.0
 51
0.0
  0
LINE
  5
1016C
  8
1-後柱P
 10
27703.91195358515
 20
19249.936251999989
 30
0.0
 11
27703.91195358515
 21
19251.536252000002
 31
0.0
  0
LINE
  5
1016D
  8
1-後柱P
 10
27703.91195358515
 20
19251.536252000002
 30
0.0
 11
27715.111953585139
 21
19251.536252000002
 31
0.0
  0
LINE
  5
1016E
  8
1-後柱P
 10
27715.111953585139
 20
19251.536252000002
 30
0.0
 11
27715.111953585139
 21
19249.936251999989
 31
0.0
  0
ARC
  5
1016F
  8
1-後柱P
 10
27716.11195358515
 20
19249.936251999989
 30
0.0
 40
1.0
 50
180.0
 51
270.0
  0
LINE
  5
10170
  8
SUNPOU
  6
CONTINUOUS
 62
     4
 10
6326.2335704709403
 20
8478.188374000003
 30
0.0
 11
6326.2335704709403
 21
9869.1883999999955
 31
0.0
  0
LINE
  5
10171
  8
SUNPOU
  6
CONTINUOUS
 62
     4
 10
11876.233570470929
 20
8610.0781974124311
 30
0.0
 11
11876.233570470929
 21
9869.1883999999955
 31
0.0
  0
LINE
  5
10172
  8
SUNPOU
  6
CONTINUOUS
 62
     4
 10
6326.2335704709403
 20
9789.1883999999955
 30
0.0
 11
11876.233570470929
 21
9789.1883999999955
 31
0.0
  0
LINE
  5
10173
  8
SUNPOU
  6
CONTINUOUS
 62
     4
 10
11726.23357047094
 20
8536.0984379999973
 30
0.0
 11
11726.23357047094
 21
9469.1900500000029
 31
0.0
  0
LINE
  5
10174
  8
SUNPOU
  6
CONTINUOUS
 62
     4
 10
11876.233570470929
 20
8610.0781974124311
 30
0.0
 11
11876.233570470929
 21
9469.1900500000029
 31
0.0
  0
LINE
  5
10175
  8
SUNPOU
  6
CONTINUOUS
 62
     4
 10
11726.23357047094
 20
9389.1900500000029
 30
0.0
 11
11486.23357047094
 21
9389.1900500000029
 31
0.0
  0
LINE
  5
10176
  8
SUNPOU
  6
CONTINUOUS
 62
     4
 10
11876.233570470929
 20
9389.1900500000029
 30
0.0
 11
12116.23357047094
 21
9389.1900500000029
 31
0.0
  0
LINE
  5
10177
  8
SUNPOU
  6
CONTINUOUS
 62
     4
 10
11726.23357047094
 20
9389.1900500000029
 30
0.0
 11
11876.233570470929
 21
9389.1900500000029
 31
0.0
  0
LINE
  5
10178
  8
SUNPOU
  6
CONTINUOUS
 62
     4
 10
6506.2335704709376
 20
8348.3741496838102
 30
0.0
 11
6506.2335704709376
 21
9469.1900500000029
 31
0.0
  0
LINE
  5
10179
  8
SUNPOU
  6
CONTINUOUS
 62
     4
 10
11726.23357047094
 20
8536.0984379999973
 30
0.0
 11
11726.23357047094
 21
9469.1900500000029
 31
0.0
  0
LINE
  5
1017A
  8
SUNPOU
  6
CONTINUOUS
 62
     4
 10
6506.2335704709376
 20
9389.1900500000029
 30
0.0
 11
11726.23357047094
 21
9389.1900500000029
 31
0.0
  0
LINE
  5
1017B
  8
SUNPOU
  6
CONTINUOUS
 62
     4
 10
6326.2335704709403
 20
8478.188374000003
 30
0.0
 11
6326.2335704709403
 21
9469.1900500000029
 31
0.0
  0
LINE
  5
1017C
  8
SUNPOU
  6
CONTINUOUS
 62
     4
 10
6506.2335704709376
 20
8348.3741496838102
 30
0.0
 11
6506.2335704709376
 21
9469.1900500000029
 31
0.0
  0
LINE
  5
1017D
  8
SUNPOU
  6
CONTINUOUS
 62
     4
 10
6326.2335704709403
 20
9389.1900500000029
 30
0.0
 11
6506.2335704709376
 21
9389.1900500000029
 31
0.0
  0
LINE
  5
1017E
  8
SUNPOU
  6
CONTINUOUS
 62
     4
 10
11818.73357047094
 20
6241.1883740000021
 30
0.0
 11
12896.23396647094
 21
6241.1883740000021
 31
0.0
  0
LINE
  5
1017F
  8
SUNPOU
  6
CONTINUOUS
 62
     4
 10
11911.04083007032
 20
8590.188374000003
 30
0.0
 11
12896.23396647094
 21
8590.188374000003
 31
0.0
  0
LINE
  5
10180
  8
SUNPOU
  6
CONTINUOUS
 62
     4
 10
12816.23396647094
 20
6241.1883740000021
 30
0.0
 11
12816.23396647094
 21
8590.188374000003
 31
0.0
  0
LINE
  5
10181
  8
SUNPOU
  6
CONTINUOUS
 62
     4
 10
6418.7335704709421
 20
6241.1883740000021
 30
0.0
 11
5336.2331744709518
 21
6241.1883740000039
 31
0.0
  0
LINE
  5
10182
  8
SUNPOU
  6
CONTINUOUS
 62
     4
 10
6246.2335704709403
 20
8396.688374000003
 30
0.0
 11
5336.2331744709518
 21
8396.688374000003
 31
0.0
  0
LINE
  5
10183
  8
SUNPOU
  6
CONTINUOUS
 62
     4
 10
5416.2331744709518
 20
6241.1883740000039
 30
0.0
 11
5416.2331744709518
 21
8396.688374000003
 31
0.0
  0
LINE
  5
10184
  8
SUNPOU
  6
CONTINUOUS
 62
     4
 10
6506.2335704709376
 20
6161.1883740000021
 30
0.0
 11
6506.2335704709376
 21
4461.1887039999992
 31
0.0
  0
LINE
  5
10185
  8
SUNPOU
  6
CONTINUOUS
 62
     4
 10
11726.23357047094
 20
6161.1883740000021
 30
0.0
 11
11726.23357047094
 21
4461.1887039999992
 31
0.0
  0
LINE
  5
10186
  8
SUNPOU
  6
CONTINUOUS
 62
     4
 10
6506.2335704709376
 20
4541.1887039999983
 30
0.0
 11
11726.23357047094
 21
4541.1887039999983
 31
0.0
  0
LINE
  5
10187
  8
SUNPOU
  6
CONTINUOUS
 62
     4
 10
11683.733570470929
 20
5798.5361160000011
 30
0.0
 11
11683.733570470929
 21
4861.1885389999998
 31
0.0
  0
LINE
  5
10188
  8
SUNPOU
  6
CONTINUOUS
 62
     4
 10
11726.23357047094
 20
6161.1883740000021
 30
0.0
 11
11726.23357047094
 21
4861.1885389999998
 31
0.0
  0
LINE
  5
10189
  8
SUNPOU
  6
CONTINUOUS
 62
     4
 10
11683.733570470929
 20
4941.1885390000016
 30
0.0
 11
11443.73357047094
 21
4941.1885390000016
 31
0.0
  0
LINE
  5
1018A
  8
SUNPOU
  6
CONTINUOUS
 62
     4
 10
11726.23357047094
 20
4941.1885390000016
 30
0.0
 11
11966.23357047094
 21
4941.1885390000016
 31
0.0
  0
LINE
  5
1018B
  8
SUNPOU
  6
CONTINUOUS
 62
     4
 10
11683.733570470929
 20
4941.1885390000016
 30
0.0
 11
11726.23357047094
 21
4941.1885390000016
 31
0.0
  0
LINE
  5
1018C
  8
SUNPOU
  6
CONTINUOUS
 62
     4
 10
6548.7335704709412
 20
5798.5361160000011
 30
0.0
 11
6548.7335704709412
 21
4861.1885389999998
 31
0.0
  0
LINE
  5
1018D
  8
SUNPOU
  6
CONTINUOUS
 62
     4
 10
6506.2335704709376
 20
6161.1883740000021
 30
0.0
 11
6506.2335704709376
 21
4861.1885389999998
 31
0.0
  0
LINE
  5
1018E
  8
SUNPOU
  6
CONTINUOUS
 62
     4
 10
6548.7335704709412
 20
4941.1885390000016
 30
0.0
 11
6788.7335704709403
 21
4941.1885390000016
 31
0.0
  0
LINE
  5
1018F
  8
SUNPOU
  6
CONTINUOUS
 62
     4
 10
6506.2335704709376
 20
4941.1885390000016
 30
0.0
 11
6266.2335704709412
 21
4941.1885390000016
 31
0.0
  0
LINE
  5
10190
  8
SUNPOU
  6
CONTINUOUS
 62
     4
 10
6548.7335704709412
 20
4941.1885390000016
 30
0.0
 11
6506.2335704709376
 21
4941.1885390000016
 31
0.0
  0
LINE
  5
10191
  8
SUNPOU
  6
CONTINUOUS
 62
     4
 10
9116.2335704709403
 20
5798.5361160000011
 30
0.0
 11
9116.2335704709403
 21
4861.1885389999998
 31
0.0
  0
LINE
  5
10192
  8
SUNPOU
  6
CONTINUOUS
 62
     4
 10
6548.7335704709412
 20
5798.5361160000011
 30
0.0
 11
6548.7335704709412
 21
4861.1885389999998
 31
0.0
  0
LINE
  5
10193
  8
SUNPOU
  6
CONTINUOUS
 62
     4
 10
9116.2335704709403
 20
4941.1885390000016
 30
0.0
 11
6548.7335704709412
 21
4941.1885390000016
 31
0.0
  0
LINE
  5
10194
  8
SUNPOU
  6
CONTINUOUS
 62
     4
 10
9116.2335704709403
 20
5798.5361160000011
 30
0.0
 11
9116.2335704709403
 21
4861.1885389999998
 31
0.0
  0
LINE
  5
10195
  8
SUNPOU
  6
CONTINUOUS
 62
     4
 10
11683.733570470929
 20
5798.5361160000011
 30
0.0
 11
11683.733570470929
 21
4861.1885389999998
 31
0.0
  0
LINE
  5
10196
  8
SUNPOU
  6
CONTINUOUS
 62
     4
 10
9116.2335704709403
 20
4941.1885390000016
 30
0.0
 11
11683.733570470929
 21
4941.1885390000016
 31
0.0
  0
LINE
  5
10197
  8
SUNPOU
  6
CONTINUOUS
 62
     4
 10
19688.010092585158
 20
8669.6883999999955
 30
0.0
 11
19688.010092585158
 21
9869.1329740000037
 31
0.0
  0
LINE
  5
10198
  8
SUNPOU
  6
CONTINUOUS
 62
     4
 10
27777.010092585158
 20
8669.6883999999955
 30
0.0
 11
27777.010092585158
 21
9869.1329740000037
 31
0.0
  0
LINE
  5
10199
  8
SUNPOU
  6
CONTINUOUS
 62
     4
 10
19691.010092585158
 20
9789.1329740000037
 30
0.0
 11
27774.010092585158
 21
9789.1329740000037
 31
0.0
  0
LINE
  5
1019A
  8
SUNPOU
  6
CONTINUOUS
 62
     4
 10
27734.010092585158
 20
8669.6883999999955
 30
0.0
 11
27734.010092585158
 21
9469.1900500000029
 31
0.0
  0
LINE
  5
1019B
  8
SUNPOU
  6
CONTINUOUS
 62
     4
 10
27777.010092585158
 20
8669.6883999999955
 30
0.0
 11
27777.010092585158
 21
9469.1900500000029
 31
0.0
  0
LINE
  5
1019C
  8
SUNPOU
  6
CONTINUOUS
 62
     4
 10
27734.010092585158
 20
9389.1900500000029
 30
0.0
 11
27494.010092585158
 21
9389.1900500000029
 31
0.0
  0
LINE
  5
1019D
  8
SUNPOU
  6
CONTINUOUS
 62
     4
 10
27774.010092585158
 20
9389.1900500000029
 30
0.0
 11
28014.010092585158
 21
9389.1900500000029
 31
0.0
  0
LINE
  5
1019E
  8
SUNPOU
  6
CONTINUOUS
 62
     4
 10
27734.010092585158
 20
9389.1900500000029
 30
0.0
 11
27774.010092585158
 21
9389.1900500000029
 31
0.0
  0
LINE
  5
1019F
  8
SUNPOU
  6
CONTINUOUS
 62
     4
 10
19731.010092585158
 20
8539.6884659999996
 30
0.0
 11
19731.010092585158
 21
9469.1900500000029
 31
0.0
  0
LINE
  5
101A0
  8
SUNPOU
  6
CONTINUOUS
 62
     4
 10
19688.010092585158
 20
8669.6883999999955
 30
0.0
 11
19688.010092585158
 21
9469.1900500000029
 31
0.0
  0
LINE
  5
101A1
  8
SUNPOU
  6
CONTINUOUS
 62
     4
 10
19731.010092585158
 20
9389.1900500000029
 30
0.0
 11
19971.010092585158
 21
9389.1900500000029
 31
0.0
  0
LINE
  5
101A2
  8
SUNPOU
  6
CONTINUOUS
 62
     4
 10
19691.010092585158
 20
9389.1900500000029
 30
0.0
 11
19451.010092585158
 21
9389.1900500000029
 31
0.0
  0
LINE
  5
101A3
  8
SUNPOU
  6
CONTINUOUS
 62
     4
 10
19731.010092585158
 20
9389.1900500000029
 30
0.0
 11
19691.010092585158
 21
9389.1900500000029
 31
0.0
  0
LINE
  5
101A4
  8
SUNPOU
  6
CONTINUOUS
 62
     4
 10
22734.010092585158
 20
8539.6884659999996
 30
0.0
 11
22734.010092585158
 21
9469.1900500000029
 31
0.0
  0
LINE
  5
101A5
  8
SUNPOU
  6
CONTINUOUS
 62
     4
 10
19731.010092585158
 20
8539.6884659999996
 30
0.0
 11
19731.010092585158
 21
9469.1900500000029
 31
0.0
  0
LINE
  5
101A6
  8
SUNPOU
  6
CONTINUOUS
 62
     4
 10
22734.010092585158
 20
9389.1900500000029
 30
0.0
 11
19731.010092585158
 21
9389.1900500000029
 31
0.0
  0
LINE
  5
101A7
  8
SUNPOU
  6
CONTINUOUS
 62
     4
 10
19643.50745358516
 20
6241.1883740000021
 30
0.0
 11
18443.50745358516
 21
6241.1883740000021
 31
0.0
  0
LINE
  5
101A8
  8
SUNPOU
  6
CONTINUOUS
 62
     4
 10
19611.010092585158
 20
8590.1883999999973
 30
0.0
 11
18443.50745358516
 21
8590.1883999999973
 31
0.0
  0
LINE
  5
101A9
  8
SUNPOU
  6
CONTINUOUS
 62
     4
 10
18523.50745358516
 20
6241.1883740000021
 30
0.0
 11
18523.50745358516
 21
8590.1883999999973
 31
0.0
  0
LINE
  5
101AA
  8
SUNPOU
  6
CONTINUOUS
 62
     4
 10
19643.50745358516
 20
6241.1883740000021
 30
0.0
 11
18843.506793585169
 21
6241.1883740000021
 31
0.0
  0
LINE
  5
101AB
  8
SUNPOU
  6
CONTINUOUS
 62
     4
 10
19736.006397585181
 20
8132.6883740000021
 30
0.0
 11
18843.506793585169
 21
8132.6883740000021
 31
0.0
  0
LINE
  5
101AC
  8
SUNPOU
  6
CONTINUOUS
 62
     4
 10
18923.506793585158
 20
6241.1883740000021
 30
0.0
 11
18923.506793585158
 21
8132.6883740000021
 31
0.0
  0
LINE
  5
101AD
  8
SUNPOU
  6
CONTINUOUS
 62
     4
 10
22737.010092585158
 20
6161.1883740000021
 30
0.0
 11
22737.010092585158
 21
5261.188374000003
 31
0.0
  0
LINE
  5
101AE
  8
SUNPOU
  6
CONTINUOUS
 62
     4
 10
27649.01009258518
 20
6061.1885389999989
 30
0.0
 11
27649.01009258518
 21
5261.188374000003
 31
0.0
  0
LINE
  5
101AF
  8
SUNPOU
  6
CONTINUOUS
 62
     4
 10
22737.010092585158
 20
5341.188374000003
 30
0.0
 11
27649.01009258518
 21
5341.188374000003
 31
0.0
  0
LINE
  5
101B0
  8
SUNPOU
  6
CONTINUOUS
 62
     4
 10
19731.05004553268
 20
6161.1883740000021
 30
0.0
 11
19731.05004553268
 21
4461.1887040000574
 31
0.0
  0
LINE
  5
101B1
  8
SUNPOU
  6
CONTINUOUS
 62
     4
 10
27734.010092585158
 20
6061.1885389999989
 30
0.0
 11
27734.010092585158
 21
4461.1887040000574
 31
0.0
  0
LINE
  5
101B2
  8
SUNPOU
  6
CONTINUOUS
 62
     4
 10
19731.05004553268
 20
4541.1887040000556
 30
0.0
 11
27734.010092585158
 21
4541.1887040000556
 31
0.0
  0
LINE
  5
101B3
  8
SUNPOU
  6
CONTINUOUS
 62
     4
 10
19773.510092585158
 20
5798.5361160000011
 30
0.0
 11
19773.510092585158
 21
4861.1885389999998
 31
0.0
  0
LINE
  5
101B4
  8
SUNPOU
  6
CONTINUOUS
 62
     4
 10
19731.05004553268
 20
6161.1883740000021
 30
0.0
 11
19731.05004553268
 21
4861.1885389999998
 31
0.0
  0
LINE
  5
101B5
  8
SUNPOU
  6
CONTINUOUS
 62
     4
 10
19773.510092585158
 20
4941.1885390000016
 30
0.0
 11
20013.510092585158
 21
4941.1885390000016
 31
0.0
  0
LINE
  5
101B6
  8
SUNPOU
  6
CONTINUOUS
 62
     4
 10
19731.05004553268
 20
4941.1885390000016
 30
0.0
 11
19491.05004553268
 21
4941.1885390000016
 31
0.0
  0
LINE
  5
101B7
  8
SUNPOU
  6
CONTINUOUS
 62
     4
 10
19773.510092585158
 20
4941.1885390000016
 30
0.0
 11
19731.05004553268
 21
4941.1885390000016
 31
0.0
  0
LINE
  5
101B8
  8
SUNPOU
  6
CONTINUOUS
 62
     4
 10
22691.510092585158
 20
5798.5361160000011
 30
0.0
 11
22691.510092585158
 21
4861.1885389999998
 31
0.0
  0
LINE
  5
101B9
  8
SUNPOU
  6
CONTINUOUS
 62
     4
 10
19773.510092585158
 20
5798.5361160000011
 30
0.0
 11
19773.510092585158
 21
4861.1885389999998
 31
0.0
  0
LINE
  5
101BA
  8
SUNPOU
  6
CONTINUOUS
 62
     4
 10
22691.510092585158
 20
4941.1885390000016
 30
0.0
 11
19773.510092585158
 21
4941.1885390000016
 31
0.0
  0
LINE
  5
101BB
  8
SUNPOU
  6
CONTINUOUS
 62
     4
 10
19867.510092585158
 20
6061.1885389999989
 30
0.0
 11
19867.510092585158
 21
5261.188374000003
 31
0.0
  0
LINE
  5
101BC
  8
SUNPOU
  6
CONTINUOUS
 62
     4
 10
22597.510092585158
 20
6061.1885389999989
 30
0.0
 11
22597.510092585158
 21
5261.188374000003
 31
0.0
  0
LINE
  5
101BD
  8
SUNPOU
  6
CONTINUOUS
 62
     4
 10
19867.510092585158
 20
5341.188374000003
 30
0.0
 11
22597.510092585158
 21
5341.188374000003
 31
0.0
  0
LINE
  5
101BE
  8
SUNPOU
  6
CONTINUOUS
 62
     4
 10
27691.510092585158
 20
5798.5361160000011
 30
0.0
 11
27691.510092585158
 21
4861.1885389999998
 31
0.0
  0
LINE
  5
101BF
  8
SUNPOU
  6
CONTINUOUS
 62
     4
 10
27734.010092585158
 20
6061.1885389999989
 30
0.0
 11
27734.010092585158
 21
4861.1885389999998
 31
0.0
  0
LINE
  5
101C0
  8
SUNPOU
  6
CONTINUOUS
 62
     4
 10
27691.510092585158
 20
4941.1885390000016
 30
0.0
 11
27451.510092585158
 21
4941.1885390000016
 31
0.0
  0
LINE
  5
101C1
  8
SUNPOU
  6
CONTINUOUS
 62
     4
 10
27734.010092585158
 20
4941.1885390000016
 30
0.0
 11
27974.010092585158
 21
4941.1885390000016
 31
0.0
  0
LINE
  5
101C2
  8
SUNPOU
  6
CONTINUOUS
 62
     4
 10
27691.510092585158
 20
4941.1885390000016
 30
0.0
 11
27734.010092585158
 21
4941.1885390000016
 31
0.0
  0
LINE
  5
101C3
  8
SUNPOU
  6
CONTINUOUS
 62
     4
 10
22691.510092585158
 20
5798.5361160000011
 30
0.0
 11
22691.510092585158
 21
4861.1885389999998
 31
0.0
  0
LINE
  5
101C4
  8
SUNPOU
  6
CONTINUOUS
 62
     4
 10
27691.510092585158
 20
5798.5361160000011
 30
0.0
 11
27691.510092585158
 21
4861.1885389999998
 31
0.0
  0
LINE
  5
101C5
  8
SUNPOU
  6
CONTINUOUS
 62
     4
 10
22691.510092585158
 20
4941.1885390000016
 30
0.0
 11
27691.510092585158
 21
4941.1885390000016
 31
0.0
  0
LINE
  5
101C6
  8
SUNPOU
  6
CONTINUOUS
 62
     4
 10
22734.010092585158
 20
8539.6884659999996
 30
0.0
 11
22734.010092585158
 21
9469.1900500000029
 31
0.0
  0
LINE
  5
101C7
  8
SUNPOU
  6
CONTINUOUS
 62
     4
 10
27734.010092585158
 20
8669.6883999999955
 30
0.0
 11
27734.010092585158
 21
9469.1900500000029
 31
0.0
  0
LINE
  5
101C8
  8
SUNPOU
  6
CONTINUOUS
 62
     4
 10
22734.010092585158
 20
9389.1900500000029
 30
0.0
 11
27734.010092585158
 21
9389.1900500000029
 31
0.0
  0
LINE
  5
101C9
  8
SUNPOU
  6
CONTINUOUS
 62
     4
 10
27814.010092585158
 20
6242.0026620000026
 30
0.0
 11
29023.832490879529
 21
6242.0026620000026
 31
0.0
  0
LINE
  5
101CA
  8
SUNPOU
  6
CONTINUOUS
 62
     4
 10
27854.010092585158
 20
8262.0026620000026
 30
0.0
 11
29023.832490879551
 21
8262.0026620000026
 31
0.0
  0
LINE
  5
101CB
  8
SUNPOU
  6
CONTINUOUS
 62
     4
 10
28943.832490879529
 20
6242.0026620000026
 30
0.0
 11
28943.832490879551
 21
8262.0026620000026
 31
0.0
  0
LINE
  5
101CC
  8
SUNPOU
  6
CONTINUOUS
 62
     4
 10
5507.1435181510387
 20
13969.98643699999
 30
0.0
 11
4660.1437421510464
 21
13969.98643699999
 31
0.0
  0
LINE
  5
101CD
  8
SUNPOU
  6
CONTINUOUS
 62
     4
 10
4740.1437421510473
 20
14162.48571100001
 30
0.0
 11
4740.1437421510473
 21
13969.98643699999
 31
0.0
  0
LINE
  5
101CE
  8
SUNPOU
  6
CONTINUOUS
 62
     4
 10
4740.1437421510473
 20
16729.985711000001
 30
0.0
 11
4740.1437421510473
 21
14162.48571100001
 31
0.0
  0
LINE
  5
101CF
  8
SUNPOU
  6
CONTINUOUS
 62
     4
 10
4740.1437421510491
 20
19297.485711000001
 30
0.0
 11
4740.1437421510473
 21
16729.985711000001
 31
0.0
  0
LINE
  5
101D0
  8
SUNPOU
  6
CONTINUOUS
 62
     4
 10
4660.1437421510482
 20
19297.485711000001
 30
0.0
 11
4700.1437421510491
 21
19297.485711000001
 31
0.0
  0
LINE
  5
101D1
  8
SUNPOU
  6
CONTINUOUS
 62
     4
 10
5512.1427921510367
 20
19519.985579
 30
0.0
 11
4700.1437421510491
 21
19519.985579
 31
0.0
  0
LINE
  5
101D2
  8
SUNPOU
  6
CONTINUOUS
 62
     4
 10
4740.1437421510491
 20
19297.485711000001
 30
0.0
 11
4740.1437421510491
 21
19519.985579
 31
0.0
  0
LINE
  5
101D3
  8
SUNPOU
  6
CONTINUOUS
 62
     4
 10
5580.6436371510499
 20
19509.98900999999
 30
0.0
 11
5060.1430831510461
 21
19509.98900999999
 31
0.0
  0
LINE
  5
101D4
  8
SUNPOU
  6
CONTINUOUS
 62
     4
 10
5512.1427921510367
 20
19519.985579
 30
0.0
 11
5060.1430831510461
 21
19519.985579
 31
0.0
  0
LINE
  5
101D5
  8
SUNPOU
  6
CONTINUOUS
 62
     4
 10
5140.1430831510479
 20
19509.98900999999
 30
0.0
 11
5140.1430831510479
 21
19269.98900999999
 31
0.0
  0
LINE
  5
101D6
  8
SUNPOU
  6
CONTINUOUS
 62
     4
 10
5140.1430831510479
 20
19519.985579
 30
0.0
 11
5140.1430831510479
 21
19759.985579
 31
0.0
  0
LINE
  5
101D7
  8
SUNPOU
  6
CONTINUOUS
 62
     4
 10
5140.1430831510479
 20
19509.98900999999
 30
0.0
 11
5140.1430831510479
 21
19519.985579
 31
0.0
  0
LINE
  5
101D8
  8
SUNPOU
  6
CONTINUOUS
 62
     4
 10
13587.643518151041
 20
20144.987624000001
 30
0.0
 11
13587.643518151041
 21
20219.986634999979
 31
0.0
  0
LINE
  5
101D9
  8
SUNPOU
  6
CONTINUOUS
 62
     4
 10
13673.143518151041
 20
19594.987293999991
 30
0.0
 11
13673.143518151041
 21
20219.986634999979
 31
0.0
  0
LINE
  5
101DA
  8
SUNPOU
  6
CONTINUOUS
 62
     4
 10
13587.643518151041
 20
20139.986634999979
 30
0.0
 11
13347.643518151041
 21
20139.986634999979
 31
0.0
  0
LINE
  5
101DB
  8
SUNPOU
  6
CONTINUOUS
 62
     4
 10
13670.143518151041
 20
20139.986634999979
 30
0.0
 11
13910.143518151041
 21
20139.986634999979
 31
0.0
  0
LINE
  5
101DC
  8
SUNPOU
  6
CONTINUOUS
 62
     4
 10
13587.643518151041
 20
20139.986634999979
 30
0.0
 11
13670.143518151041
 21
20139.986634999979
 31
0.0
  0
LINE
  5
101DD
  8
SUNPOU
  6
CONTINUOUS
 62
     4
 10
8587.6435181510387
 20
20144.987624000001
 30
0.0
 11
8587.6435181510387
 21
20219.986634999979
 31
0.0
  0
LINE
  5
101DE
  8
SUNPOU
  6
CONTINUOUS
 62
     4
 10
13587.643518151041
 20
20144.987624000001
 30
0.0
 11
13587.643518151041
 21
20219.986634999979
 31
0.0
  0
LINE
  5
101DF
  8
SUNPOU
  6
CONTINUOUS
 62
     4
 10
8587.6435181510387
 20
20139.986634999979
 30
0.0
 11
13587.643518151041
 21
20139.986634999979
 31
0.0
  0
LINE
  5
101E0
  8
SUNPOU
  6
CONTINUOUS
 62
     4
 10
5669.6435181510387
 20
19669.987293999991
 30
0.0
 11
5669.6435181510387
 21
20219.986634999979
 31
0.0
  0
LINE
  5
101E1
  8
SUNPOU
  6
CONTINUOUS
 62
     4
 10
8587.6435181510387
 20
20144.987624000001
 30
0.0
 11
8587.6435181510387
 21
20219.986634999979
 31
0.0
  0
LINE
  5
101E2
  8
SUNPOU
  6
CONTINUOUS
 62
     4
 10
5669.6435181510387
 20
20139.986634999979
 30
0.0
 11
8587.6435181510387
 21
20139.986634999979
 31
0.0
  0
LINE
  5
101E3
  8
SUNPOU
  6
CONTINUOUS
 62
     4
 10
5669.6435181510387
 20
19669.987293999991
 30
0.0
 11
5669.6435181510387
 21
20219.986634999979
 31
0.0
  0
LINE
  5
101E4
  8
SUNPOU
  6
CONTINUOUS
 62
     4
 10
5584.1435181510369
 20
19589.987031000001
 30
0.0
 11
5584.1435181510369
 21
20219.986634999979
 31
0.0
  0
LINE
  5
101E5
  8
SUNPOU
  6
CONTINUOUS
 62
     4
 10
5669.6435181510387
 20
20139.986634999979
 30
0.0
 11
5909.6435181510387
 21
20139.986634999979
 31
0.0
  0
LINE
  5
101E6
  8
SUNPOU
  6
CONTINUOUS
 62
     4
 10
5587.1435181510369
 20
20139.986634999979
 30
0.0
 11
5347.1435181510387
 21
20139.986634999979
 31
0.0
  0
LINE
  5
101E7
  8
SUNPOU
  6
CONTINUOUS
 62
     4
 10
5669.6435181510387
 20
20139.986634999979
 30
0.0
 11
5587.1435181510369
 21
20139.986634999979
 31
0.0
  0
LINE
  5
101E8
  8
SUNPOU
  6
CONTINUOUS
 62
     4
 10
5584.1435181510369
 20
13889.98643699999
 30
0.0
 11
5584.1435181510369
 21
12599.98564499999
 31
0.0
  0
LINE
  5
101E9
  8
SUNPOU
  6
CONTINUOUS
 62
     4
 10
13673.143518151041
 20
13889.98643699999
 30
0.0
 11
13673.143518151041
 21
12599.98564499999
 31
0.0
  0
LINE
  5
101EA
  8
SUNPOU
  6
CONTINUOUS
 62
     4
 10
5587.1435181510369
 20
12679.985644999981
 30
0.0
 11
13670.143518151041
 21
12679.985644999981
 31
0.0
  0
LINE
  5
101EB
  8
0-6
  6
CONTINUOUS
 62
     6
 10
11532.3736647651
 20
15931.02056986666
 30
0.0
 11
11652.22839167163
 21
16040.351666821891
 31
0.0
  0
LINE
  5
101EC
  8
0-6
  6
CONTINUOUS
 62
     6
 10
11652.22839167163
 20
16040.351666821891
 30
0.0
 11
11574.30299363483
 21
15898.06295797934
 31
0.0
  0
LINE
  5
101ED
  8
0-6
  6
CONTINUOUS
 62
     6
 10
11574.30299363483
 20
15898.06295797934
 30
0.0
 11
11532.3736647651
 21
15931.02056986666
 31
0.0
  0
LINE
  5
101EE
  8
0-6
  6
CONTINUOUS
 62
     6
 10
7248.3086933419409
 20
16944.10254427827
 30
0.0
 11
7279.9483397106942
 21
16784.988192000001
 31
0.0
  0
LINE
  5
101EF
  8
0-6
  6
CONTINUOUS
 62
     6
 10
7279.9483397106942
 20
16784.988192000001
 30
0.0
 11
7198.4222138083323
 21
16925.24486784335
 31
0.0
  0
LINE
  5
101F0
  8
0-6
  6
CONTINUOUS
 62
     6
 10
7198.4222138083323
 20
16925.24486784335
 30
0.0
 11
7248.3086933419409
 21
16944.10254427827
 31
0.0
  0
LINE
  5
101F1
  8
0-6
  6
CONTINUOUS
 62
     6
 10
13466.43273758199
 20
15474.908203041959
 30
0.0
 11
13534.643887151051
 21
15622.07550424462
 31
0.0
  0
LINE
  5
101F2
  8
0-6
  6
CONTINUOUS
 62
     6
 10
13534.643887151051
 20
15622.07550424462
 30
0.0
 11
13422.38834065885
 21
15504.98496113426
 31
0.0
  0
LINE
  5
101F3
  8
0-6
  6
CONTINUOUS
 62
     6
 10
13422.38834065885
 20
15504.98496113426
 30
0.0
 11
13466.43273758199
 21
15474.908203041959
 31
0.0
  0
TEXT
  5
101F4
  8
0
  6
CONTINUOUS
 62
     7
 10
8873.976851484369
 20
12759.985644999981
 30
0.0
 40
160.0
  1
ケラバ外寸8089
  0
TEXT
  5
101F5
  8
0
  6
CONTINUOUS
 62
     7
 10
5094.496374151051
 20
20219.984918999991
 30
0.0
 40
160.0
  1
85.5
  0
TEXT
  5
101F6
  8
0
  6
CONTINUOUS
 62
     7
 10
6861.9768514843699
 20
20219.986634999979
 30
0.0
 40
160.0
  1
2918
  0
TEXT
  5
101F7
  8
0
  6
CONTINUOUS
 62
     7
 10
10834.31018481769
 20
20219.986634999979
 30
0.0
 40
160.0
  1
5000
  0
TEXT
  5
101F8
  8
0
  6
CONTINUOUS
 62
     7
 10
13733.991306151051
 20
20219.984918999991
 30
0.0
 40
160.0
  1
85.5
  0
TEXT
  5
101F9
  8
0
  6
CONTINUOUS
 62
     7
 10
5060.1438081510496
 20
19691.414439666671
 30
0.0
 40
160.0
  1
10
 50
90.0
  0
TEXT
  5
101FA
  8
0
  6
CONTINUOUS
 62
     7
 10
4660.1437421510482
 20
19598.467233389241
 30
0.0
 40
160.0
  1
222.5
 50
90.0
  0
TEXT
  5
101FB
  8
0
  6
CONTINUOUS
 62
     7
 10
4660.1437421510454
 20
17613.735711000001
 30
0.0
 40
160.0
  1
2567.5
 50
90.0
  0
TEXT
  5
101FC
  8
0
  6
CONTINUOUS
 62
     7
 10
4660.1437421510454
 20
15046.23571099999
 30
0.0
 40
160.0
  1
2567.5
 50
90.0
  0
TEXT
  5
101FD
  8
0
  6
CONTINUOUS
 62
     7
 10
4660.1437421510336
 20
13305.99680859056
 30
0.0
 40
160.0
  1
192.5
 50
90.0
  0
TEXT
  5
101FE
  8
0
  6
CONTINUOUS
 62
     7
 10
28863.832490879529
 20
6589.002662000009
 30
0.0
 40
160.0
  1
有効高サ2020
 50
90.0
  0
TEXT
  5
101FF
  8
0
  6
CONTINUOUS
 62
     7
 10
24980.676759251841
 20
9469.1900500000029
 30
0.0
 40
160.0
  1
5000
  0
TEXT
  5
10200
  8
0
  6
CONTINUOUS
 62
     7
 10
24938.176759251841
 20
5021.1885389999998
 30
0.0
 40
160.0
  1
5000
  0
TEXT
  5
10201
  8
0
  6
CONTINUOUS
 62
     7
 10
27854.01075258516
 20
5021.1883080000007
 30
0.0
 40
160.0
  1
42.5
  0
TEXT
  5
10202
  8
0
  6
CONTINUOUS
 62
     7
 10
20472.510092585158
 20
5421.188374000003
 30
0.0
 40
160.0
  1
有効開口巾2730
  0
TEXT
  5
10203
  8
0
  6
CONTINUOUS
 62
     7
 10
20965.843425918501
 20
5021.1885389999998
 30
0.0
 40
160.0
  1
2918
  0
TEXT
  5
10204
  8
0
  6
CONTINUOUS
 62
     7
 10
19151.18706158518
 20
5028.7357170000014
 30
0.0
 40
160.0
  1
42.5
  0
TEXT
  5
10205
  8
0
  6
CONTINUOUS
 62
     7
 10
23465.863402392271
 20
4621.1887040000584
 30
0.0
 40
160.0
  1
8003
  0
TEXT
  5
10206
  8
0
  6
CONTINUOUS
 62
     7
 10
24446.343425918501
 20
5421.188374000003
 30
0.0
 40
160.0
  1
有効開口巾4912
  0
TEXT
  5
10207
  8
0
  6
CONTINUOUS
 62
     7
 10
18843.506793585169
 20
6264.2717073333397
 30
0.0
 40
160.0
  1
有効開口高サ1891.5
 50
90.0
  0
TEXT
  5
10208
  8
0
  6
CONTINUOUS
 62
     7
 10
18443.50745358516
 20
6610.3550536666689
 30
0.0
 40
160.0
  1
2349（2589）
 50
90.0
  0
TEXT
  5
10209
  8
0
  6
CONTINUOUS
 62
     7
 10
20965.843425918501
 20
9469.1900500000029
 30
0.0
 40
160.0
  1
3003
  0
TEXT
  5
1020A
  8
0
  6
CONTINUOUS
 62
     7
 10
19361.202106585159
 20
9469.1893240000027
 30
0.0
 40
160.0
  1
43
  0
TEXT
  5
1020B
  8
0
  6
CONTINUOUS
 62
     7
 10
27911.475912585189
 20
9469.1893240000027
 30
0.0
 40
160.0
  1
43
  0
TEXT
  5
1020C
  8
0
  6
CONTINUOUS
 62
     7
 10
23452.510092585158
 20
9869.1329740000037
 30
0.0
 40
160.0
  1
8089
  0
TEXT
  5
1020D
  8
0
  6
CONTINUOUS
 62
     7
 10
9999.9835704709403
 20
5021.1885389999998
 30
0.0
 40
160.0
  1
2567.5
  0
TEXT
  5
1020E
  8
0
  6
CONTINUOUS
 62
     7
 10
7432.4835704709412
 20
5021.1885389999998
 30
0.0
 40
160.0
  1
2567.5
  0
TEXT
  5
1020F
  8
0
  6
CONTINUOUS
 62
     7
 10
5924.2439564709493
 20
5022.1790570000003
 30
0.0
 40
160.0
  1
42.5
  0
TEXT
  5
10210
  8
0
  6
CONTINUOUS
 62
     7
 10
11846.23522047094
 20
5021.1883080000007
 30
0.0
 40
160.0
  1
42.5
  0
TEXT
  5
10211
  8
0
  6
CONTINUOUS
 62
     7
 10
8836.2335704709403
 20
4621.1887039999983
 30
0.0
 40
160.0
  1
5220
  0
TEXT
  5
10212
  8
0
  6
CONTINUOUS
 62
     7
 10
5336.23317447095
 20
6326.9383740000048
 30
0.0
 40
160.0
  1
2155.5（2395.5）
 50
90.0
  0
TEXT
  5
10213
  8
0
  6
CONTINUOUS
 62
     7
 10
12736.23396647094
 20
6610.35504066667
 30
0.0
 40
160.0
  1
2349（2589）
 50
90.0
  0
TEXT
  5
10214
  8
0
  6
CONTINUOUS
 62
     7
 10
5871.8917553358442
 20
9469.1900500000029
 30
0.0
 40
160.0
  1
180
  0
TEXT
  5
10215
  8
0
  6
CONTINUOUS
 62
     7
 10
8836.2335704709403
 20
9469.1900500000029
 30
0.0
 40
160.0
  1
5220
  0
TEXT
  5
10216
  8
0
  6
CONTINUOUS
 62
     7
 10
11942.900237137599
 20
9469.1900500000029
 30
0.0
 40
160.0
  1
150
  0
TEXT
  5
10217
  8
0
  6
CONTINUOUS
 62
     7
 10
8821.2335704709403
 20
9869.1883999999955
 30
0.0
 40
160.0
  1
5550
  0
TEXT
  5
1021D
  8
0
  6
CONTINUOUS
 62
     7
 10
28850.355577953771
 20
15066.73625200001
 30
0.0
 40
160.0
  1
2567.5
 50
90.0
  0
TEXT
  5
1021E
  8
0
  6
CONTINUOUS
 62
     7
 10
28850.355577953771
 20
17634.23625200001
 30
0.0
 40
160.0
  1
2567.5
 50
90.0
  0
TEXT
  5
1021F
  8
0
  6
CONTINUOUS
 62
     7
 10
27853.43388158513
 20
20240.485459999989
 30
0.0
 40
160.0
  1
42.5
  0
TEXT
  5
10220
  8
0
  6
CONTINUOUS
 62
     7
 10
27175.33791458515
 20
20259.829315999999
 30
0.0
 40
160.0
  1
42.5
  0
TEXT
  5
10221
  8
0
  6
CONTINUOUS
 62
     7
 10
20986.845286918458
 20
20640.487175999991
 30
0.0
 40
160.0
  1
2918
  0
TEXT
  5
10222
  8
0
  6
CONTINUOUS
 62
     7
 10
24959.178620251801
 20
20640.487175999991
 30
0.0
 40
160.0
  1
5000
  0
ARC
  5
10278
  8
0
  6
BYBLOCK
 62
     0
 10
22712.511953585141
 20
20560.487175999991
 30
0.0
 40
15.0
 50
0.0
 51
180.0
  0
ARC
  5
10279
  8
0
  6
BYBLOCK
 62
     0
 10
22712.511953585141
 20
20560.487175999991
 30
0.0
 40
15.0
 50
180.0
 51
0.0
  0
ARC
  5
1027A
  8
0
  6
BYBLOCK
 62
     0
 10
27712.511953585141
 20
20560.487175999991
 30
0.0
 40
15.0
 50
180.0
 51
0.0
  0
ARC
  5
1027B
  8
0
  6
BYBLOCK
 62
     0
 10
27712.511953585141
 20
20560.487175999991
 30
0.0
 40
15.0
 50
0.0
 51
180.0
  0
ARC
  5
1027C
  8
0
  6
BYBLOCK
 62
     0
 10
19794.511953585141
 20
20560.487175999991
 30
0.0
 40
15.0
 50
0.0
 51
180.0
  0
ARC
  5
1027D
  8
0
  6
BYBLOCK
 62
     0
 10
19794.511953585141
 20
20560.487175999991
 30
0.0
 40
15.0
 50
180.0
 51
0.0
  0
ARC
  5
1027E
  8
0
  6
BYBLOCK
 62
     0
 10
22712.511953585141
 20
20560.487175999991
 30
0.0
 40
15.0
 50
180.0
 51
0.0
  0
ARC
  5
1027F
  8
0
  6
BYBLOCK
 62
     0
 10
22712.511953585141
 20
20560.487175999991
 30
0.0
 40
15.0
 50
0.0
 51
180.0
  0
ARC
  5
10280
  8
0
  6
BYBLOCK
 62
     0
 10
27712.511953585141
 20
20160.487175999991
 30
0.0
 40
15.0
 50
0.0
 51
180.0
  0
ARC
  5
10281
  8
0
  6
BYBLOCK
 62
     0
 10
27712.511953585141
 20
20160.487175999991
 30
0.0
 40
15.0
 50
180.0
 51
0.0
  0
ARC
  5
10282
  8
0
  6
BYBLOCK
 62
     0
 10
27670.009710585138
 20
20160.487175999991
 30
0.0
 40
15.0
 50
180.0
 51
0.0
  0
ARC
  5
10283
  8
0
  6
BYBLOCK
 62
     0
 10
27670.009710585138
 20
20160.487175999991
 30
0.0
 40
15.0
 50
0.0
 51
180.0
  0
ARC
  5
10284
  8
0
  6
BYBLOCK
 62
     0
 10
27712.511953585141
 20
20160.487175999991
 30
0.0
 40
15.0
 50
180.0
 51
0.0
  0
ARC
  5
10285
  8
0
  6
BYBLOCK
 62
     0
 10
27712.511953585141
 20
20160.487175999991
 30
0.0
 40
15.0
 50
0.0
 51
180.0
  0
ARC
  5
10286
  8
0
  6
BYBLOCK
 62
     0
 10
27755.010238585131
 20
20160.487175999991
 30
0.0
 40
15.0
 50
0.0
 51
180.0
  0
ARC
  5
10287
  8
0
  6
BYBLOCK
 62
     0
 10
27755.010238585131
 20
20160.487175999991
 30
0.0
 40
15.0
 50
180.0
 51
0.0
  0
ARC
  5
10288
  8
0
  6
BYBLOCK
 62
     0
 10
28930.355577953771
 20
16750.486251999992
 30
0.0
 40
15.0
 50
90.0
 51
270.0
  0
ARC
  5
10289
  8
0
  6
BYBLOCK
 62
     0
 10
28930.355577953771
 20
16750.486251999992
 30
0.0
 40
15.0
 50
270.0
 51
90.0
  0
ARC
  5
1028A
  8
0
  6
BYBLOCK
 62
     0
 10
28930.355577953771
 20
19317.986251999992
 30
0.0
 40
15.0
 50
270.0
 51
90.0
  0
ARC
  5
1028B
  8
0
  6
BYBLOCK
 62
     0
 10
28930.355577953771
 20
19317.986251999992
 30
0.0
 40
15.0
 50
90.0
 51
270.0
  0
ARC
  5
1028C
  8
0
  6
BYBLOCK
 62
     0
 10
28930.355577953771
 20
14182.986252000001
 30
0.0
 40
15.0
 50
90.0
 51
270.0
  0
ARC
  5
1028D
  8
0
  6
BYBLOCK
 62
     0
 10
28930.355577953771
 20
14182.986252000001
 30
0.0
 40
15.0
 50
270.0
 51
90.0
  0
ARC
  5
1028E
  8
0
  6
BYBLOCK
 62
     0
 10
28930.355577953771
 20
16750.486251999992
 30
0.0
 40
15.0
 50
270.0
 51
90.0
  0
ARC
  5
1028F
  8
0
  6
BYBLOCK
 62
     0
 10
28930.355577953771
 20
16750.486251999992
 30
0.0
 40
15.0
 50
90.0
 51
270.0
  0
ARC
  5
102A4
  8
0
  6
BYBLOCK
 62
     0
 10
6326.2335704709403
 20
9789.1883999999955
 30
0.0
 40
15.0
 50
0.0
 51
180.0
  0
ARC
  5
102A5
  8
0
  6
BYBLOCK
 62
     0
 10
6326.2335704709403
 20
9789.1883999999955
 30
0.0
 40
15.0
 50
180.0
 51
0.0
  0
ARC
  5
102A6
  8
0
  6
BYBLOCK
 62
     0
 10
11876.233570470929
 20
9789.1883999999955
 30
0.0
 40
15.0
 50
180.0
 51
0.0
  0
ARC
  5
102A7
  8
0
  6
BYBLOCK
 62
     0
 10
11876.233570470929
 20
9789.1883999999955
 30
0.0
 40
15.0
 50
0.0
 51
180.0
  0
ARC
  5
102A8
  8
0
  6
BYBLOCK
 62
     0
 10
11726.23357047094
 20
9389.1900500000029
 30
0.0
 40
15.0
 50
180.0
 51
0.0
  0
ARC
  5
102A9
  8
0
  6
BYBLOCK
 62
     0
 10
11726.23357047094
 20
9389.1900500000029
 30
0.0
 40
15.0
 50
0.0
 51
180.0
  0
ARC
  5
102AA
  8
0
  6
BYBLOCK
 62
     0
 10
11876.233570470929
 20
9389.1900500000029
 30
0.0
 40
15.0
 50
0.0
 51
180.0
  0
ARC
  5
102AB
  8
0
  6
BYBLOCK
 62
     0
 10
11876.233570470929
 20
9389.1900500000029
 30
0.0
 40
15.0
 50
180.0
 51
0.0
  0
ARC
  5
102AC
  8
0
  6
BYBLOCK
 62
     0
 10
6506.2335704709376
 20
9389.1900500000029
 30
0.0
 40
15.0
 50
0.0
 51
180.0
  0
ARC
  5
102AD
  8
0
  6
BYBLOCK
 62
     0
 10
6506.2335704709376
 20
9389.1900500000029
 30
0.0
 40
15.0
 50
180.0
 51
0.0
  0
ARC
  5
102AE
  8
0
  6
BYBLOCK
 62
     0
 10
11726.23357047094
 20
9389.1900500000029
 30
0.0
 40
15.0
 50
180.0
 51
0.0
  0
ARC
  5
102AF
  8
0
  6
BYBLOCK
 62
     0
 10
11726.23357047094
 20
9389.1900500000029
 30
0.0
 40
15.0
 50
0.0
 51
180.0
  0
ARC
  5
102B0
  8
0
  6
BYBLOCK
 62
     0
 10
6326.2335704709403
 20
9389.1900500000029
 30
0.0
 40
15.0
 50
0.0
 51
180.0
  0
ARC
  5
102B1
  8
0
  6
BYBLOCK
 62
     0
 10
6326.2335704709403
 20
9389.1900500000029
 30
0.0
 40
15.0
 50
180.0
 51
0.0
  0
ARC
  5
102B2
  8
0
  6
BYBLOCK
 62
     0
 10
6506.2335704709376
 20
9389.1900500000029
 30
0.0
 40
15.0
 50
180.0
 51
0.0
  0
ARC
  5
102B3
  8
0
  6
BYBLOCK
 62
     0
 10
6506.2335704709376
 20
9389.1900500000029
 30
0.0
 40
15.0
 50
0.0
 51
180.0
  0
ARC
  5
102B4
  8
0
  6
BYBLOCK
 62
     0
 10
12816.23396647094
 20
6241.1883740000021
 30
0.0
 40
15.0
 50
90.0
 51
270.0
  0
ARC
  5
102B5
  8
0
  6
BYBLOCK
 62
     0
 10
12816.23396647094
 20
6241.1883740000021
 30
0.0
 40
15.0
 50
270.0
 51
90.0
  0
ARC
  5
102B6
  8
0
  6
BYBLOCK
 62
     0
 10
12816.23396647094
 20
8590.188374000003
 30
0.0
 40
15.0
 50
270.0
 51
90.0
  0
ARC
  5
102B7
  8
0
  6
BYBLOCK
 62
     0
 10
12816.23396647094
 20
8590.188374000003
 30
0.0
 40
15.0
 50
90.0
 51
270.0
  0
ARC
  5
102B8
  8
0
  6
BYBLOCK
 62
     0
 10
5416.2331744709518
 20
6241.1883740000039
 30
0.0
 40
15.0
 50
90.0
 51
270.0
  0
ARC
  5
102B9
  8
0
  6
BYBLOCK
 62
     0
 10
5416.2331744709518
 20
6241.1883740000039
 30
0.0
 40
15.0
 50
270.0
 51
90.0
  0
ARC
  5
102BA
  8
0
  6
BYBLOCK
 62
     0
 10
5416.2331744709518
 20
8396.688374000003
 30
0.0
 40
15.0
 50
270.0
 51
90.0
  0
ARC
  5
102BB
  8
0
  6
BYBLOCK
 62
     0
 10
5416.2331744709518
 20
8396.688374000003
 30
0.0
 40
15.0
 50
90.0
 51
270.0
  0
ARC
  5
102BC
  8
0
  6
BYBLOCK
 62
     0
 10
6506.2335704709376
 20
4541.1887039999983
 30
0.0
 40
15.0
 50
0.0
 51
180.0
  0
ARC
  5
102BD
  8
0
  6
BYBLOCK
 62
     0
 10
6506.2335704709376
 20
4541.1887039999983
 30
0.0
 40
15.0
 50
180.0
 51
0.0
  0
ARC
  5
102BE
  8
0
  6
BYBLOCK
 62
     0
 10
11726.23357047094
 20
4541.1887039999983
 30
0.0
 40
15.0
 50
180.0
 51
0.0
  0
ARC
  5
102BF
  8
0
  6
BYBLOCK
 62
     0
 10
11726.23357047094
 20
4541.1887039999983
 30
0.0
 40
15.0
 50
0.0
 51
180.0
  0
ARC
  5
102C0
  8
0
  6
BYBLOCK
 62
     0
 10
11683.733570470929
 20
4941.1885390000016
 30
0.0
 40
15.0
 50
180.0
 51
0.0
  0
ARC
  5
102C1
  8
0
  6
BYBLOCK
 62
     0
 10
11683.733570470929
 20
4941.1885390000016
 30
0.0
 40
15.0
 50
0.0
 51
180.0
  0
ARC
  5
102C2
  8
0
  6
BYBLOCK
 62
     0
 10
11726.23357047094
 20
4941.1885390000016
 30
0.0
 40
15.0
 50
0.0
 51
180.0
  0
ARC
  5
102C3
  8
0
  6
BYBLOCK
 62
     0
 10
11726.23357047094
 20
4941.1885390000016
 30
0.0
 40
15.0
 50
180.0
 51
0.0
  0
ARC
  5
102C4
  8
0
  6
BYBLOCK
 62
     0
 10
6548.7335704709412
 20
4941.1885390000016
 30
0.0
 40
15.0
 50
0.0
 51
180.0
  0
ARC
  5
102C5
  8
0
  6
BYBLOCK
 62
     0
 10
6548.7335704709412
 20
4941.1885390000016
 30
0.0
 40
15.0
 50
180.0
 51
0.0
  0
ARC
  5
102C6
  8
0
  6
BYBLOCK
 62
     0
 10
6506.2335704709376
 20
4941.1885390000016
 30
0.0
 40
15.0
 50
180.0
 51
0.0
  0
ARC
  5
102C7
  8
0
  6
BYBLOCK
 62
     0
 10
6506.2335704709376
 20
4941.1885390000016
 30
0.0
 40
15.0
 50
0.0
 51
180.0
  0
ARC
  5
102C8
  8
0
  6
BYBLOCK
 62
     0
 10
9116.2335704709403
 20
4941.1885390000016
 30
0.0
 40
15.0
 50
180.0
 51
0.0
  0
ARC
  5
102C9
  8
0
  6
BYBLOCK
 62
     0
 10
9116.2335704709403
 20
4941.1885390000016
 30
0.0
 40
15.0
 50
0.0
 51
180.0
  0
ARC
  5
102CA
  8
0
  6
BYBLOCK
 62
     0
 10
6548.7335704709412
 20
4941.1885390000016
 30
0.0
 40
15.0
 50
0.0
 51
180.0
  0
ARC
  5
102CB
  8
0
  6
BYBLOCK
 62
     0
 10
6548.7335704709412
 20
4941.1885390000016
 30
0.0
 40
15.0
 50
180.0
 51
0.0
  0
ARC
  5
102CC
  8
0
  6
BYBLOCK
 62
     0
 10
9116.2335704709403
 20
4941.1885390000016
 30
0.0
 40
15.0
 50
0.0
 51
180.0
  0
ARC
  5
102CD
  8
0
  6
BYBLOCK
 62
     0
 10
9116.2335704709403
 20
4941.1885390000016
 30
0.0
 40
15.0
 50
180.0
 51
0.0
  0
ARC
  5
102CE
  8
0
  6
BYBLOCK
 62
     0
 10
11683.733570470929
 20
4941.1885390000016
 30
0.0
 40
15.0
 50
180.0
 51
0.0
  0
ARC
  5
102CF
  8
0
  6
BYBLOCK
 62
     0
 10
11683.733570470929
 20
4941.1885390000016
 30
0.0
 40
15.0
 50
0.0
 51
180.0
  0
ARC
  5
102D0
  8
0
  6
BYBLOCK
 62
     0
 10
19688.010092585158
 20
9789.1329740000037
 30
0.0
 40
15.0
 50
0.0
 51
180.0
  0
ARC
  5
102D1
  8
0
  6
BYBLOCK
 62
     0
 10
19688.010092585158
 20
9789.1329740000037
 30
0.0
 40
15.0
 50
180.0
 51
0.0
  0
ARC
  5
102D2
  8
0
  6
BYBLOCK
 62
     0
 10
27777.010092585158
 20
9789.1329740000037
 30
0.0
 40
15.0
 50
180.0
 51
0.0
  0
ARC
  5
102D3
  8
0
  6
BYBLOCK
 62
     0
 10
27777.010092585158
 20
9789.1329740000037
 30
0.0
 40
15.0
 50
0.0
 51
180.0
  0
ARC
  5
102D4
  8
0
  6
BYBLOCK
 62
     0
 10
27734.010092585158
 20
9389.1900500000029
 30
0.0
 40
15.0
 50
180.0
 51
0.0
  0
ARC
  5
102D5
  8
0
  6
BYBLOCK
 62
     0
 10
27734.010092585158
 20
9389.1900500000029
 30
0.0
 40
15.0
 50
0.0
 51
180.0
  0
ARC
  5
102D6
  8
0
  6
BYBLOCK
 62
     0
 10
27777.010092585158
 20
9389.1900500000029
 30
0.0
 40
15.0
 50
0.0
 51
180.0
  0
ARC
  5
102D7
  8
0
  6
BYBLOCK
 62
     0
 10
27777.010092585158
 20
9389.1900500000029
 30
0.0
 40
15.0
 50
180.0
 51
0.0
  0
ARC
  5
102D8
  8
0
  6
BYBLOCK
 62
     0
 10
19731.010092585158
 20
9389.1900500000029
 30
0.0
 40
15.0
 50
0.0
 51
180.0
  0
ARC
  5
102D9
  8
0
  6
BYBLOCK
 62
     0
 10
19731.010092585158
 20
9389.1900500000029
 30
0.0
 40
15.0
 50
180.0
 51
0.0
  0
ARC
  5
102DA
  8
0
  6
BYBLOCK
 62
     0
 10
19688.010092585158
 20
9389.1900500000029
 30
0.0
 40
15.0
 50
180.0
 51
0.0
  0
ARC
  5
102DB
  8
0
  6
BYBLOCK
 62
     0
 10
19688.010092585158
 20
9389.1900500000029
 30
0.0
 40
15.0
 50
0.0
 51
180.0
  0
ARC
  5
102DC
  8
0
  6
BYBLOCK
 62
     0
 10
22734.010092585158
 20
9389.1900500000029
 30
0.0
 40
15.0
 50
180.0
 51
0.0
  0
ARC
  5
102DD
  8
0
  6
BYBLOCK
 62
     0
 10
22734.010092585158
 20
9389.1900500000029
 30
0.0
 40
15.0
 50
0.0
 51
180.0
  0
ARC
  5
102DE
  8
0
  6
BYBLOCK
 62
     0
 10
19731.010092585158
 20
9389.1900500000029
 30
0.0
 40
15.0
 50
0.0
 51
180.0
  0
ARC
  5
102DF
  8
0
  6
BYBLOCK
 62
     0
 10
19731.010092585158
 20
9389.1900500000029
 30
0.0
 40
15.0
 50
180.0
 51
0.0
  0
ARC
  5
102E0
  8
0
  6
BYBLOCK
 62
     0
 10
18523.50745358516
 20
6241.1883740000021
 30
0.0
 40
15.0
 50
90.0
 51
270.0
  0
ARC
  5
102E1
  8
0
  6
BYBLOCK
 62
     0
 10
18523.50745358516
 20
6241.1883740000021
 30
0.0
 40
15.0
 50
270.0
 51
90.0
  0
ARC
  5
102E2
  8
0
  6
BYBLOCK
 62
     0
 10
18523.50745358516
 20
8590.1883999999973
 30
0.0
 40
15.0
 50
270.0
 51
90.0
  0
ARC
  5
102E3
  8
0
  6
BYBLOCK
 62
     0
 10
18523.50745358516
 20
8590.1883999999973
 30
0.0
 40
15.0
 50
90.0
 51
270.0
  0
ARC
  5
102E4
  8
0
  6
BYBLOCK
 62
     0
 10
18923.506793585158
 20
6241.1883740000021
 30
0.0
 40
15.0
 50
90.0
 51
270.0
  0
ARC
  5
102E5
  8
0
  6
BYBLOCK
 62
     0
 10
18923.506793585158
 20
6241.1883740000021
 30
0.0
 40
15.0
 50
270.0
 51
90.0
  0
ARC
  5
102E6
  8
0
  6
BYBLOCK
 62
     0
 10
18923.506793585158
 20
8132.6883740000021
 30
0.0
 40
15.0
 50
270.0
 51
90.0
  0
ARC
  5
102E7
  8
0
  6
BYBLOCK
 62
     0
 10
18923.506793585158
 20
8132.6883740000021
 30
0.0
 40
15.0
 50
90.0
 51
270.0
  0
ARC
  5
102E8
  8
0
  6
BYBLOCK
 62
     0
 10
22737.010092585158
 20
5341.188374000003
 30
0.0
 40
15.0
 50
0.0
 51
180.0
  0
ARC
  5
102E9
  8
0
  6
BYBLOCK
 62
     0
 10
22737.010092585158
 20
5341.188374000003
 30
0.0
 40
15.0
 50
180.0
 51
0.0
  0
ARC
  5
102EA
  8
0
  6
BYBLOCK
 62
     0
 10
27649.01009258518
 20
5341.188374000003
 30
0.0
 40
15.0
 50
180.0
 51
0.0
  0
ARC
  5
102EB
  8
0
  6
BYBLOCK
 62
     0
 10
27649.01009258518
 20
5341.188374000003
 30
0.0
 40
15.0
 50
0.0
 51
180.0
  0
ARC
  5
102EC
  8
0
  6
BYBLOCK
 62
     0
 10
19731.05004553268
 20
4541.1887040000556
 30
0.0
 40
15.0
 50
0.0
 51
180.0
  0
ARC
  5
102ED
  8
0
  6
BYBLOCK
 62
     0
 10
19731.05004553268
 20
4541.1887040000556
 30
0.0
 40
15.0
 50
180.0
 51
0.0
  0
ARC
  5
102EE
  8
0
  6
BYBLOCK
 62
     0
 10
27734.010092585158
 20
4541.1887040000556
 30
0.0
 40
15.0
 50
180.0
 51
0.0
  0
ARC
  5
102EF
  8
0
  6
BYBLOCK
 62
     0
 10
27734.010092585158
 20
4541.1887040000556
 30
0.0
 40
15.0
 50
0.0
 51
180.0
  0
ARC
  5
102F0
  8
0
  6
BYBLOCK
 62
     0
 10
19773.510092585158
 20
4941.1885390000016
 30
0.0
 40
15.0
 50
0.0
 51
180.0
  0
ARC
  5
102F1
  8
0
  6
BYBLOCK
 62
     0
 10
19773.510092585158
 20
4941.1885390000016
 30
0.0
 40
15.0
 50
180.0
 51
0.0
  0
ARC
  5
102F2
  8
0
  6
BYBLOCK
 62
     0
 10
19731.05004553268
 20
4941.1885390000016
 30
0.0
 40
15.0
 50
180.0
 51
0.0
  0
ARC
  5
102F3
  8
0
  6
BYBLOCK
 62
     0
 10
19731.05004553268
 20
4941.1885390000016
 30
0.0
 40
15.0
 50
0.0
 51
180.0
  0
ARC
  5
102F4
  8
0
  6
BYBLOCK
 62
     0
 10
22691.510092585158
 20
4941.1885390000016
 30
0.0
 40
15.0
 50
180.0
 51
0.0
  0
ARC
  5
102F5
  8
0
  6
BYBLOCK
 62
     0
 10
22691.510092585158
 20
4941.1885390000016
 30
0.0
 40
15.0
 50
0.0
 51
180.0
  0
ARC
  5
102F6
  8
0
  6
BYBLOCK
 62
     0
 10
19773.510092585158
 20
4941.1885390000016
 30
0.0
 40
15.0
 50
0.0
 51
180.0
  0
ARC
  5
102F7
  8
0
  6
BYBLOCK
 62
     0
 10
19773.510092585158
 20
4941.1885390000016
 30
0.0
 40
15.0
 50
180.0
 51
0.0
  0
ARC
  5
102F8
  8
0
  6
BYBLOCK
 62
     0
 10
19867.510092585158
 20
5341.188374000003
 30
0.0
 40
15.0
 50
0.0
 51
180.0
  0
ARC
  5
102F9
  8
0
  6
BYBLOCK
 62
     0
 10
19867.510092585158
 20
5341.188374000003
 30
0.0
 40
15.0
 50
180.0
 51
0.0
  0
ARC
  5
102FA
  8
0
  6
BYBLOCK
 62
     0
 10
22597.510092585158
 20
5341.188374000003
 30
0.0
 40
15.0
 50
180.0
 51
0.0
  0
ARC
  5
102FB
  8
0
  6
BYBLOCK
 62
     0
 10
22597.510092585158
 20
5341.188374000003
 30
0.0
 40
15.0
 50
0.0
 51
180.0
  0
ARC
  5
102FC
  8
0
  6
BYBLOCK
 62
     0
 10
27691.510092585158
 20
4941.1885390000016
 30
0.0
 40
15.0
 50
180.0
 51
0.0
  0
ARC
  5
102FD
  8
0
  6
BYBLOCK
 62
     0
 10
27691.510092585158
 20
4941.1885390000016
 30
0.0
 40
15.0
 50
0.0
 51
180.0
  0
ARC
  5
102FE
  8
0
  6
BYBLOCK
 62
     0
 10
27734.010092585158
 20
4941.1885390000016
 30
0.0
 40
15.0
 50
0.0
 51
180.0
  0
ARC
  5
102FF
  8
0
  6
BYBLOCK
 62
     0
 10
27734.010092585158
 20
4941.1885390000016
 30
0.0
 40
15.0
 50
180.0
 51
0.0
  0
ARC
  5
10300
  8
0
  6
BYBLOCK
 62
     0
 10
22691.510092585158
 20
4941.1885390000016
 30
0.0
 40
15.0
 50
0.0
 51
180.0
  0
ARC
  5
10301
  8
0
  6
BYBLOCK
 62
     0
 10
22691.510092585158
 20
4941.1885390000016
 30
0.0
 40
15.0
 50
180.0
 51
0.0
  0
ARC
  5
10302
  8
0
  6
BYBLOCK
 62
     0
 10
27691.510092585158
 20
4941.1885390000016
 30
0.0
 40
15.0
 50
180.0
 51
0.0
  0
ARC
  5
10303
  8
0
  6
BYBLOCK
 62
     0
 10
27691.510092585158
 20
4941.1885390000016
 30
0.0
 40
15.0
 50
0.0
 51
180.0
  0
ARC
  5
10304
  8
0
  6
BYBLOCK
 62
     0
 10
22734.010092585158
 20
9389.1900500000029
 30
0.0
 40
15.0
 50
0.0
 51
180.0
  0
ARC
  5
10305
  8
0
  6
BYBLOCK
 62
     0
 10
22734.010092585158
 20
9389.1900500000029
 30
0.0
 40
15.0
 50
180.0
 51
0.0
  0
ARC
  5
10306
  8
0
  6
BYBLOCK
 62
     0
 10
27734.010092585158
 20
9389.1900500000029
 30
0.0
 40
15.0
 50
180.0
 51
0.0
  0
ARC
  5
10307
  8
0
  6
BYBLOCK
 62
     0
 10
27734.010092585158
 20
9389.1900500000029
 30
0.0
 40
15.0
 50
0.0
 51
180.0
  0
ARC
  5
10308
  8
0
  6
BYBLOCK
 62
     0
 10
28943.832490879529
 20
6242.0026620000026
 30
0.0
 40
15.0
 50
90.0
 51
270.0
  0
ARC
  5
10309
  8
0
  6
BYBLOCK
 62
     0
 10
28943.832490879529
 20
6242.0026620000026
 30
0.0
 40
15.0
 50
270.0
 51
90.0
  0
ARC
  5
1030A
  8
0
  6
BYBLOCK
 62
     0
 10
28943.832490879551
 20
8262.0026620000026
 30
0.0
 40
15.0
 50
270.0
 51
90.0
  0
ARC
  5
1030B
  8
0
  6
BYBLOCK
 62
     0
 10
28943.832490879551
 20
8262.0026620000026
 30
0.0
 40
15.0
 50
90.0
 51
270.0
  0
ARC
  5
1030C
  8
0
  6
BYBLOCK
 62
     0
 10
4740.1437421510473
 20
14162.48571100001
 30
0.0
 40
15.0
 50
270.0
 51
90.0
  0
ARC
  5
1030D
  8
0
  6
BYBLOCK
 62
     0
 10
4740.1437421510473
 20
14162.48571100001
 30
0.0
 40
15.0
 50
90.0
 51
270.0
  0
ARC
  5
1030E
  8
0
  6
BYBLOCK
 62
     0
 10
4740.1437421510473
 20
13969.98643699999
 30
0.0
 40
15.0
 50
90.0
 51
270.0
  0
ARC
  5
1030F
  8
0
  6
BYBLOCK
 62
     0
 10
4740.1437421510473
 20
13969.98643699999
 30
0.0
 40
15.0
 50
270.0
 51
90.0
  0
ARC
  5
10310
  8
0
  6
BYBLOCK
 62
     0
 10
4740.1437421510473
 20
16729.985711000001
 30
0.0
 40
15.0
 50
270.0
 51
90.0
  0
ARC
  5
10311
  8
0
  6
BYBLOCK
 62
     0
 10
4740.1437421510473
 20
16729.985711000001
 30
0.0
 40
15.0
 50
90.0
 51
270.0
  0
ARC
  5
10312
  8
0
  6
BYBLOCK
 62
     0
 10
4740.1437421510473
 20
14162.48571100001
 30
0.0
 40
15.0
 50
90.0
 51
270.0
  0
ARC
  5
10313
  8
0
  6
BYBLOCK
 62
     0
 10
4740.1437421510473
 20
14162.48571100001
 30
0.0
 40
15.0
 50
270.0
 51
90.0
  0
ARC
  5
10314
  8
0
  6
BYBLOCK
 62
     0
 10
4740.1437421510491
 20
19297.485711000001
 30
0.0
 40
15.0
 50
270.0
 51
90.0
  0
ARC
  5
10315
  8
0
  6
BYBLOCK
 62
     0
 10
4740.1437421510491
 20
19297.485711000001
 30
0.0
 40
15.0
 50
90.0
 51
270.0
  0
ARC
  5
10316
  8
0
  6
BYBLOCK
 62
     0
 10
4740.1437421510473
 20
16729.985711000001
 30
0.0
 40
15.0
 50
90.0
 51
270.0
  0
ARC
  5
10317
  8
0
  6
BYBLOCK
 62
     0
 10
4740.1437421510473
 20
16729.985711000001
 30
0.0
 40
15.0
 50
270.0
 51
90.0
  0
ARC
  5
10318
  8
0
  6
BYBLOCK
 62
     0
 10
4740.1437421510491
 20
19297.485711000001
 30
0.0
 40
15.0
 50
90.0
 51
270.0
  0
ARC
  5
10319
  8
0
  6
BYBLOCK
 62
     0
 10
4740.1437421510491
 20
19297.485711000001
 30
0.0
 40
15.0
 50
270.0
 51
90.0
  0
ARC
  5
1031A
  8
0
  6
BYBLOCK
 62
     0
 10
4740.1437421510491
 20
19519.985579
 30
0.0
 40
15.0
 50
270.0
 51
90.0
  0
ARC
  5
1031B
  8
0
  6
BYBLOCK
 62
     0
 10
4740.1437421510491
 20
19519.985579
 30
0.0
 40
15.0
 50
90.0
 51
270.0
  0
ARC
  5
1031C
  8
0
  6
BYBLOCK
 62
     0
 10
5140.1430831510479
 20
19509.98900999999
 30
0.0
 40
15.0
 50
270.0
 51
90.0
  0
ARC
  5
1031D
  8
0
  6
BYBLOCK
 62
     0
 10
5140.1430831510479
 20
19509.98900999999
 30
0.0
 40
15.0
 50
90.0
 51
270.0
  0
ARC
  5
1031E
  8
0
  6
BYBLOCK
 62
     0
 10
5140.1430831510479
 20
19519.985579
 30
0.0
 40
15.0
 50
90.0
 51
270.0
  0
ARC
  5
1031F
  8
0
  6
BYBLOCK
 62
     0
 10
5140.1430831510479
 20
19519.985579
 30
0.0
 40
15.0
 50
270.0
 51
90.0
  0
ARC
  5
10320
  8
0
  6
BYBLOCK
 62
     0
 10
13587.643518151041
 20
20139.986634999979
 30
0.0
 40
15.0
 50
180.0
 51
0.0
  0
ARC
  5
10321
  8
0
  6
BYBLOCK
 62
     0
 10
13587.643518151041
 20
20139.986634999979
 30
0.0
 40
15.0
 50
0.0
 51
180.0
  0
ARC
  5
10322
  8
0
  6
BYBLOCK
 62
     0
 10
13673.143518151041
 20
20139.986634999979
 30
0.0
 40
15.0
 50
0.0
 51
180.0
  0
ARC
  5
10323
  8
0
  6
BYBLOCK
 62
     0
 10
13673.143518151041
 20
20139.986634999979
 30
0.0
 40
15.0
 50
180.0
 51
0.0
  0
ARC
  5
10324
  8
0
  6
BYBLOCK
 62
     0
 10
8587.6435181510387
 20
20139.986634999979
 30
0.0
 40
15.0
 50
0.0
 51
180.0
  0
ARC
  5
10325
  8
0
  6
BYBLOCK
 62
     0
 10
8587.6435181510387
 20
20139.986634999979
 30
0.0
 40
15.0
 50
180.0
 51
0.0
  0
ARC
  5
10326
  8
0
  6
BYBLOCK
 62
     0
 10
13587.643518151041
 20
20139.986634999979
 30
0.0
 40
15.0
 50
180.0
 51
0.0
  0
ARC
  5
10327
  8
0
  6
BYBLOCK
 62
     0
 10
13587.643518151041
 20
20139.986634999979
 30
0.0
 40
15.0
 50
0.0
 51
180.0
  0
ARC
  5
10328
  8
0
  6
BYBLOCK
 62
     0
 10
5669.6435181510387
 20
20139.986634999979
 30
0.0
 40
15.0
 50
0.0
 51
180.0
  0
ARC
  5
10329
  8
0
  6
BYBLOCK
 62
     0
 10
5669.6435181510387
 20
20139.986634999979
 30
0.0
 40
15.0
 50
180.0
 51
0.0
  0
ARC
  5
1032A
  8
0
  6
BYBLOCK
 62
     0
 10
8587.6435181510387
 20
20139.986634999979
 30
0.0
 40
15.0
 50
180.0
 51
0.0
  0
ARC
  5
1032B
  8
0
  6
BYBLOCK
 62
     0
 10
8587.6435181510387
 20
20139.986634999979
 30
0.0
 40
15.0
 50
0.0
 51
180.0
  0
ARC
  5
1032C
  8
0
  6
BYBLOCK
 62
     0
 10
5669.6435181510387
 20
20139.986634999979
 30
0.0
 40
15.0
 50
0.0
 51
180.0
  0
ARC
  5
1032D
  8
0
  6
BYBLOCK
 62
     0
 10
5669.6435181510387
 20
20139.986634999979
 30
0.0
 40
15.0
 50
180.0
 51
0.0
  0
ARC
  5
1032E
  8
0
  6
BYBLOCK
 62
     0
 10
5584.1435181510369
 20
20139.986634999979
 30
0.0
 40
15.0
 50
180.0
 51
0.0
  0
ARC
  5
1032F
  8
0
  6
BYBLOCK
 62
     0
 10
5584.1435181510369
 20
20139.986634999979
 30
0.0
 40
15.0
 50
0.0
 51
180.0
  0
ARC
  5
10330
  8
0
  6
BYBLOCK
 62
     0
 10
5584.1435181510369
 20
12679.985644999981
 30
0.0
 40
15.0
 50
0.0
 51
180.0
  0
ARC
  5
10331
  8
0
  6
BYBLOCK
 62
     0
 10
5584.1435181510369
 20
12679.985644999981
 30
0.0
 40
15.0
 50
180.0
 51
0.0
  0
ARC
  5
10332
  8
0
  6
BYBLOCK
 62
     0
 10
13673.143518151041
 20
12679.985644999981
 30
0.0
 40
15.0
 50
180.0
 51
0.0
  0
ARC
  5
10333
  8
0
  6
BYBLOCK
 62
     0
 10
13673.143518151041
 20
12679.985644999981
 30
0.0
 40
15.0
 50
0.0
 51
180.0
  0
TEXT
  5
1040A
  8
NAME
 10
21595.82616625919
 20
1076.6369801169251
 30
0.0
 40
360.0
  1
VGC-3052（H）+VKC-5052（H）型-R（単棟）
 41
0.45
  0
TEXT
  5
1040B
  8
NAME
 10
21933.552716389011
 20
1876.0
 30
0.0
 40
360.0
  1
ヨドガレージ ラヴィージュ
 41
0.75
  7
01
  0
LINE
  5
1040C
  8
NAME
  6
CONTINUOUS
 10
26067.886878884299
 20
2236.0
 30
0.0
 11
26067.886878884299
 21
1876.0
 31
0.0
  0
LINE
  5
1040D
  8
NAME
  6
CONTINUOUS
 10
26167.886878884299
 20
2236.0
 30
0.0
 11
26167.886878884299
 21
1876.0
 31
0.0
  0
LINE
  5
1040E
  8
NAME
  6
CONTINUOUS
 10
26267.88687888431
 20
2236.0
 30
0.0
 11
26267.88687888431
 21
1876.0
 31
0.0
  0
LINE
  5
1040F
  8
NAME
  6
CONTINUOUS
 10
26007.886878884299
 20
2236.0
 30
0.0
 11
26327.886878884299
 21
2236.0
 31
0.0
  0
LINE
  5
10410
  8
NAME
  6
CONTINUOUS
 10
26327.886878884299
 20
1876.0
 30
0.0
 11
26007.886878884299
 21
1876.0
 31
0.0
  0
LINE
  5
10452
  8
2-0
  6
CENTER2
 62
     6
 10
22712.511953585141
 20
20960.488495000009
 30
0.0
 11
22712.511953585141
 21
13825.23237353158
 31
0.0
  0
LINE
  5
10455
  8
2-0
  6
CENTER2
 62
     6
 10
19794.511953585141
 20
20960.488495000009
 30
0.0
 11
19794.511953585141
 21
13825.23237353158
 31
0.0
  0
LINE
  5
106D4
  8
2-0
  6
CONTINUOUS
 62
     6
 10
21477.670869585148
 20
13542.985129999999
 30
0.0
 11
20477.677467585188
 21
13542.985129999999
 31
0.0
  0
LINE
  5
106D5
  8
2-0
  6
CONTINUOUS
 62
     6
 10
20009.737090585149
 20
14013.40584399999
 30
0.0
 11
20477.677467585188
 21
13542.985129999999
 31
0.0
  0
LINE
  5
106D6
  8
2-0
  6
CONTINUOUS
 62
     6
 10
20048.377293585148
 20
16854.513491000009
 30
0.0
 11
20353.072711585159
 21
16958.16702200002
 31
0.0
  0
LINE
  5
106D7
  8
2-0
  6
CONTINUOUS
 62
     6
 10
19893.355254585182
 20
16364.891447000011
 30
0.0
 11
20353.072711585159
 21
16120.978136000011
 31
0.0
  0
LINE
  5
106D8
  8
2-0
  6
CONTINUOUS
 62
     6
 10
21273.075746585149
 20
16120.978136000011
 30
0.0
 11
20353.072711585159
 21
16120.978136000011
 31
0.0
  0
LINE
  5
106D9
  8
2-0
  6
CONTINUOUS
 62
     6
 10
21553.066773585138
 20
16958.16702200002
 30
0.0
 11
20353.072711585159
 21
16958.16702200002
 31
0.0
  0
LINE
  5
106DA
  8
2-0
  6
CONTINUOUS
 62
     6
 10
19977.17796958514
 20
14335.08948999998
 30
0.0
 11
20353.072711585159
 21
14516.033325
 31
0.0
  0
LINE
  5
106DB
  8
2-0
  6
CONTINUOUS
 62
     6
 10
20873.07442758515
 20
14516.033325
 30
0.0
 11
20353.072711585159
 21
14516.033325
 31
0.0
  0
LINE
  5
106DC
  8
2-0
  6
CONTINUOUS
 62
     4
 10
19794.511953585152
 20
19440.486779999999
 30
0.0
 11
19794.511953585152
 21
20170.483745000009
 31
0.0
  0
LINE
  5
106DD
  8
2-0
  6
CONTINUOUS
 62
     3
 10
22725.012613585139
 20
19251.484325999991
 30
0.0
 11
22725.012613585139
 21
19245.488364000019
 31
0.0
  0
LINE
  5
106DE
  8
2-0
  6
CONTINUOUS
 62
     3
 10
22725.012613585139
 20
19245.488364000019
 30
0.0
 11
22755.01023758516
 21
19245.488364000019
 31
0.0
  0
LINE
  5
106DF
  8
2-0
  6
CONTINUOUS
 62
     3
 10
22755.01023758516
 20
19275.487968000001
 30
0.0
 11
22674.008337585132
 21
19275.487968000001
 31
0.0
  0
LINE
  5
106E0
  8
2-0
  6
CONTINUOUS
 62
     3
 10
22725.012613585139
 20
19235.19090799999
 30
0.0
 11
22755.01023758516
 21
19235.19090799999
 31
0.0
  0
LINE
  5
106E1
  8
2-0
  6
CONTINUOUS
 62
     3
 10
22725.012613585139
 20
19253.192650000001
 30
0.0
 11
22725.012613585139
 21
19235.19090799999
 31
0.0
  0
LINE
  5
106E2
  8
2-0
  6
CONTINUOUS
 62
     3
 10
22750.009973585151
 20
19253.192650000001
 30
0.0
 11
22725.012613585139
 21
19253.192650000001
 31
0.0
  0
LINE
  5
106E3
  8
2-0
  6
CONTINUOUS
 62
     3
 10
22750.009973585151
 20
19248.184467999999
 30
0.0
 11
22750.009973585151
 21
19253.192650000001
 31
0.0
  0
LINE
  5
106E4
  8
2-0
  6
CONTINUOUS
 62
     3
 10
22743.008416585151
 20
19248.184467999999
 30
0.0
 11
22750.009973585151
 21
19248.184467999999
 31
0.0
  0
LINE
  5
106E5
  8
2-0
  6
CONTINUOUS
 62
     3
 10
22642.712148585149
 20
19348.484694999999
 30
0.0
 11
22642.712148585149
 21
19355.490211000011
 31
0.0
  0
LINE
  5
106E6
  8
2-0
  6
CONTINUOUS
 62
     3
 10
22642.712148585149
 20
19355.490211000011
 30
0.0
 11
22647.712412585141
 21
19355.490211000011
 31
0.0
  0
LINE
  5
106E7
  8
2-0
  6
CONTINUOUS
 62
     3
 10
22647.712412585141
 20
19355.490211000011
 30
0.0
 11
22647.712412585141
 21
19330.480973999998
 31
0.0
  0
LINE
  5
106E8
  8
2-0
  6
CONTINUOUS
 62
     3
 10
22647.712412585141
 20
19330.480973999998
 30
0.0
 11
22629.710670585129
 21
19330.480973999998
 31
0.0
  0
LINE
  5
106E9
  8
2-0
  6
CONTINUOUS
 62
     3
 10
22629.710670585129
 20
19330.480973999998
 30
0.0
 11
22629.710670585129
 21
19360.484537000018
 31
0.0
  0
LINE
  5
106EA
  8
2-0
  6
CONTINUOUS
 62
     3
 10
22640.008126585151
 20
19360.484537000018
 30
0.0
 11
22755.01023758516
 21
19360.484537000018
 31
0.0
  0
LINE
  5
106EB
  8
2-0
  6
CONTINUOUS
 62
     3
 10
22640.008126585151
 20
19330.480973999998
 30
0.0
 11
22640.008126585151
 21
19360.484537000018
 31
0.0
  0
LINE
  5
106EC
  8
2-0
  6
CONTINUOUS
 62
     3
 10
22646.010026585151
 20
19330.480973999998
 30
0.0
 11
22640.008126585151
 21
19330.480973999998
 31
0.0
  0
LINE
  5
106ED
  8
2-0
  6
CONTINUOUS
 62
     3
 10
22743.008416585151
 20
18894.887645499952
 30
0.0
 11
22750.009973585151
 21
18894.887645499952
 31
0.0
  0
LINE
  5
106EE
  8
2-0
  6
CONTINUOUS
 62
     3
 10
22750.009973585151
 20
18894.887645499952
 30
0.0
 11
22750.009973585151
 21
18899.88790949999
 31
0.0
  0
LINE
  5
106EF
  8
2-0
  6
CONTINUOUS
 62
     3
 10
22750.009973585151
 20
18899.88790949999
 30
0.0
 11
22725.012613585139
 21
18899.88790949999
 31
0.0
  0
LINE
  5
106F0
  8
2-0
  6
CONTINUOUS
 62
     3
 10
22725.012613585139
 20
18899.88790949999
 30
0.0
 11
22725.012613585139
 21
18881.892105499999
 31
0.0
  0
LINE
  5
106F1
  8
2-0
  6
CONTINUOUS
 62
     3
 10
22725.012613585139
 20
18881.892105499999
 30
0.0
 11
22755.01023758516
 21
18881.892105499999
 31
0.0
  0
LINE
  5
106F2
  8
2-0
  6
CONTINUOUS
 62
     3
 10
22725.012613585139
 20
18897.983612499978
 30
0.0
 11
22725.012613585139
 21
18891.985671499999
 31
0.0
  0
LINE
  5
106F3
  8
2-0
  6
CONTINUOUS
 62
     3
 10
22725.012613585139
 20
18891.985671499999
 30
0.0
 11
22755.01023758516
 21
18891.985671499999
 31
0.0
  0
LINE
  5
106F4
  8
2-0
  6
CONTINUOUS
 62
     3
 10
22755.01023758516
 20
18891.985671499999
 30
0.0
 11
22755.01023758516
 21
18928.986832499999
 31
0.0
  0
LINE
  5
106F5
  8
2-0
  6
CONTINUOUS
 62
     3
 10
22725.012613585139
 20
18928.986832499999
 30
0.0
 11
22755.01023758516
 21
18928.986832499999
 31
0.0
  0
LINE
  5
106F6
  8
2-0
  6
CONTINUOUS
 62
     3
 10
22725.012613585139
 20
18922.982952499991
 30
0.0
 11
22725.012613585139
 21
18928.986832499999
 31
0.0
  0
LINE
  5
106F7
  8
2-0
  6
CONTINUOUS
 62
     3
 10
22725.012613585139
 20
18939.082377499992
 30
0.0
 11
22755.01023758516
 21
18939.082377499992
 31
0.0
  0
LINE
  5
106F8
  8
2-0
  6
CONTINUOUS
 62
     3
 10
22725.012613585139
 20
18921.080635499999
 30
0.0
 11
22725.012613585139
 21
18939.082377499992
 31
0.0
  0
LINE
  5
106F9
  8
2-0
  6
CONTINUOUS
 62
     3
 10
22750.009973585151
 20
18921.080635499999
 30
0.0
 11
22725.012613585139
 21
18921.080635499999
 31
0.0
  0
LINE
  5
106FA
  8
2-0
  6
CONTINUOUS
 62
     3
 10
22750.009973585151
 20
18926.08089949999
 30
0.0
 11
22750.009973585151
 21
18921.080635499999
 31
0.0
  0
LINE
  5
106FB
  8
2-0
  6
CONTINUOUS
 62
     3
 10
22743.008416585151
 20
18926.08089949999
 30
0.0
 11
22750.009973585151
 21
18926.08089949999
 31
0.0
  0
LINE
  5
106FC
  8
2-0
  6
CONTINUOUS
 62
     3
 10
22743.008416585151
 20
18193.886655999999
 30
0.0
 11
22750.009973585151
 21
18193.886655999999
 31
0.0
  0
LINE
  5
106FD
  8
2-0
  6
CONTINUOUS
 62
     3
 10
22750.009973585151
 20
18193.886655999999
 30
0.0
 11
22750.009973585151
 21
18198.892857999988
 31
0.0
  0
LINE
  5
106FE
  8
2-0
  6
CONTINUOUS
 62
     3
 10
22750.009973585151
 20
18198.892857999988
 30
0.0
 11
22725.012613585139
 21
18198.892857999988
 31
0.0
  0
LINE
  5
106FF
  8
2-0
  6
CONTINUOUS
 62
     3
 10
22725.012613585139
 20
18198.892857999988
 30
0.0
 11
22725.012613585139
 21
18180.891115999999
 31
0.0
  0
LINE
  5
10700
  8
2-0
  6
CONTINUOUS
 62
     3
 10
22725.012613585139
 20
18180.891115999999
 30
0.0
 11
22755.01023758516
 21
18180.891115999999
 31
0.0
  0
LINE
  5
10701
  8
2-0
  6
CONTINUOUS
 62
     3
 10
22725.012613585139
 20
18196.982622999989
 30
0.0
 11
22725.012613585139
 21
18190.986660999981
 31
0.0
  0
LINE
  5
10702
  8
2-0
  6
CONTINUOUS
 62
     3
 10
22725.012613585139
 20
18190.986660999981
 30
0.0
 11
22755.01023758516
 21
18190.986660999981
 31
0.0
  0
LINE
  5
10703
  8
2-0
  6
CONTINUOUS
 62
     3
 10
22755.01023758516
 20
18190.986660999981
 30
0.0
 11
22755.01023758516
 21
18227.985842999999
 31
0.0
  0
LINE
  5
10704
  8
2-0
  6
CONTINUOUS
 62
     3
 10
22725.012613585139
 20
18227.985842999999
 30
0.0
 11
22755.01023758516
 21
18227.985842999999
 31
0.0
  0
LINE
  5
10705
  8
2-0
  6
CONTINUOUS
 62
     3
 10
22725.012613585139
 20
18221.989881000009
 30
0.0
 11
22725.012613585139
 21
18227.985842999999
 31
0.0
  0
LINE
  5
10706
  8
2-0
  6
CONTINUOUS
 62
     3
 10
22725.012613585139
 20
18238.081387999999
 30
0.0
 11
22755.01023758516
 21
18238.081387999999
 31
0.0
  0
LINE
  5
10707
  8
2-0
  6
CONTINUOUS
 62
     3
 10
22725.012613585139
 20
18220.079645999998
 30
0.0
 11
22725.012613585139
 21
18238.081387999999
 31
0.0
  0
LINE
  5
10708
  8
2-0
  6
CONTINUOUS
 62
     3
 10
22750.009973585151
 20
18220.079645999998
 30
0.0
 11
22725.012613585139
 21
18220.079645999998
 31
0.0
  0
LINE
  5
10709
  8
2-0
  6
CONTINUOUS
 62
     3
 10
22750.009973585151
 20
18225.085847999981
 30
0.0
 11
22750.009973585151
 21
18220.079645999998
 31
0.0
  0
LINE
  5
1070A
  8
2-0
  6
CONTINUOUS
 62
     3
 10
22743.008416585151
 20
18225.085847999981
 30
0.0
 11
22750.009973585151
 21
18225.085847999981
 31
0.0
  0
LINE
  5
1070B
  8
2-0
  6
CONTINUOUS
 62
     3
 10
22743.008416585151
 20
17524.07991
 30
0.0
 11
22750.009973585151
 21
17524.07991
 31
0.0
  0
LINE
  5
1070C
  8
2-0
  6
CONTINUOUS
 62
     3
 10
22750.009973585151
 20
17524.07991
 30
0.0
 11
22750.009973585151
 21
17519.091522999999
 31
0.0
  0
LINE
  5
1070D
  8
2-0
  6
CONTINUOUS
 62
     3
 10
22750.009973585151
 20
17519.091522999999
 30
0.0
 11
22725.012613585139
 21
17519.091522999999
 31
0.0
  0
LINE
  5
1070E
  8
2-0
  6
CONTINUOUS
 62
     3
 10
22725.012613585139
 20
17519.091522999999
 30
0.0
 11
22725.012613585139
 21
17537.08732599999
 31
0.0
  0
LINE
  5
1070F
  8
2-0
  6
CONTINUOUS
 62
     3
 10
22725.012613585139
 20
17537.08732599999
 30
0.0
 11
22755.01023758516
 21
17537.08732599999
 31
0.0
  0
LINE
  5
10710
  8
2-0
  6
CONTINUOUS
 62
     3
 10
22725.012613585139
 20
17520.989881000001
 30
0.0
 11
22725.012613585139
 21
17526.985842999991
 31
0.0
  0
LINE
  5
10711
  8
2-0
  6
CONTINUOUS
 62
     3
 10
22725.012613585139
 20
17526.985842999991
 30
0.0
 11
22755.01023758516
 21
17526.985842999991
 31
0.0
  0
LINE
  5
10712
  8
2-0
  6
CONTINUOUS
 62
     3
 10
22755.01023758516
 20
17526.985842999991
 30
0.0
 11
22755.01023758516
 21
17489.986660999999
 31
0.0
  0
LINE
  5
10713
  8
2-0
  6
CONTINUOUS
 62
     3
 10
22725.012613585139
 20
17489.986660999999
 30
0.0
 11
22755.01023758516
 21
17489.986660999999
 31
0.0
  0
LINE
  5
10714
  8
2-0
  6
CONTINUOUS
 62
     3
 10
22725.012613585139
 20
17495.98856199998
 30
0.0
 11
22725.012613585139
 21
17489.986660999999
 31
0.0
  0
LINE
  5
10715
  8
2-0
  6
CONTINUOUS
 62
     3
 10
22725.012613585139
 20
17479.897055000001
 30
0.0
 11
22755.01023758516
 21
17479.897055000001
 31
0.0
  0
LINE
  5
10716
  8
2-0
  6
CONTINUOUS
 62
     3
 10
22725.012613585139
 20
17497.892857999999
 30
0.0
 11
22725.012613585139
 21
17479.897055000001
 31
0.0
  0
LINE
  5
10717
  8
2-0
  6
CONTINUOUS
 62
     3
 10
22750.009973585151
 20
17497.892857999999
 30
0.0
 11
22725.012613585139
 21
17497.892857999999
 31
0.0
  0
LINE
  5
10718
  8
2-0
  6
CONTINUOUS
 62
     3
 10
22750.009973585151
 20
17492.892595000008
 30
0.0
 11
22750.009973585151
 21
17497.892857999999
 31
0.0
  0
LINE
  5
10719
  8
2-0
  6
CONTINUOUS
 62
     3
 10
22743.008416585151
 20
17492.892595000008
 30
0.0
 11
22750.009973585151
 21
17492.892595000008
 31
0.0
  0
LINE
  5
1071A
  8
2-0
  6
CONTINUOUS
 62
     3
 10
22752.124099585159
 20
16772.983480999988
 30
0.0
 11
22752.124099585159
 21
16792.984536
 31
0.0
  0
LINE
  5
1071B
  8
2-0
  6
CONTINUOUS
 62
     3
 10
22752.124099585159
 20
16792.984536
 30
0.0
 11
22667.127530585141
 21
16792.984536
 31
0.0
  0
LINE
  5
1071C
  8
2-0
  6
CONTINUOUS
 62
     3
 10
22743.008416585151
 20
16819.591246
 30
0.0
 11
22750.009973585151
 21
16819.591246
 31
0.0
  0
LINE
  5
1071D
  8
2-0
  6
CONTINUOUS
 62
     3
 10
22750.009973585151
 20
16819.591246
 30
0.0
 11
22750.009973585151
 21
16814.59692
 31
0.0
  0
LINE
  5
1071E
  8
2-0
  6
CONTINUOUS
 62
     3
 10
22750.009973585151
 20
16814.59692
 30
0.0
 11
22725.012613585139
 21
16814.59692
 31
0.0
  0
LINE
  5
1071F
  8
2-0
  6
CONTINUOUS
 62
     3
 10
22725.012613585139
 20
16814.59692
 30
0.0
 11
22725.012613585139
 21
16832.592723999998
 31
0.0
  0
LINE
  5
10720
  8
2-0
  6
CONTINUOUS
 62
     3
 10
22725.012613585139
 20
16832.592723999998
 30
0.0
 11
22755.01023758516
 21
16832.592723999998
 31
0.0
  0
LINE
  5
10721
  8
2-0
  6
CONTINUOUS
 62
     3
 10
22725.012613585139
 20
16822.98413999999
 30
0.0
 11
22725.012613585139
 21
16816.98223999999
 31
0.0
  0
LINE
  5
10722
  8
2-0
  6
CONTINUOUS
 62
     3
 10
22755.01023758516
 20
16822.98413999999
 30
0.0
 11
22725.012613585139
 21
16822.98413999999
 31
0.0
  0
LINE
  5
10723
  8
2-0
  6
CONTINUOUS
 62
     3
 10
22755.01023758516
 20
16832.592723999998
 30
0.0
 11
22755.01023758516
 21
17479.897055000001
 31
0.0
  0
LINE
  5
10724
  8
2-0
  6
CONTINUOUS
 62
     3
 10
22755.01023758516
 20
17537.08732599999
 30
0.0
 11
22755.01023758516
 21
18180.891115999999
 31
0.0
  0
LINE
  5
10725
  8
2-0
  6
CONTINUOUS
 62
     3
 10
22755.01023758516
 20
16677.982424999998
 30
0.0
 11
22725.012613585139
 21
16677.982424999998
 31
0.0
  0
LINE
  5
10726
  8
2-0
  6
CONTINUOUS
 62
     3
 10
22725.012613585139
 20
16677.982424999998
 30
0.0
 11
22725.012613585139
 21
16683.98432499999
 31
0.0
  0
LINE
  5
10727
  8
2-0
  6
CONTINUOUS
 62
     3
 10
22667.127530585141
 20
16707.987968000001
 30
0.0
 11
22752.124099585159
 21
16707.987968000001
 31
0.0
  0
LINE
  5
10728
  8
2-0
  6
CONTINUOUS
 62
     3
 10
22752.124099585159
 20
16707.987968000001
 30
0.0
 11
22752.124099585159
 21
16727.983085
 31
0.0
  0
LINE
  5
10729
  8
2-0
  6
CONTINUOUS
 62
     3
 10
22725.012613585139
 20
16668.373842000012
 30
0.0
 11
22755.01023758516
 21
16668.373842000012
 31
0.0
  0
LINE
  5
1072A
  8
2-0
  6
CONTINUOUS
 62
     3
 10
22725.012613585139
 20
16686.369644999992
 30
0.0
 11
22725.012613585139
 21
16668.373842000012
 31
0.0
  0
LINE
  5
1072B
  8
2-0
  6
CONTINUOUS
 62
     3
 10
22750.009973585151
 20
16686.369644999992
 30
0.0
 11
22725.012613585139
 21
16686.369644999992
 31
0.0
  0
LINE
  5
1072C
  8
2-0
  6
CONTINUOUS
 62
     3
 10
22750.009973585151
 20
16681.36938099999
 30
0.0
 11
22750.009973585151
 21
16686.369644999992
 31
0.0
  0
LINE
  5
1072D
  8
2-0
  6
CONTINUOUS
 62
     3
 10
22743.008416585151
 20
16681.36938099999
 30
0.0
 11
22750.009973585151
 21
16681.36938099999
 31
0.0
  0
LINE
  5
1072E
  8
2-0
  6
CONTINUOUS
 62
     3
 10
22743.008416585151
 20
15976.887150499981
 30
0.0
 11
22750.009973585151
 21
15976.887150499981
 31
0.0
  0
LINE
  5
1072F
  8
2-0
  6
CONTINUOUS
 62
     3
 10
22750.009973585151
 20
15976.887150499981
 30
0.0
 11
22750.009973585151
 21
15981.887414499981
 31
0.0
  0
LINE
  5
10730
  8
2-0
  6
CONTINUOUS
 62
     3
 10
22750.009973585151
 20
15981.887414499981
 30
0.0
 11
22725.012613585139
 21
15981.887414499981
 31
0.0
  0
LINE
  5
10731
  8
2-0
  6
CONTINUOUS
 62
     3
 10
22725.012613585139
 20
15981.887414499981
 30
0.0
 11
22725.012613585139
 21
15963.88567249999
 31
0.0
  0
LINE
  5
10732
  8
2-0
  6
CONTINUOUS
 62
     3
 10
22725.012613585139
 20
15963.88567249999
 30
0.0
 11
22755.01023758516
 21
15963.88567249999
 31
0.0
  0
LINE
  5
10733
  8
2-0
  6
CONTINUOUS
 62
     3
 10
22725.012613585139
 20
15979.983117499991
 30
0.0
 11
22725.012613585139
 21
15973.98616649999
 31
0.0
  0
LINE
  5
10734
  8
2-0
  6
CONTINUOUS
 62
     3
 10
22725.012613585139
 20
15973.98616649999
 30
0.0
 11
22755.01023758516
 21
15973.98616649999
 31
0.0
  0
LINE
  5
10735
  8
2-0
  6
CONTINUOUS
 62
     3
 10
22755.01023758516
 20
15973.98616649999
 30
0.0
 11
22755.01023758516
 21
16010.9863375
 31
0.0
  0
LINE
  5
10736
  8
2-0
  6
CONTINUOUS
 62
     3
 10
22725.012613585139
 20
16010.9863375
 30
0.0
 11
22755.01023758516
 21
16010.9863375
 31
0.0
  0
LINE
  5
10737
  8
2-0
  6
CONTINUOUS
 62
     3
 10
22725.012613585139
 20
16004.98344749999
 30
0.0
 11
22725.012613585139
 21
16010.9863375
 31
0.0
  0
LINE
  5
10738
  8
2-0
  6
CONTINUOUS
 62
     3
 10
22725.012613585139
 20
16021.081882500001
 30
0.0
 11
22755.01023758516
 21
16021.081882500001
 31
0.0
  0
LINE
  5
10739
  8
2-0
  6
CONTINUOUS
 62
     3
 10
22725.012613585139
 20
16003.074201499991
 30
0.0
 11
22725.012613585139
 21
16021.081882500001
 31
0.0
  0
LINE
  5
1073A
  8
2-0
  6
CONTINUOUS
 62
     3
 10
22750.009973585151
 20
16003.074201499991
 30
0.0
 11
22725.012613585139
 21
16003.074201499991
 31
0.0
  0
LINE
  5
1073B
  8
2-0
  6
CONTINUOUS
 62
     3
 10
22750.009973585151
 20
16008.0804045
 30
0.0
 11
22750.009973585151
 21
16003.074201499991
 31
0.0
  0
LINE
  5
1073C
  8
2-0
  6
CONTINUOUS
 62
     3
 10
22743.008416585151
 20
16008.0804045
 30
0.0
 11
22750.009973585151
 21
16008.0804045
 31
0.0
  0
LINE
  5
1073D
  8
2-0
  6
CONTINUOUS
 62
     3
 10
22743.008416585151
 20
15307.320421000009
 30
0.0
 11
22750.009973585151
 21
15307.320421000009
 31
0.0
  0
LINE
  5
1073E
  8
2-0
  6
CONTINUOUS
 62
     3
 10
22750.009973585151
 20
15307.320421000009
 30
0.0
 11
22750.009973585151
 21
15302.326096000001
 31
0.0
  0
LINE
  5
1073F
  8
2-0
  6
CONTINUOUS
 62
     3
 10
22750.009973585151
 20
15302.326096000001
 30
0.0
 11
22725.012613585139
 21
15302.326096000001
 31
0.0
  0
LINE
  5
10740
  8
2-0
  6
CONTINUOUS
 62
     3
 10
22725.012613585139
 20
15302.326096000001
 30
0.0
 11
22725.012613585139
 21
15320.321899
 31
0.0
  0
LINE
  5
10741
  8
2-0
  6
CONTINUOUS
 62
     3
 10
22725.012613585139
 20
15320.321899
 30
0.0
 11
22755.01023758516
 21
15320.321899
 31
0.0
  0
LINE
  5
10742
  8
2-0
  6
CONTINUOUS
 62
     3
 10
22725.012613585139
 20
15304.22445400001
 30
0.0
 11
22725.012613585139
 21
15310.226354000009
 31
0.0
  0
LINE
  5
10743
  8
2-0
  6
CONTINUOUS
 62
     3
 10
22725.012613585139
 20
15310.226354000009
 30
0.0
 11
22755.01023758516
 21
15310.226354000009
 31
0.0
  0
LINE
  5
10744
  8
2-0
  6
CONTINUOUS
 62
     3
 10
22755.01023758516
 20
15273.22717300001
 30
0.0
 11
22755.01023758516
 21
15310.226354000009
 31
0.0
  0
LINE
  5
10745
  8
2-0
  6
CONTINUOUS
 62
     3
 10
22725.012613585139
 20
15273.22717300001
 30
0.0
 11
22755.01023758516
 21
15273.22717300001
 31
0.0
  0
LINE
  5
10746
  8
2-0
  6
CONTINUOUS
 62
     3
 10
22725.012613585139
 20
15279.224123999989
 30
0.0
 11
22725.012613585139
 21
15273.22717300001
 31
0.0
  0
LINE
  5
10747
  8
2-0
  6
CONTINUOUS
 62
     3
 10
22725.012613585139
 20
15263.12568900001
 30
0.0
 11
22755.01023758516
 21
15263.12568900001
 31
0.0
  0
LINE
  5
10748
  8
2-0
  6
CONTINUOUS
 62
     3
 10
22725.012613585139
 20
15281.13337
 30
0.0
 11
22725.012613585139
 21
15263.12568900001
 31
0.0
  0
LINE
  5
10749
  8
2-0
  6
CONTINUOUS
 62
     3
 10
22750.009973585151
 20
15281.13337
 30
0.0
 11
22725.012613585139
 21
15281.13337
 31
0.0
  0
LINE
  5
1074A
  8
2-0
  6
CONTINUOUS
 62
     3
 10
22750.009973585151
 20
15276.13310600001
 30
0.0
 11
22750.009973585151
 21
15281.13337
 31
0.0
  0
LINE
  5
1074B
  8
2-0
  6
CONTINUOUS
 62
     3
 10
22743.008416585151
 20
15276.13310600001
 30
0.0
 11
22750.009973585151
 21
15276.13310600001
 31
0.0
  0
LINE
  5
1074C
  8
2-0
  6
CONTINUOUS
 62
     3
 10
22755.01023758516
 20
16668.373842000012
 30
0.0
 11
22755.01023758516
 21
16021.081882500001
 31
0.0
  0
LINE
  5
1074D
  8
2-0
  6
CONTINUOUS
 62
     3
 10
22755.01023758516
 20
16822.98413999999
 30
0.0
 11
22755.01023758516
 21
16677.982424999998
 31
0.0
  0
LINE
  5
1074E
  8
2-0
  6
CONTINUOUS
 62
     3
 10
22667.127530585141
 20
16792.984536
 30
0.0
 11
22667.127530585141
 21
16707.987968000001
 31
0.0
  0
LINE
  5
1074F
  8
2-0
  6
CONTINUOUS
 62
     6
 10
21378.10504358515
 20
18561.431801499992
 30
0.0
 11
20353.072711585159
 21
18561.431801499992
 31
0.0
  0
LINE
  5
10750
  8
2-0
  6
CONTINUOUS
 62
     3
 10
22743.008416585151
 20
14574.892099000001
 30
0.0
 11
22750.009973585151
 21
14574.892099000001
 31
0.0
  0
LINE
  5
10751
  8
2-0
  6
CONTINUOUS
 62
     3
 10
22750.009973585151
 20
14574.892099000001
 30
0.0
 11
22750.009973585151
 21
14579.886425000001
 31
0.0
  0
LINE
  5
10752
  8
2-0
  6
CONTINUOUS
 62
     3
 10
22750.009973585151
 20
14579.886425000001
 30
0.0
 11
22725.012613585139
 21
14579.886425000001
 31
0.0
  0
LINE
  5
10753
  8
2-0
  6
CONTINUOUS
 62
     3
 10
22725.012613585139
 20
14579.886425000001
 30
0.0
 11
22725.012613585139
 21
14561.890621
 31
0.0
  0
LINE
  5
10754
  8
2-0
  6
CONTINUOUS
 62
     3
 10
22725.012613585139
 20
14561.890621
 30
0.0
 11
22755.01023758516
 21
14561.890621
 31
0.0
  0
LINE
  5
10755
  8
2-0
  6
CONTINUOUS
 62
     3
 10
22725.012613585139
 20
14577.989056000009
 30
0.0
 11
22725.012613585139
 21
14571.986166000001
 31
0.0
  0
LINE
  5
10756
  8
2-0
  6
CONTINUOUS
 62
     3
 10
22725.012613585139
 20
14571.986166000001
 30
0.0
 11
22755.01023758516
 21
14571.986166000001
 31
0.0
  0
LINE
  5
10757
  8
2-0
  6
CONTINUOUS
 62
     3
 10
22755.01023758516
 20
14571.986166000001
 30
0.0
 11
22755.01023758516
 21
14608.986337999981
 31
0.0
  0
LINE
  5
10758
  8
2-0
  6
CONTINUOUS
 62
     3
 10
22725.012613585139
 20
14608.986337999981
 30
0.0
 11
22755.01023758516
 21
14608.986337999981
 31
0.0
  0
LINE
  5
10759
  8
2-0
  6
CONTINUOUS
 62
     3
 10
22725.012613585139
 20
14602.98938599999
 30
0.0
 11
22725.012613585139
 21
14608.986337999981
 31
0.0
  0
LINE
  5
1075A
  8
2-0
  6
CONTINUOUS
 62
     3
 10
22725.012613585139
 20
14619.086831000001
 30
0.0
 11
22755.01023758516
 21
14619.086831000001
 31
0.0
  0
LINE
  5
1075B
  8
2-0
  6
CONTINUOUS
 62
     3
 10
22725.012613585139
 20
14601.080140000009
 30
0.0
 11
22725.012613585139
 21
14619.086831000001
 31
0.0
  0
LINE
  5
1075C
  8
2-0
  6
CONTINUOUS
 62
     3
 10
22750.009973585151
 20
14601.080140000009
 30
0.0
 11
22725.012613585139
 21
14601.080140000009
 31
0.0
  0
LINE
  5
1075D
  8
2-0
  6
CONTINUOUS
 62
     3
 10
22750.009973585151
 20
14606.085353000009
 30
0.0
 11
22750.009973585151
 21
14601.080140000009
 31
0.0
  0
LINE
  5
1075E
  8
2-0
  6
CONTINUOUS
 62
     3
 10
22743.008416585151
 20
14606.085353000009
 30
0.0
 11
22750.009973585151
 21
14606.085353000009
 31
0.0
  0
LINE
  5
1075F
  8
2-0
  6
CONTINUOUS
 62
     3
 10
22725.012613585139
 20
14249.488178999991
 30
0.0
 11
22725.012613585139
 21
14255.493048
 31
0.0
  0
LINE
  5
10760
  8
2-0
  6
CONTINUOUS
 62
     3
 10
22725.012613585139
 20
14255.493048
 30
0.0
 11
22755.01023758516
 21
14255.493048
 31
0.0
  0
LINE
  5
10761
  8
2-0
  6
CONTINUOUS
 62
     3
 10
22755.01023758516
 20
14255.493048
 30
0.0
 11
22755.01023758516
 21
14140.48895699999
 31
0.0
  0
LINE
  5
10762
  8
2-0
  6
CONTINUOUS
 62
     3
 10
22755.01023758516
 20
14140.48895699999
 30
0.0
 11
22670.011689585161
 21
14140.48895699999
 31
0.0
  0
LINE
  5
10763
  8
2-0
  6
CONTINUOUS
 62
     3
 10
22670.011689585161
 20
14140.48895699999
 30
0.0
 11
22670.011689585161
 21
14225.484536
 31
0.0
  0
LINE
  5
10764
  8
2-0
  6
CONTINUOUS
 62
     3
 10
22670.011689585161
 20
14225.484536
 30
0.0
 11
22702.010607585151
 21
14225.484536
 31
0.0
  0
LINE
  5
10765
  8
2-0
  6
CONTINUOUS
 62
     3
 10
22743.008416585151
 20
14252.522780999991
 30
0.0
 11
22750.009973585151
 21
14252.522780999991
 31
0.0
  0
LINE
  5
10766
  8
2-0
  6
CONTINUOUS
 62
     3
 10
22750.009973585151
 20
14252.522780999991
 30
0.0
 11
22750.009973585151
 21
14247.52548599998
 31
0.0
  0
LINE
  5
10767
  8
2-0
  6
CONTINUOUS
 62
     3
 10
22750.009973585151
 20
14247.52548599998
 30
0.0
 11
22725.012613585139
 21
14247.52548599998
 31
0.0
  0
LINE
  5
10768
  8
2-0
  6
CONTINUOUS
 62
     3
 10
22725.012613585139
 20
14247.52548599998
 30
0.0
 11
22725.012613585139
 21
14265.524259
 31
0.0
  0
LINE
  5
10769
  8
2-0
  6
CONTINUOUS
 62
     3
 10
22725.012613585139
 20
14265.524259
 30
0.0
 11
22755.01023758516
 21
14265.524259
 31
0.0
  0
LINE
  5
1076A
  8
2-0
  6
CENTER2
 62
     6
 10
22712.511953585152
 20
13557.222817999989
 30
0.0
 11
22712.511953585152
 21
13985.0666083907
 31
0.0
  0
LINE
  5
1076B
  8
2-0
  6
CONTINUOUS
 62
     3
 10
22755.01023758516
 20
18238.081387999999
 30
0.0
 11
22755.01023758516
 21
18881.892105499999
 31
0.0
  0
LINE
  5
1076C
  8
2-0
  6
CONTINUOUS
 62
     6
 10
19059.508786585149
 20
20090.487440000019
 30
0.0
 11
17859.514724585169
 21
20090.487440000019
 31
0.0
  0
LINE
  5
1076D
  8
2-0
  6
CONTINUOUS
 62
     6
 10
19921.541619585169
 20
18803.586309499991
 30
0.0
 11
20353.072711585159
 21
18561.431801499992
 31
0.0
  0
LINE
  5
1076E
  8
2-0
  6
CONTINUOUS
 62
     6
 10
19599.972785585189
 20
19503.164277
 30
0.0
 11
19059.508786585149
 21
20090.487440000019
 31
0.0
  0
LINE
  5
1076F
  8
2-0
  6
CONTINUOUS
 62
     3
 10
22755.01023758516
 20
15963.88567249999
 30
0.0
 11
22755.01023758516
 21
15320.321899
 31
0.0
  0
LINE
  5
10770
  8
2-0
  6
CONTINUOUS
 62
     6
 10
19934.598524585152
 20
18826.84565349999
 30
0.0
 11
19782.01129358515
 21
18881.892105499999
 31
0.0
  0
LINE
  5
10771
  8
2-0
  6
CONTINUOUS
 62
     6
 10
19782.01129358515
 20
18881.892105499999
 30
0.0
 11
19908.492633585149
 21
18780.332905499949
 31
0.0
  0
LINE
  5
10772
  8
2-0
  6
CONTINUOUS
 62
     6
 10
19934.598524585152
 20
18826.84565349999
 30
0.0
 11
19908.492633585149
 21
18780.332905499949
 31
0.0
  0
LINE
  5
10773
  8
2-0
  6
CONTINUOUS
 62
     6
 10
19908.492633585149
 20
18780.332905499949
 30
0.0
 11
19782.01129358515
 21
18881.892105499999
 31
0.0
  0
LINE
  5
10774
  8
2-0
  6
CONTINUOUS
 62
     6
 10
19782.01129358515
 20
18881.892105499999
 30
0.0
 11
19934.598524585152
 21
18826.84565349999
 31
0.0
  0
LINE
  5
10775
  8
2-0
  6
CONTINUOUS
 62
     6
 10
19934.598524585152
 20
18826.84565349999
 30
0.0
 11
19782.01129358515
 21
18881.892105499999
 31
0.0
  0
LINE
  5
10776
  8
2-0
  6
CONTINUOUS
 62
     6
 10
19908.492633585149
 20
18780.332905499949
 30
0.0
 11
19782.01129358515
 21
18881.892105499999
 31
0.0
  0
LINE
  5
10777
  8
2-0
  6
CONTINUOUS
 62
     6
 10
19908.492633585149
 20
18780.332905499949
 30
0.0
 11
19934.598524585152
 21
18826.84565349999
 31
0.0
  0
LINE
  5
10778
  8
2-0
  6
CONTINUOUS
 62
     6
 10
19580.355756585159
 20
19485.10315000001
 30
0.0
 11
19708.31777658514
 21
19385.420532000011
 31
0.0
  0
LINE
  5
10779
  8
2-0
  6
CONTINUOUS
 62
     6
 10
19708.31777658514
 20
19385.420532000011
 30
0.0
 11
19619.603671585159
 21
19521.21748700002
 31
0.0
  0
LINE
  5
1077A
  8
2-0
  6
CONTINUOUS
 62
     6
 10
19580.355756585159
 20
19485.10315000001
 30
0.0
 11
19619.603671585159
 21
19521.21748700002
 31
0.0
  0
LINE
  5
1077B
  8
2-0
  6
CONTINUOUS
 62
     6
 10
19619.603671585159
 20
19521.21748700002
 30
0.0
 11
19708.31777658514
 21
19385.420532000011
 31
0.0
  0
LINE
  5
1077C
  8
2-0
  6
CONTINUOUS
 62
     6
 10
19708.31777658514
 20
19385.420532000011
 30
0.0
 11
19580.355756585159
 21
19485.10315000001
 31
0.0
  0
LINE
  5
1077D
  8
2-0
  6
CONTINUOUS
 62
     6
 10
19580.355756585159
 20
19485.10315000001
 30
0.0
 11
19708.31777658514
 21
19385.420532000011
 31
0.0
  0
LINE
  5
1077E
  8
2-0
  6
CONTINUOUS
 62
     6
 10
19619.603671585159
 20
19521.21748700002
 30
0.0
 11
19708.31777658514
 21
19385.420532000011
 31
0.0
  0
LINE
  5
1077F
  8
2-0
  6
CONTINUOUS
 62
     6
 10
19619.603671585159
 20
19521.21748700002
 30
0.0
 11
19580.355756585159
 21
19485.10315000001
 31
0.0
  0
LINE
  5
10780
  8
2-0
  6
CONTINUOUS
 62
     4
 10
19794.511953585152
 20
19440.486779999999
 30
0.0
 11
19794.511953585152
 21
20170.483745000009
 31
0.0
  0
LINE
  5
10781
  8
2-0
  6
CONTINUOUS
 62
     6
 10
20028.651390585139
 20
14032.216218999991
 30
0.0
 11
19896.90453158514
 21
14126.843145999999
 31
0.0
  0
LINE
  5
10782
  8
2-0
  6
CONTINUOUS
 62
     6
 10
19896.90453158514
 20
14126.843145999999
 30
0.0
 11
19990.834667585161
 21
13994.60437599999
 31
0.0
  0
LINE
  5
10783
  8
2-0
  6
CONTINUOUS
 62
     6
 10
20028.651390585139
 20
14032.216218999991
 30
0.0
 11
19990.834667585161
 21
13994.60437599999
 31
0.0
  0
LINE
  5
10784
  8
2-0
  6
CONTINUOUS
 62
     6
 10
19990.834667585161
 20
13994.60437599999
 30
0.0
 11
19896.90453158514
 21
14126.843145999999
 31
0.0
  0
LINE
  5
10785
  8
2-0
  6
CONTINUOUS
 62
     6
 10
19896.90453158514
 20
14126.843145999999
 30
0.0
 11
20028.651390585139
 21
14032.216218999991
 31
0.0
  0
LINE
  5
10786
  8
2-0
  6
CONTINUOUS
 62
     6
 10
20028.651390585139
 20
14032.216218999991
 30
0.0
 11
19896.90453158514
 21
14126.843145999999
 31
0.0
  0
LINE
  5
10787
  8
2-0
  6
CONTINUOUS
 62
     6
 10
19990.834667585161
 20
13994.60437599999
 30
0.0
 11
19896.90453158514
 21
14126.843145999999
 31
0.0
  0
LINE
  5
10788
  8
2-0
  6
CONTINUOUS
 62
     6
 10
19990.834667585161
 20
13994.60437599999
 30
0.0
 11
20028.651390585139
 21
14032.216218999991
 31
0.0
  0
LINE
  5
10789
  8
2-0
  6
CONTINUOUS
 62
     6
 10
19965.615601585141
 20
14359.120845999991
 30
0.0
 11
19833.015569585172
 21
14265.692517999991
 31
0.0
  0
LINE
  5
1078A
  8
2-0
  6
CONTINUOUS
 62
     6
 10
19833.015569585172
 20
14265.692517999991
 30
0.0
 11
19988.748255585138
 21
14311.068031999999
 31
0.0
  0
LINE
  5
1078B
  8
2-0
  6
CONTINUOUS
 62
     6
 10
19965.615601585141
 20
14359.120845999991
 30
0.0
 11
19988.748255585138
 21
14311.068031999999
 31
0.0
  0
LINE
  5
1078C
  8
2-0
  6
CONTINUOUS
 62
     6
 10
19988.748255585138
 20
14311.068031999999
 30
0.0
 11
19833.015569585172
 21
14265.692517999991
 31
0.0
  0
LINE
  5
1078D
  8
2-0
  6
CONTINUOUS
 62
     6
 10
19833.015569585172
 20
14265.692517999991
 30
0.0
 11
19965.615601585141
 21
14359.120845999991
 31
0.0
  0
LINE
  5
1078E
  8
2-0
  6
CONTINUOUS
 62
     6
 10
19965.615601585141
 20
14359.120845999991
 30
0.0
 11
19833.015569585172
 21
14265.692517999991
 31
0.0
  0
LINE
  5
1078F
  8
2-0
  6
CONTINUOUS
 62
     6
 10
19988.748255585138
 20
14311.068031999999
 30
0.0
 11
19833.015569585172
 21
14265.692517999991
 31
0.0
  0
LINE
  5
10790
  8
2-0
  6
CONTINUOUS
 62
     6
 10
19988.748255585138
 20
14311.068031999999
 30
0.0
 11
19965.615601585141
 21
14359.120845999991
 31
0.0
  0
LINE
  5
10791
  8
2-0
  6
CONTINUOUS
 62
     6
 10
19905.851955585149
 20
16388.441779000019
 30
0.0
 11
19752.01366958514
 21
16439.875610000021
 31
0.0
  0
LINE
  5
10792
  8
2-0
  6
CONTINUOUS
 62
     6
 10
19752.01366958514
 20
16439.875610000021
 30
0.0
 11
19880.84865658516
 21
16341.33517500002
 31
0.0
  0
LINE
  5
10793
  8
2-0
  6
CONTINUOUS
 62
     6
 10
19905.851955585149
 20
16388.441779000019
 30
0.0
 11
19880.84865658516
 21
16341.33517500002
 31
0.0
  0
LINE
  5
10794
  8
2-0
  6
CONTINUOUS
 62
     6
 10
19880.84865658516
 20
16341.33517500002
 30
0.0
 11
19752.01366958514
 21
16439.875610000021
 31
0.0
  0
LINE
  5
10795
  8
2-0
  6
CONTINUOUS
 62
     6
 10
19752.01366958514
 20
16439.875610000021
 30
0.0
 11
19905.851955585149
 21
16388.441779000019
 31
0.0
  0
LINE
  5
10796
  8
2-0
  6
CONTINUOUS
 62
     6
 10
19905.851955585149
 20
16388.441779000019
 30
0.0
 11
19752.01366958514
 21
16439.875610000021
 31
0.0
  0
LINE
  5
10797
  8
2-0
  6
CONTINUOUS
 62
     6
 10
19880.84865658516
 20
16341.33517500002
 30
0.0
 11
19752.01366958514
 21
16439.875610000021
 31
0.0
  0
LINE
  5
10798
  8
2-0
  6
CONTINUOUS
 62
     6
 10
19880.84865658516
 20
16341.33517500002
 30
0.0
 11
19905.851955585149
 21
16388.441779000019
 31
0.0
  0
LINE
  5
10799
  8
2-0
  6
CONTINUOUS
 62
     6
 10
20039.788162585151
 20
16879.76027100001
 30
0.0
 11
19896.90453158514
 21
16802.984641999999
 31
0.0
  0
LINE
  5
1079A
  8
2-0
  6
CONTINUOUS
 62
     6
 10
19896.90453158514
 20
16802.984641999999
 30
0.0
 11
20056.966424585149
 21
16829.266711000018
 31
0.0
  0
LINE
  5
1079B
  8
2-0
  6
CONTINUOUS
 62
     6
 10
20039.788162585151
 20
16879.76027100001
 30
0.0
 11
20056.966424585149
 21
16829.266711000018
 31
0.0
  0
LINE
  5
1079C
  8
2-0
  6
CONTINUOUS
 62
     6
 10
20056.966424585149
 20
16829.266711000018
 30
0.0
 11
19896.90453158514
 21
16802.984641999999
 31
0.0
  0
LINE
  5
1079D
  8
2-0
  6
CONTINUOUS
 62
     6
 10
19896.90453158514
 20
16802.984641999999
 30
0.0
 11
20039.788162585151
 21
16879.76027100001
 31
0.0
  0
LINE
  5
1079E
  8
2-0
  6
CONTINUOUS
 62
     6
 10
20039.788162585151
 20
16879.76027100001
 30
0.0
 11
19896.90453158514
 21
16802.984641999999
 31
0.0
  0
LINE
  5
1079F
  8
2-0
  6
CONTINUOUS
 62
     6
 10
20056.966424585149
 20
16829.266711000018
 30
0.0
 11
19896.90453158514
 21
16802.984641999999
 31
0.0
  0
LINE
  5
107A0
  8
2-0
  6
CONTINUOUS
 62
     6
 10
20056.966424585149
 20
16829.266711000018
 30
0.0
 11
20039.788162585151
 21
16879.76027100001
 31
0.0
  0
LINE
  5
107A1
  8
2-0
  6
CONTINUOUS
 62
     3
 10
19782.013273585151
 20
19251.484325999991
 30
0.0
 11
19782.013273585151
 21
19245.488364000019
 31
0.0
  0
LINE
  5
107A2
  8
2-0
  6
CONTINUOUS
 62
     3
 10
19782.013273585151
 20
19245.488364000019
 30
0.0
 11
19752.015648585151
 21
19245.488364000019
 31
0.0
  0
LINE
  5
107A3
  8
2-0
  6
CONTINUOUS
 62
     3
 10
19752.015648585151
 20
19245.488364000019
 30
0.0
 11
19752.015648585151
 21
19360.484537000018
 31
0.0
  0
LINE
  5
107A4
  8
2-0
  6
CONTINUOUS
 62
     3
 10
19752.015648585151
 20
19275.487968000001
 30
0.0
 11
19833.01358958516
 21
19275.487968000001
 31
0.0
  0
LINE
  5
107A5
  8
2-0
  6
CONTINUOUS
 62
     3
 10
19782.013273585151
 20
19235.19090799999
 30
0.0
 11
19752.015648585151
 21
19235.19090799999
 31
0.0
  0
LINE
  5
107A6
  8
2-0
  6
CONTINUOUS
 62
     3
 10
19782.013273585151
 20
19253.192650000001
 30
0.0
 11
19782.013273585151
 21
19235.19090799999
 31
0.0
  0
LINE
  5
107A7
  8
2-0
  6
CONTINUOUS
 62
     3
 10
19757.01987158514
 20
19253.192650000001
 30
0.0
 11
19782.013273585151
 21
19253.192650000001
 31
0.0
  0
LINE
  5
107A8
  8
2-0
  6
CONTINUOUS
 62
     3
 10
19757.01987158514
 20
19248.184467999999
 30
0.0
 11
19757.01987158514
 21
19253.192650000001
 31
0.0
  0
LINE
  5
107A9
  8
2-0
  6
CONTINUOUS
 62
     3
 10
19764.017469585131
 20
19248.184467999999
 30
0.0
 11
19757.01987158514
 21
19248.184467999999
 31
0.0
  0
LINE
  5
107AA
  8
2-0
  6
CONTINUOUS
 62
     3
 10
19864.311758585129
 20
19348.484694999999
 30
0.0
 11
19864.311758585129
 21
19355.490211000011
 31
0.0
  0
LINE
  5
107AB
  8
2-0
  6
CONTINUOUS
 62
     3
 10
19864.311758585129
 20
19355.490211000011
 30
0.0
 11
19859.309514585151
 21
19355.490211000011
 31
0.0
  0
LINE
  5
107AC
  8
2-0
  6
CONTINUOUS
 62
     3
 10
19859.309514585151
 20
19355.490211000011
 30
0.0
 11
19859.309514585151
 21
19330.480973999998
 31
0.0
  0
LINE
  5
107AD
  8
2-0
  6
CONTINUOUS
 62
     3
 10
19859.309514585151
 20
19330.480973999998
 30
0.0
 11
19877.317195585139
 21
19330.480973999998
 31
0.0
  0
LINE
  5
107AE
  8
2-0
  6
CONTINUOUS
 62
     3
 10
19877.317195585139
 20
19330.480973999998
 30
0.0
 11
19877.317195585139
 21
19360.484537000018
 31
0.0
  0
LINE
  5
107AF
  8
2-0
  6
CONTINUOUS
 62
     3
 10
19867.017759585149
 20
19360.484537000018
 30
0.0
 11
19752.015648585151
 21
19360.484537000018
 31
0.0
  0
LINE
  5
107B0
  8
2-0
  6
CONTINUOUS
 62
     3
 10
19867.017759585149
 20
19330.480973999998
 30
0.0
 11
19867.017759585149
 21
19360.484537000018
 31
0.0
  0
LINE
  5
107B1
  8
2-0
  6
CONTINUOUS
 62
     3
 10
19861.013880585138
 20
19330.480973999998
 30
0.0
 11
19867.017759585149
 21
19330.480973999998
 31
0.0
  0
LINE
  5
107B2
  8
2-0
  6
CONTINUOUS
 62
     3
 10
19782.013273585151
 20
19251.484325999991
 30
0.0
 11
19782.013273585151
 21
19245.488364000019
 31
0.0
  0
LINE
  5
107B3
  8
2-0
  6
CONTINUOUS
 62
     3
 10
19782.013273585151
 20
19245.488364000019
 30
0.0
 11
19752.015648585151
 21
19245.488364000019
 31
0.0
  0
LINE
  5
107B4
  8
2-0
  6
CONTINUOUS
 62
     3
 10
19752.015648585151
 20
19245.488364000019
 30
0.0
 11
19752.015648585151
 21
19360.484537000018
 31
0.0
  0
LINE
  5
107B5
  8
2-0
  6
CONTINUOUS
 62
     3
 10
19752.015648585151
 20
19275.487968000001
 30
0.0
 11
19833.01358958516
 21
19275.487968000001
 31
0.0
  0
LINE
  5
107B6
  8
2-0
  6
CONTINUOUS
 62
     3
 10
19782.013273585151
 20
19235.19090799999
 30
0.0
 11
19752.015648585151
 21
19235.19090799999
 31
0.0
  0
LINE
  5
107B7
  8
2-0
  6
CONTINUOUS
 62
     3
 10
19782.013273585151
 20
19253.192650000001
 30
0.0
 11
19782.013273585151
 21
19235.19090799999
 31
0.0
  0
LINE
  5
107B8
  8
2-0
  6
CONTINUOUS
 62
     3
 10
19757.01987158514
 20
19253.192650000001
 30
0.0
 11
19782.013273585151
 21
19253.192650000001
 31
0.0
  0
LINE
  5
107B9
  8
2-0
  6
CONTINUOUS
 62
     3
 10
19757.01987158514
 20
19248.184467999999
 30
0.0
 11
19757.01987158514
 21
19253.192650000001
 31
0.0
  0
LINE
  5
107BA
  8
2-0
  6
CONTINUOUS
 62
     3
 10
19764.017469585131
 20
19248.184467999999
 30
0.0
 11
19757.01987158514
 21
19248.184467999999
 31
0.0
  0
LINE
  5
107BB
  8
2-0
  6
CONTINUOUS
 62
     3
 10
19764.017469585131
 20
18894.887645499952
 30
0.0
 11
19757.01987158514
 21
18894.887645499952
 31
0.0
  0
LINE
  5
107BC
  8
2-0
  6
CONTINUOUS
 62
     3
 10
19757.01987158514
 20
18894.887645499952
 30
0.0
 11
19757.01987158514
 21
18899.88790949999
 31
0.0
  0
LINE
  5
107BD
  8
2-0
  6
CONTINUOUS
 62
     3
 10
19757.01987158514
 20
18899.88790949999
 30
0.0
 11
19782.013273585151
 21
18899.88790949999
 31
0.0
  0
LINE
  5
107BE
  8
2-0
  6
CONTINUOUS
 62
     3
 10
19782.013273585151
 20
18899.88790949999
 30
0.0
 11
19782.013273585151
 21
18881.892105499981
 31
0.0
  0
LINE
  5
107BF
  8
2-0
  6
CONTINUOUS
 62
     3
 10
19782.013273585151
 20
18881.892105499981
 30
0.0
 11
19752.015648585151
 21
18881.892105499981
 31
0.0
  0
LINE
  5
107C0
  8
2-0
  6
CONTINUOUS
 62
     3
 10
19782.013273585151
 20
18897.98361249996
 30
0.0
 11
19782.013273585151
 21
18891.985671499991
 31
0.0
  0
LINE
  5
107C1
  8
2-0
  6
CONTINUOUS
 62
     3
 10
19782.013273585151
 20
18891.985671499991
 30
0.0
 11
19752.015648585151
 21
18891.985671499991
 31
0.0
  0
LINE
  5
107C2
  8
2-0
  6
CONTINUOUS
 62
     3
 10
19752.015648585151
 20
18891.985671499991
 30
0.0
 11
19752.015648585151
 21
18928.986832499981
 31
0.0
  0
LINE
  5
107C3
  8
2-0
  6
CONTINUOUS
 62
     3
 10
19782.013273585151
 20
18928.986832499981
 30
0.0
 11
19752.015648585151
 21
18928.986832499981
 31
0.0
  0
LINE
  5
107C4
  8
2-0
  6
CONTINUOUS
 62
     3
 10
19782.013273585151
 20
18922.982952499991
 30
0.0
 11
19782.013273585151
 21
18928.986832499981
 31
0.0
  0
LINE
  5
107C5
  8
2-0
  6
CONTINUOUS
 62
     3
 10
19782.013273585151
 20
18939.082377499959
 30
0.0
 11
19752.015648585151
 21
18939.082377499959
 31
0.0
  0
LINE
  5
107C6
  8
2-0
  6
CONTINUOUS
 62
     3
 10
19782.013273585151
 20
18921.080635499999
 30
0.0
 11
19782.013273585151
 21
18939.082377499959
 31
0.0
  0
LINE
  5
107C7
  8
2-0
  6
CONTINUOUS
 62
     3
 10
19757.01987158514
 20
18921.080635499999
 30
0.0
 11
19782.013273585151
 21
18921.080635499999
 31
0.0
  0
LINE
  5
107C8
  8
2-0
  6
CONTINUOUS
 62
     3
 10
19757.01987158514
 20
18926.08089949999
 30
0.0
 11
19757.01987158514
 21
18921.080635499999
 31
0.0
  0
LINE
  5
107C9
  8
2-0
  6
CONTINUOUS
 62
     3
 10
19764.017469585131
 20
18926.08089949999
 30
0.0
 11
19757.01987158514
 21
18926.08089949999
 31
0.0
  0
LINE
  5
107CA
  8
2-0
  6
CONTINUOUS
 62
     3
 10
19764.017469585131
 20
18193.886655999991
 30
0.0
 11
19757.01987158514
 21
18193.886655999991
 31
0.0
  0
LINE
  5
107CB
  8
2-0
  6
CONTINUOUS
 62
     3
 10
19757.01987158514
 20
18193.886655999991
 30
0.0
 11
19757.01987158514
 21
18198.892857999959
 31
0.0
  0
LINE
  5
107CC
  8
2-0
  6
CONTINUOUS
 62
     3
 10
19757.01987158514
 20
18198.892857999959
 30
0.0
 11
19782.013273585151
 21
18198.892857999959
 31
0.0
  0
LINE
  5
107CD
  8
2-0
  6
CONTINUOUS
 62
     3
 10
19782.013273585151
 20
18198.892857999959
 30
0.0
 11
19782.013273585151
 21
18180.891115999999
 31
0.0
  0
LINE
  5
107CE
  8
2-0
  6
CONTINUOUS
 62
     3
 10
19782.013273585151
 20
18180.891115999999
 30
0.0
 11
19752.015648585151
 21
18180.891115999999
 31
0.0
  0
LINE
  5
107CF
  8
2-0
  6
CONTINUOUS
 62
     3
 10
19782.013273585151
 20
18196.98262299996
 30
0.0
 11
19782.013273585151
 21
18190.986660999981
 31
0.0
  0
LINE
  5
107D0
  8
2-0
  6
CONTINUOUS
 62
     3
 10
19782.013273585151
 20
18190.986660999981
 30
0.0
 11
19752.015648585151
 21
18190.986660999981
 31
0.0
  0
LINE
  5
107D1
  8
2-0
  6
CONTINUOUS
 62
     3
 10
19752.015648585151
 20
18190.986660999981
 30
0.0
 11
19752.015648585151
 21
18227.985842999991
 31
0.0
  0
LINE
  5
107D2
  8
2-0
  6
CONTINUOUS
 62
     3
 10
19782.013273585151
 20
18227.985842999991
 30
0.0
 11
19752.015648585151
 21
18227.985842999991
 31
0.0
  0
LINE
  5
107D3
  8
2-0
  6
CONTINUOUS
 62
     3
 10
19782.013273585151
 20
18221.98988099999
 30
0.0
 11
19782.013273585151
 21
18227.985842999991
 31
0.0
  0
LINE
  5
107D4
  8
2-0
  6
CONTINUOUS
 62
     3
 10
19782.013273585151
 20
18238.081387999999
 30
0.0
 11
19752.015648585151
 21
18238.081387999999
 31
0.0
  0
LINE
  5
107D5
  8
2-0
  6
CONTINUOUS
 62
     3
 10
19782.013273585151
 20
18220.079645999991
 30
0.0
 11
19782.013273585151
 21
18238.081387999999
 31
0.0
  0
LINE
  5
107D6
  8
2-0
  6
CONTINUOUS
 62
     3
 10
19757.01987158514
 20
18220.079645999991
 30
0.0
 11
19782.013273585151
 21
18220.079645999991
 31
0.0
  0
LINE
  5
107D7
  8
2-0
  6
CONTINUOUS
 62
     3
 10
19757.01987158514
 20
18225.085847999981
 30
0.0
 11
19757.01987158514
 21
18220.079645999991
 31
0.0
  0
LINE
  5
107D8
  8
2-0
  6
CONTINUOUS
 62
     3
 10
19764.017469585131
 20
18225.085847999981
 30
0.0
 11
19757.01987158514
 21
18225.085847999981
 31
0.0
  0
LINE
  5
107D9
  8
2-0
  6
CONTINUOUS
 62
     3
 10
19764.017469585131
 20
17524.079909999989
 30
0.0
 11
19757.01987158514
 21
17524.079909999989
 31
0.0
  0
LINE
  5
107DA
  8
2-0
  6
CONTINUOUS
 62
     3
 10
19757.01987158514
 20
17524.079909999989
 30
0.0
 11
19757.01987158514
 21
17519.091522999988
 31
0.0
  0
LINE
  5
107DB
  8
2-0
  6
CONTINUOUS
 62
     3
 10
19757.01987158514
 20
17519.091522999988
 30
0.0
 11
19782.013273585151
 21
17519.091522999988
 31
0.0
  0
LINE
  5
107DC
  8
2-0
  6
CONTINUOUS
 62
     3
 10
19782.013273585151
 20
17519.091522999988
 30
0.0
 11
19782.013273585151
 21
17537.08732599999
 31
0.0
  0
LINE
  5
107DD
  8
2-0
  6
CONTINUOUS
 62
     3
 10
19782.013273585151
 20
17537.08732599999
 30
0.0
 11
19752.015648585151
 21
17537.08732599999
 31
0.0
  0
LINE
  5
107DE
  8
2-0
  6
CONTINUOUS
 62
     3
 10
19782.013273585151
 20
17520.98988099999
 30
0.0
 11
19782.013273585151
 21
17526.985842999991
 31
0.0
  0
LINE
  5
107DF
  8
2-0
  6
CONTINUOUS
 62
     3
 10
19782.013273585151
 20
17526.985842999991
 30
0.0
 11
19752.015648585151
 21
17526.985842999991
 31
0.0
  0
LINE
  5
107E0
  8
2-0
  6
CONTINUOUS
 62
     3
 10
19752.015648585151
 20
17526.985842999991
 30
0.0
 11
19752.015648585151
 21
17489.986660999992
 31
0.0
  0
LINE
  5
107E1
  8
2-0
  6
CONTINUOUS
 62
     3
 10
19782.013273585151
 20
17489.986660999992
 30
0.0
 11
19752.015648585151
 21
17489.986660999992
 31
0.0
  0
LINE
  5
107E2
  8
2-0
  6
CONTINUOUS
 62
     3
 10
19782.013273585151
 20
17495.98856199998
 30
0.0
 11
19782.013273585151
 21
17489.986660999992
 31
0.0
  0
LINE
  5
107E3
  8
2-0
  6
CONTINUOUS
 62
     3
 10
19782.013273585151
 20
17479.89705499999
 30
0.0
 11
19752.015648585151
 21
17479.89705499999
 31
0.0
  0
LINE
  5
107E4
  8
2-0
  6
CONTINUOUS
 62
     3
 10
19782.013273585151
 20
17497.892857999988
 30
0.0
 11
19782.013273585151
 21
17479.89705499999
 31
0.0
  0
LINE
  5
107E5
  8
2-0
  6
CONTINUOUS
 62
     3
 10
19757.01987158514
 20
17497.892857999988
 30
0.0
 11
19782.013273585151
 21
17497.892857999988
 31
0.0
  0
LINE
  5
107E6
  8
2-0
  6
CONTINUOUS
 62
     3
 10
19757.01987158514
 20
17492.89259499999
 30
0.0
 11
19757.01987158514
 21
17497.892857999988
 31
0.0
  0
LINE
  5
107E7
  8
2-0
  6
CONTINUOUS
 62
     3
 10
19764.017469585131
 20
17492.89259499999
 30
0.0
 11
19757.01987158514
 21
17492.89259499999
 31
0.0
  0
LINE
  5
107E8
  8
2-0
  6
CONTINUOUS
 62
     3
 10
19754.901786585149
 20
16772.983480999988
 30
0.0
 11
19754.901786585149
 21
16792.984536
 31
0.0
  0
LINE
  5
107E9
  8
2-0
  6
CONTINUOUS
 62
     3
 10
19754.901786585149
 20
16792.984536
 30
0.0
 11
19839.902314585139
 21
16792.984536
 31
0.0
  0
LINE
  5
107EA
  8
2-0
  6
CONTINUOUS
 62
     3
 10
19764.017469585131
 20
16819.591246
 30
0.0
 11
19757.01987158514
 21
16819.591246
 31
0.0
  0
LINE
  5
107EB
  8
2-0
  6
CONTINUOUS
 62
     3
 10
19757.01987158514
 20
16819.591246
 30
0.0
 11
19757.01987158514
 21
16814.59692
 31
0.0
  0
LINE
  5
107EC
  8
2-0
  6
CONTINUOUS
 62
     3
 10
19757.01987158514
 20
16814.59692
 30
0.0
 11
19782.013273585151
 21
16814.59692
 31
0.0
  0
LINE
  5
107ED
  8
2-0
  6
CONTINUOUS
 62
     3
 10
19782.013273585151
 20
16814.59692
 30
0.0
 11
19782.013273585151
 21
16832.592723999998
 31
0.0
  0
LINE
  5
107EE
  8
2-0
  6
CONTINUOUS
 62
     3
 10
19782.013273585151
 20
16832.592723999998
 30
0.0
 11
19752.015648585151
 21
16832.592723999998
 31
0.0
  0
LINE
  5
107EF
  8
2-0
  6
CONTINUOUS
 62
     3
 10
19782.013273585151
 20
16822.98413999999
 30
0.0
 11
19782.013273585151
 21
16816.98223999999
 31
0.0
  0
LINE
  5
107F0
  8
2-0
  6
CONTINUOUS
 62
     3
 10
19752.015648585151
 20
16822.98413999999
 30
0.0
 11
19782.013273585151
 21
16822.98413999999
 31
0.0
  0
LINE
  5
107F1
  8
2-0
  6
CONTINUOUS
 62
     3
 10
19752.015648585151
 20
16832.592723999998
 30
0.0
 11
19752.015648585151
 21
17479.89705499999
 31
0.0
  0
LINE
  5
107F2
  8
2-0
  6
CONTINUOUS
 62
     3
 10
19752.015648585151
 20
17537.08732599999
 30
0.0
 11
19752.015648585151
 21
18180.891115999999
 31
0.0
  0
LINE
  5
107F3
  8
2-0
  6
CONTINUOUS
 62
     3
 10
19752.015648585151
 20
16677.982424999998
 30
0.0
 11
19782.013273585151
 21
16677.982424999998
 31
0.0
  0
LINE
  5
107F4
  8
2-0
  6
CONTINUOUS
 62
     3
 10
19782.013273585151
 20
16677.982424999998
 30
0.0
 11
19782.013273585151
 21
16683.98432499999
 31
0.0
  0
LINE
  5
107F5
  8
2-0
  6
CONTINUOUS
 62
     3
 10
19839.902314585139
 20
16707.987968000001
 30
0.0
 11
19754.901786585149
 21
16707.987968000001
 31
0.0
  0
LINE
  5
107F6
  8
2-0
  6
CONTINUOUS
 62
     3
 10
19754.901786585149
 20
16707.987968000001
 30
0.0
 11
19754.901786585149
 21
16727.983085
 31
0.0
  0
LINE
  5
107F7
  8
2-0
  6
CONTINUOUS
 62
     3
 10
19782.013273585151
 20
16668.373842000012
 30
0.0
 11
19752.015648585151
 21
16668.373842000012
 31
0.0
  0
LINE
  5
107F8
  8
2-0
  6
CONTINUOUS
 62
     3
 10
19782.013273585151
 20
16686.369644999992
 30
0.0
 11
19782.013273585151
 21
16668.373842000012
 31
0.0
  0
LINE
  5
107F9
  8
2-0
  6
CONTINUOUS
 62
     3
 10
19757.01987158514
 20
16686.369644999992
 30
0.0
 11
19782.013273585151
 21
16686.369644999992
 31
0.0
  0
LINE
  5
107FA
  8
2-0
  6
CONTINUOUS
 62
     3
 10
19757.01987158514
 20
16681.36938099999
 30
0.0
 11
19757.01987158514
 21
16686.369644999992
 31
0.0
  0
LINE
  5
107FB
  8
2-0
  6
CONTINUOUS
 62
     3
 10
19764.017469585131
 20
16681.36938099999
 30
0.0
 11
19757.01987158514
 21
16681.36938099999
 31
0.0
  0
LINE
  5
107FC
  8
2-0
  6
CONTINUOUS
 62
     3
 10
19764.017469585131
 20
15976.887150499981
 30
0.0
 11
19757.01987158514
 21
15976.887150499981
 31
0.0
  0
LINE
  5
107FD
  8
2-0
  6
CONTINUOUS
 62
     3
 10
19757.01987158514
 20
15976.887150499981
 30
0.0
 11
19757.01987158514
 21
15981.887414499981
 31
0.0
  0
LINE
  5
107FE
  8
2-0
  6
CONTINUOUS
 62
     3
 10
19757.01987158514
 20
15981.887414499981
 30
0.0
 11
19782.013273585151
 21
15981.887414499981
 31
0.0
  0
LINE
  5
107FF
  8
2-0
  6
CONTINUOUS
 62
     3
 10
19782.013273585151
 20
15981.887414499981
 30
0.0
 11
19782.013273585151
 21
15963.885672499981
 31
0.0
  0
LINE
  5
10800
  8
2-0
  6
CONTINUOUS
 62
     3
 10
19782.013273585151
 20
15963.885672499981
 30
0.0
 11
19752.015648585151
 21
15963.885672499981
 31
0.0
  0
LINE
  5
10801
  8
2-0
  6
CONTINUOUS
 62
     3
 10
19782.013273585151
 20
15979.983117499991
 30
0.0
 11
19782.013273585151
 21
15973.98616649999
 31
0.0
  0
LINE
  5
10802
  8
2-0
  6
CONTINUOUS
 62
     3
 10
19782.013273585151
 20
15973.98616649999
 30
0.0
 11
19752.015648585151
 21
15973.98616649999
 31
0.0
  0
LINE
  5
10803
  8
2-0
  6
CONTINUOUS
 62
     3
 10
19752.015648585151
 20
15973.98616649999
 30
0.0
 11
19752.015648585151
 21
16010.9863375
 31
0.0
  0
LINE
  5
10804
  8
2-0
  6
CONTINUOUS
 62
     3
 10
19782.013273585151
 20
16010.9863375
 30
0.0
 11
19752.015648585151
 21
16010.9863375
 31
0.0
  0
LINE
  5
10805
  8
2-0
  6
CONTINUOUS
 62
     3
 10
19782.013273585151
 20
16004.98344749999
 30
0.0
 11
19782.013273585151
 21
16010.9863375
 31
0.0
  0
LINE
  5
10806
  8
2-0
  6
CONTINUOUS
 62
     3
 10
19782.013273585151
 20
16021.081882500001
 30
0.0
 11
19752.015648585151
 21
16021.081882500001
 31
0.0
  0
LINE
  5
10807
  8
2-0
  6
CONTINUOUS
 62
     3
 10
19782.013273585151
 20
16003.074201499991
 30
0.0
 11
19782.013273585151
 21
16021.081882500001
 31
0.0
  0
LINE
  5
10808
  8
2-0
  6
CONTINUOUS
 62
     3
 10
19757.01987158514
 20
16003.074201499991
 30
0.0
 11
19782.013273585151
 21
16003.074201499991
 31
0.0
  0
LINE
  5
10809
  8
2-0
  6
CONTINUOUS
 62
     3
 10
19757.01987158514
 20
16008.0804045
 30
0.0
 11
19757.01987158514
 21
16003.074201499991
 31
0.0
  0
LINE
  5
1080A
  8
2-0
  6
CONTINUOUS
 62
     3
 10
19764.017469585131
 20
16008.0804045
 30
0.0
 11
19757.01987158514
 21
16008.0804045
 31
0.0
  0
LINE
  5
1080B
  8
2-0
  6
CONTINUOUS
 62
     3
 10
19764.017469585131
 20
15307.320421000009
 30
0.0
 11
19757.01987158514
 21
15307.320421000009
 31
0.0
  0
LINE
  5
1080C
  8
2-0
  6
CONTINUOUS
 62
     3
 10
19757.01987158514
 20
15307.320421000009
 30
0.0
 11
19757.01987158514
 21
15302.326096000001
 31
0.0
  0
LINE
  5
1080D
  8
2-0
  6
CONTINUOUS
 62
     3
 10
19757.01987158514
 20
15302.326096000001
 30
0.0
 11
19782.013273585151
 21
15302.326096000001
 31
0.0
  0
LINE
  5
1080E
  8
2-0
  6
CONTINUOUS
 62
     3
 10
19782.013273585151
 20
15302.326096000001
 30
0.0
 11
19782.013273585151
 21
15320.321899
 31
0.0
  0
LINE
  5
1080F
  8
2-0
  6
CONTINUOUS
 62
     3
 10
19782.013273585151
 20
15320.321899
 30
0.0
 11
19752.015648585151
 21
15320.321899
 31
0.0
  0
LINE
  5
10810
  8
2-0
  6
CONTINUOUS
 62
     3
 10
19782.013273585151
 20
15304.224453999999
 30
0.0
 11
19782.013273585151
 21
15310.226354000009
 31
0.0
  0
LINE
  5
10811
  8
2-0
  6
CONTINUOUS
 62
     3
 10
19782.013273585151
 20
15310.226354000009
 30
0.0
 11
19752.015648585151
 21
15310.226354000009
 31
0.0
  0
LINE
  5
10812
  8
2-0
  6
CONTINUOUS
 62
     3
 10
19752.015648585151
 20
15273.22717300001
 30
0.0
 11
19752.015648585151
 21
15310.226354000009
 31
0.0
  0
LINE
  5
10813
  8
2-0
  6
CONTINUOUS
 62
     3
 10
19782.013273585151
 20
15273.22717300001
 30
0.0
 11
19752.015648585151
 21
15273.22717300001
 31
0.0
  0
LINE
  5
10814
  8
2-0
  6
CONTINUOUS
 62
     3
 10
19782.013273585151
 20
15279.224123999989
 30
0.0
 11
19782.013273585151
 21
15273.22717300001
 31
0.0
  0
LINE
  5
10815
  8
2-0
  6
CONTINUOUS
 62
     3
 10
19782.013273585151
 20
15263.125689
 30
0.0
 11
19752.015648585151
 21
15263.125689
 31
0.0
  0
LINE
  5
10816
  8
2-0
  6
CONTINUOUS
 62
     3
 10
19782.013273585151
 20
15281.13337
 30
0.0
 11
19782.013273585151
 21
15263.125689
 31
0.0
  0
LINE
  5
10817
  8
2-0
  6
CONTINUOUS
 62
     3
 10
19757.01987158514
 20
15281.13337
 30
0.0
 11
19782.013273585151
 21
15281.13337
 31
0.0
  0
LINE
  5
10818
  8
2-0
  6
CONTINUOUS
 62
     3
 10
19757.01987158514
 20
15276.13310600001
 30
0.0
 11
19757.01987158514
 21
15281.13337
 31
0.0
  0
LINE
  5
10819
  8
2-0
  6
CONTINUOUS
 62
     3
 10
19764.017469585131
 20
15276.13310600001
 30
0.0
 11
19757.01987158514
 21
15276.13310600001
 31
0.0
  0
LINE
  5
1081A
  8
2-0
  6
CONTINUOUS
 62
     3
 10
19752.015648585151
 20
16668.373842000012
 30
0.0
 11
19752.015648585151
 21
16021.081882500001
 31
0.0
  0
LINE
  5
1081B
  8
2-0
  6
CONTINUOUS
 62
     3
 10
19752.015648585151
 20
16822.98413999999
 30
0.0
 11
19752.015648585151
 21
16677.982424999998
 31
0.0
  0
LINE
  5
1081C
  8
2-0
  6
CONTINUOUS
 62
     3
 10
19839.902314585139
 20
16792.984536
 30
0.0
 11
19839.902314585139
 21
16707.987968000001
 31
0.0
  0
LINE
  5
1081D
  8
2-0
  6
CONTINUOUS
 62
     3
 10
19764.017469585131
 20
14574.892099000001
 30
0.0
 11
19757.01987158514
 21
14574.892099000001
 31
0.0
  0
LINE
  5
1081E
  8
2-0
  6
CONTINUOUS
 62
     3
 10
19757.01987158514
 20
14574.892099000001
 30
0.0
 11
19757.01987158514
 21
14579.886425000001
 31
0.0
  0
LINE
  5
1081F
  8
2-0
  6
CONTINUOUS
 62
     3
 10
19757.01987158514
 20
14579.886425000001
 30
0.0
 11
19782.013273585151
 21
14579.886425000001
 31
0.0
  0
LINE
  5
10820
  8
2-0
  6
CONTINUOUS
 62
     3
 10
19782.013273585151
 20
14579.886425000001
 30
0.0
 11
19782.013273585151
 21
14561.890621
 31
0.0
  0
LINE
  5
10821
  8
2-0
  6
CONTINUOUS
 62
     3
 10
19782.013273585151
 20
14561.890621
 30
0.0
 11
19752.015648585151
 21
14561.890621
 31
0.0
  0
LINE
  5
10822
  8
2-0
  6
CONTINUOUS
 62
     3
 10
19782.013273585151
 20
14577.989056000009
 30
0.0
 11
19782.013273585151
 21
14571.986166000001
 31
0.0
  0
LINE
  5
10823
  8
2-0
  6
CONTINUOUS
 62
     3
 10
19782.013273585151
 20
14571.986166000001
 30
0.0
 11
19752.015648585151
 21
14571.986166000001
 31
0.0
  0
LINE
  5
10824
  8
2-0
  6
CONTINUOUS
 62
     3
 10
19752.015648585151
 20
14571.986166000001
 30
0.0
 11
19752.015648585151
 21
14608.986337999981
 31
0.0
  0
LINE
  5
10825
  8
2-0
  6
CONTINUOUS
 62
     3
 10
19782.013273585151
 20
14608.986337999981
 30
0.0
 11
19752.015648585151
 21
14608.986337999981
 31
0.0
  0
LINE
  5
10826
  8
2-0
  6
CONTINUOUS
 62
     3
 10
19782.013273585151
 20
14602.989385999999
 30
0.0
 11
19782.013273585151
 21
14608.986337999981
 31
0.0
  0
LINE
  5
10827
  8
2-0
  6
CONTINUOUS
 62
     3
 10
19782.013273585151
 20
14619.086831000001
 30
0.0
 11
19752.015648585151
 21
14619.086831000001
 31
0.0
  0
LINE
  5
10828
  8
2-0
  6
CONTINUOUS
 62
     3
 10
19782.013273585151
 20
14601.080140000009
 30
0.0
 11
19782.013273585151
 21
14619.086831000001
 31
0.0
  0
LINE
  5
10829
  8
2-0
  6
CONTINUOUS
 62
     3
 10
19757.01987158514
 20
14601.080140000009
 30
0.0
 11
19782.013273585151
 21
14601.080140000009
 31
0.0
  0
LINE
  5
1082A
  8
2-0
  6
CONTINUOUS
 62
     3
 10
19757.01987158514
 20
14606.085353000009
 30
0.0
 11
19757.01987158514
 21
14601.080140000009
 31
0.0
  0
LINE
  5
1082B
  8
2-0
  6
CONTINUOUS
 62
     3
 10
19764.017469585131
 20
14606.085353000009
 30
0.0
 11
19757.01987158514
 21
14606.085353000009
 31
0.0
  0
LINE
  5
1082C
  8
2-0
  6
CONTINUOUS
 62
     3
 10
19782.013273585151
 20
14249.488178999991
 30
0.0
 11
19782.013273585151
 21
14255.493048
 31
0.0
  0
LINE
  5
1082D
  8
2-0
  6
CONTINUOUS
 62
     3
 10
19782.013273585151
 20
14255.493048
 30
0.0
 11
19752.015648585151
 21
14255.493048
 31
0.0
  0
LINE
  5
1082E
  8
2-0
  6
CONTINUOUS
 62
     3
 10
19752.015648585151
 20
14255.493048
 30
0.0
 11
19752.015648585151
 21
14140.48895699999
 31
0.0
  0
LINE
  5
1082F
  8
2-0
  6
CONTINUOUS
 62
     3
 10
19752.015648585151
 20
14140.48895699999
 30
0.0
 11
19837.01419658514
 21
14140.48895699999
 31
0.0
  0
LINE
  5
10830
  8
2-0
  6
CONTINUOUS
 62
     3
 10
19837.01419658514
 20
14140.48895699999
 30
0.0
 11
19837.01419658514
 21
14225.484536
 31
0.0
  0
LINE
  5
10831
  8
2-0
  6
CONTINUOUS
 62
     3
 10
19837.01419658514
 20
14225.484536
 30
0.0
 11
19805.01725858514
 21
14225.484536
 31
0.0
  0
LINE
  5
10832
  8
2-0
  6
CONTINUOUS
 62
     3
 10
19764.017469585131
 20
14252.522780999991
 30
0.0
 11
19757.01987158514
 21
14252.522780999991
 31
0.0
  0
LINE
  5
10833
  8
2-0
  6
CONTINUOUS
 62
     3
 10
19757.01987158514
 20
14252.522780999991
 30
0.0
 11
19757.01987158514
 21
14247.52548599998
 31
0.0
  0
LINE
  5
10834
  8
2-0
  6
CONTINUOUS
 62
     3
 10
19757.01987158514
 20
14247.52548599998
 30
0.0
 11
19782.013273585151
 21
14247.52548599998
 31
0.0
  0
LINE
  5
10835
  8
2-0
  6
CONTINUOUS
 62
     3
 10
19782.013273585151
 20
14247.52548599998
 30
0.0
 11
19782.013273585151
 21
14265.524259
 31
0.0
  0
LINE
  5
10836
  8
2-0
  6
CONTINUOUS
 62
     3
 10
19782.013273585151
 20
14265.524259
 30
0.0
 11
19752.015648585151
 21
14265.524259
 31
0.0
  0
LINE
  5
10837
  8
2-0
  6
CONTINUOUS
 62
     3
 10
19752.015648585151
 20
14619.086831000001
 30
0.0
 11
19752.015648585151
 21
15263.125689
 31
0.0
  0
LINE
  5
10838
  8
2-0
  6
CONTINUOUS
 62
     3
 10
19752.015648585151
 20
18238.081387999999
 30
0.0
 11
19752.015648585151
 21
18881.892105499981
 31
0.0
  0
LINE
  5
10839
  8
2-0
  6
CONTINUOUS
 62
     3
 10
19752.015648585151
 20
15963.885672499981
 30
0.0
 11
19752.015648585151
 21
15320.321899
 31
0.0
  0
LINE
  5
1083A
  8
2-0
  6
CONTINUOUS
 62
     3
 10
22755.01023758516
 20
19245.488364000019
 30
0.0
 11
22755.01023758516
 21
19360.484537000018
 31
0.0
  0
LINE
  5
1083B
  8
2-0
  6
CONTINUOUS
 62
     3
 10
19752.015648585151
 20
19275.487968000001
 30
0.0
 11
22674.008337585132
 21
19275.487968000001
 31
0.0
  0
LINE
  5
1083C
  8
2-0
  6
CONTINUOUS
 62
     3
 10
19752.015648585151
 20
14265.524259
 30
0.0
 11
19752.015648585151
 21
14561.890621
 31
0.0
  0
LINE
  5
1083D
  8
2-0
  6
CONTINUOUS
 62
     3
 10
22755.01023758516
 20
19235.19090799999
 30
0.0
 11
22755.01023758516
 21
18939.082377499992
 31
0.0
  0
LINE
  5
1083E
  8
2-0
  6
CONTINUOUS
 62
     3
 10
19752.015648585151
 20
19235.19090799999
 30
0.0
 11
19752.015648585151
 21
18939.082377499959
 31
0.0
  0
LINE
  5
1083F
  8
2-0
  6
CONTINUOUS
 62
     3
 10
19833.01358958516
 20
14225.484536
 30
0.0
 11
19833.01358958516
 21
19360.484537000018
 31
0.0
  0
LINE
  5
10840
  8
2-0
  6
CONTINUOUS
 62
     3
 10
22674.008337585132
 20
14225.484536
 30
0.0
 11
22674.008337585132
 21
19360.484537000018
 31
0.0
  0
TEXT
  5
10841
  8
2-0
  6
CONTINUOUS
 62
     7
 10
20565.6666465909
 20
13622.99046700269
 30
0.0
 40
160.0
  1
前柱（左）
 50
359.99978700000003
 72
     4
 11
20981.666943992132
 21
13702.988920500789
 31
0.0
  0
TEXT
  5
10842
  8
2-0
  6
CONTINUOUS
 62
     7
 10
20467.738190255292
 20
16200.97714927651
 30
0.0
 40
160.0
  1
壁パネル
 50
0.0001770000000167
 72
     4
 11
20830.404609781599
 21
16280.978269637881
 31
0.0
  0
TEXT
  5
10843
  8
2-0
  6
CONTINUOUS
 62
     7
 10
20438.40776093824
 20
17038.173678652362
 30
0.0
 40
160.0
  1
中柱（左右）
 50
359.99964599999998
 72
     4
 11
20955.741588538938
 21
17118.170482324658
 31
0.0
  0
TEXT
  5
10844
  8
2-0
  6
CONTINUOUS
 62
     7
 10
20451.738850310579
 20
14596.034972706109
 30
0.0
 40
160.0
  1
下枠
 50
359.99893700000001
 72
     4
 11
20622.40700117587
 21
14676.031806339281
 31
0.0
  0
TEXT
  5
10845
  8
2-0
  6
CONTINUOUS
 62
     7
 10
20455.44009291847
 20
18641.436024499981
 30
0.0
 40
160.0
  1
間柱（側）
 72
     4
 11
20876.773426251799
 21
18721.436024499981
 31
0.0
  0
TEXT
  5
10846
  8
2-0
  6
CONTINUOUS
 62
     7
 10
17955.51644060469
 20
20170.490071748729
 30
0.0
 40
160.0
  1
後柱（左右）
 50
359.99964599999998
 72
     4
 11
18467.516934872168
 21
20250.48690837283
 31
0.0
  0
LINE
  5
10847
  8
2-0
  6
CONTINUOUS
 62
     3
 10
21973.012534585141
 20
19360.484537000018
 30
0.0
 11
21936.011372585159
 21
19360.484537000018
 31
0.0
  0
LINE
  5
10848
  8
2-0
  6
CONTINUOUS
 62
     3
 10
21973.012534585141
 20
19330.480973999998
 30
0.0
 11
21973.012534585141
 21
19360.484537000018
 31
0.0
  0
LINE
  5
10849
  8
2-0
  6
CONTINUOUS
 62
     3
 10
21967.012613585131
 20
19330.480973999998
 30
0.0
 11
21973.012534585141
 21
19330.480973999998
 31
0.0
  0
LINE
  5
1084A
  8
2-0
  6
CONTINUOUS
 62
     3
 10
21983.110058585149
 20
19330.480973999998
 30
0.0
 11
21983.110058585149
 21
19360.484537000018
 31
0.0
  0
LINE
  5
1084B
  8
2-0
  6
CONTINUOUS
 62
     3
 10
21965.106337585152
 20
19330.480973999998
 30
0.0
 11
21983.110058585149
 21
19330.480973999998
 31
0.0
  0
LINE
  5
1084C
  8
2-0
  6
CONTINUOUS
 62
     3
 10
21965.106337585152
 20
19355.490211000011
 30
0.0
 11
21965.106337585152
 21
19330.480973999998
 31
0.0
  0
LINE
  5
1084D
  8
2-0
  6
CONTINUOUS
 62
     3
 10
21970.10660158515
 20
19355.490211000011
 30
0.0
 11
21965.106337585152
 21
19355.490211000011
 31
0.0
  0
LINE
  5
1084E
  8
2-0
  6
CONTINUOUS
 62
     3
 10
21970.10660158515
 20
19348.484694999999
 30
0.0
 11
21970.10660158515
 21
19355.490211000011
 31
0.0
  0
LINE
  5
1084F
  8
2-0
  6
CONTINUOUS
 62
     3
 10
21938.917306585128
 20
19348.484694999999
 30
0.0
 11
21938.917306585128
 21
19355.490211000011
 31
0.0
  0
LINE
  5
10850
  8
2-0
  6
CONTINUOUS
 62
     3
 10
21938.917306585128
 20
19355.490211000011
 30
0.0
 11
21943.917570585148
 21
19355.490211000011
 31
0.0
  0
LINE
  5
10851
  8
2-0
  6
CONTINUOUS
 62
     3
 10
21943.917570585148
 20
19355.490211000011
 30
0.0
 11
21943.917570585148
 21
19330.480973999998
 31
0.0
  0
LINE
  5
10852
  8
2-0
  6
CONTINUOUS
 62
     3
 10
21943.917570585148
 20
19330.480973999998
 30
0.0
 11
21925.917807585149
 21
19330.480973999998
 31
0.0
  0
LINE
  5
10853
  8
2-0
  6
CONTINUOUS
 62
     3
 10
21925.917807585149
 20
19330.480973999998
 30
0.0
 11
21925.917807585149
 21
19360.484537000018
 31
0.0
  0
LINE
  5
10854
  8
2-0
  6
CONTINUOUS
 62
     3
 10
21942.01129358515
 20
19330.480973999998
 30
0.0
 11
21936.011372585159
 21
19330.480973999998
 31
0.0
  0
LINE
  5
10855
  8
2-0
  6
CONTINUOUS
 62
     3
 10
21936.011372585159
 20
19330.480973999998
 30
0.0
 11
21936.011372585159
 21
19360.484537000018
 31
0.0
  0
LINE
  5
10856
  8
2-0
  6
CONTINUOUS
 62
     3
 10
20568.101652085141
 20
19348.484694999999
 30
0.0
 11
20568.101652085141
 21
19355.490211000011
 31
0.0
  0
LINE
  5
10857
  8
2-0
  6
CONTINUOUS
 62
     3
 10
20568.101652085141
 20
19355.490211000011
 30
0.0
 11
20563.10138808515
 21
19355.490211000011
 31
0.0
  0
LINE
  5
10858
  8
2-0
  6
CONTINUOUS
 62
     3
 10
20563.10138808515
 20
19355.490211000011
 30
0.0
 11
20563.10138808515
 21
19330.480973999998
 31
0.0
  0
LINE
  5
10859
  8
2-0
  6
CONTINUOUS
 62
     3
 10
20563.10138808515
 20
19330.480973999998
 30
0.0
 11
20581.107089085152
 21
19330.480973999998
 31
0.0
  0
LINE
  5
1085A
  8
2-0
  6
CONTINUOUS
 62
     3
 10
20581.107089085152
 20
19330.480973999998
 30
0.0
 11
20581.107089085152
 21
19360.484537000018
 31
0.0
  0
LINE
  5
1085B
  8
2-0
  6
CONTINUOUS
 62
     3
 10
20565.009644085141
 20
19330.480973999998
 30
0.0
 11
20571.011544085151
 21
19330.480973999998
 31
0.0
  0
LINE
  5
1085C
  8
2-0
  6
CONTINUOUS
 62
     3
 10
20571.011544085151
 20
19330.480973999998
 30
0.0
 11
20571.011544085151
 21
19360.484537000018
 31
0.0
  0
LINE
  5
1085D
  8
2-0
  6
CONTINUOUS
 62
     3
 10
20534.012363085141
 20
19360.484537000018
 30
0.0
 11
20571.011544085151
 21
19360.484537000018
 31
0.0
  0
LINE
  5
1085E
  8
2-0
  6
CONTINUOUS
 62
     3
 10
20534.012363085141
 20
19330.480973999998
 30
0.0
 11
20534.012363085141
 21
19360.484537000018
 31
0.0
  0
LINE
  5
1085F
  8
2-0
  6
CONTINUOUS
 62
     3
 10
20540.006345085141
 20
19330.480973999998
 30
0.0
 11
20534.012363085141
 21
19330.480973999998
 31
0.0
  0
LINE
  5
10860
  8
2-0
  6
CONTINUOUS
 62
     3
 10
20523.916818085148
 20
19330.480973999998
 30
0.0
 11
20523.916818085148
 21
19360.484537000018
 31
0.0
  0
LINE
  5
10861
  8
2-0
  6
CONTINUOUS
 62
     3
 10
20541.91262108515
 20
19330.480973999998
 30
0.0
 11
20523.916818085148
 21
19330.480973999998
 31
0.0
  0
LINE
  5
10862
  8
2-0
  6
CONTINUOUS
 62
     3
 10
20541.91262108515
 20
19355.490211000011
 30
0.0
 11
20541.91262108515
 21
19330.480973999998
 31
0.0
  0
LINE
  5
10863
  8
2-0
  6
CONTINUOUS
 62
     3
 10
20536.912357085152
 20
19355.490211000011
 30
0.0
 11
20541.91262108515
 21
19355.490211000011
 31
0.0
  0
LINE
  5
10864
  8
2-0
  6
CONTINUOUS
 62
     3
 10
20536.912357085152
 20
19348.484694999999
 30
0.0
 11
20536.912357085152
 21
19355.490211000011
 31
0.0
  0
LINE
  5
10865
  8
2-0
  6
CONTINUOUS
 62
     3
 10
21237.911368085141
 20
19348.484694999999
 30
0.0
 11
21237.911368085141
 21
19355.490211000011
 31
0.0
  0
LINE
  5
10866
  8
2-0
  6
CONTINUOUS
 62
     3
 10
21237.911368085141
 20
19355.490211000011
 30
0.0
 11
21242.91163108515
 21
19355.490211000011
 31
0.0
  0
LINE
  5
10867
  8
2-0
  6
CONTINUOUS
 62
     3
 10
21242.91163108515
 20
19355.490211000011
 30
0.0
 11
21242.91163108515
 21
19330.480973999998
 31
0.0
  0
LINE
  5
10868
  8
2-0
  6
CONTINUOUS
 62
     3
 10
21242.91163108515
 20
19330.480973999998
 30
0.0
 11
21224.917808085142
 21
19330.480973999998
 31
0.0
  0
LINE
  5
10869
  8
2-0
  6
CONTINUOUS
 62
     3
 10
21224.917808085142
 20
19330.480973999998
 30
0.0
 11
21224.917808085142
 21
19360.484537000018
 31
0.0
  0
LINE
  5
1086A
  8
2-0
  6
CONTINUOUS
 62
     3
 10
21241.00931408512
 20
19330.480973999998
 30
0.0
 11
21235.011373085141
 21
19330.480973999998
 31
0.0
  0
LINE
  5
1086B
  8
2-0
  6
CONTINUOUS
 62
     3
 10
21235.011373085141
 20
19330.480973999998
 30
0.0
 11
21235.011373085141
 21
19360.484537000018
 31
0.0
  0
LINE
  5
1086C
  8
2-0
  6
CONTINUOUS
 62
     3
 10
21272.012534085141
 20
19360.484537000018
 30
0.0
 11
21235.011373085141
 21
19360.484537000018
 31
0.0
  0
LINE
  5
1086D
  8
2-0
  6
CONTINUOUS
 62
     3
 10
21272.012534085141
 20
19330.480973999998
 30
0.0
 11
21272.012534085141
 21
19360.484537000018
 31
0.0
  0
LINE
  5
1086E
  8
2-0
  6
CONTINUOUS
 62
     3
 10
21266.006675085151
 20
19330.480973999998
 30
0.0
 11
21272.012534085141
 21
19330.480973999998
 31
0.0
  0
LINE
  5
1086F
  8
2-0
  6
CONTINUOUS
 62
     3
 10
21282.106099085151
 20
19330.480973999998
 30
0.0
 11
21282.106099085151
 21
19360.484537000018
 31
0.0
  0
LINE
  5
10870
  8
2-0
  6
CONTINUOUS
 62
     3
 10
21264.110296085139
 20
19330.480973999998
 30
0.0
 11
21282.106099085151
 21
19330.480973999998
 31
0.0
  0
LINE
  5
10871
  8
2-0
  6
CONTINUOUS
 62
     3
 10
21264.110296085139
 20
19355.490211000011
 30
0.0
 11
21264.110296085139
 21
19330.480973999998
 31
0.0
  0
LINE
  5
10872
  8
2-0
  6
CONTINUOUS
 62
     3
 10
21269.10066208514
 20
19355.490211000011
 30
0.0
 11
21264.110296085139
 21
19355.490211000011
 31
0.0
  0
LINE
  5
10873
  8
2-0
  6
CONTINUOUS
 62
     3
 10
21269.10066208514
 20
19348.484694999999
 30
0.0
 11
21269.10066208514
 21
19355.490211000011
 31
0.0
  0
LINE
  5
10874
  8
2-0
  6
CONTINUOUS
 62
     3
 10
20581.107089085152
 20
19360.484537000018
 30
0.0
 11
21224.917808085142
 21
19360.484537000018
 31
0.0
  0
LINE
  5
10875
  8
2-0
  6
CONTINUOUS
 62
     3
 10
19877.317195585139
 20
19360.484537000018
 30
0.0
 11
20523.916818085148
 21
19360.484537000018
 31
0.0
  0
LINE
  5
10876
  8
2-0
  6
CONTINUOUS
 62
     3
 10
22630.395583585148
 20
19360.484537000018
 30
0.0
 11
21983.110058585149
 21
19360.484537000018
 31
0.0
  0
LINE
  5
10877
  8
2-0
  6
CONTINUOUS
 62
     3
 10
21925.917807585149
 20
19360.484537000018
 30
0.0
 11
21282.106099085151
 21
19360.484537000018
 31
0.0
  0
LINE
  5
10878
  8
2-0
  6
CONTINUOUS
 62
     3
 10
22755.01023758516
 20
15263.12568900001
 30
0.0
 11
22755.01023758516
 21
14619.086831000001
 31
0.0
  0
LINE
  5
10879
  8
2-0
  6
CONTINUOUS
 62
     3
 10
22755.01023758516
 20
14561.890621
 30
0.0
 11
22755.01023758516
 21
14265.524259
 31
0.0
  0
LINE
  5
1087A
  8
0-6
  6
CONTINUOUS
 62
     6
 10
22711.687695085151
 20
18649.166309
 30
0.0
 11
21686.647445085138
 21
18649.166309
 31
0.0
  0
LINE
  5
1087B
  8
0-6
  6
CONTINUOUS
 62
     6
 10
21386.722667085141
 20
19206.519561000019
 30
0.0
 11
21282.107089085141
 21
19330.480973999998
 31
0.0
  0
LINE
  5
1087C
  8
0-6
  6
CONTINUOUS
 62
     6
 10
21282.107089085141
 20
19330.480973999998
 30
0.0
 11
21340.865139085148
 21
19179.289304000009
 31
0.0
  0
LINE
  5
1087D
  8
0-6
  6
CONTINUOUS
 62
     6
 10
21282.107089085141
 20
19330.480973999998
 30
0.0
 11
21386.722667085141
 21
19206.519561000019
 31
0.0
  0
LINE
  5
1087E
  8
0-6
  6
CONTINUOUS
 62
     6
 10
21386.722667085141
 20
19206.519561000019
 30
0.0
 11
21340.865139085148
 21
19179.289304000009
 31
0.0
  0
LINE
  5
1087F
  8
0-6
  6
CONTINUOUS
 62
     6
 10
21340.865139085148
 20
19179.289304000009
 30
0.0
 11
21282.107089085141
 21
19330.480973999998
 31
0.0
  0
LINE
  5
10880
  8
0-6
  6
CONTINUOUS
 62
     6
 10
21340.865139085148
 20
19179.289304000009
 30
0.0
 11
21386.722667085141
 21
19206.519561000019
 31
0.0
  0
LINE
  5
10881
  8
0-6
  6
CONTINUOUS
 62
     6
 10
21363.793903085148
 20
19192.906412000011
 30
0.0
 11
21686.647445085138
 21
18649.166309
 31
0.0
  0
TEXT
  5
10882
  8
0-6
  6
CONTINUOUS
 62
     7
 10
21789.020764418481
 20
18729.168553
 30
0.0
 40
160.0
  1
間柱（後）
 72
     4
 11
22210.35409775181
 21
18809.168553
 31
0.0
  0
LINE
  5
10883
  8
SUNPOU
  6
CONTINUOUS
 62
     4
 10
19794.511953585152
 20
19440.484537000018
 30
0.0
 11
19794.511953585152
 21
20170.487440000019
 31
0.0
  0
LINE
  5
10884
  8
SUNPOU
  6
CONTINUOUS
 62
     4
 10
20552.511953585152
 20
19440.484537000018
 30
0.0
 11
20552.511953585152
 21
20170.487440000019
 31
0.0
  0
LINE
  5
10885
  8
SUNPOU
  6
CONTINUOUS
 62
     4
 10
19794.511953585152
 20
20090.487440000019
 30
0.0
 11
20552.511953585152
 21
20090.487440000019
 31
0.0
  0
LINE
  5
10886
  8
SUNPOU
  6
CONTINUOUS
 62
     4
 10
19672.01366958514
 20
14590.606507750001
 30
0.0
 11
18622.01234958514
 21
14590.606507750001
 31
0.0
  0
LINE
  5
10887
  8
SUNPOU
  6
CONTINUOUS
 62
     4
 10
18822.01234958514
 20
14183.106507750001
 30
0.0
 11
18622.01234958514
 21
14183.106507750001
 31
0.0
  0
LINE
  5
10888
  8
SUNPOU
  6
CONTINUOUS
 62
     4
 10
18702.01234958514
 20
14590.606507750001
 30
0.0
 11
18702.01234958514
 21
14183.106507750001
 31
0.0
  0
LINE
  5
10889
  8
SUNPOU
  6
CONTINUOUS
 62
     4
 10
19672.01366958514
 20
18910.486251999992
 30
0.0
 11
18622.01234958514
 21
18910.486251999992
 31
0.0
  0
LINE
  5
1088A
  8
SUNPOU
  6
CONTINUOUS
 62
     4
 10
18822.01234958514
 20
19317.986251999992
 30
0.0
 11
18622.01234958514
 21
19317.986251999992
 31
0.0
  0
LINE
  5
1088B
  8
SUNPOU
  6
CONTINUOUS
 62
     4
 10
18702.01234958514
 20
18910.486251999992
 30
0.0
 11
18702.01234958514
 21
19317.986251999992
 31
0.0
  0
LINE
  5
1088C
  8
SUNPOU
  6
CONTINUOUS
 62
     4
 10
19794.511953585152
 20
13477.222817999989
 30
0.0
 11
19794.511953585152
 21
13131.538167999999
 31
0.0
  0
LINE
  5
1088D
  8
SUNPOU
  6
CONTINUOUS
 62
     4
 10
19752.00971058516
 20
14060.48895699999
 30
0.0
 11
19752.00971058516
 21
13131.538167999999
 31
0.0
  0
LINE
  5
1088E
  8
SUNPOU
  6
CONTINUOUS
 62
     4
 10
19794.511953585152
 20
13211.538167999999
 30
0.0
 11
20034.511953585152
 21
13211.538167999999
 31
0.0
  0
LINE
  5
1088F
  8
SUNPOU
  6
CONTINUOUS
 62
     4
 10
19752.00971058516
 20
13211.538167999999
 30
0.0
 11
19512.00971058516
 21
13211.538167999999
 31
0.0
  0
LINE
  5
10890
  8
SUNPOU
  6
CONTINUOUS
 62
     4
 10
19794.511953585152
 20
13211.538167999999
 30
0.0
 11
19752.00971058516
 21
13211.538167999999
 31
0.0
  0
LINE
  5
10891
  8
SUNPOU
  6
CONTINUOUS
 62
     4
 10
22712.511953585152
 20
13477.222817999989
 30
0.0
 11
22712.511953585152
 21
13131.538167999999
 31
0.0
  0
LINE
  5
10892
  8
SUNPOU
  6
CONTINUOUS
 62
     4
 10
22755.01419658514
 20
14060.48895699999
 30
0.0
 11
22755.01419658514
 21
13131.538167999999
 31
0.0
  0
LINE
  5
10893
  8
SUNPOU
  6
CONTINUOUS
 62
     4
 10
22712.511953585152
 20
13211.538167999999
 30
0.0
 11
22472.511953585152
 21
13211.538167999999
 31
0.0
  0
LINE
  5
10894
  8
SUNPOU
  6
CONTINUOUS
 62
     4
 10
22755.01419658514
 20
13211.538167999999
 30
0.0
 11
22995.01419658514
 21
13211.538167999999
 31
0.0
  0
LINE
  5
10895
  8
SUNPOU
  6
CONTINUOUS
 62
     4
 10
22712.511953585152
 20
13211.538167999999
 30
0.0
 11
22755.01419658514
 21
13211.538167999999
 31
0.0
  0
LINE
  5
10896
  8
SUNPOU
  6
CONTINUOUS
 62
     4
 10
22712.511953585152
 20
13477.222817999989
 30
0.0
 11
22712.511953585152
 21
13131.538167999999
 31
0.0
  0
LINE
  5
10897
  8
SUNPOU
  6
CONTINUOUS
 62
     4
 10
22670.009710585149
 20
14060.48895699999
 30
0.0
 11
22670.009710585149
 21
13131.538167999999
 31
0.0
  0
LINE
  5
10898
  8
SUNPOU
  6
CONTINUOUS
 62
     4
 10
22712.511953585152
 20
13211.538167999999
 30
0.0
 11
22952.511953585152
 21
13211.538167999999
 31
0.0
  0
LINE
  5
10899
  8
SUNPOU
  6
CONTINUOUS
 62
     4
 10
22670.009710585149
 20
13211.538167999999
 30
0.0
 11
22430.009710585149
 21
13211.538167999999
 31
0.0
  0
LINE
  5
1089A
  8
SUNPOU
  6
CONTINUOUS
 62
     4
 10
22712.511953585152
 20
13211.538167999999
 30
0.0
 11
22670.009710585149
 21
13211.538167999999
 31
0.0
  0
LINE
  5
1089B
  8
SUNPOU
  6
CONTINUOUS
 62
     4
 10
19794.511953585152
 20
13477.222817999989
 30
0.0
 11
19794.511953585152
 21
13131.538167999999
 31
0.0
  0
LINE
  5
1089C
  8
SUNPOU
  6
CONTINUOUS
 62
     4
 10
19837.01419658514
 20
14060.48895699999
 30
0.0
 11
19837.01419658514
 21
13131.538167999999
 31
0.0
  0
LINE
  5
1089D
  8
SUNPOU
  6
CONTINUOUS
 62
     4
 10
19794.511953585152
 20
13211.538167999999
 30
0.0
 11
19554.511953585141
 21
13211.538167999999
 31
0.0
  0
LINE
  5
1089E
  8
SUNPOU
  6
CONTINUOUS
 62
     4
 10
19837.01419658514
 20
13211.538167999999
 30
0.0
 11
20077.014196585151
 21
13211.538167999999
 31
0.0
  0
LINE
  5
1089F
  8
SUNPOU
  6
CONTINUOUS
 62
     4
 10
19794.511953585152
 20
13211.538167999999
 30
0.0
 11
19837.01419658514
 21
13211.538167999999
 31
0.0
  0
LINE
  5
108A0
  8
SUNPOU
  6
CONTINUOUS
 62
     4
 10
19752.00971058516
 20
14060.48895699999
 30
0.0
 11
19752.00971058516
 21
12731.538167999999
 31
0.0
  0
LINE
  5
108A1
  8
SUNPOU
  6
CONTINUOUS
 62
     4
 10
22755.01419658514
 20
14060.48895699999
 30
0.0
 11
22755.01419658514
 21
12731.538167999999
 31
0.0
  0
LINE
  5
108A2
  8
SUNPOU
  6
CONTINUOUS
 62
     4
 10
19752.00971058516
 20
12811.538167999999
 30
0.0
 11
22755.01419658514
 21
12811.538167999999
 31
0.0
  0
LINE
  5
108A3
  8
SUNPOU
  6
CONTINUOUS
 62
     4
 10
19672.01366958514
 20
15291.726763500021
 30
0.0
 11
18622.01234958514
 21
15291.726763500021
 31
0.0
  0
LINE
  5
108A4
  8
SUNPOU
  6
CONTINUOUS
 62
     4
 10
19672.01366958514
 20
14590.48625199999
 30
0.0
 11
18622.01234958514
 21
14590.48625199999
 31
0.0
  0
LINE
  5
108A5
  8
SUNPOU
  6
CONTINUOUS
 62
     4
 10
18702.01234958514
 20
15291.726763500021
 30
0.0
 11
18702.01234958514
 21
14590.48625199999
 31
0.0
  0
LINE
  5
108A6
  8
SUNPOU
  6
CONTINUOUS
 62
     4
 10
19672.01366958514
 20
15992.486252000001
 30
0.0
 11
18622.01234958514
 21
15992.486252000001
 31
0.0
  0
LINE
  5
108A7
  8
SUNPOU
  6
CONTINUOUS
 62
     4
 10
19672.01366958514
 20
15291.726763500021
 30
0.0
 11
18622.01234958514
 21
15291.726763500021
 31
0.0
  0
LINE
  5
108A8
  8
SUNPOU
  6
CONTINUOUS
 62
     4
 10
18702.01234958514
 20
15992.486252000001
 30
0.0
 11
18702.01234958514
 21
15291.726763500021
 31
0.0
  0
LINE
  5
108A9
  8
SUNPOU
  6
CONTINUOUS
 62
     4
 10
18822.01234958514
 20
16750.486251999992
 30
0.0
 11
18622.01234958514
 21
16750.486251999992
 31
0.0
  0
LINE
  5
108AA
  8
SUNPOU
  6
CONTINUOUS
 62
     4
 10
19672.01366958514
 20
15992.486252000001
 30
0.0
 11
18622.01234958514
 21
15992.486252000001
 31
0.0
  0
LINE
  5
108AB
  8
SUNPOU
  6
CONTINUOUS
 62
     4
 10
18702.01234958514
 20
16750.486251999992
 30
0.0
 11
18702.01234958514
 21
15992.486252000001
 31
0.0
  0
LINE
  5
108AC
  8
SUNPOU
  6
CONTINUOUS
 62
     4
 10
19672.01366958514
 20
17508.486251999981
 30
0.0
 11
18622.01234958514
 21
17508.486251999981
 31
0.0
  0
LINE
  5
108AD
  8
SUNPOU
  6
CONTINUOUS
 62
     4
 10
18822.01234958514
 20
16750.486251999992
 30
0.0
 11
18622.01234958514
 21
16750.486251999992
 31
0.0
  0
LINE
  5
108AE
  8
SUNPOU
  6
CONTINUOUS
 62
     4
 10
18702.01234958514
 20
17508.486251999981
 30
0.0
 11
18702.01234958514
 21
16750.486251999992
 31
0.0
  0
LINE
  5
108AF
  8
SUNPOU
  6
CONTINUOUS
 62
     4
 10
19672.01366958514
 20
18209.486251999981
 30
0.0
 11
18622.01234958514
 21
18209.486251999981
 31
0.0
  0
LINE
  5
108B0
  8
SUNPOU
  6
CONTINUOUS
 62
     4
 10
19672.01366958514
 20
17508.486251999981
 30
0.0
 11
18622.01234958514
 21
17508.486251999981
 31
0.0
  0
LINE
  5
108B1
  8
SUNPOU
  6
CONTINUOUS
 62
     4
 10
18702.01234958514
 20
18209.486251999981
 30
0.0
 11
18702.01234958514
 21
17508.486251999981
 31
0.0
  0
LINE
  5
108B2
  8
SUNPOU
  6
CONTINUOUS
 62
     4
 10
19672.01366958514
 20
18910.486251999992
 30
0.0
 11
18622.01234958514
 21
18910.486251999992
 31
0.0
  0
LINE
  5
108B3
  8
SUNPOU
  6
CONTINUOUS
 62
     4
 10
19672.01366958514
 20
18209.486251999981
 30
0.0
 11
18622.01234958514
 21
18209.486251999981
 31
0.0
  0
LINE
  5
108B4
  8
SUNPOU
  6
CONTINUOUS
 62
     4
 10
18702.01234958514
 20
18910.486251999992
 30
0.0
 11
18702.01234958514
 21
18209.486251999981
 31
0.0
  0
LINE
  5
108B5
  8
SUNPOU
  6
CONTINUOUS
 62
     4
 10
18822.01234958514
 20
19317.986251999992
 30
0.0
 11
18622.01234958514
 21
19317.986251999992
 31
0.0
  0
LINE
  5
108B6
  8
SUNPOU
  6
CONTINUOUS
 62
     4
 10
18822.01234958514
 20
14182.986252000001
 30
0.0
 11
18622.01234958514
 21
14182.986252000001
 31
0.0
  0
LINE
  5
108B7
  8
SUNPOU
  6
CONTINUOUS
 62
     4
 10
19672.01366958514
 20
19360.483547
 30
0.0
 11
18222.01234958514
 21
19360.48354699996
 31
0.0
  0
LINE
  5
108B8
  8
SUNPOU
  6
CONTINUOUS
 62
     4
 10
19672.01366958514
 20
14140.48895699999
 30
0.0
 11
18222.01234958514
 21
14140.48895699999
 31
0.0
  0
LINE
  5
108B9
  8
SUNPOU
  6
CONTINUOUS
 62
     4
 10
18302.01234958514
 20
19360.483547
 30
0.0
 11
18302.01234958514
 21
14140.48895699999
 31
0.0
  0
LINE
  5
108BA
  8
SUNPOU
  6
CONTINUOUS
 62
     4
 10
18822.01234958514
 20
19317.986251999992
 30
0.0
 11
18622.01234958514
 21
19317.986251999992
 31
0.0
  0
LINE
  5
108BB
  8
SUNPOU
  6
CONTINUOUS
 62
     4
 10
19672.01366958514
 20
19360.483547
 30
0.0
 11
18622.01234958514
 21
19360.483547
 31
0.0
  0
LINE
  5
108BC
  8
SUNPOU
  6
CONTINUOUS
 62
     4
 10
18702.01234958514
 20
19317.986251999992
 30
0.0
 11
18702.01234958514
 21
19077.986251999992
 31
0.0
  0
LINE
  5
108BD
  8
SUNPOU
  6
CONTINUOUS
 62
     4
 10
18702.01234958514
 20
19360.483547
 30
0.0
 11
18702.01234958514
 21
19600.483546999989
 31
0.0
  0
LINE
  5
108BE
  8
SUNPOU
  6
CONTINUOUS
 62
     4
 10
18702.01234958514
 20
19317.986251999992
 30
0.0
 11
18702.01234958514
 21
19360.483547
 31
0.0
  0
LINE
  5
108BF
  8
SUNPOU
  6
CONTINUOUS
 62
     4
 10
18822.01234958514
 20
14182.986252000001
 30
0.0
 11
18622.01234958514
 21
14182.986252000001
 31
0.0
  0
LINE
  5
108C0
  8
SUNPOU
  6
CONTINUOUS
 62
     4
 10
19672.01366958514
 20
14140.48895699999
 30
0.0
 11
18622.01234958514
 21
14140.48895699999
 31
0.0
  0
LINE
  5
108C1
  8
SUNPOU
  6
CONTINUOUS
 62
     4
 10
18702.01234958514
 20
14182.986252000001
 30
0.0
 11
18702.01234958514
 21
14422.986252000001
 31
0.0
  0
LINE
  5
108C2
  8
SUNPOU
  6
CONTINUOUS
 62
     4
 10
18702.01234958514
 20
14140.48895699999
 30
0.0
 11
18702.01234958514
 21
13900.48895699999
 31
0.0
  0
LINE
  5
108C3
  8
SUNPOU
  6
CONTINUOUS
 62
     4
 10
18702.01234958514
 20
14182.986252000001
 30
0.0
 11
18702.01234958514
 21
14140.48895699999
 31
0.0
  0
LINE
  5
108C4
  8
SUNPOU
  6
CONTINUOUS
 62
     4
 10
21954.511953585152
 20
19440.484537000018
 30
0.0
 11
21954.511953585152
 21
20170.487440000019
 31
0.0
  0
LINE
  5
108C5
  8
SUNPOU
  6
CONTINUOUS
 62
     4
 10
22712.51294308517
 20
19440.484537000018
 30
0.0
 11
22712.51294308517
 21
20170.487440000019
 31
0.0
  0
LINE
  5
108C6
  8
SUNPOU
  6
CONTINUOUS
 62
     4
 10
21954.511953585152
 20
20090.487440000019
 30
0.0
 11
22712.51294308517
 21
20090.487440000019
 31
0.0
  0
LINE
  5
108C7
  8
SUNPOU
  6
CONTINUOUS
 62
     4
 10
21253.511953585152
 20
19440.484537000018
 30
0.0
 11
21253.511953585152
 21
20170.487440000019
 31
0.0
  0
LINE
  5
108C8
  8
SUNPOU
  6
CONTINUOUS
 62
     4
 10
21954.511953585152
 20
19440.484537000018
 30
0.0
 11
21954.511953585152
 21
20170.487440000019
 31
0.0
  0
LINE
  5
108C9
  8
SUNPOU
  6
CONTINUOUS
 62
     4
 10
21253.511953585152
 20
20090.487440000019
 30
0.0
 11
21954.511953585152
 21
20090.487440000019
 31
0.0
  0
LINE
  5
108CA
  8
SUNPOU
  6
CONTINUOUS
 62
     4
 10
20552.511953585152
 20
19440.484537000018
 30
0.0
 11
20552.511953585152
 21
20170.487440000019
 31
0.0
  0
LINE
  5
108CB
  8
SUNPOU
  6
CONTINUOUS
 62
     4
 10
21253.511953585152
 20
19440.484537000018
 30
0.0
 11
21253.511953585152
 21
20170.487440000019
 31
0.0
  0
LINE
  5
108CC
  8
SUNPOU
  6
CONTINUOUS
 62
     4
 10
20552.511953585152
 20
20090.487440000019
 30
0.0
 11
21253.511953585152
 21
20090.487440000019
 31
0.0
  0
LINE
  5
108CD
  8
SUNPOU
  6
CONTINUOUS
 62
     4
 10
22712.511953585152
 20
19440.484537000018
 30
0.0
 11
22712.511953585152
 21
20170.487440000019
 31
0.0
  0
LINE
  5
108CE
  8
SUNPOU
  6
CONTINUOUS
 62
     4
 10
22755.008258585141
 20
19440.484537000018
 30
0.0
 11
22755.008258585141
 21
20170.487440000019
 31
0.0
  0
LINE
  5
108CF
  8
SUNPOU
  6
CONTINUOUS
 62
     4
 10
22712.511953585152
 20
20090.487440000019
 30
0.0
 11
22472.511953585152
 21
20090.487440000019
 31
0.0
  0
LINE
  5
108D0
  8
SUNPOU
  6
CONTINUOUS
 62
     4
 10
22755.008258585141
 20
20090.487440000019
 30
0.0
 11
22995.008258585141
 21
20090.487440000019
 31
0.0
  0
LINE
  5
108D1
  8
SUNPOU
  6
CONTINUOUS
 62
     4
 10
22712.511953585152
 20
20090.487440000019
 30
0.0
 11
22755.008258585141
 21
20090.487440000019
 31
0.0
  0
LINE
  5
108D2
  8
SUNPOU
  6
CONTINUOUS
 62
     4
 10
19794.511953585152
 20
19440.484537000018
 30
0.0
 11
19794.511953585152
 21
20170.487440000019
 31
0.0
  0
LINE
  5
108D3
  8
SUNPOU
  6
CONTINUOUS
 62
     4
 10
19752.015648585151
 20
19440.484537000018
 30
0.0
 11
19752.015648585151
 21
20170.487440000019
 31
0.0
  0
LINE
  5
108D4
  8
SUNPOU
  6
CONTINUOUS
 62
     4
 10
19794.511953585152
 20
20090.487440000019
 30
0.0
 11
20034.511953585152
 21
20090.487440000019
 31
0.0
  0
LINE
  5
108D5
  8
SUNPOU
  6
CONTINUOUS
 62
     4
 10
19752.015648585151
 20
20090.487440000019
 30
0.0
 11
19512.01564858514
 21
20090.487440000019
 31
0.0
  0
LINE
  5
108D6
  8
SUNPOU
  6
CONTINUOUS
 62
     4
 10
19794.511953585152
 20
20090.487440000019
 30
0.0
 11
19752.015648585151
 21
20090.487440000019
 31
0.0
  0
TEXT
  5
108D7
  8
0
  6
CONTINUOUS
 62
     7
 10
19191.699974056351
 20
20170.487440000019
 30
0.0
 40
160.0
  1
42.5
  0
TEXT
  5
108D8
  8
0
  6
CONTINUOUS
 62
     7
 10
22835.32393311393
 20
20170.487440000019
 30
0.0
 40
160.0
  1
42.5
  0
TEXT
  5
108D9
  8
0
  6
CONTINUOUS
 62
     7
 10
20729.678620251831
 20
20170.487440000019
 30
0.0
 40
160.0
  1
701
  0
TEXT
  5
108DA
  8
0
  6
CONTINUOUS
 62
     7
 10
21430.678620251831
 20
20170.487440000019
 30
0.0
 40
160.0
  1
701
  0
TEXT
  5
108DB
  8
0
  6
CONTINUOUS
 62
     7
 10
22120.179115001829
 20
20170.487440000019
 30
0.0
 40
160.0
  1
758
  0
TEXT
  5
108DC
  8
0
  6
CONTINUOUS
 62
     7
 10
18622.01234958514
 20
13566.932720603199
 30
0.0
 40
160.0
  1
42.5
 50
90.0
  0
TEXT
  5
108DD
  8
0
  6
CONTINUOUS
 62
     7
 10
18622.01234958514
 20
19454.03978339678
 30
0.0
 40
160.0
  1
42.5
 50
90.0
  0
TEXT
  5
108DE
  8
0
  6
CONTINUOUS
 62
     7
 10
18222.01234958514
 20
16470.486251999999
 30
0.0
 40
160.0
  1
5220
 50
90.0
  0
TEXT
  5
108DF
  8
0
  6
CONTINUOUS
 62
     7
 10
18942.012349585159
 20
18386.65291866667
 30
0.0
 40
160.0
  1
701
 50
90.0
  0
TEXT
  5
108E0
  8
0
  6
CONTINUOUS
 62
     7
 10
18622.012349585129
 20
17685.65291866667
 30
0.0
 40
160.0
  1
701
 50
90.0
  0
TEXT
  5
108E1
  8
0
  6
CONTINUOUS
 62
     7
 10
18622.012349585129
 20
16916.15291866667
 30
0.0
 40
160.0
  1
758
 50
90.0
  0
TEXT
  5
108E2
  8
0
  6
CONTINUOUS
 62
     7
 10
18622.012349585129
 20
16158.15291866667
 30
0.0
 40
160.0
  1
758
 50
90.0
  0
TEXT
  5
108E3
  8
0
  6
CONTINUOUS
 62
     7
 10
18622.012349585129
 20
15468.77317441667
 30
0.0
 40
160.0
  1
701
 50
90.0
  0
TEXT
  5
108E4
  8
0
  6
CONTINUOUS
 62
     7
 10
18942.012349585159
 20
14767.77317441667
 30
0.0
 40
160.0
  1
701
 50
90.0
  0
TEXT
  5
108E5
  8
0
  6
CONTINUOUS
 62
     7
 10
20986.84528691848
 20
12891.538167999999
 30
0.0
 40
160.0
  1
3003
  0
TEXT
  5
108E6
  8
0
  6
CONTINUOUS
 62
     7
 10
19912.56562596724
 20
13291.538167999999
 30
0.0
 40
160.0
  1
42.5
  0
TEXT
  5
108E7
  8
0
  6
CONTINUOUS
 62
     7
 10
22114.45828120306
 20
13291.538167999999
 30
0.0
 40
160.0
  1
42.5
  0
TEXT
  5
108E8
  8
0
  6
CONTINUOUS
 62
     7
 10
22830.565625967229
 20
13291.538167999999
 30
0.0
 40
160.0
  1
42.5
  0
TEXT
  5
108E9
  8
0
  6
CONTINUOUS
 62
     7
 10
19196.458281203049
 20
13291.538167999999
 30
0.0
 40
160.0
  1
42.5
  0
TEXT
  5
108EA
  8
0
  6
CONTINUOUS
 62
     7
 10
18582.012349585151
 20
18619.864219643208
 30
0.0
 40
160.0
  1
407.5
 50
90.0
  0
TEXT
  5
108EB
  8
0
  6
CONTINUOUS
 62
     7
 10
18582.012349585151
 20
14255.926921953551
 30
0.0
 40
160.0
  1
407.5
 50
90.0
  0
TEXT
  5
108EC
  8
0
  6
CONTINUOUS
 62
     7
 10
19960.17862025182
 20
20170.487440000019
 30
0.0
 40
160.0
  1
758
  0
ARC
  5
108ED
  8
0
  6
BYBLOCK
 62
     0
 10
19794.511953585152
 20
20090.487440000019
 30
0.0
 40
15.0
 50
0.0
 51
180.0
  0
ARC
  5
108EE
  8
0
  6
BYBLOCK
 62
     0
 10
19794.511953585152
 20
20090.487440000019
 30
0.0
 40
15.0
 50
180.0
 51
0.0
  0
ARC
  5
108EF
  8
0
  6
BYBLOCK
 62
     0
 10
20552.511953585152
 20
20090.487440000019
 30
0.0
 40
15.0
 50
180.0
 51
0.0
  0
ARC
  5
108F0
  8
0
  6
BYBLOCK
 62
     0
 10
20552.511953585152
 20
20090.487440000019
 30
0.0
 40
15.0
 50
0.0
 51
180.0
  0
ARC
  5
108F1
  8
0
  6
BYBLOCK
 62
     0
 10
18702.01234958514
 20
14590.606507750001
 30
0.0
 40
15.0
 50
90.0
 51
270.0
  0
ARC
  5
108F2
  8
0
  6
BYBLOCK
 62
     0
 10
18702.01234958514
 20
14590.606507750001
 30
0.0
 40
15.0
 50
270.0
 51
90.0
  0
ARC
  5
108F3
  8
0
  6
BYBLOCK
 62
     0
 10
18702.01234958514
 20
14183.106507750001
 30
0.0
 40
15.0
 50
270.0
 51
90.0
  0
ARC
  5
108F4
  8
0
  6
BYBLOCK
 62
     0
 10
18702.01234958514
 20
14183.106507750001
 30
0.0
 40
15.0
 50
90.0
 51
270.0
  0
ARC
  5
108F5
  8
0
  6
BYBLOCK
 62
     0
 10
18702.01234958514
 20
18910.486251999992
 30
0.0
 40
15.0
 50
270.0
 51
90.0
  0
ARC
  5
108F6
  8
0
  6
BYBLOCK
 62
     0
 10
18702.01234958514
 20
18910.486251999992
 30
0.0
 40
15.0
 50
90.0
 51
270.0
  0
ARC
  5
108F7
  8
0
  6
BYBLOCK
 62
     0
 10
18702.01234958514
 20
19317.986251999992
 30
0.0
 40
15.0
 50
90.0
 51
270.0
  0
ARC
  5
108F8
  8
0
  6
BYBLOCK
 62
     0
 10
18702.01234958514
 20
19317.986251999992
 30
0.0
 40
15.0
 50
270.0
 51
90.0
  0
ARC
  5
108F9
  8
0
  6
BYBLOCK
 62
     0
 10
19794.511953585152
 20
13211.538167999999
 30
0.0
 40
15.0
 50
0.0
 51
180.0
  0
ARC
  5
108FA
  8
0
  6
BYBLOCK
 62
     0
 10
19794.511953585152
 20
13211.538167999999
 30
0.0
 40
15.0
 50
180.0
 51
0.0
  0
ARC
  5
108FB
  8
0
  6
BYBLOCK
 62
     0
 10
19752.00971058516
 20
13211.538167999999
 30
0.0
 40
15.0
 50
180.0
 51
0.0
  0
ARC
  5
108FC
  8
0
  6
BYBLOCK
 62
     0
 10
19752.00971058516
 20
13211.538167999999
 30
0.0
 40
15.0
 50
0.0
 51
180.0
  0
ARC
  5
108FD
  8
0
  6
BYBLOCK
 62
     0
 10
22712.511953585152
 20
13211.538167999999
 30
0.0
 40
15.0
 50
180.0
 51
0.0
  0
ARC
  5
108FE
  8
0
  6
BYBLOCK
 62
     0
 10
22712.511953585152
 20
13211.538167999999
 30
0.0
 40
15.0
 50
0.0
 51
180.0
  0
ARC
  5
108FF
  8
0
  6
BYBLOCK
 62
     0
 10
22755.01419658514
 20
13211.538167999999
 30
0.0
 40
15.0
 50
0.0
 51
180.0
  0
ARC
  5
10900
  8
0
  6
BYBLOCK
 62
     0
 10
22755.01419658514
 20
13211.538167999999
 30
0.0
 40
15.0
 50
180.0
 51
0.0
  0
ARC
  5
10901
  8
0
  6
BYBLOCK
 62
     0
 10
22712.511953585152
 20
13211.538167999999
 30
0.0
 40
15.0
 50
0.0
 51
180.0
  0
ARC
  5
10902
  8
0
  6
BYBLOCK
 62
     0
 10
22712.511953585152
 20
13211.538167999999
 30
0.0
 40
15.0
 50
180.0
 51
0.0
  0
ARC
  5
10903
  8
0
  6
BYBLOCK
 62
     0
 10
22670.009710585149
 20
13211.538167999999
 30
0.0
 40
15.0
 50
180.0
 51
0.0
  0
ARC
  5
10904
  8
0
  6
BYBLOCK
 62
     0
 10
22670.009710585149
 20
13211.538167999999
 30
0.0
 40
15.0
 50
0.0
 51
180.0
  0
ARC
  5
10905
  8
0
  6
BYBLOCK
 62
     0
 10
19794.511953585152
 20
13211.538167999999
 30
0.0
 40
15.0
 50
180.0
 51
0.0
  0
ARC
  5
10906
  8
0
  6
BYBLOCK
 62
     0
 10
19794.511953585152
 20
13211.538167999999
 30
0.0
 40
15.0
 50
0.0
 51
180.0
  0
ARC
  5
10907
  8
0
  6
BYBLOCK
 62
     0
 10
19837.01419658514
 20
13211.538167999999
 30
0.0
 40
15.0
 50
0.0
 51
180.0
  0
ARC
  5
10908
  8
0
  6
BYBLOCK
 62
     0
 10
19837.01419658514
 20
13211.538167999999
 30
0.0
 40
15.0
 50
180.0
 51
0.0
  0
ARC
  5
10909
  8
0
  6
BYBLOCK
 62
     0
 10
19752.00971058516
 20
12811.538167999999
 30
0.0
 40
15.0
 50
0.0
 51
180.0
  0
ARC
  5
1090A
  8
0
  6
BYBLOCK
 62
     0
 10
19752.00971058516
 20
12811.538167999999
 30
0.0
 40
15.0
 50
180.0
 51
0.0
  0
ARC
  5
1090B
  8
0
  6
BYBLOCK
 62
     0
 10
22755.01419658514
 20
12811.538167999999
 30
0.0
 40
15.0
 50
180.0
 51
0.0
  0
ARC
  5
1090C
  8
0
  6
BYBLOCK
 62
     0
 10
22755.01419658514
 20
12811.538167999999
 30
0.0
 40
15.0
 50
0.0
 51
180.0
  0
ARC
  5
1090D
  8
0
  6
BYBLOCK
 62
     0
 10
18702.01234958514
 20
15291.726763500021
 30
0.0
 40
15.0
 50
90.0
 51
270.0
  0
ARC
  5
1090E
  8
0
  6
BYBLOCK
 62
     0
 10
18702.01234958514
 20
15291.726763500021
 30
0.0
 40
15.0
 50
270.0
 51
90.0
  0
ARC
  5
1090F
  8
0
  6
BYBLOCK
 62
     0
 10
18702.01234958514
 20
14590.48625199999
 30
0.0
 40
15.0
 50
270.0
 51
90.0
  0
ARC
  5
10910
  8
0
  6
BYBLOCK
 62
     0
 10
18702.01234958514
 20
14590.48625199999
 30
0.0
 40
15.0
 50
90.0
 51
270.0
  0
ARC
  5
10911
  8
0
  6
BYBLOCK
 62
     0
 10
18702.01234958514
 20
15992.486252000001
 30
0.0
 40
15.0
 50
90.0
 51
270.0
  0
ARC
  5
10912
  8
0
  6
BYBLOCK
 62
     0
 10
18702.01234958514
 20
15992.486252000001
 30
0.0
 40
15.0
 50
270.0
 51
90.0
  0
ARC
  5
10913
  8
0
  6
BYBLOCK
 62
     0
 10
18702.01234958514
 20
15291.726763500021
 30
0.0
 40
15.0
 50
270.0
 51
90.0
  0
ARC
  5
10914
  8
0
  6
BYBLOCK
 62
     0
 10
18702.01234958514
 20
15291.726763500021
 30
0.0
 40
15.0
 50
90.0
 51
270.0
  0
ARC
  5
10915
  8
0
  6
BYBLOCK
 62
     0
 10
18702.01234958514
 20
16750.486251999992
 30
0.0
 40
15.0
 50
90.0
 51
270.0
  0
ARC
  5
10916
  8
0
  6
BYBLOCK
 62
     0
 10
18702.01234958514
 20
16750.486251999992
 30
0.0
 40
15.0
 50
270.0
 51
90.0
  0
ARC
  5
10917
  8
0
  6
BYBLOCK
 62
     0
 10
18702.01234958514
 20
15992.486252000001
 30
0.0
 40
15.0
 50
270.0
 51
90.0
  0
ARC
  5
10918
  8
0
  6
BYBLOCK
 62
     0
 10
18702.01234958514
 20
15992.486252000001
 30
0.0
 40
15.0
 50
90.0
 51
270.0
  0
ARC
  5
10919
  8
0
  6
BYBLOCK
 62
     0
 10
18702.01234958514
 20
17508.486251999981
 30
0.0
 40
15.0
 50
90.0
 51
270.0
  0
ARC
  5
1091A
  8
0
  6
BYBLOCK
 62
     0
 10
18702.01234958514
 20
17508.486251999981
 30
0.0
 40
15.0
 50
270.0
 51
90.0
  0
ARC
  5
1091B
  8
0
  6
BYBLOCK
 62
     0
 10
18702.01234958514
 20
16750.486251999992
 30
0.0
 40
15.0
 50
270.0
 51
90.0
  0
ARC
  5
1091C
  8
0
  6
BYBLOCK
 62
     0
 10
18702.01234958514
 20
16750.486251999992
 30
0.0
 40
15.0
 50
90.0
 51
270.0
  0
ARC
  5
1091D
  8
0
  6
BYBLOCK
 62
     0
 10
18702.01234958514
 20
18209.486251999981
 30
0.0
 40
15.0
 50
90.0
 51
270.0
  0
ARC
  5
1091E
  8
0
  6
BYBLOCK
 62
     0
 10
18702.01234958514
 20
18209.486251999981
 30
0.0
 40
15.0
 50
270.0
 51
90.0
  0
ARC
  5
1091F
  8
0
  6
BYBLOCK
 62
     0
 10
18702.01234958514
 20
17508.486251999981
 30
0.0
 40
15.0
 50
270.0
 51
90.0
  0
ARC
  5
10920
  8
0
  6
BYBLOCK
 62
     0
 10
18702.01234958514
 20
17508.486251999981
 30
0.0
 40
15.0
 50
90.0
 51
270.0
  0
ARC
  5
10921
  8
0
  6
BYBLOCK
 62
     0
 10
18702.01234958514
 20
18910.486251999992
 30
0.0
 40
15.0
 50
90.0
 51
270.0
  0
ARC
  5
10922
  8
0
  6
BYBLOCK
 62
     0
 10
18702.01234958514
 20
18910.486251999992
 30
0.0
 40
15.0
 50
270.0
 51
90.0
  0
ARC
  5
10923
  8
0
  6
BYBLOCK
 62
     0
 10
18702.01234958514
 20
18209.486251999981
 30
0.0
 40
15.0
 50
270.0
 51
90.0
  0
ARC
  5
10924
  8
0
  6
BYBLOCK
 62
     0
 10
18702.01234958514
 20
18209.486251999981
 30
0.0
 40
15.0
 50
90.0
 51
270.0
  0
ARC
  5
10925
  8
0
  6
BYBLOCK
 62
     0
 10
18702.01234958514
 20
19317.986251999992
 30
0.0
 40
15.0
 50
90.0
 51
270.0
  0
ARC
  5
10926
  8
0
  6
BYBLOCK
 62
     0
 10
18702.01234958514
 20
19317.986251999992
 30
0.0
 40
15.0
 50
270.0
 51
90.0
  0
ARC
  5
10927
  8
0
  6
BYBLOCK
 62
     0
 10
18702.01234958514
 20
14182.986252000001
 30
0.0
 40
15.0
 50
270.0
 51
90.0
  0
ARC
  5
10928
  8
0
  6
BYBLOCK
 62
     0
 10
18702.01234958514
 20
14182.986252000001
 30
0.0
 40
15.0
 50
90.0
 51
270.0
  0
ARC
  5
10929
  8
0
  6
BYBLOCK
 62
     0
 10
18302.01234958514
 20
19360.483547
 30
0.0
 40
15.0
 50
90.0
 51
270.0
  0
ARC
  5
1092A
  8
0
  6
BYBLOCK
 62
     0
 10
18302.01234958514
 20
19360.483547
 30
0.0
 40
15.0
 50
270.0
 51
90.0
  0
ARC
  5
1092B
  8
0
  6
BYBLOCK
 62
     0
 10
18302.01234958514
 20
14140.48895699999
 30
0.0
 40
15.0
 50
270.0
 51
90.0
  0
ARC
  5
1092C
  8
0
  6
BYBLOCK
 62
     0
 10
18302.01234958514
 20
14140.48895699999
 30
0.0
 40
15.0
 50
90.0
 51
270.0
  0
ARC
  5
1092D
  8
0
  6
BYBLOCK
 62
     0
 10
18702.01234958514
 20
19317.986251999992
 30
0.0
 40
15.0
 50
90.0
 51
270.0
  0
ARC
  5
1092E
  8
0
  6
BYBLOCK
 62
     0
 10
18702.01234958514
 20
19317.986251999992
 30
0.0
 40
15.0
 50
270.0
 51
90.0
  0
ARC
  5
1092F
  8
0
  6
BYBLOCK
 62
     0
 10
18702.01234958514
 20
19360.483547
 30
0.0
 40
15.0
 50
270.0
 51
90.0
  0
ARC
  5
10930
  8
0
  6
BYBLOCK
 62
     0
 10
18702.01234958514
 20
19360.483547
 30
0.0
 40
15.0
 50
90.0
 51
270.0
  0
ARC
  5
10931
  8
0
  6
BYBLOCK
 62
     0
 10
18702.01234958514
 20
14182.986252000001
 30
0.0
 40
15.0
 50
270.0
 51
90.0
  0
ARC
  5
10932
  8
0
  6
BYBLOCK
 62
     0
 10
18702.01234958514
 20
14182.986252000001
 30
0.0
 40
15.0
 50
90.0
 51
270.0
  0
ARC
  5
10933
  8
0
  6
BYBLOCK
 62
     0
 10
18702.01234958514
 20
14140.48895699999
 30
0.0
 40
15.0
 50
90.0
 51
270.0
  0
ARC
  5
10934
  8
0
  6
BYBLOCK
 62
     0
 10
18702.01234958514
 20
14140.48895699999
 30
0.0
 40
15.0
 50
270.0
 51
90.0
  0
ARC
  5
10935
  8
0
  6
BYBLOCK
 62
     0
 10
21954.511953585152
 20
20090.487440000019
 30
0.0
 40
15.0
 50
0.0
 51
180.0
  0
ARC
  5
10936
  8
0
  6
BYBLOCK
 62
     0
 10
21954.511953585152
 20
20090.487440000019
 30
0.0
 40
15.0
 50
180.0
 51
0.0
  0
ARC
  5
10937
  8
0
  6
BYBLOCK
 62
     0
 10
22712.51294308517
 20
20090.487440000019
 30
0.0
 40
15.0
 50
180.0
 51
0.0
  0
ARC
  5
10938
  8
0
  6
BYBLOCK
 62
     0
 10
22712.51294308517
 20
20090.487440000019
 30
0.0
 40
15.0
 50
0.0
 51
180.0
  0
ARC
  5
10939
  8
0
  6
BYBLOCK
 62
     0
 10
21253.511953585152
 20
20090.487440000019
 30
0.0
 40
15.0
 50
0.0
 51
180.0
  0
ARC
  5
1093A
  8
0
  6
BYBLOCK
 62
     0
 10
21253.511953585152
 20
20090.487440000019
 30
0.0
 40
15.0
 50
180.0
 51
0.0
  0
ARC
  5
1093B
  8
0
  6
BYBLOCK
 62
     0
 10
21954.511953585152
 20
20090.487440000019
 30
0.0
 40
15.0
 50
180.0
 51
0.0
  0
ARC
  5
1093C
  8
0
  6
BYBLOCK
 62
     0
 10
21954.511953585152
 20
20090.487440000019
 30
0.0
 40
15.0
 50
0.0
 51
180.0
  0
ARC
  5
1093D
  8
0
  6
BYBLOCK
 62
     0
 10
20552.511953585152
 20
20090.487440000019
 30
0.0
 40
15.0
 50
0.0
 51
180.0
  0
ARC
  5
1093E
  8
0
  6
BYBLOCK
 62
     0
 10
20552.511953585152
 20
20090.487440000019
 30
0.0
 40
15.0
 50
180.0
 51
0.0
  0
ARC
  5
1093F
  8
0
  6
BYBLOCK
 62
     0
 10
21253.511953585152
 20
20090.487440000019
 30
0.0
 40
15.0
 50
180.0
 51
0.0
  0
ARC
  5
10940
  8
0
  6
BYBLOCK
 62
     0
 10
21253.511953585152
 20
20090.487440000019
 30
0.0
 40
15.0
 50
0.0
 51
180.0
  0
ARC
  5
10941
  8
0
  6
BYBLOCK
 62
     0
 10
22712.511953585152
 20
20090.487440000019
 30
0.0
 40
15.0
 50
180.0
 51
0.0
  0
ARC
  5
10942
  8
0
  6
BYBLOCK
 62
     0
 10
22712.511953585152
 20
20090.487440000019
 30
0.0
 40
15.0
 50
0.0
 51
180.0
  0
ARC
  5
10943
  8
0
  6
BYBLOCK
 62
     0
 10
22755.008258585141
 20
20090.487440000019
 30
0.0
 40
15.0
 50
0.0
 51
180.0
  0
ARC
  5
10944
  8
0
  6
BYBLOCK
 62
     0
 10
22755.008258585141
 20
20090.487440000019
 30
0.0
 40
15.0
 50
180.0
 51
0.0
  0
ARC
  5
10945
  8
0
  6
BYBLOCK
 62
     0
 10
19794.511953585152
 20
20090.487440000019
 30
0.0
 40
15.0
 50
0.0
 51
180.0
  0
ARC
  5
10946
  8
0
  6
BYBLOCK
 62
     0
 10
19794.511953585152
 20
20090.487440000019
 30
0.0
 40
15.0
 50
180.0
 51
0.0
  0
ARC
  5
10947
  8
0
  6
BYBLOCK
 62
     0
 10
19752.015648585151
 20
20090.487440000019
 30
0.0
 40
15.0
 50
180.0
 51
0.0
  0
ARC
  5
10948
  8
0
  6
BYBLOCK
 62
     0
 10
19752.015648585151
 20
20090.487440000019
 30
0.0
 40
15.0
 50
0.0
 51
180.0
  0
LINE
  5
10949
  8
2-0
  6
CENTER2
 62
     6
 10
19794.511953585159
 20
13557.222817999989
 30
0.0
 11
19794.511953585159
 21
13985.0666083907
 31
0.0
  0
TEXT
  5
10A0C
  8
FILENAME
  6
CONTINUOUS
 10
26480.19047619047
 20
348.0
 30
0.0
 40
200.0
  1
＜VGC-3052+VKC-5052-R-1-A_0.DXF ＞
  7
FILENAME
 72
     2
 11
32764.0
 21
348.0
 31
0.0
  0
LINE
  5
10A11
  8
WAKUSEN-01
 10
868.00000000000193
 20
827.99999999999955
 30
0.0
 11
32764.000000000011
 21
827.99999999999943
 31
0.0
  0
LINE
  5
10A12
  8
WAKUSEN-01
 10
868.00000000000193
 20
827.99999999999955
 30
0.0
 11
868.00000000000193
 21
22484.000000000011
 31
0.0
  0
LINE
  5
10A13
  8
WAKUSEN-01
 10
32764.000000000011
 20
827.99999999999943
 30
0.0
 11
32764.000000000011
 21
22484.000000000011
 31
0.0
  0
LINE
  5
10A14
  8
WAKUSEN-01
 10
20560.0
 20
827.99999999999716
 30
0.0
 11
20560.0
 21
2484.0
 31
0.0
  0
LINE
  5
10A15
  8
WAKUSEN-02
 10
26868.0
 20
827.99999999999261
 30
0.0
 11
26868.0
 21
2484.0
 31
0.0
  0
ENDSEC
  0
EOF
