  0
SECTION
  2
HEADER
  9
$ACADVER
  1
AC1009
  9
$INSBASE
 10
0.0
 20
0.0
 30
0.0
  9
$EXTMIN
 10
867.99324330406671
 20
327.38164749855792
 30
-0.0000000000112498
  9
$EXTMAX
 10
32765.33210850941
 20
22484.553276491992
 30
0.0000000000002956
  9
$LIMMIN
 10
0.0
 20
0.0
  9
$LIMMAX
 10
33600.0
 20
23760.0
  9
$ORTHOMODE
 70
     1
  9
$REGENMODE
 70
     1
  9
$FILLMODE
 70
     1
  9
$QTEXTMODE
 70
     0
  9
$MIRRTEXT
 70
     0
  9
$DRAGMODE
 70
     2
  9
$LTSCALE
 40
80.0
  9
$OSMODE
 70
  3071
  9
$ATTMODE
 70
     1
  9
$TEXTSIZE
 40
0.2
  9
$TRACEWID
 40
0.05
  9
$TEXTSTYLE
  7
00
  9
$CLAYER
  8
0
  9
$CELTYPE
  6
BYLAYER
  9
$CECOLOR
 62
   256
  9
$DIMSCALE
 40
1.0
  9
$DIMASZ
 40
0.18
  9
$DIMEXO
 40
0.0625
  9
$DIMDLI
 40
0.38
  9
$DIMRND
 40
0.0
  9
$DIMDLE
 40
0.0
  9
$DIMEXE
 40
0.18
  9
$DIMTP
 40
0.0
  9
$DIMTM
 40
0.0
  9
$DIMTXT
 40
0.18
  9
$DIMCEN
 40
0.09
  9
$DIMTSZ
 40
0.0
  9
$DIMTOL
 70
     0
  9
$DIMLIM
 70
     0
  9
$DIMTIH
 70
     1
  9
$DIMTOH
 70
     1
  9
$DIMSE1
 70
     0
  9
$DIMSE2
 70
     0
  9
$DIMTAD
 70
     0
  9
$DIMZIN
 70
     0
  9
$DIMBLK
  1

  9
$DIMASO
 70
     1
  9
$DIMSHO
 70
     1
  9
$DIMPOST
  1

  9
$DIMAPOST
  1

  9
$DIMALT
 70
     0
  9
$DIMALTD
 70
     2
  9
$DIMALTF
 40
25.399999999999999
  9
$DIMLFAC
 40
1.0
  9
$DIMTOFL
 70
     0
  9
$DIMTVP
 40
0.0
  9
$DIMTIX
 70
     0
  9
$DIMSOXD
 70
     0
  9
$DIMSAH
 70
     0
  9
$DIMBLK1
  1

  9
$DIMBLK2
  1

  9
$DIMSTYLE
  2
STANDARD
  9
$DIMCLRD
 70
     0
  9
$DIMCLRE
 70
     0
  9
$DIMCLRT
 70
     0
  9
$DIMTFAC
 40
1.0
  9
$DIMGAP
 40
0.09
  9
$LUNITS
 70
     2
  9
$LUPREC
 70
     4
  9
$SKETCHINC
 40
0.1
  9
$FILLETRAD
 40
0.0
  9
$AUNITS
 70
     0
  9
$AUPREC
 70
     0
  9
$MENU
  1
acad
  9
$ELEVATION
 40
0.0
  9
$PELEVATION
 40
0.0
  9
$THICKNESS
 40
0.0
  9
$LIMCHECK
 70
     0
  9
$BLIPMODE
 70
     1
  9
$CHAMFERA
 40
0.0
  9
$CHAMFERB
 40
0.0
  9
$SKPOLY
 70
     0
  9
$TDCREATE
 40
2311940.075052408
  9
$TDUPDATE
 40
2458942.4555421411
  9
$TDINDWG
 40
0.3504182292
  9
$TDUSRTIMER
 40
0.350417662
  9
$USRTIMER
 70
     1
  9
$ANGBASE
 50
0.0
  9
$ANGDIR
 70
     0
  9
$PDMODE
 70
     0
  9
$PDSIZE
 40
0.0
  9
$PLINEWID
 40
0.0
  9
$COORDS
 70
     1
  9
$SPLFRAME
 70
     0
  9
$SPLINETYPE
 70
     6
  9
$SPLINESEGS
 70
     8
  9
$ATTDIA
 70
     1
  9
$ATTREQ
 70
     1
  9
$HANDLING
 70
     1
  9
$HANDSEED
  5
165AD
  9
$SURFTAB1
 70
     6
  9
$SURFTAB2
 70
     6
  9
$SURFTYPE
 70
     6
  9
$SURFU
 70
     6
  9
$SURFV
 70
     6
  9
$UCSNAME
  2

  9
$UCSORG
 10
0.0
 20
0.0
 30
0.0
  9
$UCSXDIR
 10
1.0
 20
0.0
 30
0.0
  9
$UCSYDIR
 10
0.0
 20
1.0
 30
0.0
  9
$PUCSNAME
  2

  9
$PUCSORG
 10
0.0
 20
0.0
 30
0.0
  9
$PUCSXDIR
 10
1.0
 20
0.0
 30
0.0
  9
$PUCSYDIR
 10
0.0
 20
1.0
 30
0.0
  9
$USERI1
 70
     0
  9
$USERI2
 70
     0
  9
$USERI3
 70
     0
  9
$USERI4
 70
     0
  9
$USERI5
 70
     0
  9
$USERR1
 40
0.0
  9
$USERR2
 40
0.0
  9
$USERR3
 40
0.0
  9
$USERR4
 40
0.0
  9
$USERR5
 40
0.0
  9
$WORLDVIEW
 70
     1
  9
$SHADEDGE
 70
     3
  9
$SHADEDIF
 70
    70
  9
$TILEMODE
 70
     1
  9
$MAXACTVP
 70
    16
  9
$PLIMCHECK
 70
     0
  9
$PEXTMIN
 10
1.0000000000000000E+020
 20
1.0000000000000000E+020
 30
1.0000000000000000E+020
  9
$PEXTMAX
 10
-1.0000000000000000E+020
 20
-1.0000000000000000E+020
 30
-1.0000000000000000E+020
  9
$PLIMMIN
 10
0.0
 20
0.0
  9
$PLIMMAX
 10
12.0
 20
9.0
  9
$UNITMODE
 70
     0
  9
$VISRETAIN
 70
     0
  9
$PLINEGEN
 70
     1
  9
$PSLTSCALE
 70
     0
  0
ENDSEC
  0
SECTION
  2
TABLES
  0
TABLE
  2
VPORT
 70
     1
  0
VPORT
  2
*ACTIVE
 70
     0
 10
0.0
 20
0.0
 11
1.0
 21
1.0
 12
16800.0
 22
11880.0
 13
0.0
 23
0.0
 14
1.0
 24
1.0
 15
0.0
 25
0.0
 16
0.0
 26
0.0
 36
1.0
 17
0.0
 27
0.0
 37
0.0
 40
23981.023255813951
 41
2.195652173913043
 42
50.0
 43
0.0
 44
0.0
 50
0.0
 51
0.0
 71
     0
 72
 10000
 73
     1
 74
     1
 75
     0
 76
     0
 77
     0
 78
     0
  0
ENDTAB
  0
TABLE
  2
LTYPE
 70
     6
  0
LTYPE
  2
CONTINUOUS
 70
     0
  3
Solid line
 72
    65
 73
     0
 40
0.0
  0
LTYPE
  2
DASHED3
 70
     0
  3
------  ------  ------  ------  
 72
    65
 73
     2
 40
5.0
 49
3.75
 49
-1.25
  0
LTYPE
  2
CENTER2
 70
     0
  3
----------  --  ----------  --  
 72
    65
 73
     4
 40
20.0
 49
12.5
 49
-2.5
 49
2.5
 49
-2.5
  0
LTYPE
  2
HIDE-M
 70
     0
  3

 72
    65
 73
     2
 40
2.0
 49
1.0
 49
-1.0
  0
LTYPE
  2
1PL-M
 70
     0
  3

 72
    65
 73
     4
 40
15.0
 49
12.0
 49
-1.0
 49
1.0
 49
-1.0
  0
LTYPE
  2
PHANTOM2
 70
     0
  3
___ _ _ ___ _ _ ___ _ _ ___ _ _
 72
    65
 73
     6
 40
1.25
 49
0.625
 49
-0.125
 49
0.125
 49
-0.125
 49
0.125
 49
-0.125
  0
ENDTAB
  0
TABLE
  2
LAYER
 70
    24
  0
LAYER
  2
0
 70
     0
 62
     7
  6
CONTINUOUS
  0
LAYER
  2
SUNPOU
 70
     0
 62
     4
  6
CONTINUOUS
  0
LAYER
  2
0-1
 70
     0
 62
     7
  6
CONTINUOUS
  0
LAYER
  2
0-2
 70
     0
 62
     7
  6
CONTINUOUS
  0
LAYER
  2
0-5
 70
     0
 62
     7
  6
CONTINUOUS
  0
LAYER
  2
0-6
 70
     0
 62
     7
  6
CONTINUOUS
  0
LAYER
  2
2-0
 70
     0
 62
     7
  6
CONTINUOUS
  0
LAYER
  2
0-8
 70
     0
 62
     7
  6
CONTINUOUS
  0
LAYER
  2
YODOROGO
 70
     0
 62
   130
  6
CONTINUOUS
  0
LAYER
  2
WAKUSEN-01
 70
     0
 62
    50
  6
CONTINUOUS
  0
LAYER
  2
WAKUSEN-02
 70
     0
 62
   130
  6
CONTINUOUS
  0
LAYER
  2
WAKUMOJI-01
 70
     0
 62
   130
  6
CONTINUOUS
  0
LAYER
  2
FILENAME
 70
     0
 62
     7
  6
CONTINUOUS
  0
LAYER
  2
NAME
 70
     0
 62
    20
  6
CONTINUOUS
  0
LAYER
  2
0-4
 70
     0
 62
     7
  6
CONTINUOUS
  0
LAYER
  2
1-前柱P
 70
     0
 62
     3
  6
CONTINUOUS
  0
LAYER
  2
1-前柱カバ-P
 70
     0
 62
     3
  6
CONTINUOUS
  0
LAYER
  2
1-桁前P28
 70
     0
 62
     3
  6
CONTINUOUS
  0
LAYER
  2
1-後柱P
 70
     0
 62
     3
  6
CONTINUOUS
  0
LAYER
  2
1-中柱P
 70
     0
 62
     3
  6
CONTINUOUS
  0
LAYER
  2
1-後柱カバ-P
 70
     0
 62
     7
  6
CONTINUOUS
  0
LAYER
  2
1-中柱カバ-P
 70
     0
 62
     7
  6
CONTINUOUS
  0
ENDTAB
  0
TABLE
  2
STYLE
 70
     5
  0
STYLE
  2
STANDARD
 70
     0
 40
0.0
 41
1.0
 50
0.0
 71
     0
 42
0.0
  3
txt
  4
BIGFONT
  0
STYLE
  2
00
 70
     0
 40
0.0
 41
0.6666666666666666
 50
0.0
 71
     0
 42
0.2
  3
ROMANS
  4
BIGFONT
  0
STYLE
  2
01
 70
     0
 40
3.0
 41
1.0
 50
0.0
 71
     0
 42
0.2
  3
ROMANS
  4
BIGFONT
  0
STYLE
  2
WAKUMOJI
 70
     0
 40
3.0
 41
1.0
 50
0.0
 71
     0
 42
3.0
  3
SIMPLEX
  4
BIGFONT
  0
STYLE
  2
FILENAME
 70
     0
 40
200.0
 41
1.0
 50
0.0
 71
     0
 42
200.0
  3
romans
  4
bigfont
  0
ENDTAB
  0
TABLE
  2
VIEW
 70
     0
  0
ENDTAB
  0
TABLE
  2
UCS
 70
     0
  0
ENDTAB
  0
TABLE
  2
APPID
 70
    17
  0
APPID
  2
ACAD
 70
     0
  0
APPID
  2
ACADANNOTATIVE
 70
     0
  0
APPID
  2
ACAD_PSEXT
 70
     0
  0
APPID
  2
DCO15
 70
     0
  0
APPID
  2
ACAD_MLEADERVER
 70
     0
  0
APPID
  2
AUTOCAD_POSTSCRIPT_FIGURE
 70
     0
  0
APPID
  2
ACAD_EXEMPT_FROM_CAD_STANDARDS
 70
     0
  0
APPID
  2
ACLAYERTOOLS
 70
     0
  0
APPID
  2
ACAD_DSTYLE_DIMJAG
 70
     0
  0
APPID
  2
ACAD_DSTYLE_DIMTALN
 70
     0
  0
APPID
  2
ACAECLAYERSTANDARD
 70
     0
  0
APPID
  2
ACAD_DSTYLE_DIMBREAK
 70
     0
  0
APPID
  2
ACAD_DSTYLE_DIM_LINETYPE
 70
     0
  0
APPID
  2
ACAD_DSTYLE_DIM_EXT1_LINETYPE
 70
     0
  0
APPID
  2
ACAD_DSTYLE_DIM_EXT2_LINETYPE
 70
     0
  0
APPID
  2
ACAD_DSTYLE_DIMFLIPARROW_W
 70
     0
  0
APPID
  2
ACAD_NAV_VCDISPLAY
 70
     0
  0
ENDTAB
  0
TABLE
  2
DIMSTYLE
 70
     2
  0
DIMSTYLE
  2
STANDARD
 70
     0
  3

  4

  5

  6

  7

 40
1.0
 41
0.18
 42
0.0625
 43
0.38
 44
0.18
 45
0.0
 46
0.0
 47
0.0
 48
0.0
140
0.18
141
0.09
142
0.0
143
25.399999999999999
144
1.0
145
0.0
146
1.0
147
0.09
 71
     0
 72
     0
 73
     1
 74
     1
 75
     0
 76
     0
 77
     0
 78
     0
170
     0
171
     2
172
     0
173
     0
174
     0
175
     0
176
     0
177
     0
178
     0
  0
ENDTAB
  0
ENDSEC
  0
SECTION
  2
BLOCKS
  0
BLOCK
  8
0
  2
$MODEL_SPACE
 70
     0
 10
0.0
 20
0.0
 30
0.0
  3
$MODEL_SPACE
  1

  0
ENDBLK
  5
154EC
  8
0
  0
BLOCK
 67
     1
  8
0
  2
$PAPER_SPACE
 70
     0
 10
0.0
 20
0.0
 30
0.0
  3
$PAPER_SPACE
  1

  0
ENDBLK
  5
154E8
 67
     1
  8
0
  0
ENDSEC
  0
SECTION
  2
ENTITIES
  0
CIRCLE
  5
15526
  8
0-5
  6
CONTINUOUS
 62
     4
 10
15183.09822873439
 20
1421.969151421961
 30
0.0
 40
20.0
  0
ARC
  5
15527
  8
0-5
  6
CONTINUOUS
 62
     4
 10
15183.09822873439
 20
1421.969151421961
 30
0.0
 40
20.0
 50
180.0
 51
0.0
  0
ARC
  5
15528
  8
0-5
  6
CONTINUOUS
 62
     4
 10
15183.09822873439
 20
1421.969151421961
 30
0.0
 40
20.0
 50
0.0
 51
179.99998500000001
  0
CIRCLE
  5
15529
  8
0-5
  6
CONTINUOUS
 62
     4
 10
15183.09822873439
 20
1821.968491421959
 30
0.0
 40
20.0
  0
ARC
  5
1552A
  8
0-5
  6
CONTINUOUS
 62
     4
 10
15183.09822873439
 20
1821.968491421959
 30
0.0
 40
20.0
 50
180.0
 51
0.0
  0
ARC
  5
1552B
  8
0-5
  6
CONTINUOUS
 62
     4
 10
15183.09822873439
 20
1821.968491421959
 30
0.0
 40
20.0
 50
0.0
 51
179.99998500000001
  0
TEXT
  5
1552C
  8
0-5
  6
CONTINUOUS
 62
     7
 10
16715.598954734382
 20
1701.968961421959
 30
0.0
 40
160.0
  1
H
  0
TEXT
  5
1552D
  8
0-5
  6
CONTINUOUS
 62
     7
 10
15230.52848373439
 20
1701.968961421959
 30
0.0
 40
160.0
  1
（ ）内寸法ハ、  タイプヲ示ス。
  0
TEXT
  5
1552E
  8
0-5
  6
CONTINUOUS
 62
     7
 10
15343.09776673439
 20
1301.96863142196
 30
0.0
 40
160.0
  1
有効高サハ、基礎高サヲ含ミマセン。
  0
TEXT
  5
1552F
  8
2-0
  6
CONTINUOUS
 62
     7
 10
22832.576509940442
 20
3338.771758421959
 30
0.0
 40
160.0
  1
正 面 立 面 図
 72
     4
 11
23477.90984327377
 21
3418.771758421959
 31
0.0
  0
TEXT
  5
15530
  8
2-0
  6
CONTINUOUS
 62
     7
 10
9149.8649603458252
 20
3310.0360764219599
 30
0.0
 40
160.0
  1
側 面 立 面 図
 50
0.000139
 72
     4
 11
9795.1980995966478
 21
3390.0376420053349
 31
0.0
  0
TEXT
  5
15531
  8
2-0
  6
CONTINUOUS
 62
     7
 10
11146.69028473427
 20
3337.2330110053349
 30
0.0
 40
160.0
  1
1
 72
     4
 11
11173.35695140094
 21
3417.2330110053349
 31
0.0
  0
TEXT
  5
15532
  8
2-0
  6
CONTINUOUS
 62
     7
 10
11389.779001984951
 20
3257.2344790053371
 30
0.0
 40
160.0
  1
80
 72
     4
 11
11509.779001984951
 21
3337.2344790053362
 31
0.0
  0
TEXT
  5
15533
  8
2-0
  6
CONTINUOUS
 62
     7
 10
10647.69225073427
 20
3310.0376420053349
 30
0.0
 40
160.0
  1
(S=  /   )
 72
     4
 11
11207.69225073427
 21
3390.0376420053349
 31
0.0
  0
TEXT
  5
15534
  8
2-0
  6
CONTINUOUS
 62
     7
 10
24829.402028411379
 20
3365.96712742196
 30
0.0
 40
160.0
  1
1
 72
     4
 11
24856.068695078051
 21
3445.96712742196
 31
0.0
  0
TEXT
  5
15535
  8
2-0
  6
CONTINUOUS
 62
     7
 10
25072.490745662089
 20
3285.9685954219608
 30
0.0
 40
160.0
  1
80
 72
     4
 11
25192.490745662089
 21
3365.9685954219608
 31
0.0
  0
TEXT
  5
15536
  8
2-0
  6
CONTINUOUS
 62
     7
 10
24330.403994411379
 20
3338.771758421959
 30
0.0
 40
160.0
  1
(S=  /   )
 72
     4
 11
24890.403994411379
 21
3418.771758421959
 31
0.0
  0
TEXT
  5
15537
  8
2-0
  6
CONTINUOUS
 62
     7
 10
22429.92712756302
 20
11297.07361142196
 30
0.0
 40
160.0
  1
平　面　図
 72
     4
 11
22883.260460896359
 21
11371.74027808863
 31
0.0
  0
TEXT
  5
15538
  8
2-0
  6
CONTINUOUS
 62
     7
 10
9493.7299220423538
 20
11202.78617242194
 30
0.0
 40
160.0
  1
小 屋 伏 図
 72
     4
 11
9995.0632553756877
 21
11282.78617242194
 31
0.0
  0
TEXT
  5
15539
  8
2-0
  6
CONTINUOUS
 62
     7
 10
24234.75264603399
 20
11318.935647088631
 30
0.0
 40
160.0
  1
1
 72
     4
 11
24261.419312700651
 21
11398.935647088631
 31
0.0
  0
TEXT
  5
1553A
  8
2-0
  6
CONTINUOUS
 62
     7
 10
24477.841363284679
 20
11238.937115088631
 30
0.0
 40
160.0
  1
80
 72
     4
 11
24597.841363284679
 21
11318.937115088631
 31
0.0
  0
TEXT
  5
1553B
  8
2-0
  6
CONTINUOUS
 62
     7
 10
23735.754612033968
 20
11291.74027808863
 30
0.0
 40
160.0
  1
(S=  /   )
 72
     4
 11
24295.754612033968
 21
11371.74027808863
 31
0.0
  0
TEXT
  5
1553C
  8
2-0
  6
CONTINUOUS
 62
     7
 10
11346.55544051331
 20
11229.98154142195
 30
0.0
 40
160.0
  1
1
 72
     4
 11
11373.22210717998
 21
11309.98154142195
 31
0.0
  0
TEXT
  5
1553D
  8
2-0
  6
CONTINUOUS
 62
     7
 10
11589.644157764011
 20
11149.983009421951
 30
0.0
 40
160.0
  1
80
 72
     4
 11
11709.644157764011
 21
11229.983009421951
 31
0.0
  0
TEXT
  5
1553E
  8
2-0
  6
CONTINUOUS
 62
     7
 10
10847.55740651331
 20
11202.78617242194
 30
0.0
 40
160.0
  1
(S=  /   )
 72
     4
 11
11407.55740651331
 21
11282.78617242194
 31
0.0
  0
LINE
  5
1553F
  8
0-6
  6
CONTINUOUS
 62
     6
 10
8317.5488381272444
 20
19283.679357421941
 30
0.0
 11
8461.4499411272245
 21
19795.95501242195
 31
0.0
  0
LINE
  5
15540
  8
0-6
  6
CONTINUOUS
 62
     6
 10
13731.783139233499
 20
19389.45691242196
 30
0.0
 11
13625.08807723348
 21
19511.632799421961
 31
0.0
  0
LINE
  5
15541
  8
0-6
  6
CONTINUOUS
 62
     6
 10
13670.4774492335
 20
19539.63308942195
 30
0.0
 11
13731.783139233499
 21
19389.45691242196
 31
0.0
  0
LINE
  5
15542
  8
0-6
  6
CONTINUOUS
 62
     6
 10
13670.4774492335
 20
19539.63308942195
 30
0.0
 11
13625.08807723348
 21
19511.632799421961
 31
0.0
  0
LINE
  5
15543
  8
0-6
  6
CONTINUOUS
 62
     6
 10
13731.783139233499
 20
19389.45691242196
 30
0.0
 11
13437.8553122335
 21
19795.95501242195
 31
0.0
  0
LINE
  5
15544
  8
0-6
  6
CONTINUOUS
 62
     6
 10
8279.1590441272419
 20
19128.35445242194
 30
0.0
 11
8291.6606941272457
 21
19290.079141421949
 31
0.0
  0
LINE
  5
15545
  8
0-6
  6
CONTINUOUS
 62
     6
 10
8343.4340131272475
 20
19277.28353342196
 30
0.0
 11
8279.1590441272419
 21
19128.35445242194
 31
0.0
  0
LINE
  5
15546
  8
0-6
  6
CONTINUOUS
 62
     6
 10
8343.4340131272475
 20
19277.28353342196
 30
0.0
 11
8291.6606941272457
 21
19290.079141421949
 31
0.0
  0
LINE
  5
15547
  8
0-6
  6
CONTINUOUS
 62
     6
 10
8461.4499411272245
 20
19795.95501242195
 30
0.0
 11
8979.1385891272366
 21
19795.95501242195
 31
0.0
  0
LINE
  5
15548
  8
0-6
  6
CONTINUOUS
 62
     6
 10
14135.45520949887
 20
17983.173023961539
 30
0.0
 11
14196.66971012736
 21
18133.386915316049
 31
0.0
  0
LINE
  5
15549
  8
0-6
  6
CONTINUOUS
 62
     6
 10
14196.66971012736
 20
18133.386915316049
 30
0.0
 11
14090.046503007959
 21
18011.145522783081
 31
0.0
  0
LINE
  5
1554A
  8
0-6
  6
CONTINUOUS
 62
     6
 10
14196.66971012736
 20
18133.386915316049
 30
0.0
 11
14135.45520949887
 21
17983.173023961539
 31
0.0
  0
LINE
  5
1554B
  8
0-6
  6
CONTINUOUS
 62
     6
 10
14135.45520949887
 20
17983.173023961539
 30
0.0
 11
14090.046503007959
 21
18011.145522783081
 31
0.0
  0
LINE
  5
1554C
  8
0-6
  6
CONTINUOUS
 62
     6
 10
14090.046503007959
 20
18011.145522783081
 30
0.0
 11
14196.66971012736
 21
18133.386915316049
 31
0.0
  0
LINE
  5
1554D
  8
0-6
  6
CONTINUOUS
 62
     6
 10
14090.046503007959
 20
18011.145522783081
 30
0.0
 11
14135.45520949887
 21
17983.173023961539
 31
0.0
  0
LINE
  5
1554E
  8
0-6
  6
CONTINUOUS
 62
     6
 10
12637.85366323348
 20
19795.95501242195
 30
0.0
 11
13437.8553122335
 21
19795.95501242195
 31
0.0
  0
LINE
  5
1554F
  8
0-6
  6
CONTINUOUS
 62
     6
 10
13465.829921879171
 20
17791.126083568332
 30
0.0
 11
13985.83064787918
 21
17791.126083568332
 31
0.0
  0
LINE
  5
15550
  8
0-6
  6
CONTINUOUS
 62
     6
 10
12573.54721279654
 20
14423.34612542196
 30
0.0
 11
12656.434604796539
 21
14600.284404421949
 31
0.0
  0
LINE
  5
15551
  8
0-6
  6
CONTINUOUS
 62
     6
 10
12656.434604796539
 20
14600.284404421949
 30
0.0
 11
13456.43526479653
 21
14600.284404421949
 31
0.0
  0
LINE
  5
15552
  8
0-6
  6
CONTINUOUS
 62
     6
 10
12541.624468843031
 20
13913.90910042195
 30
0.0
 11
12435.35401384302
 21
14036.456147421941
 31
0.0
  0
LINE
  5
15553
  8
0-6
  6
CONTINUOUS
 62
     6
 10
12435.35401384302
 20
14036.456147421941
 30
0.0
 11
12496.136121843019
 21
13886.067171421961
 31
0.0
  0
LINE
  5
15554
  8
0-6
  6
CONTINUOUS
 62
     6
 10
12435.35401384302
 20
14036.456147421941
 30
0.0
 11
12541.624468843031
 21
13913.90910042195
 31
0.0
  0
LINE
  5
15555
  8
0-6
  6
CONTINUOUS
 62
     6
 10
12541.624468843031
 20
13913.90910042195
 30
0.0
 11
12496.136121843019
 21
13886.067171421961
 31
0.0
  0
LINE
  5
15556
  8
0-6
  6
CONTINUOUS
 62
     6
 10
12496.136121843019
 20
13886.067171421961
 30
0.0
 11
12435.35401384302
 21
14036.456147421941
 31
0.0
  0
LINE
  5
15557
  8
0-6
  6
CONTINUOUS
 62
     6
 10
12496.136121843019
 20
13886.067171421961
 30
0.0
 11
12541.624468843031
 21
13913.90910042195
 31
0.0
  0
LINE
  5
15558
  8
0-6
  6
CONTINUOUS
 62
     6
 10
12549.40005579653
 20
14434.658084421961
 30
0.0
 11
12505.67446979653
 21
14278.45526342196
 31
0.0
  0
LINE
  5
15559
  8
0-6
  6
CONTINUOUS
 62
     6
 10
12505.67446979653
 20
14278.45526342196
 30
0.0
 11
12597.695360796541
 21
14412.03317642195
 31
0.0
  0
LINE
  5
1555A
  8
0-6
  6
CONTINUOUS
 62
     6
 10
12505.67446979653
 20
14278.45526342196
 30
0.0
 11
12549.40005579653
 21
14434.658084421961
 31
0.0
  0
LINE
  5
1555B
  8
0-6
  6
CONTINUOUS
 62
     6
 10
12549.40005579653
 20
14434.658084421961
 30
0.0
 11
12597.695360796541
 21
14412.03317642195
 31
0.0
  0
LINE
  5
1555C
  8
0-6
  6
CONTINUOUS
 62
     6
 10
12597.695360796541
 20
14412.03317642195
 30
0.0
 11
12505.67446979653
 21
14278.45526342196
 31
0.0
  0
LINE
  5
1555D
  8
0-6
  6
CONTINUOUS
 62
     6
 10
12597.695360796541
 20
14412.03317642195
 30
0.0
 11
12549.40005579653
 21
14434.658084421961
 31
0.0
  0
LINE
  5
1555E
  8
0-6
  6
CONTINUOUS
 62
     6
 10
12924.992883843021
 20
13236.45647742196
 30
0.0
 11
13787.57305484302
 21
13236.45647742196
 31
0.0
  0
LINE
  5
1555F
  8
0-6
  6
CONTINUOUS
 62
     6
 10
12518.880790843021
 20
13899.98813642196
 30
0.0
 11
12924.992883843021
 21
13236.45647742196
 31
0.0
  0
LINE
  5
15560
  8
0-6
  6
CONTINUOUS
 62
     6
 10
14344.12040612738
 20
14608.74585642196
 30
0.0
 11
14321.669696127379
 21
14769.39170742195
 31
0.0
  0
LINE
  5
15561
  8
0-6
  6
CONTINUOUS
 62
     6
 10
14321.669696127379
 20
14769.39170742195
 30
0.0
 11
14395.006900127381
 21
14624.71067342196
 31
0.0
  0
LINE
  5
15562
  8
0-6
  6
CONTINUOUS
 62
     6
 10
14321.669696127379
 20
14769.39170742195
 30
0.0
 11
14344.12040612738
 21
14608.74585642196
 31
0.0
  0
LINE
  5
15563
  8
0-6
  6
CONTINUOUS
 62
     6
 10
14344.12040612738
 20
14608.74585642196
 30
0.0
 11
14395.006900127381
 21
14624.71067342196
 31
0.0
  0
LINE
  5
15564
  8
0-6
  6
CONTINUOUS
 62
     6
 10
14395.006900127381
 20
14624.71067342196
 30
0.0
 11
14321.669696127379
 21
14769.39170742195
 31
0.0
  0
LINE
  5
15565
  8
0-6
  6
CONTINUOUS
 62
     6
 10
14395.006900127381
 20
14624.71067342196
 30
0.0
 11
14344.12040612738
 21
14608.74585642196
 31
0.0
  0
LINE
  5
15566
  8
0-6
  6
CONTINUOUS
 62
     6
 10
14956.304343127391
 20
12746.45535542194
 30
0.0
 11
16036.30394712739
 21
12746.45535542194
 31
0.0
  0
LINE
  5
15567
  8
0-6
  6
CONTINUOUS
 62
     6
 10
14369.564148127391
 20
14616.72727542195
 30
0.0
 11
14956.30434312738
 21
12746.45535542194
 31
0.0
  0
LINE
  5
15568
  8
0-6
  6
CONTINUOUS
 62
     6
 10
14112.75195286393
 20
17997.159420275832
 30
0.0
 11
13985.83064787918
 21
17791.126083568332
 31
0.0
  0
LINE
  5
15569
  8
0-6
  6
CONTINUOUS
 62
     6
 10
6254.3025299054734
 20
19565.954748421958
 30
0.0
 11
6162.615187905466
 21
19699.762286421948
 31
0.0
  0
LINE
  5
1556A
  8
0-6
  6
CONTINUOUS
 62
     6
 10
6121.173926905466
 20
19662.794776421961
 30
0.0
 11
6251.3025299054734
 21
19565.954748421958
 31
0.0
  0
LINE
  5
1556B
  8
0-6
  6
CONTINUOUS
 62
     6
 10
6124.173926905466
 20
19662.794776421961
 30
0.0
 11
6162.615187905466
 21
19699.762286421948
 31
0.0
  0
LINE
  5
1556C
  8
0-6
  6
CONTINUOUS
 62
     6
 10
6143.3940619054629
 20
19681.277541421961
 30
0.0
 11
5626.4051739054712
 21
20185.955804421948
 31
0.0
  0
LINE
  5
1556D
  8
0-6
  6
CONTINUOUS
 62
     6
 10
3951.4058339054609
 20
20185.955804421948
 30
0.0
 11
5626.4051739054712
 21
20185.955804421948
 31
0.0
  0
TEXT
  5
1556E
  8
0-6
  6
CONTINUOUS
 62
     7
 10
8541.4502051272484
 20
19875.955276421941
 30
0.0
 40
160.0
  1
屋根
 72
     4
 11
8712.1168717939145
 21
19955.955276421941
 31
0.0
  0
TEXT
  5
1556F
  8
0-6
  6
CONTINUOUS
 62
     7
 10
12717.854917233521
 20
19875.955276421941
 30
0.0
 40
160.0
  1
桁（後）
 72
     4
 11
13037.854917233521
 21
19955.955276421941
 31
0.0
  0
TEXT
  5
15570
  8
0-6
  6
CONTINUOUS
 62
     7
 10
12736.433878796521
 20
14680.28466842196
 30
0.0
 40
160.0
  1
桁（前）
 72
     4
 11
13056.433878796521
 21
14760.28466842196
 31
0.0
  0
TEXT
  5
15571
  8
0-6
  6
CONTINUOUS
 62
     7
 10
13004.99215784302
 20
13316.45575142196
 30
0.0
 40
160.0
  1
鼻隠し前
 72
     4
 11
13367.65882450969
 21
13396.45575142196
 31
0.0
  0
TEXT
  5
15572
  8
0-6
  6
CONTINUOUS
 62
     7
 10
15036.30460712738
 20
12826.454629421951
 30
0.0
 40
160.0
  1
ケラバ 右
 72
     4
 11
15452.30460712738
 21
12906.454629421951
 31
0.0
  0
TEXT
  5
15573
  8
0-6
  6
CONTINUOUS
 62
     7
 10
13545.830185879189
 20
17871.12634756833
 30
0.0
 40
160.0
  1
上枠
 72
     4
 11
13716.496852545861
 21
17951.12634756833
 31
0.0
  0
TEXT
  5
15574
  8
0-6
  6
CONTINUOUS
 62
     7
 10
4031.4060979054689
 20
20265.95408842196
 30
0.0
 40
160.0
  1
鼻隠しコーナー後
 72
     4
 11
4778.0727645721363
 21
20345.95408842196
 31
0.0
  0
LINE
  5
15575
  8
0-6
  6
CONTINUOUS
 62
     6
 10
6249.1703301273938
 20
15489.90190484837
 30
0.0
 11
5714.1982999483753
 21
14920.319017948001
 31
0.0
  0
LINE
  5
15576
  8
0-6
  6
CONTINUOUS
 62
     6
 10
12520.458699959399
 20
16399.674204189861
 30
0.0
 11
13400.45764395942
 21
16399.674204189861
 31
0.0
  0
LINE
  5
15577
  8
0-6
  6
CONTINUOUS
 62
     6
 10
12342.69656261103
 20
16229.657076519539
 30
0.0
 11
12520.458699959399
 21
16399.674204189861
 31
0.0
  0
LINE
  5
15578
  8
0-6
  6
CONTINUOUS
 62
     6
 10
12227.06892261103
 20
16119.06731251953
 30
0.0
 11
12324.26625461104
 21
16248.929669519541
 31
0.0
  0
LINE
  5
15579
  8
0-6
  6
CONTINUOUS
 62
     6
 10
12361.127859611021
 20
16210.38448351954
 30
0.0
 11
12227.06892261103
 21
16119.06731251953
 31
0.0
  0
LINE
  5
1557A
  8
0-6
  6
CONTINUOUS
 62
     6
 10
12361.127859611021
 20
16210.38448351954
 30
0.0
 11
12324.26625461104
 21
16248.929669519541
 31
0.0
  0
TEXT
  5
1557B
  8
0-6
  6
CONTINUOUS
 62
     7
 10
12600.459953959429
 20
16479.674468189882
 30
0.0
 40
160.0
  1
ブレース
 72
     4
 11
12963.126620626101
 21
16565.00780152321
 31
0.0
  0
LINE
  5
1557C
  8
0-6
  6
CONTINUOUS
 62
     6
 10
13618.50928258261
 20
16830.957361421952
 30
0.0
 11
13499.21166425025
 21
17146.549699421961
 31
0.0
  0
LINE
  5
1557D
  8
0-6
  6
CONTINUOUS
 62
     6
 10
12698.640903250271
 20
17146.549699421961
 30
0.0
 11
13499.21166425025
 21
17146.549699421961
 31
0.0
  0
TEXT
  5
1557E
  8
0-6
  6
CONTINUOUS
 62
     7
 10
12779.211268250239
 20
17226.549963421949
 30
0.0
 40
160.0
  1
桁（中）
 72
     4
 11
13099.211268250239
 21
17306.549963421949
 31
0.0
  0
LINE
  5
1557F
  8
0-6
  6
CONTINUOUS
 62
     6
 10
8477.5400891394565
 20
15527.064464075709
 30
0.0
 11
9357.5390331394647
 21
15527.064464075709
 31
0.0
  0
LINE
  5
15580
  8
0-6
  6
CONTINUOUS
 62
     6
 10
9725.2807387140838
 20
15994.912770708899
 30
0.0
 11
9357.5390331394647
 21
15527.064464075709
 31
0.0
  0
TEXT
  5
15581
  8
0-6
  6
CONTINUOUS
 62
     7
 10
8557.5413431394663
 20
15607.06472807572
 30
0.0
 40
160.0
  1
ブレース
 72
     4
 11
8920.2080098061324
 21
15692.39806140906
 31
0.0
  0
LINE
  5
15582
  8
0-1
  6
CONTINUOUS
 62
     3
 10
14249.67033012739
 20
16751.455026421962
 30
0.0
 11
11331.67033012739
 21
16751.455026421962
 31
0.0
  0
LINE
  5
15583
  8
0-1
  6
CONTINUOUS
 62
     3
 10
11331.67033012739
 20
16751.455026421962
 30
0.0
 11
8759.2994793585895
 21
16751.455026421962
 31
0.0
  0
LINE
  5
15584
  8
2-0
  6
DASHED3
 62
     6
 10
8759.2994793585895
 20
16751.455026421962
 30
0.0
 11
6331.6703301273938
 21
16751.455026421962
 31
0.0
  0
LINE
  5
15585
  8
0-1
  6
CONTINUOUS
 62
     3
 10
11384.66996112738
 20
14192.45606842195
 30
0.0
 11
11384.66996112738
 21
17834.702821003179
 31
0.0
  0
LINE
  5
15586
  8
0-1
  6
CONTINUOUS
 62
     3
 10
14199.66971012736
 20
14068.45605442196
 30
0.0
 11
14199.66971012736
 21
18999.72907773513
 31
0.0
  0
LINE
  5
15587
  8
0-1
  6
CONTINUOUS
 62
     3
 10
14199.66971012736
 20
18999.72907773513
 30
0.0
 11
14199.66971012736
 21
19528.455395421941
 31
0.0
  0
LINE
  5
15588
  8
0-1
  6
CONTINUOUS
 62
     3
 10
14335.17033012739
 20
14036.456147421941
 30
0.0
 11
14335.17033012739
 21
19055.637417281661
 31
0.0
  0
LINE
  5
15589
  8
0-1
  6
CONTINUOUS
 62
     3
 10
14335.17033012739
 20
19055.637417281661
 30
0.0
 11
14335.17033012739
 21
19576.456741421938
 31
0.0
  0
LINE
  5
1558A
  8
0-1
  6
CONTINUOUS
 62
     3
 10
14292.169604127381
 20
14192.45606842195
 30
0.0
 11
6289.1690761273794
 21
14192.45606842195
 31
0.0
  0
LINE
  5
1558B
  8
0-1
  6
CONTINUOUS
 62
     3
 10
14249.67033012739
 20
14271.455685421941
 30
0.0
 11
6331.6703301273938
 21
14271.455685421941
 31
0.0
  0
LINE
  5
1558C
  8
0-1
  6
CONTINUOUS
 62
     3
 10
14332.17033012739
 20
14036.456147421941
 30
0.0
 11
6249.1703301273938
 21
14036.456147421941
 31
0.0
  0
LINE
  5
1558D
  8
0-1
  6
CONTINUOUS
 62
     3
 10
14332.17033012739
 20
14068.45605442196
 30
0.0
 11
6249.1703301273938
 21
14068.45605442196
 31
0.0
  0
LINE
  5
1558E
  8
0-1
  6
CONTINUOUS
 62
     3
 10
11331.67033012739
 20
14192.45606842195
 30
0.0
 11
11331.67033012739
 21
17812.834770839199
 31
0.0
  0
LINE
  5
1558F
  8
0-1
  6
CONTINUOUS
 62
     3
 10
11289.16907612738
 20
14192.45606842195
 30
0.0
 11
11289.16907612738
 21
17795.29843073705
 31
0.0
  0
LINE
  5
15590
  8
0-1
  6
CONTINUOUS
 62
     3
 10
14249.67033012739
 20
14192.45606842195
 30
0.0
 11
14249.67033012739
 21
19021.597535968031
 31
0.0
  0
LINE
  5
15591
  8
0-1
  6
CONTINUOUS
 62
     3
 10
14292.169604127381
 20
14192.45606842195
 30
0.0
 11
14292.169604127381
 21
19039.13305910712
 31
0.0
  0
LINE
  5
15592
  8
0-1
  6
CONTINUOUS
 62
     3
 10
12279.169868127379
 20
18205.70195320293
 30
0.0
 11
12279.16986812737
 21
19528.455395421941
 31
0.0
  0
LINE
  5
15593
  8
0-1
  6
CONTINUOUS
 62
     3
 10
12242.170687127351
 20
18190.383387687511
 30
0.0
 11
12242.170687127351
 21
19528.455395421941
 31
0.0
  0
LINE
  5
15594
  8
0-1
  6
CONTINUOUS
 62
     3
 10
12079.169209127371
 20
18122.896790623428
 30
0.0
 11
12079.169209127371
 21
19528.455395421941
 31
0.0
  0
LINE
  5
15595
  8
0-1
  6
CONTINUOUS
 62
     3
 10
12042.169037127371
 20
18107.577814809822
 30
0.0
 11
12042.169037127371
 21
19528.455395421941
 31
0.0
  0
LINE
  5
15596
  8
0-1
  6
CONTINUOUS
 62
     3
 10
11879.169538127349
 20
18038.737101089129
 30
0.0
 11
11879.169538127349
 21
19528.455395421941
 31
0.0
  0
LINE
  5
15597
  8
0-1
  6
CONTINUOUS
 62
     3
 10
11842.16936712739
 20
18023.470549601181
 30
0.0
 11
11842.16936712739
 21
19528.455395421941
 31
0.0
  0
LINE
  5
15598
  8
0-1
  6
CONTINUOUS
 62
     3
 10
11679.168879127379
 20
17956.215310629079
 30
0.0
 11
11679.168879127379
 21
19528.455395421941
 31
0.0
  0
LINE
  5
15599
  8
0-1
  6
CONTINUOUS
 62
     3
 10
11642.168707127379
 20
17940.9487587285
 30
0.0
 11
11642.168707127379
 21
19528.455395421941
 31
0.0
  0
LINE
  5
1559A
  8
0-1
  6
CONTINUOUS
 62
     3
 10
14249.67033012739
 20
16841.457797421961
 30
0.0
 11
11331.67033012739
 21
16841.457797421961
 31
0.0
  0
LINE
  5
1559B
  8
0-1
  6
CONTINUOUS
 62
     3
 10
11331.67033012739
 20
16841.457797421961
 30
0.0
 11
8977.4311196377621
 21
16841.457797421961
 31
0.0
  0
LINE
  5
1559C
  8
2-0
  6
DASHED3
 62
     6
 10
8977.4311196377621
 20
16841.457797421961
 30
0.0
 11
6331.6703301273938
 21
16841.457797421961
 31
0.0
  0
LINE
  5
1559D
  8
0-1
  6
CONTINUOUS
 62
     3
 10
11401.66943048354
 20
16796.457323080809
 30
0.0
 11
14179.669604127381
 21
14228.955421421961
 31
0.0
  0
LINE
  5
1559E
  8
0-1
  6
CONTINUOUS
 62
     3
 10
14179.669604127381
 20
16796.455421421939
 30
0.0
 11
11401.66907612738
 21
14228.955421421961
 31
0.0
  0
LINE
  5
1559F
  8
0-1
  6
CONTINUOUS
 62
     3
 10
13451.720802068859
 20
18691.166707185319
 30
0.0
 11
11401.66943048354
 21
16796.457323080809
 31
0.0
  0
LINE
  5
155A0
  8
0-1
  6
CONTINUOUS
 62
     3
 10
12538.646374114251
 20
18313.13157054134
 30
0.0
 11
14179.669604127381
 21
16796.455421421939
 31
0.0
  0
LINE
  5
155A1
  8
0-1
  6
CONTINUOUS
 62
     3
 10
14317.171557127391
 20
19048.302620916322
 30
0.0
 11
14317.1715571274
 21
19568.956345421921
 31
0.0
  0
LINE
  5
155A2
  8
0-1
  6
CONTINUOUS
 62
     3
 10
14261.670805127391
 20
19551.457400421921
 30
0.0
 11
14261.670805127391
 21
19581.45700442194
 31
0.0
  0
LINE
  5
155A3
  8
0-1
  6
CONTINUOUS
 62
     3
 10
14335.17033012739
 20
19581.45700442194
 30
0.0
 11
14335.17033012739
 21
19546.455157421951
 31
0.0
  0
LINE
  5
155A4
  8
0-1
  6
CONTINUOUS
 62
     3
 10
14266.6710691274
 20
19586.455289421941
 30
0.0
 11
14330.17105612739
 21
19586.455289421941
 31
0.0
  0
LINE
  5
155A5
  8
0-1
  6
CONTINUOUS
 62
     3
 10
14317.1715571274
 20
19568.956345421921
 30
0.0
 11
14335.17033012739
 21
19568.956345421921
 31
0.0
  0
LINE
  5
155A6
  8
0-1
  6
CONTINUOUS
 62
     3
 10
14317.1715571274
 20
19546.455157421951
 30
0.0
 11
14266.6710691274
 21
19546.455157421951
 31
0.0
  0
LINE
  5
155A7
  8
2-0
  6
DASHED3
 62
     6
 10
14249.67033012739
 20
19324.95692542195
 30
0.0
 11
6331.6703301273938
 21
19324.95692542195
 31
0.0
  0
LINE
  5
155A8
  8
2-0
  6
DASHED3
 62
     6
 10
14292.169604127381
 20
19039.13305910712
 30
0.0
 11
14292.169604127381
 21
19409.95745342195
 31
0.0
  0
LINE
  5
155A9
  8
2-0
  6
DASHED3
 62
     6
 10
14249.67033012739
 20
19021.597535968031
 30
0.0
 11
14249.67033012739
 21
19409.95745342195
 31
0.0
  0
LINE
  5
155AA
  8
2-0
  6
DASHED3
 62
     6
 10
14292.169604127381
 20
19409.95745342195
 30
0.0
 11
6331.6703301273938
 21
19409.95745342195
 31
0.0
  0
LINE
  5
155AB
  8
2-0
  6
DASHED3
 62
     6
 10
11331.67033012739
 20
17812.83477083921
 30
0.0
 11
11331.67033012739
 21
19409.95745342195
 31
0.0
  0
LINE
  5
155AC
  8
2-0
  6
DASHED3
 62
     6
 10
11289.16907612738
 20
17795.29843073705
 30
0.0
 11
11289.16907612738
 21
19409.95745342195
 31
0.0
  0
LINE
  5
155AD
  8
2-0
  6
DASHED3
 62
     6
 10
14179.669604127381
 20
19363.95542142195
 30
0.0
 11
13451.720802068859
 21
18691.166707185319
 31
0.0
  0
LINE
  5
155AE
  8
2-0
  6
DASHED3
 62
     6
 10
11401.66907612738
 20
19363.95542142195
 30
0.0
 11
12538.646374114251
 21
18313.13157054134
 31
0.0
  0
LINE
  5
155AF
  8
2-0
  6
CENTER2
 62
     6
 10
11331.67033012739
 20
20606.457664421949
 30
0.0
 11
11331.67033012739
 21
19628.454735421921
 31
0.0
  0
LINE
  5
155B0
  8
2-0
  6
CENTER2
 62
     6
 10
15579.17043512738
 20
19363.95542142195
 30
0.0
 11
13932.67121412738
 21
19363.95542142195
 31
0.0
  0
LINE
  5
155B1
  8
0-8
  6
CONTINUOUS
 62
     6
 10
14249.67033012739
 20
20606.457664421949
 30
0.0
 11
14249.67033012739
 21
19656.45700442194
 31
0.0
  0
LINE
  5
155B2
  8
2-0
  6
CENTER2
 62
     6
 10
15579.17043512738
 20
16796.455421421939
 30
0.0
 11
6159.8708821273904
 21
16796.455421421939
 31
0.0
  0
LINE
  5
155B3
  8
2-0
  6
CENTER2
 62
     6
 10
15579.17043512738
 20
14228.955421421961
 30
0.0
 11
13932.67121412738
 21
14228.955421421961
 31
0.0
  0
ARC
  5
155B4
  8
0-1
  6
CONTINUOUS
 62
     3
 10
14266.6710691274
 20
19551.457400421921
 30
0.0
 40
5.0
 50
180.0
 51
270.00001499981897
  0
ARC
  5
155B5
  8
0-1
  6
CONTINUOUS
 62
     3
 10
14266.6683678099
 20
19581.45812334428
 30
0.0
 40
4.99729880777691
 50
89.969028448222716
 51
180.0128288362661
  0
ARC
  5
155B6
  8
0-1
  6
CONTINUOUS
 62
     3
 10
14330.17398260361
 20
19581.45821660808
 30
0.0
 40
4.9970736707893684
 50
359.9861012352485
 51
90.033554587670935
  0
CIRCLE
  5
155B7
  8
0-5
  6
CONTINUOUS
 62
     4
 10
11331.67033012739
 20
20806.456345421939
 30
0.0
 40
199.9999949999999
  0
CIRCLE
  5
155B8
  8
0-5
  6
CONTINUOUS
 62
     4
 10
14249.67033012739
 20
20806.456345421939
 30
0.0
 40
199.9999949999999
  0
CIRCLE
  5
155B9
  8
0-5
  6
CONTINUOUS
 62
     4
 10
15779.17010612738
 20
19363.95542142195
 30
0.0
 40
199.9999949999999
  0
CIRCLE
  5
155BA
  8
0-5
  6
CONTINUOUS
 62
     4
 10
15779.17010612738
 20
16796.455421421939
 30
0.0
 40
199.9999949999999
  0
CIRCLE
  5
155BB
  8
0-5
  6
CONTINUOUS
 62
     4
 10
15779.17010612738
 20
14228.955421421961
 30
0.0
 40
199.9999949999999
  0
TEXT
  5
155BC
  8
0-5
  6
CONTINUOUS
 62
     7
 10
11278.7208694607
 20
20717.24142242195
 30
0.0
 40
160.0
  1
2
 72
     4
 11
11332.054202794039
 21
20797.24142242195
 31
0.0
  0
TEXT
  5
155BD
  8
0-5
  6
CONTINUOUS
 62
     7
 10
14196.336996794051
 20
20726.456345421939
 30
0.0
 40
160.0
  1
3
 72
     4
 11
14249.67033012739
 21
20806.456345421939
 31
0.0
  0
TEXT
  5
155BE
  8
0-5
  6
CONTINUOUS
 62
     7
 10
15725.963307460701
 20
19284.366897421951
 30
0.0
 40
160.0
  1
C
 72
     4
 11
15779.29664079404
 21
19364.366897421951
 31
0.0
  0
TEXT
  5
155BF
  8
0-5
  6
CONTINUOUS
 62
     7
 10
15725.963307460701
 20
16716.867887421951
 30
0.0
 40
160.0
  1
B
 72
     4
 11
15779.29664079404
 21
16796.867887421951
 31
0.0
  0
TEXT
  5
155C0
  8
0-5
  6
CONTINUOUS
 62
     7
 10
15725.963307460701
 20
14149.366897421951
 30
0.0
 40
160.0
  1
A
 72
     4
 11
15779.29664079404
 21
14229.366897421951
 31
0.0
  0
LINE
  5
155C1
  8
2-0
  6
CENTER2
 62
     6
 10
6331.6703301273938
 20
20606.457664421949
 30
0.0
 11
6331.6703301273938
 21
19656.45700442194
 31
0.0
  0
CIRCLE
  5
155C2
  8
0-5
  6
CONTINUOUS
 62
     4
 10
6331.6703301273938
 20
20806.456345421939
 30
0.0
 40
199.9999949999999
  0
TEXT
  5
155C3
  8
0-5
  6
CONTINUOUS
 62
     7
 10
6305.3875361273804
 20
20717.24142242195
 30
0.0
 40
160.0
  1
1
 72
     4
 11
6332.0542027940473
 21
20797.24142242195
 31
0.0
  0
LINE
  5
155C4
  8
0-1
  6
CONTINUOUS
 62
     3
 10
6264.1700921273878
 20
15723.18294765284
 30
0.0
 11
6264.1700921273878
 21
19568.956345421921
 31
0.0
  0
LINE
  5
155C5
  8
0-1
  6
CONTINUOUS
 62
     3
 10
6264.1700921273878
 20
19568.956345421921
 30
0.0
 11
6246.1703301273938
 21
19568.956345421921
 31
0.0
  0
LINE
  5
155C6
  8
0-1
  6
CONTINUOUS
 62
     3
 10
6319.6708441273813
 20
19551.457400421921
 30
0.0
 11
6319.6708441273813
 21
19581.45700442194
 31
0.0
  0
LINE
  5
155C7
  8
0-1
  6
CONTINUOUS
 62
     3
 10
6264.1700921273878
 20
19546.455157421951
 30
0.0
 11
6314.6695901273779
 21
19546.455157421951
 31
0.0
  0
LINE
  5
155C8
  8
0-1
  6
CONTINUOUS
 62
     3
 10
6246.1703301273938
 20
19581.45700442194
 30
0.0
 11
6246.1703301273938
 21
19546.455157421951
 31
0.0
  0
LINE
  5
155C9
  8
0-1
  6
CONTINUOUS
 62
     3
 10
6314.6695901273779
 20
19586.455289421941
 30
0.0
 11
6251.1715831273978
 21
19586.455289421941
 31
0.0
  0
ARC
  5
155CA
  8
0-1
  6
CONTINUOUS
 62
     3
 10
6251.1715831273978
 20
19581.45700442194
 30
0.0
 40
5.0
 50
90.0
 51
180.0
  0
ARC
  5
155CB
  8
0-1
  6
CONTINUOUS
 62
     3
 10
6314.6695901273779
 20
19581.45700442194
 30
0.0
 40
5.0
 50
0.000000000000007
 51
90.0
  0
ARC
  5
155CC
  8
0-1
  6
CONTINUOUS
 62
     3
 10
6314.6695901273779
 20
19551.457400421921
 30
0.0
 40
5.0
 50
270.00001499981897
 51
0.000000000000007
  0
LINE
  5
155CD
  8
0-1
  6
CONTINUOUS
 62
     3
 10
11331.67033012739
 20
14192.45606842195
 30
0.0
 11
11331.67033012739
 21
14036.456147421941
 31
0.0
  0
LINE
  5
155CE
  8
0-1
  6
CONTINUOUS
 62
     3
 10
14610.1416897495
 20
19170.78127655464
 30
0.0
 11
10922.871876782739
 21
17644.161425081362
 31
0.0
  0
LINE
  5
155CF
  8
0-1
  6
CONTINUOUS
 62
     3
 10
9998.4692711371044
 20
17262.745891226441
 30
0.0
 11
6009.1689451273924
 21
15616.730286921809
 31
0.0
  0
LINE
  5
155D0
  8
0-1
  6
CONTINUOUS
 62
     3
 10
6381.6699611273789
 20
14068.45605442196
 30
0.0
 11
6381.6699611273789
 21
15771.664857211859
 31
0.0
  0
LINE
  5
155D1
  8
0-1
  6
CONTINUOUS
 62
     3
 10
6246.1703301273938
 20
14036.456147421941
 30
0.0
 11
6246.1703301273938
 21
15715.7561091838
 31
0.0
  0
LINE
  5
155D2
  8
0-1
  6
CONTINUOUS
 62
     3
 10
6331.6703301273938
 20
14192.45606842195
 30
0.0
 11
6331.6703301273938
 21
15749.796807047869
 31
0.0
  0
LINE
  5
155D3
  8
0-1
  6
CONTINUOUS
 62
     3
 10
6289.1690761273794
 20
14192.45606842195
 30
0.0
 11
6289.1690761273794
 21
15732.260466945711
 31
0.0
  0
LINE
  5
155D4
  8
0-1
  6
CONTINUOUS
 62
     3
 10
6381.6699611273789
 20
15771.664857211859
 30
0.0
 11
6381.6699611273789
 21
19528.455395421941
 31
0.0
  0
LINE
  5
155D5
  8
0-1
  6
CONTINUOUS
 62
     3
 10
6246.1703301273938
 20
15715.7561091838
 30
0.0
 11
6246.1703301273938
 21
19568.956345421921
 31
0.0
  0
LINE
  5
155D6
  8
0-1
  6
CONTINUOUS
 62
     3
 10
6479.1701981273973
 20
15810.656372515499
 30
0.0
 11
6479.1701981273891
 21
19528.455395421941
 31
0.0
  0
LINE
  5
155D7
  8
0-1
  6
CONTINUOUS
 62
     3
 10
6442.1680471273794
 20
15795.389004064529
 30
0.0
 11
6442.1680471273794
 21
19528.455395421941
 31
0.0
  0
LINE
  5
155D8
  8
2-0
  6
DASHED3
 62
     6
 10
6331.6703301273938
 20
15749.796807047869
 30
0.0
 11
6331.6703301273938
 21
19528.455395421941
 31
0.0
  0
LINE
  5
155D9
  8
2-0
  6
DASHED3
 62
     6
 10
6289.1690761273794
 20
15732.260466945711
 30
0.0
 11
6289.1690761273794
 21
19528.455395421941
 31
0.0
  0
LINE
  5
155DA
  8
0-1
  6
CONTINUOUS
 62
     3
 10
11479.168219127379
 20
17873.693519756409
 30
0.0
 11
11479.16821912737
 21
19528.455395421941
 31
0.0
  0
LINE
  5
155DB
  8
0-1
  6
CONTINUOUS
 62
     3
 10
11442.16804712737
 20
17858.426967855841
 30
0.0
 11
11442.16804712737
 21
19528.455395421941
 31
0.0
  0
LINE
  5
155DC
  8
0-1
  6
CONTINUOUS
 62
     3
 10
11279.167559127351
 20
17791.171728883732
 30
0.0
 11
11279.167559127351
 21
19528.455395421941
 31
0.0
  0
LINE
  5
155DD
  8
0-1
  6
CONTINUOUS
 62
     3
 10
11242.167387127351
 20
17775.905176983171
 30
0.0
 11
11242.167387127351
 21
19528.455395421941
 31
0.0
  0
LINE
  5
155DE
  8
0-1
  6
CONTINUOUS
 62
     3
 10
11079.166899127349
 20
17708.649938011062
 30
0.0
 11
11079.166899127349
 21
19528.455395421941
 31
0.0
  0
LINE
  5
155DF
  8
0-1
  6
CONTINUOUS
 62
     3
 10
11042.16672712734
 20
17693.383386110509
 30
0.0
 11
11042.16672712734
 21
19528.455395421941
 31
0.0
  0
LINE
  5
155E0
  8
0-1
  6
CONTINUOUS
 62
     3
 10
10879.16623912734
 20
17750.086857435181
 30
0.0
 11
10879.16623912734
 21
19528.455395421941
 31
0.0
  0
LINE
  5
155E1
  8
0-1
  6
CONTINUOUS
 62
     3
 10
10842.16606712734
 20
17839.76085434993
 30
0.0
 11
10842.16606712734
 21
19528.455395421941
 31
0.0
  0
LINE
  5
155E2
  8
0-1
  6
CONTINUOUS
 62
     3
 10
10679.165579127321
 20
17704.683263369581
 30
0.0
 11
10679.165579127321
 21
19528.455395421941
 31
0.0
  0
LINE
  5
155E3
  8
0-1
  6
CONTINUOUS
 62
     3
 10
10642.16540712733
 20
17662.140022980711
 30
0.0
 11
10642.16540712733
 21
19528.455395421941
 31
0.0
  0
LINE
  5
155E4
  8
0-1
  6
CONTINUOUS
 62
     3
 10
10479.164919127321
 20
17474.720111946601
 30
0.0
 11
10479.16491912733
 21
19528.455395421941
 31
0.0
  0
LINE
  5
155E5
  8
0-1
  6
CONTINUOUS
 62
     3
 10
10442.164747127321
 20
17432.17687155772
 30
0.0
 11
10442.164747127321
 21
19528.455395421941
 31
0.0
  0
LINE
  5
155E6
  8
0-1
  6
CONTINUOUS
 62
     3
 10
10279.164259127319
 20
17244.756960523609
 30
0.0
 11
10279.164259127319
 21
19528.455395421941
 31
0.0
  0
LINE
  5
155E7
  8
0-1
  6
CONTINUOUS
 62
     3
 10
10242.16408712731
 20
17202.213720134721
 30
0.0
 11
10242.16408712731
 21
19528.455395421941
 31
0.0
  0
LINE
  5
155E8
  8
0-1
  6
CONTINUOUS
 62
     3
 10
10079.1635991273
 20
17067.164947913789
 30
0.0
 11
10079.1635991273
 21
19528.455395421941
 31
0.0
  0
LINE
  5
155E9
  8
0-1
  6
CONTINUOUS
 62
     3
 10
10042.163427127291
 20
17156.84322794569
 30
0.0
 11
10042.163427127291
 21
19528.455395421941
 31
0.0
  0
LINE
  5
155EA
  8
0-1
  6
CONTINUOUS
 62
     3
 10
9879.1629391273036
 20
17213.519192775049
 30
0.0
 11
9879.1629391273036
 21
19528.455395421941
 31
0.0
  0
LINE
  5
155EB
  8
0-1
  6
CONTINUOUS
 62
     3
 10
9842.1627671272981
 20
17198.252640874482
 30
0.0
 11
9842.1627671272981
 21
19528.455395421941
 31
0.0
  0
LINE
  5
155EC
  8
0-1
  6
CONTINUOUS
 62
     3
 10
9679.1622791272875
 20
17130.997401902368
 30
0.0
 11
9679.1622791272966
 21
19528.455395421941
 31
0.0
  0
LINE
  5
155ED
  8
0-1
  6
CONTINUOUS
 62
     3
 10
9642.1621071272839
 20
17115.730850001812
 30
0.0
 11
9642.1621071272839
 21
19528.455395421941
 31
0.0
  0
LINE
  5
155EE
  8
0-1
  6
CONTINUOUS
 62
     3
 10
9479.1616191272842
 20
17048.475611029698
 30
0.0
 11
9479.1616191272842
 21
19528.455395421941
 31
0.0
  0
LINE
  5
155EF
  8
0-1
  6
CONTINUOUS
 62
     3
 10
9442.1614471272806
 20
17033.209059129149
 30
0.0
 11
9442.1614471272806
 21
19528.455395421941
 31
0.0
  0
LINE
  5
155F0
  8
0-1
  6
CONTINUOUS
 62
     3
 10
9279.1609591272718
 20
16965.953820157029
 30
0.0
 11
9279.1609591272718
 21
19528.455395421941
 31
0.0
  0
LINE
  5
155F1
  8
0-1
  6
CONTINUOUS
 62
     3
 10
9242.1607871272645
 20
16950.687268256461
 30
0.0
 11
9242.1607871272718
 21
19528.455395421941
 31
0.0
  0
LINE
  5
155F2
  8
0-1
  6
CONTINUOUS
 62
     3
 10
9079.1602991272648
 20
16883.432029284369
 30
0.0
 11
9079.1602991272648
 21
19528.455395421941
 31
0.0
  0
LINE
  5
155F3
  8
0-1
  6
CONTINUOUS
 62
     3
 10
9042.1601271272575
 20
16868.165477383809
 30
0.0
 11
9042.1601271272502
 21
19528.455395421941
 31
0.0
  0
LINE
  5
155F4
  8
0-1
  6
CONTINUOUS
 62
     3
 10
8879.1596391272542
 20
16800.910238411689
 30
0.0
 11
8879.1596391272615
 21
19528.455395421941
 31
0.0
  0
LINE
  5
155F5
  8
0-1
  6
CONTINUOUS
 62
     3
 10
8842.1594671272487
 20
16785.643686511132
 30
0.0
 11
8842.1594671272487
 21
19528.455395421941
 31
0.0
  0
LINE
  5
155F6
  8
0-1
  6
CONTINUOUS
 62
     3
 10
8679.158979127249
 20
16718.388447539019
 30
0.0
 11
8679.1589791272418
 21
19528.455395421941
 31
0.0
  0
LINE
  5
155F7
  8
0-1
  6
CONTINUOUS
 62
     3
 10
8642.1588071272436
 20
16703.121895638451
 30
0.0
 11
8642.1588071272436
 21
19528.455395421941
 31
0.0
  0
LINE
  5
155F8
  8
0-1
  6
CONTINUOUS
 62
     3
 10
8479.1583191272348
 20
16635.86665666636
 30
0.0
 11
8479.1583191272348
 21
19528.455395421941
 31
0.0
  0
LINE
  5
155F9
  8
0-1
  6
CONTINUOUS
 62
     3
 10
8442.1581471272348
 20
16620.600104765781
 30
0.0
 11
8442.1581471272348
 21
19528.455395421941
 31
0.0
  0
LINE
  5
155FA
  8
0-1
  6
CONTINUOUS
 62
     3
 10
8279.1576591272296
 20
16553.34486579369
 30
0.0
 11
8279.1576591272296
 21
19528.455395421941
 31
0.0
  0
LINE
  5
155FB
  8
0-1
  6
CONTINUOUS
 62
     3
 10
8242.1574871272242
 20
16538.078313893118
 30
0.0
 11
8242.1574871272242
 21
19528.455395421941
 31
0.0
  0
LINE
  5
155FC
  8
0-1
  6
CONTINUOUS
 62
     3
 10
8079.1569991272263
 20
16470.82307492102
 30
0.0
 11
8079.1569991272263
 21
19528.455395421941
 31
0.0
  0
LINE
  5
155FD
  8
0-1
  6
CONTINUOUS
 62
     3
 10
8042.1568271272126
 20
16455.556523020441
 30
0.0
 11
8042.1568271272126
 21
19528.455395421941
 31
0.0
  0
LINE
  5
155FE
  8
0-1
  6
CONTINUOUS
 62
     3
 10
7879.156339127213
 20
16388.301284048339
 30
0.0
 11
7879.1563391272166
 21
19528.455395421941
 31
0.0
  0
LINE
  5
155FF
  8
0-1
  6
CONTINUOUS
 62
     3
 10
7842.1561671272038
 20
16373.03473214778
 30
0.0
 11
7842.1561671272038
 21
19528.455395421941
 31
0.0
  0
LINE
  5
15600
  8
0-1
  6
CONTINUOUS
 62
     3
 10
7679.1556791272033
 20
16305.77949317568
 30
0.0
 11
7679.1556791272033
 21
19528.455395421941
 31
0.0
  0
LINE
  5
15601
  8
0-1
  6
CONTINUOUS
 62
     3
 10
7642.1555071272041
 20
16290.51294127511
 30
0.0
 11
7642.1555071272041
 21
19528.455395421941
 31
0.0
  0
LINE
  5
15602
  8
0-1
  6
CONTINUOUS
 62
     3
 10
7479.1550191271981
 20
16223.25770230301
 30
0.0
 11
7479.1550191271981
 21
19528.455395421941
 31
0.0
  0
LINE
  5
15603
  8
0-1
  6
CONTINUOUS
 62
     3
 10
7442.154847127189
 20
16207.99115040244
 30
0.0
 11
7442.1548471271899
 21
19528.455395421941
 31
0.0
  0
LINE
  5
15604
  8
0-1
  6
CONTINUOUS
 62
     3
 10
7279.154359127192
 20
16140.73591143034
 30
0.0
 11
7279.154359127192
 21
19528.455395421941
 31
0.0
  0
LINE
  5
15605
  8
0-1
  6
CONTINUOUS
 62
     3
 10
7242.1541871271766
 20
16125.469359529759
 30
0.0
 11
7242.1541871271838
 21
19528.455395421941
 31
0.0
  0
LINE
  5
15606
  8
0-1
  6
CONTINUOUS
 62
     3
 10
7079.1536991271787
 20
16058.214120557661
 30
0.0
 11
7079.1536991271787
 21
19528.455395421941
 31
0.0
  0
LINE
  5
15607
  8
0-1
  6
CONTINUOUS
 62
     3
 10
7042.1535271271723
 20
16042.94756865711
 30
0.0
 11
7042.1535271271723
 21
19528.455395421941
 31
0.0
  0
LINE
  5
15608
  8
0-1
  6
CONTINUOUS
 62
     3
 10
6879.1530391271654
 20
15975.692329685
 30
0.0
 11
6879.1530391271672
 21
19528.455395421941
 31
0.0
  0
LINE
  5
15609
  8
0-1
  6
CONTINUOUS
 62
     3
 10
6842.1528671271662
 20
15960.42577778443
 30
0.0
 11
6842.1528671271672
 21
19528.455395421941
 31
0.0
  0
LINE
  5
1560A
  8
0-1
  6
CONTINUOUS
 62
     3
 10
6679.1523791271602
 20
15893.17053881233
 30
0.0
 11
6679.1523791271602
 21
19528.455395421941
 31
0.0
  0
LINE
  5
1560B
  8
0-1
  6
CONTINUOUS
 62
     3
 10
6642.1522071271529
 20
15877.903986911761
 30
0.0
 11
6642.1522071271547
 21
19528.455395421941
 31
0.0
  0
LINE
  5
1560C
  8
0-1
  6
CONTINUOUS
 62
     3
 10
11272.16996112738
 20
14228.955421421961
 30
0.0
 11
9023.1699611273798
 21
16796.455421421939
 31
0.0
  0
LINE
  5
1560D
  8
2-0
  6
DASHED3
 62
     6
 10
7164.1329000485939
 20
16093.27718408442
 30
0.0
 11
6622.1699611273789
 21
16796.455421421939
 31
0.0
  0
LINE
  5
1560E
  8
0-1
  6
CONTINUOUS
 62
     3
 10
9023.1699611273798
 20
14228.955421421961
 30
0.0
 11
11272.16996112738
 21
16796.455421421939
 31
0.0
  0
LINE
  5
1560F
  8
2-0
  6
DASHED3
 62
     6
 10
11272.16996112738
 20
19363.95542142195
 30
0.0
 11
9095.7207748341207
 21
16890.265007300732
 31
0.0
  0
LINE
  5
15610
  8
2-0
  6
DASHED3
 62
     6
 10
9023.1699611273798
 20
19363.95542142195
 30
0.0
 11
10578.24911029203
 21
17588.648300265751
 31
0.0
  0
LINE
  5
15611
  8
0-1
  6
CONTINUOUS
 62
     3
 10
10578.24911029203
 20
17588.648300265751
 30
0.0
 11
11272.16996112738
 21
16796.455421421939
 31
0.0
  0
LINE
  5
15612
  8
0-1
  6
CONTINUOUS
 62
     3
 10
10922.872414542509
 20
17644.160121761241
 30
0.0
 11
10827.518394218991
 21
17875.261104867441
 31
0.0
  0
LINE
  5
15613
  8
0-1
  6
CONTINUOUS
 62
     3
 10
10093.818862035771
 20
17031.644605709811
 30
0.0
 11
9998.4682123582606
 21
17262.748457416281
 31
0.0
  0
LINE
  5
15614
  8
0-1
  6
CONTINUOUS
 62
     3
 10
10093.818862035771
 20
17031.644605709811
 30
0.0
 11
10827.518394218991
 21
17875.261104867441
 31
0.0
  0
LINE
  5
15615
  8
0-1
  6
CONTINUOUS
 62
     3
 10
9023.1699611273798
 20
16796.455421421961
 30
0.0
 11
9095.7207748341207
 21
16890.265007300732
 31
0.0
  0
LINE
  5
15616
  8
2-0
  6
DASHED3
 62
     6
 10
8871.1699611273798
 20
19363.95542142195
 30
0.0
 11
6622.1699611273789
 21
16796.455421421939
 31
0.0
  0
LINE
  5
15617
  8
2-0
  6
DASHED3
 62
     6
 10
6622.1699611273789
 20
19363.95542142195
 30
0.0
 11
8871.1699611273798
 21
16796.455421421939
 31
0.0
  0
LINE
  5
15618
  8
0-1
  6
CONTINUOUS
 62
     3
 10
8871.1699611273798
 20
14228.955421421961
 30
0.0
 11
7164.1329000485939
 21
16093.27718408442
 31
0.0
  0
LINE
  5
15619
  8
0-1
  6
CONTINUOUS
 62
     3
 10
6622.1699611273789
 20
14228.955421421961
 30
0.0
 11
8871.1699611273798
 21
16796.455421421939
 31
0.0
  0
LINE
  5
1561A
  8
SUNPOU
  6
CONTINUOUS
 10
15179.170106127371
 20
19586.453309921959
 30
0.0
 11
15179.170106127371
 21
20383.420577700432
 31
0.0
  0
LINE
  5
1561B
  8
SUNPOU
  6
CONTINUOUS
 10
15179.170106127391
 20
13295.143557269759
 30
0.0
 11
15179.170106127391
 21
14036.456147421941
 31
0.0
  0
LINE
  5
1561C
  8
0-1
  6
CONTINUOUS
 62
     3
 10
12679.17316612737
 20
18371.313098130311
 30
0.0
 11
12679.17316612737
 21
19528.455395421941
 31
0.0
  0
LINE
  5
1561D
  8
0-1
  6
CONTINUOUS
 62
     3
 10
12642.17200512739
 20
18355.99371284651
 30
0.0
 11
12642.172005127381
 21
19528.455395421941
 31
0.0
  0
LINE
  5
1561E
  8
0-1
  6
CONTINUOUS
 62
     3
 10
12879.17382512738
 20
18454.118260709791
 30
0.0
 11
12879.17382512736
 21
19528.455395421941
 31
0.0
  0
LINE
  5
1561F
  8
0-1
  6
CONTINUOUS
 62
     3
 10
12842.17464412737
 20
18438.799695194401
 30
0.0
 11
12842.17464412737
 21
19528.455395421941
 31
0.0
  0
LINE
  5
15620
  8
0-1
  6
CONTINUOUS
 62
     3
 10
13079.173495127359
 20
18536.92301381908
 30
0.0
 11
13079.173495127359
 21
19528.455395421941
 31
0.0
  0
LINE
  5
15621
  8
0-1
  6
CONTINUOUS
 62
     3
 10
13042.17233412737
 20
18521.603628535289
 30
0.0
 11
13042.17233412737
 21
19528.455395421941
 31
0.0
  0
LINE
  5
15622
  8
0-1
  6
CONTINUOUS
 62
     3
 10
27318.355969301181
 20
8178.6575434219612
 30
0.0
 11
24485.352538301198
 21
8178.6575434219612
 31
0.0
  0
LINE
  5
15623
  8
0-1
  6
CONTINUOUS
 62
     3
 10
27318.355969301181
 20
8372.1579124219625
 30
0.0
 11
24485.352538301198
 21
8372.1579124219625
 31
0.0
  0
LINE
  5
15624
  8
0-1
  6
CONTINUOUS
 62
     3
 10
27446.3522743012
 20
8309.9718314219554
 30
0.0
 11
27446.3522743012
 21
8635.6575694219555
 31
0.0
  0
LINE
  5
15625
  8
0-1
  6
CONTINUOUS
 62
     3
 10
24400.353989301198
 20
8505.657635421956
 30
0.0
 11
27446.3522743012
 21
8505.657635421956
 31
0.0
  0
LINE
  5
15626
  8
0-1
  6
CONTINUOUS
 62
     3
 10
27446.3522743012
 20
8635.6575694219555
 30
0.0
 11
24420.351086301202
 21
8635.6575694219555
 31
0.0
  0
LINE
  5
15627
  8
0-1
  6
CONTINUOUS
 62
     3
 10
12097.389251409581
 20
8198.2035874219546
 30
0.0
 11
12097.389251409581
 21
6337.157708421958
 31
0.0
  0
LINE
  5
15628
  8
0-1
  6
CONTINUOUS
 62
     3
 10
12134.387443409591
 20
8198.2035874219546
 30
0.0
 11
12134.387443409591
 21
6337.157708421958
 31
0.0
  0
LINE
  5
15629
  8
0-1
  6
CONTINUOUS
 62
     3
 10
11397.3899114096
 20
8198.2035874219546
 30
0.0
 11
11397.3899114096
 21
6337.157708421958
 31
0.0
  0
LINE
  5
1562A
  8
0-1
  6
CONTINUOUS
 62
     3
 10
11434.388103409599
 20
8198.2035874219546
 30
0.0
 11
11434.388103409599
 21
6337.157708421958
 31
0.0
  0
LINE
  5
1562B
  8
0-1
  6
CONTINUOUS
 62
     3
 10
11775.8897004096
 20
6337.157708421958
 30
0.0
 11
11775.8897004096
 21
8198.2035874219546
 31
0.0
  0
LINE
  5
1562C
  8
0-1
  6
CONTINUOUS
 62
     3
 10
11755.888644409581
 20
6337.157708421958
 30
0.0
 11
11755.888644409581
 21
8198.2035874219546
 31
0.0
  0
LINE
  5
1562D
  8
0-1
  6
CONTINUOUS
 62
     3
 10
11825.88838040958
 20
6337.157708421958
 30
0.0
 11
11825.88838040958
 21
8198.2035874219546
 31
0.0
  0
LINE
  5
1562E
  8
0-1
  6
CONTINUOUS
 62
     3
 10
11705.88897440959
 20
6337.157708421958
 30
0.0
 11
11705.88897440959
 21
8198.2035874219546
 31
0.0
  0
LINE
  5
1562F
  8
0-1
  6
CONTINUOUS
 62
     3
 10
11572.88908040959
 20
6337.157708421958
 30
0.0
 11
11572.88908040959
 21
8198.2035874219546
 31
0.0
  0
LINE
  5
15630
  8
0-1
  6
CONTINUOUS
 62
     3
 10
11557.889278409581
 20
6337.157708421958
 30
0.0
 11
11557.889278409581
 21
8198.2035874219546
 31
0.0
  0
LINE
  5
15631
  8
0-1
  6
CONTINUOUS
 62
     3
 10
11958.8892654096
 20
6337.157708421958
 30
0.0
 11
11958.8892654096
 21
8198.2035874219546
 31
0.0
  0
LINE
  5
15632
  8
0-1
  6
CONTINUOUS
 62
     3
 10
11973.888077409591
 20
6337.157708421958
 30
0.0
 11
11973.888077409591
 21
8198.2035874219546
 31
0.0
  0
LINE
  5
15633
  8
0-1
  6
CONTINUOUS
 62
     3
 10
12257.88861840959
 20
6337.157708421958
 30
0.0
 11
12257.88861840959
 21
8198.2035874219546
 31
0.0
  0
LINE
  5
15634
  8
0-1
  6
CONTINUOUS
 62
     3
 10
12272.889410409591
 20
6337.157708421958
 30
0.0
 11
12272.889410409591
 21
8198.2035874219546
 31
0.0
  0
LINE
  5
15635
  8
0-1
  6
CONTINUOUS
 62
     3
 10
12405.8883144096
 20
6337.157708421958
 30
0.0
 11
12405.8883144096
 21
8198.2035874219546
 31
0.0
  0
LINE
  5
15636
  8
0-1
  6
CONTINUOUS
 62
     3
 10
12525.889700409591
 20
6337.157708421958
 30
0.0
 11
12525.889700409591
 21
8198.2035874219546
 31
0.0
  0
LINE
  5
15637
  8
0-1
  6
CONTINUOUS
 62
     3
 10
12455.886995409581
 20
6337.157708421958
 30
0.0
 11
12455.886995409581
 21
8198.2035874219546
 31
0.0
  0
LINE
  5
15638
  8
0-1
  6
CONTINUOUS
 62
     3
 10
12475.88805040958
 20
6337.157708421958
 30
0.0
 11
12475.88805040958
 21
8198.2035874219546
 31
0.0
  0
LINE
  5
15639
  8
0-1
  6
CONTINUOUS
 62
     3
 10
11273.889726409599
 20
6337.157708421958
 30
0.0
 11
11273.889726409599
 21
8198.2035874219546
 31
0.0
  0
LINE
  5
1563A
  8
0-1
  6
CONTINUOUS
 62
     3
 10
11258.88893540959
 20
6337.157708421958
 30
0.0
 11
11258.88893540959
 21
8198.2035874219546
 31
0.0
  0
LINE
  5
1563B
  8
0-1
  6
CONTINUOUS
 62
     3
 10
11125.88805040958
 20
6337.157708421958
 30
0.0
 11
11125.88805040958
 21
8198.2035874219546
 31
0.0
  0
LINE
  5
1563C
  8
0-1
  6
CONTINUOUS
 62
     3
 10
10857.888948409571
 20
6337.157708421958
 30
0.0
 11
10857.888948409571
 21
8198.2035874219546
 31
0.0
  0
LINE
  5
1563D
  8
0-1
  6
CONTINUOUS
 62
     3
 10
10872.887760409591
 20
6337.157708421958
 30
0.0
 11
10872.887760409591
 21
8198.2035874219546
 31
0.0
  0
LINE
  5
1563E
  8
0-1
  6
CONTINUOUS
 62
     3
 10
11005.88864440959
 20
6337.157708421958
 30
0.0
 11
11005.88864440959
 21
8198.2035874219546
 31
0.0
  0
LINE
  5
1563F
  8
0-1
  6
CONTINUOUS
 62
     3
 10
11055.8883144096
 20
6337.157708421958
 30
0.0
 11
11055.8883144096
 21
8198.2035874219546
 31
0.0
  0
LINE
  5
15640
  8
0-1
  6
CONTINUOUS
 62
     3
 10
11075.88739140958
 20
6337.157708421958
 30
0.0
 11
11075.88739140958
 21
8198.2035874219546
 31
0.0
  0
LINE
  5
15641
  8
0-1
  6
CONTINUOUS
 62
     3
 10
10247.888420409579
 20
6337.157708421958
 30
0.0
 11
10247.888420409579
 21
8198.2035874219546
 31
0.0
  0
LINE
  5
15642
  8
0-1
  6
CONTINUOUS
 62
     3
 10
10267.88749640959
 20
6337.157708421958
 30
0.0
 11
10267.88749640959
 21
8198.2035874219546
 31
0.0
  0
LINE
  5
15643
  8
0-1
  6
CONTINUOUS
 62
     3
 10
10197.8877604096
 20
6337.157708421958
 30
0.0
 11
10197.8877604096
 21
8198.2035874219546
 31
0.0
  0
LINE
  5
15644
  8
0-1
  6
CONTINUOUS
 62
     3
 10
10317.88815640959
 20
6337.157708421958
 30
0.0
 11
10317.88815640959
 21
8198.2035874219546
 31
0.0
  0
LINE
  5
15645
  8
0-1
  6
CONTINUOUS
 62
     3
 10
10450.888050409591
 20
6337.157708421958
 30
0.0
 11
10450.888050409591
 21
8198.2035874219546
 31
0.0
  0
LINE
  5
15646
  8
0-1
  6
CONTINUOUS
 62
     3
 10
10465.889832409601
 20
6337.157708421958
 30
0.0
 11
10465.889832409601
 21
8198.2035874219546
 31
0.0
  0
LINE
  5
15647
  8
0-1
  6
CONTINUOUS
 62
     3
 10
10064.88786640959
 20
6337.157708421958
 30
0.0
 11
10064.88786640959
 21
8198.2035874219546
 31
0.0
  0
LINE
  5
15648
  8
0-1
  6
CONTINUOUS
 62
     3
 10
10049.889053409581
 20
6337.157708421958
 30
0.0
 11
10049.889053409581
 21
8198.2035874219546
 31
0.0
  0
LINE
  5
15649
  8
0-1
  6
CONTINUOUS
 62
     3
 10
8847.8877604095906
 20
6337.157708421958
 30
0.0
 11
8847.8877604095906
 21
8198.2035874219546
 31
0.0
  0
LINE
  5
1564A
  8
0-1
  6
CONTINUOUS
 62
     3
 10
8867.8888164095843
 20
6337.157708421958
 30
0.0
 11
8867.8888164095843
 21
8198.2035874219546
 31
0.0
  0
LINE
  5
1564B
  8
0-1
  6
CONTINUOUS
 62
     3
 10
8797.8890804095863
 20
6337.157708421958
 30
0.0
 11
8797.8890804095863
 21
8198.2035874219546
 31
0.0
  0
LINE
  5
1564C
  8
0-1
  6
CONTINUOUS
 62
     3
 10
8917.8874964095867
 20
6337.157708421958
 30
0.0
 11
8917.8874964095867
 21
8198.2035874219546
 31
0.0
  0
LINE
  5
1564D
  8
0-1
  6
CONTINUOUS
 62
     3
 10
9050.8883804095858
 20
6337.157708421958
 30
0.0
 11
9050.8883804095858
 21
8198.2035874219546
 31
0.0
  0
LINE
  5
1564E
  8
0-1
  6
CONTINUOUS
 62
     3
 10
9065.8881824096043
 20
6337.157708421958
 30
0.0
 11
9065.8881824096043
 21
8198.2035874219546
 31
0.0
  0
LINE
  5
1564F
  8
0-1
  6
CONTINUOUS
 62
     3
 10
8664.8901754095878
 20
6337.157708421958
 30
0.0
 11
8664.8901754095878
 21
8198.2035874219546
 31
0.0
  0
LINE
  5
15650
  8
0-1
  6
CONTINUOUS
 62
     3
 10
8649.8883944095869
 20
6337.157708421958
 30
0.0
 11
8649.8883944095869
 21
8198.2035874219546
 31
0.0
  0
LINE
  5
15651
  8
0-1
  6
CONTINUOUS
 62
     3
 10
9349.8877344095963
 20
6337.157708421958
 30
0.0
 11
9349.8877344095963
 21
8198.2035874219546
 31
0.0
  0
LINE
  5
15652
  8
0-1
  6
CONTINUOUS
 62
     3
 10
9364.8895154095953
 20
6337.157708421958
 30
0.0
 11
9364.8895154095953
 21
8198.2035874219546
 31
0.0
  0
LINE
  5
15653
  8
0-1
  6
CONTINUOUS
 62
     3
 10
9765.8875234095904
 20
6337.157708421958
 30
0.0
 11
9765.8875234095904
 21
8198.2035874219546
 31
0.0
  0
LINE
  5
15654
  8
0-1
  6
CONTINUOUS
 62
     3
 10
9750.888710409592
 20
6337.157708421958
 30
0.0
 11
9750.888710409592
 21
8198.2035874219546
 31
0.0
  0
LINE
  5
15655
  8
0-1
  6
CONTINUOUS
 62
     3
 10
9617.8898064095865
 20
6337.157708421958
 30
0.0
 11
9617.8898064095865
 21
8198.2035874219546
 31
0.0
  0
LINE
  5
15656
  8
0-1
  6
CONTINUOUS
 62
     3
 10
9497.8884204095957
 20
6337.157708421958
 30
0.0
 11
9497.8884204095957
 21
8198.2035874219546
 31
0.0
  0
LINE
  5
15657
  8
0-1
  6
CONTINUOUS
 62
     3
 10
9567.8881564096082
 20
6337.157708421958
 30
0.0
 11
9567.8881564096082
 21
8198.2035874219546
 31
0.0
  0
LINE
  5
15658
  8
0-1
  6
CONTINUOUS
 62
     3
 10
9547.8890804095863
 20
6337.157708421958
 30
0.0
 11
9547.8890804095863
 21
8198.2035874219546
 31
0.0
  0
LINE
  5
15659
  8
0-1
  6
CONTINUOUS
 62
     3
 10
9889.3877074095926
 20
8198.2035874219546
 30
0.0
 11
9889.3877074095926
 21
6337.157708421958
 31
0.0
  0
LINE
  5
1565A
  8
0-1
  6
CONTINUOUS
 62
     3
 10
9926.3888694095967
 20
8198.2035874219546
 30
0.0
 11
9926.3888694095967
 21
6337.157708421958
 31
0.0
  0
LINE
  5
1565B
  8
0-1
  6
CONTINUOUS
 62
     3
 10
8489.3900174095907
 20
8198.2035874219546
 30
0.0
 11
8489.3900174095907
 21
6337.157708421958
 31
0.0
  0
LINE
  5
1565C
  8
0-1
  6
CONTINUOUS
 62
     3
 10
8526.389199409603
 20
8198.2035874219546
 30
0.0
 11
8526.389199409603
 21
6337.157708421958
 31
0.0
  0
LINE
  5
1565D
  8
0-1
  6
CONTINUOUS
 62
     3
 10
9189.3883674095996
 20
8198.2035874219546
 30
0.0
 11
9189.3883674095996
 21
6337.157708421958
 31
0.0
  0
LINE
  5
1565E
  8
0-1
  6
CONTINUOUS
 62
     3
 10
9226.3885394095832
 20
8198.2035874219546
 30
0.0
 11
9226.3885394095832
 21
6337.157708421958
 31
0.0
  0
LINE
  5
1565F
  8
0-1
  6
CONTINUOUS
 62
     3
 10
24392.853593301192
 20
6287.1575434219621
 30
0.0
 11
24492.852934301191
 21
6287.1575434219621
 31
0.0
  0
LINE
  5
15660
  8
0-1
  6
CONTINUOUS
 62
     3
 10
24492.852934301191
 20
6287.1575434219621
 30
0.0
 11
24492.852934301191
 21
6187.1577084219589
 31
0.0
  0
LINE
  5
15661
  8
0-1
  6
CONTINUOUS
 62
     3
 10
24392.853593301192
 20
6187.1577084219589
 30
0.0
 11
24392.853593301192
 21
6287.1575434219621
 31
0.0
  0
LINE
  5
15662
  8
0-1
  6
CONTINUOUS
 62
     3
 10
24485.352538301198
 20
8505.657635421956
 30
0.0
 11
24485.352538301198
 21
6287.1575434219621
 31
0.0
  0
LINE
  5
15663
  8
0-1
  6
CONTINUOUS
 62
     3
 10
24536.8522743012
 20
8178.6575434219612
 30
0.0
 11
24536.8522743012
 21
6187.1577084219589
 31
0.0
  0
LINE
  5
15664
  8
0-1
  6
CONTINUOUS
 62
     3
 10
24420.351086301202
 20
8635.6575694219555
 30
0.0
 11
24420.351086301202
 21
6287.1575434219621
 31
0.0
  0
LINE
  5
15665
  8
0-1
  6
CONTINUOUS
 62
     3
 10
24400.352274301182
 20
8505.657635421956
 30
0.0
 11
24400.352274301182
 21
6287.1575434219621
 31
0.0
  0
LINE
  5
15666
  8
0-1
  6
CONTINUOUS
 62
     3
 10
27446.3522743012
 20
8309.9718314219554
 30
0.0
 11
27403.3522743012
 21
8309.9718314219554
 31
0.0
  0
LINE
  5
15667
  8
0-1
  6
CONTINUOUS
 62
     3
 10
27410.85491330118
 20
6287.1575434219621
 30
0.0
 11
27310.855573301182
 21
6287.1575434219621
 31
0.0
  0
LINE
  5
15668
  8
0-1
  6
CONTINUOUS
 62
     3
 10
27310.855573301182
 20
6287.1575434219621
 30
0.0
 11
27310.855573301182
 21
6187.1577084219589
 31
0.0
  0
LINE
  5
15669
  8
0-1
  6
CONTINUOUS
 62
     3
 10
27410.85491330118
 20
6187.1577084219589
 30
0.0
 11
27410.85491330118
 21
6287.1575434219621
 31
0.0
  0
LINE
  5
1566A
  8
0-1
  6
CONTINUOUS
 62
     3
 10
27266.8522743012
 20
8178.6575434219612
 30
0.0
 11
27266.8522743012
 21
6187.1577084219589
 31
0.0
  0
LINE
  5
1566B
  8
0-1
  6
CONTINUOUS
 62
     3
 10
27318.355969301181
 20
8505.657635421956
 30
0.0
 11
27318.355969301181
 21
6287.1575434219621
 31
0.0
  0
LINE
  5
1566C
  8
0-1
  6
CONTINUOUS
 62
     3
 10
27383.355441301192
 20
8635.6575694219555
 30
0.0
 11
27383.355441301192
 21
6287.1575434219621
 31
0.0
  0
LINE
  5
1566D
  8
0-1
  6
CONTINUOUS
 62
     3
 10
27403.3522743012
 20
8505.657635421956
 30
0.0
 11
27403.3522743012
 21
6287.1575434219621
 31
0.0
  0
LINE
  5
1566E
  8
0-1
  6
CONTINUOUS
 62
     3
 10
8039.3888954096037
 20
6287.1575434219621
 30
0.0
 11
8039.3888954096037
 21
6187.1577084219589
 31
0.0
  0
LINE
  5
1566F
  8
0-1
  6
CONTINUOUS
 62
     3
 10
8071.8896864096032
 20
8501.4866184219627
 30
0.0
 11
8071.8896864096032
 21
6287.1575434219621
 31
0.0
  0
LINE
  5
15670
  8
0-1
  6
CONTINUOUS
 62
     3
 10
8051.8888954095974
 20
8502.0676074219573
 30
0.0
 11
8051.8888954095974
 21
6287.1575434219621
 31
0.0
  0
LINE
  5
15671
  8
0-1
  6
CONTINUOUS
 62
     3
 10
8166.8887634096109
 20
8198.2035874219546
 30
0.0
 11
8166.8887634096109
 21
6287.1575434219621
 31
0.0
  0
LINE
  5
15672
  8
0-1
  6
CONTINUOUS
 62
     3
 10
10661.8888954096
 20
8402.9590504219595
 30
0.0
 11
10661.8888954096
 21
8198.2035874219546
 31
0.0
  0
LINE
  5
15673
  8
0-1
  6
CONTINUOUS
 62
     3
 10
10734.38876340959
 20
8198.2035874219546
 30
0.0
 11
10734.38876340959
 21
6287.1575434219621
 31
0.0
  0
LINE
  5
15674
  8
0-1
  6
CONTINUOUS
 62
     3
 10
10589.3900174096
 20
8198.2035874219546
 30
0.0
 11
10589.3900174096
 21
6287.1575434219621
 31
0.0
  0
LINE
  5
15675
  8
0-1
  6
CONTINUOUS
 62
     3
 10
10589.3900174096
 20
6337.157708421958
 30
0.0
 11
8166.8887634096109
 21
6337.157708421958
 31
0.0
  0
LINE
  5
15676
  8
0-1
  6
CONTINUOUS
 62
     3
 10
27266.8522743012
 20
6707.1584344219546
 30
0.0
 11
24536.8522743012
 21
6707.1584344219546
 31
0.0
  0
LINE
  5
15677
  8
0-1
  6
CONTINUOUS
 62
     3
 10
27266.8522743012
 20
6642.1579724219591
 30
0.0
 11
24536.8522743012
 21
6642.1579724219591
 31
0.0
  0
LINE
  5
15678
  8
0-1
  6
CONTINUOUS
 62
     3
 10
27266.8522743012
 20
6577.1580054219576
 30
0.0
 11
24536.8522743012
 21
6577.1580054219576
 31
0.0
  0
LINE
  5
15679
  8
0-1
  6
CONTINUOUS
 62
     3
 10
27266.8522743012
 20
6512.1575434219603
 30
0.0
 11
24536.8522743012
 21
6512.1575434219603
 31
0.0
  0
LINE
  5
1567A
  8
0-1
  6
CONTINUOUS
 62
     3
 10
27266.8522743012
 20
6447.1580714219663
 30
0.0
 11
24536.8522743012
 21
6447.1580714219663
 31
0.0
  0
LINE
  5
1567B
  8
0-1
  6
CONTINUOUS
 62
     3
 10
27266.8522743012
 20
6382.158104421962
 30
0.0
 11
24536.8522743012
 21
6382.158104421962
 31
0.0
  0
LINE
  5
1567C
  8
0-1
  6
CONTINUOUS
 62
     3
 10
27266.8522743012
 20
6317.1581374219604
 30
0.0
 11
24536.8522743012
 21
6317.1581374219604
 31
0.0
  0
LINE
  5
1567D
  8
0-1
  6
CONTINUOUS
 62
     3
 10
27266.8522743012
 20
6252.1576754219623
 30
0.0
 11
24536.8522743012
 21
6252.1576754219623
 31
0.0
  0
LINE
  5
1567E
  8
0-1
  6
CONTINUOUS
 62
     3
 10
27266.8522743012
 20
8072.1577414219619
 30
0.0
 11
24536.8522743012
 21
8072.1577414219619
 31
0.0
  0
LINE
  5
1567F
  8
0-1
  6
CONTINUOUS
 62
     3
 10
27266.8522743012
 20
8007.1577744219603
 30
0.0
 11
24536.8522743012
 21
8007.1577744219603
 31
0.0
  0
LINE
  5
15680
  8
0-1
  6
CONTINUOUS
 62
     3
 10
27266.8522743012
 20
7942.1583024219653
 30
0.0
 11
24536.8522743012
 21
7942.1583024219653
 31
0.0
  0
LINE
  5
15681
  8
0-1
  6
CONTINUOUS
 62
     3
 10
27266.8522743012
 20
7877.158335421952
 30
0.0
 11
24536.8522743012
 21
7877.158335421952
 31
0.0
  0
LINE
  5
15682
  8
0-1
  6
CONTINUOUS
 62
     3
 10
27266.8522743012
 20
7812.158368421965
 30
0.0
 11
24536.8522743012
 21
7812.158368421965
 31
0.0
  0
LINE
  5
15683
  8
0-1
  6
CONTINUOUS
 62
     3
 10
27266.8522743012
 20
7747.1579064219613
 30
0.0
 11
24536.8522743012
 21
7747.1579064219613
 31
0.0
  0
LINE
  5
15684
  8
0-1
  6
CONTINUOUS
 62
     3
 10
27266.8522743012
 20
7682.1579394219571
 30
0.0
 11
24536.8522743012
 21
7682.1579394219571
 31
0.0
  0
LINE
  5
15685
  8
0-1
  6
CONTINUOUS
 62
     3
 10
27266.8522743012
 20
7617.1584674219621
 30
0.0
 11
24536.8522743012
 21
7617.1584674219621
 31
0.0
  0
LINE
  5
15686
  8
0-1
  6
CONTINUOUS
 62
     3
 10
27266.8522743012
 20
7552.1585004219569
 30
0.0
 11
24536.8522743012
 21
7552.1585004219569
 31
0.0
  0
LINE
  5
15687
  8
0-1
  6
CONTINUOUS
 62
     3
 10
27266.8522743012
 20
7487.1580384219606
 30
0.0
 11
24536.8522743012
 21
7487.1580384219606
 31
0.0
  0
LINE
  5
15688
  8
0-1
  6
CONTINUOUS
 62
     3
 10
27266.8522743012
 20
7422.1580714219581
 30
0.0
 11
24536.8522743012
 21
7422.1580714219581
 31
0.0
  0
LINE
  5
15689
  8
0-1
  6
CONTINUOUS
 62
     3
 10
27266.8522743012
 20
7357.158104421962
 30
0.0
 11
24536.8522743012
 21
7357.158104421962
 31
0.0
  0
LINE
  5
1568A
  8
0-1
  6
CONTINUOUS
 62
     3
 10
27266.8522743012
 20
7292.1576424219584
 30
0.0
 11
24536.8522743012
 21
7292.1576424219584
 31
0.0
  0
LINE
  5
1568B
  8
0-1
  6
CONTINUOUS
 62
     3
 10
27266.8522743012
 20
7227.1576754219559
 30
0.0
 11
24536.8522743012
 21
7227.1576754219559
 31
0.0
  0
LINE
  5
1568C
  8
0-1
  6
CONTINUOUS
 62
     3
 10
27266.8522743012
 20
7162.1582034219591
 30
0.0
 11
24536.8522743012
 21
7162.1582034219591
 31
0.0
  0
LINE
  5
1568D
  8
0-1
  6
CONTINUOUS
 62
     3
 10
27266.8522743012
 20
7097.1582364219557
 30
0.0
 11
24536.8522743012
 21
7097.1582364219557
 31
0.0
  0
LINE
  5
1568E
  8
0-1
  6
CONTINUOUS
 62
     3
 10
27266.8522743012
 20
7032.1582694219596
 30
0.0
 11
24536.8522743012
 21
7032.1582694219596
 31
0.0
  0
LINE
  5
1568F
  8
0-1
  6
CONTINUOUS
 62
     3
 10
27266.8522743012
 20
6967.1578074219642
 30
0.0
 11
24536.8522743012
 21
6967.1578074219642
 31
0.0
  0
LINE
  5
15690
  8
0-1
  6
CONTINUOUS
 62
     3
 10
27266.8522743012
 20
6902.1578404219608
 30
0.0
 11
24536.8522743012
 21
6902.1578404219608
 31
0.0
  0
LINE
  5
15691
  8
0-1
  6
CONTINUOUS
 62
     3
 10
27266.8522743012
 20
6837.1583684219568
 30
0.0
 11
24536.8522743012
 21
6837.1583684219568
 31
0.0
  0
LINE
  5
15692
  8
0-1
  6
CONTINUOUS
 62
     3
 10
27266.8522743012
 20
6772.1584014219598
 30
0.0
 11
24536.8522743012
 21
6772.1584014219598
 31
0.0
  0
LINE
  5
15693
  8
0-1
  6
CONTINUOUS
 62
     3
 10
27266.8522743012
 20
8126.6177614219587
 30
0.0
 11
24536.8522743012
 21
8126.6177614219587
 31
0.0
  0
LINE
  5
15694
  8
0-1
  6
CONTINUOUS
 62
     3
 10
27410.85491330118
 20
6187.1577084219589
 30
0.0
 11
18831.373898175982
 21
6187.1577084219589
 31
0.0
  0
LINE
  5
15695
  8
0-1
  6
CONTINUOUS
 62
     3
 10
13279.3888954096
 20
6187.1577084219589
 30
0.0
 11
13279.3888954096
 21
6287.1575434219621
 31
0.0
  0
LINE
  5
15696
  8
0-1
  6
CONTINUOUS
 62
     3
 10
13251.8890934096
 20
8314.9600464219584
 30
0.0
 11
13251.8890934096
 21
6287.1575434219621
 31
0.0
  0
LINE
  5
15697
  8
0-1
  6
CONTINUOUS
 62
     3
 10
13271.8888954096
 20
8314.3433191057684
 30
0.0
 11
13271.8888954096
 21
6287.1575434219621
 31
0.0
  0
LINE
  5
15698
  8
0-1
  6
CONTINUOUS
 62
     3
 10
13156.89001640959
 20
8198.2035874219546
 30
0.0
 11
13156.89001640959
 21
6287.1575434219621
 31
0.0
  0
LINE
  5
15699
  8
0-1
  6
CONTINUOUS
 62
     3
 10
13279.3888954096
 20
6287.1575434219621
 30
0.0
 11
8039.3888954096037
 21
6287.1575434219621
 31
0.0
  0
LINE
  5
1569A
  8
0-1
  6
CONTINUOUS
 62
     3
 10
13156.89001640959
 20
6337.157708421958
 30
0.0
 11
10734.38876340959
 21
6337.157708421958
 31
0.0
  0
LINE
  5
1569B
  8
0-1
  6
CONTINUOUS
 62
     3
 10
13961.889950409601
 20
6187.1577084219589
 30
0.0
 11
8039.3888954096037
 21
6187.1577084219589
 31
0.0
  0
LINE
  5
1569C
  8
0-1
  6
CONTINUOUS
 62
     3
 10
13251.8890934096
 20
8198.2035874219546
 30
0.0
 11
8071.8896864096032
 21
8198.2035874219546
 31
0.0
  0
LINE
  5
1569D
  8
0-1
  6
CONTINUOUS
 62
     3
 10
27292.353013301181
 20
8381.1582894219573
 30
0.0
 11
27014.92348330118
 21
8381.1582894219573
 31
0.0
  0
LINE
  5
1569E
  8
0-1
  6
CONTINUOUS
 62
     3
 10
27292.353013301181
 20
8423.1577344219604
 30
0.0
 11
26982.926545301169
 21
8423.1577344219604
 31
0.0
  0
LINE
  5
1569F
  8
0-1
  6
CONTINUOUS
 62
     3
 10
27297.35327630119
 20
8386.1580584219537
 30
0.0
 11
27297.35327630119
 21
8418.1584604219606
 31
0.0
  0
LINE
  5
156A0
  8
0-1
  6
CONTINUOUS
 62
     3
 10
27318.355969301181
 20
8432.157616421955
 30
0.0
 11
24485.352538301198
 21
8432.157616421955
 31
0.0
  0
LINE
  5
156A1
  8
0-1
  6
CONTINUOUS
 62
     3
 10
27011.390043301191
 20
8382.6221434219606
 30
0.0
 11
26979.3891453012
 21
8414.6225454219584
 31
0.0
  0
LINE
  5
156A2
  8
0-1
  6
CONTINUOUS
 62
     3
 10
27297.35327630119
 20
8414.7581424219588
 30
0.0
 11
26979.26047730121
 21
8414.7581424219588
 31
0.0
  0
LINE
  5
156A3
  8
0-1
  6
CONTINUOUS
 62
     3
 10
27297.35327630119
 20
8406.358055421957
 30
0.0
 11
26987.65363530118
 21
8406.358055421957
 31
0.0
  0
LINE
  5
156A4
  8
0-1
  6
CONTINUOUS
 62
     3
 10
27297.35327630119
 20
8397.9584634219609
 30
0.0
 11
26996.052733301181
 21
8397.9584634219609
 31
0.0
  0
LINE
  5
156A5
  8
0-1
  6
CONTINUOUS
 62
     3
 10
27297.35327630119
 20
8389.5583764219609
 30
0.0
 11
27004.455789301181
 21
8389.5583764219609
 31
0.0
  0
LINE
  5
156A6
  8
0-1
  6
CONTINUOUS
 62
     3
 10
24506.353250301199
 20
8414.7581424219588
 30
0.0
 11
24824.44605030118
 21
8414.7581424219588
 31
0.0
  0
LINE
  5
156A7
  8
0-1
  6
CONTINUOUS
 62
     3
 10
24506.353250301199
 20
8406.358055421957
 30
0.0
 11
24816.050912301191
 21
8406.358055421957
 31
0.0
  0
LINE
  5
156A8
  8
0-1
  6
CONTINUOUS
 62
     3
 10
24506.353250301199
 20
8397.9584634219609
 30
0.0
 11
24807.6518153012
 21
8397.9584634219609
 31
0.0
  0
LINE
  5
156A9
  8
0-1
  6
CONTINUOUS
 62
     3
 10
24506.353250301199
 20
8389.5583764219609
 30
0.0
 11
24799.252717301199
 21
8389.5583764219609
 31
0.0
  0
LINE
  5
156AA
  8
0-1
  6
CONTINUOUS
 62
     3
 10
24511.353514301201
 20
8423.1577344219604
 30
0.0
 11
24820.779982301199
 21
8423.1577344219604
 31
0.0
  0
LINE
  5
156AB
  8
0-1
  6
CONTINUOUS
 62
     3
 10
24511.353514301201
 20
8381.1582894219573
 30
0.0
 11
24788.783043301199
 21
8381.1582894219573
 31
0.0
  0
LINE
  5
156AC
  8
0-1
  6
CONTINUOUS
 62
     3
 10
24506.353250301199
 20
8386.1580584219537
 30
0.0
 11
24506.353250301199
 21
8418.1584604219606
 31
0.0
  0
LINE
  5
156AD
  8
0-1
  6
CONTINUOUS
 62
     3
 10
24792.318464301181
 20
8382.6221434219606
 30
0.0
 11
24824.315402301181
 21
8414.6225454219584
 31
0.0
  0
LINE
  5
156AE
  8
0-1
  6
CONTINUOUS
 62
     3
 10
13446.1907194096
 20
8349.1428684219627
 30
0.0
 11
7966.1992304095993
 21
8544.6589294219648
 31
0.0
  0
LINE
  5
156AF
  8
0-1
  6
CONTINUOUS
 62
     3
 10
7967.6997054095973
 20
8594.6378144219634
 30
0.0
 11
13447.6902044096
 21
8399.1207644219558
 31
0.0
  0
LINE
  5
156B0
  8
0-1
  6
CONTINUOUS
 62
     3
 10
13450.780232409599
 20
8402.0296664219622
 30
0.0
 11
13451.740299409599
 21
8434.0152224219564
 31
0.0
  0
LINE
  5
156B1
  8
0-1
  6
CONTINUOUS
 62
     3
 10
13446.891468409591
 20
8439.162465421954
 30
0.0
 11
7947.9302534095987
 21
8635.2496174219577
 31
0.0
  0
LINE
  5
156B2
  8
0-1
  6
CONTINUOUS
 62
     3
 10
7944.0256534095961
 20
8505.3080794219622
 30
0.0
 11
13442.990827409591
 21
8309.2214224219533
 31
0.0
  0
LINE
  5
156B3
  8
0-1
  6
CONTINUOUS
 62
     3
 10
13448.13856540959
 20
8314.0687684219574
 30
0.0
 11
13449.09764240959
 21
8346.0548194219555
 31
0.0
  0
LINE
  5
156B4
  8
0-1
  6
CONTINUOUS
 62
     3
 10
13449.429211409601
 20
8357.0495604219614
 30
0.0
 11
13450.449653409591
 21
8391.0339354219559
 31
0.0
  0
LINE
  5
156B5
  8
0-1
  6
CONTINUOUS
 62
     3
 10
13447.54075040958
 20
8394.1229744219581
 30
0.0
 11
7967.5482724096
 21
8589.6405194219587
 31
0.0
  0
LINE
  5
156B6
  8
0-1
  6
CONTINUOUS
 62
     3
 10
7966.3486844096024
 20
8549.6572134219587
 30
0.0
 11
13446.3391824096
 21
8354.1411534219587
 31
0.0
  0
LINE
  5
156B7
  8
0-1
  6
CONTINUOUS
 62
     3
 10
10661.8888954096
 20
8402.9590504219595
 30
0.0
 11
10665.79151640959
 21
8532.9005884219569
 31
0.0
  0
LINE
  5
156B8
  8
0-1
  6
CONTINUOUS
 62
     3
 10
7976.992555409598
 20
8504.3173304219581
 30
0.0
 11
7980.8941864095987
 21
8634.2588684219572
 31
0.0
  0
LINE
  5
156B9
  8
0-1
  6
CONTINUOUS
 62
     3
 10
13434.39872640959
 20
8439.5375844219616
 30
0.0
 11
13430.49610540958
 21
8309.5965414219572
 31
0.0
  0
LINE
  5
156BA
  8
0-2
  6
CONTINUOUS
 62
     4
 10
25538.164233801181
 20
6934.3844024219543
 30
0.0
 11
25638.163573801179
 21
6934.3844024219543
 31
0.0
  0
LINE
  5
156BB
  8
0-2
  6
CONTINUOUS
 62
     4
 10
26265.548233801201
 20
6934.3844024219543
 30
0.0
 11
26165.548893801191
 21
6934.3844024219543
 31
0.0
  0
LINE
  5
156BC
  8
0-5
  6
CONTINUOUS
 62
     4
 10
24442.852274301182
 20
4507.1581044219538
 30
0.0
 11
24442.852274301182
 21
4347.1585664219583
 31
0.0
  0
LINE
  5
156BD
  8
0-5
  6
CONTINUOUS
 62
     4
 10
15259.751228455891
 20
6287.1575434219612
 30
0.0
 11
15139.75083245588
 21
6495.0045204219559
 31
0.0
  0
LINE
  5
156BE
  8
0-5
  6
CONTINUOUS
 62
     4
 10
15379.74964545588
 20
6495.0045204219559
 30
0.0
 11
15259.751228455891
 21
6287.1575434219612
 31
0.0
  0
LINE
  5
156BF
  8
0-5
  6
CONTINUOUS
 62
     4
 10
15139.75083245588
 20
6495.0045204219559
 30
0.0
 11
15379.74964545588
 21
6495.0045204219559
 31
0.0
  0
LINE
  5
156C0
  8
0-5
  6
CONTINUOUS
 62
     4
 10
15737.45526069104
 20
6287.1575434219612
 30
0.0
 11
14361.88929140959
 21
6287.1575434219612
 31
0.0
  0
LINE
  5
156C1
  8
0-5
  6
CONTINUOUS
 62
     4
 10
27360.8522743012
 20
4507.1581044219538
 30
0.0
 11
27360.8522743012
 21
4347.1585664219583
 31
0.0
  0
LINE
  5
156C2
  8
0-5
  6
CONTINUOUS
 62
     4
 10
8094.3888954096064
 20
4507.1581044219538
 30
0.0
 11
8094.3888954096064
 21
4347.1585664219583
 31
0.0
  0
LINE
  5
156C3
  8
0-5
  6
CONTINUOUS
 62
     4
 10
10661.8888954096
 20
4507.1581044219538
 30
0.0
 11
10661.8888954096
 21
4347.1585664219583
 31
0.0
  0
LINE
  5
156C4
  8
0-5
  6
CONTINUOUS
 62
     4
 10
13229.3888954096
 20
4507.1581044219538
 30
0.0
 11
13229.3888954096
 21
4347.1585664219583
 31
0.0
  0
LINE
  5
156C5
  8
2-0
  6
CENTER2
 62
     6
 10
24442.852274301182
 20
5924.5052854219593
 30
0.0
 11
24442.852274301182
 21
6961.6483124219576
 31
0.0
  0
LINE
  5
156C6
  8
2-0
  6
CENTER2
 62
     6
 10
27360.8522743012
 20
5924.5052854219593
 30
0.0
 11
27360.8522743012
 21
6961.6483124219576
 31
0.0
  0
LINE
  5
156C7
  8
2-0
  6
CENTER2
 62
     6
 10
8094.3888954096064
 20
5924.5052854219593
 30
0.0
 11
8094.3888954096064
 21
6981.6478834219579
 31
0.0
  0
LINE
  5
156C8
  8
2-0
  6
CENTER2
 62
     6
 10
10661.8888954096
 20
5924.5052854219593
 30
0.0
 11
10661.8888954096
 21
6981.6478834219579
 31
0.0
  0
LINE
  5
156C9
  8
2-0
  6
CENTER2
 62
     6
 10
13229.3888954096
 20
5924.5052854219593
 30
0.0
 11
13229.3888954096
 21
6981.6478834219579
 31
0.0
  0
ARC
  5
156CA
  8
0-1
  6
CONTINUOUS
 62
     3
 10
27292.353013301181
 20
8418.1584604219606
 30
0.0
 40
5.0
 50
0.0
 51
90.0
  0
ARC
  5
156CB
  8
0-1
  6
CONTINUOUS
 62
     3
 10
27292.353013301181
 20
8386.1580584219537
 30
0.0
 40
5.0
 50
270.00001499981897
 51
0.0
  0
ARC
  5
156CC
  8
0-1
  6
CONTINUOUS
 62
     3
 10
27014.92348330118
 20
8386.1580584219537
 30
0.0
 40
5.0
 50
225.00001499972521
 51
270.00001499981897
  0
ARC
  5
156CD
  8
0-1
  6
CONTINUOUS
 62
     3
 10
26982.926545301169
 20
8418.1584604219606
 30
0.0
 40
5.0
 50
90.0
 51
225.00001499972521
  0
ARC
  5
156CE
  8
0-1
  6
CONTINUOUS
 62
     3
 10
24511.353514301201
 20
8386.1580584219537
 30
0.0
 40
5.0
 50
180.0
 51
270.00001499981897
  0
ARC
  5
156CF
  8
0-1
  6
CONTINUOUS
 62
     3
 10
24511.353514301201
 20
8418.1584604219606
 30
0.0
 40
5.0
 50
90.0
 51
180.0
  0
ARC
  5
156D0
  8
0-1
  6
CONTINUOUS
 62
     3
 10
24820.779982301199
 20
8418.1584604219606
 30
0.0
 40
5.0
 50
315.00001500002008
 51
90.0
  0
ARC
  5
156D1
  8
0-1
  6
CONTINUOUS
 62
     3
 10
24788.783043301199
 20
8386.1580584219537
 30
0.0
 40
5.0
 50
270.00001499981897
 51
315.00001500002008
  0
ARC
  5
156D2
  8
0-1
  6
CONTINUOUS
 62
     3
 10
7966.9494684096053
 20
8569.6493614219562
 30
0.0
 40
24.999998999999999
 50
88.280013999973605
 51
268.28001399997362
  0
ARC
  5
156D3
  8
0-1
  6
CONTINUOUS
 62
     3
 10
13447.780272409591
 20
8402.1197344219599
 30
0.0
 40
3.0
 50
268.28001399997362
 51
358.28001399997981
  0
ARC
  5
156D4
  8
0-1
  6
CONTINUOUS
 62
     3
 10
13446.743004409591
 20
8434.1646764219604
 30
0.0
 40
5.0
 50
358.28001399997981
 51
88.280013999973605
  0
ARC
  5
156D5
  8
0-1
  6
CONTINUOUS
 62
     3
 10
7971.9467624096142
 20
8569.4989184219648
 30
0.0
 40
69.999999000000003
 50
110.0668030000901
 51
246.49322500022339
  0
ARC
  5
156D6
  8
0-1
  6
CONTINUOUS
 62
     3
 10
13443.13929140959
 20
8314.2192124219564
 30
0.0
 40
5.0
 50
268.28001399997362
 51
358.28001399997981
  0
ARC
  5
156D7
  8
0-1
  6
CONTINUOUS
 62
     3
 10
13446.1006504096
 20
8346.144392421962
 30
0.0
 40
3.0
 50
358.28001399997981
 51
88.280013999973605
  0
ARC
  5
156D8
  8
0-1
  6
CONTINUOUS
 62
     3
 10
13446.116487409599
 20
8396.6671504219557
 30
0.0
 40
2.5
 50
88.280013999973605
 51
268.28001399997362
  0
ARC
  5
156D9
  8
0-1
  6
CONTINUOUS
 62
     3
 10
13444.766455409601
 20
8351.6870444219585
 30
0.0
 40
2.5
 50
88.280013999973605
 51
268.28001399997362
  0
ARC
  5
156DA
  8
0-1
  6
CONTINUOUS
 62
     3
 10
13447.45068240959
 20
8391.1244984219575
 30
0.0
 40
3.0
 50
358.28001399997981
 51
88.280013999973605
  0
ARC
  5
156DB
  8
0-1
  6
CONTINUOUS
 62
     3
 10
7966.9494684096053
 20
8569.6493614219562
 30
0.0
 40
20.0
 50
88.280013999973605
 51
268.28001399997362
  0
ARC
  5
156DC
  8
0-1
  6
CONTINUOUS
 62
     3
 10
13446.430240409591
 20
8357.1391334219588
 30
0.0
 40
3.0
 50
268.28001399997362
 51
358.28001399997981
  0
CIRCLE
  5
156DD
  8
0-5
  6
CONTINUOUS
 62
     4
 10
24442.852274301182
 20
4147.1574114219602
 30
0.0
 40
199.9999949999999
  0
CIRCLE
  5
156DE
  8
0-5
  6
CONTINUOUS
 62
     4
 10
10661.8888954096
 20
4147.1574114219602
 30
0.0
 40
199.9999949999999
  0
CIRCLE
  5
156DF
  8
0-5
  6
CONTINUOUS
 62
     4
 10
8094.3888954096064
 20
4147.1574114219602
 30
0.0
 40
199.9999949999999
  0
CIRCLE
  5
156E0
  8
0-5
  6
CONTINUOUS
 62
     4
 10
27360.8522743012
 20
4147.1574114219602
 30
0.0
 40
199.9999949999999
  0
CIRCLE
  5
156E1
  8
0-5
  6
CONTINUOUS
 62
     4
 10
13229.3888954096
 20
4147.1574114219602
 30
0.0
 40
199.9999949999999
  0
TEXT
  5
156E2
  8
0-5
  6
CONTINUOUS
 62
     7
 10
24388.09848263453
 20
4057.68242942196
 30
0.0
 40
160.0
  1
2
 72
     4
 11
24441.431815967859
 21
4137.6824294219596
 31
0.0
  0
TEXT
  5
156E3
  8
0-5
  6
CONTINUOUS
 62
     7
 10
28465.824039405328
 20
7241.3382669155044
 30
0.0
 40
160.0
  1
(2131.5)
 50
90.0
 72
     4
 11
28385.824039405328
 21
7694.6716002488374
 31
0.0
  0
TEXT
  5
156E4
  8
0-5
  6
CONTINUOUS
 62
     7
 10
14801.50982412255
 20
6575.0037944219539
 30
0.0
 40
160.0
  1
布基礎天端
 72
     4
 11
15260.176490789219
 21
6655.0037944219539
 31
0.0
  0
TEXT
  5
156E5
  8
0-5
  6
CONTINUOUS
 62
     7
 10
27307.518940967871
 20
4067.1574114219602
 30
0.0
 40
160.0
  1
3
 72
     4
 11
27360.8522743012
 21
4147.1574114219602
 31
0.0
  0
TEXT
  5
156E6
  8
0-5
  6
CONTINUOUS
 62
     7
 10
8034.6783887429301
 20
4063.9466154219608
 30
0.0
 40
160.0
  1
A
 72
     4
 11
8088.0117220762631
 21
4143.9466154219608
 31
0.0
  0
TEXT
  5
156E7
  8
0-5
  6
CONTINUOUS
 62
     7
 10
10602.178388742919
 20
4063.9466154219608
 30
0.0
 40
160.0
  1
B
 72
     4
 11
10655.51172207626
 21
4143.9466154219608
 31
0.0
  0
TEXT
  5
156E8
  8
0-5
  6
CONTINUOUS
 62
     7
 10
13169.678388742919
 20
4063.9466154219608
 30
0.0
 40
160.0
  1
C
 72
     4
 11
13223.01172207626
 21
4143.9466154219608
 31
0.0
  0
CIRCLE
  5
156E9
  8
0-4
  6
CONTINUOUS
 62
     4
 10
25901.85425380119
 20
6673.2141444219578
 30
0.0
 40
18.487504999999981
  0
LINE
  5
156EA
  8
1-前柱カバ-P
 10
19485.352274301182
 20
8505.657635421956
 30
0.0
 11
19485.352274301182
 21
6187.1577084219589
 31
0.0
  0
LINE
  5
156EB
  8
1-前柱カバ-P
 10
19400.352274301182
 20
8635.6575694219555
 30
0.0
 11
19400.352274301182
 21
6187.1577084219589
 31
0.0
  0
LINE
  5
156EC
  8
0-1
  6
CONTINUOUS
 62
     3
 10
19357.352274301182
 20
8505.6576354219633
 30
0.0
 11
24485.352538301198
 21
8505.657635421956
 31
0.0
  0
LINE
  5
156ED
  8
0-1
  6
CONTINUOUS
 62
     3
 10
24420.351086301202
 20
8635.6575694219555
 30
0.0
 11
19357.352274301182
 21
8635.6575694219555
 31
0.0
  0
LINE
  5
156EE
  8
0-1
  6
CONTINUOUS
 62
     3
 10
19357.352274301182
 20
8309.9718314219608
 30
0.0
 11
19357.352274301182
 21
8635.6575694219555
 31
0.0
  0
LINE
  5
156EF
  8
0-1
  6
CONTINUOUS
 62
     3
 10
19357.352274301182
 20
8309.9718314219608
 30
0.0
 11
19400.352274301182
 21
8309.9718314219608
 31
0.0
  0
LINE
  5
156F0
  8
2-0
  6
CENTER2
 62
     6
 10
19442.852274301182
 20
5924.5052854219593
 30
0.0
 11
19442.852274301182
 21
6961.6483124219576
 31
0.0
  0
LINE
  5
156F1
  8
1-桁前P28
 10
19485.352274301182
 20
8307.971831421959
 30
0.0
 11
24400.352274301182
 21
8307.971831421959
 31
0.0
  0
LINE
  5
156F2
  8
0-5
  6
CONTINUOUS
 62
     4
 10
19442.852274301189
 20
4507.1581044219538
 30
0.0
 11
19442.852274301182
 21
4347.1585664219583
 31
0.0
  0
CIRCLE
  5
156F3
  8
0-5
  6
CONTINUOUS
 62
     4
 10
19442.852274301182
 20
4147.1574114219602
 30
0.0
 40
199.9999949999999
  0
TEXT
  5
156F4
  8
0-5
  6
CONTINUOUS
 62
     7
 10
19414.765149301169
 20
4057.68242942196
 30
0.0
 40
160.0
  1
1
 72
     4
 11
19441.431815967841
 21
4137.6824294219596
 31
0.0
  0
TEXT
  5
156F5
  8
0-5
  6
CONTINUOUS
 62
     7
 10
18468.980887041791
 20
7282.7678130325612
 30
0.0
 40
160.0
  1
(2260)
 50
90.0
 72
     4
 11
18388.980887041791
 21
7669.4344796992282
 31
0.0
  0
LINE
  5
156F6
  8
SUNPOU
  6
CONTINUOUS
 10
13451.8888954096
 20
9435.1592194219593
 30
0.0
 11
13956.676765303
 21
9435.1592194219593
 31
0.0
  0
LINE
  5
156F7
  8
0-5
  6
CONTINUOUS
 62
     4
 10
17062.768864265061
 20
6395.0041904219597
 30
0.0
 11
16942.770448265059
 21
6187.1577084219589
 31
0.0
  0
LINE
  5
156F8
  8
0-5
  6
CONTINUOUS
 62
     4
 10
18802.192786352982
 20
6187.1577084219589
 30
0.0
 11
14035.44960177461
 21
6187.1577084219589
 31
0.0
  0
LINE
  5
156F9
  8
0-5
  6
CONTINUOUS
 62
     4
 10
16942.770448265059
 20
6187.1577084219589
 30
0.0
 11
16822.770052265059
 21
6395.0041904219597
 31
0.0
  0
LINE
  5
156FA
  8
0-5
  6
CONTINUOUS
 62
     4
 10
16822.770052265059
 20
6395.0041904219597
 30
0.0
 11
17062.768864265061
 21
6395.0041904219597
 31
0.0
  0
TEXT
  5
156FB
  8
0-5
  6
CONTINUOUS
 62
     7
 10
16742.768864265061
 20
6475.0039594219579
 30
0.0
 40
160.0
  1
G.L
 72
     4
 11
16902.768864265061
 21
6555.0039594219579
 31
0.0
  0
LINE
  5
15855
  8
2-0
  6
CENTER2
 62
     6
 10
29403.35319730116
 20
19363.955421421961
 30
0.0
 11
28683.354517301159
 21
19363.955421421961
 31
0.0
  0
LINE
  5
15856
  8
2-0
  6
CENTER2
 62
     6
 10
28523.354517301159
 20
19363.955421421961
 30
0.0
 11
19138.247438349252
 21
19363.955421421961
 31
0.0
  0
LINE
  5
15857
  8
2-0
  6
CENTER2
 62
     6
 10
29403.353197301181
 20
16796.455421421961
 30
0.0
 11
29043.35385730119
 21
16796.455421421961
 31
0.0
  0
LINE
  5
15858
  8
2-0
  6
CENTER2
 62
     6
 10
28533.351878301179
 20
16796.45542142195
 30
0.0
 11
19138.247438349252
 21
16796.455421421961
 31
0.0
  0
LINE
  5
15859
  8
2-0
  6
CENTER2
 62
     6
 10
29403.35319730116
 20
14228.955421421961
 30
0.0
 11
28683.354517301159
 21
14228.955421421961
 31
0.0
  0
LINE
  5
1585A
  8
2-0
  6
CENTER2
 62
     6
 10
28523.354517301159
 20
14228.955421421961
 30
0.0
 11
19138.247438349252
 21
14228.955421421961
 31
0.0
  0
CIRCLE
  5
1585B
  8
0-5
  6
CONTINUOUS
 62
     4
 10
24442.852274301182
 20
21206.456345421939
 30
0.0
 40
199.9999949999999
  0
CIRCLE
  5
1585C
  8
0-5
  6
CONTINUOUS
 62
     4
 10
29603.353857301161
 20
19363.955421421961
 30
0.0
 40
199.9999949999999
  0
CIRCLE
  5
1585D
  8
0-5
  6
CONTINUOUS
 62
     4
 10
29603.353857301168
 20
16796.455421421961
 30
0.0
 40
199.9999949999999
  0
CIRCLE
  5
1585E
  8
0-5
  6
CONTINUOUS
 62
     4
 10
29603.353857301161
 20
14228.955421421961
 30
0.0
 40
199.9999949999999
  0
CIRCLE
  5
1585F
  8
0-5
  6
CONTINUOUS
 62
     4
 10
27360.852274301182
 20
21206.456345421939
 30
0.0
 40
199.9999949999999
  0
TEXT
  5
15860
  8
0-5
  6
CONTINUOUS
 62
     7
 10
24390.855951634509
 20
21120.230495421962
 30
0.0
 40
160.0
  1
2
 72
     4
 11
24444.189284967841
 21
21200.230495421962
 31
0.0
  0
TEXT
  5
15861
  8
0-5
  6
CONTINUOUS
 62
     7
 10
27307.51894096785
 20
21126.456345421939
 30
0.0
 40
160.0
  1
3
 72
     4
 11
27360.852274301182
 21
21206.456345421939
 31
0.0
  0
TEXT
  5
15862
  8
0-5
  6
CONTINUOUS
 62
     7
 10
29545.363552634481
 20
19272.33736242196
 30
0.0
 40
160.0
  1
C
 72
     4
 11
29598.69688596782
 21
19352.33736242196
 31
0.0
  0
TEXT
  5
15863
  8
0-5
  6
CONTINUOUS
 62
     7
 10
29545.363552634481
 20
16704.837363421961
 30
0.0
 40
160.0
  1
B
 72
     4
 11
29598.69688596782
 21
16784.837363421961
 31
0.0
  0
TEXT
  5
15864
  8
0-5
  6
CONTINUOUS
 62
     7
 10
29545.363552634481
 20
14137.33736242194
 30
0.0
 40
160.0
  1
A
 72
     4
 11
29598.69688596782
 21
14217.33736242194
 31
0.0
  0
LINE
  5
15865
  8
2-0
  6
CENTER2
 62
     6
 10
19442.852274301182
 20
21006.45766442196
 30
0.0
 11
19442.852274301182
 21
13871.20154295354
 31
0.0
  0
CIRCLE
  5
15866
  8
0-5
  6
CONTINUOUS
 62
     4
 10
19442.852274301182
 20
21206.456345421939
 30
0.0
 40
199.9999949999999
  0
TEXT
  5
15867
  8
0-5
  6
CONTINUOUS
 62
     7
 10
19417.522618301169
 20
21120.230495421962
 30
0.0
 40
160.0
  1
1
 72
     4
 11
19444.189284967841
 21
21200.230495421962
 31
0.0
  0
ARC
  5
15868
  8
1-後柱P
  6
HIDE-M
 62
     6
 10
19439.25227430118
 20
19295.90542142195
 30
0.0
 40
2.6000000000000001
 50
270.0
 51
0.0
  0
LINE
  5
15869
  8
1-後柱P
  6
HIDE-M
 62
     6
 10
19450.852274301182
 20
19293.85603126877
 30
0.0
 11
19450.852274301182
 21
19297.50542142196
 31
0.0
  0
LINE
  5
1586A
  8
1-後柱P
  6
HIDE-M
 62
     6
 10
19440.852274301182
 20
19293.85603126877
 30
0.0
 11
19440.852274301182
 21
19297.50542142196
 31
0.0
  0
LINE
  5
1586B
  8
1-後柱P
  6
1PL-M
 62
     6
 10
19445.852274301182
 20
19288.305421421948
 30
0.0
 11
19445.852274301182
 21
19302.50542142196
 31
0.0
  0
ARC
  5
1586C
  8
1-後柱P
  6
HIDE-M
 62
     6
 10
19452.45227430118
 20
19295.90542142195
 30
0.0
 40
2.6000000000000001
 50
180.0
 51
270.0
  0
LINE
  5
1586D
  8
1-後柱P
  6
HIDE-M
 62
     6
 10
19441.852274301182
 20
19295.90542142195
 30
0.0
 11
19441.852274301182
 21
19297.50542142196
 31
0.0
  0
LINE
  5
1586E
  8
1-後柱P
  6
HIDE-M
 62
     6
 10
19449.852274301182
 20
19295.90542142195
 30
0.0
 11
19449.852274301182
 21
19297.50542142196
 31
0.0
  0
LINE
  5
1586F
  8
1-後柱P
 10
19431.95227430118
 20
19408.205421421961
 30
0.0
 11
19453.75227430118
 21
19408.205421421961
 31
0.0
  0
LINE
  5
15870
  8
1-後柱P
 10
19483.75227430118
 20
19370.90542142195
 30
0.0
 11
19483.75227430118
 21
19378.205421421961
 31
0.0
  0
ARC
  5
15871
  8
1-後柱P
 10
19453.75227430118
 20
19378.205421421961
 30
0.0
 40
30.0
 50
0.0
 51
90.0
  0
ARC
  5
15872
  8
1-後柱P
 10
19453.75227430118
 20
19378.205421421961
 30
0.0
 40
31.600000000000001
 50
0.0
 51
90.0
  0
LINE
  5
15873
  8
1-後柱P
 10
19431.95227430118
 20
19409.805421421948
 30
0.0
 11
19453.75227430118
 21
19409.805421421948
 31
0.0
  0
LINE
  5
15874
  8
1-後柱P
 10
19485.352274301182
 20
19370.90542142195
 30
0.0
 11
19485.352274301182
 21
19378.205421421961
 31
0.0
  0
LINE
  5
15875
  8
1-後柱P
 10
19462.352274301182
 20
19349.305421421948
 30
0.0
 11
19462.352274301182
 21
19359.305421421948
 31
0.0
  0
LINE
  5
15876
  8
1-後柱P
 10
19460.75227430118
 20
19359.305421421948
 30
0.0
 11
19460.75227430118
 21
19349.305421421948
 31
0.0
  0
LINE
  5
15877
  8
1-後柱P
 10
19401.95227430118
 20
19370.90542142195
 30
0.0
 11
19401.95227430118
 21
19378.205421421961
 31
0.0
  0
ARC
  5
15878
  8
1-後柱P
 10
19431.95227430118
 20
19378.205421421961
 30
0.0
 40
30.0
 50
90.0
 51
180.0
  0
ARC
  5
15879
  8
1-後柱P
 10
19431.95227430118
 20
19378.205421421961
 30
0.0
 40
31.600000000000001
 50
90.0
 51
180.0
  0
LINE
  5
1587A
  8
1-後柱P
 10
19400.352274301182
 20
19370.90542142195
 30
0.0
 11
19400.352274301182
 21
19378.205421421961
 31
0.0
  0
LINE
  5
1587B
  8
1-後柱P
 10
19406.952274301151
 20
19364.305421421959
 30
0.0
 11
19418.352274301182
 21
19364.305421421959
 31
0.0
  0
ARC
  5
1587C
  8
1-後柱P
 10
19406.952274301151
 20
19370.90542142195
 30
0.0
 40
6.599999999999997
 50
180.0
 51
270.0
  0
ARC
  5
1587D
  8
1-後柱P
 10
19418.352274301182
 20
19359.305421421948
 30
0.0
 40
5.0
 50
0.0
 51
90.0
  0
LINE
  5
1587E
  8
1-後柱P
 10
19406.952274301151
 20
19365.90542142195
 30
0.0
 11
19418.352274301182
 21
19365.90542142195
 31
0.0
  0
ARC
  5
1587F
  8
1-後柱P
 10
19406.952274301151
 20
19370.90542142195
 30
0.0
 40
5.0
 50
180.0
 51
270.0
  0
LINE
  5
15880
  8
1-後柱P
 10
19423.352274301182
 20
19359.305421421948
 30
0.0
 11
19423.352274301182
 21
19299.90542142195
 31
0.0
  0
LINE
  5
15881
  8
1-後柱P
 10
19424.95227430118
 20
19359.305421421948
 30
0.0
 11
19424.95227430118
 21
19299.90542142195
 31
0.0
  0
ARC
  5
15882
  8
1-後柱P
 10
19418.352274301182
 20
19359.305421421948
 30
0.0
 40
6.599999999999997
 50
0.0
 51
90.0
  0
LINE
  5
15883
  8
1-後柱P
 10
19429.952274301158
 20
19293.305421421959
 30
0.0
 11
19463.352274301182
 21
19293.305421421959
 31
0.0
  0
ARC
  5
15884
  8
1-後柱P
 10
19429.952274301158
 20
19299.90542142195
 30
0.0
 40
6.599999999999997
 50
180.0
 51
270.0
  0
LINE
  5
15885
  8
1-後柱P
 10
19429.952274301158
 20
19294.90542142195
 30
0.0
 11
19463.352274301182
 21
19294.90542142195
 31
0.0
  0
ARC
  5
15886
  8
1-後柱P
 10
19429.952274301158
 20
19299.90542142195
 30
0.0
 40
5.0
 50
180.0
 51
270.0
  0
LINE
  5
15887
  8
1-後柱P
 10
19463.352274301182
 20
19294.90542142195
 30
0.0
 11
19463.352274301182
 21
19293.305421421959
 31
0.0
  0
LINE
  5
15888
  8
1-後柱P
 10
19478.75227430118
 20
19364.305421421959
 30
0.0
 11
19467.352274301182
 21
19364.305421421959
 31
0.0
  0
ARC
  5
15889
  8
1-後柱P
 10
19478.75227430118
 20
19370.90542142195
 30
0.0
 40
6.599999999999997
 50
270.0
 51
0.0
  0
ARC
  5
1588A
  8
1-後柱P
 10
19467.352274301182
 20
19359.305421421948
 30
0.0
 40
5.0
 50
90.0
 51
180.0
  0
LINE
  5
1588B
  8
1-後柱P
 10
19467.352274301182
 20
19365.90542142195
 30
0.0
 11
19478.75227430118
 21
19365.90542142195
 31
0.0
  0
ARC
  5
1588C
  8
1-後柱P
 10
19467.352274301182
 20
19359.305421421948
 30
0.0
 40
6.599999999999997
 50
90.0
 51
180.0
  0
ARC
  5
1588D
  8
1-後柱P
 10
19478.75227430118
 20
19370.90542142195
 30
0.0
 40
5.0
 50
270.0
 51
0.0
  0
LINE
  5
1588E
  8
1-後柱P
 10
19462.352274301182
 20
19349.305421421948
 30
0.0
 11
19460.75227430118
 21
19349.305421421948
 31
0.0
  0
LINE
  5
1588F
  8
1-後柱カバ-P
 10
19485.352274301182
 20
19357.605421421958
 30
0.0
 11
19485.352274301182
 21
19298.305421421948
 31
0.0
  0
ARC
  5
15890
  8
1-後柱カバ-P
 10
19478.75227430118
 20
19298.305421421948
 30
0.0
 40
6.599999999999997
 50
270.0
 51
0.0
  0
LINE
  5
15891
  8
1-後柱カバ-P
 10
19483.75227430118
 20
19357.605421421958
 30
0.0
 11
19483.75227430118
 21
19298.305421421948
 31
0.0
  0
ARC
  5
15892
  8
1-後柱カバ-P
 10
19478.75227430118
 20
19357.605421421958
 30
0.0
 40
5.0
 50
0.0
 51
90.0
  0
LINE
  5
15893
  8
1-後柱カバ-P
 10
19478.75227430118
 20
19291.705421421961
 30
0.0
 11
19406.952274301151
 21
19291.705421421961
 31
0.0
  0
ARC
  5
15894
  8
1-後柱カバ-P
 10
19406.952274301151
 20
19298.305421421948
 30
0.0
 40
6.599999999999997
 50
180.0
 51
270.0
  0
LINE
  5
15895
  8
1-後柱カバ-P
 10
19478.75227430118
 20
19293.305421421959
 30
0.0
 11
19406.952274301151
 21
19293.305421421959
 31
0.0
  0
ARC
  5
15896
  8
1-後柱カバ-P
 10
19406.952274301151
 20
19298.305421421948
 30
0.0
 40
5.0
 50
180.0
 51
270.0
  0
ARC
  5
15897
  8
1-後柱カバ-P
 10
19478.75227430118
 20
19298.305421421948
 30
0.0
 40
5.0
 50
270.0
 51
0.0
  0
LINE
  5
15898
  8
1-後柱カバ-P
 10
19400.352274301182
 20
19298.305421421948
 30
0.0
 11
19400.352274301182
 21
19357.605421421958
 31
0.0
  0
LINE
  5
15899
  8
1-後柱カバ-P
 10
19401.95227430118
 20
19298.305421421948
 30
0.0
 11
19401.95227430118
 21
19357.605421421958
 31
0.0
  0
ARC
  5
1589A
  8
1-後柱カバ-P
 10
19406.952274301151
 20
19357.605421421958
 30
0.0
 40
5.0
 50
90.0
 51
180.0
  0
LINE
  5
1589B
  8
1-後柱カバ-P
  6
1PL-M
 62
     6
 10
19442.852274301182
 20
19299.205421421961
 30
0.0
 11
19442.852274301182
 21
19286.205421421961
 31
0.0
  0
LINE
  5
1589C
  8
1-後柱カバ-P
  6
HIDE-M
 62
     6
 10
19449.852274301182
 20
19291.705421421961
 30
0.0
 11
19449.852274301182
 21
19293.305421421959
 31
0.0
  0
LINE
  5
1589D
  8
1-後柱カバ-P
  6
HIDE-M
 62
     6
 10
19435.852274301182
 20
19291.705421421961
 30
0.0
 11
19435.852274301182
 21
19293.305421421959
 31
0.0
  0
ARC
  5
1589E
  8
1-後柱カバ-P
 10
19478.75227430118
 20
19357.605421421958
 30
0.0
 40
6.599999999999997
 50
0.0
 51
90.0
  0
ARC
  5
1589F
  8
1-後柱カバ-P
 10
19406.952274301151
 20
19357.605421421958
 30
0.0
 40
6.599999999999997
 50
90.0
 51
180.0
  0
LINE
  5
158A0
  8
1-後柱カバ-P
 10
19415.352274301182
 20
19364.205421421961
 30
0.0
 11
19406.952274301151
 21
19364.205421421961
 31
0.0
  0
LINE
  5
158A1
  8
1-後柱カバ-P
 10
19470.352274301182
 20
19364.205421421961
 30
0.0
 11
19478.75227430118
 21
19364.205421421961
 31
0.0
  0
LINE
  5
158A2
  8
1-後柱カバ-P
 10
19415.352274301182
 20
19362.605421421958
 30
0.0
 11
19406.952274301151
 21
19362.605421421958
 31
0.0
  0
LINE
  5
158A3
  8
1-後柱カバ-P
 10
19470.352274301182
 20
19362.605421421958
 30
0.0
 11
19478.75227430118
 21
19362.605421421958
 31
0.0
  0
LINE
  5
158A4
  8
1-後柱カバ-P
 10
19470.352274301182
 20
19362.605421421958
 30
0.0
 11
19470.352274301182
 21
19364.205421421961
 31
0.0
  0
LINE
  5
158A5
  8
1-後柱カバ-P
 10
19415.352274301182
 20
19364.205421421961
 30
0.0
 11
19415.352274301182
 21
19362.605421421958
 31
0.0
  0
LINE
  5
158A6
  8
1-後柱カバ-P
  6
HIDE-M
 62
     6
 10
19411.452274301158
 20
19343.205421421939
 30
0.0
 11
19399.852274301182
 21
19343.205421421939
 31
0.0
  0
LINE
  5
158A7
  8
1-後柱カバ-P
  6
HIDE-M
 62
     6
 10
19411.452274301158
 20
19335.205421421939
 30
0.0
 11
19399.852274301182
 21
19335.205421421939
 31
0.0
  0
LINE
  5
158A8
  8
1-後柱カバ-P
  6
HIDE-M
 62
     6
 10
19411.452274301158
 20
19342.205421421961
 30
0.0
 11
19399.852274301182
 21
19342.205421421961
 31
0.0
  0
LINE
  5
158A9
  8
1-後柱カバ-P
  6
HIDE-M
 62
     6
 10
19411.452274301158
 20
19336.20542142195
 30
0.0
 11
19399.852274301182
 21
19336.20542142195
 31
0.0
  0
LINE
  5
158AA
  8
1-後柱カバ-P
 10
19410.45227430118
 20
19333.705421421961
 30
0.0
 11
19403.45227430118
 21
19333.705421421961
 31
0.0
  0
LINE
  5
158AB
  8
1-後柱カバ-P
 10
19403.45227430118
 20
19344.70542142195
 30
0.0
 11
19410.45227430118
 21
19344.70542142195
 31
0.0
  0
LINE
  5
158AC
  8
1-後柱カバ-P
 10
19403.45227430118
 20
19345.45542142195
 30
0.0
 11
19403.45227430118
 21
19332.955421421961
 31
0.0
  0
LINE
  5
158AD
  8
1-後柱カバ-P
 10
19399.852274301182
 20
19345.205421421961
 30
0.0
 11
19399.852274301182
 21
19333.20542142195
 31
0.0
  0
LINE
  5
158AE
  8
1-後柱カバ-P
  6
HIDE-M
 62
     6
 10
19401.95227430118
 20
19333.705421421961
 30
0.0
 11
19400.352274301182
 21
19333.705421421961
 31
0.0
  0
LINE
  5
158AF
  8
1-後柱カバ-P
 10
19399.852274301182
 20
19333.20542142195
 30
0.0
 11
19400.352274301182
 21
19333.705421421961
 31
0.0
  0
ARC
  5
158B0
  8
1-後柱カバ-P
 10
19402.70227430118
 20
19332.955421421961
 30
0.0
 40
0.75
 50
180.0
 51
0.0
  0
LINE
  5
158B1
  8
1-後柱カバ-P
  6
HIDE-M
 62
     6
 10
19400.352274301182
 20
19344.70542142195
 30
0.0
 11
19401.95227430118
 21
19344.70542142195
 31
0.0
  0
LINE
  5
158B2
  8
1-後柱カバ-P
 10
19399.852274301182
 20
19345.205421421961
 30
0.0
 11
19400.352274301182
 21
19344.70542142195
 31
0.0
  0
ARC
  5
158B3
  8
1-後柱カバ-P
 10
19402.70227430118
 20
19345.45542142195
 30
0.0
 40
0.75
 50
0.0
 51
180.0
  0
LINE
  5
158B4
  8
1-後柱カバ-P
 10
19411.452274301158
 20
19343.70542142195
 30
0.0
 11
19411.452274301158
 21
19334.705421421961
 31
0.0
  0
ARC
  5
158B5
  8
1-後柱カバ-P
 10
19410.45227430118
 20
19334.705421421961
 30
0.0
 40
1.0
 50
270.0
 51
0.0
  0
ARC
  5
158B6
  8
1-後柱カバ-P
 10
19410.45227430118
 20
19343.70542142195
 30
0.0
 40
1.0
 50
0.0
 51
90.0
  0
LINE
  5
158B7
  8
1-後柱カバ-P
  6
1PL-M
 62
     6
 10
19416.452274301151
 20
19339.205421421961
 30
0.0
 11
19394.852274301182
 21
19339.205421421961
 31
0.0
  0
LINE
  5
158B8
  8
1-後柱カバ-P
 10
19410.45227430118
 20
19323.70542142195
 30
0.0
 11
19403.45227430118
 21
19323.70542142195
 31
0.0
  0
LINE
  5
158B9
  8
1-後柱カバ-P
 10
19399.852274301182
 20
19331.20542142195
 30
0.0
 11
19399.852274301182
 21
19323.205421421961
 31
0.0
  0
LINE
  5
158BA
  8
1-後柱カバ-P
  6
HIDE-M
 62
     6
 10
19401.95227430118
 20
19323.70542142195
 30
0.0
 11
19400.352274301182
 21
19323.70542142195
 31
0.0
  0
LINE
  5
158BB
  8
1-後柱カバ-P
 10
19399.852274301182
 20
19323.205421421961
 30
0.0
 11
19400.352274301182
 21
19323.70542142195
 31
0.0
  0
ARC
  5
158BC
  8
1-後柱カバ-P
 10
19402.70227430118
 20
19322.955421421961
 30
0.0
 40
0.75
 50
180.0
 51
0.0
  0
LINE
  5
158BD
  8
1-後柱カバ-P
 10
19411.452274301158
 20
19332.705421421961
 30
0.0
 11
19411.452274301158
 21
19324.705421421961
 31
0.0
  0
ARC
  5
158BE
  8
1-後柱カバ-P
 10
19410.45227430118
 20
19324.705421421961
 30
0.0
 40
1.0
 50
270.0
 51
0.0
  0
LINE
  5
158BF
  8
1-後柱カバ-P
  6
1PL-M
 62
     6
 10
19416.452274301151
 20
19329.205421421961
 30
0.0
 11
19394.852274301182
 21
19329.205421421961
 31
0.0
  0
LINE
  5
158C0
  8
1-後柱カバ-P
 10
19403.45227430118
 20
19330.95542142195
 30
0.0
 11
19403.45227430118
 21
19322.955421421961
 31
0.0
  0
LINE
  5
158C1
  8
1-後柱カバ-P
  6
HIDE-M
 62
     6
 10
19474.25227430118
 20
19343.205421421939
 30
0.0
 11
19485.852274301182
 21
19343.205421421939
 31
0.0
  0
LINE
  5
158C2
  8
1-後柱カバ-P
  6
HIDE-M
 62
     6
 10
19474.25227430118
 20
19335.205421421939
 30
0.0
 11
19485.852274301182
 21
19335.205421421939
 31
0.0
  0
LINE
  5
158C3
  8
1-後柱カバ-P
  6
HIDE-M
 62
     6
 10
19474.25227430118
 20
19342.205421421961
 30
0.0
 11
19485.852274301182
 21
19342.205421421961
 31
0.0
  0
LINE
  5
158C4
  8
1-後柱カバ-P
  6
HIDE-M
 62
     6
 10
19474.25227430118
 20
19336.20542142195
 30
0.0
 11
19485.852274301182
 21
19336.20542142195
 31
0.0
  0
LINE
  5
158C5
  8
1-後柱カバ-P
 10
19475.25227430118
 20
19333.705421421961
 30
0.0
 11
19482.25227430118
 21
19333.705421421961
 31
0.0
  0
LINE
  5
158C6
  8
1-後柱カバ-P
 10
19482.25227430118
 20
19344.70542142195
 30
0.0
 11
19475.25227430118
 21
19344.70542142195
 31
0.0
  0
LINE
  5
158C7
  8
1-後柱カバ-P
 10
19482.25227430118
 20
19345.45542142195
 30
0.0
 11
19482.25227430118
 21
19332.955421421961
 31
0.0
  0
LINE
  5
158C8
  8
1-後柱カバ-P
 10
19485.852274301182
 20
19345.205421421961
 30
0.0
 11
19485.852274301182
 21
19333.20542142195
 31
0.0
  0
LINE
  5
158C9
  8
1-後柱カバ-P
  6
HIDE-M
 62
     6
 10
19483.75227430118
 20
19333.705421421961
 30
0.0
 11
19485.352274301182
 21
19333.705421421961
 31
0.0
  0
LINE
  5
158CA
  8
1-後柱カバ-P
 10
19485.852274301182
 20
19333.20542142195
 30
0.0
 11
19485.352274301182
 21
19333.705421421961
 31
0.0
  0
ARC
  5
158CB
  8
1-後柱カバ-P
 10
19483.00227430118
 20
19332.955421421961
 30
0.0
 40
0.75
 50
180.0
 51
0.0
  0
LINE
  5
158CC
  8
1-後柱カバ-P
  6
HIDE-M
 62
     6
 10
19485.352274301182
 20
19344.70542142195
 30
0.0
 11
19483.75227430118
 21
19344.70542142195
 31
0.0
  0
LINE
  5
158CD
  8
1-後柱カバ-P
 10
19485.852274301182
 20
19345.205421421961
 30
0.0
 11
19485.352274301182
 21
19344.70542142195
 31
0.0
  0
ARC
  5
158CE
  8
1-後柱カバ-P
 10
19483.00227430118
 20
19345.45542142195
 30
0.0
 40
0.75
 50
0.0
 51
180.0
  0
LINE
  5
158CF
  8
1-後柱カバ-P
 10
19474.25227430118
 20
19343.70542142195
 30
0.0
 11
19474.25227430118
 21
19334.705421421961
 31
0.0
  0
ARC
  5
158D0
  8
1-後柱カバ-P
 10
19475.25227430118
 20
19334.705421421961
 30
0.0
 40
1.0
 50
180.0
 51
270.0
  0
ARC
  5
158D1
  8
1-後柱カバ-P
 10
19475.25227430118
 20
19343.70542142195
 30
0.0
 40
1.0
 50
90.0
 51
180.0
  0
LINE
  5
158D2
  8
1-後柱カバ-P
  6
1PL-M
 62
     6
 10
19469.25227430118
 20
19339.205421421961
 30
0.0
 11
19490.852274301189
 21
19339.205421421961
 31
0.0
  0
LINE
  5
158D3
  8
1-後柱カバ-P
 10
19475.25227430118
 20
19323.70542142195
 30
0.0
 11
19482.25227430118
 21
19323.70542142195
 31
0.0
  0
LINE
  5
158D4
  8
1-後柱カバ-P
 10
19485.852274301182
 20
19331.20542142195
 30
0.0
 11
19485.852274301182
 21
19323.205421421961
 31
0.0
  0
LINE
  5
158D5
  8
1-後柱カバ-P
  6
HIDE-M
 62
     6
 10
19483.75227430118
 20
19323.70542142195
 30
0.0
 11
19485.352274301182
 21
19323.70542142195
 31
0.0
  0
LINE
  5
158D6
  8
1-後柱カバ-P
 10
19485.852274301182
 20
19323.205421421961
 30
0.0
 11
19485.352274301182
 21
19323.70542142195
 31
0.0
  0
ARC
  5
158D7
  8
1-後柱カバ-P
 10
19483.00227430118
 20
19322.955421421961
 30
0.0
 40
0.75
 50
180.0
 51
0.0
  0
LINE
  5
158D8
  8
1-後柱カバ-P
 10
19474.25227430118
 20
19332.705421421961
 30
0.0
 11
19474.25227430118
 21
19324.705421421961
 31
0.0
  0
ARC
  5
158D9
  8
1-後柱カバ-P
 10
19475.25227430118
 20
19324.705421421961
 30
0.0
 40
1.0
 50
180.0
 51
270.0
  0
LINE
  5
158DA
  8
1-後柱カバ-P
  6
1PL-M
 62
     6
 10
19469.25227430118
 20
19329.205421421961
 30
0.0
 11
19490.852274301189
 21
19329.205421421961
 31
0.0
  0
LINE
  5
158DB
  8
1-後柱カバ-P
 10
19482.25227430118
 20
19330.95542142195
 30
0.0
 11
19482.25227430118
 21
19322.955421421961
 31
0.0
  0
LINE
  5
158DC
  8
1-後柱カバ-P
  6
HIDE-M
 62
     6
 10
19411.452274301158
 20
19325.205421421961
 30
0.0
 11
19399.852274301182
 21
19325.205421421961
 31
0.0
  0
LINE
  5
158DD
  8
1-後柱カバ-P
  6
HIDE-M
 62
     6
 10
19411.452274301158
 20
19326.205421421961
 30
0.0
 11
19399.852274301182
 21
19326.205421421961
 31
0.0
  0
LINE
  5
158DE
  8
1-後柱カバ-P
  6
HIDE-M
 62
     6
 10
19474.25227430118
 20
19325.205421421961
 30
0.0
 11
19485.852274301182
 21
19325.205421421961
 31
0.0
  0
LINE
  5
158DF
  8
1-後柱カバ-P
  6
HIDE-M
 62
     6
 10
19474.25227430118
 20
19326.205421421961
 30
0.0
 11
19485.852274301182
 21
19326.205421421961
 31
0.0
  0
LINE
  5
158E0
  8
1-中柱P
 10
19406.952274301191
 20
16725.45542142195
 30
0.0
 11
19478.75227430119
 21
16725.45542142195
 31
0.0
  0
ARC
  5
158E1
  8
1-中柱P
 10
19406.952274301191
 20
16730.45542142195
 30
0.0
 40
5.0
 50
180.0
 51
270.0
  0
ARC
  5
158E2
  8
1-中柱P
 10
19478.75227430119
 20
16730.45542142195
 30
0.0
 40
5.0
 50
270.0
 51
0.0
  0
LINE
  5
158E3
  8
1-中柱P
 10
19406.952274301191
 20
16723.855421421958
 30
0.0
 11
19478.75227430119
 21
16723.855421421958
 31
0.0
  0
ARC
  5
158E4
  8
1-中柱P
 10
19406.952274301191
 20
16730.45542142195
 30
0.0
 40
6.599999999999997
 50
180.0
 51
270.0
  0
LINE
  5
158E5
  8
1-中柱P
 10
19485.352274301182
 20
16789.75542142196
 30
0.0
 11
19485.352274301182
 21
16730.45542142195
 31
0.0
  0
ARC
  5
158E6
  8
1-中柱P
 10
19478.75227430119
 20
16730.45542142195
 30
0.0
 40
6.599999999999997
 50
270.0
 51
0.0
  0
LINE
  5
158E7
  8
1-中柱P
 10
19483.75227430119
 20
16730.45542142195
 30
0.0
 11
19483.75227430119
 21
16789.75542142196
 31
0.0
  0
ARC
  5
158E8
  8
1-中柱P
 10
19478.75227430119
 20
16789.75542142196
 30
0.0
 40
5.0
 50
0.0
 51
90.0
  0
LINE
  5
158E9
  8
1-中柱P
 10
19400.352274301182
 20
16789.75542142196
 30
0.0
 11
19400.352274301182
 21
16730.45542142195
 31
0.0
  0
LINE
  5
158EA
  8
1-中柱P
 10
19401.952274301191
 20
16730.45542142195
 30
0.0
 11
19401.952274301191
 21
16789.75542142196
 31
0.0
  0
LINE
  5
158EB
  8
1-中柱P
 10
19406.952274301191
 20
16796.355421421958
 30
0.0
 11
19415.352274301182
 21
16796.355421421958
 31
0.0
  0
ARC
  5
158EC
  8
1-中柱P
 10
19406.952274301191
 20
16789.75542142196
 30
0.0
 40
6.599999999999997
 50
90.0
 51
180.0
  0
LINE
  5
158ED
  8
1-中柱P
 10
19406.952274301191
 20
16794.75542142196
 30
0.0
 11
19415.352274301182
 21
16794.75542142196
 31
0.0
  0
ARC
  5
158EE
  8
1-中柱P
 10
19415.352274301182
 20
16801.355421421951
 30
0.0
 40
6.599999999999997
 50
270.0
 51
0.0
  0
ARC
  5
158EF
  8
1-中柱P
 10
19406.952274301191
 20
16789.75542142196
 30
0.0
 40
5.0
 50
90.0
 51
180.0
  0
LINE
  5
158F0
  8
1-中柱P
 10
19420.352274301182
 20
16801.355421421951
 30
0.0
 11
19420.352274301182
 21
16860.755421421949
 31
0.0
  0
ARC
  5
158F1
  8
1-中柱P
 10
19415.352274301182
 20
16801.355421421951
 30
0.0
 40
5.0
 50
270.0
 51
0.0
  0
LINE
  5
158F2
  8
1-中柱P
 10
19421.952274301191
 20
16801.355421421951
 30
0.0
 11
19421.952274301191
 21
16860.755421421949
 31
0.0
  0
LINE
  5
158F3
  8
1-中柱P
 10
19426.952274301191
 20
16867.355421421951
 30
0.0
 11
19460.352274301189
 21
16867.355421421951
 31
0.0
  0
ARC
  5
158F4
  8
1-中柱P
 10
19426.952274301191
 20
16860.755421421949
 30
0.0
 40
6.599999999999997
 50
90.0
 51
180.0
  0
LINE
  5
158F5
  8
1-中柱P
 10
19426.952274301191
 20
16865.75542142196
 30
0.0
 11
19460.352274301189
 21
16865.75542142196
 31
0.0
  0
ARC
  5
158F6
  8
1-中柱P
 10
19426.952274301191
 20
16860.755421421949
 30
0.0
 40
5.0
 50
90.0
 51
180.0
  0
LINE
  5
158F7
  8
1-中柱P
 10
19460.352274301189
 20
16865.75542142196
 30
0.0
 11
19460.352274301189
 21
16867.355421421951
 31
0.0
  0
LINE
  5
158F8
  8
1-中柱P
 10
19478.75227430119
 20
16796.355421421958
 30
0.0
 11
19470.352274301182
 21
16796.355421421958
 31
0.0
  0
ARC
  5
158F9
  8
1-中柱P
 10
19478.75227430119
 20
16789.75542142196
 30
0.0
 40
6.599999999999997
 50
0.0
 51
90.0
  0
ARC
  5
158FA
  8
1-中柱P
 10
19470.352274301182
 20
16801.355421421951
 30
0.0
 40
5.0
 50
180.0
 51
270.0
  0
LINE
  5
158FB
  8
1-中柱P
 10
19470.352274301182
 20
16794.75542142196
 30
0.0
 11
19478.75227430119
 21
16794.75542142196
 31
0.0
  0
ARC
  5
158FC
  8
1-中柱P
 10
19470.352274301182
 20
16801.355421421951
 30
0.0
 40
6.599999999999997
 50
180.0
 51
270.0
  0
ARC
  5
158FD
  8
1-中柱P
  6
HIDE-M
 62
     6
 10
19436.25227430119
 20
16864.755421421949
 30
0.0
 40
2.6000000000000001
 50
0.0
 51
90.0
  0
LINE
  5
158FE
  8
1-中柱P
  6
HIDE-M
 62
     6
 10
19447.852274301182
 20
16866.804811575152
 30
0.0
 11
19447.852274301182
 21
16863.155421421961
 31
0.0
  0
LINE
  5
158FF
  8
1-中柱P
  6
HIDE-M
 62
     6
 10
19437.852274301182
 20
16866.804811575152
 30
0.0
 11
19437.852274301182
 21
16863.155421421961
 31
0.0
  0
LINE
  5
15900
  8
1-中柱P
  6
1PL-M
 62
     6
 10
19442.852274301182
 20
16872.355421421951
 30
0.0
 11
19442.852274301182
 21
16858.155421421961
 31
0.0
  0
ARC
  5
15901
  8
1-中柱P
  6
HIDE-M
 62
     6
 10
19449.452274301191
 20
16864.755421421949
 30
0.0
 40
2.6000000000000001
 50
90.0
 51
180.0
  0
LINE
  5
15902
  8
1-中柱P
  6
HIDE-M
 62
     6
 10
19438.852274301182
 20
16864.755421421949
 30
0.0
 11
19438.852274301182
 21
16863.155421421961
 31
0.0
  0
LINE
  5
15903
  8
1-中柱P
  6
HIDE-M
 62
     6
 10
19446.852274301182
 20
16864.755421421949
 30
0.0
 11
19446.852274301182
 21
16863.155421421961
 31
0.0
  0
LINE
  5
15904
  8
1-中柱P
 10
19463.75227430119
 20
16801.355421421951
 30
0.0
 11
19463.75227430119
 21
16811.355421421969
 31
0.0
  0
LINE
  5
15905
  8
1-中柱P
 10
19465.352274301182
 20
16801.355421421951
 30
0.0
 11
19465.352274301182
 21
16811.355421421969
 31
0.0
  0
LINE
  5
15906
  8
1-中柱P
 10
19463.75227430119
 20
16811.355421421969
 30
0.0
 11
19465.352274301182
 21
16811.355421421969
 31
0.0
  0
LINE
  5
15907
  8
1-中柱P
  6
1PL-M
 62
     6
 10
19415.352274301182
 20
16832.355421421951
 30
0.0
 11
19429.552274301161
 21
16832.355421421951
 31
0.0
  0
LINE
  5
15908
  8
1-中柱P
  6
HIDE-M
 62
     6
 10
19411.452274301191
 20
16775.355421421951
 30
0.0
 11
19399.852274301182
 21
16775.355421421951
 31
0.0
  0
LINE
  5
15909
  8
1-中柱P
  6
HIDE-M
 62
     6
 10
19411.452274301191
 20
16767.355421421951
 30
0.0
 11
19399.852274301182
 21
16767.355421421951
 31
0.0
  0
LINE
  5
1590A
  8
1-中柱P
  6
HIDE-M
 62
     6
 10
19411.452274301191
 20
16774.355421421958
 30
0.0
 11
19399.852274301182
 21
16774.355421421958
 31
0.0
  0
LINE
  5
1590B
  8
1-中柱P
  6
HIDE-M
 62
     6
 10
19411.452274301191
 20
16768.355421421951
 30
0.0
 11
19399.852274301182
 21
16768.355421421951
 31
0.0
  0
LINE
  5
1590C
  8
1-中柱P
 10
19410.452274301191
 20
16765.855421421958
 30
0.0
 11
19403.452274301191
 21
16765.855421421958
 31
0.0
  0
LINE
  5
1590D
  8
1-中柱P
 10
19403.452274301191
 20
16776.855421421951
 30
0.0
 11
19410.452274301191
 21
16776.855421421951
 31
0.0
  0
LINE
  5
1590E
  8
1-中柱P
 10
19403.452274301191
 20
16777.605421421951
 30
0.0
 11
19403.452274301191
 21
16765.105421421951
 31
0.0
  0
LINE
  5
1590F
  8
1-中柱P
 10
19399.852274301182
 20
16777.355421421958
 30
0.0
 11
19399.852274301182
 21
16765.355421421951
 31
0.0
  0
LINE
  5
15910
  8
1-中柱P
  6
HIDE-M
 62
     6
 10
19401.952274301191
 20
16765.855421421958
 30
0.0
 11
19400.352274301182
 21
16765.855421421958
 31
0.0
  0
LINE
  5
15911
  8
1-中柱P
 10
19399.852274301182
 20
16765.355421421951
 30
0.0
 11
19400.352274301182
 21
16765.855421421958
 31
0.0
  0
ARC
  5
15912
  8
1-中柱P
 10
19402.702274301191
 20
16765.105421421951
 30
0.0
 40
0.75
 50
180.0
 51
0.0
  0
LINE
  5
15913
  8
1-中柱P
  6
HIDE-M
 62
     6
 10
19400.352274301182
 20
16776.855421421951
 30
0.0
 11
19401.952274301191
 21
16776.855421421951
 31
0.0
  0
LINE
  5
15914
  8
1-中柱P
 10
19399.852274301182
 20
16777.355421421958
 30
0.0
 11
19400.352274301182
 21
16776.855421421951
 31
0.0
  0
ARC
  5
15915
  8
1-中柱P
 10
19402.702274301191
 20
16777.605421421951
 30
0.0
 40
0.75
 50
0.0
 51
180.0
  0
LINE
  5
15916
  8
1-中柱P
 10
19411.452274301191
 20
16775.855421421951
 30
0.0
 11
19411.452274301191
 21
16766.855421421958
 31
0.0
  0
ARC
  5
15917
  8
1-中柱P
 10
19410.452274301191
 20
16766.855421421958
 30
0.0
 40
1.0
 50
270.0
 51
0.0
  0
ARC
  5
15918
  8
1-中柱P
 10
19410.452274301191
 20
16775.855421421951
 30
0.0
 40
1.0
 50
0.0
 51
90.0
  0
LINE
  5
15919
  8
1-中柱P
  6
1PL-M
 62
     6
 10
19416.452274301191
 20
16771.355421421951
 30
0.0
 11
19394.852274301182
 21
16771.355421421951
 31
0.0
  0
LINE
  5
1591A
  8
1-中柱P
 10
19410.452274301191
 20
16755.855421421951
 30
0.0
 11
19403.452274301191
 21
16755.855421421951
 31
0.0
  0
LINE
  5
1591B
  8
1-中柱P
 10
19399.852274301182
 20
16763.355421421951
 30
0.0
 11
19399.852274301182
 21
16755.355421421958
 31
0.0
  0
LINE
  5
1591C
  8
1-中柱P
  6
HIDE-M
 62
     6
 10
19401.952274301191
 20
16755.855421421951
 30
0.0
 11
19400.352274301182
 21
16755.855421421951
 31
0.0
  0
LINE
  5
1591D
  8
1-中柱P
 10
19399.852274301182
 20
16755.355421421958
 30
0.0
 11
19400.352274301182
 21
16755.855421421951
 31
0.0
  0
ARC
  5
1591E
  8
1-中柱P
 10
19402.702274301191
 20
16755.105421421951
 30
0.0
 40
0.75
 50
180.0
 51
0.0
  0
LINE
  5
1591F
  8
1-中柱P
 10
19411.452274301191
 20
16764.855421421958
 30
0.0
 11
19411.452274301191
 21
16756.855421421951
 31
0.0
  0
ARC
  5
15920
  8
1-中柱P
 10
19410.452274301191
 20
16756.855421421951
 30
0.0
 40
1.0
 50
270.0
 51
0.0
  0
LINE
  5
15921
  8
1-中柱P
  6
1PL-M
 62
     6
 10
19416.452274301191
 20
16761.355421421951
 30
0.0
 11
19394.852274301182
 21
16761.355421421951
 31
0.0
  0
LINE
  5
15922
  8
1-中柱P
 10
19403.452274301191
 20
16763.105421421951
 30
0.0
 11
19403.452274301191
 21
16755.105421421951
 31
0.0
  0
LINE
  5
15923
  8
1-中柱P
  6
HIDE-M
 62
     6
 10
19411.452274301191
 20
16757.355421421951
 30
0.0
 11
19399.852274301182
 21
16757.355421421951
 31
0.0
  0
LINE
  5
15924
  8
1-中柱P
  6
HIDE-M
 62
     6
 10
19411.452274301191
 20
16758.355421421958
 30
0.0
 11
19399.852274301182
 21
16758.355421421958
 31
0.0
  0
LINE
  5
15925
  8
1-中柱P
  6
HIDE-M
 62
     6
 10
19474.25227430119
 20
16775.355421421951
 30
0.0
 11
19485.852274301182
 21
16775.355421421951
 31
0.0
  0
LINE
  5
15926
  8
1-中柱P
  6
HIDE-M
 62
     6
 10
19474.25227430119
 20
16767.355421421951
 30
0.0
 11
19485.852274301182
 21
16767.355421421951
 31
0.0
  0
LINE
  5
15927
  8
1-中柱P
  6
HIDE-M
 62
     6
 10
19474.25227430119
 20
16774.355421421958
 30
0.0
 11
19485.852274301182
 21
16774.355421421958
 31
0.0
  0
LINE
  5
15928
  8
1-中柱P
  6
HIDE-M
 62
     6
 10
19474.25227430119
 20
16768.355421421951
 30
0.0
 11
19485.852274301182
 21
16768.355421421951
 31
0.0
  0
LINE
  5
15929
  8
1-中柱P
 10
19475.25227430119
 20
16765.855421421958
 30
0.0
 11
19482.25227430119
 21
16765.855421421958
 31
0.0
  0
LINE
  5
1592A
  8
1-中柱P
 10
19482.25227430119
 20
16776.855421421951
 30
0.0
 11
19475.25227430119
 21
16776.855421421951
 31
0.0
  0
LINE
  5
1592B
  8
1-中柱P
 10
19482.25227430119
 20
16777.605421421951
 30
0.0
 11
19482.25227430119
 21
16765.105421421951
 31
0.0
  0
LINE
  5
1592C
  8
1-中柱P
 10
19485.852274301182
 20
16777.355421421958
 30
0.0
 11
19485.852274301182
 21
16765.355421421951
 31
0.0
  0
LINE
  5
1592D
  8
1-中柱P
  6
HIDE-M
 62
     6
 10
19483.75227430119
 20
16765.855421421958
 30
0.0
 11
19485.352274301182
 21
16765.855421421958
 31
0.0
  0
LINE
  5
1592E
  8
1-中柱P
 10
19485.852274301182
 20
16765.355421421951
 30
0.0
 11
19485.352274301182
 21
16765.855421421958
 31
0.0
  0
ARC
  5
1592F
  8
1-中柱P
 10
19483.00227430119
 20
16765.105421421951
 30
0.0
 40
0.75
 50
180.0
 51
0.0
  0
LINE
  5
15930
  8
1-中柱P
  6
HIDE-M
 62
     6
 10
19485.352274301182
 20
16776.855421421951
 30
0.0
 11
19483.75227430119
 21
16776.855421421951
 31
0.0
  0
LINE
  5
15931
  8
1-中柱P
 10
19485.852274301182
 20
16777.355421421958
 30
0.0
 11
19485.352274301182
 21
16776.855421421951
 31
0.0
  0
ARC
  5
15932
  8
1-中柱P
 10
19483.00227430119
 20
16777.605421421951
 30
0.0
 40
0.75
 50
0.0
 51
180.0
  0
LINE
  5
15933
  8
1-中柱P
 10
19474.25227430119
 20
16775.855421421951
 30
0.0
 11
19474.25227430119
 21
16766.855421421958
 31
0.0
  0
ARC
  5
15934
  8
1-中柱P
 10
19475.25227430119
 20
16766.855421421958
 30
0.0
 40
1.0
 50
180.0
 51
270.0
  0
ARC
  5
15935
  8
1-中柱P
 10
19475.25227430119
 20
16775.855421421951
 30
0.0
 40
1.0
 50
90.0
 51
180.0
  0
LINE
  5
15936
  8
1-中柱P
  6
1PL-M
 62
     6
 10
19469.25227430119
 20
16771.355421421951
 30
0.0
 11
19490.852274301189
 21
16771.355421421951
 31
0.0
  0
LINE
  5
15937
  8
1-中柱P
 10
19475.25227430119
 20
16755.855421421951
 30
0.0
 11
19482.25227430119
 21
16755.855421421951
 31
0.0
  0
LINE
  5
15938
  8
1-中柱P
 10
19485.852274301182
 20
16763.355421421951
 30
0.0
 11
19485.852274301182
 21
16755.355421421958
 31
0.0
  0
LINE
  5
15939
  8
1-中柱P
  6
HIDE-M
 62
     6
 10
19483.75227430119
 20
16755.855421421951
 30
0.0
 11
19485.352274301182
 21
16755.855421421951
 31
0.0
  0
LINE
  5
1593A
  8
1-中柱P
 10
19485.852274301182
 20
16755.355421421958
 30
0.0
 11
19485.352274301182
 21
16755.855421421951
 31
0.0
  0
ARC
  5
1593B
  8
1-中柱P
 10
19483.00227430119
 20
16755.105421421951
 30
0.0
 40
0.75
 50
180.0
 51
0.0
  0
LINE
  5
1593C
  8
1-中柱P
 10
19474.25227430119
 20
16764.855421421958
 30
0.0
 11
19474.25227430119
 21
16756.855421421951
 31
0.0
  0
ARC
  5
1593D
  8
1-中柱P
 10
19475.25227430119
 20
16756.855421421951
 30
0.0
 40
1.0
 50
180.0
 51
270.0
  0
LINE
  5
1593E
  8
1-中柱P
  6
1PL-M
 62
     6
 10
19469.25227430119
 20
16761.355421421951
 30
0.0
 11
19490.852274301189
 21
16761.355421421951
 31
0.0
  0
LINE
  5
1593F
  8
1-中柱P
 10
19482.25227430119
 20
16763.105421421951
 30
0.0
 11
19482.25227430119
 21
16755.105421421951
 31
0.0
  0
LINE
  5
15940
  8
1-中柱P
  6
HIDE-M
 62
     6
 10
19474.25227430119
 20
16757.355421421951
 30
0.0
 11
19485.852274301182
 21
16757.355421421951
 31
0.0
  0
LINE
  5
15941
  8
1-中柱P
  6
HIDE-M
 62
     6
 10
19474.25227430119
 20
16758.355421421958
 30
0.0
 11
19485.852274301182
 21
16758.355421421958
 31
0.0
  0
LINE
  5
15942
  8
1-中柱カバ-P
 10
19485.352274301182
 20
16803.055421421948
 30
0.0
 11
19485.352274301182
 21
16862.355421421951
 31
0.0
  0
ARC
  5
15943
  8
1-中柱カバ-P
 10
19478.75227430119
 20
16862.355421421951
 30
0.0
 40
6.599999999999997
 50
0.0
 51
90.0
  0
LINE
  5
15944
  8
1-中柱カバ-P
 10
19483.75227430119
 20
16803.055421421948
 30
0.0
 11
19483.75227430119
 21
16862.355421421951
 31
0.0
  0
ARC
  5
15945
  8
1-中柱カバ-P
 10
19478.75227430119
 20
16803.055421421948
 30
0.0
 40
5.0
 50
270.0
 51
0.0
  0
LINE
  5
15946
  8
1-中柱カバ-P
 10
19478.75227430119
 20
16868.955421421961
 30
0.0
 11
19406.952274301191
 21
16868.955421421961
 31
0.0
  0
ARC
  5
15947
  8
1-中柱カバ-P
 10
19406.952274301191
 20
16862.355421421951
 30
0.0
 40
6.599999999999997
 50
90.0
 51
180.0
  0
LINE
  5
15948
  8
1-中柱カバ-P
 10
19478.75227430119
 20
16867.355421421951
 30
0.0
 11
19406.952274301191
 21
16867.355421421951
 31
0.0
  0
ARC
  5
15949
  8
1-中柱カバ-P
 10
19406.952274301191
 20
16862.355421421951
 30
0.0
 40
5.0
 50
90.0
 51
180.0
  0
ARC
  5
1594A
  8
1-中柱カバ-P
 10
19478.75227430119
 20
16862.355421421951
 30
0.0
 40
5.0
 50
0.0
 51
90.0
  0
LINE
  5
1594B
  8
1-中柱カバ-P
 10
19400.352274301182
 20
16862.355421421951
 30
0.0
 11
19400.352274301182
 21
16803.055421421948
 31
0.0
  0
LINE
  5
1594C
  8
1-中柱カバ-P
 10
19401.952274301191
 20
16862.355421421951
 30
0.0
 11
19401.952274301191
 21
16803.055421421948
 31
0.0
  0
ARC
  5
1594D
  8
1-中柱カバ-P
 10
19406.952274301191
 20
16803.055421421948
 30
0.0
 40
5.0
 50
180.0
 51
270.0
  0
LINE
  5
1594E
  8
1-中柱カバ-P
  6
1PL-M
 62
     6
 10
19442.852274301182
 20
16861.45542142195
 30
0.0
 11
19442.852274301182
 21
16874.455421421961
 31
0.0
  0
LINE
  5
1594F
  8
1-中柱カバ-P
  6
HIDE-M
 62
     6
 10
19449.852274301182
 20
16868.955421421961
 30
0.0
 11
19449.852274301182
 21
16867.355421421951
 31
0.0
  0
LINE
  5
15950
  8
1-中柱カバ-P
  6
HIDE-M
 62
     6
 10
19435.852274301182
 20
16868.955421421961
 30
0.0
 11
19435.852274301182
 21
16867.355421421951
 31
0.0
  0
ARC
  5
15951
  8
1-中柱カバ-P
 10
19478.75227430119
 20
16803.055421421948
 30
0.0
 40
6.599999999999997
 50
270.0
 51
0.0
  0
ARC
  5
15952
  8
1-中柱カバ-P
 10
19406.952274301191
 20
16803.055421421948
 30
0.0
 40
6.599999999999997
 50
180.0
 51
270.0
  0
LINE
  5
15953
  8
1-中柱カバ-P
 10
19415.352274301182
 20
16796.455421421961
 30
0.0
 11
19406.952274301191
 21
16796.455421421961
 31
0.0
  0
LINE
  5
15954
  8
1-中柱カバ-P
 10
19470.352274301182
 20
16796.455421421961
 30
0.0
 11
19478.75227430119
 21
16796.455421421961
 31
0.0
  0
LINE
  5
15955
  8
1-中柱カバ-P
 10
19415.352274301182
 20
16798.055421421959
 30
0.0
 11
19406.952274301191
 21
16798.055421421959
 31
0.0
  0
LINE
  5
15956
  8
1-中柱カバ-P
 10
19470.352274301182
 20
16798.055421421959
 30
0.0
 11
19478.75227430119
 21
16798.055421421959
 31
0.0
  0
LINE
  5
15957
  8
1-中柱カバ-P
 10
19470.352274301182
 20
16798.055421421959
 30
0.0
 11
19470.352274301182
 21
16796.455421421961
 31
0.0
  0
LINE
  5
15958
  8
1-中柱カバ-P
 10
19415.352274301182
 20
16796.455421421961
 30
0.0
 11
19415.352274301182
 21
16798.055421421959
 31
0.0
  0
LINE
  5
15959
  8
1-中柱カバ-P
  6
HIDE-M
 62
     6
 10
19411.452274301191
 20
16817.455421421961
 30
0.0
 11
19399.852274301182
 21
16817.455421421961
 31
0.0
  0
LINE
  5
1595A
  8
1-中柱カバ-P
  6
HIDE-M
 62
     6
 10
19411.452274301191
 20
16825.455421421961
 30
0.0
 11
19399.852274301182
 21
16825.455421421961
 31
0.0
  0
LINE
  5
1595B
  8
1-中柱カバ-P
  6
HIDE-M
 62
     6
 10
19411.452274301191
 20
16818.455421421961
 30
0.0
 11
19399.852274301182
 21
16818.455421421961
 31
0.0
  0
LINE
  5
1595C
  8
1-中柱カバ-P
  6
HIDE-M
 62
     6
 10
19411.452274301191
 20
16824.45542142195
 30
0.0
 11
19399.852274301182
 21
16824.45542142195
 31
0.0
  0
LINE
  5
1595D
  8
1-中柱カバ-P
 10
19410.452274301191
 20
16826.955421421961
 30
0.0
 11
19403.452274301191
 21
16826.955421421961
 31
0.0
  0
LINE
  5
1595E
  8
1-中柱カバ-P
 10
19403.452274301191
 20
16815.95542142195
 30
0.0
 11
19410.452274301191
 21
16815.95542142195
 31
0.0
  0
LINE
  5
1595F
  8
1-中柱カバ-P
 10
19403.452274301191
 20
16815.20542142195
 30
0.0
 11
19403.452274301191
 21
16827.705421421939
 31
0.0
  0
LINE
  5
15960
  8
1-中柱カバ-P
 10
19399.852274301182
 20
16815.455421421961
 30
0.0
 11
19399.852274301182
 21
16827.45542142195
 31
0.0
  0
LINE
  5
15961
  8
1-中柱カバ-P
  6
HIDE-M
 62
     6
 10
19401.952274301191
 20
16826.955421421961
 30
0.0
 11
19400.352274301182
 21
16826.955421421961
 31
0.0
  0
LINE
  5
15962
  8
1-中柱カバ-P
 10
19399.852274301182
 20
16827.45542142195
 30
0.0
 11
19400.352274301182
 21
16826.955421421961
 31
0.0
  0
ARC
  5
15963
  8
1-中柱カバ-P
 10
19402.702274301191
 20
16827.705421421939
 30
0.0
 40
0.75
 50
0.0
 51
180.0
  0
LINE
  5
15964
  8
1-中柱カバ-P
  6
HIDE-M
 62
     6
 10
19400.352274301182
 20
16815.95542142195
 30
0.0
 11
19401.952274301191
 21
16815.95542142195
 31
0.0
  0
LINE
  5
15965
  8
1-中柱カバ-P
 10
19399.852274301182
 20
16815.455421421961
 30
0.0
 11
19400.352274301182
 21
16815.95542142195
 31
0.0
  0
ARC
  5
15966
  8
1-中柱カバ-P
 10
19402.702274301191
 20
16815.20542142195
 30
0.0
 40
0.75
 50
180.0
 51
0.0
  0
LINE
  5
15967
  8
1-中柱カバ-P
 10
19411.452274301191
 20
16816.95542142195
 30
0.0
 11
19411.452274301191
 21
16825.955421421961
 31
0.0
  0
ARC
  5
15968
  8
1-中柱カバ-P
 10
19410.452274301191
 20
16825.955421421961
 30
0.0
 40
1.0
 50
0.0
 51
90.0
  0
ARC
  5
15969
  8
1-中柱カバ-P
 10
19410.452274301191
 20
16816.95542142195
 30
0.0
 40
1.0
 50
270.0
 51
0.0
  0
LINE
  5
1596A
  8
1-中柱カバ-P
  6
1PL-M
 62
     6
 10
19416.452274301191
 20
16821.455421421961
 30
0.0
 11
19394.852274301182
 21
16821.455421421961
 31
0.0
  0
LINE
  5
1596B
  8
1-中柱カバ-P
 10
19410.452274301191
 20
16836.955421421961
 30
0.0
 11
19403.452274301191
 21
16836.955421421961
 31
0.0
  0
LINE
  5
1596C
  8
1-中柱カバ-P
 10
19399.852274301182
 20
16829.45542142195
 30
0.0
 11
19399.852274301182
 21
16837.455421421961
 31
0.0
  0
LINE
  5
1596D
  8
1-中柱カバ-P
  6
HIDE-M
 62
     6
 10
19401.952274301191
 20
16836.955421421961
 30
0.0
 11
19400.352274301182
 21
16836.955421421961
 31
0.0
  0
LINE
  5
1596E
  8
1-中柱カバ-P
 10
19399.852274301182
 20
16837.455421421961
 30
0.0
 11
19400.352274301182
 21
16836.955421421961
 31
0.0
  0
ARC
  5
1596F
  8
1-中柱カバ-P
 10
19402.702274301191
 20
16837.705421421961
 30
0.0
 40
0.75
 50
0.0
 51
180.0
  0
LINE
  5
15970
  8
1-中柱カバ-P
 10
19411.452274301191
 20
16827.955421421961
 30
0.0
 11
19411.452274301191
 21
16835.95542142195
 31
0.0
  0
ARC
  5
15971
  8
1-中柱カバ-P
 10
19410.452274301191
 20
16835.95542142195
 30
0.0
 40
1.0
 50
0.0
 51
90.0
  0
LINE
  5
15972
  8
1-中柱カバ-P
  6
1PL-M
 62
     6
 10
19416.452274301191
 20
16831.455421421939
 30
0.0
 11
19394.852274301182
 21
16831.455421421939
 31
0.0
  0
LINE
  5
15973
  8
1-中柱カバ-P
 10
19403.452274301191
 20
16829.705421421961
 30
0.0
 11
19403.452274301191
 21
16837.705421421961
 31
0.0
  0
LINE
  5
15974
  8
1-中柱カバ-P
  6
HIDE-M
 62
     6
 10
19474.25227430119
 20
16817.455421421961
 30
0.0
 11
19485.852274301182
 21
16817.455421421961
 31
0.0
  0
LINE
  5
15975
  8
1-中柱カバ-P
  6
HIDE-M
 62
     6
 10
19474.25227430119
 20
16825.455421421961
 30
0.0
 11
19485.852274301182
 21
16825.455421421961
 31
0.0
  0
LINE
  5
15976
  8
1-中柱カバ-P
  6
HIDE-M
 62
     6
 10
19474.25227430119
 20
16818.455421421961
 30
0.0
 11
19485.852274301182
 21
16818.455421421961
 31
0.0
  0
LINE
  5
15977
  8
1-中柱カバ-P
  6
HIDE-M
 62
     6
 10
19474.25227430119
 20
16824.45542142195
 30
0.0
 11
19485.852274301182
 21
16824.45542142195
 31
0.0
  0
LINE
  5
15978
  8
1-中柱カバ-P
 10
19475.25227430119
 20
16826.955421421961
 30
0.0
 11
19482.25227430119
 21
16826.955421421961
 31
0.0
  0
LINE
  5
15979
  8
1-中柱カバ-P
 10
19482.25227430119
 20
16815.95542142195
 30
0.0
 11
19475.25227430119
 21
16815.95542142195
 31
0.0
  0
LINE
  5
1597A
  8
1-中柱カバ-P
 10
19482.25227430119
 20
16815.20542142195
 30
0.0
 11
19482.25227430119
 21
16827.705421421939
 31
0.0
  0
LINE
  5
1597B
  8
1-中柱カバ-P
 10
19485.852274301182
 20
16815.455421421961
 30
0.0
 11
19485.852274301182
 21
16827.45542142195
 31
0.0
  0
LINE
  5
1597C
  8
1-中柱カバ-P
  6
HIDE-M
 62
     6
 10
19483.75227430119
 20
16826.955421421961
 30
0.0
 11
19485.352274301182
 21
16826.955421421961
 31
0.0
  0
LINE
  5
1597D
  8
1-中柱カバ-P
 10
19485.852274301182
 20
16827.45542142195
 30
0.0
 11
19485.352274301182
 21
16826.955421421961
 31
0.0
  0
ARC
  5
1597E
  8
1-中柱カバ-P
 10
19483.00227430119
 20
16827.705421421939
 30
0.0
 40
0.75
 50
0.0
 51
180.0
  0
LINE
  5
1597F
  8
1-中柱カバ-P
  6
HIDE-M
 62
     6
 10
19485.352274301182
 20
16815.95542142195
 30
0.0
 11
19483.75227430119
 21
16815.95542142195
 31
0.0
  0
LINE
  5
15980
  8
1-中柱カバ-P
 10
19485.852274301182
 20
16815.455421421961
 30
0.0
 11
19485.352274301182
 21
16815.95542142195
 31
0.0
  0
ARC
  5
15981
  8
1-中柱カバ-P
 10
19483.00227430119
 20
16815.20542142195
 30
0.0
 40
0.75
 50
180.0
 51
0.0
  0
LINE
  5
15982
  8
1-中柱カバ-P
 10
19474.25227430119
 20
16816.95542142195
 30
0.0
 11
19474.25227430119
 21
16825.955421421961
 31
0.0
  0
ARC
  5
15983
  8
1-中柱カバ-P
 10
19475.25227430119
 20
16825.955421421961
 30
0.0
 40
1.0
 50
90.0
 51
180.0
  0
ARC
  5
15984
  8
1-中柱カバ-P
 10
19475.25227430119
 20
16816.95542142195
 30
0.0
 40
1.0
 50
180.0
 51
270.0
  0
LINE
  5
15985
  8
1-中柱カバ-P
  6
1PL-M
 62
     6
 10
19469.25227430119
 20
16821.455421421961
 30
0.0
 11
19490.852274301189
 21
16821.455421421961
 31
0.0
  0
LINE
  5
15986
  8
1-中柱カバ-P
 10
19475.25227430119
 20
16836.955421421961
 30
0.0
 11
19482.25227430119
 21
16836.955421421961
 31
0.0
  0
LINE
  5
15987
  8
1-中柱カバ-P
 10
19485.852274301182
 20
16829.45542142195
 30
0.0
 11
19485.852274301182
 21
16837.455421421961
 31
0.0
  0
LINE
  5
15988
  8
1-中柱カバ-P
  6
HIDE-M
 62
     6
 10
19483.75227430119
 20
16836.955421421961
 30
0.0
 11
19485.352274301182
 21
16836.955421421961
 31
0.0
  0
LINE
  5
15989
  8
1-中柱カバ-P
 10
19485.852274301182
 20
16837.455421421961
 30
0.0
 11
19485.352274301182
 21
16836.955421421961
 31
0.0
  0
ARC
  5
1598A
  8
1-中柱カバ-P
 10
19483.00227430119
 20
16837.705421421961
 30
0.0
 40
0.75
 50
0.0
 51
180.0
  0
LINE
  5
1598B
  8
1-中柱カバ-P
 10
19474.25227430119
 20
16827.955421421961
 30
0.0
 11
19474.25227430119
 21
16835.95542142195
 31
0.0
  0
ARC
  5
1598C
  8
1-中柱カバ-P
 10
19475.25227430119
 20
16835.95542142195
 30
0.0
 40
1.0
 50
90.0
 51
180.0
  0
LINE
  5
1598D
  8
1-中柱カバ-P
  6
1PL-M
 62
     6
 10
19469.25227430119
 20
16831.455421421939
 30
0.0
 11
19490.852274301189
 21
16831.455421421939
 31
0.0
  0
LINE
  5
1598E
  8
1-中柱カバ-P
 10
19482.25227430119
 20
16829.705421421961
 30
0.0
 11
19482.25227430119
 21
16837.705421421961
 31
0.0
  0
LINE
  5
1598F
  8
1-中柱カバ-P
  6
HIDE-M
 62
     6
 10
19411.452274301191
 20
16835.455421421961
 30
0.0
 11
19399.852274301182
 21
16835.455421421961
 31
0.0
  0
LINE
  5
15990
  8
1-中柱カバ-P
  6
HIDE-M
 62
     6
 10
19411.452274301191
 20
16834.455421421961
 30
0.0
 11
19399.852274301182
 21
16834.455421421961
 31
0.0
  0
LINE
  5
15991
  8
1-中柱カバ-P
  6
HIDE-M
 62
     6
 10
19474.25227430119
 20
16835.455421421961
 30
0.0
 11
19485.852274301182
 21
16835.455421421961
 31
0.0
  0
LINE
  5
15992
  8
1-中柱カバ-P
  6
HIDE-M
 62
     6
 10
19474.25227430119
 20
16834.455421421961
 30
0.0
 11
19485.852274301182
 21
16834.455421421961
 31
0.0
  0
ARC
  5
15993
  8
1-前柱P
  6
HIDE-M
 62
     6
 10
19446.452274301191
 20
14297.35542142196
 30
0.0
 40
2.6000000000000001
 50
90.0
 51
180.0
  0
LINE
  5
15994
  8
1-前柱P
  6
HIDE-M
 62
     6
 10
19434.852274301182
 20
14299.404811575139
 30
0.0
 11
19434.852274301182
 21
14295.75542142196
 31
0.0
  0
LINE
  5
15995
  8
1-前柱P
  6
HIDE-M
 62
     6
 10
19444.852274301182
 20
14299.404811575139
 30
0.0
 11
19444.852274301182
 21
14295.75542142196
 31
0.0
  0
LINE
  5
15996
  8
1-前柱P
  6
1PL-M
 62
     6
 10
19439.852274301182
 20
14304.955421421961
 30
0.0
 11
19439.852274301182
 21
14290.75542142196
 31
0.0
  0
ARC
  5
15997
  8
1-前柱P
  6
HIDE-M
 62
     6
 10
19433.25227430118
 20
14297.35542142196
 30
0.0
 40
2.6000000000000001
 50
0.0
 51
90.0
  0
LINE
  5
15998
  8
1-前柱P
  6
HIDE-M
 62
     6
 10
19443.852274301182
 20
14297.35542142196
 30
0.0
 11
19443.852274301182
 21
14295.75542142196
 31
0.0
  0
LINE
  5
15999
  8
1-前柱P
  6
HIDE-M
 62
     6
 10
19435.852274301182
 20
14297.35542142196
 30
0.0
 11
19435.852274301182
 21
14295.75542142196
 31
0.0
  0
LINE
  5
1599A
  8
1-前柱P
 10
19453.75227430118
 20
14185.055421421959
 30
0.0
 11
19431.95227430118
 21
14185.055421421959
 31
0.0
  0
LINE
  5
1599B
  8
1-前柱P
 10
19401.95227430118
 20
14222.35542142196
 30
0.0
 11
19401.95227430118
 21
14215.055421421959
 31
0.0
  0
ARC
  5
1599C
  8
1-前柱P
 10
19431.95227430118
 20
14215.055421421959
 30
0.0
 40
30.0
 50
180.0
 51
270.0
  0
ARC
  5
1599D
  8
1-前柱P
 10
19431.95227430118
 20
14215.055421421959
 30
0.0
 40
31.600000000000001
 50
180.0
 51
270.0
  0
LINE
  5
1599E
  8
1-前柱P
 10
19453.75227430118
 20
14183.45542142195
 30
0.0
 11
19431.95227430118
 21
14183.45542142195
 31
0.0
  0
LINE
  5
1599F
  8
1-前柱P
 10
19400.352274301182
 20
14222.35542142196
 30
0.0
 11
19400.352274301182
 21
14215.055421421959
 31
0.0
  0
LINE
  5
159A0
  8
1-前柱P
 10
19423.352274301182
 20
14243.95542142195
 30
0.0
 11
19423.352274301182
 21
14233.955421421961
 31
0.0
  0
LINE
  5
159A1
  8
1-前柱P
 10
19424.95227430118
 20
14233.955421421961
 30
0.0
 11
19424.95227430118
 21
14243.95542142195
 31
0.0
  0
LINE
  5
159A2
  8
1-前柱P
 10
19483.75227430118
 20
14222.35542142196
 30
0.0
 11
19483.75227430118
 21
14215.055421421959
 31
0.0
  0
ARC
  5
159A3
  8
1-前柱P
 10
19453.75227430118
 20
14215.055421421959
 30
0.0
 40
30.0
 50
270.0
 51
0.0
  0
ARC
  5
159A4
  8
1-前柱P
 10
19453.75227430118
 20
14215.055421421959
 30
0.0
 40
31.600000000000001
 50
270.0
 51
0.0
  0
LINE
  5
159A5
  8
1-前柱P
 10
19485.352274301182
 20
14222.35542142196
 30
0.0
 11
19485.352274301182
 21
14215.055421421959
 31
0.0
  0
LINE
  5
159A6
  8
1-前柱P
 10
19478.75227430118
 20
14228.955421421961
 30
0.0
 11
19467.352274301182
 21
14228.955421421961
 31
0.0
  0
ARC
  5
159A7
  8
1-前柱P
 10
19478.75227430118
 20
14222.35542142196
 30
0.0
 40
6.599999999999997
 50
0.0
 51
90.0
  0
ARC
  5
159A8
  8
1-前柱P
 10
19467.352274301182
 20
14233.955421421961
 30
0.0
 40
5.0
 50
180.0
 51
270.0
  0
LINE
  5
159A9
  8
1-前柱P
 10
19478.75227430118
 20
14227.35542142196
 30
0.0
 11
19467.352274301182
 21
14227.35542142196
 31
0.0
  0
ARC
  5
159AA
  8
1-前柱P
 10
19478.75227430118
 20
14222.35542142196
 30
0.0
 40
5.0
 50
0.0
 51
90.0
  0
LINE
  5
159AB
  8
1-前柱P
 10
19462.352274301182
 20
14233.955421421961
 30
0.0
 11
19462.352274301182
 21
14293.35542142196
 31
0.0
  0
LINE
  5
159AC
  8
1-前柱P
 10
19460.75227430118
 20
14233.955421421961
 30
0.0
 11
19460.75227430118
 21
14293.35542142196
 31
0.0
  0
ARC
  5
159AD
  8
1-前柱P
 10
19467.352274301182
 20
14233.955421421961
 30
0.0
 40
6.599999999999997
 50
180.0
 51
270.0
  0
LINE
  5
159AE
  8
1-前柱P
 10
19455.75227430118
 20
14299.95542142195
 30
0.0
 11
19422.352274301182
 21
14299.95542142195
 31
0.0
  0
ARC
  5
159AF
  8
1-前柱P
 10
19455.75227430118
 20
14293.35542142196
 30
0.0
 40
6.599999999999997
 50
0.0
 51
90.0
  0
LINE
  5
159B0
  8
1-前柱P
 10
19455.75227430118
 20
14298.355421421949
 30
0.0
 11
19422.352274301182
 21
14298.355421421949
 31
0.0
  0
ARC
  5
159B1
  8
1-前柱P
 10
19455.75227430118
 20
14293.35542142196
 30
0.0
 40
5.0
 50
0.0
 51
90.0
  0
LINE
  5
159B2
  8
1-前柱P
 10
19422.352274301182
 20
14298.355421421949
 30
0.0
 11
19422.352274301182
 21
14299.95542142195
 31
0.0
  0
LINE
  5
159B3
  8
1-前柱P
 10
19406.952274301151
 20
14228.955421421961
 30
0.0
 11
19418.352274301182
 21
14228.955421421961
 31
0.0
  0
ARC
  5
159B4
  8
1-前柱P
 10
19406.952274301151
 20
14222.35542142196
 30
0.0
 40
6.599999999999997
 50
90.0
 51
180.0
  0
ARC
  5
159B5
  8
1-前柱P
 10
19418.352274301182
 20
14233.955421421961
 30
0.0
 40
5.0
 50
270.0
 51
0.0
  0
LINE
  5
159B6
  8
1-前柱P
 10
19418.352274301182
 20
14227.35542142196
 30
0.0
 11
19406.952274301151
 21
14227.35542142196
 31
0.0
  0
ARC
  5
159B7
  8
1-前柱P
 10
19418.352274301182
 20
14233.955421421961
 30
0.0
 40
6.599999999999997
 50
270.0
 51
0.0
  0
ARC
  5
159B8
  8
1-前柱P
 10
19406.952274301151
 20
14222.35542142196
 30
0.0
 40
5.0
 50
90.0
 51
180.0
  0
LINE
  5
159B9
  8
1-前柱P
 10
19423.352274301182
 20
14243.95542142195
 30
0.0
 11
19424.95227430118
 21
14243.95542142195
 31
0.0
  0
LINE
  5
159BA
  8
1-前柱カバ-P
 10
19400.352274301182
 20
14235.65542142195
 30
0.0
 11
19400.352274301182
 21
14294.955421421961
 31
0.0
  0
ARC
  5
159BB
  8
1-前柱カバ-P
 10
19406.952274301151
 20
14294.955421421961
 30
0.0
 40
6.599999999999997
 50
90.0
 51
180.0
  0
LINE
  5
159BC
  8
1-前柱カバ-P
 10
19401.95227430118
 20
14235.65542142195
 30
0.0
 11
19401.95227430118
 21
14294.955421421961
 31
0.0
  0
ARC
  5
159BD
  8
1-前柱カバ-P
 10
19406.952274301151
 20
14235.65542142195
 30
0.0
 40
5.0
 50
180.0
 51
270.0
  0
LINE
  5
159BE
  8
1-前柱カバ-P
 10
19406.952274301151
 20
14301.555421421959
 30
0.0
 11
19478.75227430118
 21
14301.555421421959
 31
0.0
  0
ARC
  5
159BF
  8
1-前柱カバ-P
 10
19478.75227430118
 20
14294.955421421961
 30
0.0
 40
6.599999999999997
 50
0.0
 51
90.0
  0
LINE
  5
159C0
  8
1-前柱カバ-P
 10
19406.952274301151
 20
14299.95542142195
 30
0.0
 11
19478.75227430118
 21
14299.95542142195
 31
0.0
  0
ARC
  5
159C1
  8
1-前柱カバ-P
 10
19478.75227430118
 20
14294.955421421961
 30
0.0
 40
5.0
 50
0.0
 51
90.0
  0
ARC
  5
159C2
  8
1-前柱カバ-P
 10
19406.952274301151
 20
14294.955421421961
 30
0.0
 40
5.0
 50
90.0
 51
180.0
  0
LINE
  5
159C3
  8
1-前柱カバ-P
 10
19485.352274301182
 20
14294.955421421961
 30
0.0
 11
19485.352274301182
 21
14235.65542142195
 31
0.0
  0
LINE
  5
159C4
  8
1-前柱カバ-P
 10
19483.75227430118
 20
14294.955421421961
 30
0.0
 11
19483.75227430118
 21
14235.65542142195
 31
0.0
  0
ARC
  5
159C5
  8
1-前柱カバ-P
 10
19478.75227430118
 20
14235.65542142195
 30
0.0
 40
5.0
 50
270.0
 51
0.0
  0
LINE
  5
159C6
  8
1-前柱カバ-P
  6
1PL-M
 62
     6
 10
19442.852274301182
 20
14294.055421421959
 30
0.0
 11
19442.852274301182
 21
14307.055421421959
 31
0.0
  0
LINE
  5
159C7
  8
1-前柱カバ-P
  6
HIDE-M
 62
     6
 10
19435.852274301182
 20
14301.555421421959
 30
0.0
 11
19435.852274301182
 21
14299.95542142195
 31
0.0
  0
LINE
  5
159C8
  8
1-前柱カバ-P
  6
HIDE-M
 62
     6
 10
19449.852274301182
 20
14301.555421421959
 30
0.0
 11
19449.852274301182
 21
14299.95542142195
 31
0.0
  0
ARC
  5
159C9
  8
1-前柱カバ-P
 10
19406.952274301151
 20
14235.65542142195
 30
0.0
 40
6.599999999999997
 50
180.0
 51
270.0
  0
ARC
  5
159CA
  8
1-前柱カバ-P
 10
19478.75227430118
 20
14235.65542142195
 30
0.0
 40
6.599999999999997
 50
270.0
 51
0.0
  0
LINE
  5
159CB
  8
1-前柱カバ-P
 10
19470.352274301182
 20
14229.055421421959
 30
0.0
 11
19478.75227430118
 21
14229.055421421959
 31
0.0
  0
LINE
  5
159CC
  8
1-前柱カバ-P
 10
19415.352274301182
 20
14229.055421421959
 30
0.0
 11
19406.952274301151
 21
14229.055421421959
 31
0.0
  0
LINE
  5
159CD
  8
1-前柱カバ-P
 10
19470.352274301182
 20
14230.65542142195
 30
0.0
 11
19478.75227430118
 21
14230.65542142195
 31
0.0
  0
LINE
  5
159CE
  8
1-前柱カバ-P
 10
19415.352274301182
 20
14230.65542142195
 30
0.0
 11
19406.952274301151
 21
14230.65542142195
 31
0.0
  0
LINE
  5
159CF
  8
1-前柱カバ-P
 10
19415.352274301182
 20
14230.65542142195
 30
0.0
 11
19415.352274301182
 21
14229.055421421959
 31
0.0
  0
LINE
  5
159D0
  8
1-前柱カバ-P
 10
19470.352274301182
 20
14229.055421421959
 30
0.0
 11
19470.352274301182
 21
14230.65542142195
 31
0.0
  0
LINE
  5
159D1
  8
1-前柱カバ-P
  6
HIDE-M
 62
     6
 10
19474.25227430118
 20
14250.055421421959
 30
0.0
 11
19485.852274301182
 21
14250.055421421959
 31
0.0
  0
LINE
  5
159D2
  8
1-前柱カバ-P
  6
HIDE-M
 62
     6
 10
19474.25227430118
 20
14258.055421421959
 30
0.0
 11
19485.852274301182
 21
14258.055421421959
 31
0.0
  0
LINE
  5
159D3
  8
1-前柱カバ-P
  6
HIDE-M
 62
     6
 10
19474.25227430118
 20
14251.055421421959
 30
0.0
 11
19485.852274301182
 21
14251.055421421959
 31
0.0
  0
LINE
  5
159D4
  8
1-前柱カバ-P
  6
HIDE-M
 62
     6
 10
19474.25227430118
 20
14257.055421421959
 30
0.0
 11
19485.852274301182
 21
14257.055421421959
 31
0.0
  0
LINE
  5
159D5
  8
1-前柱カバ-P
 10
19475.25227430118
 20
14259.555421421959
 30
0.0
 11
19482.25227430118
 21
14259.555421421959
 31
0.0
  0
LINE
  5
159D6
  8
1-前柱カバ-P
 10
19482.25227430118
 20
14248.555421421959
 30
0.0
 11
19475.25227430118
 21
14248.555421421959
 31
0.0
  0
LINE
  5
159D7
  8
1-前柱カバ-P
 10
19482.25227430118
 20
14247.805421421959
 30
0.0
 11
19482.25227430118
 21
14260.305421421959
 31
0.0
  0
LINE
  5
159D8
  8
1-前柱カバ-P
 10
19485.852274301182
 20
14248.055421421959
 30
0.0
 11
19485.852274301182
 21
14260.055421421959
 31
0.0
  0
LINE
  5
159D9
  8
1-前柱カバ-P
  6
HIDE-M
 62
     6
 10
19483.75227430118
 20
14259.555421421959
 30
0.0
 11
19485.352274301182
 21
14259.555421421959
 31
0.0
  0
LINE
  5
159DA
  8
1-前柱カバ-P
 10
19485.852274301182
 20
14260.055421421959
 30
0.0
 11
19485.352274301182
 21
14259.555421421959
 31
0.0
  0
ARC
  5
159DB
  8
1-前柱カバ-P
 10
19483.00227430118
 20
14260.305421421959
 30
0.0
 40
0.75
 50
0.0
 51
180.0
  0
LINE
  5
159DC
  8
1-前柱カバ-P
  6
HIDE-M
 62
     6
 10
19485.352274301182
 20
14248.555421421959
 30
0.0
 11
19483.75227430118
 21
14248.555421421959
 31
0.0
  0
LINE
  5
159DD
  8
1-前柱カバ-P
 10
19485.852274301182
 20
14248.055421421959
 30
0.0
 11
19485.352274301182
 21
14248.555421421959
 31
0.0
  0
ARC
  5
159DE
  8
1-前柱カバ-P
 10
19483.00227430118
 20
14247.805421421959
 30
0.0
 40
0.75
 50
180.0
 51
0.0
  0
LINE
  5
159DF
  8
1-前柱カバ-P
 10
19474.25227430118
 20
14249.555421421959
 30
0.0
 11
19474.25227430118
 21
14258.555421421959
 31
0.0
  0
ARC
  5
159E0
  8
1-前柱カバ-P
 10
19475.25227430118
 20
14258.555421421959
 30
0.0
 40
1.0
 50
90.0
 51
180.0
  0
ARC
  5
159E1
  8
1-前柱カバ-P
 10
19475.25227430118
 20
14249.555421421959
 30
0.0
 40
1.0
 50
180.0
 51
270.0
  0
LINE
  5
159E2
  8
1-前柱カバ-P
  6
1PL-M
 62
     6
 10
19469.25227430118
 20
14254.055421421959
 30
0.0
 11
19490.852274301189
 21
14254.055421421959
 31
0.0
  0
LINE
  5
159E3
  8
1-前柱カバ-P
 10
19475.25227430118
 20
14269.555421421959
 30
0.0
 11
19482.25227430118
 21
14269.555421421959
 31
0.0
  0
LINE
  5
159E4
  8
1-前柱カバ-P
 10
19485.852274301182
 20
14262.055421421959
 30
0.0
 11
19485.852274301182
 21
14270.055421421959
 31
0.0
  0
LINE
  5
159E5
  8
1-前柱カバ-P
  6
HIDE-M
 62
     6
 10
19483.75227430118
 20
14269.555421421959
 30
0.0
 11
19485.352274301182
 21
14269.555421421959
 31
0.0
  0
LINE
  5
159E6
  8
1-前柱カバ-P
 10
19485.852274301182
 20
14270.055421421959
 30
0.0
 11
19485.352274301182
 21
14269.555421421959
 31
0.0
  0
ARC
  5
159E7
  8
1-前柱カバ-P
 10
19483.00227430118
 20
14270.305421421959
 30
0.0
 40
0.75
 50
0.0
 51
180.0
  0
LINE
  5
159E8
  8
1-前柱カバ-P
 10
19474.25227430118
 20
14260.555421421959
 30
0.0
 11
19474.25227430118
 21
14268.555421421959
 31
0.0
  0
ARC
  5
159E9
  8
1-前柱カバ-P
 10
19475.25227430118
 20
14268.555421421959
 30
0.0
 40
1.0
 50
90.0
 51
180.0
  0
LINE
  5
159EA
  8
1-前柱カバ-P
  6
1PL-M
 62
     6
 10
19469.25227430118
 20
14264.055421421959
 30
0.0
 11
19490.852274301189
 21
14264.055421421959
 31
0.0
  0
LINE
  5
159EB
  8
1-前柱カバ-P
 10
19482.25227430118
 20
14262.305421421959
 30
0.0
 11
19482.25227430118
 21
14270.305421421959
 31
0.0
  0
LINE
  5
159EC
  8
1-前柱カバ-P
  6
HIDE-M
 62
     6
 10
19411.452274301158
 20
14250.055421421959
 30
0.0
 11
19399.852274301182
 21
14250.055421421959
 31
0.0
  0
LINE
  5
159ED
  8
1-前柱カバ-P
  6
HIDE-M
 62
     6
 10
19411.452274301158
 20
14258.055421421959
 30
0.0
 11
19399.852274301182
 21
14258.055421421959
 31
0.0
  0
LINE
  5
159EE
  8
1-前柱カバ-P
  6
HIDE-M
 62
     6
 10
19411.452274301158
 20
14251.055421421959
 30
0.0
 11
19399.852274301182
 21
14251.055421421959
 31
0.0
  0
LINE
  5
159EF
  8
1-前柱カバ-P
  6
HIDE-M
 62
     6
 10
19411.452274301158
 20
14257.055421421959
 30
0.0
 11
19399.852274301182
 21
14257.055421421959
 31
0.0
  0
LINE
  5
159F0
  8
1-前柱カバ-P
 10
19410.45227430118
 20
14259.555421421959
 30
0.0
 11
19403.45227430118
 21
14259.555421421959
 31
0.0
  0
LINE
  5
159F1
  8
1-前柱カバ-P
 10
19403.45227430118
 20
14248.555421421959
 30
0.0
 11
19410.45227430118
 21
14248.555421421959
 31
0.0
  0
LINE
  5
159F2
  8
1-前柱カバ-P
 10
19403.45227430118
 20
14247.805421421959
 30
0.0
 11
19403.45227430118
 21
14260.305421421959
 31
0.0
  0
LINE
  5
159F3
  8
1-前柱カバ-P
 10
19399.852274301182
 20
14248.055421421959
 30
0.0
 11
19399.852274301182
 21
14260.055421421959
 31
0.0
  0
LINE
  5
159F4
  8
1-前柱カバ-P
  6
HIDE-M
 62
     6
 10
19401.95227430118
 20
14259.555421421959
 30
0.0
 11
19400.352274301182
 21
14259.555421421959
 31
0.0
  0
LINE
  5
159F5
  8
1-前柱カバ-P
 10
19399.852274301182
 20
14260.055421421959
 30
0.0
 11
19400.352274301182
 21
14259.555421421959
 31
0.0
  0
ARC
  5
159F6
  8
1-前柱カバ-P
 10
19402.70227430118
 20
14260.305421421959
 30
0.0
 40
0.75
 50
0.0
 51
180.0
  0
LINE
  5
159F7
  8
1-前柱カバ-P
  6
HIDE-M
 62
     6
 10
19400.352274301182
 20
14248.555421421959
 30
0.0
 11
19401.95227430118
 21
14248.555421421959
 31
0.0
  0
LINE
  5
159F8
  8
1-前柱カバ-P
 10
19399.852274301182
 20
14248.055421421959
 30
0.0
 11
19400.352274301182
 21
14248.555421421959
 31
0.0
  0
ARC
  5
159F9
  8
1-前柱カバ-P
 10
19402.70227430118
 20
14247.805421421959
 30
0.0
 40
0.75
 50
180.0
 51
0.0
  0
LINE
  5
159FA
  8
1-前柱カバ-P
 10
19411.452274301158
 20
14249.555421421959
 30
0.0
 11
19411.452274301158
 21
14258.555421421959
 31
0.0
  0
ARC
  5
159FB
  8
1-前柱カバ-P
 10
19410.45227430118
 20
14258.555421421959
 30
0.0
 40
1.0
 50
0.0
 51
90.0
  0
ARC
  5
159FC
  8
1-前柱カバ-P
 10
19410.45227430118
 20
14249.555421421959
 30
0.0
 40
1.0
 50
270.0
 51
0.0
  0
LINE
  5
159FD
  8
1-前柱カバ-P
  6
1PL-M
 62
     6
 10
19416.452274301151
 20
14254.055421421959
 30
0.0
 11
19394.852274301182
 21
14254.055421421959
 31
0.0
  0
LINE
  5
159FE
  8
1-前柱カバ-P
 10
19410.45227430118
 20
14269.555421421959
 30
0.0
 11
19403.45227430118
 21
14269.555421421959
 31
0.0
  0
LINE
  5
159FF
  8
1-前柱カバ-P
 10
19399.852274301182
 20
14262.055421421959
 30
0.0
 11
19399.852274301182
 21
14270.055421421959
 31
0.0
  0
LINE
  5
15A00
  8
1-前柱カバ-P
  6
HIDE-M
 62
     6
 10
19401.95227430118
 20
14269.555421421959
 30
0.0
 11
19400.352274301182
 21
14269.555421421959
 31
0.0
  0
LINE
  5
15A01
  8
1-前柱カバ-P
 10
19399.852274301182
 20
14270.055421421959
 30
0.0
 11
19400.352274301182
 21
14269.555421421959
 31
0.0
  0
ARC
  5
15A02
  8
1-前柱カバ-P
 10
19402.70227430118
 20
14270.305421421959
 30
0.0
 40
0.75
 50
0.0
 51
180.0
  0
LINE
  5
15A03
  8
1-前柱カバ-P
 10
19411.452274301158
 20
14260.555421421959
 30
0.0
 11
19411.452274301158
 21
14268.555421421959
 31
0.0
  0
ARC
  5
15A04
  8
1-前柱カバ-P
 10
19410.45227430118
 20
14268.555421421959
 30
0.0
 40
1.0
 50
0.0
 51
90.0
  0
LINE
  5
15A05
  8
1-前柱カバ-P
  6
1PL-M
 62
     6
 10
19416.452274301151
 20
14264.055421421959
 30
0.0
 11
19394.852274301182
 21
14264.055421421959
 31
0.0
  0
LINE
  5
15A06
  8
1-前柱カバ-P
 10
19403.45227430118
 20
14262.305421421959
 30
0.0
 11
19403.45227430118
 21
14270.305421421959
 31
0.0
  0
LINE
  5
15A07
  8
1-前柱カバ-P
  6
HIDE-M
 62
     6
 10
19474.25227430118
 20
14268.055421421959
 30
0.0
 11
19485.852274301182
 21
14268.055421421959
 31
0.0
  0
LINE
  5
15A08
  8
1-前柱カバ-P
  6
HIDE-M
 62
     6
 10
19474.25227430118
 20
14267.055421421959
 30
0.0
 11
19485.852274301182
 21
14267.055421421959
 31
0.0
  0
LINE
  5
15A09
  8
1-前柱カバ-P
  6
HIDE-M
 62
     6
 10
19411.452274301158
 20
14268.055421421959
 30
0.0
 11
19399.852274301182
 21
14268.055421421959
 31
0.0
  0
LINE
  5
15A0A
  8
1-前柱カバ-P
  6
HIDE-M
 62
     6
 10
19411.452274301158
 20
14267.055421421959
 30
0.0
 11
19399.852274301182
 21
14267.055421421959
 31
0.0
  0
LINE
  5
15A0F
  8
0-6
  6
CONTINUOUS
 62
     6
 10
20892.927979122582
 20
13588.95627942194
 30
0.0
 11
19892.92863812259
 21
13588.95627942194
 31
0.0
  0
TEXT
  5
15A10
  8
0-6
  6
CONTINUOUS
 62
     7
 10
19996.927715122602
 20
13668.95654342194
 30
0.0
 40
160.0
  1
前柱（P）
 72
     4
 11
20396.927715122602
 21
13748.95654342194
 31
0.0
  0
LINE
  5
15A11
  8
0-6
  6
CONTINUOUS
 62
     6
 10
19487.852274301182
 20
14174.95542142195
 30
0.0
 11
19892.92863812259
 21
13588.95627942194
 31
0.0
  0
LINE
  5
15A12
  8
0-6
  6
CONTINUOUS
 62
     6
 10
20892.927979122582
 20
16126.01707937607
 30
0.0
 11
19892.92863812259
 21
16126.01707937607
 31
0.0
  0
TEXT
  5
15A13
  8
0-6
  6
CONTINUOUS
 62
     7
 10
19996.927715122602
 20
16206.01734337607
 30
0.0
 40
160.0
  1
中柱（P）
 72
     4
 11
20396.927715122602
 21
16286.01734337607
 31
0.0
  0
LINE
  5
15A14
  8
0-6
  6
CONTINUOUS
 62
     6
 10
19487.852274301182
 20
16712.01622137607
 30
0.0
 11
19892.92863812259
 21
16126.01707937607
 31
0.0
  0
LINE
  5
15A15
  8
0-6
  6
CONTINUOUS
 62
     6
 10
21233.989869592118
 20
14789.946159250831
 30
0.0
 11
19777.989869592111
 21
14789.946159250831
 31
0.0
  0
TEXT
  5
15A16
  8
0-6
  6
CONTINUOUS
 62
     7
 10
19817.984596339698
 20
14869.946423250811
 30
0.0
 40
160.0
  1
前柱カバー（P）
 72
     4
 11
20505.984596339698
 21
14949.946423250811
 31
0.0
  0
LINE
  5
15A17
  8
0-6
  6
CONTINUOUS
 62
     6
 10
19478.75227430118
 20
14301.55542142195
 30
0.0
 11
19777.989869592111
 21
14789.946159250831
 31
0.0
  0
LINE
  5
15A18
  8
0-6
  6
CONTINUOUS
 62
     6
 10
21233.989869592118
 20
17346.94572325081
 30
0.0
 11
19777.989869592111
 21
17346.94572325081
 31
0.0
  0
TEXT
  5
15A19
  8
0-6
  6
CONTINUOUS
 62
     7
 10
19817.984596339698
 20
17426.94598725082
 30
0.0
 40
160.0
  1
中柱カバー（P）
 72
     4
 11
20505.984596339698
 21
17506.94598725082
 31
0.0
  0
LINE
  5
15A1A
  8
0-6
  6
CONTINUOUS
 62
     6
 10
19478.75227430118
 20
16858.55498542195
 30
0.0
 11
19777.989869592111
 21
17346.94572325081
 31
0.0
  0
LINE
  5
15A1B
  8
0-6
  6
CONTINUOUS
 62
     6
 10
20892.927979122582
 20
20003.39278646783
 30
0.0
 11
19892.92863812259
 21
20003.39278646783
 31
0.0
  0
TEXT
  5
15A1C
  8
0-6
  6
CONTINUOUS
 62
     7
 10
19996.927715122602
 20
20083.393050467821
 30
0.0
 40
160.0
  1
後柱（P）
 72
     4
 11
20396.927715122602
 21
20163.393050467821
 31
0.0
  0
LINE
  5
15A1D
  8
0-6
  6
CONTINUOUS
 62
     6
 10
19487.852274301182
 20
19417.393644467811
 30
0.0
 11
19892.92863812259
 21
20003.39278646783
 31
0.0
  0
LINE
  5
15A1E
  8
0-6
  6
CONTINUOUS
 62
     6
 10
21233.989869592118
 20
18797.293762964
 30
0.0
 11
19777.989869592118
 21
18797.293762964
 31
0.0
  0
TEXT
  5
15A1F
  8
0-6
  6
CONTINUOUS
 62
     7
 10
19817.984596339698
 20
18877.294026964009
 30
0.0
 40
160.0
  1
後柱カバー（P）
 72
     4
 11
20505.984596339698
 21
18957.294026964009
 31
0.0
  0
LINE
  5
15A20
  8
0-6
  6
CONTINUOUS
 62
     6
 10
19478.75227430118
 20
19270.85488042195
 30
0.0
 11
19777.989869592118
 21
18797.293762964
 31
0.0
  0
LINE
  5
15A60
  8
0-1
  6
CONTINUOUS
 62
     3
 10
12797.390571409591
 20
8198.2035874219546
 30
0.0
 11
12797.390571409591
 21
6337.157708421958
 31
0.0
  0
LINE
  5
15A61
  8
0-1
  6
CONTINUOUS
 62
     3
 10
12834.388763409581
 20
8198.2035874219546
 30
0.0
 11
12834.388763409581
 21
6337.157708421958
 31
0.0
  0
LINE
  5
15A62
  8
0-1
  6
CONTINUOUS
 62
     3
 10
12658.89058540959
 20
6337.157708421958
 30
0.0
 11
12658.89058540959
 21
8198.2035874219546
 31
0.0
  0
LINE
  5
15A63
  8
0-1
  6
CONTINUOUS
 62
     3
 10
12673.889397409581
 20
6337.157708421958
 30
0.0
 11
12673.889397409581
 21
8198.2035874219546
 31
0.0
  0
LINE
  5
15A64
  8
0-1
  6
CONTINUOUS
 62
     3
 10
12957.88993840958
 20
6337.1577084219607
 30
0.0
 11
12957.88993840958
 21
8198.2035874219619
 31
0.0
  0
LINE
  5
15A65
  8
0-1
  6
CONTINUOUS
 62
     3
 10
12972.890730409579
 20
6337.1577084219607
 30
0.0
 11
12972.890730409579
 21
8198.2035874219619
 31
0.0
  0
LINE
  5
15A66
  8
0-1
  6
CONTINUOUS
 62
     3
 10
8350.8900304095805
 20
6337.157708421958
 30
0.0
 11
8350.8900304095805
 21
8198.2035874219546
 31
0.0
  0
LINE
  5
15A67
  8
0-1
  6
CONTINUOUS
 62
     3
 10
8365.8898324095935
 20
6337.157708421958
 30
0.0
 11
8365.8898324095935
 21
8198.2035874219546
 31
0.0
  0
LINE
  5
15A68
  8
0-1
  6
CONTINUOUS
 62
     3
 10
6322.6698551273857
 20
19576.45872042195
 30
0.0
 11
14258.670805127391
 21
19576.45872042195
 31
0.0
  0
LINE
  5
15A69
  8
0-1
  6
CONTINUOUS
 62
     3
 10
6267.1700921273878
 20
19528.455395421941
 30
0.0
 11
14314.1715571274
 21
19528.455395421941
 31
0.0
  0
LINE
  5
15A6A
  8
0-6
  6
CONTINUOUS
 62
     6
 10
10220.59679849836
 20
19718.86132842195
 30
0.0
 11
10177.29482949834
 21
19693.860008421951
 31
0.0
  0
LINE
  5
15A6B
  8
0-6
  6
CONTINUOUS
 62
     6
 10
10220.59679849836
 20
19718.86132842195
 30
0.0
 11
10273.94482449835
 21
19576.458720421921
 31
0.0
  0
LINE
  5
15A6C
  8
0-6
  6
CONTINUOUS
 62
     6
 10
10177.29482949834
 20
19693.860008421951
 30
0.0
 11
10220.59679849836
 21
19718.86132842195
 31
0.0
  0
LINE
  5
15A6D
  8
0-6
  6
CONTINUOUS
 62
     6
 10
10273.94482449835
 20
19576.458720421921
 30
0.0
 11
10177.29482949834
 21
19693.860008421951
 31
0.0
  0
LINE
  5
15A6E
  8
0-6
  6
CONTINUOUS
 62
     6
 10
10273.94482449835
 20
19576.458720421921
 30
0.0
 11
10220.59679849836
 21
19718.86132842195
 31
0.0
  0
LINE
  5
15A6F
  8
0-6
  6
CONTINUOUS
 62
     6
 10
10177.29482949834
 20
19693.860008421951
 30
0.0
 11
10273.94482449835
 21
19576.458720421921
 31
0.0
  0
LINE
  5
15A70
  8
0-6
  6
CONTINUOUS
 62
     6
 10
10198.94680349836
 20
19706.362648421949
 30
0.0
 11
9973.3609868286749
 21
20130.032488153061
 31
0.0
  0
TEXT
  5
15A71
  8
0-6
  6
CONTINUOUS
 62
     7
 10
9799.6897834983629
 20
20686.457928421951
 30
0.0
 40
160.0
  1
鼻隠し後
 72
     4
 11
10162.356450165031
 21
20766.457928421951
 31
0.0
  0
LINE
  5
15A72
  8
0-6
  6
CONTINUOUS
 62
     6
 10
9719.6875394983635
 20
20606.457664421949
 30
0.0
 11
10562.12709849836
 21
20606.457664421949
 31
0.0
  0
LINE
  5
15A73
  8
0-6
  6
CONTINUOUS
 62
     6
 10
9905.3271277761523
 20
20257.807167105351
 30
0.0
 11
9719.6875394983635
 21
20606.457664421949
 31
0.0
  0
LINE
  5
15A74
  8
0-6
  6
CONTINUOUS
 62
     6
 10
2548.313361290071
 20
14116.18597356086
 30
0.0
 11
5177.2103499031937
 21
14116.18597356086
 31
0.0
  0
TEXT
  5
15A75
  8
0-6
  6
CONTINUOUS
 62
     7
 10
2616.0476738816069
 20
14196.186237560871
 30
0.0
 40
160.0
  1
桁前（PU）+ 桁補強（PU）
 72
     4
 11
3864.0476738816069
 21
14276.186237560871
 31
0.0
  0
LINE
  5
15A7E
  8
0-6
  6
CONTINUOUS
 62
     6
 10
5177.2103499031937
 20
14116.18597356086
 30
0.0
 11
6838.5155907836552
 21
13690.25608419956
 31
0.0
  0
LINE
  5
15A7F
  8
0-6
  6
CONTINUOUS
 62
     6
 10
6838.5155907836552
 20
13690.25608419956
 30
0.0
 11
7215.4580542791964
 21
14192.45606842189
 31
0.0
  0
LINE
  5
15A80
  8
0-6
  6
CONTINUOUS
 62
     6
 10
2647.4026630134758
 20
16720.18532656099
 30
0.0
 11
5177.2103499031937
 21
16720.18532656099
 31
0.0
  0
TEXT
  5
15A81
  8
0-6
  6
CONTINUOUS
 62
     7
 10
2751.6744348607031
 20
16800.18559056097
 30
0.0
 40
160.0
  1
桁（PU）+ 桁補強（PU）
 72
     4
 11
3903.674434860704
 21
16880.18559056097
 31
0.0
  0
LINE
  5
15A82
  8
0-6
  6
CONTINUOUS
 62
     6
 10
5177.2103499031937
 20
16720.18532656099
 30
0.0
 11
6838.5155907836552
 21
16294.255437199679
 31
0.0
  0
LINE
  5
15A83
  8
0-6
  6
CONTINUOUS
 62
     6
 10
6838.5155907836552
 20
16294.255437199679
 30
0.0
 11
7215.4580542791964
 21
16796.455421422019
 31
0.0
  0
LINE
  5
15A84
  8
0-6
  6
CONTINUOUS
 62
     6
 10
2647.4026630134772
 20
19248.68683056088
 30
0.0
 11
5177.2103499031973
 21
19248.68683056088
 31
0.0
  0
TEXT
  5
15A85
  8
0-6
  6
CONTINUOUS
 62
     7
 10
2751.6744348607031
 20
19328.687094560861
 30
0.0
 40
160.0
  1
桁（PU）+ 桁補強（PU）
 72
     4
 11
3903.674434860704
 21
19408.687094560861
 31
0.0
  0
LINE
  5
15A86
  8
0-6
  6
CONTINUOUS
 62
     6
 10
5177.2103499031973
 20
19248.68683056088
 30
0.0
 11
6838.5155907836561
 21
18822.756941199561
 31
0.0
  0
LINE
  5
15A87
  8
0-6
  6
CONTINUOUS
 62
     6
 10
6838.5155907836561
 20
18822.756941199561
 30
0.0
 11
7215.4580542791964
 21
19324.95692542191
 31
0.0
  0
TEXT
  5
15A88
  8
0-6
  6
CONTINUOUS
 62
     7
 10
4763.4058188055678
 20
15000.318291948
 30
0.0
 40
160.0
  1
梁（P）前
 72
     4
 11
5206.0724854722357
 21
15080.318291948
 31
0.0
  0
LINE
  5
15A89
  8
0-6
  6
CONTINUOUS
 62
     6
 10
4699.2081306235268
 20
14920.319017948001
 30
0.0
 11
5714.1982999483753
 21
14920.319017948001
 31
0.0
  0
LINE
  5
15A8A
  8
0-1
  6
CONTINUOUS
 62
     3
 10
13279.17415412737
 20
18619.72817639857
 30
0.0
 11
13279.17415412737
 21
19528.455395421941
 31
0.0
  0
LINE
  5
15A8B
  8
0-1
  6
CONTINUOUS
 62
     3
 10
13242.17497312737
 20
18604.40961088318
 30
0.0
 11
13242.17497312737
 21
19528.455395421941
 31
0.0
  0
LINE
  5
15A8C
  8
0-1
  6
CONTINUOUS
 62
     3
 10
13479.173824127351
 20
18702.532929507881
 30
0.0
 11
13479.173824127351
 21
19528.455395421941
 31
0.0
  0
LINE
  5
15A8D
  8
0-1
  6
CONTINUOUS
 62
     3
 10
13442.17266312737
 20
18687.21354422408
 30
0.0
 11
13442.17266312737
 21
19528.455395421941
 31
0.0
  0
LINE
  5
15A8E
  8
0-1
  6
CONTINUOUS
 62
     3
 10
13679.174483127361
 20
18785.338092087361
 30
0.0
 11
13679.174483127361
 21
19528.455395421941
 31
0.0
  0
LINE
  5
15A8F
  8
0-1
  6
CONTINUOUS
 62
     3
 10
13642.175302127351
 20
18770.019526571981
 30
0.0
 11
13642.175302127351
 21
19528.455395421941
 31
0.0
  0
LINE
  5
15A90
  8
0-1
  6
CONTINUOUS
 62
     3
 10
13879.174153127349
 20
18868.142845196671
 30
0.0
 11
13879.174153127349
 21
19528.455395421941
 31
0.0
  0
LINE
  5
15A91
  8
0-1
  6
CONTINUOUS
 62
     3
 10
13842.172992127351
 20
18852.82345991287
 30
0.0
 11
13842.172992127351
 21
19528.455395421941
 31
0.0
  0
LINE
  5
15A92
  8
0-1
  6
CONTINUOUS
 62
     3
 10
14079.17382312735
 20
18950.94759830596
 30
0.0
 11
14079.17382312735
 21
19528.455395421941
 31
0.0
  0
LINE
  5
15A93
  8
0-1
  6
CONTINUOUS
 62
     3
 10
14042.17266212735
 20
18935.628213022152
 30
0.0
 11
14042.172662127359
 21
19528.455395421941
 31
0.0
  0
LINE
  5
15A94
  8
0-1
  6
CONTINUOUS
 62
     3
 10
12479.17052712739
 20
18288.50711578241
 30
0.0
 11
12479.17052712738
 21
19528.455395421941
 31
0.0
  0
LINE
  5
15A95
  8
0-1
  6
CONTINUOUS
 62
     3
 10
12442.171346127379
 20
18273.188550267001
 30
0.0
 11
12442.17134612737
 21
19528.455395421941
 31
0.0
  0
LINE
  5
15A98
  8
WAKUSEN-01
 10
868.00000000000193
 20
22484.000000000011
 30
0.0
 11
32764.000000000011
 21
22484.000000000011
 31
0.0
  0
LINE
  5
15A9B
  8
WAKUSEN-01
 10
20560.0
 20
2484.0
 30
0.0
 11
32764.0
 21
2484.0
 31
0.0
  0
LINE
  5
15A9C
  8
WAKUSEN-02
 10
20560.0
 20
1655.9999999999991
 30
0.0
 11
26868.0
 21
1655.9999999999991
 31
0.0
  0
TEXT
  5
15A9D
  8
WAKUMOJI-01
 10
20670.260259962761
 20
2125.9030093393221
 30
0.0
 40
240.0
  1
名　称
  7
WAKUMOJI
  0
TEXT
  5
15A9E
  8
WAKUMOJI-01
 10
20656.505485091919
 20
1319.12897497982
 30
0.0
 40
240.0
  1
機種名
  7
WAKUMOJI
  0
LINE
  5
15AA1
  8
YODOROGO
 10
29977.604341291921
 20
1995.7494964292871
 30
0.0
 11
29829.604341291921
 21
1995.7494964292871
 31
0.0
1001
AUTOCAD_POSTSCRIPT_FIGURE
1002
{
1000
PSFILL
1000
Grayscale
1000
Grayscale
1070
    25
1002
}
  0
LINE
  5
15AA2
  8
YODOROGO
 10
29829.604341291921
 20
1947.749496429288
 30
0.0
 11
29977.604341291921
 21
1947.749496429288
 31
0.0
1001
AUTOCAD_POSTSCRIPT_FIGURE
1002
{
1000
PSFILL
1000
Grayscale
1000
Grayscale
1070
    25
1002
}
  0
LINE
  5
15AA3
  8
YODOROGO
 10
29977.604341291921
 20
1907.7494964292871
 30
0.0
 11
29829.604341291921
 21
1907.7494964292871
 31
0.0
1001
AUTOCAD_POSTSCRIPT_FIGURE
1002
{
1000
PSFILL
1000
Grayscale
1000
Grayscale
1070
    25
1002
}
  0
LINE
  5
15AA4
  8
YODOROGO
 10
29829.604341291921
 20
1859.749496429288
 30
0.0
 11
29977.604341291921
 21
1859.749496429288
 31
0.0
1001
AUTOCAD_POSTSCRIPT_FIGURE
1002
{
1000
PSFILL
1000
Grayscale
1000
Grayscale
1070
    25
1002
}
  0
LINE
  5
15AA5
  8
YODOROGO
 10
29977.604341291921
 20
1819.7494964292871
 30
0.0
 11
29829.604341291921
 21
1819.7494964292871
 31
0.0
1001
AUTOCAD_POSTSCRIPT_FIGURE
1002
{
1000
PSFILL
1000
Grayscale
1000
Grayscale
1070
    25
1002
}
  0
LINE
  5
15AA6
  8
YODOROGO
 10
29921.60434129191
 20
1707.749496429288
 30
0.0
 11
29977.604341291921
 21
1707.749496429288
 31
0.0
1001
AUTOCAD_POSTSCRIPT_FIGURE
1002
{
1000
PSFILL
1000
Grayscale
1000
Grayscale
1070
    25
1002
}
  0
LINE
  5
15AA7
  8
YODOROGO
 10
29737.604341291921
 20
1427.749496429288
 30
0.0
 11
29937.604341291932
 21
1481.3393349155101
 31
0.0
  0
LINE
  5
15AA8
  8
YODOROGO
 10
29949.60434129191
 20
1707.749496429288
 30
0.0
 11
29885.604341291921
 21
1707.749496429288
 31
0.0
  0
ARC
  5
15AA9
  8
YODOROGO
 10
30254.34774982791
 20
1807.864609233261
 30
0.0
 40
381.88686420564721
 50
213.96111677667841
 51
264.47872074317792
  0
ARC
  5
15AAA
  8
YODOROGO
 10
30254.347749827921
 20
1807.864609233302
 30
0.0
 40
381.8868642056816
 50
208.14114420486601
 51
212.9210361185994
  0
LINE
  5
15AAB
  8
YODOROGO
 10
29771.409872985321
 20
1556.807661346234
 30
0.0
 11
29933.78413250855
 21
1600.3157130570869
 31
0.0
  0
LINE
  5
15AAC
  8
YODOROGO
 10
29737.604341291921
 20
1427.749496429288
 30
0.0
 11
29937.604341291932
 21
1481.3393349155101
 31
0.0
  0
LINE
  5
15AAD
  8
YODOROGO
 10
29949.60434129191
 20
1707.749496429288
 30
0.0
 11
29885.604341291921
 21
1707.749496429288
 31
0.0
  0
ARC
  5
15AAE
  8
YODOROGO
 10
30254.34774982791
 20
1807.864609233261
 30
0.0
 40
381.88686420564721
 50
213.96111677667841
 51
264.47872074317792
  0
LINE
  5
15AAF
  8
YODOROGO
 10
28793.60434129191
 20
1819.7494964292871
 30
0.0
 11
28433.60434129191
 21
1819.7494964292871
 31
0.0
  0
LINE
  5
15AB0
  8
YODOROGO
 10
28513.60434129191
 20
1427.749496429288
 30
0.0
 11
28793.60434129191
 21
1427.749496429288
 31
0.0
  0
LINE
  5
15AB1
  8
YODOROGO
 10
28729.604341291921
 20
1923.7494964292871
 30
0.0
 11
28497.60434129191
 21
1923.7494964292871
 31
0.0
  0
LINE
  5
15AB2
  8
YODOROGO
 10
28585.604341291921
 20
2027.749496429288
 30
0.0
 11
28657.604341291921
 21
2027.749496429288
 31
0.0
  0
LINE
  5
15AB3
  8
YODOROGO
 10
28433.60434129191
 20
1707.749496429288
 30
0.0
 11
28433.60434129191
 21
1507.749496429288
 31
0.0
  0
LINE
  5
15AB4
  8
YODOROGO
 10
28497.60434129191
 20
1563.7494964292871
 30
0.0
 11
28497.60434129191
 21
1707.749496429288
 31
0.0
  0
LINE
  5
15AB5
  8
YODOROGO
 10
28585.604341291921
 20
1747.74949642929
 30
0.0
 11
28585.604341291921
 21
1547.749496429288
 31
0.0
  0
LINE
  5
15AB6
  8
YODOROGO
 10
27857.604341291921
 20
1683.749496429288
 30
0.0
 11
27777.604341291921
 21
1619.9724140445701
 31
0.0
  0
LINE
  5
15AB7
  8
YODOROGO
 10
27937.604341291921
 20
1619.9724140445701
 30
0.0
 11
27857.604341291921
 21
1683.749496429288
 31
0.0
  0
LINE
  5
15AB8
  8
YODOROGO
 10
27857.604341291921
 20
1707.749496429288
 30
0.0
 11
27937.604341291921
 21
1643.9724140445701
 31
0.0
  0
LINE
  5
15AB9
  8
YODOROGO
 10
27777.604341291921
 20
1643.9724140445701
 30
0.0
 11
27857.604341291921
 21
1707.749496429288
 31
0.0
  0
LINE
  5
15ABA
  8
YODOROGO
 10
28040.913204016892
 20
1659.749496429288
 30
0.0
 11
28040.913204016892
 21
1683.7494964292871
 31
0.0
  0
LINE
  5
15ABB
  8
YODOROGO
 10
27977.604341291921
 20
1683.7494964292871
 30
0.0
 11
27977.604341291921
 21
1667.749496429285
 31
0.0
  0
LINE
  5
15ABC
  8
YODOROGO
 10
28098.135520230931
 20
1707.749496429288
 30
0.0
 11
28098.135520230931
 21
1655.5036372746561
 31
0.0
1001
AUTOCAD_POSTSCRIPT_FIGURE
1002
{
1000
PSFILL
1000
Grayscale
1000
Grayscale
1070
   100
1002
}
  0
LINE
  5
15ABD
  8
YODOROGO
 10
28082.135520230921
 20
1655.5036372746561
 30
0.0
 11
28082.135520230921
 21
1707.749496429288
 31
0.0
1001
AUTOCAD_POSTSCRIPT_FIGURE
1002
{
1000
PSFILL
1000
Grayscale
1000
Grayscale
1070
   100
1002
}
  0
LINE
  5
15ABE
  8
YODOROGO
 10
27809.604341291921
 20
1608.771904043258
 30
0.0
 11
27809.604341291921
 21
1632.771904043258
 31
0.0
  0
LINE
  5
15ABF
  8
YODOROGO
 10
27905.604341291921
 20
1608.771904043258
 30
0.0
 11
27809.604341291921
 21
1608.771904043258
 31
0.0
  0
LINE
  5
15AC0
  8
YODOROGO
 10
27905.604341291921
 20
1632.771904043258
 30
0.0
 11
27905.604341291921
 21
1608.771904043258
 31
0.0
  0
LINE
  5
15AC1
  8
YODOROGO
 10
27809.604341291921
 20
1632.771904043258
 30
0.0
 11
27905.604341291921
 21
1632.771904043258
 31
0.0
  0
LINE
  5
15AC2
  8
YODOROGO
 10
27824.509588915738
 20
1568.5028573704751
 30
0.0
 11
27785.604341291921
 21
1475.7494964292871
 31
0.0
1001
AUTOCAD_POSTSCRIPT_FIGURE
1002
{
1000
PSFILL
1000
Grayscale
1000
Grayscale
1070
   100
1002
}
  0
LINE
  5
15AC3
  8
YODOROGO
 10
27777.604341291921
 20
1568.5028573704751
 30
0.0
 11
27824.509588915738
 21
1568.5028573704751
 31
0.0
1001
AUTOCAD_POSTSCRIPT_FIGURE
1002
{
1000
PSFILL
1000
Grayscale
1000
Grayscale
1070
   100
1002
}
  0
LINE
  5
15AC4
  8
YODOROGO
 10
27777.604341291921
 20
1588.5028573704751
 30
0.0
 11
27777.604341291921
 21
1568.5028573704751
 31
0.0
1001
AUTOCAD_POSTSCRIPT_FIGURE
1002
{
1000
PSFILL
1000
Grayscale
1000
Grayscale
1070
   100
1002
}
  0
LINE
  5
15AC5
  8
YODOROGO
 10
27937.604341291921
 20
1588.5028573704751
 30
0.0
 11
27777.604341291921
 21
1588.5028573704751
 31
0.0
1001
AUTOCAD_POSTSCRIPT_FIGURE
1002
{
1000
PSFILL
1000
Grayscale
1000
Grayscale
1070
   100
1002
}
  0
LINE
  5
15AC6
  8
YODOROGO
 10
27937.604341291921
 20
1568.5028573704751
 30
0.0
 11
27937.604341291921
 21
1588.5028573704751
 31
0.0
1001
AUTOCAD_POSTSCRIPT_FIGURE
1002
{
1000
PSFILL
1000
Grayscale
1000
Grayscale
1070
   100
1002
}
  0
LINE
  5
15AC7
  8
YODOROGO
 10
27844.509588915738
 20
1568.5028573704751
 30
0.0
 11
27937.604341291921
 21
1568.5028573704751
 31
0.0
1001
AUTOCAD_POSTSCRIPT_FIGURE
1002
{
1000
PSFILL
1000
Grayscale
1000
Grayscale
1070
   100
1002
}
  0
LINE
  5
15AC8
  8
YODOROGO
 10
27815.546718284771
 20
1495.7494964292871
 30
0.0
 11
27844.509588915738
 21
1568.5028573704751
 31
0.0
1001
AUTOCAD_POSTSCRIPT_FIGURE
1002
{
1000
PSFILL
1000
Grayscale
1000
Grayscale
1070
   100
1002
}
  0
LINE
  5
15AC9
  8
YODOROGO
 10
27902.054790808648
 20
1495.7494964292871
 30
0.0
 11
27815.546718284771
 21
1495.7494964292871
 31
0.0
1001
AUTOCAD_POSTSCRIPT_FIGURE
1002
{
1000
PSFILL
1000
Grayscale
1000
Grayscale
1070
   100
1002
}
  0
LINE
  5
15ACA
  8
YODOROGO
 10
27885.065004790951
 20
1536.2338106976929
 30
0.0
 11
27902.054790808648
 21
1495.7494964292871
 31
0.0
1001
AUTOCAD_POSTSCRIPT_FIGURE
1002
{
1000
PSFILL
1000
Grayscale
1000
Grayscale
1070
   100
1002
}
  0
LINE
  5
15ACB
  8
YODOROGO
 10
27901.065004790951
 20
1536.2338106976929
 30
0.0
 11
27885.065004790951
 21
1536.2338106976929
 31
0.0
1001
AUTOCAD_POSTSCRIPT_FIGURE
1002
{
1000
PSFILL
1000
Grayscale
1000
Grayscale
1070
   100
1002
}
  0
LINE
  5
15ACC
  8
YODOROGO
 10
27929.604341291921
 20
1475.7494964292871
 30
0.0
 11
27901.065004790951
 21
1536.2338106976929
 31
0.0
1001
AUTOCAD_POSTSCRIPT_FIGURE
1002
{
1000
PSFILL
1000
Grayscale
1000
Grayscale
1070
   100
1002
}
  0
LINE
  5
15ACD
  8
YODOROGO
 10
27785.604341291921
 20
1475.7494964292871
 30
0.0
 11
27929.604341291921
 21
1475.7494964292871
 31
0.0
1001
AUTOCAD_POSTSCRIPT_FIGURE
1002
{
1000
PSFILL
1000
Grayscale
1000
Grayscale
1070
   100
1002
}
  0
LINE
  5
15ACE
  8
YODOROGO
 10
27777.604341291921
 20
1619.9724140445701
 30
0.0
 11
27777.604341291921
 21
1643.9724140445701
 31
0.0
  0
LINE
  5
15ACF
  8
YODOROGO
 10
27937.604341291921
 20
1643.9724140445701
 30
0.0
 11
27937.604341291921
 21
1619.9724140445701
 31
0.0
  0
ARC
  5
15AD0
  8
YODOROGO
 10
28225.940442146959
 20
1600.877765325326
 30
0.0
 40
175.9999999999998
 50
280.3644312771313
 51
3.5414836592180561
  0
ARC
  5
15AD1
  8
YODOROGO
 10
28235.756030759301
 20
1633.5978069619041
 30
0.0
 40
111.9999999999982
 50
281.24905825041549
 51
348.75094174958321
  0
LINE
  5
15AD2
  8
YODOROGO
 10
28257.604341291921
 20
1523.7494964292871
 30
0.0
 11
28257.604341291921
 21
1427.749496429288
 31
0.0
  0
LINE
  5
15AD3
  8
YODOROGO
 10
28020.088903736909
 20
1610.650565061914
 30
0.0
 11
28040.913204016892
 21
1659.749496429288
 31
0.0
  0
LINE
  5
15AD4
  8
YODOROGO
 10
28041.604341291921
 20
1583.120489948401
 30
0.0
 11
28020.088903736909
 21
1610.650565061914
 31
0.0
  0
LINE
  5
15AD5
  8
YODOROGO
 10
28041.604341291921
 20
1563.120489948398
 30
0.0
 11
28041.604341291921
 21
1583.120489948401
 31
0.0
  0
LINE
  5
15AD6
  8
YODOROGO
 10
28017.604341291921
 20
1585.2370637495301
 30
0.0
 11
28041.604341291921
 21
1563.120489948398
 31
0.0
  0
LINE
  5
15AD7
  8
YODOROGO
 10
28017.604341291921
 20
1475.7494964292871
 30
0.0
 11
28017.604341291921
 21
1585.2370637495301
 31
0.0
  0
LINE
  5
15AD8
  8
YODOROGO
 10
28001.604341291921
 20
1475.7494964292871
 30
0.0
 11
28017.604341291921
 21
1475.7494964292871
 31
0.0
  0
LINE
  5
15AD9
  8
YODOROGO
 10
28001.604341291921
 20
1580.0053496897469
 30
0.0
 11
28001.604341291921
 21
1475.7494964292871
 31
0.0
  0
LINE
  5
15ADA
  8
YODOROGO
 10
27977.604341291921
 20
1532.7680790334291
 30
0.0
 11
28001.604341291921
 21
1580.0053496897469
 31
0.0
  0
LINE
  5
15ADB
  8
YODOROGO
 10
27977.604341291921
 20
1556.76807903343
 30
0.0
 11
27977.604341291921
 21
1532.7680790334291
 31
0.0
  0
LINE
  5
15ADC
  8
YODOROGO
 10
28025.828774291349
 20
1667.749496429285
 30
0.0
 11
27977.604341291921
 21
1556.76807903343
 31
0.0
  0
LINE
  5
15ADD
  8
YODOROGO
 10
27977.604341291921
 20
1667.749496429285
 30
0.0
 11
28025.828774291349
 21
1667.749496429285
 31
0.0
  0
LINE
  5
15ADE
  8
YODOROGO
 10
28050.135520230899
 20
1655.5036372746561
 30
0.0
 11
28082.135520230921
 21
1655.5036372746561
 31
0.0
1001
AUTOCAD_POSTSCRIPT_FIGURE
1002
{
1000
PSFILL
1000
Grayscale
1000
Grayscale
1070
   100
1002
}
  0
LINE
  5
15ADF
  8
YODOROGO
 10
28050.135520230899
 20
1631.5036372746561
 30
0.0
 11
28050.135520230899
 21
1655.5036372746561
 31
0.0
1001
AUTOCAD_POSTSCRIPT_FIGURE
1002
{
1000
PSFILL
1000
Grayscale
1000
Grayscale
1070
   100
1002
}
  0
LINE
  5
15AE0
  8
YODOROGO
 10
28082.135520230921
 20
1631.5036372746561
 30
0.0
 11
28050.135520230899
 21
1631.5036372746561
 31
0.0
1001
AUTOCAD_POSTSCRIPT_FIGURE
1002
{
1000
PSFILL
1000
Grayscale
1000
Grayscale
1070
   100
1002
}
  0
LINE
  5
15AE1
  8
YODOROGO
 10
28082.135520230921
 20
1499.749496429288
 30
0.0
 11
28082.135520230921
 21
1631.5036372746561
 31
0.0
1001
AUTOCAD_POSTSCRIPT_FIGURE
1002
{
1000
PSFILL
1000
Grayscale
1000
Grayscale
1070
   100
1002
}
  0
LINE
  5
15AE2
  8
YODOROGO
 10
28050.135520230921
 20
1499.749496429288
 30
0.0
 11
28082.135520230921
 21
1499.749496429288
 31
0.0
1001
AUTOCAD_POSTSCRIPT_FIGURE
1002
{
1000
PSFILL
1000
Grayscale
1000
Grayscale
1070
   100
1002
}
  0
LINE
  5
15AE3
  8
YODOROGO
 10
28050.135520230921
 20
1475.7494964292871
 30
0.0
 11
28050.135520230921
 21
1499.749496429288
 31
0.0
1001
AUTOCAD_POSTSCRIPT_FIGURE
1002
{
1000
PSFILL
1000
Grayscale
1000
Grayscale
1070
   100
1002
}
  0
LINE
  5
15AE4
  8
YODOROGO
 10
28137.604341291921
 20
1475.7494964292871
 30
0.0
 11
28050.135520230921
 21
1475.7494964292871
 31
0.0
1001
AUTOCAD_POSTSCRIPT_FIGURE
1002
{
1000
PSFILL
1000
Grayscale
1000
Grayscale
1070
   100
1002
}
  0
LINE
  5
15AE5
  8
YODOROGO
 10
28137.604341291921
 20
1499.749496429288
 30
0.0
 11
28137.604341291921
 21
1475.7494964292871
 31
0.0
1001
AUTOCAD_POSTSCRIPT_FIGURE
1002
{
1000
PSFILL
1000
Grayscale
1000
Grayscale
1070
   100
1002
}
  0
LINE
  5
15AE6
  8
YODOROGO
 10
28098.135520230931
 20
1499.749496429288
 30
0.0
 11
28137.604341291921
 21
1499.749496429288
 31
0.0
1001
AUTOCAD_POSTSCRIPT_FIGURE
1002
{
1000
PSFILL
1000
Grayscale
1000
Grayscale
1070
   100
1002
}
  0
LINE
  5
15AE7
  8
YODOROGO
 10
28098.135520230931
 20
1631.5036372746561
 30
0.0
 11
28098.135520230931
 21
1499.749496429288
 31
0.0
1001
AUTOCAD_POSTSCRIPT_FIGURE
1002
{
1000
PSFILL
1000
Grayscale
1000
Grayscale
1070
   100
1002
}
  0
LINE
  5
15AE8
  8
YODOROGO
 10
28137.604341291921
 20
1631.5036372746561
 30
0.0
 11
28098.135520230931
 21
1631.5036372746561
 31
0.0
1001
AUTOCAD_POSTSCRIPT_FIGURE
1002
{
1000
PSFILL
1000
Grayscale
1000
Grayscale
1070
   100
1002
}
  0
LINE
  5
15AE9
  8
YODOROGO
 10
28137.604341291921
 20
1655.5036372746561
 30
0.0
 11
28137.604341291921
 21
1631.5036372746561
 31
0.0
1001
AUTOCAD_POSTSCRIPT_FIGURE
1002
{
1000
PSFILL
1000
Grayscale
1000
Grayscale
1070
   100
1002
}
  0
LINE
  5
15AEA
  8
YODOROGO
 10
28098.135520230931
 20
1655.5036372746561
 30
0.0
 11
28137.604341291921
 21
1655.5036372746561
 31
0.0
1001
AUTOCAD_POSTSCRIPT_FIGURE
1002
{
1000
PSFILL
1000
Grayscale
1000
Grayscale
1070
   100
1002
}
  0
LINE
  5
15AEB
  8
YODOROGO
 10
28401.60434129191
 20
1667.749496429288
 30
0.0
 11
28345.604341291921
 21
1667.749496429288
 31
0.0
  0
LINE
  5
15AEC
  8
YODOROGO
 10
28401.60434129191
 20
1611.749496429288
 30
0.0
 11
28401.60434129191
 21
1667.749496429288
 31
0.0
  0
LINE
  5
15AED
  8
YODOROGO
 10
28345.604341291921
 20
1667.749496429288
 30
0.0
 11
28345.604341291921
 21
1611.749496429288
 31
0.0
  0
ARC
  5
15AEE
  8
YODOROGO
 10
28513.60434129191
 20
1507.749496429288
 30
0.0
 40
80.0
 50
180.0
 51
270.0
  0
ARC
  5
15AEF
  8
YODOROGO
 10
28537.604341291921
 20
1563.7494964292871
 30
0.0
 40
40.0
 50
180.0
 51
270.0
  0
LINE
  5
15AF0
  8
YODOROGO
 10
28561.604341291932
 20
1523.7494964292871
 30
0.0
 11
28537.604341291921
 21
1523.7494964292871
 31
0.0
  0
ARC
  5
15AF1
  8
YODOROGO
 10
28561.604341291932
 20
1547.749496429285
 30
0.0
 40
23.999999999996358
 50
270.0
 51
0.0000000000054281
  0
LINE
  5
15AF2
  8
YODOROGO
 10
27801.604341291921
 20
1890.786580793706
 30
0.0
 11
27777.604341291921
 21
1843.776747951672
 31
0.0
1001
AUTOCAD_POSTSCRIPT_FIGURE
1002
{
1000
PSFILL
1000
Grayscale
1000
Grayscale
1070
   100
1002
}
  0
LINE
  5
15AF3
  8
YODOROGO
 10
27801.604341291921
 20
1747.749496429286
 30
0.0
 11
27801.604341291921
 21
1890.786580793706
 31
0.0
1001
AUTOCAD_POSTSCRIPT_FIGURE
1002
{
1000
PSFILL
1000
Grayscale
1000
Grayscale
1070
   100
1002
}
  0
LINE
  5
15AF4
  8
YODOROGO
 10
27817.604341291921
 20
1747.749496429286
 30
0.0
 11
27801.604341291921
 21
1747.749496429286
 31
0.0
1001
AUTOCAD_POSTSCRIPT_FIGURE
1002
{
1000
PSFILL
1000
Grayscale
1000
Grayscale
1070
   100
1002
}
  0
LINE
  5
15AF5
  8
YODOROGO
 10
27817.604341291921
 20
1893.7713320852661
 30
0.0
 11
27817.604341291921
 21
1747.749496429286
 31
0.0
1001
AUTOCAD_POSTSCRIPT_FIGURE
1002
{
1000
PSFILL
1000
Grayscale
1000
Grayscale
1070
   100
1002
}
  0
LINE
  5
15AF6
  8
YODOROGO
 10
27841.604341291921
 20
1867.6547582841361
 30
0.0
 11
27817.604341291921
 21
1893.7713320852661
 31
0.0
1001
AUTOCAD_POSTSCRIPT_FIGURE
1002
{
1000
PSFILL
1000
Grayscale
1000
Grayscale
1070
   100
1002
}
  0
LINE
  5
15AF7
  8
YODOROGO
 10
27841.604341291921
 20
1883.6547582841361
 30
0.0
 11
27841.604341291921
 21
1867.6547582841361
 31
0.0
1001
AUTOCAD_POSTSCRIPT_FIGURE
1002
{
1000
PSFILL
1000
Grayscale
1000
Grayscale
1070
   100
1002
}
  0
LINE
  5
15AF8
  8
YODOROGO
 10
27817.604341291921
 20
1917.7713320852649
 30
0.0
 11
27841.604341291921
 21
1883.6547582841361
 31
0.0
1001
AUTOCAD_POSTSCRIPT_FIGURE
1002
{
1000
PSFILL
1000
Grayscale
1000
Grayscale
1070
   100
1002
}
  0
LINE
  5
15AF9
  8
YODOROGO
 10
27817.604341291921
 20
1939.749496429288
 30
0.0
 11
27817.604341291921
 21
1917.7713320852649
 31
0.0
1001
AUTOCAD_POSTSCRIPT_FIGURE
1002
{
1000
PSFILL
1000
Grayscale
1000
Grayscale
1070
   100
1002
}
  0
LINE
  5
15AFA
  8
YODOROGO
 10
27889.604341291921
 20
1939.749496429288
 30
0.0
 11
27817.604341291921
 21
1939.749496429288
 31
0.0
1001
AUTOCAD_POSTSCRIPT_FIGURE
1002
{
1000
PSFILL
1000
Grayscale
1000
Grayscale
1070
   100
1002
}
  0
LINE
  5
15AFB
  8
YODOROGO
 10
27889.604341291921
 20
1900.5683489363
 30
0.0
 11
27889.604341291921
 21
1939.749496429288
 31
0.0
1001
AUTOCAD_POSTSCRIPT_FIGURE
1002
{
1000
PSFILL
1000
Grayscale
1000
Grayscale
1070
   100
1002
}
  0
LINE
  5
15AFC
  8
YODOROGO
 10
27857.604341291921
 20
1900.5683489363
 30
0.0
 11
27889.604341291921
 21
1900.5683489363
 31
0.0
1001
AUTOCAD_POSTSCRIPT_FIGURE
1002
{
1000
PSFILL
1000
Grayscale
1000
Grayscale
1070
   100
1002
}
  0
LINE
  5
15AFD
  8
YODOROGO
 10
27857.604341291921
 20
1884.568348936298
 30
0.0
 11
27857.604341291921
 21
1900.5683489363
 31
0.0
1001
AUTOCAD_POSTSCRIPT_FIGURE
1002
{
1000
PSFILL
1000
Grayscale
1000
Grayscale
1070
   100
1002
}
  0
LINE
  5
15AFE
  8
YODOROGO
 10
27889.604341291921
 20
1884.568348936298
 30
0.0
 11
27857.604341291921
 21
1884.568348936298
 31
0.0
1001
AUTOCAD_POSTSCRIPT_FIGURE
1002
{
1000
PSFILL
1000
Grayscale
1000
Grayscale
1070
   100
1002
}
  0
LINE
  5
15AFF
  8
YODOROGO
 10
27889.604341291921
 20
1879.6191779644371
 30
0.0
 11
27889.604341291921
 21
1884.568348936298
 31
0.0
1001
AUTOCAD_POSTSCRIPT_FIGURE
1002
{
1000
PSFILL
1000
Grayscale
1000
Grayscale
1070
   100
1002
}
  0
LINE
  5
15B00
  8
YODOROGO
 10
27849.604341291921
 20
1812.974981161417
 30
0.0
 11
27889.604341291921
 21
1879.6191779644371
 31
0.0
1001
AUTOCAD_POSTSCRIPT_FIGURE
1002
{
1000
PSFILL
1000
Grayscale
1000
Grayscale
1070
   100
1002
}
  0
LINE
  5
15B01
  8
YODOROGO
 10
27849.604341291921
 20
1796.9749811614161
 30
0.0
 11
27849.604341291921
 21
1812.974981161417
 31
0.0
1001
AUTOCAD_POSTSCRIPT_FIGURE
1002
{
1000
PSFILL
1000
Grayscale
1000
Grayscale
1070
   100
1002
}
  0
LINE
  5
15B02
  8
YODOROGO
 10
27889.604341291921
 20
1847.6191779644359
 30
0.0
 11
27849.604341291921
 21
1796.9749811614161
 31
0.0
1001
AUTOCAD_POSTSCRIPT_FIGURE
1002
{
1000
PSFILL
1000
Grayscale
1000
Grayscale
1070
   100
1002
}
  0
LINE
  5
15B03
  8
YODOROGO
 10
27889.604341291921
 20
1747.749496429286
 30
0.0
 11
27889.604341291921
 21
1847.6191779644359
 31
0.0
1001
AUTOCAD_POSTSCRIPT_FIGURE
1002
{
1000
PSFILL
1000
Grayscale
1000
Grayscale
1070
   100
1002
}
  0
LINE
  5
15B04
  8
YODOROGO
 10
27905.604341291921
 20
1747.749496429286
 30
0.0
 11
27889.604341291921
 21
1747.749496429286
 31
0.0
1001
AUTOCAD_POSTSCRIPT_FIGURE
1002
{
1000
PSFILL
1000
Grayscale
1000
Grayscale
1070
   100
1002
}
  0
LINE
  5
15B05
  8
YODOROGO
 10
27905.604341291921
 20
1849.409012158806
 30
0.0
 11
27905.604341291921
 21
1747.749496429286
 31
0.0
1001
AUTOCAD_POSTSCRIPT_FIGURE
1002
{
1000
PSFILL
1000
Grayscale
1000
Grayscale
1070
   100
1002
}
  0
LINE
  5
15B06
  8
YODOROGO
 10
27937.604341291921
 20
1796.9749811614161
 30
0.0
 11
27905.604341291921
 21
1849.409012158806
 31
0.0
1001
AUTOCAD_POSTSCRIPT_FIGURE
1002
{
1000
PSFILL
1000
Grayscale
1000
Grayscale
1070
   100
1002
}
  0
LINE
  5
15B07
  8
YODOROGO
 10
27937.604341291921
 20
1812.974981161417
 30
0.0
 11
27937.604341291921
 21
1796.9749811614161
 31
0.0
1001
AUTOCAD_POSTSCRIPT_FIGURE
1002
{
1000
PSFILL
1000
Grayscale
1000
Grayscale
1070
   100
1002
}
  0
LINE
  5
15B08
  8
YODOROGO
 10
27905.604341291921
 20
1881.4090121588081
 30
0.0
 11
27937.604341291921
 21
1812.974981161417
 31
0.0
1001
AUTOCAD_POSTSCRIPT_FIGURE
1002
{
1000
PSFILL
1000
Grayscale
1000
Grayscale
1070
   100
1002
}
  0
LINE
  5
15B09
  8
YODOROGO
 10
27905.604341291921
 20
1884.5683489363
 30
0.0
 11
27905.604341291921
 21
1881.4090121588081
 31
0.0
1001
AUTOCAD_POSTSCRIPT_FIGURE
1002
{
1000
PSFILL
1000
Grayscale
1000
Grayscale
1070
   100
1002
}
  0
LINE
  5
15B0A
  8
YODOROGO
 10
27937.604341291921
 20
1884.568348936298
 30
0.0
 11
27905.604341291921
 21
1884.5683489363
 31
0.0
1001
AUTOCAD_POSTSCRIPT_FIGURE
1002
{
1000
PSFILL
1000
Grayscale
1000
Grayscale
1070
   100
1002
}
  0
LINE
  5
15B0B
  8
YODOROGO
 10
27937.604341291921
 20
1900.5683489363
 30
0.0
 11
27937.604341291921
 21
1884.568348936298
 31
0.0
1001
AUTOCAD_POSTSCRIPT_FIGURE
1002
{
1000
PSFILL
1000
Grayscale
1000
Grayscale
1070
   100
1002
}
  0
LINE
  5
15B0C
  8
YODOROGO
 10
27905.604341291921
 20
1900.5683489363
 30
0.0
 11
27937.604341291921
 21
1900.5683489363
 31
0.0
1001
AUTOCAD_POSTSCRIPT_FIGURE
1002
{
1000
PSFILL
1000
Grayscale
1000
Grayscale
1070
   100
1002
}
  0
LINE
  5
15B0D
  8
YODOROGO
 10
27905.604341291921
 20
1939.749496429288
 30
0.0
 11
27905.604341291921
 21
1900.5683489363
 31
0.0
1001
AUTOCAD_POSTSCRIPT_FIGURE
1002
{
1000
PSFILL
1000
Grayscale
1000
Grayscale
1070
   100
1002
}
  0
LINE
  5
15B0E
  8
YODOROGO
 10
27937.604341291921
 20
1939.749496429288
 30
0.0
 11
27905.604341291921
 21
1939.749496429288
 31
0.0
1001
AUTOCAD_POSTSCRIPT_FIGURE
1002
{
1000
PSFILL
1000
Grayscale
1000
Grayscale
1070
   100
1002
}
  0
LINE
  5
15B0F
  8
YODOROGO
 10
27937.604341291921
 20
1955.7494964292871
 30
0.0
 11
27937.604341291921
 21
1939.749496429288
 31
0.0
1001
AUTOCAD_POSTSCRIPT_FIGURE
1002
{
1000
PSFILL
1000
Grayscale
1000
Grayscale
1070
   100
1002
}
  0
LINE
  5
15B10
  8
YODOROGO
 10
27905.604341291921
 20
1955.7494964292871
 30
0.0
 11
27937.604341291921
 21
1955.7494964292871
 31
0.0
1001
AUTOCAD_POSTSCRIPT_FIGURE
1002
{
1000
PSFILL
1000
Grayscale
1000
Grayscale
1070
   100
1002
}
  0
LINE
  5
15B11
  8
YODOROGO
 10
27905.604341291921
 20
1979.749496429288
 30
0.0
 11
27905.604341291921
 21
1955.7494964292871
 31
0.0
1001
AUTOCAD_POSTSCRIPT_FIGURE
1002
{
1000
PSFILL
1000
Grayscale
1000
Grayscale
1070
   100
1002
}
  0
LINE
  5
15B12
  8
YODOROGO
 10
27889.604341291921
 20
1979.749496429288
 30
0.0
 11
27905.604341291921
 21
1979.749496429288
 31
0.0
1001
AUTOCAD_POSTSCRIPT_FIGURE
1002
{
1000
PSFILL
1000
Grayscale
1000
Grayscale
1070
   100
1002
}
  0
LINE
  5
15B13
  8
YODOROGO
 10
27889.604341291921
 20
1955.7494964292871
 30
0.0
 11
27889.604341291921
 21
1979.749496429288
 31
0.0
1001
AUTOCAD_POSTSCRIPT_FIGURE
1002
{
1000
PSFILL
1000
Grayscale
1000
Grayscale
1070
   100
1002
}
  0
LINE
  5
15B14
  8
YODOROGO
 10
27865.604341291921
 20
1955.7494964292871
 30
0.0
 11
27889.604341291921
 21
1955.7494964292871
 31
0.0
1001
AUTOCAD_POSTSCRIPT_FIGURE
1002
{
1000
PSFILL
1000
Grayscale
1000
Grayscale
1070
   100
1002
}
  0
LINE
  5
15B15
  8
YODOROGO
 10
27865.604341291921
 20
1979.749496429288
 30
0.0
 11
27865.604341291921
 21
1955.7494964292871
 31
0.0
1001
AUTOCAD_POSTSCRIPT_FIGURE
1002
{
1000
PSFILL
1000
Grayscale
1000
Grayscale
1070
   100
1002
}
  0
LINE
  5
15B16
  8
YODOROGO
 10
27849.604341291921
 20
1979.749496429288
 30
0.0
 11
27865.604341291921
 21
1979.749496429288
 31
0.0
1001
AUTOCAD_POSTSCRIPT_FIGURE
1002
{
1000
PSFILL
1000
Grayscale
1000
Grayscale
1070
   100
1002
}
  0
LINE
  5
15B17
  8
YODOROGO
 10
27849.604341291921
 20
1955.7494964292871
 30
0.0
 11
27849.604341291921
 21
1979.749496429288
 31
0.0
1001
AUTOCAD_POSTSCRIPT_FIGURE
1002
{
1000
PSFILL
1000
Grayscale
1000
Grayscale
1070
   100
1002
}
  0
LINE
  5
15B18
  8
YODOROGO
 10
27817.604341291921
 20
1955.7494964292871
 30
0.0
 11
27849.604341291921
 21
1955.7494964292871
 31
0.0
1001
AUTOCAD_POSTSCRIPT_FIGURE
1002
{
1000
PSFILL
1000
Grayscale
1000
Grayscale
1070
   100
1002
}
  0
LINE
  5
15B19
  8
YODOROGO
 10
27817.604341291921
 20
1979.749496429288
 30
0.0
 11
27817.604341291921
 21
1955.7494964292871
 31
0.0
1001
AUTOCAD_POSTSCRIPT_FIGURE
1002
{
1000
PSFILL
1000
Grayscale
1000
Grayscale
1070
   100
1002
}
  0
LINE
  5
15B1A
  8
YODOROGO
 10
27801.604341291921
 20
1979.749496429288
 30
0.0
 11
27817.604341291921
 21
1979.749496429288
 31
0.0
1001
AUTOCAD_POSTSCRIPT_FIGURE
1002
{
1000
PSFILL
1000
Grayscale
1000
Grayscale
1070
   100
1002
}
  0
LINE
  5
15B1B
  8
YODOROGO
 10
27801.604341291921
 20
1955.7494964292871
 30
0.0
 11
27801.604341291921
 21
1979.749496429288
 31
0.0
1001
AUTOCAD_POSTSCRIPT_FIGURE
1002
{
1000
PSFILL
1000
Grayscale
1000
Grayscale
1070
   100
1002
}
  0
LINE
  5
15B1C
  8
YODOROGO
 10
27777.604341291921
 20
1955.7494964292871
 30
0.0
 11
27801.604341291921
 21
1955.7494964292871
 31
0.0
1001
AUTOCAD_POSTSCRIPT_FIGURE
1002
{
1000
PSFILL
1000
Grayscale
1000
Grayscale
1070
   100
1002
}
  0
LINE
  5
15B1D
  8
YODOROGO
 10
27777.604341291921
 20
1939.749496429288
 30
0.0
 11
27777.604341291921
 21
1955.7494964292871
 31
0.0
1001
AUTOCAD_POSTSCRIPT_FIGURE
1002
{
1000
PSFILL
1000
Grayscale
1000
Grayscale
1070
   100
1002
}
  0
LINE
  5
15B1E
  8
YODOROGO
 10
27801.604341291921
 20
1939.749496429288
 30
0.0
 11
27777.604341291921
 21
1939.749496429288
 31
0.0
1001
AUTOCAD_POSTSCRIPT_FIGURE
1002
{
1000
PSFILL
1000
Grayscale
1000
Grayscale
1070
   100
1002
}
  0
LINE
  5
15B1F
  8
YODOROGO
 10
27801.604341291921
 20
1914.7865807937051
 30
0.0
 11
27801.604341291921
 21
1939.749496429288
 31
0.0
1001
AUTOCAD_POSTSCRIPT_FIGURE
1002
{
1000
PSFILL
1000
Grayscale
1000
Grayscale
1070
   100
1002
}
  0
LINE
  5
15B20
  8
YODOROGO
 10
27777.604341291921
 20
1859.776747951671
 30
0.0
 11
27801.604341291921
 21
1914.7865807937051
 31
0.0
1001
AUTOCAD_POSTSCRIPT_FIGURE
1002
{
1000
PSFILL
1000
Grayscale
1000
Grayscale
1070
   100
1002
}
  0
LINE
  5
15B21
  8
YODOROGO
 10
27777.604341291921
 20
1843.776747951672
 30
0.0
 11
27777.604341291921
 21
1859.776747951671
 31
0.0
1001
AUTOCAD_POSTSCRIPT_FIGURE
1002
{
1000
PSFILL
1000
Grayscale
1000
Grayscale
1070
   100
1002
}
  0
LINE
  5
15B22
  8
YODOROGO
 10
28257.604341291921
 20
1867.7494964292871
 30
0.0
 11
28401.60434129191
 21
1824.877625640306
 31
0.0
1001
AUTOCAD_POSTSCRIPT_FIGURE
1002
{
1000
PSFILL
1000
Grayscale
1000
Grayscale
1070
   100
1002
}
  0
LINE
  5
15B23
  8
YODOROGO
 10
28401.60434129191
 20
1752.877625640306
 30
0.0
 11
28257.604341291921
 21
1795.7494964292871
 31
0.0
1001
AUTOCAD_POSTSCRIPT_FIGURE
1002
{
1000
PSFILL
1000
Grayscale
1000
Grayscale
1070
   100
1002
}
  0
LINE
  5
15B24
  8
YODOROGO
 10
28401.60434129191
 20
1984.877625640306
 30
0.0
 11
28257.604341291921
 21
2027.749496429288
 31
0.0
1001
AUTOCAD_POSTSCRIPT_FIGURE
1002
{
1000
PSFILL
1000
Grayscale
1000
Grayscale
1070
   100
1002
}
  0
LINE
  5
15B25
  8
YODOROGO
 10
28257.604341291921
 20
1959.749496429288
 30
0.0
 11
28401.60434129191
 21
1916.8776256403071
 31
0.0
1001
AUTOCAD_POSTSCRIPT_FIGURE
1002
{
1000
PSFILL
1000
Grayscale
1000
Grayscale
1070
   100
1002
}
  0
LINE
  5
15B26
  8
YODOROGO
 10
28257.604341291921
 20
1795.7494964292871
 30
0.0
 11
28257.604341291921
 21
1867.7494964292871
 31
0.0
1001
AUTOCAD_POSTSCRIPT_FIGURE
1002
{
1000
PSFILL
1000
Grayscale
1000
Grayscale
1070
   100
1002
}
  0
LINE
  5
15B27
  8
YODOROGO
 10
28257.604341291921
 20
2027.749496429288
 30
0.0
 11
28257.604341291921
 21
1959.749496429288
 31
0.0
1001
AUTOCAD_POSTSCRIPT_FIGURE
1002
{
1000
PSFILL
1000
Grayscale
1000
Grayscale
1070
   100
1002
}
  0
LINE
  5
15B28
  8
YODOROGO
 10
28080.236320206739
 20
1939.749496429288
 30
0.0
 11
28129.60434129191
 21
1747.749496429286
 31
0.0
1001
AUTOCAD_POSTSCRIPT_FIGURE
1002
{
1000
PSFILL
1000
Grayscale
1000
Grayscale
1070
   100
1002
}
  0
LINE
  5
15B29
  8
YODOROGO
 10
27977.604341291921
 20
1939.749496429288
 30
0.0
 11
28080.236320206739
 21
1939.749496429288
 31
0.0
1001
AUTOCAD_POSTSCRIPT_FIGURE
1002
{
1000
PSFILL
1000
Grayscale
1000
Grayscale
1070
   100
1002
}
  0
LINE
  5
15B2A
  8
YODOROGO
 10
27977.604341291921
 20
1955.7494964292871
 30
0.0
 11
27977.604341291921
 21
1939.749496429288
 31
0.0
1001
AUTOCAD_POSTSCRIPT_FIGURE
1002
{
1000
PSFILL
1000
Grayscale
1000
Grayscale
1070
   100
1002
}
  0
LINE
  5
15B2B
  8
YODOROGO
 10
28076.60687851991
 20
1955.7494964292871
 30
0.0
 11
27977.604341291921
 21
1955.7494964292871
 31
0.0
1001
AUTOCAD_POSTSCRIPT_FIGURE
1002
{
1000
PSFILL
1000
Grayscale
1000
Grayscale
1070
   100
1002
}
  0
LINE
  5
15B2C
  8
YODOROGO
 10
28071.162715989711
 20
1979.749496429288
 30
0.0
 11
28076.60687851991
 21
1955.7494964292871
 31
0.0
1001
AUTOCAD_POSTSCRIPT_FIGURE
1002
{
1000
PSFILL
1000
Grayscale
1000
Grayscale
1070
   100
1002
}
  0
LINE
  5
15B2D
  8
YODOROGO
 10
28091.162715989711
 20
1979.749496429288
 30
0.0
 11
28071.162715989711
 21
1979.749496429288
 31
0.0
1001
AUTOCAD_POSTSCRIPT_FIGURE
1002
{
1000
PSFILL
1000
Grayscale
1000
Grayscale
1070
   100
1002
}
  0
LINE
  5
15B2E
  8
YODOROGO
 10
28095.806878519939
 20
1955.7494964292871
 30
0.0
 11
28091.162715989711
 21
1979.749496429288
 31
0.0
1001
AUTOCAD_POSTSCRIPT_FIGURE
1002
{
1000
PSFILL
1000
Grayscale
1000
Grayscale
1070
   100
1002
}
  0
LINE
  5
15B2F
  8
YODOROGO
 10
28121.604341291921
 20
1955.7494964292871
 30
0.0
 11
28095.806878519939
 21
1955.7494964292871
 31
0.0
1001
AUTOCAD_POSTSCRIPT_FIGURE
1002
{
1000
PSFILL
1000
Grayscale
1000
Grayscale
1070
   100
1002
}
  0
LINE
  5
15B30
  8
YODOROGO
 10
28121.604341291921
 20
1979.749496429288
 30
0.0
 11
28121.604341291921
 21
1955.7494964292871
 31
0.0
1001
AUTOCAD_POSTSCRIPT_FIGURE
1002
{
1000
PSFILL
1000
Grayscale
1000
Grayscale
1070
   100
1002
}
  0
LINE
  5
15B31
  8
YODOROGO
 10
28137.604341291921
 20
1979.749496429288
 30
0.0
 11
28121.604341291921
 21
1979.749496429288
 31
0.0
1001
AUTOCAD_POSTSCRIPT_FIGURE
1002
{
1000
PSFILL
1000
Grayscale
1000
Grayscale
1070
   100
1002
}
  0
LINE
  5
15B32
  8
YODOROGO
 10
28137.604341291921
 20
1955.7494964292871
 30
0.0
 11
28137.604341291921
 21
1979.749496429288
 31
0.0
1001
AUTOCAD_POSTSCRIPT_FIGURE
1002
{
1000
PSFILL
1000
Grayscale
1000
Grayscale
1070
   100
1002
}
  0
LINE
  5
15B33
  8
YODOROGO
 10
28137.604341291921
 20
1939.749496429288
 30
0.0
 11
28137.604341291921
 21
1955.7494964292871
 31
0.0
1001
AUTOCAD_POSTSCRIPT_FIGURE
1002
{
1000
PSFILL
1000
Grayscale
1000
Grayscale
1070
   100
1002
}
  0
LINE
  5
15B34
  8
YODOROGO
 10
28098.902986873411
 20
1939.749496429288
 30
0.0
 11
28137.604341291921
 21
1939.749496429288
 31
0.0
1001
AUTOCAD_POSTSCRIPT_FIGURE
1002
{
1000
PSFILL
1000
Grayscale
1000
Grayscale
1070
   100
1002
}
  0
LINE
  5
15B35
  8
YODOROGO
 10
28137.604341291921
 20
1747.749496429286
 30
0.0
 11
28098.902986873411
 21
1939.749496429288
 31
0.0
1001
AUTOCAD_POSTSCRIPT_FIGURE
1002
{
1000
PSFILL
1000
Grayscale
1000
Grayscale
1070
   100
1002
}
  0
LINE
  5
15B36
  8
YODOROGO
 10
28129.60434129191
 20
1747.749496429286
 30
0.0
 11
28137.604341291921
 21
1747.749496429286
 31
0.0
1001
AUTOCAD_POSTSCRIPT_FIGURE
1002
{
1000
PSFILL
1000
Grayscale
1000
Grayscale
1070
   100
1002
}
  0
LINE
  5
15B37
  8
YODOROGO
 10
28078.06921993379
 20
1775.7407762987939
 30
0.0
 11
27977.604341291921
 21
1747.749496429286
 31
0.0
  0
LINE
  5
15B38
  8
YODOROGO
 10
28078.06921993379
 20
1798.6689795290731
 30
0.0
 11
28078.06921993379
 21
1775.7407762987939
 31
0.0
  0
LINE
  5
15B39
  8
YODOROGO
 10
28033.83678061287
 20
1786.816933133767
 30
0.0
 11
28078.06921993379
 21
1798.6689795290731
 31
0.0
  0
LINE
  5
15B3A
  8
YODOROGO
 10
28033.83678061287
 20
1872.5683489362989
 30
0.0
 11
28033.83678061287
 21
1786.816933133767
 31
0.0
  0
LINE
  5
15B3B
  8
YODOROGO
 10
28078.06921993379
 20
1872.5683489362989
 30
0.0
 11
28033.83678061287
 21
1872.5683489362989
 31
0.0
  0
LINE
  5
15B3C
  8
YODOROGO
 10
28078.06921993379
 20
1892.568348936298
 30
0.0
 11
28078.06921993379
 21
1872.5683489362989
 31
0.0
  0
LINE
  5
15B3D
  8
YODOROGO
 10
27977.604341291921
 20
1892.568348936298
 30
0.0
 11
28078.06921993379
 21
1892.568348936298
 31
0.0
  0
LINE
  5
15B3E
  8
YODOROGO
 10
27977.604341291921
 20
1872.5683489362989
 30
0.0
 11
27977.604341291921
 21
1892.568348936298
 31
0.0
  0
LINE
  5
15B3F
  8
YODOROGO
 10
28021.836780612852
 20
1872.5683489362989
 30
0.0
 11
27977.604341291921
 21
1872.5683489362989
 31
0.0
  0
LINE
  5
15B40
  8
YODOROGO
 10
28021.836780612852
 20
1784.673339594317
 30
0.0
 11
28021.836780612852
 21
1872.5683489362989
 31
0.0
  0
LINE
  5
15B41
  8
YODOROGO
 10
27977.604341291921
 20
1771.749496429286
 30
0.0
 11
28021.836780612852
 21
1784.673339594317
 31
0.0
  0
LINE
  5
15B42
  8
YODOROGO
 10
27977.604341291921
 20
1747.749496429286
 30
0.0
 11
27977.604341291921
 21
1771.749496429286
 31
0.0
  0
LINE
  5
15B43
  8
YODOROGO
 10
28001.604341291921
 20
1707.749496429288
 30
0.0
 11
28001.604341291921
 21
1683.7494964292871
 31
0.0
  0
LINE
  5
15B44
  8
YODOROGO
 10
28017.604341291921
 20
1707.749496429288
 30
0.0
 11
28001.604341291921
 21
1707.749496429288
 31
0.0
  0
LINE
  5
15B45
  8
YODOROGO
 10
28017.604341291921
 20
1683.7494964292871
 30
0.0
 11
28017.604341291921
 21
1707.749496429288
 31
0.0
  0
LINE
  5
15B46
  8
YODOROGO
 10
28040.913204016892
 20
1683.7494964292871
 30
0.0
 11
28017.604341291921
 21
1683.7494964292871
 31
0.0
  0
LINE
  5
15B47
  8
YODOROGO
 10
28001.604341291921
 20
1683.7494964292871
 30
0.0
 11
27977.604341291921
 21
1683.7494964292871
 31
0.0
  0
LINE
  5
15B48
  8
YODOROGO
 10
28082.135520230921
 20
1707.749496429288
 30
0.0
 11
28098.135520230931
 21
1707.749496429288
 31
0.0
1001
AUTOCAD_POSTSCRIPT_FIGURE
1002
{
1000
PSFILL
1000
Grayscale
1000
Grayscale
1070
   100
1002
}
  0
LINE
  5
15B49
  8
YODOROGO
 10
28401.60434129191
 20
1824.877625640306
 30
0.0
 11
28401.60434129191
 21
1752.877625640306
 31
0.0
1001
AUTOCAD_POSTSCRIPT_FIGURE
1002
{
1000
PSFILL
1000
Grayscale
1000
Grayscale
1070
   100
1002
}
  0
LINE
  5
15B4A
  8
YODOROGO
 10
28401.60434129191
 20
1916.8776256403071
 30
0.0
 11
28401.60434129191
 21
1984.877625640306
 31
0.0
1001
AUTOCAD_POSTSCRIPT_FIGURE
1002
{
1000
PSFILL
1000
Grayscale
1000
Grayscale
1070
   100
1002
}
  0
LINE
  5
15B4B
  8
YODOROGO
 10
28433.60434129191
 20
1819.7494964292871
 30
0.0
 11
28433.60434129191
 21
1747.74949642929
 31
0.0
  0
LINE
  5
15B4C
  8
YODOROGO
 10
28497.60434129191
 20
1707.749496429288
 30
0.0
 11
28433.60434129191
 21
1707.749496429288
 31
0.0
  0
LINE
  5
15B4D
  8
YODOROGO
 10
28433.60434129191
 20
1747.74949642929
 30
0.0
 11
28585.604341291921
 21
1747.74949642929
 31
0.0
  0
LINE
  5
15B4E
  8
YODOROGO
 10
28497.60434129191
 20
1867.7494964292871
 30
0.0
 11
28433.60434129191
 21
1867.7494964292871
 31
0.0
  0
LINE
  5
15B4F
  8
YODOROGO
 10
28497.60434129191
 20
1923.7494964292871
 30
0.0
 11
28497.60434129191
 21
1867.7494964292871
 31
0.0
  0
LINE
  5
15B50
  8
YODOROGO
 10
28585.604341291921
 20
1987.7494964292871
 30
0.0
 11
28585.604341291921
 21
2027.749496429288
 31
0.0
  0
LINE
  5
15B51
  8
YODOROGO
 10
28433.60434129191
 20
1987.7494964292871
 30
0.0
 11
28585.604341291921
 21
1987.7494964292871
 31
0.0
  0
LINE
  5
15B52
  8
YODOROGO
 10
28433.60434129191
 20
1867.7494964292871
 30
0.0
 11
28433.60434129191
 21
1987.7494964292871
 31
0.0
  0
LINE
  5
15B53
  8
YODOROGO
 10
29001.60434129191
 20
2027.749496429288
 30
0.0
 11
29001.60434129191
 21
1619.749496429288
 31
0.0
  0
LINE
  5
15B54
  8
YODOROGO
 10
29073.604341291921
 20
1579.749496429288
 30
0.0
 11
29073.604341291921
 21
2027.749496429288
 31
0.0
  0
LINE
  5
15B55
  8
YODOROGO
 10
29261.604341291921
 20
1491.749496429286
 30
0.0
 11
29261.604341291921
 21
2007.749496429288
 31
0.0
  0
LINE
  5
15B56
  8
YODOROGO
 10
29197.604341291921
 20
2007.749496429288
 30
0.0
 11
29197.604341291921
 21
1491.749496429286
 31
0.0
  0
LINE
  5
15B57
  8
YODOROGO
 10
29385.604341291921
 20
2027.749496429288
 30
0.0
 11
29385.604341291921
 21
1427.749496429288
 31
0.0
  0
LINE
  5
15B58
  8
YODOROGO
 10
29457.604341291921
 20
1427.749496429288
 30
0.0
 11
29457.604341291921
 21
2027.749496429288
 31
0.0
  0
LINE
  5
15B59
  8
YODOROGO
 10
28657.604341291921
 20
1667.749496429288
 30
0.0
 11
28657.604341291921
 21
1747.74949642929
 31
0.0
  0
LINE
  5
15B5A
  8
YODOROGO
 10
29885.604341291921
 20
1707.749496429288
 30
0.0
 11
29885.604341291921
 21
1667.749496429288
 31
0.0
  0
LINE
  5
15B5B
  8
YODOROGO
 10
29885.604341291921
 20
1707.749496429288
 30
0.0
 11
29885.604341291921
 21
1667.749496429288
 31
0.0
  0
ARC
  5
15B5C
  8
YODOROGO
 10
28906.911576186842
 20
1618.217864442272
 30
0.0
 40
94.705151178741644
 50
274.05244162907098
 51
0.9266642149310712
  0
ARC
  5
15B5D
  8
YODOROGO
 10
28909.186170719819
 20
1592.61072861044
 30
0.0
 40
164.92042356085511
 50
271.5351210653775
 51
355.52727750585052
  0
LINE
  5
15B5E
  8
YODOROGO
 10
28913.604341291921
 20
1523.7494964292871
 30
0.0
 11
28913.604341291921
 21
1427.749496429288
 31
0.0
  0
LINE
  5
15B5F
  8
YODOROGO
 10
28793.60434129191
 20
1667.749496429288
 30
0.0
 11
28657.604341291921
 21
1667.749496429288
 31
0.0
  0
LINE
  5
15B60
  8
YODOROGO
 10
28793.60434129191
 20
1603.7494964292871
 30
0.0
 11
28793.60434129191
 21
1667.749496429288
 31
0.0
  0
LINE
  5
15B61
  8
YODOROGO
 10
28657.604341291921
 20
1603.7494964292871
 30
0.0
 11
28793.60434129191
 21
1603.7494964292871
 31
0.0
  0
LINE
  5
15B62
  8
YODOROGO
 10
28657.604341291921
 20
1523.7494964292871
 30
0.0
 11
28657.604341291921
 21
1603.7494964292871
 31
0.0
  0
LINE
  5
15B63
  8
YODOROGO
 10
28793.60434129191
 20
1523.7494964292871
 30
0.0
 11
28657.604341291921
 21
1523.7494964292871
 31
0.0
  0
LINE
  5
15B64
  8
YODOROGO
 10
28793.60434129191
 20
1427.749496429288
 30
0.0
 11
28793.60434129191
 21
1523.7494964292871
 31
0.0
  0
LINE
  5
15B65
  8
YODOROGO
 10
29197.604341291921
 20
1491.749496429286
 30
0.0
 11
29261.604341291921
 21
1491.749496429286
 31
0.0
  0
LINE
  5
15B66
  8
YODOROGO
 10
29385.604341291921
 20
1427.749496429288
 30
0.0
 11
29457.604341291921
 21
1427.749496429288
 31
0.0
  0
LINE
  5
15B67
  8
YODOROGO
 10
29737.604341291921
 20
1528.4414521705639
 30
0.0
 11
29737.604341291921
 21
1427.749496429288
 31
0.0
  0
LINE
  5
15B68
  8
YODOROGO
 10
29617.604341291921
 20
1427.749496429288
 30
0.0
 11
29737.604341291921
 21
1528.4414521705639
 31
0.0
  0
LINE
  5
15B69
  8
YODOROGO
 10
29617.604341291921
 20
1547.749496429288
 30
0.0
 11
29617.604341291921
 21
1427.749496429288
 31
0.0
  0
LINE
  5
15B6A
  8
YODOROGO
 10
29712.94462869945
 20
1627.749496429288
 30
0.0
 11
29617.604341291921
 21
1547.749496429288
 31
0.0
  0
LINE
  5
15B6B
  8
YODOROGO
 10
29617.604341291921
 20
1627.749496429288
 30
0.0
 11
29712.94462869945
 21
1627.749496429288
 31
0.0
  0
LINE
  5
15B6C
  8
YODOROGO
 10
29617.604341291921
 20
1667.749496429288
 30
0.0
 11
29617.604341291921
 21
1627.749496429288
 31
0.0
  0
LINE
  5
15B6D
  8
YODOROGO
 10
29885.604341291921
 20
1667.749496429288
 30
0.0
 11
29617.604341291921
 21
1667.749496429288
 31
0.0
  0
LINE
  5
15B6E
  8
YODOROGO
 10
29917.604341291921
 20
1627.749496429288
 30
0.0
 11
29777.604341291921
 21
1627.749496429288
 31
0.0
  0
LINE
  5
15B6F
  8
YODOROGO
 10
29777.604341291921
 20
1562.0054374176559
 30
0.0
 11
29771.409872985321
 21
1556.807661346234
 31
0.0
  0
LINE
  5
15B70
  8
YODOROGO
 10
29777.604341291921
 20
1627.749496429288
 30
0.0
 11
29777.604341291921
 21
1562.0054374176559
 31
0.0
  0
LINE
  5
15B71
  8
YODOROGO
 10
29737.604341291921
 20
1528.4414521705639
 30
0.0
 11
29737.604341291921
 21
1427.749496429288
 31
0.0
  0
LINE
  5
15B72
  8
YODOROGO
 10
29617.604341291921
 20
1427.749496429288
 30
0.0
 11
29737.604341291921
 21
1528.4414521705639
 31
0.0
  0
LINE
  5
15B73
  8
YODOROGO
 10
29617.604341291921
 20
1547.749496429288
 30
0.0
 11
29617.604341291921
 21
1427.749496429288
 31
0.0
  0
LINE
  5
15B74
  8
YODOROGO
 10
29712.94462869945
 20
1627.749496429288
 30
0.0
 11
29617.604341291921
 21
1547.749496429288
 31
0.0
  0
LINE
  5
15B75
  8
YODOROGO
 10
29617.604341291921
 20
1627.749496429288
 30
0.0
 11
29712.94462869945
 21
1627.749496429288
 31
0.0
  0
LINE
  5
15B76
  8
YODOROGO
 10
29617.604341291921
 20
1667.749496429288
 30
0.0
 11
29617.604341291921
 21
1627.749496429288
 31
0.0
  0
LINE
  5
15B77
  8
YODOROGO
 10
29885.604341291921
 20
1667.749496429288
 30
0.0
 11
29617.604341291921
 21
1667.749496429288
 31
0.0
  0
LINE
  5
15B78
  8
YODOROGO
 10
28793.60434129191
 20
1747.74949642929
 30
0.0
 11
28793.60434129191
 21
1819.7494964292871
 31
0.0
  0
LINE
  5
15B79
  8
YODOROGO
 10
28657.604341291921
 20
1747.74949642929
 30
0.0
 11
28793.60434129191
 21
1747.74949642929
 31
0.0
  0
LINE
  5
15B7A
  8
YODOROGO
 10
28729.604341291921
 20
1867.7494964292871
 30
0.0
 11
28729.604341291921
 21
1923.7494964292871
 31
0.0
  0
LINE
  5
15B7B
  8
YODOROGO
 10
28793.60434129191
 20
1867.7494964292871
 30
0.0
 11
28729.604341291921
 21
1867.7494964292871
 31
0.0
  0
LINE
  5
15B7C
  8
YODOROGO
 10
28793.60434129191
 20
1947.749496429288
 30
0.0
 11
28793.60434129191
 21
1867.7494964292871
 31
0.0
  0
ARC
  5
15B7D
  8
YODOROGO
 10
28753.60434129191
 20
1947.749496429288
 30
0.0
 40
40.0
 50
0.0
 51
90.0
  0
LINE
  5
15B7E
  8
YODOROGO
 10
28657.604341291921
 20
1987.7494964292871
 30
0.0
 11
28753.60434129191
 21
1987.7494964292871
 31
0.0
  0
LINE
  5
15B7F
  8
YODOROGO
 10
28657.604341291921
 20
2027.749496429288
 30
0.0
 11
28657.604341291921
 21
1987.7494964292871
 31
0.0
  0
LINE
  5
15B80
  8
YODOROGO
 10
29073.604341291921
 20
2027.749496429288
 30
0.0
 11
29001.60434129191
 21
2027.749496429288
 31
0.0
  0
LINE
  5
15B81
  8
YODOROGO
 10
29261.604341291921
 20
2007.749496429288
 30
0.0
 11
29197.604341291921
 21
2007.749496429288
 31
0.0
  0
LINE
  5
15B82
  8
YODOROGO
 10
29457.604341291921
 20
2027.749496429288
 30
0.0
 11
29385.604341291921
 21
2027.749496429288
 31
0.0
  0
LINE
  5
15B83
  8
YODOROGO
 10
29673.604341291921
 20
1707.749496429288
 30
0.0
 11
29673.604341291921
 21
1771.7494964292871
 31
0.0
1001
AUTOCAD_POSTSCRIPT_FIGURE
1002
{
1000
PSFILL
1000
Grayscale
1000
Grayscale
1070
    25
1002
}
  0
LINE
  5
15B84
  8
YODOROGO
 10
29617.604341291921
 20
1707.749496429288
 30
0.0
 11
29673.604341291921
 21
1707.749496429288
 31
0.0
1001
AUTOCAD_POSTSCRIPT_FIGURE
1002
{
1000
PSFILL
1000
Grayscale
1000
Grayscale
1070
    25
1002
}
  0
LINE
  5
15B85
  8
YODOROGO
 10
29617.604341291921
 20
1819.7494964292871
 30
0.0
 11
29617.604341291921
 21
1707.749496429288
 31
0.0
1001
AUTOCAD_POSTSCRIPT_FIGURE
1002
{
1000
PSFILL
1000
Grayscale
1000
Grayscale
1070
    25
1002
}
  0
LINE
  5
15B86
  8
YODOROGO
 10
29765.604341291921
 20
1819.7494964292871
 30
0.0
 11
29617.604341291921
 21
1819.7494964292871
 31
0.0
1001
AUTOCAD_POSTSCRIPT_FIGURE
1002
{
1000
PSFILL
1000
Grayscale
1000
Grayscale
1070
    25
1002
}
  0
LINE
  5
15B87
  8
YODOROGO
 10
29765.604341291921
 20
1859.749496429288
 30
0.0
 11
29765.604341291921
 21
1819.7494964292871
 31
0.0
1001
AUTOCAD_POSTSCRIPT_FIGURE
1002
{
1000
PSFILL
1000
Grayscale
1000
Grayscale
1070
    25
1002
}
  0
LINE
  5
15B88
  8
YODOROGO
 10
29617.604341291921
 20
1859.749496429288
 30
0.0
 11
29765.604341291921
 21
1859.749496429288
 31
0.0
1001
AUTOCAD_POSTSCRIPT_FIGURE
1002
{
1000
PSFILL
1000
Grayscale
1000
Grayscale
1070
    25
1002
}
  0
LINE
  5
15B89
  8
YODOROGO
 10
29617.604341291921
 20
1907.7494964292871
 30
0.0
 11
29617.604341291921
 21
1859.749496429288
 31
0.0
1001
AUTOCAD_POSTSCRIPT_FIGURE
1002
{
1000
PSFILL
1000
Grayscale
1000
Grayscale
1070
    25
1002
}
  0
LINE
  5
15B8A
  8
YODOROGO
 10
29765.604341291921
 20
1907.7494964292871
 30
0.0
 11
29617.604341291921
 21
1907.7494964292871
 31
0.0
1001
AUTOCAD_POSTSCRIPT_FIGURE
1002
{
1000
PSFILL
1000
Grayscale
1000
Grayscale
1070
    25
1002
}
  0
LINE
  5
15B8B
  8
YODOROGO
 10
29765.604341291921
 20
1947.749496429288
 30
0.0
 11
29765.604341291921
 21
1907.7494964292871
 31
0.0
1001
AUTOCAD_POSTSCRIPT_FIGURE
1002
{
1000
PSFILL
1000
Grayscale
1000
Grayscale
1070
    25
1002
}
  0
LINE
  5
15B8C
  8
YODOROGO
 10
29617.604341291921
 20
1947.749496429288
 30
0.0
 11
29765.604341291921
 21
1947.749496429288
 31
0.0
1001
AUTOCAD_POSTSCRIPT_FIGURE
1002
{
1000
PSFILL
1000
Grayscale
1000
Grayscale
1070
    25
1002
}
  0
LINE
  5
15B8D
  8
YODOROGO
 10
29617.604341291921
 20
2027.749496429288
 30
0.0
 11
29617.604341291921
 21
1947.749496429288
 31
0.0
1001
AUTOCAD_POSTSCRIPT_FIGURE
1002
{
1000
PSFILL
1000
Grayscale
1000
Grayscale
1070
    25
1002
}
  0
LINE
  5
15B8E
  8
YODOROGO
 10
29665.604341291921
 20
2027.749496429288
 30
0.0
 11
29617.604341291921
 21
2027.749496429288
 31
0.0
1001
AUTOCAD_POSTSCRIPT_FIGURE
1002
{
1000
PSFILL
1000
Grayscale
1000
Grayscale
1070
    25
1002
}
  0
LINE
  5
15B8F
  8
YODOROGO
 10
29665.604341291921
 20
1995.7494964292871
 30
0.0
 11
29665.604341291921
 21
2027.749496429288
 31
0.0
1001
AUTOCAD_POSTSCRIPT_FIGURE
1002
{
1000
PSFILL
1000
Grayscale
1000
Grayscale
1070
    25
1002
}
  0
LINE
  5
15B90
  8
YODOROGO
 10
29765.604341291921
 20
1995.7494964292871
 30
0.0
 11
29665.604341291921
 21
1995.7494964292871
 31
0.0
1001
AUTOCAD_POSTSCRIPT_FIGURE
1002
{
1000
PSFILL
1000
Grayscale
1000
Grayscale
1070
    25
1002
}
  0
LINE
  5
15B91
  8
YODOROGO
 10
29765.604341291921
 20
2027.749496429288
 30
0.0
 11
29765.604341291921
 21
1995.7494964292871
 31
0.0
1001
AUTOCAD_POSTSCRIPT_FIGURE
1002
{
1000
PSFILL
1000
Grayscale
1000
Grayscale
1070
    25
1002
}
  0
LINE
  5
15B92
  8
YODOROGO
 10
29829.604341291921
 20
2027.749496429288
 30
0.0
 11
29765.604341291921
 21
2027.749496429288
 31
0.0
1001
AUTOCAD_POSTSCRIPT_FIGURE
1002
{
1000
PSFILL
1000
Grayscale
1000
Grayscale
1070
    25
1002
}
  0
LINE
  5
15B93
  8
YODOROGO
 10
29829.604341291921
 20
1995.7494964292871
 30
0.0
 11
29829.604341291921
 21
2027.749496429288
 31
0.0
1001
AUTOCAD_POSTSCRIPT_FIGURE
1002
{
1000
PSFILL
1000
Grayscale
1000
Grayscale
1070
    25
1002
}
  0
LINE
  5
15B94
  8
YODOROGO
 10
29829.604341291921
 20
1907.7494964292871
 30
0.0
 11
29829.604341291921
 21
1947.749496429288
 31
0.0
1001
AUTOCAD_POSTSCRIPT_FIGURE
1002
{
1000
PSFILL
1000
Grayscale
1000
Grayscale
1070
    25
1002
}
  0
LINE
  5
15B95
  8
YODOROGO
 10
29829.604341291921
 20
1819.7494964292871
 30
0.0
 11
29829.604341291921
 21
1859.749496429288
 31
0.0
1001
AUTOCAD_POSTSCRIPT_FIGURE
1002
{
1000
PSFILL
1000
Grayscale
1000
Grayscale
1070
    25
1002
}
  0
LINE
  5
15B96
  8
YODOROGO
 10
29921.60434129191
 20
1771.7494964292871
 30
0.0
 11
29921.60434129191
 21
1707.749496429288
 31
0.0
1001
AUTOCAD_POSTSCRIPT_FIGURE
1002
{
1000
PSFILL
1000
Grayscale
1000
Grayscale
1070
    25
1002
}
  0
LINE
  5
15B97
  8
YODOROGO
 10
29829.604341291921
 20
1771.7494964292871
 30
0.0
 11
29921.60434129191
 21
1771.7494964292871
 31
0.0
1001
AUTOCAD_POSTSCRIPT_FIGURE
1002
{
1000
PSFILL
1000
Grayscale
1000
Grayscale
1070
    25
1002
}
  0
LINE
  5
15B98
  8
YODOROGO
 10
29829.604341291921
 20
1707.749496429288
 30
0.0
 11
29829.604341291921
 21
1771.7494964292871
 31
0.0
1001
AUTOCAD_POSTSCRIPT_FIGURE
1002
{
1000
PSFILL
1000
Grayscale
1000
Grayscale
1070
    25
1002
}
  0
LINE
  5
15B99
  8
YODOROGO
 10
29765.604341291921
 20
1707.749496429288
 30
0.0
 11
29829.604341291921
 21
1707.749496429288
 31
0.0
1001
AUTOCAD_POSTSCRIPT_FIGURE
1002
{
1000
PSFILL
1000
Grayscale
1000
Grayscale
1070
    25
1002
}
  0
LINE
  5
15B9A
  8
YODOROGO
 10
29765.604341291921
 20
1771.7494964292871
 30
0.0
 11
29765.604341291921
 21
1707.749496429288
 31
0.0
1001
AUTOCAD_POSTSCRIPT_FIGURE
1002
{
1000
PSFILL
1000
Grayscale
1000
Grayscale
1070
    25
1002
}
  0
LINE
  5
15B9B
  8
YODOROGO
 10
29673.604341291921
 20
1771.7494964292871
 30
0.0
 11
29765.604341291921
 21
1771.7494964292871
 31
0.0
1001
AUTOCAD_POSTSCRIPT_FIGURE
1002
{
1000
PSFILL
1000
Grayscale
1000
Grayscale
1070
    25
1002
}
  0
ARC
  5
15B9C
  8
YODOROGO
 10
31059.517893357912
 20
1602.6807375155761
 30
0.0
 40
178.22128111072141
 50
281.02627495425338
 51
357.77113575573799
  0
LINE
  5
15B9D
  8
YODOROGO
 10
31413.604341291921
 20
1907.7494964292871
 30
0.0
 11
31165.604341291921
 21
1907.7494964292871
 31
0.0
  0
LINE
  5
15B9E
  8
YODOROGO
 10
31413.604341291921
 20
2027.749496429288
 30
0.0
 11
31165.604341291921
 21
2027.749496429288
 31
0.0
  0
LINE
  5
15B9F
  8
YODOROGO
 10
31165.604341291921
 20
1963.749496429286
 30
0.0
 11
31413.604341291921
 21
1963.749496429286
 31
0.0
  0
LINE
  5
15BA0
  8
YODOROGO
 10
30791.604341291921
 20
1563.7494964292871
 30
0.0
 11
30791.604341291921
 21
1755.7494964292871
 31
0.0
  0
LINE
  5
15BA1
  8
YODOROGO
 10
30763.604341291921
 20
1691.749496429288
 30
0.0
 11
30763.604341291921
 21
1563.7494964292871
 31
0.0
  0
LINE
  5
15BA2
  8
YODOROGO
 10
30723.604341291921
 20
1491.749496429288
 30
0.0
 11
30723.604341291921
 21
1691.749496429288
 31
0.0
  0
LINE
  5
15BA3
  8
YODOROGO
 10
30899.604341291932
 20
1691.749496429288
 30
0.0
 11
30899.604341291932
 21
1491.749496429288
 31
0.0
  0
LINE
  5
15BA4
  8
YODOROGO
 10
30859.604341291932
 20
1563.7494964292871
 30
0.0
 11
30859.604341291932
 21
1691.749496429288
 31
0.0
  0
LINE
  5
15BA5
  8
YODOROGO
 10
30831.604341291921
 20
1755.7494964292871
 30
0.0
 11
30831.604341291921
 21
1563.7494964292871
 31
0.0
  0
LINE
  5
15BA6
  8
YODOROGO
 10
30973.604341291921
 20
2027.749496429288
 30
0.0
 11
30973.604341291921
 21
1467.749496429288
 31
0.0
  0
LINE
  5
15BA7
  8
YODOROGO
 10
30645.604341291921
 20
1427.749496429288
 30
0.0
 11
30645.604341291921
 21
2027.749496429288
 31
0.0
  0
LINE
  5
15BA8
  8
YODOROGO
 10
30697.604341291932
 20
1963.749496429286
 30
0.0
 11
30697.604341291932
 21
1427.749496429288
 31
0.0
  0
LINE
  5
15BA9
  8
YODOROGO
 10
30925.604341291921
 20
1547.749496429288
 30
0.0
 11
30925.604341291921
 21
1963.749496429286
 31
0.0
  0
LINE
  5
15BAA
  8
YODOROGO
 10
30381.604341291932
 20
1627.749496429288
 30
0.0
 11
30381.604341291932
 21
1679.749496429288
 31
0.0
  0
LINE
  5
15BAB
  8
YODOROGO
 10
30617.604341291921
 20
1679.749496429288
 30
0.0
 11
30617.604341291921
 21
1627.749496429288
 31
0.0
  0
LINE
  5
15BAC
  8
YODOROGO
 10
31165.604341291921
 20
1907.7494964292871
 30
0.0
 11
31165.604341291921
 21
1635.7494964292871
 31
0.0
  0
LINE
  5
15BAD
  8
YODOROGO
 10
29949.60434129191
 20
1667.749496429288
 30
0.0
 11
29949.60434129191
 21
1707.749496429288
 31
0.0
  0
LINE
  5
15BAE
  8
YODOROGO
 10
29949.60434129191
 20
1667.749496429288
 30
0.0
 11
29949.60434129191
 21
1707.749496429288
 31
0.0
  0
ARC
  5
15BAF
  8
YODOROGO
 10
30537.604341291921
 20
1507.749496429288
 30
0.0
 40
80.0
 50
270.0
 51
0.0
  0
LINE
  5
15BB0
  8
YODOROGO
 10
30569.604341291921
 20
1599.7494964292871
 30
0.0
 11
30617.604341291921
 21
1599.7494964292871
 31
0.0
  0
LINE
  5
15BB1
  8
YODOROGO
 10
30617.604341291921
 20
1627.749496429288
 30
0.0
 11
30529.604341291939
 21
1627.749496429288
 31
0.0
  0
LINE
  5
15BB2
  8
YODOROGO
 10
30217.604341291921
 20
1667.749496429288
 30
0.0
 11
29949.60434129191
 21
1667.749496429288
 31
0.0
  0
LINE
  5
15BB3
  8
YODOROGO
 10
30217.604341291921
 20
1627.749496429288
 30
0.0
 11
30217.604341291921
 21
1667.749496429288
 31
0.0
  0
LINE
  5
15BB4
  8
YODOROGO
 10
30017.604341291921
 20
1627.749496429288
 30
0.0
 11
30217.604341291921
 21
1627.749496429288
 31
0.0
  0
ARC
  5
15BB5
  8
YODOROGO
 10
30230.05882870136
 20
1868.885714952901
 30
0.0
 40
321.37763628522822
 50
228.6181454618993
 51
245.660289248906
  0
LINE
  5
15BB6
  8
YODOROGO
 10
30105.604341291921
 20
1603.7494964292871
 30
0.0
 11
30097.60434129195
 21
1576.0728158699001
 31
0.0
  0
LINE
  5
15BB7
  8
YODOROGO
 10
30189.604341291921
 20
1603.7494964292871
 30
0.0
 11
30105.604341291921
 21
1603.7494964292871
 31
0.0
  0
LINE
  5
15BB8
  8
YODOROGO
 10
30177.604341291921
 20
1551.817722473427
 30
0.0
 11
30189.604341291921
 21
1603.7494964292871
 31
0.0
  0
ARC
  5
15BB9
  8
YODOROGO
 10
30230.05882870045
 20
1868.885714953002
 30
0.0
 40
321.37763628529081
 50
260.60629297969911
 51
267.77903556555862
  0
LINE
  5
15BBA
  8
YODOROGO
 10
30217.604341291921
 20
1427.749496429285
 30
0.0
 11
30217.604341291921
 21
1547.749496429288
 31
0.0
  0
LINE
  5
15BBB
  8
YODOROGO
 10
29937.604341291932
 20
1481.3393349155101
 30
0.0
 11
29937.604341291921
 21
1594.531090531141
 31
0.0
  0
LINE
  5
15BBC
  8
YODOROGO
 10
30217.604341291921
 20
1667.749496429288
 30
0.0
 11
29949.60434129191
 21
1667.749496429288
 31
0.0
  0
LINE
  5
15BBD
  8
YODOROGO
 10
30217.604341291921
 20
1627.749496429288
 30
0.0
 11
30217.604341291921
 21
1667.749496429288
 31
0.0
  0
LINE
  5
15BBE
  8
YODOROGO
 10
30017.604341291921
 20
1627.749496429288
 30
0.0
 11
30217.604341291921
 21
1627.749496429288
 31
0.0
  0
ARC
  5
15BBF
  8
YODOROGO
 10
30230.05882870136
 20
1868.885714952901
 30
0.0
 40
321.37763628522822
 50
228.6181454618993
 51
245.660289248906
  0
LINE
  5
15BC0
  8
YODOROGO
 10
30105.604341291921
 20
1603.7494964292871
 30
0.0
 11
30097.60434129195
 21
1576.0728158699001
 31
0.0
  0
LINE
  5
15BC1
  8
YODOROGO
 10
30189.604341291921
 20
1603.7494964292871
 30
0.0
 11
30105.604341291921
 21
1603.7494964292871
 31
0.0
  0
LINE
  5
15BC2
  8
YODOROGO
 10
30177.604341291921
 20
1551.817722473427
 30
0.0
 11
30189.604341291921
 21
1603.7494964292871
 31
0.0
  0
ARC
  5
15BC3
  8
YODOROGO
 10
30230.05882870045
 20
1868.885714953002
 30
0.0
 40
321.37763628529081
 50
260.60629297969911
 51
267.77903556555862
  0
LINE
  5
15BC4
  8
YODOROGO
 10
30217.604341291921
 20
1427.749496429285
 30
0.0
 11
30217.604341291921
 21
1547.749496429288
 31
0.0
  0
LINE
  5
15BC5
  8
YODOROGO
 10
29937.604341291932
 20
1481.3393349155101
 30
0.0
 11
29937.604341291921
 21
1594.531090531141
 31
0.0
  0
LINE
  5
15BC6
  8
YODOROGO
 10
30433.604341291921
 20
1573.749496429288
 30
0.0
 11
30381.604341291932
 21
1573.749496429288
 31
0.0
  0
LINE
  5
15BC7
  8
YODOROGO
 10
30433.604341291921
 20
1601.749496429285
 30
0.0
 11
30433.604341291921
 21
1573.749496429288
 31
0.0
  0
LINE
  5
15BC8
  8
YODOROGO
 10
30381.604341291932
 20
1601.749496429285
 30
0.0
 11
30433.604341291921
 21
1601.749496429285
 31
0.0
  0
LINE
  5
15BC9
  8
YODOROGO
 10
30381.604341291932
 20
1573.749496429288
 30
0.0
 11
30381.604341291932
 21
1601.749496429285
 31
0.0
  0
LINE
  5
15BCA
  8
YODOROGO
 10
30429.604341291921
 20
1577.7494964292871
 30
0.0
 11
30385.604341291921
 21
1577.7494964292871
 31
0.0
  0
LINE
  5
15BCB
  8
YODOROGO
 10
30429.604341291921
 20
1597.749496429288
 30
0.0
 11
30429.604341291921
 21
1577.7494964292871
 31
0.0
  0
LINE
  5
15BCC
  8
YODOROGO
 10
30385.604341291921
 20
1597.749496429288
 30
0.0
 11
30429.604341291921
 21
1597.749496429288
 31
0.0
  0
LINE
  5
15BCD
  8
YODOROGO
 10
30385.604341291921
 20
1577.7494964292871
 30
0.0
 11
30385.604341291921
 21
1597.749496429288
 31
0.0
  0
LINE
  5
15BCE
  8
YODOROGO
 10
30425.604341291921
 20
1581.749496429286
 30
0.0
 11
30389.604341291921
 21
1581.749496429286
 31
0.0
  0
LINE
  5
15BCF
  8
YODOROGO
 10
30425.604341291921
 20
1593.749496429288
 30
0.0
 11
30425.604341291921
 21
1581.749496429286
 31
0.0
  0
LINE
  5
15BD0
  8
YODOROGO
 10
30389.604341291921
 20
1593.749496429288
 30
0.0
 11
30425.604341291921
 21
1593.749496429288
 31
0.0
  0
LINE
  5
15BD1
  8
YODOROGO
 10
30389.604341291921
 20
1581.749496429286
 30
0.0
 11
30389.604341291921
 21
1593.749496429288
 31
0.0
  0
LINE
  5
15BD2
  8
YODOROGO
 10
30421.604341291932
 20
1585.7494964292871
 30
0.0
 11
30393.604341291921
 21
1585.7494964292871
 31
0.0
  0
LINE
  5
15BD3
  8
YODOROGO
 10
30421.604341291932
 20
1589.749496429288
 30
0.0
 11
30421.604341291932
 21
1585.7494964292871
 31
0.0
  0
LINE
  5
15BD4
  8
YODOROGO
 10
30393.604341291921
 20
1589.749496429288
 30
0.0
 11
30421.604341291932
 21
1589.749496429288
 31
0.0
  0
LINE
  5
15BD5
  8
YODOROGO
 10
30393.604341291921
 20
1585.7494964292871
 30
0.0
 11
30393.604341291921
 21
1589.749496429288
 31
0.0
  0
LINE
  5
15BD6
  8
YODOROGO
 10
30465.604341291921
 20
1627.749496429288
 30
0.0
 11
30381.604341291932
 21
1627.749496429288
 31
0.0
  0
LINE
  5
15BD7
  8
YODOROGO
 10
30465.604341291921
 20
1547.749496429288
 30
0.0
 11
30465.604341291921
 21
1627.749496429288
 31
0.0
  0
LINE
  5
15BD8
  8
YODOROGO
 10
30381.604341291932
 20
1547.749496429288
 30
0.0
 11
30465.604341291921
 21
1547.749496429288
 31
0.0
  0
LINE
  5
15BD9
  8
YODOROGO
 10
30381.604341291932
 20
1427.749496429288
 30
0.0
 11
30381.604341291932
 21
1547.749496429288
 31
0.0
  0
LINE
  5
15BDA
  8
YODOROGO
 10
30537.604341291921
 20
1427.749496429288
 30
0.0
 11
30381.604341291932
 21
1427.749496429288
 31
0.0
  0
LINE
  5
15BDB
  8
YODOROGO
 10
30569.604341291921
 20
1571.749496429285
 30
0.0
 11
30569.604341291921
 21
1599.7494964292871
 31
0.0
  0
ARC
  5
15BDC
  8
YODOROGO
 10
30545.604341291921
 20
1571.749496429291
 30
0.0
 40
24.000000000003752
 50
270.0
 51
359.99999999998772
  0
LINE
  5
15BDD
  8
YODOROGO
 10
30529.604341291939
 20
1547.749496429288
 30
0.0
 11
30545.604341291921
 21
1547.749496429288
 31
0.0
  0
LINE
  5
15BDE
  8
YODOROGO
 10
30529.604341291939
 20
1627.749496429288
 30
0.0
 11
30529.604341291939
 21
1547.749496429288
 31
0.0
  0
LINE
  5
15BDF
  8
YODOROGO
 10
30899.604341291932
 20
1547.749496429288
 30
0.0
 11
30925.604341291921
 21
1547.749496429288
 31
0.0
  0
LINE
  5
15BE0
  8
YODOROGO
 10
30933.604341291921
 20
1427.749496429288
 30
0.0
 11
30899.604341291932
 21
1427.749496429288
 31
0.0
  0
LINE
  5
15BE1
  8
YODOROGO
 10
30763.604341291921
 20
1563.7494964292871
 30
0.0
 11
30791.604341291921
 21
1563.7494964292871
 31
0.0
  0
LINE
  5
15BE2
  8
YODOROGO
 10
30899.604341291932
 20
1491.749496429288
 30
0.0
 11
30723.604341291921
 21
1491.749496429288
 31
0.0
  0
LINE
  5
15BE3
  8
YODOROGO
 10
30831.604341291921
 20
1563.7494964292871
 30
0.0
 11
30859.604341291932
 21
1563.7494964292871
 31
0.0
  0
LINE
  5
15BE4
  8
YODOROGO
 10
30899.604341291932
 20
1427.749496429288
 30
0.0
 11
30899.604341291932
 21
1547.749496429288
 31
0.0
  0
LINE
  5
15BE5
  8
YODOROGO
 10
30697.604341291932
 20
1427.749496429288
 30
0.0
 11
30645.604341291921
 21
1427.749496429288
 31
0.0
  0
LINE
  5
15BE6
  8
YODOROGO
 10
30617.604341291921
 20
1599.7494964292871
 30
0.0
 11
30617.604341291921
 21
1507.749496429288
 31
0.0
  0
ARC
  5
15BE7
  8
YODOROGO
 10
30933.604341291921
 20
1467.749496429288
 30
0.0
 40
40.0
 50
270.0
 51
0.0
  0
LINE
  5
15BE8
  8
YODOROGO
 10
31093.604341291921
 20
1523.7494964292871
 30
0.0
 11
31093.604341291921
 21
1427.749496429288
 31
0.0
  0
ARC
  5
15BE9
  8
YODOROGO
 10
31039.721395566768
 20
1637.5313901097329
 30
0.0
 40
125.8955565916754
 50
295.34052442160112
 51
359.18902303418679
  0
LINE
  5
15BEA
  8
YODOROGO
 10
30617.604341291921
 20
1859.749496429288
 30
0.0
 11
30497.604341291921
 21
1939.749496429288
 31
0.0
  0
LINE
  5
15BEB
  8
YODOROGO
 10
30497.604341291921
 20
2027.749496429288
 30
0.0
 11
30617.604341291921
 21
1947.749496429288
 31
0.0
  0
LINE
  5
15BEC
  8
YODOROGO
 10
30529.604341291939
 20
1679.749496429288
 30
0.0
 11
30617.604341291921
 21
1679.749496429288
 31
0.0
  0
LINE
  5
15BED
  8
YODOROGO
 10
30617.604341291921
 20
1735.7494964292871
 30
0.0
 11
30529.604341291939
 21
1735.7494964292871
 31
0.0
  0
LINE
  5
15BEE
  8
YODOROGO
 10
30381.604341291932
 20
1795.7494964292871
 30
0.0
 11
30617.604341291921
 21
1795.7494964292871
 31
0.0
  0
LINE
  5
15BEF
  8
YODOROGO
 10
30081.604341291921
 20
2027.749496429288
 30
0.0
 11
30021.604341291921
 21
2027.749496429288
 31
0.0
  0
LINE
  5
15BF0
  8
YODOROGO
 10
30081.604341291921
 20
1827.7494964292871
 30
0.0
 11
30081.604341291921
 21
2027.749496429288
 31
0.0
  0
LINE
  5
15BF1
  8
YODOROGO
 10
30021.604341291921
 20
1827.7494964292871
 30
0.0
 11
30081.604341291921
 21
1827.7494964292871
 31
0.0
  0
LINE
  5
15BF2
  8
YODOROGO
 10
30021.604341291921
 20
2027.749496429288
 30
0.0
 11
30021.604341291921
 21
1827.7494964292871
 31
0.0
  0
LINE
  5
15BF3
  8
YODOROGO
 10
30161.604341291921
 20
2027.749496429288
 30
0.0
 11
30217.604341291921
 21
2027.749496429288
 31
0.0
  0
LINE
  5
15BF4
  8
YODOROGO
 10
30161.604341291921
 20
1811.749496429288
 30
0.0
 11
30161.604341291921
 21
2027.749496429288
 31
0.0
  0
ARC
  5
15BF5
  8
YODOROGO
 10
30121.604341291921
 20
1811.749496429288
 30
0.0
 40
40.0
 50
270.0
 51
0.0
  0
LINE
  5
15BF6
  8
YODOROGO
 10
30021.604341291921
 20
1771.7494964292871
 30
0.0
 11
30121.604341291921
 21
1771.7494964292871
 31
0.0
  0
LINE
  5
15BF7
  8
YODOROGO
 10
30021.604341291921
 20
1707.749496429288
 30
0.0
 11
30021.604341291921
 21
1771.7494964292871
 31
0.0
  0
LINE
  5
15BF8
  8
YODOROGO
 10
30137.604341291921
 20
1707.749496429288
 30
0.0
 11
30021.604341291921
 21
1707.749496429288
 31
0.0
  0
ARC
  5
15BF9
  8
YODOROGO
 10
30137.604341291921
 20
1787.7494964292871
 30
0.0
 40
80.0
 50
270.0
 51
0.0
  0
LINE
  5
15BFA
  8
YODOROGO
 10
30217.604341291921
 20
2027.749496429288
 30
0.0
 11
30217.604341291921
 21
1787.7494964292871
 31
0.0
  0
LINE
  5
15BFB
  8
YODOROGO
 10
29977.604341291921
 20
1947.749496429288
 30
0.0
 11
29977.604341291921
 21
1995.7494964292871
 31
0.0
1001
AUTOCAD_POSTSCRIPT_FIGURE
1002
{
1000
PSFILL
1000
Grayscale
1000
Grayscale
1070
    25
1002
}
  0
LINE
  5
15BFC
  8
YODOROGO
 10
29977.604341291921
 20
1859.749496429288
 30
0.0
 11
29977.604341291921
 21
1907.7494964292871
 31
0.0
1001
AUTOCAD_POSTSCRIPT_FIGURE
1002
{
1000
PSFILL
1000
Grayscale
1000
Grayscale
1070
    25
1002
}
  0
LINE
  5
15BFD
  8
YODOROGO
 10
29977.604341291921
 20
1707.749496429288
 30
0.0
 11
29977.604341291921
 21
1819.7494964292871
 31
0.0
1001
AUTOCAD_POSTSCRIPT_FIGURE
1002
{
1000
PSFILL
1000
Grayscale
1000
Grayscale
1070
    25
1002
}
  0
LINE
  5
15BFE
  8
YODOROGO
 10
30381.604341291932
 20
1907.7494964292871
 30
0.0
 11
30497.604341291921
 21
2027.749496429288
 31
0.0
  0
LINE
  5
15BFF
  8
YODOROGO
 10
30381.604341291932
 20
1819.7494964292871
 30
0.0
 11
30381.604341291932
 21
1907.7494964292871
 31
0.0
  0
LINE
  5
15C00
  8
YODOROGO
 10
30497.604341291921
 20
1939.749496429288
 30
0.0
 11
30381.604341291932
 21
1819.7494964292871
 31
0.0
  0
LINE
  5
15C01
  8
YODOROGO
 10
30465.604341291921
 20
1679.749496429288
 30
0.0
 11
30465.604341291921
 21
1735.7494964292871
 31
0.0
  0
LINE
  5
15C02
  8
YODOROGO
 10
30381.604341291932
 20
1679.749496429288
 30
0.0
 11
30465.604341291921
 21
1679.749496429288
 31
0.0
  0
LINE
  5
15C03
  8
YODOROGO
 10
30529.604341291939
 20
1735.7494964292871
 30
0.0
 11
30529.604341291939
 21
1679.749496429288
 31
0.0
  0
LINE
  5
15C04
  8
YODOROGO
 10
30381.604341291932
 20
1735.7494964292871
 30
0.0
 11
30381.604341291932
 21
1795.7494964292871
 31
0.0
  0
LINE
  5
15C05
  8
YODOROGO
 10
30465.604341291921
 20
1735.7494964292871
 30
0.0
 11
30381.604341291932
 21
1735.7494964292871
 31
0.0
  0
LINE
  5
15C06
  8
YODOROGO
 10
30645.604341291921
 20
2027.749496429288
 30
0.0
 11
30973.604341291921
 21
2027.749496429288
 31
0.0
  0
LINE
  5
15C07
  8
YODOROGO
 10
30925.604341291921
 20
1963.749496429286
 30
0.0
 11
30697.604341291932
 21
1963.749496429286
 31
0.0
  0
LINE
  5
15C08
  8
YODOROGO
 10
30873.604341291921
 20
1819.7494964292871
 30
0.0
 11
30899.604341291932
 21
1819.7494964292871
 31
0.0
  0
LINE
  5
15C09
  8
YODOROGO
 10
30899.604341291932
 20
1939.749496429288
 30
0.0
 11
30873.604341291921
 21
1819.7494964292871
 31
0.0
  0
LINE
  5
15C0A
  8
YODOROGO
 10
30851.604341291939
 20
1939.749496429288
 30
0.0
 11
30899.604341291932
 21
1939.749496429288
 31
0.0
  0
LINE
  5
15C0B
  8
YODOROGO
 10
30825.604341291921
 20
1819.7494964292871
 30
0.0
 11
30851.604341291939
 21
1939.749496429288
 31
0.0
  0
LINE
  5
15C0C
  8
YODOROGO
 10
30797.604341291921
 20
1819.7494964292871
 30
0.0
 11
30825.604341291921
 21
1819.7494964292871
 31
0.0
  0
LINE
  5
15C0D
  8
YODOROGO
 10
30771.604341291939
 20
1939.749496429288
 30
0.0
 11
30797.604341291921
 21
1819.7494964292871
 31
0.0
  0
LINE
  5
15C0E
  8
YODOROGO
 10
30723.604341291921
 20
1939.749496429288
 30
0.0
 11
30771.604341291939
 21
1939.749496429288
 31
0.0
  0
LINE
  5
15C0F
  8
YODOROGO
 10
30749.604341291921
 20
1819.7494964292871
 30
0.0
 11
30723.604341291921
 21
1939.749496429288
 31
0.0
  0
LINE
  5
15C10
  8
YODOROGO
 10
30723.604341291921
 20
1819.7494964292871
 30
0.0
 11
30749.604341291921
 21
1819.7494964292871
 31
0.0
  0
LINE
  5
15C11
  8
YODOROGO
 10
30723.604341291921
 20
1755.7494964292871
 30
0.0
 11
30723.604341291921
 21
1819.7494964292871
 31
0.0
  0
LINE
  5
15C12
  8
YODOROGO
 10
30899.604341291932
 20
1755.7494964292871
 30
0.0
 11
30723.604341291921
 21
1755.7494964292871
 31
0.0
  0
LINE
  5
15C13
  8
YODOROGO
 10
30899.604341291932
 20
1819.7494964292871
 30
0.0
 11
30899.604341291932
 21
1755.7494964292871
 31
0.0
  0
LINE
  5
15C14
  8
YODOROGO
 10
30617.604341291921
 20
1947.749496429288
 30
0.0
 11
30617.604341291921
 21
1859.749496429288
 31
0.0
  0
LINE
  5
15C15
  8
YODOROGO
 10
30791.604341291921
 20
1755.7494964292871
 30
0.0
 11
30831.604341291921
 21
1755.7494964292871
 31
0.0
  0
LINE
  5
15C16
  8
YODOROGO
 10
30723.604341291921
 20
1691.749496429288
 30
0.0
 11
30763.604341291921
 21
1691.749496429288
 31
0.0
  0
LINE
  5
15C17
  8
YODOROGO
 10
30859.604341291932
 20
1691.749496429288
 30
0.0
 11
30899.604341291932
 21
1691.749496429288
 31
0.0
  0
LINE
  5
15C18
  8
YODOROGO
 10
30617.604341291921
 20
1795.7494964292871
 30
0.0
 11
30617.604341291921
 21
1735.7494964292871
 31
0.0
  0
LINE
  5
15C19
  8
YODOROGO
 10
31165.604341291921
 20
2027.749496429288
 30
0.0
 11
31165.604341291921
 21
1963.749496429286
 31
0.0
  0
LINE
  5
15C1A
  8
YODOROGO
 10
31533.604341291921
 20
1595.7494964292871
 30
0.0
 11
31533.60434129191
 21
1811.749496429288
 31
0.0
  0
LINE
  5
15C1B
  8
YODOROGO
 10
31461.60434129191
 20
1987.7494964292871
 30
0.0
 11
31461.60434129191
 21
1635.7494964292871
 31
0.0
  0
LINE
  5
15C1C
  8
YODOROGO
 10
31653.604341291921
 20
1427.749496429288
 30
0.0
 11
31653.60434129191
 21
1811.749496429288
 31
0.0
  0
LINE
  5
15C1D
  8
YODOROGO
 10
31589.604341291921
 20
1811.749496429288
 30
0.0
 11
31589.604341291921
 21
1427.749496429288
 31
0.0
  0
LINE
  5
15C1E
  8
YODOROGO
 10
31237.604341291921
 20
1595.7494964292871
 30
0.0
 11
31237.604341291921
 21
1707.749496429288
 31
0.0
  0
ARC
  5
15C1F
  8
YODOROGO
 10
31353.914865116069
 20
1607.790351288558
 30
0.0
 40
180.0924485759885
 50
268.62849102169793
 51
356.16638457330322
  0
LINE
  5
15C20
  8
YODOROGO
 10
31349.604341291939
 20
1527.749496429288
 30
0.0
 11
31349.604341291939
 21
1427.749496429288
 31
0.0
  0
ARC
  5
15C21
  8
YODOROGO
 10
31351.518075724562
 20
1637.838957017655
 30
0.0
 40
110.1060929836122
 50
269.00410209305932
 51
358.91264455492478
  0
LINE
  5
15C22
  8
YODOROGO
 10
31589.604341291921
 20
1427.749496429288
 30
0.0
 11
31653.604341291921
 21
1427.749496429288
 31
0.0
  0
LINE
  5
15C23
  8
YODOROGO
 10
31533.60434129191
 20
1811.749496429288
 30
0.0
 11
31589.604341291921
 21
1811.749496429288
 31
0.0
  0
LINE
  5
15C24
  8
YODOROGO
 10
31621.604341291939
 20
1987.7494964292871
 30
0.0
 11
31461.60434129191
 21
1987.7494964292871
 31
0.0
  0
LINE
  5
15C25
  8
YODOROGO
 10
31533.60434129191
 20
1915.7494964292871
 30
0.0
 11
31661.604341291939
 21
1915.7494964292871
 31
0.0
  0
LINE
  5
15C26
  8
YODOROGO
 10
31701.604341291939
 20
1875.7494964292871
 30
0.0
 11
31533.60434129191
 21
1875.7494964292871
 31
0.0
  0
LINE
  5
15C27
  8
YODOROGO
 10
31237.604341291921
 20
1779.749496429288
 30
0.0
 11
31349.604341291939
 21
1779.749496429288
 31
0.0
  0
LINE
  5
15C28
  8
YODOROGO
 10
31237.604341291921
 20
1835.7494964292871
 30
0.0
 11
31237.604341291921
 21
1779.749496429288
 31
0.0
  0
LINE
  5
15C29
  8
YODOROGO
 10
31349.604341291939
 20
1835.7494964292871
 30
0.0
 11
31237.604341291921
 21
1835.7494964292871
 31
0.0
  0
LINE
  5
15C2A
  8
YODOROGO
 10
31349.604341291939
 20
1779.749496429288
 30
0.0
 11
31349.604341291939
 21
1835.7494964292871
 31
0.0
  0
LINE
  5
15C2B
  8
YODOROGO
 10
31533.60434129191
 20
1875.7494964292871
 30
0.0
 11
31533.60434129191
 21
1915.7494964292871
 31
0.0
  0
LINE
  5
15C2C
  8
YODOROGO
 10
31413.604341291921
 20
1707.749496429288
 30
0.0
 11
31413.604341291921
 21
1907.7494964292871
 31
0.0
  0
LINE
  5
15C2D
  8
YODOROGO
 10
31237.604341291921
 20
1707.749496429288
 30
0.0
 11
31413.604341291921
 21
1707.749496429288
 31
0.0
  0
LINE
  5
15C2E
  8
YODOROGO
 10
31413.604341291921
 20
1963.749496429286
 30
0.0
 11
31413.604341291921
 21
2027.749496429288
 31
0.0
  0
ARC
  5
15C2F
  8
YODOROGO
 10
31621.604341291939
 20
2003.749496429285
 30
0.0
 40
15.999999999994539
 50
270.0
 51
0.0000000000081422
  0
LINE
  5
15C30
  8
YODOROGO
 10
31637.604341291921
 20
2027.749496429288
 30
0.0
 11
31637.604341291921
 21
2003.7494964292871
 31
0.0
  0
LINE
  5
15C31
  8
YODOROGO
 10
31701.604341291939
 20
2027.749496429288
 30
0.0
 11
31637.604341291921
 21
2027.749496429288
 31
0.0
  0
LINE
  5
15C32
  8
YODOROGO
 10
31701.604341291939
 20
1955.7494964292871
 30
0.0
 11
31701.604341291939
 21
2027.749496429288
 31
0.0
  0
ARC
  5
15C33
  8
YODOROGO
 10
31661.604341291939
 20
1955.7494964292871
 30
0.0
 40
40.0
 50
270.0
 51
0.0
  0
LINE
  5
15C34
  8
YODOROGO
 10
31701.604341291939
 20
1811.749496429288
 30
0.0
 11
31701.604341291939
 21
1875.7494964292871
 31
0.0
  0
LINE
  5
15C35
  8
YODOROGO
 10
31653.60434129191
 20
1811.749496429288
 30
0.0
 11
31701.604341291939
 21
1811.749496429288
 31
0.0
  0
LINE
  5
15C36
  8
0-6
  6
CONTINUOUS
 62
     6
 10
7140.738309208552
 20
19180.984931043178
 30
0.0
 11
7215.4580542791846
 21
19324.95692542191
 31
0.0
  0
LINE
  5
15C37
  8
0-6
  6
CONTINUOUS
 62
     6
 10
7215.4580542791846
 20
19324.95692542191
 30
0.0
 11
7098.082011295528
 21
19212.99993574445
 31
0.0
  0
LINE
  5
15C38
  8
0-6
  6
CONTINUOUS
 62
     6
 10
7098.082011295528
 20
19212.99993574445
 30
0.0
 11
7140.738309208552
 21
19180.984931043178
 31
0.0
  0
LINE
  5
15C39
  8
0-6
  6
CONTINUOUS
 62
     6
 10
7140.738309208552
 20
16652.483427043291
 30
0.0
 11
7215.4580542791809
 21
16796.455421422019
 31
0.0
  0
LINE
  5
15C3A
  8
0-6
  6
CONTINUOUS
 62
     6
 10
7215.4580542791809
 20
16796.455421422019
 30
0.0
 11
7098.0820112955271
 21
16684.498431744541
 31
0.0
  0
LINE
  5
15C3B
  8
0-6
  6
CONTINUOUS
 62
     6
 10
7098.0820112955271
 20
16684.498431744541
 30
0.0
 11
7140.738309208552
 21
16652.483427043291
 31
0.0
  0
LINE
  5
15C3C
  8
0-6
  6
CONTINUOUS
 62
     6
 10
7140.738309208552
 20
14048.48407404317
 30
0.0
 11
7215.4580542791809
 21
14192.45606842189
 31
0.0
  0
LINE
  5
15C3D
  8
0-6
  6
CONTINUOUS
 62
     6
 10
7215.4580542791809
 20
14192.45606842189
 30
0.0
 11
7098.0820112955271
 21
14080.499078744429
 31
0.0
  0
LINE
  5
15C3E
  8
0-6
  6
CONTINUOUS
 62
     6
 10
7098.0820112955271
 20
14080.499078744429
 30
0.0
 11
7140.738309208552
 21
14048.48407404317
 31
0.0
  0
LINE
  5
15C44
  8
0-6
  6
CONTINUOUS
 62
     6
 10
19585.08029824914
 20
19148.358648675301
 30
0.0
 11
19478.75227430118
 21
19270.854880421961
 31
0.0
  0
LINE
  5
15C45
  8
0-6
  6
CONTINUOUS
 62
     6
 10
19478.75227430118
 20
19270.854880421961
 30
0.0
 11
19539.604393894431
 21
19120.493573746509
 31
0.0
  0
LINE
  5
15C46
  8
0-6
  6
CONTINUOUS
 62
     6
 10
19539.604393894431
 20
19120.493573746509
 30
0.0
 11
19585.08029824914
 21
19148.358648675301
 31
0.0
  0
LINE
  5
15C47
  8
0-6
  6
CONTINUOUS
 62
     6
 10
19556.895952743162
 20
19564.17220535464
 30
0.0
 11
19487.852274301182
 21
19417.393644467811
 31
0.0
  0
LINE
  5
15C48
  8
0-6
  6
CONTINUOUS
 62
     6
 10
19487.852274301182
 20
19417.393644467811
 30
0.0
 11
19600.769274480321
 21
19533.846442092788
 31
0.0
  0
LINE
  5
15C49
  8
0-6
  6
CONTINUOUS
 62
     6
 10
19600.769274480321
 20
19533.846442092788
 30
0.0
 11
19556.895952743162
 21
19564.17220535464
 31
0.0
  0
LINE
  5
15C4A
  8
0-6
  6
CONTINUOUS
 62
     6
 10
19585.08029824914
 20
16981.051217168599
 30
0.0
 11
19478.75227430118
 21
16858.55498542195
 31
0.0
  0
LINE
  5
15C4B
  8
0-6
  6
CONTINUOUS
 62
     6
 10
19478.75227430118
 20
16858.55498542195
 30
0.0
 11
19539.604393894431
 21
17008.916292097401
 31
0.0
  0
LINE
  5
15C4C
  8
0-6
  6
CONTINUOUS
 62
     6
 10
19539.604393894431
 20
17008.916292097401
 30
0.0
 11
19585.08029824914
 21
16981.051217168599
 31
0.0
  0
LINE
  5
15C4D
  8
0-6
  6
CONTINUOUS
 62
     6
 10
19585.08029824914
 20
14424.051653168601
 30
0.0
 11
19478.75227430118
 21
14301.555421421959
 31
0.0
  0
LINE
  5
15C4E
  8
0-6
  6
CONTINUOUS
 62
     6
 10
19478.75227430118
 20
14301.555421421959
 30
0.0
 11
19539.604393894431
 21
14451.916728097411
 31
0.0
  0
LINE
  5
15C4F
  8
0-6
  6
CONTINUOUS
 62
     6
 10
19539.604393894431
 20
14451.916728097411
 30
0.0
 11
19585.08029824914
 21
14424.051653168601
 31
0.0
  0
LINE
  5
15C50
  8
0-6
  6
CONTINUOUS
 62
     6
 10
19556.895952743162
 20
16565.23766048926
 30
0.0
 11
19487.852274301182
 21
16712.01622137607
 31
0.0
  0
LINE
  5
15C51
  8
0-6
  6
CONTINUOUS
 62
     6
 10
19487.852274301182
 20
16712.01622137607
 30
0.0
 11
19600.769274480321
 21
16595.5634237511
 31
0.0
  0
LINE
  5
15C52
  8
0-6
  6
CONTINUOUS
 62
     6
 10
19600.769274480321
 20
16595.5634237511
 30
0.0
 11
19556.895952743162
 21
16565.23766048926
 31
0.0
  0
LINE
  5
15C53
  8
0-6
  6
CONTINUOUS
 62
     6
 10
19556.895952743162
 20
14028.17686053513
 30
0.0
 11
19487.852274301182
 21
14174.95542142195
 31
0.0
  0
LINE
  5
15C54
  8
0-6
  6
CONTINUOUS
 62
     6
 10
19487.852274301182
 20
14174.95542142195
 30
0.0
 11
19600.769274480321
 21
14058.50262379698
 31
0.0
  0
LINE
  5
15C55
  8
0-6
  6
CONTINUOUS
 62
     6
 10
19600.769274480321
 20
14058.50262379698
 30
0.0
 11
19556.895952743162
 21
14028.17686053513
 31
0.0
  0
LINE
  5
15C8C
  8
SUNPOU
  6
CONTINUOUS
 62
     4
 10
24442.852274301182
 20
20606.456345421939
 30
0.0
 11
19442.852274301182
 21
20606.456345421939
 31
0.0
  0
LINE
  5
15C8D
  8
SUNPOU
  6
CONTINUOUS
 62
     4
 10
27360.852274301182
 20
20606.456345421939
 30
0.0
 11
24442.852274301182
 21
20606.456345421939
 31
0.0
  0
LINE
  5
15C8E
  8
SUNPOU
  6
CONTINUOUS
 62
     4
 10
19442.852274301182
 20
19730.905195299281
 30
0.0
 11
19442.852274301182
 21
20286.45634542195
 31
0.0
  0
LINE
  5
15C8F
  8
SUNPOU
  6
CONTINUOUS
 62
     4
 10
19485.354517301181
 20
19569.805685421961
 30
0.0
 11
19485.354517301181
 21
20286.45634542195
 31
0.0
  0
LINE
  5
15C90
  8
SUNPOU
  6
CONTINUOUS
 62
     4
 10
19442.852274301182
 20
20206.45634542195
 30
0.0
 11
19202.852274301182
 21
20206.45634542195
 31
0.0
  0
LINE
  5
15C91
  8
SUNPOU
  6
CONTINUOUS
 62
     4
 10
19485.354517301181
 20
20206.45634542195
 30
0.0
 11
19725.354517301181
 21
20206.45634542195
 31
0.0
  0
LINE
  5
15C92
  8
SUNPOU
  6
CONTINUOUS
 62
     4
 10
19442.852274301182
 20
20206.45634542195
 30
0.0
 11
19485.354517301181
 21
20206.45634542195
 31
0.0
  0
LINE
  5
15C93
  8
SUNPOU
  6
CONTINUOUS
 62
     4
 10
19442.852274301182
 20
19730.905195299281
 30
0.0
 11
19442.852274301182
 21
20286.45634542195
 31
0.0
  0
LINE
  5
15C94
  8
SUNPOU
  6
CONTINUOUS
 62
     4
 10
19400.353989301191
 20
19566.457928421951
 30
0.0
 11
19400.353989301191
 21
20286.45634542195
 31
0.0
  0
LINE
  5
15C95
  8
SUNPOU
  6
CONTINUOUS
 62
     4
 10
19442.852274301182
 20
20206.45634542195
 30
0.0
 11
19682.852274301182
 21
20206.45634542195
 31
0.0
  0
LINE
  5
15C96
  8
SUNPOU
  6
CONTINUOUS
 62
     4
 10
19400.353989301191
 20
20206.45634542195
 30
0.0
 11
19160.353989301191
 21
20206.45634542195
 31
0.0
  0
LINE
  5
15C97
  8
SUNPOU
  6
CONTINUOUS
 62
     4
 10
19442.852274301182
 20
20206.45634542195
 30
0.0
 11
19400.353989301191
 21
20206.45634542195
 31
0.0
  0
LINE
  5
15C98
  8
SUNPOU
  6
CONTINUOUS
 62
     4
 10
19058.247438349241
 20
16796.455421421961
 30
0.0
 11
18145.008649932559
 21
16796.455421421961
 31
0.0
  0
LINE
  5
15C99
  8
SUNPOU
  6
CONTINUOUS
 62
     4
 10
19058.247438349241
 20
19363.955421421961
 30
0.0
 11
18145.008649932559
 21
19363.955421421961
 31
0.0
  0
LINE
  5
15C9A
  8
SUNPOU
  6
CONTINUOUS
 62
     4
 10
18225.008649932552
 20
16796.455421421961
 30
0.0
 11
18225.008649932552
 21
19363.955421421961
 31
0.0
  0
LINE
  5
15C9B
  8
SUNPOU
  6
CONTINUOUS
 62
     4
 10
19058.247438349241
 20
14228.955421421961
 30
0.0
 11
18145.008649932559
 21
14228.955421421961
 31
0.0
  0
LINE
  5
15C9C
  8
SUNPOU
  6
CONTINUOUS
 62
     4
 10
19058.247438349241
 20
16796.455421421961
 30
0.0
 11
18145.008649932559
 21
16796.455421421961
 31
0.0
  0
LINE
  5
15C9D
  8
SUNPOU
  6
CONTINUOUS
 62
     4
 10
18225.008649932552
 20
14228.955421421961
 30
0.0
 11
18225.008649932552
 21
16796.455421421961
 31
0.0
  0
ARC
  5
15CB5
  8
1-前柱P
 10
19433.25227430118
 20
14297.35542142196
 30
0.0
 40
1.0
 50
0.0
 51
90.0
  0
LINE
  5
15CB6
  8
1-前柱P
 10
19434.25227430118
 20
14297.35542142196
 30
0.0
 11
19434.25227430118
 21
14295.75542142196
 31
0.0
  0
LINE
  5
15CB7
  8
1-前柱P
 10
19434.25227430118
 20
14295.75542142196
 30
0.0
 11
19445.45227430118
 21
14295.75542142196
 31
0.0
  0
LINE
  5
15CB8
  8
1-前柱P
 10
19445.45227430118
 20
14295.75542142196
 30
0.0
 11
19445.452274301191
 21
14297.35542142196
 31
0.0
  0
ARC
  5
15CB9
  8
1-前柱P
 10
19446.452274301191
 20
14297.35542142196
 30
0.0
 40
1.0
 50
90.0
 51
180.0
  0
ARC
  5
15CBA
  8
1-中柱P
 10
19449.452274301191
 20
16864.755421421949
 30
0.0
 40
1.0
 50
90.0
 51
180.0
  0
LINE
  5
15CBB
  8
1-中柱P
 10
19448.452274301191
 20
16864.755421421949
 30
0.0
 11
19448.452274301191
 21
16863.155421421961
 31
0.0
  0
LINE
  5
15CBC
  8
1-中柱P
 10
19448.452274301191
 20
16863.155421421961
 30
0.0
 11
19437.25227430119
 21
16863.155421421961
 31
0.0
  0
LINE
  5
15CBD
  8
1-中柱P
 10
19437.25227430119
 20
16863.155421421961
 30
0.0
 11
19437.25227430119
 21
16864.755421421949
 31
0.0
  0
ARC
  5
15CBE
  8
1-中柱P
 10
19436.25227430119
 20
16864.755421421949
 30
0.0
 40
1.0
 50
0.0
 51
90.0
  0
ARC
  5
15CBF
  8
1-後柱P
 10
19452.45227430118
 20
19295.90542142195
 30
0.0
 40
1.0
 50
180.0
 51
270.0
  0
LINE
  5
15CC0
  8
1-後柱P
 10
19451.452274301151
 20
19295.90542142195
 30
0.0
 11
19451.452274301151
 21
19297.50542142196
 31
0.0
  0
LINE
  5
15CC1
  8
1-後柱P
 10
19451.452274301151
 20
19297.50542142196
 30
0.0
 11
19440.25227430118
 21
19297.50542142196
 31
0.0
  0
LINE
  5
15CC2
  8
1-後柱P
 10
19440.25227430118
 20
19297.50542142196
 30
0.0
 11
19440.25227430118
 21
19295.90542142195
 31
0.0
  0
ARC
  5
15CC3
  8
1-後柱P
 10
19439.25227430118
 20
19295.90542142195
 30
0.0
 40
1.0
 50
270.0
 51
0.0
  0
LINE
  5
15CC4
  8
SUNPOU
  6
CONTINUOUS
 62
     4
 10
13451.8888954096
 20
8524.1575434219612
 30
0.0
 11
13451.8888954096
 21
9915.1575694219573
 31
0.0
  0
LINE
  5
15CC5
  8
SUNPOU
  6
CONTINUOUS
 62
     4
 10
7901.8888954096037
 20
8656.0473668343893
 30
0.0
 11
7901.8888954096037
 21
9915.1575694219573
 31
0.0
  0
LINE
  5
15CC6
  8
SUNPOU
  6
CONTINUOUS
 62
     4
 10
13451.8888954096
 20
9835.1575694219573
 30
0.0
 11
7901.8888954096037
 21
9835.1575694219573
 31
0.0
  0
LINE
  5
15CC7
  8
SUNPOU
  6
CONTINUOUS
 62
     4
 10
8051.8888954095974
 20
8582.0676074219573
 30
0.0
 11
8051.8888954095974
 21
9515.1592194219611
 31
0.0
  0
LINE
  5
15CC8
  8
SUNPOU
  6
CONTINUOUS
 62
     4
 10
7901.8888954096037
 20
8656.0473668343893
 30
0.0
 11
7901.8888954096037
 21
9515.1592194219611
 31
0.0
  0
LINE
  5
15CC9
  8
SUNPOU
  6
CONTINUOUS
 62
     4
 10
8051.8888954095974
 20
9435.1592194219593
 30
0.0
 11
8291.8888954095964
 21
9435.1592194219593
 31
0.0
  0
LINE
  5
15CCA
  8
SUNPOU
  6
CONTINUOUS
 62
     4
 10
7901.8888954096037
 20
9435.1592194219593
 30
0.0
 11
7661.8888954096028
 21
9435.1592194219593
 31
0.0
  0
LINE
  5
15CCB
  8
SUNPOU
  6
CONTINUOUS
 62
     4
 10
8051.8888954095974
 20
9435.1592194219593
 30
0.0
 11
7901.8888954096037
 21
9435.1592194219593
 31
0.0
  0
LINE
  5
15CCC
  8
SUNPOU
  6
CONTINUOUS
 62
     4
 10
13271.8888954096
 20
8394.3433191057684
 30
0.0
 11
13271.8888954096
 21
9515.1592194219611
 31
0.0
  0
LINE
  5
15CCD
  8
SUNPOU
  6
CONTINUOUS
 62
     4
 10
8051.8888954095974
 20
8582.0676074219573
 30
0.0
 11
8051.8888954095974
 21
9515.1592194219611
 31
0.0
  0
LINE
  5
15CCE
  8
SUNPOU
  6
CONTINUOUS
 62
     4
 10
13271.8888954096
 20
9435.1592194219593
 30
0.0
 11
8051.8888954095974
 21
9435.1592194219593
 31
0.0
  0
LINE
  5
15CCF
  8
SUNPOU
  6
CONTINUOUS
 62
     4
 10
13451.8888954096
 20
8524.1575434219612
 30
0.0
 11
13451.8888954096
 21
9515.1592194219611
 31
0.0
  0
LINE
  5
15CD0
  8
SUNPOU
  6
CONTINUOUS
 62
     4
 10
13271.8888954096
 20
8394.3433191057684
 30
0.0
 11
13271.8888954096
 21
9515.1592194219611
 31
0.0
  0
LINE
  5
15CD1
  8
SUNPOU
  6
CONTINUOUS
 62
     4
 10
13451.8888954096
 20
9435.1592194219593
 30
0.0
 11
13271.8888954096
 21
9435.1592194219593
 31
0.0
  0
LINE
  5
15CD2
  8
SUNPOU
  6
CONTINUOUS
 62
     4
 10
7959.3888954096037
 20
6287.1575434219621
 30
0.0
 11
6881.8884994096006
 21
6287.1575434219621
 31
0.0
  0
LINE
  5
15CD3
  8
SUNPOU
  6
CONTINUOUS
 62
     4
 10
7867.0816358102238
 20
8636.1575434219612
 30
0.0
 11
6881.8884994096006
 21
8636.1575434219612
 31
0.0
  0
LINE
  5
15CD4
  8
SUNPOU
  6
CONTINUOUS
 62
     4
 10
6961.8884994095988
 20
6287.1575434219621
 30
0.0
 11
6961.8884994095988
 21
8636.1575434219612
 31
0.0
  0
LINE
  5
15CD5
  8
SUNPOU
  6
CONTINUOUS
 62
     4
 10
13359.3888954096
 20
6287.1575434219621
 30
0.0
 11
14441.88929140959
 21
6287.1575434219612
 31
0.0
  0
LINE
  5
15CD6
  8
SUNPOU
  6
CONTINUOUS
 62
     4
 10
13531.8888954096
 20
8442.6575434219612
 30
0.0
 11
14441.88929140959
 21
8442.6575434219612
 31
0.0
  0
LINE
  5
15CD7
  8
SUNPOU
  6
CONTINUOUS
 62
     4
 10
14361.88929140959
 20
6287.1575434219612
 30
0.0
 11
14361.88929140959
 21
8442.6575434219612
 31
0.0
  0
LINE
  5
15CD8
  8
SUNPOU
  6
CONTINUOUS
 62
     4
 10
13271.8888954096
 20
6207.1575434219603
 30
0.0
 11
13271.8888954096
 21
4507.1578734219556
 31
0.0
  0
LINE
  5
15CD9
  8
SUNPOU
  6
CONTINUOUS
 62
     4
 10
8051.8888954095974
 20
6207.1575434219603
 30
0.0
 11
8051.8888954095974
 21
4507.1578734219556
 31
0.0
  0
LINE
  5
15CDA
  8
SUNPOU
  6
CONTINUOUS
 62
     4
 10
13271.8888954096
 20
4587.1578734219574
 30
0.0
 11
8051.8888954095974
 21
4587.1578734219574
 31
0.0
  0
LINE
  5
15CDB
  8
SUNPOU
  6
CONTINUOUS
 62
     4
 10
8094.3888954096064
 20
5844.5052854219593
 30
0.0
 11
8094.3888954096064
 21
4907.1577084219589
 31
0.0
  0
LINE
  5
15CDC
  8
SUNPOU
  6
CONTINUOUS
 62
     4
 10
8051.8888954095974
 20
6207.1575434219603
 30
0.0
 11
8051.8888954095974
 21
4907.1577084219589
 31
0.0
  0
LINE
  5
15CDD
  8
SUNPOU
  6
CONTINUOUS
 62
     4
 10
8094.3888954096064
 20
4987.1577084219589
 30
0.0
 11
8334.3888954096037
 21
4987.1577084219589
 31
0.0
  0
LINE
  5
15CDE
  8
SUNPOU
  6
CONTINUOUS
 62
     4
 10
8051.8888954095974
 20
4987.1577084219589
 30
0.0
 11
7811.8888954095983
 21
4987.1577084219589
 31
0.0
  0
LINE
  5
15CDF
  8
SUNPOU
  6
CONTINUOUS
 62
     4
 10
8094.3888954096064
 20
4987.1577084219589
 30
0.0
 11
8051.8888954095974
 21
4987.1577084219589
 31
0.0
  0
LINE
  5
15CE0
  8
SUNPOU
  6
CONTINUOUS
 62
     4
 10
13229.3888954096
 20
5844.5052854219593
 30
0.0
 11
13229.3888954096
 21
4907.1577084219589
 31
0.0
  0
LINE
  5
15CE1
  8
SUNPOU
  6
CONTINUOUS
 62
     4
 10
13271.8888954096
 20
6207.1575434219603
 30
0.0
 11
13271.8888954096
 21
4907.1577084219589
 31
0.0
  0
LINE
  5
15CE2
  8
SUNPOU
  6
CONTINUOUS
 62
     4
 10
13229.3888954096
 20
4987.1577084219589
 30
0.0
 11
12989.3888954096
 21
4987.1577084219589
 31
0.0
  0
LINE
  5
15CE3
  8
SUNPOU
  6
CONTINUOUS
 62
     4
 10
13271.8888954096
 20
4987.1577084219589
 30
0.0
 11
13511.8888954096
 21
4987.1577084219589
 31
0.0
  0
LINE
  5
15CE4
  8
SUNPOU
  6
CONTINUOUS
 62
     4
 10
13229.3888954096
 20
4987.1577084219589
 30
0.0
 11
13271.8888954096
 21
4987.1577084219589
 31
0.0
  0
LINE
  5
15CE5
  8
SUNPOU
  6
CONTINUOUS
 62
     4
 10
10661.8888954096
 20
5844.5052854219593
 30
0.0
 11
10661.8888954096
 21
4907.1577084219589
 31
0.0
  0
LINE
  5
15CE6
  8
SUNPOU
  6
CONTINUOUS
 62
     4
 10
13229.3888954096
 20
5844.5052854219593
 30
0.0
 11
13229.3888954096
 21
4907.1577084219589
 31
0.0
  0
LINE
  5
15CE7
  8
SUNPOU
  6
CONTINUOUS
 62
     4
 10
10661.8888954096
 20
4987.1577084219589
 30
0.0
 11
13229.3888954096
 21
4987.1577084219589
 31
0.0
  0
LINE
  5
15CE8
  8
SUNPOU
  6
CONTINUOUS
 62
     4
 10
10661.8888954096
 20
5844.5052854219593
 30
0.0
 11
10661.8888954096
 21
4907.1577084219589
 31
0.0
  0
LINE
  5
15CE9
  8
SUNPOU
  6
CONTINUOUS
 62
     4
 10
8094.3888954096064
 20
5844.5052854219593
 30
0.0
 11
8094.3888954096064
 21
4907.1577084219589
 31
0.0
  0
LINE
  5
15CEA
  8
SUNPOU
  6
CONTINUOUS
 62
     4
 10
10661.8888954096
 20
4987.1577084219589
 30
0.0
 11
8094.3888954096064
 21
4987.1577084219589
 31
0.0
  0
LINE
  5
15CEB
  8
SUNPOU
  6
CONTINUOUS
 62
     4
 10
27446.3522743012
 20
8715.6575694219555
 30
0.0
 11
27446.3522743012
 21
9915.1021434219656
 31
0.0
  0
LINE
  5
15CEC
  8
SUNPOU
  6
CONTINUOUS
 62
     4
 10
19357.352274301182
 20
8715.6575694219555
 30
0.0
 11
19357.352274301182
 21
9915.1021434219656
 31
0.0
  0
LINE
  5
15CED
  8
SUNPOU
  6
CONTINUOUS
 62
     4
 10
27443.3522743012
 20
9835.1021434219638
 30
0.0
 11
19360.352274301182
 21
9835.1021434219638
 31
0.0
  0
LINE
  5
15CEE
  8
SUNPOU
  6
CONTINUOUS
 62
     4
 10
19400.352274301182
 20
8715.6575694219555
 30
0.0
 11
19400.352274301182
 21
9515.1592194219611
 31
0.0
  0
LINE
  5
15CEF
  8
SUNPOU
  6
CONTINUOUS
 62
     4
 10
19357.352274301182
 20
8715.6575694219555
 30
0.0
 11
19357.352274301182
 21
9515.1592194219611
 31
0.0
  0
LINE
  5
15CF0
  8
SUNPOU
  6
CONTINUOUS
 62
     4
 10
19400.352274301182
 20
9435.1592194219593
 30
0.0
 11
19640.352274301182
 21
9435.1592194219593
 31
0.0
  0
LINE
  5
15CF1
  8
SUNPOU
  6
CONTINUOUS
 62
     4
 10
19360.352274301182
 20
9435.1592194219593
 30
0.0
 11
19120.352274301182
 21
9435.1592194219593
 31
0.0
  0
LINE
  5
15CF2
  8
SUNPOU
  6
CONTINUOUS
 62
     4
 10
19400.352274301182
 20
9435.1592194219593
 30
0.0
 11
19360.352274301182
 21
9435.1592194219593
 31
0.0
  0
LINE
  5
15CF3
  8
SUNPOU
  6
CONTINUOUS
 62
     4
 10
27403.3522743012
 20
8585.657635421956
 30
0.0
 11
27403.3522743012
 21
9515.1592194219611
 31
0.0
  0
LINE
  5
15CF4
  8
SUNPOU
  6
CONTINUOUS
 62
     4
 10
27446.3522743012
 20
8715.6575694219555
 30
0.0
 11
27446.3522743012
 21
9515.1592194219611
 31
0.0
  0
LINE
  5
15CF5
  8
SUNPOU
  6
CONTINUOUS
 62
     4
 10
27403.3522743012
 20
9435.1592194219593
 30
0.0
 11
27163.3522743012
 21
9435.1592194219593
 31
0.0
  0
LINE
  5
15CF6
  8
SUNPOU
  6
CONTINUOUS
 62
     4
 10
27443.3522743012
 20
9435.1592194219593
 30
0.0
 11
27683.3522743012
 21
9435.1592194219593
 31
0.0
  0
LINE
  5
15CF7
  8
SUNPOU
  6
CONTINUOUS
 62
     4
 10
27403.3522743012
 20
9435.1592194219593
 30
0.0
 11
27443.3522743012
 21
9435.1592194219593
 31
0.0
  0
LINE
  5
15CF8
  8
SUNPOU
  6
CONTINUOUS
 62
     4
 10
24400.352274301182
 20
8585.657635421956
 30
0.0
 11
24400.352274301182
 21
9515.1592194219611
 31
0.0
  0
LINE
  5
15CF9
  8
SUNPOU
  6
CONTINUOUS
 62
     4
 10
27403.3522743012
 20
8585.657635421956
 30
0.0
 11
27403.3522743012
 21
9515.1592194219611
 31
0.0
  0
LINE
  5
15CFA
  8
SUNPOU
  6
CONTINUOUS
 62
     4
 10
24400.352274301182
 20
9435.1592194219593
 30
0.0
 11
27403.3522743012
 21
9435.1592194219593
 31
0.0
  0
LINE
  5
15CFB
  8
SUNPOU
  6
CONTINUOUS
 62
     4
 10
27490.85491330118
 20
6287.1575434219621
 30
0.0
 11
28933.954525005931
 21
6287.1575434219621
 31
0.0
  0
LINE
  5
15CFC
  8
SUNPOU
  6
CONTINUOUS
 62
     4
 10
27523.3522743012
 20
8636.1575694219555
 30
0.0
 11
28933.954525005931
 21
8636.1575694219537
 31
0.0
  0
LINE
  5
15CFD
  8
SUNPOU
  6
CONTINUOUS
 62
     4
 10
28853.95452500592
 20
6287.1575434219621
 30
0.0
 11
28853.95452500592
 21
8636.1575694219537
 31
0.0
  0
LINE
  5
15CFE
  8
SUNPOU
  6
CONTINUOUS
 62
     4
 10
27490.85491330118
 20
6287.1575434219621
 30
0.0
 11
28290.855573301182
 21
6287.1575434219621
 31
0.0
  0
LINE
  5
15CFF
  8
SUNPOU
  6
CONTINUOUS
 62
     4
 10
27398.355969301181
 20
8178.6575434219612
 30
0.0
 11
28290.855573301182
 21
8178.6575434219612
 31
0.0
  0
LINE
  5
15D00
  8
SUNPOU
  6
CONTINUOUS
 62
     4
 10
28210.855573301182
 20
6287.1575434219621
 30
0.0
 11
28210.855573301182
 21
8178.6575434219612
 31
0.0
  0
LINE
  5
15D01
  8
SUNPOU
  6
CONTINUOUS
 62
     4
 10
24397.352274301182
 20
6207.1575434219603
 30
0.0
 11
24397.352274301182
 21
5307.1575434219612
 31
0.0
  0
LINE
  5
15D02
  8
SUNPOU
  6
CONTINUOUS
 62
     4
 10
19485.352274301182
 20
6107.1577084219589
 30
0.0
 11
19485.352274301182
 21
5307.1575434219612
 31
0.0
  0
LINE
  5
15D03
  8
SUNPOU
  6
CONTINUOUS
 62
     4
 10
24397.352274301182
 20
5387.1575434219612
 30
0.0
 11
19485.352274301182
 21
5387.1575434219612
 31
0.0
  0
LINE
  5
15D04
  8
SUNPOU
  6
CONTINUOUS
 62
     4
 10
27403.312321353649
 20
6207.1575434219603
 30
0.0
 11
27403.312321353649
 21
4507.1578734220147
 31
0.0
  0
LINE
  5
15D05
  8
SUNPOU
  6
CONTINUOUS
 62
     4
 10
19400.352274301182
 20
6107.1577084219589
 30
0.0
 11
19400.352274301182
 21
4507.1578734220147
 31
0.0
  0
LINE
  5
15D06
  8
SUNPOU
  6
CONTINUOUS
 62
     4
 10
27403.312321353649
 20
4587.1578734220147
 30
0.0
 11
19400.352274301182
 21
4587.1578734220147
 31
0.0
  0
LINE
  5
15D07
  8
SUNPOU
  6
CONTINUOUS
 62
     4
 10
27360.8522743012
 20
5844.5052854219593
 30
0.0
 11
27360.8522743012
 21
4907.1577084219589
 31
0.0
  0
LINE
  5
15D08
  8
SUNPOU
  6
CONTINUOUS
 62
     4
 10
27403.312321353649
 20
6207.1575434219603
 30
0.0
 11
27403.312321353649
 21
4907.1577084219589
 31
0.0
  0
LINE
  5
15D09
  8
SUNPOU
  6
CONTINUOUS
 62
     4
 10
27360.8522743012
 20
4987.1577084219589
 30
0.0
 11
27120.8522743012
 21
4987.1577084219589
 31
0.0
  0
LINE
  5
15D0A
  8
SUNPOU
  6
CONTINUOUS
 62
     4
 10
27403.312321353649
 20
4987.1577084219589
 30
0.0
 11
27643.312321353649
 21
4987.1577084219589
 31
0.0
  0
LINE
  5
15D0B
  8
SUNPOU
  6
CONTINUOUS
 62
     4
 10
27360.8522743012
 20
4987.1577084219589
 30
0.0
 11
27403.312321353649
 21
4987.1577084219589
 31
0.0
  0
LINE
  5
15D0C
  8
SUNPOU
  6
CONTINUOUS
 62
     4
 10
24442.852274301182
 20
5844.5052854219593
 30
0.0
 11
24442.852274301182
 21
4907.1577084219589
 31
0.0
  0
LINE
  5
15D0D
  8
SUNPOU
  6
CONTINUOUS
 62
     4
 10
27360.8522743012
 20
5844.5052854219593
 30
0.0
 11
27360.8522743012
 21
4907.1577084219589
 31
0.0
  0
LINE
  5
15D0E
  8
SUNPOU
  6
CONTINUOUS
 62
     4
 10
24442.852274301182
 20
4987.1577084219589
 30
0.0
 11
27360.8522743012
 21
4987.1577084219589
 31
0.0
  0
LINE
  5
15D0F
  8
SUNPOU
  6
CONTINUOUS
 62
     4
 10
27266.8522743012
 20
6107.1577084219589
 30
0.0
 11
27266.8522743012
 21
5307.1575434219612
 31
0.0
  0
LINE
  5
15D10
  8
SUNPOU
  6
CONTINUOUS
 62
     4
 10
24536.8522743012
 20
6107.1577084219589
 30
0.0
 11
24536.8522743012
 21
5307.1575434219612
 31
0.0
  0
LINE
  5
15D11
  8
SUNPOU
  6
CONTINUOUS
 62
     4
 10
27266.8522743012
 20
5387.1575434219612
 30
0.0
 11
24536.8522743012
 21
5387.1575434219612
 31
0.0
  0
LINE
  5
15D12
  8
SUNPOU
  6
CONTINUOUS
 62
     4
 10
19442.852274301182
 20
5844.5052854219593
 30
0.0
 11
19442.852274301182
 21
4907.1577084219589
 31
0.0
  0
LINE
  5
15D13
  8
SUNPOU
  6
CONTINUOUS
 62
     4
 10
19400.352274301182
 20
6107.1577084219589
 30
0.0
 11
19400.352274301182
 21
4907.1577084219589
 31
0.0
  0
LINE
  5
15D14
  8
SUNPOU
  6
CONTINUOUS
 62
     4
 10
19442.852274301182
 20
4987.1577084219589
 30
0.0
 11
19682.852274301182
 21
4987.1577084219589
 31
0.0
  0
LINE
  5
15D15
  8
SUNPOU
  6
CONTINUOUS
 62
     4
 10
19400.352274301182
 20
4987.1577084219589
 30
0.0
 11
19160.352274301182
 21
4987.1577084219589
 31
0.0
  0
LINE
  5
15D16
  8
SUNPOU
  6
CONTINUOUS
 62
     4
 10
19442.852274301182
 20
4987.1577084219589
 30
0.0
 11
19400.352274301182
 21
4987.1577084219589
 31
0.0
  0
LINE
  5
15D17
  8
SUNPOU
  6
CONTINUOUS
 62
     4
 10
24442.852274301182
 20
5844.5052854219593
 30
0.0
 11
24442.852274301182
 21
4907.1577084219589
 31
0.0
  0
LINE
  5
15D18
  8
SUNPOU
  6
CONTINUOUS
 62
     4
 10
19442.852274301182
 20
5844.5052854219593
 30
0.0
 11
19442.852274301182
 21
4907.1577084219589
 31
0.0
  0
LINE
  5
15D19
  8
SUNPOU
  6
CONTINUOUS
 62
     4
 10
24442.852274301182
 20
4987.1577084219589
 30
0.0
 11
19442.852274301182
 21
4987.1577084219589
 31
0.0
  0
LINE
  5
15D1A
  8
SUNPOU
  6
CONTINUOUS
 62
     4
 10
24400.352274301182
 20
8585.657635421956
 30
0.0
 11
24400.352274301182
 21
9515.1592194219611
 31
0.0
  0
LINE
  5
15D1B
  8
SUNPOU
  6
CONTINUOUS
 62
     4
 10
19400.352274301182
 20
8715.6575694219555
 30
0.0
 11
19400.352274301182
 21
9515.1592194219611
 31
0.0
  0
LINE
  5
15D1C
  8
SUNPOU
  6
CONTINUOUS
 62
     4
 10
24400.352274301182
 20
9435.1592194219593
 30
0.0
 11
19400.352274301182
 21
9435.1592194219593
 31
0.0
  0
LINE
  5
15D1D
  8
SUNPOU
  6
CONTINUOUS
 62
     4
 10
19234.352274301182
 20
6287.9718314219654
 30
0.0
 11
18149.529876006811
 21
6287.9718314219654
 31
0.0
  0
LINE
  5
15D1E
  8
SUNPOU
  6
CONTINUOUS
 62
     4
 10
19319.352274301182
 20
8307.971831421959
 30
0.0
 11
18149.529876006811
 21
8307.971831421959
 31
0.0
  0
LINE
  5
15D1F
  8
SUNPOU
  6
CONTINUOUS
 62
     4
 10
18229.529876006789
 20
6287.9718314219654
 30
0.0
 11
18229.5298760068
 21
8307.971831421959
 31
0.0
  0
LINE
  5
15D20
  8
SUNPOU
  6
CONTINUOUS
 62
     4
 10
14412.17033012739
 20
14036.456147421941
 30
0.0
 11
15259.170106127371
 21
14036.456147421941
 31
0.0
  0
LINE
  5
15D21
  8
SUNPOU
  6
CONTINUOUS
 62
     4
 10
15179.170106127371
 20
14228.955421421961
 30
0.0
 11
15179.170106127371
 21
14036.456147421941
 31
0.0
  0
LINE
  5
15D22
  8
SUNPOU
  6
CONTINUOUS
 62
     4
 10
15179.170106127371
 20
16796.455421421939
 30
0.0
 11
15179.170106127371
 21
14228.955421421961
 31
0.0
  0
LINE
  5
15D23
  8
SUNPOU
  6
CONTINUOUS
 62
     4
 10
15179.170106127371
 20
19363.95542142195
 30
0.0
 11
15179.170106127371
 21
16796.455421421939
 31
0.0
  0
LINE
  5
15D24
  8
SUNPOU
  6
CONTINUOUS
 62
     4
 10
15099.170106127371
 20
19363.95542142195
 30
0.0
 11
15139.170106127371
 21
19363.95542142195
 31
0.0
  0
LINE
  5
15D25
  8
SUNPOU
  6
CONTINUOUS
 62
     4
 10
14407.17105612739
 20
19586.455289421941
 30
0.0
 11
15219.170106127371
 21
19586.455289421941
 31
0.0
  0
LINE
  5
15D26
  8
SUNPOU
  6
CONTINUOUS
 62
     4
 10
15179.170106127371
 20
19363.95542142195
 30
0.0
 11
15179.170106127371
 21
19586.455289421941
 31
0.0
  0
LINE
  5
15D27
  8
SUNPOU
  6
CONTINUOUS
 62
     4
 10
14338.670211127381
 20
19576.45872042195
 30
0.0
 11
14859.17076512737
 21
19576.45872042195
 31
0.0
  0
LINE
  5
15D28
  8
SUNPOU
  6
CONTINUOUS
 62
     4
 10
14407.17105612739
 20
19586.455289421941
 30
0.0
 11
14859.17076512737
 21
19586.455289421941
 31
0.0
  0
LINE
  5
15D29
  8
SUNPOU
  6
CONTINUOUS
 62
     4
 10
14779.17076512737
 20
19576.45872042195
 30
0.0
 11
14779.17076512737
 21
19336.45872042195
 31
0.0
  0
LINE
  5
15D2A
  8
SUNPOU
  6
CONTINUOUS
 62
     4
 10
14779.17076512737
 20
19586.455289421941
 30
0.0
 11
14779.17076512737
 21
19826.455289421941
 31
0.0
  0
LINE
  5
15D2B
  8
SUNPOU
  6
CONTINUOUS
 62
     4
 10
14779.17076512737
 20
19576.45872042195
 30
0.0
 11
14779.17076512737
 21
19586.455289421941
 31
0.0
  0
LINE
  5
15D2C
  8
SUNPOU
  6
CONTINUOUS
 62
     4
 10
6331.6703301273938
 20
20211.457334421961
 30
0.0
 11
6331.6703301273938
 21
20286.45634542195
 31
0.0
  0
LINE
  5
15D2D
  8
SUNPOU
  6
CONTINUOUS
 62
     4
 10
6246.1703301273938
 20
19661.45700442194
 30
0.0
 11
6246.1703301273938
 21
20286.45634542195
 31
0.0
  0
LINE
  5
15D2E
  8
SUNPOU
  6
CONTINUOUS
 62
     4
 10
6331.6703301273938
 20
20206.45634542195
 30
0.0
 11
6571.6703301273928
 21
20206.45634542195
 31
0.0
  0
LINE
  5
15D2F
  8
SUNPOU
  6
CONTINUOUS
 62
     4
 10
6249.1703301273938
 20
20206.45634542195
 30
0.0
 11
6009.1703301273956
 21
20206.45634542195
 31
0.0
  0
LINE
  5
15D30
  8
SUNPOU
  6
CONTINUOUS
 62
     4
 10
6331.6703301273938
 20
20206.45634542195
 30
0.0
 11
6249.1703301273938
 21
20206.45634542195
 31
0.0
  0
LINE
  5
15D31
  8
SUNPOU
  6
CONTINUOUS
 62
     4
 10
11331.67033012739
 20
20211.457334421961
 30
0.0
 11
11331.67033012739
 21
20286.45634542195
 31
0.0
  0
LINE
  5
15D32
  8
SUNPOU
  6
CONTINUOUS
 62
     4
 10
6331.6703301273938
 20
20211.457334421961
 30
0.0
 11
6331.6703301273938
 21
20286.45634542195
 31
0.0
  0
LINE
  5
15D33
  8
SUNPOU
  6
CONTINUOUS
 62
     4
 10
11331.67033012739
 20
20206.45634542195
 30
0.0
 11
6331.6703301273938
 21
20206.45634542195
 31
0.0
  0
LINE
  5
15D34
  8
SUNPOU
  6
CONTINUOUS
 62
     4
 10
14249.67033012739
 20
19736.45700442194
 30
0.0
 11
14249.67033012739
 21
20286.45634542195
 31
0.0
  0
LINE
  5
15D35
  8
SUNPOU
  6
CONTINUOUS
 62
     4
 10
11331.67033012739
 20
20211.457334421961
 30
0.0
 11
11331.67033012739
 21
20286.45634542195
 31
0.0
  0
LINE
  5
15D36
  8
SUNPOU
  6
CONTINUOUS
 62
     4
 10
14249.67033012739
 20
20206.45634542195
 30
0.0
 11
11331.67033012739
 21
20206.45634542195
 31
0.0
  0
LINE
  5
15D37
  8
SUNPOU
  6
CONTINUOUS
 62
     4
 10
14249.67033012739
 20
19736.45700442194
 30
0.0
 11
14249.67033012739
 21
20286.45634542195
 31
0.0
  0
LINE
  5
15D38
  8
SUNPOU
  6
CONTINUOUS
 62
     4
 10
14335.17033012739
 20
19656.456741421938
 30
0.0
 11
14335.17033012739
 21
20286.45634542195
 31
0.0
  0
LINE
  5
15D39
  8
SUNPOU
  6
CONTINUOUS
 62
     4
 10
14249.67033012739
 20
20206.45634542195
 30
0.0
 11
14009.67033012739
 21
20206.45634542195
 31
0.0
  0
LINE
  5
15D3A
  8
SUNPOU
  6
CONTINUOUS
 62
     4
 10
14332.17033012739
 20
20206.45634542195
 30
0.0
 11
14572.17033012739
 21
20206.45634542195
 31
0.0
  0
LINE
  5
15D3B
  8
SUNPOU
  6
CONTINUOUS
 62
     4
 10
14249.67033012739
 20
20206.45634542195
 30
0.0
 11
14332.17033012739
 21
20206.45634542195
 31
0.0
  0
LINE
  5
15D3C
  8
SUNPOU
  6
CONTINUOUS
 62
     4
 10
14335.17033012739
 20
13956.456147421941
 30
0.0
 11
14335.17033012739
 21
12666.45535542194
 31
0.0
  0
LINE
  5
15D3D
  8
SUNPOU
  6
CONTINUOUS
 62
     4
 10
6249.1703301273938
 20
13956.456147421941
 30
0.0
 11
6249.1703301273938
 21
12666.45535542194
 31
0.0
  0
LINE
  5
15D3E
  8
SUNPOU
  6
CONTINUOUS
 62
     4
 10
14332.17033012739
 20
12746.45535542194
 30
0.0
 11
6249.1703301273938
 21
12746.45535542194
 31
0.0
  0
LINE
  5
15D3F
  8
0-6
  6
CONTINUOUS
 62
     6
 10
9605.4260118075526
 20
15885.58167375365
 30
0.0
 11
9725.2807387140692
 21
15994.912770708899
 31
0.0
  0
LINE
  5
15D40
  8
0-6
  6
CONTINUOUS
 62
     6
 10
9725.2807387140692
 20
15994.912770708899
 30
0.0
 11
9647.3553406772935
 21
15852.62406186634
 31
0.0
  0
LINE
  5
15D41
  8
0-6
  6
CONTINUOUS
 62
     6
 10
9647.3553406772935
 20
15852.62406186634
 30
0.0
 11
9605.4260118075526
 21
15885.58167375365
 31
0.0
  0
LINE
  5
15D42
  8
0-6
  6
CONTINUOUS
 62
     6
 10
13586.869636213871
 20
16990.071713700221
 30
0.0
 11
13618.50928258261
 21
16830.957361421952
 31
0.0
  0
LINE
  5
15D43
  8
0-6
  6
CONTINUOUS
 62
     6
 10
13618.50928258261
 20
16830.957361421952
 30
0.0
 11
13536.98315668024
 21
16971.214037265301
 31
0.0
  0
LINE
  5
15D44
  8
0-6
  6
CONTINUOUS
 62
     6
 10
13536.98315668024
 20
16971.214037265301
 30
0.0
 11
13586.869636213871
 21
16990.071713700221
 31
0.0
  0
LINE
  5
15D45
  8
0-6
  6
CONTINUOUS
 62
     6
 10
6159.0702027376574
 20
15355.02068853878
 30
0.0
 11
6249.1703301273938
 21
15489.90190484837
 31
0.0
  0
LINE
  5
15D46
  8
0-6
  6
CONTINUOUS
 62
     6
 10
6249.1703301273938
 20
15489.90190484837
 30
0.0
 11
6120.1935703456311
 21
15391.532710278459
 31
0.0
  0
LINE
  5
15D47
  8
0-6
  6
CONTINUOUS
 62
     6
 10
6120.1935703456311
 20
15391.532710278459
 30
0.0
 11
6159.0702027376574
 21
15355.02068853878
 31
0.0
  0
TEXT
  5
15D48
  8
0
  6
CONTINUOUS
 62
     7
 10
9536.0036634607295
 20
12826.45535542194
 30
0.0
 40
160.0
  1
ケラバ外寸8089
  0
TEXT
  5
15D49
  8
0
  6
CONTINUOUS
 62
     7
 10
14344.817474127371
 20
20286.454629421962
 30
0.0
 40
160.0
  1
85.5
  0
TEXT
  5
15D4A
  8
0
  6
CONTINUOUS
 62
     7
 10
12524.00366346072
 20
20286.45634542195
 30
0.0
 40
160.0
  1
2918
  0
TEXT
  5
15D4B
  8
0
  6
CONTINUOUS
 62
     7
 10
8578.3369967940616
 20
20286.45634542195
 30
0.0
 40
160.0
  1
5000
  0
TEXT
  5
15D4C
  8
0
  6
CONTINUOUS
 62
     7
 10
5705.3225421273819
 20
20286.454629421962
 30
0.0
 40
160.0
  1
85.5
  0
TEXT
  5
15D4D
  8
0
  6
CONTINUOUS
 62
     7
 10
14730.56383452254
 20
19757.884150088601
 30
0.0
 40
160.0
  1
10
 50
90.0
  0
TEXT
  5
15D4E
  8
0
  6
CONTINUOUS
 62
     7
 10
15099.170106127371
 20
19664.93694381119
 30
0.0
 40
160.0
  1
222.5
 50
90.0
  0
TEXT
  5
15D4F
  8
0
  6
CONTINUOUS
 62
     7
 10
15099.170106127371
 20
17680.20542142195
 30
0.0
 40
160.0
  1
2567.5
 50
90.0
  0
TEXT
  5
15D50
  8
0
  6
CONTINUOUS
 62
     7
 10
15099.170106127371
 20
15112.705421421961
 30
0.0
 40
160.0
  1
2567.5
 50
90.0
  0
TEXT
  5
15D51
  8
0
  6
CONTINUOUS
 62
     7
 10
15099.170106127391
 20
13372.46651901252
 30
0.0
 40
160.0
  1
192.5
 50
90.0
  0
TEXT
  5
15D52
  8
0
  6
CONTINUOUS
 62
     7
 10
18149.529876006811
 20
6634.9718314219663
 30
0.0
 40
160.0
  1
有効高サ2020
 50
90.0
  0
TEXT
  5
15D53
  8
0
  6
CONTINUOUS
 62
     7
 10
21647.01894096785
 20
9515.1592194219611
 30
0.0
 40
160.0
  1
5000
  0
TEXT
  5
15D54
  8
0
  6
CONTINUOUS
 62
     7
 10
21689.518940967839
 20
5067.1577084219589
 30
0.0
 40
160.0
  1
5000
  0
TEXT
  5
15D55
  8
0
  6
CONTINUOUS
 62
     7
 10
18800.351614301198
 20
5067.1574774219607
 30
0.0
 40
160.0
  1
42.5
  0
TEXT
  5
15D56
  8
0
  6
CONTINUOUS
 62
     7
 10
25141.852274301189
 20
5467.1575434219612
 30
0.0
 40
160.0
  1
有効開口巾2730
  0
TEXT
  5
15D57
  8
0
  6
CONTINUOUS
 62
     7
 10
25635.185607634521
 20
5067.1577084219589
 30
0.0
 40
160.0
  1
2918
  0
TEXT
  5
15D58
  8
0
  6
CONTINUOUS
 62
     7
 10
27503.175305301182
 20
5074.7048864219623
 30
0.0
 40
160.0
  1
42.5
  0
TEXT
  5
15D59
  8
0
  6
CONTINUOUS
 62
     7
 10
23135.165631160758
 20
4667.1578734220147
 30
0.0
 40
160.0
  1
8003
  0
TEXT
  5
15D5A
  8
0
  6
CONTINUOUS
 62
     7
 10
21194.685607634521
 20
5467.1575434219612
 30
0.0
 40
160.0
  1
有効開口巾4912
  0
TEXT
  5
15D5B
  8
0
  6
CONTINUOUS
 62
     7
 10
28130.855573301182
 20
6310.240876755297
 30
0.0
 40
160.0
  1
有効開口高サ1891.5
 50
90.0
  0
TEXT
  5
15D5C
  8
0
  6
CONTINUOUS
 62
     7
 10
28773.954525005931
 20
6656.324223088629
 30
0.0
 40
160.0
  1
2349（2589）
 50
90.0
  0
TEXT
  5
15D5D
  8
0
  6
CONTINUOUS
 62
     7
 10
25635.185607634521
 20
9515.1592194219611
 30
0.0
 40
160.0
  1
3003
  0
TEXT
  5
15D5E
  8
0
  6
CONTINUOUS
 62
     7
 10
27533.1602603012
 20
9515.1584934219627
 30
0.0
 40
160.0
  1
43
  0
TEXT
  5
15D5F
  8
0
  6
CONTINUOUS
 62
     7
 10
18982.88645430118
 20
9515.1584934219627
 30
0.0
 40
160.0
  1
43
  0
TEXT
  5
15D60
  8
0
  6
CONTINUOUS
 62
     7
 10
23121.8522743012
 20
9915.1021434219656
 30
0.0
 40
160.0
  1
8089
  0
TEXT
  5
15D61
  8
0
  6
CONTINUOUS
 62
     7
 10
8978.1388954096055
 20
5067.1577084219589
 30
0.0
 40
160.0
  1
2567.5
  0
TEXT
  5
15D62
  8
0
  6
CONTINUOUS
 62
     7
 10
11545.6388954096
 20
5067.1577084219589
 30
0.0
 40
160.0
  1
2567.5
  0
TEXT
  5
15D63
  8
0
  6
CONTINUOUS
 62
     7
 10
13373.87850940958
 20
5068.1482264219567
 30
0.0
 40
160.0
  1
42.5
  0
TEXT
  5
15D64
  8
0
  6
CONTINUOUS
 62
     7
 10
7451.8872454095981
 20
5067.1574774219607
 30
0.0
 40
160.0
  1
42.5
  0
TEXT
  5
15D65
  8
0
  6
CONTINUOUS
 62
     7
 10
10381.8888954096
 20
4667.1578734219556
 30
0.0
 40
160.0
  1
5220
  0
TEXT
  5
15D66
  8
0
  6
CONTINUOUS
 62
     7
 10
14281.88929140959
 20
6372.9075434219631
 30
0.0
 40
160.0
  1
2155.5（2395.5）
 50
90.0
  0
TEXT
  5
15D67
  8
0
  6
CONTINUOUS
 62
     7
 10
6881.8884994095988
 20
6656.32421008863
 30
0.0
 40
160.0
  1
2349（2589）
 50
90.0
  0
TEXT
  5
15D68
  8
0
  6
CONTINUOUS
 62
     7
 10
13559.56404387803
 20
9515.1592194219611
 30
0.0
 40
160.0
  1
180
  0
TEXT
  5
15D69
  8
0
  6
CONTINUOUS
 62
     7
 10
10381.8888954096
 20
9515.1592194219611
 30
0.0
 40
160.0
  1
5220
  0
TEXT
  5
15D6A
  8
0
  6
CONTINUOUS
 62
     7
 10
7488.5555620762698
 20
9515.1592194219611
 30
0.0
 40
160.0
  1
150
  0
TEXT
  5
15D6B
  8
0
  6
CONTINUOUS
 62
     7
 10
10396.888895409589
 20
9915.1575694219573
 30
0.0
 40
160.0
  1
5550
  0
TEXT
  5
15D71
  8
0
  6
CONTINUOUS
 62
     7
 10
18145.008649932541
 20
15112.705421421961
 30
0.0
 40
160.0
  1
2567.5
 50
90.0
  0
TEXT
  5
15D72
  8
0
  6
CONTINUOUS
 62
     7
 10
18145.008649932541
 20
17680.205421421961
 30
0.0
 40
160.0
  1
2567.5
 50
90.0
  0
TEXT
  5
15D73
  8
0
  6
CONTINUOUS
 62
     7
 10
18821.9303463012
 20
20286.454629421962
 30
0.0
 40
160.0
  1
42.5
  0
TEXT
  5
15D74
  8
0
  6
CONTINUOUS
 62
     7
 10
19500.026313301161
 20
20305.798485421961
 30
0.0
 40
160.0
  1
42.5
  0
TEXT
  5
15D75
  8
0
  6
CONTINUOUS
 62
     7
 10
25635.185607634521
 20
20686.456345421939
 30
0.0
 40
160.0
  1
2918
  0
TEXT
  5
15D76
  8
0
  6
CONTINUOUS
 62
     7
 10
21689.518940967839
 20
20686.456345421939
 30
0.0
 40
160.0
  1
5000
  0
ARC
  5
15DCC
  8
0
  6
BYBLOCK
 62
     0
 10
24442.852274301182
 20
20606.456345421939
 30
0.0
 40
15.0
 50
180.0
 51
0.0
  0
ARC
  5
15DCD
  8
0
  6
BYBLOCK
 62
     0
 10
24442.852274301182
 20
20606.456345421939
 30
0.0
 40
15.0
 50
0.0
 51
180.0
  0
ARC
  5
15DCE
  8
0
  6
BYBLOCK
 62
     0
 10
19442.852274301182
 20
20606.456345421939
 30
0.0
 40
15.0
 50
0.0
 51
180.0
  0
ARC
  5
15DCF
  8
0
  6
BYBLOCK
 62
     0
 10
19442.852274301182
 20
20606.456345421939
 30
0.0
 40
15.0
 50
180.0
 51
0.0
  0
ARC
  5
15DD0
  8
0
  6
BYBLOCK
 62
     0
 10
27360.852274301182
 20
20606.456345421939
 30
0.0
 40
15.0
 50
180.0
 51
0.0
  0
ARC
  5
15DD1
  8
0
  6
BYBLOCK
 62
     0
 10
27360.852274301182
 20
20606.456345421939
 30
0.0
 40
15.0
 50
0.0
 51
180.0
  0
ARC
  5
15DD2
  8
0
  6
BYBLOCK
 62
     0
 10
24442.852274301182
 20
20606.456345421939
 30
0.0
 40
15.0
 50
0.0
 51
180.0
  0
ARC
  5
15DD3
  8
0
  6
BYBLOCK
 62
     0
 10
24442.852274301182
 20
20606.456345421939
 30
0.0
 40
15.0
 50
180.0
 51
0.0
  0
ARC
  5
15DD4
  8
0
  6
BYBLOCK
 62
     0
 10
19442.852274301182
 20
20206.45634542195
 30
0.0
 40
15.0
 50
180.0
 51
0.0
  0
ARC
  5
15DD5
  8
0
  6
BYBLOCK
 62
     0
 10
19442.852274301182
 20
20206.45634542195
 30
0.0
 40
15.0
 50
0.0
 51
180.0
  0
ARC
  5
15DD6
  8
0
  6
BYBLOCK
 62
     0
 10
19485.354517301181
 20
20206.45634542195
 30
0.0
 40
15.0
 50
0.0
 51
180.0
  0
ARC
  5
15DD7
  8
0
  6
BYBLOCK
 62
     0
 10
19485.354517301181
 20
20206.45634542195
 30
0.0
 40
15.0
 50
180.0
 51
0.0
  0
ARC
  5
15DD8
  8
0
  6
BYBLOCK
 62
     0
 10
19442.852274301182
 20
20206.45634542195
 30
0.0
 40
15.0
 50
0.0
 51
180.0
  0
ARC
  5
15DD9
  8
0
  6
BYBLOCK
 62
     0
 10
19442.852274301182
 20
20206.45634542195
 30
0.0
 40
15.0
 50
180.0
 51
0.0
  0
ARC
  5
15DDA
  8
0
  6
BYBLOCK
 62
     0
 10
19400.353989301191
 20
20206.45634542195
 30
0.0
 40
15.0
 50
180.0
 51
0.0
  0
ARC
  5
15DDB
  8
0
  6
BYBLOCK
 62
     0
 10
19400.353989301191
 20
20206.45634542195
 30
0.0
 40
15.0
 50
0.0
 51
180.0
  0
ARC
  5
15DDC
  8
0
  6
BYBLOCK
 62
     0
 10
18225.008649932552
 20
16796.455421421961
 30
0.0
 40
15.0
 50
90.0
 51
270.0
  0
ARC
  5
15DDD
  8
0
  6
BYBLOCK
 62
     0
 10
18225.008649932552
 20
16796.455421421961
 30
0.0
 40
15.0
 50
270.0
 51
90.0
  0
ARC
  5
15DDE
  8
0
  6
BYBLOCK
 62
     0
 10
18225.008649932552
 20
19363.955421421961
 30
0.0
 40
15.0
 50
270.0
 51
90.0
  0
ARC
  5
15DDF
  8
0
  6
BYBLOCK
 62
     0
 10
18225.008649932552
 20
19363.955421421961
 30
0.0
 40
15.0
 50
90.0
 51
270.0
  0
ARC
  5
15DE0
  8
0
  6
BYBLOCK
 62
     0
 10
18225.008649932552
 20
14228.955421421961
 30
0.0
 40
15.0
 50
90.0
 51
270.0
  0
ARC
  5
15DE1
  8
0
  6
BYBLOCK
 62
     0
 10
18225.008649932552
 20
14228.955421421961
 30
0.0
 40
15.0
 50
270.0
 51
90.0
  0
ARC
  5
15DE2
  8
0
  6
BYBLOCK
 62
     0
 10
18225.008649932552
 20
16796.455421421961
 30
0.0
 40
15.0
 50
270.0
 51
90.0
  0
ARC
  5
15DE3
  8
0
  6
BYBLOCK
 62
     0
 10
18225.008649932552
 20
16796.455421421961
 30
0.0
 40
15.0
 50
90.0
 51
270.0
  0
ARC
  5
15DF8
  8
0
  6
BYBLOCK
 62
     0
 10
13451.8888954096
 20
9835.1575694219573
 30
0.0
 40
15.0
 50
180.0
 51
0.0
  0
ARC
  5
15DF9
  8
0
  6
BYBLOCK
 62
     0
 10
13451.8888954096
 20
9835.1575694219573
 30
0.0
 40
15.0
 50
0.0
 51
180.0
  0
ARC
  5
15DFA
  8
0
  6
BYBLOCK
 62
     0
 10
7901.8888954096037
 20
9835.1575694219573
 30
0.0
 40
15.0
 50
0.0
 51
180.0
  0
ARC
  5
15DFB
  8
0
  6
BYBLOCK
 62
     0
 10
7901.8888954096037
 20
9835.1575694219573
 30
0.0
 40
15.0
 50
180.0
 51
0.0
  0
ARC
  5
15DFC
  8
0
  6
BYBLOCK
 62
     0
 10
8051.8888954095974
 20
9435.1592194219593
 30
0.0
 40
15.0
 50
0.0
 51
180.0
  0
ARC
  5
15DFD
  8
0
  6
BYBLOCK
 62
     0
 10
8051.8888954095974
 20
9435.1592194219593
 30
0.0
 40
15.0
 50
180.0
 51
0.0
  0
ARC
  5
15DFE
  8
0
  6
BYBLOCK
 62
     0
 10
7901.8888954096037
 20
9435.1592194219593
 30
0.0
 40
15.0
 50
180.0
 51
0.0
  0
ARC
  5
15DFF
  8
0
  6
BYBLOCK
 62
     0
 10
7901.8888954096037
 20
9435.1592194219593
 30
0.0
 40
15.0
 50
0.0
 51
180.0
  0
ARC
  5
15E00
  8
0
  6
BYBLOCK
 62
     0
 10
13271.8888954096
 20
9435.1592194219593
 30
0.0
 40
15.0
 50
180.0
 51
0.0
  0
ARC
  5
15E01
  8
0
  6
BYBLOCK
 62
     0
 10
13271.8888954096
 20
9435.1592194219593
 30
0.0
 40
15.0
 50
0.0
 51
180.0
  0
ARC
  5
15E02
  8
0
  6
BYBLOCK
 62
     0
 10
8051.8888954095974
 20
9435.1592194219593
 30
0.0
 40
15.0
 50
0.0
 51
180.0
  0
ARC
  5
15E03
  8
0
  6
BYBLOCK
 62
     0
 10
8051.8888954095974
 20
9435.1592194219593
 30
0.0
 40
15.0
 50
180.0
 51
0.0
  0
ARC
  5
15E04
  8
0
  6
BYBLOCK
 62
     0
 10
13451.8888954096
 20
9435.1592194219593
 30
0.0
 40
15.0
 50
180.0
 51
0.0
  0
ARC
  5
15E05
  8
0
  6
BYBLOCK
 62
     0
 10
13451.8888954096
 20
9435.1592194219593
 30
0.0
 40
15.0
 50
0.0
 51
180.0
  0
ARC
  5
15E06
  8
0
  6
BYBLOCK
 62
     0
 10
13271.8888954096
 20
9435.1592194219593
 30
0.0
 40
15.0
 50
0.0
 51
180.0
  0
ARC
  5
15E07
  8
0
  6
BYBLOCK
 62
     0
 10
13271.8888954096
 20
9435.1592194219593
 30
0.0
 40
15.0
 50
180.0
 51
0.0
  0
ARC
  5
15E08
  8
0
  6
BYBLOCK
 62
     0
 10
6961.8884994095988
 20
6287.1575434219621
 30
0.0
 40
15.0
 50
90.0
 51
270.0
  0
ARC
  5
15E09
  8
0
  6
BYBLOCK
 62
     0
 10
6961.8884994095988
 20
6287.1575434219621
 30
0.0
 40
15.0
 50
270.0
 51
90.0
  0
ARC
  5
15E0A
  8
0
  6
BYBLOCK
 62
     0
 10
6961.8884994095988
 20
8636.1575434219612
 30
0.0
 40
15.0
 50
270.0
 51
90.0
  0
ARC
  5
15E0B
  8
0
  6
BYBLOCK
 62
     0
 10
6961.8884994095988
 20
8636.1575434219612
 30
0.0
 40
15.0
 50
90.0
 51
270.0
  0
ARC
  5
15E0C
  8
0
  6
BYBLOCK
 62
     0
 10
14361.88929140959
 20
6287.1575434219612
 30
0.0
 40
15.0
 50
90.0
 51
270.0
  0
ARC
  5
15E0D
  8
0
  6
BYBLOCK
 62
     0
 10
14361.88929140959
 20
6287.1575434219612
 30
0.0
 40
15.0
 50
270.0
 51
90.0
  0
ARC
  5
15E0E
  8
0
  6
BYBLOCK
 62
     0
 10
14361.88929140959
 20
8442.6575434219612
 30
0.0
 40
15.0
 50
270.0
 51
90.0
  0
ARC
  5
15E0F
  8
0
  6
BYBLOCK
 62
     0
 10
14361.88929140959
 20
8442.6575434219612
 30
0.0
 40
15.0
 50
90.0
 51
270.0
  0
ARC
  5
15E10
  8
0
  6
BYBLOCK
 62
     0
 10
13271.8888954096
 20
4587.1578734219574
 30
0.0
 40
15.0
 50
180.0
 51
0.0
  0
ARC
  5
15E11
  8
0
  6
BYBLOCK
 62
     0
 10
13271.8888954096
 20
4587.1578734219574
 30
0.0
 40
15.0
 50
0.0
 51
180.0
  0
ARC
  5
15E12
  8
0
  6
BYBLOCK
 62
     0
 10
8051.8888954095974
 20
4587.1578734219574
 30
0.0
 40
15.0
 50
0.0
 51
180.0
  0
ARC
  5
15E13
  8
0
  6
BYBLOCK
 62
     0
 10
8051.8888954095974
 20
4587.1578734219574
 30
0.0
 40
15.0
 50
180.0
 51
0.0
  0
ARC
  5
15E14
  8
0
  6
BYBLOCK
 62
     0
 10
8094.3888954096064
 20
4987.1577084219589
 30
0.0
 40
15.0
 50
0.0
 51
180.0
  0
ARC
  5
15E15
  8
0
  6
BYBLOCK
 62
     0
 10
8094.3888954096064
 20
4987.1577084219589
 30
0.0
 40
15.0
 50
180.0
 51
0.0
  0
ARC
  5
15E16
  8
0
  6
BYBLOCK
 62
     0
 10
8051.8888954095974
 20
4987.1577084219589
 30
0.0
 40
15.0
 50
180.0
 51
0.0
  0
ARC
  5
15E17
  8
0
  6
BYBLOCK
 62
     0
 10
8051.8888954095974
 20
4987.1577084219589
 30
0.0
 40
15.0
 50
0.0
 51
180.0
  0
ARC
  5
15E18
  8
0
  6
BYBLOCK
 62
     0
 10
13229.3888954096
 20
4987.1577084219589
 30
0.0
 40
15.0
 50
180.0
 51
0.0
  0
ARC
  5
15E19
  8
0
  6
BYBLOCK
 62
     0
 10
13229.3888954096
 20
4987.1577084219589
 30
0.0
 40
15.0
 50
0.0
 51
180.0
  0
ARC
  5
15E1A
  8
0
  6
BYBLOCK
 62
     0
 10
13271.8888954096
 20
4987.1577084219589
 30
0.0
 40
15.0
 50
0.0
 51
180.0
  0
ARC
  5
15E1B
  8
0
  6
BYBLOCK
 62
     0
 10
13271.8888954096
 20
4987.1577084219589
 30
0.0
 40
15.0
 50
180.0
 51
0.0
  0
ARC
  5
15E1C
  8
0
  6
BYBLOCK
 62
     0
 10
10661.8888954096
 20
4987.1577084219589
 30
0.0
 40
15.0
 50
0.0
 51
180.0
  0
ARC
  5
15E1D
  8
0
  6
BYBLOCK
 62
     0
 10
10661.8888954096
 20
4987.1577084219589
 30
0.0
 40
15.0
 50
180.0
 51
0.0
  0
ARC
  5
15E1E
  8
0
  6
BYBLOCK
 62
     0
 10
13229.3888954096
 20
4987.1577084219589
 30
0.0
 40
15.0
 50
180.0
 51
0.0
  0
ARC
  5
15E1F
  8
0
  6
BYBLOCK
 62
     0
 10
13229.3888954096
 20
4987.1577084219589
 30
0.0
 40
15.0
 50
0.0
 51
180.0
  0
ARC
  5
15E20
  8
0
  6
BYBLOCK
 62
     0
 10
10661.8888954096
 20
4987.1577084219589
 30
0.0
 40
15.0
 50
180.0
 51
0.0
  0
ARC
  5
15E21
  8
0
  6
BYBLOCK
 62
     0
 10
10661.8888954096
 20
4987.1577084219589
 30
0.0
 40
15.0
 50
0.0
 51
180.0
  0
ARC
  5
15E22
  8
0
  6
BYBLOCK
 62
     0
 10
8094.3888954096064
 20
4987.1577084219589
 30
0.0
 40
15.0
 50
0.0
 51
180.0
  0
ARC
  5
15E23
  8
0
  6
BYBLOCK
 62
     0
 10
8094.3888954096064
 20
4987.1577084219589
 30
0.0
 40
15.0
 50
180.0
 51
0.0
  0
ARC
  5
15E24
  8
0
  6
BYBLOCK
 62
     0
 10
27446.3522743012
 20
9835.1021434219638
 30
0.0
 40
15.0
 50
180.0
 51
0.0
  0
ARC
  5
15E25
  8
0
  6
BYBLOCK
 62
     0
 10
27446.3522743012
 20
9835.1021434219638
 30
0.0
 40
15.0
 50
0.0
 51
180.0
  0
ARC
  5
15E26
  8
0
  6
BYBLOCK
 62
     0
 10
19357.352274301182
 20
9835.1021434219638
 30
0.0
 40
15.0
 50
0.0
 51
180.0
  0
ARC
  5
15E27
  8
0
  6
BYBLOCK
 62
     0
 10
19357.352274301182
 20
9835.1021434219638
 30
0.0
 40
15.0
 50
180.0
 51
0.0
  0
ARC
  5
15E28
  8
0
  6
BYBLOCK
 62
     0
 10
19400.352274301182
 20
9435.1592194219593
 30
0.0
 40
15.0
 50
0.0
 51
180.0
  0
ARC
  5
15E29
  8
0
  6
BYBLOCK
 62
     0
 10
19400.352274301182
 20
9435.1592194219593
 30
0.0
 40
15.0
 50
180.0
 51
0.0
  0
ARC
  5
15E2A
  8
0
  6
BYBLOCK
 62
     0
 10
19357.352274301182
 20
9435.1592194219593
 30
0.0
 40
15.0
 50
180.0
 51
0.0
  0
ARC
  5
15E2B
  8
0
  6
BYBLOCK
 62
     0
 10
19357.352274301182
 20
9435.1592194219593
 30
0.0
 40
15.0
 50
0.0
 51
180.0
  0
ARC
  5
15E2C
  8
0
  6
BYBLOCK
 62
     0
 10
27403.3522743012
 20
9435.1592194219593
 30
0.0
 40
15.0
 50
180.0
 51
0.0
  0
ARC
  5
15E2D
  8
0
  6
BYBLOCK
 62
     0
 10
27403.3522743012
 20
9435.1592194219593
 30
0.0
 40
15.0
 50
0.0
 51
180.0
  0
ARC
  5
15E2E
  8
0
  6
BYBLOCK
 62
     0
 10
27446.3522743012
 20
9435.1592194219593
 30
0.0
 40
15.0
 50
0.0
 51
180.0
  0
ARC
  5
15E2F
  8
0
  6
BYBLOCK
 62
     0
 10
27446.3522743012
 20
9435.1592194219593
 30
0.0
 40
15.0
 50
180.0
 51
0.0
  0
ARC
  5
15E30
  8
0
  6
BYBLOCK
 62
     0
 10
24400.352274301182
 20
9435.1592194219593
 30
0.0
 40
15.0
 50
0.0
 51
180.0
  0
ARC
  5
15E31
  8
0
  6
BYBLOCK
 62
     0
 10
24400.352274301182
 20
9435.1592194219593
 30
0.0
 40
15.0
 50
180.0
 51
0.0
  0
ARC
  5
15E32
  8
0
  6
BYBLOCK
 62
     0
 10
27403.3522743012
 20
9435.1592194219593
 30
0.0
 40
15.0
 50
180.0
 51
0.0
  0
ARC
  5
15E33
  8
0
  6
BYBLOCK
 62
     0
 10
27403.3522743012
 20
9435.1592194219593
 30
0.0
 40
15.0
 50
0.0
 51
180.0
  0
ARC
  5
15E34
  8
0
  6
BYBLOCK
 62
     0
 10
28853.95452500592
 20
6287.1575434219621
 30
0.0
 40
15.0
 50
90.0
 51
270.0
  0
ARC
  5
15E35
  8
0
  6
BYBLOCK
 62
     0
 10
28853.95452500592
 20
6287.1575434219621
 30
0.0
 40
15.0
 50
270.0
 51
90.0
  0
ARC
  5
15E36
  8
0
  6
BYBLOCK
 62
     0
 10
28853.95452500592
 20
8636.1575694219537
 30
0.0
 40
15.0
 50
270.0
 51
90.0
  0
ARC
  5
15E37
  8
0
  6
BYBLOCK
 62
     0
 10
28853.95452500592
 20
8636.1575694219537
 30
0.0
 40
15.0
 50
90.0
 51
270.0
  0
ARC
  5
15E38
  8
0
  6
BYBLOCK
 62
     0
 10
28210.855573301182
 20
6287.1575434219621
 30
0.0
 40
15.0
 50
90.0
 51
270.0
  0
ARC
  5
15E39
  8
0
  6
BYBLOCK
 62
     0
 10
28210.855573301182
 20
6287.1575434219621
 30
0.0
 40
15.0
 50
270.0
 51
90.0
  0
ARC
  5
15E3A
  8
0
  6
BYBLOCK
 62
     0
 10
28210.855573301182
 20
8178.6575434219612
 30
0.0
 40
15.0
 50
270.0
 51
90.0
  0
ARC
  5
15E3B
  8
0
  6
BYBLOCK
 62
     0
 10
28210.855573301182
 20
8178.6575434219612
 30
0.0
 40
15.0
 50
90.0
 51
270.0
  0
ARC
  5
15E3C
  8
0
  6
BYBLOCK
 62
     0
 10
24397.352274301182
 20
5387.1575434219612
 30
0.0
 40
15.0
 50
180.0
 51
0.0
  0
ARC
  5
15E3D
  8
0
  6
BYBLOCK
 62
     0
 10
24397.352274301182
 20
5387.1575434219612
 30
0.0
 40
15.0
 50
0.0
 51
180.0
  0
ARC
  5
15E3E
  8
0
  6
BYBLOCK
 62
     0
 10
19485.352274301182
 20
5387.1575434219612
 30
0.0
 40
15.0
 50
0.0
 51
180.0
  0
ARC
  5
15E3F
  8
0
  6
BYBLOCK
 62
     0
 10
19485.352274301182
 20
5387.1575434219612
 30
0.0
 40
15.0
 50
180.0
 51
0.0
  0
ARC
  5
15E40
  8
0
  6
BYBLOCK
 62
     0
 10
27403.312321353649
 20
4587.1578734220147
 30
0.0
 40
15.0
 50
180.0
 51
0.0
  0
ARC
  5
15E41
  8
0
  6
BYBLOCK
 62
     0
 10
27403.312321353649
 20
4587.1578734220147
 30
0.0
 40
15.0
 50
0.0
 51
180.0
  0
ARC
  5
15E42
  8
0
  6
BYBLOCK
 62
     0
 10
19400.352274301182
 20
4587.1578734220147
 30
0.0
 40
15.0
 50
0.0
 51
180.0
  0
ARC
  5
15E43
  8
0
  6
BYBLOCK
 62
     0
 10
19400.352274301182
 20
4587.1578734220147
 30
0.0
 40
15.0
 50
180.0
 51
0.0
  0
ARC
  5
15E44
  8
0
  6
BYBLOCK
 62
     0
 10
27360.8522743012
 20
4987.1577084219589
 30
0.0
 40
15.0
 50
180.0
 51
0.0
  0
ARC
  5
15E45
  8
0
  6
BYBLOCK
 62
     0
 10
27360.8522743012
 20
4987.1577084219589
 30
0.0
 40
15.0
 50
0.0
 51
180.0
  0
ARC
  5
15E46
  8
0
  6
BYBLOCK
 62
     0
 10
27403.312321353649
 20
4987.1577084219589
 30
0.0
 40
15.0
 50
0.0
 51
180.0
  0
ARC
  5
15E47
  8
0
  6
BYBLOCK
 62
     0
 10
27403.312321353649
 20
4987.1577084219589
 30
0.0
 40
15.0
 50
180.0
 51
0.0
  0
ARC
  5
15E48
  8
0
  6
BYBLOCK
 62
     0
 10
24442.852274301182
 20
4987.1577084219589
 30
0.0
 40
15.0
 50
0.0
 51
180.0
  0
ARC
  5
15E49
  8
0
  6
BYBLOCK
 62
     0
 10
24442.852274301182
 20
4987.1577084219589
 30
0.0
 40
15.0
 50
180.0
 51
0.0
  0
ARC
  5
15E4A
  8
0
  6
BYBLOCK
 62
     0
 10
27360.8522743012
 20
4987.1577084219589
 30
0.0
 40
15.0
 50
180.0
 51
0.0
  0
ARC
  5
15E4B
  8
0
  6
BYBLOCK
 62
     0
 10
27360.8522743012
 20
4987.1577084219589
 30
0.0
 40
15.0
 50
0.0
 51
180.0
  0
ARC
  5
15E4C
  8
0
  6
BYBLOCK
 62
     0
 10
27266.8522743012
 20
5387.1575434219612
 30
0.0
 40
15.0
 50
180.0
 51
0.0
  0
ARC
  5
15E4D
  8
0
  6
BYBLOCK
 62
     0
 10
27266.8522743012
 20
5387.1575434219612
 30
0.0
 40
15.0
 50
0.0
 51
180.0
  0
ARC
  5
15E4E
  8
0
  6
BYBLOCK
 62
     0
 10
24536.8522743012
 20
5387.1575434219612
 30
0.0
 40
15.0
 50
0.0
 51
180.0
  0
ARC
  5
15E4F
  8
0
  6
BYBLOCK
 62
     0
 10
24536.8522743012
 20
5387.1575434219612
 30
0.0
 40
15.0
 50
180.0
 51
0.0
  0
ARC
  5
15E50
  8
0
  6
BYBLOCK
 62
     0
 10
19442.852274301182
 20
4987.1577084219589
 30
0.0
 40
15.0
 50
0.0
 51
180.0
  0
ARC
  5
15E51
  8
0
  6
BYBLOCK
 62
     0
 10
19442.852274301182
 20
4987.1577084219589
 30
0.0
 40
15.0
 50
180.0
 51
0.0
  0
ARC
  5
15E52
  8
0
  6
BYBLOCK
 62
     0
 10
19400.352274301182
 20
4987.1577084219589
 30
0.0
 40
15.0
 50
180.0
 51
0.0
  0
ARC
  5
15E53
  8
0
  6
BYBLOCK
 62
     0
 10
19400.352274301182
 20
4987.1577084219589
 30
0.0
 40
15.0
 50
0.0
 51
180.0
  0
ARC
  5
15E54
  8
0
  6
BYBLOCK
 62
     0
 10
24442.852274301182
 20
4987.1577084219589
 30
0.0
 40
15.0
 50
180.0
 51
0.0
  0
ARC
  5
15E55
  8
0
  6
BYBLOCK
 62
     0
 10
24442.852274301182
 20
4987.1577084219589
 30
0.0
 40
15.0
 50
0.0
 51
180.0
  0
ARC
  5
15E56
  8
0
  6
BYBLOCK
 62
     0
 10
19442.852274301182
 20
4987.1577084219589
 30
0.0
 40
15.0
 50
0.0
 51
180.0
  0
ARC
  5
15E57
  8
0
  6
BYBLOCK
 62
     0
 10
19442.852274301182
 20
4987.1577084219589
 30
0.0
 40
15.0
 50
180.0
 51
0.0
  0
ARC
  5
15E58
  8
0
  6
BYBLOCK
 62
     0
 10
24400.352274301182
 20
9435.1592194219593
 30
0.0
 40
15.0
 50
180.0
 51
0.0
  0
ARC
  5
15E59
  8
0
  6
BYBLOCK
 62
     0
 10
24400.352274301182
 20
9435.1592194219593
 30
0.0
 40
15.0
 50
0.0
 51
180.0
  0
ARC
  5
15E5A
  8
0
  6
BYBLOCK
 62
     0
 10
19400.352274301182
 20
9435.1592194219593
 30
0.0
 40
15.0
 50
0.0
 51
180.0
  0
ARC
  5
15E5B
  8
0
  6
BYBLOCK
 62
     0
 10
19400.352274301182
 20
9435.1592194219593
 30
0.0
 40
15.0
 50
180.0
 51
0.0
  0
ARC
  5
15E5C
  8
0
  6
BYBLOCK
 62
     0
 10
18229.529876006789
 20
6287.9718314219654
 30
0.0
 40
15.0
 50
90.0
 51
270.0
  0
ARC
  5
15E5D
  8
0
  6
BYBLOCK
 62
     0
 10
18229.529876006789
 20
6287.9718314219654
 30
0.0
 40
15.0
 50
270.0
 51
90.0
  0
ARC
  5
15E5E
  8
0
  6
BYBLOCK
 62
     0
 10
18229.5298760068
 20
8307.971831421959
 30
0.0
 40
15.0
 50
270.0
 51
90.0
  0
ARC
  5
15E5F
  8
0
  6
BYBLOCK
 62
     0
 10
18229.5298760068
 20
8307.971831421959
 30
0.0
 40
15.0
 50
90.0
 51
270.0
  0
ARC
  5
15E60
  8
0
  6
BYBLOCK
 62
     0
 10
15179.170106127371
 20
14228.955421421961
 30
0.0
 40
15.0
 50
270.0
 51
90.0
  0
ARC
  5
15E61
  8
0
  6
BYBLOCK
 62
     0
 10
15179.170106127371
 20
14228.955421421961
 30
0.0
 40
15.0
 50
90.0
 51
270.0
  0
ARC
  5
15E62
  8
0
  6
BYBLOCK
 62
     0
 10
15179.170106127371
 20
14036.456147421941
 30
0.0
 40
15.0
 50
90.0
 51
270.0
  0
ARC
  5
15E63
  8
0
  6
BYBLOCK
 62
     0
 10
15179.170106127371
 20
14036.456147421941
 30
0.0
 40
15.0
 50
270.0
 51
90.0
  0
ARC
  5
15E64
  8
0
  6
BYBLOCK
 62
     0
 10
15179.170106127371
 20
16796.455421421939
 30
0.0
 40
15.0
 50
270.0
 51
90.0
  0
ARC
  5
15E65
  8
0
  6
BYBLOCK
 62
     0
 10
15179.170106127371
 20
16796.455421421939
 30
0.0
 40
15.0
 50
90.0
 51
270.0
  0
ARC
  5
15E66
  8
0
  6
BYBLOCK
 62
     0
 10
15179.170106127371
 20
14228.955421421961
 30
0.0
 40
15.0
 50
90.0
 51
270.0
  0
ARC
  5
15E67
  8
0
  6
BYBLOCK
 62
     0
 10
15179.170106127371
 20
14228.955421421961
 30
0.0
 40
15.0
 50
270.0
 51
90.0
  0
ARC
  5
15E68
  8
0
  6
BYBLOCK
 62
     0
 10
15179.170106127371
 20
19363.95542142195
 30
0.0
 40
15.0
 50
270.0
 51
90.0
  0
ARC
  5
15E69
  8
0
  6
BYBLOCK
 62
     0
 10
15179.170106127371
 20
19363.95542142195
 30
0.0
 40
15.0
 50
90.0
 51
270.0
  0
ARC
  5
15E6A
  8
0
  6
BYBLOCK
 62
     0
 10
15179.170106127371
 20
16796.455421421939
 30
0.0
 40
15.0
 50
90.0
 51
270.0
  0
ARC
  5
15E6B
  8
0
  6
BYBLOCK
 62
     0
 10
15179.170106127371
 20
16796.455421421939
 30
0.0
 40
15.0
 50
270.0
 51
90.0
  0
ARC
  5
15E6C
  8
0
  6
BYBLOCK
 62
     0
 10
15179.170106127371
 20
19363.95542142195
 30
0.0
 40
15.0
 50
90.0
 51
270.0
  0
ARC
  5
15E6D
  8
0
  6
BYBLOCK
 62
     0
 10
15179.170106127371
 20
19363.95542142195
 30
0.0
 40
15.0
 50
270.0
 51
90.0
  0
ARC
  5
15E6E
  8
0
  6
BYBLOCK
 62
     0
 10
15179.170106127371
 20
19586.455289421941
 30
0.0
 40
15.0
 50
270.0
 51
90.0
  0
ARC
  5
15E6F
  8
0
  6
BYBLOCK
 62
     0
 10
15179.170106127371
 20
19586.455289421941
 30
0.0
 40
15.0
 50
90.0
 51
270.0
  0
ARC
  5
15E70
  8
0
  6
BYBLOCK
 62
     0
 10
14779.17076512737
 20
19576.45872042195
 30
0.0
 40
15.0
 50
270.0
 51
90.0
  0
ARC
  5
15E71
  8
0
  6
BYBLOCK
 62
     0
 10
14779.17076512737
 20
19576.45872042195
 30
0.0
 40
15.0
 50
90.0
 51
270.0
  0
ARC
  5
15E72
  8
0
  6
BYBLOCK
 62
     0
 10
14779.17076512737
 20
19586.455289421941
 30
0.0
 40
15.0
 50
90.0
 51
270.0
  0
ARC
  5
15E73
  8
0
  6
BYBLOCK
 62
     0
 10
14779.17076512737
 20
19586.455289421941
 30
0.0
 40
15.0
 50
270.0
 51
90.0
  0
ARC
  5
15E74
  8
0
  6
BYBLOCK
 62
     0
 10
6331.6703301273938
 20
20206.45634542195
 30
0.0
 40
15.0
 50
0.0
 51
180.0
  0
ARC
  5
15E75
  8
0
  6
BYBLOCK
 62
     0
 10
6331.6703301273938
 20
20206.45634542195
 30
0.0
 40
15.0
 50
180.0
 51
0.0
  0
ARC
  5
15E76
  8
0
  6
BYBLOCK
 62
     0
 10
6246.1703301273938
 20
20206.45634542195
 30
0.0
 40
15.0
 50
180.0
 51
0.0
  0
ARC
  5
15E77
  8
0
  6
BYBLOCK
 62
     0
 10
6246.1703301273938
 20
20206.45634542195
 30
0.0
 40
15.0
 50
0.0
 51
180.0
  0
ARC
  5
15E78
  8
0
  6
BYBLOCK
 62
     0
 10
11331.67033012739
 20
20206.45634542195
 30
0.0
 40
15.0
 50
180.0
 51
0.0
  0
ARC
  5
15E79
  8
0
  6
BYBLOCK
 62
     0
 10
11331.67033012739
 20
20206.45634542195
 30
0.0
 40
15.0
 50
0.0
 51
180.0
  0
ARC
  5
15E7A
  8
0
  6
BYBLOCK
 62
     0
 10
6331.6703301273938
 20
20206.45634542195
 30
0.0
 40
15.0
 50
0.0
 51
180.0
  0
ARC
  5
15E7B
  8
0
  6
BYBLOCK
 62
     0
 10
6331.6703301273938
 20
20206.45634542195
 30
0.0
 40
15.0
 50
180.0
 51
0.0
  0
ARC
  5
15E7C
  8
0
  6
BYBLOCK
 62
     0
 10
14249.67033012739
 20
20206.45634542195
 30
0.0
 40
15.0
 50
180.0
 51
0.0
  0
ARC
  5
15E7D
  8
0
  6
BYBLOCK
 62
     0
 10
14249.67033012739
 20
20206.45634542195
 30
0.0
 40
15.0
 50
0.0
 51
180.0
  0
ARC
  5
15E7E
  8
0
  6
BYBLOCK
 62
     0
 10
11331.67033012739
 20
20206.45634542195
 30
0.0
 40
15.0
 50
0.0
 51
180.0
  0
ARC
  5
15E7F
  8
0
  6
BYBLOCK
 62
     0
 10
11331.67033012739
 20
20206.45634542195
 30
0.0
 40
15.0
 50
180.0
 51
0.0
  0
ARC
  5
15E80
  8
0
  6
BYBLOCK
 62
     0
 10
14249.67033012739
 20
20206.45634542195
 30
0.0
 40
15.0
 50
180.0
 51
0.0
  0
ARC
  5
15E81
  8
0
  6
BYBLOCK
 62
     0
 10
14249.67033012739
 20
20206.45634542195
 30
0.0
 40
15.0
 50
0.0
 51
180.0
  0
ARC
  5
15E82
  8
0
  6
BYBLOCK
 62
     0
 10
14335.17033012739
 20
20206.45634542195
 30
0.0
 40
15.0
 50
0.0
 51
180.0
  0
ARC
  5
15E83
  8
0
  6
BYBLOCK
 62
     0
 10
14335.17033012739
 20
20206.45634542195
 30
0.0
 40
15.0
 50
180.0
 51
0.0
  0
ARC
  5
15E84
  8
0
  6
BYBLOCK
 62
     0
 10
14335.17033012739
 20
12746.45535542194
 30
0.0
 40
15.0
 50
180.0
 51
0.0
  0
ARC
  5
15E85
  8
0
  6
BYBLOCK
 62
     0
 10
14335.17033012739
 20
12746.45535542194
 30
0.0
 40
15.0
 50
0.0
 51
180.0
  0
ARC
  5
15E86
  8
0
  6
BYBLOCK
 62
     0
 10
6246.1703301273938
 20
12746.45535542194
 30
0.0
 40
15.0
 50
0.0
 51
180.0
  0
ARC
  5
15E87
  8
0
  6
BYBLOCK
 62
     0
 10
6246.1703301273938
 20
12746.45535542194
 30
0.0
 40
15.0
 50
180.0
 51
0.0
  0
TEXT
  5
15F5D
  8
NAME
 10
21595.82616625919
 20
1076.6369801169251
 30
0.0
 40
360.0
  1
VGC-3052（H）+VKC-5052（H）型-L（単棟）
 41
0.45
  0
TEXT
  5
15F5E
  8
NAME
 10
21933.552716389011
 20
1876.0
 30
0.0
 40
360.0
  1
ヨドガレージ ラヴィージュ
 41
0.75
  7
01
  0
LINE
  5
15F5F
  8
NAME
  6
CONTINUOUS
 10
26067.886878884299
 20
2236.0
 30
0.0
 11
26067.886878884299
 21
1876.0
 31
0.0
  0
LINE
  5
15F60
  8
NAME
  6
CONTINUOUS
 10
26167.886878884299
 20
2236.0
 30
0.0
 11
26167.886878884299
 21
1876.0
 31
0.0
  0
LINE
  5
15F61
  8
NAME
  6
CONTINUOUS
 10
26267.88687888431
 20
2236.0
 30
0.0
 11
26267.88687888431
 21
1876.0
 31
0.0
  0
LINE
  5
15F62
  8
NAME
  6
CONTINUOUS
 10
26007.886878884299
 20
2236.0
 30
0.0
 11
26327.886878884299
 21
2236.0
 31
0.0
  0
LINE
  5
15F63
  8
NAME
  6
CONTINUOUS
 10
26327.886878884299
 20
1876.0
 30
0.0
 11
26007.886878884299
 21
1876.0
 31
0.0
  0
LINE
  5
15FA5
  8
2-0
  6
CENTER2
 62
     6
 10
24442.852274301182
 20
21006.45766442196
 30
0.0
 11
24442.852274301182
 21
13871.20154295354
 31
0.0
  0
LINE
  5
15FA8
  8
2-0
  6
CENTER2
 62
     6
 10
27360.852274301182
 20
21006.45766442196
 30
0.0
 11
27360.852274301182
 21
13871.20154295354
 31
0.0
  0
LINE
  5
16228
  8
2-0
  6
CONTINUOUS
 62
     6
 10
25677.693358301181
 20
13588.954299421959
 30
0.0
 11
26677.686760301131
 21
13588.954299421959
 31
0.0
  0
LINE
  5
16229
  8
2-0
  6
CONTINUOUS
 62
     6
 10
27145.62713730118
 20
14059.37501342195
 30
0.0
 11
26677.686760301131
 21
13588.954299421959
 31
0.0
  0
LINE
  5
1622A
  8
2-0
  6
CONTINUOUS
 62
     6
 10
27106.986934301181
 20
16900.48266042196
 30
0.0
 11
26802.291516301171
 21
17004.136191421981
 31
0.0
  0
LINE
  5
1622B
  8
2-0
  6
CONTINUOUS
 62
     6
 10
27262.008973301148
 20
16410.86061642196
 30
0.0
 11
26802.291516301171
 21
16166.947305421971
 31
0.0
  0
LINE
  5
1622C
  8
2-0
  6
CONTINUOUS
 62
     6
 10
25882.288481301181
 20
16166.947305421971
 30
0.0
 11
26802.291516301171
 21
16166.947305421971
 31
0.0
  0
LINE
  5
1622D
  8
2-0
  6
CONTINUOUS
 62
     6
 10
25602.29745430117
 20
17004.136191421981
 30
0.0
 11
26802.291516301171
 21
17004.136191421981
 31
0.0
  0
LINE
  5
1622E
  8
2-0
  6
CONTINUOUS
 62
     6
 10
27178.186258301179
 20
14381.05865942194
 30
0.0
 11
26802.291516301171
 21
14562.00249442196
 31
0.0
  0
LINE
  5
1622F
  8
2-0
  6
CONTINUOUS
 62
     6
 10
26282.289800301169
 20
14562.00249442196
 30
0.0
 11
26802.291516301171
 21
14562.00249442196
 31
0.0
  0
LINE
  5
16230
  8
2-0
  6
CONTINUOUS
 62
     4
 10
24442.852274301182
 20
19486.455949421961
 30
0.0
 11
24442.852274301182
 21
20216.45291442197
 31
0.0
  0
LINE
  5
16231
  8
2-0
  6
CONTINUOUS
 62
     3
 10
27373.352934301169
 20
19297.453495421949
 30
0.0
 11
27373.352934301169
 21
19291.457533421981
 31
0.0
  0
LINE
  5
16232
  8
2-0
  6
CONTINUOUS
 62
     3
 10
27373.352934301169
 20
19291.457533421981
 30
0.0
 11
27403.350558301179
 21
19291.457533421981
 31
0.0
  0
LINE
  5
16233
  8
2-0
  6
CONTINUOUS
 62
     3
 10
27403.350558301179
 20
19321.457137421959
 30
0.0
 11
27322.348658301162
 21
19321.457137421959
 31
0.0
  0
LINE
  5
16234
  8
2-0
  6
CONTINUOUS
 62
     3
 10
27373.352934301169
 20
19281.160077421951
 30
0.0
 11
27403.350558301179
 21
19281.160077421951
 31
0.0
  0
LINE
  5
16235
  8
2-0
  6
CONTINUOUS
 62
     3
 10
27373.352934301169
 20
19299.16181942197
 30
0.0
 11
27373.352934301169
 21
19281.160077421951
 31
0.0
  0
LINE
  5
16236
  8
2-0
  6
CONTINUOUS
 62
     3
 10
27398.350294301181
 20
19299.16181942197
 30
0.0
 11
27373.352934301169
 21
19299.16181942197
 31
0.0
  0
LINE
  5
16237
  8
2-0
  6
CONTINUOUS
 62
     3
 10
27398.350294301181
 20
19294.153637421961
 30
0.0
 11
27398.350294301181
 21
19299.16181942197
 31
0.0
  0
LINE
  5
16238
  8
2-0
  6
CONTINUOUS
 62
     3
 10
27391.34873730117
 20
19294.153637421961
 30
0.0
 11
27398.350294301181
 21
19294.153637421961
 31
0.0
  0
LINE
  5
16239
  8
2-0
  6
CONTINUOUS
 62
     3
 10
27291.052469301179
 20
19394.453864421961
 30
0.0
 11
27291.052469301179
 21
19401.459380421969
 31
0.0
  0
LINE
  5
1623A
  8
2-0
  6
CONTINUOUS
 62
     3
 10
27291.052469301179
 20
19401.459380421969
 30
0.0
 11
27296.052733301171
 21
19401.459380421969
 31
0.0
  0
LINE
  5
1623B
  8
2-0
  6
CONTINUOUS
 62
     3
 10
27296.052733301171
 20
19401.459380421969
 30
0.0
 11
27296.052733301171
 21
19376.45014342196
 31
0.0
  0
LINE
  5
1623C
  8
2-0
  6
CONTINUOUS
 62
     3
 10
27296.052733301171
 20
19376.45014342196
 30
0.0
 11
27278.050991301148
 21
19376.45014342196
 31
0.0
  0
LINE
  5
1623D
  8
2-0
  6
CONTINUOUS
 62
     3
 10
27278.050991301148
 20
19376.45014342196
 30
0.0
 11
27278.050991301148
 21
19406.45370642198
 31
0.0
  0
LINE
  5
1623E
  8
2-0
  6
CONTINUOUS
 62
     3
 10
27288.34844730117
 20
19406.45370642198
 30
0.0
 11
27403.350558301179
 21
19406.45370642198
 31
0.0
  0
LINE
  5
1623F
  8
2-0
  6
CONTINUOUS
 62
     3
 10
27288.34844730117
 20
19376.45014342196
 30
0.0
 11
27288.34844730117
 21
19406.45370642198
 31
0.0
  0
LINE
  5
16240
  8
2-0
  6
CONTINUOUS
 62
     3
 10
27294.35034730117
 20
19376.45014342196
 30
0.0
 11
27288.34844730117
 21
19376.45014342196
 31
0.0
  0
LINE
  5
16241
  8
2-0
  6
CONTINUOUS
 62
     3
 10
27391.34873730117
 20
18940.85681492191
 30
0.0
 11
27398.350294301181
 21
18940.85681492191
 31
0.0
  0
LINE
  5
16242
  8
2-0
  6
CONTINUOUS
 62
     3
 10
27398.350294301181
 20
18940.85681492191
 30
0.0
 11
27398.350294301181
 21
18945.857078921948
 31
0.0
  0
LINE
  5
16243
  8
2-0
  6
CONTINUOUS
 62
     3
 10
27398.350294301181
 20
18945.857078921948
 30
0.0
 11
27373.352934301169
 21
18945.857078921948
 31
0.0
  0
LINE
  5
16244
  8
2-0
  6
CONTINUOUS
 62
     3
 10
27373.352934301169
 20
18945.857078921948
 30
0.0
 11
27373.352934301169
 21
18927.861274921961
 31
0.0
  0
LINE
  5
16245
  8
2-0
  6
CONTINUOUS
 62
     3
 10
27373.352934301169
 20
18927.861274921961
 30
0.0
 11
27403.350558301179
 21
18927.861274921961
 31
0.0
  0
LINE
  5
16246
  8
2-0
  6
CONTINUOUS
 62
     3
 10
27373.352934301169
 20
18943.95278192194
 30
0.0
 11
27373.352934301169
 21
18937.954840921961
 31
0.0
  0
LINE
  5
16247
  8
2-0
  6
CONTINUOUS
 62
     3
 10
27373.352934301169
 20
18937.954840921961
 30
0.0
 11
27403.350558301179
 21
18937.954840921961
 31
0.0
  0
LINE
  5
16248
  8
2-0
  6
CONTINUOUS
 62
     3
 10
27403.350558301179
 20
18937.954840921961
 30
0.0
 11
27403.350558301179
 21
18974.956001921961
 31
0.0
  0
LINE
  5
16249
  8
2-0
  6
CONTINUOUS
 62
     3
 10
27373.352934301169
 20
18974.956001921961
 30
0.0
 11
27403.350558301179
 21
18974.956001921961
 31
0.0
  0
LINE
  5
1624A
  8
2-0
  6
CONTINUOUS
 62
     3
 10
27373.352934301169
 20
18968.95212192195
 30
0.0
 11
27373.352934301169
 21
18974.956001921961
 31
0.0
  0
LINE
  5
1624B
  8
2-0
  6
CONTINUOUS
 62
     3
 10
27373.352934301169
 20
18985.05154692195
 30
0.0
 11
27403.350558301179
 21
18985.05154692195
 31
0.0
  0
LINE
  5
1624C
  8
2-0
  6
CONTINUOUS
 62
     3
 10
27373.352934301169
 20
18967.04980492196
 30
0.0
 11
27373.352934301169
 21
18985.05154692195
 31
0.0
  0
LINE
  5
1624D
  8
2-0
  6
CONTINUOUS
 62
     3
 10
27398.350294301181
 20
18967.04980492196
 30
0.0
 11
27373.352934301169
 21
18967.04980492196
 31
0.0
  0
LINE
  5
1624E
  8
2-0
  6
CONTINUOUS
 62
     3
 10
27398.350294301181
 20
18972.050068921952
 30
0.0
 11
27398.350294301181
 21
18967.04980492196
 31
0.0
  0
LINE
  5
1624F
  8
2-0
  6
CONTINUOUS
 62
     3
 10
27391.34873730117
 20
18972.050068921952
 30
0.0
 11
27398.350294301181
 21
18972.050068921952
 31
0.0
  0
LINE
  5
16250
  8
2-0
  6
CONTINUOUS
 62
     3
 10
27391.34873730117
 20
18239.855825421961
 30
0.0
 11
27398.350294301181
 21
18239.855825421961
 31
0.0
  0
LINE
  5
16251
  8
2-0
  6
CONTINUOUS
 62
     3
 10
27398.350294301181
 20
18239.855825421961
 30
0.0
 11
27398.350294301181
 21
18244.86202742195
 31
0.0
  0
LINE
  5
16252
  8
2-0
  6
CONTINUOUS
 62
     3
 10
27398.350294301181
 20
18244.86202742195
 30
0.0
 11
27373.352934301169
 21
18244.86202742195
 31
0.0
  0
LINE
  5
16253
  8
2-0
  6
CONTINUOUS
 62
     3
 10
27373.352934301169
 20
18244.86202742195
 30
0.0
 11
27373.352934301169
 21
18226.860285421961
 31
0.0
  0
LINE
  5
16254
  8
2-0
  6
CONTINUOUS
 62
     3
 10
27373.352934301169
 20
18226.860285421961
 30
0.0
 11
27403.350558301179
 21
18226.860285421961
 31
0.0
  0
LINE
  5
16255
  8
2-0
  6
CONTINUOUS
 62
     3
 10
27373.352934301169
 20
18242.951792421951
 30
0.0
 11
27373.352934301169
 21
18236.95583042195
 31
0.0
  0
LINE
  5
16256
  8
2-0
  6
CONTINUOUS
 62
     3
 10
27373.352934301169
 20
18236.95583042195
 30
0.0
 11
27403.350558301179
 21
18236.95583042195
 31
0.0
  0
LINE
  5
16257
  8
2-0
  6
CONTINUOUS
 62
     3
 10
27403.350558301179
 20
18236.95583042195
 30
0.0
 11
27403.350558301179
 21
18273.95501242196
 31
0.0
  0
LINE
  5
16258
  8
2-0
  6
CONTINUOUS
 62
     3
 10
27373.352934301169
 20
18273.95501242196
 30
0.0
 11
27403.350558301179
 21
18273.95501242196
 31
0.0
  0
LINE
  5
16259
  8
2-0
  6
CONTINUOUS
 62
     3
 10
27373.352934301169
 20
18267.95905042196
 30
0.0
 11
27373.352934301169
 21
18273.95501242196
 31
0.0
  0
LINE
  5
1625A
  8
2-0
  6
CONTINUOUS
 62
     3
 10
27373.352934301169
 20
18284.050557421961
 30
0.0
 11
27403.350558301179
 21
18284.050557421961
 31
0.0
  0
LINE
  5
1625B
  8
2-0
  6
CONTINUOUS
 62
     3
 10
27373.352934301169
 20
18266.04881542196
 30
0.0
 11
27373.352934301169
 21
18284.050557421961
 31
0.0
  0
LINE
  5
1625C
  8
2-0
  6
CONTINUOUS
 62
     3
 10
27398.350294301181
 20
18266.04881542196
 30
0.0
 11
27373.352934301169
 21
18266.04881542196
 31
0.0
  0
LINE
  5
1625D
  8
2-0
  6
CONTINUOUS
 62
     3
 10
27398.350294301181
 20
18271.055017421939
 30
0.0
 11
27398.350294301181
 21
18266.04881542196
 31
0.0
  0
LINE
  5
1625E
  8
2-0
  6
CONTINUOUS
 62
     3
 10
27391.34873730117
 20
18271.055017421939
 30
0.0
 11
27398.350294301181
 21
18271.055017421939
 31
0.0
  0
LINE
  5
1625F
  8
2-0
  6
CONTINUOUS
 62
     3
 10
27391.34873730117
 20
17570.049079421959
 30
0.0
 11
27398.350294301181
 21
17570.049079421959
 31
0.0
  0
LINE
  5
16260
  8
2-0
  6
CONTINUOUS
 62
     3
 10
27398.350294301181
 20
17570.049079421959
 30
0.0
 11
27398.350294301181
 21
17565.060692421961
 31
0.0
  0
LINE
  5
16261
  8
2-0
  6
CONTINUOUS
 62
     3
 10
27398.350294301181
 20
17565.060692421961
 30
0.0
 11
27373.352934301169
 21
17565.060692421961
 31
0.0
  0
LINE
  5
16262
  8
2-0
  6
CONTINUOUS
 62
     3
 10
27373.352934301169
 20
17565.060692421961
 30
0.0
 11
27373.352934301169
 21
17583.056495421952
 31
0.0
  0
LINE
  5
16263
  8
2-0
  6
CONTINUOUS
 62
     3
 10
27373.352934301169
 20
17583.056495421952
 30
0.0
 11
27403.350558301179
 21
17583.056495421952
 31
0.0
  0
LINE
  5
16264
  8
2-0
  6
CONTINUOUS
 62
     3
 10
27373.352934301169
 20
17566.95905042196
 30
0.0
 11
27373.352934301169
 21
17572.95501242195
 31
0.0
  0
LINE
  5
16265
  8
2-0
  6
CONTINUOUS
 62
     3
 10
27373.352934301169
 20
17572.95501242195
 30
0.0
 11
27403.350558301179
 21
17572.95501242195
 31
0.0
  0
LINE
  5
16266
  8
2-0
  6
CONTINUOUS
 62
     3
 10
27403.350558301179
 20
17572.95501242195
 30
0.0
 11
27403.350558301179
 21
17535.955830421961
 31
0.0
  0
LINE
  5
16267
  8
2-0
  6
CONTINUOUS
 62
     3
 10
27373.352934301169
 20
17535.955830421961
 30
0.0
 11
27403.350558301179
 21
17535.955830421961
 31
0.0
  0
LINE
  5
16268
  8
2-0
  6
CONTINUOUS
 62
     3
 10
27373.352934301169
 20
17541.957731421939
 30
0.0
 11
27373.352934301169
 21
17535.955830421961
 31
0.0
  0
LINE
  5
16269
  8
2-0
  6
CONTINUOUS
 62
     3
 10
27373.352934301169
 20
17525.866224421959
 30
0.0
 11
27403.350558301179
 21
17525.866224421959
 31
0.0
  0
LINE
  5
1626A
  8
2-0
  6
CONTINUOUS
 62
     3
 10
27373.352934301169
 20
17543.862027421961
 30
0.0
 11
27373.352934301169
 21
17525.866224421959
 31
0.0
  0
LINE
  5
1626B
  8
2-0
  6
CONTINUOUS
 62
     3
 10
27398.350294301181
 20
17543.862027421961
 30
0.0
 11
27373.352934301169
 21
17543.862027421961
 31
0.0
  0
LINE
  5
1626C
  8
2-0
  6
CONTINUOUS
 62
     3
 10
27398.350294301181
 20
17538.861764421959
 30
0.0
 11
27398.350294301181
 21
17543.862027421961
 31
0.0
  0
LINE
  5
1626D
  8
2-0
  6
CONTINUOUS
 62
     3
 10
27391.34873730117
 20
17538.861764421959
 30
0.0
 11
27398.350294301181
 21
17538.861764421959
 31
0.0
  0
LINE
  5
1626E
  8
2-0
  6
CONTINUOUS
 62
     3
 10
27400.464420301181
 20
16818.95265042195
 30
0.0
 11
27400.464420301181
 21
16838.953705421962
 31
0.0
  0
LINE
  5
1626F
  8
2-0
  6
CONTINUOUS
 62
     3
 10
27400.464420301181
 20
16838.953705421962
 30
0.0
 11
27315.467851301171
 21
16838.953705421962
 31
0.0
  0
LINE
  5
16270
  8
2-0
  6
CONTINUOUS
 62
     3
 10
27391.34873730117
 20
16865.560415421962
 30
0.0
 11
27398.350294301181
 21
16865.560415421962
 31
0.0
  0
LINE
  5
16271
  8
2-0
  6
CONTINUOUS
 62
     3
 10
27398.350294301181
 20
16865.560415421962
 30
0.0
 11
27398.350294301181
 21
16860.566089421962
 31
0.0
  0
LINE
  5
16272
  8
2-0
  6
CONTINUOUS
 62
     3
 10
27398.350294301181
 20
16860.566089421962
 30
0.0
 11
27373.352934301169
 21
16860.566089421962
 31
0.0
  0
LINE
  5
16273
  8
2-0
  6
CONTINUOUS
 62
     3
 10
27373.352934301169
 20
16860.566089421962
 30
0.0
 11
27373.352934301169
 21
16878.56189342196
 31
0.0
  0
LINE
  5
16274
  8
2-0
  6
CONTINUOUS
 62
     3
 10
27373.352934301169
 20
16878.56189342196
 30
0.0
 11
27403.350558301179
 21
16878.56189342196
 31
0.0
  0
LINE
  5
16275
  8
2-0
  6
CONTINUOUS
 62
     3
 10
27373.352934301169
 20
16868.953309421951
 30
0.0
 11
27373.352934301169
 21
16862.951409421948
 31
0.0
  0
LINE
  5
16276
  8
2-0
  6
CONTINUOUS
 62
     3
 10
27403.350558301179
 20
16868.953309421951
 30
0.0
 11
27373.352934301169
 21
16868.953309421951
 31
0.0
  0
LINE
  5
16277
  8
2-0
  6
CONTINUOUS
 62
     3
 10
27403.350558301179
 20
16878.56189342196
 30
0.0
 11
27403.350558301179
 21
17525.866224421959
 31
0.0
  0
LINE
  5
16278
  8
2-0
  6
CONTINUOUS
 62
     3
 10
27403.350558301179
 20
17583.056495421952
 30
0.0
 11
27403.350558301179
 21
18226.860285421961
 31
0.0
  0
LINE
  5
16279
  8
2-0
  6
CONTINUOUS
 62
     3
 10
27403.350558301179
 20
16723.95159442196
 30
0.0
 11
27373.352934301169
 21
16723.95159442196
 31
0.0
  0
LINE
  5
1627A
  8
2-0
  6
CONTINUOUS
 62
     3
 10
27373.352934301169
 20
16723.95159442196
 30
0.0
 11
27373.352934301169
 21
16729.953494421949
 31
0.0
  0
LINE
  5
1627B
  8
2-0
  6
CONTINUOUS
 62
     3
 10
27315.467851301171
 20
16753.957137421959
 30
0.0
 11
27400.464420301181
 21
16753.957137421959
 31
0.0
  0
LINE
  5
1627C
  8
2-0
  6
CONTINUOUS
 62
     3
 10
27400.464420301181
 20
16753.957137421959
 30
0.0
 11
27400.464420301181
 21
16773.952254421962
 31
0.0
  0
LINE
  5
1627D
  8
2-0
  6
CONTINUOUS
 62
     3
 10
27373.352934301169
 20
16714.34301142197
 30
0.0
 11
27403.350558301179
 21
16714.34301142197
 31
0.0
  0
LINE
  5
1627E
  8
2-0
  6
CONTINUOUS
 62
     3
 10
27373.352934301169
 20
16732.33881442195
 30
0.0
 11
27373.352934301169
 21
16714.34301142197
 31
0.0
  0
LINE
  5
1627F
  8
2-0
  6
CONTINUOUS
 62
     3
 10
27398.350294301181
 20
16732.33881442195
 30
0.0
 11
27373.352934301169
 21
16732.33881442195
 31
0.0
  0
LINE
  5
16280
  8
2-0
  6
CONTINUOUS
 62
     3
 10
27398.350294301181
 20
16727.338550421959
 30
0.0
 11
27398.350294301181
 21
16732.33881442195
 31
0.0
  0
LINE
  5
16281
  8
2-0
  6
CONTINUOUS
 62
     3
 10
27391.34873730117
 20
16727.338550421959
 30
0.0
 11
27398.350294301181
 21
16727.338550421959
 31
0.0
  0
LINE
  5
16282
  8
2-0
  6
CONTINUOUS
 62
     3
 10
27391.34873730117
 20
16022.856319921941
 30
0.0
 11
27398.350294301181
 21
16022.856319921941
 31
0.0
  0
LINE
  5
16283
  8
2-0
  6
CONTINUOUS
 62
     3
 10
27398.350294301181
 20
16022.856319921941
 30
0.0
 11
27398.350294301181
 21
16027.856583921939
 31
0.0
  0
LINE
  5
16284
  8
2-0
  6
CONTINUOUS
 62
     3
 10
27398.350294301181
 20
16027.856583921939
 30
0.0
 11
27373.352934301169
 21
16027.856583921939
 31
0.0
  0
LINE
  5
16285
  8
2-0
  6
CONTINUOUS
 62
     3
 10
27373.352934301169
 20
16027.856583921939
 30
0.0
 11
27373.352934301169
 21
16009.85484192195
 31
0.0
  0
LINE
  5
16286
  8
2-0
  6
CONTINUOUS
 62
     3
 10
27373.352934301169
 20
16009.85484192195
 30
0.0
 11
27403.350558301179
 21
16009.85484192195
 31
0.0
  0
LINE
  5
16287
  8
2-0
  6
CONTINUOUS
 62
     3
 10
27373.352934301169
 20
16025.952286921951
 30
0.0
 11
27373.352934301169
 21
16019.95533592195
 31
0.0
  0
LINE
  5
16288
  8
2-0
  6
CONTINUOUS
 62
     3
 10
27373.352934301169
 20
16019.95533592195
 30
0.0
 11
27403.350558301179
 21
16019.95533592195
 31
0.0
  0
LINE
  5
16289
  8
2-0
  6
CONTINUOUS
 62
     3
 10
27403.350558301179
 20
16019.95533592195
 30
0.0
 11
27403.350558301179
 21
16056.95550692196
 31
0.0
  0
LINE
  5
1628A
  8
2-0
  6
CONTINUOUS
 62
     3
 10
27373.352934301169
 20
16056.95550692196
 30
0.0
 11
27403.350558301179
 21
16056.95550692196
 31
0.0
  0
LINE
  5
1628B
  8
2-0
  6
CONTINUOUS
 62
     3
 10
27373.352934301169
 20
16050.95261692195
 30
0.0
 11
27373.352934301169
 21
16056.95550692196
 31
0.0
  0
LINE
  5
1628C
  8
2-0
  6
CONTINUOUS
 62
     3
 10
27373.352934301169
 20
16067.051051921961
 30
0.0
 11
27403.350558301179
 21
16067.051051921961
 31
0.0
  0
LINE
  5
1628D
  8
2-0
  6
CONTINUOUS
 62
     3
 10
27373.352934301169
 20
16049.043370921951
 30
0.0
 11
27373.352934301169
 21
16067.051051921961
 31
0.0
  0
LINE
  5
1628E
  8
2-0
  6
CONTINUOUS
 62
     3
 10
27398.350294301181
 20
16049.043370921951
 30
0.0
 11
27373.352934301169
 21
16049.043370921951
 31
0.0
  0
LINE
  5
1628F
  8
2-0
  6
CONTINUOUS
 62
     3
 10
27398.350294301181
 20
16054.04957392196
 30
0.0
 11
27398.350294301181
 21
16049.043370921951
 31
0.0
  0
LINE
  5
16290
  8
2-0
  6
CONTINUOUS
 62
     3
 10
27391.34873730117
 20
16054.04957392196
 30
0.0
 11
27398.350294301181
 21
16054.04957392196
 31
0.0
  0
LINE
  5
16291
  8
2-0
  6
CONTINUOUS
 62
     3
 10
27391.34873730117
 20
15353.289590421969
 30
0.0
 11
27398.350294301181
 21
15353.289590421969
 31
0.0
  0
LINE
  5
16292
  8
2-0
  6
CONTINUOUS
 62
     3
 10
27398.350294301181
 20
15353.289590421969
 30
0.0
 11
27398.350294301181
 21
15348.295265421961
 31
0.0
  0
LINE
  5
16293
  8
2-0
  6
CONTINUOUS
 62
     3
 10
27398.350294301181
 20
15348.295265421961
 30
0.0
 11
27373.352934301169
 21
15348.295265421961
 31
0.0
  0
LINE
  5
16294
  8
2-0
  6
CONTINUOUS
 62
     3
 10
27373.352934301169
 20
15348.295265421961
 30
0.0
 11
27373.352934301169
 21
15366.291068421961
 31
0.0
  0
LINE
  5
16295
  8
2-0
  6
CONTINUOUS
 62
     3
 10
27373.352934301169
 20
15366.291068421961
 30
0.0
 11
27403.350558301179
 21
15366.291068421961
 31
0.0
  0
LINE
  5
16296
  8
2-0
  6
CONTINUOUS
 62
     3
 10
27373.352934301169
 20
15350.19362342197
 30
0.0
 11
27373.352934301169
 21
15356.195523421969
 31
0.0
  0
LINE
  5
16297
  8
2-0
  6
CONTINUOUS
 62
     3
 10
27373.352934301169
 20
15356.195523421969
 30
0.0
 11
27403.350558301179
 21
15356.195523421969
 31
0.0
  0
LINE
  5
16298
  8
2-0
  6
CONTINUOUS
 62
     3
 10
27403.350558301179
 20
15319.19634242197
 30
0.0
 11
27403.350558301179
 21
15356.195523421969
 31
0.0
  0
LINE
  5
16299
  8
2-0
  6
CONTINUOUS
 62
     3
 10
27373.352934301169
 20
15319.19634242197
 30
0.0
 11
27403.350558301179
 21
15319.19634242197
 31
0.0
  0
LINE
  5
1629A
  8
2-0
  6
CONTINUOUS
 62
     3
 10
27373.352934301169
 20
15325.193293421949
 30
0.0
 11
27373.352934301169
 21
15319.19634242197
 31
0.0
  0
LINE
  5
1629B
  8
2-0
  6
CONTINUOUS
 62
     3
 10
27373.352934301169
 20
15309.09485842196
 30
0.0
 11
27403.350558301179
 21
15309.09485842196
 31
0.0
  0
LINE
  5
1629C
  8
2-0
  6
CONTINUOUS
 62
     3
 10
27373.352934301169
 20
15327.10253942196
 30
0.0
 11
27373.352934301169
 21
15309.09485842196
 31
0.0
  0
LINE
  5
1629D
  8
2-0
  6
CONTINUOUS
 62
     3
 10
27398.350294301181
 20
15327.10253942196
 30
0.0
 11
27373.352934301169
 21
15327.10253942196
 31
0.0
  0
LINE
  5
1629E
  8
2-0
  6
CONTINUOUS
 62
     3
 10
27398.350294301181
 20
15322.10227542197
 30
0.0
 11
27398.350294301181
 21
15327.10253942196
 31
0.0
  0
LINE
  5
1629F
  8
2-0
  6
CONTINUOUS
 62
     3
 10
27391.34873730117
 20
15322.10227542197
 30
0.0
 11
27398.350294301181
 21
15322.10227542197
 31
0.0
  0
LINE
  5
162A0
  8
2-0
  6
CONTINUOUS
 62
     3
 10
27403.350558301179
 20
16714.34301142197
 30
0.0
 11
27403.350558301179
 21
16067.051051921961
 31
0.0
  0
LINE
  5
162A1
  8
2-0
  6
CONTINUOUS
 62
     3
 10
27403.350558301179
 20
16868.953309421951
 30
0.0
 11
27403.350558301179
 21
16723.95159442196
 31
0.0
  0
LINE
  5
162A2
  8
2-0
  6
CONTINUOUS
 62
     3
 10
27315.467851301171
 20
16838.953705421962
 30
0.0
 11
27315.467851301171
 21
16753.957137421959
 31
0.0
  0
LINE
  5
162A3
  8
2-0
  6
CONTINUOUS
 62
     6
 10
25777.259184301169
 20
18607.40097092195
 30
0.0
 11
26802.291516301171
 21
18607.40097092195
 31
0.0
  0
LINE
  5
162A4
  8
2-0
  6
CONTINUOUS
 62
     3
 10
27391.34873730117
 20
14620.861268421961
 30
0.0
 11
27398.350294301181
 21
14620.861268421961
 31
0.0
  0
LINE
  5
162A5
  8
2-0
  6
CONTINUOUS
 62
     3
 10
27398.350294301181
 20
14620.861268421961
 30
0.0
 11
27398.350294301181
 21
14625.855594421961
 31
0.0
  0
LINE
  5
162A6
  8
2-0
  6
CONTINUOUS
 62
     3
 10
27398.350294301181
 20
14625.855594421961
 30
0.0
 11
27373.352934301169
 21
14625.855594421961
 31
0.0
  0
LINE
  5
162A7
  8
2-0
  6
CONTINUOUS
 62
     3
 10
27373.352934301169
 20
14625.855594421961
 30
0.0
 11
27373.352934301169
 21
14607.85979042196
 31
0.0
  0
LINE
  5
162A8
  8
2-0
  6
CONTINUOUS
 62
     3
 10
27373.352934301169
 20
14607.85979042196
 30
0.0
 11
27403.350558301179
 21
14607.85979042196
 31
0.0
  0
LINE
  5
162A9
  8
2-0
  6
CONTINUOUS
 62
     3
 10
27373.352934301169
 20
14623.958225421969
 30
0.0
 11
27373.352934301169
 21
14617.955335421961
 31
0.0
  0
LINE
  5
162AA
  8
2-0
  6
CONTINUOUS
 62
     3
 10
27373.352934301169
 20
14617.955335421961
 30
0.0
 11
27403.350558301179
 21
14617.955335421961
 31
0.0
  0
LINE
  5
162AB
  8
2-0
  6
CONTINUOUS
 62
     3
 10
27403.350558301179
 20
14617.955335421961
 30
0.0
 11
27403.350558301179
 21
14654.955507421941
 31
0.0
  0
LINE
  5
162AC
  8
2-0
  6
CONTINUOUS
 62
     3
 10
27373.352934301169
 20
14654.955507421941
 30
0.0
 11
27403.350558301179
 21
14654.955507421941
 31
0.0
  0
LINE
  5
162AD
  8
2-0
  6
CONTINUOUS
 62
     3
 10
27373.352934301169
 20
14648.95855542195
 30
0.0
 11
27373.352934301169
 21
14654.955507421941
 31
0.0
  0
LINE
  5
162AE
  8
2-0
  6
CONTINUOUS
 62
     3
 10
27373.352934301169
 20
14665.056000421961
 30
0.0
 11
27403.350558301179
 21
14665.056000421961
 31
0.0
  0
LINE
  5
162AF
  8
2-0
  6
CONTINUOUS
 62
     3
 10
27373.352934301169
 20
14647.049309421969
 30
0.0
 11
27373.352934301169
 21
14665.056000421961
 31
0.0
  0
LINE
  5
162B0
  8
2-0
  6
CONTINUOUS
 62
     3
 10
27398.350294301181
 20
14647.049309421969
 30
0.0
 11
27373.352934301169
 21
14647.049309421969
 31
0.0
  0
LINE
  5
162B1
  8
2-0
  6
CONTINUOUS
 62
     3
 10
27398.350294301181
 20
14652.05452242197
 30
0.0
 11
27398.350294301181
 21
14647.049309421969
 31
0.0
  0
LINE
  5
162B2
  8
2-0
  6
CONTINUOUS
 62
     3
 10
27391.34873730117
 20
14652.05452242197
 30
0.0
 11
27398.350294301181
 21
14652.05452242197
 31
0.0
  0
LINE
  5
162B3
  8
2-0
  6
CONTINUOUS
 62
     3
 10
27373.352934301169
 20
14295.457348421951
 30
0.0
 11
27373.352934301169
 21
14301.46221742196
 31
0.0
  0
LINE
  5
162B4
  8
2-0
  6
CONTINUOUS
 62
     3
 10
27373.352934301169
 20
14301.46221742196
 30
0.0
 11
27403.350558301179
 21
14301.46221742196
 31
0.0
  0
LINE
  5
162B5
  8
2-0
  6
CONTINUOUS
 62
     3
 10
27403.350558301179
 20
14301.46221742196
 30
0.0
 11
27403.350558301179
 21
14186.458126421951
 31
0.0
  0
LINE
  5
162B6
  8
2-0
  6
CONTINUOUS
 62
     3
 10
27403.350558301179
 20
14186.458126421951
 30
0.0
 11
27318.352010301191
 21
14186.458126421951
 31
0.0
  0
LINE
  5
162B7
  8
2-0
  6
CONTINUOUS
 62
     3
 10
27318.352010301191
 20
14186.458126421951
 30
0.0
 11
27318.352010301191
 21
14271.45370542196
 31
0.0
  0
LINE
  5
162B8
  8
2-0
  6
CONTINUOUS
 62
     3
 10
27318.352010301191
 20
14271.45370542196
 30
0.0
 11
27350.350928301181
 21
14271.45370542196
 31
0.0
  0
LINE
  5
162B9
  8
2-0
  6
CONTINUOUS
 62
     3
 10
27391.34873730117
 20
14298.491950421951
 30
0.0
 11
27398.350294301181
 21
14298.491950421951
 31
0.0
  0
LINE
  5
162BA
  8
2-0
  6
CONTINUOUS
 62
     3
 10
27398.350294301181
 20
14298.491950421951
 30
0.0
 11
27398.350294301181
 21
14293.49465542194
 31
0.0
  0
LINE
  5
162BB
  8
2-0
  6
CONTINUOUS
 62
     3
 10
27398.350294301181
 20
14293.49465542194
 30
0.0
 11
27373.352934301169
 21
14293.49465542194
 31
0.0
  0
LINE
  5
162BC
  8
2-0
  6
CONTINUOUS
 62
     3
 10
27373.352934301169
 20
14293.49465542194
 30
0.0
 11
27373.352934301169
 21
14311.49342842196
 31
0.0
  0
LINE
  5
162BD
  8
2-0
  6
CONTINUOUS
 62
     3
 10
27373.352934301169
 20
14311.49342842196
 30
0.0
 11
27403.350558301179
 21
14311.49342842196
 31
0.0
  0
LINE
  5
162BE
  8
2-0
  6
CENTER2
 62
     6
 10
27360.852274301182
 20
13603.191987421949
 30
0.0
 11
27360.852274301182
 21
14031.03577781266
 31
0.0
  0
LINE
  5
162BF
  8
2-0
  6
CONTINUOUS
 62
     3
 10
27403.350558301179
 20
18284.050557421961
 30
0.0
 11
27403.350558301179
 21
18927.861274921961
 31
0.0
  0
LINE
  5
162C0
  8
2-0
  6
CONTINUOUS
 62
     6
 10
28095.855441301181
 20
20136.456609421981
 30
0.0
 11
29295.84950330116
 21
20136.456609421981
 31
0.0
  0
LINE
  5
162C1
  8
2-0
  6
CONTINUOUS
 62
     6
 10
27233.822608301161
 20
18849.55547892195
 30
0.0
 11
26802.291516301171
 21
18607.40097092195
 31
0.0
  0
LINE
  5
162C2
  8
2-0
  6
CONTINUOUS
 62
     6
 10
27555.39144230113
 20
19549.133446421962
 30
0.0
 11
28095.855441301181
 21
20136.456609421981
 31
0.0
  0
LINE
  5
162C3
  8
2-0
  6
CONTINUOUS
 62
     3
 10
27403.350558301179
 20
16009.85484192195
 30
0.0
 11
27403.350558301179
 21
15366.291068421961
 31
0.0
  0
LINE
  5
162C4
  8
2-0
  6
CONTINUOUS
 62
     6
 10
27220.765703301171
 20
18872.814822921951
 30
0.0
 11
27373.352934301169
 21
18927.861274921961
 31
0.0
  0
LINE
  5
162C5
  8
2-0
  6
CONTINUOUS
 62
     6
 10
27373.352934301169
 20
18927.861274921961
 30
0.0
 11
27246.87159430117
 21
18826.30207492191
 31
0.0
  0
LINE
  5
162C6
  8
2-0
  6
CONTINUOUS
 62
     6
 10
27220.765703301171
 20
18872.814822921951
 30
0.0
 11
27246.87159430117
 21
18826.30207492191
 31
0.0
  0
LINE
  5
162C7
  8
2-0
  6
CONTINUOUS
 62
     6
 10
27246.87159430117
 20
18826.30207492191
 30
0.0
 11
27373.352934301169
 21
18927.861274921961
 31
0.0
  0
LINE
  5
162C8
  8
2-0
  6
CONTINUOUS
 62
     6
 10
27373.352934301169
 20
18927.861274921961
 30
0.0
 11
27220.765703301171
 21
18872.814822921951
 31
0.0
  0
LINE
  5
162C9
  8
2-0
  6
CONTINUOUS
 62
     6
 10
27220.765703301171
 20
18872.814822921951
 30
0.0
 11
27373.352934301169
 21
18927.861274921961
 31
0.0
  0
LINE
  5
162CA
  8
2-0
  6
CONTINUOUS
 62
     6
 10
27246.87159430117
 20
18826.30207492191
 30
0.0
 11
27373.352934301169
 21
18927.861274921961
 31
0.0
  0
LINE
  5
162CB
  8
2-0
  6
CONTINUOUS
 62
     6
 10
27246.87159430117
 20
18826.30207492191
 30
0.0
 11
27220.765703301171
 21
18872.814822921951
 31
0.0
  0
LINE
  5
162CC
  8
2-0
  6
CONTINUOUS
 62
     6
 10
27575.008471301171
 20
19531.072319421972
 30
0.0
 11
27447.046451301179
 21
19431.389701421969
 31
0.0
  0
LINE
  5
162CD
  8
2-0
  6
CONTINUOUS
 62
     6
 10
27447.046451301179
 20
19431.389701421969
 30
0.0
 11
27535.76055630116
 21
19567.186656421982
 31
0.0
  0
LINE
  5
162CE
  8
2-0
  6
CONTINUOUS
 62
     6
 10
27575.008471301171
 20
19531.072319421972
 30
0.0
 11
27535.76055630116
 21
19567.186656421982
 31
0.0
  0
LINE
  5
162CF
  8
2-0
  6
CONTINUOUS
 62
     6
 10
27535.76055630116
 20
19567.186656421982
 30
0.0
 11
27447.046451301179
 21
19431.389701421969
 31
0.0
  0
LINE
  5
162D0
  8
2-0
  6
CONTINUOUS
 62
     6
 10
27447.046451301179
 20
19431.389701421969
 30
0.0
 11
27575.008471301171
 21
19531.072319421972
 31
0.0
  0
LINE
  5
162D1
  8
2-0
  6
CONTINUOUS
 62
     6
 10
27575.008471301171
 20
19531.072319421972
 30
0.0
 11
27447.046451301179
 21
19431.389701421969
 31
0.0
  0
LINE
  5
162D2
  8
2-0
  6
CONTINUOUS
 62
     6
 10
27535.76055630116
 20
19567.186656421982
 30
0.0
 11
27447.046451301179
 21
19431.389701421969
 31
0.0
  0
LINE
  5
162D3
  8
2-0
  6
CONTINUOUS
 62
     6
 10
27535.76055630116
 20
19567.186656421982
 30
0.0
 11
27575.008471301171
 21
19531.072319421972
 31
0.0
  0
LINE
  5
162D4
  8
2-0
  6
CONTINUOUS
 62
     4
 10
24442.852274301182
 20
19486.455949421961
 30
0.0
 11
24442.852274301182
 21
20216.45291442197
 31
0.0
  0
LINE
  5
162D5
  8
2-0
  6
CONTINUOUS
 62
     6
 10
27126.71283730118
 20
14078.185388421951
 30
0.0
 11
27258.459696301179
 21
14172.812315421959
 31
0.0
  0
LINE
  5
162D6
  8
2-0
  6
CONTINUOUS
 62
     6
 10
27258.459696301179
 20
14172.812315421959
 30
0.0
 11
27164.529560301158
 21
14040.57354542195
 31
0.0
  0
LINE
  5
162D7
  8
2-0
  6
CONTINUOUS
 62
     6
 10
27126.71283730118
 20
14078.185388421951
 30
0.0
 11
27164.529560301158
 21
14040.57354542195
 31
0.0
  0
LINE
  5
162D8
  8
2-0
  6
CONTINUOUS
 62
     6
 10
27164.529560301158
 20
14040.57354542195
 30
0.0
 11
27258.459696301179
 21
14172.812315421959
 31
0.0
  0
LINE
  5
162D9
  8
2-0
  6
CONTINUOUS
 62
     6
 10
27258.459696301179
 20
14172.812315421959
 30
0.0
 11
27126.71283730118
 21
14078.185388421951
 31
0.0
  0
LINE
  5
162DA
  8
2-0
  6
CONTINUOUS
 62
     6
 10
27126.71283730118
 20
14078.185388421951
 30
0.0
 11
27258.459696301179
 21
14172.812315421959
 31
0.0
  0
LINE
  5
162DB
  8
2-0
  6
CONTINUOUS
 62
     6
 10
27164.529560301158
 20
14040.57354542195
 30
0.0
 11
27258.459696301179
 21
14172.812315421959
 31
0.0
  0
LINE
  5
162DC
  8
2-0
  6
CONTINUOUS
 62
     6
 10
27164.529560301158
 20
14040.57354542195
 30
0.0
 11
27126.71283730118
 21
14078.185388421951
 31
0.0
  0
LINE
  5
162DD
  8
2-0
  6
CONTINUOUS
 62
     6
 10
27189.748626301182
 20
14405.090015421951
 30
0.0
 11
27322.348658301162
 21
14311.661687421951
 31
0.0
  0
LINE
  5
162DE
  8
2-0
  6
CONTINUOUS
 62
     6
 10
27322.348658301162
 20
14311.661687421951
 30
0.0
 11
27166.615972301181
 21
14357.037201421959
 31
0.0
  0
LINE
  5
162DF
  8
2-0
  6
CONTINUOUS
 62
     6
 10
27189.748626301182
 20
14405.090015421951
 30
0.0
 11
27166.615972301181
 21
14357.037201421959
 31
0.0
  0
LINE
  5
162E0
  8
2-0
  6
CONTINUOUS
 62
     6
 10
27166.615972301181
 20
14357.037201421959
 30
0.0
 11
27322.348658301162
 21
14311.661687421951
 31
0.0
  0
LINE
  5
162E1
  8
2-0
  6
CONTINUOUS
 62
     6
 10
27322.348658301162
 20
14311.661687421951
 30
0.0
 11
27189.748626301182
 21
14405.090015421951
 31
0.0
  0
LINE
  5
162E2
  8
2-0
  6
CONTINUOUS
 62
     6
 10
27189.748626301182
 20
14405.090015421951
 30
0.0
 11
27322.348658301162
 21
14311.661687421951
 31
0.0
  0
LINE
  5
162E3
  8
2-0
  6
CONTINUOUS
 62
     6
 10
27166.615972301181
 20
14357.037201421959
 30
0.0
 11
27322.348658301162
 21
14311.661687421951
 31
0.0
  0
LINE
  5
162E4
  8
2-0
  6
CONTINUOUS
 62
     6
 10
27166.615972301181
 20
14357.037201421959
 30
0.0
 11
27189.748626301182
 21
14405.090015421951
 31
0.0
  0
LINE
  5
162E5
  8
2-0
  6
CONTINUOUS
 62
     6
 10
27249.51227230117
 20
16434.410948421981
 30
0.0
 11
27403.350558301179
 21
16485.844779421979
 31
0.0
  0
LINE
  5
162E6
  8
2-0
  6
CONTINUOUS
 62
     6
 10
27403.350558301179
 20
16485.844779421979
 30
0.0
 11
27274.515571301159
 21
16387.30434442198
 31
0.0
  0
LINE
  5
162E7
  8
2-0
  6
CONTINUOUS
 62
     6
 10
27249.51227230117
 20
16434.410948421981
 30
0.0
 11
27274.515571301159
 21
16387.30434442198
 31
0.0
  0
LINE
  5
162E8
  8
2-0
  6
CONTINUOUS
 62
     6
 10
27274.515571301159
 20
16387.30434442198
 30
0.0
 11
27403.350558301179
 21
16485.844779421979
 31
0.0
  0
LINE
  5
162E9
  8
2-0
  6
CONTINUOUS
 62
     6
 10
27403.350558301179
 20
16485.844779421979
 30
0.0
 11
27249.51227230117
 21
16434.410948421981
 31
0.0
  0
LINE
  5
162EA
  8
2-0
  6
CONTINUOUS
 62
     6
 10
27249.51227230117
 20
16434.410948421981
 30
0.0
 11
27403.350558301179
 21
16485.844779421979
 31
0.0
  0
LINE
  5
162EB
  8
2-0
  6
CONTINUOUS
 62
     6
 10
27274.515571301159
 20
16387.30434442198
 30
0.0
 11
27403.350558301179
 21
16485.844779421979
 31
0.0
  0
LINE
  5
162EC
  8
2-0
  6
CONTINUOUS
 62
     6
 10
27274.515571301159
 20
16387.30434442198
 30
0.0
 11
27249.51227230117
 21
16434.410948421981
 31
0.0
  0
LINE
  5
162ED
  8
2-0
  6
CONTINUOUS
 62
     6
 10
27115.576065301178
 20
16925.729440421968
 30
0.0
 11
27258.459696301179
 21
16848.953811421961
 31
0.0
  0
LINE
  5
162EE
  8
2-0
  6
CONTINUOUS
 62
     6
 10
27258.459696301179
 20
16848.953811421961
 30
0.0
 11
27098.39780330117
 21
16875.23588042198
 31
0.0
  0
LINE
  5
162EF
  8
2-0
  6
CONTINUOUS
 62
     6
 10
27115.576065301178
 20
16925.729440421968
 30
0.0
 11
27098.39780330117
 21
16875.23588042198
 31
0.0
  0
LINE
  5
162F0
  8
2-0
  6
CONTINUOUS
 62
     6
 10
27098.39780330117
 20
16875.23588042198
 30
0.0
 11
27258.459696301179
 21
16848.953811421961
 31
0.0
  0
LINE
  5
162F1
  8
2-0
  6
CONTINUOUS
 62
     6
 10
27258.459696301179
 20
16848.953811421961
 30
0.0
 11
27115.576065301178
 21
16925.729440421968
 31
0.0
  0
LINE
  5
162F2
  8
2-0
  6
CONTINUOUS
 62
     6
 10
27115.576065301178
 20
16925.729440421968
 30
0.0
 11
27258.459696301179
 21
16848.953811421961
 31
0.0
  0
LINE
  5
162F3
  8
2-0
  6
CONTINUOUS
 62
     6
 10
27098.39780330117
 20
16875.23588042198
 30
0.0
 11
27258.459696301179
 21
16848.953811421961
 31
0.0
  0
LINE
  5
162F4
  8
2-0
  6
CONTINUOUS
 62
     6
 10
27098.39780330117
 20
16875.23588042198
 30
0.0
 11
27115.576065301178
 21
16925.729440421968
 31
0.0
  0
LINE
  5
162F5
  8
2-0
  6
CONTINUOUS
 62
     3
 10
24430.35359430117
 20
19297.453495421949
 30
0.0
 11
24430.35359430117
 21
19291.457533421981
 31
0.0
  0
LINE
  5
162F6
  8
2-0
  6
CONTINUOUS
 62
     3
 10
24430.35359430117
 20
19291.457533421981
 30
0.0
 11
24400.35596930117
 21
19291.457533421981
 31
0.0
  0
LINE
  5
162F7
  8
2-0
  6
CONTINUOUS
 62
     3
 10
24400.35596930117
 20
19291.457533421981
 30
0.0
 11
24400.35596930117
 21
19406.45370642198
 31
0.0
  0
LINE
  5
162F8
  8
2-0
  6
CONTINUOUS
 62
     3
 10
24400.35596930117
 20
19321.457137421959
 30
0.0
 11
24481.353910301179
 21
19321.457137421959
 31
0.0
  0
LINE
  5
162F9
  8
2-0
  6
CONTINUOUS
 62
     3
 10
24430.35359430117
 20
19281.160077421951
 30
0.0
 11
24400.35596930117
 21
19281.160077421951
 31
0.0
  0
LINE
  5
162FA
  8
2-0
  6
CONTINUOUS
 62
     3
 10
24430.35359430117
 20
19299.16181942197
 30
0.0
 11
24430.35359430117
 21
19281.160077421951
 31
0.0
  0
LINE
  5
162FB
  8
2-0
  6
CONTINUOUS
 62
     3
 10
24405.36019230117
 20
19299.16181942197
 30
0.0
 11
24430.35359430117
 21
19299.16181942197
 31
0.0
  0
LINE
  5
162FC
  8
2-0
  6
CONTINUOUS
 62
     3
 10
24405.36019230117
 20
19294.153637421961
 30
0.0
 11
24405.36019230117
 21
19299.16181942197
 31
0.0
  0
LINE
  5
162FD
  8
2-0
  6
CONTINUOUS
 62
     3
 10
24412.35779030115
 20
19294.153637421961
 30
0.0
 11
24405.36019230117
 21
19294.153637421961
 31
0.0
  0
LINE
  5
162FE
  8
2-0
  6
CONTINUOUS
 62
     3
 10
24512.652079301159
 20
19394.453864421961
 30
0.0
 11
24512.652079301159
 21
19401.459380421969
 31
0.0
  0
LINE
  5
162FF
  8
2-0
  6
CONTINUOUS
 62
     3
 10
24512.652079301159
 20
19401.459380421969
 30
0.0
 11
24507.649835301181
 21
19401.459380421969
 31
0.0
  0
LINE
  5
16300
  8
2-0
  6
CONTINUOUS
 62
     3
 10
24507.649835301181
 20
19401.459380421969
 30
0.0
 11
24507.649835301181
 21
19376.45014342196
 31
0.0
  0
LINE
  5
16301
  8
2-0
  6
CONTINUOUS
 62
     3
 10
24507.649835301181
 20
19376.45014342196
 30
0.0
 11
24525.65751630118
 21
19376.45014342196
 31
0.0
  0
LINE
  5
16302
  8
2-0
  6
CONTINUOUS
 62
     3
 10
24525.65751630118
 20
19376.45014342196
 30
0.0
 11
24525.65751630118
 21
19406.45370642198
 31
0.0
  0
LINE
  5
16303
  8
2-0
  6
CONTINUOUS
 62
     3
 10
24515.35808030119
 20
19406.45370642198
 30
0.0
 11
24400.35596930117
 21
19406.45370642198
 31
0.0
  0
LINE
  5
16304
  8
2-0
  6
CONTINUOUS
 62
     3
 10
24515.35808030119
 20
19376.45014342196
 30
0.0
 11
24515.35808030119
 21
19406.45370642198
 31
0.0
  0
LINE
  5
16305
  8
2-0
  6
CONTINUOUS
 62
     3
 10
24509.354201301168
 20
19376.45014342196
 30
0.0
 11
24515.35808030119
 21
19376.45014342196
 31
0.0
  0
LINE
  5
16306
  8
2-0
  6
CONTINUOUS
 62
     3
 10
24430.35359430117
 20
19297.453495421949
 30
0.0
 11
24430.35359430117
 21
19291.457533421981
 31
0.0
  0
LINE
  5
16307
  8
2-0
  6
CONTINUOUS
 62
     3
 10
24430.35359430117
 20
19291.457533421981
 30
0.0
 11
24400.35596930117
 21
19291.457533421981
 31
0.0
  0
LINE
  5
16308
  8
2-0
  6
CONTINUOUS
 62
     3
 10
24400.35596930117
 20
19291.457533421981
 30
0.0
 11
24400.35596930117
 21
19406.45370642198
 31
0.0
  0
LINE
  5
16309
  8
2-0
  6
CONTINUOUS
 62
     3
 10
24400.35596930117
 20
19321.457137421959
 30
0.0
 11
24481.353910301179
 21
19321.457137421959
 31
0.0
  0
LINE
  5
1630A
  8
2-0
  6
CONTINUOUS
 62
     3
 10
24430.35359430117
 20
19281.160077421951
 30
0.0
 11
24400.35596930117
 21
19281.160077421951
 31
0.0
  0
LINE
  5
1630B
  8
2-0
  6
CONTINUOUS
 62
     3
 10
24430.35359430117
 20
19299.16181942197
 30
0.0
 11
24430.35359430117
 21
19281.160077421951
 31
0.0
  0
LINE
  5
1630C
  8
2-0
  6
CONTINUOUS
 62
     3
 10
24405.36019230117
 20
19299.16181942197
 30
0.0
 11
24430.35359430117
 21
19299.16181942197
 31
0.0
  0
LINE
  5
1630D
  8
2-0
  6
CONTINUOUS
 62
     3
 10
24405.36019230117
 20
19294.153637421961
 30
0.0
 11
24405.36019230117
 21
19299.16181942197
 31
0.0
  0
LINE
  5
1630E
  8
2-0
  6
CONTINUOUS
 62
     3
 10
24412.35779030115
 20
19294.153637421961
 30
0.0
 11
24405.36019230117
 21
19294.153637421961
 31
0.0
  0
LINE
  5
1630F
  8
2-0
  6
CONTINUOUS
 62
     3
 10
24412.35779030115
 20
18940.85681492191
 30
0.0
 11
24405.36019230117
 21
18940.85681492191
 31
0.0
  0
LINE
  5
16310
  8
2-0
  6
CONTINUOUS
 62
     3
 10
24405.36019230117
 20
18940.85681492191
 30
0.0
 11
24405.36019230117
 21
18945.857078921948
 31
0.0
  0
LINE
  5
16311
  8
2-0
  6
CONTINUOUS
 62
     3
 10
24405.36019230117
 20
18945.857078921948
 30
0.0
 11
24430.35359430117
 21
18945.857078921948
 31
0.0
  0
LINE
  5
16312
  8
2-0
  6
CONTINUOUS
 62
     3
 10
24430.35359430117
 20
18945.857078921948
 30
0.0
 11
24430.35359430117
 21
18927.861274921939
 31
0.0
  0
LINE
  5
16313
  8
2-0
  6
CONTINUOUS
 62
     3
 10
24430.35359430117
 20
18927.861274921939
 30
0.0
 11
24400.35596930117
 21
18927.861274921939
 31
0.0
  0
LINE
  5
16314
  8
2-0
  6
CONTINUOUS
 62
     3
 10
24430.35359430117
 20
18943.952781921918
 30
0.0
 11
24430.35359430117
 21
18937.95484092195
 31
0.0
  0
LINE
  5
16315
  8
2-0
  6
CONTINUOUS
 62
     3
 10
24430.35359430117
 20
18937.95484092195
 30
0.0
 11
24400.35596930117
 21
18937.95484092195
 31
0.0
  0
LINE
  5
16316
  8
2-0
  6
CONTINUOUS
 62
     3
 10
24400.35596930117
 20
18937.95484092195
 30
0.0
 11
24400.35596930117
 21
18974.956001921939
 31
0.0
  0
LINE
  5
16317
  8
2-0
  6
CONTINUOUS
 62
     3
 10
24430.35359430117
 20
18974.956001921939
 30
0.0
 11
24400.35596930117
 21
18974.956001921939
 31
0.0
  0
LINE
  5
16318
  8
2-0
  6
CONTINUOUS
 62
     3
 10
24430.35359430117
 20
18968.95212192195
 30
0.0
 11
24430.35359430117
 21
18974.956001921939
 31
0.0
  0
LINE
  5
16319
  8
2-0
  6
CONTINUOUS
 62
     3
 10
24430.35359430117
 20
18985.05154692191
 30
0.0
 11
24400.35596930117
 21
18985.05154692191
 31
0.0
  0
LINE
  5
1631A
  8
2-0
  6
CONTINUOUS
 62
     3
 10
24430.35359430117
 20
18967.04980492196
 30
0.0
 11
24430.35359430117
 21
18985.05154692191
 31
0.0
  0
LINE
  5
1631B
  8
2-0
  6
CONTINUOUS
 62
     3
 10
24405.36019230117
 20
18967.04980492196
 30
0.0
 11
24430.35359430117
 21
18967.04980492196
 31
0.0
  0
LINE
  5
1631C
  8
2-0
  6
CONTINUOUS
 62
     3
 10
24405.36019230117
 20
18972.050068921952
 30
0.0
 11
24405.36019230117
 21
18967.04980492196
 31
0.0
  0
LINE
  5
1631D
  8
2-0
  6
CONTINUOUS
 62
     3
 10
24412.35779030115
 20
18972.050068921952
 30
0.0
 11
24405.36019230117
 21
18972.050068921952
 31
0.0
  0
LINE
  5
1631E
  8
2-0
  6
CONTINUOUS
 62
     3
 10
24412.35779030115
 20
18239.85582542195
 30
0.0
 11
24405.36019230117
 21
18239.85582542195
 31
0.0
  0
LINE
  5
1631F
  8
2-0
  6
CONTINUOUS
 62
     3
 10
24405.36019230117
 20
18239.85582542195
 30
0.0
 11
24405.36019230117
 21
18244.862027421939
 31
0.0
  0
LINE
  5
16320
  8
2-0
  6
CONTINUOUS
 62
     3
 10
24405.36019230117
 20
18244.862027421939
 30
0.0
 11
24430.35359430117
 21
18244.862027421939
 31
0.0
  0
LINE
  5
16321
  8
2-0
  6
CONTINUOUS
 62
     3
 10
24430.35359430117
 20
18244.862027421939
 30
0.0
 11
24430.35359430117
 21
18226.860285421961
 31
0.0
  0
LINE
  5
16322
  8
2-0
  6
CONTINUOUS
 62
     3
 10
24430.35359430117
 20
18226.860285421961
 30
0.0
 11
24400.35596930117
 21
18226.860285421961
 31
0.0
  0
LINE
  5
16323
  8
2-0
  6
CONTINUOUS
 62
     3
 10
24430.35359430117
 20
18242.951792421922
 30
0.0
 11
24430.35359430117
 21
18236.95583042195
 31
0.0
  0
LINE
  5
16324
  8
2-0
  6
CONTINUOUS
 62
     3
 10
24430.35359430117
 20
18236.95583042195
 30
0.0
 11
24400.35596930117
 21
18236.95583042195
 31
0.0
  0
LINE
  5
16325
  8
2-0
  6
CONTINUOUS
 62
     3
 10
24400.35596930117
 20
18236.95583042195
 30
0.0
 11
24400.35596930117
 21
18273.95501242195
 31
0.0
  0
LINE
  5
16326
  8
2-0
  6
CONTINUOUS
 62
     3
 10
24430.35359430117
 20
18273.95501242195
 30
0.0
 11
24400.35596930117
 21
18273.95501242195
 31
0.0
  0
LINE
  5
16327
  8
2-0
  6
CONTINUOUS
 62
     3
 10
24430.35359430117
 20
18267.959050421949
 30
0.0
 11
24430.35359430117
 21
18273.95501242195
 31
0.0
  0
LINE
  5
16328
  8
2-0
  6
CONTINUOUS
 62
     3
 10
24430.35359430117
 20
18284.050557421961
 30
0.0
 11
24400.35596930117
 21
18284.050557421961
 31
0.0
  0
LINE
  5
16329
  8
2-0
  6
CONTINUOUS
 62
     3
 10
24430.35359430117
 20
18266.048815421949
 30
0.0
 11
24430.35359430117
 21
18284.050557421961
 31
0.0
  0
LINE
  5
1632A
  8
2-0
  6
CONTINUOUS
 62
     3
 10
24405.36019230117
 20
18266.048815421949
 30
0.0
 11
24430.35359430117
 21
18266.048815421949
 31
0.0
  0
LINE
  5
1632B
  8
2-0
  6
CONTINUOUS
 62
     3
 10
24405.36019230117
 20
18271.055017421939
 30
0.0
 11
24405.36019230117
 21
18266.048815421949
 31
0.0
  0
LINE
  5
1632C
  8
2-0
  6
CONTINUOUS
 62
     3
 10
24412.35779030115
 20
18271.055017421939
 30
0.0
 11
24405.36019230117
 21
18271.055017421939
 31
0.0
  0
LINE
  5
1632D
  8
2-0
  6
CONTINUOUS
 62
     3
 10
24412.35779030115
 20
17570.049079421951
 30
0.0
 11
24405.36019230117
 21
17570.049079421951
 31
0.0
  0
LINE
  5
1632E
  8
2-0
  6
CONTINUOUS
 62
     3
 10
24405.36019230117
 20
17570.049079421951
 30
0.0
 11
24405.36019230117
 21
17565.06069242195
 31
0.0
  0
LINE
  5
1632F
  8
2-0
  6
CONTINUOUS
 62
     3
 10
24405.36019230117
 20
17565.06069242195
 30
0.0
 11
24430.35359430117
 21
17565.06069242195
 31
0.0
  0
LINE
  5
16330
  8
2-0
  6
CONTINUOUS
 62
     3
 10
24430.35359430117
 20
17565.06069242195
 30
0.0
 11
24430.35359430117
 21
17583.056495421952
 31
0.0
  0
LINE
  5
16331
  8
2-0
  6
CONTINUOUS
 62
     3
 10
24430.35359430117
 20
17583.056495421952
 30
0.0
 11
24400.35596930117
 21
17583.056495421952
 31
0.0
  0
LINE
  5
16332
  8
2-0
  6
CONTINUOUS
 62
     3
 10
24430.35359430117
 20
17566.959050421949
 30
0.0
 11
24430.35359430117
 21
17572.95501242195
 31
0.0
  0
LINE
  5
16333
  8
2-0
  6
CONTINUOUS
 62
     3
 10
24430.35359430117
 20
17572.95501242195
 30
0.0
 11
24400.35596930117
 21
17572.95501242195
 31
0.0
  0
LINE
  5
16334
  8
2-0
  6
CONTINUOUS
 62
     3
 10
24400.35596930117
 20
17572.95501242195
 30
0.0
 11
24400.35596930117
 21
17535.95583042195
 31
0.0
  0
LINE
  5
16335
  8
2-0
  6
CONTINUOUS
 62
     3
 10
24430.35359430117
 20
17535.95583042195
 30
0.0
 11
24400.35596930117
 21
17535.95583042195
 31
0.0
  0
LINE
  5
16336
  8
2-0
  6
CONTINUOUS
 62
     3
 10
24430.35359430117
 20
17541.957731421939
 30
0.0
 11
24430.35359430117
 21
17535.95583042195
 31
0.0
  0
LINE
  5
16337
  8
2-0
  6
CONTINUOUS
 62
     3
 10
24430.35359430117
 20
17525.866224421949
 30
0.0
 11
24400.35596930117
 21
17525.866224421949
 31
0.0
  0
LINE
  5
16338
  8
2-0
  6
CONTINUOUS
 62
     3
 10
24430.35359430117
 20
17543.86202742195
 30
0.0
 11
24430.35359430117
 21
17525.866224421949
 31
0.0
  0
LINE
  5
16339
  8
2-0
  6
CONTINUOUS
 62
     3
 10
24405.36019230117
 20
17543.86202742195
 30
0.0
 11
24430.35359430117
 21
17543.86202742195
 31
0.0
  0
LINE
  5
1633A
  8
2-0
  6
CONTINUOUS
 62
     3
 10
24405.36019230117
 20
17538.861764421948
 30
0.0
 11
24405.36019230117
 21
17543.86202742195
 31
0.0
  0
LINE
  5
1633B
  8
2-0
  6
CONTINUOUS
 62
     3
 10
24412.35779030115
 20
17538.861764421948
 30
0.0
 11
24405.36019230117
 21
17538.861764421948
 31
0.0
  0
LINE
  5
1633C
  8
2-0
  6
CONTINUOUS
 62
     3
 10
24403.242107301168
 20
16818.95265042195
 30
0.0
 11
24403.242107301168
 21
16838.953705421962
 31
0.0
  0
LINE
  5
1633D
  8
2-0
  6
CONTINUOUS
 62
     3
 10
24403.242107301168
 20
16838.953705421962
 30
0.0
 11
24488.242635301169
 21
16838.953705421962
 31
0.0
  0
LINE
  5
1633E
  8
2-0
  6
CONTINUOUS
 62
     3
 10
24412.35779030115
 20
16865.560415421962
 30
0.0
 11
24405.36019230117
 21
16865.560415421962
 31
0.0
  0
LINE
  5
1633F
  8
2-0
  6
CONTINUOUS
 62
     3
 10
24405.36019230117
 20
16865.560415421962
 30
0.0
 11
24405.36019230117
 21
16860.566089421962
 31
0.0
  0
LINE
  5
16340
  8
2-0
  6
CONTINUOUS
 62
     3
 10
24405.36019230117
 20
16860.566089421962
 30
0.0
 11
24430.35359430117
 21
16860.566089421962
 31
0.0
  0
LINE
  5
16341
  8
2-0
  6
CONTINUOUS
 62
     3
 10
24430.35359430117
 20
16860.566089421962
 30
0.0
 11
24430.35359430117
 21
16878.56189342196
 31
0.0
  0
LINE
  5
16342
  8
2-0
  6
CONTINUOUS
 62
     3
 10
24430.35359430117
 20
16878.56189342196
 30
0.0
 11
24400.35596930117
 21
16878.56189342196
 31
0.0
  0
LINE
  5
16343
  8
2-0
  6
CONTINUOUS
 62
     3
 10
24430.35359430117
 20
16868.953309421951
 30
0.0
 11
24430.35359430117
 21
16862.951409421948
 31
0.0
  0
LINE
  5
16344
  8
2-0
  6
CONTINUOUS
 62
     3
 10
24400.35596930117
 20
16868.953309421951
 30
0.0
 11
24430.35359430117
 21
16868.953309421951
 31
0.0
  0
LINE
  5
16345
  8
2-0
  6
CONTINUOUS
 62
     3
 10
24400.35596930117
 20
16878.56189342196
 30
0.0
 11
24400.35596930117
 21
17525.866224421949
 31
0.0
  0
LINE
  5
16346
  8
2-0
  6
CONTINUOUS
 62
     3
 10
24400.35596930117
 20
17583.056495421952
 30
0.0
 11
24400.35596930117
 21
18226.860285421961
 31
0.0
  0
LINE
  5
16347
  8
2-0
  6
CONTINUOUS
 62
     3
 10
24400.35596930117
 20
16723.95159442196
 30
0.0
 11
24430.35359430117
 21
16723.95159442196
 31
0.0
  0
LINE
  5
16348
  8
2-0
  6
CONTINUOUS
 62
     3
 10
24430.35359430117
 20
16723.95159442196
 30
0.0
 11
24430.35359430117
 21
16729.953494421949
 31
0.0
  0
LINE
  5
16349
  8
2-0
  6
CONTINUOUS
 62
     3
 10
24488.242635301169
 20
16753.957137421959
 30
0.0
 11
24403.242107301168
 21
16753.957137421959
 31
0.0
  0
LINE
  5
1634A
  8
2-0
  6
CONTINUOUS
 62
     3
 10
24403.242107301168
 20
16753.957137421959
 30
0.0
 11
24403.242107301168
 21
16773.952254421962
 31
0.0
  0
LINE
  5
1634B
  8
2-0
  6
CONTINUOUS
 62
     3
 10
24430.35359430117
 20
16714.34301142197
 30
0.0
 11
24400.35596930117
 21
16714.34301142197
 31
0.0
  0
LINE
  5
1634C
  8
2-0
  6
CONTINUOUS
 62
     3
 10
24430.35359430117
 20
16732.33881442195
 30
0.0
 11
24430.35359430117
 21
16714.34301142197
 31
0.0
  0
LINE
  5
1634D
  8
2-0
  6
CONTINUOUS
 62
     3
 10
24405.36019230117
 20
16732.33881442195
 30
0.0
 11
24430.35359430117
 21
16732.33881442195
 31
0.0
  0
LINE
  5
1634E
  8
2-0
  6
CONTINUOUS
 62
     3
 10
24405.36019230117
 20
16727.338550421959
 30
0.0
 11
24405.36019230117
 21
16732.33881442195
 31
0.0
  0
LINE
  5
1634F
  8
2-0
  6
CONTINUOUS
 62
     3
 10
24412.35779030115
 20
16727.338550421959
 30
0.0
 11
24405.36019230117
 21
16727.338550421959
 31
0.0
  0
LINE
  5
16350
  8
2-0
  6
CONTINUOUS
 62
     3
 10
24412.35779030115
 20
16022.856319921941
 30
0.0
 11
24405.36019230117
 21
16022.856319921941
 31
0.0
  0
LINE
  5
16351
  8
2-0
  6
CONTINUOUS
 62
     3
 10
24405.36019230117
 20
16022.856319921941
 30
0.0
 11
24405.36019230117
 21
16027.856583921939
 31
0.0
  0
LINE
  5
16352
  8
2-0
  6
CONTINUOUS
 62
     3
 10
24405.36019230117
 20
16027.856583921939
 30
0.0
 11
24430.35359430117
 21
16027.856583921939
 31
0.0
  0
LINE
  5
16353
  8
2-0
  6
CONTINUOUS
 62
     3
 10
24430.35359430117
 20
16027.856583921939
 30
0.0
 11
24430.35359430117
 21
16009.854841921941
 31
0.0
  0
LINE
  5
16354
  8
2-0
  6
CONTINUOUS
 62
     3
 10
24430.35359430117
 20
16009.854841921941
 30
0.0
 11
24400.35596930117
 21
16009.854841921941
 31
0.0
  0
LINE
  5
16355
  8
2-0
  6
CONTINUOUS
 62
     3
 10
24430.35359430117
 20
16025.952286921951
 30
0.0
 11
24430.35359430117
 21
16019.95533592195
 31
0.0
  0
LINE
  5
16356
  8
2-0
  6
CONTINUOUS
 62
     3
 10
24430.35359430117
 20
16019.95533592195
 30
0.0
 11
24400.35596930117
 21
16019.95533592195
 31
0.0
  0
LINE
  5
16357
  8
2-0
  6
CONTINUOUS
 62
     3
 10
24400.35596930117
 20
16019.95533592195
 30
0.0
 11
24400.35596930117
 21
16056.95550692196
 31
0.0
  0
LINE
  5
16358
  8
2-0
  6
CONTINUOUS
 62
     3
 10
24430.35359430117
 20
16056.95550692196
 30
0.0
 11
24400.35596930117
 21
16056.95550692196
 31
0.0
  0
LINE
  5
16359
  8
2-0
  6
CONTINUOUS
 62
     3
 10
24430.35359430117
 20
16050.95261692195
 30
0.0
 11
24430.35359430117
 21
16056.95550692196
 31
0.0
  0
LINE
  5
1635A
  8
2-0
  6
CONTINUOUS
 62
     3
 10
24430.35359430117
 20
16067.051051921961
 30
0.0
 11
24400.35596930117
 21
16067.051051921961
 31
0.0
  0
LINE
  5
1635B
  8
2-0
  6
CONTINUOUS
 62
     3
 10
24430.35359430117
 20
16049.043370921951
 30
0.0
 11
24430.35359430117
 21
16067.051051921961
 31
0.0
  0
LINE
  5
1635C
  8
2-0
  6
CONTINUOUS
 62
     3
 10
24405.36019230117
 20
16049.043370921951
 30
0.0
 11
24430.35359430117
 21
16049.043370921951
 31
0.0
  0
LINE
  5
1635D
  8
2-0
  6
CONTINUOUS
 62
     3
 10
24405.36019230117
 20
16054.04957392196
 30
0.0
 11
24405.36019230117
 21
16049.043370921951
 31
0.0
  0
LINE
  5
1635E
  8
2-0
  6
CONTINUOUS
 62
     3
 10
24412.35779030115
 20
16054.04957392196
 30
0.0
 11
24405.36019230117
 21
16054.04957392196
 31
0.0
  0
LINE
  5
1635F
  8
2-0
  6
CONTINUOUS
 62
     3
 10
24412.35779030115
 20
15353.289590421969
 30
0.0
 11
24405.36019230117
 21
15353.289590421969
 31
0.0
  0
LINE
  5
16360
  8
2-0
  6
CONTINUOUS
 62
     3
 10
24405.36019230117
 20
15353.289590421969
 30
0.0
 11
24405.36019230117
 21
15348.295265421961
 31
0.0
  0
LINE
  5
16361
  8
2-0
  6
CONTINUOUS
 62
     3
 10
24405.36019230117
 20
15348.295265421961
 30
0.0
 11
24430.35359430117
 21
15348.295265421961
 31
0.0
  0
LINE
  5
16362
  8
2-0
  6
CONTINUOUS
 62
     3
 10
24430.35359430117
 20
15348.295265421961
 30
0.0
 11
24430.35359430117
 21
15366.291068421961
 31
0.0
  0
LINE
  5
16363
  8
2-0
  6
CONTINUOUS
 62
     3
 10
24430.35359430117
 20
15366.291068421961
 30
0.0
 11
24400.35596930117
 21
15366.291068421961
 31
0.0
  0
LINE
  5
16364
  8
2-0
  6
CONTINUOUS
 62
     3
 10
24430.35359430117
 20
15350.193623421959
 30
0.0
 11
24430.35359430117
 21
15356.195523421969
 31
0.0
  0
LINE
  5
16365
  8
2-0
  6
CONTINUOUS
 62
     3
 10
24430.35359430117
 20
15356.195523421969
 30
0.0
 11
24400.35596930117
 21
15356.195523421969
 31
0.0
  0
LINE
  5
16366
  8
2-0
  6
CONTINUOUS
 62
     3
 10
24400.35596930117
 20
15319.19634242197
 30
0.0
 11
24400.35596930117
 21
15356.195523421969
 31
0.0
  0
LINE
  5
16367
  8
2-0
  6
CONTINUOUS
 62
     3
 10
24430.35359430117
 20
15319.19634242197
 30
0.0
 11
24400.35596930117
 21
15319.19634242197
 31
0.0
  0
LINE
  5
16368
  8
2-0
  6
CONTINUOUS
 62
     3
 10
24430.35359430117
 20
15325.193293421949
 30
0.0
 11
24430.35359430117
 21
15319.19634242197
 31
0.0
  0
LINE
  5
16369
  8
2-0
  6
CONTINUOUS
 62
     3
 10
24430.35359430117
 20
15309.09485842196
 30
0.0
 11
24400.35596930117
 21
15309.09485842196
 31
0.0
  0
LINE
  5
1636A
  8
2-0
  6
CONTINUOUS
 62
     3
 10
24430.35359430117
 20
15327.10253942196
 30
0.0
 11
24430.35359430117
 21
15309.09485842196
 31
0.0
  0
LINE
  5
1636B
  8
2-0
  6
CONTINUOUS
 62
     3
 10
24405.36019230117
 20
15327.10253942196
 30
0.0
 11
24430.35359430117
 21
15327.10253942196
 31
0.0
  0
LINE
  5
1636C
  8
2-0
  6
CONTINUOUS
 62
     3
 10
24405.36019230117
 20
15322.10227542197
 30
0.0
 11
24405.36019230117
 21
15327.10253942196
 31
0.0
  0
LINE
  5
1636D
  8
2-0
  6
CONTINUOUS
 62
     3
 10
24412.35779030115
 20
15322.10227542197
 30
0.0
 11
24405.36019230117
 21
15322.10227542197
 31
0.0
  0
LINE
  5
1636E
  8
2-0
  6
CONTINUOUS
 62
     3
 10
24400.35596930117
 20
16714.34301142197
 30
0.0
 11
24400.35596930117
 21
16067.051051921961
 31
0.0
  0
LINE
  5
1636F
  8
2-0
  6
CONTINUOUS
 62
     3
 10
24400.35596930117
 20
16868.953309421951
 30
0.0
 11
24400.35596930117
 21
16723.95159442196
 31
0.0
  0
LINE
  5
16370
  8
2-0
  6
CONTINUOUS
 62
     3
 10
24488.242635301169
 20
16838.953705421962
 30
0.0
 11
24488.242635301169
 21
16753.957137421959
 31
0.0
  0
LINE
  5
16371
  8
2-0
  6
CONTINUOUS
 62
     3
 10
24412.35779030115
 20
14620.861268421961
 30
0.0
 11
24405.36019230117
 21
14620.861268421961
 31
0.0
  0
LINE
  5
16372
  8
2-0
  6
CONTINUOUS
 62
     3
 10
24405.36019230117
 20
14620.861268421961
 30
0.0
 11
24405.36019230117
 21
14625.855594421961
 31
0.0
  0
LINE
  5
16373
  8
2-0
  6
CONTINUOUS
 62
     3
 10
24405.36019230117
 20
14625.855594421961
 30
0.0
 11
24430.35359430117
 21
14625.855594421961
 31
0.0
  0
LINE
  5
16374
  8
2-0
  6
CONTINUOUS
 62
     3
 10
24430.35359430117
 20
14625.855594421961
 30
0.0
 11
24430.35359430117
 21
14607.85979042196
 31
0.0
  0
LINE
  5
16375
  8
2-0
  6
CONTINUOUS
 62
     3
 10
24430.35359430117
 20
14607.85979042196
 30
0.0
 11
24400.35596930117
 21
14607.85979042196
 31
0.0
  0
LINE
  5
16376
  8
2-0
  6
CONTINUOUS
 62
     3
 10
24430.35359430117
 20
14623.958225421969
 30
0.0
 11
24430.35359430117
 21
14617.955335421961
 31
0.0
  0
LINE
  5
16377
  8
2-0
  6
CONTINUOUS
 62
     3
 10
24430.35359430117
 20
14617.955335421961
 30
0.0
 11
24400.35596930117
 21
14617.955335421961
 31
0.0
  0
LINE
  5
16378
  8
2-0
  6
CONTINUOUS
 62
     3
 10
24400.35596930117
 20
14617.955335421961
 30
0.0
 11
24400.35596930117
 21
14654.955507421941
 31
0.0
  0
LINE
  5
16379
  8
2-0
  6
CONTINUOUS
 62
     3
 10
24430.35359430117
 20
14654.955507421941
 30
0.0
 11
24400.35596930117
 21
14654.955507421941
 31
0.0
  0
LINE
  5
1637A
  8
2-0
  6
CONTINUOUS
 62
     3
 10
24430.35359430117
 20
14648.958555421959
 30
0.0
 11
24430.35359430117
 21
14654.955507421941
 31
0.0
  0
LINE
  5
1637B
  8
2-0
  6
CONTINUOUS
 62
     3
 10
24430.35359430117
 20
14665.056000421961
 30
0.0
 11
24400.35596930117
 21
14665.056000421961
 31
0.0
  0
LINE
  5
1637C
  8
2-0
  6
CONTINUOUS
 62
     3
 10
24430.35359430117
 20
14647.049309421969
 30
0.0
 11
24430.35359430117
 21
14665.056000421961
 31
0.0
  0
LINE
  5
1637D
  8
2-0
  6
CONTINUOUS
 62
     3
 10
24405.36019230117
 20
14647.049309421969
 30
0.0
 11
24430.35359430117
 21
14647.049309421969
 31
0.0
  0
LINE
  5
1637E
  8
2-0
  6
CONTINUOUS
 62
     3
 10
24405.36019230117
 20
14652.05452242197
 30
0.0
 11
24405.36019230117
 21
14647.049309421969
 31
0.0
  0
LINE
  5
1637F
  8
2-0
  6
CONTINUOUS
 62
     3
 10
24412.35779030115
 20
14652.05452242197
 30
0.0
 11
24405.36019230117
 21
14652.05452242197
 31
0.0
  0
LINE
  5
16380
  8
2-0
  6
CONTINUOUS
 62
     3
 10
24430.35359430117
 20
14295.457348421951
 30
0.0
 11
24430.35359430117
 21
14301.46221742196
 31
0.0
  0
LINE
  5
16381
  8
2-0
  6
CONTINUOUS
 62
     3
 10
24430.35359430117
 20
14301.46221742196
 30
0.0
 11
24400.35596930117
 21
14301.46221742196
 31
0.0
  0
LINE
  5
16382
  8
2-0
  6
CONTINUOUS
 62
     3
 10
24400.35596930117
 20
14301.46221742196
 30
0.0
 11
24400.35596930117
 21
14186.458126421951
 31
0.0
  0
LINE
  5
16383
  8
2-0
  6
CONTINUOUS
 62
     3
 10
24400.35596930117
 20
14186.458126421951
 30
0.0
 11
24485.354517301159
 21
14186.458126421951
 31
0.0
  0
LINE
  5
16384
  8
2-0
  6
CONTINUOUS
 62
     3
 10
24485.354517301159
 20
14186.458126421951
 30
0.0
 11
24485.354517301159
 21
14271.45370542196
 31
0.0
  0
LINE
  5
16385
  8
2-0
  6
CONTINUOUS
 62
     3
 10
24485.354517301159
 20
14271.45370542196
 30
0.0
 11
24453.357579301159
 21
14271.45370542196
 31
0.0
  0
LINE
  5
16386
  8
2-0
  6
CONTINUOUS
 62
     3
 10
24412.35779030115
 20
14298.491950421951
 30
0.0
 11
24405.36019230117
 21
14298.491950421951
 31
0.0
  0
LINE
  5
16387
  8
2-0
  6
CONTINUOUS
 62
     3
 10
24405.36019230117
 20
14298.491950421951
 30
0.0
 11
24405.36019230117
 21
14293.49465542194
 31
0.0
  0
LINE
  5
16388
  8
2-0
  6
CONTINUOUS
 62
     3
 10
24405.36019230117
 20
14293.49465542194
 30
0.0
 11
24430.35359430117
 21
14293.49465542194
 31
0.0
  0
LINE
  5
16389
  8
2-0
  6
CONTINUOUS
 62
     3
 10
24430.35359430117
 20
14293.49465542194
 30
0.0
 11
24430.35359430117
 21
14311.49342842196
 31
0.0
  0
LINE
  5
1638A
  8
2-0
  6
CONTINUOUS
 62
     3
 10
24430.35359430117
 20
14311.49342842196
 30
0.0
 11
24400.35596930117
 21
14311.49342842196
 31
0.0
  0
LINE
  5
1638B
  8
2-0
  6
CONTINUOUS
 62
     3
 10
24400.35596930117
 20
14665.056000421961
 30
0.0
 11
24400.35596930117
 21
15309.09485842196
 31
0.0
  0
LINE
  5
1638C
  8
2-0
  6
CONTINUOUS
 62
     3
 10
24400.35596930117
 20
18284.050557421961
 30
0.0
 11
24400.35596930117
 21
18927.861274921939
 31
0.0
  0
LINE
  5
1638D
  8
2-0
  6
CONTINUOUS
 62
     3
 10
24400.35596930117
 20
16009.854841921941
 30
0.0
 11
24400.35596930117
 21
15366.291068421961
 31
0.0
  0
LINE
  5
1638E
  8
2-0
  6
CONTINUOUS
 62
     3
 10
27403.350558301179
 20
19291.457533421981
 30
0.0
 11
27403.350558301179
 21
19406.45370642198
 31
0.0
  0
LINE
  5
1638F
  8
2-0
  6
CONTINUOUS
 62
     3
 10
24400.35596930117
 20
19321.457137421959
 30
0.0
 11
27322.348658301162
 21
19321.457137421959
 31
0.0
  0
LINE
  5
16390
  8
2-0
  6
CONTINUOUS
 62
     3
 10
24400.35596930117
 20
14311.49342842196
 30
0.0
 11
24400.35596930117
 21
14607.85979042196
 31
0.0
  0
LINE
  5
16391
  8
2-0
  6
CONTINUOUS
 62
     3
 10
27403.350558301179
 20
19281.160077421951
 30
0.0
 11
27403.350558301179
 21
18985.05154692195
 31
0.0
  0
LINE
  5
16392
  8
2-0
  6
CONTINUOUS
 62
     3
 10
24400.35596930117
 20
19281.160077421951
 30
0.0
 11
24400.35596930117
 21
18985.05154692191
 31
0.0
  0
LINE
  5
16393
  8
2-0
  6
CONTINUOUS
 62
     3
 10
24481.353910301179
 20
14271.45370542196
 30
0.0
 11
24481.353910301179
 21
19406.45370642198
 31
0.0
  0
LINE
  5
16394
  8
2-0
  6
CONTINUOUS
 62
     3
 10
27322.348658301162
 20
14271.45370542196
 30
0.0
 11
27322.348658301162
 21
19406.45370642198
 31
0.0
  0
TEXT
  5
16395
  8
2-0
  6
CONTINUOUS
 62
     7
 10
25757.69758130117
 20
13668.95654342196
 30
0.0
 40
160.0
  1
前柱（右）
 50
0.000213
 72
     4
 11
26173.697283894191
 21
13748.958089922749
 31
0.0
  0
TEXT
  5
16396
  8
2-0
  6
CONTINUOUS
 62
     7
 10
25962.29270430117
 20
16246.94855942198
 30
0.0
 40
160.0
  1
壁パネル
 50
359.99982299999999
 72
     4
 11
26324.959618104731
 21
16326.947439059841
 31
0.0
  0
TEXT
  5
16397
  8
2-0
  6
CONTINUOUS
 62
     7
 10
25682.28980030118
 20
17084.136455421969
 30
0.0
 40
160.0
  1
中柱（左右）
 50
0.000354
 72
     4
 11
26199.622639347392
 21
17164.13965174662
 31
0.0
  0
TEXT
  5
16398
  8
2-0
  6
CONTINUOUS
 62
     7
 10
26362.292044301161
 20
14641.99780942195
 30
0.0
 40
160.0
  1
下枠
 50
0.001063
 72
     4
 11
26532.95722671046
 21
14722.000975761241
 31
0.0
  0
TEXT
  5
16399
  8
2-0
  6
CONTINUOUS
 62
     7
 10
25857.257468301199
 20
18687.405193921939
 30
0.0
 40
160.0
  1
間柱（側）
 72
     4
 11
26278.590801634531
 21
18767.405193921939
 31
0.0
  0
TEXT
  5
1639A
  8
2-0
  6
CONTINUOUS
 62
     7
 10
28175.847787301162
 20
20216.45291442196
 30
0.0
 40
160.0
  1
後柱（左右）
 50
0.000354
 72
     4
 11
28687.847293014151
 21
20296.456077794792
 31
0.0
  0
LINE
  5
1639B
  8
2-0
  6
CONTINUOUS
 62
     3
 10
26621.352855301171
 20
19406.45370642198
 30
0.0
 11
26584.351693301182
 21
19406.45370642198
 31
0.0
  0
LINE
  5
1639C
  8
2-0
  6
CONTINUOUS
 62
     3
 10
26621.352855301171
 20
19376.45014342196
 30
0.0
 11
26621.352855301171
 21
19406.45370642198
 31
0.0
  0
LINE
  5
1639D
  8
2-0
  6
CONTINUOUS
 62
     3
 10
26615.352934301161
 20
19376.45014342196
 30
0.0
 11
26621.352855301171
 21
19376.45014342196
 31
0.0
  0
LINE
  5
1639E
  8
2-0
  6
CONTINUOUS
 62
     3
 10
26631.450379301179
 20
19376.45014342196
 30
0.0
 11
26631.450379301179
 21
19406.45370642198
 31
0.0
  0
LINE
  5
1639F
  8
2-0
  6
CONTINUOUS
 62
     3
 10
26613.446658301171
 20
19376.45014342196
 30
0.0
 11
26631.450379301179
 21
19376.45014342196
 31
0.0
  0
LINE
  5
163A0
  8
2-0
  6
CONTINUOUS
 62
     3
 10
26613.446658301171
 20
19401.459380421969
 30
0.0
 11
26613.446658301171
 21
19376.45014342196
 31
0.0
  0
LINE
  5
163A1
  8
2-0
  6
CONTINUOUS
 62
     3
 10
26618.446922301169
 20
19401.459380421969
 30
0.0
 11
26613.446658301171
 21
19401.459380421969
 31
0.0
  0
LINE
  5
163A2
  8
2-0
  6
CONTINUOUS
 62
     3
 10
26618.446922301169
 20
19394.453864421961
 30
0.0
 11
26618.446922301169
 21
19401.459380421969
 31
0.0
  0
LINE
  5
163A3
  8
2-0
  6
CONTINUOUS
 62
     3
 10
26587.257627301158
 20
19394.453864421961
 30
0.0
 11
26587.257627301158
 21
19401.459380421969
 31
0.0
  0
LINE
  5
163A4
  8
2-0
  6
CONTINUOUS
 62
     3
 10
26587.257627301158
 20
19401.459380421969
 30
0.0
 11
26592.257891301178
 21
19401.459380421969
 31
0.0
  0
LINE
  5
163A5
  8
2-0
  6
CONTINUOUS
 62
     3
 10
26592.257891301178
 20
19401.459380421969
 30
0.0
 11
26592.257891301178
 21
19376.45014342196
 31
0.0
  0
LINE
  5
163A6
  8
2-0
  6
CONTINUOUS
 62
     3
 10
26592.257891301178
 20
19376.45014342196
 30
0.0
 11
26574.258128301179
 21
19376.45014342196
 31
0.0
  0
LINE
  5
163A7
  8
2-0
  6
CONTINUOUS
 62
     3
 10
26574.258128301179
 20
19376.45014342196
 30
0.0
 11
26574.258128301179
 21
19406.45370642198
 31
0.0
  0
LINE
  5
163A8
  8
2-0
  6
CONTINUOUS
 62
     3
 10
26590.351614301169
 20
19376.45014342196
 30
0.0
 11
26584.351693301182
 21
19376.45014342196
 31
0.0
  0
LINE
  5
163A9
  8
2-0
  6
CONTINUOUS
 62
     3
 10
26584.351693301182
 20
19376.45014342196
 30
0.0
 11
26584.351693301182
 21
19406.45370642198
 31
0.0
  0
LINE
  5
163AA
  8
2-0
  6
CONTINUOUS
 62
     3
 10
25216.441972801171
 20
19394.453864421961
 30
0.0
 11
25216.441972801171
 21
19401.459380421969
 31
0.0
  0
LINE
  5
163AB
  8
2-0
  6
CONTINUOUS
 62
     3
 10
25216.441972801171
 20
19401.459380421969
 30
0.0
 11
25211.441708801169
 21
19401.459380421969
 31
0.0
  0
LINE
  5
163AC
  8
2-0
  6
CONTINUOUS
 62
     3
 10
25211.441708801169
 20
19401.459380421969
 30
0.0
 11
25211.441708801169
 21
19376.45014342196
 31
0.0
  0
LINE
  5
163AD
  8
2-0
  6
CONTINUOUS
 62
     3
 10
25211.441708801169
 20
19376.45014342196
 30
0.0
 11
25229.447409801181
 21
19376.45014342196
 31
0.0
  0
LINE
  5
163AE
  8
2-0
  6
CONTINUOUS
 62
     3
 10
25229.447409801181
 20
19376.45014342196
 30
0.0
 11
25229.447409801181
 21
19406.45370642198
 31
0.0
  0
LINE
  5
163AF
  8
2-0
  6
CONTINUOUS
 62
     3
 10
25213.349964801171
 20
19376.45014342196
 30
0.0
 11
25219.351864801181
 21
19376.45014342196
 31
0.0
  0
LINE
  5
163B0
  8
2-0
  6
CONTINUOUS
 62
     3
 10
25219.351864801181
 20
19376.45014342196
 30
0.0
 11
25219.351864801181
 21
19406.45370642198
 31
0.0
  0
LINE
  5
163B1
  8
2-0
  6
CONTINUOUS
 62
     3
 10
25182.352683801171
 20
19406.45370642198
 30
0.0
 11
25219.351864801181
 21
19406.45370642198
 31
0.0
  0
LINE
  5
163B2
  8
2-0
  6
CONTINUOUS
 62
     3
 10
25182.352683801171
 20
19376.45014342196
 30
0.0
 11
25182.352683801171
 21
19406.45370642198
 31
0.0
  0
LINE
  5
163B3
  8
2-0
  6
CONTINUOUS
 62
     3
 10
25188.346665801171
 20
19376.45014342196
 30
0.0
 11
25182.352683801171
 21
19376.45014342196
 31
0.0
  0
LINE
  5
163B4
  8
2-0
  6
CONTINUOUS
 62
     3
 10
25172.257138801178
 20
19376.45014342196
 30
0.0
 11
25172.257138801178
 21
19406.45370642198
 31
0.0
  0
LINE
  5
163B5
  8
2-0
  6
CONTINUOUS
 62
     3
 10
25190.252941801169
 20
19376.45014342196
 30
0.0
 11
25172.257138801178
 21
19376.45014342196
 31
0.0
  0
LINE
  5
163B6
  8
2-0
  6
CONTINUOUS
 62
     3
 10
25190.252941801169
 20
19401.459380421969
 30
0.0
 11
25190.252941801169
 21
19376.45014342196
 31
0.0
  0
LINE
  5
163B7
  8
2-0
  6
CONTINUOUS
 62
     3
 10
25185.252677801182
 20
19401.459380421969
 30
0.0
 11
25190.252941801169
 21
19401.459380421969
 31
0.0
  0
LINE
  5
163B8
  8
2-0
  6
CONTINUOUS
 62
     3
 10
25185.252677801182
 20
19394.453864421961
 30
0.0
 11
25185.252677801182
 21
19401.459380421969
 31
0.0
  0
LINE
  5
163B9
  8
2-0
  6
CONTINUOUS
 62
     3
 10
25886.251688801171
 20
19394.453864421961
 30
0.0
 11
25886.251688801171
 21
19401.459380421969
 31
0.0
  0
LINE
  5
163BA
  8
2-0
  6
CONTINUOUS
 62
     3
 10
25886.251688801171
 20
19401.459380421969
 30
0.0
 11
25891.251951801169
 21
19401.459380421969
 31
0.0
  0
LINE
  5
163BB
  8
2-0
  6
CONTINUOUS
 62
     3
 10
25891.251951801169
 20
19401.459380421969
 30
0.0
 11
25891.251951801169
 21
19376.45014342196
 31
0.0
  0
LINE
  5
163BC
  8
2-0
  6
CONTINUOUS
 62
     3
 10
25891.251951801169
 20
19376.45014342196
 30
0.0
 11
25873.258128801172
 21
19376.45014342196
 31
0.0
  0
LINE
  5
163BD
  8
2-0
  6
CONTINUOUS
 62
     3
 10
25873.258128801172
 20
19376.45014342196
 30
0.0
 11
25873.258128801172
 21
19406.45370642198
 31
0.0
  0
LINE
  5
163BE
  8
2-0
  6
CONTINUOUS
 62
     3
 10
25889.34963480115
 20
19376.45014342196
 30
0.0
 11
25883.351693801182
 21
19376.45014342196
 31
0.0
  0
LINE
  5
163BF
  8
2-0
  6
CONTINUOUS
 62
     3
 10
25883.351693801182
 20
19376.45014342196
 30
0.0
 11
25883.351693801182
 21
19406.45370642198
 31
0.0
  0
LINE
  5
163C0
  8
2-0
  6
CONTINUOUS
 62
     3
 10
25920.352854801171
 20
19406.45370642198
 30
0.0
 11
25883.351693801182
 21
19406.45370642198
 31
0.0
  0
LINE
  5
163C1
  8
2-0
  6
CONTINUOUS
 62
     3
 10
25920.352854801171
 20
19376.45014342196
 30
0.0
 11
25920.352854801171
 21
19406.45370642198
 31
0.0
  0
LINE
  5
163C2
  8
2-0
  6
CONTINUOUS
 62
     3
 10
25914.346995801181
 20
19376.45014342196
 30
0.0
 11
25920.352854801171
 21
19376.45014342196
 31
0.0
  0
LINE
  5
163C3
  8
2-0
  6
CONTINUOUS
 62
     3
 10
25930.446419801181
 20
19376.45014342196
 30
0.0
 11
25930.446419801181
 21
19406.45370642198
 31
0.0
  0
LINE
  5
163C4
  8
2-0
  6
CONTINUOUS
 62
     3
 10
25912.450616801169
 20
19376.45014342196
 30
0.0
 11
25930.446419801181
 21
19376.45014342196
 31
0.0
  0
LINE
  5
163C5
  8
2-0
  6
CONTINUOUS
 62
     3
 10
25912.450616801169
 20
19401.459380421969
 30
0.0
 11
25912.450616801169
 21
19376.45014342196
 31
0.0
  0
LINE
  5
163C6
  8
2-0
  6
CONTINUOUS
 62
     3
 10
25917.44098280117
 20
19401.459380421969
 30
0.0
 11
25912.450616801169
 21
19401.459380421969
 31
0.0
  0
LINE
  5
163C7
  8
2-0
  6
CONTINUOUS
 62
     3
 10
25917.44098280117
 20
19394.453864421961
 30
0.0
 11
25917.44098280117
 21
19401.459380421969
 31
0.0
  0
LINE
  5
163C8
  8
2-0
  6
CONTINUOUS
 62
     3
 10
25229.447409801181
 20
19406.45370642198
 30
0.0
 11
25873.258128801172
 21
19406.45370642198
 31
0.0
  0
LINE
  5
163C9
  8
2-0
  6
CONTINUOUS
 62
     3
 10
24525.65751630118
 20
19406.45370642198
 30
0.0
 11
25172.257138801178
 21
19406.45370642198
 31
0.0
  0
LINE
  5
163CA
  8
2-0
  6
CONTINUOUS
 62
     3
 10
27278.735904301178
 20
19406.45370642198
 30
0.0
 11
26631.450379301179
 21
19406.45370642198
 31
0.0
  0
LINE
  5
163CB
  8
2-0
  6
CONTINUOUS
 62
     3
 10
26574.258128301179
 20
19406.45370642198
 30
0.0
 11
25930.446419801181
 21
19406.45370642198
 31
0.0
  0
LINE
  5
163CC
  8
2-0
  6
CONTINUOUS
 62
     3
 10
27403.350558301179
 20
15309.09485842196
 30
0.0
 11
27403.350558301179
 21
14665.056000421961
 31
0.0
  0
LINE
  5
163CD
  8
2-0
  6
CONTINUOUS
 62
     3
 10
27403.350558301179
 20
14607.85979042196
 30
0.0
 11
27403.350558301179
 21
14311.49342842196
 31
0.0
  0
LINE
  5
163CE
  8
0-6
  6
CONTINUOUS
 62
     6
 10
24443.676532801172
 20
18695.135478421958
 30
0.0
 11
25468.716782801181
 21
18695.135478421958
 31
0.0
  0
LINE
  5
163CF
  8
0-6
  6
CONTINUOUS
 62
     6
 10
25768.641560801181
 20
19252.488730421981
 30
0.0
 11
25873.257138801178
 21
19376.45014342196
 31
0.0
  0
LINE
  5
163D0
  8
0-6
  6
CONTINUOUS
 62
     6
 10
25873.257138801178
 20
19376.45014342196
 30
0.0
 11
25814.499088801171
 21
19225.258473421971
 31
0.0
  0
LINE
  5
163D1
  8
0-6
  6
CONTINUOUS
 62
     6
 10
25873.257138801178
 20
19376.45014342196
 30
0.0
 11
25768.641560801181
 21
19252.488730421981
 31
0.0
  0
LINE
  5
163D2
  8
0-6
  6
CONTINUOUS
 62
     6
 10
25768.641560801181
 20
19252.488730421981
 30
0.0
 11
25814.499088801171
 21
19225.258473421971
 31
0.0
  0
LINE
  5
163D3
  8
0-6
  6
CONTINUOUS
 62
     6
 10
25814.499088801171
 20
19225.258473421971
 30
0.0
 11
25873.257138801178
 21
19376.45014342196
 31
0.0
  0
LINE
  5
163D4
  8
0-6
  6
CONTINUOUS
 62
     6
 10
25814.499088801171
 20
19225.258473421971
 30
0.0
 11
25768.641560801181
 21
19252.488730421981
 31
0.0
  0
LINE
  5
163D5
  8
0-6
  6
CONTINUOUS
 62
     6
 10
25791.570324801181
 20
19238.875581421969
 30
0.0
 11
25468.716782801181
 21
18695.135478421958
 31
0.0
  0
TEXT
  5
163D6
  8
0-6
  6
CONTINUOUS
 62
     7
 10
24523.676796801181
 20
18775.137722421961
 30
0.0
 40
160.0
  1
間柱（後）
 72
     4
 11
24945.010130134509
 21
18855.137722421961
 31
0.0
  0
LINE
  5
163D7
  8
SUNPOU
  6
CONTINUOUS
 62
     4
 10
24442.852274301182
 20
19486.45370642198
 30
0.0
 11
24442.852274301182
 21
20216.456609421981
 31
0.0
  0
LINE
  5
163D8
  8
SUNPOU
  6
CONTINUOUS
 62
     4
 10
25200.852274301182
 20
19486.45370642198
 30
0.0
 11
25200.852274301182
 21
20216.456609421981
 31
0.0
  0
LINE
  5
163D9
  8
SUNPOU
  6
CONTINUOUS
 62
     4
 10
24442.852274301182
 20
20136.456609421981
 30
0.0
 11
25200.852274301182
 21
20136.456609421981
 31
0.0
  0
LINE
  5
163DA
  8
SUNPOU
  6
CONTINUOUS
 62
     4
 10
27483.350558301179
 20
14636.575677171961
 30
0.0
 11
28533.351878301179
 21
14636.575677171961
 31
0.0
  0
LINE
  5
163DB
  8
SUNPOU
  6
CONTINUOUS
 62
     4
 10
28333.35187830119
 20
14229.075677171961
 30
0.0
 11
28533.351878301179
 21
14229.075677171961
 31
0.0
  0
LINE
  5
163DC
  8
SUNPOU
  6
CONTINUOUS
 62
     4
 10
28453.351878301179
 20
14636.575677171961
 30
0.0
 11
28453.351878301179
 21
14229.075677171961
 31
0.0
  0
LINE
  5
163DD
  8
SUNPOU
  6
CONTINUOUS
 62
     4
 10
27483.350558301179
 20
18956.45542142195
 30
0.0
 11
28533.351878301179
 21
18956.45542142195
 31
0.0
  0
LINE
  5
163DE
  8
SUNPOU
  6
CONTINUOUS
 62
     4
 10
28333.35187830119
 20
19363.95542142195
 30
0.0
 11
28533.351878301179
 21
19363.95542142195
 31
0.0
  0
LINE
  5
163DF
  8
SUNPOU
  6
CONTINUOUS
 62
     4
 10
28453.351878301179
 20
18956.45542142195
 30
0.0
 11
28453.351878301179
 21
19363.95542142195
 31
0.0
  0
LINE
  5
163E0
  8
SUNPOU
  6
CONTINUOUS
 62
     4
 10
24442.852274301182
 20
13523.191987421949
 30
0.0
 11
24442.852274301182
 21
13177.507337421959
 31
0.0
  0
LINE
  5
163E1
  8
SUNPOU
  6
CONTINUOUS
 62
     4
 10
24400.350031301179
 20
14106.458126421951
 30
0.0
 11
24400.350031301179
 21
13177.507337421959
 31
0.0
  0
LINE
  5
163E2
  8
SUNPOU
  6
CONTINUOUS
 62
     4
 10
24442.852274301182
 20
13257.507337421959
 30
0.0
 11
24682.852274301182
 21
13257.507337421959
 31
0.0
  0
LINE
  5
163E3
  8
SUNPOU
  6
CONTINUOUS
 62
     4
 10
24400.350031301179
 20
13257.507337421959
 30
0.0
 11
24160.350031301179
 21
13257.507337421959
 31
0.0
  0
LINE
  5
163E4
  8
SUNPOU
  6
CONTINUOUS
 62
     4
 10
24442.852274301182
 20
13257.507337421959
 30
0.0
 11
24400.350031301179
 21
13257.507337421959
 31
0.0
  0
LINE
  5
163E5
  8
SUNPOU
  6
CONTINUOUS
 62
     4
 10
27360.852274301182
 20
13523.191987421949
 30
0.0
 11
27360.852274301182
 21
13177.507337421959
 31
0.0
  0
LINE
  5
163E6
  8
SUNPOU
  6
CONTINUOUS
 62
     4
 10
27403.35451730117
 20
14106.458126421951
 30
0.0
 11
27403.35451730117
 21
13177.507337421959
 31
0.0
  0
LINE
  5
163E7
  8
SUNPOU
  6
CONTINUOUS
 62
     4
 10
27360.852274301182
 20
13257.507337421959
 30
0.0
 11
27120.852274301182
 21
13257.507337421959
 31
0.0
  0
LINE
  5
163E8
  8
SUNPOU
  6
CONTINUOUS
 62
     4
 10
27403.35451730117
 20
13257.507337421959
 30
0.0
 11
27643.35451730117
 21
13257.507337421959
 31
0.0
  0
LINE
  5
163E9
  8
SUNPOU
  6
CONTINUOUS
 62
     4
 10
27360.852274301182
 20
13257.507337421959
 30
0.0
 11
27403.35451730117
 21
13257.507337421959
 31
0.0
  0
LINE
  5
163EA
  8
SUNPOU
  6
CONTINUOUS
 62
     4
 10
27360.852274301182
 20
13523.191987421949
 30
0.0
 11
27360.852274301182
 21
13177.507337421959
 31
0.0
  0
LINE
  5
163EB
  8
SUNPOU
  6
CONTINUOUS
 62
     4
 10
27318.350031301168
 20
14106.458126421951
 30
0.0
 11
27318.350031301168
 21
13177.507337421959
 31
0.0
  0
LINE
  5
163EC
  8
SUNPOU
  6
CONTINUOUS
 62
     4
 10
27360.852274301182
 20
13257.507337421959
 30
0.0
 11
27600.852274301182
 21
13257.507337421959
 31
0.0
  0
LINE
  5
163ED
  8
SUNPOU
  6
CONTINUOUS
 62
     4
 10
27318.350031301168
 20
13257.507337421959
 30
0.0
 11
27078.350031301168
 21
13257.507337421959
 31
0.0
  0
LINE
  5
163EE
  8
SUNPOU
  6
CONTINUOUS
 62
     4
 10
27360.852274301182
 20
13257.507337421959
 30
0.0
 11
27318.350031301168
 21
13257.507337421959
 31
0.0
  0
LINE
  5
163EF
  8
SUNPOU
  6
CONTINUOUS
 62
     4
 10
24442.852274301182
 20
13523.191987421949
 30
0.0
 11
24442.852274301182
 21
13177.507337421959
 31
0.0
  0
LINE
  5
163F0
  8
SUNPOU
  6
CONTINUOUS
 62
     4
 10
24485.354517301159
 20
14106.458126421951
 30
0.0
 11
24485.354517301159
 21
13177.507337421959
 31
0.0
  0
LINE
  5
163F1
  8
SUNPOU
  6
CONTINUOUS
 62
     4
 10
24442.852274301182
 20
13257.507337421959
 30
0.0
 11
24202.85227430116
 21
13257.507337421959
 31
0.0
  0
LINE
  5
163F2
  8
SUNPOU
  6
CONTINUOUS
 62
     4
 10
24485.354517301159
 20
13257.507337421959
 30
0.0
 11
24725.354517301181
 21
13257.507337421959
 31
0.0
  0
LINE
  5
163F3
  8
SUNPOU
  6
CONTINUOUS
 62
     4
 10
24442.852274301182
 20
13257.507337421959
 30
0.0
 11
24485.354517301159
 21
13257.507337421959
 31
0.0
  0
LINE
  5
163F4
  8
SUNPOU
  6
CONTINUOUS
 62
     4
 10
24400.350031301179
 20
14106.458126421951
 30
0.0
 11
24400.350031301179
 21
12777.507337421959
 31
0.0
  0
LINE
  5
163F5
  8
SUNPOU
  6
CONTINUOUS
 62
     4
 10
27403.35451730117
 20
14106.458126421951
 30
0.0
 11
27403.35451730117
 21
12777.507337421959
 31
0.0
  0
LINE
  5
163F6
  8
SUNPOU
  6
CONTINUOUS
 62
     4
 10
24400.350031301179
 20
12857.507337421959
 30
0.0
 11
27403.35451730117
 21
12857.507337421959
 31
0.0
  0
LINE
  5
163F7
  8
SUNPOU
  6
CONTINUOUS
 62
     4
 10
27483.350558301179
 20
15337.695932921981
 30
0.0
 11
28533.351878301179
 21
15337.695932921981
 31
0.0
  0
LINE
  5
163F8
  8
SUNPOU
  6
CONTINUOUS
 62
     4
 10
27483.350558301179
 20
14636.45542142195
 30
0.0
 11
28533.351878301179
 21
14636.45542142195
 31
0.0
  0
LINE
  5
163F9
  8
SUNPOU
  6
CONTINUOUS
 62
     4
 10
28453.351878301179
 20
15337.695932921981
 30
0.0
 11
28453.351878301179
 21
14636.45542142195
 31
0.0
  0
LINE
  5
163FA
  8
SUNPOU
  6
CONTINUOUS
 62
     4
 10
27483.350558301179
 20
16038.455421421961
 30
0.0
 11
28533.351878301179
 21
16038.455421421961
 31
0.0
  0
LINE
  5
163FB
  8
SUNPOU
  6
CONTINUOUS
 62
     4
 10
27483.350558301179
 20
15337.695932921981
 30
0.0
 11
28533.351878301179
 21
15337.695932921981
 31
0.0
  0
LINE
  5
163FC
  8
SUNPOU
  6
CONTINUOUS
 62
     4
 10
28453.351878301179
 20
16038.455421421961
 30
0.0
 11
28453.351878301179
 21
15337.695932921981
 31
0.0
  0
LINE
  5
163FD
  8
SUNPOU
  6
CONTINUOUS
 62
     4
 10
28333.35187830119
 20
16796.45542142195
 30
0.0
 11
28533.351878301179
 21
16796.45542142195
 31
0.0
  0
LINE
  5
163FE
  8
SUNPOU
  6
CONTINUOUS
 62
     4
 10
27483.350558301179
 20
16038.455421421961
 30
0.0
 11
28533.351878301179
 21
16038.455421421961
 31
0.0
  0
LINE
  5
163FF
  8
SUNPOU
  6
CONTINUOUS
 62
     4
 10
28453.351878301179
 20
16796.45542142195
 30
0.0
 11
28453.351878301179
 21
16038.455421421961
 31
0.0
  0
LINE
  5
16400
  8
SUNPOU
  6
CONTINUOUS
 62
     4
 10
27483.350558301179
 20
17554.455421421939
 30
0.0
 11
28533.351878301179
 21
17554.455421421939
 31
0.0
  0
LINE
  5
16401
  8
SUNPOU
  6
CONTINUOUS
 62
     4
 10
28333.35187830119
 20
16796.45542142195
 30
0.0
 11
28533.351878301179
 21
16796.45542142195
 31
0.0
  0
LINE
  5
16402
  8
SUNPOU
  6
CONTINUOUS
 62
     4
 10
28453.351878301179
 20
17554.455421421939
 30
0.0
 11
28453.351878301179
 21
16796.45542142195
 31
0.0
  0
LINE
  5
16403
  8
SUNPOU
  6
CONTINUOUS
 62
     4
 10
27483.350558301179
 20
18255.455421421939
 30
0.0
 11
28533.351878301179
 21
18255.455421421939
 31
0.0
  0
LINE
  5
16404
  8
SUNPOU
  6
CONTINUOUS
 62
     4
 10
27483.350558301179
 20
17554.455421421939
 30
0.0
 11
28533.351878301179
 21
17554.455421421939
 31
0.0
  0
LINE
  5
16405
  8
SUNPOU
  6
CONTINUOUS
 62
     4
 10
28453.351878301179
 20
18255.455421421939
 30
0.0
 11
28453.351878301179
 21
17554.455421421939
 31
0.0
  0
LINE
  5
16406
  8
SUNPOU
  6
CONTINUOUS
 62
     4
 10
27483.350558301179
 20
18956.45542142195
 30
0.0
 11
28533.351878301179
 21
18956.45542142195
 31
0.0
  0
LINE
  5
16407
  8
SUNPOU
  6
CONTINUOUS
 62
     4
 10
27483.350558301179
 20
18255.455421421939
 30
0.0
 11
28533.351878301179
 21
18255.455421421939
 31
0.0
  0
LINE
  5
16408
  8
SUNPOU
  6
CONTINUOUS
 62
     4
 10
28453.351878301179
 20
18956.45542142195
 30
0.0
 11
28453.351878301179
 21
18255.455421421939
 31
0.0
  0
LINE
  5
16409
  8
SUNPOU
  6
CONTINUOUS
 62
     4
 10
28333.35187830119
 20
19363.95542142195
 30
0.0
 11
28533.351878301179
 21
19363.95542142195
 31
0.0
  0
LINE
  5
1640A
  8
SUNPOU
  6
CONTINUOUS
 62
     4
 10
28333.35187830119
 20
14228.955421421961
 30
0.0
 11
28533.351878301179
 21
14228.955421421961
 31
0.0
  0
LINE
  5
1640B
  8
SUNPOU
  6
CONTINUOUS
 62
     4
 10
27483.350558301179
 20
19406.452716421951
 30
0.0
 11
28933.35187830119
 21
19406.45271642194
 31
0.0
  0
LINE
  5
1640C
  8
SUNPOU
  6
CONTINUOUS
 62
     4
 10
27483.350558301179
 20
14186.458126421951
 30
0.0
 11
28933.35187830119
 21
14186.458126421951
 31
0.0
  0
LINE
  5
1640D
  8
SUNPOU
  6
CONTINUOUS
 62
     4
 10
28853.351878301179
 20
19406.452716421951
 30
0.0
 11
28853.351878301179
 21
14186.458126421951
 31
0.0
  0
LINE
  5
1640E
  8
SUNPOU
  6
CONTINUOUS
 62
     4
 10
28333.35187830119
 20
19363.95542142195
 30
0.0
 11
28533.351878301179
 21
19363.95542142195
 31
0.0
  0
LINE
  5
1640F
  8
SUNPOU
  6
CONTINUOUS
 62
     4
 10
27483.350558301179
 20
19406.452716421951
 30
0.0
 11
28533.351878301179
 21
19406.452716421951
 31
0.0
  0
LINE
  5
16410
  8
SUNPOU
  6
CONTINUOUS
 62
     4
 10
28453.351878301179
 20
19363.95542142195
 30
0.0
 11
28453.351878301179
 21
19123.95542142195
 31
0.0
  0
LINE
  5
16411
  8
SUNPOU
  6
CONTINUOUS
 62
     4
 10
28453.351878301179
 20
19406.452716421951
 30
0.0
 11
28453.351878301179
 21
19646.452716421962
 31
0.0
  0
LINE
  5
16412
  8
SUNPOU
  6
CONTINUOUS
 62
     4
 10
28453.351878301179
 20
19363.95542142195
 30
0.0
 11
28453.351878301179
 21
19406.452716421951
 31
0.0
  0
LINE
  5
16413
  8
SUNPOU
  6
CONTINUOUS
 62
     4
 10
28333.35187830119
 20
14228.955421421961
 30
0.0
 11
28533.351878301179
 21
14228.955421421961
 31
0.0
  0
LINE
  5
16414
  8
SUNPOU
  6
CONTINUOUS
 62
     4
 10
27483.350558301179
 20
14186.458126421951
 30
0.0
 11
28533.351878301179
 21
14186.458126421951
 31
0.0
  0
LINE
  5
16415
  8
SUNPOU
  6
CONTINUOUS
 62
     4
 10
28453.351878301179
 20
14228.955421421961
 30
0.0
 11
28453.351878301179
 21
14468.955421421961
 31
0.0
  0
LINE
  5
16416
  8
SUNPOU
  6
CONTINUOUS
 62
     4
 10
28453.351878301179
 20
14186.458126421951
 30
0.0
 11
28453.351878301179
 21
13946.458126421951
 31
0.0
  0
LINE
  5
16417
  8
SUNPOU
  6
CONTINUOUS
 62
     4
 10
28453.351878301179
 20
14228.955421421961
 30
0.0
 11
28453.351878301179
 21
14186.458126421951
 31
0.0
  0
LINE
  5
16418
  8
SUNPOU
  6
CONTINUOUS
 62
     4
 10
26602.852274301171
 20
19486.45370642198
 30
0.0
 11
26602.852274301171
 21
20216.456609421981
 31
0.0
  0
LINE
  5
16419
  8
SUNPOU
  6
CONTINUOUS
 62
     4
 10
27360.853263801189
 20
19486.45370642198
 30
0.0
 11
27360.853263801189
 21
20216.456609421981
 31
0.0
  0
LINE
  5
1641A
  8
SUNPOU
  6
CONTINUOUS
 62
     4
 10
26602.852274301171
 20
20136.456609421981
 30
0.0
 11
27360.853263801189
 21
20136.456609421981
 31
0.0
  0
LINE
  5
1641B
  8
SUNPOU
  6
CONTINUOUS
 62
     4
 10
25901.852274301171
 20
19486.45370642198
 30
0.0
 11
25901.852274301171
 21
20216.456609421981
 31
0.0
  0
LINE
  5
1641C
  8
SUNPOU
  6
CONTINUOUS
 62
     4
 10
26602.852274301171
 20
19486.45370642198
 30
0.0
 11
26602.852274301171
 21
20216.456609421981
 31
0.0
  0
LINE
  5
1641D
  8
SUNPOU
  6
CONTINUOUS
 62
     4
 10
25901.852274301171
 20
20136.456609421981
 30
0.0
 11
26602.852274301171
 21
20136.456609421981
 31
0.0
  0
LINE
  5
1641E
  8
SUNPOU
  6
CONTINUOUS
 62
     4
 10
25200.852274301182
 20
19486.45370642198
 30
0.0
 11
25200.852274301182
 21
20216.456609421981
 31
0.0
  0
LINE
  5
1641F
  8
SUNPOU
  6
CONTINUOUS
 62
     4
 10
25901.852274301171
 20
19486.45370642198
 30
0.0
 11
25901.852274301171
 21
20216.456609421981
 31
0.0
  0
LINE
  5
16420
  8
SUNPOU
  6
CONTINUOUS
 62
     4
 10
25200.852274301182
 20
20136.456609421981
 30
0.0
 11
25901.852274301171
 21
20136.456609421981
 31
0.0
  0
LINE
  5
16421
  8
SUNPOU
  6
CONTINUOUS
 62
     4
 10
27360.852274301182
 20
19486.45370642198
 30
0.0
 11
27360.852274301182
 21
20216.456609421981
 31
0.0
  0
LINE
  5
16422
  8
SUNPOU
  6
CONTINUOUS
 62
     4
 10
27403.34857930116
 20
19486.45370642198
 30
0.0
 11
27403.34857930116
 21
20216.456609421981
 31
0.0
  0
LINE
  5
16423
  8
SUNPOU
  6
CONTINUOUS
 62
     4
 10
27360.852274301182
 20
20136.456609421981
 30
0.0
 11
27120.852274301182
 21
20136.456609421981
 31
0.0
  0
LINE
  5
16424
  8
SUNPOU
  6
CONTINUOUS
 62
     4
 10
27403.34857930116
 20
20136.456609421981
 30
0.0
 11
27643.348579301171
 21
20136.456609421981
 31
0.0
  0
LINE
  5
16425
  8
SUNPOU
  6
CONTINUOUS
 62
     4
 10
27360.852274301182
 20
20136.456609421981
 30
0.0
 11
27403.34857930116
 21
20136.456609421981
 31
0.0
  0
LINE
  5
16426
  8
SUNPOU
  6
CONTINUOUS
 62
     4
 10
24442.852274301182
 20
19486.45370642198
 30
0.0
 11
24442.852274301182
 21
20216.456609421981
 31
0.0
  0
LINE
  5
16427
  8
SUNPOU
  6
CONTINUOUS
 62
     4
 10
24400.35596930117
 20
19486.45370642198
 30
0.0
 11
24400.35596930117
 21
20216.456609421981
 31
0.0
  0
LINE
  5
16428
  8
SUNPOU
  6
CONTINUOUS
 62
     4
 10
24442.852274301182
 20
20136.456609421981
 30
0.0
 11
24682.852274301182
 21
20136.456609421981
 31
0.0
  0
LINE
  5
16429
  8
SUNPOU
  6
CONTINUOUS
 62
     4
 10
24400.35596930117
 20
20136.456609421981
 30
0.0
 11
24160.355969301181
 21
20136.456609421981
 31
0.0
  0
LINE
  5
1642A
  8
SUNPOU
  6
CONTINUOUS
 62
     4
 10
24442.852274301182
 20
20136.456609421981
 30
0.0
 11
24400.35596930117
 21
20136.456609421981
 31
0.0
  0
TEXT
  5
1642B
  8
0
  6
CONTINUOUS
 62
     7
 10
23840.040294772371
 20
20216.456609421981
 30
0.0
 40
160.0
  1
42.5
  0
TEXT
  5
1642C
  8
0
  6
CONTINUOUS
 62
     7
 10
27483.66425382996
 20
20216.456609421981
 30
0.0
 40
160.0
  1
42.5
  0
TEXT
  5
1642D
  8
0
  6
CONTINUOUS
 62
     7
 10
25378.01894096785
 20
20216.456609421981
 30
0.0
 40
160.0
  1
701
  0
TEXT
  5
1642E
  8
0
  6
CONTINUOUS
 62
     7
 10
26079.01894096785
 20
20216.456609421981
 30
0.0
 40
160.0
  1
701
  0
TEXT
  5
1642F
  8
0
  6
CONTINUOUS
 62
     7
 10
26768.519435717852
 20
20216.456609421981
 30
0.0
 40
160.0
  1
758
  0
TEXT
  5
16430
  8
0
  6
CONTINUOUS
 62
     7
 10
28373.351878301179
 20
13612.901890025159
 30
0.0
 40
160.0
  1
42.5
 50
90.0
  0
TEXT
  5
16431
  8
0
  6
CONTINUOUS
 62
     7
 10
28373.351878301179
 20
19500.008952818742
 30
0.0
 40
160.0
  1
42.5
 50
90.0
  0
TEXT
  5
16432
  8
0
  6
CONTINUOUS
 62
     7
 10
28773.351878301179
 20
16516.455421421961
 30
0.0
 40
160.0
  1
5220
 50
90.0
  0
TEXT
  5
16433
  8
0
  6
CONTINUOUS
 62
     7
 10
28373.351878301171
 20
18432.622088088629
 30
0.0
 40
160.0
  1
701
 50
90.0
  0
TEXT
  5
16434
  8
0
  6
CONTINUOUS
 62
     7
 10
28373.351878301171
 20
17731.622088088629
 30
0.0
 40
160.0
  1
701
 50
90.0
  0
TEXT
  5
16435
  8
0
  6
CONTINUOUS
 62
     7
 10
28373.351878301171
 20
16962.122088088629
 30
0.0
 40
160.0
  1
758
 50
90.0
  0
TEXT
  5
16436
  8
0
  6
CONTINUOUS
 62
     7
 10
28373.351878301171
 20
16204.12208808863
 30
0.0
 40
160.0
  1
758
 50
90.0
  0
TEXT
  5
16437
  8
0
  6
CONTINUOUS
 62
     7
 10
28373.351878301171
 20
15514.74234383863
 30
0.0
 40
160.0
  1
701
 50
90.0
  0
TEXT
  5
16438
  8
0
  6
CONTINUOUS
 62
     7
 10
28373.351878301171
 20
14813.74234383863
 30
0.0
 40
160.0
  1
701
 50
90.0
  0
TEXT
  5
16439
  8
0
  6
CONTINUOUS
 62
     7
 10
25635.18560763451
 20
12937.507337421959
 30
0.0
 40
160.0
  1
3003
  0
TEXT
  5
1643A
  8
0
  6
CONTINUOUS
 62
     7
 10
24560.905946683259
 20
13337.507337421959
 30
0.0
 40
160.0
  1
42.5
  0
TEXT
  5
1643B
  8
0
  6
CONTINUOUS
 62
     7
 10
26762.798601919079
 20
13337.507337421959
 30
0.0
 40
160.0
  1
42.5
  0
TEXT
  5
1643C
  8
0
  6
CONTINUOUS
 62
     7
 10
27478.905946683251
 20
13337.507337421959
 30
0.0
 40
160.0
  1
42.5
  0
TEXT
  5
1643D
  8
0
  6
CONTINUOUS
 62
     7
 10
23844.79860191909
 20
13337.507337421959
 30
0.0
 40
160.0
  1
42.5
  0
TEXT
  5
1643E
  8
0
  6
CONTINUOUS
 62
     7
 10
28733.351878301171
 20
18665.83338906517
 30
0.0
 40
160.0
  1
407.5
 50
90.0
  0
TEXT
  5
1643F
  8
0
  6
CONTINUOUS
 62
     7
 10
28733.351878301171
 20
14301.896091375511
 30
0.0
 40
160.0
  1
407.5
 50
90.0
  0
TEXT
  5
16440
  8
0
  6
CONTINUOUS
 62
     7
 10
24608.51894096785
 20
20216.456609421981
 30
0.0
 40
160.0
  1
758
  0
ARC
  5
16441
  8
0
  6
BYBLOCK
 62
     0
 10
24442.852274301182
 20
20136.456609421981
 30
0.0
 40
15.0
 50
0.0
 51
180.0
  0
ARC
  5
16442
  8
0
  6
BYBLOCK
 62
     0
 10
24442.852274301182
 20
20136.456609421981
 30
0.0
 40
15.0
 50
180.0
 51
0.0
  0
ARC
  5
16443
  8
0
  6
BYBLOCK
 62
     0
 10
25200.852274301182
 20
20136.456609421981
 30
0.0
 40
15.0
 50
180.0
 51
0.0
  0
ARC
  5
16444
  8
0
  6
BYBLOCK
 62
     0
 10
25200.852274301182
 20
20136.456609421981
 30
0.0
 40
15.0
 50
0.0
 51
180.0
  0
ARC
  5
16445
  8
0
  6
BYBLOCK
 62
     0
 10
28453.351878301179
 20
14636.575677171961
 30
0.0
 40
15.0
 50
270.0
 51
90.0
  0
ARC
  5
16446
  8
0
  6
BYBLOCK
 62
     0
 10
28453.351878301179
 20
14636.575677171961
 30
0.0
 40
15.0
 50
90.0
 51
270.0
  0
ARC
  5
16447
  8
0
  6
BYBLOCK
 62
     0
 10
28453.351878301179
 20
14229.075677171961
 30
0.0
 40
15.0
 50
90.0
 51
270.0
  0
ARC
  5
16448
  8
0
  6
BYBLOCK
 62
     0
 10
28453.351878301179
 20
14229.075677171961
 30
0.0
 40
15.0
 50
270.0
 51
90.0
  0
ARC
  5
16449
  8
0
  6
BYBLOCK
 62
     0
 10
28453.351878301179
 20
18956.45542142195
 30
0.0
 40
15.0
 50
90.0
 51
270.0
  0
ARC
  5
1644A
  8
0
  6
BYBLOCK
 62
     0
 10
28453.351878301179
 20
18956.45542142195
 30
0.0
 40
15.0
 50
270.0
 51
90.0
  0
ARC
  5
1644B
  8
0
  6
BYBLOCK
 62
     0
 10
28453.351878301179
 20
19363.95542142195
 30
0.0
 40
15.0
 50
270.0
 51
90.0
  0
ARC
  5
1644C
  8
0
  6
BYBLOCK
 62
     0
 10
28453.351878301179
 20
19363.95542142195
 30
0.0
 40
15.0
 50
90.0
 51
270.0
  0
ARC
  5
1644D
  8
0
  6
BYBLOCK
 62
     0
 10
24442.852274301182
 20
13257.507337421959
 30
0.0
 40
15.0
 50
0.0
 51
180.0
  0
ARC
  5
1644E
  8
0
  6
BYBLOCK
 62
     0
 10
24442.852274301182
 20
13257.507337421959
 30
0.0
 40
15.0
 50
180.0
 51
0.0
  0
ARC
  5
1644F
  8
0
  6
BYBLOCK
 62
     0
 10
24400.350031301179
 20
13257.507337421959
 30
0.0
 40
15.0
 50
180.0
 51
0.0
  0
ARC
  5
16450
  8
0
  6
BYBLOCK
 62
     0
 10
24400.350031301179
 20
13257.507337421959
 30
0.0
 40
15.0
 50
0.0
 51
180.0
  0
ARC
  5
16451
  8
0
  6
BYBLOCK
 62
     0
 10
27360.852274301182
 20
13257.507337421959
 30
0.0
 40
15.0
 50
180.0
 51
0.0
  0
ARC
  5
16452
  8
0
  6
BYBLOCK
 62
     0
 10
27360.852274301182
 20
13257.507337421959
 30
0.0
 40
15.0
 50
0.0
 51
180.0
  0
ARC
  5
16453
  8
0
  6
BYBLOCK
 62
     0
 10
27403.35451730117
 20
13257.507337421959
 30
0.0
 40
15.0
 50
0.0
 51
180.0
  0
ARC
  5
16454
  8
0
  6
BYBLOCK
 62
     0
 10
27403.35451730117
 20
13257.507337421959
 30
0.0
 40
15.0
 50
180.0
 51
0.0
  0
ARC
  5
16455
  8
0
  6
BYBLOCK
 62
     0
 10
27360.852274301182
 20
13257.507337421959
 30
0.0
 40
15.0
 50
0.0
 51
180.0
  0
ARC
  5
16456
  8
0
  6
BYBLOCK
 62
     0
 10
27360.852274301182
 20
13257.507337421959
 30
0.0
 40
15.0
 50
180.0
 51
0.0
  0
ARC
  5
16457
  8
0
  6
BYBLOCK
 62
     0
 10
27318.350031301168
 20
13257.507337421959
 30
0.0
 40
15.0
 50
180.0
 51
0.0
  0
ARC
  5
16458
  8
0
  6
BYBLOCK
 62
     0
 10
27318.350031301168
 20
13257.507337421959
 30
0.0
 40
15.0
 50
0.0
 51
180.0
  0
ARC
  5
16459
  8
0
  6
BYBLOCK
 62
     0
 10
24442.852274301182
 20
13257.507337421959
 30
0.0
 40
15.0
 50
180.0
 51
0.0
  0
ARC
  5
1645A
  8
0
  6
BYBLOCK
 62
     0
 10
24442.852274301182
 20
13257.507337421959
 30
0.0
 40
15.0
 50
0.0
 51
180.0
  0
ARC
  5
1645B
  8
0
  6
BYBLOCK
 62
     0
 10
24485.354517301159
 20
13257.507337421959
 30
0.0
 40
15.0
 50
0.0
 51
180.0
  0
ARC
  5
1645C
  8
0
  6
BYBLOCK
 62
     0
 10
24485.354517301159
 20
13257.507337421959
 30
0.0
 40
15.0
 50
180.0
 51
0.0
  0
ARC
  5
1645D
  8
0
  6
BYBLOCK
 62
     0
 10
24400.350031301179
 20
12857.507337421959
 30
0.0
 40
15.0
 50
0.0
 51
180.0
  0
ARC
  5
1645E
  8
0
  6
BYBLOCK
 62
     0
 10
24400.350031301179
 20
12857.507337421959
 30
0.0
 40
15.0
 50
180.0
 51
0.0
  0
ARC
  5
1645F
  8
0
  6
BYBLOCK
 62
     0
 10
27403.35451730117
 20
12857.507337421959
 30
0.0
 40
15.0
 50
180.0
 51
0.0
  0
ARC
  5
16460
  8
0
  6
BYBLOCK
 62
     0
 10
27403.35451730117
 20
12857.507337421959
 30
0.0
 40
15.0
 50
0.0
 51
180.0
  0
ARC
  5
16461
  8
0
  6
BYBLOCK
 62
     0
 10
28453.351878301179
 20
15337.695932921981
 30
0.0
 40
15.0
 50
270.0
 51
90.0
  0
ARC
  5
16462
  8
0
  6
BYBLOCK
 62
     0
 10
28453.351878301179
 20
15337.695932921981
 30
0.0
 40
15.0
 50
90.0
 51
270.0
  0
ARC
  5
16463
  8
0
  6
BYBLOCK
 62
     0
 10
28453.351878301179
 20
14636.45542142195
 30
0.0
 40
15.0
 50
90.0
 51
270.0
  0
ARC
  5
16464
  8
0
  6
BYBLOCK
 62
     0
 10
28453.351878301179
 20
14636.45542142195
 30
0.0
 40
15.0
 50
270.0
 51
90.0
  0
ARC
  5
16465
  8
0
  6
BYBLOCK
 62
     0
 10
28453.351878301179
 20
16038.455421421961
 30
0.0
 40
15.0
 50
270.0
 51
90.0
  0
ARC
  5
16466
  8
0
  6
BYBLOCK
 62
     0
 10
28453.351878301179
 20
16038.455421421961
 30
0.0
 40
15.0
 50
90.0
 51
270.0
  0
ARC
  5
16467
  8
0
  6
BYBLOCK
 62
     0
 10
28453.351878301179
 20
15337.695932921981
 30
0.0
 40
15.0
 50
90.0
 51
270.0
  0
ARC
  5
16468
  8
0
  6
BYBLOCK
 62
     0
 10
28453.351878301179
 20
15337.695932921981
 30
0.0
 40
15.0
 50
270.0
 51
90.0
  0
ARC
  5
16469
  8
0
  6
BYBLOCK
 62
     0
 10
28453.351878301179
 20
16796.45542142195
 30
0.0
 40
15.0
 50
270.0
 51
90.0
  0
ARC
  5
1646A
  8
0
  6
BYBLOCK
 62
     0
 10
28453.351878301179
 20
16796.45542142195
 30
0.0
 40
15.0
 50
90.0
 51
270.0
  0
ARC
  5
1646B
  8
0
  6
BYBLOCK
 62
     0
 10
28453.351878301179
 20
16038.455421421961
 30
0.0
 40
15.0
 50
90.0
 51
270.0
  0
ARC
  5
1646C
  8
0
  6
BYBLOCK
 62
     0
 10
28453.351878301179
 20
16038.455421421961
 30
0.0
 40
15.0
 50
270.0
 51
90.0
  0
ARC
  5
1646D
  8
0
  6
BYBLOCK
 62
     0
 10
28453.351878301179
 20
17554.455421421939
 30
0.0
 40
15.0
 50
270.0
 51
90.0
  0
ARC
  5
1646E
  8
0
  6
BYBLOCK
 62
     0
 10
28453.351878301179
 20
17554.455421421939
 30
0.0
 40
15.0
 50
90.0
 51
270.0
  0
ARC
  5
1646F
  8
0
  6
BYBLOCK
 62
     0
 10
28453.351878301179
 20
16796.45542142195
 30
0.0
 40
15.0
 50
90.0
 51
270.0
  0
ARC
  5
16470
  8
0
  6
BYBLOCK
 62
     0
 10
28453.351878301179
 20
16796.45542142195
 30
0.0
 40
15.0
 50
270.0
 51
90.0
  0
ARC
  5
16471
  8
0
  6
BYBLOCK
 62
     0
 10
28453.351878301179
 20
18255.455421421939
 30
0.0
 40
15.0
 50
270.0
 51
90.0
  0
ARC
  5
16472
  8
0
  6
BYBLOCK
 62
     0
 10
28453.351878301179
 20
18255.455421421939
 30
0.0
 40
15.0
 50
90.0
 51
270.0
  0
ARC
  5
16473
  8
0
  6
BYBLOCK
 62
     0
 10
28453.351878301179
 20
17554.455421421939
 30
0.0
 40
15.0
 50
90.0
 51
270.0
  0
ARC
  5
16474
  8
0
  6
BYBLOCK
 62
     0
 10
28453.351878301179
 20
17554.455421421939
 30
0.0
 40
15.0
 50
270.0
 51
90.0
  0
ARC
  5
16475
  8
0
  6
BYBLOCK
 62
     0
 10
28453.351878301179
 20
18956.45542142195
 30
0.0
 40
15.0
 50
270.0
 51
90.0
  0
ARC
  5
16476
  8
0
  6
BYBLOCK
 62
     0
 10
28453.351878301179
 20
18956.45542142195
 30
0.0
 40
15.0
 50
90.0
 51
270.0
  0
ARC
  5
16477
  8
0
  6
BYBLOCK
 62
     0
 10
28453.351878301179
 20
18255.455421421939
 30
0.0
 40
15.0
 50
90.0
 51
270.0
  0
ARC
  5
16478
  8
0
  6
BYBLOCK
 62
     0
 10
28453.351878301179
 20
18255.455421421939
 30
0.0
 40
15.0
 50
270.0
 51
90.0
  0
ARC
  5
16479
  8
0
  6
BYBLOCK
 62
     0
 10
28453.351878301179
 20
19363.95542142195
 30
0.0
 40
15.0
 50
270.0
 51
90.0
  0
ARC
  5
1647A
  8
0
  6
BYBLOCK
 62
     0
 10
28453.351878301179
 20
19363.95542142195
 30
0.0
 40
15.0
 50
90.0
 51
270.0
  0
ARC
  5
1647B
  8
0
  6
BYBLOCK
 62
     0
 10
28453.351878301179
 20
14228.955421421961
 30
0.0
 40
15.0
 50
90.0
 51
270.0
  0
ARC
  5
1647C
  8
0
  6
BYBLOCK
 62
     0
 10
28453.351878301179
 20
14228.955421421961
 30
0.0
 40
15.0
 50
270.0
 51
90.0
  0
ARC
  5
1647D
  8
0
  6
BYBLOCK
 62
     0
 10
28853.351878301179
 20
19406.452716421951
 30
0.0
 40
15.0
 50
270.0
 51
90.0
  0
ARC
  5
1647E
  8
0
  6
BYBLOCK
 62
     0
 10
28853.351878301179
 20
19406.452716421951
 30
0.0
 40
15.0
 50
90.0
 51
270.0
  0
ARC
  5
1647F
  8
0
  6
BYBLOCK
 62
     0
 10
28853.351878301179
 20
14186.458126421951
 30
0.0
 40
15.0
 50
90.0
 51
270.0
  0
ARC
  5
16480
  8
0
  6
BYBLOCK
 62
     0
 10
28853.351878301179
 20
14186.458126421951
 30
0.0
 40
15.0
 50
270.0
 51
90.0
  0
ARC
  5
16481
  8
0
  6
BYBLOCK
 62
     0
 10
28453.351878301179
 20
19363.95542142195
 30
0.0
 40
15.0
 50
270.0
 51
90.0
  0
ARC
  5
16482
  8
0
  6
BYBLOCK
 62
     0
 10
28453.351878301179
 20
19363.95542142195
 30
0.0
 40
15.0
 50
90.0
 51
270.0
  0
ARC
  5
16483
  8
0
  6
BYBLOCK
 62
     0
 10
28453.351878301179
 20
19406.452716421951
 30
0.0
 40
15.0
 50
90.0
 51
270.0
  0
ARC
  5
16484
  8
0
  6
BYBLOCK
 62
     0
 10
28453.351878301179
 20
19406.452716421951
 30
0.0
 40
15.0
 50
270.0
 51
90.0
  0
ARC
  5
16485
  8
0
  6
BYBLOCK
 62
     0
 10
28453.351878301179
 20
14228.955421421961
 30
0.0
 40
15.0
 50
90.0
 51
270.0
  0
ARC
  5
16486
  8
0
  6
BYBLOCK
 62
     0
 10
28453.351878301179
 20
14228.955421421961
 30
0.0
 40
15.0
 50
270.0
 51
90.0
  0
ARC
  5
16487
  8
0
  6
BYBLOCK
 62
     0
 10
28453.351878301179
 20
14186.458126421951
 30
0.0
 40
15.0
 50
270.0
 51
90.0
  0
ARC
  5
16488
  8
0
  6
BYBLOCK
 62
     0
 10
28453.351878301179
 20
14186.458126421951
 30
0.0
 40
15.0
 50
90.0
 51
270.0
  0
ARC
  5
16489
  8
0
  6
BYBLOCK
 62
     0
 10
26602.852274301171
 20
20136.456609421981
 30
0.0
 40
15.0
 50
0.0
 51
180.0
  0
ARC
  5
1648A
  8
0
  6
BYBLOCK
 62
     0
 10
26602.852274301171
 20
20136.456609421981
 30
0.0
 40
15.0
 50
180.0
 51
0.0
  0
ARC
  5
1648B
  8
0
  6
BYBLOCK
 62
     0
 10
27360.853263801189
 20
20136.456609421981
 30
0.0
 40
15.0
 50
180.0
 51
0.0
  0
ARC
  5
1648C
  8
0
  6
BYBLOCK
 62
     0
 10
27360.853263801189
 20
20136.456609421981
 30
0.0
 40
15.0
 50
0.0
 51
180.0
  0
ARC
  5
1648D
  8
0
  6
BYBLOCK
 62
     0
 10
25901.852274301171
 20
20136.456609421981
 30
0.0
 40
15.0
 50
0.0
 51
180.0
  0
ARC
  5
1648E
  8
0
  6
BYBLOCK
 62
     0
 10
25901.852274301171
 20
20136.456609421981
 30
0.0
 40
15.0
 50
180.0
 51
0.0
  0
ARC
  5
1648F
  8
0
  6
BYBLOCK
 62
     0
 10
26602.852274301171
 20
20136.456609421981
 30
0.0
 40
15.0
 50
180.0
 51
0.0
  0
ARC
  5
16490
  8
0
  6
BYBLOCK
 62
     0
 10
26602.852274301171
 20
20136.456609421981
 30
0.0
 40
15.0
 50
0.0
 51
180.0
  0
ARC
  5
16491
  8
0
  6
BYBLOCK
 62
     0
 10
25200.852274301182
 20
20136.456609421981
 30
0.0
 40
15.0
 50
0.0
 51
180.0
  0
ARC
  5
16492
  8
0
  6
BYBLOCK
 62
     0
 10
25200.852274301182
 20
20136.456609421981
 30
0.0
 40
15.0
 50
180.0
 51
0.0
  0
ARC
  5
16493
  8
0
  6
BYBLOCK
 62
     0
 10
25901.852274301171
 20
20136.456609421981
 30
0.0
 40
15.0
 50
180.0
 51
0.0
  0
ARC
  5
16494
  8
0
  6
BYBLOCK
 62
     0
 10
25901.852274301171
 20
20136.456609421981
 30
0.0
 40
15.0
 50
0.0
 51
180.0
  0
ARC
  5
16495
  8
0
  6
BYBLOCK
 62
     0
 10
27360.852274301182
 20
20136.456609421981
 30
0.0
 40
15.0
 50
180.0
 51
0.0
  0
ARC
  5
16496
  8
0
  6
BYBLOCK
 62
     0
 10
27360.852274301182
 20
20136.456609421981
 30
0.0
 40
15.0
 50
0.0
 51
180.0
  0
ARC
  5
16497
  8
0
  6
BYBLOCK
 62
     0
 10
27403.34857930116
 20
20136.456609421981
 30
0.0
 40
15.0
 50
0.0
 51
180.0
  0
ARC
  5
16498
  8
0
  6
BYBLOCK
 62
     0
 10
27403.34857930116
 20
20136.456609421981
 30
0.0
 40
15.0
 50
180.0
 51
0.0
  0
ARC
  5
16499
  8
0
  6
BYBLOCK
 62
     0
 10
24442.852274301182
 20
20136.456609421981
 30
0.0
 40
15.0
 50
0.0
 51
180.0
  0
ARC
  5
1649A
  8
0
  6
BYBLOCK
 62
     0
 10
24442.852274301182
 20
20136.456609421981
 30
0.0
 40
15.0
 50
180.0
 51
0.0
  0
ARC
  5
1649B
  8
0
  6
BYBLOCK
 62
     0
 10
24400.35596930117
 20
20136.456609421981
 30
0.0
 40
15.0
 50
180.0
 51
0.0
  0
ARC
  5
1649C
  8
0
  6
BYBLOCK
 62
     0
 10
24400.35596930117
 20
20136.456609421981
 30
0.0
 40
15.0
 50
0.0
 51
180.0
  0
LINE
  5
1649D
  8
2-0
  6
CENTER2
 62
     6
 10
24442.852274301189
 20
13603.191987421949
 30
0.0
 11
24442.852274301189
 21
14031.03577781266
 31
0.0
  0
TEXT
  5
16560
  8
FILENAME
  6
CONTINUOUS
 10
26518.285714285721
 20
348.0
 30
0.0
 40
200.0
  1
＜VGC-3052+VKC-5052-L-1-A_0.DXF ＞
  7
FILENAME
 72
     2
 11
32764.0
 21
348.0
 31
0.0
  0
LINE
  5
16565
  8
WAKUSEN-01
 10
868.00000000000193
 20
827.99999999999955
 30
0.0
 11
32764.000000000011
 21
827.99999999999943
 31
0.0
  0
LINE
  5
16566
  8
WAKUSEN-01
 10
868.00000000000193
 20
827.99999999999955
 30
0.0
 11
868.00000000000193
 21
22484.000000000011
 31
0.0
  0
LINE
  5
16567
  8
WAKUSEN-01
 10
32764.000000000011
 20
827.99999999999943
 30
0.0
 11
32764.000000000011
 21
22484.000000000011
 31
0.0
  0
LINE
  5
16568
  8
WAKUSEN-01
 10
20560.0
 20
827.99999999999716
 30
0.0
 11
20560.0
 21
2484.0
 31
0.0
  0
LINE
  5
16569
  8
WAKUSEN-02
 10
26868.0
 20
827.99999999999261
 30
0.0
 11
26868.0
 21
2484.0
 31
0.0
  0
ENDSEC
  0
EOF
