  0
SECTION
  2
HEADER
  9
$ACADVER
  1
AC1009
  9
$INSBASE
 10
0.0
 20
0.0
 30
0.0
  9
$EXTMIN
 10
867.99324330406671
 20
327.38164749855792
 30
-0.0000000000112498
  9
$EXTMAX
 10
32765.33210850941
 20
22484.553276491992
 30
0.0000000000002956
  9
$LIMMIN
 10
0.0
 20
0.0
  9
$LIMMAX
 10
33600.0
 20
23760.0
  9
$ORTHOMODE
 70
     1
  9
$REGENMODE
 70
     1
  9
$FILLMODE
 70
     1
  9
$QTEXTMODE
 70
     0
  9
$MIRRTEXT
 70
     0
  9
$DRAGMODE
 70
     2
  9
$LTSCALE
 40
80.0
  9
$OSMODE
 70
  3071
  9
$ATTMODE
 70
     1
  9
$TEXTSIZE
 40
0.2
  9
$TRACEWID
 40
0.05
  9
$TEXTSTYLE
  7
00
  9
$CLAYER
  8
0
  9
$CELTYPE
  6
BYLAYER
  9
$CECOLOR
 62
   256
  9
$DIMSCALE
 40
80.0
  9
$DIMASZ
 40
3.0
  9
$DIMEXO
 40
1.0
  9
$DIMDLI
 40
0.38
  9
$DIMRND
 40
0.5
  9
$DIMDLE
 40
0.0
  9
$DIMEXE
 40
1.0
  9
$DIMTP
 40
0.0
  9
$DIMTM
 40
0.0
  9
$DIMTXT
 40
2.0
  9
$DIMCEN
 40
0.09
  9
$DIMTSZ
 40
0.0
  9
$DIMTOL
 70
     0
  9
$DIMLIM
 70
     0
  9
$DIMTIH
 70
     0
  9
$DIMTOH
 70
     0
  9
$DIMSE1
 70
     0
  9
$DIMSE2
 70
     0
  9
$DIMTAD
 70
     1
  9
$DIMZIN
 70
     8
  9
$DIMBLK
  1
DOTSMALL
  9
$DIMASO
 70
     1
  9
$DIMSHO
 70
     1
  9
$DIMPOST
  1

  9
$DIMAPOST
  1

  9
$DIMALT
 70
     0
  9
$DIMALTD
 70
     2
  9
$DIMALTF
 40
25.399999999999999
  9
$DIMLFAC
 40
1.0
  9
$DIMTOFL
 70
     1
  9
$DIMTVP
 40
0.0
  9
$DIMTIX
 70
     0
  9
$DIMSOXD
 70
     0
  9
$DIMSAH
 70
     0
  9
$DIMBLK1
  1

  9
$DIMBLK2
  1

  9
$DIMSTYLE
  2
SUNPOU
  9
$DIMCLRD
 70
     4
  9
$DIMCLRE
 70
     4
  9
$DIMCLRT
 70
     7
  9
$DIMTFAC
 40
1.0
  9
$DIMGAP
 40
1.0
  9
$LUNITS
 70
     2
  9
$LUPREC
 70
     4
  9
$SKETCHINC
 40
0.1
  9
$FILLETRAD
 40
0.0
  9
$AUNITS
 70
     0
  9
$AUPREC
 70
     0
  9
$MENU
  1
acad
  9
$ELEVATION
 40
0.0
  9
$PELEVATION
 40
0.0
  9
$THICKNESS
 40
0.0
  9
$LIMCHECK
 70
     0
  9
$BLIPMODE
 70
     1
  9
$CHAMFERA
 40
0.0
  9
$CHAMFERB
 40
0.0
  9
$SKPOLY
 70
     0
  9
$TDCREATE
 40
2311940.075052408
  9
$TDUPDATE
 40
2458942.4538071989
  9
$TDINDWG
 40
0.3598210648
  9
$TDUSRTIMER
 40
0.3598205787
  9
$USRTIMER
 70
     1
  9
$ANGBASE
 50
0.0
  9
$ANGDIR
 70
     0
  9
$PDMODE
 70
     0
  9
$PDSIZE
 40
0.0
  9
$PLINEWID
 40
0.0
  9
$COORDS
 70
     1
  9
$SPLFRAME
 70
     0
  9
$SPLINETYPE
 70
     6
  9
$SPLINESEGS
 70
     8
  9
$ATTDIA
 70
     1
  9
$ATTREQ
 70
     1
  9
$HANDLING
 70
     1
  9
$HANDSEED
  5
12FB6
  9
$SURFTAB1
 70
     6
  9
$SURFTAB2
 70
     6
  9
$SURFTYPE
 70
     6
  9
$SURFU
 70
     6
  9
$SURFV
 70
     6
  9
$UCSNAME
  2

  9
$UCSORG
 10
0.0
 20
0.0
 30
0.0
  9
$UCSXDIR
 10
1.0
 20
0.0
 30
0.0
  9
$UCSYDIR
 10
0.0
 20
1.0
 30
0.0
  9
$PUCSNAME
  2

  9
$PUCSORG
 10
0.0
 20
0.0
 30
0.0
  9
$PUCSXDIR
 10
1.0
 20
0.0
 30
0.0
  9
$PUCSYDIR
 10
0.0
 20
1.0
 30
0.0
  9
$USERI1
 70
     0
  9
$USERI2
 70
     0
  9
$USERI3
 70
     0
  9
$USERI4
 70
     0
  9
$USERI5
 70
     0
  9
$USERR1
 40
0.0
  9
$USERR2
 40
0.0
  9
$USERR3
 40
0.0
  9
$USERR4
 40
0.0
  9
$USERR5
 40
0.0
  9
$WORLDVIEW
 70
     1
  9
$SHADEDGE
 70
     3
  9
$SHADEDIF
 70
    70
  9
$TILEMODE
 70
     1
  9
$MAXACTVP
 70
    16
  9
$PLIMCHECK
 70
     0
  9
$PEXTMIN
 10
1.0000000000000000E+020
 20
1.0000000000000000E+020
 30
1.0000000000000000E+020
  9
$PEXTMAX
 10
-1.0000000000000000E+020
 20
-1.0000000000000000E+020
 30
-1.0000000000000000E+020
  9
$PLIMMIN
 10
0.0
 20
0.0
  9
$PLIMMAX
 10
12.0
 20
9.0
  9
$UNITMODE
 70
     0
  9
$VISRETAIN
 70
     0
  9
$PLINEGEN
 70
     1
  9
$PSLTSCALE
 70
     0
  0
ENDSEC
  0
SECTION
  2
TABLES
  0
TABLE
  2
VPORT
 70
     1
  0
VPORT
  2
*ACTIVE
 70
     0
 10
0.0
 20
0.0
 11
1.0
 21
1.0
 12
16800.0
 22
11880.0
 13
0.0
 23
0.0
 14
1.0
 24
1.0
 15
0.0
 25
0.0
 16
0.0
 26
0.0
 36
1.0
 17
0.0
 27
0.0
 37
0.0
 40
23981.023255813951
 41
2.195652173913043
 42
50.0
 43
0.0
 44
0.0
 50
0.0
 51
0.0
 71
     0
 72
 10000
 73
     1
 74
     1
 75
     0
 76
     0
 77
     0
 78
     0
  0
ENDTAB
  0
TABLE
  2
LTYPE
 70
     6
  0
LTYPE
  2
CONTINUOUS
 70
     0
  3
Solid line
 72
    65
 73
     0
 40
0.0
  0
LTYPE
  2
DASHED3
 70
     0
  3
------  ------  ------  ------  
 72
    65
 73
     2
 40
5.0
 49
3.75
 49
-1.25
  0
LTYPE
  2
CENTER2
 70
     0
  3
----------  --  ----------  --  
 72
    65
 73
     4
 40
20.0
 49
12.5
 49
-2.5
 49
2.5
 49
-2.5
  0
LTYPE
  2
HIDE-M
 70
     0
  3

 72
    65
 73
     2
 40
2.0
 49
1.0
 49
-1.0
  0
LTYPE
  2
1PL-M
 70
     0
  3

 72
    65
 73
     4
 40
15.0
 49
12.0
 49
-1.0
 49
1.0
 49
-1.0
  0
LTYPE
  2
PHANTOM2
 70
     0
  3
___ _ _ ___ _ _ ___ _ _ ___ _ _
 72
    65
 73
     6
 40
1.25
 49
0.625
 49
-0.125
 49
0.125
 49
-0.125
 49
0.125
 49
-0.125
  0
ENDTAB
  0
TABLE
  2
LAYER
 70
    24
  0
LAYER
  2
0
 70
     0
 62
     7
  6
CONTINUOUS
  0
LAYER
  2
SUNPOU
 70
     0
 62
     4
  6
CONTINUOUS
  0
LAYER
  2
0-1
 70
     0
 62
     7
  6
CONTINUOUS
  0
LAYER
  2
0-2
 70
     0
 62
     7
  6
CONTINUOUS
  0
LAYER
  2
0-5
 70
     0
 62
     7
  6
CONTINUOUS
  0
LAYER
  2
0-6
 70
     0
 62
     7
  6
CONTINUOUS
  0
LAYER
  2
2-0
 70
     0
 62
     7
  6
CONTINUOUS
  0
LAYER
  2
0-8
 70
     0
 62
     7
  6
CONTINUOUS
  0
LAYER
  2
YODOROGO
 70
     0
 62
   130
  6
CONTINUOUS
  0
LAYER
  2
WAKUSEN-01
 70
     0
 62
    50
  6
CONTINUOUS
  0
LAYER
  2
WAKUSEN-02
 70
     0
 62
   130
  6
CONTINUOUS
  0
LAYER
  2
WAKUMOJI-01
 70
     0
 62
   130
  6
CONTINUOUS
  0
LAYER
  2
FILENAME
 70
     0
 62
     7
  6
CONTINUOUS
  0
LAYER
  2
NAME
 70
     0
 62
    20
  6
CONTINUOUS
  0
LAYER
  2
0-4
 70
     0
 62
     7
  6
CONTINUOUS
  0
LAYER
  2
1-前柱P
 70
     0
 62
     3
  6
CONTINUOUS
  0
LAYER
  2
1-前柱カバ-P
 70
     0
 62
     3
  6
CONTINUOUS
  0
LAYER
  2
1-桁前P28
 70
     0
 62
     3
  6
CONTINUOUS
  0
LAYER
  2
1-後柱P
 70
     0
 62
     3
  6
CONTINUOUS
  0
LAYER
  2
1-中柱P
 70
     0
 62
     3
  6
CONTINUOUS
  0
LAYER
  2
1-後柱カバ-P
 70
     0
 62
     7
  6
CONTINUOUS
  0
LAYER
  2
1-中柱カバ-P
 70
     0
 62
     7
  6
CONTINUOUS
  0
ENDTAB
  0
TABLE
  2
STYLE
 70
     5
  0
STYLE
  2
STANDARD
 70
     0
 40
0.0
 41
1.0
 50
0.0
 71
     0
 42
0.0
  3
txt
  4
BIGFONT
  0
STYLE
  2
00
 70
     0
 40
0.0
 41
0.6666666666666666
 50
0.0
 71
     0
 42
0.2
  3
ROMANS
  4
BIGFONT
  0
STYLE
  2
01
 70
     0
 40
3.0
 41
1.0
 50
0.0
 71
     0
 42
0.2
  3
ROMANS
  4
BIGFONT
  0
STYLE
  2
WAKUMOJI
 70
     0
 40
3.0
 41
1.0
 50
0.0
 71
     0
 42
3.0
  3
SIMPLEX
  4
BIGFONT
  0
STYLE
  2
FILENAME
 70
     0
 40
200.0
 41
1.0
 50
0.0
 71
     0
 42
200.0
  3
romans
  4
bigfont
  0
ENDTAB
  0
TABLE
  2
VIEW
 70
     0
  0
ENDTAB
  0
TABLE
  2
UCS
 70
     0
  0
ENDTAB
  0
TABLE
  2
APPID
 70
    17
  0
APPID
  2
ACAD
 70
     0
  0
APPID
  2
ACADANNOTATIVE
 70
     0
  0
APPID
  2
ACAD_PSEXT
 70
     0
  0
APPID
  2
DCO15
 70
     0
  0
APPID
  2
ACAD_MLEADERVER
 70
     0
  0
APPID
  2
AUTOCAD_POSTSCRIPT_FIGURE
 70
     0
  0
APPID
  2
ACAD_EXEMPT_FROM_CAD_STANDARDS
 70
     0
  0
APPID
  2
ACLAYERTOOLS
 70
     0
  0
APPID
  2
ACAD_DSTYLE_DIMJAG
 70
     0
  0
APPID
  2
ACAD_DSTYLE_DIMTALN
 70
     0
  0
APPID
  2
ACAECLAYERSTANDARD
 70
     0
  0
APPID
  2
ACAD_DSTYLE_DIMBREAK
 70
     0
  0
APPID
  2
ACAD_DSTYLE_DIM_LINETYPE
 70
     0
  0
APPID
  2
ACAD_DSTYLE_DIM_EXT1_LINETYPE
 70
     0
  0
APPID
  2
ACAD_DSTYLE_DIM_EXT2_LINETYPE
 70
     0
  0
APPID
  2
ACAD_DSTYLE_DIMFLIPARROW_W
 70
     0
  0
APPID
  2
ACAD_NAV_VCDISPLAY
 70
     0
  0
ENDTAB
  0
TABLE
  2
DIMSTYLE
 70
     2
  0
DIMSTYLE
  2
SUNPOU
 70
     0
  3

  4

  5

  6

  7

 40
80.0
 41
3.0
 42
1.0
 43
0.38
 44
1.0
 45
0.5
 46
0.0
 47
0.0
 48
0.0
140
2.0
141
0.09
142
0.0
143
25.399999999999999
144
1.0
145
0.0
146
1.0
147
1.0
 71
     0
 72
     0
 73
     0
 74
     0
 75
     0
 76
     0
 77
     1
 78
     8
170
     0
171
     2
172
     1
173
     0
174
     0
175
     0
176
     4
177
     4
178
     7
  0
ENDTAB
  0
ENDSEC
  0
SECTION
  2
BLOCKS
  0
BLOCK
  8
0
  2
$MODEL_SPACE
 70
     0
 10
0.0
 20
0.0
 30
0.0
  3
$MODEL_SPACE
  1

  0
ENDBLK
  5
119D3
  8
0
  0
BLOCK
 67
     1
  8
0
  2
$PAPER_SPACE
 70
     0
 10
0.0
 20
0.0
 30
0.0
  3
$PAPER_SPACE
  1

  0
ENDBLK
  5
119CF
 67
     1
  8
0
  0
BLOCK
  8
0
  2
_DOTSMALL
 70
     0
 10
0.0
 20
0.0
 30
0.0
  3
_DOTSMALL
  1

  0
POLYLINE
  5
11A0F
  8
0
  6
BYBLOCK
 62
     0
 66
     1
 10
0.0
 20
0.0
 30
0.0
 70
     1
 40
0.5
 41
0.5
  0
VERTEX
  5
12F7E
  8
0
  6
BYBLOCK
 62
     0
 10
-0.0625
 20
0.0
 30
0.0
 42
1.0
  0
VERTEX
  5
12F7F
  8
0
  6
BYBLOCK
 62
     0
 10
0.0625
 20
0.0
 30
0.0
 42
1.0
  0
SEQEND
  5
12F80
  8
0
  6
BYBLOCK
 62
     0
  0
ENDBLK
  5
11A13
  8
0
  0
ENDSEC
  0
SECTION
  2
ENTITIES
  0
LINE
  5
11A14
  8
0-1
  6
CONTINUOUS
 62
     3
 10
7550.0628415859483
 20
16684.985315999991
 30
0.0
 11
10468.06284158595
 21
16684.985315999991
 31
0.0
  0
LINE
  5
11A15
  8
0-1
  6
CONTINUOUS
 62
     3
 10
10415.063210585949
 20
14125.986358
 30
0.0
 11
10415.063210585949
 21
17768.23311058123
 31
0.0
  0
LINE
  5
11A16
  8
0-1
  6
CONTINUOUS
 62
     3
 10
7600.0634615859572
 20
14001.986344000001
 30
0.0
 11
7600.0634615859572
 21
18788.083582700088
 31
0.0
  0
LINE
  5
11A17
  8
0-1
  6
CONTINUOUS
 62
     3
 10
7464.5628415859464
 20
13969.98643699999
 30
0.0
 11
7464.5628415859464
 21
18989.10749151139
 31
0.0
  0
LINE
  5
11A18
  8
0-1
  6
CONTINUOUS
 62
     3
 10
7507.5635675859539
 20
14125.986358
 30
0.0
 11
13310.564095585951
 21
14125.986358
 31
0.0
  0
LINE
  5
11A19
  8
0-1
  6
CONTINUOUS
 62
     3
 10
7550.0628415859483
 20
14204.985974999991
 30
0.0
 11
13268.06284158595
 21
14204.985974999991
 31
0.0
  0
LINE
  5
11A1A
  8
0-1
  6
CONTINUOUS
 62
     3
 10
7467.5628415859464
 20
13969.98643699999
 30
0.0
 11
13350.562841585939
 21
13969.98643699999
 31
0.0
  0
LINE
  5
11A1B
  8
0-1
  6
CONTINUOUS
 62
     3
 10
7467.5628415859464
 20
14001.98634400001
 30
0.0
 11
13350.562841585939
 21
14001.986344000001
 31
0.0
  0
LINE
  5
11A1C
  8
0-1
  6
CONTINUOUS
 62
     3
 10
10468.06284158595
 20
14125.986358
 30
0.0
 11
10468.06284158595
 21
17746.365060417251
 31
0.0
  0
LINE
  5
11A1D
  8
0-1
  6
CONTINUOUS
 62
     3
 10
10510.564095585951
 20
14125.986358
 30
0.0
 11
10510.564095585951
 21
17728.828720315101
 31
0.0
  0
LINE
  5
11A1E
  8
0-1
  6
CONTINUOUS
 62
     3
 10
7550.0628415859483
 20
14125.986358
 30
0.0
 11
7550.0628415859483
 21
18955.067610197751
 31
0.0
  0
LINE
  5
11A1F
  8
0-1
  6
CONTINUOUS
 62
     3
 10
7507.5635675859539
 20
14125.986358
 30
0.0
 11
7507.5635675859539
 21
18972.603133336848
 31
0.0
  0
LINE
  5
11A20
  8
0-1
  6
CONTINUOUS
 62
     3
 10
9120.5639635859588
 20
18312.353433713281
 30
0.0
 11
9120.5639635859588
 21
19461.985685
 31
0.0
  0
LINE
  5
11A21
  8
0-1
  6
CONTINUOUS
 62
     3
 10
9157.5651245859481
 20
18297.08647374381
 30
0.0
 11
9157.5651245859481
 21
19461.985685
 31
0.0
  0
LINE
  5
11A22
  8
0-1
  6
CONTINUOUS
 62
     3
 10
9320.5636335859526
 20
18219.831946322141
 30
0.0
 11
9320.5636335859526
 21
19461.985685
 31
0.0
  0
LINE
  5
11A23
  8
0-1
  6
CONTINUOUS
 62
     3
 10
9357.5628145859591
 20
18204.565803315701
 30
0.0
 11
9357.5628145859591
 21
19461.985685
 31
0.0
  0
LINE
  5
11A24
  8
0-1
  6
CONTINUOUS
 62
     3
 10
9520.5642925859574
 20
18137.31015586208
 30
0.0
 11
9520.5642925859574
 21
19461.985685
 31
0.0
  0
LINE
  5
11A25
  8
0-1
  6
CONTINUOUS
 62
     3
 10
9557.5644645859556
 20
18122.043603961509
 30
0.0
 11
9557.5644645859556
 21
19461.985685
 31
0.0
  0
LINE
  5
11A26
  8
0-1
  6
CONTINUOUS
 62
     3
 10
9720.5639635859588
 20
18054.788773058321
 30
0.0
 11
9720.5639635859588
 21
19461.985685
 31
0.0
  0
LINE
  5
11A27
  8
0-1
  6
CONTINUOUS
 62
     3
 10
9757.5651245859517
 20
18039.521813088861
 30
0.0
 11
9757.5651245859517
 21
19461.985685
 31
0.0
  0
LINE
  5
11A28
  8
0-1
  6
CONTINUOUS
 62
     3
 10
9920.5636335859635
 20
17972.267390667181
 30
0.0
 11
9920.5636335859635
 21
19461.985685
 31
0.0
  0
LINE
  5
11A29
  8
0-1
  6
CONTINUOUS
 62
     3
 10
9957.5638045859523
 20
17957.000839179222
 30
0.0
 11
9957.5638045859523
 21
19461.985685
 31
0.0
  0
LINE
  5
11A2A
  8
0-1
  6
CONTINUOUS
 62
     3
 10
10120.564292585939
 20
17889.745600207119
 30
0.0
 11
10120.564292585939
 21
19461.985685
 31
0.0
  0
LINE
  5
11A2B
  8
0-1
  6
CONTINUOUS
 62
     3
 10
10157.56446458595
 20
17874.479048306552
 30
0.0
 11
10157.56446458595
 21
19461.985685
 31
0.0
  0
LINE
  5
11A2C
  8
0-1
  6
CONTINUOUS
 62
     3
 10
7550.0628415859483
 20
16774.988087000002
 30
0.0
 11
10468.06284158595
 21
16774.988087000002
 31
0.0
  0
LINE
  5
11A2D
  8
0-1
  6
CONTINUOUS
 62
     3
 10
10398.06374122978
 20
16729.987612658861
 30
0.0
 11
7620.0635675859548
 21
14162.48571100001
 31
0.0
  0
LINE
  5
11A2E
  8
0-1
  6
CONTINUOUS
 62
     3
 10
7620.0635675859548
 20
16729.985711000001
 30
0.0
 11
10398.064095585951
 21
14162.48571100001
 31
0.0
  0
LINE
  5
11A2F
  8
0-1
  6
CONTINUOUS
 62
     3
 10
8348.0123696444807
 20
18624.69699676337
 30
0.0
 11
10398.06374122978
 21
16729.987612658861
 31
0.0
  0
LINE
  5
11A30
  8
0-1
  6
CONTINUOUS
 62
     3
 10
9261.0867975990677
 20
18246.661860119391
 30
0.0
 11
7620.0635675859548
 21
16729.985711000001
 31
0.0
  0
LINE
  5
11A31
  8
0-1
  6
CONTINUOUS
 62
     3
 10
7482.5616145859312
 20
18981.772695146061
 30
0.0
 11
7482.561614585934
 21
19502.48663499999
 31
0.0
  0
LINE
  5
11A32
  8
0-1
  6
CONTINUOUS
 62
     3
 10
7538.0623665859457
 20
19484.987690000002
 30
0.0
 11
7538.0623665859457
 21
19514.987293999991
 31
0.0
  0
LINE
  5
11A33
  8
0-1
  6
CONTINUOUS
 62
     3
 10
7464.5628415859464
 20
19514.987293999991
 30
0.0
 11
7464.5628415859464
 21
19479.985446999988
 31
0.0
  0
LINE
  5
11A34
  8
0-1
  6
CONTINUOUS
 62
     3
 10
7533.0621025859373
 20
19519.985579
 30
0.0
 11
7469.5621155859444
 21
19519.985579
 31
0.0
  0
LINE
  5
11A35
  8
0-1
  6
CONTINUOUS
 62
     3
 10
7482.561614585934
 20
19502.48663499999
 30
0.0
 11
7464.5628415859464
 21
19502.48663499999
 31
0.0
  0
LINE
  5
11A36
  8
0-1
  6
CONTINUOUS
 62
     3
 10
7482.561614585934
 20
19479.985446999988
 30
0.0
 11
7533.0621025859373
 21
19479.985446999988
 31
0.0
  0
LINE
  5
11A37
  8
0-6
  6
CONTINUOUS
 62
     6
 10
9598.4061777233328
 20
19237.71018799999
 30
0.0
 11
9742.3072807233239
 21
19749.985842999991
 31
0.0
  0
LINE
  5
11A38
  8
0-6
  6
CONTINUOUS
 62
     6
 10
9078.5648027233237
 20
19465.663629999999
 30
0.0
 11
9185.2598647233335
 21
19343.487743000002
 31
0.0
  0
LINE
  5
11A39
  8
0-6
  6
CONTINUOUS
 62
     6
 10
9185.2598647233335
 20
19343.487743000002
 30
0.0
 11
9123.9541747233234
 21
19493.663919999992
 31
0.0
  0
LINE
  5
11A3A
  8
0-6
  6
CONTINUOUS
 62
     6
 10
9185.2598647233335
 20
19343.487743000002
 30
0.0
 11
9078.5648027233237
 21
19465.663629999999
 31
0.0
  0
LINE
  5
11A3B
  8
0-6
  6
CONTINUOUS
 62
     6
 10
9078.5648027233237
 20
19465.663629999999
 30
0.0
 11
9123.9541747233234
 21
19493.663919999992
 31
0.0
  0
LINE
  5
11A3C
  8
0-6
  6
CONTINUOUS
 62
     6
 10
9123.9541747233234
 20
19493.663919999992
 30
0.0
 11
9185.2598647233335
 21
19343.487743000002
 31
0.0
  0
LINE
  5
11A3D
  8
0-6
  6
CONTINUOUS
 62
     6
 10
9123.9541747233234
 20
19493.663919999992
 30
0.0
 11
9078.5648027233237
 21
19465.663629999999
 31
0.0
  0
LINE
  5
11A3E
  8
0-6
  6
CONTINUOUS
 62
     6
 10
9185.2598647233335
 20
19343.487743000002
 30
0.0
 11
8891.3320377233267
 21
19749.985842999991
 31
0.0
  0
LINE
  5
11A3F
  8
0-6
  6
CONTINUOUS
 62
     6
 10
9572.5180337233323
 20
19244.109971999991
 30
0.0
 11
9560.016383723334
 21
19082.385282999989
 31
0.0
  0
LINE
  5
11A40
  8
0-6
  6
CONTINUOUS
 62
     6
 10
9560.016383723334
 20
19082.385282999989
 30
0.0
 11
9624.2913527233322
 21
19231.314364000002
 31
0.0
  0
LINE
  5
11A41
  8
0-6
  6
CONTINUOUS
 62
     6
 10
9560.016383723334
 20
19082.385282999989
 30
0.0
 11
9572.5180337233323
 21
19244.109971999991
 31
0.0
  0
LINE
  5
11A42
  8
0-6
  6
CONTINUOUS
 62
     6
 10
9572.5180337233323
 20
19244.109971999991
 30
0.0
 11
9624.2913527233322
 21
19231.314364000002
 31
0.0
  0
LINE
  5
11A43
  8
0-6
  6
CONTINUOUS
 62
     6
 10
9624.2913527233322
 20
19231.314364000002
 30
0.0
 11
9560.016383723334
 21
19082.385282999989
 31
0.0
  0
LINE
  5
11A44
  8
0-6
  6
CONTINUOUS
 62
     6
 10
9624.2913527233322
 20
19231.314364000002
 30
0.0
 11
9572.5180337233323
 21
19244.109971999991
 31
0.0
  0
LINE
  5
11A45
  8
0-6
  6
CONTINUOUS
 62
     6
 10
9742.3072807233239
 20
19749.985842999991
 30
0.0
 11
10259.995928723331
 21
19749.985842999991
 31
0.0
  0
LINE
  5
11A46
  8
0-6
  6
CONTINUOUS
 62
     6
 10
7692.879168585966
 20
18164.289045663922
 30
0.0
 11
7603.0634615859572
 21
18299.361496663922
 31
0.0
  0
LINE
  5
11A47
  8
0-6
  6
CONTINUOUS
 62
     6
 10
7603.0634615859572
 20
18299.361496663922
 30
0.0
 11
7644.2176525859659
 21
18142.46089466392
 31
0.0
  0
LINE
  5
11A48
  8
0-6
  6
CONTINUOUS
 62
     6
 10
7603.0634615859572
 20
18299.361496663922
 30
0.0
 11
7692.879168585966
 21
18164.289045663922
 31
0.0
  0
LINE
  5
11A49
  8
0-6
  6
CONTINUOUS
 62
     6
 10
7692.879168585966
 20
18164.289045663922
 30
0.0
 11
7644.2176525859659
 21
18142.46089466392
 31
0.0
  0
LINE
  5
11A4A
  8
0-6
  6
CONTINUOUS
 62
     6
 10
7644.2176525859659
 20
18142.46089466392
 30
0.0
 11
7603.0634615859572
 21
18299.361496663922
 31
0.0
  0
LINE
  5
11A4B
  8
0-6
  6
CONTINUOUS
 62
     6
 10
7644.2176525859659
 20
18142.46089466392
 30
0.0
 11
7692.879168585966
 21
18164.289045663922
 31
0.0
  0
LINE
  5
11A4C
  8
0-6
  6
CONTINUOUS
 62
     6
 10
8091.330388723326
 20
19749.985842999991
 30
0.0
 11
8891.3320377233267
 21
19749.985842999991
 31
0.0
  0
LINE
  5
11A4D
  8
0-6
  6
CONTINUOUS
 62
     6
 10
7767.5891685859542
 20
17932.58243666391
 30
0.0
 11
8287.5898945859662
 21
17932.58243666391
 31
0.0
  0
LINE
  5
11A4E
  8
0-6
  6
CONTINUOUS
 62
     6
 10
8400.3371466518056
 20
14349.876837
 30
0.0
 11
8483.2245386518116
 21
14526.815115999991
 31
0.0
  0
LINE
  5
11A4F
  8
0-6
  6
CONTINUOUS
 62
     6
 10
8483.2245386518116
 20
14526.815115999991
 30
0.0
 11
9283.2251986517986
 21
14526.815115999991
 31
0.0
  0
LINE
  5
11A50
  8
0-6
  6
CONTINUOUS
 62
     6
 10
9007.3802736518101
 20
13840.439811999981
 30
0.0
 11
8901.1098186518047
 21
13962.98685899999
 31
0.0
  0
LINE
  5
11A51
  8
0-6
  6
CONTINUOUS
 62
     6
 10
8901.1098186518047
 20
13962.98685899999
 30
0.0
 11
8961.8919266518078
 21
13812.59788299998
 31
0.0
  0
LINE
  5
11A52
  8
0-6
  6
CONTINUOUS
 62
     6
 10
8901.1098186518047
 20
13962.98685899999
 30
0.0
 11
9007.3802736518101
 21
13840.439811999981
 31
0.0
  0
LINE
  5
11A53
  8
0-6
  6
CONTINUOUS
 62
     6
 10
9007.3802736518101
 20
13840.439811999981
 30
0.0
 11
8961.8919266518078
 21
13812.59788299998
 31
0.0
  0
LINE
  5
11A54
  8
0-6
  6
CONTINUOUS
 62
     6
 10
8961.8919266518078
 20
13812.59788299998
 30
0.0
 11
8901.1098186518047
 21
13962.98685899999
 31
0.0
  0
LINE
  5
11A55
  8
0-6
  6
CONTINUOUS
 62
     6
 10
8961.8919266518078
 20
13812.59788299998
 30
0.0
 11
9007.3802736518101
 21
13840.439811999981
 31
0.0
  0
LINE
  5
11A56
  8
0-6
  6
CONTINUOUS
 62
     6
 10
8376.1899896518007
 20
14361.18879599998
 30
0.0
 11
8332.4644036518002
 21
14204.985974999991
 31
0.0
  0
LINE
  5
11A57
  8
0-6
  6
CONTINUOUS
 62
     6
 10
8332.4644036518002
 20
14204.985974999991
 30
0.0
 11
8424.4852946518076
 21
14338.56388799999
 31
0.0
  0
LINE
  5
11A58
  8
0-6
  6
CONTINUOUS
 62
     6
 10
8332.4644036518002
 20
14204.985974999991
 30
0.0
 11
8376.1899896518007
 21
14361.18879599998
 31
0.0
  0
LINE
  5
11A59
  8
0-6
  6
CONTINUOUS
 62
     6
 10
8376.1899896518007
 20
14361.18879599998
 30
0.0
 11
8424.4852946518076
 21
14338.56388799999
 31
0.0
  0
LINE
  5
11A5A
  8
0-6
  6
CONTINUOUS
 62
     6
 10
8424.4852946518076
 20
14338.56388799999
 30
0.0
 11
8332.4644036518002
 21
14204.985974999991
 31
0.0
  0
LINE
  5
11A5B
  8
0-6
  6
CONTINUOUS
 62
     6
 10
8424.4852946518076
 20
14338.56388799999
 30
0.0
 11
8376.1899896518007
 21
14361.18879599998
 31
0.0
  0
LINE
  5
11A5C
  8
0-6
  6
CONTINUOUS
 62
     6
 10
9390.7486886518072
 20
13162.98718899999
 30
0.0
 11
10253.3288596518
 21
13162.98718899999
 31
0.0
  0
LINE
  5
11A5D
  8
0-6
  6
CONTINUOUS
 62
     6
 10
8984.6365956517984
 20
13826.518848
 30
0.0
 11
9390.7486886518072
 21
13162.98718899999
 31
0.0
  0
LINE
  5
11A5E
  8
0-6
  6
CONTINUOUS
 62
     6
 10
7445.11213158595
 20
14212.276687
 30
0.0
 11
7467.5628415859464
 21
14372.92253799999
 31
0.0
  0
LINE
  5
11A5F
  8
0-6
  6
CONTINUOUS
 62
     6
 10
7467.5628415859464
 20
14372.92253799999
 30
0.0
 11
7394.2256375859361
 21
14228.241504
 31
0.0
  0
LINE
  5
11A60
  8
0-6
  6
CONTINUOUS
 62
     6
 10
7467.5628415859464
 20
14372.92253799999
 30
0.0
 11
7445.11213158595
 21
14212.276687
 31
0.0
  0
LINE
  5
11A61
  8
0-6
  6
CONTINUOUS
 62
     6
 10
7445.11213158595
 20
14212.276687
 30
0.0
 11
7394.2256375859361
 21
14228.241504
 31
0.0
  0
LINE
  5
11A62
  8
0-6
  6
CONTINUOUS
 62
     6
 10
7394.2256375859361
 20
14228.241504
 30
0.0
 11
7467.5628415859464
 21
14372.92253799999
 31
0.0
  0
LINE
  5
11A63
  8
0-6
  6
CONTINUOUS
 62
     6
 10
7394.2256375859361
 20
14228.241504
 30
0.0
 11
7445.11213158595
 21
14212.276687
 31
0.0
  0
LINE
  5
11A64
  8
0-6
  6
CONTINUOUS
 62
     6
 10
5752.928590585946
 20
12349.98618599998
 30
0.0
 11
6832.9281945859493
 21
12349.98618599998
 31
0.0
  0
LINE
  5
11A65
  8
0-6
  6
CONTINUOUS
 62
     6
 10
7419.6683895859424
 20
14220.25810599999
 30
0.0
 11
6832.9281945859493
 21
12349.98618599998
 31
0.0
  0
LINE
  5
11A66
  8
0-6
  6
CONTINUOUS
 62
     6
 10
7668.5489055859553
 20
18153.375959663921
 30
0.0
 11
7767.5891685859542
 21
17932.58243666391
 31
0.0
  0
LINE
  5
11A67
  8
0-6
  6
CONTINUOUS
 62
     6
 10
13350.56284158595
 20
19519.985579
 30
0.0
 11
13442.250183585949
 21
19653.79311699999
 31
0.0
  0
LINE
  5
11A68
  8
0-6
  6
CONTINUOUS
 62
     6
 10
13480.69144458594
 20
19616.825606999992
 30
0.0
 11
13350.56284158595
 21
19519.985579
 31
0.0
  0
LINE
  5
11A69
  8
0-6
  6
CONTINUOUS
 62
     6
 10
13480.69144458594
 20
19616.825606999992
 30
0.0
 11
13442.250183585949
 21
19653.79311699999
 31
0.0
  0
LINE
  5
11A6A
  8
0-6
  6
CONTINUOUS
 62
     6
 10
13461.47130958595
 20
19635.308372
 30
0.0
 11
13978.46019758595
 21
20139.986634999979
 31
0.0
  0
LINE
  5
11A6B
  8
0-6
  6
CONTINUOUS
 62
     6
 10
13978.46019758595
 20
20139.986634999979
 30
0.0
 11
15653.45953758595
 21
20139.986634999979
 31
0.0
  0
LINE
  5
11A6C
  8
2-0
  6
DASHED3
 62
     6
 10
7550.0628415859483
 20
19258.487215000001
 30
0.0
 11
13268.06284158593
 21
19258.487215000001
 31
0.0
  0
LINE
  5
11A6D
  8
2-0
  6
DASHED3
 62
     6
 10
7507.5635675859539
 20
18972.603133336848
 30
0.0
 11
7507.5635675859539
 21
19343.487743000002
 31
0.0
  0
LINE
  5
11A6E
  8
2-0
  6
DASHED3
 62
     6
 10
7550.0628415859483
 20
18955.067610197751
 30
0.0
 11
7550.0628415859483
 21
19343.487743000002
 31
0.0
  0
LINE
  5
11A6F
  8
2-0
  6
DASHED3
 62
     6
 10
7507.5635675859539
 20
19343.487743000002
 30
0.0
 11
13268.06284158593
 21
19343.487743000002
 31
0.0
  0
LINE
  5
11A70
  8
2-0
  6
DASHED3
 62
     6
 10
10468.06284158595
 20
17746.365060417251
 30
0.0
 11
10468.06284158595
 21
19343.487743000002
 31
0.0
  0
LINE
  5
11A71
  8
2-0
  6
DASHED3
 62
     6
 10
10510.564095585951
 20
17728.828720315101
 30
0.0
 11
10510.564095585951
 21
19343.487743000002
 31
0.0
  0
LINE
  5
11A72
  8
2-0
  6
DASHED3
 62
     6
 10
7620.0635675859548
 20
19297.485711000001
 30
0.0
 11
8348.0123696444807
 21
18624.69699676337
 31
0.0
  0
LINE
  5
11A73
  8
2-0
  6
DASHED3
 62
     6
 10
10398.064095585951
 20
19297.485711000001
 30
0.0
 11
9261.0867975990677
 21
18246.661860119391
 31
0.0
  0
LINE
  5
11A74
  8
2-0
  6
CENTER2
 62
     6
 10
10468.06284158595
 20
20539.987954
 30
0.0
 11
10468.06284158595
 21
19589.987293999991
 31
0.0
  0
LINE
  5
11A75
  8
2-0
  6
CENTER2
 62
     6
 10
6220.5627365859546
 20
19297.485711000001
 30
0.0
 11
7867.0619575859464
 21
19297.485711000001
 31
0.0
  0
LINE
  5
11A76
  8
0-8
  6
CONTINUOUS
 62
     6
 10
7550.0628415859483
 20
20539.987954
 30
0.0
 11
7550.0628415859483
 21
19589.987293999991
 31
0.0
  0
LINE
  5
11A77
  8
2-0
  6
CENTER2
 62
     6
 10
6220.5627365859546
 20
16729.985711000001
 30
0.0
 11
13439.86228958595
 21
16729.985711000001
 31
0.0
  0
LINE
  5
11A78
  8
2-0
  6
CENTER2
 62
     6
 10
6220.5627365859546
 20
14162.48571100001
 30
0.0
 11
7867.0619575859464
 21
14162.48571100001
 31
0.0
  0
ARC
  5
11A79
  8
0-1
  6
CONTINUOUS
 62
     3
 10
7533.0621025859373
 20
19484.987690000002
 30
0.0
 40
5.0
 50
269.9999850001808
 51
0.0
  0
ARC
  5
11A7A
  8
0-1
  6
CONTINUOUS
 62
     3
 10
7533.0648039034268
 20
19514.988412922321
 30
0.0
 40
4.99729880777691
 50
359.98717116371881
 51
90.030971551783779
  0
ARC
  5
11A7B
  8
0-1
  6
CONTINUOUS
 62
     3
 10
7469.5591891097092
 20
19514.98850618611
 30
0.0
 40
4.9970736707893684
 50
89.966445412325825
 51
180.0138987646539
  0
CIRCLE
  5
11A7C
  8
0-5
  6
CONTINUOUS
 62
     4
 10
10468.06284158595
 20
20739.986634999979
 30
0.0
 40
199.9999949999999
  0
CIRCLE
  5
11A7D
  8
0-5
  6
CONTINUOUS
 62
     4
 10
7550.0628415859483
 20
20739.986634999979
 30
0.0
 40
199.9999949999999
  0
CIRCLE
  5
11A7E
  8
0-5
  6
CONTINUOUS
 62
     4
 10
6020.5630655859568
 20
19297.485711000001
 30
0.0
 40
199.9999949999999
  0
CIRCLE
  5
11A7F
  8
0-5
  6
CONTINUOUS
 62
     4
 10
6020.5630655859568
 20
16729.985711000001
 30
0.0
 40
199.9999949999999
  0
CIRCLE
  5
11A80
  8
0-5
  6
CONTINUOUS
 62
     4
 10
6020.5630655859568
 20
14162.48571100001
 30
0.0
 40
199.9999949999999
  0
CIRCLE
  5
11A81
  8
0-5
  6
CONTINUOUS
 62
     4
 10
15128.71667799999
 20
1375.999982000001
 30
0.0
 40
20.0
  0
ARC
  5
11A82
  8
0-5
  6
CONTINUOUS
 62
     4
 10
15128.71667799999
 20
1375.999982000001
 30
0.0
 40
20.0
 50
180.0
 51
0.0
  0
ARC
  5
11A83
  8
0-5
  6
CONTINUOUS
 62
     4
 10
15128.71667799999
 20
1375.999982000001
 30
0.0
 40
20.0
 50
0.0
 51
179.99998500000001
  0
CIRCLE
  5
11A84
  8
0-5
  6
CONTINUOUS
 62
     4
 10
15128.71667799999
 20
1775.999321999999
 30
0.0
 40
20.0
  0
ARC
  5
11A85
  8
0-5
  6
CONTINUOUS
 62
     4
 10
15128.71667799999
 20
1775.999321999999
 30
0.0
 40
20.0
 50
180.0
 51
0.0
  0
ARC
  5
11A86
  8
0-5
  6
CONTINUOUS
 62
     4
 10
15128.71667799999
 20
1775.999321999999
 30
0.0
 40
20.0
 50
0.0
 51
179.99998500000001
  0
TEXT
  5
11A87
  8
0-5
  6
CONTINUOUS
 62
     7
 10
10414.345635585951
 20
20650.771712000002
 30
0.0
 40
160.0
  1
2
 72
     4
 11
10467.67896891929
 21
20730.771712000002
 31
0.0
  0
TEXT
  5
11A88
  8
0-5
  6
CONTINUOUS
 62
     7
 10
7496.3436565859538
 20
20650.771712000002
 30
0.0
 40
160.0
  1
1
 72
     4
 11
7523.0103232526199
 21
20730.771712000002
 31
0.0
  0
TEXT
  5
11A89
  8
0-5
  6
CONTINUOUS
 62
     7
 10
5967.1031975859569
 20
19217.897186999999
 30
0.0
 40
160.0
  1
C
 72
     4
 11
6020.4365309192899
 21
19297.897186999999
 31
0.0
  0
TEXT
  5
11A8A
  8
0-5
  6
CONTINUOUS
 62
     7
 10
5967.1031975859569
 20
16650.398176999981
 30
0.0
 40
160.0
  1
B
 72
     4
 11
6020.4365309192899
 21
16730.398176999981
 31
0.0
  0
TEXT
  5
11A8B
  8
0-5
  6
CONTINUOUS
 62
     7
 10
5967.1031975859569
 20
14082.897187
 30
0.0
 40
160.0
  1
A
 72
     4
 11
6020.4365309192899
 21
14162.897187
 31
0.0
  0
TEXT
  5
11A8C
  8
0-5
  6
CONTINUOUS
 62
     7
 10
16661.217403999992
 20
1655.999792000001
 30
0.0
 40
160.0
  1
H
  0
TEXT
  5
11A8D
  8
0-5
  6
CONTINUOUS
 62
     7
 10
15176.146933
 20
1655.999792000001
 30
0.0
 40
160.0
  1
（ ）内寸法ハ、  タ イプヲ示ス。
  0
TEXT
  5
11A8E
  8
0-5
  6
CONTINUOUS
 62
     7
 10
15288.716216000001
 20
1255.999462
 30
0.0
 40
160.0
  1
有効高サハ、基礎高サヲ含ミマセン。
  0
TEXT
  5
11A8F
  8
0-6
  6
CONTINUOUS
 62
     7
 10
9822.3075447233296
 20
19829.98610699999
 30
0.0
 40
160.0
  1
屋根
 72
     4
 11
9992.9742113899974
 21
19909.98610699999
 31
0.0
  0
TEXT
  5
11A90
  8
0-6
  6
CONTINUOUS
 62
     7
 10
8171.3316427233303
 20
19829.98610699999
 30
0.0
 40
160.0
  1
桁（後）
 72
     4
 11
8491.3316427233312
 21
19909.98610699999
 31
0.0
  0
TEXT
  5
11A91
  8
0-6
  6
CONTINUOUS
 62
     7
 10
8563.2238126517987
 20
14606.81538
 30
0.0
 40
160.0
  1
桁（前）
 72
     4
 11
8883.2238126517987
 21
14686.81538
 31
0.0
  0
TEXT
  5
11A92
  8
0-6
  6
CONTINUOUS
 62
     7
 10
9470.7479626518143
 20
13242.98646299999
 30
0.0
 40
160.0
  1
鼻隠し前
 72
     4
 11
9833.4146293184804
 21
13322.98646299999
 31
0.0
  0
TEXT
  5
11A93
  8
0-6
  6
CONTINUOUS
 62
     7
 10
5832.9288545859481
 20
12429.985459999991
 30
0.0
 40
160.0
  1
ケラバ 左
 72
     4
 11
6248.9288545859481
 21
12509.985459999991
 31
0.0
  0
TEXT
  5
11A94
  8
0-6
  6
CONTINUOUS
 62
     7
 10
7847.5894325859681
 20
18012.582700663908
 30
0.0
 40
160.0
  1
上枠
 72
     4
 11
8018.2560992526351
 21
18092.582700663908
 31
0.0
  0
TEXT
  5
11A95
  8
0-6
  6
CONTINUOUS
 62
     7
 10
14058.460461585961
 20
20219.984918999991
 30
0.0
 40
160.0
  1
鼻隠しコーナー後
 72
     4
 11
14805.12712825263
 21
20299.984918999991
 31
0.0
  0
TEXT
  5
11A96
  8
2-0
  6
CONTINUOUS
 62
     7
 10
23073.43991546092
 20
11251.104441999991
 30
0.0
 40
160.0
  1
平　面　図
 72
     4
 11
23526.773248794249
 21
11325.77110866666
 31
0.0
  0
TEXT
  5
11A97
  8
2-0
  6
CONTINUOUS
 62
     7
 10
9275.8641181217226
 20
11156.81700299998
 30
0.0
 40
160.0
  1
小 屋 伏 図
 72
     4
 11
9777.1974514550566
 21
11236.81700299998
 31
0.0
  0
TEXT
  5
11A98
  8
2-0
  6
CONTINUOUS
 62
     7
 10
22742.541079231629
 20
3292.802588999999
 30
0.0
 40
160.0
  1
正 面 立 面 図
 72
     4
 11
23387.874412564961
 21
3372.802588999999
 31
0.0
  0
TEXT
  5
11A99
  8
2-0
  6
CONTINUOUS
 62
     7
 10
8709.4721087031467
 20
3264.0669070000022
 30
0.0
 40
160.0
  1
側 面 立 面 図
 50
0.000139
 72
     4
 11
9354.8052479539692
 21
3344.0684725833762
 31
0.0
  0
TEXT
  5
11A9D
  8
2-0
  6
CONTINUOUS
 62
     7
 10
10706.29743309158
 20
3291.2638415833758
 30
0.0
 40
160.0
  1
1
 72
     4
 11
10732.96409975825
 21
3371.2638415833749
 31
0.0
  0
TEXT
  5
11A9E
  8
2-0
  6
CONTINUOUS
 62
     7
 10
10949.38615034227
 20
3211.2653095833762
 30
0.0
 40
160.0
  1
80
 72
     4
 11
11069.38615034227
 21
3291.2653095833762
 31
0.0
  0
TEXT
  5
11A9F
  8
2-0
  6
CONTINUOUS
 62
     7
 10
10207.29939909158
 20
3264.0684725833762
 30
0.0
 40
160.0
  1
(S=  /   )
 72
     4
 11
10767.29939909158
 21
3344.0684725833762
 31
0.0
  0
TEXT
  5
11AA0
  8
2-0
  6
CONTINUOUS
 62
     7
 10
24739.366597702621
 20
3319.9979579999999
 30
0.0
 40
160.0
  1
1
 72
     4
 11
24766.033264369278
 21
3399.9979579999999
 31
0.0
  0
TEXT
  5
11AA1
  8
2-0
  6
CONTINUOUS
 62
     7
 10
24982.455314953291
 20
3239.9994260000021
 30
0.0
 40
160.0
  1
80
 72
     4
 11
25102.455314953291
 21
3319.9994260000012
 31
0.0
  0
TEXT
  5
11AA2
  8
2-0
  6
CONTINUOUS
 62
     7
 10
24240.368563702599
 20
3292.802588999999
 30
0.0
 40
160.0
  1
(S=  /   )
 72
     4
 11
24800.368563702599
 21
3372.802588999999
 31
0.0
  0
TEXT
  5
11AA3
  8
2-0
  6
CONTINUOUS
 62
     7
 10
24878.26543393188
 20
11272.96647766667
 30
0.0
 40
160.0
  1
1
 72
     4
 11
24904.932100598551
 21
11352.96647766667
 31
0.0
  0
TEXT
  5
11AA4
  8
2-0
  6
CONTINUOUS
 62
     7
 10
25121.354151182572
 20
11192.967945666671
 30
0.0
 40
160.0
  1
80
 72
     4
 11
25241.354151182572
 21
11272.967945666671
 31
0.0
  0
TEXT
  5
11AA5
  8
2-0
  6
CONTINUOUS
 62
     7
 10
24379.267399931879
 20
11245.77110866666
 30
0.0
 40
160.0
  1
(S=  /   )
 72
     4
 11
24939.267399931879
 21
11325.77110866666
 31
0.0
  0
TEXT
  5
11AA6
  8
2-0
  6
CONTINUOUS
 62
     7
 10
11128.68963659268
 20
11184.012371999979
 30
0.0
 40
160.0
  1
1
 72
     4
 11
11155.35630325935
 21
11264.012371999979
 31
0.0
  0
TEXT
  5
11AA7
  8
2-0
  6
CONTINUOUS
 62
     7
 10
11371.77835384336
 20
11104.01383999998
 30
0.0
 40
160.0
  1
80
 72
     4
 11
11491.77835384336
 21
11184.01383999998
 31
0.0
  0
TEXT
  5
11AA8
  8
2-0
  6
CONTINUOUS
 62
     7
 10
10629.69160259268
 20
11156.81700299998
 30
0.0
 40
160.0
  1
(S=  /   )
 72
     4
 11
11189.69160259268
 21
11236.81700299998
 31
0.0
  0
LINE
  5
11AA9
  8
2-0
  6
CENTER2
 62
     6
 10
13268.06284158595
 20
20539.987954
 30
0.0
 11
13268.06284158595
 21
19589.987293999991
 31
0.0
  0
CIRCLE
  5
11AAA
  8
0-5
  6
CONTINUOUS
 62
     4
 10
13268.06284158595
 20
20739.986634999979
 30
0.0
 40
199.9999949999999
  0
TEXT
  5
11AAB
  8
0-5
  6
CONTINUOUS
 62
     7
 10
13214.34563558594
 20
20650.771712000002
 30
0.0
 40
160.0
  1
3
 72
     4
 11
13267.678968919279
 21
20730.771712000002
 31
0.0
  0
LINE
  5
11AAC
  8
0-1
  6
CONTINUOUS
 62
     3
 10
13335.563079585951
 20
16564.44994129907
 30
0.0
 11
13335.563079585951
 21
19502.48663499999
 31
0.0
  0
LINE
  5
11AAD
  8
0-1
  6
CONTINUOUS
 62
     3
 10
13335.563079585951
 20
19502.48663499999
 30
0.0
 11
13353.562841585939
 21
19502.48663499999
 31
0.0
  0
LINE
  5
11AAE
  8
0-1
  6
CONTINUOUS
 62
     3
 10
13280.06232758596
 20
19484.987690000002
 30
0.0
 11
13280.06232758596
 21
19514.987293999991
 31
0.0
  0
LINE
  5
11AAF
  8
0-1
  6
CONTINUOUS
 62
     3
 10
13335.563079585951
 20
19479.985446999988
 30
0.0
 11
13285.06358158595
 21
19479.985446999988
 31
0.0
  0
LINE
  5
11AB0
  8
0-1
  6
CONTINUOUS
 62
     3
 10
13353.562841585939
 20
19514.987293999991
 30
0.0
 11
13353.562841585939
 21
19479.985446999988
 31
0.0
  0
LINE
  5
11AB1
  8
0-1
  6
CONTINUOUS
 62
     3
 10
13285.06358158595
 20
19519.985579
 30
0.0
 11
13348.561588585941
 21
19519.985579
 31
0.0
  0
ARC
  5
11AB2
  8
0-1
  6
CONTINUOUS
 62
     3
 10
13348.561588585941
 20
19514.987293999991
 30
0.0
 40
5.0
 50
0.0
 51
90.0
  0
ARC
  5
11AB3
  8
0-1
  6
CONTINUOUS
 62
     3
 10
13285.06358158595
 20
19514.987293999991
 30
0.0
 40
5.0
 50
90.0
 51
180.0
  0
ARC
  5
11AB4
  8
0-1
  6
CONTINUOUS
 62
     3
 10
13285.06358158595
 20
19484.987690000002
 30
0.0
 40
5.0
 50
180.0
 51
269.9999850001808
  0
LINE
  5
11AB5
  8
0-1
  6
CONTINUOUS
 62
     3
 10
10468.06284158595
 20
14125.986358
 30
0.0
 11
10468.06284158595
 21
13969.98643699999
 31
0.0
  0
LINE
  5
11AB6
  8
0-1
  6
CONTINUOUS
 62
     3
 10
7255.4294412693407
 20
19077.05304132856
 30
0.0
 11
10876.86129493059
 21
17577.69171465941
 31
0.0
  0
LINE
  5
11AB7
  8
0-1
  6
CONTINUOUS
 62
     3
 10
13218.06321058596
 20
14001.986344000001
 30
0.0
 11
13218.06321058596
 21
16612.931850858091
 31
0.0
  0
LINE
  5
11AB8
  8
0-1
  6
CONTINUOUS
 62
     3
 10
13353.562841585939
 20
13969.98643699999
 30
0.0
 11
13353.562841585939
 21
16557.02310283003
 31
0.0
  0
LINE
  5
11AB9
  8
0-1
  6
CONTINUOUS
 62
     3
 10
13268.06284158595
 20
14125.986358
 30
0.0
 11
13268.06284158595
 21
16591.063800694112
 31
0.0
  0
LINE
  5
11ABA
  8
0-1
  6
CONTINUOUS
 62
     3
 10
13310.564095585951
 20
14125.986358
 30
0.0
 11
13310.564095585951
 21
16573.527460591959
 31
0.0
  0
LINE
  5
11ABB
  8
0-1
  6
CONTINUOUS
 62
     3
 10
13218.06321058596
 20
16612.931850858091
 30
0.0
 11
13218.06321058596
 21
19461.985685
 31
0.0
  0
LINE
  5
11ABC
  8
0-1
  6
CONTINUOUS
 62
     3
 10
13353.562841585939
 20
16557.02310283004
 30
0.0
 11
13353.562841585939
 21
19502.48663499999
 31
0.0
  0
LINE
  5
11ABD
  8
2-0
  6
DASHED3
 62
     6
 10
13268.06284158595
 20
16591.063800694112
 30
0.0
 11
13268.06284158593
 21
19461.985685
 31
0.0
  0
LINE
  5
11ABE
  8
2-0
  6
DASHED3
 62
     6
 10
13310.564095585951
 20
16573.527460591959
 30
0.0
 11
13310.564095585951
 21
19461.985685
 31
0.0
  0
LINE
  5
11ABF
  8
0-1
  6
CONTINUOUS
 62
     3
 10
7464.5628415859464
 20
18989.10749151139
 30
0.0
 11
7464.5628415859464
 21
19509.987031000001
 31
0.0
  0
LINE
  5
11AC0
  8
0-1
  6
CONTINUOUS
 62
     3
 10
7600.0634615859572
 20
18788.08358270011
 30
0.0
 11
7600.0634615859572
 21
19461.985685
 31
0.0
  0
LINE
  5
11AC1
  8
0-1
  6
CONTINUOUS
 62
     3
 10
10320.56495258595
 20
17807.22380933446
 30
0.0
 11
10320.56495258595
 21
19461.985685
 31
0.0
  0
LINE
  5
11AC2
  8
0-1
  6
CONTINUOUS
 62
     3
 10
10357.56512458595
 20
17791.957257433889
 30
0.0
 11
10357.56512458595
 21
19461.985685
 31
0.0
  0
LINE
  5
11AC3
  8
0-1
  6
CONTINUOUS
 62
     3
 10
10520.56561258597
 20
17724.70201846179
 30
0.0
 11
10520.56561258597
 21
19461.985685
 31
0.0
  0
LINE
  5
11AC4
  8
0-1
  6
CONTINUOUS
 62
     3
 10
10557.565784585961
 20
17709.435466561219
 30
0.0
 11
10557.565784585961
 21
19461.985685
 31
0.0
  0
LINE
  5
11AC5
  8
0-1
  6
CONTINUOUS
 62
     3
 10
10720.56627258598
 20
17642.180227589099
 30
0.0
 11
10720.56627258598
 21
19461.985685
 31
0.0
  0
LINE
  5
11AC6
  8
0-1
  6
CONTINUOUS
 62
     3
 10
10757.56644458598
 20
17626.913675688538
 30
0.0
 11
10757.56644458598
 21
19461.985685
 31
0.0
  0
LINE
  5
11AC7
  8
0-1
  6
CONTINUOUS
 62
     3
 10
10920.566932585991
 20
17683.61714701321
 30
0.0
 11
10920.566932585991
 21
19461.985685
 31
0.0
  0
LINE
  5
11AC8
  8
0-1
  6
CONTINUOUS
 62
     3
 10
10957.567104585991
 20
17773.291143927981
 30
0.0
 11
10957.567104585991
 21
19461.985685
 31
0.0
  0
LINE
  5
11AC9
  8
0-1
  6
CONTINUOUS
 62
     3
 10
11120.567592586
 20
17638.213552947622
 30
0.0
 11
11120.567592586
 21
19461.985685
 31
0.0
  0
LINE
  5
11ACA
  8
0-1
  6
CONTINUOUS
 62
     3
 10
11157.567764586
 20
17595.670312558748
 30
0.0
 11
11157.567764586
 21
19461.985685
 31
0.0
  0
LINE
  5
11ACB
  8
0-1
  6
CONTINUOUS
 62
     3
 10
11320.568252585999
 20
17408.250401524641
 30
0.0
 11
11320.568252585999
 21
19461.985685
 31
0.0
  0
LINE
  5
11ACC
  8
0-1
  6
CONTINUOUS
 62
     3
 10
11357.568424585999
 20
17365.707161135771
 30
0.0
 11
11357.568424585999
 21
19461.985685
 31
0.0
  0
LINE
  5
11ACD
  8
0-1
  6
CONTINUOUS
 62
     3
 10
11520.568912586021
 20
17178.287250101661
 30
0.0
 11
11520.568912586021
 21
19461.985685
 31
0.0
  0
LINE
  5
11ACE
  8
0-1
  6
CONTINUOUS
 62
     3
 10
11557.56908458603
 20
17135.74400971278
 30
0.0
 11
11557.56908458603
 21
19461.985685
 31
0.0
  0
LINE
  5
11ACF
  8
0-1
  6
CONTINUOUS
 62
     3
 10
11720.56957258603
 20
17000.69523749184
 30
0.0
 11
11720.56957258603
 21
19461.985685
 31
0.0
  0
LINE
  5
11AD0
  8
0-1
  6
CONTINUOUS
 62
     3
 10
11757.569744586021
 20
17090.373517523742
 30
0.0
 11
11757.569744586021
 21
19461.985685
 31
0.0
  0
LINE
  5
11AD1
  8
0-1
  6
CONTINUOUS
 62
     3
 10
11920.57023258602
 20
17147.049482353101
 30
0.0
 11
11920.57023258602
 21
19461.985685
 31
0.0
  0
LINE
  5
11AD2
  8
0-1
  6
CONTINUOUS
 62
     3
 10
11957.570404586029
 20
17131.782930452511
 30
0.0
 11
11957.570404586029
 21
19461.985685
 31
0.0
  0
LINE
  5
11AD3
  8
0-1
  6
CONTINUOUS
 62
     3
 10
12120.57089258604
 20
17064.527691480431
 30
0.0
 11
12120.57089258604
 21
19461.985685
 31
0.0
  0
LINE
  5
11AD4
  8
0-1
  6
CONTINUOUS
 62
     3
 10
12157.571064586051
 20
17049.261139579859
 30
0.0
 11
12157.571064586051
 21
19461.985685
 31
0.0
  0
LINE
  5
11AD5
  8
0-1
  6
CONTINUOUS
 62
     3
 10
12320.571552586051
 20
16982.00590060775
 30
0.0
 11
12320.571552586051
 21
19461.985685
 31
0.0
  0
LINE
  5
11AD6
  8
0-1
  6
CONTINUOUS
 62
     3
 10
12357.57172458606
 20
16966.739348707179
 30
0.0
 11
12357.57172458606
 21
19461.985685
 31
0.0
  0
LINE
  5
11AD7
  8
0-1
  6
CONTINUOUS
 62
     3
 10
12520.572212586059
 20
16899.48410973508
 30
0.0
 11
12520.572212586059
 21
19461.985685
 31
0.0
  0
LINE
  5
11AD8
  8
0-1
  6
CONTINUOUS
 62
     3
 10
12557.572384586059
 20
16884.217557834509
 30
0.0
 11
12557.572384586059
 21
19461.985685
 31
0.0
  0
LINE
  5
11AD9
  8
2-0
  6
DASHED3
 62
     6
 10
12822.302052075571
 20
16774.988087000002
 30
0.0
 11
13268.06284158595
 21
16774.988087000002
 31
0.0
  0
LINE
  5
11ADA
  8
2-0
  6
DASHED3
 62
     6
 10
13040.433692354751
 20
16684.985315999991
 30
0.0
 11
13268.06284158595
 21
16684.985315999991
 31
0.0
  0
LINE
  5
11ADB
  8
0-1
  6
CONTINUOUS
 62
     3
 10
10468.06284158595
 20
16684.985315999991
 30
0.0
 11
13040.433692354751
 21
16684.985315999991
 31
0.0
  0
LINE
  5
11ADC
  8
0-1
  6
CONTINUOUS
 62
     3
 10
10468.06284158595
 20
16774.988087000002
 30
0.0
 11
12822.302052075571
 21
16774.988087000002
 31
0.0
  0
LINE
  5
11ADD
  8
0-1
  6
CONTINUOUS
 62
     3
 10
10527.563210585949
 20
14162.48571100001
 30
0.0
 11
13117.97818217253
 21
16652.98987072461
 31
0.0
  0
LINE
  5
11ADE
  8
0-1
  6
CONTINUOUS
 62
     3
 10
13198.062841585939
 20
14162.48571100001
 30
0.0
 11
10527.563210585949
 21
16729.985711000001
 31
0.0
  0
LINE
  5
11ADF
  8
0-6
  6
CONTINUOUS
 62
     6
 10
13215.06321058596
 20
14538.24675392431
 30
0.0
 11
12725.935412935019
 21
13192.49802927388
 31
0.0
  0
LINE
  5
11AE0
  8
2-0
  6
DASHED3
 62
     6
 10
10527.563210585949
 20
19297.485711000001
 30
0.0
 11
13198.062841585939
 21
16729.985711000001
 31
0.0
  0
LINE
  5
11AE1
  8
2-0
  6
DASHED3
 62
     6
 10
13198.062841585939
 20
19297.485711000001
 30
0.0
 11
11280.708026831589
 21
17454.08216593436
 31
0.0
  0
LINE
  5
11AE2
  8
0-1
  6
CONTINUOUS
 62
     3
 10
11280.708026831589
 20
17454.08216593436
 30
0.0
 11
10527.563210585949
 21
16729.985711000001
 31
0.0
  0
LINE
  5
11AE3
  8
0-1
  6
CONTINUOUS
 62
     3
 10
10876.86075717082
 20
17577.690411339281
 30
0.0
 11
10972.214777494341
 21
17808.791394445481
 31
0.0
  0
LINE
  5
11AE4
  8
0-1
  6
CONTINUOUS
 62
     3
 10
11705.914309677561
 20
16965.174895287859
 30
0.0
 11
11801.26495935508
 21
17196.278746994321
 31
0.0
  0
LINE
  5
11AE5
  8
0-1
  6
CONTINUOUS
 62
     3
 10
11705.914309677561
 20
16965.174895287859
 30
0.0
 11
10972.214777494341
 21
17808.791394445481
 31
0.0
  0
LINE
  5
11AE6
  8
0-1
  6
CONTINUOUS
 62
     3
 10
11801.26390057623
 20
17196.276180804489
 30
0.0
 11
13633.148438517081
 21
16440.42671139364
 31
0.0
  0
LINE
  5
11AE7
  8
0-6
  6
CONTINUOUS
 62
     6
 10
8742.4837633850348
 20
16244.381229447659
 30
0.0
 11
9622.4827073850465
 21
16244.381229447659
 31
0.0
  0
LINE
  5
11AE8
  8
0-6
  6
CONTINUOUS
 62
     6
 10
8564.7216260366458
 20
16074.36410177735
 30
0.0
 11
8742.4837633850348
 21
16244.381229447659
 31
0.0
  0
LINE
  5
11AE9
  8
0-6
  6
CONTINUOUS
 62
     6
 10
8449.0939860366561
 20
15963.77433777734
 30
0.0
 11
8546.2913180366595
 21
16093.636694777349
 31
0.0
  0
LINE
  5
11AEA
  8
0-6
  6
CONTINUOUS
 62
     6
 10
8583.1529230366414
 20
16055.09150877735
 30
0.0
 11
8449.0939860366561
 21
15963.77433777734
 31
0.0
  0
LINE
  5
11AEB
  8
0-6
  6
CONTINUOUS
 62
     6
 10
8583.1529230366414
 20
16055.09150877735
 30
0.0
 11
8546.2913180366595
 21
16093.636694777349
 31
0.0
  0
TEXT
  5
11AEC
  8
0-6
  6
CONTINUOUS
 62
     7
 10
8822.4850173850409
 20
16324.38149344767
 30
0.0
 40
160.0
  1
ブレース
 72
     4
 11
9185.1516840517088
 21
16409.714826781012
 31
0.0
  0
LINE
  5
11AED
  8
0-6
  6
CONTINUOUS
 62
     6
 10
9539.835208448565
 20
16784.988192000001
 30
0.0
 11
9420.5375901162115
 21
17100.58053000001
 31
0.0
  0
LINE
  5
11AEE
  8
0-6
  6
CONTINUOUS
 62
     6
 10
8619.9668291162197
 20
17100.58053000001
 30
0.0
 11
9420.5375901162115
 21
17100.58053000001
 31
0.0
  0
TEXT
  5
11AEF
  8
0-6
  6
CONTINUOUS
 62
     7
 10
8700.5371941162084
 20
17180.580794000001
 30
0.0
 40
160.0
  1
桁（中）
 72
     4
 11
9020.5371941162084
 21
17260.580794000001
 31
0.0
  0
LINE
  5
11AF0
  8
0-6
  6
CONTINUOUS
 62
     6
 10
11207.49245085415
 20
14408.81663071139
 30
0.0
 11
12087.491394854171
 21
14408.81663071139
 31
0.0
  0
LINE
  5
11AF1
  8
0-6
  6
CONTINUOUS
 62
     6
 10
12455.23310042879
 20
14876.66493734456
 30
0.0
 11
12087.491394854171
 21
14408.81663071139
 31
0.0
  0
TEXT
  5
11AF2
  8
0-6
  6
CONTINUOUS
 62
     7
 10
11287.493704854171
 20
14488.816894711381
 30
0.0
 40
160.0
  1
ブレース
 72
     4
 11
11650.16037152084
 21
14574.15022804472
 31
0.0
  0
LINE
  5
11AF3
  8
0-6
  6
CONTINUOUS
 62
     6
 10
11452.94422019639
 20
16153.814839600391
 30
0.0
 11
12245.79515761909
 21
16153.814839600391
 31
0.0
  0
TEXT
  5
11AF4
  8
0-6
  6
CONTINUOUS
 62
     7
 10
11535.56397904995
 20
16233.81510360038
 30
0.0
 40
160.0
  1
桁（P）
 72
     4
 11
11839.56397904995
 21
16313.81510360038
 31
0.0
  0
LINE
  5
11AF5
  8
0-6
  6
CONTINUOUS
 62
     6
 10
11452.94422019639
 20
16153.814839600391
 30
0.0
 11
11137.652969581821
 21
16684.985315999991
 31
0.0
  0
LINE
  5
11AF6
  8
2-0
  6
DASHED3
 62
     6
 10
13117.97818217253
 20
16652.98987072461
 30
0.0
 11
13198.062841585939
 21
16729.985711000001
 31
0.0
  0
LINE
  5
11AFC
  8
SUNPOU
  6
CONTINUOUS
 10
6620.5630655859559
 20
19519.98359950001
 30
0.0
 11
6620.5630655859559
 21
20316.950867278461
 31
0.0
  0
LINE
  5
11AFD
  8
SUNPOU
  6
CONTINUOUS
 10
6620.5630655859422
 20
13228.673846847811
 30
0.0
 11
6620.5630655859422
 21
13969.98643699999
 31
0.0
  0
LINE
  5
11AFE
  8
0-1
  6
CONTINUOUS
 62
     3
 10
8581.505060703159
 20
8152.2344180000064
 30
0.0
 11
8581.505060703159
 21
6291.1885390000007
 31
0.0
  0
LINE
  5
11AFF
  8
0-1
  6
CONTINUOUS
 62
     3
 10
8544.5068687031599
 20
8152.2344180000064
 30
0.0
 11
8544.5068687031599
 21
6291.1885390000007
 31
0.0
  0
LINE
  5
11B00
  8
0-1
  6
CONTINUOUS
 62
     3
 10
9281.504400703152
 20
8152.2344180000064
 30
0.0
 11
9281.504400703152
 21
6291.1885390000007
 31
0.0
  0
LINE
  5
11B01
  8
0-1
  6
CONTINUOUS
 62
     3
 10
9244.5062087031547
 20
8152.2344180000064
 30
0.0
 11
9244.5062087031547
 21
6291.1885390000007
 31
0.0
  0
LINE
  5
11B02
  8
0-1
  6
CONTINUOUS
 62
     3
 10
8903.0046117031452
 20
6291.1885390000007
 30
0.0
 11
8903.0046117031452
 21
8152.2344180000064
 31
0.0
  0
LINE
  5
11B03
  8
0-1
  6
CONTINUOUS
 62
     3
 10
8923.0056677031607
 20
6291.1885390000007
 30
0.0
 11
8923.0056677031607
 21
8152.2344180000064
 31
0.0
  0
LINE
  5
11B04
  8
0-1
  6
CONTINUOUS
 62
     3
 10
8853.0059317031555
 20
6291.1885390000007
 30
0.0
 11
8853.0059317031555
 21
8152.2344180000064
 31
0.0
  0
LINE
  5
11B05
  8
0-1
  6
CONTINUOUS
 62
     3
 10
8973.0053377031581
 20
6291.1885390000007
 30
0.0
 11
8973.0053377031581
 21
8152.2344180000064
 31
0.0
  0
LINE
  5
11B06
  8
0-1
  6
CONTINUOUS
 62
     3
 10
9106.0052317031514
 20
6291.1885390000007
 30
0.0
 11
9106.0052317031514
 21
8152.2344180000064
 31
0.0
  0
LINE
  5
11B07
  8
0-1
  6
CONTINUOUS
 62
     3
 10
9121.0050337031553
 20
6291.1885390000007
 30
0.0
 11
9121.0050337031553
 21
8152.2344180000064
 31
0.0
  0
LINE
  5
11B08
  8
0-1
  6
CONTINUOUS
 62
     3
 10
8720.0050467031542
 20
6291.1885390000007
 30
0.0
 11
8720.0050467031542
 21
8152.2344180000064
 31
0.0
  0
LINE
  5
11B09
  8
0-1
  6
CONTINUOUS
 62
     3
 10
8705.0062347031635
 20
6291.1885390000007
 30
0.0
 11
8705.0062347031635
 21
8152.2344180000064
 31
0.0
  0
LINE
  5
11B0A
  8
0-1
  6
CONTINUOUS
 62
     3
 10
8421.0056937031623
 20
6291.1885390000007
 30
0.0
 11
8421.0056937031623
 21
8152.2344180000064
 31
0.0
  0
LINE
  5
11B0B
  8
0-1
  6
CONTINUOUS
 62
     3
 10
8406.0049017031542
 20
6291.1885390000007
 30
0.0
 11
8406.0049017031542
 21
8152.2344180000064
 31
0.0
  0
LINE
  5
11B0C
  8
0-1
  6
CONTINUOUS
 62
     3
 10
8273.0059977031488
 20
6291.1885390000007
 30
0.0
 11
8273.0059977031488
 21
8152.2344180000064
 31
0.0
  0
LINE
  5
11B0D
  8
0-1
  6
CONTINUOUS
 62
     3
 10
8153.0046117031579
 20
6291.1885390000007
 30
0.0
 11
8153.0046117031579
 21
8152.2344180000064
 31
0.0
  0
LINE
  5
11B0E
  8
0-1
  6
CONTINUOUS
 62
     3
 10
8223.0073167031642
 20
6291.1885390000007
 30
0.0
 11
8223.0073167031642
 21
8152.2344180000064
 31
0.0
  0
LINE
  5
11B0F
  8
0-1
  6
CONTINUOUS
 62
     3
 10
8203.0062617031672
 20
6291.1885390000007
 30
0.0
 11
8203.0062617031672
 21
8152.2344180000064
 31
0.0
  0
LINE
  5
11B10
  8
0-1
  6
CONTINUOUS
 62
     3
 10
9405.004585703151
 20
6291.1885390000007
 30
0.0
 11
9405.004585703151
 21
8152.2344180000064
 31
0.0
  0
LINE
  5
11B11
  8
0-1
  6
CONTINUOUS
 62
     3
 10
9420.0053767031641
 20
6291.1885390000007
 30
0.0
 11
9420.0053767031641
 21
8152.2344180000064
 31
0.0
  0
LINE
  5
11B12
  8
0-1
  6
CONTINUOUS
 62
     3
 10
9553.0062617031635
 20
6291.1885390000007
 30
0.0
 11
9553.0062617031635
 21
8152.2344180000064
 31
0.0
  0
LINE
  5
11B13
  8
0-1
  6
CONTINUOUS
 62
     3
 10
9821.0053637031597
 20
6291.1885390000007
 30
0.0
 11
9821.0053637031597
 21
8152.2344180000064
 31
0.0
  0
LINE
  5
11B14
  8
0-1
  6
CONTINUOUS
 62
     3
 10
9806.0065517031635
 20
6291.1885390000007
 30
0.0
 11
9806.0065517031635
 21
8152.2344180000064
 31
0.0
  0
LINE
  5
11B15
  8
0-1
  6
CONTINUOUS
 62
     3
 10
9673.0056677031516
 20
6291.1885390000007
 30
0.0
 11
9673.0056677031516
 21
8152.2344180000064
 31
0.0
  0
LINE
  5
11B16
  8
0-1
  6
CONTINUOUS
 62
     3
 10
9623.0059977031488
 20
6291.1885390000007
 30
0.0
 11
9623.0059977031488
 21
8152.2344180000064
 31
0.0
  0
LINE
  5
11B17
  8
0-1
  6
CONTINUOUS
 62
     3
 10
9603.0069207031647
 20
6291.1885390000007
 30
0.0
 11
9603.0069207031647
 21
8152.2344180000064
 31
0.0
  0
LINE
  5
11B18
  8
0-1
  6
CONTINUOUS
 62
     3
 10
10431.005891703149
 20
6291.1885390000007
 30
0.0
 11
10431.005891703149
 21
8152.2344180000064
 31
0.0
  0
LINE
  5
11B19
  8
0-1
  6
CONTINUOUS
 62
     3
 10
10411.006815703149
 20
6291.1885390000007
 30
0.0
 11
10411.006815703149
 21
8152.2344180000064
 31
0.0
  0
LINE
  5
11B1A
  8
0-1
  6
CONTINUOUS
 62
     3
 10
10481.00655170314
 20
6291.1885390000007
 30
0.0
 11
10481.00655170314
 21
8152.2344180000064
 31
0.0
  0
LINE
  5
11B1B
  8
0-1
  6
CONTINUOUS
 62
     3
 10
10361.006155703149
 20
6291.1885390000007
 30
0.0
 11
10361.006155703149
 21
8152.2344180000064
 31
0.0
  0
LINE
  5
11B1C
  8
0-1
  6
CONTINUOUS
 62
     3
 10
10228.006261703151
 20
6291.1885390000007
 30
0.0
 11
10228.006261703151
 21
8152.2344180000064
 31
0.0
  0
LINE
  5
11B1D
  8
0-1
  6
CONTINUOUS
 62
     3
 10
10213.004479703141
 20
6291.1885390000007
 30
0.0
 11
10213.004479703141
 21
8152.2344180000064
 31
0.0
  0
LINE
  5
11B1E
  8
0-1
  6
CONTINUOUS
 62
     3
 10
10614.00644570314
 20
6291.1885390000007
 30
0.0
 11
10614.00644570314
 21
8152.2344180000064
 31
0.0
  0
LINE
  5
11B1F
  8
0-1
  6
CONTINUOUS
 62
     3
 10
10629.005258703161
 20
6291.1885390000007
 30
0.0
 11
10629.005258703161
 21
8152.2344180000064
 31
0.0
  0
LINE
  5
11B20
  8
0-1
  6
CONTINUOUS
 62
     3
 10
12313.00546970313
 20
6291.1885390000007
 30
0.0
 11
12313.00546970313
 21
8152.2344180000064
 31
0.0
  0
LINE
  5
11B21
  8
0-1
  6
CONTINUOUS
 62
     3
 10
12328.00527170315
 20
6291.1885390000007
 30
0.0
 11
12328.00527170315
 21
8152.2344180000064
 31
0.0
  0
LINE
  5
11B22
  8
0-1
  6
CONTINUOUS
 62
     3
 10
11831.00655170316
 20
6291.1885390000007
 30
0.0
 11
11831.00655170316
 21
8152.2344180000064
 31
0.0
  0
LINE
  5
11B23
  8
0-1
  6
CONTINUOUS
 62
     3
 10
11811.00549570317
 20
6291.1885390000007
 30
0.0
 11
11811.00549570317
 21
8152.2344180000064
 31
0.0
  0
LINE
  5
11B24
  8
0-1
  6
CONTINUOUS
 62
     3
 10
11881.00523170315
 20
6291.1885390000007
 30
0.0
 11
11881.00523170315
 21
8152.2344180000064
 31
0.0
  0
LINE
  5
11B25
  8
0-1
  6
CONTINUOUS
 62
     3
 10
11761.006815703149
 20
6291.1885390000007
 30
0.0
 11
11761.006815703149
 21
8152.2344180000064
 31
0.0
  0
LINE
  5
11B26
  8
0-1
  6
CONTINUOUS
 62
     3
 10
11628.00593170315
 20
6291.1885390000007
 30
0.0
 11
11628.00593170315
 21
8152.2344180000064
 31
0.0
  0
LINE
  5
11B27
  8
0-1
  6
CONTINUOUS
 62
     3
 10
11613.006129703141
 20
6291.1885390000007
 30
0.0
 11
11613.006129703141
 21
8152.2344180000064
 31
0.0
  0
LINE
  5
11B28
  8
0-1
  6
CONTINUOUS
 62
     3
 10
12014.004136703161
 20
6291.1885390000007
 30
0.0
 11
12014.004136703161
 21
8152.2344180000064
 31
0.0
  0
LINE
  5
11B29
  8
0-1
  6
CONTINUOUS
 62
     3
 10
12029.005917703151
 20
6291.1885390000007
 30
0.0
 11
12029.005917703151
 21
8152.2344180000064
 31
0.0
  0
LINE
  5
11B2A
  8
0-1
  6
CONTINUOUS
 62
     3
 10
11329.00657770314
 20
6291.1885390000007
 30
0.0
 11
11329.00657770314
 21
8152.2344180000064
 31
0.0
  0
LINE
  5
11B2B
  8
0-1
  6
CONTINUOUS
 62
     3
 10
11314.004796703141
 20
6291.1885390000007
 30
0.0
 11
11314.004796703141
 21
8152.2344180000064
 31
0.0
  0
LINE
  5
11B2C
  8
0-1
  6
CONTINUOUS
 62
     3
 10
10913.00678870316
 20
6291.1885390000007
 30
0.0
 11
10913.00678870316
 21
8152.2344180000064
 31
0.0
  0
LINE
  5
11B2D
  8
0-1
  6
CONTINUOUS
 62
     3
 10
10928.00560170314
 20
6291.1885390000007
 30
0.0
 11
10928.00560170314
 21
8152.2344180000064
 31
0.0
  0
LINE
  5
11B2E
  8
0-1
  6
CONTINUOUS
 62
     3
 10
11061.004505703149
 20
6291.1885390000007
 30
0.0
 11
11061.004505703149
 21
8152.2344180000064
 31
0.0
  0
LINE
  5
11B2F
  8
0-1
  6
CONTINUOUS
 62
     3
 10
11181.00589170314
 20
6291.1885390000007
 30
0.0
 11
11181.00589170314
 21
8152.2344180000064
 31
0.0
  0
LINE
  5
11B30
  8
0-1
  6
CONTINUOUS
 62
     3
 10
11111.00615570314
 20
6291.1885390000007
 30
0.0
 11
11111.00615570314
 21
8152.2344180000064
 31
0.0
  0
LINE
  5
11B31
  8
0-1
  6
CONTINUOUS
 62
     3
 10
11131.00523170315
 20
6291.1885390000007
 30
0.0
 11
11131.00523170315
 21
8152.2344180000064
 31
0.0
  0
LINE
  5
11B32
  8
0-1
  6
CONTINUOUS
 62
     3
 10
10789.50660470316
 20
8152.2344180000064
 30
0.0
 11
10789.50660470316
 21
6291.1885390000007
 31
0.0
  0
LINE
  5
11B33
  8
0-1
  6
CONTINUOUS
 62
     3
 10
10752.50544270315
 20
8152.2344180000064
 30
0.0
 11
10752.50544270315
 21
6291.1885390000007
 31
0.0
  0
LINE
  5
11B34
  8
0-1
  6
CONTINUOUS
 62
     3
 10
12189.504294703151
 20
8152.2344180000064
 30
0.0
 11
12189.504294703151
 21
6291.1885390000007
 31
0.0
  0
LINE
  5
11B35
  8
0-1
  6
CONTINUOUS
 62
     3
 10
12152.50511270314
 20
8152.2344180000064
 30
0.0
 11
12152.50511270314
 21
6291.1885390000007
 31
0.0
  0
LINE
  5
11B36
  8
0-1
  6
CONTINUOUS
 62
     3
 10
11489.505944703151
 20
8152.2344180000064
 30
0.0
 11
11489.505944703151
 21
6291.1885390000007
 31
0.0
  0
LINE
  5
11B37
  8
0-1
  6
CONTINUOUS
 62
     3
 10
11452.50577270316
 20
8152.2344180000064
 30
0.0
 11
11452.50577270316
 21
6291.1885390000007
 31
0.0
  0
LINE
  5
11B38
  8
0-1
  6
CONTINUOUS
 62
     3
 10
12639.505416703139
 20
6241.1883740000021
 30
0.0
 11
12639.505416703139
 21
6141.1885390000007
 31
0.0
  0
LINE
  5
11B39
  8
0-1
  6
CONTINUOUS
 62
     3
 10
12607.00462570315
 20
8455.5174490000027
 30
0.0
 11
12607.00462570315
 21
6241.1883740000021
 31
0.0
  0
LINE
  5
11B3A
  8
0-1
  6
CONTINUOUS
 62
     3
 10
12627.005416703139
 20
8456.0984379999973
 30
0.0
 11
12627.005416703139
 21
6241.1883740000021
 31
0.0
  0
LINE
  5
11B3B
  8
0-1
  6
CONTINUOUS
 62
     3
 10
12512.00554870314
 20
8152.2344180000064
 30
0.0
 11
12512.00554870314
 21
6241.1883740000021
 31
0.0
  0
LINE
  5
11B3C
  8
0-1
  6
CONTINUOUS
 62
     3
 10
10017.005416703139
 20
8356.9898809999977
 30
0.0
 11
10017.005416703139
 21
8152.2344180000064
 31
0.0
  0
LINE
  5
11B3D
  8
0-1
  6
CONTINUOUS
 62
     3
 10
9944.5055487031641
 20
8152.2344180000064
 30
0.0
 11
9944.5055487031641
 21
6241.1883740000021
 31
0.0
  0
LINE
  5
11B3E
  8
0-1
  6
CONTINUOUS
 62
     3
 10
10089.50429470314
 20
8152.2344180000064
 30
0.0
 11
10089.50429470314
 21
6241.1883740000021
 31
0.0
  0
LINE
  5
11B3F
  8
0-1
  6
CONTINUOUS
 62
     3
 10
10089.50429470314
 20
6291.1885390000007
 30
0.0
 11
12512.00554870314
 21
6291.1885390000007
 31
0.0
  0
LINE
  5
11B40
  8
0-1
  6
CONTINUOUS
 62
     3
 10
7399.5054167031458
 20
6141.1885390000007
 30
0.0
 11
7399.5054167031458
 21
6241.1883740000021
 31
0.0
  0
LINE
  5
11B41
  8
0-1
  6
CONTINUOUS
 62
     3
 10
7427.0052187031542
 20
8268.990877000002
 30
0.0
 11
7427.0052187031542
 21
6241.1883740000021
 31
0.0
  0
LINE
  5
11B42
  8
0-1
  6
CONTINUOUS
 62
     3
 10
7407.0054167031503
 20
8268.3741496838102
 30
0.0
 11
7407.0054167031503
 21
6241.1883740000021
 31
0.0
  0
LINE
  5
11B43
  8
0-1
  6
CONTINUOUS
 62
     3
 10
7399.5054167031458
 20
6241.1883740000021
 30
0.0
 11
12639.505416703139
 21
6241.1883740000021
 31
0.0
  0
LINE
  5
11B44
  8
0-1
  6
CONTINUOUS
 62
     3
 10
7522.0042957031546
 20
6291.1885390000007
 30
0.0
 11
9944.5055487031641
 21
6291.1885390000007
 31
0.0
  0
LINE
  5
11B45
  8
0-1
  6
CONTINUOUS
 62
     3
 10
6717.0043617031479
 20
6141.1885390000007
 30
0.0
 11
12639.505416703139
 21
6141.1885390000007
 31
0.0
  0
LINE
  5
11B46
  8
0-1
  6
CONTINUOUS
 62
     3
 10
7427.0052187031542
 20
8152.2344180000064
 30
0.0
 11
12607.00462570315
 21
8152.2344180000064
 31
0.0
  0
LINE
  5
11B47
  8
0-1
  6
CONTINUOUS
 62
     3
 10
7232.7035927031557
 20
8303.1736990000027
 30
0.0
 11
12712.69508170315
 21
8498.6897600000066
 31
0.0
  0
LINE
  5
11B48
  8
0-1
  6
CONTINUOUS
 62
     3
 10
12711.19460670314
 20
8548.6686450000016
 30
0.0
 11
7231.2041077031454
 21
8353.151595000003
 31
0.0
  0
LINE
  5
11B49
  8
0-1
  6
CONTINUOUS
 62
     3
 10
7228.1140797031549
 20
8356.0604969999968
 30
0.0
 11
7227.1540127031449
 21
8388.0460529999982
 31
0.0
  0
LINE
  5
11B4A
  8
0-1
  6
CONTINUOUS
 62
     3
 10
7232.0028437031579
 20
8393.1932959999976
 30
0.0
 11
12730.96405870315
 21
8589.2804480000032
 31
0.0
  0
LINE
  5
11B4B
  8
0-1
  6
CONTINUOUS
 62
     3
 10
12734.86865870315
 20
8459.338910000004
 30
0.0
 11
7235.903484703158
 21
8263.2522529999969
 31
0.0
  0
LINE
  5
11B4C
  8
0-1
  6
CONTINUOUS
 62
     3
 10
7230.7557467031602
 20
8268.099599000001
 30
0.0
 11
7229.7966697031497
 21
8300.0856499999973
 31
0.0
  0
LINE
  5
11B4D
  8
0-1
  6
CONTINUOUS
 62
     3
 10
7229.4651007031498
 20
8311.0803909999977
 30
0.0
 11
7228.4446587031571
 21
8345.0647660000086
 31
0.0
  0
LINE
  5
11B4E
  8
0-1
  6
CONTINUOUS
 62
     3
 10
7231.3535617031584
 20
8348.1538049999999
 30
0.0
 11
12711.346039703139
 21
8543.6713500000023
 31
0.0
  0
LINE
  5
11B4F
  8
0-1
  6
CONTINUOUS
 62
     3
 10
12712.54562770315
 20
8503.6880440000004
 30
0.0
 11
7232.5551297031498
 21
8308.1719839999969
 31
0.0
  0
LINE
  5
11B50
  8
0-1
  6
CONTINUOUS
 62
     3
 10
10017.005416703139
 20
8356.9898809999977
 30
0.0
 11
10013.102795703149
 21
8486.9314189999968
 31
0.0
  0
LINE
  5
11B51
  8
0-1
  6
CONTINUOUS
 62
     3
 10
12701.90175670315
 20
8458.3481610000017
 30
0.0
 11
12698.000125703151
 21
8588.2896989999972
 31
0.0
  0
LINE
  5
11B52
  8
0-1
  6
CONTINUOUS
 62
     3
 10
7244.4955857031518
 20
8393.5684149999979
 30
0.0
 11
7248.3982067031557
 21
8263.6273720000008
 31
0.0
  0
LINE
  5
11B53
  8
0-5
  6
CONTINUOUS
 62
     4
 10
14344.590404703151
 20
6241.1883740000021
 30
0.0
 11
14464.59080070315
 21
6449.0353509999959
 31
0.0
  0
LINE
  5
11B54
  8
0-5
  6
CONTINUOUS
 62
     4
 10
14224.591987703139
 20
6449.0353509999959
 30
0.0
 11
14344.590404703151
 21
6241.1883740000021
 31
0.0
  0
LINE
  5
11B55
  8
0-5
  6
CONTINUOUS
 62
     4
 10
14464.59080070315
 20
6449.0353509999959
 30
0.0
 11
14224.591987703139
 21
6449.0353509999959
 31
0.0
  0
LINE
  5
11B56
  8
0-5
  6
CONTINUOUS
 62
     4
 10
12719.50271170314
 20
6241.1883740000021
 30
0.0
 11
14436.96859770314
 21
6241.1883740000021
 31
0.0
  0
LINE
  5
11B57
  8
0-5
  6
CONTINUOUS
 62
     4
 10
12719.50271170314
 20
6141.1885390000007
 30
0.0
 11
20544.28101581736
 21
6141.1885390000007
 31
0.0
  0
LINE
  5
11B58
  8
0-5
  6
CONTINUOUS
 62
     4
 10
12584.505416703139
 20
4461.1889349999938
 30
0.0
 11
12584.505416703139
 21
4301.1893970000001
 31
0.0
  0
LINE
  5
11B59
  8
0-5
  6
CONTINUOUS
 62
     4
 10
10017.005416703139
 20
4461.1889349999938
 30
0.0
 11
10017.005416703139
 21
4301.1893970000001
 31
0.0
  0
LINE
  5
11B5A
  8
0-5
  6
CONTINUOUS
 62
     4
 10
7449.5054167031458
 20
4461.1889349999938
 30
0.0
 11
7449.5054167031458
 21
4301.1893970000001
 31
0.0
  0
LINE
  5
11B5B
  8
2-0
  6
CENTER2
 62
     6
 10
12584.505416703139
 20
5878.536116000002
 30
0.0
 11
12584.505416703139
 21
6935.6787139999988
 31
0.0
  0
LINE
  5
11B5C
  8
2-0
  6
CENTER2
 62
     6
 10
10017.005416703139
 20
5878.536116000002
 30
0.0
 11
10017.005416703139
 21
6935.6787139999988
 31
0.0
  0
LINE
  5
11B5D
  8
2-0
  6
CENTER2
 62
     6
 10
7449.5054167031458
 20
5878.536116000002
 30
0.0
 11
7449.5054167031458
 21
6935.6787139999988
 31
0.0
  0
ARC
  5
11B5E
  8
0-1
  6
CONTINUOUS
 62
     3
 10
12711.944843703141
 20
8523.680191999998
 30
0.0
 40
24.999998999999999
 50
271.71998600002598
 51
91.719986000025997
  0
ARC
  5
11B5F
  8
0-1
  6
CONTINUOUS
 62
     3
 10
7231.1140397031568
 20
8356.1505650000017
 30
0.0
 40
3.0
 50
181.71998600001291
 51
271.71998600002598
  0
ARC
  5
11B60
  8
0-1
  6
CONTINUOUS
 62
     3
 10
7232.151307703155
 20
8388.1955070000022
 30
0.0
 40
5.0
 50
91.719986000025997
 51
181.71998600001291
  0
ARC
  5
11B61
  8
0-1
  6
CONTINUOUS
 62
     3
 10
12706.94754970314
 20
8523.5297490000066
 30
0.0
 40
69.999999000000003
 50
293.50677499978622
 51
69.93319699990596
  0
ARC
  5
11B62
  8
0-1
  6
CONTINUOUS
 62
     3
 10
7235.7550207031618
 20
8268.2500430000073
 30
0.0
 40
5.0
 50
181.71998600001291
 51
271.71998600002598
  0
ARC
  5
11B63
  8
0-1
  6
CONTINUOUS
 62
     3
 10
7232.7936617031519
 20
8300.1752229999984
 30
0.0
 40
3.0
 50
91.719986000025997
 51
181.71998600001291
  0
ARC
  5
11B64
  8
0-1
  6
CONTINUOUS
 62
     3
 10
7232.7778247031547
 20
8350.697981000003
 30
0.0
 40
2.5
 50
271.71998600002598
 51
91.719986000025997
  0
ARC
  5
11B65
  8
0-1
  6
CONTINUOUS
 62
     3
 10
7234.1278567031568
 20
8305.7178750000003
 30
0.0
 40
2.5
 50
271.71998600002598
 51
91.719986000025997
  0
ARC
  5
11B66
  8
0-1
  6
CONTINUOUS
 62
     3
 10
7231.4436297031498
 20
8345.1553289999974
 30
0.0
 40
3.0
 50
91.719986000025997
 51
181.71998600001291
  0
ARC
  5
11B67
  8
0-1
  6
CONTINUOUS
 62
     3
 10
12711.944843703141
 20
8523.680191999998
 30
0.0
 40
20.0
 50
271.71998600002598
 51
91.719986000025997
  0
ARC
  5
11B68
  8
0-1
  6
CONTINUOUS
 62
     3
 10
7232.4640717031498
 20
8311.1699640000006
 30
0.0
 40
3.0
 50
181.71998600001291
 51
271.71998600002598
  0
CIRCLE
  5
11B69
  8
0-5
  6
CONTINUOUS
 62
     4
 10
10017.005416703139
 20
4101.1882420000011
 30
0.0
 40
199.9999949999999
  0
CIRCLE
  5
11B6A
  8
0-5
  6
CONTINUOUS
 62
     4
 10
12584.505416703139
 20
4101.1882420000011
 30
0.0
 40
199.9999949999999
  0
CIRCLE
  5
11B6B
  8
0-5
  6
CONTINUOUS
 62
     4
 10
7449.5054167031458
 20
4101.1882420000011
 30
0.0
 40
199.9999949999999
  0
TEXT
  5
11B6C
  8
0-5
  6
CONTINUOUS
 62
     7
 10
13885.498475703151
 20
6529.0346249999966
 30
0.0
 40
160.0
  1
布基礎天端
 72
     4
 11
14344.16514236982
 21
6609.0346249999984
 31
0.0
  0
TEXT
  5
11B6D
  8
0-5
  6
CONTINUOUS
 62
     7
 10
12537.549256703151
 20
4017.9774460000021
 30
0.0
 40
160.0
  1
A
 72
     4
 11
12590.88259003649
 21
4097.9774460000026
 31
0.0
  0
TEXT
  5
11B6E
  8
0-5
  6
CONTINUOUS
 62
     7
 10
9970.049256703147
 20
4017.9774460000021
 30
0.0
 40
160.0
  1
B
 72
     4
 11
10023.382590036481
 21
4097.9774460000026
 31
0.0
  0
TEXT
  5
11B6F
  8
0-5
  6
CONTINUOUS
 62
     7
 10
7402.549256703157
 20
4017.9774460000021
 30
0.0
 40
160.0
  1
C
 72
     4
 11
7455.8825900364909
 21
4097.9774460000026
 31
0.0
  0
LINE
  5
11B70
  8
SUNPOU
  6
CONTINUOUS
 10
7227.0054167031494
 20
9389.1900500000029
 30
0.0
 11
6722.2175468097421
 21
9389.1900500000029
 31
0.0
  0
LINE
  5
11B71
  8
0-1
  6
CONTINUOUS
 62
     3
 10
7881.5027507031482
 20
8152.2344180000036
 30
0.0
 11
7881.5027507031482
 21
6291.1885389999989
 31
0.0
  0
LINE
  5
11B72
  8
0-1
  6
CONTINUOUS
 62
     3
 10
7844.5045587031491
 20
8152.2344180000036
 30
0.0
 11
7844.5045587031491
 21
6291.1885389999989
 31
0.0
  0
LINE
  5
11B73
  8
0-1
  6
CONTINUOUS
 62
     3
 10
7706.0035817031458
 20
6291.1885389999989
 30
0.0
 11
7706.0035817031458
 21
8152.2344180000036
 31
0.0
  0
LINE
  5
11B74
  8
0-1
  6
CONTINUOUS
 62
     3
 10
7721.0033837031569
 20
6291.1885389999989
 30
0.0
 11
7721.0033837031569
 21
8152.2344180000036
 31
0.0
  0
LINE
  5
11B75
  8
0-1
  6
CONTINUOUS
 62
     3
 10
8005.0029357031508
 20
6291.1885389999989
 30
0.0
 11
8005.0029357031508
 21
8152.2344180000036
 31
0.0
  0
LINE
  5
11B76
  8
0-1
  6
CONTINUOUS
 62
     3
 10
8020.0037267031566
 20
6291.1885389999989
 30
0.0
 11
8020.0037267031566
 21
8152.2344180000036
 31
0.0
  0
LINE
  5
11B77
  8
0-1
  6
CONTINUOUS
 62
     3
 10
7522.0042957031546
 20
8152.2344180000064
 30
0.0
 11
7522.0042957031546
 21
6241.1883740000021
 31
0.0
  0
LINE
  5
11CD2
  8
2-0
  6
CENTER2
 62
     6
 10
18652.782876817349
 20
19317.986978000001
 30
0.0
 11
19372.781556817361
 21
19317.986978000001
 31
0.0
  0
LINE
  5
11CD3
  8
2-0
  6
CENTER2
 62
     6
 10
19532.781556817361
 20
19317.986978000001
 30
0.0
 11
26717.888635769279
 21
19317.986978000001
 31
0.0
  0
LINE
  5
11CD4
  8
2-0
  6
CENTER2
 62
     6
 10
18652.782876817349
 20
16750.486978000001
 30
0.0
 11
18880.598052428111
 21
16750.486978000001
 31
0.0
  0
LINE
  5
11CD5
  8
2-0
  6
CENTER2
 62
     6
 10
19483.27761304496
 20
16750.486978000001
 30
0.0
 11
26717.888635769279
 21
16750.486978000001
 31
0.0
  0
LINE
  5
11CD6
  8
2-0
  6
CENTER2
 62
     6
 10
18652.782876817349
 20
14182.986978000001
 30
0.0
 11
19372.781556817361
 21
14182.986978000001
 31
0.0
  0
LINE
  5
11CD7
  8
2-0
  6
CENTER2
 62
     6
 10
19532.781556817361
 20
14182.986978000001
 30
0.0
 11
26717.888635769279
 21
14182.986978000001
 31
0.0
  0
CIRCLE
  5
11CD8
  8
0-5
  6
CONTINUOUS
 62
     4
 10
23613.283799817342
 20
21160.487902000001
 30
0.0
 40
199.9999949999999
  0
CIRCLE
  5
11CD9
  8
0-5
  6
CONTINUOUS
 62
     4
 10
18452.78221681737
 20
19317.986978000001
 30
0.0
 40
199.9999949999999
  0
CIRCLE
  5
11CDA
  8
0-5
  6
CONTINUOUS
 62
     4
 10
18452.782216817359
 20
16750.486978000001
 30
0.0
 40
199.9999949999999
  0
CIRCLE
  5
11CDB
  8
0-5
  6
CONTINUOUS
 62
     4
 10
18452.78221681737
 20
14182.986978000001
 30
0.0
 40
199.9999949999999
  0
CIRCLE
  5
11CDC
  8
0-5
  6
CONTINUOUS
 62
     4
 10
20695.283799817349
 20
21160.487902000001
 30
0.0
 40
199.9999949999999
  0
TEXT
  5
11CDD
  8
0-5
  6
CONTINUOUS
 62
     7
 10
23558.61345581734
 20
21074.262051999998
 30
0.0
 40
160.0
  1
2
 72
     4
 11
23611.946789150668
 21
21154.262051999998
 31
0.0
  0
TEXT
  5
11CDE
  8
0-5
  6
CONTINUOUS
 62
     7
 10
20640.61345581734
 20
21074.262051999998
 30
0.0
 40
160.0
  1
1
 72
     4
 11
20667.280122484011
 21
21154.262051999998
 31
0.0
  0
TEXT
  5
11CDF
  8
0-5
  6
CONTINUOUS
 62
     7
 10
18404.105854817371
 20
19226.368919
 30
0.0
 40
160.0
  1
C
 72
     4
 11
18457.4391881507
 21
19306.368919
 31
0.0
  0
TEXT
  5
11CE0
  8
0-5
  6
CONTINUOUS
 62
     7
 10
18404.105854817371
 20
16658.868920000012
 30
0.0
 40
160.0
  1
B
 72
     4
 11
18457.4391881507
 21
16738.868920000012
 31
0.0
  0
TEXT
  5
11CE1
  8
0-5
  6
CONTINUOUS
 62
     7
 10
18404.105854817371
 20
14091.368919
 30
0.0
 40
160.0
  1
A
 72
     4
 11
18457.4391881507
 21
14171.368919
 31
0.0
  0
LINE
  5
11CE2
  8
2-0
  6
CENTER2
 62
     6
 10
26413.283799817349
 20
20960.489221
 30
0.0
 11
26413.283799817349
 21
13825.23309953157
 31
0.0
  0
CIRCLE
  5
11CE3
  8
0-5
  6
CONTINUOUS
 62
     4
 10
26413.283799817349
 20
21160.487902000001
 30
0.0
 40
199.9999949999999
  0
TEXT
  5
11CE4
  8
0-5
  6
CONTINUOUS
 62
     7
 10
26358.613455817351
 20
21074.262051999998
 30
0.0
 40
160.0
  1
3
 72
     4
 11
26411.946789150679
 21
21154.262051999998
 31
0.0
  0
ARC
  5
11CE5
  8
1-後柱P
  6
HIDE-M
 62
     6
 10
26416.883799817359
 20
19249.936978000002
 30
0.0
 40
2.6000000000000001
 50
180.0
 51
270.0
  0
LINE
  5
11CE6
  8
1-後柱P
  6
HIDE-M
 62
     6
 10
26405.283799817349
 20
19247.887587846799
 30
0.0
 11
26405.283799817349
 21
19251.536978
 31
0.0
  0
LINE
  5
11CE7
  8
1-後柱P
  6
HIDE-M
 62
     6
 10
26415.283799817349
 20
19247.887587846799
 30
0.0
 11
26415.283799817349
 21
19251.536978
 31
0.0
  0
LINE
  5
11CE8
  8
1-後柱P
  6
1PL-M
 62
     6
 10
26410.283799817342
 20
19242.33697800001
 30
0.0
 11
26410.283799817342
 21
19256.536978
 31
0.0
  0
ARC
  5
11CE9
  8
1-後柱P
  6
HIDE-M
 62
     6
 10
26403.683799817351
 20
19249.936978000002
 30
0.0
 40
2.6000000000000001
 50
270.0
 51
0.0
  0
LINE
  5
11CEA
  8
1-後柱P
  6
HIDE-M
 62
     6
 10
26414.283799817342
 20
19249.936978000002
 30
0.0
 11
26414.283799817342
 21
19251.536978
 31
0.0
  0
LINE
  5
11CEB
  8
1-後柱P
  6
HIDE-M
 62
     6
 10
26406.283799817342
 20
19249.936978000002
 30
0.0
 11
26406.283799817342
 21
19251.536978
 31
0.0
  0
LINE
  5
11CEC
  8
1-後柱P
 10
26424.183799817361
 20
19362.236978000001
 30
0.0
 11
26402.383799817351
 21
19362.236978000001
 31
0.0
  0
LINE
  5
11CED
  8
1-後柱P
 10
26372.383799817351
 20
19324.936978000002
 30
0.0
 11
26372.383799817351
 21
19332.236978000001
 31
0.0
  0
ARC
  5
11CEE
  8
1-後柱P
 10
26402.383799817351
 20
19332.236978000001
 30
0.0
 40
30.0
 50
90.0
 51
180.0
  0
ARC
  5
11CEF
  8
1-後柱P
 10
26402.383799817351
 20
19332.236978000001
 30
0.0
 40
31.600000000000001
 50
90.0
 51
180.0
  0
LINE
  5
11CF0
  8
1-後柱P
 10
26424.183799817361
 20
19363.83697800001
 30
0.0
 11
26402.383799817351
 21
19363.83697800001
 31
0.0
  0
LINE
  5
11CF1
  8
1-後柱P
 10
26370.783799817349
 20
19324.936978000002
 30
0.0
 11
26370.783799817349
 21
19332.236978000001
 31
0.0
  0
LINE
  5
11CF2
  8
1-後柱P
 10
26393.783799817349
 20
19303.33697800001
 30
0.0
 11
26393.783799817349
 21
19313.33697800001
 31
0.0
  0
LINE
  5
11CF3
  8
1-後柱P
 10
26395.383799817351
 20
19313.33697800001
 30
0.0
 11
26395.383799817351
 21
19303.33697800001
 31
0.0
  0
LINE
  5
11CF4
  8
1-後柱P
 10
26454.183799817361
 20
19324.936978000002
 30
0.0
 11
26454.183799817361
 21
19332.236978000001
 31
0.0
  0
ARC
  5
11CF5
  8
1-後柱P
 10
26424.183799817361
 20
19332.236978000001
 30
0.0
 40
30.0
 50
0.0
 51
90.0
  0
ARC
  5
11CF6
  8
1-後柱P
 10
26424.183799817361
 20
19332.236978000001
 30
0.0
 40
31.600000000000001
 50
0.0
 51
90.0
  0
LINE
  5
11CF7
  8
1-後柱P
 10
26455.783799817342
 20
19324.936978000002
 30
0.0
 11
26455.783799817342
 21
19332.236978000001
 31
0.0
  0
LINE
  5
11CF8
  8
1-後柱P
 10
26449.183799817351
 20
19318.33697800001
 30
0.0
 11
26437.783799817349
 21
19318.33697800001
 31
0.0
  0
ARC
  5
11CF9
  8
1-後柱P
 10
26449.183799817351
 20
19324.936978000002
 30
0.0
 40
6.599999999999997
 50
270.0
 51
0.0
  0
ARC
  5
11CFA
  8
1-後柱P
 10
26437.783799817349
 20
19313.33697800001
 30
0.0
 40
5.0
 50
90.0
 51
180.0
  0
LINE
  5
11CFB
  8
1-後柱P
 10
26449.183799817351
 20
19319.936978000002
 30
0.0
 11
26437.783799817349
 21
19319.936978000002
 31
0.0
  0
ARC
  5
11CFC
  8
1-後柱P
 10
26449.183799817351
 20
19324.936978000002
 30
0.0
 40
5.0
 50
270.0
 51
0.0
  0
LINE
  5
11CFD
  8
1-後柱P
 10
26432.783799817342
 20
19313.33697800001
 30
0.0
 11
26432.783799817342
 21
19253.936978000002
 31
0.0
  0
LINE
  5
11CFE
  8
1-後柱P
 10
26431.183799817351
 20
19313.33697800001
 30
0.0
 11
26431.183799817351
 21
19253.936978000002
 31
0.0
  0
ARC
  5
11CFF
  8
1-後柱P
 10
26437.783799817349
 20
19313.33697800001
 30
0.0
 40
6.599999999999997
 50
90.0
 51
180.0
  0
LINE
  5
11D00
  8
1-後柱P
 10
26426.183799817351
 20
19247.33697800001
 30
0.0
 11
26392.783799817342
 21
19247.33697800001
 31
0.0
  0
ARC
  5
11D01
  8
1-後柱P
 10
26426.183799817351
 20
19253.936978000002
 30
0.0
 40
6.599999999999997
 50
270.0
 51
0.0
  0
LINE
  5
11D02
  8
1-後柱P
 10
26426.183799817351
 20
19248.936978000002
 30
0.0
 11
26392.783799817342
 21
19248.936978000002
 31
0.0
  0
ARC
  5
11D03
  8
1-後柱P
 10
26426.183799817351
 20
19253.936978000002
 30
0.0
 40
5.0
 50
270.0
 51
0.0
  0
LINE
  5
11D04
  8
1-後柱P
 10
26392.783799817342
 20
19248.936978000002
 30
0.0
 11
26392.783799817342
 21
19247.33697800001
 31
0.0
  0
LINE
  5
11D05
  8
1-後柱P
 10
26377.383799817351
 20
19318.33697800001
 30
0.0
 11
26388.783799817349
 21
19318.33697800001
 31
0.0
  0
ARC
  5
11D06
  8
1-後柱P
 10
26377.383799817351
 20
19324.936978000002
 30
0.0
 40
6.599999999999997
 50
180.0
 51
270.0
  0
ARC
  5
11D07
  8
1-後柱P
 10
26388.783799817349
 20
19313.33697800001
 30
0.0
 40
5.0
 50
0.0
 51
90.0
  0
LINE
  5
11D08
  8
1-後柱P
 10
26388.783799817349
 20
19319.936978000002
 30
0.0
 11
26377.383799817351
 21
19319.936978000002
 31
0.0
  0
ARC
  5
11D09
  8
1-後柱P
 10
26388.783799817349
 20
19313.33697800001
 30
0.0
 40
6.599999999999997
 50
0.0
 51
90.0
  0
ARC
  5
11D0A
  8
1-後柱P
 10
26377.383799817351
 20
19324.936978000002
 30
0.0
 40
5.0
 50
180.0
 51
270.0
  0
LINE
  5
11D0B
  8
1-後柱P
 10
26393.783799817349
 20
19303.33697800001
 30
0.0
 11
26395.383799817351
 21
19303.33697800001
 31
0.0
  0
LINE
  5
11D0C
  8
1-後柱カバ-P
 10
26370.783799817349
 20
19311.636977999999
 30
0.0
 11
26370.783799817349
 21
19252.33697800001
 31
0.0
  0
ARC
  5
11D0D
  8
1-後柱カバ-P
 10
26377.383799817351
 20
19252.33697800001
 30
0.0
 40
6.599999999999997
 50
180.0
 51
270.0
  0
LINE
  5
11D0E
  8
1-後柱カバ-P
 10
26372.383799817351
 20
19311.636977999999
 30
0.0
 11
26372.383799817351
 21
19252.33697800001
 31
0.0
  0
ARC
  5
11D0F
  8
1-後柱カバ-P
 10
26377.383799817351
 20
19311.636977999999
 30
0.0
 40
5.0
 50
90.0
 51
180.0
  0
LINE
  5
11D10
  8
1-後柱カバ-P
 10
26377.383799817351
 20
19245.736978000001
 30
0.0
 11
26449.183799817351
 21
19245.736978000001
 31
0.0
  0
ARC
  5
11D11
  8
1-後柱カバ-P
 10
26449.183799817351
 20
19252.33697800001
 30
0.0
 40
6.599999999999997
 50
270.0
 51
0.0
  0
LINE
  5
11D12
  8
1-後柱カバ-P
 10
26377.383799817351
 20
19247.33697800001
 30
0.0
 11
26449.183799817351
 21
19247.33697800001
 31
0.0
  0
ARC
  5
11D13
  8
1-後柱カバ-P
 10
26449.183799817351
 20
19252.33697800001
 30
0.0
 40
5.0
 50
270.0
 51
0.0
  0
ARC
  5
11D14
  8
1-後柱カバ-P
 10
26377.383799817351
 20
19252.33697800001
 30
0.0
 40
5.0
 50
180.0
 51
270.0
  0
LINE
  5
11D15
  8
1-後柱カバ-P
 10
26455.783799817342
 20
19252.33697800001
 30
0.0
 11
26455.783799817342
 21
19311.636977999999
 31
0.0
  0
LINE
  5
11D16
  8
1-後柱カバ-P
 10
26454.183799817361
 20
19252.33697800001
 30
0.0
 11
26454.183799817361
 21
19311.636977999999
 31
0.0
  0
ARC
  5
11D17
  8
1-後柱カバ-P
 10
26449.183799817351
 20
19311.636977999999
 30
0.0
 40
5.0
 50
0.0
 51
90.0
  0
LINE
  5
11D18
  8
1-後柱カバ-P
  6
1PL-M
 62
     6
 10
26413.283799817349
 20
19253.236978000001
 30
0.0
 11
26413.283799817349
 21
19240.236978000001
 31
0.0
  0
LINE
  5
11D19
  8
1-後柱カバ-P
  6
HIDE-M
 62
     6
 10
26406.283799817342
 20
19245.736978000001
 30
0.0
 11
26406.283799817342
 21
19247.33697800001
 31
0.0
  0
LINE
  5
11D1A
  8
1-後柱カバ-P
  6
HIDE-M
 62
     6
 10
26420.283799817349
 20
19245.736978000001
 30
0.0
 11
26420.283799817349
 21
19247.33697800001
 31
0.0
  0
ARC
  5
11D1B
  8
1-後柱カバ-P
 10
26377.383799817351
 20
19311.636977999999
 30
0.0
 40
6.599999999999997
 50
90.0
 51
180.0
  0
ARC
  5
11D1C
  8
1-後柱カバ-P
 10
26449.183799817351
 20
19311.636977999999
 30
0.0
 40
6.599999999999997
 50
0.0
 51
90.0
  0
LINE
  5
11D1D
  8
1-後柱カバ-P
 10
26440.783799817342
 20
19318.236978000001
 30
0.0
 11
26449.183799817351
 21
19318.236978000001
 31
0.0
  0
LINE
  5
11D1E
  8
1-後柱カバ-P
 10
26385.783799817342
 20
19318.236978000001
 30
0.0
 11
26377.383799817351
 21
19318.236978000001
 31
0.0
  0
LINE
  5
11D1F
  8
1-後柱カバ-P
 10
26440.783799817342
 20
19316.63697800001
 30
0.0
 11
26449.183799817351
 21
19316.63697800001
 31
0.0
  0
LINE
  5
11D20
  8
1-後柱カバ-P
 10
26385.783799817342
 20
19316.63697800001
 30
0.0
 11
26377.383799817351
 21
19316.63697800001
 31
0.0
  0
LINE
  5
11D21
  8
1-後柱カバ-P
 10
26385.783799817342
 20
19316.63697800001
 30
0.0
 11
26385.783799817342
 21
19318.236978000001
 31
0.0
  0
LINE
  5
11D22
  8
1-後柱カバ-P
 10
26440.783799817342
 20
19318.236978000001
 30
0.0
 11
26440.783799817342
 21
19316.63697800001
 31
0.0
  0
LINE
  5
11D23
  8
1-後柱カバ-P
  6
HIDE-M
 62
     6
 10
26444.683799817361
 20
19297.236978000001
 30
0.0
 11
26456.283799817342
 21
19297.236978000001
 31
0.0
  0
LINE
  5
11D24
  8
1-後柱カバ-P
  6
HIDE-M
 62
     6
 10
26444.683799817361
 20
19289.236978000001
 30
0.0
 11
26456.283799817342
 21
19289.236978000001
 31
0.0
  0
LINE
  5
11D25
  8
1-後柱カバ-P
  6
HIDE-M
 62
     6
 10
26444.683799817361
 20
19296.236978000001
 30
0.0
 11
26456.283799817342
 21
19296.236978000001
 31
0.0
  0
LINE
  5
11D26
  8
1-後柱カバ-P
  6
HIDE-M
 62
     6
 10
26444.683799817361
 20
19290.236978000001
 30
0.0
 11
26456.283799817342
 21
19290.236978000001
 31
0.0
  0
LINE
  5
11D27
  8
1-後柱カバ-P
 10
26445.683799817351
 20
19287.736978000001
 30
0.0
 11
26452.683799817361
 21
19287.736978000001
 31
0.0
  0
LINE
  5
11D28
  8
1-後柱カバ-P
 10
26452.683799817361
 20
19298.736978000001
 30
0.0
 11
26445.683799817351
 21
19298.736978000001
 31
0.0
  0
LINE
  5
11D29
  8
1-後柱カバ-P
 10
26452.683799817361
 20
19299.486978000001
 30
0.0
 11
26452.683799817361
 21
19286.986978000001
 31
0.0
  0
LINE
  5
11D2A
  8
1-後柱カバ-P
 10
26456.283799817342
 20
19299.236978000001
 30
0.0
 11
26456.283799817342
 21
19287.236978000001
 31
0.0
  0
LINE
  5
11D2B
  8
1-後柱カバ-P
  6
HIDE-M
 62
     6
 10
26454.183799817361
 20
19287.736978000001
 30
0.0
 11
26455.783799817342
 21
19287.736978000001
 31
0.0
  0
LINE
  5
11D2C
  8
1-後柱カバ-P
 10
26456.283799817342
 20
19287.236978000001
 30
0.0
 11
26455.783799817342
 21
19287.736978000001
 31
0.0
  0
ARC
  5
11D2D
  8
1-後柱カバ-P
 10
26453.433799817351
 20
19286.986978000001
 30
0.0
 40
0.75
 50
180.0
 51
0.0
  0
LINE
  5
11D2E
  8
1-後柱カバ-P
  6
HIDE-M
 62
     6
 10
26455.783799817342
 20
19298.736978000001
 30
0.0
 11
26454.183799817361
 21
19298.736978000001
 31
0.0
  0
LINE
  5
11D2F
  8
1-後柱カバ-P
 10
26456.283799817342
 20
19299.236978000001
 30
0.0
 11
26455.783799817342
 21
19298.736978000001
 31
0.0
  0
ARC
  5
11D30
  8
1-後柱カバ-P
 10
26453.433799817351
 20
19299.486978000001
 30
0.0
 40
0.75
 50
0.0
 51
180.0
  0
LINE
  5
11D31
  8
1-後柱カバ-P
 10
26444.683799817361
 20
19297.736978000001
 30
0.0
 11
26444.683799817361
 21
19288.736978000001
 31
0.0
  0
ARC
  5
11D32
  8
1-後柱カバ-P
 10
26445.683799817351
 20
19288.736978000001
 30
0.0
 40
1.0
 50
180.0
 51
270.0
  0
ARC
  5
11D33
  8
1-後柱カバ-P
 10
26445.683799817351
 20
19297.736978000001
 30
0.0
 40
1.0
 50
90.0
 51
180.0
  0
LINE
  5
11D34
  8
1-後柱カバ-P
  6
1PL-M
 62
     6
 10
26439.683799817351
 20
19293.236978000001
 30
0.0
 11
26461.283799817349
 21
19293.236978000001
 31
0.0
  0
LINE
  5
11D35
  8
1-後柱カバ-P
 10
26445.683799817351
 20
19277.736978000001
 30
0.0
 11
26452.683799817361
 21
19277.736978000001
 31
0.0
  0
LINE
  5
11D36
  8
1-後柱カバ-P
 10
26456.283799817342
 20
19285.236978000001
 30
0.0
 11
26456.283799817342
 21
19277.236978000001
 31
0.0
  0
LINE
  5
11D37
  8
1-後柱カバ-P
  6
HIDE-M
 62
     6
 10
26454.183799817361
 20
19277.736978000001
 30
0.0
 11
26455.783799817342
 21
19277.736978000001
 31
0.0
  0
LINE
  5
11D38
  8
1-後柱カバ-P
 10
26456.283799817342
 20
19277.236978000001
 30
0.0
 11
26455.783799817342
 21
19277.736978000001
 31
0.0
  0
ARC
  5
11D39
  8
1-後柱カバ-P
 10
26453.433799817351
 20
19276.986978000001
 30
0.0
 40
0.75
 50
180.0
 51
0.0
  0
LINE
  5
11D3A
  8
1-後柱カバ-P
 10
26444.683799817361
 20
19286.736978000001
 30
0.0
 11
26444.683799817361
 21
19278.736978000001
 31
0.0
  0
ARC
  5
11D3B
  8
1-後柱カバ-P
 10
26445.683799817351
 20
19278.736978000001
 30
0.0
 40
1.0
 50
180.0
 51
270.0
  0
LINE
  5
11D3C
  8
1-後柱カバ-P
  6
1PL-M
 62
     6
 10
26439.683799817351
 20
19283.236978000001
 30
0.0
 11
26461.283799817349
 21
19283.236978000001
 31
0.0
  0
LINE
  5
11D3D
  8
1-後柱カバ-P
 10
26452.683799817361
 20
19284.986978000001
 30
0.0
 11
26452.683799817361
 21
19276.986978000001
 31
0.0
  0
LINE
  5
11D3E
  8
1-後柱カバ-P
  6
HIDE-M
 62
     6
 10
26381.883799817351
 20
19297.236978000001
 30
0.0
 11
26370.283799817342
 21
19297.236978000001
 31
0.0
  0
LINE
  5
11D3F
  8
1-後柱カバ-P
  6
HIDE-M
 62
     6
 10
26381.883799817351
 20
19289.236978000001
 30
0.0
 11
26370.283799817342
 21
19289.236978000001
 31
0.0
  0
LINE
  5
11D40
  8
1-後柱カバ-P
  6
HIDE-M
 62
     6
 10
26381.883799817351
 20
19296.236978000001
 30
0.0
 11
26370.283799817342
 21
19296.236978000001
 31
0.0
  0
LINE
  5
11D41
  8
1-後柱カバ-P
  6
HIDE-M
 62
     6
 10
26381.883799817351
 20
19290.236978000001
 30
0.0
 11
26370.283799817342
 21
19290.236978000001
 31
0.0
  0
LINE
  5
11D42
  8
1-後柱カバ-P
 10
26380.883799817359
 20
19287.736978000001
 30
0.0
 11
26373.883799817351
 21
19287.736978000001
 31
0.0
  0
LINE
  5
11D43
  8
1-後柱カバ-P
 10
26373.883799817351
 20
19298.736978000001
 30
0.0
 11
26380.883799817359
 21
19298.736978000001
 31
0.0
  0
LINE
  5
11D44
  8
1-後柱カバ-P
 10
26373.883799817351
 20
19299.486978000001
 30
0.0
 11
26373.883799817351
 21
19286.986978000001
 31
0.0
  0
LINE
  5
11D45
  8
1-後柱カバ-P
 10
26370.283799817342
 20
19299.236978000001
 30
0.0
 11
26370.283799817342
 21
19287.236978000001
 31
0.0
  0
LINE
  5
11D46
  8
1-後柱カバ-P
  6
HIDE-M
 62
     6
 10
26372.383799817351
 20
19287.736978000001
 30
0.0
 11
26370.783799817349
 21
19287.736978000001
 31
0.0
  0
LINE
  5
11D47
  8
1-後柱カバ-P
 10
26370.283799817342
 20
19287.236978000001
 30
0.0
 11
26370.783799817349
 21
19287.736978000001
 31
0.0
  0
ARC
  5
11D48
  8
1-後柱カバ-P
 10
26373.133799817359
 20
19286.986978000001
 30
0.0
 40
0.75
 50
180.0
 51
0.0
  0
LINE
  5
11D49
  8
1-後柱カバ-P
  6
HIDE-M
 62
     6
 10
26370.783799817349
 20
19298.736978000001
 30
0.0
 11
26372.383799817351
 21
19298.736978000001
 31
0.0
  0
LINE
  5
11D4A
  8
1-後柱カバ-P
 10
26370.283799817342
 20
19299.236978000001
 30
0.0
 11
26370.783799817349
 21
19298.736978000001
 31
0.0
  0
ARC
  5
11D4B
  8
1-後柱カバ-P
 10
26373.133799817359
 20
19299.486978000001
 30
0.0
 40
0.75
 50
0.0
 51
180.0
  0
LINE
  5
11D4C
  8
1-後柱カバ-P
 10
26381.883799817351
 20
19297.736978000001
 30
0.0
 11
26381.883799817351
 21
19288.736978000001
 31
0.0
  0
ARC
  5
11D4D
  8
1-後柱カバ-P
 10
26380.883799817359
 20
19288.736978000001
 30
0.0
 40
1.0
 50
270.0
 51
0.0
  0
ARC
  5
11D4E
  8
1-後柱カバ-P
 10
26380.883799817359
 20
19297.736978000001
 30
0.0
 40
1.0
 50
0.0
 51
90.0
  0
LINE
  5
11D4F
  8
1-後柱カバ-P
  6
1PL-M
 62
     6
 10
26386.883799817351
 20
19293.236978000001
 30
0.0
 11
26365.283799817349
 21
19293.236978000001
 31
0.0
  0
LINE
  5
11D50
  8
1-後柱カバ-P
 10
26380.883799817359
 20
19277.736978000001
 30
0.0
 11
26373.883799817351
 21
19277.736978000001
 31
0.0
  0
LINE
  5
11D51
  8
1-後柱カバ-P
 10
26370.283799817342
 20
19285.236978000001
 30
0.0
 11
26370.283799817342
 21
19277.236978000001
 31
0.0
  0
LINE
  5
11D52
  8
1-後柱カバ-P
  6
HIDE-M
 62
     6
 10
26372.383799817351
 20
19277.736978000001
 30
0.0
 11
26370.783799817349
 21
19277.736978000001
 31
0.0
  0
LINE
  5
11D53
  8
1-後柱カバ-P
 10
26370.283799817342
 20
19277.236978000001
 30
0.0
 11
26370.783799817349
 21
19277.736978000001
 31
0.0
  0
ARC
  5
11D54
  8
1-後柱カバ-P
 10
26373.133799817359
 20
19276.986978000001
 30
0.0
 40
0.75
 50
180.0
 51
0.0
  0
LINE
  5
11D55
  8
1-後柱カバ-P
 10
26381.883799817351
 20
19286.736978000001
 30
0.0
 11
26381.883799817351
 21
19278.736978000001
 31
0.0
  0
ARC
  5
11D56
  8
1-後柱カバ-P
 10
26380.883799817359
 20
19278.736978000001
 30
0.0
 40
1.0
 50
270.0
 51
0.0
  0
LINE
  5
11D57
  8
1-後柱カバ-P
  6
1PL-M
 62
     6
 10
26386.883799817351
 20
19283.236978000001
 30
0.0
 11
26365.283799817349
 21
19283.236978000001
 31
0.0
  0
LINE
  5
11D58
  8
1-後柱カバ-P
 10
26373.883799817351
 20
19284.986978000001
 30
0.0
 11
26373.883799817351
 21
19276.986978000001
 31
0.0
  0
LINE
  5
11D59
  8
1-後柱カバ-P
  6
HIDE-M
 62
     6
 10
26444.683799817361
 20
19279.236978000001
 30
0.0
 11
26456.283799817342
 21
19279.236978000001
 31
0.0
  0
LINE
  5
11D5A
  8
1-後柱カバ-P
  6
HIDE-M
 62
     6
 10
26444.683799817361
 20
19280.236978000001
 30
0.0
 11
26456.283799817342
 21
19280.236978000001
 31
0.0
  0
LINE
  5
11D5B
  8
1-後柱カバ-P
  6
HIDE-M
 62
     6
 10
26381.883799817351
 20
19279.236978000001
 30
0.0
 11
26370.283799817342
 21
19279.236978000001
 31
0.0
  0
LINE
  5
11D5C
  8
1-後柱カバ-P
  6
HIDE-M
 62
     6
 10
26381.883799817351
 20
19280.236978000001
 30
0.0
 11
26370.283799817342
 21
19280.236978000001
 31
0.0
  0
LINE
  5
11D5D
  8
1-中柱P
 10
26449.183799817351
 20
16679.486978000001
 30
0.0
 11
26377.38379981734
 21
16679.486978000001
 31
0.0
  0
ARC
  5
11D5E
  8
1-中柱P
 10
26449.183799817351
 20
16684.486978000001
 30
0.0
 40
5.0
 50
270.0
 51
0.0
  0
ARC
  5
11D5F
  8
1-中柱P
 10
26377.38379981734
 20
16684.486978000001
 30
0.0
 40
5.0
 50
180.0
 51
270.0
  0
LINE
  5
11D60
  8
1-中柱P
 10
26449.183799817351
 20
16677.886977999999
 30
0.0
 11
26377.38379981734
 21
16677.886977999999
 31
0.0
  0
ARC
  5
11D61
  8
1-中柱P
 10
26449.183799817351
 20
16684.486978000001
 30
0.0
 40
6.599999999999997
 50
270.0
 51
0.0
  0
LINE
  5
11D62
  8
1-中柱P
 10
26370.783799817349
 20
16743.786978
 30
0.0
 11
26370.783799817349
 21
16684.486978000001
 31
0.0
  0
ARC
  5
11D63
  8
1-中柱P
 10
26377.38379981734
 20
16684.486978000001
 30
0.0
 40
6.599999999999997
 50
180.0
 51
270.0
  0
LINE
  5
11D64
  8
1-中柱P
 10
26372.38379981734
 20
16684.486978000001
 30
0.0
 11
26372.38379981734
 21
16743.786978
 31
0.0
  0
ARC
  5
11D65
  8
1-中柱P
 10
26377.38379981734
 20
16743.786978
 30
0.0
 40
5.0
 50
90.0
 51
180.0
  0
LINE
  5
11D66
  8
1-中柱P
 10
26455.783799817342
 20
16743.786978
 30
0.0
 11
26455.783799817342
 21
16684.486978000001
 31
0.0
  0
LINE
  5
11D67
  8
1-中柱P
 10
26454.183799817329
 20
16684.486978000001
 30
0.0
 11
26454.183799817329
 21
16743.786978
 31
0.0
  0
LINE
  5
11D68
  8
1-中柱P
 10
26449.183799817351
 20
16750.38697800001
 30
0.0
 11
26440.783799817342
 21
16750.38697800001
 31
0.0
  0
ARC
  5
11D69
  8
1-中柱P
 10
26449.183799817351
 20
16743.786978
 30
0.0
 40
6.599999999999997
 50
0.0
 51
90.0
  0
LINE
  5
11D6A
  8
1-中柱P
 10
26449.183799817351
 20
16748.786978
 30
0.0
 11
26440.783799817342
 21
16748.786978
 31
0.0
  0
ARC
  5
11D6B
  8
1-中柱P
 10
26440.783799817342
 20
16755.38697800001
 30
0.0
 40
6.599999999999997
 50
180.0
 51
270.0
  0
ARC
  5
11D6C
  8
1-中柱P
 10
26449.183799817351
 20
16743.786978
 30
0.0
 40
5.0
 50
0.0
 51
90.0
  0
LINE
  5
11D6D
  8
1-中柱P
 10
26435.783799817349
 20
16755.38697800001
 30
0.0
 11
26435.783799817349
 21
16814.786978000011
 31
0.0
  0
ARC
  5
11D6E
  8
1-中柱P
 10
26440.783799817342
 20
16755.38697800001
 30
0.0
 40
5.0
 50
180.0
 51
270.0
  0
LINE
  5
11D6F
  8
1-中柱P
 10
26434.183799817351
 20
16755.38697800001
 30
0.0
 11
26434.183799817351
 21
16814.786978000011
 31
0.0
  0
LINE
  5
11D70
  8
1-中柱P
 10
26429.183799817329
 20
16821.38697800001
 30
0.0
 11
26395.783799817349
 21
16821.38697800001
 31
0.0
  0
ARC
  5
11D71
  8
1-中柱P
 10
26429.183799817329
 20
16814.786978000011
 30
0.0
 40
6.599999999999997
 50
0.0
 51
90.0
  0
LINE
  5
11D72
  8
1-中柱P
 10
26429.183799817329
 20
16819.786978000011
 30
0.0
 11
26395.783799817349
 21
16819.786978000011
 31
0.0
  0
ARC
  5
11D73
  8
1-中柱P
 10
26429.183799817329
 20
16814.786978000011
 30
0.0
 40
5.0
 50
0.0
 51
90.0
  0
LINE
  5
11D74
  8
1-中柱P
 10
26395.783799817349
 20
16819.786978000011
 30
0.0
 11
26395.783799817349
 21
16821.38697800001
 31
0.0
  0
LINE
  5
11D75
  8
1-中柱P
 10
26377.38379981734
 20
16750.38697800001
 30
0.0
 11
26385.783799817342
 21
16750.38697800001
 31
0.0
  0
ARC
  5
11D76
  8
1-中柱P
 10
26377.38379981734
 20
16743.786978
 30
0.0
 40
6.599999999999997
 50
90.0
 51
180.0
  0
ARC
  5
11D77
  8
1-中柱P
 10
26385.783799817342
 20
16755.38697800001
 30
0.0
 40
5.0
 50
270.0
 51
0.0
  0
LINE
  5
11D78
  8
1-中柱P
 10
26385.783799817342
 20
16748.786978
 30
0.0
 11
26377.38379981734
 21
16748.786978
 31
0.0
  0
ARC
  5
11D79
  8
1-中柱P
 10
26385.783799817342
 20
16755.38697800001
 30
0.0
 40
6.599999999999997
 50
270.0
 51
0.0
  0
ARC
  5
11D7A
  8
1-中柱P
  6
HIDE-M
 62
     6
 10
26419.88379981734
 20
16818.786978000011
 30
0.0
 40
2.6000000000000001
 50
90.0
 51
180.0
  0
LINE
  5
11D7B
  8
1-中柱P
  6
HIDE-M
 62
     6
 10
26408.283799817342
 20
16820.836368153181
 30
0.0
 11
26408.283799817342
 21
16817.186978000002
 31
0.0
  0
LINE
  5
11D7C
  8
1-中柱P
  6
HIDE-M
 62
     6
 10
26418.283799817349
 20
16820.836368153181
 30
0.0
 11
26418.283799817349
 21
16817.186978000002
 31
0.0
  0
LINE
  5
11D7D
  8
1-中柱P
  6
1PL-M
 62
     6
 10
26413.283799817349
 20
16826.386977999999
 30
0.0
 11
26413.283799817349
 21
16812.186978000009
 31
0.0
  0
ARC
  5
11D7E
  8
1-中柱P
  6
HIDE-M
 62
     6
 10
26406.683799817329
 20
16818.786978000011
 30
0.0
 40
2.6000000000000001
 50
0.0
 51
90.0
  0
LINE
  5
11D7F
  8
1-中柱P
  6
HIDE-M
 62
     6
 10
26417.283799817349
 20
16818.786978000011
 30
0.0
 11
26417.283799817349
 21
16817.186978000002
 31
0.0
  0
LINE
  5
11D80
  8
1-中柱P
  6
HIDE-M
 62
     6
 10
26409.283799817349
 20
16818.786978000011
 30
0.0
 11
26409.283799817349
 21
16817.186978000002
 31
0.0
  0
LINE
  5
11D81
  8
1-中柱P
 10
26392.38379981734
 20
16755.38697800001
 30
0.0
 11
26392.38379981734
 21
16765.386977999999
 31
0.0
  0
LINE
  5
11D82
  8
1-中柱P
 10
26390.783799817349
 20
16755.38697800001
 30
0.0
 11
26390.783799817349
 21
16765.386977999999
 31
0.0
  0
LINE
  5
11D83
  8
1-中柱P
 10
26392.38379981734
 20
16765.386977999999
 30
0.0
 11
26390.783799817349
 21
16765.386977999999
 31
0.0
  0
LINE
  5
11D84
  8
1-中柱P
  6
1PL-M
 62
     6
 10
26440.783799817342
 20
16786.38697800001
 30
0.0
 11
26426.583799817341
 21
16786.38697800001
 31
0.0
  0
LINE
  5
11D85
  8
1-中柱P
  6
HIDE-M
 62
     6
 10
26444.683799817329
 20
16729.386977999999
 30
0.0
 11
26456.283799817342
 21
16729.386977999999
 31
0.0
  0
LINE
  5
11D86
  8
1-中柱P
  6
HIDE-M
 62
     6
 10
26444.683799817329
 20
16721.38697800001
 30
0.0
 11
26456.283799817342
 21
16721.38697800001
 31
0.0
  0
LINE
  5
11D87
  8
1-中柱P
  6
HIDE-M
 62
     6
 10
26444.683799817329
 20
16728.386977999999
 30
0.0
 11
26456.283799817342
 21
16728.386977999999
 31
0.0
  0
LINE
  5
11D88
  8
1-中柱P
  6
HIDE-M
 62
     6
 10
26444.683799817329
 20
16722.38697800001
 30
0.0
 11
26456.283799817342
 21
16722.38697800001
 31
0.0
  0
LINE
  5
11D89
  8
1-中柱P
 10
26445.68379981734
 20
16719.88697800001
 30
0.0
 11
26452.68379981734
 21
16719.88697800001
 31
0.0
  0
LINE
  5
11D8A
  8
1-中柱P
 10
26452.68379981734
 20
16730.886977999999
 30
0.0
 11
26445.68379981734
 21
16730.886977999999
 31
0.0
  0
LINE
  5
11D8B
  8
1-中柱P
 10
26452.68379981734
 20
16731.63697800001
 30
0.0
 11
26452.68379981734
 21
16719.13697800001
 31
0.0
  0
LINE
  5
11D8C
  8
1-中柱P
 10
26456.283799817342
 20
16731.38697800001
 30
0.0
 11
26456.283799817342
 21
16719.386977999999
 31
0.0
  0
LINE
  5
11D8D
  8
1-中柱P
  6
HIDE-M
 62
     6
 10
26454.183799817329
 20
16719.88697800001
 30
0.0
 11
26455.783799817342
 21
16719.88697800001
 31
0.0
  0
LINE
  5
11D8E
  8
1-中柱P
 10
26456.283799817342
 20
16719.386977999999
 30
0.0
 11
26455.783799817342
 21
16719.88697800001
 31
0.0
  0
ARC
  5
11D8F
  8
1-中柱P
 10
26453.43379981734
 20
16719.13697800001
 30
0.0
 40
0.75
 50
180.0
 51
0.0
  0
LINE
  5
11D90
  8
1-中柱P
  6
HIDE-M
 62
     6
 10
26455.783799817342
 20
16730.886977999999
 30
0.0
 11
26454.183799817329
 21
16730.886977999999
 31
0.0
  0
LINE
  5
11D91
  8
1-中柱P
 10
26456.283799817342
 20
16731.38697800001
 30
0.0
 11
26455.783799817342
 21
16730.886977999999
 31
0.0
  0
ARC
  5
11D92
  8
1-中柱P
 10
26453.43379981734
 20
16731.63697800001
 30
0.0
 40
0.75
 50
0.0
 51
180.0
  0
LINE
  5
11D93
  8
1-中柱P
 10
26444.683799817329
 20
16729.88697800001
 30
0.0
 11
26444.683799817329
 21
16720.88697800001
 31
0.0
  0
ARC
  5
11D94
  8
1-中柱P
 10
26445.68379981734
 20
16720.88697800001
 30
0.0
 40
1.0
 50
180.0
 51
270.0
  0
ARC
  5
11D95
  8
1-中柱P
 10
26445.68379981734
 20
16729.88697800001
 30
0.0
 40
1.0
 50
90.0
 51
180.0
  0
LINE
  5
11D96
  8
1-中柱P
  6
1PL-M
 62
     6
 10
26439.683799817351
 20
16725.38697800001
 30
0.0
 11
26461.283799817349
 21
16725.38697800001
 31
0.0
  0
LINE
  5
11D97
  8
1-中柱P
 10
26445.68379981734
 20
16709.88697800001
 30
0.0
 11
26452.68379981734
 21
16709.88697800001
 31
0.0
  0
LINE
  5
11D98
  8
1-中柱P
 10
26456.283799817342
 20
16717.38697800001
 30
0.0
 11
26456.283799817342
 21
16709.386977999999
 31
0.0
  0
LINE
  5
11D99
  8
1-中柱P
  6
HIDE-M
 62
     6
 10
26454.183799817329
 20
16709.88697800001
 30
0.0
 11
26455.783799817342
 21
16709.88697800001
 31
0.0
  0
LINE
  5
11D9A
  8
1-中柱P
 10
26456.283799817342
 20
16709.386977999999
 30
0.0
 11
26455.783799817342
 21
16709.88697800001
 31
0.0
  0
ARC
  5
11D9B
  8
1-中柱P
 10
26453.43379981734
 20
16709.136977999999
 30
0.0
 40
0.75
 50
180.0
 51
0.0
  0
LINE
  5
11D9C
  8
1-中柱P
 10
26444.683799817329
 20
16718.886977999999
 30
0.0
 11
26444.683799817329
 21
16710.88697800001
 31
0.0
  0
ARC
  5
11D9D
  8
1-中柱P
 10
26445.68379981734
 20
16710.88697800001
 30
0.0
 40
1.0
 50
180.0
 51
270.0
  0
LINE
  5
11D9E
  8
1-中柱P
  6
1PL-M
 62
     6
 10
26439.683799817351
 20
16715.38697800001
 30
0.0
 11
26461.283799817349
 21
16715.38697800001
 31
0.0
  0
LINE
  5
11D9F
  8
1-中柱P
 10
26452.68379981734
 20
16717.13697800001
 30
0.0
 11
26452.68379981734
 21
16709.136977999999
 31
0.0
  0
LINE
  5
11DA0
  8
1-中柱P
  6
HIDE-M
 62
     6
 10
26444.683799817329
 20
16711.38697800001
 30
0.0
 11
26456.283799817342
 21
16711.38697800001
 31
0.0
  0
LINE
  5
11DA1
  8
1-中柱P
  6
HIDE-M
 62
     6
 10
26444.683799817329
 20
16712.38697800001
 30
0.0
 11
26456.283799817342
 21
16712.38697800001
 31
0.0
  0
LINE
  5
11DA2
  8
1-中柱P
  6
HIDE-M
 62
     6
 10
26381.88379981734
 20
16729.386977999999
 30
0.0
 11
26370.283799817342
 21
16729.386977999999
 31
0.0
  0
LINE
  5
11DA3
  8
1-中柱P
  6
HIDE-M
 62
     6
 10
26381.88379981734
 20
16721.38697800001
 30
0.0
 11
26370.283799817342
 21
16721.38697800001
 31
0.0
  0
LINE
  5
11DA4
  8
1-中柱P
  6
HIDE-M
 62
     6
 10
26381.88379981734
 20
16728.386977999999
 30
0.0
 11
26370.283799817342
 21
16728.386977999999
 31
0.0
  0
LINE
  5
11DA5
  8
1-中柱P
  6
HIDE-M
 62
     6
 10
26381.88379981734
 20
16722.38697800001
 30
0.0
 11
26370.283799817342
 21
16722.38697800001
 31
0.0
  0
LINE
  5
11DA6
  8
1-中柱P
 10
26380.88379981734
 20
16719.88697800001
 30
0.0
 11
26373.88379981734
 21
16719.88697800001
 31
0.0
  0
LINE
  5
11DA7
  8
1-中柱P
 10
26373.88379981734
 20
16730.886977999999
 30
0.0
 11
26380.88379981734
 21
16730.886977999999
 31
0.0
  0
LINE
  5
11DA8
  8
1-中柱P
 10
26373.88379981734
 20
16731.63697800001
 30
0.0
 11
26373.88379981734
 21
16719.13697800001
 31
0.0
  0
LINE
  5
11DA9
  8
1-中柱P
 10
26370.283799817342
 20
16731.38697800001
 30
0.0
 11
26370.283799817342
 21
16719.386977999999
 31
0.0
  0
LINE
  5
11DAA
  8
1-中柱P
  6
HIDE-M
 62
     6
 10
26372.38379981734
 20
16719.88697800001
 30
0.0
 11
26370.783799817349
 21
16719.88697800001
 31
0.0
  0
LINE
  5
11DAB
  8
1-中柱P
 10
26370.283799817342
 20
16719.386977999999
 30
0.0
 11
26370.783799817349
 21
16719.88697800001
 31
0.0
  0
ARC
  5
11DAC
  8
1-中柱P
 10
26373.13379981734
 20
16719.13697800001
 30
0.0
 40
0.75
 50
180.0
 51
0.0
  0
LINE
  5
11DAD
  8
1-中柱P
  6
HIDE-M
 62
     6
 10
26370.783799817349
 20
16730.886977999999
 30
0.0
 11
26372.38379981734
 21
16730.886977999999
 31
0.0
  0
LINE
  5
11DAE
  8
1-中柱P
 10
26370.283799817342
 20
16731.38697800001
 30
0.0
 11
26370.783799817349
 21
16730.886977999999
 31
0.0
  0
ARC
  5
11DAF
  8
1-中柱P
 10
26373.13379981734
 20
16731.63697800001
 30
0.0
 40
0.75
 50
0.0
 51
180.0
  0
LINE
  5
11DB0
  8
1-中柱P
 10
26381.88379981734
 20
16729.88697800001
 30
0.0
 11
26381.88379981734
 21
16720.88697800001
 31
0.0
  0
ARC
  5
11DB1
  8
1-中柱P
 10
26380.88379981734
 20
16720.88697800001
 30
0.0
 40
1.0
 50
270.0
 51
0.0
  0
ARC
  5
11DB2
  8
1-中柱P
 10
26380.88379981734
 20
16729.88697800001
 30
0.0
 40
1.0
 50
0.0
 51
90.0
  0
LINE
  5
11DB3
  8
1-中柱P
  6
1PL-M
 62
     6
 10
26386.88379981734
 20
16725.38697800001
 30
0.0
 11
26365.283799817349
 21
16725.38697800001
 31
0.0
  0
LINE
  5
11DB4
  8
1-中柱P
 10
26380.88379981734
 20
16709.88697800001
 30
0.0
 11
26373.88379981734
 21
16709.88697800001
 31
0.0
  0
LINE
  5
11DB5
  8
1-中柱P
 10
26370.283799817342
 20
16717.38697800001
 30
0.0
 11
26370.283799817342
 21
16709.386977999999
 31
0.0
  0
LINE
  5
11DB6
  8
1-中柱P
  6
HIDE-M
 62
     6
 10
26372.38379981734
 20
16709.88697800001
 30
0.0
 11
26370.783799817349
 21
16709.88697800001
 31
0.0
  0
LINE
  5
11DB7
  8
1-中柱P
 10
26370.283799817342
 20
16709.386977999999
 30
0.0
 11
26370.783799817349
 21
16709.88697800001
 31
0.0
  0
ARC
  5
11DB8
  8
1-中柱P
 10
26373.13379981734
 20
16709.136977999999
 30
0.0
 40
0.75
 50
180.0
 51
0.0
  0
LINE
  5
11DB9
  8
1-中柱P
 10
26381.88379981734
 20
16718.886977999999
 30
0.0
 11
26381.88379981734
 21
16710.88697800001
 31
0.0
  0
ARC
  5
11DBA
  8
1-中柱P
 10
26380.88379981734
 20
16710.88697800001
 30
0.0
 40
1.0
 50
270.0
 51
0.0
  0
LINE
  5
11DBB
  8
1-中柱P
  6
1PL-M
 62
     6
 10
26386.88379981734
 20
16715.38697800001
 30
0.0
 11
26365.283799817349
 21
16715.38697800001
 31
0.0
  0
LINE
  5
11DBC
  8
1-中柱P
 10
26373.88379981734
 20
16717.13697800001
 30
0.0
 11
26373.88379981734
 21
16709.136977999999
 31
0.0
  0
LINE
  5
11DBD
  8
1-中柱P
  6
HIDE-M
 62
     6
 10
26381.88379981734
 20
16711.38697800001
 30
0.0
 11
26370.283799817342
 21
16711.38697800001
 31
0.0
  0
LINE
  5
11DBE
  8
1-中柱P
  6
HIDE-M
 62
     6
 10
26381.88379981734
 20
16712.38697800001
 30
0.0
 11
26370.283799817342
 21
16712.38697800001
 31
0.0
  0
LINE
  5
11DBF
  8
1-中柱カバ-P
 10
26370.783799817349
 20
16757.08697800001
 30
0.0
 11
26370.783799817349
 21
16816.38697800001
 31
0.0
  0
ARC
  5
11DC0
  8
1-中柱カバ-P
 10
26377.38379981734
 20
16816.38697800001
 30
0.0
 40
6.599999999999997
 50
90.0
 51
180.0
  0
LINE
  5
11DC1
  8
1-中柱カバ-P
 10
26372.38379981734
 20
16757.08697800001
 30
0.0
 11
26372.38379981734
 21
16816.38697800001
 31
0.0
  0
ARC
  5
11DC2
  8
1-中柱カバ-P
 10
26377.38379981734
 20
16757.08697800001
 30
0.0
 40
5.0
 50
180.0
 51
270.0
  0
LINE
  5
11DC3
  8
1-中柱カバ-P
 10
26377.38379981734
 20
16822.986978000001
 30
0.0
 11
26449.183799817351
 21
16822.986978000001
 31
0.0
  0
ARC
  5
11DC4
  8
1-中柱カバ-P
 10
26449.183799817351
 20
16816.38697800001
 30
0.0
 40
6.599999999999997
 50
0.0
 51
90.0
  0
LINE
  5
11DC5
  8
1-中柱カバ-P
 10
26377.38379981734
 20
16821.38697800001
 30
0.0
 11
26449.183799817351
 21
16821.38697800001
 31
0.0
  0
ARC
  5
11DC6
  8
1-中柱カバ-P
 10
26449.183799817351
 20
16816.38697800001
 30
0.0
 40
5.0
 50
0.0
 51
90.0
  0
ARC
  5
11DC7
  8
1-中柱カバ-P
 10
26377.38379981734
 20
16816.38697800001
 30
0.0
 40
5.0
 50
90.0
 51
180.0
  0
LINE
  5
11DC8
  8
1-中柱カバ-P
 10
26455.783799817342
 20
16816.38697800001
 30
0.0
 11
26455.783799817342
 21
16757.08697800001
 31
0.0
  0
LINE
  5
11DC9
  8
1-中柱カバ-P
 10
26454.183799817329
 20
16816.38697800001
 30
0.0
 11
26454.183799817329
 21
16757.08697800001
 31
0.0
  0
ARC
  5
11DCA
  8
1-中柱カバ-P
 10
26449.183799817351
 20
16757.08697800001
 30
0.0
 40
5.0
 50
270.0
 51
0.0
  0
LINE
  5
11DCB
  8
1-中柱カバ-P
  6
1PL-M
 62
     6
 10
26413.283799817349
 20
16815.486978000001
 30
0.0
 11
26413.283799817349
 21
16828.486978000001
 31
0.0
  0
LINE
  5
11DCC
  8
1-中柱カバ-P
  6
HIDE-M
 62
     6
 10
26406.283799817342
 20
16822.986978000001
 30
0.0
 11
26406.283799817342
 21
16821.38697800001
 31
0.0
  0
LINE
  5
11DCD
  8
1-中柱カバ-P
  6
HIDE-M
 62
     6
 10
26420.283799817349
 20
16822.986978000001
 30
0.0
 11
26420.283799817349
 21
16821.38697800001
 31
0.0
  0
ARC
  5
11DCE
  8
1-中柱カバ-P
 10
26377.38379981734
 20
16757.08697800001
 30
0.0
 40
6.599999999999997
 50
180.0
 51
270.0
  0
ARC
  5
11DCF
  8
1-中柱カバ-P
 10
26449.183799817351
 20
16757.08697800001
 30
0.0
 40
6.599999999999997
 50
270.0
 51
0.0
  0
LINE
  5
11DD0
  8
1-中柱カバ-P
 10
26440.783799817342
 20
16750.486978000001
 30
0.0
 11
26449.183799817351
 21
16750.486978000001
 31
0.0
  0
LINE
  5
11DD1
  8
1-中柱カバ-P
 10
26385.783799817342
 20
16750.486978000001
 30
0.0
 11
26377.38379981734
 21
16750.486978000001
 31
0.0
  0
LINE
  5
11DD2
  8
1-中柱カバ-P
 10
26440.783799817342
 20
16752.08697800001
 30
0.0
 11
26449.183799817351
 21
16752.08697800001
 31
0.0
  0
LINE
  5
11DD3
  8
1-中柱カバ-P
 10
26385.783799817342
 20
16752.08697800001
 30
0.0
 11
26377.38379981734
 21
16752.08697800001
 31
0.0
  0
LINE
  5
11DD4
  8
1-中柱カバ-P
 10
26385.783799817342
 20
16752.08697800001
 30
0.0
 11
26385.783799817342
 21
16750.486978000001
 31
0.0
  0
LINE
  5
11DD5
  8
1-中柱カバ-P
 10
26440.783799817342
 20
16750.486978000001
 30
0.0
 11
26440.783799817342
 21
16752.08697800001
 31
0.0
  0
LINE
  5
11DD6
  8
1-中柱カバ-P
  6
HIDE-M
 62
     6
 10
26444.683799817329
 20
16771.486978000001
 30
0.0
 11
26456.283799817342
 21
16771.486978000001
 31
0.0
  0
LINE
  5
11DD7
  8
1-中柱カバ-P
  6
HIDE-M
 62
     6
 10
26444.683799817329
 20
16779.486978000001
 30
0.0
 11
26456.283799817342
 21
16779.486978000001
 31
0.0
  0
LINE
  5
11DD8
  8
1-中柱カバ-P
  6
HIDE-M
 62
     6
 10
26444.683799817329
 20
16772.486978000001
 30
0.0
 11
26456.283799817342
 21
16772.486978000001
 31
0.0
  0
LINE
  5
11DD9
  8
1-中柱カバ-P
  6
HIDE-M
 62
     6
 10
26444.683799817329
 20
16778.486978000001
 30
0.0
 11
26456.283799817342
 21
16778.486978000001
 31
0.0
  0
LINE
  5
11DDA
  8
1-中柱カバ-P
 10
26445.68379981734
 20
16780.986978000001
 30
0.0
 11
26452.68379981734
 21
16780.986978000001
 31
0.0
  0
LINE
  5
11DDB
  8
1-中柱カバ-P
 10
26452.68379981734
 20
16769.986978000001
 30
0.0
 11
26445.68379981734
 21
16769.986978000001
 31
0.0
  0
LINE
  5
11DDC
  8
1-中柱カバ-P
 10
26452.68379981734
 20
16769.236978000001
 30
0.0
 11
26452.68379981734
 21
16781.736978000001
 31
0.0
  0
LINE
  5
11DDD
  8
1-中柱カバ-P
 10
26456.283799817342
 20
16769.486978000001
 30
0.0
 11
26456.283799817342
 21
16781.486978000001
 31
0.0
  0
LINE
  5
11DDE
  8
1-中柱カバ-P
  6
HIDE-M
 62
     6
 10
26454.183799817329
 20
16780.986978000001
 30
0.0
 11
26455.783799817342
 21
16780.986978000001
 31
0.0
  0
LINE
  5
11DDF
  8
1-中柱カバ-P
 10
26456.283799817342
 20
16781.486978000001
 30
0.0
 11
26455.783799817342
 21
16780.986978000001
 31
0.0
  0
ARC
  5
11DE0
  8
1-中柱カバ-P
 10
26453.43379981734
 20
16781.736978000001
 30
0.0
 40
0.75
 50
0.0
 51
180.0
  0
LINE
  5
11DE1
  8
1-中柱カバ-P
  6
HIDE-M
 62
     6
 10
26455.783799817342
 20
16769.986978000001
 30
0.0
 11
26454.183799817329
 21
16769.986978000001
 31
0.0
  0
LINE
  5
11DE2
  8
1-中柱カバ-P
 10
26456.283799817342
 20
16769.486978000001
 30
0.0
 11
26455.783799817342
 21
16769.986978000001
 31
0.0
  0
ARC
  5
11DE3
  8
1-中柱カバ-P
 10
26453.43379981734
 20
16769.236978000001
 30
0.0
 40
0.75
 50
180.0
 51
0.0
  0
LINE
  5
11DE4
  8
1-中柱カバ-P
 10
26444.683799817329
 20
16770.986978000001
 30
0.0
 11
26444.683799817329
 21
16779.986978000001
 31
0.0
  0
ARC
  5
11DE5
  8
1-中柱カバ-P
 10
26445.68379981734
 20
16779.986978000001
 30
0.0
 40
1.0
 50
90.0
 51
180.0
  0
ARC
  5
11DE6
  8
1-中柱カバ-P
 10
26445.68379981734
 20
16770.986978000001
 30
0.0
 40
1.0
 50
180.0
 51
270.0
  0
LINE
  5
11DE7
  8
1-中柱カバ-P
  6
1PL-M
 62
     6
 10
26439.683799817351
 20
16775.486978000001
 30
0.0
 11
26461.283799817349
 21
16775.486978000001
 31
0.0
  0
LINE
  5
11DE8
  8
1-中柱カバ-P
 10
26445.68379981734
 20
16790.986978000001
 30
0.0
 11
26452.68379981734
 21
16790.986978000001
 31
0.0
  0
LINE
  5
11DE9
  8
1-中柱カバ-P
 10
26456.283799817342
 20
16783.486978000001
 30
0.0
 11
26456.283799817342
 21
16791.486978000001
 31
0.0
  0
LINE
  5
11DEA
  8
1-中柱カバ-P
  6
HIDE-M
 62
     6
 10
26454.183799817329
 20
16790.986978000001
 30
0.0
 11
26455.783799817342
 21
16790.986978000001
 31
0.0
  0
LINE
  5
11DEB
  8
1-中柱カバ-P
 10
26456.283799817342
 20
16791.486978000001
 30
0.0
 11
26455.783799817342
 21
16790.986978000001
 31
0.0
  0
ARC
  5
11DEC
  8
1-中柱カバ-P
 10
26453.43379981734
 20
16791.736978000001
 30
0.0
 40
0.75
 50
0.0
 51
180.0
  0
LINE
  5
11DED
  8
1-中柱カバ-P
 10
26444.683799817329
 20
16781.986978000001
 30
0.0
 11
26444.683799817329
 21
16789.986978000001
 31
0.0
  0
ARC
  5
11DEE
  8
1-中柱カバ-P
 10
26445.68379981734
 20
16789.986978000001
 30
0.0
 40
1.0
 50
90.0
 51
180.0
  0
LINE
  5
11DEF
  8
1-中柱カバ-P
  6
1PL-M
 62
     6
 10
26439.683799817351
 20
16785.486978000001
 30
0.0
 11
26461.283799817349
 21
16785.486978000001
 31
0.0
  0
LINE
  5
11DF0
  8
1-中柱カバ-P
 10
26452.68379981734
 20
16783.736978000001
 30
0.0
 11
26452.68379981734
 21
16791.736978000001
 31
0.0
  0
LINE
  5
11DF1
  8
1-中柱カバ-P
  6
HIDE-M
 62
     6
 10
26381.88379981734
 20
16771.486978000001
 30
0.0
 11
26370.283799817342
 21
16771.486978000001
 31
0.0
  0
LINE
  5
11DF2
  8
1-中柱カバ-P
  6
HIDE-M
 62
     6
 10
26381.88379981734
 20
16779.486978000001
 30
0.0
 11
26370.283799817342
 21
16779.486978000001
 31
0.0
  0
LINE
  5
11DF3
  8
1-中柱カバ-P
  6
HIDE-M
 62
     6
 10
26381.88379981734
 20
16772.486978000001
 30
0.0
 11
26370.283799817342
 21
16772.486978000001
 31
0.0
  0
LINE
  5
11DF4
  8
1-中柱カバ-P
  6
HIDE-M
 62
     6
 10
26381.88379981734
 20
16778.486978000001
 30
0.0
 11
26370.283799817342
 21
16778.486978000001
 31
0.0
  0
LINE
  5
11DF5
  8
1-中柱カバ-P
 10
26380.88379981734
 20
16780.986978000001
 30
0.0
 11
26373.88379981734
 21
16780.986978000001
 31
0.0
  0
LINE
  5
11DF6
  8
1-中柱カバ-P
 10
26373.88379981734
 20
16769.986978000001
 30
0.0
 11
26380.88379981734
 21
16769.986978000001
 31
0.0
  0
LINE
  5
11DF7
  8
1-中柱カバ-P
 10
26373.88379981734
 20
16769.236978000001
 30
0.0
 11
26373.88379981734
 21
16781.736978000001
 31
0.0
  0
LINE
  5
11DF8
  8
1-中柱カバ-P
 10
26370.283799817342
 20
16769.486978000001
 30
0.0
 11
26370.283799817342
 21
16781.486978000001
 31
0.0
  0
LINE
  5
11DF9
  8
1-中柱カバ-P
  6
HIDE-M
 62
     6
 10
26372.38379981734
 20
16780.986978000001
 30
0.0
 11
26370.783799817349
 21
16780.986978000001
 31
0.0
  0
LINE
  5
11DFA
  8
1-中柱カバ-P
 10
26370.283799817342
 20
16781.486978000001
 30
0.0
 11
26370.783799817349
 21
16780.986978000001
 31
0.0
  0
ARC
  5
11DFB
  8
1-中柱カバ-P
 10
26373.13379981734
 20
16781.736978000001
 30
0.0
 40
0.75
 50
0.0
 51
180.0
  0
LINE
  5
11DFC
  8
1-中柱カバ-P
  6
HIDE-M
 62
     6
 10
26370.783799817349
 20
16769.986978000001
 30
0.0
 11
26372.38379981734
 21
16769.986978000001
 31
0.0
  0
LINE
  5
11DFD
  8
1-中柱カバ-P
 10
26370.283799817342
 20
16769.486978000001
 30
0.0
 11
26370.783799817349
 21
16769.986978000001
 31
0.0
  0
ARC
  5
11DFE
  8
1-中柱カバ-P
 10
26373.13379981734
 20
16769.236978000001
 30
0.0
 40
0.75
 50
180.0
 51
0.0
  0
LINE
  5
11DFF
  8
1-中柱カバ-P
 10
26381.88379981734
 20
16770.986978000001
 30
0.0
 11
26381.88379981734
 21
16779.986978000001
 31
0.0
  0
ARC
  5
11E00
  8
1-中柱カバ-P
 10
26380.88379981734
 20
16779.986978000001
 30
0.0
 40
1.0
 50
0.0
 51
90.0
  0
ARC
  5
11E01
  8
1-中柱カバ-P
 10
26380.88379981734
 20
16770.986978000001
 30
0.0
 40
1.0
 50
270.0
 51
0.0
  0
LINE
  5
11E02
  8
1-中柱カバ-P
  6
1PL-M
 62
     6
 10
26386.88379981734
 20
16775.486978000001
 30
0.0
 11
26365.283799817349
 21
16775.486978000001
 31
0.0
  0
LINE
  5
11E03
  8
1-中柱カバ-P
 10
26380.88379981734
 20
16790.986978000001
 30
0.0
 11
26373.88379981734
 21
16790.986978000001
 31
0.0
  0
LINE
  5
11E04
  8
1-中柱カバ-P
 10
26370.283799817342
 20
16783.486978000001
 30
0.0
 11
26370.283799817342
 21
16791.486978000001
 31
0.0
  0
LINE
  5
11E05
  8
1-中柱カバ-P
  6
HIDE-M
 62
     6
 10
26372.38379981734
 20
16790.986978000001
 30
0.0
 11
26370.783799817349
 21
16790.986978000001
 31
0.0
  0
LINE
  5
11E06
  8
1-中柱カバ-P
 10
26370.283799817342
 20
16791.486978000001
 30
0.0
 11
26370.783799817349
 21
16790.986978000001
 31
0.0
  0
ARC
  5
11E07
  8
1-中柱カバ-P
 10
26373.13379981734
 20
16791.736978000001
 30
0.0
 40
0.75
 50
0.0
 51
180.0
  0
LINE
  5
11E08
  8
1-中柱カバ-P
 10
26381.88379981734
 20
16781.986978000001
 30
0.0
 11
26381.88379981734
 21
16789.986978000001
 31
0.0
  0
ARC
  5
11E09
  8
1-中柱カバ-P
 10
26380.88379981734
 20
16789.986978000001
 30
0.0
 40
1.0
 50
0.0
 51
90.0
  0
LINE
  5
11E0A
  8
1-中柱カバ-P
  6
1PL-M
 62
     6
 10
26386.88379981734
 20
16785.486978000001
 30
0.0
 11
26365.283799817349
 21
16785.486978000001
 31
0.0
  0
LINE
  5
11E0B
  8
1-中柱カバ-P
 10
26373.88379981734
 20
16783.736978000001
 30
0.0
 11
26373.88379981734
 21
16791.736978000001
 31
0.0
  0
LINE
  5
11E0C
  8
1-中柱カバ-P
  6
HIDE-M
 62
     6
 10
26444.683799817329
 20
16789.486978000001
 30
0.0
 11
26456.283799817342
 21
16789.486978000001
 31
0.0
  0
LINE
  5
11E0D
  8
1-中柱カバ-P
  6
HIDE-M
 62
     6
 10
26444.683799817329
 20
16788.486978000001
 30
0.0
 11
26456.283799817342
 21
16788.486978000001
 31
0.0
  0
LINE
  5
11E0E
  8
1-中柱カバ-P
  6
HIDE-M
 62
     6
 10
26381.88379981734
 20
16789.486978000001
 30
0.0
 11
26370.283799817342
 21
16789.486978000001
 31
0.0
  0
LINE
  5
11E0F
  8
1-中柱カバ-P
  6
HIDE-M
 62
     6
 10
26381.88379981734
 20
16788.486978000001
 30
0.0
 11
26370.283799817342
 21
16788.486978000001
 31
0.0
  0
ARC
  5
11E10
  8
1-前柱P
  6
HIDE-M
 62
     6
 10
26409.68379981734
 20
14251.38697800001
 30
0.0
 40
2.6000000000000001
 50
0.0
 51
90.0
  0
LINE
  5
11E11
  8
1-前柱P
  6
HIDE-M
 62
     6
 10
26421.283799817342
 20
14253.4363681532
 30
0.0
 11
26421.283799817342
 21
14249.786978
 31
0.0
  0
LINE
  5
11E12
  8
1-前柱P
  6
HIDE-M
 62
     6
 10
26411.283799817349
 20
14253.4363681532
 30
0.0
 11
26411.283799817349
 21
14249.786978
 31
0.0
  0
LINE
  5
11E13
  8
1-前柱P
  6
1PL-M
 62
     6
 10
26416.283799817342
 20
14258.986978000001
 30
0.0
 11
26416.283799817342
 21
14244.786978
 31
0.0
  0
ARC
  5
11E14
  8
1-前柱P
  6
HIDE-M
 62
     6
 10
26422.883799817359
 20
14251.38697800001
 30
0.0
 40
2.6000000000000001
 50
90.0
 51
180.0
  0
LINE
  5
11E15
  8
1-前柱P
  6
HIDE-M
 62
     6
 10
26412.283799817342
 20
14251.38697800001
 30
0.0
 11
26412.283799817342
 21
14249.786978
 31
0.0
  0
LINE
  5
11E16
  8
1-前柱P
  6
HIDE-M
 62
     6
 10
26420.283799817349
 20
14251.38697800001
 30
0.0
 11
26420.283799817349
 21
14249.786978
 31
0.0
  0
LINE
  5
11E17
  8
1-前柱P
 10
26402.383799817351
 20
14139.08697800001
 30
0.0
 11
26424.183799817361
 21
14139.08697800001
 31
0.0
  0
LINE
  5
11E18
  8
1-前柱P
 10
26454.183799817361
 20
14176.38697800001
 30
0.0
 11
26454.183799817361
 21
14169.086977999999
 31
0.0
  0
ARC
  5
11E19
  8
1-前柱P
 10
26424.183799817361
 20
14169.086977999999
 30
0.0
 40
30.0
 50
270.0
 51
0.0
  0
ARC
  5
11E1A
  8
1-前柱P
 10
26424.183799817361
 20
14169.086977999999
 30
0.0
 40
31.600000000000001
 50
270.0
 51
0.0
  0
LINE
  5
11E1B
  8
1-前柱P
 10
26402.383799817351
 20
14137.486978000001
 30
0.0
 11
26424.183799817361
 21
14137.486978000001
 31
0.0
  0
LINE
  5
11E1C
  8
1-前柱P
 10
26455.783799817342
 20
14176.38697800001
 30
0.0
 11
26455.783799817342
 21
14169.086977999999
 31
0.0
  0
LINE
  5
11E1D
  8
1-前柱P
 10
26432.783799817342
 20
14197.986978000001
 30
0.0
 11
26432.783799817342
 21
14187.986978000001
 31
0.0
  0
LINE
  5
11E1E
  8
1-前柱P
 10
26431.183799817351
 20
14187.986978000001
 30
0.0
 11
26431.183799817351
 21
14197.986978000001
 31
0.0
  0
LINE
  5
11E1F
  8
1-前柱P
 10
26372.383799817351
 20
14176.38697800001
 30
0.0
 11
26372.383799817351
 21
14169.086977999999
 31
0.0
  0
ARC
  5
11E20
  8
1-前柱P
 10
26402.383799817351
 20
14169.086977999999
 30
0.0
 40
30.0
 50
180.0
 51
270.0
  0
ARC
  5
11E21
  8
1-前柱P
 10
26402.383799817351
 20
14169.086977999999
 30
0.0
 40
31.600000000000001
 50
180.0
 51
270.0
  0
LINE
  5
11E22
  8
1-前柱P
 10
26370.783799817349
 20
14176.38697800001
 30
0.0
 11
26370.783799817349
 21
14169.086977999999
 31
0.0
  0
LINE
  5
11E23
  8
1-前柱P
 10
26377.383799817351
 20
14182.986978000001
 30
0.0
 11
26388.783799817349
 21
14182.986978000001
 31
0.0
  0
ARC
  5
11E24
  8
1-前柱P
 10
26377.383799817351
 20
14176.38697800001
 30
0.0
 40
6.599999999999997
 50
90.0
 51
180.0
  0
ARC
  5
11E25
  8
1-前柱P
 10
26388.783799817349
 20
14187.986978000001
 30
0.0
 40
5.0
 50
270.0
 51
0.0
  0
LINE
  5
11E26
  8
1-前柱P
 10
26377.383799817351
 20
14181.386978
 30
0.0
 11
26388.783799817349
 21
14181.386978
 31
0.0
  0
ARC
  5
11E27
  8
1-前柱P
 10
26377.383799817351
 20
14176.38697800001
 30
0.0
 40
5.0
 50
90.0
 51
180.0
  0
LINE
  5
11E28
  8
1-前柱P
 10
26393.783799817349
 20
14187.986978000001
 30
0.0
 11
26393.783799817349
 21
14247.386978
 31
0.0
  0
LINE
  5
11E29
  8
1-前柱P
 10
26395.383799817351
 20
14187.986978000001
 30
0.0
 11
26395.383799817351
 21
14247.386978
 31
0.0
  0
ARC
  5
11E2A
  8
1-前柱P
 10
26388.783799817349
 20
14187.986978000001
 30
0.0
 40
6.599999999999997
 50
270.0
 51
0.0
  0
LINE
  5
11E2B
  8
1-前柱P
 10
26400.383799817351
 20
14253.986978000001
 30
0.0
 11
26433.783799817349
 21
14253.986978000001
 31
0.0
  0
ARC
  5
11E2C
  8
1-前柱P
 10
26400.383799817351
 20
14247.386978
 30
0.0
 40
6.599999999999997
 50
90.0
 51
180.0
  0
LINE
  5
11E2D
  8
1-前柱P
 10
26400.383799817351
 20
14252.38697800001
 30
0.0
 11
26433.783799817349
 21
14252.38697800001
 31
0.0
  0
ARC
  5
11E2E
  8
1-前柱P
 10
26400.383799817351
 20
14247.386978
 30
0.0
 40
5.0
 50
90.0
 51
180.0
  0
LINE
  5
11E2F
  8
1-前柱P
 10
26433.783799817349
 20
14252.38697800001
 30
0.0
 11
26433.783799817349
 21
14253.986978000001
 31
0.0
  0
LINE
  5
11E30
  8
1-前柱P
 10
26449.183799817351
 20
14182.986978000001
 30
0.0
 11
26437.783799817349
 21
14182.986978000001
 31
0.0
  0
ARC
  5
11E31
  8
1-前柱P
 10
26449.183799817351
 20
14176.38697800001
 30
0.0
 40
6.599999999999997
 50
0.0
 51
90.0
  0
ARC
  5
11E32
  8
1-前柱P
 10
26437.783799817349
 20
14187.986978000001
 30
0.0
 40
5.0
 50
180.0
 51
270.0
  0
LINE
  5
11E33
  8
1-前柱P
 10
26437.783799817349
 20
14181.386978
 30
0.0
 11
26449.183799817351
 21
14181.386978
 31
0.0
  0
ARC
  5
11E34
  8
1-前柱P
 10
26437.783799817349
 20
14187.986978000001
 30
0.0
 40
6.599999999999997
 50
180.0
 51
270.0
  0
ARC
  5
11E35
  8
1-前柱P
 10
26449.183799817351
 20
14176.38697800001
 30
0.0
 40
5.0
 50
0.0
 51
90.0
  0
LINE
  5
11E36
  8
1-前柱P
 10
26432.783799817342
 20
14197.986978000001
 30
0.0
 11
26431.183799817351
 21
14197.986978000001
 31
0.0
  0
LINE
  5
11E37
  8
1-前柱カバ-P
 10
26455.783799817342
 20
14189.686978
 30
0.0
 11
26455.783799817342
 21
14248.986978000001
 31
0.0
  0
ARC
  5
11E38
  8
1-前柱カバ-P
 10
26449.183799817351
 20
14248.986978000001
 30
0.0
 40
6.599999999999997
 50
0.0
 51
90.0
  0
LINE
  5
11E39
  8
1-前柱カバ-P
 10
26454.183799817361
 20
14189.686978
 30
0.0
 11
26454.183799817361
 21
14248.986978000001
 31
0.0
  0
ARC
  5
11E3A
  8
1-前柱カバ-P
 10
26449.183799817351
 20
14189.686978
 30
0.0
 40
5.0
 50
270.0
 51
0.0
  0
LINE
  5
11E3B
  8
1-前柱カバ-P
 10
26449.183799817351
 20
14255.586977999999
 30
0.0
 11
26377.383799817351
 21
14255.586977999999
 31
0.0
  0
ARC
  5
11E3C
  8
1-前柱カバ-P
 10
26377.383799817351
 20
14248.986978000001
 30
0.0
 40
6.599999999999997
 50
90.0
 51
180.0
  0
LINE
  5
11E3D
  8
1-前柱カバ-P
 10
26449.183799817351
 20
14253.986978000001
 30
0.0
 11
26377.383799817351
 21
14253.986978000001
 31
0.0
  0
ARC
  5
11E3E
  8
1-前柱カバ-P
 10
26377.383799817351
 20
14248.986978000001
 30
0.0
 40
5.0
 50
90.0
 51
180.0
  0
ARC
  5
11E3F
  8
1-前柱カバ-P
 10
26449.183799817351
 20
14248.986978000001
 30
0.0
 40
5.0
 50
0.0
 51
90.0
  0
LINE
  5
11E40
  8
1-前柱カバ-P
 10
26370.783799817349
 20
14248.986978000001
 30
0.0
 11
26370.783799817349
 21
14189.686978
 31
0.0
  0
LINE
  5
11E41
  8
1-前柱カバ-P
 10
26372.383799817351
 20
14248.986978000001
 30
0.0
 11
26372.383799817351
 21
14189.686978
 31
0.0
  0
ARC
  5
11E42
  8
1-前柱カバ-P
 10
26377.383799817351
 20
14189.686978
 30
0.0
 40
5.0
 50
180.0
 51
270.0
  0
LINE
  5
11E43
  8
1-前柱カバ-P
  6
1PL-M
 62
     6
 10
26413.283799817349
 20
14248.086977999999
 30
0.0
 11
26413.283799817349
 21
14261.08697800001
 31
0.0
  0
LINE
  5
11E44
  8
1-前柱カバ-P
  6
HIDE-M
 62
     6
 10
26420.283799817349
 20
14255.586977999999
 30
0.0
 11
26420.283799817349
 21
14253.986978000001
 31
0.0
  0
LINE
  5
11E45
  8
1-前柱カバ-P
  6
HIDE-M
 62
     6
 10
26406.283799817342
 20
14255.586977999999
 30
0.0
 11
26406.283799817342
 21
14253.986978000001
 31
0.0
  0
ARC
  5
11E46
  8
1-前柱カバ-P
 10
26449.183799817351
 20
14189.686978
 30
0.0
 40
6.599999999999997
 50
270.0
 51
0.0
  0
ARC
  5
11E47
  8
1-前柱カバ-P
 10
26377.383799817351
 20
14189.686978
 30
0.0
 40
6.599999999999997
 50
180.0
 51
270.0
  0
LINE
  5
11E48
  8
1-前柱カバ-P
 10
26385.783799817342
 20
14183.08697800001
 30
0.0
 11
26377.383799817351
 21
14183.08697800001
 31
0.0
  0
LINE
  5
11E49
  8
1-前柱カバ-P
 10
26440.783799817342
 20
14183.08697800001
 30
0.0
 11
26449.183799817351
 21
14183.08697800001
 31
0.0
  0
LINE
  5
11E4A
  8
1-前柱カバ-P
 10
26385.783799817342
 20
14184.686978
 30
0.0
 11
26377.383799817351
 21
14184.686978
 31
0.0
  0
LINE
  5
11E4B
  8
1-前柱カバ-P
 10
26440.783799817342
 20
14184.686978
 30
0.0
 11
26449.183799817351
 21
14184.686978
 31
0.0
  0
LINE
  5
11E4C
  8
1-前柱カバ-P
 10
26440.783799817342
 20
14184.686978
 30
0.0
 11
26440.783799817342
 21
14183.08697800001
 31
0.0
  0
LINE
  5
11E4D
  8
1-前柱カバ-P
 10
26385.783799817342
 20
14183.08697800001
 30
0.0
 11
26385.783799817342
 21
14184.686978
 31
0.0
  0
LINE
  5
11E4E
  8
1-前柱カバ-P
  6
HIDE-M
 62
     6
 10
26381.883799817351
 20
14204.08697800001
 30
0.0
 11
26370.283799817342
 21
14204.08697800001
 31
0.0
  0
LINE
  5
11E4F
  8
1-前柱カバ-P
  6
HIDE-M
 62
     6
 10
26381.883799817351
 20
14212.086977999999
 30
0.0
 11
26370.283799817342
 21
14212.086977999999
 31
0.0
  0
LINE
  5
11E50
  8
1-前柱カバ-P
  6
HIDE-M
 62
     6
 10
26381.883799817351
 20
14205.086977999999
 30
0.0
 11
26370.283799817342
 21
14205.086977999999
 31
0.0
  0
LINE
  5
11E51
  8
1-前柱カバ-P
  6
HIDE-M
 62
     6
 10
26381.883799817351
 20
14211.086977999999
 30
0.0
 11
26370.283799817342
 21
14211.086977999999
 31
0.0
  0
LINE
  5
11E52
  8
1-前柱カバ-P
 10
26380.883799817359
 20
14213.58697800001
 30
0.0
 11
26373.883799817351
 21
14213.58697800001
 31
0.0
  0
LINE
  5
11E53
  8
1-前柱カバ-P
 10
26373.883799817351
 20
14202.586977999999
 30
0.0
 11
26380.883799817359
 21
14202.586977999999
 31
0.0
  0
LINE
  5
11E54
  8
1-前柱カバ-P
 10
26373.883799817351
 20
14201.83697799999
 30
0.0
 11
26373.883799817351
 21
14214.33697800001
 31
0.0
  0
LINE
  5
11E55
  8
1-前柱カバ-P
 10
26370.283799817342
 20
14202.08697800001
 30
0.0
 11
26370.283799817342
 21
14214.086977999999
 31
0.0
  0
LINE
  5
11E56
  8
1-前柱カバ-P
  6
HIDE-M
 62
     6
 10
26372.383799817351
 20
14213.58697800001
 30
0.0
 11
26370.783799817349
 21
14213.58697800001
 31
0.0
  0
LINE
  5
11E57
  8
1-前柱カバ-P
 10
26370.283799817342
 20
14214.086977999999
 30
0.0
 11
26370.783799817349
 21
14213.58697800001
 31
0.0
  0
ARC
  5
11E58
  8
1-前柱カバ-P
 10
26373.133799817359
 20
14214.33697800001
 30
0.0
 40
0.75
 50
0.0
 51
180.0
  0
LINE
  5
11E59
  8
1-前柱カバ-P
  6
HIDE-M
 62
     6
 10
26370.783799817349
 20
14202.586977999999
 30
0.0
 11
26372.383799817351
 21
14202.586977999999
 31
0.0
  0
LINE
  5
11E5A
  8
1-前柱カバ-P
 10
26370.283799817342
 20
14202.08697800001
 30
0.0
 11
26370.783799817349
 21
14202.586977999999
 31
0.0
  0
ARC
  5
11E5B
  8
1-前柱カバ-P
 10
26373.133799817359
 20
14201.83697799999
 30
0.0
 40
0.75
 50
180.0
 51
0.0
  0
LINE
  5
11E5C
  8
1-前柱カバ-P
 10
26381.883799817351
 20
14203.586977999999
 30
0.0
 11
26381.883799817351
 21
14212.58697799999
 31
0.0
  0
ARC
  5
11E5D
  8
1-前柱カバ-P
 10
26380.883799817359
 20
14212.58697799999
 30
0.0
 40
1.0
 50
0.0
 51
90.0
  0
ARC
  5
11E5E
  8
1-前柱カバ-P
 10
26380.883799817359
 20
14203.586977999999
 30
0.0
 40
1.0
 50
270.0
 51
0.0
  0
LINE
  5
11E5F
  8
1-前柱カバ-P
  6
1PL-M
 62
     6
 10
26386.883799817351
 20
14208.086977999999
 30
0.0
 11
26365.283799817349
 21
14208.086977999999
 31
0.0
  0
LINE
  5
11E60
  8
1-前柱カバ-P
 10
26380.883799817359
 20
14223.586977999999
 30
0.0
 11
26373.883799817351
 21
14223.586977999999
 31
0.0
  0
LINE
  5
11E61
  8
1-前柱カバ-P
 10
26370.283799817342
 20
14216.08697799999
 30
0.0
 11
26370.283799817342
 21
14224.08697799999
 31
0.0
  0
LINE
  5
11E62
  8
1-前柱カバ-P
  6
HIDE-M
 62
     6
 10
26372.383799817351
 20
14223.586977999999
 30
0.0
 11
26370.783799817349
 21
14223.586977999999
 31
0.0
  0
LINE
  5
11E63
  8
1-前柱カバ-P
 10
26370.283799817342
 20
14224.08697799999
 30
0.0
 11
26370.783799817349
 21
14223.586977999999
 31
0.0
  0
ARC
  5
11E64
  8
1-前柱カバ-P
 10
26373.133799817359
 20
14224.336977999999
 30
0.0
 40
0.75
 50
0.0
 51
180.0
  0
LINE
  5
11E65
  8
1-前柱カバ-P
 10
26381.883799817351
 20
14214.58697800001
 30
0.0
 11
26381.883799817351
 21
14222.586977999999
 31
0.0
  0
ARC
  5
11E66
  8
1-前柱カバ-P
 10
26380.883799817359
 20
14222.586977999999
 30
0.0
 40
1.0
 50
0.0
 51
90.0
  0
LINE
  5
11E67
  8
1-前柱カバ-P
  6
1PL-M
 62
     6
 10
26386.883799817351
 20
14218.08697799999
 30
0.0
 11
26365.283799817349
 21
14218.08697799999
 31
0.0
  0
LINE
  5
11E68
  8
1-前柱カバ-P
 10
26373.883799817351
 20
14216.33697799999
 30
0.0
 11
26373.883799817351
 21
14224.336977999999
 31
0.0
  0
LINE
  5
11E69
  8
1-前柱カバ-P
  6
HIDE-M
 62
     6
 10
26444.683799817361
 20
14204.08697800001
 30
0.0
 11
26456.283799817342
 21
14204.08697800001
 31
0.0
  0
LINE
  5
11E6A
  8
1-前柱カバ-P
  6
HIDE-M
 62
     6
 10
26444.683799817361
 20
14212.086977999999
 30
0.0
 11
26456.283799817342
 21
14212.086977999999
 31
0.0
  0
LINE
  5
11E6B
  8
1-前柱カバ-P
  6
HIDE-M
 62
     6
 10
26444.683799817361
 20
14205.086977999999
 30
0.0
 11
26456.283799817342
 21
14205.086977999999
 31
0.0
  0
LINE
  5
11E6C
  8
1-前柱カバ-P
  6
HIDE-M
 62
     6
 10
26444.683799817361
 20
14211.086977999999
 30
0.0
 11
26456.283799817342
 21
14211.086977999999
 31
0.0
  0
LINE
  5
11E6D
  8
1-前柱カバ-P
 10
26445.683799817351
 20
14213.58697800001
 30
0.0
 11
26452.683799817361
 21
14213.58697800001
 31
0.0
  0
LINE
  5
11E6E
  8
1-前柱カバ-P
 10
26452.683799817361
 20
14202.586977999999
 30
0.0
 11
26445.683799817351
 21
14202.586977999999
 31
0.0
  0
LINE
  5
11E6F
  8
1-前柱カバ-P
 10
26452.683799817361
 20
14201.83697799999
 30
0.0
 11
26452.683799817361
 21
14214.33697800001
 31
0.0
  0
LINE
  5
11E70
  8
1-前柱カバ-P
 10
26456.283799817342
 20
14202.08697800001
 30
0.0
 11
26456.283799817342
 21
14214.086977999999
 31
0.0
  0
LINE
  5
11E71
  8
1-前柱カバ-P
  6
HIDE-M
 62
     6
 10
26454.183799817361
 20
14213.58697800001
 30
0.0
 11
26455.783799817342
 21
14213.58697800001
 31
0.0
  0
LINE
  5
11E72
  8
1-前柱カバ-P
 10
26456.283799817342
 20
14214.086977999999
 30
0.0
 11
26455.783799817342
 21
14213.58697800001
 31
0.0
  0
ARC
  5
11E73
  8
1-前柱カバ-P
 10
26453.433799817351
 20
14214.33697800001
 30
0.0
 40
0.75
 50
0.0
 51
180.0
  0
LINE
  5
11E74
  8
1-前柱カバ-P
  6
HIDE-M
 62
     6
 10
26455.783799817342
 20
14202.586977999999
 30
0.0
 11
26454.183799817361
 21
14202.586977999999
 31
0.0
  0
LINE
  5
11E75
  8
1-前柱カバ-P
 10
26456.283799817342
 20
14202.08697800001
 30
0.0
 11
26455.783799817342
 21
14202.586977999999
 31
0.0
  0
ARC
  5
11E76
  8
1-前柱カバ-P
 10
26453.433799817351
 20
14201.83697799999
 30
0.0
 40
0.75
 50
180.0
 51
0.0
  0
LINE
  5
11E77
  8
1-前柱カバ-P
 10
26444.683799817361
 20
14203.586977999999
 30
0.0
 11
26444.683799817361
 21
14212.58697799999
 31
0.0
  0
ARC
  5
11E78
  8
1-前柱カバ-P
 10
26445.683799817351
 20
14212.58697799999
 30
0.0
 40
1.0
 50
90.0
 51
180.0
  0
ARC
  5
11E79
  8
1-前柱カバ-P
 10
26445.683799817351
 20
14203.586977999999
 30
0.0
 40
1.0
 50
180.0
 51
270.0
  0
LINE
  5
11E7A
  8
1-前柱カバ-P
  6
1PL-M
 62
     6
 10
26439.683799817351
 20
14208.086977999999
 30
0.0
 11
26461.283799817349
 21
14208.086977999999
 31
0.0
  0
LINE
  5
11E7B
  8
1-前柱カバ-P
 10
26445.683799817351
 20
14223.586977999999
 30
0.0
 11
26452.683799817361
 21
14223.586977999999
 31
0.0
  0
LINE
  5
11E7C
  8
1-前柱カバ-P
 10
26456.283799817342
 20
14216.08697799999
 30
0.0
 11
26456.283799817342
 21
14224.08697799999
 31
0.0
  0
LINE
  5
11E7D
  8
1-前柱カバ-P
  6
HIDE-M
 62
     6
 10
26454.183799817361
 20
14223.586977999999
 30
0.0
 11
26455.783799817342
 21
14223.586977999999
 31
0.0
  0
LINE
  5
11E7E
  8
1-前柱カバ-P
 10
26456.283799817342
 20
14224.08697799999
 30
0.0
 11
26455.783799817342
 21
14223.586977999999
 31
0.0
  0
ARC
  5
11E7F
  8
1-前柱カバ-P
 10
26453.433799817351
 20
14224.336977999999
 30
0.0
 40
0.75
 50
0.0
 51
180.0
  0
LINE
  5
11E80
  8
1-前柱カバ-P
 10
26444.683799817361
 20
14214.58697800001
 30
0.0
 11
26444.683799817361
 21
14222.586977999999
 31
0.0
  0
ARC
  5
11E81
  8
1-前柱カバ-P
 10
26445.683799817351
 20
14222.586977999999
 30
0.0
 40
1.0
 50
90.0
 51
180.0
  0
LINE
  5
11E82
  8
1-前柱カバ-P
  6
1PL-M
 62
     6
 10
26439.683799817351
 20
14218.08697799999
 30
0.0
 11
26461.283799817349
 21
14218.08697799999
 31
0.0
  0
LINE
  5
11E83
  8
1-前柱カバ-P
 10
26452.683799817361
 20
14216.33697799999
 30
0.0
 11
26452.683799817361
 21
14224.336977999999
 31
0.0
  0
LINE
  5
11E84
  8
1-前柱カバ-P
  6
HIDE-M
 62
     6
 10
26381.883799817351
 20
14222.08697800001
 30
0.0
 11
26370.283799817342
 21
14222.08697800001
 31
0.0
  0
LINE
  5
11E85
  8
1-前柱カバ-P
  6
HIDE-M
 62
     6
 10
26381.883799817351
 20
14221.08697800001
 30
0.0
 11
26370.283799817342
 21
14221.08697800001
 31
0.0
  0
LINE
  5
11E86
  8
1-前柱カバ-P
  6
HIDE-M
 62
     6
 10
26444.683799817361
 20
14222.08697800001
 30
0.0
 11
26456.283799817342
 21
14222.08697800001
 31
0.0
  0
LINE
  5
11E87
  8
1-前柱カバ-P
  6
HIDE-M
 62
     6
 10
26444.683799817361
 20
14221.08697800001
 30
0.0
 11
26456.283799817342
 21
14221.08697800001
 31
0.0
  0
LINE
  5
11E8B
  8
0-6
  6
CONTINUOUS
 62
     6
 10
24972.449348307771
 20
13542.987836
 30
0.0
 11
25972.448689307759
 21
13542.987836
 31
0.0
  0
TEXT
  5
11E8C
  8
0-6
  6
CONTINUOUS
 62
     7
 10
25068.44961230777
 20
13622.98809999999
 30
0.0
 40
160.0
  1
前柱（P）
 72
     4
 11
25468.44961230777
 21
13702.98809999999
 31
0.0
  0
LINE
  5
11E8D
  8
0-6
  6
CONTINUOUS
 62
     6
 10
26377.525053129171
 20
14128.986978000001
 30
0.0
 11
25972.448689307759
 21
13542.987836
 31
0.0
  0
LINE
  5
11E8E
  8
0-6
  6
CONTINUOUS
 62
     6
 10
24972.449348307771
 20
16080.048635954119
 30
0.0
 11
25972.448689307759
 21
16080.048635954119
 31
0.0
  0
TEXT
  5
11E8F
  8
0-6
  6
CONTINUOUS
 62
     7
 10
25068.44961230777
 20
16160.048899954099
 30
0.0
 40
160.0
  1
中柱（P）
 72
     4
 11
25468.44961230777
 21
16240.048899954099
 31
0.0
  0
LINE
  5
11E90
  8
0-6
  6
CONTINUOUS
 62
     6
 10
26377.525053129171
 20
16666.047777954122
 30
0.0
 11
25972.448689307759
 21
16080.048635954119
 31
0.0
  0
LINE
  5
11E91
  8
0-6
  6
CONTINUOUS
 62
     6
 10
24631.387457838238
 20
14743.977715828871
 30
0.0
 11
26087.38745783826
 21
14743.977715828871
 31
0.0
  0
TEXT
  5
11E92
  8
0-6
  6
CONTINUOUS
 62
     7
 10
24671.392731090651
 20
14823.97797982886
 30
0.0
 40
160.0
  1
前柱カバー（P）
 72
     4
 11
25359.392731090651
 21
14903.97797982886
 31
0.0
  0
LINE
  5
11E93
  8
0-6
  6
CONTINUOUS
 62
     6
 10
26386.625053129199
 20
14255.586977999999
 30
0.0
 11
26087.38745783826
 21
14743.977715828871
 31
0.0
  0
LINE
  5
11E94
  8
0-6
  6
CONTINUOUS
 62
     6
 10
24631.387457838238
 20
17300.97727982888
 30
0.0
 11
26087.38745783826
 21
17300.97727982888
 31
0.0
  0
TEXT
  5
11E95
  8
0-6
  6
CONTINUOUS
 62
     7
 10
24671.392731090651
 20
17380.977543828871
 30
0.0
 40
160.0
  1
中柱カバー（P）
 72
     4
 11
25359.392731090651
 21
17460.977543828871
 31
0.0
  0
LINE
  5
11E96
  8
0-6
  6
CONTINUOUS
 62
     6
 10
26386.625053129199
 20
16812.586542000001
 30
0.0
 11
26087.38745783826
 21
17300.97727982888
 31
0.0
  0
LINE
  5
11E97
  8
0-6
  6
CONTINUOUS
 62
     6
 10
24972.449348307771
 20
19957.42434304587
 30
0.0
 11
25972.448689307759
 21
19957.42434304587
 31
0.0
  0
TEXT
  5
11E98
  8
0-6
  6
CONTINUOUS
 62
     7
 10
25068.44961230777
 20
20037.424607045861
 30
0.0
 40
160.0
  1
後柱（P）
 72
     4
 11
25468.44961230777
 21
20117.424607045861
 31
0.0
  0
LINE
  5
11E99
  8
0-6
  6
CONTINUOUS
 62
     6
 10
26377.525053129171
 20
19371.42520104588
 30
0.0
 11
25972.448689307759
 21
19957.42434304587
 31
0.0
  0
LINE
  5
11E9A
  8
0-6
  6
CONTINUOUS
 62
     6
 10
24631.387457838238
 20
18736.495699171119
 30
0.0
 11
26087.387457838238
 21
18736.495699171119
 31
0.0
  0
TEXT
  5
11E9B
  8
0-6
  6
CONTINUOUS
 62
     7
 10
24671.392731090651
 20
18816.49596317111
 30
0.0
 40
160.0
  1
後柱カバー（P）
 72
     4
 11
25359.392731090651
 21
18896.49596317111
 31
0.0
  0
LINE
  5
11E9C
  8
0-6
  6
CONTINUOUS
 62
     6
 10
26386.625053129199
 20
19224.886437000001
 30
0.0
 11
26087.387457838238
 21
18736.495699171119
 31
0.0
  0
LINE
  5
11EDC
  8
0-1
  6
CONTINUOUS
 62
     3
 10
20716.778243817389
 20
8132.6883740000021
 30
0.0
 11
23549.781674817361
 21
8132.6883740000021
 31
0.0
  0
LINE
  5
11EDD
  8
0-1
  6
CONTINUOUS
 62
     3
 10
20716.778243817389
 20
8326.1887430000024
 30
0.0
 11
23549.781674817361
 21
8326.1887430000024
 31
0.0
  0
LINE
  5
11EDE
  8
0-1
  6
CONTINUOUS
 62
     3
 10
20588.781938817359
 20
8264.0026619999971
 30
0.0
 11
20588.781938817359
 21
8589.6883999999973
 31
0.0
  0
LINE
  5
11EDF
  8
0-1
  6
CONTINUOUS
 62
     3
 10
23634.780223817372
 20
8459.6884660000014
 30
0.0
 11
20588.781938817359
 21
8459.6884660000014
 31
0.0
  0
LINE
  5
11EE0
  8
0-1
  6
CONTINUOUS
 62
     3
 10
20588.781938817359
 20
8589.6883999999973
 30
0.0
 11
23614.783126817361
 21
8589.6883999999973
 31
0.0
  0
LINE
  5
11EE1
  8
0-1
  6
CONTINUOUS
 62
     3
 10
23642.280619817371
 20
6241.1883740000021
 30
0.0
 11
23542.28127881738
 21
6241.1883740000021
 31
0.0
  0
LINE
  5
11EE2
  8
0-1
  6
CONTINUOUS
 62
     3
 10
23542.28127881738
 20
6241.1883740000021
 30
0.0
 11
23542.28127881738
 21
6141.1885390000007
 31
0.0
  0
LINE
  5
11EE3
  8
0-1
  6
CONTINUOUS
 62
     3
 10
23642.280619817371
 20
6141.1885390000007
 30
0.0
 11
23642.280619817371
 21
6241.1883740000021
 31
0.0
  0
LINE
  5
11EE4
  8
0-1
  6
CONTINUOUS
 62
     3
 10
23549.781674817361
 20
8459.6884660000014
 30
0.0
 11
23549.781674817361
 21
6241.1883740000021
 31
0.0
  0
LINE
  5
11EE5
  8
0-1
  6
CONTINUOUS
 62
     3
 10
23498.281938817359
 20
8132.6883740000021
 30
0.0
 11
23498.281938817359
 21
6141.1885390000007
 31
0.0
  0
LINE
  5
11EE6
  8
0-1
  6
CONTINUOUS
 62
     3
 10
23614.783126817361
 20
8589.6883999999973
 30
0.0
 11
23614.783126817361
 21
6241.1883740000021
 31
0.0
  0
LINE
  5
11EE7
  8
0-1
  6
CONTINUOUS
 62
     3
 10
23634.78193881737
 20
8459.6884660000014
 30
0.0
 11
23634.78193881737
 21
6241.1883740000021
 31
0.0
  0
LINE
  5
11EE8
  8
0-1
  6
CONTINUOUS
 62
     3
 10
20588.781938817359
 20
8264.0026619999971
 30
0.0
 11
20631.781938817359
 21
8264.0026619999971
 31
0.0
  0
LINE
  5
11EE9
  8
0-1
  6
CONTINUOUS
 62
     3
 10
20624.279299817372
 20
6241.1883740000021
 30
0.0
 11
20724.278639817381
 21
6241.1883740000021
 31
0.0
  0
LINE
  5
11EEA
  8
0-1
  6
CONTINUOUS
 62
     3
 10
20724.278639817381
 20
6241.1883740000021
 30
0.0
 11
20724.278639817381
 21
6141.1885390000007
 31
0.0
  0
LINE
  5
11EEB
  8
0-1
  6
CONTINUOUS
 62
     3
 10
20624.279299817372
 20
6141.1885390000007
 30
0.0
 11
20624.279299817372
 21
6241.1883740000021
 31
0.0
  0
LINE
  5
11EEC
  8
0-1
  6
CONTINUOUS
 62
     3
 10
20768.281938817359
 20
8132.6883740000021
 30
0.0
 11
20768.281938817359
 21
6141.1885390000007
 31
0.0
  0
LINE
  5
11EED
  8
0-1
  6
CONTINUOUS
 62
     3
 10
20716.778243817389
 20
8459.6884660000014
 30
0.0
 11
20716.778243817389
 21
6241.1883740000021
 31
0.0
  0
LINE
  5
11EEE
  8
0-1
  6
CONTINUOUS
 62
     3
 10
20651.778771817371
 20
8589.6883999999973
 30
0.0
 11
20651.778771817371
 21
6241.1883740000021
 31
0.0
  0
LINE
  5
11EEF
  8
0-1
  6
CONTINUOUS
 62
     3
 10
20631.781938817359
 20
8459.6884660000014
 30
0.0
 11
20631.781938817359
 21
6241.1883740000021
 31
0.0
  0
LINE
  5
11EF0
  8
0-1
  6
CONTINUOUS
 62
     3
 10
20768.281938817359
 20
6661.1892649999991
 30
0.0
 11
23498.281938817359
 21
6661.1892649999991
 31
0.0
  0
LINE
  5
11EF1
  8
0-1
  6
CONTINUOUS
 62
     3
 10
20768.281938817359
 20
6596.1888030000027
 30
0.0
 11
23498.281938817359
 21
6596.1888030000027
 31
0.0
  0
LINE
  5
11EF2
  8
0-1
  6
CONTINUOUS
 62
     3
 10
20768.281938817359
 20
6531.1888360000003
 30
0.0
 11
23498.281938817359
 21
6531.1888360000003
 31
0.0
  0
LINE
  5
11EF3
  8
0-1
  6
CONTINUOUS
 62
     3
 10
20768.281938817359
 20
6466.1883740000039
 30
0.0
 11
23498.281938817359
 21
6466.1883740000039
 31
0.0
  0
LINE
  5
11EF4
  8
0-1
  6
CONTINUOUS
 62
     3
 10
20768.281938817359
 20
6401.1889020000071
 30
0.0
 11
23498.281938817359
 21
6401.1889020000071
 31
0.0
  0
LINE
  5
11EF5
  8
0-1
  6
CONTINUOUS
 62
     3
 10
20768.281938817359
 20
6336.1889349999956
 30
0.0
 11
23498.281938817359
 21
6336.1889349999956
 31
0.0
  0
LINE
  5
11EF6
  8
0-1
  6
CONTINUOUS
 62
     3
 10
20768.281938817359
 20
6271.1889680000004
 30
0.0
 11
23498.281938817359
 21
6271.1889680000004
 31
0.0
  0
LINE
  5
11EF7
  8
0-1
  6
CONTINUOUS
 62
     3
 10
20768.281938817359
 20
6206.1885060000041
 30
0.0
 11
23498.281938817359
 21
6206.1885060000041
 31
0.0
  0
LINE
  5
11EF8
  8
0-1
  6
CONTINUOUS
 62
     3
 10
20768.281938817359
 20
8026.1885719999982
 30
0.0
 11
23498.281938817359
 21
8026.1885719999982
 31
0.0
  0
LINE
  5
11EF9
  8
0-1
  6
CONTINUOUS
 62
     3
 10
20768.281938817359
 20
7961.1886050000021
 30
0.0
 11
23498.281938817359
 21
7961.1886050000021
 31
0.0
  0
LINE
  5
11EFA
  8
0-1
  6
CONTINUOUS
 62
     3
 10
20768.281938817359
 20
7896.1891330000062
 30
0.0
 11
23498.281938817359
 21
7896.1891330000062
 31
0.0
  0
LINE
  5
11EFB
  8
0-1
  6
CONTINUOUS
 62
     3
 10
20768.281938817359
 20
7831.1891659999937
 30
0.0
 11
23498.281938817359
 21
7831.1891659999937
 31
0.0
  0
LINE
  5
11EFC
  8
0-1
  6
CONTINUOUS
 62
     3
 10
20768.281938817359
 20
7766.1891989999967
 30
0.0
 11
23498.281938817359
 21
7766.1891989999967
 31
0.0
  0
LINE
  5
11EFD
  8
0-1
  6
CONTINUOUS
 62
     3
 10
20768.281938817359
 20
7701.1887370000022
 30
0.0
 11
23498.281938817359
 21
7701.1887370000022
 31
0.0
  0
LINE
  5
11EFE
  8
0-1
  6
CONTINUOUS
 62
     3
 10
20768.281938817359
 20
7636.1887699999979
 30
0.0
 11
23498.281938817359
 21
7636.1887699999979
 31
0.0
  0
LINE
  5
11EFF
  8
0-1
  6
CONTINUOUS
 62
     3
 10
20768.281938817359
 20
7571.1892980000011
 30
0.0
 11
23498.281938817359
 21
7571.1892980000011
 31
0.0
  0
LINE
  5
11F00
  8
0-1
  6
CONTINUOUS
 62
     3
 10
20768.281938817359
 20
7506.1893309999978
 30
0.0
 11
23498.281938817359
 21
7506.1893309999978
 31
0.0
  0
LINE
  5
11F01
  8
0-1
  6
CONTINUOUS
 62
     3
 10
20768.281938817359
 20
7441.1888690000023
 30
0.0
 11
23498.281938817359
 21
7441.1888690000023
 31
0.0
  0
LINE
  5
11F02
  8
0-1
  6
CONTINUOUS
 62
     3
 10
20768.281938817359
 20
7376.188901999999
 30
0.0
 11
23498.281938817359
 21
7376.188901999999
 31
0.0
  0
LINE
  5
11F03
  8
0-1
  6
CONTINUOUS
 62
     3
 10
20768.281938817359
 20
7311.1889350000029
 30
0.0
 11
23498.281938817359
 21
7311.1889350000029
 31
0.0
  0
LINE
  5
11F04
  8
0-1
  6
CONTINUOUS
 62
     3
 10
20768.281938817359
 20
7246.1884730000029
 30
0.0
 11
23498.281938817359
 21
7246.1884730000029
 31
0.0
  0
LINE
  5
11F05
  8
0-1
  6
CONTINUOUS
 62
     3
 10
20768.281938817359
 20
7181.1885060000041
 30
0.0
 11
23498.281938817359
 21
7181.1885060000041
 31
0.0
  0
LINE
  5
11F06
  8
0-1
  6
CONTINUOUS
 62
     3
 10
20768.281938817359
 20
7116.1890340000009
 30
0.0
 11
23498.281938817359
 21
7116.1890340000009
 31
0.0
  0
LINE
  5
11F07
  8
0-1
  6
CONTINUOUS
 62
     3
 10
20768.281938817359
 20
7051.1890669999966
 30
0.0
 11
23498.281938817359
 21
7051.1890669999966
 31
0.0
  0
LINE
  5
11F08
  8
0-1
  6
CONTINUOUS
 62
     3
 10
20768.281938817359
 20
6986.1891000000032
 30
0.0
 11
23498.281938817359
 21
6986.1891000000032
 31
0.0
  0
LINE
  5
11F09
  8
0-1
  6
CONTINUOUS
 62
     3
 10
20768.281938817359
 20
6921.1886380000051
 30
0.0
 11
23498.281938817359
 21
6921.1886380000051
 31
0.0
  0
LINE
  5
11F0A
  8
0-1
  6
CONTINUOUS
 62
     3
 10
20768.281938817359
 20
6856.1886710000017
 30
0.0
 11
23498.281938817359
 21
6856.1886710000017
 31
0.0
  0
LINE
  5
11F0B
  8
0-1
  6
CONTINUOUS
 62
     3
 10
20768.281938817359
 20
6791.1891989999967
 30
0.0
 11
23498.281938817359
 21
6791.1891989999967
 31
0.0
  0
LINE
  5
11F0C
  8
0-1
  6
CONTINUOUS
 62
     3
 10
20768.281938817359
 20
6726.1892320000024
 30
0.0
 11
23498.281938817359
 21
6726.1892320000024
 31
0.0
  0
LINE
  5
11F0D
  8
0-1
  6
CONTINUOUS
 62
     3
 10
20768.281938817359
 20
8080.6485920000023
 30
0.0
 11
23498.281938817359
 21
8080.6485920000023
 31
0.0
  0
LINE
  5
11F0E
  8
0-1
  6
CONTINUOUS
 62
     3
 10
20624.279299817372
 20
6141.1885390000007
 30
0.0
 11
27003.760314942559
 21
6141.1885390000007
 31
0.0
  0
LINE
  5
11F0F
  8
0-1
  6
CONTINUOUS
 62
     3
 10
20742.781199817378
 20
8335.1891200000064
 30
0.0
 11
21020.21072981738
 21
8335.1891200000064
 31
0.0
  0
LINE
  5
11F10
  8
0-1
  6
CONTINUOUS
 62
     3
 10
20742.781199817378
 20
8377.1885650000022
 30
0.0
 11
21052.207667817391
 21
8377.1885650000022
 31
0.0
  0
LINE
  5
11F11
  8
0-1
  6
CONTINUOUS
 62
     3
 10
20737.78093681738
 20
8340.1888889999937
 30
0.0
 11
20737.78093681738
 21
8372.1892910000006
 31
0.0
  0
LINE
  5
11F12
  8
0-1
  6
CONTINUOUS
 62
     3
 10
20716.778243817389
 20
8386.1884470000077
 30
0.0
 11
23549.781674817361
 21
8386.1884470000077
 31
0.0
  0
LINE
  5
11F13
  8
0-1
  6
CONTINUOUS
 62
     3
 10
21023.744169817372
 20
8336.6529740000005
 30
0.0
 11
21055.745067817381
 21
8368.653376000002
 31
0.0
  0
LINE
  5
11F14
  8
0-1
  6
CONTINUOUS
 62
     3
 10
20737.78093681738
 20
8368.7889730000006
 30
0.0
 11
21055.87373581736
 21
8368.7889730000006
 31
0.0
  0
LINE
  5
11F15
  8
0-1
  6
CONTINUOUS
 62
     3
 10
20737.78093681738
 20
8360.3888860000006
 30
0.0
 11
21047.48057781739
 21
8360.3888860000006
 31
0.0
  0
LINE
  5
11F16
  8
0-1
  6
CONTINUOUS
 62
     3
 10
20737.78093681738
 20
8351.9892939999972
 30
0.0
 11
21039.081479817381
 21
8351.9892939999972
 31
0.0
  0
LINE
  5
11F17
  8
0-1
  6
CONTINUOUS
 62
     3
 10
20737.78093681738
 20
8343.5892070000027
 30
0.0
 11
21030.67842381739
 21
8343.5892070000027
 31
0.0
  0
LINE
  5
11F18
  8
0-1
  6
CONTINUOUS
 62
     3
 10
23528.78096281736
 20
8368.7889730000006
 30
0.0
 11
23210.688162817361
 21
8368.7889730000006
 31
0.0
  0
LINE
  5
11F19
  8
0-1
  6
CONTINUOUS
 62
     3
 10
23528.78096281736
 20
8360.3888860000006
 30
0.0
 11
23219.083300817379
 21
8360.3888860000006
 31
0.0
  0
LINE
  5
11F1A
  8
0-1
  6
CONTINUOUS
 62
     3
 10
23528.78096281736
 20
8351.9892939999972
 30
0.0
 11
23227.482397817359
 21
8351.9892939999972
 31
0.0
  0
LINE
  5
11F1B
  8
0-1
  6
CONTINUOUS
 62
     3
 10
23528.78096281736
 20
8343.5892070000027
 30
0.0
 11
23235.88149581735
 21
8343.5892070000027
 31
0.0
  0
LINE
  5
11F1C
  8
0-1
  6
CONTINUOUS
 62
     3
 10
23523.780698817369
 20
8377.1885650000022
 30
0.0
 11
23214.35423081736
 21
8377.1885650000022
 31
0.0
  0
LINE
  5
11F1D
  8
0-1
  6
CONTINUOUS
 62
     3
 10
23523.780698817369
 20
8335.1891200000064
 30
0.0
 11
23246.351169817361
 21
8335.1891200000064
 31
0.0
  0
LINE
  5
11F1E
  8
0-1
  6
CONTINUOUS
 62
     3
 10
23528.78096281736
 20
8340.1888889999937
 30
0.0
 11
23528.78096281736
 21
8372.1892910000006
 31
0.0
  0
LINE
  5
11F1F
  8
0-1
  6
CONTINUOUS
 62
     3
 10
23242.81574881736
 20
8336.6529740000005
 30
0.0
 11
23210.818810817382
 21
8368.653376000002
 31
0.0
  0
LINE
  5
11F20
  8
0-2
  6
CONTINUOUS
 62
     4
 10
22496.969979317371
 20
6888.415233000007
 30
0.0
 11
22396.970639317358
 21
6888.415233000007
 31
0.0
  0
LINE
  5
11F21
  8
0-2
  6
CONTINUOUS
 62
     4
 10
21769.585979317359
 20
6888.415233000007
 30
0.0
 11
21869.585319317372
 21
6888.415233000007
 31
0.0
  0
LINE
  5
11F22
  8
0-5
  6
CONTINUOUS
 62
     4
 10
23592.28193881737
 20
4461.1889349999938
 30
0.0
 11
23592.28193881737
 21
4301.1893970000001
 31
0.0
  0
LINE
  5
11F23
  8
0-5
  6
CONTINUOUS
 62
     4
 10
18452.40891881736
 20
6349.0350210000024
 30
0.0
 11
18572.40733481737
 21
6141.1885390000007
 31
0.0
  0
LINE
  5
11F24
  8
0-5
  6
CONTINUOUS
 62
     4
 10
18572.40733481737
 20
6141.1885390000007
 30
0.0
 11
18692.407730817369
 21
6349.0350210000024
 31
0.0
  0
LINE
  5
11F25
  8
0-5
  6
CONTINUOUS
 62
     4
 10
18692.407730817369
 20
6349.0350210000024
 30
0.0
 11
18452.40891881736
 21
6349.0350210000024
 31
0.0
  0
LINE
  5
11F26
  8
0-5
  6
CONTINUOUS
 62
     4
 10
20674.281938817359
 20
4461.1889349999938
 30
0.0
 11
20674.281938817359
 21
4301.1893970000001
 31
0.0
  0
LINE
  5
11F27
  8
2-0
  6
CENTER2
 62
     6
 10
23592.28193881737
 20
5878.536116000002
 30
0.0
 11
23592.28193881737
 21
6915.6791430000003
 31
0.0
  0
LINE
  5
11F28
  8
2-0
  6
CENTER2
 62
     6
 10
20674.281938817359
 20
5878.536116000002
 30
0.0
 11
20674.281938817359
 21
6915.6791430000003
 31
0.0
  0
ARC
  5
11F29
  8
0-1
  6
CONTINUOUS
 62
     3
 10
20742.781199817378
 20
8372.1892910000006
 30
0.0
 40
5.0
 50
90.0
 51
180.0
  0
ARC
  5
11F2A
  8
0-1
  6
CONTINUOUS
 62
     3
 10
20742.781199817378
 20
8340.1888889999937
 30
0.0
 40
5.0
 50
180.0
 51
269.9999850001808
  0
ARC
  5
11F2B
  8
0-1
  6
CONTINUOUS
 62
     3
 10
21020.21072981738
 20
8340.1888889999937
 30
0.0
 40
5.0
 50
269.9999850001808
 51
314.99998500027681
  0
ARC
  5
11F2C
  8
0-1
  6
CONTINUOUS
 62
     3
 10
21052.207667817391
 20
8372.1892910000006
 30
0.0
 40
5.0
 50
314.99998500027681
 51
90.0
  0
ARC
  5
11F2D
  8
0-1
  6
CONTINUOUS
 62
     3
 10
23523.780698817369
 20
8340.1888889999937
 30
0.0
 40
5.0
 50
269.9999850001808
 51
0.0
  0
ARC
  5
11F2E
  8
0-1
  6
CONTINUOUS
 62
     3
 10
23523.780698817369
 20
8372.1892910000006
 30
0.0
 40
5.0
 50
0.0
 51
90.0
  0
ARC
  5
11F2F
  8
0-1
  6
CONTINUOUS
 62
     3
 10
23214.35423081736
 20
8372.1892910000006
 30
0.0
 40
5.0
 50
90.0
 51
224.99998499997761
  0
ARC
  5
11F30
  8
0-1
  6
CONTINUOUS
 62
     3
 10
23246.351169817361
 20
8340.1888889999937
 30
0.0
 40
5.0
 50
224.99998499997761
 51
269.9999850001808
  0
CIRCLE
  5
11F31
  8
0-5
  6
CONTINUOUS
 62
     4
 10
23592.28193881737
 20
4101.1882420000011
 30
0.0
 40
199.9999949999999
  0
CIRCLE
  5
11F32
  8
0-5
  6
CONTINUOUS
 62
     4
 10
20674.281938817359
 20
4101.1882420000011
 30
0.0
 40
199.9999949999999
  0
TEXT
  5
11F33
  8
0-5
  6
CONTINUOUS
 62
     7
 10
23540.369063817361
 20
4011.7132600000009
 30
0.0
 40
160.0
  1
2
 72
     4
 11
23593.70239715069
 21
4091.7132600000009
 31
0.0
  0
TEXT
  5
11F34
  8
0-5
  6
CONTINUOUS
 62
     7
 10
20064.281411817381
 20
6988.0104361594431
 30
0.0
 40
160.0
  1
(2131.5)
 50
90.0
 72
     4
 11
19984.281411817381
 21
7441.3437694927761
 31
0.0
  0
TEXT
  5
11F35
  8
0-5
  6
CONTINUOUS
 62
     7
 10
18452.40891881736
 20
6429.0347900000024
 30
0.0
 40
160.0
  1
G.L
 72
     4
 11
18612.40891881736
 21
6509.0347900000043
 31
0.0
  0
TEXT
  5
11F36
  8
0-5
  6
CONTINUOUS
 62
     7
 10
20622.369064817369
 20
4011.7132600000009
 30
0.0
 40
160.0
  1
1
 72
     4
 11
20649.03573148404
 21
4091.7132600000009
 31
0.0
  0
CIRCLE
  5
11F37
  8
0-4
  6
CONTINUOUS
 62
     4
 10
22133.27995931737
 20
6627.2449749999987
 30
0.0
 40
18.487504999999981
  0
LINE
  5
11F38
  8
1-前柱カバ-P
 10
26349.781938817381
 20
8459.6884660000014
 30
0.0
 11
26349.781938817381
 21
6141.1885390000007
 31
0.0
  0
LINE
  5
11F39
  8
1-前柱カバ-P
 10
26434.78193881737
 20
8589.6883999999973
 30
0.0
 11
26434.78193881737
 21
6141.1885390000007
 31
0.0
  0
LINE
  5
11F3A
  8
0-1
  6
CONTINUOUS
 62
     3
 10
26477.78193881737
 20
8459.6884660000087
 30
0.0
 11
23549.781674817361
 21
8459.6884660000014
 31
0.0
  0
LINE
  5
11F3B
  8
0-1
  6
CONTINUOUS
 62
     3
 10
23614.783126817361
 20
8589.6883999999973
 30
0.0
 11
26477.78193881737
 21
8589.6883999999973
 31
0.0
  0
LINE
  5
11F3C
  8
0-1
  6
CONTINUOUS
 62
     3
 10
26477.78193881737
 20
8264.0026620000026
 30
0.0
 11
26477.78193881737
 21
8589.6883999999973
 31
0.0
  0
LINE
  5
11F3D
  8
0-1
  6
CONTINUOUS
 62
     3
 10
26477.78193881737
 20
8264.0026620000026
 30
0.0
 11
26434.78193881737
 21
8264.0026620000026
 31
0.0
  0
LINE
  5
11F3E
  8
2-0
  6
CENTER2
 62
     6
 10
26392.28193881737
 20
5878.536116000002
 30
0.0
 11
26392.28193881737
 21
6915.6791430000003
 31
0.0
  0
LINE
  5
11F3F
  8
1-桁前P28
 10
26349.781938817381
 20
8262.0026620000026
 30
0.0
 11
23634.781938817359
 21
8262.0026620000026
 31
0.0
  0
LINE
  5
11F40
  8
0-5
  6
CONTINUOUS
 62
     4
 10
26392.28193881737
 20
4461.1889349999938
 30
0.0
 11
26392.28193881737
 21
4301.1893970000001
 31
0.0
  0
CIRCLE
  5
11F41
  8
0-5
  6
CONTINUOUS
 62
     4
 10
26392.28193881737
 20
4101.1882420000011
 30
0.0
 40
199.9999949999999
  0
TEXT
  5
11F42
  8
0-5
  6
CONTINUOUS
 62
     7
 10
26340.369063817379
 20
4011.7132600000009
 30
0.0
 40
160.0
  1
3
 72
     4
 11
26393.702397150711
 21
4091.7132600000009
 31
0.0
  0
TEXT
  5
11F43
  8
0-5
  6
CONTINUOUS
 62
     7
 10
27884.607109111748
 20
7247.903096631162
 30
0.0
 40
160.0
  1
(2260)
 50
90.0
 72
     4
 11
27804.607109111748
 21
7634.5697632978299
 31
0.0
  0
LINE
  5
11F44
  8
0-1
  6
CONTINUOUS
 62
     3
 10
12720.57287258607
 20
16816.962318862439
 30
0.0
 11
12720.57287258607
 21
19461.985685
 31
0.0
  0
LINE
  5
11F45
  8
0-1
  6
CONTINUOUS
 62
     3
 10
12757.57304458607
 20
16801.695766961871
 30
0.0
 11
12757.57304458607
 21
19461.985685
 31
0.0
  0
LINE
  5
11F46
  8
0-1
  6
CONTINUOUS
 62
     3
 10
12920.57353258607
 20
16734.44052798978
 30
0.0
 11
12920.57353258607
 21
19461.985685
 31
0.0
  0
LINE
  5
11F47
  8
0-1
  6
CONTINUOUS
 62
     3
 10
12957.57370458607
 20
16719.173976089201
 30
0.0
 11
12957.57370458607
 21
19461.985685
 31
0.0
  0
LINE
  5
11F48
  8
0-1
  6
CONTINUOUS
 62
     3
 10
13120.574192586069
 20
16651.91873711711
 30
0.0
 11
13120.574192586069
 21
19461.985685
 31
0.0
  0
LINE
  5
11F49
  8
0-1
  6
CONTINUOUS
 62
     3
 10
13157.574364586089
 20
16636.652185216539
 30
0.0
 11
13157.574364586089
 21
19461.985685
 31
0.0
  0
LINE
  5
11F4A
  8
0-1
  6
CONTINUOUS
 62
     3
 10
8320.5642935859578
 20
18636.061171321009
 30
0.0
 11
8320.5642935859578
 21
19461.985685
 31
0.0
  0
LINE
  5
11F4B
  8
0-1
  6
CONTINUOUS
 62
     3
 10
8357.5654545859506
 20
18620.741786037201
 30
0.0
 11
8357.5654545859506
 21
19461.985685
 31
0.0
  0
LINE
  5
11F4C
  8
0-1
  6
CONTINUOUS
 62
     3
 10
8520.5639635859479
 20
18553.256418211698
 30
0.0
 11
8520.5639635859479
 21
19461.985685
 31
0.0
  0
LINE
  5
11F4D
  8
0-1
  6
CONTINUOUS
 62
     3
 10
8557.5631445859617
 20
18537.937852696319
 30
0.0
 11
8557.5631445859617
 21
19461.985685
 31
0.0
  0
LINE
  5
11F4E
  8
0-1
  6
CONTINUOUS
 62
     3
 10
8720.5646225859546
 20
18470.45125563223
 30
0.0
 11
8720.5646225859546
 21
19461.985685
 31
0.0
  0
LINE
  5
11F4F
  8
0-1
  6
CONTINUOUS
 62
     3
 10
8757.5647945859582
 20
18455.132279818601
 30
0.0
 11
8757.5647945859582
 21
19461.985685
 31
0.0
  0
LINE
  5
11F50
  8
0-1
  6
CONTINUOUS
 62
     3
 10
8920.5642935859596
 20
18387.646502108881
 30
0.0
 11
8920.5642935859596
 21
19461.985685
 31
0.0
  0
LINE
  5
11F51
  8
0-1
  6
CONTINUOUS
 62
     3
 10
8957.5654545859488
 20
18372.327116825101
 30
0.0
 11
8957.5654545859488
 21
19461.985685
 31
0.0
  0
LINE
  5
11F52
  8
0-1
  6
CONTINUOUS
 62
     3
 10
7720.5642935859578
 20
18884.475840533141
 30
0.0
 11
7720.5642935859578
 21
19461.985685
 31
0.0
  0
LINE
  5
11F53
  8
0-1
  6
CONTINUOUS
 62
     3
 10
7757.5654545859488
 20
18869.15645524934
 30
0.0
 11
7757.5654545859488
 21
19461.985685
 31
0.0
  0
LINE
  5
11F54
  8
0-1
  6
CONTINUOUS
 62
     3
 10
7920.5639635859479
 20
18801.671087423831
 30
0.0
 11
7920.5639635859479
 21
19461.985685
 31
0.0
  0
LINE
  5
11F55
  8
0-1
  6
CONTINUOUS
 62
     3
 10
7957.5631445859581
 20
18786.35252190844
 30
0.0
 11
7957.5631445859581
 21
19461.985685
 31
0.0
  0
LINE
  5
11F56
  8
0-1
  6
CONTINUOUS
 62
     3
 10
8120.5646225859573
 20
18718.865924844351
 30
0.0
 11
8120.5646225859573
 21
19461.985685
 31
0.0
  0
LINE
  5
11F57
  8
0-1
  6
CONTINUOUS
 62
     3
 10
8157.5647945859546
 20
18703.546949030719
 30
0.0
 11
8157.5647945859546
 21
19461.985685
 31
0.0
  0
LINE
  5
11F58
  8
0-1
  6
CONTINUOUS
 62
     3
 10
7541.0613775859338
 20
19509.98900999999
 30
0.0
 11
13277.06232758596
 21
19509.98900999999
 31
0.0
  0
LINE
  5
11F59
  8
0-1
  6
CONTINUOUS
 62
     3
 10
7485.561614585934
 20
19461.985685
 30
0.0
 11
13332.563079585951
 21
19461.985685
 31
0.0
  0
LINE
  5
11F5A
  8
0-6
  6
CONTINUOUS
 62
     6
 10
11438.988320956911
 20
19652.391617999991
 30
0.0
 11
11395.686351956891
 21
19627.390297999991
 31
0.0
  0
LINE
  5
11F5B
  8
0-6
  6
CONTINUOUS
 62
     6
 10
11438.988320956911
 20
19652.391617999991
 30
0.0
 11
11492.336346956899
 21
19509.98900999999
 31
0.0
  0
LINE
  5
11F5C
  8
0-6
  6
CONTINUOUS
 62
     6
 10
11395.686351956891
 20
19627.390297999991
 30
0.0
 11
11438.988320956911
 21
19652.391617999991
 31
0.0
  0
LINE
  5
11F5D
  8
0-6
  6
CONTINUOUS
 62
     6
 10
11492.336346956899
 20
19509.98900999999
 30
0.0
 11
11395.686351956891
 21
19627.390297999991
 31
0.0
  0
LINE
  5
11F5E
  8
0-6
  6
CONTINUOUS
 62
     6
 10
11492.336346956899
 20
19509.98900999999
 30
0.0
 11
11438.988320956911
 21
19652.391617999991
 31
0.0
  0
LINE
  5
11F5F
  8
0-6
  6
CONTINUOUS
 62
     6
 10
11395.686351956891
 20
19627.390297999991
 30
0.0
 11
11492.336346956899
 21
19509.98900999999
 31
0.0
  0
LINE
  5
11F60
  8
0-6
  6
CONTINUOUS
 62
     6
 10
11417.3383259569
 20
19639.892938000001
 30
0.0
 11
11191.752509287209
 21
20063.562777731098
 31
0.0
  0
TEXT
  5
11F61
  8
0-6
  6
CONTINUOUS
 62
     7
 10
11018.081305956901
 20
20619.988217999999
 30
0.0
 40
160.0
  1
鼻隠し後
 72
     4
 11
11380.747972623571
 21
20699.988217999999
 31
0.0
  0
LINE
  5
11F62
  8
0-6
  6
CONTINUOUS
 62
     6
 10
10938.079061956911
 20
20539.987954
 30
0.0
 11
11780.518620956909
 21
20539.987954
 31
0.0
  0
LINE
  5
11F63
  8
0-6
  6
CONTINUOUS
 62
     6
 10
11123.71865023469
 20
20191.337456683399
 30
0.0
 11
10938.079061956911
 21
20539.987954
 31
0.0
  0
LINE
  5
11F64
  8
0-6
  6
CONTINUOUS
 62
     6
 10
12564.844954806689
 20
19465.663629999999
 30
0.0
 11
12671.54001680669
 21
19343.487743000002
 31
0.0
  0
LINE
  5
11F65
  8
0-6
  6
CONTINUOUS
 62
     6
 10
12671.54001680669
 20
19343.487743000002
 30
0.0
 11
12610.234326806691
 21
19493.663919999992
 31
0.0
  0
LINE
  5
11F66
  8
0-6
  6
CONTINUOUS
 62
     6
 10
12671.54001680669
 20
19343.487743000002
 30
0.0
 11
12564.844954806689
 21
19465.663629999999
 31
0.0
  0
LINE
  5
11F67
  8
0-6
  6
CONTINUOUS
 62
     6
 10
12564.844954806689
 20
19465.663629999999
 30
0.0
 11
12610.234326806691
 21
19493.663919999992
 31
0.0
  0
LINE
  5
11F68
  8
0-6
  6
CONTINUOUS
 62
     6
 10
12610.234326806691
 20
19493.663919999992
 30
0.0
 11
12671.54001680669
 21
19343.487743000002
 31
0.0
  0
LINE
  5
11F69
  8
0-6
  6
CONTINUOUS
 62
     6
 10
12610.234326806691
 20
19493.663919999992
 30
0.0
 11
12564.844954806689
 21
19465.663629999999
 31
0.0
  0
LINE
  5
11F6A
  8
0-6
  6
CONTINUOUS
 62
     6
 10
12671.54001680669
 20
19343.487743000002
 30
0.0
 11
12377.61218980669
 21
19749.985842999991
 31
0.0
  0
LINE
  5
11F6B
  8
0-6
  6
CONTINUOUS
 62
     6
 10
11577.610540806691
 20
19749.985842999991
 30
0.0
 11
12377.61218980669
 21
19749.985842999991
 31
0.0
  0
TEXT
  5
11F6C
  8
0-6
  6
CONTINUOUS
 62
     7
 10
11673.611794806709
 20
19829.98610699999
 30
0.0
 40
160.0
  1
桁（P）
 72
     4
 11
11977.611794806709
 21
19909.98610699999
 31
0.0
  0
LINE
  5
11F6D
  8
0-6
  6
CONTINUOUS
 62
     6
 10
10932.932927716431
 20
13520.945623902449
 30
0.0
 11
11725.783865139119
 21
13520.945623902449
 31
0.0
  0
TEXT
  5
11F6E
  8
0-6
  6
CONTINUOUS
 62
     7
 10
10919.552686569979
 20
13600.945887902461
 30
0.0
 40
160.0
  1
桁前（P）
 72
     4
 11
11319.552686569979
 21
13680.945887902461
 31
0.0
  0
LINE
  5
11F6F
  8
0-6
  6
CONTINUOUS
 62
     6
 10
10932.932927716431
 20
13520.945623902449
 30
0.0
 11
10666.392060275601
 21
13969.98643700001
 31
0.0
  0
TEXT
  5
11F70
  8
0-6
  6
CONTINUOUS
 62
     7
 10
11775.142931792219
 20
13272.497303273891
 30
0.0
 40
160.0
  1
梁（P）前
 72
     4
 11
12217.809598458891
 21
13352.497303273891
 31
0.0
  0
LINE
  5
11F71
  8
0-6
  6
CONTINUOUS
 62
     6
 10
11710.94524361018
 20
13192.49802927388
 30
0.0
 11
12725.935412935019
 21
13192.49802927388
 31
0.0
  0
LINE
  5
11F74
  8
WAKUSEN-01
 10
868.00000000000193
 20
22484.000000000011
 30
0.0
 11
32764.000000000011
 21
22484.000000000011
 31
0.0
  0
LINE
  5
11F77
  8
WAKUSEN-01
 10
20560.0
 20
2484.0
 30
0.0
 11
32764.0
 21
2484.0
 31
0.0
  0
LINE
  5
11F78
  8
WAKUSEN-02
 10
20560.0
 20
1655.9999999999991
 30
0.0
 11
26868.0
 21
1655.9999999999991
 31
0.0
  0
TEXT
  5
11F79
  8
WAKUMOJI-01
 10
20670.260259962761
 20
2125.9030093393221
 30
0.0
 40
240.0
  1
名　称
  7
WAKUMOJI
  0
TEXT
  5
11F7A
  8
WAKUMOJI-01
 10
20656.505485091919
 20
1319.12897497982
 30
0.0
 40
240.0
  1
機種名
  7
WAKUMOJI
  0
LINE
  5
11F7D
  8
YODOROGO
 10
29977.604341291921
 20
1995.7494964292871
 30
0.0
 11
29829.604341291921
 21
1995.7494964292871
 31
0.0
1001
AUTOCAD_POSTSCRIPT_FIGURE
1002
{
1000
PSFILL
1000
Grayscale
1000
Grayscale
1070
    25
1002
}
  0
LINE
  5
11F7E
  8
YODOROGO
 10
29829.604341291921
 20
1947.749496429288
 30
0.0
 11
29977.604341291921
 21
1947.749496429288
 31
0.0
1001
AUTOCAD_POSTSCRIPT_FIGURE
1002
{
1000
PSFILL
1000
Grayscale
1000
Grayscale
1070
    25
1002
}
  0
LINE
  5
11F7F
  8
YODOROGO
 10
29977.604341291921
 20
1907.7494964292871
 30
0.0
 11
29829.604341291921
 21
1907.7494964292871
 31
0.0
1001
AUTOCAD_POSTSCRIPT_FIGURE
1002
{
1000
PSFILL
1000
Grayscale
1000
Grayscale
1070
    25
1002
}
  0
LINE
  5
11F80
  8
YODOROGO
 10
29829.604341291921
 20
1859.749496429288
 30
0.0
 11
29977.604341291921
 21
1859.749496429288
 31
0.0
1001
AUTOCAD_POSTSCRIPT_FIGURE
1002
{
1000
PSFILL
1000
Grayscale
1000
Grayscale
1070
    25
1002
}
  0
LINE
  5
11F81
  8
YODOROGO
 10
29977.604341291921
 20
1819.7494964292871
 30
0.0
 11
29829.604341291921
 21
1819.7494964292871
 31
0.0
1001
AUTOCAD_POSTSCRIPT_FIGURE
1002
{
1000
PSFILL
1000
Grayscale
1000
Grayscale
1070
    25
1002
}
  0
LINE
  5
11F82
  8
YODOROGO
 10
29921.60434129191
 20
1707.749496429288
 30
0.0
 11
29977.604341291921
 21
1707.749496429288
 31
0.0
1001
AUTOCAD_POSTSCRIPT_FIGURE
1002
{
1000
PSFILL
1000
Grayscale
1000
Grayscale
1070
    25
1002
}
  0
LINE
  5
11F83
  8
YODOROGO
 10
29737.604341291921
 20
1427.749496429288
 30
0.0
 11
29937.604341291932
 21
1481.3393349155101
 31
0.0
  0
LINE
  5
11F84
  8
YODOROGO
 10
29949.60434129191
 20
1707.749496429288
 30
0.0
 11
29885.604341291921
 21
1707.749496429288
 31
0.0
  0
ARC
  5
11F85
  8
YODOROGO
 10
30254.34774982791
 20
1807.864609233261
 30
0.0
 40
381.88686420564721
 50
213.96111677667841
 51
264.47872074317792
  0
ARC
  5
11F86
  8
YODOROGO
 10
30254.347749827921
 20
1807.864609233302
 30
0.0
 40
381.8868642056816
 50
208.14114420486601
 51
212.9210361185994
  0
LINE
  5
11F87
  8
YODOROGO
 10
29771.409872985321
 20
1556.807661346234
 30
0.0
 11
29933.78413250855
 21
1600.3157130570869
 31
0.0
  0
LINE
  5
11F88
  8
YODOROGO
 10
29737.604341291921
 20
1427.749496429288
 30
0.0
 11
29937.604341291932
 21
1481.3393349155101
 31
0.0
  0
LINE
  5
11F89
  8
YODOROGO
 10
29949.60434129191
 20
1707.749496429288
 30
0.0
 11
29885.604341291921
 21
1707.749496429288
 31
0.0
  0
ARC
  5
11F8A
  8
YODOROGO
 10
30254.34774982791
 20
1807.864609233261
 30
0.0
 40
381.88686420564721
 50
213.96111677667841
 51
264.47872074317792
  0
LINE
  5
11F8B
  8
YODOROGO
 10
28793.60434129191
 20
1819.7494964292871
 30
0.0
 11
28433.60434129191
 21
1819.7494964292871
 31
0.0
  0
LINE
  5
11F8C
  8
YODOROGO
 10
28513.60434129191
 20
1427.749496429288
 30
0.0
 11
28793.60434129191
 21
1427.749496429288
 31
0.0
  0
LINE
  5
11F8D
  8
YODOROGO
 10
28729.604341291921
 20
1923.7494964292871
 30
0.0
 11
28497.60434129191
 21
1923.7494964292871
 31
0.0
  0
LINE
  5
11F8E
  8
YODOROGO
 10
28585.604341291921
 20
2027.749496429288
 30
0.0
 11
28657.604341291921
 21
2027.749496429288
 31
0.0
  0
LINE
  5
11F8F
  8
YODOROGO
 10
28433.60434129191
 20
1707.749496429288
 30
0.0
 11
28433.60434129191
 21
1507.749496429288
 31
0.0
  0
LINE
  5
11F90
  8
YODOROGO
 10
28497.60434129191
 20
1563.7494964292871
 30
0.0
 11
28497.60434129191
 21
1707.749496429288
 31
0.0
  0
LINE
  5
11F91
  8
YODOROGO
 10
28585.604341291921
 20
1747.74949642929
 30
0.0
 11
28585.604341291921
 21
1547.749496429288
 31
0.0
  0
LINE
  5
11F92
  8
YODOROGO
 10
27857.604341291921
 20
1683.749496429288
 30
0.0
 11
27777.604341291921
 21
1619.9724140445701
 31
0.0
  0
LINE
  5
11F93
  8
YODOROGO
 10
27937.604341291921
 20
1619.9724140445701
 30
0.0
 11
27857.604341291921
 21
1683.749496429288
 31
0.0
  0
LINE
  5
11F94
  8
YODOROGO
 10
27857.604341291921
 20
1707.749496429288
 30
0.0
 11
27937.604341291921
 21
1643.9724140445701
 31
0.0
  0
LINE
  5
11F95
  8
YODOROGO
 10
27777.604341291921
 20
1643.9724140445701
 30
0.0
 11
27857.604341291921
 21
1707.749496429288
 31
0.0
  0
LINE
  5
11F96
  8
YODOROGO
 10
28040.913204016892
 20
1659.749496429288
 30
0.0
 11
28040.913204016892
 21
1683.7494964292871
 31
0.0
  0
LINE
  5
11F97
  8
YODOROGO
 10
27977.604341291921
 20
1683.7494964292871
 30
0.0
 11
27977.604341291921
 21
1667.749496429285
 31
0.0
  0
LINE
  5
11F98
  8
YODOROGO
 10
28098.135520230931
 20
1707.749496429288
 30
0.0
 11
28098.135520230931
 21
1655.5036372746561
 31
0.0
1001
AUTOCAD_POSTSCRIPT_FIGURE
1002
{
1000
PSFILL
1000
Grayscale
1000
Grayscale
1070
   100
1002
}
  0
LINE
  5
11F99
  8
YODOROGO
 10
28082.135520230921
 20
1655.5036372746561
 30
0.0
 11
28082.135520230921
 21
1707.749496429288
 31
0.0
1001
AUTOCAD_POSTSCRIPT_FIGURE
1002
{
1000
PSFILL
1000
Grayscale
1000
Grayscale
1070
   100
1002
}
  0
LINE
  5
11F9A
  8
YODOROGO
 10
27809.604341291921
 20
1608.771904043258
 30
0.0
 11
27809.604341291921
 21
1632.771904043258
 31
0.0
  0
LINE
  5
11F9B
  8
YODOROGO
 10
27905.604341291921
 20
1608.771904043258
 30
0.0
 11
27809.604341291921
 21
1608.771904043258
 31
0.0
  0
LINE
  5
11F9C
  8
YODOROGO
 10
27905.604341291921
 20
1632.771904043258
 30
0.0
 11
27905.604341291921
 21
1608.771904043258
 31
0.0
  0
LINE
  5
11F9D
  8
YODOROGO
 10
27809.604341291921
 20
1632.771904043258
 30
0.0
 11
27905.604341291921
 21
1632.771904043258
 31
0.0
  0
LINE
  5
11F9E
  8
YODOROGO
 10
27824.509588915738
 20
1568.5028573704751
 30
0.0
 11
27785.604341291921
 21
1475.7494964292871
 31
0.0
1001
AUTOCAD_POSTSCRIPT_FIGURE
1002
{
1000
PSFILL
1000
Grayscale
1000
Grayscale
1070
   100
1002
}
  0
LINE
  5
11F9F
  8
YODOROGO
 10
27777.604341291921
 20
1568.5028573704751
 30
0.0
 11
27824.509588915738
 21
1568.5028573704751
 31
0.0
1001
AUTOCAD_POSTSCRIPT_FIGURE
1002
{
1000
PSFILL
1000
Grayscale
1000
Grayscale
1070
   100
1002
}
  0
LINE
  5
11FA0
  8
YODOROGO
 10
27777.604341291921
 20
1588.5028573704751
 30
0.0
 11
27777.604341291921
 21
1568.5028573704751
 31
0.0
1001
AUTOCAD_POSTSCRIPT_FIGURE
1002
{
1000
PSFILL
1000
Grayscale
1000
Grayscale
1070
   100
1002
}
  0
LINE
  5
11FA1
  8
YODOROGO
 10
27937.604341291921
 20
1588.5028573704751
 30
0.0
 11
27777.604341291921
 21
1588.5028573704751
 31
0.0
1001
AUTOCAD_POSTSCRIPT_FIGURE
1002
{
1000
PSFILL
1000
Grayscale
1000
Grayscale
1070
   100
1002
}
  0
LINE
  5
11FA2
  8
YODOROGO
 10
27937.604341291921
 20
1568.5028573704751
 30
0.0
 11
27937.604341291921
 21
1588.5028573704751
 31
0.0
1001
AUTOCAD_POSTSCRIPT_FIGURE
1002
{
1000
PSFILL
1000
Grayscale
1000
Grayscale
1070
   100
1002
}
  0
LINE
  5
11FA3
  8
YODOROGO
 10
27844.509588915738
 20
1568.5028573704751
 30
0.0
 11
27937.604341291921
 21
1568.5028573704751
 31
0.0
1001
AUTOCAD_POSTSCRIPT_FIGURE
1002
{
1000
PSFILL
1000
Grayscale
1000
Grayscale
1070
   100
1002
}
  0
LINE
  5
11FA4
  8
YODOROGO
 10
27815.546718284771
 20
1495.7494964292871
 30
0.0
 11
27844.509588915738
 21
1568.5028573704751
 31
0.0
1001
AUTOCAD_POSTSCRIPT_FIGURE
1002
{
1000
PSFILL
1000
Grayscale
1000
Grayscale
1070
   100
1002
}
  0
LINE
  5
11FA5
  8
YODOROGO
 10
27902.054790808648
 20
1495.7494964292871
 30
0.0
 11
27815.546718284771
 21
1495.7494964292871
 31
0.0
1001
AUTOCAD_POSTSCRIPT_FIGURE
1002
{
1000
PSFILL
1000
Grayscale
1000
Grayscale
1070
   100
1002
}
  0
LINE
  5
11FA6
  8
YODOROGO
 10
27885.065004790951
 20
1536.2338106976929
 30
0.0
 11
27902.054790808648
 21
1495.7494964292871
 31
0.0
1001
AUTOCAD_POSTSCRIPT_FIGURE
1002
{
1000
PSFILL
1000
Grayscale
1000
Grayscale
1070
   100
1002
}
  0
LINE
  5
11FA7
  8
YODOROGO
 10
27901.065004790951
 20
1536.2338106976929
 30
0.0
 11
27885.065004790951
 21
1536.2338106976929
 31
0.0
1001
AUTOCAD_POSTSCRIPT_FIGURE
1002
{
1000
PSFILL
1000
Grayscale
1000
Grayscale
1070
   100
1002
}
  0
LINE
  5
11FA8
  8
YODOROGO
 10
27929.604341291921
 20
1475.7494964292871
 30
0.0
 11
27901.065004790951
 21
1536.2338106976929
 31
0.0
1001
AUTOCAD_POSTSCRIPT_FIGURE
1002
{
1000
PSFILL
1000
Grayscale
1000
Grayscale
1070
   100
1002
}
  0
LINE
  5
11FA9
  8
YODOROGO
 10
27785.604341291921
 20
1475.7494964292871
 30
0.0
 11
27929.604341291921
 21
1475.7494964292871
 31
0.0
1001
AUTOCAD_POSTSCRIPT_FIGURE
1002
{
1000
PSFILL
1000
Grayscale
1000
Grayscale
1070
   100
1002
}
  0
LINE
  5
11FAA
  8
YODOROGO
 10
27777.604341291921
 20
1619.9724140445701
 30
0.0
 11
27777.604341291921
 21
1643.9724140445701
 31
0.0
  0
LINE
  5
11FAB
  8
YODOROGO
 10
27937.604341291921
 20
1643.9724140445701
 30
0.0
 11
27937.604341291921
 21
1619.9724140445701
 31
0.0
  0
ARC
  5
11FAC
  8
YODOROGO
 10
28225.940442146959
 20
1600.877765325326
 30
0.0
 40
175.9999999999998
 50
280.3644312771313
 51
3.5414836592180561
  0
ARC
  5
11FAD
  8
YODOROGO
 10
28235.756030759301
 20
1633.5978069619041
 30
0.0
 40
111.9999999999982
 50
281.24905825041549
 51
348.75094174958321
  0
LINE
  5
11FAE
  8
YODOROGO
 10
28257.604341291921
 20
1523.7494964292871
 30
0.0
 11
28257.604341291921
 21
1427.749496429288
 31
0.0
  0
LINE
  5
11FAF
  8
YODOROGO
 10
28020.088903736909
 20
1610.650565061914
 30
0.0
 11
28040.913204016892
 21
1659.749496429288
 31
0.0
  0
LINE
  5
11FB0
  8
YODOROGO
 10
28041.604341291921
 20
1583.120489948401
 30
0.0
 11
28020.088903736909
 21
1610.650565061914
 31
0.0
  0
LINE
  5
11FB1
  8
YODOROGO
 10
28041.604341291921
 20
1563.120489948398
 30
0.0
 11
28041.604341291921
 21
1583.120489948401
 31
0.0
  0
LINE
  5
11FB2
  8
YODOROGO
 10
28017.604341291921
 20
1585.2370637495301
 30
0.0
 11
28041.604341291921
 21
1563.120489948398
 31
0.0
  0
LINE
  5
11FB3
  8
YODOROGO
 10
28017.604341291921
 20
1475.7494964292871
 30
0.0
 11
28017.604341291921
 21
1585.2370637495301
 31
0.0
  0
LINE
  5
11FB4
  8
YODOROGO
 10
28001.604341291921
 20
1475.7494964292871
 30
0.0
 11
28017.604341291921
 21
1475.7494964292871
 31
0.0
  0
LINE
  5
11FB5
  8
YODOROGO
 10
28001.604341291921
 20
1580.0053496897469
 30
0.0
 11
28001.604341291921
 21
1475.7494964292871
 31
0.0
  0
LINE
  5
11FB6
  8
YODOROGO
 10
27977.604341291921
 20
1532.7680790334291
 30
0.0
 11
28001.604341291921
 21
1580.0053496897469
 31
0.0
  0
LINE
  5
11FB7
  8
YODOROGO
 10
27977.604341291921
 20
1556.76807903343
 30
0.0
 11
27977.604341291921
 21
1532.7680790334291
 31
0.0
  0
LINE
  5
11FB8
  8
YODOROGO
 10
28025.828774291349
 20
1667.749496429285
 30
0.0
 11
27977.604341291921
 21
1556.76807903343
 31
0.0
  0
LINE
  5
11FB9
  8
YODOROGO
 10
27977.604341291921
 20
1667.749496429285
 30
0.0
 11
28025.828774291349
 21
1667.749496429285
 31
0.0
  0
LINE
  5
11FBA
  8
YODOROGO
 10
28050.135520230899
 20
1655.5036372746561
 30
0.0
 11
28082.135520230921
 21
1655.5036372746561
 31
0.0
1001
AUTOCAD_POSTSCRIPT_FIGURE
1002
{
1000
PSFILL
1000
Grayscale
1000
Grayscale
1070
   100
1002
}
  0
LINE
  5
11FBB
  8
YODOROGO
 10
28050.135520230899
 20
1631.5036372746561
 30
0.0
 11
28050.135520230899
 21
1655.5036372746561
 31
0.0
1001
AUTOCAD_POSTSCRIPT_FIGURE
1002
{
1000
PSFILL
1000
Grayscale
1000
Grayscale
1070
   100
1002
}
  0
LINE
  5
11FBC
  8
YODOROGO
 10
28082.135520230921
 20
1631.5036372746561
 30
0.0
 11
28050.135520230899
 21
1631.5036372746561
 31
0.0
1001
AUTOCAD_POSTSCRIPT_FIGURE
1002
{
1000
PSFILL
1000
Grayscale
1000
Grayscale
1070
   100
1002
}
  0
LINE
  5
11FBD
  8
YODOROGO
 10
28082.135520230921
 20
1499.749496429288
 30
0.0
 11
28082.135520230921
 21
1631.5036372746561
 31
0.0
1001
AUTOCAD_POSTSCRIPT_FIGURE
1002
{
1000
PSFILL
1000
Grayscale
1000
Grayscale
1070
   100
1002
}
  0
LINE
  5
11FBE
  8
YODOROGO
 10
28050.135520230921
 20
1499.749496429288
 30
0.0
 11
28082.135520230921
 21
1499.749496429288
 31
0.0
1001
AUTOCAD_POSTSCRIPT_FIGURE
1002
{
1000
PSFILL
1000
Grayscale
1000
Grayscale
1070
   100
1002
}
  0
LINE
  5
11FBF
  8
YODOROGO
 10
28050.135520230921
 20
1475.7494964292871
 30
0.0
 11
28050.135520230921
 21
1499.749496429288
 31
0.0
1001
AUTOCAD_POSTSCRIPT_FIGURE
1002
{
1000
PSFILL
1000
Grayscale
1000
Grayscale
1070
   100
1002
}
  0
LINE
  5
11FC0
  8
YODOROGO
 10
28137.604341291921
 20
1475.7494964292871
 30
0.0
 11
28050.135520230921
 21
1475.7494964292871
 31
0.0
1001
AUTOCAD_POSTSCRIPT_FIGURE
1002
{
1000
PSFILL
1000
Grayscale
1000
Grayscale
1070
   100
1002
}
  0
LINE
  5
11FC1
  8
YODOROGO
 10
28137.604341291921
 20
1499.749496429288
 30
0.0
 11
28137.604341291921
 21
1475.7494964292871
 31
0.0
1001
AUTOCAD_POSTSCRIPT_FIGURE
1002
{
1000
PSFILL
1000
Grayscale
1000
Grayscale
1070
   100
1002
}
  0
LINE
  5
11FC2
  8
YODOROGO
 10
28098.135520230931
 20
1499.749496429288
 30
0.0
 11
28137.604341291921
 21
1499.749496429288
 31
0.0
1001
AUTOCAD_POSTSCRIPT_FIGURE
1002
{
1000
PSFILL
1000
Grayscale
1000
Grayscale
1070
   100
1002
}
  0
LINE
  5
11FC3
  8
YODOROGO
 10
28098.135520230931
 20
1631.5036372746561
 30
0.0
 11
28098.135520230931
 21
1499.749496429288
 31
0.0
1001
AUTOCAD_POSTSCRIPT_FIGURE
1002
{
1000
PSFILL
1000
Grayscale
1000
Grayscale
1070
   100
1002
}
  0
LINE
  5
11FC4
  8
YODOROGO
 10
28137.604341291921
 20
1631.5036372746561
 30
0.0
 11
28098.135520230931
 21
1631.5036372746561
 31
0.0
1001
AUTOCAD_POSTSCRIPT_FIGURE
1002
{
1000
PSFILL
1000
Grayscale
1000
Grayscale
1070
   100
1002
}
  0
LINE
  5
11FC5
  8
YODOROGO
 10
28137.604341291921
 20
1655.5036372746561
 30
0.0
 11
28137.604341291921
 21
1631.5036372746561
 31
0.0
1001
AUTOCAD_POSTSCRIPT_FIGURE
1002
{
1000
PSFILL
1000
Grayscale
1000
Grayscale
1070
   100
1002
}
  0
LINE
  5
11FC6
  8
YODOROGO
 10
28098.135520230931
 20
1655.5036372746561
 30
0.0
 11
28137.604341291921
 21
1655.5036372746561
 31
0.0
1001
AUTOCAD_POSTSCRIPT_FIGURE
1002
{
1000
PSFILL
1000
Grayscale
1000
Grayscale
1070
   100
1002
}
  0
LINE
  5
11FC7
  8
YODOROGO
 10
28401.60434129191
 20
1667.749496429288
 30
0.0
 11
28345.604341291921
 21
1667.749496429288
 31
0.0
  0
LINE
  5
11FC8
  8
YODOROGO
 10
28401.60434129191
 20
1611.749496429288
 30
0.0
 11
28401.60434129191
 21
1667.749496429288
 31
0.0
  0
LINE
  5
11FC9
  8
YODOROGO
 10
28345.604341291921
 20
1667.749496429288
 30
0.0
 11
28345.604341291921
 21
1611.749496429288
 31
0.0
  0
ARC
  5
11FCA
  8
YODOROGO
 10
28513.60434129191
 20
1507.749496429288
 30
0.0
 40
80.0
 50
180.0
 51
270.0
  0
ARC
  5
11FCB
  8
YODOROGO
 10
28537.604341291921
 20
1563.7494964292871
 30
0.0
 40
40.0
 50
180.0
 51
270.0
  0
LINE
  5
11FCC
  8
YODOROGO
 10
28561.604341291932
 20
1523.7494964292871
 30
0.0
 11
28537.604341291921
 21
1523.7494964292871
 31
0.0
  0
ARC
  5
11FCD
  8
YODOROGO
 10
28561.604341291932
 20
1547.749496429285
 30
0.0
 40
23.999999999996358
 50
270.0
 51
0.0000000000054281
  0
LINE
  5
11FCE
  8
YODOROGO
 10
27801.604341291921
 20
1890.786580793706
 30
0.0
 11
27777.604341291921
 21
1843.776747951672
 31
0.0
1001
AUTOCAD_POSTSCRIPT_FIGURE
1002
{
1000
PSFILL
1000
Grayscale
1000
Grayscale
1070
   100
1002
}
  0
LINE
  5
11FCF
  8
YODOROGO
 10
27801.604341291921
 20
1747.749496429286
 30
0.0
 11
27801.604341291921
 21
1890.786580793706
 31
0.0
1001
AUTOCAD_POSTSCRIPT_FIGURE
1002
{
1000
PSFILL
1000
Grayscale
1000
Grayscale
1070
   100
1002
}
  0
LINE
  5
11FD0
  8
YODOROGO
 10
27817.604341291921
 20
1747.749496429286
 30
0.0
 11
27801.604341291921
 21
1747.749496429286
 31
0.0
1001
AUTOCAD_POSTSCRIPT_FIGURE
1002
{
1000
PSFILL
1000
Grayscale
1000
Grayscale
1070
   100
1002
}
  0
LINE
  5
11FD1
  8
YODOROGO
 10
27817.604341291921
 20
1893.7713320852661
 30
0.0
 11
27817.604341291921
 21
1747.749496429286
 31
0.0
1001
AUTOCAD_POSTSCRIPT_FIGURE
1002
{
1000
PSFILL
1000
Grayscale
1000
Grayscale
1070
   100
1002
}
  0
LINE
  5
11FD2
  8
YODOROGO
 10
27841.604341291921
 20
1867.6547582841361
 30
0.0
 11
27817.604341291921
 21
1893.7713320852661
 31
0.0
1001
AUTOCAD_POSTSCRIPT_FIGURE
1002
{
1000
PSFILL
1000
Grayscale
1000
Grayscale
1070
   100
1002
}
  0
LINE
  5
11FD3
  8
YODOROGO
 10
27841.604341291921
 20
1883.6547582841361
 30
0.0
 11
27841.604341291921
 21
1867.6547582841361
 31
0.0
1001
AUTOCAD_POSTSCRIPT_FIGURE
1002
{
1000
PSFILL
1000
Grayscale
1000
Grayscale
1070
   100
1002
}
  0
LINE
  5
11FD4
  8
YODOROGO
 10
27817.604341291921
 20
1917.7713320852649
 30
0.0
 11
27841.604341291921
 21
1883.6547582841361
 31
0.0
1001
AUTOCAD_POSTSCRIPT_FIGURE
1002
{
1000
PSFILL
1000
Grayscale
1000
Grayscale
1070
   100
1002
}
  0
LINE
  5
11FD5
  8
YODOROGO
 10
27817.604341291921
 20
1939.749496429288
 30
0.0
 11
27817.604341291921
 21
1917.7713320852649
 31
0.0
1001
AUTOCAD_POSTSCRIPT_FIGURE
1002
{
1000
PSFILL
1000
Grayscale
1000
Grayscale
1070
   100
1002
}
  0
LINE
  5
11FD6
  8
YODOROGO
 10
27889.604341291921
 20
1939.749496429288
 30
0.0
 11
27817.604341291921
 21
1939.749496429288
 31
0.0
1001
AUTOCAD_POSTSCRIPT_FIGURE
1002
{
1000
PSFILL
1000
Grayscale
1000
Grayscale
1070
   100
1002
}
  0
LINE
  5
11FD7
  8
YODOROGO
 10
27889.604341291921
 20
1900.5683489363
 30
0.0
 11
27889.604341291921
 21
1939.749496429288
 31
0.0
1001
AUTOCAD_POSTSCRIPT_FIGURE
1002
{
1000
PSFILL
1000
Grayscale
1000
Grayscale
1070
   100
1002
}
  0
LINE
  5
11FD8
  8
YODOROGO
 10
27857.604341291921
 20
1900.5683489363
 30
0.0
 11
27889.604341291921
 21
1900.5683489363
 31
0.0
1001
AUTOCAD_POSTSCRIPT_FIGURE
1002
{
1000
PSFILL
1000
Grayscale
1000
Grayscale
1070
   100
1002
}
  0
LINE
  5
11FD9
  8
YODOROGO
 10
27857.604341291921
 20
1884.568348936298
 30
0.0
 11
27857.604341291921
 21
1900.5683489363
 31
0.0
1001
AUTOCAD_POSTSCRIPT_FIGURE
1002
{
1000
PSFILL
1000
Grayscale
1000
Grayscale
1070
   100
1002
}
  0
LINE
  5
11FDA
  8
YODOROGO
 10
27889.604341291921
 20
1884.568348936298
 30
0.0
 11
27857.604341291921
 21
1884.568348936298
 31
0.0
1001
AUTOCAD_POSTSCRIPT_FIGURE
1002
{
1000
PSFILL
1000
Grayscale
1000
Grayscale
1070
   100
1002
}
  0
LINE
  5
11FDB
  8
YODOROGO
 10
27889.604341291921
 20
1879.6191779644371
 30
0.0
 11
27889.604341291921
 21
1884.568348936298
 31
0.0
1001
AUTOCAD_POSTSCRIPT_FIGURE
1002
{
1000
PSFILL
1000
Grayscale
1000
Grayscale
1070
   100
1002
}
  0
LINE
  5
11FDC
  8
YODOROGO
 10
27849.604341291921
 20
1812.974981161417
 30
0.0
 11
27889.604341291921
 21
1879.6191779644371
 31
0.0
1001
AUTOCAD_POSTSCRIPT_FIGURE
1002
{
1000
PSFILL
1000
Grayscale
1000
Grayscale
1070
   100
1002
}
  0
LINE
  5
11FDD
  8
YODOROGO
 10
27849.604341291921
 20
1796.9749811614161
 30
0.0
 11
27849.604341291921
 21
1812.974981161417
 31
0.0
1001
AUTOCAD_POSTSCRIPT_FIGURE
1002
{
1000
PSFILL
1000
Grayscale
1000
Grayscale
1070
   100
1002
}
  0
LINE
  5
11FDE
  8
YODOROGO
 10
27889.604341291921
 20
1847.6191779644359
 30
0.0
 11
27849.604341291921
 21
1796.9749811614161
 31
0.0
1001
AUTOCAD_POSTSCRIPT_FIGURE
1002
{
1000
PSFILL
1000
Grayscale
1000
Grayscale
1070
   100
1002
}
  0
LINE
  5
11FDF
  8
YODOROGO
 10
27889.604341291921
 20
1747.749496429286
 30
0.0
 11
27889.604341291921
 21
1847.6191779644359
 31
0.0
1001
AUTOCAD_POSTSCRIPT_FIGURE
1002
{
1000
PSFILL
1000
Grayscale
1000
Grayscale
1070
   100
1002
}
  0
LINE
  5
11FE0
  8
YODOROGO
 10
27905.604341291921
 20
1747.749496429286
 30
0.0
 11
27889.604341291921
 21
1747.749496429286
 31
0.0
1001
AUTOCAD_POSTSCRIPT_FIGURE
1002
{
1000
PSFILL
1000
Grayscale
1000
Grayscale
1070
   100
1002
}
  0
LINE
  5
11FE1
  8
YODOROGO
 10
27905.604341291921
 20
1849.409012158806
 30
0.0
 11
27905.604341291921
 21
1747.749496429286
 31
0.0
1001
AUTOCAD_POSTSCRIPT_FIGURE
1002
{
1000
PSFILL
1000
Grayscale
1000
Grayscale
1070
   100
1002
}
  0
LINE
  5
11FE2
  8
YODOROGO
 10
27937.604341291921
 20
1796.9749811614161
 30
0.0
 11
27905.604341291921
 21
1849.409012158806
 31
0.0
1001
AUTOCAD_POSTSCRIPT_FIGURE
1002
{
1000
PSFILL
1000
Grayscale
1000
Grayscale
1070
   100
1002
}
  0
LINE
  5
11FE3
  8
YODOROGO
 10
27937.604341291921
 20
1812.974981161417
 30
0.0
 11
27937.604341291921
 21
1796.9749811614161
 31
0.0
1001
AUTOCAD_POSTSCRIPT_FIGURE
1002
{
1000
PSFILL
1000
Grayscale
1000
Grayscale
1070
   100
1002
}
  0
LINE
  5
11FE4
  8
YODOROGO
 10
27905.604341291921
 20
1881.4090121588081
 30
0.0
 11
27937.604341291921
 21
1812.974981161417
 31
0.0
1001
AUTOCAD_POSTSCRIPT_FIGURE
1002
{
1000
PSFILL
1000
Grayscale
1000
Grayscale
1070
   100
1002
}
  0
LINE
  5
11FE5
  8
YODOROGO
 10
27905.604341291921
 20
1884.5683489363
 30
0.0
 11
27905.604341291921
 21
1881.4090121588081
 31
0.0
1001
AUTOCAD_POSTSCRIPT_FIGURE
1002
{
1000
PSFILL
1000
Grayscale
1000
Grayscale
1070
   100
1002
}
  0
LINE
  5
11FE6
  8
YODOROGO
 10
27937.604341291921
 20
1884.568348936298
 30
0.0
 11
27905.604341291921
 21
1884.5683489363
 31
0.0
1001
AUTOCAD_POSTSCRIPT_FIGURE
1002
{
1000
PSFILL
1000
Grayscale
1000
Grayscale
1070
   100
1002
}
  0
LINE
  5
11FE7
  8
YODOROGO
 10
27937.604341291921
 20
1900.5683489363
 30
0.0
 11
27937.604341291921
 21
1884.568348936298
 31
0.0
1001
AUTOCAD_POSTSCRIPT_FIGURE
1002
{
1000
PSFILL
1000
Grayscale
1000
Grayscale
1070
   100
1002
}
  0
LINE
  5
11FE8
  8
YODOROGO
 10
27905.604341291921
 20
1900.5683489363
 30
0.0
 11
27937.604341291921
 21
1900.5683489363
 31
0.0
1001
AUTOCAD_POSTSCRIPT_FIGURE
1002
{
1000
PSFILL
1000
Grayscale
1000
Grayscale
1070
   100
1002
}
  0
LINE
  5
11FE9
  8
YODOROGO
 10
27905.604341291921
 20
1939.749496429288
 30
0.0
 11
27905.604341291921
 21
1900.5683489363
 31
0.0
1001
AUTOCAD_POSTSCRIPT_FIGURE
1002
{
1000
PSFILL
1000
Grayscale
1000
Grayscale
1070
   100
1002
}
  0
LINE
  5
11FEA
  8
YODOROGO
 10
27937.604341291921
 20
1939.749496429288
 30
0.0
 11
27905.604341291921
 21
1939.749496429288
 31
0.0
1001
AUTOCAD_POSTSCRIPT_FIGURE
1002
{
1000
PSFILL
1000
Grayscale
1000
Grayscale
1070
   100
1002
}
  0
LINE
  5
11FEB
  8
YODOROGO
 10
27937.604341291921
 20
1955.7494964292871
 30
0.0
 11
27937.604341291921
 21
1939.749496429288
 31
0.0
1001
AUTOCAD_POSTSCRIPT_FIGURE
1002
{
1000
PSFILL
1000
Grayscale
1000
Grayscale
1070
   100
1002
}
  0
LINE
  5
11FEC
  8
YODOROGO
 10
27905.604341291921
 20
1955.7494964292871
 30
0.0
 11
27937.604341291921
 21
1955.7494964292871
 31
0.0
1001
AUTOCAD_POSTSCRIPT_FIGURE
1002
{
1000
PSFILL
1000
Grayscale
1000
Grayscale
1070
   100
1002
}
  0
LINE
  5
11FED
  8
YODOROGO
 10
27905.604341291921
 20
1979.749496429288
 30
0.0
 11
27905.604341291921
 21
1955.7494964292871
 31
0.0
1001
AUTOCAD_POSTSCRIPT_FIGURE
1002
{
1000
PSFILL
1000
Grayscale
1000
Grayscale
1070
   100
1002
}
  0
LINE
  5
11FEE
  8
YODOROGO
 10
27889.604341291921
 20
1979.749496429288
 30
0.0
 11
27905.604341291921
 21
1979.749496429288
 31
0.0
1001
AUTOCAD_POSTSCRIPT_FIGURE
1002
{
1000
PSFILL
1000
Grayscale
1000
Grayscale
1070
   100
1002
}
  0
LINE
  5
11FEF
  8
YODOROGO
 10
27889.604341291921
 20
1955.7494964292871
 30
0.0
 11
27889.604341291921
 21
1979.749496429288
 31
0.0
1001
AUTOCAD_POSTSCRIPT_FIGURE
1002
{
1000
PSFILL
1000
Grayscale
1000
Grayscale
1070
   100
1002
}
  0
LINE
  5
11FF0
  8
YODOROGO
 10
27865.604341291921
 20
1955.7494964292871
 30
0.0
 11
27889.604341291921
 21
1955.7494964292871
 31
0.0
1001
AUTOCAD_POSTSCRIPT_FIGURE
1002
{
1000
PSFILL
1000
Grayscale
1000
Grayscale
1070
   100
1002
}
  0
LINE
  5
11FF1
  8
YODOROGO
 10
27865.604341291921
 20
1979.749496429288
 30
0.0
 11
27865.604341291921
 21
1955.7494964292871
 31
0.0
1001
AUTOCAD_POSTSCRIPT_FIGURE
1002
{
1000
PSFILL
1000
Grayscale
1000
Grayscale
1070
   100
1002
}
  0
LINE
  5
11FF2
  8
YODOROGO
 10
27849.604341291921
 20
1979.749496429288
 30
0.0
 11
27865.604341291921
 21
1979.749496429288
 31
0.0
1001
AUTOCAD_POSTSCRIPT_FIGURE
1002
{
1000
PSFILL
1000
Grayscale
1000
Grayscale
1070
   100
1002
}
  0
LINE
  5
11FF3
  8
YODOROGO
 10
27849.604341291921
 20
1955.7494964292871
 30
0.0
 11
27849.604341291921
 21
1979.749496429288
 31
0.0
1001
AUTOCAD_POSTSCRIPT_FIGURE
1002
{
1000
PSFILL
1000
Grayscale
1000
Grayscale
1070
   100
1002
}
  0
LINE
  5
11FF4
  8
YODOROGO
 10
27817.604341291921
 20
1955.7494964292871
 30
0.0
 11
27849.604341291921
 21
1955.7494964292871
 31
0.0
1001
AUTOCAD_POSTSCRIPT_FIGURE
1002
{
1000
PSFILL
1000
Grayscale
1000
Grayscale
1070
   100
1002
}
  0
LINE
  5
11FF5
  8
YODOROGO
 10
27817.604341291921
 20
1979.749496429288
 30
0.0
 11
27817.604341291921
 21
1955.7494964292871
 31
0.0
1001
AUTOCAD_POSTSCRIPT_FIGURE
1002
{
1000
PSFILL
1000
Grayscale
1000
Grayscale
1070
   100
1002
}
  0
LINE
  5
11FF6
  8
YODOROGO
 10
27801.604341291921
 20
1979.749496429288
 30
0.0
 11
27817.604341291921
 21
1979.749496429288
 31
0.0
1001
AUTOCAD_POSTSCRIPT_FIGURE
1002
{
1000
PSFILL
1000
Grayscale
1000
Grayscale
1070
   100
1002
}
  0
LINE
  5
11FF7
  8
YODOROGO
 10
27801.604341291921
 20
1955.7494964292871
 30
0.0
 11
27801.604341291921
 21
1979.749496429288
 31
0.0
1001
AUTOCAD_POSTSCRIPT_FIGURE
1002
{
1000
PSFILL
1000
Grayscale
1000
Grayscale
1070
   100
1002
}
  0
LINE
  5
11FF8
  8
YODOROGO
 10
27777.604341291921
 20
1955.7494964292871
 30
0.0
 11
27801.604341291921
 21
1955.7494964292871
 31
0.0
1001
AUTOCAD_POSTSCRIPT_FIGURE
1002
{
1000
PSFILL
1000
Grayscale
1000
Grayscale
1070
   100
1002
}
  0
LINE
  5
11FF9
  8
YODOROGO
 10
27777.604341291921
 20
1939.749496429288
 30
0.0
 11
27777.604341291921
 21
1955.7494964292871
 31
0.0
1001
AUTOCAD_POSTSCRIPT_FIGURE
1002
{
1000
PSFILL
1000
Grayscale
1000
Grayscale
1070
   100
1002
}
  0
LINE
  5
11FFA
  8
YODOROGO
 10
27801.604341291921
 20
1939.749496429288
 30
0.0
 11
27777.604341291921
 21
1939.749496429288
 31
0.0
1001
AUTOCAD_POSTSCRIPT_FIGURE
1002
{
1000
PSFILL
1000
Grayscale
1000
Grayscale
1070
   100
1002
}
  0
LINE
  5
11FFB
  8
YODOROGO
 10
27801.604341291921
 20
1914.7865807937051
 30
0.0
 11
27801.604341291921
 21
1939.749496429288
 31
0.0
1001
AUTOCAD_POSTSCRIPT_FIGURE
1002
{
1000
PSFILL
1000
Grayscale
1000
Grayscale
1070
   100
1002
}
  0
LINE
  5
11FFC
  8
YODOROGO
 10
27777.604341291921
 20
1859.776747951671
 30
0.0
 11
27801.604341291921
 21
1914.7865807937051
 31
0.0
1001
AUTOCAD_POSTSCRIPT_FIGURE
1002
{
1000
PSFILL
1000
Grayscale
1000
Grayscale
1070
   100
1002
}
  0
LINE
  5
11FFD
  8
YODOROGO
 10
27777.604341291921
 20
1843.776747951672
 30
0.0
 11
27777.604341291921
 21
1859.776747951671
 31
0.0
1001
AUTOCAD_POSTSCRIPT_FIGURE
1002
{
1000
PSFILL
1000
Grayscale
1000
Grayscale
1070
   100
1002
}
  0
LINE
  5
11FFE
  8
YODOROGO
 10
28257.604341291921
 20
1867.7494964292871
 30
0.0
 11
28401.60434129191
 21
1824.877625640306
 31
0.0
1001
AUTOCAD_POSTSCRIPT_FIGURE
1002
{
1000
PSFILL
1000
Grayscale
1000
Grayscale
1070
   100
1002
}
  0
LINE
  5
11FFF
  8
YODOROGO
 10
28401.60434129191
 20
1752.877625640306
 30
0.0
 11
28257.604341291921
 21
1795.7494964292871
 31
0.0
1001
AUTOCAD_POSTSCRIPT_FIGURE
1002
{
1000
PSFILL
1000
Grayscale
1000
Grayscale
1070
   100
1002
}
  0
LINE
  5
12000
  8
YODOROGO
 10
28401.60434129191
 20
1984.877625640306
 30
0.0
 11
28257.604341291921
 21
2027.749496429288
 31
0.0
1001
AUTOCAD_POSTSCRIPT_FIGURE
1002
{
1000
PSFILL
1000
Grayscale
1000
Grayscale
1070
   100
1002
}
  0
LINE
  5
12001
  8
YODOROGO
 10
28257.604341291921
 20
1959.749496429288
 30
0.0
 11
28401.60434129191
 21
1916.8776256403071
 31
0.0
1001
AUTOCAD_POSTSCRIPT_FIGURE
1002
{
1000
PSFILL
1000
Grayscale
1000
Grayscale
1070
   100
1002
}
  0
LINE
  5
12002
  8
YODOROGO
 10
28257.604341291921
 20
1795.7494964292871
 30
0.0
 11
28257.604341291921
 21
1867.7494964292871
 31
0.0
1001
AUTOCAD_POSTSCRIPT_FIGURE
1002
{
1000
PSFILL
1000
Grayscale
1000
Grayscale
1070
   100
1002
}
  0
LINE
  5
12003
  8
YODOROGO
 10
28257.604341291921
 20
2027.749496429288
 30
0.0
 11
28257.604341291921
 21
1959.749496429288
 31
0.0
1001
AUTOCAD_POSTSCRIPT_FIGURE
1002
{
1000
PSFILL
1000
Grayscale
1000
Grayscale
1070
   100
1002
}
  0
LINE
  5
12004
  8
YODOROGO
 10
28080.236320206739
 20
1939.749496429288
 30
0.0
 11
28129.60434129191
 21
1747.749496429286
 31
0.0
1001
AUTOCAD_POSTSCRIPT_FIGURE
1002
{
1000
PSFILL
1000
Grayscale
1000
Grayscale
1070
   100
1002
}
  0
LINE
  5
12005
  8
YODOROGO
 10
27977.604341291921
 20
1939.749496429288
 30
0.0
 11
28080.236320206739
 21
1939.749496429288
 31
0.0
1001
AUTOCAD_POSTSCRIPT_FIGURE
1002
{
1000
PSFILL
1000
Grayscale
1000
Grayscale
1070
   100
1002
}
  0
LINE
  5
12006
  8
YODOROGO
 10
27977.604341291921
 20
1955.7494964292871
 30
0.0
 11
27977.604341291921
 21
1939.749496429288
 31
0.0
1001
AUTOCAD_POSTSCRIPT_FIGURE
1002
{
1000
PSFILL
1000
Grayscale
1000
Grayscale
1070
   100
1002
}
  0
LINE
  5
12007
  8
YODOROGO
 10
28076.60687851991
 20
1955.7494964292871
 30
0.0
 11
27977.604341291921
 21
1955.7494964292871
 31
0.0
1001
AUTOCAD_POSTSCRIPT_FIGURE
1002
{
1000
PSFILL
1000
Grayscale
1000
Grayscale
1070
   100
1002
}
  0
LINE
  5
12008
  8
YODOROGO
 10
28071.162715989711
 20
1979.749496429288
 30
0.0
 11
28076.60687851991
 21
1955.7494964292871
 31
0.0
1001
AUTOCAD_POSTSCRIPT_FIGURE
1002
{
1000
PSFILL
1000
Grayscale
1000
Grayscale
1070
   100
1002
}
  0
LINE
  5
12009
  8
YODOROGO
 10
28091.162715989711
 20
1979.749496429288
 30
0.0
 11
28071.162715989711
 21
1979.749496429288
 31
0.0
1001
AUTOCAD_POSTSCRIPT_FIGURE
1002
{
1000
PSFILL
1000
Grayscale
1000
Grayscale
1070
   100
1002
}
  0
LINE
  5
1200A
  8
YODOROGO
 10
28095.806878519939
 20
1955.7494964292871
 30
0.0
 11
28091.162715989711
 21
1979.749496429288
 31
0.0
1001
AUTOCAD_POSTSCRIPT_FIGURE
1002
{
1000
PSFILL
1000
Grayscale
1000
Grayscale
1070
   100
1002
}
  0
LINE
  5
1200B
  8
YODOROGO
 10
28121.604341291921
 20
1955.7494964292871
 30
0.0
 11
28095.806878519939
 21
1955.7494964292871
 31
0.0
1001
AUTOCAD_POSTSCRIPT_FIGURE
1002
{
1000
PSFILL
1000
Grayscale
1000
Grayscale
1070
   100
1002
}
  0
LINE
  5
1200C
  8
YODOROGO
 10
28121.604341291921
 20
1979.749496429288
 30
0.0
 11
28121.604341291921
 21
1955.7494964292871
 31
0.0
1001
AUTOCAD_POSTSCRIPT_FIGURE
1002
{
1000
PSFILL
1000
Grayscale
1000
Grayscale
1070
   100
1002
}
  0
LINE
  5
1200D
  8
YODOROGO
 10
28137.604341291921
 20
1979.749496429288
 30
0.0
 11
28121.604341291921
 21
1979.749496429288
 31
0.0
1001
AUTOCAD_POSTSCRIPT_FIGURE
1002
{
1000
PSFILL
1000
Grayscale
1000
Grayscale
1070
   100
1002
}
  0
LINE
  5
1200E
  8
YODOROGO
 10
28137.604341291921
 20
1955.7494964292871
 30
0.0
 11
28137.604341291921
 21
1979.749496429288
 31
0.0
1001
AUTOCAD_POSTSCRIPT_FIGURE
1002
{
1000
PSFILL
1000
Grayscale
1000
Grayscale
1070
   100
1002
}
  0
LINE
  5
1200F
  8
YODOROGO
 10
28137.604341291921
 20
1939.749496429288
 30
0.0
 11
28137.604341291921
 21
1955.7494964292871
 31
0.0
1001
AUTOCAD_POSTSCRIPT_FIGURE
1002
{
1000
PSFILL
1000
Grayscale
1000
Grayscale
1070
   100
1002
}
  0
LINE
  5
12010
  8
YODOROGO
 10
28098.902986873411
 20
1939.749496429288
 30
0.0
 11
28137.604341291921
 21
1939.749496429288
 31
0.0
1001
AUTOCAD_POSTSCRIPT_FIGURE
1002
{
1000
PSFILL
1000
Grayscale
1000
Grayscale
1070
   100
1002
}
  0
LINE
  5
12011
  8
YODOROGO
 10
28137.604341291921
 20
1747.749496429286
 30
0.0
 11
28098.902986873411
 21
1939.749496429288
 31
0.0
1001
AUTOCAD_POSTSCRIPT_FIGURE
1002
{
1000
PSFILL
1000
Grayscale
1000
Grayscale
1070
   100
1002
}
  0
LINE
  5
12012
  8
YODOROGO
 10
28129.60434129191
 20
1747.749496429286
 30
0.0
 11
28137.604341291921
 21
1747.749496429286
 31
0.0
1001
AUTOCAD_POSTSCRIPT_FIGURE
1002
{
1000
PSFILL
1000
Grayscale
1000
Grayscale
1070
   100
1002
}
  0
LINE
  5
12013
  8
YODOROGO
 10
28078.06921993379
 20
1775.7407762987939
 30
0.0
 11
27977.604341291921
 21
1747.749496429286
 31
0.0
  0
LINE
  5
12014
  8
YODOROGO
 10
28078.06921993379
 20
1798.6689795290731
 30
0.0
 11
28078.06921993379
 21
1775.7407762987939
 31
0.0
  0
LINE
  5
12015
  8
YODOROGO
 10
28033.83678061287
 20
1786.816933133767
 30
0.0
 11
28078.06921993379
 21
1798.6689795290731
 31
0.0
  0
LINE
  5
12016
  8
YODOROGO
 10
28033.83678061287
 20
1872.5683489362989
 30
0.0
 11
28033.83678061287
 21
1786.816933133767
 31
0.0
  0
LINE
  5
12017
  8
YODOROGO
 10
28078.06921993379
 20
1872.5683489362989
 30
0.0
 11
28033.83678061287
 21
1872.5683489362989
 31
0.0
  0
LINE
  5
12018
  8
YODOROGO
 10
28078.06921993379
 20
1892.568348936298
 30
0.0
 11
28078.06921993379
 21
1872.5683489362989
 31
0.0
  0
LINE
  5
12019
  8
YODOROGO
 10
27977.604341291921
 20
1892.568348936298
 30
0.0
 11
28078.06921993379
 21
1892.568348936298
 31
0.0
  0
LINE
  5
1201A
  8
YODOROGO
 10
27977.604341291921
 20
1872.5683489362989
 30
0.0
 11
27977.604341291921
 21
1892.568348936298
 31
0.0
  0
LINE
  5
1201B
  8
YODOROGO
 10
28021.836780612852
 20
1872.5683489362989
 30
0.0
 11
27977.604341291921
 21
1872.5683489362989
 31
0.0
  0
LINE
  5
1201C
  8
YODOROGO
 10
28021.836780612852
 20
1784.673339594317
 30
0.0
 11
28021.836780612852
 21
1872.5683489362989
 31
0.0
  0
LINE
  5
1201D
  8
YODOROGO
 10
27977.604341291921
 20
1771.749496429286
 30
0.0
 11
28021.836780612852
 21
1784.673339594317
 31
0.0
  0
LINE
  5
1201E
  8
YODOROGO
 10
27977.604341291921
 20
1747.749496429286
 30
0.0
 11
27977.604341291921
 21
1771.749496429286
 31
0.0
  0
LINE
  5
1201F
  8
YODOROGO
 10
28001.604341291921
 20
1707.749496429288
 30
0.0
 11
28001.604341291921
 21
1683.7494964292871
 31
0.0
  0
LINE
  5
12020
  8
YODOROGO
 10
28017.604341291921
 20
1707.749496429288
 30
0.0
 11
28001.604341291921
 21
1707.749496429288
 31
0.0
  0
LINE
  5
12021
  8
YODOROGO
 10
28017.604341291921
 20
1683.7494964292871
 30
0.0
 11
28017.604341291921
 21
1707.749496429288
 31
0.0
  0
LINE
  5
12022
  8
YODOROGO
 10
28040.913204016892
 20
1683.7494964292871
 30
0.0
 11
28017.604341291921
 21
1683.7494964292871
 31
0.0
  0
LINE
  5
12023
  8
YODOROGO
 10
28001.604341291921
 20
1683.7494964292871
 30
0.0
 11
27977.604341291921
 21
1683.7494964292871
 31
0.0
  0
LINE
  5
12024
  8
YODOROGO
 10
28082.135520230921
 20
1707.749496429288
 30
0.0
 11
28098.135520230931
 21
1707.749496429288
 31
0.0
1001
AUTOCAD_POSTSCRIPT_FIGURE
1002
{
1000
PSFILL
1000
Grayscale
1000
Grayscale
1070
   100
1002
}
  0
LINE
  5
12025
  8
YODOROGO
 10
28401.60434129191
 20
1824.877625640306
 30
0.0
 11
28401.60434129191
 21
1752.877625640306
 31
0.0
1001
AUTOCAD_POSTSCRIPT_FIGURE
1002
{
1000
PSFILL
1000
Grayscale
1000
Grayscale
1070
   100
1002
}
  0
LINE
  5
12026
  8
YODOROGO
 10
28401.60434129191
 20
1916.8776256403071
 30
0.0
 11
28401.60434129191
 21
1984.877625640306
 31
0.0
1001
AUTOCAD_POSTSCRIPT_FIGURE
1002
{
1000
PSFILL
1000
Grayscale
1000
Grayscale
1070
   100
1002
}
  0
LINE
  5
12027
  8
YODOROGO
 10
28433.60434129191
 20
1819.7494964292871
 30
0.0
 11
28433.60434129191
 21
1747.74949642929
 31
0.0
  0
LINE
  5
12028
  8
YODOROGO
 10
28497.60434129191
 20
1707.749496429288
 30
0.0
 11
28433.60434129191
 21
1707.749496429288
 31
0.0
  0
LINE
  5
12029
  8
YODOROGO
 10
28433.60434129191
 20
1747.74949642929
 30
0.0
 11
28585.604341291921
 21
1747.74949642929
 31
0.0
  0
LINE
  5
1202A
  8
YODOROGO
 10
28497.60434129191
 20
1867.7494964292871
 30
0.0
 11
28433.60434129191
 21
1867.7494964292871
 31
0.0
  0
LINE
  5
1202B
  8
YODOROGO
 10
28497.60434129191
 20
1923.7494964292871
 30
0.0
 11
28497.60434129191
 21
1867.7494964292871
 31
0.0
  0
LINE
  5
1202C
  8
YODOROGO
 10
28585.604341291921
 20
1987.7494964292871
 30
0.0
 11
28585.604341291921
 21
2027.749496429288
 31
0.0
  0
LINE
  5
1202D
  8
YODOROGO
 10
28433.60434129191
 20
1987.7494964292871
 30
0.0
 11
28585.604341291921
 21
1987.7494964292871
 31
0.0
  0
LINE
  5
1202E
  8
YODOROGO
 10
28433.60434129191
 20
1867.7494964292871
 30
0.0
 11
28433.60434129191
 21
1987.7494964292871
 31
0.0
  0
LINE
  5
1202F
  8
YODOROGO
 10
29001.60434129191
 20
2027.749496429288
 30
0.0
 11
29001.60434129191
 21
1619.749496429288
 31
0.0
  0
LINE
  5
12030
  8
YODOROGO
 10
29073.604341291921
 20
1579.749496429288
 30
0.0
 11
29073.604341291921
 21
2027.749496429288
 31
0.0
  0
LINE
  5
12031
  8
YODOROGO
 10
29261.604341291921
 20
1491.749496429286
 30
0.0
 11
29261.604341291921
 21
2007.749496429288
 31
0.0
  0
LINE
  5
12032
  8
YODOROGO
 10
29197.604341291921
 20
2007.749496429288
 30
0.0
 11
29197.604341291921
 21
1491.749496429286
 31
0.0
  0
LINE
  5
12033
  8
YODOROGO
 10
29385.604341291921
 20
2027.749496429288
 30
0.0
 11
29385.604341291921
 21
1427.749496429288
 31
0.0
  0
LINE
  5
12034
  8
YODOROGO
 10
29457.604341291921
 20
1427.749496429288
 30
0.0
 11
29457.604341291921
 21
2027.749496429288
 31
0.0
  0
LINE
  5
12035
  8
YODOROGO
 10
28657.604341291921
 20
1667.749496429288
 30
0.0
 11
28657.604341291921
 21
1747.74949642929
 31
0.0
  0
LINE
  5
12036
  8
YODOROGO
 10
29885.604341291921
 20
1707.749496429288
 30
0.0
 11
29885.604341291921
 21
1667.749496429288
 31
0.0
  0
LINE
  5
12037
  8
YODOROGO
 10
29885.604341291921
 20
1707.749496429288
 30
0.0
 11
29885.604341291921
 21
1667.749496429288
 31
0.0
  0
ARC
  5
12038
  8
YODOROGO
 10
28906.911576186842
 20
1618.217864442272
 30
0.0
 40
94.705151178741644
 50
274.05244162907098
 51
0.9266642149310712
  0
ARC
  5
12039
  8
YODOROGO
 10
28909.186170719819
 20
1592.61072861044
 30
0.0
 40
164.92042356085511
 50
271.5351210653775
 51
355.52727750585052
  0
LINE
  5
1203A
  8
YODOROGO
 10
28913.604341291921
 20
1523.7494964292871
 30
0.0
 11
28913.604341291921
 21
1427.749496429288
 31
0.0
  0
LINE
  5
1203B
  8
YODOROGO
 10
28793.60434129191
 20
1667.749496429288
 30
0.0
 11
28657.604341291921
 21
1667.749496429288
 31
0.0
  0
LINE
  5
1203C
  8
YODOROGO
 10
28793.60434129191
 20
1603.7494964292871
 30
0.0
 11
28793.60434129191
 21
1667.749496429288
 31
0.0
  0
LINE
  5
1203D
  8
YODOROGO
 10
28657.604341291921
 20
1603.7494964292871
 30
0.0
 11
28793.60434129191
 21
1603.7494964292871
 31
0.0
  0
LINE
  5
1203E
  8
YODOROGO
 10
28657.604341291921
 20
1523.7494964292871
 30
0.0
 11
28657.604341291921
 21
1603.7494964292871
 31
0.0
  0
LINE
  5
1203F
  8
YODOROGO
 10
28793.60434129191
 20
1523.7494964292871
 30
0.0
 11
28657.604341291921
 21
1523.7494964292871
 31
0.0
  0
LINE
  5
12040
  8
YODOROGO
 10
28793.60434129191
 20
1427.749496429288
 30
0.0
 11
28793.60434129191
 21
1523.7494964292871
 31
0.0
  0
LINE
  5
12041
  8
YODOROGO
 10
29197.604341291921
 20
1491.749496429286
 30
0.0
 11
29261.604341291921
 21
1491.749496429286
 31
0.0
  0
LINE
  5
12042
  8
YODOROGO
 10
29385.604341291921
 20
1427.749496429288
 30
0.0
 11
29457.604341291921
 21
1427.749496429288
 31
0.0
  0
LINE
  5
12043
  8
YODOROGO
 10
29737.604341291921
 20
1528.4414521705639
 30
0.0
 11
29737.604341291921
 21
1427.749496429288
 31
0.0
  0
LINE
  5
12044
  8
YODOROGO
 10
29617.604341291921
 20
1427.749496429288
 30
0.0
 11
29737.604341291921
 21
1528.4414521705639
 31
0.0
  0
LINE
  5
12045
  8
YODOROGO
 10
29617.604341291921
 20
1547.749496429288
 30
0.0
 11
29617.604341291921
 21
1427.749496429288
 31
0.0
  0
LINE
  5
12046
  8
YODOROGO
 10
29712.94462869945
 20
1627.749496429288
 30
0.0
 11
29617.604341291921
 21
1547.749496429288
 31
0.0
  0
LINE
  5
12047
  8
YODOROGO
 10
29617.604341291921
 20
1627.749496429288
 30
0.0
 11
29712.94462869945
 21
1627.749496429288
 31
0.0
  0
LINE
  5
12048
  8
YODOROGO
 10
29617.604341291921
 20
1667.749496429288
 30
0.0
 11
29617.604341291921
 21
1627.749496429288
 31
0.0
  0
LINE
  5
12049
  8
YODOROGO
 10
29885.604341291921
 20
1667.749496429288
 30
0.0
 11
29617.604341291921
 21
1667.749496429288
 31
0.0
  0
LINE
  5
1204A
  8
YODOROGO
 10
29917.604341291921
 20
1627.749496429288
 30
0.0
 11
29777.604341291921
 21
1627.749496429288
 31
0.0
  0
LINE
  5
1204B
  8
YODOROGO
 10
29777.604341291921
 20
1562.0054374176559
 30
0.0
 11
29771.409872985321
 21
1556.807661346234
 31
0.0
  0
LINE
  5
1204C
  8
YODOROGO
 10
29777.604341291921
 20
1627.749496429288
 30
0.0
 11
29777.604341291921
 21
1562.0054374176559
 31
0.0
  0
LINE
  5
1204D
  8
YODOROGO
 10
29737.604341291921
 20
1528.4414521705639
 30
0.0
 11
29737.604341291921
 21
1427.749496429288
 31
0.0
  0
LINE
  5
1204E
  8
YODOROGO
 10
29617.604341291921
 20
1427.749496429288
 30
0.0
 11
29737.604341291921
 21
1528.4414521705639
 31
0.0
  0
LINE
  5
1204F
  8
YODOROGO
 10
29617.604341291921
 20
1547.749496429288
 30
0.0
 11
29617.604341291921
 21
1427.749496429288
 31
0.0
  0
LINE
  5
12050
  8
YODOROGO
 10
29712.94462869945
 20
1627.749496429288
 30
0.0
 11
29617.604341291921
 21
1547.749496429288
 31
0.0
  0
LINE
  5
12051
  8
YODOROGO
 10
29617.604341291921
 20
1627.749496429288
 30
0.0
 11
29712.94462869945
 21
1627.749496429288
 31
0.0
  0
LINE
  5
12052
  8
YODOROGO
 10
29617.604341291921
 20
1667.749496429288
 30
0.0
 11
29617.604341291921
 21
1627.749496429288
 31
0.0
  0
LINE
  5
12053
  8
YODOROGO
 10
29885.604341291921
 20
1667.749496429288
 30
0.0
 11
29617.604341291921
 21
1667.749496429288
 31
0.0
  0
LINE
  5
12054
  8
YODOROGO
 10
28793.60434129191
 20
1747.74949642929
 30
0.0
 11
28793.60434129191
 21
1819.7494964292871
 31
0.0
  0
LINE
  5
12055
  8
YODOROGO
 10
28657.604341291921
 20
1747.74949642929
 30
0.0
 11
28793.60434129191
 21
1747.74949642929
 31
0.0
  0
LINE
  5
12056
  8
YODOROGO
 10
28729.604341291921
 20
1867.7494964292871
 30
0.0
 11
28729.604341291921
 21
1923.7494964292871
 31
0.0
  0
LINE
  5
12057
  8
YODOROGO
 10
28793.60434129191
 20
1867.7494964292871
 30
0.0
 11
28729.604341291921
 21
1867.7494964292871
 31
0.0
  0
LINE
  5
12058
  8
YODOROGO
 10
28793.60434129191
 20
1947.749496429288
 30
0.0
 11
28793.60434129191
 21
1867.7494964292871
 31
0.0
  0
ARC
  5
12059
  8
YODOROGO
 10
28753.60434129191
 20
1947.749496429288
 30
0.0
 40
40.0
 50
0.0
 51
90.0
  0
LINE
  5
1205A
  8
YODOROGO
 10
28657.604341291921
 20
1987.7494964292871
 30
0.0
 11
28753.60434129191
 21
1987.7494964292871
 31
0.0
  0
LINE
  5
1205B
  8
YODOROGO
 10
28657.604341291921
 20
2027.749496429288
 30
0.0
 11
28657.604341291921
 21
1987.7494964292871
 31
0.0
  0
LINE
  5
1205C
  8
YODOROGO
 10
29073.604341291921
 20
2027.749496429288
 30
0.0
 11
29001.60434129191
 21
2027.749496429288
 31
0.0
  0
LINE
  5
1205D
  8
YODOROGO
 10
29261.604341291921
 20
2007.749496429288
 30
0.0
 11
29197.604341291921
 21
2007.749496429288
 31
0.0
  0
LINE
  5
1205E
  8
YODOROGO
 10
29457.604341291921
 20
2027.749496429288
 30
0.0
 11
29385.604341291921
 21
2027.749496429288
 31
0.0
  0
LINE
  5
1205F
  8
YODOROGO
 10
29673.604341291921
 20
1707.749496429288
 30
0.0
 11
29673.604341291921
 21
1771.7494964292871
 31
0.0
1001
AUTOCAD_POSTSCRIPT_FIGURE
1002
{
1000
PSFILL
1000
Grayscale
1000
Grayscale
1070
    25
1002
}
  0
LINE
  5
12060
  8
YODOROGO
 10
29617.604341291921
 20
1707.749496429288
 30
0.0
 11
29673.604341291921
 21
1707.749496429288
 31
0.0
1001
AUTOCAD_POSTSCRIPT_FIGURE
1002
{
1000
PSFILL
1000
Grayscale
1000
Grayscale
1070
    25
1002
}
  0
LINE
  5
12061
  8
YODOROGO
 10
29617.604341291921
 20
1819.7494964292871
 30
0.0
 11
29617.604341291921
 21
1707.749496429288
 31
0.0
1001
AUTOCAD_POSTSCRIPT_FIGURE
1002
{
1000
PSFILL
1000
Grayscale
1000
Grayscale
1070
    25
1002
}
  0
LINE
  5
12062
  8
YODOROGO
 10
29765.604341291921
 20
1819.7494964292871
 30
0.0
 11
29617.604341291921
 21
1819.7494964292871
 31
0.0
1001
AUTOCAD_POSTSCRIPT_FIGURE
1002
{
1000
PSFILL
1000
Grayscale
1000
Grayscale
1070
    25
1002
}
  0
LINE
  5
12063
  8
YODOROGO
 10
29765.604341291921
 20
1859.749496429288
 30
0.0
 11
29765.604341291921
 21
1819.7494964292871
 31
0.0
1001
AUTOCAD_POSTSCRIPT_FIGURE
1002
{
1000
PSFILL
1000
Grayscale
1000
Grayscale
1070
    25
1002
}
  0
LINE
  5
12064
  8
YODOROGO
 10
29617.604341291921
 20
1859.749496429288
 30
0.0
 11
29765.604341291921
 21
1859.749496429288
 31
0.0
1001
AUTOCAD_POSTSCRIPT_FIGURE
1002
{
1000
PSFILL
1000
Grayscale
1000
Grayscale
1070
    25
1002
}
  0
LINE
  5
12065
  8
YODOROGO
 10
29617.604341291921
 20
1907.7494964292871
 30
0.0
 11
29617.604341291921
 21
1859.749496429288
 31
0.0
1001
AUTOCAD_POSTSCRIPT_FIGURE
1002
{
1000
PSFILL
1000
Grayscale
1000
Grayscale
1070
    25
1002
}
  0
LINE
  5
12066
  8
YODOROGO
 10
29765.604341291921
 20
1907.7494964292871
 30
0.0
 11
29617.604341291921
 21
1907.7494964292871
 31
0.0
1001
AUTOCAD_POSTSCRIPT_FIGURE
1002
{
1000
PSFILL
1000
Grayscale
1000
Grayscale
1070
    25
1002
}
  0
LINE
  5
12067
  8
YODOROGO
 10
29765.604341291921
 20
1947.749496429288
 30
0.0
 11
29765.604341291921
 21
1907.7494964292871
 31
0.0
1001
AUTOCAD_POSTSCRIPT_FIGURE
1002
{
1000
PSFILL
1000
Grayscale
1000
Grayscale
1070
    25
1002
}
  0
LINE
  5
12068
  8
YODOROGO
 10
29617.604341291921
 20
1947.749496429288
 30
0.0
 11
29765.604341291921
 21
1947.749496429288
 31
0.0
1001
AUTOCAD_POSTSCRIPT_FIGURE
1002
{
1000
PSFILL
1000
Grayscale
1000
Grayscale
1070
    25
1002
}
  0
LINE
  5
12069
  8
YODOROGO
 10
29617.604341291921
 20
2027.749496429288
 30
0.0
 11
29617.604341291921
 21
1947.749496429288
 31
0.0
1001
AUTOCAD_POSTSCRIPT_FIGURE
1002
{
1000
PSFILL
1000
Grayscale
1000
Grayscale
1070
    25
1002
}
  0
LINE
  5
1206A
  8
YODOROGO
 10
29665.604341291921
 20
2027.749496429288
 30
0.0
 11
29617.604341291921
 21
2027.749496429288
 31
0.0
1001
AUTOCAD_POSTSCRIPT_FIGURE
1002
{
1000
PSFILL
1000
Grayscale
1000
Grayscale
1070
    25
1002
}
  0
LINE
  5
1206B
  8
YODOROGO
 10
29665.604341291921
 20
1995.7494964292871
 30
0.0
 11
29665.604341291921
 21
2027.749496429288
 31
0.0
1001
AUTOCAD_POSTSCRIPT_FIGURE
1002
{
1000
PSFILL
1000
Grayscale
1000
Grayscale
1070
    25
1002
}
  0
LINE
  5
1206C
  8
YODOROGO
 10
29765.604341291921
 20
1995.7494964292871
 30
0.0
 11
29665.604341291921
 21
1995.7494964292871
 31
0.0
1001
AUTOCAD_POSTSCRIPT_FIGURE
1002
{
1000
PSFILL
1000
Grayscale
1000
Grayscale
1070
    25
1002
}
  0
LINE
  5
1206D
  8
YODOROGO
 10
29765.604341291921
 20
2027.749496429288
 30
0.0
 11
29765.604341291921
 21
1995.7494964292871
 31
0.0
1001
AUTOCAD_POSTSCRIPT_FIGURE
1002
{
1000
PSFILL
1000
Grayscale
1000
Grayscale
1070
    25
1002
}
  0
LINE
  5
1206E
  8
YODOROGO
 10
29829.604341291921
 20
2027.749496429288
 30
0.0
 11
29765.604341291921
 21
2027.749496429288
 31
0.0
1001
AUTOCAD_POSTSCRIPT_FIGURE
1002
{
1000
PSFILL
1000
Grayscale
1000
Grayscale
1070
    25
1002
}
  0
LINE
  5
1206F
  8
YODOROGO
 10
29829.604341291921
 20
1995.7494964292871
 30
0.0
 11
29829.604341291921
 21
2027.749496429288
 31
0.0
1001
AUTOCAD_POSTSCRIPT_FIGURE
1002
{
1000
PSFILL
1000
Grayscale
1000
Grayscale
1070
    25
1002
}
  0
LINE
  5
12070
  8
YODOROGO
 10
29829.604341291921
 20
1907.7494964292871
 30
0.0
 11
29829.604341291921
 21
1947.749496429288
 31
0.0
1001
AUTOCAD_POSTSCRIPT_FIGURE
1002
{
1000
PSFILL
1000
Grayscale
1000
Grayscale
1070
    25
1002
}
  0
LINE
  5
12071
  8
YODOROGO
 10
29829.604341291921
 20
1819.7494964292871
 30
0.0
 11
29829.604341291921
 21
1859.749496429288
 31
0.0
1001
AUTOCAD_POSTSCRIPT_FIGURE
1002
{
1000
PSFILL
1000
Grayscale
1000
Grayscale
1070
    25
1002
}
  0
LINE
  5
12072
  8
YODOROGO
 10
29921.60434129191
 20
1771.7494964292871
 30
0.0
 11
29921.60434129191
 21
1707.749496429288
 31
0.0
1001
AUTOCAD_POSTSCRIPT_FIGURE
1002
{
1000
PSFILL
1000
Grayscale
1000
Grayscale
1070
    25
1002
}
  0
LINE
  5
12073
  8
YODOROGO
 10
29829.604341291921
 20
1771.7494964292871
 30
0.0
 11
29921.60434129191
 21
1771.7494964292871
 31
0.0
1001
AUTOCAD_POSTSCRIPT_FIGURE
1002
{
1000
PSFILL
1000
Grayscale
1000
Grayscale
1070
    25
1002
}
  0
LINE
  5
12074
  8
YODOROGO
 10
29829.604341291921
 20
1707.749496429288
 30
0.0
 11
29829.604341291921
 21
1771.7494964292871
 31
0.0
1001
AUTOCAD_POSTSCRIPT_FIGURE
1002
{
1000
PSFILL
1000
Grayscale
1000
Grayscale
1070
    25
1002
}
  0
LINE
  5
12075
  8
YODOROGO
 10
29765.604341291921
 20
1707.749496429288
 30
0.0
 11
29829.604341291921
 21
1707.749496429288
 31
0.0
1001
AUTOCAD_POSTSCRIPT_FIGURE
1002
{
1000
PSFILL
1000
Grayscale
1000
Grayscale
1070
    25
1002
}
  0
LINE
  5
12076
  8
YODOROGO
 10
29765.604341291921
 20
1771.7494964292871
 30
0.0
 11
29765.604341291921
 21
1707.749496429288
 31
0.0
1001
AUTOCAD_POSTSCRIPT_FIGURE
1002
{
1000
PSFILL
1000
Grayscale
1000
Grayscale
1070
    25
1002
}
  0
LINE
  5
12077
  8
YODOROGO
 10
29673.604341291921
 20
1771.7494964292871
 30
0.0
 11
29765.604341291921
 21
1771.7494964292871
 31
0.0
1001
AUTOCAD_POSTSCRIPT_FIGURE
1002
{
1000
PSFILL
1000
Grayscale
1000
Grayscale
1070
    25
1002
}
  0
ARC
  5
12078
  8
YODOROGO
 10
31059.517893357912
 20
1602.6807375155761
 30
0.0
 40
178.22128111072141
 50
281.02627495425338
 51
357.77113575573799
  0
LINE
  5
12079
  8
YODOROGO
 10
31413.604341291921
 20
1907.7494964292871
 30
0.0
 11
31165.604341291921
 21
1907.7494964292871
 31
0.0
  0
LINE
  5
1207A
  8
YODOROGO
 10
31413.604341291921
 20
2027.749496429288
 30
0.0
 11
31165.604341291921
 21
2027.749496429288
 31
0.0
  0
LINE
  5
1207B
  8
YODOROGO
 10
31165.604341291921
 20
1963.749496429286
 30
0.0
 11
31413.604341291921
 21
1963.749496429286
 31
0.0
  0
LINE
  5
1207C
  8
YODOROGO
 10
30791.604341291921
 20
1563.7494964292871
 30
0.0
 11
30791.604341291921
 21
1755.7494964292871
 31
0.0
  0
LINE
  5
1207D
  8
YODOROGO
 10
30763.604341291921
 20
1691.749496429288
 30
0.0
 11
30763.604341291921
 21
1563.7494964292871
 31
0.0
  0
LINE
  5
1207E
  8
YODOROGO
 10
30723.604341291921
 20
1491.749496429288
 30
0.0
 11
30723.604341291921
 21
1691.749496429288
 31
0.0
  0
LINE
  5
1207F
  8
YODOROGO
 10
30899.604341291932
 20
1691.749496429288
 30
0.0
 11
30899.604341291932
 21
1491.749496429288
 31
0.0
  0
LINE
  5
12080
  8
YODOROGO
 10
30859.604341291932
 20
1563.7494964292871
 30
0.0
 11
30859.604341291932
 21
1691.749496429288
 31
0.0
  0
LINE
  5
12081
  8
YODOROGO
 10
30831.604341291921
 20
1755.7494964292871
 30
0.0
 11
30831.604341291921
 21
1563.7494964292871
 31
0.0
  0
LINE
  5
12082
  8
YODOROGO
 10
30973.604341291921
 20
2027.749496429288
 30
0.0
 11
30973.604341291921
 21
1467.749496429288
 31
0.0
  0
LINE
  5
12083
  8
YODOROGO
 10
30645.604341291921
 20
1427.749496429288
 30
0.0
 11
30645.604341291921
 21
2027.749496429288
 31
0.0
  0
LINE
  5
12084
  8
YODOROGO
 10
30697.604341291932
 20
1963.749496429286
 30
0.0
 11
30697.604341291932
 21
1427.749496429288
 31
0.0
  0
LINE
  5
12085
  8
YODOROGO
 10
30925.604341291921
 20
1547.749496429288
 30
0.0
 11
30925.604341291921
 21
1963.749496429286
 31
0.0
  0
LINE
  5
12086
  8
YODOROGO
 10
30381.604341291932
 20
1627.749496429288
 30
0.0
 11
30381.604341291932
 21
1679.749496429288
 31
0.0
  0
LINE
  5
12087
  8
YODOROGO
 10
30617.604341291921
 20
1679.749496429288
 30
0.0
 11
30617.604341291921
 21
1627.749496429288
 31
0.0
  0
LINE
  5
12088
  8
YODOROGO
 10
31165.604341291921
 20
1907.7494964292871
 30
0.0
 11
31165.604341291921
 21
1635.7494964292871
 31
0.0
  0
LINE
  5
12089
  8
YODOROGO
 10
29949.60434129191
 20
1667.749496429288
 30
0.0
 11
29949.60434129191
 21
1707.749496429288
 31
0.0
  0
LINE
  5
1208A
  8
YODOROGO
 10
29949.60434129191
 20
1667.749496429288
 30
0.0
 11
29949.60434129191
 21
1707.749496429288
 31
0.0
  0
ARC
  5
1208B
  8
YODOROGO
 10
30537.604341291921
 20
1507.749496429288
 30
0.0
 40
80.0
 50
270.0
 51
0.0
  0
LINE
  5
1208C
  8
YODOROGO
 10
30569.604341291921
 20
1599.7494964292871
 30
0.0
 11
30617.604341291921
 21
1599.7494964292871
 31
0.0
  0
LINE
  5
1208D
  8
YODOROGO
 10
30617.604341291921
 20
1627.749496429288
 30
0.0
 11
30529.604341291939
 21
1627.749496429288
 31
0.0
  0
LINE
  5
1208E
  8
YODOROGO
 10
30217.604341291921
 20
1667.749496429288
 30
0.0
 11
29949.60434129191
 21
1667.749496429288
 31
0.0
  0
LINE
  5
1208F
  8
YODOROGO
 10
30217.604341291921
 20
1627.749496429288
 30
0.0
 11
30217.604341291921
 21
1667.749496429288
 31
0.0
  0
LINE
  5
12090
  8
YODOROGO
 10
30017.604341291921
 20
1627.749496429288
 30
0.0
 11
30217.604341291921
 21
1627.749496429288
 31
0.0
  0
ARC
  5
12091
  8
YODOROGO
 10
30230.05882870136
 20
1868.885714952901
 30
0.0
 40
321.37763628522822
 50
228.6181454618993
 51
245.660289248906
  0
LINE
  5
12092
  8
YODOROGO
 10
30105.604341291921
 20
1603.7494964292871
 30
0.0
 11
30097.60434129195
 21
1576.0728158699001
 31
0.0
  0
LINE
  5
12093
  8
YODOROGO
 10
30189.604341291921
 20
1603.7494964292871
 30
0.0
 11
30105.604341291921
 21
1603.7494964292871
 31
0.0
  0
LINE
  5
12094
  8
YODOROGO
 10
30177.604341291921
 20
1551.817722473427
 30
0.0
 11
30189.604341291921
 21
1603.7494964292871
 31
0.0
  0
ARC
  5
12095
  8
YODOROGO
 10
30230.05882870045
 20
1868.885714953002
 30
0.0
 40
321.37763628529081
 50
260.60629297969911
 51
267.77903556555862
  0
LINE
  5
12096
  8
YODOROGO
 10
30217.604341291921
 20
1427.749496429285
 30
0.0
 11
30217.604341291921
 21
1547.749496429288
 31
0.0
  0
LINE
  5
12097
  8
YODOROGO
 10
29937.604341291932
 20
1481.3393349155101
 30
0.0
 11
29937.604341291921
 21
1594.531090531141
 31
0.0
  0
LINE
  5
12098
  8
YODOROGO
 10
30217.604341291921
 20
1667.749496429288
 30
0.0
 11
29949.60434129191
 21
1667.749496429288
 31
0.0
  0
LINE
  5
12099
  8
YODOROGO
 10
30217.604341291921
 20
1627.749496429288
 30
0.0
 11
30217.604341291921
 21
1667.749496429288
 31
0.0
  0
LINE
  5
1209A
  8
YODOROGO
 10
30017.604341291921
 20
1627.749496429288
 30
0.0
 11
30217.604341291921
 21
1627.749496429288
 31
0.0
  0
ARC
  5
1209B
  8
YODOROGO
 10
30230.05882870136
 20
1868.885714952901
 30
0.0
 40
321.37763628522822
 50
228.6181454618993
 51
245.660289248906
  0
LINE
  5
1209C
  8
YODOROGO
 10
30105.604341291921
 20
1603.7494964292871
 30
0.0
 11
30097.60434129195
 21
1576.0728158699001
 31
0.0
  0
LINE
  5
1209D
  8
YODOROGO
 10
30189.604341291921
 20
1603.7494964292871
 30
0.0
 11
30105.604341291921
 21
1603.7494964292871
 31
0.0
  0
LINE
  5
1209E
  8
YODOROGO
 10
30177.604341291921
 20
1551.817722473427
 30
0.0
 11
30189.604341291921
 21
1603.7494964292871
 31
0.0
  0
ARC
  5
1209F
  8
YODOROGO
 10
30230.05882870045
 20
1868.885714953002
 30
0.0
 40
321.37763628529081
 50
260.60629297969911
 51
267.77903556555862
  0
LINE
  5
120A0
  8
YODOROGO
 10
30217.604341291921
 20
1427.749496429285
 30
0.0
 11
30217.604341291921
 21
1547.749496429288
 31
0.0
  0
LINE
  5
120A1
  8
YODOROGO
 10
29937.604341291932
 20
1481.3393349155101
 30
0.0
 11
29937.604341291921
 21
1594.531090531141
 31
0.0
  0
LINE
  5
120A2
  8
YODOROGO
 10
30433.604341291921
 20
1573.749496429288
 30
0.0
 11
30381.604341291932
 21
1573.749496429288
 31
0.0
  0
LINE
  5
120A3
  8
YODOROGO
 10
30433.604341291921
 20
1601.749496429285
 30
0.0
 11
30433.604341291921
 21
1573.749496429288
 31
0.0
  0
LINE
  5
120A4
  8
YODOROGO
 10
30381.604341291932
 20
1601.749496429285
 30
0.0
 11
30433.604341291921
 21
1601.749496429285
 31
0.0
  0
LINE
  5
120A5
  8
YODOROGO
 10
30381.604341291932
 20
1573.749496429288
 30
0.0
 11
30381.604341291932
 21
1601.749496429285
 31
0.0
  0
LINE
  5
120A6
  8
YODOROGO
 10
30429.604341291921
 20
1577.7494964292871
 30
0.0
 11
30385.604341291921
 21
1577.7494964292871
 31
0.0
  0
LINE
  5
120A7
  8
YODOROGO
 10
30429.604341291921
 20
1597.749496429288
 30
0.0
 11
30429.604341291921
 21
1577.7494964292871
 31
0.0
  0
LINE
  5
120A8
  8
YODOROGO
 10
30385.604341291921
 20
1597.749496429288
 30
0.0
 11
30429.604341291921
 21
1597.749496429288
 31
0.0
  0
LINE
  5
120A9
  8
YODOROGO
 10
30385.604341291921
 20
1577.7494964292871
 30
0.0
 11
30385.604341291921
 21
1597.749496429288
 31
0.0
  0
LINE
  5
120AA
  8
YODOROGO
 10
30425.604341291921
 20
1581.749496429286
 30
0.0
 11
30389.604341291921
 21
1581.749496429286
 31
0.0
  0
LINE
  5
120AB
  8
YODOROGO
 10
30425.604341291921
 20
1593.749496429288
 30
0.0
 11
30425.604341291921
 21
1581.749496429286
 31
0.0
  0
LINE
  5
120AC
  8
YODOROGO
 10
30389.604341291921
 20
1593.749496429288
 30
0.0
 11
30425.604341291921
 21
1593.749496429288
 31
0.0
  0
LINE
  5
120AD
  8
YODOROGO
 10
30389.604341291921
 20
1581.749496429286
 30
0.0
 11
30389.604341291921
 21
1593.749496429288
 31
0.0
  0
LINE
  5
120AE
  8
YODOROGO
 10
30421.604341291932
 20
1585.7494964292871
 30
0.0
 11
30393.604341291921
 21
1585.7494964292871
 31
0.0
  0
LINE
  5
120AF
  8
YODOROGO
 10
30421.604341291932
 20
1589.749496429288
 30
0.0
 11
30421.604341291932
 21
1585.7494964292871
 31
0.0
  0
LINE
  5
120B0
  8
YODOROGO
 10
30393.604341291921
 20
1589.749496429288
 30
0.0
 11
30421.604341291932
 21
1589.749496429288
 31
0.0
  0
LINE
  5
120B1
  8
YODOROGO
 10
30393.604341291921
 20
1585.7494964292871
 30
0.0
 11
30393.604341291921
 21
1589.749496429288
 31
0.0
  0
LINE
  5
120B2
  8
YODOROGO
 10
30465.604341291921
 20
1627.749496429288
 30
0.0
 11
30381.604341291932
 21
1627.749496429288
 31
0.0
  0
LINE
  5
120B3
  8
YODOROGO
 10
30465.604341291921
 20
1547.749496429288
 30
0.0
 11
30465.604341291921
 21
1627.749496429288
 31
0.0
  0
LINE
  5
120B4
  8
YODOROGO
 10
30381.604341291932
 20
1547.749496429288
 30
0.0
 11
30465.604341291921
 21
1547.749496429288
 31
0.0
  0
LINE
  5
120B5
  8
YODOROGO
 10
30381.604341291932
 20
1427.749496429288
 30
0.0
 11
30381.604341291932
 21
1547.749496429288
 31
0.0
  0
LINE
  5
120B6
  8
YODOROGO
 10
30537.604341291921
 20
1427.749496429288
 30
0.0
 11
30381.604341291932
 21
1427.749496429288
 31
0.0
  0
LINE
  5
120B7
  8
YODOROGO
 10
30569.604341291921
 20
1571.749496429285
 30
0.0
 11
30569.604341291921
 21
1599.7494964292871
 31
0.0
  0
ARC
  5
120B8
  8
YODOROGO
 10
30545.604341291921
 20
1571.749496429291
 30
0.0
 40
24.000000000003752
 50
270.0
 51
359.99999999998772
  0
LINE
  5
120B9
  8
YODOROGO
 10
30529.604341291939
 20
1547.749496429288
 30
0.0
 11
30545.604341291921
 21
1547.749496429288
 31
0.0
  0
LINE
  5
120BA
  8
YODOROGO
 10
30529.604341291939
 20
1627.749496429288
 30
0.0
 11
30529.604341291939
 21
1547.749496429288
 31
0.0
  0
LINE
  5
120BB
  8
YODOROGO
 10
30899.604341291932
 20
1547.749496429288
 30
0.0
 11
30925.604341291921
 21
1547.749496429288
 31
0.0
  0
LINE
  5
120BC
  8
YODOROGO
 10
30933.604341291921
 20
1427.749496429288
 30
0.0
 11
30899.604341291932
 21
1427.749496429288
 31
0.0
  0
LINE
  5
120BD
  8
YODOROGO
 10
30763.604341291921
 20
1563.7494964292871
 30
0.0
 11
30791.604341291921
 21
1563.7494964292871
 31
0.0
  0
LINE
  5
120BE
  8
YODOROGO
 10
30899.604341291932
 20
1491.749496429288
 30
0.0
 11
30723.604341291921
 21
1491.749496429288
 31
0.0
  0
LINE
  5
120BF
  8
YODOROGO
 10
30831.604341291921
 20
1563.7494964292871
 30
0.0
 11
30859.604341291932
 21
1563.7494964292871
 31
0.0
  0
LINE
  5
120C0
  8
YODOROGO
 10
30899.604341291932
 20
1427.749496429288
 30
0.0
 11
30899.604341291932
 21
1547.749496429288
 31
0.0
  0
LINE
  5
120C1
  8
YODOROGO
 10
30697.604341291932
 20
1427.749496429288
 30
0.0
 11
30645.604341291921
 21
1427.749496429288
 31
0.0
  0
LINE
  5
120C2
  8
YODOROGO
 10
30617.604341291921
 20
1599.7494964292871
 30
0.0
 11
30617.604341291921
 21
1507.749496429288
 31
0.0
  0
ARC
  5
120C3
  8
YODOROGO
 10
30933.604341291921
 20
1467.749496429288
 30
0.0
 40
40.0
 50
270.0
 51
0.0
  0
LINE
  5
120C4
  8
YODOROGO
 10
31093.604341291921
 20
1523.7494964292871
 30
0.0
 11
31093.604341291921
 21
1427.749496429288
 31
0.0
  0
ARC
  5
120C5
  8
YODOROGO
 10
31039.721395566768
 20
1637.5313901097329
 30
0.0
 40
125.8955565916754
 50
295.34052442160112
 51
359.18902303418679
  0
LINE
  5
120C6
  8
YODOROGO
 10
30617.604341291921
 20
1859.749496429288
 30
0.0
 11
30497.604341291921
 21
1939.749496429288
 31
0.0
  0
LINE
  5
120C7
  8
YODOROGO
 10
30497.604341291921
 20
2027.749496429288
 30
0.0
 11
30617.604341291921
 21
1947.749496429288
 31
0.0
  0
LINE
  5
120C8
  8
YODOROGO
 10
30529.604341291939
 20
1679.749496429288
 30
0.0
 11
30617.604341291921
 21
1679.749496429288
 31
0.0
  0
LINE
  5
120C9
  8
YODOROGO
 10
30617.604341291921
 20
1735.7494964292871
 30
0.0
 11
30529.604341291939
 21
1735.7494964292871
 31
0.0
  0
LINE
  5
120CA
  8
YODOROGO
 10
30381.604341291932
 20
1795.7494964292871
 30
0.0
 11
30617.604341291921
 21
1795.7494964292871
 31
0.0
  0
LINE
  5
120CB
  8
YODOROGO
 10
30081.604341291921
 20
2027.749496429288
 30
0.0
 11
30021.604341291921
 21
2027.749496429288
 31
0.0
  0
LINE
  5
120CC
  8
YODOROGO
 10
30081.604341291921
 20
1827.7494964292871
 30
0.0
 11
30081.604341291921
 21
2027.749496429288
 31
0.0
  0
LINE
  5
120CD
  8
YODOROGO
 10
30021.604341291921
 20
1827.7494964292871
 30
0.0
 11
30081.604341291921
 21
1827.7494964292871
 31
0.0
  0
LINE
  5
120CE
  8
YODOROGO
 10
30021.604341291921
 20
2027.749496429288
 30
0.0
 11
30021.604341291921
 21
1827.7494964292871
 31
0.0
  0
LINE
  5
120CF
  8
YODOROGO
 10
30161.604341291921
 20
2027.749496429288
 30
0.0
 11
30217.604341291921
 21
2027.749496429288
 31
0.0
  0
LINE
  5
120D0
  8
YODOROGO
 10
30161.604341291921
 20
1811.749496429288
 30
0.0
 11
30161.604341291921
 21
2027.749496429288
 31
0.0
  0
ARC
  5
120D1
  8
YODOROGO
 10
30121.604341291921
 20
1811.749496429288
 30
0.0
 40
40.0
 50
270.0
 51
0.0
  0
LINE
  5
120D2
  8
YODOROGO
 10
30021.604341291921
 20
1771.7494964292871
 30
0.0
 11
30121.604341291921
 21
1771.7494964292871
 31
0.0
  0
LINE
  5
120D3
  8
YODOROGO
 10
30021.604341291921
 20
1707.749496429288
 30
0.0
 11
30021.604341291921
 21
1771.7494964292871
 31
0.0
  0
LINE
  5
120D4
  8
YODOROGO
 10
30137.604341291921
 20
1707.749496429288
 30
0.0
 11
30021.604341291921
 21
1707.749496429288
 31
0.0
  0
ARC
  5
120D5
  8
YODOROGO
 10
30137.604341291921
 20
1787.7494964292871
 30
0.0
 40
80.0
 50
270.0
 51
0.0
  0
LINE
  5
120D6
  8
YODOROGO
 10
30217.604341291921
 20
2027.749496429288
 30
0.0
 11
30217.604341291921
 21
1787.7494964292871
 31
0.0
  0
LINE
  5
120D7
  8
YODOROGO
 10
29977.604341291921
 20
1947.749496429288
 30
0.0
 11
29977.604341291921
 21
1995.7494964292871
 31
0.0
1001
AUTOCAD_POSTSCRIPT_FIGURE
1002
{
1000
PSFILL
1000
Grayscale
1000
Grayscale
1070
    25
1002
}
  0
LINE
  5
120D8
  8
YODOROGO
 10
29977.604341291921
 20
1859.749496429288
 30
0.0
 11
29977.604341291921
 21
1907.7494964292871
 31
0.0
1001
AUTOCAD_POSTSCRIPT_FIGURE
1002
{
1000
PSFILL
1000
Grayscale
1000
Grayscale
1070
    25
1002
}
  0
LINE
  5
120D9
  8
YODOROGO
 10
29977.604341291921
 20
1707.749496429288
 30
0.0
 11
29977.604341291921
 21
1819.7494964292871
 31
0.0
1001
AUTOCAD_POSTSCRIPT_FIGURE
1002
{
1000
PSFILL
1000
Grayscale
1000
Grayscale
1070
    25
1002
}
  0
LINE
  5
120DA
  8
YODOROGO
 10
30381.604341291932
 20
1907.7494964292871
 30
0.0
 11
30497.604341291921
 21
2027.749496429288
 31
0.0
  0
LINE
  5
120DB
  8
YODOROGO
 10
30381.604341291932
 20
1819.7494964292871
 30
0.0
 11
30381.604341291932
 21
1907.7494964292871
 31
0.0
  0
LINE
  5
120DC
  8
YODOROGO
 10
30497.604341291921
 20
1939.749496429288
 30
0.0
 11
30381.604341291932
 21
1819.7494964292871
 31
0.0
  0
LINE
  5
120DD
  8
YODOROGO
 10
30465.604341291921
 20
1679.749496429288
 30
0.0
 11
30465.604341291921
 21
1735.7494964292871
 31
0.0
  0
LINE
  5
120DE
  8
YODOROGO
 10
30381.604341291932
 20
1679.749496429288
 30
0.0
 11
30465.604341291921
 21
1679.749496429288
 31
0.0
  0
LINE
  5
120DF
  8
YODOROGO
 10
30529.604341291939
 20
1735.7494964292871
 30
0.0
 11
30529.604341291939
 21
1679.749496429288
 31
0.0
  0
LINE
  5
120E0
  8
YODOROGO
 10
30381.604341291932
 20
1735.7494964292871
 30
0.0
 11
30381.604341291932
 21
1795.7494964292871
 31
0.0
  0
LINE
  5
120E1
  8
YODOROGO
 10
30465.604341291921
 20
1735.7494964292871
 30
0.0
 11
30381.604341291932
 21
1735.7494964292871
 31
0.0
  0
LINE
  5
120E2
  8
YODOROGO
 10
30645.604341291921
 20
2027.749496429288
 30
0.0
 11
30973.604341291921
 21
2027.749496429288
 31
0.0
  0
LINE
  5
120E3
  8
YODOROGO
 10
30925.604341291921
 20
1963.749496429286
 30
0.0
 11
30697.604341291932
 21
1963.749496429286
 31
0.0
  0
LINE
  5
120E4
  8
YODOROGO
 10
30873.604341291921
 20
1819.7494964292871
 30
0.0
 11
30899.604341291932
 21
1819.7494964292871
 31
0.0
  0
LINE
  5
120E5
  8
YODOROGO
 10
30899.604341291932
 20
1939.749496429288
 30
0.0
 11
30873.604341291921
 21
1819.7494964292871
 31
0.0
  0
LINE
  5
120E6
  8
YODOROGO
 10
30851.604341291939
 20
1939.749496429288
 30
0.0
 11
30899.604341291932
 21
1939.749496429288
 31
0.0
  0
LINE
  5
120E7
  8
YODOROGO
 10
30825.604341291921
 20
1819.7494964292871
 30
0.0
 11
30851.604341291939
 21
1939.749496429288
 31
0.0
  0
LINE
  5
120E8
  8
YODOROGO
 10
30797.604341291921
 20
1819.7494964292871
 30
0.0
 11
30825.604341291921
 21
1819.7494964292871
 31
0.0
  0
LINE
  5
120E9
  8
YODOROGO
 10
30771.604341291939
 20
1939.749496429288
 30
0.0
 11
30797.604341291921
 21
1819.7494964292871
 31
0.0
  0
LINE
  5
120EA
  8
YODOROGO
 10
30723.604341291921
 20
1939.749496429288
 30
0.0
 11
30771.604341291939
 21
1939.749496429288
 31
0.0
  0
LINE
  5
120EB
  8
YODOROGO
 10
30749.604341291921
 20
1819.7494964292871
 30
0.0
 11
30723.604341291921
 21
1939.749496429288
 31
0.0
  0
LINE
  5
120EC
  8
YODOROGO
 10
30723.604341291921
 20
1819.7494964292871
 30
0.0
 11
30749.604341291921
 21
1819.7494964292871
 31
0.0
  0
LINE
  5
120ED
  8
YODOROGO
 10
30723.604341291921
 20
1755.7494964292871
 30
0.0
 11
30723.604341291921
 21
1819.7494964292871
 31
0.0
  0
LINE
  5
120EE
  8
YODOROGO
 10
30899.604341291932
 20
1755.7494964292871
 30
0.0
 11
30723.604341291921
 21
1755.7494964292871
 31
0.0
  0
LINE
  5
120EF
  8
YODOROGO
 10
30899.604341291932
 20
1819.7494964292871
 30
0.0
 11
30899.604341291932
 21
1755.7494964292871
 31
0.0
  0
LINE
  5
120F0
  8
YODOROGO
 10
30617.604341291921
 20
1947.749496429288
 30
0.0
 11
30617.604341291921
 21
1859.749496429288
 31
0.0
  0
LINE
  5
120F1
  8
YODOROGO
 10
30791.604341291921
 20
1755.7494964292871
 30
0.0
 11
30831.604341291921
 21
1755.7494964292871
 31
0.0
  0
LINE
  5
120F2
  8
YODOROGO
 10
30723.604341291921
 20
1691.749496429288
 30
0.0
 11
30763.604341291921
 21
1691.749496429288
 31
0.0
  0
LINE
  5
120F3
  8
YODOROGO
 10
30859.604341291932
 20
1691.749496429288
 30
0.0
 11
30899.604341291932
 21
1691.749496429288
 31
0.0
  0
LINE
  5
120F4
  8
YODOROGO
 10
30617.604341291921
 20
1795.7494964292871
 30
0.0
 11
30617.604341291921
 21
1735.7494964292871
 31
0.0
  0
LINE
  5
120F5
  8
YODOROGO
 10
31165.604341291921
 20
2027.749496429288
 30
0.0
 11
31165.604341291921
 21
1963.749496429286
 31
0.0
  0
LINE
  5
120F6
  8
YODOROGO
 10
31533.604341291921
 20
1595.7494964292871
 30
0.0
 11
31533.60434129191
 21
1811.749496429288
 31
0.0
  0
LINE
  5
120F7
  8
YODOROGO
 10
31461.60434129191
 20
1987.7494964292871
 30
0.0
 11
31461.60434129191
 21
1635.7494964292871
 31
0.0
  0
LINE
  5
120F8
  8
YODOROGO
 10
31653.604341291921
 20
1427.749496429288
 30
0.0
 11
31653.60434129191
 21
1811.749496429288
 31
0.0
  0
LINE
  5
120F9
  8
YODOROGO
 10
31589.604341291921
 20
1811.749496429288
 30
0.0
 11
31589.604341291921
 21
1427.749496429288
 31
0.0
  0
LINE
  5
120FA
  8
YODOROGO
 10
31237.604341291921
 20
1595.7494964292871
 30
0.0
 11
31237.604341291921
 21
1707.749496429288
 31
0.0
  0
ARC
  5
120FB
  8
YODOROGO
 10
31353.914865116069
 20
1607.790351288558
 30
0.0
 40
180.0924485759885
 50
268.62849102169793
 51
356.16638457330322
  0
LINE
  5
120FC
  8
YODOROGO
 10
31349.604341291939
 20
1527.749496429288
 30
0.0
 11
31349.604341291939
 21
1427.749496429288
 31
0.0
  0
ARC
  5
120FD
  8
YODOROGO
 10
31351.518075724562
 20
1637.838957017655
 30
0.0
 40
110.1060929836122
 50
269.00410209305932
 51
358.91264455492478
  0
LINE
  5
120FE
  8
YODOROGO
 10
31589.604341291921
 20
1427.749496429288
 30
0.0
 11
31653.604341291921
 21
1427.749496429288
 31
0.0
  0
LINE
  5
120FF
  8
YODOROGO
 10
31533.60434129191
 20
1811.749496429288
 30
0.0
 11
31589.604341291921
 21
1811.749496429288
 31
0.0
  0
LINE
  5
12100
  8
YODOROGO
 10
31621.604341291939
 20
1987.7494964292871
 30
0.0
 11
31461.60434129191
 21
1987.7494964292871
 31
0.0
  0
LINE
  5
12101
  8
YODOROGO
 10
31533.60434129191
 20
1915.7494964292871
 30
0.0
 11
31661.604341291939
 21
1915.7494964292871
 31
0.0
  0
LINE
  5
12102
  8
YODOROGO
 10
31701.604341291939
 20
1875.7494964292871
 30
0.0
 11
31533.60434129191
 21
1875.7494964292871
 31
0.0
  0
LINE
  5
12103
  8
YODOROGO
 10
31237.604341291921
 20
1779.749496429288
 30
0.0
 11
31349.604341291939
 21
1779.749496429288
 31
0.0
  0
LINE
  5
12104
  8
YODOROGO
 10
31237.604341291921
 20
1835.7494964292871
 30
0.0
 11
31237.604341291921
 21
1779.749496429288
 31
0.0
  0
LINE
  5
12105
  8
YODOROGO
 10
31349.604341291939
 20
1835.7494964292871
 30
0.0
 11
31237.604341291921
 21
1835.7494964292871
 31
0.0
  0
LINE
  5
12106
  8
YODOROGO
 10
31349.604341291939
 20
1779.749496429288
 30
0.0
 11
31349.604341291939
 21
1835.7494964292871
 31
0.0
  0
LINE
  5
12107
  8
YODOROGO
 10
31533.60434129191
 20
1875.7494964292871
 30
0.0
 11
31533.60434129191
 21
1915.7494964292871
 31
0.0
  0
LINE
  5
12108
  8
YODOROGO
 10
31413.604341291921
 20
1707.749496429288
 30
0.0
 11
31413.604341291921
 21
1907.7494964292871
 31
0.0
  0
LINE
  5
12109
  8
YODOROGO
 10
31237.604341291921
 20
1707.749496429288
 30
0.0
 11
31413.604341291921
 21
1707.749496429288
 31
0.0
  0
LINE
  5
1210A
  8
YODOROGO
 10
31413.604341291921
 20
1963.749496429286
 30
0.0
 11
31413.604341291921
 21
2027.749496429288
 31
0.0
  0
ARC
  5
1210B
  8
YODOROGO
 10
31621.604341291939
 20
2003.749496429285
 30
0.0
 40
15.999999999994539
 50
270.0
 51
0.0000000000081422
  0
LINE
  5
1210C
  8
YODOROGO
 10
31637.604341291921
 20
2027.749496429288
 30
0.0
 11
31637.604341291921
 21
2003.7494964292871
 31
0.0
  0
LINE
  5
1210D
  8
YODOROGO
 10
31701.604341291939
 20
2027.749496429288
 30
0.0
 11
31637.604341291921
 21
2027.749496429288
 31
0.0
  0
LINE
  5
1210E
  8
YODOROGO
 10
31701.604341291939
 20
1955.7494964292871
 30
0.0
 11
31701.604341291939
 21
2027.749496429288
 31
0.0
  0
ARC
  5
1210F
  8
YODOROGO
 10
31661.604341291939
 20
1955.7494964292871
 30
0.0
 40
40.0
 50
270.0
 51
0.0
  0
LINE
  5
12110
  8
YODOROGO
 10
31701.604341291939
 20
1811.749496429288
 30
0.0
 11
31701.604341291939
 21
1875.7494964292871
 31
0.0
  0
LINE
  5
12111
  8
YODOROGO
 10
31653.60434129191
 20
1811.749496429288
 30
0.0
 11
31701.604341291939
 21
1811.749496429288
 31
0.0
  0
LINE
  5
12112
  8
0-6
  6
CONTINUOUS
 62
     6
 10
10725.142058904319
 20
13818.76844209067
 30
0.0
 11
10666.39206027561
 21
13969.98643699999
 31
0.0
  0
LINE
  5
12113
  8
0-6
  6
CONTINUOUS
 62
     6
 10
10666.39206027561
 20
13969.98643699999
 30
0.0
 11
10771.003051962431
 21
13845.99053085157
 31
0.0
  0
LINE
  5
12114
  8
0-6
  6
CONTINUOUS
 62
     6
 10
10771.003051962431
 20
13845.99053085157
 30
0.0
 11
10725.142058904319
 21
13818.76844209067
 31
0.0
  0
LINE
  5
12115
  8
SUNPOU
  6
CONTINUOUS
 62
     4
 10
20588.781938817359
 20
8669.6883999999955
 30
0.0
 11
20588.781938817359
 21
9869.1329740000037
 31
0.0
  0
LINE
  5
12116
  8
SUNPOU
  6
CONTINUOUS
 62
     4
 10
26477.78193881737
 20
8669.6883999999955
 30
0.0
 11
26477.78193881737
 21
9869.1329740000037
 31
0.0
  0
LINE
  5
12117
  8
SUNPOU
  6
CONTINUOUS
 62
     4
 10
20591.781938817359
 20
9789.1329740000037
 30
0.0
 11
26474.78193881737
 21
9789.1329740000037
 31
0.0
  0
LINE
  5
12118
  8
SUNPOU
  6
CONTINUOUS
 62
     4
 10
26434.78193881737
 20
8669.6883999999955
 30
0.0
 11
26434.78193881737
 21
9469.1900500000029
 31
0.0
  0
LINE
  5
12119
  8
SUNPOU
  6
CONTINUOUS
 62
     4
 10
26477.78193881737
 20
8669.6883999999955
 30
0.0
 11
26477.78193881737
 21
9469.1900500000029
 31
0.0
  0
LINE
  5
1211A
  8
SUNPOU
  6
CONTINUOUS
 62
     4
 10
26434.78193881737
 20
9389.1900500000029
 30
0.0
 11
26194.78193881737
 21
9389.1900500000029
 31
0.0
  0
LINE
  5
1211B
  8
SUNPOU
  6
CONTINUOUS
 62
     4
 10
26474.78193881737
 20
9389.1900500000029
 30
0.0
 11
26714.78193881737
 21
9389.1900500000029
 31
0.0
  0
LINE
  5
1211C
  8
SUNPOU
  6
CONTINUOUS
 62
     4
 10
26434.78193881737
 20
9389.1900500000029
 30
0.0
 11
26474.78193881737
 21
9389.1900500000029
 31
0.0
  0
LINE
  5
1211D
  8
SUNPOU
  6
CONTINUOUS
 62
     4
 10
20631.781938817359
 20
8539.6884659999996
 30
0.0
 11
20631.781938817359
 21
9469.1900500000029
 31
0.0
  0
LINE
  5
1211E
  8
SUNPOU
  6
CONTINUOUS
 62
     4
 10
20588.781938817359
 20
8669.6883999999955
 30
0.0
 11
20588.781938817359
 21
9469.1900500000029
 31
0.0
  0
LINE
  5
1211F
  8
SUNPOU
  6
CONTINUOUS
 62
     4
 10
20631.781938817359
 20
9389.1900500000029
 30
0.0
 11
20871.781938817359
 21
9389.1900500000029
 31
0.0
  0
LINE
  5
12120
  8
SUNPOU
  6
CONTINUOUS
 62
     4
 10
20591.781938817359
 20
9389.1900500000029
 30
0.0
 11
20351.781938817359
 21
9389.1900500000029
 31
0.0
  0
LINE
  5
12121
  8
SUNPOU
  6
CONTINUOUS
 62
     4
 10
20631.781938817359
 20
9389.1900500000029
 30
0.0
 11
20591.781938817359
 21
9389.1900500000029
 31
0.0
  0
LINE
  5
12122
  8
SUNPOU
  6
CONTINUOUS
 62
     4
 10
23634.78193881737
 20
8539.6884659999996
 30
0.0
 11
23634.78193881737
 21
9469.1900500000029
 31
0.0
  0
LINE
  5
12123
  8
SUNPOU
  6
CONTINUOUS
 62
     4
 10
20631.781938817359
 20
8539.6884659999996
 30
0.0
 11
20631.781938817359
 21
9469.1900500000029
 31
0.0
  0
LINE
  5
12124
  8
SUNPOU
  6
CONTINUOUS
 62
     4
 10
23634.78193881737
 20
9389.1900500000029
 30
0.0
 11
20631.781938817359
 21
9389.1900500000029
 31
0.0
  0
LINE
  5
12125
  8
SUNPOU
  6
CONTINUOUS
 62
     4
 10
20544.279299817372
 20
6241.1883740000021
 30
0.0
 11
19344.279299817372
 21
6241.1883740000021
 31
0.0
  0
LINE
  5
12126
  8
SUNPOU
  6
CONTINUOUS
 62
     4
 10
20511.781938817359
 20
8590.1883999999973
 30
0.0
 11
19344.279299817372
 21
8590.1883999999973
 31
0.0
  0
LINE
  5
12127
  8
SUNPOU
  6
CONTINUOUS
 62
     4
 10
19424.279299817372
 20
6241.1883740000021
 30
0.0
 11
19424.279299817372
 21
8590.1883999999973
 31
0.0
  0
LINE
  5
12128
  8
SUNPOU
  6
CONTINUOUS
 62
     4
 10
20544.279299817372
 20
6241.1883740000021
 30
0.0
 11
19744.278639817381
 21
6241.1883740000021
 31
0.0
  0
LINE
  5
12129
  8
SUNPOU
  6
CONTINUOUS
 62
     4
 10
20636.778243817389
 20
8132.6883740000021
 30
0.0
 11
19744.278639817381
 21
8132.6883740000021
 31
0.0
  0
LINE
  5
1212A
  8
SUNPOU
  6
CONTINUOUS
 62
     4
 10
19824.278639817381
 20
6241.1883740000021
 30
0.0
 11
19824.278639817381
 21
8132.6883740000021
 31
0.0
  0
LINE
  5
1212B
  8
SUNPOU
  6
CONTINUOUS
 62
     4
 10
23637.78193881737
 20
6161.1883740000021
 30
0.0
 11
23637.78193881737
 21
5261.188374000003
 31
0.0
  0
LINE
  5
1212C
  8
SUNPOU
  6
CONTINUOUS
 62
     4
 10
26349.781938817381
 20
6061.1885389999989
 30
0.0
 11
26349.781938817381
 21
5261.188374000003
 31
0.0
  0
LINE
  5
1212D
  8
SUNPOU
  6
CONTINUOUS
 62
     4
 10
23637.78193881737
 20
5341.188374000003
 30
0.0
 11
26349.781938817381
 21
5341.188374000003
 31
0.0
  0
LINE
  5
1212E
  8
SUNPOU
  6
CONTINUOUS
 62
     4
 10
20631.82189176491
 20
6161.1883740000021
 30
0.0
 11
20631.82189176491
 21
4461.1887040000574
 31
0.0
  0
LINE
  5
1212F
  8
SUNPOU
  6
CONTINUOUS
 62
     4
 10
26434.78193881737
 20
6061.1885389999989
 30
0.0
 11
26434.78193881737
 21
4461.1887040000574
 31
0.0
  0
LINE
  5
12130
  8
SUNPOU
  6
CONTINUOUS
 62
     4
 10
20631.82189176491
 20
4541.1887040000556
 30
0.0
 11
26434.78193881737
 21
4541.1887040000556
 31
0.0
  0
LINE
  5
12131
  8
SUNPOU
  6
CONTINUOUS
 62
     4
 10
20674.281938817359
 20
5798.5361160000011
 30
0.0
 11
20674.281938817359
 21
4861.1885389999998
 31
0.0
  0
LINE
  5
12132
  8
SUNPOU
  6
CONTINUOUS
 62
     4
 10
20631.82189176491
 20
6161.1883740000021
 30
0.0
 11
20631.82189176491
 21
4861.1885389999998
 31
0.0
  0
LINE
  5
12133
  8
SUNPOU
  6
CONTINUOUS
 62
     4
 10
20674.281938817359
 20
4941.1885390000016
 30
0.0
 11
20914.281938817359
 21
4941.1885390000016
 31
0.0
  0
LINE
  5
12134
  8
SUNPOU
  6
CONTINUOUS
 62
     4
 10
20631.82189176491
 20
4941.1885390000016
 30
0.0
 11
20391.82189176491
 21
4941.1885390000016
 31
0.0
  0
LINE
  5
12135
  8
SUNPOU
  6
CONTINUOUS
 62
     4
 10
20674.281938817359
 20
4941.1885390000016
 30
0.0
 11
20631.82189176491
 21
4941.1885390000016
 31
0.0
  0
LINE
  5
12136
  8
SUNPOU
  6
CONTINUOUS
 62
     4
 10
23592.28193881737
 20
5798.5361160000011
 30
0.0
 11
23592.28193881737
 21
4861.1885389999998
 31
0.0
  0
LINE
  5
12137
  8
SUNPOU
  6
CONTINUOUS
 62
     4
 10
20674.281938817359
 20
5798.5361160000011
 30
0.0
 11
20674.281938817359
 21
4861.1885389999998
 31
0.0
  0
LINE
  5
12138
  8
SUNPOU
  6
CONTINUOUS
 62
     4
 10
23592.28193881737
 20
4941.1885390000016
 30
0.0
 11
20674.281938817359
 21
4941.1885390000016
 31
0.0
  0
LINE
  5
12139
  8
SUNPOU
  6
CONTINUOUS
 62
     4
 10
20768.281938817359
 20
6061.1885389999989
 30
0.0
 11
20768.281938817359
 21
5261.188374000003
 31
0.0
  0
LINE
  5
1213A
  8
SUNPOU
  6
CONTINUOUS
 62
     4
 10
23498.281938817359
 20
6061.1885389999989
 30
0.0
 11
23498.281938817359
 21
5261.188374000003
 31
0.0
  0
LINE
  5
1213B
  8
SUNPOU
  6
CONTINUOUS
 62
     4
 10
20768.281938817359
 20
5341.188374000003
 30
0.0
 11
23498.281938817359
 21
5341.188374000003
 31
0.0
  0
LINE
  5
1213C
  8
SUNPOU
  6
CONTINUOUS
 62
     4
 10
26392.28193881737
 20
5798.5361160000011
 30
0.0
 11
26392.28193881737
 21
4861.1885389999998
 31
0.0
  0
LINE
  5
1213D
  8
SUNPOU
  6
CONTINUOUS
 62
     4
 10
26434.78193881737
 20
6061.1885389999989
 30
0.0
 11
26434.78193881737
 21
4861.1885389999998
 31
0.0
  0
LINE
  5
1213E
  8
SUNPOU
  6
CONTINUOUS
 62
     4
 10
26392.28193881737
 20
4941.1885390000016
 30
0.0
 11
26152.28193881737
 21
4941.1885390000016
 31
0.0
  0
LINE
  5
1213F
  8
SUNPOU
  6
CONTINUOUS
 62
     4
 10
26434.78193881737
 20
4941.1885390000016
 30
0.0
 11
26674.78193881737
 21
4941.1885390000016
 31
0.0
  0
LINE
  5
12140
  8
SUNPOU
  6
CONTINUOUS
 62
     4
 10
26392.28193881737
 20
4941.1885390000016
 30
0.0
 11
26434.78193881737
 21
4941.1885390000016
 31
0.0
  0
LINE
  5
12141
  8
SUNPOU
  6
CONTINUOUS
 62
     4
 10
23592.28193881737
 20
5798.5361160000011
 30
0.0
 11
23592.28193881737
 21
4861.1885389999998
 31
0.0
  0
LINE
  5
12142
  8
SUNPOU
  6
CONTINUOUS
 62
     4
 10
26392.28193881737
 20
5798.5361160000011
 30
0.0
 11
26392.28193881737
 21
4861.1885389999998
 31
0.0
  0
LINE
  5
12143
  8
SUNPOU
  6
CONTINUOUS
 62
     4
 10
23592.28193881737
 20
4941.1885390000016
 30
0.0
 11
26392.28193881737
 21
4941.1885390000016
 31
0.0
  0
LINE
  5
12144
  8
SUNPOU
  6
CONTINUOUS
 62
     4
 10
23634.78193881737
 20
8539.6884659999996
 30
0.0
 11
23634.78193881737
 21
9469.1900500000029
 31
0.0
  0
LINE
  5
12145
  8
SUNPOU
  6
CONTINUOUS
 62
     4
 10
26434.78193881737
 20
8669.6883999999955
 30
0.0
 11
26434.78193881737
 21
9469.1900500000029
 31
0.0
  0
LINE
  5
12146
  8
SUNPOU
  6
CONTINUOUS
 62
     4
 10
23634.78193881737
 20
9389.1900500000029
 30
0.0
 11
26434.78193881737
 21
9389.1900500000029
 31
0.0
  0
LINE
  5
12147
  8
SUNPOU
  6
CONTINUOUS
 62
     4
 10
26514.78193881737
 20
6242.0026620000026
 30
0.0
 11
27724.604337111748
 21
6242.0026619999999
 31
0.0
  0
LINE
  5
12148
  8
SUNPOU
  6
CONTINUOUS
 62
     4
 10
26554.78193881737
 20
8262.0026620000026
 30
0.0
 11
27724.604337111759
 21
8262.0026620000026
 31
0.0
  0
LINE
  5
12149
  8
SUNPOU
  6
CONTINUOUS
 62
     4
 10
27644.604337111748
 20
6242.0026619999999
 30
0.0
 11
27644.604337111759
 21
8262.0026620000026
 31
0.0
  0
LINE
  5
1214A
  8
0-6
  6
CONTINUOUS
 62
     6
 10
26280.29702918122
 20
19102.390205253349
 30
0.0
 11
26386.625053129199
 21
19224.886437000001
 31
0.0
  0
LINE
  5
1214B
  8
0-6
  6
CONTINUOUS
 62
     6
 10
26386.625053129199
 20
19224.886437000001
 30
0.0
 11
26325.772933535922
 21
19074.52513032455
 31
0.0
  0
LINE
  5
1214C
  8
0-6
  6
CONTINUOUS
 62
     6
 10
26325.772933535922
 20
19074.52513032455
 30
0.0
 11
26280.29702918122
 21
19102.390205253349
 31
0.0
  0
LINE
  5
1214D
  8
0-6
  6
CONTINUOUS
 62
     6
 10
26308.481374687199
 20
19518.20376193268
 30
0.0
 11
26377.525053129171
 21
19371.42520104588
 31
0.0
  0
LINE
  5
1214E
  8
0-6
  6
CONTINUOUS
 62
     6
 10
26377.525053129171
 20
19371.42520104588
 30
0.0
 11
26264.608052950021
 21
19487.87799867084
 31
0.0
  0
LINE
  5
1214F
  8
0-6
  6
CONTINUOUS
 62
     6
 10
26264.608052950021
 20
19487.87799867084
 30
0.0
 11
26308.481374687199
 21
19518.20376193268
 31
0.0
  0
LINE
  5
12150
  8
0-6
  6
CONTINUOUS
 62
     6
 10
26280.29702918122
 20
16935.08277374665
 30
0.0
 11
26386.625053129199
 21
16812.586542000001
 31
0.0
  0
LINE
  5
12151
  8
0-6
  6
CONTINUOUS
 62
     6
 10
26386.625053129199
 20
16812.586542000001
 30
0.0
 11
26325.772933535922
 21
16962.947848675441
 31
0.0
  0
LINE
  5
12152
  8
0-6
  6
CONTINUOUS
 62
     6
 10
26325.772933535922
 20
16962.947848675441
 30
0.0
 11
26280.29702918122
 21
16935.08277374665
 31
0.0
  0
LINE
  5
12153
  8
0-6
  6
CONTINUOUS
 62
     6
 10
26280.29702918122
 20
14378.08320974665
 30
0.0
 11
26386.625053129199
 21
14255.586977999999
 31
0.0
  0
LINE
  5
12154
  8
0-6
  6
CONTINUOUS
 62
     6
 10
26386.625053129199
 20
14255.586977999999
 30
0.0
 11
26325.772933535922
 21
14405.948284675451
 31
0.0
  0
LINE
  5
12155
  8
0-6
  6
CONTINUOUS
 62
     6
 10
26325.772933535922
 20
14405.948284675451
 30
0.0
 11
26280.29702918122
 21
14378.08320974665
 31
0.0
  0
LINE
  5
12156
  8
0-6
  6
CONTINUOUS
 62
     6
 10
26308.481374687199
 20
16519.2692170673
 30
0.0
 11
26377.525053129171
 21
16666.047777954122
 31
0.0
  0
LINE
  5
12157
  8
0-6
  6
CONTINUOUS
 62
     6
 10
26377.525053129171
 20
16666.047777954122
 30
0.0
 11
26264.608052950021
 21
16549.594980329151
 31
0.0
  0
LINE
  5
12158
  8
0-6
  6
CONTINUOUS
 62
     6
 10
26264.608052950021
 20
16549.594980329151
 30
0.0
 11
26308.481374687199
 21
16519.2692170673
 31
0.0
  0
LINE
  5
12159
  8
0-6
  6
CONTINUOUS
 62
     6
 10
26308.481374687199
 20
13982.208417113179
 30
0.0
 11
26377.525053129171
 21
14128.986978000001
 31
0.0
  0
LINE
  5
1215A
  8
0-6
  6
CONTINUOUS
 62
     6
 10
26377.525053129171
 20
14128.986978000001
 30
0.0
 11
26264.608052950021
 21
14012.53418037502
 31
0.0
  0
LINE
  5
1215B
  8
0-6
  6
CONTINUOUS
 62
     6
 10
26264.608052950021
 20
14012.53418037502
 30
0.0
 11
26308.481374687199
 21
13982.208417113179
 31
0.0
  0
LINE
  5
12197
  8
SUNPOU
  6
CONTINUOUS
 62
     4
 10
23613.283799817342
 20
20560.487902000001
 30
0.0
 11
26413.283799817349
 21
20560.487902000001
 31
0.0
  0
LINE
  5
12198
  8
SUNPOU
  6
CONTINUOUS
 62
     4
 10
20695.283799817349
 20
20560.487902000001
 30
0.0
 11
23613.283799817342
 21
20560.487902000001
 31
0.0
  0
LINE
  5
12199
  8
SUNPOU
  6
CONTINUOUS
 62
     4
 10
26413.283799817349
 20
19684.936751877329
 30
0.0
 11
26413.283799817349
 21
20240.487902000001
 31
0.0
  0
LINE
  5
1219A
  8
SUNPOU
  6
CONTINUOUS
 62
     4
 10
26370.78155681735
 20
19523.837242000001
 30
0.0
 11
26370.78155681735
 21
20240.487902000001
 31
0.0
  0
LINE
  5
1219B
  8
SUNPOU
  6
CONTINUOUS
 62
     4
 10
26413.283799817349
 20
20160.487902000001
 30
0.0
 11
26653.283799817349
 21
20160.487902000001
 31
0.0
  0
LINE
  5
1219C
  8
SUNPOU
  6
CONTINUOUS
 62
     4
 10
26370.78155681735
 20
20160.487902000001
 30
0.0
 11
26130.78155681735
 21
20160.487902000001
 31
0.0
  0
LINE
  5
1219D
  8
SUNPOU
  6
CONTINUOUS
 62
     4
 10
26413.283799817349
 20
20160.487902000001
 30
0.0
 11
26370.78155681735
 21
20160.487902000001
 31
0.0
  0
LINE
  5
1219E
  8
SUNPOU
  6
CONTINUOUS
 62
     4
 10
26413.283799817349
 20
19684.936751877329
 30
0.0
 11
26413.283799817349
 21
20240.487902000001
 31
0.0
  0
LINE
  5
1219F
  8
SUNPOU
  6
CONTINUOUS
 62
     4
 10
26455.78208481734
 20
19520.489484999991
 30
0.0
 11
26455.78208481734
 21
20240.487902000001
 31
0.0
  0
LINE
  5
121A0
  8
SUNPOU
  6
CONTINUOUS
 62
     4
 10
26413.283799817349
 20
20160.487902000001
 30
0.0
 11
26173.283799817349
 21
20160.487902000001
 31
0.0
  0
LINE
  5
121A1
  8
SUNPOU
  6
CONTINUOUS
 62
     4
 10
26455.78208481734
 20
20160.487902000001
 30
0.0
 11
26695.78208481734
 21
20160.487902000001
 31
0.0
  0
LINE
  5
121A2
  8
SUNPOU
  6
CONTINUOUS
 62
     4
 10
26413.283799817349
 20
20160.487902000001
 30
0.0
 11
26455.78208481734
 21
20160.487902000001
 31
0.0
  0
LINE
  5
121A3
  8
SUNPOU
  6
CONTINUOUS
 62
     4
 10
26797.888635769279
 20
16750.486978000001
 30
0.0
 11
27711.127424185968
 21
16750.486978000001
 31
0.0
  0
LINE
  5
121A4
  8
SUNPOU
  6
CONTINUOUS
 62
     4
 10
26797.888635769279
 20
19317.986978000001
 30
0.0
 11
27711.127424185968
 21
19317.986978000001
 31
0.0
  0
LINE
  5
121A5
  8
SUNPOU
  6
CONTINUOUS
 62
     4
 10
27631.127424185968
 20
16750.486978000001
 30
0.0
 11
27631.127424185968
 21
19317.986978000001
 31
0.0
  0
LINE
  5
121A6
  8
SUNPOU
  6
CONTINUOUS
 62
     4
 10
26797.888635769279
 20
14182.986978000001
 30
0.0
 11
27711.127424185968
 21
14182.986978000001
 31
0.0
  0
LINE
  5
121A7
  8
SUNPOU
  6
CONTINUOUS
 62
     4
 10
26797.888635769279
 20
16750.486978000001
 30
0.0
 11
27711.127424185968
 21
16750.486978000001
 31
0.0
  0
LINE
  5
121A8
  8
SUNPOU
  6
CONTINUOUS
 62
     4
 10
27631.127424185968
 20
14182.986978000001
 30
0.0
 11
27631.127424185968
 21
16750.486978000001
 31
0.0
  0
ARC
  5
121C0
  8
1-前柱P
 10
26422.883799817359
 20
14251.38697800001
 30
0.0
 40
1.0
 50
90.0
 51
180.0
  0
LINE
  5
121C1
  8
1-前柱P
 10
26421.883799817351
 20
14251.38697800001
 30
0.0
 11
26421.883799817351
 21
14249.786978
 31
0.0
  0
LINE
  5
121C2
  8
1-前柱P
 10
26421.883799817351
 20
14249.786978
 30
0.0
 11
26410.683799817361
 21
14249.786978
 31
0.0
  0
LINE
  5
121C3
  8
1-前柱P
 10
26410.683799817361
 20
14249.786978
 30
0.0
 11
26410.68379981734
 21
14251.38697800001
 31
0.0
  0
ARC
  5
121C4
  8
1-前柱P
 10
26409.68379981734
 20
14251.38697800001
 30
0.0
 40
1.0
 50
0.0
 51
90.0
  0
ARC
  5
121C5
  8
1-中柱P
 10
26406.683799817329
 20
16818.786978000011
 30
0.0
 40
1.0
 50
0.0
 51
90.0
  0
LINE
  5
121C6
  8
1-中柱P
 10
26407.68379981734
 20
16818.786978000011
 30
0.0
 11
26407.68379981734
 21
16817.186978000002
 31
0.0
  0
LINE
  5
121C7
  8
1-中柱P
 10
26407.68379981734
 20
16817.186978000002
 30
0.0
 11
26418.88379981734
 21
16817.186978000002
 31
0.0
  0
LINE
  5
121C8
  8
1-中柱P
 10
26418.88379981734
 20
16817.186978000002
 30
0.0
 11
26418.88379981734
 21
16818.786978000011
 31
0.0
  0
ARC
  5
121C9
  8
1-中柱P
 10
26419.88379981734
 20
16818.786978000011
 30
0.0
 40
1.0
 50
90.0
 51
180.0
  0
ARC
  5
121CA
  8
1-後柱P
 10
26403.683799817351
 20
19249.936978000002
 30
0.0
 40
1.0
 50
270.0
 51
0.0
  0
LINE
  5
121CB
  8
1-後柱P
 10
26404.683799817361
 20
19249.936978000002
 30
0.0
 11
26404.683799817361
 21
19251.536978
 31
0.0
  0
LINE
  5
121CC
  8
1-後柱P
 10
26404.683799817361
 20
19251.536978
 30
0.0
 11
26415.883799817351
 21
19251.536978
 31
0.0
  0
LINE
  5
121CD
  8
1-後柱P
 10
26415.883799817351
 20
19251.536978
 30
0.0
 11
26415.883799817351
 21
19249.936978000002
 31
0.0
  0
ARC
  5
121CE
  8
1-後柱P
 10
26416.883799817359
 20
19249.936978000002
 30
0.0
 40
1.0
 50
180.0
 51
270.0
  0
LINE
  5
121CF
  8
SUNPOU
  6
CONTINUOUS
 62
     4
 10
7227.0054167031494
 20
8478.188374000003
 30
0.0
 11
7227.0054167031494
 21
9869.1883999999955
 31
0.0
  0
LINE
  5
121D0
  8
SUNPOU
  6
CONTINUOUS
 62
     4
 10
12777.005416703139
 20
8610.0781974124311
 30
0.0
 11
12777.005416703139
 21
9869.1883999999955
 31
0.0
  0
LINE
  5
121D1
  8
SUNPOU
  6
CONTINUOUS
 62
     4
 10
7227.0054167031494
 20
9789.1883999999955
 30
0.0
 11
12777.005416703139
 21
9789.1883999999955
 31
0.0
  0
LINE
  5
121D2
  8
SUNPOU
  6
CONTINUOUS
 62
     4
 10
12627.005416703139
 20
8536.0984379999973
 30
0.0
 11
12627.005416703139
 21
9469.1900500000029
 31
0.0
  0
LINE
  5
121D3
  8
SUNPOU
  6
CONTINUOUS
 62
     4
 10
12777.005416703139
 20
8610.0781974124311
 30
0.0
 11
12777.005416703139
 21
9469.1900500000029
 31
0.0
  0
LINE
  5
121D4
  8
SUNPOU
  6
CONTINUOUS
 62
     4
 10
12627.005416703139
 20
9389.1900500000029
 30
0.0
 11
12387.005416703139
 21
9389.1900500000029
 31
0.0
  0
LINE
  5
121D5
  8
SUNPOU
  6
CONTINUOUS
 62
     4
 10
12777.005416703139
 20
9389.1900500000029
 30
0.0
 11
13017.005416703139
 21
9389.1900500000029
 31
0.0
  0
LINE
  5
121D6
  8
SUNPOU
  6
CONTINUOUS
 62
     4
 10
12627.005416703139
 20
9389.1900500000029
 30
0.0
 11
12777.005416703139
 21
9389.1900500000029
 31
0.0
  0
LINE
  5
121D7
  8
SUNPOU
  6
CONTINUOUS
 62
     4
 10
7407.0054167031503
 20
8348.3741496838102
 30
0.0
 11
7407.0054167031503
 21
9469.1900500000029
 31
0.0
  0
LINE
  5
121D8
  8
SUNPOU
  6
CONTINUOUS
 62
     4
 10
12627.005416703139
 20
8536.0984379999973
 30
0.0
 11
12627.005416703139
 21
9469.1900500000029
 31
0.0
  0
LINE
  5
121D9
  8
SUNPOU
  6
CONTINUOUS
 62
     4
 10
7407.0054167031503
 20
9389.1900500000029
 30
0.0
 11
12627.005416703139
 21
9389.1900500000029
 31
0.0
  0
LINE
  5
121DA
  8
SUNPOU
  6
CONTINUOUS
 62
     4
 10
7227.0054167031494
 20
8478.188374000003
 30
0.0
 11
7227.0054167031494
 21
9469.1900500000029
 31
0.0
  0
LINE
  5
121DB
  8
SUNPOU
  6
CONTINUOUS
 62
     4
 10
7407.0054167031503
 20
8348.3741496838102
 30
0.0
 11
7407.0054167031503
 21
9469.1900500000029
 31
0.0
  0
LINE
  5
121DC
  8
SUNPOU
  6
CONTINUOUS
 62
     4
 10
7227.0054167031494
 20
9389.1900500000029
 30
0.0
 11
7407.0054167031503
 21
9389.1900500000029
 31
0.0
  0
LINE
  5
121DD
  8
SUNPOU
  6
CONTINUOUS
 62
     4
 10
12719.505416703139
 20
6241.1883740000021
 30
0.0
 11
13797.00581270315
 21
6241.1883740000021
 31
0.0
  0
LINE
  5
121DE
  8
SUNPOU
  6
CONTINUOUS
 62
     4
 10
12811.812676302519
 20
8590.188374000003
 30
0.0
 11
13797.00581270315
 21
8590.188374000003
 31
0.0
  0
LINE
  5
121DF
  8
SUNPOU
  6
CONTINUOUS
 62
     4
 10
13717.00581270315
 20
6241.1883740000021
 30
0.0
 11
13717.00581270315
 21
8590.188374000003
 31
0.0
  0
LINE
  5
121E0
  8
SUNPOU
  6
CONTINUOUS
 62
     4
 10
7319.505416703144
 20
6241.1883740000021
 30
0.0
 11
6237.00502070316
 21
6241.1883740000021
 31
0.0
  0
LINE
  5
121E1
  8
SUNPOU
  6
CONTINUOUS
 62
     4
 10
7147.0054167031494
 20
8396.688374000003
 30
0.0
 11
6237.00502070316
 21
8396.688374000003
 31
0.0
  0
LINE
  5
121E2
  8
SUNPOU
  6
CONTINUOUS
 62
     4
 10
6317.00502070316
 20
6241.1883740000021
 30
0.0
 11
6317.00502070316
 21
8396.688374000003
 31
0.0
  0
LINE
  5
121E3
  8
SUNPOU
  6
CONTINUOUS
 62
     4
 10
7407.0054167031503
 20
6161.1883740000021
 30
0.0
 11
7407.0054167031503
 21
4461.1887039999992
 31
0.0
  0
LINE
  5
121E4
  8
SUNPOU
  6
CONTINUOUS
 62
     4
 10
12627.005416703139
 20
6161.1883740000021
 30
0.0
 11
12627.005416703139
 21
4461.1887039999992
 31
0.0
  0
LINE
  5
121E5
  8
SUNPOU
  6
CONTINUOUS
 62
     4
 10
7407.0054167031503
 20
4541.1887039999983
 30
0.0
 11
12627.005416703139
 21
4541.1887039999983
 31
0.0
  0
LINE
  5
121E6
  8
SUNPOU
  6
CONTINUOUS
 62
     4
 10
12584.505416703139
 20
5798.5361160000011
 30
0.0
 11
12584.505416703139
 21
4861.1885389999998
 31
0.0
  0
LINE
  5
121E7
  8
SUNPOU
  6
CONTINUOUS
 62
     4
 10
12627.005416703139
 20
6161.1883740000021
 30
0.0
 11
12627.005416703139
 21
4861.1885389999998
 31
0.0
  0
LINE
  5
121E8
  8
SUNPOU
  6
CONTINUOUS
 62
     4
 10
12584.505416703139
 20
4941.1885390000016
 30
0.0
 11
12344.505416703139
 21
4941.1885390000016
 31
0.0
  0
LINE
  5
121E9
  8
SUNPOU
  6
CONTINUOUS
 62
     4
 10
12627.005416703139
 20
4941.1885390000016
 30
0.0
 11
12867.00541670315
 21
4941.1885390000016
 31
0.0
  0
LINE
  5
121EA
  8
SUNPOU
  6
CONTINUOUS
 62
     4
 10
12584.505416703139
 20
4941.1885390000016
 30
0.0
 11
12627.005416703139
 21
4941.1885390000016
 31
0.0
  0
LINE
  5
121EB
  8
SUNPOU
  6
CONTINUOUS
 62
     4
 10
7449.5054167031458
 20
5798.5361160000011
 30
0.0
 11
7449.5054167031458
 21
4861.1885389999998
 31
0.0
  0
LINE
  5
121EC
  8
SUNPOU
  6
CONTINUOUS
 62
     4
 10
7407.0054167031503
 20
6161.1883740000021
 30
0.0
 11
7407.0054167031503
 21
4861.1885389999998
 31
0.0
  0
LINE
  5
121ED
  8
SUNPOU
  6
CONTINUOUS
 62
     4
 10
7449.5054167031458
 20
4941.1885390000016
 30
0.0
 11
7689.5054167031476
 21
4941.1885390000016
 31
0.0
  0
LINE
  5
121EE
  8
SUNPOU
  6
CONTINUOUS
 62
     4
 10
7407.0054167031503
 20
4941.1885390000016
 30
0.0
 11
7167.0054167031476
 21
4941.1885390000016
 31
0.0
  0
LINE
  5
121EF
  8
SUNPOU
  6
CONTINUOUS
 62
     4
 10
7449.5054167031458
 20
4941.1885390000016
 30
0.0
 11
7407.0054167031503
 21
4941.1885390000016
 31
0.0
  0
LINE
  5
121F0
  8
SUNPOU
  6
CONTINUOUS
 62
     4
 10
10017.005416703139
 20
5798.5361160000011
 30
0.0
 11
10017.005416703139
 21
4861.1885389999998
 31
0.0
  0
LINE
  5
121F1
  8
SUNPOU
  6
CONTINUOUS
 62
     4
 10
7449.5054167031458
 20
5798.5361160000011
 30
0.0
 11
7449.5054167031458
 21
4861.1885389999998
 31
0.0
  0
LINE
  5
121F2
  8
SUNPOU
  6
CONTINUOUS
 62
     4
 10
10017.005416703139
 20
4941.1885390000016
 30
0.0
 11
7449.5054167031458
 21
4941.1885390000016
 31
0.0
  0
LINE
  5
121F3
  8
SUNPOU
  6
CONTINUOUS
 62
     4
 10
10017.005416703139
 20
5798.5361160000011
 30
0.0
 11
10017.005416703139
 21
4861.1885389999998
 31
0.0
  0
LINE
  5
121F4
  8
SUNPOU
  6
CONTINUOUS
 62
     4
 10
12584.505416703139
 20
5798.5361160000011
 30
0.0
 11
12584.505416703139
 21
4861.1885389999998
 31
0.0
  0
LINE
  5
121F5
  8
SUNPOU
  6
CONTINUOUS
 62
     4
 10
10017.005416703139
 20
4941.1885390000016
 30
0.0
 11
12584.505416703139
 21
4941.1885390000016
 31
0.0
  0
LINE
  5
121F6
  8
SUNPOU
  6
CONTINUOUS
 62
     4
 10
7387.5628415859464
 20
13969.98643699999
 30
0.0
 11
6540.563065585955
 21
13969.98643699999
 31
0.0
  0
LINE
  5
121F7
  8
SUNPOU
  6
CONTINUOUS
 62
     4
 10
6620.563065585955
 20
14162.48571100001
 30
0.0
 11
6620.563065585955
 21
13969.98643699999
 31
0.0
  0
LINE
  5
121F8
  8
SUNPOU
  6
CONTINUOUS
 62
     4
 10
6620.5630655859559
 20
16729.985711000001
 30
0.0
 11
6620.563065585955
 21
14162.48571100001
 31
0.0
  0
LINE
  5
121F9
  8
SUNPOU
  6
CONTINUOUS
 62
     4
 10
6620.5630655859559
 20
19297.485711000001
 30
0.0
 11
6620.5630655859559
 21
16729.985711000001
 31
0.0
  0
LINE
  5
121FA
  8
SUNPOU
  6
CONTINUOUS
 62
     4
 10
6540.563065585955
 20
19297.485711000001
 30
0.0
 11
6580.5630655859568
 21
19297.485711000001
 31
0.0
  0
LINE
  5
121FB
  8
SUNPOU
  6
CONTINUOUS
 62
     4
 10
7392.5621155859462
 20
19519.985579
 30
0.0
 11
6580.5630655859568
 21
19519.985579
 31
0.0
  0
LINE
  5
121FC
  8
SUNPOU
  6
CONTINUOUS
 62
     4
 10
6620.5630655859559
 20
19297.485711000001
 30
0.0
 11
6620.5630655859559
 21
19519.985579
 31
0.0
  0
LINE
  5
121FD
  8
SUNPOU
  6
CONTINUOUS
 62
     4
 10
7461.0629605859549
 20
19509.98900999999
 30
0.0
 11
6940.5624065859547
 21
19509.98900999999
 31
0.0
  0
LINE
  5
121FE
  8
SUNPOU
  6
CONTINUOUS
 62
     4
 10
7392.5621155859462
 20
19519.985579
 30
0.0
 11
6940.5624065859547
 21
19519.985579
 31
0.0
  0
LINE
  5
121FF
  8
SUNPOU
  6
CONTINUOUS
 62
     4
 10
7020.5624065859547
 20
19509.98900999999
 30
0.0
 11
7020.5624065859547
 21
19269.98900999999
 31
0.0
  0
LINE
  5
12200
  8
SUNPOU
  6
CONTINUOUS
 62
     4
 10
7020.5624065859547
 20
19519.985579
 30
0.0
 11
7020.5624065859547
 21
19759.985579
 31
0.0
  0
LINE
  5
12201
  8
SUNPOU
  6
CONTINUOUS
 62
     4
 10
7020.5624065859547
 20
19509.98900999999
 30
0.0
 11
7020.5624065859547
 21
19519.985579
 31
0.0
  0
LINE
  5
12202
  8
SUNPOU
  6
CONTINUOUS
 62
     4
 10
13268.06284158595
 20
20144.987624000001
 30
0.0
 11
13268.06284158595
 21
20219.986634999979
 31
0.0
  0
LINE
  5
12203
  8
SUNPOU
  6
CONTINUOUS
 62
     4
 10
13353.562841585939
 20
19594.987293999991
 30
0.0
 11
13353.562841585939
 21
20219.986634999979
 31
0.0
  0
LINE
  5
12204
  8
SUNPOU
  6
CONTINUOUS
 62
     4
 10
13268.06284158595
 20
20139.986634999979
 30
0.0
 11
13028.06284158595
 21
20139.986634999979
 31
0.0
  0
LINE
  5
12205
  8
SUNPOU
  6
CONTINUOUS
 62
     4
 10
13350.562841585939
 20
20139.986634999979
 30
0.0
 11
13590.562841585939
 21
20139.986634999979
 31
0.0
  0
LINE
  5
12206
  8
SUNPOU
  6
CONTINUOUS
 62
     4
 10
13268.06284158595
 20
20139.986634999979
 30
0.0
 11
13350.562841585939
 21
20139.986634999979
 31
0.0
  0
LINE
  5
12207
  8
SUNPOU
  6
CONTINUOUS
 62
     4
 10
10468.06284158595
 20
20144.987624000001
 30
0.0
 11
10468.06284158595
 21
20219.986634999979
 31
0.0
  0
LINE
  5
12208
  8
SUNPOU
  6
CONTINUOUS
 62
     4
 10
13268.06284158595
 20
20144.987624000001
 30
0.0
 11
13268.06284158595
 21
20219.986634999979
 31
0.0
  0
LINE
  5
12209
  8
SUNPOU
  6
CONTINUOUS
 62
     4
 10
10468.06284158595
 20
20139.986634999979
 30
0.0
 11
13268.06284158595
 21
20139.986634999979
 31
0.0
  0
LINE
  5
1220A
  8
SUNPOU
  6
CONTINUOUS
 62
     4
 10
7550.0628415859483
 20
19669.987293999991
 30
0.0
 11
7550.0628415859483
 21
20219.986634999979
 31
0.0
  0
LINE
  5
1220B
  8
SUNPOU
  6
CONTINUOUS
 62
     4
 10
10468.06284158595
 20
20144.987624000001
 30
0.0
 11
10468.06284158595
 21
20219.986634999979
 31
0.0
  0
LINE
  5
1220C
  8
SUNPOU
  6
CONTINUOUS
 62
     4
 10
7550.0628415859483
 20
20139.986634999979
 30
0.0
 11
10468.06284158595
 21
20139.986634999979
 31
0.0
  0
LINE
  5
1220D
  8
SUNPOU
  6
CONTINUOUS
 62
     4
 10
7550.0628415859483
 20
19669.987293999991
 30
0.0
 11
7550.0628415859483
 21
20219.986634999979
 31
0.0
  0
LINE
  5
1220E
  8
SUNPOU
  6
CONTINUOUS
 62
     4
 10
7464.5628415859464
 20
19589.987031000001
 30
0.0
 11
7464.5628415859464
 21
20219.986634999979
 31
0.0
  0
LINE
  5
1220F
  8
SUNPOU
  6
CONTINUOUS
 62
     4
 10
7550.0628415859483
 20
20139.986634999979
 30
0.0
 11
7790.0628415859474
 21
20139.986634999979
 31
0.0
  0
LINE
  5
12210
  8
SUNPOU
  6
CONTINUOUS
 62
     4
 10
7467.5628415859464
 20
20139.986634999979
 30
0.0
 11
7227.5628415859474
 21
20139.986634999979
 31
0.0
  0
LINE
  5
12211
  8
SUNPOU
  6
CONTINUOUS
 62
     4
 10
7550.0628415859483
 20
20139.986634999979
 30
0.0
 11
7467.5628415859464
 21
20139.986634999979
 31
0.0
  0
LINE
  5
12212
  8
SUNPOU
  6
CONTINUOUS
 62
     4
 10
7464.5628415859464
 20
13889.98643699999
 30
0.0
 11
7464.5628415859464
 21
12599.98564499999
 31
0.0
  0
LINE
  5
12213
  8
SUNPOU
  6
CONTINUOUS
 62
     4
 10
13353.562841585939
 20
13889.98643699999
 30
0.0
 11
13353.562841585939
 21
12599.98564499999
 31
0.0
  0
LINE
  5
12214
  8
SUNPOU
  6
CONTINUOUS
 62
     4
 10
7467.5628415859464
 20
12679.985644999981
 30
0.0
 11
13350.562841585939
 21
12679.985644999981
 31
0.0
  0
LINE
  5
12215
  8
0-6
  6
CONTINUOUS
 62
     6
 10
11196.40296821055
 20
16533.767321090651
 30
0.0
 11
11137.652969581821
 21
16684.985315999991
 31
0.0
  0
LINE
  5
12216
  8
0-6
  6
CONTINUOUS
 62
     6
 10
11137.652969581821
 20
16684.985315999991
 30
0.0
 11
11242.26396126866
 21
16560.989409851562
 31
0.0
  0
LINE
  5
12217
  8
0-6
  6
CONTINUOUS
 62
     6
 10
11242.26396126866
 20
16560.989409851562
 30
0.0
 11
11196.40296821055
 21
16533.767321090651
 31
0.0
  0
LINE
  5
12218
  8
0-6
  6
CONTINUOUS
 62
     6
 10
12335.37837352225
 20
14767.333840389319
 30
0.0
 11
12455.23310042877
 21
14876.66493734456
 31
0.0
  0
LINE
  5
12219
  8
0-6
  6
CONTINUOUS
 62
     6
 10
12455.23310042877
 20
14876.66493734456
 30
0.0
 11
12377.30770239199
 21
14734.376228502
 31
0.0
  0
LINE
  5
1221A
  8
0-6
  6
CONTINUOUS
 62
     6
 10
12377.30770239199
 20
14734.376228502
 30
0.0
 11
12335.37837352225
 21
14767.333840389319
 31
0.0
  0
LINE
  5
1221B
  8
0-6
  6
CONTINUOUS
 62
     6
 10
9508.1955620798144
 20
16944.10254427827
 30
0.0
 11
9539.835208448565
 21
16784.988192000001
 31
0.0
  0
LINE
  5
1221C
  8
0-6
  6
CONTINUOUS
 62
     6
 10
9539.835208448565
 20
16784.988192000001
 30
0.0
 11
9458.3090825462023
 21
16925.24486784335
 31
0.0
  0
LINE
  5
1221D
  8
0-6
  6
CONTINUOUS
 62
     6
 10
9458.3090825462023
 20
16925.24486784335
 30
0.0
 11
9508.1955620798144
 21
16944.10254427827
 31
0.0
  0
LINE
  5
1221E
  8
0-6
  6
CONTINUOUS
 62
     6
 10
13183.467781304291
 20
14379.147086051271
 30
0.0
 11
13215.06321058596
 21
14538.24675392431
 31
0.0
  0
LINE
  5
1221F
  8
0-6
  6
CONTINUOUS
 62
     6
 10
13215.06321058596
 20
14538.24675392431
 30
0.0
 11
13133.57442381464
 21
14397.99312425762
 31
0.0
  0
LINE
  5
12220
  8
0-6
  6
CONTINUOUS
 62
     6
 10
13133.57442381464
 20
14397.99312425762
 30
0.0
 11
13183.467781304291
 21
14379.147086051271
 31
0.0
  0
TEXT
  5
12221
  8
0
  6
CONTINUOUS
 62
     7
 10
9641.0628415859483
 20
12759.985644999981
 30
0.0
 40
160.0
  1
ケラバ外寸5889
  0
TEXT
  5
12222
  8
0
  6
CONTINUOUS
 62
     7
 10
6974.9156975859587
 20
20219.984918999991
 30
0.0
 40
160.0
  1
85.5
  0
TEXT
  5
12223
  8
0
  6
CONTINUOUS
 62
     7
 10
8742.3961749192804
 20
20219.986634999979
 30
0.0
 40
160.0
  1
2918
  0
TEXT
  5
12224
  8
0
  6
CONTINUOUS
 62
     7
 10
11601.39617491928
 20
20219.986634999979
 30
0.0
 40
160.0
  1
2800
  0
TEXT
  5
12225
  8
0
  6
CONTINUOUS
 62
     7
 10
13414.410629585949
 20
20219.984918999991
 30
0.0
 40
160.0
  1
85.5
  0
TEXT
  5
12226
  8
0
  6
CONTINUOUS
 62
     7
 10
6940.5631315859582
 20
19691.414439666671
 30
0.0
 40
160.0
  1
10
 50
90.0
  0
TEXT
  5
12227
  8
0
  6
CONTINUOUS
 62
     7
 10
6540.563065585955
 20
19598.467233389241
 30
0.0
 40
160.0
  1
222.5
 50
90.0
  0
TEXT
  5
12228
  8
0
  6
CONTINUOUS
 62
     7
 10
6540.563065585955
 20
17613.735711000001
 30
0.0
 40
160.0
  1
2567.5
 50
90.0
  0
TEXT
  5
12229
  8
0
  6
CONTINUOUS
 62
     7
 10
6540.563065585955
 20
15046.23571099999
 30
0.0
 40
160.0
  1
2567.5
 50
90.0
  0
TEXT
  5
1222A
  8
0
  6
CONTINUOUS
 62
     7
 10
6540.5630655859413
 20
13305.99680859056
 30
0.0
 40
160.0
  1
192.5
 50
90.0
  0
TEXT
  5
1222B
  8
0
  6
CONTINUOUS
 62
     7
 10
10900.755416703139
 20
5021.1885389999998
 30
0.0
 40
160.0
  1
2567.5
  0
TEXT
  5
1222C
  8
0
  6
CONTINUOUS
 62
     7
 10
8333.2554167031485
 20
5021.1885389999998
 30
0.0
 40
160.0
  1
2567.5
  0
TEXT
  5
1222D
  8
0
  6
CONTINUOUS
 62
     7
 10
6825.0158027031566
 20
5022.1790570000003
 30
0.0
 40
160.0
  1
42.5
  0
TEXT
  5
1222E
  8
0
  6
CONTINUOUS
 62
     7
 10
12747.00706670314
 20
5021.1883080000007
 30
0.0
 40
160.0
  1
42.5
  0
TEXT
  5
1222F
  8
0
  6
CONTINUOUS
 62
     7
 10
9737.0054167031485
 20
4621.1887039999983
 30
0.0
 40
160.0
  1
5220
  0
TEXT
  5
12230
  8
0
  6
CONTINUOUS
 62
     7
 10
6237.0050207031582
 20
6326.9383740000048
 30
0.0
 40
160.0
  1
2155.5（2395.5）
 50
90.0
  0
TEXT
  5
12231
  8
0
  6
CONTINUOUS
 62
     7
 10
13637.00581270315
 20
6610.3550406666718
 30
0.0
 40
160.0
  1
2349（2589）
 50
90.0
  0
TEXT
  5
12232
  8
0
  6
CONTINUOUS
 62
     7
 10
6772.6636015680506
 20
9469.1900500000029
 30
0.0
 40
160.0
  1
180
  0
TEXT
  5
12233
  8
0
  6
CONTINUOUS
 62
     7
 10
9737.0054167031485
 20
9469.1900500000029
 30
0.0
 40
160.0
  1
5220
  0
TEXT
  5
12234
  8
0
  6
CONTINUOUS
 62
     7
 10
12843.6720833698
 20
9469.1900500000029
 30
0.0
 40
160.0
  1
150
  0
TEXT
  5
12235
  8
0
  6
CONTINUOUS
 62
     7
 10
9722.0054167031485
 20
9869.1883999999955
 30
0.0
 40
160.0
  1
5550
  0
TEXT
  5
1223B
  8
0
  6
CONTINUOUS
 62
     7
 10
27551.127424185968
 20
15066.73697800001
 30
0.0
 40
160.0
  1
2567.5
 50
90.0
  0
TEXT
  5
1223C
  8
0
  6
CONTINUOUS
 62
     7
 10
27551.127424185968
 20
17634.236978000012
 30
0.0
 40
160.0
  1
2567.5
 50
90.0
  0
TEXT
  5
1223D
  8
0
  6
CONTINUOUS
 62
     7
 10
26554.205727817331
 20
20240.486185999991
 30
0.0
 40
160.0
  1
42.5
  0
TEXT
  5
1223E
  8
0
  6
CONTINUOUS
 62
     7
 10
25876.109760817359
 20
20259.830042000001
 30
0.0
 40
160.0
  1
42.5
  0
TEXT
  5
1223F
  8
0
  6
CONTINUOUS
 62
     7
 10
21887.617133150681
 20
20640.487902000001
 30
0.0
 40
160.0
  1
2918
  0
TEXT
  5
12240
  8
0
  6
CONTINUOUS
 62
     7
 10
24746.61713315067
 20
20640.487902000001
 30
0.0
 40
160.0
  1
2800
  0
TEXT
  5
12252
  8
0
  6
CONTINUOUS
 62
     7
 10
27564.604337111748
 20
6589.0026620000071
 30
0.0
 40
160.0
  1
有効高サ2020
 50
90.0
  0
TEXT
  5
12253
  8
0
  6
CONTINUOUS
 62
     7
 10
24768.11527215071
 20
9469.1900500000029
 30
0.0
 40
160.0
  1
2800
  0
TEXT
  5
12254
  8
0
  6
CONTINUOUS
 62
     7
 10
24725.615272150699
 20
5021.1885389999998
 30
0.0
 40
160.0
  1
2800
  0
TEXT
  5
12255
  8
0
  6
CONTINUOUS
 62
     7
 10
26554.782598817372
 20
5021.1883080000007
 30
0.0
 40
160.0
  1
42.5
  0
TEXT
  5
12256
  8
0
  6
CONTINUOUS
 62
     7
 10
21373.281938817359
 20
5421.188374000003
 30
0.0
 40
160.0
  1
有効開口巾2730
  0
TEXT
  5
12257
  8
0
  6
CONTINUOUS
 62
     7
 10
21866.61527215071
 20
5021.1885389999998
 30
0.0
 40
160.0
  1
2918
  0
TEXT
  5
12258
  8
0
  6
CONTINUOUS
 62
     7
 10
20051.958907817389
 20
5028.7357170000014
 30
0.0
 40
160.0
  1
42.5
  0
TEXT
  5
12259
  8
0
  6
CONTINUOUS
 62
     7
 10
23253.30191529114
 20
4621.1887040000584
 30
0.0
 40
160.0
  1
5803
  0
TEXT
  5
1225A
  8
0
  6
CONTINUOUS
 62
     7
 10
24247.115272150699
 20
5421.188374000003
 30
0.0
 40
160.0
  1
有効開口巾2712
  0
TEXT
  5
1225B
  8
0
  6
CONTINUOUS
 62
     7
 10
19744.278639817381
 20
6264.2717073333397
 30
0.0
 40
160.0
  1
有効開口高サ1891.5
 50
90.0
  0
TEXT
  5
1225C
  8
0
  6
CONTINUOUS
 62
     7
 10
19344.279299817372
 20
6610.3550536666698
 30
0.0
 40
160.0
  1
2349（2589）
 50
90.0
  0
TEXT
  5
1225D
  8
0
  6
CONTINUOUS
 62
     7
 10
21866.61527215071
 20
9469.1900500000029
 30
0.0
 40
160.0
  1
3003
  0
TEXT
  5
1225E
  8
0
  6
CONTINUOUS
 62
     7
 10
20261.97395281736
 20
9469.1893240000027
 30
0.0
 40
160.0
  1
43
  0
TEXT
  5
1225F
  8
0
  6
CONTINUOUS
 62
     7
 10
26612.247758817401
 20
9469.1893240000027
 30
0.0
 40
160.0
  1
43
  0
TEXT
  5
12260
  8
0
  6
CONTINUOUS
 62
     7
 10
23239.948605484031
 20
9869.1329740000037
 30
0.0
 40
160.0
  1
5889
  0
ARC
  5
12261
  8
0
  6
BYBLOCK
 62
     0
 10
20588.781938817359
 20
9789.1329740000037
 30
0.0
 40
15.0
 50
0.0
 51
180.0
  0
ARC
  5
12262
  8
0
  6
BYBLOCK
 62
     0
 10
20588.781938817359
 20
9789.1329740000037
 30
0.0
 40
15.0
 50
180.0
 51
0.0
  0
ARC
  5
12263
  8
0
  6
BYBLOCK
 62
     0
 10
26477.78193881737
 20
9789.1329740000037
 30
0.0
 40
15.0
 50
180.0
 51
0.0
  0
ARC
  5
12264
  8
0
  6
BYBLOCK
 62
     0
 10
26477.78193881737
 20
9789.1329740000037
 30
0.0
 40
15.0
 50
0.0
 51
180.0
  0
ARC
  5
12265
  8
0
  6
BYBLOCK
 62
     0
 10
26434.78193881737
 20
9389.1900500000029
 30
0.0
 40
15.0
 50
180.0
 51
0.0
  0
ARC
  5
12266
  8
0
  6
BYBLOCK
 62
     0
 10
26434.78193881737
 20
9389.1900500000029
 30
0.0
 40
15.0
 50
0.0
 51
180.0
  0
ARC
  5
12267
  8
0
  6
BYBLOCK
 62
     0
 10
26477.78193881737
 20
9389.1900500000029
 30
0.0
 40
15.0
 50
0.0
 51
180.0
  0
ARC
  5
12268
  8
0
  6
BYBLOCK
 62
     0
 10
26477.78193881737
 20
9389.1900500000029
 30
0.0
 40
15.0
 50
180.0
 51
0.0
  0
ARC
  5
12269
  8
0
  6
BYBLOCK
 62
     0
 10
20631.781938817359
 20
9389.1900500000029
 30
0.0
 40
15.0
 50
0.0
 51
180.0
  0
ARC
  5
1226A
  8
0
  6
BYBLOCK
 62
     0
 10
20631.781938817359
 20
9389.1900500000029
 30
0.0
 40
15.0
 50
180.0
 51
0.0
  0
ARC
  5
1226B
  8
0
  6
BYBLOCK
 62
     0
 10
20588.781938817359
 20
9389.1900500000029
 30
0.0
 40
15.0
 50
180.0
 51
0.0
  0
ARC
  5
1226C
  8
0
  6
BYBLOCK
 62
     0
 10
20588.781938817359
 20
9389.1900500000029
 30
0.0
 40
15.0
 50
0.0
 51
180.0
  0
ARC
  5
1226D
  8
0
  6
BYBLOCK
 62
     0
 10
23634.78193881737
 20
9389.1900500000029
 30
0.0
 40
15.0
 50
180.0
 51
0.0
  0
ARC
  5
1226E
  8
0
  6
BYBLOCK
 62
     0
 10
23634.78193881737
 20
9389.1900500000029
 30
0.0
 40
15.0
 50
0.0
 51
180.0
  0
ARC
  5
1226F
  8
0
  6
BYBLOCK
 62
     0
 10
20631.781938817359
 20
9389.1900500000029
 30
0.0
 40
15.0
 50
0.0
 51
180.0
  0
ARC
  5
12270
  8
0
  6
BYBLOCK
 62
     0
 10
20631.781938817359
 20
9389.1900500000029
 30
0.0
 40
15.0
 50
180.0
 51
0.0
  0
ARC
  5
12271
  8
0
  6
BYBLOCK
 62
     0
 10
19424.279299817372
 20
6241.1883740000021
 30
0.0
 40
15.0
 50
90.0
 51
270.0
  0
ARC
  5
12272
  8
0
  6
BYBLOCK
 62
     0
 10
19424.279299817372
 20
6241.1883740000021
 30
0.0
 40
15.0
 50
270.0
 51
90.0
  0
ARC
  5
12273
  8
0
  6
BYBLOCK
 62
     0
 10
19424.279299817372
 20
8590.1883999999973
 30
0.0
 40
15.0
 50
270.0
 51
90.0
  0
ARC
  5
12274
  8
0
  6
BYBLOCK
 62
     0
 10
19424.279299817372
 20
8590.1883999999973
 30
0.0
 40
15.0
 50
90.0
 51
270.0
  0
ARC
  5
12275
  8
0
  6
BYBLOCK
 62
     0
 10
19824.278639817381
 20
6241.1883740000021
 30
0.0
 40
15.0
 50
90.0
 51
270.0
  0
ARC
  5
12276
  8
0
  6
BYBLOCK
 62
     0
 10
19824.278639817381
 20
6241.1883740000021
 30
0.0
 40
15.0
 50
270.0
 51
90.0
  0
ARC
  5
12277
  8
0
  6
BYBLOCK
 62
     0
 10
19824.278639817381
 20
8132.6883740000021
 30
0.0
 40
15.0
 50
270.0
 51
90.0
  0
ARC
  5
12278
  8
0
  6
BYBLOCK
 62
     0
 10
19824.278639817381
 20
8132.6883740000021
 30
0.0
 40
15.0
 50
90.0
 51
270.0
  0
ARC
  5
12279
  8
0
  6
BYBLOCK
 62
     0
 10
23637.78193881737
 20
5341.188374000003
 30
0.0
 40
15.0
 50
0.0
 51
180.0
  0
ARC
  5
1227A
  8
0
  6
BYBLOCK
 62
     0
 10
23637.78193881737
 20
5341.188374000003
 30
0.0
 40
15.0
 50
180.0
 51
0.0
  0
ARC
  5
1227B
  8
0
  6
BYBLOCK
 62
     0
 10
26349.781938817381
 20
5341.188374000003
 30
0.0
 40
15.0
 50
180.0
 51
0.0
  0
ARC
  5
1227C
  8
0
  6
BYBLOCK
 62
     0
 10
26349.781938817381
 20
5341.188374000003
 30
0.0
 40
15.0
 50
0.0
 51
180.0
  0
ARC
  5
1227D
  8
0
  6
BYBLOCK
 62
     0
 10
20631.82189176491
 20
4541.1887040000556
 30
0.0
 40
15.0
 50
0.0
 51
180.0
  0
ARC
  5
1227E
  8
0
  6
BYBLOCK
 62
     0
 10
20631.82189176491
 20
4541.1887040000556
 30
0.0
 40
15.0
 50
180.0
 51
0.0
  0
ARC
  5
1227F
  8
0
  6
BYBLOCK
 62
     0
 10
26434.78193881737
 20
4541.1887040000556
 30
0.0
 40
15.0
 50
180.0
 51
0.0
  0
ARC
  5
12280
  8
0
  6
BYBLOCK
 62
     0
 10
26434.78193881737
 20
4541.1887040000556
 30
0.0
 40
15.0
 50
0.0
 51
180.0
  0
ARC
  5
12281
  8
0
  6
BYBLOCK
 62
     0
 10
20674.281938817359
 20
4941.1885390000016
 30
0.0
 40
15.0
 50
0.0
 51
180.0
  0
ARC
  5
12282
  8
0
  6
BYBLOCK
 62
     0
 10
20674.281938817359
 20
4941.1885390000016
 30
0.0
 40
15.0
 50
180.0
 51
0.0
  0
ARC
  5
12283
  8
0
  6
BYBLOCK
 62
     0
 10
20631.82189176491
 20
4941.1885390000016
 30
0.0
 40
15.0
 50
180.0
 51
0.0
  0
ARC
  5
12284
  8
0
  6
BYBLOCK
 62
     0
 10
20631.82189176491
 20
4941.1885390000016
 30
0.0
 40
15.0
 50
0.0
 51
180.0
  0
ARC
  5
12285
  8
0
  6
BYBLOCK
 62
     0
 10
23592.28193881737
 20
4941.1885390000016
 30
0.0
 40
15.0
 50
180.0
 51
0.0
  0
ARC
  5
12286
  8
0
  6
BYBLOCK
 62
     0
 10
23592.28193881737
 20
4941.1885390000016
 30
0.0
 40
15.0
 50
0.0
 51
180.0
  0
ARC
  5
12287
  8
0
  6
BYBLOCK
 62
     0
 10
20674.281938817359
 20
4941.1885390000016
 30
0.0
 40
15.0
 50
0.0
 51
180.0
  0
ARC
  5
12288
  8
0
  6
BYBLOCK
 62
     0
 10
20674.281938817359
 20
4941.1885390000016
 30
0.0
 40
15.0
 50
180.0
 51
0.0
  0
ARC
  5
12289
  8
0
  6
BYBLOCK
 62
     0
 10
20768.281938817359
 20
5341.188374000003
 30
0.0
 40
15.0
 50
0.0
 51
180.0
  0
ARC
  5
1228A
  8
0
  6
BYBLOCK
 62
     0
 10
20768.281938817359
 20
5341.188374000003
 30
0.0
 40
15.0
 50
180.0
 51
0.0
  0
ARC
  5
1228B
  8
0
  6
BYBLOCK
 62
     0
 10
23498.281938817359
 20
5341.188374000003
 30
0.0
 40
15.0
 50
180.0
 51
0.0
  0
ARC
  5
1228C
  8
0
  6
BYBLOCK
 62
     0
 10
23498.281938817359
 20
5341.188374000003
 30
0.0
 40
15.0
 50
0.0
 51
180.0
  0
ARC
  5
1228D
  8
0
  6
BYBLOCK
 62
     0
 10
26392.28193881737
 20
4941.1885390000016
 30
0.0
 40
15.0
 50
180.0
 51
0.0
  0
ARC
  5
1228E
  8
0
  6
BYBLOCK
 62
     0
 10
26392.28193881737
 20
4941.1885390000016
 30
0.0
 40
15.0
 50
0.0
 51
180.0
  0
ARC
  5
1228F
  8
0
  6
BYBLOCK
 62
     0
 10
26434.78193881737
 20
4941.1885390000016
 30
0.0
 40
15.0
 50
0.0
 51
180.0
  0
ARC
  5
12290
  8
0
  6
BYBLOCK
 62
     0
 10
26434.78193881737
 20
4941.1885390000016
 30
0.0
 40
15.0
 50
180.0
 51
0.0
  0
ARC
  5
12291
  8
0
  6
BYBLOCK
 62
     0
 10
23592.28193881737
 20
4941.1885390000016
 30
0.0
 40
15.0
 50
0.0
 51
180.0
  0
ARC
  5
12292
  8
0
  6
BYBLOCK
 62
     0
 10
23592.28193881737
 20
4941.1885390000016
 30
0.0
 40
15.0
 50
180.0
 51
0.0
  0
ARC
  5
12293
  8
0
  6
BYBLOCK
 62
     0
 10
26392.28193881737
 20
4941.1885390000016
 30
0.0
 40
15.0
 50
180.0
 51
0.0
  0
ARC
  5
12294
  8
0
  6
BYBLOCK
 62
     0
 10
26392.28193881737
 20
4941.1885390000016
 30
0.0
 40
15.0
 50
0.0
 51
180.0
  0
ARC
  5
12295
  8
0
  6
BYBLOCK
 62
     0
 10
23634.78193881737
 20
9389.1900500000029
 30
0.0
 40
15.0
 50
0.0
 51
180.0
  0
ARC
  5
12296
  8
0
  6
BYBLOCK
 62
     0
 10
23634.78193881737
 20
9389.1900500000029
 30
0.0
 40
15.0
 50
180.0
 51
0.0
  0
ARC
  5
12297
  8
0
  6
BYBLOCK
 62
     0
 10
26434.78193881737
 20
9389.1900500000029
 30
0.0
 40
15.0
 50
180.0
 51
0.0
  0
ARC
  5
12298
  8
0
  6
BYBLOCK
 62
     0
 10
26434.78193881737
 20
9389.1900500000029
 30
0.0
 40
15.0
 50
0.0
 51
180.0
  0
ARC
  5
12299
  8
0
  6
BYBLOCK
 62
     0
 10
27644.604337111748
 20
6242.0026619999999
 30
0.0
 40
15.0
 50
90.0
 51
270.0
  0
ARC
  5
1229A
  8
0
  6
BYBLOCK
 62
     0
 10
27644.604337111748
 20
6242.0026619999999
 30
0.0
 40
15.0
 50
270.0
 51
90.0
  0
ARC
  5
1229B
  8
0
  6
BYBLOCK
 62
     0
 10
27644.604337111759
 20
8262.0026620000026
 30
0.0
 40
15.0
 50
270.0
 51
90.0
  0
ARC
  5
1229C
  8
0
  6
BYBLOCK
 62
     0
 10
27644.604337111759
 20
8262.0026620000026
 30
0.0
 40
15.0
 50
90.0
 51
270.0
  0
ARC
  5
122E1
  8
0
  6
BYBLOCK
 62
     0
 10
23613.283799817342
 20
20560.487902000001
 30
0.0
 40
15.0
 50
0.0
 51
180.0
  0
ARC
  5
122E2
  8
0
  6
BYBLOCK
 62
     0
 10
23613.283799817342
 20
20560.487902000001
 30
0.0
 40
15.0
 50
180.0
 51
0.0
  0
ARC
  5
122E3
  8
0
  6
BYBLOCK
 62
     0
 10
26413.283799817349
 20
20560.487902000001
 30
0.0
 40
15.0
 50
180.0
 51
0.0
  0
ARC
  5
122E4
  8
0
  6
BYBLOCK
 62
     0
 10
26413.283799817349
 20
20560.487902000001
 30
0.0
 40
15.0
 50
0.0
 51
180.0
  0
ARC
  5
122E5
  8
0
  6
BYBLOCK
 62
     0
 10
20695.283799817349
 20
20560.487902000001
 30
0.0
 40
15.0
 50
0.0
 51
180.0
  0
ARC
  5
122E6
  8
0
  6
BYBLOCK
 62
     0
 10
20695.283799817349
 20
20560.487902000001
 30
0.0
 40
15.0
 50
180.0
 51
0.0
  0
ARC
  5
122E7
  8
0
  6
BYBLOCK
 62
     0
 10
23613.283799817342
 20
20560.487902000001
 30
0.0
 40
15.0
 50
180.0
 51
0.0
  0
ARC
  5
122E8
  8
0
  6
BYBLOCK
 62
     0
 10
23613.283799817342
 20
20560.487902000001
 30
0.0
 40
15.0
 50
0.0
 51
180.0
  0
ARC
  5
122E9
  8
0
  6
BYBLOCK
 62
     0
 10
26413.283799817349
 20
20160.487902000001
 30
0.0
 40
15.0
 50
0.0
 51
180.0
  0
ARC
  5
122EA
  8
0
  6
BYBLOCK
 62
     0
 10
26413.283799817349
 20
20160.487902000001
 30
0.0
 40
15.0
 50
180.0
 51
0.0
  0
ARC
  5
122EB
  8
0
  6
BYBLOCK
 62
     0
 10
26370.78155681735
 20
20160.487902000001
 30
0.0
 40
15.0
 50
180.0
 51
0.0
  0
ARC
  5
122EC
  8
0
  6
BYBLOCK
 62
     0
 10
26370.78155681735
 20
20160.487902000001
 30
0.0
 40
15.0
 50
0.0
 51
180.0
  0
ARC
  5
122ED
  8
0
  6
BYBLOCK
 62
     0
 10
26413.283799817349
 20
20160.487902000001
 30
0.0
 40
15.0
 50
180.0
 51
0.0
  0
ARC
  5
122EE
  8
0
  6
BYBLOCK
 62
     0
 10
26413.283799817349
 20
20160.487902000001
 30
0.0
 40
15.0
 50
0.0
 51
180.0
  0
ARC
  5
122EF
  8
0
  6
BYBLOCK
 62
     0
 10
26455.78208481734
 20
20160.487902000001
 30
0.0
 40
15.0
 50
0.0
 51
180.0
  0
ARC
  5
122F0
  8
0
  6
BYBLOCK
 62
     0
 10
26455.78208481734
 20
20160.487902000001
 30
0.0
 40
15.0
 50
180.0
 51
0.0
  0
ARC
  5
122F1
  8
0
  6
BYBLOCK
 62
     0
 10
27631.127424185968
 20
16750.486978000001
 30
0.0
 40
15.0
 50
90.0
 51
270.0
  0
ARC
  5
122F2
  8
0
  6
BYBLOCK
 62
     0
 10
27631.127424185968
 20
16750.486978000001
 30
0.0
 40
15.0
 50
270.0
 51
90.0
  0
ARC
  5
122F3
  8
0
  6
BYBLOCK
 62
     0
 10
27631.127424185968
 20
19317.986978000001
 30
0.0
 40
15.0
 50
270.0
 51
90.0
  0
ARC
  5
122F4
  8
0
  6
BYBLOCK
 62
     0
 10
27631.127424185968
 20
19317.986978000001
 30
0.0
 40
15.0
 50
90.0
 51
270.0
  0
ARC
  5
122F5
  8
0
  6
BYBLOCK
 62
     0
 10
27631.127424185968
 20
14182.986978000001
 30
0.0
 40
15.0
 50
90.0
 51
270.0
  0
ARC
  5
122F6
  8
0
  6
BYBLOCK
 62
     0
 10
27631.127424185968
 20
14182.986978000001
 30
0.0
 40
15.0
 50
270.0
 51
90.0
  0
ARC
  5
122F7
  8
0
  6
BYBLOCK
 62
     0
 10
27631.127424185968
 20
16750.486978000001
 30
0.0
 40
15.0
 50
270.0
 51
90.0
  0
ARC
  5
122F8
  8
0
  6
BYBLOCK
 62
     0
 10
27631.127424185968
 20
16750.486978000001
 30
0.0
 40
15.0
 50
90.0
 51
270.0
  0
ARC
  5
1230D
  8
0
  6
BYBLOCK
 62
     0
 10
7227.0054167031494
 20
9789.1883999999955
 30
0.0
 40
15.0
 50
0.0
 51
180.0
  0
ARC
  5
1230E
  8
0
  6
BYBLOCK
 62
     0
 10
7227.0054167031494
 20
9789.1883999999955
 30
0.0
 40
15.0
 50
180.0
 51
0.0
  0
ARC
  5
1230F
  8
0
  6
BYBLOCK
 62
     0
 10
12777.005416703139
 20
9789.1883999999955
 30
0.0
 40
15.0
 50
180.0
 51
0.0
  0
ARC
  5
12310
  8
0
  6
BYBLOCK
 62
     0
 10
12777.005416703139
 20
9789.1883999999955
 30
0.0
 40
15.0
 50
0.0
 51
180.0
  0
ARC
  5
12311
  8
0
  6
BYBLOCK
 62
     0
 10
12627.005416703139
 20
9389.1900500000029
 30
0.0
 40
15.0
 50
180.0
 51
0.0
  0
ARC
  5
12312
  8
0
  6
BYBLOCK
 62
     0
 10
12627.005416703139
 20
9389.1900500000029
 30
0.0
 40
15.0
 50
0.0
 51
180.0
  0
ARC
  5
12313
  8
0
  6
BYBLOCK
 62
     0
 10
12777.005416703139
 20
9389.1900500000029
 30
0.0
 40
15.0
 50
0.0
 51
180.0
  0
ARC
  5
12314
  8
0
  6
BYBLOCK
 62
     0
 10
12777.005416703139
 20
9389.1900500000029
 30
0.0
 40
15.0
 50
180.0
 51
0.0
  0
ARC
  5
12315
  8
0
  6
BYBLOCK
 62
     0
 10
7407.0054167031503
 20
9389.1900500000029
 30
0.0
 40
15.0
 50
0.0
 51
180.0
  0
ARC
  5
12316
  8
0
  6
BYBLOCK
 62
     0
 10
7407.0054167031503
 20
9389.1900500000029
 30
0.0
 40
15.0
 50
180.0
 51
0.0
  0
ARC
  5
12317
  8
0
  6
BYBLOCK
 62
     0
 10
12627.005416703139
 20
9389.1900500000029
 30
0.0
 40
15.0
 50
180.0
 51
0.0
  0
ARC
  5
12318
  8
0
  6
BYBLOCK
 62
     0
 10
12627.005416703139
 20
9389.1900500000029
 30
0.0
 40
15.0
 50
0.0
 51
180.0
  0
ARC
  5
12319
  8
0
  6
BYBLOCK
 62
     0
 10
7227.0054167031494
 20
9389.1900500000029
 30
0.0
 40
15.0
 50
180.0
 51
0.0
  0
ARC
  5
1231A
  8
0
  6
BYBLOCK
 62
     0
 10
7227.0054167031494
 20
9389.1900500000029
 30
0.0
 40
15.0
 50
0.0
 51
180.0
  0
ARC
  5
1231B
  8
0
  6
BYBLOCK
 62
     0
 10
7407.0054167031503
 20
9389.1900500000029
 30
0.0
 40
15.0
 50
180.0
 51
0.0
  0
ARC
  5
1231C
  8
0
  6
BYBLOCK
 62
     0
 10
7407.0054167031503
 20
9389.1900500000029
 30
0.0
 40
15.0
 50
0.0
 51
180.0
  0
ARC
  5
1231D
  8
0
  6
BYBLOCK
 62
     0
 10
13717.00581270315
 20
6241.1883740000021
 30
0.0
 40
15.0
 50
90.0
 51
270.0
  0
ARC
  5
1231E
  8
0
  6
BYBLOCK
 62
     0
 10
13717.00581270315
 20
6241.1883740000021
 30
0.0
 40
15.0
 50
270.0
 51
90.0
  0
ARC
  5
1231F
  8
0
  6
BYBLOCK
 62
     0
 10
13717.00581270315
 20
8590.188374000003
 30
0.0
 40
15.0
 50
270.0
 51
90.0
  0
ARC
  5
12320
  8
0
  6
BYBLOCK
 62
     0
 10
13717.00581270315
 20
8590.188374000003
 30
0.0
 40
15.0
 50
90.0
 51
270.0
  0
ARC
  5
12321
  8
0
  6
BYBLOCK
 62
     0
 10
6317.00502070316
 20
6241.1883740000021
 30
0.0
 40
15.0
 50
90.0
 51
270.0
  0
ARC
  5
12322
  8
0
  6
BYBLOCK
 62
     0
 10
6317.00502070316
 20
6241.1883740000021
 30
0.0
 40
15.0
 50
270.0
 51
90.0
  0
ARC
  5
12323
  8
0
  6
BYBLOCK
 62
     0
 10
6317.00502070316
 20
8396.688374000003
 30
0.0
 40
15.0
 50
270.0
 51
90.0
  0
ARC
  5
12324
  8
0
  6
BYBLOCK
 62
     0
 10
6317.00502070316
 20
8396.688374000003
 30
0.0
 40
15.0
 50
90.0
 51
270.0
  0
ARC
  5
12325
  8
0
  6
BYBLOCK
 62
     0
 10
7407.0054167031503
 20
4541.1887039999983
 30
0.0
 40
15.0
 50
0.0
 51
180.0
  0
ARC
  5
12326
  8
0
  6
BYBLOCK
 62
     0
 10
7407.0054167031503
 20
4541.1887039999983
 30
0.0
 40
15.0
 50
180.0
 51
0.0
  0
ARC
  5
12327
  8
0
  6
BYBLOCK
 62
     0
 10
12627.005416703139
 20
4541.1887039999983
 30
0.0
 40
15.0
 50
180.0
 51
0.0
  0
ARC
  5
12328
  8
0
  6
BYBLOCK
 62
     0
 10
12627.005416703139
 20
4541.1887039999983
 30
0.0
 40
15.0
 50
0.0
 51
180.0
  0
ARC
  5
12329
  8
0
  6
BYBLOCK
 62
     0
 10
12584.505416703139
 20
4941.1885390000016
 30
0.0
 40
15.0
 50
180.0
 51
0.0
  0
ARC
  5
1232A
  8
0
  6
BYBLOCK
 62
     0
 10
12584.505416703139
 20
4941.1885390000016
 30
0.0
 40
15.0
 50
0.0
 51
180.0
  0
ARC
  5
1232B
  8
0
  6
BYBLOCK
 62
     0
 10
12627.005416703139
 20
4941.1885390000016
 30
0.0
 40
15.0
 50
0.0
 51
180.0
  0
ARC
  5
1232C
  8
0
  6
BYBLOCK
 62
     0
 10
12627.005416703139
 20
4941.1885390000016
 30
0.0
 40
15.0
 50
180.0
 51
0.0
  0
ARC
  5
1232D
  8
0
  6
BYBLOCK
 62
     0
 10
7449.5054167031458
 20
4941.1885390000016
 30
0.0
 40
15.0
 50
0.0
 51
180.0
  0
ARC
  5
1232E
  8
0
  6
BYBLOCK
 62
     0
 10
7449.5054167031458
 20
4941.1885390000016
 30
0.0
 40
15.0
 50
180.0
 51
0.0
  0
ARC
  5
1232F
  8
0
  6
BYBLOCK
 62
     0
 10
7407.0054167031503
 20
4941.1885390000016
 30
0.0
 40
15.0
 50
180.0
 51
0.0
  0
ARC
  5
12330
  8
0
  6
BYBLOCK
 62
     0
 10
7407.0054167031503
 20
4941.1885390000016
 30
0.0
 40
15.0
 50
0.0
 51
180.0
  0
ARC
  5
12331
  8
0
  6
BYBLOCK
 62
     0
 10
10017.005416703139
 20
4941.1885390000016
 30
0.0
 40
15.0
 50
180.0
 51
0.0
  0
ARC
  5
12332
  8
0
  6
BYBLOCK
 62
     0
 10
10017.005416703139
 20
4941.1885390000016
 30
0.0
 40
15.0
 50
0.0
 51
180.0
  0
ARC
  5
12333
  8
0
  6
BYBLOCK
 62
     0
 10
7449.5054167031458
 20
4941.1885390000016
 30
0.0
 40
15.0
 50
0.0
 51
180.0
  0
ARC
  5
12334
  8
0
  6
BYBLOCK
 62
     0
 10
7449.5054167031458
 20
4941.1885390000016
 30
0.0
 40
15.0
 50
180.0
 51
0.0
  0
ARC
  5
12335
  8
0
  6
BYBLOCK
 62
     0
 10
10017.005416703139
 20
4941.1885390000016
 30
0.0
 40
15.0
 50
0.0
 51
180.0
  0
ARC
  5
12336
  8
0
  6
BYBLOCK
 62
     0
 10
10017.005416703139
 20
4941.1885390000016
 30
0.0
 40
15.0
 50
180.0
 51
0.0
  0
ARC
  5
12337
  8
0
  6
BYBLOCK
 62
     0
 10
12584.505416703139
 20
4941.1885390000016
 30
0.0
 40
15.0
 50
180.0
 51
0.0
  0
ARC
  5
12338
  8
0
  6
BYBLOCK
 62
     0
 10
12584.505416703139
 20
4941.1885390000016
 30
0.0
 40
15.0
 50
0.0
 51
180.0
  0
ARC
  5
12339
  8
0
  6
BYBLOCK
 62
     0
 10
6620.563065585955
 20
14162.48571100001
 30
0.0
 40
15.0
 50
270.0
 51
90.0
  0
ARC
  5
1233A
  8
0
  6
BYBLOCK
 62
     0
 10
6620.563065585955
 20
14162.48571100001
 30
0.0
 40
15.0
 50
90.0
 51
270.0
  0
ARC
  5
1233B
  8
0
  6
BYBLOCK
 62
     0
 10
6620.563065585955
 20
13969.98643699999
 30
0.0
 40
15.0
 50
90.0
 51
270.0
  0
ARC
  5
1233C
  8
0
  6
BYBLOCK
 62
     0
 10
6620.563065585955
 20
13969.98643699999
 30
0.0
 40
15.0
 50
270.0
 51
90.0
  0
ARC
  5
1233D
  8
0
  6
BYBLOCK
 62
     0
 10
6620.5630655859559
 20
16729.985711000001
 30
0.0
 40
15.0
 50
270.0
 51
90.0
  0
ARC
  5
1233E
  8
0
  6
BYBLOCK
 62
     0
 10
6620.5630655859559
 20
16729.985711000001
 30
0.0
 40
15.0
 50
90.0
 51
270.0
  0
ARC
  5
1233F
  8
0
  6
BYBLOCK
 62
     0
 10
6620.563065585955
 20
14162.48571100001
 30
0.0
 40
15.0
 50
90.0
 51
270.0
  0
ARC
  5
12340
  8
0
  6
BYBLOCK
 62
     0
 10
6620.563065585955
 20
14162.48571100001
 30
0.0
 40
15.0
 50
270.0
 51
90.0
  0
ARC
  5
12341
  8
0
  6
BYBLOCK
 62
     0
 10
6620.5630655859559
 20
19297.485711000001
 30
0.0
 40
15.0
 50
270.0
 51
90.0
  0
ARC
  5
12342
  8
0
  6
BYBLOCK
 62
     0
 10
6620.5630655859559
 20
19297.485711000001
 30
0.0
 40
15.0
 50
90.0
 51
270.0
  0
ARC
  5
12343
  8
0
  6
BYBLOCK
 62
     0
 10
6620.5630655859559
 20
16729.985711000001
 30
0.0
 40
15.0
 50
90.0
 51
270.0
  0
ARC
  5
12344
  8
0
  6
BYBLOCK
 62
     0
 10
6620.5630655859559
 20
16729.985711000001
 30
0.0
 40
15.0
 50
270.0
 51
90.0
  0
ARC
  5
12345
  8
0
  6
BYBLOCK
 62
     0
 10
6620.5630655859559
 20
19297.485711000001
 30
0.0
 40
15.0
 50
90.0
 51
270.0
  0
ARC
  5
12346
  8
0
  6
BYBLOCK
 62
     0
 10
6620.5630655859559
 20
19297.485711000001
 30
0.0
 40
15.0
 50
270.0
 51
90.0
  0
ARC
  5
12347
  8
0
  6
BYBLOCK
 62
     0
 10
6620.5630655859559
 20
19519.985579
 30
0.0
 40
15.0
 50
270.0
 51
90.0
  0
ARC
  5
12348
  8
0
  6
BYBLOCK
 62
     0
 10
6620.5630655859559
 20
19519.985579
 30
0.0
 40
15.0
 50
90.0
 51
270.0
  0
ARC
  5
12349
  8
0
  6
BYBLOCK
 62
     0
 10
7020.5624065859547
 20
19509.98900999999
 30
0.0
 40
15.0
 50
270.0
 51
90.0
  0
ARC
  5
1234A
  8
0
  6
BYBLOCK
 62
     0
 10
7020.5624065859547
 20
19509.98900999999
 30
0.0
 40
15.0
 50
90.0
 51
270.0
  0
ARC
  5
1234B
  8
0
  6
BYBLOCK
 62
     0
 10
7020.5624065859547
 20
19519.985579
 30
0.0
 40
15.0
 50
90.0
 51
270.0
  0
ARC
  5
1234C
  8
0
  6
BYBLOCK
 62
     0
 10
7020.5624065859547
 20
19519.985579
 30
0.0
 40
15.0
 50
270.0
 51
90.0
  0
ARC
  5
1234D
  8
0
  6
BYBLOCK
 62
     0
 10
13268.06284158595
 20
20139.986634999979
 30
0.0
 40
15.0
 50
180.0
 51
0.0
  0
ARC
  5
1234E
  8
0
  6
BYBLOCK
 62
     0
 10
13268.06284158595
 20
20139.986634999979
 30
0.0
 40
15.0
 50
0.0
 51
180.0
  0
ARC
  5
1234F
  8
0
  6
BYBLOCK
 62
     0
 10
13353.562841585939
 20
20139.986634999979
 30
0.0
 40
15.0
 50
0.0
 51
180.0
  0
ARC
  5
12350
  8
0
  6
BYBLOCK
 62
     0
 10
13353.562841585939
 20
20139.986634999979
 30
0.0
 40
15.0
 50
180.0
 51
0.0
  0
ARC
  5
12351
  8
0
  6
BYBLOCK
 62
     0
 10
10468.06284158595
 20
20139.986634999979
 30
0.0
 40
15.0
 50
0.0
 51
180.0
  0
ARC
  5
12352
  8
0
  6
BYBLOCK
 62
     0
 10
10468.06284158595
 20
20139.986634999979
 30
0.0
 40
15.0
 50
180.0
 51
0.0
  0
ARC
  5
12353
  8
0
  6
BYBLOCK
 62
     0
 10
13268.06284158595
 20
20139.986634999979
 30
0.0
 40
15.0
 50
180.0
 51
0.0
  0
ARC
  5
12354
  8
0
  6
BYBLOCK
 62
     0
 10
13268.06284158595
 20
20139.986634999979
 30
0.0
 40
15.0
 50
0.0
 51
180.0
  0
ARC
  5
12355
  8
0
  6
BYBLOCK
 62
     0
 10
7550.0628415859483
 20
20139.986634999979
 30
0.0
 40
15.0
 50
0.0
 51
180.0
  0
ARC
  5
12356
  8
0
  6
BYBLOCK
 62
     0
 10
7550.0628415859483
 20
20139.986634999979
 30
0.0
 40
15.0
 50
180.0
 51
0.0
  0
ARC
  5
12357
  8
0
  6
BYBLOCK
 62
     0
 10
10468.06284158595
 20
20139.986634999979
 30
0.0
 40
15.0
 50
180.0
 51
0.0
  0
ARC
  5
12358
  8
0
  6
BYBLOCK
 62
     0
 10
10468.06284158595
 20
20139.986634999979
 30
0.0
 40
15.0
 50
0.0
 51
180.0
  0
ARC
  5
12359
  8
0
  6
BYBLOCK
 62
     0
 10
7550.0628415859483
 20
20139.986634999979
 30
0.0
 40
15.0
 50
0.0
 51
180.0
  0
ARC
  5
1235A
  8
0
  6
BYBLOCK
 62
     0
 10
7550.0628415859483
 20
20139.986634999979
 30
0.0
 40
15.0
 50
180.0
 51
0.0
  0
ARC
  5
1235B
  8
0
  6
BYBLOCK
 62
     0
 10
7464.5628415859464
 20
20139.986634999979
 30
0.0
 40
15.0
 50
180.0
 51
0.0
  0
ARC
  5
1235C
  8
0
  6
BYBLOCK
 62
     0
 10
7464.5628415859464
 20
20139.986634999979
 30
0.0
 40
15.0
 50
0.0
 51
180.0
  0
ARC
  5
1235D
  8
0
  6
BYBLOCK
 62
     0
 10
7464.5628415859464
 20
12679.985644999981
 30
0.0
 40
15.0
 50
0.0
 51
180.0
  0
ARC
  5
1235E
  8
0
  6
BYBLOCK
 62
     0
 10
7464.5628415859464
 20
12679.985644999981
 30
0.0
 40
15.0
 50
180.0
 51
0.0
  0
ARC
  5
1235F
  8
0
  6
BYBLOCK
 62
     0
 10
13353.562841585939
 20
12679.985644999981
 30
0.0
 40
15.0
 50
180.0
 51
0.0
  0
ARC
  5
12360
  8
0
  6
BYBLOCK
 62
     0
 10
13353.562841585939
 20
12679.985644999981
 30
0.0
 40
15.0
 50
0.0
 51
180.0
  0
TEXT
  5
12437
  8
NAME
 10
21595.82616625919
 20
1076.6369801169251
 30
0.0
 40
360.0
  1
VGC-3052（H）+VKC-2852（H）型-R（単棟）
 41
0.45
  0
TEXT
  5
12438
  8
NAME
 10
21933.552716389011
 20
1876.0
 30
0.0
 40
360.0
  1
ヨドガレージ ラヴィージュ
 41
0.75
  7
01
  0
LINE
  5
12439
  8
NAME
  6
CONTINUOUS
 10
26067.886878884299
 20
2236.0
 30
0.0
 11
26067.886878884299
 21
1876.0
 31
0.0
  0
LINE
  5
1243A
  8
NAME
  6
CONTINUOUS
 10
26167.886878884299
 20
2236.0
 30
0.0
 11
26167.886878884299
 21
1876.0
 31
0.0
  0
LINE
  5
1243B
  8
NAME
  6
CONTINUOUS
 10
26267.88687888431
 20
2236.0
 30
0.0
 11
26267.88687888431
 21
1876.0
 31
0.0
  0
LINE
  5
1243C
  8
NAME
  6
CONTINUOUS
 10
26007.886878884299
 20
2236.0
 30
0.0
 11
26327.886878884299
 21
2236.0
 31
0.0
  0
LINE
  5
1243D
  8
NAME
  6
CONTINUOUS
 10
26327.886878884299
 20
1876.0
 30
0.0
 11
26007.886878884299
 21
1876.0
 31
0.0
  0
LINE
  5
1247F
  8
2-0
  6
CENTER2
 62
     6
 10
23613.283799817349
 20
20960.489221
 30
0.0
 11
23613.283799817349
 21
13825.23309953157
 31
0.0
  0
LINE
  5
12482
  8
2-0
  6
CENTER2
 62
     6
 10
20695.283799817349
 20
20960.489221
 30
0.0
 11
20695.283799817349
 21
13825.23309953157
 31
0.0
  0
LINE
  5
12BF2
  8
2-0
  6
CONTINUOUS
 62
     6
 10
22378.44271581736
 20
13542.985855999999
 30
0.0
 11
21378.4493138174
 21
13542.985855999999
 31
0.0
  0
LINE
  5
12BF3
  8
2-0
  6
CONTINUOUS
 62
     6
 10
20910.508936817361
 20
14013.40656999999
 30
0.0
 11
21378.4493138174
 21
13542.985855999999
 31
0.0
  0
LINE
  5
12BF4
  8
2-0
  6
CONTINUOUS
 62
     6
 10
20949.149139817349
 20
16854.514217000011
 30
0.0
 11
21253.844557817371
 21
16958.167748000022
 31
0.0
  0
LINE
  5
12BF5
  8
2-0
  6
CONTINUOUS
 62
     6
 10
20794.12710081739
 20
16364.892173000009
 30
0.0
 11
21253.844557817371
 21
16120.978862000011
 31
0.0
  0
LINE
  5
12BF6
  8
2-0
  6
CONTINUOUS
 62
     6
 10
22173.847592817361
 20
16120.978862000011
 30
0.0
 11
21253.844557817371
 21
16120.978862000011
 31
0.0
  0
LINE
  5
12BF7
  8
2-0
  6
CONTINUOUS
 62
     6
 10
22453.838619817361
 20
16958.167748000022
 30
0.0
 11
21253.844557817371
 21
16958.167748000022
 31
0.0
  0
LINE
  5
12BF8
  8
2-0
  6
CONTINUOUS
 62
     6
 10
20877.949815817348
 20
14335.090215999981
 30
0.0
 11
21253.844557817371
 21
14516.034051000001
 31
0.0
  0
LINE
  5
12BF9
  8
2-0
  6
CONTINUOUS
 62
     6
 10
21773.846273817351
 20
14516.034051000001
 30
0.0
 11
21253.844557817371
 21
14516.034051000001
 31
0.0
  0
LINE
  5
12BFA
  8
2-0
  6
CONTINUOUS
 62
     4
 10
20695.28379981736
 20
19440.487506000001
 30
0.0
 11
20695.28379981736
 21
20170.484471000011
 31
0.0
  0
LINE
  5
12BFB
  8
2-0
  6
CONTINUOUS
 62
     3
 10
23625.784459817361
 20
19251.485051999989
 30
0.0
 11
23625.784459817361
 21
19245.489090000021
 31
0.0
  0
LINE
  5
12BFC
  8
2-0
  6
CONTINUOUS
 62
     3
 10
23625.784459817361
 20
19245.489090000021
 30
0.0
 11
23655.782083817361
 21
19245.489090000021
 31
0.0
  0
LINE
  5
12BFD
  8
2-0
  6
CONTINUOUS
 62
     3
 10
23655.782083817361
 20
19275.488694
 30
0.0
 11
23574.780183817329
 21
19275.488694
 31
0.0
  0
LINE
  5
12BFE
  8
2-0
  6
CONTINUOUS
 62
     3
 10
23625.784459817361
 20
19235.191633999992
 30
0.0
 11
23655.782083817361
 21
19235.191633999992
 31
0.0
  0
LINE
  5
12BFF
  8
2-0
  6
CONTINUOUS
 62
     3
 10
23625.784459817361
 20
19253.19337600001
 30
0.0
 11
23625.784459817361
 21
19235.191633999992
 31
0.0
  0
LINE
  5
12C00
  8
2-0
  6
CONTINUOUS
 62
     3
 10
23650.781819817352
 20
19253.19337600001
 30
0.0
 11
23625.784459817361
 21
19253.19337600001
 31
0.0
  0
LINE
  5
12C01
  8
2-0
  6
CONTINUOUS
 62
     3
 10
23650.781819817352
 20
19248.185194000002
 30
0.0
 11
23650.781819817352
 21
19253.19337600001
 31
0.0
  0
LINE
  5
12C02
  8
2-0
  6
CONTINUOUS
 62
     3
 10
23643.780262817349
 20
19248.185194000002
 30
0.0
 11
23650.781819817352
 21
19248.185194000002
 31
0.0
  0
LINE
  5
12C03
  8
2-0
  6
CONTINUOUS
 62
     3
 10
23543.483994817361
 20
19348.485421000001
 30
0.0
 11
23543.483994817361
 21
19355.49093700001
 31
0.0
  0
LINE
  5
12C04
  8
2-0
  6
CONTINUOUS
 62
     3
 10
23543.483994817361
 20
19355.49093700001
 30
0.0
 11
23548.484258817349
 21
19355.49093700001
 31
0.0
  0
LINE
  5
12C05
  8
2-0
  6
CONTINUOUS
 62
     3
 10
23548.484258817349
 20
19355.49093700001
 30
0.0
 11
23548.484258817349
 21
19330.4817
 31
0.0
  0
LINE
  5
12C06
  8
2-0
  6
CONTINUOUS
 62
     3
 10
23548.484258817349
 20
19330.4817
 30
0.0
 11
23530.48251681733
 21
19330.4817
 31
0.0
  0
LINE
  5
12C07
  8
2-0
  6
CONTINUOUS
 62
     3
 10
23530.48251681733
 20
19330.4817
 30
0.0
 11
23530.48251681733
 21
19360.48526300002
 31
0.0
  0
LINE
  5
12C08
  8
2-0
  6
CONTINUOUS
 62
     3
 10
23540.77997281736
 20
19360.48526300002
 30
0.0
 11
23655.782083817361
 21
19360.48526300002
 31
0.0
  0
LINE
  5
12C09
  8
2-0
  6
CONTINUOUS
 62
     3
 10
23540.77997281736
 20
19330.4817
 30
0.0
 11
23540.77997281736
 21
19360.48526300002
 31
0.0
  0
LINE
  5
12C0A
  8
2-0
  6
CONTINUOUS
 62
     3
 10
23546.781872817359
 20
19330.4817
 30
0.0
 11
23540.77997281736
 21
19330.4817
 31
0.0
  0
LINE
  5
12C0B
  8
2-0
  6
CONTINUOUS
 62
     3
 10
23643.780262817349
 20
18894.88837149995
 30
0.0
 11
23650.781819817352
 21
18894.88837149995
 31
0.0
  0
LINE
  5
12C0C
  8
2-0
  6
CONTINUOUS
 62
     3
 10
23650.781819817352
 20
18894.88837149995
 30
0.0
 11
23650.781819817352
 21
18899.888635499989
 31
0.0
  0
LINE
  5
12C0D
  8
2-0
  6
CONTINUOUS
 62
     3
 10
23650.781819817352
 20
18899.888635499989
 30
0.0
 11
23625.784459817361
 21
18899.888635499989
 31
0.0
  0
LINE
  5
12C0E
  8
2-0
  6
CONTINUOUS
 62
     3
 10
23625.784459817361
 20
18899.888635499989
 30
0.0
 11
23625.784459817361
 21
18881.892831500001
 31
0.0
  0
LINE
  5
12C0F
  8
2-0
  6
CONTINUOUS
 62
     3
 10
23625.784459817361
 20
18881.892831500001
 30
0.0
 11
23655.782083817361
 21
18881.892831500001
 31
0.0
  0
LINE
  5
12C10
  8
2-0
  6
CONTINUOUS
 62
     3
 10
23625.784459817361
 20
18897.98433849998
 30
0.0
 11
23625.784459817361
 21
18891.986397500001
 31
0.0
  0
LINE
  5
12C11
  8
2-0
  6
CONTINUOUS
 62
     3
 10
23625.784459817361
 20
18891.986397500001
 30
0.0
 11
23655.782083817361
 21
18891.986397500001
 31
0.0
  0
LINE
  5
12C12
  8
2-0
  6
CONTINUOUS
 62
     3
 10
23655.782083817361
 20
18891.986397500001
 30
0.0
 11
23655.782083817361
 21
18928.987558500001
 31
0.0
  0
LINE
  5
12C13
  8
2-0
  6
CONTINUOUS
 62
     3
 10
23625.784459817361
 20
18928.987558500001
 30
0.0
 11
23655.782083817361
 21
18928.987558500001
 31
0.0
  0
LINE
  5
12C14
  8
2-0
  6
CONTINUOUS
 62
     3
 10
23625.784459817361
 20
18922.98367849999
 30
0.0
 11
23625.784459817361
 21
18928.987558500001
 31
0.0
  0
LINE
  5
12C15
  8
2-0
  6
CONTINUOUS
 62
     3
 10
23625.784459817361
 20
18939.08310349999
 30
0.0
 11
23655.782083817361
 21
18939.08310349999
 31
0.0
  0
LINE
  5
12C16
  8
2-0
  6
CONTINUOUS
 62
     3
 10
23625.784459817361
 20
18921.081361500001
 30
0.0
 11
23625.784459817361
 21
18939.08310349999
 31
0.0
  0
LINE
  5
12C17
  8
2-0
  6
CONTINUOUS
 62
     3
 10
23650.781819817352
 20
18921.081361500001
 30
0.0
 11
23625.784459817361
 21
18921.081361500001
 31
0.0
  0
LINE
  5
12C18
  8
2-0
  6
CONTINUOUS
 62
     3
 10
23650.781819817352
 20
18926.081625499992
 30
0.0
 11
23650.781819817352
 21
18921.081361500001
 31
0.0
  0
LINE
  5
12C19
  8
2-0
  6
CONTINUOUS
 62
     3
 10
23643.780262817349
 20
18926.081625499992
 30
0.0
 11
23650.781819817352
 21
18926.081625499992
 31
0.0
  0
LINE
  5
12C1A
  8
2-0
  6
CONTINUOUS
 62
     3
 10
23643.780262817349
 20
18193.887382000001
 30
0.0
 11
23650.781819817352
 21
18193.887382000001
 31
0.0
  0
LINE
  5
12C1B
  8
2-0
  6
CONTINUOUS
 62
     3
 10
23650.781819817352
 20
18193.887382000001
 30
0.0
 11
23650.781819817352
 21
18198.89358399999
 31
0.0
  0
LINE
  5
12C1C
  8
2-0
  6
CONTINUOUS
 62
     3
 10
23650.781819817352
 20
18198.89358399999
 30
0.0
 11
23625.784459817361
 21
18198.89358399999
 31
0.0
  0
LINE
  5
12C1D
  8
2-0
  6
CONTINUOUS
 62
     3
 10
23625.784459817361
 20
18198.89358399999
 30
0.0
 11
23625.784459817361
 21
18180.89184199999
 31
0.0
  0
LINE
  5
12C1E
  8
2-0
  6
CONTINUOUS
 62
     3
 10
23625.784459817361
 20
18180.89184199999
 30
0.0
 11
23655.782083817361
 21
18180.89184199999
 31
0.0
  0
LINE
  5
12C1F
  8
2-0
  6
CONTINUOUS
 62
     3
 10
23625.784459817361
 20
18196.983348999991
 30
0.0
 11
23625.784459817361
 21
18190.98738699999
 31
0.0
  0
LINE
  5
12C20
  8
2-0
  6
CONTINUOUS
 62
     3
 10
23625.784459817361
 20
18190.98738699999
 30
0.0
 11
23655.782083817361
 21
18190.98738699999
 31
0.0
  0
LINE
  5
12C21
  8
2-0
  6
CONTINUOUS
 62
     3
 10
23655.782083817361
 20
18190.98738699999
 30
0.0
 11
23655.782083817361
 21
18227.986569000001
 31
0.0
  0
LINE
  5
12C22
  8
2-0
  6
CONTINUOUS
 62
     3
 10
23625.784459817361
 20
18227.986569000001
 30
0.0
 11
23655.782083817361
 21
18227.986569000001
 31
0.0
  0
LINE
  5
12C23
  8
2-0
  6
CONTINUOUS
 62
     3
 10
23625.784459817361
 20
18221.990607000011
 30
0.0
 11
23625.784459817361
 21
18227.986569000001
 31
0.0
  0
LINE
  5
12C24
  8
2-0
  6
CONTINUOUS
 62
     3
 10
23625.784459817361
 20
18238.082114000001
 30
0.0
 11
23655.782083817361
 21
18238.082114000001
 31
0.0
  0
LINE
  5
12C25
  8
2-0
  6
CONTINUOUS
 62
     3
 10
23625.784459817361
 20
18220.080372
 30
0.0
 11
23625.784459817361
 21
18238.082114000001
 31
0.0
  0
LINE
  5
12C26
  8
2-0
  6
CONTINUOUS
 62
     3
 10
23650.781819817352
 20
18220.080372
 30
0.0
 11
23625.784459817361
 21
18220.080372
 31
0.0
  0
LINE
  5
12C27
  8
2-0
  6
CONTINUOUS
 62
     3
 10
23650.781819817352
 20
18225.086573999979
 30
0.0
 11
23650.781819817352
 21
18220.080372
 31
0.0
  0
LINE
  5
12C28
  8
2-0
  6
CONTINUOUS
 62
     3
 10
23643.780262817349
 20
18225.086573999979
 30
0.0
 11
23650.781819817352
 21
18225.086573999979
 31
0.0
  0
LINE
  5
12C29
  8
2-0
  6
CONTINUOUS
 62
     3
 10
23643.780262817349
 20
17524.080635999999
 30
0.0
 11
23650.781819817352
 21
17524.080635999999
 31
0.0
  0
LINE
  5
12C2A
  8
2-0
  6
CONTINUOUS
 62
     3
 10
23650.781819817352
 20
17524.080635999999
 30
0.0
 11
23650.781819817352
 21
17519.092249000001
 31
0.0
  0
LINE
  5
12C2B
  8
2-0
  6
CONTINUOUS
 62
     3
 10
23650.781819817352
 20
17519.092249000001
 30
0.0
 11
23625.784459817361
 21
17519.092249000001
 31
0.0
  0
LINE
  5
12C2C
  8
2-0
  6
CONTINUOUS
 62
     3
 10
23625.784459817361
 20
17519.092249000001
 30
0.0
 11
23625.784459817361
 21
17537.088051999988
 31
0.0
  0
LINE
  5
12C2D
  8
2-0
  6
CONTINUOUS
 62
     3
 10
23625.784459817361
 20
17537.088051999988
 30
0.0
 11
23655.782083817361
 21
17537.088051999988
 31
0.0
  0
LINE
  5
12C2E
  8
2-0
  6
CONTINUOUS
 62
     3
 10
23625.784459817361
 20
17520.990607
 30
0.0
 11
23625.784459817361
 21
17526.98656899999
 31
0.0
  0
LINE
  5
12C2F
  8
2-0
  6
CONTINUOUS
 62
     3
 10
23625.784459817361
 20
17526.98656899999
 30
0.0
 11
23655.782083817361
 21
17526.98656899999
 31
0.0
  0
LINE
  5
12C30
  8
2-0
  6
CONTINUOUS
 62
     3
 10
23655.782083817361
 20
17526.98656899999
 30
0.0
 11
23655.782083817361
 21
17489.987387000001
 31
0.0
  0
LINE
  5
12C31
  8
2-0
  6
CONTINUOUS
 62
     3
 10
23625.784459817361
 20
17489.987387000001
 30
0.0
 11
23655.782083817361
 21
17489.987387000001
 31
0.0
  0
LINE
  5
12C32
  8
2-0
  6
CONTINUOUS
 62
     3
 10
23625.784459817361
 20
17495.989287999979
 30
0.0
 11
23625.784459817361
 21
17489.987387000001
 31
0.0
  0
LINE
  5
12C33
  8
2-0
  6
CONTINUOUS
 62
     3
 10
23625.784459817361
 20
17479.897781
 30
0.0
 11
23655.782083817361
 21
17479.897781
 31
0.0
  0
LINE
  5
12C34
  8
2-0
  6
CONTINUOUS
 62
     3
 10
23625.784459817361
 20
17497.893584000001
 30
0.0
 11
23625.784459817361
 21
17479.897781
 31
0.0
  0
LINE
  5
12C35
  8
2-0
  6
CONTINUOUS
 62
     3
 10
23650.781819817352
 20
17497.893584000001
 30
0.0
 11
23625.784459817361
 21
17497.893584000001
 31
0.0
  0
LINE
  5
12C36
  8
2-0
  6
CONTINUOUS
 62
     3
 10
23650.781819817352
 20
17492.89332100001
 30
0.0
 11
23650.781819817352
 21
17497.893584000001
 31
0.0
  0
LINE
  5
12C37
  8
2-0
  6
CONTINUOUS
 62
     3
 10
23643.780262817349
 20
17492.89332100001
 30
0.0
 11
23650.781819817352
 21
17492.89332100001
 31
0.0
  0
LINE
  5
12C38
  8
2-0
  6
CONTINUOUS
 62
     3
 10
23652.895945817359
 20
16772.98420699999
 30
0.0
 11
23652.895945817359
 21
16792.985261999998
 31
0.0
  0
LINE
  5
12C39
  8
2-0
  6
CONTINUOUS
 62
     3
 10
23652.895945817359
 20
16792.985261999998
 30
0.0
 11
23567.899376817339
 21
16792.985261999998
 31
0.0
  0
LINE
  5
12C3A
  8
2-0
  6
CONTINUOUS
 62
     3
 10
23643.780262817349
 20
16819.591971999998
 30
0.0
 11
23650.781819817352
 21
16819.591971999998
 31
0.0
  0
LINE
  5
12C3B
  8
2-0
  6
CONTINUOUS
 62
     3
 10
23650.781819817352
 20
16819.591971999998
 30
0.0
 11
23650.781819817352
 21
16814.597645999998
 31
0.0
  0
LINE
  5
12C3C
  8
2-0
  6
CONTINUOUS
 62
     3
 10
23650.781819817352
 20
16814.597645999998
 30
0.0
 11
23625.784459817361
 21
16814.597645999998
 31
0.0
  0
LINE
  5
12C3D
  8
2-0
  6
CONTINUOUS
 62
     3
 10
23625.784459817361
 20
16814.597645999998
 30
0.0
 11
23625.784459817361
 21
16832.59345
 31
0.0
  0
LINE
  5
12C3E
  8
2-0
  6
CONTINUOUS
 62
     3
 10
23625.784459817361
 20
16832.59345
 30
0.0
 11
23655.782083817361
 21
16832.59345
 31
0.0
  0
LINE
  5
12C3F
  8
2-0
  6
CONTINUOUS
 62
     3
 10
23625.784459817361
 20
16822.984865999992
 30
0.0
 11
23625.784459817361
 21
16816.982965999989
 31
0.0
  0
LINE
  5
12C40
  8
2-0
  6
CONTINUOUS
 62
     3
 10
23655.782083817361
 20
16822.984865999992
 30
0.0
 11
23625.784459817361
 21
16822.984865999992
 31
0.0
  0
LINE
  5
12C41
  8
2-0
  6
CONTINUOUS
 62
     3
 10
23655.782083817361
 20
16832.59345
 30
0.0
 11
23655.782083817361
 21
17479.897781
 31
0.0
  0
LINE
  5
12C42
  8
2-0
  6
CONTINUOUS
 62
     3
 10
23655.782083817361
 20
17537.088051999988
 30
0.0
 11
23655.782083817361
 21
18180.89184199999
 31
0.0
  0
LINE
  5
12C43
  8
2-0
  6
CONTINUOUS
 62
     3
 10
23655.782083817361
 20
16677.983151
 30
0.0
 11
23625.784459817361
 21
16677.983151
 31
0.0
  0
LINE
  5
12C44
  8
2-0
  6
CONTINUOUS
 62
     3
 10
23625.784459817361
 20
16677.983151
 30
0.0
 11
23625.784459817361
 21
16683.985050999989
 31
0.0
  0
LINE
  5
12C45
  8
2-0
  6
CONTINUOUS
 62
     3
 10
23567.899376817339
 20
16707.988694
 30
0.0
 11
23652.895945817359
 21
16707.988694
 31
0.0
  0
LINE
  5
12C46
  8
2-0
  6
CONTINUOUS
 62
     3
 10
23652.895945817359
 20
16707.988694
 30
0.0
 11
23652.895945817359
 21
16727.983810999998
 31
0.0
  0
LINE
  5
12C47
  8
2-0
  6
CONTINUOUS
 62
     3
 10
23625.784459817361
 20
16668.37456800001
 30
0.0
 11
23655.782083817361
 21
16668.37456800001
 31
0.0
  0
LINE
  5
12C48
  8
2-0
  6
CONTINUOUS
 62
     3
 10
23625.784459817361
 20
16686.37037099999
 30
0.0
 11
23625.784459817361
 21
16668.37456800001
 31
0.0
  0
LINE
  5
12C49
  8
2-0
  6
CONTINUOUS
 62
     3
 10
23650.781819817352
 20
16686.37037099999
 30
0.0
 11
23625.784459817361
 21
16686.37037099999
 31
0.0
  0
LINE
  5
12C4A
  8
2-0
  6
CONTINUOUS
 62
     3
 10
23650.781819817352
 20
16681.370106999999
 30
0.0
 11
23650.781819817352
 21
16686.37037099999
 31
0.0
  0
LINE
  5
12C4B
  8
2-0
  6
CONTINUOUS
 62
     3
 10
23643.780262817349
 20
16681.370106999999
 30
0.0
 11
23650.781819817352
 21
16681.370106999999
 31
0.0
  0
LINE
  5
12C4C
  8
2-0
  6
CONTINUOUS
 62
     3
 10
23643.780262817349
 20
15976.887876499981
 30
0.0
 11
23650.781819817352
 21
15976.887876499981
 31
0.0
  0
LINE
  5
12C4D
  8
2-0
  6
CONTINUOUS
 62
     3
 10
23650.781819817352
 20
15976.887876499981
 30
0.0
 11
23650.781819817352
 21
15981.888140499979
 31
0.0
  0
LINE
  5
12C4E
  8
2-0
  6
CONTINUOUS
 62
     3
 10
23650.781819817352
 20
15981.888140499979
 30
0.0
 11
23625.784459817361
 21
15981.888140499979
 31
0.0
  0
LINE
  5
12C4F
  8
2-0
  6
CONTINUOUS
 62
     3
 10
23625.784459817361
 20
15981.888140499979
 30
0.0
 11
23625.784459817361
 21
15963.88639849999
 31
0.0
  0
LINE
  5
12C50
  8
2-0
  6
CONTINUOUS
 62
     3
 10
23625.784459817361
 20
15963.88639849999
 30
0.0
 11
23655.782083817361
 21
15963.88639849999
 31
0.0
  0
LINE
  5
12C51
  8
2-0
  6
CONTINUOUS
 62
     3
 10
23625.784459817361
 20
15979.983843499989
 30
0.0
 11
23625.784459817361
 21
15973.98689249999
 31
0.0
  0
LINE
  5
12C52
  8
2-0
  6
CONTINUOUS
 62
     3
 10
23625.784459817361
 20
15973.98689249999
 30
0.0
 11
23655.782083817361
 21
15973.98689249999
 31
0.0
  0
LINE
  5
12C53
  8
2-0
  6
CONTINUOUS
 62
     3
 10
23655.782083817361
 20
15973.98689249999
 30
0.0
 11
23655.782083817361
 21
16010.987063500001
 31
0.0
  0
LINE
  5
12C54
  8
2-0
  6
CONTINUOUS
 62
     3
 10
23625.784459817361
 20
16010.987063500001
 30
0.0
 11
23655.782083817361
 21
16010.987063500001
 31
0.0
  0
LINE
  5
12C55
  8
2-0
  6
CONTINUOUS
 62
     3
 10
23625.784459817361
 20
16004.98417349999
 30
0.0
 11
23625.784459817361
 21
16010.987063500001
 31
0.0
  0
LINE
  5
12C56
  8
2-0
  6
CONTINUOUS
 62
     3
 10
23625.784459817361
 20
16021.082608500001
 30
0.0
 11
23655.782083817361
 21
16021.082608500001
 31
0.0
  0
LINE
  5
12C57
  8
2-0
  6
CONTINUOUS
 62
     3
 10
23625.784459817361
 20
16003.074927499991
 30
0.0
 11
23625.784459817361
 21
16021.082608500001
 31
0.0
  0
LINE
  5
12C58
  8
2-0
  6
CONTINUOUS
 62
     3
 10
23650.781819817352
 20
16003.074927499991
 30
0.0
 11
23625.784459817361
 21
16003.074927499991
 31
0.0
  0
LINE
  5
12C59
  8
2-0
  6
CONTINUOUS
 62
     3
 10
23650.781819817352
 20
16008.081130500001
 30
0.0
 11
23650.781819817352
 21
16003.074927499991
 31
0.0
  0
LINE
  5
12C5A
  8
2-0
  6
CONTINUOUS
 62
     3
 10
23643.780262817349
 20
16008.081130500001
 30
0.0
 11
23650.781819817352
 21
16008.081130500001
 31
0.0
  0
LINE
  5
12C5B
  8
2-0
  6
CONTINUOUS
 62
     3
 10
23643.780262817349
 20
15307.32114700001
 30
0.0
 11
23650.781819817352
 21
15307.32114700001
 31
0.0
  0
LINE
  5
12C5C
  8
2-0
  6
CONTINUOUS
 62
     3
 10
23650.781819817352
 20
15307.32114700001
 30
0.0
 11
23650.781819817352
 21
15302.326822000001
 31
0.0
  0
LINE
  5
12C5D
  8
2-0
  6
CONTINUOUS
 62
     3
 10
23650.781819817352
 20
15302.326822000001
 30
0.0
 11
23625.784459817361
 21
15302.326822000001
 31
0.0
  0
LINE
  5
12C5E
  8
2-0
  6
CONTINUOUS
 62
     3
 10
23625.784459817361
 20
15302.326822000001
 30
0.0
 11
23625.784459817361
 21
15320.322625000001
 31
0.0
  0
LINE
  5
12C5F
  8
2-0
  6
CONTINUOUS
 62
     3
 10
23625.784459817361
 20
15320.322625000001
 30
0.0
 11
23655.782083817361
 21
15320.322625000001
 31
0.0
  0
LINE
  5
12C60
  8
2-0
  6
CONTINUOUS
 62
     3
 10
23625.784459817361
 20
15304.22518000001
 30
0.0
 11
23625.784459817361
 21
15310.22708000001
 31
0.0
  0
LINE
  5
12C61
  8
2-0
  6
CONTINUOUS
 62
     3
 10
23625.784459817361
 20
15310.22708000001
 30
0.0
 11
23655.782083817361
 21
15310.22708000001
 31
0.0
  0
LINE
  5
12C62
  8
2-0
  6
CONTINUOUS
 62
     3
 10
23655.782083817361
 20
15273.22789900001
 30
0.0
 11
23655.782083817361
 21
15310.22708000001
 31
0.0
  0
LINE
  5
12C63
  8
2-0
  6
CONTINUOUS
 62
     3
 10
23625.784459817361
 20
15273.22789900001
 30
0.0
 11
23655.782083817361
 21
15273.22789900001
 31
0.0
  0
LINE
  5
12C64
  8
2-0
  6
CONTINUOUS
 62
     3
 10
23625.784459817361
 20
15279.22484999999
 30
0.0
 11
23625.784459817361
 21
15273.22789900001
 31
0.0
  0
LINE
  5
12C65
  8
2-0
  6
CONTINUOUS
 62
     3
 10
23625.784459817361
 20
15263.12641500001
 30
0.0
 11
23655.782083817361
 21
15263.12641500001
 31
0.0
  0
LINE
  5
12C66
  8
2-0
  6
CONTINUOUS
 62
     3
 10
23625.784459817361
 20
15281.134096
 30
0.0
 11
23625.784459817361
 21
15263.12641500001
 31
0.0
  0
LINE
  5
12C67
  8
2-0
  6
CONTINUOUS
 62
     3
 10
23650.781819817352
 20
15281.134096
 30
0.0
 11
23625.784459817361
 21
15281.134096
 31
0.0
  0
LINE
  5
12C68
  8
2-0
  6
CONTINUOUS
 62
     3
 10
23650.781819817352
 20
15276.13383200001
 30
0.0
 11
23650.781819817352
 21
15281.134096
 31
0.0
  0
LINE
  5
12C69
  8
2-0
  6
CONTINUOUS
 62
     3
 10
23643.780262817349
 20
15276.13383200001
 30
0.0
 11
23650.781819817352
 21
15276.13383200001
 31
0.0
  0
LINE
  5
12C6A
  8
2-0
  6
CONTINUOUS
 62
     3
 10
23655.782083817361
 20
16668.37456800001
 30
0.0
 11
23655.782083817361
 21
16021.082608500001
 31
0.0
  0
LINE
  5
12C6B
  8
2-0
  6
CONTINUOUS
 62
     3
 10
23655.782083817361
 20
16822.984865999992
 30
0.0
 11
23655.782083817361
 21
16677.983151
 31
0.0
  0
LINE
  5
12C6C
  8
2-0
  6
CONTINUOUS
 62
     3
 10
23567.899376817339
 20
16792.985261999998
 30
0.0
 11
23567.899376817339
 21
16707.988694
 31
0.0
  0
LINE
  5
12C6D
  8
2-0
  6
CONTINUOUS
 62
     6
 10
22278.876889817358
 20
18561.43252749999
 30
0.0
 11
21253.844557817371
 21
18561.43252749999
 31
0.0
  0
LINE
  5
12C6E
  8
2-0
  6
CONTINUOUS
 62
     3
 10
23643.780262817349
 20
14574.892825000001
 30
0.0
 11
23650.781819817352
 21
14574.892825000001
 31
0.0
  0
LINE
  5
12C6F
  8
2-0
  6
CONTINUOUS
 62
     3
 10
23650.781819817352
 20
14574.892825000001
 30
0.0
 11
23650.781819817352
 21
14579.887151000001
 31
0.0
  0
LINE
  5
12C70
  8
2-0
  6
CONTINUOUS
 62
     3
 10
23650.781819817352
 20
14579.887151000001
 30
0.0
 11
23625.784459817361
 21
14579.887151000001
 31
0.0
  0
LINE
  5
12C71
  8
2-0
  6
CONTINUOUS
 62
     3
 10
23625.784459817361
 20
14579.887151000001
 30
0.0
 11
23625.784459817361
 21
14561.891347000001
 31
0.0
  0
LINE
  5
12C72
  8
2-0
  6
CONTINUOUS
 62
     3
 10
23625.784459817361
 20
14561.891347000001
 30
0.0
 11
23655.782083817361
 21
14561.891347000001
 31
0.0
  0
LINE
  5
12C73
  8
2-0
  6
CONTINUOUS
 62
     3
 10
23625.784459817361
 20
14577.98978200001
 30
0.0
 11
23625.784459817361
 21
14571.986892000001
 31
0.0
  0
LINE
  5
12C74
  8
2-0
  6
CONTINUOUS
 62
     3
 10
23625.784459817361
 20
14571.986892000001
 30
0.0
 11
23655.782083817361
 21
14571.986892000001
 31
0.0
  0
LINE
  5
12C75
  8
2-0
  6
CONTINUOUS
 62
     3
 10
23655.782083817361
 20
14571.986892000001
 30
0.0
 11
23655.782083817361
 21
14608.987063999981
 31
0.0
  0
LINE
  5
12C76
  8
2-0
  6
CONTINUOUS
 62
     3
 10
23625.784459817361
 20
14608.987063999981
 30
0.0
 11
23655.782083817361
 21
14608.987063999981
 31
0.0
  0
LINE
  5
12C77
  8
2-0
  6
CONTINUOUS
 62
     3
 10
23625.784459817361
 20
14602.99011199999
 30
0.0
 11
23625.784459817361
 21
14608.987063999981
 31
0.0
  0
LINE
  5
12C78
  8
2-0
  6
CONTINUOUS
 62
     3
 10
23625.784459817361
 20
14619.087557000001
 30
0.0
 11
23655.782083817361
 21
14619.087557000001
 31
0.0
  0
LINE
  5
12C79
  8
2-0
  6
CONTINUOUS
 62
     3
 10
23625.784459817361
 20
14601.080866000009
 30
0.0
 11
23625.784459817361
 21
14619.087557000001
 31
0.0
  0
LINE
  5
12C7A
  8
2-0
  6
CONTINUOUS
 62
     3
 10
23650.781819817352
 20
14601.080866000009
 30
0.0
 11
23625.784459817361
 21
14601.080866000009
 31
0.0
  0
LINE
  5
12C7B
  8
2-0
  6
CONTINUOUS
 62
     3
 10
23650.781819817352
 20
14606.08607900001
 30
0.0
 11
23650.781819817352
 21
14601.080866000009
 31
0.0
  0
LINE
  5
12C7C
  8
2-0
  6
CONTINUOUS
 62
     3
 10
23643.780262817349
 20
14606.08607900001
 30
0.0
 11
23650.781819817352
 21
14606.08607900001
 31
0.0
  0
LINE
  5
12C7D
  8
2-0
  6
CONTINUOUS
 62
     3
 10
23625.784459817361
 20
14249.488904999989
 30
0.0
 11
23625.784459817361
 21
14255.493774
 31
0.0
  0
LINE
  5
12C7E
  8
2-0
  6
CONTINUOUS
 62
     3
 10
23625.784459817361
 20
14255.493774
 30
0.0
 11
23655.782083817361
 21
14255.493774
 31
0.0
  0
LINE
  5
12C7F
  8
2-0
  6
CONTINUOUS
 62
     3
 10
23655.782083817361
 20
14255.493774
 30
0.0
 11
23655.782083817361
 21
14140.489682999991
 31
0.0
  0
LINE
  5
12C80
  8
2-0
  6
CONTINUOUS
 62
     3
 10
23655.782083817361
 20
14140.489682999991
 30
0.0
 11
23570.783535817362
 21
14140.489682999991
 31
0.0
  0
LINE
  5
12C81
  8
2-0
  6
CONTINUOUS
 62
     3
 10
23570.783535817362
 20
14140.489682999991
 30
0.0
 11
23570.783535817362
 21
14225.485262
 31
0.0
  0
LINE
  5
12C82
  8
2-0
  6
CONTINUOUS
 62
     3
 10
23570.783535817362
 20
14225.485262
 30
0.0
 11
23602.782453817359
 21
14225.485262
 31
0.0
  0
LINE
  5
12C83
  8
2-0
  6
CONTINUOUS
 62
     3
 10
23643.780262817349
 20
14252.523506999991
 30
0.0
 11
23650.781819817352
 21
14252.523506999991
 31
0.0
  0
LINE
  5
12C84
  8
2-0
  6
CONTINUOUS
 62
     3
 10
23650.781819817352
 20
14252.523506999991
 30
0.0
 11
23650.781819817352
 21
14247.526211999981
 31
0.0
  0
LINE
  5
12C85
  8
2-0
  6
CONTINUOUS
 62
     3
 10
23650.781819817352
 20
14247.526211999981
 30
0.0
 11
23625.784459817361
 21
14247.526211999981
 31
0.0
  0
LINE
  5
12C86
  8
2-0
  6
CONTINUOUS
 62
     3
 10
23625.784459817361
 20
14247.526211999981
 30
0.0
 11
23625.784459817361
 21
14265.524985
 31
0.0
  0
LINE
  5
12C87
  8
2-0
  6
CONTINUOUS
 62
     3
 10
23625.784459817361
 20
14265.524985
 30
0.0
 11
23655.782083817361
 21
14265.524985
 31
0.0
  0
LINE
  5
12C88
  8
2-0
  6
CENTER2
 62
     6
 10
23613.283799817371
 20
13557.223543999989
 30
0.0
 11
23613.283799817371
 21
13985.0673343907
 31
0.0
  0
LINE
  5
12C89
  8
2-0
  6
CONTINUOUS
 62
     3
 10
23655.782083817361
 20
18238.082114000001
 30
0.0
 11
23655.782083817361
 21
18881.892831500001
 31
0.0
  0
LINE
  5
12C8A
  8
2-0
  6
CONTINUOUS
 62
     6
 10
19960.280632817361
 20
20090.488166000021
 30
0.0
 11
18760.286570817381
 21
20090.488166000021
 31
0.0
  0
LINE
  5
12C8B
  8
2-0
  6
CONTINUOUS
 62
     6
 10
20822.31346581738
 20
18803.58703549999
 30
0.0
 11
21253.844557817371
 21
18561.43252749999
 31
0.0
  0
LINE
  5
12C8C
  8
2-0
  6
CONTINUOUS
 62
     6
 10
20500.744631817401
 20
19503.165002999998
 30
0.0
 11
19960.280632817361
 21
20090.488166000021
 31
0.0
  0
LINE
  5
12C8D
  8
2-0
  6
CONTINUOUS
 62
     3
 10
23655.782083817361
 20
15963.88639849999
 30
0.0
 11
23655.782083817361
 21
15320.322625000001
 31
0.0
  0
LINE
  5
12C8E
  8
2-0
  6
CONTINUOUS
 62
     6
 10
20835.37037081736
 20
18826.846379499992
 30
0.0
 11
20682.783139817358
 21
18881.892831500001
 31
0.0
  0
LINE
  5
12C8F
  8
2-0
  6
CONTINUOUS
 62
     6
 10
20682.783139817358
 20
18881.892831500001
 30
0.0
 11
20809.264479817361
 21
18780.333631499951
 31
0.0
  0
LINE
  5
12C90
  8
2-0
  6
CONTINUOUS
 62
     6
 10
20835.37037081736
 20
18826.846379499992
 30
0.0
 11
20809.264479817361
 21
18780.333631499951
 31
0.0
  0
LINE
  5
12C91
  8
2-0
  6
CONTINUOUS
 62
     6
 10
20809.264479817361
 20
18780.333631499951
 30
0.0
 11
20682.783139817358
 21
18881.892831500001
 31
0.0
  0
LINE
  5
12C92
  8
2-0
  6
CONTINUOUS
 62
     6
 10
20682.783139817358
 20
18881.892831500001
 30
0.0
 11
20835.37037081736
 21
18826.846379499992
 31
0.0
  0
LINE
  5
12C93
  8
2-0
  6
CONTINUOUS
 62
     6
 10
20835.37037081736
 20
18826.846379499992
 30
0.0
 11
20682.783139817358
 21
18881.892831500001
 31
0.0
  0
LINE
  5
12C94
  8
2-0
  6
CONTINUOUS
 62
     6
 10
20809.264479817361
 20
18780.333631499951
 30
0.0
 11
20682.783139817358
 21
18881.892831500001
 31
0.0
  0
LINE
  5
12C95
  8
2-0
  6
CONTINUOUS
 62
     6
 10
20809.264479817361
 20
18780.333631499951
 30
0.0
 11
20835.37037081736
 21
18826.846379499992
 31
0.0
  0
LINE
  5
12C96
  8
2-0
  6
CONTINUOUS
 62
     6
 10
20481.127602817371
 20
19485.103876000008
 30
0.0
 11
20609.089622817351
 21
19385.421258000009
 31
0.0
  0
LINE
  5
12C97
  8
2-0
  6
CONTINUOUS
 62
     6
 10
20609.089622817351
 20
19385.421258000009
 30
0.0
 11
20520.375517817371
 21
19521.218213000018
 31
0.0
  0
LINE
  5
12C98
  8
2-0
  6
CONTINUOUS
 62
     6
 10
20481.127602817371
 20
19485.103876000008
 30
0.0
 11
20520.375517817371
 21
19521.218213000018
 31
0.0
  0
LINE
  5
12C99
  8
2-0
  6
CONTINUOUS
 62
     6
 10
20520.375517817371
 20
19521.218213000018
 30
0.0
 11
20609.089622817351
 21
19385.421258000009
 31
0.0
  0
LINE
  5
12C9A
  8
2-0
  6
CONTINUOUS
 62
     6
 10
20609.089622817351
 20
19385.421258000009
 30
0.0
 11
20481.127602817371
 21
19485.103876000008
 31
0.0
  0
LINE
  5
12C9B
  8
2-0
  6
CONTINUOUS
 62
     6
 10
20481.127602817371
 20
19485.103876000008
 30
0.0
 11
20609.089622817351
 21
19385.421258000009
 31
0.0
  0
LINE
  5
12C9C
  8
2-0
  6
CONTINUOUS
 62
     6
 10
20520.375517817371
 20
19521.218213000018
 30
0.0
 11
20609.089622817351
 21
19385.421258000009
 31
0.0
  0
LINE
  5
12C9D
  8
2-0
  6
CONTINUOUS
 62
     6
 10
20520.375517817371
 20
19521.218213000018
 30
0.0
 11
20481.127602817371
 21
19485.103876000008
 31
0.0
  0
LINE
  5
12C9E
  8
2-0
  6
CONTINUOUS
 62
     4
 10
20695.28379981736
 20
19440.487506000001
 30
0.0
 11
20695.28379981736
 21
20170.484471000011
 31
0.0
  0
LINE
  5
12C9F
  8
2-0
  6
CONTINUOUS
 62
     6
 10
20929.423236817351
 20
14032.216944999989
 30
0.0
 11
20797.676377817352
 21
14126.843871999999
 31
0.0
  0
LINE
  5
12CA0
  8
2-0
  6
CONTINUOUS
 62
     6
 10
20797.676377817352
 20
14126.843871999999
 30
0.0
 11
20891.60651381738
 21
13994.60510199999
 31
0.0
  0
LINE
  5
12CA1
  8
2-0
  6
CONTINUOUS
 62
     6
 10
20929.423236817351
 20
14032.216944999989
 30
0.0
 11
20891.60651381738
 21
13994.60510199999
 31
0.0
  0
LINE
  5
12CA2
  8
2-0
  6
CONTINUOUS
 62
     6
 10
20891.60651381738
 20
13994.60510199999
 30
0.0
 11
20797.676377817352
 21
14126.843871999999
 31
0.0
  0
LINE
  5
12CA3
  8
2-0
  6
CONTINUOUS
 62
     6
 10
20797.676377817352
 20
14126.843871999999
 30
0.0
 11
20929.423236817351
 21
14032.216944999989
 31
0.0
  0
LINE
  5
12CA4
  8
2-0
  6
CONTINUOUS
 62
     6
 10
20929.423236817351
 20
14032.216944999989
 30
0.0
 11
20797.676377817352
 21
14126.843871999999
 31
0.0
  0
LINE
  5
12CA5
  8
2-0
  6
CONTINUOUS
 62
     6
 10
20891.60651381738
 20
13994.60510199999
 30
0.0
 11
20797.676377817352
 21
14126.843871999999
 31
0.0
  0
LINE
  5
12CA6
  8
2-0
  6
CONTINUOUS
 62
     6
 10
20891.60651381738
 20
13994.60510199999
 30
0.0
 11
20929.423236817351
 21
14032.216944999989
 31
0.0
  0
LINE
  5
12CA7
  8
2-0
  6
CONTINUOUS
 62
     6
 10
20866.38744781736
 20
14359.121571999989
 30
0.0
 11
20733.78741581738
 21
14265.693243999989
 31
0.0
  0
LINE
  5
12CA8
  8
2-0
  6
CONTINUOUS
 62
     6
 10
20733.78741581738
 20
14265.693243999989
 30
0.0
 11
20889.52010181735
 21
14311.068757999999
 31
0.0
  0
LINE
  5
12CA9
  8
2-0
  6
CONTINUOUS
 62
     6
 10
20866.38744781736
 20
14359.121571999989
 30
0.0
 11
20889.52010181735
 21
14311.068757999999
 31
0.0
  0
LINE
  5
12CAA
  8
2-0
  6
CONTINUOUS
 62
     6
 10
20889.52010181735
 20
14311.068757999999
 30
0.0
 11
20733.78741581738
 21
14265.693243999989
 31
0.0
  0
LINE
  5
12CAB
  8
2-0
  6
CONTINUOUS
 62
     6
 10
20733.78741581738
 20
14265.693243999989
 30
0.0
 11
20866.38744781736
 21
14359.121571999989
 31
0.0
  0
LINE
  5
12CAC
  8
2-0
  6
CONTINUOUS
 62
     6
 10
20866.38744781736
 20
14359.121571999989
 30
0.0
 11
20733.78741581738
 21
14265.693243999989
 31
0.0
  0
LINE
  5
12CAD
  8
2-0
  6
CONTINUOUS
 62
     6
 10
20889.52010181735
 20
14311.068757999999
 30
0.0
 11
20733.78741581738
 21
14265.693243999989
 31
0.0
  0
LINE
  5
12CAE
  8
2-0
  6
CONTINUOUS
 62
     6
 10
20889.52010181735
 20
14311.068757999999
 30
0.0
 11
20866.38744781736
 21
14359.121571999989
 31
0.0
  0
LINE
  5
12CAF
  8
2-0
  6
CONTINUOUS
 62
     6
 10
20806.623801817361
 20
16388.442505000021
 30
0.0
 11
20652.785515817352
 21
16439.876336000019
 31
0.0
  0
LINE
  5
12CB0
  8
2-0
  6
CONTINUOUS
 62
     6
 10
20652.785515817352
 20
16439.876336000019
 30
0.0
 11
20781.620502817372
 21
16341.33590100002
 31
0.0
  0
LINE
  5
12CB1
  8
2-0
  6
CONTINUOUS
 62
     6
 10
20806.623801817361
 20
16388.442505000021
 30
0.0
 11
20781.620502817372
 21
16341.33590100002
 31
0.0
  0
LINE
  5
12CB2
  8
2-0
  6
CONTINUOUS
 62
     6
 10
20781.620502817372
 20
16341.33590100002
 30
0.0
 11
20652.785515817352
 21
16439.876336000019
 31
0.0
  0
LINE
  5
12CB3
  8
2-0
  6
CONTINUOUS
 62
     6
 10
20652.785515817352
 20
16439.876336000019
 30
0.0
 11
20806.623801817361
 21
16388.442505000021
 31
0.0
  0
LINE
  5
12CB4
  8
2-0
  6
CONTINUOUS
 62
     6
 10
20806.623801817361
 20
16388.442505000021
 30
0.0
 11
20652.785515817352
 21
16439.876336000019
 31
0.0
  0
LINE
  5
12CB5
  8
2-0
  6
CONTINUOUS
 62
     6
 10
20781.620502817372
 20
16341.33590100002
 30
0.0
 11
20652.785515817352
 21
16439.876336000019
 31
0.0
  0
LINE
  5
12CB6
  8
2-0
  6
CONTINUOUS
 62
     6
 10
20781.620502817372
 20
16341.33590100002
 30
0.0
 11
20806.623801817361
 21
16388.442505000021
 31
0.0
  0
LINE
  5
12CB7
  8
2-0
  6
CONTINUOUS
 62
     6
 10
20940.560008817349
 20
16879.760997000009
 30
0.0
 11
20797.676377817352
 21
16802.985368000001
 31
0.0
  0
LINE
  5
12CB8
  8
2-0
  6
CONTINUOUS
 62
     6
 10
20797.676377817352
 20
16802.985368000001
 30
0.0
 11
20957.73827081735
 21
16829.26743700002
 31
0.0
  0
LINE
  5
12CB9
  8
2-0
  6
CONTINUOUS
 62
     6
 10
20940.560008817349
 20
16879.760997000009
 30
0.0
 11
20957.73827081735
 21
16829.26743700002
 31
0.0
  0
LINE
  5
12CBA
  8
2-0
  6
CONTINUOUS
 62
     6
 10
20957.73827081735
 20
16829.26743700002
 30
0.0
 11
20797.676377817352
 21
16802.985368000001
 31
0.0
  0
LINE
  5
12CBB
  8
2-0
  6
CONTINUOUS
 62
     6
 10
20797.676377817352
 20
16802.985368000001
 30
0.0
 11
20940.560008817349
 21
16879.760997000009
 31
0.0
  0
LINE
  5
12CBC
  8
2-0
  6
CONTINUOUS
 62
     6
 10
20940.560008817349
 20
16879.760997000009
 30
0.0
 11
20797.676377817352
 21
16802.985368000001
 31
0.0
  0
LINE
  5
12CBD
  8
2-0
  6
CONTINUOUS
 62
     6
 10
20957.73827081735
 20
16829.26743700002
 30
0.0
 11
20797.676377817352
 21
16802.985368000001
 31
0.0
  0
LINE
  5
12CBE
  8
2-0
  6
CONTINUOUS
 62
     6
 10
20957.73827081735
 20
16829.26743700002
 30
0.0
 11
20940.560008817349
 21
16879.760997000009
 31
0.0
  0
LINE
  5
12CBF
  8
2-0
  6
CONTINUOUS
 62
     3
 10
20682.785119817359
 20
19251.485051999989
 30
0.0
 11
20682.785119817359
 21
19245.489090000021
 31
0.0
  0
LINE
  5
12CC0
  8
2-0
  6
CONTINUOUS
 62
     3
 10
20682.785119817359
 20
19245.489090000021
 30
0.0
 11
20652.787494817348
 21
19245.489090000021
 31
0.0
  0
LINE
  5
12CC1
  8
2-0
  6
CONTINUOUS
 62
     3
 10
20652.787494817348
 20
19245.489090000021
 30
0.0
 11
20652.787494817348
 21
19360.48526300002
 31
0.0
  0
LINE
  5
12CC2
  8
2-0
  6
CONTINUOUS
 62
     3
 10
20652.787494817348
 20
19275.488694
 30
0.0
 11
20733.785435817361
 21
19275.488694
 31
0.0
  0
LINE
  5
12CC3
  8
2-0
  6
CONTINUOUS
 62
     3
 10
20682.785119817359
 20
19235.191633999992
 30
0.0
 11
20652.787494817348
 21
19235.191633999992
 31
0.0
  0
LINE
  5
12CC4
  8
2-0
  6
CONTINUOUS
 62
     3
 10
20682.785119817359
 20
19253.19337600001
 30
0.0
 11
20682.785119817359
 21
19235.191633999992
 31
0.0
  0
LINE
  5
12CC5
  8
2-0
  6
CONTINUOUS
 62
     3
 10
20657.791717817348
 20
19253.19337600001
 30
0.0
 11
20682.785119817359
 21
19253.19337600001
 31
0.0
  0
LINE
  5
12CC6
  8
2-0
  6
CONTINUOUS
 62
     3
 10
20657.791717817348
 20
19248.185194000002
 30
0.0
 11
20657.791717817348
 21
19253.19337600001
 31
0.0
  0
LINE
  5
12CC7
  8
2-0
  6
CONTINUOUS
 62
     3
 10
20664.789315817339
 20
19248.185194000002
 30
0.0
 11
20657.791717817348
 21
19248.185194000002
 31
0.0
  0
LINE
  5
12CC8
  8
2-0
  6
CONTINUOUS
 62
     3
 10
20765.083604817351
 20
19348.485421000001
 30
0.0
 11
20765.083604817351
 21
19355.49093700001
 31
0.0
  0
LINE
  5
12CC9
  8
2-0
  6
CONTINUOUS
 62
     3
 10
20765.083604817351
 20
19355.49093700001
 30
0.0
 11
20760.081360817359
 21
19355.49093700001
 31
0.0
  0
LINE
  5
12CCA
  8
2-0
  6
CONTINUOUS
 62
     3
 10
20760.081360817359
 20
19355.49093700001
 30
0.0
 11
20760.081360817359
 21
19330.4817
 31
0.0
  0
LINE
  5
12CCB
  8
2-0
  6
CONTINUOUS
 62
     3
 10
20760.081360817359
 20
19330.4817
 30
0.0
 11
20778.089041817351
 21
19330.4817
 31
0.0
  0
LINE
  5
12CCC
  8
2-0
  6
CONTINUOUS
 62
     3
 10
20778.089041817351
 20
19330.4817
 30
0.0
 11
20778.089041817351
 21
19360.48526300002
 31
0.0
  0
LINE
  5
12CCD
  8
2-0
  6
CONTINUOUS
 62
     3
 10
20767.789605817361
 20
19360.48526300002
 30
0.0
 11
20652.787494817348
 21
19360.48526300002
 31
0.0
  0
LINE
  5
12CCE
  8
2-0
  6
CONTINUOUS
 62
     3
 10
20767.789605817361
 20
19330.4817
 30
0.0
 11
20767.789605817361
 21
19360.48526300002
 31
0.0
  0
LINE
  5
12CCF
  8
2-0
  6
CONTINUOUS
 62
     3
 10
20761.78572681735
 20
19330.4817
 30
0.0
 11
20767.789605817361
 21
19330.4817
 31
0.0
  0
LINE
  5
12CD0
  8
2-0
  6
CONTINUOUS
 62
     3
 10
20682.785119817359
 20
19251.485051999989
 30
0.0
 11
20682.785119817359
 21
19245.489090000021
 31
0.0
  0
LINE
  5
12CD1
  8
2-0
  6
CONTINUOUS
 62
     3
 10
20682.785119817359
 20
19245.489090000021
 30
0.0
 11
20652.787494817348
 21
19245.489090000021
 31
0.0
  0
LINE
  5
12CD2
  8
2-0
  6
CONTINUOUS
 62
     3
 10
20652.787494817348
 20
19245.489090000021
 30
0.0
 11
20652.787494817348
 21
19360.48526300002
 31
0.0
  0
LINE
  5
12CD3
  8
2-0
  6
CONTINUOUS
 62
     3
 10
20652.787494817348
 20
19275.488694
 30
0.0
 11
20733.785435817361
 21
19275.488694
 31
0.0
  0
LINE
  5
12CD4
  8
2-0
  6
CONTINUOUS
 62
     3
 10
20682.785119817359
 20
19235.191633999992
 30
0.0
 11
20652.787494817348
 21
19235.191633999992
 31
0.0
  0
LINE
  5
12CD5
  8
2-0
  6
CONTINUOUS
 62
     3
 10
20682.785119817359
 20
19253.19337600001
 30
0.0
 11
20682.785119817359
 21
19235.191633999992
 31
0.0
  0
LINE
  5
12CD6
  8
2-0
  6
CONTINUOUS
 62
     3
 10
20657.791717817348
 20
19253.19337600001
 30
0.0
 11
20682.785119817359
 21
19253.19337600001
 31
0.0
  0
LINE
  5
12CD7
  8
2-0
  6
CONTINUOUS
 62
     3
 10
20657.791717817348
 20
19248.185194000002
 30
0.0
 11
20657.791717817348
 21
19253.19337600001
 31
0.0
  0
LINE
  5
12CD8
  8
2-0
  6
CONTINUOUS
 62
     3
 10
20664.789315817339
 20
19248.185194000002
 30
0.0
 11
20657.791717817348
 21
19248.185194000002
 31
0.0
  0
LINE
  5
12CD9
  8
2-0
  6
CONTINUOUS
 62
     3
 10
20664.789315817339
 20
18894.88837149995
 30
0.0
 11
20657.791717817348
 21
18894.88837149995
 31
0.0
  0
LINE
  5
12CDA
  8
2-0
  6
CONTINUOUS
 62
     3
 10
20657.791717817348
 20
18894.88837149995
 30
0.0
 11
20657.791717817348
 21
18899.888635499989
 31
0.0
  0
LINE
  5
12CDB
  8
2-0
  6
CONTINUOUS
 62
     3
 10
20657.791717817348
 20
18899.888635499989
 30
0.0
 11
20682.785119817359
 21
18899.888635499989
 31
0.0
  0
LINE
  5
12CDC
  8
2-0
  6
CONTINUOUS
 62
     3
 10
20682.785119817359
 20
18899.888635499989
 30
0.0
 11
20682.785119817359
 21
18881.892831499979
 31
0.0
  0
LINE
  5
12CDD
  8
2-0
  6
CONTINUOUS
 62
     3
 10
20682.785119817359
 20
18881.892831499979
 30
0.0
 11
20652.787494817348
 21
18881.892831499979
 31
0.0
  0
LINE
  5
12CDE
  8
2-0
  6
CONTINUOUS
 62
     3
 10
20682.785119817359
 20
18897.984338499959
 30
0.0
 11
20682.785119817359
 21
18891.98639749999
 31
0.0
  0
LINE
  5
12CDF
  8
2-0
  6
CONTINUOUS
 62
     3
 10
20682.785119817359
 20
18891.98639749999
 30
0.0
 11
20652.787494817348
 21
18891.98639749999
 31
0.0
  0
LINE
  5
12CE0
  8
2-0
  6
CONTINUOUS
 62
     3
 10
20652.787494817348
 20
18891.98639749999
 30
0.0
 11
20652.787494817348
 21
18928.987558499979
 31
0.0
  0
LINE
  5
12CE1
  8
2-0
  6
CONTINUOUS
 62
     3
 10
20682.785119817359
 20
18928.987558499979
 30
0.0
 11
20652.787494817348
 21
18928.987558499979
 31
0.0
  0
LINE
  5
12CE2
  8
2-0
  6
CONTINUOUS
 62
     3
 10
20682.785119817359
 20
18922.98367849999
 30
0.0
 11
20682.785119817359
 21
18928.987558499979
 31
0.0
  0
LINE
  5
12CE3
  8
2-0
  6
CONTINUOUS
 62
     3
 10
20682.785119817359
 20
18939.083103499961
 30
0.0
 11
20652.787494817348
 21
18939.083103499961
 31
0.0
  0
LINE
  5
12CE4
  8
2-0
  6
CONTINUOUS
 62
     3
 10
20682.785119817359
 20
18921.081361500001
 30
0.0
 11
20682.785119817359
 21
18939.083103499961
 31
0.0
  0
LINE
  5
12CE5
  8
2-0
  6
CONTINUOUS
 62
     3
 10
20657.791717817348
 20
18921.081361500001
 30
0.0
 11
20682.785119817359
 21
18921.081361500001
 31
0.0
  0
LINE
  5
12CE6
  8
2-0
  6
CONTINUOUS
 62
     3
 10
20657.791717817348
 20
18926.081625499992
 30
0.0
 11
20657.791717817348
 21
18921.081361500001
 31
0.0
  0
LINE
  5
12CE7
  8
2-0
  6
CONTINUOUS
 62
     3
 10
20664.789315817339
 20
18926.081625499992
 30
0.0
 11
20657.791717817348
 21
18926.081625499992
 31
0.0
  0
LINE
  5
12CE8
  8
2-0
  6
CONTINUOUS
 62
     3
 10
20664.789315817339
 20
18193.88738199999
 30
0.0
 11
20657.791717817348
 21
18193.88738199999
 31
0.0
  0
LINE
  5
12CE9
  8
2-0
  6
CONTINUOUS
 62
     3
 10
20657.791717817348
 20
18193.88738199999
 30
0.0
 11
20657.791717817348
 21
18198.893583999979
 31
0.0
  0
LINE
  5
12CEA
  8
2-0
  6
CONTINUOUS
 62
     3
 10
20657.791717817348
 20
18198.893583999979
 30
0.0
 11
20682.785119817359
 21
18198.893583999979
 31
0.0
  0
LINE
  5
12CEB
  8
2-0
  6
CONTINUOUS
 62
     3
 10
20682.785119817359
 20
18198.893583999979
 30
0.0
 11
20682.785119817359
 21
18180.89184199999
 31
0.0
  0
LINE
  5
12CEC
  8
2-0
  6
CONTINUOUS
 62
     3
 10
20682.785119817359
 20
18180.89184199999
 30
0.0
 11
20652.787494817348
 21
18180.89184199999
 31
0.0
  0
LINE
  5
12CED
  8
2-0
  6
CONTINUOUS
 62
     3
 10
20682.785119817359
 20
18196.983348999958
 30
0.0
 11
20682.785119817359
 21
18190.98738699999
 31
0.0
  0
LINE
  5
12CEE
  8
2-0
  6
CONTINUOUS
 62
     3
 10
20682.785119817359
 20
18190.98738699999
 30
0.0
 11
20652.787494817348
 21
18190.98738699999
 31
0.0
  0
LINE
  5
12CEF
  8
2-0
  6
CONTINUOUS
 62
     3
 10
20652.787494817348
 20
18190.98738699999
 30
0.0
 11
20652.787494817348
 21
18227.98656899999
 31
0.0
  0
LINE
  5
12CF0
  8
2-0
  6
CONTINUOUS
 62
     3
 10
20682.785119817359
 20
18227.98656899999
 30
0.0
 11
20652.787494817348
 21
18227.98656899999
 31
0.0
  0
LINE
  5
12CF1
  8
2-0
  6
CONTINUOUS
 62
     3
 10
20682.785119817359
 20
18221.990606999989
 30
0.0
 11
20682.785119817359
 21
18227.98656899999
 31
0.0
  0
LINE
  5
12CF2
  8
2-0
  6
CONTINUOUS
 62
     3
 10
20682.785119817359
 20
18238.082114000001
 30
0.0
 11
20652.787494817348
 21
18238.082114000001
 31
0.0
  0
LINE
  5
12CF3
  8
2-0
  6
CONTINUOUS
 62
     3
 10
20682.785119817359
 20
18220.080371999989
 30
0.0
 11
20682.785119817359
 21
18238.082114000001
 31
0.0
  0
LINE
  5
12CF4
  8
2-0
  6
CONTINUOUS
 62
     3
 10
20657.791717817348
 20
18220.080371999989
 30
0.0
 11
20682.785119817359
 21
18220.080371999989
 31
0.0
  0
LINE
  5
12CF5
  8
2-0
  6
CONTINUOUS
 62
     3
 10
20657.791717817348
 20
18225.086573999979
 30
0.0
 11
20657.791717817348
 21
18220.080371999989
 31
0.0
  0
LINE
  5
12CF6
  8
2-0
  6
CONTINUOUS
 62
     3
 10
20664.789315817339
 20
18225.086573999979
 30
0.0
 11
20657.791717817348
 21
18225.086573999979
 31
0.0
  0
LINE
  5
12CF7
  8
2-0
  6
CONTINUOUS
 62
     3
 10
20664.789315817339
 20
17524.080635999992
 30
0.0
 11
20657.791717817348
 21
17524.080635999992
 31
0.0
  0
LINE
  5
12CF8
  8
2-0
  6
CONTINUOUS
 62
     3
 10
20657.791717817348
 20
17524.080635999992
 30
0.0
 11
20657.791717817348
 21
17519.09224899999
 31
0.0
  0
LINE
  5
12CF9
  8
2-0
  6
CONTINUOUS
 62
     3
 10
20657.791717817348
 20
17519.09224899999
 30
0.0
 11
20682.785119817359
 21
17519.09224899999
 31
0.0
  0
LINE
  5
12CFA
  8
2-0
  6
CONTINUOUS
 62
     3
 10
20682.785119817359
 20
17519.09224899999
 30
0.0
 11
20682.785119817359
 21
17537.088051999988
 31
0.0
  0
LINE
  5
12CFB
  8
2-0
  6
CONTINUOUS
 62
     3
 10
20682.785119817359
 20
17537.088051999988
 30
0.0
 11
20652.787494817348
 21
17537.088051999988
 31
0.0
  0
LINE
  5
12CFC
  8
2-0
  6
CONTINUOUS
 62
     3
 10
20682.785119817359
 20
17520.990606999989
 30
0.0
 11
20682.785119817359
 21
17526.98656899999
 31
0.0
  0
LINE
  5
12CFD
  8
2-0
  6
CONTINUOUS
 62
     3
 10
20682.785119817359
 20
17526.98656899999
 30
0.0
 11
20652.787494817348
 21
17526.98656899999
 31
0.0
  0
LINE
  5
12CFE
  8
2-0
  6
CONTINUOUS
 62
     3
 10
20652.787494817348
 20
17526.98656899999
 30
0.0
 11
20652.787494817348
 21
17489.98738699999
 31
0.0
  0
LINE
  5
12CFF
  8
2-0
  6
CONTINUOUS
 62
     3
 10
20682.785119817359
 20
17489.98738699999
 30
0.0
 11
20652.787494817348
 21
17489.98738699999
 31
0.0
  0
LINE
  5
12D00
  8
2-0
  6
CONTINUOUS
 62
     3
 10
20682.785119817359
 20
17495.989287999979
 30
0.0
 11
20682.785119817359
 21
17489.98738699999
 31
0.0
  0
LINE
  5
12D01
  8
2-0
  6
CONTINUOUS
 62
     3
 10
20682.785119817359
 20
17479.897780999989
 30
0.0
 11
20652.787494817348
 21
17479.897780999989
 31
0.0
  0
LINE
  5
12D02
  8
2-0
  6
CONTINUOUS
 62
     3
 10
20682.785119817359
 20
17497.89358399999
 30
0.0
 11
20682.785119817359
 21
17479.897780999989
 31
0.0
  0
LINE
  5
12D03
  8
2-0
  6
CONTINUOUS
 62
     3
 10
20657.791717817348
 20
17497.89358399999
 30
0.0
 11
20682.785119817359
 21
17497.89358399999
 31
0.0
  0
LINE
  5
12D04
  8
2-0
  6
CONTINUOUS
 62
     3
 10
20657.791717817348
 20
17492.893320999989
 30
0.0
 11
20657.791717817348
 21
17497.89358399999
 31
0.0
  0
LINE
  5
12D05
  8
2-0
  6
CONTINUOUS
 62
     3
 10
20664.789315817339
 20
17492.893320999989
 30
0.0
 11
20657.791717817348
 21
17492.893320999989
 31
0.0
  0
LINE
  5
12D06
  8
2-0
  6
CONTINUOUS
 62
     3
 10
20655.673632817361
 20
16772.98420699999
 30
0.0
 11
20655.673632817361
 21
16792.985261999998
 31
0.0
  0
LINE
  5
12D07
  8
2-0
  6
CONTINUOUS
 62
     3
 10
20655.673632817361
 20
16792.985261999998
 30
0.0
 11
20740.674160817362
 21
16792.985261999998
 31
0.0
  0
LINE
  5
12D08
  8
2-0
  6
CONTINUOUS
 62
     3
 10
20664.789315817339
 20
16819.591971999998
 30
0.0
 11
20657.791717817348
 21
16819.591971999998
 31
0.0
  0
LINE
  5
12D09
  8
2-0
  6
CONTINUOUS
 62
     3
 10
20657.791717817348
 20
16819.591971999998
 30
0.0
 11
20657.791717817348
 21
16814.597645999998
 31
0.0
  0
LINE
  5
12D0A
  8
2-0
  6
CONTINUOUS
 62
     3
 10
20657.791717817348
 20
16814.597645999998
 30
0.0
 11
20682.785119817359
 21
16814.597645999998
 31
0.0
  0
LINE
  5
12D0B
  8
2-0
  6
CONTINUOUS
 62
     3
 10
20682.785119817359
 20
16814.597645999998
 30
0.0
 11
20682.785119817359
 21
16832.59345
 31
0.0
  0
LINE
  5
12D0C
  8
2-0
  6
CONTINUOUS
 62
     3
 10
20682.785119817359
 20
16832.59345
 30
0.0
 11
20652.787494817348
 21
16832.59345
 31
0.0
  0
LINE
  5
12D0D
  8
2-0
  6
CONTINUOUS
 62
     3
 10
20682.785119817359
 20
16822.984865999992
 30
0.0
 11
20682.785119817359
 21
16816.982965999989
 31
0.0
  0
LINE
  5
12D0E
  8
2-0
  6
CONTINUOUS
 62
     3
 10
20652.787494817348
 20
16822.984865999992
 30
0.0
 11
20682.785119817359
 21
16822.984865999992
 31
0.0
  0
LINE
  5
12D0F
  8
2-0
  6
CONTINUOUS
 62
     3
 10
20652.787494817348
 20
16832.59345
 30
0.0
 11
20652.787494817348
 21
17479.897780999989
 31
0.0
  0
LINE
  5
12D10
  8
2-0
  6
CONTINUOUS
 62
     3
 10
20652.787494817348
 20
17537.088051999988
 30
0.0
 11
20652.787494817348
 21
18180.89184199999
 31
0.0
  0
LINE
  5
12D11
  8
2-0
  6
CONTINUOUS
 62
     3
 10
20652.787494817348
 20
16677.983151
 30
0.0
 11
20682.785119817359
 21
16677.983151
 31
0.0
  0
LINE
  5
12D12
  8
2-0
  6
CONTINUOUS
 62
     3
 10
20682.785119817359
 20
16677.983151
 30
0.0
 11
20682.785119817359
 21
16683.985050999989
 31
0.0
  0
LINE
  5
12D13
  8
2-0
  6
CONTINUOUS
 62
     3
 10
20740.674160817362
 20
16707.988694
 30
0.0
 11
20655.673632817361
 21
16707.988694
 31
0.0
  0
LINE
  5
12D14
  8
2-0
  6
CONTINUOUS
 62
     3
 10
20655.673632817361
 20
16707.988694
 30
0.0
 11
20655.673632817361
 21
16727.983810999998
 31
0.0
  0
LINE
  5
12D15
  8
2-0
  6
CONTINUOUS
 62
     3
 10
20682.785119817359
 20
16668.37456800001
 30
0.0
 11
20652.787494817348
 21
16668.37456800001
 31
0.0
  0
LINE
  5
12D16
  8
2-0
  6
CONTINUOUS
 62
     3
 10
20682.785119817359
 20
16686.37037099999
 30
0.0
 11
20682.785119817359
 21
16668.37456800001
 31
0.0
  0
LINE
  5
12D17
  8
2-0
  6
CONTINUOUS
 62
     3
 10
20657.791717817348
 20
16686.37037099999
 30
0.0
 11
20682.785119817359
 21
16686.37037099999
 31
0.0
  0
LINE
  5
12D18
  8
2-0
  6
CONTINUOUS
 62
     3
 10
20657.791717817348
 20
16681.370106999999
 30
0.0
 11
20657.791717817348
 21
16686.37037099999
 31
0.0
  0
LINE
  5
12D19
  8
2-0
  6
CONTINUOUS
 62
     3
 10
20664.789315817339
 20
16681.370106999999
 30
0.0
 11
20657.791717817348
 21
16681.370106999999
 31
0.0
  0
LINE
  5
12D1A
  8
2-0
  6
CONTINUOUS
 62
     3
 10
20664.789315817339
 20
15976.887876499981
 30
0.0
 11
20657.791717817348
 21
15976.887876499981
 31
0.0
  0
LINE
  5
12D1B
  8
2-0
  6
CONTINUOUS
 62
     3
 10
20657.791717817348
 20
15976.887876499981
 30
0.0
 11
20657.791717817348
 21
15981.888140499979
 31
0.0
  0
LINE
  5
12D1C
  8
2-0
  6
CONTINUOUS
 62
     3
 10
20657.791717817348
 20
15981.888140499979
 30
0.0
 11
20682.785119817359
 21
15981.888140499979
 31
0.0
  0
LINE
  5
12D1D
  8
2-0
  6
CONTINUOUS
 62
     3
 10
20682.785119817359
 20
15981.888140499979
 30
0.0
 11
20682.785119817359
 21
15963.886398499981
 31
0.0
  0
LINE
  5
12D1E
  8
2-0
  6
CONTINUOUS
 62
     3
 10
20682.785119817359
 20
15963.886398499981
 30
0.0
 11
20652.787494817348
 21
15963.886398499981
 31
0.0
  0
LINE
  5
12D1F
  8
2-0
  6
CONTINUOUS
 62
     3
 10
20682.785119817359
 20
15979.983843499989
 30
0.0
 11
20682.785119817359
 21
15973.98689249999
 31
0.0
  0
LINE
  5
12D20
  8
2-0
  6
CONTINUOUS
 62
     3
 10
20682.785119817359
 20
15973.98689249999
 30
0.0
 11
20652.787494817348
 21
15973.98689249999
 31
0.0
  0
LINE
  5
12D21
  8
2-0
  6
CONTINUOUS
 62
     3
 10
20652.787494817348
 20
15973.98689249999
 30
0.0
 11
20652.787494817348
 21
16010.987063500001
 31
0.0
  0
LINE
  5
12D22
  8
2-0
  6
CONTINUOUS
 62
     3
 10
20682.785119817359
 20
16010.987063500001
 30
0.0
 11
20652.787494817348
 21
16010.987063500001
 31
0.0
  0
LINE
  5
12D23
  8
2-0
  6
CONTINUOUS
 62
     3
 10
20682.785119817359
 20
16004.98417349999
 30
0.0
 11
20682.785119817359
 21
16010.987063500001
 31
0.0
  0
LINE
  5
12D24
  8
2-0
  6
CONTINUOUS
 62
     3
 10
20682.785119817359
 20
16021.082608500001
 30
0.0
 11
20652.787494817348
 21
16021.082608500001
 31
0.0
  0
LINE
  5
12D25
  8
2-0
  6
CONTINUOUS
 62
     3
 10
20682.785119817359
 20
16003.074927499991
 30
0.0
 11
20682.785119817359
 21
16021.082608500001
 31
0.0
  0
LINE
  5
12D26
  8
2-0
  6
CONTINUOUS
 62
     3
 10
20657.791717817348
 20
16003.074927499991
 30
0.0
 11
20682.785119817359
 21
16003.074927499991
 31
0.0
  0
LINE
  5
12D27
  8
2-0
  6
CONTINUOUS
 62
     3
 10
20657.791717817348
 20
16008.081130500001
 30
0.0
 11
20657.791717817348
 21
16003.074927499991
 31
0.0
  0
LINE
  5
12D28
  8
2-0
  6
CONTINUOUS
 62
     3
 10
20664.789315817339
 20
16008.081130500001
 30
0.0
 11
20657.791717817348
 21
16008.081130500001
 31
0.0
  0
LINE
  5
12D29
  8
2-0
  6
CONTINUOUS
 62
     3
 10
20664.789315817339
 20
15307.32114700001
 30
0.0
 11
20657.791717817348
 21
15307.32114700001
 31
0.0
  0
LINE
  5
12D2A
  8
2-0
  6
CONTINUOUS
 62
     3
 10
20657.791717817348
 20
15307.32114700001
 30
0.0
 11
20657.791717817348
 21
15302.326822000001
 31
0.0
  0
LINE
  5
12D2B
  8
2-0
  6
CONTINUOUS
 62
     3
 10
20657.791717817348
 20
15302.326822000001
 30
0.0
 11
20682.785119817359
 21
15302.326822000001
 31
0.0
  0
LINE
  5
12D2C
  8
2-0
  6
CONTINUOUS
 62
     3
 10
20682.785119817359
 20
15302.326822000001
 30
0.0
 11
20682.785119817359
 21
15320.322625000001
 31
0.0
  0
LINE
  5
12D2D
  8
2-0
  6
CONTINUOUS
 62
     3
 10
20682.785119817359
 20
15320.322625000001
 30
0.0
 11
20652.787494817348
 21
15320.322625000001
 31
0.0
  0
LINE
  5
12D2E
  8
2-0
  6
CONTINUOUS
 62
     3
 10
20682.785119817359
 20
15304.225179999999
 30
0.0
 11
20682.785119817359
 21
15310.22708000001
 31
0.0
  0
LINE
  5
12D2F
  8
2-0
  6
CONTINUOUS
 62
     3
 10
20682.785119817359
 20
15310.22708000001
 30
0.0
 11
20652.787494817348
 21
15310.22708000001
 31
0.0
  0
LINE
  5
12D30
  8
2-0
  6
CONTINUOUS
 62
     3
 10
20652.787494817348
 20
15273.22789900001
 30
0.0
 11
20652.787494817348
 21
15310.22708000001
 31
0.0
  0
LINE
  5
12D31
  8
2-0
  6
CONTINUOUS
 62
     3
 10
20682.785119817359
 20
15273.22789900001
 30
0.0
 11
20652.787494817348
 21
15273.22789900001
 31
0.0
  0
LINE
  5
12D32
  8
2-0
  6
CONTINUOUS
 62
     3
 10
20682.785119817359
 20
15279.22484999999
 30
0.0
 11
20682.785119817359
 21
15273.22789900001
 31
0.0
  0
LINE
  5
12D33
  8
2-0
  6
CONTINUOUS
 62
     3
 10
20682.785119817359
 20
15263.126415000001
 30
0.0
 11
20652.787494817348
 21
15263.126415000001
 31
0.0
  0
LINE
  5
12D34
  8
2-0
  6
CONTINUOUS
 62
     3
 10
20682.785119817359
 20
15281.134096
 30
0.0
 11
20682.785119817359
 21
15263.126415000001
 31
0.0
  0
LINE
  5
12D35
  8
2-0
  6
CONTINUOUS
 62
     3
 10
20657.791717817348
 20
15281.134096
 30
0.0
 11
20682.785119817359
 21
15281.134096
 31
0.0
  0
LINE
  5
12D36
  8
2-0
  6
CONTINUOUS
 62
     3
 10
20657.791717817348
 20
15276.13383200001
 30
0.0
 11
20657.791717817348
 21
15281.134096
 31
0.0
  0
LINE
  5
12D37
  8
2-0
  6
CONTINUOUS
 62
     3
 10
20664.789315817339
 20
15276.13383200001
 30
0.0
 11
20657.791717817348
 21
15276.13383200001
 31
0.0
  0
LINE
  5
12D38
  8
2-0
  6
CONTINUOUS
 62
     3
 10
20652.787494817348
 20
16668.37456800001
 30
0.0
 11
20652.787494817348
 21
16021.082608500001
 31
0.0
  0
LINE
  5
12D39
  8
2-0
  6
CONTINUOUS
 62
     3
 10
20652.787494817348
 20
16822.984865999992
 30
0.0
 11
20652.787494817348
 21
16677.983151
 31
0.0
  0
LINE
  5
12D3A
  8
2-0
  6
CONTINUOUS
 62
     3
 10
20740.674160817362
 20
16792.985261999998
 30
0.0
 11
20740.674160817362
 21
16707.988694
 31
0.0
  0
LINE
  5
12D3B
  8
2-0
  6
CONTINUOUS
 62
     3
 10
20664.789315817339
 20
14574.892825000001
 30
0.0
 11
20657.791717817348
 21
14574.892825000001
 31
0.0
  0
LINE
  5
12D3C
  8
2-0
  6
CONTINUOUS
 62
     3
 10
20657.791717817348
 20
14574.892825000001
 30
0.0
 11
20657.791717817348
 21
14579.887151000001
 31
0.0
  0
LINE
  5
12D3D
  8
2-0
  6
CONTINUOUS
 62
     3
 10
20657.791717817348
 20
14579.887151000001
 30
0.0
 11
20682.785119817359
 21
14579.887151000001
 31
0.0
  0
LINE
  5
12D3E
  8
2-0
  6
CONTINUOUS
 62
     3
 10
20682.785119817359
 20
14579.887151000001
 30
0.0
 11
20682.785119817359
 21
14561.891347000001
 31
0.0
  0
LINE
  5
12D3F
  8
2-0
  6
CONTINUOUS
 62
     3
 10
20682.785119817359
 20
14561.891347000001
 30
0.0
 11
20652.787494817348
 21
14561.891347000001
 31
0.0
  0
LINE
  5
12D40
  8
2-0
  6
CONTINUOUS
 62
     3
 10
20682.785119817359
 20
14577.98978200001
 30
0.0
 11
20682.785119817359
 21
14571.986892000001
 31
0.0
  0
LINE
  5
12D41
  8
2-0
  6
CONTINUOUS
 62
     3
 10
20682.785119817359
 20
14571.986892000001
 30
0.0
 11
20652.787494817348
 21
14571.986892000001
 31
0.0
  0
LINE
  5
12D42
  8
2-0
  6
CONTINUOUS
 62
     3
 10
20652.787494817348
 20
14571.986892000001
 30
0.0
 11
20652.787494817348
 21
14608.987063999981
 31
0.0
  0
LINE
  5
12D43
  8
2-0
  6
CONTINUOUS
 62
     3
 10
20682.785119817359
 20
14608.987063999981
 30
0.0
 11
20652.787494817348
 21
14608.987063999981
 31
0.0
  0
LINE
  5
12D44
  8
2-0
  6
CONTINUOUS
 62
     3
 10
20682.785119817359
 20
14602.990111999999
 30
0.0
 11
20682.785119817359
 21
14608.987063999981
 31
0.0
  0
LINE
  5
12D45
  8
2-0
  6
CONTINUOUS
 62
     3
 10
20682.785119817359
 20
14619.087557000001
 30
0.0
 11
20652.787494817348
 21
14619.087557000001
 31
0.0
  0
LINE
  5
12D46
  8
2-0
  6
CONTINUOUS
 62
     3
 10
20682.785119817359
 20
14601.080866000009
 30
0.0
 11
20682.785119817359
 21
14619.087557000001
 31
0.0
  0
LINE
  5
12D47
  8
2-0
  6
CONTINUOUS
 62
     3
 10
20657.791717817348
 20
14601.080866000009
 30
0.0
 11
20682.785119817359
 21
14601.080866000009
 31
0.0
  0
LINE
  5
12D48
  8
2-0
  6
CONTINUOUS
 62
     3
 10
20657.791717817348
 20
14606.08607900001
 30
0.0
 11
20657.791717817348
 21
14601.080866000009
 31
0.0
  0
LINE
  5
12D49
  8
2-0
  6
CONTINUOUS
 62
     3
 10
20664.789315817339
 20
14606.08607900001
 30
0.0
 11
20657.791717817348
 21
14606.08607900001
 31
0.0
  0
LINE
  5
12D4A
  8
2-0
  6
CONTINUOUS
 62
     3
 10
20682.785119817359
 20
14249.488904999989
 30
0.0
 11
20682.785119817359
 21
14255.493774
 31
0.0
  0
LINE
  5
12D4B
  8
2-0
  6
CONTINUOUS
 62
     3
 10
20682.785119817359
 20
14255.493774
 30
0.0
 11
20652.787494817348
 21
14255.493774
 31
0.0
  0
LINE
  5
12D4C
  8
2-0
  6
CONTINUOUS
 62
     3
 10
20652.787494817348
 20
14255.493774
 30
0.0
 11
20652.787494817348
 21
14140.489682999991
 31
0.0
  0
LINE
  5
12D4D
  8
2-0
  6
CONTINUOUS
 62
     3
 10
20652.787494817348
 20
14140.489682999991
 30
0.0
 11
20737.786042817352
 21
14140.489682999991
 31
0.0
  0
LINE
  5
12D4E
  8
2-0
  6
CONTINUOUS
 62
     3
 10
20737.786042817352
 20
14140.489682999991
 30
0.0
 11
20737.786042817352
 21
14225.485262
 31
0.0
  0
LINE
  5
12D4F
  8
2-0
  6
CONTINUOUS
 62
     3
 10
20737.786042817352
 20
14225.485262
 30
0.0
 11
20705.789104817351
 21
14225.485262
 31
0.0
  0
LINE
  5
12D50
  8
2-0
  6
CONTINUOUS
 62
     3
 10
20664.789315817339
 20
14252.523506999991
 30
0.0
 11
20657.791717817348
 21
14252.523506999991
 31
0.0
  0
LINE
  5
12D51
  8
2-0
  6
CONTINUOUS
 62
     3
 10
20657.791717817348
 20
14252.523506999991
 30
0.0
 11
20657.791717817348
 21
14247.526211999981
 31
0.0
  0
LINE
  5
12D52
  8
2-0
  6
CONTINUOUS
 62
     3
 10
20657.791717817348
 20
14247.526211999981
 30
0.0
 11
20682.785119817359
 21
14247.526211999981
 31
0.0
  0
LINE
  5
12D53
  8
2-0
  6
CONTINUOUS
 62
     3
 10
20682.785119817359
 20
14247.526211999981
 30
0.0
 11
20682.785119817359
 21
14265.524985
 31
0.0
  0
LINE
  5
12D54
  8
2-0
  6
CONTINUOUS
 62
     3
 10
20682.785119817359
 20
14265.524985
 30
0.0
 11
20652.787494817348
 21
14265.524985
 31
0.0
  0
LINE
  5
12D55
  8
2-0
  6
CONTINUOUS
 62
     3
 10
20652.787494817348
 20
14619.087557000001
 30
0.0
 11
20652.787494817348
 21
15263.126415000001
 31
0.0
  0
LINE
  5
12D56
  8
2-0
  6
CONTINUOUS
 62
     3
 10
20652.787494817348
 20
18238.082114000001
 30
0.0
 11
20652.787494817348
 21
18881.892831499979
 31
0.0
  0
LINE
  5
12D57
  8
2-0
  6
CONTINUOUS
 62
     3
 10
20652.787494817348
 20
15963.886398499981
 30
0.0
 11
20652.787494817348
 21
15320.322625000001
 31
0.0
  0
LINE
  5
12D58
  8
2-0
  6
CONTINUOUS
 62
     3
 10
23655.782083817361
 20
19245.489090000021
 30
0.0
 11
23655.782083817361
 21
19360.48526300002
 31
0.0
  0
LINE
  5
12D59
  8
2-0
  6
CONTINUOUS
 62
     3
 10
20652.787494817348
 20
19275.488694
 30
0.0
 11
23574.780183817329
 21
19275.488694
 31
0.0
  0
LINE
  5
12D5A
  8
2-0
  6
CONTINUOUS
 62
     3
 10
20652.787494817348
 20
14265.524985
 30
0.0
 11
20652.787494817348
 21
14561.891347000001
 31
0.0
  0
LINE
  5
12D5B
  8
2-0
  6
CONTINUOUS
 62
     3
 10
23655.782083817361
 20
19235.191633999992
 30
0.0
 11
23655.782083817361
 21
18939.08310349999
 31
0.0
  0
LINE
  5
12D5C
  8
2-0
  6
CONTINUOUS
 62
     3
 10
20652.787494817348
 20
19235.191633999992
 30
0.0
 11
20652.787494817348
 21
18939.083103499961
 31
0.0
  0
LINE
  5
12D5D
  8
2-0
  6
CONTINUOUS
 62
     3
 10
20733.785435817361
 20
14225.485262
 30
0.0
 11
20733.785435817361
 21
19360.48526300002
 31
0.0
  0
LINE
  5
12D5E
  8
2-0
  6
CONTINUOUS
 62
     3
 10
23574.780183817329
 20
14225.485262
 30
0.0
 11
23574.780183817329
 21
19360.48526300002
 31
0.0
  0
TEXT
  5
12D5F
  8
2-0
  6
CONTINUOUS
 62
     7
 10
21466.438492823108
 20
13622.99119300269
 30
0.0
 40
160.0
  1
前柱（左）
 50
359.99978700000003
 72
     4
 11
21882.43879022434
 21
13702.98964650079
 31
0.0
  0
TEXT
  5
12D60
  8
2-0
  6
CONTINUOUS
 62
     7
 10
21368.510036487489
 20
16200.977875276511
 30
0.0
 40
160.0
  1
壁パネル
 50
0.0001770000000167
 72
     4
 11
21731.176456013811
 21
16280.978995637881
 31
0.0
  0
TEXT
  5
12D61
  8
2-0
  6
CONTINUOUS
 62
     7
 10
21339.179607170448
 20
17038.174404652349
 30
0.0
 40
160.0
  1
中柱（左右）
 50
359.99964599999998
 72
     4
 11
21856.51343477115
 21
17118.171208324649
 31
0.0
  0
TEXT
  5
12D62
  8
2-0
  6
CONTINUOUS
 62
     7
 10
21352.510696542791
 20
14596.03569870611
 30
0.0
 40
160.0
  1
下枠
 50
359.99893700000001
 72
     4
 11
21523.178847408079
 21
14676.032532339281
 31
0.0
  0
TEXT
  5
12D63
  8
2-0
  6
CONTINUOUS
 62
     7
 10
21356.211939150671
 20
18641.436750499979
 30
0.0
 40
160.0
  1
間柱（側）
 72
     4
 11
21777.545272484011
 21
18721.436750499979
 31
0.0
  0
TEXT
  5
12D64
  8
2-0
  6
CONTINUOUS
 62
     7
 10
18856.288286836902
 20
20170.490797748731
 30
0.0
 40
160.0
  1
後柱（左右）
 50
359.99964599999998
 72
     4
 11
19368.288781104369
 21
20250.487634372828
 31
0.0
  0
LINE
  5
12D65
  8
2-0
  6
CONTINUOUS
 62
     3
 10
22873.784380817349
 20
19360.48526300002
 30
0.0
 11
22836.78321881736
 21
19360.48526300002
 31
0.0
  0
LINE
  5
12D66
  8
2-0
  6
CONTINUOUS
 62
     3
 10
22873.784380817349
 20
19330.4817
 30
0.0
 11
22873.784380817349
 21
19360.48526300002
 31
0.0
  0
LINE
  5
12D67
  8
2-0
  6
CONTINUOUS
 62
     3
 10
22867.78445981734
 20
19330.4817
 30
0.0
 11
22873.784380817349
 21
19330.4817
 31
0.0
  0
LINE
  5
12D68
  8
2-0
  6
CONTINUOUS
 62
     3
 10
22883.881904817361
 20
19330.4817
 30
0.0
 11
22883.881904817361
 21
19360.48526300002
 31
0.0
  0
LINE
  5
12D69
  8
2-0
  6
CONTINUOUS
 62
     3
 10
22865.87818381736
 20
19330.4817
 30
0.0
 11
22883.881904817361
 21
19330.4817
 31
0.0
  0
LINE
  5
12D6A
  8
2-0
  6
CONTINUOUS
 62
     3
 10
22865.87818381736
 20
19355.49093700001
 30
0.0
 11
22865.87818381736
 21
19330.4817
 31
0.0
  0
LINE
  5
12D6B
  8
2-0
  6
CONTINUOUS
 62
     3
 10
22870.878447817358
 20
19355.49093700001
 30
0.0
 11
22865.87818381736
 21
19355.49093700001
 31
0.0
  0
LINE
  5
12D6C
  8
2-0
  6
CONTINUOUS
 62
     3
 10
22870.878447817358
 20
19348.485421000001
 30
0.0
 11
22870.878447817358
 21
19355.49093700001
 31
0.0
  0
LINE
  5
12D6D
  8
2-0
  6
CONTINUOUS
 62
     3
 10
22839.689152817351
 20
19348.485421000001
 30
0.0
 11
22839.689152817351
 21
19355.49093700001
 31
0.0
  0
LINE
  5
12D6E
  8
2-0
  6
CONTINUOUS
 62
     3
 10
22839.689152817351
 20
19355.49093700001
 30
0.0
 11
22844.68941681736
 21
19355.49093700001
 31
0.0
  0
LINE
  5
12D6F
  8
2-0
  6
CONTINUOUS
 62
     3
 10
22844.68941681736
 20
19355.49093700001
 30
0.0
 11
22844.68941681736
 21
19330.4817
 31
0.0
  0
LINE
  5
12D70
  8
2-0
  6
CONTINUOUS
 62
     3
 10
22844.68941681736
 20
19330.4817
 30
0.0
 11
22826.689653817361
 21
19330.4817
 31
0.0
  0
LINE
  5
12D71
  8
2-0
  6
CONTINUOUS
 62
     3
 10
22826.689653817361
 20
19330.4817
 30
0.0
 11
22826.689653817361
 21
19360.48526300002
 31
0.0
  0
LINE
  5
12D72
  8
2-0
  6
CONTINUOUS
 62
     3
 10
22842.783139817358
 20
19330.4817
 30
0.0
 11
22836.78321881736
 21
19330.4817
 31
0.0
  0
LINE
  5
12D73
  8
2-0
  6
CONTINUOUS
 62
     3
 10
22836.78321881736
 20
19330.4817
 30
0.0
 11
22836.78321881736
 21
19360.48526300002
 31
0.0
  0
LINE
  5
12D74
  8
2-0
  6
CONTINUOUS
 62
     3
 10
21468.87349831736
 20
19348.485421000001
 30
0.0
 11
21468.87349831736
 21
19355.49093700001
 31
0.0
  0
LINE
  5
12D75
  8
2-0
  6
CONTINUOUS
 62
     3
 10
21468.87349831736
 20
19355.49093700001
 30
0.0
 11
21463.873234317351
 21
19355.49093700001
 31
0.0
  0
LINE
  5
12D76
  8
2-0
  6
CONTINUOUS
 62
     3
 10
21463.873234317351
 20
19355.49093700001
 30
0.0
 11
21463.873234317351
 21
19330.4817
 31
0.0
  0
LINE
  5
12D77
  8
2-0
  6
CONTINUOUS
 62
     3
 10
21463.873234317351
 20
19330.4817
 30
0.0
 11
21481.87893531736
 21
19330.4817
 31
0.0
  0
LINE
  5
12D78
  8
2-0
  6
CONTINUOUS
 62
     3
 10
21481.87893531736
 20
19330.4817
 30
0.0
 11
21481.87893531736
 21
19360.48526300002
 31
0.0
  0
LINE
  5
12D79
  8
2-0
  6
CONTINUOUS
 62
     3
 10
21465.781490317338
 20
19330.4817
 30
0.0
 11
21471.78339031736
 21
19330.4817
 31
0.0
  0
LINE
  5
12D7A
  8
2-0
  6
CONTINUOUS
 62
     3
 10
21471.78339031736
 20
19330.4817
 30
0.0
 11
21471.78339031736
 21
19360.48526300002
 31
0.0
  0
LINE
  5
12D7B
  8
2-0
  6
CONTINUOUS
 62
     3
 10
21434.784209317349
 20
19360.48526300002
 30
0.0
 11
21471.78339031736
 21
19360.48526300002
 31
0.0
  0
LINE
  5
12D7C
  8
2-0
  6
CONTINUOUS
 62
     3
 10
21434.784209317349
 20
19330.4817
 30
0.0
 11
21434.784209317349
 21
19360.48526300002
 31
0.0
  0
LINE
  5
12D7D
  8
2-0
  6
CONTINUOUS
 62
     3
 10
21440.77819131736
 20
19330.4817
 30
0.0
 11
21434.784209317349
 21
19330.4817
 31
0.0
  0
LINE
  5
12D7E
  8
2-0
  6
CONTINUOUS
 62
     3
 10
21424.688664317371
 20
19330.4817
 30
0.0
 11
21424.688664317371
 21
19360.48526300002
 31
0.0
  0
LINE
  5
12D7F
  8
2-0
  6
CONTINUOUS
 62
     3
 10
21442.684467317351
 20
19330.4817
 30
0.0
 11
21424.688664317371
 21
19330.4817
 31
0.0
  0
LINE
  5
12D80
  8
2-0
  6
CONTINUOUS
 62
     3
 10
21442.684467317351
 20
19355.49093700001
 30
0.0
 11
21442.684467317351
 21
19330.4817
 31
0.0
  0
LINE
  5
12D81
  8
2-0
  6
CONTINUOUS
 62
     3
 10
21437.68420331736
 20
19355.49093700001
 30
0.0
 11
21442.684467317351
 21
19355.49093700001
 31
0.0
  0
LINE
  5
12D82
  8
2-0
  6
CONTINUOUS
 62
     3
 10
21437.68420331736
 20
19348.485421000001
 30
0.0
 11
21437.68420331736
 21
19355.49093700001
 31
0.0
  0
LINE
  5
12D83
  8
2-0
  6
CONTINUOUS
 62
     3
 10
22138.683214317349
 20
19348.485421000001
 30
0.0
 11
22138.683214317349
 21
19355.49093700001
 31
0.0
  0
LINE
  5
12D84
  8
2-0
  6
CONTINUOUS
 62
     3
 10
22138.683214317349
 20
19355.49093700001
 30
0.0
 11
22143.68347731735
 21
19355.49093700001
 31
0.0
  0
LINE
  5
12D85
  8
2-0
  6
CONTINUOUS
 62
     3
 10
22143.68347731735
 20
19355.49093700001
 30
0.0
 11
22143.68347731735
 21
19330.4817
 31
0.0
  0
LINE
  5
12D86
  8
2-0
  6
CONTINUOUS
 62
     3
 10
22143.68347731735
 20
19330.4817
 30
0.0
 11
22125.68965431735
 21
19330.4817
 31
0.0
  0
LINE
  5
12D87
  8
2-0
  6
CONTINUOUS
 62
     3
 10
22125.68965431735
 20
19330.4817
 30
0.0
 11
22125.68965431735
 21
19360.48526300002
 31
0.0
  0
LINE
  5
12D88
  8
2-0
  6
CONTINUOUS
 62
     3
 10
22141.781160317329
 20
19330.4817
 30
0.0
 11
22135.783219317349
 21
19330.4817
 31
0.0
  0
LINE
  5
12D89
  8
2-0
  6
CONTINUOUS
 62
     3
 10
22135.783219317349
 20
19330.4817
 30
0.0
 11
22135.783219317349
 21
19360.48526300002
 31
0.0
  0
LINE
  5
12D8A
  8
2-0
  6
CONTINUOUS
 62
     3
 10
22172.784380317349
 20
19360.48526300002
 30
0.0
 11
22135.783219317349
 21
19360.48526300002
 31
0.0
  0
LINE
  5
12D8B
  8
2-0
  6
CONTINUOUS
 62
     3
 10
22172.784380317349
 20
19330.4817
 30
0.0
 11
22172.784380317349
 21
19360.48526300002
 31
0.0
  0
LINE
  5
12D8C
  8
2-0
  6
CONTINUOUS
 62
     3
 10
22166.778521317359
 20
19330.4817
 30
0.0
 11
22172.784380317349
 21
19330.4817
 31
0.0
  0
LINE
  5
12D8D
  8
2-0
  6
CONTINUOUS
 62
     3
 10
22182.877945317359
 20
19330.4817
 30
0.0
 11
22182.877945317359
 21
19360.48526300002
 31
0.0
  0
LINE
  5
12D8E
  8
2-0
  6
CONTINUOUS
 62
     3
 10
22164.88214231735
 20
19330.4817
 30
0.0
 11
22182.877945317359
 21
19330.4817
 31
0.0
  0
LINE
  5
12D8F
  8
2-0
  6
CONTINUOUS
 62
     3
 10
22164.88214231735
 20
19355.49093700001
 30
0.0
 11
22164.88214231735
 21
19330.4817
 31
0.0
  0
LINE
  5
12D90
  8
2-0
  6
CONTINUOUS
 62
     3
 10
22169.872508317349
 20
19355.49093700001
 30
0.0
 11
22164.88214231735
 21
19355.49093700001
 31
0.0
  0
LINE
  5
12D91
  8
2-0
  6
CONTINUOUS
 62
     3
 10
22169.872508317349
 20
19348.485421000001
 30
0.0
 11
22169.872508317349
 21
19355.49093700001
 31
0.0
  0
LINE
  5
12D92
  8
2-0
  6
CONTINUOUS
 62
     3
 10
21481.87893531736
 20
19360.48526300002
 30
0.0
 11
22125.68965431735
 21
19360.48526300002
 31
0.0
  0
LINE
  5
12D93
  8
2-0
  6
CONTINUOUS
 62
     3
 10
20778.089041817351
 20
19360.48526300002
 30
0.0
 11
21424.688664317371
 21
19360.48526300002
 31
0.0
  0
LINE
  5
12D94
  8
2-0
  6
CONTINUOUS
 62
     3
 10
23531.16742981736
 20
19360.48526300002
 30
0.0
 11
22883.881904817361
 21
19360.48526300002
 31
0.0
  0
LINE
  5
12D95
  8
2-0
  6
CONTINUOUS
 62
     3
 10
22826.689653817361
 20
19360.48526300002
 30
0.0
 11
22182.877945317359
 21
19360.48526300002
 31
0.0
  0
LINE
  5
12D96
  8
2-0
  6
CONTINUOUS
 62
     3
 10
23655.782083817361
 20
15263.12641500001
 30
0.0
 11
23655.782083817361
 21
14619.087557000001
 31
0.0
  0
LINE
  5
12D97
  8
2-0
  6
CONTINUOUS
 62
     3
 10
23655.782083817361
 20
14561.891347000001
 30
0.0
 11
23655.782083817361
 21
14265.524985
 31
0.0
  0
LINE
  5
12D98
  8
0-6
  6
CONTINUOUS
 62
     6
 10
23612.459541317359
 20
18649.167034999999
 30
0.0
 11
22587.41929131735
 21
18649.167034999999
 31
0.0
  0
LINE
  5
12D99
  8
0-6
  6
CONTINUOUS
 62
     6
 10
22287.49451331735
 20
19206.520287000021
 30
0.0
 11
22182.878935317349
 21
19330.4817
 31
0.0
  0
LINE
  5
12D9A
  8
0-6
  6
CONTINUOUS
 62
     6
 10
22182.878935317349
 20
19330.4817
 30
0.0
 11
22241.63698531736
 21
19179.290030000011
 31
0.0
  0
LINE
  5
12D9B
  8
0-6
  6
CONTINUOUS
 62
     6
 10
22182.878935317349
 20
19330.4817
 30
0.0
 11
22287.49451331735
 21
19206.520287000021
 31
0.0
  0
LINE
  5
12D9C
  8
0-6
  6
CONTINUOUS
 62
     6
 10
22287.49451331735
 20
19206.520287000021
 30
0.0
 11
22241.63698531736
 21
19179.290030000011
 31
0.0
  0
LINE
  5
12D9D
  8
0-6
  6
CONTINUOUS
 62
     6
 10
22241.63698531736
 20
19179.290030000011
 30
0.0
 11
22182.878935317349
 21
19330.4817
 31
0.0
  0
LINE
  5
12D9E
  8
0-6
  6
CONTINUOUS
 62
     6
 10
22241.63698531736
 20
19179.290030000011
 30
0.0
 11
22287.49451331735
 21
19206.520287000021
 31
0.0
  0
LINE
  5
12D9F
  8
0-6
  6
CONTINUOUS
 62
     6
 10
22264.56574931736
 20
19192.90713800001
 30
0.0
 11
22587.41929131735
 21
18649.167034999999
 31
0.0
  0
TEXT
  5
12DA0
  8
0-6
  6
CONTINUOUS
 62
     7
 10
22689.792610650678
 20
18729.169279000002
 30
0.0
 40
160.0
  1
間柱（後）
 72
     4
 11
23111.125943984021
 21
18809.169279000002
 31
0.0
  0
LINE
  5
12DA1
  8
SUNPOU
  6
CONTINUOUS
 62
     4
 10
20695.28379981736
 20
19440.48526300002
 30
0.0
 11
20695.28379981736
 21
20170.488166000021
 31
0.0
  0
LINE
  5
12DA2
  8
SUNPOU
  6
CONTINUOUS
 62
     4
 10
21453.283799817349
 20
19440.48526300002
 30
0.0
 11
21453.283799817349
 21
20170.488166000021
 31
0.0
  0
LINE
  5
12DA3
  8
SUNPOU
  6
CONTINUOUS
 62
     4
 10
20695.28379981736
 20
20090.488166000021
 30
0.0
 11
21453.283799817349
 21
20090.488166000021
 31
0.0
  0
LINE
  5
12DA4
  8
SUNPOU
  6
CONTINUOUS
 62
     4
 10
20572.785515817352
 20
14590.607233750001
 30
0.0
 11
19522.784195817349
 21
14590.607233750001
 31
0.0
  0
LINE
  5
12DA5
  8
SUNPOU
  6
CONTINUOUS
 62
     4
 10
19722.784195817349
 20
14183.107233750001
 30
0.0
 11
19522.784195817349
 21
14183.107233750001
 31
0.0
  0
LINE
  5
12DA6
  8
SUNPOU
  6
CONTINUOUS
 62
     4
 10
19602.784195817349
 20
14590.607233750001
 30
0.0
 11
19602.784195817349
 21
14183.107233750001
 31
0.0
  0
LINE
  5
12DA7
  8
SUNPOU
  6
CONTINUOUS
 62
     4
 10
20572.785515817352
 20
18910.48697799999
 30
0.0
 11
19522.784195817349
 21
18910.48697799999
 31
0.0
  0
LINE
  5
12DA8
  8
SUNPOU
  6
CONTINUOUS
 62
     4
 10
19722.784195817349
 20
19317.98697799999
 30
0.0
 11
19522.784195817349
 21
19317.98697799999
 31
0.0
  0
LINE
  5
12DA9
  8
SUNPOU
  6
CONTINUOUS
 62
     4
 10
19602.784195817349
 20
18910.48697799999
 30
0.0
 11
19602.784195817349
 21
19317.98697799999
 31
0.0
  0
LINE
  5
12DAA
  8
SUNPOU
  6
CONTINUOUS
 62
     4
 10
20695.28379981736
 20
13477.223543999989
 30
0.0
 11
20695.28379981736
 21
13131.538893999999
 31
0.0
  0
LINE
  5
12DAB
  8
SUNPOU
  6
CONTINUOUS
 62
     4
 10
20652.781556817368
 20
14060.489682999991
 30
0.0
 11
20652.781556817368
 21
13131.538893999999
 31
0.0
  0
LINE
  5
12DAC
  8
SUNPOU
  6
CONTINUOUS
 62
     4
 10
20695.28379981736
 20
13211.538893999999
 30
0.0
 11
20935.28379981736
 21
13211.538893999999
 31
0.0
  0
LINE
  5
12DAD
  8
SUNPOU
  6
CONTINUOUS
 62
     4
 10
20652.781556817368
 20
13211.538893999999
 30
0.0
 11
20412.781556817368
 21
13211.538893999999
 31
0.0
  0
LINE
  5
12DAE
  8
SUNPOU
  6
CONTINUOUS
 62
     4
 10
20695.28379981736
 20
13211.538893999999
 30
0.0
 11
20652.781556817368
 21
13211.538893999999
 31
0.0
  0
LINE
  5
12DAF
  8
SUNPOU
  6
CONTINUOUS
 62
     4
 10
23613.283799817371
 20
13477.223543999989
 30
0.0
 11
23613.283799817371
 21
13131.538893999999
 31
0.0
  0
LINE
  5
12DB0
  8
SUNPOU
  6
CONTINUOUS
 62
     4
 10
23655.786042817352
 20
14060.489682999991
 30
0.0
 11
23655.786042817352
 21
13131.538893999999
 31
0.0
  0
LINE
  5
12DB1
  8
SUNPOU
  6
CONTINUOUS
 62
     4
 10
23613.283799817371
 20
13211.538893999999
 30
0.0
 11
23373.283799817371
 21
13211.538893999999
 31
0.0
  0
LINE
  5
12DB2
  8
SUNPOU
  6
CONTINUOUS
 62
     4
 10
23655.786042817352
 20
13211.538893999999
 30
0.0
 11
23895.786042817352
 21
13211.538893999999
 31
0.0
  0
LINE
  5
12DB3
  8
SUNPOU
  6
CONTINUOUS
 62
     4
 10
23613.283799817371
 20
13211.538893999999
 30
0.0
 11
23655.786042817352
 21
13211.538893999999
 31
0.0
  0
LINE
  5
12DB4
  8
SUNPOU
  6
CONTINUOUS
 62
     4
 10
23613.283799817371
 20
13477.223543999989
 30
0.0
 11
23613.283799817371
 21
13131.538893999999
 31
0.0
  0
LINE
  5
12DB5
  8
SUNPOU
  6
CONTINUOUS
 62
     4
 10
23570.78155681735
 20
14060.489682999991
 30
0.0
 11
23570.78155681735
 21
13131.538893999999
 31
0.0
  0
LINE
  5
12DB6
  8
SUNPOU
  6
CONTINUOUS
 62
     4
 10
23613.283799817371
 20
13211.538893999999
 30
0.0
 11
23853.283799817371
 21
13211.538893999999
 31
0.0
  0
LINE
  5
12DB7
  8
SUNPOU
  6
CONTINUOUS
 62
     4
 10
23570.78155681735
 20
13211.538893999999
 30
0.0
 11
23330.78155681735
 21
13211.538893999999
 31
0.0
  0
LINE
  5
12DB8
  8
SUNPOU
  6
CONTINUOUS
 62
     4
 10
23613.283799817371
 20
13211.538893999999
 30
0.0
 11
23570.78155681735
 21
13211.538893999999
 31
0.0
  0
LINE
  5
12DB9
  8
SUNPOU
  6
CONTINUOUS
 62
     4
 10
20695.28379981736
 20
13477.223543999989
 30
0.0
 11
20695.28379981736
 21
13131.538893999999
 31
0.0
  0
LINE
  5
12DBA
  8
SUNPOU
  6
CONTINUOUS
 62
     4
 10
20737.786042817352
 20
14060.489682999991
 30
0.0
 11
20737.786042817352
 21
13131.538893999999
 31
0.0
  0
LINE
  5
12DBB
  8
SUNPOU
  6
CONTINUOUS
 62
     4
 10
20695.28379981736
 20
13211.538893999999
 30
0.0
 11
20455.283799817349
 21
13211.538893999999
 31
0.0
  0
LINE
  5
12DBC
  8
SUNPOU
  6
CONTINUOUS
 62
     4
 10
20737.786042817352
 20
13211.538893999999
 30
0.0
 11
20977.786042817359
 21
13211.538893999999
 31
0.0
  0
LINE
  5
12DBD
  8
SUNPOU
  6
CONTINUOUS
 62
     4
 10
20695.28379981736
 20
13211.538893999999
 30
0.0
 11
20737.786042817352
 21
13211.538893999999
 31
0.0
  0
LINE
  5
12DBE
  8
SUNPOU
  6
CONTINUOUS
 62
     4
 10
20652.781556817368
 20
14060.489682999991
 30
0.0
 11
20652.781556817368
 21
12731.538893999999
 31
0.0
  0
LINE
  5
12DBF
  8
SUNPOU
  6
CONTINUOUS
 62
     4
 10
23655.786042817352
 20
14060.489682999991
 30
0.0
 11
23655.786042817352
 21
12731.538893999999
 31
0.0
  0
LINE
  5
12DC0
  8
SUNPOU
  6
CONTINUOUS
 62
     4
 10
20652.781556817368
 20
12811.538893999999
 30
0.0
 11
23655.786042817352
 21
12811.538893999999
 31
0.0
  0
LINE
  5
12DC1
  8
SUNPOU
  6
CONTINUOUS
 62
     4
 10
20572.785515817352
 20
15291.727489500019
 30
0.0
 11
19522.784195817349
 21
15291.727489500019
 31
0.0
  0
LINE
  5
12DC2
  8
SUNPOU
  6
CONTINUOUS
 62
     4
 10
20572.785515817352
 20
14590.48697799999
 30
0.0
 11
19522.784195817349
 21
14590.48697799999
 31
0.0
  0
LINE
  5
12DC3
  8
SUNPOU
  6
CONTINUOUS
 62
     4
 10
19602.784195817349
 20
15291.727489500019
 30
0.0
 11
19602.784195817349
 21
14590.48697799999
 31
0.0
  0
LINE
  5
12DC4
  8
SUNPOU
  6
CONTINUOUS
 62
     4
 10
20572.785515817352
 20
15992.486978000001
 30
0.0
 11
19522.784195817349
 21
15992.486978000001
 31
0.0
  0
LINE
  5
12DC5
  8
SUNPOU
  6
CONTINUOUS
 62
     4
 10
20572.785515817352
 20
15291.727489500019
 30
0.0
 11
19522.784195817349
 21
15291.727489500019
 31
0.0
  0
LINE
  5
12DC6
  8
SUNPOU
  6
CONTINUOUS
 62
     4
 10
19602.784195817349
 20
15992.486978000001
 30
0.0
 11
19602.784195817349
 21
15291.727489500019
 31
0.0
  0
LINE
  5
12DC7
  8
SUNPOU
  6
CONTINUOUS
 62
     4
 10
19722.784195817349
 20
16750.48697799999
 30
0.0
 11
19522.784195817349
 21
16750.48697799999
 31
0.0
  0
LINE
  5
12DC8
  8
SUNPOU
  6
CONTINUOUS
 62
     4
 10
20572.785515817352
 20
15992.486978000001
 30
0.0
 11
19522.784195817349
 21
15992.486978000001
 31
0.0
  0
LINE
  5
12DC9
  8
SUNPOU
  6
CONTINUOUS
 62
     4
 10
19602.784195817349
 20
16750.48697799999
 30
0.0
 11
19602.784195817349
 21
15992.486978000001
 31
0.0
  0
LINE
  5
12DCA
  8
SUNPOU
  6
CONTINUOUS
 62
     4
 10
20572.785515817352
 20
17508.486977999979
 30
0.0
 11
19522.784195817349
 21
17508.486977999979
 31
0.0
  0
LINE
  5
12DCB
  8
SUNPOU
  6
CONTINUOUS
 62
     4
 10
19722.784195817349
 20
16750.48697799999
 30
0.0
 11
19522.784195817349
 21
16750.48697799999
 31
0.0
  0
LINE
  5
12DCC
  8
SUNPOU
  6
CONTINUOUS
 62
     4
 10
19602.784195817349
 20
17508.486977999979
 30
0.0
 11
19602.784195817349
 21
16750.48697799999
 31
0.0
  0
LINE
  5
12DCD
  8
SUNPOU
  6
CONTINUOUS
 62
     4
 10
20572.785515817352
 20
18209.486977999979
 30
0.0
 11
19522.784195817349
 21
18209.486977999979
 31
0.0
  0
LINE
  5
12DCE
  8
SUNPOU
  6
CONTINUOUS
 62
     4
 10
20572.785515817352
 20
17508.486977999979
 30
0.0
 11
19522.784195817349
 21
17508.486977999979
 31
0.0
  0
LINE
  5
12DCF
  8
SUNPOU
  6
CONTINUOUS
 62
     4
 10
19602.784195817349
 20
18209.486977999979
 30
0.0
 11
19602.784195817349
 21
17508.486977999979
 31
0.0
  0
LINE
  5
12DD0
  8
SUNPOU
  6
CONTINUOUS
 62
     4
 10
20572.785515817352
 20
18910.48697799999
 30
0.0
 11
19522.784195817349
 21
18910.48697799999
 31
0.0
  0
LINE
  5
12DD1
  8
SUNPOU
  6
CONTINUOUS
 62
     4
 10
20572.785515817352
 20
18209.486977999979
 30
0.0
 11
19522.784195817349
 21
18209.486977999979
 31
0.0
  0
LINE
  5
12DD2
  8
SUNPOU
  6
CONTINUOUS
 62
     4
 10
19602.784195817349
 20
18910.48697799999
 30
0.0
 11
19602.784195817349
 21
18209.486977999979
 31
0.0
  0
LINE
  5
12DD3
  8
SUNPOU
  6
CONTINUOUS
 62
     4
 10
19722.784195817349
 20
19317.98697799999
 30
0.0
 11
19522.784195817349
 21
19317.98697799999
 31
0.0
  0
LINE
  5
12DD4
  8
SUNPOU
  6
CONTINUOUS
 62
     4
 10
19722.784195817349
 20
14182.986978000001
 30
0.0
 11
19522.784195817349
 21
14182.986978000001
 31
0.0
  0
LINE
  5
12DD5
  8
SUNPOU
  6
CONTINUOUS
 62
     4
 10
20572.785515817352
 20
19360.484272999998
 30
0.0
 11
19122.784195817349
 21
19360.484272999969
 31
0.0
  0
LINE
  5
12DD6
  8
SUNPOU
  6
CONTINUOUS
 62
     4
 10
20572.785515817352
 20
14140.489682999991
 30
0.0
 11
19122.784195817349
 21
14140.489682999991
 31
0.0
  0
LINE
  5
12DD7
  8
SUNPOU
  6
CONTINUOUS
 62
     4
 10
19202.784195817349
 20
19360.484272999998
 30
0.0
 11
19202.784195817349
 21
14140.489682999991
 31
0.0
  0
LINE
  5
12DD8
  8
SUNPOU
  6
CONTINUOUS
 62
     4
 10
19722.784195817349
 20
19317.98697799999
 30
0.0
 11
19522.784195817349
 21
19317.98697799999
 31
0.0
  0
LINE
  5
12DD9
  8
SUNPOU
  6
CONTINUOUS
 62
     4
 10
20572.785515817352
 20
19360.484272999998
 30
0.0
 11
19522.784195817349
 21
19360.484272999998
 31
0.0
  0
LINE
  5
12DDA
  8
SUNPOU
  6
CONTINUOUS
 62
     4
 10
19602.784195817349
 20
19317.98697799999
 30
0.0
 11
19602.784195817349
 21
19077.98697799999
 31
0.0
  0
LINE
  5
12DDB
  8
SUNPOU
  6
CONTINUOUS
 62
     4
 10
19602.784195817349
 20
19360.484272999998
 30
0.0
 11
19602.784195817349
 21
19600.484272999998
 31
0.0
  0
LINE
  5
12DDC
  8
SUNPOU
  6
CONTINUOUS
 62
     4
 10
19602.784195817349
 20
19317.98697799999
 30
0.0
 11
19602.784195817349
 21
19360.484272999998
 31
0.0
  0
LINE
  5
12DDD
  8
SUNPOU
  6
CONTINUOUS
 62
     4
 10
19722.784195817349
 20
14182.986978000001
 30
0.0
 11
19522.784195817349
 21
14182.986978000001
 31
0.0
  0
LINE
  5
12DDE
  8
SUNPOU
  6
CONTINUOUS
 62
     4
 10
20572.785515817352
 20
14140.489682999991
 30
0.0
 11
19522.784195817349
 21
14140.489682999991
 31
0.0
  0
LINE
  5
12DDF
  8
SUNPOU
  6
CONTINUOUS
 62
     4
 10
19602.784195817349
 20
14182.986978000001
 30
0.0
 11
19602.784195817349
 21
14422.986978000001
 31
0.0
  0
LINE
  5
12DE0
  8
SUNPOU
  6
CONTINUOUS
 62
     4
 10
19602.784195817349
 20
14140.489682999991
 30
0.0
 11
19602.784195817349
 21
13900.489682999991
 31
0.0
  0
LINE
  5
12DE1
  8
SUNPOU
  6
CONTINUOUS
 62
     4
 10
19602.784195817349
 20
14182.986978000001
 30
0.0
 11
19602.784195817349
 21
14140.489682999991
 31
0.0
  0
LINE
  5
12DE2
  8
SUNPOU
  6
CONTINUOUS
 62
     4
 10
22855.28379981736
 20
19440.48526300002
 30
0.0
 11
22855.28379981736
 21
20170.488166000021
 31
0.0
  0
LINE
  5
12DE3
  8
SUNPOU
  6
CONTINUOUS
 62
     4
 10
23613.284789317378
 20
19440.48526300002
 30
0.0
 11
23613.284789317378
 21
20170.488166000021
 31
0.0
  0
LINE
  5
12DE4
  8
SUNPOU
  6
CONTINUOUS
 62
     4
 10
22855.28379981736
 20
20090.488166000021
 30
0.0
 11
23613.284789317378
 21
20090.488166000021
 31
0.0
  0
LINE
  5
12DE5
  8
SUNPOU
  6
CONTINUOUS
 62
     4
 10
22154.28379981736
 20
19440.48526300002
 30
0.0
 11
22154.28379981736
 21
20170.488166000021
 31
0.0
  0
LINE
  5
12DE6
  8
SUNPOU
  6
CONTINUOUS
 62
     4
 10
22855.28379981736
 20
19440.48526300002
 30
0.0
 11
22855.28379981736
 21
20170.488166000021
 31
0.0
  0
LINE
  5
12DE7
  8
SUNPOU
  6
CONTINUOUS
 62
     4
 10
22154.28379981736
 20
20090.488166000021
 30
0.0
 11
22855.28379981736
 21
20090.488166000021
 31
0.0
  0
LINE
  5
12DE8
  8
SUNPOU
  6
CONTINUOUS
 62
     4
 10
21453.283799817349
 20
19440.48526300002
 30
0.0
 11
21453.283799817349
 21
20170.488166000021
 31
0.0
  0
LINE
  5
12DE9
  8
SUNPOU
  6
CONTINUOUS
 62
     4
 10
22154.28379981736
 20
19440.48526300002
 30
0.0
 11
22154.28379981736
 21
20170.488166000021
 31
0.0
  0
LINE
  5
12DEA
  8
SUNPOU
  6
CONTINUOUS
 62
     4
 10
21453.283799817349
 20
20090.488166000021
 30
0.0
 11
22154.28379981736
 21
20090.488166000021
 31
0.0
  0
LINE
  5
12DEB
  8
SUNPOU
  6
CONTINUOUS
 62
     4
 10
23613.283799817371
 20
19440.48526300002
 30
0.0
 11
23613.283799817371
 21
20170.488166000021
 31
0.0
  0
LINE
  5
12DEC
  8
SUNPOU
  6
CONTINUOUS
 62
     4
 10
23655.780104817339
 20
19440.48526300002
 30
0.0
 11
23655.780104817339
 21
20170.488166000021
 31
0.0
  0
LINE
  5
12DED
  8
SUNPOU
  6
CONTINUOUS
 62
     4
 10
23613.283799817371
 20
20090.488166000021
 30
0.0
 11
23373.283799817371
 21
20090.488166000021
 31
0.0
  0
LINE
  5
12DEE
  8
SUNPOU
  6
CONTINUOUS
 62
     4
 10
23655.780104817339
 20
20090.488166000021
 30
0.0
 11
23895.780104817339
 21
20090.488166000021
 31
0.0
  0
LINE
  5
12DEF
  8
SUNPOU
  6
CONTINUOUS
 62
     4
 10
23613.283799817371
 20
20090.488166000021
 30
0.0
 11
23655.780104817339
 21
20090.488166000021
 31
0.0
  0
LINE
  5
12DF0
  8
SUNPOU
  6
CONTINUOUS
 62
     4
 10
20695.28379981736
 20
19440.48526300002
 30
0.0
 11
20695.28379981736
 21
20170.488166000021
 31
0.0
  0
LINE
  5
12DF1
  8
SUNPOU
  6
CONTINUOUS
 62
     4
 10
20652.787494817348
 20
19440.48526300002
 30
0.0
 11
20652.787494817348
 21
20170.488166000021
 31
0.0
  0
LINE
  5
12DF2
  8
SUNPOU
  6
CONTINUOUS
 62
     4
 10
20695.28379981736
 20
20090.488166000021
 30
0.0
 11
20935.28379981736
 21
20090.488166000021
 31
0.0
  0
LINE
  5
12DF3
  8
SUNPOU
  6
CONTINUOUS
 62
     4
 10
20652.787494817348
 20
20090.488166000021
 30
0.0
 11
20412.787494817348
 21
20090.488166000021
 31
0.0
  0
LINE
  5
12DF4
  8
SUNPOU
  6
CONTINUOUS
 62
     4
 10
20695.28379981736
 20
20090.488166000021
 30
0.0
 11
20652.787494817348
 21
20090.488166000021
 31
0.0
  0
TEXT
  5
12DF5
  8
0
  6
CONTINUOUS
 62
     7
 10
20092.47182028856
 20
20170.488166000021
 30
0.0
 40
160.0
  1
42.5
  0
TEXT
  5
12DF6
  8
0
  6
CONTINUOUS
 62
     7
 10
23736.095779346138
 20
20170.488166000021
 30
0.0
 40
160.0
  1
42.5
  0
TEXT
  5
12DF7
  8
0
  6
CONTINUOUS
 62
     7
 10
21630.450466484039
 20
20170.488166000021
 30
0.0
 40
160.0
  1
701
  0
TEXT
  5
12DF8
  8
0
  6
CONTINUOUS
 62
     7
 10
22331.450466484039
 20
20170.488166000021
 30
0.0
 40
160.0
  1
701
  0
TEXT
  5
12DF9
  8
0
  6
CONTINUOUS
 62
     7
 10
23020.95096123403
 20
20170.488166000021
 30
0.0
 40
160.0
  1
758
  0
TEXT
  5
12DFA
  8
0
  6
CONTINUOUS
 62
     7
 10
19522.784195817349
 20
13566.9334466032
 30
0.0
 40
160.0
  1
42.5
 50
90.0
  0
TEXT
  5
12DFB
  8
0
  6
CONTINUOUS
 62
     7
 10
19522.784195817349
 20
19454.040509396778
 30
0.0
 40
160.0
  1
42.5
 50
90.0
  0
TEXT
  5
12DFC
  8
0
  6
CONTINUOUS
 62
     7
 10
19122.784195817349
 20
16470.486978000001
 30
0.0
 40
160.0
  1
5220
 50
90.0
  0
TEXT
  5
12DFD
  8
0
  6
CONTINUOUS
 62
     7
 10
19842.784195817359
 20
18386.653644666669
 30
0.0
 40
160.0
  1
701
 50
90.0
  0
TEXT
  5
12DFE
  8
0
  6
CONTINUOUS
 62
     7
 10
19522.784195817341
 20
17685.653644666669
 30
0.0
 40
160.0
  1
701
 50
90.0
  0
TEXT
  5
12DFF
  8
0
  6
CONTINUOUS
 62
     7
 10
19522.784195817341
 20
16916.153644666669
 30
0.0
 40
160.0
  1
758
 50
90.0
  0
TEXT
  5
12E00
  8
0
  6
CONTINUOUS
 62
     7
 10
19522.784195817341
 20
16158.153644666671
 30
0.0
 40
160.0
  1
758
 50
90.0
  0
TEXT
  5
12E01
  8
0
  6
CONTINUOUS
 62
     7
 10
19522.784195817341
 20
15468.773900416671
 30
0.0
 40
160.0
  1
701
 50
90.0
  0
TEXT
  5
12E02
  8
0
  6
CONTINUOUS
 62
     7
 10
19842.784195817359
 20
14767.773900416671
 30
0.0
 40
160.0
  1
701
 50
90.0
  0
TEXT
  5
12E03
  8
0
  6
CONTINUOUS
 62
     7
 10
21887.617133150688
 20
12891.538893999999
 30
0.0
 40
160.0
  1
3003
  0
TEXT
  5
12E04
  8
0
  6
CONTINUOUS
 62
     7
 10
20813.337472199451
 20
13291.538893999999
 30
0.0
 40
160.0
  1
42.5
  0
TEXT
  5
12E05
  8
0
  6
CONTINUOUS
 62
     7
 10
23015.230127435269
 20
13291.538893999999
 30
0.0
 40
160.0
  1
42.5
  0
TEXT
  5
12E06
  8
0
  6
CONTINUOUS
 62
     7
 10
23731.33747219943
 20
13291.538893999999
 30
0.0
 40
160.0
  1
42.5
  0
TEXT
  5
12E07
  8
0
  6
CONTINUOUS
 62
     7
 10
20097.230127435261
 20
13291.538893999999
 30
0.0
 40
160.0
  1
42.5
  0
TEXT
  5
12E08
  8
0
  6
CONTINUOUS
 62
     7
 10
19482.784195817359
 20
18619.86494564321
 30
0.0
 40
160.0
  1
407.5
 50
90.0
  0
TEXT
  5
12E09
  8
0
  6
CONTINUOUS
 62
     7
 10
19482.784195817359
 20
14255.927647953549
 30
0.0
 40
160.0
  1
407.5
 50
90.0
  0
TEXT
  5
12E0A
  8
0
  6
CONTINUOUS
 62
     7
 10
20860.950466484039
 20
20170.488166000021
 30
0.0
 40
160.0
  1
758
  0
ARC
  5
12E0B
  8
0
  6
BYBLOCK
 62
     0
 10
20695.28379981736
 20
20090.488166000021
 30
0.0
 40
15.0
 50
0.0
 51
180.0
  0
ARC
  5
12E0C
  8
0
  6
BYBLOCK
 62
     0
 10
20695.28379981736
 20
20090.488166000021
 30
0.0
 40
15.0
 50
180.0
 51
0.0
  0
ARC
  5
12E0D
  8
0
  6
BYBLOCK
 62
     0
 10
21453.283799817349
 20
20090.488166000021
 30
0.0
 40
15.0
 50
180.0
 51
0.0
  0
ARC
  5
12E0E
  8
0
  6
BYBLOCK
 62
     0
 10
21453.283799817349
 20
20090.488166000021
 30
0.0
 40
15.0
 50
0.0
 51
180.0
  0
ARC
  5
12E0F
  8
0
  6
BYBLOCK
 62
     0
 10
19602.784195817349
 20
14590.607233750001
 30
0.0
 40
15.0
 50
90.0
 51
270.0
  0
ARC
  5
12E10
  8
0
  6
BYBLOCK
 62
     0
 10
19602.784195817349
 20
14590.607233750001
 30
0.0
 40
15.0
 50
270.0
 51
90.0
  0
ARC
  5
12E11
  8
0
  6
BYBLOCK
 62
     0
 10
19602.784195817349
 20
14183.107233750001
 30
0.0
 40
15.0
 50
270.0
 51
90.0
  0
ARC
  5
12E12
  8
0
  6
BYBLOCK
 62
     0
 10
19602.784195817349
 20
14183.107233750001
 30
0.0
 40
15.0
 50
90.0
 51
270.0
  0
ARC
  5
12E13
  8
0
  6
BYBLOCK
 62
     0
 10
19602.784195817349
 20
18910.48697799999
 30
0.0
 40
15.0
 50
270.0
 51
90.0
  0
ARC
  5
12E14
  8
0
  6
BYBLOCK
 62
     0
 10
19602.784195817349
 20
18910.48697799999
 30
0.0
 40
15.0
 50
90.0
 51
270.0
  0
ARC
  5
12E15
  8
0
  6
BYBLOCK
 62
     0
 10
19602.784195817349
 20
19317.98697799999
 30
0.0
 40
15.0
 50
90.0
 51
270.0
  0
ARC
  5
12E16
  8
0
  6
BYBLOCK
 62
     0
 10
19602.784195817349
 20
19317.98697799999
 30
0.0
 40
15.0
 50
270.0
 51
90.0
  0
ARC
  5
12E17
  8
0
  6
BYBLOCK
 62
     0
 10
20695.28379981736
 20
13211.538893999999
 30
0.0
 40
15.0
 50
0.0
 51
180.0
  0
ARC
  5
12E18
  8
0
  6
BYBLOCK
 62
     0
 10
20695.28379981736
 20
13211.538893999999
 30
0.0
 40
15.0
 50
180.0
 51
0.0
  0
ARC
  5
12E19
  8
0
  6
BYBLOCK
 62
     0
 10
20652.781556817368
 20
13211.538893999999
 30
0.0
 40
15.0
 50
180.0
 51
0.0
  0
ARC
  5
12E1A
  8
0
  6
BYBLOCK
 62
     0
 10
20652.781556817368
 20
13211.538893999999
 30
0.0
 40
15.0
 50
0.0
 51
180.0
  0
ARC
  5
12E1B
  8
0
  6
BYBLOCK
 62
     0
 10
23613.283799817371
 20
13211.538893999999
 30
0.0
 40
15.0
 50
180.0
 51
0.0
  0
ARC
  5
12E1C
  8
0
  6
BYBLOCK
 62
     0
 10
23613.283799817371
 20
13211.538893999999
 30
0.0
 40
15.0
 50
0.0
 51
180.0
  0
ARC
  5
12E1D
  8
0
  6
BYBLOCK
 62
     0
 10
23655.786042817352
 20
13211.538893999999
 30
0.0
 40
15.0
 50
0.0
 51
180.0
  0
ARC
  5
12E1E
  8
0
  6
BYBLOCK
 62
     0
 10
23655.786042817352
 20
13211.538893999999
 30
0.0
 40
15.0
 50
180.0
 51
0.0
  0
ARC
  5
12E1F
  8
0
  6
BYBLOCK
 62
     0
 10
23613.283799817371
 20
13211.538893999999
 30
0.0
 40
15.0
 50
0.0
 51
180.0
  0
ARC
  5
12E20
  8
0
  6
BYBLOCK
 62
     0
 10
23613.283799817371
 20
13211.538893999999
 30
0.0
 40
15.0
 50
180.0
 51
0.0
  0
ARC
  5
12E21
  8
0
  6
BYBLOCK
 62
     0
 10
23570.78155681735
 20
13211.538893999999
 30
0.0
 40
15.0
 50
180.0
 51
0.0
  0
ARC
  5
12E22
  8
0
  6
BYBLOCK
 62
     0
 10
23570.78155681735
 20
13211.538893999999
 30
0.0
 40
15.0
 50
0.0
 51
180.0
  0
ARC
  5
12E23
  8
0
  6
BYBLOCK
 62
     0
 10
20695.28379981736
 20
13211.538893999999
 30
0.0
 40
15.0
 50
180.0
 51
0.0
  0
ARC
  5
12E24
  8
0
  6
BYBLOCK
 62
     0
 10
20695.28379981736
 20
13211.538893999999
 30
0.0
 40
15.0
 50
0.0
 51
180.0
  0
ARC
  5
12E25
  8
0
  6
BYBLOCK
 62
     0
 10
20737.786042817352
 20
13211.538893999999
 30
0.0
 40
15.0
 50
0.0
 51
180.0
  0
ARC
  5
12E26
  8
0
  6
BYBLOCK
 62
     0
 10
20737.786042817352
 20
13211.538893999999
 30
0.0
 40
15.0
 50
180.0
 51
0.0
  0
ARC
  5
12E27
  8
0
  6
BYBLOCK
 62
     0
 10
20652.781556817368
 20
12811.538893999999
 30
0.0
 40
15.0
 50
0.0
 51
180.0
  0
ARC
  5
12E28
  8
0
  6
BYBLOCK
 62
     0
 10
20652.781556817368
 20
12811.538893999999
 30
0.0
 40
15.0
 50
180.0
 51
0.0
  0
ARC
  5
12E29
  8
0
  6
BYBLOCK
 62
     0
 10
23655.786042817352
 20
12811.538893999999
 30
0.0
 40
15.0
 50
180.0
 51
0.0
  0
ARC
  5
12E2A
  8
0
  6
BYBLOCK
 62
     0
 10
23655.786042817352
 20
12811.538893999999
 30
0.0
 40
15.0
 50
0.0
 51
180.0
  0
ARC
  5
12E2B
  8
0
  6
BYBLOCK
 62
     0
 10
19602.784195817349
 20
15291.727489500019
 30
0.0
 40
15.0
 50
90.0
 51
270.0
  0
ARC
  5
12E2C
  8
0
  6
BYBLOCK
 62
     0
 10
19602.784195817349
 20
15291.727489500019
 30
0.0
 40
15.0
 50
270.0
 51
90.0
  0
ARC
  5
12E2D
  8
0
  6
BYBLOCK
 62
     0
 10
19602.784195817349
 20
14590.48697799999
 30
0.0
 40
15.0
 50
270.0
 51
90.0
  0
ARC
  5
12E2E
  8
0
  6
BYBLOCK
 62
     0
 10
19602.784195817349
 20
14590.48697799999
 30
0.0
 40
15.0
 50
90.0
 51
270.0
  0
ARC
  5
12E2F
  8
0
  6
BYBLOCK
 62
     0
 10
19602.784195817349
 20
15992.486978000001
 30
0.0
 40
15.0
 50
90.0
 51
270.0
  0
ARC
  5
12E30
  8
0
  6
BYBLOCK
 62
     0
 10
19602.784195817349
 20
15992.486978000001
 30
0.0
 40
15.0
 50
270.0
 51
90.0
  0
ARC
  5
12E31
  8
0
  6
BYBLOCK
 62
     0
 10
19602.784195817349
 20
15291.727489500019
 30
0.0
 40
15.0
 50
270.0
 51
90.0
  0
ARC
  5
12E32
  8
0
  6
BYBLOCK
 62
     0
 10
19602.784195817349
 20
15291.727489500019
 30
0.0
 40
15.0
 50
90.0
 51
270.0
  0
ARC
  5
12E33
  8
0
  6
BYBLOCK
 62
     0
 10
19602.784195817349
 20
16750.48697799999
 30
0.0
 40
15.0
 50
90.0
 51
270.0
  0
ARC
  5
12E34
  8
0
  6
BYBLOCK
 62
     0
 10
19602.784195817349
 20
16750.48697799999
 30
0.0
 40
15.0
 50
270.0
 51
90.0
  0
ARC
  5
12E35
  8
0
  6
BYBLOCK
 62
     0
 10
19602.784195817349
 20
15992.486978000001
 30
0.0
 40
15.0
 50
270.0
 51
90.0
  0
ARC
  5
12E36
  8
0
  6
BYBLOCK
 62
     0
 10
19602.784195817349
 20
15992.486978000001
 30
0.0
 40
15.0
 50
90.0
 51
270.0
  0
ARC
  5
12E37
  8
0
  6
BYBLOCK
 62
     0
 10
19602.784195817349
 20
17508.486977999979
 30
0.0
 40
15.0
 50
90.0
 51
270.0
  0
ARC
  5
12E38
  8
0
  6
BYBLOCK
 62
     0
 10
19602.784195817349
 20
17508.486977999979
 30
0.0
 40
15.0
 50
270.0
 51
90.0
  0
ARC
  5
12E39
  8
0
  6
BYBLOCK
 62
     0
 10
19602.784195817349
 20
16750.48697799999
 30
0.0
 40
15.0
 50
270.0
 51
90.0
  0
ARC
  5
12E3A
  8
0
  6
BYBLOCK
 62
     0
 10
19602.784195817349
 20
16750.48697799999
 30
0.0
 40
15.0
 50
90.0
 51
270.0
  0
ARC
  5
12E3B
  8
0
  6
BYBLOCK
 62
     0
 10
19602.784195817349
 20
18209.486977999979
 30
0.0
 40
15.0
 50
90.0
 51
270.0
  0
ARC
  5
12E3C
  8
0
  6
BYBLOCK
 62
     0
 10
19602.784195817349
 20
18209.486977999979
 30
0.0
 40
15.0
 50
270.0
 51
90.0
  0
ARC
  5
12E3D
  8
0
  6
BYBLOCK
 62
     0
 10
19602.784195817349
 20
17508.486977999979
 30
0.0
 40
15.0
 50
270.0
 51
90.0
  0
ARC
  5
12E3E
  8
0
  6
BYBLOCK
 62
     0
 10
19602.784195817349
 20
17508.486977999979
 30
0.0
 40
15.0
 50
90.0
 51
270.0
  0
ARC
  5
12E3F
  8
0
  6
BYBLOCK
 62
     0
 10
19602.784195817349
 20
18910.48697799999
 30
0.0
 40
15.0
 50
90.0
 51
270.0
  0
ARC
  5
12E40
  8
0
  6
BYBLOCK
 62
     0
 10
19602.784195817349
 20
18910.48697799999
 30
0.0
 40
15.0
 50
270.0
 51
90.0
  0
ARC
  5
12E41
  8
0
  6
BYBLOCK
 62
     0
 10
19602.784195817349
 20
18209.486977999979
 30
0.0
 40
15.0
 50
270.0
 51
90.0
  0
ARC
  5
12E42
  8
0
  6
BYBLOCK
 62
     0
 10
19602.784195817349
 20
18209.486977999979
 30
0.0
 40
15.0
 50
90.0
 51
270.0
  0
ARC
  5
12E43
  8
0
  6
BYBLOCK
 62
     0
 10
19602.784195817349
 20
19317.98697799999
 30
0.0
 40
15.0
 50
90.0
 51
270.0
  0
ARC
  5
12E44
  8
0
  6
BYBLOCK
 62
     0
 10
19602.784195817349
 20
19317.98697799999
 30
0.0
 40
15.0
 50
270.0
 51
90.0
  0
ARC
  5
12E45
  8
0
  6
BYBLOCK
 62
     0
 10
19602.784195817349
 20
14182.986978000001
 30
0.0
 40
15.0
 50
270.0
 51
90.0
  0
ARC
  5
12E46
  8
0
  6
BYBLOCK
 62
     0
 10
19602.784195817349
 20
14182.986978000001
 30
0.0
 40
15.0
 50
90.0
 51
270.0
  0
ARC
  5
12E47
  8
0
  6
BYBLOCK
 62
     0
 10
19202.784195817349
 20
19360.484272999998
 30
0.0
 40
15.0
 50
90.0
 51
270.0
  0
ARC
  5
12E48
  8
0
  6
BYBLOCK
 62
     0
 10
19202.784195817349
 20
19360.484272999998
 30
0.0
 40
15.0
 50
270.0
 51
90.0
  0
ARC
  5
12E49
  8
0
  6
BYBLOCK
 62
     0
 10
19202.784195817349
 20
14140.489682999991
 30
0.0
 40
15.0
 50
270.0
 51
90.0
  0
ARC
  5
12E4A
  8
0
  6
BYBLOCK
 62
     0
 10
19202.784195817349
 20
14140.489682999991
 30
0.0
 40
15.0
 50
90.0
 51
270.0
  0
ARC
  5
12E4B
  8
0
  6
BYBLOCK
 62
     0
 10
19602.784195817349
 20
19317.98697799999
 30
0.0
 40
15.0
 50
90.0
 51
270.0
  0
ARC
  5
12E4C
  8
0
  6
BYBLOCK
 62
     0
 10
19602.784195817349
 20
19317.98697799999
 30
0.0
 40
15.0
 50
270.0
 51
90.0
  0
ARC
  5
12E4D
  8
0
  6
BYBLOCK
 62
     0
 10
19602.784195817349
 20
19360.484272999998
 30
0.0
 40
15.0
 50
270.0
 51
90.0
  0
ARC
  5
12E4E
  8
0
  6
BYBLOCK
 62
     0
 10
19602.784195817349
 20
19360.484272999998
 30
0.0
 40
15.0
 50
90.0
 51
270.0
  0
ARC
  5
12E4F
  8
0
  6
BYBLOCK
 62
     0
 10
19602.784195817349
 20
14182.986978000001
 30
0.0
 40
15.0
 50
270.0
 51
90.0
  0
ARC
  5
12E50
  8
0
  6
BYBLOCK
 62
     0
 10
19602.784195817349
 20
14182.986978000001
 30
0.0
 40
15.0
 50
90.0
 51
270.0
  0
ARC
  5
12E51
  8
0
  6
BYBLOCK
 62
     0
 10
19602.784195817349
 20
14140.489682999991
 30
0.0
 40
15.0
 50
90.0
 51
270.0
  0
ARC
  5
12E52
  8
0
  6
BYBLOCK
 62
     0
 10
19602.784195817349
 20
14140.489682999991
 30
0.0
 40
15.0
 50
270.0
 51
90.0
  0
ARC
  5
12E53
  8
0
  6
BYBLOCK
 62
     0
 10
22855.28379981736
 20
20090.488166000021
 30
0.0
 40
15.0
 50
0.0
 51
180.0
  0
ARC
  5
12E54
  8
0
  6
BYBLOCK
 62
     0
 10
22855.28379981736
 20
20090.488166000021
 30
0.0
 40
15.0
 50
180.0
 51
0.0
  0
ARC
  5
12E55
  8
0
  6
BYBLOCK
 62
     0
 10
23613.284789317378
 20
20090.488166000021
 30
0.0
 40
15.0
 50
180.0
 51
0.0
  0
ARC
  5
12E56
  8
0
  6
BYBLOCK
 62
     0
 10
23613.284789317378
 20
20090.488166000021
 30
0.0
 40
15.0
 50
0.0
 51
180.0
  0
ARC
  5
12E57
  8
0
  6
BYBLOCK
 62
     0
 10
22154.28379981736
 20
20090.488166000021
 30
0.0
 40
15.0
 50
0.0
 51
180.0
  0
ARC
  5
12E58
  8
0
  6
BYBLOCK
 62
     0
 10
22154.28379981736
 20
20090.488166000021
 30
0.0
 40
15.0
 50
180.0
 51
0.0
  0
ARC
  5
12E59
  8
0
  6
BYBLOCK
 62
     0
 10
22855.28379981736
 20
20090.488166000021
 30
0.0
 40
15.0
 50
180.0
 51
0.0
  0
ARC
  5
12E5A
  8
0
  6
BYBLOCK
 62
     0
 10
22855.28379981736
 20
20090.488166000021
 30
0.0
 40
15.0
 50
0.0
 51
180.0
  0
ARC
  5
12E5B
  8
0
  6
BYBLOCK
 62
     0
 10
21453.283799817349
 20
20090.488166000021
 30
0.0
 40
15.0
 50
0.0
 51
180.0
  0
ARC
  5
12E5C
  8
0
  6
BYBLOCK
 62
     0
 10
21453.283799817349
 20
20090.488166000021
 30
0.0
 40
15.0
 50
180.0
 51
0.0
  0
ARC
  5
12E5D
  8
0
  6
BYBLOCK
 62
     0
 10
22154.28379981736
 20
20090.488166000021
 30
0.0
 40
15.0
 50
180.0
 51
0.0
  0
ARC
  5
12E5E
  8
0
  6
BYBLOCK
 62
     0
 10
22154.28379981736
 20
20090.488166000021
 30
0.0
 40
15.0
 50
0.0
 51
180.0
  0
ARC
  5
12E5F
  8
0
  6
BYBLOCK
 62
     0
 10
23613.283799817371
 20
20090.488166000021
 30
0.0
 40
15.0
 50
180.0
 51
0.0
  0
ARC
  5
12E60
  8
0
  6
BYBLOCK
 62
     0
 10
23613.283799817371
 20
20090.488166000021
 30
0.0
 40
15.0
 50
0.0
 51
180.0
  0
ARC
  5
12E61
  8
0
  6
BYBLOCK
 62
     0
 10
23655.780104817339
 20
20090.488166000021
 30
0.0
 40
15.0
 50
0.0
 51
180.0
  0
ARC
  5
12E62
  8
0
  6
BYBLOCK
 62
     0
 10
23655.780104817339
 20
20090.488166000021
 30
0.0
 40
15.0
 50
180.0
 51
0.0
  0
ARC
  5
12E63
  8
0
  6
BYBLOCK
 62
     0
 10
20695.28379981736
 20
20090.488166000021
 30
0.0
 40
15.0
 50
0.0
 51
180.0
  0
ARC
  5
12E64
  8
0
  6
BYBLOCK
 62
     0
 10
20695.28379981736
 20
20090.488166000021
 30
0.0
 40
15.0
 50
180.0
 51
0.0
  0
ARC
  5
12E65
  8
0
  6
BYBLOCK
 62
     0
 10
20652.787494817348
 20
20090.488166000021
 30
0.0
 40
15.0
 50
180.0
 51
0.0
  0
ARC
  5
12E66
  8
0
  6
BYBLOCK
 62
     0
 10
20652.787494817348
 20
20090.488166000021
 30
0.0
 40
15.0
 50
0.0
 51
180.0
  0
LINE
  5
12E67
  8
2-0
  6
CENTER2
 62
     6
 10
20695.283799817371
 20
13557.223543999989
 30
0.0
 11
20695.283799817371
 21
13985.0673343907
 31
0.0
  0
TEXT
  5
12F66
  8
FILENAME
  6
CONTINUOUS
 10
26480.19047619047
 20
348.0
 30
0.0
 40
200.0
  1
＜VGC-3052+VKC-2852-R-1-A_0.DXF ＞
  7
FILENAME
 72
     2
 11
32764.0
 21
348.0
 31
0.0
  0
LINE
  5
12F6B
  8
WAKUSEN-01
 10
868.00000000000193
 20
827.99999999999955
 30
0.0
 11
32764.000000000011
 21
827.99999999999943
 31
0.0
  0
LINE
  5
12F6C
  8
WAKUSEN-01
 10
868.00000000000193
 20
827.99999999999955
 30
0.0
 11
868.00000000000193
 21
22484.000000000011
 31
0.0
  0
LINE
  5
12F6D
  8
WAKUSEN-01
 10
32764.000000000011
 20
827.99999999999943
 30
0.0
 11
32764.000000000011
 21
22484.000000000011
 31
0.0
  0
LINE
  5
12F6E
  8
WAKUSEN-01
 10
20560.0
 20
827.99999999999716
 30
0.0
 11
20560.0
 21
2484.0
 31
0.0
  0
LINE
  5
12F6F
  8
WAKUSEN-02
 10
26868.0
 20
827.99999999999261
 30
0.0
 11
26868.0
 21
2484.0
 31
0.0
  0
ENDSEC
  0
EOF
