  0
SECTION
  2
HEADER
  9
$ACADVER
  1
AC1009
  9
$INSBASE
 10
0.0
 20
0.0
 30
0.0
  9
$EXTMIN
 10
867.99324330406671
 20
327.38164749855792
 30
-0.0000000000112498
  9
$EXTMAX
 10
32765.33210850941
 20
22484.553276491992
 30
0.0000000000002956
  9
$LIMMIN
 10
0.0
 20
0.0
  9
$LIMMAX
 10
33600.0
 20
23760.0
  9
$ORTHOMODE
 70
     1
  9
$REGENMODE
 70
     1
  9
$FILLMODE
 70
     1
  9
$QTEXTMODE
 70
     0
  9
$MIRRTEXT
 70
     0
  9
$DRAGMODE
 70
     2
  9
$LTSCALE
 40
80.0
  9
$OSMODE
 70
  3071
  9
$ATTMODE
 70
     1
  9
$TEXTSIZE
 40
0.2
  9
$TRACEWID
 40
0.05
  9
$TEXTSTYLE
  7
00
  9
$CLAYER
  8
0
  9
$CELTYPE
  6
BYLAYER
  9
$CECOLOR
 62
   256
  9
$DIMSCALE
 40
1.0
  9
$DIMASZ
 40
0.18
  9
$DIMEXO
 40
0.0625
  9
$DIMDLI
 40
0.38
  9
$DIMRND
 40
0.0
  9
$DIMDLE
 40
0.0
  9
$DIMEXE
 40
0.18
  9
$DIMTP
 40
0.0
  9
$DIMTM
 40
0.0
  9
$DIMTXT
 40
0.18
  9
$DIMCEN
 40
0.09
  9
$DIMTSZ
 40
0.0
  9
$DIMTOL
 70
     0
  9
$DIMLIM
 70
     0
  9
$DIMTIH
 70
     1
  9
$DIMTOH
 70
     1
  9
$DIMSE1
 70
     0
  9
$DIMSE2
 70
     0
  9
$DIMTAD
 70
     0
  9
$DIMZIN
 70
     0
  9
$DIMBLK
  1

  9
$DIMASO
 70
     1
  9
$DIMSHO
 70
     1
  9
$DIMPOST
  1

  9
$DIMAPOST
  1

  9
$DIMALT
 70
     0
  9
$DIMALTD
 70
     2
  9
$DIMALTF
 40
25.399999999999999
  9
$DIMLFAC
 40
1.0
  9
$DIMTOFL
 70
     0
  9
$DIMTVP
 40
0.0
  9
$DIMTIX
 70
     0
  9
$DIMSOXD
 70
     0
  9
$DIMSAH
 70
     0
  9
$DIMBLK1
  1

  9
$DIMBLK2
  1

  9
$DIMSTYLE
  2
STANDARD
  9
$DIMCLRD
 70
     0
  9
$DIMCLRE
 70
     0
  9
$DIMCLRT
 70
     0
  9
$DIMTFAC
 40
1.0
  9
$DIMGAP
 40
0.09
  9
$LUNITS
 70
     2
  9
$LUPREC
 70
     4
  9
$SKETCHINC
 40
0.1
  9
$FILLETRAD
 40
0.0
  9
$AUNITS
 70
     0
  9
$AUPREC
 70
     0
  9
$MENU
  1
acad
  9
$ELEVATION
 40
0.0
  9
$PELEVATION
 40
0.0
  9
$THICKNESS
 40
0.0
  9
$LIMCHECK
 70
     0
  9
$BLIPMODE
 70
     1
  9
$CHAMFERA
 40
0.0
  9
$CHAMFERB
 40
0.0
  9
$SKPOLY
 70
     0
  9
$TDCREATE
 40
2311940.075052408
  9
$TDUPDATE
 40
2458942.4515061118
  9
$TDINDWG
 40
0.3100869676
  9
$TDUSRTIMER
 40
0.3100864931
  9
$USRTIMER
 70
     1
  9
$ANGBASE
 50
0.0
  9
$ANGDIR
 70
     0
  9
$PDMODE
 70
     0
  9
$PDSIZE
 40
0.0
  9
$PLINEWID
 40
0.0
  9
$COORDS
 70
     1
  9
$SPLFRAME
 70
     0
  9
$SPLINETYPE
 70
     6
  9
$SPLINESEGS
 70
     8
  9
$ATTDIA
 70
     1
  9
$ATTREQ
 70
     1
  9
$HANDLING
 70
     1
  9
$HANDSEED
  5
D688
  9
$SURFTAB1
 70
     6
  9
$SURFTAB2
 70
     6
  9
$SURFTYPE
 70
     6
  9
$SURFU
 70
     6
  9
$SURFV
 70
     6
  9
$UCSNAME
  2

  9
$UCSORG
 10
0.0
 20
0.0
 30
0.0
  9
$UCSXDIR
 10
1.0
 20
0.0
 30
0.0
  9
$UCSYDIR
 10
0.0
 20
1.0
 30
0.0
  9
$PUCSNAME
  2

  9
$PUCSORG
 10
0.0
 20
0.0
 30
0.0
  9
$PUCSXDIR
 10
1.0
 20
0.0
 30
0.0
  9
$PUCSYDIR
 10
0.0
 20
1.0
 30
0.0
  9
$USERI1
 70
     0
  9
$USERI2
 70
     0
  9
$USERI3
 70
     0
  9
$USERI4
 70
     0
  9
$USERI5
 70
     0
  9
$USERR1
 40
0.0
  9
$USERR2
 40
0.0
  9
$USERR3
 40
0.0
  9
$USERR4
 40
0.0
  9
$USERR5
 40
0.0
  9
$WORLDVIEW
 70
     1
  9
$SHADEDGE
 70
     3
  9
$SHADEDIF
 70
    70
  9
$TILEMODE
 70
     1
  9
$MAXACTVP
 70
    16
  9
$PLIMCHECK
 70
     0
  9
$PEXTMIN
 10
1.0000000000000000E+020
 20
1.0000000000000000E+020
 30
1.0000000000000000E+020
  9
$PEXTMAX
 10
-1.0000000000000000E+020
 20
-1.0000000000000000E+020
 30
-1.0000000000000000E+020
  9
$PLIMMIN
 10
0.0
 20
0.0
  9
$PLIMMAX
 10
12.0
 20
9.0
  9
$UNITMODE
 70
     0
  9
$VISRETAIN
 70
     0
  9
$PLINEGEN
 70
     1
  9
$PSLTSCALE
 70
     0
  0
ENDSEC
  0
SECTION
  2
TABLES
  0
TABLE
  2
VPORT
 70
     1
  0
VPORT
  2
*ACTIVE
 70
     0
 10
0.0
 20
0.0
 11
1.0
 21
1.0
 12
16800.0
 22
11880.0
 13
0.0
 23
0.0
 14
1.0
 24
1.0
 15
0.0
 25
0.0
 16
0.0
 26
0.0
 36
1.0
 17
0.0
 27
0.0
 37
0.0
 40
23981.023255813951
 41
2.195652173913043
 42
50.0
 43
0.0
 44
0.0
 50
0.0
 51
0.0
 71
     0
 72
 10000
 73
     1
 74
     1
 75
     0
 76
     0
 77
     0
 78
     0
  0
ENDTAB
  0
TABLE
  2
LTYPE
 70
     6
  0
LTYPE
  2
CONTINUOUS
 70
     0
  3
Solid line
 72
    65
 73
     0
 40
0.0
  0
LTYPE
  2
DASHED3
 70
     0
  3
------  ------  ------  ------  
 72
    65
 73
     2
 40
5.0
 49
3.75
 49
-1.25
  0
LTYPE
  2
CENTER2
 70
     0
  3
----------  --  ----------  --  
 72
    65
 73
     4
 40
20.0
 49
12.5
 49
-2.5
 49
2.5
 49
-2.5
  0
LTYPE
  2
HIDE-M
 70
     0
  3

 72
    65
 73
     2
 40
2.0
 49
1.0
 49
-1.0
  0
LTYPE
  2
1PL-M
 70
     0
  3

 72
    65
 73
     4
 40
15.0
 49
12.0
 49
-1.0
 49
1.0
 49
-1.0
  0
LTYPE
  2
PHANTOM2
 70
     0
  3
___ _ _ ___ _ _ ___ _ _ ___ _ _
 72
    65
 73
     6
 40
1.25
 49
0.625
 49
-0.125
 49
0.125
 49
-0.125
 49
0.125
 49
-0.125
  0
ENDTAB
  0
TABLE
  2
LAYER
 70
    24
  0
LAYER
  2
0
 70
     0
 62
     7
  6
CONTINUOUS
  0
LAYER
  2
SUNPOU
 70
     0
 62
     4
  6
CONTINUOUS
  0
LAYER
  2
0-1
 70
     0
 62
     7
  6
CONTINUOUS
  0
LAYER
  2
0-2
 70
     0
 62
     7
  6
CONTINUOUS
  0
LAYER
  2
0-5
 70
     0
 62
     7
  6
CONTINUOUS
  0
LAYER
  2
0-6
 70
     0
 62
     7
  6
CONTINUOUS
  0
LAYER
  2
2-0
 70
     0
 62
     7
  6
CONTINUOUS
  0
LAYER
  2
0-8
 70
     0
 62
     7
  6
CONTINUOUS
  0
LAYER
  2
YODOROGO
 70
     0
 62
   130
  6
CONTINUOUS
  0
LAYER
  2
WAKUSEN-01
 70
     0
 62
    50
  6
CONTINUOUS
  0
LAYER
  2
WAKUSEN-02
 70
     0
 62
   130
  6
CONTINUOUS
  0
LAYER
  2
WAKUMOJI-01
 70
     0
 62
   130
  6
CONTINUOUS
  0
LAYER
  2
FILENAME
 70
     0
 62
     7
  6
CONTINUOUS
  0
LAYER
  2
NAME
 70
     0
 62
    20
  6
CONTINUOUS
  0
LAYER
  2
0-4
 70
     0
 62
     7
  6
CONTINUOUS
  0
LAYER
  2
1-前柱P
 70
     0
 62
     3
  6
CONTINUOUS
  0
LAYER
  2
1-前柱カバ-P
 70
     0
 62
     3
  6
CONTINUOUS
  0
LAYER
  2
1-桁前P28
 70
     0
 62
     3
  6
CONTINUOUS
  0
LAYER
  2
1-後柱P
 70
     0
 62
     3
  6
CONTINUOUS
  0
LAYER
  2
1-中柱P
 70
     0
 62
     3
  6
CONTINUOUS
  0
LAYER
  2
1-後柱カバ-P
 70
     0
 62
     7
  6
CONTINUOUS
  0
LAYER
  2
1-中柱カバ-P
 70
     0
 62
     7
  6
CONTINUOUS
  0
ENDTAB
  0
TABLE
  2
STYLE
 70
     5
  0
STYLE
  2
STANDARD
 70
     0
 40
0.0
 41
1.0
 50
0.0
 71
     0
 42
0.0
  3
txt
  4
BIGFONT
  0
STYLE
  2
00
 70
     0
 40
0.0
 41
0.6666666666666666
 50
0.0
 71
     0
 42
0.2
  3
ROMANS
  4
BIGFONT
  0
STYLE
  2
01
 70
     0
 40
3.0
 41
1.0
 50
0.0
 71
     0
 42
0.2
  3
ROMANS
  4
BIGFONT
  0
STYLE
  2
WAKUMOJI
 70
     0
 40
3.0
 41
1.0
 50
0.0
 71
     0
 42
3.0
  3
SIMPLEX
  4
BIGFONT
  0
STYLE
  2
FILENAME
 70
     0
 40
200.0
 41
1.0
 50
0.0
 71
     0
 42
200.0
  3
romans
  4
bigfont
  0
ENDTAB
  0
TABLE
  2
VIEW
 70
     0
  0
ENDTAB
  0
TABLE
  2
UCS
 70
     0
  0
ENDTAB
  0
TABLE
  2
APPID
 70
    17
  0
APPID
  2
ACAD
 70
     0
  0
APPID
  2
ACADANNOTATIVE
 70
     0
  0
APPID
  2
ACAD_PSEXT
 70
     0
  0
APPID
  2
DCO15
 70
     0
  0
APPID
  2
ACAD_MLEADERVER
 70
     0
  0
APPID
  2
AUTOCAD_POSTSCRIPT_FIGURE
 70
     0
  0
APPID
  2
ACAD_EXEMPT_FROM_CAD_STANDARDS
 70
     0
  0
APPID
  2
ACLAYERTOOLS
 70
     0
  0
APPID
  2
ACAD_DSTYLE_DIMJAG
 70
     0
  0
APPID
  2
ACAD_DSTYLE_DIMTALN
 70
     0
  0
APPID
  2
ACAECLAYERSTANDARD
 70
     0
  0
APPID
  2
ACAD_DSTYLE_DIMBREAK
 70
     0
  0
APPID
  2
ACAD_DSTYLE_DIM_LINETYPE
 70
     0
  0
APPID
  2
ACAD_DSTYLE_DIM_EXT1_LINETYPE
 70
     0
  0
APPID
  2
ACAD_DSTYLE_DIM_EXT2_LINETYPE
 70
     0
  0
APPID
  2
ACAD_DSTYLE_DIMFLIPARROW_W
 70
     0
  0
APPID
  2
ACAD_NAV_VCDISPLAY
 70
     0
  0
ENDTAB
  0
TABLE
  2
DIMSTYLE
 70
     2
  0
DIMSTYLE
  2
STANDARD
 70
     0
  3

  4

  5

  6

  7

 40
1.0
 41
0.18
 42
0.0625
 43
0.38
 44
0.18
 45
0.0
 46
0.0
 47
0.0
 48
0.0
140
0.18
141
0.09
142
0.0
143
25.399999999999999
144
1.0
145
0.0
146
1.0
147
0.09
 71
     0
 72
     0
 73
     1
 74
     1
 75
     0
 76
     0
 77
     0
 78
     0
170
     0
171
     2
172
     0
173
     0
174
     0
175
     0
176
     0
177
     0
178
     0
  0
ENDTAB
  0
ENDSEC
  0
SECTION
  2
BLOCKS
  0
BLOCK
  8
0
  2
$MODEL_SPACE
 70
     0
 10
0.0
 20
0.0
 30
0.0
  3
$MODEL_SPACE
  1

  0
ENDBLK
  5
CAA8
  8
0
  0
BLOCK
 67
     1
  8
0
  2
$PAPER_SPACE
 70
     0
 10
0.0
 20
0.0
 30
0.0
  3
$PAPER_SPACE
  1

  0
ENDBLK
  5
CAA4
 67
     1
  8
0
  0
ENDSEC
  0
SECTION
  2
ENTITIES
  0
CIRCLE
  5
CAE2
  8
0-5
  6
CONTINUOUS
 62
     4
 10
15128.71667799999
 20
1375.999982000001
 30
0.0
 40
20.0
  0
ARC
  5
CAE3
  8
0-5
  6
CONTINUOUS
 62
     4
 10
15128.71667799999
 20
1375.999982000001
 30
0.0
 40
20.0
 50
180.0
 51
0.0
  0
ARC
  5
CAE4
  8
0-5
  6
CONTINUOUS
 62
     4
 10
15128.71667799999
 20
1375.999982000001
 30
0.0
 40
20.0
 50
0.0
 51
179.99998500000001
  0
CIRCLE
  5
CAE5
  8
0-5
  6
CONTINUOUS
 62
     4
 10
15128.71667799999
 20
1775.9993219999981
 30
0.0
 40
20.0
  0
ARC
  5
CAE6
  8
0-5
  6
CONTINUOUS
 62
     4
 10
15128.71667799999
 20
1775.9993219999981
 30
0.0
 40
20.0
 50
180.0
 51
0.0
  0
ARC
  5
CAE7
  8
0-5
  6
CONTINUOUS
 62
     4
 10
15128.71667799999
 20
1775.9993219999981
 30
0.0
 40
20.0
 50
0.0
 51
179.99998500000001
  0
TEXT
  5
CAE8
  8
0-5
  6
CONTINUOUS
 62
     7
 10
16661.217403999992
 20
1655.9997920000001
 30
0.0
 40
160.0
  1
H
  0
TEXT
  5
CAE9
  8
0-5
  6
CONTINUOUS
 62
     7
 10
15176.146933
 20
1655.9997920000001
 30
0.0
 40
160.0
  1
（ ）内寸法ハ、  タイプヲ示ス。
  0
TEXT
  5
CAEA
  8
0-5
  6
CONTINUOUS
 62
     7
 10
15288.716216000001
 20
1255.999462
 30
0.0
 40
160.0
  1
有効高サハ、基礎高サヲ含ミマセン。
  0
TEXT
  5
CAEB
  8
2-0
  6
CONTINUOUS
 62
     7
 10
22778.194959206041
 20
3292.802588999999
 30
0.0
 40
160.0
  1
正 面 立 面 図
 72
     4
 11
23423.528292539369
 21
3372.802588999999
 31
0.0
  0
TEXT
  5
CAEC
  8
2-0
  6
CONTINUOUS
 62
     7
 10
9095.48340961143
 20
3264.0669070000022
 30
0.0
 40
160.0
  1
側 面 立 面 図
 50
0.000139
 72
     4
 11
9740.8165488622544
 21
3344.0684725833762
 31
0.0
  0
TEXT
  5
CAF0
  8
2-0
  6
CONTINUOUS
 62
     7
 10
11092.308733999869
 20
3291.2638415833758
 30
0.0
 40
160.0
  1
1
 72
     4
 11
11118.975400666541
 21
3371.2638415833749
 31
0.0
  0
TEXT
  5
CAF1
  8
2-0
  6
CONTINUOUS
 62
     7
 10
11335.39745125057
 20
3211.2653095833762
 30
0.0
 40
160.0
  1
80
 72
     4
 11
11455.39745125057
 21
3291.2653095833762
 31
0.0
  0
TEXT
  5
CAF2
  8
2-0
  6
CONTINUOUS
 62
     7
 10
10593.310699999871
 20
3264.0684725833762
 30
0.0
 40
160.0
  1
(S=  /   )
 72
     4
 11
11153.310699999871
 21
3344.0684725833762
 31
0.0
  0
TEXT
  5
CAF3
  8
2-0
  6
CONTINUOUS
 62
     7
 10
24775.02047767699
 20
3319.9979579999999
 30
0.0
 40
160.0
  1
1
 72
     4
 11
24801.687144343661
 21
3399.9979579999999
 31
0.0
  0
TEXT
  5
CAF4
  8
2-0
  6
CONTINUOUS
 62
     7
 10
25018.109194927682
 20
3239.9994260000021
 30
0.0
 40
160.0
  1
80
 72
     4
 11
25138.109194927682
 21
3319.9994260000012
 31
0.0
  0
TEXT
  5
CAF5
  8
2-0
  6
CONTINUOUS
 62
     7
 10
24276.022443676979
 20
3292.802588999999
 30
0.0
 40
160.0
  1
(S=  /   )
 72
     4
 11
24836.022443676979
 21
3372.802588999999
 31
0.0
  0
TEXT
  5
CAFB
  8
2-0
  6
CONTINUOUS
 62
     7
 10
22375.54557682863
 20
11251.104441999991
 30
0.0
 40
160.0
  1
平　面　図
 72
     4
 11
22828.878910161959
 21
11325.77110866666
 31
0.0
  0
TEXT
  5
CAFC
  8
2-0
  6
CONTINUOUS
 62
     7
 10
8556.1765810159377
 20
11156.81700299998
 30
0.0
 40
160.0
  1
小 屋 伏 図
 72
     4
 11
9057.5099143492735
 21
11236.81700299998
 31
0.0
  0
TEXT
  5
CAFD
  8
2-0
  6
CONTINUOUS
 62
     7
 10
24180.37109529959
 20
11272.96647766667
 30
0.0
 40
160.0
  1
1
 72
     4
 11
24207.037761966261
 21
11352.96647766667
 31
0.0
  0
TEXT
  5
CAFE
  8
2-0
  6
CONTINUOUS
 62
     7
 10
24423.459812550271
 20
11192.967945666671
 30
0.0
 40
160.0
  1
80
 72
     4
 11
24543.459812550271
 21
11272.967945666671
 31
0.0
  0
TEXT
  5
CAFF
  8
2-0
  6
CONTINUOUS
 62
     7
 10
23681.37306129959
 20
11245.77110866666
 30
0.0
 40
160.0
  1
(S=  /   )
 72
     4
 11
24241.37306129959
 21
11325.77110866666
 31
0.0
  0
TEXT
  5
CB00
  8
2-0
  6
CONTINUOUS
 62
     7
 10
10409.002099486899
 20
11184.012371999979
 30
0.0
 40
160.0
  1
1
 72
     4
 11
10435.668766153571
 21
11264.012371999979
 31
0.0
  0
TEXT
  5
CB01
  8
2-0
  6
CONTINUOUS
 62
     7
 10
10652.09081673758
 20
11104.013839999991
 30
0.0
 40
160.0
  1
80
 72
     4
 11
10772.09081673758
 21
11184.013839999991
 31
0.0
  0
TEXT
  5
CB02
  8
2-0
  6
CONTINUOUS
 62
     7
 10
9910.0040654868935
 20
11156.81700299998
 30
0.0
 40
160.0
  1
(S=  /   )
 72
     4
 11
10470.00406548689
 21
11236.81700299998
 31
0.0
  0
LINE
  5
CB03
  8
0-6
  6
CONTINUOUS
 62
     6
 10
24758.660668127872
 20
18979.171706000001
 30
0.0
 11
25783.700918127881
 21
18979.171706000001
 31
0.0
  0
LINE
  5
CB04
  8
0-6
  6
CONTINUOUS
 62
     6
 10
26083.625696127881
 20
19536.524958000002
 30
0.0
 11
26188.241274127871
 21
19660.486370999992
 31
0.0
  0
LINE
  5
CB05
  8
0-6
  6
CONTINUOUS
 62
     6
 10
26188.241274127871
 20
19660.486370999992
 30
0.0
 11
26129.483224127878
 21
19509.294700999992
 31
0.0
  0
LINE
  5
CB06
  8
0-6
  6
CONTINUOUS
 62
     6
 10
26188.241274127871
 20
19660.486370999992
 30
0.0
 11
26083.625696127881
 21
19536.524958000002
 31
0.0
  0
LINE
  5
CB07
  8
0-6
  6
CONTINUOUS
 62
     6
 10
26083.625696127881
 20
19536.524958000002
 30
0.0
 11
26129.483224127878
 21
19509.294700999992
 31
0.0
  0
LINE
  5
CB08
  8
0-6
  6
CONTINUOUS
 62
     6
 10
26129.483224127878
 20
19509.294700999992
 30
0.0
 11
26188.241274127871
 21
19660.486370999992
 31
0.0
  0
LINE
  5
CB09
  8
0-6
  6
CONTINUOUS
 62
     6
 10
26129.483224127878
 20
19509.294700999992
 30
0.0
 11
26083.625696127881
 21
19536.524958000002
 31
0.0
  0
LINE
  5
CB0A
  8
0-6
  6
CONTINUOUS
 62
     6
 10
26106.554460127871
 20
19522.911809000001
 30
0.0
 11
25783.700918127881
 21
18979.171706000001
 31
0.0
  0
LINE
  5
CB0B
  8
0-6
  6
CONTINUOUS
 62
     6
 10
25241.864624404039
 20
18477.625043
 30
0.0
 11
26266.900916404051
 21
18477.625043
 31
0.0
  0
LINE
  5
CB0C
  8
0-6
  6
CONTINUOUS
 62
     6
 10
26709.440325629232
 20
16834.018887999991
 30
0.0
 11
26227.80168062924
 21
16997.86562
 31
0.0
  0
LINE
  5
CB0D
  8
0-6
  6
CONTINUOUS
 62
     6
 10
25027.80168062924
 20
16997.86562
 30
0.0
 11
26227.80168062924
 21
16997.86562
 31
0.0
  0
LINE
  5
CB0E
  8
0-6
  6
CONTINUOUS
 62
     6
 10
25346.966474566809
 20
16036.845969999989
 30
0.0
 11
26266.965551566798
 21
16036.845969999989
 31
0.0
  0
LINE
  5
CB0F
  8
0-6
  6
CONTINUOUS
 62
     6
 10
26762.801303566801
 20
13764.26560199999
 30
0.0
 11
26266.967530566799
 21
14002.941106
 31
0.0
  0
LINE
  5
CB10
  8
0-6
  6
CONTINUOUS
 62
     6
 10
25746.967794566801
 20
14002.941106
 30
0.0
 11
26266.967530566799
 21
14002.941106
 31
0.0
  0
LINE
  5
CB11
  8
0-6
  6
CONTINUOUS
 62
     6
 10
26790.13251656682
 20
13312.404854
 30
0.0
 11
26322.198078566791
 21
12841.98711
 31
0.0
  0
LINE
  5
CB12
  8
0-6
  6
CONTINUOUS
 62
     6
 10
25322.1987375668
 20
12841.98711
 30
0.0
 11
26322.198078566791
 21
12841.98711
 31
0.0
  0
LINE
  5
CB13
  8
0-6
  6
CONTINUOUS
 62
     6
 10
27701.186148566801
 20
20465.550639000001
 30
0.0
 11
28901.184169566779
 21
20465.550639000001
 31
0.0
  0
LINE
  5
CB14
  8
0-6
  6
CONTINUOUS
 62
     6
 10
27115.931582566831
 20
19790.170570999991
 30
0.0
 11
26987.967583566799
 21
19690.487953999989
 31
0.0
  0
LINE
  5
CB15
  8
0-6
  6
CONTINUOUS
 62
     6
 10
26987.967583566799
 20
19690.487953999989
 30
0.0
 11
27076.685647566799
 21
19826.282929000001
 31
0.0
  0
LINE
  5
CB16
  8
0-6
  6
CONTINUOUS
 62
     6
 10
26987.967583566799
 20
19690.487953999989
 30
0.0
 11
27115.931582566831
 21
19790.170570999991
 31
0.0
  0
LINE
  5
CB17
  8
0-6
  6
CONTINUOUS
 62
     6
 10
27115.931582566831
 20
19790.170570999991
 30
0.0
 11
27076.685647566799
 21
19826.282929000001
 31
0.0
  0
LINE
  5
CB18
  8
0-6
  6
CONTINUOUS
 62
     6
 10
27076.685647566799
 20
19826.282929000001
 30
0.0
 11
26987.967583566799
 21
19690.487953999989
 31
0.0
  0
LINE
  5
CB19
  8
0-6
  6
CONTINUOUS
 62
     6
 10
27076.685647566799
 20
19826.282929000001
 30
0.0
 11
27115.931582566831
 21
19790.170570999991
 31
0.0
  0
LINE
  5
CB1A
  8
0-6
  6
CONTINUOUS
 62
     6
 10
27096.310594566821
 20
19808.225760000001
 30
0.0
 11
27701.186148566801
 21
20465.550639000001
 31
0.0
  0
LINE
  5
CB1B
  8
0-6
  6
CONTINUOUS
 62
     6
 10
7379.9954971008256
 20
19588.21018799999
 30
0.0
 11
7523.8966001008084
 21
20100.485842999991
 31
0.0
  0
LINE
  5
CB1C
  8
0-6
  6
CONTINUOUS
 62
     6
 10
7341.605703100824
 20
19432.885282999989
 30
0.0
 11
7354.1073531008287
 21
19594.609971999991
 31
0.0
  0
LINE
  5
CB1D
  8
0-6
  6
CONTINUOUS
 62
     6
 10
7405.8806721008268
 20
19581.814364000002
 30
0.0
 11
7341.605703100824
 21
19432.885282999989
 31
0.0
  0
LINE
  5
CB1E
  8
0-6
  6
CONTINUOUS
 62
     6
 10
7405.8806721008268
 20
19581.814364000002
 30
0.0
 11
7354.1073531008287
 21
19594.609971999991
 31
0.0
  0
LINE
  5
CB1F
  8
0-6
  6
CONTINUOUS
 62
     6
 10
7523.8966001008084
 20
20100.485842999991
 30
0.0
 11
8041.5852481008169
 21
20100.485842999991
 31
0.0
  0
LINE
  5
CB20
  8
0-6
  6
CONTINUOUS
 62
     6
 10
13083.431930100969
 20
17793.307889474359
 30
0.0
 11
12993.61622310096
 21
17928.380340474359
 31
0.0
  0
LINE
  5
CB21
  8
0-6
  6
CONTINUOUS
 62
     6
 10
12993.61622310096
 20
17928.380340474359
 30
0.0
 11
13034.770414100971
 21
17771.479738474362
 31
0.0
  0
LINE
  5
CB22
  8
0-6
  6
CONTINUOUS
 62
     6
 10
12993.61622310096
 20
17928.380340474359
 30
0.0
 11
13083.431930100969
 21
17793.307889474359
 31
0.0
  0
LINE
  5
CB23
  8
0-6
  6
CONTINUOUS
 62
     6
 10
13083.431930100969
 20
17793.307889474359
 30
0.0
 11
13034.770414100971
 21
17771.479738474362
 31
0.0
  0
LINE
  5
CB24
  8
0-6
  6
CONTINUOUS
 62
     6
 10
13034.770414100971
 20
17771.479738474362
 30
0.0
 11
12993.61622310096
 21
17928.380340474359
 31
0.0
  0
LINE
  5
CB25
  8
0-6
  6
CONTINUOUS
 62
     6
 10
13034.770414100971
 20
17771.479738474362
 30
0.0
 11
13083.431930100969
 21
17793.307889474359
 31
0.0
  0
LINE
  5
CB26
  8
0-6
  6
CONTINUOUS
 62
     6
 10
26834.129296566822
 20
16367.945196999999
 30
0.0
 11
26987.967583566799
 21
16419.380018
 31
0.0
  0
LINE
  5
CB27
  8
0-6
  6
CONTINUOUS
 62
     6
 10
26987.967583566799
 20
16419.380018
 30
0.0
 11
26859.126657566809
 21
16320.83364399998
 31
0.0
  0
LINE
  5
CB28
  8
0-6
  6
CONTINUOUS
 62
     6
 10
26987.967583566799
 20
16419.380018
 30
0.0
 11
26834.129296566822
 21
16367.945196999999
 31
0.0
  0
LINE
  5
CB29
  8
0-6
  6
CONTINUOUS
 62
     6
 10
26834.129296566822
 20
16367.945196999999
 30
0.0
 11
26859.126657566809
 21
16320.83364399998
 31
0.0
  0
LINE
  5
CB2A
  8
0-6
  6
CONTINUOUS
 62
     6
 10
26859.126657566809
 20
16320.83364399998
 30
0.0
 11
26987.967583566799
 21
16419.380018
 31
0.0
  0
LINE
  5
CB2B
  8
0-6
  6
CONTINUOUS
 62
     6
 10
26859.126657566809
 20
16320.83364399998
 30
0.0
 11
26834.129296566822
 21
16367.945196999999
 31
0.0
  0
LINE
  5
CB2C
  8
0-6
  6
CONTINUOUS
 62
     6
 10
13158.14193010095
 20
17561.601280474351
 30
0.0
 11
13678.142656100959
 21
17561.601280474351
 31
0.0
  0
LINE
  5
CB2D
  8
0-6
  6
CONTINUOUS
 62
     6
 10
11285.49387177013
 20
13676.376956
 30
0.0
 11
11368.38126377011
 21
13853.31523499998
 31
0.0
  0
LINE
  5
CB2E
  8
0-6
  6
CONTINUOUS
 62
     6
 10
11368.38126377011
 20
13853.31523499998
 30
0.0
 11
12168.38192377011
 21
13853.31523499998
 31
0.0
  0
LINE
  5
CB2F
  8
0-6
  6
CONTINUOUS
 62
     6
 10
11441.4710532646
 20
13166.93993099999
 30
0.0
 11
11335.200598264581
 21
13289.48697799999
 31
0.0
  0
LINE
  5
CB30
  8
0-6
  6
CONTINUOUS
 62
     6
 10
11335.200598264581
 20
13289.48697799999
 30
0.0
 11
11395.982706264591
 21
13139.098002000001
 31
0.0
  0
LINE
  5
CB31
  8
0-6
  6
CONTINUOUS
 62
     6
 10
11335.200598264581
 20
13289.48697799999
 30
0.0
 11
11441.4710532646
 21
13166.93993099999
 31
0.0
  0
LINE
  5
CB32
  8
0-6
  6
CONTINUOUS
 62
     6
 10
11441.4710532646
 20
13166.93993099999
 30
0.0
 11
11395.982706264591
 21
13139.098002000001
 31
0.0
  0
LINE
  5
CB33
  8
0-6
  6
CONTINUOUS
 62
     6
 10
11395.982706264591
 20
13139.098002000001
 30
0.0
 11
11335.200598264581
 21
13289.48697799999
 31
0.0
  0
LINE
  5
CB34
  8
0-6
  6
CONTINUOUS
 62
     6
 10
11395.982706264591
 20
13139.098002000001
 30
0.0
 11
11441.4710532646
 21
13166.93993099999
 31
0.0
  0
LINE
  5
CB35
  8
0-6
  6
CONTINUOUS
 62
     6
 10
11261.34671477011
 20
13687.688915000001
 30
0.0
 11
11217.621128770101
 21
13531.486094
 31
0.0
  0
LINE
  5
CB36
  8
0-6
  6
CONTINUOUS
 62
     6
 10
11217.621128770101
 20
13531.486094
 30
0.0
 11
11309.64201977011
 21
13665.064006999981
 31
0.0
  0
LINE
  5
CB37
  8
0-6
  6
CONTINUOUS
 62
     6
 10
11217.621128770101
 20
13531.486094
 30
0.0
 11
11261.34671477011
 21
13687.688915000001
 31
0.0
  0
LINE
  5
CB38
  8
0-6
  6
CONTINUOUS
 62
     6
 10
11261.34671477011
 20
13687.688915000001
 30
0.0
 11
11309.64201977011
 21
13665.064006999981
 31
0.0
  0
LINE
  5
CB39
  8
0-6
  6
CONTINUOUS
 62
     6
 10
11309.64201977011
 20
13665.064006999981
 30
0.0
 11
11217.621128770101
 21
13531.486094
 31
0.0
  0
LINE
  5
CB3A
  8
0-6
  6
CONTINUOUS
 62
     6
 10
11309.64201977011
 20
13665.064006999981
 30
0.0
 11
11261.34671477011
 21
13687.688915000001
 31
0.0
  0
LINE
  5
CB3B
  8
0-6
  6
CONTINUOUS
 62
     6
 10
11824.83946826459
 20
12489.487308
 30
0.0
 11
12687.41963926459
 21
12489.487308
 31
0.0
  0
LINE
  5
CB3C
  8
0-6
  6
CONTINUOUS
 62
     6
 10
11418.727375264591
 20
13153.018967
 30
0.0
 11
11824.83946826459
 21
12489.487308
 31
0.0
  0
LINE
  5
CB3D
  8
0-6
  6
CONTINUOUS
 62
     6
 10
13056.06706510096
 20
13861.776687
 30
0.0
 11
13033.616355100959
 21
14022.42253799999
 31
0.0
  0
LINE
  5
CB3E
  8
0-6
  6
CONTINUOUS
 62
     6
 10
13033.616355100959
 20
14022.42253799999
 30
0.0
 11
13106.953559100981
 21
13877.741504
 31
0.0
  0
LINE
  5
CB3F
  8
0-6
  6
CONTINUOUS
 62
     6
 10
13033.616355100959
 20
14022.42253799999
 30
0.0
 11
13056.06706510096
 21
13861.776687
 31
0.0
  0
LINE
  5
CB40
  8
0-6
  6
CONTINUOUS
 62
     6
 10
13056.06706510096
 20
13861.776687
 30
0.0
 11
13106.953559100981
 21
13877.741504
 31
0.0
  0
LINE
  5
CB41
  8
0-6
  6
CONTINUOUS
 62
     6
 10
13106.953559100981
 20
13877.741504
 30
0.0
 11
13033.616355100959
 21
14022.42253799999
 31
0.0
  0
LINE
  5
CB42
  8
0-6
  6
CONTINUOUS
 62
     6
 10
13106.953559100981
 20
13877.741504
 30
0.0
 11
13056.06706510096
 21
13861.776687
 31
0.0
  0
LINE
  5
CB43
  8
0-6
  6
CONTINUOUS
 62
     6
 10
13668.251002100969
 20
11999.48618599998
 30
0.0
 11
14748.25060610097
 21
11999.48618599998
 31
0.0
  0
LINE
  5
CB44
  8
0-6
  6
CONTINUOUS
 62
     6
 10
13081.510807100971
 20
13869.75810599999
 30
0.0
 11
13668.25100210096
 21
11999.48618599998
 31
0.0
  0
LINE
  5
CB45
  8
0-6
  6
CONTINUOUS
 62
     6
 10
13059.10166710096
 20
17782.394803474352
 30
0.0
 11
13158.14193010095
 21
17561.601280474351
 31
0.0
  0
LINE
  5
CB46
  8
0-6
  6
CONTINUOUS
 62
     6
 10
26718.025497629249
 20
16859.261708999991
 30
0.0
 11
26860.913087629229
 21
16782.48806
 31
0.0
  0
LINE
  5
CB47
  8
0-6
  6
CONTINUOUS
 62
     6
 10
26860.913087629229
 20
16782.48806
 30
0.0
 11
26700.851194629249
 21
16808.772108000001
 31
0.0
  0
LINE
  5
CB48
  8
0-6
  6
CONTINUOUS
 62
     6
 10
26860.913087629229
 20
16782.48806
 30
0.0
 11
26718.025497629249
 21
16859.261708999991
 31
0.0
  0
LINE
  5
CB49
  8
0-6
  6
CONTINUOUS
 62
     6
 10
26718.025497629249
 20
16859.261708999991
 30
0.0
 11
26700.851194629249
 21
16808.772108000001
 31
0.0
  0
LINE
  5
CB4A
  8
0-6
  6
CONTINUOUS
 62
     6
 10
26700.851194629249
 20
16808.772108000001
 30
0.0
 11
26860.913087629229
 21
16782.48806
 31
0.0
  0
LINE
  5
CB4B
  8
0-6
  6
CONTINUOUS
 62
     6
 10
26700.851194629249
 20
16808.772108000001
 30
0.0
 11
26718.025497629249
 21
16859.261708999991
 31
0.0
  0
LINE
  5
CB4C
  8
0-6
  6
CONTINUOUS
 62
     6
 10
26774.369609566798
 20
13788.292998000001
 30
0.0
 11
26906.9696415668
 21
13694.868629000001
 31
0.0
  0
LINE
  5
CB4D
  8
0-6
  6
CONTINUOUS
 62
     6
 10
26906.9696415668
 20
13694.868629000001
 30
0.0
 11
26751.2349765668
 21
13740.236226000001
 31
0.0
  0
LINE
  5
CB4E
  8
0-6
  6
CONTINUOUS
 62
     6
 10
26906.9696415668
 20
13694.868629000001
 30
0.0
 11
26774.369609566798
 21
13788.292998000001
 31
0.0
  0
LINE
  5
CB4F
  8
0-6
  6
CONTINUOUS
 62
     6
 10
26774.369609566798
 20
13788.292998000001
 30
0.0
 11
26751.2349765668
 21
13740.236226000001
 31
0.0
  0
LINE
  5
CB50
  8
0-6
  6
CONTINUOUS
 62
     6
 10
26751.2349765668
 20
13740.236226000001
 30
0.0
 11
26906.9696415668
 21
13694.868629000001
 31
0.0
  0
LINE
  5
CB51
  8
0-6
  6
CONTINUOUS
 62
     6
 10
26751.2349765668
 20
13740.236226000001
 30
0.0
 11
26774.369609566798
 21
13788.292998000001
 31
0.0
  0
LINE
  5
CB52
  8
0-6
  6
CONTINUOUS
 62
     6
 10
26771.224155566801
 20
13331.20929099999
 30
0.0
 11
26902.969034566799
 21
13425.84017699998
 31
0.0
  0
LINE
  5
CB53
  8
0-6
  6
CONTINUOUS
 62
     6
 10
26902.969034566799
 20
13425.84017699998
 30
0.0
 11
26809.036918566799
 21
13293.598438000001
 31
0.0
  0
LINE
  5
CB54
  8
0-6
  6
CONTINUOUS
 62
     6
 10
26902.969034566799
 20
13425.84017699998
 30
0.0
 11
26771.224155566801
 21
13331.20929099999
 31
0.0
  0
LINE
  5
CB55
  8
0-6
  6
CONTINUOUS
 62
     6
 10
26771.224155566801
 20
13331.20929099999
 30
0.0
 11
26809.036918566799
 21
13293.598438000001
 31
0.0
  0
LINE
  5
CB56
  8
0-6
  6
CONTINUOUS
 62
     6
 10
26809.036918566799
 20
13293.598438000001
 30
0.0
 11
26902.969034566799
 21
13425.84017699998
 31
0.0
  0
LINE
  5
CB57
  8
0-6
  6
CONTINUOUS
 62
     6
 10
26809.036918566799
 20
13293.598438000001
 30
0.0
 11
26771.224155566801
 21
13331.20929099999
 31
0.0
  0
LINE
  5
CB58
  8
0-6
  6
CONTINUOUS
 62
     6
 10
26846.627977566812
 20
16344.389915
 30
0.0
 11
26266.965551566798
 21
16036.845969999989
 31
0.0
  0
LINE
  5
CB59
  8
0-6
  6
CONTINUOUS
 62
     6
 10
5316.7491888790537
 20
19870.485579
 30
0.0
 11
5225.061846879049
 21
20004.293117000001
 31
0.0
  0
LINE
  5
CB5A
  8
0-6
  6
CONTINUOUS
 62
     6
 10
5186.620585879049
 20
19967.325606999992
 30
0.0
 11
5316.7491888790537
 21
19870.485579
 31
0.0
  0
LINE
  5
CB5B
  8
0-6
  6
CONTINUOUS
 62
     6
 10
5186.620585879049
 20
19967.325606999992
 30
0.0
 11
5225.061846879049
 21
20004.293117000001
 31
0.0
  0
LINE
  5
CB5C
  8
0-6
  6
CONTINUOUS
 62
     6
 10
5205.840720879045
 20
19985.808372
 30
0.0
 11
4688.8518328790524
 21
20490.486634999979
 31
0.0
  0
LINE
  5
CB5D
  8
0-6
  6
CONTINUOUS
 62
     6
 10
3013.852492879043
 20
20490.486634999979
 30
0.0
 11
4688.8518328790524
 21
20490.486634999979
 31
0.0
  0
TEXT
  5
CB5E
  8
0-6
  6
CONTINUOUS
 62
     7
 10
24838.66093212787
 20
19059.17395
 30
0.0
 40
160.0
  1
間柱（後）
 72
     4
 11
25259.994265461199
 21
19139.17395
 31
0.0
  0
TEXT
  5
CB5F
  8
0-6
  6
CONTINUOUS
 62
     7
 10
25321.864888404041
 20
18557.625306999991
 30
0.0
 40
160.0
  1
間柱（側）
 72
     4
 11
25743.19822173737
 21
18637.625306999991
 31
0.0
  0
TEXT
  5
CB60
  8
0-6
  6
CONTINUOUS
 62
     7
 10
25107.801944629231
 20
17077.865883999992
 30
0.0
 40
160.0
  1
中柱（左右）
 72
     4
 11
25625.135277962559
 21
17157.865883999992
 31
0.0
  0
TEXT
  5
CB61
  8
0-6
  6
CONTINUOUS
 62
     7
 10
25426.9667385668
 20
16116.844254
 30
0.0
 40
160.0
  1
壁パネル
 72
     4
 11
25789.633405233471
 21
16196.844254
 31
0.0
  0
TEXT
  5
CB62
  8
0-6
  6
CONTINUOUS
 62
     7
 10
25826.968058566788
 20
14082.94136999999
 30
0.0
 40
160.0
  1
下枠
 72
     4
 11
25997.63472523346
 21
14162.94136999999
 31
0.0
  0
TEXT
  5
CB63
  8
0-6
  6
CONTINUOUS
 62
     7
 10
25402.199001566802
 20
12921.98737399998
 30
0.0
 40
160.0
  1
前柱（右）
 72
     4
 11
25818.199001566802
 21
13001.98737399998
 31
0.0
  0
TEXT
  5
CB64
  8
0-6
  6
CONTINUOUS
 62
     7
 10
27781.182453566791
 20
20545.548922999998
 30
0.0
 40
160.0
  1
後柱（左右）
 72
     4
 11
28293.182453566791
 21
20625.548922999998
 31
0.0
  0
TEXT
  5
CB65
  8
0-6
  6
CONTINUOUS
 62
     7
 10
7603.8968641008314
 20
20180.486106999979
 30
0.0
 40
160.0
  1
屋根
 72
     4
 11
7774.5635307674984
 21
20260.486106999979
 31
0.0
  0
TEXT
  5
CB66
  8
0-6
  6
CONTINUOUS
 62
     7
 10
11448.380537770099
 20
13933.315499
 30
0.0
 40
160.0
  1
桁（前）
 72
     4
 11
11768.380537770099
 21
14013.315499
 31
0.0
  0
TEXT
  5
CB67
  8
0-6
  6
CONTINUOUS
 62
     7
 10
11904.83874226459
 20
12569.48658199999
 30
0.0
 40
160.0
  1
鼻隠し前
 72
     4
 11
12267.50540893126
 21
12649.48658199999
 31
0.0
  0
TEXT
  5
CB68
  8
0-6
  6
CONTINUOUS
 62
     7
 10
13748.25126610097
 20
12079.485459999991
 30
0.0
 40
160.0
  1
ケラバ 右
 72
     4
 11
14164.25126610097
 21
12159.485459999991
 31
0.0
  0
TEXT
  5
CB69
  8
0-6
  6
CONTINUOUS
 62
     7
 10
13238.14219410097
 20
17641.601544474372
 30
0.0
 40
160.0
  1
上枠
 72
     4
 11
13408.80886076764
 21
17721.601544474372
 31
0.0
  0
TEXT
  5
CB6A
  8
0-6
  6
CONTINUOUS
 62
     7
 10
3093.852756879051
 20
20570.484918999991
 30
0.0
 40
160.0
  1
鼻隠しコーナー後
 72
     4
 11
3840.5194235457179
 21
20650.484918999991
 31
0.0
  0
TEXT
  5
CB6B
  8
0-6
  6
CONTINUOUS
 62
     7
 10
4021.013004755785
 20
14681.64230055935
 30
0.0
 40
160.0
  1
梁（P）前
 72
     4
 11
4463.6796714224529
 21
14761.64230055935
 31
0.0
  0
LINE
  5
CB6C
  8
0-6
  6
CONTINUOUS
 62
     6
 10
3956.8153165737449
 20
14601.643026559341
 30
0.0
 11
4971.8054858985906
 21
14601.643026559341
 31
0.0
  0
LINE
  5
CB6D
  8
0-6
  6
CONTINUOUS
 62
     6
 10
5307.8975284666221
 20
15289.39418566413
 30
0.0
 11
4971.8054858985906
 21
14601.643026559341
 31
0.0
  0
LINE
  5
CB6E
  8
0-6
  6
CONTINUOUS
 62
     6
 10
19800.963859563941
 20
12841.98711
 30
0.0
 11
20800.963200563929
 21
12841.98711
 31
0.0
  0
TEXT
  5
CB6F
  8
0-6
  6
CONTINUOUS
 62
     7
 10
19896.964123563921
 20
12921.98737399998
 30
0.0
 40
160.0
  1
前柱（P）
 72
     4
 11
20296.964123563921
 21
13001.98737399998
 31
0.0
  0
LINE
  5
CB70
  8
0-6
  6
CONTINUOUS
 62
     6
 10
19395.887495742511
 20
13427.986252000001
 30
0.0
 11
19800.963859563941
 21
12841.98711
 31
0.0
  0
LINE
  5
CB71
  8
0-6
  6
CONTINUOUS
 62
     6
 10
19800.963859563941
 20
16080.047909954121
 30
0.0
 11
20800.963200563929
 21
16080.047909954121
 31
0.0
  0
TEXT
  5
CB72
  8
0-6
  6
CONTINUOUS
 62
     7
 10
19896.964123563921
 20
16160.048173954099
 30
0.0
 40
160.0
  1
中柱（P）
 72
     4
 11
20296.964123563921
 21
16240.048173954099
 31
0.0
  0
LINE
  5
CB73
  8
0-6
  6
CONTINUOUS
 62
     6
 10
19395.887495742511
 20
16666.047051954109
 30
0.0
 11
19800.963859563941
 21
16080.047909954121
 31
0.0
  0
LINE
  5
CB74
  8
0-6
  6
CONTINUOUS
 62
     6
 10
19714.85214469791
 20
14042.976989828871
 30
0.0
 11
21170.852144697921
 21
14042.976989828871
 31
0.0
  0
TEXT
  5
CB75
  8
0-6
  6
CONTINUOUS
 62
     7
 10
19754.857417950308
 20
14122.97725382886
 30
0.0
 40
160.0
  1
前柱カバー（P）
 72
     4
 11
20442.857417950308
 21
14202.97725382886
 31
0.0
  0
LINE
  5
CB76
  8
0-6
  6
CONTINUOUS
 62
     6
 10
19415.614549406961
 20
13554.586251999999
 30
0.0
 11
19714.85214469791
 21
14042.976989828871
 31
0.0
  0
LINE
  5
CB77
  8
0-6
  6
CONTINUOUS
 62
     6
 10
19714.85214469791
 20
17300.976553828881
 30
0.0
 11
21170.852144697921
 21
17300.976553828881
 31
0.0
  0
TEXT
  5
CB78
  8
0-6
  6
CONTINUOUS
 62
     7
 10
19754.857417950308
 20
17380.976817828861
 30
0.0
 40
160.0
  1
中柱カバー（P）
 72
     4
 11
20442.857417950308
 21
17460.976817828861
 31
0.0
  0
LINE
  5
CB79
  8
0-6
  6
CONTINUOUS
 62
     6
 10
19415.614549406961
 20
16812.585815999999
 30
0.0
 11
19714.85214469791
 21
17300.976553828881
 31
0.0
  0
LINE
  5
CB7A
  8
0-6
  6
CONTINUOUS
 62
     6
 10
19651.018618021801
 20
20091.00702862351
 30
0.0
 11
20651.017959021789
 21
20091.00702862351
 31
0.0
  0
TEXT
  5
CB7B
  8
0-6
  6
CONTINUOUS
 62
     7
 10
19747.018882021792
 20
20171.007292623512
 30
0.0
 40
160.0
  1
後柱（P）
 72
     4
 11
20147.018882021792
 21
20251.007292623512
 31
0.0
  0
LINE
  5
CB7C
  8
0-6
  6
CONTINUOUS
 62
     6
 10
19395.887495742511
 20
19721.924475045871
 30
0.0
 11
19651.018618021801
 21
20091.00702862351
 31
0.0
  0
LINE
  5
CB7D
  8
0-6
  6
CONTINUOUS
 62
     6
 10
19714.85214469791
 20
19086.994973171109
 30
0.0
 11
21170.852144697921
 21
19086.994973171109
 31
0.0
  0
TEXT
  5
CB7E
  8
0-6
  6
CONTINUOUS
 62
     7
 10
19754.857417950308
 20
19166.995237171112
 30
0.0
 40
160.0
  1
後柱カバー（P）
 72
     4
 11
20442.857417950308
 21
19246.995237171112
 31
0.0
  0
LINE
  5
CB7F
  8
0-6
  6
CONTINUOUS
 62
     6
 10
19415.614549406961
 20
19575.385710999992
 30
0.0
 11
19714.85214469791
 21
19086.994973171109
 31
0.0
  0
LINE
  5
CB80
  8
0-6
  6
CONTINUOUS
 62
     6
 10
11385.385107841201
 20
16185.688517404309
 30
0.0
 11
12265.384051841231
 21
16185.688517404309
 31
0.0
  0
LINE
  5
CB81
  8
0-6
  6
CONTINUOUS
 62
     6
 10
11207.62297049281
 20
16015.67138973398
 30
0.0
 11
11385.385107841201
 21
16185.688517404309
 31
0.0
  0
LINE
  5
CB82
  8
0-6
  6
CONTINUOUS
 62
     6
 10
11091.99533049282
 20
15905.08162573397
 30
0.0
 11
11189.19266249284
 21
16034.94398273397
 31
0.0
  0
LINE
  5
CB83
  8
0-6
  6
CONTINUOUS
 62
     6
 10
11226.054267492809
 20
15996.39879673398
 30
0.0
 11
11091.99533049282
 21
15905.08162573397
 31
0.0
  0
LINE
  5
CB84
  8
0-6
  6
CONTINUOUS
 62
     6
 10
11226.054267492809
 20
15996.39879673398
 30
0.0
 11
11189.19266249284
 21
16034.94398273397
 31
0.0
  0
TEXT
  5
CB85
  8
0-6
  6
CONTINUOUS
 62
     7
 10
11465.386361841211
 20
16265.688781404309
 30
0.0
 40
160.0
  1
ブレース
 72
     4
 11
11828.05302850788
 21
16351.02211473764
 31
0.0
  0
LINE
  5
CB86
  8
0-6
  6
CONTINUOUS
 62
     6
 10
12330.455941556191
 20
16784.988192000001
 30
0.0
 11
12211.158323223841
 21
17100.580529999999
 31
0.0
  0
LINE
  5
CB87
  8
0-6
  6
CONTINUOUS
 62
     6
 10
11410.58756222384
 20
17100.580529999999
 30
0.0
 11
12211.158323223841
 21
17100.580529999999
 31
0.0
  0
TEXT
  5
CB88
  8
0-6
  6
CONTINUOUS
 62
     7
 10
11491.15792722383
 20
17180.580794000001
 30
0.0
 40
160.0
  1
桁（中）
 72
     4
 11
11811.15792722383
 21
17260.580794000001
 31
0.0
  0
LINE
  5
CB89
  8
0-6
  6
CONTINUOUS
 62
     6
 10
7655.9582685159976
 20
15087.02979134236
 30
0.0
 11
8535.9572125160084
 21
15087.02979134236
 31
0.0
  0
LINE
  5
CB8A
  8
0-6
  6
CONTINUOUS
 62
     6
 10
8903.6989180906239
 20
15554.87809797555
 30
0.0
 11
8535.9572125160084
 21
15087.02979134236
 31
0.0
  0
TEXT
  5
CB8B
  8
0-6
  6
CONTINUOUS
 62
     7
 10
7735.9595225160019
 20
15167.03005534236
 30
0.0
 40
160.0
  1
ブレース
 72
     4
 11
8098.626189182668
 21
15252.3633886757
 31
0.0
  0
LINE
  5
CB8C
  8
0-6
  6
CONTINUOUS
 62
     6
 10
26805.320072404022
 20
18810.346484999991
 30
0.0
 11
26957.903344404029
 21
18865.390958
 31
0.0
  0
LINE
  5
CB8D
  8
0-6
  6
CONTINUOUS
 62
     6
 10
26957.903344404029
 20
18865.390958
 30
0.0
 11
26831.42200440403
 21
18763.83571599999
 31
0.0
  0
LINE
  5
CB8E
  8
0-6
  6
CONTINUOUS
 62
     6
 10
26957.903344404029
 20
18865.390958
 30
0.0
 11
26805.320072404022
 21
18810.346484999991
 31
0.0
  0
LINE
  5
CB8F
  8
0-6
  6
CONTINUOUS
 62
     6
 10
26831.42200440403
 20
18763.83571599999
 30
0.0
 11
26957.903344404029
 21
18865.390958
 31
0.0
  0
LINE
  5
CB90
  8
0-6
  6
CONTINUOUS
 62
     6
 10
26831.42200440403
 20
18763.83571599999
 30
0.0
 11
26805.320072404022
 21
18810.346484999991
 31
0.0
  0
LINE
  5
CB91
  8
0-6
  6
CONTINUOUS
 62
     6
 10
26818.371038404039
 20
18787.089121000001
 30
0.0
 11
26266.900916404051
 21
18477.625043
 31
0.0
  0
LINE
  5
CB92
  8
0-1
  6
CONTINUOUS
 62
     3
 10
24345.970723566781
 20
13918.083366999999
 30
0.0
 11
24345.970723566781
 21
14561.889632
 31
0.0
  0
LINE
  5
CB93
  8
0-1
  6
CONTINUOUS
 62
     3
 10
24357.972544566768
 20
13873.889624999991
 30
0.0
 11
24350.97098756678
 21
13873.889624999991
 31
0.0
  0
LINE
  5
CB94
  8
0-1
  6
CONTINUOUS
 62
     3
 10
24350.97098756678
 20
13873.889624999991
 30
0.0
 11
24350.97098756678
 21
13878.88988899998
 31
0.0
  0
LINE
  5
CB95
  8
0-1
  6
CONTINUOUS
 62
     3
 10
24350.97098756678
 20
13878.88988899998
 30
0.0
 11
24375.970327566782
 21
13878.88988899998
 31
0.0
  0
LINE
  5
CB96
  8
0-1
  6
CONTINUOUS
 62
     3
 10
24375.970327566782
 20
13878.88988899998
 30
0.0
 11
24375.970327566782
 21
13860.891116000001
 31
0.0
  0
LINE
  5
CB97
  8
0-1
  6
CONTINUOUS
 62
     3
 10
24375.970327566782
 20
13860.891116000001
 30
0.0
 11
24345.970723566781
 21
13860.891116000001
 31
0.0
  0
LINE
  5
CB98
  8
0-1
  6
CONTINUOUS
 62
     3
 10
24375.970327566782
 20
13876.98658199999
 30
0.0
 11
24375.970327566782
 21
13870.986661000001
 31
0.0
  0
LINE
  5
CB99
  8
0-1
  6
CONTINUOUS
 62
     3
 10
24375.970327566782
 20
13870.986661000001
 30
0.0
 11
24345.970723566781
 21
13870.986661000001
 31
0.0
  0
LINE
  5
CB9A
  8
0-1
  6
CONTINUOUS
 62
     3
 10
24345.970723566781
 20
13870.986661000001
 30
0.0
 11
24345.970723566781
 21
13907.985843
 31
0.0
  0
LINE
  5
CB9B
  8
0-1
  6
CONTINUOUS
 62
     3
 10
24375.970327566782
 20
13907.985843
 30
0.0
 11
24345.970723566781
 21
13907.985843
 31
0.0
  0
LINE
  5
CB9C
  8
0-1
  6
CONTINUOUS
 62
     3
 10
24375.970327566782
 20
13901.986912
 30
0.0
 11
24375.970327566782
 21
13907.985843
 31
0.0
  0
LINE
  5
CB9D
  8
0-1
  6
CONTINUOUS
 62
     3
 10
24375.970327566782
 20
13918.083366999999
 30
0.0
 11
24345.970723566781
 21
13918.083366999999
 31
0.0
  0
LINE
  5
CB9E
  8
0-1
  6
CONTINUOUS
 62
     3
 10
24375.970327566782
 20
13900.081625000001
 30
0.0
 11
24375.970327566782
 21
13918.083366999999
 31
0.0
  0
LINE
  5
CB9F
  8
0-1
  6
CONTINUOUS
 62
     3
 10
24350.97098756678
 20
13900.081625000001
 30
0.0
 11
24375.970327566782
 21
13900.081625000001
 31
0.0
  0
LINE
  5
CBA0
  8
0-1
  6
CONTINUOUS
 62
     3
 10
24350.97098756678
 20
13905.08287899999
 30
0.0
 11
24350.97098756678
 21
13900.081625000001
 31
0.0
  0
LINE
  5
CBA1
  8
0-1
  6
CONTINUOUS
 62
     3
 10
24357.972544566768
 20
13905.08287899999
 30
0.0
 11
24350.97098756678
 21
13905.08287899999
 31
0.0
  0
LINE
  5
CBA2
  8
0-1
  6
CONTINUOUS
 62
     3
 10
26998.470723566799
 20
13914.58331399999
 30
0.0
 11
26998.470723566799
 21
14577.890944999999
 31
0.0
  0
LINE
  5
CBA3
  8
0-1
  6
CONTINUOUS
 62
     3
 10
26986.470881566791
 20
13870.389572
 30
0.0
 11
26993.470459566772
 21
13870.389572
 31
0.0
  0
LINE
  5
CBA4
  8
0-1
  6
CONTINUOUS
 62
     3
 10
26993.470459566772
 20
13870.389572
 30
0.0
 11
26993.470459566772
 21
13875.38983599998
 31
0.0
  0
LINE
  5
CBA5
  8
0-1
  6
CONTINUOUS
 62
     3
 10
26993.470459566772
 20
13875.38983599998
 30
0.0
 11
26968.473098566781
 21
13875.38983599998
 31
0.0
  0
LINE
  5
CBA6
  8
0-1
  6
CONTINUOUS
 62
     3
 10
26968.473098566781
 20
13875.38983599998
 30
0.0
 11
26968.473098566781
 21
13857.39106299999
 31
0.0
  0
LINE
  5
CBA7
  8
0-1
  6
CONTINUOUS
 62
     3
 10
26968.473098566781
 20
13857.39106299999
 30
0.0
 11
26998.470723566799
 21
13857.39106299999
 31
0.0
  0
LINE
  5
CBA8
  8
0-1
  6
CONTINUOUS
 62
     3
 10
26968.473098566781
 20
13873.486529
 30
0.0
 11
26968.473098566781
 21
13867.48660799999
 31
0.0
  0
LINE
  5
CBA9
  8
0-1
  6
CONTINUOUS
 62
     3
 10
26968.473098566781
 20
13867.48660799999
 30
0.0
 11
26998.470723566799
 21
13867.48660799999
 31
0.0
  0
LINE
  5
CBAA
  8
0-1
  6
CONTINUOUS
 62
     3
 10
26998.470723566799
 20
13867.48660799999
 30
0.0
 11
26998.470723566799
 21
13904.485790000001
 31
0.0
  0
LINE
  5
CBAB
  8
0-1
  6
CONTINUOUS
 62
     3
 10
26968.473098566781
 20
13904.485790000001
 30
0.0
 11
26998.470723566799
 21
13904.485790000001
 31
0.0
  0
LINE
  5
CBAC
  8
0-1
  6
CONTINUOUS
 62
     3
 10
26968.473098566781
 20
13898.486859000001
 30
0.0
 11
26968.473098566781
 21
13904.485790000001
 31
0.0
  0
LINE
  5
CBAD
  8
0-1
  6
CONTINUOUS
 62
     3
 10
26968.473098566781
 20
13914.58331399999
 30
0.0
 11
26998.470723566799
 21
13914.58331399999
 31
0.0
  0
LINE
  5
CBAE
  8
0-1
  6
CONTINUOUS
 62
     3
 10
26968.473098566781
 20
13896.58157199999
 30
0.0
 11
26968.473098566781
 21
13914.58331399999
 31
0.0
  0
LINE
  5
CBAF
  8
0-1
  6
CONTINUOUS
 62
     3
 10
26993.470459566772
 20
13896.58157199999
 30
0.0
 11
26968.473098566781
 21
13896.58157199999
 31
0.0
  0
LINE
  5
CBB0
  8
0-1
  6
CONTINUOUS
 62
     3
 10
26993.470459566772
 20
13901.582826
 30
0.0
 11
26993.470459566772
 21
13896.58157199999
 31
0.0
  0
LINE
  5
CBB1
  8
0-1
  6
CONTINUOUS
 62
     3
 10
26986.470881566791
 20
13901.582826
 30
0.0
 11
26993.470459566772
 21
13901.582826
 31
0.0
  0
LINE
  5
CBB2
  8
0-1
  6
CONTINUOUS
 62
     3
 10
24777.471133066781
 20
19710.986251999992
 30
0.0
 11
24814.470314066792
 21
19710.986251999992
 31
0.0
  0
LINE
  5
CBB3
  8
0-1
  6
CONTINUOUS
 62
     3
 10
24777.471133066781
 20
19680.984669000001
 30
0.0
 11
24777.471133066781
 21
19710.986251999992
 31
0.0
  0
LINE
  5
CBB4
  8
0-1
  6
CONTINUOUS
 62
     3
 10
24783.473033066792
 20
19680.984669000001
 30
0.0
 11
24777.471133066781
 21
19680.984669000001
 31
0.0
  0
LINE
  5
CBB5
  8
0-1
  6
CONTINUOUS
 62
     3
 10
24767.3755880668
 20
19680.984669000001
 30
0.0
 11
24767.3755880668
 21
19710.986251999992
 31
0.0
  0
LINE
  5
CBB6
  8
0-1
  6
CONTINUOUS
 62
     3
 10
24785.375350066792
 20
19680.984669000001
 30
0.0
 11
24767.3755880668
 21
19680.984669000001
 31
0.0
  0
LINE
  5
CBB7
  8
0-1
  6
CONTINUOUS
 62
     3
 10
24785.375350066792
 20
19705.985988
 30
0.0
 11
24785.375350066792
 21
19680.984669000001
 31
0.0
  0
LINE
  5
CBB8
  8
0-1
  6
CONTINUOUS
 62
     3
 10
24780.37706606678
 20
19705.985988
 30
0.0
 11
24785.375350066792
 21
19705.985988
 31
0.0
  0
LINE
  5
CBB9
  8
0-1
  6
CONTINUOUS
 62
     3
 10
24780.37706606678
 20
19698.984431000001
 30
0.0
 11
24780.37706606678
 21
19705.985988
 31
0.0
  0
LINE
  5
CBBA
  8
0-1
  6
CONTINUOUS
 62
     3
 10
24811.568340066791
 20
19698.984431000001
 30
0.0
 11
24811.568340066791
 21
19705.985988
 31
0.0
  0
LINE
  5
CBBB
  8
0-1
  6
CONTINUOUS
 62
     3
 10
24811.568340066791
 20
19705.985988
 30
0.0
 11
24806.566097066781
 21
19705.985988
 31
0.0
  0
LINE
  5
CBBC
  8
0-1
  6
CONTINUOUS
 62
     3
 10
24806.566097066781
 20
19705.985988
 30
0.0
 11
24806.566097066781
 21
19680.984669000001
 31
0.0
  0
LINE
  5
CBBD
  8
0-1
  6
CONTINUOUS
 62
     3
 10
24806.566097066781
 20
19680.984669000001
 30
0.0
 11
24824.569818066779
 21
19680.984669000001
 31
0.0
  0
LINE
  5
CBBE
  8
0-1
  6
CONTINUOUS
 62
     3
 10
24824.569818066779
 20
19680.984669000001
 30
0.0
 11
24824.569818066779
 21
19710.986251999992
 31
0.0
  0
LINE
  5
CBBF
  8
0-1
  6
CONTINUOUS
 62
     3
 10
24808.47237306679
 20
19680.984669000001
 30
0.0
 11
24814.470314066792
 21
19680.984669000001
 31
0.0
  0
LINE
  5
CBC0
  8
0-1
  6
CONTINUOUS
 62
     3
 10
24814.470314066792
 20
19680.984669000001
 30
0.0
 11
24814.470314066792
 21
19710.986251999992
 31
0.0
  0
LINE
  5
CBC1
  8
0-1
  6
CONTINUOUS
 62
     3
 10
26968.473098566781
 20
19601.986304999991
 30
0.0
 11
26968.473098566781
 21
19595.986383999989
 31
0.0
  0
LINE
  5
CBC2
  8
0-1
  6
CONTINUOUS
 62
     3
 10
26968.473098566781
 20
19595.986383999989
 30
0.0
 11
26998.470723566799
 21
19595.986383999989
 31
0.0
  0
LINE
  5
CBC3
  8
0-1
  6
CONTINUOUS
 62
     3
 10
26998.470723566799
 20
19595.986383999989
 30
0.0
 11
26998.470723566799
 21
19710.986251999992
 31
0.0
  0
LINE
  5
CBC4
  8
0-1
  6
CONTINUOUS
 62
     3
 10
26998.46900856679
 20
19625.985987999979
 30
0.0
 11
26917.471066566792
 21
19625.985987999979
 31
0.0
  0
LINE
  5
CBC5
  8
0-1
  6
CONTINUOUS
 62
     3
 10
26968.473098566781
 20
19585.69090799995
 30
0.0
 11
26998.470723566799
 21
19585.69090799995
 31
0.0
  0
LINE
  5
CBC6
  8
0-1
  6
CONTINUOUS
 62
     3
 10
26968.473098566781
 20
19603.69067
 30
0.0
 11
26968.473098566781
 21
19585.69090799995
 31
0.0
  0
LINE
  5
CBC7
  8
0-1
  6
CONTINUOUS
 62
     3
 10
26993.470459566772
 20
19603.69067
 30
0.0
 11
26968.473098566781
 21
19603.69067
 31
0.0
  0
LINE
  5
CBC8
  8
0-1
  6
CONTINUOUS
 62
     3
 10
26993.470459566772
 20
19598.692385999992
 30
0.0
 11
26993.470459566772
 21
19603.69067
 31
0.0
  0
LINE
  5
CBC9
  8
0-1
  6
CONTINUOUS
 62
     3
 10
26986.470881566791
 20
19598.692385999992
 30
0.0
 11
26993.470459566772
 21
19598.692385999992
 31
0.0
  0
LINE
  5
CBCA
  8
0-1
  6
CONTINUOUS
 62
     3
 10
26886.176857566781
 20
19698.984431000001
 30
0.0
 11
26886.176857566781
 21
19705.985988
 31
0.0
  0
LINE
  5
CBCB
  8
0-1
  6
CONTINUOUS
 62
     3
 10
26886.176857566781
 20
19705.985988
 30
0.0
 11
26891.17712156679
 21
19705.985988
 31
0.0
  0
LINE
  5
CBCC
  8
0-1
  6
CONTINUOUS
 62
     3
 10
26891.17712156679
 20
19705.985988
 30
0.0
 11
26891.17712156679
 21
19680.984669000001
 31
0.0
  0
LINE
  5
CBCD
  8
0-1
  6
CONTINUOUS
 62
     3
 10
26891.17712156679
 20
19680.984669000001
 30
0.0
 11
26873.175379566779
 21
19680.984669000001
 31
0.0
  0
LINE
  5
CBCE
  8
0-1
  6
CONTINUOUS
 62
     3
 10
26873.175379566779
 20
19680.984669000001
 30
0.0
 11
26873.175379566779
 21
19710.986251999992
 31
0.0
  0
LINE
  5
CBCF
  8
0-1
  6
CONTINUOUS
 62
     3
 10
26883.468876566782
 20
19710.986251999992
 30
0.0
 11
26998.470723566799
 21
19710.986251999992
 31
0.0
  0
LINE
  5
CBD0
  8
0-1
  6
CONTINUOUS
 62
     3
 10
26883.468876566782
 20
19680.984669000001
 30
0.0
 11
26883.468876566782
 21
19710.986251999992
 31
0.0
  0
LINE
  5
CBD1
  8
0-1
  6
CONTINUOUS
 62
     3
 10
26889.468797566791
 20
19680.984669000001
 30
0.0
 11
26883.468876566782
 21
19680.984669000001
 31
0.0
  0
LINE
  5
CBD2
  8
0-1
  6
CONTINUOUS
 62
     3
 10
26986.470881566791
 20
18898.892976999989
 30
0.0
 11
26993.470459566772
 21
18898.892976999989
 31
0.0
  0
LINE
  5
CBD3
  8
0-1
  6
CONTINUOUS
 62
     3
 10
26993.470459566772
 20
18898.892976999989
 30
0.0
 11
26993.470459566772
 21
18903.893241000002
 31
0.0
  0
LINE
  5
CBD4
  8
0-1
  6
CONTINUOUS
 62
     3
 10
26993.470459566772
 20
18903.893241000002
 30
0.0
 11
26968.473098566781
 21
18903.893241000002
 31
0.0
  0
LINE
  5
CBD5
  8
0-1
  6
CONTINUOUS
 62
     3
 10
26968.473098566781
 20
18903.893241000002
 30
0.0
 11
26968.473098566781
 21
18885.89149899999
 31
0.0
  0
LINE
  5
CBD6
  8
0-1
  6
CONTINUOUS
 62
     3
 10
26968.473098566781
 20
18885.89149899999
 30
0.0
 11
26998.470723566799
 21
18885.89149899999
 31
0.0
  0
LINE
  5
CBD7
  8
0-1
  6
CONTINUOUS
 62
     3
 10
26968.473098566781
 20
18901.986963999989
 30
0.0
 11
26968.473098566781
 21
18895.987044000001
 31
0.0
  0
LINE
  5
CBD8
  8
0-1
  6
CONTINUOUS
 62
     3
 10
26968.473098566781
 20
18895.987044000001
 30
0.0
 11
26998.470723566799
 21
18895.987044000001
 31
0.0
  0
LINE
  5
CBD9
  8
0-1
  6
CONTINUOUS
 62
     3
 10
26998.470723566799
 20
18895.987044000001
 30
0.0
 11
26998.470723566799
 21
18932.988204999991
 31
0.0
  0
LINE
  5
CBDA
  8
0-1
  6
CONTINUOUS
 62
     3
 10
26968.473098566781
 20
18932.988204999991
 30
0.0
 11
26998.470723566799
 21
18932.988204999991
 31
0.0
  0
LINE
  5
CBDB
  8
0-1
  6
CONTINUOUS
 62
     3
 10
26968.473098566781
 20
18926.988283999999
 30
0.0
 11
26968.473098566781
 21
18932.988204999991
 31
0.0
  0
LINE
  5
CBDC
  8
0-1
  6
CONTINUOUS
 62
     3
 10
26968.473098566781
 20
18943.083749999991
 30
0.0
 11
26998.470723566799
 21
18943.083749999991
 31
0.0
  0
LINE
  5
CBDD
  8
0-1
  6
CONTINUOUS
 62
     3
 10
26968.473098566781
 20
18925.08200799999
 30
0.0
 11
26968.473098566781
 21
18943.083749999991
 31
0.0
  0
LINE
  5
CBDE
  8
0-1
  6
CONTINUOUS
 62
     3
 10
26993.470459566772
 20
18925.08200799999
 30
0.0
 11
26968.473098566781
 21
18925.08200799999
 31
0.0
  0
LINE
  5
CBDF
  8
0-1
  6
CONTINUOUS
 62
     3
 10
26993.470459566772
 20
18930.082271999989
 30
0.0
 11
26993.470459566772
 21
18925.08200799999
 31
0.0
  0
LINE
  5
CBE0
  8
0-1
  6
CONTINUOUS
 62
     3
 10
26986.470881566791
 20
18930.082271999989
 30
0.0
 11
26993.470459566772
 21
18930.082271999989
 31
0.0
  0
LINE
  5
CBE1
  8
0-1
  6
CONTINUOUS
 62
     3
 10
26998.470723566799
 20
19585.69090799995
 30
0.0
 11
26998.470723566799
 21
18943.083749999991
 31
0.0
  0
LINE
  5
CBE2
  8
0-1
  6
CONTINUOUS
 62
     3
 10
26182.375086566772
 20
19698.984431000001
 30
0.0
 11
26182.375086566772
 21
19705.985988
 31
0.0
  0
LINE
  5
CBE3
  8
0-1
  6
CONTINUOUS
 62
     3
 10
26182.375086566772
 20
19705.985988
 30
0.0
 11
26187.375350566781
 21
19705.985988
 31
0.0
  0
LINE
  5
CBE4
  8
0-1
  6
CONTINUOUS
 62
     3
 10
26187.375350566781
 20
19705.985988
 30
0.0
 11
26187.375350566781
 21
19680.984669000001
 31
0.0
  0
LINE
  5
CBE5
  8
0-1
  6
CONTINUOUS
 62
     3
 10
26187.375350566781
 20
19680.984669000001
 30
0.0
 11
26169.375587566781
 21
19680.984669000001
 31
0.0
  0
LINE
  5
CBE6
  8
0-1
  6
CONTINUOUS
 62
     3
 10
26169.375587566781
 20
19680.984669000001
 30
0.0
 11
26169.375587566781
 21
19710.986251999992
 31
0.0
  0
LINE
  5
CBE7
  8
0-1
  6
CONTINUOUS
 62
     3
 10
26185.46907356679
 20
19680.984669000001
 30
0.0
 11
26179.471132566799
 21
19680.984669000001
 31
0.0
  0
LINE
  5
CBE8
  8
0-1
  6
CONTINUOUS
 62
     3
 10
26179.471132566799
 20
19680.984669000001
 30
0.0
 11
26179.471132566799
 21
19710.986251999992
 31
0.0
  0
LINE
  5
CBE9
  8
0-1
  6
CONTINUOUS
 62
     3
 10
26216.470314566781
 20
19710.986251999992
 30
0.0
 11
26179.471132566799
 21
19710.986251999992
 31
0.0
  0
LINE
  5
CBEA
  8
0-1
  6
CONTINUOUS
 62
     3
 10
26216.470314566781
 20
19680.984669000001
 30
0.0
 11
26216.470314566781
 21
19710.986251999992
 31
0.0
  0
LINE
  5
CBEB
  8
0-1
  6
CONTINUOUS
 62
     3
 10
26210.4703935668
 20
19680.984669000001
 30
0.0
 11
26216.470314566781
 21
19680.984669000001
 31
0.0
  0
LINE
  5
CBEC
  8
0-1
  6
CONTINUOUS
 62
     3
 10
26226.565859566781
 20
19680.984669000001
 30
0.0
 11
26226.565859566781
 21
19710.986251999992
 31
0.0
  0
LINE
  5
CBED
  8
0-1
  6
CONTINUOUS
 62
     3
 10
26208.564117566781
 20
19680.984669000001
 30
0.0
 11
26226.565859566781
 21
19680.984669000001
 31
0.0
  0
LINE
  5
CBEE
  8
0-1
  6
CONTINUOUS
 62
     3
 10
26208.564117566781
 20
19705.985988
 30
0.0
 11
26208.564117566781
 21
19680.984669000001
 31
0.0
  0
LINE
  5
CBEF
  8
0-1
  6
CONTINUOUS
 62
     3
 10
26213.56438156679
 20
19705.985988
 30
0.0
 11
26208.564117566781
 21
19705.985988
 31
0.0
  0
LINE
  5
CBF0
  8
0-1
  6
CONTINUOUS
 62
     3
 10
26213.56438156679
 20
19698.984431000001
 30
0.0
 11
26213.56438156679
 21
19705.985988
 31
0.0
  0
LINE
  5
CBF1
  8
0-1
  6
CONTINUOUS
 62
     3
 10
25512.56438056679
 20
19698.984431000001
 30
0.0
 11
25512.56438056679
 21
19705.985988
 31
0.0
  0
LINE
  5
CBF2
  8
0-1
  6
CONTINUOUS
 62
     3
 10
25512.56438056679
 20
19705.985988
 30
0.0
 11
25507.566096566799
 21
19705.985988
 31
0.0
  0
LINE
  5
CBF3
  8
0-1
  6
CONTINUOUS
 62
     3
 10
25507.566096566799
 20
19705.985988
 30
0.0
 11
25507.566096566799
 21
19680.984669000001
 31
0.0
  0
LINE
  5
CBF4
  8
0-1
  6
CONTINUOUS
 62
     3
 10
25507.566096566799
 20
19680.984669000001
 30
0.0
 11
25525.565858566792
 21
19680.984669000001
 31
0.0
  0
LINE
  5
CBF5
  8
0-1
  6
CONTINUOUS
 62
     3
 10
25525.565858566792
 20
19680.984669000001
 30
0.0
 11
25525.565858566792
 21
19710.986251999992
 31
0.0
  0
LINE
  5
CBF6
  8
0-1
  6
CONTINUOUS
 62
     3
 10
25509.468413566789
 20
19680.984669000001
 30
0.0
 11
25515.47031456681
 21
19680.984669000001
 31
0.0
  0
LINE
  5
CBF7
  8
0-1
  6
CONTINUOUS
 62
     3
 10
25515.47031456681
 20
19680.984669000001
 30
0.0
 11
25515.47031456681
 21
19710.986251999992
 31
0.0
  0
LINE
  5
CBF8
  8
0-1
  6
CONTINUOUS
 62
     3
 10
25478.471132566781
 20
19710.986251999992
 30
0.0
 11
25515.47031456681
 21
19710.986251999992
 31
0.0
  0
LINE
  5
CBF9
  8
0-1
  6
CONTINUOUS
 62
     3
 10
25478.471132566781
 20
19680.984669000001
 30
0.0
 11
25478.471132566781
 21
19710.986251999992
 31
0.0
  0
LINE
  5
CBFA
  8
0-1
  6
CONTINUOUS
 62
     3
 10
25484.46907356679
 20
19680.984669000001
 30
0.0
 11
25478.471132566781
 21
19680.984669000001
 31
0.0
  0
LINE
  5
CBFB
  8
0-1
  6
CONTINUOUS
 62
     3
 10
25468.371628566802
 20
19680.984669000001
 30
0.0
 11
25468.371628566802
 21
19710.986251999992
 31
0.0
  0
LINE
  5
CBFC
  8
0-1
  6
CONTINUOUS
 62
     3
 10
25486.371391566769
 20
19680.984669000001
 30
0.0
 11
25468.371628566802
 21
19680.984669000001
 31
0.0
  0
LINE
  5
CBFD
  8
0-1
  6
CONTINUOUS
 62
     3
 10
25486.371391566769
 20
19705.985988
 30
0.0
 11
25486.371391566769
 21
19680.984669000001
 31
0.0
  0
LINE
  5
CBFE
  8
0-1
  6
CONTINUOUS
 62
     3
 10
25481.37508656679
 20
19705.985988
 30
0.0
 11
25486.371391566769
 21
19705.985988
 31
0.0
  0
LINE
  5
CBFF
  8
0-1
  6
CONTINUOUS
 62
     3
 10
25481.37508656679
 20
19698.984431000001
 30
0.0
 11
25481.37508656679
 21
19705.985988
 31
0.0
  0
LINE
  5
CC00
  8
0-1
  6
CONTINUOUS
 62
     3
 10
26169.375587566781
 20
19710.986251999992
 30
0.0
 11
25525.565858566792
 21
19710.986251999992
 31
0.0
  0
LINE
  5
CC01
  8
0-1
  6
CONTINUOUS
 62
     3
 10
24824.569818066779
 20
19710.986251999992
 30
0.0
 11
25468.371628566802
 21
19710.986251999992
 31
0.0
  0
LINE
  5
CC02
  8
0-1
  6
CONTINUOUS
 62
     3
 10
26873.175379566779
 20
19710.986251999992
 30
0.0
 11
26226.565859566781
 21
19710.986251999992
 31
0.0
  0
LINE
  5
CC03
  8
0-1
  6
CONTINUOUS
 62
     3
 10
26986.470881566791
 20
18198.889677999981
 30
0.0
 11
26993.470459566772
 21
18198.889677999981
 31
0.0
  0
LINE
  5
CC04
  8
0-1
  6
CONTINUOUS
 62
     3
 10
26993.470459566772
 20
18198.889677999981
 30
0.0
 11
26993.470459566772
 21
18203.889941999991
 31
0.0
  0
LINE
  5
CC05
  8
0-1
  6
CONTINUOUS
 62
     3
 10
26993.470459566772
 20
18203.889941999991
 30
0.0
 11
26968.473098566781
 21
18203.889941999991
 31
0.0
  0
LINE
  5
CC06
  8
0-1
  6
CONTINUOUS
 62
     3
 10
26968.473098566781
 20
18203.889941999991
 30
0.0
 11
26968.473098566781
 21
18185.890179000002
 31
0.0
  0
LINE
  5
CC07
  8
0-1
  6
CONTINUOUS
 62
     3
 10
26968.473098566781
 20
18185.890179000002
 30
0.0
 11
26998.470723566799
 21
18185.890179000002
 31
0.0
  0
LINE
  5
CC08
  8
0-1
  6
CONTINUOUS
 62
     3
 10
26968.473098566781
 20
18201.98762399999
 30
0.0
 11
26968.473098566781
 21
18195.987703999981
 31
0.0
  0
LINE
  5
CC09
  8
0-1
  6
CONTINUOUS
 62
     3
 10
26968.473098566781
 20
18195.987703999981
 30
0.0
 11
26998.470723566799
 21
18195.987703999981
 31
0.0
  0
LINE
  5
CC0A
  8
0-1
  6
CONTINUOUS
 62
     3
 10
26998.470723566799
 20
18195.987703999981
 30
0.0
 11
26998.470723566799
 21
18232.988864999988
 31
0.0
  0
LINE
  5
CC0B
  8
0-1
  6
CONTINUOUS
 62
     3
 10
26968.473098566781
 20
18232.988864999988
 30
0.0
 11
26998.470723566799
 21
18232.988864999988
 31
0.0
  0
LINE
  5
CC0C
  8
0-1
  6
CONTINUOUS
 62
     3
 10
26968.473098566781
 20
18226.986963999982
 30
0.0
 11
26968.473098566781
 21
18232.988864999988
 31
0.0
  0
LINE
  5
CC0D
  8
0-1
  6
CONTINUOUS
 62
     3
 10
26968.473098566781
 20
18243.084409999989
 30
0.0
 11
26998.470723566799
 21
18243.084409999989
 31
0.0
  0
LINE
  5
CC0E
  8
0-1
  6
CONTINUOUS
 62
     3
 10
26968.473098566781
 20
18225.082667999981
 30
0.0
 11
26968.473098566781
 21
18243.084409999989
 31
0.0
  0
LINE
  5
CC0F
  8
0-1
  6
CONTINUOUS
 62
     3
 10
26993.470459566772
 20
18225.082667999981
 30
0.0
 11
26968.473098566781
 21
18225.082667999981
 31
0.0
  0
LINE
  5
CC10
  8
0-1
  6
CONTINUOUS
 62
     3
 10
26993.470459566772
 20
18230.082932000001
 30
0.0
 11
26993.470459566772
 21
18225.082667999981
 31
0.0
  0
LINE
  5
CC11
  8
0-1
  6
CONTINUOUS
 62
     3
 10
26986.470881566791
 20
18230.082932000001
 30
0.0
 11
26993.470459566772
 21
18230.082932000001
 31
0.0
  0
LINE
  5
CC12
  8
0-1
  6
CONTINUOUS
 62
     3
 10
26986.470881566791
 20
17520.083485999981
 30
0.0
 11
26993.470459566772
 21
17520.083485999981
 31
0.0
  0
LINE
  5
CC13
  8
0-1
  6
CONTINUOUS
 62
     3
 10
26993.470459566772
 20
17520.083485999981
 30
0.0
 11
26993.470459566772
 21
17515.08322199999
 31
0.0
  0
LINE
  5
CC14
  8
0-1
  6
CONTINUOUS
 62
     3
 10
26993.470459566772
 20
17515.08322199999
 30
0.0
 11
26968.473098566781
 21
17515.08322199999
 31
0.0
  0
LINE
  5
CC15
  8
0-1
  6
CONTINUOUS
 62
     3
 10
26968.473098566781
 20
17515.08322199999
 30
0.0
 11
26968.473098566781
 21
17533.084964000001
 31
0.0
  0
LINE
  5
CC16
  8
0-1
  6
CONTINUOUS
 62
     3
 10
26968.473098566781
 20
17533.084964000001
 30
0.0
 11
26998.470723566781
 21
17533.084964000001
 31
0.0
  0
LINE
  5
CC17
  8
0-1
  6
CONTINUOUS
 62
     3
 10
26968.473098566781
 20
17516.985540000001
 30
0.0
 11
26968.473098566781
 21
17522.985461
 31
0.0
  0
LINE
  5
CC18
  8
0-1
  6
CONTINUOUS
 62
     3
 10
26968.473098566781
 20
17522.985461
 30
0.0
 11
26998.470723566781
 21
17522.985461
 31
0.0
  0
LINE
  5
CC19
  8
0-1
  6
CONTINUOUS
 62
     3
 10
26998.470723566781
 20
17522.985461
 30
0.0
 11
26998.470723566781
 21
17485.986278999979
 31
0.0
  0
LINE
  5
CC1A
  8
0-1
  6
CONTINUOUS
 62
     3
 10
26968.473098566781
 20
17485.986278999979
 30
0.0
 11
26998.470723566781
 21
17485.986278999979
 31
0.0
  0
LINE
  5
CC1B
  8
0-1
  6
CONTINUOUS
 62
     3
 10
26968.473098566781
 20
17491.988178999989
 30
0.0
 11
26968.473098566781
 21
17485.986278999979
 31
0.0
  0
LINE
  5
CC1C
  8
0-1
  6
CONTINUOUS
 62
     3
 10
26968.473098566781
 20
17475.89073399999
 30
0.0
 11
26998.470723566781
 21
17475.89073399999
 31
0.0
  0
LINE
  5
CC1D
  8
0-1
  6
CONTINUOUS
 62
     3
 10
26968.473098566781
 20
17493.890496999989
 30
0.0
 11
26968.473098566781
 21
17475.89073399999
 31
0.0
  0
LINE
  5
CC1E
  8
0-1
  6
CONTINUOUS
 62
     3
 10
26993.470459566772
 20
17493.890496999989
 30
0.0
 11
26968.473098566781
 21
17493.890496999989
 31
0.0
  0
LINE
  5
CC1F
  8
0-1
  6
CONTINUOUS
 62
     3
 10
26993.470459566772
 20
17488.890232999991
 30
0.0
 11
26993.470459566772
 21
17493.890496999989
 31
0.0
  0
LINE
  5
CC20
  8
0-1
  6
CONTINUOUS
 62
     3
 10
26986.470881566791
 20
17488.890232999991
 30
0.0
 11
26993.470459566772
 21
17488.890232999991
 31
0.0
  0
LINE
  5
CC21
  8
0-1
  6
CONTINUOUS
 62
     3
 10
26995.582605566779
 20
16772.985461
 30
0.0
 11
26995.582605566779
 21
16792.988496000002
 31
0.0
  0
LINE
  5
CC22
  8
0-1
  6
CONTINUOUS
 62
     3
 10
26995.582605566779
 20
16792.988496000002
 30
0.0
 11
26910.582077566782
 21
16792.988496000002
 31
0.0
  0
LINE
  5
CC23
  8
0-1
  6
CONTINUOUS
 62
     3
 10
26986.470881566791
 20
16819.599163999999
 30
0.0
 11
26993.470459566772
 21
16819.599163999999
 31
0.0
  0
LINE
  5
CC24
  8
0-1
  6
CONTINUOUS
 62
     3
 10
26993.470459566772
 20
16819.599163999999
 30
0.0
 11
26993.470459566772
 21
16814.598900000001
 31
0.0
  0
LINE
  5
CC25
  8
0-1
  6
CONTINUOUS
 62
     3
 10
26993.470459566772
 20
16814.598900000001
 30
0.0
 11
26968.473098566781
 21
16814.598900000001
 31
0.0
  0
LINE
  5
CC26
  8
0-1
  6
CONTINUOUS
 62
     3
 10
26968.473098566781
 20
16814.598900000001
 30
0.0
 11
26968.473098566781
 21
16832.602621999991
 31
0.0
  0
LINE
  5
CC27
  8
0-1
  6
CONTINUOUS
 62
     3
 10
26968.473098566781
 20
16832.602621999991
 30
0.0
 11
26998.470723566781
 21
16832.602621999991
 31
0.0
  0
LINE
  5
CC28
  8
0-1
  6
CONTINUOUS
 62
     3
 10
26968.473098566781
 20
16822.98611999999
 30
0.0
 11
26968.473098566781
 21
16816.988179
 31
0.0
  0
LINE
  5
CC29
  8
0-1
  6
CONTINUOUS
 62
     3
 10
26998.470723566781
 20
16822.98611999999
 30
0.0
 11
26968.473098566781
 21
16822.98611999999
 31
0.0
  0
LINE
  5
CC2A
  8
0-1
  6
CONTINUOUS
 62
     3
 10
26998.470723566781
 20
16832.602621999991
 30
0.0
 11
26998.470723566781
 21
17475.89073399999
 31
0.0
  0
LINE
  5
CC2B
  8
0-1
  6
CONTINUOUS
 62
     3
 10
26998.470723566781
 20
17533.084964000001
 30
0.0
 11
26998.470723566799
 21
18185.890179000002
 31
0.0
  0
LINE
  5
CC2C
  8
0-1
  6
CONTINUOUS
 62
     3
 10
26998.470723566781
 20
16677.986383999982
 30
0.0
 11
26968.473098566781
 21
16677.986383999982
 31
0.0
  0
LINE
  5
CC2D
  8
0-1
  6
CONTINUOUS
 62
     3
 10
26968.473098566781
 20
16677.986383999982
 30
0.0
 11
26968.473098566781
 21
16683.986304999999
 31
0.0
  0
LINE
  5
CC2E
  8
0-1
  6
CONTINUOUS
 62
     3
 10
26910.582077566782
 20
16707.98796799999
 30
0.0
 11
26995.582605566779
 21
16707.98796799999
 31
0.0
  0
LINE
  5
CC2F
  8
0-1
  6
CONTINUOUS
 62
     3
 10
26995.582605566779
 20
16707.98796799999
 30
0.0
 11
26995.582605566779
 21
16727.98704399999
 31
0.0
  0
LINE
  5
CC30
  8
0-1
  6
CONTINUOUS
 62
     3
 10
26968.473098566781
 20
16668.37483199999
 30
0.0
 11
26998.470723566781
 21
16668.37483199999
 31
0.0
  0
LINE
  5
CC31
  8
0-1
  6
CONTINUOUS
 62
     3
 10
26968.473098566781
 20
16686.374594000001
 30
0.0
 11
26968.473098566781
 21
16668.37483199999
 31
0.0
  0
LINE
  5
CC32
  8
0-1
  6
CONTINUOUS
 62
     3
 10
26993.470459566772
 20
16686.374594000001
 30
0.0
 11
26968.473098566781
 21
16686.374594000001
 31
0.0
  0
LINE
  5
CC33
  8
0-1
  6
CONTINUOUS
 62
     3
 10
26993.470459566772
 20
16681.374329999999
 30
0.0
 11
26993.470459566772
 21
16686.374594000001
 31
0.0
  0
LINE
  5
CC34
  8
0-1
  6
CONTINUOUS
 62
     3
 10
26986.470881566791
 20
16681.374329999999
 30
0.0
 11
26993.470459566772
 21
16681.374329999999
 31
0.0
  0
LINE
  5
CC35
  8
0-1
  6
CONTINUOUS
 62
     3
 10
26986.470881566791
 20
15980.65048599998
 30
0.0
 11
26993.470459566772
 21
15980.65048599998
 31
0.0
  0
LINE
  5
CC36
  8
0-1
  6
CONTINUOUS
 62
     3
 10
26993.470459566772
 20
15980.65048599998
 30
0.0
 11
26993.470459566772
 21
15985.649760999961
 31
0.0
  0
LINE
  5
CC37
  8
0-1
  6
CONTINUOUS
 62
     3
 10
26993.470459566772
 20
15985.649760999961
 30
0.0
 11
26968.473098566781
 21
15985.649760999961
 31
0.0
  0
LINE
  5
CC38
  8
0-1
  6
CONTINUOUS
 62
     3
 10
26968.473098566781
 20
15985.649760999961
 30
0.0
 11
26968.473098566781
 21
15967.649998000001
 31
0.0
  0
LINE
  5
CC39
  8
0-1
  6
CONTINUOUS
 62
     3
 10
26968.473098566781
 20
15967.649998000001
 30
0.0
 11
26998.470723566781
 21
15967.649998000001
 31
0.0
  0
LINE
  5
CC3A
  8
0-1
  6
CONTINUOUS
 62
     3
 10
26968.473098566781
 20
15983.746453999989
 30
0.0
 11
26968.473098566781
 21
15977.74554299999
 31
0.0
  0
LINE
  5
CC3B
  8
0-1
  6
CONTINUOUS
 62
     3
 10
26968.473098566781
 20
15977.74554299999
 30
0.0
 11
26998.470723566781
 21
15977.74554299999
 31
0.0
  0
LINE
  5
CC3C
  8
0-1
  6
CONTINUOUS
 62
     3
 10
26998.470723566781
 20
15977.74554299999
 30
0.0
 11
26998.470723566781
 21
16014.74472499998
 31
0.0
  0
LINE
  5
CC3D
  8
0-1
  6
CONTINUOUS
 62
     3
 10
26968.473098566781
 20
16014.74472499998
 30
0.0
 11
26998.470723566781
 21
16014.74472499998
 31
0.0
  0
LINE
  5
CC3E
  8
0-1
  6
CONTINUOUS
 62
     3
 10
26968.473098566781
 20
16008.74579399998
 30
0.0
 11
26968.473098566781
 21
16014.74472499998
 31
0.0
  0
LINE
  5
CC3F
  8
0-1
  6
CONTINUOUS
 62
     3
 10
26968.473098566781
 20
16024.84026999999
 30
0.0
 11
26998.470723566781
 21
16024.84026999999
 31
0.0
  0
LINE
  5
CC40
  8
0-1
  6
CONTINUOUS
 62
     3
 10
26968.473098566781
 20
16006.84149699999
 30
0.0
 11
26968.473098566781
 21
16024.84026999999
 31
0.0
  0
LINE
  5
CC41
  8
0-1
  6
CONTINUOUS
 62
     3
 10
26993.470459566772
 20
16006.84149699999
 30
0.0
 11
26968.473098566781
 21
16006.84149699999
 31
0.0
  0
LINE
  5
CC42
  8
0-1
  6
CONTINUOUS
 62
     3
 10
26993.470459566772
 20
16011.841760999991
 30
0.0
 11
26993.470459566772
 21
16006.84149699999
 31
0.0
  0
LINE
  5
CC43
  8
0-1
  6
CONTINUOUS
 62
     3
 10
26986.470881566791
 20
16011.841760999991
 30
0.0
 11
26993.470459566772
 21
16011.841760999991
 31
0.0
  0
LINE
  5
CC44
  8
0-1
  6
CONTINUOUS
 62
     3
 10
26986.470881566791
 20
15322.08204699998
 30
0.0
 11
26993.470459566772
 21
15322.08204699998
 31
0.0
  0
LINE
  5
CC45
  8
0-1
  6
CONTINUOUS
 62
     3
 10
26993.470459566772
 20
15322.08204699998
 30
0.0
 11
26993.470459566772
 21
15317.08376299999
 31
0.0
  0
LINE
  5
CC46
  8
0-1
  6
CONTINUOUS
 62
     3
 10
26993.470459566772
 20
15317.08376299999
 30
0.0
 11
26968.473098566781
 21
15317.08376299999
 31
0.0
  0
LINE
  5
CC47
  8
0-1
  6
CONTINUOUS
 62
     3
 10
26968.473098566781
 20
15317.08376299999
 30
0.0
 11
26968.473098566781
 21
15335.083525
 31
0.0
  0
LINE
  5
CC48
  8
0-1
  6
CONTINUOUS
 62
     3
 10
26968.473098566781
 20
15335.083525
 30
0.0
 11
26998.470723566799
 21
15335.083525
 31
0.0
  0
LINE
  5
CC49
  8
0-1
  6
CONTINUOUS
 62
     3
 10
26968.473098566781
 20
15318.98706999999
 30
0.0
 11
26968.473098566781
 21
15324.986990999971
 31
0.0
  0
LINE
  5
CC4A
  8
0-1
  6
CONTINUOUS
 62
     3
 10
26968.473098566781
 20
15324.986990999971
 30
0.0
 11
26998.470723566799
 21
15324.986990999971
 31
0.0
  0
LINE
  5
CC4B
  8
0-1
  6
CONTINUOUS
 62
     3
 10
26998.470723566799
 20
15287.986818999991
 30
0.0
 11
26998.470723566799
 21
15324.986990999971
 31
0.0
  0
LINE
  5
CC4C
  8
0-1
  6
CONTINUOUS
 62
     3
 10
26968.473098566781
 20
15287.986818999991
 30
0.0
 11
26998.470723566799
 21
15287.986818999991
 31
0.0
  0
LINE
  5
CC4D
  8
0-1
  6
CONTINUOUS
 62
     3
 10
26968.473098566781
 20
15293.987730000001
 30
0.0
 11
26968.473098566781
 21
15287.986818999991
 31
0.0
  0
LINE
  5
CC4E
  8
0-1
  6
CONTINUOUS
 62
     3
 10
26968.473098566781
 20
15277.890284999979
 30
0.0
 11
26998.470723566799
 21
15277.890284999979
 31
0.0
  0
LINE
  5
CC4F
  8
0-1
  6
CONTINUOUS
 62
     3
 10
26968.473098566781
 20
15295.890046999981
 30
0.0
 11
26968.473098566781
 21
15277.890284999979
 31
0.0
  0
LINE
  5
CC50
  8
0-1
  6
CONTINUOUS
 62
     3
 10
26993.470459566772
 20
15295.890046999981
 30
0.0
 11
26968.473098566781
 21
15295.890046999981
 31
0.0
  0
LINE
  5
CC51
  8
0-1
  6
CONTINUOUS
 62
     3
 10
26993.470459566772
 20
15290.891763
 30
0.0
 11
26993.470459566772
 21
15295.890046999981
 31
0.0
  0
LINE
  5
CC52
  8
0-1
  6
CONTINUOUS
 62
     3
 10
26986.470881566791
 20
15290.891763
 30
0.0
 11
26993.470459566772
 21
15290.891763
 31
0.0
  0
LINE
  5
CC53
  8
0-1
  6
CONTINUOUS
 62
     3
 10
26998.470723566781
 20
16668.37483199999
 30
0.0
 11
26998.470723566799
 21
15335.083525
 31
0.0
  0
LINE
  5
CC54
  8
0-1
  6
CONTINUOUS
 62
     3
 10
26998.470723566781
 20
16822.98611999999
 30
0.0
 11
26998.470723566781
 21
16677.986383999982
 31
0.0
  0
LINE
  5
CC55
  8
0-1
  6
CONTINUOUS
 62
     3
 10
26910.582077566782
 20
16792.988496000002
 30
0.0
 11
26910.582077566782
 21
16707.98796799999
 31
0.0
  0
LINE
  5
CC56
  8
0-1
  6
CONTINUOUS
 62
     3
 10
26986.470881566791
 20
14590.89143299999
 30
0.0
 11
26993.470459566772
 21
14590.89143299999
 31
0.0
  0
LINE
  5
CC57
  8
0-1
  6
CONTINUOUS
 62
     3
 10
26993.470459566772
 20
14590.89143299999
 30
0.0
 11
26993.470459566772
 21
14595.89070699998
 31
0.0
  0
LINE
  5
CC58
  8
0-1
  6
CONTINUOUS
 62
     3
 10
26993.470459566772
 20
14595.89070699998
 30
0.0
 11
26968.473098566781
 21
14595.89070699998
 31
0.0
  0
LINE
  5
CC59
  8
0-1
  6
CONTINUOUS
 62
     3
 10
26968.473098566781
 20
14595.89070699998
 30
0.0
 11
26968.473098566781
 21
14577.890944999999
 31
0.0
  0
LINE
  5
CC5A
  8
0-1
  6
CONTINUOUS
 62
     3
 10
26968.473098566781
 20
14577.890944999999
 30
0.0
 11
26998.470723566799
 21
14577.890944999999
 31
0.0
  0
LINE
  5
CC5B
  8
0-1
  6
CONTINUOUS
 62
     3
 10
26968.473098566781
 20
14593.987399999991
 30
0.0
 11
26968.473098566781
 21
14587.987478999979
 31
0.0
  0
LINE
  5
CC5C
  8
0-1
  6
CONTINUOUS
 62
     3
 10
26968.473098566781
 20
14587.987478999979
 30
0.0
 11
26998.470723566799
 21
14587.987478999979
 31
0.0
  0
LINE
  5
CC5D
  8
0-1
  6
CONTINUOUS
 62
     3
 10
26998.470723566799
 20
14587.987478999979
 30
0.0
 11
26998.470723566799
 21
14624.987650999979
 31
0.0
  0
LINE
  5
CC5E
  8
0-1
  6
CONTINUOUS
 62
     3
 10
26968.473098566781
 20
14624.987650999979
 30
0.0
 11
26998.470723566799
 21
14624.987650999979
 31
0.0
  0
LINE
  5
CC5F
  8
0-1
  6
CONTINUOUS
 62
     3
 10
26968.473098566781
 20
14618.987730000001
 30
0.0
 11
26968.473098566781
 21
14624.987650999979
 31
0.0
  0
LINE
  5
CC60
  8
0-1
  6
CONTINUOUS
 62
     3
 10
26968.473098566781
 20
14635.08319499999
 30
0.0
 11
26998.470723566799
 21
14635.08319499999
 31
0.0
  0
LINE
  5
CC61
  8
0-1
  6
CONTINUOUS
 62
     3
 10
26968.473098566781
 20
14617.082442999979
 30
0.0
 11
26968.473098566781
 21
14635.08319499999
 31
0.0
  0
LINE
  5
CC62
  8
0-1
  6
CONTINUOUS
 62
     3
 10
26993.470459566772
 20
14617.082442999979
 30
0.0
 11
26968.473098566781
 21
14617.082442999979
 31
0.0
  0
LINE
  5
CC63
  8
0-1
  6
CONTINUOUS
 62
     3
 10
26993.470459566772
 20
14622.08270699997
 30
0.0
 11
26993.470459566772
 21
14617.082442999979
 31
0.0
  0
LINE
  5
CC64
  8
0-1
  6
CONTINUOUS
 62
     3
 10
26986.470881566791
 20
14622.08270699997
 30
0.0
 11
26993.470459566772
 21
14622.08270699997
 31
0.0
  0
LINE
  5
CC65
  8
0-1
  6
CONTINUOUS
 62
     3
 10
26968.473098566781
 20
13548.487188999999
 30
0.0
 11
26968.473098566781
 21
13554.48710999998
 31
0.0
  0
LINE
  5
CC66
  8
0-1
  6
CONTINUOUS
 62
     3
 10
26968.473098566781
 20
13554.486383999991
 30
0.0
 11
26998.470723566799
 21
13554.486383999991
 31
0.0
  0
LINE
  5
CC67
  8
0-1
  6
CONTINUOUS
 62
     3
 10
26998.470723566799
 20
13554.486383999991
 30
0.0
 11
26998.470723566799
 21
13439.486252000001
 31
0.0
  0
LINE
  5
CC68
  8
0-1
  6
CONTINUOUS
 62
     3
 10
26998.470723566799
 20
13439.486252000001
 30
0.0
 11
26913.47072356681
 21
13439.486252000001
 31
0.0
  0
LINE
  5
CC69
  8
0-1
  6
CONTINUOUS
 62
     3
 10
26913.47072356681
 20
13439.486252000001
 30
0.0
 11
26913.47072356681
 21
13524.485789999981
 31
0.0
  0
LINE
  5
CC6A
  8
0-1
  6
CONTINUOUS
 62
     3
 10
26913.470459566772
 20
13524.485789999981
 30
0.0
 11
26945.46937756678
 21
13524.485789999981
 31
0.0
  0
LINE
  5
CC6B
  8
0-1
  6
CONTINUOUS
 62
     3
 10
26986.470881566791
 20
13551.521790999979
 30
0.0
 11
26993.470459566772
 21
13551.521790999979
 31
0.0
  0
LINE
  5
CC6C
  8
0-1
  6
CONTINUOUS
 62
     3
 10
26993.470459566772
 20
13551.521790999979
 30
0.0
 11
26993.470459566772
 21
13546.52152699999
 31
0.0
  0
LINE
  5
CC6D
  8
0-1
  6
CONTINUOUS
 62
     3
 10
26993.470459566772
 20
13546.52152699999
 30
0.0
 11
26968.473098566781
 21
13546.52152699999
 31
0.0
  0
LINE
  5
CC6E
  8
0-1
  6
CONTINUOUS
 62
     3
 10
26968.473098566781
 20
13546.52152699999
 30
0.0
 11
26968.473098566781
 21
13564.522279000001
 31
0.0
  0
LINE
  5
CC6F
  8
0-1
  6
CONTINUOUS
 62
     3
 10
26968.473098566781
 20
13564.522279000001
 30
0.0
 11
26998.470723566799
 21
13564.522279000001
 31
0.0
  0
LINE
  5
CC70
  8
0-1
  6
CONTINUOUS
 62
     3
 10
26998.470723566799
 20
13564.522279000001
 30
0.0
 11
26998.470723566799
 21
13857.39106299999
 31
0.0
  0
LINE
  5
CC71
  8
0-1
  6
CONTINUOUS
 62
     3
 10
26998.470723566799
 20
14635.08319499999
 30
0.0
 11
26998.470723566799
 21
15277.890284999979
 31
0.0
  0
LINE
  5
CC72
  8
0-1
  6
CONTINUOUS
 62
     3
 10
26917.471066566792
 20
13524.48651599999
 30
0.0
 11
26917.471066566792
 21
19710.988494999991
 31
0.0
  0
LINE
  5
CC73
  8
0-1
  6
CONTINUOUS
 62
     3
 10
26998.470723566799
 20
18243.084409999989
 30
0.0
 11
26998.470723566799
 21
18885.89149899999
 31
0.0
  0
LINE
  5
CC74
  8
0-1
  6
CONTINUOUS
 62
     3
 10
24454.968691566792
 20
19680.984669000001
 30
0.0
 11
24460.970592566791
 21
19680.984669000001
 31
0.0
  0
LINE
  5
CC75
  8
0-1
  6
CONTINUOUS
 62
     3
 10
24460.970592566791
 20
19680.984669000001
 30
0.0
 11
24460.970592566791
 21
19710.986251999992
 31
0.0
  0
LINE
  5
CC76
  8
0-1
  6
CONTINUOUS
 62
     3
 10
24460.970592566791
 20
19710.986251999992
 30
0.0
 11
24345.970723566781
 21
19710.986251999992
 31
0.0
  0
LINE
  5
CC77
  8
0-1
  6
CONTINUOUS
 62
     3
 10
24471.2621095668
 20
19680.984669000001
 30
0.0
 11
24471.2621095668
 21
19710.986251999992
 31
0.0
  0
LINE
  5
CC78
  8
0-1
  6
CONTINUOUS
 62
     3
 10
24453.262346566778
 20
19680.984669000001
 30
0.0
 11
24471.2621095668
 21
19680.984669000001
 31
0.0
  0
LINE
  5
CC79
  8
0-1
  6
CONTINUOUS
 62
     3
 10
24453.262346566778
 20
19705.985988
 30
0.0
 11
24453.262346566778
 21
19680.984669000001
 31
0.0
  0
LINE
  5
CC7A
  8
0-1
  6
CONTINUOUS
 62
     3
 10
24458.264590566789
 20
19705.985988
 30
0.0
 11
24453.262346566778
 21
19705.985988
 31
0.0
  0
LINE
  5
CC7B
  8
0-1
  6
CONTINUOUS
 62
     3
 10
24458.264590566789
 20
19698.984431000001
 30
0.0
 11
24458.264590566789
 21
19705.985988
 31
0.0
  0
LINE
  5
CC7C
  8
0-1
  6
CONTINUOUS
 62
     3
 10
24357.972544566768
 20
19598.692385999992
 30
0.0
 11
24350.97098756678
 21
19598.692385999992
 31
0.0
  0
LINE
  5
CC7D
  8
0-1
  6
CONTINUOUS
 62
     3
 10
24350.97098756678
 20
19598.692385999992
 30
0.0
 11
24350.97098756678
 21
19603.69067
 31
0.0
  0
LINE
  5
CC7E
  8
0-1
  6
CONTINUOUS
 62
     3
 10
24350.97098756678
 20
19603.69067
 30
0.0
 11
24375.970327566782
 21
19603.69067
 31
0.0
  0
LINE
  5
CC7F
  8
0-1
  6
CONTINUOUS
 62
     3
 10
24375.970327566782
 20
19603.69067
 30
0.0
 11
24375.970327566782
 21
19585.69090799995
 31
0.0
  0
LINE
  5
CC80
  8
0-1
  6
CONTINUOUS
 62
     3
 10
24375.970327566782
 20
19585.69090799995
 30
0.0
 11
24345.970723566781
 21
19585.69090799995
 31
0.0
  0
LINE
  5
CC81
  8
0-1
  6
CONTINUOUS
 62
     3
 10
24345.970723566781
 20
19625.985987999979
 30
0.0
 11
24426.968401566792
 21
19625.985987999979
 31
0.0
  0
LINE
  5
CC82
  8
0-1
  6
CONTINUOUS
 62
     3
 10
24345.970723566781
 20
19595.986383999989
 30
0.0
 11
24345.970723566781
 21
19710.986251999992
 31
0.0
  0
LINE
  5
CC83
  8
0-1
  6
CONTINUOUS
 62
     3
 10
24375.970327566782
 20
19595.986383999989
 30
0.0
 11
24345.970723566781
 21
19595.986383999989
 31
0.0
  0
LINE
  5
CC84
  8
0-1
  6
CONTINUOUS
 62
     3
 10
24375.970327566782
 20
19601.986304999991
 30
0.0
 11
24375.970327566782
 21
19595.986383999989
 31
0.0
  0
LINE
  5
CC85
  8
0-1
  6
CONTINUOUS
 62
     3
 10
24357.972544566768
 20
18926.080899499979
 30
0.0
 11
24350.97098756678
 21
18926.080899499979
 31
0.0
  0
LINE
  5
CC86
  8
0-1
  6
CONTINUOUS
 62
     3
 10
24350.97098756678
 20
18926.080899499979
 30
0.0
 11
24350.97098756678
 21
18921.080635499991
 31
0.0
  0
LINE
  5
CC87
  8
0-1
  6
CONTINUOUS
 62
     3
 10
24350.97098756678
 20
18921.080635499991
 30
0.0
 11
24375.970327566782
 21
18921.080635499991
 31
0.0
  0
LINE
  5
CC88
  8
0-1
  6
CONTINUOUS
 62
     3
 10
24375.970327566782
 20
18921.080635499991
 30
0.0
 11
24375.970327566782
 21
18939.082377499999
 31
0.0
  0
LINE
  5
CC89
  8
0-1
  6
CONTINUOUS
 62
     3
 10
24375.970327566782
 20
18939.082377499999
 30
0.0
 11
24345.970723566781
 21
18939.082377499999
 31
0.0
  0
LINE
  5
CC8A
  8
0-1
  6
CONTINUOUS
 62
     3
 10
24375.970327566782
 20
18922.9869115
 30
0.0
 11
24375.970327566782
 21
18928.98683250001
 31
0.0
  0
LINE
  5
CC8B
  8
0-1
  6
CONTINUOUS
 62
     3
 10
24375.970327566782
 20
18928.98683250001
 30
0.0
 11
24345.970723566781
 21
18928.98683250001
 31
0.0
  0
LINE
  5
CC8C
  8
0-1
  6
CONTINUOUS
 62
     3
 10
24345.970723566781
 20
18891.985671499999
 30
0.0
 11
24345.970723566781
 21
18928.98683250001
 31
0.0
  0
LINE
  5
CC8D
  8
0-1
  6
CONTINUOUS
 62
     3
 10
24375.970327566782
 20
18891.985671499999
 30
0.0
 11
24345.970723566781
 21
18891.985671499999
 31
0.0
  0
LINE
  5
CC8E
  8
0-1
  6
CONTINUOUS
 62
     3
 10
24375.970327566782
 20
18897.985591500001
 30
0.0
 11
24375.970327566782
 21
18891.985671499999
 31
0.0
  0
LINE
  5
CC8F
  8
0-1
  6
CONTINUOUS
 62
     3
 10
24375.970327566782
 20
18881.890126499999
 30
0.0
 11
24345.970723566781
 21
18881.890126499999
 31
0.0
  0
LINE
  5
CC90
  8
0-1
  6
CONTINUOUS
 62
     3
 10
24375.970327566782
 20
18899.891868499999
 30
0.0
 11
24375.970327566782
 21
18881.890126499999
 31
0.0
  0
LINE
  5
CC91
  8
0-1
  6
CONTINUOUS
 62
     3
 10
24350.97098756678
 20
18899.891868499999
 30
0.0
 11
24375.970327566782
 21
18899.891868499999
 31
0.0
  0
LINE
  5
CC92
  8
0-1
  6
CONTINUOUS
 62
     3
 10
24350.97098756678
 20
18894.89160449999
 30
0.0
 11
24350.97098756678
 21
18899.891868499999
 31
0.0
  0
LINE
  5
CC93
  8
0-1
  6
CONTINUOUS
 62
     3
 10
24357.972544566768
 20
18894.89160449999
 30
0.0
 11
24350.97098756678
 21
18894.89160449999
 31
0.0
  0
LINE
  5
CC94
  8
0-1
  6
CONTINUOUS
 62
     3
 10
24345.970723566781
 20
19585.69090799995
 30
0.0
 11
24345.970723566781
 21
18939.082377499999
 31
0.0
  0
LINE
  5
CC95
  8
0-1
  6
CONTINUOUS
 62
     3
 10
24357.972544566768
 20
18225.080899500001
 30
0.0
 11
24350.97098756678
 21
18225.080899500001
 31
0.0
  0
LINE
  5
CC96
  8
0-1
  6
CONTINUOUS
 62
     3
 10
24350.97098756678
 20
18225.080899500001
 30
0.0
 11
24350.97098756678
 21
18220.080635499999
 31
0.0
  0
LINE
  5
CC97
  8
0-1
  6
CONTINUOUS
 62
     3
 10
24350.97098756678
 20
18220.080635499999
 30
0.0
 11
24375.970327566782
 21
18220.080635499999
 31
0.0
  0
LINE
  5
CC98
  8
0-1
  6
CONTINUOUS
 62
     3
 10
24375.970327566782
 20
18220.080635499999
 30
0.0
 11
24375.970327566782
 21
18238.082377499992
 31
0.0
  0
LINE
  5
CC99
  8
0-1
  6
CONTINUOUS
 62
     3
 10
24375.970327566782
 20
18238.082377499992
 30
0.0
 11
24345.970723566781
 21
18238.082377499992
 31
0.0
  0
LINE
  5
CC9A
  8
0-1
  6
CONTINUOUS
 62
     3
 10
24375.970327566782
 20
18221.984931499988
 30
0.0
 11
24375.970327566782
 21
18227.986832499999
 31
0.0
  0
LINE
  5
CC9B
  8
0-1
  6
CONTINUOUS
 62
     3
 10
24375.970327566782
 20
18227.986832499999
 30
0.0
 11
24345.970723566781
 21
18227.986832499999
 31
0.0
  0
LINE
  5
CC9C
  8
0-1
  6
CONTINUOUS
 62
     3
 10
24345.970723566781
 20
18190.985671499999
 30
0.0
 11
24345.970723566781
 21
18227.986832499999
 31
0.0
  0
LINE
  5
CC9D
  8
0-1
  6
CONTINUOUS
 62
     3
 10
24375.970327566782
 20
18190.985671499999
 30
0.0
 11
24345.970723566781
 21
18190.985671499999
 31
0.0
  0
LINE
  5
CC9E
  8
0-1
  6
CONTINUOUS
 62
     3
 10
24375.970327566782
 20
18196.985591500001
 30
0.0
 11
24375.970327566782
 21
18190.985671499999
 31
0.0
  0
LINE
  5
CC9F
  8
0-1
  6
CONTINUOUS
 62
     3
 10
24375.970327566782
 20
18180.888146500001
 30
0.0
 11
24345.970723566781
 21
18180.888146500001
 31
0.0
  0
LINE
  5
CCA0
  8
0-1
  6
CONTINUOUS
 62
     3
 10
24375.970327566782
 20
18198.887909500008
 30
0.0
 11
24375.970327566782
 21
18180.888146500001
 31
0.0
  0
LINE
  5
CCA1
  8
0-1
  6
CONTINUOUS
 62
     3
 10
24350.97098756678
 20
18198.887909500008
 30
0.0
 11
24375.970327566782
 21
18198.887909500008
 31
0.0
  0
LINE
  5
CCA2
  8
0-1
  6
CONTINUOUS
 62
     3
 10
24350.97098756678
 20
18193.887645499992
 30
0.0
 11
24350.97098756678
 21
18198.887909500008
 31
0.0
  0
LINE
  5
CCA3
  8
0-1
  6
CONTINUOUS
 62
     3
 10
24357.972544566768
 20
18193.887645499992
 30
0.0
 11
24350.97098756678
 21
18193.887645499992
 31
0.0
  0
LINE
  5
CCA4
  8
0-1
  6
CONTINUOUS
 62
     3
 10
24357.972544566768
 20
17492.890615
 30
0.0
 11
24350.970987566761
 21
17492.890615
 31
0.0
  0
LINE
  5
CCA5
  8
0-1
  6
CONTINUOUS
 62
     3
 10
24350.970987566761
 20
17492.890615
 30
0.0
 11
24350.970987566761
 21
17497.890878999991
 31
0.0
  0
LINE
  5
CCA6
  8
0-1
  6
CONTINUOUS
 62
     3
 10
24350.970987566761
 20
17497.890878999991
 30
0.0
 11
24375.970327566782
 21
17497.890878999991
 31
0.0
  0
LINE
  5
CCA7
  8
0-1
  6
CONTINUOUS
 62
     3
 10
24375.970327566782
 20
17497.890878999991
 30
0.0
 11
24375.970327566782
 21
17479.891115999992
 31
0.0
  0
LINE
  5
CCA8
  8
0-1
  6
CONTINUOUS
 62
     3
 10
24375.970327566782
 20
17479.891115999992
 30
0.0
 11
24345.970723566781
 21
17479.891115999992
 31
0.0
  0
LINE
  5
CCA9
  8
0-1
  6
CONTINUOUS
 62
     3
 10
24375.970327566782
 20
17495.988560999991
 30
0.0
 11
24375.970327566782
 21
17489.986660999992
 31
0.0
  0
LINE
  5
CCAA
  8
0-1
  6
CONTINUOUS
 62
     3
 10
24375.970327566782
 20
17489.986660999992
 30
0.0
 11
24345.970723566781
 21
17489.986660999992
 31
0.0
  0
LINE
  5
CCAB
  8
0-1
  6
CONTINUOUS
 62
     3
 10
24345.970723566781
 20
17526.985842999999
 30
0.0
 11
24345.970723566781
 21
17489.986660999992
 31
0.0
  0
LINE
  5
CCAC
  8
0-1
  6
CONTINUOUS
 62
     3
 10
24375.970327566782
 20
17526.985842999999
 30
0.0
 11
24345.970723566781
 21
17526.985842999999
 31
0.0
  0
LINE
  5
CCAD
  8
0-1
  6
CONTINUOUS
 62
     3
 10
24375.970327566782
 20
17520.985922000011
 30
0.0
 11
24375.970327566782
 21
17526.985842999999
 31
0.0
  0
LINE
  5
CCAE
  8
0-1
  6
CONTINUOUS
 62
     3
 10
24375.970327566782
 20
17537.085346000011
 30
0.0
 11
24345.970723566781
 21
17537.085346000011
 31
0.0
  0
LINE
  5
CCAF
  8
0-1
  6
CONTINUOUS
 62
     3
 10
24375.970327566782
 20
17519.083603999999
 30
0.0
 11
24375.970327566782
 21
17537.085346000011
 31
0.0
  0
LINE
  5
CCB0
  8
0-1
  6
CONTINUOUS
 62
     3
 10
24350.970987566761
 20
17519.083603999999
 30
0.0
 11
24375.970327566782
 21
17519.083603999999
 31
0.0
  0
LINE
  5
CCB1
  8
0-1
  6
CONTINUOUS
 62
     3
 10
24350.970987566761
 20
17524.083868000002
 30
0.0
 11
24350.970987566761
 21
17519.083603999999
 31
0.0
  0
LINE
  5
CCB2
  8
0-1
  6
CONTINUOUS
 62
     3
 10
24357.972544566768
 20
17524.083868000002
 30
0.0
 11
24350.970987566761
 21
17524.083868000002
 31
0.0
  0
LINE
  5
CCB3
  8
0-1
  6
CONTINUOUS
 62
     3
 10
24345.970723566781
 20
16822.98611999999
 30
0.0
 11
24375.970327566782
 21
16822.98611999999
 31
0.0
  0
LINE
  5
CCB4
  8
0-1
  6
CONTINUOUS
 62
     3
 10
24375.970327566782
 20
16822.98611999999
 30
0.0
 11
24375.970327566782
 21
16816.988179
 31
0.0
  0
LINE
  5
CCB5
  8
0-1
  6
CONTINUOUS
 62
     3
 10
24375.970327566782
 20
16832.602621999991
 30
0.0
 11
24345.970723566781
 21
16832.602621999991
 31
0.0
  0
LINE
  5
CCB6
  8
0-1
  6
CONTINUOUS
 62
     3
 10
24375.970327566782
 20
16814.598900000001
 30
0.0
 11
24375.970327566782
 21
16832.602621999991
 31
0.0
  0
LINE
  5
CCB7
  8
0-1
  6
CONTINUOUS
 62
     3
 10
24350.970987566761
 20
16814.598900000001
 30
0.0
 11
24375.970327566782
 21
16814.598900000001
 31
0.0
  0
LINE
  5
CCB8
  8
0-1
  6
CONTINUOUS
 62
     3
 10
24350.970987566761
 20
16819.599163999999
 30
0.0
 11
24350.970987566761
 21
16814.598900000001
 31
0.0
  0
LINE
  5
CCB9
  8
0-1
  6
CONTINUOUS
 62
     3
 10
24357.972544566768
 20
16819.599163999999
 30
0.0
 11
24350.970987566761
 21
16819.599163999999
 31
0.0
  0
LINE
  5
CCBA
  8
0-1
  6
CONTINUOUS
 62
     3
 10
24348.85884156678
 20
16792.988496000002
 30
0.0
 11
24433.861348566781
 21
16792.988496000002
 31
0.0
  0
LINE
  5
CCBB
  8
0-1
  6
CONTINUOUS
 62
     3
 10
24348.85884156678
 20
16772.985461
 30
0.0
 11
24348.85884156678
 21
16792.988496000002
 31
0.0
  0
LINE
  5
CCBC
  8
0-1
  6
CONTINUOUS
 62
     3
 10
24345.970723566781
 20
16832.602621999991
 30
0.0
 11
24345.970723566781
 21
17479.891115999992
 31
0.0
  0
LINE
  5
CCBD
  8
0-1
  6
CONTINUOUS
 62
     3
 10
24345.970723566781
 20
17537.085346000011
 30
0.0
 11
24345.970723566781
 21
18180.888146500001
 31
0.0
  0
LINE
  5
CCBE
  8
0-1
  6
CONTINUOUS
 62
     3
 10
24357.972544566768
 20
16681.374329999999
 30
0.0
 11
24350.970987566761
 21
16681.374329999999
 31
0.0
  0
LINE
  5
CCBF
  8
0-1
  6
CONTINUOUS
 62
     3
 10
24350.970987566761
 20
16681.374329999999
 30
0.0
 11
24350.970987566761
 21
16686.374594000001
 31
0.0
  0
LINE
  5
CCC0
  8
0-1
  6
CONTINUOUS
 62
     3
 10
24350.970987566761
 20
16686.374594000001
 30
0.0
 11
24375.970327566782
 21
16686.374594000001
 31
0.0
  0
LINE
  5
CCC1
  8
0-1
  6
CONTINUOUS
 62
     3
 10
24375.970327566782
 20
16686.374594000001
 30
0.0
 11
24375.970327566782
 21
16668.37483199999
 31
0.0
  0
LINE
  5
CCC2
  8
0-1
  6
CONTINUOUS
 62
     3
 10
24375.970327566782
 20
16668.37483199999
 30
0.0
 11
24345.970723566781
 21
16668.37483199999
 31
0.0
  0
LINE
  5
CCC3
  8
0-1
  6
CONTINUOUS
 62
     3
 10
24348.85884156678
 20
16707.98796799999
 30
0.0
 11
24348.85884156678
 21
16727.98704399999
 31
0.0
  0
LINE
  5
CCC4
  8
0-1
  6
CONTINUOUS
 62
     3
 10
24433.861348566781
 20
16707.98796799999
 30
0.0
 11
24348.85884156678
 21
16707.98796799999
 31
0.0
  0
LINE
  5
CCC5
  8
0-1
  6
CONTINUOUS
 62
     3
 10
24375.970327566782
 20
16677.986383999982
 30
0.0
 11
24375.970327566782
 21
16683.986304999999
 31
0.0
  0
LINE
  5
CCC6
  8
0-1
  6
CONTINUOUS
 62
     3
 10
24345.970723566781
 20
16677.986383999982
 30
0.0
 11
24375.970327566782
 21
16677.986383999982
 31
0.0
  0
LINE
  5
CCC7
  8
0-1
  6
CONTINUOUS
 62
     3
 10
24357.972544566768
 20
16008.081888999999
 30
0.0
 11
24350.97098756678
 21
16008.081888999999
 31
0.0
  0
LINE
  5
CCC8
  8
0-1
  6
CONTINUOUS
 62
     3
 10
24350.97098756678
 20
16008.081888999999
 30
0.0
 11
24350.97098756678
 21
16003.08261499999
 31
0.0
  0
LINE
  5
CCC9
  8
0-1
  6
CONTINUOUS
 62
     3
 10
24350.97098756678
 20
16003.08261499999
 30
0.0
 11
24375.970327566782
 21
16003.08261499999
 31
0.0
  0
LINE
  5
CCCA
  8
0-1
  6
CONTINUOUS
 62
     3
 10
24375.970327566782
 20
16003.08261499999
 30
0.0
 11
24375.970327566782
 21
16021.082377999999
 31
0.0
  0
LINE
  5
CCCB
  8
0-1
  6
CONTINUOUS
 62
     3
 10
24375.970327566782
 20
16021.082377999999
 30
0.0
 11
24345.970723566781
 21
16021.082377999999
 31
0.0
  0
LINE
  5
CCCC
  8
0-1
  6
CONTINUOUS
 62
     3
 10
24375.970327566782
 20
16004.986912
 30
0.0
 11
24375.970327566782
 21
16010.986833000001
 31
0.0
  0
LINE
  5
CCCD
  8
0-1
  6
CONTINUOUS
 62
     3
 10
24375.970327566782
 20
16010.986833000001
 30
0.0
 11
24345.970723566781
 21
16010.986833000001
 31
0.0
  0
LINE
  5
CCCE
  8
0-1
  6
CONTINUOUS
 62
     3
 10
24345.970723566781
 20
15973.985671
 30
0.0
 11
24345.970723566781
 21
16010.986833000001
 31
0.0
  0
LINE
  5
CCCF
  8
0-1
  6
CONTINUOUS
 62
     3
 10
24375.970327566782
 20
15973.985671
 30
0.0
 11
24345.970723566781
 21
15973.985671
 31
0.0
  0
LINE
  5
CCD0
  8
0-1
  6
CONTINUOUS
 62
     3
 10
24375.970327566782
 20
15979.986582
 30
0.0
 11
24375.970327566782
 21
15973.985671
 31
0.0
  0
LINE
  5
CCD1
  8
0-1
  6
CONTINUOUS
 62
     3
 10
24375.970327566782
 20
15963.89012699999
 30
0.0
 11
24345.970723566781
 21
15963.89012699999
 31
0.0
  0
LINE
  5
CCD2
  8
0-1
  6
CONTINUOUS
 62
     3
 10
24375.970327566782
 20
15981.89087899999
 30
0.0
 11
24375.970327566782
 21
15963.89012699999
 31
0.0
  0
LINE
  5
CCD3
  8
0-1
  6
CONTINUOUS
 62
     3
 10
24350.97098756678
 20
15981.89087899999
 30
0.0
 11
24375.970327566782
 21
15981.89087899999
 31
0.0
  0
LINE
  5
CCD4
  8
0-1
  6
CONTINUOUS
 62
     3
 10
24350.97098756678
 20
15976.890615
 30
0.0
 11
24350.97098756678
 21
15981.89087899999
 31
0.0
  0
LINE
  5
CCD5
  8
0-1
  6
CONTINUOUS
 62
     3
 10
24357.972544566768
 20
15976.890615
 30
0.0
 11
24350.97098756678
 21
15976.890615
 31
0.0
  0
LINE
  5
CCD6
  8
0-1
  6
CONTINUOUS
 62
     3
 10
24357.972544566768
 20
15275.89110999999
 30
0.0
 11
24350.97098756678
 21
15275.89110999999
 31
0.0
  0
LINE
  5
CCD7
  8
0-1
  6
CONTINUOUS
 62
     3
 10
24350.97098756678
 20
15275.89110999999
 30
0.0
 11
24350.97098756678
 21
15280.889393999991
 31
0.0
  0
LINE
  5
CCD8
  8
0-1
  6
CONTINUOUS
 62
     3
 10
24350.97098756678
 20
15280.889393999991
 30
0.0
 11
24375.970327566782
 21
15280.889393999991
 31
0.0
  0
LINE
  5
CCD9
  8
0-1
  6
CONTINUOUS
 62
     3
 10
24375.970327566782
 20
15280.889393999991
 30
0.0
 11
24375.970327566782
 21
15262.88963199998
 31
0.0
  0
LINE
  5
CCDA
  8
0-1
  6
CONTINUOUS
 62
     3
 10
24375.970327566782
 20
15262.88963199998
 30
0.0
 11
24345.970723566781
 21
15262.88963199998
 31
0.0
  0
LINE
  5
CCDB
  8
0-1
  6
CONTINUOUS
 62
     3
 10
24375.970327566782
 20
15278.987077
 30
0.0
 11
24375.970327566782
 21
15272.98616600001
 31
0.0
  0
LINE
  5
CCDC
  8
0-1
  6
CONTINUOUS
 62
     3
 10
24375.970327566782
 20
15272.98616600001
 30
0.0
 11
24345.970723566781
 21
15272.98616600001
 31
0.0
  0
LINE
  5
CCDD
  8
0-1
  6
CONTINUOUS
 62
     3
 10
24345.970723566781
 20
15272.98616600001
 30
0.0
 11
24345.970723566781
 21
15309.98633799999
 31
0.0
  0
LINE
  5
CCDE
  8
0-1
  6
CONTINUOUS
 62
     3
 10
24375.970327566782
 20
15309.98633799999
 30
0.0
 11
24345.970723566781
 21
15309.98633799999
 31
0.0
  0
LINE
  5
CCDF
  8
0-1
  6
CONTINUOUS
 62
     3
 10
24375.970327566782
 20
15303.986416999989
 30
0.0
 11
24375.970327566782
 21
15309.98633799999
 31
0.0
  0
LINE
  5
CCE0
  8
0-1
  6
CONTINUOUS
 62
     3
 10
24375.970327566782
 20
15320.082872000001
 30
0.0
 11
24345.970723566781
 21
15320.082872000001
 31
0.0
  0
LINE
  5
CCE1
  8
0-1
  6
CONTINUOUS
 62
     3
 10
24375.970327566782
 20
15302.08310999999
 30
0.0
 11
24375.970327566782
 21
15320.082872000001
 31
0.0
  0
LINE
  5
CCE2
  8
0-1
  6
CONTINUOUS
 62
     3
 10
24350.97098756678
 20
15302.08310999999
 30
0.0
 11
24375.970327566782
 21
15302.08310999999
 31
0.0
  0
LINE
  5
CCE3
  8
0-1
  6
CONTINUOUS
 62
     3
 10
24350.97098756678
 20
15307.08139399999
 30
0.0
 11
24350.97098756678
 21
15302.08310999999
 31
0.0
  0
LINE
  5
CCE4
  8
0-1
  6
CONTINUOUS
 62
     3
 10
24357.972544566768
 20
15307.08139399999
 30
0.0
 11
24350.97098756678
 21
15307.08139399999
 31
0.0
  0
LINE
  5
CCE5
  8
0-1
  6
CONTINUOUS
 62
     3
 10
24345.970723566781
 20
16668.37483199999
 30
0.0
 11
24345.970723566781
 21
16021.082377999999
 31
0.0
  0
LINE
  5
CCE6
  8
0-1
  6
CONTINUOUS
 62
     3
 10
24433.861348566781
 20
16792.988496000002
 30
0.0
 11
24433.861348566781
 21
16707.98796799999
 31
0.0
  0
LINE
  5
CCE7
  8
0-1
  6
CONTINUOUS
 62
     3
 10
24345.970723566781
 20
16822.98611999999
 30
0.0
 11
24345.970723566781
 21
16677.986383999982
 31
0.0
  0
LINE
  5
CCE8
  8
0-1
  6
CONTINUOUS
 62
     3
 10
24357.972544566768
 20
14606.081393999981
 30
0.0
 11
24350.97098756678
 21
14606.081393999981
 31
0.0
  0
LINE
  5
CCE9
  8
0-1
  6
CONTINUOUS
 62
     3
 10
24350.97098756678
 20
14606.081393999981
 30
0.0
 11
24350.97098756678
 21
14601.08112999999
 31
0.0
  0
LINE
  5
CCEA
  8
0-1
  6
CONTINUOUS
 62
     3
 10
24350.97098756678
 20
14601.08112999999
 30
0.0
 11
24375.970327566782
 21
14601.08112999999
 31
0.0
  0
LINE
  5
CCEB
  8
0-1
  6
CONTINUOUS
 62
     3
 10
24375.970327566782
 20
14601.08112999999
 30
0.0
 11
24375.970327566782
 21
14619.08188200001
 31
0.0
  0
LINE
  5
CCEC
  8
0-1
  6
CONTINUOUS
 62
     3
 10
24375.970327566782
 20
14619.08188200001
 30
0.0
 11
24345.970723566781
 21
14619.08188200001
 31
0.0
  0
LINE
  5
CCED
  8
0-1
  6
CONTINUOUS
 62
     3
 10
24375.970327566782
 20
14602.986416999989
 30
0.0
 11
24375.970327566782
 21
14608.986338000001
 31
0.0
  0
LINE
  5
CCEE
  8
0-1
  6
CONTINUOUS
 62
     3
 10
24375.970327566782
 20
14608.986338000001
 30
0.0
 11
24345.970723566781
 21
14608.986338000001
 31
0.0
  0
LINE
  5
CCEF
  8
0-1
  6
CONTINUOUS
 62
     3
 10
24345.970723566781
 20
14571.986166000001
 30
0.0
 11
24345.970723566781
 21
14608.986338000001
 31
0.0
  0
LINE
  5
CCF0
  8
0-1
  6
CONTINUOUS
 62
     3
 10
24375.970327566782
 20
14571.986166000001
 30
0.0
 11
24345.970723566781
 21
14571.986166000001
 31
0.0
  0
LINE
  5
CCF1
  8
0-1
  6
CONTINUOUS
 62
     3
 10
24375.970327566782
 20
14577.986086999999
 30
0.0
 11
24375.970327566782
 21
14571.986166000001
 31
0.0
  0
LINE
  5
CCF2
  8
0-1
  6
CONTINUOUS
 62
     3
 10
24375.970327566782
 20
14561.889632
 30
0.0
 11
24345.970723566781
 21
14561.889632
 31
0.0
  0
LINE
  5
CCF3
  8
0-1
  6
CONTINUOUS
 62
     3
 10
24375.970327566782
 20
14579.889393999991
 30
0.0
 11
24375.970327566782
 21
14561.889632
 31
0.0
  0
LINE
  5
CCF4
  8
0-1
  6
CONTINUOUS
 62
     3
 10
24350.97098756678
 20
14579.889393999991
 30
0.0
 11
24375.970327566782
 21
14579.889393999991
 31
0.0
  0
LINE
  5
CCF5
  8
0-1
  6
CONTINUOUS
 62
     3
 10
24350.97098756678
 20
14574.890119999989
 30
0.0
 11
24350.97098756678
 21
14579.889393999991
 31
0.0
  0
LINE
  5
CCF6
  8
0-1
  6
CONTINUOUS
 62
     3
 10
24357.972544566768
 20
14574.890119999989
 30
0.0
 11
24350.97098756678
 21
14574.890119999989
 31
0.0
  0
LINE
  5
CCF7
  8
0-1
  6
CONTINUOUS
 62
     3
 10
24375.970327566782
 20
13564.522279000001
 30
0.0
 11
24345.970723566781
 21
13564.522279000001
 31
0.0
  0
LINE
  5
CCF8
  8
0-1
  6
CONTINUOUS
 62
     3
 10
24375.970327566782
 20
13546.52152699999
 30
0.0
 11
24375.970327566782
 21
13564.522279000001
 31
0.0
  0
LINE
  5
CCF9
  8
0-1
  6
CONTINUOUS
 62
     3
 10
24350.97098756678
 20
13546.52152699999
 30
0.0
 11
24375.970327566782
 21
13546.52152699999
 31
0.0
  0
LINE
  5
CCFA
  8
0-1
  6
CONTINUOUS
 62
     3
 10
24350.97098756678
 20
13551.521790999979
 30
0.0
 11
24350.97098756678
 21
13546.52152699999
 31
0.0
  0
LINE
  5
CCFB
  8
0-1
  6
CONTINUOUS
 62
     3
 10
24357.972544566768
 20
13551.521790999979
 30
0.0
 11
24350.97098756678
 21
13551.521790999979
 31
0.0
  0
LINE
  5
CCFC
  8
0-1
  6
CONTINUOUS
 62
     3
 10
24430.970723566781
 20
13524.485789999981
 30
0.0
 11
24398.968111566781
 21
13524.485789999981
 31
0.0
  0
LINE
  5
CCFD
  8
0-1
  6
CONTINUOUS
 62
     3
 10
24430.970723566781
 20
13439.486252000001
 30
0.0
 11
24430.970723566781
 21
13524.485789999981
 31
0.0
  0
LINE
  5
CCFE
  8
0-1
  6
CONTINUOUS
 62
     3
 10
24345.970723566781
 20
13439.486252000001
 30
0.0
 11
24430.970723566781
 21
13439.486252000001
 31
0.0
  0
LINE
  5
CCFF
  8
0-1
  6
CONTINUOUS
 62
     3
 10
24345.970723566781
 20
13554.486383999991
 30
0.0
 11
24345.970723566781
 21
13439.486252000001
 31
0.0
  0
LINE
  5
CD00
  8
0-1
  6
CONTINUOUS
 62
     3
 10
24375.970327566782
 20
13554.486383999991
 30
0.0
 11
24345.970723566781
 21
13554.486383999991
 31
0.0
  0
LINE
  5
CD01
  8
0-1
  6
CONTINUOUS
 62
     3
 10
24375.970327566782
 20
13548.487188999999
 30
0.0
 11
24375.970327566782
 21
13554.48710999998
 31
0.0
  0
LINE
  5
CD02
  8
0-1
  6
CONTINUOUS
 62
     3
 10
24345.970723566781
 20
13564.522279000001
 30
0.0
 11
24345.970723566781
 21
13860.891116000001
 31
0.0
  0
LINE
  5
CD03
  8
0-1
  6
CONTINUOUS
 62
     3
 10
24345.970723566781
 20
14619.08188200001
 30
0.0
 11
24345.970723566781
 21
15262.88963199998
 31
0.0
  0
LINE
  5
CD04
  8
0-1
  6
CONTINUOUS
 62
     3
 10
24345.970723566781
 20
18238.082377499992
 30
0.0
 11
24345.970723566781
 21
18881.890126499999
 31
0.0
  0
LINE
  5
CD05
  8
0-1
  6
CONTINUOUS
 62
     3
 10
24426.968401566792
 20
13524.48651599999
 30
0.0
 11
24426.968401566792
 21
19710.988494999991
 31
0.0
  0
LINE
  5
CD06
  8
0-1
  6
CONTINUOUS
 62
     3
 10
24426.968401566792
 20
19625.985987999979
 30
0.0
 11
26917.471066566792
 21
19625.985987999979
 31
0.0
  0
LINE
  5
CD07
  8
0-1
  6
CONTINUOUS
 62
     3
 10
24471.2621095668
 20
19710.986251999992
 30
0.0
 11
24767.3755880668
 21
19710.986251999992
 31
0.0
  0
LINE
  5
CD08
  8
2-0
  6
CENTER2
 62
     6
 10
24388.470723566781
 20
21310.988495000001
 30
0.0
 11
24388.470723566781
 21
19101.486805999972
 31
0.0
  0
LINE
  5
CD09
  8
2-0
  6
CENTER2
 62
     6
 10
24388.470723566781
 20
12319.487241999979
 30
0.0
 11
24388.470723566781
 21
14027.86324499999
 31
0.0
  0
LINE
  5
CD0A
  8
2-0
  6
CENTER2
 62
     6
 10
26955.970723566788
 20
21310.988495000001
 30
0.0
 11
26955.970723566788
 21
19101.486805999972
 31
0.0
  0
LINE
  5
CD0B
  8
2-0
  6
CENTER2
 62
     6
 10
26955.970723566788
 20
12319.487241999979
 30
0.0
 11
26955.970723566788
 21
14027.86324499999
 31
0.0
  0
LINE
  5
CD0C
  8
2-0
  6
CENTER2
 62
     6
 10
28998.471646566781
 20
19668.486251999992
 30
0.0
 11
28278.47296656678
 21
19668.486251999992
 31
0.0
  0
LINE
  5
CD0D
  8
2-0
  6
CENTER2
 62
     6
 10
28118.47296656678
 20
19668.486251999992
 30
0.0
 11
19083.86588761484
 21
19668.486251999992
 31
0.0
  0
LINE
  5
CD0E
  8
2-0
  6
CENTER2
 62
     6
 10
28998.471646566781
 20
16750.486251999992
 30
0.0
 11
28278.47296656678
 21
16750.486251999992
 31
0.0
  0
LINE
  5
CD0F
  8
2-0
  6
CENTER2
 62
     6
 10
27798.473626566782
 20
16750.486251999992
 30
0.0
 11
19083.86588761484
 21
16750.486251999992
 31
0.0
  0
LINE
  5
CD10
  8
2-0
  6
CENTER2
 62
     6
 10
28998.471646566781
 20
13481.98625199999
 30
0.0
 11
28278.47296656678
 21
13481.98625199999
 31
0.0
  0
LINE
  5
CD11
  8
2-0
  6
CENTER2
 62
     6
 10
28118.47296656678
 20
13481.98625199999
 30
0.0
 11
19083.86588761484
 21
13481.986252000001
 31
0.0
  0
CIRCLE
  5
CD12
  8
0-5
  6
CONTINUOUS
 62
     4
 10
24388.470723566781
 20
21510.987175999991
 30
0.0
 40
199.9999949999999
  0
CIRCLE
  5
CD13
  8
0-5
  6
CONTINUOUS
 62
     4
 10
29198.472306566771
 20
19668.486251999992
 30
0.0
 40
199.9999949999999
  0
CIRCLE
  5
CD14
  8
0-5
  6
CONTINUOUS
 62
     4
 10
29198.472306566771
 20
16750.486251999992
 30
0.0
 40
199.9999949999999
  0
CIRCLE
  5
CD15
  8
0-5
  6
CONTINUOUS
 62
     4
 10
29198.472306566771
 20
13481.98625199999
 30
0.0
 40
199.9999949999999
  0
CIRCLE
  5
CD16
  8
0-5
  6
CONTINUOUS
 62
     4
 10
26955.970723566788
 20
21510.987175999991
 30
0.0
 40
199.9999949999999
  0
TEXT
  5
CD17
  8
0-5
  6
CONTINUOUS
 62
     7
 10
24336.474400900112
 20
21424.761326
 30
0.0
 40
160.0
  1
2
 72
     4
 11
24389.80773423344
 21
21504.761326
 31
0.0
  0
TEXT
  5
CD18
  8
0-5
  6
CONTINUOUS
 62
     7
 10
26902.63739023346
 20
21430.987175999991
 30
0.0
 40
160.0
  1
3
 72
     4
 11
26955.970723566788
 21
21510.987175999991
 31
0.0
  0
TEXT
  5
CD19
  8
0-5
  6
CONTINUOUS
 62
     7
 10
29140.482001900109
 20
19576.868192999991
 30
0.0
 40
160.0
  1
C
 72
     4
 11
29193.815335233441
 21
19656.868192999991
 31
0.0
  0
TEXT
  5
CD1A
  8
0-5
  6
CONTINUOUS
 62
     7
 10
29140.482001900109
 20
16658.868193999999
 30
0.0
 40
160.0
  1
B
 72
     4
 11
29193.815335233441
 21
16738.868193999999
 31
0.0
  0
TEXT
  5
CD1B
  8
0-5
  6
CONTINUOUS
 62
     7
 10
29140.482001900109
 20
13390.36819299998
 30
0.0
 40
160.0
  1
A
 72
     4
 11
29193.815335233441
 21
13470.36819299998
 31
0.0
  0
LINE
  5
CD1C
  8
2-0
  6
CENTER2
 62
     6
 10
19388.470723566781
 20
21310.988495000001
 30
0.0
 11
19388.470723566781
 21
13132.071627523999
 31
0.0
  0
CIRCLE
  5
CD1D
  8
0-5
  6
CONTINUOUS
 62
     4
 10
19388.470723566781
 20
21510.987175999991
 30
0.0
 40
199.9999949999999
  0
TEXT
  5
CD1E
  8
0-5
  6
CONTINUOUS
 62
     7
 10
19363.141067566768
 20
21424.761326
 30
0.0
 40
160.0
  1
1
 72
     4
 11
19389.80773423344
 21
21504.761326
 31
0.0
  0
ARC
  5
CD1F
  8
1-後柱P
  6
HIDE-M
 62
     6
 10
19384.870723566772
 20
19600.436251999981
 30
0.0
 40
2.6000000000000001
 50
270.0
 51
0.000000000000007
  0
LINE
  5
CD20
  8
1-後柱P
  6
HIDE-M
 62
     6
 10
19396.470723566759
 20
19598.3868618468
 30
0.0
 11
19396.470723566759
 21
19602.036252000002
 31
0.0
  0
LINE
  5
CD21
  8
1-後柱P
  6
HIDE-M
 62
     6
 10
19386.470723566748
 20
19598.3868618468
 30
0.0
 11
19386.470723566748
 21
19602.036252000002
 31
0.0
  0
LINE
  5
CD22
  8
1-後柱P
  6
1PL-M
 62
     6
 10
19391.470723566759
 20
19592.836252000001
 30
0.0
 11
19391.470723566759
 21
19607.036252000002
 31
0.0
  0
ARC
  5
CD23
  8
1-後柱P
  6
HIDE-M
 62
     6
 10
19398.07072356678
 20
19600.436251999981
 30
0.0
 40
2.6000000000000001
 50
180.0
 51
270.0
  0
LINE
  5
CD24
  8
1-後柱P
  6
HIDE-M
 62
     6
 10
19387.470723566759
 20
19600.436251999981
 30
0.0
 11
19387.470723566759
 21
19602.036252000002
 31
0.0
  0
LINE
  5
CD25
  8
1-後柱P
  6
HIDE-M
 62
     6
 10
19395.470723566759
 20
19600.436251999981
 30
0.0
 11
19395.470723566759
 21
19602.036252000002
 31
0.0
  0
LINE
  5
CD26
  8
1-後柱P
 10
19377.57072356678
 20
19712.736251999992
 30
0.0
 11
19399.370723566761
 21
19712.736251999992
 31
0.0
  0
LINE
  5
CD27
  8
1-後柱P
 10
19429.370723566761
 20
19675.436251999989
 30
0.0
 11
19429.370723566761
 21
19682.736251999992
 31
0.0
  0
ARC
  5
CD28
  8
1-後柱P
 10
19399.370723566761
 20
19682.736251999992
 30
0.0
 40
30.0
 50
0.000000000000007
 51
90.0
  0
ARC
  5
CD29
  8
1-後柱P
 10
19399.370723566761
 20
19682.736251999992
 30
0.0
 40
31.600000000000001
 50
0.000000000000007
 51
90.0
  0
LINE
  5
CD2A
  8
1-後柱P
 10
19377.57072356678
 20
19714.336252000001
 30
0.0
 11
19399.370723566761
 21
19714.336252000001
 31
0.0
  0
LINE
  5
CD2B
  8
1-後柱P
 10
19430.970723566759
 20
19675.436251999989
 30
0.0
 11
19430.970723566759
 21
19682.736251999992
 31
0.0
  0
LINE
  5
CD2C
  8
1-後柱P
 10
19407.970723566759
 20
19653.836252000001
 30
0.0
 11
19407.970723566759
 21
19663.836252000001
 31
0.0
  0
LINE
  5
CD2D
  8
1-後柱P
 10
19406.370723566761
 20
19663.836252000001
 30
0.0
 11
19406.370723566761
 21
19653.836252000001
 31
0.0
  0
LINE
  5
CD2E
  8
1-後柱P
 10
19347.57072356678
 20
19675.436251999989
 30
0.0
 11
19347.57072356678
 21
19682.736251999992
 31
0.0
  0
ARC
  5
CD2F
  8
1-後柱P
 10
19377.57072356678
 20
19682.736251999992
 30
0.0
 40
30.0
 50
90.0
 51
180.0
  0
ARC
  5
CD30
  8
1-後柱P
 10
19377.57072356678
 20
19682.736251999992
 30
0.0
 40
31.600000000000001
 50
90.0
 51
180.0
  0
LINE
  5
CD31
  8
1-後柱P
 10
19345.970723566759
 20
19675.436251999989
 30
0.0
 11
19345.970723566759
 21
19682.736251999992
 31
0.0
  0
LINE
  5
CD32
  8
1-後柱P
 10
19352.57072356678
 20
19668.836252000001
 30
0.0
 11
19363.970723566748
 21
19668.836252000001
 31
0.0
  0
ARC
  5
CD33
  8
1-後柱P
 10
19352.57072356678
 20
19675.436251999989
 30
0.0
 40
6.599999999999997
 50
180.0
 51
270.0
  0
ARC
  5
CD34
  8
1-後柱P
 10
19363.970723566748
 20
19663.836252000001
 30
0.0
 40
5.0
 50
0.000000000000007
 51
90.0
  0
LINE
  5
CD35
  8
1-後柱P
 10
19352.57072356678
 20
19670.436251999981
 30
0.0
 11
19363.970723566748
 21
19670.436251999981
 31
0.0
  0
ARC
  5
CD36
  8
1-後柱P
 10
19352.57072356678
 20
19675.436251999989
 30
0.0
 40
5.0
 50
180.0
 51
270.0
  0
LINE
  5
CD37
  8
1-後柱P
 10
19368.970723566759
 20
19663.836252000001
 30
0.0
 11
19368.970723566759
 21
19604.436251999989
 31
0.0
  0
LINE
  5
CD38
  8
1-後柱P
 10
19370.57072356678
 20
19663.836252000001
 30
0.0
 11
19370.57072356678
 21
19604.436251999989
 31
0.0
  0
ARC
  5
CD39
  8
1-後柱P
 10
19363.970723566748
 20
19663.836252000001
 30
0.0
 40
6.599999999999997
 50
0.000000000000007
 51
90.0
  0
LINE
  5
CD3A
  8
1-後柱P
 10
19375.57072356678
 20
19597.836252000001
 30
0.0
 11
19408.970723566759
 21
19597.836252000001
 31
0.0
  0
ARC
  5
CD3B
  8
1-後柱P
 10
19375.57072356678
 20
19604.436251999989
 30
0.0
 40
6.599999999999997
 50
180.0
 51
270.0
  0
LINE
  5
CD3C
  8
1-後柱P
 10
19375.57072356678
 20
19599.436251999981
 30
0.0
 11
19408.970723566759
 21
19599.436251999981
 31
0.0
  0
ARC
  5
CD3D
  8
1-後柱P
 10
19375.57072356678
 20
19604.436251999989
 30
0.0
 40
5.0
 50
180.0
 51
270.0
  0
LINE
  5
CD3E
  8
1-後柱P
 10
19408.970723566759
 20
19599.436251999981
 30
0.0
 11
19408.970723566759
 21
19597.836252000001
 31
0.0
  0
LINE
  5
CD3F
  8
1-後柱P
 10
19424.370723566761
 20
19668.836252000001
 30
0.0
 11
19412.970723566748
 21
19668.836252000001
 31
0.0
  0
ARC
  5
CD40
  8
1-後柱P
 10
19424.370723566761
 20
19675.436251999989
 30
0.0
 40
6.599999999999997
 50
270.0
 51
0.000000000000007
  0
ARC
  5
CD41
  8
1-後柱P
 10
19412.970723566748
 20
19663.836252000001
 30
0.0
 40
5.0
 50
90.0
 51
180.0
  0
LINE
  5
CD42
  8
1-後柱P
 10
19412.970723566748
 20
19670.436251999981
 30
0.0
 11
19424.370723566761
 21
19670.436251999981
 31
0.0
  0
ARC
  5
CD43
  8
1-後柱P
 10
19412.970723566748
 20
19663.836252000001
 30
0.0
 40
6.599999999999997
 50
90.0
 51
180.0
  0
ARC
  5
CD44
  8
1-後柱P
 10
19424.370723566761
 20
19675.436251999989
 30
0.0
 40
5.0
 50
270.0
 51
0.000000000000007
  0
LINE
  5
CD45
  8
1-後柱P
 10
19407.970723566759
 20
19653.836252000001
 30
0.0
 11
19406.370723566761
 21
19653.836252000001
 31
0.0
  0
LINE
  5
CD46
  8
1-後柱カバ-P
 10
19430.970723566759
 20
19662.136252
 30
0.0
 11
19430.970723566759
 21
19602.836252000001
 31
0.0
  0
ARC
  5
CD47
  8
1-後柱カバ-P
 10
19424.370723566761
 20
19602.836252000001
 30
0.0
 40
6.599999999999997
 50
270.0
 51
0.000000000000007
  0
LINE
  5
CD48
  8
1-後柱カバ-P
 10
19429.370723566761
 20
19662.136252
 30
0.0
 11
19429.370723566761
 21
19602.836252000001
 31
0.0
  0
ARC
  5
CD49
  8
1-後柱カバ-P
 10
19424.370723566761
 20
19662.136252
 30
0.0
 40
5.0
 50
0.000000000000007
 51
90.0
  0
LINE
  5
CD4A
  8
1-後柱カバ-P
 10
19424.370723566761
 20
19596.236251999992
 30
0.0
 11
19352.57072356678
 21
19596.236251999992
 31
0.0
  0
ARC
  5
CD4B
  8
1-後柱カバ-P
 10
19352.57072356678
 20
19602.836252000001
 30
0.0
 40
6.599999999999997
 50
180.0
 51
270.0
  0
LINE
  5
CD4C
  8
1-後柱カバ-P
 10
19424.370723566761
 20
19597.836252000001
 30
0.0
 11
19352.57072356678
 21
19597.836252000001
 31
0.0
  0
ARC
  5
CD4D
  8
1-後柱カバ-P
 10
19352.57072356678
 20
19602.836252000001
 30
0.0
 40
5.0
 50
180.0
 51
270.0
  0
ARC
  5
CD4E
  8
1-後柱カバ-P
 10
19424.370723566761
 20
19602.836252000001
 30
0.0
 40
5.0
 50
270.0
 51
0.000000000000007
  0
LINE
  5
CD4F
  8
1-後柱カバ-P
 10
19345.970723566759
 20
19602.836252000001
 30
0.0
 11
19345.970723566759
 21
19662.136252
 31
0.0
  0
LINE
  5
CD50
  8
1-後柱カバ-P
 10
19347.57072356678
 20
19602.836252000001
 30
0.0
 11
19347.57072356678
 21
19662.136252
 31
0.0
  0
ARC
  5
CD51
  8
1-後柱カバ-P
 10
19352.57072356678
 20
19662.136252
 30
0.0
 40
5.0
 50
90.0
 51
180.0
  0
LINE
  5
CD52
  8
1-後柱カバ-P
  6
1PL-M
 62
     6
 10
19388.470723566759
 20
19603.736251999992
 30
0.0
 11
19388.470723566759
 21
19590.736251999992
 31
0.0
  0
LINE
  5
CD53
  8
1-後柱カバ-P
  6
HIDE-M
 62
     6
 10
19395.470723566759
 20
19596.236251999992
 30
0.0
 11
19395.470723566759
 21
19597.836252000001
 31
0.0
  0
LINE
  5
CD54
  8
1-後柱カバ-P
  6
HIDE-M
 62
     6
 10
19381.470723566759
 20
19596.236251999992
 30
0.0
 11
19381.470723566759
 21
19597.836252000001
 31
0.0
  0
ARC
  5
CD55
  8
1-後柱カバ-P
 10
19424.370723566761
 20
19662.136252
 30
0.0
 40
6.599999999999997
 50
0.000000000000007
 51
90.0
  0
ARC
  5
CD56
  8
1-後柱カバ-P
 10
19352.57072356678
 20
19662.136252
 30
0.0
 40
6.599999999999997
 50
90.0
 51
180.0
  0
LINE
  5
CD57
  8
1-後柱カバ-P
 10
19360.970723566759
 20
19668.736251999992
 30
0.0
 11
19352.57072356678
 21
19668.736251999992
 31
0.0
  0
LINE
  5
CD58
  8
1-後柱カバ-P
 10
19415.970723566759
 20
19668.736251999992
 30
0.0
 11
19424.370723566761
 21
19668.736251999992
 31
0.0
  0
LINE
  5
CD59
  8
1-後柱カバ-P
 10
19360.970723566759
 20
19667.136252
 30
0.0
 11
19352.57072356678
 21
19667.136252
 31
0.0
  0
LINE
  5
CD5A
  8
1-後柱カバ-P
 10
19415.970723566759
 20
19667.136252
 30
0.0
 11
19424.370723566761
 21
19667.136252
 31
0.0
  0
LINE
  5
CD5B
  8
1-後柱カバ-P
 10
19415.970723566759
 20
19667.136252
 30
0.0
 11
19415.970723566759
 21
19668.736251999992
 31
0.0
  0
LINE
  5
CD5C
  8
1-後柱カバ-P
 10
19360.970723566759
 20
19668.736251999992
 30
0.0
 11
19360.970723566759
 21
19667.136252
 31
0.0
  0
LINE
  5
CD5D
  8
1-後柱カバ-P
  6
HIDE-M
 62
     6
 10
19357.07072356678
 20
19647.736251999992
 30
0.0
 11
19345.470723566748
 21
19647.736251999992
 31
0.0
  0
LINE
  5
CD5E
  8
1-後柱カバ-P
  6
HIDE-M
 62
     6
 10
19357.07072356678
 20
19639.736251999992
 30
0.0
 11
19345.470723566748
 21
19639.736251999992
 31
0.0
  0
LINE
  5
CD5F
  8
1-後柱カバ-P
  6
HIDE-M
 62
     6
 10
19357.07072356678
 20
19646.736251999992
 30
0.0
 11
19345.470723566748
 21
19646.736251999992
 31
0.0
  0
LINE
  5
CD60
  8
1-後柱カバ-P
  6
HIDE-M
 62
     6
 10
19357.07072356678
 20
19640.736251999992
 30
0.0
 11
19345.470723566748
 21
19640.736251999992
 31
0.0
  0
LINE
  5
CD61
  8
1-後柱カバ-P
 10
19356.07072356678
 20
19638.236251999992
 30
0.0
 11
19349.07072356678
 21
19638.236251999992
 31
0.0
  0
LINE
  5
CD62
  8
1-後柱カバ-P
 10
19349.07072356678
 20
19649.236251999992
 30
0.0
 11
19356.07072356678
 21
19649.236251999992
 31
0.0
  0
LINE
  5
CD63
  8
1-後柱カバ-P
 10
19349.07072356678
 20
19649.986251999992
 30
0.0
 11
19349.07072356678
 21
19637.486251999992
 31
0.0
  0
LINE
  5
CD64
  8
1-後柱カバ-P
 10
19345.470723566748
 20
19649.736251999992
 30
0.0
 11
19345.470723566748
 21
19637.736251999992
 31
0.0
  0
LINE
  5
CD65
  8
1-後柱カバ-P
  6
HIDE-M
 62
     6
 10
19347.57072356678
 20
19638.236251999992
 30
0.0
 11
19345.970723566759
 21
19638.236251999992
 31
0.0
  0
LINE
  5
CD66
  8
1-後柱カバ-P
 10
19345.470723566748
 20
19637.736251999992
 30
0.0
 11
19345.970723566759
 21
19638.236251999992
 31
0.0
  0
ARC
  5
CD67
  8
1-後柱カバ-P
 10
19348.32072356678
 20
19637.486251999992
 30
0.0
 40
0.75
 50
180.0
 51
0.000000000000007
  0
LINE
  5
CD68
  8
1-後柱カバ-P
  6
HIDE-M
 62
     6
 10
19345.970723566759
 20
19649.236251999992
 30
0.0
 11
19347.57072356678
 21
19649.236251999992
 31
0.0
  0
LINE
  5
CD69
  8
1-後柱カバ-P
 10
19345.470723566748
 20
19649.736251999992
 30
0.0
 11
19345.970723566759
 21
19649.236251999992
 31
0.0
  0
ARC
  5
CD6A
  8
1-後柱カバ-P
 10
19348.32072356678
 20
19649.986251999992
 30
0.0
 40
0.75
 50
0.000000000000007
 51
180.0
  0
LINE
  5
CD6B
  8
1-後柱カバ-P
 10
19357.07072356678
 20
19648.236251999992
 30
0.0
 11
19357.07072356678
 21
19639.236251999992
 31
0.0
  0
ARC
  5
CD6C
  8
1-後柱カバ-P
 10
19356.07072356678
 20
19639.236251999992
 30
0.0
 40
1.0
 50
270.0
 51
0.000000000000007
  0
ARC
  5
CD6D
  8
1-後柱カバ-P
 10
19356.07072356678
 20
19648.236251999992
 30
0.0
 40
1.0
 50
0.000000000000007
 51
90.0
  0
LINE
  5
CD6E
  8
1-後柱カバ-P
  6
1PL-M
 62
     6
 10
19362.07072356678
 20
19643.736251999999
 30
0.0
 11
19340.470723566759
 21
19643.736251999999
 31
0.0
  0
LINE
  5
CD6F
  8
1-後柱カバ-P
 10
19356.07072356678
 20
19628.236251999992
 30
0.0
 11
19349.07072356678
 21
19628.236251999992
 31
0.0
  0
LINE
  5
CD70
  8
1-後柱カバ-P
 10
19345.470723566748
 20
19635.736251999992
 30
0.0
 11
19345.470723566748
 21
19627.736251999992
 31
0.0
  0
LINE
  5
CD71
  8
1-後柱カバ-P
  6
HIDE-M
 62
     6
 10
19347.57072356678
 20
19628.236251999992
 30
0.0
 11
19345.970723566759
 21
19628.236251999992
 31
0.0
  0
LINE
  5
CD72
  8
1-後柱カバ-P
 10
19345.470723566748
 20
19627.736251999992
 30
0.0
 11
19345.970723566759
 21
19628.236251999992
 31
0.0
  0
ARC
  5
CD73
  8
1-後柱カバ-P
 10
19348.32072356678
 20
19627.486251999992
 30
0.0
 40
0.75
 50
180.0
 51
0.000000000000007
  0
LINE
  5
CD74
  8
1-後柱カバ-P
 10
19357.07072356678
 20
19637.236251999992
 30
0.0
 11
19357.07072356678
 21
19629.236251999992
 31
0.0
  0
ARC
  5
CD75
  8
1-後柱カバ-P
 10
19356.07072356678
 20
19629.236251999992
 30
0.0
 40
1.0
 50
270.0
 51
0.000000000000007
  0
LINE
  5
CD76
  8
1-後柱カバ-P
  6
1PL-M
 62
     6
 10
19362.07072356678
 20
19633.736251999992
 30
0.0
 11
19340.470723566759
 21
19633.736251999992
 31
0.0
  0
LINE
  5
CD77
  8
1-後柱カバ-P
 10
19349.07072356678
 20
19635.486251999992
 30
0.0
 11
19349.07072356678
 21
19627.486251999992
 31
0.0
  0
LINE
  5
CD78
  8
1-後柱カバ-P
  6
HIDE-M
 62
     6
 10
19419.870723566772
 20
19647.736251999992
 30
0.0
 11
19431.470723566759
 21
19647.736251999992
 31
0.0
  0
LINE
  5
CD79
  8
1-後柱カバ-P
  6
HIDE-M
 62
     6
 10
19419.870723566772
 20
19639.736251999992
 30
0.0
 11
19431.470723566759
 21
19639.736251999992
 31
0.0
  0
LINE
  5
CD7A
  8
1-後柱カバ-P
  6
HIDE-M
 62
     6
 10
19419.870723566772
 20
19646.736251999992
 30
0.0
 11
19431.470723566759
 21
19646.736251999992
 31
0.0
  0
LINE
  5
CD7B
  8
1-後柱カバ-P
  6
HIDE-M
 62
     6
 10
19419.870723566772
 20
19640.736251999992
 30
0.0
 11
19431.470723566759
 21
19640.736251999992
 31
0.0
  0
LINE
  5
CD7C
  8
1-後柱カバ-P
 10
19420.870723566761
 20
19638.236251999992
 30
0.0
 11
19427.870723566761
 21
19638.236251999992
 31
0.0
  0
LINE
  5
CD7D
  8
1-後柱カバ-P
 10
19427.870723566761
 20
19649.236251999992
 30
0.0
 11
19420.870723566761
 21
19649.236251999992
 31
0.0
  0
LINE
  5
CD7E
  8
1-後柱カバ-P
 10
19427.870723566761
 20
19649.986251999992
 30
0.0
 11
19427.870723566761
 21
19637.486251999992
 31
0.0
  0
LINE
  5
CD7F
  8
1-後柱カバ-P
 10
19431.470723566759
 20
19649.736251999992
 30
0.0
 11
19431.470723566759
 21
19637.736251999992
 31
0.0
  0
LINE
  5
CD80
  8
1-後柱カバ-P
  6
HIDE-M
 62
     6
 10
19429.370723566761
 20
19638.236251999992
 30
0.0
 11
19430.970723566759
 21
19638.236251999992
 31
0.0
  0
LINE
  5
CD81
  8
1-後柱カバ-P
 10
19431.470723566759
 20
19637.736251999992
 30
0.0
 11
19430.970723566759
 21
19638.236251999992
 31
0.0
  0
ARC
  5
CD82
  8
1-後柱カバ-P
 10
19428.620723566761
 20
19637.486251999992
 30
0.0
 40
0.75
 50
180.0
 51
0.000000000000007
  0
LINE
  5
CD83
  8
1-後柱カバ-P
  6
HIDE-M
 62
     6
 10
19430.970723566759
 20
19649.236251999992
 30
0.0
 11
19429.370723566761
 21
19649.236251999992
 31
0.0
  0
LINE
  5
CD84
  8
1-後柱カバ-P
 10
19431.470723566759
 20
19649.736251999992
 30
0.0
 11
19430.970723566759
 21
19649.236251999992
 31
0.0
  0
ARC
  5
CD85
  8
1-後柱カバ-P
 10
19428.620723566761
 20
19649.986251999992
 30
0.0
 40
0.75
 50
0.000000000000007
 51
180.0
  0
LINE
  5
CD86
  8
1-後柱カバ-P
 10
19419.870723566772
 20
19648.236251999992
 30
0.0
 11
19419.870723566772
 21
19639.236251999992
 31
0.0
  0
ARC
  5
CD87
  8
1-後柱カバ-P
 10
19420.870723566761
 20
19639.236251999992
 30
0.0
 40
1.0
 50
180.0
 51
270.0
  0
ARC
  5
CD88
  8
1-後柱カバ-P
 10
19420.870723566761
 20
19648.236251999992
 30
0.0
 40
1.0
 50
90.0
 51
180.0
  0
LINE
  5
CD89
  8
1-後柱カバ-P
  6
1PL-M
 62
     6
 10
19414.870723566761
 20
19643.736251999999
 30
0.0
 11
19436.470723566759
 21
19643.736251999999
 31
0.0
  0
LINE
  5
CD8A
  8
1-後柱カバ-P
 10
19420.870723566761
 20
19628.236251999992
 30
0.0
 11
19427.870723566761
 21
19628.236251999992
 31
0.0
  0
LINE
  5
CD8B
  8
1-後柱カバ-P
 10
19431.470723566759
 20
19635.736251999992
 30
0.0
 11
19431.470723566759
 21
19627.736251999992
 31
0.0
  0
LINE
  5
CD8C
  8
1-後柱カバ-P
  6
HIDE-M
 62
     6
 10
19429.370723566761
 20
19628.236251999992
 30
0.0
 11
19430.970723566759
 21
19628.236251999992
 31
0.0
  0
LINE
  5
CD8D
  8
1-後柱カバ-P
 10
19431.470723566759
 20
19627.736251999992
 30
0.0
 11
19430.970723566759
 21
19628.236251999992
 31
0.0
  0
ARC
  5
CD8E
  8
1-後柱カバ-P
 10
19428.620723566761
 20
19627.486251999992
 30
0.0
 40
0.75
 50
180.0
 51
0.000000000000007
  0
LINE
  5
CD8F
  8
1-後柱カバ-P
 10
19419.870723566772
 20
19637.236251999992
 30
0.0
 11
19419.870723566772
 21
19629.236251999992
 31
0.0
  0
ARC
  5
CD90
  8
1-後柱カバ-P
 10
19420.870723566761
 20
19629.236251999992
 30
0.0
 40
1.0
 50
180.0
 51
270.0
  0
LINE
  5
CD91
  8
1-後柱カバ-P
  6
1PL-M
 62
     6
 10
19414.870723566761
 20
19633.736251999992
 30
0.0
 11
19436.470723566759
 21
19633.736251999992
 31
0.0
  0
LINE
  5
CD92
  8
1-後柱カバ-P
 10
19427.870723566761
 20
19635.486251999992
 30
0.0
 11
19427.870723566761
 21
19627.486251999992
 31
0.0
  0
LINE
  5
CD93
  8
1-後柱カバ-P
  6
HIDE-M
 62
     6
 10
19357.07072356678
 20
19629.736251999992
 30
0.0
 11
19345.470723566748
 21
19629.736251999992
 31
0.0
  0
LINE
  5
CD94
  8
1-後柱カバ-P
  6
HIDE-M
 62
     6
 10
19357.07072356678
 20
19630.736251999992
 30
0.0
 11
19345.470723566748
 21
19630.736251999992
 31
0.0
  0
LINE
  5
CD95
  8
1-後柱カバ-P
  6
HIDE-M
 62
     6
 10
19419.870723566772
 20
19629.736251999992
 30
0.0
 11
19431.470723566759
 21
19629.736251999992
 31
0.0
  0
LINE
  5
CD96
  8
1-後柱カバ-P
  6
HIDE-M
 62
     6
 10
19419.870723566772
 20
19630.736251999992
 30
0.0
 11
19431.470723566759
 21
19630.736251999992
 31
0.0
  0
LINE
  5
CD97
  8
1-中柱P
 10
19352.57072356678
 20
16679.486251999992
 30
0.0
 11
19424.370723566761
 21
16679.486251999992
 31
0.0
  0
ARC
  5
CD98
  8
1-中柱P
 10
19352.57072356678
 20
16684.486251999992
 30
0.0
 40
5.0
 50
180.0
 51
270.0
  0
ARC
  5
CD99
  8
1-中柱P
 10
19424.370723566761
 20
16684.486251999992
 30
0.0
 40
5.0
 50
270.0
 51
0.000000000000007
  0
LINE
  5
CD9A
  8
1-中柱P
 10
19352.57072356678
 20
16677.886252
 30
0.0
 11
19424.370723566761
 21
16677.886252
 31
0.0
  0
ARC
  5
CD9B
  8
1-中柱P
 10
19352.57072356678
 20
16684.486251999992
 30
0.0
 40
6.599999999999997
 50
180.0
 51
270.0
  0
LINE
  5
CD9C
  8
1-中柱P
 10
19430.970723566781
 20
16743.786252000002
 30
0.0
 11
19430.970723566781
 21
16684.486251999992
 31
0.0
  0
ARC
  5
CD9D
  8
1-中柱P
 10
19424.370723566761
 20
16684.486251999992
 30
0.0
 40
6.599999999999997
 50
270.0
 51
0.000000000000007
  0
LINE
  5
CD9E
  8
1-中柱P
 10
19429.370723566761
 20
16684.486251999992
 30
0.0
 11
19429.370723566761
 21
16743.786252000002
 31
0.0
  0
ARC
  5
CD9F
  8
1-中柱P
 10
19424.370723566761
 20
16743.786252000002
 30
0.0
 40
5.0
 50
0.000000000000007
 51
90.0
  0
LINE
  5
CDA0
  8
1-中柱P
 10
19345.970723566781
 20
16743.786252000002
 30
0.0
 11
19345.970723566781
 21
16684.486251999992
 31
0.0
  0
LINE
  5
CDA1
  8
1-中柱P
 10
19347.57072356678
 20
16684.486251999992
 30
0.0
 11
19347.57072356678
 21
16743.786252000002
 31
0.0
  0
LINE
  5
CDA2
  8
1-中柱P
 10
19352.57072356678
 20
16750.386252
 30
0.0
 11
19360.970723566781
 21
16750.386252
 31
0.0
  0
ARC
  5
CDA3
  8
1-中柱P
 10
19352.57072356678
 20
16743.786252000002
 30
0.0
 40
6.599999999999997
 50
90.0
 51
180.0
  0
LINE
  5
CDA4
  8
1-中柱P
 10
19352.57072356678
 20
16748.786252000002
 30
0.0
 11
19360.970723566781
 21
16748.786252000002
 31
0.0
  0
ARC
  5
CDA5
  8
1-中柱P
 10
19360.970723566781
 20
16755.386252
 30
0.0
 40
6.599999999999997
 50
270.0
 51
0.000000000000007
  0
ARC
  5
CDA6
  8
1-中柱P
 10
19352.57072356678
 20
16743.786252000002
 30
0.0
 40
5.0
 50
90.0
 51
180.0
  0
LINE
  5
CDA7
  8
1-中柱P
 10
19365.970723566781
 20
16755.386252
 30
0.0
 11
19365.970723566781
 21
16814.786252000002
 31
0.0
  0
ARC
  5
CDA8
  8
1-中柱P
 10
19360.970723566781
 20
16755.386252
 30
0.0
 40
5.0
 50
270.0
 51
0.000000000000007
  0
LINE
  5
CDA9
  8
1-中柱P
 10
19367.57072356678
 20
16755.386252
 30
0.0
 11
19367.57072356678
 21
16814.786252000002
 31
0.0
  0
LINE
  5
CDAA
  8
1-中柱P
 10
19372.57072356678
 20
16821.386252
 30
0.0
 11
19405.970723566788
 21
16821.386252
 31
0.0
  0
ARC
  5
CDAB
  8
1-中柱P
 10
19372.57072356678
 20
16814.786252000002
 30
0.0
 40
6.599999999999997
 50
90.0
 51
180.0
  0
LINE
  5
CDAC
  8
1-中柱P
 10
19372.57072356678
 20
16819.786252000002
 30
0.0
 11
19405.970723566788
 21
16819.786252000002
 31
0.0
  0
ARC
  5
CDAD
  8
1-中柱P
 10
19372.57072356678
 20
16814.786252000002
 30
0.0
 40
5.0
 50
90.0
 51
180.0
  0
LINE
  5
CDAE
  8
1-中柱P
 10
19405.970723566788
 20
16819.786252000002
 30
0.0
 11
19405.970723566788
 21
16821.386252
 31
0.0
  0
LINE
  5
CDAF
  8
1-中柱P
 10
19424.370723566761
 20
16750.386252
 30
0.0
 11
19415.970723566781
 21
16750.386252
 31
0.0
  0
ARC
  5
CDB0
  8
1-中柱P
 10
19424.370723566761
 20
16743.786252000002
 30
0.0
 40
6.599999999999997
 50
0.000000000000007
 51
90.0
  0
ARC
  5
CDB1
  8
1-中柱P
 10
19415.970723566781
 20
16755.386252
 30
0.0
 40
5.0
 50
180.0
 51
270.0
  0
LINE
  5
CDB2
  8
1-中柱P
 10
19415.970723566781
 20
16748.786252000002
 30
0.0
 11
19424.370723566761
 21
16748.786252000002
 31
0.0
  0
ARC
  5
CDB3
  8
1-中柱P
 10
19415.970723566781
 20
16755.386252
 30
0.0
 40
6.599999999999997
 50
180.0
 51
270.0
  0
ARC
  5
CDB4
  8
1-中柱P
  6
HIDE-M
 62
     6
 10
19381.870723566772
 20
16818.786252000002
 30
0.0
 40
2.6000000000000001
 50
0.000000000000007
 51
90.0
  0
LINE
  5
CDB5
  8
1-中柱P
  6
HIDE-M
 62
     6
 10
19393.470723566781
 20
16820.835642153179
 30
0.0
 11
19393.470723566781
 21
16817.186252
 31
0.0
  0
LINE
  5
CDB6
  8
1-中柱P
  6
HIDE-M
 62
     6
 10
19383.470723566781
 20
16820.835642153179
 30
0.0
 11
19383.470723566781
 21
16817.186252
 31
0.0
  0
LINE
  5
CDB7
  8
1-中柱P
  6
1PL-M
 62
     6
 10
19388.470723566781
 20
16826.386252
 30
0.0
 11
19388.470723566781
 21
16812.186252
 31
0.0
  0
ARC
  5
CDB8
  8
1-中柱P
  6
HIDE-M
 62
     6
 10
19395.07072356678
 20
16818.786252000002
 30
0.0
 40
2.6000000000000001
 50
90.0
 51
180.0
  0
LINE
  5
CDB9
  8
1-中柱P
  6
HIDE-M
 62
     6
 10
19384.470723566781
 20
16818.786252000002
 30
0.0
 11
19384.470723566781
 21
16817.186252
 31
0.0
  0
LINE
  5
CDBA
  8
1-中柱P
  6
HIDE-M
 62
     6
 10
19392.470723566781
 20
16818.786252000002
 30
0.0
 11
19392.470723566781
 21
16817.186252
 31
0.0
  0
LINE
  5
CDBB
  8
1-中柱P
 10
19409.370723566761
 20
16755.386252
 30
0.0
 11
19409.370723566761
 21
16765.386252
 31
0.0
  0
LINE
  5
CDBC
  8
1-中柱P
 10
19410.970723566781
 20
16755.386252
 30
0.0
 11
19410.970723566781
 21
16765.386252
 31
0.0
  0
LINE
  5
CDBD
  8
1-中柱P
 10
19409.370723566761
 20
16765.386252
 30
0.0
 11
19410.970723566781
 21
16765.386252
 31
0.0
  0
LINE
  5
CDBE
  8
1-中柱P
  6
1PL-M
 62
     6
 10
19360.970723566781
 20
16786.386252
 30
0.0
 11
19375.170723566782
 21
16786.386252
 31
0.0
  0
LINE
  5
CDBF
  8
1-中柱P
  6
HIDE-M
 62
     6
 10
19357.07072356678
 20
16729.386252
 30
0.0
 11
19345.470723566781
 21
16729.386252
 31
0.0
  0
LINE
  5
CDC0
  8
1-中柱P
  6
HIDE-M
 62
     6
 10
19357.07072356678
 20
16721.386252
 30
0.0
 11
19345.470723566781
 21
16721.386252
 31
0.0
  0
LINE
  5
CDC1
  8
1-中柱P
  6
HIDE-M
 62
     6
 10
19357.07072356678
 20
16728.386251999989
 30
0.0
 11
19345.470723566781
 21
16728.386251999989
 31
0.0
  0
LINE
  5
CDC2
  8
1-中柱P
  6
HIDE-M
 62
     6
 10
19357.07072356678
 20
16722.386252
 30
0.0
 11
19345.470723566781
 21
16722.386252
 31
0.0
  0
LINE
  5
CDC3
  8
1-中柱P
 10
19356.07072356678
 20
16719.886252
 30
0.0
 11
19349.07072356678
 21
16719.886252
 31
0.0
  0
LINE
  5
CDC4
  8
1-中柱P
 10
19349.07072356678
 20
16730.886252
 30
0.0
 11
19356.07072356678
 21
16730.886252
 31
0.0
  0
LINE
  5
CDC5
  8
1-中柱P
 10
19349.07072356678
 20
16731.636252
 30
0.0
 11
19349.07072356678
 21
16719.136252
 31
0.0
  0
LINE
  5
CDC6
  8
1-中柱P
 10
19345.470723566781
 20
16731.386252
 30
0.0
 11
19345.470723566781
 21
16719.386252
 31
0.0
  0
LINE
  5
CDC7
  8
1-中柱P
  6
HIDE-M
 62
     6
 10
19347.57072356678
 20
16719.886252
 30
0.0
 11
19345.970723566781
 21
16719.886252
 31
0.0
  0
LINE
  5
CDC8
  8
1-中柱P
 10
19345.470723566781
 20
16719.386252
 30
0.0
 11
19345.970723566781
 21
16719.886252
 31
0.0
  0
ARC
  5
CDC9
  8
1-中柱P
 10
19348.32072356678
 20
16719.136252
 30
0.0
 40
0.75
 50
180.0
 51
0.000000000000007
  0
LINE
  5
CDCA
  8
1-中柱P
  6
HIDE-M
 62
     6
 10
19345.970723566781
 20
16730.886252
 30
0.0
 11
19347.57072356678
 21
16730.886252
 31
0.0
  0
LINE
  5
CDCB
  8
1-中柱P
 10
19345.470723566781
 20
16731.386252
 30
0.0
 11
19345.970723566781
 21
16730.886252
 31
0.0
  0
ARC
  5
CDCC
  8
1-中柱P
 10
19348.32072356678
 20
16731.636252
 30
0.0
 40
0.75
 50
0.000000000000007
 51
180.0
  0
LINE
  5
CDCD
  8
1-中柱P
 10
19357.07072356678
 20
16729.886252
 30
0.0
 11
19357.07072356678
 21
16720.886251999989
 31
0.0
  0
ARC
  5
CDCE
  8
1-中柱P
 10
19356.07072356678
 20
16720.886251999989
 30
0.0
 40
1.0
 50
270.0
 51
0.000000000000007
  0
ARC
  5
CDCF
  8
1-中柱P
 10
19356.07072356678
 20
16729.886252
 30
0.0
 40
1.0
 50
0.000000000000007
 51
90.0
  0
LINE
  5
CDD0
  8
1-中柱P
  6
1PL-M
 62
     6
 10
19362.07072356678
 20
16725.386252
 30
0.0
 11
19340.470723566781
 21
16725.386252
 31
0.0
  0
LINE
  5
CDD1
  8
1-中柱P
 10
19356.07072356678
 20
16709.886252
 30
0.0
 11
19349.07072356678
 21
16709.886252
 31
0.0
  0
LINE
  5
CDD2
  8
1-中柱P
 10
19345.470723566781
 20
16717.386252
 30
0.0
 11
19345.470723566781
 21
16709.386251999989
 31
0.0
  0
LINE
  5
CDD3
  8
1-中柱P
  6
HIDE-M
 62
     6
 10
19347.57072356678
 20
16709.886252
 30
0.0
 11
19345.970723566781
 21
16709.886252
 31
0.0
  0
LINE
  5
CDD4
  8
1-中柱P
 10
19345.470723566781
 20
16709.386251999989
 30
0.0
 11
19345.970723566781
 21
16709.886252
 31
0.0
  0
ARC
  5
CDD5
  8
1-中柱P
 10
19348.32072356678
 20
16709.136252
 30
0.0
 40
0.75
 50
180.0
 51
0.000000000000007
  0
LINE
  5
CDD6
  8
1-中柱P
 10
19357.07072356678
 20
16718.886252
 30
0.0
 11
19357.07072356678
 21
16710.886252
 31
0.0
  0
ARC
  5
CDD7
  8
1-中柱P
 10
19356.07072356678
 20
16710.886252
 30
0.0
 40
1.0
 50
270.0
 51
0.000000000000007
  0
LINE
  5
CDD8
  8
1-中柱P
  6
1PL-M
 62
     6
 10
19362.07072356678
 20
16715.386252
 30
0.0
 11
19340.470723566781
 21
16715.386252
 31
0.0
  0
LINE
  5
CDD9
  8
1-中柱P
 10
19349.07072356678
 20
16717.136251999989
 30
0.0
 11
19349.07072356678
 21
16709.136252
 31
0.0
  0
LINE
  5
CDDA
  8
1-中柱P
  6
HIDE-M
 62
     6
 10
19357.07072356678
 20
16711.386252
 30
0.0
 11
19345.470723566781
 21
16711.386252
 31
0.0
  0
LINE
  5
CDDB
  8
1-中柱P
  6
HIDE-M
 62
     6
 10
19357.07072356678
 20
16712.386251999989
 30
0.0
 11
19345.470723566781
 21
16712.386251999989
 31
0.0
  0
LINE
  5
CDDC
  8
1-中柱P
  6
HIDE-M
 62
     6
 10
19419.870723566772
 20
16729.386252
 30
0.0
 11
19431.470723566781
 21
16729.386252
 31
0.0
  0
LINE
  5
CDDD
  8
1-中柱P
  6
HIDE-M
 62
     6
 10
19419.870723566772
 20
16721.386252
 30
0.0
 11
19431.470723566781
 21
16721.386252
 31
0.0
  0
LINE
  5
CDDE
  8
1-中柱P
  6
HIDE-M
 62
     6
 10
19419.870723566772
 20
16728.386251999989
 30
0.0
 11
19431.470723566781
 21
16728.386251999989
 31
0.0
  0
LINE
  5
CDDF
  8
1-中柱P
  6
HIDE-M
 62
     6
 10
19419.870723566772
 20
16722.386252
 30
0.0
 11
19431.470723566781
 21
16722.386252
 31
0.0
  0
LINE
  5
CDE0
  8
1-中柱P
 10
19420.870723566761
 20
16719.886252
 30
0.0
 11
19427.870723566761
 21
16719.886252
 31
0.0
  0
LINE
  5
CDE1
  8
1-中柱P
 10
19427.870723566761
 20
16730.886252
 30
0.0
 11
19420.870723566761
 21
16730.886252
 31
0.0
  0
LINE
  5
CDE2
  8
1-中柱P
 10
19427.870723566761
 20
16731.636252
 30
0.0
 11
19427.870723566761
 21
16719.136252
 31
0.0
  0
LINE
  5
CDE3
  8
1-中柱P
 10
19431.470723566781
 20
16731.386252
 30
0.0
 11
19431.470723566781
 21
16719.386252
 31
0.0
  0
LINE
  5
CDE4
  8
1-中柱P
  6
HIDE-M
 62
     6
 10
19429.370723566761
 20
16719.886252
 30
0.0
 11
19430.970723566781
 21
16719.886252
 31
0.0
  0
LINE
  5
CDE5
  8
1-中柱P
 10
19431.470723566781
 20
16719.386252
 30
0.0
 11
19430.970723566781
 21
16719.886252
 31
0.0
  0
ARC
  5
CDE6
  8
1-中柱P
 10
19428.620723566761
 20
16719.136252
 30
0.0
 40
0.75
 50
180.0
 51
0.000000000000007
  0
LINE
  5
CDE7
  8
1-中柱P
  6
HIDE-M
 62
     6
 10
19430.970723566781
 20
16730.886252
 30
0.0
 11
19429.370723566761
 21
16730.886252
 31
0.0
  0
LINE
  5
CDE8
  8
1-中柱P
 10
19431.470723566781
 20
16731.386252
 30
0.0
 11
19430.970723566781
 21
16730.886252
 31
0.0
  0
ARC
  5
CDE9
  8
1-中柱P
 10
19428.620723566761
 20
16731.636252
 30
0.0
 40
0.75
 50
0.000000000000007
 51
180.0
  0
LINE
  5
CDEA
  8
1-中柱P
 10
19419.870723566772
 20
16729.886252
 30
0.0
 11
19419.870723566772
 21
16720.886251999989
 31
0.0
  0
ARC
  5
CDEB
  8
1-中柱P
 10
19420.870723566761
 20
16720.886251999989
 30
0.0
 40
1.0
 50
180.0
 51
270.0
  0
ARC
  5
CDEC
  8
1-中柱P
 10
19420.870723566761
 20
16729.886252
 30
0.0
 40
1.0
 50
90.0
 51
180.0
  0
LINE
  5
CDED
  8
1-中柱P
  6
1PL-M
 62
     6
 10
19414.870723566761
 20
16725.386252
 30
0.0
 11
19436.470723566788
 21
16725.386252
 31
0.0
  0
LINE
  5
CDEE
  8
1-中柱P
 10
19420.870723566761
 20
16709.886252
 30
0.0
 11
19427.870723566761
 21
16709.886252
 31
0.0
  0
LINE
  5
CDEF
  8
1-中柱P
 10
19431.470723566781
 20
16717.386252
 30
0.0
 11
19431.470723566781
 21
16709.386251999989
 31
0.0
  0
LINE
  5
CDF0
  8
1-中柱P
  6
HIDE-M
 62
     6
 10
19429.370723566761
 20
16709.886252
 30
0.0
 11
19430.970723566781
 21
16709.886252
 31
0.0
  0
LINE
  5
CDF1
  8
1-中柱P
 10
19431.470723566781
 20
16709.386251999989
 30
0.0
 11
19430.970723566781
 21
16709.886252
 31
0.0
  0
ARC
  5
CDF2
  8
1-中柱P
 10
19428.620723566761
 20
16709.136252
 30
0.0
 40
0.75
 50
180.0
 51
0.000000000000007
  0
LINE
  5
CDF3
  8
1-中柱P
 10
19419.870723566772
 20
16718.886252
 30
0.0
 11
19419.870723566772
 21
16710.886252
 31
0.0
  0
ARC
  5
CDF4
  8
1-中柱P
 10
19420.870723566761
 20
16710.886252
 30
0.0
 40
1.0
 50
180.0
 51
270.0
  0
LINE
  5
CDF5
  8
1-中柱P
  6
1PL-M
 62
     6
 10
19414.870723566761
 20
16715.386252
 30
0.0
 11
19436.470723566788
 21
16715.386252
 31
0.0
  0
LINE
  5
CDF6
  8
1-中柱P
 10
19427.870723566761
 20
16717.136251999989
 30
0.0
 11
19427.870723566761
 21
16709.136252
 31
0.0
  0
LINE
  5
CDF7
  8
1-中柱P
  6
HIDE-M
 62
     6
 10
19419.870723566772
 20
16711.386252
 30
0.0
 11
19431.470723566781
 21
16711.386252
 31
0.0
  0
LINE
  5
CDF8
  8
1-中柱P
  6
HIDE-M
 62
     6
 10
19419.870723566772
 20
16712.386251999989
 30
0.0
 11
19431.470723566781
 21
16712.386251999989
 31
0.0
  0
LINE
  5
CDF9
  8
1-中柱カバ-P
 10
19430.970723566781
 20
16757.086252000001
 30
0.0
 11
19430.970723566781
 21
16816.386252
 31
0.0
  0
ARC
  5
CDFA
  8
1-中柱カバ-P
 10
19424.370723566761
 20
16816.386252
 30
0.0
 40
6.599999999999997
 50
0.000000000000007
 51
90.0
  0
LINE
  5
CDFB
  8
1-中柱カバ-P
 10
19429.370723566761
 20
16757.086252000001
 30
0.0
 11
19429.370723566761
 21
16816.386252
 31
0.0
  0
ARC
  5
CDFC
  8
1-中柱カバ-P
 10
19424.370723566761
 20
16757.086252000001
 30
0.0
 40
5.0
 50
270.0
 51
0.000000000000007
  0
LINE
  5
CDFD
  8
1-中柱カバ-P
 10
19424.370723566761
 20
16822.986251999992
 30
0.0
 11
19352.57072356678
 21
16822.986251999992
 31
0.0
  0
ARC
  5
CDFE
  8
1-中柱カバ-P
 10
19352.57072356678
 20
16816.386252
 30
0.0
 40
6.599999999999997
 50
90.0
 51
180.0
  0
LINE
  5
CDFF
  8
1-中柱カバ-P
 10
19424.370723566761
 20
16821.386252
 30
0.0
 11
19352.57072356678
 21
16821.386252
 31
0.0
  0
ARC
  5
CE00
  8
1-中柱カバ-P
 10
19352.57072356678
 20
16816.386252
 30
0.0
 40
5.0
 50
90.0
 51
180.0
  0
ARC
  5
CE01
  8
1-中柱カバ-P
 10
19424.370723566761
 20
16816.386252
 30
0.0
 40
5.0
 50
0.000000000000007
 51
90.0
  0
LINE
  5
CE02
  8
1-中柱カバ-P
 10
19345.970723566781
 20
16816.386252
 30
0.0
 11
19345.970723566781
 21
16757.086252000001
 31
0.0
  0
LINE
  5
CE03
  8
1-中柱カバ-P
 10
19347.57072356678
 20
16816.386252
 30
0.0
 11
19347.57072356678
 21
16757.086252000001
 31
0.0
  0
ARC
  5
CE04
  8
1-中柱カバ-P
 10
19352.57072356678
 20
16757.086252000001
 30
0.0
 40
5.0
 50
180.0
 51
270.0
  0
LINE
  5
CE05
  8
1-中柱カバ-P
  6
1PL-M
 62
     6
 10
19388.470723566781
 20
16815.486251999992
 30
0.0
 11
19388.470723566781
 21
16828.486251999992
 31
0.0
  0
LINE
  5
CE06
  8
1-中柱カバ-P
  6
HIDE-M
 62
     6
 10
19395.470723566788
 20
16822.986251999992
 30
0.0
 11
19395.470723566788
 21
16821.386252
 31
0.0
  0
LINE
  5
CE07
  8
1-中柱カバ-P
  6
HIDE-M
 62
     6
 10
19381.470723566781
 20
16822.986251999992
 30
0.0
 11
19381.470723566781
 21
16821.386252
 31
0.0
  0
ARC
  5
CE08
  8
1-中柱カバ-P
 10
19424.370723566761
 20
16757.086252000001
 30
0.0
 40
6.599999999999997
 50
270.0
 51
0.000000000000007
  0
ARC
  5
CE09
  8
1-中柱カバ-P
 10
19352.57072356678
 20
16757.086252000001
 30
0.0
 40
6.599999999999997
 50
180.0
 51
270.0
  0
LINE
  5
CE0A
  8
1-中柱カバ-P
 10
19360.970723566781
 20
16750.486251999992
 30
0.0
 11
19352.57072356678
 21
16750.486251999992
 31
0.0
  0
LINE
  5
CE0B
  8
1-中柱カバ-P
 10
19415.970723566781
 20
16750.486251999992
 30
0.0
 11
19424.370723566761
 21
16750.486251999992
 31
0.0
  0
LINE
  5
CE0C
  8
1-中柱カバ-P
 10
19360.970723566781
 20
16752.086252000001
 30
0.0
 11
19352.57072356678
 21
16752.086252000001
 31
0.0
  0
LINE
  5
CE0D
  8
1-中柱カバ-P
 10
19415.970723566781
 20
16752.086252000001
 30
0.0
 11
19424.370723566761
 21
16752.086252000001
 31
0.0
  0
LINE
  5
CE0E
  8
1-中柱カバ-P
 10
19415.970723566781
 20
16752.086252000001
 30
0.0
 11
19415.970723566781
 21
16750.486251999992
 31
0.0
  0
LINE
  5
CE0F
  8
1-中柱カバ-P
 10
19360.970723566781
 20
16750.486251999992
 30
0.0
 11
19360.970723566781
 21
16752.086252000001
 31
0.0
  0
LINE
  5
CE10
  8
1-中柱カバ-P
  6
HIDE-M
 62
     6
 10
19357.07072356678
 20
16771.486251999992
 30
0.0
 11
19345.470723566781
 21
16771.486251999992
 31
0.0
  0
LINE
  5
CE11
  8
1-中柱カバ-P
  6
HIDE-M
 62
     6
 10
19357.07072356678
 20
16779.486251999992
 30
0.0
 11
19345.470723566781
 21
16779.486251999992
 31
0.0
  0
LINE
  5
CE12
  8
1-中柱カバ-P
  6
HIDE-M
 62
     6
 10
19357.07072356678
 20
16772.486251999992
 30
0.0
 11
19345.470723566781
 21
16772.486251999992
 31
0.0
  0
LINE
  5
CE13
  8
1-中柱カバ-P
  6
HIDE-M
 62
     6
 10
19357.07072356678
 20
16778.486251999992
 30
0.0
 11
19345.470723566781
 21
16778.486251999992
 31
0.0
  0
LINE
  5
CE14
  8
1-中柱カバ-P
 10
19356.07072356678
 20
16780.986251999992
 30
0.0
 11
19349.07072356678
 21
16780.986251999992
 31
0.0
  0
LINE
  5
CE15
  8
1-中柱カバ-P
 10
19349.07072356678
 20
16769.986251999992
 30
0.0
 11
19356.07072356678
 21
16769.986251999992
 31
0.0
  0
LINE
  5
CE16
  8
1-中柱カバ-P
 10
19349.07072356678
 20
16769.236251999992
 30
0.0
 11
19349.07072356678
 21
16781.736251999992
 31
0.0
  0
LINE
  5
CE17
  8
1-中柱カバ-P
 10
19345.470723566781
 20
16769.486251999992
 30
0.0
 11
19345.470723566781
 21
16781.486251999992
 31
0.0
  0
LINE
  5
CE18
  8
1-中柱カバ-P
  6
HIDE-M
 62
     6
 10
19347.57072356678
 20
16780.986251999992
 30
0.0
 11
19345.970723566781
 21
16780.986251999992
 31
0.0
  0
LINE
  5
CE19
  8
1-中柱カバ-P
 10
19345.470723566781
 20
16781.486251999992
 30
0.0
 11
19345.970723566781
 21
16780.986251999992
 31
0.0
  0
ARC
  5
CE1A
  8
1-中柱カバ-P
 10
19348.32072356678
 20
16781.736251999992
 30
0.0
 40
0.75
 50
0.000000000000007
 51
180.0
  0
LINE
  5
CE1B
  8
1-中柱カバ-P
  6
HIDE-M
 62
     6
 10
19345.970723566781
 20
16769.986251999992
 30
0.0
 11
19347.57072356678
 21
16769.986251999992
 31
0.0
  0
LINE
  5
CE1C
  8
1-中柱カバ-P
 10
19345.470723566781
 20
16769.486251999992
 30
0.0
 11
19345.970723566781
 21
16769.986251999992
 31
0.0
  0
ARC
  5
CE1D
  8
1-中柱カバ-P
 10
19348.32072356678
 20
16769.236251999992
 30
0.0
 40
0.75
 50
180.0
 51
0.000000000000007
  0
LINE
  5
CE1E
  8
1-中柱カバ-P
 10
19357.07072356678
 20
16770.986251999992
 30
0.0
 11
19357.07072356678
 21
16779.986251999992
 31
0.0
  0
ARC
  5
CE1F
  8
1-中柱カバ-P
 10
19356.07072356678
 20
16779.986251999992
 30
0.0
 40
1.0
 50
0.000000000000007
 51
90.0
  0
ARC
  5
CE20
  8
1-中柱カバ-P
 10
19356.07072356678
 20
16770.986251999992
 30
0.0
 40
1.0
 50
270.0
 51
0.000000000000007
  0
LINE
  5
CE21
  8
1-中柱カバ-P
  6
1PL-M
 62
     6
 10
19362.07072356678
 20
16775.486251999992
 30
0.0
 11
19340.470723566781
 21
16775.486251999992
 31
0.0
  0
LINE
  5
CE22
  8
1-中柱カバ-P
 10
19356.07072356678
 20
16790.986251999992
 30
0.0
 11
19349.07072356678
 21
16790.986251999992
 31
0.0
  0
LINE
  5
CE23
  8
1-中柱カバ-P
 10
19345.470723566781
 20
16783.486251999992
 30
0.0
 11
19345.470723566781
 21
16791.486251999992
 31
0.0
  0
LINE
  5
CE24
  8
1-中柱カバ-P
  6
HIDE-M
 62
     6
 10
19347.57072356678
 20
16790.986251999992
 30
0.0
 11
19345.970723566781
 21
16790.986251999992
 31
0.0
  0
LINE
  5
CE25
  8
1-中柱カバ-P
 10
19345.470723566781
 20
16791.486251999992
 30
0.0
 11
19345.970723566781
 21
16790.986251999992
 31
0.0
  0
ARC
  5
CE26
  8
1-中柱カバ-P
 10
19348.32072356678
 20
16791.736251999992
 30
0.0
 40
0.75
 50
0.000000000000007
 51
180.0
  0
LINE
  5
CE27
  8
1-中柱カバ-P
 10
19357.07072356678
 20
16781.986251999992
 30
0.0
 11
19357.07072356678
 21
16789.986251999992
 31
0.0
  0
ARC
  5
CE28
  8
1-中柱カバ-P
 10
19356.07072356678
 20
16789.986251999992
 30
0.0
 40
1.0
 50
0.000000000000007
 51
90.0
  0
LINE
  5
CE29
  8
1-中柱カバ-P
  6
1PL-M
 62
     6
 10
19362.07072356678
 20
16785.486251999992
 30
0.0
 11
19340.470723566781
 21
16785.486251999992
 31
0.0
  0
LINE
  5
CE2A
  8
1-中柱カバ-P
 10
19349.07072356678
 20
16783.736251999992
 30
0.0
 11
19349.07072356678
 21
16791.736251999992
 31
0.0
  0
LINE
  5
CE2B
  8
1-中柱カバ-P
  6
HIDE-M
 62
     6
 10
19419.870723566772
 20
16771.486251999992
 30
0.0
 11
19431.470723566781
 21
16771.486251999992
 31
0.0
  0
LINE
  5
CE2C
  8
1-中柱カバ-P
  6
HIDE-M
 62
     6
 10
19419.870723566772
 20
16779.486251999992
 30
0.0
 11
19431.470723566781
 21
16779.486251999992
 31
0.0
  0
LINE
  5
CE2D
  8
1-中柱カバ-P
  6
HIDE-M
 62
     6
 10
19419.870723566772
 20
16772.486251999992
 30
0.0
 11
19431.470723566781
 21
16772.486251999992
 31
0.0
  0
LINE
  5
CE2E
  8
1-中柱カバ-P
  6
HIDE-M
 62
     6
 10
19419.870723566772
 20
16778.486251999992
 30
0.0
 11
19431.470723566781
 21
16778.486251999992
 31
0.0
  0
LINE
  5
CE2F
  8
1-中柱カバ-P
 10
19420.870723566761
 20
16780.986251999992
 30
0.0
 11
19427.870723566761
 21
16780.986251999992
 31
0.0
  0
LINE
  5
CE30
  8
1-中柱カバ-P
 10
19427.870723566761
 20
16769.986251999992
 30
0.0
 11
19420.870723566761
 21
16769.986251999992
 31
0.0
  0
LINE
  5
CE31
  8
1-中柱カバ-P
 10
19427.870723566761
 20
16769.236251999992
 30
0.0
 11
19427.870723566761
 21
16781.736251999992
 31
0.0
  0
LINE
  5
CE32
  8
1-中柱カバ-P
 10
19431.470723566781
 20
16769.486251999992
 30
0.0
 11
19431.470723566781
 21
16781.486251999992
 31
0.0
  0
LINE
  5
CE33
  8
1-中柱カバ-P
  6
HIDE-M
 62
     6
 10
19429.370723566761
 20
16780.986251999992
 30
0.0
 11
19430.970723566781
 21
16780.986251999992
 31
0.0
  0
LINE
  5
CE34
  8
1-中柱カバ-P
 10
19431.470723566781
 20
16781.486251999992
 30
0.0
 11
19430.970723566781
 21
16780.986251999992
 31
0.0
  0
ARC
  5
CE35
  8
1-中柱カバ-P
 10
19428.620723566761
 20
16781.736251999992
 30
0.0
 40
0.75
 50
0.000000000000007
 51
180.0
  0
LINE
  5
CE36
  8
1-中柱カバ-P
  6
HIDE-M
 62
     6
 10
19430.970723566781
 20
16769.986251999992
 30
0.0
 11
19429.370723566761
 21
16769.986251999992
 31
0.0
  0
LINE
  5
CE37
  8
1-中柱カバ-P
 10
19431.470723566781
 20
16769.486251999992
 30
0.0
 11
19430.970723566781
 21
16769.986251999992
 31
0.0
  0
ARC
  5
CE38
  8
1-中柱カバ-P
 10
19428.620723566761
 20
16769.236251999992
 30
0.0
 40
0.75
 50
180.0
 51
0.000000000000007
  0
LINE
  5
CE39
  8
1-中柱カバ-P
 10
19419.870723566772
 20
16770.986251999992
 30
0.0
 11
19419.870723566772
 21
16779.986251999992
 31
0.0
  0
ARC
  5
CE3A
  8
1-中柱カバ-P
 10
19420.870723566761
 20
16779.986251999992
 30
0.0
 40
1.0
 50
90.0
 51
180.0
  0
ARC
  5
CE3B
  8
1-中柱カバ-P
 10
19420.870723566761
 20
16770.986251999992
 30
0.0
 40
1.0
 50
180.0
 51
270.0
  0
LINE
  5
CE3C
  8
1-中柱カバ-P
  6
1PL-M
 62
     6
 10
19414.870723566761
 20
16775.486251999992
 30
0.0
 11
19436.470723566788
 21
16775.486251999992
 31
0.0
  0
LINE
  5
CE3D
  8
1-中柱カバ-P
 10
19420.870723566761
 20
16790.986251999992
 30
0.0
 11
19427.870723566761
 21
16790.986251999992
 31
0.0
  0
LINE
  5
CE3E
  8
1-中柱カバ-P
 10
19431.470723566781
 20
16783.486251999992
 30
0.0
 11
19431.470723566781
 21
16791.486251999992
 31
0.0
  0
LINE
  5
CE3F
  8
1-中柱カバ-P
  6
HIDE-M
 62
     6
 10
19429.370723566761
 20
16790.986251999992
 30
0.0
 11
19430.970723566781
 21
16790.986251999992
 31
0.0
  0
LINE
  5
CE40
  8
1-中柱カバ-P
 10
19431.470723566781
 20
16791.486251999992
 30
0.0
 11
19430.970723566781
 21
16790.986251999992
 31
0.0
  0
ARC
  5
CE41
  8
1-中柱カバ-P
 10
19428.620723566761
 20
16791.736251999992
 30
0.0
 40
0.75
 50
0.000000000000007
 51
180.0
  0
LINE
  5
CE42
  8
1-中柱カバ-P
 10
19419.870723566772
 20
16781.986251999992
 30
0.0
 11
19419.870723566772
 21
16789.986251999992
 31
0.0
  0
ARC
  5
CE43
  8
1-中柱カバ-P
 10
19420.870723566761
 20
16789.986251999992
 30
0.0
 40
1.0
 50
90.0
 51
180.0
  0
LINE
  5
CE44
  8
1-中柱カバ-P
  6
1PL-M
 62
     6
 10
19414.870723566761
 20
16785.486251999992
 30
0.0
 11
19436.470723566788
 21
16785.486251999992
 31
0.0
  0
LINE
  5
CE45
  8
1-中柱カバ-P
 10
19427.870723566761
 20
16783.736251999992
 30
0.0
 11
19427.870723566761
 21
16791.736251999992
 31
0.0
  0
LINE
  5
CE46
  8
1-中柱カバ-P
  6
HIDE-M
 62
     6
 10
19357.07072356678
 20
16789.486251999992
 30
0.0
 11
19345.470723566781
 21
16789.486251999992
 31
0.0
  0
LINE
  5
CE47
  8
1-中柱カバ-P
  6
HIDE-M
 62
     6
 10
19357.07072356678
 20
16788.486251999992
 30
0.0
 11
19345.470723566781
 21
16788.486251999992
 31
0.0
  0
LINE
  5
CE48
  8
1-中柱カバ-P
  6
HIDE-M
 62
     6
 10
19419.870723566772
 20
16789.486251999992
 30
0.0
 11
19431.470723566781
 21
16789.486251999992
 31
0.0
  0
LINE
  5
CE49
  8
1-中柱カバ-P
  6
HIDE-M
 62
     6
 10
19419.870723566772
 20
16788.486251999992
 30
0.0
 11
19431.470723566781
 21
16788.486251999992
 31
0.0
  0
ARC
  5
CE4A
  8
1-前柱P
  6
HIDE-M
 62
     6
 10
19392.07072356678
 20
13550.386252
 30
0.0
 40
2.6000000000000001
 50
90.0
 51
180.0
  0
LINE
  5
CE4B
  8
1-前柱P
  6
HIDE-M
 62
     6
 10
19380.470723566781
 20
13552.43564215319
 30
0.0
 11
19380.470723566781
 21
13548.786252
 31
0.0
  0
LINE
  5
CE4C
  8
1-前柱P
  6
HIDE-M
 62
     6
 10
19390.470723566781
 20
13552.43564215319
 30
0.0
 11
19390.470723566781
 21
13548.786252
 31
0.0
  0
LINE
  5
CE4D
  8
1-前柱P
  6
1PL-M
 62
     6
 10
19385.470723566781
 20
13557.986251999981
 30
0.0
 11
19385.470723566781
 21
13543.786251999991
 31
0.0
  0
ARC
  5
CE4E
  8
1-前柱P
  6
HIDE-M
 62
     6
 10
19378.870723566761
 20
13550.386252
 30
0.0
 40
2.6000000000000001
 50
0.000000000000007
 51
90.0
  0
LINE
  5
CE4F
  8
1-前柱P
  6
HIDE-M
 62
     6
 10
19389.470723566781
 20
13550.386252
 30
0.0
 11
19389.470723566781
 21
13548.786252
 31
0.0
  0
LINE
  5
CE50
  8
1-前柱P
  6
HIDE-M
 62
     6
 10
19381.470723566781
 20
13550.386252
 30
0.0
 11
19381.470723566781
 21
13548.786252
 31
0.0
  0
LINE
  5
CE51
  8
1-前柱P
 10
19399.370723566761
 20
13438.08625199999
 30
0.0
 11
19377.57072356678
 21
13438.08625199999
 31
0.0
  0
LINE
  5
CE52
  8
1-前柱P
 10
19347.57072356678
 20
13475.386252
 30
0.0
 11
19347.57072356678
 21
13468.08625199999
 31
0.0
  0
ARC
  5
CE53
  8
1-前柱P
 10
19377.57072356678
 20
13468.08625199999
 30
0.0
 40
30.0
 50
180.0
 51
270.0
  0
ARC
  5
CE54
  8
1-前柱P
 10
19377.57072356678
 20
13468.08625199999
 30
0.0
 40
31.600000000000001
 50
180.0
 51
270.0
  0
LINE
  5
CE55
  8
1-前柱P
 10
19399.370723566761
 20
13436.48625199999
 30
0.0
 11
19377.57072356678
 21
13436.48625199999
 31
0.0
  0
LINE
  5
CE56
  8
1-前柱P
 10
19345.970723566781
 20
13475.386252
 30
0.0
 11
19345.970723566781
 21
13468.08625199999
 31
0.0
  0
LINE
  5
CE57
  8
1-前柱P
 10
19368.970723566781
 20
13496.986251999981
 30
0.0
 11
19368.970723566781
 21
13486.98625199999
 31
0.0
  0
LINE
  5
CE58
  8
1-前柱P
 10
19370.57072356678
 20
13486.98625199999
 30
0.0
 11
19370.57072356678
 21
13496.986251999981
 31
0.0
  0
LINE
  5
CE59
  8
1-前柱P
 10
19429.370723566761
 20
13475.386252
 30
0.0
 11
19429.370723566761
 21
13468.08625199999
 31
0.0
  0
ARC
  5
CE5A
  8
1-前柱P
 10
19399.370723566761
 20
13468.08625199999
 30
0.0
 40
30.0
 50
270.0
 51
0.000000000000007
  0
ARC
  5
CE5B
  8
1-前柱P
 10
19399.370723566761
 20
13468.08625199999
 30
0.0
 40
31.600000000000001
 50
270.0
 51
0.000000000000007
  0
LINE
  5
CE5C
  8
1-前柱P
 10
19430.970723566781
 20
13475.386252
 30
0.0
 11
19430.970723566781
 21
13468.08625199999
 31
0.0
  0
LINE
  5
CE5D
  8
1-前柱P
 10
19424.370723566761
 20
13481.98625199999
 30
0.0
 11
19412.970723566781
 21
13481.98625199999
 31
0.0
  0
ARC
  5
CE5E
  8
1-前柱P
 10
19424.370723566761
 20
13475.386252
 30
0.0
 40
6.599999999999997
 50
0.000000000000007
 51
90.0
  0
ARC
  5
CE5F
  8
1-前柱P
 10
19412.970723566781
 20
13486.98625199999
 30
0.0
 40
5.0
 50
180.0
 51
270.0
  0
LINE
  5
CE60
  8
1-前柱P
 10
19424.370723566761
 20
13480.386252
 30
0.0
 11
19412.970723566781
 21
13480.386252
 31
0.0
  0
ARC
  5
CE61
  8
1-前柱P
 10
19424.370723566761
 20
13475.386252
 30
0.0
 40
5.0
 50
0.000000000000007
 51
90.0
  0
LINE
  5
CE62
  8
1-前柱P
 10
19407.970723566781
 20
13486.98625199999
 30
0.0
 11
19407.970723566781
 21
13546.386252
 31
0.0
  0
LINE
  5
CE63
  8
1-前柱P
 10
19406.370723566761
 20
13486.98625199999
 30
0.0
 11
19406.370723566761
 21
13546.386252
 31
0.0
  0
ARC
  5
CE64
  8
1-前柱P
 10
19412.970723566781
 20
13486.98625199999
 30
0.0
 40
6.599999999999997
 50
180.0
 51
270.0
  0
LINE
  5
CE65
  8
1-前柱P
 10
19401.370723566761
 20
13552.986251999981
 30
0.0
 11
19367.970723566781
 21
13552.986251999981
 31
0.0
  0
ARC
  5
CE66
  8
1-前柱P
 10
19401.370723566761
 20
13546.386252
 30
0.0
 40
6.599999999999997
 50
0.000000000000007
 51
90.0
  0
LINE
  5
CE67
  8
1-前柱P
 10
19401.370723566761
 20
13551.386252
 30
0.0
 11
19367.970723566781
 21
13551.386252
 31
0.0
  0
ARC
  5
CE68
  8
1-前柱P
 10
19401.370723566761
 20
13546.386252
 30
0.0
 40
5.0
 50
0.000000000000007
 51
90.0
  0
LINE
  5
CE69
  8
1-前柱P
 10
19367.970723566781
 20
13551.386252
 30
0.0
 11
19367.970723566781
 21
13552.986251999981
 31
0.0
  0
LINE
  5
CE6A
  8
1-前柱P
 10
19352.57072356678
 20
13481.98625199999
 30
0.0
 11
19363.970723566781
 21
13481.98625199999
 31
0.0
  0
ARC
  5
CE6B
  8
1-前柱P
 10
19352.57072356678
 20
13475.386252
 30
0.0
 40
6.599999999999997
 50
90.0
 51
180.0
  0
ARC
  5
CE6C
  8
1-前柱P
 10
19363.970723566781
 20
13486.98625199999
 30
0.0
 40
5.0
 50
270.0
 51
0.000000000000007
  0
LINE
  5
CE6D
  8
1-前柱P
 10
19363.970723566781
 20
13480.386252
 30
0.0
 11
19352.57072356678
 21
13480.386252
 31
0.0
  0
ARC
  5
CE6E
  8
1-前柱P
 10
19363.970723566781
 20
13486.98625199999
 30
0.0
 40
6.599999999999997
 50
270.0
 51
0.000000000000007
  0
ARC
  5
CE6F
  8
1-前柱P
 10
19352.57072356678
 20
13475.386252
 30
0.0
 40
5.0
 50
90.0
 51
180.0
  0
LINE
  5
CE70
  8
1-前柱P
 10
19368.970723566781
 20
13496.986251999981
 30
0.0
 11
19370.57072356678
 21
13496.986251999981
 31
0.0
  0
LINE
  5
CE71
  8
1-前柱カバ-P
 10
19345.970723566781
 20
13488.68625199999
 30
0.0
 11
19345.970723566781
 21
13547.98625199999
 31
0.0
  0
ARC
  5
CE72
  8
1-前柱カバ-P
 10
19352.57072356678
 20
13547.98625199999
 30
0.0
 40
6.599999999999997
 50
90.0
 51
180.0
  0
LINE
  5
CE73
  8
1-前柱カバ-P
 10
19347.57072356678
 20
13488.68625199999
 30
0.0
 11
19347.57072356678
 21
13547.98625199999
 31
0.0
  0
ARC
  5
CE74
  8
1-前柱カバ-P
 10
19352.57072356678
 20
13488.68625199999
 30
0.0
 40
5.0
 50
180.0
 51
270.0
  0
LINE
  5
CE75
  8
1-前柱カバ-P
 10
19352.57072356678
 20
13554.586251999999
 30
0.0
 11
19424.370723566761
 21
13554.586251999999
 31
0.0
  0
ARC
  5
CE76
  8
1-前柱カバ-P
 10
19424.370723566761
 20
13547.98625199999
 30
0.0
 40
6.599999999999997
 50
0.000000000000007
 51
90.0
  0
LINE
  5
CE77
  8
1-前柱カバ-P
 10
19352.57072356678
 20
13552.986251999981
 30
0.0
 11
19424.370723566761
 21
13552.986251999981
 31
0.0
  0
ARC
  5
CE78
  8
1-前柱カバ-P
 10
19424.370723566761
 20
13547.98625199999
 30
0.0
 40
5.0
 50
0.000000000000007
 51
90.0
  0
ARC
  5
CE79
  8
1-前柱カバ-P
 10
19352.57072356678
 20
13547.98625199999
 30
0.0
 40
5.0
 50
90.0
 51
180.0
  0
LINE
  5
CE7A
  8
1-前柱カバ-P
 10
19430.970723566781
 20
13547.98625199999
 30
0.0
 11
19430.970723566781
 21
13488.68625199999
 31
0.0
  0
LINE
  5
CE7B
  8
1-前柱カバ-P
 10
19429.370723566761
 20
13547.98625199999
 30
0.0
 11
19429.370723566761
 21
13488.68625199999
 31
0.0
  0
ARC
  5
CE7C
  8
1-前柱カバ-P
 10
19424.370723566761
 20
13488.68625199999
 30
0.0
 40
5.0
 50
270.0
 51
0.000000000000007
  0
LINE
  5
CE7D
  8
1-前柱カバ-P
  6
1PL-M
 62
     6
 10
19388.470723566781
 20
13547.086251999999
 30
0.0
 11
19388.470723566781
 21
13560.08625199999
 31
0.0
  0
LINE
  5
CE7E
  8
1-前柱カバ-P
  6
HIDE-M
 62
     6
 10
19381.470723566781
 20
13554.586251999999
 30
0.0
 11
19381.470723566781
 21
13552.986251999981
 31
0.0
  0
LINE
  5
CE7F
  8
1-前柱カバ-P
  6
HIDE-M
 62
     6
 10
19395.470723566781
 20
13554.586251999999
 30
0.0
 11
19395.470723566781
 21
13552.986251999981
 31
0.0
  0
ARC
  5
CE80
  8
1-前柱カバ-P
 10
19352.57072356678
 20
13488.68625199999
 30
0.0
 40
6.599999999999997
 50
180.0
 51
270.0
  0
ARC
  5
CE81
  8
1-前柱カバ-P
 10
19424.370723566761
 20
13488.68625199999
 30
0.0
 40
6.599999999999997
 50
270.0
 51
0.000000000000007
  0
LINE
  5
CE82
  8
1-前柱カバ-P
 10
19415.970723566781
 20
13482.086251999999
 30
0.0
 11
19424.370723566761
 21
13482.086251999999
 31
0.0
  0
LINE
  5
CE83
  8
1-前柱カバ-P
 10
19360.970723566781
 20
13482.086251999999
 30
0.0
 11
19352.57072356678
 21
13482.086251999999
 31
0.0
  0
LINE
  5
CE84
  8
1-前柱カバ-P
 10
19415.970723566781
 20
13483.68625199999
 30
0.0
 11
19424.370723566761
 21
13483.68625199999
 31
0.0
  0
LINE
  5
CE85
  8
1-前柱カバ-P
 10
19360.970723566781
 20
13483.68625199999
 30
0.0
 11
19352.57072356678
 21
13483.68625199999
 31
0.0
  0
LINE
  5
CE86
  8
1-前柱カバ-P
 10
19360.970723566781
 20
13483.68625199999
 30
0.0
 11
19360.970723566781
 21
13482.086251999999
 31
0.0
  0
LINE
  5
CE87
  8
1-前柱カバ-P
 10
19415.970723566781
 20
13482.086251999999
 30
0.0
 11
19415.970723566781
 21
13483.68625199999
 31
0.0
  0
LINE
  5
CE88
  8
1-前柱カバ-P
  6
HIDE-M
 62
     6
 10
19419.870723566772
 20
13503.086251999999
 30
0.0
 11
19431.470723566781
 21
13503.086251999999
 31
0.0
  0
LINE
  5
CE89
  8
1-前柱カバ-P
  6
HIDE-M
 62
     6
 10
19419.870723566772
 20
13511.08625199999
 30
0.0
 11
19431.470723566781
 21
13511.08625199999
 31
0.0
  0
LINE
  5
CE8A
  8
1-前柱カバ-P
  6
HIDE-M
 62
     6
 10
19419.870723566772
 20
13504.086251999999
 30
0.0
 11
19431.470723566781
 21
13504.086251999999
 31
0.0
  0
LINE
  5
CE8B
  8
1-前柱カバ-P
  6
HIDE-M
 62
     6
 10
19419.870723566772
 20
13510.08625199999
 30
0.0
 11
19431.470723566781
 21
13510.08625199999
 31
0.0
  0
LINE
  5
CE8C
  8
1-前柱カバ-P
 10
19420.870723566761
 20
13512.586251999999
 30
0.0
 11
19427.870723566761
 21
13512.586251999999
 31
0.0
  0
LINE
  5
CE8D
  8
1-前柱カバ-P
 10
19427.870723566761
 20
13501.58625199999
 30
0.0
 11
19420.870723566761
 21
13501.58625199999
 31
0.0
  0
LINE
  5
CE8E
  8
1-前柱カバ-P
 10
19427.870723566761
 20
13500.83625199999
 30
0.0
 11
19427.870723566761
 21
13513.33625199999
 31
0.0
  0
LINE
  5
CE8F
  8
1-前柱カバ-P
 10
19431.470723566781
 20
13501.086251999999
 30
0.0
 11
19431.470723566781
 21
13513.08625199999
 31
0.0
  0
LINE
  5
CE90
  8
1-前柱カバ-P
  6
HIDE-M
 62
     6
 10
19429.370723566761
 20
13512.586251999999
 30
0.0
 11
19430.970723566781
 21
13512.586251999999
 31
0.0
  0
LINE
  5
CE91
  8
1-前柱カバ-P
 10
19431.470723566781
 20
13513.08625199999
 30
0.0
 11
19430.970723566781
 21
13512.586251999999
 31
0.0
  0
ARC
  5
CE92
  8
1-前柱カバ-P
 10
19428.620723566761
 20
13513.33625199999
 30
0.0
 40
0.75
 50
0.000000000000007
 51
180.0
  0
LINE
  5
CE93
  8
1-前柱カバ-P
  6
HIDE-M
 62
     6
 10
19430.970723566781
 20
13501.58625199999
 30
0.0
 11
19429.370723566761
 21
13501.58625199999
 31
0.0
  0
LINE
  5
CE94
  8
1-前柱カバ-P
 10
19431.470723566781
 20
13501.086251999999
 30
0.0
 11
19430.970723566781
 21
13501.58625199999
 31
0.0
  0
ARC
  5
CE95
  8
1-前柱カバ-P
 10
19428.620723566761
 20
13500.83625199999
 30
0.0
 40
0.75
 50
180.0
 51
0.000000000000007
  0
LINE
  5
CE96
  8
1-前柱カバ-P
 10
19419.870723566772
 20
13502.58625199999
 30
0.0
 11
19419.870723566772
 21
13511.586251999999
 31
0.0
  0
ARC
  5
CE97
  8
1-前柱カバ-P
 10
19420.870723566761
 20
13511.586251999999
 30
0.0
 40
1.0
 50
90.0
 51
180.0
  0
ARC
  5
CE98
  8
1-前柱カバ-P
 10
19420.870723566761
 20
13502.58625199999
 30
0.0
 40
1.0
 50
180.0
 51
270.0
  0
LINE
  5
CE99
  8
1-前柱カバ-P
  6
1PL-M
 62
     6
 10
19414.870723566761
 20
13507.086251999999
 30
0.0
 11
19436.470723566781
 21
13507.086251999999
 31
0.0
  0
LINE
  5
CE9A
  8
1-前柱カバ-P
 10
19420.870723566761
 20
13522.58625199999
 30
0.0
 11
19427.870723566761
 21
13522.58625199999
 31
0.0
  0
LINE
  5
CE9B
  8
1-前柱カバ-P
 10
19431.470723566781
 20
13515.08625199999
 30
0.0
 11
19431.470723566781
 21
13523.086251999999
 31
0.0
  0
LINE
  5
CE9C
  8
1-前柱カバ-P
  6
HIDE-M
 62
     6
 10
19429.370723566761
 20
13522.58625199999
 30
0.0
 11
19430.970723566781
 21
13522.58625199999
 31
0.0
  0
LINE
  5
CE9D
  8
1-前柱カバ-P
 10
19431.470723566781
 20
13523.086251999999
 30
0.0
 11
19430.970723566781
 21
13522.58625199999
 31
0.0
  0
ARC
  5
CE9E
  8
1-前柱カバ-P
 10
19428.620723566761
 20
13523.336251999999
 30
0.0
 40
0.75
 50
0.000000000000007
 51
180.0
  0
LINE
  5
CE9F
  8
1-前柱カバ-P
 10
19419.870723566772
 20
13513.586251999999
 30
0.0
 11
19419.870723566772
 21
13521.58625199999
 31
0.0
  0
ARC
  5
CEA0
  8
1-前柱カバ-P
 10
19420.870723566761
 20
13521.58625199999
 30
0.0
 40
1.0
 50
90.0
 51
180.0
  0
LINE
  5
CEA1
  8
1-前柱カバ-P
  6
1PL-M
 62
     6
 10
19414.870723566761
 20
13517.08625199999
 30
0.0
 11
19436.470723566781
 21
13517.08625199999
 31
0.0
  0
LINE
  5
CEA2
  8
1-前柱カバ-P
 10
19427.870723566761
 20
13515.336251999999
 30
0.0
 11
19427.870723566761
 21
13523.336251999999
 31
0.0
  0
LINE
  5
CEA3
  8
1-前柱カバ-P
  6
HIDE-M
 62
     6
 10
19357.07072356678
 20
13503.086251999999
 30
0.0
 11
19345.470723566781
 21
13503.086251999999
 31
0.0
  0
LINE
  5
CEA4
  8
1-前柱カバ-P
  6
HIDE-M
 62
     6
 10
19357.07072356678
 20
13511.08625199999
 30
0.0
 11
19345.470723566781
 21
13511.08625199999
 31
0.0
  0
LINE
  5
CEA5
  8
1-前柱カバ-P
  6
HIDE-M
 62
     6
 10
19357.07072356678
 20
13504.086251999999
 30
0.0
 11
19345.470723566781
 21
13504.086251999999
 31
0.0
  0
LINE
  5
CEA6
  8
1-前柱カバ-P
  6
HIDE-M
 62
     6
 10
19357.07072356678
 20
13510.08625199999
 30
0.0
 11
19345.470723566781
 21
13510.08625199999
 31
0.0
  0
LINE
  5
CEA7
  8
1-前柱カバ-P
 10
19356.07072356678
 20
13512.586251999999
 30
0.0
 11
19349.07072356678
 21
13512.586251999999
 31
0.0
  0
LINE
  5
CEA8
  8
1-前柱カバ-P
 10
19349.07072356678
 20
13501.58625199999
 30
0.0
 11
19356.07072356678
 21
13501.58625199999
 31
0.0
  0
LINE
  5
CEA9
  8
1-前柱カバ-P
 10
19349.07072356678
 20
13500.83625199999
 30
0.0
 11
19349.07072356678
 21
13513.33625199999
 31
0.0
  0
LINE
  5
CEAA
  8
1-前柱カバ-P
 10
19345.470723566781
 20
13501.086251999999
 30
0.0
 11
19345.470723566781
 21
13513.08625199999
 31
0.0
  0
LINE
  5
CEAB
  8
1-前柱カバ-P
  6
HIDE-M
 62
     6
 10
19347.57072356678
 20
13512.586251999999
 30
0.0
 11
19345.970723566781
 21
13512.586251999999
 31
0.0
  0
LINE
  5
CEAC
  8
1-前柱カバ-P
 10
19345.470723566781
 20
13513.08625199999
 30
0.0
 11
19345.970723566781
 21
13512.586251999999
 31
0.0
  0
ARC
  5
CEAD
  8
1-前柱カバ-P
 10
19348.32072356678
 20
13513.33625199999
 30
0.0
 40
0.75
 50
0.000000000000007
 51
180.0
  0
LINE
  5
CEAE
  8
1-前柱カバ-P
  6
HIDE-M
 62
     6
 10
19345.970723566781
 20
13501.58625199999
 30
0.0
 11
19347.57072356678
 21
13501.58625199999
 31
0.0
  0
LINE
  5
CEAF
  8
1-前柱カバ-P
 10
19345.470723566781
 20
13501.086251999999
 30
0.0
 11
19345.970723566781
 21
13501.58625199999
 31
0.0
  0
ARC
  5
CEB0
  8
1-前柱カバ-P
 10
19348.32072356678
 20
13500.83625199999
 30
0.0
 40
0.75
 50
180.0
 51
0.000000000000007
  0
LINE
  5
CEB1
  8
1-前柱カバ-P
 10
19357.07072356678
 20
13502.58625199999
 30
0.0
 11
19357.07072356678
 21
13511.586251999999
 31
0.0
  0
ARC
  5
CEB2
  8
1-前柱カバ-P
 10
19356.07072356678
 20
13511.586251999999
 30
0.0
 40
1.0
 50
0.000000000000007
 51
90.0
  0
ARC
  5
CEB3
  8
1-前柱カバ-P
 10
19356.07072356678
 20
13502.58625199999
 30
0.0
 40
1.0
 50
270.0
 51
0.000000000000007
  0
LINE
  5
CEB4
  8
1-前柱カバ-P
  6
1PL-M
 62
     6
 10
19362.07072356678
 20
13507.086251999999
 30
0.0
 11
19340.470723566781
 21
13507.086251999999
 31
0.0
  0
LINE
  5
CEB5
  8
1-前柱カバ-P
 10
19356.07072356678
 20
13522.58625199999
 30
0.0
 11
19349.07072356678
 21
13522.58625199999
 31
0.0
  0
LINE
  5
CEB6
  8
1-前柱カバ-P
 10
19345.470723566781
 20
13515.08625199999
 30
0.0
 11
19345.470723566781
 21
13523.086251999999
 31
0.0
  0
LINE
  5
CEB7
  8
1-前柱カバ-P
  6
HIDE-M
 62
     6
 10
19347.57072356678
 20
13522.58625199999
 30
0.0
 11
19345.970723566781
 21
13522.58625199999
 31
0.0
  0
LINE
  5
CEB8
  8
1-前柱カバ-P
 10
19345.470723566781
 20
13523.086251999999
 30
0.0
 11
19345.970723566781
 21
13522.58625199999
 31
0.0
  0
ARC
  5
CEB9
  8
1-前柱カバ-P
 10
19348.32072356678
 20
13523.336251999999
 30
0.0
 40
0.75
 50
0.000000000000007
 51
180.0
  0
LINE
  5
CEBA
  8
1-前柱カバ-P
 10
19357.07072356678
 20
13513.586251999999
 30
0.0
 11
19357.07072356678
 21
13521.58625199999
 31
0.0
  0
ARC
  5
CEBB
  8
1-前柱カバ-P
 10
19356.07072356678
 20
13521.58625199999
 30
0.0
 40
1.0
 50
0.000000000000007
 51
90.0
  0
LINE
  5
CEBC
  8
1-前柱カバ-P
  6
1PL-M
 62
     6
 10
19362.07072356678
 20
13517.08625199999
 30
0.0
 11
19340.470723566781
 21
13517.08625199999
 31
0.0
  0
LINE
  5
CEBD
  8
1-前柱カバ-P
 10
19349.07072356678
 20
13515.336251999999
 30
0.0
 11
19349.07072356678
 21
13523.336251999999
 31
0.0
  0
LINE
  5
CEBE
  8
1-前柱カバ-P
  6
HIDE-M
 62
     6
 10
19419.870723566772
 20
13521.086251999999
 30
0.0
 11
19431.470723566781
 21
13521.086251999999
 31
0.0
  0
LINE
  5
CEBF
  8
1-前柱カバ-P
  6
HIDE-M
 62
     6
 10
19419.870723566772
 20
13520.08625199999
 30
0.0
 11
19431.470723566781
 21
13520.08625199999
 31
0.0
  0
LINE
  5
CEC0
  8
1-前柱カバ-P
  6
HIDE-M
 62
     6
 10
19357.07072356678
 20
13521.086251999999
 30
0.0
 11
19345.470723566781
 21
13521.086251999999
 31
0.0
  0
LINE
  5
CEC1
  8
1-前柱カバ-P
  6
HIDE-M
 62
     6
 10
19357.07072356678
 20
13520.08625199999
 30
0.0
 11
19345.470723566781
 21
13520.08625199999
 31
0.0
  0
LINE
  5
CEC2
  8
0-1
  6
CONTINUOUS
 62
     3
 10
24777.471133066781
 20
19710.986251999992
 30
0.0
 11
24814.470314066792
 21
19710.986251999992
 31
0.0
  0
LINE
  5
CEC3
  8
0-1
  6
CONTINUOUS
 62
     3
 10
24345.970723566781
 20
15963.89012699999
 30
0.0
 11
24345.970723566781
 21
15320.082872000001
 31
0.0
  0
LINE
  5
CEC4
  8
0-1
  6
CONTINUOUS
 62
     3
 10
24345.970723566781
 20
16010.986833000001
 30
0.0
 11
24345.970723566781
 21
15973.985671
 31
0.0
  0
LINE
  5
CEC5
  8
0-1
  6
CONTINUOUS
 62
     3
 10
26913.474418566781
 20
8132.6883740000021
 30
0.0
 11
24430.970987566801
 21
8132.6883740000021
 31
0.0
  0
LINE
  5
CEC6
  8
0-1
  6
CONTINUOUS
 62
     3
 10
26913.474418566781
 20
8325.6887430000024
 30
0.0
 11
24430.970987566801
 21
8325.6887430000024
 31
0.0
  0
LINE
  5
CEC7
  8
0-1
  6
CONTINUOUS
 62
     3
 10
27041.470723566799
 20
8263.5026619999953
 30
0.0
 11
27041.470723566799
 21
8589.1883999999955
 31
0.0
  0
LINE
  5
CEC8
  8
0-1
  6
CONTINUOUS
 62
     3
 10
24345.972438566801
 20
8459.188465999996
 30
0.0
 11
27041.470723566799
 21
8459.188465999996
 31
0.0
  0
LINE
  5
CEC9
  8
0-1
  6
CONTINUOUS
 62
     3
 10
27041.470723566799
 20
8589.1883999999955
 30
0.0
 11
24365.969535566801
 21
8589.1883999999955
 31
0.0
  0
LINE
  5
CECA
  8
0-1
  6
CONTINUOUS
 62
     3
 10
13121.507819675189
 20
6291.1885389999989
 30
0.0
 11
13121.507819675189
 21
8152.2344179999973
 31
0.0
  0
LINE
  5
CECB
  8
0-1
  6
CONTINUOUS
 62
     3
 10
13101.50676367521
 20
6291.1885389999989
 30
0.0
 11
13101.50676367521
 21
8152.2344179999973
 31
0.0
  0
LINE
  5
CECC
  8
0-1
  6
CONTINUOUS
 62
     3
 10
13171.50748967519
 20
6291.1885389999989
 30
0.0
 11
13171.50748967519
 21
8152.2344179999973
 31
0.0
  0
LINE
  5
CECD
  8
0-1
  6
CONTINUOUS
 62
     3
 10
13051.50808367518
 20
6291.1885389999989
 30
0.0
 11
13051.50808367518
 21
8152.2344179999973
 31
0.0
  0
LINE
  5
CECE
  8
0-1
  6
CONTINUOUS
 62
     3
 10
12918.50719967521
 20
6291.1885389999989
 30
0.0
 11
12918.50719967521
 21
8152.2344179999973
 31
0.0
  0
LINE
  5
CECF
  8
0-1
  6
CONTINUOUS
 62
     3
 10
12903.50739767519
 20
6291.1885389999989
 30
0.0
 11
12903.50739767519
 21
8152.2344179999973
 31
0.0
  0
LINE
  5
CED0
  8
0-1
  6
CONTINUOUS
 62
     3
 10
13304.50738467518
 20
6291.1885389999989
 30
0.0
 11
13304.50738467518
 21
8152.2344179999973
 31
0.0
  0
LINE
  5
CED1
  8
0-1
  6
CONTINUOUS
 62
     3
 10
13319.50718667519
 20
6291.1885389999989
 30
0.0
 11
13319.50718667519
 21
8152.2344179999973
 31
0.0
  0
LINE
  5
CED2
  8
0-1
  6
CONTINUOUS
 62
     3
 10
12043.007700675191
 20
8152.2344179999973
 30
0.0
 11
12043.007700675191
 21
6291.1885389999989
 31
0.0
  0
LINE
  5
CED3
  8
0-1
  6
CONTINUOUS
 62
     3
 10
12080.005892675181
 20
8152.2344179999973
 30
0.0
 11
12080.005892675181
 21
6291.1885389999989
 31
0.0
  0
LINE
  5
CED4
  8
0-1
  6
CONTINUOUS
 62
     3
 10
12743.007041675201
 20
8152.2344179999973
 30
0.0
 11
12743.007041675201
 21
6291.1885389999989
 31
0.0
  0
LINE
  5
CED5
  8
0-1
  6
CONTINUOUS
 62
     3
 10
12780.0072126752
 20
8152.2344179999973
 30
0.0
 11
12780.0072126752
 21
6291.1885389999989
 31
0.0
  0
LINE
  5
CED6
  8
0-1
  6
CONTINUOUS
 62
     3
 10
11343.00836067519
 20
8152.2344179999973
 30
0.0
 11
11343.00836067519
 21
6291.1885389999989
 31
0.0
  0
LINE
  5
CED7
  8
0-1
  6
CONTINUOUS
 62
     3
 10
11380.006552675201
 20
8152.2344179999973
 30
0.0
 11
11380.006552675201
 21
6291.1885389999989
 31
0.0
  0
LINE
  5
CED8
  8
0-1
  6
CONTINUOUS
 62
     3
 10
11721.50814967521
 20
6291.1885389999989
 30
0.0
 11
11721.50814967521
 21
8152.2344179999973
 31
0.0
  0
LINE
  5
CED9
  8
0-1
  6
CONTINUOUS
 62
     3
 10
11701.50709367518
 20
6291.1885389999989
 30
0.0
 11
11701.50709367518
 21
8152.2344179999973
 31
0.0
  0
LINE
  5
CEDA
  8
0-1
  6
CONTINUOUS
 62
     3
 10
11771.5068296752
 20
6291.1885389999989
 30
0.0
 11
11771.5068296752
 21
8152.2344179999973
 31
0.0
  0
LINE
  5
CEDB
  8
0-1
  6
CONTINUOUS
 62
     3
 10
11651.507423675201
 20
6291.1885389999989
 30
0.0
 11
11651.507423675201
 21
8152.2344179999973
 31
0.0
  0
LINE
  5
CEDC
  8
0-1
  6
CONTINUOUS
 62
     3
 10
11518.5075296752
 20
6291.1885389999989
 30
0.0
 11
11518.5075296752
 21
8152.2344179999973
 31
0.0
  0
LINE
  5
CEDD
  8
0-1
  6
CONTINUOUS
 62
     3
 10
11503.507727675191
 20
6291.1885389999989
 30
0.0
 11
11503.507727675191
 21
8152.2344179999973
 31
0.0
  0
LINE
  5
CEDE
  8
0-1
  6
CONTINUOUS
 62
     3
 10
11904.507714675199
 20
6291.1885389999989
 30
0.0
 11
11904.507714675199
 21
8152.2344179999973
 31
0.0
  0
LINE
  5
CEDF
  8
0-1
  6
CONTINUOUS
 62
     3
 10
11919.506526675181
 20
6291.1885389999989
 30
0.0
 11
11919.506526675181
 21
8152.2344179999973
 31
0.0
  0
LINE
  5
CEE0
  8
0-1
  6
CONTINUOUS
 62
     3
 10
12619.50784667518
 20
6291.1885389999989
 30
0.0
 11
12619.50784667518
 21
8152.2344179999973
 31
0.0
  0
LINE
  5
CEE1
  8
0-1
  6
CONTINUOUS
 62
     3
 10
12604.50705467521
 20
6291.1885389999989
 30
0.0
 11
12604.50705467521
 21
8152.2344179999973
 31
0.0
  0
LINE
  5
CEE2
  8
0-1
  6
CONTINUOUS
 62
     3
 10
12203.50706767518
 20
6291.1885389999989
 30
0.0
 11
12203.50706767518
 21
8152.2344179999973
 31
0.0
  0
LINE
  5
CEE3
  8
0-1
  6
CONTINUOUS
 62
     3
 10
12218.507859675199
 20
6291.1885389999989
 30
0.0
 11
12218.507859675199
 21
8152.2344179999973
 31
0.0
  0
LINE
  5
CEE4
  8
0-1
  6
CONTINUOUS
 62
     3
 10
12351.506763675199
 20
6291.1885389999989
 30
0.0
 11
12351.506763675199
 21
8152.2344179999973
 31
0.0
  0
LINE
  5
CEE5
  8
0-1
  6
CONTINUOUS
 62
     3
 10
12471.50814967519
 20
6291.1885389999989
 30
0.0
 11
12471.50814967519
 21
8152.2344179999973
 31
0.0
  0
LINE
  5
CEE6
  8
0-1
  6
CONTINUOUS
 62
     3
 10
12401.50544467518
 20
6291.1885389999989
 30
0.0
 11
12401.50544467518
 21
8152.2344179999973
 31
0.0
  0
LINE
  5
CEE7
  8
0-1
  6
CONTINUOUS
 62
     3
 10
12421.50649967519
 20
6291.1885389999989
 30
0.0
 11
12421.50649967519
 21
8152.2344179999973
 31
0.0
  0
LINE
  5
CEE8
  8
0-1
  6
CONTINUOUS
 62
     3
 10
11219.508175675201
 20
6291.1885389999989
 30
0.0
 11
11219.508175675201
 21
8152.2344179999973
 31
0.0
  0
LINE
  5
CEE9
  8
0-1
  6
CONTINUOUS
 62
     3
 10
11204.50738467518
 20
6291.1885389999989
 30
0.0
 11
11204.50738467518
 21
8152.2344179999973
 31
0.0
  0
LINE
  5
CEEA
  8
0-1
  6
CONTINUOUS
 62
     3
 10
11071.506499675181
 20
6291.1885389999989
 30
0.0
 11
11071.506499675181
 21
8152.2344179999973
 31
0.0
  0
LINE
  5
CEEB
  8
0-1
  6
CONTINUOUS
 62
     3
 10
10803.50739767519
 20
6291.1885389999989
 30
0.0
 11
10803.50739767519
 21
8152.2344179999973
 31
0.0
  0
LINE
  5
CEEC
  8
0-1
  6
CONTINUOUS
 62
     3
 10
10818.506209675181
 20
6291.1885389999989
 30
0.0
 11
10818.506209675181
 21
8152.2344179999973
 31
0.0
  0
LINE
  5
CEED
  8
0-1
  6
CONTINUOUS
 62
     3
 10
10951.5070936752
 20
6291.1885389999989
 30
0.0
 11
10951.5070936752
 21
8152.2344179999973
 31
0.0
  0
LINE
  5
CEEE
  8
0-1
  6
CONTINUOUS
 62
     3
 10
11001.506763675199
 20
6291.1885389999989
 30
0.0
 11
11001.506763675199
 21
8152.2344179999973
 31
0.0
  0
LINE
  5
CEEF
  8
0-1
  6
CONTINUOUS
 62
     3
 10
11021.50584067519
 20
6291.1885389999989
 30
0.0
 11
11021.50584067519
 21
8152.2344179999973
 31
0.0
  0
LINE
  5
CEF0
  8
0-1
  6
CONTINUOUS
 62
     3
 10
10193.506869675201
 20
6291.1885389999989
 30
0.0
 11
10193.506869675201
 21
8152.2344179999973
 31
0.0
  0
LINE
  5
CEF1
  8
0-1
  6
CONTINUOUS
 62
     3
 10
10213.505945675181
 20
6291.1885389999989
 30
0.0
 11
10213.505945675181
 21
8152.2344179999973
 31
0.0
  0
LINE
  5
CEF2
  8
0-1
  6
CONTINUOUS
 62
     3
 10
10143.50620967521
 20
6291.1885389999989
 30
0.0
 11
10143.50620967521
 21
8152.2344179999973
 31
0.0
  0
LINE
  5
CEF3
  8
0-1
  6
CONTINUOUS
 62
     3
 10
10263.50660567518
 20
6291.1885389999989
 30
0.0
 11
10263.50660567518
 21
8152.2344179999973
 31
0.0
  0
LINE
  5
CEF4
  8
0-1
  6
CONTINUOUS
 62
     3
 10
10396.506499675201
 20
6291.1885389999989
 30
0.0
 11
10396.506499675201
 21
8152.2344179999973
 31
0.0
  0
LINE
  5
CEF5
  8
0-1
  6
CONTINUOUS
 62
     3
 10
10411.5082816752
 20
6291.1885389999989
 30
0.0
 11
10411.5082816752
 21
8152.2344179999973
 31
0.0
  0
LINE
  5
CEF6
  8
0-1
  6
CONTINUOUS
 62
     3
 10
10010.5063156752
 20
6291.1885389999989
 30
0.0
 11
10010.5063156752
 21
8152.2344179999973
 31
0.0
  0
LINE
  5
CEF7
  8
0-1
  6
CONTINUOUS
 62
     3
 10
9995.5075026751874
 20
6291.1885389999989
 30
0.0
 11
9995.5075026751874
 21
8152.2344179999973
 31
0.0
  0
LINE
  5
CEF8
  8
0-1
  6
CONTINUOUS
 62
     3
 10
7895.5075026751938
 20
6291.1885389999989
 30
0.0
 11
7895.5075026751938
 21
8152.2344179999973
 31
0.0
  0
LINE
  5
CEF9
  8
0-1
  6
CONTINUOUS
 62
     3
 10
7910.5063156751958
 20
6291.1885389999989
 30
0.0
 11
7910.5063156751958
 21
8152.2344179999973
 31
0.0
  0
LINE
  5
CEFA
  8
0-1
  6
CONTINUOUS
 62
     3
 10
8311.5072916752106
 20
6291.1885389999989
 30
0.0
 11
8311.5072916752106
 21
8152.2344179999973
 31
0.0
  0
LINE
  5
CEFB
  8
0-1
  6
CONTINUOUS
 62
     3
 10
8296.5074896751903
 20
6291.1885389999989
 30
0.0
 11
8296.5074896751903
 21
8152.2344179999973
 31
0.0
  0
LINE
  5
CEFC
  8
0-1
  6
CONTINUOUS
 62
     3
 10
8163.5066056751966
 20
6291.1885389999989
 30
0.0
 11
8163.5066056751966
 21
8152.2344179999973
 31
0.0
  0
LINE
  5
CEFD
  8
0-1
  6
CONTINUOUS
 62
     3
 10
8043.5071996751949
 20
6291.1885389999989
 30
0.0
 11
8043.5071996751949
 21
8152.2344179999973
 31
0.0
  0
LINE
  5
CEFE
  8
0-1
  6
CONTINUOUS
 62
     3
 10
8113.5059456751906
 20
6291.1885389999989
 30
0.0
 11
8113.5059456751906
 21
8152.2344179999973
 31
0.0
  0
LINE
  5
CEFF
  8
0-1
  6
CONTINUOUS
 62
     3
 10
8093.5068696751987
 20
6291.1885389999989
 30
0.0
 11
8093.5068696751987
 21
8152.2344179999973
 31
0.0
  0
LINE
  5
CF00
  8
0-1
  6
CONTINUOUS
 62
     3
 10
8793.5062096751935
 20
6291.1885389999989
 30
0.0
 11
8793.5062096751935
 21
8152.2344179999973
 31
0.0
  0
LINE
  5
CF01
  8
0-1
  6
CONTINUOUS
 62
     3
 10
8813.5072656751872
 20
6291.1885389999989
 30
0.0
 11
8813.5072656751872
 21
8152.2344179999973
 31
0.0
  0
LINE
  5
CF02
  8
0-1
  6
CONTINUOUS
 62
     3
 10
8743.5075296751911
 20
6291.1885389999989
 30
0.0
 11
8743.5075296751911
 21
8152.2344179999973
 31
0.0
  0
LINE
  5
CF03
  8
0-1
  6
CONTINUOUS
 62
     3
 10
8863.5059456751915
 20
6291.1885389999989
 30
0.0
 11
8863.5059456751915
 21
8152.2344179999973
 31
0.0
  0
LINE
  5
CF04
  8
0-1
  6
CONTINUOUS
 62
     3
 10
8996.5068296751924
 20
6291.1885389999989
 30
0.0
 11
8996.5068296751924
 21
8152.2344179999973
 31
0.0
  0
LINE
  5
CF05
  8
0-1
  6
CONTINUOUS
 62
     3
 10
9011.5066316752036
 20
6291.1885389999989
 30
0.0
 11
9011.5066316752036
 21
8152.2344179999973
 31
0.0
  0
LINE
  5
CF06
  8
0-1
  6
CONTINUOUS
 62
     3
 10
8610.5086246751889
 20
6291.1885389999989
 30
0.0
 11
8610.5086246751889
 21
8152.2344179999973
 31
0.0
  0
LINE
  5
CF07
  8
0-1
  6
CONTINUOUS
 62
     3
 10
8595.5068436751899
 20
6291.1885389999989
 30
0.0
 11
8595.5068436751899
 21
8152.2344179999973
 31
0.0
  0
LINE
  5
CF08
  8
0-1
  6
CONTINUOUS
 62
     3
 10
9295.5061836751993
 20
6291.1885389999989
 30
0.0
 11
9295.5061836751993
 21
8152.2344179999973
 31
0.0
  0
LINE
  5
CF09
  8
0-1
  6
CONTINUOUS
 62
     3
 10
9310.5079646752001
 20
6291.1885389999989
 30
0.0
 11
9310.5079646752001
 21
8152.2344179999973
 31
0.0
  0
LINE
  5
CF0A
  8
0-1
  6
CONTINUOUS
 62
     3
 10
9711.5059726751915
 20
6291.1885389999989
 30
0.0
 11
9711.5059726751915
 21
8152.2344179999973
 31
0.0
  0
LINE
  5
CF0B
  8
0-1
  6
CONTINUOUS
 62
     3
 10
9696.5071596751968
 20
6291.1885389999989
 30
0.0
 11
9696.5071596751968
 21
8152.2344179999973
 31
0.0
  0
LINE
  5
CF0C
  8
0-1
  6
CONTINUOUS
 62
     3
 10
9563.5082556751877
 20
6291.1885389999989
 30
0.0
 11
9563.5082556751877
 21
8152.2344179999973
 31
0.0
  0
LINE
  5
CF0D
  8
0-1
  6
CONTINUOUS
 62
     3
 10
9443.5068696751969
 20
6291.1885389999989
 30
0.0
 11
9443.5068696751969
 21
8152.2344179999973
 31
0.0
  0
LINE
  5
CF0E
  8
0-1
  6
CONTINUOUS
 62
     3
 10
9513.5066056752094
 20
6291.1885389999989
 30
0.0
 11
9513.5066056752094
 21
8152.2344179999973
 31
0.0
  0
LINE
  5
CF0F
  8
0-1
  6
CONTINUOUS
 62
     3
 10
9493.5075296751875
 20
6291.1885389999989
 30
0.0
 11
9493.5075296751875
 21
8152.2344179999973
 31
0.0
  0
LINE
  5
CF10
  8
0-1
  6
CONTINUOUS
 62
     3
 10
9835.0061566751974
 20
8152.2344179999973
 30
0.0
 11
9835.0061566751974
 21
6291.1885389999989
 31
0.0
  0
LINE
  5
CF11
  8
0-1
  6
CONTINUOUS
 62
     3
 10
9872.0073186751979
 20
8152.2344179999973
 30
0.0
 11
9872.0073186751979
 21
6291.1885389999989
 31
0.0
  0
LINE
  5
CF12
  8
0-1
  6
CONTINUOUS
 62
     3
 10
8435.0084666751936
 20
8152.2344179999973
 30
0.0
 11
8435.0084666751936
 21
6291.1885389999989
 31
0.0
  0
LINE
  5
CF13
  8
0-1
  6
CONTINUOUS
 62
     3
 10
8472.0076486752077
 20
8152.2344179999973
 30
0.0
 11
8472.0076486752077
 21
6291.1885389999989
 31
0.0
  0
LINE
  5
CF14
  8
0-1
  6
CONTINUOUS
 62
     3
 10
9135.0068166752008
 20
8152.2344179999973
 30
0.0
 11
9135.0068166752008
 21
6291.1885389999989
 31
0.0
  0
LINE
  5
CF15
  8
0-1
  6
CONTINUOUS
 62
     3
 10
9172.0069886751899
 20
8152.2344179999973
 30
0.0
 11
9172.0069886751899
 21
6291.1885389999989
 31
0.0
  0
LINE
  5
CF16
  8
0-1
  6
CONTINUOUS
 62
     3
 10
7735.0061566752029
 20
8152.2344179999973
 30
0.0
 11
7735.0061566752029
 21
6291.1885389999989
 31
0.0
  0
LINE
  5
CF17
  8
0-1
  6
CONTINUOUS
 62
     3
 10
7772.007318675197
 20
8152.2344179999973
 30
0.0
 11
7772.007318675197
 21
6291.1885389999989
 31
0.0
  0
LINE
  5
CF18
  8
0-1
  6
CONTINUOUS
 62
     3
 10
24338.472042566791
 20
6241.1883740000012
 30
0.0
 11
24438.47138356679
 21
6241.1883740000012
 31
0.0
  0
LINE
  5
CF19
  8
0-1
  6
CONTINUOUS
 62
     3
 10
24438.47138356679
 20
6241.1883740000012
 30
0.0
 11
24438.47138356679
 21
6141.1885389999979
 31
0.0
  0
LINE
  5
CF1A
  8
0-1
  6
CONTINUOUS
 62
     3
 10
24338.472042566791
 20
6141.1885389999979
 30
0.0
 11
24338.472042566791
 21
6241.1883740000012
 31
0.0
  0
LINE
  5
CF1B
  8
0-1
  6
CONTINUOUS
 62
     3
 10
24430.970987566801
 20
8459.188465999996
 30
0.0
 11
24430.970987566801
 21
6241.1883740000012
 31
0.0
  0
LINE
  5
CF1C
  8
0-1
  6
CONTINUOUS
 62
     3
 10
24482.470723566799
 20
8132.6883740000021
 30
0.0
 11
24482.470723566799
 21
6141.1885389999979
 31
0.0
  0
LINE
  5
CF1D
  8
0-1
  6
CONTINUOUS
 62
     3
 10
24365.969535566801
 20
8589.1883999999955
 30
0.0
 11
24365.969535566801
 21
6241.1883740000012
 31
0.0
  0
LINE
  5
CF1E
  8
0-1
  6
CONTINUOUS
 62
     3
 10
24345.970723566781
 20
8459.188465999996
 30
0.0
 11
24345.970723566781
 21
6241.1883740000012
 31
0.0
  0
LINE
  5
CF1F
  8
0-1
  6
CONTINUOUS
 62
     3
 10
27041.470723566799
 20
8263.5026619999953
 30
0.0
 11
26998.470723566799
 21
8263.5026619999953
 31
0.0
  0
LINE
  5
CF20
  8
0-1
  6
CONTINUOUS
 62
     3
 10
27005.97336256679
 20
6241.1883740000012
 30
0.0
 11
26905.974022566781
 21
6241.1883740000012
 31
0.0
  0
LINE
  5
CF21
  8
0-1
  6
CONTINUOUS
 62
     3
 10
26905.974022566781
 20
6241.1883740000012
 30
0.0
 11
26905.974022566781
 21
6141.1885389999979
 31
0.0
  0
LINE
  5
CF22
  8
0-1
  6
CONTINUOUS
 62
     3
 10
27005.97336256679
 20
6141.1885389999979
 30
0.0
 11
27005.97336256679
 21
6241.1883740000012
 31
0.0
  0
LINE
  5
CF23
  8
0-1
  6
CONTINUOUS
 62
     3
 10
26861.97072356681
 20
8132.6883740000021
 30
0.0
 11
26861.97072356681
 21
6141.1885389999979
 31
0.0
  0
LINE
  5
CF24
  8
0-1
  6
CONTINUOUS
 62
     3
 10
26913.474418566781
 20
8459.188465999996
 30
0.0
 11
26913.474418566781
 21
6241.1883740000012
 31
0.0
  0
LINE
  5
CF25
  8
0-1
  6
CONTINUOUS
 62
     3
 10
26978.473890566791
 20
8589.1883999999955
 30
0.0
 11
26978.473890566791
 21
6241.1883740000012
 31
0.0
  0
LINE
  5
CF26
  8
0-1
  6
CONTINUOUS
 62
     3
 10
26998.470723566799
 20
8459.188465999996
 30
0.0
 11
26998.470723566799
 21
6241.1883740000012
 31
0.0
  0
LINE
  5
CF27
  8
0-1
  6
CONTINUOUS
 62
     3
 10
7284.0073446752067
 20
6241.1883740000012
 30
0.0
 11
7284.0073446752067
 21
6141.1885389999979
 31
0.0
  0
LINE
  5
CF28
  8
0-1
  6
CONTINUOUS
 62
     3
 10
7316.5081356752053
 20
8455.5174490000027
 30
0.0
 11
7316.5081356752053
 21
6241.1883740000012
 31
0.0
  0
LINE
  5
CF29
  8
0-1
  6
CONTINUOUS
 62
     3
 10
7296.5073446752003
 20
8456.0984379999973
 30
0.0
 11
7296.5073446752003
 21
6241.1883740000012
 31
0.0
  0
LINE
  5
CF2A
  8
0-1
  6
CONTINUOUS
 62
     3
 10
7411.507212675212
 20
8152.2344179999973
 30
0.0
 11
7411.507212675212
 21
6241.1883740000012
 31
0.0
  0
LINE
  5
CF2B
  8
0-1
  6
CONTINUOUS
 62
     3
 10
10607.50734467519
 20
8356.9898809999977
 30
0.0
 11
10607.50734467519
 21
8152.2344179999973
 31
0.0
  0
LINE
  5
CF2C
  8
0-1
  6
CONTINUOUS
 62
     3
 10
10680.00721267518
 20
8152.2344179999973
 30
0.0
 11
10680.00721267518
 21
6241.1883740000012
 31
0.0
  0
LINE
  5
CF2D
  8
0-1
  6
CONTINUOUS
 62
     3
 10
10535.00846667521
 20
8152.2344179999973
 30
0.0
 11
10535.00846667521
 21
6241.1883740000012
 31
0.0
  0
LINE
  5
CF2E
  8
0-1
  6
CONTINUOUS
 62
     3
 10
10535.00846667521
 20
6291.1885389999989
 30
0.0
 11
7411.507212675212
 21
6291.1885389999989
 31
0.0
  0
LINE
  5
CF2F
  8
0-1
  6
CONTINUOUS
 62
     3
 10
26861.97072356681
 20
6661.1892649999972
 30
0.0
 11
24482.470723566799
 21
6661.1892649999972
 31
0.0
  0
LINE
  5
CF30
  8
0-1
  6
CONTINUOUS
 62
     3
 10
26861.97072356681
 20
6596.1888030000009
 30
0.0
 11
24482.470723566799
 21
6596.1888030000009
 31
0.0
  0
LINE
  5
CF31
  8
0-1
  6
CONTINUOUS
 62
     3
 10
26861.97072356681
 20
6531.1888359999984
 30
0.0
 11
24482.470723566799
 21
6531.1888359999984
 31
0.0
  0
LINE
  5
CF32
  8
0-1
  6
CONTINUOUS
 62
     3
 10
26861.97072356681
 20
6466.1883740000012
 30
0.0
 11
24482.470723566799
 21
6466.1883740000012
 31
0.0
  0
LINE
  5
CF33
  8
0-1
  6
CONTINUOUS
 62
     3
 10
26861.97072356681
 20
6401.1889020000053
 30
0.0
 11
24482.470723566799
 21
6401.1889020000053
 31
0.0
  0
LINE
  5
CF34
  8
0-1
  6
CONTINUOUS
 62
     3
 10
26861.97072356681
 20
6336.1889350000019
 30
0.0
 11
24482.470723566799
 21
6336.1889350000019
 31
0.0
  0
LINE
  5
CF35
  8
0-1
  6
CONTINUOUS
 62
     3
 10
26861.97072356681
 20
6271.1889679999967
 30
0.0
 11
24482.470723566799
 21
6271.1889679999967
 31
0.0
  0
LINE
  5
CF36
  8
0-1
  6
CONTINUOUS
 62
     3
 10
26861.97072356681
 20
6206.1885060000022
 30
0.0
 11
24482.470723566799
 21
6206.1885060000022
 31
0.0
  0
LINE
  5
CF37
  8
0-1
  6
CONTINUOUS
 62
     3
 10
26861.97072356681
 20
8026.1885720000018
 30
0.0
 11
24482.470723566799
 21
8026.1885720000018
 31
0.0
  0
LINE
  5
CF38
  8
0-1
  6
CONTINUOUS
 62
     3
 10
26861.97072356681
 20
7961.1886050000021
 30
0.0
 11
24482.470723566799
 21
7961.1886050000021
 31
0.0
  0
LINE
  5
CF39
  8
0-1
  6
CONTINUOUS
 62
     3
 10
26861.97072356681
 20
7896.1891330000026
 30
0.0
 11
24482.470723566799
 21
7896.1891330000026
 31
0.0
  0
LINE
  5
CF3A
  8
0-1
  6
CONTINUOUS
 62
     3
 10
26861.97072356681
 20
7831.1891659999937
 30
0.0
 11
24482.470723566799
 21
7831.1891659999937
 31
0.0
  0
LINE
  5
CF3B
  8
0-1
  6
CONTINUOUS
 62
     3
 10
26861.97072356681
 20
7766.189199000004
 30
0.0
 11
24482.470723566799
 21
7766.189199000004
 31
0.0
  0
LINE
  5
CF3C
  8
0-1
  6
CONTINUOUS
 62
     3
 10
26861.97072356681
 20
7701.1887370000022
 30
0.0
 11
24482.470723566799
 21
7701.1887370000022
 31
0.0
  0
LINE
  5
CF3D
  8
0-1
  6
CONTINUOUS
 62
     3
 10
26861.97072356681
 20
7636.1887699999979
 30
0.0
 11
24482.470723566799
 21
7636.1887699999979
 31
0.0
  0
LINE
  5
CF3E
  8
0-1
  6
CONTINUOUS
 62
     3
 10
26861.97072356681
 20
7571.1892980000011
 30
0.0
 11
24482.470723566799
 21
7571.1892980000011
 31
0.0
  0
LINE
  5
CF3F
  8
0-1
  6
CONTINUOUS
 62
     3
 10
26861.97072356681
 20
7506.1893309999978
 30
0.0
 11
24482.470723566799
 21
7506.1893309999978
 31
0.0
  0
LINE
  5
CF40
  8
0-1
  6
CONTINUOUS
 62
     3
 10
26861.97072356681
 20
7441.1888690000023
 30
0.0
 11
24482.470723566799
 21
7441.1888690000023
 31
0.0
  0
LINE
  5
CF41
  8
0-1
  6
CONTINUOUS
 62
     3
 10
26861.97072356681
 20
7376.188901999999
 30
0.0
 11
24482.470723566799
 21
7376.188901999999
 31
0.0
  0
LINE
  5
CF42
  8
0-1
  6
CONTINUOUS
 62
     3
 10
26861.97072356681
 20
7311.1889350000029
 30
0.0
 11
24482.470723566799
 21
7311.1889350000029
 31
0.0
  0
LINE
  5
CF43
  8
0-1
  6
CONTINUOUS
 62
     3
 10
26861.97072356681
 20
7246.1884729999983
 30
0.0
 11
24482.470723566799
 21
7246.1884729999983
 31
0.0
  0
LINE
  5
CF44
  8
0-1
  6
CONTINUOUS
 62
     3
 10
26861.97072356681
 20
7181.188505999995
 30
0.0
 11
24482.470723566799
 21
7181.188505999995
 31
0.0
  0
LINE
  5
CF45
  8
0-1
  6
CONTINUOUS
 62
     3
 10
26861.97072356681
 20
7116.189034
 30
0.0
 11
24482.470723566799
 21
7116.189034
 31
0.0
  0
LINE
  5
CF46
  8
0-1
  6
CONTINUOUS
 62
     3
 10
26861.97072356681
 20
7051.1890669999939
 30
0.0
 11
24482.470723566799
 21
7051.1890669999939
 31
0.0
  0
LINE
  5
CF47
  8
0-1
  6
CONTINUOUS
 62
     3
 10
26861.97072356681
 20
6986.1890999999996
 30
0.0
 11
24482.470723566799
 21
6986.1890999999996
 31
0.0
  0
LINE
  5
CF48
  8
0-1
  6
CONTINUOUS
 62
     3
 10
26861.97072356681
 20
6921.1886380000024
 30
0.0
 11
24482.470723566799
 21
6921.1886380000024
 31
0.0
  0
LINE
  5
CF49
  8
0-1
  6
CONTINUOUS
 62
     3
 10
26861.97072356681
 20
6856.188670999999
 30
0.0
 11
24482.470723566799
 21
6856.188670999999
 31
0.0
  0
LINE
  5
CF4A
  8
0-1
  6
CONTINUOUS
 62
     3
 10
26861.97072356681
 20
6791.1891989999967
 30
0.0
 11
24482.470723566799
 21
6791.1891989999967
 31
0.0
  0
LINE
  5
CF4B
  8
0-1
  6
CONTINUOUS
 62
     3
 10
26861.97072356681
 20
6726.1892319999997
 30
0.0
 11
24482.470723566799
 21
6726.1892319999997
 31
0.0
  0
LINE
  5
CF4C
  8
0-1
  6
CONTINUOUS
 62
     3
 10
26861.97072356681
 20
8080.6485920000023
 30
0.0
 11
24482.470723566799
 21
8080.6485920000023
 31
0.0
  0
LINE
  5
CF4D
  8
0-1
  6
CONTINUOUS
 62
     3
 10
27005.97336256679
 20
6141.1885389999979
 30
0.0
 11
18776.992347441588
 21
6141.1885389999979
 31
0.0
  0
LINE
  5
CF4E
  8
0-1
  6
CONTINUOUS
 62
     3
 10
13575.50734467519
 20
6141.1885389999979
 30
0.0
 11
13575.50734467519
 21
6241.1883740000012
 31
0.0
  0
LINE
  5
CF4F
  8
0-1
  6
CONTINUOUS
 62
     3
 10
13548.007542675199
 20
8268.9908770000002
 30
0.0
 11
13548.007542675199
 21
6241.1883740000012
 31
0.0
  0
LINE
  5
CF50
  8
0-1
  6
CONTINUOUS
 62
     3
 10
13568.00734467521
 20
8268.3741496838084
 30
0.0
 11
13568.00734467521
 21
6241.1883740000012
 31
0.0
  0
LINE
  5
CF51
  8
0-1
  6
CONTINUOUS
 62
     3
 10
13453.008465675201
 20
8152.2344179999973
 30
0.0
 11
13453.008465675201
 21
6241.1883740000012
 31
0.0
  0
LINE
  5
CF52
  8
0-1
  6
CONTINUOUS
 62
     3
 10
13575.50734467519
 20
6241.1883740000012
 30
0.0
 11
7284.0073446752067
 21
6241.1883740000012
 31
0.0
  0
LINE
  5
CF53
  8
0-1
  6
CONTINUOUS
 62
     3
 10
13453.008465675201
 20
6291.1885389999989
 30
0.0
 11
10680.00721267518
 21
6291.1885389999989
 31
0.0
  0
LINE
  5
CF54
  8
0-1
  6
CONTINUOUS
 62
     3
 10
14258.0083996752
 20
6141.1885389999979
 30
0.0
 11
7284.0073446752067
 21
6141.1885389999979
 31
0.0
  0
LINE
  5
CF55
  8
0-1
  6
CONTINUOUS
 62
     3
 10
13548.007542675199
 20
8152.2344179999973
 30
0.0
 11
7316.5081356752053
 21
8152.2344179999973
 31
0.0
  0
LINE
  5
CF56
  8
0-1
  6
CONTINUOUS
 62
     3
 10
26887.47146256678
 20
8334.6891199999973
 30
0.0
 11
26610.041932566801
 21
8334.6891199999973
 31
0.0
  0
LINE
  5
CF57
  8
0-1
  6
CONTINUOUS
 62
     3
 10
26887.47146256678
 20
8376.6885650000004
 30
0.0
 11
26578.044994566771
 21
8376.6885650000004
 31
0.0
  0
LINE
  5
CF58
  8
0-1
  6
CONTINUOUS
 62
     3
 10
26892.471725566778
 20
8339.6888889999937
 30
0.0
 11
26892.471725566778
 21
8371.6892909999988
 31
0.0
  0
LINE
  5
CF59
  8
0-1
  6
CONTINUOUS
 62
     3
 10
26913.474418566781
 20
8385.6884469999968
 30
0.0
 11
24430.970987566801
 21
8385.6884469999968
 31
0.0
  0
LINE
  5
CF5A
  8
0-1
  6
CONTINUOUS
 62
     3
 10
26606.508492566791
 20
8336.1529739999987
 30
0.0
 11
26574.5075945668
 21
8368.1533759999984
 31
0.0
  0
LINE
  5
CF5B
  8
0-1
  6
CONTINUOUS
 62
     3
 10
26892.471725566778
 20
8368.2889730000024
 30
0.0
 11
26574.378926566798
 21
8368.2889730000024
 31
0.0
  0
LINE
  5
CF5C
  8
0-1
  6
CONTINUOUS
 62
     3
 10
26892.471725566778
 20
8359.8888860000006
 30
0.0
 11
26582.77208456679
 21
8359.8888860000006
 31
0.0
  0
LINE
  5
CF5D
  8
0-1
  6
CONTINUOUS
 62
     3
 10
26892.471725566778
 20
8351.4892940000027
 30
0.0
 11
26591.171182566792
 21
8351.4892940000027
 31
0.0
  0
LINE
  5
CF5E
  8
0-1
  6
CONTINUOUS
 62
     3
 10
26892.471725566778
 20
8343.0892070000027
 30
0.0
 11
26599.57423856678
 21
8343.0892070000027
 31
0.0
  0
LINE
  5
CF5F
  8
0-1
  6
CONTINUOUS
 62
     3
 10
24451.971699566799
 20
8368.2889730000024
 30
0.0
 11
24770.064499566801
 21
8368.2889730000024
 31
0.0
  0
LINE
  5
CF60
  8
0-1
  6
CONTINUOUS
 62
     3
 10
24451.971699566799
 20
8359.8888860000006
 30
0.0
 11
24761.66936156679
 21
8359.8888860000006
 31
0.0
  0
LINE
  5
CF61
  8
0-1
  6
CONTINUOUS
 62
     3
 10
24451.971699566799
 20
8351.4892940000027
 30
0.0
 11
24753.2702645668
 21
8351.4892940000027
 31
0.0
  0
LINE
  5
CF62
  8
0-1
  6
CONTINUOUS
 62
     3
 10
24451.971699566799
 20
8343.0892070000027
 30
0.0
 11
24744.871166566802
 21
8343.0892070000027
 31
0.0
  0
LINE
  5
CF63
  8
0-1
  6
CONTINUOUS
 62
     3
 10
24456.971963566801
 20
8376.6885650000004
 30
0.0
 11
24766.398431566799
 21
8376.6885650000004
 31
0.0
  0
LINE
  5
CF64
  8
0-1
  6
CONTINUOUS
 62
     3
 10
24456.971963566801
 20
8334.6891199999973
 30
0.0
 11
24734.401492566802
 21
8334.6891199999973
 31
0.0
  0
LINE
  5
CF65
  8
0-1
  6
CONTINUOUS
 62
     3
 10
24451.971699566799
 20
8339.6888889999937
 30
0.0
 11
24451.971699566799
 21
8371.6892909999988
 31
0.0
  0
LINE
  5
CF66
  8
0-1
  6
CONTINUOUS
 62
     3
 10
24737.936913566798
 20
8336.1529739999987
 30
0.0
 11
24769.933851566791
 21
8368.1533759999984
 31
0.0
  0
LINE
  5
CF67
  8
0-1
  6
CONTINUOUS
 62
     3
 10
13742.30916867519
 20
8303.1736990000027
 30
0.0
 11
7210.8176796752014
 21
8498.6897600000029
 31
0.0
  0
LINE
  5
CF68
  8
0-1
  6
CONTINUOUS
 62
     3
 10
7212.3181546752012
 20
8548.6686450000016
 30
0.0
 11
13743.808653675211
 21
8353.1515949999975
 31
0.0
  0
LINE
  5
CF69
  8
0-1
  6
CONTINUOUS
 62
     3
 10
13746.8986816752
 20
8356.0604970000022
 30
0.0
 11
13747.8587486752
 21
8388.0460529999946
 31
0.0
  0
LINE
  5
CF6A
  8
0-1
  6
CONTINUOUS
 62
     3
 10
13743.00991767519
 20
8393.193295999994
 30
0.0
 11
7192.5487026752016
 21
8589.2804480000032
 31
0.0
  0
LINE
  5
CF6B
  8
0-1
  6
CONTINUOUS
 62
     3
 10
7188.6441026751991
 20
8459.3389100000022
 30
0.0
 11
13739.109276675201
 21
8263.2522529999951
 31
0.0
  0
LINE
  5
CF6C
  8
0-1
  6
CONTINUOUS
 62
     3
 10
13744.2570146752
 20
8268.0995989999974
 30
0.0
 11
13745.2160916752
 21
8300.0856499999973
 31
0.0
  0
LINE
  5
CF6D
  8
0-1
  6
CONTINUOUS
 62
     3
 10
13745.5476606752
 20
8311.0803909999977
 30
0.0
 11
13746.568102675201
 21
8345.0647659999977
 31
0.0
  0
LINE
  5
CF6E
  8
0-1
  6
CONTINUOUS
 62
     3
 10
13743.65919967519
 20
8348.1538049999981
 30
0.0
 11
7212.166721675203
 21
8543.6713500000023
 31
0.0
  0
LINE
  5
CF6F
  8
0-1
  6
CONTINUOUS
 62
     3
 10
7210.9671336752062
 20
8503.6880439999986
 30
0.0
 11
13742.457631675201
 21
8308.1719839999969
 31
0.0
  0
LINE
  5
CF70
  8
0-1
  6
CONTINUOUS
 62
     3
 10
10607.50734467519
 20
8356.9898809999977
 30
0.0
 11
10611.409965675181
 21
8486.9314189999968
 31
0.0
  0
LINE
  5
CF71
  8
0-1
  6
CONTINUOUS
 62
     3
 10
7221.6110046752001
 20
8458.3481609999981
 30
0.0
 11
7225.5126356751998
 21
8588.2896989999972
 31
0.0
  0
LINE
  5
CF72
  8
0-1
  6
CONTINUOUS
 62
     3
 10
13730.517175675181
 20
8393.5684149999979
 30
0.0
 11
13726.61455467519
 21
8263.6273720000008
 31
0.0
  0
LINE
  5
CF73
  8
0-2
  6
CONTINUOUS
 62
     4
 10
25308.532683066791
 20
6888.4152329999961
 30
0.0
 11
25408.532023066778
 21
6888.4152329999961
 31
0.0
  0
LINE
  5
CF74
  8
0-2
  6
CONTINUOUS
 62
     4
 10
26035.916683066778
 20
6888.4152329999961
 30
0.0
 11
25935.91734306678
 21
6888.4152329999961
 31
0.0
  0
LINE
  5
CF75
  8
0-5
  6
CONTINUOUS
 62
     4
 10
24388.470723566781
 20
4461.1889349999919
 30
0.0
 11
24388.470723566781
 21
4301.1893969999992
 31
0.0
  0
LINE
  5
CF76
  8
0-5
  6
CONTINUOUS
 62
     4
 10
15555.86967772149
 20
6241.1883740000003
 30
0.0
 11
15435.869281721491
 21
6449.035350999995
 31
0.0
  0
LINE
  5
CF77
  8
0-5
  6
CONTINUOUS
 62
     4
 10
15675.868094721491
 20
6449.035350999995
 30
0.0
 11
15555.86967772149
 21
6241.1883740000003
 31
0.0
  0
LINE
  5
CF78
  8
0-5
  6
CONTINUOUS
 62
     4
 10
15435.869281721491
 20
6449.035350999995
 30
0.0
 11
15675.868094721491
 21
6449.035350999995
 31
0.0
  0
LINE
  5
CF79
  8
0-5
  6
CONTINUOUS
 62
     4
 10
16042.233458663601
 20
6241.1883740000012
 30
0.0
 11
14658.00774067519
 21
6241.1883740000003
 31
0.0
  0
LINE
  5
CF7A
  8
0-5
  6
CONTINUOUS
 62
     4
 10
26955.970723566799
 20
4461.1889349999919
 30
0.0
 11
26955.970723566799
 21
4301.1893969999992
 31
0.0
  0
LINE
  5
CF7B
  8
0-5
  6
CONTINUOUS
 62
     4
 10
7339.0073446752076
 20
4461.1889349999919
 30
0.0
 11
7339.0073446752076
 21
4301.1893969999992
 31
0.0
  0
LINE
  5
CF7C
  8
0-5
  6
CONTINUOUS
 62
     4
 10
10607.50734467519
 20
4461.1889349999919
 30
0.0
 11
10607.50734467519
 21
4301.1893969999992
 31
0.0
  0
LINE
  5
CF7D
  8
0-5
  6
CONTINUOUS
 62
     4
 10
13525.507344675199
 20
4461.1889349999919
 30
0.0
 11
13525.507344675199
 21
4301.1893969999992
 31
0.0
  0
LINE
  5
CF7E
  8
2-0
  6
CENTER2
 62
     6
 10
24388.470723566781
 20
5878.5361159999993
 30
0.0
 11
24388.470723566781
 21
6915.6791429999976
 31
0.0
  0
LINE
  5
CF7F
  8
2-0
  6
CENTER2
 62
     6
 10
26955.970723566799
 20
5878.5361159999993
 30
0.0
 11
26955.970723566799
 21
6915.6791429999976
 31
0.0
  0
LINE
  5
CF80
  8
2-0
  6
CENTER2
 62
     6
 10
7339.0073446752076
 20
5878.5361159999993
 30
0.0
 11
7339.0073446752076
 21
6935.6787139999979
 31
0.0
  0
LINE
  5
CF81
  8
2-0
  6
CENTER2
 62
     6
 10
10607.50734467519
 20
5878.5361159999993
 30
0.0
 11
10607.50734467519
 21
6935.6787139999979
 31
0.0
  0
LINE
  5
CF82
  8
2-0
  6
CENTER2
 62
     6
 10
13525.507344675199
 20
5878.5361159999993
 30
0.0
 11
13525.507344675199
 21
6935.6787139999979
 31
0.0
  0
ARC
  5
CF83
  8
0-1
  6
CONTINUOUS
 62
     3
 10
26887.47146256678
 20
8371.6892909999988
 30
0.0
 40
5.0
 50
0.000000000000007
 51
90.0
  0
ARC
  5
CF84
  8
0-1
  6
CONTINUOUS
 62
     3
 10
26887.47146256678
 20
8339.6888889999937
 30
0.0
 40
5.0
 50
270.00001499981897
 51
0.000000000000007
  0
ARC
  5
CF85
  8
0-1
  6
CONTINUOUS
 62
     3
 10
26610.041932566801
 20
8339.6888889999937
 30
0.0
 40
5.0
 50
225.00001499976199
 51
270.00001499981897
  0
ARC
  5
CF86
  8
0-1
  6
CONTINUOUS
 62
     3
 10
26578.044994566771
 20
8371.6892909999988
 30
0.0
 40
5.0
 50
90.0
 51
225.00001499976199
  0
ARC
  5
CF87
  8
0-1
  6
CONTINUOUS
 62
     3
 10
24456.971963566801
 20
8339.6888889999937
 30
0.0
 40
5.0
 50
180.0
 51
270.00001499981897
  0
ARC
  5
CF88
  8
0-1
  6
CONTINUOUS
 62
     3
 10
24456.971963566801
 20
8371.6892909999988
 30
0.0
 40
5.0
 50
90.0
 51
180.0
  0
ARC
  5
CF89
  8
0-1
  6
CONTINUOUS
 62
     3
 10
24766.398431566799
 20
8371.6892909999988
 30
0.0
 40
5.0
 50
315.00001500002008
 51
90.0
  0
ARC
  5
CF8A
  8
0-1
  6
CONTINUOUS
 62
     3
 10
24734.401492566802
 20
8339.6888889999937
 30
0.0
 40
5.0
 50
270.00001499981897
 51
315.00001500002008
  0
ARC
  5
CF8B
  8
0-1
  6
CONTINUOUS
 62
     3
 10
7211.5679176752101
 20
8523.680191999998
 30
0.0
 40
24.999998999999999
 50
88.280013999973605
 51
268.28001399997362
  0
ARC
  5
CF8C
  8
0-1
  6
CONTINUOUS
 62
     3
 10
13743.898721675199
 20
8356.1505649999999
 30
0.0
 40
3.0
 50
268.28001399997362
 51
358.2800139999739
  0
ARC
  5
CF8D
  8
0-1
  6
CONTINUOUS
 62
     3
 10
13742.86145367519
 20
8388.1955069999967
 30
0.0
 40
5.0
 50
358.2800139999739
 51
88.280013999973605
  0
ARC
  5
CF8E
  8
0-1
  6
CONTINUOUS
 62
     3
 10
7216.5652116752181
 20
8523.529749000003
 30
0.0
 40
69.999999000000003
 50
110.066803000108
 51
246.49322500022339
  0
ARC
  5
CF8F
  8
0-1
  6
CONTINUOUS
 62
     3
 10
13739.25774067519
 20
8268.250043
 30
0.0
 40
5.0
 50
268.28001399997362
 51
358.2800139999739
  0
ARC
  5
CF90
  8
0-1
  6
CONTINUOUS
 62
     3
 10
13742.2190996752
 20
8300.1752230000002
 30
0.0
 40
3.0
 50
358.2800139999739
 51
88.280013999973605
  0
ARC
  5
CF91
  8
0-1
  6
CONTINUOUS
 62
     3
 10
13742.234936675201
 20
8350.6979809999957
 30
0.0
 40
2.5
 50
88.280013999973605
 51
268.28001399997362
  0
ARC
  5
CF92
  8
0-1
  6
CONTINUOUS
 62
     3
 10
13740.8849046752
 20
8305.7178749999985
 30
0.0
 40
2.5
 50
88.280013999973605
 51
268.28001399997362
  0
ARC
  5
CF93
  8
0-1
  6
CONTINUOUS
 62
     3
 10
13743.569131675191
 20
8345.1553289999974
 30
0.0
 40
3.0
 50
358.2800139999739
 51
88.280013999973605
  0
ARC
  5
CF94
  8
0-1
  6
CONTINUOUS
 62
     3
 10
7211.5679176752101
 20
8523.680191999998
 30
0.0
 40
20.0
 50
88.280013999973605
 51
268.28001399997362
  0
ARC
  5
CF95
  8
0-1
  6
CONTINUOUS
 62
     3
 10
13742.548689675201
 20
8311.169963999997
 30
0.0
 40
3.0
 50
268.28001399997362
 51
358.2800139999739
  0
CIRCLE
  5
CF96
  8
0-5
  6
CONTINUOUS
 62
     4
 10
24388.470723566781
 20
4101.1882420000002
 30
0.0
 40
199.9999949999999
  0
CIRCLE
  5
CF97
  8
0-5
  6
CONTINUOUS
 62
     4
 10
10607.50734467519
 20
4101.1882420000002
 30
0.0
 40
199.9999949999999
  0
CIRCLE
  5
CF98
  8
0-5
  6
CONTINUOUS
 62
     4
 10
7339.0073446752076
 20
4101.1882420000002
 30
0.0
 40
199.9999949999999
  0
CIRCLE
  5
CF99
  8
0-5
  6
CONTINUOUS
 62
     4
 10
26955.970723566799
 20
4101.1882420000002
 30
0.0
 40
199.9999949999999
  0
CIRCLE
  5
CF9A
  8
0-5
  6
CONTINUOUS
 62
     4
 10
13525.507344675199
 20
4101.1882420000002
 30
0.0
 40
199.9999949999999
  0
TEXT
  5
CF9B
  8
0-5
  6
CONTINUOUS
 62
     7
 10
24333.71693190013
 20
4011.7132599999991
 30
0.0
 40
160.0
  1
2
 72
     4
 11
24387.050265233462
 21
4091.71326
 31
0.0
  0
TEXT
  5
CF9C
  8
0-5
  6
CONTINUOUS
 62
     7
 10
28060.942488670938
 20
6988.0104361594413
 30
0.0
 40
160.0
  1
(2131.5)
 50
90.0
 72
     4
 11
27980.942488670938
 21
7441.3437694927743
 31
0.0
  0
TEXT
  5
CF9D
  8
0-5
  6
CONTINUOUS
 62
     7
 10
15097.628273388151
 20
6529.0346249999966
 30
0.0
 40
160.0
  1
布基礎天端
 72
     4
 11
15556.29494005482
 21
6609.0346249999957
 31
0.0
  0
TEXT
  5
CF9E
  8
0-5
  6
CONTINUOUS
 62
     7
 10
26902.637390233482
 20
4011.7132600000032
 30
0.0
 40
160.0
  1
3
 72
     4
 11
26955.97072356681
 21
4091.7132600000032
 31
0.0
  0
TEXT
  5
CF9F
  8
0-5
  6
CONTINUOUS
 62
     7
 10
7279.2968380085331
 20
4017.977445999999
 30
0.0
 40
160.0
  1
A
 72
     4
 11
7332.6301713418661
 21
4097.9774459999999
 31
0.0
  0
TEXT
  5
CFA0
  8
0-5
  6
CONTINUOUS
 62
     7
 10
10547.796838008509
 20
4017.977445999999
 30
0.0
 40
160.0
  1
B
 72
     4
 11
10601.130171341851
 21
4097.9774459999999
 31
0.0
  0
TEXT
  5
CFA1
  8
0-5
  6
CONTINUOUS
 62
     7
 10
13465.796838008509
 20
4017.977445999999
 30
0.0
 40
160.0
  1
C
 72
     4
 11
13519.130171341851
 21
4097.9774459999999
 31
0.0
  0
CIRCLE
  5
CFA2
  8
0-4
  6
CONTINUOUS
 62
     4
 10
25672.222703066778
 20
6627.2449749999978
 30
0.0
 40
18.487504999999981
  0
LINE
  5
CFA3
  8
1-前柱カバ-P
 10
19430.970723566781
 20
8459.188465999996
 30
0.0
 11
19430.970723566781
 21
6141.1885389999979
 31
0.0
  0
LINE
  5
CFA4
  8
1-前柱カバ-P
 10
19345.970723566781
 20
8589.1883999999955
 30
0.0
 11
19345.970723566781
 21
6141.1885389999979
 31
0.0
  0
LINE
  5
CFA5
  8
0-1
  6
CONTINUOUS
 62
     3
 10
19302.970723566788
 20
8459.1884660000032
 30
0.0
 11
24430.970987566801
 21
8459.188465999996
 31
0.0
  0
LINE
  5
CFA6
  8
0-1
  6
CONTINUOUS
 62
     3
 10
24365.969535566801
 20
8589.1883999999955
 30
0.0
 11
19302.970723566788
 21
8589.1883999999955
 31
0.0
  0
LINE
  5
CFA7
  8
0-1
  6
CONTINUOUS
 62
     3
 10
19302.970723566788
 20
8263.5026620000044
 30
0.0
 11
19302.970723566788
 21
8589.1883999999955
 31
0.0
  0
LINE
  5
CFA8
  8
0-1
  6
CONTINUOUS
 62
     3
 10
19302.970723566788
 20
8263.5026620000044
 30
0.0
 11
19345.970723566781
 21
8263.5026620000044
 31
0.0
  0
LINE
  5
CFA9
  8
2-0
  6
CENTER2
 62
     6
 10
19388.470723566781
 20
5878.5361159999993
 30
0.0
 11
19388.470723566781
 21
6915.6791429999976
 31
0.0
  0
LINE
  5
CFAA
  8
1-桁前P28
 10
19430.970723566781
 20
8261.5026620000044
 30
0.0
 11
24345.970723566781
 21
8261.5026620000044
 31
0.0
  0
LINE
  5
CFAB
  8
0-5
  6
CONTINUOUS
 62
     4
 10
19388.470723566781
 20
4461.1889349999919
 30
0.0
 11
19388.470723566781
 21
4301.1893969999992
 31
0.0
  0
CIRCLE
  5
CFAC
  8
0-5
  6
CONTINUOUS
 62
     4
 10
19388.470723566781
 20
4101.1882420000002
 30
0.0
 40
199.9999949999999
  0
TEXT
  5
CFAD
  8
0-5
  6
CONTINUOUS
 62
     7
 10
19360.38359856679
 20
4011.7132599999991
 30
0.0
 40
160.0
  1
1
 72
     4
 11
19387.050265233462
 21
4091.71326
 31
0.0
  0
TEXT
  5
CFAE
  8
0-5
  6
CONTINUOUS
 62
     7
 10
18375.599336307401
 20
7253.4937498378649
 30
0.0
 40
160.0
  1
(2260)
 50
90.0
 72
     4
 11
18295.599336307401
 21
7640.1604165045319
 31
0.0
  0
LINE
  5
CFAF
  8
0-1
  6
CONTINUOUS
 62
     3
 10
7611.5049816752144
 20
6291.1885389999989
 30
0.0
 11
7611.5049816752144
 21
8152.2344179999973
 31
0.0
  0
LINE
  5
CFB0
  8
0-1
  6
CONTINUOUS
 62
     3
 10
7596.5051796752023
 20
6291.1885389999989
 30
0.0
 11
7596.5051796752023
 21
8152.2344179999973
 31
0.0
  0
LINE
  5
CFB1
  8
SUNPOU
  6
CONTINUOUS
 10
13748.00734467521
 20
9389.1900499999992
 30
0.0
 11
14252.795214568599
 21
9389.1900499999992
 31
0.0
  0
LINE
  5
CFB2
  8
0-5
  6
CONTINUOUS
 62
     4
 10
17008.38731353066
 20
6349.0350209999979
 30
0.0
 11
16888.388897530669
 21
6141.1885389999979
 31
0.0
  0
LINE
  5
CFB3
  8
0-5
  6
CONTINUOUS
 62
     4
 10
18701.964497920239
 20
6141.1885389999979
 30
0.0
 11
14331.568051040231
 21
6141.1885389999979
 31
0.0
  0
LINE
  5
CFB4
  8
0-5
  6
CONTINUOUS
 62
     4
 10
16888.388897530669
 20
6141.1885389999979
 30
0.0
 11
16768.38850153067
 21
6349.0350209999979
 31
0.0
  0
LINE
  5
CFB5
  8
0-5
  6
CONTINUOUS
 62
     4
 10
16768.38850153067
 20
6349.0350209999979
 30
0.0
 11
17008.38731353066
 21
6349.0350209999979
 31
0.0
  0
TEXT
  5
CFB6
  8
0-5
  6
CONTINUOUS
 62
     7
 10
16688.38731353066
 20
6429.0347899999997
 30
0.0
 40
160.0
  1
G.L
 72
     4
 11
16848.38731353066
 21
6509.0347899999997
 31
0.0
  0
LINE
  5
CFB7
  8
0-1
  6
CONTINUOUS
 62
     3
 10
12961.61698910097
 20
16705.485856999989
 30
0.0
 11
10394.116989100959
 21
16705.485856999989
 31
0.0
  0
LINE
  5
CFB8
  8
0-1
  6
CONTINUOUS
 62
     3
 10
10394.116989100959
 20
16705.485856999989
 30
0.0
 11
7821.7461383321724
 21
16705.485856999989
 31
0.0
  0
LINE
  5
CFB9
  8
2-0
  6
DASHED3
 62
     6
 10
7821.7461383321724
 20
16705.485856999989
 30
0.0
 11
5394.1169891009777
 21
16705.485856999989
 31
0.0
  0
LINE
  5
CFBA
  8
0-1
  6
CONTINUOUS
 62
     3
 10
10447.11662010096
 20
13445.48689899998
 30
0.0
 11
10447.11662010096
 21
17788.733651581231
 31
0.0
  0
LINE
  5
CFBB
  8
0-1
  6
CONTINUOUS
 62
     3
 10
12911.616369100961
 20
13321.486885
 30
0.0
 11
12911.616369100961
 21
18808.5841237001
 31
0.0
  0
LINE
  5
CFBC
  8
0-1
  6
CONTINUOUS
 62
     3
 10
12911.616369100961
 20
18808.5841237001
 30
0.0
 11
12911.616369100961
 21
19832.98622599999
 31
0.0
  0
LINE
  5
CFBD
  8
0-1
  6
CONTINUOUS
 62
     3
 10
13047.116989100979
 20
13289.48697799999
 30
0.0
 11
13047.116989100979
 21
18864.492463246639
 31
0.0
  0
LINE
  5
CFBE
  8
0-1
  6
CONTINUOUS
 62
     3
 10
13047.116989100979
 20
18864.492463246639
 30
0.0
 11
13047.116989100979
 21
19880.987571999991
 31
0.0
  0
LINE
  5
CFBF
  8
0-1
  6
CONTINUOUS
 62
     3
 10
13004.11626310095
 20
13445.48689899998
 30
0.0
 11
5351.6157351009624
 21
13445.48689899998
 31
0.0
  0
LINE
  5
CFC0
  8
0-1
  6
CONTINUOUS
 62
     3
 10
12961.61698910097
 20
13524.48651599999
 30
0.0
 11
5394.1169891009777
 21
13524.48651599999
 31
0.0
  0
LINE
  5
CFC1
  8
0-1
  6
CONTINUOUS
 62
     3
 10
13047.116989100979
 20
13289.48697799999
 30
0.0
 11
5308.6169891009758
 21
13289.48697799999
 31
0.0
  0
LINE
  5
CFC2
  8
0-1
  6
CONTINUOUS
 62
     3
 10
13047.116989100979
 20
13321.486885
 30
0.0
 11
5308.6169891009758
 21
13321.486885
 31
0.0
  0
LINE
  5
CFC3
  8
0-1
  6
CONTINUOUS
 62
     3
 10
10394.116989100959
 20
13445.48689899998
 30
0.0
 11
10394.116989100959
 21
17766.865601417241
 31
0.0
  0
LINE
  5
CFC4
  8
0-1
  6
CONTINUOUS
 62
     3
 10
10351.61573510095
 20
13445.48689899998
 30
0.0
 11
10351.61573510095
 21
17749.329261315092
 31
0.0
  0
LINE
  5
CFC5
  8
0-1
  6
CONTINUOUS
 62
     3
 10
12961.61698910097
 20
13445.48689899998
 30
0.0
 11
12961.61698910097
 21
18830.452581933001
 31
0.0
  0
LINE
  5
CFC6
  8
0-1
  6
CONTINUOUS
 62
     3
 10
13004.11626310095
 20
13445.48689899998
 30
0.0
 11
13004.11626310095
 21
18847.988105072091
 31
0.0
  0
LINE
  5
CFC7
  8
0-1
  6
CONTINUOUS
 62
     3
 10
11941.615538100959
 20
18415.37535751703
 30
0.0
 11
11941.615538100959
 21
19832.98622599999
 31
0.0
  0
LINE
  5
CFC8
  8
0-1
  6
CONTINUOUS
 62
     3
 10
11904.61536610095
 20
18400.108805616481
 30
0.0
 11
11904.61536610095
 21
19832.98622599999
 31
0.0
  0
LINE
  5
CFC9
  8
0-1
  6
CONTINUOUS
 62
     3
 10
11741.61586710096
 20
18332.853974713271
 30
0.0
 11
11741.61586710096
 21
19832.98622599999
 31
0.0
  0
LINE
  5
CFCA
  8
0-1
  6
CONTINUOUS
 62
     3
 10
11704.614706100971
 20
18317.587014743822
 30
0.0
 11
11704.614706100971
 21
19832.98622599999
 31
0.0
  0
LINE
  5
CFCB
  8
0-1
  6
CONTINUOUS
 62
     3
 10
11541.61619710097
 20
18240.332487322121
 30
0.0
 11
11541.61619710095
 21
19832.98622599999
 31
0.0
  0
LINE
  5
CFCC
  8
0-1
  6
CONTINUOUS
 62
     3
 10
11504.61701610095
 20
18225.066344315681
 30
0.0
 11
11504.61701610095
 21
19832.98622599999
 31
0.0
  0
LINE
  5
CFCD
  8
0-1
  6
CONTINUOUS
 62
     3
 10
11341.61553810095
 20
18157.810696862081
 30
0.0
 11
11341.61553810095
 21
19832.98622599999
 31
0.0
  0
LINE
  5
CFCE
  8
0-1
  6
CONTINUOUS
 62
     3
 10
11304.615366100959
 20
18142.544144961521
 30
0.0
 11
11304.615366100959
 21
19832.98622599999
 31
0.0
  0
LINE
  5
CFCF
  8
0-1
  6
CONTINUOUS
 62
     3
 10
11141.61586710096
 20
18075.289314058318
 30
0.0
 11
11141.61586710096
 21
19832.98622599999
 31
0.0
  0
LINE
  5
CFD0
  8
0-1
  6
CONTINUOUS
 62
     3
 10
11104.614706100971
 20
18060.02235408884
 30
0.0
 11
11104.614706100971
 21
19832.98622599999
 31
0.0
  0
LINE
  5
CFD1
  8
0-1
  6
CONTINUOUS
 62
     3
 10
10941.61619710095
 20
17992.767931667171
 30
0.0
 11
10941.61619710095
 21
19832.98622599999
 31
0.0
  0
LINE
  5
CFD2
  8
0-1
  6
CONTINUOUS
 62
     3
 10
10904.61602610097
 20
17977.50138017923
 30
0.0
 11
10904.61602610097
 21
19832.98622599999
 31
0.0
  0
LINE
  5
CFD3
  8
0-1
  6
CONTINUOUS
 62
     3
 10
10741.61553810097
 20
17910.246141207121
 30
0.0
 11
10741.61553810097
 21
19832.98622599999
 31
0.0
  0
LINE
  5
CFD4
  8
0-1
  6
CONTINUOUS
 62
     3
 10
10704.615366100959
 20
17894.979589306538
 30
0.0
 11
10704.615366100959
 21
19832.98622599999
 31
0.0
  0
LINE
  5
CFD5
  8
0-1
  6
CONTINUOUS
 62
     3
 10
12141.61619710095
 20
18497.897147977081
 30
0.0
 11
12141.61619710095
 21
19832.98622599999
 31
0.0
  0
LINE
  5
CFD6
  8
0-1
  6
CONTINUOUS
 62
     3
 10
12104.61701610096
 20
18482.631004970641
 30
0.0
 11
12104.61701610096
 21
19832.98622599999
 31
0.0
  0
LINE
  5
CFD7
  8
0-1
  6
CONTINUOUS
 62
     3
 10
12961.61698910097
 20
16795.488627999988
 30
0.0
 11
10394.116989100959
 21
16795.488627999988
 31
0.0
  0
LINE
  5
CFD8
  8
0-1
  6
CONTINUOUS
 62
     3
 10
10394.116989100959
 20
16795.488627999988
 30
0.0
 11
8039.8777786113405
 21
16795.488627999988
 31
0.0
  0
LINE
  5
CFD9
  8
2-0
  6
DASHED3
 62
     6
 10
8039.8777786113405
 20
16795.488627999988
 30
0.0
 11
5394.1169891009777
 21
16795.488627999988
 31
0.0
  0
LINE
  5
CFDA
  8
0-1
  6
CONTINUOUS
 62
     3
 10
10464.11608945712
 20
16750.488153658851
 30
0.0
 11
12891.616263100959
 21
13481.986252000001
 31
0.0
  0
LINE
  5
CFDB
  8
0-1
  6
CONTINUOUS
 62
     3
 10
12891.616263100959
 20
16750.486251999992
 30
0.0
 11
10464.11573510095
 21
13481.986252000001
 31
0.0
  0
LINE
  5
CFDC
  8
0-1
  6
CONTINUOUS
 62
     3
 10
11791.39060486211
 20
18345.95024835967
 30
0.0
 11
10464.11608945712
 21
16750.488153658851
 31
0.0
  0
LINE
  5
CFDD
  8
0-1
  6
CONTINUOUS
 62
     3
 10
11622.508704241751
 20
18276.02901256214
 30
0.0
 11
12891.616263100959
 21
16750.486251999992
 31
0.0
  0
LINE
  5
CFDE
  8
0-1
  6
CONTINUOUS
 62
     3
 10
13029.118216100969
 20
18857.066032846509
 30
0.0
 11
13029.118216100969
 21
19873.487175999991
 31
0.0
  0
LINE
  5
CFDF
  8
0-1
  6
CONTINUOUS
 62
     3
 10
12973.61746410096
 20
19855.988230999988
 30
0.0
 11
12973.61746410096
 21
19885.987834999982
 31
0.0
  0
LINE
  5
CFE0
  8
0-1
  6
CONTINUOUS
 62
     3
 10
13047.116989100979
 20
19885.987834999982
 30
0.0
 11
13047.116989100979
 21
19850.985987999979
 31
0.0
  0
LINE
  5
CFE1
  8
0-1
  6
CONTINUOUS
 62
     3
 10
12978.61772810097
 20
19890.98611999999
 30
0.0
 11
13042.117715100971
 21
19890.98611999999
 31
0.0
  0
LINE
  5
CFE2
  8
0-1
  6
CONTINUOUS
 62
     3
 10
13029.118216100969
 20
19873.487175999991
 30
0.0
 11
13047.116989100979
 21
19873.487175999991
 31
0.0
  0
LINE
  5
CFE3
  8
0-1
  6
CONTINUOUS
 62
     3
 10
13029.118216100969
 20
19850.985987999979
 30
0.0
 11
12978.61772810097
 21
19850.985987999979
 31
0.0
  0
LINE
  5
CFE4
  8
2-0
  6
DASHED3
 62
     6
 10
12961.61698910097
 20
19629.487755999991
 30
0.0
 11
5394.1169891009777
 21
19629.487755999991
 31
0.0
  0
LINE
  5
CFE5
  8
2-0
  6
DASHED3
 62
     6
 10
13004.11626310095
 20
18847.988105072091
 30
0.0
 11
13004.11626310095
 21
19714.488283999988
 31
0.0
  0
LINE
  5
CFE6
  8
2-0
  6
DASHED3
 62
     6
 10
12961.61698910097
 20
18830.452581933001
 30
0.0
 11
12961.61698910097
 21
19714.488283999988
 31
0.0
  0
LINE
  5
CFE7
  8
2-0
  6
DASHED3
 62
     6
 10
13004.11626310095
 20
19714.488283999988
 30
0.0
 11
5394.1169891009777
 21
19714.488283999988
 31
0.0
  0
LINE
  5
CFE8
  8
2-0
  6
DASHED3
 62
     6
 10
10394.116989100979
 20
17766.865601417241
 30
0.0
 11
10394.116989100959
 21
19714.488283999988
 31
0.0
  0
LINE
  5
CFE9
  8
2-0
  6
DASHED3
 62
     6
 10
10351.61573510095
 20
17749.329261315092
 30
0.0
 11
10351.61573510095
 21
19714.488283999988
 31
0.0
  0
LINE
  5
CFEA
  8
2-0
  6
DASHED3
 62
     6
 10
12891.616263100959
 20
19668.486251999992
 30
0.0
 11
11791.39060486211
 21
18345.95024835967
 31
0.0
  0
LINE
  5
CFEB
  8
2-0
  6
DASHED3
 62
     6
 10
10464.11573510095
 20
19668.486251999992
 30
0.0
 11
11622.508704241751
 21
18276.02901256214
 31
0.0
  0
LINE
  5
CFEC
  8
2-0
  6
CENTER2
 62
     6
 10
10394.116989100959
 20
20910.988495000001
 30
0.0
 11
10394.116989100959
 21
19932.985565999981
 31
0.0
  0
LINE
  5
CFED
  8
2-0
  6
CENTER2
 62
     6
 10
14291.11709410095
 20
19668.486251999992
 30
0.0
 11
12644.61787310096
 21
19668.486251999992
 31
0.0
  0
LINE
  5
CFEE
  8
0-8
  6
CONTINUOUS
 62
     6
 10
12961.61698910097
 20
20910.988495000001
 30
0.0
 11
12961.61698910097
 21
19960.987834999982
 31
0.0
  0
LINE
  5
CFEF
  8
2-0
  6
CENTER2
 62
     6
 10
14291.11709410095
 20
16750.486251999992
 30
0.0
 11
5222.3175411009734
 21
16750.486251999992
 31
0.0
  0
LINE
  5
CFF0
  8
2-0
  6
CENTER2
 62
     6
 10
14291.11709410095
 20
13481.986252000001
 30
0.0
 11
12644.61787310096
 21
13481.986252000001
 31
0.0
  0
ARC
  5
CFF1
  8
0-1
  6
CONTINUOUS
 62
     3
 10
12978.61772810097
 20
19855.988230999988
 30
0.0
 40
5.0
 50
180.0
 51
270.00001499981897
  0
ARC
  5
CFF2
  8
0-1
  6
CONTINUOUS
 62
     3
 10
12978.61502678348
 20
19885.98895392233
 30
0.0
 40
4.99729880777691
 50
89.969028448222716
 51
180.0128288362661
  0
ARC
  5
CFF3
  8
0-1
  6
CONTINUOUS
 62
     3
 10
13042.12064157719
 20
19885.989047186122
 30
0.0
 40
4.9970736707893684
 50
359.9861012352485
 51
90.033554587670935
  0
CIRCLE
  5
CFF4
  8
0-5
  6
CONTINUOUS
 62
     4
 10
10394.116989100959
 20
21110.987175999991
 30
0.0
 40
199.9999949999999
  0
CIRCLE
  5
CFF5
  8
0-5
  6
CONTINUOUS
 62
     4
 10
12961.61698910097
 20
21110.987175999991
 30
0.0
 40
199.9999949999999
  0
CIRCLE
  5
CFF6
  8
0-5
  6
CONTINUOUS
 62
     4
 10
14491.11676510096
 20
19668.486251999992
 30
0.0
 40
199.9999949999999
  0
CIRCLE
  5
CFF7
  8
0-5
  6
CONTINUOUS
 62
     4
 10
14491.11676510096
 20
16750.486251999992
 30
0.0
 40
199.9999949999999
  0
CIRCLE
  5
CFF8
  8
0-5
  6
CONTINUOUS
 62
     4
 10
14491.11676510096
 20
13481.986252000001
 30
0.0
 40
199.9999949999999
  0
TEXT
  5
CFF9
  8
0-5
  6
CONTINUOUS
 62
     7
 10
10341.16752843428
 20
21021.772252999999
 30
0.0
 40
160.0
  1
2
 72
     4
 11
10394.500861767619
 21
21101.772252999999
 31
0.0
  0
TEXT
  5
CFFA
  8
0-5
  6
CONTINUOUS
 62
     7
 10
12908.283655767629
 20
21030.987175999991
 30
0.0
 40
160.0
  1
3
 72
     4
 11
12961.61698910097
 21
21110.987175999991
 31
0.0
  0
TEXT
  5
CFFB
  8
0-5
  6
CONTINUOUS
 62
     7
 10
14437.90996643427
 20
19588.897727999989
 30
0.0
 40
160.0
  1
C
 72
     4
 11
14491.24329976761
 21
19668.897727999989
 31
0.0
  0
TEXT
  5
CFFC
  8
0-5
  6
CONTINUOUS
 62
     7
 10
14437.90996643427
 20
16670.898717999989
 30
0.0
 40
160.0
  1
B
 72
     4
 11
14491.24329976761
 21
16750.898717999989
 31
0.0
  0
TEXT
  5
CFFD
  8
0-5
  6
CONTINUOUS
 62
     7
 10
14437.90996643427
 20
13402.397727999991
 30
0.0
 40
160.0
  1
A
 72
     4
 11
14491.24329976761
 21
13482.397727999991
 31
0.0
  0
LINE
  5
CFFE
  8
2-0
  6
CENTER2
 62
     6
 10
5394.1169891009777
 20
20910.988495000001
 30
0.0
 11
5394.1169891009777
 21
19960.987834999982
 31
0.0
  0
CIRCLE
  5
CFFF
  8
0-5
  6
CONTINUOUS
 62
     4
 10
5394.1169891009777
 20
21110.987175999991
 30
0.0
 40
199.9999949999999
  0
TEXT
  5
D000
  8
0-5
  6
CONTINUOUS
 62
     7
 10
5367.8341951009606
 20
21021.772252999999
 30
0.0
 40
160.0
  1
1
 72
     4
 11
5394.5008617676276
 21
21101.772252999999
 31
0.0
  0
LINE
  5
D001
  8
0-1
  6
CONTINUOUS
 62
     3
 10
5326.6167511009708
 20
15677.21377823088
 30
0.0
 11
5326.6167511009708
 21
19873.487175999991
 31
0.0
  0
LINE
  5
D002
  8
0-1
  6
CONTINUOUS
 62
     3
 10
5326.6167511009708
 20
19873.487175999991
 30
0.0
 11
5308.6169891009758
 21
19873.487175999991
 31
0.0
  0
LINE
  5
D003
  8
0-1
  6
CONTINUOUS
 62
     3
 10
5382.1175031009607
 20
19855.988230999988
 30
0.0
 11
5382.1175031009607
 21
19885.987834999982
 31
0.0
  0
LINE
  5
D004
  8
0-1
  6
CONTINUOUS
 62
     3
 10
5326.6167511009708
 20
19850.985987999979
 30
0.0
 11
5377.11624910096
 21
19850.985987999979
 31
0.0
  0
LINE
  5
D005
  8
0-1
  6
CONTINUOUS
 62
     3
 10
5308.6169891009758
 20
19885.987834999982
 30
0.0
 11
5308.6169891009758
 21
19850.985987999979
 31
0.0
  0
LINE
  5
D006
  8
0-1
  6
CONTINUOUS
 62
     3
 10
5377.11624910096
 20
19890.98611999999
 30
0.0
 11
5313.6182421009798
 21
19890.98611999999
 31
0.0
  0
ARC
  5
D007
  8
0-1
  6
CONTINUOUS
 62
     3
 10
5313.6182421009798
 20
19885.987834999982
 30
0.0
 40
5.0
 50
90.0
 51
180.0
  0
ARC
  5
D008
  8
0-1
  6
CONTINUOUS
 62
     3
 10
5377.11624910096
 20
19885.987834999982
 30
0.0
 40
5.0
 50
0.000000000000007
 51
90.0
  0
ARC
  5
D009
  8
0-1
  6
CONTINUOUS
 62
     3
 10
5377.11624910096
 20
19855.988230999988
 30
0.0
 40
5.0
 50
270.00001499981897
 51
0.000000000000007
  0
LINE
  5
D00A
  8
0-1
  6
CONTINUOUS
 62
     3
 10
10394.116989100959
 20
13445.48689899998
 30
0.0
 11
10394.116989100959
 21
13289.48697799999
 31
0.0
  0
LINE
  5
D00B
  8
0-1
  6
CONTINUOUS
 62
     3
 10
13353.281989148551
 20
18992.611467647632
 30
0.0
 11
9985.3185357563216
 21
17598.1922556594
 31
0.0
  0
LINE
  5
D00C
  8
0-1
  6
CONTINUOUS
 62
     3
 10
9060.9159301106829
 20
17216.776721804479
 30
0.0
 11
5071.6156041009763
 21
15570.761117499849
 31
0.0
  0
LINE
  5
D00D
  8
0-1
  6
CONTINUOUS
 62
     3
 10
5444.1166201009619
 20
13321.486885
 30
0.0
 11
5444.1166201009619
 21
15725.69568778989
 31
0.0
  0
LINE
  5
D00E
  8
0-1
  6
CONTINUOUS
 62
     3
 10
5308.6169891009758
 20
13289.48697799999
 30
0.0
 11
5308.6169891009758
 21
15669.78693976184
 31
0.0
  0
LINE
  5
D00F
  8
0-1
  6
CONTINUOUS
 62
     3
 10
5394.1169891009777
 20
13445.48689899998
 30
0.0
 11
5394.1169891009777
 21
15703.82763762592
 31
0.0
  0
LINE
  5
D010
  8
0-1
  6
CONTINUOUS
 62
     3
 10
5351.6157351009624
 20
13445.48689899998
 30
0.0
 11
5351.6157351009624
 21
15686.29129752376
 31
0.0
  0
LINE
  5
D011
  8
0-1
  6
CONTINUOUS
 62
     3
 10
5444.1166201009619
 20
15725.69568778989
 30
0.0
 11
5444.1166201009601
 21
19832.98622599999
 31
0.0
  0
LINE
  5
D012
  8
0-1
  6
CONTINUOUS
 62
     3
 10
5308.6169891009758
 20
15669.78693976184
 30
0.0
 11
5308.6169891009758
 21
19873.487175999991
 31
0.0
  0
LINE
  5
D013
  8
0-1
  6
CONTINUOUS
 62
     3
 10
5541.6168571009766
 20
15764.68720309355
 30
0.0
 11
5541.6168571009703
 21
19832.98622599999
 31
0.0
  0
LINE
  5
D014
  8
0-1
  6
CONTINUOUS
 62
     3
 10
5504.6147061009597
 20
15749.419834642569
 30
0.0
 11
5504.6147061009597
 21
19832.98622599999
 31
0.0
  0
LINE
  5
D015
  8
2-0
  6
DASHED3
 62
     6
 10
5394.1169891009777
 20
15703.82763762592
 30
0.0
 11
5394.1169891009777
 21
19832.98622599999
 31
0.0
  0
LINE
  5
D016
  8
2-0
  6
DASHED3
 62
     6
 10
5351.6157351009624
 20
15686.29129752376
 30
0.0
 11
5351.6157351009597
 21
19832.98622599999
 31
0.0
  0
LINE
  5
D017
  8
0-1
  6
CONTINUOUS
 62
     3
 10
10541.614878100951
 20
17827.724350334451
 30
0.0
 11
10541.614878100951
 21
19832.98622599999
 31
0.0
  0
LINE
  5
D018
  8
0-1
  6
CONTINUOUS
 62
     3
 10
10504.614706100951
 20
17812.45779843389
 30
0.0
 11
10504.614706100951
 21
19832.98622599999
 31
0.0
  0
LINE
  5
D019
  8
0-1
  6
CONTINUOUS
 62
     3
 10
10341.614218100951
 20
17745.202559461781
 30
0.0
 11
10341.614218100951
 21
19832.98622599999
 31
0.0
  0
LINE
  5
D01A
  8
0-1
  6
CONTINUOUS
 62
     3
 10
10304.61404610094
 20
17729.936007561209
 30
0.0
 11
10304.61404610094
 21
19832.98622599999
 31
0.0
  0
LINE
  5
D01B
  8
0-1
  6
CONTINUOUS
 62
     3
 10
10141.61355810092
 20
17662.6807685891
 30
0.0
 11
10141.61355810092
 21
19832.98622599999
 31
0.0
  0
LINE
  5
D01C
  8
0-1
  6
CONTINUOUS
 62
     3
 10
10104.61338610092
 20
17647.41421668855
 30
0.0
 11
10104.61338610092
 21
19832.98622599999
 31
0.0
  0
LINE
  5
D01D
  8
0-1
  6
CONTINUOUS
 62
     3
 10
9941.6128981009333
 20
17704.117688013212
 30
0.0
 11
9941.6128981009333
 21
19832.98622599999
 31
0.0
  0
LINE
  5
D01E
  8
0-1
  6
CONTINUOUS
 62
     3
 10
9904.6127261009242
 20
17793.791684927972
 30
0.0
 11
9904.6127261009242
 21
19832.98622599999
 31
0.0
  0
LINE
  5
D01F
  8
0-1
  6
CONTINUOUS
 62
     3
 10
9741.6122381009227
 20
17658.71409394763
 30
0.0
 11
9741.6122381009227
 21
19832.986225999961
 31
0.0
  0
LINE
  5
D020
  8
0-1
  6
CONTINUOUS
 62
     3
 10
9704.6120661009136
 20
17616.17085355876
 30
0.0
 11
9704.6120661009136
 21
19832.98622599999
 31
0.0
  0
LINE
  5
D021
  8
0-1
  6
CONTINUOUS
 62
     3
 10
9541.6115781009084
 20
17428.750942524639
 30
0.0
 11
9541.6115781009139
 21
19832.986225999961
 31
0.0
  0
LINE
  5
D022
  8
0-1
  6
CONTINUOUS
 62
     3
 10
9504.6114061008993
 20
17386.207702135762
 30
0.0
 11
9504.6114061008993
 21
19832.98622599999
 31
0.0
  0
LINE
  5
D023
  8
0-1
  6
CONTINUOUS
 62
     3
 10
9341.6109181009033
 20
17198.787791101659
 30
0.0
 11
9341.6109181009033
 21
19832.986225999961
 31
0.0
  0
LINE
  5
D024
  8
0-1
  6
CONTINUOUS
 62
     3
 10
9304.610746100896
 20
17156.244550712781
 30
0.0
 11
9304.610746100896
 21
19832.98622599999
 31
0.0
  0
LINE
  5
D025
  8
0-1
  6
CONTINUOUS
 62
     3
 10
9141.6102581008872
 20
17021.195778491841
 30
0.0
 11
9141.6102581008872
 21
19832.986225999961
 31
0.0
  0
LINE
  5
D026
  8
0-1
  6
CONTINUOUS
 62
     3
 10
9104.6100861008817
 20
17110.874058523721
 30
0.0
 11
9104.6100861008817
 21
19832.98622599999
 31
0.0
  0
LINE
  5
D027
  8
0-1
  6
CONTINUOUS
 62
     3
 10
8941.6095981008875
 20
17167.550023353091
 30
0.0
 11
8941.6095981008875
 21
19832.986225999961
 31
0.0
  0
LINE
  5
D028
  8
0-1
  6
CONTINUOUS
 62
     3
 10
8904.6094261008766
 20
17152.283471452531
 30
0.0
 11
8904.6094261008766
 21
19832.98622599999
 31
0.0
  0
LINE
  5
D029
  8
0-1
  6
CONTINUOUS
 62
     3
 10
8741.6089381008715
 20
17085.028232480421
 30
0.0
 11
8741.6089381008787
 21
19832.986225999961
 31
0.0
  0
LINE
  5
D02A
  8
0-1
  6
CONTINUOUS
 62
     3
 10
8704.6087661008642
 20
17069.76168057985
 30
0.0
 11
8704.6087661008642
 21
19832.98622599999
 31
0.0
  0
LINE
  5
D02B
  8
0-1
  6
CONTINUOUS
 62
     3
 10
8541.6082781008663
 20
17002.50644160774
 30
0.0
 11
8541.6082781008663
 21
19832.986225999961
 31
0.0
  0
LINE
  5
D02C
  8
0-1
  6
CONTINUOUS
 62
     3
 10
8504.6081061008572
 20
16987.239889707191
 30
0.0
 11
8504.6081061008572
 21
19832.98622599999
 31
0.0
  0
LINE
  5
D02D
  8
0-1
  6
CONTINUOUS
 62
     3
 10
8341.6076181008539
 20
16919.984650735081
 30
0.0
 11
8341.6076181008539
 21
19832.986225999961
 31
0.0
  0
LINE
  5
D02E
  8
0-1
  6
CONTINUOUS
 62
     3
 10
8304.6074461008466
 20
16904.71809883451
 30
0.0
 11
8304.6074461008538
 21
19832.98622599999
 31
0.0
  0
LINE
  5
D02F
  8
0-1
  6
CONTINUOUS
 62
     3
 10
8141.6069581008487
 20
16837.462859862411
 30
0.0
 11
8141.6069581008487
 21
19832.986225999961
 31
0.0
  0
LINE
  5
D030
  8
0-1
  6
CONTINUOUS
 62
     3
 10
8104.6067861008432
 20
16822.196307961851
 30
0.0
 11
8104.6067861008341
 21
19832.98622599999
 31
0.0
  0
LINE
  5
D031
  8
0-1
  6
CONTINUOUS
 62
     3
 10
7941.6062981008354
 20
16754.941068989741
 30
0.0
 11
7941.6062981008417
 21
19832.986225999961
 31
0.0
  0
LINE
  5
D032
  8
0-1
  6
CONTINUOUS
 62
     3
 10
7904.606126100829
 20
16739.67451708917
 30
0.0
 11
7904.606126100829
 21
19832.98622599999
 31
0.0
  0
LINE
  5
D033
  8
0-1
  6
CONTINUOUS
 62
     3
 10
7741.6056381008348
 20
16672.419278117071
 30
0.0
 11
7741.6056381008257
 21
19832.986225999961
 31
0.0
  0
LINE
  5
D034
  8
0-1
  6
CONTINUOUS
 62
     3
 10
7704.6054661008211
 20
16657.152726216511
 30
0.0
 11
7704.6054661008211
 21
19832.98622599999
 31
0.0
  0
LINE
  5
D035
  8
0-1
  6
CONTINUOUS
 62
     3
 10
7541.6049781008178
 20
16589.897487244391
 30
0.0
 11
7541.6049781008178
 21
19832.986225999961
 31
0.0
  0
LINE
  5
D036
  8
0-1
  6
CONTINUOUS
 62
     3
 10
7504.6048061008187
 20
16574.630935343819
 30
0.0
 11
7504.6048061008187
 21
19832.98622599999
 31
0.0
  0
LINE
  5
D037
  8
0-1
  6
CONTINUOUS
 62
     3
 10
7341.6043181008126
 20
16507.375696371731
 30
0.0
 11
7341.6043181008126
 21
19832.986225999961
 31
0.0
  0
LINE
  5
D038
  8
0-1
  6
CONTINUOUS
 62
     3
 10
7304.6041461008062
 20
16492.109144471171
 30
0.0
 11
7304.6041461008062
 21
19832.98622599999
 31
0.0
  0
LINE
  5
D039
  8
0-1
  6
CONTINUOUS
 62
     3
 10
7141.6036581008102
 20
16424.853905499062
 30
0.0
 11
7141.6036581008102
 21
19832.986225999961
 31
0.0
  0
LINE
  5
D03A
  8
0-1
  6
CONTINUOUS
 62
     3
 10
7104.6034861007938
 20
16409.58735359849
 30
0.0
 11
7104.6034861007938
 21
19832.98622599999
 31
0.0
  0
LINE
  5
D03B
  8
0-1
  6
CONTINUOUS
 62
     3
 10
6941.6029981007969
 20
16342.33211462639
 30
0.0
 11
6941.6029981007969
 21
19832.986225999961
 31
0.0
  0
LINE
  5
D03C
  8
0-1
  6
CONTINUOUS
 62
     3
 10
6904.6028261007887
 20
16327.06556272582
 30
0.0
 11
6904.6028261007887
 21
19832.98622599999
 31
0.0
  0
LINE
  5
D03D
  8
0-1
  6
CONTINUOUS
 62
     3
 10
6741.6023381007826
 20
16259.810323753711
 30
0.0
 11
6741.6023381007826
 21
19832.98622599999
 31
0.0
  0
LINE
  5
D03E
  8
0-1
  6
CONTINUOUS
 62
     3
 10
6704.6021661007844
 20
16244.54377185315
 30
0.0
 11
6704.6021661007826
 21
19832.98622599999
 31
0.0
  0
LINE
  5
D03F
  8
0-1
  6
CONTINUOUS
 62
     3
 10
6541.6016781007793
 20
16177.28853288105
 30
0.0
 11
6541.6016781007766
 21
19832.98622599999
 31
0.0
  0
LINE
  5
D040
  8
0-1
  6
CONTINUOUS
 62
     3
 10
6504.6015061007711
 20
16162.02198098048
 30
0.0
 11
6504.6015061007711
 21
19832.98622599999
 31
0.0
  0
LINE
  5
D041
  8
0-1
  6
CONTINUOUS
 62
     3
 10
6341.6010181007741
 20
16094.76674200838
 30
0.0
 11
6341.6010181007732
 21
19832.98622599999
 31
0.0
  0
LINE
  5
D042
  8
0-1
  6
CONTINUOUS
 62
     3
 10
6304.6008461007577
 20
16079.50019010781
 30
0.0
 11
6304.600846100765
 21
19832.98622599999
 31
0.0
  0
LINE
  5
D043
  8
0-1
  6
CONTINUOUS
 62
     3
 10
6141.6003581007599
 20
16012.244951135701
 30
0.0
 11
6141.6003581007599
 21
19832.986225999961
 31
0.0
  0
LINE
  5
D044
  8
0-1
  6
CONTINUOUS
 62
     3
 10
6104.6001861007526
 20
15996.978399235149
 30
0.0
 11
6104.6001861007526
 21
19832.98622599999
 31
0.0
  0
LINE
  5
D045
  8
0-1
  6
CONTINUOUS
 62
     3
 10
5941.5996981007493
 20
15929.72316026304
 30
0.0
 11
5941.5996981007474
 21
19832.986225999961
 31
0.0
  0
LINE
  5
D046
  8
0-1
  6
CONTINUOUS
 62
     3
 10
5904.5995261007483
 20
15914.45660836246
 30
0.0
 11
5904.5995261007483
 21
19832.98622599999
 31
0.0
  0
LINE
  5
D047
  8
0-1
  6
CONTINUOUS
 62
     3
 10
5741.5990381007432
 20
15847.201369390359
 30
0.0
 11
5741.5990381007423
 21
19832.986225999961
 31
0.0
  0
LINE
  5
D048
  8
0-1
  6
CONTINUOUS
 62
     3
 10
5704.5988661007341
 20
15831.9348174898
 30
0.0
 11
5704.5988661007341
 21
19832.98622599999
 31
0.0
  0
LINE
  5
D049
  8
0-1
  6
CONTINUOUS
 62
     3
 10
10334.61662010096
 20
13481.986252000001
 30
0.0
 11
8085.6166201009619
 21
16750.486251999992
 31
0.0
  0
LINE
  5
D04A
  8
2-0
  6
DASHED3
 62
     6
 10
6181.3132488136034
 20
16028.63079137424
 30
0.0
 11
5684.6166201009619
 21
16750.486251999992
 31
0.0
  0
LINE
  5
D04B
  8
0-1
  6
CONTINUOUS
 62
     3
 10
8085.6166201009619
 20
13481.986252000001
 30
0.0
 11
10334.61662010096
 21
16750.486251999992
 31
0.0
  0
LINE
  5
D04C
  8
2-0
  6
DASHED3
 62
     6
 10
10334.61662010096
 20
19668.486251999992
 30
0.0
 11
8158.1674338076991
 21
16844.29583787877
 31
0.0
  0
LINE
  5
D04D
  8
2-0
  6
DASHED3
 62
     6
 10
8085.6166201009619
 20
19668.486251999992
 30
0.0
 11
9683.7032531441946
 21
17592.129650294501
 31
0.0
  0
LINE
  5
D04E
  8
0-1
  6
CONTINUOUS
 62
     3
 10
9683.7032531441946
 20
17592.129650294501
 30
0.0
 11
10334.61662010096
 21
16750.486251999992
 31
0.0
  0
LINE
  5
D04F
  8
0-1
  6
CONTINUOUS
 62
     3
 10
9985.3190735161024
 20
17598.190952339261
 30
0.0
 11
9889.9650531925763
 21
17829.291935445479
 31
0.0
  0
LINE
  5
D050
  8
0-1
  6
CONTINUOUS
 62
     3
 10
9156.2655210093562
 20
16985.675436287849
 30
0.0
 11
9060.9148713318446
 21
17216.77928799433
 31
0.0
  0
LINE
  5
D051
  8
0-1
  6
CONTINUOUS
 62
     3
 10
9156.2655210093562
 20
16985.675436287849
 30
0.0
 11
9889.9650531925763
 21
17829.291935445479
 31
0.0
  0
LINE
  5
D052
  8
0-1
  6
CONTINUOUS
 62
     3
 10
8085.6166201009619
 20
16750.486251999992
 30
0.0
 11
8158.1674338076991
 21
16844.29583787877
 31
0.0
  0
LINE
  5
D053
  8
2-0
  6
DASHED3
 62
     6
 10
7933.6166201009628
 20
19668.486251999992
 30
0.0
 11
5684.6166201009619
 21
16750.486251999992
 31
0.0
  0
LINE
  5
D054
  8
2-0
  6
DASHED3
 62
     6
 10
5684.6166201009619
 20
19668.486251999992
 30
0.0
 11
7933.6166201009628
 21
16750.486251999992
 31
0.0
  0
LINE
  5
D055
  8
0-1
  6
CONTINUOUS
 62
     3
 10
7933.6166201009628
 20
13481.986252000001
 30
0.0
 11
6181.3132488136034
 21
16028.63079137424
 31
0.0
  0
LINE
  5
D056
  8
0-1
  6
CONTINUOUS
 62
     3
 10
5684.6166201009619
 20
13481.986252000001
 30
0.0
 11
7933.6166201009628
 21
16750.486251999992
 31
0.0
  0
LINE
  5
D057
  8
SUNPOU
  6
CONTINUOUS
 10
13891.11676510096
 20
19890.984140500001
 30
0.0
 11
13891.11676510096
 21
20687.951408278459
 31
0.0
  0
LINE
  5
D058
  8
SUNPOU
  6
CONTINUOUS
 10
13891.11676510096
 20
12548.17438784781
 30
0.0
 11
13891.11676510096
 21
13289.48697799999
 31
0.0
  0
LINE
  5
D059
  8
0-1
  6
CONTINUOUS
 62
     3
 10
12341.615867100951
 20
18573.756959211689
 30
0.0
 11
12341.615867100951
 21
19832.986225999961
 31
0.0
  0
LINE
  5
D05A
  8
0-1
  6
CONTINUOUS
 62
     3
 10
12304.61470610096
 20
18558.43757392788
 30
0.0
 11
12304.61470610096
 21
19832.986225999961
 31
0.0
  0
LINE
  5
D05B
  8
0-1
  6
CONTINUOUS
 62
     3
 10
5385.1165141009687
 20
19880.989550999981
 30
0.0
 11
12970.61746410096
 21
19880.989550999991
 31
0.0
  0
LINE
  5
D05C
  8
0-1
  6
CONTINUOUS
 62
     3
 10
5329.6167511009708
 20
19832.98622599999
 30
0.0
 11
13026.11821610096
 21
19832.98622599999
 31
0.0
  0
LINE
  5
D05D
  8
0-6
  6
CONTINUOUS
 62
     6
 10
9283.0434574719475
 20
20023.392158999992
 30
0.0
 11
9239.7414884719237
 21
19998.390838999981
 31
0.0
  0
LINE
  5
D05E
  8
0-6
  6
CONTINUOUS
 62
     6
 10
9283.0434574719475
 20
20023.392158999992
 30
0.0
 11
9336.391483471949
 21
19880.989550999981
 31
0.0
  0
LINE
  5
D05F
  8
0-6
  6
CONTINUOUS
 62
     6
 10
9239.7414884719237
 20
19998.390838999981
 30
0.0
 11
9283.0434574719475
 21
20023.392158999992
 31
0.0
  0
LINE
  5
D060
  8
0-6
  6
CONTINUOUS
 62
     6
 10
9336.391483471949
 20
19880.989550999981
 30
0.0
 11
9239.7414884719237
 21
19998.390838999981
 31
0.0
  0
LINE
  5
D061
  8
0-6
  6
CONTINUOUS
 62
     6
 10
9336.391483471949
 20
19880.989550999981
 30
0.0
 11
9283.0434574719475
 21
20023.392158999992
 31
0.0
  0
LINE
  5
D062
  8
0-6
  6
CONTINUOUS
 62
     6
 10
9239.7414884719237
 20
19998.390838999981
 30
0.0
 11
9336.391483471949
 21
19880.989550999981
 31
0.0
  0
LINE
  5
D063
  8
0-6
  6
CONTINUOUS
 62
     6
 10
9261.3934624719477
 20
20010.893478999991
 30
0.0
 11
9035.8076458022551
 21
20434.5633187311
 31
0.0
  0
TEXT
  5
D064
  8
0-6
  6
CONTINUOUS
 62
     7
 10
8862.1364424719504
 20
20990.988758999982
 30
0.0
 40
160.0
  1
鼻隠し後
 72
     4
 11
9224.8031091386165
 21
21070.988758999982
 31
0.0
  0
LINE
  5
D065
  8
0-6
  6
CONTINUOUS
 62
     6
 10
8782.1341984719493
 20
20910.988494999991
 30
0.0
 11
9624.573757471946
 21
20910.988494999991
 31
0.0
  0
LINE
  5
D066
  8
0-6
  6
CONTINUOUS
 62
     6
 10
8967.7737867497362
 20
20562.3379976834
 30
0.0
 11
8782.1341984719493
 21
20910.988494999991
 31
0.0
  0
LINE
  5
D067
  8
0-6
  6
CONTINUOUS
 62
     6
 10
12652.63327665185
 20
19693.987743000002
 30
0.0
 11
12545.938214651829
 21
19816.163629999981
 31
0.0
  0
LINE
  5
D068
  8
0-6
  6
CONTINUOUS
 62
     6
 10
12591.32758665184
 20
19844.163919999992
 30
0.0
 11
12652.63327665185
 21
19693.987743000002
 31
0.0
  0
LINE
  5
D069
  8
0-6
  6
CONTINUOUS
 62
     6
 10
12591.32758665184
 20
19844.163919999992
 30
0.0
 11
12545.938214651829
 21
19816.163629999981
 31
0.0
  0
LINE
  5
D06A
  8
0-6
  6
CONTINUOUS
 62
     6
 10
12652.63327665185
 20
19693.987743000002
 30
0.0
 11
12358.705449651839
 21
20100.485842999991
 31
0.0
  0
LINE
  5
D06B
  8
0-6
  6
CONTINUOUS
 62
     6
 10
11558.703800651831
 20
20100.485842999991
 30
0.0
 11
12358.705449651839
 21
20100.485842999991
 31
0.0
  0
TEXT
  5
D06C
  8
0-6
  6
CONTINUOUS
 62
     7
 10
11638.70505465186
 20
20180.486106999979
 30
0.0
 40
160.0
  1
桁（後）
 72
     4
 11
11958.70505465186
 21
20260.486106999979
 31
0.0
  0
LINE
  5
D06D
  8
0-6
  6
CONTINUOUS
 62
     6
 10
1568.4499786769611
 20
13369.21680413891
 30
0.0
 11
4209.694445585731
 21
13369.21680413891
 31
0.0
  0
TEXT
  5
D06E
  8
0-6
  6
CONTINUOUS
 62
     7
 10
1640.0483470269701
 20
13449.217068138911
 30
0.0
 40
160.0
  1
桁前（PU）+ 桁補強（PU）
 72
     4
 11
2888.0483470269701
 21
13529.217068138911
 31
0.0
  0
LINE
  5
D06F
  8
0-6
  6
CONTINUOUS
 62
     6
 10
4209.694445585731
 20
13369.21680413891
 30
0.0
 11
5655.0658762078074
 21
12943.2869147776
 31
0.0
  0
LINE
  5
D070
  8
0-6
  6
CONTINUOUS
 62
     6
 10
5655.0658762078074
 20
12943.2869147776
 30
0.0
 11
6032.0083397033513
 21
13445.48689899994
 31
0.0
  0
LINE
  5
D071
  8
0-6
  6
CONTINUOUS
 62
     6
 10
1759.7976668322319
 20
16674.216157138912
 30
0.0
 11
4240.108970273528
 21
16674.216157138912
 31
0.0
  0
TEXT
  5
D072
  8
0-6
  6
CONTINUOUS
 62
     7
 10
1852.3078808179209
 20
16754.21642113891
 30
0.0
 40
160.0
  1
桁（PU）+ 桁補強（PU）
 72
     4
 11
3004.3078808179212
 21
16834.21642113891
 31
0.0
  0
LINE
  5
D073
  8
0-6
  6
CONTINUOUS
 62
     6
 10
4240.1089702735298
 20
16674.216157138912
 30
0.0
 11
5685.4804008956071
 21
16248.28626777761
 31
0.0
  0
LINE
  5
D074
  8
0-6
  6
CONTINUOUS
 62
     6
 10
5685.4804008956071
 20
16248.28626777761
 30
0.0
 11
6062.4228643911474
 21
16750.486251999941
 31
0.0
  0
LINE
  5
D075
  8
0-6
  6
CONTINUOUS
 62
     6
 10
1759.7976668322319
 20
19553.217661138911
 30
0.0
 11
4240.108970273528
 21
19553.217661138911
 31
0.0
  0
TEXT
  5
D076
  8
0-6
  6
CONTINUOUS
 62
     7
 10
1852.3078808179209
 20
19633.217925138899
 30
0.0
 40
160.0
  1
桁（PU）+ 桁補強（PU）
 72
     4
 11
3004.3078808179212
 21
19713.217925138899
 31
0.0
  0
LINE
  5
D077
  8
0-6
  6
CONTINUOUS
 62
     6
 10
4240.1089702735298
 20
19553.217661138911
 30
0.0
 11
5685.4804008956071
 21
19127.287771777599
 31
0.0
  0
LINE
  5
D078
  8
0-6
  6
CONTINUOUS
 62
     6
 10
5685.4804008956071
 20
19127.287771777599
 30
0.0
 11
6062.4228643911474
 21
19629.48775599994
 31
0.0
  0
LINE
  5
D079
  8
0-1
  6
CONTINUOUS
 62
     3
 10
12541.61652610095
 20
18656.562121791161
 30
0.0
 11
12541.61652610095
 21
19832.98622599999
 31
0.0
  0
LINE
  5
D07A
  8
0-1
  6
CONTINUOUS
 62
     3
 10
12504.617345100951
 20
18641.243556275789
 30
0.0
 11
12504.617345100951
 21
19832.98622599999
 31
0.0
  0
LINE
  5
D07B
  8
0-1
  6
CONTINUOUS
 62
     3
 10
12741.616196100929
 20
18739.36687490049
 30
0.0
 11
12741.616196100929
 21
19832.986225999961
 31
0.0
  0
LINE
  5
D07C
  8
0-1
  6
CONTINUOUS
 62
     3
 10
12704.61503510094
 20
18724.047489616682
 30
0.0
 11
12704.61503510094
 21
19832.986225999961
 31
0.0
  0
LINE
  5
D07F
  8
WAKUSEN-01
 10
868.00000000000193
 20
22484.000000000011
 30
0.0
 11
32764.000000000011
 21
22484.000000000011
 31
0.0
  0
LINE
  5
D082
  8
WAKUSEN-01
 10
20560.0
 20
2484.0
 30
0.0
 11
32764.0
 21
2484.0
 31
0.0
  0
LINE
  5
D083
  8
WAKUSEN-02
 10
20560.0
 20
1655.9999999999991
 30
0.0
 11
26868.0
 21
1655.9999999999991
 31
0.0
  0
TEXT
  5
D084
  8
WAKUMOJI-01
 10
20670.260259962761
 20
2125.9030093393221
 30
0.0
 40
240.0
  1
名　称
  7
WAKUMOJI
  0
TEXT
  5
D085
  8
WAKUMOJI-01
 10
20656.505485091919
 20
1319.12897497982
 30
0.0
 40
240.0
  1
機種名
  7
WAKUMOJI
  0
LINE
  5
D088
  8
YODOROGO
 10
29977.604341291921
 20
1995.7494964292871
 30
0.0
 11
29829.604341291921
 21
1995.7494964292871
 31
0.0
1001
AUTOCAD_POSTSCRIPT_FIGURE
1002
{
1000
PSFILL
1000
Grayscale
1000
Grayscale
1070
    25
1002
}
  0
LINE
  5
D089
  8
YODOROGO
 10
29829.604341291921
 20
1947.749496429288
 30
0.0
 11
29977.604341291921
 21
1947.749496429288
 31
0.0
1001
AUTOCAD_POSTSCRIPT_FIGURE
1002
{
1000
PSFILL
1000
Grayscale
1000
Grayscale
1070
    25
1002
}
  0
LINE
  5
D08A
  8
YODOROGO
 10
29977.604341291921
 20
1907.7494964292871
 30
0.0
 11
29829.604341291921
 21
1907.7494964292871
 31
0.0
1001
AUTOCAD_POSTSCRIPT_FIGURE
1002
{
1000
PSFILL
1000
Grayscale
1000
Grayscale
1070
    25
1002
}
  0
LINE
  5
D08B
  8
YODOROGO
 10
29829.604341291921
 20
1859.749496429288
 30
0.0
 11
29977.604341291921
 21
1859.749496429288
 31
0.0
1001
AUTOCAD_POSTSCRIPT_FIGURE
1002
{
1000
PSFILL
1000
Grayscale
1000
Grayscale
1070
    25
1002
}
  0
LINE
  5
D08C
  8
YODOROGO
 10
29977.604341291921
 20
1819.7494964292871
 30
0.0
 11
29829.604341291921
 21
1819.7494964292871
 31
0.0
1001
AUTOCAD_POSTSCRIPT_FIGURE
1002
{
1000
PSFILL
1000
Grayscale
1000
Grayscale
1070
    25
1002
}
  0
LINE
  5
D08D
  8
YODOROGO
 10
29921.60434129191
 20
1707.749496429288
 30
0.0
 11
29977.604341291921
 21
1707.749496429288
 31
0.0
1001
AUTOCAD_POSTSCRIPT_FIGURE
1002
{
1000
PSFILL
1000
Grayscale
1000
Grayscale
1070
    25
1002
}
  0
LINE
  5
D08E
  8
YODOROGO
 10
29737.604341291921
 20
1427.749496429288
 30
0.0
 11
29937.604341291932
 21
1481.3393349155101
 31
0.0
  0
LINE
  5
D08F
  8
YODOROGO
 10
29949.60434129191
 20
1707.749496429288
 30
0.0
 11
29885.604341291921
 21
1707.749496429288
 31
0.0
  0
ARC
  5
D090
  8
YODOROGO
 10
30254.34774982791
 20
1807.864609233261
 30
0.0
 40
381.88686420564721
 50
213.96111677667841
 51
264.47872074317792
  0
ARC
  5
D091
  8
YODOROGO
 10
30254.347749827921
 20
1807.864609233302
 30
0.0
 40
381.8868642056816
 50
208.14114420486601
 51
212.9210361185994
  0
LINE
  5
D092
  8
YODOROGO
 10
29771.409872985321
 20
1556.807661346234
 30
0.0
 11
29933.78413250855
 21
1600.3157130570869
 31
0.0
  0
LINE
  5
D093
  8
YODOROGO
 10
29737.604341291921
 20
1427.749496429288
 30
0.0
 11
29937.604341291932
 21
1481.3393349155101
 31
0.0
  0
LINE
  5
D094
  8
YODOROGO
 10
29949.60434129191
 20
1707.749496429288
 30
0.0
 11
29885.604341291921
 21
1707.749496429288
 31
0.0
  0
ARC
  5
D095
  8
YODOROGO
 10
30254.34774982791
 20
1807.864609233261
 30
0.0
 40
381.88686420564721
 50
213.96111677667841
 51
264.47872074317792
  0
LINE
  5
D096
  8
YODOROGO
 10
28793.60434129191
 20
1819.7494964292871
 30
0.0
 11
28433.60434129191
 21
1819.7494964292871
 31
0.0
  0
LINE
  5
D097
  8
YODOROGO
 10
28513.60434129191
 20
1427.749496429288
 30
0.0
 11
28793.60434129191
 21
1427.749496429288
 31
0.0
  0
LINE
  5
D098
  8
YODOROGO
 10
28729.604341291921
 20
1923.7494964292871
 30
0.0
 11
28497.60434129191
 21
1923.7494964292871
 31
0.0
  0
LINE
  5
D099
  8
YODOROGO
 10
28585.604341291921
 20
2027.749496429288
 30
0.0
 11
28657.604341291921
 21
2027.749496429288
 31
0.0
  0
LINE
  5
D09A
  8
YODOROGO
 10
28433.60434129191
 20
1707.749496429288
 30
0.0
 11
28433.60434129191
 21
1507.749496429288
 31
0.0
  0
LINE
  5
D09B
  8
YODOROGO
 10
28497.60434129191
 20
1563.7494964292871
 30
0.0
 11
28497.60434129191
 21
1707.749496429288
 31
0.0
  0
LINE
  5
D09C
  8
YODOROGO
 10
28585.604341291921
 20
1747.74949642929
 30
0.0
 11
28585.604341291921
 21
1547.749496429288
 31
0.0
  0
LINE
  5
D09D
  8
YODOROGO
 10
27857.604341291921
 20
1683.749496429288
 30
0.0
 11
27777.604341291921
 21
1619.9724140445701
 31
0.0
  0
LINE
  5
D09E
  8
YODOROGO
 10
27937.604341291921
 20
1619.9724140445701
 30
0.0
 11
27857.604341291921
 21
1683.749496429288
 31
0.0
  0
LINE
  5
D09F
  8
YODOROGO
 10
27857.604341291921
 20
1707.749496429288
 30
0.0
 11
27937.604341291921
 21
1643.9724140445701
 31
0.0
  0
LINE
  5
D0A0
  8
YODOROGO
 10
27777.604341291921
 20
1643.9724140445701
 30
0.0
 11
27857.604341291921
 21
1707.749496429288
 31
0.0
  0
LINE
  5
D0A1
  8
YODOROGO
 10
28040.913204016892
 20
1659.749496429288
 30
0.0
 11
28040.913204016892
 21
1683.7494964292871
 31
0.0
  0
LINE
  5
D0A2
  8
YODOROGO
 10
27977.604341291921
 20
1683.7494964292871
 30
0.0
 11
27977.604341291921
 21
1667.749496429285
 31
0.0
  0
LINE
  5
D0A3
  8
YODOROGO
 10
28098.135520230931
 20
1707.749496429288
 30
0.0
 11
28098.135520230931
 21
1655.5036372746561
 31
0.0
1001
AUTOCAD_POSTSCRIPT_FIGURE
1002
{
1000
PSFILL
1000
Grayscale
1000
Grayscale
1070
   100
1002
}
  0
LINE
  5
D0A4
  8
YODOROGO
 10
28082.135520230921
 20
1655.5036372746561
 30
0.0
 11
28082.135520230921
 21
1707.749496429288
 31
0.0
1001
AUTOCAD_POSTSCRIPT_FIGURE
1002
{
1000
PSFILL
1000
Grayscale
1000
Grayscale
1070
   100
1002
}
  0
LINE
  5
D0A5
  8
YODOROGO
 10
27809.604341291921
 20
1608.771904043258
 30
0.0
 11
27809.604341291921
 21
1632.771904043258
 31
0.0
  0
LINE
  5
D0A6
  8
YODOROGO
 10
27905.604341291921
 20
1608.771904043258
 30
0.0
 11
27809.604341291921
 21
1608.771904043258
 31
0.0
  0
LINE
  5
D0A7
  8
YODOROGO
 10
27905.604341291921
 20
1632.771904043258
 30
0.0
 11
27905.604341291921
 21
1608.771904043258
 31
0.0
  0
LINE
  5
D0A8
  8
YODOROGO
 10
27809.604341291921
 20
1632.771904043258
 30
0.0
 11
27905.604341291921
 21
1632.771904043258
 31
0.0
  0
LINE
  5
D0A9
  8
YODOROGO
 10
27824.509588915738
 20
1568.5028573704751
 30
0.0
 11
27785.604341291921
 21
1475.7494964292871
 31
0.0
1001
AUTOCAD_POSTSCRIPT_FIGURE
1002
{
1000
PSFILL
1000
Grayscale
1000
Grayscale
1070
   100
1002
}
  0
LINE
  5
D0AA
  8
YODOROGO
 10
27777.604341291921
 20
1568.5028573704751
 30
0.0
 11
27824.509588915738
 21
1568.5028573704751
 31
0.0
1001
AUTOCAD_POSTSCRIPT_FIGURE
1002
{
1000
PSFILL
1000
Grayscale
1000
Grayscale
1070
   100
1002
}
  0
LINE
  5
D0AB
  8
YODOROGO
 10
27777.604341291921
 20
1588.5028573704751
 30
0.0
 11
27777.604341291921
 21
1568.5028573704751
 31
0.0
1001
AUTOCAD_POSTSCRIPT_FIGURE
1002
{
1000
PSFILL
1000
Grayscale
1000
Grayscale
1070
   100
1002
}
  0
LINE
  5
D0AC
  8
YODOROGO
 10
27937.604341291921
 20
1588.5028573704751
 30
0.0
 11
27777.604341291921
 21
1588.5028573704751
 31
0.0
1001
AUTOCAD_POSTSCRIPT_FIGURE
1002
{
1000
PSFILL
1000
Grayscale
1000
Grayscale
1070
   100
1002
}
  0
LINE
  5
D0AD
  8
YODOROGO
 10
27937.604341291921
 20
1568.5028573704751
 30
0.0
 11
27937.604341291921
 21
1588.5028573704751
 31
0.0
1001
AUTOCAD_POSTSCRIPT_FIGURE
1002
{
1000
PSFILL
1000
Grayscale
1000
Grayscale
1070
   100
1002
}
  0
LINE
  5
D0AE
  8
YODOROGO
 10
27844.509588915738
 20
1568.5028573704751
 30
0.0
 11
27937.604341291921
 21
1568.5028573704751
 31
0.0
1001
AUTOCAD_POSTSCRIPT_FIGURE
1002
{
1000
PSFILL
1000
Grayscale
1000
Grayscale
1070
   100
1002
}
  0
LINE
  5
D0AF
  8
YODOROGO
 10
27815.546718284771
 20
1495.7494964292871
 30
0.0
 11
27844.509588915738
 21
1568.5028573704751
 31
0.0
1001
AUTOCAD_POSTSCRIPT_FIGURE
1002
{
1000
PSFILL
1000
Grayscale
1000
Grayscale
1070
   100
1002
}
  0
LINE
  5
D0B0
  8
YODOROGO
 10
27902.054790808648
 20
1495.7494964292871
 30
0.0
 11
27815.546718284771
 21
1495.7494964292871
 31
0.0
1001
AUTOCAD_POSTSCRIPT_FIGURE
1002
{
1000
PSFILL
1000
Grayscale
1000
Grayscale
1070
   100
1002
}
  0
LINE
  5
D0B1
  8
YODOROGO
 10
27885.065004790951
 20
1536.2338106976929
 30
0.0
 11
27902.054790808648
 21
1495.7494964292871
 31
0.0
1001
AUTOCAD_POSTSCRIPT_FIGURE
1002
{
1000
PSFILL
1000
Grayscale
1000
Grayscale
1070
   100
1002
}
  0
LINE
  5
D0B2
  8
YODOROGO
 10
27901.065004790951
 20
1536.2338106976929
 30
0.0
 11
27885.065004790951
 21
1536.2338106976929
 31
0.0
1001
AUTOCAD_POSTSCRIPT_FIGURE
1002
{
1000
PSFILL
1000
Grayscale
1000
Grayscale
1070
   100
1002
}
  0
LINE
  5
D0B3
  8
YODOROGO
 10
27929.604341291921
 20
1475.7494964292871
 30
0.0
 11
27901.065004790951
 21
1536.2338106976929
 31
0.0
1001
AUTOCAD_POSTSCRIPT_FIGURE
1002
{
1000
PSFILL
1000
Grayscale
1000
Grayscale
1070
   100
1002
}
  0
LINE
  5
D0B4
  8
YODOROGO
 10
27785.604341291921
 20
1475.7494964292871
 30
0.0
 11
27929.604341291921
 21
1475.7494964292871
 31
0.0
1001
AUTOCAD_POSTSCRIPT_FIGURE
1002
{
1000
PSFILL
1000
Grayscale
1000
Grayscale
1070
   100
1002
}
  0
LINE
  5
D0B5
  8
YODOROGO
 10
27777.604341291921
 20
1619.9724140445701
 30
0.0
 11
27777.604341291921
 21
1643.9724140445701
 31
0.0
  0
LINE
  5
D0B6
  8
YODOROGO
 10
27937.604341291921
 20
1643.9724140445701
 30
0.0
 11
27937.604341291921
 21
1619.9724140445701
 31
0.0
  0
ARC
  5
D0B7
  8
YODOROGO
 10
28225.940442146959
 20
1600.877765325326
 30
0.0
 40
175.9999999999998
 50
280.3644312771313
 51
3.5414836592180561
  0
ARC
  5
D0B8
  8
YODOROGO
 10
28235.756030759301
 20
1633.5978069619041
 30
0.0
 40
111.9999999999982
 50
281.24905825041549
 51
348.75094174958321
  0
LINE
  5
D0B9
  8
YODOROGO
 10
28257.604341291921
 20
1523.7494964292871
 30
0.0
 11
28257.604341291921
 21
1427.749496429288
 31
0.0
  0
LINE
  5
D0BA
  8
YODOROGO
 10
28020.088903736909
 20
1610.650565061914
 30
0.0
 11
28040.913204016892
 21
1659.749496429288
 31
0.0
  0
LINE
  5
D0BB
  8
YODOROGO
 10
28041.604341291921
 20
1583.120489948401
 30
0.0
 11
28020.088903736909
 21
1610.650565061914
 31
0.0
  0
LINE
  5
D0BC
  8
YODOROGO
 10
28041.604341291921
 20
1563.120489948398
 30
0.0
 11
28041.604341291921
 21
1583.120489948401
 31
0.0
  0
LINE
  5
D0BD
  8
YODOROGO
 10
28017.604341291921
 20
1585.2370637495301
 30
0.0
 11
28041.604341291921
 21
1563.120489948398
 31
0.0
  0
LINE
  5
D0BE
  8
YODOROGO
 10
28017.604341291921
 20
1475.7494964292871
 30
0.0
 11
28017.604341291921
 21
1585.2370637495301
 31
0.0
  0
LINE
  5
D0BF
  8
YODOROGO
 10
28001.604341291921
 20
1475.7494964292871
 30
0.0
 11
28017.604341291921
 21
1475.7494964292871
 31
0.0
  0
LINE
  5
D0C0
  8
YODOROGO
 10
28001.604341291921
 20
1580.0053496897469
 30
0.0
 11
28001.604341291921
 21
1475.7494964292871
 31
0.0
  0
LINE
  5
D0C1
  8
YODOROGO
 10
27977.604341291921
 20
1532.7680790334291
 30
0.0
 11
28001.604341291921
 21
1580.0053496897469
 31
0.0
  0
LINE
  5
D0C2
  8
YODOROGO
 10
27977.604341291921
 20
1556.76807903343
 30
0.0
 11
27977.604341291921
 21
1532.7680790334291
 31
0.0
  0
LINE
  5
D0C3
  8
YODOROGO
 10
28025.828774291349
 20
1667.749496429285
 30
0.0
 11
27977.604341291921
 21
1556.76807903343
 31
0.0
  0
LINE
  5
D0C4
  8
YODOROGO
 10
27977.604341291921
 20
1667.749496429285
 30
0.0
 11
28025.828774291349
 21
1667.749496429285
 31
0.0
  0
LINE
  5
D0C5
  8
YODOROGO
 10
28050.135520230899
 20
1655.5036372746561
 30
0.0
 11
28082.135520230921
 21
1655.5036372746561
 31
0.0
1001
AUTOCAD_POSTSCRIPT_FIGURE
1002
{
1000
PSFILL
1000
Grayscale
1000
Grayscale
1070
   100
1002
}
  0
LINE
  5
D0C6
  8
YODOROGO
 10
28050.135520230899
 20
1631.5036372746561
 30
0.0
 11
28050.135520230899
 21
1655.5036372746561
 31
0.0
1001
AUTOCAD_POSTSCRIPT_FIGURE
1002
{
1000
PSFILL
1000
Grayscale
1000
Grayscale
1070
   100
1002
}
  0
LINE
  5
D0C7
  8
YODOROGO
 10
28082.135520230921
 20
1631.5036372746561
 30
0.0
 11
28050.135520230899
 21
1631.5036372746561
 31
0.0
1001
AUTOCAD_POSTSCRIPT_FIGURE
1002
{
1000
PSFILL
1000
Grayscale
1000
Grayscale
1070
   100
1002
}
  0
LINE
  5
D0C8
  8
YODOROGO
 10
28082.135520230921
 20
1499.749496429288
 30
0.0
 11
28082.135520230921
 21
1631.5036372746561
 31
0.0
1001
AUTOCAD_POSTSCRIPT_FIGURE
1002
{
1000
PSFILL
1000
Grayscale
1000
Grayscale
1070
   100
1002
}
  0
LINE
  5
D0C9
  8
YODOROGO
 10
28050.135520230921
 20
1499.749496429288
 30
0.0
 11
28082.135520230921
 21
1499.749496429288
 31
0.0
1001
AUTOCAD_POSTSCRIPT_FIGURE
1002
{
1000
PSFILL
1000
Grayscale
1000
Grayscale
1070
   100
1002
}
  0
LINE
  5
D0CA
  8
YODOROGO
 10
28050.135520230921
 20
1475.7494964292871
 30
0.0
 11
28050.135520230921
 21
1499.749496429288
 31
0.0
1001
AUTOCAD_POSTSCRIPT_FIGURE
1002
{
1000
PSFILL
1000
Grayscale
1000
Grayscale
1070
   100
1002
}
  0
LINE
  5
D0CB
  8
YODOROGO
 10
28137.604341291921
 20
1475.7494964292871
 30
0.0
 11
28050.135520230921
 21
1475.7494964292871
 31
0.0
1001
AUTOCAD_POSTSCRIPT_FIGURE
1002
{
1000
PSFILL
1000
Grayscale
1000
Grayscale
1070
   100
1002
}
  0
LINE
  5
D0CC
  8
YODOROGO
 10
28137.604341291921
 20
1499.749496429288
 30
0.0
 11
28137.604341291921
 21
1475.7494964292871
 31
0.0
1001
AUTOCAD_POSTSCRIPT_FIGURE
1002
{
1000
PSFILL
1000
Grayscale
1000
Grayscale
1070
   100
1002
}
  0
LINE
  5
D0CD
  8
YODOROGO
 10
28098.135520230931
 20
1499.749496429288
 30
0.0
 11
28137.604341291921
 21
1499.749496429288
 31
0.0
1001
AUTOCAD_POSTSCRIPT_FIGURE
1002
{
1000
PSFILL
1000
Grayscale
1000
Grayscale
1070
   100
1002
}
  0
LINE
  5
D0CE
  8
YODOROGO
 10
28098.135520230931
 20
1631.5036372746561
 30
0.0
 11
28098.135520230931
 21
1499.749496429288
 31
0.0
1001
AUTOCAD_POSTSCRIPT_FIGURE
1002
{
1000
PSFILL
1000
Grayscale
1000
Grayscale
1070
   100
1002
}
  0
LINE
  5
D0CF
  8
YODOROGO
 10
28137.604341291921
 20
1631.5036372746561
 30
0.0
 11
28098.135520230931
 21
1631.5036372746561
 31
0.0
1001
AUTOCAD_POSTSCRIPT_FIGURE
1002
{
1000
PSFILL
1000
Grayscale
1000
Grayscale
1070
   100
1002
}
  0
LINE
  5
D0D0
  8
YODOROGO
 10
28137.604341291921
 20
1655.5036372746561
 30
0.0
 11
28137.604341291921
 21
1631.5036372746561
 31
0.0
1001
AUTOCAD_POSTSCRIPT_FIGURE
1002
{
1000
PSFILL
1000
Grayscale
1000
Grayscale
1070
   100
1002
}
  0
LINE
  5
D0D1
  8
YODOROGO
 10
28098.135520230931
 20
1655.5036372746561
 30
0.0
 11
28137.604341291921
 21
1655.5036372746561
 31
0.0
1001
AUTOCAD_POSTSCRIPT_FIGURE
1002
{
1000
PSFILL
1000
Grayscale
1000
Grayscale
1070
   100
1002
}
  0
LINE
  5
D0D2
  8
YODOROGO
 10
28401.60434129191
 20
1667.749496429288
 30
0.0
 11
28345.604341291921
 21
1667.749496429288
 31
0.0
  0
LINE
  5
D0D3
  8
YODOROGO
 10
28401.60434129191
 20
1611.749496429288
 30
0.0
 11
28401.60434129191
 21
1667.749496429288
 31
0.0
  0
LINE
  5
D0D4
  8
YODOROGO
 10
28345.604341291921
 20
1667.749496429288
 30
0.0
 11
28345.604341291921
 21
1611.749496429288
 31
0.0
  0
ARC
  5
D0D5
  8
YODOROGO
 10
28513.60434129191
 20
1507.749496429288
 30
0.0
 40
80.0
 50
180.0
 51
270.0
  0
ARC
  5
D0D6
  8
YODOROGO
 10
28537.604341291921
 20
1563.7494964292871
 30
0.0
 40
40.0
 50
180.0
 51
270.0
  0
LINE
  5
D0D7
  8
YODOROGO
 10
28561.604341291932
 20
1523.7494964292871
 30
0.0
 11
28537.604341291921
 21
1523.7494964292871
 31
0.0
  0
ARC
  5
D0D8
  8
YODOROGO
 10
28561.604341291932
 20
1547.749496429285
 30
0.0
 40
23.999999999996358
 50
270.0
 51
0.0000000000054281
  0
LINE
  5
D0D9
  8
YODOROGO
 10
27801.604341291921
 20
1890.786580793706
 30
0.0
 11
27777.604341291921
 21
1843.776747951672
 31
0.0
1001
AUTOCAD_POSTSCRIPT_FIGURE
1002
{
1000
PSFILL
1000
Grayscale
1000
Grayscale
1070
   100
1002
}
  0
LINE
  5
D0DA
  8
YODOROGO
 10
27801.604341291921
 20
1747.749496429286
 30
0.0
 11
27801.604341291921
 21
1890.786580793706
 31
0.0
1001
AUTOCAD_POSTSCRIPT_FIGURE
1002
{
1000
PSFILL
1000
Grayscale
1000
Grayscale
1070
   100
1002
}
  0
LINE
  5
D0DB
  8
YODOROGO
 10
27817.604341291921
 20
1747.749496429286
 30
0.0
 11
27801.604341291921
 21
1747.749496429286
 31
0.0
1001
AUTOCAD_POSTSCRIPT_FIGURE
1002
{
1000
PSFILL
1000
Grayscale
1000
Grayscale
1070
   100
1002
}
  0
LINE
  5
D0DC
  8
YODOROGO
 10
27817.604341291921
 20
1893.7713320852661
 30
0.0
 11
27817.604341291921
 21
1747.749496429286
 31
0.0
1001
AUTOCAD_POSTSCRIPT_FIGURE
1002
{
1000
PSFILL
1000
Grayscale
1000
Grayscale
1070
   100
1002
}
  0
LINE
  5
D0DD
  8
YODOROGO
 10
27841.604341291921
 20
1867.6547582841361
 30
0.0
 11
27817.604341291921
 21
1893.7713320852661
 31
0.0
1001
AUTOCAD_POSTSCRIPT_FIGURE
1002
{
1000
PSFILL
1000
Grayscale
1000
Grayscale
1070
   100
1002
}
  0
LINE
  5
D0DE
  8
YODOROGO
 10
27841.604341291921
 20
1883.6547582841361
 30
0.0
 11
27841.604341291921
 21
1867.6547582841361
 31
0.0
1001
AUTOCAD_POSTSCRIPT_FIGURE
1002
{
1000
PSFILL
1000
Grayscale
1000
Grayscale
1070
   100
1002
}
  0
LINE
  5
D0DF
  8
YODOROGO
 10
27817.604341291921
 20
1917.7713320852649
 30
0.0
 11
27841.604341291921
 21
1883.6547582841361
 31
0.0
1001
AUTOCAD_POSTSCRIPT_FIGURE
1002
{
1000
PSFILL
1000
Grayscale
1000
Grayscale
1070
   100
1002
}
  0
LINE
  5
D0E0
  8
YODOROGO
 10
27817.604341291921
 20
1939.749496429288
 30
0.0
 11
27817.604341291921
 21
1917.7713320852649
 31
0.0
1001
AUTOCAD_POSTSCRIPT_FIGURE
1002
{
1000
PSFILL
1000
Grayscale
1000
Grayscale
1070
   100
1002
}
  0
LINE
  5
D0E1
  8
YODOROGO
 10
27889.604341291921
 20
1939.749496429288
 30
0.0
 11
27817.604341291921
 21
1939.749496429288
 31
0.0
1001
AUTOCAD_POSTSCRIPT_FIGURE
1002
{
1000
PSFILL
1000
Grayscale
1000
Grayscale
1070
   100
1002
}
  0
LINE
  5
D0E2
  8
YODOROGO
 10
27889.604341291921
 20
1900.5683489363
 30
0.0
 11
27889.604341291921
 21
1939.749496429288
 31
0.0
1001
AUTOCAD_POSTSCRIPT_FIGURE
1002
{
1000
PSFILL
1000
Grayscale
1000
Grayscale
1070
   100
1002
}
  0
LINE
  5
D0E3
  8
YODOROGO
 10
27857.604341291921
 20
1900.5683489363
 30
0.0
 11
27889.604341291921
 21
1900.5683489363
 31
0.0
1001
AUTOCAD_POSTSCRIPT_FIGURE
1002
{
1000
PSFILL
1000
Grayscale
1000
Grayscale
1070
   100
1002
}
  0
LINE
  5
D0E4
  8
YODOROGO
 10
27857.604341291921
 20
1884.568348936298
 30
0.0
 11
27857.604341291921
 21
1900.5683489363
 31
0.0
1001
AUTOCAD_POSTSCRIPT_FIGURE
1002
{
1000
PSFILL
1000
Grayscale
1000
Grayscale
1070
   100
1002
}
  0
LINE
  5
D0E5
  8
YODOROGO
 10
27889.604341291921
 20
1884.568348936298
 30
0.0
 11
27857.604341291921
 21
1884.568348936298
 31
0.0
1001
AUTOCAD_POSTSCRIPT_FIGURE
1002
{
1000
PSFILL
1000
Grayscale
1000
Grayscale
1070
   100
1002
}
  0
LINE
  5
D0E6
  8
YODOROGO
 10
27889.604341291921
 20
1879.6191779644371
 30
0.0
 11
27889.604341291921
 21
1884.568348936298
 31
0.0
1001
AUTOCAD_POSTSCRIPT_FIGURE
1002
{
1000
PSFILL
1000
Grayscale
1000
Grayscale
1070
   100
1002
}
  0
LINE
  5
D0E7
  8
YODOROGO
 10
27849.604341291921
 20
1812.974981161417
 30
0.0
 11
27889.604341291921
 21
1879.6191779644371
 31
0.0
1001
AUTOCAD_POSTSCRIPT_FIGURE
1002
{
1000
PSFILL
1000
Grayscale
1000
Grayscale
1070
   100
1002
}
  0
LINE
  5
D0E8
  8
YODOROGO
 10
27849.604341291921
 20
1796.9749811614161
 30
0.0
 11
27849.604341291921
 21
1812.974981161417
 31
0.0
1001
AUTOCAD_POSTSCRIPT_FIGURE
1002
{
1000
PSFILL
1000
Grayscale
1000
Grayscale
1070
   100
1002
}
  0
LINE
  5
D0E9
  8
YODOROGO
 10
27889.604341291921
 20
1847.6191779644359
 30
0.0
 11
27849.604341291921
 21
1796.9749811614161
 31
0.0
1001
AUTOCAD_POSTSCRIPT_FIGURE
1002
{
1000
PSFILL
1000
Grayscale
1000
Grayscale
1070
   100
1002
}
  0
LINE
  5
D0EA
  8
YODOROGO
 10
27889.604341291921
 20
1747.749496429286
 30
0.0
 11
27889.604341291921
 21
1847.6191779644359
 31
0.0
1001
AUTOCAD_POSTSCRIPT_FIGURE
1002
{
1000
PSFILL
1000
Grayscale
1000
Grayscale
1070
   100
1002
}
  0
LINE
  5
D0EB
  8
YODOROGO
 10
27905.604341291921
 20
1747.749496429286
 30
0.0
 11
27889.604341291921
 21
1747.749496429286
 31
0.0
1001
AUTOCAD_POSTSCRIPT_FIGURE
1002
{
1000
PSFILL
1000
Grayscale
1000
Grayscale
1070
   100
1002
}
  0
LINE
  5
D0EC
  8
YODOROGO
 10
27905.604341291921
 20
1849.409012158806
 30
0.0
 11
27905.604341291921
 21
1747.749496429286
 31
0.0
1001
AUTOCAD_POSTSCRIPT_FIGURE
1002
{
1000
PSFILL
1000
Grayscale
1000
Grayscale
1070
   100
1002
}
  0
LINE
  5
D0ED
  8
YODOROGO
 10
27937.604341291921
 20
1796.9749811614161
 30
0.0
 11
27905.604341291921
 21
1849.409012158806
 31
0.0
1001
AUTOCAD_POSTSCRIPT_FIGURE
1002
{
1000
PSFILL
1000
Grayscale
1000
Grayscale
1070
   100
1002
}
  0
LINE
  5
D0EE
  8
YODOROGO
 10
27937.604341291921
 20
1812.974981161417
 30
0.0
 11
27937.604341291921
 21
1796.9749811614161
 31
0.0
1001
AUTOCAD_POSTSCRIPT_FIGURE
1002
{
1000
PSFILL
1000
Grayscale
1000
Grayscale
1070
   100
1002
}
  0
LINE
  5
D0EF
  8
YODOROGO
 10
27905.604341291921
 20
1881.4090121588081
 30
0.0
 11
27937.604341291921
 21
1812.974981161417
 31
0.0
1001
AUTOCAD_POSTSCRIPT_FIGURE
1002
{
1000
PSFILL
1000
Grayscale
1000
Grayscale
1070
   100
1002
}
  0
LINE
  5
D0F0
  8
YODOROGO
 10
27905.604341291921
 20
1884.5683489363
 30
0.0
 11
27905.604341291921
 21
1881.4090121588081
 31
0.0
1001
AUTOCAD_POSTSCRIPT_FIGURE
1002
{
1000
PSFILL
1000
Grayscale
1000
Grayscale
1070
   100
1002
}
  0
LINE
  5
D0F1
  8
YODOROGO
 10
27937.604341291921
 20
1884.568348936298
 30
0.0
 11
27905.604341291921
 21
1884.5683489363
 31
0.0
1001
AUTOCAD_POSTSCRIPT_FIGURE
1002
{
1000
PSFILL
1000
Grayscale
1000
Grayscale
1070
   100
1002
}
  0
LINE
  5
D0F2
  8
YODOROGO
 10
27937.604341291921
 20
1900.5683489363
 30
0.0
 11
27937.604341291921
 21
1884.568348936298
 31
0.0
1001
AUTOCAD_POSTSCRIPT_FIGURE
1002
{
1000
PSFILL
1000
Grayscale
1000
Grayscale
1070
   100
1002
}
  0
LINE
  5
D0F3
  8
YODOROGO
 10
27905.604341291921
 20
1900.5683489363
 30
0.0
 11
27937.604341291921
 21
1900.5683489363
 31
0.0
1001
AUTOCAD_POSTSCRIPT_FIGURE
1002
{
1000
PSFILL
1000
Grayscale
1000
Grayscale
1070
   100
1002
}
  0
LINE
  5
D0F4
  8
YODOROGO
 10
27905.604341291921
 20
1939.749496429288
 30
0.0
 11
27905.604341291921
 21
1900.5683489363
 31
0.0
1001
AUTOCAD_POSTSCRIPT_FIGURE
1002
{
1000
PSFILL
1000
Grayscale
1000
Grayscale
1070
   100
1002
}
  0
LINE
  5
D0F5
  8
YODOROGO
 10
27937.604341291921
 20
1939.749496429288
 30
0.0
 11
27905.604341291921
 21
1939.749496429288
 31
0.0
1001
AUTOCAD_POSTSCRIPT_FIGURE
1002
{
1000
PSFILL
1000
Grayscale
1000
Grayscale
1070
   100
1002
}
  0
LINE
  5
D0F6
  8
YODOROGO
 10
27937.604341291921
 20
1955.7494964292871
 30
0.0
 11
27937.604341291921
 21
1939.749496429288
 31
0.0
1001
AUTOCAD_POSTSCRIPT_FIGURE
1002
{
1000
PSFILL
1000
Grayscale
1000
Grayscale
1070
   100
1002
}
  0
LINE
  5
D0F7
  8
YODOROGO
 10
27905.604341291921
 20
1955.7494964292871
 30
0.0
 11
27937.604341291921
 21
1955.7494964292871
 31
0.0
1001
AUTOCAD_POSTSCRIPT_FIGURE
1002
{
1000
PSFILL
1000
Grayscale
1000
Grayscale
1070
   100
1002
}
  0
LINE
  5
D0F8
  8
YODOROGO
 10
27905.604341291921
 20
1979.749496429288
 30
0.0
 11
27905.604341291921
 21
1955.7494964292871
 31
0.0
1001
AUTOCAD_POSTSCRIPT_FIGURE
1002
{
1000
PSFILL
1000
Grayscale
1000
Grayscale
1070
   100
1002
}
  0
LINE
  5
D0F9
  8
YODOROGO
 10
27889.604341291921
 20
1979.749496429288
 30
0.0
 11
27905.604341291921
 21
1979.749496429288
 31
0.0
1001
AUTOCAD_POSTSCRIPT_FIGURE
1002
{
1000
PSFILL
1000
Grayscale
1000
Grayscale
1070
   100
1002
}
  0
LINE
  5
D0FA
  8
YODOROGO
 10
27889.604341291921
 20
1955.7494964292871
 30
0.0
 11
27889.604341291921
 21
1979.749496429288
 31
0.0
1001
AUTOCAD_POSTSCRIPT_FIGURE
1002
{
1000
PSFILL
1000
Grayscale
1000
Grayscale
1070
   100
1002
}
  0
LINE
  5
D0FB
  8
YODOROGO
 10
27865.604341291921
 20
1955.7494964292871
 30
0.0
 11
27889.604341291921
 21
1955.7494964292871
 31
0.0
1001
AUTOCAD_POSTSCRIPT_FIGURE
1002
{
1000
PSFILL
1000
Grayscale
1000
Grayscale
1070
   100
1002
}
  0
LINE
  5
D0FC
  8
YODOROGO
 10
27865.604341291921
 20
1979.749496429288
 30
0.0
 11
27865.604341291921
 21
1955.7494964292871
 31
0.0
1001
AUTOCAD_POSTSCRIPT_FIGURE
1002
{
1000
PSFILL
1000
Grayscale
1000
Grayscale
1070
   100
1002
}
  0
LINE
  5
D0FD
  8
YODOROGO
 10
27849.604341291921
 20
1979.749496429288
 30
0.0
 11
27865.604341291921
 21
1979.749496429288
 31
0.0
1001
AUTOCAD_POSTSCRIPT_FIGURE
1002
{
1000
PSFILL
1000
Grayscale
1000
Grayscale
1070
   100
1002
}
  0
LINE
  5
D0FE
  8
YODOROGO
 10
27849.604341291921
 20
1955.7494964292871
 30
0.0
 11
27849.604341291921
 21
1979.749496429288
 31
0.0
1001
AUTOCAD_POSTSCRIPT_FIGURE
1002
{
1000
PSFILL
1000
Grayscale
1000
Grayscale
1070
   100
1002
}
  0
LINE
  5
D0FF
  8
YODOROGO
 10
27817.604341291921
 20
1955.7494964292871
 30
0.0
 11
27849.604341291921
 21
1955.7494964292871
 31
0.0
1001
AUTOCAD_POSTSCRIPT_FIGURE
1002
{
1000
PSFILL
1000
Grayscale
1000
Grayscale
1070
   100
1002
}
  0
LINE
  5
D100
  8
YODOROGO
 10
27817.604341291921
 20
1979.749496429288
 30
0.0
 11
27817.604341291921
 21
1955.7494964292871
 31
0.0
1001
AUTOCAD_POSTSCRIPT_FIGURE
1002
{
1000
PSFILL
1000
Grayscale
1000
Grayscale
1070
   100
1002
}
  0
LINE
  5
D101
  8
YODOROGO
 10
27801.604341291921
 20
1979.749496429288
 30
0.0
 11
27817.604341291921
 21
1979.749496429288
 31
0.0
1001
AUTOCAD_POSTSCRIPT_FIGURE
1002
{
1000
PSFILL
1000
Grayscale
1000
Grayscale
1070
   100
1002
}
  0
LINE
  5
D102
  8
YODOROGO
 10
27801.604341291921
 20
1955.7494964292871
 30
0.0
 11
27801.604341291921
 21
1979.749496429288
 31
0.0
1001
AUTOCAD_POSTSCRIPT_FIGURE
1002
{
1000
PSFILL
1000
Grayscale
1000
Grayscale
1070
   100
1002
}
  0
LINE
  5
D103
  8
YODOROGO
 10
27777.604341291921
 20
1955.7494964292871
 30
0.0
 11
27801.604341291921
 21
1955.7494964292871
 31
0.0
1001
AUTOCAD_POSTSCRIPT_FIGURE
1002
{
1000
PSFILL
1000
Grayscale
1000
Grayscale
1070
   100
1002
}
  0
LINE
  5
D104
  8
YODOROGO
 10
27777.604341291921
 20
1939.749496429288
 30
0.0
 11
27777.604341291921
 21
1955.7494964292871
 31
0.0
1001
AUTOCAD_POSTSCRIPT_FIGURE
1002
{
1000
PSFILL
1000
Grayscale
1000
Grayscale
1070
   100
1002
}
  0
LINE
  5
D105
  8
YODOROGO
 10
27801.604341291921
 20
1939.749496429288
 30
0.0
 11
27777.604341291921
 21
1939.749496429288
 31
0.0
1001
AUTOCAD_POSTSCRIPT_FIGURE
1002
{
1000
PSFILL
1000
Grayscale
1000
Grayscale
1070
   100
1002
}
  0
LINE
  5
D106
  8
YODOROGO
 10
27801.604341291921
 20
1914.7865807937051
 30
0.0
 11
27801.604341291921
 21
1939.749496429288
 31
0.0
1001
AUTOCAD_POSTSCRIPT_FIGURE
1002
{
1000
PSFILL
1000
Grayscale
1000
Grayscale
1070
   100
1002
}
  0
LINE
  5
D107
  8
YODOROGO
 10
27777.604341291921
 20
1859.776747951671
 30
0.0
 11
27801.604341291921
 21
1914.7865807937051
 31
0.0
1001
AUTOCAD_POSTSCRIPT_FIGURE
1002
{
1000
PSFILL
1000
Grayscale
1000
Grayscale
1070
   100
1002
}
  0
LINE
  5
D108
  8
YODOROGO
 10
27777.604341291921
 20
1843.776747951672
 30
0.0
 11
27777.604341291921
 21
1859.776747951671
 31
0.0
1001
AUTOCAD_POSTSCRIPT_FIGURE
1002
{
1000
PSFILL
1000
Grayscale
1000
Grayscale
1070
   100
1002
}
  0
LINE
  5
D109
  8
YODOROGO
 10
28257.604341291921
 20
1867.7494964292871
 30
0.0
 11
28401.60434129191
 21
1824.877625640306
 31
0.0
1001
AUTOCAD_POSTSCRIPT_FIGURE
1002
{
1000
PSFILL
1000
Grayscale
1000
Grayscale
1070
   100
1002
}
  0
LINE
  5
D10A
  8
YODOROGO
 10
28401.60434129191
 20
1752.877625640306
 30
0.0
 11
28257.604341291921
 21
1795.7494964292871
 31
0.0
1001
AUTOCAD_POSTSCRIPT_FIGURE
1002
{
1000
PSFILL
1000
Grayscale
1000
Grayscale
1070
   100
1002
}
  0
LINE
  5
D10B
  8
YODOROGO
 10
28401.60434129191
 20
1984.877625640306
 30
0.0
 11
28257.604341291921
 21
2027.749496429288
 31
0.0
1001
AUTOCAD_POSTSCRIPT_FIGURE
1002
{
1000
PSFILL
1000
Grayscale
1000
Grayscale
1070
   100
1002
}
  0
LINE
  5
D10C
  8
YODOROGO
 10
28257.604341291921
 20
1959.749496429288
 30
0.0
 11
28401.60434129191
 21
1916.8776256403071
 31
0.0
1001
AUTOCAD_POSTSCRIPT_FIGURE
1002
{
1000
PSFILL
1000
Grayscale
1000
Grayscale
1070
   100
1002
}
  0
LINE
  5
D10D
  8
YODOROGO
 10
28257.604341291921
 20
1795.7494964292871
 30
0.0
 11
28257.604341291921
 21
1867.7494964292871
 31
0.0
1001
AUTOCAD_POSTSCRIPT_FIGURE
1002
{
1000
PSFILL
1000
Grayscale
1000
Grayscale
1070
   100
1002
}
  0
LINE
  5
D10E
  8
YODOROGO
 10
28257.604341291921
 20
2027.749496429288
 30
0.0
 11
28257.604341291921
 21
1959.749496429288
 31
0.0
1001
AUTOCAD_POSTSCRIPT_FIGURE
1002
{
1000
PSFILL
1000
Grayscale
1000
Grayscale
1070
   100
1002
}
  0
LINE
  5
D10F
  8
YODOROGO
 10
28080.236320206739
 20
1939.749496429288
 30
0.0
 11
28129.60434129191
 21
1747.749496429286
 31
0.0
1001
AUTOCAD_POSTSCRIPT_FIGURE
1002
{
1000
PSFILL
1000
Grayscale
1000
Grayscale
1070
   100
1002
}
  0
LINE
  5
D110
  8
YODOROGO
 10
27977.604341291921
 20
1939.749496429288
 30
0.0
 11
28080.236320206739
 21
1939.749496429288
 31
0.0
1001
AUTOCAD_POSTSCRIPT_FIGURE
1002
{
1000
PSFILL
1000
Grayscale
1000
Grayscale
1070
   100
1002
}
  0
LINE
  5
D111
  8
YODOROGO
 10
27977.604341291921
 20
1955.7494964292871
 30
0.0
 11
27977.604341291921
 21
1939.749496429288
 31
0.0
1001
AUTOCAD_POSTSCRIPT_FIGURE
1002
{
1000
PSFILL
1000
Grayscale
1000
Grayscale
1070
   100
1002
}
  0
LINE
  5
D112
  8
YODOROGO
 10
28076.60687851991
 20
1955.7494964292871
 30
0.0
 11
27977.604341291921
 21
1955.7494964292871
 31
0.0
1001
AUTOCAD_POSTSCRIPT_FIGURE
1002
{
1000
PSFILL
1000
Grayscale
1000
Grayscale
1070
   100
1002
}
  0
LINE
  5
D113
  8
YODOROGO
 10
28071.162715989711
 20
1979.749496429288
 30
0.0
 11
28076.60687851991
 21
1955.7494964292871
 31
0.0
1001
AUTOCAD_POSTSCRIPT_FIGURE
1002
{
1000
PSFILL
1000
Grayscale
1000
Grayscale
1070
   100
1002
}
  0
LINE
  5
D114
  8
YODOROGO
 10
28091.162715989711
 20
1979.749496429288
 30
0.0
 11
28071.162715989711
 21
1979.749496429288
 31
0.0
1001
AUTOCAD_POSTSCRIPT_FIGURE
1002
{
1000
PSFILL
1000
Grayscale
1000
Grayscale
1070
   100
1002
}
  0
LINE
  5
D115
  8
YODOROGO
 10
28095.806878519939
 20
1955.7494964292871
 30
0.0
 11
28091.162715989711
 21
1979.749496429288
 31
0.0
1001
AUTOCAD_POSTSCRIPT_FIGURE
1002
{
1000
PSFILL
1000
Grayscale
1000
Grayscale
1070
   100
1002
}
  0
LINE
  5
D116
  8
YODOROGO
 10
28121.604341291921
 20
1955.7494964292871
 30
0.0
 11
28095.806878519939
 21
1955.7494964292871
 31
0.0
1001
AUTOCAD_POSTSCRIPT_FIGURE
1002
{
1000
PSFILL
1000
Grayscale
1000
Grayscale
1070
   100
1002
}
  0
LINE
  5
D117
  8
YODOROGO
 10
28121.604341291921
 20
1979.749496429288
 30
0.0
 11
28121.604341291921
 21
1955.7494964292871
 31
0.0
1001
AUTOCAD_POSTSCRIPT_FIGURE
1002
{
1000
PSFILL
1000
Grayscale
1000
Grayscale
1070
   100
1002
}
  0
LINE
  5
D118
  8
YODOROGO
 10
28137.604341291921
 20
1979.749496429288
 30
0.0
 11
28121.604341291921
 21
1979.749496429288
 31
0.0
1001
AUTOCAD_POSTSCRIPT_FIGURE
1002
{
1000
PSFILL
1000
Grayscale
1000
Grayscale
1070
   100
1002
}
  0
LINE
  5
D119
  8
YODOROGO
 10
28137.604341291921
 20
1955.7494964292871
 30
0.0
 11
28137.604341291921
 21
1979.749496429288
 31
0.0
1001
AUTOCAD_POSTSCRIPT_FIGURE
1002
{
1000
PSFILL
1000
Grayscale
1000
Grayscale
1070
   100
1002
}
  0
LINE
  5
D11A
  8
YODOROGO
 10
28137.604341291921
 20
1939.749496429288
 30
0.0
 11
28137.604341291921
 21
1955.7494964292871
 31
0.0
1001
AUTOCAD_POSTSCRIPT_FIGURE
1002
{
1000
PSFILL
1000
Grayscale
1000
Grayscale
1070
   100
1002
}
  0
LINE
  5
D11B
  8
YODOROGO
 10
28098.902986873411
 20
1939.749496429288
 30
0.0
 11
28137.604341291921
 21
1939.749496429288
 31
0.0
1001
AUTOCAD_POSTSCRIPT_FIGURE
1002
{
1000
PSFILL
1000
Grayscale
1000
Grayscale
1070
   100
1002
}
  0
LINE
  5
D11C
  8
YODOROGO
 10
28137.604341291921
 20
1747.749496429286
 30
0.0
 11
28098.902986873411
 21
1939.749496429288
 31
0.0
1001
AUTOCAD_POSTSCRIPT_FIGURE
1002
{
1000
PSFILL
1000
Grayscale
1000
Grayscale
1070
   100
1002
}
  0
LINE
  5
D11D
  8
YODOROGO
 10
28129.60434129191
 20
1747.749496429286
 30
0.0
 11
28137.604341291921
 21
1747.749496429286
 31
0.0
1001
AUTOCAD_POSTSCRIPT_FIGURE
1002
{
1000
PSFILL
1000
Grayscale
1000
Grayscale
1070
   100
1002
}
  0
LINE
  5
D11E
  8
YODOROGO
 10
28078.06921993379
 20
1775.7407762987939
 30
0.0
 11
27977.604341291921
 21
1747.749496429286
 31
0.0
  0
LINE
  5
D11F
  8
YODOROGO
 10
28078.06921993379
 20
1798.6689795290731
 30
0.0
 11
28078.06921993379
 21
1775.7407762987939
 31
0.0
  0
LINE
  5
D120
  8
YODOROGO
 10
28033.83678061287
 20
1786.816933133767
 30
0.0
 11
28078.06921993379
 21
1798.6689795290731
 31
0.0
  0
LINE
  5
D121
  8
YODOROGO
 10
28033.83678061287
 20
1872.5683489362989
 30
0.0
 11
28033.83678061287
 21
1786.816933133767
 31
0.0
  0
LINE
  5
D122
  8
YODOROGO
 10
28078.06921993379
 20
1872.5683489362989
 30
0.0
 11
28033.83678061287
 21
1872.5683489362989
 31
0.0
  0
LINE
  5
D123
  8
YODOROGO
 10
28078.06921993379
 20
1892.568348936298
 30
0.0
 11
28078.06921993379
 21
1872.5683489362989
 31
0.0
  0
LINE
  5
D124
  8
YODOROGO
 10
27977.604341291921
 20
1892.568348936298
 30
0.0
 11
28078.06921993379
 21
1892.568348936298
 31
0.0
  0
LINE
  5
D125
  8
YODOROGO
 10
27977.604341291921
 20
1872.5683489362989
 30
0.0
 11
27977.604341291921
 21
1892.568348936298
 31
0.0
  0
LINE
  5
D126
  8
YODOROGO
 10
28021.836780612852
 20
1872.5683489362989
 30
0.0
 11
27977.604341291921
 21
1872.5683489362989
 31
0.0
  0
LINE
  5
D127
  8
YODOROGO
 10
28021.836780612852
 20
1784.673339594317
 30
0.0
 11
28021.836780612852
 21
1872.5683489362989
 31
0.0
  0
LINE
  5
D128
  8
YODOROGO
 10
27977.604341291921
 20
1771.749496429286
 30
0.0
 11
28021.836780612852
 21
1784.673339594317
 31
0.0
  0
LINE
  5
D129
  8
YODOROGO
 10
27977.604341291921
 20
1747.749496429286
 30
0.0
 11
27977.604341291921
 21
1771.749496429286
 31
0.0
  0
LINE
  5
D12A
  8
YODOROGO
 10
28001.604341291921
 20
1707.749496429288
 30
0.0
 11
28001.604341291921
 21
1683.7494964292871
 31
0.0
  0
LINE
  5
D12B
  8
YODOROGO
 10
28017.604341291921
 20
1707.749496429288
 30
0.0
 11
28001.604341291921
 21
1707.749496429288
 31
0.0
  0
LINE
  5
D12C
  8
YODOROGO
 10
28017.604341291921
 20
1683.7494964292871
 30
0.0
 11
28017.604341291921
 21
1707.749496429288
 31
0.0
  0
LINE
  5
D12D
  8
YODOROGO
 10
28040.913204016892
 20
1683.7494964292871
 30
0.0
 11
28017.604341291921
 21
1683.7494964292871
 31
0.0
  0
LINE
  5
D12E
  8
YODOROGO
 10
28001.604341291921
 20
1683.7494964292871
 30
0.0
 11
27977.604341291921
 21
1683.7494964292871
 31
0.0
  0
LINE
  5
D12F
  8
YODOROGO
 10
28082.135520230921
 20
1707.749496429288
 30
0.0
 11
28098.135520230931
 21
1707.749496429288
 31
0.0
1001
AUTOCAD_POSTSCRIPT_FIGURE
1002
{
1000
PSFILL
1000
Grayscale
1000
Grayscale
1070
   100
1002
}
  0
LINE
  5
D130
  8
YODOROGO
 10
28401.60434129191
 20
1824.877625640306
 30
0.0
 11
28401.60434129191
 21
1752.877625640306
 31
0.0
1001
AUTOCAD_POSTSCRIPT_FIGURE
1002
{
1000
PSFILL
1000
Grayscale
1000
Grayscale
1070
   100
1002
}
  0
LINE
  5
D131
  8
YODOROGO
 10
28401.60434129191
 20
1916.8776256403071
 30
0.0
 11
28401.60434129191
 21
1984.877625640306
 31
0.0
1001
AUTOCAD_POSTSCRIPT_FIGURE
1002
{
1000
PSFILL
1000
Grayscale
1000
Grayscale
1070
   100
1002
}
  0
LINE
  5
D132
  8
YODOROGO
 10
28433.60434129191
 20
1819.7494964292871
 30
0.0
 11
28433.60434129191
 21
1747.74949642929
 31
0.0
  0
LINE
  5
D133
  8
YODOROGO
 10
28497.60434129191
 20
1707.749496429288
 30
0.0
 11
28433.60434129191
 21
1707.749496429288
 31
0.0
  0
LINE
  5
D134
  8
YODOROGO
 10
28433.60434129191
 20
1747.74949642929
 30
0.0
 11
28585.604341291921
 21
1747.74949642929
 31
0.0
  0
LINE
  5
D135
  8
YODOROGO
 10
28497.60434129191
 20
1867.7494964292871
 30
0.0
 11
28433.60434129191
 21
1867.7494964292871
 31
0.0
  0
LINE
  5
D136
  8
YODOROGO
 10
28497.60434129191
 20
1923.7494964292871
 30
0.0
 11
28497.60434129191
 21
1867.7494964292871
 31
0.0
  0
LINE
  5
D137
  8
YODOROGO
 10
28585.604341291921
 20
1987.7494964292871
 30
0.0
 11
28585.604341291921
 21
2027.749496429288
 31
0.0
  0
LINE
  5
D138
  8
YODOROGO
 10
28433.60434129191
 20
1987.7494964292871
 30
0.0
 11
28585.604341291921
 21
1987.7494964292871
 31
0.0
  0
LINE
  5
D139
  8
YODOROGO
 10
28433.60434129191
 20
1867.7494964292871
 30
0.0
 11
28433.60434129191
 21
1987.7494964292871
 31
0.0
  0
LINE
  5
D13A
  8
YODOROGO
 10
29001.60434129191
 20
2027.749496429288
 30
0.0
 11
29001.60434129191
 21
1619.749496429288
 31
0.0
  0
LINE
  5
D13B
  8
YODOROGO
 10
29073.604341291921
 20
1579.749496429288
 30
0.0
 11
29073.604341291921
 21
2027.749496429288
 31
0.0
  0
LINE
  5
D13C
  8
YODOROGO
 10
29261.604341291921
 20
1491.749496429286
 30
0.0
 11
29261.604341291921
 21
2007.749496429288
 31
0.0
  0
LINE
  5
D13D
  8
YODOROGO
 10
29197.604341291921
 20
2007.749496429288
 30
0.0
 11
29197.604341291921
 21
1491.749496429286
 31
0.0
  0
LINE
  5
D13E
  8
YODOROGO
 10
29385.604341291921
 20
2027.749496429288
 30
0.0
 11
29385.604341291921
 21
1427.749496429288
 31
0.0
  0
LINE
  5
D13F
  8
YODOROGO
 10
29457.604341291921
 20
1427.749496429288
 30
0.0
 11
29457.604341291921
 21
2027.749496429288
 31
0.0
  0
LINE
  5
D140
  8
YODOROGO
 10
28657.604341291921
 20
1667.749496429288
 30
0.0
 11
28657.604341291921
 21
1747.74949642929
 31
0.0
  0
LINE
  5
D141
  8
YODOROGO
 10
29885.604341291921
 20
1707.749496429288
 30
0.0
 11
29885.604341291921
 21
1667.749496429288
 31
0.0
  0
LINE
  5
D142
  8
YODOROGO
 10
29885.604341291921
 20
1707.749496429288
 30
0.0
 11
29885.604341291921
 21
1667.749496429288
 31
0.0
  0
ARC
  5
D143
  8
YODOROGO
 10
28906.911576186842
 20
1618.217864442272
 30
0.0
 40
94.705151178741644
 50
274.05244162907098
 51
0.9266642149310712
  0
ARC
  5
D144
  8
YODOROGO
 10
28909.186170719819
 20
1592.61072861044
 30
0.0
 40
164.92042356085511
 50
271.5351210653775
 51
355.52727750585052
  0
LINE
  5
D145
  8
YODOROGO
 10
28913.604341291921
 20
1523.7494964292871
 30
0.0
 11
28913.604341291921
 21
1427.749496429288
 31
0.0
  0
LINE
  5
D146
  8
YODOROGO
 10
28793.60434129191
 20
1667.749496429288
 30
0.0
 11
28657.604341291921
 21
1667.749496429288
 31
0.0
  0
LINE
  5
D147
  8
YODOROGO
 10
28793.60434129191
 20
1603.7494964292871
 30
0.0
 11
28793.60434129191
 21
1667.749496429288
 31
0.0
  0
LINE
  5
D148
  8
YODOROGO
 10
28657.604341291921
 20
1603.7494964292871
 30
0.0
 11
28793.60434129191
 21
1603.7494964292871
 31
0.0
  0
LINE
  5
D149
  8
YODOROGO
 10
28657.604341291921
 20
1523.7494964292871
 30
0.0
 11
28657.604341291921
 21
1603.7494964292871
 31
0.0
  0
LINE
  5
D14A
  8
YODOROGO
 10
28793.60434129191
 20
1523.7494964292871
 30
0.0
 11
28657.604341291921
 21
1523.7494964292871
 31
0.0
  0
LINE
  5
D14B
  8
YODOROGO
 10
28793.60434129191
 20
1427.749496429288
 30
0.0
 11
28793.60434129191
 21
1523.7494964292871
 31
0.0
  0
LINE
  5
D14C
  8
YODOROGO
 10
29197.604341291921
 20
1491.749496429286
 30
0.0
 11
29261.604341291921
 21
1491.749496429286
 31
0.0
  0
LINE
  5
D14D
  8
YODOROGO
 10
29385.604341291921
 20
1427.749496429288
 30
0.0
 11
29457.604341291921
 21
1427.749496429288
 31
0.0
  0
LINE
  5
D14E
  8
YODOROGO
 10
29737.604341291921
 20
1528.4414521705639
 30
0.0
 11
29737.604341291921
 21
1427.749496429288
 31
0.0
  0
LINE
  5
D14F
  8
YODOROGO
 10
29617.604341291921
 20
1427.749496429288
 30
0.0
 11
29737.604341291921
 21
1528.4414521705639
 31
0.0
  0
LINE
  5
D150
  8
YODOROGO
 10
29617.604341291921
 20
1547.749496429288
 30
0.0
 11
29617.604341291921
 21
1427.749496429288
 31
0.0
  0
LINE
  5
D151
  8
YODOROGO
 10
29712.94462869945
 20
1627.749496429288
 30
0.0
 11
29617.604341291921
 21
1547.749496429288
 31
0.0
  0
LINE
  5
D152
  8
YODOROGO
 10
29617.604341291921
 20
1627.749496429288
 30
0.0
 11
29712.94462869945
 21
1627.749496429288
 31
0.0
  0
LINE
  5
D153
  8
YODOROGO
 10
29617.604341291921
 20
1667.749496429288
 30
0.0
 11
29617.604341291921
 21
1627.749496429288
 31
0.0
  0
LINE
  5
D154
  8
YODOROGO
 10
29885.604341291921
 20
1667.749496429288
 30
0.0
 11
29617.604341291921
 21
1667.749496429288
 31
0.0
  0
LINE
  5
D155
  8
YODOROGO
 10
29917.604341291921
 20
1627.749496429288
 30
0.0
 11
29777.604341291921
 21
1627.749496429288
 31
0.0
  0
LINE
  5
D156
  8
YODOROGO
 10
29777.604341291921
 20
1562.0054374176559
 30
0.0
 11
29771.409872985321
 21
1556.807661346234
 31
0.0
  0
LINE
  5
D157
  8
YODOROGO
 10
29777.604341291921
 20
1627.749496429288
 30
0.0
 11
29777.604341291921
 21
1562.0054374176559
 31
0.0
  0
LINE
  5
D158
  8
YODOROGO
 10
29737.604341291921
 20
1528.4414521705639
 30
0.0
 11
29737.604341291921
 21
1427.749496429288
 31
0.0
  0
LINE
  5
D159
  8
YODOROGO
 10
29617.604341291921
 20
1427.749496429288
 30
0.0
 11
29737.604341291921
 21
1528.4414521705639
 31
0.0
  0
LINE
  5
D15A
  8
YODOROGO
 10
29617.604341291921
 20
1547.749496429288
 30
0.0
 11
29617.604341291921
 21
1427.749496429288
 31
0.0
  0
LINE
  5
D15B
  8
YODOROGO
 10
29712.94462869945
 20
1627.749496429288
 30
0.0
 11
29617.604341291921
 21
1547.749496429288
 31
0.0
  0
LINE
  5
D15C
  8
YODOROGO
 10
29617.604341291921
 20
1627.749496429288
 30
0.0
 11
29712.94462869945
 21
1627.749496429288
 31
0.0
  0
LINE
  5
D15D
  8
YODOROGO
 10
29617.604341291921
 20
1667.749496429288
 30
0.0
 11
29617.604341291921
 21
1627.749496429288
 31
0.0
  0
LINE
  5
D15E
  8
YODOROGO
 10
29885.604341291921
 20
1667.749496429288
 30
0.0
 11
29617.604341291921
 21
1667.749496429288
 31
0.0
  0
LINE
  5
D15F
  8
YODOROGO
 10
28793.60434129191
 20
1747.74949642929
 30
0.0
 11
28793.60434129191
 21
1819.7494964292871
 31
0.0
  0
LINE
  5
D160
  8
YODOROGO
 10
28657.604341291921
 20
1747.74949642929
 30
0.0
 11
28793.60434129191
 21
1747.74949642929
 31
0.0
  0
LINE
  5
D161
  8
YODOROGO
 10
28729.604341291921
 20
1867.7494964292871
 30
0.0
 11
28729.604341291921
 21
1923.7494964292871
 31
0.0
  0
LINE
  5
D162
  8
YODOROGO
 10
28793.60434129191
 20
1867.7494964292871
 30
0.0
 11
28729.604341291921
 21
1867.7494964292871
 31
0.0
  0
LINE
  5
D163
  8
YODOROGO
 10
28793.60434129191
 20
1947.749496429288
 30
0.0
 11
28793.60434129191
 21
1867.7494964292871
 31
0.0
  0
ARC
  5
D164
  8
YODOROGO
 10
28753.60434129191
 20
1947.749496429288
 30
0.0
 40
40.0
 50
0.0
 51
90.0
  0
LINE
  5
D165
  8
YODOROGO
 10
28657.604341291921
 20
1987.7494964292871
 30
0.0
 11
28753.60434129191
 21
1987.7494964292871
 31
0.0
  0
LINE
  5
D166
  8
YODOROGO
 10
28657.604341291921
 20
2027.749496429288
 30
0.0
 11
28657.604341291921
 21
1987.7494964292871
 31
0.0
  0
LINE
  5
D167
  8
YODOROGO
 10
29073.604341291921
 20
2027.749496429288
 30
0.0
 11
29001.60434129191
 21
2027.749496429288
 31
0.0
  0
LINE
  5
D168
  8
YODOROGO
 10
29261.604341291921
 20
2007.749496429288
 30
0.0
 11
29197.604341291921
 21
2007.749496429288
 31
0.0
  0
LINE
  5
D169
  8
YODOROGO
 10
29457.604341291921
 20
2027.749496429288
 30
0.0
 11
29385.604341291921
 21
2027.749496429288
 31
0.0
  0
LINE
  5
D16A
  8
YODOROGO
 10
29673.604341291921
 20
1707.749496429288
 30
0.0
 11
29673.604341291921
 21
1771.7494964292871
 31
0.0
1001
AUTOCAD_POSTSCRIPT_FIGURE
1002
{
1000
PSFILL
1000
Grayscale
1000
Grayscale
1070
    25
1002
}
  0
LINE
  5
D16B
  8
YODOROGO
 10
29617.604341291921
 20
1707.749496429288
 30
0.0
 11
29673.604341291921
 21
1707.749496429288
 31
0.0
1001
AUTOCAD_POSTSCRIPT_FIGURE
1002
{
1000
PSFILL
1000
Grayscale
1000
Grayscale
1070
    25
1002
}
  0
LINE
  5
D16C
  8
YODOROGO
 10
29617.604341291921
 20
1819.7494964292871
 30
0.0
 11
29617.604341291921
 21
1707.749496429288
 31
0.0
1001
AUTOCAD_POSTSCRIPT_FIGURE
1002
{
1000
PSFILL
1000
Grayscale
1000
Grayscale
1070
    25
1002
}
  0
LINE
  5
D16D
  8
YODOROGO
 10
29765.604341291921
 20
1819.7494964292871
 30
0.0
 11
29617.604341291921
 21
1819.7494964292871
 31
0.0
1001
AUTOCAD_POSTSCRIPT_FIGURE
1002
{
1000
PSFILL
1000
Grayscale
1000
Grayscale
1070
    25
1002
}
  0
LINE
  5
D16E
  8
YODOROGO
 10
29765.604341291921
 20
1859.749496429288
 30
0.0
 11
29765.604341291921
 21
1819.7494964292871
 31
0.0
1001
AUTOCAD_POSTSCRIPT_FIGURE
1002
{
1000
PSFILL
1000
Grayscale
1000
Grayscale
1070
    25
1002
}
  0
LINE
  5
D16F
  8
YODOROGO
 10
29617.604341291921
 20
1859.749496429288
 30
0.0
 11
29765.604341291921
 21
1859.749496429288
 31
0.0
1001
AUTOCAD_POSTSCRIPT_FIGURE
1002
{
1000
PSFILL
1000
Grayscale
1000
Grayscale
1070
    25
1002
}
  0
LINE
  5
D170
  8
YODOROGO
 10
29617.604341291921
 20
1907.7494964292871
 30
0.0
 11
29617.604341291921
 21
1859.749496429288
 31
0.0
1001
AUTOCAD_POSTSCRIPT_FIGURE
1002
{
1000
PSFILL
1000
Grayscale
1000
Grayscale
1070
    25
1002
}
  0
LINE
  5
D171
  8
YODOROGO
 10
29765.604341291921
 20
1907.7494964292871
 30
0.0
 11
29617.604341291921
 21
1907.7494964292871
 31
0.0
1001
AUTOCAD_POSTSCRIPT_FIGURE
1002
{
1000
PSFILL
1000
Grayscale
1000
Grayscale
1070
    25
1002
}
  0
LINE
  5
D172
  8
YODOROGO
 10
29765.604341291921
 20
1947.749496429288
 30
0.0
 11
29765.604341291921
 21
1907.7494964292871
 31
0.0
1001
AUTOCAD_POSTSCRIPT_FIGURE
1002
{
1000
PSFILL
1000
Grayscale
1000
Grayscale
1070
    25
1002
}
  0
LINE
  5
D173
  8
YODOROGO
 10
29617.604341291921
 20
1947.749496429288
 30
0.0
 11
29765.604341291921
 21
1947.749496429288
 31
0.0
1001
AUTOCAD_POSTSCRIPT_FIGURE
1002
{
1000
PSFILL
1000
Grayscale
1000
Grayscale
1070
    25
1002
}
  0
LINE
  5
D174
  8
YODOROGO
 10
29617.604341291921
 20
2027.749496429288
 30
0.0
 11
29617.604341291921
 21
1947.749496429288
 31
0.0
1001
AUTOCAD_POSTSCRIPT_FIGURE
1002
{
1000
PSFILL
1000
Grayscale
1000
Grayscale
1070
    25
1002
}
  0
LINE
  5
D175
  8
YODOROGO
 10
29665.604341291921
 20
2027.749496429288
 30
0.0
 11
29617.604341291921
 21
2027.749496429288
 31
0.0
1001
AUTOCAD_POSTSCRIPT_FIGURE
1002
{
1000
PSFILL
1000
Grayscale
1000
Grayscale
1070
    25
1002
}
  0
LINE
  5
D176
  8
YODOROGO
 10
29665.604341291921
 20
1995.7494964292871
 30
0.0
 11
29665.604341291921
 21
2027.749496429288
 31
0.0
1001
AUTOCAD_POSTSCRIPT_FIGURE
1002
{
1000
PSFILL
1000
Grayscale
1000
Grayscale
1070
    25
1002
}
  0
LINE
  5
D177
  8
YODOROGO
 10
29765.604341291921
 20
1995.7494964292871
 30
0.0
 11
29665.604341291921
 21
1995.7494964292871
 31
0.0
1001
AUTOCAD_POSTSCRIPT_FIGURE
1002
{
1000
PSFILL
1000
Grayscale
1000
Grayscale
1070
    25
1002
}
  0
LINE
  5
D178
  8
YODOROGO
 10
29765.604341291921
 20
2027.749496429288
 30
0.0
 11
29765.604341291921
 21
1995.7494964292871
 31
0.0
1001
AUTOCAD_POSTSCRIPT_FIGURE
1002
{
1000
PSFILL
1000
Grayscale
1000
Grayscale
1070
    25
1002
}
  0
LINE
  5
D179
  8
YODOROGO
 10
29829.604341291921
 20
2027.749496429288
 30
0.0
 11
29765.604341291921
 21
2027.749496429288
 31
0.0
1001
AUTOCAD_POSTSCRIPT_FIGURE
1002
{
1000
PSFILL
1000
Grayscale
1000
Grayscale
1070
    25
1002
}
  0
LINE
  5
D17A
  8
YODOROGO
 10
29829.604341291921
 20
1995.7494964292871
 30
0.0
 11
29829.604341291921
 21
2027.749496429288
 31
0.0
1001
AUTOCAD_POSTSCRIPT_FIGURE
1002
{
1000
PSFILL
1000
Grayscale
1000
Grayscale
1070
    25
1002
}
  0
LINE
  5
D17B
  8
YODOROGO
 10
29829.604341291921
 20
1907.7494964292871
 30
0.0
 11
29829.604341291921
 21
1947.749496429288
 31
0.0
1001
AUTOCAD_POSTSCRIPT_FIGURE
1002
{
1000
PSFILL
1000
Grayscale
1000
Grayscale
1070
    25
1002
}
  0
LINE
  5
D17C
  8
YODOROGO
 10
29829.604341291921
 20
1819.7494964292871
 30
0.0
 11
29829.604341291921
 21
1859.749496429288
 31
0.0
1001
AUTOCAD_POSTSCRIPT_FIGURE
1002
{
1000
PSFILL
1000
Grayscale
1000
Grayscale
1070
    25
1002
}
  0
LINE
  5
D17D
  8
YODOROGO
 10
29921.60434129191
 20
1771.7494964292871
 30
0.0
 11
29921.60434129191
 21
1707.749496429288
 31
0.0
1001
AUTOCAD_POSTSCRIPT_FIGURE
1002
{
1000
PSFILL
1000
Grayscale
1000
Grayscale
1070
    25
1002
}
  0
LINE
  5
D17E
  8
YODOROGO
 10
29829.604341291921
 20
1771.7494964292871
 30
0.0
 11
29921.60434129191
 21
1771.7494964292871
 31
0.0
1001
AUTOCAD_POSTSCRIPT_FIGURE
1002
{
1000
PSFILL
1000
Grayscale
1000
Grayscale
1070
    25
1002
}
  0
LINE
  5
D17F
  8
YODOROGO
 10
29829.604341291921
 20
1707.749496429288
 30
0.0
 11
29829.604341291921
 21
1771.7494964292871
 31
0.0
1001
AUTOCAD_POSTSCRIPT_FIGURE
1002
{
1000
PSFILL
1000
Grayscale
1000
Grayscale
1070
    25
1002
}
  0
LINE
  5
D180
  8
YODOROGO
 10
29765.604341291921
 20
1707.749496429288
 30
0.0
 11
29829.604341291921
 21
1707.749496429288
 31
0.0
1001
AUTOCAD_POSTSCRIPT_FIGURE
1002
{
1000
PSFILL
1000
Grayscale
1000
Grayscale
1070
    25
1002
}
  0
LINE
  5
D181
  8
YODOROGO
 10
29765.604341291921
 20
1771.7494964292871
 30
0.0
 11
29765.604341291921
 21
1707.749496429288
 31
0.0
1001
AUTOCAD_POSTSCRIPT_FIGURE
1002
{
1000
PSFILL
1000
Grayscale
1000
Grayscale
1070
    25
1002
}
  0
LINE
  5
D182
  8
YODOROGO
 10
29673.604341291921
 20
1771.7494964292871
 30
0.0
 11
29765.604341291921
 21
1771.7494964292871
 31
0.0
1001
AUTOCAD_POSTSCRIPT_FIGURE
1002
{
1000
PSFILL
1000
Grayscale
1000
Grayscale
1070
    25
1002
}
  0
ARC
  5
D183
  8
YODOROGO
 10
31059.517893357912
 20
1602.6807375155761
 30
0.0
 40
178.22128111072141
 50
281.02627495425338
 51
357.77113575573799
  0
LINE
  5
D184
  8
YODOROGO
 10
31413.604341291921
 20
1907.7494964292871
 30
0.0
 11
31165.604341291921
 21
1907.7494964292871
 31
0.0
  0
LINE
  5
D185
  8
YODOROGO
 10
31413.604341291921
 20
2027.749496429288
 30
0.0
 11
31165.604341291921
 21
2027.749496429288
 31
0.0
  0
LINE
  5
D186
  8
YODOROGO
 10
31165.604341291921
 20
1963.749496429286
 30
0.0
 11
31413.604341291921
 21
1963.749496429286
 31
0.0
  0
LINE
  5
D187
  8
YODOROGO
 10
30791.604341291921
 20
1563.7494964292871
 30
0.0
 11
30791.604341291921
 21
1755.7494964292871
 31
0.0
  0
LINE
  5
D188
  8
YODOROGO
 10
30763.604341291921
 20
1691.749496429288
 30
0.0
 11
30763.604341291921
 21
1563.7494964292871
 31
0.0
  0
LINE
  5
D189
  8
YODOROGO
 10
30723.604341291921
 20
1491.749496429288
 30
0.0
 11
30723.604341291921
 21
1691.749496429288
 31
0.0
  0
LINE
  5
D18A
  8
YODOROGO
 10
30899.604341291932
 20
1691.749496429288
 30
0.0
 11
30899.604341291932
 21
1491.749496429288
 31
0.0
  0
LINE
  5
D18B
  8
YODOROGO
 10
30859.604341291932
 20
1563.7494964292871
 30
0.0
 11
30859.604341291932
 21
1691.749496429288
 31
0.0
  0
LINE
  5
D18C
  8
YODOROGO
 10
30831.604341291921
 20
1755.7494964292871
 30
0.0
 11
30831.604341291921
 21
1563.7494964292871
 31
0.0
  0
LINE
  5
D18D
  8
YODOROGO
 10
30973.604341291921
 20
2027.749496429288
 30
0.0
 11
30973.604341291921
 21
1467.749496429288
 31
0.0
  0
LINE
  5
D18E
  8
YODOROGO
 10
30645.604341291921
 20
1427.749496429288
 30
0.0
 11
30645.604341291921
 21
2027.749496429288
 31
0.0
  0
LINE
  5
D18F
  8
YODOROGO
 10
30697.604341291932
 20
1963.749496429286
 30
0.0
 11
30697.604341291932
 21
1427.749496429288
 31
0.0
  0
LINE
  5
D190
  8
YODOROGO
 10
30925.604341291921
 20
1547.749496429288
 30
0.0
 11
30925.604341291921
 21
1963.749496429286
 31
0.0
  0
LINE
  5
D191
  8
YODOROGO
 10
30381.604341291932
 20
1627.749496429288
 30
0.0
 11
30381.604341291932
 21
1679.749496429288
 31
0.0
  0
LINE
  5
D192
  8
YODOROGO
 10
30617.604341291921
 20
1679.749496429288
 30
0.0
 11
30617.604341291921
 21
1627.749496429288
 31
0.0
  0
LINE
  5
D193
  8
YODOROGO
 10
31165.604341291921
 20
1907.7494964292871
 30
0.0
 11
31165.604341291921
 21
1635.7494964292871
 31
0.0
  0
LINE
  5
D194
  8
YODOROGO
 10
29949.60434129191
 20
1667.749496429288
 30
0.0
 11
29949.60434129191
 21
1707.749496429288
 31
0.0
  0
LINE
  5
D195
  8
YODOROGO
 10
29949.60434129191
 20
1667.749496429288
 30
0.0
 11
29949.60434129191
 21
1707.749496429288
 31
0.0
  0
ARC
  5
D196
  8
YODOROGO
 10
30537.604341291921
 20
1507.749496429288
 30
0.0
 40
80.0
 50
270.0
 51
0.0
  0
LINE
  5
D197
  8
YODOROGO
 10
30569.604341291921
 20
1599.7494964292871
 30
0.0
 11
30617.604341291921
 21
1599.7494964292871
 31
0.0
  0
LINE
  5
D198
  8
YODOROGO
 10
30617.604341291921
 20
1627.749496429288
 30
0.0
 11
30529.604341291939
 21
1627.749496429288
 31
0.0
  0
LINE
  5
D199
  8
YODOROGO
 10
30217.604341291921
 20
1667.749496429288
 30
0.0
 11
29949.60434129191
 21
1667.749496429288
 31
0.0
  0
LINE
  5
D19A
  8
YODOROGO
 10
30217.604341291921
 20
1627.749496429288
 30
0.0
 11
30217.604341291921
 21
1667.749496429288
 31
0.0
  0
LINE
  5
D19B
  8
YODOROGO
 10
30017.604341291921
 20
1627.749496429288
 30
0.0
 11
30217.604341291921
 21
1627.749496429288
 31
0.0
  0
ARC
  5
D19C
  8
YODOROGO
 10
30230.05882870136
 20
1868.885714952901
 30
0.0
 40
321.37763628522822
 50
228.6181454618993
 51
245.660289248906
  0
LINE
  5
D19D
  8
YODOROGO
 10
30105.604341291921
 20
1603.7494964292871
 30
0.0
 11
30097.60434129195
 21
1576.0728158699001
 31
0.0
  0
LINE
  5
D19E
  8
YODOROGO
 10
30189.604341291921
 20
1603.7494964292871
 30
0.0
 11
30105.604341291921
 21
1603.7494964292871
 31
0.0
  0
LINE
  5
D19F
  8
YODOROGO
 10
30177.604341291921
 20
1551.817722473427
 30
0.0
 11
30189.604341291921
 21
1603.7494964292871
 31
0.0
  0
ARC
  5
D1A0
  8
YODOROGO
 10
30230.05882870045
 20
1868.885714953002
 30
0.0
 40
321.37763628529081
 50
260.60629297969911
 51
267.77903556555862
  0
LINE
  5
D1A1
  8
YODOROGO
 10
30217.604341291921
 20
1427.749496429285
 30
0.0
 11
30217.604341291921
 21
1547.749496429288
 31
0.0
  0
LINE
  5
D1A2
  8
YODOROGO
 10
29937.604341291932
 20
1481.3393349155101
 30
0.0
 11
29937.604341291921
 21
1594.531090531141
 31
0.0
  0
LINE
  5
D1A3
  8
YODOROGO
 10
30217.604341291921
 20
1667.749496429288
 30
0.0
 11
29949.60434129191
 21
1667.749496429288
 31
0.0
  0
LINE
  5
D1A4
  8
YODOROGO
 10
30217.604341291921
 20
1627.749496429288
 30
0.0
 11
30217.604341291921
 21
1667.749496429288
 31
0.0
  0
LINE
  5
D1A5
  8
YODOROGO
 10
30017.604341291921
 20
1627.749496429288
 30
0.0
 11
30217.604341291921
 21
1627.749496429288
 31
0.0
  0
ARC
  5
D1A6
  8
YODOROGO
 10
30230.05882870136
 20
1868.885714952901
 30
0.0
 40
321.37763628522822
 50
228.6181454618993
 51
245.660289248906
  0
LINE
  5
D1A7
  8
YODOROGO
 10
30105.604341291921
 20
1603.7494964292871
 30
0.0
 11
30097.60434129195
 21
1576.0728158699001
 31
0.0
  0
LINE
  5
D1A8
  8
YODOROGO
 10
30189.604341291921
 20
1603.7494964292871
 30
0.0
 11
30105.604341291921
 21
1603.7494964292871
 31
0.0
  0
LINE
  5
D1A9
  8
YODOROGO
 10
30177.604341291921
 20
1551.817722473427
 30
0.0
 11
30189.604341291921
 21
1603.7494964292871
 31
0.0
  0
ARC
  5
D1AA
  8
YODOROGO
 10
30230.05882870045
 20
1868.885714953002
 30
0.0
 40
321.37763628529081
 50
260.60629297969911
 51
267.77903556555862
  0
LINE
  5
D1AB
  8
YODOROGO
 10
30217.604341291921
 20
1427.749496429285
 30
0.0
 11
30217.604341291921
 21
1547.749496429288
 31
0.0
  0
LINE
  5
D1AC
  8
YODOROGO
 10
29937.604341291932
 20
1481.3393349155101
 30
0.0
 11
29937.604341291921
 21
1594.531090531141
 31
0.0
  0
LINE
  5
D1AD
  8
YODOROGO
 10
30433.604341291921
 20
1573.749496429288
 30
0.0
 11
30381.604341291932
 21
1573.749496429288
 31
0.0
  0
LINE
  5
D1AE
  8
YODOROGO
 10
30433.604341291921
 20
1601.749496429285
 30
0.0
 11
30433.604341291921
 21
1573.749496429288
 31
0.0
  0
LINE
  5
D1AF
  8
YODOROGO
 10
30381.604341291932
 20
1601.749496429285
 30
0.0
 11
30433.604341291921
 21
1601.749496429285
 31
0.0
  0
LINE
  5
D1B0
  8
YODOROGO
 10
30381.604341291932
 20
1573.749496429288
 30
0.0
 11
30381.604341291932
 21
1601.749496429285
 31
0.0
  0
LINE
  5
D1B1
  8
YODOROGO
 10
30429.604341291921
 20
1577.7494964292871
 30
0.0
 11
30385.604341291921
 21
1577.7494964292871
 31
0.0
  0
LINE
  5
D1B2
  8
YODOROGO
 10
30429.604341291921
 20
1597.749496429288
 30
0.0
 11
30429.604341291921
 21
1577.7494964292871
 31
0.0
  0
LINE
  5
D1B3
  8
YODOROGO
 10
30385.604341291921
 20
1597.749496429288
 30
0.0
 11
30429.604341291921
 21
1597.749496429288
 31
0.0
  0
LINE
  5
D1B4
  8
YODOROGO
 10
30385.604341291921
 20
1577.7494964292871
 30
0.0
 11
30385.604341291921
 21
1597.749496429288
 31
0.0
  0
LINE
  5
D1B5
  8
YODOROGO
 10
30425.604341291921
 20
1581.749496429286
 30
0.0
 11
30389.604341291921
 21
1581.749496429286
 31
0.0
  0
LINE
  5
D1B6
  8
YODOROGO
 10
30425.604341291921
 20
1593.749496429288
 30
0.0
 11
30425.604341291921
 21
1581.749496429286
 31
0.0
  0
LINE
  5
D1B7
  8
YODOROGO
 10
30389.604341291921
 20
1593.749496429288
 30
0.0
 11
30425.604341291921
 21
1593.749496429288
 31
0.0
  0
LINE
  5
D1B8
  8
YODOROGO
 10
30389.604341291921
 20
1581.749496429286
 30
0.0
 11
30389.604341291921
 21
1593.749496429288
 31
0.0
  0
LINE
  5
D1B9
  8
YODOROGO
 10
30421.604341291932
 20
1585.7494964292871
 30
0.0
 11
30393.604341291921
 21
1585.7494964292871
 31
0.0
  0
LINE
  5
D1BA
  8
YODOROGO
 10
30421.604341291932
 20
1589.749496429288
 30
0.0
 11
30421.604341291932
 21
1585.7494964292871
 31
0.0
  0
LINE
  5
D1BB
  8
YODOROGO
 10
30393.604341291921
 20
1589.749496429288
 30
0.0
 11
30421.604341291932
 21
1589.749496429288
 31
0.0
  0
LINE
  5
D1BC
  8
YODOROGO
 10
30393.604341291921
 20
1585.7494964292871
 30
0.0
 11
30393.604341291921
 21
1589.749496429288
 31
0.0
  0
LINE
  5
D1BD
  8
YODOROGO
 10
30465.604341291921
 20
1627.749496429288
 30
0.0
 11
30381.604341291932
 21
1627.749496429288
 31
0.0
  0
LINE
  5
D1BE
  8
YODOROGO
 10
30465.604341291921
 20
1547.749496429288
 30
0.0
 11
30465.604341291921
 21
1627.749496429288
 31
0.0
  0
LINE
  5
D1BF
  8
YODOROGO
 10
30381.604341291932
 20
1547.749496429288
 30
0.0
 11
30465.604341291921
 21
1547.749496429288
 31
0.0
  0
LINE
  5
D1C0
  8
YODOROGO
 10
30381.604341291932
 20
1427.749496429288
 30
0.0
 11
30381.604341291932
 21
1547.749496429288
 31
0.0
  0
LINE
  5
D1C1
  8
YODOROGO
 10
30537.604341291921
 20
1427.749496429288
 30
0.0
 11
30381.604341291932
 21
1427.749496429288
 31
0.0
  0
LINE
  5
D1C2
  8
YODOROGO
 10
30569.604341291921
 20
1571.749496429285
 30
0.0
 11
30569.604341291921
 21
1599.7494964292871
 31
0.0
  0
ARC
  5
D1C3
  8
YODOROGO
 10
30545.604341291921
 20
1571.749496429291
 30
0.0
 40
24.000000000003752
 50
270.0
 51
359.99999999998772
  0
LINE
  5
D1C4
  8
YODOROGO
 10
30529.604341291939
 20
1547.749496429288
 30
0.0
 11
30545.604341291921
 21
1547.749496429288
 31
0.0
  0
LINE
  5
D1C5
  8
YODOROGO
 10
30529.604341291939
 20
1627.749496429288
 30
0.0
 11
30529.604341291939
 21
1547.749496429288
 31
0.0
  0
LINE
  5
D1C6
  8
YODOROGO
 10
30899.604341291932
 20
1547.749496429288
 30
0.0
 11
30925.604341291921
 21
1547.749496429288
 31
0.0
  0
LINE
  5
D1C7
  8
YODOROGO
 10
30933.604341291921
 20
1427.749496429288
 30
0.0
 11
30899.604341291932
 21
1427.749496429288
 31
0.0
  0
LINE
  5
D1C8
  8
YODOROGO
 10
30763.604341291921
 20
1563.7494964292871
 30
0.0
 11
30791.604341291921
 21
1563.7494964292871
 31
0.0
  0
LINE
  5
D1C9
  8
YODOROGO
 10
30899.604341291932
 20
1491.749496429288
 30
0.0
 11
30723.604341291921
 21
1491.749496429288
 31
0.0
  0
LINE
  5
D1CA
  8
YODOROGO
 10
30831.604341291921
 20
1563.7494964292871
 30
0.0
 11
30859.604341291932
 21
1563.7494964292871
 31
0.0
  0
LINE
  5
D1CB
  8
YODOROGO
 10
30899.604341291932
 20
1427.749496429288
 30
0.0
 11
30899.604341291932
 21
1547.749496429288
 31
0.0
  0
LINE
  5
D1CC
  8
YODOROGO
 10
30697.604341291932
 20
1427.749496429288
 30
0.0
 11
30645.604341291921
 21
1427.749496429288
 31
0.0
  0
LINE
  5
D1CD
  8
YODOROGO
 10
30617.604341291921
 20
1599.7494964292871
 30
0.0
 11
30617.604341291921
 21
1507.749496429288
 31
0.0
  0
ARC
  5
D1CE
  8
YODOROGO
 10
30933.604341291921
 20
1467.749496429288
 30
0.0
 40
40.0
 50
270.0
 51
0.0
  0
LINE
  5
D1CF
  8
YODOROGO
 10
31093.604341291921
 20
1523.7494964292871
 30
0.0
 11
31093.604341291921
 21
1427.749496429288
 31
0.0
  0
ARC
  5
D1D0
  8
YODOROGO
 10
31039.721395566768
 20
1637.5313901097329
 30
0.0
 40
125.8955565916754
 50
295.34052442160112
 51
359.18902303418679
  0
LINE
  5
D1D1
  8
YODOROGO
 10
30617.604341291921
 20
1859.749496429288
 30
0.0
 11
30497.604341291921
 21
1939.749496429288
 31
0.0
  0
LINE
  5
D1D2
  8
YODOROGO
 10
30497.604341291921
 20
2027.749496429288
 30
0.0
 11
30617.604341291921
 21
1947.749496429288
 31
0.0
  0
LINE
  5
D1D3
  8
YODOROGO
 10
30529.604341291939
 20
1679.749496429288
 30
0.0
 11
30617.604341291921
 21
1679.749496429288
 31
0.0
  0
LINE
  5
D1D4
  8
YODOROGO
 10
30617.604341291921
 20
1735.7494964292871
 30
0.0
 11
30529.604341291939
 21
1735.7494964292871
 31
0.0
  0
LINE
  5
D1D5
  8
YODOROGO
 10
30381.604341291932
 20
1795.7494964292871
 30
0.0
 11
30617.604341291921
 21
1795.7494964292871
 31
0.0
  0
LINE
  5
D1D6
  8
YODOROGO
 10
30081.604341291921
 20
2027.749496429288
 30
0.0
 11
30021.604341291921
 21
2027.749496429288
 31
0.0
  0
LINE
  5
D1D7
  8
YODOROGO
 10
30081.604341291921
 20
1827.7494964292871
 30
0.0
 11
30081.604341291921
 21
2027.749496429288
 31
0.0
  0
LINE
  5
D1D8
  8
YODOROGO
 10
30021.604341291921
 20
1827.7494964292871
 30
0.0
 11
30081.604341291921
 21
1827.7494964292871
 31
0.0
  0
LINE
  5
D1D9
  8
YODOROGO
 10
30021.604341291921
 20
2027.749496429288
 30
0.0
 11
30021.604341291921
 21
1827.7494964292871
 31
0.0
  0
LINE
  5
D1DA
  8
YODOROGO
 10
30161.604341291921
 20
2027.749496429288
 30
0.0
 11
30217.604341291921
 21
2027.749496429288
 31
0.0
  0
LINE
  5
D1DB
  8
YODOROGO
 10
30161.604341291921
 20
1811.749496429288
 30
0.0
 11
30161.604341291921
 21
2027.749496429288
 31
0.0
  0
ARC
  5
D1DC
  8
YODOROGO
 10
30121.604341291921
 20
1811.749496429288
 30
0.0
 40
40.0
 50
270.0
 51
0.0
  0
LINE
  5
D1DD
  8
YODOROGO
 10
30021.604341291921
 20
1771.7494964292871
 30
0.0
 11
30121.604341291921
 21
1771.7494964292871
 31
0.0
  0
LINE
  5
D1DE
  8
YODOROGO
 10
30021.604341291921
 20
1707.749496429288
 30
0.0
 11
30021.604341291921
 21
1771.7494964292871
 31
0.0
  0
LINE
  5
D1DF
  8
YODOROGO
 10
30137.604341291921
 20
1707.749496429288
 30
0.0
 11
30021.604341291921
 21
1707.749496429288
 31
0.0
  0
ARC
  5
D1E0
  8
YODOROGO
 10
30137.604341291921
 20
1787.7494964292871
 30
0.0
 40
80.0
 50
270.0
 51
0.0
  0
LINE
  5
D1E1
  8
YODOROGO
 10
30217.604341291921
 20
2027.749496429288
 30
0.0
 11
30217.604341291921
 21
1787.7494964292871
 31
0.0
  0
LINE
  5
D1E2
  8
YODOROGO
 10
29977.604341291921
 20
1947.749496429288
 30
0.0
 11
29977.604341291921
 21
1995.7494964292871
 31
0.0
1001
AUTOCAD_POSTSCRIPT_FIGURE
1002
{
1000
PSFILL
1000
Grayscale
1000
Grayscale
1070
    25
1002
}
  0
LINE
  5
D1E3
  8
YODOROGO
 10
29977.604341291921
 20
1859.749496429288
 30
0.0
 11
29977.604341291921
 21
1907.7494964292871
 31
0.0
1001
AUTOCAD_POSTSCRIPT_FIGURE
1002
{
1000
PSFILL
1000
Grayscale
1000
Grayscale
1070
    25
1002
}
  0
LINE
  5
D1E4
  8
YODOROGO
 10
29977.604341291921
 20
1707.749496429288
 30
0.0
 11
29977.604341291921
 21
1819.7494964292871
 31
0.0
1001
AUTOCAD_POSTSCRIPT_FIGURE
1002
{
1000
PSFILL
1000
Grayscale
1000
Grayscale
1070
    25
1002
}
  0
LINE
  5
D1E5
  8
YODOROGO
 10
30381.604341291932
 20
1907.7494964292871
 30
0.0
 11
30497.604341291921
 21
2027.749496429288
 31
0.0
  0
LINE
  5
D1E6
  8
YODOROGO
 10
30381.604341291932
 20
1819.7494964292871
 30
0.0
 11
30381.604341291932
 21
1907.7494964292871
 31
0.0
  0
LINE
  5
D1E7
  8
YODOROGO
 10
30497.604341291921
 20
1939.749496429288
 30
0.0
 11
30381.604341291932
 21
1819.7494964292871
 31
0.0
  0
LINE
  5
D1E8
  8
YODOROGO
 10
30465.604341291921
 20
1679.749496429288
 30
0.0
 11
30465.604341291921
 21
1735.7494964292871
 31
0.0
  0
LINE
  5
D1E9
  8
YODOROGO
 10
30381.604341291932
 20
1679.749496429288
 30
0.0
 11
30465.604341291921
 21
1679.749496429288
 31
0.0
  0
LINE
  5
D1EA
  8
YODOROGO
 10
30529.604341291939
 20
1735.7494964292871
 30
0.0
 11
30529.604341291939
 21
1679.749496429288
 31
0.0
  0
LINE
  5
D1EB
  8
YODOROGO
 10
30381.604341291932
 20
1735.7494964292871
 30
0.0
 11
30381.604341291932
 21
1795.7494964292871
 31
0.0
  0
LINE
  5
D1EC
  8
YODOROGO
 10
30465.604341291921
 20
1735.7494964292871
 30
0.0
 11
30381.604341291932
 21
1735.7494964292871
 31
0.0
  0
LINE
  5
D1ED
  8
YODOROGO
 10
30645.604341291921
 20
2027.749496429288
 30
0.0
 11
30973.604341291921
 21
2027.749496429288
 31
0.0
  0
LINE
  5
D1EE
  8
YODOROGO
 10
30925.604341291921
 20
1963.749496429286
 30
0.0
 11
30697.604341291932
 21
1963.749496429286
 31
0.0
  0
LINE
  5
D1EF
  8
YODOROGO
 10
30873.604341291921
 20
1819.7494964292871
 30
0.0
 11
30899.604341291932
 21
1819.7494964292871
 31
0.0
  0
LINE
  5
D1F0
  8
YODOROGO
 10
30899.604341291932
 20
1939.749496429288
 30
0.0
 11
30873.604341291921
 21
1819.7494964292871
 31
0.0
  0
LINE
  5
D1F1
  8
YODOROGO
 10
30851.604341291939
 20
1939.749496429288
 30
0.0
 11
30899.604341291932
 21
1939.749496429288
 31
0.0
  0
LINE
  5
D1F2
  8
YODOROGO
 10
30825.604341291921
 20
1819.7494964292871
 30
0.0
 11
30851.604341291939
 21
1939.749496429288
 31
0.0
  0
LINE
  5
D1F3
  8
YODOROGO
 10
30797.604341291921
 20
1819.7494964292871
 30
0.0
 11
30825.604341291921
 21
1819.7494964292871
 31
0.0
  0
LINE
  5
D1F4
  8
YODOROGO
 10
30771.604341291939
 20
1939.749496429288
 30
0.0
 11
30797.604341291921
 21
1819.7494964292871
 31
0.0
  0
LINE
  5
D1F5
  8
YODOROGO
 10
30723.604341291921
 20
1939.749496429288
 30
0.0
 11
30771.604341291939
 21
1939.749496429288
 31
0.0
  0
LINE
  5
D1F6
  8
YODOROGO
 10
30749.604341291921
 20
1819.7494964292871
 30
0.0
 11
30723.604341291921
 21
1939.749496429288
 31
0.0
  0
LINE
  5
D1F7
  8
YODOROGO
 10
30723.604341291921
 20
1819.7494964292871
 30
0.0
 11
30749.604341291921
 21
1819.7494964292871
 31
0.0
  0
LINE
  5
D1F8
  8
YODOROGO
 10
30723.604341291921
 20
1755.7494964292871
 30
0.0
 11
30723.604341291921
 21
1819.7494964292871
 31
0.0
  0
LINE
  5
D1F9
  8
YODOROGO
 10
30899.604341291932
 20
1755.7494964292871
 30
0.0
 11
30723.604341291921
 21
1755.7494964292871
 31
0.0
  0
LINE
  5
D1FA
  8
YODOROGO
 10
30899.604341291932
 20
1819.7494964292871
 30
0.0
 11
30899.604341291932
 21
1755.7494964292871
 31
0.0
  0
LINE
  5
D1FB
  8
YODOROGO
 10
30617.604341291921
 20
1947.749496429288
 30
0.0
 11
30617.604341291921
 21
1859.749496429288
 31
0.0
  0
LINE
  5
D1FC
  8
YODOROGO
 10
30791.604341291921
 20
1755.7494964292871
 30
0.0
 11
30831.604341291921
 21
1755.7494964292871
 31
0.0
  0
LINE
  5
D1FD
  8
YODOROGO
 10
30723.604341291921
 20
1691.749496429288
 30
0.0
 11
30763.604341291921
 21
1691.749496429288
 31
0.0
  0
LINE
  5
D1FE
  8
YODOROGO
 10
30859.604341291932
 20
1691.749496429288
 30
0.0
 11
30899.604341291932
 21
1691.749496429288
 31
0.0
  0
LINE
  5
D1FF
  8
YODOROGO
 10
30617.604341291921
 20
1795.7494964292871
 30
0.0
 11
30617.604341291921
 21
1735.7494964292871
 31
0.0
  0
LINE
  5
D200
  8
YODOROGO
 10
31165.604341291921
 20
2027.749496429288
 30
0.0
 11
31165.604341291921
 21
1963.749496429286
 31
0.0
  0
LINE
  5
D201
  8
YODOROGO
 10
31533.604341291921
 20
1595.7494964292871
 30
0.0
 11
31533.60434129191
 21
1811.749496429288
 31
0.0
  0
LINE
  5
D202
  8
YODOROGO
 10
31461.60434129191
 20
1987.7494964292871
 30
0.0
 11
31461.60434129191
 21
1635.7494964292871
 31
0.0
  0
LINE
  5
D203
  8
YODOROGO
 10
31653.604341291921
 20
1427.749496429288
 30
0.0
 11
31653.60434129191
 21
1811.749496429288
 31
0.0
  0
LINE
  5
D204
  8
YODOROGO
 10
31589.604341291921
 20
1811.749496429288
 30
0.0
 11
31589.604341291921
 21
1427.749496429288
 31
0.0
  0
LINE
  5
D205
  8
YODOROGO
 10
31237.604341291921
 20
1595.7494964292871
 30
0.0
 11
31237.604341291921
 21
1707.749496429288
 31
0.0
  0
ARC
  5
D206
  8
YODOROGO
 10
31353.914865116069
 20
1607.790351288558
 30
0.0
 40
180.0924485759885
 50
268.62849102169793
 51
356.16638457330322
  0
LINE
  5
D207
  8
YODOROGO
 10
31349.604341291939
 20
1527.749496429288
 30
0.0
 11
31349.604341291939
 21
1427.749496429288
 31
0.0
  0
ARC
  5
D208
  8
YODOROGO
 10
31351.518075724562
 20
1637.838957017655
 30
0.0
 40
110.1060929836122
 50
269.00410209305932
 51
358.91264455492478
  0
LINE
  5
D209
  8
YODOROGO
 10
31589.604341291921
 20
1427.749496429288
 30
0.0
 11
31653.604341291921
 21
1427.749496429288
 31
0.0
  0
LINE
  5
D20A
  8
YODOROGO
 10
31533.60434129191
 20
1811.749496429288
 30
0.0
 11
31589.604341291921
 21
1811.749496429288
 31
0.0
  0
LINE
  5
D20B
  8
YODOROGO
 10
31621.604341291939
 20
1987.7494964292871
 30
0.0
 11
31461.60434129191
 21
1987.7494964292871
 31
0.0
  0
LINE
  5
D20C
  8
YODOROGO
 10
31533.60434129191
 20
1915.7494964292871
 30
0.0
 11
31661.604341291939
 21
1915.7494964292871
 31
0.0
  0
LINE
  5
D20D
  8
YODOROGO
 10
31701.604341291939
 20
1875.7494964292871
 30
0.0
 11
31533.60434129191
 21
1875.7494964292871
 31
0.0
  0
LINE
  5
D20E
  8
YODOROGO
 10
31237.604341291921
 20
1779.749496429288
 30
0.0
 11
31349.604341291939
 21
1779.749496429288
 31
0.0
  0
LINE
  5
D20F
  8
YODOROGO
 10
31237.604341291921
 20
1835.7494964292871
 30
0.0
 11
31237.604341291921
 21
1779.749496429288
 31
0.0
  0
LINE
  5
D210
  8
YODOROGO
 10
31349.604341291939
 20
1835.7494964292871
 30
0.0
 11
31237.604341291921
 21
1835.7494964292871
 31
0.0
  0
LINE
  5
D211
  8
YODOROGO
 10
31349.604341291939
 20
1779.749496429288
 30
0.0
 11
31349.604341291939
 21
1835.7494964292871
 31
0.0
  0
LINE
  5
D212
  8
YODOROGO
 10
31533.60434129191
 20
1875.7494964292871
 30
0.0
 11
31533.60434129191
 21
1915.7494964292871
 31
0.0
  0
LINE
  5
D213
  8
YODOROGO
 10
31413.604341291921
 20
1707.749496429288
 30
0.0
 11
31413.604341291921
 21
1907.7494964292871
 31
0.0
  0
LINE
  5
D214
  8
YODOROGO
 10
31237.604341291921
 20
1707.749496429288
 30
0.0
 11
31413.604341291921
 21
1707.749496429288
 31
0.0
  0
LINE
  5
D215
  8
YODOROGO
 10
31413.604341291921
 20
1963.749496429286
 30
0.0
 11
31413.604341291921
 21
2027.749496429288
 31
0.0
  0
ARC
  5
D216
  8
YODOROGO
 10
31621.604341291939
 20
2003.749496429285
 30
0.0
 40
15.999999999994539
 50
270.0
 51
0.0000000000081422
  0
LINE
  5
D217
  8
YODOROGO
 10
31637.604341291921
 20
2027.749496429288
 30
0.0
 11
31637.604341291921
 21
2003.7494964292871
 31
0.0
  0
LINE
  5
D218
  8
YODOROGO
 10
31701.604341291939
 20
2027.749496429288
 30
0.0
 11
31637.604341291921
 21
2027.749496429288
 31
0.0
  0
LINE
  5
D219
  8
YODOROGO
 10
31701.604341291939
 20
1955.7494964292871
 30
0.0
 11
31701.604341291939
 21
2027.749496429288
 31
0.0
  0
ARC
  5
D21A
  8
YODOROGO
 10
31661.604341291939
 20
1955.7494964292871
 30
0.0
 40
40.0
 50
270.0
 51
0.0
  0
LINE
  5
D21B
  8
YODOROGO
 10
31701.604341291939
 20
1811.749496429288
 30
0.0
 11
31701.604341291939
 21
1875.7494964292871
 31
0.0
  0
LINE
  5
D21C
  8
YODOROGO
 10
31653.60434129191
 20
1811.749496429288
 30
0.0
 11
31701.604341291939
 21
1811.749496429288
 31
0.0
  0
LINE
  5
D21D
  8
0-6
  6
CONTINUOUS
 62
     6
 10
5987.7031193205039
 20
19485.51576162122
 30
0.0
 11
6062.4228643911338
 21
19629.48775599994
 31
0.0
  0
LINE
  5
D21E
  8
0-6
  6
CONTINUOUS
 62
     6
 10
6062.4228643911338
 20
19629.48775599994
 30
0.0
 11
5945.046821407479
 21
19517.530766322481
 31
0.0
  0
LINE
  5
D21F
  8
0-6
  6
CONTINUOUS
 62
     6
 10
5945.046821407479
 20
19517.530766322481
 30
0.0
 11
5987.7031193205039
 21
19485.51576162122
 31
0.0
  0
LINE
  5
D220
  8
0-6
  6
CONTINUOUS
 62
     6
 10
5987.7031193205039
 20
16606.514257621209
 30
0.0
 11
6062.4228643911338
 21
16750.486251999941
 31
0.0
  0
LINE
  5
D221
  8
0-6
  6
CONTINUOUS
 62
     6
 10
6062.4228643911338
 20
16750.486251999941
 30
0.0
 11
5945.046821407479
 21
16638.529262322481
 31
0.0
  0
LINE
  5
D222
  8
0-6
  6
CONTINUOUS
 62
     6
 10
5945.046821407479
 20
16638.529262322481
 30
0.0
 11
5987.7031193205039
 21
16606.514257621209
 31
0.0
  0
LINE
  5
D223
  8
0-6
  6
CONTINUOUS
 62
     6
 10
5957.288594632706
 20
13301.514904621219
 30
0.0
 11
6032.008339703335
 21
13445.48689899994
 31
0.0
  0
LINE
  5
D224
  8
0-6
  6
CONTINUOUS
 62
     6
 10
6032.008339703335
 20
13445.48689899994
 30
0.0
 11
5914.6322967196802
 21
13333.52990932246
 31
0.0
  0
LINE
  5
D225
  8
0-6
  6
CONTINUOUS
 62
     6
 10
5914.6322967196802
 20
13333.52990932246
 30
0.0
 11
5957.288594632706
 21
13301.514904621219
 31
0.0
  0
LINE
  5
D226
  8
SUNPOU
  6
CONTINUOUS
 62
     4
 10
13124.116989100979
 20
13289.48697799999
 30
0.0
 11
13971.11676510096
 21
13289.48697799999
 31
0.0
  0
LINE
  5
D227
  8
SUNPOU
  6
CONTINUOUS
 62
     4
 10
13891.11676510096
 20
13481.986252000001
 30
0.0
 11
13891.11676510096
 21
13289.48697799999
 31
0.0
  0
LINE
  5
D228
  8
SUNPOU
  6
CONTINUOUS
 62
     4
 10
13891.11676510096
 20
16750.486251999992
 30
0.0
 11
13891.11676510096
 21
13481.986252000001
 31
0.0
  0
LINE
  5
D229
  8
SUNPOU
  6
CONTINUOUS
 62
     4
 10
13891.11676510096
 20
19668.486251999992
 30
0.0
 11
13891.11676510096
 21
16750.486251999992
 31
0.0
  0
LINE
  5
D22A
  8
SUNPOU
  6
CONTINUOUS
 62
     4
 10
13811.11676510096
 20
19668.486251999992
 30
0.0
 11
13851.11676510096
 21
19668.486251999992
 31
0.0
  0
LINE
  5
D22B
  8
SUNPOU
  6
CONTINUOUS
 62
     4
 10
13119.117715100971
 20
19890.98611999999
 30
0.0
 11
13931.11676510096
 21
19890.98611999999
 31
0.0
  0
LINE
  5
D22C
  8
SUNPOU
  6
CONTINUOUS
 62
     4
 10
13891.11676510096
 20
19668.486251999992
 30
0.0
 11
13891.11676510096
 21
19890.98611999999
 31
0.0
  0
LINE
  5
D22D
  8
SUNPOU
  6
CONTINUOUS
 62
     4
 10
13050.61687010095
 20
19880.989550999991
 30
0.0
 11
13571.117424100959
 21
19880.989550999991
 31
0.0
  0
LINE
  5
D22E
  8
SUNPOU
  6
CONTINUOUS
 62
     4
 10
13119.117715100971
 20
19890.98611999999
 30
0.0
 11
13571.117424100959
 21
19890.98611999999
 31
0.0
  0
LINE
  5
D22F
  8
SUNPOU
  6
CONTINUOUS
 62
     4
 10
13491.117424100959
 20
19880.989550999991
 30
0.0
 11
13491.117424100959
 21
19640.989550999991
 31
0.0
  0
LINE
  5
D230
  8
SUNPOU
  6
CONTINUOUS
 62
     4
 10
13491.117424100959
 20
19890.98611999999
 30
0.0
 11
13491.117424100959
 21
20130.98611999998
 31
0.0
  0
LINE
  5
D231
  8
SUNPOU
  6
CONTINUOUS
 62
     4
 10
13491.117424100959
 20
19880.989550999991
 30
0.0
 11
13491.117424100959
 21
19890.98611999999
 31
0.0
  0
LINE
  5
D232
  8
SUNPOU
  6
CONTINUOUS
 62
     4
 10
5394.1169891009777
 20
20515.988164999992
 30
0.0
 11
5394.1169891009777
 21
20590.987175999991
 31
0.0
  0
LINE
  5
D233
  8
SUNPOU
  6
CONTINUOUS
 62
     4
 10
5308.6169891009758
 20
19965.987834999982
 30
0.0
 11
5308.6169891009758
 21
20590.987175999991
 31
0.0
  0
LINE
  5
D234
  8
SUNPOU
  6
CONTINUOUS
 62
     4
 10
5394.1169891009777
 20
20510.987175999991
 30
0.0
 11
5634.1169891009768
 21
20510.987175999991
 31
0.0
  0
LINE
  5
D235
  8
SUNPOU
  6
CONTINUOUS
 62
     4
 10
5311.6169891009768
 20
20510.987175999991
 30
0.0
 11
5071.6169891009768
 21
20510.987175999991
 31
0.0
  0
LINE
  5
D236
  8
SUNPOU
  6
CONTINUOUS
 62
     4
 10
5394.1169891009777
 20
20510.987175999991
 30
0.0
 11
5311.6169891009768
 21
20510.987175999991
 31
0.0
  0
LINE
  5
D237
  8
SUNPOU
  6
CONTINUOUS
 62
     4
 10
10394.116989100959
 20
20515.988164999992
 30
0.0
 11
10394.116989100959
 21
20590.987175999991
 31
0.0
  0
LINE
  5
D238
  8
SUNPOU
  6
CONTINUOUS
 62
     4
 10
5394.1169891009777
 20
20515.988164999992
 30
0.0
 11
5394.1169891009777
 21
20590.987175999991
 31
0.0
  0
LINE
  5
D239
  8
SUNPOU
  6
CONTINUOUS
 62
     4
 10
10394.116989100959
 20
20510.987175999991
 30
0.0
 11
5394.1169891009777
 21
20510.987175999991
 31
0.0
  0
LINE
  5
D23A
  8
SUNPOU
  6
CONTINUOUS
 62
     4
 10
12961.61698910097
 20
20040.987834999989
 30
0.0
 11
12961.61698910097
 21
20590.987175999991
 31
0.0
  0
LINE
  5
D23B
  8
SUNPOU
  6
CONTINUOUS
 62
     4
 10
10394.116989100959
 20
20515.988164999992
 30
0.0
 11
10394.116989100959
 21
20590.987175999991
 31
0.0
  0
LINE
  5
D23C
  8
SUNPOU
  6
CONTINUOUS
 62
     4
 10
12961.61698910097
 20
20510.987175999991
 30
0.0
 11
10394.116989100959
 21
20510.987175999991
 31
0.0
  0
LINE
  5
D23D
  8
SUNPOU
  6
CONTINUOUS
 62
     4
 10
12961.61698910097
 20
20040.987834999989
 30
0.0
 11
12961.61698910097
 21
20590.987175999991
 31
0.0
  0
LINE
  5
D23E
  8
SUNPOU
  6
CONTINUOUS
 62
     4
 10
13047.116989100979
 20
19960.987571999998
 30
0.0
 11
13047.116989100979
 21
20590.987175999991
 31
0.0
  0
LINE
  5
D23F
  8
SUNPOU
  6
CONTINUOUS
 62
     4
 10
12961.61698910097
 20
20510.987175999991
 30
0.0
 11
12721.616989100979
 21
20510.987175999991
 31
0.0
  0
LINE
  5
D240
  8
SUNPOU
  6
CONTINUOUS
 62
     4
 10
13044.116989100979
 20
20510.987175999991
 30
0.0
 11
13284.116989100979
 21
20510.987175999991
 31
0.0
  0
LINE
  5
D241
  8
SUNPOU
  6
CONTINUOUS
 62
     4
 10
12961.61698910097
 20
20510.987175999991
 30
0.0
 11
13044.116989100979
 21
20510.987175999991
 31
0.0
  0
LINE
  5
D242
  8
SUNPOU
  6
CONTINUOUS
 62
     4
 10
13047.116989100979
 20
13209.48697799999
 30
0.0
 11
13047.116989100979
 21
11919.48618599998
 31
0.0
  0
LINE
  5
D243
  8
SUNPOU
  6
CONTINUOUS
 62
     4
 10
5308.6169891009758
 20
13209.486977999981
 30
0.0
 11
5308.6169891009758
 21
11919.48618599998
 31
0.0
  0
LINE
  5
D244
  8
SUNPOU
  6
CONTINUOUS
 62
     4
 10
13044.116989100979
 20
11999.48618599998
 30
0.0
 11
5311.6169891009768
 21
11999.48618599998
 31
0.0
  0
LINE
  5
D245
  8
SUNPOU
  6
CONTINUOUS
 62
     4
 10
26197.970723566788
 20
19790.986251999992
 30
0.0
 11
26197.970723566788
 21
20590.987175999991
 31
0.0
  0
LINE
  5
D246
  8
SUNPOU
  6
CONTINUOUS
 62
     4
 10
26955.970723566788
 20
19870.988758999989
 30
0.0
 11
26955.970723566788
 21
20590.987175999991
 31
0.0
  0
LINE
  5
D247
  8
SUNPOU
  6
CONTINUOUS
 62
     4
 10
26197.970723566788
 20
20510.987175999991
 30
0.0
 11
26955.970723566788
 21
20510.987175999991
 31
0.0
  0
LINE
  5
D248
  8
SUNPOU
  6
CONTINUOUS
 62
     4
 10
13748.00734467521
 20
8478.188374000003
 30
0.0
 11
13748.00734467521
 21
9869.1883999999955
 31
0.0
  0
LINE
  5
D249
  8
SUNPOU
  6
CONTINUOUS
 62
     4
 10
7146.5073446752067
 20
8610.0781974124293
 30
0.0
 11
7146.5073446752067
 21
9869.1883999999955
 31
0.0
  0
LINE
  5
D24A
  8
SUNPOU
  6
CONTINUOUS
 62
     4
 10
13748.00734467521
 20
9789.1883999999955
 30
0.0
 11
7146.5073446752067
 21
9789.1883999999955
 31
0.0
  0
LINE
  5
D24B
  8
SUNPOU
  6
CONTINUOUS
 62
     4
 10
7296.5073446752003
 20
8536.0984379999973
 30
0.0
 11
7296.5073446752003
 21
9469.1900499999992
 31
0.0
  0
LINE
  5
D24C
  8
SUNPOU
  6
CONTINUOUS
 62
     4
 10
7146.5073446752067
 20
8610.0781974124293
 30
0.0
 11
7146.5073446752067
 21
9469.1900499999992
 31
0.0
  0
LINE
  5
D24D
  8
SUNPOU
  6
CONTINUOUS
 62
     4
 10
7296.5073446752003
 20
9389.1900499999992
 30
0.0
 11
7536.5073446751967
 21
9389.1900499999992
 31
0.0
  0
LINE
  5
D24E
  8
SUNPOU
  6
CONTINUOUS
 62
     4
 10
7146.5073446752067
 20
9389.1900499999992
 30
0.0
 11
6906.5073446752058
 21
9389.1900499999992
 31
0.0
  0
LINE
  5
D24F
  8
SUNPOU
  6
CONTINUOUS
 62
     4
 10
7296.5073446752003
 20
9389.1900499999992
 30
0.0
 11
7146.5073446752067
 21
9389.1900499999992
 31
0.0
  0
LINE
  5
D250
  8
SUNPOU
  6
CONTINUOUS
 62
     4
 10
13568.00734467521
 20
8348.3741496838084
 30
0.0
 11
13568.00734467521
 21
9469.1900499999992
 31
0.0
  0
LINE
  5
D251
  8
SUNPOU
  6
CONTINUOUS
 62
     4
 10
7296.5073446752003
 20
8536.0984379999973
 30
0.0
 11
7296.5073446752003
 21
9469.1900499999992
 31
0.0
  0
LINE
  5
D252
  8
SUNPOU
  6
CONTINUOUS
 62
     4
 10
13568.00734467521
 20
9389.1900499999992
 30
0.0
 11
7296.5073446752003
 21
9389.1900499999992
 31
0.0
  0
LINE
  5
D253
  8
SUNPOU
  6
CONTINUOUS
 62
     4
 10
13748.00734467521
 20
8478.188374000003
 30
0.0
 11
13748.00734467521
 21
9469.1900499999992
 31
0.0
  0
LINE
  5
D254
  8
SUNPOU
  6
CONTINUOUS
 62
     4
 10
13568.00734467521
 20
8348.3741496838084
 30
0.0
 11
13568.00734467521
 21
9469.1900499999992
 31
0.0
  0
LINE
  5
D255
  8
SUNPOU
  6
CONTINUOUS
 62
     4
 10
13748.00734467521
 20
9389.1900499999992
 30
0.0
 11
13568.00734467521
 21
9389.1900499999992
 31
0.0
  0
LINE
  5
D256
  8
SUNPOU
  6
CONTINUOUS
 62
     4
 10
7204.0073446752076
 20
6241.1883740000012
 30
0.0
 11
6126.5069486752036
 21
6241.1883740000021
 31
0.0
  0
LINE
  5
D257
  8
SUNPOU
  6
CONTINUOUS
 62
     4
 10
7111.7000850758277
 20
8589.1883739999994
 30
0.0
 11
6126.5069486752036
 21
8589.1883739999994
 31
0.0
  0
LINE
  5
D258
  8
SUNPOU
  6
CONTINUOUS
 62
     4
 10
6206.5069486752036
 20
6241.1883740000012
 30
0.0
 11
6206.5069486752036
 21
8589.1883739999994
 31
0.0
  0
LINE
  5
D259
  8
SUNPOU
  6
CONTINUOUS
 62
     4
 10
13655.50734467519
 20
6241.1883740000012
 30
0.0
 11
14738.00774067519
 21
6241.1883740000003
 31
0.0
  0
LINE
  5
D25A
  8
SUNPOU
  6
CONTINUOUS
 62
     4
 10
13828.00734467521
 20
8398.188374000003
 30
0.0
 11
14738.00774067519
 21
8398.188374000003
 31
0.0
  0
LINE
  5
D25B
  8
SUNPOU
  6
CONTINUOUS
 62
     4
 10
14658.00774067519
 20
6241.1883740000003
 30
0.0
 11
14658.00774067519
 21
8398.188374000003
 31
0.0
  0
LINE
  5
D25C
  8
SUNPOU
  6
CONTINUOUS
 62
     4
 10
13568.00734467521
 20
6161.1883740000012
 30
0.0
 11
13568.00734467521
 21
4461.1887039999956
 31
0.0
  0
LINE
  5
D25D
  8
SUNPOU
  6
CONTINUOUS
 62
     4
 10
7296.5073446752003
 20
6161.1883740000012
 30
0.0
 11
7296.5073446752003
 21
4461.1887039999956
 31
0.0
  0
LINE
  5
D25E
  8
SUNPOU
  6
CONTINUOUS
 62
     4
 10
13568.00734467521
 20
4541.1887039999938
 30
0.0
 11
7296.5073446752003
 21
4541.1887039999938
 31
0.0
  0
LINE
  5
D25F
  8
SUNPOU
  6
CONTINUOUS
 62
     4
 10
7339.0073446752076
 20
5798.5361160000011
 30
0.0
 11
7339.0073446752076
 21
4861.1885389999989
 31
0.0
  0
LINE
  5
D260
  8
SUNPOU
  6
CONTINUOUS
 62
     4
 10
7296.5073446752003
 20
6161.1883740000012
 30
0.0
 11
7296.5073446752003
 21
4861.1885389999989
 31
0.0
  0
LINE
  5
D261
  8
SUNPOU
  6
CONTINUOUS
 62
     4
 10
7339.0073446752076
 20
4941.1885389999979
 30
0.0
 11
7579.0073446752076
 21
4941.1885389999979
 31
0.0
  0
LINE
  5
D262
  8
SUNPOU
  6
CONTINUOUS
 62
     4
 10
7296.5073446752003
 20
4941.1885389999979
 30
0.0
 11
7056.5073446752012
 21
4941.1885389999979
 31
0.0
  0
LINE
  5
D263
  8
SUNPOU
  6
CONTINUOUS
 62
     4
 10
7339.0073446752076
 20
4941.1885389999979
 30
0.0
 11
7296.5073446752003
 21
4941.1885389999979
 31
0.0
  0
LINE
  5
D264
  8
SUNPOU
  6
CONTINUOUS
 62
     4
 10
13525.507344675199
 20
5798.5361160000011
 30
0.0
 11
13525.507344675199
 21
4861.1885389999989
 31
0.0
  0
LINE
  5
D265
  8
SUNPOU
  6
CONTINUOUS
 62
     4
 10
13568.00734467521
 20
6161.1883740000012
 30
0.0
 11
13568.00734467521
 21
4861.1885389999989
 31
0.0
  0
LINE
  5
D266
  8
SUNPOU
  6
CONTINUOUS
 62
     4
 10
13525.507344675199
 20
4941.1885389999979
 30
0.0
 11
13285.507344675199
 21
4941.1885389999979
 31
0.0
  0
LINE
  5
D267
  8
SUNPOU
  6
CONTINUOUS
 62
     4
 10
13568.00734467521
 20
4941.1885389999979
 30
0.0
 11
13808.00734467521
 21
4941.1885389999979
 31
0.0
  0
LINE
  5
D268
  8
SUNPOU
  6
CONTINUOUS
 62
     4
 10
13525.507344675199
 20
4941.1885389999979
 30
0.0
 11
13568.00734467521
 21
4941.1885389999979
 31
0.0
  0
LINE
  5
D269
  8
SUNPOU
  6
CONTINUOUS
 62
     4
 10
10607.50734467519
 20
5798.5361160000011
 30
0.0
 11
10607.50734467519
 21
4861.1885389999989
 31
0.0
  0
LINE
  5
D26A
  8
SUNPOU
  6
CONTINUOUS
 62
     4
 10
13525.507344675199
 20
5798.5361160000011
 30
0.0
 11
13525.507344675199
 21
4861.1885389999989
 31
0.0
  0
LINE
  5
D26B
  8
SUNPOU
  6
CONTINUOUS
 62
     4
 10
10607.50734467519
 20
4941.1885389999979
 30
0.0
 11
13525.507344675199
 21
4941.1885389999979
 31
0.0
  0
LINE
  5
D26C
  8
SUNPOU
  6
CONTINUOUS
 62
     4
 10
10607.50734467519
 20
5798.5361160000011
 30
0.0
 11
10607.50734467519
 21
4861.1885389999989
 31
0.0
  0
LINE
  5
D26D
  8
SUNPOU
  6
CONTINUOUS
 62
     4
 10
7339.0073446752076
 20
5798.5361160000011
 30
0.0
 11
7339.0073446752076
 21
4861.1885389999989
 31
0.0
  0
LINE
  5
D26E
  8
SUNPOU
  6
CONTINUOUS
 62
     4
 10
10607.50734467519
 20
4941.1885389999979
 30
0.0
 11
7339.0073446752076
 21
4941.1885389999979
 31
0.0
  0
LINE
  5
D26F
  8
SUNPOU
  6
CONTINUOUS
 62
     4
 10
27041.470723566799
 20
8669.1883999999955
 30
0.0
 11
27041.470723566799
 21
9869.1329740000037
 31
0.0
  0
LINE
  5
D270
  8
SUNPOU
  6
CONTINUOUS
 62
     4
 10
19302.970723566788
 20
8669.1883999999955
 30
0.0
 11
19302.970723566788
 21
9869.1329740000037
 31
0.0
  0
LINE
  5
D271
  8
SUNPOU
  6
CONTINUOUS
 62
     4
 10
27038.470723566799
 20
9789.1329740000037
 30
0.0
 11
19305.970723566788
 21
9789.1329740000037
 31
0.0
  0
LINE
  5
D272
  8
SUNPOU
  6
CONTINUOUS
 62
     4
 10
19345.970723566781
 20
8669.1883999999955
 30
0.0
 11
19345.970723566781
 21
9469.1900499999992
 31
0.0
  0
LINE
  5
D273
  8
SUNPOU
  6
CONTINUOUS
 62
     4
 10
19302.970723566788
 20
8669.1883999999955
 30
0.0
 11
19302.970723566788
 21
9469.1900499999992
 31
0.0
  0
LINE
  5
D274
  8
SUNPOU
  6
CONTINUOUS
 62
     4
 10
19345.970723566781
 20
9389.1900499999992
 30
0.0
 11
19585.970723566788
 21
9389.1900499999992
 31
0.0
  0
LINE
  5
D275
  8
SUNPOU
  6
CONTINUOUS
 62
     4
 10
19305.970723566788
 20
9389.1900499999992
 30
0.0
 11
19065.970723566781
 21
9389.1900499999992
 31
0.0
  0
LINE
  5
D276
  8
SUNPOU
  6
CONTINUOUS
 62
     4
 10
19345.970723566781
 20
9389.1900499999992
 30
0.0
 11
19305.970723566788
 21
9389.1900499999992
 31
0.0
  0
LINE
  5
D277
  8
SUNPOU
  6
CONTINUOUS
 62
     4
 10
26998.470723566799
 20
8539.1884659999978
 30
0.0
 11
26998.470723566799
 21
9469.1900499999992
 31
0.0
  0
LINE
  5
D278
  8
SUNPOU
  6
CONTINUOUS
 62
     4
 10
27041.470723566799
 20
8669.1883999999955
 30
0.0
 11
27041.470723566799
 21
9469.1900499999992
 31
0.0
  0
LINE
  5
D279
  8
SUNPOU
  6
CONTINUOUS
 62
     4
 10
26998.470723566799
 20
9389.1900499999992
 30
0.0
 11
26758.470723566799
 21
9389.1900499999992
 31
0.0
  0
LINE
  5
D27A
  8
SUNPOU
  6
CONTINUOUS
 62
     4
 10
27038.470723566799
 20
9389.1900499999992
 30
0.0
 11
27278.470723566799
 21
9389.1900499999992
 31
0.0
  0
LINE
  5
D27B
  8
SUNPOU
  6
CONTINUOUS
 62
     4
 10
26998.470723566799
 20
9389.1900499999992
 30
0.0
 11
27038.470723566799
 21
9389.1900499999992
 31
0.0
  0
LINE
  5
D27C
  8
SUNPOU
  6
CONTINUOUS
 62
     4
 10
24345.970723566781
 20
8539.1884659999978
 30
0.0
 11
24345.970723566781
 21
9469.1900499999992
 31
0.0
  0
LINE
  5
D27D
  8
SUNPOU
  6
CONTINUOUS
 62
     4
 10
26998.470723566799
 20
8539.1884659999978
 30
0.0
 11
26998.470723566799
 21
9469.1900499999992
 31
0.0
  0
LINE
  5
D27E
  8
SUNPOU
  6
CONTINUOUS
 62
     4
 10
24345.970723566781
 20
9389.1900499999992
 30
0.0
 11
26998.470723566799
 21
9389.1900499999992
 31
0.0
  0
LINE
  5
D27F
  8
SUNPOU
  6
CONTINUOUS
 62
     4
 10
27085.97336256679
 20
6241.1883740000012
 30
0.0
 11
28529.072974271541
 21
6241.1883740000012
 31
0.0
  0
LINE
  5
D280
  8
SUNPOU
  6
CONTINUOUS
 62
     4
 10
27118.470723566799
 20
8589.1883999999955
 30
0.0
 11
28529.072974271541
 21
8589.1883999999955
 31
0.0
  0
LINE
  5
D281
  8
SUNPOU
  6
CONTINUOUS
 62
     4
 10
28449.072974271541
 20
6241.1883740000012
 30
0.0
 11
28449.072974271541
 21
8589.1883999999955
 31
0.0
  0
LINE
  5
D282
  8
SUNPOU
  6
CONTINUOUS
 62
     4
 10
27085.97336256679
 20
6241.1883740000012
 30
0.0
 11
27885.974022566781
 21
6241.1883740000012
 31
0.0
  0
LINE
  5
D283
  8
SUNPOU
  6
CONTINUOUS
 62
     4
 10
26993.474418566781
 20
8132.6883740000021
 30
0.0
 11
27885.974022566781
 21
8132.6883740000021
 31
0.0
  0
LINE
  5
D284
  8
SUNPOU
  6
CONTINUOUS
 62
     4
 10
27805.974022566781
 20
6241.1883740000012
 30
0.0
 11
27805.974022566781
 21
8132.6883740000021
 31
0.0
  0
LINE
  5
D285
  8
SUNPOU
  6
CONTINUOUS
 62
     4
 10
24342.970723566781
 20
6161.1883740000012
 30
0.0
 11
24342.970723566781
 21
5261.1883740000012
 31
0.0
  0
LINE
  5
D286
  8
SUNPOU
  6
CONTINUOUS
 62
     4
 10
19430.970723566781
 20
6061.1885389999989
 30
0.0
 11
19430.970723566781
 21
5261.1883740000012
 31
0.0
  0
LINE
  5
D287
  8
SUNPOU
  6
CONTINUOUS
 62
     4
 10
24342.970723566781
 20
5341.1883740000012
 30
0.0
 11
19430.970723566781
 21
5341.1883740000012
 31
0.0
  0
LINE
  5
D288
  8
SUNPOU
  6
CONTINUOUS
 62
     4
 10
26998.430770619259
 20
6161.1883740000012
 30
0.0
 11
26998.430770619259
 21
4461.1887040000529
 31
0.0
  0
LINE
  5
D289
  8
SUNPOU
  6
CONTINUOUS
 62
     4
 10
19345.970723566781
 20
6061.1885389999989
 30
0.0
 11
19345.970723566781
 21
4461.1887040000529
 31
0.0
  0
LINE
  5
D28A
  8
SUNPOU
  6
CONTINUOUS
 62
     4
 10
26998.430770619259
 20
4541.1887040000547
 30
0.0
 11
19345.970723566781
 21
4541.1887040000547
 31
0.0
  0
LINE
  5
D28B
  8
SUNPOU
  6
CONTINUOUS
 62
     4
 10
26955.970723566799
 20
5798.5361160000011
 30
0.0
 11
26955.970723566799
 21
4861.1885389999989
 31
0.0
  0
LINE
  5
D28C
  8
SUNPOU
  6
CONTINUOUS
 62
     4
 10
26998.430770619259
 20
6161.1883740000012
 30
0.0
 11
26998.430770619259
 21
4861.1885389999989
 31
0.0
  0
LINE
  5
D28D
  8
SUNPOU
  6
CONTINUOUS
 62
     4
 10
26955.970723566799
 20
4941.1885389999979
 30
0.0
 11
26715.970723566799
 21
4941.1885389999979
 31
0.0
  0
LINE
  5
D28E
  8
SUNPOU
  6
CONTINUOUS
 62
     4
 10
26998.430770619259
 20
4941.1885389999979
 30
0.0
 11
27238.430770619259
 21
4941.1885389999979
 31
0.0
  0
LINE
  5
D28F
  8
SUNPOU
  6
CONTINUOUS
 62
     4
 10
26955.970723566799
 20
4941.1885389999979
 30
0.0
 11
26998.430770619259
 21
4941.1885389999979
 31
0.0
  0
LINE
  5
D290
  8
SUNPOU
  6
CONTINUOUS
 62
     4
 10
24388.470723566781
 20
5798.5361160000011
 30
0.0
 11
24388.470723566781
 21
4861.1885389999989
 31
0.0
  0
LINE
  5
D291
  8
SUNPOU
  6
CONTINUOUS
 62
     4
 10
26955.970723566799
 20
5798.5361160000011
 30
0.0
 11
26955.970723566799
 21
4861.1885389999989
 31
0.0
  0
LINE
  5
D292
  8
SUNPOU
  6
CONTINUOUS
 62
     4
 10
24388.470723566781
 20
4941.1885389999979
 30
0.0
 11
26955.970723566799
 21
4941.1885389999979
 31
0.0
  0
LINE
  5
D293
  8
SUNPOU
  6
CONTINUOUS
 62
     4
 10
26861.97072356681
 20
6061.1885389999989
 30
0.0
 11
26861.97072356681
 21
5261.1883740000012
 31
0.0
  0
LINE
  5
D294
  8
SUNPOU
  6
CONTINUOUS
 62
     4
 10
24482.470723566799
 20
6061.1885389999989
 30
0.0
 11
24482.470723566799
 21
5261.1883740000012
 31
0.0
  0
LINE
  5
D295
  8
SUNPOU
  6
CONTINUOUS
 62
     4
 10
26861.97072356681
 20
5341.1883740000012
 30
0.0
 11
24482.470723566799
 21
5341.1883740000012
 31
0.0
  0
LINE
  5
D296
  8
SUNPOU
  6
CONTINUOUS
 62
     4
 10
19388.470723566781
 20
5798.5361160000011
 30
0.0
 11
19388.470723566781
 21
4861.1885389999989
 31
0.0
  0
LINE
  5
D297
  8
SUNPOU
  6
CONTINUOUS
 62
     4
 10
19345.970723566781
 20
6061.1885389999989
 30
0.0
 11
19345.970723566781
 21
4861.1885389999989
 31
0.0
  0
LINE
  5
D298
  8
SUNPOU
  6
CONTINUOUS
 62
     4
 10
19388.470723566781
 20
4941.1885389999979
 30
0.0
 11
19628.470723566781
 21
4941.1885389999979
 31
0.0
  0
LINE
  5
D299
  8
SUNPOU
  6
CONTINUOUS
 62
     4
 10
19345.970723566781
 20
4941.1885389999979
 30
0.0
 11
19105.970723566781
 21
4941.1885389999979
 31
0.0
  0
LINE
  5
D29A
  8
SUNPOU
  6
CONTINUOUS
 62
     4
 10
19388.470723566781
 20
4941.1885389999979
 30
0.0
 11
19345.970723566781
 21
4941.1885389999979
 31
0.0
  0
LINE
  5
D29B
  8
SUNPOU
  6
CONTINUOUS
 62
     4
 10
24388.470723566781
 20
5798.5361160000011
 30
0.0
 11
24388.470723566781
 21
4861.1885389999989
 31
0.0
  0
LINE
  5
D29C
  8
SUNPOU
  6
CONTINUOUS
 62
     4
 10
19388.470723566781
 20
5798.5361160000011
 30
0.0
 11
19388.470723566781
 21
4861.1885389999989
 31
0.0
  0
LINE
  5
D29D
  8
SUNPOU
  6
CONTINUOUS
 62
     4
 10
24388.470723566781
 20
4941.1885389999979
 30
0.0
 11
19388.470723566781
 21
4941.1885389999979
 31
0.0
  0
LINE
  5
D29E
  8
SUNPOU
  6
CONTINUOUS
 62
     4
 10
24345.970723566781
 20
8539.1884659999978
 30
0.0
 11
24345.970723566781
 21
9469.1900499999992
 31
0.0
  0
LINE
  5
D29F
  8
SUNPOU
  6
CONTINUOUS
 62
     4
 10
19345.970723566781
 20
8669.1883999999955
 30
0.0
 11
19345.970723566781
 21
9469.1900499999992
 31
0.0
  0
LINE
  5
D2A0
  8
SUNPOU
  6
CONTINUOUS
 62
     4
 10
24345.970723566781
 20
9389.1900499999992
 30
0.0
 11
19345.970723566781
 21
9389.1900499999992
 31
0.0
  0
LINE
  5
D2A1
  8
SUNPOU
  6
CONTINUOUS
 62
     4
 10
19265.970723566781
 20
6241.5026620000053
 30
0.0
 11
18056.14832527241
 21
6241.5026620000053
 31
0.0
  0
LINE
  5
D2A2
  8
SUNPOU
  6
CONTINUOUS
 62
     4
 10
19225.970723566781
 20
8261.5026620000044
 30
0.0
 11
18056.14832527241
 21
8261.5026620000044
 31
0.0
  0
LINE
  5
D2A3
  8
SUNPOU
  6
CONTINUOUS
 62
     4
 10
18136.14832527241
 20
6241.5026620000053
 30
0.0
 11
18136.14832527241
 21
8261.5026620000044
 31
0.0
  0
LINE
  5
D2A4
  8
SUNPOU
  6
CONTINUOUS
 62
     4
 10
27078.470723566781
 20
18910.486251999992
 30
0.0
 11
27878.473626566782
 21
18910.486251999992
 31
0.0
  0
LINE
  5
D2A5
  8
SUNPOU
  6
CONTINUOUS
 62
     4
 10
27158.473230566771
 20
19668.486251999992
 30
0.0
 11
27878.473626566782
 21
19668.486251999992
 31
0.0
  0
LINE
  5
D2A6
  8
SUNPOU
  6
CONTINUOUS
 62
     4
 10
27798.473626566782
 20
18910.486251999992
 30
0.0
 11
27798.473626566782
 21
19668.486251999992
 31
0.0
  0
LINE
  5
D2A7
  8
SUNPOU
  6
CONTINUOUS
 62
     4
 10
27078.470723566781
 20
18209.486251999992
 30
0.0
 11
27878.473626566782
 21
18209.486251999992
 31
0.0
  0
LINE
  5
D2A8
  8
SUNPOU
  6
CONTINUOUS
 62
     4
 10
27078.470723566781
 20
18910.486251999992
 30
0.0
 11
27878.473626566782
 21
18910.486251999992
 31
0.0
  0
LINE
  5
D2A9
  8
SUNPOU
  6
CONTINUOUS
 62
     4
 10
27798.473626566782
 20
18209.486251999992
 30
0.0
 11
27798.473626566782
 21
18910.486251999992
 31
0.0
  0
LINE
  5
D2AA
  8
SUNPOU
  6
CONTINUOUS
 62
     4
 10
27078.470723566799
 20
17508.486251999992
 30
0.0
 11
27878.473626566782
 21
17508.486251999992
 31
0.0
  0
LINE
  5
D2AB
  8
SUNPOU
  6
CONTINUOUS
 62
     4
 10
27078.470723566781
 20
18209.486251999992
 30
0.0
 11
27878.473626566782
 21
18209.486251999992
 31
0.0
  0
LINE
  5
D2AC
  8
SUNPOU
  6
CONTINUOUS
 62
     4
 10
27798.473626566782
 20
17508.486251999992
 30
0.0
 11
27798.473626566782
 21
18209.486251999992
 31
0.0
  0
LINE
  5
D2AD
  8
SUNPOU
  6
CONTINUOUS
 62
     4
 10
27078.470723566799
 20
16750.486251999992
 30
0.0
 11
27878.473626566782
 21
16750.486251999992
 31
0.0
  0
LINE
  5
D2AE
  8
SUNPOU
  6
CONTINUOUS
 62
     4
 10
27078.470723566799
 20
17508.486251999992
 30
0.0
 11
27878.473626566782
 21
17508.486251999992
 31
0.0
  0
LINE
  5
D2AF
  8
SUNPOU
  6
CONTINUOUS
 62
     4
 10
27798.473626566782
 20
16750.486251999992
 30
0.0
 11
27798.473626566782
 21
17508.486251999992
 31
0.0
  0
LINE
  5
D2B0
  8
SUNPOU
  6
CONTINUOUS
 62
     4
 10
27078.470723566781
 20
15992.486252000001
 30
0.0
 11
27878.473626566782
 21
15992.486252000001
 31
0.0
  0
LINE
  5
D2B1
  8
SUNPOU
  6
CONTINUOUS
 62
     4
 10
27078.470723566799
 20
16750.486251999992
 30
0.0
 11
27878.473626566782
 21
16750.486251999992
 31
0.0
  0
LINE
  5
D2B2
  8
SUNPOU
  6
CONTINUOUS
 62
     4
 10
27798.473626566782
 20
15992.486252000001
 30
0.0
 11
27798.473626566782
 21
16750.486251999992
 31
0.0
  0
LINE
  5
D2B3
  8
SUNPOU
  6
CONTINUOUS
 62
     4
 10
27078.470723566781
 20
15291.486252000001
 30
0.0
 11
27878.473626566782
 21
15291.486252000001
 31
0.0
  0
LINE
  5
D2B4
  8
SUNPOU
  6
CONTINUOUS
 62
     4
 10
27078.470723566781
 20
15992.486252000001
 30
0.0
 11
27878.473626566782
 21
15992.486252000001
 31
0.0
  0
LINE
  5
D2B5
  8
SUNPOU
  6
CONTINUOUS
 62
     4
 10
27798.473626566782
 20
15291.486252000001
 30
0.0
 11
27798.473626566782
 21
15992.486252000001
 31
0.0
  0
LINE
  5
D2B6
  8
SUNPOU
  6
CONTINUOUS
 62
     4
 10
27078.470723566781
 20
14590.486252000001
 30
0.0
 11
27878.473626566782
 21
14590.486252000001
 31
0.0
  0
LINE
  5
D2B7
  8
SUNPOU
  6
CONTINUOUS
 62
     4
 10
27078.470723566781
 20
15291.486252000001
 30
0.0
 11
27878.473626566782
 21
15291.486252000001
 31
0.0
  0
LINE
  5
D2B8
  8
SUNPOU
  6
CONTINUOUS
 62
     4
 10
27798.473626566782
 20
14590.486252000001
 30
0.0
 11
27798.473626566782
 21
15291.486252000001
 31
0.0
  0
LINE
  5
D2B9
  8
SUNPOU
  6
CONTINUOUS
 62
     4
 10
27078.470723566781
 20
13889.486252000001
 30
0.0
 11
27878.473626566782
 21
13889.486252000001
 31
0.0
  0
LINE
  5
D2BA
  8
SUNPOU
  6
CONTINUOUS
 62
     4
 10
27078.470723566781
 20
14590.486252000001
 30
0.0
 11
27878.473626566782
 21
14590.486252000001
 31
0.0
  0
LINE
  5
D2BB
  8
SUNPOU
  6
CONTINUOUS
 62
     4
 10
27798.473626566782
 20
13889.486252000001
 30
0.0
 11
27798.473626566782
 21
14590.486252000001
 31
0.0
  0
LINE
  5
D2BC
  8
SUNPOU
  6
CONTINUOUS
 62
     4
 10
27158.473230566771
 20
13481.98625199999
 30
0.0
 11
27878.473626566782
 21
13481.98625199999
 31
0.0
  0
LINE
  5
D2BD
  8
SUNPOU
  6
CONTINUOUS
 62
     4
 10
27078.470723566781
 20
13889.486252000001
 30
0.0
 11
27878.473626566782
 21
13889.486252000001
 31
0.0
  0
LINE
  5
D2BE
  8
SUNPOU
  6
CONTINUOUS
 62
     4
 10
27798.473626566782
 20
13481.98625199999
 30
0.0
 11
27798.473626566782
 21
13889.486252000001
 31
0.0
  0
LINE
  5
D2BF
  8
SUNPOU
  6
CONTINUOUS
 62
     4
 10
24388.470723566781
 20
19790.986251999992
 30
0.0
 11
24388.470723566781
 21
20590.987175999991
 31
0.0
  0
LINE
  5
D2C0
  8
SUNPOU
  6
CONTINUOUS
 62
     4
 10
24345.970723566781
 20
19790.986251999992
 30
0.0
 11
24345.970723566781
 21
20590.987175999991
 31
0.0
  0
LINE
  5
D2C1
  8
SUNPOU
  6
CONTINUOUS
 62
     4
 10
24388.470723566781
 20
20510.987175999991
 30
0.0
 11
24628.470723566781
 21
20510.987175999991
 31
0.0
  0
LINE
  5
D2C2
  8
SUNPOU
  6
CONTINUOUS
 62
     4
 10
24345.970723566781
 20
20510.987175999991
 30
0.0
 11
24105.970723566781
 21
20510.987175999991
 31
0.0
  0
LINE
  5
D2C3
  8
SUNPOU
  6
CONTINUOUS
 62
     4
 10
24388.470723566781
 20
20510.987175999991
 30
0.0
 11
24345.970723566781
 21
20510.987175999991
 31
0.0
  0
LINE
  5
D2C4
  8
SUNPOU
  6
CONTINUOUS
 62
     4
 10
24795.970723566781
 20
19790.986251999992
 30
0.0
 11
24795.970723566781
 21
20590.987175999991
 31
0.0
  0
LINE
  5
D2C5
  8
SUNPOU
  6
CONTINUOUS
 62
     4
 10
24388.470723566781
 20
19790.986251999992
 30
0.0
 11
24388.470723566781
 21
20590.987175999991
 31
0.0
  0
LINE
  5
D2C6
  8
SUNPOU
  6
CONTINUOUS
 62
     4
 10
24795.970723566781
 20
20510.987175999991
 30
0.0
 11
24388.470723566781
 21
20510.987175999991
 31
0.0
  0
LINE
  5
D2C7
  8
SUNPOU
  6
CONTINUOUS
 62
     4
 10
25496.970723566781
 20
19790.986251999992
 30
0.0
 11
25496.970723566781
 21
20590.987175999991
 31
0.0
  0
LINE
  5
D2C8
  8
SUNPOU
  6
CONTINUOUS
 62
     4
 10
24795.970723566781
 20
19790.986251999992
 30
0.0
 11
24795.970723566781
 21
20590.987175999991
 31
0.0
  0
LINE
  5
D2C9
  8
SUNPOU
  6
CONTINUOUS
 62
     4
 10
25496.970723566781
 20
20510.987175999991
 30
0.0
 11
24795.970723566781
 21
20510.987175999991
 31
0.0
  0
LINE
  5
D2CA
  8
SUNPOU
  6
CONTINUOUS
 62
     4
 10
26197.970723566788
 20
19790.986251999992
 30
0.0
 11
26197.970723566788
 21
20590.987175999991
 31
0.0
  0
LINE
  5
D2CB
  8
SUNPOU
  6
CONTINUOUS
 62
     4
 10
25496.970723566781
 20
19790.986251999992
 30
0.0
 11
25496.970723566781
 21
20590.987175999991
 31
0.0
  0
LINE
  5
D2CC
  8
SUNPOU
  6
CONTINUOUS
 62
     4
 10
26197.970723566788
 20
20510.987175999991
 30
0.0
 11
25496.970723566781
 21
20510.987175999991
 31
0.0
  0
LINE
  5
D2CD
  8
SUNPOU
  6
CONTINUOUS
 62
     4
 10
26955.970723566788
 20
19870.988758999989
 30
0.0
 11
26955.970723566788
 21
20590.987175999991
 31
0.0
  0
LINE
  5
D2CE
  8
SUNPOU
  6
CONTINUOUS
 62
     4
 10
26998.470723566781
 20
19790.986251999992
 30
0.0
 11
26998.470723566781
 21
20590.987175999991
 31
0.0
  0
LINE
  5
D2CF
  8
SUNPOU
  6
CONTINUOUS
 62
     4
 10
26955.970723566788
 20
20510.987175999991
 30
0.0
 11
26715.970723566788
 21
20510.987175999991
 31
0.0
  0
LINE
  5
D2D0
  8
SUNPOU
  6
CONTINUOUS
 62
     4
 10
26998.470723566781
 20
20510.987175999991
 30
0.0
 11
27238.470723566781
 21
20510.987175999991
 31
0.0
  0
LINE
  5
D2D1
  8
SUNPOU
  6
CONTINUOUS
 62
     4
 10
26955.970723566788
 20
20510.987175999991
 30
0.0
 11
26998.470723566781
 21
20510.987175999991
 31
0.0
  0
LINE
  5
D2D2
  8
SUNPOU
  6
CONTINUOUS
 62
     4
 10
27158.473230566771
 20
13481.98625199999
 30
0.0
 11
27878.473626566782
 21
13481.98625199999
 31
0.0
  0
LINE
  5
D2D3
  8
SUNPOU
  6
CONTINUOUS
 62
     4
 10
27078.470723566781
 20
13439.486252000001
 30
0.0
 11
27878.473626566782
 21
13439.486252000001
 31
0.0
  0
LINE
  5
D2D4
  8
SUNPOU
  6
CONTINUOUS
 62
     4
 10
27798.473626566782
 20
13481.98625199999
 30
0.0
 11
27798.473626566782
 21
13721.98625199999
 31
0.0
  0
LINE
  5
D2D5
  8
SUNPOU
  6
CONTINUOUS
 62
     4
 10
27798.473626566782
 20
13439.486252000001
 30
0.0
 11
27798.473626566782
 21
13199.486252000001
 31
0.0
  0
LINE
  5
D2D6
  8
SUNPOU
  6
CONTINUOUS
 62
     4
 10
27798.473626566782
 20
13481.98625199999
 30
0.0
 11
27798.473626566782
 21
13439.486252000001
 31
0.0
  0
LINE
  5
D2D7
  8
SUNPOU
  6
CONTINUOUS
 62
     4
 10
27158.473230566771
 20
19668.486251999992
 30
0.0
 11
27878.473626566782
 21
19668.486251999992
 31
0.0
  0
LINE
  5
D2D8
  8
SUNPOU
  6
CONTINUOUS
 62
     4
 10
27078.470723566781
 20
19710.986251999992
 30
0.0
 11
27878.473626566782
 21
19710.986251999992
 31
0.0
  0
LINE
  5
D2D9
  8
SUNPOU
  6
CONTINUOUS
 62
     4
 10
27798.473626566782
 20
19668.486251999992
 30
0.0
 11
27798.473626566782
 21
19428.486251999992
 31
0.0
  0
LINE
  5
D2DA
  8
SUNPOU
  6
CONTINUOUS
 62
     4
 10
27798.473626566782
 20
19710.986251999992
 30
0.0
 11
27798.473626566782
 21
19950.986251999992
 31
0.0
  0
LINE
  5
D2DB
  8
SUNPOU
  6
CONTINUOUS
 62
     4
 10
27798.473626566782
 20
19668.486251999992
 30
0.0
 11
27798.473626566782
 21
19710.986251999992
 31
0.0
  0
LINE
  5
D2DC
  8
SUNPOU
  6
CONTINUOUS
 62
     4
 10
27078.470723566781
 20
19710.986251999992
 30
0.0
 11
28278.472966566769
 21
19710.986251999992
 31
0.0
  0
LINE
  5
D2DD
  8
SUNPOU
  6
CONTINUOUS
 62
     4
 10
27078.470723566781
 20
13439.486978000001
 30
0.0
 11
28278.472966566769
 21
13439.486978000001
 31
0.0
  0
LINE
  5
D2DE
  8
SUNPOU
  6
CONTINUOUS
 62
     4
 10
28198.472966566769
 20
19710.986251999992
 30
0.0
 11
28198.472966566769
 21
13439.486978000001
 31
0.0
  0
LINE
  5
D2DF
  8
SUNPOU
  6
CONTINUOUS
 62
     4
 10
24388.470723566781
 20
20910.987175999991
 30
0.0
 11
19388.470723566781
 21
20910.987175999991
 31
0.0
  0
LINE
  5
D2E0
  8
SUNPOU
  6
CONTINUOUS
 62
     4
 10
26955.970723566788
 20
20910.987175999991
 30
0.0
 11
24388.470723566781
 21
20910.987175999991
 31
0.0
  0
LINE
  5
D2E1
  8
SUNPOU
  6
CONTINUOUS
 62
     4
 10
19388.470723566781
 20
20035.43602587733
 30
0.0
 11
19388.470723566781
 21
20590.987175999991
 31
0.0
  0
LINE
  5
D2E2
  8
SUNPOU
  6
CONTINUOUS
 62
     4
 10
19430.972966566769
 20
19874.336515999988
 30
0.0
 11
19430.972966566769
 21
20590.987175999991
 31
0.0
  0
LINE
  5
D2E3
  8
SUNPOU
  6
CONTINUOUS
 62
     4
 10
19388.470723566781
 20
20510.987175999991
 30
0.0
 11
19148.470723566781
 21
20510.987175999991
 31
0.0
  0
LINE
  5
D2E4
  8
SUNPOU
  6
CONTINUOUS
 62
     4
 10
19430.972966566769
 20
20510.987175999991
 30
0.0
 11
19670.972966566769
 21
20510.987175999991
 31
0.0
  0
LINE
  5
D2E5
  8
SUNPOU
  6
CONTINUOUS
 62
     4
 10
19388.470723566781
 20
20510.987175999991
 30
0.0
 11
19430.972966566769
 21
20510.987175999991
 31
0.0
  0
LINE
  5
D2E6
  8
SUNPOU
  6
CONTINUOUS
 62
     4
 10
19388.470723566781
 20
20035.43602587733
 30
0.0
 11
19388.470723566781
 21
20590.987175999991
 31
0.0
  0
LINE
  5
D2E7
  8
SUNPOU
  6
CONTINUOUS
 62
     4
 10
19345.97243856678
 20
19870.988758999989
 30
0.0
 11
19345.97243856678
 21
20590.987175999991
 31
0.0
  0
LINE
  5
D2E8
  8
SUNPOU
  6
CONTINUOUS
 62
     4
 10
19388.470723566781
 20
20510.987175999991
 30
0.0
 11
19628.470723566781
 21
20510.987175999991
 31
0.0
  0
LINE
  5
D2E9
  8
SUNPOU
  6
CONTINUOUS
 62
     4
 10
19345.97243856678
 20
20510.987175999991
 30
0.0
 11
19105.97243856678
 21
20510.987175999991
 31
0.0
  0
LINE
  5
D2EA
  8
SUNPOU
  6
CONTINUOUS
 62
     4
 10
19388.470723566781
 20
20510.987175999991
 30
0.0
 11
19345.97243856678
 21
20510.987175999991
 31
0.0
  0
LINE
  5
D2EB
  8
SUNPOU
  6
CONTINUOUS
 62
     4
 10
19003.86588761484
 20
16750.486251999992
 30
0.0
 11
18090.627099198158
 21
16750.486251999992
 31
0.0
  0
LINE
  5
D2EC
  8
SUNPOU
  6
CONTINUOUS
 62
     4
 10
19003.86588761484
 20
19668.486251999992
 30
0.0
 11
18090.627099198158
 21
19668.486251999992
 31
0.0
  0
LINE
  5
D2ED
  8
SUNPOU
  6
CONTINUOUS
 62
     4
 10
18170.627099198158
 20
16750.486251999992
 30
0.0
 11
18170.627099198158
 21
19668.486251999992
 31
0.0
  0
LINE
  5
D2EE
  8
SUNPOU
  6
CONTINUOUS
 62
     4
 10
19003.86588761484
 20
13481.986252000001
 30
0.0
 11
18090.627099198158
 21
13481.986252000001
 31
0.0
  0
LINE
  5
D2EF
  8
SUNPOU
  6
CONTINUOUS
 62
     4
 10
19003.86588761484
 20
16750.486251999992
 30
0.0
 11
18090.627099198158
 21
16750.486251999992
 31
0.0
  0
LINE
  5
D2F0
  8
SUNPOU
  6
CONTINUOUS
 62
     4
 10
18170.627099198158
 20
13481.986252000001
 30
0.0
 11
18170.627099198158
 21
16750.486251999992
 31
0.0
  0
LINE
  5
D2F1
  8
SUNPOU
  6
CONTINUOUS
 62
     4
 10
24388.470723566759
 20
13359.48625199999
 30
0.0
 11
24388.470723566759
 21
12319.4848
 31
0.0
  0
LINE
  5
D2F2
  8
SUNPOU
  6
CONTINUOUS
 62
     4
 10
24345.970723566781
 20
13359.48625199999
 30
0.0
 11
24345.970723566781
 21
12319.4848
 31
0.0
  0
LINE
  5
D2F3
  8
SUNPOU
  6
CONTINUOUS
 62
     4
 10
24388.470723566759
 20
12399.4848
 30
0.0
 11
24628.470723566759
 21
12399.4848
 31
0.0
  0
LINE
  5
D2F4
  8
SUNPOU
  6
CONTINUOUS
 62
     4
 10
24345.970723566781
 20
12399.4848
 30
0.0
 11
24105.970723566781
 21
12399.4848
 31
0.0
  0
LINE
  5
D2F5
  8
SUNPOU
  6
CONTINUOUS
 62
     4
 10
24388.470723566759
 20
12399.4848
 30
0.0
 11
24345.970723566781
 21
12399.4848
 31
0.0
  0
LINE
  5
D2F6
  8
SUNPOU
  6
CONTINUOUS
 62
     4
 10
24388.470723566759
 20
13359.48625199999
 30
0.0
 11
24388.470723566759
 21
12319.4848
 31
0.0
  0
LINE
  5
D2F7
  8
SUNPOU
  6
CONTINUOUS
 62
     4
 10
24430.970723566759
 20
13359.48625199999
 30
0.0
 11
24430.970723566759
 21
12319.4848
 31
0.0
  0
LINE
  5
D2F8
  8
SUNPOU
  6
CONTINUOUS
 62
     4
 10
24388.470723566759
 20
12399.4848
 30
0.0
 11
24148.470723566759
 21
12399.4848
 31
0.0
  0
LINE
  5
D2F9
  8
SUNPOU
  6
CONTINUOUS
 62
     4
 10
24430.970723566759
 20
12399.4848
 30
0.0
 11
24670.970723566759
 21
12399.4848
 31
0.0
  0
LINE
  5
D2FA
  8
SUNPOU
  6
CONTINUOUS
 62
     4
 10
24388.470723566759
 20
12399.4848
 30
0.0
 11
24430.970723566759
 21
12399.4848
 31
0.0
  0
LINE
  5
D2FB
  8
SUNPOU
  6
CONTINUOUS
 62
     4
 10
26955.970723566788
 20
13359.486978000001
 30
0.0
 11
26955.970723566788
 21
12319.48552599998
 31
0.0
  0
LINE
  5
D2FC
  8
SUNPOU
  6
CONTINUOUS
 62
     4
 10
26913.470723566781
 20
13359.486978000001
 30
0.0
 11
26913.470723566781
 21
12319.48552599998
 31
0.0
  0
LINE
  5
D2FD
  8
SUNPOU
  6
CONTINUOUS
 62
     4
 10
26955.970723566788
 20
12399.48552599998
 30
0.0
 11
27195.970723566788
 21
12399.48552599998
 31
0.0
  0
LINE
  5
D2FE
  8
SUNPOU
  6
CONTINUOUS
 62
     4
 10
26913.470723566781
 20
12399.48552599998
 30
0.0
 11
26673.470723566781
 21
12399.48552599998
 31
0.0
  0
LINE
  5
D2FF
  8
SUNPOU
  6
CONTINUOUS
 62
     4
 10
26955.970723566788
 20
12399.48552599998
 30
0.0
 11
26913.470723566781
 21
12399.48552599998
 31
0.0
  0
LINE
  5
D300
  8
SUNPOU
  6
CONTINUOUS
 62
     4
 10
26955.970723566788
 20
13359.486978000001
 30
0.0
 11
26955.970723566788
 21
12319.48552599998
 31
0.0
  0
LINE
  5
D301
  8
SUNPOU
  6
CONTINUOUS
 62
     4
 10
26998.470723566781
 20
13359.486978000001
 30
0.0
 11
26998.470723566781
 21
12319.48552599998
 31
0.0
  0
LINE
  5
D302
  8
SUNPOU
  6
CONTINUOUS
 62
     4
 10
26955.970723566788
 20
12399.48552599998
 30
0.0
 11
26715.970723566788
 21
12399.48552599998
 31
0.0
  0
LINE
  5
D303
  8
SUNPOU
  6
CONTINUOUS
 62
     4
 10
26998.470723566781
 20
12399.48552599998
 30
0.0
 11
27238.470723566781
 21
12399.48552599998
 31
0.0
  0
LINE
  5
D304
  8
SUNPOU
  6
CONTINUOUS
 62
     4
 10
26955.970723566788
 20
12399.48552599998
 30
0.0
 11
26998.470723566781
 21
12399.48552599998
 31
0.0
  0
LINE
  5
D305
  8
SUNPOU
  6
CONTINUOUS
 62
     4
 10
26998.470723566781
 20
13359.486252000001
 30
0.0
 11
26998.470723566781
 21
11919.48545999998
 31
0.0
  0
LINE
  5
D306
  8
SUNPOU
  6
CONTINUOUS
 62
     4
 10
24345.970723566781
 20
13359.486252000001
 30
0.0
 11
24345.970723566781
 21
11919.48545999998
 31
0.0
  0
LINE
  5
D307
  8
SUNPOU
  6
CONTINUOUS
 62
     4
 10
26998.470723566781
 20
11999.485459999991
 30
0.0
 11
24345.970723566781
 21
11999.485459999991
 31
0.0
  0
ARC
  5
D308
  8
1-前柱P
 10
19378.870723566761
 20
13550.386252
 30
0.0
 40
1.0
 50
0.0
 51
90.0
  0
LINE
  5
D309
  8
1-前柱P
 10
19379.870723566761
 20
13550.386252
 30
0.0
 11
19379.870723566761
 21
13548.786252
 31
0.0
  0
LINE
  5
D30A
  8
1-前柱P
 10
19379.870723566761
 20
13548.786252
 30
0.0
 11
19391.07072356678
 21
13548.786252
 31
0.0
  0
LINE
  5
D30B
  8
1-前柱P
 10
19391.07072356678
 20
13548.786252
 30
0.0
 11
19391.07072356678
 21
13550.386252
 31
0.0
  0
ARC
  5
D30C
  8
1-前柱P
 10
19392.07072356678
 20
13550.386252
 30
0.0
 40
1.0
 50
90.0
 51
180.0
  0
ARC
  5
D30D
  8
1-中柱P
 10
19395.07072356678
 20
16818.786252000002
 30
0.0
 40
1.0
 50
90.0
 51
180.0
  0
LINE
  5
D30E
  8
1-中柱P
 10
19394.07072356678
 20
16818.786252000002
 30
0.0
 11
19394.07072356678
 21
16817.186252
 31
0.0
  0
LINE
  5
D30F
  8
1-中柱P
 10
19394.07072356678
 20
16817.186252
 30
0.0
 11
19382.870723566761
 21
16817.186252
 31
0.0
  0
LINE
  5
D310
  8
1-中柱P
 10
19382.870723566761
 20
16817.186252
 30
0.0
 11
19382.870723566761
 21
16818.786252000002
 31
0.0
  0
ARC
  5
D311
  8
1-中柱P
 10
19381.870723566772
 20
16818.786252000002
 30
0.0
 40
1.0
 50
0.0
 51
90.0
  0
ARC
  5
D312
  8
1-後柱P
 10
19398.07072356678
 20
19600.436251999981
 30
0.0
 40
1.0
 50
180.0
 51
270.0
  0
LINE
  5
D313
  8
1-後柱P
 10
19397.07072356678
 20
19600.436251999981
 30
0.0
 11
19397.07072356678
 21
19602.036252000002
 31
0.0
  0
LINE
  5
D314
  8
1-後柱P
 10
19397.07072356678
 20
19602.036252000002
 30
0.0
 11
19385.870723566761
 21
19602.036252000002
 31
0.0
  0
LINE
  5
D315
  8
1-後柱P
 10
19385.870723566761
 20
19602.036252000002
 30
0.0
 11
19385.870723566761
 21
19600.436251999981
 31
0.0
  0
ARC
  5
D316
  8
1-後柱P
 10
19384.870723566772
 20
19600.436251999981
 30
0.0
 40
1.0
 50
270.0
 51
0.0
  0
LINE
  5
D317
  8
0-6
  6
CONTINUOUS
 62
     6
 10
8783.8441911840928
 20
15445.54700102031
 30
0.0
 11
8903.6989180906112
 21
15554.87809797553
 31
0.0
  0
LINE
  5
D318
  8
0-6
  6
CONTINUOUS
 62
     6
 10
8903.6989180906112
 20
15554.87809797553
 30
0.0
 11
8825.77352005383
 21
15412.589389132991
 31
0.0
  0
LINE
  5
D319
  8
0-6
  6
CONTINUOUS
 62
     6
 10
8825.77352005383
 20
15412.589389132991
 30
0.0
 11
8783.8441911840928
 21
15445.54700102031
 31
0.0
  0
LINE
  5
D31A
  8
0-6
  6
CONTINUOUS
 62
     6
 10
12298.81629518744
 20
16944.10254427827
 30
0.0
 11
12330.455941556191
 21
16784.988192000001
 31
0.0
  0
LINE
  5
D31B
  8
0-6
  6
CONTINUOUS
 62
     6
 10
12330.455941556191
 20
16784.988192000001
 30
0.0
 11
12248.92981565383
 21
16925.24486784335
 31
0.0
  0
LINE
  5
D31C
  8
0-6
  6
CONTINUOUS
 62
     6
 10
12248.92981565383
 20
16925.24486784335
 30
0.0
 11
12298.81629518744
 21
16944.10254427827
 31
0.0
  0
LINE
  5
D31D
  8
0-6
  6
CONTINUOUS
 62
     6
 10
19521.942573354921
 20
19452.88947925335
 30
0.0
 11
19415.614549406961
 21
19575.385710999999
 31
0.0
  0
LINE
  5
D31E
  8
0-6
  6
CONTINUOUS
 62
     6
 10
19415.614549406961
 20
19575.385710999999
 30
0.0
 11
19476.46666900022
 21
19425.024404324551
 31
0.0
  0
LINE
  5
D31F
  8
0-6
  6
CONTINUOUS
 62
     6
 10
19476.46666900022
 20
19425.024404324551
 30
0.0
 11
19521.942573354921
 21
19452.88947925335
 31
0.0
  0
LINE
  5
D320
  8
0-6
  6
CONTINUOUS
 62
     6
 10
19464.93117418453
 20
19868.7030359327
 30
0.0
 11
19395.887495742511
 21
19721.924475045871
 31
0.0
  0
LINE
  5
D321
  8
0-6
  6
CONTINUOUS
 62
     6
 10
19395.887495742511
 20
19721.924475045871
 30
0.0
 11
19508.804495921671
 21
19838.377272670841
 31
0.0
  0
LINE
  5
D322
  8
0-6
  6
CONTINUOUS
 62
     6
 10
19508.804495921671
 20
19838.377272670841
 30
0.0
 11
19464.93117418453
 21
19868.7030359327
 31
0.0
  0
LINE
  5
D323
  8
0-6
  6
CONTINUOUS
 62
     6
 10
19521.942573354921
 20
16935.082047746651
 30
0.0
 11
19415.614549406961
 21
16812.585815999999
 31
0.0
  0
LINE
  5
D324
  8
0-6
  6
CONTINUOUS
 62
     6
 10
19415.614549406961
 20
16812.585815999999
 30
0.0
 11
19476.46666900022
 21
16962.947122675439
 31
0.0
  0
LINE
  5
D325
  8
0-6
  6
CONTINUOUS
 62
     6
 10
19476.46666900022
 20
16962.947122675439
 30
0.0
 11
19521.942573354921
 21
16935.082047746651
 31
0.0
  0
LINE
  5
D326
  8
0-6
  6
CONTINUOUS
 62
     6
 10
19521.942573354921
 20
13677.082483746661
 30
0.0
 11
19415.614549406961
 21
13554.586251999999
 31
0.0
  0
LINE
  5
D327
  8
0-6
  6
CONTINUOUS
 62
     6
 10
19415.614549406961
 20
13554.586251999999
 30
0.0
 11
19476.46666900022
 21
13704.947558675451
 31
0.0
  0
LINE
  5
D328
  8
0-6
  6
CONTINUOUS
 62
     6
 10
19476.46666900022
 20
13704.947558675451
 30
0.0
 11
19521.942573354921
 21
13677.082483746661
 31
0.0
  0
LINE
  5
D329
  8
0-6
  6
CONTINUOUS
 62
     6
 10
19464.931174184509
 20
16519.268491067302
 30
0.0
 11
19395.887495742511
 21
16666.047051954109
 31
0.0
  0
LINE
  5
D32A
  8
0-6
  6
CONTINUOUS
 62
     6
 10
19395.887495742511
 20
16666.047051954109
 30
0.0
 11
19508.804495921671
 21
16549.594254329138
 31
0.0
  0
LINE
  5
D32B
  8
0-6
  6
CONTINUOUS
 62
     6
 10
19508.804495921671
 20
16549.594254329138
 30
0.0
 11
19464.931174184509
 21
16519.268491067302
 31
0.0
  0
LINE
  5
D32C
  8
0-6
  6
CONTINUOUS
 62
     6
 10
19464.931174184509
 20
13281.207691113181
 30
0.0
 11
19395.887495742511
 21
13427.986252000001
 31
0.0
  0
LINE
  5
D32D
  8
0-6
  6
CONTINUOUS
 62
     6
 10
19395.887495742511
 20
13427.986252000001
 30
0.0
 11
19508.804495921671
 21
13311.53345437502
 31
0.0
  0
LINE
  5
D32E
  8
0-6
  6
CONTINUOUS
 62
     6
 10
19508.804495921671
 20
13311.53345437502
 30
0.0
 11
19464.931174184509
 21
13281.207691113181
 31
0.0
  0
LINE
  5
D32F
  8
0-6
  6
CONTINUOUS
 62
     6
 10
5261.6072368009773
 20
15133.93298675484
 30
0.0
 11
5307.8975284666221
 21
15289.39418566413
 31
0.0
  0
LINE
  5
D330
  8
0-6
  6
CONTINUOUS
 62
     6
 10
5307.8975284666221
 20
15289.39418566413
 30
0.0
 11
5213.6881424699086
 21
15157.3483807544
 31
0.0
  0
LINE
  5
D331
  8
0-6
  6
CONTINUOUS
 62
     6
 10
5213.6881424699086
 20
15157.3483807544
 30
0.0
 11
5261.6072368009773
 21
15133.93298675484
 31
0.0
  0
TEXT
  5
D332
  8
0
  6
CONTINUOUS
 62
     7
 10
25272.220723566781
 20
12079.485459999991
 30
0.0
 40
160.0
  1
2652.5
  0
TEXT
  5
D333
  8
0
  6
CONTINUOUS
 62
     7
 10
27072.120559566789
 20
12499.93322699999
 30
0.0
 40
160.0
  1
42.5
  0
TEXT
  5
D334
  8
0
  6
CONTINUOUS
 62
     7
 10
26335.052754566768
 20
12479.485790000001
 30
0.0
 40
160.0
  1
42.5
  0
TEXT
  5
D335
  8
0
  6
CONTINUOUS
 62
     7
 10
24504.62055956676
 20
12499.93250099999
 30
0.0
 40
160.0
  1
42.5
  0
TEXT
  5
D336
  8
0
  6
CONTINUOUS
 62
     7
 10
23767.552754566761
 20
12479.485064
 30
0.0
 40
160.0
  1
42.5
  0
TEXT
  5
D337
  8
0
  6
CONTINUOUS
 62
     7
 10
18090.627099198151
 20
14716.236252000001
 30
0.0
 40
160.0
  1
3268.5
 50
90.0
  0
TEXT
  5
D338
  8
0
  6
CONTINUOUS
 62
     7
 10
18090.627099198151
 20
17942.819585333331
 30
0.0
 40
160.0
  1
2918
 50
90.0
  0
TEXT
  5
D339
  8
0
  6
CONTINUOUS
 62
     7
 10
18767.548795566781
 20
20590.985459999989
 30
0.0
 40
160.0
  1
42.5
  0
TEXT
  5
D33A
  8
0
  6
CONTINUOUS
 62
     7
 10
19445.644762566761
 20
20610.329315999999
 30
0.0
 40
160.0
  1
42.5
  0
TEXT
  5
D33B
  8
0
  6
CONTINUOUS
 62
     7
 10
25272.220723566781
 20
20990.987175999991
 30
0.0
 40
160.0
  1
2567.5
  0
TEXT
  5
D33C
  8
0
  6
CONTINUOUS
 62
     7
 10
21635.137390233449
 20
20990.987175999991
 30
0.0
 40
160.0
  1
5000
  0
TEXT
  5
D33D
  8
0
  6
CONTINUOUS
 62
     7
 10
28118.472966566769
 20
16201.90328166666
 30
0.0
 40
160.0
  1
6271.5
 50
90.0
  0
TEXT
  5
D33E
  8
0
  6
CONTINUOUS
 62
     7
 10
27742.84148354665
 20
19807.732957975681
 30
0.0
 40
160.0
  1
42.5
 50
90.0
  0
TEXT
  5
D33F
  8
0
  6
CONTINUOUS
 62
     7
 10
27666.852513154448
 20
12879.63359399999
 30
0.0
 40
160.0
  1
42.5
 50
90.0
  0
TEXT
  5
D340
  8
0
  6
CONTINUOUS
 62
     7
 10
27013.144762566761
 20
20610.329315999999
 30
0.0
 40
160.0
  1
42.5
  0
TEXT
  5
D341
  8
0
  6
CONTINUOUS
 62
     7
 10
25674.137390233449
 20
20592.697860462478
 30
0.0
 40
160.0
  1
701
  0
TEXT
  5
D342
  8
0
  6
CONTINUOUS
 62
     7
 10
24973.137390233442
 20
20294.180169751558
 30
0.0
 40
160.0
  1
701
  0
TEXT
  5
D343
  8
0
  6
CONTINUOUS
 62
     7
 10
24449.55405690012
 20
20590.987175999991
 30
0.0
 40
160.0
  1
407.5
  0
TEXT
  5
D344
  8
0
  6
CONTINUOUS
 62
     7
 10
23767.548795566789
 20
20590.987175999991
 30
0.0
 40
160.0
  1
42.5
  0
TEXT
  5
D345
  8
0
  6
CONTINUOUS
 62
     7
 10
28067.115046631181
 20
13516.70831407948
 30
0.0
 40
160.0
  1
407.5
 50
90.0
  0
TEXT
  5
D346
  8
0
  6
CONTINUOUS
 62
     7
 10
27718.473626566782
 20
14062.65402066666
 30
0.0
 40
160.0
  1
701
 50
90.0
  0
TEXT
  5
D347
  8
0
  6
CONTINUOUS
 62
     7
 10
27718.473626566782
 20
14767.65291866667
 30
0.0
 40
160.0
  1
701
 50
90.0
  0
TEXT
  5
D348
  8
0
  6
CONTINUOUS
 62
     7
 10
27718.473626566782
 20
15468.65291866667
 30
0.0
 40
160.0
  1
701
 50
90.0
  0
TEXT
  5
D349
  8
0
  6
CONTINUOUS
 62
     7
 10
27718.473626566782
 20
16158.15291866667
 30
0.0
 40
160.0
  1
758
 50
90.0
  0
TEXT
  5
D34A
  8
0
  6
CONTINUOUS
 62
     7
 10
27718.473626566782
 20
16916.15291866667
 30
0.0
 40
160.0
  1
758
 50
90.0
  0
TEXT
  5
D34B
  8
0
  6
CONTINUOUS
 62
     7
 10
27718.473626566782
 20
17685.65291866667
 30
0.0
 40
160.0
  1
701
 50
90.0
  0
TEXT
  5
D34C
  8
0
  6
CONTINUOUS
 62
     7
 10
27718.473626566782
 20
18386.652918666659
 30
0.0
 40
160.0
  1
701
 50
90.0
  0
TEXT
  5
D34D
  8
0
  6
CONTINUOUS
 62
     7
 10
27718.473626566782
 20
19076.15291866667
 30
0.0
 40
160.0
  1
758
 50
90.0
  0
TEXT
  5
D34E
  8
0
  6
CONTINUOUS
 62
     7
 10
18056.14832527241
 20
6588.5026620000071
 30
0.0
 40
160.0
  1
有効高サ2020
 50
90.0
  0
TEXT
  5
D34F
  8
0
  6
CONTINUOUS
 62
     7
 10
21592.63739023346
 20
9469.1900499999992
 30
0.0
 40
160.0
  1
5000
  0
TEXT
  5
D350
  8
0
  6
CONTINUOUS
 62
     7
 10
21635.13739023346
 20
5021.1885389999989
 30
0.0
 40
160.0
  1
5000
  0
TEXT
  5
D351
  8
0
  6
CONTINUOUS
 62
     7
 10
18745.97006356679
 20
5021.1883080000007
 30
0.0
 40
160.0
  1
42.5
  0
TEXT
  5
D352
  8
0
  6
CONTINUOUS
 62
     7
 10
24792.220723566799
 20
5421.1883740000012
 30
0.0
 40
160.0
  1
有効開口巾2379.5
  0
TEXT
  5
D353
  8
0
  6
CONTINUOUS
 62
     7
 10
25272.220723566799
 20
5021.1885389999989
 30
0.0
 40
160.0
  1
2567.5
  0
TEXT
  5
D354
  8
0
  6
CONTINUOUS
 62
     7
 10
27098.293754566799
 20
5028.7357169999987
 30
0.0
 40
160.0
  1
42.5
  0
TEXT
  5
D355
  8
0
  6
CONTINUOUS
 62
     7
 10
22772.200747093018
 20
4621.188704000052
 30
0.0
 40
160.0
  1
7652.5
  0
TEXT
  5
D356
  8
0
  6
CONTINUOUS
 62
     7
 10
21140.30405690012
 20
5421.1883740000012
 30
0.0
 40
160.0
  1
有効開口巾4912
  0
TEXT
  5
D357
  8
0
  6
CONTINUOUS
 62
     7
 10
27725.974022566781
 20
6264.271707333337
 30
0.0
 40
160.0
  1
有効開口高サ1891.5
 50
90.0
  0
TEXT
  5
D358
  8
0
  6
CONTINUOUS
 62
     7
 10
28369.072974271541
 20
6609.855053666668
 30
0.0
 40
160.0
  1
2348（2588）
 50
90.0
  0
TEXT
  5
D359
  8
0
  6
CONTINUOUS
 62
     7
 10
25272.220723566799
 20
9469.1900499999992
 30
0.0
 40
160.0
  1
2652.5
  0
TEXT
  5
D35A
  8
0
  6
CONTINUOUS
 62
     7
 10
27128.278709566799
 20
9469.1893240000027
 30
0.0
 40
160.0
  1
43
  0
TEXT
  5
D35B
  8
0
  6
CONTINUOUS
 62
     7
 10
18928.50490356678
 20
9469.1893240000027
 30
0.0
 40
160.0
  1
43
  0
TEXT
  5
D35C
  8
0
  6
CONTINUOUS
 62
     7
 10
22772.220723566799
 20
9869.1329740000037
 30
0.0
 40
160.0
  1
7738.5
  0
TEXT
  5
D35D
  8
0
  6
CONTINUOUS
 62
     7
 10
8573.2573446752067
 20
5021.1885389999989
 30
0.0
 40
160.0
  1
3268.5
  0
TEXT
  5
D35E
  8
0
  6
CONTINUOUS
 62
     7
 10
11799.840678008541
 20
5021.1885389999989
 30
0.0
 40
160.0
  1
2918
  0
TEXT
  5
D35F
  8
0
  6
CONTINUOUS
 62
     7
 10
13669.99695867519
 20
5022.1790569999976
 30
0.0
 40
160.0
  1
42.5
  0
TEXT
  5
D360
  8
0
  6
CONTINUOUS
 62
     7
 10
6696.5056946752011
 20
5021.1883080000007
 30
0.0
 40
160.0
  1
42.5
  0
TEXT
  5
D361
  8
0
  6
CONTINUOUS
 62
     7
 10
10058.92401134186
 20
4621.1887039999974
 30
0.0
 40
160.0
  1
6271.5
  0
TEXT
  5
D362
  8
0
  6
CONTINUOUS
 62
     7
 10
14578.00774067519
 20
6541.021707333337
 30
0.0
 40
160.0
  1
2157（2397）
 50
90.0
  0
TEXT
  5
D363
  8
0
  6
CONTINUOUS
 62
     7
 10
6126.5069486752018
 20
6609.8550406666691
 30
0.0
 40
160.0
  1
2348（2588）
 50
90.0
  0
TEXT
  5
D364
  8
0
  6
CONTINUOUS
 62
     7
 10
13855.68249314362
 20
9469.1900499999992
 30
0.0
 40
160.0
  1
180
  0
TEXT
  5
D365
  8
0
  6
CONTINUOUS
 62
     7
 10
10058.92401134186
 20
9469.1900499999992
 30
0.0
 40
160.0
  1
6271.5
  0
TEXT
  5
D366
  8
0
  6
CONTINUOUS
 62
     7
 10
6733.1740113418728
 20
9469.1900499999992
 30
0.0
 40
160.0
  1
150
  0
TEXT
  5
D367
  8
0
  6
CONTINUOUS
 62
     7
 10
10087.257344675199
 20
9869.1883999999955
 30
0.0
 40
160.0
  1
6601.5
  0
TEXT
  5
D368
  8
0
  6
CONTINUOUS
 62
     7
 10
26363.637390233449
 20
20590.987175999991
 30
0.0
 40
160.0
  1
758
  0
TEXT
  5
D369
  8
0
  6
CONTINUOUS
 62
     7
 10
8303.2003224343098
 20
12079.48618599998
 30
0.0
 40
160.0
  1
ケラバ外寸7738.5
  0
TEXT
  5
D36A
  8
0
  6
CONTINUOUS
 62
     7
 10
13056.764133100951
 20
20590.985459999989
 30
0.0
 40
160.0
  1
85.5
  0
TEXT
  5
D36B
  8
0
  6
CONTINUOUS
 62
     7
 10
11277.866989100959
 20
20590.987175999991
 30
0.0
 40
160.0
  1
2567.5
  0
TEXT
  5
D36C
  8
0
  6
CONTINUOUS
 62
     7
 10
7640.783655767641
 20
20590.987175999991
 30
0.0
 40
160.0
  1
5000
  0
TEXT
  5
D36D
  8
0
  6
CONTINUOUS
 62
     7
 10
4767.7692011009631
 20
20590.985459999989
 30
0.0
 40
160.0
  1
85.5
  0
TEXT
  5
D36E
  8
0
  6
CONTINUOUS
 62
     7
 10
13442.51049349612
 20
20062.414980666661
 30
0.0
 40
160.0
  1
10
 50
90.0
  0
TEXT
  5
D36F
  8
0
  6
CONTINUOUS
 62
     7
 10
13811.11676510096
 20
19969.467774389232
 30
0.0
 40
160.0
  1
222.5
 50
90.0
  0
TEXT
  5
D370
  8
0
  6
CONTINUOUS
 62
     7
 10
13811.11676510096
 20
17942.819585333331
 30
0.0
 40
160.0
  1
2918
 50
90.0
  0
TEXT
  5
D371
  8
0
  6
CONTINUOUS
 62
     7
 10
13811.11676510096
 20
14716.236252000001
 30
0.0
 40
160.0
  1
3268.5
 50
90.0
  0
TEXT
  5
D372
  8
0
  6
CONTINUOUS
 62
     7
 10
13811.11676510096
 20
12625.497349590551
 30
0.0
 40
160.0
  1
192.5
 50
90.0
  0
ARC
  5
D373
  8
0
  6
BYBLOCK
 62
     0
 10
13891.11676510096
 20
13481.986252000001
 30
0.0
 40
15.0
 50
270.0
 51
90.0
  0
ARC
  5
D374
  8
0
  6
BYBLOCK
 62
     0
 10
13891.11676510096
 20
13481.986252000001
 30
0.0
 40
15.0
 50
90.0
 51
270.0
  0
ARC
  5
D375
  8
0
  6
BYBLOCK
 62
     0
 10
13891.11676510096
 20
13289.48697799999
 30
0.0
 40
15.0
 50
90.0
 51
270.0
  0
ARC
  5
D376
  8
0
  6
BYBLOCK
 62
     0
 10
13891.11676510096
 20
13289.48697799999
 30
0.0
 40
15.0
 50
270.0
 51
90.0
  0
ARC
  5
D377
  8
0
  6
BYBLOCK
 62
     0
 10
13891.11676510096
 20
16750.486251999992
 30
0.0
 40
15.0
 50
270.0
 51
90.0
  0
ARC
  5
D378
  8
0
  6
BYBLOCK
 62
     0
 10
13891.11676510096
 20
16750.486251999992
 30
0.0
 40
15.0
 50
90.0
 51
270.0
  0
ARC
  5
D379
  8
0
  6
BYBLOCK
 62
     0
 10
13891.11676510096
 20
13481.986252000001
 30
0.0
 40
15.0
 50
90.0
 51
270.0
  0
ARC
  5
D37A
  8
0
  6
BYBLOCK
 62
     0
 10
13891.11676510096
 20
13481.986252000001
 30
0.0
 40
15.0
 50
270.0
 51
90.0
  0
ARC
  5
D37B
  8
0
  6
BYBLOCK
 62
     0
 10
13891.11676510096
 20
19668.486251999992
 30
0.0
 40
15.0
 50
270.0
 51
90.0
  0
ARC
  5
D37C
  8
0
  6
BYBLOCK
 62
     0
 10
13891.11676510096
 20
19668.486251999992
 30
0.0
 40
15.0
 50
90.0
 51
270.0
  0
ARC
  5
D37D
  8
0
  6
BYBLOCK
 62
     0
 10
13891.11676510096
 20
16750.486251999992
 30
0.0
 40
15.0
 50
90.0
 51
270.0
  0
ARC
  5
D37E
  8
0
  6
BYBLOCK
 62
     0
 10
13891.11676510096
 20
16750.486251999992
 30
0.0
 40
15.0
 50
270.0
 51
90.0
  0
ARC
  5
D37F
  8
0
  6
BYBLOCK
 62
     0
 10
13891.11676510096
 20
19668.486251999992
 30
0.0
 40
15.0
 50
90.0
 51
270.0
  0
ARC
  5
D380
  8
0
  6
BYBLOCK
 62
     0
 10
13891.11676510096
 20
19668.486251999992
 30
0.0
 40
15.0
 50
270.0
 51
90.0
  0
ARC
  5
D381
  8
0
  6
BYBLOCK
 62
     0
 10
13891.11676510096
 20
19890.98611999999
 30
0.0
 40
15.0
 50
270.0
 51
90.0
  0
ARC
  5
D382
  8
0
  6
BYBLOCK
 62
     0
 10
13891.11676510096
 20
19890.98611999999
 30
0.0
 40
15.0
 50
90.0
 51
270.0
  0
ARC
  5
D383
  8
0
  6
BYBLOCK
 62
     0
 10
13491.117424100959
 20
19880.989550999991
 30
0.0
 40
15.0
 50
270.0
 51
90.0
  0
ARC
  5
D384
  8
0
  6
BYBLOCK
 62
     0
 10
13491.117424100959
 20
19880.989550999991
 30
0.0
 40
15.0
 50
90.0
 51
270.0
  0
ARC
  5
D385
  8
0
  6
BYBLOCK
 62
     0
 10
13491.117424100959
 20
19890.98611999999
 30
0.0
 40
15.0
 50
90.0
 51
270.0
  0
ARC
  5
D386
  8
0
  6
BYBLOCK
 62
     0
 10
13491.117424100959
 20
19890.98611999999
 30
0.0
 40
15.0
 50
270.0
 51
90.0
  0
ARC
  5
D387
  8
0
  6
BYBLOCK
 62
     0
 10
5394.1169891009777
 20
20510.987175999991
 30
0.0
 40
15.0
 50
0.0
 51
180.0
  0
ARC
  5
D388
  8
0
  6
BYBLOCK
 62
     0
 10
5394.1169891009777
 20
20510.987175999991
 30
0.0
 40
15.0
 50
180.0
 51
0.0
  0
ARC
  5
D389
  8
0
  6
BYBLOCK
 62
     0
 10
5308.6169891009758
 20
20510.987175999991
 30
0.0
 40
15.0
 50
180.0
 51
0.0
  0
ARC
  5
D38A
  8
0
  6
BYBLOCK
 62
     0
 10
5308.6169891009758
 20
20510.987175999991
 30
0.0
 40
15.0
 50
0.0
 51
180.0
  0
ARC
  5
D38B
  8
0
  6
BYBLOCK
 62
     0
 10
10394.116989100959
 20
20510.987175999991
 30
0.0
 40
15.0
 50
180.0
 51
0.0
  0
ARC
  5
D38C
  8
0
  6
BYBLOCK
 62
     0
 10
10394.116989100959
 20
20510.987175999991
 30
0.0
 40
15.0
 50
0.0
 51
180.0
  0
ARC
  5
D38D
  8
0
  6
BYBLOCK
 62
     0
 10
5394.1169891009777
 20
20510.987175999991
 30
0.0
 40
15.0
 50
0.0
 51
180.0
  0
ARC
  5
D38E
  8
0
  6
BYBLOCK
 62
     0
 10
5394.1169891009777
 20
20510.987175999991
 30
0.0
 40
15.0
 50
180.0
 51
0.0
  0
ARC
  5
D38F
  8
0
  6
BYBLOCK
 62
     0
 10
12961.61698910097
 20
20510.987175999991
 30
0.0
 40
15.0
 50
180.0
 51
0.0
  0
ARC
  5
D390
  8
0
  6
BYBLOCK
 62
     0
 10
12961.61698910097
 20
20510.987175999991
 30
0.0
 40
15.0
 50
0.0
 51
180.0
  0
ARC
  5
D391
  8
0
  6
BYBLOCK
 62
     0
 10
10394.116989100959
 20
20510.987175999991
 30
0.0
 40
15.0
 50
0.0
 51
180.0
  0
ARC
  5
D392
  8
0
  6
BYBLOCK
 62
     0
 10
10394.116989100959
 20
20510.987175999991
 30
0.0
 40
15.0
 50
180.0
 51
0.0
  0
ARC
  5
D393
  8
0
  6
BYBLOCK
 62
     0
 10
12961.61698910097
 20
20510.987175999991
 30
0.0
 40
15.0
 50
180.0
 51
0.0
  0
ARC
  5
D394
  8
0
  6
BYBLOCK
 62
     0
 10
12961.61698910097
 20
20510.987175999991
 30
0.0
 40
15.0
 50
0.0
 51
180.0
  0
ARC
  5
D395
  8
0
  6
BYBLOCK
 62
     0
 10
13047.116989100979
 20
20510.987175999991
 30
0.0
 40
15.0
 50
0.0
 51
180.0
  0
ARC
  5
D396
  8
0
  6
BYBLOCK
 62
     0
 10
13047.116989100979
 20
20510.987175999991
 30
0.0
 40
15.0
 50
180.0
 51
0.0
  0
ARC
  5
D397
  8
0
  6
BYBLOCK
 62
     0
 10
13047.116989100979
 20
11999.48618599998
 30
0.0
 40
15.0
 50
180.0
 51
0.0
  0
ARC
  5
D398
  8
0
  6
BYBLOCK
 62
     0
 10
13047.116989100979
 20
11999.48618599998
 30
0.0
 40
15.0
 50
0.0
 51
180.0
  0
ARC
  5
D399
  8
0
  6
BYBLOCK
 62
     0
 10
5308.6169891009758
 20
11999.48618599998
 30
0.0
 40
15.0
 50
0.0
 51
180.0
  0
ARC
  5
D39A
  8
0
  6
BYBLOCK
 62
     0
 10
5308.6169891009758
 20
11999.48618599998
 30
0.0
 40
15.0
 50
180.0
 51
0.0
  0
ARC
  5
D39B
  8
0
  6
BYBLOCK
 62
     0
 10
26197.970723566788
 20
20510.987175999991
 30
0.0
 40
15.0
 50
0.0
 51
180.0
  0
ARC
  5
D39C
  8
0
  6
BYBLOCK
 62
     0
 10
26197.970723566788
 20
20510.987175999991
 30
0.0
 40
15.0
 50
180.0
 51
0.0
  0
ARC
  5
D39D
  8
0
  6
BYBLOCK
 62
     0
 10
26955.970723566788
 20
20510.987175999991
 30
0.0
 40
15.0
 50
180.0
 51
0.0
  0
ARC
  5
D39E
  8
0
  6
BYBLOCK
 62
     0
 10
26955.970723566788
 20
20510.987175999991
 30
0.0
 40
15.0
 50
0.0
 51
180.0
  0
ARC
  5
D39F
  8
0
  6
BYBLOCK
 62
     0
 10
13748.00734467521
 20
9789.1883999999955
 30
0.0
 40
15.0
 50
180.0
 51
0.0
  0
ARC
  5
D3A0
  8
0
  6
BYBLOCK
 62
     0
 10
13748.00734467521
 20
9789.1883999999955
 30
0.0
 40
15.0
 50
0.0
 51
180.0
  0
ARC
  5
D3A1
  8
0
  6
BYBLOCK
 62
     0
 10
7146.5073446752067
 20
9789.1883999999955
 30
0.0
 40
15.0
 50
0.0
 51
180.0
  0
ARC
  5
D3A2
  8
0
  6
BYBLOCK
 62
     0
 10
7146.5073446752067
 20
9789.1883999999955
 30
0.0
 40
15.0
 50
180.0
 51
0.0
  0
ARC
  5
D3A3
  8
0
  6
BYBLOCK
 62
     0
 10
7296.5073446752003
 20
9389.1900499999992
 30
0.0
 40
15.0
 50
0.0
 51
180.0
  0
ARC
  5
D3A4
  8
0
  6
BYBLOCK
 62
     0
 10
7296.5073446752003
 20
9389.1900499999992
 30
0.0
 40
15.0
 50
180.0
 51
0.0
  0
ARC
  5
D3A5
  8
0
  6
BYBLOCK
 62
     0
 10
7146.5073446752067
 20
9389.1900499999992
 30
0.0
 40
15.0
 50
180.0
 51
0.0
  0
ARC
  5
D3A6
  8
0
  6
BYBLOCK
 62
     0
 10
7146.5073446752067
 20
9389.1900499999992
 30
0.0
 40
15.0
 50
0.0
 51
180.0
  0
ARC
  5
D3A7
  8
0
  6
BYBLOCK
 62
     0
 10
13568.00734467521
 20
9389.1900499999992
 30
0.0
 40
15.0
 50
180.0
 51
0.0
  0
ARC
  5
D3A8
  8
0
  6
BYBLOCK
 62
     0
 10
13568.00734467521
 20
9389.1900499999992
 30
0.0
 40
15.0
 50
0.0
 51
180.0
  0
ARC
  5
D3A9
  8
0
  6
BYBLOCK
 62
     0
 10
7296.5073446752003
 20
9389.1900499999992
 30
0.0
 40
15.0
 50
0.0
 51
180.0
  0
ARC
  5
D3AA
  8
0
  6
BYBLOCK
 62
     0
 10
7296.5073446752003
 20
9389.1900499999992
 30
0.0
 40
15.0
 50
180.0
 51
0.0
  0
ARC
  5
D3AB
  8
0
  6
BYBLOCK
 62
     0
 10
13748.00734467521
 20
9389.1900499999992
 30
0.0
 40
15.0
 50
180.0
 51
0.0
  0
ARC
  5
D3AC
  8
0
  6
BYBLOCK
 62
     0
 10
13748.00734467521
 20
9389.1900499999992
 30
0.0
 40
15.0
 50
0.0
 51
180.0
  0
ARC
  5
D3AD
  8
0
  6
BYBLOCK
 62
     0
 10
13568.00734467521
 20
9389.1900499999992
 30
0.0
 40
15.0
 50
0.0
 51
180.0
  0
ARC
  5
D3AE
  8
0
  6
BYBLOCK
 62
     0
 10
13568.00734467521
 20
9389.1900499999992
 30
0.0
 40
15.0
 50
180.0
 51
0.0
  0
ARC
  5
D3AF
  8
0
  6
BYBLOCK
 62
     0
 10
6206.5069486752036
 20
6241.1883740000012
 30
0.0
 40
15.0
 50
90.0
 51
270.0
  0
ARC
  5
D3B0
  8
0
  6
BYBLOCK
 62
     0
 10
6206.5069486752036
 20
6241.1883740000012
 30
0.0
 40
15.0
 50
270.0
 51
90.0
  0
ARC
  5
D3B1
  8
0
  6
BYBLOCK
 62
     0
 10
6206.5069486752036
 20
8589.1883739999994
 30
0.0
 40
15.0
 50
270.0
 51
90.0
  0
ARC
  5
D3B2
  8
0
  6
BYBLOCK
 62
     0
 10
6206.5069486752036
 20
8589.1883739999994
 30
0.0
 40
15.0
 50
90.0
 51
270.0
  0
ARC
  5
D3B3
  8
0
  6
BYBLOCK
 62
     0
 10
14658.00774067519
 20
6241.1883740000003
 30
0.0
 40
15.0
 50
90.0
 51
270.0
  0
ARC
  5
D3B4
  8
0
  6
BYBLOCK
 62
     0
 10
14658.00774067519
 20
6241.1883740000003
 30
0.0
 40
15.0
 50
270.0
 51
90.0
  0
ARC
  5
D3B5
  8
0
  6
BYBLOCK
 62
     0
 10
14658.00774067519
 20
8398.188374000003
 30
0.0
 40
15.0
 50
270.0
 51
90.0
  0
ARC
  5
D3B6
  8
0
  6
BYBLOCK
 62
     0
 10
14658.00774067519
 20
8398.188374000003
 30
0.0
 40
15.0
 50
90.0
 51
270.0
  0
ARC
  5
D3B7
  8
0
  6
BYBLOCK
 62
     0
 10
13568.00734467521
 20
4541.1887039999938
 30
0.0
 40
15.0
 50
180.0
 51
0.0
  0
ARC
  5
D3B8
  8
0
  6
BYBLOCK
 62
     0
 10
13568.00734467521
 20
4541.1887039999938
 30
0.0
 40
15.0
 50
0.0
 51
180.0
  0
ARC
  5
D3B9
  8
0
  6
BYBLOCK
 62
     0
 10
7296.5073446752003
 20
4541.1887039999938
 30
0.0
 40
15.0
 50
0.0
 51
180.0
  0
ARC
  5
D3BA
  8
0
  6
BYBLOCK
 62
     0
 10
7296.5073446752003
 20
4541.1887039999938
 30
0.0
 40
15.0
 50
180.0
 51
0.0
  0
ARC
  5
D3BB
  8
0
  6
BYBLOCK
 62
     0
 10
7339.0073446752076
 20
4941.1885389999979
 30
0.0
 40
15.0
 50
0.0
 51
180.0
  0
ARC
  5
D3BC
  8
0
  6
BYBLOCK
 62
     0
 10
7339.0073446752076
 20
4941.1885389999979
 30
0.0
 40
15.0
 50
180.0
 51
0.0
  0
ARC
  5
D3BD
  8
0
  6
BYBLOCK
 62
     0
 10
7296.5073446752003
 20
4941.1885389999979
 30
0.0
 40
15.0
 50
180.0
 51
0.0
  0
ARC
  5
D3BE
  8
0
  6
BYBLOCK
 62
     0
 10
7296.5073446752003
 20
4941.1885389999979
 30
0.0
 40
15.0
 50
0.0
 51
180.0
  0
ARC
  5
D3BF
  8
0
  6
BYBLOCK
 62
     0
 10
13525.507344675199
 20
4941.1885389999979
 30
0.0
 40
15.0
 50
180.0
 51
0.0
  0
ARC
  5
D3C0
  8
0
  6
BYBLOCK
 62
     0
 10
13525.507344675199
 20
4941.1885389999979
 30
0.0
 40
15.0
 50
0.0
 51
180.0
  0
ARC
  5
D3C1
  8
0
  6
BYBLOCK
 62
     0
 10
13568.00734467521
 20
4941.1885389999979
 30
0.0
 40
15.0
 50
0.0
 51
180.0
  0
ARC
  5
D3C2
  8
0
  6
BYBLOCK
 62
     0
 10
13568.00734467521
 20
4941.1885389999979
 30
0.0
 40
15.0
 50
180.0
 51
0.0
  0
ARC
  5
D3C3
  8
0
  6
BYBLOCK
 62
     0
 10
10607.50734467519
 20
4941.1885389999979
 30
0.0
 40
15.0
 50
0.0
 51
180.0
  0
ARC
  5
D3C4
  8
0
  6
BYBLOCK
 62
     0
 10
10607.50734467519
 20
4941.1885389999979
 30
0.0
 40
15.0
 50
180.0
 51
0.0
  0
ARC
  5
D3C5
  8
0
  6
BYBLOCK
 62
     0
 10
13525.507344675199
 20
4941.1885389999979
 30
0.0
 40
15.0
 50
180.0
 51
0.0
  0
ARC
  5
D3C6
  8
0
  6
BYBLOCK
 62
     0
 10
13525.507344675199
 20
4941.1885389999979
 30
0.0
 40
15.0
 50
0.0
 51
180.0
  0
ARC
  5
D3C7
  8
0
  6
BYBLOCK
 62
     0
 10
10607.50734467519
 20
4941.1885389999979
 30
0.0
 40
15.0
 50
180.0
 51
0.0
  0
ARC
  5
D3C8
  8
0
  6
BYBLOCK
 62
     0
 10
10607.50734467519
 20
4941.1885389999979
 30
0.0
 40
15.0
 50
0.0
 51
180.0
  0
ARC
  5
D3C9
  8
0
  6
BYBLOCK
 62
     0
 10
7339.0073446752076
 20
4941.1885389999979
 30
0.0
 40
15.0
 50
0.0
 51
180.0
  0
ARC
  5
D3CA
  8
0
  6
BYBLOCK
 62
     0
 10
7339.0073446752076
 20
4941.1885389999979
 30
0.0
 40
15.0
 50
180.0
 51
0.0
  0
ARC
  5
D3CB
  8
0
  6
BYBLOCK
 62
     0
 10
27041.470723566799
 20
9789.1329740000037
 30
0.0
 40
15.0
 50
180.0
 51
0.0
  0
ARC
  5
D3CC
  8
0
  6
BYBLOCK
 62
     0
 10
27041.470723566799
 20
9789.1329740000037
 30
0.0
 40
15.0
 50
0.0
 51
180.0
  0
ARC
  5
D3CD
  8
0
  6
BYBLOCK
 62
     0
 10
19302.970723566788
 20
9789.1329740000037
 30
0.0
 40
15.0
 50
0.0
 51
180.0
  0
ARC
  5
D3CE
  8
0
  6
BYBLOCK
 62
     0
 10
19302.970723566788
 20
9789.1329740000037
 30
0.0
 40
15.0
 50
180.0
 51
0.0
  0
ARC
  5
D3CF
  8
0
  6
BYBLOCK
 62
     0
 10
19345.970723566781
 20
9389.1900499999992
 30
0.0
 40
15.0
 50
0.0
 51
180.0
  0
ARC
  5
D3D0
  8
0
  6
BYBLOCK
 62
     0
 10
19345.970723566781
 20
9389.1900499999992
 30
0.0
 40
15.0
 50
180.0
 51
0.0
  0
ARC
  5
D3D1
  8
0
  6
BYBLOCK
 62
     0
 10
19302.970723566788
 20
9389.1900499999992
 30
0.0
 40
15.0
 50
180.0
 51
0.0
  0
ARC
  5
D3D2
  8
0
  6
BYBLOCK
 62
     0
 10
19302.970723566788
 20
9389.1900499999992
 30
0.0
 40
15.0
 50
0.0
 51
180.0
  0
ARC
  5
D3D3
  8
0
  6
BYBLOCK
 62
     0
 10
26998.470723566799
 20
9389.1900499999992
 30
0.0
 40
15.0
 50
180.0
 51
0.0
  0
ARC
  5
D3D4
  8
0
  6
BYBLOCK
 62
     0
 10
26998.470723566799
 20
9389.1900499999992
 30
0.0
 40
15.0
 50
0.0
 51
180.0
  0
ARC
  5
D3D5
  8
0
  6
BYBLOCK
 62
     0
 10
27041.470723566799
 20
9389.1900499999992
 30
0.0
 40
15.0
 50
0.0
 51
180.0
  0
ARC
  5
D3D6
  8
0
  6
BYBLOCK
 62
     0
 10
27041.470723566799
 20
9389.1900499999992
 30
0.0
 40
15.0
 50
180.0
 51
0.0
  0
ARC
  5
D3D7
  8
0
  6
BYBLOCK
 62
     0
 10
24345.970723566781
 20
9389.1900499999992
 30
0.0
 40
15.0
 50
0.0
 51
180.0
  0
ARC
  5
D3D8
  8
0
  6
BYBLOCK
 62
     0
 10
24345.970723566781
 20
9389.1900499999992
 30
0.0
 40
15.0
 50
180.0
 51
0.0
  0
ARC
  5
D3D9
  8
0
  6
BYBLOCK
 62
     0
 10
26998.470723566799
 20
9389.1900499999992
 30
0.0
 40
15.0
 50
180.0
 51
0.0
  0
ARC
  5
D3DA
  8
0
  6
BYBLOCK
 62
     0
 10
26998.470723566799
 20
9389.1900499999992
 30
0.0
 40
15.0
 50
0.0
 51
180.0
  0
ARC
  5
D3DB
  8
0
  6
BYBLOCK
 62
     0
 10
28449.072974271541
 20
6241.1883740000012
 30
0.0
 40
15.0
 50
90.0
 51
270.0
  0
ARC
  5
D3DC
  8
0
  6
BYBLOCK
 62
     0
 10
28449.072974271541
 20
6241.1883740000012
 30
0.0
 40
15.0
 50
270.0
 51
90.0
  0
ARC
  5
D3DD
  8
0
  6
BYBLOCK
 62
     0
 10
28449.072974271541
 20
8589.1883999999955
 30
0.0
 40
15.0
 50
270.0
 51
90.0
  0
ARC
  5
D3DE
  8
0
  6
BYBLOCK
 62
     0
 10
28449.072974271541
 20
8589.1883999999955
 30
0.0
 40
15.0
 50
90.0
 51
270.0
  0
ARC
  5
D3DF
  8
0
  6
BYBLOCK
 62
     0
 10
27805.974022566781
 20
6241.1883740000012
 30
0.0
 40
15.0
 50
90.0
 51
270.0
  0
ARC
  5
D3E0
  8
0
  6
BYBLOCK
 62
     0
 10
27805.974022566781
 20
6241.1883740000012
 30
0.0
 40
15.0
 50
270.0
 51
90.0
  0
ARC
  5
D3E1
  8
0
  6
BYBLOCK
 62
     0
 10
27805.974022566781
 20
8132.6883740000021
 30
0.0
 40
15.0
 50
270.0
 51
90.0
  0
ARC
  5
D3E2
  8
0
  6
BYBLOCK
 62
     0
 10
27805.974022566781
 20
8132.6883740000021
 30
0.0
 40
15.0
 50
90.0
 51
270.0
  0
ARC
  5
D3E3
  8
0
  6
BYBLOCK
 62
     0
 10
24342.970723566781
 20
5341.1883740000012
 30
0.0
 40
15.0
 50
180.0
 51
0.0
  0
ARC
  5
D3E4
  8
0
  6
BYBLOCK
 62
     0
 10
24342.970723566781
 20
5341.1883740000012
 30
0.0
 40
15.0
 50
0.0
 51
180.0
  0
ARC
  5
D3E5
  8
0
  6
BYBLOCK
 62
     0
 10
19430.970723566781
 20
5341.1883740000012
 30
0.0
 40
15.0
 50
0.0
 51
180.0
  0
ARC
  5
D3E6
  8
0
  6
BYBLOCK
 62
     0
 10
19430.970723566781
 20
5341.1883740000012
 30
0.0
 40
15.0
 50
180.0
 51
0.0
  0
ARC
  5
D3E7
  8
0
  6
BYBLOCK
 62
     0
 10
26998.430770619259
 20
4541.1887040000547
 30
0.0
 40
15.0
 50
180.0
 51
0.0
  0
ARC
  5
D3E8
  8
0
  6
BYBLOCK
 62
     0
 10
26998.430770619259
 20
4541.1887040000547
 30
0.0
 40
15.0
 50
0.0
 51
180.0
  0
ARC
  5
D3E9
  8
0
  6
BYBLOCK
 62
     0
 10
19345.970723566781
 20
4541.1887040000547
 30
0.0
 40
15.0
 50
0.0
 51
180.0
  0
ARC
  5
D3EA
  8
0
  6
BYBLOCK
 62
     0
 10
19345.970723566781
 20
4541.1887040000547
 30
0.0
 40
15.0
 50
180.0
 51
0.0
  0
ARC
  5
D3EB
  8
0
  6
BYBLOCK
 62
     0
 10
26955.970723566799
 20
4941.1885389999979
 30
0.0
 40
15.0
 50
180.0
 51
0.0
  0
ARC
  5
D3EC
  8
0
  6
BYBLOCK
 62
     0
 10
26955.970723566799
 20
4941.1885389999979
 30
0.0
 40
15.0
 50
0.0
 51
180.0
  0
ARC
  5
D3ED
  8
0
  6
BYBLOCK
 62
     0
 10
26998.430770619259
 20
4941.1885389999979
 30
0.0
 40
15.0
 50
0.0
 51
180.0
  0
ARC
  5
D3EE
  8
0
  6
BYBLOCK
 62
     0
 10
26998.430770619259
 20
4941.1885389999979
 30
0.0
 40
15.0
 50
180.0
 51
0.0
  0
ARC
  5
D3EF
  8
0
  6
BYBLOCK
 62
     0
 10
24388.470723566781
 20
4941.1885389999979
 30
0.0
 40
15.0
 50
0.0
 51
180.0
  0
ARC
  5
D3F0
  8
0
  6
BYBLOCK
 62
     0
 10
24388.470723566781
 20
4941.1885389999979
 30
0.0
 40
15.0
 50
180.0
 51
0.0
  0
ARC
  5
D3F1
  8
0
  6
BYBLOCK
 62
     0
 10
26955.970723566799
 20
4941.1885389999979
 30
0.0
 40
15.0
 50
180.0
 51
0.0
  0
ARC
  5
D3F2
  8
0
  6
BYBLOCK
 62
     0
 10
26955.970723566799
 20
4941.1885389999979
 30
0.0
 40
15.0
 50
0.0
 51
180.0
  0
ARC
  5
D3F3
  8
0
  6
BYBLOCK
 62
     0
 10
26861.97072356681
 20
5341.1883740000012
 30
0.0
 40
15.0
 50
180.0
 51
0.0
  0
ARC
  5
D3F4
  8
0
  6
BYBLOCK
 62
     0
 10
26861.97072356681
 20
5341.1883740000012
 30
0.0
 40
15.0
 50
0.0
 51
180.0
  0
ARC
  5
D3F5
  8
0
  6
BYBLOCK
 62
     0
 10
24482.470723566799
 20
5341.1883740000012
 30
0.0
 40
15.0
 50
0.0
 51
180.0
  0
ARC
  5
D3F6
  8
0
  6
BYBLOCK
 62
     0
 10
24482.470723566799
 20
5341.1883740000012
 30
0.0
 40
15.0
 50
180.0
 51
0.0
  0
ARC
  5
D3F7
  8
0
  6
BYBLOCK
 62
     0
 10
19388.470723566781
 20
4941.1885389999979
 30
0.0
 40
15.0
 50
0.0
 51
180.0
  0
ARC
  5
D3F8
  8
0
  6
BYBLOCK
 62
     0
 10
19388.470723566781
 20
4941.1885389999979
 30
0.0
 40
15.0
 50
180.0
 51
0.0
  0
ARC
  5
D3F9
  8
0
  6
BYBLOCK
 62
     0
 10
19345.970723566781
 20
4941.1885389999979
 30
0.0
 40
15.0
 50
180.0
 51
0.0
  0
ARC
  5
D3FA
  8
0
  6
BYBLOCK
 62
     0
 10
19345.970723566781
 20
4941.1885389999979
 30
0.0
 40
15.0
 50
0.0
 51
180.0
  0
ARC
  5
D3FB
  8
0
  6
BYBLOCK
 62
     0
 10
24388.470723566781
 20
4941.1885389999979
 30
0.0
 40
15.0
 50
180.0
 51
0.0
  0
ARC
  5
D3FC
  8
0
  6
BYBLOCK
 62
     0
 10
24388.470723566781
 20
4941.1885389999979
 30
0.0
 40
15.0
 50
0.0
 51
180.0
  0
ARC
  5
D3FD
  8
0
  6
BYBLOCK
 62
     0
 10
19388.470723566781
 20
4941.1885389999979
 30
0.0
 40
15.0
 50
0.0
 51
180.0
  0
ARC
  5
D3FE
  8
0
  6
BYBLOCK
 62
     0
 10
19388.470723566781
 20
4941.1885389999979
 30
0.0
 40
15.0
 50
180.0
 51
0.0
  0
ARC
  5
D3FF
  8
0
  6
BYBLOCK
 62
     0
 10
24345.970723566781
 20
9389.1900499999992
 30
0.0
 40
15.0
 50
180.0
 51
0.0
  0
ARC
  5
D400
  8
0
  6
BYBLOCK
 62
     0
 10
24345.970723566781
 20
9389.1900499999992
 30
0.0
 40
15.0
 50
0.0
 51
180.0
  0
ARC
  5
D401
  8
0
  6
BYBLOCK
 62
     0
 10
19345.970723566781
 20
9389.1900499999992
 30
0.0
 40
15.0
 50
0.0
 51
180.0
  0
ARC
  5
D402
  8
0
  6
BYBLOCK
 62
     0
 10
19345.970723566781
 20
9389.1900499999992
 30
0.0
 40
15.0
 50
180.0
 51
0.0
  0
ARC
  5
D403
  8
0
  6
BYBLOCK
 62
     0
 10
18136.14832527241
 20
6241.5026620000053
 30
0.0
 40
15.0
 50
90.0
 51
270.0
  0
ARC
  5
D404
  8
0
  6
BYBLOCK
 62
     0
 10
18136.14832527241
 20
6241.5026620000053
 30
0.0
 40
15.0
 50
270.0
 51
90.0
  0
ARC
  5
D405
  8
0
  6
BYBLOCK
 62
     0
 10
18136.14832527241
 20
8261.5026620000044
 30
0.0
 40
15.0
 50
270.0
 51
90.0
  0
ARC
  5
D406
  8
0
  6
BYBLOCK
 62
     0
 10
18136.14832527241
 20
8261.5026620000044
 30
0.0
 40
15.0
 50
90.0
 51
270.0
  0
ARC
  5
D407
  8
0
  6
BYBLOCK
 62
     0
 10
27798.473626566782
 20
18910.486251999992
 30
0.0
 40
15.0
 50
90.0
 51
270.0
  0
ARC
  5
D408
  8
0
  6
BYBLOCK
 62
     0
 10
27798.473626566782
 20
18910.486251999992
 30
0.0
 40
15.0
 50
270.0
 51
90.0
  0
ARC
  5
D409
  8
0
  6
BYBLOCK
 62
     0
 10
27798.473626566782
 20
19668.486251999992
 30
0.0
 40
15.0
 50
270.0
 51
90.0
  0
ARC
  5
D40A
  8
0
  6
BYBLOCK
 62
     0
 10
27798.473626566782
 20
19668.486251999992
 30
0.0
 40
15.0
 50
90.0
 51
270.0
  0
ARC
  5
D40B
  8
0
  6
BYBLOCK
 62
     0
 10
27798.473626566782
 20
18209.486251999992
 30
0.0
 40
15.0
 50
90.0
 51
270.0
  0
ARC
  5
D40C
  8
0
  6
BYBLOCK
 62
     0
 10
27798.473626566782
 20
18209.486251999992
 30
0.0
 40
15.0
 50
270.0
 51
90.0
  0
ARC
  5
D40D
  8
0
  6
BYBLOCK
 62
     0
 10
27798.473626566782
 20
18910.486251999992
 30
0.0
 40
15.0
 50
270.0
 51
90.0
  0
ARC
  5
D40E
  8
0
  6
BYBLOCK
 62
     0
 10
27798.473626566782
 20
18910.486251999992
 30
0.0
 40
15.0
 50
90.0
 51
270.0
  0
ARC
  5
D40F
  8
0
  6
BYBLOCK
 62
     0
 10
27798.473626566782
 20
17508.486251999992
 30
0.0
 40
15.0
 50
90.0
 51
270.0
  0
ARC
  5
D410
  8
0
  6
BYBLOCK
 62
     0
 10
27798.473626566782
 20
17508.486251999992
 30
0.0
 40
15.0
 50
270.0
 51
90.0
  0
ARC
  5
D411
  8
0
  6
BYBLOCK
 62
     0
 10
27798.473626566782
 20
18209.486251999992
 30
0.0
 40
15.0
 50
270.0
 51
90.0
  0
ARC
  5
D412
  8
0
  6
BYBLOCK
 62
     0
 10
27798.473626566782
 20
18209.486251999992
 30
0.0
 40
15.0
 50
90.0
 51
270.0
  0
ARC
  5
D413
  8
0
  6
BYBLOCK
 62
     0
 10
27798.473626566782
 20
16750.486251999992
 30
0.0
 40
15.0
 50
90.0
 51
270.0
  0
ARC
  5
D414
  8
0
  6
BYBLOCK
 62
     0
 10
27798.473626566782
 20
16750.486251999992
 30
0.0
 40
15.0
 50
270.0
 51
90.0
  0
ARC
  5
D415
  8
0
  6
BYBLOCK
 62
     0
 10
27798.473626566782
 20
17508.486251999992
 30
0.0
 40
15.0
 50
270.0
 51
90.0
  0
ARC
  5
D416
  8
0
  6
BYBLOCK
 62
     0
 10
27798.473626566782
 20
17508.486251999992
 30
0.0
 40
15.0
 50
90.0
 51
270.0
  0
ARC
  5
D417
  8
0
  6
BYBLOCK
 62
     0
 10
27798.473626566782
 20
15992.486252000001
 30
0.0
 40
15.0
 50
90.0
 51
270.0
  0
ARC
  5
D418
  8
0
  6
BYBLOCK
 62
     0
 10
27798.473626566782
 20
15992.486252000001
 30
0.0
 40
15.0
 50
270.0
 51
90.0
  0
ARC
  5
D419
  8
0
  6
BYBLOCK
 62
     0
 10
27798.473626566782
 20
16750.486251999992
 30
0.0
 40
15.0
 50
270.0
 51
90.0
  0
ARC
  5
D41A
  8
0
  6
BYBLOCK
 62
     0
 10
27798.473626566782
 20
16750.486251999992
 30
0.0
 40
15.0
 50
90.0
 51
270.0
  0
ARC
  5
D41B
  8
0
  6
BYBLOCK
 62
     0
 10
27798.473626566782
 20
15291.486252000001
 30
0.0
 40
15.0
 50
90.0
 51
270.0
  0
ARC
  5
D41C
  8
0
  6
BYBLOCK
 62
     0
 10
27798.473626566782
 20
15291.486252000001
 30
0.0
 40
15.0
 50
270.0
 51
90.0
  0
ARC
  5
D41D
  8
0
  6
BYBLOCK
 62
     0
 10
27798.473626566782
 20
15992.486252000001
 30
0.0
 40
15.0
 50
270.0
 51
90.0
  0
ARC
  5
D41E
  8
0
  6
BYBLOCK
 62
     0
 10
27798.473626566782
 20
15992.486252000001
 30
0.0
 40
15.0
 50
90.0
 51
270.0
  0
ARC
  5
D41F
  8
0
  6
BYBLOCK
 62
     0
 10
27798.473626566782
 20
14590.486252000001
 30
0.0
 40
15.0
 50
90.0
 51
270.0
  0
ARC
  5
D420
  8
0
  6
BYBLOCK
 62
     0
 10
27798.473626566782
 20
14590.486252000001
 30
0.0
 40
15.0
 50
270.0
 51
90.0
  0
ARC
  5
D421
  8
0
  6
BYBLOCK
 62
     0
 10
27798.473626566782
 20
15291.486252000001
 30
0.0
 40
15.0
 50
270.0
 51
90.0
  0
ARC
  5
D422
  8
0
  6
BYBLOCK
 62
     0
 10
27798.473626566782
 20
15291.486252000001
 30
0.0
 40
15.0
 50
90.0
 51
270.0
  0
ARC
  5
D423
  8
0
  6
BYBLOCK
 62
     0
 10
27798.473626566782
 20
13889.486252000001
 30
0.0
 40
15.0
 50
90.0
 51
270.0
  0
ARC
  5
D424
  8
0
  6
BYBLOCK
 62
     0
 10
27798.473626566782
 20
13889.486252000001
 30
0.0
 40
15.0
 50
270.0
 51
90.0
  0
ARC
  5
D425
  8
0
  6
BYBLOCK
 62
     0
 10
27798.473626566782
 20
14590.486252000001
 30
0.0
 40
15.0
 50
270.0
 51
90.0
  0
ARC
  5
D426
  8
0
  6
BYBLOCK
 62
     0
 10
27798.473626566782
 20
14590.486252000001
 30
0.0
 40
15.0
 50
90.0
 51
270.0
  0
ARC
  5
D427
  8
0
  6
BYBLOCK
 62
     0
 10
27798.473626566782
 20
13481.98625199999
 30
0.0
 40
15.0
 50
90.0
 51
270.0
  0
ARC
  5
D428
  8
0
  6
BYBLOCK
 62
     0
 10
27798.473626566782
 20
13481.98625199999
 30
0.0
 40
15.0
 50
270.0
 51
90.0
  0
ARC
  5
D429
  8
0
  6
BYBLOCK
 62
     0
 10
27798.473626566782
 20
13889.486252000001
 30
0.0
 40
15.0
 50
270.0
 51
90.0
  0
ARC
  5
D42A
  8
0
  6
BYBLOCK
 62
     0
 10
27798.473626566782
 20
13889.486252000001
 30
0.0
 40
15.0
 50
90.0
 51
270.0
  0
ARC
  5
D42B
  8
0
  6
BYBLOCK
 62
     0
 10
24388.470723566781
 20
20510.987175999991
 30
0.0
 40
15.0
 50
0.0
 51
180.0
  0
ARC
  5
D42C
  8
0
  6
BYBLOCK
 62
     0
 10
24388.470723566781
 20
20510.987175999991
 30
0.0
 40
15.0
 50
180.0
 51
0.0
  0
ARC
  5
D42D
  8
0
  6
BYBLOCK
 62
     0
 10
24345.970723566781
 20
20510.987175999991
 30
0.0
 40
15.0
 50
180.0
 51
0.0
  0
ARC
  5
D42E
  8
0
  6
BYBLOCK
 62
     0
 10
24345.970723566781
 20
20510.987175999991
 30
0.0
 40
15.0
 50
0.0
 51
180.0
  0
ARC
  5
D42F
  8
0
  6
BYBLOCK
 62
     0
 10
24795.970723566781
 20
20510.987175999991
 30
0.0
 40
15.0
 50
180.0
 51
0.0
  0
ARC
  5
D430
  8
0
  6
BYBLOCK
 62
     0
 10
24795.970723566781
 20
20510.987175999991
 30
0.0
 40
15.0
 50
0.0
 51
180.0
  0
ARC
  5
D431
  8
0
  6
BYBLOCK
 62
     0
 10
24388.470723566781
 20
20510.987175999991
 30
0.0
 40
15.0
 50
0.0
 51
180.0
  0
ARC
  5
D432
  8
0
  6
BYBLOCK
 62
     0
 10
24388.470723566781
 20
20510.987175999991
 30
0.0
 40
15.0
 50
180.0
 51
0.0
  0
ARC
  5
D433
  8
0
  6
BYBLOCK
 62
     0
 10
25496.970723566781
 20
20510.987175999991
 30
0.0
 40
15.0
 50
180.0
 51
0.0
  0
ARC
  5
D434
  8
0
  6
BYBLOCK
 62
     0
 10
25496.970723566781
 20
20510.987175999991
 30
0.0
 40
15.0
 50
0.0
 51
180.0
  0
ARC
  5
D435
  8
0
  6
BYBLOCK
 62
     0
 10
24795.970723566781
 20
20510.987175999991
 30
0.0
 40
15.0
 50
0.0
 51
180.0
  0
ARC
  5
D436
  8
0
  6
BYBLOCK
 62
     0
 10
24795.970723566781
 20
20510.987175999991
 30
0.0
 40
15.0
 50
180.0
 51
0.0
  0
ARC
  5
D437
  8
0
  6
BYBLOCK
 62
     0
 10
26197.970723566788
 20
20510.987175999991
 30
0.0
 40
15.0
 50
180.0
 51
0.0
  0
ARC
  5
D438
  8
0
  6
BYBLOCK
 62
     0
 10
26197.970723566788
 20
20510.987175999991
 30
0.0
 40
15.0
 50
0.0
 51
180.0
  0
ARC
  5
D439
  8
0
  6
BYBLOCK
 62
     0
 10
25496.970723566781
 20
20510.987175999991
 30
0.0
 40
15.0
 50
0.0
 51
180.0
  0
ARC
  5
D43A
  8
0
  6
BYBLOCK
 62
     0
 10
25496.970723566781
 20
20510.987175999991
 30
0.0
 40
15.0
 50
180.0
 51
0.0
  0
ARC
  5
D43B
  8
0
  6
BYBLOCK
 62
     0
 10
26955.970723566788
 20
20510.987175999991
 30
0.0
 40
15.0
 50
180.0
 51
0.0
  0
ARC
  5
D43C
  8
0
  6
BYBLOCK
 62
     0
 10
26955.970723566788
 20
20510.987175999991
 30
0.0
 40
15.0
 50
0.0
 51
180.0
  0
ARC
  5
D43D
  8
0
  6
BYBLOCK
 62
     0
 10
26998.470723566781
 20
20510.987175999991
 30
0.0
 40
15.0
 50
0.0
 51
180.0
  0
ARC
  5
D43E
  8
0
  6
BYBLOCK
 62
     0
 10
26998.470723566781
 20
20510.987175999991
 30
0.0
 40
15.0
 50
180.0
 51
0.0
  0
ARC
  5
D43F
  8
0
  6
BYBLOCK
 62
     0
 10
27798.473626566782
 20
13481.98625199999
 30
0.0
 40
15.0
 50
90.0
 51
270.0
  0
ARC
  5
D440
  8
0
  6
BYBLOCK
 62
     0
 10
27798.473626566782
 20
13481.98625199999
 30
0.0
 40
15.0
 50
270.0
 51
90.0
  0
ARC
  5
D441
  8
0
  6
BYBLOCK
 62
     0
 10
27798.473626566782
 20
13439.486252000001
 30
0.0
 40
15.0
 50
270.0
 51
90.0
  0
ARC
  5
D442
  8
0
  6
BYBLOCK
 62
     0
 10
27798.473626566782
 20
13439.486252000001
 30
0.0
 40
15.0
 50
90.0
 51
270.0
  0
ARC
  5
D443
  8
0
  6
BYBLOCK
 62
     0
 10
27798.473626566782
 20
19668.486251999992
 30
0.0
 40
15.0
 50
270.0
 51
90.0
  0
ARC
  5
D444
  8
0
  6
BYBLOCK
 62
     0
 10
27798.473626566782
 20
19668.486251999992
 30
0.0
 40
15.0
 50
90.0
 51
270.0
  0
ARC
  5
D445
  8
0
  6
BYBLOCK
 62
     0
 10
27798.473626566782
 20
19710.986251999992
 30
0.0
 40
15.0
 50
90.0
 51
270.0
  0
ARC
  5
D446
  8
0
  6
BYBLOCK
 62
     0
 10
27798.473626566782
 20
19710.986251999992
 30
0.0
 40
15.0
 50
270.0
 51
90.0
  0
ARC
  5
D447
  8
0
  6
BYBLOCK
 62
     0
 10
28198.472966566769
 20
19710.986251999992
 30
0.0
 40
15.0
 50
270.0
 51
90.0
  0
ARC
  5
D448
  8
0
  6
BYBLOCK
 62
     0
 10
28198.472966566769
 20
19710.986251999992
 30
0.0
 40
15.0
 50
90.0
 51
270.0
  0
ARC
  5
D449
  8
0
  6
BYBLOCK
 62
     0
 10
28198.472966566769
 20
13439.486978000001
 30
0.0
 40
15.0
 50
90.0
 51
270.0
  0
ARC
  5
D44A
  8
0
  6
BYBLOCK
 62
     0
 10
28198.472966566769
 20
13439.486978000001
 30
0.0
 40
15.0
 50
270.0
 51
90.0
  0
ARC
  5
D44B
  8
0
  6
BYBLOCK
 62
     0
 10
24388.470723566781
 20
20910.987175999991
 30
0.0
 40
15.0
 50
180.0
 51
0.0
  0
ARC
  5
D44C
  8
0
  6
BYBLOCK
 62
     0
 10
24388.470723566781
 20
20910.987175999991
 30
0.0
 40
15.0
 50
0.0
 51
180.0
  0
ARC
  5
D44D
  8
0
  6
BYBLOCK
 62
     0
 10
19388.470723566781
 20
20910.987175999991
 30
0.0
 40
15.0
 50
0.0
 51
180.0
  0
ARC
  5
D44E
  8
0
  6
BYBLOCK
 62
     0
 10
19388.470723566781
 20
20910.987175999991
 30
0.0
 40
15.0
 50
180.0
 51
0.0
  0
ARC
  5
D44F
  8
0
  6
BYBLOCK
 62
     0
 10
26955.970723566788
 20
20910.987175999991
 30
0.0
 40
15.0
 50
180.0
 51
0.0
  0
ARC
  5
D450
  8
0
  6
BYBLOCK
 62
     0
 10
26955.970723566788
 20
20910.987175999991
 30
0.0
 40
15.0
 50
0.0
 51
180.0
  0
ARC
  5
D451
  8
0
  6
BYBLOCK
 62
     0
 10
24388.470723566781
 20
20910.987175999991
 30
0.0
 40
15.0
 50
0.0
 51
180.0
  0
ARC
  5
D452
  8
0
  6
BYBLOCK
 62
     0
 10
24388.470723566781
 20
20910.987175999991
 30
0.0
 40
15.0
 50
180.0
 51
0.0
  0
ARC
  5
D453
  8
0
  6
BYBLOCK
 62
     0
 10
19388.470723566781
 20
20510.987175999991
 30
0.0
 40
15.0
 50
180.0
 51
0.0
  0
ARC
  5
D454
  8
0
  6
BYBLOCK
 62
     0
 10
19388.470723566781
 20
20510.987175999991
 30
0.0
 40
15.0
 50
0.0
 51
180.0
  0
ARC
  5
D455
  8
0
  6
BYBLOCK
 62
     0
 10
19430.972966566769
 20
20510.987175999991
 30
0.0
 40
15.0
 50
0.0
 51
180.0
  0
ARC
  5
D456
  8
0
  6
BYBLOCK
 62
     0
 10
19430.972966566769
 20
20510.987175999991
 30
0.0
 40
15.0
 50
180.0
 51
0.0
  0
ARC
  5
D457
  8
0
  6
BYBLOCK
 62
     0
 10
19388.470723566781
 20
20510.987175999991
 30
0.0
 40
15.0
 50
0.0
 51
180.0
  0
ARC
  5
D458
  8
0
  6
BYBLOCK
 62
     0
 10
19388.470723566781
 20
20510.987175999991
 30
0.0
 40
15.0
 50
180.0
 51
0.0
  0
ARC
  5
D459
  8
0
  6
BYBLOCK
 62
     0
 10
19345.97243856678
 20
20510.987175999991
 30
0.0
 40
15.0
 50
180.0
 51
0.0
  0
ARC
  5
D45A
  8
0
  6
BYBLOCK
 62
     0
 10
19345.97243856678
 20
20510.987175999991
 30
0.0
 40
15.0
 50
0.0
 51
180.0
  0
ARC
  5
D45B
  8
0
  6
BYBLOCK
 62
     0
 10
18170.627099198158
 20
16750.486251999992
 30
0.0
 40
15.0
 50
90.0
 51
270.0
  0
ARC
  5
D45C
  8
0
  6
BYBLOCK
 62
     0
 10
18170.627099198158
 20
16750.486251999992
 30
0.0
 40
15.0
 50
270.0
 51
90.0
  0
ARC
  5
D45D
  8
0
  6
BYBLOCK
 62
     0
 10
18170.627099198158
 20
19668.486251999992
 30
0.0
 40
15.0
 50
270.0
 51
90.0
  0
ARC
  5
D45E
  8
0
  6
BYBLOCK
 62
     0
 10
18170.627099198158
 20
19668.486251999992
 30
0.0
 40
15.0
 50
90.0
 51
270.0
  0
ARC
  5
D45F
  8
0
  6
BYBLOCK
 62
     0
 10
18170.627099198158
 20
13481.986252000001
 30
0.0
 40
15.0
 50
90.0
 51
270.0
  0
ARC
  5
D460
  8
0
  6
BYBLOCK
 62
     0
 10
18170.627099198158
 20
13481.986252000001
 30
0.0
 40
15.0
 50
270.0
 51
90.0
  0
ARC
  5
D461
  8
0
  6
BYBLOCK
 62
     0
 10
18170.627099198158
 20
16750.486251999992
 30
0.0
 40
15.0
 50
270.0
 51
90.0
  0
ARC
  5
D462
  8
0
  6
BYBLOCK
 62
     0
 10
18170.627099198158
 20
16750.486251999992
 30
0.0
 40
15.0
 50
90.0
 51
270.0
  0
ARC
  5
D463
  8
0
  6
BYBLOCK
 62
     0
 10
24388.470723566759
 20
12399.4848
 30
0.0
 40
15.0
 50
0.0
 51
180.0
  0
ARC
  5
D464
  8
0
  6
BYBLOCK
 62
     0
 10
24388.470723566759
 20
12399.4848
 30
0.0
 40
15.0
 50
180.0
 51
0.0
  0
ARC
  5
D465
  8
0
  6
BYBLOCK
 62
     0
 10
24345.970723566781
 20
12399.4848
 30
0.0
 40
15.0
 50
180.0
 51
0.0
  0
ARC
  5
D466
  8
0
  6
BYBLOCK
 62
     0
 10
24345.970723566781
 20
12399.4848
 30
0.0
 40
15.0
 50
0.0
 51
180.0
  0
ARC
  5
D467
  8
0
  6
BYBLOCK
 62
     0
 10
24388.470723566759
 20
12399.4848
 30
0.0
 40
15.0
 50
180.0
 51
0.0
  0
ARC
  5
D468
  8
0
  6
BYBLOCK
 62
     0
 10
24388.470723566759
 20
12399.4848
 30
0.0
 40
15.0
 50
0.0
 51
180.0
  0
ARC
  5
D469
  8
0
  6
BYBLOCK
 62
     0
 10
24430.970723566759
 20
12399.4848
 30
0.0
 40
15.0
 50
0.0
 51
180.0
  0
ARC
  5
D46A
  8
0
  6
BYBLOCK
 62
     0
 10
24430.970723566759
 20
12399.4848
 30
0.0
 40
15.0
 50
180.0
 51
0.0
  0
ARC
  5
D46B
  8
0
  6
BYBLOCK
 62
     0
 10
26955.970723566788
 20
12399.48552599998
 30
0.0
 40
15.0
 50
0.0
 51
180.0
  0
ARC
  5
D46C
  8
0
  6
BYBLOCK
 62
     0
 10
26955.970723566788
 20
12399.48552599998
 30
0.0
 40
15.0
 50
180.0
 51
0.0
  0
ARC
  5
D46D
  8
0
  6
BYBLOCK
 62
     0
 10
26913.470723566781
 20
12399.48552599998
 30
0.0
 40
15.0
 50
180.0
 51
0.0
  0
ARC
  5
D46E
  8
0
  6
BYBLOCK
 62
     0
 10
26913.470723566781
 20
12399.48552599998
 30
0.0
 40
15.0
 50
0.0
 51
180.0
  0
ARC
  5
D46F
  8
0
  6
BYBLOCK
 62
     0
 10
26955.970723566788
 20
12399.48552599998
 30
0.0
 40
15.0
 50
180.0
 51
0.0
  0
ARC
  5
D470
  8
0
  6
BYBLOCK
 62
     0
 10
26955.970723566788
 20
12399.48552599998
 30
0.0
 40
15.0
 50
0.0
 51
180.0
  0
ARC
  5
D471
  8
0
  6
BYBLOCK
 62
     0
 10
26998.470723566781
 20
12399.48552599998
 30
0.0
 40
15.0
 50
0.0
 51
180.0
  0
ARC
  5
D472
  8
0
  6
BYBLOCK
 62
     0
 10
26998.470723566781
 20
12399.48552599998
 30
0.0
 40
15.0
 50
180.0
 51
0.0
  0
ARC
  5
D473
  8
0
  6
BYBLOCK
 62
     0
 10
26998.470723566781
 20
11999.485459999991
 30
0.0
 40
15.0
 50
180.0
 51
0.0
  0
ARC
  5
D474
  8
0
  6
BYBLOCK
 62
     0
 10
26998.470723566781
 20
11999.485459999991
 30
0.0
 40
15.0
 50
0.0
 51
180.0
  0
ARC
  5
D475
  8
0
  6
BYBLOCK
 62
     0
 10
24345.970723566781
 20
11999.485459999991
 30
0.0
 40
15.0
 50
0.0
 51
180.0
  0
ARC
  5
D476
  8
0
  6
BYBLOCK
 62
     0
 10
24345.970723566781
 20
11999.485459999991
 30
0.0
 40
15.0
 50
180.0
 51
0.0
  0
TEXT
  5
D56A
  8
NAME
 10
21595.82616625919
 20
1076.6369801169251
 30
0.0
 40
360.0
  1
VGC-2662（H）+VKC-5062（H）型-L（単棟）
 41
0.45
  0
TEXT
  5
D56B
  8
NAME
 10
21933.552716389011
 20
1876.0
 30
0.0
 40
360.0
  1
ヨドガレージ ラヴィージュ
 41
0.75
  7
01
  0
LINE
  5
D56C
  8
NAME
  6
CONTINUOUS
 10
26067.886878884299
 20
2236.0
 30
0.0
 11
26067.886878884299
 21
1876.0
 31
0.0
  0
LINE
  5
D56D
  8
NAME
  6
CONTINUOUS
 10
26167.886878884299
 20
2236.0
 30
0.0
 11
26167.886878884299
 21
1876.0
 31
0.0
  0
LINE
  5
D56E
  8
NAME
  6
CONTINUOUS
 10
26267.88687888431
 20
2236.0
 30
0.0
 11
26267.88687888431
 21
1876.0
 31
0.0
  0
LINE
  5
D56F
  8
NAME
  6
CONTINUOUS
 10
26007.886878884299
 20
2236.0
 30
0.0
 11
26327.886878884299
 21
2236.0
 31
0.0
  0
LINE
  5
D570
  8
NAME
  6
CONTINUOUS
 10
26327.886878884299
 20
1876.0
 30
0.0
 11
26007.886878884299
 21
1876.0
 31
0.0
  0
TEXT
  5
D63A
  8
FILENAME
  6
CONTINUOUS
 10
26518.285714285721
 20
348.0
 30
0.0
 40
200.0
  1
＜VGC-2662+VKC-5062-L-1-A_0.DXF ＞
  7
FILENAME
 72
     2
 11
32764.0
 21
348.0
 31
0.0
  0
LINE
  5
D63F
  8
WAKUSEN-01
 10
868.00000000000193
 20
827.99999999999955
 30
0.0
 11
32764.000000000011
 21
827.99999999999943
 31
0.0
  0
LINE
  5
D640
  8
WAKUSEN-01
 10
868.00000000000193
 20
827.99999999999955
 30
0.0
 11
868.00000000000193
 21
22484.000000000011
 31
0.0
  0
LINE
  5
D641
  8
WAKUSEN-01
 10
32764.000000000011
 20
827.99999999999943
 30
0.0
 11
32764.000000000011
 21
22484.000000000011
 31
0.0
  0
LINE
  5
D642
  8
WAKUSEN-01
 10
20560.0
 20
827.99999999999716
 30
0.0
 11
20560.0
 21
2484.0
 31
0.0
  0
LINE
  5
D643
  8
WAKUSEN-02
 10
26868.0
 20
827.99999999999261
 30
0.0
 11
26868.0
 21
2484.0
 31
0.0
  0
ENDSEC
  0
EOF
