  0
SECTION
  2
HEADER
  9
$ACADVER
  1
AC1009
  9
$INSBASE
 10
0.0
 20
0.0
 30
0.0
  9
$EXTMIN
 10
867.99324330406671
 20
327.38164749855792
 30
-0.0000000000112498
  9
$EXTMAX
 10
32765.33210850941
 20
22484.553276491992
 30
0.0000000000002956
  9
$LIMMIN
 10
0.0
 20
0.0
  9
$LIMMAX
 10
33600.0
 20
23760.0
  9
$ORTHOMODE
 70
     1
  9
$REGENMODE
 70
     1
  9
$FILLMODE
 70
     1
  9
$QTEXTMODE
 70
     0
  9
$MIRRTEXT
 70
     0
  9
$DRAGMODE
 70
     2
  9
$LTSCALE
 40
80.0
  9
$OSMODE
 70
  3071
  9
$ATTMODE
 70
     1
  9
$TEXTSIZE
 40
0.2
  9
$TRACEWID
 40
0.05
  9
$TEXTSTYLE
  7
00
  9
$CLAYER
  8
0
  9
$CELTYPE
  6
BYLAYER
  9
$CECOLOR
 62
   256
  9
$DIMSCALE
 40
1.0
  9
$DIMASZ
 40
0.18
  9
$DIMEXO
 40
0.0625
  9
$DIMDLI
 40
0.38
  9
$DIMRND
 40
0.0
  9
$DIMDLE
 40
0.0
  9
$DIMEXE
 40
0.18
  9
$DIMTP
 40
0.0
  9
$DIMTM
 40
0.0
  9
$DIMTXT
 40
0.18
  9
$DIMCEN
 40
0.09
  9
$DIMTSZ
 40
0.0
  9
$DIMTOL
 70
     0
  9
$DIMLIM
 70
     0
  9
$DIMTIH
 70
     1
  9
$DIMTOH
 70
     1
  9
$DIMSE1
 70
     0
  9
$DIMSE2
 70
     0
  9
$DIMTAD
 70
     0
  9
$DIMZIN
 70
     0
  9
$DIMBLK
  1

  9
$DIMASO
 70
     1
  9
$DIMSHO
 70
     1
  9
$DIMPOST
  1

  9
$DIMAPOST
  1

  9
$DIMALT
 70
     0
  9
$DIMALTD
 70
     2
  9
$DIMALTF
 40
25.399999999999999
  9
$DIMLFAC
 40
1.0
  9
$DIMTOFL
 70
     0
  9
$DIMTVP
 40
0.0
  9
$DIMTIX
 70
     0
  9
$DIMSOXD
 70
     0
  9
$DIMSAH
 70
     0
  9
$DIMBLK1
  1

  9
$DIMBLK2
  1

  9
$DIMSTYLE
  2
STANDARD
  9
$DIMCLRD
 70
     0
  9
$DIMCLRE
 70
     0
  9
$DIMCLRT
 70
     0
  9
$DIMTFAC
 40
1.0
  9
$DIMGAP
 40
0.09
  9
$LUNITS
 70
     2
  9
$LUPREC
 70
     4
  9
$SKETCHINC
 40
0.1
  9
$FILLETRAD
 40
0.0
  9
$AUNITS
 70
     0
  9
$AUPREC
 70
     0
  9
$MENU
  1
acad
  9
$ELEVATION
 40
0.0
  9
$PELEVATION
 40
0.0
  9
$THICKNESS
 40
0.0
  9
$LIMCHECK
 70
     0
  9
$BLIPMODE
 70
     1
  9
$CHAMFERA
 40
0.0
  9
$CHAMFERB
 40
0.0
  9
$SKPOLY
 70
     0
  9
$TDCREATE
 40
2311940.075052408
  9
$TDUPDATE
 40
2458942.4486362729
  9
$TDINDWG
 40
0.3243081829
  9
$TDUSRTIMER
 40
0.3243075116
  9
$USRTIMER
 70
     1
  9
$ANGBASE
 50
0.0
  9
$ANGDIR
 70
     0
  9
$PDMODE
 70
     0
  9
$PDSIZE
 40
0.0
  9
$PLINEWID
 40
0.0
  9
$COORDS
 70
     1
  9
$SPLFRAME
 70
     0
  9
$SPLINETYPE
 70
     6
  9
$SPLINESEGS
 70
     8
  9
$ATTDIA
 70
     1
  9
$ATTREQ
 70
     1
  9
$HANDLING
 70
     1
  9
$HANDSEED
  5
E2A5
  9
$SURFTAB1
 70
     6
  9
$SURFTAB2
 70
     6
  9
$SURFTYPE
 70
     6
  9
$SURFU
 70
     6
  9
$SURFV
 70
     6
  9
$UCSNAME
  2

  9
$UCSORG
 10
0.0
 20
0.0
 30
0.0
  9
$UCSXDIR
 10
1.0
 20
0.0
 30
0.0
  9
$UCSYDIR
 10
0.0
 20
1.0
 30
0.0
  9
$PUCSNAME
  2

  9
$PUCSORG
 10
0.0
 20
0.0
 30
0.0
  9
$PUCSXDIR
 10
1.0
 20
0.0
 30
0.0
  9
$PUCSYDIR
 10
0.0
 20
1.0
 30
0.0
  9
$USERI1
 70
     0
  9
$USERI2
 70
     0
  9
$USERI3
 70
     0
  9
$USERI4
 70
     0
  9
$USERI5
 70
     0
  9
$USERR1
 40
0.0
  9
$USERR2
 40
0.0
  9
$USERR3
 40
0.0
  9
$USERR4
 40
0.0
  9
$USERR5
 40
0.0
  9
$WORLDVIEW
 70
     1
  9
$SHADEDGE
 70
     3
  9
$SHADEDIF
 70
    70
  9
$TILEMODE
 70
     1
  9
$MAXACTVP
 70
    16
  9
$PLIMCHECK
 70
     0
  9
$PEXTMIN
 10
1.0000000000000000E+020
 20
1.0000000000000000E+020
 30
1.0000000000000000E+020
  9
$PEXTMAX
 10
-1.0000000000000000E+020
 20
-1.0000000000000000E+020
 30
-1.0000000000000000E+020
  9
$PLIMMIN
 10
0.0
 20
0.0
  9
$PLIMMAX
 10
12.0
 20
9.0
  9
$UNITMODE
 70
     0
  9
$VISRETAIN
 70
     0
  9
$PLINEGEN
 70
     1
  9
$PSLTSCALE
 70
     0
  0
ENDSEC
  0
SECTION
  2
TABLES
  0
TABLE
  2
VPORT
 70
     1
  0
VPORT
  2
*ACTIVE
 70
     0
 10
0.0
 20
0.0
 11
1.0
 21
1.0
 12
16800.0
 22
11880.0
 13
0.0
 23
0.0
 14
1.0
 24
1.0
 15
0.0
 25
0.0
 16
0.0
 26
0.0
 36
1.0
 17
0.0
 27
0.0
 37
0.0
 40
23981.023255813951
 41
2.195652173913043
 42
50.0
 43
0.0
 44
0.0
 50
0.0
 51
0.0
 71
     0
 72
 10000
 73
     1
 74
     1
 75
     0
 76
     0
 77
     0
 78
     0
  0
ENDTAB
  0
TABLE
  2
LTYPE
 70
     6
  0
LTYPE
  2
CONTINUOUS
 70
     0
  3
Solid line
 72
    65
 73
     0
 40
0.0
  0
LTYPE
  2
DASHED3
 70
     0
  3
------  ------  ------  ------  
 72
    65
 73
     2
 40
5.0
 49
3.75
 49
-1.25
  0
LTYPE
  2
CENTER2
 70
     0
  3
----------  --  ----------  --  
 72
    65
 73
     4
 40
20.0
 49
12.5
 49
-2.5
 49
2.5
 49
-2.5
  0
LTYPE
  2
HIDE-M
 70
     0
  3

 72
    65
 73
     2
 40
2.0
 49
1.0
 49
-1.0
  0
LTYPE
  2
1PL-M
 70
     0
  3

 72
    65
 73
     4
 40
15.0
 49
12.0
 49
-1.0
 49
1.0
 49
-1.0
  0
LTYPE
  2
PHANTOM2
 70
     0
  3
___ _ _ ___ _ _ ___ _ _ ___ _ _
 72
    65
 73
     6
 40
1.25
 49
0.625
 49
-0.125
 49
0.125
 49
-0.125
 49
0.125
 49
-0.125
  0
ENDTAB
  0
TABLE
  2
LAYER
 70
    24
  0
LAYER
  2
0
 70
     0
 62
     7
  6
CONTINUOUS
  0
LAYER
  2
SUNPOU
 70
     0
 62
     4
  6
CONTINUOUS
  0
LAYER
  2
0-1
 70
     0
 62
     7
  6
CONTINUOUS
  0
LAYER
  2
0-2
 70
     0
 62
     7
  6
CONTINUOUS
  0
LAYER
  2
0-5
 70
     0
 62
     7
  6
CONTINUOUS
  0
LAYER
  2
0-6
 70
     0
 62
     7
  6
CONTINUOUS
  0
LAYER
  2
2-0
 70
     0
 62
     7
  6
CONTINUOUS
  0
LAYER
  2
0-8
 70
     0
 62
     7
  6
CONTINUOUS
  0
LAYER
  2
YODOROGO
 70
     0
 62
   130
  6
CONTINUOUS
  0
LAYER
  2
WAKUSEN-01
 70
     0
 62
    50
  6
CONTINUOUS
  0
LAYER
  2
WAKUSEN-02
 70
     0
 62
   130
  6
CONTINUOUS
  0
LAYER
  2
WAKUMOJI-01
 70
     0
 62
   130
  6
CONTINUOUS
  0
LAYER
  2
FILENAME
 70
     0
 62
     7
  6
CONTINUOUS
  0
LAYER
  2
NAME
 70
     0
 62
    20
  6
CONTINUOUS
  0
LAYER
  2
0-4
 70
     0
 62
     7
  6
CONTINUOUS
  0
LAYER
  2
1-前柱P
 70
     0
 62
     3
  6
CONTINUOUS
  0
LAYER
  2
1-前柱カバ-P
 70
     0
 62
     3
  6
CONTINUOUS
  0
LAYER
  2
1-桁前P28
 70
     0
 62
     3
  6
CONTINUOUS
  0
LAYER
  2
1-後柱P
 70
     0
 62
     3
  6
CONTINUOUS
  0
LAYER
  2
1-中柱P
 70
     0
 62
     3
  6
CONTINUOUS
  0
LAYER
  2
1-後柱カバ-P
 70
     0
 62
     7
  6
CONTINUOUS
  0
LAYER
  2
1-中柱カバ-P
 70
     0
 62
     7
  6
CONTINUOUS
  0
ENDTAB
  0
TABLE
  2
STYLE
 70
     5
  0
STYLE
  2
STANDARD
 70
     0
 40
0.0
 41
1.0
 50
0.0
 71
     0
 42
0.0
  3
txt
  4
BIGFONT
  0
STYLE
  2
00
 70
     0
 40
0.0
 41
0.6666666666666666
 50
0.0
 71
     0
 42
0.2
  3
ROMANS
  4
BIGFONT
  0
STYLE
  2
01
 70
     0
 40
3.0
 41
1.0
 50
0.0
 71
     0
 42
0.2
  3
ROMANS
  4
BIGFONT
  0
STYLE
  2
WAKUMOJI
 70
     0
 40
3.0
 41
1.0
 50
0.0
 71
     0
 42
3.0
  3
SIMPLEX
  4
BIGFONT
  0
STYLE
  2
FILENAME
 70
     0
 40
200.0
 41
1.0
 50
0.0
 71
     0
 42
200.0
  3
romans
  4
bigfont
  0
ENDTAB
  0
TABLE
  2
VIEW
 70
     0
  0
ENDTAB
  0
TABLE
  2
UCS
 70
     0
  0
ENDTAB
  0
TABLE
  2
APPID
 70
    17
  0
APPID
  2
ACAD
 70
     0
  0
APPID
  2
ACADANNOTATIVE
 70
     0
  0
APPID
  2
ACAD_PSEXT
 70
     0
  0
APPID
  2
DCO15
 70
     0
  0
APPID
  2
ACAD_MLEADERVER
 70
     0
  0
APPID
  2
AUTOCAD_POSTSCRIPT_FIGURE
 70
     0
  0
APPID
  2
ACAD_EXEMPT_FROM_CAD_STANDARDS
 70
     0
  0
APPID
  2
ACLAYERTOOLS
 70
     0
  0
APPID
  2
ACAD_DSTYLE_DIMJAG
 70
     0
  0
APPID
  2
ACAD_DSTYLE_DIMTALN
 70
     0
  0
APPID
  2
ACAECLAYERSTANDARD
 70
     0
  0
APPID
  2
ACAD_DSTYLE_DIMBREAK
 70
     0
  0
APPID
  2
ACAD_DSTYLE_DIM_LINETYPE
 70
     0
  0
APPID
  2
ACAD_DSTYLE_DIM_EXT1_LINETYPE
 70
     0
  0
APPID
  2
ACAD_DSTYLE_DIM_EXT2_LINETYPE
 70
     0
  0
APPID
  2
ACAD_DSTYLE_DIMFLIPARROW_W
 70
     0
  0
APPID
  2
ACAD_NAV_VCDISPLAY
 70
     0
  0
ENDTAB
  0
TABLE
  2
DIMSTYLE
 70
     2
  0
DIMSTYLE
  2
STANDARD
 70
     0
  3

  4

  5

  6

  7

 40
1.0
 41
0.18
 42
0.0625
 43
0.38
 44
0.18
 45
0.0
 46
0.0
 47
0.0
 48
0.0
140
0.18
141
0.09
142
0.0
143
25.399999999999999
144
1.0
145
0.0
146
1.0
147
0.09
 71
     0
 72
     0
 73
     1
 74
     1
 75
     0
 76
     0
 77
     0
 78
     0
170
     0
171
     2
172
     0
173
     0
174
     0
175
     0
176
     0
177
     0
178
     0
  0
ENDTAB
  0
ENDSEC
  0
SECTION
  2
BLOCKS
  0
BLOCK
  8
0
  2
$MODEL_SPACE
 70
     0
 10
0.0
 20
0.0
 30
0.0
  3
$MODEL_SPACE
  1

  0
ENDBLK
  5
D150
  8
0
  0
BLOCK
 67
     1
  8
0
  2
$PAPER_SPACE
 70
     0
 10
0.0
 20
0.0
 30
0.0
  3
$PAPER_SPACE
  1

  0
ENDBLK
  5
D14C
 67
     1
  8
0
  0
ENDSEC
  0
SECTION
  2
ENTITIES
  0
CIRCLE
  5
D18A
  8
0-5
  6
CONTINUOUS
 62
     4
 10
15183.09822873439
 20
1421.969151421961
 30
0.0
 40
20.0
  0
ARC
  5
D18B
  8
0-5
  6
CONTINUOUS
 62
     4
 10
15183.09822873439
 20
1421.969151421961
 30
0.0
 40
20.0
 50
180.0
 51
0.0
  0
ARC
  5
D18C
  8
0-5
  6
CONTINUOUS
 62
     4
 10
15183.09822873439
 20
1421.969151421961
 30
0.0
 40
20.0
 50
0.0
 51
179.99998500000001
  0
CIRCLE
  5
D18D
  8
0-5
  6
CONTINUOUS
 62
     4
 10
15183.09822873439
 20
1821.968491421959
 30
0.0
 40
20.0
  0
ARC
  5
D18E
  8
0-5
  6
CONTINUOUS
 62
     4
 10
15183.09822873439
 20
1821.968491421959
 30
0.0
 40
20.0
 50
180.0
 51
0.0
  0
ARC
  5
D18F
  8
0-5
  6
CONTINUOUS
 62
     4
 10
15183.09822873439
 20
1821.968491421959
 30
0.0
 40
20.0
 50
0.0
 51
179.99998500000001
  0
TEXT
  5
D190
  8
0-5
  6
CONTINUOUS
 62
     7
 10
16715.598954734382
 20
1701.968961421959
 30
0.0
 40
160.0
  1
H
  0
TEXT
  5
D191
  8
0-5
  6
CONTINUOUS
 62
     7
 10
15230.52848373439
 20
1701.968961421959
 30
0.0
 40
160.0
  1
（ ）内寸法ハ、  タイプヲ示ス。
  0
TEXT
  5
D192
  8
0-5
  6
CONTINUOUS
 62
     7
 10
15343.09776673439
 20
1301.96863142196
 30
0.0
 40
160.0
  1
有効高サハ、基礎高サヲ含ミマセン。
  0
TEXT
  5
D193
  8
2-0
  6
CONTINUOUS
 62
     7
 10
21593.69704626991
 20
3338.771758421959
 30
0.0
 40
160.0
  1
正 面 立 面 図
 72
     4
 11
22239.030379603239
 21
3418.771758421959
 31
0.0
  0
TEXT
  5
D194
  8
2-0
  6
CONTINUOUS
 62
     7
 10
9149.8649603458252
 20
3310.0360764219599
 30
0.0
 40
160.0
  1
側 面 立 面 図
 50
0.000139
 72
     4
 11
9795.1980995966478
 21
3390.0376420053349
 31
0.0
  0
TEXT
  5
D195
  8
2-0
  6
CONTINUOUS
 62
     7
 10
11146.69028473427
 20
3337.2330110053349
 30
0.0
 40
160.0
  1
1
 72
     4
 11
11173.35695140094
 21
3417.2330110053349
 31
0.0
  0
TEXT
  5
D196
  8
2-0
  6
CONTINUOUS
 62
     7
 10
11389.779001984951
 20
3257.2344790053371
 30
0.0
 40
160.0
  1
80
 72
     4
 11
11509.779001984951
 21
3337.2344790053362
 31
0.0
  0
TEXT
  5
D197
  8
2-0
  6
CONTINUOUS
 62
     7
 10
10647.69225073427
 20
3310.0376420053349
 30
0.0
 40
160.0
  1
(S=  /   )
 72
     4
 11
11207.69225073427
 21
3390.0376420053349
 31
0.0
  0
TEXT
  5
D198
  8
2-0
  6
CONTINUOUS
 62
     7
 10
23590.522564740881
 20
3365.96712742196
 30
0.0
 40
160.0
  1
1
 72
     4
 11
23617.189231407549
 21
3445.96712742196
 31
0.0
  0
TEXT
  5
D199
  8
2-0
  6
CONTINUOUS
 62
     7
 10
23833.611281991562
 20
3285.9685954219608
 30
0.0
 40
160.0
  1
80
 72
     4
 11
23953.611281991562
 21
3365.9685954219608
 31
0.0
  0
TEXT
  5
D19A
  8
2-0
  6
CONTINUOUS
 62
     7
 10
23091.52453074088
 20
3338.771758421959
 30
0.0
 40
160.0
  1
(S=  /   )
 72
     4
 11
23651.52453074088
 21
3418.771758421959
 31
0.0
  0
TEXT
  5
D19B
  8
2-0
  6
CONTINUOUS
 62
     7
 10
21191.04766389251
 20
11297.07361142196
 30
0.0
 40
160.0
  1
平　面　図
 72
     4
 11
21644.380997225839
 21
11371.74027808863
 31
0.0
  0
TEXT
  5
D19C
  8
2-0
  6
CONTINUOUS
 62
     7
 10
9370.6720697002747
 20
11202.78617242194
 30
0.0
 40
160.0
  1
小 屋 伏 図
 72
     4
 11
9872.0054030336087
 21
11282.78617242194
 31
0.0
  0
TEXT
  5
D19D
  8
2-0
  6
CONTINUOUS
 62
     7
 10
22995.87318236347
 20
11318.935647088631
 30
0.0
 40
160.0
  1
1
 72
     4
 11
23022.539849030141
 21
11398.935647088631
 31
0.0
  0
TEXT
  5
D19E
  8
2-0
  6
CONTINUOUS
 62
     7
 10
23238.961899614162
 20
11238.937115088631
 30
0.0
 40
160.0
  1
80
 72
     4
 11
23358.961899614162
 21
11318.937115088631
 31
0.0
  0
TEXT
  5
D19F
  8
2-0
  6
CONTINUOUS
 62
     7
 10
22496.875148363459
 20
11291.74027808863
 30
0.0
 40
160.0
  1
(S=  /   )
 72
     4
 11
23056.875148363459
 21
11371.74027808863
 31
0.0
  0
TEXT
  5
D1A0
  8
2-0
  6
CONTINUOUS
 62
     7
 10
11223.49758817122
 20
11229.98154142195
 30
0.0
 40
160.0
  1
1
 72
     4
 11
11250.16425483789
 21
11309.98154142195
 31
0.0
  0
TEXT
  5
D1A1
  8
2-0
  6
CONTINUOUS
 62
     7
 10
11466.58630542191
 20
11149.983009421951
 30
0.0
 40
160.0
  1
80
 72
     4
 11
11586.58630542191
 21
11229.983009421951
 31
0.0
  0
TEXT
  5
D1A2
  8
2-0
  6
CONTINUOUS
 62
     7
 10
10724.499554171231
 20
11202.78617242194
 30
0.0
 40
160.0
  1
(S=  /   )
 72
     4
 11
11284.499554171231
 21
11282.78617242194
 31
0.0
  0
LINE
  5
D1BB
  8
0-6
  6
CONTINUOUS
 62
     6
 10
10014.11926073207
 20
19634.179357421941
 30
0.0
 11
10158.020363732039
 21
20146.45501242195
 31
0.0
  0
LINE
  5
D1BC
  8
0-6
  6
CONTINUOUS
 62
     6
 10
13231.252240659671
 20
19739.95691242196
 30
0.0
 11
13124.55717865965
 21
19862.132799421961
 31
0.0
  0
LINE
  5
D1BD
  8
0-6
  6
CONTINUOUS
 62
     6
 10
13169.946550659661
 20
19890.133089421961
 30
0.0
 11
13231.252240659671
 21
19739.95691242196
 31
0.0
  0
LINE
  5
D1BE
  8
0-6
  6
CONTINUOUS
 62
     6
 10
13169.946550659661
 20
19890.133089421961
 30
0.0
 11
13124.55717865965
 21
19862.132799421961
 31
0.0
  0
LINE
  5
D1BF
  8
0-6
  6
CONTINUOUS
 62
     6
 10
13231.252240659671
 20
19739.95691242196
 30
0.0
 11
12937.32441365965
 21
20146.45501242195
 31
0.0
  0
LINE
  5
D1C0
  8
0-6
  6
CONTINUOUS
 62
     6
 10
9975.7294667320693
 20
19478.85445242194
 30
0.0
 11
9988.2311167320731
 21
19640.579141421949
 31
0.0
  0
LINE
  5
D1C1
  8
0-6
  6
CONTINUOUS
 62
     6
 10
10040.00443573206
 20
19627.78353342196
 30
0.0
 11
9975.7294667320693
 21
19478.85445242194
 31
0.0
  0
LINE
  5
D1C2
  8
0-6
  6
CONTINUOUS
 62
     6
 10
10040.00443573206
 20
19627.78353342196
 30
0.0
 11
9988.2311167320731
 21
19640.579141421949
 31
0.0
  0
LINE
  5
D1C3
  8
0-6
  6
CONTINUOUS
 62
     6
 10
10158.020363732039
 20
20146.45501242195
 30
0.0
 11
10675.709011732049
 21
20146.45501242195
 31
0.0
  0
LINE
  5
D1C4
  8
0-6
  6
CONTINUOUS
 62
     6
 10
13501.346251192581
 20
17991.904808264
 30
0.0
 11
13411.53054419257
 21
18126.977259264
 31
0.0
  0
LINE
  5
D1C5
  8
0-6
  6
CONTINUOUS
 62
     6
 10
13411.53054419257
 20
18126.977259264
 30
0.0
 11
13452.684735192581
 21
17970.076657263999
 31
0.0
  0
LINE
  5
D1C6
  8
0-6
  6
CONTINUOUS
 62
     6
 10
13411.53054419257
 20
18126.977259264
 30
0.0
 11
13501.346251192581
 21
17991.904808264
 31
0.0
  0
LINE
  5
D1C7
  8
0-6
  6
CONTINUOUS
 62
     6
 10
13501.346251192581
 20
17991.904808264
 30
0.0
 11
13452.684735192581
 21
17970.076657263999
 31
0.0
  0
LINE
  5
D1C8
  8
0-6
  6
CONTINUOUS
 62
     6
 10
13452.684735192581
 20
17970.076657263999
 30
0.0
 11
13411.53054419257
 21
18126.977259264
 31
0.0
  0
LINE
  5
D1C9
  8
0-6
  6
CONTINUOUS
 62
     6
 10
13452.684735192581
 20
17970.076657263999
 30
0.0
 11
13501.346251192581
 21
17991.904808264
 31
0.0
  0
LINE
  5
D1CA
  8
0-6
  6
CONTINUOUS
 62
     6
 10
12137.32276465965
 20
20146.45501242195
 30
0.0
 11
12937.32441365965
 21
20146.45501242195
 31
0.0
  0
LINE
  5
D1D1
  8
0-6
  6
CONTINUOUS
 62
     6
 10
13576.056251192549
 20
17760.198199263999
 30
0.0
 11
14096.05697719258
 21
17760.198199263999
 31
0.0
  0
LINE
  5
D1D2
  8
0-6
  6
CONTINUOUS
 62
     6
 10
11703.40819286174
 20
14072.84612542196
 30
0.0
 11
11786.295584861729
 21
14249.784404421949
 31
0.0
  0
LINE
  5
D1D3
  8
0-6
  6
CONTINUOUS
 62
     6
 10
11786.295584861729
 20
14249.784404421949
 30
0.0
 11
12586.29624486172
 21
14249.784404421949
 31
0.0
  0
LINE
  5
D1D4
  8
0-6
  6
CONTINUOUS
 62
     6
 10
11885.124917145569
 20
13563.40910042195
 30
0.0
 11
11778.854462145549
 21
13685.95614742195
 31
0.0
  0
LINE
  5
D1D5
  8
0-6
  6
CONTINUOUS
 62
     6
 10
11778.854462145549
 20
13685.95614742195
 30
0.0
 11
11839.636570145551
 21
13535.567171421961
 31
0.0
  0
LINE
  5
D1D6
  8
0-6
  6
CONTINUOUS
 62
     6
 10
11778.854462145549
 20
13685.95614742195
 30
0.0
 11
11885.124917145569
 21
13563.40910042195
 31
0.0
  0
LINE
  5
D1D7
  8
0-6
  6
CONTINUOUS
 62
     6
 10
11885.124917145569
 20
13563.40910042195
 30
0.0
 11
11839.636570145551
 21
13535.567171421961
 31
0.0
  0
LINE
  5
D1D8
  8
0-6
  6
CONTINUOUS
 62
     6
 10
11839.636570145551
 20
13535.567171421961
 30
0.0
 11
11778.854462145549
 21
13685.95614742195
 31
0.0
  0
LINE
  5
D1D9
  8
0-6
  6
CONTINUOUS
 62
     6
 10
11839.636570145551
 20
13535.567171421961
 30
0.0
 11
11885.124917145569
 21
13563.40910042195
 31
0.0
  0
LINE
  5
D1DA
  8
0-6
  6
CONTINUOUS
 62
     6
 10
11679.26103586172
 20
14084.158084421961
 30
0.0
 11
11635.53544986172
 21
13927.95526342196
 31
0.0
  0
LINE
  5
D1DB
  8
0-6
  6
CONTINUOUS
 62
     6
 10
11635.53544986172
 20
13927.95526342196
 30
0.0
 11
11727.556340861731
 21
14061.533176421941
 31
0.0
  0
LINE
  5
D1DC
  8
0-6
  6
CONTINUOUS
 62
     6
 10
11635.53544986172
 20
13927.95526342196
 30
0.0
 11
11679.26103586172
 21
14084.158084421961
 31
0.0
  0
LINE
  5
D1DD
  8
0-6
  6
CONTINUOUS
 62
     6
 10
11679.26103586172
 20
14084.158084421961
 30
0.0
 11
11727.556340861731
 21
14061.533176421941
 31
0.0
  0
LINE
  5
D1DE
  8
0-6
  6
CONTINUOUS
 62
     6
 10
11727.556340861731
 20
14061.533176421941
 30
0.0
 11
11635.53544986172
 21
13927.95526342196
 31
0.0
  0
LINE
  5
D1DF
  8
0-6
  6
CONTINUOUS
 62
     6
 10
11727.556340861731
 20
14061.533176421941
 30
0.0
 11
11679.26103586172
 21
14084.158084421961
 31
0.0
  0
LINE
  5
D1E0
  8
0-6
  6
CONTINUOUS
 62
     6
 10
12268.493332145559
 20
12885.95647742196
 30
0.0
 11
13131.07350314557
 21
12885.95647742196
 31
0.0
  0
LINE
  5
D1E1
  8
0-6
  6
CONTINUOUS
 62
     6
 10
11862.381239145559
 20
13549.48813642196
 30
0.0
 11
12268.493332145559
 21
12885.95647742196
 31
0.0
  0
LINE
  5
D1E2
  8
0-6
  6
CONTINUOUS
 62
     6
 10
13473.98138619258
 20
14258.24585642196
 30
0.0
 11
13451.53067619256
 21
14418.89170742195
 31
0.0
  0
LINE
  5
D1E3
  8
0-6
  6
CONTINUOUS
 62
     6
 10
13451.53067619256
 20
14418.89170742195
 30
0.0
 11
13524.86788019258
 21
14274.21067342196
 31
0.0
  0
LINE
  5
D1E4
  8
0-6
  6
CONTINUOUS
 62
     6
 10
13451.53067619256
 20
14418.89170742195
 30
0.0
 11
13473.98138619258
 21
14258.24585642196
 31
0.0
  0
LINE
  5
D1E5
  8
0-6
  6
CONTINUOUS
 62
     6
 10
13473.98138619258
 20
14258.24585642196
 30
0.0
 11
13524.86788019258
 21
14274.21067342196
 31
0.0
  0
LINE
  5
D1E6
  8
0-6
  6
CONTINUOUS
 62
     6
 10
13524.86788019258
 20
14274.21067342196
 30
0.0
 11
13451.53067619256
 21
14418.89170742195
 31
0.0
  0
LINE
  5
D1E7
  8
0-6
  6
CONTINUOUS
 62
     6
 10
13524.86788019258
 20
14274.21067342196
 30
0.0
 11
13473.98138619258
 21
14258.24585642196
 31
0.0
  0
LINE
  5
D1E8
  8
0-6
  6
CONTINUOUS
 62
     6
 10
14086.16532319259
 20
12395.95535542194
 30
0.0
 11
15166.16492719258
 21
12395.95535542194
 31
0.0
  0
LINE
  5
D1E9
  8
0-6
  6
CONTINUOUS
 62
     6
 10
13499.425128192581
 20
14266.227275421939
 30
0.0
 11
14086.165323192559
 21
12395.95535542194
 31
0.0
  0
LINE
  5
D1EA
  8
0-6
  6
CONTINUOUS
 62
     6
 10
13477.015988192579
 20
17980.991722264
 30
0.0
 11
13576.056251192549
 21
17760.198199263999
 31
0.0
  0
LINE
  5
D1FE
  8
0-6
  6
CONTINUOUS
 62
     6
 10
7934.6635099706527
 20
19916.454748421958
 30
0.0
 11
7842.9761679706498
 21
20050.262286421948
 31
0.0
  0
LINE
  5
D1FF
  8
0-6
  6
CONTINUOUS
 62
     6
 10
7804.534906970649
 20
20013.294776421961
 30
0.0
 11
7934.6635099706527
 21
19916.454748421958
 31
0.0
  0
LINE
  5
D200
  8
0-6
  6
CONTINUOUS
 62
     6
 10
7804.534906970649
 20
20013.294776421961
 30
0.0
 11
7842.9761679706498
 21
20050.262286421948
 31
0.0
  0
LINE
  5
D201
  8
0-6
  6
CONTINUOUS
 62
     6
 10
7823.7550419706458
 20
20031.777541421961
 30
0.0
 11
7306.7661539706532
 21
20536.455804421948
 31
0.0
  0
LINE
  5
D202
  8
0-6
  6
CONTINUOUS
 62
     6
 10
5631.7668139706448
 20
20536.455804421948
 30
0.0
 11
7306.7661539706532
 21
20536.455804421948
 31
0.0
  0
TEXT
  5
D20A
  8
0-6
  6
CONTINUOUS
 62
     7
 10
10238.020627732059
 20
20226.455276421952
 30
0.0
 40
160.0
  1
屋根
 72
     4
 11
10408.687294398729
 21
20306.455276421952
 31
0.0
  0
TEXT
  5
D20B
  8
0-6
  6
CONTINUOUS
 62
     7
 10
12217.32401865967
 20
20226.455276421952
 30
0.0
 40
160.0
  1
桁（後）
 72
     4
 11
12537.32401865967
 21
20306.455276421952
 31
0.0
  0
TEXT
  5
D20C
  8
0-6
  6
CONTINUOUS
 62
     7
 10
11866.294858861709
 20
14329.78466842196
 30
0.0
 40
160.0
  1
桁（前）
 72
     4
 11
12186.294858861709
 21
14409.78466842196
 31
0.0
  0
TEXT
  5
D20D
  8
0-6
  6
CONTINUOUS
 62
     7
 10
12348.49260614555
 20
12965.95575142196
 30
0.0
 40
160.0
  1
鼻隠し前
 72
     4
 11
12711.15927281222
 21
13045.95575142196
 31
0.0
  0
TEXT
  5
D20E
  8
0-6
  6
CONTINUOUS
 62
     7
 10
14166.16558719256
 20
12475.954629421951
 30
0.0
 40
160.0
  1
ケラバ 右
 72
     4
 11
14582.16558719256
 21
12555.954629421951
 31
0.0
  0
TEXT
  5
D20F
  8
0-6
  6
CONTINUOUS
 62
     7
 10
13656.05651519258
 20
17840.198463263991
 30
0.0
 40
160.0
  1
上枠
 72
     4
 11
13826.72318185925
 21
17920.198463263991
 31
0.0
  0
TEXT
  5
D210
  8
0-6
  6
CONTINUOUS
 62
     7
 10
5711.7670779706486
 20
20616.45408842196
 30
0.0
 40
160.0
  1
鼻隠しコーナー後
 72
     4
 11
6458.4337446373174
 21
20696.45408842196
 31
0.0
  0
LINE
  5
D211
  8
0-6
  6
CONTINUOUS
 62
     6
 10
7925.8118495582239
 20
14726.491338486079
 30
0.0
 11
7026.3744401354552
 21
12885.95647742196
 31
0.0
  0
LINE
  5
D212
  8
0-6
  6
CONTINUOUS
 62
     6
 10
20816.465946627832
 20
13238.45627942196
 30
0.0
 11
21816.465287627801
 21
13238.45627942196
 31
0.0
  0
TEXT
  5
D213
  8
0-6
  6
CONTINUOUS
 62
     7
 10
20912.466210627801
 20
13318.45654342194
 30
0.0
 40
160.0
  1
前柱（P）
 72
     4
 11
21312.466210627801
 21
13398.45654342194
 31
0.0
  0
LINE
  5
D214
  8
0-6
  6
CONTINUOUS
 62
     6
 10
20411.389582806409
 20
13824.455421421961
 30
0.0
 11
20816.465946627832
 21
13238.45627942196
 31
0.0
  0
LINE
  5
D215
  8
0-6
  6
CONTINUOUS
 62
     6
 10
20816.465946627832
 20
16126.01707937607
 30
0.0
 11
21816.465287627801
 21
16126.01707937607
 31
0.0
  0
TEXT
  5
D216
  8
0-6
  6
CONTINUOUS
 62
     7
 10
20912.466210627801
 20
16206.01734337607
 30
0.0
 40
160.0
  1
中柱（P）
 72
     4
 11
21312.466210627801
 21
16286.01734337607
 31
0.0
  0
LINE
  5
D217
  8
0-6
  6
CONTINUOUS
 62
     6
 10
20411.389582806409
 20
16712.01622137607
 30
0.0
 11
20816.465946627832
 21
16126.01707937607
 31
0.0
  0
LINE
  5
D218
  8
0-6
  6
CONTINUOUS
 62
     6
 10
20730.35423176179
 20
14439.446159250831
 30
0.0
 11
22186.354231761801
 21
14439.446159250831
 31
0.0
  0
TEXT
  5
D219
  8
0-6
  6
CONTINUOUS
 62
     7
 10
20770.35950501421
 20
14519.446423250811
 30
0.0
 40
160.0
  1
前柱カバー（P）
 72
     4
 11
21458.35950501421
 21
14599.446423250811
 31
0.0
  0
LINE
  5
D21A
  8
0-6
  6
CONTINUOUS
 62
     6
 10
20431.116636470841
 20
13951.055421421959
 30
0.0
 11
20730.35423176179
 21
14439.446159250831
 31
0.0
  0
LINE
  5
D21B
  8
0-6
  6
CONTINUOUS
 62
     6
 10
20730.35423176179
 20
17346.94572325081
 30
0.0
 11
22186.354231761801
 21
17346.94572325081
 31
0.0
  0
TEXT
  5
D21C
  8
0-6
  6
CONTINUOUS
 62
     7
 10
20770.35950501421
 20
17426.94598725082
 30
0.0
 40
160.0
  1
中柱カバー（P）
 72
     4
 11
21458.35950501421
 21
17506.94598725082
 31
0.0
  0
LINE
  5
D21D
  8
0-6
  6
CONTINUOUS
 62
     6
 10
20431.116636470841
 20
16858.554985421961
 30
0.0
 11
20730.35423176179
 21
17346.94572325081
 31
0.0
  0
LINE
  5
D21E
  8
0-6
  6
CONTINUOUS
 62
     6
 10
20666.520705085681
 20
20136.976198045479
 30
0.0
 11
21666.520046085661
 21
20136.976198045479
 31
0.0
  0
TEXT
  5
D21F
  8
0-6
  6
CONTINUOUS
 62
     7
 10
20762.520969085661
 20
20216.97646204547
 30
0.0
 40
160.0
  1
後柱（P）
 72
     4
 11
21162.520969085661
 21
20296.97646204547
 31
0.0
  0
LINE
  5
D220
  8
0-6
  6
CONTINUOUS
 62
     6
 10
20411.389582806409
 20
19767.893644467811
 30
0.0
 11
20666.520705085692
 21
20136.976198045479
 31
0.0
  0
LINE
  5
D221
  8
0-6
  6
CONTINUOUS
 62
     6
 10
20730.35423176179
 20
19132.964142593079
 30
0.0
 11
22186.354231761801
 21
19132.964142593079
 31
0.0
  0
TEXT
  5
D222
  8
0-6
  6
CONTINUOUS
 62
     7
 10
20770.35950501421
 20
19212.96440659307
 30
0.0
 40
160.0
  1
後柱カバー（P）
 72
     4
 11
21458.35950501421
 21
19292.96440659307
 31
0.0
  0
LINE
  5
D223
  8
0-6
  6
CONTINUOUS
 62
     6
 10
20431.116636470841
 20
19621.354880421961
 30
0.0
 11
20730.35423176179
 21
19132.964142593079
 31
0.0
  0
LINE
  5
D224
  8
0-6
  6
CONTINUOUS
 62
     6
 10
11833.26888139133
 20
16286.290331617531
 30
0.0
 11
12713.26782539134
 21
16286.290331617531
 31
0.0
  0
LINE
  5
D225
  8
0-6
  6
CONTINUOUS
 62
     6
 10
11655.506744042939
 20
16116.273203947199
 30
0.0
 11
11833.26888139133
 21
16286.290331617531
 31
0.0
  0
LINE
  5
D226
  8
0-6
  6
CONTINUOUS
 62
     6
 10
11539.879104042941
 20
16005.68343994719
 30
0.0
 11
11637.076436042949
 21
16135.54579694719
 31
0.0
  0
LINE
  5
D227
  8
0-6
  6
CONTINUOUS
 62
     6
 10
11673.93804104294
 20
16097.0006109472
 30
0.0
 11
11539.879104042941
 21
16005.68343994719
 31
0.0
  0
LINE
  5
D228
  8
0-6
  6
CONTINUOUS
 62
     6
 10
11673.93804104294
 20
16097.0006109472
 30
0.0
 11
11637.076436042949
 21
16135.54579694719
 31
0.0
  0
TEXT
  5
D229
  8
0-6
  6
CONTINUOUS
 62
     7
 10
11913.270135391331
 20
16366.29059561752
 30
0.0
 40
160.0
  1
ブレース
 72
     4
 11
12275.936802058
 21
16451.623928950859
 31
0.0
  0
LINE
  5
D22A
  8
0-6
  6
CONTINUOUS
 62
     6
 10
12748.370262647801
 20
16830.957361421952
 30
0.0
 11
12629.072644315451
 21
17146.549699421961
 31
0.0
  0
LINE
  5
D22B
  8
0-6
  6
CONTINUOUS
 62
     6
 10
11828.50188331545
 20
17146.549699421961
 30
0.0
 11
12629.072644315451
 21
17146.549699421961
 31
0.0
  0
TEXT
  5
D22C
  8
0-6
  6
CONTINUOUS
 62
     7
 10
11909.07224831544
 20
17226.549963421949
 30
0.0
 40
160.0
  1
桁（中）
 72
     4
 11
12229.07224831544
 21
17306.549963421949
 31
0.0
  0
LINE
  5
D22D
  8
0-6
  6
CONTINUOUS
 62
     6
 10
8756.4795090252319
 20
14170.97748154512
 30
0.0
 11
9636.4784530252382
 21
14170.97748154512
 31
0.0
  0
LINE
  5
D22E
  8
0-6
  6
CONTINUOUS
 62
     6
 10
10004.22015859985
 20
14638.825788178299
 30
0.0
 11
9636.4784530252382
 21
14170.97748154512
 31
0.0
  0
TEXT
  5
D22F
  8
0-6
  6
CONTINUOUS
 62
     7
 10
8836.4807630252417
 20
14250.97774554512
 30
0.0
 40
160.0
  1
ブレース
 72
     4
 11
9199.1474296919059
 21
14336.31107887846
 31
0.0
  0
LINE
  5
D230
  8
0-6
  6
CONTINUOUS
 62
     6
 10
9170.3838999709133
 20
16209.784114022381
 30
0.0
 11
8855.0926493563456
 21
16740.954590421989
 31
0.0
  0
LINE
  5
D392
  8
2-0
  6
CENTER2
 62
     6
 10
26933.975053630649
 20
19714.45542142195
 30
0.0
 11
20099.36797467872
 21
19714.45542142195
 31
0.0
  0
LINE
  5
D394
  8
2-0
  6
CENTER2
 62
     6
 10
26655.819328361111
 20
16796.455421421939
 30
0.0
 11
20099.367974678731
 21
16796.455421421939
 31
0.0
  0
LINE
  5
D396
  8
2-0
  6
CENTER2
 62
     6
 10
26933.975053630649
 20
13878.45542142195
 30
0.0
 11
20099.36797467872
 21
13878.455421421961
 31
0.0
  0
CIRCLE
  5
D397
  8
0-5
  6
CONTINUOUS
 62
     4
 10
23203.97281063065
 20
21556.956345421939
 30
0.0
 40
199.9999949999999
  0
CIRCLE
  5
D39B
  8
0-5
  6
CONTINUOUS
 62
     4
 10
25771.472810630668
 20
21556.956345421939
 30
0.0
 40
199.9999949999999
  0
TEXT
  5
D39C
  8
0-5
  6
CONTINUOUS
 62
     7
 10
23151.976487963992
 20
21470.730495421962
 30
0.0
 40
160.0
  1
2
 72
     4
 11
23205.30982129732
 21
21550.730495421962
 31
0.0
  0
TEXT
  5
D39D
  8
0-5
  6
CONTINUOUS
 62
     7
 10
25718.13947729734
 20
21476.956345421939
 30
0.0
 40
160.0
  1
3
 72
     4
 11
25771.472810630668
 21
21556.956345421939
 31
0.0
  0
LINE
  5
D3A1
  8
2-0
  6
CENTER2
 62
     6
 10
20403.972810630668
 20
21356.95766442196
 30
0.0
 11
20403.972810630668
 21
13528.540796945959
 31
0.0
  0
CIRCLE
  5
D3A2
  8
0-5
  6
CONTINUOUS
 62
     4
 10
20403.972810630668
 20
21556.956345421939
 30
0.0
 40
199.9999949999999
  0
TEXT
  5
D3A3
  8
0-5
  6
CONTINUOUS
 62
     7
 10
20378.643154630648
 20
21470.730495421962
 30
0.0
 40
160.0
  1
1
 72
     4
 11
20405.30982129732
 21
21550.730495421962
 31
0.0
  0
ARC
  5
D3A4
  8
1-後柱P
  6
HIDE-M
 62
     6
 10
20400.372810630641
 20
19646.40542142195
 30
0.0
 40
2.6000000000000001
 50
270.0
 51
0.000000000000007
  0
LINE
  5
D3A5
  8
1-後柱P
  6
HIDE-M
 62
     6
 10
20411.97281063065
 20
19644.356031268759
 30
0.0
 11
20411.97281063065
 21
19648.005421421942
 31
0.0
  0
LINE
  5
D3A6
  8
1-後柱P
  6
HIDE-M
 62
     6
 10
20401.97281063065
 20
19644.356031268759
 30
0.0
 11
20401.97281063065
 21
19648.005421421942
 31
0.0
  0
LINE
  5
D3A7
  8
1-後柱P
  6
1PL-M
 62
     6
 10
20406.97281063065
 20
19638.805421421959
 30
0.0
 11
20406.97281063065
 21
19653.005421421949
 31
0.0
  0
ARC
  5
D3A8
  8
1-後柱P
  6
HIDE-M
 62
     6
 10
20413.57281063066
 20
19646.40542142195
 30
0.0
 40
2.6000000000000001
 50
180.0
 51
270.0
  0
LINE
  5
D3A9
  8
1-後柱P
  6
HIDE-M
 62
     6
 10
20402.97281063065
 20
19646.40542142195
 30
0.0
 11
20402.97281063065
 21
19648.005421421942
 31
0.0
  0
LINE
  5
D3AA
  8
1-後柱P
  6
HIDE-M
 62
     6
 10
20410.97281063065
 20
19646.40542142195
 30
0.0
 11
20410.97281063065
 21
19648.005421421942
 31
0.0
  0
LINE
  5
D3AB
  8
1-後柱P
 10
20393.072810630671
 20
19758.70542142195
 30
0.0
 11
20414.87281063067
 21
19758.70542142195
 31
0.0
  0
LINE
  5
D3AC
  8
1-後柱P
 10
20444.87281063067
 20
19721.40542142195
 30
0.0
 11
20444.87281063067
 21
19728.705421421939
 31
0.0
  0
ARC
  5
D3AD
  8
1-後柱P
 10
20414.87281063067
 20
19728.705421421939
 30
0.0
 40
30.0
 50
0.000000000000007
 51
90.0
  0
ARC
  5
D3AE
  8
1-後柱P
 10
20414.87281063067
 20
19728.705421421939
 30
0.0
 40
31.600000000000001
 50
0.000000000000007
 51
90.0
  0
LINE
  5
D3AF
  8
1-後柱P
 10
20393.072810630671
 20
19760.305421421948
 30
0.0
 11
20414.87281063067
 21
19760.305421421948
 31
0.0
  0
LINE
  5
D3B0
  8
1-後柱P
 10
20446.472810630661
 20
19721.40542142195
 30
0.0
 11
20446.472810630661
 21
19728.705421421939
 31
0.0
  0
LINE
  5
D3B1
  8
1-後柱P
 10
20423.472810630661
 20
19699.805421421959
 30
0.0
 11
20423.472810630661
 21
19709.805421421948
 31
0.0
  0
LINE
  5
D3B2
  8
1-後柱P
 10
20421.87281063067
 20
19709.805421421948
 30
0.0
 11
20421.87281063067
 21
19699.805421421959
 31
0.0
  0
LINE
  5
D3B3
  8
1-後柱P
 10
20363.07281063066
 20
19721.40542142195
 30
0.0
 11
20363.07281063066
 21
19728.705421421939
 31
0.0
  0
ARC
  5
D3B4
  8
1-後柱P
 10
20393.072810630671
 20
19728.705421421939
 30
0.0
 40
30.0
 50
90.0
 51
180.0
  0
ARC
  5
D3B5
  8
1-後柱P
 10
20393.072810630671
 20
19728.705421421939
 30
0.0
 40
31.600000000000001
 50
90.0
 51
180.0
  0
LINE
  5
D3B6
  8
1-後柱P
 10
20361.47281063065
 20
19721.40542142195
 30
0.0
 11
20361.47281063065
 21
19728.705421421939
 31
0.0
  0
LINE
  5
D3B7
  8
1-後柱P
 10
20368.072810630671
 20
19714.805421421948
 30
0.0
 11
20379.47281063065
 21
19714.805421421948
 31
0.0
  0
ARC
  5
D3B8
  8
1-後柱P
 10
20368.072810630671
 20
19721.40542142195
 30
0.0
 40
6.599999999999997
 50
180.0
 51
270.0
  0
ARC
  5
D3B9
  8
1-後柱P
 10
20379.47281063065
 20
19709.805421421948
 30
0.0
 40
5.0
 50
0.000000000000007
 51
90.0
  0
LINE
  5
D3BA
  8
1-後柱P
 10
20368.072810630671
 20
19716.40542142195
 30
0.0
 11
20379.47281063065
 21
19716.40542142195
 31
0.0
  0
ARC
  5
D3BB
  8
1-後柱P
 10
20368.072810630671
 20
19721.40542142195
 30
0.0
 40
5.0
 50
180.0
 51
270.0
  0
LINE
  5
D3BC
  8
1-後柱P
 10
20384.47281063065
 20
19709.805421421948
 30
0.0
 11
20384.47281063065
 21
19650.40542142195
 31
0.0
  0
LINE
  5
D3BD
  8
1-後柱P
 10
20386.072810630649
 20
19709.805421421948
 30
0.0
 11
20386.072810630649
 21
19650.40542142195
 31
0.0
  0
ARC
  5
D3BE
  8
1-後柱P
 10
20379.47281063065
 20
19709.805421421948
 30
0.0
 40
6.599999999999997
 50
0.000000000000007
 51
90.0
  0
LINE
  5
D3BF
  8
1-後柱P
 10
20391.072810630671
 20
19643.805421421959
 30
0.0
 11
20424.47281063065
 21
19643.805421421959
 31
0.0
  0
ARC
  5
D3C0
  8
1-後柱P
 10
20391.072810630671
 20
19650.40542142195
 30
0.0
 40
6.599999999999997
 50
180.0
 51
270.0
  0
LINE
  5
D3C1
  8
1-後柱P
 10
20391.072810630671
 20
19645.40542142195
 30
0.0
 11
20424.47281063065
 21
19645.40542142195
 31
0.0
  0
ARC
  5
D3C2
  8
1-後柱P
 10
20391.072810630671
 20
19650.40542142195
 30
0.0
 40
5.0
 50
180.0
 51
270.0
  0
LINE
  5
D3C3
  8
1-後柱P
 10
20424.47281063065
 20
19645.40542142195
 30
0.0
 11
20424.47281063065
 21
19643.805421421959
 31
0.0
  0
LINE
  5
D3C4
  8
1-後柱P
 10
20439.87281063067
 20
19714.805421421948
 30
0.0
 11
20428.47281063065
 21
19714.805421421948
 31
0.0
  0
ARC
  5
D3C5
  8
1-後柱P
 10
20439.87281063067
 20
19721.40542142195
 30
0.0
 40
6.599999999999997
 50
270.0
 51
0.000000000000007
  0
ARC
  5
D3C6
  8
1-後柱P
 10
20428.47281063065
 20
19709.805421421948
 30
0.0
 40
5.0
 50
90.0
 51
180.0
  0
LINE
  5
D3C7
  8
1-後柱P
 10
20428.47281063065
 20
19716.40542142195
 30
0.0
 11
20439.87281063067
 21
19716.40542142195
 31
0.0
  0
ARC
  5
D3C8
  8
1-後柱P
 10
20428.47281063065
 20
19709.805421421948
 30
0.0
 40
6.599999999999997
 50
90.0
 51
180.0
  0
ARC
  5
D3C9
  8
1-後柱P
 10
20439.87281063067
 20
19721.40542142195
 30
0.0
 40
5.0
 50
270.0
 51
0.000000000000007
  0
LINE
  5
D3CA
  8
1-後柱P
 10
20423.472810630661
 20
19699.805421421959
 30
0.0
 11
20421.87281063067
 21
19699.805421421959
 31
0.0
  0
LINE
  5
D3CB
  8
1-後柱カバ-P
 10
20446.472810630661
 20
19708.105421421958
 30
0.0
 11
20446.472810630661
 21
19648.805421421948
 31
0.0
  0
ARC
  5
D3CC
  8
1-後柱カバ-P
 10
20439.87281063067
 20
19648.805421421948
 30
0.0
 40
6.599999999999997
 50
270.0
 51
0.000000000000007
  0
LINE
  5
D3CD
  8
1-後柱カバ-P
 10
20444.87281063067
 20
19708.105421421958
 30
0.0
 11
20444.87281063067
 21
19648.805421421948
 31
0.0
  0
ARC
  5
D3CE
  8
1-後柱カバ-P
 10
20439.87281063067
 20
19708.105421421958
 30
0.0
 40
5.0
 50
0.000000000000007
 51
90.0
  0
LINE
  5
D3CF
  8
1-後柱カバ-P
 10
20439.87281063067
 20
19642.20542142195
 30
0.0
 11
20368.072810630671
 21
19642.20542142195
 31
0.0
  0
ARC
  5
D3D0
  8
1-後柱カバ-P
 10
20368.072810630671
 20
19648.805421421948
 30
0.0
 40
6.599999999999997
 50
180.0
 51
270.0
  0
LINE
  5
D3D1
  8
1-後柱カバ-P
 10
20439.87281063067
 20
19643.805421421959
 30
0.0
 11
20368.072810630671
 21
19643.805421421959
 31
0.0
  0
ARC
  5
D3D2
  8
1-後柱カバ-P
 10
20368.072810630671
 20
19648.805421421948
 30
0.0
 40
5.0
 50
180.0
 51
270.0
  0
ARC
  5
D3D3
  8
1-後柱カバ-P
 10
20439.87281063067
 20
19648.805421421948
 30
0.0
 40
5.0
 50
270.0
 51
0.000000000000007
  0
LINE
  5
D3D4
  8
1-後柱カバ-P
 10
20361.47281063065
 20
19648.805421421948
 30
0.0
 11
20361.47281063065
 21
19708.105421421958
 31
0.0
  0
LINE
  5
D3D5
  8
1-後柱カバ-P
 10
20363.07281063066
 20
19648.805421421948
 30
0.0
 11
20363.07281063066
 21
19708.105421421958
 31
0.0
  0
ARC
  5
D3D6
  8
1-後柱カバ-P
 10
20368.072810630671
 20
19708.105421421958
 30
0.0
 40
5.0
 50
90.0
 51
180.0
  0
LINE
  5
D3D7
  8
1-後柱カバ-P
  6
1PL-M
 62
     6
 10
20403.97281063065
 20
19649.70542142195
 30
0.0
 11
20403.97281063065
 21
19636.70542142195
 31
0.0
  0
LINE
  5
D3D8
  8
1-後柱カバ-P
  6
HIDE-M
 62
     6
 10
20410.97281063065
 20
19642.20542142195
 30
0.0
 11
20410.97281063065
 21
19643.805421421959
 31
0.0
  0
LINE
  5
D3D9
  8
1-後柱カバ-P
  6
HIDE-M
 62
     6
 10
20396.972810630661
 20
19642.20542142195
 30
0.0
 11
20396.972810630661
 21
19643.805421421959
 31
0.0
  0
ARC
  5
D3DA
  8
1-後柱カバ-P
 10
20439.87281063067
 20
19708.105421421958
 30
0.0
 40
6.599999999999997
 50
0.000000000000007
 51
90.0
  0
ARC
  5
D3DB
  8
1-後柱カバ-P
 10
20368.072810630671
 20
19708.105421421958
 30
0.0
 40
6.599999999999997
 50
90.0
 51
180.0
  0
LINE
  5
D3DC
  8
1-後柱カバ-P
 10
20376.47281063065
 20
19714.70542142195
 30
0.0
 11
20368.072810630671
 21
19714.70542142195
 31
0.0
  0
LINE
  5
D3DD
  8
1-後柱カバ-P
 10
20431.47281063065
 20
19714.70542142195
 30
0.0
 11
20439.87281063067
 21
19714.70542142195
 31
0.0
  0
LINE
  5
D3DE
  8
1-後柱カバ-P
 10
20376.47281063065
 20
19713.105421421958
 30
0.0
 11
20368.072810630671
 21
19713.105421421958
 31
0.0
  0
LINE
  5
D3DF
  8
1-後柱カバ-P
 10
20431.47281063065
 20
19713.105421421958
 30
0.0
 11
20439.87281063067
 21
19713.105421421958
 31
0.0
  0
LINE
  5
D3E0
  8
1-後柱カバ-P
 10
20431.47281063065
 20
19713.105421421958
 30
0.0
 11
20431.47281063065
 21
19714.70542142195
 31
0.0
  0
LINE
  5
D3E1
  8
1-後柱カバ-P
 10
20376.47281063065
 20
19714.70542142195
 30
0.0
 11
20376.47281063065
 21
19713.105421421958
 31
0.0
  0
LINE
  5
D3E2
  8
1-後柱カバ-P
  6
HIDE-M
 62
     6
 10
20372.57281063066
 20
19693.705421421939
 30
0.0
 11
20360.97281063065
 21
19693.705421421939
 31
0.0
  0
LINE
  5
D3E3
  8
1-後柱カバ-P
  6
HIDE-M
 62
     6
 10
20372.57281063066
 20
19685.70542142195
 30
0.0
 11
20360.97281063065
 21
19685.70542142195
 31
0.0
  0
LINE
  5
D3E4
  8
1-後柱カバ-P
  6
HIDE-M
 62
     6
 10
20372.57281063066
 20
19692.705421421939
 30
0.0
 11
20360.97281063065
 21
19692.705421421939
 31
0.0
  0
LINE
  5
D3E5
  8
1-後柱カバ-P
  6
HIDE-M
 62
     6
 10
20372.57281063066
 20
19686.70542142195
 30
0.0
 11
20360.97281063065
 21
19686.70542142195
 31
0.0
  0
LINE
  5
D3E6
  8
1-後柱カバ-P
 10
20371.57281063066
 20
19684.20542142195
 30
0.0
 11
20364.572810630671
 21
19684.20542142195
 31
0.0
  0
LINE
  5
D3E7
  8
1-後柱カバ-P
 10
20364.572810630671
 20
19695.20542142195
 30
0.0
 11
20371.57281063066
 21
19695.20542142195
 31
0.0
  0
LINE
  5
D3E8
  8
1-後柱カバ-P
 10
20364.572810630671
 20
19695.95542142195
 30
0.0
 11
20364.572810630671
 21
19683.45542142195
 31
0.0
  0
LINE
  5
D3E9
  8
1-後柱カバ-P
 10
20360.97281063065
 20
19695.70542142195
 30
0.0
 11
20360.97281063065
 21
19683.70542142195
 31
0.0
  0
LINE
  5
D3EA
  8
1-後柱カバ-P
  6
HIDE-M
 62
     6
 10
20363.07281063066
 20
19684.20542142195
 30
0.0
 11
20361.47281063065
 21
19684.20542142195
 31
0.0
  0
LINE
  5
D3EB
  8
1-後柱カバ-P
 10
20360.97281063065
 20
19683.70542142195
 30
0.0
 11
20361.47281063065
 21
19684.20542142195
 31
0.0
  0
ARC
  5
D3EC
  8
1-後柱カバ-P
 10
20363.822810630649
 20
19683.45542142195
 30
0.0
 40
0.75
 50
180.0
 51
0.000000000000007
  0
LINE
  5
D3ED
  8
1-後柱カバ-P
  6
HIDE-M
 62
     6
 10
20361.47281063065
 20
19695.20542142195
 30
0.0
 11
20363.07281063066
 21
19695.20542142195
 31
0.0
  0
LINE
  5
D3EE
  8
1-後柱カバ-P
 10
20360.97281063065
 20
19695.70542142195
 30
0.0
 11
20361.47281063065
 21
19695.20542142195
 31
0.0
  0
ARC
  5
D3EF
  8
1-後柱カバ-P
 10
20363.822810630649
 20
19695.95542142195
 30
0.0
 40
0.75
 50
0.000000000000007
 51
180.0
  0
LINE
  5
D3F0
  8
1-後柱カバ-P
 10
20372.57281063066
 20
19694.20542142195
 30
0.0
 11
20372.57281063066
 21
19685.205421421939
 31
0.0
  0
ARC
  5
D3F1
  8
1-後柱カバ-P
 10
20371.57281063066
 20
19685.205421421939
 30
0.0
 40
1.0
 50
270.0
 51
0.000000000000007
  0
ARC
  5
D3F2
  8
1-後柱カバ-P
 10
20371.57281063066
 20
19694.20542142195
 30
0.0
 40
1.0
 50
0.000000000000007
 51
90.0
  0
LINE
  5
D3F3
  8
1-後柱カバ-P
  6
1PL-M
 62
     6
 10
20377.572810630671
 20
19689.705421421939
 30
0.0
 11
20355.97281063065
 21
19689.705421421939
 31
0.0
  0
LINE
  5
D3F4
  8
1-後柱カバ-P
 10
20371.57281063066
 20
19674.20542142195
 30
0.0
 11
20364.572810630671
 21
19674.20542142195
 31
0.0
  0
LINE
  5
D3F5
  8
1-後柱カバ-P
 10
20360.97281063065
 20
19681.70542142195
 30
0.0
 11
20360.97281063065
 21
19673.705421421939
 31
0.0
  0
LINE
  5
D3F6
  8
1-後柱カバ-P
  6
HIDE-M
 62
     6
 10
20363.07281063066
 20
19674.20542142195
 30
0.0
 11
20361.47281063065
 21
19674.20542142195
 31
0.0
  0
LINE
  5
D3F7
  8
1-後柱カバ-P
 10
20360.97281063065
 20
19673.705421421939
 30
0.0
 11
20361.47281063065
 21
19674.20542142195
 31
0.0
  0
ARC
  5
D3F8
  8
1-後柱カバ-P
 10
20363.822810630649
 20
19673.45542142195
 30
0.0
 40
0.75
 50
180.0
 51
0.000000000000007
  0
LINE
  5
D3F9
  8
1-後柱カバ-P
 10
20372.57281063066
 20
19683.205421421939
 30
0.0
 11
20372.57281063066
 21
19675.205421421939
 31
0.0
  0
ARC
  5
D3FA
  8
1-後柱カバ-P
 10
20371.57281063066
 20
19675.205421421939
 30
0.0
 40
1.0
 50
270.0
 51
0.000000000000007
  0
LINE
  5
D3FB
  8
1-後柱カバ-P
  6
1PL-M
 62
     6
 10
20377.572810630671
 20
19679.70542142195
 30
0.0
 11
20355.97281063065
 21
19679.70542142195
 31
0.0
  0
LINE
  5
D3FC
  8
1-後柱カバ-P
 10
20364.572810630671
 20
19681.45542142195
 30
0.0
 11
20364.572810630671
 21
19673.45542142195
 31
0.0
  0
LINE
  5
D3FD
  8
1-後柱カバ-P
  6
HIDE-M
 62
     6
 10
20435.37281063067
 20
19693.705421421939
 30
0.0
 11
20446.97281063065
 21
19693.705421421939
 31
0.0
  0
LINE
  5
D3FE
  8
1-後柱カバ-P
  6
HIDE-M
 62
     6
 10
20435.37281063067
 20
19685.70542142195
 30
0.0
 11
20446.97281063065
 21
19685.70542142195
 31
0.0
  0
LINE
  5
D3FF
  8
1-後柱カバ-P
  6
HIDE-M
 62
     6
 10
20435.37281063067
 20
19692.705421421939
 30
0.0
 11
20446.97281063065
 21
19692.705421421939
 31
0.0
  0
LINE
  5
D400
  8
1-後柱カバ-P
  6
HIDE-M
 62
     6
 10
20435.37281063067
 20
19686.70542142195
 30
0.0
 11
20446.97281063065
 21
19686.70542142195
 31
0.0
  0
LINE
  5
D401
  8
1-後柱カバ-P
 10
20436.372810630652
 20
19684.20542142195
 30
0.0
 11
20443.37281063067
 21
19684.20542142195
 31
0.0
  0
LINE
  5
D402
  8
1-後柱カバ-P
 10
20443.37281063067
 20
19695.20542142195
 30
0.0
 11
20436.372810630652
 21
19695.20542142195
 31
0.0
  0
LINE
  5
D403
  8
1-後柱カバ-P
 10
20443.37281063067
 20
19695.95542142195
 30
0.0
 11
20443.37281063067
 21
19683.45542142195
 31
0.0
  0
LINE
  5
D404
  8
1-後柱カバ-P
 10
20446.97281063065
 20
19695.70542142195
 30
0.0
 11
20446.97281063065
 21
19683.70542142195
 31
0.0
  0
LINE
  5
D405
  8
1-後柱カバ-P
  6
HIDE-M
 62
     6
 10
20444.87281063067
 20
19684.20542142195
 30
0.0
 11
20446.472810630661
 21
19684.20542142195
 31
0.0
  0
LINE
  5
D406
  8
1-後柱カバ-P
 10
20446.97281063065
 20
19683.70542142195
 30
0.0
 11
20446.472810630661
 21
19684.20542142195
 31
0.0
  0
ARC
  5
D407
  8
1-後柱カバ-P
 10
20444.122810630659
 20
19683.45542142195
 30
0.0
 40
0.75
 50
180.0
 51
0.000000000000007
  0
LINE
  5
D408
  8
1-後柱カバ-P
  6
HIDE-M
 62
     6
 10
20446.472810630661
 20
19695.20542142195
 30
0.0
 11
20444.87281063067
 21
19695.20542142195
 31
0.0
  0
LINE
  5
D409
  8
1-後柱カバ-P
 10
20446.97281063065
 20
19695.70542142195
 30
0.0
 11
20446.472810630661
 21
19695.20542142195
 31
0.0
  0
ARC
  5
D40A
  8
1-後柱カバ-P
 10
20444.122810630659
 20
19695.95542142195
 30
0.0
 40
0.75
 50
0.000000000000007
 51
180.0
  0
LINE
  5
D40B
  8
1-後柱カバ-P
 10
20435.37281063067
 20
19694.20542142195
 30
0.0
 11
20435.37281063067
 21
19685.205421421939
 31
0.0
  0
ARC
  5
D40C
  8
1-後柱カバ-P
 10
20436.372810630652
 20
19685.205421421939
 30
0.0
 40
1.0
 50
180.0
 51
270.0
  0
ARC
  5
D40D
  8
1-後柱カバ-P
 10
20436.372810630652
 20
19694.20542142195
 30
0.0
 40
1.0
 50
90.0
 51
180.0
  0
LINE
  5
D40E
  8
1-後柱カバ-P
  6
1PL-M
 62
     6
 10
20430.37281063067
 20
19689.705421421939
 30
0.0
 11
20451.97281063065
 21
19689.705421421939
 31
0.0
  0
LINE
  5
D40F
  8
1-後柱カバ-P
 10
20436.372810630652
 20
19674.20542142195
 30
0.0
 11
20443.37281063067
 21
19674.20542142195
 31
0.0
  0
LINE
  5
D410
  8
1-後柱カバ-P
 10
20446.97281063065
 20
19681.70542142195
 30
0.0
 11
20446.97281063065
 21
19673.705421421939
 31
0.0
  0
LINE
  5
D411
  8
1-後柱カバ-P
  6
HIDE-M
 62
     6
 10
20444.87281063067
 20
19674.20542142195
 30
0.0
 11
20446.472810630661
 21
19674.20542142195
 31
0.0
  0
LINE
  5
D412
  8
1-後柱カバ-P
 10
20446.97281063065
 20
19673.705421421939
 30
0.0
 11
20446.472810630661
 21
19674.20542142195
 31
0.0
  0
ARC
  5
D413
  8
1-後柱カバ-P
 10
20444.122810630659
 20
19673.45542142195
 30
0.0
 40
0.75
 50
180.0
 51
0.000000000000007
  0
LINE
  5
D414
  8
1-後柱カバ-P
 10
20435.37281063067
 20
19683.205421421939
 30
0.0
 11
20435.37281063067
 21
19675.205421421939
 31
0.0
  0
ARC
  5
D415
  8
1-後柱カバ-P
 10
20436.372810630652
 20
19675.205421421939
 30
0.0
 40
1.0
 50
180.0
 51
270.0
  0
LINE
  5
D416
  8
1-後柱カバ-P
  6
1PL-M
 62
     6
 10
20430.37281063067
 20
19679.70542142195
 30
0.0
 11
20451.97281063065
 21
19679.70542142195
 31
0.0
  0
LINE
  5
D417
  8
1-後柱カバ-P
 10
20443.37281063067
 20
19681.45542142195
 30
0.0
 11
20443.37281063067
 21
19673.45542142195
 31
0.0
  0
LINE
  5
D418
  8
1-後柱カバ-P
  6
HIDE-M
 62
     6
 10
20372.57281063066
 20
19675.705421421939
 30
0.0
 11
20360.97281063065
 21
19675.705421421939
 31
0.0
  0
LINE
  5
D419
  8
1-後柱カバ-P
  6
HIDE-M
 62
     6
 10
20372.57281063066
 20
19676.70542142195
 30
0.0
 11
20360.97281063065
 21
19676.70542142195
 31
0.0
  0
LINE
  5
D41A
  8
1-後柱カバ-P
  6
HIDE-M
 62
     6
 10
20435.37281063067
 20
19675.705421421939
 30
0.0
 11
20446.97281063065
 21
19675.705421421939
 31
0.0
  0
LINE
  5
D41B
  8
1-後柱カバ-P
  6
HIDE-M
 62
     6
 10
20435.37281063067
 20
19676.70542142195
 30
0.0
 11
20446.97281063065
 21
19676.70542142195
 31
0.0
  0
LINE
  5
D41C
  8
1-中柱P
 10
20368.072810630671
 20
16725.45542142195
 30
0.0
 11
20439.87281063067
 21
16725.45542142195
 31
0.0
  0
ARC
  5
D41D
  8
1-中柱P
 10
20368.072810630671
 20
16730.45542142195
 30
0.0
 40
5.0
 50
180.0
 51
270.0
  0
ARC
  5
D41E
  8
1-中柱P
 10
20439.87281063067
 20
16730.45542142195
 30
0.0
 40
5.0
 50
270.0
 51
0.000000000000007
  0
LINE
  5
D41F
  8
1-中柱P
 10
20368.072810630671
 20
16723.855421421958
 30
0.0
 11
20439.87281063067
 21
16723.855421421958
 31
0.0
  0
ARC
  5
D420
  8
1-中柱P
 10
20368.072810630671
 20
16730.45542142195
 30
0.0
 40
6.599999999999997
 50
180.0
 51
270.0
  0
LINE
  5
D421
  8
1-中柱P
 10
20446.472810630661
 20
16789.755421421949
 30
0.0
 11
20446.472810630661
 21
16730.45542142195
 31
0.0
  0
ARC
  5
D422
  8
1-中柱P
 10
20439.87281063067
 20
16730.45542142195
 30
0.0
 40
6.599999999999997
 50
270.0
 51
0.000000000000007
  0
LINE
  5
D423
  8
1-中柱P
 10
20444.87281063067
 20
16730.45542142195
 30
0.0
 11
20444.87281063067
 21
16789.755421421949
 31
0.0
  0
ARC
  5
D424
  8
1-中柱P
 10
20439.87281063067
 20
16789.755421421949
 30
0.0
 40
5.0
 50
0.000000000000007
 51
90.0
  0
LINE
  5
D425
  8
1-中柱P
 10
20361.472810630661
 20
16789.755421421949
 30
0.0
 11
20361.472810630661
 21
16730.45542142195
 31
0.0
  0
LINE
  5
D426
  8
1-中柱P
 10
20363.07281063066
 20
16730.45542142195
 30
0.0
 11
20363.07281063066
 21
16789.755421421949
 31
0.0
  0
LINE
  5
D427
  8
1-中柱P
 10
20368.072810630671
 20
16796.355421421958
 30
0.0
 11
20376.472810630661
 21
16796.355421421958
 31
0.0
  0
ARC
  5
D428
  8
1-中柱P
 10
20368.072810630671
 20
16789.755421421949
 30
0.0
 40
6.599999999999997
 50
90.0
 51
180.0
  0
LINE
  5
D429
  8
1-中柱P
 10
20368.072810630671
 20
16794.755421421949
 30
0.0
 11
20376.472810630661
 21
16794.755421421949
 31
0.0
  0
ARC
  5
D42A
  8
1-中柱P
 10
20376.472810630661
 20
16801.355421421951
 30
0.0
 40
6.599999999999997
 50
270.0
 51
0.000000000000007
  0
ARC
  5
D42B
  8
1-中柱P
 10
20368.072810630671
 20
16789.755421421949
 30
0.0
 40
5.0
 50
90.0
 51
180.0
  0
LINE
  5
D42C
  8
1-中柱P
 10
20381.472810630661
 20
16801.355421421951
 30
0.0
 11
20381.472810630661
 21
16860.755421421942
 31
0.0
  0
ARC
  5
D42D
  8
1-中柱P
 10
20376.472810630661
 20
16801.355421421951
 30
0.0
 40
5.0
 50
270.0
 51
0.000000000000007
  0
LINE
  5
D42E
  8
1-中柱P
 10
20383.07281063066
 20
16801.355421421951
 30
0.0
 11
20383.07281063066
 21
16860.755421421942
 31
0.0
  0
LINE
  5
D42F
  8
1-中柱P
 10
20388.072810630649
 20
16867.355421421951
 30
0.0
 11
20421.472810630661
 21
16867.355421421951
 31
0.0
  0
ARC
  5
D430
  8
1-中柱P
 10
20388.072810630649
 20
16860.755421421942
 30
0.0
 40
6.599999999999997
 50
90.0
 51
180.0
  0
LINE
  5
D431
  8
1-中柱P
 10
20388.072810630649
 20
16865.755421421949
 30
0.0
 11
20421.472810630661
 21
16865.755421421949
 31
0.0
  0
ARC
  5
D432
  8
1-中柱P
 10
20388.072810630649
 20
16860.755421421942
 30
0.0
 40
5.0
 50
90.0
 51
180.0
  0
LINE
  5
D433
  8
1-中柱P
 10
20421.472810630661
 20
16865.755421421949
 30
0.0
 11
20421.472810630661
 21
16867.355421421951
 31
0.0
  0
LINE
  5
D434
  8
1-中柱P
 10
20439.87281063067
 20
16796.355421421958
 30
0.0
 11
20431.472810630661
 21
16796.355421421958
 31
0.0
  0
ARC
  5
D435
  8
1-中柱P
 10
20439.87281063067
 20
16789.755421421949
 30
0.0
 40
6.599999999999997
 50
0.000000000000007
 51
90.0
  0
ARC
  5
D436
  8
1-中柱P
 10
20431.472810630661
 20
16801.355421421951
 30
0.0
 40
5.0
 50
180.0
 51
270.0
  0
LINE
  5
D437
  8
1-中柱P
 10
20431.472810630661
 20
16794.755421421949
 30
0.0
 11
20439.87281063067
 21
16794.755421421949
 31
0.0
  0
ARC
  5
D438
  8
1-中柱P
 10
20431.472810630661
 20
16801.355421421951
 30
0.0
 40
6.599999999999997
 50
180.0
 51
270.0
  0
ARC
  5
D439
  8
1-中柱P
  6
HIDE-M
 62
     6
 10
20397.37281063067
 20
16864.755421421949
 30
0.0
 40
2.6000000000000001
 50
0.000000000000007
 51
90.0
  0
LINE
  5
D43A
  8
1-中柱P
  6
HIDE-M
 62
     6
 10
20408.972810630661
 20
16866.804811575141
 30
0.0
 11
20408.972810630661
 21
16863.155421421961
 31
0.0
  0
LINE
  5
D43B
  8
1-中柱P
  6
HIDE-M
 62
     6
 10
20398.972810630661
 20
16866.804811575141
 30
0.0
 11
20398.972810630661
 21
16863.155421421961
 31
0.0
  0
LINE
  5
D43C
  8
1-中柱P
  6
1PL-M
 62
     6
 10
20403.972810630668
 20
16872.355421421951
 30
0.0
 11
20403.972810630668
 21
16858.155421421961
 31
0.0
  0
ARC
  5
D43D
  8
1-中柱P
  6
HIDE-M
 62
     6
 10
20410.57281063066
 20
16864.755421421949
 30
0.0
 40
2.6000000000000001
 50
90.0
 51
180.0
  0
LINE
  5
D43E
  8
1-中柱P
  6
HIDE-M
 62
     6
 10
20399.972810630668
 20
16864.755421421949
 30
0.0
 11
20399.972810630668
 21
16863.155421421961
 31
0.0
  0
LINE
  5
D43F
  8
1-中柱P
  6
HIDE-M
 62
     6
 10
20407.972810630668
 20
16864.755421421949
 30
0.0
 11
20407.972810630668
 21
16863.155421421961
 31
0.0
  0
LINE
  5
D440
  8
1-中柱P
 10
20424.872810630652
 20
16801.355421421951
 30
0.0
 11
20424.872810630652
 21
16811.355421421951
 31
0.0
  0
LINE
  5
D441
  8
1-中柱P
 10
20426.472810630668
 20
16801.355421421951
 30
0.0
 11
20426.472810630668
 21
16811.355421421951
 31
0.0
  0
LINE
  5
D442
  8
1-中柱P
 10
20424.872810630652
 20
16811.355421421951
 30
0.0
 11
20426.472810630668
 21
16811.355421421951
 31
0.0
  0
LINE
  5
D443
  8
1-中柱P
  6
1PL-M
 62
     6
 10
20376.472810630661
 20
16832.355421421951
 30
0.0
 11
20390.672810630669
 21
16832.355421421951
 31
0.0
  0
LINE
  5
D444
  8
1-中柱P
  6
HIDE-M
 62
     6
 10
20372.57281063066
 20
16775.355421421951
 30
0.0
 11
20360.972810630661
 21
16775.355421421951
 31
0.0
  0
LINE
  5
D445
  8
1-中柱P
  6
HIDE-M
 62
     6
 10
20372.57281063066
 20
16767.355421421951
 30
0.0
 11
20360.972810630661
 21
16767.355421421951
 31
0.0
  0
LINE
  5
D446
  8
1-中柱P
  6
HIDE-M
 62
     6
 10
20372.57281063066
 20
16774.355421421958
 30
0.0
 11
20360.972810630661
 21
16774.355421421958
 31
0.0
  0
LINE
  5
D447
  8
1-中柱P
  6
HIDE-M
 62
     6
 10
20372.57281063066
 20
16768.355421421951
 30
0.0
 11
20360.972810630661
 21
16768.355421421951
 31
0.0
  0
LINE
  5
D448
  8
1-中柱P
 10
20371.57281063066
 20
16765.855421421958
 30
0.0
 11
20364.572810630671
 21
16765.855421421958
 31
0.0
  0
LINE
  5
D449
  8
1-中柱P
 10
20364.572810630671
 20
16776.855421421951
 30
0.0
 11
20371.57281063066
 21
16776.855421421951
 31
0.0
  0
LINE
  5
D44A
  8
1-中柱P
 10
20364.572810630671
 20
16777.605421421951
 30
0.0
 11
20364.572810630671
 21
16765.105421421951
 31
0.0
  0
LINE
  5
D44B
  8
1-中柱P
 10
20360.972810630661
 20
16777.355421421958
 30
0.0
 11
20360.972810630661
 21
16765.355421421951
 31
0.0
  0
LINE
  5
D44C
  8
1-中柱P
  6
HIDE-M
 62
     6
 10
20363.07281063066
 20
16765.855421421958
 30
0.0
 11
20361.472810630661
 21
16765.855421421958
 31
0.0
  0
LINE
  5
D44D
  8
1-中柱P
 10
20360.972810630661
 20
16765.355421421951
 30
0.0
 11
20361.472810630661
 21
16765.855421421958
 31
0.0
  0
ARC
  5
D44E
  8
1-中柱P
 10
20363.822810630649
 20
16765.105421421951
 30
0.0
 40
0.75
 50
180.0
 51
0.000000000000007
  0
LINE
  5
D44F
  8
1-中柱P
  6
HIDE-M
 62
     6
 10
20361.472810630661
 20
16776.855421421951
 30
0.0
 11
20363.07281063066
 21
16776.855421421951
 31
0.0
  0
LINE
  5
D450
  8
1-中柱P
 10
20360.972810630661
 20
16777.355421421958
 30
0.0
 11
20361.472810630661
 21
16776.855421421951
 31
0.0
  0
ARC
  5
D451
  8
1-中柱P
 10
20363.822810630649
 20
16777.605421421951
 30
0.0
 40
0.75
 50
0.000000000000007
 51
180.0
  0
LINE
  5
D452
  8
1-中柱P
 10
20372.57281063066
 20
16775.855421421951
 30
0.0
 11
20372.57281063066
 21
16766.855421421958
 31
0.0
  0
ARC
  5
D453
  8
1-中柱P
 10
20371.57281063066
 20
16766.855421421958
 30
0.0
 40
1.0
 50
270.0
 51
0.000000000000007
  0
ARC
  5
D454
  8
1-中柱P
 10
20371.57281063066
 20
16775.855421421951
 30
0.0
 40
1.0
 50
0.000000000000007
 51
90.0
  0
LINE
  5
D455
  8
1-中柱P
  6
1PL-M
 62
     6
 10
20377.572810630671
 20
16771.355421421951
 30
0.0
 11
20355.972810630668
 21
16771.355421421951
 31
0.0
  0
LINE
  5
D456
  8
1-中柱P
 10
20371.57281063066
 20
16755.855421421951
 30
0.0
 11
20364.572810630671
 21
16755.855421421951
 31
0.0
  0
LINE
  5
D457
  8
1-中柱P
 10
20360.972810630661
 20
16763.355421421951
 30
0.0
 11
20360.972810630661
 21
16755.355421421958
 31
0.0
  0
LINE
  5
D458
  8
1-中柱P
  6
HIDE-M
 62
     6
 10
20363.07281063066
 20
16755.855421421951
 30
0.0
 11
20361.472810630661
 21
16755.855421421951
 31
0.0
  0
LINE
  5
D459
  8
1-中柱P
 10
20360.972810630661
 20
16755.355421421958
 30
0.0
 11
20361.472810630661
 21
16755.855421421951
 31
0.0
  0
ARC
  5
D45A
  8
1-中柱P
 10
20363.822810630649
 20
16755.105421421951
 30
0.0
 40
0.75
 50
180.0
 51
0.000000000000007
  0
LINE
  5
D45B
  8
1-中柱P
 10
20372.57281063066
 20
16764.855421421958
 30
0.0
 11
20372.57281063066
 21
16756.855421421951
 31
0.0
  0
ARC
  5
D45C
  8
1-中柱P
 10
20371.57281063066
 20
16756.855421421951
 30
0.0
 40
1.0
 50
270.0
 51
0.000000000000007
  0
LINE
  5
D45D
  8
1-中柱P
  6
1PL-M
 62
     6
 10
20377.572810630671
 20
16761.355421421951
 30
0.0
 11
20355.972810630668
 21
16761.355421421951
 31
0.0
  0
LINE
  5
D45E
  8
1-中柱P
 10
20364.572810630671
 20
16763.105421421951
 30
0.0
 11
20364.572810630671
 21
16755.105421421951
 31
0.0
  0
LINE
  5
D45F
  8
1-中柱P
  6
HIDE-M
 62
     6
 10
20372.57281063066
 20
16757.355421421951
 30
0.0
 11
20360.972810630661
 21
16757.355421421951
 31
0.0
  0
LINE
  5
D460
  8
1-中柱P
  6
HIDE-M
 62
     6
 10
20372.57281063066
 20
16758.355421421958
 30
0.0
 11
20360.972810630661
 21
16758.355421421958
 31
0.0
  0
LINE
  5
D461
  8
1-中柱P
  6
HIDE-M
 62
     6
 10
20435.37281063067
 20
16775.355421421951
 30
0.0
 11
20446.972810630661
 21
16775.355421421951
 31
0.0
  0
LINE
  5
D462
  8
1-中柱P
  6
HIDE-M
 62
     6
 10
20435.37281063067
 20
16767.355421421951
 30
0.0
 11
20446.972810630661
 21
16767.355421421951
 31
0.0
  0
LINE
  5
D463
  8
1-中柱P
  6
HIDE-M
 62
     6
 10
20435.37281063067
 20
16774.355421421958
 30
0.0
 11
20446.972810630661
 21
16774.355421421958
 31
0.0
  0
LINE
  5
D464
  8
1-中柱P
  6
HIDE-M
 62
     6
 10
20435.37281063067
 20
16768.355421421951
 30
0.0
 11
20446.972810630661
 21
16768.355421421951
 31
0.0
  0
LINE
  5
D465
  8
1-中柱P
 10
20436.372810630652
 20
16765.855421421958
 30
0.0
 11
20443.37281063067
 21
16765.855421421958
 31
0.0
  0
LINE
  5
D466
  8
1-中柱P
 10
20443.37281063067
 20
16776.855421421951
 30
0.0
 11
20436.372810630652
 21
16776.855421421951
 31
0.0
  0
LINE
  5
D467
  8
1-中柱P
 10
20443.37281063067
 20
16777.605421421951
 30
0.0
 11
20443.37281063067
 21
16765.105421421951
 31
0.0
  0
LINE
  5
D468
  8
1-中柱P
 10
20446.972810630661
 20
16777.355421421958
 30
0.0
 11
20446.972810630661
 21
16765.355421421951
 31
0.0
  0
LINE
  5
D469
  8
1-中柱P
  6
HIDE-M
 62
     6
 10
20444.87281063067
 20
16765.855421421958
 30
0.0
 11
20446.472810630661
 21
16765.855421421958
 31
0.0
  0
LINE
  5
D46A
  8
1-中柱P
 10
20446.972810630661
 20
16765.355421421951
 30
0.0
 11
20446.472810630661
 21
16765.855421421958
 31
0.0
  0
ARC
  5
D46B
  8
1-中柱P
 10
20444.122810630659
 20
16765.105421421951
 30
0.0
 40
0.75
 50
180.0
 51
0.000000000000007
  0
LINE
  5
D46C
  8
1-中柱P
  6
HIDE-M
 62
     6
 10
20446.472810630661
 20
16776.855421421951
 30
0.0
 11
20444.87281063067
 21
16776.855421421951
 31
0.0
  0
LINE
  5
D46D
  8
1-中柱P
 10
20446.972810630661
 20
16777.355421421958
 30
0.0
 11
20446.472810630661
 21
16776.855421421951
 31
0.0
  0
ARC
  5
D46E
  8
1-中柱P
 10
20444.122810630659
 20
16777.605421421951
 30
0.0
 40
0.75
 50
0.000000000000007
 51
180.0
  0
LINE
  5
D46F
  8
1-中柱P
 10
20435.37281063067
 20
16775.855421421951
 30
0.0
 11
20435.37281063067
 21
16766.855421421958
 31
0.0
  0
ARC
  5
D470
  8
1-中柱P
 10
20436.372810630652
 20
16766.855421421958
 30
0.0
 40
1.0
 50
180.0
 51
270.0
  0
ARC
  5
D471
  8
1-中柱P
 10
20436.372810630652
 20
16775.855421421951
 30
0.0
 40
1.0
 50
90.0
 51
180.0
  0
LINE
  5
D472
  8
1-中柱P
  6
1PL-M
 62
     6
 10
20430.37281063067
 20
16771.355421421951
 30
0.0
 11
20451.972810630661
 21
16771.355421421951
 31
0.0
  0
LINE
  5
D473
  8
1-中柱P
 10
20436.372810630652
 20
16755.855421421951
 30
0.0
 11
20443.37281063067
 21
16755.855421421951
 31
0.0
  0
LINE
  5
D474
  8
1-中柱P
 10
20446.972810630661
 20
16763.355421421951
 30
0.0
 11
20446.972810630661
 21
16755.355421421958
 31
0.0
  0
LINE
  5
D475
  8
1-中柱P
  6
HIDE-M
 62
     6
 10
20444.87281063067
 20
16755.855421421951
 30
0.0
 11
20446.472810630661
 21
16755.855421421951
 31
0.0
  0
LINE
  5
D476
  8
1-中柱P
 10
20446.972810630661
 20
16755.355421421958
 30
0.0
 11
20446.472810630661
 21
16755.855421421951
 31
0.0
  0
ARC
  5
D477
  8
1-中柱P
 10
20444.122810630659
 20
16755.105421421951
 30
0.0
 40
0.75
 50
180.0
 51
0.000000000000007
  0
LINE
  5
D478
  8
1-中柱P
 10
20435.37281063067
 20
16764.855421421958
 30
0.0
 11
20435.37281063067
 21
16756.855421421951
 31
0.0
  0
ARC
  5
D479
  8
1-中柱P
 10
20436.372810630652
 20
16756.855421421951
 30
0.0
 40
1.0
 50
180.0
 51
270.0
  0
LINE
  5
D47A
  8
1-中柱P
  6
1PL-M
 62
     6
 10
20430.37281063067
 20
16761.355421421951
 30
0.0
 11
20451.972810630661
 21
16761.355421421951
 31
0.0
  0
LINE
  5
D47B
  8
1-中柱P
 10
20443.37281063067
 20
16763.105421421951
 30
0.0
 11
20443.37281063067
 21
16755.105421421951
 31
0.0
  0
LINE
  5
D47C
  8
1-中柱P
  6
HIDE-M
 62
     6
 10
20435.37281063067
 20
16757.355421421951
 30
0.0
 11
20446.972810630661
 21
16757.355421421951
 31
0.0
  0
LINE
  5
D47D
  8
1-中柱P
  6
HIDE-M
 62
     6
 10
20435.37281063067
 20
16758.355421421958
 30
0.0
 11
20446.972810630661
 21
16758.355421421958
 31
0.0
  0
LINE
  5
D47E
  8
1-中柱カバ-P
 10
20446.472810630661
 20
16803.055421421948
 30
0.0
 11
20446.472810630661
 21
16862.355421421951
 31
0.0
  0
ARC
  5
D47F
  8
1-中柱カバ-P
 10
20439.87281063067
 20
16862.355421421951
 30
0.0
 40
6.599999999999997
 50
0.000000000000007
 51
90.0
  0
LINE
  5
D480
  8
1-中柱カバ-P
 10
20444.87281063067
 20
16803.055421421948
 30
0.0
 11
20444.87281063067
 21
16862.355421421951
 31
0.0
  0
ARC
  5
D481
  8
1-中柱カバ-P
 10
20439.87281063067
 20
16803.055421421948
 30
0.0
 40
5.0
 50
270.0
 51
0.000000000000007
  0
LINE
  5
D482
  8
1-中柱カバ-P
 10
20439.87281063067
 20
16868.955421421939
 30
0.0
 11
20368.072810630671
 21
16868.955421421939
 31
0.0
  0
ARC
  5
D483
  8
1-中柱カバ-P
 10
20368.072810630671
 20
16862.355421421951
 30
0.0
 40
6.599999999999997
 50
90.0
 51
180.0
  0
LINE
  5
D484
  8
1-中柱カバ-P
 10
20439.87281063067
 20
16867.355421421951
 30
0.0
 11
20368.072810630671
 21
16867.355421421951
 31
0.0
  0
ARC
  5
D485
  8
1-中柱カバ-P
 10
20368.072810630671
 20
16862.355421421951
 30
0.0
 40
5.0
 50
90.0
 51
180.0
  0
ARC
  5
D486
  8
1-中柱カバ-P
 10
20439.87281063067
 20
16862.355421421951
 30
0.0
 40
5.0
 50
0.000000000000007
 51
90.0
  0
LINE
  5
D487
  8
1-中柱カバ-P
 10
20361.472810630661
 20
16862.355421421951
 30
0.0
 11
20361.472810630661
 21
16803.055421421948
 31
0.0
  0
LINE
  5
D488
  8
1-中柱カバ-P
 10
20363.07281063066
 20
16862.355421421951
 30
0.0
 11
20363.07281063066
 21
16803.055421421948
 31
0.0
  0
ARC
  5
D489
  8
1-中柱カバ-P
 10
20368.072810630671
 20
16803.055421421948
 30
0.0
 40
5.0
 50
180.0
 51
270.0
  0
LINE
  5
D48A
  8
1-中柱カバ-P
  6
1PL-M
 62
     6
 10
20403.972810630668
 20
16861.45542142195
 30
0.0
 11
20403.972810630668
 21
16874.455421421939
 31
0.0
  0
LINE
  5
D48B
  8
1-中柱カバ-P
  6
HIDE-M
 62
     6
 10
20410.972810630661
 20
16868.955421421939
 30
0.0
 11
20410.972810630661
 21
16867.355421421951
 31
0.0
  0
LINE
  5
D48C
  8
1-中柱カバ-P
  6
HIDE-M
 62
     6
 10
20396.972810630661
 20
16868.955421421939
 30
0.0
 11
20396.972810630661
 21
16867.355421421951
 31
0.0
  0
ARC
  5
D48D
  8
1-中柱カバ-P
 10
20439.87281063067
 20
16803.055421421948
 30
0.0
 40
6.599999999999997
 50
270.0
 51
0.000000000000007
  0
ARC
  5
D48E
  8
1-中柱カバ-P
 10
20368.072810630671
 20
16803.055421421948
 30
0.0
 40
6.599999999999997
 50
180.0
 51
270.0
  0
LINE
  5
D48F
  8
1-中柱カバ-P
 10
20376.472810630661
 20
16796.455421421939
 30
0.0
 11
20368.072810630671
 21
16796.455421421939
 31
0.0
  0
LINE
  5
D490
  8
1-中柱カバ-P
 10
20431.472810630661
 20
16796.455421421939
 30
0.0
 11
20439.87281063067
 21
16796.455421421939
 31
0.0
  0
LINE
  5
D491
  8
1-中柱カバ-P
 10
20376.472810630661
 20
16798.055421421959
 30
0.0
 11
20368.072810630671
 21
16798.055421421959
 31
0.0
  0
LINE
  5
D492
  8
1-中柱カバ-P
 10
20431.472810630661
 20
16798.055421421959
 30
0.0
 11
20439.87281063067
 21
16798.055421421959
 31
0.0
  0
LINE
  5
D493
  8
1-中柱カバ-P
 10
20431.472810630661
 20
16798.055421421959
 30
0.0
 11
20431.472810630661
 21
16796.455421421939
 31
0.0
  0
LINE
  5
D494
  8
1-中柱カバ-P
 10
20376.472810630661
 20
16796.455421421939
 30
0.0
 11
20376.472810630661
 21
16798.055421421959
 31
0.0
  0
LINE
  5
D495
  8
1-中柱カバ-P
  6
HIDE-M
 62
     6
 10
20372.57281063066
 20
16817.455421421939
 30
0.0
 11
20360.972810630661
 21
16817.455421421939
 31
0.0
  0
LINE
  5
D496
  8
1-中柱カバ-P
  6
HIDE-M
 62
     6
 10
20372.57281063066
 20
16825.45542142195
 30
0.0
 11
20360.972810630661
 21
16825.45542142195
 31
0.0
  0
LINE
  5
D497
  8
1-中柱カバ-P
  6
HIDE-M
 62
     6
 10
20372.57281063066
 20
16818.455421421939
 30
0.0
 11
20360.972810630661
 21
16818.455421421939
 31
0.0
  0
LINE
  5
D498
  8
1-中柱カバ-P
  6
HIDE-M
 62
     6
 10
20372.57281063066
 20
16824.45542142195
 30
0.0
 11
20360.972810630661
 21
16824.45542142195
 31
0.0
  0
LINE
  5
D499
  8
1-中柱カバ-P
 10
20371.57281063066
 20
16826.955421421939
 30
0.0
 11
20364.572810630671
 21
16826.955421421939
 31
0.0
  0
LINE
  5
D49A
  8
1-中柱カバ-P
 10
20364.572810630671
 20
16815.95542142195
 30
0.0
 11
20371.57281063066
 21
16815.95542142195
 31
0.0
  0
LINE
  5
D49B
  8
1-中柱カバ-P
 10
20364.572810630671
 20
16815.20542142195
 30
0.0
 11
20364.572810630671
 21
16827.705421421939
 31
0.0
  0
LINE
  5
D49C
  8
1-中柱カバ-P
 10
20360.972810630661
 20
16815.455421421939
 30
0.0
 11
20360.972810630661
 21
16827.45542142195
 31
0.0
  0
LINE
  5
D49D
  8
1-中柱カバ-P
  6
HIDE-M
 62
     6
 10
20363.07281063066
 20
16826.955421421939
 30
0.0
 11
20361.472810630661
 21
16826.955421421939
 31
0.0
  0
LINE
  5
D49E
  8
1-中柱カバ-P
 10
20360.972810630661
 20
16827.45542142195
 30
0.0
 11
20361.472810630661
 21
16826.955421421939
 31
0.0
  0
ARC
  5
D49F
  8
1-中柱カバ-P
 10
20363.822810630649
 20
16827.705421421939
 30
0.0
 40
0.75
 50
0.000000000000007
 51
180.0
  0
LINE
  5
D4A0
  8
1-中柱カバ-P
  6
HIDE-M
 62
     6
 10
20361.472810630661
 20
16815.95542142195
 30
0.0
 11
20363.07281063066
 21
16815.95542142195
 31
0.0
  0
LINE
  5
D4A1
  8
1-中柱カバ-P
 10
20360.972810630661
 20
16815.455421421939
 30
0.0
 11
20361.472810630661
 21
16815.95542142195
 31
0.0
  0
ARC
  5
D4A2
  8
1-中柱カバ-P
 10
20363.822810630649
 20
16815.20542142195
 30
0.0
 40
0.75
 50
180.0
 51
0.000000000000007
  0
LINE
  5
D4A3
  8
1-中柱カバ-P
 10
20372.57281063066
 20
16816.95542142195
 30
0.0
 11
20372.57281063066
 21
16825.95542142195
 31
0.0
  0
ARC
  5
D4A4
  8
1-中柱カバ-P
 10
20371.57281063066
 20
16825.95542142195
 30
0.0
 40
1.0
 50
0.000000000000007
 51
90.0
  0
ARC
  5
D4A5
  8
1-中柱カバ-P
 10
20371.57281063066
 20
16816.95542142195
 30
0.0
 40
1.0
 50
270.0
 51
0.000000000000007
  0
LINE
  5
D4A6
  8
1-中柱カバ-P
  6
1PL-M
 62
     6
 10
20377.572810630671
 20
16821.45542142195
 30
0.0
 11
20355.972810630668
 21
16821.45542142195
 31
0.0
  0
LINE
  5
D4A7
  8
1-中柱カバ-P
 10
20371.57281063066
 20
16836.95542142195
 30
0.0
 11
20364.572810630671
 21
16836.95542142195
 31
0.0
  0
LINE
  5
D4A8
  8
1-中柱カバ-P
 10
20360.972810630661
 20
16829.45542142195
 30
0.0
 11
20360.972810630661
 21
16837.45542142195
 31
0.0
  0
LINE
  5
D4A9
  8
1-中柱カバ-P
  6
HIDE-M
 62
     6
 10
20363.07281063066
 20
16836.95542142195
 30
0.0
 11
20361.472810630661
 21
16836.95542142195
 31
0.0
  0
LINE
  5
D4AA
  8
1-中柱カバ-P
 10
20360.972810630661
 20
16837.45542142195
 30
0.0
 11
20361.472810630661
 21
16836.95542142195
 31
0.0
  0
ARC
  5
D4AB
  8
1-中柱カバ-P
 10
20363.822810630649
 20
16837.70542142195
 30
0.0
 40
0.75
 50
0.000000000000007
 51
180.0
  0
LINE
  5
D4AC
  8
1-中柱カバ-P
 10
20372.57281063066
 20
16827.955421421939
 30
0.0
 11
20372.57281063066
 21
16835.95542142195
 31
0.0
  0
ARC
  5
D4AD
  8
1-中柱カバ-P
 10
20371.57281063066
 20
16835.95542142195
 30
0.0
 40
1.0
 50
0.000000000000007
 51
90.0
  0
LINE
  5
D4AE
  8
1-中柱カバ-P
  6
1PL-M
 62
     6
 10
20377.572810630671
 20
16831.455421421939
 30
0.0
 11
20355.972810630668
 21
16831.455421421939
 31
0.0
  0
LINE
  5
D4AF
  8
1-中柱カバ-P
 10
20364.572810630671
 20
16829.70542142195
 30
0.0
 11
20364.572810630671
 21
16837.70542142195
 31
0.0
  0
LINE
  5
D4B0
  8
1-中柱カバ-P
  6
HIDE-M
 62
     6
 10
20435.37281063067
 20
16817.455421421939
 30
0.0
 11
20446.972810630661
 21
16817.455421421939
 31
0.0
  0
LINE
  5
D4B1
  8
1-中柱カバ-P
  6
HIDE-M
 62
     6
 10
20435.37281063067
 20
16825.45542142195
 30
0.0
 11
20446.972810630661
 21
16825.45542142195
 31
0.0
  0
LINE
  5
D4B2
  8
1-中柱カバ-P
  6
HIDE-M
 62
     6
 10
20435.37281063067
 20
16818.455421421939
 30
0.0
 11
20446.972810630661
 21
16818.455421421939
 31
0.0
  0
LINE
  5
D4B3
  8
1-中柱カバ-P
  6
HIDE-M
 62
     6
 10
20435.37281063067
 20
16824.45542142195
 30
0.0
 11
20446.972810630661
 21
16824.45542142195
 31
0.0
  0
LINE
  5
D4B4
  8
1-中柱カバ-P
 10
20436.372810630652
 20
16826.955421421939
 30
0.0
 11
20443.37281063067
 21
16826.955421421939
 31
0.0
  0
LINE
  5
D4B5
  8
1-中柱カバ-P
 10
20443.37281063067
 20
16815.95542142195
 30
0.0
 11
20436.372810630652
 21
16815.95542142195
 31
0.0
  0
LINE
  5
D4B6
  8
1-中柱カバ-P
 10
20443.37281063067
 20
16815.20542142195
 30
0.0
 11
20443.37281063067
 21
16827.705421421939
 31
0.0
  0
LINE
  5
D4B7
  8
1-中柱カバ-P
 10
20446.972810630661
 20
16815.455421421939
 30
0.0
 11
20446.972810630661
 21
16827.45542142195
 31
0.0
  0
LINE
  5
D4B8
  8
1-中柱カバ-P
  6
HIDE-M
 62
     6
 10
20444.87281063067
 20
16826.955421421939
 30
0.0
 11
20446.472810630661
 21
16826.955421421939
 31
0.0
  0
LINE
  5
D4B9
  8
1-中柱カバ-P
 10
20446.972810630661
 20
16827.45542142195
 30
0.0
 11
20446.472810630661
 21
16826.955421421939
 31
0.0
  0
ARC
  5
D4BA
  8
1-中柱カバ-P
 10
20444.122810630659
 20
16827.705421421939
 30
0.0
 40
0.75
 50
0.000000000000007
 51
180.0
  0
LINE
  5
D4BB
  8
1-中柱カバ-P
  6
HIDE-M
 62
     6
 10
20446.472810630661
 20
16815.95542142195
 30
0.0
 11
20444.87281063067
 21
16815.95542142195
 31
0.0
  0
LINE
  5
D4BC
  8
1-中柱カバ-P
 10
20446.972810630661
 20
16815.455421421939
 30
0.0
 11
20446.472810630661
 21
16815.95542142195
 31
0.0
  0
ARC
  5
D4BD
  8
1-中柱カバ-P
 10
20444.122810630659
 20
16815.20542142195
 30
0.0
 40
0.75
 50
180.0
 51
0.000000000000007
  0
LINE
  5
D4BE
  8
1-中柱カバ-P
 10
20435.37281063067
 20
16816.95542142195
 30
0.0
 11
20435.37281063067
 21
16825.95542142195
 31
0.0
  0
ARC
  5
D4BF
  8
1-中柱カバ-P
 10
20436.372810630652
 20
16825.95542142195
 30
0.0
 40
1.0
 50
90.0
 51
180.0
  0
ARC
  5
D4C0
  8
1-中柱カバ-P
 10
20436.372810630652
 20
16816.95542142195
 30
0.0
 40
1.0
 50
180.0
 51
270.0
  0
LINE
  5
D4C1
  8
1-中柱カバ-P
  6
1PL-M
 62
     6
 10
20430.37281063067
 20
16821.45542142195
 30
0.0
 11
20451.972810630661
 21
16821.45542142195
 31
0.0
  0
LINE
  5
D4C2
  8
1-中柱カバ-P
 10
20436.372810630652
 20
16836.95542142195
 30
0.0
 11
20443.37281063067
 21
16836.95542142195
 31
0.0
  0
LINE
  5
D4C3
  8
1-中柱カバ-P
 10
20446.972810630661
 20
16829.45542142195
 30
0.0
 11
20446.972810630661
 21
16837.45542142195
 31
0.0
  0
LINE
  5
D4C4
  8
1-中柱カバ-P
  6
HIDE-M
 62
     6
 10
20444.87281063067
 20
16836.95542142195
 30
0.0
 11
20446.472810630661
 21
16836.95542142195
 31
0.0
  0
LINE
  5
D4C5
  8
1-中柱カバ-P
 10
20446.972810630661
 20
16837.45542142195
 30
0.0
 11
20446.472810630661
 21
16836.95542142195
 31
0.0
  0
ARC
  5
D4C6
  8
1-中柱カバ-P
 10
20444.122810630659
 20
16837.70542142195
 30
0.0
 40
0.75
 50
0.000000000000007
 51
180.0
  0
LINE
  5
D4C7
  8
1-中柱カバ-P
 10
20435.37281063067
 20
16827.955421421939
 30
0.0
 11
20435.37281063067
 21
16835.95542142195
 31
0.0
  0
ARC
  5
D4C8
  8
1-中柱カバ-P
 10
20436.372810630652
 20
16835.95542142195
 30
0.0
 40
1.0
 50
90.0
 51
180.0
  0
LINE
  5
D4C9
  8
1-中柱カバ-P
  6
1PL-M
 62
     6
 10
20430.37281063067
 20
16831.455421421939
 30
0.0
 11
20451.972810630661
 21
16831.455421421939
 31
0.0
  0
LINE
  5
D4CA
  8
1-中柱カバ-P
 10
20443.37281063067
 20
16829.70542142195
 30
0.0
 11
20443.37281063067
 21
16837.70542142195
 31
0.0
  0
LINE
  5
D4CB
  8
1-中柱カバ-P
  6
HIDE-M
 62
     6
 10
20372.57281063066
 20
16835.455421421939
 30
0.0
 11
20360.972810630661
 21
16835.455421421939
 31
0.0
  0
LINE
  5
D4CC
  8
1-中柱カバ-P
  6
HIDE-M
 62
     6
 10
20372.57281063066
 20
16834.455421421939
 30
0.0
 11
20360.972810630661
 21
16834.455421421939
 31
0.0
  0
LINE
  5
D4CD
  8
1-中柱カバ-P
  6
HIDE-M
 62
     6
 10
20435.37281063067
 20
16835.455421421939
 30
0.0
 11
20446.972810630661
 21
16835.455421421939
 31
0.0
  0
LINE
  5
D4CE
  8
1-中柱カバ-P
  6
HIDE-M
 62
     6
 10
20435.37281063067
 20
16834.455421421939
 30
0.0
 11
20446.972810630661
 21
16834.455421421939
 31
0.0
  0
ARC
  5
D4CF
  8
1-前柱P
  6
HIDE-M
 62
     6
 10
20407.572810630671
 20
13946.85542142196
 30
0.0
 40
2.6000000000000001
 50
90.0
 51
180.0
  0
LINE
  5
D4D0
  8
1-前柱P
  6
HIDE-M
 62
     6
 10
20395.972810630668
 20
13948.904811575139
 30
0.0
 11
20395.972810630668
 21
13945.255421421951
 31
0.0
  0
LINE
  5
D4D1
  8
1-前柱P
  6
HIDE-M
 62
     6
 10
20405.972810630668
 20
13948.904811575139
 30
0.0
 11
20405.972810630668
 21
13945.255421421951
 31
0.0
  0
LINE
  5
D4D2
  8
1-前柱P
  6
1PL-M
 62
     6
 10
20400.97281063065
 20
13954.45542142195
 30
0.0
 11
20400.97281063065
 21
13940.255421421951
 31
0.0
  0
ARC
  5
D4D3
  8
1-前柱P
  6
HIDE-M
 62
     6
 10
20394.372810630652
 20
13946.85542142196
 30
0.0
 40
2.6000000000000001
 50
0.000000000000007
 51
90.0
  0
LINE
  5
D4D4
  8
1-前柱P
  6
HIDE-M
 62
     6
 10
20404.97281063065
 20
13946.85542142196
 30
0.0
 11
20404.97281063065
 21
13945.255421421951
 31
0.0
  0
LINE
  5
D4D5
  8
1-前柱P
  6
HIDE-M
 62
     6
 10
20396.972810630661
 20
13946.85542142196
 30
0.0
 11
20396.972810630661
 21
13945.255421421951
 31
0.0
  0
LINE
  5
D4D6
  8
1-前柱P
 10
20414.87281063067
 20
13834.555421421959
 30
0.0
 11
20393.072810630671
 21
13834.555421421959
 31
0.0
  0
LINE
  5
D4D7
  8
1-前柱P
 10
20363.07281063066
 20
13871.85542142196
 30
0.0
 11
20363.07281063066
 21
13864.555421421959
 31
0.0
  0
ARC
  5
D4D8
  8
1-前柱P
 10
20393.072810630671
 20
13864.555421421959
 30
0.0
 40
30.0
 50
180.0
 51
270.0
  0
ARC
  5
D4D9
  8
1-前柱P
 10
20393.072810630671
 20
13864.555421421959
 30
0.0
 40
31.600000000000001
 50
180.0
 51
270.0
  0
LINE
  5
D4DA
  8
1-前柱P
 10
20414.87281063067
 20
13832.95542142195
 30
0.0
 11
20393.072810630671
 21
13832.95542142195
 31
0.0
  0
LINE
  5
D4DB
  8
1-前柱P
 10
20361.472810630661
 20
13871.85542142196
 30
0.0
 11
20361.472810630661
 21
13864.555421421959
 31
0.0
  0
LINE
  5
D4DC
  8
1-前柱P
 10
20384.472810630661
 20
13893.45542142195
 30
0.0
 11
20384.472810630661
 21
13883.45542142195
 31
0.0
  0
LINE
  5
D4DD
  8
1-前柱P
 10
20386.072810630649
 20
13883.45542142195
 30
0.0
 11
20386.072810630649
 21
13893.45542142195
 31
0.0
  0
LINE
  5
D4DE
  8
1-前柱P
 10
20444.87281063067
 20
13871.85542142196
 30
0.0
 11
20444.87281063067
 21
13864.555421421959
 31
0.0
  0
ARC
  5
D4DF
  8
1-前柱P
 10
20414.87281063067
 20
13864.555421421959
 30
0.0
 40
30.0
 50
270.0
 51
0.000000000000007
  0
ARC
  5
D4E0
  8
1-前柱P
 10
20414.87281063067
 20
13864.555421421959
 30
0.0
 40
31.600000000000001
 50
270.0
 51
0.000000000000007
  0
LINE
  5
D4E1
  8
1-前柱P
 10
20446.472810630661
 20
13871.85542142196
 30
0.0
 11
20446.472810630661
 21
13864.555421421959
 31
0.0
  0
LINE
  5
D4E2
  8
1-前柱P
 10
20439.87281063067
 20
13878.45542142195
 30
0.0
 11
20428.472810630668
 21
13878.45542142195
 31
0.0
  0
ARC
  5
D4E3
  8
1-前柱P
 10
20439.87281063067
 20
13871.85542142196
 30
0.0
 40
6.599999999999997
 50
0.000000000000007
 51
90.0
  0
ARC
  5
D4E4
  8
1-前柱P
 10
20428.472810630668
 20
13883.45542142195
 30
0.0
 40
5.0
 50
180.0
 51
270.0
  0
LINE
  5
D4E5
  8
1-前柱P
 10
20439.87281063067
 20
13876.85542142196
 30
0.0
 11
20428.472810630668
 21
13876.85542142196
 31
0.0
  0
ARC
  5
D4E6
  8
1-前柱P
 10
20439.87281063067
 20
13871.85542142196
 30
0.0
 40
5.0
 50
0.000000000000007
 51
90.0
  0
LINE
  5
D4E7
  8
1-前柱P
 10
20423.472810630661
 20
13883.45542142195
 30
0.0
 11
20423.472810630661
 21
13942.85542142196
 31
0.0
  0
LINE
  5
D4E8
  8
1-前柱P
 10
20421.87281063067
 20
13883.45542142195
 30
0.0
 11
20421.87281063067
 21
13942.85542142196
 31
0.0
  0
ARC
  5
D4E9
  8
1-前柱P
 10
20428.472810630668
 20
13883.45542142195
 30
0.0
 40
6.599999999999997
 50
180.0
 51
270.0
  0
LINE
  5
D4EA
  8
1-前柱P
 10
20416.87281063067
 20
13949.45542142195
 30
0.0
 11
20383.472810630661
 21
13949.45542142195
 31
0.0
  0
ARC
  5
D4EB
  8
1-前柱P
 10
20416.87281063067
 20
13942.85542142196
 30
0.0
 40
6.599999999999997
 50
0.000000000000007
 51
90.0
  0
LINE
  5
D4EC
  8
1-前柱P
 10
20416.87281063067
 20
13947.85542142196
 30
0.0
 11
20383.472810630661
 21
13947.85542142196
 31
0.0
  0
ARC
  5
D4ED
  8
1-前柱P
 10
20416.87281063067
 20
13942.85542142196
 30
0.0
 40
5.0
 50
0.000000000000007
 51
90.0
  0
LINE
  5
D4EE
  8
1-前柱P
 10
20383.472810630661
 20
13947.85542142196
 30
0.0
 11
20383.472810630661
 21
13949.45542142195
 31
0.0
  0
LINE
  5
D4EF
  8
1-前柱P
 10
20368.072810630671
 20
13878.45542142195
 30
0.0
 11
20379.47281063065
 21
13878.45542142195
 31
0.0
  0
ARC
  5
D4F0
  8
1-前柱P
 10
20368.072810630671
 20
13871.85542142196
 30
0.0
 40
6.599999999999997
 50
90.0
 51
180.0
  0
ARC
  5
D4F1
  8
1-前柱P
 10
20379.47281063065
 20
13883.45542142195
 30
0.0
 40
5.0
 50
270.0
 51
0.000000000000007
  0
LINE
  5
D4F2
  8
1-前柱P
 10
20379.47281063065
 20
13876.85542142196
 30
0.0
 11
20368.072810630671
 21
13876.85542142196
 31
0.0
  0
ARC
  5
D4F3
  8
1-前柱P
 10
20379.47281063065
 20
13883.45542142195
 30
0.0
 40
6.599999999999997
 50
270.0
 51
0.000000000000007
  0
ARC
  5
D4F4
  8
1-前柱P
 10
20368.072810630671
 20
13871.85542142196
 30
0.0
 40
5.0
 50
90.0
 51
180.0
  0
LINE
  5
D4F5
  8
1-前柱P
 10
20384.472810630661
 20
13893.45542142195
 30
0.0
 11
20386.072810630649
 21
13893.45542142195
 31
0.0
  0
LINE
  5
D4F6
  8
1-前柱カバ-P
 10
20361.472810630661
 20
13885.15542142195
 30
0.0
 11
20361.472810630661
 21
13944.45542142195
 31
0.0
  0
ARC
  5
D4F7
  8
1-前柱カバ-P
 10
20368.072810630671
 20
13944.45542142195
 30
0.0
 40
6.599999999999997
 50
90.0
 51
180.0
  0
LINE
  5
D4F8
  8
1-前柱カバ-P
 10
20363.07281063066
 20
13885.15542142195
 30
0.0
 11
20363.07281063066
 21
13944.45542142195
 31
0.0
  0
ARC
  5
D4F9
  8
1-前柱カバ-P
 10
20368.072810630671
 20
13885.15542142195
 30
0.0
 40
5.0
 50
180.0
 51
270.0
  0
LINE
  5
D4FA
  8
1-前柱カバ-P
 10
20368.072810630671
 20
13951.055421421959
 30
0.0
 11
20439.87281063067
 21
13951.055421421959
 31
0.0
  0
ARC
  5
D4FB
  8
1-前柱カバ-P
 10
20439.87281063067
 20
13944.45542142195
 30
0.0
 40
6.599999999999997
 50
0.000000000000007
 51
90.0
  0
LINE
  5
D4FC
  8
1-前柱カバ-P
 10
20368.072810630671
 20
13949.45542142195
 30
0.0
 11
20439.87281063067
 21
13949.45542142195
 31
0.0
  0
ARC
  5
D4FD
  8
1-前柱カバ-P
 10
20439.87281063067
 20
13944.45542142195
 30
0.0
 40
5.0
 50
0.000000000000007
 51
90.0
  0
ARC
  5
D4FE
  8
1-前柱カバ-P
 10
20368.072810630671
 20
13944.45542142195
 30
0.0
 40
5.0
 50
90.0
 51
180.0
  0
LINE
  5
D4FF
  8
1-前柱カバ-P
 10
20446.472810630661
 20
13944.45542142195
 30
0.0
 11
20446.472810630661
 21
13885.15542142195
 31
0.0
  0
LINE
  5
D500
  8
1-前柱カバ-P
 10
20444.87281063067
 20
13944.45542142195
 30
0.0
 11
20444.87281063067
 21
13885.15542142195
 31
0.0
  0
ARC
  5
D501
  8
1-前柱カバ-P
 10
20439.87281063067
 20
13885.15542142195
 30
0.0
 40
5.0
 50
270.0
 51
0.000000000000007
  0
LINE
  5
D502
  8
1-前柱カバ-P
  6
1PL-M
 62
     6
 10
20403.972810630668
 20
13943.555421421959
 30
0.0
 11
20403.972810630668
 21
13956.555421421959
 31
0.0
  0
LINE
  5
D503
  8
1-前柱カバ-P
  6
HIDE-M
 62
     6
 10
20396.972810630661
 20
13951.055421421959
 30
0.0
 11
20396.972810630661
 21
13949.45542142195
 31
0.0
  0
LINE
  5
D504
  8
1-前柱カバ-P
  6
HIDE-M
 62
     6
 10
20410.972810630661
 20
13951.055421421959
 30
0.0
 11
20410.972810630661
 21
13949.45542142195
 31
0.0
  0
ARC
  5
D505
  8
1-前柱カバ-P
 10
20368.072810630671
 20
13885.15542142195
 30
0.0
 40
6.599999999999997
 50
180.0
 51
270.0
  0
ARC
  5
D506
  8
1-前柱カバ-P
 10
20439.87281063067
 20
13885.15542142195
 30
0.0
 40
6.599999999999997
 50
270.0
 51
0.000000000000007
  0
LINE
  5
D507
  8
1-前柱カバ-P
 10
20431.47281063065
 20
13878.555421421959
 30
0.0
 11
20439.87281063067
 21
13878.555421421959
 31
0.0
  0
LINE
  5
D508
  8
1-前柱カバ-P
 10
20376.47281063065
 20
13878.555421421959
 30
0.0
 11
20368.072810630671
 21
13878.555421421959
 31
0.0
  0
LINE
  5
D509
  8
1-前柱カバ-P
 10
20431.47281063065
 20
13880.15542142195
 30
0.0
 11
20439.87281063067
 21
13880.15542142195
 31
0.0
  0
LINE
  5
D50A
  8
1-前柱カバ-P
 10
20376.47281063065
 20
13880.15542142195
 30
0.0
 11
20368.072810630671
 21
13880.15542142195
 31
0.0
  0
LINE
  5
D50B
  8
1-前柱カバ-P
 10
20376.47281063065
 20
13880.15542142195
 30
0.0
 11
20376.47281063065
 21
13878.555421421959
 31
0.0
  0
LINE
  5
D50C
  8
1-前柱カバ-P
 10
20431.47281063065
 20
13878.555421421959
 30
0.0
 11
20431.47281063065
 21
13880.15542142195
 31
0.0
  0
LINE
  5
D50D
  8
1-前柱カバ-P
  6
HIDE-M
 62
     6
 10
20435.37281063067
 20
13899.555421421959
 30
0.0
 11
20446.97281063065
 21
13899.555421421959
 31
0.0
  0
LINE
  5
D50E
  8
1-前柱カバ-P
  6
HIDE-M
 62
     6
 10
20435.37281063067
 20
13907.555421421959
 30
0.0
 11
20446.97281063065
 21
13907.555421421959
 31
0.0
  0
LINE
  5
D50F
  8
1-前柱カバ-P
  6
HIDE-M
 62
     6
 10
20435.37281063067
 20
13900.555421421959
 30
0.0
 11
20446.97281063065
 21
13900.555421421959
 31
0.0
  0
LINE
  5
D510
  8
1-前柱カバ-P
  6
HIDE-M
 62
     6
 10
20435.37281063067
 20
13906.555421421959
 30
0.0
 11
20446.97281063065
 21
13906.555421421959
 31
0.0
  0
LINE
  5
D511
  8
1-前柱カバ-P
 10
20436.372810630652
 20
13909.055421421959
 30
0.0
 11
20443.37281063067
 21
13909.055421421959
 31
0.0
  0
LINE
  5
D512
  8
1-前柱カバ-P
 10
20443.37281063067
 20
13898.055421421959
 30
0.0
 11
20436.372810630652
 21
13898.055421421959
 31
0.0
  0
LINE
  5
D513
  8
1-前柱カバ-P
 10
20443.37281063067
 20
13897.305421421959
 30
0.0
 11
20443.37281063067
 21
13909.805421421959
 31
0.0
  0
LINE
  5
D514
  8
1-前柱カバ-P
 10
20446.97281063065
 20
13897.555421421959
 30
0.0
 11
20446.97281063065
 21
13909.555421421959
 31
0.0
  0
LINE
  5
D515
  8
1-前柱カバ-P
  6
HIDE-M
 62
     6
 10
20444.87281063067
 20
13909.055421421959
 30
0.0
 11
20446.472810630661
 21
13909.055421421959
 31
0.0
  0
LINE
  5
D516
  8
1-前柱カバ-P
 10
20446.97281063065
 20
13909.555421421959
 30
0.0
 11
20446.472810630661
 21
13909.055421421959
 31
0.0
  0
ARC
  5
D517
  8
1-前柱カバ-P
 10
20444.122810630659
 20
13909.805421421959
 30
0.0
 40
0.75
 50
0.000000000000007
 51
180.0
  0
LINE
  5
D518
  8
1-前柱カバ-P
  6
HIDE-M
 62
     6
 10
20446.472810630661
 20
13898.055421421959
 30
0.0
 11
20444.87281063067
 21
13898.055421421959
 31
0.0
  0
LINE
  5
D519
  8
1-前柱カバ-P
 10
20446.97281063065
 20
13897.555421421959
 30
0.0
 11
20446.472810630661
 21
13898.055421421959
 31
0.0
  0
ARC
  5
D51A
  8
1-前柱カバ-P
 10
20444.122810630659
 20
13897.305421421959
 30
0.0
 40
0.75
 50
180.0
 51
0.000000000000007
  0
LINE
  5
D51B
  8
1-前柱カバ-P
 10
20435.37281063067
 20
13899.055421421959
 30
0.0
 11
20435.37281063067
 21
13908.055421421959
 31
0.0
  0
ARC
  5
D51C
  8
1-前柱カバ-P
 10
20436.372810630652
 20
13908.055421421959
 30
0.0
 40
1.0
 50
90.0
 51
180.0
  0
ARC
  5
D51D
  8
1-前柱カバ-P
 10
20436.372810630652
 20
13899.055421421959
 30
0.0
 40
1.0
 50
180.0
 51
270.0
  0
LINE
  5
D51E
  8
1-前柱カバ-P
  6
1PL-M
 62
     6
 10
20430.37281063067
 20
13903.555421421959
 30
0.0
 11
20451.97281063065
 21
13903.555421421959
 31
0.0
  0
LINE
  5
D51F
  8
1-前柱カバ-P
 10
20436.372810630652
 20
13919.055421421959
 30
0.0
 11
20443.37281063067
 21
13919.055421421959
 31
0.0
  0
LINE
  5
D520
  8
1-前柱カバ-P
 10
20446.97281063065
 20
13911.555421421959
 30
0.0
 11
20446.97281063065
 21
13919.555421421959
 31
0.0
  0
LINE
  5
D521
  8
1-前柱カバ-P
  6
HIDE-M
 62
     6
 10
20444.87281063067
 20
13919.055421421959
 30
0.0
 11
20446.472810630661
 21
13919.055421421959
 31
0.0
  0
LINE
  5
D522
  8
1-前柱カバ-P
 10
20446.97281063065
 20
13919.555421421959
 30
0.0
 11
20446.472810630661
 21
13919.055421421959
 31
0.0
  0
ARC
  5
D523
  8
1-前柱カバ-P
 10
20444.122810630659
 20
13919.805421421959
 30
0.0
 40
0.75
 50
0.000000000000007
 51
180.0
  0
LINE
  5
D524
  8
1-前柱カバ-P
 10
20435.37281063067
 20
13910.055421421959
 30
0.0
 11
20435.37281063067
 21
13918.055421421959
 31
0.0
  0
ARC
  5
D525
  8
1-前柱カバ-P
 10
20436.372810630652
 20
13918.055421421959
 30
0.0
 40
1.0
 50
90.0
 51
180.0
  0
LINE
  5
D526
  8
1-前柱カバ-P
  6
1PL-M
 62
     6
 10
20430.37281063067
 20
13913.555421421959
 30
0.0
 11
20451.97281063065
 21
13913.555421421959
 31
0.0
  0
LINE
  5
D527
  8
1-前柱カバ-P
 10
20443.37281063067
 20
13911.805421421959
 30
0.0
 11
20443.37281063067
 21
13919.805421421959
 31
0.0
  0
LINE
  5
D528
  8
1-前柱カバ-P
  6
HIDE-M
 62
     6
 10
20372.57281063066
 20
13899.555421421959
 30
0.0
 11
20360.97281063065
 21
13899.555421421959
 31
0.0
  0
LINE
  5
D529
  8
1-前柱カバ-P
  6
HIDE-M
 62
     6
 10
20372.57281063066
 20
13907.555421421959
 30
0.0
 11
20360.97281063065
 21
13907.555421421959
 31
0.0
  0
LINE
  5
D52A
  8
1-前柱カバ-P
  6
HIDE-M
 62
     6
 10
20372.57281063066
 20
13900.555421421959
 30
0.0
 11
20360.97281063065
 21
13900.555421421959
 31
0.0
  0
LINE
  5
D52B
  8
1-前柱カバ-P
  6
HIDE-M
 62
     6
 10
20372.57281063066
 20
13906.555421421959
 30
0.0
 11
20360.97281063065
 21
13906.555421421959
 31
0.0
  0
LINE
  5
D52C
  8
1-前柱カバ-P
 10
20371.57281063066
 20
13909.055421421959
 30
0.0
 11
20364.572810630671
 21
13909.055421421959
 31
0.0
  0
LINE
  5
D52D
  8
1-前柱カバ-P
 10
20364.572810630671
 20
13898.055421421959
 30
0.0
 11
20371.57281063066
 21
13898.055421421959
 31
0.0
  0
LINE
  5
D52E
  8
1-前柱カバ-P
 10
20364.572810630671
 20
13897.305421421959
 30
0.0
 11
20364.572810630671
 21
13909.805421421959
 31
0.0
  0
LINE
  5
D52F
  8
1-前柱カバ-P
 10
20360.97281063065
 20
13897.555421421959
 30
0.0
 11
20360.97281063065
 21
13909.555421421959
 31
0.0
  0
LINE
  5
D530
  8
1-前柱カバ-P
  6
HIDE-M
 62
     6
 10
20363.07281063066
 20
13909.055421421959
 30
0.0
 11
20361.472810630661
 21
13909.055421421959
 31
0.0
  0
LINE
  5
D531
  8
1-前柱カバ-P
 10
20360.97281063065
 20
13909.555421421959
 30
0.0
 11
20361.472810630661
 21
13909.055421421959
 31
0.0
  0
ARC
  5
D532
  8
1-前柱カバ-P
 10
20363.822810630649
 20
13909.805421421959
 30
0.0
 40
0.75
 50
0.000000000000007
 51
180.0
  0
LINE
  5
D533
  8
1-前柱カバ-P
  6
HIDE-M
 62
     6
 10
20361.472810630661
 20
13898.055421421959
 30
0.0
 11
20363.07281063066
 21
13898.055421421959
 31
0.0
  0
LINE
  5
D534
  8
1-前柱カバ-P
 10
20360.97281063065
 20
13897.555421421959
 30
0.0
 11
20361.472810630661
 21
13898.055421421959
 31
0.0
  0
ARC
  5
D535
  8
1-前柱カバ-P
 10
20363.822810630649
 20
13897.305421421959
 30
0.0
 40
0.75
 50
180.0
 51
0.000000000000007
  0
LINE
  5
D536
  8
1-前柱カバ-P
 10
20372.57281063066
 20
13899.055421421959
 30
0.0
 11
20372.57281063066
 21
13908.055421421959
 31
0.0
  0
ARC
  5
D537
  8
1-前柱カバ-P
 10
20371.57281063066
 20
13908.055421421959
 30
0.0
 40
1.0
 50
0.000000000000007
 51
90.0
  0
ARC
  5
D538
  8
1-前柱カバ-P
 10
20371.57281063066
 20
13899.055421421959
 30
0.0
 40
1.0
 50
270.0
 51
0.000000000000007
  0
LINE
  5
D539
  8
1-前柱カバ-P
  6
1PL-M
 62
     6
 10
20377.572810630671
 20
13903.555421421959
 30
0.0
 11
20355.972810630668
 21
13903.555421421959
 31
0.0
  0
LINE
  5
D53A
  8
1-前柱カバ-P
 10
20371.57281063066
 20
13919.055421421959
 30
0.0
 11
20364.572810630671
 21
13919.055421421959
 31
0.0
  0
LINE
  5
D53B
  8
1-前柱カバ-P
 10
20360.97281063065
 20
13911.555421421959
 30
0.0
 11
20360.97281063065
 21
13919.555421421959
 31
0.0
  0
LINE
  5
D53C
  8
1-前柱カバ-P
  6
HIDE-M
 62
     6
 10
20363.07281063066
 20
13919.055421421959
 30
0.0
 11
20361.472810630661
 21
13919.055421421959
 31
0.0
  0
LINE
  5
D53D
  8
1-前柱カバ-P
 10
20360.97281063065
 20
13919.555421421959
 30
0.0
 11
20361.472810630661
 21
13919.055421421959
 31
0.0
  0
ARC
  5
D53E
  8
1-前柱カバ-P
 10
20363.822810630649
 20
13919.805421421959
 30
0.0
 40
0.75
 50
0.000000000000007
 51
180.0
  0
LINE
  5
D53F
  8
1-前柱カバ-P
 10
20372.57281063066
 20
13910.055421421959
 30
0.0
 11
20372.57281063066
 21
13918.055421421959
 31
0.0
  0
ARC
  5
D540
  8
1-前柱カバ-P
 10
20371.57281063066
 20
13918.055421421959
 30
0.0
 40
1.0
 50
0.000000000000007
 51
90.0
  0
LINE
  5
D541
  8
1-前柱カバ-P
  6
1PL-M
 62
     6
 10
20377.572810630671
 20
13913.555421421959
 30
0.0
 11
20355.972810630668
 21
13913.555421421959
 31
0.0
  0
LINE
  5
D542
  8
1-前柱カバ-P
 10
20364.572810630671
 20
13911.805421421959
 30
0.0
 11
20364.572810630671
 21
13919.805421421959
 31
0.0
  0
LINE
  5
D543
  8
1-前柱カバ-P
  6
HIDE-M
 62
     6
 10
20435.37281063067
 20
13917.555421421959
 30
0.0
 11
20446.97281063065
 21
13917.555421421959
 31
0.0
  0
LINE
  5
D544
  8
1-前柱カバ-P
  6
HIDE-M
 62
     6
 10
20435.37281063067
 20
13916.555421421959
 30
0.0
 11
20446.97281063065
 21
13916.555421421959
 31
0.0
  0
LINE
  5
D545
  8
1-前柱カバ-P
  6
HIDE-M
 62
     6
 10
20372.57281063066
 20
13917.555421421959
 30
0.0
 11
20360.97281063065
 21
13917.555421421959
 31
0.0
  0
LINE
  5
D546
  8
1-前柱カバ-P
  6
HIDE-M
 62
     6
 10
20372.57281063066
 20
13916.555421421959
 30
0.0
 11
20360.97281063065
 21
13916.555421421959
 31
0.0
  0
LINE
  5
D549
  8
0-1
  6
CONTINUOUS
 62
     3
 10
25728.976505630679
 20
8178.6575434219612
 30
0.0
 11
23246.473074630681
 21
8178.6575434219612
 31
0.0
  0
LINE
  5
D54A
  8
0-1
  6
CONTINUOUS
 62
     3
 10
25728.976505630679
 20
8372.1579124219625
 30
0.0
 11
23246.473074630681
 21
8372.1579124219625
 31
0.0
  0
LINE
  5
D54B
  8
0-1
  6
CONTINUOUS
 62
     3
 10
25856.97281063069
 20
8309.9718314219554
 30
0.0
 11
25856.97281063069
 21
8635.6575694219555
 31
0.0
  0
LINE
  5
D54C
  8
0-1
  6
CONTINUOUS
 62
     3
 10
23161.474525630689
 20
8505.657635421956
 30
0.0
 11
25856.97281063069
 21
8505.657635421956
 31
0.0
  0
LINE
  5
D54D
  8
0-1
  6
CONTINUOUS
 62
     3
 10
25856.97281063069
 20
8635.6575694219555
 30
0.0
 11
23181.471622630681
 21
8635.6575694219555
 31
0.0
  0
LINE
  5
D54E
  8
0-1
  6
CONTINUOUS
 62
     3
 10
13175.88937040959
 20
6337.157708421958
 30
0.0
 11
13175.88937040959
 21
8198.2035874219546
 31
0.0
  0
LINE
  5
D54F
  8
0-1
  6
CONTINUOUS
 62
     3
 10
13155.8883144096
 20
6337.157708421958
 30
0.0
 11
13155.8883144096
 21
8198.2035874219546
 31
0.0
  0
LINE
  5
D550
  8
0-1
  6
CONTINUOUS
 62
     3
 10
13225.88904040958
 20
6337.157708421958
 30
0.0
 11
13225.88904040958
 21
8198.2035874219546
 31
0.0
  0
LINE
  5
D551
  8
0-1
  6
CONTINUOUS
 62
     3
 10
13105.88963440957
 20
6337.157708421958
 30
0.0
 11
13105.88963440957
 21
8198.2035874219546
 31
0.0
  0
LINE
  5
D552
  8
0-1
  6
CONTINUOUS
 62
     3
 10
12972.8887504096
 20
6337.157708421958
 30
0.0
 11
12972.8887504096
 21
8198.2035874219546
 31
0.0
  0
LINE
  5
D553
  8
0-1
  6
CONTINUOUS
 62
     3
 10
12957.888948409571
 20
6337.157708421958
 30
0.0
 11
12957.888948409571
 21
8198.2035874219546
 31
0.0
  0
LINE
  5
D554
  8
0-1
  6
CONTINUOUS
 62
     3
 10
13358.888935409581
 20
6337.157708421958
 30
0.0
 11
13358.888935409581
 21
8198.2035874219546
 31
0.0
  0
LINE
  5
D555
  8
0-1
  6
CONTINUOUS
 62
     3
 10
13373.88873740959
 20
6337.157708421958
 30
0.0
 11
13373.88873740959
 21
8198.2035874219546
 31
0.0
  0
LINE
  5
D556
  8
0-1
  6
CONTINUOUS
 62
     3
 10
12097.389251409581
 20
8198.2035874219546
 30
0.0
 11
12097.389251409581
 21
6337.157708421958
 31
0.0
  0
LINE
  5
D557
  8
0-1
  6
CONTINUOUS
 62
     3
 10
12134.387443409591
 20
8198.2035874219546
 30
0.0
 11
12134.387443409591
 21
6337.157708421958
 31
0.0
  0
LINE
  5
D558
  8
0-1
  6
CONTINUOUS
 62
     3
 10
12797.38859240959
 20
8198.2035874219546
 30
0.0
 11
12797.38859240959
 21
6337.157708421958
 31
0.0
  0
LINE
  5
D559
  8
0-1
  6
CONTINUOUS
 62
     3
 10
12834.38876340959
 20
8198.2035874219546
 30
0.0
 11
12834.38876340959
 21
6337.157708421958
 31
0.0
  0
LINE
  5
D55A
  8
0-1
  6
CONTINUOUS
 62
     3
 10
11397.3899114096
 20
8198.2035874219546
 30
0.0
 11
11397.3899114096
 21
6337.157708421958
 31
0.0
  0
LINE
  5
D55B
  8
0-1
  6
CONTINUOUS
 62
     3
 10
11434.388103409599
 20
8198.2035874219546
 30
0.0
 11
11434.388103409599
 21
6337.157708421958
 31
0.0
  0
LINE
  5
D55C
  8
0-1
  6
CONTINUOUS
 62
     3
 10
11775.8897004096
 20
6337.157708421958
 30
0.0
 11
11775.8897004096
 21
8198.2035874219546
 31
0.0
  0
LINE
  5
D55D
  8
0-1
  6
CONTINUOUS
 62
     3
 10
11755.888644409581
 20
6337.157708421958
 30
0.0
 11
11755.888644409581
 21
8198.2035874219546
 31
0.0
  0
LINE
  5
D55E
  8
0-1
  6
CONTINUOUS
 62
     3
 10
11825.88838040958
 20
6337.157708421958
 30
0.0
 11
11825.88838040958
 21
8198.2035874219546
 31
0.0
  0
LINE
  5
D55F
  8
0-1
  6
CONTINUOUS
 62
     3
 10
11705.88897440959
 20
6337.157708421958
 30
0.0
 11
11705.88897440959
 21
8198.2035874219546
 31
0.0
  0
LINE
  5
D560
  8
0-1
  6
CONTINUOUS
 62
     3
 10
11572.88908040959
 20
6337.157708421958
 30
0.0
 11
11572.88908040959
 21
8198.2035874219546
 31
0.0
  0
LINE
  5
D561
  8
0-1
  6
CONTINUOUS
 62
     3
 10
11557.889278409581
 20
6337.157708421958
 30
0.0
 11
11557.889278409581
 21
8198.2035874219546
 31
0.0
  0
LINE
  5
D562
  8
0-1
  6
CONTINUOUS
 62
     3
 10
11958.8892654096
 20
6337.157708421958
 30
0.0
 11
11958.8892654096
 21
8198.2035874219546
 31
0.0
  0
LINE
  5
D563
  8
0-1
  6
CONTINUOUS
 62
     3
 10
11973.888077409591
 20
6337.157708421958
 30
0.0
 11
11973.888077409591
 21
8198.2035874219546
 31
0.0
  0
LINE
  5
D564
  8
0-1
  6
CONTINUOUS
 62
     3
 10
12673.889397409581
 20
6337.157708421958
 30
0.0
 11
12673.889397409581
 21
8198.2035874219546
 31
0.0
  0
LINE
  5
D565
  8
0-1
  6
CONTINUOUS
 62
     3
 10
12658.8886054096
 20
6337.157708421958
 30
0.0
 11
12658.8886054096
 21
8198.2035874219546
 31
0.0
  0
LINE
  5
D566
  8
0-1
  6
CONTINUOUS
 62
     3
 10
12257.88861840959
 20
6337.157708421958
 30
0.0
 11
12257.88861840959
 21
8198.2035874219546
 31
0.0
  0
LINE
  5
D567
  8
0-1
  6
CONTINUOUS
 62
     3
 10
12272.889410409591
 20
6337.157708421958
 30
0.0
 11
12272.889410409591
 21
8198.2035874219546
 31
0.0
  0
LINE
  5
D568
  8
0-1
  6
CONTINUOUS
 62
     3
 10
12405.8883144096
 20
6337.157708421958
 30
0.0
 11
12405.8883144096
 21
8198.2035874219546
 31
0.0
  0
LINE
  5
D569
  8
0-1
  6
CONTINUOUS
 62
     3
 10
12525.889700409591
 20
6337.157708421958
 30
0.0
 11
12525.889700409591
 21
8198.2035874219546
 31
0.0
  0
LINE
  5
D56A
  8
0-1
  6
CONTINUOUS
 62
     3
 10
12455.886995409581
 20
6337.157708421958
 30
0.0
 11
12455.886995409581
 21
8198.2035874219546
 31
0.0
  0
LINE
  5
D56B
  8
0-1
  6
CONTINUOUS
 62
     3
 10
12475.88805040958
 20
6337.157708421958
 30
0.0
 11
12475.88805040958
 21
8198.2035874219546
 31
0.0
  0
LINE
  5
D56C
  8
0-1
  6
CONTINUOUS
 62
     3
 10
11273.889726409599
 20
6337.157708421958
 30
0.0
 11
11273.889726409599
 21
8198.2035874219546
 31
0.0
  0
LINE
  5
D56D
  8
0-1
  6
CONTINUOUS
 62
     3
 10
11258.88893540959
 20
6337.157708421958
 30
0.0
 11
11258.88893540959
 21
8198.2035874219546
 31
0.0
  0
LINE
  5
D56E
  8
0-1
  6
CONTINUOUS
 62
     3
 10
11125.88805040958
 20
6337.157708421958
 30
0.0
 11
11125.88805040958
 21
8198.2035874219546
 31
0.0
  0
LINE
  5
D56F
  8
0-1
  6
CONTINUOUS
 62
     3
 10
10857.888948409571
 20
6337.157708421958
 30
0.0
 11
10857.888948409571
 21
8198.2035874219546
 31
0.0
  0
LINE
  5
D570
  8
0-1
  6
CONTINUOUS
 62
     3
 10
10872.887760409591
 20
6337.157708421958
 30
0.0
 11
10872.887760409591
 21
8198.2035874219546
 31
0.0
  0
LINE
  5
D571
  8
0-1
  6
CONTINUOUS
 62
     3
 10
11005.88864440959
 20
6337.157708421958
 30
0.0
 11
11005.88864440959
 21
8198.2035874219546
 31
0.0
  0
LINE
  5
D572
  8
0-1
  6
CONTINUOUS
 62
     3
 10
11055.8883144096
 20
6337.157708421958
 30
0.0
 11
11055.8883144096
 21
8198.2035874219546
 31
0.0
  0
LINE
  5
D573
  8
0-1
  6
CONTINUOUS
 62
     3
 10
11075.88739140958
 20
6337.157708421958
 30
0.0
 11
11075.88739140958
 21
8198.2035874219546
 31
0.0
  0
LINE
  5
D574
  8
0-1
  6
CONTINUOUS
 62
     3
 10
10247.888420409579
 20
6337.157708421958
 30
0.0
 11
10247.888420409579
 21
8198.2035874219546
 31
0.0
  0
LINE
  5
D575
  8
0-1
  6
CONTINUOUS
 62
     3
 10
10267.88749640959
 20
6337.157708421958
 30
0.0
 11
10267.88749640959
 21
8198.2035874219546
 31
0.0
  0
LINE
  5
D576
  8
0-1
  6
CONTINUOUS
 62
     3
 10
10197.8877604096
 20
6337.157708421958
 30
0.0
 11
10197.8877604096
 21
8198.2035874219546
 31
0.0
  0
LINE
  5
D577
  8
0-1
  6
CONTINUOUS
 62
     3
 10
10317.88815640959
 20
6337.157708421958
 30
0.0
 11
10317.88815640959
 21
8198.2035874219546
 31
0.0
  0
LINE
  5
D578
  8
0-1
  6
CONTINUOUS
 62
     3
 10
10450.888050409591
 20
6337.157708421958
 30
0.0
 11
10450.888050409591
 21
8198.2035874219546
 31
0.0
  0
LINE
  5
D579
  8
0-1
  6
CONTINUOUS
 62
     3
 10
10465.889832409601
 20
6337.157708421958
 30
0.0
 11
10465.889832409601
 21
8198.2035874219546
 31
0.0
  0
LINE
  5
D57A
  8
0-1
  6
CONTINUOUS
 62
     3
 10
10064.88786640959
 20
6337.157708421958
 30
0.0
 11
10064.88786640959
 21
8198.2035874219546
 31
0.0
  0
LINE
  5
D57B
  8
0-1
  6
CONTINUOUS
 62
     3
 10
10049.889053409581
 20
6337.157708421958
 30
0.0
 11
10049.889053409581
 21
8198.2035874219546
 31
0.0
  0
LINE
  5
D57C
  8
0-1
  6
CONTINUOUS
 62
     3
 10
8365.8888424096058
 20
6337.157708421958
 30
0.0
 11
8365.8888424096058
 21
8198.2035874219546
 31
0.0
  0
LINE
  5
D57D
  8
0-1
  6
CONTINUOUS
 62
     3
 10
8350.8890404095891
 20
6337.157708421958
 30
0.0
 11
8350.8890404095891
 21
8198.2035874219546
 31
0.0
  0
LINE
  5
D57E
  8
0-1
  6
CONTINUOUS
 62
     3
 10
8217.8881564095936
 20
6337.157708421958
 30
0.0
 11
8217.8881564095936
 21
8198.2035874219546
 31
0.0
  0
LINE
  5
D57F
  8
0-1
  6
CONTINUOUS
 62
     3
 10
8097.888750409591
 20
6337.157708421958
 30
0.0
 11
8097.888750409591
 21
8198.2035874219546
 31
0.0
  0
LINE
  5
D580
  8
0-1
  6
CONTINUOUS
 62
     3
 10
8167.8874964095894
 20
6337.157708421958
 30
0.0
 11
8167.8874964095894
 21
8198.2035874219546
 31
0.0
  0
LINE
  5
D581
  8
0-1
  6
CONTINUOUS
 62
     3
 10
8147.888420409593
 20
6337.157708421958
 30
0.0
 11
8147.888420409593
 21
8198.2035874219546
 31
0.0
  0
LINE
  5
D582
  8
0-1
  6
CONTINUOUS
 62
     3
 10
8847.8877604095906
 20
6337.157708421958
 30
0.0
 11
8847.8877604095906
 21
8198.2035874219546
 31
0.0
  0
LINE
  5
D583
  8
0-1
  6
CONTINUOUS
 62
     3
 10
8867.8888164095843
 20
6337.157708421958
 30
0.0
 11
8867.8888164095843
 21
8198.2035874219546
 31
0.0
  0
LINE
  5
D584
  8
0-1
  6
CONTINUOUS
 62
     3
 10
8797.8890804095863
 20
6337.157708421958
 30
0.0
 11
8797.8890804095863
 21
8198.2035874219546
 31
0.0
  0
LINE
  5
D585
  8
0-1
  6
CONTINUOUS
 62
     3
 10
8917.8874964095867
 20
6337.157708421958
 30
0.0
 11
8917.8874964095867
 21
8198.2035874219546
 31
0.0
  0
LINE
  5
D586
  8
0-1
  6
CONTINUOUS
 62
     3
 10
9050.8883804095858
 20
6337.157708421958
 30
0.0
 11
9050.8883804095858
 21
8198.2035874219546
 31
0.0
  0
LINE
  5
D587
  8
0-1
  6
CONTINUOUS
 62
     3
 10
9065.8881824096043
 20
6337.157708421958
 30
0.0
 11
9065.8881824096043
 21
8198.2035874219546
 31
0.0
  0
LINE
  5
D588
  8
0-1
  6
CONTINUOUS
 62
     3
 10
8664.8901754095878
 20
6337.157708421958
 30
0.0
 11
8664.8901754095878
 21
8198.2035874219546
 31
0.0
  0
LINE
  5
D589
  8
0-1
  6
CONTINUOUS
 62
     3
 10
8649.8883944095869
 20
6337.157708421958
 30
0.0
 11
8649.8883944095869
 21
8198.2035874219546
 31
0.0
  0
LINE
  5
D58A
  8
0-1
  6
CONTINUOUS
 62
     3
 10
9349.8877344095963
 20
6337.157708421958
 30
0.0
 11
9349.8877344095963
 21
8198.2035874219546
 31
0.0
  0
LINE
  5
D58B
  8
0-1
  6
CONTINUOUS
 62
     3
 10
9364.8895154095953
 20
6337.157708421958
 30
0.0
 11
9364.8895154095953
 21
8198.2035874219546
 31
0.0
  0
LINE
  5
D58C
  8
0-1
  6
CONTINUOUS
 62
     3
 10
9765.8875234095904
 20
6337.157708421958
 30
0.0
 11
9765.8875234095904
 21
8198.2035874219546
 31
0.0
  0
LINE
  5
D58D
  8
0-1
  6
CONTINUOUS
 62
     3
 10
9750.888710409592
 20
6337.157708421958
 30
0.0
 11
9750.888710409592
 21
8198.2035874219546
 31
0.0
  0
LINE
  5
D58E
  8
0-1
  6
CONTINUOUS
 62
     3
 10
9617.8898064095865
 20
6337.157708421958
 30
0.0
 11
9617.8898064095865
 21
8198.2035874219546
 31
0.0
  0
LINE
  5
D58F
  8
0-1
  6
CONTINUOUS
 62
     3
 10
9497.8884204095957
 20
6337.157708421958
 30
0.0
 11
9497.8884204095957
 21
8198.2035874219546
 31
0.0
  0
LINE
  5
D590
  8
0-1
  6
CONTINUOUS
 62
     3
 10
9567.8881564096082
 20
6337.157708421958
 30
0.0
 11
9567.8881564096082
 21
8198.2035874219546
 31
0.0
  0
LINE
  5
D591
  8
0-1
  6
CONTINUOUS
 62
     3
 10
9547.8890804095863
 20
6337.157708421958
 30
0.0
 11
9547.8890804095863
 21
8198.2035874219546
 31
0.0
  0
LINE
  5
D592
  8
0-1
  6
CONTINUOUS
 62
     3
 10
9889.3877074095926
 20
8198.2035874219546
 30
0.0
 11
9889.3877074095926
 21
6337.157708421958
 31
0.0
  0
LINE
  5
D593
  8
0-1
  6
CONTINUOUS
 62
     3
 10
9926.3888694095967
 20
8198.2035874219546
 30
0.0
 11
9926.3888694095967
 21
6337.157708421958
 31
0.0
  0
LINE
  5
D594
  8
0-1
  6
CONTINUOUS
 62
     3
 10
8489.3900174095907
 20
8198.2035874219546
 30
0.0
 11
8489.3900174095907
 21
6337.157708421958
 31
0.0
  0
LINE
  5
D595
  8
0-1
  6
CONTINUOUS
 62
     3
 10
8526.389199409603
 20
8198.2035874219546
 30
0.0
 11
8526.389199409603
 21
6337.157708421958
 31
0.0
  0
LINE
  5
D596
  8
0-1
  6
CONTINUOUS
 62
     3
 10
9189.3883674095996
 20
8198.2035874219546
 30
0.0
 11
9189.3883674095996
 21
6337.157708421958
 31
0.0
  0
LINE
  5
D597
  8
0-1
  6
CONTINUOUS
 62
     3
 10
9226.3885394095832
 20
8198.2035874219546
 30
0.0
 11
9226.3885394095832
 21
6337.157708421958
 31
0.0
  0
LINE
  5
D598
  8
0-1
  6
CONTINUOUS
 62
     3
 10
23153.974129630678
 20
6287.1575434219621
 30
0.0
 11
23253.97347063067
 21
6287.1575434219621
 31
0.0
  0
LINE
  5
D599
  8
0-1
  6
CONTINUOUS
 62
     3
 10
23253.97347063067
 20
6287.1575434219621
 30
0.0
 11
23253.97347063067
 21
6187.1577084219589
 31
0.0
  0
LINE
  5
D59A
  8
0-1
  6
CONTINUOUS
 62
     3
 10
23153.974129630678
 20
6187.1577084219589
 30
0.0
 11
23153.974129630678
 21
6287.1575434219621
 31
0.0
  0
LINE
  5
D59B
  8
0-1
  6
CONTINUOUS
 62
     3
 10
23246.473074630681
 20
8505.657635421956
 30
0.0
 11
23246.473074630681
 21
6287.1575434219621
 31
0.0
  0
LINE
  5
D59C
  8
0-1
  6
CONTINUOUS
 62
     3
 10
23297.972810630679
 20
8178.6575434219612
 30
0.0
 11
23297.972810630679
 21
6187.1577084219589
 31
0.0
  0
LINE
  5
D59D
  8
0-1
  6
CONTINUOUS
 62
     3
 10
23181.471622630681
 20
8635.6575694219555
 30
0.0
 11
23181.471622630681
 21
6287.1575434219621
 31
0.0
  0
LINE
  5
D59E
  8
0-1
  6
CONTINUOUS
 62
     3
 10
23161.472810630661
 20
8505.657635421956
 30
0.0
 11
23161.472810630661
 21
6287.1575434219621
 31
0.0
  0
LINE
  5
D59F
  8
0-1
  6
CONTINUOUS
 62
     3
 10
25856.97281063069
 20
8309.9718314219554
 30
0.0
 11
25813.97281063069
 21
8309.9718314219554
 31
0.0
  0
LINE
  5
D5A0
  8
0-1
  6
CONTINUOUS
 62
     3
 10
25821.47544963067
 20
6287.1575434219621
 30
0.0
 11
25721.476109630668
 21
6287.1575434219621
 31
0.0
  0
LINE
  5
D5A1
  8
0-1
  6
CONTINUOUS
 62
     3
 10
25721.476109630668
 20
6287.1575434219621
 30
0.0
 11
25721.476109630668
 21
6187.1577084219589
 31
0.0
  0
LINE
  5
D5A2
  8
0-1
  6
CONTINUOUS
 62
     3
 10
25821.47544963067
 20
6187.1577084219589
 30
0.0
 11
25821.47544963067
 21
6287.1575434219621
 31
0.0
  0
LINE
  5
D5A3
  8
0-1
  6
CONTINUOUS
 62
     3
 10
25677.47281063069
 20
8178.6575434219612
 30
0.0
 11
25677.47281063069
 21
6187.1577084219589
 31
0.0
  0
LINE
  5
D5A4
  8
0-1
  6
CONTINUOUS
 62
     3
 10
25728.976505630679
 20
8505.657635421956
 30
0.0
 11
25728.976505630679
 21
6287.1575434219621
 31
0.0
  0
LINE
  5
D5A5
  8
0-1
  6
CONTINUOUS
 62
     3
 10
25793.975977630678
 20
8635.6575694219555
 30
0.0
 11
25793.975977630678
 21
6287.1575434219621
 31
0.0
  0
LINE
  5
D5A6
  8
0-1
  6
CONTINUOUS
 62
     3
 10
25813.97281063069
 20
8505.657635421956
 30
0.0
 11
25813.97281063069
 21
6287.1575434219621
 31
0.0
  0
LINE
  5
D5A7
  8
0-1
  6
CONTINUOUS
 62
     3
 10
7688.8888954096028
 20
6287.1575434219621
 30
0.0
 11
7688.8888954096028
 21
6187.1577084219589
 31
0.0
  0
LINE
  5
D5A8
  8
0-1
  6
CONTINUOUS
 62
     3
 10
7721.3896864096032
 20
8501.4866184219627
 30
0.0
 11
7721.3896864096032
 21
6287.1575434219621
 31
0.0
  0
LINE
  5
D5A9
  8
0-1
  6
CONTINUOUS
 62
     3
 10
7701.3888954095974
 20
8502.0676074219573
 30
0.0
 11
7701.3888954095974
 21
6287.1575434219621
 31
0.0
  0
LINE
  5
D5AA
  8
0-1
  6
CONTINUOUS
 62
     3
 10
7816.38876340961
 20
8198.2035874219546
 30
0.0
 11
7816.38876340961
 21
6287.1575434219621
 31
0.0
  0
LINE
  5
D5AB
  8
0-1
  6
CONTINUOUS
 62
     3
 10
10661.8888954096
 20
8402.9590504219595
 30
0.0
 11
10661.8888954096
 21
8198.2035874219546
 31
0.0
  0
LINE
  5
D5AC
  8
0-1
  6
CONTINUOUS
 62
     3
 10
10734.38876340959
 20
8198.2035874219546
 30
0.0
 11
10734.38876340959
 21
6287.1575434219621
 31
0.0
  0
LINE
  5
D5AD
  8
0-1
  6
CONTINUOUS
 62
     3
 10
10589.3900174096
 20
8198.2035874219546
 30
0.0
 11
10589.3900174096
 21
6287.1575434219621
 31
0.0
  0
LINE
  5
D5AE
  8
0-1
  6
CONTINUOUS
 62
     3
 10
10589.3900174096
 20
6337.157708421958
 30
0.0
 11
7816.38876340961
 21
6337.157708421958
 31
0.0
  0
LINE
  5
D5AF
  8
0-1
  6
CONTINUOUS
 62
     3
 10
25677.47281063069
 20
6707.1584344219546
 30
0.0
 11
23297.972810630679
 21
6707.1584344219546
 31
0.0
  0
LINE
  5
D5B0
  8
0-1
  6
CONTINUOUS
 62
     3
 10
25677.47281063069
 20
6642.1579724219591
 30
0.0
 11
23297.972810630679
 21
6642.1579724219591
 31
0.0
  0
LINE
  5
D5B1
  8
0-1
  6
CONTINUOUS
 62
     3
 10
25677.47281063069
 20
6577.1580054219576
 30
0.0
 11
23297.972810630679
 21
6577.1580054219576
 31
0.0
  0
LINE
  5
D5B2
  8
0-1
  6
CONTINUOUS
 62
     3
 10
25677.47281063069
 20
6512.1575434219603
 30
0.0
 11
23297.972810630679
 21
6512.1575434219603
 31
0.0
  0
LINE
  5
D5B3
  8
0-1
  6
CONTINUOUS
 62
     3
 10
25677.47281063069
 20
6447.1580714219663
 30
0.0
 11
23297.972810630679
 21
6447.1580714219663
 31
0.0
  0
LINE
  5
D5B4
  8
0-1
  6
CONTINUOUS
 62
     3
 10
25677.47281063069
 20
6382.158104421962
 30
0.0
 11
23297.972810630679
 21
6382.158104421962
 31
0.0
  0
LINE
  5
D5B5
  8
0-1
  6
CONTINUOUS
 62
     3
 10
25677.47281063069
 20
6317.1581374219604
 30
0.0
 11
23297.972810630679
 21
6317.1581374219604
 31
0.0
  0
LINE
  5
D5B6
  8
0-1
  6
CONTINUOUS
 62
     3
 10
25677.47281063069
 20
6252.1576754219623
 30
0.0
 11
23297.972810630679
 21
6252.1576754219623
 31
0.0
  0
LINE
  5
D5B7
  8
0-1
  6
CONTINUOUS
 62
     3
 10
25677.47281063069
 20
8072.1577414219619
 30
0.0
 11
23297.972810630679
 21
8072.1577414219619
 31
0.0
  0
LINE
  5
D5B8
  8
0-1
  6
CONTINUOUS
 62
     3
 10
25677.47281063069
 20
8007.1577744219603
 30
0.0
 11
23297.972810630679
 21
8007.1577744219603
 31
0.0
  0
LINE
  5
D5B9
  8
0-1
  6
CONTINUOUS
 62
     3
 10
25677.47281063069
 20
7942.1583024219653
 30
0.0
 11
23297.972810630679
 21
7942.1583024219653
 31
0.0
  0
LINE
  5
D5BA
  8
0-1
  6
CONTINUOUS
 62
     3
 10
25677.47281063069
 20
7877.158335421952
 30
0.0
 11
23297.972810630679
 21
7877.158335421952
 31
0.0
  0
LINE
  5
D5BB
  8
0-1
  6
CONTINUOUS
 62
     3
 10
25677.47281063069
 20
7812.158368421965
 30
0.0
 11
23297.972810630679
 21
7812.158368421965
 31
0.0
  0
LINE
  5
D5BC
  8
0-1
  6
CONTINUOUS
 62
     3
 10
25677.47281063069
 20
7747.1579064219613
 30
0.0
 11
23297.972810630679
 21
7747.1579064219613
 31
0.0
  0
LINE
  5
D5BD
  8
0-1
  6
CONTINUOUS
 62
     3
 10
25677.47281063069
 20
7682.1579394219571
 30
0.0
 11
23297.972810630679
 21
7682.1579394219571
 31
0.0
  0
LINE
  5
D5BE
  8
0-1
  6
CONTINUOUS
 62
     3
 10
25677.47281063069
 20
7617.1584674219621
 30
0.0
 11
23297.972810630679
 21
7617.1584674219621
 31
0.0
  0
LINE
  5
D5BF
  8
0-1
  6
CONTINUOUS
 62
     3
 10
25677.47281063069
 20
7552.1585004219569
 30
0.0
 11
23297.972810630679
 21
7552.1585004219569
 31
0.0
  0
LINE
  5
D5C0
  8
0-1
  6
CONTINUOUS
 62
     3
 10
25677.47281063069
 20
7487.1580384219606
 30
0.0
 11
23297.972810630679
 21
7487.1580384219606
 31
0.0
  0
LINE
  5
D5C1
  8
0-1
  6
CONTINUOUS
 62
     3
 10
25677.47281063069
 20
7422.1580714219581
 30
0.0
 11
23297.972810630679
 21
7422.1580714219581
 31
0.0
  0
LINE
  5
D5C2
  8
0-1
  6
CONTINUOUS
 62
     3
 10
25677.47281063069
 20
7357.158104421962
 30
0.0
 11
23297.972810630679
 21
7357.158104421962
 31
0.0
  0
LINE
  5
D5C3
  8
0-1
  6
CONTINUOUS
 62
     3
 10
25677.47281063069
 20
7292.1576424219584
 30
0.0
 11
23297.972810630679
 21
7292.1576424219584
 31
0.0
  0
LINE
  5
D5C4
  8
0-1
  6
CONTINUOUS
 62
     3
 10
25677.47281063069
 20
7227.1576754219559
 30
0.0
 11
23297.972810630679
 21
7227.1576754219559
 31
0.0
  0
LINE
  5
D5C5
  8
0-1
  6
CONTINUOUS
 62
     3
 10
25677.47281063069
 20
7162.1582034219591
 30
0.0
 11
23297.972810630679
 21
7162.1582034219591
 31
0.0
  0
LINE
  5
D5C6
  8
0-1
  6
CONTINUOUS
 62
     3
 10
25677.47281063069
 20
7097.1582364219557
 30
0.0
 11
23297.972810630679
 21
7097.1582364219557
 31
0.0
  0
LINE
  5
D5C7
  8
0-1
  6
CONTINUOUS
 62
     3
 10
25677.47281063069
 20
7032.1582694219596
 30
0.0
 11
23297.972810630679
 21
7032.1582694219596
 31
0.0
  0
LINE
  5
D5C8
  8
0-1
  6
CONTINUOUS
 62
     3
 10
25677.47281063069
 20
6967.1578074219642
 30
0.0
 11
23297.972810630679
 21
6967.1578074219642
 31
0.0
  0
LINE
  5
D5C9
  8
0-1
  6
CONTINUOUS
 62
     3
 10
25677.47281063069
 20
6902.1578404219608
 30
0.0
 11
23297.972810630679
 21
6902.1578404219608
 31
0.0
  0
LINE
  5
D5CA
  8
0-1
  6
CONTINUOUS
 62
     3
 10
25677.47281063069
 20
6837.1583684219568
 30
0.0
 11
23297.972810630679
 21
6837.1583684219568
 31
0.0
  0
LINE
  5
D5CB
  8
0-1
  6
CONTINUOUS
 62
     3
 10
25677.47281063069
 20
6772.1584014219598
 30
0.0
 11
23297.972810630679
 21
6772.1584014219598
 31
0.0
  0
LINE
  5
D5CC
  8
0-1
  6
CONTINUOUS
 62
     3
 10
25677.47281063069
 20
8126.6177614219587
 30
0.0
 11
23297.972810630679
 21
8126.6177614219587
 31
0.0
  0
LINE
  5
D5CD
  8
0-1
  6
CONTINUOUS
 62
     3
 10
25821.47544963067
 20
6187.1577084219589
 30
0.0
 11
19792.494434505479
 21
6187.1577084219589
 31
0.0
  0
LINE
  5
D5CE
  8
0-1
  6
CONTINUOUS
 62
     3
 10
13629.8888954096
 20
6187.1577084219589
 30
0.0
 11
13629.8888954096
 21
6287.1575434219621
 31
0.0
  0
LINE
  5
D5CF
  8
0-1
  6
CONTINUOUS
 62
     3
 10
13602.3890934096
 20
8314.9600464219584
 30
0.0
 11
13602.3890934096
 21
6287.1575434219621
 31
0.0
  0
LINE
  5
D5D0
  8
0-1
  6
CONTINUOUS
 62
     3
 10
13622.3888954096
 20
8314.3433191057684
 30
0.0
 11
13622.3888954096
 21
6287.1575434219621
 31
0.0
  0
LINE
  5
D5D1
  8
0-1
  6
CONTINUOUS
 62
     3
 10
13507.39001640959
 20
8198.2035874219546
 30
0.0
 11
13507.39001640959
 21
6287.1575434219621
 31
0.0
  0
LINE
  5
D5D2
  8
0-1
  6
CONTINUOUS
 62
     3
 10
13629.8888954096
 20
6287.1575434219621
 30
0.0
 11
7688.8888954096028
 21
6287.1575434219621
 31
0.0
  0
LINE
  5
D5D3
  8
0-1
  6
CONTINUOUS
 62
     3
 10
13507.39001640959
 20
6337.157708421958
 30
0.0
 11
10734.38876340959
 21
6337.157708421958
 31
0.0
  0
LINE
  5
D5D4
  8
0-1
  6
CONTINUOUS
 62
     3
 10
14312.38995040959
 20
6187.1577084219589
 30
0.0
 11
7688.8888954096028
 21
6187.1577084219589
 31
0.0
  0
LINE
  5
D5D5
  8
0-1
  6
CONTINUOUS
 62
     3
 10
13602.3890934096
 20
8198.2035874219546
 30
0.0
 11
7721.3896864096032
 21
8198.2035874219546
 31
0.0
  0
LINE
  5
D5D6
  8
0-1
  6
CONTINUOUS
 62
     3
 10
25702.973549630671
 20
8381.1582894219573
 30
0.0
 11
25425.54401963067
 21
8381.1582894219573
 31
0.0
  0
LINE
  5
D5D7
  8
0-1
  6
CONTINUOUS
 62
     3
 10
25702.973549630671
 20
8423.1577344219604
 30
0.0
 11
25393.547081630652
 21
8423.1577344219604
 31
0.0
  0
LINE
  5
D5D8
  8
0-1
  6
CONTINUOUS
 62
     3
 10
25707.97381263068
 20
8386.1580584219537
 30
0.0
 11
25707.97381263068
 21
8418.1584604219606
 31
0.0
  0
LINE
  5
D5D9
  8
0-1
  6
CONTINUOUS
 62
     3
 10
25728.976505630679
 20
8432.157616421955
 30
0.0
 11
23246.473074630681
 21
8432.157616421955
 31
0.0
  0
LINE
  5
D5DA
  8
0-1
  6
CONTINUOUS
 62
     3
 10
25422.010579630682
 20
8382.6221434219606
 30
0.0
 11
25390.00968163068
 21
8414.6225454219584
 31
0.0
  0
LINE
  5
D5DB
  8
0-1
  6
CONTINUOUS
 62
     3
 10
25707.97381263068
 20
8414.7581424219588
 30
0.0
 11
25389.881013630678
 21
8414.7581424219588
 31
0.0
  0
LINE
  5
D5DC
  8
0-1
  6
CONTINUOUS
 62
     3
 10
25707.97381263068
 20
8406.358055421957
 30
0.0
 11
25398.27417163067
 21
8406.358055421957
 31
0.0
  0
LINE
  5
D5DD
  8
0-1
  6
CONTINUOUS
 62
     3
 10
25707.97381263068
 20
8397.9584634219609
 30
0.0
 11
25406.673269630679
 21
8397.9584634219609
 31
0.0
  0
LINE
  5
D5DE
  8
0-1
  6
CONTINUOUS
 62
     3
 10
25707.97381263068
 20
8389.5583764219609
 30
0.0
 11
25415.076325630671
 21
8389.5583764219609
 31
0.0
  0
LINE
  5
D5DF
  8
0-1
  6
CONTINUOUS
 62
     3
 10
23267.473786630679
 20
8414.7581424219588
 30
0.0
 11
23585.56658663067
 21
8414.7581424219588
 31
0.0
  0
LINE
  5
D5E0
  8
0-1
  6
CONTINUOUS
 62
     3
 10
23267.473786630679
 20
8406.358055421957
 30
0.0
 11
23577.171448630659
 21
8406.358055421957
 31
0.0
  0
LINE
  5
D5E1
  8
0-1
  6
CONTINUOUS
 62
     3
 10
23267.473786630679
 20
8397.9584634219609
 30
0.0
 11
23568.77235163068
 21
8397.9584634219609
 31
0.0
  0
LINE
  5
D5E2
  8
0-1
  6
CONTINUOUS
 62
     3
 10
23267.473786630679
 20
8389.5583764219609
 30
0.0
 11
23560.373253630689
 21
8389.5583764219609
 31
0.0
  0
LINE
  5
D5E3
  8
0-1
  6
CONTINUOUS
 62
     3
 10
23272.474050630692
 20
8423.1577344219604
 30
0.0
 11
23581.900518630679
 21
8423.1577344219604
 31
0.0
  0
LINE
  5
D5E4
  8
0-1
  6
CONTINUOUS
 62
     3
 10
23272.474050630692
 20
8381.1582894219573
 30
0.0
 11
23549.903579630671
 21
8381.1582894219573
 31
0.0
  0
LINE
  5
D5E5
  8
0-1
  6
CONTINUOUS
 62
     3
 10
23267.473786630679
 20
8386.1580584219537
 30
0.0
 11
23267.473786630679
 21
8418.1584604219606
 31
0.0
  0
LINE
  5
D5E6
  8
0-1
  6
CONTINUOUS
 62
     3
 10
23553.439000630678
 20
8382.6221434219606
 30
0.0
 11
23585.435938630679
 21
8414.6225454219584
 31
0.0
  0
LINE
  5
D5E7
  8
0-1
  6
CONTINUOUS
 62
     3
 10
13796.6907194096
 20
8349.1428684219627
 30
0.0
 11
7615.6992304095984
 21
8544.6589294219648
 31
0.0
  0
LINE
  5
D5E8
  8
0-1
  6
CONTINUOUS
 62
     3
 10
7617.1997054096
 20
8594.6378144219634
 30
0.0
 11
13798.1902044096
 21
8399.1207644219558
 31
0.0
  0
LINE
  5
D5E9
  8
0-1
  6
CONTINUOUS
 62
     3
 10
13801.280232409599
 20
8402.0296664219622
 30
0.0
 11
13802.240299409599
 21
8434.0152224219564
 31
0.0
  0
LINE
  5
D5EA
  8
0-1
  6
CONTINUOUS
 62
     3
 10
13797.391468409591
 20
8439.162465421954
 30
0.0
 11
7597.4302534095968
 21
8635.2496174219577
 31
0.0
  0
LINE
  5
D5EB
  8
0-1
  6
CONTINUOUS
 62
     3
 10
7593.525653409597
 20
8505.3080794219622
 30
0.0
 11
13793.490827409591
 21
8309.2214224219533
 31
0.0
  0
LINE
  5
D5EC
  8
0-1
  6
CONTINUOUS
 62
     3
 10
13798.63856540959
 20
8314.0687684219574
 30
0.0
 11
13799.597642409601
 21
8346.0548194219555
 31
0.0
  0
LINE
  5
D5ED
  8
0-1
  6
CONTINUOUS
 62
     3
 10
13799.92921140959
 20
8357.0495604219614
 30
0.0
 11
13800.949653409591
 21
8391.0339354219559
 31
0.0
  0
LINE
  5
D5EE
  8
0-1
  6
CONTINUOUS
 62
     3
 10
13798.04075040958
 20
8394.1229744219581
 30
0.0
 11
7617.0482724096028
 21
8589.6405194219587
 31
0.0
  0
LINE
  5
D5EF
  8
0-1
  6
CONTINUOUS
 62
     3
 10
7615.8486844096051
 20
8549.6572134219587
 30
0.0
 11
13796.8391824096
 21
8354.1411534219587
 31
0.0
  0
LINE
  5
D5F0
  8
0-1
  6
CONTINUOUS
 62
     3
 10
10661.8888954096
 20
8402.9590504219595
 30
0.0
 11
10665.79151640959
 21
8532.9005884219569
 31
0.0
  0
LINE
  5
D5F1
  8
0-1
  6
CONTINUOUS
 62
     3
 10
7626.4925554095971
 20
8504.3173304219581
 30
0.0
 11
7630.3941864095968
 21
8634.2588684219572
 31
0.0
  0
LINE
  5
D5F2
  8
0-1
  6
CONTINUOUS
 62
     3
 10
13784.89872640959
 20
8439.5375844219616
 30
0.0
 11
13780.99610540958
 21
8309.5965414219572
 31
0.0
  0
LINE
  5
D5F3
  8
0-2
  6
CONTINUOUS
 62
     4
 10
24124.034770130678
 20
6934.3844024219543
 30
0.0
 11
24224.03411013068
 21
6934.3844024219543
 31
0.0
  0
LINE
  5
D5F4
  8
0-2
  6
CONTINUOUS
 62
     4
 10
24851.418770130669
 20
6934.3844024219543
 30
0.0
 11
24751.419430130671
 21
6934.3844024219543
 31
0.0
  0
LINE
  5
D5F5
  8
0-5
  6
CONTINUOUS
 62
     4
 10
23203.972810630661
 20
4507.1581044219538
 30
0.0
 11
23203.972810630661
 21
4347.1585664219583
 31
0.0
  0
LINE
  5
D5F6
  8
0-5
  6
CONTINUOUS
 62
     4
 10
15610.251228455891
 20
6287.1575434219612
 30
0.0
 11
15490.25083245588
 21
6495.0045204219559
 31
0.0
  0
LINE
  5
D5F7
  8
0-5
  6
CONTINUOUS
 62
     4
 10
15730.24964545588
 20
6495.0045204219559
 30
0.0
 11
15610.251228455891
 21
6287.1575434219612
 31
0.0
  0
LINE
  5
D5F8
  8
0-5
  6
CONTINUOUS
 62
     4
 10
15490.25083245588
 20
6495.0045204219559
 30
0.0
 11
15730.24964545588
 21
6495.0045204219559
 31
0.0
  0
LINE
  5
D5F9
  8
0-5
  6
CONTINUOUS
 62
     4
 10
16392.35326340959
 20
6287.1575434219612
 30
0.0
 11
14712.38929140959
 21
6287.1575434219612
 31
0.0
  0
LINE
  5
D5FA
  8
0-5
  6
CONTINUOUS
 62
     4
 10
25771.47281063069
 20
4507.1581044219538
 30
0.0
 11
25771.47281063069
 21
4347.1585664219583
 31
0.0
  0
LINE
  5
D5FB
  8
0-5
  6
CONTINUOUS
 62
     4
 10
7743.8888954096037
 20
4507.1581044219538
 30
0.0
 11
7743.8888954096037
 21
4347.1585664219583
 31
0.0
  0
LINE
  5
D5FC
  8
0-5
  6
CONTINUOUS
 62
     4
 10
10661.8888954096
 20
4507.1581044219538
 30
0.0
 11
10661.8888954096
 21
4347.1585664219583
 31
0.0
  0
LINE
  5
D5FD
  8
0-5
  6
CONTINUOUS
 62
     4
 10
13579.888895409589
 20
4507.1581044219538
 30
0.0
 11
13579.888895409589
 21
4347.1585664219583
 31
0.0
  0
LINE
  5
D5FE
  8
2-0
  6
CENTER2
 62
     6
 10
23203.972810630661
 20
5924.5052854219593
 30
0.0
 11
23203.972810630661
 21
6961.6483124219576
 31
0.0
  0
LINE
  5
D5FF
  8
2-0
  6
CENTER2
 62
     6
 10
25771.47281063069
 20
5924.5052854219593
 30
0.0
 11
25771.47281063069
 21
6961.6483124219576
 31
0.0
  0
LINE
  5
D600
  8
2-0
  6
CENTER2
 62
     6
 10
7743.8888954096037
 20
5924.5052854219593
 30
0.0
 11
7743.8888954096037
 21
6981.6478834219579
 31
0.0
  0
LINE
  5
D601
  8
2-0
  6
CENTER2
 62
     6
 10
10661.8888954096
 20
5924.5052854219593
 30
0.0
 11
10661.8888954096
 21
6981.6478834219579
 31
0.0
  0
LINE
  5
D602
  8
2-0
  6
CENTER2
 62
     6
 10
13579.888895409589
 20
5924.5052854219593
 30
0.0
 11
13579.888895409589
 21
6981.6478834219579
 31
0.0
  0
ARC
  5
D603
  8
0-1
  6
CONTINUOUS
 62
     3
 10
25702.973549630671
 20
8418.1584604219606
 30
0.0
 40
5.0
 50
0.000000000000007
 51
90.0
  0
ARC
  5
D604
  8
0-1
  6
CONTINUOUS
 62
     3
 10
25702.973549630671
 20
8386.1580584219537
 30
0.0
 40
5.0
 50
270.00001499981897
 51
0.000000000000007
  0
ARC
  5
D605
  8
0-1
  6
CONTINUOUS
 62
     3
 10
25425.54401963067
 20
8386.1580584219537
 30
0.0
 40
5.0
 50
225.00001499976199
 51
270.00001499981897
  0
ARC
  5
D606
  8
0-1
  6
CONTINUOUS
 62
     3
 10
25393.547081630652
 20
8418.1584604219606
 30
0.0
 40
5.0
 50
90.0
 51
225.00001499976199
  0
ARC
  5
D607
  8
0-1
  6
CONTINUOUS
 62
     3
 10
23272.474050630692
 20
8386.1580584219537
 30
0.0
 40
5.0
 50
180.0
 51
270.00001499981897
  0
ARC
  5
D608
  8
0-1
  6
CONTINUOUS
 62
     3
 10
23272.474050630692
 20
8418.1584604219606
 30
0.0
 40
5.0
 50
90.0
 51
180.0
  0
ARC
  5
D609
  8
0-1
  6
CONTINUOUS
 62
     3
 10
23581.900518630679
 20
8418.1584604219606
 30
0.0
 40
5.0
 50
315.00001500002008
 51
90.0
  0
ARC
  5
D60A
  8
0-1
  6
CONTINUOUS
 62
     3
 10
23549.903579630671
 20
8386.1580584219537
 30
0.0
 40
5.0
 50
270.00001499981897
 51
315.00001500002008
  0
ARC
  5
D60B
  8
0-1
  6
CONTINUOUS
 62
     3
 10
7616.4494684096044
 20
8569.6493614219562
 30
0.0
 40
24.999998999999999
 50
88.280013999973605
 51
268.28001399997362
  0
ARC
  5
D60C
  8
0-1
  6
CONTINUOUS
 62
     3
 10
13798.280272409591
 20
8402.1197344219599
 30
0.0
 40
3.0
 50
268.28001399997362
 51
358.2800139999739
  0
ARC
  5
D60D
  8
0-1
  6
CONTINUOUS
 62
     3
 10
13797.243004409591
 20
8434.1646764219604
 30
0.0
 40
5.0
 50
358.2800139999739
 51
88.280013999973605
  0
ARC
  5
D60E
  8
0-1
  6
CONTINUOUS
 62
     3
 10
7621.446762409616
 20
8569.4989184219648
 30
0.0
 40
69.999999000000003
 50
110.066803000108
 51
246.49322500022339
  0
ARC
  5
D60F
  8
0-1
  6
CONTINUOUS
 62
     3
 10
13793.63929140959
 20
8314.2192124219564
 30
0.0
 40
5.0
 50
268.28001399997362
 51
358.2800139999739
  0
ARC
  5
D610
  8
0-1
  6
CONTINUOUS
 62
     3
 10
13796.6006504096
 20
8346.144392421962
 30
0.0
 40
3.0
 50
358.2800139999739
 51
88.280013999973605
  0
ARC
  5
D611
  8
0-1
  6
CONTINUOUS
 62
     3
 10
13796.616487409599
 20
8396.6671504219557
 30
0.0
 40
2.5
 50
88.280013999973605
 51
268.28001399997362
  0
ARC
  5
D612
  8
0-1
  6
CONTINUOUS
 62
     3
 10
13795.266455409601
 20
8351.6870444219585
 30
0.0
 40
2.5
 50
88.280013999973605
 51
268.28001399997362
  0
ARC
  5
D613
  8
0-1
  6
CONTINUOUS
 62
     3
 10
13797.95068240959
 20
8391.1244984219575
 30
0.0
 40
3.0
 50
358.2800139999739
 51
88.280013999973605
  0
ARC
  5
D614
  8
0-1
  6
CONTINUOUS
 62
     3
 10
7616.4494684096044
 20
8569.6493614219562
 30
0.0
 40
20.0
 50
88.280013999973605
 51
268.28001399997362
  0
ARC
  5
D615
  8
0-1
  6
CONTINUOUS
 62
     3
 10
13796.930240409591
 20
8357.1391334219588
 30
0.0
 40
3.0
 50
268.28001399997362
 51
358.2800139999739
  0
CIRCLE
  5
D616
  8
0-5
  6
CONTINUOUS
 62
     4
 10
23203.972810630661
 20
4147.1574114219602
 30
0.0
 40
199.9999949999999
  0
CIRCLE
  5
D617
  8
0-5
  6
CONTINUOUS
 62
     4
 10
10661.8888954096
 20
4147.1574114219602
 30
0.0
 40
199.9999949999999
  0
CIRCLE
  5
D618
  8
0-5
  6
CONTINUOUS
 62
     4
 10
7743.8888954096037
 20
4147.1574114219602
 30
0.0
 40
199.9999949999999
  0
CIRCLE
  5
D619
  8
0-5
  6
CONTINUOUS
 62
     4
 10
25771.47281063069
 20
4147.1574114219602
 30
0.0
 40
199.9999949999999
  0
CIRCLE
  5
D61A
  8
0-5
  6
CONTINUOUS
 62
     4
 10
13579.888895409589
 20
4147.1574114219602
 30
0.0
 40
199.9999949999999
  0
TEXT
  5
D61B
  8
0-5
  6
CONTINUOUS
 62
     7
 10
23149.219018964021
 20
4057.68242942196
 30
0.0
 40
160.0
  1
2
 72
     4
 11
23202.552352297349
 21
4137.6824294219596
 31
0.0
  0
TEXT
  5
D61C
  8
0-5
  6
CONTINUOUS
 62
     7
 10
26876.444575734829
 20
7033.9796055814022
 30
0.0
 40
160.0
  1
(2131.5)
 50
90.0
 72
     4
 11
26796.444575734829
 21
7487.3129389147352
 31
0.0
  0
TEXT
  5
D61D
  8
0-5
  6
CONTINUOUS
 62
     7
 10
15152.00982412255
 20
6575.0037944219539
 30
0.0
 40
160.0
  1
布基礎天端
 72
     4
 11
15610.676490789219
 21
6655.0037944219539
 31
0.0
  0
TEXT
  5
D61E
  8
0-5
  6
CONTINUOUS
 62
     7
 10
25718.139477297362
 20
4057.6824294219632
 30
0.0
 40
160.0
  1
3
 72
     4
 11
25771.47281063069
 21
4137.6824294219632
 31
0.0
  0
TEXT
  5
D61F
  8
0-5
  6
CONTINUOUS
 62
     7
 10
7684.1783887429283
 20
4063.9466154219608
 30
0.0
 40
160.0
  1
A
 72
     4
 11
7737.5117220762622
 21
4143.9466154219608
 31
0.0
  0
TEXT
  5
D620
  8
0-5
  6
CONTINUOUS
 62
     7
 10
10602.178388742919
 20
4063.9466154219608
 30
0.0
 40
160.0
  1
B
 72
     4
 11
10655.51172207626
 21
4143.9466154219608
 31
0.0
  0
TEXT
  5
D621
  8
0-5
  6
CONTINUOUS
 62
     7
 10
13520.178388742919
 20
4063.9466154219608
 30
0.0
 40
160.0
  1
C
 72
     4
 11
13573.51172207626
 21
4143.9466154219608
 31
0.0
  0
CIRCLE
  5
D622
  8
0-4
  6
CONTINUOUS
 62
     4
 10
24487.72479013068
 20
6673.2141444219578
 30
0.0
 40
18.487504999999981
  0
LINE
  5
D623
  8
1-前柱カバ-P
 10
20446.472810630661
 20
8505.657635421956
 30
0.0
 11
20446.472810630661
 21
6187.1577084219589
 31
0.0
  0
LINE
  5
D624
  8
1-前柱カバ-P
 10
20361.472810630661
 20
8635.6575694219555
 30
0.0
 11
20361.472810630679
 21
6187.1577084219589
 31
0.0
  0
LINE
  5
D625
  8
0-1
  6
CONTINUOUS
 62
     3
 10
20318.472810630661
 20
8505.6576354219633
 30
0.0
 11
23246.473074630681
 21
8505.657635421956
 31
0.0
  0
LINE
  5
D626
  8
0-1
  6
CONTINUOUS
 62
     3
 10
23181.471622630681
 20
8635.6575694219555
 30
0.0
 11
20318.472810630661
 21
8635.6575694219555
 31
0.0
  0
LINE
  5
D627
  8
0-1
  6
CONTINUOUS
 62
     3
 10
20318.472810630661
 20
8309.9718314219608
 30
0.0
 11
20318.472810630661
 21
8635.6575694219555
 31
0.0
  0
LINE
  5
D628
  8
0-1
  6
CONTINUOUS
 62
     3
 10
20318.472810630661
 20
8309.9718314219608
 30
0.0
 11
20361.472810630661
 21
8309.9718314219608
 31
0.0
  0
LINE
  5
D629
  8
2-0
  6
CENTER2
 62
     6
 10
20403.972810630668
 20
5924.5052854219593
 30
0.0
 11
20403.972810630668
 21
6961.6483124219576
 31
0.0
  0
LINE
  5
D62A
  8
1-桁前P28
 10
20446.472810630661
 20
8307.971831421959
 30
0.0
 11
23161.472810630661
 21
8307.971831421959
 31
0.0
  0
LINE
  5
D62B
  8
0-5
  6
CONTINUOUS
 62
     4
 10
20403.972810630679
 20
4507.1581044219538
 30
0.0
 11
20403.972810630668
 21
4347.1585664219583
 31
0.0
  0
CIRCLE
  5
D62C
  8
0-5
  6
CONTINUOUS
 62
     4
 10
20403.972810630668
 20
4147.1574114219602
 30
0.0
 40
199.9999949999999
  0
TEXT
  5
D62D
  8
0-5
  6
CONTINUOUS
 62
     7
 10
20375.885685630681
 20
4057.68242942196
 30
0.0
 40
160.0
  1
1
 72
     4
 11
20402.552352297342
 21
4137.6824294219596
 31
0.0
  0
TEXT
  5
D62E
  8
0-5
  6
CONTINUOUS
 62
     7
 10
19391.101423371281
 20
7287.9821147437069
 30
0.0
 40
160.0
  1
(2260)
 50
90.0
 72
     4
 11
19311.101423371281
 21
7674.6487814103739
 31
0.0
  0
LINE
  5
D62F
  8
SUNPOU
  6
CONTINUOUS
 10
13802.3888954096
 20
9435.1592194219593
 30
0.0
 11
14307.176765303
 21
9435.1592194219593
 31
0.0
  0
LINE
  5
D630
  8
0-5
  6
CONTINUOUS
 62
     4
 10
17062.768864265061
 20
6395.0041904219597
 30
0.0
 11
16942.770448265059
 21
6187.1577084219589
 31
0.0
  0
LINE
  5
D631
  8
0-5
  6
CONTINUOUS
 62
     4
 10
19734.910387945842
 20
6187.1577084219589
 30
0.0
 11
14385.94960177463
 21
6187.1577084219589
 31
0.0
  0
LINE
  5
D632
  8
0-5
  6
CONTINUOUS
 62
     4
 10
16942.770448265059
 20
6187.1577084219589
 30
0.0
 11
16822.770052265059
 21
6395.0041904219597
 31
0.0
  0
LINE
  5
D633
  8
0-5
  6
CONTINUOUS
 62
     4
 10
16822.770052265059
 20
6395.0041904219597
 30
0.0
 11
17062.768864265061
 21
6395.0041904219597
 31
0.0
  0
TEXT
  5
D634
  8
0-5
  6
CONTINUOUS
 62
     7
 10
16742.768864265061
 20
6475.0039594219579
 30
0.0
 40
160.0
  1
G.L
 72
     4
 11
16902.768864265061
 21
6555.0039594219579
 31
0.0
  0
LINE
  5
D635
  8
0-1
  6
CONTINUOUS
 62
     3
 10
13379.53131019258
 20
16751.455026421962
 30
0.0
 11
10812.031310192569
 21
16751.455026421962
 31
0.0
  0
LINE
  5
D636
  8
0-1
  6
CONTINUOUS
 62
     3
 10
10812.031310192569
 20
16751.455026421962
 30
0.0
 11
8239.6604594237797
 21
16751.455026421962
 31
0.0
  0
LINE
  5
D637
  8
2-0
  6
DASHED3
 62
     6
 10
8239.6604594237797
 20
16751.455026421962
 30
0.0
 11
8012.0313101925813
 21
16751.455026421962
 31
0.0
  0
LINE
  5
D638
  8
0-1
  6
CONTINUOUS
 62
     3
 10
10865.03094119257
 20
13841.95606842195
 30
0.0
 11
10865.03094119257
 21
17834.702821003179
 31
0.0
  0
LINE
  5
D639
  8
0-1
  6
CONTINUOUS
 62
     3
 10
13329.530690192551
 20
13717.95605442196
 30
0.0
 11
13329.530690192551
 21
18854.55329312204
 31
0.0
  0
LINE
  5
D63A
  8
0-1
  6
CONTINUOUS
 62
     3
 10
13329.530690192551
 20
18854.55329312204
 30
0.0
 11
13329.530690192551
 21
19878.955395421941
 31
0.0
  0
LINE
  5
D63B
  8
0-1
  6
CONTINUOUS
 62
     3
 10
13465.03131019258
 20
13685.95614742195
 30
0.0
 11
13465.03131019258
 21
18910.461632668601
 31
0.0
  0
LINE
  5
D63C
  8
0-1
  6
CONTINUOUS
 62
     3
 10
13465.03131019258
 20
18910.461632668601
 30
0.0
 11
13465.03131019258
 21
19926.956741421949
 31
0.0
  0
LINE
  5
D63D
  8
0-1
  6
CONTINUOUS
 62
     3
 10
13422.030584192569
 20
13841.95606842195
 30
0.0
 11
7969.5300561925624
 21
13841.95606842195
 31
0.0
  0
LINE
  5
D63E
  8
0-1
  6
CONTINUOUS
 62
     3
 10
13379.53131019258
 20
13920.955685421941
 30
0.0
 11
8012.0313101925813
 21
13920.955685421941
 31
0.0
  0
LINE
  5
D63F
  8
0-1
  6
CONTINUOUS
 62
     3
 10
13462.03131019258
 20
13685.95614742195
 30
0.0
 11
7926.5313101925794
 21
13685.95614742195
 31
0.0
  0
LINE
  5
D640
  8
0-1
  6
CONTINUOUS
 62
     3
 10
13462.03131019258
 20
13717.95605442196
 30
0.0
 11
7926.5313101925794
 21
13717.95605442196
 31
0.0
  0
LINE
  5
D641
  8
0-1
  6
CONTINUOUS
 62
     3
 10
10812.031310192569
 20
13841.95606842195
 30
0.0
 11
10812.031310192569
 21
17812.834770839199
 31
0.0
  0
LINE
  5
D642
  8
0-1
  6
CONTINUOUS
 62
     3
 10
10769.530056192571
 20
13841.95606842195
 30
0.0
 11
10769.530056192571
 21
17795.29843073705
 31
0.0
  0
LINE
  5
D643
  8
0-1
  6
CONTINUOUS
 62
     3
 10
13379.53131019258
 20
13841.95606842195
 30
0.0
 11
13379.53131019258
 21
18876.421751354948
 31
0.0
  0
LINE
  5
D644
  8
0-1
  6
CONTINUOUS
 62
     3
 10
13422.030584192569
 20
13841.95606842195
 30
0.0
 11
13422.030584192569
 21
18893.957274494071
 31
0.0
  0
LINE
  5
D645
  8
0-1
  6
CONTINUOUS
 62
     3
 10
12359.52985919256
 20
18461.344526938989
 30
0.0
 11
12359.52985919256
 21
19878.955395421941
 31
0.0
  0
LINE
  5
D646
  8
0-1
  6
CONTINUOUS
 62
     3
 10
12322.529687192549
 20
18446.077975038439
 30
0.0
 11
12322.529687192549
 21
19878.955395421941
 31
0.0
  0
LINE
  5
D647
  8
0-1
  6
CONTINUOUS
 62
     3
 10
12159.53018819257
 20
18378.82314413524
 30
0.0
 11
12159.53018819257
 21
19878.955395421941
 31
0.0
  0
LINE
  5
D648
  8
0-1
  6
CONTINUOUS
 62
     3
 10
12122.52902719257
 20
18363.556184165762
 30
0.0
 11
12122.52902719257
 21
19878.955395421941
 31
0.0
  0
LINE
  5
D649
  8
0-1
  6
CONTINUOUS
 62
     3
 10
11959.53051819258
 20
18286.30165674409
 30
0.0
 11
11959.530518192571
 21
19878.955395421941
 31
0.0
  0
LINE
  5
D64A
  8
0-1
  6
CONTINUOUS
 62
     3
 10
11922.531337192549
 20
18271.03551373765
 30
0.0
 11
11922.531337192549
 21
19878.955395421941
 31
0.0
  0
LINE
  5
D64B
  8
0-1
  6
CONTINUOUS
 62
     3
 10
11759.52985919256
 20
18203.77986628404
 30
0.0
 11
11759.52985919256
 21
19878.955395421941
 31
0.0
  0
LINE
  5
D64C
  8
0-1
  6
CONTINUOUS
 62
     3
 10
11722.52968719256
 20
18188.513314383468
 30
0.0
 11
11722.52968719256
 21
19878.955395421941
 31
0.0
  0
LINE
  5
D64D
  8
0-1
  6
CONTINUOUS
 62
     3
 10
11559.53018819257
 20
18121.25848348028
 30
0.0
 11
11559.53018819257
 21
19878.955395421941
 31
0.0
  0
LINE
  5
D64E
  8
0-1
  6
CONTINUOUS
 62
     3
 10
11522.529027192581
 20
18105.991523510798
 30
0.0
 11
11522.529027192581
 21
19878.955395421941
 31
0.0
  0
LINE
  5
D64F
  8
0-1
  6
CONTINUOUS
 62
     3
 10
11359.530518192551
 20
18038.737101089129
 30
0.0
 11
11359.530518192551
 21
19878.955395421941
 31
0.0
  0
LINE
  5
D650
  8
0-1
  6
CONTINUOUS
 62
     3
 10
11322.53034719258
 20
18023.470549601181
 30
0.0
 11
11322.53034719258
 21
19878.955395421941
 31
0.0
  0
LINE
  5
D651
  8
0-1
  6
CONTINUOUS
 62
     3
 10
11159.529859192549
 20
17956.215310629079
 30
0.0
 11
11159.529859192549
 21
19878.955395421941
 31
0.0
  0
LINE
  5
D652
  8
0-1
  6
CONTINUOUS
 62
     3
 10
11122.52968719256
 20
17940.9487587285
 30
0.0
 11
11122.52968719256
 21
19878.955395421941
 31
0.0
  0
LINE
  5
D653
  8
0-1
  6
CONTINUOUS
 62
     3
 10
12559.530518192551
 20
18543.86631739905
 30
0.0
 11
12559.530518192551
 21
19878.955395421941
 31
0.0
  0
LINE
  5
D654
  8
0-1
  6
CONTINUOUS
 62
     3
 10
12522.531337192549
 20
18528.600174392621
 30
0.0
 11
12522.531337192549
 21
19878.955395421941
 31
0.0
  0
LINE
  5
D655
  8
0-1
  6
CONTINUOUS
 62
     3
 10
13379.53131019258
 20
16841.457797421961
 30
0.0
 11
10812.031310192569
 21
16841.457797421961
 31
0.0
  0
LINE
  5
D656
  8
0-1
  6
CONTINUOUS
 62
     3
 10
10812.031310192569
 20
16841.457797421961
 30
0.0
 11
8457.7920997029505
 21
16841.457797421961
 31
0.0
  0
LINE
  5
D657
  8
2-0
  6
DASHED3
 62
     6
 10
8457.7920997029505
 20
16841.457797421961
 30
0.0
 11
8012.0313101925813
 21
16841.457797421961
 31
0.0
  0
LINE
  5
D658
  8
0-1
  6
CONTINUOUS
 62
     3
 10
10882.03041054873
 20
16796.457323080809
 30
0.0
 11
13309.530584192569
 21
13878.455421421961
 31
0.0
  0
LINE
  5
D659
  8
0-1
  6
CONTINUOUS
 62
     3
 10
13309.530584192569
 20
16796.455421421939
 30
0.0
 11
10882.030056192571
 21
13878.455421421961
 31
0.0
  0
LINE
  5
D65A
  8
0-1
  6
CONTINUOUS
 62
     3
 10
12209.30492595372
 20
18391.919417781639
 30
0.0
 11
10882.03041054873
 21
16796.457323080809
 31
0.0
  0
LINE
  5
D65B
  8
0-1
  6
CONTINUOUS
 62
     3
 10
12040.42302533335
 20
18321.99818198409
 30
0.0
 11
13309.530584192569
 21
16796.455421421939
 31
0.0
  0
LINE
  5
D65C
  8
0-1
  6
CONTINUOUS
 62
     3
 10
13447.032537192579
 20
18903.035202268471
 30
0.0
 11
13447.032537192579
 21
19919.456345421921
 31
0.0
  0
LINE
  5
D65D
  8
0-1
  6
CONTINUOUS
 62
     3
 10
13391.531785192579
 20
19901.957400421921
 30
0.0
 11
13391.531785192579
 21
19931.95700442194
 31
0.0
  0
LINE
  5
D65E
  8
0-1
  6
CONTINUOUS
 62
     3
 10
13465.03131019258
 20
19931.95700442194
 30
0.0
 11
13465.03131019258
 21
19896.955157421951
 31
0.0
  0
LINE
  5
D65F
  8
0-1
  6
CONTINUOUS
 62
     3
 10
13396.53204919259
 20
19936.955289421941
 30
0.0
 11
13460.032036192581
 21
19936.955289421941
 31
0.0
  0
LINE
  5
D660
  8
0-1
  6
CONTINUOUS
 62
     3
 10
13447.032537192579
 20
19919.456345421921
 30
0.0
 11
13465.03131019258
 21
19919.456345421921
 31
0.0
  0
LINE
  5
D661
  8
0-1
  6
CONTINUOUS
 62
     3
 10
13447.032537192579
 20
19896.955157421951
 30
0.0
 11
13396.53204919259
 21
19896.955157421951
 31
0.0
  0
LINE
  5
D662
  8
2-0
  6
DASHED3
 62
     6
 10
13379.53131019258
 20
19675.45692542195
 30
0.0
 11
8012.0313101925813
 21
19675.45692542195
 31
0.0
  0
LINE
  5
D663
  8
2-0
  6
DASHED3
 62
     6
 10
13422.030584192569
 20
18893.957274494071
 30
0.0
 11
13422.030584192569
 21
19760.457453421961
 31
0.0
  0
LINE
  5
D664
  8
2-0
  6
DASHED3
 62
     6
 10
13379.53131019258
 20
18876.421751354948
 30
0.0
 11
13379.53131019258
 21
19760.457453421961
 31
0.0
  0
LINE
  5
D665
  8
2-0
  6
DASHED3
 62
     6
 10
13422.030584192569
 20
19760.457453421961
 30
0.0
 11
8012.0313101925813
 21
19760.457453421961
 31
0.0
  0
LINE
  5
D666
  8
2-0
  6
DASHED3
 62
     6
 10
10812.031310192569
 20
17812.83477083921
 30
0.0
 11
10812.031310192569
 21
19760.457453421961
 31
0.0
  0
LINE
  5
D667
  8
2-0
  6
DASHED3
 62
     6
 10
10769.530056192571
 20
17795.29843073705
 30
0.0
 11
10769.530056192571
 21
19760.457453421961
 31
0.0
  0
LINE
  5
D668
  8
2-0
  6
DASHED3
 62
     6
 10
13309.530584192569
 20
19714.45542142195
 30
0.0
 11
12209.30492595372
 21
18391.919417781639
 31
0.0
  0
LINE
  5
D669
  8
2-0
  6
DASHED3
 62
     6
 10
10882.030056192571
 20
19714.45542142195
 30
0.0
 11
12040.42302533335
 21
18321.99818198409
 31
0.0
  0
LINE
  5
D66A
  8
2-0
  6
CENTER2
 62
     6
 10
10812.031310192569
 20
20956.95766442196
 30
0.0
 11
10812.031310192569
 21
20006.957004421929
 31
0.0
  0
LINE
  5
D66B
  8
2-0
  6
CENTER2
 62
     6
 10
14709.03141519256
 20
19714.45542142195
 30
0.0
 11
13062.532194192579
 21
19714.45542142195
 31
0.0
  0
LINE
  5
D66C
  8
0-8
  6
CONTINUOUS
 62
     6
 10
13379.53131019258
 20
20956.95766442196
 30
0.0
 11
13379.53131019258
 21
20006.957004421929
 31
0.0
  0
LINE
  5
D66D
  8
2-0
  6
CENTER2
 62
     6
 10
14709.03141519256
 20
16796.455421421939
 30
0.0
 11
7840.2318621925733
 21
16796.455421421939
 31
0.0
  0
LINE
  5
D66E
  8
2-0
  6
CENTER2
 62
     6
 10
14709.03141519256
 20
13878.455421421961
 30
0.0
 11
13062.532194192579
 21
13878.455421421961
 31
0.0
  0
ARC
  5
D66F
  8
0-1
  6
CONTINUOUS
 62
     3
 10
13396.53204919259
 20
19901.957400421921
 30
0.0
 40
5.0
 50
180.0
 51
270.00001499981897
  0
ARC
  5
D670
  8
0-1
  6
CONTINUOUS
 62
     3
 10
13396.52934787509
 20
19931.95812334428
 30
0.0
 40
4.99729880777691
 50
89.969028448222716
 51
180.0128288362661
  0
ARC
  5
D671
  8
0-1
  6
CONTINUOUS
 62
     3
 10
13460.034962668809
 20
19931.95821660808
 30
0.0
 40
4.9970736707893684
 50
359.9861012352485
 51
90.033554587670935
  0
CIRCLE
  5
D672
  8
0-5
  6
CONTINUOUS
 62
     4
 10
10812.031310192569
 20
21156.956345421939
 30
0.0
 40
199.9999949999999
  0
CIRCLE
  5
D673
  8
0-5
  6
CONTINUOUS
 62
     4
 10
13379.53131019258
 20
21156.956345421939
 30
0.0
 40
199.9999949999999
  0
CIRCLE
  5
D674
  8
0-5
  6
CONTINUOUS
 62
     4
 10
14909.031086192561
 20
19714.45542142195
 30
0.0
 40
199.9999949999999
  0
CIRCLE
  5
D675
  8
0-5
  6
CONTINUOUS
 62
     4
 10
14909.031086192561
 20
16796.455421421939
 30
0.0
 40
199.9999949999999
  0
CIRCLE
  5
D676
  8
0-5
  6
CONTINUOUS
 62
     4
 10
14909.031086192561
 20
13878.455421421961
 30
0.0
 40
199.9999949999999
  0
TEXT
  5
D677
  8
0-5
  6
CONTINUOUS
 62
     7
 10
10759.081849525881
 20
21067.74142242195
 30
0.0
 40
160.0
  1
2
 72
     4
 11
10812.41518285922
 21
21147.74142242195
 31
0.0
  0
TEXT
  5
D678
  8
0-5
  6
CONTINUOUS
 62
     7
 10
13326.197976859239
 20
21076.956345421939
 30
0.0
 40
160.0
  1
3
 72
     4
 11
13379.53131019258
 21
21156.956345421939
 31
0.0
  0
TEXT
  5
D679
  8
0-5
  6
CONTINUOUS
 62
     7
 10
14855.8242875259
 20
19634.866897421951
 30
0.0
 40
160.0
  1
C
 72
     4
 11
14909.157620859231
 21
19714.866897421951
 31
0.0
  0
TEXT
  5
D67A
  8
0-5
  6
CONTINUOUS
 62
     7
 10
14855.8242875259
 20
16716.867887421951
 30
0.0
 40
160.0
  1
B
 72
     4
 11
14909.157620859231
 21
16796.867887421951
 31
0.0
  0
TEXT
  5
D67B
  8
0-5
  6
CONTINUOUS
 62
     7
 10
14855.8242875259
 20
13798.866897421951
 30
0.0
 40
160.0
  1
A
 72
     4
 11
14909.157620859231
 21
13878.866897421951
 31
0.0
  0
LINE
  5
D67C
  8
2-0
  6
CENTER2
 62
     6
 10
8012.0313101925813
 20
20956.95766442196
 30
0.0
 11
8012.0313101925813
 21
20006.957004421929
 31
0.0
  0
CIRCLE
  5
D67D
  8
0-5
  6
CONTINUOUS
 62
     4
 10
8012.0313101925813
 20
21156.956345421939
 30
0.0
 40
199.9999949999999
  0
TEXT
  5
D67E
  8
0-5
  6
CONTINUOUS
 62
     7
 10
7985.7485161925606
 20
21067.74142242195
 30
0.0
 40
160.0
  1
1
 72
     4
 11
8012.4151828592267
 21
21147.74142242195
 31
0.0
  0
LINE
  5
D67F
  8
0-1
  6
CONTINUOUS
 62
     3
 10
7944.5310721925689
 20
16630.920223182551
 30
0.0
 11
7944.5310721925689
 21
19919.456345421921
 31
0.0
  0
LINE
  5
D680
  8
0-1
  6
CONTINUOUS
 62
     3
 10
7944.5310721925689
 20
19919.456345421921
 30
0.0
 11
7926.5313101925794
 21
19919.456345421921
 31
0.0
  0
LINE
  5
D681
  8
0-1
  6
CONTINUOUS
 62
     3
 10
8000.0318241925643
 20
19901.957400421921
 30
0.0
 11
8000.0318241925643
 21
19931.95700442194
 31
0.0
  0
LINE
  5
D682
  8
0-1
  6
CONTINUOUS
 62
     3
 10
7944.5310721925689
 20
19896.955157421951
 30
0.0
 11
7995.0305701925599
 21
19896.955157421951
 31
0.0
  0
LINE
  5
D683
  8
0-1
  6
CONTINUOUS
 62
     3
 10
7926.5313101925794
 20
19931.95700442194
 30
0.0
 11
7926.5313101925794
 21
19896.955157421951
 31
0.0
  0
LINE
  5
D684
  8
0-1
  6
CONTINUOUS
 62
     3
 10
7995.0305701925599
 20
19936.955289421941
 30
0.0
 11
7931.5325631925789
 21
19936.955289421941
 31
0.0
  0
ARC
  5
D685
  8
0-1
  6
CONTINUOUS
 62
     3
 10
7931.5325631925789
 20
19931.95700442194
 30
0.0
 40
5.0
 50
90.0
 51
180.0
  0
ARC
  5
D686
  8
0-1
  6
CONTINUOUS
 62
     3
 10
7995.0305701925599
 20
19931.95700442194
 30
0.0
 40
5.0
 50
0.000000000000007
 51
90.0
  0
ARC
  5
D687
  8
0-1
  6
CONTINUOUS
 62
     3
 10
7995.0305701925599
 20
19901.957400421921
 30
0.0
 40
5.0
 50
270.00001499981897
 51
0.000000000000007
  0
LINE
  5
D688
  8
0-1
  6
CONTINUOUS
 62
     3
 10
10812.031310192569
 20
13841.95606842195
 30
0.0
 11
10812.031310192569
 21
13685.95614742195
 31
0.0
  0
LINE
  5
D689
  8
0-1
  6
CONTINUOUS
 62
     3
 10
13889.80275325945
 20
19087.686604251368
 30
0.0
 11
10403.23285684793
 21
17644.161425081362
 31
0.0
  0
LINE
  5
D68A
  8
0-1
  6
CONTINUOUS
 62
     3
 10
9478.8302512022929
 20
17262.745891226441
 30
0.0
 11
7663.9438832108144
 21
16513.909995799699
 31
0.0
  0
LINE
  5
D68B
  8
0-1
  6
CONTINUOUS
 62
     3
 10
8062.0309411925628
 20
13717.95605442196
 30
0.0
 11
8062.0309411925628
 21
16679.401561280039
 31
0.0
  0
LINE
  5
D68C
  8
0-1
  6
CONTINUOUS
 62
     3
 10
7926.5313101925794
 20
13685.95614742195
 30
0.0
 11
7926.5313101925794
 21
16623.492813251982
 31
0.0
  0
LINE
  5
D68D
  8
0-1
  6
CONTINUOUS
 62
     3
 10
8012.0313101925813
 20
13841.95606842195
 30
0.0
 11
8012.0313101925813
 21
16657.533511116071
 31
0.0
  0
LINE
  5
D68E
  8
0-1
  6
CONTINUOUS
 62
     3
 10
7966.5300561925624
 20
13841.95606842195
 30
0.0
 11
7966.5300561925624
 21
16639.9971710139
 31
0.0
  0
LINE
  5
D68F
  8
0-1
  6
CONTINUOUS
 62
     3
 10
8062.0309411925628
 20
16679.401561280039
 30
0.0
 11
8062.0309411925628
 21
19878.955395421948
 31
0.0
  0
LINE
  5
D690
  8
0-1
  6
CONTINUOUS
 62
     3
 10
7926.5313101925794
 20
16623.492813251982
 30
0.0
 11
7926.5313101925794
 21
19919.456345421921
 31
0.0
  0
LINE
  5
D691
  8
2-0
  6
DASHED3
 62
     6
 10
8012.0313101925813
 20
16657.533511116071
 30
0.0
 11
8012.0313101925813
 21
19906.957664421949
 31
0.0
  0
LINE
  5
D692
  8
2-0
  6
DASHED3
 62
     6
 10
7969.5300561925624
 20
16639.9971710139
 30
0.0
 11
7969.5300561925624
 21
19896.955157421951
 31
0.0
  0
LINE
  5
D693
  8
0-1
  6
CONTINUOUS
 62
     3
 10
10959.52919919257
 20
17873.693519756409
 30
0.0
 11
10959.529199192561
 21
19878.955395421941
 31
0.0
  0
LINE
  5
D694
  8
0-1
  6
CONTINUOUS
 62
     3
 10
10922.529027192561
 20
17858.426967855841
 30
0.0
 11
10922.529027192561
 21
19878.955395421948
 31
0.0
  0
LINE
  5
D695
  8
0-1
  6
CONTINUOUS
 62
     3
 10
10759.52853919255
 20
17791.171728883732
 30
0.0
 11
10759.52853919255
 21
19878.955395421941
 31
0.0
  0
LINE
  5
D696
  8
0-1
  6
CONTINUOUS
 62
     3
 10
10722.528367192541
 20
17775.905176983171
 30
0.0
 11
10722.528367192541
 21
19878.955395421948
 31
0.0
  0
LINE
  5
D697
  8
0-1
  6
CONTINUOUS
 62
     3
 10
10559.527879192539
 20
17708.649938011062
 30
0.0
 11
10559.527879192539
 21
19878.955395421941
 31
0.0
  0
LINE
  5
D698
  8
0-1
  6
CONTINUOUS
 62
     3
 10
10522.527707192519
 20
17693.383386110509
 30
0.0
 11
10522.527707192519
 21
19878.955395421948
 31
0.0
  0
LINE
  5
D699
  8
0-1
  6
CONTINUOUS
 62
     3
 10
10359.527219192531
 20
17750.086857435181
 30
0.0
 11
10359.527219192531
 21
19878.955395421941
 31
0.0
  0
LINE
  5
D69A
  8
0-1
  6
CONTINUOUS
 62
     3
 10
10322.527047192531
 20
17839.76085434993
 30
0.0
 11
10322.527047192531
 21
19878.955395421948
 31
0.0
  0
LINE
  5
D69B
  8
0-1
  6
CONTINUOUS
 62
     3
 10
10159.526559192531
 20
17704.683263369581
 30
0.0
 11
10159.526559192531
 21
19878.955395421941
 31
0.0
  0
LINE
  5
D69C
  8
0-1
  6
CONTINUOUS
 62
     3
 10
10122.52638719252
 20
17662.140022980711
 30
0.0
 11
10122.52638719252
 21
19878.955395421948
 31
0.0
  0
LINE
  5
D69D
  8
0-1
  6
CONTINUOUS
 62
     3
 10
9959.5258991925166
 20
17474.720111946601
 30
0.0
 11
9959.525899192522
 21
19878.955395421941
 31
0.0
  0
LINE
  5
D69E
  8
0-1
  6
CONTINUOUS
 62
     3
 10
9922.5257271925093
 20
17432.17687155772
 30
0.0
 11
9922.5257271925093
 21
19878.955395421948
 31
0.0
  0
LINE
  5
D69F
  8
0-1
  6
CONTINUOUS
 62
     3
 10
9759.5252391925114
 20
17244.756960523609
 30
0.0
 11
9759.5252391925114
 21
19878.955395421941
 31
0.0
  0
LINE
  5
D6A0
  8
0-1
  6
CONTINUOUS
 62
     3
 10
9722.5250671925041
 20
17202.213720134721
 30
0.0
 11
9722.5250671925041
 21
19878.955395421948
 31
0.0
  0
LINE
  5
D6A1
  8
0-1
  6
CONTINUOUS
 62
     3
 10
9559.5245791924972
 20
17067.164947913789
 30
0.0
 11
9559.5245791924972
 21
19878.955395421941
 31
0.0
  0
LINE
  5
D6A2
  8
0-1
  6
CONTINUOUS
 62
     3
 10
9522.5244071924899
 20
17156.84322794569
 30
0.0
 11
9522.5244071924899
 21
19878.955395421948
 31
0.0
  0
LINE
  5
D6A3
  8
0-1
  6
CONTINUOUS
 62
     3
 10
9359.523919192492
 20
17213.519192775049
 30
0.0
 11
9359.523919192492
 21
19878.955395421941
 31
0.0
  0
LINE
  5
D6A4
  8
0-1
  6
CONTINUOUS
 62
     3
 10
9322.5237471924847
 20
17198.252640874482
 30
0.0
 11
9322.5237471924847
 21
19878.955395421948
 31
0.0
  0
LINE
  5
D6A5
  8
0-1
  6
CONTINUOUS
 62
     3
 10
9159.5232591924796
 20
17130.997401902368
 30
0.0
 11
9159.5232591924869
 21
19878.955395421941
 31
0.0
  0
LINE
  5
D6A6
  8
0-1
  6
CONTINUOUS
 62
     3
 10
9122.5230871924723
 20
17115.730850001812
 30
0.0
 11
9122.5230871924723
 21
19878.955395421948
 31
0.0
  0
LINE
  5
D6A7
  8
0-1
  6
CONTINUOUS
 62
     3
 10
8959.5225991924744
 20
17048.475611029698
 30
0.0
 11
8959.5225991924744
 21
19878.955395421941
 31
0.0
  0
LINE
  5
D6A8
  8
0-1
  6
CONTINUOUS
 62
     3
 10
8922.5224271924671
 20
17033.209059129149
 30
0.0
 11
8922.5224271924671
 21
19878.955395421948
 31
0.0
  0
LINE
  5
D6A9
  8
0-1
  6
CONTINUOUS
 62
     3
 10
8759.5219391924602
 20
16965.953820157029
 30
0.0
 11
8759.5219391924602
 21
19878.955395421941
 31
0.0
  0
LINE
  5
D6AA
  8
0-1
  6
CONTINUOUS
 62
     3
 10
8722.5217671924529
 20
16950.687268256461
 30
0.0
 11
8722.521767192462
 21
19878.955395421948
 31
0.0
  0
LINE
  5
D6AB
  8
0-1
  6
CONTINUOUS
 62
     3
 10
8559.5212791924587
 20
16883.432029284369
 30
0.0
 11
8559.5212791924587
 21
19878.955395421941
 31
0.0
  0
LINE
  5
D6AC
  8
0-1
  6
CONTINUOUS
 62
     3
 10
8522.5211071924496
 20
16868.165477383809
 30
0.0
 11
8522.5211071924423
 21
19878.955395421948
 31
0.0
  0
LINE
  5
D6AD
  8
0-1
  6
CONTINUOUS
 62
     3
 10
10643.030056192571
 20
13878.455421421961
 30
0.0
 11
8231.9944838845458
 21
16748.291986708551
 31
0.0
  0
LINE
  5
D6AE
  8
0-1
  6
CONTINUOUS
 62
     3
 10
8191.5309411925637
 20
13878.455421421961
 30
0.0
 11
10643.030056192571
 21
16796.455421421961
 31
0.0
  0
LINE
  5
D6AF
  8
2-0
  6
DASHED3
 62
     6
 10
10643.030056192571
 20
19714.45542142195
 30
0.0
 11
8191.5309411925637
 21
16796.455421421939
 31
0.0
  0
LINE
  5
D6B0
  8
2-0
  6
DASHED3
 62
     6
 10
8191.5309411925637
 20
19714.45542142195
 30
0.0
 11
10017.34593481979
 21
17541.20228059663
 31
0.0
  0
LINE
  5
D6B1
  8
0-1
  6
CONTINUOUS
 62
     3
 10
10017.34593481979
 20
17541.20228059663
 30
0.0
 11
10643.030056192571
 21
16796.455421421961
 31
0.0
  0
LINE
  5
D6B2
  8
0-1
  6
CONTINUOUS
 62
     3
 10
10403.2333946077
 20
17644.160121761241
 30
0.0
 11
10307.87937428417
 21
17875.261104867441
 31
0.0
  0
LINE
  5
D6B3
  8
0-1
  6
CONTINUOUS
 62
     3
 10
9574.1798421009644
 20
17031.644605709811
 30
0.0
 11
9478.8291924234527
 21
17262.748457416281
 31
0.0
  0
LINE
  5
D6B4
  8
0-1
  6
CONTINUOUS
 62
     3
 10
9574.1798421009644
 20
17031.644605709811
 30
0.0
 11
10307.87937428417
 21
17875.261104867441
 31
0.0
  0
LINE
  5
D6B5
  8
2-0
  6
DASHED3
 62
     6
 10
8191.5309411925637
 20
16796.455421421939
 30
0.0
 11
8231.9944838845458
 21
16748.291986708551
 31
0.0
  0
LINE
  5
D6B6
  8
SUNPOU
  6
CONTINUOUS
 10
14309.031086192561
 20
19936.953309921959
 30
0.0
 11
14309.031086192561
 21
20733.920577700432
 31
0.0
  0
LINE
  5
D6B7
  8
SUNPOU
  6
CONTINUOUS
 10
14309.031086192579
 20
12944.643557269759
 30
0.0
 11
14309.031086192579
 21
13685.95614742195
 31
0.0
  0
LINE
  5
D6B8
  8
0-1
  6
CONTINUOUS
 62
     3
 10
12959.52985919256
 20
18702.530882156982
 30
0.0
 11
12959.52985919256
 21
19878.955395421941
 31
0.0
  0
LINE
  5
D6B9
  8
0-1
  6
CONTINUOUS
 62
     3
 10
12922.529687192549
 20
18687.21190634336
 30
0.0
 11
12922.529687192549
 21
19878.955395421941
 31
0.0
  0
LINE
  5
D6BA
  8
0-1
  6
CONTINUOUS
 62
     3
 10
12759.530188192561
 20
18619.726128633662
 30
0.0
 11
12759.530188192561
 21
19878.955395421941
 31
0.0
  0
LINE
  5
D6BB
  8
0-1
  6
CONTINUOUS
 62
     3
 10
12722.52902719257
 20
18604.406743349849
 30
0.0
 11
12722.52902719257
 21
19878.955395421941
 31
0.0
  0
LINE
  5
D6BC
  8
0-1
  6
CONTINUOUS
 62
     3
 10
8359.5206191924372
 20
16800.910238411729
 30
0.0
 11
8359.5206191924372
 21
19878.955395421941
 31
0.0
  0
LINE
  5
D6BD
  8
0-1
  6
CONTINUOUS
 62
     3
 10
8322.5204471924299
 20
16785.643686511161
 30
0.0
 11
8322.5204471924353
 21
19878.955395421948
 31
0.0
  0
LINE
  5
D6BE
  8
0-1
  6
CONTINUOUS
 62
     3
 10
8159.5199591924347
 20
16718.388447539051
 30
0.0
 11
8159.5199591924347
 21
19878.955395421941
 31
0.0
  0
LINE
  5
D6BF
  8
0-1
  6
CONTINUOUS
 62
     3
 10
8122.5197871924274
 20
16703.121895638491
 30
0.0
 11
8122.5197871924183
 21
19878.955395421948
 31
0.0
  0
LINE
  5
D6C0
  8
0-1
  6
CONTINUOUS
 62
     3
 10
8003.0308351925714
 20
19926.95872042195
 30
0.0
 11
13391.531785192579
 21
19926.95872042195
 31
0.0
  0
LINE
  5
D6C1
  8
0-1
  6
CONTINUOUS
 62
     3
 10
7947.5310721925689
 20
19878.955395421941
 30
0.0
 11
13447.032537192579
 21
19878.955395421941
 31
0.0
  0
LINE
  5
D6C2
  8
0-6
  6
CONTINUOUS
 62
     6
 10
11900.95777856353
 20
20069.36132842195
 30
0.0
 11
11857.655809563519
 21
20044.360008421951
 31
0.0
  0
LINE
  5
D6C3
  8
0-6
  6
CONTINUOUS
 62
     6
 10
11900.95777856353
 20
20069.36132842195
 30
0.0
 11
11954.305804563541
 21
19926.958720421921
 31
0.0
  0
LINE
  5
D6C4
  8
0-6
  6
CONTINUOUS
 62
     6
 10
11857.655809563519
 20
20044.360008421951
 30
0.0
 11
11900.95777856353
 21
20069.36132842195
 31
0.0
  0
LINE
  5
D6C5
  8
0-6
  6
CONTINUOUS
 62
     6
 10
11954.305804563541
 20
19926.958720421921
 30
0.0
 11
11857.655809563519
 21
20044.360008421951
 31
0.0
  0
LINE
  5
D6C6
  8
0-6
  6
CONTINUOUS
 62
     6
 10
11954.305804563541
 20
19926.958720421921
 30
0.0
 11
11900.95777856353
 21
20069.36132842195
 31
0.0
  0
LINE
  5
D6C7
  8
0-6
  6
CONTINUOUS
 62
     6
 10
11857.655809563519
 20
20044.360008421951
 30
0.0
 11
11954.305804563541
 21
19926.958720421921
 31
0.0
  0
LINE
  5
D6C8
  8
0-6
  6
CONTINUOUS
 62
     6
 10
11879.30778356355
 20
20056.86264842196
 30
0.0
 11
11653.721966893851
 21
20480.532488153061
 31
0.0
  0
TEXT
  5
D6C9
  8
0-6
  6
CONTINUOUS
 62
     7
 10
11480.050763563529
 20
21036.957928421951
 30
0.0
 40
160.0
  1
鼻隠し後
 72
     4
 11
11842.717430230199
 21
21116.957928421951
 31
0.0
  0
LINE
  5
D6CA
  8
0-6
  6
CONTINUOUS
 62
     6
 10
11400.04851956355
 20
20956.957664421949
 30
0.0
 11
12242.48807856354
 21
20956.957664421949
 31
0.0
  0
LINE
  5
D6CB
  8
0-6
  6
CONTINUOUS
 62
     6
 10
11585.688107841341
 20
20608.307167105351
 30
0.0
 11
11400.04851956355
 21
20956.957664421949
 31
0.0
  0
LINE
  5
D6CC
  8
0-6
  6
CONTINUOUS
 62
     6
 10
9436.216199369228
 20
19739.95691242196
 30
0.0
 11
9329.5211373692146
 21
19862.132799421961
 31
0.0
  0
LINE
  5
D6CD
  8
0-6
  6
CONTINUOUS
 62
     6
 10
9374.9105093692197
 20
19890.133089421961
 30
0.0
 11
9436.216199369228
 21
19739.95691242196
 31
0.0
  0
LINE
  5
D6CE
  8
0-6
  6
CONTINUOUS
 62
     6
 10
9374.9105093692197
 20
19890.133089421961
 30
0.0
 11
9329.5211373692146
 21
19862.132799421961
 31
0.0
  0
LINE
  5
D6CF
  8
0-6
  6
CONTINUOUS
 62
     6
 10
9436.216199369228
 20
19739.95691242196
 30
0.0
 11
9142.2883723692194
 21
20146.45501242195
 31
0.0
  0
LINE
  5
D6D0
  8
0-6
  6
CONTINUOUS
 62
     6
 10
8342.2867233692086
 20
20146.45501242195
 30
0.0
 11
9142.2883723692194
 21
20146.45501242195
 31
0.0
  0
TEXT
  5
D6D1
  8
0-6
  6
CONTINUOUS
 62
     7
 10
8438.2879773692403
 20
20226.455276421952
 30
0.0
 40
160.0
  1
桁（P）
 72
     4
 11
8742.2879773692403
 21
20306.455276421952
 31
0.0
  0
LINE
  5
D6D2
  8
0-6
  6
CONTINUOUS
 62
     6
 10
9269.1424857184757
 20
13144.28523502238
 30
0.0
 11
10165.081155187931
 21
13144.28523502238
 31
0.0
  0
TEXT
  5
D6D3
  8
0-6
  6
CONTINUOUS
 62
     7
 10
9316.3504731112916
 20
13224.28549902239
 30
0.0
 40
160.0
  1
桁前（P）
 72
     4
 11
9716.3504731112916
 21
13304.28549902239
 31
0.0
  0
LINE
  5
D6D4
  8
0-6
  6
CONTINUOUS
 62
     6
 10
9269.1424857184757
 20
13144.28523502238
 30
0.0
 11
8953.8512351039099
 21
13675.45571142199
 31
0.0
  0
LINE
  5
D6D5
  8
0-6
  6
CONTINUOUS
 62
     6
 10
9170.3838999709133
 20
16209.784114022381
 30
0.0
 11
9970.385548970924
 21
16209.784114022381
 31
0.0
  0
TEXT
  5
D6D6
  8
0-6
  6
CONTINUOUS
 62
     7
 10
9266.3851539709485
 20
16289.78437802239
 30
0.0
 40
160.0
  1
桁（P）
 72
     4
 11
9570.3851539709485
 21
16369.78437802239
 31
0.0
  0
TEXT
  5
D6DF
  8
0-6
  6
CONTINUOUS
 62
     7
 10
6075.5819589926496
 20
12965.95575142196
 30
0.0
 40
160.0
  1
梁（P）前
 72
     4
 11
6518.2486256593174
 21
13045.95575142196
 31
0.0
  0
LINE
  5
D6E0
  8
0-6
  6
CONTINUOUS
 62
     6
 10
6011.3842708106113
 20
12885.95647742196
 30
0.0
 11
7026.3744401354552
 21
12885.95647742196
 31
0.0
  0
LINE
  5
D6E1
  8
0-1
  6
CONTINUOUS
 62
     3
 10
13159.529530192551
 20
18785.335635680301
 30
0.0
 11
13159.529530192551
 21
19878.955395421941
 31
0.0
  0
LINE
  5
D6E2
  8
0-1
  6
CONTINUOUS
 62
     3
 10
13122.529358192551
 20
18770.01665986668
 30
0.0
 11
13122.529358192551
 21
19878.955395421941
 31
0.0
  0
LINE
  5
D6E5
  8
WAKUSEN-01
 10
868.00000000000193
 20
22484.000000000011
 30
0.0
 11
32764.000000000011
 21
22484.000000000011
 31
0.0
  0
LINE
  5
D6E8
  8
WAKUSEN-01
 10
20560.0
 20
2484.0
 30
0.0
 11
32764.0
 21
2484.0
 31
0.0
  0
LINE
  5
D6E9
  8
WAKUSEN-02
 10
20560.0
 20
1655.9999999999991
 30
0.0
 11
26868.0
 21
1655.9999999999991
 31
0.0
  0
TEXT
  5
D6EA
  8
WAKUMOJI-01
 10
20670.260259962761
 20
2125.9030093393221
 30
0.0
 40
240.0
  1
名　称
  7
WAKUMOJI
  0
TEXT
  5
D6EB
  8
WAKUMOJI-01
 10
20656.505485091919
 20
1319.12897497982
 30
0.0
 40
240.0
  1
機種名
  7
WAKUMOJI
  0
LINE
  5
D6EE
  8
YODOROGO
 10
29977.604341291921
 20
1995.7494964292871
 30
0.0
 11
29829.604341291921
 21
1995.7494964292871
 31
0.0
1001
AUTOCAD_POSTSCRIPT_FIGURE
1002
{
1000
PSFILL
1000
Grayscale
1000
Grayscale
1070
    25
1002
}
  0
LINE
  5
D6EF
  8
YODOROGO
 10
29829.604341291921
 20
1947.749496429288
 30
0.0
 11
29977.604341291921
 21
1947.749496429288
 31
0.0
1001
AUTOCAD_POSTSCRIPT_FIGURE
1002
{
1000
PSFILL
1000
Grayscale
1000
Grayscale
1070
    25
1002
}
  0
LINE
  5
D6F0
  8
YODOROGO
 10
29977.604341291921
 20
1907.7494964292871
 30
0.0
 11
29829.604341291921
 21
1907.7494964292871
 31
0.0
1001
AUTOCAD_POSTSCRIPT_FIGURE
1002
{
1000
PSFILL
1000
Grayscale
1000
Grayscale
1070
    25
1002
}
  0
LINE
  5
D6F1
  8
YODOROGO
 10
29829.604341291921
 20
1859.749496429288
 30
0.0
 11
29977.604341291921
 21
1859.749496429288
 31
0.0
1001
AUTOCAD_POSTSCRIPT_FIGURE
1002
{
1000
PSFILL
1000
Grayscale
1000
Grayscale
1070
    25
1002
}
  0
LINE
  5
D6F2
  8
YODOROGO
 10
29977.604341291921
 20
1819.7494964292871
 30
0.0
 11
29829.604341291921
 21
1819.7494964292871
 31
0.0
1001
AUTOCAD_POSTSCRIPT_FIGURE
1002
{
1000
PSFILL
1000
Grayscale
1000
Grayscale
1070
    25
1002
}
  0
LINE
  5
D6F3
  8
YODOROGO
 10
29921.60434129191
 20
1707.749496429288
 30
0.0
 11
29977.604341291921
 21
1707.749496429288
 31
0.0
1001
AUTOCAD_POSTSCRIPT_FIGURE
1002
{
1000
PSFILL
1000
Grayscale
1000
Grayscale
1070
    25
1002
}
  0
LINE
  5
D6F4
  8
YODOROGO
 10
29737.604341291921
 20
1427.749496429288
 30
0.0
 11
29937.604341291932
 21
1481.3393349155101
 31
0.0
  0
LINE
  5
D6F5
  8
YODOROGO
 10
29949.60434129191
 20
1707.749496429288
 30
0.0
 11
29885.604341291921
 21
1707.749496429288
 31
0.0
  0
ARC
  5
D6F6
  8
YODOROGO
 10
30254.34774982791
 20
1807.864609233261
 30
0.0
 40
381.88686420564721
 50
213.96111677667841
 51
264.47872074317792
  0
ARC
  5
D6F7
  8
YODOROGO
 10
30254.347749827921
 20
1807.864609233302
 30
0.0
 40
381.8868642056816
 50
208.14114420486601
 51
212.9210361185994
  0
LINE
  5
D6F8
  8
YODOROGO
 10
29771.409872985321
 20
1556.807661346234
 30
0.0
 11
29933.78413250855
 21
1600.3157130570869
 31
0.0
  0
LINE
  5
D6F9
  8
YODOROGO
 10
29737.604341291921
 20
1427.749496429288
 30
0.0
 11
29937.604341291932
 21
1481.3393349155101
 31
0.0
  0
LINE
  5
D6FA
  8
YODOROGO
 10
29949.60434129191
 20
1707.749496429288
 30
0.0
 11
29885.604341291921
 21
1707.749496429288
 31
0.0
  0
ARC
  5
D6FB
  8
YODOROGO
 10
30254.34774982791
 20
1807.864609233261
 30
0.0
 40
381.88686420564721
 50
213.96111677667841
 51
264.47872074317792
  0
LINE
  5
D6FC
  8
YODOROGO
 10
28793.60434129191
 20
1819.7494964292871
 30
0.0
 11
28433.60434129191
 21
1819.7494964292871
 31
0.0
  0
LINE
  5
D6FD
  8
YODOROGO
 10
28513.60434129191
 20
1427.749496429288
 30
0.0
 11
28793.60434129191
 21
1427.749496429288
 31
0.0
  0
LINE
  5
D6FE
  8
YODOROGO
 10
28729.604341291921
 20
1923.7494964292871
 30
0.0
 11
28497.60434129191
 21
1923.7494964292871
 31
0.0
  0
LINE
  5
D6FF
  8
YODOROGO
 10
28585.604341291921
 20
2027.749496429288
 30
0.0
 11
28657.604341291921
 21
2027.749496429288
 31
0.0
  0
LINE
  5
D700
  8
YODOROGO
 10
28433.60434129191
 20
1707.749496429288
 30
0.0
 11
28433.60434129191
 21
1507.749496429288
 31
0.0
  0
LINE
  5
D701
  8
YODOROGO
 10
28497.60434129191
 20
1563.7494964292871
 30
0.0
 11
28497.60434129191
 21
1707.749496429288
 31
0.0
  0
LINE
  5
D702
  8
YODOROGO
 10
28585.604341291921
 20
1747.74949642929
 30
0.0
 11
28585.604341291921
 21
1547.749496429288
 31
0.0
  0
LINE
  5
D703
  8
YODOROGO
 10
27857.604341291921
 20
1683.749496429288
 30
0.0
 11
27777.604341291921
 21
1619.9724140445701
 31
0.0
  0
LINE
  5
D704
  8
YODOROGO
 10
27937.604341291921
 20
1619.9724140445701
 30
0.0
 11
27857.604341291921
 21
1683.749496429288
 31
0.0
  0
LINE
  5
D705
  8
YODOROGO
 10
27857.604341291921
 20
1707.749496429288
 30
0.0
 11
27937.604341291921
 21
1643.9724140445701
 31
0.0
  0
LINE
  5
D706
  8
YODOROGO
 10
27777.604341291921
 20
1643.9724140445701
 30
0.0
 11
27857.604341291921
 21
1707.749496429288
 31
0.0
  0
LINE
  5
D707
  8
YODOROGO
 10
28040.913204016892
 20
1659.749496429288
 30
0.0
 11
28040.913204016892
 21
1683.7494964292871
 31
0.0
  0
LINE
  5
D708
  8
YODOROGO
 10
27977.604341291921
 20
1683.7494964292871
 30
0.0
 11
27977.604341291921
 21
1667.749496429285
 31
0.0
  0
LINE
  5
D709
  8
YODOROGO
 10
28098.135520230931
 20
1707.749496429288
 30
0.0
 11
28098.135520230931
 21
1655.5036372746561
 31
0.0
1001
AUTOCAD_POSTSCRIPT_FIGURE
1002
{
1000
PSFILL
1000
Grayscale
1000
Grayscale
1070
   100
1002
}
  0
LINE
  5
D70A
  8
YODOROGO
 10
28082.135520230921
 20
1655.5036372746561
 30
0.0
 11
28082.135520230921
 21
1707.749496429288
 31
0.0
1001
AUTOCAD_POSTSCRIPT_FIGURE
1002
{
1000
PSFILL
1000
Grayscale
1000
Grayscale
1070
   100
1002
}
  0
LINE
  5
D70B
  8
YODOROGO
 10
27809.604341291921
 20
1608.771904043258
 30
0.0
 11
27809.604341291921
 21
1632.771904043258
 31
0.0
  0
LINE
  5
D70C
  8
YODOROGO
 10
27905.604341291921
 20
1608.771904043258
 30
0.0
 11
27809.604341291921
 21
1608.771904043258
 31
0.0
  0
LINE
  5
D70D
  8
YODOROGO
 10
27905.604341291921
 20
1632.771904043258
 30
0.0
 11
27905.604341291921
 21
1608.771904043258
 31
0.0
  0
LINE
  5
D70E
  8
YODOROGO
 10
27809.604341291921
 20
1632.771904043258
 30
0.0
 11
27905.604341291921
 21
1632.771904043258
 31
0.0
  0
LINE
  5
D70F
  8
YODOROGO
 10
27824.509588915738
 20
1568.5028573704751
 30
0.0
 11
27785.604341291921
 21
1475.7494964292871
 31
0.0
1001
AUTOCAD_POSTSCRIPT_FIGURE
1002
{
1000
PSFILL
1000
Grayscale
1000
Grayscale
1070
   100
1002
}
  0
LINE
  5
D710
  8
YODOROGO
 10
27777.604341291921
 20
1568.5028573704751
 30
0.0
 11
27824.509588915738
 21
1568.5028573704751
 31
0.0
1001
AUTOCAD_POSTSCRIPT_FIGURE
1002
{
1000
PSFILL
1000
Grayscale
1000
Grayscale
1070
   100
1002
}
  0
LINE
  5
D711
  8
YODOROGO
 10
27777.604341291921
 20
1588.5028573704751
 30
0.0
 11
27777.604341291921
 21
1568.5028573704751
 31
0.0
1001
AUTOCAD_POSTSCRIPT_FIGURE
1002
{
1000
PSFILL
1000
Grayscale
1000
Grayscale
1070
   100
1002
}
  0
LINE
  5
D712
  8
YODOROGO
 10
27937.604341291921
 20
1588.5028573704751
 30
0.0
 11
27777.604341291921
 21
1588.5028573704751
 31
0.0
1001
AUTOCAD_POSTSCRIPT_FIGURE
1002
{
1000
PSFILL
1000
Grayscale
1000
Grayscale
1070
   100
1002
}
  0
LINE
  5
D713
  8
YODOROGO
 10
27937.604341291921
 20
1568.5028573704751
 30
0.0
 11
27937.604341291921
 21
1588.5028573704751
 31
0.0
1001
AUTOCAD_POSTSCRIPT_FIGURE
1002
{
1000
PSFILL
1000
Grayscale
1000
Grayscale
1070
   100
1002
}
  0
LINE
  5
D714
  8
YODOROGO
 10
27844.509588915738
 20
1568.5028573704751
 30
0.0
 11
27937.604341291921
 21
1568.5028573704751
 31
0.0
1001
AUTOCAD_POSTSCRIPT_FIGURE
1002
{
1000
PSFILL
1000
Grayscale
1000
Grayscale
1070
   100
1002
}
  0
LINE
  5
D715
  8
YODOROGO
 10
27815.546718284771
 20
1495.7494964292871
 30
0.0
 11
27844.509588915738
 21
1568.5028573704751
 31
0.0
1001
AUTOCAD_POSTSCRIPT_FIGURE
1002
{
1000
PSFILL
1000
Grayscale
1000
Grayscale
1070
   100
1002
}
  0
LINE
  5
D716
  8
YODOROGO
 10
27902.054790808648
 20
1495.7494964292871
 30
0.0
 11
27815.546718284771
 21
1495.7494964292871
 31
0.0
1001
AUTOCAD_POSTSCRIPT_FIGURE
1002
{
1000
PSFILL
1000
Grayscale
1000
Grayscale
1070
   100
1002
}
  0
LINE
  5
D717
  8
YODOROGO
 10
27885.065004790951
 20
1536.2338106976929
 30
0.0
 11
27902.054790808648
 21
1495.7494964292871
 31
0.0
1001
AUTOCAD_POSTSCRIPT_FIGURE
1002
{
1000
PSFILL
1000
Grayscale
1000
Grayscale
1070
   100
1002
}
  0
LINE
  5
D718
  8
YODOROGO
 10
27901.065004790951
 20
1536.2338106976929
 30
0.0
 11
27885.065004790951
 21
1536.2338106976929
 31
0.0
1001
AUTOCAD_POSTSCRIPT_FIGURE
1002
{
1000
PSFILL
1000
Grayscale
1000
Grayscale
1070
   100
1002
}
  0
LINE
  5
D719
  8
YODOROGO
 10
27929.604341291921
 20
1475.7494964292871
 30
0.0
 11
27901.065004790951
 21
1536.2338106976929
 31
0.0
1001
AUTOCAD_POSTSCRIPT_FIGURE
1002
{
1000
PSFILL
1000
Grayscale
1000
Grayscale
1070
   100
1002
}
  0
LINE
  5
D71A
  8
YODOROGO
 10
27785.604341291921
 20
1475.7494964292871
 30
0.0
 11
27929.604341291921
 21
1475.7494964292871
 31
0.0
1001
AUTOCAD_POSTSCRIPT_FIGURE
1002
{
1000
PSFILL
1000
Grayscale
1000
Grayscale
1070
   100
1002
}
  0
LINE
  5
D71B
  8
YODOROGO
 10
27777.604341291921
 20
1619.9724140445701
 30
0.0
 11
27777.604341291921
 21
1643.9724140445701
 31
0.0
  0
LINE
  5
D71C
  8
YODOROGO
 10
27937.604341291921
 20
1643.9724140445701
 30
0.0
 11
27937.604341291921
 21
1619.9724140445701
 31
0.0
  0
ARC
  5
D71D
  8
YODOROGO
 10
28225.940442146959
 20
1600.877765325326
 30
0.0
 40
175.9999999999998
 50
280.3644312771313
 51
3.5414836592180561
  0
ARC
  5
D71E
  8
YODOROGO
 10
28235.756030759301
 20
1633.5978069619041
 30
0.0
 40
111.9999999999982
 50
281.24905825041549
 51
348.75094174958321
  0
LINE
  5
D71F
  8
YODOROGO
 10
28257.604341291921
 20
1523.7494964292871
 30
0.0
 11
28257.604341291921
 21
1427.749496429288
 31
0.0
  0
LINE
  5
D720
  8
YODOROGO
 10
28020.088903736909
 20
1610.650565061914
 30
0.0
 11
28040.913204016892
 21
1659.749496429288
 31
0.0
  0
LINE
  5
D721
  8
YODOROGO
 10
28041.604341291921
 20
1583.120489948401
 30
0.0
 11
28020.088903736909
 21
1610.650565061914
 31
0.0
  0
LINE
  5
D722
  8
YODOROGO
 10
28041.604341291921
 20
1563.120489948398
 30
0.0
 11
28041.604341291921
 21
1583.120489948401
 31
0.0
  0
LINE
  5
D723
  8
YODOROGO
 10
28017.604341291921
 20
1585.2370637495301
 30
0.0
 11
28041.604341291921
 21
1563.120489948398
 31
0.0
  0
LINE
  5
D724
  8
YODOROGO
 10
28017.604341291921
 20
1475.7494964292871
 30
0.0
 11
28017.604341291921
 21
1585.2370637495301
 31
0.0
  0
LINE
  5
D725
  8
YODOROGO
 10
28001.604341291921
 20
1475.7494964292871
 30
0.0
 11
28017.604341291921
 21
1475.7494964292871
 31
0.0
  0
LINE
  5
D726
  8
YODOROGO
 10
28001.604341291921
 20
1580.0053496897469
 30
0.0
 11
28001.604341291921
 21
1475.7494964292871
 31
0.0
  0
LINE
  5
D727
  8
YODOROGO
 10
27977.604341291921
 20
1532.7680790334291
 30
0.0
 11
28001.604341291921
 21
1580.0053496897469
 31
0.0
  0
LINE
  5
D728
  8
YODOROGO
 10
27977.604341291921
 20
1556.76807903343
 30
0.0
 11
27977.604341291921
 21
1532.7680790334291
 31
0.0
  0
LINE
  5
D729
  8
YODOROGO
 10
28025.828774291349
 20
1667.749496429285
 30
0.0
 11
27977.604341291921
 21
1556.76807903343
 31
0.0
  0
LINE
  5
D72A
  8
YODOROGO
 10
27977.604341291921
 20
1667.749496429285
 30
0.0
 11
28025.828774291349
 21
1667.749496429285
 31
0.0
  0
LINE
  5
D72B
  8
YODOROGO
 10
28050.135520230899
 20
1655.5036372746561
 30
0.0
 11
28082.135520230921
 21
1655.5036372746561
 31
0.0
1001
AUTOCAD_POSTSCRIPT_FIGURE
1002
{
1000
PSFILL
1000
Grayscale
1000
Grayscale
1070
   100
1002
}
  0
LINE
  5
D72C
  8
YODOROGO
 10
28050.135520230899
 20
1631.5036372746561
 30
0.0
 11
28050.135520230899
 21
1655.5036372746561
 31
0.0
1001
AUTOCAD_POSTSCRIPT_FIGURE
1002
{
1000
PSFILL
1000
Grayscale
1000
Grayscale
1070
   100
1002
}
  0
LINE
  5
D72D
  8
YODOROGO
 10
28082.135520230921
 20
1631.5036372746561
 30
0.0
 11
28050.135520230899
 21
1631.5036372746561
 31
0.0
1001
AUTOCAD_POSTSCRIPT_FIGURE
1002
{
1000
PSFILL
1000
Grayscale
1000
Grayscale
1070
   100
1002
}
  0
LINE
  5
D72E
  8
YODOROGO
 10
28082.135520230921
 20
1499.749496429288
 30
0.0
 11
28082.135520230921
 21
1631.5036372746561
 31
0.0
1001
AUTOCAD_POSTSCRIPT_FIGURE
1002
{
1000
PSFILL
1000
Grayscale
1000
Grayscale
1070
   100
1002
}
  0
LINE
  5
D72F
  8
YODOROGO
 10
28050.135520230921
 20
1499.749496429288
 30
0.0
 11
28082.135520230921
 21
1499.749496429288
 31
0.0
1001
AUTOCAD_POSTSCRIPT_FIGURE
1002
{
1000
PSFILL
1000
Grayscale
1000
Grayscale
1070
   100
1002
}
  0
LINE
  5
D730
  8
YODOROGO
 10
28050.135520230921
 20
1475.7494964292871
 30
0.0
 11
28050.135520230921
 21
1499.749496429288
 31
0.0
1001
AUTOCAD_POSTSCRIPT_FIGURE
1002
{
1000
PSFILL
1000
Grayscale
1000
Grayscale
1070
   100
1002
}
  0
LINE
  5
D731
  8
YODOROGO
 10
28137.604341291921
 20
1475.7494964292871
 30
0.0
 11
28050.135520230921
 21
1475.7494964292871
 31
0.0
1001
AUTOCAD_POSTSCRIPT_FIGURE
1002
{
1000
PSFILL
1000
Grayscale
1000
Grayscale
1070
   100
1002
}
  0
LINE
  5
D732
  8
YODOROGO
 10
28137.604341291921
 20
1499.749496429288
 30
0.0
 11
28137.604341291921
 21
1475.7494964292871
 31
0.0
1001
AUTOCAD_POSTSCRIPT_FIGURE
1002
{
1000
PSFILL
1000
Grayscale
1000
Grayscale
1070
   100
1002
}
  0
LINE
  5
D733
  8
YODOROGO
 10
28098.135520230931
 20
1499.749496429288
 30
0.0
 11
28137.604341291921
 21
1499.749496429288
 31
0.0
1001
AUTOCAD_POSTSCRIPT_FIGURE
1002
{
1000
PSFILL
1000
Grayscale
1000
Grayscale
1070
   100
1002
}
  0
LINE
  5
D734
  8
YODOROGO
 10
28098.135520230931
 20
1631.5036372746561
 30
0.0
 11
28098.135520230931
 21
1499.749496429288
 31
0.0
1001
AUTOCAD_POSTSCRIPT_FIGURE
1002
{
1000
PSFILL
1000
Grayscale
1000
Grayscale
1070
   100
1002
}
  0
LINE
  5
D735
  8
YODOROGO
 10
28137.604341291921
 20
1631.5036372746561
 30
0.0
 11
28098.135520230931
 21
1631.5036372746561
 31
0.0
1001
AUTOCAD_POSTSCRIPT_FIGURE
1002
{
1000
PSFILL
1000
Grayscale
1000
Grayscale
1070
   100
1002
}
  0
LINE
  5
D736
  8
YODOROGO
 10
28137.604341291921
 20
1655.5036372746561
 30
0.0
 11
28137.604341291921
 21
1631.5036372746561
 31
0.0
1001
AUTOCAD_POSTSCRIPT_FIGURE
1002
{
1000
PSFILL
1000
Grayscale
1000
Grayscale
1070
   100
1002
}
  0
LINE
  5
D737
  8
YODOROGO
 10
28098.135520230931
 20
1655.5036372746561
 30
0.0
 11
28137.604341291921
 21
1655.5036372746561
 31
0.0
1001
AUTOCAD_POSTSCRIPT_FIGURE
1002
{
1000
PSFILL
1000
Grayscale
1000
Grayscale
1070
   100
1002
}
  0
LINE
  5
D738
  8
YODOROGO
 10
28401.60434129191
 20
1667.749496429288
 30
0.0
 11
28345.604341291921
 21
1667.749496429288
 31
0.0
  0
LINE
  5
D739
  8
YODOROGO
 10
28401.60434129191
 20
1611.749496429288
 30
0.0
 11
28401.60434129191
 21
1667.749496429288
 31
0.0
  0
LINE
  5
D73A
  8
YODOROGO
 10
28345.604341291921
 20
1667.749496429288
 30
0.0
 11
28345.604341291921
 21
1611.749496429288
 31
0.0
  0
ARC
  5
D73B
  8
YODOROGO
 10
28513.60434129191
 20
1507.749496429288
 30
0.0
 40
80.0
 50
180.0
 51
270.0
  0
ARC
  5
D73C
  8
YODOROGO
 10
28537.604341291921
 20
1563.7494964292871
 30
0.0
 40
40.0
 50
180.0
 51
270.0
  0
LINE
  5
D73D
  8
YODOROGO
 10
28561.604341291932
 20
1523.7494964292871
 30
0.0
 11
28537.604341291921
 21
1523.7494964292871
 31
0.0
  0
ARC
  5
D73E
  8
YODOROGO
 10
28561.604341291932
 20
1547.749496429285
 30
0.0
 40
23.999999999996358
 50
270.0
 51
0.0000000000054281
  0
LINE
  5
D73F
  8
YODOROGO
 10
27801.604341291921
 20
1890.786580793706
 30
0.0
 11
27777.604341291921
 21
1843.776747951672
 31
0.0
1001
AUTOCAD_POSTSCRIPT_FIGURE
1002
{
1000
PSFILL
1000
Grayscale
1000
Grayscale
1070
   100
1002
}
  0
LINE
  5
D740
  8
YODOROGO
 10
27801.604341291921
 20
1747.749496429286
 30
0.0
 11
27801.604341291921
 21
1890.786580793706
 31
0.0
1001
AUTOCAD_POSTSCRIPT_FIGURE
1002
{
1000
PSFILL
1000
Grayscale
1000
Grayscale
1070
   100
1002
}
  0
LINE
  5
D741
  8
YODOROGO
 10
27817.604341291921
 20
1747.749496429286
 30
0.0
 11
27801.604341291921
 21
1747.749496429286
 31
0.0
1001
AUTOCAD_POSTSCRIPT_FIGURE
1002
{
1000
PSFILL
1000
Grayscale
1000
Grayscale
1070
   100
1002
}
  0
LINE
  5
D742
  8
YODOROGO
 10
27817.604341291921
 20
1893.7713320852661
 30
0.0
 11
27817.604341291921
 21
1747.749496429286
 31
0.0
1001
AUTOCAD_POSTSCRIPT_FIGURE
1002
{
1000
PSFILL
1000
Grayscale
1000
Grayscale
1070
   100
1002
}
  0
LINE
  5
D743
  8
YODOROGO
 10
27841.604341291921
 20
1867.6547582841361
 30
0.0
 11
27817.604341291921
 21
1893.7713320852661
 31
0.0
1001
AUTOCAD_POSTSCRIPT_FIGURE
1002
{
1000
PSFILL
1000
Grayscale
1000
Grayscale
1070
   100
1002
}
  0
LINE
  5
D744
  8
YODOROGO
 10
27841.604341291921
 20
1883.6547582841361
 30
0.0
 11
27841.604341291921
 21
1867.6547582841361
 31
0.0
1001
AUTOCAD_POSTSCRIPT_FIGURE
1002
{
1000
PSFILL
1000
Grayscale
1000
Grayscale
1070
   100
1002
}
  0
LINE
  5
D745
  8
YODOROGO
 10
27817.604341291921
 20
1917.7713320852649
 30
0.0
 11
27841.604341291921
 21
1883.6547582841361
 31
0.0
1001
AUTOCAD_POSTSCRIPT_FIGURE
1002
{
1000
PSFILL
1000
Grayscale
1000
Grayscale
1070
   100
1002
}
  0
LINE
  5
D746
  8
YODOROGO
 10
27817.604341291921
 20
1939.749496429288
 30
0.0
 11
27817.604341291921
 21
1917.7713320852649
 31
0.0
1001
AUTOCAD_POSTSCRIPT_FIGURE
1002
{
1000
PSFILL
1000
Grayscale
1000
Grayscale
1070
   100
1002
}
  0
LINE
  5
D747
  8
YODOROGO
 10
27889.604341291921
 20
1939.749496429288
 30
0.0
 11
27817.604341291921
 21
1939.749496429288
 31
0.0
1001
AUTOCAD_POSTSCRIPT_FIGURE
1002
{
1000
PSFILL
1000
Grayscale
1000
Grayscale
1070
   100
1002
}
  0
LINE
  5
D748
  8
YODOROGO
 10
27889.604341291921
 20
1900.5683489363
 30
0.0
 11
27889.604341291921
 21
1939.749496429288
 31
0.0
1001
AUTOCAD_POSTSCRIPT_FIGURE
1002
{
1000
PSFILL
1000
Grayscale
1000
Grayscale
1070
   100
1002
}
  0
LINE
  5
D749
  8
YODOROGO
 10
27857.604341291921
 20
1900.5683489363
 30
0.0
 11
27889.604341291921
 21
1900.5683489363
 31
0.0
1001
AUTOCAD_POSTSCRIPT_FIGURE
1002
{
1000
PSFILL
1000
Grayscale
1000
Grayscale
1070
   100
1002
}
  0
LINE
  5
D74A
  8
YODOROGO
 10
27857.604341291921
 20
1884.568348936298
 30
0.0
 11
27857.604341291921
 21
1900.5683489363
 31
0.0
1001
AUTOCAD_POSTSCRIPT_FIGURE
1002
{
1000
PSFILL
1000
Grayscale
1000
Grayscale
1070
   100
1002
}
  0
LINE
  5
D74B
  8
YODOROGO
 10
27889.604341291921
 20
1884.568348936298
 30
0.0
 11
27857.604341291921
 21
1884.568348936298
 31
0.0
1001
AUTOCAD_POSTSCRIPT_FIGURE
1002
{
1000
PSFILL
1000
Grayscale
1000
Grayscale
1070
   100
1002
}
  0
LINE
  5
D74C
  8
YODOROGO
 10
27889.604341291921
 20
1879.6191779644371
 30
0.0
 11
27889.604341291921
 21
1884.568348936298
 31
0.0
1001
AUTOCAD_POSTSCRIPT_FIGURE
1002
{
1000
PSFILL
1000
Grayscale
1000
Grayscale
1070
   100
1002
}
  0
LINE
  5
D74D
  8
YODOROGO
 10
27849.604341291921
 20
1812.974981161417
 30
0.0
 11
27889.604341291921
 21
1879.6191779644371
 31
0.0
1001
AUTOCAD_POSTSCRIPT_FIGURE
1002
{
1000
PSFILL
1000
Grayscale
1000
Grayscale
1070
   100
1002
}
  0
LINE
  5
D74E
  8
YODOROGO
 10
27849.604341291921
 20
1796.9749811614161
 30
0.0
 11
27849.604341291921
 21
1812.974981161417
 31
0.0
1001
AUTOCAD_POSTSCRIPT_FIGURE
1002
{
1000
PSFILL
1000
Grayscale
1000
Grayscale
1070
   100
1002
}
  0
LINE
  5
D74F
  8
YODOROGO
 10
27889.604341291921
 20
1847.6191779644359
 30
0.0
 11
27849.604341291921
 21
1796.9749811614161
 31
0.0
1001
AUTOCAD_POSTSCRIPT_FIGURE
1002
{
1000
PSFILL
1000
Grayscale
1000
Grayscale
1070
   100
1002
}
  0
LINE
  5
D750
  8
YODOROGO
 10
27889.604341291921
 20
1747.749496429286
 30
0.0
 11
27889.604341291921
 21
1847.6191779644359
 31
0.0
1001
AUTOCAD_POSTSCRIPT_FIGURE
1002
{
1000
PSFILL
1000
Grayscale
1000
Grayscale
1070
   100
1002
}
  0
LINE
  5
D751
  8
YODOROGO
 10
27905.604341291921
 20
1747.749496429286
 30
0.0
 11
27889.604341291921
 21
1747.749496429286
 31
0.0
1001
AUTOCAD_POSTSCRIPT_FIGURE
1002
{
1000
PSFILL
1000
Grayscale
1000
Grayscale
1070
   100
1002
}
  0
LINE
  5
D752
  8
YODOROGO
 10
27905.604341291921
 20
1849.409012158806
 30
0.0
 11
27905.604341291921
 21
1747.749496429286
 31
0.0
1001
AUTOCAD_POSTSCRIPT_FIGURE
1002
{
1000
PSFILL
1000
Grayscale
1000
Grayscale
1070
   100
1002
}
  0
LINE
  5
D753
  8
YODOROGO
 10
27937.604341291921
 20
1796.9749811614161
 30
0.0
 11
27905.604341291921
 21
1849.409012158806
 31
0.0
1001
AUTOCAD_POSTSCRIPT_FIGURE
1002
{
1000
PSFILL
1000
Grayscale
1000
Grayscale
1070
   100
1002
}
  0
LINE
  5
D754
  8
YODOROGO
 10
27937.604341291921
 20
1812.974981161417
 30
0.0
 11
27937.604341291921
 21
1796.9749811614161
 31
0.0
1001
AUTOCAD_POSTSCRIPT_FIGURE
1002
{
1000
PSFILL
1000
Grayscale
1000
Grayscale
1070
   100
1002
}
  0
LINE
  5
D755
  8
YODOROGO
 10
27905.604341291921
 20
1881.4090121588081
 30
0.0
 11
27937.604341291921
 21
1812.974981161417
 31
0.0
1001
AUTOCAD_POSTSCRIPT_FIGURE
1002
{
1000
PSFILL
1000
Grayscale
1000
Grayscale
1070
   100
1002
}
  0
LINE
  5
D756
  8
YODOROGO
 10
27905.604341291921
 20
1884.5683489363
 30
0.0
 11
27905.604341291921
 21
1881.4090121588081
 31
0.0
1001
AUTOCAD_POSTSCRIPT_FIGURE
1002
{
1000
PSFILL
1000
Grayscale
1000
Grayscale
1070
   100
1002
}
  0
LINE
  5
D757
  8
YODOROGO
 10
27937.604341291921
 20
1884.568348936298
 30
0.0
 11
27905.604341291921
 21
1884.5683489363
 31
0.0
1001
AUTOCAD_POSTSCRIPT_FIGURE
1002
{
1000
PSFILL
1000
Grayscale
1000
Grayscale
1070
   100
1002
}
  0
LINE
  5
D758
  8
YODOROGO
 10
27937.604341291921
 20
1900.5683489363
 30
0.0
 11
27937.604341291921
 21
1884.568348936298
 31
0.0
1001
AUTOCAD_POSTSCRIPT_FIGURE
1002
{
1000
PSFILL
1000
Grayscale
1000
Grayscale
1070
   100
1002
}
  0
LINE
  5
D759
  8
YODOROGO
 10
27905.604341291921
 20
1900.5683489363
 30
0.0
 11
27937.604341291921
 21
1900.5683489363
 31
0.0
1001
AUTOCAD_POSTSCRIPT_FIGURE
1002
{
1000
PSFILL
1000
Grayscale
1000
Grayscale
1070
   100
1002
}
  0
LINE
  5
D75A
  8
YODOROGO
 10
27905.604341291921
 20
1939.749496429288
 30
0.0
 11
27905.604341291921
 21
1900.5683489363
 31
0.0
1001
AUTOCAD_POSTSCRIPT_FIGURE
1002
{
1000
PSFILL
1000
Grayscale
1000
Grayscale
1070
   100
1002
}
  0
LINE
  5
D75B
  8
YODOROGO
 10
27937.604341291921
 20
1939.749496429288
 30
0.0
 11
27905.604341291921
 21
1939.749496429288
 31
0.0
1001
AUTOCAD_POSTSCRIPT_FIGURE
1002
{
1000
PSFILL
1000
Grayscale
1000
Grayscale
1070
   100
1002
}
  0
LINE
  5
D75C
  8
YODOROGO
 10
27937.604341291921
 20
1955.7494964292871
 30
0.0
 11
27937.604341291921
 21
1939.749496429288
 31
0.0
1001
AUTOCAD_POSTSCRIPT_FIGURE
1002
{
1000
PSFILL
1000
Grayscale
1000
Grayscale
1070
   100
1002
}
  0
LINE
  5
D75D
  8
YODOROGO
 10
27905.604341291921
 20
1955.7494964292871
 30
0.0
 11
27937.604341291921
 21
1955.7494964292871
 31
0.0
1001
AUTOCAD_POSTSCRIPT_FIGURE
1002
{
1000
PSFILL
1000
Grayscale
1000
Grayscale
1070
   100
1002
}
  0
LINE
  5
D75E
  8
YODOROGO
 10
27905.604341291921
 20
1979.749496429288
 30
0.0
 11
27905.604341291921
 21
1955.7494964292871
 31
0.0
1001
AUTOCAD_POSTSCRIPT_FIGURE
1002
{
1000
PSFILL
1000
Grayscale
1000
Grayscale
1070
   100
1002
}
  0
LINE
  5
D75F
  8
YODOROGO
 10
27889.604341291921
 20
1979.749496429288
 30
0.0
 11
27905.604341291921
 21
1979.749496429288
 31
0.0
1001
AUTOCAD_POSTSCRIPT_FIGURE
1002
{
1000
PSFILL
1000
Grayscale
1000
Grayscale
1070
   100
1002
}
  0
LINE
  5
D760
  8
YODOROGO
 10
27889.604341291921
 20
1955.7494964292871
 30
0.0
 11
27889.604341291921
 21
1979.749496429288
 31
0.0
1001
AUTOCAD_POSTSCRIPT_FIGURE
1002
{
1000
PSFILL
1000
Grayscale
1000
Grayscale
1070
   100
1002
}
  0
LINE
  5
D761
  8
YODOROGO
 10
27865.604341291921
 20
1955.7494964292871
 30
0.0
 11
27889.604341291921
 21
1955.7494964292871
 31
0.0
1001
AUTOCAD_POSTSCRIPT_FIGURE
1002
{
1000
PSFILL
1000
Grayscale
1000
Grayscale
1070
   100
1002
}
  0
LINE
  5
D762
  8
YODOROGO
 10
27865.604341291921
 20
1979.749496429288
 30
0.0
 11
27865.604341291921
 21
1955.7494964292871
 31
0.0
1001
AUTOCAD_POSTSCRIPT_FIGURE
1002
{
1000
PSFILL
1000
Grayscale
1000
Grayscale
1070
   100
1002
}
  0
LINE
  5
D763
  8
YODOROGO
 10
27849.604341291921
 20
1979.749496429288
 30
0.0
 11
27865.604341291921
 21
1979.749496429288
 31
0.0
1001
AUTOCAD_POSTSCRIPT_FIGURE
1002
{
1000
PSFILL
1000
Grayscale
1000
Grayscale
1070
   100
1002
}
  0
LINE
  5
D764
  8
YODOROGO
 10
27849.604341291921
 20
1955.7494964292871
 30
0.0
 11
27849.604341291921
 21
1979.749496429288
 31
0.0
1001
AUTOCAD_POSTSCRIPT_FIGURE
1002
{
1000
PSFILL
1000
Grayscale
1000
Grayscale
1070
   100
1002
}
  0
LINE
  5
D765
  8
YODOROGO
 10
27817.604341291921
 20
1955.7494964292871
 30
0.0
 11
27849.604341291921
 21
1955.7494964292871
 31
0.0
1001
AUTOCAD_POSTSCRIPT_FIGURE
1002
{
1000
PSFILL
1000
Grayscale
1000
Grayscale
1070
   100
1002
}
  0
LINE
  5
D766
  8
YODOROGO
 10
27817.604341291921
 20
1979.749496429288
 30
0.0
 11
27817.604341291921
 21
1955.7494964292871
 31
0.0
1001
AUTOCAD_POSTSCRIPT_FIGURE
1002
{
1000
PSFILL
1000
Grayscale
1000
Grayscale
1070
   100
1002
}
  0
LINE
  5
D767
  8
YODOROGO
 10
27801.604341291921
 20
1979.749496429288
 30
0.0
 11
27817.604341291921
 21
1979.749496429288
 31
0.0
1001
AUTOCAD_POSTSCRIPT_FIGURE
1002
{
1000
PSFILL
1000
Grayscale
1000
Grayscale
1070
   100
1002
}
  0
LINE
  5
D768
  8
YODOROGO
 10
27801.604341291921
 20
1955.7494964292871
 30
0.0
 11
27801.604341291921
 21
1979.749496429288
 31
0.0
1001
AUTOCAD_POSTSCRIPT_FIGURE
1002
{
1000
PSFILL
1000
Grayscale
1000
Grayscale
1070
   100
1002
}
  0
LINE
  5
D769
  8
YODOROGO
 10
27777.604341291921
 20
1955.7494964292871
 30
0.0
 11
27801.604341291921
 21
1955.7494964292871
 31
0.0
1001
AUTOCAD_POSTSCRIPT_FIGURE
1002
{
1000
PSFILL
1000
Grayscale
1000
Grayscale
1070
   100
1002
}
  0
LINE
  5
D76A
  8
YODOROGO
 10
27777.604341291921
 20
1939.749496429288
 30
0.0
 11
27777.604341291921
 21
1955.7494964292871
 31
0.0
1001
AUTOCAD_POSTSCRIPT_FIGURE
1002
{
1000
PSFILL
1000
Grayscale
1000
Grayscale
1070
   100
1002
}
  0
LINE
  5
D76B
  8
YODOROGO
 10
27801.604341291921
 20
1939.749496429288
 30
0.0
 11
27777.604341291921
 21
1939.749496429288
 31
0.0
1001
AUTOCAD_POSTSCRIPT_FIGURE
1002
{
1000
PSFILL
1000
Grayscale
1000
Grayscale
1070
   100
1002
}
  0
LINE
  5
D76C
  8
YODOROGO
 10
27801.604341291921
 20
1914.7865807937051
 30
0.0
 11
27801.604341291921
 21
1939.749496429288
 31
0.0
1001
AUTOCAD_POSTSCRIPT_FIGURE
1002
{
1000
PSFILL
1000
Grayscale
1000
Grayscale
1070
   100
1002
}
  0
LINE
  5
D76D
  8
YODOROGO
 10
27777.604341291921
 20
1859.776747951671
 30
0.0
 11
27801.604341291921
 21
1914.7865807937051
 31
0.0
1001
AUTOCAD_POSTSCRIPT_FIGURE
1002
{
1000
PSFILL
1000
Grayscale
1000
Grayscale
1070
   100
1002
}
  0
LINE
  5
D76E
  8
YODOROGO
 10
27777.604341291921
 20
1843.776747951672
 30
0.0
 11
27777.604341291921
 21
1859.776747951671
 31
0.0
1001
AUTOCAD_POSTSCRIPT_FIGURE
1002
{
1000
PSFILL
1000
Grayscale
1000
Grayscale
1070
   100
1002
}
  0
LINE
  5
D76F
  8
YODOROGO
 10
28257.604341291921
 20
1867.7494964292871
 30
0.0
 11
28401.60434129191
 21
1824.877625640306
 31
0.0
1001
AUTOCAD_POSTSCRIPT_FIGURE
1002
{
1000
PSFILL
1000
Grayscale
1000
Grayscale
1070
   100
1002
}
  0
LINE
  5
D770
  8
YODOROGO
 10
28401.60434129191
 20
1752.877625640306
 30
0.0
 11
28257.604341291921
 21
1795.7494964292871
 31
0.0
1001
AUTOCAD_POSTSCRIPT_FIGURE
1002
{
1000
PSFILL
1000
Grayscale
1000
Grayscale
1070
   100
1002
}
  0
LINE
  5
D771
  8
YODOROGO
 10
28401.60434129191
 20
1984.877625640306
 30
0.0
 11
28257.604341291921
 21
2027.749496429288
 31
0.0
1001
AUTOCAD_POSTSCRIPT_FIGURE
1002
{
1000
PSFILL
1000
Grayscale
1000
Grayscale
1070
   100
1002
}
  0
LINE
  5
D772
  8
YODOROGO
 10
28257.604341291921
 20
1959.749496429288
 30
0.0
 11
28401.60434129191
 21
1916.8776256403071
 31
0.0
1001
AUTOCAD_POSTSCRIPT_FIGURE
1002
{
1000
PSFILL
1000
Grayscale
1000
Grayscale
1070
   100
1002
}
  0
LINE
  5
D773
  8
YODOROGO
 10
28257.604341291921
 20
1795.7494964292871
 30
0.0
 11
28257.604341291921
 21
1867.7494964292871
 31
0.0
1001
AUTOCAD_POSTSCRIPT_FIGURE
1002
{
1000
PSFILL
1000
Grayscale
1000
Grayscale
1070
   100
1002
}
  0
LINE
  5
D774
  8
YODOROGO
 10
28257.604341291921
 20
2027.749496429288
 30
0.0
 11
28257.604341291921
 21
1959.749496429288
 31
0.0
1001
AUTOCAD_POSTSCRIPT_FIGURE
1002
{
1000
PSFILL
1000
Grayscale
1000
Grayscale
1070
   100
1002
}
  0
LINE
  5
D775
  8
YODOROGO
 10
28080.236320206739
 20
1939.749496429288
 30
0.0
 11
28129.60434129191
 21
1747.749496429286
 31
0.0
1001
AUTOCAD_POSTSCRIPT_FIGURE
1002
{
1000
PSFILL
1000
Grayscale
1000
Grayscale
1070
   100
1002
}
  0
LINE
  5
D776
  8
YODOROGO
 10
27977.604341291921
 20
1939.749496429288
 30
0.0
 11
28080.236320206739
 21
1939.749496429288
 31
0.0
1001
AUTOCAD_POSTSCRIPT_FIGURE
1002
{
1000
PSFILL
1000
Grayscale
1000
Grayscale
1070
   100
1002
}
  0
LINE
  5
D777
  8
YODOROGO
 10
27977.604341291921
 20
1955.7494964292871
 30
0.0
 11
27977.604341291921
 21
1939.749496429288
 31
0.0
1001
AUTOCAD_POSTSCRIPT_FIGURE
1002
{
1000
PSFILL
1000
Grayscale
1000
Grayscale
1070
   100
1002
}
  0
LINE
  5
D778
  8
YODOROGO
 10
28076.60687851991
 20
1955.7494964292871
 30
0.0
 11
27977.604341291921
 21
1955.7494964292871
 31
0.0
1001
AUTOCAD_POSTSCRIPT_FIGURE
1002
{
1000
PSFILL
1000
Grayscale
1000
Grayscale
1070
   100
1002
}
  0
LINE
  5
D779
  8
YODOROGO
 10
28071.162715989711
 20
1979.749496429288
 30
0.0
 11
28076.60687851991
 21
1955.7494964292871
 31
0.0
1001
AUTOCAD_POSTSCRIPT_FIGURE
1002
{
1000
PSFILL
1000
Grayscale
1000
Grayscale
1070
   100
1002
}
  0
LINE
  5
D77A
  8
YODOROGO
 10
28091.162715989711
 20
1979.749496429288
 30
0.0
 11
28071.162715989711
 21
1979.749496429288
 31
0.0
1001
AUTOCAD_POSTSCRIPT_FIGURE
1002
{
1000
PSFILL
1000
Grayscale
1000
Grayscale
1070
   100
1002
}
  0
LINE
  5
D77B
  8
YODOROGO
 10
28095.806878519939
 20
1955.7494964292871
 30
0.0
 11
28091.162715989711
 21
1979.749496429288
 31
0.0
1001
AUTOCAD_POSTSCRIPT_FIGURE
1002
{
1000
PSFILL
1000
Grayscale
1000
Grayscale
1070
   100
1002
}
  0
LINE
  5
D77C
  8
YODOROGO
 10
28121.604341291921
 20
1955.7494964292871
 30
0.0
 11
28095.806878519939
 21
1955.7494964292871
 31
0.0
1001
AUTOCAD_POSTSCRIPT_FIGURE
1002
{
1000
PSFILL
1000
Grayscale
1000
Grayscale
1070
   100
1002
}
  0
LINE
  5
D77D
  8
YODOROGO
 10
28121.604341291921
 20
1979.749496429288
 30
0.0
 11
28121.604341291921
 21
1955.7494964292871
 31
0.0
1001
AUTOCAD_POSTSCRIPT_FIGURE
1002
{
1000
PSFILL
1000
Grayscale
1000
Grayscale
1070
   100
1002
}
  0
LINE
  5
D77E
  8
YODOROGO
 10
28137.604341291921
 20
1979.749496429288
 30
0.0
 11
28121.604341291921
 21
1979.749496429288
 31
0.0
1001
AUTOCAD_POSTSCRIPT_FIGURE
1002
{
1000
PSFILL
1000
Grayscale
1000
Grayscale
1070
   100
1002
}
  0
LINE
  5
D77F
  8
YODOROGO
 10
28137.604341291921
 20
1955.7494964292871
 30
0.0
 11
28137.604341291921
 21
1979.749496429288
 31
0.0
1001
AUTOCAD_POSTSCRIPT_FIGURE
1002
{
1000
PSFILL
1000
Grayscale
1000
Grayscale
1070
   100
1002
}
  0
LINE
  5
D780
  8
YODOROGO
 10
28137.604341291921
 20
1939.749496429288
 30
0.0
 11
28137.604341291921
 21
1955.7494964292871
 31
0.0
1001
AUTOCAD_POSTSCRIPT_FIGURE
1002
{
1000
PSFILL
1000
Grayscale
1000
Grayscale
1070
   100
1002
}
  0
LINE
  5
D781
  8
YODOROGO
 10
28098.902986873411
 20
1939.749496429288
 30
0.0
 11
28137.604341291921
 21
1939.749496429288
 31
0.0
1001
AUTOCAD_POSTSCRIPT_FIGURE
1002
{
1000
PSFILL
1000
Grayscale
1000
Grayscale
1070
   100
1002
}
  0
LINE
  5
D782
  8
YODOROGO
 10
28137.604341291921
 20
1747.749496429286
 30
0.0
 11
28098.902986873411
 21
1939.749496429288
 31
0.0
1001
AUTOCAD_POSTSCRIPT_FIGURE
1002
{
1000
PSFILL
1000
Grayscale
1000
Grayscale
1070
   100
1002
}
  0
LINE
  5
D783
  8
YODOROGO
 10
28129.60434129191
 20
1747.749496429286
 30
0.0
 11
28137.604341291921
 21
1747.749496429286
 31
0.0
1001
AUTOCAD_POSTSCRIPT_FIGURE
1002
{
1000
PSFILL
1000
Grayscale
1000
Grayscale
1070
   100
1002
}
  0
LINE
  5
D784
  8
YODOROGO
 10
28078.06921993379
 20
1775.7407762987939
 30
0.0
 11
27977.604341291921
 21
1747.749496429286
 31
0.0
  0
LINE
  5
D785
  8
YODOROGO
 10
28078.06921993379
 20
1798.6689795290731
 30
0.0
 11
28078.06921993379
 21
1775.7407762987939
 31
0.0
  0
LINE
  5
D786
  8
YODOROGO
 10
28033.83678061287
 20
1786.816933133767
 30
0.0
 11
28078.06921993379
 21
1798.6689795290731
 31
0.0
  0
LINE
  5
D787
  8
YODOROGO
 10
28033.83678061287
 20
1872.5683489362989
 30
0.0
 11
28033.83678061287
 21
1786.816933133767
 31
0.0
  0
LINE
  5
D788
  8
YODOROGO
 10
28078.06921993379
 20
1872.5683489362989
 30
0.0
 11
28033.83678061287
 21
1872.5683489362989
 31
0.0
  0
LINE
  5
D789
  8
YODOROGO
 10
28078.06921993379
 20
1892.568348936298
 30
0.0
 11
28078.06921993379
 21
1872.5683489362989
 31
0.0
  0
LINE
  5
D78A
  8
YODOROGO
 10
27977.604341291921
 20
1892.568348936298
 30
0.0
 11
28078.06921993379
 21
1892.568348936298
 31
0.0
  0
LINE
  5
D78B
  8
YODOROGO
 10
27977.604341291921
 20
1872.5683489362989
 30
0.0
 11
27977.604341291921
 21
1892.568348936298
 31
0.0
  0
LINE
  5
D78C
  8
YODOROGO
 10
28021.836780612852
 20
1872.5683489362989
 30
0.0
 11
27977.604341291921
 21
1872.5683489362989
 31
0.0
  0
LINE
  5
D78D
  8
YODOROGO
 10
28021.836780612852
 20
1784.673339594317
 30
0.0
 11
28021.836780612852
 21
1872.5683489362989
 31
0.0
  0
LINE
  5
D78E
  8
YODOROGO
 10
27977.604341291921
 20
1771.749496429286
 30
0.0
 11
28021.836780612852
 21
1784.673339594317
 31
0.0
  0
LINE
  5
D78F
  8
YODOROGO
 10
27977.604341291921
 20
1747.749496429286
 30
0.0
 11
27977.604341291921
 21
1771.749496429286
 31
0.0
  0
LINE
  5
D790
  8
YODOROGO
 10
28001.604341291921
 20
1707.749496429288
 30
0.0
 11
28001.604341291921
 21
1683.7494964292871
 31
0.0
  0
LINE
  5
D791
  8
YODOROGO
 10
28017.604341291921
 20
1707.749496429288
 30
0.0
 11
28001.604341291921
 21
1707.749496429288
 31
0.0
  0
LINE
  5
D792
  8
YODOROGO
 10
28017.604341291921
 20
1683.7494964292871
 30
0.0
 11
28017.604341291921
 21
1707.749496429288
 31
0.0
  0
LINE
  5
D793
  8
YODOROGO
 10
28040.913204016892
 20
1683.7494964292871
 30
0.0
 11
28017.604341291921
 21
1683.7494964292871
 31
0.0
  0
LINE
  5
D794
  8
YODOROGO
 10
28001.604341291921
 20
1683.7494964292871
 30
0.0
 11
27977.604341291921
 21
1683.7494964292871
 31
0.0
  0
LINE
  5
D795
  8
YODOROGO
 10
28082.135520230921
 20
1707.749496429288
 30
0.0
 11
28098.135520230931
 21
1707.749496429288
 31
0.0
1001
AUTOCAD_POSTSCRIPT_FIGURE
1002
{
1000
PSFILL
1000
Grayscale
1000
Grayscale
1070
   100
1002
}
  0
LINE
  5
D796
  8
YODOROGO
 10
28401.60434129191
 20
1824.877625640306
 30
0.0
 11
28401.60434129191
 21
1752.877625640306
 31
0.0
1001
AUTOCAD_POSTSCRIPT_FIGURE
1002
{
1000
PSFILL
1000
Grayscale
1000
Grayscale
1070
   100
1002
}
  0
LINE
  5
D797
  8
YODOROGO
 10
28401.60434129191
 20
1916.8776256403071
 30
0.0
 11
28401.60434129191
 21
1984.877625640306
 31
0.0
1001
AUTOCAD_POSTSCRIPT_FIGURE
1002
{
1000
PSFILL
1000
Grayscale
1000
Grayscale
1070
   100
1002
}
  0
LINE
  5
D798
  8
YODOROGO
 10
28433.60434129191
 20
1819.7494964292871
 30
0.0
 11
28433.60434129191
 21
1747.74949642929
 31
0.0
  0
LINE
  5
D799
  8
YODOROGO
 10
28497.60434129191
 20
1707.749496429288
 30
0.0
 11
28433.60434129191
 21
1707.749496429288
 31
0.0
  0
LINE
  5
D79A
  8
YODOROGO
 10
28433.60434129191
 20
1747.74949642929
 30
0.0
 11
28585.604341291921
 21
1747.74949642929
 31
0.0
  0
LINE
  5
D79B
  8
YODOROGO
 10
28497.60434129191
 20
1867.7494964292871
 30
0.0
 11
28433.60434129191
 21
1867.7494964292871
 31
0.0
  0
LINE
  5
D79C
  8
YODOROGO
 10
28497.60434129191
 20
1923.7494964292871
 30
0.0
 11
28497.60434129191
 21
1867.7494964292871
 31
0.0
  0
LINE
  5
D79D
  8
YODOROGO
 10
28585.604341291921
 20
1987.7494964292871
 30
0.0
 11
28585.604341291921
 21
2027.749496429288
 31
0.0
  0
LINE
  5
D79E
  8
YODOROGO
 10
28433.60434129191
 20
1987.7494964292871
 30
0.0
 11
28585.604341291921
 21
1987.7494964292871
 31
0.0
  0
LINE
  5
D79F
  8
YODOROGO
 10
28433.60434129191
 20
1867.7494964292871
 30
0.0
 11
28433.60434129191
 21
1987.7494964292871
 31
0.0
  0
LINE
  5
D7A0
  8
YODOROGO
 10
29001.60434129191
 20
2027.749496429288
 30
0.0
 11
29001.60434129191
 21
1619.749496429288
 31
0.0
  0
LINE
  5
D7A1
  8
YODOROGO
 10
29073.604341291921
 20
1579.749496429288
 30
0.0
 11
29073.604341291921
 21
2027.749496429288
 31
0.0
  0
LINE
  5
D7A2
  8
YODOROGO
 10
29261.604341291921
 20
1491.749496429286
 30
0.0
 11
29261.604341291921
 21
2007.749496429288
 31
0.0
  0
LINE
  5
D7A3
  8
YODOROGO
 10
29197.604341291921
 20
2007.749496429288
 30
0.0
 11
29197.604341291921
 21
1491.749496429286
 31
0.0
  0
LINE
  5
D7A4
  8
YODOROGO
 10
29385.604341291921
 20
2027.749496429288
 30
0.0
 11
29385.604341291921
 21
1427.749496429288
 31
0.0
  0
LINE
  5
D7A5
  8
YODOROGO
 10
29457.604341291921
 20
1427.749496429288
 30
0.0
 11
29457.604341291921
 21
2027.749496429288
 31
0.0
  0
LINE
  5
D7A6
  8
YODOROGO
 10
28657.604341291921
 20
1667.749496429288
 30
0.0
 11
28657.604341291921
 21
1747.74949642929
 31
0.0
  0
LINE
  5
D7A7
  8
YODOROGO
 10
29885.604341291921
 20
1707.749496429288
 30
0.0
 11
29885.604341291921
 21
1667.749496429288
 31
0.0
  0
LINE
  5
D7A8
  8
YODOROGO
 10
29885.604341291921
 20
1707.749496429288
 30
0.0
 11
29885.604341291921
 21
1667.749496429288
 31
0.0
  0
ARC
  5
D7A9
  8
YODOROGO
 10
28906.911576186842
 20
1618.217864442272
 30
0.0
 40
94.705151178741644
 50
274.05244162907098
 51
0.9266642149310712
  0
ARC
  5
D7AA
  8
YODOROGO
 10
28909.186170719819
 20
1592.61072861044
 30
0.0
 40
164.92042356085511
 50
271.5351210653775
 51
355.52727750585052
  0
LINE
  5
D7AB
  8
YODOROGO
 10
28913.604341291921
 20
1523.7494964292871
 30
0.0
 11
28913.604341291921
 21
1427.749496429288
 31
0.0
  0
LINE
  5
D7AC
  8
YODOROGO
 10
28793.60434129191
 20
1667.749496429288
 30
0.0
 11
28657.604341291921
 21
1667.749496429288
 31
0.0
  0
LINE
  5
D7AD
  8
YODOROGO
 10
28793.60434129191
 20
1603.7494964292871
 30
0.0
 11
28793.60434129191
 21
1667.749496429288
 31
0.0
  0
LINE
  5
D7AE
  8
YODOROGO
 10
28657.604341291921
 20
1603.7494964292871
 30
0.0
 11
28793.60434129191
 21
1603.7494964292871
 31
0.0
  0
LINE
  5
D7AF
  8
YODOROGO
 10
28657.604341291921
 20
1523.7494964292871
 30
0.0
 11
28657.604341291921
 21
1603.7494964292871
 31
0.0
  0
LINE
  5
D7B0
  8
YODOROGO
 10
28793.60434129191
 20
1523.7494964292871
 30
0.0
 11
28657.604341291921
 21
1523.7494964292871
 31
0.0
  0
LINE
  5
D7B1
  8
YODOROGO
 10
28793.60434129191
 20
1427.749496429288
 30
0.0
 11
28793.60434129191
 21
1523.7494964292871
 31
0.0
  0
LINE
  5
D7B2
  8
YODOROGO
 10
29197.604341291921
 20
1491.749496429286
 30
0.0
 11
29261.604341291921
 21
1491.749496429286
 31
0.0
  0
LINE
  5
D7B3
  8
YODOROGO
 10
29385.604341291921
 20
1427.749496429288
 30
0.0
 11
29457.604341291921
 21
1427.749496429288
 31
0.0
  0
LINE
  5
D7B4
  8
YODOROGO
 10
29737.604341291921
 20
1528.4414521705639
 30
0.0
 11
29737.604341291921
 21
1427.749496429288
 31
0.0
  0
LINE
  5
D7B5
  8
YODOROGO
 10
29617.604341291921
 20
1427.749496429288
 30
0.0
 11
29737.604341291921
 21
1528.4414521705639
 31
0.0
  0
LINE
  5
D7B6
  8
YODOROGO
 10
29617.604341291921
 20
1547.749496429288
 30
0.0
 11
29617.604341291921
 21
1427.749496429288
 31
0.0
  0
LINE
  5
D7B7
  8
YODOROGO
 10
29712.94462869945
 20
1627.749496429288
 30
0.0
 11
29617.604341291921
 21
1547.749496429288
 31
0.0
  0
LINE
  5
D7B8
  8
YODOROGO
 10
29617.604341291921
 20
1627.749496429288
 30
0.0
 11
29712.94462869945
 21
1627.749496429288
 31
0.0
  0
LINE
  5
D7B9
  8
YODOROGO
 10
29617.604341291921
 20
1667.749496429288
 30
0.0
 11
29617.604341291921
 21
1627.749496429288
 31
0.0
  0
LINE
  5
D7BA
  8
YODOROGO
 10
29885.604341291921
 20
1667.749496429288
 30
0.0
 11
29617.604341291921
 21
1667.749496429288
 31
0.0
  0
LINE
  5
D7BB
  8
YODOROGO
 10
29917.604341291921
 20
1627.749496429288
 30
0.0
 11
29777.604341291921
 21
1627.749496429288
 31
0.0
  0
LINE
  5
D7BC
  8
YODOROGO
 10
29777.604341291921
 20
1562.0054374176559
 30
0.0
 11
29771.409872985321
 21
1556.807661346234
 31
0.0
  0
LINE
  5
D7BD
  8
YODOROGO
 10
29777.604341291921
 20
1627.749496429288
 30
0.0
 11
29777.604341291921
 21
1562.0054374176559
 31
0.0
  0
LINE
  5
D7BE
  8
YODOROGO
 10
29737.604341291921
 20
1528.4414521705639
 30
0.0
 11
29737.604341291921
 21
1427.749496429288
 31
0.0
  0
LINE
  5
D7BF
  8
YODOROGO
 10
29617.604341291921
 20
1427.749496429288
 30
0.0
 11
29737.604341291921
 21
1528.4414521705639
 31
0.0
  0
LINE
  5
D7C0
  8
YODOROGO
 10
29617.604341291921
 20
1547.749496429288
 30
0.0
 11
29617.604341291921
 21
1427.749496429288
 31
0.0
  0
LINE
  5
D7C1
  8
YODOROGO
 10
29712.94462869945
 20
1627.749496429288
 30
0.0
 11
29617.604341291921
 21
1547.749496429288
 31
0.0
  0
LINE
  5
D7C2
  8
YODOROGO
 10
29617.604341291921
 20
1627.749496429288
 30
0.0
 11
29712.94462869945
 21
1627.749496429288
 31
0.0
  0
LINE
  5
D7C3
  8
YODOROGO
 10
29617.604341291921
 20
1667.749496429288
 30
0.0
 11
29617.604341291921
 21
1627.749496429288
 31
0.0
  0
LINE
  5
D7C4
  8
YODOROGO
 10
29885.604341291921
 20
1667.749496429288
 30
0.0
 11
29617.604341291921
 21
1667.749496429288
 31
0.0
  0
LINE
  5
D7C5
  8
YODOROGO
 10
28793.60434129191
 20
1747.74949642929
 30
0.0
 11
28793.60434129191
 21
1819.7494964292871
 31
0.0
  0
LINE
  5
D7C6
  8
YODOROGO
 10
28657.604341291921
 20
1747.74949642929
 30
0.0
 11
28793.60434129191
 21
1747.74949642929
 31
0.0
  0
LINE
  5
D7C7
  8
YODOROGO
 10
28729.604341291921
 20
1867.7494964292871
 30
0.0
 11
28729.604341291921
 21
1923.7494964292871
 31
0.0
  0
LINE
  5
D7C8
  8
YODOROGO
 10
28793.60434129191
 20
1867.7494964292871
 30
0.0
 11
28729.604341291921
 21
1867.7494964292871
 31
0.0
  0
LINE
  5
D7C9
  8
YODOROGO
 10
28793.60434129191
 20
1947.749496429288
 30
0.0
 11
28793.60434129191
 21
1867.7494964292871
 31
0.0
  0
ARC
  5
D7CA
  8
YODOROGO
 10
28753.60434129191
 20
1947.749496429288
 30
0.0
 40
40.0
 50
0.0
 51
90.0
  0
LINE
  5
D7CB
  8
YODOROGO
 10
28657.604341291921
 20
1987.7494964292871
 30
0.0
 11
28753.60434129191
 21
1987.7494964292871
 31
0.0
  0
LINE
  5
D7CC
  8
YODOROGO
 10
28657.604341291921
 20
2027.749496429288
 30
0.0
 11
28657.604341291921
 21
1987.7494964292871
 31
0.0
  0
LINE
  5
D7CD
  8
YODOROGO
 10
29073.604341291921
 20
2027.749496429288
 30
0.0
 11
29001.60434129191
 21
2027.749496429288
 31
0.0
  0
LINE
  5
D7CE
  8
YODOROGO
 10
29261.604341291921
 20
2007.749496429288
 30
0.0
 11
29197.604341291921
 21
2007.749496429288
 31
0.0
  0
LINE
  5
D7CF
  8
YODOROGO
 10
29457.604341291921
 20
2027.749496429288
 30
0.0
 11
29385.604341291921
 21
2027.749496429288
 31
0.0
  0
LINE
  5
D7D0
  8
YODOROGO
 10
29673.604341291921
 20
1707.749496429288
 30
0.0
 11
29673.604341291921
 21
1771.7494964292871
 31
0.0
1001
AUTOCAD_POSTSCRIPT_FIGURE
1002
{
1000
PSFILL
1000
Grayscale
1000
Grayscale
1070
    25
1002
}
  0
LINE
  5
D7D1
  8
YODOROGO
 10
29617.604341291921
 20
1707.749496429288
 30
0.0
 11
29673.604341291921
 21
1707.749496429288
 31
0.0
1001
AUTOCAD_POSTSCRIPT_FIGURE
1002
{
1000
PSFILL
1000
Grayscale
1000
Grayscale
1070
    25
1002
}
  0
LINE
  5
D7D2
  8
YODOROGO
 10
29617.604341291921
 20
1819.7494964292871
 30
0.0
 11
29617.604341291921
 21
1707.749496429288
 31
0.0
1001
AUTOCAD_POSTSCRIPT_FIGURE
1002
{
1000
PSFILL
1000
Grayscale
1000
Grayscale
1070
    25
1002
}
  0
LINE
  5
D7D3
  8
YODOROGO
 10
29765.604341291921
 20
1819.7494964292871
 30
0.0
 11
29617.604341291921
 21
1819.7494964292871
 31
0.0
1001
AUTOCAD_POSTSCRIPT_FIGURE
1002
{
1000
PSFILL
1000
Grayscale
1000
Grayscale
1070
    25
1002
}
  0
LINE
  5
D7D4
  8
YODOROGO
 10
29765.604341291921
 20
1859.749496429288
 30
0.0
 11
29765.604341291921
 21
1819.7494964292871
 31
0.0
1001
AUTOCAD_POSTSCRIPT_FIGURE
1002
{
1000
PSFILL
1000
Grayscale
1000
Grayscale
1070
    25
1002
}
  0
LINE
  5
D7D5
  8
YODOROGO
 10
29617.604341291921
 20
1859.749496429288
 30
0.0
 11
29765.604341291921
 21
1859.749496429288
 31
0.0
1001
AUTOCAD_POSTSCRIPT_FIGURE
1002
{
1000
PSFILL
1000
Grayscale
1000
Grayscale
1070
    25
1002
}
  0
LINE
  5
D7D6
  8
YODOROGO
 10
29617.604341291921
 20
1907.7494964292871
 30
0.0
 11
29617.604341291921
 21
1859.749496429288
 31
0.0
1001
AUTOCAD_POSTSCRIPT_FIGURE
1002
{
1000
PSFILL
1000
Grayscale
1000
Grayscale
1070
    25
1002
}
  0
LINE
  5
D7D7
  8
YODOROGO
 10
29765.604341291921
 20
1907.7494964292871
 30
0.0
 11
29617.604341291921
 21
1907.7494964292871
 31
0.0
1001
AUTOCAD_POSTSCRIPT_FIGURE
1002
{
1000
PSFILL
1000
Grayscale
1000
Grayscale
1070
    25
1002
}
  0
LINE
  5
D7D8
  8
YODOROGO
 10
29765.604341291921
 20
1947.749496429288
 30
0.0
 11
29765.604341291921
 21
1907.7494964292871
 31
0.0
1001
AUTOCAD_POSTSCRIPT_FIGURE
1002
{
1000
PSFILL
1000
Grayscale
1000
Grayscale
1070
    25
1002
}
  0
LINE
  5
D7D9
  8
YODOROGO
 10
29617.604341291921
 20
1947.749496429288
 30
0.0
 11
29765.604341291921
 21
1947.749496429288
 31
0.0
1001
AUTOCAD_POSTSCRIPT_FIGURE
1002
{
1000
PSFILL
1000
Grayscale
1000
Grayscale
1070
    25
1002
}
  0
LINE
  5
D7DA
  8
YODOROGO
 10
29617.604341291921
 20
2027.749496429288
 30
0.0
 11
29617.604341291921
 21
1947.749496429288
 31
0.0
1001
AUTOCAD_POSTSCRIPT_FIGURE
1002
{
1000
PSFILL
1000
Grayscale
1000
Grayscale
1070
    25
1002
}
  0
LINE
  5
D7DB
  8
YODOROGO
 10
29665.604341291921
 20
2027.749496429288
 30
0.0
 11
29617.604341291921
 21
2027.749496429288
 31
0.0
1001
AUTOCAD_POSTSCRIPT_FIGURE
1002
{
1000
PSFILL
1000
Grayscale
1000
Grayscale
1070
    25
1002
}
  0
LINE
  5
D7DC
  8
YODOROGO
 10
29665.604341291921
 20
1995.7494964292871
 30
0.0
 11
29665.604341291921
 21
2027.749496429288
 31
0.0
1001
AUTOCAD_POSTSCRIPT_FIGURE
1002
{
1000
PSFILL
1000
Grayscale
1000
Grayscale
1070
    25
1002
}
  0
LINE
  5
D7DD
  8
YODOROGO
 10
29765.604341291921
 20
1995.7494964292871
 30
0.0
 11
29665.604341291921
 21
1995.7494964292871
 31
0.0
1001
AUTOCAD_POSTSCRIPT_FIGURE
1002
{
1000
PSFILL
1000
Grayscale
1000
Grayscale
1070
    25
1002
}
  0
LINE
  5
D7DE
  8
YODOROGO
 10
29765.604341291921
 20
2027.749496429288
 30
0.0
 11
29765.604341291921
 21
1995.7494964292871
 31
0.0
1001
AUTOCAD_POSTSCRIPT_FIGURE
1002
{
1000
PSFILL
1000
Grayscale
1000
Grayscale
1070
    25
1002
}
  0
LINE
  5
D7DF
  8
YODOROGO
 10
29829.604341291921
 20
2027.749496429288
 30
0.0
 11
29765.604341291921
 21
2027.749496429288
 31
0.0
1001
AUTOCAD_POSTSCRIPT_FIGURE
1002
{
1000
PSFILL
1000
Grayscale
1000
Grayscale
1070
    25
1002
}
  0
LINE
  5
D7E0
  8
YODOROGO
 10
29829.604341291921
 20
1995.7494964292871
 30
0.0
 11
29829.604341291921
 21
2027.749496429288
 31
0.0
1001
AUTOCAD_POSTSCRIPT_FIGURE
1002
{
1000
PSFILL
1000
Grayscale
1000
Grayscale
1070
    25
1002
}
  0
LINE
  5
D7E1
  8
YODOROGO
 10
29829.604341291921
 20
1907.7494964292871
 30
0.0
 11
29829.604341291921
 21
1947.749496429288
 31
0.0
1001
AUTOCAD_POSTSCRIPT_FIGURE
1002
{
1000
PSFILL
1000
Grayscale
1000
Grayscale
1070
    25
1002
}
  0
LINE
  5
D7E2
  8
YODOROGO
 10
29829.604341291921
 20
1819.7494964292871
 30
0.0
 11
29829.604341291921
 21
1859.749496429288
 31
0.0
1001
AUTOCAD_POSTSCRIPT_FIGURE
1002
{
1000
PSFILL
1000
Grayscale
1000
Grayscale
1070
    25
1002
}
  0
LINE
  5
D7E3
  8
YODOROGO
 10
29921.60434129191
 20
1771.7494964292871
 30
0.0
 11
29921.60434129191
 21
1707.749496429288
 31
0.0
1001
AUTOCAD_POSTSCRIPT_FIGURE
1002
{
1000
PSFILL
1000
Grayscale
1000
Grayscale
1070
    25
1002
}
  0
LINE
  5
D7E4
  8
YODOROGO
 10
29829.604341291921
 20
1771.7494964292871
 30
0.0
 11
29921.60434129191
 21
1771.7494964292871
 31
0.0
1001
AUTOCAD_POSTSCRIPT_FIGURE
1002
{
1000
PSFILL
1000
Grayscale
1000
Grayscale
1070
    25
1002
}
  0
LINE
  5
D7E5
  8
YODOROGO
 10
29829.604341291921
 20
1707.749496429288
 30
0.0
 11
29829.604341291921
 21
1771.7494964292871
 31
0.0
1001
AUTOCAD_POSTSCRIPT_FIGURE
1002
{
1000
PSFILL
1000
Grayscale
1000
Grayscale
1070
    25
1002
}
  0
LINE
  5
D7E6
  8
YODOROGO
 10
29765.604341291921
 20
1707.749496429288
 30
0.0
 11
29829.604341291921
 21
1707.749496429288
 31
0.0
1001
AUTOCAD_POSTSCRIPT_FIGURE
1002
{
1000
PSFILL
1000
Grayscale
1000
Grayscale
1070
    25
1002
}
  0
LINE
  5
D7E7
  8
YODOROGO
 10
29765.604341291921
 20
1771.7494964292871
 30
0.0
 11
29765.604341291921
 21
1707.749496429288
 31
0.0
1001
AUTOCAD_POSTSCRIPT_FIGURE
1002
{
1000
PSFILL
1000
Grayscale
1000
Grayscale
1070
    25
1002
}
  0
LINE
  5
D7E8
  8
YODOROGO
 10
29673.604341291921
 20
1771.7494964292871
 30
0.0
 11
29765.604341291921
 21
1771.7494964292871
 31
0.0
1001
AUTOCAD_POSTSCRIPT_FIGURE
1002
{
1000
PSFILL
1000
Grayscale
1000
Grayscale
1070
    25
1002
}
  0
ARC
  5
D7E9
  8
YODOROGO
 10
31059.517893357912
 20
1602.6807375155761
 30
0.0
 40
178.22128111072141
 50
281.02627495425338
 51
357.77113575573799
  0
LINE
  5
D7EA
  8
YODOROGO
 10
31413.604341291921
 20
1907.7494964292871
 30
0.0
 11
31165.604341291921
 21
1907.7494964292871
 31
0.0
  0
LINE
  5
D7EB
  8
YODOROGO
 10
31413.604341291921
 20
2027.749496429288
 30
0.0
 11
31165.604341291921
 21
2027.749496429288
 31
0.0
  0
LINE
  5
D7EC
  8
YODOROGO
 10
31165.604341291921
 20
1963.749496429286
 30
0.0
 11
31413.604341291921
 21
1963.749496429286
 31
0.0
  0
LINE
  5
D7ED
  8
YODOROGO
 10
30791.604341291921
 20
1563.7494964292871
 30
0.0
 11
30791.604341291921
 21
1755.7494964292871
 31
0.0
  0
LINE
  5
D7EE
  8
YODOROGO
 10
30763.604341291921
 20
1691.749496429288
 30
0.0
 11
30763.604341291921
 21
1563.7494964292871
 31
0.0
  0
LINE
  5
D7EF
  8
YODOROGO
 10
30723.604341291921
 20
1491.749496429288
 30
0.0
 11
30723.604341291921
 21
1691.749496429288
 31
0.0
  0
LINE
  5
D7F0
  8
YODOROGO
 10
30899.604341291932
 20
1691.749496429288
 30
0.0
 11
30899.604341291932
 21
1491.749496429288
 31
0.0
  0
LINE
  5
D7F1
  8
YODOROGO
 10
30859.604341291932
 20
1563.7494964292871
 30
0.0
 11
30859.604341291932
 21
1691.749496429288
 31
0.0
  0
LINE
  5
D7F2
  8
YODOROGO
 10
30831.604341291921
 20
1755.7494964292871
 30
0.0
 11
30831.604341291921
 21
1563.7494964292871
 31
0.0
  0
LINE
  5
D7F3
  8
YODOROGO
 10
30973.604341291921
 20
2027.749496429288
 30
0.0
 11
30973.604341291921
 21
1467.749496429288
 31
0.0
  0
LINE
  5
D7F4
  8
YODOROGO
 10
30645.604341291921
 20
1427.749496429288
 30
0.0
 11
30645.604341291921
 21
2027.749496429288
 31
0.0
  0
LINE
  5
D7F5
  8
YODOROGO
 10
30697.604341291932
 20
1963.749496429286
 30
0.0
 11
30697.604341291932
 21
1427.749496429288
 31
0.0
  0
LINE
  5
D7F6
  8
YODOROGO
 10
30925.604341291921
 20
1547.749496429288
 30
0.0
 11
30925.604341291921
 21
1963.749496429286
 31
0.0
  0
LINE
  5
D7F7
  8
YODOROGO
 10
30381.604341291932
 20
1627.749496429288
 30
0.0
 11
30381.604341291932
 21
1679.749496429288
 31
0.0
  0
LINE
  5
D7F8
  8
YODOROGO
 10
30617.604341291921
 20
1679.749496429288
 30
0.0
 11
30617.604341291921
 21
1627.749496429288
 31
0.0
  0
LINE
  5
D7F9
  8
YODOROGO
 10
31165.604341291921
 20
1907.7494964292871
 30
0.0
 11
31165.604341291921
 21
1635.7494964292871
 31
0.0
  0
LINE
  5
D7FA
  8
YODOROGO
 10
29949.60434129191
 20
1667.749496429288
 30
0.0
 11
29949.60434129191
 21
1707.749496429288
 31
0.0
  0
LINE
  5
D7FB
  8
YODOROGO
 10
29949.60434129191
 20
1667.749496429288
 30
0.0
 11
29949.60434129191
 21
1707.749496429288
 31
0.0
  0
ARC
  5
D7FC
  8
YODOROGO
 10
30537.604341291921
 20
1507.749496429288
 30
0.0
 40
80.0
 50
270.0
 51
0.0
  0
LINE
  5
D7FD
  8
YODOROGO
 10
30569.604341291921
 20
1599.7494964292871
 30
0.0
 11
30617.604341291921
 21
1599.7494964292871
 31
0.0
  0
LINE
  5
D7FE
  8
YODOROGO
 10
30617.604341291921
 20
1627.749496429288
 30
0.0
 11
30529.604341291939
 21
1627.749496429288
 31
0.0
  0
LINE
  5
D7FF
  8
YODOROGO
 10
30217.604341291921
 20
1667.749496429288
 30
0.0
 11
29949.60434129191
 21
1667.749496429288
 31
0.0
  0
LINE
  5
D800
  8
YODOROGO
 10
30217.604341291921
 20
1627.749496429288
 30
0.0
 11
30217.604341291921
 21
1667.749496429288
 31
0.0
  0
LINE
  5
D801
  8
YODOROGO
 10
30017.604341291921
 20
1627.749496429288
 30
0.0
 11
30217.604341291921
 21
1627.749496429288
 31
0.0
  0
ARC
  5
D802
  8
YODOROGO
 10
30230.05882870136
 20
1868.885714952901
 30
0.0
 40
321.37763628522822
 50
228.6181454618993
 51
245.660289248906
  0
LINE
  5
D803
  8
YODOROGO
 10
30105.604341291921
 20
1603.7494964292871
 30
0.0
 11
30097.60434129195
 21
1576.0728158699001
 31
0.0
  0
LINE
  5
D804
  8
YODOROGO
 10
30189.604341291921
 20
1603.7494964292871
 30
0.0
 11
30105.604341291921
 21
1603.7494964292871
 31
0.0
  0
LINE
  5
D805
  8
YODOROGO
 10
30177.604341291921
 20
1551.817722473427
 30
0.0
 11
30189.604341291921
 21
1603.7494964292871
 31
0.0
  0
ARC
  5
D806
  8
YODOROGO
 10
30230.05882870045
 20
1868.885714953002
 30
0.0
 40
321.37763628529081
 50
260.60629297969911
 51
267.77903556555862
  0
LINE
  5
D807
  8
YODOROGO
 10
30217.604341291921
 20
1427.749496429285
 30
0.0
 11
30217.604341291921
 21
1547.749496429288
 31
0.0
  0
LINE
  5
D808
  8
YODOROGO
 10
29937.604341291932
 20
1481.3393349155101
 30
0.0
 11
29937.604341291921
 21
1594.531090531141
 31
0.0
  0
LINE
  5
D809
  8
YODOROGO
 10
30217.604341291921
 20
1667.749496429288
 30
0.0
 11
29949.60434129191
 21
1667.749496429288
 31
0.0
  0
LINE
  5
D80A
  8
YODOROGO
 10
30217.604341291921
 20
1627.749496429288
 30
0.0
 11
30217.604341291921
 21
1667.749496429288
 31
0.0
  0
LINE
  5
D80B
  8
YODOROGO
 10
30017.604341291921
 20
1627.749496429288
 30
0.0
 11
30217.604341291921
 21
1627.749496429288
 31
0.0
  0
ARC
  5
D80C
  8
YODOROGO
 10
30230.05882870136
 20
1868.885714952901
 30
0.0
 40
321.37763628522822
 50
228.6181454618993
 51
245.660289248906
  0
LINE
  5
D80D
  8
YODOROGO
 10
30105.604341291921
 20
1603.7494964292871
 30
0.0
 11
30097.60434129195
 21
1576.0728158699001
 31
0.0
  0
LINE
  5
D80E
  8
YODOROGO
 10
30189.604341291921
 20
1603.7494964292871
 30
0.0
 11
30105.604341291921
 21
1603.7494964292871
 31
0.0
  0
LINE
  5
D80F
  8
YODOROGO
 10
30177.604341291921
 20
1551.817722473427
 30
0.0
 11
30189.604341291921
 21
1603.7494964292871
 31
0.0
  0
ARC
  5
D810
  8
YODOROGO
 10
30230.05882870045
 20
1868.885714953002
 30
0.0
 40
321.37763628529081
 50
260.60629297969911
 51
267.77903556555862
  0
LINE
  5
D811
  8
YODOROGO
 10
30217.604341291921
 20
1427.749496429285
 30
0.0
 11
30217.604341291921
 21
1547.749496429288
 31
0.0
  0
LINE
  5
D812
  8
YODOROGO
 10
29937.604341291932
 20
1481.3393349155101
 30
0.0
 11
29937.604341291921
 21
1594.531090531141
 31
0.0
  0
LINE
  5
D813
  8
YODOROGO
 10
30433.604341291921
 20
1573.749496429288
 30
0.0
 11
30381.604341291932
 21
1573.749496429288
 31
0.0
  0
LINE
  5
D814
  8
YODOROGO
 10
30433.604341291921
 20
1601.749496429285
 30
0.0
 11
30433.604341291921
 21
1573.749496429288
 31
0.0
  0
LINE
  5
D815
  8
YODOROGO
 10
30381.604341291932
 20
1601.749496429285
 30
0.0
 11
30433.604341291921
 21
1601.749496429285
 31
0.0
  0
LINE
  5
D816
  8
YODOROGO
 10
30381.604341291932
 20
1573.749496429288
 30
0.0
 11
30381.604341291932
 21
1601.749496429285
 31
0.0
  0
LINE
  5
D817
  8
YODOROGO
 10
30429.604341291921
 20
1577.7494964292871
 30
0.0
 11
30385.604341291921
 21
1577.7494964292871
 31
0.0
  0
LINE
  5
D818
  8
YODOROGO
 10
30429.604341291921
 20
1597.749496429288
 30
0.0
 11
30429.604341291921
 21
1577.7494964292871
 31
0.0
  0
LINE
  5
D819
  8
YODOROGO
 10
30385.604341291921
 20
1597.749496429288
 30
0.0
 11
30429.604341291921
 21
1597.749496429288
 31
0.0
  0
LINE
  5
D81A
  8
YODOROGO
 10
30385.604341291921
 20
1577.7494964292871
 30
0.0
 11
30385.604341291921
 21
1597.749496429288
 31
0.0
  0
LINE
  5
D81B
  8
YODOROGO
 10
30425.604341291921
 20
1581.749496429286
 30
0.0
 11
30389.604341291921
 21
1581.749496429286
 31
0.0
  0
LINE
  5
D81C
  8
YODOROGO
 10
30425.604341291921
 20
1593.749496429288
 30
0.0
 11
30425.604341291921
 21
1581.749496429286
 31
0.0
  0
LINE
  5
D81D
  8
YODOROGO
 10
30389.604341291921
 20
1593.749496429288
 30
0.0
 11
30425.604341291921
 21
1593.749496429288
 31
0.0
  0
LINE
  5
D81E
  8
YODOROGO
 10
30389.604341291921
 20
1581.749496429286
 30
0.0
 11
30389.604341291921
 21
1593.749496429288
 31
0.0
  0
LINE
  5
D81F
  8
YODOROGO
 10
30421.604341291932
 20
1585.7494964292871
 30
0.0
 11
30393.604341291921
 21
1585.7494964292871
 31
0.0
  0
LINE
  5
D820
  8
YODOROGO
 10
30421.604341291932
 20
1589.749496429288
 30
0.0
 11
30421.604341291932
 21
1585.7494964292871
 31
0.0
  0
LINE
  5
D821
  8
YODOROGO
 10
30393.604341291921
 20
1589.749496429288
 30
0.0
 11
30421.604341291932
 21
1589.749496429288
 31
0.0
  0
LINE
  5
D822
  8
YODOROGO
 10
30393.604341291921
 20
1585.7494964292871
 30
0.0
 11
30393.604341291921
 21
1589.749496429288
 31
0.0
  0
LINE
  5
D823
  8
YODOROGO
 10
30465.604341291921
 20
1627.749496429288
 30
0.0
 11
30381.604341291932
 21
1627.749496429288
 31
0.0
  0
LINE
  5
D824
  8
YODOROGO
 10
30465.604341291921
 20
1547.749496429288
 30
0.0
 11
30465.604341291921
 21
1627.749496429288
 31
0.0
  0
LINE
  5
D825
  8
YODOROGO
 10
30381.604341291932
 20
1547.749496429288
 30
0.0
 11
30465.604341291921
 21
1547.749496429288
 31
0.0
  0
LINE
  5
D826
  8
YODOROGO
 10
30381.604341291932
 20
1427.749496429288
 30
0.0
 11
30381.604341291932
 21
1547.749496429288
 31
0.0
  0
LINE
  5
D827
  8
YODOROGO
 10
30537.604341291921
 20
1427.749496429288
 30
0.0
 11
30381.604341291932
 21
1427.749496429288
 31
0.0
  0
LINE
  5
D828
  8
YODOROGO
 10
30569.604341291921
 20
1571.749496429285
 30
0.0
 11
30569.604341291921
 21
1599.7494964292871
 31
0.0
  0
ARC
  5
D829
  8
YODOROGO
 10
30545.604341291921
 20
1571.749496429291
 30
0.0
 40
24.000000000003752
 50
270.0
 51
359.99999999998772
  0
LINE
  5
D82A
  8
YODOROGO
 10
30529.604341291939
 20
1547.749496429288
 30
0.0
 11
30545.604341291921
 21
1547.749496429288
 31
0.0
  0
LINE
  5
D82B
  8
YODOROGO
 10
30529.604341291939
 20
1627.749496429288
 30
0.0
 11
30529.604341291939
 21
1547.749496429288
 31
0.0
  0
LINE
  5
D82C
  8
YODOROGO
 10
30899.604341291932
 20
1547.749496429288
 30
0.0
 11
30925.604341291921
 21
1547.749496429288
 31
0.0
  0
LINE
  5
D82D
  8
YODOROGO
 10
30933.604341291921
 20
1427.749496429288
 30
0.0
 11
30899.604341291932
 21
1427.749496429288
 31
0.0
  0
LINE
  5
D82E
  8
YODOROGO
 10
30763.604341291921
 20
1563.7494964292871
 30
0.0
 11
30791.604341291921
 21
1563.7494964292871
 31
0.0
  0
LINE
  5
D82F
  8
YODOROGO
 10
30899.604341291932
 20
1491.749496429288
 30
0.0
 11
30723.604341291921
 21
1491.749496429288
 31
0.0
  0
LINE
  5
D830
  8
YODOROGO
 10
30831.604341291921
 20
1563.7494964292871
 30
0.0
 11
30859.604341291932
 21
1563.7494964292871
 31
0.0
  0
LINE
  5
D831
  8
YODOROGO
 10
30899.604341291932
 20
1427.749496429288
 30
0.0
 11
30899.604341291932
 21
1547.749496429288
 31
0.0
  0
LINE
  5
D832
  8
YODOROGO
 10
30697.604341291932
 20
1427.749496429288
 30
0.0
 11
30645.604341291921
 21
1427.749496429288
 31
0.0
  0
LINE
  5
D833
  8
YODOROGO
 10
30617.604341291921
 20
1599.7494964292871
 30
0.0
 11
30617.604341291921
 21
1507.749496429288
 31
0.0
  0
ARC
  5
D834
  8
YODOROGO
 10
30933.604341291921
 20
1467.749496429288
 30
0.0
 40
40.0
 50
270.0
 51
0.0
  0
LINE
  5
D835
  8
YODOROGO
 10
31093.604341291921
 20
1523.7494964292871
 30
0.0
 11
31093.604341291921
 21
1427.749496429288
 31
0.0
  0
ARC
  5
D836
  8
YODOROGO
 10
31039.721395566768
 20
1637.5313901097329
 30
0.0
 40
125.8955565916754
 50
295.34052442160112
 51
359.18902303418679
  0
LINE
  5
D837
  8
YODOROGO
 10
30617.604341291921
 20
1859.749496429288
 30
0.0
 11
30497.604341291921
 21
1939.749496429288
 31
0.0
  0
LINE
  5
D838
  8
YODOROGO
 10
30497.604341291921
 20
2027.749496429288
 30
0.0
 11
30617.604341291921
 21
1947.749496429288
 31
0.0
  0
LINE
  5
D839
  8
YODOROGO
 10
30529.604341291939
 20
1679.749496429288
 30
0.0
 11
30617.604341291921
 21
1679.749496429288
 31
0.0
  0
LINE
  5
D83A
  8
YODOROGO
 10
30617.604341291921
 20
1735.7494964292871
 30
0.0
 11
30529.604341291939
 21
1735.7494964292871
 31
0.0
  0
LINE
  5
D83B
  8
YODOROGO
 10
30381.604341291932
 20
1795.7494964292871
 30
0.0
 11
30617.604341291921
 21
1795.7494964292871
 31
0.0
  0
LINE
  5
D83C
  8
YODOROGO
 10
30081.604341291921
 20
2027.749496429288
 30
0.0
 11
30021.604341291921
 21
2027.749496429288
 31
0.0
  0
LINE
  5
D83D
  8
YODOROGO
 10
30081.604341291921
 20
1827.7494964292871
 30
0.0
 11
30081.604341291921
 21
2027.749496429288
 31
0.0
  0
LINE
  5
D83E
  8
YODOROGO
 10
30021.604341291921
 20
1827.7494964292871
 30
0.0
 11
30081.604341291921
 21
1827.7494964292871
 31
0.0
  0
LINE
  5
D83F
  8
YODOROGO
 10
30021.604341291921
 20
2027.749496429288
 30
0.0
 11
30021.604341291921
 21
1827.7494964292871
 31
0.0
  0
LINE
  5
D840
  8
YODOROGO
 10
30161.604341291921
 20
2027.749496429288
 30
0.0
 11
30217.604341291921
 21
2027.749496429288
 31
0.0
  0
LINE
  5
D841
  8
YODOROGO
 10
30161.604341291921
 20
1811.749496429288
 30
0.0
 11
30161.604341291921
 21
2027.749496429288
 31
0.0
  0
ARC
  5
D842
  8
YODOROGO
 10
30121.604341291921
 20
1811.749496429288
 30
0.0
 40
40.0
 50
270.0
 51
0.0
  0
LINE
  5
D843
  8
YODOROGO
 10
30021.604341291921
 20
1771.7494964292871
 30
0.0
 11
30121.604341291921
 21
1771.7494964292871
 31
0.0
  0
LINE
  5
D844
  8
YODOROGO
 10
30021.604341291921
 20
1707.749496429288
 30
0.0
 11
30021.604341291921
 21
1771.7494964292871
 31
0.0
  0
LINE
  5
D845
  8
YODOROGO
 10
30137.604341291921
 20
1707.749496429288
 30
0.0
 11
30021.604341291921
 21
1707.749496429288
 31
0.0
  0
ARC
  5
D846
  8
YODOROGO
 10
30137.604341291921
 20
1787.7494964292871
 30
0.0
 40
80.0
 50
270.0
 51
0.0
  0
LINE
  5
D847
  8
YODOROGO
 10
30217.604341291921
 20
2027.749496429288
 30
0.0
 11
30217.604341291921
 21
1787.7494964292871
 31
0.0
  0
LINE
  5
D848
  8
YODOROGO
 10
29977.604341291921
 20
1947.749496429288
 30
0.0
 11
29977.604341291921
 21
1995.7494964292871
 31
0.0
1001
AUTOCAD_POSTSCRIPT_FIGURE
1002
{
1000
PSFILL
1000
Grayscale
1000
Grayscale
1070
    25
1002
}
  0
LINE
  5
D849
  8
YODOROGO
 10
29977.604341291921
 20
1859.749496429288
 30
0.0
 11
29977.604341291921
 21
1907.7494964292871
 31
0.0
1001
AUTOCAD_POSTSCRIPT_FIGURE
1002
{
1000
PSFILL
1000
Grayscale
1000
Grayscale
1070
    25
1002
}
  0
LINE
  5
D84A
  8
YODOROGO
 10
29977.604341291921
 20
1707.749496429288
 30
0.0
 11
29977.604341291921
 21
1819.7494964292871
 31
0.0
1001
AUTOCAD_POSTSCRIPT_FIGURE
1002
{
1000
PSFILL
1000
Grayscale
1000
Grayscale
1070
    25
1002
}
  0
LINE
  5
D84B
  8
YODOROGO
 10
30381.604341291932
 20
1907.7494964292871
 30
0.0
 11
30497.604341291921
 21
2027.749496429288
 31
0.0
  0
LINE
  5
D84C
  8
YODOROGO
 10
30381.604341291932
 20
1819.7494964292871
 30
0.0
 11
30381.604341291932
 21
1907.7494964292871
 31
0.0
  0
LINE
  5
D84D
  8
YODOROGO
 10
30497.604341291921
 20
1939.749496429288
 30
0.0
 11
30381.604341291932
 21
1819.7494964292871
 31
0.0
  0
LINE
  5
D84E
  8
YODOROGO
 10
30465.604341291921
 20
1679.749496429288
 30
0.0
 11
30465.604341291921
 21
1735.7494964292871
 31
0.0
  0
LINE
  5
D84F
  8
YODOROGO
 10
30381.604341291932
 20
1679.749496429288
 30
0.0
 11
30465.604341291921
 21
1679.749496429288
 31
0.0
  0
LINE
  5
D850
  8
YODOROGO
 10
30529.604341291939
 20
1735.7494964292871
 30
0.0
 11
30529.604341291939
 21
1679.749496429288
 31
0.0
  0
LINE
  5
D851
  8
YODOROGO
 10
30381.604341291932
 20
1735.7494964292871
 30
0.0
 11
30381.604341291932
 21
1795.7494964292871
 31
0.0
  0
LINE
  5
D852
  8
YODOROGO
 10
30465.604341291921
 20
1735.7494964292871
 30
0.0
 11
30381.604341291932
 21
1735.7494964292871
 31
0.0
  0
LINE
  5
D853
  8
YODOROGO
 10
30645.604341291921
 20
2027.749496429288
 30
0.0
 11
30973.604341291921
 21
2027.749496429288
 31
0.0
  0
LINE
  5
D854
  8
YODOROGO
 10
30925.604341291921
 20
1963.749496429286
 30
0.0
 11
30697.604341291932
 21
1963.749496429286
 31
0.0
  0
LINE
  5
D855
  8
YODOROGO
 10
30873.604341291921
 20
1819.7494964292871
 30
0.0
 11
30899.604341291932
 21
1819.7494964292871
 31
0.0
  0
LINE
  5
D856
  8
YODOROGO
 10
30899.604341291932
 20
1939.749496429288
 30
0.0
 11
30873.604341291921
 21
1819.7494964292871
 31
0.0
  0
LINE
  5
D857
  8
YODOROGO
 10
30851.604341291939
 20
1939.749496429288
 30
0.0
 11
30899.604341291932
 21
1939.749496429288
 31
0.0
  0
LINE
  5
D858
  8
YODOROGO
 10
30825.604341291921
 20
1819.7494964292871
 30
0.0
 11
30851.604341291939
 21
1939.749496429288
 31
0.0
  0
LINE
  5
D859
  8
YODOROGO
 10
30797.604341291921
 20
1819.7494964292871
 30
0.0
 11
30825.604341291921
 21
1819.7494964292871
 31
0.0
  0
LINE
  5
D85A
  8
YODOROGO
 10
30771.604341291939
 20
1939.749496429288
 30
0.0
 11
30797.604341291921
 21
1819.7494964292871
 31
0.0
  0
LINE
  5
D85B
  8
YODOROGO
 10
30723.604341291921
 20
1939.749496429288
 30
0.0
 11
30771.604341291939
 21
1939.749496429288
 31
0.0
  0
LINE
  5
D85C
  8
YODOROGO
 10
30749.604341291921
 20
1819.7494964292871
 30
0.0
 11
30723.604341291921
 21
1939.749496429288
 31
0.0
  0
LINE
  5
D85D
  8
YODOROGO
 10
30723.604341291921
 20
1819.7494964292871
 30
0.0
 11
30749.604341291921
 21
1819.7494964292871
 31
0.0
  0
LINE
  5
D85E
  8
YODOROGO
 10
30723.604341291921
 20
1755.7494964292871
 30
0.0
 11
30723.604341291921
 21
1819.7494964292871
 31
0.0
  0
LINE
  5
D85F
  8
YODOROGO
 10
30899.604341291932
 20
1755.7494964292871
 30
0.0
 11
30723.604341291921
 21
1755.7494964292871
 31
0.0
  0
LINE
  5
D860
  8
YODOROGO
 10
30899.604341291932
 20
1819.7494964292871
 30
0.0
 11
30899.604341291932
 21
1755.7494964292871
 31
0.0
  0
LINE
  5
D861
  8
YODOROGO
 10
30617.604341291921
 20
1947.749496429288
 30
0.0
 11
30617.604341291921
 21
1859.749496429288
 31
0.0
  0
LINE
  5
D862
  8
YODOROGO
 10
30791.604341291921
 20
1755.7494964292871
 30
0.0
 11
30831.604341291921
 21
1755.7494964292871
 31
0.0
  0
LINE
  5
D863
  8
YODOROGO
 10
30723.604341291921
 20
1691.749496429288
 30
0.0
 11
30763.604341291921
 21
1691.749496429288
 31
0.0
  0
LINE
  5
D864
  8
YODOROGO
 10
30859.604341291932
 20
1691.749496429288
 30
0.0
 11
30899.604341291932
 21
1691.749496429288
 31
0.0
  0
LINE
  5
D865
  8
YODOROGO
 10
30617.604341291921
 20
1795.7494964292871
 30
0.0
 11
30617.604341291921
 21
1735.7494964292871
 31
0.0
  0
LINE
  5
D866
  8
YODOROGO
 10
31165.604341291921
 20
2027.749496429288
 30
0.0
 11
31165.604341291921
 21
1963.749496429286
 31
0.0
  0
LINE
  5
D867
  8
YODOROGO
 10
31533.604341291921
 20
1595.7494964292871
 30
0.0
 11
31533.60434129191
 21
1811.749496429288
 31
0.0
  0
LINE
  5
D868
  8
YODOROGO
 10
31461.60434129191
 20
1987.7494964292871
 30
0.0
 11
31461.60434129191
 21
1635.7494964292871
 31
0.0
  0
LINE
  5
D869
  8
YODOROGO
 10
31653.604341291921
 20
1427.749496429288
 30
0.0
 11
31653.60434129191
 21
1811.749496429288
 31
0.0
  0
LINE
  5
D86A
  8
YODOROGO
 10
31589.604341291921
 20
1811.749496429288
 30
0.0
 11
31589.604341291921
 21
1427.749496429288
 31
0.0
  0
LINE
  5
D86B
  8
YODOROGO
 10
31237.604341291921
 20
1595.7494964292871
 30
0.0
 11
31237.604341291921
 21
1707.749496429288
 31
0.0
  0
ARC
  5
D86C
  8
YODOROGO
 10
31353.914865116069
 20
1607.790351288558
 30
0.0
 40
180.0924485759885
 50
268.62849102169793
 51
356.16638457330322
  0
LINE
  5
D86D
  8
YODOROGO
 10
31349.604341291939
 20
1527.749496429288
 30
0.0
 11
31349.604341291939
 21
1427.749496429288
 31
0.0
  0
ARC
  5
D86E
  8
YODOROGO
 10
31351.518075724562
 20
1637.838957017655
 30
0.0
 40
110.1060929836122
 50
269.00410209305932
 51
358.91264455492478
  0
LINE
  5
D86F
  8
YODOROGO
 10
31589.604341291921
 20
1427.749496429288
 30
0.0
 11
31653.604341291921
 21
1427.749496429288
 31
0.0
  0
LINE
  5
D870
  8
YODOROGO
 10
31533.60434129191
 20
1811.749496429288
 30
0.0
 11
31589.604341291921
 21
1811.749496429288
 31
0.0
  0
LINE
  5
D871
  8
YODOROGO
 10
31621.604341291939
 20
1987.7494964292871
 30
0.0
 11
31461.60434129191
 21
1987.7494964292871
 31
0.0
  0
LINE
  5
D872
  8
YODOROGO
 10
31533.60434129191
 20
1915.7494964292871
 30
0.0
 11
31661.604341291939
 21
1915.7494964292871
 31
0.0
  0
LINE
  5
D873
  8
YODOROGO
 10
31701.604341291939
 20
1875.7494964292871
 30
0.0
 11
31533.60434129191
 21
1875.7494964292871
 31
0.0
  0
LINE
  5
D874
  8
YODOROGO
 10
31237.604341291921
 20
1779.749496429288
 30
0.0
 11
31349.604341291939
 21
1779.749496429288
 31
0.0
  0
LINE
  5
D875
  8
YODOROGO
 10
31237.604341291921
 20
1835.7494964292871
 30
0.0
 11
31237.604341291921
 21
1779.749496429288
 31
0.0
  0
LINE
  5
D876
  8
YODOROGO
 10
31349.604341291939
 20
1835.7494964292871
 30
0.0
 11
31237.604341291921
 21
1835.7494964292871
 31
0.0
  0
LINE
  5
D877
  8
YODOROGO
 10
31349.604341291939
 20
1779.749496429288
 30
0.0
 11
31349.604341291939
 21
1835.7494964292871
 31
0.0
  0
LINE
  5
D878
  8
YODOROGO
 10
31533.60434129191
 20
1875.7494964292871
 30
0.0
 11
31533.60434129191
 21
1915.7494964292871
 31
0.0
  0
LINE
  5
D879
  8
YODOROGO
 10
31413.604341291921
 20
1707.749496429288
 30
0.0
 11
31413.604341291921
 21
1907.7494964292871
 31
0.0
  0
LINE
  5
D87A
  8
YODOROGO
 10
31237.604341291921
 20
1707.749496429288
 30
0.0
 11
31413.604341291921
 21
1707.749496429288
 31
0.0
  0
LINE
  5
D87B
  8
YODOROGO
 10
31413.604341291921
 20
1963.749496429286
 30
0.0
 11
31413.604341291921
 21
2027.749496429288
 31
0.0
  0
ARC
  5
D87C
  8
YODOROGO
 10
31621.604341291939
 20
2003.749496429285
 30
0.0
 40
15.999999999994539
 50
270.0
 51
0.0000000000081422
  0
LINE
  5
D87D
  8
YODOROGO
 10
31637.604341291921
 20
2027.749496429288
 30
0.0
 11
31637.604341291921
 21
2003.7494964292871
 31
0.0
  0
LINE
  5
D87E
  8
YODOROGO
 10
31701.604341291939
 20
2027.749496429288
 30
0.0
 11
31637.604341291921
 21
2027.749496429288
 31
0.0
  0
LINE
  5
D87F
  8
YODOROGO
 10
31701.604341291939
 20
1955.7494964292871
 30
0.0
 11
31701.604341291939
 21
2027.749496429288
 31
0.0
  0
ARC
  5
D880
  8
YODOROGO
 10
31661.604341291939
 20
1955.7494964292871
 30
0.0
 40
40.0
 50
270.0
 51
0.0
  0
LINE
  5
D881
  8
YODOROGO
 10
31701.604341291939
 20
1811.749496429288
 30
0.0
 11
31701.604341291939
 21
1875.7494964292871
 31
0.0
  0
LINE
  5
D882
  8
YODOROGO
 10
31653.60434129191
 20
1811.749496429288
 30
0.0
 11
31701.604341291939
 21
1811.749496429288
 31
0.0
  0
LINE
  5
D883
  8
0-6
  6
CONTINUOUS
 62
     6
 10
9012.6012337326247
 20
13524.237716512651
 30
0.0
 11
8953.8512351039099
 21
13675.455711421981
 31
0.0
  0
LINE
  5
D884
  8
0-6
  6
CONTINUOUS
 62
     6
 10
8953.8512351039099
 20
13675.455711421981
 30
0.0
 11
9058.4622267907234
 21
13551.45980527354
 31
0.0
  0
LINE
  5
D885
  8
0-6
  6
CONTINUOUS
 62
     6
 10
9058.4622267907234
 20
13551.45980527354
 30
0.0
 11
9012.6012337326247
 21
13524.237716512651
 31
0.0
  0
LINE
  5
D886
  8
SUNPOU
  6
CONTINUOUS
 62
     4
 10
13542.03131019258
 20
13685.95614742195
 30
0.0
 11
14389.031086192561
 21
13685.95614742195
 31
0.0
  0
LINE
  5
D887
  8
SUNPOU
  6
CONTINUOUS
 62
     4
 10
14309.031086192561
 20
13878.455421421961
 30
0.0
 11
14309.031086192561
 21
13685.95614742195
 31
0.0
  0
LINE
  5
D888
  8
SUNPOU
  6
CONTINUOUS
 62
     4
 10
14309.031086192561
 20
16796.455421421939
 30
0.0
 11
14309.031086192561
 21
13878.455421421961
 31
0.0
  0
LINE
  5
D889
  8
SUNPOU
  6
CONTINUOUS
 62
     4
 10
14309.031086192561
 20
19714.45542142195
 30
0.0
 11
14309.031086192561
 21
16796.455421421939
 31
0.0
  0
LINE
  5
D88A
  8
SUNPOU
  6
CONTINUOUS
 62
     4
 10
14229.031086192561
 20
19714.45542142195
 30
0.0
 11
14269.031086192561
 21
19714.45542142195
 31
0.0
  0
LINE
  5
D88B
  8
SUNPOU
  6
CONTINUOUS
 62
     4
 10
13537.032036192581
 20
19936.955289421941
 30
0.0
 11
14349.031086192561
 21
19936.955289421941
 31
0.0
  0
LINE
  5
D88C
  8
SUNPOU
  6
CONTINUOUS
 62
     4
 10
14309.031086192561
 20
19714.45542142195
 30
0.0
 11
14309.031086192561
 21
19936.955289421941
 31
0.0
  0
LINE
  5
D88D
  8
SUNPOU
  6
CONTINUOUS
 62
     4
 10
13468.531191192549
 20
19926.95872042195
 30
0.0
 11
13989.031745192549
 21
19926.95872042195
 31
0.0
  0
LINE
  5
D88E
  8
SUNPOU
  6
CONTINUOUS
 62
     4
 10
13537.032036192581
 20
19936.955289421941
 30
0.0
 11
13989.031745192549
 21
19936.955289421941
 31
0.0
  0
LINE
  5
D88F
  8
SUNPOU
  6
CONTINUOUS
 62
     4
 10
13909.031745192549
 20
19926.95872042195
 30
0.0
 11
13909.031745192549
 21
19686.95872042195
 31
0.0
  0
LINE
  5
D890
  8
SUNPOU
  6
CONTINUOUS
 62
     4
 10
13909.031745192549
 20
19936.955289421941
 30
0.0
 11
13909.031745192549
 21
20176.955289421949
 31
0.0
  0
LINE
  5
D891
  8
SUNPOU
  6
CONTINUOUS
 62
     4
 10
13909.031745192549
 20
19926.95872042195
 30
0.0
 11
13909.031745192549
 21
19936.955289421941
 31
0.0
  0
LINE
  5
D892
  8
SUNPOU
  6
CONTINUOUS
 62
     4
 10
8012.0313101925813
 20
20561.957334421961
 30
0.0
 11
8012.0313101925813
 21
20636.956345421939
 31
0.0
  0
LINE
  5
D893
  8
SUNPOU
  6
CONTINUOUS
 62
     4
 10
7926.5313101925794
 20
20011.95700442194
 30
0.0
 11
7926.5313101925794
 21
20636.956345421939
 31
0.0
  0
LINE
  5
D894
  8
SUNPOU
  6
CONTINUOUS
 62
     4
 10
8012.0313101925813
 20
20556.95634542195
 30
0.0
 11
8252.0313101925785
 21
20556.95634542195
 31
0.0
  0
LINE
  5
D895
  8
SUNPOU
  6
CONTINUOUS
 62
     4
 10
7929.5313101925794
 20
20556.95634542195
 30
0.0
 11
7689.5313101925794
 21
20556.95634542195
 31
0.0
  0
LINE
  5
D896
  8
SUNPOU
  6
CONTINUOUS
 62
     4
 10
8012.0313101925813
 20
20556.95634542195
 30
0.0
 11
7929.5313101925794
 21
20556.95634542195
 31
0.0
  0
LINE
  5
D897
  8
SUNPOU
  6
CONTINUOUS
 62
     4
 10
10812.031310192569
 20
20561.957334421961
 30
0.0
 11
10812.031310192569
 21
20636.956345421939
 31
0.0
  0
LINE
  5
D898
  8
SUNPOU
  6
CONTINUOUS
 62
     4
 10
8012.0313101925813
 20
20561.957334421961
 30
0.0
 11
8012.0313101925813
 21
20636.956345421939
 31
0.0
  0
LINE
  5
D899
  8
SUNPOU
  6
CONTINUOUS
 62
     4
 10
10812.031310192569
 20
20556.95634542195
 30
0.0
 11
8012.0313101925813
 21
20556.95634542195
 31
0.0
  0
LINE
  5
D89A
  8
SUNPOU
  6
CONTINUOUS
 62
     4
 10
13379.53131019258
 20
20086.957004421929
 30
0.0
 11
13379.53131019258
 21
20636.956345421939
 31
0.0
  0
LINE
  5
D89B
  8
SUNPOU
  6
CONTINUOUS
 62
     4
 10
10812.031310192569
 20
20561.957334421961
 30
0.0
 11
10812.031310192569
 21
20636.956345421939
 31
0.0
  0
LINE
  5
D89C
  8
SUNPOU
  6
CONTINUOUS
 62
     4
 10
13379.53131019258
 20
20556.95634542195
 30
0.0
 11
10812.031310192569
 21
20556.95634542195
 31
0.0
  0
LINE
  5
D89D
  8
SUNPOU
  6
CONTINUOUS
 62
     4
 10
13379.53131019258
 20
20086.957004421929
 30
0.0
 11
13379.53131019258
 21
20636.956345421939
 31
0.0
  0
LINE
  5
D89E
  8
SUNPOU
  6
CONTINUOUS
 62
     4
 10
13465.03131019258
 20
20006.95674142196
 30
0.0
 11
13465.03131019258
 21
20636.956345421939
 31
0.0
  0
LINE
  5
D89F
  8
SUNPOU
  6
CONTINUOUS
 62
     4
 10
13379.53131019258
 20
20556.95634542195
 30
0.0
 11
13139.53131019258
 21
20556.95634542195
 31
0.0
  0
LINE
  5
D8A0
  8
SUNPOU
  6
CONTINUOUS
 62
     4
 10
13462.03131019258
 20
20556.95634542195
 30
0.0
 11
13702.03131019258
 21
20556.95634542195
 31
0.0
  0
LINE
  5
D8A1
  8
SUNPOU
  6
CONTINUOUS
 62
     4
 10
13379.53131019258
 20
20556.95634542195
 30
0.0
 11
13462.03131019258
 21
20556.95634542195
 31
0.0
  0
LINE
  5
D8A2
  8
SUNPOU
  6
CONTINUOUS
 62
     4
 10
13465.03131019258
 20
13605.95614742195
 30
0.0
 11
13465.03131019258
 21
12315.95535542194
 31
0.0
  0
LINE
  5
D8A3
  8
SUNPOU
  6
CONTINUOUS
 62
     4
 10
7926.5313101925794
 20
13605.956147421941
 30
0.0
 11
7926.5313101925794
 21
12315.95535542194
 31
0.0
  0
LINE
  5
D8A4
  8
SUNPOU
  6
CONTINUOUS
 62
     4
 10
13462.03131019258
 20
12395.95535542194
 30
0.0
 11
7929.5313101925794
 21
12395.95535542194
 31
0.0
  0
LINE
  5
D8A8
  8
SUNPOU
  6
CONTINUOUS
 62
     4
 10
13802.3888954096
 20
8524.1575434219612
 30
0.0
 11
13802.3888954096
 21
9915.1575694219573
 31
0.0
  0
LINE
  5
D8A9
  8
SUNPOU
  6
CONTINUOUS
 62
     4
 10
7551.3888954096028
 20
8656.0473668343893
 30
0.0
 11
7551.3888954096028
 21
9915.1575694219573
 31
0.0
  0
LINE
  5
D8AA
  8
SUNPOU
  6
CONTINUOUS
 62
     4
 10
13802.3888954096
 20
9835.1575694219573
 30
0.0
 11
7551.3888954096028
 21
9835.1575694219573
 31
0.0
  0
LINE
  5
D8AB
  8
SUNPOU
  6
CONTINUOUS
 62
     4
 10
7701.3888954095974
 20
8582.0676074219573
 30
0.0
 11
7701.3888954095974
 21
9515.1592194219611
 31
0.0
  0
LINE
  5
D8AC
  8
SUNPOU
  6
CONTINUOUS
 62
     4
 10
7551.3888954096028
 20
8656.0473668343893
 30
0.0
 11
7551.3888954096028
 21
9515.1592194219611
 31
0.0
  0
LINE
  5
D8AD
  8
SUNPOU
  6
CONTINUOUS
 62
     4
 10
7701.3888954095974
 20
9435.1592194219593
 30
0.0
 11
7941.3888954095983
 21
9435.1592194219593
 31
0.0
  0
LINE
  5
D8AE
  8
SUNPOU
  6
CONTINUOUS
 62
     4
 10
7551.3888954096028
 20
9435.1592194219593
 30
0.0
 11
7311.3888954096064
 21
9435.1592194219593
 31
0.0
  0
LINE
  5
D8AF
  8
SUNPOU
  6
CONTINUOUS
 62
     4
 10
7701.3888954095974
 20
9435.1592194219593
 30
0.0
 11
7551.3888954096028
 21
9435.1592194219593
 31
0.0
  0
LINE
  5
D8B0
  8
SUNPOU
  6
CONTINUOUS
 62
     4
 10
13622.3888954096
 20
8394.3433191057684
 30
0.0
 11
13622.3888954096
 21
9515.1592194219611
 31
0.0
  0
LINE
  5
D8B1
  8
SUNPOU
  6
CONTINUOUS
 62
     4
 10
7701.3888954095974
 20
8582.0676074219573
 30
0.0
 11
7701.3888954095974
 21
9515.1592194219611
 31
0.0
  0
LINE
  5
D8B2
  8
SUNPOU
  6
CONTINUOUS
 62
     4
 10
13622.3888954096
 20
9435.1592194219593
 30
0.0
 11
7701.3888954095974
 21
9435.1592194219593
 31
0.0
  0
LINE
  5
D8B3
  8
SUNPOU
  6
CONTINUOUS
 62
     4
 10
13802.3888954096
 20
8524.1575434219612
 30
0.0
 11
13802.3888954096
 21
9515.1592194219611
 31
0.0
  0
LINE
  5
D8B4
  8
SUNPOU
  6
CONTINUOUS
 62
     4
 10
13622.3888954096
 20
8394.3433191057684
 30
0.0
 11
13622.3888954096
 21
9515.1592194219611
 31
0.0
  0
LINE
  5
D8B5
  8
SUNPOU
  6
CONTINUOUS
 62
     4
 10
13802.3888954096
 20
9435.1592194219593
 30
0.0
 11
13622.3888954096
 21
9435.1592194219593
 31
0.0
  0
LINE
  5
D8B6
  8
SUNPOU
  6
CONTINUOUS
 62
     4
 10
7608.8888954096028
 20
6287.1575434219621
 30
0.0
 11
6531.3884994096006
 21
6287.1575434219621
 31
0.0
  0
LINE
  5
D8B7
  8
SUNPOU
  6
CONTINUOUS
 62
     4
 10
7516.5816358102247
 20
8635.6575434219612
 30
0.0
 11
6531.3884994096006
 21
8635.6575434219612
 31
0.0
  0
LINE
  5
D8B8
  8
SUNPOU
  6
CONTINUOUS
 62
     4
 10
6611.3884994096006
 20
6287.1575434219621
 30
0.0
 11
6611.3884994096006
 21
8635.6575434219612
 31
0.0
  0
LINE
  5
D8B9
  8
SUNPOU
  6
CONTINUOUS
 62
     4
 10
13709.8888954096
 20
6287.1575434219621
 30
0.0
 11
14792.38929140959
 21
6287.1575434219612
 31
0.0
  0
LINE
  5
D8BA
  8
SUNPOU
  6
CONTINUOUS
 62
     4
 10
13882.3888954096
 20
8443.6575434219612
 30
0.0
 11
14792.38929140959
 21
8443.6575434219612
 31
0.0
  0
LINE
  5
D8BB
  8
SUNPOU
  6
CONTINUOUS
 62
     4
 10
14712.38929140959
 20
6287.1575434219612
 30
0.0
 11
14712.38929140959
 21
8443.6575434219612
 31
0.0
  0
LINE
  5
D8BC
  8
SUNPOU
  6
CONTINUOUS
 62
     4
 10
13622.3888954096
 20
6207.1575434219603
 30
0.0
 11
13622.3888954096
 21
4507.1578734219556
 31
0.0
  0
LINE
  5
D8BD
  8
SUNPOU
  6
CONTINUOUS
 62
     4
 10
7701.3888954095974
 20
6207.1575434219603
 30
0.0
 11
7701.3888954095974
 21
4507.1578734219556
 31
0.0
  0
LINE
  5
D8BE
  8
SUNPOU
  6
CONTINUOUS
 62
     4
 10
13622.3888954096
 20
4587.1578734219574
 30
0.0
 11
7701.3888954095974
 21
4587.1578734219574
 31
0.0
  0
LINE
  5
D8BF
  8
SUNPOU
  6
CONTINUOUS
 62
     4
 10
7743.8888954096037
 20
5844.5052854219593
 30
0.0
 11
7743.8888954096037
 21
4907.1577084219589
 31
0.0
  0
LINE
  5
D8C0
  8
SUNPOU
  6
CONTINUOUS
 62
     4
 10
7701.3888954095974
 20
6207.1575434219603
 30
0.0
 11
7701.3888954095974
 21
4907.1577084219589
 31
0.0
  0
LINE
  5
D8C1
  8
SUNPOU
  6
CONTINUOUS
 62
     4
 10
7743.8888954096037
 20
4987.1577084219589
 30
0.0
 11
7983.8888954096028
 21
4987.1577084219589
 31
0.0
  0
LINE
  5
D8C2
  8
SUNPOU
  6
CONTINUOUS
 62
     4
 10
7701.3888954095974
 20
4987.1577084219589
 30
0.0
 11
7461.3888954095974
 21
4987.1577084219589
 31
0.0
  0
LINE
  5
D8C3
  8
SUNPOU
  6
CONTINUOUS
 62
     4
 10
7743.8888954096037
 20
4987.1577084219589
 30
0.0
 11
7701.3888954095974
 21
4987.1577084219589
 31
0.0
  0
LINE
  5
D8C4
  8
SUNPOU
  6
CONTINUOUS
 62
     4
 10
13579.888895409589
 20
5844.5052854219593
 30
0.0
 11
13579.888895409589
 21
4907.1577084219589
 31
0.0
  0
LINE
  5
D8C5
  8
SUNPOU
  6
CONTINUOUS
 62
     4
 10
13622.3888954096
 20
6207.1575434219603
 30
0.0
 11
13622.3888954096
 21
4907.1577084219589
 31
0.0
  0
LINE
  5
D8C6
  8
SUNPOU
  6
CONTINUOUS
 62
     4
 10
13579.888895409589
 20
4987.1577084219589
 30
0.0
 11
13339.8888954096
 21
4987.1577084219589
 31
0.0
  0
LINE
  5
D8C7
  8
SUNPOU
  6
CONTINUOUS
 62
     4
 10
13622.3888954096
 20
4987.1577084219589
 30
0.0
 11
13862.3888954096
 21
4987.1577084219589
 31
0.0
  0
LINE
  5
D8C8
  8
SUNPOU
  6
CONTINUOUS
 62
     4
 10
13579.888895409589
 20
4987.1577084219589
 30
0.0
 11
13622.3888954096
 21
4987.1577084219589
 31
0.0
  0
LINE
  5
D8C9
  8
SUNPOU
  6
CONTINUOUS
 62
     4
 10
10661.8888954096
 20
5844.5052854219593
 30
0.0
 11
10661.8888954096
 21
4907.1577084219589
 31
0.0
  0
LINE
  5
D8CA
  8
SUNPOU
  6
CONTINUOUS
 62
     4
 10
13579.888895409589
 20
5844.5052854219593
 30
0.0
 11
13579.888895409589
 21
4907.1577084219589
 31
0.0
  0
LINE
  5
D8CB
  8
SUNPOU
  6
CONTINUOUS
 62
     4
 10
10661.8888954096
 20
4987.1577084219589
 30
0.0
 11
13579.888895409589
 21
4987.1577084219589
 31
0.0
  0
LINE
  5
D8CC
  8
SUNPOU
  6
CONTINUOUS
 62
     4
 10
10661.8888954096
 20
5844.5052854219593
 30
0.0
 11
10661.8888954096
 21
4907.1577084219589
 31
0.0
  0
LINE
  5
D8CD
  8
SUNPOU
  6
CONTINUOUS
 62
     4
 10
7743.8888954096037
 20
5844.5052854219593
 30
0.0
 11
7743.8888954096037
 21
4907.1577084219589
 31
0.0
  0
LINE
  5
D8CE
  8
SUNPOU
  6
CONTINUOUS
 62
     4
 10
10661.8888954096
 20
4987.1577084219589
 30
0.0
 11
7743.8888954096037
 21
4987.1577084219589
 31
0.0
  0
LINE
  5
D8CF
  8
SUNPOU
  6
CONTINUOUS
 62
     4
 10
25856.97281063069
 20
8715.6575694219555
 30
0.0
 11
25856.97281063069
 21
9915.1021434219656
 31
0.0
  0
LINE
  5
D8D0
  8
SUNPOU
  6
CONTINUOUS
 62
     4
 10
20318.472810630679
 20
8715.6575694219555
 30
0.0
 11
20318.472810630679
 21
9915.1021434219656
 31
0.0
  0
LINE
  5
D8D1
  8
SUNPOU
  6
CONTINUOUS
 62
     4
 10
25853.97281063069
 20
9835.1021434219638
 30
0.0
 11
20321.472810630679
 21
9835.1021434219638
 31
0.0
  0
LINE
  5
D8D2
  8
SUNPOU
  6
CONTINUOUS
 62
     4
 10
20361.472810630661
 20
8715.6575694219555
 30
0.0
 11
20361.472810630661
 21
9515.1592194219611
 31
0.0
  0
LINE
  5
D8D3
  8
SUNPOU
  6
CONTINUOUS
 62
     4
 10
20318.472810630679
 20
8715.6575694219555
 30
0.0
 11
20318.472810630679
 21
9515.1592194219611
 31
0.0
  0
LINE
  5
D8D4
  8
SUNPOU
  6
CONTINUOUS
 62
     4
 10
20361.472810630661
 20
9435.1592194219593
 30
0.0
 11
20601.472810630661
 21
9435.1592194219593
 31
0.0
  0
LINE
  5
D8D5
  8
SUNPOU
  6
CONTINUOUS
 62
     4
 10
20321.472810630679
 20
9435.1592194219593
 30
0.0
 11
20081.472810630679
 21
9435.1592194219593
 31
0.0
  0
LINE
  5
D8D6
  8
SUNPOU
  6
CONTINUOUS
 62
     4
 10
20361.472810630661
 20
9435.1592194219593
 30
0.0
 11
20321.472810630679
 21
9435.1592194219593
 31
0.0
  0
LINE
  5
D8D7
  8
SUNPOU
  6
CONTINUOUS
 62
     4
 10
25813.97281063069
 20
8585.657635421956
 30
0.0
 11
25813.97281063069
 21
9515.1592194219611
 31
0.0
  0
LINE
  5
D8D8
  8
SUNPOU
  6
CONTINUOUS
 62
     4
 10
25856.97281063069
 20
8715.6575694219555
 30
0.0
 11
25856.97281063069
 21
9515.1592194219611
 31
0.0
  0
LINE
  5
D8D9
  8
SUNPOU
  6
CONTINUOUS
 62
     4
 10
25813.97281063069
 20
9435.1592194219593
 30
0.0
 11
25573.97281063069
 21
9435.1592194219593
 31
0.0
  0
LINE
  5
D8DA
  8
SUNPOU
  6
CONTINUOUS
 62
     4
 10
25856.97281063069
 20
9435.1592194219593
 30
0.0
 11
26096.97281063069
 21
9435.1592194219593
 31
0.0
  0
LINE
  5
D8DB
  8
SUNPOU
  6
CONTINUOUS
 62
     4
 10
25813.97281063069
 20
9435.1592194219593
 30
0.0
 11
25856.97281063069
 21
9435.1592194219593
 31
0.0
  0
LINE
  5
D8DC
  8
SUNPOU
  6
CONTINUOUS
 62
     4
 10
23161.472810630661
 20
8585.657635421956
 30
0.0
 11
23161.472810630661
 21
9515.1592194219611
 31
0.0
  0
LINE
  5
D8DD
  8
SUNPOU
  6
CONTINUOUS
 62
     4
 10
25813.97281063069
 20
8585.657635421956
 30
0.0
 11
25813.97281063069
 21
9515.1592194219611
 31
0.0
  0
LINE
  5
D8DE
  8
SUNPOU
  6
CONTINUOUS
 62
     4
 10
23161.472810630661
 20
9435.1592194219593
 30
0.0
 11
25813.97281063069
 21
9435.1592194219593
 31
0.0
  0
LINE
  5
D8DF
  8
SUNPOU
  6
CONTINUOUS
 62
     4
 10
25901.47544963067
 20
6287.1575434219621
 30
0.0
 11
27344.575061335421
 21
6287.1575434219612
 31
0.0
  0
LINE
  5
D8E0
  8
SUNPOU
  6
CONTINUOUS
 62
     4
 10
25933.97281063069
 20
8635.6575694219555
 30
0.0
 11
27344.575061335421
 21
8635.6575694219555
 31
0.0
  0
LINE
  5
D8E1
  8
SUNPOU
  6
CONTINUOUS
 62
     4
 10
27264.575061335421
 20
6287.1575434219612
 30
0.0
 11
27264.575061335421
 21
8635.6575694219555
 31
0.0
  0
LINE
  5
D8E2
  8
SUNPOU
  6
CONTINUOUS
 62
     4
 10
25901.47544963067
 20
6287.1575434219621
 30
0.0
 11
26701.47610963069
 21
6287.1575434219612
 31
0.0
  0
LINE
  5
D8E3
  8
SUNPOU
  6
CONTINUOUS
 62
     4
 10
25808.976505630679
 20
8178.6575434219612
 30
0.0
 11
26701.47610963069
 21
8178.6575434219612
 31
0.0
  0
LINE
  5
D8E4
  8
SUNPOU
  6
CONTINUOUS
 62
     4
 10
26621.47610963069
 20
6287.1575434219621
 30
0.0
 11
26621.47610963069
 21
8178.6575434219612
 31
0.0
  0
LINE
  5
D8E5
  8
SUNPOU
  6
CONTINUOUS
 62
     4
 10
23158.472810630661
 20
6207.1575434219603
 30
0.0
 11
23158.472810630661
 21
5307.1575434219612
 31
0.0
  0
LINE
  5
D8E6
  8
SUNPOU
  6
CONTINUOUS
 62
     4
 10
20446.472810630661
 20
6107.1577084219589
 30
0.0
 11
20446.472810630661
 21
5307.1575434219612
 31
0.0
  0
LINE
  5
D8E7
  8
SUNPOU
  6
CONTINUOUS
 62
     4
 10
23158.472810630661
 20
5387.1575434219612
 30
0.0
 11
20446.472810630661
 21
5387.1575434219612
 31
0.0
  0
LINE
  5
D8E8
  8
SUNPOU
  6
CONTINUOUS
 62
     4
 10
25813.93285768315
 20
6207.1575434219603
 30
0.0
 11
25813.93285768315
 21
4507.1578734220147
 31
0.0
  0
LINE
  5
D8E9
  8
SUNPOU
  6
CONTINUOUS
 62
     4
 10
20361.472810630679
 20
6107.1577084219589
 30
0.0
 11
20361.472810630679
 21
4507.1578734220147
 31
0.0
  0
LINE
  5
D8EA
  8
SUNPOU
  6
CONTINUOUS
 62
     4
 10
25813.93285768315
 20
4587.1578734220147
 30
0.0
 11
20361.472810630679
 21
4587.1578734220147
 31
0.0
  0
LINE
  5
D8EB
  8
SUNPOU
  6
CONTINUOUS
 62
     4
 10
25771.47281063069
 20
5844.5052854219593
 30
0.0
 11
25771.47281063069
 21
4907.1577084219589
 31
0.0
  0
LINE
  5
D8EC
  8
SUNPOU
  6
CONTINUOUS
 62
     4
 10
25813.93285768315
 20
6207.1575434219603
 30
0.0
 11
25813.93285768315
 21
4907.1577084219589
 31
0.0
  0
LINE
  5
D8ED
  8
SUNPOU
  6
CONTINUOUS
 62
     4
 10
25771.47281063069
 20
4987.1577084219589
 30
0.0
 11
25531.47281063069
 21
4987.1577084219589
 31
0.0
  0
LINE
  5
D8EE
  8
SUNPOU
  6
CONTINUOUS
 62
     4
 10
25813.93285768315
 20
4987.1577084219589
 30
0.0
 11
26053.93285768315
 21
4987.1577084219589
 31
0.0
  0
LINE
  5
D8EF
  8
SUNPOU
  6
CONTINUOUS
 62
     4
 10
25771.47281063069
 20
4987.1577084219589
 30
0.0
 11
25813.93285768315
 21
4987.1577084219589
 31
0.0
  0
LINE
  5
D8F0
  8
SUNPOU
  6
CONTINUOUS
 62
     4
 10
23203.972810630661
 20
5844.5052854219593
 30
0.0
 11
23203.972810630661
 21
4907.1577084219589
 31
0.0
  0
LINE
  5
D8F1
  8
SUNPOU
  6
CONTINUOUS
 62
     4
 10
25771.47281063069
 20
5844.5052854219593
 30
0.0
 11
25771.47281063069
 21
4907.1577084219589
 31
0.0
  0
LINE
  5
D8F2
  8
SUNPOU
  6
CONTINUOUS
 62
     4
 10
23203.972810630661
 20
4987.1577084219589
 30
0.0
 11
25771.47281063069
 21
4987.1577084219589
 31
0.0
  0
LINE
  5
D8F3
  8
SUNPOU
  6
CONTINUOUS
 62
     4
 10
25677.47281063069
 20
6107.1577084219589
 30
0.0
 11
25677.47281063069
 21
5307.1575434219612
 31
0.0
  0
LINE
  5
D8F4
  8
SUNPOU
  6
CONTINUOUS
 62
     4
 10
23297.972810630679
 20
6107.1577084219589
 30
0.0
 11
23297.972810630679
 21
5307.1575434219612
 31
0.0
  0
LINE
  5
D8F5
  8
SUNPOU
  6
CONTINUOUS
 62
     4
 10
25677.47281063069
 20
5387.1575434219612
 30
0.0
 11
23297.972810630679
 21
5387.1575434219612
 31
0.0
  0
LINE
  5
D8F6
  8
SUNPOU
  6
CONTINUOUS
 62
     4
 10
20403.972810630668
 20
5844.5052854219593
 30
0.0
 11
20403.972810630668
 21
4907.1577084219589
 31
0.0
  0
LINE
  5
D8F7
  8
SUNPOU
  6
CONTINUOUS
 62
     4
 10
20361.472810630679
 20
6107.1577084219589
 30
0.0
 11
20361.472810630679
 21
4907.1577084219589
 31
0.0
  0
LINE
  5
D8F8
  8
SUNPOU
  6
CONTINUOUS
 62
     4
 10
20403.972810630668
 20
4987.1577084219589
 30
0.0
 11
20643.972810630668
 21
4987.1577084219589
 31
0.0
  0
LINE
  5
D8F9
  8
SUNPOU
  6
CONTINUOUS
 62
     4
 10
20361.472810630679
 20
4987.1577084219589
 30
0.0
 11
20121.472810630679
 21
4987.1577084219589
 31
0.0
  0
LINE
  5
D8FA
  8
SUNPOU
  6
CONTINUOUS
 62
     4
 10
20403.972810630668
 20
4987.1577084219589
 30
0.0
 11
20361.472810630679
 21
4987.1577084219589
 31
0.0
  0
LINE
  5
D8FB
  8
SUNPOU
  6
CONTINUOUS
 62
     4
 10
23203.972810630661
 20
5844.5052854219593
 30
0.0
 11
23203.972810630661
 21
4907.1577084219589
 31
0.0
  0
LINE
  5
D8FC
  8
SUNPOU
  6
CONTINUOUS
 62
     4
 10
20403.972810630668
 20
5844.5052854219593
 30
0.0
 11
20403.972810630668
 21
4907.1577084219589
 31
0.0
  0
LINE
  5
D8FD
  8
SUNPOU
  6
CONTINUOUS
 62
     4
 10
23203.972810630661
 20
4987.1577084219589
 30
0.0
 11
20403.972810630668
 21
4987.1577084219589
 31
0.0
  0
LINE
  5
D8FE
  8
SUNPOU
  6
CONTINUOUS
 62
     4
 10
23161.472810630661
 20
8585.657635421956
 30
0.0
 11
23161.472810630661
 21
9515.1592194219611
 31
0.0
  0
LINE
  5
D8FF
  8
SUNPOU
  6
CONTINUOUS
 62
     4
 10
20361.472810630661
 20
8715.6575694219555
 30
0.0
 11
20361.472810630661
 21
9515.1592194219611
 31
0.0
  0
LINE
  5
D900
  8
SUNPOU
  6
CONTINUOUS
 62
     4
 10
23161.472810630661
 20
9435.1592194219593
 30
0.0
 11
20361.472810630661
 21
9435.1592194219593
 31
0.0
  0
LINE
  5
D901
  8
SUNPOU
  6
CONTINUOUS
 62
     4
 10
20281.472810630679
 20
6287.9718314219654
 30
0.0
 11
19071.65041233629
 21
6287.9718314219654
 31
0.0
  0
LINE
  5
D902
  8
SUNPOU
  6
CONTINUOUS
 62
     4
 10
20241.472810630661
 20
8307.971831421959
 30
0.0
 11
19071.65041233629
 21
8307.971831421959
 31
0.0
  0
LINE
  5
D903
  8
SUNPOU
  6
CONTINUOUS
 62
     4
 10
19151.65041233629
 20
6287.9718314219654
 30
0.0
 11
19151.65041233629
 21
8307.971831421959
 31
0.0
  0
LINE
  5
D93C
  8
SUNPOU
  6
CONTINUOUS
 62
     4
 10
23203.97281063065
 20
20956.956345421939
 30
0.0
 11
20403.972810630668
 21
20956.956345421939
 31
0.0
  0
LINE
  5
D93D
  8
SUNPOU
  6
CONTINUOUS
 62
     4
 10
25771.472810630668
 20
20956.956345421939
 30
0.0
 11
23203.97281063065
 21
20956.956345421939
 31
0.0
  0
LINE
  5
D93E
  8
SUNPOU
  6
CONTINUOUS
 62
     4
 10
20403.972810630668
 20
20081.405195299281
 30
0.0
 11
20403.972810630668
 21
20636.956345421939
 31
0.0
  0
LINE
  5
D93F
  8
SUNPOU
  6
CONTINUOUS
 62
     4
 10
20446.475053630638
 20
19920.305685421961
 30
0.0
 11
20446.475053630638
 21
20636.956345421939
 31
0.0
  0
LINE
  5
D940
  8
SUNPOU
  6
CONTINUOUS
 62
     4
 10
20403.972810630668
 20
20556.95634542195
 30
0.0
 11
20163.972810630668
 21
20556.95634542195
 31
0.0
  0
LINE
  5
D941
  8
SUNPOU
  6
CONTINUOUS
 62
     4
 10
20446.475053630638
 20
20556.95634542195
 30
0.0
 11
20686.475053630638
 21
20556.95634542195
 31
0.0
  0
LINE
  5
D942
  8
SUNPOU
  6
CONTINUOUS
 62
     4
 10
20403.972810630668
 20
20556.95634542195
 30
0.0
 11
20446.475053630638
 21
20556.95634542195
 31
0.0
  0
LINE
  5
D943
  8
SUNPOU
  6
CONTINUOUS
 62
     4
 10
20403.972810630668
 20
20081.405195299281
 30
0.0
 11
20403.972810630668
 21
20636.956345421939
 31
0.0
  0
LINE
  5
D944
  8
SUNPOU
  6
CONTINUOUS
 62
     4
 10
20361.474525630671
 20
19916.957928421951
 30
0.0
 11
20361.474525630671
 21
20636.956345421939
 31
0.0
  0
LINE
  5
D945
  8
SUNPOU
  6
CONTINUOUS
 62
     4
 10
20403.972810630668
 20
20556.95634542195
 30
0.0
 11
20643.972810630668
 21
20556.95634542195
 31
0.0
  0
LINE
  5
D946
  8
SUNPOU
  6
CONTINUOUS
 62
     4
 10
20361.474525630671
 20
20556.95634542195
 30
0.0
 11
20121.474525630671
 21
20556.95634542195
 31
0.0
  0
LINE
  5
D947
  8
SUNPOU
  6
CONTINUOUS
 62
     4
 10
20403.972810630668
 20
20556.95634542195
 30
0.0
 11
20361.474525630671
 21
20556.95634542195
 31
0.0
  0
LINE
  5
D948
  8
SUNPOU
  6
CONTINUOUS
 62
     4
 10
20019.367974678731
 20
16796.455421421939
 30
0.0
 11
19106.129186262038
 21
16796.455421421939
 31
0.0
  0
LINE
  5
D949
  8
SUNPOU
  6
CONTINUOUS
 62
     4
 10
20019.367974678731
 20
19714.45542142195
 30
0.0
 11
19106.129186262038
 21
19714.45542142195
 31
0.0
  0
LINE
  5
D94A
  8
SUNPOU
  6
CONTINUOUS
 62
     4
 10
19186.129186262038
 20
16796.455421421939
 30
0.0
 11
19186.129186262038
 21
19714.45542142195
 31
0.0
  0
LINE
  5
D94B
  8
SUNPOU
  6
CONTINUOUS
 62
     4
 10
20019.36797467872
 20
13878.455421421961
 30
0.0
 11
19106.129186262038
 21
13878.455421421961
 31
0.0
  0
LINE
  5
D94C
  8
SUNPOU
  6
CONTINUOUS
 62
     4
 10
20019.367974678731
 20
16796.455421421939
 30
0.0
 11
19106.129186262038
 21
16796.455421421939
 31
0.0
  0
LINE
  5
D94D
  8
SUNPOU
  6
CONTINUOUS
 62
     4
 10
19186.129186262038
 20
13878.455421421961
 30
0.0
 11
19186.129186262038
 21
16796.455421421939
 31
0.0
  0
ARC
  5
D965
  8
1-前柱P
 10
20394.372810630652
 20
13946.85542142196
 30
0.0
 40
1.0
 50
0.0
 51
90.0
  0
LINE
  5
D966
  8
1-前柱P
 10
20395.37281063067
 20
13946.85542142196
 30
0.0
 11
20395.37281063067
 21
13945.255421421951
 31
0.0
  0
LINE
  5
D967
  8
1-前柱P
 10
20395.37281063067
 20
13945.255421421951
 30
0.0
 11
20406.57281063066
 21
13945.255421421951
 31
0.0
  0
LINE
  5
D968
  8
1-前柱P
 10
20406.57281063066
 20
13945.255421421951
 30
0.0
 11
20406.57281063066
 21
13946.85542142196
 31
0.0
  0
ARC
  5
D969
  8
1-前柱P
 10
20407.572810630671
 20
13946.85542142196
 30
0.0
 40
1.0
 50
90.0
 51
180.0
  0
ARC
  5
D96A
  8
1-中柱P
 10
20410.57281063066
 20
16864.755421421949
 30
0.0
 40
1.0
 50
90.0
 51
180.0
  0
LINE
  5
D96B
  8
1-中柱P
 10
20409.572810630649
 20
16864.755421421949
 30
0.0
 11
20409.572810630649
 21
16863.155421421961
 31
0.0
  0
LINE
  5
D96C
  8
1-中柱P
 10
20409.572810630649
 20
16863.155421421961
 30
0.0
 11
20398.372810630652
 21
16863.155421421961
 31
0.0
  0
LINE
  5
D96D
  8
1-中柱P
 10
20398.372810630652
 20
16863.155421421961
 30
0.0
 11
20398.372810630652
 21
16864.755421421949
 31
0.0
  0
ARC
  5
D96E
  8
1-中柱P
 10
20397.37281063067
 20
16864.755421421949
 30
0.0
 40
1.0
 50
0.0
 51
90.0
  0
ARC
  5
D96F
  8
1-後柱P
 10
20413.57281063066
 20
19646.40542142195
 30
0.0
 40
1.0
 50
180.0
 51
270.0
  0
LINE
  5
D970
  8
1-後柱P
 10
20412.57281063066
 20
19646.40542142195
 30
0.0
 11
20412.57281063066
 21
19648.005421421942
 31
0.0
  0
LINE
  5
D971
  8
1-後柱P
 10
20412.57281063066
 20
19648.005421421942
 30
0.0
 11
20401.37281063067
 21
19648.005421421942
 31
0.0
  0
LINE
  5
D972
  8
1-後柱P
 10
20401.37281063067
 20
19648.005421421942
 30
0.0
 11
20401.372810630641
 21
19646.40542142195
 31
0.0
  0
ARC
  5
D973
  8
1-後柱P
 10
20400.372810630641
 20
19646.40542142195
 30
0.0
 40
1.0
 50
270.0
 51
0.0
  0
LINE
  5
D974
  8
0-6
  6
CONTINUOUS
 62
     6
 10
8913.8426479850605
 20
16589.736595512652
 30
0.0
 11
8855.0926493563456
 21
16740.954590421989
 31
0.0
  0
LINE
  5
D975
  8
0-6
  6
CONTINUOUS
 62
     6
 10
8855.0926493563456
 20
16740.954590421989
 30
0.0
 11
8959.7036410431574
 21
16616.958684273552
 31
0.0
  0
LINE
  5
D976
  8
0-6
  6
CONTINUOUS
 62
     6
 10
8959.7036410431574
 20
16616.958684273552
 30
0.0
 11
8913.8426479850605
 21
16589.736595512652
 31
0.0
  0
LINE
  5
D977
  8
0-6
  6
CONTINUOUS
 62
     6
 10
9884.365431693328
 20
14529.49469122305
 30
0.0
 11
10004.220158599839
 21
14638.82578817829
 31
0.0
  0
LINE
  5
D978
  8
0-6
  6
CONTINUOUS
 62
     6
 10
10004.220158599839
 20
14638.82578817829
 30
0.0
 11
9926.2947605630652
 21
14496.53707933574
 31
0.0
  0
LINE
  5
D979
  8
0-6
  6
CONTINUOUS
 62
     6
 10
9926.2947605630652
 20
14496.53707933574
 30
0.0
 11
9884.365431693328
 21
14529.49469122305
 31
0.0
  0
LINE
  5
D97A
  8
0-6
  6
CONTINUOUS
 62
     6
 10
12716.73061627905
 20
16990.071713700221
 30
0.0
 11
12748.370262647801
 21
16830.957361421952
 31
0.0
  0
LINE
  5
D97B
  8
0-6
  6
CONTINUOUS
 62
     6
 10
12748.370262647801
 20
16830.957361421952
 30
0.0
 11
12666.844136745431
 21
16971.214037265301
 31
0.0
  0
LINE
  5
D97C
  8
0-6
  6
CONTINUOUS
 62
     6
 10
12666.844136745431
 20
16971.214037265301
 30
0.0
 11
12716.73061627905
 21
16990.071713700221
 31
0.0
  0
LINE
  5
D97D
  8
0-6
  6
CONTINUOUS
 62
     6
 10
20537.444660418809
 20
19498.858648675301
 30
0.0
 11
20431.116636470841
 21
19621.354880421961
 31
0.0
  0
LINE
  5
D97E
  8
0-6
  6
CONTINUOUS
 62
     6
 10
20431.116636470841
 20
19621.354880421961
 30
0.0
 11
20491.968756064089
 21
19470.993573746509
 31
0.0
  0
LINE
  5
D97F
  8
0-6
  6
CONTINUOUS
 62
     6
 10
20491.968756064089
 20
19470.993573746509
 30
0.0
 11
20537.444660418809
 21
19498.858648675301
 31
0.0
  0
LINE
  5
D980
  8
0-6
  6
CONTINUOUS
 62
     6
 10
20480.433261248421
 20
19914.67220535464
 30
0.0
 11
20411.389582806409
 21
19767.893644467811
 31
0.0
  0
LINE
  5
D981
  8
0-6
  6
CONTINUOUS
 62
     6
 10
20411.389582806409
 20
19767.893644467811
 30
0.0
 11
20524.306582985551
 21
19884.34644209281
 31
0.0
  0
LINE
  5
D982
  8
0-6
  6
CONTINUOUS
 62
     6
 10
20524.306582985551
 20
19884.34644209281
 30
0.0
 11
20480.433261248421
 21
19914.67220535464
 31
0.0
  0
LINE
  5
D983
  8
0-6
  6
CONTINUOUS
 62
     6
 10
20537.444660418809
 20
16981.051217168599
 30
0.0
 11
20431.116636470841
 21
16858.554985421961
 31
0.0
  0
LINE
  5
D984
  8
0-6
  6
CONTINUOUS
 62
     6
 10
20431.116636470841
 20
16858.554985421961
 30
0.0
 11
20491.968756064089
 21
17008.916292097401
 31
0.0
  0
LINE
  5
D985
  8
0-6
  6
CONTINUOUS
 62
     6
 10
20491.968756064089
 20
17008.916292097401
 30
0.0
 11
20537.444660418809
 21
16981.051217168599
 31
0.0
  0
LINE
  5
D986
  8
0-6
  6
CONTINUOUS
 62
     6
 10
20537.444660418809
 20
14073.551653168621
 30
0.0
 11
20431.116636470841
 21
13951.055421421959
 31
0.0
  0
LINE
  5
D987
  8
0-6
  6
CONTINUOUS
 62
     6
 10
20431.116636470841
 20
13951.055421421959
 30
0.0
 11
20491.968756064089
 21
14101.41672809742
 31
0.0
  0
LINE
  5
D988
  8
0-6
  6
CONTINUOUS
 62
     6
 10
20491.968756064089
 20
14101.41672809742
 30
0.0
 11
20537.444660418809
 21
14073.551653168621
 31
0.0
  0
LINE
  5
D989
  8
0-6
  6
CONTINUOUS
 62
     6
 10
20480.433261248389
 20
16565.23766048926
 30
0.0
 11
20411.389582806409
 21
16712.01622137607
 31
0.0
  0
LINE
  5
D98A
  8
0-6
  6
CONTINUOUS
 62
     6
 10
20411.389582806409
 20
16712.01622137607
 30
0.0
 11
20524.306582985551
 21
16595.5634237511
 31
0.0
  0
LINE
  5
D98B
  8
0-6
  6
CONTINUOUS
 62
     6
 10
20524.306582985551
 20
16595.5634237511
 30
0.0
 11
20480.433261248389
 21
16565.23766048926
 31
0.0
  0
LINE
  5
D98C
  8
0-6
  6
CONTINUOUS
 62
     6
 10
20480.433261248389
 20
13677.67686053513
 30
0.0
 11
20411.389582806409
 21
13824.455421421961
 31
0.0
  0
LINE
  5
D98D
  8
0-6
  6
CONTINUOUS
 62
     6
 10
20411.389582806409
 20
13824.455421421961
 30
0.0
 11
20524.306582985551
 21
13708.002623796971
 31
0.0
  0
LINE
  5
D98E
  8
0-6
  6
CONTINUOUS
 62
     6
 10
20524.306582985551
 20
13708.002623796971
 30
0.0
 11
20480.433261248389
 21
13677.67686053513
 31
0.0
  0
LINE
  5
D98F
  8
0-6
  6
CONTINUOUS
 62
     6
 10
7879.5215578925772
 20
14571.03013957678
 30
0.0
 11
7925.8118495582239
 21
14726.491338486079
 31
0.0
  0
LINE
  5
D990
  8
0-6
  6
CONTINUOUS
 62
     6
 10
7925.8118495582239
 20
14726.491338486079
 30
0.0
 11
7831.6024635615113
 21
14594.44553357634
 31
0.0
  0
LINE
  5
D991
  8
0-6
  6
CONTINUOUS
 62
     6
 10
7831.6024635615113
 20
14594.44553357634
 30
0.0
 11
7879.5215578925772
 21
14571.03013957678
 31
0.0
  0
TEXT
  5
D997
  8
0
  6
CONTINUOUS
 62
     7
 10
19106.129186262038
 20
15070.78875475528
 30
0.0
 40
160.0
  1
2918
 50
90.0
  0
TEXT
  5
D998
  8
0
  6
CONTINUOUS
 62
     7
 10
19106.129186262038
 20
17988.788754755278
 30
0.0
 40
160.0
  1
2918
 50
90.0
  0
TEXT
  5
D999
  8
0
  6
CONTINUOUS
 62
     7
 10
19783.050882630669
 20
20636.954629421962
 30
0.0
 40
160.0
  1
42.5
  0
TEXT
  5
D99A
  8
0
  6
CONTINUOUS
 62
     7
 10
20461.146849630652
 20
20656.298485421961
 30
0.0
 40
160.0
  1
42.5
  0
TEXT
  5
D99B
  8
0
  6
CONTINUOUS
 62
     7
 10
24087.722810630661
 20
21036.956345421939
 30
0.0
 40
160.0
  1
2567.5
  0
TEXT
  5
D99C
  8
0
  6
CONTINUOUS
 62
     7
 10
21537.306143964001
 20
21036.956345421939
 30
0.0
 40
160.0
  1
2800
  0
TEXT
  5
D9AD
  8
0
  6
CONTINUOUS
 62
     7
 10
19071.65041233629
 20
6634.9718314219663
 30
0.0
 40
160.0
  1
有効高サ2020
 50
90.0
  0
TEXT
  5
D9AE
  8
0
  6
CONTINUOUS
 62
     7
 10
21494.806143964001
 20
9515.1592194219611
 30
0.0
 40
160.0
  1
2800
  0
TEXT
  5
D9AF
  8
0
  6
CONTINUOUS
 62
     7
 10
21537.306143964001
 20
5067.1577084219589
 30
0.0
 40
160.0
  1
2800
  0
TEXT
  5
D9B0
  8
0
  6
CONTINUOUS
 62
     7
 10
19761.472150630681
 20
5067.1574774219607
 30
0.0
 40
160.0
  1
42.5
  0
TEXT
  5
D9B1
  8
0
  6
CONTINUOUS
 62
     7
 10
23607.72281063069
 20
5467.1575434219612
 30
0.0
 40
160.0
  1
有効開口巾2379.5
  0
TEXT
  5
D9B2
  8
0
  6
CONTINUOUS
 62
     7
 10
24087.722810630668
 20
5067.1577084219589
 30
0.0
 40
160.0
  1
2567.5
  0
TEXT
  5
D9B3
  8
0
  6
CONTINUOUS
 62
     7
 10
25913.795841630679
 20
5074.7048864219623
 30
0.0
 40
160.0
  1
42.5
  0
TEXT
  5
D9B4
  8
0
  6
CONTINUOUS
 62
     7
 10
22687.702834156898
 20
4667.1578734220147
 30
0.0
 40
160.0
  1
5452.5
  0
TEXT
  5
D9B5
  8
0
  6
CONTINUOUS
 62
     7
 10
21055.806143964011
 20
5467.1575434219612
 30
0.0
 40
160.0
  1
有効開口巾2712
  0
TEXT
  5
D9B6
  8
0
  6
CONTINUOUS
 62
     7
 10
26541.47610963069
 20
6310.240876755297
 30
0.0
 40
160.0
  1
有効開口高サ1891.5
 50
90.0
  0
TEXT
  5
D9B7
  8
0
  6
CONTINUOUS
 62
     7
 10
27184.575061335421
 20
6442.740889755295
 30
0.0
 40
160.0
  1
2348.5（2588.5）
 50
90.0
  0
TEXT
  5
D9B8
  8
0
  6
CONTINUOUS
 62
     7
 10
24087.722810630668
 20
9515.1592194219611
 30
0.0
 40
160.0
  1
2652.5
  0
TEXT
  5
D9B9
  8
0
  6
CONTINUOUS
 62
     7
 10
25946.78079663069
 20
9515.1584934219627
 30
0.0
 40
160.0
  1
43
  0
TEXT
  5
D9BA
  8
0
  6
CONTINUOUS
 62
     7
 10
19941.00699063066
 20
9515.1584934219627
 30
0.0
 40
160.0
  1
43
  0
TEXT
  5
D9BB
  8
0
  6
CONTINUOUS
 62
     7
 10
22687.72281063069
 20
9915.1021434219656
 30
0.0
 40
160.0
  1
5538.5
  0
TEXT
  5
D9BC
  8
0
  6
CONTINUOUS
 62
     7
 10
8936.2222287429377
 20
5067.1577084219589
 30
0.0
 40
160.0
  1
2918
  0
TEXT
  5
D9BD
  8
0
  6
CONTINUOUS
 62
     7
 10
11854.222228742939
 20
5067.1577084219589
 30
0.0
 40
160.0
  1
2918
  0
TEXT
  5
D9BE
  8
0
  6
CONTINUOUS
 62
     7
 10
13724.37850940958
 20
5068.1482264219567
 30
0.0
 40
160.0
  1
42.5
  0
TEXT
  5
D9BF
  8
0
  6
CONTINUOUS
 62
     7
 10
7101.3872454095999
 20
5067.1574774219607
 30
0.0
 40
160.0
  1
42.5
  0
TEXT
  5
D9C0
  8
0
  6
CONTINUOUS
 62
     7
 10
10395.22222874293
 20
4667.1578734219556
 30
0.0
 40
160.0
  1
5921
  0
TEXT
  5
D9C1
  8
0
  6
CONTINUOUS
 62
     7
 10
14632.38929140959
 20
6373.407543421964
 30
0.0
 40
160.0
  1
2156.5（2396.5）
 50
90.0
  0
TEXT
  5
D9C2
  8
0
  6
CONTINUOUS
 62
     7
 10
6531.3884994095997
 20
6442.7408767552943
 30
0.0
 40
160.0
  1
2348.5（2588.5）
 50
90.0
  0
TEXT
  5
D9C3
  8
0
  6
CONTINUOUS
 62
     7
 10
13910.064043878019
 20
9515.1592194219611
 30
0.0
 40
160.0
  1
180
  0
TEXT
  5
D9C4
  8
0
  6
CONTINUOUS
 62
     7
 10
10395.22222874293
 20
9515.1592194219611
 30
0.0
 40
160.0
  1
5921
  0
TEXT
  5
D9C5
  8
0
  6
CONTINUOUS
 62
     7
 10
7138.0555620762707
 20
9515.1592194219611
 30
0.0
 40
160.0
  1
150
  0
TEXT
  5
D9C6
  8
0
  6
CONTINUOUS
 62
     7
 10
10410.222228742939
 20
9915.1575694219573
 30
0.0
 40
160.0
  1
6251
  0
TEXT
  5
D9C8
  8
0
  6
CONTINUOUS
 62
     7
 10
9821.1146435259161
 20
12475.95535542194
 30
0.0
 40
160.0
  1
ケラバ外寸5538.5
  0
TEXT
  5
D9C9
  8
0
  6
CONTINUOUS
 62
     7
 10
13474.67845419257
 20
20636.954629421962
 30
0.0
 40
160.0
  1
85.5
  0
TEXT
  5
D9CA
  8
0
  6
CONTINUOUS
 62
     7
 10
11695.78131019258
 20
20636.956345421939
 30
0.0
 40
160.0
  1
2567.5
  0
TEXT
  5
D9CB
  8
0
  6
CONTINUOUS
 62
     7
 10
9145.3646435259143
 20
20636.956345421939
 30
0.0
 40
160.0
  1
2800
  0
TEXT
  5
D9CC
  8
0
  6
CONTINUOUS
 62
     7
 10
7385.6835221925639
 20
20636.954629421962
 30
0.0
 40
160.0
  1
85.5
  0
TEXT
  5
D9CD
  8
0
  6
CONTINUOUS
 62
     7
 10
13860.42481458773
 20
20108.384150088608
 30
0.0
 40
160.0
  1
10
 50
90.0
  0
TEXT
  5
D9CE
  8
0
  6
CONTINUOUS
 62
     7
 10
14229.031086192561
 20
20015.43694381119
 30
0.0
 40
160.0
  1
222.5
 50
90.0
  0
TEXT
  5
D9CF
  8
0
  6
CONTINUOUS
 62
     7
 10
14229.031086192561
 20
17988.788754755278
 30
0.0
 40
160.0
  1
2918
 50
90.0
  0
TEXT
  5
D9D0
  8
0
  6
CONTINUOUS
 62
     7
 10
14229.031086192561
 20
15070.78875475528
 30
0.0
 40
160.0
  1
2918
 50
90.0
  0
TEXT
  5
D9D1
  8
0
  6
CONTINUOUS
 62
     7
 10
14229.031086192579
 20
13021.96651901252
 30
0.0
 40
160.0
  1
192.5
 50
90.0
  0
ARC
  5
D9D2
  8
0
  6
BYBLOCK
 62
     0
 10
14309.031086192561
 20
13878.455421421961
 30
0.0
 40
15.0
 50
270.0
 51
90.0
  0
ARC
  5
D9D3
  8
0
  6
BYBLOCK
 62
     0
 10
14309.031086192561
 20
13878.455421421961
 30
0.0
 40
15.0
 50
90.0
 51
270.0
  0
ARC
  5
D9D4
  8
0
  6
BYBLOCK
 62
     0
 10
14309.031086192561
 20
13685.95614742195
 30
0.0
 40
15.0
 50
90.0
 51
270.0
  0
ARC
  5
D9D5
  8
0
  6
BYBLOCK
 62
     0
 10
14309.031086192561
 20
13685.95614742195
 30
0.0
 40
15.0
 50
270.0
 51
90.0
  0
ARC
  5
D9D6
  8
0
  6
BYBLOCK
 62
     0
 10
14309.031086192561
 20
16796.455421421939
 30
0.0
 40
15.0
 50
270.0
 51
90.0
  0
ARC
  5
D9D7
  8
0
  6
BYBLOCK
 62
     0
 10
14309.031086192561
 20
16796.455421421939
 30
0.0
 40
15.0
 50
90.0
 51
270.0
  0
ARC
  5
D9D8
  8
0
  6
BYBLOCK
 62
     0
 10
14309.031086192561
 20
13878.455421421961
 30
0.0
 40
15.0
 50
90.0
 51
270.0
  0
ARC
  5
D9D9
  8
0
  6
BYBLOCK
 62
     0
 10
14309.031086192561
 20
13878.455421421961
 30
0.0
 40
15.0
 50
270.0
 51
90.0
  0
ARC
  5
D9DA
  8
0
  6
BYBLOCK
 62
     0
 10
14309.031086192561
 20
19714.45542142195
 30
0.0
 40
15.0
 50
270.0
 51
90.0
  0
ARC
  5
D9DB
  8
0
  6
BYBLOCK
 62
     0
 10
14309.031086192561
 20
19714.45542142195
 30
0.0
 40
15.0
 50
90.0
 51
270.0
  0
ARC
  5
D9DC
  8
0
  6
BYBLOCK
 62
     0
 10
14309.031086192561
 20
16796.455421421939
 30
0.0
 40
15.0
 50
90.0
 51
270.0
  0
ARC
  5
D9DD
  8
0
  6
BYBLOCK
 62
     0
 10
14309.031086192561
 20
16796.455421421939
 30
0.0
 40
15.0
 50
270.0
 51
90.0
  0
ARC
  5
D9DE
  8
0
  6
BYBLOCK
 62
     0
 10
14309.031086192561
 20
19714.45542142195
 30
0.0
 40
15.0
 50
90.0
 51
270.0
  0
ARC
  5
D9DF
  8
0
  6
BYBLOCK
 62
     0
 10
14309.031086192561
 20
19714.45542142195
 30
0.0
 40
15.0
 50
270.0
 51
90.0
  0
ARC
  5
D9E0
  8
0
  6
BYBLOCK
 62
     0
 10
14309.031086192561
 20
19936.955289421941
 30
0.0
 40
15.0
 50
270.0
 51
90.0
  0
ARC
  5
D9E1
  8
0
  6
BYBLOCK
 62
     0
 10
14309.031086192561
 20
19936.955289421941
 30
0.0
 40
15.0
 50
90.0
 51
270.0
  0
ARC
  5
D9E2
  8
0
  6
BYBLOCK
 62
     0
 10
13909.031745192549
 20
19926.95872042195
 30
0.0
 40
15.0
 50
270.0
 51
90.0
  0
ARC
  5
D9E3
  8
0
  6
BYBLOCK
 62
     0
 10
13909.031745192549
 20
19926.95872042195
 30
0.0
 40
15.0
 50
90.0
 51
270.0
  0
ARC
  5
D9E4
  8
0
  6
BYBLOCK
 62
     0
 10
13909.031745192549
 20
19936.955289421941
 30
0.0
 40
15.0
 50
90.0
 51
270.0
  0
ARC
  5
D9E5
  8
0
  6
BYBLOCK
 62
     0
 10
13909.031745192549
 20
19936.955289421941
 30
0.0
 40
15.0
 50
270.0
 51
90.0
  0
ARC
  5
D9E6
  8
0
  6
BYBLOCK
 62
     0
 10
8012.0313101925813
 20
20556.95634542195
 30
0.0
 40
15.0
 50
0.0
 51
180.0
  0
ARC
  5
D9E7
  8
0
  6
BYBLOCK
 62
     0
 10
8012.0313101925813
 20
20556.95634542195
 30
0.0
 40
15.0
 50
180.0
 51
0.0
  0
ARC
  5
D9E8
  8
0
  6
BYBLOCK
 62
     0
 10
7926.5313101925794
 20
20556.95634542195
 30
0.0
 40
15.0
 50
180.0
 51
0.0
  0
ARC
  5
D9E9
  8
0
  6
BYBLOCK
 62
     0
 10
7926.5313101925794
 20
20556.95634542195
 30
0.0
 40
15.0
 50
0.0
 51
180.0
  0
ARC
  5
D9EA
  8
0
  6
BYBLOCK
 62
     0
 10
10812.031310192569
 20
20556.95634542195
 30
0.0
 40
15.0
 50
180.0
 51
0.0
  0
ARC
  5
D9EB
  8
0
  6
BYBLOCK
 62
     0
 10
10812.031310192569
 20
20556.95634542195
 30
0.0
 40
15.0
 50
0.0
 51
180.0
  0
ARC
  5
D9EC
  8
0
  6
BYBLOCK
 62
     0
 10
8012.0313101925813
 20
20556.95634542195
 30
0.0
 40
15.0
 50
0.0
 51
180.0
  0
ARC
  5
D9ED
  8
0
  6
BYBLOCK
 62
     0
 10
8012.0313101925813
 20
20556.95634542195
 30
0.0
 40
15.0
 50
180.0
 51
0.0
  0
ARC
  5
D9EE
  8
0
  6
BYBLOCK
 62
     0
 10
13379.53131019258
 20
20556.95634542195
 30
0.0
 40
15.0
 50
180.0
 51
0.0
  0
ARC
  5
D9EF
  8
0
  6
BYBLOCK
 62
     0
 10
13379.53131019258
 20
20556.95634542195
 30
0.0
 40
15.0
 50
0.0
 51
180.0
  0
ARC
  5
D9F0
  8
0
  6
BYBLOCK
 62
     0
 10
10812.031310192569
 20
20556.95634542195
 30
0.0
 40
15.0
 50
0.0
 51
180.0
  0
ARC
  5
D9F1
  8
0
  6
BYBLOCK
 62
     0
 10
10812.031310192569
 20
20556.95634542195
 30
0.0
 40
15.0
 50
180.0
 51
0.0
  0
ARC
  5
D9F2
  8
0
  6
BYBLOCK
 62
     0
 10
13379.53131019258
 20
20556.95634542195
 30
0.0
 40
15.0
 50
180.0
 51
0.0
  0
ARC
  5
D9F3
  8
0
  6
BYBLOCK
 62
     0
 10
13379.53131019258
 20
20556.95634542195
 30
0.0
 40
15.0
 50
0.0
 51
180.0
  0
ARC
  5
D9F4
  8
0
  6
BYBLOCK
 62
     0
 10
13465.03131019258
 20
20556.95634542195
 30
0.0
 40
15.0
 50
0.0
 51
180.0
  0
ARC
  5
D9F5
  8
0
  6
BYBLOCK
 62
     0
 10
13465.03131019258
 20
20556.95634542195
 30
0.0
 40
15.0
 50
180.0
 51
0.0
  0
ARC
  5
D9F6
  8
0
  6
BYBLOCK
 62
     0
 10
13465.03131019258
 20
12395.95535542194
 30
0.0
 40
15.0
 50
180.0
 51
0.0
  0
ARC
  5
D9F7
  8
0
  6
BYBLOCK
 62
     0
 10
13465.03131019258
 20
12395.95535542194
 30
0.0
 40
15.0
 50
0.0
 51
180.0
  0
ARC
  5
D9F8
  8
0
  6
BYBLOCK
 62
     0
 10
7926.5313101925794
 20
12395.95535542194
 30
0.0
 40
15.0
 50
0.0
 51
180.0
  0
ARC
  5
D9F9
  8
0
  6
BYBLOCK
 62
     0
 10
7926.5313101925794
 20
12395.95535542194
 30
0.0
 40
15.0
 50
180.0
 51
0.0
  0
ARC
  5
D9FE
  8
0
  6
BYBLOCK
 62
     0
 10
13802.3888954096
 20
9835.1575694219573
 30
0.0
 40
15.0
 50
180.0
 51
0.0
  0
ARC
  5
D9FF
  8
0
  6
BYBLOCK
 62
     0
 10
13802.3888954096
 20
9835.1575694219573
 30
0.0
 40
15.0
 50
0.0
 51
180.0
  0
ARC
  5
DA00
  8
0
  6
BYBLOCK
 62
     0
 10
7551.3888954096028
 20
9835.1575694219573
 30
0.0
 40
15.0
 50
0.0
 51
180.0
  0
ARC
  5
DA01
  8
0
  6
BYBLOCK
 62
     0
 10
7551.3888954096028
 20
9835.1575694219573
 30
0.0
 40
15.0
 50
180.0
 51
0.0
  0
ARC
  5
DA02
  8
0
  6
BYBLOCK
 62
     0
 10
7701.3888954095974
 20
9435.1592194219593
 30
0.0
 40
15.0
 50
0.0
 51
180.0
  0
ARC
  5
DA03
  8
0
  6
BYBLOCK
 62
     0
 10
7701.3888954095974
 20
9435.1592194219593
 30
0.0
 40
15.0
 50
180.0
 51
0.0
  0
ARC
  5
DA04
  8
0
  6
BYBLOCK
 62
     0
 10
7551.3888954096028
 20
9435.1592194219593
 30
0.0
 40
15.0
 50
180.0
 51
0.0
  0
ARC
  5
DA05
  8
0
  6
BYBLOCK
 62
     0
 10
7551.3888954096028
 20
9435.1592194219593
 30
0.0
 40
15.0
 50
0.0
 51
180.0
  0
ARC
  5
DA06
  8
0
  6
BYBLOCK
 62
     0
 10
13622.3888954096
 20
9435.1592194219593
 30
0.0
 40
15.0
 50
180.0
 51
0.0
  0
ARC
  5
DA07
  8
0
  6
BYBLOCK
 62
     0
 10
13622.3888954096
 20
9435.1592194219593
 30
0.0
 40
15.0
 50
0.0
 51
180.0
  0
ARC
  5
DA08
  8
0
  6
BYBLOCK
 62
     0
 10
7701.3888954095974
 20
9435.1592194219593
 30
0.0
 40
15.0
 50
0.0
 51
180.0
  0
ARC
  5
DA09
  8
0
  6
BYBLOCK
 62
     0
 10
7701.3888954095974
 20
9435.1592194219593
 30
0.0
 40
15.0
 50
180.0
 51
0.0
  0
ARC
  5
DA0A
  8
0
  6
BYBLOCK
 62
     0
 10
13802.3888954096
 20
9435.1592194219593
 30
0.0
 40
15.0
 50
180.0
 51
0.0
  0
ARC
  5
DA0B
  8
0
  6
BYBLOCK
 62
     0
 10
13802.3888954096
 20
9435.1592194219593
 30
0.0
 40
15.0
 50
0.0
 51
180.0
  0
ARC
  5
DA0C
  8
0
  6
BYBLOCK
 62
     0
 10
13622.3888954096
 20
9435.1592194219593
 30
0.0
 40
15.0
 50
0.0
 51
180.0
  0
ARC
  5
DA0D
  8
0
  6
BYBLOCK
 62
     0
 10
13622.3888954096
 20
9435.1592194219593
 30
0.0
 40
15.0
 50
180.0
 51
0.0
  0
ARC
  5
DA0E
  8
0
  6
BYBLOCK
 62
     0
 10
6611.3884994096006
 20
6287.1575434219621
 30
0.0
 40
15.0
 50
90.0
 51
270.0
  0
ARC
  5
DA0F
  8
0
  6
BYBLOCK
 62
     0
 10
6611.3884994096006
 20
6287.1575434219621
 30
0.0
 40
15.0
 50
270.0
 51
90.0
  0
ARC
  5
DA10
  8
0
  6
BYBLOCK
 62
     0
 10
6611.3884994096006
 20
8635.6575434219612
 30
0.0
 40
15.0
 50
270.0
 51
90.0
  0
ARC
  5
DA11
  8
0
  6
BYBLOCK
 62
     0
 10
6611.3884994096006
 20
8635.6575434219612
 30
0.0
 40
15.0
 50
90.0
 51
270.0
  0
ARC
  5
DA12
  8
0
  6
BYBLOCK
 62
     0
 10
14712.38929140959
 20
6287.1575434219612
 30
0.0
 40
15.0
 50
90.0
 51
270.0
  0
ARC
  5
DA13
  8
0
  6
BYBLOCK
 62
     0
 10
14712.38929140959
 20
6287.1575434219612
 30
0.0
 40
15.0
 50
270.0
 51
90.0
  0
ARC
  5
DA14
  8
0
  6
BYBLOCK
 62
     0
 10
14712.38929140959
 20
8443.6575434219612
 30
0.0
 40
15.0
 50
270.0
 51
90.0
  0
ARC
  5
DA15
  8
0
  6
BYBLOCK
 62
     0
 10
14712.38929140959
 20
8443.6575434219612
 30
0.0
 40
15.0
 50
90.0
 51
270.0
  0
ARC
  5
DA16
  8
0
  6
BYBLOCK
 62
     0
 10
13622.3888954096
 20
4587.1578734219574
 30
0.0
 40
15.0
 50
180.0
 51
0.0
  0
ARC
  5
DA17
  8
0
  6
BYBLOCK
 62
     0
 10
13622.3888954096
 20
4587.1578734219574
 30
0.0
 40
15.0
 50
0.0
 51
180.0
  0
ARC
  5
DA18
  8
0
  6
BYBLOCK
 62
     0
 10
7701.3888954095974
 20
4587.1578734219574
 30
0.0
 40
15.0
 50
0.0
 51
180.0
  0
ARC
  5
DA19
  8
0
  6
BYBLOCK
 62
     0
 10
7701.3888954095974
 20
4587.1578734219574
 30
0.0
 40
15.0
 50
180.0
 51
0.0
  0
ARC
  5
DA1A
  8
0
  6
BYBLOCK
 62
     0
 10
7743.8888954096037
 20
4987.1577084219589
 30
0.0
 40
15.0
 50
0.0
 51
180.0
  0
ARC
  5
DA1B
  8
0
  6
BYBLOCK
 62
     0
 10
7743.8888954096037
 20
4987.1577084219589
 30
0.0
 40
15.0
 50
180.0
 51
0.0
  0
ARC
  5
DA1C
  8
0
  6
BYBLOCK
 62
     0
 10
7701.3888954095974
 20
4987.1577084219589
 30
0.0
 40
15.0
 50
180.0
 51
0.0
  0
ARC
  5
DA1D
  8
0
  6
BYBLOCK
 62
     0
 10
7701.3888954095974
 20
4987.1577084219589
 30
0.0
 40
15.0
 50
0.0
 51
180.0
  0
ARC
  5
DA1E
  8
0
  6
BYBLOCK
 62
     0
 10
13579.888895409589
 20
4987.1577084219589
 30
0.0
 40
15.0
 50
180.0
 51
0.0
  0
ARC
  5
DA1F
  8
0
  6
BYBLOCK
 62
     0
 10
13579.888895409589
 20
4987.1577084219589
 30
0.0
 40
15.0
 50
0.0
 51
180.0
  0
ARC
  5
DA20
  8
0
  6
BYBLOCK
 62
     0
 10
13622.3888954096
 20
4987.1577084219589
 30
0.0
 40
15.0
 50
0.0
 51
180.0
  0
ARC
  5
DA21
  8
0
  6
BYBLOCK
 62
     0
 10
13622.3888954096
 20
4987.1577084219589
 30
0.0
 40
15.0
 50
180.0
 51
0.0
  0
ARC
  5
DA22
  8
0
  6
BYBLOCK
 62
     0
 10
10661.8888954096
 20
4987.1577084219589
 30
0.0
 40
15.0
 50
0.0
 51
180.0
  0
ARC
  5
DA23
  8
0
  6
BYBLOCK
 62
     0
 10
10661.8888954096
 20
4987.1577084219589
 30
0.0
 40
15.0
 50
180.0
 51
0.0
  0
ARC
  5
DA24
  8
0
  6
BYBLOCK
 62
     0
 10
13579.888895409589
 20
4987.1577084219589
 30
0.0
 40
15.0
 50
180.0
 51
0.0
  0
ARC
  5
DA25
  8
0
  6
BYBLOCK
 62
     0
 10
13579.888895409589
 20
4987.1577084219589
 30
0.0
 40
15.0
 50
0.0
 51
180.0
  0
ARC
  5
DA26
  8
0
  6
BYBLOCK
 62
     0
 10
10661.8888954096
 20
4987.1577084219589
 30
0.0
 40
15.0
 50
180.0
 51
0.0
  0
ARC
  5
DA27
  8
0
  6
BYBLOCK
 62
     0
 10
10661.8888954096
 20
4987.1577084219589
 30
0.0
 40
15.0
 50
0.0
 51
180.0
  0
ARC
  5
DA28
  8
0
  6
BYBLOCK
 62
     0
 10
7743.8888954096037
 20
4987.1577084219589
 30
0.0
 40
15.0
 50
0.0
 51
180.0
  0
ARC
  5
DA29
  8
0
  6
BYBLOCK
 62
     0
 10
7743.8888954096037
 20
4987.1577084219589
 30
0.0
 40
15.0
 50
180.0
 51
0.0
  0
ARC
  5
DA2A
  8
0
  6
BYBLOCK
 62
     0
 10
25856.97281063069
 20
9835.1021434219638
 30
0.0
 40
15.0
 50
180.0
 51
0.0
  0
ARC
  5
DA2B
  8
0
  6
BYBLOCK
 62
     0
 10
25856.97281063069
 20
9835.1021434219638
 30
0.0
 40
15.0
 50
0.0
 51
180.0
  0
ARC
  5
DA2C
  8
0
  6
BYBLOCK
 62
     0
 10
20318.472810630679
 20
9835.1021434219638
 30
0.0
 40
15.0
 50
0.0
 51
180.0
  0
ARC
  5
DA2D
  8
0
  6
BYBLOCK
 62
     0
 10
20318.472810630679
 20
9835.1021434219638
 30
0.0
 40
15.0
 50
180.0
 51
0.0
  0
ARC
  5
DA2E
  8
0
  6
BYBLOCK
 62
     0
 10
20361.472810630661
 20
9435.1592194219593
 30
0.0
 40
15.0
 50
0.0
 51
180.0
  0
ARC
  5
DA2F
  8
0
  6
BYBLOCK
 62
     0
 10
20361.472810630661
 20
9435.1592194219593
 30
0.0
 40
15.0
 50
180.0
 51
0.0
  0
ARC
  5
DA30
  8
0
  6
BYBLOCK
 62
     0
 10
20318.472810630679
 20
9435.1592194219593
 30
0.0
 40
15.0
 50
180.0
 51
0.0
  0
ARC
  5
DA31
  8
0
  6
BYBLOCK
 62
     0
 10
20318.472810630679
 20
9435.1592194219593
 30
0.0
 40
15.0
 50
0.0
 51
180.0
  0
ARC
  5
DA32
  8
0
  6
BYBLOCK
 62
     0
 10
25813.97281063069
 20
9435.1592194219593
 30
0.0
 40
15.0
 50
180.0
 51
0.0
  0
ARC
  5
DA33
  8
0
  6
BYBLOCK
 62
     0
 10
25813.97281063069
 20
9435.1592194219593
 30
0.0
 40
15.0
 50
0.0
 51
180.0
  0
ARC
  5
DA34
  8
0
  6
BYBLOCK
 62
     0
 10
25856.97281063069
 20
9435.1592194219593
 30
0.0
 40
15.0
 50
0.0
 51
180.0
  0
ARC
  5
DA35
  8
0
  6
BYBLOCK
 62
     0
 10
25856.97281063069
 20
9435.1592194219593
 30
0.0
 40
15.0
 50
180.0
 51
0.0
  0
ARC
  5
DA36
  8
0
  6
BYBLOCK
 62
     0
 10
23161.472810630661
 20
9435.1592194219593
 30
0.0
 40
15.0
 50
0.0
 51
180.0
  0
ARC
  5
DA37
  8
0
  6
BYBLOCK
 62
     0
 10
23161.472810630661
 20
9435.1592194219593
 30
0.0
 40
15.0
 50
180.0
 51
0.0
  0
ARC
  5
DA38
  8
0
  6
BYBLOCK
 62
     0
 10
25813.97281063069
 20
9435.1592194219593
 30
0.0
 40
15.0
 50
180.0
 51
0.0
  0
ARC
  5
DA39
  8
0
  6
BYBLOCK
 62
     0
 10
25813.97281063069
 20
9435.1592194219593
 30
0.0
 40
15.0
 50
0.0
 51
180.0
  0
ARC
  5
DA3A
  8
0
  6
BYBLOCK
 62
     0
 10
27264.575061335421
 20
6287.1575434219612
 30
0.0
 40
15.0
 50
90.0
 51
270.0
  0
ARC
  5
DA3B
  8
0
  6
BYBLOCK
 62
     0
 10
27264.575061335421
 20
6287.1575434219612
 30
0.0
 40
15.0
 50
270.0
 51
90.0
  0
ARC
  5
DA3C
  8
0
  6
BYBLOCK
 62
     0
 10
27264.575061335421
 20
8635.6575694219555
 30
0.0
 40
15.0
 50
270.0
 51
90.0
  0
ARC
  5
DA3D
  8
0
  6
BYBLOCK
 62
     0
 10
27264.575061335421
 20
8635.6575694219555
 30
0.0
 40
15.0
 50
90.0
 51
270.0
  0
ARC
  5
DA3E
  8
0
  6
BYBLOCK
 62
     0
 10
26621.47610963069
 20
6287.1575434219621
 30
0.0
 40
15.0
 50
90.0
 51
270.0
  0
ARC
  5
DA3F
  8
0
  6
BYBLOCK
 62
     0
 10
26621.47610963069
 20
6287.1575434219621
 30
0.0
 40
15.0
 50
270.0
 51
90.0
  0
ARC
  5
DA40
  8
0
  6
BYBLOCK
 62
     0
 10
26621.47610963069
 20
8178.6575434219612
 30
0.0
 40
15.0
 50
270.0
 51
90.0
  0
ARC
  5
DA41
  8
0
  6
BYBLOCK
 62
     0
 10
26621.47610963069
 20
8178.6575434219612
 30
0.0
 40
15.0
 50
90.0
 51
270.0
  0
ARC
  5
DA42
  8
0
  6
BYBLOCK
 62
     0
 10
23158.472810630661
 20
5387.1575434219612
 30
0.0
 40
15.0
 50
180.0
 51
0.0
  0
ARC
  5
DA43
  8
0
  6
BYBLOCK
 62
     0
 10
23158.472810630661
 20
5387.1575434219612
 30
0.0
 40
15.0
 50
0.0
 51
180.0
  0
ARC
  5
DA44
  8
0
  6
BYBLOCK
 62
     0
 10
20446.472810630661
 20
5387.1575434219612
 30
0.0
 40
15.0
 50
0.0
 51
180.0
  0
ARC
  5
DA45
  8
0
  6
BYBLOCK
 62
     0
 10
20446.472810630661
 20
5387.1575434219612
 30
0.0
 40
15.0
 50
180.0
 51
0.0
  0
ARC
  5
DA46
  8
0
  6
BYBLOCK
 62
     0
 10
25813.93285768315
 20
4587.1578734220147
 30
0.0
 40
15.0
 50
180.0
 51
0.0
  0
ARC
  5
DA47
  8
0
  6
BYBLOCK
 62
     0
 10
25813.93285768315
 20
4587.1578734220147
 30
0.0
 40
15.0
 50
0.0
 51
180.0
  0
ARC
  5
DA48
  8
0
  6
BYBLOCK
 62
     0
 10
20361.472810630679
 20
4587.1578734220147
 30
0.0
 40
15.0
 50
0.0
 51
180.0
  0
ARC
  5
DA49
  8
0
  6
BYBLOCK
 62
     0
 10
20361.472810630679
 20
4587.1578734220147
 30
0.0
 40
15.0
 50
180.0
 51
0.0
  0
ARC
  5
DA4A
  8
0
  6
BYBLOCK
 62
     0
 10
25771.47281063069
 20
4987.1577084219589
 30
0.0
 40
15.0
 50
180.0
 51
0.0
  0
ARC
  5
DA4B
  8
0
  6
BYBLOCK
 62
     0
 10
25771.47281063069
 20
4987.1577084219589
 30
0.0
 40
15.0
 50
0.0
 51
180.0
  0
ARC
  5
DA4C
  8
0
  6
BYBLOCK
 62
     0
 10
25813.93285768315
 20
4987.1577084219589
 30
0.0
 40
15.0
 50
0.0
 51
180.0
  0
ARC
  5
DA4D
  8
0
  6
BYBLOCK
 62
     0
 10
25813.93285768315
 20
4987.1577084219589
 30
0.0
 40
15.0
 50
180.0
 51
0.0
  0
ARC
  5
DA4E
  8
0
  6
BYBLOCK
 62
     0
 10
23203.972810630661
 20
4987.1577084219589
 30
0.0
 40
15.0
 50
0.0
 51
180.0
  0
ARC
  5
DA4F
  8
0
  6
BYBLOCK
 62
     0
 10
23203.972810630661
 20
4987.1577084219589
 30
0.0
 40
15.0
 50
180.0
 51
0.0
  0
ARC
  5
DA50
  8
0
  6
BYBLOCK
 62
     0
 10
25771.47281063069
 20
4987.1577084219589
 30
0.0
 40
15.0
 50
180.0
 51
0.0
  0
ARC
  5
DA51
  8
0
  6
BYBLOCK
 62
     0
 10
25771.47281063069
 20
4987.1577084219589
 30
0.0
 40
15.0
 50
0.0
 51
180.0
  0
ARC
  5
DA52
  8
0
  6
BYBLOCK
 62
     0
 10
25677.47281063069
 20
5387.1575434219612
 30
0.0
 40
15.0
 50
180.0
 51
0.0
  0
ARC
  5
DA53
  8
0
  6
BYBLOCK
 62
     0
 10
25677.47281063069
 20
5387.1575434219612
 30
0.0
 40
15.0
 50
0.0
 51
180.0
  0
ARC
  5
DA54
  8
0
  6
BYBLOCK
 62
     0
 10
23297.972810630679
 20
5387.1575434219612
 30
0.0
 40
15.0
 50
0.0
 51
180.0
  0
ARC
  5
DA55
  8
0
  6
BYBLOCK
 62
     0
 10
23297.972810630679
 20
5387.1575434219612
 30
0.0
 40
15.0
 50
180.0
 51
0.0
  0
ARC
  5
DA56
  8
0
  6
BYBLOCK
 62
     0
 10
20403.972810630668
 20
4987.1577084219589
 30
0.0
 40
15.0
 50
0.0
 51
180.0
  0
ARC
  5
DA57
  8
0
  6
BYBLOCK
 62
     0
 10
20403.972810630668
 20
4987.1577084219589
 30
0.0
 40
15.0
 50
180.0
 51
0.0
  0
ARC
  5
DA58
  8
0
  6
BYBLOCK
 62
     0
 10
20361.472810630679
 20
4987.1577084219589
 30
0.0
 40
15.0
 50
180.0
 51
0.0
  0
ARC
  5
DA59
  8
0
  6
BYBLOCK
 62
     0
 10
20361.472810630679
 20
4987.1577084219589
 30
0.0
 40
15.0
 50
0.0
 51
180.0
  0
ARC
  5
DA5A
  8
0
  6
BYBLOCK
 62
     0
 10
23203.972810630661
 20
4987.1577084219589
 30
0.0
 40
15.0
 50
180.0
 51
0.0
  0
ARC
  5
DA5B
  8
0
  6
BYBLOCK
 62
     0
 10
23203.972810630661
 20
4987.1577084219589
 30
0.0
 40
15.0
 50
0.0
 51
180.0
  0
ARC
  5
DA5C
  8
0
  6
BYBLOCK
 62
     0
 10
20403.972810630668
 20
4987.1577084219589
 30
0.0
 40
15.0
 50
0.0
 51
180.0
  0
ARC
  5
DA5D
  8
0
  6
BYBLOCK
 62
     0
 10
20403.972810630668
 20
4987.1577084219589
 30
0.0
 40
15.0
 50
180.0
 51
0.0
  0
ARC
  5
DA5E
  8
0
  6
BYBLOCK
 62
     0
 10
23161.472810630661
 20
9435.1592194219593
 30
0.0
 40
15.0
 50
180.0
 51
0.0
  0
ARC
  5
DA5F
  8
0
  6
BYBLOCK
 62
     0
 10
23161.472810630661
 20
9435.1592194219593
 30
0.0
 40
15.0
 50
0.0
 51
180.0
  0
ARC
  5
DA60
  8
0
  6
BYBLOCK
 62
     0
 10
20361.472810630661
 20
9435.1592194219593
 30
0.0
 40
15.0
 50
0.0
 51
180.0
  0
ARC
  5
DA61
  8
0
  6
BYBLOCK
 62
     0
 10
20361.472810630661
 20
9435.1592194219593
 30
0.0
 40
15.0
 50
180.0
 51
0.0
  0
ARC
  5
DA62
  8
0
  6
BYBLOCK
 62
     0
 10
19151.65041233629
 20
6287.9718314219654
 30
0.0
 40
15.0
 50
90.0
 51
270.0
  0
ARC
  5
DA63
  8
0
  6
BYBLOCK
 62
     0
 10
19151.65041233629
 20
6287.9718314219654
 30
0.0
 40
15.0
 50
270.0
 51
90.0
  0
ARC
  5
DA64
  8
0
  6
BYBLOCK
 62
     0
 10
19151.65041233629
 20
8307.971831421959
 30
0.0
 40
15.0
 50
270.0
 51
90.0
  0
ARC
  5
DA65
  8
0
  6
BYBLOCK
 62
     0
 10
19151.65041233629
 20
8307.971831421959
 30
0.0
 40
15.0
 50
90.0
 51
270.0
  0
ARC
  5
DAA6
  8
0
  6
BYBLOCK
 62
     0
 10
23203.97281063065
 20
20956.956345421939
 30
0.0
 40
15.0
 50
180.0
 51
0.0
  0
ARC
  5
DAA7
  8
0
  6
BYBLOCK
 62
     0
 10
23203.97281063065
 20
20956.956345421939
 30
0.0
 40
15.0
 50
0.0
 51
180.0
  0
ARC
  5
DAA8
  8
0
  6
BYBLOCK
 62
     0
 10
20403.972810630668
 20
20956.956345421939
 30
0.0
 40
15.0
 50
0.0
 51
180.0
  0
ARC
  5
DAA9
  8
0
  6
BYBLOCK
 62
     0
 10
20403.972810630668
 20
20956.956345421939
 30
0.0
 40
15.0
 50
180.0
 51
0.0
  0
ARC
  5
DAAA
  8
0
  6
BYBLOCK
 62
     0
 10
25771.472810630668
 20
20956.956345421939
 30
0.0
 40
15.0
 50
180.0
 51
0.0
  0
ARC
  5
DAAB
  8
0
  6
BYBLOCK
 62
     0
 10
25771.472810630668
 20
20956.956345421939
 30
0.0
 40
15.0
 50
0.0
 51
180.0
  0
ARC
  5
DAAC
  8
0
  6
BYBLOCK
 62
     0
 10
23203.97281063065
 20
20956.956345421939
 30
0.0
 40
15.0
 50
0.0
 51
180.0
  0
ARC
  5
DAAD
  8
0
  6
BYBLOCK
 62
     0
 10
23203.97281063065
 20
20956.956345421939
 30
0.0
 40
15.0
 50
180.0
 51
0.0
  0
ARC
  5
DAAE
  8
0
  6
BYBLOCK
 62
     0
 10
20403.972810630668
 20
20556.95634542195
 30
0.0
 40
15.0
 50
180.0
 51
0.0
  0
ARC
  5
DAAF
  8
0
  6
BYBLOCK
 62
     0
 10
20403.972810630668
 20
20556.95634542195
 30
0.0
 40
15.0
 50
0.0
 51
180.0
  0
ARC
  5
DAB0
  8
0
  6
BYBLOCK
 62
     0
 10
20446.475053630638
 20
20556.95634542195
 30
0.0
 40
15.0
 50
0.0
 51
180.0
  0
ARC
  5
DAB1
  8
0
  6
BYBLOCK
 62
     0
 10
20446.475053630638
 20
20556.95634542195
 30
0.0
 40
15.0
 50
180.0
 51
0.0
  0
ARC
  5
DAB2
  8
0
  6
BYBLOCK
 62
     0
 10
20403.972810630668
 20
20556.95634542195
 30
0.0
 40
15.0
 50
0.0
 51
180.0
  0
ARC
  5
DAB3
  8
0
  6
BYBLOCK
 62
     0
 10
20403.972810630668
 20
20556.95634542195
 30
0.0
 40
15.0
 50
180.0
 51
0.0
  0
ARC
  5
DAB4
  8
0
  6
BYBLOCK
 62
     0
 10
20361.474525630671
 20
20556.95634542195
 30
0.0
 40
15.0
 50
180.0
 51
0.0
  0
ARC
  5
DAB5
  8
0
  6
BYBLOCK
 62
     0
 10
20361.474525630671
 20
20556.95634542195
 30
0.0
 40
15.0
 50
0.0
 51
180.0
  0
ARC
  5
DAB6
  8
0
  6
BYBLOCK
 62
     0
 10
19186.129186262038
 20
16796.455421421939
 30
0.0
 40
15.0
 50
90.0
 51
270.0
  0
ARC
  5
DAB7
  8
0
  6
BYBLOCK
 62
     0
 10
19186.129186262038
 20
16796.455421421939
 30
0.0
 40
15.0
 50
270.0
 51
90.0
  0
ARC
  5
DAB8
  8
0
  6
BYBLOCK
 62
     0
 10
19186.129186262038
 20
19714.45542142195
 30
0.0
 40
15.0
 50
270.0
 51
90.0
  0
ARC
  5
DAB9
  8
0
  6
BYBLOCK
 62
     0
 10
19186.129186262038
 20
19714.45542142195
 30
0.0
 40
15.0
 50
90.0
 51
270.0
  0
ARC
  5
DABA
  8
0
  6
BYBLOCK
 62
     0
 10
19186.129186262038
 20
13878.455421421961
 30
0.0
 40
15.0
 50
90.0
 51
270.0
  0
ARC
  5
DABB
  8
0
  6
BYBLOCK
 62
     0
 10
19186.129186262038
 20
13878.455421421961
 30
0.0
 40
15.0
 50
270.0
 51
90.0
  0
ARC
  5
DABC
  8
0
  6
BYBLOCK
 62
     0
 10
19186.129186262038
 20
16796.455421421939
 30
0.0
 40
15.0
 50
270.0
 51
90.0
  0
ARC
  5
DABD
  8
0
  6
BYBLOCK
 62
     0
 10
19186.129186262038
 20
16796.455421421939
 30
0.0
 40
15.0
 50
90.0
 51
270.0
  0
TEXT
  5
DBE8
  8
NAME
 10
21595.82616625919
 20
1076.6369801169251
 30
0.0
 40
360.0
  1
VGC-2659（H）+VKC-2859（H）型-L（単棟）
 41
0.45
  0
TEXT
  5
DBE9
  8
NAME
 10
21933.552716389011
 20
1876.0
 30
0.0
 40
360.0
  1
ヨドガレージ ラヴィージュ
 41
0.75
  7
01
  0
LINE
  5
DBEA
  8
NAME
  6
CONTINUOUS
 10
26067.886878884299
 20
2236.0
 30
0.0
 11
26067.886878884299
 21
1876.0
 31
0.0
  0
LINE
  5
DBEB
  8
NAME
  6
CONTINUOUS
 10
26167.886878884299
 20
2236.0
 30
0.0
 11
26167.886878884299
 21
1876.0
 31
0.0
  0
LINE
  5
DBEC
  8
NAME
  6
CONTINUOUS
 10
26267.88687888431
 20
2236.0
 30
0.0
 11
26267.88687888431
 21
1876.0
 31
0.0
  0
LINE
  5
DBED
  8
NAME
  6
CONTINUOUS
 10
26007.886878884299
 20
2236.0
 30
0.0
 11
26327.886878884299
 21
2236.0
 31
0.0
  0
LINE
  5
DBEE
  8
NAME
  6
CONTINUOUS
 10
26327.886878884299
 20
1876.0
 30
0.0
 11
26007.886878884299
 21
1876.0
 31
0.0
  0
LINE
  5
DEB4
  8
2-0
  6
CONTINUOUS
 62
     6
 10
24088.31389463069
 20
13238.45429942195
 30
0.0
 11
25088.307296630639
 21
13238.45429942195
 31
0.0
  0
LINE
  5
DEB5
  8
2-0
  6
CONTINUOUS
 62
     6
 10
25556.247673630689
 20
13708.87501342195
 30
0.0
 11
25088.307296630639
 21
13238.45429942195
 31
0.0
  0
LINE
  5
DEB6
  8
2-0
  6
CONTINUOUS
 62
     6
 10
25517.607470630672
 20
16900.482660421949
 30
0.0
 11
25212.91205263068
 21
17004.136191421971
 31
0.0
  0
LINE
  5
DEB7
  8
2-0
  6
CONTINUOUS
 62
     6
 10
25672.629509630649
 20
16410.86061642196
 30
0.0
 11
25212.91205263068
 21
16166.94730542196
 31
0.0
  0
LINE
  5
DEB8
  8
2-0
  6
CONTINUOUS
 62
     6
 10
24292.909017630671
 20
16166.94730542196
 30
0.0
 11
25212.91205263068
 21
16166.94730542196
 31
0.0
  0
LINE
  5
DEB9
  8
2-0
  6
CONTINUOUS
 62
     6
 10
24012.917990630689
 20
17004.136191421971
 30
0.0
 11
25212.91205263068
 21
17004.136191421971
 31
0.0
  0
LINE
  5
DEBA
  8
2-0
  6
CONTINUOUS
 62
     6
 10
25588.80679463068
 20
14030.558659421929
 30
0.0
 11
25212.91205263068
 21
14211.502494421949
 31
0.0
  0
LINE
  5
DEBB
  8
2-0
  6
CONTINUOUS
 62
     6
 10
24692.910336630681
 20
14211.502494421949
 30
0.0
 11
25212.91205263068
 21
14211.502494421949
 31
0.0
  0
LINE
  5
DEBC
  8
2-0
  6
CONTINUOUS
 62
     4
 10
23203.97281063069
 20
19836.955949421968
 30
0.0
 11
23203.97281063069
 21
20636.952650421939
 31
0.0
  0
LINE
  5
DEBD
  8
2-0
  6
CONTINUOUS
 62
     3
 10
25783.973470630692
 20
19647.95349542196
 30
0.0
 11
25783.973470630692
 21
19641.957533421959
 31
0.0
  0
LINE
  5
DEBE
  8
2-0
  6
CONTINUOUS
 62
     3
 10
25783.973470630692
 20
19641.957533421959
 30
0.0
 11
25813.97109463068
 21
19641.957533421959
 31
0.0
  0
LINE
  5
DEBF
  8
2-0
  6
CONTINUOUS
 62
     3
 10
25813.97109463068
 20
19671.957137421949
 30
0.0
 11
25732.96919463067
 21
19671.957137421949
 31
0.0
  0
LINE
  5
DEC0
  8
2-0
  6
CONTINUOUS
 62
     3
 10
25783.973470630692
 20
19631.660077421951
 30
0.0
 11
25813.97109463068
 21
19631.660077421951
 31
0.0
  0
LINE
  5
DEC1
  8
2-0
  6
CONTINUOUS
 62
     3
 10
25783.973470630692
 20
19649.661819421952
 30
0.0
 11
25783.973470630692
 21
19631.660077421951
 31
0.0
  0
LINE
  5
DEC2
  8
2-0
  6
CONTINUOUS
 62
     3
 10
25808.970830630689
 20
19649.661819421952
 30
0.0
 11
25783.973470630692
 21
19649.661819421952
 31
0.0
  0
LINE
  5
DEC3
  8
2-0
  6
CONTINUOUS
 62
     3
 10
25808.970830630689
 20
19644.653637421961
 30
0.0
 11
25808.970830630689
 21
19649.661819421952
 31
0.0
  0
LINE
  5
DEC4
  8
2-0
  6
CONTINUOUS
 62
     3
 10
25801.96927363069
 20
19644.653637421961
 30
0.0
 11
25808.970830630689
 21
19644.653637421961
 31
0.0
  0
LINE
  5
DEC5
  8
2-0
  6
CONTINUOUS
 62
     3
 10
25701.673005630691
 20
19744.953864421968
 30
0.0
 11
25701.673005630691
 21
19751.959380421958
 31
0.0
  0
LINE
  5
DEC6
  8
2-0
  6
CONTINUOUS
 62
     3
 10
25701.673005630691
 20
19751.959380421958
 30
0.0
 11
25706.67326963065
 21
19751.959380421958
 31
0.0
  0
LINE
  5
DEC7
  8
2-0
  6
CONTINUOUS
 62
     3
 10
25706.67326963065
 20
19751.959380421958
 30
0.0
 11
25706.67326963065
 21
19726.950143421949
 31
0.0
  0
LINE
  5
DEC8
  8
2-0
  6
CONTINUOUS
 62
     3
 10
25706.67326963065
 20
19726.950143421949
 30
0.0
 11
25688.67152763066
 21
19726.950143421949
 31
0.0
  0
LINE
  5
DEC9
  8
2-0
  6
CONTINUOUS
 62
     3
 10
25688.67152763066
 20
19726.950143421949
 30
0.0
 11
25688.67152763066
 21
19756.953706421958
 31
0.0
  0
LINE
  5
DECA
  8
2-0
  6
CONTINUOUS
 62
     3
 10
25698.968983630679
 20
19756.953706421958
 30
0.0
 11
25813.97109463068
 21
19756.953706421958
 31
0.0
  0
LINE
  5
DECB
  8
2-0
  6
CONTINUOUS
 62
     3
 10
25698.968983630679
 20
19726.950143421949
 30
0.0
 11
25698.968983630679
 21
19756.953706421958
 31
0.0
  0
LINE
  5
DECC
  8
2-0
  6
CONTINUOUS
 62
     3
 10
25704.970883630671
 20
19726.950143421949
 30
0.0
 11
25698.968983630679
 21
19726.950143421949
 31
0.0
  0
LINE
  5
DECD
  8
2-0
  6
CONTINUOUS
 62
     3
 10
25801.96927363069
 20
18940.856814921939
 30
0.0
 11
25808.970830630689
 21
18940.856814921939
 31
0.0
  0
LINE
  5
DECE
  8
2-0
  6
CONTINUOUS
 62
     3
 10
25808.970830630689
 20
18940.856814921939
 30
0.0
 11
25808.970830630689
 21
18945.857078921948
 31
0.0
  0
LINE
  5
DECF
  8
2-0
  6
CONTINUOUS
 62
     3
 10
25808.970830630689
 20
18945.857078921948
 30
0.0
 11
25783.973470630692
 21
18945.857078921948
 31
0.0
  0
LINE
  5
DED0
  8
2-0
  6
CONTINUOUS
 62
     3
 10
25783.973470630692
 20
18945.857078921948
 30
0.0
 11
25783.973470630692
 21
18927.86127492195
 31
0.0
  0
LINE
  5
DED1
  8
2-0
  6
CONTINUOUS
 62
     3
 10
25783.973470630692
 20
18927.86127492195
 30
0.0
 11
25813.97109463068
 21
18927.86127492195
 31
0.0
  0
LINE
  5
DED2
  8
2-0
  6
CONTINUOUS
 62
     3
 10
25783.973470630692
 20
18943.952781921911
 30
0.0
 11
25783.973470630692
 21
18937.95484092195
 31
0.0
  0
LINE
  5
DED3
  8
2-0
  6
CONTINUOUS
 62
     3
 10
25783.973470630692
 20
18937.95484092195
 30
0.0
 11
25813.97109463068
 21
18937.95484092195
 31
0.0
  0
LINE
  5
DED4
  8
2-0
  6
CONTINUOUS
 62
     3
 10
25813.97109463068
 20
18937.95484092195
 30
0.0
 11
25813.97109463068
 21
18974.956001921939
 31
0.0
  0
LINE
  5
DED5
  8
2-0
  6
CONTINUOUS
 62
     3
 10
25783.973470630692
 20
18974.956001921939
 30
0.0
 11
25813.97109463068
 21
18974.956001921939
 31
0.0
  0
LINE
  5
DED6
  8
2-0
  6
CONTINUOUS
 62
     3
 10
25783.973470630692
 20
18968.952121921939
 30
0.0
 11
25783.973470630692
 21
18974.956001921939
 31
0.0
  0
LINE
  5
DED7
  8
2-0
  6
CONTINUOUS
 62
     3
 10
25783.973470630692
 20
18985.051546921939
 30
0.0
 11
25813.97109463068
 21
18985.051546921939
 31
0.0
  0
LINE
  5
DED8
  8
2-0
  6
CONTINUOUS
 62
     3
 10
25783.973470630692
 20
18967.04980492195
 30
0.0
 11
25783.973470630692
 21
18985.051546921939
 31
0.0
  0
LINE
  5
DED9
  8
2-0
  6
CONTINUOUS
 62
     3
 10
25808.970830630689
 20
18967.04980492195
 30
0.0
 11
25783.973470630692
 21
18967.04980492195
 31
0.0
  0
LINE
  5
DEDA
  8
2-0
  6
CONTINUOUS
 62
     3
 10
25808.970830630689
 20
18972.050068921952
 30
0.0
 11
25808.970830630689
 21
18967.04980492195
 31
0.0
  0
LINE
  5
DEDB
  8
2-0
  6
CONTINUOUS
 62
     3
 10
25801.96927363069
 20
18972.050068921952
 30
0.0
 11
25808.970830630689
 21
18972.050068921952
 31
0.0
  0
LINE
  5
DEDC
  8
2-0
  6
CONTINUOUS
 62
     3
 10
25801.96927363069
 20
18239.85582542195
 30
0.0
 11
25808.970830630689
 21
18239.85582542195
 31
0.0
  0
LINE
  5
DEDD
  8
2-0
  6
CONTINUOUS
 62
     3
 10
25808.970830630689
 20
18239.85582542195
 30
0.0
 11
25808.970830630689
 21
18244.86202742195
 31
0.0
  0
LINE
  5
DEDE
  8
2-0
  6
CONTINUOUS
 62
     3
 10
25808.970830630689
 20
18244.86202742195
 30
0.0
 11
25783.973470630692
 21
18244.86202742195
 31
0.0
  0
LINE
  5
DEDF
  8
2-0
  6
CONTINUOUS
 62
     3
 10
25783.973470630692
 20
18244.86202742195
 30
0.0
 11
25783.973470630692
 21
18226.860285421961
 31
0.0
  0
LINE
  5
DEE0
  8
2-0
  6
CONTINUOUS
 62
     3
 10
25783.973470630692
 20
18226.860285421961
 30
0.0
 11
25813.97109463068
 21
18226.860285421961
 31
0.0
  0
LINE
  5
DEE1
  8
2-0
  6
CONTINUOUS
 62
     3
 10
25783.973470630692
 20
18242.95179242194
 30
0.0
 11
25783.973470630692
 21
18236.95583042195
 31
0.0
  0
LINE
  5
DEE2
  8
2-0
  6
CONTINUOUS
 62
     3
 10
25783.973470630692
 20
18236.95583042195
 30
0.0
 11
25813.97109463068
 21
18236.95583042195
 31
0.0
  0
LINE
  5
DEE3
  8
2-0
  6
CONTINUOUS
 62
     3
 10
25813.97109463068
 20
18236.95583042195
 30
0.0
 11
25813.97109463068
 21
18273.955012421939
 31
0.0
  0
LINE
  5
DEE4
  8
2-0
  6
CONTINUOUS
 62
     3
 10
25783.973470630692
 20
18273.955012421939
 30
0.0
 11
25813.97109463068
 21
18273.955012421939
 31
0.0
  0
LINE
  5
DEE5
  8
2-0
  6
CONTINUOUS
 62
     3
 10
25783.973470630692
 20
18267.959050421949
 30
0.0
 11
25783.973470630692
 21
18273.955012421939
 31
0.0
  0
LINE
  5
DEE6
  8
2-0
  6
CONTINUOUS
 62
     3
 10
25783.973470630692
 20
18284.050557421961
 30
0.0
 11
25813.97109463068
 21
18284.050557421961
 31
0.0
  0
LINE
  5
DEE7
  8
2-0
  6
CONTINUOUS
 62
     3
 10
25783.973470630692
 20
18266.048815421949
 30
0.0
 11
25783.973470630692
 21
18284.050557421961
 31
0.0
  0
LINE
  5
DEE8
  8
2-0
  6
CONTINUOUS
 62
     3
 10
25808.970830630689
 20
18266.048815421949
 30
0.0
 11
25783.973470630692
 21
18266.048815421949
 31
0.0
  0
LINE
  5
DEE9
  8
2-0
  6
CONTINUOUS
 62
     3
 10
25808.970830630689
 20
18271.055017421939
 30
0.0
 11
25808.970830630689
 21
18266.048815421949
 31
0.0
  0
LINE
  5
DEEA
  8
2-0
  6
CONTINUOUS
 62
     3
 10
25801.96927363069
 20
18271.055017421939
 30
0.0
 11
25808.970830630689
 21
18271.055017421939
 31
0.0
  0
LINE
  5
DEEB
  8
2-0
  6
CONTINUOUS
 62
     3
 10
25801.96927363069
 20
17570.049079421951
 30
0.0
 11
25808.970830630689
 21
17570.049079421951
 31
0.0
  0
LINE
  5
DEEC
  8
2-0
  6
CONTINUOUS
 62
     3
 10
25808.970830630689
 20
17570.049079421951
 30
0.0
 11
25808.970830630689
 21
17565.06069242195
 31
0.0
  0
LINE
  5
DEED
  8
2-0
  6
CONTINUOUS
 62
     3
 10
25808.970830630689
 20
17565.06069242195
 30
0.0
 11
25783.973470630692
 21
17565.06069242195
 31
0.0
  0
LINE
  5
DEEE
  8
2-0
  6
CONTINUOUS
 62
     3
 10
25783.973470630692
 20
17565.06069242195
 30
0.0
 11
25783.973470630692
 21
17583.056495421952
 31
0.0
  0
LINE
  5
DEEF
  8
2-0
  6
CONTINUOUS
 62
     3
 10
25783.973470630692
 20
17583.056495421952
 30
0.0
 11
25813.97109463068
 21
17583.056495421952
 31
0.0
  0
LINE
  5
DEF0
  8
2-0
  6
CONTINUOUS
 62
     3
 10
25783.973470630692
 20
17566.959050421949
 30
0.0
 11
25783.973470630692
 21
17572.95501242195
 31
0.0
  0
LINE
  5
DEF1
  8
2-0
  6
CONTINUOUS
 62
     3
 10
25783.973470630692
 20
17572.95501242195
 30
0.0
 11
25813.97109463068
 21
17572.95501242195
 31
0.0
  0
LINE
  5
DEF2
  8
2-0
  6
CONTINUOUS
 62
     3
 10
25813.97109463068
 20
17572.95501242195
 30
0.0
 11
25813.97109463068
 21
17535.955830421961
 31
0.0
  0
LINE
  5
DEF3
  8
2-0
  6
CONTINUOUS
 62
     3
 10
25783.973470630692
 20
17535.955830421961
 30
0.0
 11
25813.97109463068
 21
17535.955830421961
 31
0.0
  0
LINE
  5
DEF4
  8
2-0
  6
CONTINUOUS
 62
     3
 10
25783.973470630692
 20
17541.957731421939
 30
0.0
 11
25783.973470630692
 21
17535.955830421961
 31
0.0
  0
LINE
  5
DEF5
  8
2-0
  6
CONTINUOUS
 62
     3
 10
25783.973470630692
 20
17525.866224421949
 30
0.0
 11
25813.97109463068
 21
17525.866224421949
 31
0.0
  0
LINE
  5
DEF6
  8
2-0
  6
CONTINUOUS
 62
     3
 10
25783.973470630692
 20
17543.862027421939
 30
0.0
 11
25783.973470630692
 21
17525.866224421949
 31
0.0
  0
LINE
  5
DEF7
  8
2-0
  6
CONTINUOUS
 62
     3
 10
25808.970830630689
 20
17543.862027421939
 30
0.0
 11
25783.973470630692
 21
17543.862027421939
 31
0.0
  0
LINE
  5
DEF8
  8
2-0
  6
CONTINUOUS
 62
     3
 10
25808.970830630689
 20
17538.861764421948
 30
0.0
 11
25808.970830630689
 21
17543.862027421939
 31
0.0
  0
LINE
  5
DEF9
  8
2-0
  6
CONTINUOUS
 62
     3
 10
25801.96927363069
 20
17538.861764421948
 30
0.0
 11
25808.970830630689
 21
17538.861764421948
 31
0.0
  0
LINE
  5
DEFA
  8
2-0
  6
CONTINUOUS
 62
     3
 10
25811.08495663069
 20
16818.95265042195
 30
0.0
 11
25811.08495663069
 21
16838.953705421951
 31
0.0
  0
LINE
  5
DEFB
  8
2-0
  6
CONTINUOUS
 62
     3
 10
25811.08495663069
 20
16838.953705421951
 30
0.0
 11
25726.088387630691
 21
16838.953705421951
 31
0.0
  0
LINE
  5
DEFC
  8
2-0
  6
CONTINUOUS
 62
     3
 10
25801.96927363069
 20
16865.560415421951
 30
0.0
 11
25808.970830630689
 21
16865.560415421951
 31
0.0
  0
LINE
  5
DEFD
  8
2-0
  6
CONTINUOUS
 62
     3
 10
25808.970830630689
 20
16865.560415421951
 30
0.0
 11
25808.970830630689
 21
16860.566089421962
 31
0.0
  0
LINE
  5
DEFE
  8
2-0
  6
CONTINUOUS
 62
     3
 10
25808.970830630689
 20
16860.566089421962
 30
0.0
 11
25783.973470630692
 21
16860.566089421962
 31
0.0
  0
LINE
  5
DEFF
  8
2-0
  6
CONTINUOUS
 62
     3
 10
25783.973470630692
 20
16860.566089421962
 30
0.0
 11
25783.973470630692
 21
16878.561893421938
 31
0.0
  0
LINE
  5
DF00
  8
2-0
  6
CONTINUOUS
 62
     3
 10
25783.973470630692
 20
16878.561893421938
 30
0.0
 11
25813.97109463068
 21
16878.561893421938
 31
0.0
  0
LINE
  5
DF01
  8
2-0
  6
CONTINUOUS
 62
     3
 10
25783.973470630692
 20
16868.953309421941
 30
0.0
 11
25783.973470630692
 21
16862.951409421948
 31
0.0
  0
LINE
  5
DF02
  8
2-0
  6
CONTINUOUS
 62
     3
 10
25813.97109463068
 20
16868.953309421941
 30
0.0
 11
25783.973470630692
 21
16868.953309421941
 31
0.0
  0
LINE
  5
DF03
  8
2-0
  6
CONTINUOUS
 62
     3
 10
25813.97109463068
 20
16878.561893421938
 30
0.0
 11
25813.97109463068
 21
17525.866224421949
 31
0.0
  0
LINE
  5
DF04
  8
2-0
  6
CONTINUOUS
 62
     3
 10
25813.97109463068
 20
17583.056495421952
 30
0.0
 11
25813.97109463068
 21
18226.860285421961
 31
0.0
  0
LINE
  5
DF05
  8
2-0
  6
CONTINUOUS
 62
     3
 10
25813.97109463068
 20
16723.951594421938
 30
0.0
 11
25783.973470630692
 21
16723.951594421938
 31
0.0
  0
LINE
  5
DF06
  8
2-0
  6
CONTINUOUS
 62
     3
 10
25783.973470630692
 20
16723.951594421938
 30
0.0
 11
25783.973470630692
 21
16729.953494421949
 31
0.0
  0
LINE
  5
DF07
  8
2-0
  6
CONTINUOUS
 62
     3
 10
25726.088387630691
 20
16753.957137421949
 30
0.0
 11
25811.08495663069
 21
16753.957137421949
 31
0.0
  0
LINE
  5
DF08
  8
2-0
  6
CONTINUOUS
 62
     3
 10
25811.08495663069
 20
16753.957137421949
 30
0.0
 11
25811.08495663069
 21
16773.952254421962
 31
0.0
  0
LINE
  5
DF09
  8
2-0
  6
CONTINUOUS
 62
     3
 10
25783.973470630692
 20
16714.343011421959
 30
0.0
 11
25813.97109463068
 21
16714.343011421959
 31
0.0
  0
LINE
  5
DF0A
  8
2-0
  6
CONTINUOUS
 62
     3
 10
25783.973470630692
 20
16732.338814421939
 30
0.0
 11
25783.973470630692
 21
16714.343011421959
 31
0.0
  0
LINE
  5
DF0B
  8
2-0
  6
CONTINUOUS
 62
     3
 10
25808.970830630689
 20
16732.338814421939
 30
0.0
 11
25783.973470630692
 21
16732.338814421939
 31
0.0
  0
LINE
  5
DF0C
  8
2-0
  6
CONTINUOUS
 62
     3
 10
25808.970830630689
 20
16727.338550421959
 30
0.0
 11
25808.970830630689
 21
16732.338814421939
 31
0.0
  0
LINE
  5
DF0D
  8
2-0
  6
CONTINUOUS
 62
     3
 10
25801.96927363069
 20
16727.338550421959
 30
0.0
 11
25808.970830630689
 21
16727.338550421959
 31
0.0
  0
LINE
  5
DF0E
  8
2-0
  6
CONTINUOUS
 62
     3
 10
25801.96927363069
 20
16022.85631992193
 30
0.0
 11
25808.970830630689
 21
16022.85631992193
 31
0.0
  0
LINE
  5
DF0F
  8
2-0
  6
CONTINUOUS
 62
     3
 10
25808.970830630689
 20
16022.85631992193
 30
0.0
 11
25808.970830630689
 21
16027.856583921939
 31
0.0
  0
LINE
  5
DF10
  8
2-0
  6
CONTINUOUS
 62
     3
 10
25808.970830630689
 20
16027.856583921939
 30
0.0
 11
25783.973470630692
 21
16027.856583921939
 31
0.0
  0
LINE
  5
DF11
  8
2-0
  6
CONTINUOUS
 62
     3
 10
25783.973470630692
 20
16027.856583921939
 30
0.0
 11
25783.973470630692
 21
16009.85484192195
 31
0.0
  0
LINE
  5
DF12
  8
2-0
  6
CONTINUOUS
 62
     3
 10
25783.973470630692
 20
16009.85484192195
 30
0.0
 11
25813.97109463068
 21
16009.85484192195
 31
0.0
  0
LINE
  5
DF13
  8
2-0
  6
CONTINUOUS
 62
     3
 10
25783.973470630692
 20
16025.952286921951
 30
0.0
 11
25783.973470630692
 21
16019.95533592195
 31
0.0
  0
LINE
  5
DF14
  8
2-0
  6
CONTINUOUS
 62
     3
 10
25783.973470630692
 20
16019.95533592195
 30
0.0
 11
25813.97109463068
 21
16019.95533592195
 31
0.0
  0
LINE
  5
DF15
  8
2-0
  6
CONTINUOUS
 62
     3
 10
25813.97109463068
 20
16019.95533592195
 30
0.0
 11
25813.97109463068
 21
16056.95550692195
 31
0.0
  0
LINE
  5
DF16
  8
2-0
  6
CONTINUOUS
 62
     3
 10
25783.973470630692
 20
16056.95550692195
 30
0.0
 11
25813.97109463068
 21
16056.95550692195
 31
0.0
  0
LINE
  5
DF17
  8
2-0
  6
CONTINUOUS
 62
     3
 10
25783.973470630692
 20
16050.95261692195
 30
0.0
 11
25783.973470630692
 21
16056.95550692195
 31
0.0
  0
LINE
  5
DF18
  8
2-0
  6
CONTINUOUS
 62
     3
 10
25783.973470630692
 20
16067.05105192195
 30
0.0
 11
25813.97109463068
 21
16067.05105192195
 31
0.0
  0
LINE
  5
DF19
  8
2-0
  6
CONTINUOUS
 62
     3
 10
25783.973470630692
 20
16049.04337092194
 30
0.0
 11
25783.973470630692
 21
16067.05105192195
 31
0.0
  0
LINE
  5
DF1A
  8
2-0
  6
CONTINUOUS
 62
     3
 10
25808.970830630689
 20
16049.04337092194
 30
0.0
 11
25783.973470630692
 21
16049.04337092194
 31
0.0
  0
LINE
  5
DF1B
  8
2-0
  6
CONTINUOUS
 62
     3
 10
25808.970830630689
 20
16054.04957392195
 30
0.0
 11
25808.970830630689
 21
16049.04337092194
 31
0.0
  0
LINE
  5
DF1C
  8
2-0
  6
CONTINUOUS
 62
     3
 10
25801.96927363069
 20
16054.04957392195
 30
0.0
 11
25808.970830630689
 21
16054.04957392195
 31
0.0
  0
LINE
  5
DF1D
  8
2-0
  6
CONTINUOUS
 62
     3
 10
25801.96927363069
 20
15353.289590421949
 30
0.0
 11
25808.970830630689
 21
15353.289590421949
 31
0.0
  0
LINE
  5
DF1E
  8
2-0
  6
CONTINUOUS
 62
     3
 10
25808.970830630689
 20
15353.289590421949
 30
0.0
 11
25808.970830630689
 21
15348.29526542195
 31
0.0
  0
LINE
  5
DF1F
  8
2-0
  6
CONTINUOUS
 62
     3
 10
25808.970830630689
 20
15348.29526542195
 30
0.0
 11
25783.973470630692
 21
15348.29526542195
 31
0.0
  0
LINE
  5
DF20
  8
2-0
  6
CONTINUOUS
 62
     3
 10
25783.973470630692
 20
15348.29526542195
 30
0.0
 11
25783.973470630692
 21
15366.291068421961
 31
0.0
  0
LINE
  5
DF21
  8
2-0
  6
CONTINUOUS
 62
     3
 10
25783.973470630692
 20
15366.291068421961
 30
0.0
 11
25813.97109463068
 21
15366.291068421961
 31
0.0
  0
LINE
  5
DF22
  8
2-0
  6
CONTINUOUS
 62
     3
 10
25783.973470630692
 20
15350.193623421959
 30
0.0
 11
25783.973470630692
 21
15356.195523421949
 31
0.0
  0
LINE
  5
DF23
  8
2-0
  6
CONTINUOUS
 62
     3
 10
25783.973470630692
 20
15356.195523421949
 30
0.0
 11
25813.97109463068
 21
15356.195523421949
 31
0.0
  0
LINE
  5
DF24
  8
2-0
  6
CONTINUOUS
 62
     3
 10
25813.97109463068
 20
15319.196342421959
 30
0.0
 11
25813.97109463068
 21
15356.195523421949
 31
0.0
  0
LINE
  5
DF25
  8
2-0
  6
CONTINUOUS
 62
     3
 10
25783.973470630692
 20
15319.196342421959
 30
0.0
 11
25813.97109463068
 21
15319.196342421959
 31
0.0
  0
LINE
  5
DF26
  8
2-0
  6
CONTINUOUS
 62
     3
 10
25783.973470630692
 20
15325.193293421949
 30
0.0
 11
25783.973470630692
 21
15319.196342421959
 31
0.0
  0
LINE
  5
DF27
  8
2-0
  6
CONTINUOUS
 62
     3
 10
25783.973470630692
 20
15309.09485842194
 30
0.0
 11
25813.97109463068
 21
15309.09485842194
 31
0.0
  0
LINE
  5
DF28
  8
2-0
  6
CONTINUOUS
 62
     3
 10
25783.973470630692
 20
15327.10253942194
 30
0.0
 11
25783.973470630692
 21
15309.09485842194
 31
0.0
  0
LINE
  5
DF29
  8
2-0
  6
CONTINUOUS
 62
     3
 10
25808.970830630689
 20
15327.10253942194
 30
0.0
 11
25783.973470630692
 21
15327.10253942194
 31
0.0
  0
LINE
  5
DF2A
  8
2-0
  6
CONTINUOUS
 62
     3
 10
25808.970830630689
 20
15322.10227542197
 30
0.0
 11
25808.970830630689
 21
15327.10253942194
 31
0.0
  0
LINE
  5
DF2B
  8
2-0
  6
CONTINUOUS
 62
     3
 10
25801.96927363069
 20
15322.10227542197
 30
0.0
 11
25808.970830630689
 21
15322.10227542197
 31
0.0
  0
LINE
  5
DF2C
  8
2-0
  6
CONTINUOUS
 62
     3
 10
25813.97109463068
 20
16714.343011421959
 30
0.0
 11
25813.97109463068
 21
16067.05105192195
 31
0.0
  0
LINE
  5
DF2D
  8
2-0
  6
CONTINUOUS
 62
     3
 10
25813.97109463068
 20
16868.953309421941
 30
0.0
 11
25813.97109463068
 21
16723.951594421938
 31
0.0
  0
LINE
  5
DF2E
  8
2-0
  6
CONTINUOUS
 62
     3
 10
25726.088387630691
 20
16838.953705421951
 30
0.0
 11
25726.088387630691
 21
16753.957137421949
 31
0.0
  0
LINE
  5
DF2F
  8
2-0
  6
CONTINUOUS
 62
     6
 10
24187.879720630692
 20
18607.400970921939
 30
0.0
 11
25212.91205263068
 21
18607.400970921939
 31
0.0
  0
LINE
  5
DF30
  8
2-0
  6
CONTINUOUS
 62
     3
 10
25801.96927363069
 20
14620.86126842195
 30
0.0
 11
25808.970830630689
 21
14620.86126842195
 31
0.0
  0
LINE
  5
DF31
  8
2-0
  6
CONTINUOUS
 62
     3
 10
25808.970830630689
 20
14620.86126842195
 30
0.0
 11
25808.970830630689
 21
14625.85559442195
 31
0.0
  0
LINE
  5
DF32
  8
2-0
  6
CONTINUOUS
 62
     3
 10
25808.970830630689
 20
14625.85559442195
 30
0.0
 11
25783.973470630692
 21
14625.85559442195
 31
0.0
  0
LINE
  5
DF33
  8
2-0
  6
CONTINUOUS
 62
     3
 10
25783.973470630692
 20
14625.85559442195
 30
0.0
 11
25783.973470630692
 21
14607.85979042195
 31
0.0
  0
LINE
  5
DF34
  8
2-0
  6
CONTINUOUS
 62
     3
 10
25783.973470630692
 20
14607.85979042195
 30
0.0
 11
25813.97109463068
 21
14607.85979042195
 31
0.0
  0
LINE
  5
DF35
  8
2-0
  6
CONTINUOUS
 62
     3
 10
25783.973470630692
 20
14623.958225421949
 30
0.0
 11
25783.973470630692
 21
14617.955335421961
 31
0.0
  0
LINE
  5
DF36
  8
2-0
  6
CONTINUOUS
 62
     3
 10
25783.973470630692
 20
14617.955335421961
 30
0.0
 11
25813.97109463068
 21
14617.955335421961
 31
0.0
  0
LINE
  5
DF37
  8
2-0
  6
CONTINUOUS
 62
     3
 10
25813.97109463068
 20
14617.955335421961
 30
0.0
 11
25813.97109463068
 21
14654.95550742193
 31
0.0
  0
LINE
  5
DF38
  8
2-0
  6
CONTINUOUS
 62
     3
 10
25783.973470630692
 20
14654.95550742193
 30
0.0
 11
25813.97109463068
 21
14654.95550742193
 31
0.0
  0
LINE
  5
DF39
  8
2-0
  6
CONTINUOUS
 62
     3
 10
25783.973470630692
 20
14648.958555421939
 30
0.0
 11
25783.973470630692
 21
14654.95550742193
 31
0.0
  0
LINE
  5
DF3A
  8
2-0
  6
CONTINUOUS
 62
     3
 10
25783.973470630692
 20
14665.05600042195
 30
0.0
 11
25813.97109463068
 21
14665.05600042195
 31
0.0
  0
LINE
  5
DF3B
  8
2-0
  6
CONTINUOUS
 62
     3
 10
25783.973470630692
 20
14647.049309421949
 30
0.0
 11
25783.973470630692
 21
14665.05600042195
 31
0.0
  0
LINE
  5
DF3C
  8
2-0
  6
CONTINUOUS
 62
     3
 10
25808.970830630689
 20
14647.049309421949
 30
0.0
 11
25783.973470630692
 21
14647.049309421949
 31
0.0
  0
LINE
  5
DF3D
  8
2-0
  6
CONTINUOUS
 62
     3
 10
25808.970830630689
 20
14652.05452242195
 30
0.0
 11
25808.970830630689
 21
14647.049309421949
 31
0.0
  0
LINE
  5
DF3E
  8
2-0
  6
CONTINUOUS
 62
     3
 10
25801.96927363069
 20
14652.05452242195
 30
0.0
 11
25808.970830630689
 21
14652.05452242195
 31
0.0
  0
LINE
  5
DF3F
  8
2-0
  6
CONTINUOUS
 62
     3
 10
25783.973470630692
 20
13944.957348421951
 30
0.0
 11
25783.973470630692
 21
13950.96221742194
 31
0.0
  0
LINE
  5
DF40
  8
2-0
  6
CONTINUOUS
 62
     3
 10
25783.973470630692
 20
13950.96221742194
 30
0.0
 11
25813.97109463068
 21
13950.96221742194
 31
0.0
  0
LINE
  5
DF41
  8
2-0
  6
CONTINUOUS
 62
     3
 10
25813.97109463068
 20
13950.96221742194
 30
0.0
 11
25813.97109463068
 21
13835.958126421951
 31
0.0
  0
LINE
  5
DF42
  8
2-0
  6
CONTINUOUS
 62
     3
 10
25813.97109463068
 20
13835.958126421951
 30
0.0
 11
25728.972546630692
 21
13835.958126421951
 31
0.0
  0
LINE
  5
DF43
  8
2-0
  6
CONTINUOUS
 62
     3
 10
25728.972546630692
 20
13835.958126421951
 30
0.0
 11
25728.972546630692
 21
13920.953705421951
 31
0.0
  0
LINE
  5
DF44
  8
2-0
  6
CONTINUOUS
 62
     3
 10
25728.972546630692
 20
13920.953705421951
 30
0.0
 11
25760.971464630671
 21
13920.953705421951
 31
0.0
  0
LINE
  5
DF45
  8
2-0
  6
CONTINUOUS
 62
     3
 10
25801.96927363069
 20
13947.991950421951
 30
0.0
 11
25808.970830630689
 21
13947.991950421951
 31
0.0
  0
LINE
  5
DF46
  8
2-0
  6
CONTINUOUS
 62
     3
 10
25808.970830630689
 20
13947.991950421951
 30
0.0
 11
25808.970830630689
 21
13942.99465542193
 31
0.0
  0
LINE
  5
DF47
  8
2-0
  6
CONTINUOUS
 62
     3
 10
25808.970830630689
 20
13942.99465542193
 30
0.0
 11
25783.973470630692
 21
13942.99465542193
 31
0.0
  0
LINE
  5
DF48
  8
2-0
  6
CONTINUOUS
 62
     3
 10
25783.973470630692
 20
13942.99465542193
 30
0.0
 11
25783.973470630692
 21
13960.99342842194
 31
0.0
  0
LINE
  5
DF49
  8
2-0
  6
CONTINUOUS
 62
     3
 10
25783.973470630692
 20
13960.99342842194
 30
0.0
 11
25813.97109463068
 21
13960.99342842194
 31
0.0
  0
LINE
  5
DF4A
  8
2-0
  6
CENTER2
 62
     6
 10
25771.472810630708
 20
13282.61175889793
 30
0.0
 11
25771.472810630668
 21
13528.540796945959
 31
0.0
  0
LINE
  5
DF4B
  8
2-0
  6
CONTINUOUS
 62
     3
 10
25813.97109463068
 20
18284.050557421961
 30
0.0
 11
25813.97109463068
 21
18927.86127492195
 31
0.0
  0
LINE
  5
DF4C
  8
2-0
  6
CONTINUOUS
 62
     6
 10
26506.475977630671
 20
20486.956609421959
 30
0.0
 11
27706.470039630651
 21
20486.956609421959
 31
0.0
  0
LINE
  5
DF4D
  8
2-0
  6
CONTINUOUS
 62
     6
 10
25644.44314463067
 20
18849.555478921939
 30
0.0
 11
25212.91205263068
 21
18607.400970921939
 31
0.0
  0
LINE
  5
DF4E
  8
2-0
  6
CONTINUOUS
 62
     6
 10
25966.01197863065
 20
19899.633446421969
 30
0.0
 11
26506.475977630671
 21
20486.956609421959
 31
0.0
  0
LINE
  5
DF4F
  8
2-0
  6
CONTINUOUS
 62
     3
 10
25813.97109463068
 20
16009.85484192195
 30
0.0
 11
25813.97109463068
 21
15366.291068421961
 31
0.0
  0
LINE
  5
DF50
  8
2-0
  6
CONTINUOUS
 62
     6
 10
25631.386239630679
 20
18872.814822921941
 30
0.0
 11
25783.973470630692
 21
18927.86127492195
 31
0.0
  0
LINE
  5
DF51
  8
2-0
  6
CONTINUOUS
 62
     6
 10
25783.973470630692
 20
18927.86127492195
 30
0.0
 11
25657.492130630679
 21
18826.302074921929
 31
0.0
  0
LINE
  5
DF52
  8
2-0
  6
CONTINUOUS
 62
     6
 10
25631.386239630679
 20
18872.814822921941
 30
0.0
 11
25657.492130630679
 21
18826.302074921929
 31
0.0
  0
LINE
  5
DF53
  8
2-0
  6
CONTINUOUS
 62
     6
 10
25657.492130630679
 20
18826.302074921929
 30
0.0
 11
25783.973470630692
 21
18927.86127492195
 31
0.0
  0
LINE
  5
DF54
  8
2-0
  6
CONTINUOUS
 62
     6
 10
25783.973470630692
 20
18927.86127492195
 30
0.0
 11
25631.386239630679
 21
18872.814822921941
 31
0.0
  0
LINE
  5
DF55
  8
2-0
  6
CONTINUOUS
 62
     6
 10
25631.386239630679
 20
18872.814822921941
 30
0.0
 11
25783.973470630692
 21
18927.86127492195
 31
0.0
  0
LINE
  5
DF56
  8
2-0
  6
CONTINUOUS
 62
     6
 10
25657.492130630679
 20
18826.302074921929
 30
0.0
 11
25783.973470630692
 21
18927.86127492195
 31
0.0
  0
LINE
  5
DF57
  8
2-0
  6
CONTINUOUS
 62
     6
 10
25657.492130630679
 20
18826.302074921929
 30
0.0
 11
25631.386239630679
 21
18872.814822921941
 31
0.0
  0
LINE
  5
DF58
  8
2-0
  6
CONTINUOUS
 62
     6
 10
25985.62900763068
 20
19881.572319421972
 30
0.0
 11
25857.666987630691
 21
19781.889701421958
 31
0.0
  0
LINE
  5
DF59
  8
2-0
  6
CONTINUOUS
 62
     6
 10
25857.666987630691
 20
19781.889701421958
 30
0.0
 11
25946.381092630669
 21
19917.68665642196
 31
0.0
  0
LINE
  5
DF5A
  8
2-0
  6
CONTINUOUS
 62
     6
 10
25985.62900763068
 20
19881.572319421972
 30
0.0
 11
25946.381092630669
 21
19917.68665642196
 31
0.0
  0
LINE
  5
DF5B
  8
2-0
  6
CONTINUOUS
 62
     6
 10
25946.381092630669
 20
19917.68665642196
 30
0.0
 11
25857.666987630691
 21
19781.889701421958
 31
0.0
  0
LINE
  5
DF5C
  8
2-0
  6
CONTINUOUS
 62
     6
 10
25857.666987630691
 20
19781.889701421958
 30
0.0
 11
25985.62900763068
 21
19881.572319421972
 31
0.0
  0
LINE
  5
DF5D
  8
2-0
  6
CONTINUOUS
 62
     6
 10
25985.62900763068
 20
19881.572319421972
 30
0.0
 11
25857.666987630691
 21
19781.889701421958
 31
0.0
  0
LINE
  5
DF5E
  8
2-0
  6
CONTINUOUS
 62
     6
 10
25946.381092630669
 20
19917.68665642196
 30
0.0
 11
25857.666987630691
 21
19781.889701421958
 31
0.0
  0
LINE
  5
DF5F
  8
2-0
  6
CONTINUOUS
 62
     6
 10
25946.381092630669
 20
19917.68665642196
 30
0.0
 11
25985.62900763068
 21
19881.572319421972
 31
0.0
  0
LINE
  5
DF60
  8
2-0
  6
CONTINUOUS
 62
     4
 10
23203.97281063069
 20
19836.955949421968
 30
0.0
 11
23203.97281063069
 21
20636.952650421939
 31
0.0
  0
LINE
  5
DF61
  8
2-0
  6
CONTINUOUS
 62
     6
 10
25537.333373630681
 20
13727.68538842194
 30
0.0
 11
25669.08023263068
 21
13822.31231542195
 31
0.0
  0
LINE
  5
DF62
  8
2-0
  6
CONTINUOUS
 62
     6
 10
25669.08023263068
 20
13822.31231542195
 30
0.0
 11
25575.150096630681
 21
13690.073545421939
 31
0.0
  0
LINE
  5
DF63
  8
2-0
  6
CONTINUOUS
 62
     6
 10
25537.333373630681
 20
13727.68538842194
 30
0.0
 11
25575.150096630681
 21
13690.073545421939
 31
0.0
  0
LINE
  5
DF64
  8
2-0
  6
CONTINUOUS
 62
     6
 10
25575.150096630681
 20
13690.073545421939
 30
0.0
 11
25669.08023263068
 21
13822.31231542195
 31
0.0
  0
LINE
  5
DF65
  8
2-0
  6
CONTINUOUS
 62
     6
 10
25669.08023263068
 20
13822.31231542195
 30
0.0
 11
25537.333373630681
 21
13727.68538842194
 31
0.0
  0
LINE
  5
DF66
  8
2-0
  6
CONTINUOUS
 62
     6
 10
25537.333373630681
 20
13727.68538842194
 30
0.0
 11
25669.08023263068
 21
13822.31231542195
 31
0.0
  0
LINE
  5
DF67
  8
2-0
  6
CONTINUOUS
 62
     6
 10
25575.150096630681
 20
13690.073545421939
 30
0.0
 11
25669.08023263068
 21
13822.31231542195
 31
0.0
  0
LINE
  5
DF68
  8
2-0
  6
CONTINUOUS
 62
     6
 10
25575.150096630681
 20
13690.073545421939
 30
0.0
 11
25537.333373630681
 21
13727.68538842194
 31
0.0
  0
LINE
  5
DF69
  8
2-0
  6
CONTINUOUS
 62
     6
 10
25600.369162630679
 20
14054.59001542194
 30
0.0
 11
25732.96919463067
 21
13961.16168742194
 31
0.0
  0
LINE
  5
DF6A
  8
2-0
  6
CONTINUOUS
 62
     6
 10
25732.96919463067
 20
13961.16168742194
 30
0.0
 11
25577.236508630671
 21
14006.53720142195
 31
0.0
  0
LINE
  5
DF6B
  8
2-0
  6
CONTINUOUS
 62
     6
 10
25600.369162630679
 20
14054.59001542194
 30
0.0
 11
25577.236508630671
 21
14006.53720142195
 31
0.0
  0
LINE
  5
DF6C
  8
2-0
  6
CONTINUOUS
 62
     6
 10
25577.236508630671
 20
14006.53720142195
 30
0.0
 11
25732.96919463067
 21
13961.16168742194
 31
0.0
  0
LINE
  5
DF6D
  8
2-0
  6
CONTINUOUS
 62
     6
 10
25732.96919463067
 20
13961.16168742194
 30
0.0
 11
25600.369162630679
 21
14054.59001542194
 31
0.0
  0
LINE
  5
DF6E
  8
2-0
  6
CONTINUOUS
 62
     6
 10
25600.369162630679
 20
14054.59001542194
 30
0.0
 11
25732.96919463067
 21
13961.16168742194
 31
0.0
  0
LINE
  5
DF6F
  8
2-0
  6
CONTINUOUS
 62
     6
 10
25577.236508630671
 20
14006.53720142195
 30
0.0
 11
25732.96919463067
 21
13961.16168742194
 31
0.0
  0
LINE
  5
DF70
  8
2-0
  6
CONTINUOUS
 62
     6
 10
25577.236508630671
 20
14006.53720142195
 30
0.0
 11
25600.369162630679
 21
14054.59001542194
 31
0.0
  0
LINE
  5
DF71
  8
2-0
  6
CONTINUOUS
 62
     6
 10
25660.132808630678
 20
16434.410948421959
 30
0.0
 11
25813.97109463068
 21
16485.844779421968
 31
0.0
  0
LINE
  5
DF72
  8
2-0
  6
CONTINUOUS
 62
     6
 10
25813.97109463068
 20
16485.844779421968
 30
0.0
 11
25685.136107630649
 21
16387.304344421969
 31
0.0
  0
LINE
  5
DF73
  8
2-0
  6
CONTINUOUS
 62
     6
 10
25660.132808630678
 20
16434.410948421959
 30
0.0
 11
25685.136107630649
 21
16387.304344421969
 31
0.0
  0
LINE
  5
DF74
  8
2-0
  6
CONTINUOUS
 62
     6
 10
25685.136107630649
 20
16387.304344421969
 30
0.0
 11
25813.97109463068
 21
16485.844779421968
 31
0.0
  0
LINE
  5
DF75
  8
2-0
  6
CONTINUOUS
 62
     6
 10
25813.97109463068
 20
16485.844779421968
 30
0.0
 11
25660.132808630678
 21
16434.410948421959
 31
0.0
  0
LINE
  5
DF76
  8
2-0
  6
CONTINUOUS
 62
     6
 10
25660.132808630678
 20
16434.410948421959
 30
0.0
 11
25813.97109463068
 21
16485.844779421968
 31
0.0
  0
LINE
  5
DF77
  8
2-0
  6
CONTINUOUS
 62
     6
 10
25685.136107630649
 20
16387.304344421969
 30
0.0
 11
25813.97109463068
 21
16485.844779421968
 31
0.0
  0
LINE
  5
DF78
  8
2-0
  6
CONTINUOUS
 62
     6
 10
25685.136107630649
 20
16387.304344421969
 30
0.0
 11
25660.132808630678
 21
16434.410948421959
 31
0.0
  0
LINE
  5
DF79
  8
2-0
  6
CONTINUOUS
 62
     6
 10
25526.196601630669
 20
16925.729440421961
 30
0.0
 11
25669.08023263068
 21
16848.95381142195
 31
0.0
  0
LINE
  5
DF7A
  8
2-0
  6
CONTINUOUS
 62
     6
 10
25669.08023263068
 20
16848.95381142195
 30
0.0
 11
25509.018339630671
 21
16875.235880421958
 31
0.0
  0
LINE
  5
DF7B
  8
2-0
  6
CONTINUOUS
 62
     6
 10
25526.196601630669
 20
16925.729440421961
 30
0.0
 11
25509.018339630671
 21
16875.235880421958
 31
0.0
  0
LINE
  5
DF7C
  8
2-0
  6
CONTINUOUS
 62
     6
 10
25509.018339630671
 20
16875.235880421958
 30
0.0
 11
25669.08023263068
 21
16848.95381142195
 31
0.0
  0
LINE
  5
DF7D
  8
2-0
  6
CONTINUOUS
 62
     6
 10
25669.08023263068
 20
16848.95381142195
 30
0.0
 11
25526.196601630669
 21
16925.729440421961
 31
0.0
  0
LINE
  5
DF7E
  8
2-0
  6
CONTINUOUS
 62
     6
 10
25526.196601630669
 20
16925.729440421961
 30
0.0
 11
25669.08023263068
 21
16848.95381142195
 31
0.0
  0
LINE
  5
DF7F
  8
2-0
  6
CONTINUOUS
 62
     6
 10
25509.018339630671
 20
16875.235880421958
 30
0.0
 11
25669.08023263068
 21
16848.95381142195
 31
0.0
  0
LINE
  5
DF80
  8
2-0
  6
CONTINUOUS
 62
     6
 10
25509.018339630671
 20
16875.235880421958
 30
0.0
 11
25526.196601630669
 21
16925.729440421961
 31
0.0
  0
LINE
  5
DF81
  8
2-0
  6
CONTINUOUS
 62
     3
 10
23191.474130630679
 20
19647.95349542196
 30
0.0
 11
23191.474130630679
 21
19641.957533421959
 31
0.0
  0
LINE
  5
DF82
  8
2-0
  6
CONTINUOUS
 62
     3
 10
23191.474130630679
 20
19641.957533421959
 30
0.0
 11
23161.476505630679
 21
19641.957533421959
 31
0.0
  0
LINE
  5
DF83
  8
2-0
  6
CONTINUOUS
 62
     3
 10
23161.476505630679
 20
19641.957533421959
 30
0.0
 11
23161.476505630679
 21
19756.953706421958
 31
0.0
  0
LINE
  5
DF84
  8
2-0
  6
CONTINUOUS
 62
     3
 10
23161.476505630679
 20
19671.957137421949
 30
0.0
 11
23242.474446630691
 21
19671.957137421949
 31
0.0
  0
LINE
  5
DF85
  8
2-0
  6
CONTINUOUS
 62
     3
 10
23191.474130630679
 20
19631.660077421951
 30
0.0
 11
23161.476505630679
 21
19631.660077421951
 31
0.0
  0
LINE
  5
DF86
  8
2-0
  6
CONTINUOUS
 62
     3
 10
23191.474130630679
 20
19649.661819421952
 30
0.0
 11
23191.474130630679
 21
19631.660077421951
 31
0.0
  0
LINE
  5
DF87
  8
2-0
  6
CONTINUOUS
 62
     3
 10
23166.480728630679
 20
19649.661819421952
 30
0.0
 11
23191.474130630679
 21
19649.661819421952
 31
0.0
  0
LINE
  5
DF88
  8
2-0
  6
CONTINUOUS
 62
     3
 10
23166.480728630679
 20
19644.653637421961
 30
0.0
 11
23166.480728630679
 21
19649.661819421952
 31
0.0
  0
LINE
  5
DF89
  8
2-0
  6
CONTINUOUS
 62
     3
 10
23173.478326630669
 20
19644.653637421961
 30
0.0
 11
23166.480728630679
 21
19644.653637421961
 31
0.0
  0
LINE
  5
DF8A
  8
2-0
  6
CONTINUOUS
 62
     3
 10
23273.772615630689
 20
19744.953864421968
 30
0.0
 11
23273.772615630689
 21
19751.959380421958
 31
0.0
  0
LINE
  5
DF8B
  8
2-0
  6
CONTINUOUS
 62
     3
 10
23273.772615630689
 20
19751.959380421958
 30
0.0
 11
23268.770371630679
 21
19751.959380421958
 31
0.0
  0
LINE
  5
DF8C
  8
2-0
  6
CONTINUOUS
 62
     3
 10
23268.770371630679
 20
19751.959380421958
 30
0.0
 11
23268.770371630679
 21
19726.950143421949
 31
0.0
  0
LINE
  5
DF8D
  8
2-0
  6
CONTINUOUS
 62
     3
 10
23268.770371630679
 20
19726.950143421949
 30
0.0
 11
23286.778052630671
 21
19726.950143421949
 31
0.0
  0
LINE
  5
DF8E
  8
2-0
  6
CONTINUOUS
 62
     3
 10
23286.778052630671
 20
19726.950143421949
 30
0.0
 11
23286.778052630671
 21
19756.953706421958
 31
0.0
  0
LINE
  5
DF8F
  8
2-0
  6
CONTINUOUS
 62
     3
 10
23276.478616630691
 20
19756.953706421958
 30
0.0
 11
23161.476505630679
 21
19756.953706421958
 31
0.0
  0
LINE
  5
DF90
  8
2-0
  6
CONTINUOUS
 62
     3
 10
23276.478616630691
 20
19726.950143421949
 30
0.0
 11
23276.478616630691
 21
19756.953706421958
 31
0.0
  0
LINE
  5
DF91
  8
2-0
  6
CONTINUOUS
 62
     3
 10
23270.474737630691
 20
19726.950143421949
 30
0.0
 11
23276.478616630691
 21
19726.950143421949
 31
0.0
  0
LINE
  5
DF92
  8
2-0
  6
CONTINUOUS
 62
     3
 10
23191.474130630679
 20
19647.95349542196
 30
0.0
 11
23191.474130630679
 21
19641.957533421959
 31
0.0
  0
LINE
  5
DF93
  8
2-0
  6
CONTINUOUS
 62
     3
 10
23191.474130630679
 20
19641.957533421959
 30
0.0
 11
23161.476505630679
 21
19641.957533421959
 31
0.0
  0
LINE
  5
DF94
  8
2-0
  6
CONTINUOUS
 62
     3
 10
23161.476505630679
 20
19641.957533421959
 30
0.0
 11
23161.476505630679
 21
19756.953706421958
 31
0.0
  0
LINE
  5
DF95
  8
2-0
  6
CONTINUOUS
 62
     3
 10
23161.476505630679
 20
19671.957137421949
 30
0.0
 11
23242.474446630691
 21
19671.957137421949
 31
0.0
  0
LINE
  5
DF96
  8
2-0
  6
CONTINUOUS
 62
     3
 10
23191.474130630679
 20
19631.660077421951
 30
0.0
 11
23161.476505630679
 21
19631.660077421951
 31
0.0
  0
LINE
  5
DF97
  8
2-0
  6
CONTINUOUS
 62
     3
 10
23191.474130630679
 20
19649.661819421952
 30
0.0
 11
23191.474130630679
 21
19631.660077421951
 31
0.0
  0
LINE
  5
DF98
  8
2-0
  6
CONTINUOUS
 62
     3
 10
23166.480728630679
 20
19649.661819421952
 30
0.0
 11
23191.474130630679
 21
19649.661819421952
 31
0.0
  0
LINE
  5
DF99
  8
2-0
  6
CONTINUOUS
 62
     3
 10
23166.480728630679
 20
19644.653637421961
 30
0.0
 11
23166.480728630679
 21
19649.661819421952
 31
0.0
  0
LINE
  5
DF9A
  8
2-0
  6
CONTINUOUS
 62
     3
 10
23173.478326630669
 20
19644.653637421961
 30
0.0
 11
23166.480728630679
 21
19644.653637421961
 31
0.0
  0
LINE
  5
DF9B
  8
2-0
  6
CONTINUOUS
 62
     3
 10
23173.478326630669
 20
18940.856814921939
 30
0.0
 11
23166.480728630679
 21
18940.856814921939
 31
0.0
  0
LINE
  5
DF9C
  8
2-0
  6
CONTINUOUS
 62
     3
 10
23166.480728630679
 20
18940.856814921939
 30
0.0
 11
23166.480728630679
 21
18945.857078921948
 31
0.0
  0
LINE
  5
DF9D
  8
2-0
  6
CONTINUOUS
 62
     3
 10
23166.480728630679
 20
18945.857078921948
 30
0.0
 11
23191.474130630679
 21
18945.857078921948
 31
0.0
  0
LINE
  5
DF9E
  8
2-0
  6
CONTINUOUS
 62
     3
 10
23191.474130630679
 20
18945.857078921948
 30
0.0
 11
23191.474130630679
 21
18927.861274921928
 31
0.0
  0
LINE
  5
DF9F
  8
2-0
  6
CONTINUOUS
 62
     3
 10
23191.474130630679
 20
18927.861274921928
 30
0.0
 11
23161.476505630679
 21
18927.861274921928
 31
0.0
  0
LINE
  5
DFA0
  8
2-0
  6
CONTINUOUS
 62
     3
 10
23191.474130630679
 20
18943.952781921911
 30
0.0
 11
23191.474130630679
 21
18937.954840921939
 31
0.0
  0
LINE
  5
DFA1
  8
2-0
  6
CONTINUOUS
 62
     3
 10
23191.474130630679
 20
18937.954840921939
 30
0.0
 11
23161.476505630679
 21
18937.954840921939
 31
0.0
  0
LINE
  5
DFA2
  8
2-0
  6
CONTINUOUS
 62
     3
 10
23161.476505630679
 20
18937.954840921939
 30
0.0
 11
23161.476505630679
 21
18974.956001921939
 31
0.0
  0
LINE
  5
DFA3
  8
2-0
  6
CONTINUOUS
 62
     3
 10
23191.474130630679
 20
18974.956001921939
 30
0.0
 11
23161.476505630679
 21
18974.956001921939
 31
0.0
  0
LINE
  5
DFA4
  8
2-0
  6
CONTINUOUS
 62
     3
 10
23191.474130630679
 20
18968.952121921939
 30
0.0
 11
23191.474130630679
 21
18974.956001921939
 31
0.0
  0
LINE
  5
DFA5
  8
2-0
  6
CONTINUOUS
 62
     3
 10
23191.474130630679
 20
18985.051546921932
 30
0.0
 11
23161.476505630679
 21
18985.051546921932
 31
0.0
  0
LINE
  5
DFA6
  8
2-0
  6
CONTINUOUS
 62
     3
 10
23191.474130630679
 20
18967.04980492195
 30
0.0
 11
23191.474130630679
 21
18985.051546921932
 31
0.0
  0
LINE
  5
DFA7
  8
2-0
  6
CONTINUOUS
 62
     3
 10
23166.480728630679
 20
18967.04980492195
 30
0.0
 11
23191.474130630679
 21
18967.04980492195
 31
0.0
  0
LINE
  5
DFA8
  8
2-0
  6
CONTINUOUS
 62
     3
 10
23166.480728630679
 20
18972.05006892193
 30
0.0
 11
23166.480728630679
 21
18967.04980492195
 31
0.0
  0
LINE
  5
DFA9
  8
2-0
  6
CONTINUOUS
 62
     3
 10
23173.478326630669
 20
18972.05006892193
 30
0.0
 11
23166.480728630679
 21
18972.05006892193
 31
0.0
  0
LINE
  5
DFAA
  8
2-0
  6
CONTINUOUS
 62
     3
 10
23173.478326630669
 20
18239.85582542195
 30
0.0
 11
23166.480728630679
 21
18239.85582542195
 31
0.0
  0
LINE
  5
DFAB
  8
2-0
  6
CONTINUOUS
 62
     3
 10
23166.480728630679
 20
18239.85582542195
 30
0.0
 11
23166.480728630679
 21
18244.86202742195
 31
0.0
  0
LINE
  5
DFAC
  8
2-0
  6
CONTINUOUS
 62
     3
 10
23166.480728630679
 20
18244.86202742195
 30
0.0
 11
23191.474130630679
 21
18244.86202742195
 31
0.0
  0
LINE
  5
DFAD
  8
2-0
  6
CONTINUOUS
 62
     3
 10
23191.474130630679
 20
18244.86202742195
 30
0.0
 11
23191.474130630679
 21
18226.860285421939
 31
0.0
  0
LINE
  5
DFAE
  8
2-0
  6
CONTINUOUS
 62
     3
 10
23191.474130630679
 20
18226.860285421939
 30
0.0
 11
23161.476505630679
 21
18226.860285421939
 31
0.0
  0
LINE
  5
DFAF
  8
2-0
  6
CONTINUOUS
 62
     3
 10
23191.474130630679
 20
18242.951792421929
 30
0.0
 11
23191.474130630679
 21
18236.955830421939
 31
0.0
  0
LINE
  5
DFB0
  8
2-0
  6
CONTINUOUS
 62
     3
 10
23191.474130630679
 20
18236.955830421939
 30
0.0
 11
23161.476505630679
 21
18236.955830421939
 31
0.0
  0
LINE
  5
DFB1
  8
2-0
  6
CONTINUOUS
 62
     3
 10
23161.476505630679
 20
18236.955830421939
 30
0.0
 11
23161.476505630679
 21
18273.955012421939
 31
0.0
  0
LINE
  5
DFB2
  8
2-0
  6
CONTINUOUS
 62
     3
 10
23191.474130630679
 20
18273.955012421939
 30
0.0
 11
23161.476505630679
 21
18273.955012421939
 31
0.0
  0
LINE
  5
DFB3
  8
2-0
  6
CONTINUOUS
 62
     3
 10
23191.474130630679
 20
18267.959050421949
 30
0.0
 11
23191.474130630679
 21
18273.955012421939
 31
0.0
  0
LINE
  5
DFB4
  8
2-0
  6
CONTINUOUS
 62
     3
 10
23191.474130630679
 20
18284.05055742195
 30
0.0
 11
23161.476505630679
 21
18284.05055742195
 31
0.0
  0
LINE
  5
DFB5
  8
2-0
  6
CONTINUOUS
 62
     3
 10
23191.474130630679
 20
18266.048815421938
 30
0.0
 11
23191.474130630679
 21
18284.05055742195
 31
0.0
  0
LINE
  5
DFB6
  8
2-0
  6
CONTINUOUS
 62
     3
 10
23166.480728630679
 20
18266.048815421938
 30
0.0
 11
23191.474130630679
 21
18266.048815421938
 31
0.0
  0
LINE
  5
DFB7
  8
2-0
  6
CONTINUOUS
 62
     3
 10
23166.480728630679
 20
18271.055017421939
 30
0.0
 11
23166.480728630679
 21
18266.048815421938
 31
0.0
  0
LINE
  5
DFB8
  8
2-0
  6
CONTINUOUS
 62
     3
 10
23173.478326630669
 20
18271.055017421939
 30
0.0
 11
23166.480728630679
 21
18271.055017421939
 31
0.0
  0
LINE
  5
DFB9
  8
2-0
  6
CONTINUOUS
 62
     3
 10
23173.478326630669
 20
17570.04907942194
 30
0.0
 11
23166.480728630679
 21
17570.04907942194
 31
0.0
  0
LINE
  5
DFBA
  8
2-0
  6
CONTINUOUS
 62
     3
 10
23166.480728630679
 20
17570.04907942194
 30
0.0
 11
23166.480728630679
 21
17565.06069242195
 31
0.0
  0
LINE
  5
DFBB
  8
2-0
  6
CONTINUOUS
 62
     3
 10
23166.480728630679
 20
17565.06069242195
 30
0.0
 11
23191.474130630679
 21
17565.06069242195
 31
0.0
  0
LINE
  5
DFBC
  8
2-0
  6
CONTINUOUS
 62
     3
 10
23191.474130630679
 20
17565.06069242195
 30
0.0
 11
23191.474130630679
 21
17583.056495421941
 31
0.0
  0
LINE
  5
DFBD
  8
2-0
  6
CONTINUOUS
 62
     3
 10
23191.474130630679
 20
17583.056495421941
 30
0.0
 11
23161.476505630679
 21
17583.056495421941
 31
0.0
  0
LINE
  5
DFBE
  8
2-0
  6
CONTINUOUS
 62
     3
 10
23191.474130630679
 20
17566.959050421949
 30
0.0
 11
23191.474130630679
 21
17572.955012421939
 31
0.0
  0
LINE
  5
DFBF
  8
2-0
  6
CONTINUOUS
 62
     3
 10
23191.474130630679
 20
17572.955012421939
 30
0.0
 11
23161.476505630679
 21
17572.955012421939
 31
0.0
  0
LINE
  5
DFC0
  8
2-0
  6
CONTINUOUS
 62
     3
 10
23161.476505630679
 20
17572.955012421939
 30
0.0
 11
23161.476505630679
 21
17535.955830421939
 31
0.0
  0
LINE
  5
DFC1
  8
2-0
  6
CONTINUOUS
 62
     3
 10
23191.474130630679
 20
17535.955830421939
 30
0.0
 11
23161.476505630679
 21
17535.955830421939
 31
0.0
  0
LINE
  5
DFC2
  8
2-0
  6
CONTINUOUS
 62
     3
 10
23191.474130630679
 20
17541.957731421939
 30
0.0
 11
23191.474130630679
 21
17535.955830421939
 31
0.0
  0
LINE
  5
DFC3
  8
2-0
  6
CONTINUOUS
 62
     3
 10
23191.474130630679
 20
17525.866224421949
 30
0.0
 11
23161.476505630679
 21
17525.866224421949
 31
0.0
  0
LINE
  5
DFC4
  8
2-0
  6
CONTINUOUS
 62
     3
 10
23191.474130630679
 20
17543.862027421928
 30
0.0
 11
23191.474130630679
 21
17525.866224421949
 31
0.0
  0
LINE
  5
DFC5
  8
2-0
  6
CONTINUOUS
 62
     3
 10
23166.480728630679
 20
17543.862027421928
 30
0.0
 11
23191.474130630679
 21
17543.862027421928
 31
0.0
  0
LINE
  5
DFC6
  8
2-0
  6
CONTINUOUS
 62
     3
 10
23166.480728630679
 20
17538.861764421948
 30
0.0
 11
23166.480728630679
 21
17543.862027421928
 31
0.0
  0
LINE
  5
DFC7
  8
2-0
  6
CONTINUOUS
 62
     3
 10
23173.478326630669
 20
17538.861764421948
 30
0.0
 11
23166.480728630679
 21
17538.861764421948
 31
0.0
  0
LINE
  5
DFC8
  8
2-0
  6
CONTINUOUS
 62
     3
 10
23164.362643630691
 20
16818.95265042195
 30
0.0
 11
23164.362643630691
 21
16838.953705421951
 31
0.0
  0
LINE
  5
DFC9
  8
2-0
  6
CONTINUOUS
 62
     3
 10
23164.362643630691
 20
16838.953705421951
 30
0.0
 11
23249.363171630692
 21
16838.953705421951
 31
0.0
  0
LINE
  5
DFCA
  8
2-0
  6
CONTINUOUS
 62
     3
 10
23173.478326630669
 20
16865.560415421951
 30
0.0
 11
23166.480728630679
 21
16865.560415421951
 31
0.0
  0
LINE
  5
DFCB
  8
2-0
  6
CONTINUOUS
 62
     3
 10
23166.480728630679
 20
16865.560415421951
 30
0.0
 11
23166.480728630679
 21
16860.566089421962
 31
0.0
  0
LINE
  5
DFCC
  8
2-0
  6
CONTINUOUS
 62
     3
 10
23166.480728630679
 20
16860.566089421962
 30
0.0
 11
23191.474130630679
 21
16860.566089421962
 31
0.0
  0
LINE
  5
DFCD
  8
2-0
  6
CONTINUOUS
 62
     3
 10
23191.474130630679
 20
16860.566089421962
 30
0.0
 11
23191.474130630679
 21
16878.561893421938
 31
0.0
  0
LINE
  5
DFCE
  8
2-0
  6
CONTINUOUS
 62
     3
 10
23191.474130630679
 20
16878.561893421938
 30
0.0
 11
23161.476505630679
 21
16878.561893421938
 31
0.0
  0
LINE
  5
DFCF
  8
2-0
  6
CONTINUOUS
 62
     3
 10
23191.474130630679
 20
16868.953309421941
 30
0.0
 11
23191.474130630679
 21
16862.951409421948
 31
0.0
  0
LINE
  5
DFD0
  8
2-0
  6
CONTINUOUS
 62
     3
 10
23161.476505630679
 20
16868.953309421941
 30
0.0
 11
23191.474130630679
 21
16868.953309421941
 31
0.0
  0
LINE
  5
DFD1
  8
2-0
  6
CONTINUOUS
 62
     3
 10
23161.476505630679
 20
16878.561893421938
 30
0.0
 11
23161.476505630679
 21
17525.866224421949
 31
0.0
  0
LINE
  5
DFD2
  8
2-0
  6
CONTINUOUS
 62
     3
 10
23161.476505630679
 20
17583.056495421941
 30
0.0
 11
23161.476505630679
 21
18226.860285421939
 31
0.0
  0
LINE
  5
DFD3
  8
2-0
  6
CONTINUOUS
 62
     3
 10
23161.476505630679
 20
16723.951594421938
 30
0.0
 11
23191.474130630679
 21
16723.951594421938
 31
0.0
  0
LINE
  5
DFD4
  8
2-0
  6
CONTINUOUS
 62
     3
 10
23191.474130630679
 20
16723.951594421938
 30
0.0
 11
23191.474130630679
 21
16729.953494421949
 31
0.0
  0
LINE
  5
DFD5
  8
2-0
  6
CONTINUOUS
 62
     3
 10
23249.363171630692
 20
16753.957137421949
 30
0.0
 11
23164.362643630691
 21
16753.957137421949
 31
0.0
  0
LINE
  5
DFD6
  8
2-0
  6
CONTINUOUS
 62
     3
 10
23164.362643630691
 20
16753.957137421949
 30
0.0
 11
23164.362643630691
 21
16773.952254421962
 31
0.0
  0
LINE
  5
DFD7
  8
2-0
  6
CONTINUOUS
 62
     3
 10
23191.474130630679
 20
16714.343011421959
 30
0.0
 11
23161.476505630679
 21
16714.343011421959
 31
0.0
  0
LINE
  5
DFD8
  8
2-0
  6
CONTINUOUS
 62
     3
 10
23191.474130630679
 20
16732.338814421939
 30
0.0
 11
23191.474130630679
 21
16714.343011421959
 31
0.0
  0
LINE
  5
DFD9
  8
2-0
  6
CONTINUOUS
 62
     3
 10
23166.480728630679
 20
16732.338814421939
 30
0.0
 11
23191.474130630679
 21
16732.338814421939
 31
0.0
  0
LINE
  5
DFDA
  8
2-0
  6
CONTINUOUS
 62
     3
 10
23166.480728630679
 20
16727.338550421959
 30
0.0
 11
23166.480728630679
 21
16732.338814421939
 31
0.0
  0
LINE
  5
DFDB
  8
2-0
  6
CONTINUOUS
 62
     3
 10
23173.478326630669
 20
16727.338550421959
 30
0.0
 11
23166.480728630679
 21
16727.338550421959
 31
0.0
  0
LINE
  5
DFDC
  8
2-0
  6
CONTINUOUS
 62
     3
 10
23173.478326630669
 20
16022.85631992193
 30
0.0
 11
23166.480728630679
 21
16022.85631992193
 31
0.0
  0
LINE
  5
DFDD
  8
2-0
  6
CONTINUOUS
 62
     3
 10
23166.480728630679
 20
16022.85631992193
 30
0.0
 11
23166.480728630679
 21
16027.856583921939
 31
0.0
  0
LINE
  5
DFDE
  8
2-0
  6
CONTINUOUS
 62
     3
 10
23166.480728630679
 20
16027.856583921939
 30
0.0
 11
23191.474130630679
 21
16027.856583921939
 31
0.0
  0
LINE
  5
DFDF
  8
2-0
  6
CONTINUOUS
 62
     3
 10
23191.474130630679
 20
16027.856583921939
 30
0.0
 11
23191.474130630679
 21
16009.854841921941
 31
0.0
  0
LINE
  5
DFE0
  8
2-0
  6
CONTINUOUS
 62
     3
 10
23191.474130630679
 20
16009.854841921941
 30
0.0
 11
23161.476505630679
 21
16009.854841921941
 31
0.0
  0
LINE
  5
DFE1
  8
2-0
  6
CONTINUOUS
 62
     3
 10
23191.474130630679
 20
16025.952286921951
 30
0.0
 11
23191.474130630679
 21
16019.95533592195
 31
0.0
  0
LINE
  5
DFE2
  8
2-0
  6
CONTINUOUS
 62
     3
 10
23191.474130630679
 20
16019.95533592195
 30
0.0
 11
23161.476505630679
 21
16019.95533592195
 31
0.0
  0
LINE
  5
DFE3
  8
2-0
  6
CONTINUOUS
 62
     3
 10
23161.476505630679
 20
16019.95533592195
 30
0.0
 11
23161.476505630679
 21
16056.95550692195
 31
0.0
  0
LINE
  5
DFE4
  8
2-0
  6
CONTINUOUS
 62
     3
 10
23191.474130630679
 20
16056.95550692195
 30
0.0
 11
23161.476505630679
 21
16056.95550692195
 31
0.0
  0
LINE
  5
DFE5
  8
2-0
  6
CONTINUOUS
 62
     3
 10
23191.474130630679
 20
16050.95261692195
 30
0.0
 11
23191.474130630679
 21
16056.95550692195
 31
0.0
  0
LINE
  5
DFE6
  8
2-0
  6
CONTINUOUS
 62
     3
 10
23191.474130630679
 20
16067.051051921941
 30
0.0
 11
23161.476505630679
 21
16067.051051921941
 31
0.0
  0
LINE
  5
DFE7
  8
2-0
  6
CONTINUOUS
 62
     3
 10
23191.474130630679
 20
16049.04337092194
 30
0.0
 11
23191.474130630679
 21
16067.051051921941
 31
0.0
  0
LINE
  5
DFE8
  8
2-0
  6
CONTINUOUS
 62
     3
 10
23166.480728630679
 20
16049.04337092194
 30
0.0
 11
23191.474130630679
 21
16049.04337092194
 31
0.0
  0
LINE
  5
DFE9
  8
2-0
  6
CONTINUOUS
 62
     3
 10
23166.480728630679
 20
16054.04957392195
 30
0.0
 11
23166.480728630679
 21
16049.04337092194
 31
0.0
  0
LINE
  5
DFEA
  8
2-0
  6
CONTINUOUS
 62
     3
 10
23173.478326630669
 20
16054.04957392195
 30
0.0
 11
23166.480728630679
 21
16054.04957392195
 31
0.0
  0
LINE
  5
DFEB
  8
2-0
  6
CONTINUOUS
 62
     3
 10
23173.478326630669
 20
15353.289590421949
 30
0.0
 11
23166.480728630679
 21
15353.289590421949
 31
0.0
  0
LINE
  5
DFEC
  8
2-0
  6
CONTINUOUS
 62
     3
 10
23166.480728630679
 20
15353.289590421949
 30
0.0
 11
23166.480728630679
 21
15348.29526542195
 31
0.0
  0
LINE
  5
DFED
  8
2-0
  6
CONTINUOUS
 62
     3
 10
23166.480728630679
 20
15348.29526542195
 30
0.0
 11
23191.474130630679
 21
15348.29526542195
 31
0.0
  0
LINE
  5
DFEE
  8
2-0
  6
CONTINUOUS
 62
     3
 10
23191.474130630679
 20
15348.29526542195
 30
0.0
 11
23191.474130630679
 21
15366.291068421961
 31
0.0
  0
LINE
  5
DFEF
  8
2-0
  6
CONTINUOUS
 62
     3
 10
23191.474130630679
 20
15366.291068421961
 30
0.0
 11
23161.476505630679
 21
15366.291068421961
 31
0.0
  0
LINE
  5
DFF0
  8
2-0
  6
CONTINUOUS
 62
     3
 10
23191.474130630679
 20
15350.193623421939
 30
0.0
 11
23191.474130630679
 21
15356.195523421949
 31
0.0
  0
LINE
  5
DFF1
  8
2-0
  6
CONTINUOUS
 62
     3
 10
23191.474130630679
 20
15356.195523421949
 30
0.0
 11
23161.476505630679
 21
15356.195523421949
 31
0.0
  0
LINE
  5
DFF2
  8
2-0
  6
CONTINUOUS
 62
     3
 10
23161.476505630679
 20
15319.196342421959
 30
0.0
 11
23161.476505630679
 21
15356.195523421949
 31
0.0
  0
LINE
  5
DFF3
  8
2-0
  6
CONTINUOUS
 62
     3
 10
23191.474130630679
 20
15319.196342421959
 30
0.0
 11
23161.476505630679
 21
15319.196342421959
 31
0.0
  0
LINE
  5
DFF4
  8
2-0
  6
CONTINUOUS
 62
     3
 10
23191.474130630679
 20
15325.193293421949
 30
0.0
 11
23191.474130630679
 21
15319.196342421959
 31
0.0
  0
LINE
  5
DFF5
  8
2-0
  6
CONTINUOUS
 62
     3
 10
23191.474130630679
 20
15309.09485842194
 30
0.0
 11
23161.476505630679
 21
15309.09485842194
 31
0.0
  0
LINE
  5
DFF6
  8
2-0
  6
CONTINUOUS
 62
     3
 10
23191.474130630679
 20
15327.10253942194
 30
0.0
 11
23191.474130630679
 21
15309.09485842194
 31
0.0
  0
LINE
  5
DFF7
  8
2-0
  6
CONTINUOUS
 62
     3
 10
23166.480728630679
 20
15327.10253942194
 30
0.0
 11
23191.474130630679
 21
15327.10253942194
 31
0.0
  0
LINE
  5
DFF8
  8
2-0
  6
CONTINUOUS
 62
     3
 10
23166.480728630679
 20
15322.10227542197
 30
0.0
 11
23166.480728630679
 21
15327.10253942194
 31
0.0
  0
LINE
  5
DFF9
  8
2-0
  6
CONTINUOUS
 62
     3
 10
23173.478326630669
 20
15322.10227542197
 30
0.0
 11
23166.480728630679
 21
15322.10227542197
 31
0.0
  0
LINE
  5
DFFA
  8
2-0
  6
CONTINUOUS
 62
     3
 10
23161.476505630679
 20
16714.343011421959
 30
0.0
 11
23161.476505630679
 21
16067.051051921941
 31
0.0
  0
LINE
  5
DFFB
  8
2-0
  6
CONTINUOUS
 62
     3
 10
23161.476505630679
 20
16868.953309421941
 30
0.0
 11
23161.476505630679
 21
16723.951594421938
 31
0.0
  0
LINE
  5
DFFC
  8
2-0
  6
CONTINUOUS
 62
     3
 10
23249.363171630692
 20
16838.953705421951
 30
0.0
 11
23249.363171630692
 21
16753.957137421949
 31
0.0
  0
LINE
  5
DFFD
  8
2-0
  6
CONTINUOUS
 62
     3
 10
23173.478326630669
 20
14620.86126842195
 30
0.0
 11
23166.480728630679
 21
14620.86126842195
 31
0.0
  0
LINE
  5
DFFE
  8
2-0
  6
CONTINUOUS
 62
     3
 10
23166.480728630679
 20
14620.86126842195
 30
0.0
 11
23166.480728630679
 21
14625.855594421961
 31
0.0
  0
LINE
  5
DFFF
  8
2-0
  6
CONTINUOUS
 62
     3
 10
23166.480728630679
 20
14625.855594421961
 30
0.0
 11
23191.474130630679
 21
14625.855594421961
 31
0.0
  0
LINE
  5
E000
  8
2-0
  6
CONTINUOUS
 62
     3
 10
23191.474130630679
 20
14625.855594421961
 30
0.0
 11
23191.474130630679
 21
14607.85979042195
 31
0.0
  0
LINE
  5
E001
  8
2-0
  6
CONTINUOUS
 62
     3
 10
23191.474130630679
 20
14607.85979042195
 30
0.0
 11
23161.476505630679
 21
14607.85979042195
 31
0.0
  0
LINE
  5
E002
  8
2-0
  6
CONTINUOUS
 62
     3
 10
23191.474130630679
 20
14623.958225421949
 30
0.0
 11
23191.474130630679
 21
14617.955335421961
 31
0.0
  0
LINE
  5
E003
  8
2-0
  6
CONTINUOUS
 62
     3
 10
23191.474130630679
 20
14617.955335421961
 30
0.0
 11
23161.476505630679
 21
14617.955335421961
 31
0.0
  0
LINE
  5
E004
  8
2-0
  6
CONTINUOUS
 62
     3
 10
23161.476505630679
 20
14617.955335421961
 30
0.0
 11
23161.476505630679
 21
14654.95550742193
 31
0.0
  0
LINE
  5
E005
  8
2-0
  6
CONTINUOUS
 62
     3
 10
23191.474130630679
 20
14654.95550742193
 30
0.0
 11
23161.476505630679
 21
14654.95550742193
 31
0.0
  0
LINE
  5
E006
  8
2-0
  6
CONTINUOUS
 62
     3
 10
23191.474130630679
 20
14648.95855542195
 30
0.0
 11
23191.474130630679
 21
14654.95550742193
 31
0.0
  0
LINE
  5
E007
  8
2-0
  6
CONTINUOUS
 62
     3
 10
23191.474130630679
 20
14665.05600042195
 30
0.0
 11
23161.476505630679
 21
14665.05600042195
 31
0.0
  0
LINE
  5
E008
  8
2-0
  6
CONTINUOUS
 62
     3
 10
23191.474130630679
 20
14647.049309421949
 30
0.0
 11
23191.474130630679
 21
14665.05600042195
 31
0.0
  0
LINE
  5
E009
  8
2-0
  6
CONTINUOUS
 62
     3
 10
23166.480728630679
 20
14647.049309421949
 30
0.0
 11
23191.474130630679
 21
14647.049309421949
 31
0.0
  0
LINE
  5
E00A
  8
2-0
  6
CONTINUOUS
 62
     3
 10
23166.480728630679
 20
14652.05452242195
 30
0.0
 11
23166.480728630679
 21
14647.049309421949
 31
0.0
  0
LINE
  5
E00B
  8
2-0
  6
CONTINUOUS
 62
     3
 10
23173.478326630669
 20
14652.05452242195
 30
0.0
 11
23166.480728630679
 21
14652.05452242195
 31
0.0
  0
LINE
  5
E00C
  8
2-0
  6
CONTINUOUS
 62
     3
 10
23191.474130630679
 20
13944.957348421951
 30
0.0
 11
23191.474130630679
 21
13950.96221742194
 31
0.0
  0
LINE
  5
E00D
  8
2-0
  6
CONTINUOUS
 62
     3
 10
23191.474130630679
 20
13950.96221742194
 30
0.0
 11
23161.476505630679
 21
13950.96221742194
 31
0.0
  0
LINE
  5
E00E
  8
2-0
  6
CONTINUOUS
 62
     3
 10
23161.476505630679
 20
13950.96221742194
 30
0.0
 11
23161.476505630679
 21
13835.958126421951
 31
0.0
  0
LINE
  5
E00F
  8
2-0
  6
CONTINUOUS
 62
     3
 10
23161.476505630679
 20
13835.958126421951
 30
0.0
 11
23246.475053630678
 21
13835.958126421951
 31
0.0
  0
LINE
  5
E010
  8
2-0
  6
CONTINUOUS
 62
     3
 10
23246.475053630678
 20
13835.958126421951
 30
0.0
 11
23246.475053630678
 21
13920.953705421951
 31
0.0
  0
LINE
  5
E011
  8
2-0
  6
CONTINUOUS
 62
     3
 10
23246.475053630678
 20
13920.953705421951
 30
0.0
 11
23214.478115630671
 21
13920.953705421951
 31
0.0
  0
LINE
  5
E012
  8
2-0
  6
CONTINUOUS
 62
     3
 10
23173.478326630669
 20
13947.991950421951
 30
0.0
 11
23166.480728630679
 21
13947.991950421951
 31
0.0
  0
LINE
  5
E013
  8
2-0
  6
CONTINUOUS
 62
     3
 10
23166.480728630679
 20
13947.991950421951
 30
0.0
 11
23166.480728630679
 21
13942.99465542193
 31
0.0
  0
LINE
  5
E014
  8
2-0
  6
CONTINUOUS
 62
     3
 10
23166.480728630679
 20
13942.99465542193
 30
0.0
 11
23191.474130630679
 21
13942.99465542193
 31
0.0
  0
LINE
  5
E015
  8
2-0
  6
CONTINUOUS
 62
     3
 10
23191.474130630679
 20
13942.99465542193
 30
0.0
 11
23191.474130630679
 21
13960.99342842194
 31
0.0
  0
LINE
  5
E016
  8
2-0
  6
CONTINUOUS
 62
     3
 10
23191.474130630679
 20
13960.99342842194
 30
0.0
 11
23161.476505630679
 21
13960.99342842194
 31
0.0
  0
LINE
  5
E017
  8
2-0
  6
CONTINUOUS
 62
     3
 10
23161.476505630679
 20
14665.05600042195
 30
0.0
 11
23161.476505630679
 21
15309.09485842194
 31
0.0
  0
LINE
  5
E018
  8
2-0
  6
CONTINUOUS
 62
     3
 10
23161.476505630679
 20
18284.05055742195
 30
0.0
 11
23161.476505630679
 21
18927.861274921928
 31
0.0
  0
LINE
  5
E019
  8
2-0
  6
CONTINUOUS
 62
     3
 10
23161.476505630679
 20
16009.854841921941
 30
0.0
 11
23161.476505630679
 21
15366.291068421961
 31
0.0
  0
LINE
  5
E01A
  8
2-0
  6
CONTINUOUS
 62
     3
 10
25813.97109463068
 20
19641.957533421959
 30
0.0
 11
25813.97109463068
 21
19756.953706421958
 31
0.0
  0
LINE
  5
E01B
  8
2-0
  6
CONTINUOUS
 62
     3
 10
23161.476505630679
 20
19671.957137421949
 30
0.0
 11
25732.96919463067
 21
19671.957137421949
 31
0.0
  0
LINE
  5
E01C
  8
2-0
  6
CONTINUOUS
 62
     3
 10
23161.476505630679
 20
13960.99342842194
 30
0.0
 11
23161.476505630679
 21
14607.85979042195
 31
0.0
  0
LINE
  5
E01D
  8
2-0
  6
CONTINUOUS
 62
     3
 10
25813.97109463068
 20
19631.660077421951
 30
0.0
 11
25813.97109463068
 21
18985.051546921939
 31
0.0
  0
LINE
  5
E01E
  8
2-0
  6
CONTINUOUS
 62
     3
 10
23161.476505630679
 20
19631.660077421951
 30
0.0
 11
23161.476505630679
 21
18985.051546921932
 31
0.0
  0
LINE
  5
E01F
  8
2-0
  6
CONTINUOUS
 62
     3
 10
23242.474446630691
 20
13920.953705421951
 30
0.0
 11
23242.474446630691
 21
19756.953706421958
 31
0.0
  0
LINE
  5
E020
  8
2-0
  6
CONTINUOUS
 62
     3
 10
25732.96919463067
 20
13920.953705421951
 30
0.0
 11
25732.96919463067
 21
19756.953706421958
 31
0.0
  0
TEXT
  5
E021
  8
2-0
  6
CONTINUOUS
 62
     7
 10
24168.318117630679
 20
13318.45654342194
 30
0.0
 40
160.0
  1
前柱（右）
 50
0.000213
 72
     4
 11
24584.3178202237
 21
13398.458089922729
 31
0.0
  0
TEXT
  5
E022
  8
2-0
  6
CONTINUOUS
 62
     7
 10
24372.913240630682
 20
16246.94855942196
 30
0.0
 40
160.0
  1
壁パネル
 50
359.99982299999999
 72
     4
 11
24735.580154434239
 21
16326.94743905983
 31
0.0
  0
TEXT
  5
E023
  8
2-0
  6
CONTINUOUS
 62
     7
 10
24092.910336630659
 20
17084.136455421969
 30
0.0
 40
160.0
  1
中柱（左右）
 50
0.000354
 72
     4
 11
24610.243175676878
 21
17164.13965174662
 31
0.0
  0
TEXT
  5
E024
  8
2-0
  6
CONTINUOUS
 62
     7
 10
24772.912580630669
 20
14291.49780942194
 30
0.0
 40
160.0
  1
下枠
 50
0.001063
 72
     4
 11
24943.577763039972
 21
14371.50097576123
 31
0.0
  0
TEXT
  5
E025
  8
2-0
  6
CONTINUOUS
 62
     7
 10
24267.878004630689
 20
18687.405193921939
 30
0.0
 40
160.0
  1
間柱（側）
 72
     4
 11
24689.211337964021
 21
18767.405193921939
 31
0.0
  0
TEXT
  5
E026
  8
2-0
  6
CONTINUOUS
 62
     7
 10
26586.46832363067
 20
20566.95291442196
 30
0.0
 40
160.0
  1
後柱（左右）
 50
0.000354
 72
     4
 11
27098.467829343648
 21
20646.956077794792
 31
0.0
  0
LINE
  5
E027
  8
2-0
  6
CONTINUOUS
 62
     3
 10
25031.973391630661
 20
19756.953706421958
 30
0.0
 11
24994.972229630679
 21
19756.953706421958
 31
0.0
  0
LINE
  5
E028
  8
2-0
  6
CONTINUOUS
 62
     3
 10
25031.973391630661
 20
19726.950143421949
 30
0.0
 11
25031.973391630661
 21
19756.953706421958
 31
0.0
  0
LINE
  5
E029
  8
2-0
  6
CONTINUOUS
 62
     3
 10
25025.973470630659
 20
19726.950143421949
 30
0.0
 11
25031.973391630661
 21
19726.950143421949
 31
0.0
  0
LINE
  5
E02A
  8
2-0
  6
CONTINUOUS
 62
     3
 10
25042.07091563068
 20
19726.950143421949
 30
0.0
 11
25042.07091563068
 21
19756.953706421958
 31
0.0
  0
LINE
  5
E02B
  8
2-0
  6
CONTINUOUS
 62
     3
 10
25024.06719463069
 20
19726.950143421949
 30
0.0
 11
25042.07091563068
 21
19726.950143421949
 31
0.0
  0
LINE
  5
E02C
  8
2-0
  6
CONTINUOUS
 62
     3
 10
25024.06719463069
 20
19751.959380421958
 30
0.0
 11
25024.06719463069
 21
19726.950143421949
 31
0.0
  0
LINE
  5
E02D
  8
2-0
  6
CONTINUOUS
 62
     3
 10
25029.067458630689
 20
19751.959380421958
 30
0.0
 11
25024.06719463069
 21
19751.959380421958
 31
0.0
  0
LINE
  5
E02E
  8
2-0
  6
CONTINUOUS
 62
     3
 10
25029.067458630689
 20
19744.953864421968
 30
0.0
 11
25029.067458630689
 21
19751.959380421958
 31
0.0
  0
LINE
  5
E02F
  8
2-0
  6
CONTINUOUS
 62
     3
 10
24997.87816363067
 20
19744.953864421968
 30
0.0
 11
24997.87816363067
 21
19751.959380421958
 31
0.0
  0
LINE
  5
E030
  8
2-0
  6
CONTINUOUS
 62
     3
 10
24997.87816363067
 20
19751.959380421958
 30
0.0
 11
25002.878427630691
 21
19751.959380421958
 31
0.0
  0
LINE
  5
E031
  8
2-0
  6
CONTINUOUS
 62
     3
 10
25002.878427630691
 20
19751.959380421958
 30
0.0
 11
25002.878427630691
 21
19726.950143421949
 31
0.0
  0
LINE
  5
E032
  8
2-0
  6
CONTINUOUS
 62
     3
 10
25002.878427630691
 20
19726.950143421949
 30
0.0
 11
24984.87866463068
 21
19726.950143421949
 31
0.0
  0
LINE
  5
E033
  8
2-0
  6
CONTINUOUS
 62
     3
 10
24984.87866463068
 20
19726.950143421949
 30
0.0
 11
24984.87866463068
 21
19756.953706421958
 31
0.0
  0
LINE
  5
E034
  8
2-0
  6
CONTINUOUS
 62
     3
 10
25000.972150630671
 20
19726.950143421949
 30
0.0
 11
24994.972229630679
 21
19726.950143421949
 31
0.0
  0
LINE
  5
E035
  8
2-0
  6
CONTINUOUS
 62
     3
 10
24994.972229630679
 20
19726.950143421949
 30
0.0
 11
24994.972229630679
 21
19756.953706421958
 31
0.0
  0
LINE
  5
E036
  8
2-0
  6
CONTINUOUS
 62
     3
 10
24296.872225130679
 20
19744.953864421968
 30
0.0
 11
24296.872225130679
 21
19751.959380421958
 31
0.0
  0
LINE
  5
E037
  8
2-0
  6
CONTINUOUS
 62
     3
 10
24296.872225130679
 20
19751.959380421958
 30
0.0
 11
24301.872488130692
 21
19751.959380421958
 31
0.0
  0
LINE
  5
E038
  8
2-0
  6
CONTINUOUS
 62
     3
 10
24301.872488130692
 20
19751.959380421958
 30
0.0
 11
24301.872488130692
 21
19726.950143421949
 31
0.0
  0
LINE
  5
E039
  8
2-0
  6
CONTINUOUS
 62
     3
 10
24301.872488130692
 20
19726.950143421949
 30
0.0
 11
24283.87866513068
 21
19726.950143421949
 31
0.0
  0
LINE
  5
E03A
  8
2-0
  6
CONTINUOUS
 62
     3
 10
24283.87866513068
 20
19726.950143421949
 30
0.0
 11
24283.87866513068
 21
19756.953706421958
 31
0.0
  0
LINE
  5
E03B
  8
2-0
  6
CONTINUOUS
 62
     3
 10
24299.970171130659
 20
19726.950143421949
 30
0.0
 11
24293.972230130679
 21
19726.950143421949
 31
0.0
  0
LINE
  5
E03C
  8
2-0
  6
CONTINUOUS
 62
     3
 10
24293.972230130679
 20
19726.950143421949
 30
0.0
 11
24293.972230130679
 21
19756.953706421958
 31
0.0
  0
LINE
  5
E03D
  8
2-0
  6
CONTINUOUS
 62
     3
 10
24330.97339113069
 20
19756.953706421958
 30
0.0
 11
24293.972230130679
 21
19756.953706421958
 31
0.0
  0
LINE
  5
E03E
  8
2-0
  6
CONTINUOUS
 62
     3
 10
24330.97339113069
 20
19726.950143421949
 30
0.0
 11
24330.97339113069
 21
19756.953706421958
 31
0.0
  0
LINE
  5
E03F
  8
2-0
  6
CONTINUOUS
 62
     3
 10
24324.96753213069
 20
19726.950143421949
 30
0.0
 11
24330.97339113069
 21
19726.950143421949
 31
0.0
  0
LINE
  5
E040
  8
2-0
  6
CONTINUOUS
 62
     3
 10
24341.06695613069
 20
19726.950143421949
 30
0.0
 11
24341.06695613069
 21
19756.953706421958
 31
0.0
  0
LINE
  5
E041
  8
2-0
  6
CONTINUOUS
 62
     3
 10
24323.07115313067
 20
19726.950143421949
 30
0.0
 11
24341.06695613069
 21
19726.950143421949
 31
0.0
  0
LINE
  5
E042
  8
2-0
  6
CONTINUOUS
 62
     3
 10
24323.07115313067
 20
19751.959380421958
 30
0.0
 11
24323.07115313067
 21
19726.950143421949
 31
0.0
  0
LINE
  5
E043
  8
2-0
  6
CONTINUOUS
 62
     3
 10
24328.06151913069
 20
19751.959380421958
 30
0.0
 11
24323.07115313067
 21
19751.959380421958
 31
0.0
  0
LINE
  5
E044
  8
2-0
  6
CONTINUOUS
 62
     3
 10
24328.06151913069
 20
19744.953864421968
 30
0.0
 11
24328.06151913069
 21
19751.959380421958
 31
0.0
  0
LINE
  5
E045
  8
2-0
  6
CONTINUOUS
 62
     3
 10
23640.065966630689
 20
19756.953706421958
 30
0.0
 11
24283.87866513068
 21
19756.953706421958
 31
0.0
  0
LINE
  5
E046
  8
2-0
  6
CONTINUOUS
 62
     3
 10
25689.35644063069
 20
19756.953706421958
 30
0.0
 11
25042.07091563068
 21
19756.953706421958
 31
0.0
  0
LINE
  5
E047
  8
2-0
  6
CONTINUOUS
 62
     3
 10
24984.87866463068
 20
19756.953706421958
 30
0.0
 11
24341.06695613069
 21
19756.953706421958
 31
0.0
  0
LINE
  5
E048
  8
2-0
  6
CONTINUOUS
 62
     3
 10
23627.064488630691
 20
19744.953864421968
 30
0.0
 11
23627.064488630691
 21
19751.959380421958
 31
0.0
  0
LINE
  5
E049
  8
2-0
  6
CONTINUOUS
 62
     3
 10
23627.064488630691
 20
19751.959380421958
 30
0.0
 11
23622.064224630671
 21
19751.959380421958
 31
0.0
  0
LINE
  5
E04A
  8
2-0
  6
CONTINUOUS
 62
     3
 10
23622.064224630671
 20
19751.959380421958
 30
0.0
 11
23622.064224630671
 21
19726.950143421949
 31
0.0
  0
LINE
  5
E04B
  8
2-0
  6
CONTINUOUS
 62
     3
 10
23622.064224630671
 20
19726.950143421949
 30
0.0
 11
23640.065966630689
 21
19726.950143421949
 31
0.0
  0
LINE
  5
E04C
  8
2-0
  6
CONTINUOUS
 62
     3
 10
23640.065966630689
 20
19726.950143421949
 30
0.0
 11
23640.065966630689
 21
19756.953706421958
 31
0.0
  0
LINE
  5
E04D
  8
2-0
  6
CONTINUOUS
 62
     3
 10
23623.9665416307
 20
19726.950143421949
 30
0.0
 11
23629.970421630689
 21
19726.950143421949
 31
0.0
  0
LINE
  5
E04E
  8
2-0
  6
CONTINUOUS
 62
     3
 10
23629.970421630689
 20
19726.950143421949
 30
0.0
 11
23629.970421630689
 21
19756.953706421958
 31
0.0
  0
LINE
  5
E04F
  8
2-0
  6
CONTINUOUS
 62
     3
 10
23592.97519963068
 20
19756.953706421958
 30
0.0
 11
23629.970421630689
 21
19756.953706421958
 31
0.0
  0
LINE
  5
E050
  8
2-0
  6
CONTINUOUS
 62
     3
 10
23592.97519963068
 20
19726.950143421949
 30
0.0
 11
23592.97519963068
 21
19756.953706421958
 31
0.0
  0
LINE
  5
E051
  8
2-0
  6
CONTINUOUS
 62
     3
 10
23598.969181630691
 20
19726.950143421949
 30
0.0
 11
23592.97519963068
 21
19726.950143421949
 31
0.0
  0
LINE
  5
E052
  8
2-0
  6
CONTINUOUS
 62
     3
 10
23582.879654630691
 20
19726.950143421949
 30
0.0
 11
23582.879654630691
 21
19756.953706421958
 31
0.0
  0
LINE
  5
E053
  8
2-0
  6
CONTINUOUS
 62
     3
 10
23600.875457630689
 20
19726.950143421949
 30
0.0
 11
23582.879654630691
 21
19726.950143421949
 31
0.0
  0
LINE
  5
E054
  8
2-0
  6
CONTINUOUS
 62
     3
 10
23600.875457630689
 20
19751.959380421958
 30
0.0
 11
23600.875457630689
 21
19726.950143421949
 31
0.0
  0
LINE
  5
E055
  8
2-0
  6
CONTINUOUS
 62
     3
 10
23595.877173630692
 20
19751.959380421958
 30
0.0
 11
23600.875457630689
 21
19751.959380421958
 31
0.0
  0
LINE
  5
E056
  8
2-0
  6
CONTINUOUS
 62
     3
 10
23595.877173630692
 20
19744.953864421968
 30
0.0
 11
23595.877173630692
 21
19751.959380421958
 31
0.0
  0
LINE
  5
E057
  8
2-0
  6
CONTINUOUS
 62
     3
 10
23286.778052630671
 20
19756.953706421958
 30
0.0
 11
23582.879654630691
 21
19756.953706421958
 31
0.0
  0
LINE
  5
E058
  8
2-0
  6
CONTINUOUS
 62
     3
 10
25813.97109463068
 20
15309.09485842194
 30
0.0
 11
25813.97109463068
 21
14665.05600042195
 31
0.0
  0
LINE
  5
E059
  8
2-0
  6
CONTINUOUS
 62
     3
 10
25813.97109463068
 20
14607.85979042195
 30
0.0
 11
25813.97109463068
 21
13960.99342842194
 31
0.0
  0
LINE
  5
E05A
  8
0-6
  6
CONTINUOUS
 62
     6
 10
24044.60830213068
 20
19045.635478421951
 30
0.0
 11
25069.648552130689
 21
19045.635478421951
 31
0.0
  0
LINE
  5
E05B
  8
0-6
  6
CONTINUOUS
 62
     6
 10
23744.68352413068
 20
19602.988730421959
 30
0.0
 11
23640.06794613069
 21
19726.950143421949
 31
0.0
  0
LINE
  5
E05C
  8
0-6
  6
CONTINUOUS
 62
     6
 10
23640.06794613069
 20
19726.950143421949
 30
0.0
 11
23698.82599613069
 21
19575.758473421971
 31
0.0
  0
LINE
  5
E05D
  8
0-6
  6
CONTINUOUS
 62
     6
 10
23640.06794613069
 20
19726.950143421949
 30
0.0
 11
23744.68352413068
 21
19602.988730421959
 31
0.0
  0
LINE
  5
E05E
  8
0-6
  6
CONTINUOUS
 62
     6
 10
23744.68352413068
 20
19602.988730421959
 30
0.0
 11
23698.82599613069
 21
19575.758473421971
 31
0.0
  0
LINE
  5
E05F
  8
0-6
  6
CONTINUOUS
 62
     6
 10
23698.82599613069
 20
19575.758473421971
 30
0.0
 11
23640.06794613069
 21
19726.950143421949
 31
0.0
  0
LINE
  5
E060
  8
0-6
  6
CONTINUOUS
 62
     6
 10
23698.82599613069
 20
19575.758473421971
 30
0.0
 11
23744.68352413068
 21
19602.988730421959
 31
0.0
  0
LINE
  5
E061
  8
0-6
  6
CONTINUOUS
 62
     6
 10
23721.754760130691
 20
19589.375581421958
 30
0.0
 11
24044.60830213068
 21
19045.635478421951
 31
0.0
  0
TEXT
  5
E062
  8
0-6
  6
CONTINUOUS
 62
     7
 10
24124.60856613069
 20
19125.637722421969
 30
0.0
 40
160.0
  1
間柱（後）
 72
     4
 11
24545.941899464018
 21
19205.637722421969
 31
0.0
  0
LINE
  5
E063
  8
SUNPOU
  6
CONTINUOUS
 62
     4
 10
23203.97281063069
 20
13172.691987421949
 30
0.0
 11
23203.97281063069
 21
12827.00733742195
 31
0.0
  0
LINE
  5
E064
  8
SUNPOU
  6
CONTINUOUS
 62
     4
 10
23161.470567630691
 20
13755.958126421951
 30
0.0
 11
23161.470567630691
 21
12827.00733742195
 31
0.0
  0
LINE
  5
E065
  8
SUNPOU
  6
CONTINUOUS
 62
     4
 10
23203.97281063069
 20
12907.00733742195
 30
0.0
 11
23443.97281063069
 21
12907.00733742195
 31
0.0
  0
LINE
  5
E066
  8
SUNPOU
  6
CONTINUOUS
 62
     4
 10
23161.470567630691
 20
12907.00733742195
 30
0.0
 11
22921.470567630691
 21
12907.00733742195
 31
0.0
  0
LINE
  5
E067
  8
SUNPOU
  6
CONTINUOUS
 62
     4
 10
23203.97281063069
 20
12907.00733742195
 30
0.0
 11
23161.470567630691
 21
12907.00733742195
 31
0.0
  0
LINE
  5
E068
  8
SUNPOU
  6
CONTINUOUS
 62
     4
 10
25771.47281063069
 20
13172.691987421949
 30
0.0
 11
25771.47281063069
 21
12827.00733742195
 31
0.0
  0
LINE
  5
E069
  8
SUNPOU
  6
CONTINUOUS
 62
     4
 10
25813.975053630678
 20
13755.958126421951
 30
0.0
 11
25813.975053630678
 21
12827.00733742195
 31
0.0
  0
LINE
  5
E06A
  8
SUNPOU
  6
CONTINUOUS
 62
     4
 10
25771.47281063069
 20
12907.00733742195
 30
0.0
 11
25531.47281063069
 21
12907.00733742195
 31
0.0
  0
LINE
  5
E06B
  8
SUNPOU
  6
CONTINUOUS
 62
     4
 10
25813.975053630678
 20
12907.00733742195
 30
0.0
 11
26053.975053630678
 21
12907.00733742195
 31
0.0
  0
LINE
  5
E06C
  8
SUNPOU
  6
CONTINUOUS
 62
     4
 10
25771.47281063069
 20
12907.00733742195
 30
0.0
 11
25813.975053630678
 21
12907.00733742195
 31
0.0
  0
LINE
  5
E06D
  8
SUNPOU
  6
CONTINUOUS
 62
     4
 10
25771.47281063069
 20
13172.691987421949
 30
0.0
 11
25771.47281063069
 21
12827.00733742195
 31
0.0
  0
LINE
  5
E06E
  8
SUNPOU
  6
CONTINUOUS
 62
     4
 10
25728.970567630691
 20
13755.958126421951
 30
0.0
 11
25728.970567630691
 21
12827.00733742195
 31
0.0
  0
LINE
  5
E06F
  8
SUNPOU
  6
CONTINUOUS
 62
     4
 10
25771.47281063069
 20
12907.00733742195
 30
0.0
 11
26011.47281063069
 21
12907.00733742195
 31
0.0
  0
LINE
  5
E070
  8
SUNPOU
  6
CONTINUOUS
 62
     4
 10
25728.970567630691
 20
12907.00733742195
 30
0.0
 11
25488.970567630691
 21
12907.00733742195
 31
0.0
  0
LINE
  5
E071
  8
SUNPOU
  6
CONTINUOUS
 62
     4
 10
25771.47281063069
 20
12907.00733742195
 30
0.0
 11
25728.970567630691
 21
12907.00733742195
 31
0.0
  0
LINE
  5
E072
  8
SUNPOU
  6
CONTINUOUS
 62
     4
 10
23203.97281063069
 20
13172.691987421949
 30
0.0
 11
23203.97281063069
 21
12827.00733742195
 31
0.0
  0
LINE
  5
E073
  8
SUNPOU
  6
CONTINUOUS
 62
     4
 10
23246.475053630678
 20
13755.958126421951
 30
0.0
 11
23246.475053630678
 21
12827.00733742195
 31
0.0
  0
LINE
  5
E074
  8
SUNPOU
  6
CONTINUOUS
 62
     4
 10
23203.97281063069
 20
12907.00733742195
 30
0.0
 11
22963.97281063069
 21
12907.00733742195
 31
0.0
  0
LINE
  5
E075
  8
SUNPOU
  6
CONTINUOUS
 62
     4
 10
23246.475053630678
 20
12907.00733742195
 30
0.0
 11
23486.475053630671
 21
12907.00733742195
 31
0.0
  0
LINE
  5
E076
  8
SUNPOU
  6
CONTINUOUS
 62
     4
 10
23203.97281063069
 20
12907.00733742195
 30
0.0
 11
23246.475053630678
 21
12907.00733742195
 31
0.0
  0
LINE
  5
E077
  8
SUNPOU
  6
CONTINUOUS
 62
     4
 10
23161.470567630691
 20
13755.958126421951
 30
0.0
 11
23161.470567630691
 21
12427.00733742195
 31
0.0
  0
LINE
  5
E078
  8
SUNPOU
  6
CONTINUOUS
 62
     4
 10
25813.975053630678
 20
13755.958126421951
 30
0.0
 11
25813.975053630678
 21
12427.00733742195
 31
0.0
  0
LINE
  5
E079
  8
SUNPOU
  6
CONTINUOUS
 62
     4
 10
23161.470567630691
 20
12507.00733742195
 30
0.0
 11
25813.975053630678
 21
12507.00733742195
 31
0.0
  0
LINE
  5
E07A
  8
SUNPOU
  6
CONTINUOUS
 62
     4
 10
25893.97109463068
 20
14636.45542142195
 30
0.0
 11
26943.972414630691
 21
14636.45542142195
 31
0.0
  0
LINE
  5
E07B
  8
SUNPOU
  6
CONTINUOUS
 62
     4
 10
26743.972414630691
 20
13878.45542142195
 30
0.0
 11
26943.972414630691
 21
13878.45542142195
 31
0.0
  0
LINE
  5
E07C
  8
SUNPOU
  6
CONTINUOUS
 62
     4
 10
26863.972414630691
 20
14636.45542142195
 30
0.0
 11
26863.972414630691
 21
13878.45542142195
 31
0.0
  0
LINE
  5
E07D
  8
SUNPOU
  6
CONTINUOUS
 62
     4
 10
25893.97109463068
 20
15337.695932921961
 30
0.0
 11
26943.972414630691
 21
15337.695932921961
 31
0.0
  0
LINE
  5
E07E
  8
SUNPOU
  6
CONTINUOUS
 62
     4
 10
25893.97109463068
 20
14636.45542142195
 30
0.0
 11
26943.972414630691
 21
14636.45542142195
 31
0.0
  0
LINE
  5
E07F
  8
SUNPOU
  6
CONTINUOUS
 62
     4
 10
26863.972414630691
 20
15337.695932921961
 30
0.0
 11
26863.972414630691
 21
14636.45542142195
 31
0.0
  0
LINE
  5
E080
  8
SUNPOU
  6
CONTINUOUS
 62
     4
 10
25893.97109463068
 20
16038.45542142195
 30
0.0
 11
26943.972414630691
 21
16038.45542142195
 31
0.0
  0
LINE
  5
E081
  8
SUNPOU
  6
CONTINUOUS
 62
     4
 10
25893.97109463068
 20
15337.695932921961
 30
0.0
 11
26943.972414630691
 21
15337.695932921961
 31
0.0
  0
LINE
  5
E082
  8
SUNPOU
  6
CONTINUOUS
 62
     4
 10
26863.972414630691
 20
16038.45542142195
 30
0.0
 11
26863.972414630691
 21
15337.695932921961
 31
0.0
  0
LINE
  5
E083
  8
SUNPOU
  6
CONTINUOUS
 62
     4
 10
26743.972414630691
 20
16796.455421421939
 30
0.0
 11
26943.972414630691
 21
16796.455421421939
 31
0.0
  0
LINE
  5
E084
  8
SUNPOU
  6
CONTINUOUS
 62
     4
 10
25893.97109463068
 20
16038.45542142195
 30
0.0
 11
26943.972414630691
 21
16038.45542142195
 31
0.0
  0
LINE
  5
E085
  8
SUNPOU
  6
CONTINUOUS
 62
     4
 10
26863.972414630691
 20
16796.455421421939
 30
0.0
 11
26863.972414630691
 21
16038.45542142195
 31
0.0
  0
LINE
  5
E086
  8
SUNPOU
  6
CONTINUOUS
 62
     4
 10
25893.97109463068
 20
17554.455421421939
 30
0.0
 11
26943.972414630691
 21
17554.455421421939
 31
0.0
  0
LINE
  5
E087
  8
SUNPOU
  6
CONTINUOUS
 62
     4
 10
26743.972414630691
 20
16796.455421421939
 30
0.0
 11
26943.972414630691
 21
16796.455421421939
 31
0.0
  0
LINE
  5
E088
  8
SUNPOU
  6
CONTINUOUS
 62
     4
 10
26863.972414630691
 20
17554.455421421939
 30
0.0
 11
26863.972414630691
 21
16796.455421421939
 31
0.0
  0
LINE
  5
E089
  8
SUNPOU
  6
CONTINUOUS
 62
     4
 10
25893.97109463068
 20
18255.455421421939
 30
0.0
 11
26943.972414630691
 21
18255.455421421939
 31
0.0
  0
LINE
  5
E08A
  8
SUNPOU
  6
CONTINUOUS
 62
     4
 10
25893.97109463068
 20
17554.455421421939
 30
0.0
 11
26943.972414630691
 21
17554.455421421939
 31
0.0
  0
LINE
  5
E08B
  8
SUNPOU
  6
CONTINUOUS
 62
     4
 10
26863.972414630691
 20
18255.455421421939
 30
0.0
 11
26863.972414630691
 21
17554.455421421939
 31
0.0
  0
LINE
  5
E08C
  8
SUNPOU
  6
CONTINUOUS
 62
     4
 10
25893.97109463068
 20
18956.45542142195
 30
0.0
 11
26943.972414630691
 21
18956.455421421939
 31
0.0
  0
LINE
  5
E08D
  8
SUNPOU
  6
CONTINUOUS
 62
     4
 10
25893.97109463068
 20
18255.455421421939
 30
0.0
 11
26943.972414630691
 21
18255.455421421939
 31
0.0
  0
LINE
  5
E08E
  8
SUNPOU
  6
CONTINUOUS
 62
     4
 10
26863.972414630691
 20
18956.455421421939
 30
0.0
 11
26863.972414630691
 21
18255.455421421939
 31
0.0
  0
LINE
  5
E08F
  8
SUNPOU
  6
CONTINUOUS
 62
     4
 10
26743.972414630691
 20
19714.455421421939
 30
0.0
 11
26943.972414630691
 21
19714.455421421939
 31
0.0
  0
LINE
  5
E090
  8
SUNPOU
  6
CONTINUOUS
 62
     4
 10
25893.97109463068
 20
18956.45542142195
 30
0.0
 11
26943.972414630691
 21
18956.455421421939
 31
0.0
  0
LINE
  5
E091
  8
SUNPOU
  6
CONTINUOUS
 62
     4
 10
26863.972414630691
 20
19714.455421421939
 30
0.0
 11
26863.972414630691
 21
18956.455421421939
 31
0.0
  0
LINE
  5
E092
  8
SUNPOU
  6
CONTINUOUS
 62
     4
 10
26743.972414630691
 20
19714.455421421939
 30
0.0
 11
26943.972414630691
 21
19714.455421421939
 31
0.0
  0
LINE
  5
E093
  8
SUNPOU
  6
CONTINUOUS
 62
     4
 10
26743.972414630691
 20
13878.45542142195
 30
0.0
 11
26943.972414630691
 21
13878.45542142195
 31
0.0
  0
LINE
  5
E094
  8
SUNPOU
  6
CONTINUOUS
 62
     4
 10
25893.97109463068
 20
19756.952716421951
 30
0.0
 11
27343.972414630691
 21
19756.952716421929
 31
0.0
  0
LINE
  5
E095
  8
SUNPOU
  6
CONTINUOUS
 62
     4
 10
25893.97109463068
 20
13835.958126421951
 30
0.0
 11
27343.972414630691
 21
13835.958126421951
 31
0.0
  0
LINE
  5
E096
  8
SUNPOU
  6
CONTINUOUS
 62
     4
 10
27263.972414630691
 20
19756.952716421929
 30
0.0
 11
27263.972414630691
 21
13835.958126421951
 31
0.0
  0
LINE
  5
E097
  8
SUNPOU
  6
CONTINUOUS
 62
     4
 10
26743.972414630691
 20
19714.455421421939
 30
0.0
 11
26943.972414630691
 21
19714.455421421939
 31
0.0
  0
LINE
  5
E098
  8
SUNPOU
  6
CONTINUOUS
 62
     4
 10
25893.97109463068
 20
19756.952716421951
 30
0.0
 11
26943.972414630691
 21
19756.952716421929
 31
0.0
  0
LINE
  5
E099
  8
SUNPOU
  6
CONTINUOUS
 62
     4
 10
26863.972414630691
 20
19714.455421421939
 30
0.0
 11
26863.972414630691
 21
19474.455421421939
 31
0.0
  0
LINE
  5
E09A
  8
SUNPOU
  6
CONTINUOUS
 62
     4
 10
26863.972414630691
 20
19756.952716421929
 30
0.0
 11
26863.972414630691
 21
19996.952716421929
 31
0.0
  0
LINE
  5
E09B
  8
SUNPOU
  6
CONTINUOUS
 62
     4
 10
26863.972414630691
 20
19714.455421421939
 30
0.0
 11
26863.972414630691
 21
19756.952716421929
 31
0.0
  0
LINE
  5
E09C
  8
SUNPOU
  6
CONTINUOUS
 62
     4
 10
26743.972414630691
 20
13878.45542142195
 30
0.0
 11
26943.972414630691
 21
13878.45542142195
 31
0.0
  0
LINE
  5
E09D
  8
SUNPOU
  6
CONTINUOUS
 62
     4
 10
25893.97109463068
 20
13835.958126421951
 30
0.0
 11
26943.972414630691
 21
13835.958126421951
 31
0.0
  0
LINE
  5
E09E
  8
SUNPOU
  6
CONTINUOUS
 62
     4
 10
26863.972414630691
 20
13878.45542142195
 30
0.0
 11
26863.972414630691
 21
14118.45542142195
 31
0.0
  0
LINE
  5
E09F
  8
SUNPOU
  6
CONTINUOUS
 62
     4
 10
26863.972414630691
 20
13835.958126421951
 30
0.0
 11
26863.972414630691
 21
13595.958126421951
 31
0.0
  0
LINE
  5
E0A0
  8
SUNPOU
  6
CONTINUOUS
 62
     4
 10
26863.972414630691
 20
13878.45542142195
 30
0.0
 11
26863.972414630691
 21
13835.958126421951
 31
0.0
  0
LINE
  5
E0A1
  8
SUNPOU
  6
CONTINUOUS
 62
     4
 10
23203.97281063069
 20
19836.953706421969
 30
0.0
 11
23203.97281063069
 21
20636.95634542195
 31
0.0
  0
LINE
  5
E0A2
  8
SUNPOU
  6
CONTINUOUS
 62
     4
 10
23611.47281063069
 20
19836.953706421969
 30
0.0
 11
23611.47281063069
 21
20636.95634542195
 31
0.0
  0
LINE
  5
E0A3
  8
SUNPOU
  6
CONTINUOUS
 62
     4
 10
23203.97281063069
 20
20556.95634542195
 30
0.0
 11
22963.97281063069
 21
20556.95634542195
 31
0.0
  0
LINE
  5
E0A4
  8
SUNPOU
  6
CONTINUOUS
 62
     4
 10
23611.47281063069
 20
20556.95634542195
 30
0.0
 11
23851.47281063069
 21
20556.95634542195
 31
0.0
  0
LINE
  5
E0A5
  8
SUNPOU
  6
CONTINUOUS
 62
     4
 10
23203.97281063069
 20
20556.95634542195
 30
0.0
 11
23611.47281063069
 21
20556.95634542195
 31
0.0
  0
LINE
  5
E0A6
  8
SUNPOU
  6
CONTINUOUS
 62
     4
 10
25013.47281063069
 20
19836.953706421969
 30
0.0
 11
25013.47281063069
 21
20636.95634542195
 31
0.0
  0
LINE
  5
E0A7
  8
SUNPOU
  6
CONTINUOUS
 62
     4
 10
25771.473800130691
 20
19836.953706421969
 30
0.0
 11
25771.473800130691
 21
20636.95634542195
 31
0.0
  0
LINE
  5
E0A8
  8
SUNPOU
  6
CONTINUOUS
 62
     4
 10
25013.47281063069
 20
20556.95634542195
 30
0.0
 11
25771.473800130691
 21
20556.95634542195
 31
0.0
  0
LINE
  5
E0A9
  8
SUNPOU
  6
CONTINUOUS
 62
     4
 10
24312.472810630679
 20
19836.953706421969
 30
0.0
 11
24312.472810630679
 21
20636.95634542195
 31
0.0
  0
LINE
  5
E0AA
  8
SUNPOU
  6
CONTINUOUS
 62
     4
 10
25013.47281063069
 20
19836.953706421969
 30
0.0
 11
25013.47281063069
 21
20636.95634542195
 31
0.0
  0
LINE
  5
E0AB
  8
SUNPOU
  6
CONTINUOUS
 62
     4
 10
24312.472810630679
 20
20556.95634542195
 30
0.0
 11
25013.47281063069
 21
20556.95634542195
 31
0.0
  0
LINE
  5
E0AC
  8
SUNPOU
  6
CONTINUOUS
 62
     4
 10
23611.47281063069
 20
19836.953706421969
 30
0.0
 11
23611.47281063069
 21
20636.95634542195
 31
0.0
  0
LINE
  5
E0AD
  8
SUNPOU
  6
CONTINUOUS
 62
     4
 10
24312.472810630679
 20
19836.953706421969
 30
0.0
 11
24312.472810630679
 21
20636.95634542195
 31
0.0
  0
LINE
  5
E0AE
  8
SUNPOU
  6
CONTINUOUS
 62
     4
 10
23611.47281063069
 20
20556.95634542195
 30
0.0
 11
24312.472810630679
 21
20556.95634542195
 31
0.0
  0
LINE
  5
E0AF
  8
SUNPOU
  6
CONTINUOUS
 62
     4
 10
25771.47281063069
 20
19836.953706421969
 30
0.0
 11
25771.47281063069
 21
20636.95634542195
 31
0.0
  0
LINE
  5
E0B0
  8
SUNPOU
  6
CONTINUOUS
 62
     4
 10
25813.96911563068
 20
19836.953706421969
 30
0.0
 11
25813.96911563068
 21
20636.95634542195
 31
0.0
  0
LINE
  5
E0B1
  8
SUNPOU
  6
CONTINUOUS
 62
     4
 10
25771.47281063069
 20
20556.95634542195
 30
0.0
 11
25531.47281063069
 21
20556.95634542195
 31
0.0
  0
LINE
  5
E0B2
  8
SUNPOU
  6
CONTINUOUS
 62
     4
 10
25813.96911563068
 20
20556.95634542195
 30
0.0
 11
26053.96911563068
 21
20556.95634542195
 31
0.0
  0
LINE
  5
E0B3
  8
SUNPOU
  6
CONTINUOUS
 62
     4
 10
25771.47281063069
 20
20556.95634542195
 30
0.0
 11
25813.96911563068
 21
20556.95634542195
 31
0.0
  0
LINE
  5
E0B4
  8
SUNPOU
  6
CONTINUOUS
 62
     4
 10
23203.97281063069
 20
19836.953706421969
 30
0.0
 11
23203.97281063069
 21
20636.95634542195
 31
0.0
  0
LINE
  5
E0B5
  8
SUNPOU
  6
CONTINUOUS
 62
     4
 10
23161.476505630679
 20
19836.953706421969
 30
0.0
 11
23161.476505630679
 21
20636.95634542195
 31
0.0
  0
LINE
  5
E0B6
  8
SUNPOU
  6
CONTINUOUS
 62
     4
 10
23203.97281063069
 20
20556.95634542195
 30
0.0
 11
23443.97281063069
 21
20556.95634542195
 31
0.0
  0
LINE
  5
E0B7
  8
SUNPOU
  6
CONTINUOUS
 62
     4
 10
23161.476505630679
 20
20556.95634542195
 30
0.0
 11
22921.476505630679
 21
20556.95634542195
 31
0.0
  0
LINE
  5
E0B8
  8
SUNPOU
  6
CONTINUOUS
 62
     4
 10
23203.97281063069
 20
20556.95634542195
 30
0.0
 11
23161.476505630679
 21
20556.95634542195
 31
0.0
  0
TEXT
  5
E0B9
  8
0
  6
CONTINUOUS
 62
     7
 10
22601.160831101872
 20
20636.95634542195
 30
0.0
 40
160.0
  1
42.5
  0
TEXT
  5
E0BA
  8
0
  6
CONTINUOUS
 62
     7
 10
25894.28479015948
 20
20636.95634542195
 30
0.0
 40
160.0
  1
42.5
  0
TEXT
  5
E0BB
  8
0
  6
CONTINUOUS
 62
     7
 10
23788.639477297351
 20
20246.956609421959
 30
0.0
 40
160.0
  1
701
  0
TEXT
  5
E0BC
  8
0
  6
CONTINUOUS
 62
     7
 10
24489.639477297351
 20
20636.95634542195
 30
0.0
 40
160.0
  1
701
  0
TEXT
  5
E0BD
  8
0
  6
CONTINUOUS
 62
     7
 10
25179.139972047349
 20
20636.95634542195
 30
0.0
 40
160.0
  1
758
  0
TEXT
  5
E0BE
  8
0
  6
CONTINUOUS
 62
     7
 10
23304.806143964019
 20
20636.95634542195
 30
0.0
 40
160.0
  1
407.5
  0
TEXT
  5
E0BF
  8
0
  6
CONTINUOUS
 62
     7
 10
26783.972414630691
 20
13262.401890025159
 30
0.0
 40
160.0
  1
42.5
 50
90.0
  0
TEXT
  5
E0C0
  8
0
  6
CONTINUOUS
 62
     7
 10
26783.972414630691
 20
19850.508952818742
 30
0.0
 40
160.0
  1
42.5
 50
90.0
  0
TEXT
  5
E0C1
  8
0
  6
CONTINUOUS
 62
     7
 10
27183.972414630691
 20
16529.788754755278
 30
0.0
 40
160.0
  1
5921
 50
90.0
  0
TEXT
  5
E0C2
  8
0
  6
CONTINUOUS
 62
     7
 10
26783.972414630691
 20
19122.122088088621
 30
0.0
 40
160.0
  1
758
 50
90.0
  0
TEXT
  5
E0C3
  8
0
  6
CONTINUOUS
 62
     7
 10
26783.972414630691
 20
18432.62208808861
 30
0.0
 40
160.0
  1
701
 50
90.0
  0
TEXT
  5
E0C4
  8
0
  6
CONTINUOUS
 62
     7
 10
26783.972414630691
 20
17731.622088088621
 30
0.0
 40
160.0
  1
701
 50
90.0
  0
TEXT
  5
E0C5
  8
0
  6
CONTINUOUS
 62
     7
 10
26783.972414630691
 20
16962.122088088599
 30
0.0
 40
160.0
  1
758
 50
90.0
  0
TEXT
  5
E0C6
  8
0
  6
CONTINUOUS
 62
     7
 10
26783.972414630691
 20
16204.122088088619
 30
0.0
 40
160.0
  1
758
 50
90.0
  0
TEXT
  5
E0C7
  8
0
  6
CONTINUOUS
 62
     7
 10
26783.972414630691
 20
15514.74234383863
 30
0.0
 40
160.0
  1
701
 50
90.0
  0
TEXT
  5
E0C8
  8
0
  6
CONTINUOUS
 62
     7
 10
26783.972414630691
 20
14813.74234383863
 30
0.0
 40
160.0
  1
701
 50
90.0
  0
TEXT
  5
E0C9
  8
0
  6
CONTINUOUS
 62
     7
 10
26783.972414630691
 20
14044.122088088619
 30
0.0
 40
160.0
  1
758
 50
90.0
  0
TEXT
  5
E0CA
  8
0
  6
CONTINUOUS
 62
     7
 10
24087.72281063069
 20
12587.00733742195
 30
0.0
 40
160.0
  1
2652.5
  0
TEXT
  5
E0CB
  8
0
  6
CONTINUOUS
 62
     7
 10
23322.026483012771
 20
12987.00733742195
 30
0.0
 40
160.0
  1
42.5
  0
TEXT
  5
E0CC
  8
0
  6
CONTINUOUS
 62
     7
 10
25173.419138248581
 20
12987.00733742195
 30
0.0
 40
160.0
  1
42.5
  0
TEXT
  5
E0CD
  8
0
  6
CONTINUOUS
 62
     7
 10
25889.526483012771
 20
12987.00733742195
 30
0.0
 40
160.0
  1
42.5
  0
TEXT
  5
E0CE
  8
0
  6
CONTINUOUS
 62
     7
 10
22605.919138248581
 20
12987.00733742195
 30
0.0
 40
160.0
  1
42.5
  0
ARC
  5
E0CF
  8
0
  6
BYBLOCK
 62
     0
 10
23203.97281063069
 20
12907.00733742195
 30
0.0
 40
15.0
 50
0.0
 51
180.0
  0
ARC
  5
E0D0
  8
0
  6
BYBLOCK
 62
     0
 10
23203.97281063069
 20
12907.00733742195
 30
0.0
 40
15.0
 50
180.0
 51
0.0
  0
ARC
  5
E0D1
  8
0
  6
BYBLOCK
 62
     0
 10
23161.470567630691
 20
12907.00733742195
 30
0.0
 40
15.0
 50
180.0
 51
0.0
  0
ARC
  5
E0D2
  8
0
  6
BYBLOCK
 62
     0
 10
23161.470567630691
 20
12907.00733742195
 30
0.0
 40
15.0
 50
0.0
 51
180.0
  0
ARC
  5
E0D3
  8
0
  6
BYBLOCK
 62
     0
 10
25771.47281063069
 20
12907.00733742195
 30
0.0
 40
15.0
 50
180.0
 51
0.0
  0
ARC
  5
E0D4
  8
0
  6
BYBLOCK
 62
     0
 10
25771.47281063069
 20
12907.00733742195
 30
0.0
 40
15.0
 50
0.0
 51
180.0
  0
ARC
  5
E0D5
  8
0
  6
BYBLOCK
 62
     0
 10
25813.975053630678
 20
12907.00733742195
 30
0.0
 40
15.0
 50
0.0
 51
180.0
  0
ARC
  5
E0D6
  8
0
  6
BYBLOCK
 62
     0
 10
25813.975053630678
 20
12907.00733742195
 30
0.0
 40
15.0
 50
180.0
 51
0.0
  0
ARC
  5
E0D7
  8
0
  6
BYBLOCK
 62
     0
 10
25771.47281063069
 20
12907.00733742195
 30
0.0
 40
15.0
 50
0.0
 51
180.0
  0
ARC
  5
E0D8
  8
0
  6
BYBLOCK
 62
     0
 10
25771.47281063069
 20
12907.00733742195
 30
0.0
 40
15.0
 50
180.0
 51
0.0
  0
ARC
  5
E0D9
  8
0
  6
BYBLOCK
 62
     0
 10
25728.970567630691
 20
12907.00733742195
 30
0.0
 40
15.0
 50
180.0
 51
0.0
  0
ARC
  5
E0DA
  8
0
  6
BYBLOCK
 62
     0
 10
25728.970567630691
 20
12907.00733742195
 30
0.0
 40
15.0
 50
0.0
 51
180.0
  0
ARC
  5
E0DB
  8
0
  6
BYBLOCK
 62
     0
 10
23203.97281063069
 20
12907.00733742195
 30
0.0
 40
15.0
 50
180.0
 51
0.0
  0
ARC
  5
E0DC
  8
0
  6
BYBLOCK
 62
     0
 10
23203.97281063069
 20
12907.00733742195
 30
0.0
 40
15.0
 50
0.0
 51
180.0
  0
ARC
  5
E0DD
  8
0
  6
BYBLOCK
 62
     0
 10
23246.475053630678
 20
12907.00733742195
 30
0.0
 40
15.0
 50
0.0
 51
180.0
  0
ARC
  5
E0DE
  8
0
  6
BYBLOCK
 62
     0
 10
23246.475053630678
 20
12907.00733742195
 30
0.0
 40
15.0
 50
180.0
 51
0.0
  0
ARC
  5
E0DF
  8
0
  6
BYBLOCK
 62
     0
 10
23161.470567630691
 20
12507.00733742195
 30
0.0
 40
15.0
 50
0.0
 51
180.0
  0
ARC
  5
E0E0
  8
0
  6
BYBLOCK
 62
     0
 10
23161.470567630691
 20
12507.00733742195
 30
0.0
 40
15.0
 50
180.0
 51
0.0
  0
ARC
  5
E0E1
  8
0
  6
BYBLOCK
 62
     0
 10
25813.975053630678
 20
12507.00733742195
 30
0.0
 40
15.0
 50
180.0
 51
0.0
  0
ARC
  5
E0E2
  8
0
  6
BYBLOCK
 62
     0
 10
25813.975053630678
 20
12507.00733742195
 30
0.0
 40
15.0
 50
0.0
 51
180.0
  0
ARC
  5
E0E3
  8
0
  6
BYBLOCK
 62
     0
 10
26863.972414630691
 20
14636.45542142195
 30
0.0
 40
15.0
 50
270.0
 51
90.0
  0
ARC
  5
E0E4
  8
0
  6
BYBLOCK
 62
     0
 10
26863.972414630691
 20
14636.45542142195
 30
0.0
 40
15.0
 50
90.0
 51
270.0
  0
ARC
  5
E0E5
  8
0
  6
BYBLOCK
 62
     0
 10
26863.972414630691
 20
13878.45542142195
 30
0.0
 40
15.0
 50
90.0
 51
270.0
  0
ARC
  5
E0E6
  8
0
  6
BYBLOCK
 62
     0
 10
26863.972414630691
 20
13878.45542142195
 30
0.0
 40
15.0
 50
270.0
 51
90.0
  0
ARC
  5
E0E7
  8
0
  6
BYBLOCK
 62
     0
 10
26863.972414630691
 20
15337.695932921961
 30
0.0
 40
15.0
 50
270.0
 51
90.0
  0
ARC
  5
E0E8
  8
0
  6
BYBLOCK
 62
     0
 10
26863.972414630691
 20
15337.695932921961
 30
0.0
 40
15.0
 50
90.0
 51
270.0
  0
ARC
  5
E0E9
  8
0
  6
BYBLOCK
 62
     0
 10
26863.972414630691
 20
14636.45542142195
 30
0.0
 40
15.0
 50
90.0
 51
270.0
  0
ARC
  5
E0EA
  8
0
  6
BYBLOCK
 62
     0
 10
26863.972414630691
 20
14636.45542142195
 30
0.0
 40
15.0
 50
270.0
 51
90.0
  0
ARC
  5
E0EB
  8
0
  6
BYBLOCK
 62
     0
 10
26863.972414630691
 20
16038.45542142195
 30
0.0
 40
15.0
 50
270.0
 51
90.0
  0
ARC
  5
E0EC
  8
0
  6
BYBLOCK
 62
     0
 10
26863.972414630691
 20
16038.45542142195
 30
0.0
 40
15.0
 50
90.0
 51
270.0
  0
ARC
  5
E0ED
  8
0
  6
BYBLOCK
 62
     0
 10
26863.972414630691
 20
15337.695932921961
 30
0.0
 40
15.0
 50
90.0
 51
270.0
  0
ARC
  5
E0EE
  8
0
  6
BYBLOCK
 62
     0
 10
26863.972414630691
 20
15337.695932921961
 30
0.0
 40
15.0
 50
270.0
 51
90.0
  0
ARC
  5
E0EF
  8
0
  6
BYBLOCK
 62
     0
 10
26863.972414630691
 20
16796.455421421939
 30
0.0
 40
15.0
 50
270.0
 51
90.0
  0
ARC
  5
E0F0
  8
0
  6
BYBLOCK
 62
     0
 10
26863.972414630691
 20
16796.455421421939
 30
0.0
 40
15.0
 50
90.0
 51
270.0
  0
ARC
  5
E0F1
  8
0
  6
BYBLOCK
 62
     0
 10
26863.972414630691
 20
16038.45542142195
 30
0.0
 40
15.0
 50
90.0
 51
270.0
  0
ARC
  5
E0F2
  8
0
  6
BYBLOCK
 62
     0
 10
26863.972414630691
 20
16038.45542142195
 30
0.0
 40
15.0
 50
270.0
 51
90.0
  0
ARC
  5
E0F3
  8
0
  6
BYBLOCK
 62
     0
 10
26863.972414630691
 20
17554.455421421939
 30
0.0
 40
15.0
 50
270.0
 51
90.0
  0
ARC
  5
E0F4
  8
0
  6
BYBLOCK
 62
     0
 10
26863.972414630691
 20
17554.455421421939
 30
0.0
 40
15.0
 50
90.0
 51
270.0
  0
ARC
  5
E0F5
  8
0
  6
BYBLOCK
 62
     0
 10
26863.972414630691
 20
16796.455421421939
 30
0.0
 40
15.0
 50
90.0
 51
270.0
  0
ARC
  5
E0F6
  8
0
  6
BYBLOCK
 62
     0
 10
26863.972414630691
 20
16796.455421421939
 30
0.0
 40
15.0
 50
270.0
 51
90.0
  0
ARC
  5
E0F7
  8
0
  6
BYBLOCK
 62
     0
 10
26863.972414630691
 20
18255.455421421939
 30
0.0
 40
15.0
 50
270.0
 51
90.0
  0
ARC
  5
E0F8
  8
0
  6
BYBLOCK
 62
     0
 10
26863.972414630691
 20
18255.455421421939
 30
0.0
 40
15.0
 50
90.0
 51
270.0
  0
ARC
  5
E0F9
  8
0
  6
BYBLOCK
 62
     0
 10
26863.972414630691
 20
17554.455421421939
 30
0.0
 40
15.0
 50
90.0
 51
270.0
  0
ARC
  5
E0FA
  8
0
  6
BYBLOCK
 62
     0
 10
26863.972414630691
 20
17554.455421421939
 30
0.0
 40
15.0
 50
270.0
 51
90.0
  0
ARC
  5
E0FB
  8
0
  6
BYBLOCK
 62
     0
 10
26863.972414630691
 20
18956.455421421939
 30
0.0
 40
15.0
 50
270.0
 51
90.0
  0
ARC
  5
E0FC
  8
0
  6
BYBLOCK
 62
     0
 10
26863.972414630691
 20
18956.455421421939
 30
0.0
 40
15.0
 50
90.0
 51
270.0
  0
ARC
  5
E0FD
  8
0
  6
BYBLOCK
 62
     0
 10
26863.972414630691
 20
18255.455421421939
 30
0.0
 40
15.0
 50
90.0
 51
270.0
  0
ARC
  5
E0FE
  8
0
  6
BYBLOCK
 62
     0
 10
26863.972414630691
 20
18255.455421421939
 30
0.0
 40
15.0
 50
270.0
 51
90.0
  0
ARC
  5
E0FF
  8
0
  6
BYBLOCK
 62
     0
 10
26863.972414630691
 20
19714.455421421939
 30
0.0
 40
15.0
 50
270.0
 51
90.0
  0
ARC
  5
E100
  8
0
  6
BYBLOCK
 62
     0
 10
26863.972414630691
 20
19714.455421421939
 30
0.0
 40
15.0
 50
90.0
 51
270.0
  0
ARC
  5
E101
  8
0
  6
BYBLOCK
 62
     0
 10
26863.972414630691
 20
18956.455421421939
 30
0.0
 40
15.0
 50
90.0
 51
270.0
  0
ARC
  5
E102
  8
0
  6
BYBLOCK
 62
     0
 10
26863.972414630691
 20
18956.455421421939
 30
0.0
 40
15.0
 50
270.0
 51
90.0
  0
ARC
  5
E103
  8
0
  6
BYBLOCK
 62
     0
 10
26863.972414630691
 20
19714.455421421939
 30
0.0
 40
15.0
 50
270.0
 51
90.0
  0
ARC
  5
E104
  8
0
  6
BYBLOCK
 62
     0
 10
26863.972414630691
 20
19714.455421421939
 30
0.0
 40
15.0
 50
90.0
 51
270.0
  0
ARC
  5
E105
  8
0
  6
BYBLOCK
 62
     0
 10
26863.972414630691
 20
13878.45542142195
 30
0.0
 40
15.0
 50
90.0
 51
270.0
  0
ARC
  5
E106
  8
0
  6
BYBLOCK
 62
     0
 10
26863.972414630691
 20
13878.45542142195
 30
0.0
 40
15.0
 50
270.0
 51
90.0
  0
ARC
  5
E107
  8
0
  6
BYBLOCK
 62
     0
 10
27263.972414630691
 20
19756.952716421929
 30
0.0
 40
15.0
 50
270.0
 51
90.0
  0
ARC
  5
E108
  8
0
  6
BYBLOCK
 62
     0
 10
27263.972414630691
 20
19756.952716421929
 30
0.0
 40
15.0
 50
90.0
 51
270.0
  0
ARC
  5
E109
  8
0
  6
BYBLOCK
 62
     0
 10
27263.972414630691
 20
13835.958126421951
 30
0.0
 40
15.0
 50
90.0
 51
270.0
  0
ARC
  5
E10A
  8
0
  6
BYBLOCK
 62
     0
 10
27263.972414630691
 20
13835.958126421951
 30
0.0
 40
15.0
 50
270.0
 51
90.0
  0
ARC
  5
E10B
  8
0
  6
BYBLOCK
 62
     0
 10
26863.972414630691
 20
19714.455421421939
 30
0.0
 40
15.0
 50
270.0
 51
90.0
  0
ARC
  5
E10C
  8
0
  6
BYBLOCK
 62
     0
 10
26863.972414630691
 20
19714.455421421939
 30
0.0
 40
15.0
 50
90.0
 51
270.0
  0
ARC
  5
E10D
  8
0
  6
BYBLOCK
 62
     0
 10
26863.972414630691
 20
19756.952716421929
 30
0.0
 40
15.0
 50
90.0
 51
270.0
  0
ARC
  5
E10E
  8
0
  6
BYBLOCK
 62
     0
 10
26863.972414630691
 20
19756.952716421929
 30
0.0
 40
15.0
 50
270.0
 51
90.0
  0
ARC
  5
E10F
  8
0
  6
BYBLOCK
 62
     0
 10
26863.972414630691
 20
13878.45542142195
 30
0.0
 40
15.0
 50
90.0
 51
270.0
  0
ARC
  5
E110
  8
0
  6
BYBLOCK
 62
     0
 10
26863.972414630691
 20
13878.45542142195
 30
0.0
 40
15.0
 50
270.0
 51
90.0
  0
ARC
  5
E111
  8
0
  6
BYBLOCK
 62
     0
 10
26863.972414630691
 20
13835.958126421951
 30
0.0
 40
15.0
 50
270.0
 51
90.0
  0
ARC
  5
E112
  8
0
  6
BYBLOCK
 62
     0
 10
26863.972414630691
 20
13835.958126421951
 30
0.0
 40
15.0
 50
90.0
 51
270.0
  0
ARC
  5
E113
  8
0
  6
BYBLOCK
 62
     0
 10
23203.97281063069
 20
20556.95634542195
 30
0.0
 40
15.0
 50
180.0
 51
0.0
  0
ARC
  5
E114
  8
0
  6
BYBLOCK
 62
     0
 10
23203.97281063069
 20
20556.95634542195
 30
0.0
 40
15.0
 50
0.0
 51
180.0
  0
ARC
  5
E115
  8
0
  6
BYBLOCK
 62
     0
 10
23611.47281063069
 20
20556.95634542195
 30
0.0
 40
15.0
 50
0.0
 51
180.0
  0
ARC
  5
E116
  8
0
  6
BYBLOCK
 62
     0
 10
23611.47281063069
 20
20556.95634542195
 30
0.0
 40
15.0
 50
180.0
 51
0.0
  0
ARC
  5
E117
  8
0
  6
BYBLOCK
 62
     0
 10
25013.47281063069
 20
20556.95634542195
 30
0.0
 40
15.0
 50
0.0
 51
180.0
  0
ARC
  5
E118
  8
0
  6
BYBLOCK
 62
     0
 10
25013.47281063069
 20
20556.95634542195
 30
0.0
 40
15.0
 50
180.0
 51
0.0
  0
ARC
  5
E119
  8
0
  6
BYBLOCK
 62
     0
 10
25771.473800130691
 20
20556.95634542195
 30
0.0
 40
15.0
 50
180.0
 51
0.0
  0
ARC
  5
E11A
  8
0
  6
BYBLOCK
 62
     0
 10
25771.473800130691
 20
20556.95634542195
 30
0.0
 40
15.0
 50
0.0
 51
180.0
  0
ARC
  5
E11B
  8
0
  6
BYBLOCK
 62
     0
 10
24312.472810630679
 20
20556.95634542195
 30
0.0
 40
15.0
 50
0.0
 51
180.0
  0
ARC
  5
E11C
  8
0
  6
BYBLOCK
 62
     0
 10
24312.472810630679
 20
20556.95634542195
 30
0.0
 40
15.0
 50
180.0
 51
0.0
  0
ARC
  5
E11D
  8
0
  6
BYBLOCK
 62
     0
 10
25013.47281063069
 20
20556.95634542195
 30
0.0
 40
15.0
 50
180.0
 51
0.0
  0
ARC
  5
E11E
  8
0
  6
BYBLOCK
 62
     0
 10
25013.47281063069
 20
20556.95634542195
 30
0.0
 40
15.0
 50
0.0
 51
180.0
  0
ARC
  5
E11F
  8
0
  6
BYBLOCK
 62
     0
 10
23611.47281063069
 20
20556.95634542195
 30
0.0
 40
15.0
 50
0.0
 51
180.0
  0
ARC
  5
E120
  8
0
  6
BYBLOCK
 62
     0
 10
23611.47281063069
 20
20556.95634542195
 30
0.0
 40
15.0
 50
180.0
 51
0.0
  0
ARC
  5
E121
  8
0
  6
BYBLOCK
 62
     0
 10
24312.472810630679
 20
20556.95634542195
 30
0.0
 40
15.0
 50
180.0
 51
0.0
  0
ARC
  5
E122
  8
0
  6
BYBLOCK
 62
     0
 10
24312.472810630679
 20
20556.95634542195
 30
0.0
 40
15.0
 50
0.0
 51
180.0
  0
ARC
  5
E123
  8
0
  6
BYBLOCK
 62
     0
 10
25771.47281063069
 20
20556.95634542195
 30
0.0
 40
15.0
 50
180.0
 51
0.0
  0
ARC
  5
E124
  8
0
  6
BYBLOCK
 62
     0
 10
25771.47281063069
 20
20556.95634542195
 30
0.0
 40
15.0
 50
0.0
 51
180.0
  0
ARC
  5
E125
  8
0
  6
BYBLOCK
 62
     0
 10
25813.96911563068
 20
20556.95634542195
 30
0.0
 40
15.0
 50
0.0
 51
180.0
  0
ARC
  5
E126
  8
0
  6
BYBLOCK
 62
     0
 10
25813.96911563068
 20
20556.95634542195
 30
0.0
 40
15.0
 50
180.0
 51
0.0
  0
ARC
  5
E127
  8
0
  6
BYBLOCK
 62
     0
 10
23203.97281063069
 20
20556.95634542195
 30
0.0
 40
15.0
 50
0.0
 51
180.0
  0
ARC
  5
E128
  8
0
  6
BYBLOCK
 62
     0
 10
23203.97281063069
 20
20556.95634542195
 30
0.0
 40
15.0
 50
180.0
 51
0.0
  0
ARC
  5
E129
  8
0
  6
BYBLOCK
 62
     0
 10
23161.476505630679
 20
20556.95634542195
 30
0.0
 40
15.0
 50
180.0
 51
0.0
  0
ARC
  5
E12A
  8
0
  6
BYBLOCK
 62
     0
 10
23161.476505630679
 20
20556.95634542195
 30
0.0
 40
15.0
 50
0.0
 51
180.0
  0
LINE
  5
E147
  8
2-0
  6
CENTER2
 62
     6
 10
27663.9717546307
 20
19714.452716421922
 30
0.0
 11
27343.972414630691
 21
19714.452716421922
 31
0.0
  0
LINE
  5
E148
  8
2-0
  6
CENTER2
 62
     6
 10
27663.9717546307
 20
16796.452716421911
 30
0.0
 11
27343.972414630691
 21
16796.452716421911
 31
0.0
  0
LINE
  5
E149
  8
2-0
  6
CENTER2
 62
     6
 10
27663.9717546307
 20
13878.45271642192
 30
0.0
 11
27343.972414630691
 21
13878.45271642192
 31
0.0
  0
CIRCLE
  5
E14A
  8
0-5
  6
CONTINUOUS
 62
     4
 10
27863.972414630691
 20
19714.452716421922
 30
0.0
 40
199.9999949999999
  0
CIRCLE
  5
E14B
  8
0-5
  6
CONTINUOUS
 62
     4
 10
27863.972414630691
 20
16796.452716421911
 30
0.0
 40
199.9999949999999
  0
CIRCLE
  5
E14C
  8
0-5
  6
CONTINUOUS
 62
     4
 10
27863.972414630691
 20
13878.45271642192
 30
0.0
 40
199.9999949999999
  0
TEXT
  5
E14D
  8
0-5
  6
CONTINUOUS
 62
     7
 10
27805.982109964021
 20
19622.83465742191
 30
0.0
 40
160.0
  1
C
 72
     4
 11
27859.31544329735
 21
19702.83465742191
 31
0.0
  0
TEXT
  5
E14E
  8
0-5
  6
CONTINUOUS
 62
     7
 10
27805.982109964021
 20
16704.834658421929
 30
0.0
 40
160.0
  1
B
 72
     4
 11
27859.315443297361
 21
16784.834658421929
 31
0.0
  0
TEXT
  5
E14F
  8
0-5
  6
CONTINUOUS
 62
     7
 10
27805.982109964021
 20
13786.83465742191
 30
0.0
 40
160.0
  1
A
 72
     4
 11
27859.31544329735
 21
13866.83465742191
 31
0.0
  0
LINE
  5
E192
  8
2-0
  6
CENTER2
 62
     6
 10
23203.972810630668
 20
21356.95766442196
 30
0.0
 11
23203.972810630668
 21
13528.540796945959
 31
0.0
  0
LINE
  5
E193
  8
2-0
  6
CENTER2
 62
     6
 10
25771.472810630668
 20
21356.95766442196
 30
0.0
 11
25771.472810630668
 21
13528.540796945959
 31
0.0
  0
LINE
  5
E19B
  8
2-0
  6
CENTER2
 62
     6
 10
23203.972810630708
 20
13282.61175889793
 30
0.0
 11
23203.972810630668
 21
13528.540796945959
 31
0.0
  0
TEXT
  5
E258
  8
FILENAME
  6
CONTINUOUS
 10
26518.285714285721
 20
348.0
 30
0.0
 40
200.0
  1
＜VGC-2659+VKC-2859-L-1-A_0.DXF ＞
  7
FILENAME
 72
     2
 11
32764.0
 21
348.0
 31
0.0
  0
LINE
  5
E25D
  8
WAKUSEN-01
 10
868.00000000000193
 20
827.99999999999955
 30
0.0
 11
32764.000000000011
 21
827.99999999999943
 31
0.0
  0
LINE
  5
E25E
  8
WAKUSEN-01
 10
868.00000000000193
 20
827.99999999999955
 30
0.0
 11
868.00000000000193
 21
22484.000000000011
 31
0.0
  0
LINE
  5
E25F
  8
WAKUSEN-01
 10
32764.000000000011
 20
827.99999999999943
 30
0.0
 11
32764.000000000011
 21
22484.000000000011
 31
0.0
  0
LINE
  5
E260
  8
WAKUSEN-01
 10
20560.0
 20
827.99999999999716
 30
0.0
 11
20560.0
 21
2484.0
 31
0.0
  0
LINE
  5
E261
  8
WAKUSEN-02
 10
26868.0
 20
827.99999999999261
 30
0.0
 11
26868.0
 21
2484.0
 31
0.0
  0
ENDSEC
  0
EOF
