  0
SECTION
  2
HEADER
  9
$ACADVER
  1
AC1009
  9
$INSBASE
 10
0.0
 20
0.0
 30
0.0
  9
$EXTMIN
 10
867.99324330406671
 20
327.38164749855792
 30
-0.0000000000000058
  9
$EXTMAX
 10
32765.33210850941
 20
22484.553276491992
 30
0.0000000000000104
  9
$LIMMIN
 10
0.0
 20
0.0
  9
$LIMMAX
 10
33600.0
 20
23760.0
  9
$ORTHOMODE
 70
     1
  9
$REGENMODE
 70
     1
  9
$FILLMODE
 70
     1
  9
$QTEXTMODE
 70
     0
  9
$MIRRTEXT
 70
     0
  9
$DRAGMODE
 70
     2
  9
$LTSCALE
 40
80.0
  9
$OSMODE
 70
  3071
  9
$ATTMODE
 70
     1
  9
$TEXTSIZE
 40
0.2
  9
$TRACEWID
 40
0.05
  9
$TEXTSTYLE
  7
00
  9
$CLAYER
  8
0
  9
$CELTYPE
  6
BYLAYER
  9
$CECOLOR
 62
   256
  9
$DIMSCALE
 40
80.0
  9
$DIMASZ
 40
3.0
  9
$DIMEXO
 40
1.0
  9
$DIMDLI
 40
0.38
  9
$DIMRND
 40
0.5
  9
$DIMDLE
 40
0.0
  9
$DIMEXE
 40
1.0
  9
$DIMTP
 40
0.0
  9
$DIMTM
 40
0.0
  9
$DIMTXT
 40
2.0
  9
$DIMCEN
 40
0.09
  9
$DIMTSZ
 40
0.0
  9
$DIMTOL
 70
     0
  9
$DIMLIM
 70
     0
  9
$DIMTIH
 70
     0
  9
$DIMTOH
 70
     0
  9
$DIMSE1
 70
     0
  9
$DIMSE2
 70
     0
  9
$DIMTAD
 70
     1
  9
$DIMZIN
 70
     8
  9
$DIMBLK
  1
DOTSMALL
  9
$DIMASO
 70
     1
  9
$DIMSHO
 70
     1
  9
$DIMPOST
  1

  9
$DIMAPOST
  1

  9
$DIMALT
 70
     0
  9
$DIMALTD
 70
     2
  9
$DIMALTF
 40
25.399999999999999
  9
$DIMLFAC
 40
1.0
  9
$DIMTOFL
 70
     1
  9
$DIMTVP
 40
0.0
  9
$DIMTIX
 70
     0
  9
$DIMSOXD
 70
     0
  9
$DIMSAH
 70
     0
  9
$DIMBLK1
  1

  9
$DIMBLK2
  1

  9
$DIMSTYLE
  2
SUNPOU
  9
$DIMCLRD
 70
     4
  9
$DIMCLRE
 70
     4
  9
$DIMCLRT
 70
     7
  9
$DIMTFAC
 40
1.0
  9
$DIMGAP
 40
1.0
  9
$LUNITS
 70
     2
  9
$LUPREC
 70
     4
  9
$SKETCHINC
 40
0.1
  9
$FILLETRAD
 40
0.0
  9
$AUNITS
 70
     0
  9
$AUPREC
 70
     0
  9
$MENU
  1
acad
  9
$ELEVATION
 40
0.0
  9
$PELEVATION
 40
0.0
  9
$THICKNESS
 40
0.0
  9
$LIMCHECK
 70
     0
  9
$BLIPMODE
 70
     1
  9
$CHAMFERA
 40
0.0
  9
$CHAMFERB
 40
0.0
  9
$SKPOLY
 70
     0
  9
$TDCREATE
 40
2311940.075052408
  9
$TDUPDATE
 40
2458942.4520181832
  9
$TDINDWG
 40
0.3428408565
  9
$TDUSRTIMER
 40
0.3428400347
  9
$USRTIMER
 70
     1
  9
$ANGBASE
 50
0.0
  9
$ANGDIR
 70
     0
  9
$PDMODE
 70
     0
  9
$PDSIZE
 40
0.0
  9
$PLINEWID
 40
0.0
  9
$COORDS
 70
     1
  9
$SPLFRAME
 70
     0
  9
$SPLINETYPE
 70
     6
  9
$SPLINESEGS
 70
     8
  9
$ATTDIA
 70
     1
  9
$ATTREQ
 70
     1
  9
$HANDLING
 70
     1
  9
$HANDSEED
  5
10D82
  9
$SURFTAB1
 70
     6
  9
$SURFTAB2
 70
     6
  9
$SURFTYPE
 70
     6
  9
$SURFU
 70
     6
  9
$SURFV
 70
     6
  9
$UCSNAME
  2

  9
$UCSORG
 10
0.0
 20
0.0
 30
0.0
  9
$UCSXDIR
 10
1.0
 20
0.0
 30
0.0
  9
$UCSYDIR
 10
0.0
 20
1.0
 30
0.0
  9
$PUCSNAME
  2

  9
$PUCSORG
 10
0.0
 20
0.0
 30
0.0
  9
$PUCSXDIR
 10
1.0
 20
0.0
 30
0.0
  9
$PUCSYDIR
 10
0.0
 20
1.0
 30
0.0
  9
$USERI1
 70
     0
  9
$USERI2
 70
     0
  9
$USERI3
 70
     0
  9
$USERI4
 70
     0
  9
$USERI5
 70
     0
  9
$USERR1
 40
0.0
  9
$USERR2
 40
0.0
  9
$USERR3
 40
0.0
  9
$USERR4
 40
0.0
  9
$USERR5
 40
0.0
  9
$WORLDVIEW
 70
     1
  9
$SHADEDGE
 70
     3
  9
$SHADEDIF
 70
    70
  9
$TILEMODE
 70
     1
  9
$MAXACTVP
 70
    16
  9
$PLIMCHECK
 70
     0
  9
$PEXTMIN
 10
1.0000000000000000E+020
 20
1.0000000000000000E+020
 30
1.0000000000000000E+020
  9
$PEXTMAX
 10
-1.0000000000000000E+020
 20
-1.0000000000000000E+020
 30
-1.0000000000000000E+020
  9
$PLIMMIN
 10
0.0
 20
0.0
  9
$PLIMMAX
 10
12.0
 20
9.0
  9
$UNITMODE
 70
     0
  9
$VISRETAIN
 70
     0
  9
$PLINEGEN
 70
     1
  9
$PSLTSCALE
 70
     0
  0
ENDSEC
  0
SECTION
  2
TABLES
  0
TABLE
  2
VPORT
 70
     1
  0
VPORT
  2
*ACTIVE
 70
     0
 10
0.0
 20
0.0
 11
1.0
 21
1.0
 12
16800.0
 22
11880.0
 13
0.0
 23
0.0
 14
1.0
 24
1.0
 15
0.0
 25
0.0
 16
0.0
 26
0.0
 36
1.0
 17
0.0
 27
0.0
 37
0.0
 40
23981.023255813951
 41
2.195652173913043
 42
50.0
 43
0.0
 44
0.0
 50
0.0
 51
0.0
 71
     0
 72
 10000
 73
     1
 74
     1
 75
     0
 76
     0
 77
     0
 78
     0
  0
ENDTAB
  0
TABLE
  2
LTYPE
 70
     6
  0
LTYPE
  2
CONTINUOUS
 70
     0
  3
Solid line
 72
    65
 73
     0
 40
0.0
  0
LTYPE
  2
DASHED3
 70
     0
  3
------  ------  ------  ------  
 72
    65
 73
     2
 40
5.0
 49
3.75
 49
-1.25
  0
LTYPE
  2
CENTER2
 70
     0
  3
----------  --  ----------  --  
 72
    65
 73
     4
 40
20.0
 49
12.5
 49
-2.5
 49
2.5
 49
-2.5
  0
LTYPE
  2
HIDE-M
 70
     0
  3

 72
    65
 73
     2
 40
2.0
 49
1.0
 49
-1.0
  0
LTYPE
  2
1PL-M
 70
     0
  3

 72
    65
 73
     4
 40
15.0
 49
12.0
 49
-1.0
 49
1.0
 49
-1.0
  0
LTYPE
  2
PHANTOM2
 70
     0
  3
___ _ _ ___ _ _ ___ _ _ ___ _ _
 72
    65
 73
     6
 40
1.25
 49
0.625
 49
-0.125
 49
0.125
 49
-0.125
 49
0.125
 49
-0.125
  0
ENDTAB
  0
TABLE
  2
LAYER
 70
    24
  0
LAYER
  2
0
 70
     0
 62
     7
  6
CONTINUOUS
  0
LAYER
  2
SUNPOU
 70
     0
 62
     4
  6
CONTINUOUS
  0
LAYER
  2
0-1
 70
     0
 62
     7
  6
CONTINUOUS
  0
LAYER
  2
0-2
 70
     0
 62
     7
  6
CONTINUOUS
  0
LAYER
  2
0-5
 70
     0
 62
     7
  6
CONTINUOUS
  0
LAYER
  2
0-6
 70
     0
 62
     7
  6
CONTINUOUS
  0
LAYER
  2
2-0
 70
     0
 62
     7
  6
CONTINUOUS
  0
LAYER
  2
0-8
 70
     0
 62
     7
  6
CONTINUOUS
  0
LAYER
  2
YODOROGO
 70
     0
 62
   130
  6
CONTINUOUS
  0
LAYER
  2
WAKUSEN-01
 70
     0
 62
    50
  6
CONTINUOUS
  0
LAYER
  2
WAKUSEN-02
 70
     0
 62
   130
  6
CONTINUOUS
  0
LAYER
  2
WAKUMOJI-01
 70
     0
 62
   130
  6
CONTINUOUS
  0
LAYER
  2
FILENAME
 70
     0
 62
     7
  6
CONTINUOUS
  0
LAYER
  2
NAME
 70
     0
 62
    20
  6
CONTINUOUS
  0
LAYER
  2
0-4
 70
     0
 62
     7
  6
CONTINUOUS
  0
LAYER
  2
1-前柱P
 70
     0
 62
     3
  6
CONTINUOUS
  0
LAYER
  2
1-前柱カバ-P
 70
     0
 62
     3
  6
CONTINUOUS
  0
LAYER
  2
1-桁前P28
 70
     0
 62
     3
  6
CONTINUOUS
  0
LAYER
  2
1-後柱P
 70
     0
 62
     3
  6
CONTINUOUS
  0
LAYER
  2
1-中柱P
 70
     0
 62
     3
  6
CONTINUOUS
  0
LAYER
  2
1-後柱カバ-P
 70
     0
 62
     7
  6
CONTINUOUS
  0
LAYER
  2
1-中柱カバ-P
 70
     0
 62
     7
  6
CONTINUOUS
  0
ENDTAB
  0
TABLE
  2
STYLE
 70
     5
  0
STYLE
  2
STANDARD
 70
     0
 40
0.0
 41
1.0
 50
0.0
 71
     0
 42
0.0
  3
txt
  4
BIGFONT
  0
STYLE
  2
00
 70
     0
 40
0.0
 41
0.6666666666666666
 50
0.0
 71
     0
 42
0.2
  3
ROMANS
  4
BIGFONT
  0
STYLE
  2
01
 70
     0
 40
3.0
 41
1.0
 50
0.0
 71
     0
 42
0.2
  3
ROMANS
  4
BIGFONT
  0
STYLE
  2
WAKUMOJI
 70
     0
 40
3.0
 41
1.0
 50
0.0
 71
     0
 42
3.0
  3
SIMPLEX
  4
BIGFONT
  0
STYLE
  2
FILENAME
 70
     0
 40
200.0
 41
1.0
 50
0.0
 71
     0
 42
200.0
  3
romans
  4
bigfont
  0
ENDTAB
  0
TABLE
  2
VIEW
 70
     0
  0
ENDTAB
  0
TABLE
  2
UCS
 70
     0
  0
ENDTAB
  0
TABLE
  2
APPID
 70
    17
  0
APPID
  2
ACAD
 70
     0
  0
APPID
  2
ACADANNOTATIVE
 70
     0
  0
APPID
  2
ACAD_PSEXT
 70
     0
  0
APPID
  2
DCO15
 70
     0
  0
APPID
  2
ACAD_MLEADERVER
 70
     0
  0
APPID
  2
AUTOCAD_POSTSCRIPT_FIGURE
 70
     0
  0
APPID
  2
ACAD_EXEMPT_FROM_CAD_STANDARDS
 70
     0
  0
APPID
  2
ACLAYERTOOLS
 70
     0
  0
APPID
  2
ACAD_DSTYLE_DIMJAG
 70
     0
  0
APPID
  2
ACAD_DSTYLE_DIMTALN
 70
     0
  0
APPID
  2
ACAECLAYERSTANDARD
 70
     0
  0
APPID
  2
ACAD_DSTYLE_DIMBREAK
 70
     0
  0
APPID
  2
ACAD_DSTYLE_DIM_LINETYPE
 70
     0
  0
APPID
  2
ACAD_DSTYLE_DIM_EXT1_LINETYPE
 70
     0
  0
APPID
  2
ACAD_DSTYLE_DIM_EXT2_LINETYPE
 70
     0
  0
APPID
  2
ACAD_DSTYLE_DIMFLIPARROW_W
 70
     0
  0
APPID
  2
ACAD_NAV_VCDISPLAY
 70
     0
  0
ENDTAB
  0
TABLE
  2
DIMSTYLE
 70
     2
  0
DIMSTYLE
  2
SUNPOU
 70
     0
  3

  4

  5

  6

  7

 40
80.0
 41
3.0
 42
1.0
 43
0.38
 44
1.0
 45
0.5
 46
0.0
 47
0.0
 48
0.0
140
2.0
141
0.09
142
0.0
143
25.399999999999999
144
1.0
145
0.0
146
1.0
147
1.0
 71
     0
 72
     0
 73
     0
 74
     0
 75
     0
 76
     0
 77
     1
 78
     8
170
     0
171
     2
172
     1
173
     0
174
     0
175
     0
176
     4
177
     4
178
     7
  0
ENDTAB
  0
ENDSEC
  0
SECTION
  2
BLOCKS
  0
BLOCK
  8
0
  2
$MODEL_SPACE
 70
     0
 10
0.0
 20
0.0
 30
0.0
  3
$MODEL_SPACE
  1

  0
ENDBLK
  5
F58D
  8
0
  0
BLOCK
 67
     1
  8
0
  2
$PAPER_SPACE
 70
     0
 10
0.0
 20
0.0
 30
0.0
  3
$PAPER_SPACE
  1

  0
ENDBLK
  5
F589
 67
     1
  8
0
  0
BLOCK
  8
0
  2
_DOTSMALL
 70
     0
 10
0.0
 20
0.0
 30
0.0
  3
_DOTSMALL
  1

  0
POLYLINE
  5
F5C9
  8
0
  6
BYBLOCK
 62
     0
 66
     1
 10
0.0
 20
0.0
 30
0.0
 70
     1
 40
0.5
 41
0.5
  0
VERTEX
  5
10D4A
  8
0
  6
BYBLOCK
 62
     0
 10
-0.0625
 20
0.0
 30
0.0
 42
1.0
  0
VERTEX
  5
10D4B
  8
0
  6
BYBLOCK
 62
     0
 10
0.0625
 20
0.0
 30
0.0
 42
1.0
  0
SEQEND
  5
10D4C
  8
0
  6
BYBLOCK
 62
     0
  0
ENDBLK
  5
F5CD
  8
0
  0
ENDSEC
  0
SECTION
  2
ENTITIES
  0
CIRCLE
  5
F63F
  8
0-5
  6
CONTINUOUS
 62
     4
 10
15128.71667799999
 20
1375.999982000001
 30
0.0
 40
20.0
  0
ARC
  5
F640
  8
0-5
  6
CONTINUOUS
 62
     4
 10
15128.71667799999
 20
1375.999982000001
 30
0.0
 40
20.0
 50
180.0
 51
0.0
  0
ARC
  5
F641
  8
0-5
  6
CONTINUOUS
 62
     4
 10
15128.71667799999
 20
1375.999982000001
 30
0.0
 40
20.0
 50
0.0
 51
179.99998500000001
  0
CIRCLE
  5
F642
  8
0-5
  6
CONTINUOUS
 62
     4
 10
15128.71667799999
 20
1775.999321999999
 30
0.0
 40
20.0
  0
ARC
  5
F643
  8
0-5
  6
CONTINUOUS
 62
     4
 10
15128.71667799999
 20
1775.999321999999
 30
0.0
 40
20.0
 50
180.0
 51
0.0
  0
ARC
  5
F644
  8
0-5
  6
CONTINUOUS
 62
     4
 10
15128.71667799999
 20
1775.999321999999
 30
0.0
 40
20.0
 50
0.0
 51
179.99998500000001
  0
TEXT
  5
F64A
  8
0-5
  6
CONTINUOUS
 62
     7
 10
16661.217403999992
 20
1655.999792000001
 30
0.0
 40
160.0
  1
H
  0
TEXT
  5
F64B
  8
0-5
  6
CONTINUOUS
 62
     7
 10
15176.146933
 20
1655.999792000001
 30
0.0
 40
160.0
  1
（ ）内寸法ハ、  タイプヲ示ス。
  0
TEXT
  5
F64C
  8
0-5
  6
CONTINUOUS
 62
     7
 10
15288.716216000001
 20
1255.999462
 30
0.0
 40
160.0
  1
有効高サハ、基礎高サヲ含ミマセン。
  0
TEXT
  5
F654
  8
2-0
  6
CONTINUOUS
 62
     7
 10
22172.668069228708
 20
11251.104441999991
 30
0.0
 40
160.0
  1
平　面　図
 72
     4
 11
22626.00140256204
 21
11325.77110866666
 31
0.0
  0
TEXT
  5
F655
  8
2-0
  6
CONTINUOUS
 62
     7
 10
6837.9798382323752
 20
11156.81700299998
 30
0.0
 40
160.0
  1
小 屋 伏 図
 72
     4
 11
7339.3131715657091
 21
11236.81700299998
 31
0.0
  0
TEXT
  5
F656
  8
2-0
  6
CONTINUOUS
 62
     7
 10
21841.769232999432
 20
3292.802588999999
 30
0.0
 40
160.0
  1
正 面 立 面 図
 72
     4
 11
22487.102566332771
 21
3372.802588999999
 31
0.0
  0
TEXT
  5
F657
  8
2-0
  6
CONTINUOUS
 62
     7
 10
7808.7002624709367
 20
3264.0669070000022
 30
0.0
 40
160.0
  1
側 面 立 面 図
 50
0.000139
 72
     4
 11
8454.0334017217574
 21
3344.0684725833762
 31
0.0
  0
TEXT
  5
F65B
  8
2-0
  6
CONTINUOUS
 62
     7
 10
9805.5255868593831
 20
3291.2638415833758
 30
0.0
 40
160.0
  1
1
 72
     4
 11
9832.1922535260492
 21
3371.2638415833749
 31
0.0
  0
TEXT
  5
F65C
  8
2-0
  6
CONTINUOUS
 62
     7
 10
10048.61430411006
 20
3211.2653095833748
 30
0.0
 40
160.0
  1
80
 72
     4
 11
10168.61430411006
 21
3291.2653095833748
 31
0.0
  0
TEXT
  5
F65D
  8
2-0
  6
CONTINUOUS
 62
     7
 10
9306.5275528593793
 20
3264.0684725833762
 30
0.0
 40
160.0
  1
(S=  /   )
 72
     4
 11
9866.5275528593793
 21
3344.0684725833762
 31
0.0
  0
TEXT
  5
F65E
  8
2-0
  6
CONTINUOUS
 62
     7
 10
23838.594751470391
 20
3319.9979579999999
 30
0.0
 40
160.0
  1
1
 72
     4
 11
23865.261418137059
 21
3399.9979579999999
 31
0.0
  0
TEXT
  5
F65F
  8
2-0
  6
CONTINUOUS
 62
     7
 10
24081.683468721101
 20
3239.9994259999989
 30
0.0
 40
160.0
  1
80
 72
     4
 11
24201.683468721101
 21
3319.9994259999989
 31
0.0
  0
TEXT
  5
F660
  8
2-0
  6
CONTINUOUS
 62
     7
 10
23339.596717470398
 20
3292.802588999999
 30
0.0
 40
160.0
  1
(S=  /   )
 72
     4
 11
23899.596717470398
 21
3372.802588999999
 31
0.0
  0
TEXT
  5
F661
  8
2-0
  6
CONTINUOUS
 62
     7
 10
23977.493587699679
 20
11272.96647766667
 30
0.0
 40
160.0
  1
1
 72
     4
 11
24004.160254366339
 21
11352.96647766667
 31
0.0
  0
TEXT
  5
F662
  8
2-0
  6
CONTINUOUS
 62
     7
 10
24220.58230495036
 20
11192.967945666671
 30
0.0
 40
160.0
  1
80
 72
     4
 11
24340.58230495036
 21
11272.967945666671
 31
0.0
  0
TEXT
  5
F663
  8
2-0
  6
CONTINUOUS
 62
     7
 10
23478.495553699671
 20
11245.77110866666
 30
0.0
 40
160.0
  1
(S=  /   )
 72
     4
 11
24038.495553699671
 21
11325.77110866666
 31
0.0
  0
TEXT
  5
F664
  8
2-0
  6
CONTINUOUS
 62
     7
 10
8690.8053567033367
 20
11184.012371999979
 30
0.0
 40
160.0
  1
1
 72
     4
 11
8717.4720233700027
 21
11264.012371999979
 31
0.0
  0
TEXT
  5
F665
  8
2-0
  6
CONTINUOUS
 62
     7
 10
8933.8940739540321
 20
11104.01383999998
 30
0.0
 40
160.0
  1
80
 72
     4
 11
9053.8940739540303
 21
11184.01383999998
 31
0.0
  0
TEXT
  5
F666
  8
2-0
  6
CONTINUOUS
 62
     7
 10
8191.8073227033346
 20
11156.81700299998
 30
0.0
 40
160.0
  1
(S=  /   )
 72
     4
 11
8751.8073227033346
 21
11236.81700299998
 31
0.0
  0
LINE
  5
F6E0
  8
0-1
  6
CONTINUOUS
 62
     3
 10
19816.006397585181
 20
8132.6883740000021
 30
0.0
 11
22298.50982858516
 21
8132.6883740000021
 31
0.0
  0
LINE
  5
F6E1
  8
0-1
  6
CONTINUOUS
 62
     3
 10
19816.006397585181
 20
8326.1887430000024
 30
0.0
 11
22298.50982858516
 21
8326.1887430000024
 31
0.0
  0
LINE
  5
F6E2
  8
0-1
  6
CONTINUOUS
 62
     3
 10
19688.010092585158
 20
8264.0026619999971
 30
0.0
 11
19688.010092585158
 21
8589.6883999999973
 31
0.0
  0
LINE
  5
F6E3
  8
0-1
  6
CONTINUOUS
 62
     3
 10
22383.50837758516
 20
8459.6884660000014
 30
0.0
 11
19688.010092585158
 21
8459.6884660000014
 31
0.0
  0
LINE
  5
F6E4
  8
0-1
  6
CONTINUOUS
 62
     3
 10
19688.010092585158
 20
8589.6883999999973
 30
0.0
 11
22363.51128058515
 21
8589.6883999999973
 31
0.0
  0
LINE
  5
F6E5
  8
0-1
  6
CONTINUOUS
 62
     3
 10
7680.7332144709508
 20
8152.2344180000064
 30
0.0
 11
7680.7332144709508
 21
6291.1885390000007
 31
0.0
  0
LINE
  5
F6E6
  8
0-1
  6
CONTINUOUS
 62
     3
 10
7643.7350224709498
 20
8152.2344180000064
 30
0.0
 11
7643.7350224709498
 21
6291.1885390000007
 31
0.0
  0
LINE
  5
F6E7
  8
0-1
  6
CONTINUOUS
 62
     3
 10
8380.7325544709456
 20
8152.2344180000064
 30
0.0
 11
8380.7325544709456
 21
6291.1885390000007
 31
0.0
  0
LINE
  5
F6E8
  8
0-1
  6
CONTINUOUS
 62
     3
 10
8343.7343624709465
 20
8152.2344180000064
 30
0.0
 11
8343.7343624709465
 21
6291.1885390000007
 31
0.0
  0
LINE
  5
F6E9
  8
0-1
  6
CONTINUOUS
 62
     3
 10
8002.2327654709388
 20
6291.1885390000007
 30
0.0
 11
8002.2327654709388
 21
8152.2344180000064
 31
0.0
  0
LINE
  5
F6EA
  8
0-1
  6
CONTINUOUS
 62
     3
 10
8022.2338214709553
 20
6291.1885390000007
 30
0.0
 11
8022.2338214709553
 21
8152.2344180000064
 31
0.0
  0
LINE
  5
F6EB
  8
0-1
  6
CONTINUOUS
 62
     3
 10
7952.2340854709473
 20
6291.1885390000007
 30
0.0
 11
7952.2340854709473
 21
8152.2344180000064
 31
0.0
  0
LINE
  5
F6EC
  8
0-1
  6
CONTINUOUS
 62
     3
 10
8072.2334914709509
 20
6291.1885390000007
 30
0.0
 11
8072.2334914709509
 21
8152.2344180000064
 31
0.0
  0
LINE
  5
F6ED
  8
0-1
  6
CONTINUOUS
 62
     3
 10
8205.2333854709432
 20
6291.1885390000007
 30
0.0
 11
8205.2333854709432
 21
8152.2344180000064
 31
0.0
  0
LINE
  5
F6EE
  8
0-1
  6
CONTINUOUS
 62
     3
 10
8220.2331874709489
 20
6291.1885390000007
 30
0.0
 11
8220.2331874709489
 21
8152.2344180000064
 31
0.0
  0
LINE
  5
F6EF
  8
0-1
  6
CONTINUOUS
 62
     3
 10
7819.233200470946
 20
6291.1885390000007
 30
0.0
 11
7819.233200470946
 21
8152.2344180000064
 31
0.0
  0
LINE
  5
F6F0
  8
0-1
  6
CONTINUOUS
 62
     3
 10
7804.2343884709553
 20
6291.1885390000007
 30
0.0
 11
7804.2343884709553
 21
8152.2344180000064
 31
0.0
  0
LINE
  5
F6F1
  8
0-1
  6
CONTINUOUS
 62
     3
 10
7520.2338474709541
 20
6291.1885390000007
 30
0.0
 11
7520.2338474709541
 21
8152.2344180000064
 31
0.0
  0
LINE
  5
F6F2
  8
0-1
  6
CONTINUOUS
 62
     3
 10
7505.233055470947
 20
6291.1885390000007
 30
0.0
 11
7505.233055470947
 21
8152.2344180000064
 31
0.0
  0
LINE
  5
F6F3
  8
0-1
  6
CONTINUOUS
 62
     3
 10
7372.2341514709406
 20
6291.1885390000007
 30
0.0
 11
7372.2341514709406
 21
8152.2344180000064
 31
0.0
  0
LINE
  5
F6F4
  8
0-1
  6
CONTINUOUS
 62
     3
 10
7252.232765470947
 20
6291.1885390000007
 30
0.0
 11
7252.232765470947
 21
8152.2344180000064
 31
0.0
  0
LINE
  5
F6F5
  8
0-1
  6
CONTINUOUS
 62
     3
 10
7322.2354704709569
 20
6291.1885390000007
 30
0.0
 11
7322.2354704709569
 21
8152.2344180000064
 31
0.0
  0
LINE
  5
F6F6
  8
0-1
  6
CONTINUOUS
 62
     3
 10
7302.2344154709572
 20
6291.1885390000007
 30
0.0
 11
7302.2344154709572
 21
8152.2344180000064
 31
0.0
  0
LINE
  5
F6F7
  8
0-1
  6
CONTINUOUS
 62
     3
 10
8504.2327394709428
 20
6291.1885390000007
 30
0.0
 11
8504.2327394709428
 21
8152.2344180000064
 31
0.0
  0
LINE
  5
F6F8
  8
0-1
  6
CONTINUOUS
 62
     3
 10
8519.2335304709577
 20
6291.1885390000007
 30
0.0
 11
8519.2335304709577
 21
8152.2344180000064
 31
0.0
  0
LINE
  5
F6F9
  8
0-1
  6
CONTINUOUS
 62
     3
 10
8652.2344154709572
 20
6291.1885390000007
 30
0.0
 11
8652.2344154709572
 21
8152.2344180000064
 31
0.0
  0
LINE
  5
F6FA
  8
0-1
  6
CONTINUOUS
 62
     3
 10
8920.2335174709515
 20
6291.1885390000007
 30
0.0
 11
8920.2335174709515
 21
8152.2344180000064
 31
0.0
  0
LINE
  5
F6FB
  8
0-1
  6
CONTINUOUS
 62
     3
 10
8905.2347054709553
 20
6291.1885390000007
 30
0.0
 11
8905.2347054709553
 21
8152.2344180000064
 31
0.0
  0
LINE
  5
F6FC
  8
0-1
  6
CONTINUOUS
 62
     3
 10
8772.2338214709453
 20
6291.1885390000007
 30
0.0
 11
8772.2338214709453
 21
8152.2344180000064
 31
0.0
  0
LINE
  5
F6FD
  8
0-1
  6
CONTINUOUS
 62
     3
 10
8722.2341514709406
 20
6291.1885390000007
 30
0.0
 11
8722.2341514709406
 21
8152.2344180000064
 31
0.0
  0
LINE
  5
F6FE
  8
0-1
  6
CONTINUOUS
 62
     3
 10
8702.2350744709547
 20
6291.1885390000007
 30
0.0
 11
8702.2350744709547
 21
8152.2344180000064
 31
0.0
  0
LINE
  5
F6FF
  8
0-1
  6
CONTINUOUS
 62
     3
 10
9530.2340454709465
 20
6291.1885390000007
 30
0.0
 11
9530.2340454709465
 21
8152.2344180000064
 31
0.0
  0
LINE
  5
F700
  8
0-1
  6
CONTINUOUS
 62
     3
 10
9510.2349694709555
 20
6291.1885390000007
 30
0.0
 11
9510.2349694709555
 21
8152.2344180000064
 31
0.0
  0
LINE
  5
F701
  8
0-1
  6
CONTINUOUS
 62
     3
 10
9580.2347054709408
 20
6291.1885390000007
 30
0.0
 11
9580.2347054709408
 21
8152.2344180000064
 31
0.0
  0
LINE
  5
F702
  8
0-1
  6
CONTINUOUS
 62
     3
 10
9460.2343094709522
 20
6291.1885390000007
 30
0.0
 11
9460.2343094709522
 21
8152.2344180000064
 31
0.0
  0
LINE
  5
F703
  8
0-1
  6
CONTINUOUS
 62
     3
 10
9327.2344154709444
 20
6291.1885390000007
 30
0.0
 11
9327.2344154709444
 21
8152.2344180000064
 31
0.0
  0
LINE
  5
F704
  8
0-1
  6
CONTINUOUS
 62
     3
 10
9312.2326334709342
 20
6291.1885390000007
 30
0.0
 11
9312.2326334709342
 21
8152.2344180000064
 31
0.0
  0
LINE
  5
F705
  8
0-1
  6
CONTINUOUS
 62
     3
 10
9713.2345994709485
 20
6291.1885390000007
 30
0.0
 11
9713.2345994709485
 21
8152.2344180000064
 31
0.0
  0
LINE
  5
F706
  8
0-1
  6
CONTINUOUS
 62
     3
 10
9728.2334124709523
 20
6291.1885390000007
 30
0.0
 11
9728.2334124709523
 21
8152.2344180000064
 31
0.0
  0
LINE
  5
F707
  8
0-1
  6
CONTINUOUS
 62
     3
 10
11412.23362347092
 20
6291.1885390000007
 30
0.0
 11
11412.23362347092
 21
8152.2344180000064
 31
0.0
  0
LINE
  5
F708
  8
0-1
  6
CONTINUOUS
 62
     3
 10
11427.23342547094
 20
6291.1885390000007
 30
0.0
 11
11427.23342547094
 21
8152.2344180000064
 31
0.0
  0
LINE
  5
F709
  8
0-1
  6
CONTINUOUS
 62
     3
 10
11560.23430947095
 20
6291.1885390000007
 30
0.0
 11
11560.23430947095
 21
8152.2344180000064
 31
0.0
  0
LINE
  5
F70A
  8
0-1
  6
CONTINUOUS
 62
     3
 10
11680.23371547094
 20
6291.1885390000007
 30
0.0
 11
11680.23371547094
 21
8152.2344180000064
 31
0.0
  0
LINE
  5
F70B
  8
0-1
  6
CONTINUOUS
 62
     3
 10
11610.23496947095
 20
6291.1885390000007
 30
0.0
 11
11610.23496947095
 21
8152.2344180000064
 31
0.0
  0
LINE
  5
F70C
  8
0-1
  6
CONTINUOUS
 62
     3
 10
11630.23404547095
 20
6291.1885390000007
 30
0.0
 11
11630.23404547095
 21
8152.2344180000064
 31
0.0
  0
LINE
  5
F70D
  8
0-1
  6
CONTINUOUS
 62
     3
 10
10930.23470547095
 20
6291.1885390000007
 30
0.0
 11
10930.23470547095
 21
8152.2344180000064
 31
0.0
  0
LINE
  5
F70E
  8
0-1
  6
CONTINUOUS
 62
     3
 10
10910.233649470951
 20
6291.1885390000007
 30
0.0
 11
10910.233649470951
 21
8152.2344180000064
 31
0.0
  0
LINE
  5
F70F
  8
0-1
  6
CONTINUOUS
 62
     3
 10
10980.23338547096
 20
6291.1885390000007
 30
0.0
 11
10980.23338547096
 21
8152.2344180000064
 31
0.0
  0
LINE
  5
F710
  8
0-1
  6
CONTINUOUS
 62
     3
 10
10860.234969470939
 20
6291.1885390000007
 30
0.0
 11
10860.234969470939
 21
8152.2344180000064
 31
0.0
  0
LINE
  5
F711
  8
0-1
  6
CONTINUOUS
 62
     3
 10
10727.23408547094
 20
6291.1885390000007
 30
0.0
 11
10727.23408547094
 21
8152.2344180000064
 31
0.0
  0
LINE
  5
F712
  8
0-1
  6
CONTINUOUS
 62
     3
 10
10712.23428347094
 20
6291.1885390000007
 30
0.0
 11
10712.23428347094
 21
8152.2344180000064
 31
0.0
  0
LINE
  5
F713
  8
0-1
  6
CONTINUOUS
 62
     3
 10
11113.23229047096
 20
6291.1885390000007
 30
0.0
 11
11113.23229047096
 21
8152.2344180000064
 31
0.0
  0
LINE
  5
F714
  8
0-1
  6
CONTINUOUS
 62
     3
 10
11128.23407147095
 20
6291.1885390000007
 30
0.0
 11
11128.23407147095
 21
8152.2344180000064
 31
0.0
  0
LINE
  5
F715
  8
0-1
  6
CONTINUOUS
 62
     3
 10
10428.23473147095
 20
6291.1885390000007
 30
0.0
 11
10428.23473147095
 21
8152.2344180000064
 31
0.0
  0
LINE
  5
F716
  8
0-1
  6
CONTINUOUS
 62
     3
 10
10413.232950470951
 20
6291.1885390000007
 30
0.0
 11
10413.232950470951
 21
8152.2344180000064
 31
0.0
  0
LINE
  5
F717
  8
0-1
  6
CONTINUOUS
 62
     3
 10
10012.23494247095
 20
6291.1885390000007
 30
0.0
 11
10012.23494247095
 21
8152.2344180000064
 31
0.0
  0
LINE
  5
F718
  8
0-1
  6
CONTINUOUS
 62
     3
 10
10027.23375547093
 20
6291.1885390000007
 30
0.0
 11
10027.23375547093
 21
8152.2344180000064
 31
0.0
  0
LINE
  5
F719
  8
0-1
  6
CONTINUOUS
 62
     3
 10
10160.232659470959
 20
6291.1885390000007
 30
0.0
 11
10160.232659470959
 21
8152.2344180000064
 31
0.0
  0
LINE
  5
F71A
  8
0-1
  6
CONTINUOUS
 62
     3
 10
10280.23404547095
 20
6291.1885390000007
 30
0.0
 11
10280.23404547095
 21
8152.2344180000064
 31
0.0
  0
LINE
  5
F71B
  8
0-1
  6
CONTINUOUS
 62
     3
 10
10210.23430947093
 20
6291.1885390000007
 30
0.0
 11
10210.23430947093
 21
8152.2344180000064
 31
0.0
  0
LINE
  5
F71C
  8
0-1
  6
CONTINUOUS
 62
     3
 10
10230.23338547095
 20
6291.1885390000007
 30
0.0
 11
10230.23338547095
 21
8152.2344180000064
 31
0.0
  0
LINE
  5
F71D
  8
0-1
  6
CONTINUOUS
 62
     3
 10
9888.7347584709532
 20
8152.2344180000064
 30
0.0
 11
9888.7347584709532
 21
6291.1885390000007
 31
0.0
  0
LINE
  5
F71E
  8
0-1
  6
CONTINUOUS
 62
     3
 10
9851.7335964709491
 20
8152.2344180000064
 30
0.0
 11
9851.7335964709491
 21
6291.1885390000007
 31
0.0
  0
LINE
  5
F71F
  8
0-1
  6
CONTINUOUS
 62
     3
 10
11288.73244847095
 20
8152.2344180000064
 30
0.0
 11
11288.73244847095
 21
6291.1885390000007
 31
0.0
  0
LINE
  5
F720
  8
0-1
  6
CONTINUOUS
 62
     3
 10
11251.733266470939
 20
8152.2344180000064
 30
0.0
 11
11251.733266470939
 21
6291.1885390000007
 31
0.0
  0
LINE
  5
F721
  8
0-1
  6
CONTINUOUS
 62
     3
 10
10588.734098470941
 20
8152.2344180000064
 30
0.0
 11
10588.734098470941
 21
6291.1885390000007
 31
0.0
  0
LINE
  5
F722
  8
0-1
  6
CONTINUOUS
 62
     3
 10
10551.733926470941
 20
8152.2344180000064
 30
0.0
 11
10551.733926470941
 21
6291.1885390000007
 31
0.0
  0
LINE
  5
F723
  8
0-1
  6
CONTINUOUS
 62
     3
 10
22391.00877358517
 20
6241.1883740000021
 30
0.0
 11
22291.009432585161
 21
6241.1883740000021
 31
0.0
  0
LINE
  5
F724
  8
0-1
  6
CONTINUOUS
 62
     3
 10
22291.009432585161
 20
6241.1883740000021
 30
0.0
 11
22291.009432585161
 21
6141.1885390000007
 31
0.0
  0
LINE
  5
F725
  8
0-1
  6
CONTINUOUS
 62
     3
 10
22391.00877358517
 20
6141.1885390000007
 30
0.0
 11
22391.00877358517
 21
6241.1883740000021
 31
0.0
  0
LINE
  5
F726
  8
0-1
  6
CONTINUOUS
 62
     3
 10
22298.50982858516
 20
8459.6884660000014
 30
0.0
 11
22298.50982858516
 21
6241.1883740000021
 31
0.0
  0
LINE
  5
F727
  8
0-1
  6
CONTINUOUS
 62
     3
 10
22247.010092585158
 20
8132.6883740000021
 30
0.0
 11
22247.010092585158
 21
6141.1885390000007
 31
0.0
  0
LINE
  5
F728
  8
0-1
  6
CONTINUOUS
 62
     3
 10
22363.51128058515
 20
8589.6883999999973
 30
0.0
 11
22363.51128058515
 21
6241.1883740000021
 31
0.0
  0
LINE
  5
F729
  8
0-1
  6
CONTINUOUS
 62
     3
 10
22383.510092585158
 20
8459.6884660000014
 30
0.0
 11
22383.510092585158
 21
6241.1883740000021
 31
0.0
  0
LINE
  5
F72A
  8
0-1
  6
CONTINUOUS
 62
     3
 10
19688.010092585158
 20
8264.0026619999971
 30
0.0
 11
19731.010092585158
 21
8264.0026619999971
 31
0.0
  0
LINE
  5
F72B
  8
0-1
  6
CONTINUOUS
 62
     3
 10
19723.50745358516
 20
6241.1883740000021
 30
0.0
 11
19823.506793585169
 21
6241.1883740000021
 31
0.0
  0
LINE
  5
F72C
  8
0-1
  6
CONTINUOUS
 62
     3
 10
19823.506793585169
 20
6241.1883740000021
 30
0.0
 11
19823.506793585169
 21
6141.1885390000007
 31
0.0
  0
LINE
  5
F72D
  8
0-1
  6
CONTINUOUS
 62
     3
 10
19723.50745358516
 20
6141.1885390000007
 30
0.0
 11
19723.50745358516
 21
6241.1883740000021
 31
0.0
  0
LINE
  5
F72E
  8
0-1
  6
CONTINUOUS
 62
     3
 10
19867.510092585158
 20
8132.6883740000021
 30
0.0
 11
19867.510092585158
 21
6141.1885390000007
 31
0.0
  0
LINE
  5
F72F
  8
0-1
  6
CONTINUOUS
 62
     3
 10
19816.006397585181
 20
8459.6884660000014
 30
0.0
 11
19816.006397585181
 21
6241.1883740000021
 31
0.0
  0
LINE
  5
F730
  8
0-1
  6
CONTINUOUS
 62
     3
 10
19751.006925585149
 20
8589.6883999999973
 30
0.0
 11
19751.006925585149
 21
6241.1883740000021
 31
0.0
  0
LINE
  5
F731
  8
0-1
  6
CONTINUOUS
 62
     3
 10
19731.010092585158
 20
8459.6884660000014
 30
0.0
 11
19731.010092585158
 21
6241.1883740000021
 31
0.0
  0
LINE
  5
F732
  8
0-1
  6
CONTINUOUS
 62
     3
 10
12089.23357047094
 20
6241.1883740000021
 30
0.0
 11
12089.23357047094
 21
6141.1885390000007
 31
0.0
  0
LINE
  5
F733
  8
0-1
  6
CONTINUOUS
 62
     3
 10
12056.73277947094
 20
8455.5174490000027
 30
0.0
 11
12056.73277947094
 21
6241.1883740000021
 31
0.0
  0
LINE
  5
F734
  8
0-1
  6
CONTINUOUS
 62
     3
 10
12076.73357047094
 20
8456.0984379999973
 30
0.0
 11
12076.73357047094
 21
6241.1883740000021
 31
0.0
  0
LINE
  5
F735
  8
0-1
  6
CONTINUOUS
 62
     3
 10
11961.73370247093
 20
8152.2344180000064
 30
0.0
 11
11961.73370247093
 21
6241.1883740000021
 31
0.0
  0
LINE
  5
F736
  8
0-1
  6
CONTINUOUS
 62
     3
 10
9116.2335704709403
 20
8356.9898809999977
 30
0.0
 11
9116.2335704709403
 21
8152.2344180000064
 31
0.0
  0
LINE
  5
F737
  8
0-1
  6
CONTINUOUS
 62
     3
 10
9043.7337024709577
 20
8152.2344180000064
 30
0.0
 11
9043.7337024709577
 21
6241.1883740000021
 31
0.0
  0
LINE
  5
F738
  8
0-1
  6
CONTINUOUS
 62
     3
 10
9188.7324484709425
 20
8152.2344180000064
 30
0.0
 11
9188.7324484709425
 21
6241.1883740000021
 31
0.0
  0
LINE
  5
F739
  8
0-1
  6
CONTINUOUS
 62
     3
 10
9188.7324484709425
 20
6291.1885390000007
 30
0.0
 11
11961.73370247093
 21
6291.1885390000007
 31
0.0
  0
LINE
  5
F73A
  8
0-1
  6
CONTINUOUS
 62
     3
 10
19867.510092585158
 20
6661.1892649999991
 30
0.0
 11
22247.010092585158
 21
6661.1892649999991
 31
0.0
  0
LINE
  5
F73B
  8
0-1
  6
CONTINUOUS
 62
     3
 10
19867.510092585158
 20
6596.1888030000027
 30
0.0
 11
22247.010092585158
 21
6596.1888030000027
 31
0.0
  0
LINE
  5
F73C
  8
0-1
  6
CONTINUOUS
 62
     3
 10
19867.510092585158
 20
6531.1888360000003
 30
0.0
 11
22247.010092585158
 21
6531.1888360000003
 31
0.0
  0
LINE
  5
F73D
  8
0-1
  6
CONTINUOUS
 62
     3
 10
19867.510092585158
 20
6466.1883740000039
 30
0.0
 11
22247.010092585158
 21
6466.1883740000039
 31
0.0
  0
LINE
  5
F73E
  8
0-1
  6
CONTINUOUS
 62
     3
 10
19867.510092585158
 20
6401.1889020000071
 30
0.0
 11
22247.010092585158
 21
6401.1889020000071
 31
0.0
  0
LINE
  5
F73F
  8
0-1
  6
CONTINUOUS
 62
     3
 10
19867.510092585158
 20
6336.1889349999956
 30
0.0
 11
22247.010092585158
 21
6336.1889349999956
 31
0.0
  0
LINE
  5
F740
  8
0-1
  6
CONTINUOUS
 62
     3
 10
19867.510092585158
 20
6271.1889680000004
 30
0.0
 11
22247.010092585158
 21
6271.1889680000004
 31
0.0
  0
LINE
  5
F741
  8
0-1
  6
CONTINUOUS
 62
     3
 10
19867.510092585158
 20
6206.1885060000041
 30
0.0
 11
22247.010092585158
 21
6206.1885060000041
 31
0.0
  0
LINE
  5
F742
  8
0-1
  6
CONTINUOUS
 62
     3
 10
19867.510092585158
 20
8026.1885719999982
 30
0.0
 11
22247.010092585158
 21
8026.1885719999982
 31
0.0
  0
LINE
  5
F743
  8
0-1
  6
CONTINUOUS
 62
     3
 10
19867.510092585158
 20
7961.1886050000021
 30
0.0
 11
22247.010092585158
 21
7961.1886050000021
 31
0.0
  0
LINE
  5
F744
  8
0-1
  6
CONTINUOUS
 62
     3
 10
19867.510092585158
 20
7896.1891330000062
 30
0.0
 11
22247.010092585158
 21
7896.1891330000062
 31
0.0
  0
LINE
  5
F745
  8
0-1
  6
CONTINUOUS
 62
     3
 10
19867.510092585158
 20
7831.1891659999937
 30
0.0
 11
22247.010092585158
 21
7831.1891659999937
 31
0.0
  0
LINE
  5
F746
  8
0-1
  6
CONTINUOUS
 62
     3
 10
19867.510092585158
 20
7766.1891989999967
 30
0.0
 11
22247.010092585158
 21
7766.1891989999967
 31
0.0
  0
LINE
  5
F747
  8
0-1
  6
CONTINUOUS
 62
     3
 10
19867.510092585158
 20
7701.1887370000022
 30
0.0
 11
22247.010092585158
 21
7701.1887370000022
 31
0.0
  0
LINE
  5
F748
  8
0-1
  6
CONTINUOUS
 62
     3
 10
19867.510092585158
 20
7636.1887699999979
 30
0.0
 11
22247.010092585158
 21
7636.1887699999979
 31
0.0
  0
LINE
  5
F749
  8
0-1
  6
CONTINUOUS
 62
     3
 10
19867.510092585158
 20
7571.1892980000011
 30
0.0
 11
22247.010092585158
 21
7571.1892980000011
 31
0.0
  0
LINE
  5
F74A
  8
0-1
  6
CONTINUOUS
 62
     3
 10
19867.510092585158
 20
7506.1893309999978
 30
0.0
 11
22247.010092585158
 21
7506.1893309999978
 31
0.0
  0
LINE
  5
F74B
  8
0-1
  6
CONTINUOUS
 62
     3
 10
19867.510092585158
 20
7441.1888690000023
 30
0.0
 11
22247.010092585158
 21
7441.1888690000023
 31
0.0
  0
LINE
  5
F74C
  8
0-1
  6
CONTINUOUS
 62
     3
 10
19867.510092585158
 20
7376.188901999999
 30
0.0
 11
22247.010092585158
 21
7376.188901999999
 31
0.0
  0
LINE
  5
F74D
  8
0-1
  6
CONTINUOUS
 62
     3
 10
19867.510092585158
 20
7311.1889350000029
 30
0.0
 11
22247.010092585158
 21
7311.1889350000029
 31
0.0
  0
LINE
  5
F74E
  8
0-1
  6
CONTINUOUS
 62
     3
 10
19867.510092585158
 20
7246.1884730000029
 30
0.0
 11
22247.010092585158
 21
7246.1884730000029
 31
0.0
  0
LINE
  5
F74F
  8
0-1
  6
CONTINUOUS
 62
     3
 10
19867.510092585158
 20
7181.1885060000041
 30
0.0
 11
22247.010092585158
 21
7181.1885060000041
 31
0.0
  0
LINE
  5
F750
  8
0-1
  6
CONTINUOUS
 62
     3
 10
19867.510092585158
 20
7116.1890340000009
 30
0.0
 11
22247.010092585158
 21
7116.1890340000009
 31
0.0
  0
LINE
  5
F751
  8
0-1
  6
CONTINUOUS
 62
     3
 10
19867.510092585158
 20
7051.1890669999966
 30
0.0
 11
22247.010092585158
 21
7051.1890669999966
 31
0.0
  0
LINE
  5
F752
  8
0-1
  6
CONTINUOUS
 62
     3
 10
19867.510092585158
 20
6986.1891000000032
 30
0.0
 11
22247.010092585158
 21
6986.1891000000032
 31
0.0
  0
LINE
  5
F753
  8
0-1
  6
CONTINUOUS
 62
     3
 10
19867.510092585158
 20
6921.1886380000051
 30
0.0
 11
22247.010092585158
 21
6921.1886380000051
 31
0.0
  0
LINE
  5
F754
  8
0-1
  6
CONTINUOUS
 62
     3
 10
19867.510092585158
 20
6856.1886710000017
 30
0.0
 11
22247.010092585158
 21
6856.1886710000017
 31
0.0
  0
LINE
  5
F755
  8
0-1
  6
CONTINUOUS
 62
     3
 10
19867.510092585158
 20
6791.1891989999967
 30
0.0
 11
22247.010092585158
 21
6791.1891989999967
 31
0.0
  0
LINE
  5
F756
  8
0-1
  6
CONTINUOUS
 62
     3
 10
19867.510092585158
 20
6726.1892320000024
 30
0.0
 11
22247.010092585158
 21
6726.1892320000024
 31
0.0
  0
LINE
  5
F757
  8
0-1
  6
CONTINUOUS
 62
     3
 10
19867.510092585158
 20
8080.6485920000023
 30
0.0
 11
22247.010092585158
 21
8080.6485920000023
 31
0.0
  0
LINE
  5
F758
  8
0-1
  6
CONTINUOUS
 62
     3
 10
19723.50745358516
 20
6141.1885390000007
 30
0.0
 11
27952.488468710359
 21
6141.1885390000007
 31
0.0
  0
LINE
  5
F759
  8
0-1
  6
CONTINUOUS
 62
     3
 10
6498.7335704709412
 20
6141.1885390000007
 30
0.0
 11
6498.7335704709412
 21
6241.1883740000021
 31
0.0
  0
LINE
  5
F75A
  8
0-1
  6
CONTINUOUS
 62
     3
 10
6526.2333724709461
 20
8268.990877000002
 30
0.0
 11
6526.2333724709461
 21
6241.1883740000021
 31
0.0
  0
LINE
  5
F75B
  8
0-1
  6
CONTINUOUS
 62
     3
 10
6506.2335704709376
 20
8268.3741496838102
 30
0.0
 11
6506.2335704709376
 21
6241.1883740000021
 31
0.0
  0
LINE
  5
F75C
  8
0-1
  6
CONTINUOUS
 62
     3
 10
6498.7335704709412
 20
6241.1883740000021
 30
0.0
 11
12089.23357047094
 21
6241.1883740000021
 31
0.0
  0
LINE
  5
F75D
  8
0-1
  6
CONTINUOUS
 62
     3
 10
6621.2324494709464
 20
6291.1885390000007
 30
0.0
 11
9043.7337024709577
 21
6291.1885390000007
 31
0.0
  0
LINE
  5
F75E
  8
0-1
  6
CONTINUOUS
 62
     3
 10
5816.2325154709397
 20
6141.1885390000007
 30
0.0
 11
12089.23357047094
 21
6141.1885390000007
 31
0.0
  0
LINE
  5
F75F
  8
0-1
  6
CONTINUOUS
 62
     3
 10
6526.2333724709461
 20
8152.2344180000064
 30
0.0
 11
12056.73277947094
 21
8152.2344180000064
 31
0.0
  0
LINE
  5
F760
  8
0-1
  6
CONTINUOUS
 62
     3
 10
19842.009353585181
 20
8335.1891200000064
 30
0.0
 11
20119.438883585171
 21
8335.1891200000064
 31
0.0
  0
LINE
  5
F761
  8
0-1
  6
CONTINUOUS
 62
     3
 10
19842.009353585181
 20
8377.1885650000022
 30
0.0
 11
20151.435821585172
 21
8377.1885650000022
 31
0.0
  0
LINE
  5
F762
  8
0-1
  6
CONTINUOUS
 62
     3
 10
19837.009090585161
 20
8340.1888889999937
 30
0.0
 11
19837.009090585161
 21
8372.1892910000006
 31
0.0
  0
LINE
  5
F763
  8
0-1
  6
CONTINUOUS
 62
     3
 10
19816.006397585181
 20
8386.1884470000077
 30
0.0
 11
22298.50982858516
 21
8386.1884470000077
 31
0.0
  0
LINE
  5
F764
  8
0-1
  6
CONTINUOUS
 62
     3
 10
20122.97232358516
 20
8336.6529740000005
 30
0.0
 11
20154.973221585169
 21
8368.653376000002
 31
0.0
  0
LINE
  5
F765
  8
0-1
  6
CONTINUOUS
 62
     3
 10
19837.009090585161
 20
8368.7889730000006
 30
0.0
 11
20155.101889585148
 21
8368.7889730000006
 31
0.0
  0
LINE
  5
F766
  8
0-1
  6
CONTINUOUS
 62
     3
 10
19837.009090585161
 20
8360.3888860000006
 30
0.0
 11
20146.708731585171
 21
8360.3888860000006
 31
0.0
  0
LINE
  5
F767
  8
0-1
  6
CONTINUOUS
 62
     3
 10
19837.009090585161
 20
8351.9892939999972
 30
0.0
 11
20138.309633585159
 21
8351.9892939999972
 31
0.0
  0
LINE
  5
F768
  8
0-1
  6
CONTINUOUS
 62
     3
 10
19837.009090585161
 20
8343.5892070000027
 30
0.0
 11
20129.906577585181
 21
8343.5892070000027
 31
0.0
  0
LINE
  5
F769
  8
0-1
  6
CONTINUOUS
 62
     3
 10
22277.50911658517
 20
8368.7889730000006
 30
0.0
 11
21959.416316585161
 21
8368.7889730000006
 31
0.0
  0
LINE
  5
F76A
  8
0-1
  6
CONTINUOUS
 62
     3
 10
22277.50911658517
 20
8360.3888860000006
 30
0.0
 11
21967.81145458516
 21
8360.3888860000006
 31
0.0
  0
LINE
  5
F76B
  8
0-1
  6
CONTINUOUS
 62
     3
 10
22277.50911658517
 20
8351.9892939999972
 30
0.0
 11
21976.210551585162
 21
8351.9892939999972
 31
0.0
  0
LINE
  5
F76C
  8
0-1
  6
CONTINUOUS
 62
     3
 10
22277.50911658517
 20
8343.5892070000027
 30
0.0
 11
21984.609649585149
 21
8343.5892070000027
 31
0.0
  0
LINE
  5
F76D
  8
0-1
  6
CONTINUOUS
 62
     3
 10
22272.50885258515
 20
8377.1885650000022
 30
0.0
 11
21963.082384585159
 21
8377.1885650000022
 31
0.0
  0
LINE
  5
F76E
  8
0-1
  6
CONTINUOUS
 62
     3
 10
22272.50885258515
 20
8335.1891200000064
 30
0.0
 11
21995.07932358516
 21
8335.1891200000064
 31
0.0
  0
LINE
  5
F76F
  8
0-1
  6
CONTINUOUS
 62
     3
 10
22277.50911658517
 20
8340.1888889999937
 30
0.0
 11
22277.50911658517
 21
8372.1892910000006
 31
0.0
  0
LINE
  5
F770
  8
0-1
  6
CONTINUOUS
 62
     3
 10
21991.54390258517
 20
8336.6529740000005
 30
0.0
 11
21959.54696458517
 21
8368.653376000002
 31
0.0
  0
LINE
  5
F771
  8
0-1
  6
CONTINUOUS
 62
     3
 10
6331.9317464709457
 20
8303.1736990000027
 30
0.0
 11
12162.42323547094
 21
8498.6897600000066
 31
0.0
  0
LINE
  5
F772
  8
0-1
  6
CONTINUOUS
 62
     3
 10
12160.922760470939
 20
8548.6686450000016
 30
0.0
 11
6330.432261470939
 21
8353.151595000003
 31
0.0
  0
LINE
  5
F773
  8
0-1
  6
CONTINUOUS
 62
     3
 10
6327.3422334709458
 20
8356.0604969999968
 30
0.0
 11
6326.3821664709376
 21
8388.0460529999982
 31
0.0
  0
LINE
  5
F774
  8
0-1
  6
CONTINUOUS
 62
     3
 10
6331.2309974709488
 20
8393.1932959999976
 30
0.0
 11
12180.69221247094
 21
8589.2804480000032
 31
0.0
  0
LINE
  5
F775
  8
0-1
  6
CONTINUOUS
 62
     3
 10
12184.59681247094
 20
8459.338910000004
 30
0.0
 11
6335.1316384709498
 21
8263.2522529999969
 31
0.0
  0
LINE
  5
F776
  8
0-1
  6
CONTINUOUS
 62
     3
 10
6329.9839004709484
 20
8268.099599000001
 30
0.0
 11
6329.0248234709443
 21
8300.0856499999973
 31
0.0
  0
LINE
  5
F777
  8
0-1
  6
CONTINUOUS
 62
     3
 10
6328.6932544709407
 20
8311.0803909999977
 30
0.0
 11
6327.6728124709489
 21
8345.0647660000086
 31
0.0
  0
LINE
  5
F778
  8
0-1
  6
CONTINUOUS
 62
     3
 10
6330.5817154709521
 20
8348.1538049999999
 30
0.0
 11
12161.074193470929
 21
8543.6713500000023
 31
0.0
  0
LINE
  5
F779
  8
0-1
  6
CONTINUOUS
 62
     3
 10
12162.27378147094
 20
8503.6880440000004
 30
0.0
 11
6331.7832834709398
 21
8308.1719839999969
 31
0.0
  0
LINE
  5
F77A
  8
0-1
  6
CONTINUOUS
 62
     3
 10
9116.2335704709403
 20
8356.9898809999977
 30
0.0
 11
9112.3309494709574
 21
8486.9314189999968
 31
0.0
  0
LINE
  5
F77B
  8
0-1
  6
CONTINUOUS
 62
     3
 10
12151.62991047094
 20
8458.3481610000017
 30
0.0
 11
12147.728279470941
 21
8588.2896989999972
 31
0.0
  0
LINE
  5
F77C
  8
0-1
  6
CONTINUOUS
 62
     3
 10
6343.7237394709446
 20
8393.5684149999979
 30
0.0
 11
6347.6263604709457
 21
8263.6273720000008
 31
0.0
  0
LINE
  5
F77D
  8
0-2
  6
CONTINUOUS
 62
     4
 10
21420.948133085159
 20
6888.4152330000052
 30
0.0
 11
21320.948793085161
 21
6888.4152330000052
 31
0.0
  0
LINE
  5
F77E
  8
0-2
  6
CONTINUOUS
 62
     4
 10
20693.564133085169
 20
6888.4152330000052
 30
0.0
 11
20793.563473085149
 21
6888.4152330000052
 31
0.0
  0
LINE
  5
F77F
  8
0-5
  6
CONTINUOUS
 62
     4
 10
22341.010092585158
 20
4461.1889349999938
 30
0.0
 11
22341.010092585158
 21
4301.1893970000001
 31
0.0
  0
LINE
  5
F780
  8
0-5
  6
CONTINUOUS
 62
     4
 10
17551.63707258517
 20
6349.0350210000024
 30
0.0
 11
17671.635488585162
 21
6141.1885390000007
 31
0.0
  0
LINE
  5
F781
  8
0-5
  6
CONTINUOUS
 62
     4
 10
13794.318558470941
 20
6241.1883740000021
 30
0.0
 11
13914.31895447094
 21
6449.0353509999959
 31
0.0
  0
LINE
  5
F782
  8
0-5
  6
CONTINUOUS
 62
     4
 10
13674.32014147094
 20
6449.0353509999959
 30
0.0
 11
13794.318558470941
 21
6241.1883740000021
 31
0.0
  0
LINE
  5
F783
  8
0-5
  6
CONTINUOUS
 62
     4
 10
13914.31895447094
 20
6449.0353509999959
 30
0.0
 11
13674.32014147094
 21
6449.0353509999959
 31
0.0
  0
LINE
  5
F784
  8
0-5
  6
CONTINUOUS
 62
     4
 10
12169.23086547093
 20
6241.1883740000021
 30
0.0
 11
13886.69675147093
 21
6241.1883740000021
 31
0.0
  0
LINE
  5
F785
  8
0-5
  6
CONTINUOUS
 62
     4
 10
12169.23086547093
 20
6141.1885390000007
 30
0.0
 11
19643.509169585159
 21
6141.1885390000007
 31
0.0
  0
LINE
  5
F786
  8
0-5
  6
CONTINUOUS
 62
     4
 10
17671.635488585162
 20
6141.1885390000007
 30
0.0
 11
17791.635884585161
 21
6349.0350210000024
 31
0.0
  0
LINE
  5
F787
  8
0-5
  6
CONTINUOUS
 62
     4
 10
17791.635884585161
 20
6349.0350210000024
 30
0.0
 11
17551.63707258517
 21
6349.0350210000024
 31
0.0
  0
LINE
  5
F788
  8
0-5
  6
CONTINUOUS
 62
     4
 10
19773.510092585158
 20
4461.1889349999938
 30
0.0
 11
19773.510092585158
 21
4301.1893970000001
 31
0.0
  0
LINE
  5
F789
  8
0-5
  6
CONTINUOUS
 62
     4
 10
12034.23357047094
 20
4461.1889349999938
 30
0.0
 11
12034.23357047094
 21
4301.1893970000001
 31
0.0
  0
LINE
  5
F78A
  8
0-5
  6
CONTINUOUS
 62
     4
 10
9116.2335704709403
 20
4461.1889349999938
 30
0.0
 11
9116.2335704709403
 21
4301.1893970000001
 31
0.0
  0
LINE
  5
F78B
  8
0-5
  6
CONTINUOUS
 62
     4
 10
6548.7335704709412
 20
4461.1889349999938
 30
0.0
 11
6548.7335704709412
 21
4301.1893970000001
 31
0.0
  0
LINE
  5
F78C
  8
2-0
  6
CENTER2
 62
     6
 10
22341.010092585158
 20
5878.536116000002
 30
0.0
 11
22341.010092585158
 21
6915.6791430000003
 31
0.0
  0
LINE
  5
F78D
  8
2-0
  6
CENTER2
 62
     6
 10
19773.510092585158
 20
5878.536116000002
 30
0.0
 11
19773.510092585158
 21
6915.6791430000003
 31
0.0
  0
LINE
  5
F78E
  8
2-0
  6
CENTER2
 62
     6
 10
12034.23357047094
 20
5878.536116000002
 30
0.0
 11
12034.23357047094
 21
6935.6787139999988
 31
0.0
  0
LINE
  5
F78F
  8
2-0
  6
CENTER2
 62
     6
 10
9116.2335704709403
 20
5878.536116000002
 30
0.0
 11
9116.2335704709403
 21
6935.6787139999988
 31
0.0
  0
LINE
  5
F790
  8
2-0
  6
CENTER2
 62
     6
 10
6548.7335704709412
 20
5878.536116000002
 30
0.0
 11
6548.7335704709412
 21
6935.6787139999988
 31
0.0
  0
ARC
  5
F791
  8
0-1
  6
CONTINUOUS
 62
     3
 10
19842.009353585181
 20
8372.1892910000006
 30
0.0
 40
5.0
 50
90.0
 51
180.0
  0
ARC
  5
F792
  8
0-1
  6
CONTINUOUS
 62
     3
 10
19842.009353585181
 20
8340.1888889999937
 30
0.0
 40
5.0
 50
180.0
 51
269.9999850001808
  0
ARC
  5
F793
  8
0-1
  6
CONTINUOUS
 62
     3
 10
20119.438883585171
 20
8340.1888889999937
 30
0.0
 40
5.0
 50
269.9999850001808
 51
314.9999850002792
  0
ARC
  5
F794
  8
0-1
  6
CONTINUOUS
 62
     3
 10
20151.435821585172
 20
8372.1892910000006
 30
0.0
 40
5.0
 50
314.9999850002792
 51
90.0
  0
ARC
  5
F795
  8
0-1
  6
CONTINUOUS
 62
     3
 10
22272.50885258515
 20
8340.1888889999937
 30
0.0
 40
5.0
 50
269.9999850001808
 51
0.0
  0
ARC
  5
F796
  8
0-1
  6
CONTINUOUS
 62
     3
 10
22272.50885258515
 20
8372.1892910000006
 30
0.0
 40
5.0
 50
0.0
 51
90.0
  0
ARC
  5
F797
  8
0-1
  6
CONTINUOUS
 62
     3
 10
21963.082384585159
 20
8372.1892910000006
 30
0.0
 40
5.0
 50
90.0
 51
224.9999849999752
  0
ARC
  5
F798
  8
0-1
  6
CONTINUOUS
 62
     3
 10
21995.07932358516
 20
8340.1888889999937
 30
0.0
 40
5.0
 50
224.9999849999752
 51
269.9999850001808
  0
ARC
  5
F799
  8
0-1
  6
CONTINUOUS
 62
     3
 10
12161.67299747094
 20
8523.680191999998
 30
0.0
 40
24.999998999999999
 50
271.71998600002598
 51
91.719986000025997
  0
ARC
  5
F79A
  8
0-1
  6
CONTINUOUS
 62
     3
 10
6330.3421934709459
 20
8356.1505650000017
 30
0.0
 40
3.0
 50
181.71998600001371
 51
271.71998600002598
  0
ARC
  5
F79B
  8
0-1
  6
CONTINUOUS
 62
     3
 10
6331.3794614709477
 20
8388.1955070000022
 30
0.0
 40
5.0
 50
91.719986000025997
 51
181.71998600001371
  0
ARC
  5
F79C
  8
0-1
  6
CONTINUOUS
 62
     3
 10
12156.675703470921
 20
8523.5297490000066
 30
0.0
 40
69.999999000000003
 50
293.50677499978701
 51
69.933196999905391
  0
ARC
  5
F79D
  8
0-1
  6
CONTINUOUS
 62
     3
 10
6334.9831744709518
 20
8268.2500430000073
 30
0.0
 40
5.0
 50
181.71998600001371
 51
271.71998600002598
  0
ARC
  5
F79E
  8
0-1
  6
CONTINUOUS
 62
     3
 10
6332.0218154709437
 20
8300.1752229999984
 30
0.0
 40
3.0
 50
91.719986000025997
 51
181.71998600001371
  0
ARC
  5
F79F
  8
0-1
  6
CONTINUOUS
 62
     3
 10
6332.0059784709447
 20
8350.697981000003
 30
0.0
 40
2.5
 50
271.71998600002598
 51
91.719986000025997
  0
ARC
  5
F7A0
  8
0-1
  6
CONTINUOUS
 62
     3
 10
6333.3560104709459
 20
8305.7178750000003
 30
0.0
 40
2.5
 50
271.71998600002598
 51
91.719986000025997
  0
ARC
  5
F7A1
  8
0-1
  6
CONTINUOUS
 62
     3
 10
6330.6717834709416
 20
8345.1553289999974
 30
0.0
 40
3.0
 50
91.719986000025997
 51
181.71998600001371
  0
ARC
  5
F7A2
  8
0-1
  6
CONTINUOUS
 62
     3
 10
12161.67299747094
 20
8523.680191999998
 30
0.0
 40
20.0
 50
271.71998600002598
 51
91.719986000025997
  0
ARC
  5
F7A3
  8
0-1
  6
CONTINUOUS
 62
     3
 10
6331.6922254709416
 20
8311.1699640000006
 30
0.0
 40
3.0
 50
181.71998600001371
 51
271.71998600002598
  0
CIRCLE
  5
F7A4
  8
0-5
  6
CONTINUOUS
 62
     4
 10
22341.010092585158
 20
4101.1882420000011
 30
0.0
 40
199.9999949999999
  0
CIRCLE
  5
F7A5
  8
0-5
  6
CONTINUOUS
 62
     4
 10
9116.2335704709403
 20
4101.1882420000011
 30
0.0
 40
199.9999949999999
  0
CIRCLE
  5
F7A6
  8
0-5
  6
CONTINUOUS
 62
     4
 10
12034.23357047094
 20
4101.1882420000011
 30
0.0
 40
199.9999949999999
  0
CIRCLE
  5
F7A7
  8
0-5
  6
CONTINUOUS
 62
     4
 10
19773.510092585158
 20
4101.1882420000011
 30
0.0
 40
199.9999949999999
  0
CIRCLE
  5
F7A8
  8
0-5
  6
CONTINUOUS
 62
     4
 10
6548.7335704709412
 20
4101.1882420000011
 30
0.0
 40
199.9999949999999
  0
TEXT
  5
F7A9
  8
0-5
  6
CONTINUOUS
 62
     7
 10
22289.097217585149
 20
4011.7132600000009
 30
0.0
 40
160.0
  1
2
 72
     4
 11
22342.430550918481
 21
4091.7132600000009
 31
0.0
  0
TEXT
  5
F7AA
  8
0-5
  6
CONTINUOUS
 62
     7
 10
19163.509565585169
 20
6988.0104361594431
 30
0.0
 40
160.0
  1
(2131.5)
 50
90.0
 72
     4
 11
19083.509565585169
 21
7441.3437694927761
 31
0.0
  0
TEXT
  5
F7AB
  8
0-5
  6
CONTINUOUS
 62
     7
 10
13335.226629470941
 20
6529.0346249999966
 30
0.0
 40
160.0
  1
布基礎天端
 72
     4
 11
13793.89329613761
 21
6609.0346249999984
 31
0.0
  0
TEXT
  5
F7AC
  8
0-5
  6
CONTINUOUS
 62
     7
 10
17551.63707258517
 20
6429.0347900000024
 30
0.0
 40
160.0
  1
G.L
 72
     4
 11
17711.63707258517
 21
6509.0347900000043
 31
0.0
  0
TEXT
  5
F7AD
  8
0-5
  6
CONTINUOUS
 62
     7
 10
19721.597218585161
 20
4011.7132600000009
 30
0.0
 40
160.0
  1
1
 72
     4
 11
19748.263885251828
 21
4091.7132600000009
 31
0.0
  0
TEXT
  5
F7AE
  8
0-5
  6
CONTINUOUS
 62
     7
 10
11987.277410470941
 20
4017.9774460000021
 30
0.0
 40
160.0
  1
A
 72
     4
 11
12040.61074380428
 21
4097.9774460000026
 31
0.0
  0
TEXT
  5
F7AF
  8
0-5
  6
CONTINUOUS
 62
     7
 10
9069.2774104709424
 20
4017.9774460000021
 30
0.0
 40
160.0
  1
B
 72
     4
 11
9122.6107438042745
 21
4097.9774460000026
 31
0.0
  0
TEXT
  5
F7B0
  8
0-5
  6
CONTINUOUS
 62
     7
 10
6501.7774104709488
 20
4017.9774460000021
 30
0.0
 40
160.0
  1
C
 72
     4
 11
6555.1107438042818
 21
4097.9774460000026
 31
0.0
  0
CIRCLE
  5
F7B1
  8
0-4
  6
CONTINUOUS
 62
     4
 10
21057.258113085161
 20
6627.2449749999987
 30
0.0
 40
18.487504999999981
  0
LINE
  5
F7B2
  8
1-前柱カバ-P
 10
27298.510092585158
 20
8459.6884660000014
 30
0.0
 11
27298.510092585158
 21
6141.1885390000007
 31
0.0
  0
LINE
  5
F7B3
  8
1-前柱カバ-P
 10
27383.510092585158
 20
8589.6883999999973
 30
0.0
 11
27383.510092585158
 21
6141.1885390000007
 31
0.0
  0
LINE
  5
F7B4
  8
0-1
  6
CONTINUOUS
 62
     3
 10
27426.510092585158
 20
8459.6884660000087
 30
0.0
 11
22298.50982858516
 21
8459.6884660000014
 31
0.0
  0
LINE
  5
F7B5
  8
0-1
  6
CONTINUOUS
 62
     3
 10
22363.51128058515
 20
8589.6883999999973
 30
0.0
 11
27426.510092585158
 21
8589.6883999999973
 31
0.0
  0
LINE
  5
F7B6
  8
0-1
  6
CONTINUOUS
 62
     3
 10
27426.510092585158
 20
8264.0026620000026
 30
0.0
 11
27426.510092585158
 21
8589.6883999999973
 31
0.0
  0
LINE
  5
F7B7
  8
0-1
  6
CONTINUOUS
 62
     3
 10
27426.510092585158
 20
8264.0026620000026
 30
0.0
 11
27383.510092585158
 21
8264.0026620000026
 31
0.0
  0
LINE
  5
F7B8
  8
2-0
  6
CENTER2
 62
     6
 10
27341.010092585158
 20
5878.536116000002
 30
0.0
 11
27341.010092585158
 21
6915.6791430000003
 31
0.0
  0
LINE
  5
F7B9
  8
1-桁前P28
 10
27298.510092585158
 20
8262.0026620000026
 30
0.0
 11
22383.510092585158
 21
8262.0026620000026
 31
0.0
  0
LINE
  5
F7BA
  8
0-5
  6
CONTINUOUS
 62
     4
 10
27341.010092585158
 20
4461.1889349999938
 30
0.0
 11
27341.010092585158
 21
4301.1893970000001
 31
0.0
  0
CIRCLE
  5
F7BB
  8
0-5
  6
CONTINUOUS
 62
     4
 10
27341.010092585158
 20
4101.1882420000011
 30
0.0
 40
199.9999949999999
  0
TEXT
  5
F7BC
  8
0-5
  6
CONTINUOUS
 62
     7
 10
27289.097217585178
 20
4011.7132600000009
 30
0.0
 40
160.0
  1
3
 72
     4
 11
27342.430550918511
 21
4091.7132600000009
 31
0.0
  0
TEXT
  5
F7BD
  8
0-5
  6
CONTINUOUS
 62
     7
 10
28833.335262879558
 20
7244.9271794100086
 30
0.0
 40
160.0
  1
(2260)
 50
90.0
 72
     4
 11
28753.335262879558
 21
7631.5938460766747
 31
0.0
  0
LINE
  5
F7BE
  8
SUNPOU
  6
CONTINUOUS
 10
6326.2335704709403
 20
9389.1900500000029
 30
0.0
 11
5821.445700577533
 21
9389.1900500000029
 31
0.0
  0
LINE
  5
FB23
  8
0-1
  6
CONTINUOUS
 62
     3
 10
11828.234401470951
 20
6291.1885389999989
 30
0.0
 11
11828.234401470951
 21
8152.2344180000036
 31
0.0
  0
LINE
  5
FB24
  8
0-1
  6
CONTINUOUS
 62
     3
 10
11813.23262047095
 20
6291.1885389999989
 30
0.0
 11
11813.23262047095
 21
8152.2344180000036
 31
0.0
  0
LINE
  5
FB25
  8
0-1
  6
CONTINUOUS
 62
     3
 10
6980.73090447094
 20
8152.2344180000036
 30
0.0
 11
6980.73090447094
 21
6291.1885389999989
 31
0.0
  0
LINE
  5
FB26
  8
0-1
  6
CONTINUOUS
 62
     3
 10
6943.7327124709409
 20
8152.2344180000036
 30
0.0
 11
6943.7327124709409
 21
6291.1885389999989
 31
0.0
  0
LINE
  5
FB27
  8
0-1
  6
CONTINUOUS
 62
     3
 10
6805.2317354709367
 20
6291.1885389999989
 30
0.0
 11
6805.2317354709367
 21
8152.2344180000036
 31
0.0
  0
LINE
  5
FB28
  8
0-1
  6
CONTINUOUS
 62
     3
 10
6820.2315374709506
 20
6291.1885389999989
 30
0.0
 11
6820.2315374709506
 21
8152.2344180000036
 31
0.0
  0
LINE
  5
FB29
  8
0-1
  6
CONTINUOUS
 62
     3
 10
7104.2310894709426
 20
6291.1885389999989
 30
0.0
 11
7104.2310894709426
 21
8152.2344180000036
 31
0.0
  0
LINE
  5
FB2A
  8
0-1
  6
CONTINUOUS
 62
     3
 10
7119.2318804709503
 20
6291.1885389999989
 30
0.0
 11
7119.2318804709503
 21
8152.2344180000036
 31
0.0
  0
LINE
  5
FB2B
  8
0-1
  6
CONTINUOUS
 62
     3
 10
6621.2324494709464
 20
8152.2344180000064
 30
0.0
 11
6621.2324494709464
 21
6241.1883740000021
 31
0.0
  0
LINE
  5
FB48
  8
WAKUSEN-01
 10
868.00000000000193
 20
22484.000000000011
 30
0.0
 11
32764.000000000011
 21
22484.000000000011
 31
0.0
  0
LINE
  5
FB4B
  8
WAKUSEN-01
 10
20560.0
 20
2484.0
 30
0.0
 11
32764.0
 21
2484.0
 31
0.0
  0
LINE
  5
FB4C
  8
WAKUSEN-02
 10
20560.0
 20
1655.9999999999991
 30
0.0
 11
26868.0
 21
1655.9999999999991
 31
0.0
  0
TEXT
  5
FB4D
  8
WAKUMOJI-01
 10
20670.260259962761
 20
2125.9030093393221
 30
0.0
 40
240.0
  1
名　称
  7
WAKUMOJI
  0
TEXT
  5
FB4E
  8
WAKUMOJI-01
 10
20656.505485091919
 20
1319.12897497982
 30
0.0
 40
240.0
  1
機種名
  7
WAKUMOJI
  0
LINE
  5
FB51
  8
YODOROGO
 10
29977.604341291921
 20
1995.7494964292871
 30
0.0
 11
29829.604341291921
 21
1995.7494964292871
 31
0.0
1001
AUTOCAD_POSTSCRIPT_FIGURE
1002
{
1000
PSFILL
1000
Grayscale
1000
Grayscale
1070
    25
1002
}
  0
LINE
  5
FB52
  8
YODOROGO
 10
29829.604341291921
 20
1947.749496429288
 30
0.0
 11
29977.604341291921
 21
1947.749496429288
 31
0.0
1001
AUTOCAD_POSTSCRIPT_FIGURE
1002
{
1000
PSFILL
1000
Grayscale
1000
Grayscale
1070
    25
1002
}
  0
LINE
  5
FB53
  8
YODOROGO
 10
29977.604341291921
 20
1907.7494964292871
 30
0.0
 11
29829.604341291921
 21
1907.7494964292871
 31
0.0
1001
AUTOCAD_POSTSCRIPT_FIGURE
1002
{
1000
PSFILL
1000
Grayscale
1000
Grayscale
1070
    25
1002
}
  0
LINE
  5
FB54
  8
YODOROGO
 10
29829.604341291921
 20
1859.749496429288
 30
0.0
 11
29977.604341291921
 21
1859.749496429288
 31
0.0
1001
AUTOCAD_POSTSCRIPT_FIGURE
1002
{
1000
PSFILL
1000
Grayscale
1000
Grayscale
1070
    25
1002
}
  0
LINE
  5
FB55
  8
YODOROGO
 10
29977.604341291921
 20
1819.7494964292871
 30
0.0
 11
29829.604341291921
 21
1819.7494964292871
 31
0.0
1001
AUTOCAD_POSTSCRIPT_FIGURE
1002
{
1000
PSFILL
1000
Grayscale
1000
Grayscale
1070
    25
1002
}
  0
LINE
  5
FB56
  8
YODOROGO
 10
29921.60434129191
 20
1707.749496429288
 30
0.0
 11
29977.604341291921
 21
1707.749496429288
 31
0.0
1001
AUTOCAD_POSTSCRIPT_FIGURE
1002
{
1000
PSFILL
1000
Grayscale
1000
Grayscale
1070
    25
1002
}
  0
LINE
  5
FB57
  8
YODOROGO
 10
29737.604341291921
 20
1427.749496429288
 30
0.0
 11
29937.604341291932
 21
1481.3393349155101
 31
0.0
  0
LINE
  5
FB58
  8
YODOROGO
 10
29949.60434129191
 20
1707.749496429288
 30
0.0
 11
29885.604341291921
 21
1707.749496429288
 31
0.0
  0
ARC
  5
FB59
  8
YODOROGO
 10
30254.34774982791
 20
1807.864609233261
 30
0.0
 40
381.88686420564721
 50
213.96111677667841
 51
264.47872074317792
  0
ARC
  5
FB5A
  8
YODOROGO
 10
30254.347749827921
 20
1807.864609233302
 30
0.0
 40
381.8868642056816
 50
208.14114420486601
 51
212.9210361185994
  0
LINE
  5
FB5B
  8
YODOROGO
 10
29771.409872985321
 20
1556.807661346234
 30
0.0
 11
29933.78413250855
 21
1600.3157130570869
 31
0.0
  0
LINE
  5
FB5C
  8
YODOROGO
 10
29737.604341291921
 20
1427.749496429288
 30
0.0
 11
29937.604341291932
 21
1481.3393349155101
 31
0.0
  0
LINE
  5
FB5D
  8
YODOROGO
 10
29949.60434129191
 20
1707.749496429288
 30
0.0
 11
29885.604341291921
 21
1707.749496429288
 31
0.0
  0
ARC
  5
FB5E
  8
YODOROGO
 10
30254.34774982791
 20
1807.864609233261
 30
0.0
 40
381.88686420564721
 50
213.96111677667841
 51
264.47872074317792
  0
LINE
  5
FB5F
  8
YODOROGO
 10
28793.60434129191
 20
1819.7494964292871
 30
0.0
 11
28433.60434129191
 21
1819.7494964292871
 31
0.0
  0
LINE
  5
FB60
  8
YODOROGO
 10
28513.60434129191
 20
1427.749496429288
 30
0.0
 11
28793.60434129191
 21
1427.749496429288
 31
0.0
  0
LINE
  5
FB61
  8
YODOROGO
 10
28729.604341291921
 20
1923.7494964292871
 30
0.0
 11
28497.60434129191
 21
1923.7494964292871
 31
0.0
  0
LINE
  5
FB62
  8
YODOROGO
 10
28585.604341291921
 20
2027.749496429288
 30
0.0
 11
28657.604341291921
 21
2027.749496429288
 31
0.0
  0
LINE
  5
FB63
  8
YODOROGO
 10
28433.60434129191
 20
1707.749496429288
 30
0.0
 11
28433.60434129191
 21
1507.749496429288
 31
0.0
  0
LINE
  5
FB64
  8
YODOROGO
 10
28497.60434129191
 20
1563.7494964292871
 30
0.0
 11
28497.60434129191
 21
1707.749496429288
 31
0.0
  0
LINE
  5
FB65
  8
YODOROGO
 10
28585.604341291921
 20
1747.74949642929
 30
0.0
 11
28585.604341291921
 21
1547.749496429288
 31
0.0
  0
LINE
  5
FB66
  8
YODOROGO
 10
27857.604341291921
 20
1683.749496429288
 30
0.0
 11
27777.604341291921
 21
1619.9724140445701
 31
0.0
  0
LINE
  5
FB67
  8
YODOROGO
 10
27937.604341291921
 20
1619.9724140445701
 30
0.0
 11
27857.604341291921
 21
1683.749496429288
 31
0.0
  0
LINE
  5
FB68
  8
YODOROGO
 10
27857.604341291921
 20
1707.749496429288
 30
0.0
 11
27937.604341291921
 21
1643.9724140445701
 31
0.0
  0
LINE
  5
FB69
  8
YODOROGO
 10
27777.604341291921
 20
1643.9724140445701
 30
0.0
 11
27857.604341291921
 21
1707.749496429288
 31
0.0
  0
LINE
  5
FB6A
  8
YODOROGO
 10
28040.913204016892
 20
1659.749496429288
 30
0.0
 11
28040.913204016892
 21
1683.7494964292871
 31
0.0
  0
LINE
  5
FB6B
  8
YODOROGO
 10
27977.604341291921
 20
1683.7494964292871
 30
0.0
 11
27977.604341291921
 21
1667.749496429285
 31
0.0
  0
LINE
  5
FB6C
  8
YODOROGO
 10
28098.135520230931
 20
1707.749496429288
 30
0.0
 11
28098.135520230931
 21
1655.5036372746561
 31
0.0
1001
AUTOCAD_POSTSCRIPT_FIGURE
1002
{
1000
PSFILL
1000
Grayscale
1000
Grayscale
1070
   100
1002
}
  0
LINE
  5
FB6D
  8
YODOROGO
 10
28082.135520230921
 20
1655.5036372746561
 30
0.0
 11
28082.135520230921
 21
1707.749496429288
 31
0.0
1001
AUTOCAD_POSTSCRIPT_FIGURE
1002
{
1000
PSFILL
1000
Grayscale
1000
Grayscale
1070
   100
1002
}
  0
LINE
  5
FB6E
  8
YODOROGO
 10
27809.604341291921
 20
1608.771904043258
 30
0.0
 11
27809.604341291921
 21
1632.771904043258
 31
0.0
  0
LINE
  5
FB6F
  8
YODOROGO
 10
27905.604341291921
 20
1608.771904043258
 30
0.0
 11
27809.604341291921
 21
1608.771904043258
 31
0.0
  0
LINE
  5
FB70
  8
YODOROGO
 10
27905.604341291921
 20
1632.771904043258
 30
0.0
 11
27905.604341291921
 21
1608.771904043258
 31
0.0
  0
LINE
  5
FB71
  8
YODOROGO
 10
27809.604341291921
 20
1632.771904043258
 30
0.0
 11
27905.604341291921
 21
1632.771904043258
 31
0.0
  0
LINE
  5
FB72
  8
YODOROGO
 10
27824.509588915738
 20
1568.5028573704751
 30
0.0
 11
27785.604341291921
 21
1475.7494964292871
 31
0.0
1001
AUTOCAD_POSTSCRIPT_FIGURE
1002
{
1000
PSFILL
1000
Grayscale
1000
Grayscale
1070
   100
1002
}
  0
LINE
  5
FB73
  8
YODOROGO
 10
27777.604341291921
 20
1568.5028573704751
 30
0.0
 11
27824.509588915738
 21
1568.5028573704751
 31
0.0
1001
AUTOCAD_POSTSCRIPT_FIGURE
1002
{
1000
PSFILL
1000
Grayscale
1000
Grayscale
1070
   100
1002
}
  0
LINE
  5
FB74
  8
YODOROGO
 10
27777.604341291921
 20
1588.5028573704751
 30
0.0
 11
27777.604341291921
 21
1568.5028573704751
 31
0.0
1001
AUTOCAD_POSTSCRIPT_FIGURE
1002
{
1000
PSFILL
1000
Grayscale
1000
Grayscale
1070
   100
1002
}
  0
LINE
  5
FB75
  8
YODOROGO
 10
27937.604341291921
 20
1588.5028573704751
 30
0.0
 11
27777.604341291921
 21
1588.5028573704751
 31
0.0
1001
AUTOCAD_POSTSCRIPT_FIGURE
1002
{
1000
PSFILL
1000
Grayscale
1000
Grayscale
1070
   100
1002
}
  0
LINE
  5
FB76
  8
YODOROGO
 10
27937.604341291921
 20
1568.5028573704751
 30
0.0
 11
27937.604341291921
 21
1588.5028573704751
 31
0.0
1001
AUTOCAD_POSTSCRIPT_FIGURE
1002
{
1000
PSFILL
1000
Grayscale
1000
Grayscale
1070
   100
1002
}
  0
LINE
  5
FB77
  8
YODOROGO
 10
27844.509588915738
 20
1568.5028573704751
 30
0.0
 11
27937.604341291921
 21
1568.5028573704751
 31
0.0
1001
AUTOCAD_POSTSCRIPT_FIGURE
1002
{
1000
PSFILL
1000
Grayscale
1000
Grayscale
1070
   100
1002
}
  0
LINE
  5
FB78
  8
YODOROGO
 10
27815.546718284771
 20
1495.7494964292871
 30
0.0
 11
27844.509588915738
 21
1568.5028573704751
 31
0.0
1001
AUTOCAD_POSTSCRIPT_FIGURE
1002
{
1000
PSFILL
1000
Grayscale
1000
Grayscale
1070
   100
1002
}
  0
LINE
  5
FB79
  8
YODOROGO
 10
27902.054790808648
 20
1495.7494964292871
 30
0.0
 11
27815.546718284771
 21
1495.7494964292871
 31
0.0
1001
AUTOCAD_POSTSCRIPT_FIGURE
1002
{
1000
PSFILL
1000
Grayscale
1000
Grayscale
1070
   100
1002
}
  0
LINE
  5
FB7A
  8
YODOROGO
 10
27885.065004790951
 20
1536.2338106976929
 30
0.0
 11
27902.054790808648
 21
1495.7494964292871
 31
0.0
1001
AUTOCAD_POSTSCRIPT_FIGURE
1002
{
1000
PSFILL
1000
Grayscale
1000
Grayscale
1070
   100
1002
}
  0
LINE
  5
FB7B
  8
YODOROGO
 10
27901.065004790951
 20
1536.2338106976929
 30
0.0
 11
27885.065004790951
 21
1536.2338106976929
 31
0.0
1001
AUTOCAD_POSTSCRIPT_FIGURE
1002
{
1000
PSFILL
1000
Grayscale
1000
Grayscale
1070
   100
1002
}
  0
LINE
  5
FB7C
  8
YODOROGO
 10
27929.604341291921
 20
1475.7494964292871
 30
0.0
 11
27901.065004790951
 21
1536.2338106976929
 31
0.0
1001
AUTOCAD_POSTSCRIPT_FIGURE
1002
{
1000
PSFILL
1000
Grayscale
1000
Grayscale
1070
   100
1002
}
  0
LINE
  5
FB7D
  8
YODOROGO
 10
27785.604341291921
 20
1475.7494964292871
 30
0.0
 11
27929.604341291921
 21
1475.7494964292871
 31
0.0
1001
AUTOCAD_POSTSCRIPT_FIGURE
1002
{
1000
PSFILL
1000
Grayscale
1000
Grayscale
1070
   100
1002
}
  0
LINE
  5
FB7E
  8
YODOROGO
 10
27777.604341291921
 20
1619.9724140445701
 30
0.0
 11
27777.604341291921
 21
1643.9724140445701
 31
0.0
  0
LINE
  5
FB7F
  8
YODOROGO
 10
27937.604341291921
 20
1643.9724140445701
 30
0.0
 11
27937.604341291921
 21
1619.9724140445701
 31
0.0
  0
ARC
  5
FB80
  8
YODOROGO
 10
28225.940442146959
 20
1600.877765325326
 30
0.0
 40
175.9999999999998
 50
280.3644312771313
 51
3.5414836592180561
  0
ARC
  5
FB81
  8
YODOROGO
 10
28235.756030759301
 20
1633.5978069619041
 30
0.0
 40
111.9999999999982
 50
281.24905825041549
 51
348.75094174958321
  0
LINE
  5
FB82
  8
YODOROGO
 10
28257.604341291921
 20
1523.7494964292871
 30
0.0
 11
28257.604341291921
 21
1427.749496429288
 31
0.0
  0
LINE
  5
FB83
  8
YODOROGO
 10
28020.088903736909
 20
1610.650565061914
 30
0.0
 11
28040.913204016892
 21
1659.749496429288
 31
0.0
  0
LINE
  5
FB84
  8
YODOROGO
 10
28041.604341291921
 20
1583.120489948401
 30
0.0
 11
28020.088903736909
 21
1610.650565061914
 31
0.0
  0
LINE
  5
FB85
  8
YODOROGO
 10
28041.604341291921
 20
1563.120489948398
 30
0.0
 11
28041.604341291921
 21
1583.120489948401
 31
0.0
  0
LINE
  5
FB86
  8
YODOROGO
 10
28017.604341291921
 20
1585.2370637495301
 30
0.0
 11
28041.604341291921
 21
1563.120489948398
 31
0.0
  0
LINE
  5
FB87
  8
YODOROGO
 10
28017.604341291921
 20
1475.7494964292871
 30
0.0
 11
28017.604341291921
 21
1585.2370637495301
 31
0.0
  0
LINE
  5
FB88
  8
YODOROGO
 10
28001.604341291921
 20
1475.7494964292871
 30
0.0
 11
28017.604341291921
 21
1475.7494964292871
 31
0.0
  0
LINE
  5
FB89
  8
YODOROGO
 10
28001.604341291921
 20
1580.0053496897469
 30
0.0
 11
28001.604341291921
 21
1475.7494964292871
 31
0.0
  0
LINE
  5
FB8A
  8
YODOROGO
 10
27977.604341291921
 20
1532.7680790334291
 30
0.0
 11
28001.604341291921
 21
1580.0053496897469
 31
0.0
  0
LINE
  5
FB8B
  8
YODOROGO
 10
27977.604341291921
 20
1556.76807903343
 30
0.0
 11
27977.604341291921
 21
1532.7680790334291
 31
0.0
  0
LINE
  5
FB8C
  8
YODOROGO
 10
28025.828774291349
 20
1667.749496429285
 30
0.0
 11
27977.604341291921
 21
1556.76807903343
 31
0.0
  0
LINE
  5
FB8D
  8
YODOROGO
 10
27977.604341291921
 20
1667.749496429285
 30
0.0
 11
28025.828774291349
 21
1667.749496429285
 31
0.0
  0
LINE
  5
FB8E
  8
YODOROGO
 10
28050.135520230899
 20
1655.5036372746561
 30
0.0
 11
28082.135520230921
 21
1655.5036372746561
 31
0.0
1001
AUTOCAD_POSTSCRIPT_FIGURE
1002
{
1000
PSFILL
1000
Grayscale
1000
Grayscale
1070
   100
1002
}
  0
LINE
  5
FB8F
  8
YODOROGO
 10
28050.135520230899
 20
1631.5036372746561
 30
0.0
 11
28050.135520230899
 21
1655.5036372746561
 31
0.0
1001
AUTOCAD_POSTSCRIPT_FIGURE
1002
{
1000
PSFILL
1000
Grayscale
1000
Grayscale
1070
   100
1002
}
  0
LINE
  5
FB90
  8
YODOROGO
 10
28082.135520230921
 20
1631.5036372746561
 30
0.0
 11
28050.135520230899
 21
1631.5036372746561
 31
0.0
1001
AUTOCAD_POSTSCRIPT_FIGURE
1002
{
1000
PSFILL
1000
Grayscale
1000
Grayscale
1070
   100
1002
}
  0
LINE
  5
FB91
  8
YODOROGO
 10
28082.135520230921
 20
1499.749496429288
 30
0.0
 11
28082.135520230921
 21
1631.5036372746561
 31
0.0
1001
AUTOCAD_POSTSCRIPT_FIGURE
1002
{
1000
PSFILL
1000
Grayscale
1000
Grayscale
1070
   100
1002
}
  0
LINE
  5
FB92
  8
YODOROGO
 10
28050.135520230921
 20
1499.749496429288
 30
0.0
 11
28082.135520230921
 21
1499.749496429288
 31
0.0
1001
AUTOCAD_POSTSCRIPT_FIGURE
1002
{
1000
PSFILL
1000
Grayscale
1000
Grayscale
1070
   100
1002
}
  0
LINE
  5
FB93
  8
YODOROGO
 10
28050.135520230921
 20
1475.7494964292871
 30
0.0
 11
28050.135520230921
 21
1499.749496429288
 31
0.0
1001
AUTOCAD_POSTSCRIPT_FIGURE
1002
{
1000
PSFILL
1000
Grayscale
1000
Grayscale
1070
   100
1002
}
  0
LINE
  5
FB94
  8
YODOROGO
 10
28137.604341291921
 20
1475.7494964292871
 30
0.0
 11
28050.135520230921
 21
1475.7494964292871
 31
0.0
1001
AUTOCAD_POSTSCRIPT_FIGURE
1002
{
1000
PSFILL
1000
Grayscale
1000
Grayscale
1070
   100
1002
}
  0
LINE
  5
FB95
  8
YODOROGO
 10
28137.604341291921
 20
1499.749496429288
 30
0.0
 11
28137.604341291921
 21
1475.7494964292871
 31
0.0
1001
AUTOCAD_POSTSCRIPT_FIGURE
1002
{
1000
PSFILL
1000
Grayscale
1000
Grayscale
1070
   100
1002
}
  0
LINE
  5
FB96
  8
YODOROGO
 10
28098.135520230931
 20
1499.749496429288
 30
0.0
 11
28137.604341291921
 21
1499.749496429288
 31
0.0
1001
AUTOCAD_POSTSCRIPT_FIGURE
1002
{
1000
PSFILL
1000
Grayscale
1000
Grayscale
1070
   100
1002
}
  0
LINE
  5
FB97
  8
YODOROGO
 10
28098.135520230931
 20
1631.5036372746561
 30
0.0
 11
28098.135520230931
 21
1499.749496429288
 31
0.0
1001
AUTOCAD_POSTSCRIPT_FIGURE
1002
{
1000
PSFILL
1000
Grayscale
1000
Grayscale
1070
   100
1002
}
  0
LINE
  5
FB98
  8
YODOROGO
 10
28137.604341291921
 20
1631.5036372746561
 30
0.0
 11
28098.135520230931
 21
1631.5036372746561
 31
0.0
1001
AUTOCAD_POSTSCRIPT_FIGURE
1002
{
1000
PSFILL
1000
Grayscale
1000
Grayscale
1070
   100
1002
}
  0
LINE
  5
FB99
  8
YODOROGO
 10
28137.604341291921
 20
1655.5036372746561
 30
0.0
 11
28137.604341291921
 21
1631.5036372746561
 31
0.0
1001
AUTOCAD_POSTSCRIPT_FIGURE
1002
{
1000
PSFILL
1000
Grayscale
1000
Grayscale
1070
   100
1002
}
  0
LINE
  5
FB9A
  8
YODOROGO
 10
28098.135520230931
 20
1655.5036372746561
 30
0.0
 11
28137.604341291921
 21
1655.5036372746561
 31
0.0
1001
AUTOCAD_POSTSCRIPT_FIGURE
1002
{
1000
PSFILL
1000
Grayscale
1000
Grayscale
1070
   100
1002
}
  0
LINE
  5
FB9B
  8
YODOROGO
 10
28401.60434129191
 20
1667.749496429288
 30
0.0
 11
28345.604341291921
 21
1667.749496429288
 31
0.0
  0
LINE
  5
FB9C
  8
YODOROGO
 10
28401.60434129191
 20
1611.749496429288
 30
0.0
 11
28401.60434129191
 21
1667.749496429288
 31
0.0
  0
LINE
  5
FB9D
  8
YODOROGO
 10
28345.604341291921
 20
1667.749496429288
 30
0.0
 11
28345.604341291921
 21
1611.749496429288
 31
0.0
  0
ARC
  5
FB9E
  8
YODOROGO
 10
28513.60434129191
 20
1507.749496429288
 30
0.0
 40
80.0
 50
180.0
 51
270.0
  0
ARC
  5
FB9F
  8
YODOROGO
 10
28537.604341291921
 20
1563.7494964292871
 30
0.0
 40
40.0
 50
180.0
 51
270.0
  0
LINE
  5
FBA0
  8
YODOROGO
 10
28561.604341291932
 20
1523.7494964292871
 30
0.0
 11
28537.604341291921
 21
1523.7494964292871
 31
0.0
  0
ARC
  5
FBA1
  8
YODOROGO
 10
28561.604341291932
 20
1547.749496429285
 30
0.0
 40
23.999999999996358
 50
270.0
 51
0.0000000000054281
  0
LINE
  5
FBA2
  8
YODOROGO
 10
27801.604341291921
 20
1890.786580793706
 30
0.0
 11
27777.604341291921
 21
1843.776747951672
 31
0.0
1001
AUTOCAD_POSTSCRIPT_FIGURE
1002
{
1000
PSFILL
1000
Grayscale
1000
Grayscale
1070
   100
1002
}
  0
LINE
  5
FBA3
  8
YODOROGO
 10
27801.604341291921
 20
1747.749496429286
 30
0.0
 11
27801.604341291921
 21
1890.786580793706
 31
0.0
1001
AUTOCAD_POSTSCRIPT_FIGURE
1002
{
1000
PSFILL
1000
Grayscale
1000
Grayscale
1070
   100
1002
}
  0
LINE
  5
FBA4
  8
YODOROGO
 10
27817.604341291921
 20
1747.749496429286
 30
0.0
 11
27801.604341291921
 21
1747.749496429286
 31
0.0
1001
AUTOCAD_POSTSCRIPT_FIGURE
1002
{
1000
PSFILL
1000
Grayscale
1000
Grayscale
1070
   100
1002
}
  0
LINE
  5
FBA5
  8
YODOROGO
 10
27817.604341291921
 20
1893.7713320852661
 30
0.0
 11
27817.604341291921
 21
1747.749496429286
 31
0.0
1001
AUTOCAD_POSTSCRIPT_FIGURE
1002
{
1000
PSFILL
1000
Grayscale
1000
Grayscale
1070
   100
1002
}
  0
LINE
  5
FBA6
  8
YODOROGO
 10
27841.604341291921
 20
1867.6547582841361
 30
0.0
 11
27817.604341291921
 21
1893.7713320852661
 31
0.0
1001
AUTOCAD_POSTSCRIPT_FIGURE
1002
{
1000
PSFILL
1000
Grayscale
1000
Grayscale
1070
   100
1002
}
  0
LINE
  5
FBA7
  8
YODOROGO
 10
27841.604341291921
 20
1883.6547582841361
 30
0.0
 11
27841.604341291921
 21
1867.6547582841361
 31
0.0
1001
AUTOCAD_POSTSCRIPT_FIGURE
1002
{
1000
PSFILL
1000
Grayscale
1000
Grayscale
1070
   100
1002
}
  0
LINE
  5
FBA8
  8
YODOROGO
 10
27817.604341291921
 20
1917.7713320852649
 30
0.0
 11
27841.604341291921
 21
1883.6547582841361
 31
0.0
1001
AUTOCAD_POSTSCRIPT_FIGURE
1002
{
1000
PSFILL
1000
Grayscale
1000
Grayscale
1070
   100
1002
}
  0
LINE
  5
FBA9
  8
YODOROGO
 10
27817.604341291921
 20
1939.749496429288
 30
0.0
 11
27817.604341291921
 21
1917.7713320852649
 31
0.0
1001
AUTOCAD_POSTSCRIPT_FIGURE
1002
{
1000
PSFILL
1000
Grayscale
1000
Grayscale
1070
   100
1002
}
  0
LINE
  5
FBAA
  8
YODOROGO
 10
27889.604341291921
 20
1939.749496429288
 30
0.0
 11
27817.604341291921
 21
1939.749496429288
 31
0.0
1001
AUTOCAD_POSTSCRIPT_FIGURE
1002
{
1000
PSFILL
1000
Grayscale
1000
Grayscale
1070
   100
1002
}
  0
LINE
  5
FBAB
  8
YODOROGO
 10
27889.604341291921
 20
1900.5683489363
 30
0.0
 11
27889.604341291921
 21
1939.749496429288
 31
0.0
1001
AUTOCAD_POSTSCRIPT_FIGURE
1002
{
1000
PSFILL
1000
Grayscale
1000
Grayscale
1070
   100
1002
}
  0
LINE
  5
FBAC
  8
YODOROGO
 10
27857.604341291921
 20
1900.5683489363
 30
0.0
 11
27889.604341291921
 21
1900.5683489363
 31
0.0
1001
AUTOCAD_POSTSCRIPT_FIGURE
1002
{
1000
PSFILL
1000
Grayscale
1000
Grayscale
1070
   100
1002
}
  0
LINE
  5
FBAD
  8
YODOROGO
 10
27857.604341291921
 20
1884.568348936298
 30
0.0
 11
27857.604341291921
 21
1900.5683489363
 31
0.0
1001
AUTOCAD_POSTSCRIPT_FIGURE
1002
{
1000
PSFILL
1000
Grayscale
1000
Grayscale
1070
   100
1002
}
  0
LINE
  5
FBAE
  8
YODOROGO
 10
27889.604341291921
 20
1884.568348936298
 30
0.0
 11
27857.604341291921
 21
1884.568348936298
 31
0.0
1001
AUTOCAD_POSTSCRIPT_FIGURE
1002
{
1000
PSFILL
1000
Grayscale
1000
Grayscale
1070
   100
1002
}
  0
LINE
  5
FBAF
  8
YODOROGO
 10
27889.604341291921
 20
1879.6191779644371
 30
0.0
 11
27889.604341291921
 21
1884.568348936298
 31
0.0
1001
AUTOCAD_POSTSCRIPT_FIGURE
1002
{
1000
PSFILL
1000
Grayscale
1000
Grayscale
1070
   100
1002
}
  0
LINE
  5
FBB0
  8
YODOROGO
 10
27849.604341291921
 20
1812.974981161417
 30
0.0
 11
27889.604341291921
 21
1879.6191779644371
 31
0.0
1001
AUTOCAD_POSTSCRIPT_FIGURE
1002
{
1000
PSFILL
1000
Grayscale
1000
Grayscale
1070
   100
1002
}
  0
LINE
  5
FBB1
  8
YODOROGO
 10
27849.604341291921
 20
1796.9749811614161
 30
0.0
 11
27849.604341291921
 21
1812.974981161417
 31
0.0
1001
AUTOCAD_POSTSCRIPT_FIGURE
1002
{
1000
PSFILL
1000
Grayscale
1000
Grayscale
1070
   100
1002
}
  0
LINE
  5
FBB2
  8
YODOROGO
 10
27889.604341291921
 20
1847.6191779644359
 30
0.0
 11
27849.604341291921
 21
1796.9749811614161
 31
0.0
1001
AUTOCAD_POSTSCRIPT_FIGURE
1002
{
1000
PSFILL
1000
Grayscale
1000
Grayscale
1070
   100
1002
}
  0
LINE
  5
FBB3
  8
YODOROGO
 10
27889.604341291921
 20
1747.749496429286
 30
0.0
 11
27889.604341291921
 21
1847.6191779644359
 31
0.0
1001
AUTOCAD_POSTSCRIPT_FIGURE
1002
{
1000
PSFILL
1000
Grayscale
1000
Grayscale
1070
   100
1002
}
  0
LINE
  5
FBB4
  8
YODOROGO
 10
27905.604341291921
 20
1747.749496429286
 30
0.0
 11
27889.604341291921
 21
1747.749496429286
 31
0.0
1001
AUTOCAD_POSTSCRIPT_FIGURE
1002
{
1000
PSFILL
1000
Grayscale
1000
Grayscale
1070
   100
1002
}
  0
LINE
  5
FBB5
  8
YODOROGO
 10
27905.604341291921
 20
1849.409012158806
 30
0.0
 11
27905.604341291921
 21
1747.749496429286
 31
0.0
1001
AUTOCAD_POSTSCRIPT_FIGURE
1002
{
1000
PSFILL
1000
Grayscale
1000
Grayscale
1070
   100
1002
}
  0
LINE
  5
FBB6
  8
YODOROGO
 10
27937.604341291921
 20
1796.9749811614161
 30
0.0
 11
27905.604341291921
 21
1849.409012158806
 31
0.0
1001
AUTOCAD_POSTSCRIPT_FIGURE
1002
{
1000
PSFILL
1000
Grayscale
1000
Grayscale
1070
   100
1002
}
  0
LINE
  5
FBB7
  8
YODOROGO
 10
27937.604341291921
 20
1812.974981161417
 30
0.0
 11
27937.604341291921
 21
1796.9749811614161
 31
0.0
1001
AUTOCAD_POSTSCRIPT_FIGURE
1002
{
1000
PSFILL
1000
Grayscale
1000
Grayscale
1070
   100
1002
}
  0
LINE
  5
FBB8
  8
YODOROGO
 10
27905.604341291921
 20
1881.4090121588081
 30
0.0
 11
27937.604341291921
 21
1812.974981161417
 31
0.0
1001
AUTOCAD_POSTSCRIPT_FIGURE
1002
{
1000
PSFILL
1000
Grayscale
1000
Grayscale
1070
   100
1002
}
  0
LINE
  5
FBB9
  8
YODOROGO
 10
27905.604341291921
 20
1884.5683489363
 30
0.0
 11
27905.604341291921
 21
1881.4090121588081
 31
0.0
1001
AUTOCAD_POSTSCRIPT_FIGURE
1002
{
1000
PSFILL
1000
Grayscale
1000
Grayscale
1070
   100
1002
}
  0
LINE
  5
FBBA
  8
YODOROGO
 10
27937.604341291921
 20
1884.568348936298
 30
0.0
 11
27905.604341291921
 21
1884.5683489363
 31
0.0
1001
AUTOCAD_POSTSCRIPT_FIGURE
1002
{
1000
PSFILL
1000
Grayscale
1000
Grayscale
1070
   100
1002
}
  0
LINE
  5
FBBB
  8
YODOROGO
 10
27937.604341291921
 20
1900.5683489363
 30
0.0
 11
27937.604341291921
 21
1884.568348936298
 31
0.0
1001
AUTOCAD_POSTSCRIPT_FIGURE
1002
{
1000
PSFILL
1000
Grayscale
1000
Grayscale
1070
   100
1002
}
  0
LINE
  5
FBBC
  8
YODOROGO
 10
27905.604341291921
 20
1900.5683489363
 30
0.0
 11
27937.604341291921
 21
1900.5683489363
 31
0.0
1001
AUTOCAD_POSTSCRIPT_FIGURE
1002
{
1000
PSFILL
1000
Grayscale
1000
Grayscale
1070
   100
1002
}
  0
LINE
  5
FBBD
  8
YODOROGO
 10
27905.604341291921
 20
1939.749496429288
 30
0.0
 11
27905.604341291921
 21
1900.5683489363
 31
0.0
1001
AUTOCAD_POSTSCRIPT_FIGURE
1002
{
1000
PSFILL
1000
Grayscale
1000
Grayscale
1070
   100
1002
}
  0
LINE
  5
FBBE
  8
YODOROGO
 10
27937.604341291921
 20
1939.749496429288
 30
0.0
 11
27905.604341291921
 21
1939.749496429288
 31
0.0
1001
AUTOCAD_POSTSCRIPT_FIGURE
1002
{
1000
PSFILL
1000
Grayscale
1000
Grayscale
1070
   100
1002
}
  0
LINE
  5
FBBF
  8
YODOROGO
 10
27937.604341291921
 20
1955.7494964292871
 30
0.0
 11
27937.604341291921
 21
1939.749496429288
 31
0.0
1001
AUTOCAD_POSTSCRIPT_FIGURE
1002
{
1000
PSFILL
1000
Grayscale
1000
Grayscale
1070
   100
1002
}
  0
LINE
  5
FBC0
  8
YODOROGO
 10
27905.604341291921
 20
1955.7494964292871
 30
0.0
 11
27937.604341291921
 21
1955.7494964292871
 31
0.0
1001
AUTOCAD_POSTSCRIPT_FIGURE
1002
{
1000
PSFILL
1000
Grayscale
1000
Grayscale
1070
   100
1002
}
  0
LINE
  5
FBC1
  8
YODOROGO
 10
27905.604341291921
 20
1979.749496429288
 30
0.0
 11
27905.604341291921
 21
1955.7494964292871
 31
0.0
1001
AUTOCAD_POSTSCRIPT_FIGURE
1002
{
1000
PSFILL
1000
Grayscale
1000
Grayscale
1070
   100
1002
}
  0
LINE
  5
FBC2
  8
YODOROGO
 10
27889.604341291921
 20
1979.749496429288
 30
0.0
 11
27905.604341291921
 21
1979.749496429288
 31
0.0
1001
AUTOCAD_POSTSCRIPT_FIGURE
1002
{
1000
PSFILL
1000
Grayscale
1000
Grayscale
1070
   100
1002
}
  0
LINE
  5
FBC3
  8
YODOROGO
 10
27889.604341291921
 20
1955.7494964292871
 30
0.0
 11
27889.604341291921
 21
1979.749496429288
 31
0.0
1001
AUTOCAD_POSTSCRIPT_FIGURE
1002
{
1000
PSFILL
1000
Grayscale
1000
Grayscale
1070
   100
1002
}
  0
LINE
  5
FBC4
  8
YODOROGO
 10
27865.604341291921
 20
1955.7494964292871
 30
0.0
 11
27889.604341291921
 21
1955.7494964292871
 31
0.0
1001
AUTOCAD_POSTSCRIPT_FIGURE
1002
{
1000
PSFILL
1000
Grayscale
1000
Grayscale
1070
   100
1002
}
  0
LINE
  5
FBC5
  8
YODOROGO
 10
27865.604341291921
 20
1979.749496429288
 30
0.0
 11
27865.604341291921
 21
1955.7494964292871
 31
0.0
1001
AUTOCAD_POSTSCRIPT_FIGURE
1002
{
1000
PSFILL
1000
Grayscale
1000
Grayscale
1070
   100
1002
}
  0
LINE
  5
FBC6
  8
YODOROGO
 10
27849.604341291921
 20
1979.749496429288
 30
0.0
 11
27865.604341291921
 21
1979.749496429288
 31
0.0
1001
AUTOCAD_POSTSCRIPT_FIGURE
1002
{
1000
PSFILL
1000
Grayscale
1000
Grayscale
1070
   100
1002
}
  0
LINE
  5
FBC7
  8
YODOROGO
 10
27849.604341291921
 20
1955.7494964292871
 30
0.0
 11
27849.604341291921
 21
1979.749496429288
 31
0.0
1001
AUTOCAD_POSTSCRIPT_FIGURE
1002
{
1000
PSFILL
1000
Grayscale
1000
Grayscale
1070
   100
1002
}
  0
LINE
  5
FBC8
  8
YODOROGO
 10
27817.604341291921
 20
1955.7494964292871
 30
0.0
 11
27849.604341291921
 21
1955.7494964292871
 31
0.0
1001
AUTOCAD_POSTSCRIPT_FIGURE
1002
{
1000
PSFILL
1000
Grayscale
1000
Grayscale
1070
   100
1002
}
  0
LINE
  5
FBC9
  8
YODOROGO
 10
27817.604341291921
 20
1979.749496429288
 30
0.0
 11
27817.604341291921
 21
1955.7494964292871
 31
0.0
1001
AUTOCAD_POSTSCRIPT_FIGURE
1002
{
1000
PSFILL
1000
Grayscale
1000
Grayscale
1070
   100
1002
}
  0
LINE
  5
FBCA
  8
YODOROGO
 10
27801.604341291921
 20
1979.749496429288
 30
0.0
 11
27817.604341291921
 21
1979.749496429288
 31
0.0
1001
AUTOCAD_POSTSCRIPT_FIGURE
1002
{
1000
PSFILL
1000
Grayscale
1000
Grayscale
1070
   100
1002
}
  0
LINE
  5
FBCB
  8
YODOROGO
 10
27801.604341291921
 20
1955.7494964292871
 30
0.0
 11
27801.604341291921
 21
1979.749496429288
 31
0.0
1001
AUTOCAD_POSTSCRIPT_FIGURE
1002
{
1000
PSFILL
1000
Grayscale
1000
Grayscale
1070
   100
1002
}
  0
LINE
  5
FBCC
  8
YODOROGO
 10
27777.604341291921
 20
1955.7494964292871
 30
0.0
 11
27801.604341291921
 21
1955.7494964292871
 31
0.0
1001
AUTOCAD_POSTSCRIPT_FIGURE
1002
{
1000
PSFILL
1000
Grayscale
1000
Grayscale
1070
   100
1002
}
  0
LINE
  5
FBCD
  8
YODOROGO
 10
27777.604341291921
 20
1939.749496429288
 30
0.0
 11
27777.604341291921
 21
1955.7494964292871
 31
0.0
1001
AUTOCAD_POSTSCRIPT_FIGURE
1002
{
1000
PSFILL
1000
Grayscale
1000
Grayscale
1070
   100
1002
}
  0
LINE
  5
FBCE
  8
YODOROGO
 10
27801.604341291921
 20
1939.749496429288
 30
0.0
 11
27777.604341291921
 21
1939.749496429288
 31
0.0
1001
AUTOCAD_POSTSCRIPT_FIGURE
1002
{
1000
PSFILL
1000
Grayscale
1000
Grayscale
1070
   100
1002
}
  0
LINE
  5
FBCF
  8
YODOROGO
 10
27801.604341291921
 20
1914.7865807937051
 30
0.0
 11
27801.604341291921
 21
1939.749496429288
 31
0.0
1001
AUTOCAD_POSTSCRIPT_FIGURE
1002
{
1000
PSFILL
1000
Grayscale
1000
Grayscale
1070
   100
1002
}
  0
LINE
  5
FBD0
  8
YODOROGO
 10
27777.604341291921
 20
1859.776747951671
 30
0.0
 11
27801.604341291921
 21
1914.7865807937051
 31
0.0
1001
AUTOCAD_POSTSCRIPT_FIGURE
1002
{
1000
PSFILL
1000
Grayscale
1000
Grayscale
1070
   100
1002
}
  0
LINE
  5
FBD1
  8
YODOROGO
 10
27777.604341291921
 20
1843.776747951672
 30
0.0
 11
27777.604341291921
 21
1859.776747951671
 31
0.0
1001
AUTOCAD_POSTSCRIPT_FIGURE
1002
{
1000
PSFILL
1000
Grayscale
1000
Grayscale
1070
   100
1002
}
  0
LINE
  5
FBD2
  8
YODOROGO
 10
28257.604341291921
 20
1867.7494964292871
 30
0.0
 11
28401.60434129191
 21
1824.877625640306
 31
0.0
1001
AUTOCAD_POSTSCRIPT_FIGURE
1002
{
1000
PSFILL
1000
Grayscale
1000
Grayscale
1070
   100
1002
}
  0
LINE
  5
FBD3
  8
YODOROGO
 10
28401.60434129191
 20
1752.877625640306
 30
0.0
 11
28257.604341291921
 21
1795.7494964292871
 31
0.0
1001
AUTOCAD_POSTSCRIPT_FIGURE
1002
{
1000
PSFILL
1000
Grayscale
1000
Grayscale
1070
   100
1002
}
  0
LINE
  5
FBD4
  8
YODOROGO
 10
28401.60434129191
 20
1984.877625640306
 30
0.0
 11
28257.604341291921
 21
2027.749496429288
 31
0.0
1001
AUTOCAD_POSTSCRIPT_FIGURE
1002
{
1000
PSFILL
1000
Grayscale
1000
Grayscale
1070
   100
1002
}
  0
LINE
  5
FBD5
  8
YODOROGO
 10
28257.604341291921
 20
1959.749496429288
 30
0.0
 11
28401.60434129191
 21
1916.8776256403071
 31
0.0
1001
AUTOCAD_POSTSCRIPT_FIGURE
1002
{
1000
PSFILL
1000
Grayscale
1000
Grayscale
1070
   100
1002
}
  0
LINE
  5
FBD6
  8
YODOROGO
 10
28257.604341291921
 20
1795.7494964292871
 30
0.0
 11
28257.604341291921
 21
1867.7494964292871
 31
0.0
1001
AUTOCAD_POSTSCRIPT_FIGURE
1002
{
1000
PSFILL
1000
Grayscale
1000
Grayscale
1070
   100
1002
}
  0
LINE
  5
FBD7
  8
YODOROGO
 10
28257.604341291921
 20
2027.749496429288
 30
0.0
 11
28257.604341291921
 21
1959.749496429288
 31
0.0
1001
AUTOCAD_POSTSCRIPT_FIGURE
1002
{
1000
PSFILL
1000
Grayscale
1000
Grayscale
1070
   100
1002
}
  0
LINE
  5
FBD8
  8
YODOROGO
 10
28080.236320206739
 20
1939.749496429288
 30
0.0
 11
28129.60434129191
 21
1747.749496429286
 31
0.0
1001
AUTOCAD_POSTSCRIPT_FIGURE
1002
{
1000
PSFILL
1000
Grayscale
1000
Grayscale
1070
   100
1002
}
  0
LINE
  5
FBD9
  8
YODOROGO
 10
27977.604341291921
 20
1939.749496429288
 30
0.0
 11
28080.236320206739
 21
1939.749496429288
 31
0.0
1001
AUTOCAD_POSTSCRIPT_FIGURE
1002
{
1000
PSFILL
1000
Grayscale
1000
Grayscale
1070
   100
1002
}
  0
LINE
  5
FBDA
  8
YODOROGO
 10
27977.604341291921
 20
1955.7494964292871
 30
0.0
 11
27977.604341291921
 21
1939.749496429288
 31
0.0
1001
AUTOCAD_POSTSCRIPT_FIGURE
1002
{
1000
PSFILL
1000
Grayscale
1000
Grayscale
1070
   100
1002
}
  0
LINE
  5
FBDB
  8
YODOROGO
 10
28076.60687851991
 20
1955.7494964292871
 30
0.0
 11
27977.604341291921
 21
1955.7494964292871
 31
0.0
1001
AUTOCAD_POSTSCRIPT_FIGURE
1002
{
1000
PSFILL
1000
Grayscale
1000
Grayscale
1070
   100
1002
}
  0
LINE
  5
FBDC
  8
YODOROGO
 10
28071.162715989711
 20
1979.749496429288
 30
0.0
 11
28076.60687851991
 21
1955.7494964292871
 31
0.0
1001
AUTOCAD_POSTSCRIPT_FIGURE
1002
{
1000
PSFILL
1000
Grayscale
1000
Grayscale
1070
   100
1002
}
  0
LINE
  5
FBDD
  8
YODOROGO
 10
28091.162715989711
 20
1979.749496429288
 30
0.0
 11
28071.162715989711
 21
1979.749496429288
 31
0.0
1001
AUTOCAD_POSTSCRIPT_FIGURE
1002
{
1000
PSFILL
1000
Grayscale
1000
Grayscale
1070
   100
1002
}
  0
LINE
  5
FBDE
  8
YODOROGO
 10
28095.806878519939
 20
1955.7494964292871
 30
0.0
 11
28091.162715989711
 21
1979.749496429288
 31
0.0
1001
AUTOCAD_POSTSCRIPT_FIGURE
1002
{
1000
PSFILL
1000
Grayscale
1000
Grayscale
1070
   100
1002
}
  0
LINE
  5
FBDF
  8
YODOROGO
 10
28121.604341291921
 20
1955.7494964292871
 30
0.0
 11
28095.806878519939
 21
1955.7494964292871
 31
0.0
1001
AUTOCAD_POSTSCRIPT_FIGURE
1002
{
1000
PSFILL
1000
Grayscale
1000
Grayscale
1070
   100
1002
}
  0
LINE
  5
FBE0
  8
YODOROGO
 10
28121.604341291921
 20
1979.749496429288
 30
0.0
 11
28121.604341291921
 21
1955.7494964292871
 31
0.0
1001
AUTOCAD_POSTSCRIPT_FIGURE
1002
{
1000
PSFILL
1000
Grayscale
1000
Grayscale
1070
   100
1002
}
  0
LINE
  5
FBE1
  8
YODOROGO
 10
28137.604341291921
 20
1979.749496429288
 30
0.0
 11
28121.604341291921
 21
1979.749496429288
 31
0.0
1001
AUTOCAD_POSTSCRIPT_FIGURE
1002
{
1000
PSFILL
1000
Grayscale
1000
Grayscale
1070
   100
1002
}
  0
LINE
  5
FBE2
  8
YODOROGO
 10
28137.604341291921
 20
1955.7494964292871
 30
0.0
 11
28137.604341291921
 21
1979.749496429288
 31
0.0
1001
AUTOCAD_POSTSCRIPT_FIGURE
1002
{
1000
PSFILL
1000
Grayscale
1000
Grayscale
1070
   100
1002
}
  0
LINE
  5
FBE3
  8
YODOROGO
 10
28137.604341291921
 20
1939.749496429288
 30
0.0
 11
28137.604341291921
 21
1955.7494964292871
 31
0.0
1001
AUTOCAD_POSTSCRIPT_FIGURE
1002
{
1000
PSFILL
1000
Grayscale
1000
Grayscale
1070
   100
1002
}
  0
LINE
  5
FBE4
  8
YODOROGO
 10
28098.902986873411
 20
1939.749496429288
 30
0.0
 11
28137.604341291921
 21
1939.749496429288
 31
0.0
1001
AUTOCAD_POSTSCRIPT_FIGURE
1002
{
1000
PSFILL
1000
Grayscale
1000
Grayscale
1070
   100
1002
}
  0
LINE
  5
FBE5
  8
YODOROGO
 10
28137.604341291921
 20
1747.749496429286
 30
0.0
 11
28098.902986873411
 21
1939.749496429288
 31
0.0
1001
AUTOCAD_POSTSCRIPT_FIGURE
1002
{
1000
PSFILL
1000
Grayscale
1000
Grayscale
1070
   100
1002
}
  0
LINE
  5
FBE6
  8
YODOROGO
 10
28129.60434129191
 20
1747.749496429286
 30
0.0
 11
28137.604341291921
 21
1747.749496429286
 31
0.0
1001
AUTOCAD_POSTSCRIPT_FIGURE
1002
{
1000
PSFILL
1000
Grayscale
1000
Grayscale
1070
   100
1002
}
  0
LINE
  5
FBE7
  8
YODOROGO
 10
28078.06921993379
 20
1775.7407762987939
 30
0.0
 11
27977.604341291921
 21
1747.749496429286
 31
0.0
  0
LINE
  5
FBE8
  8
YODOROGO
 10
28078.06921993379
 20
1798.6689795290731
 30
0.0
 11
28078.06921993379
 21
1775.7407762987939
 31
0.0
  0
LINE
  5
FBE9
  8
YODOROGO
 10
28033.83678061287
 20
1786.816933133767
 30
0.0
 11
28078.06921993379
 21
1798.6689795290731
 31
0.0
  0
LINE
  5
FBEA
  8
YODOROGO
 10
28033.83678061287
 20
1872.5683489362989
 30
0.0
 11
28033.83678061287
 21
1786.816933133767
 31
0.0
  0
LINE
  5
FBEB
  8
YODOROGO
 10
28078.06921993379
 20
1872.5683489362989
 30
0.0
 11
28033.83678061287
 21
1872.5683489362989
 31
0.0
  0
LINE
  5
FBEC
  8
YODOROGO
 10
28078.06921993379
 20
1892.568348936298
 30
0.0
 11
28078.06921993379
 21
1872.5683489362989
 31
0.0
  0
LINE
  5
FBED
  8
YODOROGO
 10
27977.604341291921
 20
1892.568348936298
 30
0.0
 11
28078.06921993379
 21
1892.568348936298
 31
0.0
  0
LINE
  5
FBEE
  8
YODOROGO
 10
27977.604341291921
 20
1872.5683489362989
 30
0.0
 11
27977.604341291921
 21
1892.568348936298
 31
0.0
  0
LINE
  5
FBEF
  8
YODOROGO
 10
28021.836780612852
 20
1872.5683489362989
 30
0.0
 11
27977.604341291921
 21
1872.5683489362989
 31
0.0
  0
LINE
  5
FBF0
  8
YODOROGO
 10
28021.836780612852
 20
1784.673339594317
 30
0.0
 11
28021.836780612852
 21
1872.5683489362989
 31
0.0
  0
LINE
  5
FBF1
  8
YODOROGO
 10
27977.604341291921
 20
1771.749496429286
 30
0.0
 11
28021.836780612852
 21
1784.673339594317
 31
0.0
  0
LINE
  5
FBF2
  8
YODOROGO
 10
27977.604341291921
 20
1747.749496429286
 30
0.0
 11
27977.604341291921
 21
1771.749496429286
 31
0.0
  0
LINE
  5
FBF3
  8
YODOROGO
 10
28001.604341291921
 20
1707.749496429288
 30
0.0
 11
28001.604341291921
 21
1683.7494964292871
 31
0.0
  0
LINE
  5
FBF4
  8
YODOROGO
 10
28017.604341291921
 20
1707.749496429288
 30
0.0
 11
28001.604341291921
 21
1707.749496429288
 31
0.0
  0
LINE
  5
FBF5
  8
YODOROGO
 10
28017.604341291921
 20
1683.7494964292871
 30
0.0
 11
28017.604341291921
 21
1707.749496429288
 31
0.0
  0
LINE
  5
FBF6
  8
YODOROGO
 10
28040.913204016892
 20
1683.7494964292871
 30
0.0
 11
28017.604341291921
 21
1683.7494964292871
 31
0.0
  0
LINE
  5
FBF7
  8
YODOROGO
 10
28001.604341291921
 20
1683.7494964292871
 30
0.0
 11
27977.604341291921
 21
1683.7494964292871
 31
0.0
  0
LINE
  5
FBF8
  8
YODOROGO
 10
28082.135520230921
 20
1707.749496429288
 30
0.0
 11
28098.135520230931
 21
1707.749496429288
 31
0.0
1001
AUTOCAD_POSTSCRIPT_FIGURE
1002
{
1000
PSFILL
1000
Grayscale
1000
Grayscale
1070
   100
1002
}
  0
LINE
  5
FBF9
  8
YODOROGO
 10
28401.60434129191
 20
1824.877625640306
 30
0.0
 11
28401.60434129191
 21
1752.877625640306
 31
0.0
1001
AUTOCAD_POSTSCRIPT_FIGURE
1002
{
1000
PSFILL
1000
Grayscale
1000
Grayscale
1070
   100
1002
}
  0
LINE
  5
FBFA
  8
YODOROGO
 10
28401.60434129191
 20
1916.8776256403071
 30
0.0
 11
28401.60434129191
 21
1984.877625640306
 31
0.0
1001
AUTOCAD_POSTSCRIPT_FIGURE
1002
{
1000
PSFILL
1000
Grayscale
1000
Grayscale
1070
   100
1002
}
  0
LINE
  5
FBFB
  8
YODOROGO
 10
28433.60434129191
 20
1819.7494964292871
 30
0.0
 11
28433.60434129191
 21
1747.74949642929
 31
0.0
  0
LINE
  5
FBFC
  8
YODOROGO
 10
28497.60434129191
 20
1707.749496429288
 30
0.0
 11
28433.60434129191
 21
1707.749496429288
 31
0.0
  0
LINE
  5
FBFD
  8
YODOROGO
 10
28433.60434129191
 20
1747.74949642929
 30
0.0
 11
28585.604341291921
 21
1747.74949642929
 31
0.0
  0
LINE
  5
FBFE
  8
YODOROGO
 10
28497.60434129191
 20
1867.7494964292871
 30
0.0
 11
28433.60434129191
 21
1867.7494964292871
 31
0.0
  0
LINE
  5
FBFF
  8
YODOROGO
 10
28497.60434129191
 20
1923.7494964292871
 30
0.0
 11
28497.60434129191
 21
1867.7494964292871
 31
0.0
  0
LINE
  5
FC00
  8
YODOROGO
 10
28585.604341291921
 20
1987.7494964292871
 30
0.0
 11
28585.604341291921
 21
2027.749496429288
 31
0.0
  0
LINE
  5
FC01
  8
YODOROGO
 10
28433.60434129191
 20
1987.7494964292871
 30
0.0
 11
28585.604341291921
 21
1987.7494964292871
 31
0.0
  0
LINE
  5
FC02
  8
YODOROGO
 10
28433.60434129191
 20
1867.7494964292871
 30
0.0
 11
28433.60434129191
 21
1987.7494964292871
 31
0.0
  0
LINE
  5
FC03
  8
YODOROGO
 10
29001.60434129191
 20
2027.749496429288
 30
0.0
 11
29001.60434129191
 21
1619.749496429288
 31
0.0
  0
LINE
  5
FC04
  8
YODOROGO
 10
29073.604341291921
 20
1579.749496429288
 30
0.0
 11
29073.604341291921
 21
2027.749496429288
 31
0.0
  0
LINE
  5
FC05
  8
YODOROGO
 10
29261.604341291921
 20
1491.749496429286
 30
0.0
 11
29261.604341291921
 21
2007.749496429288
 31
0.0
  0
LINE
  5
FC06
  8
YODOROGO
 10
29197.604341291921
 20
2007.749496429288
 30
0.0
 11
29197.604341291921
 21
1491.749496429286
 31
0.0
  0
LINE
  5
FC07
  8
YODOROGO
 10
29385.604341291921
 20
2027.749496429288
 30
0.0
 11
29385.604341291921
 21
1427.749496429288
 31
0.0
  0
LINE
  5
FC08
  8
YODOROGO
 10
29457.604341291921
 20
1427.749496429288
 30
0.0
 11
29457.604341291921
 21
2027.749496429288
 31
0.0
  0
LINE
  5
FC09
  8
YODOROGO
 10
28657.604341291921
 20
1667.749496429288
 30
0.0
 11
28657.604341291921
 21
1747.74949642929
 31
0.0
  0
LINE
  5
FC0A
  8
YODOROGO
 10
29885.604341291921
 20
1707.749496429288
 30
0.0
 11
29885.604341291921
 21
1667.749496429288
 31
0.0
  0
LINE
  5
FC0B
  8
YODOROGO
 10
29885.604341291921
 20
1707.749496429288
 30
0.0
 11
29885.604341291921
 21
1667.749496429288
 31
0.0
  0
ARC
  5
FC0C
  8
YODOROGO
 10
28906.911576186842
 20
1618.217864442272
 30
0.0
 40
94.705151178741644
 50
274.05244162907098
 51
0.9266642149310712
  0
ARC
  5
FC0D
  8
YODOROGO
 10
28909.186170719819
 20
1592.61072861044
 30
0.0
 40
164.92042356085511
 50
271.5351210653775
 51
355.52727750585052
  0
LINE
  5
FC0E
  8
YODOROGO
 10
28913.604341291921
 20
1523.7494964292871
 30
0.0
 11
28913.604341291921
 21
1427.749496429288
 31
0.0
  0
LINE
  5
FC0F
  8
YODOROGO
 10
28793.60434129191
 20
1667.749496429288
 30
0.0
 11
28657.604341291921
 21
1667.749496429288
 31
0.0
  0
LINE
  5
FC10
  8
YODOROGO
 10
28793.60434129191
 20
1603.7494964292871
 30
0.0
 11
28793.60434129191
 21
1667.749496429288
 31
0.0
  0
LINE
  5
FC11
  8
YODOROGO
 10
28657.604341291921
 20
1603.7494964292871
 30
0.0
 11
28793.60434129191
 21
1603.7494964292871
 31
0.0
  0
LINE
  5
FC12
  8
YODOROGO
 10
28657.604341291921
 20
1523.7494964292871
 30
0.0
 11
28657.604341291921
 21
1603.7494964292871
 31
0.0
  0
LINE
  5
FC13
  8
YODOROGO
 10
28793.60434129191
 20
1523.7494964292871
 30
0.0
 11
28657.604341291921
 21
1523.7494964292871
 31
0.0
  0
LINE
  5
FC14
  8
YODOROGO
 10
28793.60434129191
 20
1427.749496429288
 30
0.0
 11
28793.60434129191
 21
1523.7494964292871
 31
0.0
  0
LINE
  5
FC15
  8
YODOROGO
 10
29197.604341291921
 20
1491.749496429286
 30
0.0
 11
29261.604341291921
 21
1491.749496429286
 31
0.0
  0
LINE
  5
FC16
  8
YODOROGO
 10
29385.604341291921
 20
1427.749496429288
 30
0.0
 11
29457.604341291921
 21
1427.749496429288
 31
0.0
  0
LINE
  5
FC17
  8
YODOROGO
 10
29737.604341291921
 20
1528.4414521705639
 30
0.0
 11
29737.604341291921
 21
1427.749496429288
 31
0.0
  0
LINE
  5
FC18
  8
YODOROGO
 10
29617.604341291921
 20
1427.749496429288
 30
0.0
 11
29737.604341291921
 21
1528.4414521705639
 31
0.0
  0
LINE
  5
FC19
  8
YODOROGO
 10
29617.604341291921
 20
1547.749496429288
 30
0.0
 11
29617.604341291921
 21
1427.749496429288
 31
0.0
  0
LINE
  5
FC1A
  8
YODOROGO
 10
29712.94462869945
 20
1627.749496429288
 30
0.0
 11
29617.604341291921
 21
1547.749496429288
 31
0.0
  0
LINE
  5
FC1B
  8
YODOROGO
 10
29617.604341291921
 20
1627.749496429288
 30
0.0
 11
29712.94462869945
 21
1627.749496429288
 31
0.0
  0
LINE
  5
FC1C
  8
YODOROGO
 10
29617.604341291921
 20
1667.749496429288
 30
0.0
 11
29617.604341291921
 21
1627.749496429288
 31
0.0
  0
LINE
  5
FC1D
  8
YODOROGO
 10
29885.604341291921
 20
1667.749496429288
 30
0.0
 11
29617.604341291921
 21
1667.749496429288
 31
0.0
  0
LINE
  5
FC1E
  8
YODOROGO
 10
29917.604341291921
 20
1627.749496429288
 30
0.0
 11
29777.604341291921
 21
1627.749496429288
 31
0.0
  0
LINE
  5
FC1F
  8
YODOROGO
 10
29777.604341291921
 20
1562.0054374176559
 30
0.0
 11
29771.409872985321
 21
1556.807661346234
 31
0.0
  0
LINE
  5
FC20
  8
YODOROGO
 10
29777.604341291921
 20
1627.749496429288
 30
0.0
 11
29777.604341291921
 21
1562.0054374176559
 31
0.0
  0
LINE
  5
FC21
  8
YODOROGO
 10
29737.604341291921
 20
1528.4414521705639
 30
0.0
 11
29737.604341291921
 21
1427.749496429288
 31
0.0
  0
LINE
  5
FC22
  8
YODOROGO
 10
29617.604341291921
 20
1427.749496429288
 30
0.0
 11
29737.604341291921
 21
1528.4414521705639
 31
0.0
  0
LINE
  5
FC23
  8
YODOROGO
 10
29617.604341291921
 20
1547.749496429288
 30
0.0
 11
29617.604341291921
 21
1427.749496429288
 31
0.0
  0
LINE
  5
FC24
  8
YODOROGO
 10
29712.94462869945
 20
1627.749496429288
 30
0.0
 11
29617.604341291921
 21
1547.749496429288
 31
0.0
  0
LINE
  5
FC25
  8
YODOROGO
 10
29617.604341291921
 20
1627.749496429288
 30
0.0
 11
29712.94462869945
 21
1627.749496429288
 31
0.0
  0
LINE
  5
FC26
  8
YODOROGO
 10
29617.604341291921
 20
1667.749496429288
 30
0.0
 11
29617.604341291921
 21
1627.749496429288
 31
0.0
  0
LINE
  5
FC27
  8
YODOROGO
 10
29885.604341291921
 20
1667.749496429288
 30
0.0
 11
29617.604341291921
 21
1667.749496429288
 31
0.0
  0
LINE
  5
FC28
  8
YODOROGO
 10
28793.60434129191
 20
1747.74949642929
 30
0.0
 11
28793.60434129191
 21
1819.7494964292871
 31
0.0
  0
LINE
  5
FC29
  8
YODOROGO
 10
28657.604341291921
 20
1747.74949642929
 30
0.0
 11
28793.60434129191
 21
1747.74949642929
 31
0.0
  0
LINE
  5
FC2A
  8
YODOROGO
 10
28729.604341291921
 20
1867.7494964292871
 30
0.0
 11
28729.604341291921
 21
1923.7494964292871
 31
0.0
  0
LINE
  5
FC2B
  8
YODOROGO
 10
28793.60434129191
 20
1867.7494964292871
 30
0.0
 11
28729.604341291921
 21
1867.7494964292871
 31
0.0
  0
LINE
  5
FC2C
  8
YODOROGO
 10
28793.60434129191
 20
1947.749496429288
 30
0.0
 11
28793.60434129191
 21
1867.7494964292871
 31
0.0
  0
ARC
  5
FC2D
  8
YODOROGO
 10
28753.60434129191
 20
1947.749496429288
 30
0.0
 40
40.0
 50
0.0
 51
90.0
  0
LINE
  5
FC2E
  8
YODOROGO
 10
28657.604341291921
 20
1987.7494964292871
 30
0.0
 11
28753.60434129191
 21
1987.7494964292871
 31
0.0
  0
LINE
  5
FC2F
  8
YODOROGO
 10
28657.604341291921
 20
2027.749496429288
 30
0.0
 11
28657.604341291921
 21
1987.7494964292871
 31
0.0
  0
LINE
  5
FC30
  8
YODOROGO
 10
29073.604341291921
 20
2027.749496429288
 30
0.0
 11
29001.60434129191
 21
2027.749496429288
 31
0.0
  0
LINE
  5
FC31
  8
YODOROGO
 10
29261.604341291921
 20
2007.749496429288
 30
0.0
 11
29197.604341291921
 21
2007.749496429288
 31
0.0
  0
LINE
  5
FC32
  8
YODOROGO
 10
29457.604341291921
 20
2027.749496429288
 30
0.0
 11
29385.604341291921
 21
2027.749496429288
 31
0.0
  0
LINE
  5
FC33
  8
YODOROGO
 10
29673.604341291921
 20
1707.749496429288
 30
0.0
 11
29673.604341291921
 21
1771.7494964292871
 31
0.0
1001
AUTOCAD_POSTSCRIPT_FIGURE
1002
{
1000
PSFILL
1000
Grayscale
1000
Grayscale
1070
    25
1002
}
  0
LINE
  5
FC34
  8
YODOROGO
 10
29617.604341291921
 20
1707.749496429288
 30
0.0
 11
29673.604341291921
 21
1707.749496429288
 31
0.0
1001
AUTOCAD_POSTSCRIPT_FIGURE
1002
{
1000
PSFILL
1000
Grayscale
1000
Grayscale
1070
    25
1002
}
  0
LINE
  5
FC35
  8
YODOROGO
 10
29617.604341291921
 20
1819.7494964292871
 30
0.0
 11
29617.604341291921
 21
1707.749496429288
 31
0.0
1001
AUTOCAD_POSTSCRIPT_FIGURE
1002
{
1000
PSFILL
1000
Grayscale
1000
Grayscale
1070
    25
1002
}
  0
LINE
  5
FC36
  8
YODOROGO
 10
29765.604341291921
 20
1819.7494964292871
 30
0.0
 11
29617.604341291921
 21
1819.7494964292871
 31
0.0
1001
AUTOCAD_POSTSCRIPT_FIGURE
1002
{
1000
PSFILL
1000
Grayscale
1000
Grayscale
1070
    25
1002
}
  0
LINE
  5
FC37
  8
YODOROGO
 10
29765.604341291921
 20
1859.749496429288
 30
0.0
 11
29765.604341291921
 21
1819.7494964292871
 31
0.0
1001
AUTOCAD_POSTSCRIPT_FIGURE
1002
{
1000
PSFILL
1000
Grayscale
1000
Grayscale
1070
    25
1002
}
  0
LINE
  5
FC38
  8
YODOROGO
 10
29617.604341291921
 20
1859.749496429288
 30
0.0
 11
29765.604341291921
 21
1859.749496429288
 31
0.0
1001
AUTOCAD_POSTSCRIPT_FIGURE
1002
{
1000
PSFILL
1000
Grayscale
1000
Grayscale
1070
    25
1002
}
  0
LINE
  5
FC39
  8
YODOROGO
 10
29617.604341291921
 20
1907.7494964292871
 30
0.0
 11
29617.604341291921
 21
1859.749496429288
 31
0.0
1001
AUTOCAD_POSTSCRIPT_FIGURE
1002
{
1000
PSFILL
1000
Grayscale
1000
Grayscale
1070
    25
1002
}
  0
LINE
  5
FC3A
  8
YODOROGO
 10
29765.604341291921
 20
1907.7494964292871
 30
0.0
 11
29617.604341291921
 21
1907.7494964292871
 31
0.0
1001
AUTOCAD_POSTSCRIPT_FIGURE
1002
{
1000
PSFILL
1000
Grayscale
1000
Grayscale
1070
    25
1002
}
  0
LINE
  5
FC3B
  8
YODOROGO
 10
29765.604341291921
 20
1947.749496429288
 30
0.0
 11
29765.604341291921
 21
1907.7494964292871
 31
0.0
1001
AUTOCAD_POSTSCRIPT_FIGURE
1002
{
1000
PSFILL
1000
Grayscale
1000
Grayscale
1070
    25
1002
}
  0
LINE
  5
FC3C
  8
YODOROGO
 10
29617.604341291921
 20
1947.749496429288
 30
0.0
 11
29765.604341291921
 21
1947.749496429288
 31
0.0
1001
AUTOCAD_POSTSCRIPT_FIGURE
1002
{
1000
PSFILL
1000
Grayscale
1000
Grayscale
1070
    25
1002
}
  0
LINE
  5
FC3D
  8
YODOROGO
 10
29617.604341291921
 20
2027.749496429288
 30
0.0
 11
29617.604341291921
 21
1947.749496429288
 31
0.0
1001
AUTOCAD_POSTSCRIPT_FIGURE
1002
{
1000
PSFILL
1000
Grayscale
1000
Grayscale
1070
    25
1002
}
  0
LINE
  5
FC3E
  8
YODOROGO
 10
29665.604341291921
 20
2027.749496429288
 30
0.0
 11
29617.604341291921
 21
2027.749496429288
 31
0.0
1001
AUTOCAD_POSTSCRIPT_FIGURE
1002
{
1000
PSFILL
1000
Grayscale
1000
Grayscale
1070
    25
1002
}
  0
LINE
  5
FC3F
  8
YODOROGO
 10
29665.604341291921
 20
1995.7494964292871
 30
0.0
 11
29665.604341291921
 21
2027.749496429288
 31
0.0
1001
AUTOCAD_POSTSCRIPT_FIGURE
1002
{
1000
PSFILL
1000
Grayscale
1000
Grayscale
1070
    25
1002
}
  0
LINE
  5
FC40
  8
YODOROGO
 10
29765.604341291921
 20
1995.7494964292871
 30
0.0
 11
29665.604341291921
 21
1995.7494964292871
 31
0.0
1001
AUTOCAD_POSTSCRIPT_FIGURE
1002
{
1000
PSFILL
1000
Grayscale
1000
Grayscale
1070
    25
1002
}
  0
LINE
  5
FC41
  8
YODOROGO
 10
29765.604341291921
 20
2027.749496429288
 30
0.0
 11
29765.604341291921
 21
1995.7494964292871
 31
0.0
1001
AUTOCAD_POSTSCRIPT_FIGURE
1002
{
1000
PSFILL
1000
Grayscale
1000
Grayscale
1070
    25
1002
}
  0
LINE
  5
FC42
  8
YODOROGO
 10
29829.604341291921
 20
2027.749496429288
 30
0.0
 11
29765.604341291921
 21
2027.749496429288
 31
0.0
1001
AUTOCAD_POSTSCRIPT_FIGURE
1002
{
1000
PSFILL
1000
Grayscale
1000
Grayscale
1070
    25
1002
}
  0
LINE
  5
FC43
  8
YODOROGO
 10
29829.604341291921
 20
1995.7494964292871
 30
0.0
 11
29829.604341291921
 21
2027.749496429288
 31
0.0
1001
AUTOCAD_POSTSCRIPT_FIGURE
1002
{
1000
PSFILL
1000
Grayscale
1000
Grayscale
1070
    25
1002
}
  0
LINE
  5
FC44
  8
YODOROGO
 10
29829.604341291921
 20
1907.7494964292871
 30
0.0
 11
29829.604341291921
 21
1947.749496429288
 31
0.0
1001
AUTOCAD_POSTSCRIPT_FIGURE
1002
{
1000
PSFILL
1000
Grayscale
1000
Grayscale
1070
    25
1002
}
  0
LINE
  5
FC45
  8
YODOROGO
 10
29829.604341291921
 20
1819.7494964292871
 30
0.0
 11
29829.604341291921
 21
1859.749496429288
 31
0.0
1001
AUTOCAD_POSTSCRIPT_FIGURE
1002
{
1000
PSFILL
1000
Grayscale
1000
Grayscale
1070
    25
1002
}
  0
LINE
  5
FC46
  8
YODOROGO
 10
29921.60434129191
 20
1771.7494964292871
 30
0.0
 11
29921.60434129191
 21
1707.749496429288
 31
0.0
1001
AUTOCAD_POSTSCRIPT_FIGURE
1002
{
1000
PSFILL
1000
Grayscale
1000
Grayscale
1070
    25
1002
}
  0
LINE
  5
FC47
  8
YODOROGO
 10
29829.604341291921
 20
1771.7494964292871
 30
0.0
 11
29921.60434129191
 21
1771.7494964292871
 31
0.0
1001
AUTOCAD_POSTSCRIPT_FIGURE
1002
{
1000
PSFILL
1000
Grayscale
1000
Grayscale
1070
    25
1002
}
  0
LINE
  5
FC48
  8
YODOROGO
 10
29829.604341291921
 20
1707.749496429288
 30
0.0
 11
29829.604341291921
 21
1771.7494964292871
 31
0.0
1001
AUTOCAD_POSTSCRIPT_FIGURE
1002
{
1000
PSFILL
1000
Grayscale
1000
Grayscale
1070
    25
1002
}
  0
LINE
  5
FC49
  8
YODOROGO
 10
29765.604341291921
 20
1707.749496429288
 30
0.0
 11
29829.604341291921
 21
1707.749496429288
 31
0.0
1001
AUTOCAD_POSTSCRIPT_FIGURE
1002
{
1000
PSFILL
1000
Grayscale
1000
Grayscale
1070
    25
1002
}
  0
LINE
  5
FC4A
  8
YODOROGO
 10
29765.604341291921
 20
1771.7494964292871
 30
0.0
 11
29765.604341291921
 21
1707.749496429288
 31
0.0
1001
AUTOCAD_POSTSCRIPT_FIGURE
1002
{
1000
PSFILL
1000
Grayscale
1000
Grayscale
1070
    25
1002
}
  0
LINE
  5
FC4B
  8
YODOROGO
 10
29673.604341291921
 20
1771.7494964292871
 30
0.0
 11
29765.604341291921
 21
1771.7494964292871
 31
0.0
1001
AUTOCAD_POSTSCRIPT_FIGURE
1002
{
1000
PSFILL
1000
Grayscale
1000
Grayscale
1070
    25
1002
}
  0
ARC
  5
FC4C
  8
YODOROGO
 10
31059.517893357912
 20
1602.6807375155761
 30
0.0
 40
178.22128111072141
 50
281.02627495425338
 51
357.77113575573799
  0
LINE
  5
FC4D
  8
YODOROGO
 10
31413.604341291921
 20
1907.7494964292871
 30
0.0
 11
31165.604341291921
 21
1907.7494964292871
 31
0.0
  0
LINE
  5
FC4E
  8
YODOROGO
 10
31413.604341291921
 20
2027.749496429288
 30
0.0
 11
31165.604341291921
 21
2027.749496429288
 31
0.0
  0
LINE
  5
FC4F
  8
YODOROGO
 10
31165.604341291921
 20
1963.749496429286
 30
0.0
 11
31413.604341291921
 21
1963.749496429286
 31
0.0
  0
LINE
  5
FC50
  8
YODOROGO
 10
30791.604341291921
 20
1563.7494964292871
 30
0.0
 11
30791.604341291921
 21
1755.7494964292871
 31
0.0
  0
LINE
  5
FC51
  8
YODOROGO
 10
30763.604341291921
 20
1691.749496429288
 30
0.0
 11
30763.604341291921
 21
1563.7494964292871
 31
0.0
  0
LINE
  5
FC52
  8
YODOROGO
 10
30723.604341291921
 20
1491.749496429288
 30
0.0
 11
30723.604341291921
 21
1691.749496429288
 31
0.0
  0
LINE
  5
FC53
  8
YODOROGO
 10
30899.604341291932
 20
1691.749496429288
 30
0.0
 11
30899.604341291932
 21
1491.749496429288
 31
0.0
  0
LINE
  5
FC54
  8
YODOROGO
 10
30859.604341291932
 20
1563.7494964292871
 30
0.0
 11
30859.604341291932
 21
1691.749496429288
 31
0.0
  0
LINE
  5
FC55
  8
YODOROGO
 10
30831.604341291921
 20
1755.7494964292871
 30
0.0
 11
30831.604341291921
 21
1563.7494964292871
 31
0.0
  0
LINE
  5
FC56
  8
YODOROGO
 10
30973.604341291921
 20
2027.749496429288
 30
0.0
 11
30973.604341291921
 21
1467.749496429288
 31
0.0
  0
LINE
  5
FC57
  8
YODOROGO
 10
30645.604341291921
 20
1427.749496429288
 30
0.0
 11
30645.604341291921
 21
2027.749496429288
 31
0.0
  0
LINE
  5
FC58
  8
YODOROGO
 10
30697.604341291932
 20
1963.749496429286
 30
0.0
 11
30697.604341291932
 21
1427.749496429288
 31
0.0
  0
LINE
  5
FC59
  8
YODOROGO
 10
30925.604341291921
 20
1547.749496429288
 30
0.0
 11
30925.604341291921
 21
1963.749496429286
 31
0.0
  0
LINE
  5
FC5A
  8
YODOROGO
 10
30381.604341291932
 20
1627.749496429288
 30
0.0
 11
30381.604341291932
 21
1679.749496429288
 31
0.0
  0
LINE
  5
FC5B
  8
YODOROGO
 10
30617.604341291921
 20
1679.749496429288
 30
0.0
 11
30617.604341291921
 21
1627.749496429288
 31
0.0
  0
LINE
  5
FC5C
  8
YODOROGO
 10
31165.604341291921
 20
1907.7494964292871
 30
0.0
 11
31165.604341291921
 21
1635.7494964292871
 31
0.0
  0
LINE
  5
FC5D
  8
YODOROGO
 10
29949.60434129191
 20
1667.749496429288
 30
0.0
 11
29949.60434129191
 21
1707.749496429288
 31
0.0
  0
LINE
  5
FC5E
  8
YODOROGO
 10
29949.60434129191
 20
1667.749496429288
 30
0.0
 11
29949.60434129191
 21
1707.749496429288
 31
0.0
  0
ARC
  5
FC5F
  8
YODOROGO
 10
30537.604341291921
 20
1507.749496429288
 30
0.0
 40
80.0
 50
270.0
 51
0.0
  0
LINE
  5
FC60
  8
YODOROGO
 10
30569.604341291921
 20
1599.7494964292871
 30
0.0
 11
30617.604341291921
 21
1599.7494964292871
 31
0.0
  0
LINE
  5
FC61
  8
YODOROGO
 10
30617.604341291921
 20
1627.749496429288
 30
0.0
 11
30529.604341291939
 21
1627.749496429288
 31
0.0
  0
LINE
  5
FC62
  8
YODOROGO
 10
30217.604341291921
 20
1667.749496429288
 30
0.0
 11
29949.60434129191
 21
1667.749496429288
 31
0.0
  0
LINE
  5
FC63
  8
YODOROGO
 10
30217.604341291921
 20
1627.749496429288
 30
0.0
 11
30217.604341291921
 21
1667.749496429288
 31
0.0
  0
LINE
  5
FC64
  8
YODOROGO
 10
30017.604341291921
 20
1627.749496429288
 30
0.0
 11
30217.604341291921
 21
1627.749496429288
 31
0.0
  0
ARC
  5
FC65
  8
YODOROGO
 10
30230.05882870136
 20
1868.885714952901
 30
0.0
 40
321.37763628522822
 50
228.6181454618993
 51
245.660289248906
  0
LINE
  5
FC66
  8
YODOROGO
 10
30105.604341291921
 20
1603.7494964292871
 30
0.0
 11
30097.60434129195
 21
1576.0728158699001
 31
0.0
  0
LINE
  5
FC67
  8
YODOROGO
 10
30189.604341291921
 20
1603.7494964292871
 30
0.0
 11
30105.604341291921
 21
1603.7494964292871
 31
0.0
  0
LINE
  5
FC68
  8
YODOROGO
 10
30177.604341291921
 20
1551.817722473427
 30
0.0
 11
30189.604341291921
 21
1603.7494964292871
 31
0.0
  0
ARC
  5
FC69
  8
YODOROGO
 10
30230.05882870045
 20
1868.885714953002
 30
0.0
 40
321.37763628529081
 50
260.60629297969911
 51
267.77903556555862
  0
LINE
  5
FC6A
  8
YODOROGO
 10
30217.604341291921
 20
1427.749496429285
 30
0.0
 11
30217.604341291921
 21
1547.749496429288
 31
0.0
  0
LINE
  5
FC6B
  8
YODOROGO
 10
29937.604341291932
 20
1481.3393349155101
 30
0.0
 11
29937.604341291921
 21
1594.531090531141
 31
0.0
  0
LINE
  5
FC6C
  8
YODOROGO
 10
30217.604341291921
 20
1667.749496429288
 30
0.0
 11
29949.60434129191
 21
1667.749496429288
 31
0.0
  0
LINE
  5
FC6D
  8
YODOROGO
 10
30217.604341291921
 20
1627.749496429288
 30
0.0
 11
30217.604341291921
 21
1667.749496429288
 31
0.0
  0
LINE
  5
FC6E
  8
YODOROGO
 10
30017.604341291921
 20
1627.749496429288
 30
0.0
 11
30217.604341291921
 21
1627.749496429288
 31
0.0
  0
ARC
  5
FC6F
  8
YODOROGO
 10
30230.05882870136
 20
1868.885714952901
 30
0.0
 40
321.37763628522822
 50
228.6181454618993
 51
245.660289248906
  0
LINE
  5
FC70
  8
YODOROGO
 10
30105.604341291921
 20
1603.7494964292871
 30
0.0
 11
30097.60434129195
 21
1576.0728158699001
 31
0.0
  0
LINE
  5
FC71
  8
YODOROGO
 10
30189.604341291921
 20
1603.7494964292871
 30
0.0
 11
30105.604341291921
 21
1603.7494964292871
 31
0.0
  0
LINE
  5
FC72
  8
YODOROGO
 10
30177.604341291921
 20
1551.817722473427
 30
0.0
 11
30189.604341291921
 21
1603.7494964292871
 31
0.0
  0
ARC
  5
FC73
  8
YODOROGO
 10
30230.05882870045
 20
1868.885714953002
 30
0.0
 40
321.37763628529081
 50
260.60629297969911
 51
267.77903556555862
  0
LINE
  5
FC74
  8
YODOROGO
 10
30217.604341291921
 20
1427.749496429285
 30
0.0
 11
30217.604341291921
 21
1547.749496429288
 31
0.0
  0
LINE
  5
FC75
  8
YODOROGO
 10
29937.604341291932
 20
1481.3393349155101
 30
0.0
 11
29937.604341291921
 21
1594.531090531141
 31
0.0
  0
LINE
  5
FC76
  8
YODOROGO
 10
30433.604341291921
 20
1573.749496429288
 30
0.0
 11
30381.604341291932
 21
1573.749496429288
 31
0.0
  0
LINE
  5
FC77
  8
YODOROGO
 10
30433.604341291921
 20
1601.749496429285
 30
0.0
 11
30433.604341291921
 21
1573.749496429288
 31
0.0
  0
LINE
  5
FC78
  8
YODOROGO
 10
30381.604341291932
 20
1601.749496429285
 30
0.0
 11
30433.604341291921
 21
1601.749496429285
 31
0.0
  0
LINE
  5
FC79
  8
YODOROGO
 10
30381.604341291932
 20
1573.749496429288
 30
0.0
 11
30381.604341291932
 21
1601.749496429285
 31
0.0
  0
LINE
  5
FC7A
  8
YODOROGO
 10
30429.604341291921
 20
1577.7494964292871
 30
0.0
 11
30385.604341291921
 21
1577.7494964292871
 31
0.0
  0
LINE
  5
FC7B
  8
YODOROGO
 10
30429.604341291921
 20
1597.749496429288
 30
0.0
 11
30429.604341291921
 21
1577.7494964292871
 31
0.0
  0
LINE
  5
FC7C
  8
YODOROGO
 10
30385.604341291921
 20
1597.749496429288
 30
0.0
 11
30429.604341291921
 21
1597.749496429288
 31
0.0
  0
LINE
  5
FC7D
  8
YODOROGO
 10
30385.604341291921
 20
1577.7494964292871
 30
0.0
 11
30385.604341291921
 21
1597.749496429288
 31
0.0
  0
LINE
  5
FC7E
  8
YODOROGO
 10
30425.604341291921
 20
1581.749496429286
 30
0.0
 11
30389.604341291921
 21
1581.749496429286
 31
0.0
  0
LINE
  5
FC7F
  8
YODOROGO
 10
30425.604341291921
 20
1593.749496429288
 30
0.0
 11
30425.604341291921
 21
1581.749496429286
 31
0.0
  0
LINE
  5
FC80
  8
YODOROGO
 10
30389.604341291921
 20
1593.749496429288
 30
0.0
 11
30425.604341291921
 21
1593.749496429288
 31
0.0
  0
LINE
  5
FC81
  8
YODOROGO
 10
30389.604341291921
 20
1581.749496429286
 30
0.0
 11
30389.604341291921
 21
1593.749496429288
 31
0.0
  0
LINE
  5
FC82
  8
YODOROGO
 10
30421.604341291932
 20
1585.7494964292871
 30
0.0
 11
30393.604341291921
 21
1585.7494964292871
 31
0.0
  0
LINE
  5
FC83
  8
YODOROGO
 10
30421.604341291932
 20
1589.749496429288
 30
0.0
 11
30421.604341291932
 21
1585.7494964292871
 31
0.0
  0
LINE
  5
FC84
  8
YODOROGO
 10
30393.604341291921
 20
1589.749496429288
 30
0.0
 11
30421.604341291932
 21
1589.749496429288
 31
0.0
  0
LINE
  5
FC85
  8
YODOROGO
 10
30393.604341291921
 20
1585.7494964292871
 30
0.0
 11
30393.604341291921
 21
1589.749496429288
 31
0.0
  0
LINE
  5
FC86
  8
YODOROGO
 10
30465.604341291921
 20
1627.749496429288
 30
0.0
 11
30381.604341291932
 21
1627.749496429288
 31
0.0
  0
LINE
  5
FC87
  8
YODOROGO
 10
30465.604341291921
 20
1547.749496429288
 30
0.0
 11
30465.604341291921
 21
1627.749496429288
 31
0.0
  0
LINE
  5
FC88
  8
YODOROGO
 10
30381.604341291932
 20
1547.749496429288
 30
0.0
 11
30465.604341291921
 21
1547.749496429288
 31
0.0
  0
LINE
  5
FC89
  8
YODOROGO
 10
30381.604341291932
 20
1427.749496429288
 30
0.0
 11
30381.604341291932
 21
1547.749496429288
 31
0.0
  0
LINE
  5
FC8A
  8
YODOROGO
 10
30537.604341291921
 20
1427.749496429288
 30
0.0
 11
30381.604341291932
 21
1427.749496429288
 31
0.0
  0
LINE
  5
FC8B
  8
YODOROGO
 10
30569.604341291921
 20
1571.749496429285
 30
0.0
 11
30569.604341291921
 21
1599.7494964292871
 31
0.0
  0
ARC
  5
FC8C
  8
YODOROGO
 10
30545.604341291921
 20
1571.749496429291
 30
0.0
 40
24.000000000003752
 50
270.0
 51
359.99999999998772
  0
LINE
  5
FC8D
  8
YODOROGO
 10
30529.604341291939
 20
1547.749496429288
 30
0.0
 11
30545.604341291921
 21
1547.749496429288
 31
0.0
  0
LINE
  5
FC8E
  8
YODOROGO
 10
30529.604341291939
 20
1627.749496429288
 30
0.0
 11
30529.604341291939
 21
1547.749496429288
 31
0.0
  0
LINE
  5
FC8F
  8
YODOROGO
 10
30899.604341291932
 20
1547.749496429288
 30
0.0
 11
30925.604341291921
 21
1547.749496429288
 31
0.0
  0
LINE
  5
FC90
  8
YODOROGO
 10
30933.604341291921
 20
1427.749496429288
 30
0.0
 11
30899.604341291932
 21
1427.749496429288
 31
0.0
  0
LINE
  5
FC91
  8
YODOROGO
 10
30763.604341291921
 20
1563.7494964292871
 30
0.0
 11
30791.604341291921
 21
1563.7494964292871
 31
0.0
  0
LINE
  5
FC92
  8
YODOROGO
 10
30899.604341291932
 20
1491.749496429288
 30
0.0
 11
30723.604341291921
 21
1491.749496429288
 31
0.0
  0
LINE
  5
FC93
  8
YODOROGO
 10
30831.604341291921
 20
1563.7494964292871
 30
0.0
 11
30859.604341291932
 21
1563.7494964292871
 31
0.0
  0
LINE
  5
FC94
  8
YODOROGO
 10
30899.604341291932
 20
1427.749496429288
 30
0.0
 11
30899.604341291932
 21
1547.749496429288
 31
0.0
  0
LINE
  5
FC95
  8
YODOROGO
 10
30697.604341291932
 20
1427.749496429288
 30
0.0
 11
30645.604341291921
 21
1427.749496429288
 31
0.0
  0
LINE
  5
FC96
  8
YODOROGO
 10
30617.604341291921
 20
1599.7494964292871
 30
0.0
 11
30617.604341291921
 21
1507.749496429288
 31
0.0
  0
ARC
  5
FC97
  8
YODOROGO
 10
30933.604341291921
 20
1467.749496429288
 30
0.0
 40
40.0
 50
270.0
 51
0.0
  0
LINE
  5
FC98
  8
YODOROGO
 10
31093.604341291921
 20
1523.7494964292871
 30
0.0
 11
31093.604341291921
 21
1427.749496429288
 31
0.0
  0
ARC
  5
FC99
  8
YODOROGO
 10
31039.721395566768
 20
1637.5313901097329
 30
0.0
 40
125.8955565916754
 50
295.34052442160112
 51
359.18902303418679
  0
LINE
  5
FC9A
  8
YODOROGO
 10
30617.604341291921
 20
1859.749496429288
 30
0.0
 11
30497.604341291921
 21
1939.749496429288
 31
0.0
  0
LINE
  5
FC9B
  8
YODOROGO
 10
30497.604341291921
 20
2027.749496429288
 30
0.0
 11
30617.604341291921
 21
1947.749496429288
 31
0.0
  0
LINE
  5
FC9C
  8
YODOROGO
 10
30529.604341291939
 20
1679.749496429288
 30
0.0
 11
30617.604341291921
 21
1679.749496429288
 31
0.0
  0
LINE
  5
FC9D
  8
YODOROGO
 10
30617.604341291921
 20
1735.7494964292871
 30
0.0
 11
30529.604341291939
 21
1735.7494964292871
 31
0.0
  0
LINE
  5
FC9E
  8
YODOROGO
 10
30381.604341291932
 20
1795.7494964292871
 30
0.0
 11
30617.604341291921
 21
1795.7494964292871
 31
0.0
  0
LINE
  5
FC9F
  8
YODOROGO
 10
30081.604341291921
 20
2027.749496429288
 30
0.0
 11
30021.604341291921
 21
2027.749496429288
 31
0.0
  0
LINE
  5
FCA0
  8
YODOROGO
 10
30081.604341291921
 20
1827.7494964292871
 30
0.0
 11
30081.604341291921
 21
2027.749496429288
 31
0.0
  0
LINE
  5
FCA1
  8
YODOROGO
 10
30021.604341291921
 20
1827.7494964292871
 30
0.0
 11
30081.604341291921
 21
1827.7494964292871
 31
0.0
  0
LINE
  5
FCA2
  8
YODOROGO
 10
30021.604341291921
 20
2027.749496429288
 30
0.0
 11
30021.604341291921
 21
1827.7494964292871
 31
0.0
  0
LINE
  5
FCA3
  8
YODOROGO
 10
30161.604341291921
 20
2027.749496429288
 30
0.0
 11
30217.604341291921
 21
2027.749496429288
 31
0.0
  0
LINE
  5
FCA4
  8
YODOROGO
 10
30161.604341291921
 20
1811.749496429288
 30
0.0
 11
30161.604341291921
 21
2027.749496429288
 31
0.0
  0
ARC
  5
FCA5
  8
YODOROGO
 10
30121.604341291921
 20
1811.749496429288
 30
0.0
 40
40.0
 50
270.0
 51
0.0
  0
LINE
  5
FCA6
  8
YODOROGO
 10
30021.604341291921
 20
1771.7494964292871
 30
0.0
 11
30121.604341291921
 21
1771.7494964292871
 31
0.0
  0
LINE
  5
FCA7
  8
YODOROGO
 10
30021.604341291921
 20
1707.749496429288
 30
0.0
 11
30021.604341291921
 21
1771.7494964292871
 31
0.0
  0
LINE
  5
FCA8
  8
YODOROGO
 10
30137.604341291921
 20
1707.749496429288
 30
0.0
 11
30021.604341291921
 21
1707.749496429288
 31
0.0
  0
ARC
  5
FCA9
  8
YODOROGO
 10
30137.604341291921
 20
1787.7494964292871
 30
0.0
 40
80.0
 50
270.0
 51
0.0
  0
LINE
  5
FCAA
  8
YODOROGO
 10
30217.604341291921
 20
2027.749496429288
 30
0.0
 11
30217.604341291921
 21
1787.7494964292871
 31
0.0
  0
LINE
  5
FCAB
  8
YODOROGO
 10
29977.604341291921
 20
1947.749496429288
 30
0.0
 11
29977.604341291921
 21
1995.7494964292871
 31
0.0
1001
AUTOCAD_POSTSCRIPT_FIGURE
1002
{
1000
PSFILL
1000
Grayscale
1000
Grayscale
1070
    25
1002
}
  0
LINE
  5
FCAC
  8
YODOROGO
 10
29977.604341291921
 20
1859.749496429288
 30
0.0
 11
29977.604341291921
 21
1907.7494964292871
 31
0.0
1001
AUTOCAD_POSTSCRIPT_FIGURE
1002
{
1000
PSFILL
1000
Grayscale
1000
Grayscale
1070
    25
1002
}
  0
LINE
  5
FCAD
  8
YODOROGO
 10
29977.604341291921
 20
1707.749496429288
 30
0.0
 11
29977.604341291921
 21
1819.7494964292871
 31
0.0
1001
AUTOCAD_POSTSCRIPT_FIGURE
1002
{
1000
PSFILL
1000
Grayscale
1000
Grayscale
1070
    25
1002
}
  0
LINE
  5
FCAE
  8
YODOROGO
 10
30381.604341291932
 20
1907.7494964292871
 30
0.0
 11
30497.604341291921
 21
2027.749496429288
 31
0.0
  0
LINE
  5
FCAF
  8
YODOROGO
 10
30381.604341291932
 20
1819.7494964292871
 30
0.0
 11
30381.604341291932
 21
1907.7494964292871
 31
0.0
  0
LINE
  5
FCB0
  8
YODOROGO
 10
30497.604341291921
 20
1939.749496429288
 30
0.0
 11
30381.604341291932
 21
1819.7494964292871
 31
0.0
  0
LINE
  5
FCB1
  8
YODOROGO
 10
30465.604341291921
 20
1679.749496429288
 30
0.0
 11
30465.604341291921
 21
1735.7494964292871
 31
0.0
  0
LINE
  5
FCB2
  8
YODOROGO
 10
30381.604341291932
 20
1679.749496429288
 30
0.0
 11
30465.604341291921
 21
1679.749496429288
 31
0.0
  0
LINE
  5
FCB3
  8
YODOROGO
 10
30529.604341291939
 20
1735.7494964292871
 30
0.0
 11
30529.604341291939
 21
1679.749496429288
 31
0.0
  0
LINE
  5
FCB4
  8
YODOROGO
 10
30381.604341291932
 20
1735.7494964292871
 30
0.0
 11
30381.604341291932
 21
1795.7494964292871
 31
0.0
  0
LINE
  5
FCB5
  8
YODOROGO
 10
30465.604341291921
 20
1735.7494964292871
 30
0.0
 11
30381.604341291932
 21
1735.7494964292871
 31
0.0
  0
LINE
  5
FCB6
  8
YODOROGO
 10
30645.604341291921
 20
2027.749496429288
 30
0.0
 11
30973.604341291921
 21
2027.749496429288
 31
0.0
  0
LINE
  5
FCB7
  8
YODOROGO
 10
30925.604341291921
 20
1963.749496429286
 30
0.0
 11
30697.604341291932
 21
1963.749496429286
 31
0.0
  0
LINE
  5
FCB8
  8
YODOROGO
 10
30873.604341291921
 20
1819.7494964292871
 30
0.0
 11
30899.604341291932
 21
1819.7494964292871
 31
0.0
  0
LINE
  5
FCB9
  8
YODOROGO
 10
30899.604341291932
 20
1939.749496429288
 30
0.0
 11
30873.604341291921
 21
1819.7494964292871
 31
0.0
  0
LINE
  5
FCBA
  8
YODOROGO
 10
30851.604341291939
 20
1939.749496429288
 30
0.0
 11
30899.604341291932
 21
1939.749496429288
 31
0.0
  0
LINE
  5
FCBB
  8
YODOROGO
 10
30825.604341291921
 20
1819.7494964292871
 30
0.0
 11
30851.604341291939
 21
1939.749496429288
 31
0.0
  0
LINE
  5
FCBC
  8
YODOROGO
 10
30797.604341291921
 20
1819.7494964292871
 30
0.0
 11
30825.604341291921
 21
1819.7494964292871
 31
0.0
  0
LINE
  5
FCBD
  8
YODOROGO
 10
30771.604341291939
 20
1939.749496429288
 30
0.0
 11
30797.604341291921
 21
1819.7494964292871
 31
0.0
  0
LINE
  5
FCBE
  8
YODOROGO
 10
30723.604341291921
 20
1939.749496429288
 30
0.0
 11
30771.604341291939
 21
1939.749496429288
 31
0.0
  0
LINE
  5
FCBF
  8
YODOROGO
 10
30749.604341291921
 20
1819.7494964292871
 30
0.0
 11
30723.604341291921
 21
1939.749496429288
 31
0.0
  0
LINE
  5
FCC0
  8
YODOROGO
 10
30723.604341291921
 20
1819.7494964292871
 30
0.0
 11
30749.604341291921
 21
1819.7494964292871
 31
0.0
  0
LINE
  5
FCC1
  8
YODOROGO
 10
30723.604341291921
 20
1755.7494964292871
 30
0.0
 11
30723.604341291921
 21
1819.7494964292871
 31
0.0
  0
LINE
  5
FCC2
  8
YODOROGO
 10
30899.604341291932
 20
1755.7494964292871
 30
0.0
 11
30723.604341291921
 21
1755.7494964292871
 31
0.0
  0
LINE
  5
FCC3
  8
YODOROGO
 10
30899.604341291932
 20
1819.7494964292871
 30
0.0
 11
30899.604341291932
 21
1755.7494964292871
 31
0.0
  0
LINE
  5
FCC4
  8
YODOROGO
 10
30617.604341291921
 20
1947.749496429288
 30
0.0
 11
30617.604341291921
 21
1859.749496429288
 31
0.0
  0
LINE
  5
FCC5
  8
YODOROGO
 10
30791.604341291921
 20
1755.7494964292871
 30
0.0
 11
30831.604341291921
 21
1755.7494964292871
 31
0.0
  0
LINE
  5
FCC6
  8
YODOROGO
 10
30723.604341291921
 20
1691.749496429288
 30
0.0
 11
30763.604341291921
 21
1691.749496429288
 31
0.0
  0
LINE
  5
FCC7
  8
YODOROGO
 10
30859.604341291932
 20
1691.749496429288
 30
0.0
 11
30899.604341291932
 21
1691.749496429288
 31
0.0
  0
LINE
  5
FCC8
  8
YODOROGO
 10
30617.604341291921
 20
1795.7494964292871
 30
0.0
 11
30617.604341291921
 21
1735.7494964292871
 31
0.0
  0
LINE
  5
FCC9
  8
YODOROGO
 10
31165.604341291921
 20
2027.749496429288
 30
0.0
 11
31165.604341291921
 21
1963.749496429286
 31
0.0
  0
LINE
  5
FCCA
  8
YODOROGO
 10
31533.604341291921
 20
1595.7494964292871
 30
0.0
 11
31533.60434129191
 21
1811.749496429288
 31
0.0
  0
LINE
  5
FCCB
  8
YODOROGO
 10
31461.60434129191
 20
1987.7494964292871
 30
0.0
 11
31461.60434129191
 21
1635.7494964292871
 31
0.0
  0
LINE
  5
FCCC
  8
YODOROGO
 10
31653.604341291921
 20
1427.749496429288
 30
0.0
 11
31653.60434129191
 21
1811.749496429288
 31
0.0
  0
LINE
  5
FCCD
  8
YODOROGO
 10
31589.604341291921
 20
1811.749496429288
 30
0.0
 11
31589.604341291921
 21
1427.749496429288
 31
0.0
  0
LINE
  5
FCCE
  8
YODOROGO
 10
31237.604341291921
 20
1595.7494964292871
 30
0.0
 11
31237.604341291921
 21
1707.749496429288
 31
0.0
  0
ARC
  5
FCCF
  8
YODOROGO
 10
31353.914865116069
 20
1607.790351288558
 30
0.0
 40
180.0924485759885
 50
268.62849102169793
 51
356.16638457330322
  0
LINE
  5
FCD0
  8
YODOROGO
 10
31349.604341291939
 20
1527.749496429288
 30
0.0
 11
31349.604341291939
 21
1427.749496429288
 31
0.0
  0
ARC
  5
FCD1
  8
YODOROGO
 10
31351.518075724562
 20
1637.838957017655
 30
0.0
 40
110.1060929836122
 50
269.00410209305932
 51
358.91264455492478
  0
LINE
  5
FCD2
  8
YODOROGO
 10
31589.604341291921
 20
1427.749496429288
 30
0.0
 11
31653.604341291921
 21
1427.749496429288
 31
0.0
  0
LINE
  5
FCD3
  8
YODOROGO
 10
31533.60434129191
 20
1811.749496429288
 30
0.0
 11
31589.604341291921
 21
1811.749496429288
 31
0.0
  0
LINE
  5
FCD4
  8
YODOROGO
 10
31621.604341291939
 20
1987.7494964292871
 30
0.0
 11
31461.60434129191
 21
1987.7494964292871
 31
0.0
  0
LINE
  5
FCD5
  8
YODOROGO
 10
31533.60434129191
 20
1915.7494964292871
 30
0.0
 11
31661.604341291939
 21
1915.7494964292871
 31
0.0
  0
LINE
  5
FCD6
  8
YODOROGO
 10
31701.604341291939
 20
1875.7494964292871
 30
0.0
 11
31533.60434129191
 21
1875.7494964292871
 31
0.0
  0
LINE
  5
FCD7
  8
YODOROGO
 10
31237.604341291921
 20
1779.749496429288
 30
0.0
 11
31349.604341291939
 21
1779.749496429288
 31
0.0
  0
LINE
  5
FCD8
  8
YODOROGO
 10
31237.604341291921
 20
1835.7494964292871
 30
0.0
 11
31237.604341291921
 21
1779.749496429288
 31
0.0
  0
LINE
  5
FCD9
  8
YODOROGO
 10
31349.604341291939
 20
1835.7494964292871
 30
0.0
 11
31237.604341291921
 21
1835.7494964292871
 31
0.0
  0
LINE
  5
FCDA
  8
YODOROGO
 10
31349.604341291939
 20
1779.749496429288
 30
0.0
 11
31349.604341291939
 21
1835.7494964292871
 31
0.0
  0
LINE
  5
FCDB
  8
YODOROGO
 10
31533.60434129191
 20
1875.7494964292871
 30
0.0
 11
31533.60434129191
 21
1915.7494964292871
 31
0.0
  0
LINE
  5
FCDC
  8
YODOROGO
 10
31413.604341291921
 20
1707.749496429288
 30
0.0
 11
31413.604341291921
 21
1907.7494964292871
 31
0.0
  0
LINE
  5
FCDD
  8
YODOROGO
 10
31237.604341291921
 20
1707.749496429288
 30
0.0
 11
31413.604341291921
 21
1707.749496429288
 31
0.0
  0
LINE
  5
FCDE
  8
YODOROGO
 10
31413.604341291921
 20
1963.749496429286
 30
0.0
 11
31413.604341291921
 21
2027.749496429288
 31
0.0
  0
ARC
  5
FCDF
  8
YODOROGO
 10
31621.604341291939
 20
2003.749496429285
 30
0.0
 40
15.999999999994539
 50
270.0
 51
0.0000000000081422
  0
LINE
  5
FCE0
  8
YODOROGO
 10
31637.604341291921
 20
2027.749496429288
 30
0.0
 11
31637.604341291921
 21
2003.7494964292871
 31
0.0
  0
LINE
  5
FCE1
  8
YODOROGO
 10
31701.604341291939
 20
2027.749496429288
 30
0.0
 11
31637.604341291921
 21
2027.749496429288
 31
0.0
  0
LINE
  5
FCE2
  8
YODOROGO
 10
31701.604341291939
 20
1955.7494964292871
 30
0.0
 11
31701.604341291939
 21
2027.749496429288
 31
0.0
  0
ARC
  5
FCE3
  8
YODOROGO
 10
31661.604341291939
 20
1955.7494964292871
 30
0.0
 40
40.0
 50
270.0
 51
0.0
  0
LINE
  5
FCE4
  8
YODOROGO
 10
31701.604341291939
 20
1811.749496429288
 30
0.0
 11
31701.604341291939
 21
1875.7494964292871
 31
0.0
  0
LINE
  5
FCE5
  8
YODOROGO
 10
31653.60434129191
 20
1811.749496429288
 30
0.0
 11
31701.604341291939
 21
1811.749496429288
 31
0.0
  0
LINE
  5
FD74
  8
SUNPOU
  6
CONTINUOUS
 62
     4
 10
6326.2335704709403
 20
8478.188374000003
 30
0.0
 11
6326.2335704709403
 21
9869.1883999999955
 31
0.0
  0
LINE
  5
FD75
  8
SUNPOU
  6
CONTINUOUS
 62
     4
 10
12226.73357047094
 20
8610.0781974124311
 30
0.0
 11
12226.73357047094
 21
9869.1883999999955
 31
0.0
  0
LINE
  5
FD76
  8
SUNPOU
  6
CONTINUOUS
 62
     4
 10
6326.2335704709403
 20
9789.1883999999955
 30
0.0
 11
12226.73357047094
 21
9789.1883999999955
 31
0.0
  0
LINE
  5
FD77
  8
SUNPOU
  6
CONTINUOUS
 62
     4
 10
12076.73357047094
 20
8536.0984379999973
 30
0.0
 11
12076.73357047094
 21
9469.1900500000029
 31
0.0
  0
LINE
  5
FD78
  8
SUNPOU
  6
CONTINUOUS
 62
     4
 10
12226.73357047094
 20
8610.0781974124311
 30
0.0
 11
12226.73357047094
 21
9469.1900500000029
 31
0.0
  0
LINE
  5
FD79
  8
SUNPOU
  6
CONTINUOUS
 62
     4
 10
12076.73357047094
 20
9389.1900500000029
 30
0.0
 11
11836.73357047094
 21
9389.1900500000029
 31
0.0
  0
LINE
  5
FD7A
  8
SUNPOU
  6
CONTINUOUS
 62
     4
 10
12226.73357047094
 20
9389.1900500000029
 30
0.0
 11
12466.73357047094
 21
9389.1900500000029
 31
0.0
  0
LINE
  5
FD7B
  8
SUNPOU
  6
CONTINUOUS
 62
     4
 10
12076.73357047094
 20
9389.1900500000029
 30
0.0
 11
12226.73357047094
 21
9389.1900500000029
 31
0.0
  0
LINE
  5
FD7C
  8
SUNPOU
  6
CONTINUOUS
 62
     4
 10
6506.2335704709376
 20
8348.3741496838102
 30
0.0
 11
6506.2335704709376
 21
9469.1900500000029
 31
0.0
  0
LINE
  5
FD7D
  8
SUNPOU
  6
CONTINUOUS
 62
     4
 10
12076.73357047094
 20
8536.0984379999973
 30
0.0
 11
12076.73357047094
 21
9469.1900500000029
 31
0.0
  0
LINE
  5
FD7E
  8
SUNPOU
  6
CONTINUOUS
 62
     4
 10
6506.2335704709376
 20
9389.1900500000029
 30
0.0
 11
12076.73357047094
 21
9389.1900500000029
 31
0.0
  0
LINE
  5
FD7F
  8
SUNPOU
  6
CONTINUOUS
 62
     4
 10
6326.2335704709403
 20
8478.188374000003
 30
0.0
 11
6326.2335704709403
 21
9469.1900500000029
 31
0.0
  0
LINE
  5
FD80
  8
SUNPOU
  6
CONTINUOUS
 62
     4
 10
6506.2335704709376
 20
8348.3741496838102
 30
0.0
 11
6506.2335704709376
 21
9469.1900500000029
 31
0.0
  0
LINE
  5
FD81
  8
SUNPOU
  6
CONTINUOUS
 62
     4
 10
6326.2335704709403
 20
9389.1900500000029
 30
0.0
 11
6506.2335704709376
 21
9389.1900500000029
 31
0.0
  0
LINE
  5
FD82
  8
SUNPOU
  6
CONTINUOUS
 62
     4
 10
12169.23357047094
 20
6241.1883740000021
 30
0.0
 11
13246.73396647094
 21
6241.1883740000021
 31
0.0
  0
LINE
  5
FD83
  8
SUNPOU
  6
CONTINUOUS
 62
     4
 10
12261.54083007032
 20
8589.688374000003
 30
0.0
 11
13246.73396647094
 21
8589.688374000003
 31
0.0
  0
LINE
  5
FD84
  8
SUNPOU
  6
CONTINUOUS
 62
     4
 10
13166.73396647094
 20
6241.1883740000021
 30
0.0
 11
13166.73396647094
 21
8589.688374000003
 31
0.0
  0
LINE
  5
FD85
  8
SUNPOU
  6
CONTINUOUS
 62
     4
 10
6418.7335704709421
 20
6241.1883740000021
 30
0.0
 11
5336.2331744709518
 21
6241.1883740000039
 31
0.0
  0
LINE
  5
FD86
  8
SUNPOU
  6
CONTINUOUS
 62
     4
 10
6246.2335704709403
 20
8397.1883740000048
 30
0.0
 11
5336.2331744709518
 21
8397.1883740000048
 31
0.0
  0
LINE
  5
FD87
  8
SUNPOU
  6
CONTINUOUS
 62
     4
 10
5416.2331744709518
 20
6241.1883740000039
 30
0.0
 11
5416.2331744709518
 21
8397.1883740000048
 31
0.0
  0
LINE
  5
FD88
  8
SUNPOU
  6
CONTINUOUS
 62
     4
 10
6506.2335704709376
 20
6161.1883740000021
 30
0.0
 11
6506.2335704709376
 21
4461.1887039999992
 31
0.0
  0
LINE
  5
FD89
  8
SUNPOU
  6
CONTINUOUS
 62
     4
 10
12076.73357047094
 20
6161.1883740000021
 30
0.0
 11
12076.73357047094
 21
4461.1887039999992
 31
0.0
  0
LINE
  5
FD8A
  8
SUNPOU
  6
CONTINUOUS
 62
     4
 10
6506.2335704709376
 20
4541.1887039999983
 30
0.0
 11
12076.73357047094
 21
4541.1887039999983
 31
0.0
  0
LINE
  5
FD8B
  8
SUNPOU
  6
CONTINUOUS
 62
     4
 10
12034.23357047094
 20
5798.5361160000011
 30
0.0
 11
12034.23357047094
 21
4861.1885389999998
 31
0.0
  0
LINE
  5
FD8C
  8
SUNPOU
  6
CONTINUOUS
 62
     4
 10
12076.73357047094
 20
6161.1883740000021
 30
0.0
 11
12076.73357047094
 21
4861.1885389999998
 31
0.0
  0
LINE
  5
FD8D
  8
SUNPOU
  6
CONTINUOUS
 62
     4
 10
12034.23357047094
 20
4941.1885390000016
 30
0.0
 11
11794.23357047094
 21
4941.1885390000016
 31
0.0
  0
LINE
  5
FD8E
  8
SUNPOU
  6
CONTINUOUS
 62
     4
 10
12076.73357047094
 20
4941.1885390000016
 30
0.0
 11
12316.73357047094
 21
4941.1885390000016
 31
0.0
  0
LINE
  5
FD8F
  8
SUNPOU
  6
CONTINUOUS
 62
     4
 10
12034.23357047094
 20
4941.1885390000016
 30
0.0
 11
12076.73357047094
 21
4941.1885390000016
 31
0.0
  0
LINE
  5
FD90
  8
SUNPOU
  6
CONTINUOUS
 62
     4
 10
6548.7335704709412
 20
5798.5361160000011
 30
0.0
 11
6548.7335704709412
 21
4861.1885389999998
 31
0.0
  0
LINE
  5
FD91
  8
SUNPOU
  6
CONTINUOUS
 62
     4
 10
6506.2335704709376
 20
6161.1883740000021
 30
0.0
 11
6506.2335704709376
 21
4861.1885389999998
 31
0.0
  0
LINE
  5
FD92
  8
SUNPOU
  6
CONTINUOUS
 62
     4
 10
6548.7335704709412
 20
4941.1885390000016
 30
0.0
 11
6788.7335704709403
 21
4941.1885390000016
 31
0.0
  0
LINE
  5
FD93
  8
SUNPOU
  6
CONTINUOUS
 62
     4
 10
6506.2335704709376
 20
4941.1885390000016
 30
0.0
 11
6266.2335704709412
 21
4941.1885390000016
 31
0.0
  0
LINE
  5
FD94
  8
SUNPOU
  6
CONTINUOUS
 62
     4
 10
6548.7335704709412
 20
4941.1885390000016
 30
0.0
 11
6506.2335704709376
 21
4941.1885390000016
 31
0.0
  0
LINE
  5
FD95
  8
SUNPOU
  6
CONTINUOUS
 62
     4
 10
9116.2335704709403
 20
5798.5361160000011
 30
0.0
 11
9116.2335704709403
 21
4861.1885389999998
 31
0.0
  0
LINE
  5
FD96
  8
SUNPOU
  6
CONTINUOUS
 62
     4
 10
6548.7335704709412
 20
5798.5361160000011
 30
0.0
 11
6548.7335704709412
 21
4861.1885389999998
 31
0.0
  0
LINE
  5
FD97
  8
SUNPOU
  6
CONTINUOUS
 62
     4
 10
9116.2335704709403
 20
4941.1885390000016
 30
0.0
 11
6548.7335704709412
 21
4941.1885390000016
 31
0.0
  0
LINE
  5
FD98
  8
SUNPOU
  6
CONTINUOUS
 62
     4
 10
9116.2335704709403
 20
5798.5361160000011
 30
0.0
 11
9116.2335704709403
 21
4861.1885389999998
 31
0.0
  0
LINE
  5
FD99
  8
SUNPOU
  6
CONTINUOUS
 62
     4
 10
12034.23357047094
 20
5798.5361160000011
 30
0.0
 11
12034.23357047094
 21
4861.1885389999998
 31
0.0
  0
LINE
  5
FD9A
  8
SUNPOU
  6
CONTINUOUS
 62
     4
 10
9116.2335704709403
 20
4941.1885390000016
 30
0.0
 11
12034.23357047094
 21
4941.1885390000016
 31
0.0
  0
LINE
  5
FD9B
  8
SUNPOU
  6
CONTINUOUS
 62
     4
 10
19688.010092585158
 20
8669.6883999999955
 30
0.0
 11
19688.010092585158
 21
9869.1329740000037
 31
0.0
  0
LINE
  5
FD9C
  8
SUNPOU
  6
CONTINUOUS
 62
     4
 10
27426.510092585158
 20
8669.6883999999955
 30
0.0
 11
27426.510092585158
 21
9869.1329740000037
 31
0.0
  0
LINE
  5
FD9D
  8
SUNPOU
  6
CONTINUOUS
 62
     4
 10
19691.010092585158
 20
9789.1329740000037
 30
0.0
 11
27423.510092585158
 21
9789.1329740000037
 31
0.0
  0
LINE
  5
FD9E
  8
SUNPOU
  6
CONTINUOUS
 62
     4
 10
27383.510092585158
 20
8669.6883999999955
 30
0.0
 11
27383.510092585158
 21
9469.1900500000029
 31
0.0
  0
LINE
  5
FD9F
  8
SUNPOU
  6
CONTINUOUS
 62
     4
 10
27426.510092585158
 20
8669.6883999999955
 30
0.0
 11
27426.510092585158
 21
9469.1900500000029
 31
0.0
  0
LINE
  5
FDA0
  8
SUNPOU
  6
CONTINUOUS
 62
     4
 10
27383.510092585158
 20
9389.1900500000029
 30
0.0
 11
27143.510092585158
 21
9389.1900500000029
 31
0.0
  0
LINE
  5
FDA1
  8
SUNPOU
  6
CONTINUOUS
 62
     4
 10
27423.510092585158
 20
9389.1900500000029
 30
0.0
 11
27663.510092585158
 21
9389.1900500000029
 31
0.0
  0
LINE
  5
FDA2
  8
SUNPOU
  6
CONTINUOUS
 62
     4
 10
27383.510092585158
 20
9389.1900500000029
 30
0.0
 11
27423.510092585158
 21
9389.1900500000029
 31
0.0
  0
LINE
  5
FDA3
  8
SUNPOU
  6
CONTINUOUS
 62
     4
 10
19731.010092585158
 20
8539.6884659999996
 30
0.0
 11
19731.010092585158
 21
9469.1900500000029
 31
0.0
  0
LINE
  5
FDA5
  8
SUNPOU
  6
CONTINUOUS
 62
     4
 10
19731.010092585158
 20
9389.1900500000029
 30
0.0
 11
19971.010092585158
 21
9389.1900500000029
 31
0.0
  0
LINE
  5
FDA6
  8
SUNPOU
  6
CONTINUOUS
 62
     4
 10
19691.010092585158
 20
9389.1900500000029
 30
0.0
 11
19451.010092585158
 21
9389.1900500000029
 31
0.0
  0
LINE
  5
FDA7
  8
SUNPOU
  6
CONTINUOUS
 62
     4
 10
19731.010092585158
 20
9389.1900500000029
 30
0.0
 11
19691.010092585158
 21
9389.1900500000029
 31
0.0
  0
LINE
  5
FDA8
  8
SUNPOU
  6
CONTINUOUS
 62
     4
 10
22383.510092585158
 20
8539.6884659999996
 30
0.0
 11
22383.510092585158
 21
9469.1900500000029
 31
0.0
  0
LINE
  5
FDA9
  8
SUNPOU
  6
CONTINUOUS
 62
     4
 10
19731.010092585158
 20
8539.6884659999996
 30
0.0
 11
19731.010092585158
 21
9469.1900500000029
 31
0.0
  0
LINE
  5
FDAA
  8
SUNPOU
  6
CONTINUOUS
 62
     4
 10
22383.510092585158
 20
9389.1900500000029
 30
0.0
 11
19731.010092585158
 21
9389.1900500000029
 31
0.0
  0
LINE
  5
FDAB
  8
SUNPOU
  6
CONTINUOUS
 62
     4
 10
19643.50745358516
 20
6241.1883740000021
 30
0.0
 11
18443.50745358516
 21
6241.1883740000021
 31
0.0
  0
LINE
  5
FDAC
  8
SUNPOU
  6
CONTINUOUS
 62
     4
 10
19611.010092585158
 20
8589.6883999999973
 30
0.0
 11
18443.50745358516
 21
8589.6883999999973
 31
0.0
  0
LINE
  5
FDAD
  8
SUNPOU
  6
CONTINUOUS
 62
     4
 10
18523.50745358516
 20
6241.1883740000021
 30
0.0
 11
18523.50745358516
 21
8589.6883999999973
 31
0.0
  0
LINE
  5
FDAE
  8
SUNPOU
  6
CONTINUOUS
 62
     4
 10
19643.50745358516
 20
6241.1883740000021
 30
0.0
 11
18843.506793585169
 21
6241.1883740000021
 31
0.0
  0
LINE
  5
FDAF
  8
SUNPOU
  6
CONTINUOUS
 62
     4
 10
19736.006397585181
 20
8132.6883740000021
 30
0.0
 11
18843.506793585169
 21
8132.6883740000021
 31
0.0
  0
LINE
  5
FDB0
  8
SUNPOU
  6
CONTINUOUS
 62
     4
 10
18923.506793585158
 20
6241.1883740000021
 30
0.0
 11
18923.506793585158
 21
8132.6883740000021
 31
0.0
  0
LINE
  5
FDB1
  8
SUNPOU
  6
CONTINUOUS
 62
     4
 10
22386.510092585158
 20
6161.1883740000021
 30
0.0
 11
22386.510092585158
 21
5261.188374000003
 31
0.0
  0
LINE
  5
FDB2
  8
SUNPOU
  6
CONTINUOUS
 62
     4
 10
27298.510092585158
 20
6061.1885389999989
 30
0.0
 11
27298.510092585158
 21
5261.188374000003
 31
0.0
  0
LINE
  5
FDB3
  8
SUNPOU
  6
CONTINUOUS
 62
     4
 10
22386.510092585158
 20
5341.188374000003
 30
0.0
 11
27298.510092585158
 21
5341.188374000003
 31
0.0
  0
LINE
  5
FDB4
  8
SUNPOU
  6
CONTINUOUS
 62
     4
 10
19731.05004553268
 20
6161.1883740000021
 30
0.0
 11
19731.05004553268
 21
4461.1887040000574
 31
0.0
  0
LINE
  5
FDB5
  8
SUNPOU
  6
CONTINUOUS
 62
     4
 10
27383.510092585158
 20
6061.1885389999989
 30
0.0
 11
27383.510092585158
 21
4461.1887040000574
 31
0.0
  0
LINE
  5
FDB6
  8
SUNPOU
  6
CONTINUOUS
 62
     4
 10
19731.05004553268
 20
4541.1887040000556
 30
0.0
 11
27383.510092585158
 21
4541.1887040000556
 31
0.0
  0
LINE
  5
FDB7
  8
SUNPOU
  6
CONTINUOUS
 62
     4
 10
19773.510092585158
 20
5798.5361160000011
 30
0.0
 11
19773.510092585158
 21
4861.1885389999998
 31
0.0
  0
LINE
  5
FDB8
  8
SUNPOU
  6
CONTINUOUS
 62
     4
 10
19731.05004553268
 20
6161.1883740000021
 30
0.0
 11
19731.05004553268
 21
4861.1885389999998
 31
0.0
  0
LINE
  5
FDB9
  8
SUNPOU
  6
CONTINUOUS
 62
     4
 10
19773.510092585158
 20
4941.1885390000016
 30
0.0
 11
20013.510092585158
 21
4941.1885390000016
 31
0.0
  0
LINE
  5
FDBA
  8
SUNPOU
  6
CONTINUOUS
 62
     4
 10
19731.05004553268
 20
4941.1885390000016
 30
0.0
 11
19491.05004553268
 21
4941.1885390000016
 31
0.0
  0
LINE
  5
FDBB
  8
SUNPOU
  6
CONTINUOUS
 62
     4
 10
19773.510092585158
 20
4941.1885390000016
 30
0.0
 11
19731.05004553268
 21
4941.1885390000016
 31
0.0
  0
LINE
  5
FDBC
  8
SUNPOU
  6
CONTINUOUS
 62
     4
 10
22341.010092585158
 20
5798.5361160000011
 30
0.0
 11
22341.010092585158
 21
4861.1885389999998
 31
0.0
  0
LINE
  5
FDBD
  8
SUNPOU
  6
CONTINUOUS
 62
     4
 10
19773.510092585158
 20
5798.5361160000011
 30
0.0
 11
19773.510092585158
 21
4861.1885389999998
 31
0.0
  0
LINE
  5
FDBE
  8
SUNPOU
  6
CONTINUOUS
 62
     4
 10
22341.010092585158
 20
4941.1885390000016
 30
0.0
 11
19773.510092585158
 21
4941.1885390000016
 31
0.0
  0
LINE
  5
FDBF
  8
SUNPOU
  6
CONTINUOUS
 62
     4
 10
19867.510092585158
 20
6061.1885389999989
 30
0.0
 11
19867.510092585158
 21
5261.188374000003
 31
0.0
  0
LINE
  5
FDC0
  8
SUNPOU
  6
CONTINUOUS
 62
     4
 10
22247.010092585158
 20
6061.1885389999989
 30
0.0
 11
22247.010092585158
 21
5261.188374000003
 31
0.0
  0
LINE
  5
FDC1
  8
SUNPOU
  6
CONTINUOUS
 62
     4
 10
19867.510092585158
 20
5341.188374000003
 30
0.0
 11
22247.010092585158
 21
5341.188374000003
 31
0.0
  0
LINE
  5
FDC2
  8
SUNPOU
  6
CONTINUOUS
 62
     4
 10
27341.010092585158
 20
5798.5361160000011
 30
0.0
 11
27341.010092585158
 21
4861.1885389999998
 31
0.0
  0
LINE
  5
FDC3
  8
SUNPOU
  6
CONTINUOUS
 62
     4
 10
27383.510092585158
 20
6061.1885389999989
 30
0.0
 11
27383.510092585158
 21
4861.1885389999998
 31
0.0
  0
LINE
  5
FDC4
  8
SUNPOU
  6
CONTINUOUS
 62
     4
 10
27341.010092585158
 20
4941.1885390000016
 30
0.0
 11
27101.010092585158
 21
4941.1885390000016
 31
0.0
  0
LINE
  5
FDC5
  8
SUNPOU
  6
CONTINUOUS
 62
     4
 10
27383.510092585158
 20
4941.1885390000016
 30
0.0
 11
27623.510092585158
 21
4941.1885390000016
 31
0.0
  0
LINE
  5
FDC6
  8
SUNPOU
  6
CONTINUOUS
 62
     4
 10
27341.010092585158
 20
4941.1885390000016
 30
0.0
 11
27383.510092585158
 21
4941.1885390000016
 31
0.0
  0
LINE
  5
FDC7
  8
SUNPOU
  6
CONTINUOUS
 62
     4
 10
22341.010092585158
 20
5798.5361160000011
 30
0.0
 11
22341.010092585158
 21
4861.1885389999998
 31
0.0
  0
LINE
  5
FDC8
  8
SUNPOU
  6
CONTINUOUS
 62
     4
 10
27341.010092585158
 20
5798.5361160000011
 30
0.0
 11
27341.010092585158
 21
4861.1885389999998
 31
0.0
  0
LINE
  5
FDC9
  8
SUNPOU
  6
CONTINUOUS
 62
     4
 10
22341.010092585158
 20
4941.1885390000016
 30
0.0
 11
27341.010092585158
 21
4941.1885390000016
 31
0.0
  0
LINE
  5
FDCA
  8
SUNPOU
  6
CONTINUOUS
 62
     4
 10
22383.510092585158
 20
8539.6884659999996
 30
0.0
 11
22383.510092585158
 21
9469.1900500000029
 31
0.0
  0
LINE
  5
FDCB
  8
SUNPOU
  6
CONTINUOUS
 62
     4
 10
27383.510092585158
 20
8669.6883999999955
 30
0.0
 11
27383.510092585158
 21
9469.1900500000029
 31
0.0
  0
LINE
  5
FDCC
  8
SUNPOU
  6
CONTINUOUS
 62
     4
 10
22383.510092585158
 20
9389.1900500000029
 30
0.0
 11
27383.510092585158
 21
9389.1900500000029
 31
0.0
  0
LINE
  5
FDCD
  8
SUNPOU
  6
CONTINUOUS
 62
     4
 10
27463.510092585158
 20
6242.0026620000026
 30
0.0
 11
28673.332490879529
 21
6242.0026620000026
 31
0.0
  0
LINE
  5
FDCE
  8
SUNPOU
  6
CONTINUOUS
 62
     4
 10
27503.510092585158
 20
8262.0026620000026
 30
0.0
 11
28673.332490879551
 21
8262.0026620000026
 31
0.0
  0
LINE
  5
FDCF
  8
SUNPOU
  6
CONTINUOUS
 62
     4
 10
28593.332490879529
 20
6242.0026620000026
 30
0.0
 11
28593.332490879551
 21
8262.0026620000026
 31
0.0
  0
TEXT
  5
FE02
  8
0
  6
CONTINUOUS
 62
     7
 10
28513.332490879529
 20
6589.002662000009
 30
0.0
 40
160.0
  1
有効高サ2020
 50
90.0
  0
TEXT
  5
FE03
  8
0
  6
CONTINUOUS
 62
     7
 10
24630.176759251841
 20
9469.1900500000029
 30
0.0
 40
160.0
  1
5000
  0
TEXT
  5
FE04
  8
0
  6
CONTINUOUS
 62
     7
 10
24587.676759251841
 20
5021.1885389999998
 30
0.0
 40
160.0
  1
5000
  0
TEXT
  5
FE05
  8
0
  6
CONTINUOUS
 62
     7
 10
27503.51075258516
 20
5021.1883080000007
 30
0.0
 40
160.0
  1
42.5
  0
TEXT
  5
FE06
  8
0
  6
CONTINUOUS
 62
     7
 10
20177.260092585158
 20
5421.188374000003
 30
0.0
 40
160.0
  1
有効開口巾2379.5
  0
TEXT
  5
FE07
  8
0
  6
CONTINUOUS
 62
     7
 10
20657.260092585169
 20
5021.1885389999998
 30
0.0
 40
160.0
  1
2567.5
  0
TEXT
  5
FE08
  8
0
  6
CONTINUOUS
 62
     7
 10
19151.18706158518
 20
5028.7357170000014
 30
0.0
 40
160.0
  1
42.5
  0
TEXT
  5
FE09
  8
0
  6
CONTINUOUS
 62
     7
 10
23157.280069058928
 20
4621.1887040000584
 30
0.0
 40
160.0
  1
7652.5
  0
TEXT
  5
FE0A
  8
0
  6
CONTINUOUS
 62
     7
 10
24095.843425918501
 20
5421.188374000003
 30
0.0
 40
160.0
  1
有効開口巾4912
  0
TEXT
  5
FE0B
  8
0
  6
CONTINUOUS
 62
     7
 10
18843.506793585169
 20
6264.2717073333397
 30
0.0
 40
160.0
  1
有効開口高サ1891.5
 50
90.0
  0
TEXT
  5
FE0C
  8
0
  6
CONTINUOUS
 62
     7
 10
18443.50745358516
 20
6396.7717203333359
 30
0.0
 40
160.0
  1
2348.5（2588.5）
 50
90.0
  0
TEXT
  5
FE0D
  8
0
  6
CONTINUOUS
 62
     7
 10
20657.260092585169
 20
9469.1900500000029
 30
0.0
 40
160.0
  1
2652.5
  0
TEXT
  5
FE0E
  8
0
  6
CONTINUOUS
 62
     7
 10
19361.202106585159
 20
9469.1893240000027
 30
0.0
 40
160.0
  1
43
  0
TEXT
  5
FE0F
  8
0
  6
CONTINUOUS
 62
     7
 10
27560.975912585189
 20
9469.1893240000027
 30
0.0
 40
160.0
  1
43
  0
TEXT
  5
FE10
  8
0
  6
CONTINUOUS
 62
     7
 10
23157.260092585158
 20
9869.1329740000037
 30
0.0
 40
160.0
  1
7738.5
  0
TEXT
  5
FE11
  8
0
  6
CONTINUOUS
 62
     7
 10
10308.566903804271
 20
5021.1885389999998
 30
0.0
 40
160.0
  1
2918
  0
TEXT
  5
FE12
  8
0
  6
CONTINUOUS
 62
     7
 10
7432.4835704709412
 20
5021.1885389999998
 30
0.0
 40
160.0
  1
2567.5
  0
TEXT
  5
FE13
  8
0
  6
CONTINUOUS
 62
     7
 10
5924.2439564709493
 20
5022.1790570000003
 30
0.0
 40
160.0
  1
42.5
  0
TEXT
  5
FE14
  8
0
  6
CONTINUOUS
 62
     7
 10
12196.73522047094
 20
5021.1883080000007
 30
0.0
 40
160.0
  1
42.5
  0
TEXT
  5
FE15
  8
0
  6
CONTINUOUS
 62
     7
 10
8904.8169038042743
 20
4621.1887039999983
 30
0.0
 40
160.0
  1
5570.5
  0
TEXT
  5
FE16
  8
0
  6
CONTINUOUS
 62
     7
 10
5336.23317447095
 20
6540.521707333337
 30
0.0
 40
160.0
  1
2156（2396）
 50
90.0
  0
TEXT
  5
FE17
  8
0
  6
CONTINUOUS
 62
     7
 10
13086.73396647094
 20
6396.7717073333361
 30
0.0
 40
160.0
  1
2348.5（2588.5）
 50
90.0
  0
TEXT
  5
FE18
  8
0
  6
CONTINUOUS
 62
     7
 10
5871.8917553358442
 20
9469.1900500000029
 30
0.0
 40
160.0
  1
180
  0
TEXT
  5
FE19
  8
0
  6
CONTINUOUS
 62
     7
 10
8904.8169038042743
 20
9469.1900500000029
 30
0.0
 40
160.0
  1
5570.5
  0
TEXT
  5
FE1A
  8
0
  6
CONTINUOUS
 62
     7
 10
12293.400237137599
 20
9469.1900500000029
 30
0.0
 40
160.0
  1
150
  0
TEXT
  5
FE1B
  8
0
  6
CONTINUOUS
 62
     7
 10
8903.1502371376064
 20
9869.1883999999955
 30
0.0
 40
160.0
  1
5900.5
  0
ARC
  5
FEA8
  8
0
  6
BYBLOCK
 62
     0
 10
6326.2335704709403
 20
9789.1883999999955
 30
0.0
 40
15.0
 50
0.0
 51
180.0
  0
ARC
  5
FEA9
  8
0
  6
BYBLOCK
 62
     0
 10
6326.2335704709403
 20
9789.1883999999955
 30
0.0
 40
15.0
 50
180.0
 51
0.0
  0
ARC
  5
FEAA
  8
0
  6
BYBLOCK
 62
     0
 10
12226.73357047094
 20
9789.1883999999955
 30
0.0
 40
15.0
 50
180.0
 51
0.0
  0
ARC
  5
FEAB
  8
0
  6
BYBLOCK
 62
     0
 10
12226.73357047094
 20
9789.1883999999955
 30
0.0
 40
15.0
 50
0.0
 51
180.0
  0
ARC
  5
FEAC
  8
0
  6
BYBLOCK
 62
     0
 10
12076.73357047094
 20
9389.1900500000029
 30
0.0
 40
15.0
 50
180.0
 51
0.0
  0
ARC
  5
FEAD
  8
0
  6
BYBLOCK
 62
     0
 10
12076.73357047094
 20
9389.1900500000029
 30
0.0
 40
15.0
 50
0.0
 51
180.0
  0
ARC
  5
FEAE
  8
0
  6
BYBLOCK
 62
     0
 10
12226.73357047094
 20
9389.1900500000029
 30
0.0
 40
15.0
 50
0.0
 51
180.0
  0
ARC
  5
FEAF
  8
0
  6
BYBLOCK
 62
     0
 10
12226.73357047094
 20
9389.1900500000029
 30
0.0
 40
15.0
 50
180.0
 51
0.0
  0
ARC
  5
FEB0
  8
0
  6
BYBLOCK
 62
     0
 10
6506.2335704709376
 20
9389.1900500000029
 30
0.0
 40
15.0
 50
0.0
 51
180.0
  0
ARC
  5
FEB1
  8
0
  6
BYBLOCK
 62
     0
 10
6506.2335704709376
 20
9389.1900500000029
 30
0.0
 40
15.0
 50
180.0
 51
0.0
  0
ARC
  5
FEB2
  8
0
  6
BYBLOCK
 62
     0
 10
12076.73357047094
 20
9389.1900500000029
 30
0.0
 40
15.0
 50
180.0
 51
0.0
  0
ARC
  5
FEB3
  8
0
  6
BYBLOCK
 62
     0
 10
12076.73357047094
 20
9389.1900500000029
 30
0.0
 40
15.0
 50
0.0
 51
180.0
  0
ARC
  5
FEB4
  8
0
  6
BYBLOCK
 62
     0
 10
6326.2335704709403
 20
9389.1900500000029
 30
0.0
 40
15.0
 50
0.0
 51
180.0
  0
ARC
  5
FEB5
  8
0
  6
BYBLOCK
 62
     0
 10
6326.2335704709403
 20
9389.1900500000029
 30
0.0
 40
15.0
 50
180.0
 51
0.0
  0
ARC
  5
FEB6
  8
0
  6
BYBLOCK
 62
     0
 10
6506.2335704709376
 20
9389.1900500000029
 30
0.0
 40
15.0
 50
180.0
 51
0.0
  0
ARC
  5
FEB7
  8
0
  6
BYBLOCK
 62
     0
 10
6506.2335704709376
 20
9389.1900500000029
 30
0.0
 40
15.0
 50
0.0
 51
180.0
  0
ARC
  5
FEB8
  8
0
  6
BYBLOCK
 62
     0
 10
13166.73396647094
 20
6241.1883740000021
 30
0.0
 40
15.0
 50
90.0
 51
270.0
  0
ARC
  5
FEB9
  8
0
  6
BYBLOCK
 62
     0
 10
13166.73396647094
 20
6241.1883740000021
 30
0.0
 40
15.0
 50
270.0
 51
90.0
  0
ARC
  5
FEBA
  8
0
  6
BYBLOCK
 62
     0
 10
13166.73396647094
 20
8589.688374000003
 30
0.0
 40
15.0
 50
270.0
 51
90.0
  0
ARC
  5
FEBB
  8
0
  6
BYBLOCK
 62
     0
 10
13166.73396647094
 20
8589.688374000003
 30
0.0
 40
15.0
 50
90.0
 51
270.0
  0
ARC
  5
FEBC
  8
0
  6
BYBLOCK
 62
     0
 10
5416.2331744709518
 20
6241.1883740000039
 30
0.0
 40
15.0
 50
90.0
 51
270.0
  0
ARC
  5
FEBD
  8
0
  6
BYBLOCK
 62
     0
 10
5416.2331744709518
 20
6241.1883740000039
 30
0.0
 40
15.0
 50
270.0
 51
90.0
  0
ARC
  5
FEBE
  8
0
  6
BYBLOCK
 62
     0
 10
5416.2331744709518
 20
8397.1883740000048
 30
0.0
 40
15.0
 50
270.0
 51
90.0
  0
ARC
  5
FEBF
  8
0
  6
BYBLOCK
 62
     0
 10
5416.2331744709518
 20
8397.1883740000048
 30
0.0
 40
15.0
 50
90.0
 51
270.0
  0
ARC
  5
FEC0
  8
0
  6
BYBLOCK
 62
     0
 10
6506.2335704709376
 20
4541.1887039999983
 30
0.0
 40
15.0
 50
0.0
 51
180.0
  0
ARC
  5
FEC1
  8
0
  6
BYBLOCK
 62
     0
 10
6506.2335704709376
 20
4541.1887039999983
 30
0.0
 40
15.0
 50
180.0
 51
0.0
  0
ARC
  5
FEC2
  8
0
  6
BYBLOCK
 62
     0
 10
12076.73357047094
 20
4541.1887039999983
 30
0.0
 40
15.0
 50
180.0
 51
0.0
  0
ARC
  5
FEC3
  8
0
  6
BYBLOCK
 62
     0
 10
12076.73357047094
 20
4541.1887039999983
 30
0.0
 40
15.0
 50
0.0
 51
180.0
  0
ARC
  5
FEC4
  8
0
  6
BYBLOCK
 62
     0
 10
12034.23357047094
 20
4941.1885390000016
 30
0.0
 40
15.0
 50
180.0
 51
0.0
  0
ARC
  5
FEC5
  8
0
  6
BYBLOCK
 62
     0
 10
12034.23357047094
 20
4941.1885390000016
 30
0.0
 40
15.0
 50
0.0
 51
180.0
  0
ARC
  5
FEC6
  8
0
  6
BYBLOCK
 62
     0
 10
12076.73357047094
 20
4941.1885390000016
 30
0.0
 40
15.0
 50
0.0
 51
180.0
  0
ARC
  5
FEC7
  8
0
  6
BYBLOCK
 62
     0
 10
12076.73357047094
 20
4941.1885390000016
 30
0.0
 40
15.0
 50
180.0
 51
0.0
  0
ARC
  5
FEC8
  8
0
  6
BYBLOCK
 62
     0
 10
6548.7335704709412
 20
4941.1885390000016
 30
0.0
 40
15.0
 50
0.0
 51
180.0
  0
ARC
  5
FEC9
  8
0
  6
BYBLOCK
 62
     0
 10
6548.7335704709412
 20
4941.1885390000016
 30
0.0
 40
15.0
 50
180.0
 51
0.0
  0
ARC
  5
FECA
  8
0
  6
BYBLOCK
 62
     0
 10
6506.2335704709376
 20
4941.1885390000016
 30
0.0
 40
15.0
 50
180.0
 51
0.0
  0
ARC
  5
FECB
  8
0
  6
BYBLOCK
 62
     0
 10
6506.2335704709376
 20
4941.1885390000016
 30
0.0
 40
15.0
 50
0.0
 51
180.0
  0
ARC
  5
FECC
  8
0
  6
BYBLOCK
 62
     0
 10
9116.2335704709403
 20
4941.1885390000016
 30
0.0
 40
15.0
 50
180.0
 51
0.0
  0
ARC
  5
FECD
  8
0
  6
BYBLOCK
 62
     0
 10
9116.2335704709403
 20
4941.1885390000016
 30
0.0
 40
15.0
 50
0.0
 51
180.0
  0
ARC
  5
FECE
  8
0
  6
BYBLOCK
 62
     0
 10
6548.7335704709412
 20
4941.1885390000016
 30
0.0
 40
15.0
 50
0.0
 51
180.0
  0
ARC
  5
FECF
  8
0
  6
BYBLOCK
 62
     0
 10
6548.7335704709412
 20
4941.1885390000016
 30
0.0
 40
15.0
 50
180.0
 51
0.0
  0
ARC
  5
FED0
  8
0
  6
BYBLOCK
 62
     0
 10
9116.2335704709403
 20
4941.1885390000016
 30
0.0
 40
15.0
 50
0.0
 51
180.0
  0
ARC
  5
FED1
  8
0
  6
BYBLOCK
 62
     0
 10
9116.2335704709403
 20
4941.1885390000016
 30
0.0
 40
15.0
 50
180.0
 51
0.0
  0
ARC
  5
FED2
  8
0
  6
BYBLOCK
 62
     0
 10
12034.23357047094
 20
4941.1885390000016
 30
0.0
 40
15.0
 50
180.0
 51
0.0
  0
ARC
  5
FED3
  8
0
  6
BYBLOCK
 62
     0
 10
12034.23357047094
 20
4941.1885390000016
 30
0.0
 40
15.0
 50
0.0
 51
180.0
  0
ARC
  5
FED4
  8
0
  6
BYBLOCK
 62
     0
 10
19688.010092585158
 20
9789.1329740000037
 30
0.0
 40
15.0
 50
0.0
 51
180.0
  0
ARC
  5
FED5
  8
0
  6
BYBLOCK
 62
     0
 10
19688.010092585158
 20
9789.1329740000037
 30
0.0
 40
15.0
 50
180.0
 51
0.0
  0
ARC
  5
FED6
  8
0
  6
BYBLOCK
 62
     0
 10
27426.510092585158
 20
9789.1329740000037
 30
0.0
 40
15.0
 50
180.0
 51
0.0
  0
ARC
  5
FED7
  8
0
  6
BYBLOCK
 62
     0
 10
27426.510092585158
 20
9789.1329740000037
 30
0.0
 40
15.0
 50
0.0
 51
180.0
  0
ARC
  5
FED8
  8
0
  6
BYBLOCK
 62
     0
 10
27383.510092585158
 20
9389.1900500000029
 30
0.0
 40
15.0
 50
180.0
 51
0.0
  0
ARC
  5
FED9
  8
0
  6
BYBLOCK
 62
     0
 10
27383.510092585158
 20
9389.1900500000029
 30
0.0
 40
15.0
 50
0.0
 51
180.0
  0
ARC
  5
FEDA
  8
0
  6
BYBLOCK
 62
     0
 10
27426.510092585158
 20
9389.1900500000029
 30
0.0
 40
15.0
 50
0.0
 51
180.0
  0
ARC
  5
FEDB
  8
0
  6
BYBLOCK
 62
     0
 10
27426.510092585158
 20
9389.1900500000029
 30
0.0
 40
15.0
 50
180.0
 51
0.0
  0
ARC
  5
FEDC
  8
0
  6
BYBLOCK
 62
     0
 10
19731.010092585158
 20
9389.1900500000029
 30
0.0
 40
15.0
 50
0.0
 51
180.0
  0
ARC
  5
FEDD
  8
0
  6
BYBLOCK
 62
     0
 10
19731.010092585158
 20
9389.1900500000029
 30
0.0
 40
15.0
 50
180.0
 51
0.0
  0
ARC
  5
FEDE
  8
0
  6
BYBLOCK
 62
     0
 10
19688.010092585158
 20
9389.1900500000029
 30
0.0
 40
15.0
 50
180.0
 51
0.0
  0
ARC
  5
FEDF
  8
0
  6
BYBLOCK
 62
     0
 10
19688.010092585158
 20
9389.1900500000029
 30
0.0
 40
15.0
 50
0.0
 51
180.0
  0
ARC
  5
FEE0
  8
0
  6
BYBLOCK
 62
     0
 10
22383.510092585158
 20
9389.1900500000029
 30
0.0
 40
15.0
 50
180.0
 51
0.0
  0
ARC
  5
FEE1
  8
0
  6
BYBLOCK
 62
     0
 10
22383.510092585158
 20
9389.1900500000029
 30
0.0
 40
15.0
 50
0.0
 51
180.0
  0
ARC
  5
FEE2
  8
0
  6
BYBLOCK
 62
     0
 10
19731.010092585158
 20
9389.1900500000029
 30
0.0
 40
15.0
 50
0.0
 51
180.0
  0
ARC
  5
FEE3
  8
0
  6
BYBLOCK
 62
     0
 10
19731.010092585158
 20
9389.1900500000029
 30
0.0
 40
15.0
 50
180.0
 51
0.0
  0
ARC
  5
FEE4
  8
0
  6
BYBLOCK
 62
     0
 10
18523.50745358516
 20
6241.1883740000021
 30
0.0
 40
15.0
 50
90.0
 51
270.0
  0
ARC
  5
FEE5
  8
0
  6
BYBLOCK
 62
     0
 10
18523.50745358516
 20
6241.1883740000021
 30
0.0
 40
15.0
 50
270.0
 51
90.0
  0
ARC
  5
FEE6
  8
0
  6
BYBLOCK
 62
     0
 10
18523.50745358516
 20
8589.6883999999973
 30
0.0
 40
15.0
 50
270.0
 51
90.0
  0
ARC
  5
FEE7
  8
0
  6
BYBLOCK
 62
     0
 10
18523.50745358516
 20
8589.6883999999973
 30
0.0
 40
15.0
 50
90.0
 51
270.0
  0
ARC
  5
FEE8
  8
0
  6
BYBLOCK
 62
     0
 10
18923.506793585158
 20
6241.1883740000021
 30
0.0
 40
15.0
 50
90.0
 51
270.0
  0
ARC
  5
FEE9
  8
0
  6
BYBLOCK
 62
     0
 10
18923.506793585158
 20
6241.1883740000021
 30
0.0
 40
15.0
 50
270.0
 51
90.0
  0
ARC
  5
FEEA
  8
0
  6
BYBLOCK
 62
     0
 10
18923.506793585158
 20
8132.6883740000021
 30
0.0
 40
15.0
 50
270.0
 51
90.0
  0
ARC
  5
FEEB
  8
0
  6
BYBLOCK
 62
     0
 10
18923.506793585158
 20
8132.6883740000021
 30
0.0
 40
15.0
 50
90.0
 51
270.0
  0
ARC
  5
FEEC
  8
0
  6
BYBLOCK
 62
     0
 10
22386.510092585158
 20
5341.188374000003
 30
0.0
 40
15.0
 50
0.0
 51
180.0
  0
ARC
  5
FEED
  8
0
  6
BYBLOCK
 62
     0
 10
22386.510092585158
 20
5341.188374000003
 30
0.0
 40
15.0
 50
180.0
 51
0.0
  0
ARC
  5
FEEE
  8
0
  6
BYBLOCK
 62
     0
 10
27298.510092585158
 20
5341.188374000003
 30
0.0
 40
15.0
 50
180.0
 51
0.0
  0
ARC
  5
FEEF
  8
0
  6
BYBLOCK
 62
     0
 10
27298.510092585158
 20
5341.188374000003
 30
0.0
 40
15.0
 50
0.0
 51
180.0
  0
ARC
  5
FEF0
  8
0
  6
BYBLOCK
 62
     0
 10
19731.05004553268
 20
4541.1887040000556
 30
0.0
 40
15.0
 50
0.0
 51
180.0
  0
ARC
  5
FEF1
  8
0
  6
BYBLOCK
 62
     0
 10
19731.05004553268
 20
4541.1887040000556
 30
0.0
 40
15.0
 50
180.0
 51
0.0
  0
ARC
  5
FEF2
  8
0
  6
BYBLOCK
 62
     0
 10
27383.510092585158
 20
4541.1887040000556
 30
0.0
 40
15.0
 50
180.0
 51
0.0
  0
ARC
  5
FEF3
  8
0
  6
BYBLOCK
 62
     0
 10
27383.510092585158
 20
4541.1887040000556
 30
0.0
 40
15.0
 50
0.0
 51
180.0
  0
ARC
  5
FEF4
  8
0
  6
BYBLOCK
 62
     0
 10
19773.510092585158
 20
4941.1885390000016
 30
0.0
 40
15.0
 50
0.0
 51
180.0
  0
ARC
  5
FEF5
  8
0
  6
BYBLOCK
 62
     0
 10
19773.510092585158
 20
4941.1885390000016
 30
0.0
 40
15.0
 50
180.0
 51
0.0
  0
ARC
  5
FEF6
  8
0
  6
BYBLOCK
 62
     0
 10
19731.05004553268
 20
4941.1885390000016
 30
0.0
 40
15.0
 50
180.0
 51
0.0
  0
ARC
  5
FEF7
  8
0
  6
BYBLOCK
 62
     0
 10
19731.05004553268
 20
4941.1885390000016
 30
0.0
 40
15.0
 50
0.0
 51
180.0
  0
ARC
  5
FEF8
  8
0
  6
BYBLOCK
 62
     0
 10
22341.010092585158
 20
4941.1885390000016
 30
0.0
 40
15.0
 50
180.0
 51
0.0
  0
ARC
  5
FEF9
  8
0
  6
BYBLOCK
 62
     0
 10
22341.010092585158
 20
4941.1885390000016
 30
0.0
 40
15.0
 50
0.0
 51
180.0
  0
ARC
  5
FEFA
  8
0
  6
BYBLOCK
 62
     0
 10
19773.510092585158
 20
4941.1885390000016
 30
0.0
 40
15.0
 50
0.0
 51
180.0
  0
ARC
  5
FEFB
  8
0
  6
BYBLOCK
 62
     0
 10
19773.510092585158
 20
4941.1885390000016
 30
0.0
 40
15.0
 50
180.0
 51
0.0
  0
ARC
  5
FEFC
  8
0
  6
BYBLOCK
 62
     0
 10
19867.510092585158
 20
5341.188374000003
 30
0.0
 40
15.0
 50
0.0
 51
180.0
  0
ARC
  5
FEFD
  8
0
  6
BYBLOCK
 62
     0
 10
19867.510092585158
 20
5341.188374000003
 30
0.0
 40
15.0
 50
180.0
 51
0.0
  0
ARC
  5
FEFE
  8
0
  6
BYBLOCK
 62
     0
 10
22247.010092585158
 20
5341.188374000003
 30
0.0
 40
15.0
 50
180.0
 51
0.0
  0
ARC
  5
FEFF
  8
0
  6
BYBLOCK
 62
     0
 10
22247.010092585158
 20
5341.188374000003
 30
0.0
 40
15.0
 50
0.0
 51
180.0
  0
ARC
  5
FF00
  8
0
  6
BYBLOCK
 62
     0
 10
27341.010092585158
 20
4941.1885390000016
 30
0.0
 40
15.0
 50
180.0
 51
0.0
  0
ARC
  5
FF01
  8
0
  6
BYBLOCK
 62
     0
 10
27341.010092585158
 20
4941.1885390000016
 30
0.0
 40
15.0
 50
0.0
 51
180.0
  0
ARC
  5
FF02
  8
0
  6
BYBLOCK
 62
     0
 10
27383.510092585158
 20
4941.1885390000016
 30
0.0
 40
15.0
 50
0.0
 51
180.0
  0
ARC
  5
FF03
  8
0
  6
BYBLOCK
 62
     0
 10
27383.510092585158
 20
4941.1885390000016
 30
0.0
 40
15.0
 50
180.0
 51
0.0
  0
ARC
  5
FF04
  8
0
  6
BYBLOCK
 62
     0
 10
22341.010092585158
 20
4941.1885390000016
 30
0.0
 40
15.0
 50
0.0
 51
180.0
  0
ARC
  5
FF05
  8
0
  6
BYBLOCK
 62
     0
 10
22341.010092585158
 20
4941.1885390000016
 30
0.0
 40
15.0
 50
180.0
 51
0.0
  0
ARC
  5
FF06
  8
0
  6
BYBLOCK
 62
     0
 10
27341.010092585158
 20
4941.1885390000016
 30
0.0
 40
15.0
 50
180.0
 51
0.0
  0
ARC
  5
FF07
  8
0
  6
BYBLOCK
 62
     0
 10
27341.010092585158
 20
4941.1885390000016
 30
0.0
 40
15.0
 50
0.0
 51
180.0
  0
ARC
  5
FF08
  8
0
  6
BYBLOCK
 62
     0
 10
22383.510092585158
 20
9389.1900500000029
 30
0.0
 40
15.0
 50
0.0
 51
180.0
  0
ARC
  5
FF09
  8
0
  6
BYBLOCK
 62
     0
 10
22383.510092585158
 20
9389.1900500000029
 30
0.0
 40
15.0
 50
180.0
 51
0.0
  0
ARC
  5
FF0A
  8
0
  6
BYBLOCK
 62
     0
 10
27383.510092585158
 20
9389.1900500000029
 30
0.0
 40
15.0
 50
180.0
 51
0.0
  0
ARC
  5
FF0B
  8
0
  6
BYBLOCK
 62
     0
 10
27383.510092585158
 20
9389.1900500000029
 30
0.0
 40
15.0
 50
0.0
 51
180.0
  0
ARC
  5
FF0C
  8
0
  6
BYBLOCK
 62
     0
 10
28593.332490879529
 20
6242.0026620000026
 30
0.0
 40
15.0
 50
90.0
 51
270.0
  0
ARC
  5
FF0D
  8
0
  6
BYBLOCK
 62
     0
 10
28593.332490879529
 20
6242.0026620000026
 30
0.0
 40
15.0
 50
270.0
 51
90.0
  0
ARC
  5
FF0E
  8
0
  6
BYBLOCK
 62
     0
 10
28592.299157546218
 20
8263.0026620000026
 30
0.0
 40
16.033333333333299
 50
273.69522053198739
 51
86.304779468012555
  0
ARC
  5
FF0F
  8
0
  6
BYBLOCK
 62
     0
 10
28594.36582421288
 20
8263.0026620000026
 30
0.0
 40
16.033333333333299
 50
93.695220531987459
 51
266.3047794680125
  0
TEXT
  5
1001F
  8
NAME
 10
21595.82616625919
 20
1076.6369801169251
 30
0.0
 40
360.0
  1
VGC-2655（H）+VKC-5055（H）型-R（単棟）
 41
0.45
  0
TEXT
  5
10020
  8
NAME
 10
21933.552716389011
 20
1876.0
 30
0.0
 40
360.0
  1
ヨドガレージ ラヴィージュ
 41
0.75
  7
01
  0
LINE
  5
10021
  8
NAME
  6
CONTINUOUS
 10
26067.886878884299
 20
2236.0
 30
0.0
 11
26067.886878884299
 21
1876.0
 31
0.0
  0
LINE
  5
10022
  8
NAME
  6
CONTINUOUS
 10
26167.886878884299
 20
2236.0
 30
0.0
 11
26167.886878884299
 21
1876.0
 31
0.0
  0
LINE
  5
10023
  8
NAME
  6
CONTINUOUS
 10
26267.88687888431
 20
2236.0
 30
0.0
 11
26267.88687888431
 21
1876.0
 31
0.0
  0
LINE
  5
10024
  8
NAME
  6
CONTINUOUS
 10
26007.886878884299
 20
2236.0
 30
0.0
 11
26327.886878884299
 21
2236.0
 31
0.0
  0
LINE
  5
10025
  8
NAME
  6
CONTINUOUS
 10
26327.886878884299
 20
1876.0
 30
0.0
 11
26007.886878884299
 21
1876.0
 31
0.0
  0
LINE
  5
1062F
  8
0-6
  6
CONTINUOUS
 62
     6
 10
10048.35506247109
 20
19237.710187999801
 30
0.0
 11
9904.4539594711114
 21
19749.985842999809
 31
0.0
  0
LINE
  5
10630
  8
0-6
  6
CONTINUOUS
 62
     6
 10
5366.1774648937726
 20
19343.48774299982
 30
0.0
 11
5472.8725268937842
 21
19465.663629999821
 31
0.0
  0
LINE
  5
10631
  8
0-6
  6
CONTINUOUS
 62
     6
 10
5427.4831548937809
 20
19493.66391999981
 30
0.0
 11
5366.1774648937726
 21
19343.48774299982
 31
0.0
  0
LINE
  5
10632
  8
0-6
  6
CONTINUOUS
 62
     6
 10
5427.4831548937809
 20
19493.66391999981
 30
0.0
 11
5472.8725268937842
 21
19465.663629999821
 31
0.0
  0
LINE
  5
10633
  8
0-6
  6
CONTINUOUS
 62
     6
 10
5366.1774648937726
 20
19343.48774299982
 30
0.0
 11
5660.1052918937839
 21
19749.985842999809
 31
0.0
  0
LINE
  5
10634
  8
0-6
  6
CONTINUOUS
 62
     6
 10
10086.74485647109
 20
19082.3852829998
 30
0.0
 11
10074.24320647109
 21
19244.109971999809
 31
0.0
  0
LINE
  5
10635
  8
0-6
  6
CONTINUOUS
 62
     6
 10
10022.469887471079
 20
19231.31436399982
 30
0.0
 11
10086.74485647109
 21
19082.3852829998
 31
0.0
  0
LINE
  5
10636
  8
0-6
  6
CONTINUOUS
 62
     6
 10
10022.469887471079
 20
19231.31436399982
 30
0.0
 11
10074.24320647109
 21
19244.109971999809
 31
0.0
  0
LINE
  5
10637
  8
0-6
  6
CONTINUOUS
 62
     6
 10
9904.4539594711114
 20
19749.985842999809
 30
0.0
 11
9386.7653114710974
 21
19749.985842999809
 31
0.0
  0
LINE
  5
10638
  8
0-6
  6
CONTINUOUS
 62
     6
 10
4495.9488370994422
 20
17838.388781762751
 30
0.0
 11
4434.7343364709541
 21
17988.60267311729
 31
0.0
  0
LINE
  5
10639
  8
0-6
  6
CONTINUOUS
 62
     6
 10
4434.7343364709541
 20
17988.60267311729
 30
0.0
 11
4541.3575435903567
 21
17866.361280584311
 31
0.0
  0
LINE
  5
1063A
  8
0-6
  6
CONTINUOUS
 62
     6
 10
4434.7343364709541
 20
17988.60267311729
 30
0.0
 11
4495.9488370994422
 21
17838.388781762751
 31
0.0
  0
LINE
  5
1063B
  8
0-6
  6
CONTINUOUS
 62
     6
 10
4495.9488370994422
 20
17838.388781762751
 30
0.0
 11
4541.3575435903567
 21
17866.361280584311
 31
0.0
  0
LINE
  5
1063C
  8
0-6
  6
CONTINUOUS
 62
     6
 10
4541.3575435903567
 20
17866.361280584311
 30
0.0
 11
4434.7343364709541
 21
17988.60267311729
 31
0.0
  0
LINE
  5
1063D
  8
0-6
  6
CONTINUOUS
 62
     6
 10
4541.3575435903567
 20
17866.361280584311
 30
0.0
 11
4495.9488370994422
 21
17838.388781762751
 31
0.0
  0
LINE
  5
1063E
  8
0-6
  6
CONTINUOUS
 62
     6
 10
6460.1069408937929
 20
19749.985842999809
 30
0.0
 11
5660.1052918937839
 21
19749.985842999809
 31
0.0
  0
LINE
  5
1063F
  8
0-6
  6
CONTINUOUS
 62
     6
 10
5165.5741247191572
 20
17646.341841369569
 30
0.0
 11
4645.5733987191352
 21
17646.341841369569
 31
0.0
  0
LINE
  5
10640
  8
0-6
  6
CONTINUOUS
 62
     6
 10
6142.8566878017946
 20
14026.87695599982
 30
0.0
 11
6059.9692958017931
 21
14203.815234999811
 31
0.0
  0
LINE
  5
10641
  8
0-6
  6
CONTINUOUS
 62
     6
 10
6059.9692958017931
 20
14203.815234999811
 30
0.0
 11
5259.9686358018016
 21
14203.815234999811
 31
0.0
  0
LINE
  5
10642
  8
0-6
  6
CONTINUOUS
 62
     6
 10
6174.7794317553044
 20
13517.43993099981
 30
0.0
 11
6281.0498867553133
 21
13639.98697799981
 31
0.0
  0
LINE
  5
10643
  8
0-6
  6
CONTINUOUS
 62
     6
 10
6281.0498867553133
 20
13639.98697799981
 30
0.0
 11
6220.2677787553239
 21
13489.598001999821
 31
0.0
  0
LINE
  5
10644
  8
0-6
  6
CONTINUOUS
 62
     6
 10
6281.0498867553133
 20
13639.98697799981
 30
0.0
 11
6174.7794317553044
 21
13517.43993099981
 31
0.0
  0
LINE
  5
10645
  8
0-6
  6
CONTINUOUS
 62
     6
 10
6174.7794317553044
 20
13517.43993099981
 30
0.0
 11
6220.2677787553239
 21
13489.598001999821
 31
0.0
  0
LINE
  5
10646
  8
0-6
  6
CONTINUOUS
 62
     6
 10
6220.2677787553239
 20
13489.598001999821
 30
0.0
 11
6281.0498867553133
 21
13639.98697799981
 31
0.0
  0
LINE
  5
10647
  8
0-6
  6
CONTINUOUS
 62
     6
 10
6220.2677787553239
 20
13489.598001999821
 30
0.0
 11
6174.7794317553044
 21
13517.43993099981
 31
0.0
  0
LINE
  5
10648
  8
0-6
  6
CONTINUOUS
 62
     6
 10
6167.003844801804
 20
14038.188914999821
 30
0.0
 11
6210.7294308018054
 21
13881.98609399982
 31
0.0
  0
LINE
  5
10649
  8
0-6
  6
CONTINUOUS
 62
     6
 10
6210.7294308018054
 20
13881.98609399982
 30
0.0
 11
6118.7085398017944
 21
14015.564006999801
 31
0.0
  0
LINE
  5
1064A
  8
0-6
  6
CONTINUOUS
 62
     6
 10
6210.7294308018054
 20
13881.98609399982
 30
0.0
 11
6167.003844801804
 21
14038.188914999821
 31
0.0
  0
LINE
  5
1064B
  8
0-6
  6
CONTINUOUS
 62
     6
 10
6167.003844801804
 20
14038.188914999821
 30
0.0
 11
6118.7085398017944
 21
14015.564006999801
 31
0.0
  0
LINE
  5
1064C
  8
0-6
  6
CONTINUOUS
 62
     6
 10
6118.7085398017944
 20
14015.564006999801
 30
0.0
 11
6210.7294308018054
 21
13881.98609399982
 31
0.0
  0
LINE
  5
1064D
  8
0-6
  6
CONTINUOUS
 62
     6
 10
6118.7085398017944
 20
14015.564006999801
 30
0.0
 11
6167.003844801804
 21
14038.188914999821
 31
0.0
  0
LINE
  5
1064E
  8
0-6
  6
CONTINUOUS
 62
     6
 10
5791.4110167553117
 20
12839.98730799982
 30
0.0
 11
4928.8308457553157
 21
12839.98730799982
 31
0.0
  0
LINE
  5
1064F
  8
0-6
  6
CONTINUOUS
 62
     6
 10
6197.5231097553124
 20
13503.51896699982
 30
0.0
 11
5791.4110167553117
 21
12839.98730799982
 31
0.0
  0
LINE
  5
10650
  8
0-6
  6
CONTINUOUS
 62
     6
 10
4372.2834944709557
 20
14212.27668699982
 30
0.0
 11
4394.7342044709521
 21
14372.92253799981
 31
0.0
  0
LINE
  5
10651
  8
0-6
  6
CONTINUOUS
 62
     6
 10
4394.7342044709521
 20
14372.92253799981
 30
0.0
 11
4321.3970004709536
 21
14228.24150399982
 31
0.0
  0
LINE
  5
10652
  8
0-6
  6
CONTINUOUS
 62
     6
 10
4394.7342044709521
 20
14372.92253799981
 30
0.0
 11
4372.2834944709557
 21
14212.27668699982
 31
0.0
  0
LINE
  5
10653
  8
0-6
  6
CONTINUOUS
 62
     6
 10
4372.2834944709557
 20
14212.27668699982
 30
0.0
 11
4321.3970004709536
 21
14228.24150399982
 31
0.0
  0
LINE
  5
10654
  8
0-6
  6
CONTINUOUS
 62
     6
 10
4321.3970004709536
 20
14228.24150399982
 30
0.0
 11
4394.7342044709521
 21
14372.92253799981
 31
0.0
  0
LINE
  5
10655
  8
0-6
  6
CONTINUOUS
 62
     6
 10
4321.3970004709536
 20
14228.24150399982
 30
0.0
 11
4372.2834944709557
 21
14212.27668699982
 31
0.0
  0
LINE
  5
10656
  8
0-6
  6
CONTINUOUS
 62
     6
 10
3760.0995574709432
 20
12349.9861859998
 30
0.0
 11
2680.099953470954
 21
12349.9861859998
 31
0.0
  0
LINE
  5
10657
  8
0-6
  6
CONTINUOUS
 62
     6
 10
4346.8397524709444
 20
14220.258105999799
 30
0.0
 11
3760.099557470965
 21
12349.9861859998
 31
0.0
  0
LINE
  5
10658
  8
0-6
  6
CONTINUOUS
 62
     6
 10
4518.6520937344121
 20
17852.37517807708
 30
0.0
 11
4645.5733987191352
 21
17646.341841369569
 31
0.0
  0
LINE
  5
10659
  8
0-6
  6
CONTINUOUS
 62
     6
 10
12111.601370692861
 20
19519.985578999818
 30
0.0
 11
12203.288712692871
 21
19653.793116999808
 31
0.0
  0
LINE
  5
1065A
  8
0-6
  6
CONTINUOUS
 62
     6
 10
12241.72997369286
 20
19616.825606999821
 30
0.0
 11
12111.601370692861
 21
19519.985578999818
 31
0.0
  0
LINE
  5
1065B
  8
0-6
  6
CONTINUOUS
 62
     6
 10
12241.72997369286
 20
19616.825606999821
 30
0.0
 11
12203.288712692871
 21
19653.793116999808
 31
0.0
  0
LINE
  5
1065C
  8
0-6
  6
CONTINUOUS
 62
     6
 10
12222.509838692869
 20
19635.30837199981
 30
0.0
 11
12739.49872669286
 21
20139.986634999819
 31
0.0
  0
LINE
  5
1065D
  8
0-6
  6
CONTINUOUS
 62
     6
 10
14414.49806669287
 20
20139.986634999819
 30
0.0
 11
12739.49872669286
 21
20139.986634999819
 31
0.0
  0
TEXT
  5
1065E
  8
0-6
  6
CONTINUOUS
 62
     7
 10
9483.1203621377535
 20
19829.986106999801
 30
0.0
 40
160.0
  1
屋根
 72
     4
 11
9653.7870288044214
 21
19909.986106999801
 31
0.0
  0
TEXT
  5
1065F
  8
0-6
  6
CONTINUOUS
 62
     7
 10
5740.1056868937758
 20
19829.986106999801
 30
0.0
 40
160.0
  1
桁（後）
 72
     4
 11
6060.1056868937758
 21
19909.986106999801
 31
0.0
  0
TEXT
  5
10660
  8
0-6
  6
CONTINUOUS
 62
     7
 10
5339.9700218018143
 20
14283.81549899982
 30
0.0
 40
160.0
  1
桁（前）
 72
     4
 11
5659.9700218018143
 21
14363.81549899982
 31
0.0
  0
TEXT
  5
10661
  8
0-6
  6
CONTINUOUS
 62
     7
 10
4986.0784094219762
 20
12919.986581999819
 30
0.0
 40
160.0
  1
鼻隠し前
 72
     4
 11
5348.7450760886431
 21
12999.986581999819
 31
0.0
  0
TEXT
  5
10662
  8
0-6
  6
CONTINUOUS
 62
     7
 10
2848.099293470952
 20
12429.985459999811
 30
0.0
 40
160.0
  1
ケラバ 左
 72
     4
 11
3264.099293470952
 21
12509.985459999811
 31
0.0
  0
TEXT
  5
10663
  8
0-6
  6
CONTINUOUS
 62
     7
 10
4744.2405273857976
 20
17726.34210536956
 30
0.0
 40
160.0
  1
上枠
 72
     4
 11
4914.9071940524664
 21
17806.34210536956
 31
0.0
  0
TEXT
  5
10664
  8
0-6
  6
CONTINUOUS
 62
     7
 10
12841.16446935953
 20
20219.98491899982
 30
0.0
 40
160.0
  1
鼻隠しコーナー後
 72
     4
 11
13587.8311360262
 21
20299.98491899982
 31
0.0
  0
LINE
  5
10665
  8
0-6
  6
CONTINUOUS
 62
     6
 10
12120.453031105289
 20
14680.522169063939
 30
0.0
 11
12373.532805166609
 21
14162.64050002256
 31
0.0
  0
LINE
  5
10666
  8
0-6
  6
CONTINUOUS
 62
     6
 10
6133.5935324777747
 20
16385.286684772851
 30
0.0
 11
5253.594588477763
 21
16385.286684772851
 31
0.0
  0
LINE
  5
10667
  8
0-6
  6
CONTINUOUS
 62
     6
 10
6311.3556698261618
 20
16215.26955710254
 30
0.0
 11
6133.5935324777747
 21
16385.286684772851
 31
0.0
  0
LINE
  5
10668
  8
0-6
  6
CONTINUOUS
 62
     6
 10
6426.9833098261452
 20
16104.679793102539
 30
0.0
 11
6329.7859778261354
 21
16234.54215010255
 31
0.0
  0
LINE
  5
10669
  8
0-6
  6
CONTINUOUS
 62
     6
 10
6292.9243728261536
 20
16195.99696410254
 30
0.0
 11
6426.9833098261452
 21
16104.679793102539
 31
0.0
  0
LINE
  5
1066A
  8
0-6
  6
CONTINUOUS
 62
     6
 10
6292.9243728261536
 20
16195.99696410254
 30
0.0
 11
6329.7859778261354
 21
16234.54215010255
 31
0.0
  0
TEXT
  5
1066B
  8
0-6
  6
CONTINUOUS
 62
     7
 10
5328.2589451444146
 20
16465.286948772871
 30
0.0
 40
160.0
  1
ブレース
 72
     4
 11
5690.9256118110807
 21
16550.6202821062
 31
0.0
  0
LINE
  5
1066C
  8
0-6
  6
CONTINUOUS
 62
     6
 10
5097.8946180157236
 20
16784.988191999812
 30
0.0
 11
5217.1922363480862
 21
17100.580529999821
 31
0.0
  0
LINE
  5
1066D
  8
0-6
  6
CONTINUOUS
 62
     6
 10
6017.7629973480634
 20
17100.580529999821
 30
0.0
 11
5217.1922363480862
 21
17100.580529999821
 31
0.0
  0
TEXT
  5
1066E
  8
0-6
  6
CONTINUOUS
 62
     7
 10
5297.192632348092
 20
17180.580793999809
 30
0.0
 40
160.0
  1
桁（中）
 72
     4
 11
5617.192632348093
 21
17260.580793999809
 31
0.0
  0
LINE
  5
1066F
  8
0-6
  6
CONTINUOUS
 62
     6
 10
9735.1371661616522
 20
15172.8671138969
 30
0.0
 11
8855.1382221616477
 21
15172.8671138969
 31
0.0
  0
LINE
  5
10670
  8
0-6
  6
CONTINUOUS
 62
     6
 10
8487.3965165870268
 20
15640.715420530079
 30
0.0
 11
8855.1382221616477
 21
15172.8671138969
 31
0.0
  0
TEXT
  5
10671
  8
0-6
  6
CONTINUOUS
 62
     7
 10
8929.8025788283194
 20
15252.86737789691
 30
0.0
 40
160.0
  1
ブレース
 72
     4
 11
9292.4692454949836
 21
15338.20071123024
 31
0.0
  0
LINE
  5
10672
  8
0-1
  6
CONTINUOUS
 62
     3
 10
4466.7335704709421
 20
16705.48585699981
 30
0.0
 11
7034.2335704709421
 21
16705.48585699981
 31
0.0
  0
LINE
  5
10673
  8
0-1
  6
CONTINUOUS
 62
     3
 10
7034.2335704709421
 20
16705.48585699981
 30
0.0
 11
9606.6044212397446
 21
16705.48585699981
 31
0.0
  0
LINE
  5
10674
  8
2-0
  6
DASHED3
 62
     6
 10
9606.6044212397446
 20
16705.48585699981
 30
0.0
 11
12034.23357047094
 21
16705.48585699981
 31
0.0
  0
LINE
  5
10675
  8
0-1
  6
CONTINUOUS
 62
     3
 10
6981.2339394709534
 20
13795.98689899981
 30
0.0
 11
6981.2339394709534
 21
17788.733651581038
 31
0.0
  0
LINE
  5
10676
  8
0-1
  6
CONTINUOUS
 62
     3
 10
4516.7342043585541
 20
13671.977756733701
 30
0.0
 11
4516.7342043585541
 21
18808.574995433781
 31
0.0
  0
LINE
  5
10677
  8
0-1
  6
CONTINUOUS
 62
     3
 10
4516.7341904709847
 20
18808.5841236999
 30
0.0
 11
4516.7341904709847
 21
19482.486225999801
 31
0.0
  0
LINE
  5
10678
  8
0-1
  6
CONTINUOUS
 62
     3
 10
4381.2335843585251
 20
13639.97784973369
 30
0.0
 11
4381.2335843585251
 21
18864.483334980341
 31
0.0
  0
LINE
  5
10679
  8
0-1
  6
CONTINUOUS
 62
     3
 10
4381.2335704709421
 20
18864.492463246461
 30
0.0
 11
4381.2335704709421
 21
19530.487571999802
 31
0.0
  0
LINE
  5
1067A
  8
0-1
  6
CONTINUOUS
 62
     3
 10
4424.2342964709551
 20
13795.98689899981
 30
0.0
 11
12076.73482447095
 21
13795.98689899981
 31
0.0
  0
LINE
  5
1067B
  8
0-1
  6
CONTINUOUS
 62
     3
 10
4466.7335704709421
 20
13874.986515999801
 30
0.0
 11
12034.23357047094
 21
13874.986515999801
 31
0.0
  0
LINE
  5
1067C
  8
0-1
  6
CONTINUOUS
 62
     3
 10
4381.2335843585251
 20
13639.98697799981
 30
0.0
 11
12119.73357047094
 21
13639.98697799981
 31
0.0
  0
LINE
  5
1067D
  8
0-1
  6
CONTINUOUS
 62
     3
 10
4381.2335843585251
 20
13671.98688499982
 30
0.0
 11
12119.73357047094
 21
13671.98688499982
 31
0.0
  0
LINE
  5
1067E
  8
0-1
  6
CONTINUOUS
 62
     3
 10
7034.2335704709421
 20
13795.98689899981
 30
0.0
 11
7034.2335704709421
 21
17766.865601417059
 31
0.0
  0
LINE
  5
1067F
  8
0-1
  6
CONTINUOUS
 62
     3
 10
7076.7348244709519
 20
13795.98689899981
 30
0.0
 11
7076.7348244709519
 21
17749.32926131491
 31
0.0
  0
LINE
  5
10680
  8
0-1
  6
CONTINUOUS
 62
     3
 10
4466.7335704709421
 20
13795.98689899981
 30
0.0
 11
4466.7335704709421
 21
18830.452581932808
 31
0.0
  0
LINE
  5
10681
  8
0-1
  6
CONTINUOUS
 62
     3
 10
4424.2342964709551
 20
13795.98689899981
 30
0.0
 11
4424.2342964709551
 21
18847.98810507193
 31
0.0
  0
LINE
  5
10682
  8
0-1
  6
CONTINUOUS
 62
     3
 10
5486.7350214709531
 20
18415.375357516848
 30
0.0
 11
5486.7350214709531
 21
19482.486225999801
 31
0.0
  0
LINE
  5
10683
  8
0-1
  6
CONTINUOUS
 62
     3
 10
5523.7351934709641
 20
18400.108805616299
 30
0.0
 11
5523.7351934709641
 21
19482.486225999801
 31
0.0
  0
LINE
  5
10684
  8
0-1
  6
CONTINUOUS
 62
     3
 10
5686.7346924709536
 20
18332.8539747131
 30
0.0
 11
5686.7346924709536
 21
19482.486225999801
 31
0.0
  0
LINE
  5
10685
  8
0-1
  6
CONTINUOUS
 62
     3
 10
5723.735853470952
 20
18317.587014743622
 30
0.0
 11
5723.735853470952
 21
19482.486225999801
 31
0.0
  0
LINE
  5
10686
  8
0-1
  6
CONTINUOUS
 62
     3
 10
5886.7343624709556
 20
18240.33248732195
 30
0.0
 11
5886.7343624709556
 21
19482.486225999801
 31
0.0
  0
LINE
  5
10687
  8
0-1
  6
CONTINUOUS
 62
     3
 10
5923.7335434709621
 20
18225.06634431551
 30
0.0
 11
5923.7335434709621
 21
19482.486225999801
 31
0.0
  0
LINE
  5
10688
  8
0-1
  6
CONTINUOUS
 62
     3
 10
6086.7350214709531
 20
18157.810696861899
 30
0.0
 11
6086.7350214709531
 21
19482.486225999801
 31
0.0
  0
LINE
  5
10689
  8
0-1
  6
CONTINUOUS
 62
     3
 10
6123.7351934709523
 20
18142.544144961332
 30
0.0
 11
6123.7351934709523
 21
19482.486225999801
 31
0.0
  0
LINE
  5
1068A
  8
0-1
  6
CONTINUOUS
 62
     3
 10
6286.7346924709536
 20
18075.28931405814
 30
0.0
 11
6286.7346924709536
 21
19482.486225999801
 31
0.0
  0
LINE
  5
1068B
  8
0-1
  6
CONTINUOUS
 62
     3
 10
6323.735853470951
 20
18060.022354088662
 30
0.0
 11
6323.7358534709429
 21
19482.486225999801
 31
0.0
  0
LINE
  5
1068C
  8
0-1
  6
CONTINUOUS
 62
     3
 10
6486.7343624709847
 20
17992.767931666989
 30
0.0
 11
6486.7343624709847
 21
19482.486225999801
 31
0.0
  0
LINE
  5
1068D
  8
0-1
  6
CONTINUOUS
 62
     3
 10
6523.7345334709426
 20
17977.501380179041
 30
0.0
 11
6523.7345334709426
 21
19482.486225999801
 31
0.0
  0
LINE
  5
1068E
  8
0-1
  6
CONTINUOUS
 62
     3
 10
6686.7350214709531
 20
17910.246141206939
 30
0.0
 11
6686.7350214709531
 21
19482.486225999801
 31
0.0
  0
LINE
  5
1068F
  8
0-1
  6
CONTINUOUS
 62
     3
 10
6723.735193470955
 20
17894.97958930636
 30
0.0
 11
6723.735193470955
 21
19482.486225999801
 31
0.0
  0
LINE
  5
10690
  8
0-1
  6
CONTINUOUS
 62
     3
 10
5286.7343624709774
 20
18497.89714797691
 30
0.0
 11
5286.7343624709774
 21
19482.486225999801
 31
0.0
  0
LINE
  5
10691
  8
0-1
  6
CONTINUOUS
 62
     3
 10
5323.7335434709621
 20
18482.631004970481
 30
0.0
 11
5323.7335434709621
 21
19482.486225999801
 31
0.0
  0
LINE
  5
10692
  8
0-1
  6
CONTINUOUS
 62
     3
 10
4466.7335704709421
 20
16795.488627999821
 30
0.0
 11
7034.2335704709421
 21
16795.488627999821
 31
0.0
  0
LINE
  5
10693
  8
0-1
  6
CONTINUOUS
 62
     3
 10
7034.2335704709421
 20
16795.488627999821
 30
0.0
 11
9388.472780960572
 21
16795.488627999821
 31
0.0
  0
LINE
  5
10694
  8
2-0
  6
DASHED3
 62
     6
 10
9388.472780960572
 20
16795.488627999821
 30
0.0
 11
12034.23357047094
 21
16795.488627999821
 31
0.0
  0
LINE
  5
10695
  8
0-1
  6
CONTINUOUS
 62
     3
 10
6964.2344701147949
 20
16750.488153658669
 30
0.0
 11
4536.7342964709551
 21
13832.486251999821
 31
0.0
  0
LINE
  5
10696
  8
0-1
  6
CONTINUOUS
 62
     3
 10
4536.7342964709551
 20
16750.486251999799
 30
0.0
 11
6964.2348244709528
 21
13832.486251999821
 31
0.0
  0
LINE
  5
10697
  8
0-1
  6
CONTINUOUS
 62
     3
 10
5339.2169083591634
 20
18469.223148975161
 30
0.0
 11
6964.2344701147949
 21
16750.488153658669
 31
0.0
  0
LINE
  5
10698
  8
0-1
  6
CONTINUOUS
 62
     3
 10
5930.3531639896619
 20
18224.478286638911
 30
0.0
 11
4536.7342964709551
 21
16750.486251999799
 31
0.0
  0
LINE
  5
10699
  8
0-1
  6
CONTINUOUS
 62
     3
 10
4399.2323434709406
 20
18857.15766688111
 30
0.0
 11
4399.2323434709406
 21
19522.98717599978
 31
0.0
  0
LINE
  5
1069A
  8
0-1
  6
CONTINUOUS
 62
     3
 10
4454.7330954709414
 20
19505.488230999781
 30
0.0
 11
4454.7330954709414
 21
19535.4878349998
 31
0.0
  0
LINE
  5
1069B
  8
0-1
  6
CONTINUOUS
 62
     3
 10
4381.2335704709421
 20
19535.4878349998
 30
0.0
 11
4381.2335704709421
 21
19500.485987999811
 31
0.0
  0
LINE
  5
1069C
  8
0-1
  6
CONTINUOUS
 62
     3
 10
4449.7328314709321
 20
19540.486119999801
 30
0.0
 11
4386.2328444709447
 21
19540.486119999801
 31
0.0
  0
LINE
  5
1069D
  8
0-1
  6
CONTINUOUS
 62
     3
 10
4399.2323434709406
 20
19522.98717599978
 30
0.0
 11
4381.2335704709421
 21
19522.98717599978
 31
0.0
  0
LINE
  5
1069E
  8
0-1
  6
CONTINUOUS
 62
     3
 10
4399.2323434709406
 20
19500.485987999811
 30
0.0
 11
4449.7328314709321
 21
19500.485987999811
 31
0.0
  0
LINE
  5
1069F
  8
2-0
  6
DASHED3
 62
     6
 10
4466.7335704709421
 20
19278.987755999809
 30
0.0
 11
12034.23357047094
 21
19278.987755999809
 31
0.0
  0
LINE
  5
106A0
  8
2-0
  6
DASHED3
 62
     6
 10
4424.2342964709551
 20
18847.98810507193
 30
0.0
 11
4424.2342964709551
 21
19363.98828399981
 31
0.0
  0
LINE
  5
106A1
  8
2-0
  6
DASHED3
 62
     6
 10
4466.7335704709421
 20
18830.452581932808
 30
0.0
 11
4466.7335704709421
 21
19363.98828399981
 31
0.0
  0
LINE
  5
106A2
  8
2-0
  6
DASHED3
 62
     6
 10
4424.2342964709551
 20
19363.98828399981
 30
0.0
 11
12034.23357047094
 21
19363.98828399981
 31
0.0
  0
LINE
  5
106A3
  8
2-0
  6
DASHED3
 62
     6
 10
7034.2335704709421
 20
17766.86560141707
 30
0.0
 11
7034.2335704709421
 21
19363.98828399981
 31
0.0
  0
LINE
  5
106A4
  8
2-0
  6
DASHED3
 62
     6
 10
7076.7348244709519
 20
17749.32926131491
 30
0.0
 11
7076.7348244709519
 21
19363.98828399981
 31
0.0
  0
LINE
  5
106A5
  8
2-0
  6
DASHED3
 62
     6
 10
4536.7342964709551
 20
19317.98625199981
 30
0.0
 11
5339.2169083591516
 21
18469.223148975161
 31
0.0
  0
LINE
  5
106A6
  8
2-0
  6
DASHED3
 62
     6
 10
6964.2348244709528
 20
19317.98625199981
 30
0.0
 11
5930.3531639896619
 21
18224.478286638911
 31
0.0
  0
LINE
  5
106A7
  8
2-0
  6
CENTER2
 62
     6
 10
7034.2335704709421
 20
20960.488495000009
 30
0.0
 11
7034.2335704709421
 21
19610.4878349998
 31
0.0
  0
LINE
  5
106A8
  8
2-0
  6
CENTER2
 62
     6
 10
3137.2334654709539
 20
19317.98625199981
 30
0.0
 11
4783.7326864709557
 21
19317.98625199981
 31
0.0
  0
LINE
  5
106A9
  8
0-8
  6
CONTINUOUS
 62
     6
 10
4466.7335704709421
 20
20960.488495000009
 30
0.0
 11
4466.7335704709421
 21
19610.4878349998
 31
0.0
  0
LINE
  5
106AA
  8
2-0
  6
CENTER2
 62
     6
 10
3137.2334654709539
 20
16750.486251999799
 30
0.0
 11
12206.03301847094
 21
16750.486251999799
 31
0.0
  0
LINE
  5
106AB
  8
2-0
  6
CENTER2
 62
     6
 10
3137.2334654709539
 20
13832.486251999821
 30
0.0
 11
4783.7326864709557
 21
13832.486251999821
 31
0.0
  0
ARC
  5
106AC
  8
0-1
  6
CONTINUOUS
 62
     3
 10
4449.7328314709321
 20
19505.488230999781
 30
0.0
 40
5.0
 50
269.9999850001808
 51
0.0
  0
ARC
  5
106AD
  8
0-1
  6
CONTINUOUS
 62
     3
 10
4449.7355327884343
 20
19535.48895392214
 30
0.0
 40
4.99729880777691
 50
359.98717116373359
 51
90.030971551829396
  0
ARC
  5
106AE
  8
0-1
  6
CONTINUOUS
 62
     3
 10
4386.2299179947131
 20
19535.48904718594
 30
0.0
 40
4.9970736707893684
 50
89.966445412290042
 51
180.0138987647515
  0
CIRCLE
  5
106AF
  8
0-5
  6
CONTINUOUS
 62
     4
 10
7034.2335704709421
 20
21160.487175999999
 30
0.0
 40
199.9999949999999
  0
CIRCLE
  5
106B0
  8
0-5
  6
CONTINUOUS
 62
     4
 10
4466.7335704709421
 20
21160.487175999999
 30
0.0
 40
199.9999949999999
  0
CIRCLE
  5
106B1
  8
0-5
  6
CONTINUOUS
 62
     4
 10
2937.2337944709529
 20
19317.98625199981
 30
0.0
 40
199.9999949999999
  0
CIRCLE
  5
106B2
  8
0-5
  6
CONTINUOUS
 62
     4
 10
2937.2337944709529
 20
16750.486251999799
 30
0.0
 40
199.9999949999999
  0
CIRCLE
  5
106B3
  8
0-5
  6
CONTINUOUS
 62
     4
 10
2937.2337944709529
 20
13832.486251999821
 30
0.0
 40
199.9999949999999
  0
TEXT
  5
106B4
  8
0-5
  6
CONTINUOUS
 62
     7
 10
6980.5163644709583
 20
21071.27225300001
 30
0.0
 40
160.0
  1
2
 72
     4
 11
7033.8496978042913
 21
21151.27225300001
 31
0.0
  0
TEXT
  5
106B5
  8
0-5
  6
CONTINUOUS
 62
     7
 10
4440.0669038042743
 20
21080.487175999999
 30
0.0
 40
160.0
  1
1
 72
     4
 11
4466.7335704709421
 21
21160.487175999999
 31
0.0
  0
TEXT
  5
106B6
  8
0-5
  6
CONTINUOUS
 62
     7
 10
2883.7739264709599
 20
19238.397727999811
 30
0.0
 40
160.0
  1
C
 72
     4
 11
2937.1072598042938
 21
19318.397727999811
 31
0.0
  0
TEXT
  5
106B7
  8
0-5
  6
CONTINUOUS
 62
     7
 10
2883.7739264709599
 20
16670.898717999811
 30
0.0
 40
160.0
  1
B
 72
     4
 11
2937.1072598042938
 21
16750.898717999811
 31
0.0
  0
TEXT
  5
106B8
  8
0-5
  6
CONTINUOUS
 62
     7
 10
2883.7739264709599
 20
13752.897727999811
 30
0.0
 40
160.0
  1
A
 72
     4
 11
2937.1072598042938
 21
13832.897727999811
 31
0.0
  0
LINE
  5
106B9
  8
2-0
  6
CENTER2
 62
     6
 10
12034.23357047094
 20
20960.488495000009
 30
0.0
 11
12034.23357047094
 21
19610.4878349998
 31
0.0
  0
CIRCLE
  5
106BA
  8
0-5
  6
CONTINUOUS
 62
     4
 10
12034.23357047094
 20
21160.487175999999
 30
0.0
 40
199.9999949999999
  0
TEXT
  5
106BB
  8
0-5
  6
CONTINUOUS
 62
     7
 10
11980.51636447095
 20
21074.27225300001
 30
0.0
 40
160.0
  1
3
 72
     4
 11
12033.849697804289
 21
21154.27225300001
 31
0.0
  0
LINE
  5
106BC
  8
0-1
  6
CONTINUOUS
 62
     3
 10
12101.733808470941
 20
15677.2137782307
 30
0.0
 11
12101.733808470941
 21
19522.98717599978
 31
0.0
  0
LINE
  5
106BD
  8
0-1
  6
CONTINUOUS
 62
     3
 10
12101.733808470941
 20
19522.98717599978
 30
0.0
 11
12119.73357047094
 21
19522.98717599978
 31
0.0
  0
LINE
  5
106BE
  8
0-1
  6
CONTINUOUS
 62
     3
 10
12046.23305647095
 20
19505.488230999781
 30
0.0
 11
12046.23305647095
 21
19535.4878349998
 31
0.0
  0
LINE
  5
106BF
  8
0-1
  6
CONTINUOUS
 62
     3
 10
12101.733808470941
 20
19500.485987999811
 30
0.0
 11
12051.234310470951
 21
19500.485987999811
 31
0.0
  0
LINE
  5
106C0
  8
0-1
  6
CONTINUOUS
 62
     3
 10
12119.73357047094
 20
19535.4878349998
 30
0.0
 11
12119.73357047094
 21
19500.485987999811
 31
0.0
  0
LINE
  5
106C1
  8
0-1
  6
CONTINUOUS
 62
     3
 10
12051.234310470951
 20
19540.486119999801
 30
0.0
 11
12114.732317470931
 21
19540.486119999801
 31
0.0
  0
ARC
  5
106C2
  8
0-1
  6
CONTINUOUS
 62
     3
 10
12114.732317470931
 20
19535.4878349998
 30
0.0
 40
5.0
 50
0.0
 51
90.0
  0
ARC
  5
106C3
  8
0-1
  6
CONTINUOUS
 62
     3
 10
12051.234310470951
 20
19535.4878349998
 30
0.0
 40
5.0
 50
90.0
 51
180.0
  0
ARC
  5
106C4
  8
0-1
  6
CONTINUOUS
 62
     3
 10
12051.234310470951
 20
19505.488230999781
 30
0.0
 40
5.0
 50
180.0
 51
269.9999850001808
  0
LINE
  5
106C5
  8
0-1
  6
CONTINUOUS
 62
     3
 10
7034.2335704709421
 20
13795.98689899981
 30
0.0
 11
7034.2335704709421
 21
13639.98697799981
 31
0.0
  0
LINE
  5
106C6
  8
0-1
  6
CONTINUOUS
 62
     3
 10
4168.8420034764831
 20
18953.78697372615
 30
0.0
 11
7443.0320238155937
 21
17598.192255659222
 31
0.0
  0
LINE
  5
106C7
  8
0-1
  6
CONTINUOUS
 62
     3
 10
8367.4346294612278
 20
17216.776721804301
 30
0.0
 11
12356.73495547094
 21
15570.76111749966
 31
0.0
  0
LINE
  5
106C8
  8
0-1
  6
CONTINUOUS
 62
     3
 10
11984.233939470951
 20
13671.98688499982
 30
0.0
 11
11984.233939470951
 21
15725.695687789719
 31
0.0
  0
LINE
  5
106C9
  8
0-1
  6
CONTINUOUS
 62
     3
 10
12119.73357047094
 20
13639.98697799981
 30
0.0
 11
12119.73357047094
 21
15669.78693976166
 31
0.0
  0
LINE
  5
106CA
  8
0-1
  6
CONTINUOUS
 62
     3
 10
12034.23357047094
 20
13795.98689899981
 30
0.0
 11
12034.23357047094
 21
15703.827637625731
 31
0.0
  0
LINE
  5
106CB
  8
0-1
  6
CONTINUOUS
 62
     3
 10
12076.73482447095
 20
13795.98689899981
 30
0.0
 11
12076.73482447095
 21
15686.29129752357
 31
0.0
  0
LINE
  5
106CC
  8
0-1
  6
CONTINUOUS
 62
     3
 10
11984.233939470951
 20
15725.695687789719
 30
0.0
 11
11984.233939470951
 21
19482.486225999801
 31
0.0
  0
LINE
  5
106CD
  8
0-1
  6
CONTINUOUS
 62
     3
 10
12119.73357047094
 20
15669.78693976166
 30
0.0
 11
12119.73357047094
 21
19522.98717599978
 31
0.0
  0
LINE
  5
106CE
  8
0-1
  6
CONTINUOUS
 62
     3
 10
11886.73370247093
 20
15764.687203093359
 30
0.0
 11
11886.73370247094
 21
19482.486225999801
 31
0.0
  0
LINE
  5
106CF
  8
0-1
  6
CONTINUOUS
 62
     3
 10
11923.735853470949
 20
15749.419834642389
 30
0.0
 11
11923.735853470949
 21
19482.486225999801
 31
0.0
  0
LINE
  5
106D0
  8
2-0
  6
DASHED3
 62
     6
 10
12034.23357047094
 20
15703.827637625731
 30
0.0
 11
12034.23357047094
 21
19482.486225999801
 31
0.0
  0
LINE
  5
106D1
  8
2-0
  6
DASHED3
 62
     6
 10
12076.73482447095
 20
15686.29129752357
 30
0.0
 11
12076.73482447095
 21
19482.486225999801
 31
0.0
  0
LINE
  5
106D2
  8
0-1
  6
CONTINUOUS
 62
     3
 10
6886.735681470951
 20
17827.724350334269
 30
0.0
 11
6886.7356814709647
 21
19482.486225999801
 31
0.0
  0
LINE
  5
106D3
  8
0-1
  6
CONTINUOUS
 62
     3
 10
6923.7358534709647
 20
17812.457798433701
 30
0.0
 11
6923.7358534709647
 21
19482.486225999801
 31
0.0
  0
LINE
  5
106D4
  8
0-1
  6
CONTINUOUS
 62
     3
 10
7086.7363414709853
 20
17745.202559461592
 30
0.0
 11
7086.7363414709635
 21
19482.486225999801
 31
0.0
  0
LINE
  5
106D5
  8
0-1
  6
CONTINUOUS
 62
     3
 10
7123.7365134709862
 20
17729.936007561031
 30
0.0
 11
7123.7365134709862
 21
19482.486225999801
 31
0.0
  0
LINE
  5
106D6
  8
0-1
  6
CONTINUOUS
 62
     3
 10
7286.7370014709822
 20
17662.680768588922
 30
0.0
 11
7286.7370014709822
 21
19482.486225999801
 31
0.0
  0
LINE
  5
106D7
  8
0-1
  6
CONTINUOUS
 62
     3
 10
7323.7371734709914
 20
17647.414216688368
 30
0.0
 11
7323.7371734709841
 21
19482.486225999801
 31
0.0
  0
LINE
  5
106D8
  8
0-1
  6
CONTINUOUS
 62
     3
 10
7486.7376614709947
 20
17704.117688013041
 30
0.0
 11
7486.7376614709947
 21
19482.486225999801
 31
0.0
  0
LINE
  5
106D9
  8
0-1
  6
CONTINUOUS
 62
     3
 10
7523.7378334709947
 20
17793.79168492779
 30
0.0
 11
7523.7378334709947
 21
19482.486225999801
 31
0.0
  0
LINE
  5
106DA
  8
0-1
  6
CONTINUOUS
 62
     3
 10
7686.7383214710162
 20
17658.714093947441
 30
0.0
 11
7686.7383214709926
 21
19482.486225999801
 31
0.0
  0
LINE
  5
106DB
  8
0-1
  6
CONTINUOUS
 62
     3
 10
7723.7384934710053
 20
17616.17085355856
 30
0.0
 11
7723.7384934710053
 21
19482.486225999801
 31
0.0
  0
LINE
  5
106DC
  8
0-1
  6
CONTINUOUS
 62
     3
 10
7886.7389814710141
 20
17428.750942524461
 30
0.0
 11
7886.7389814710059
 21
19482.486225999801
 31
0.0
  0
LINE
  5
106DD
  8
0-1
  6
CONTINUOUS
 62
     3
 10
7923.7391534710132
 20
17386.20770213558
 30
0.0
 11
7923.7391534710132
 21
19482.486225999801
 31
0.0
  0
LINE
  5
106DE
  8
0-1
  6
CONTINUOUS
 62
     3
 10
8086.7396414710111
 20
17198.787791101469
 30
0.0
 11
8086.7396414710111
 21
19482.486225999801
 31
0.0
  0
LINE
  5
106DF
  8
0-1
  6
CONTINUOUS
 62
     3
 10
8123.7398134710256
 20
17156.244550712581
 30
0.0
 11
8123.7398134710256
 21
19482.486225999801
 31
0.0
  0
LINE
  5
106E0
  8
0-1
  6
CONTINUOUS
 62
     3
 10
8286.7403014710344
 20
17021.195778491649
 30
0.0
 11
8286.7403014710235
 21
19482.486225999801
 31
0.0
  0
LINE
  5
106E1
  8
0-1
  6
CONTINUOUS
 62
     3
 10
8323.7404734710453
 20
17110.87405852355
 30
0.0
 11
8323.7404734710453
 21
19482.486225999801
 31
0.0
  0
LINE
  5
106E2
  8
0-1
  6
CONTINUOUS
 62
     3
 10
8486.7409614710286
 20
17167.550023352909
 30
0.0
 11
8486.7409614710286
 21
19482.486225999801
 31
0.0
  0
LINE
  5
106E3
  8
0-1
  6
CONTINUOUS
 62
     3
 10
8523.7411334710359
 20
17152.283471452341
 30
0.0
 11
8523.7411334710359
 21
19482.486225999801
 31
0.0
  0
LINE
  5
106E4
  8
0-1
  6
CONTINUOUS
 62
     3
 10
8686.7416214710483
 20
17085.028232480228
 30
0.0
 11
8686.7416214710338
 21
19482.486225999801
 31
0.0
  0
LINE
  5
106E5
  8
0-1
  6
CONTINUOUS
 62
     3
 10
8723.7417934710465
 20
17069.761680579672
 30
0.0
 11
8723.7417934710465
 21
19482.486225999801
 31
0.0
  0
LINE
  5
106E6
  8
0-1
  6
CONTINUOUS
 62
     3
 10
8886.7422814710499
 20
17002.506441607558
 30
0.0
 11
8886.7422814710499
 21
19482.486225999801
 31
0.0
  0
LINE
  5
106E7
  8
0-1
  6
CONTINUOUS
 62
     3
 10
8923.7424534710553
 20
16987.239889707009
 30
0.0
 11
8923.7424534710553
 21
19482.486225999801
 31
0.0
  0
LINE
  5
106E8
  8
0-1
  6
CONTINUOUS
 62
     3
 10
9086.7429414710623
 20
16919.984650734888
 30
0.0
 11
9086.7429414710623
 21
19482.486225999801
 31
0.0
  0
LINE
  5
106E9
  8
0-1
  6
CONTINUOUS
 62
     3
 10
9123.7431134710714
 20
16904.71809883431
 30
0.0
 11
9123.7431134710623
 21
19482.486225999801
 31
0.0
  0
LINE
  5
106EA
  8
0-1
  6
CONTINUOUS
 62
     3
 10
9286.7436014710711
 20
16837.462859862229
 30
0.0
 11
9286.7436014710711
 21
19482.486225999801
 31
0.0
  0
LINE
  5
106EB
  8
0-1
  6
CONTINUOUS
 62
     3
 10
9323.7437734710747
 20
16822.196307961669
 30
0.0
 11
9323.7437734710838
 21
19482.486225999801
 31
0.0
  0
LINE
  5
106EC
  8
0-1
  6
CONTINUOUS
 62
     3
 10
9486.7442614710799
 20
16754.941068989549
 30
0.0
 11
9486.7442614710726
 21
19482.486225999801
 31
0.0
  0
LINE
  5
106ED
  8
0-1
  6
CONTINUOUS
 62
     3
 10
9523.7444334710854
 20
16739.674517088992
 30
0.0
 11
9523.7444334710854
 21
19482.486225999801
 31
0.0
  0
LINE
  5
106EE
  8
0-1
  6
CONTINUOUS
 62
     3
 10
9686.7449214710887
 20
16672.419278116879
 30
0.0
 11
9686.7449214710941
 21
19482.486225999801
 31
0.0
  0
LINE
  5
106EF
  8
0-1
  6
CONTINUOUS
 62
     3
 10
9723.7450934710923
 20
16657.152726216311
 30
0.0
 11
9723.7450934710923
 21
19482.486225999801
 31
0.0
  0
LINE
  5
106F0
  8
0-1
  6
CONTINUOUS
 62
     3
 10
9886.7455814710993
 20
16589.89748724422
 30
0.0
 11
9886.7455814710993
 21
19482.486225999801
 31
0.0
  0
LINE
  5
106F1
  8
0-1
  6
CONTINUOUS
 62
     3
 10
9923.7457534711011
 20
16574.630935343641
 30
0.0
 11
9923.7457534711011
 21
19482.486225999801
 31
0.0
  0
LINE
  5
106F2
  8
0-1
  6
CONTINUOUS
 62
     3
 10
10086.746241471101
 20
16507.37569637155
 30
0.0
 11
10086.746241471101
 21
19482.486225999801
 31
0.0
  0
LINE
  5
106F3
  8
0-1
  6
CONTINUOUS
 62
     3
 10
10123.74641347111
 20
16492.109144470978
 30
0.0
 11
10123.74641347111
 21
19482.486225999801
 31
0.0
  0
LINE
  5
106F4
  8
0-1
  6
CONTINUOUS
 62
     3
 10
10286.74690147111
 20
16424.85390549888
 30
0.0
 11
10286.74690147111
 21
19482.486225999801
 31
0.0
  0
LINE
  5
106F5
  8
0-1
  6
CONTINUOUS
 62
     3
 10
10323.747073471121
 20
16409.587353598301
 30
0.0
 11
10323.747073471121
 21
19482.486225999801
 31
0.0
  0
LINE
  5
106F6
  8
0-1
  6
CONTINUOUS
 62
     3
 10
10486.74756147112
 20
16342.332114626201
 30
0.0
 11
10486.74756147112
 21
19482.486225999801
 31
0.0
  0
LINE
  5
106F7
  8
0-1
  6
CONTINUOUS
 62
     3
 10
10523.747733471129
 20
16327.06556272564
 30
0.0
 11
10523.747733471129
 21
19482.486225999801
 31
0.0
  0
LINE
  5
106F8
  8
0-1
  6
CONTINUOUS
 62
     3
 10
10686.748221471131
 20
16259.81032375354
 30
0.0
 11
10686.748221471131
 21
19482.486225999801
 31
0.0
  0
LINE
  5
106F9
  8
0-1
  6
CONTINUOUS
 62
     3
 10
10723.748393471131
 20
16244.54377185297
 30
0.0
 11
10723.748393471131
 21
19482.486225999801
 31
0.0
  0
LINE
  5
106FA
  8
0-1
  6
CONTINUOUS
 62
     3
 10
10886.748881471131
 20
16177.28853288087
 30
0.0
 11
10886.748881471131
 21
19482.486225999801
 31
0.0
  0
LINE
  5
106FB
  8
0-1
  6
CONTINUOUS
 62
     3
 10
10923.74905347114
 20
16162.0219809803
 30
0.0
 11
10923.74905347114
 21
19482.486225999801
 31
0.0
  0
LINE
  5
106FC
  8
0-1
  6
CONTINUOUS
 62
     3
 10
11086.749541471139
 20
16094.7667420082
 30
0.0
 11
11086.749541471139
 21
19482.486225999801
 31
0.0
  0
LINE
  5
106FD
  8
0-1
  6
CONTINUOUS
 62
     3
 10
11123.749713471159
 20
16079.500190107619
 30
0.0
 11
11123.74971347115
 21
19482.486225999801
 31
0.0
  0
LINE
  5
106FE
  8
0-1
  6
CONTINUOUS
 62
     3
 10
11286.75020147115
 20
16012.24495113551
 30
0.0
 11
11286.75020147115
 21
19482.486225999801
 31
0.0
  0
LINE
  5
106FF
  8
0-1
  6
CONTINUOUS
 62
     3
 10
11323.750373471161
 20
15996.978399234969
 30
0.0
 11
11323.750373471161
 21
19482.486225999801
 31
0.0
  0
LINE
  5
10700
  8
0-1
  6
CONTINUOUS
 62
     3
 10
11486.75086147117
 20
15929.72316026286
 30
0.0
 11
11486.75086147117
 21
19482.486225999801
 31
0.0
  0
LINE
  5
10701
  8
0-1
  6
CONTINUOUS
 62
     3
 10
11523.75103347117
 20
15914.45660836229
 30
0.0
 11
11523.75103347117
 21
19482.486225999801
 31
0.0
  0
LINE
  5
10702
  8
0-1
  6
CONTINUOUS
 62
     3
 10
11686.751521471169
 20
15847.20136939019
 30
0.0
 11
11686.751521471169
 21
19482.486225999801
 31
0.0
  0
LINE
  5
10703
  8
0-1
  6
CONTINUOUS
 62
     3
 10
11723.75169347118
 20
15831.93481748962
 30
0.0
 11
11723.75169347118
 21
19482.486225999801
 31
0.0
  0
LINE
  5
10704
  8
0-1
  6
CONTINUOUS
 62
     3
 10
7093.7339394709543
 20
13832.486251999821
 30
0.0
 11
9342.7339394709561
 21
16750.486251999799
 31
0.0
  0
LINE
  5
10705
  8
2-0
  6
DASHED3
 62
     6
 10
11201.771000549739
 20
16047.30801466228
 30
0.0
 11
11743.733939470951
 21
16750.486251999799
 31
0.0
  0
LINE
  5
10706
  8
0-1
  6
CONTINUOUS
 62
     3
 10
9342.7339394709561
 20
13832.486251999821
 30
0.0
 11
7093.7339394709543
 21
16750.486251999799
 31
0.0
  0
LINE
  5
10707
  8
2-0
  6
DASHED3
 62
     6
 10
7093.7339394709543
 20
19317.98625199981
 30
0.0
 11
9270.1831257642134
 21
16844.295837878592
 31
0.0
  0
LINE
  5
10708
  8
2-0
  6
DASHED3
 62
     6
 10
9342.7339394709561
 20
19317.98625199981
 30
0.0
 11
7744.6473064277261
 21
17592.12965029433
 31
0.0
  0
LINE
  5
10709
  8
0-1
  6
CONTINUOUS
 62
     3
 10
7744.6473064277261
 20
17592.12965029433
 30
0.0
 11
7093.7339394709543
 21
16750.486251999799
 31
0.0
  0
LINE
  5
1070A
  8
0-1
  6
CONTINUOUS
 62
     3
 10
7443.0314860558219
 20
17598.1909523391
 30
0.0
 11
7538.3855063793426
 21
17829.291935445301
 31
0.0
  0
LINE
  5
1070B
  8
0-1
  6
CONTINUOUS
 62
     3
 10
8272.0850385625636
 20
16985.675436287671
 30
0.0
 11
8367.4356882400734
 21
17216.779287994141
 31
0.0
  0
LINE
  5
1070C
  8
0-1
  6
CONTINUOUS
 62
     3
 10
8272.0850385625636
 20
16985.675436287671
 30
0.0
 11
7538.3855063793426
 21
17829.291935445301
 31
0.0
  0
LINE
  5
1070D
  8
0-1
  6
CONTINUOUS
 62
     3
 10
9342.7339394709561
 20
16750.486251999821
 30
0.0
 11
9270.1831257642134
 21
16844.295837878592
 31
0.0
  0
LINE
  5
1070E
  8
2-0
  6
DASHED3
 62
     6
 10
9494.7339394709543
 20
19317.98625199981
 30
0.0
 11
11743.733939470951
 21
16750.486251999799
 31
0.0
  0
LINE
  5
1070F
  8
2-0
  6
DASHED3
 62
     6
 10
11743.733939470951
 20
19317.98625199981
 30
0.0
 11
9494.7339394709543
 21
16750.486251999799
 31
0.0
  0
LINE
  5
10710
  8
0-1
  6
CONTINUOUS
 62
     3
 10
9494.7339394709543
 20
13832.486251999821
 30
0.0
 11
11201.771000549739
 21
16047.30801466228
 31
0.0
  0
LINE
  5
10711
  8
0-1
  6
CONTINUOUS
 62
     3
 10
11743.733939470951
 20
13832.486251999821
 30
0.0
 11
9494.7339394709543
 21
16750.486251999799
 31
0.0
  0
LINE
  5
10712
  8
SUNPOU
  6
CONTINUOUS
 10
3537.2337944709661
 20
19540.484140499819
 30
0.0
 11
3537.2337944709661
 21
20337.451408278292
 31
0.0
  0
LINE
  5
10713
  8
SUNPOU
  6
CONTINUOUS
 10
3537.2337944709452
 20
12898.674387847621
 30
0.0
 11
3537.2337944709452
 21
13639.98697799981
 31
0.0
  0
LINE
  5
10714
  8
0-1
  6
CONTINUOUS
 62
     3
 10
5086.7346924709627
 20
18573.756959211521
 30
0.0
 11
5086.7346924709627
 21
19482.486225999801
 31
0.0
  0
LINE
  5
10715
  8
0-1
  6
CONTINUOUS
 62
     3
 10
5123.735853470951
 20
18558.437573927709
 30
0.0
 11
5123.735853470951
 21
19482.486225999801
 31
0.0
  0
LINE
  5
10716
  8
0-1
  6
CONTINUOUS
 62
     3
 10
4886.7340334709752
 20
18656.562121791001
 30
0.0
 11
4886.7340334709752
 21
19482.486225999801
 31
0.0
  0
LINE
  5
10717
  8
0-1
  6
CONTINUOUS
 62
     3
 10
4923.7332144709644
 20
18641.243556275611
 30
0.0
 11
4923.7332144709644
 21
19482.486225999801
 31
0.0
  0
LINE
  5
10718
  8
0-1
  6
CONTINUOUS
 62
     3
 10
4686.734363470985
 20
18739.366874900301
 30
0.0
 11
4686.734363470985
 21
19482.486225999801
 31
0.0
  0
LINE
  5
10719
  8
0-1
  6
CONTINUOUS
 62
     3
 10
4723.7355244709634
 20
18724.0474896165
 30
0.0
 11
4723.7355244709634
 21
19482.486225999801
 31
0.0
  0
LINE
  5
1071A
  8
2-0
  6
CENTER2
 62
     6
 10
22341.010092585169
 20
20960.48849499982
 30
0.0
 11
22341.010092585238
 21
19101.486805999812
 31
0.0
  0
LINE
  5
1071B
  8
2-0
  6
CENTER2
 62
     6
 10
19773.510092585169
 20
20960.488494999729
 30
0.0
 11
19773.510092585238
 21
19101.486805999721
 31
0.0
  0
LINE
  5
1071C
  8
2-0
  6
CENTER2
 62
     6
 10
17731.00916958525
 20
19317.98625199965
 30
0.0
 11
18451.00784958525
 21
19317.986251999679
 31
0.0
  0
LINE
  5
1071D
  8
2-0
  6
CENTER2
 62
     6
 10
18611.00784958525
 20
19317.986251999679
 30
0.0
 11
27645.614928537161
 21
19317.986252000021
 31
0.0
  0
LINE
  5
1071E
  8
2-0
  6
CENTER2
 62
     6
 10
17731.00916958533
 20
16750.48625199965
 30
0.0
 11
17963.368482953239
 21
16750.48625199965
 31
0.0
  0
LINE
  5
1071F
  8
2-0
  6
CENTER2
 62
     6
 10
18601.010488585351
 20
16750.48625199969
 30
0.0
 11
27645.614928537259
 21
16750.486252000032
 31
0.0
  0
LINE
  5
10720
  8
2-0
  6
CENTER2
 62
     6
 10
17731.009169585461
 20
13832.48625199965
 30
0.0
 11
18451.007849585461
 21
13832.48625199968
 31
0.0
  0
LINE
  5
10721
  8
2-0
  6
CENTER2
 62
     6
 10
18611.007849585461
 20
13832.48625199968
 30
0.0
 11
27645.614928537369
 21
13832.48625200003
 31
0.0
  0
CIRCLE
  5
10722
  8
0-5
  6
CONTINUOUS
 62
     4
 10
22341.010092585158
 20
21160.487175999799
 30
0.0
 40
199.9999949999999
  0
CIRCLE
  5
10723
  8
0-5
  6
CONTINUOUS
 62
     4
 10
17531.008509585248
 20
19317.986251999639
 30
0.0
 40
199.9999949999999
  0
CIRCLE
  5
10724
  8
0-5
  6
CONTINUOUS
 62
     4
 10
17531.008509585339
 20
16750.486251999639
 30
0.0
 40
199.9999949999999
  0
CIRCLE
  5
10725
  8
0-5
  6
CONTINUOUS
 62
     4
 10
17531.008509585459
 20
13832.48625199964
 30
0.0
 40
199.9999949999999
  0
CIRCLE
  5
10726
  8
0-5
  6
CONTINUOUS
 62
     4
 10
19773.510092585158
 20
21160.487175999711
 30
0.0
 40
199.9999949999999
  0
TEXT
  5
10727
  8
0-5
  6
CONTINUOUS
 62
     7
 10
22286.339748585171
 20
21074.261325999829
 30
0.0
 40
160.0
  1
2
 50
0.0000000000021583
 72
     4
 11
22339.6730819185
 21
21154.261325999829
 31
0.0
  0
TEXT
  5
10728
  8
0-5
  6
CONTINUOUS
 62
     7
 10
19746.843425918491
 20
21080.487175999711
 30
0.0
 40
160.0
  1
1
 50
0.0000000000021583
 72
     4
 11
19773.510092585158
 21
21160.487175999711
 31
0.0
  0
TEXT
  5
10729
  8
0-5
  6
CONTINUOUS
 62
     7
 10
17482.332147585261
 20
19226.368192999638
 30
0.0
 40
160.0
  1
C
 50
0.0000000000021583
 72
     4
 11
17535.665480918589
 21
19306.368192999638
 31
0.0
  0
TEXT
  5
1072A
  8
0-5
  6
CONTINUOUS
 62
     7
 10
17482.332147585352
 20
16658.868193999639
 30
0.0
 40
160.0
  1
B
 50
0.0000000000021583
 72
     4
 11
17535.66548091868
 21
16738.868193999639
 31
0.0
  0
TEXT
  5
1072B
  8
0-5
  6
CONTINUOUS
 62
     7
 10
17482.332147585461
 20
13740.86819299962
 30
0.0
 40
160.0
  1
A
 50
0.0000000000021583
 72
     4
 11
17535.665480918789
 21
13820.86819299962
 31
0.0
  0
LINE
  5
1072C
  8
2-0
  6
CENTER2
 62
     6
 10
27341.010092585169
 20
20960.48849500002
 30
0.0
 11
27341.01009258546
 21
13474.732373531589
 31
0.0
  0
CIRCLE
  5
1072D
  8
0-5
  6
CONTINUOUS
 62
     4
 10
27341.010092585158
 20
21160.487175999999
 30
0.0
 40
199.9999949999999
  0
TEXT
  5
1072E
  8
0-5
  6
CONTINUOUS
 62
     7
 10
27286.339748585171
 20
21074.261326000011
 30
0.0
 40
160.0
  1
3
 50
0.0000000000021583
 72
     4
 11
27339.6730819185
 21
21154.261326000022
 31
0.0
  0
ARC
  5
1072F
  8
1-後柱P
  6
HIDE-M
 62
     6
 10
27344.61009258523
 20
19249.93625200001
 30
0.0
 40
2.6000000000000001
 50
180.0
 51
270.0
  0
LINE
  5
10730
  8
1-後柱P
  6
HIDE-M
 62
     6
 10
27333.010092585238
 20
19247.886861846819
 30
0.0
 11
27333.010092585238
 21
19251.536252000009
 31
0.0
  0
LINE
  5
10731
  8
1-後柱P
  6
HIDE-M
 62
     6
 10
27343.010092585238
 20
19247.886861846819
 30
0.0
 11
27343.010092585238
 21
19251.536252000009
 31
0.0
  0
LINE
  5
10732
  8
1-後柱P
  6
1PL-M
 62
     6
 10
27338.010092585231
 20
19242.336252000008
 30
0.0
 11
27338.010092585231
 21
19256.536252000009
 31
0.0
  0
ARC
  5
10733
  8
1-後柱P
  6
HIDE-M
 62
     6
 10
27331.410092585229
 20
19249.93625200001
 30
0.0
 40
2.6000000000000001
 50
270.0
 51
0.0
  0
LINE
  5
10734
  8
1-後柱P
  6
HIDE-M
 62
     6
 10
27342.010092585238
 20
19249.93625200001
 30
0.0
 11
27342.010092585238
 21
19251.536252000009
 31
0.0
  0
LINE
  5
10735
  8
1-後柱P
  6
HIDE-M
 62
     6
 10
27334.010092585231
 20
19249.93625200001
 30
0.0
 11
27334.010092585231
 21
19251.536252000009
 31
0.0
  0
LINE
  5
10736
  8
1-後柱P
 10
27351.910092585229
 20
19362.236252000021
 30
0.0
 11
27330.11009258523
 21
19362.236252000021
 31
0.0
  0
LINE
  5
10737
  8
1-後柱P
 10
27300.11009258523
 20
19324.936252
 30
0.0
 11
27300.11009258523
 21
19332.23625200001
 31
0.0
  0
ARC
  5
10738
  8
1-後柱P
 10
27330.11009258523
 20
19332.23625200001
 30
0.0
 40
30.0
 50
90.0
 51
180.0
  0
ARC
  5
10739
  8
1-後柱P
 10
27330.11009258523
 20
19332.23625200001
 30
0.0
 40
31.600000000000001
 50
90.0
 51
180.0
  0
LINE
  5
1073A
  8
1-後柱P
 10
27351.910092585229
 20
19363.836252000008
 30
0.0
 11
27330.11009258523
 21
19363.836252000008
 31
0.0
  0
LINE
  5
1073B
  8
1-後柱P
 10
27298.510092585231
 20
19324.936252
 30
0.0
 11
27298.510092585231
 21
19332.23625200001
 31
0.0
  0
LINE
  5
1073C
  8
1-後柱P
 10
27321.510092585238
 20
19303.336252000008
 30
0.0
 11
27321.510092585238
 21
19313.336252000001
 31
0.0
  0
LINE
  5
1073D
  8
1-後柱P
 10
27323.11009258523
 20
19313.336252000001
 30
0.0
 11
27323.11009258523
 21
19303.336252000008
 31
0.0
  0
LINE
  5
1073E
  8
1-後柱P
 10
27381.910092585229
 20
19324.936252
 30
0.0
 11
27381.910092585229
 21
19332.23625200001
 31
0.0
  0
ARC
  5
1073F
  8
1-後柱P
 10
27351.910092585229
 20
19332.23625200001
 30
0.0
 40
30.0
 50
0.0
 51
90.0
  0
ARC
  5
10740
  8
1-後柱P
 10
27351.910092585229
 20
19332.23625200001
 30
0.0
 40
31.600000000000001
 50
0.0
 51
90.0
  0
LINE
  5
10741
  8
1-後柱P
 10
27383.510092585231
 20
19324.936252
 30
0.0
 11
27383.510092585231
 21
19332.23625200001
 31
0.0
  0
LINE
  5
10742
  8
1-後柱P
 10
27376.910092585269
 20
19318.336252000008
 30
0.0
 11
27365.510092585238
 21
19318.336252000008
 31
0.0
  0
ARC
  5
10743
  8
1-後柱P
 10
27376.910092585262
 20
19324.936252
 30
0.0
 40
6.599999999999997
 50
270.0
 51
0.0
  0
ARC
  5
10744
  8
1-後柱P
 10
27365.510092585238
 20
19313.336252000001
 30
0.0
 40
5.0
 50
90.0
 51
180.0
  0
LINE
  5
10745
  8
1-後柱P
 10
27376.910092585269
 20
19319.936252
 30
0.0
 11
27365.510092585238
 21
19319.936252
 31
0.0
  0
ARC
  5
10746
  8
1-後柱P
 10
27376.910092585262
 20
19324.936252
 30
0.0
 40
5.0
 50
270.0
 51
0.0
  0
LINE
  5
10747
  8
1-後柱P
 10
27360.510092585231
 20
19313.336252000001
 30
0.0
 11
27360.510092585231
 21
19253.936252
 31
0.0
  0
LINE
  5
10748
  8
1-後柱P
 10
27358.91009258524
 20
19313.336252000001
 30
0.0
 11
27358.91009258524
 21
19253.936252
 31
0.0
  0
ARC
  5
10749
  8
1-後柱P
 10
27365.510092585238
 20
19313.336252000001
 30
0.0
 40
6.599999999999997
 50
90.0
 51
180.0
  0
LINE
  5
1074A
  8
1-後柱P
 10
27353.910092585262
 20
19247.336252000008
 30
0.0
 11
27320.510092585231
 21
19247.336252000008
 31
0.0
  0
ARC
  5
1074B
  8
1-後柱P
 10
27353.910092585262
 20
19253.936252
 30
0.0
 40
6.599999999999997
 50
270.0
 51
0.0
  0
LINE
  5
1074C
  8
1-後柱P
 10
27353.910092585262
 20
19248.93625200001
 30
0.0
 11
27320.510092585231
 21
19248.936252
 31
0.0
  0
ARC
  5
1074D
  8
1-後柱P
 10
27353.910092585262
 20
19253.936252
 30
0.0
 40
5.0
 50
270.0
 51
0.0
  0
LINE
  5
1074E
  8
1-後柱P
 10
27320.510092585231
 20
19248.936252
 30
0.0
 11
27320.510092585231
 21
19247.336252000008
 31
0.0
  0
LINE
  5
1074F
  8
1-後柱P
 10
27305.110092585241
 20
19318.336252000008
 30
0.0
 11
27316.510092585231
 21
19318.336252000008
 31
0.0
  0
ARC
  5
10750
  8
1-後柱P
 10
27305.11009258523
 20
19324.936252
 30
0.0
 40
6.599999999999997
 50
180.0
 51
270.0
  0
ARC
  5
10751
  8
1-後柱P
 10
27316.510092585231
 20
19313.336252000001
 30
0.0
 40
5.0
 50
0.0
 51
90.0
  0
LINE
  5
10752
  8
1-後柱P
 10
27316.510092585231
 20
19319.936252
 30
0.0
 11
27305.110092585241
 21
19319.936252
 31
0.0
  0
ARC
  5
10753
  8
1-後柱P
 10
27316.510092585231
 20
19313.336252000001
 30
0.0
 40
6.599999999999997
 50
0.0
 51
90.0
  0
ARC
  5
10754
  8
1-後柱P
 10
27305.11009258523
 20
19324.936252
 30
0.0
 40
5.0
 50
180.0
 51
270.0
  0
LINE
  5
10755
  8
1-後柱P
 10
27321.510092585238
 20
19303.336252000008
 30
0.0
 11
27323.11009258523
 21
19303.336252000008
 31
0.0
  0
LINE
  5
10756
  8
1-後柱カバ-P
 10
27298.510092585238
 20
19311.636252000011
 30
0.0
 11
27298.510092585238
 21
19252.336252000001
 31
0.0
  0
ARC
  5
10757
  8
1-後柱カバ-P
 10
27305.110092585241
 20
19252.336252000001
 30
0.0
 40
6.599999999999997
 50
180.0
 51
270.0
  0
LINE
  5
10758
  8
1-後柱カバ-P
 10
27300.11009258523
 20
19311.636252000011
 30
0.0
 11
27300.11009258523
 21
19252.336252000001
 31
0.0
  0
ARC
  5
10759
  8
1-後柱カバ-P
 10
27305.110092585241
 20
19311.636252000011
 30
0.0
 40
5.0
 50
90.0
 51
180.0
  0
LINE
  5
1075A
  8
1-後柱カバ-P
 10
27305.110092585241
 20
19245.73625200001
 30
0.0
 11
27376.910092585269
 21
19245.736252000021
 31
0.0
  0
ARC
  5
1075B
  8
1-後柱カバ-P
 10
27376.910092585269
 20
19252.336252000001
 30
0.0
 40
6.599999999999997
 50
270.0
 51
0.0
  0
LINE
  5
1075C
  8
1-後柱カバ-P
 10
27305.110092585241
 20
19247.336252000008
 30
0.0
 11
27376.910092585269
 21
19247.336252000008
 31
0.0
  0
ARC
  5
1075D
  8
1-後柱カバ-P
 10
27376.910092585269
 20
19252.336252000001
 30
0.0
 40
5.0
 50
270.0
 51
0.0
  0
ARC
  5
1075E
  8
1-後柱カバ-P
 10
27305.110092585241
 20
19252.336252000001
 30
0.0
 40
5.0
 50
180.0
 51
270.0
  0
LINE
  5
1075F
  8
1-後柱カバ-P
 10
27383.510092585231
 20
19252.336252000001
 30
0.0
 11
27383.510092585231
 21
19311.636252000018
 31
0.0
  0
LINE
  5
10760
  8
1-後柱カバ-P
 10
27381.91009258524
 20
19252.336252000001
 30
0.0
 11
27381.91009258524
 21
19311.636252000018
 31
0.0
  0
ARC
  5
10761
  8
1-後柱カバ-P
 10
27376.910092585269
 20
19311.636252000018
 30
0.0
 40
5.0
 50
0.0
 51
90.0
  0
LINE
  5
10762
  8
1-後柱カバ-P
  6
1PL-M
 62
     6
 10
27341.010092585238
 20
19253.236252000021
 30
0.0
 11
27341.010092585238
 21
19240.236252000021
 31
0.0
  0
LINE
  5
10763
  8
1-後柱カバ-P
  6
HIDE-M
 62
     6
 10
27334.010092585231
 20
19245.736252000021
 30
0.0
 11
27334.010092585231
 21
19247.336252000008
 31
0.0
  0
LINE
  5
10764
  8
1-後柱カバ-P
  6
HIDE-M
 62
     6
 10
27348.010092585238
 20
19245.736252000021
 30
0.0
 11
27348.010092585238
 21
19247.336252000008
 31
0.0
  0
ARC
  5
10765
  8
1-後柱カバ-P
 10
27305.110092585241
 20
19311.636252000011
 30
0.0
 40
6.599999999999997
 50
90.0
 51
180.0
  0
ARC
  5
10766
  8
1-後柱カバ-P
 10
27376.910092585269
 20
19311.636252000018
 30
0.0
 40
6.599999999999997
 50
0.0
 51
90.0
  0
LINE
  5
10767
  8
1-後柱カバ-P
 10
27368.510092585231
 20
19318.23625200001
 30
0.0
 11
27376.910092585269
 21
19318.23625200001
 31
0.0
  0
LINE
  5
10768
  8
1-後柱カバ-P
 10
27313.510092585238
 20
19318.23625200001
 30
0.0
 11
27305.110092585241
 21
19318.23625200001
 31
0.0
  0
LINE
  5
10769
  8
1-後柱カバ-P
 10
27368.510092585231
 20
19316.636252000018
 30
0.0
 11
27376.910092585269
 21
19316.636252000018
 31
0.0
  0
LINE
  5
1076A
  8
1-後柱カバ-P
 10
27313.510092585238
 20
19316.636252000011
 30
0.0
 11
27305.110092585241
 21
19316.636252000011
 31
0.0
  0
LINE
  5
1076B
  8
1-後柱カバ-P
 10
27313.510092585238
 20
19316.636252000011
 30
0.0
 11
27313.510092585238
 21
19318.23625200001
 31
0.0
  0
LINE
  5
1076C
  8
1-後柱カバ-P
 10
27368.510092585231
 20
19318.23625200001
 30
0.0
 11
27368.510092585231
 21
19316.636252000018
 31
0.0
  0
LINE
  5
1076D
  8
1-後柱カバ-P
  6
HIDE-M
 62
     6
 10
27372.410092585262
 20
19297.236251999999
 30
0.0
 11
27384.010092585238
 21
19297.236251999999
 31
0.0
  0
LINE
  5
1076E
  8
1-後柱カバ-P
  6
HIDE-M
 62
     6
 10
27372.410092585262
 20
19289.236251999999
 30
0.0
 11
27384.010092585238
 21
19289.236251999999
 31
0.0
  0
LINE
  5
1076F
  8
1-後柱カバ-P
  6
HIDE-M
 62
     6
 10
27372.410092585262
 20
19296.236252000021
 30
0.0
 11
27384.010092585238
 21
19296.236252000021
 31
0.0
  0
LINE
  5
10770
  8
1-後柱カバ-P
  6
HIDE-M
 62
     6
 10
27372.410092585262
 20
19290.236251999999
 30
0.0
 11
27384.010092585238
 21
19290.236251999999
 31
0.0
  0
LINE
  5
10771
  8
1-後柱カバ-P
 10
27373.41009258524
 20
19287.73625200001
 30
0.0
 11
27380.41009258524
 21
19287.73625200001
 31
0.0
  0
LINE
  5
10772
  8
1-後柱カバ-P
 10
27380.41009258524
 20
19298.736251999999
 30
0.0
 11
27373.41009258524
 21
19298.736251999999
 31
0.0
  0
LINE
  5
10773
  8
1-後柱カバ-P
 10
27380.41009258524
 20
19299.486251999999
 30
0.0
 11
27380.41009258524
 21
19286.98625200001
 31
0.0
  0
LINE
  5
10774
  8
1-後柱カバ-P
 10
27384.010092585238
 20
19299.236252000021
 30
0.0
 11
27384.010092585238
 21
19287.236251999999
 31
0.0
  0
LINE
  5
10775
  8
1-後柱カバ-P
  6
HIDE-M
 62
     6
 10
27381.91009258524
 20
19287.73625200001
 30
0.0
 11
27383.510092585231
 21
19287.73625200001
 31
0.0
  0
LINE
  5
10776
  8
1-後柱カバ-P
 10
27384.010092585238
 20
19287.236251999999
 30
0.0
 11
27383.510092585231
 21
19287.73625200001
 31
0.0
  0
ARC
  5
10777
  8
1-後柱カバ-P
 10
27381.16009258524
 20
19286.98625200001
 30
0.0
 40
0.75
 50
180.0
 51
0.0
  0
LINE
  5
10778
  8
1-後柱カバ-P
  6
HIDE-M
 62
     6
 10
27383.510092585231
 20
19298.736251999999
 30
0.0
 11
27381.91009258524
 21
19298.736251999999
 31
0.0
  0
LINE
  5
10779
  8
1-後柱カバ-P
 10
27384.010092585238
 20
19299.236252000021
 30
0.0
 11
27383.510092585231
 21
19298.736251999999
 31
0.0
  0
ARC
  5
1077A
  8
1-後柱カバ-P
 10
27381.16009258524
 20
19299.486251999999
 30
0.0
 40
0.75
 50
0.0
 51
180.0
  0
LINE
  5
1077B
  8
1-後柱カバ-P
 10
27372.410092585262
 20
19297.736251999999
 30
0.0
 11
27372.410092585262
 21
19288.736252000021
 31
0.0
  0
ARC
  5
1077C
  8
1-後柱カバ-P
 10
27373.41009258524
 20
19288.736252000021
 30
0.0
 40
1.0
 50
180.0
 51
270.0
  0
ARC
  5
1077D
  8
1-後柱カバ-P
 10
27373.41009258524
 20
19297.736251999999
 30
0.0
 40
1.0
 50
90.0
 51
180.0
  0
LINE
  5
1077E
  8
1-後柱カバ-P
  6
1PL-M
 62
     6
 10
27367.410092585269
 20
19293.236252000021
 30
0.0
 11
27389.010092585231
 21
19293.236252000021
 31
0.0
  0
LINE
  5
1077F
  8
1-後柱カバ-P
 10
27373.41009258524
 20
19277.736251999999
 30
0.0
 11
27380.41009258524
 21
19277.736251999999
 31
0.0
  0
LINE
  5
10780
  8
1-後柱カバ-P
 10
27384.010092585238
 20
19285.236251999999
 30
0.0
 11
27384.010092585238
 21
19277.236252000021
 31
0.0
  0
LINE
  5
10781
  8
1-後柱カバ-P
  6
HIDE-M
 62
     6
 10
27381.91009258524
 20
19277.736251999999
 30
0.0
 11
27383.510092585231
 21
19277.736251999999
 31
0.0
  0
LINE
  5
10782
  8
1-後柱カバ-P
 10
27384.010092585238
 20
19277.236252000021
 30
0.0
 11
27383.510092585231
 21
19277.736251999999
 31
0.0
  0
ARC
  5
10783
  8
1-後柱カバ-P
 10
27381.16009258524
 20
19276.98625200001
 30
0.0
 40
0.75
 50
180.0
 51
0.0
  0
LINE
  5
10784
  8
1-後柱カバ-P
 10
27372.410092585262
 20
19286.736252000021
 30
0.0
 11
27372.410092585262
 21
19278.73625200001
 31
0.0
  0
ARC
  5
10785
  8
1-後柱カバ-P
 10
27373.41009258524
 20
19278.73625200001
 30
0.0
 40
1.0
 50
180.0
 51
270.0
  0
LINE
  5
10786
  8
1-後柱カバ-P
  6
1PL-M
 62
     6
 10
27367.410092585269
 20
19283.23625200001
 30
0.0
 11
27389.010092585231
 21
19283.23625200001
 31
0.0
  0
LINE
  5
10787
  8
1-後柱カバ-P
 10
27380.41009258524
 20
19284.98625200001
 30
0.0
 11
27380.41009258524
 21
19276.98625200001
 31
0.0
  0
LINE
  5
10788
  8
1-後柱カバ-P
  6
HIDE-M
 62
     6
 10
27309.61009258523
 20
19297.236251999992
 30
0.0
 11
27298.010092585231
 21
19297.236251999992
 31
0.0
  0
LINE
  5
10789
  8
1-後柱カバ-P
  6
HIDE-M
 62
     6
 10
27309.61009258523
 20
19289.236251999992
 30
0.0
 11
27298.010092585231
 21
19289.236251999992
 31
0.0
  0
LINE
  5
1078A
  8
1-後柱カバ-P
  6
HIDE-M
 62
     6
 10
27309.61009258523
 20
19296.23625200001
 30
0.0
 11
27298.010092585231
 21
19296.23625200001
 31
0.0
  0
LINE
  5
1078B
  8
1-後柱カバ-P
  6
HIDE-M
 62
     6
 10
27309.61009258523
 20
19290.236251999999
 30
0.0
 11
27298.010092585231
 21
19290.236251999999
 31
0.0
  0
LINE
  5
1078C
  8
1-後柱カバ-P
 10
27308.61009258523
 20
19287.73625200001
 30
0.0
 11
27301.610092585241
 21
19287.73625200001
 31
0.0
  0
LINE
  5
1078D
  8
1-後柱カバ-P
 10
27301.610092585241
 20
19298.736251999999
 30
0.0
 11
27308.61009258523
 21
19298.736251999999
 31
0.0
  0
LINE
  5
1078E
  8
1-後柱カバ-P
 10
27301.610092585241
 20
19299.486251999999
 30
0.0
 11
27301.610092585241
 21
19286.98625200001
 31
0.0
  0
LINE
  5
1078F
  8
1-後柱カバ-P
 10
27298.010092585231
 20
19299.23625200001
 30
0.0
 11
27298.010092585231
 21
19287.236251999999
 31
0.0
  0
LINE
  5
10790
  8
1-後柱カバ-P
  6
HIDE-M
 62
     6
 10
27300.11009258523
 20
19287.73625200001
 30
0.0
 11
27298.510092585238
 21
19287.73625200001
 31
0.0
  0
LINE
  5
10791
  8
1-後柱カバ-P
 10
27298.010092585231
 20
19287.236251999999
 30
0.0
 11
27298.510092585238
 21
19287.73625200001
 31
0.0
  0
ARC
  5
10792
  8
1-後柱カバ-P
 10
27300.86009258523
 20
19286.98625200001
 30
0.0
 40
0.75
 50
180.0
 51
0.0
  0
LINE
  5
10793
  8
1-後柱カバ-P
  6
HIDE-M
 62
     6
 10
27298.510092585238
 20
19298.736251999999
 30
0.0
 11
27300.11009258523
 21
19298.736251999999
 31
0.0
  0
LINE
  5
10794
  8
1-後柱カバ-P
 10
27298.010092585231
 20
19299.23625200001
 30
0.0
 11
27298.510092585238
 21
19298.736251999999
 31
0.0
  0
ARC
  5
10795
  8
1-後柱カバ-P
 10
27300.86009258523
 20
19299.486251999999
 30
0.0
 40
0.75
 50
0.0
 51
180.0
  0
LINE
  5
10796
  8
1-後柱カバ-P
 10
27309.61009258523
 20
19297.736251999999
 30
0.0
 11
27309.61009258523
 21
19288.73625200001
 31
0.0
  0
ARC
  5
10797
  8
1-後柱カバ-P
 10
27308.61009258523
 20
19288.73625200001
 30
0.0
 40
1.0
 50
270.0
 51
0.0
  0
ARC
  5
10798
  8
1-後柱カバ-P
 10
27308.61009258523
 20
19297.736251999999
 30
0.0
 40
1.0
 50
0.0
 51
90.0
  0
LINE
  5
10799
  8
1-後柱カバ-P
  6
1PL-M
 62
     6
 10
27314.610092585241
 20
19293.23625200001
 30
0.0
 11
27293.01009258522
 21
19293.23625200001
 31
0.0
  0
LINE
  5
1079A
  8
1-後柱カバ-P
 10
27308.61009258523
 20
19277.736251999999
 30
0.0
 11
27301.610092585241
 21
19277.736251999999
 31
0.0
  0
LINE
  5
1079B
  8
1-後柱カバ-P
 10
27298.010092585231
 20
19285.236251999999
 30
0.0
 11
27298.010092585231
 21
19277.23625200001
 31
0.0
  0
LINE
  5
1079C
  8
1-後柱カバ-P
  6
HIDE-M
 62
     6
 10
27300.11009258523
 20
19277.736251999999
 30
0.0
 11
27298.510092585238
 21
19277.736251999999
 31
0.0
  0
LINE
  5
1079D
  8
1-後柱カバ-P
 10
27298.010092585231
 20
19277.23625200001
 30
0.0
 11
27298.510092585238
 21
19277.736251999999
 31
0.0
  0
ARC
  5
1079E
  8
1-後柱カバ-P
 10
27300.86009258523
 20
19276.98625200001
 30
0.0
 40
0.75
 50
180.0
 51
0.0
  0
LINE
  5
1079F
  8
1-後柱カバ-P
 10
27309.61009258523
 20
19286.73625200001
 30
0.0
 11
27309.61009258523
 21
19278.73625200001
 31
0.0
  0
ARC
  5
107A0
  8
1-後柱カバ-P
 10
27308.61009258523
 20
19278.73625200001
 30
0.0
 40
1.0
 50
270.0
 51
0.0
  0
LINE
  5
107A1
  8
1-後柱カバ-P
  6
1PL-M
 62
     6
 10
27314.610092585241
 20
19283.23625200001
 30
0.0
 11
27293.01009258522
 21
19283.23625200001
 31
0.0
  0
LINE
  5
107A2
  8
1-後柱カバ-P
 10
27301.610092585241
 20
19284.986251999999
 30
0.0
 11
27301.610092585241
 21
19276.98625200001
 31
0.0
  0
LINE
  5
107A3
  8
1-後柱カバ-P
  6
HIDE-M
 62
     6
 10
27372.410092585262
 20
19279.236252000021
 30
0.0
 11
27384.010092585238
 21
19279.236252000021
 31
0.0
  0
LINE
  5
107A4
  8
1-後柱カバ-P
  6
HIDE-M
 62
     6
 10
27372.410092585262
 20
19280.23625200001
 30
0.0
 11
27384.010092585238
 21
19280.23625200001
 31
0.0
  0
LINE
  5
107A5
  8
1-後柱カバ-P
  6
HIDE-M
 62
     6
 10
27309.61009258523
 20
19279.23625200001
 30
0.0
 11
27298.010092585231
 21
19279.23625200001
 31
0.0
  0
LINE
  5
107A6
  8
1-後柱カバ-P
  6
HIDE-M
 62
     6
 10
27309.61009258523
 20
19280.23625200001
 30
0.0
 11
27298.010092585231
 21
19280.23625200001
 31
0.0
  0
LINE
  5
107A7
  8
1-中柱P
 10
27376.91009258532
 20
16679.486251999999
 30
0.0
 11
27305.110092585321
 21
16679.486251999999
 31
0.0
  0
ARC
  5
107A8
  8
1-中柱P
 10
27376.91009258532
 20
16684.486251999999
 30
0.0
 40
5.0
 50
270.0
 51
0.0
  0
ARC
  5
107A9
  8
1-中柱P
 10
27305.110092585321
 20
16684.486251999999
 30
0.0
 40
5.0
 50
180.0
 51
270.0
  0
LINE
  5
107AA
  8
1-中柱P
 10
27376.91009258532
 20
16677.886252000011
 30
0.0
 11
27305.110092585321
 21
16677.886252000011
 31
0.0
  0
ARC
  5
107AB
  8
1-中柱P
 10
27376.91009258532
 20
16684.486251999999
 30
0.0
 40
6.599999999999997
 50
270.0
 51
0.0
  0
LINE
  5
107AC
  8
1-中柱P
 10
27298.510092585329
 20
16743.786252000009
 30
0.0
 11
27298.510092585329
 21
16684.486251999999
 31
0.0
  0
ARC
  5
107AD
  8
1-中柱P
 10
27305.110092585321
 20
16684.486251999999
 30
0.0
 40
6.599999999999997
 50
180.0
 51
270.0
  0
LINE
  5
107AE
  8
1-中柱P
 10
27300.110092585321
 20
16684.486251999999
 30
0.0
 11
27300.110092585321
 21
16743.786252000009
 31
0.0
  0
ARC
  5
107AF
  8
1-中柱P
 10
27305.110092585321
 20
16743.786252000009
 30
0.0
 40
5.0
 50
90.0
 51
180.0
  0
LINE
  5
107B0
  8
1-中柱P
 10
27383.510092585329
 20
16743.786252000009
 30
0.0
 11
27383.510092585329
 21
16684.486251999999
 31
0.0
  0
LINE
  5
107B1
  8
1-中柱P
 10
27381.910092585331
 20
16684.486251999999
 30
0.0
 11
27381.91009258532
 21
16743.786252000009
 31
0.0
  0
LINE
  5
107B2
  8
1-中柱P
 10
27376.91009258532
 20
16750.386252000018
 30
0.0
 11
27368.51009258534
 21
16750.386252000018
 31
0.0
  0
ARC
  5
107B3
  8
1-中柱P
 10
27376.91009258532
 20
16743.786252000009
 30
0.0
 40
6.599999999999997
 50
0.0
 51
90.0
  0
LINE
  5
107B4
  8
1-中柱P
 10
27376.91009258532
 20
16748.786252000009
 30
0.0
 11
27368.51009258534
 21
16748.786252000009
 31
0.0
  0
ARC
  5
107B5
  8
1-中柱P
 10
27368.51009258534
 20
16755.386252000011
 30
0.0
 40
6.599999999999997
 50
180.0
 51
270.0
  0
ARC
  5
107B6
  8
1-中柱P
 10
27376.91009258532
 20
16743.786252000009
 30
0.0
 40
5.0
 50
0.0
 51
90.0
  0
LINE
  5
107B7
  8
1-中柱P
 10
27363.510092585329
 20
16755.386252000011
 30
0.0
 11
27363.510092585329
 21
16814.786252000002
 31
0.0
  0
ARC
  5
107B8
  8
1-中柱P
 10
27368.51009258534
 20
16755.386252000011
 30
0.0
 40
5.0
 50
180.0
 51
270.0
  0
LINE
  5
107B9
  8
1-中柱P
 10
27361.91009258532
 20
16755.386252000011
 30
0.0
 11
27361.91009258532
 21
16814.786252000002
 31
0.0
  0
LINE
  5
107BA
  8
1-中柱P
 10
27356.91009258532
 20
16821.386252000011
 30
0.0
 11
27323.510092585318
 21
16821.386252000011
 31
0.0
  0
ARC
  5
107BB
  8
1-中柱P
 10
27356.91009258532
 20
16814.786252000002
 30
0.0
 40
6.599999999999997
 50
0.0
 51
90.0
  0
LINE
  5
107BC
  8
1-中柱P
 10
27356.91009258532
 20
16819.786252000009
 30
0.0
 11
27323.510092585318
 21
16819.786252000009
 31
0.0
  0
ARC
  5
107BD
  8
1-中柱P
 10
27356.91009258532
 20
16814.786252000002
 30
0.0
 40
5.0
 50
0.0
 51
90.0
  0
LINE
  5
107BE
  8
1-中柱P
 10
27323.510092585318
 20
16819.786252000009
 30
0.0
 11
27323.510092585318
 21
16821.386252000011
 31
0.0
  0
LINE
  5
107BF
  8
1-中柱P
 10
27305.110092585321
 20
16750.386252000011
 30
0.0
 11
27313.51009258534
 21
16750.386252000011
 31
0.0
  0
ARC
  5
107C0
  8
1-中柱P
 10
27305.110092585321
 20
16743.786252000009
 30
0.0
 40
6.599999999999997
 50
90.0
 51
180.0
  0
ARC
  5
107C1
  8
1-中柱P
 10
27313.51009258534
 20
16755.386252
 30
0.0
 40
5.0
 50
270.0
 51
0.0
  0
LINE
  5
107C2
  8
1-中柱P
 10
27313.51009258534
 20
16748.786252000009
 30
0.0
 11
27305.110092585321
 21
16748.786252000009
 31
0.0
  0
ARC
  5
107C3
  8
1-中柱P
 10
27313.51009258534
 20
16755.386252
 30
0.0
 40
6.599999999999997
 50
270.0
 51
0.0
  0
ARC
  5
107C4
  8
1-中柱P
  6
HIDE-M
 62
     6
 10
27347.610092585321
 20
16818.786252000002
 30
0.0
 40
2.6000000000000001
 50
90.0
 51
180.0
  0
LINE
  5
107C5
  8
1-中柱P
  6
HIDE-M
 62
     6
 10
27336.010092585329
 20
16820.835642153201
 30
0.0
 11
27336.010092585329
 21
16817.186252000021
 31
0.0
  0
LINE
  5
107C6
  8
1-中柱P
  6
HIDE-M
 62
     6
 10
27346.010092585329
 20
16820.835642153201
 30
0.0
 11
27346.010092585329
 21
16817.186252000021
 31
0.0
  0
LINE
  5
107C7
  8
1-中柱P
  6
1PL-M
 62
     6
 10
27341.010092585329
 20
16826.386252
 30
0.0
 11
27341.010092585329
 21
16812.186252000021
 31
0.0
  0
ARC
  5
107C8
  8
1-中柱P
  6
HIDE-M
 62
     6
 10
27334.41009258532
 20
16818.786252000002
 30
0.0
 40
2.6000000000000001
 50
0.0
 51
90.0
  0
LINE
  5
107C9
  8
1-中柱P
  6
HIDE-M
 62
     6
 10
27345.010092585329
 20
16818.786252000002
 30
0.0
 11
27345.010092585329
 21
16817.186252000021
 31
0.0
  0
LINE
  5
107CA
  8
1-中柱P
  6
HIDE-M
 62
     6
 10
27337.010092585329
 20
16818.786252000002
 30
0.0
 11
27337.010092585329
 21
16817.186252000021
 31
0.0
  0
LINE
  5
107CB
  8
1-中柱P
 10
27320.110092585321
 20
16755.386252
 30
0.0
 11
27320.110092585321
 21
16765.386252000018
 31
0.0
  0
LINE
  5
107CC
  8
1-中柱P
 10
27318.510092585329
 20
16755.386252
 30
0.0
 11
27318.510092585329
 21
16765.386252000018
 31
0.0
  0
LINE
  5
107CD
  8
1-中柱P
 10
27320.110092585321
 20
16765.386252000018
 30
0.0
 11
27318.510092585329
 21
16765.386252000018
 31
0.0
  0
LINE
  5
107CE
  8
1-中柱P
  6
1PL-M
 62
     6
 10
27368.51009258534
 20
16786.386252
 30
0.0
 11
27354.310092585351
 21
16786.386252
 31
0.0
  0
LINE
  5
107CF
  8
1-中柱P
  6
HIDE-M
 62
     6
 10
27372.410092585331
 20
16729.386252000011
 30
0.0
 11
27384.01009258534
 21
16729.386252000011
 31
0.0
  0
LINE
  5
107D0
  8
1-中柱P
  6
HIDE-M
 62
     6
 10
27372.410092585331
 20
16721.386252000011
 30
0.0
 11
27384.01009258534
 21
16721.386252000011
 31
0.0
  0
LINE
  5
107D1
  8
1-中柱P
  6
HIDE-M
 62
     6
 10
27372.410092585331
 20
16728.386252000018
 30
0.0
 11
27384.01009258534
 21
16728.386252000018
 31
0.0
  0
LINE
  5
107D2
  8
1-中柱P
  6
HIDE-M
 62
     6
 10
27372.410092585331
 20
16722.386252000011
 30
0.0
 11
27384.01009258534
 21
16722.386252000011
 31
0.0
  0
LINE
  5
107D3
  8
1-中柱P
 10
27373.41009258532
 20
16719.886252000018
 30
0.0
 11
27380.41009258532
 21
16719.886252000018
 31
0.0
  0
LINE
  5
107D4
  8
1-中柱P
 10
27380.41009258532
 20
16730.886252000011
 30
0.0
 11
27373.41009258532
 21
16730.886252000011
 31
0.0
  0
LINE
  5
107D5
  8
1-中柱P
 10
27380.41009258532
 20
16731.636252000011
 30
0.0
 11
27380.41009258532
 21
16719.136252000011
 31
0.0
  0
LINE
  5
107D6
  8
1-中柱P
 10
27384.01009258534
 20
16731.386252000018
 30
0.0
 11
27384.01009258534
 21
16719.386252000011
 31
0.0
  0
LINE
  5
107D7
  8
1-中柱P
  6
HIDE-M
 62
     6
 10
27381.910092585331
 20
16719.886252000018
 30
0.0
 11
27383.510092585329
 21
16719.886252000018
 31
0.0
  0
LINE
  5
107D8
  8
1-中柱P
 10
27384.01009258534
 20
16719.386252000011
 30
0.0
 11
27383.510092585329
 21
16719.886252000018
 31
0.0
  0
ARC
  5
107D9
  8
1-中柱P
 10
27381.16009258532
 20
16719.136252000011
 30
0.0
 40
0.75
 50
180.0
 51
0.0
  0
LINE
  5
107DA
  8
1-中柱P
  6
HIDE-M
 62
     6
 10
27383.510092585329
 20
16730.886252000011
 30
0.0
 11
27381.910092585331
 21
16730.886252000011
 31
0.0
  0
LINE
  5
107DB
  8
1-中柱P
 10
27384.01009258534
 20
16731.386252000018
 30
0.0
 11
27383.510092585329
 21
16730.886252000011
 31
0.0
  0
ARC
  5
107DC
  8
1-中柱P
 10
27381.16009258532
 20
16731.636252000011
 30
0.0
 40
0.75
 50
0.0
 51
180.0
  0
LINE
  5
107DD
  8
1-中柱P
 10
27372.410092585331
 20
16729.886252000011
 30
0.0
 11
27372.410092585331
 21
16720.886252000018
 31
0.0
  0
ARC
  5
107DE
  8
1-中柱P
 10
27373.41009258532
 20
16720.886252000018
 30
0.0
 40
1.0
 50
180.0
 51
270.0
  0
ARC
  5
107DF
  8
1-中柱P
 10
27373.41009258532
 20
16729.886252000011
 30
0.0
 40
1.0
 50
90.0
 51
180.0
  0
LINE
  5
107E0
  8
1-中柱P
  6
1PL-M
 62
     6
 10
27367.41009258532
 20
16725.386252
 30
0.0
 11
27389.010092585329
 21
16725.386252
 31
0.0
  0
LINE
  5
107E1
  8
1-中柱P
 10
27373.41009258532
 20
16709.886252000011
 30
0.0
 11
27380.41009258532
 21
16709.886252000011
 31
0.0
  0
LINE
  5
107E2
  8
1-中柱P
 10
27384.01009258534
 20
16717.386252000011
 30
0.0
 11
27384.01009258534
 21
16709.386252000018
 31
0.0
  0
LINE
  5
107E3
  8
1-中柱P
  6
HIDE-M
 62
     6
 10
27381.910092585331
 20
16709.886252000011
 30
0.0
 11
27383.510092585329
 21
16709.886252000011
 31
0.0
  0
LINE
  5
107E4
  8
1-中柱P
 10
27384.01009258534
 20
16709.386252000018
 30
0.0
 11
27383.510092585329
 21
16709.886252000011
 31
0.0
  0
ARC
  5
107E5
  8
1-中柱P
 10
27381.16009258532
 20
16709.136252
 30
0.0
 40
0.75
 50
180.0
 51
0.0
  0
LINE
  5
107E6
  8
1-中柱P
 10
27372.410092585331
 20
16718.886252000018
 30
0.0
 11
27372.410092585331
 21
16710.886252000011
 31
0.0
  0
ARC
  5
107E7
  8
1-中柱P
 10
27373.41009258532
 20
16710.886252000011
 30
0.0
 40
1.0
 50
180.0
 51
270.0
  0
LINE
  5
107E8
  8
1-中柱P
  6
1PL-M
 62
     6
 10
27367.41009258532
 20
16715.386252000011
 30
0.0
 11
27389.010092585329
 21
16715.386252000011
 31
0.0
  0
LINE
  5
107E9
  8
1-中柱P
 10
27380.41009258532
 20
16717.136252000011
 30
0.0
 11
27380.41009258532
 21
16709.136252
 31
0.0
  0
LINE
  5
107EA
  8
1-中柱P
  6
HIDE-M
 62
     6
 10
27372.410092585331
 20
16711.386252000011
 30
0.0
 11
27384.01009258534
 21
16711.386252000011
 31
0.0
  0
LINE
  5
107EB
  8
1-中柱P
  6
HIDE-M
 62
     6
 10
27372.410092585331
 20
16712.386252000018
 30
0.0
 11
27384.01009258534
 21
16712.386252000018
 31
0.0
  0
LINE
  5
107EC
  8
1-中柱P
  6
HIDE-M
 62
     6
 10
27309.610092585321
 20
16729.386252
 30
0.0
 11
27298.01009258534
 21
16729.386252
 31
0.0
  0
LINE
  5
107ED
  8
1-中柱P
  6
HIDE-M
 62
     6
 10
27309.610092585321
 20
16721.386252
 30
0.0
 11
27298.01009258534
 21
16721.386252
 31
0.0
  0
LINE
  5
107EE
  8
1-中柱P
  6
HIDE-M
 62
     6
 10
27309.610092585321
 20
16728.386252000011
 30
0.0
 11
27298.01009258534
 21
16728.386252000011
 31
0.0
  0
LINE
  5
107EF
  8
1-中柱P
  6
HIDE-M
 62
     6
 10
27309.610092585321
 20
16722.386252
 30
0.0
 11
27298.01009258534
 21
16722.386252
 31
0.0
  0
LINE
  5
107F0
  8
1-中柱P
 10
27308.610092585332
 20
16719.886252000011
 30
0.0
 11
27301.610092585321
 21
16719.886252000011
 31
0.0
  0
LINE
  5
107F1
  8
1-中柱P
 10
27301.610092585321
 20
16730.886252
 30
0.0
 11
27308.610092585332
 21
16730.886252
 31
0.0
  0
LINE
  5
107F2
  8
1-中柱P
 10
27301.610092585321
 20
16731.636252
 30
0.0
 11
27301.610092585321
 21
16719.136252
 31
0.0
  0
LINE
  5
107F3
  8
1-中柱P
 10
27298.01009258534
 20
16731.386252000011
 30
0.0
 11
27298.01009258534
 21
16719.386252
 31
0.0
  0
LINE
  5
107F4
  8
1-中柱P
  6
HIDE-M
 62
     6
 10
27300.110092585321
 20
16719.886252000011
 30
0.0
 11
27298.510092585329
 21
16719.886252000011
 31
0.0
  0
LINE
  5
107F5
  8
1-中柱P
 10
27298.01009258534
 20
16719.386252
 30
0.0
 11
27298.510092585329
 21
16719.886252000011
 31
0.0
  0
ARC
  5
107F6
  8
1-中柱P
 10
27300.860092585332
 20
16719.136252
 30
0.0
 40
0.75
 50
180.0
 51
0.0
  0
LINE
  5
107F7
  8
1-中柱P
  6
HIDE-M
 62
     6
 10
27298.510092585329
 20
16730.886252
 30
0.0
 11
27300.110092585321
 21
16730.886252
 31
0.0
  0
LINE
  5
107F8
  8
1-中柱P
 10
27298.01009258534
 20
16731.386252000011
 30
0.0
 11
27298.510092585329
 21
16730.886252
 31
0.0
  0
ARC
  5
107F9
  8
1-中柱P
 10
27300.860092585332
 20
16731.636252
 30
0.0
 40
0.75
 50
0.0
 51
180.0
  0
LINE
  5
107FA
  8
1-中柱P
 10
27309.610092585321
 20
16729.886252
 30
0.0
 11
27309.610092585321
 21
16720.886252000011
 31
0.0
  0
ARC
  5
107FB
  8
1-中柱P
 10
27308.610092585332
 20
16720.886252000011
 30
0.0
 40
1.0
 50
270.0
 51
0.0
  0
ARC
  5
107FC
  8
1-中柱P
 10
27308.610092585332
 20
16729.886252
 30
0.0
 40
1.0
 50
0.0
 51
90.0
  0
LINE
  5
107FD
  8
1-中柱P
  6
1PL-M
 62
     6
 10
27314.610092585321
 20
16725.386252
 30
0.0
 11
27293.010092585318
 21
16725.386252
 31
0.0
  0
LINE
  5
107FE
  8
1-中柱P
 10
27308.610092585332
 20
16709.886252
 30
0.0
 11
27301.610092585321
 21
16709.886252
 31
0.0
  0
LINE
  5
107FF
  8
1-中柱P
 10
27298.01009258534
 20
16717.386252
 30
0.0
 11
27298.01009258534
 21
16709.386252000011
 31
0.0
  0
LINE
  5
10800
  8
1-中柱P
  6
HIDE-M
 62
     6
 10
27300.110092585321
 20
16709.886252
 30
0.0
 11
27298.510092585329
 21
16709.886252
 31
0.0
  0
LINE
  5
10801
  8
1-中柱P
 10
27298.01009258534
 20
16709.386252000011
 30
0.0
 11
27298.510092585329
 21
16709.886252
 31
0.0
  0
ARC
  5
10802
  8
1-中柱P
 10
27300.860092585332
 20
16709.136252
 30
0.0
 40
0.75
 50
180.0
 51
0.0
  0
LINE
  5
10803
  8
1-中柱P
 10
27309.610092585321
 20
16718.886252000011
 30
0.0
 11
27309.610092585321
 21
16710.886252
 31
0.0
  0
ARC
  5
10804
  8
1-中柱P
 10
27308.610092585332
 20
16710.886252
 30
0.0
 40
1.0
 50
270.0
 51
0.0
  0
LINE
  5
10805
  8
1-中柱P
  6
1PL-M
 62
     6
 10
27314.610092585321
 20
16715.386252
 30
0.0
 11
27293.010092585318
 21
16715.386252
 31
0.0
  0
LINE
  5
10806
  8
1-中柱P
 10
27301.610092585321
 20
16717.136252
 30
0.0
 11
27301.610092585321
 21
16709.136252
 31
0.0
  0
LINE
  5
10807
  8
1-中柱P
  6
HIDE-M
 62
     6
 10
27309.610092585321
 20
16711.386252
 30
0.0
 11
27298.01009258534
 21
16711.386252
 31
0.0
  0
LINE
  5
10808
  8
1-中柱P
  6
HIDE-M
 62
     6
 10
27309.610092585321
 20
16712.386252000011
 30
0.0
 11
27298.01009258534
 21
16712.386252000011
 31
0.0
  0
LINE
  5
10809
  8
1-中柱カバ-P
 10
27298.510092585329
 20
16757.086252000001
 30
0.0
 11
27298.510092585329
 21
16816.386252
 31
0.0
  0
ARC
  5
1080A
  8
1-中柱カバ-P
 10
27305.110092585321
 20
16816.386252
 30
0.0
 40
6.599999999999997
 50
90.0
 51
180.0
  0
LINE
  5
1080B
  8
1-中柱カバ-P
 10
27300.110092585321
 20
16757.086252000001
 30
0.0
 11
27300.110092585321
 21
16816.386252
 31
0.0
  0
ARC
  5
1080C
  8
1-中柱カバ-P
 10
27305.110092585321
 20
16757.086252000001
 30
0.0
 40
5.0
 50
180.0
 51
270.0
  0
LINE
  5
1080D
  8
1-中柱カバ-P
 10
27305.110092585321
 20
16822.98625200001
 30
0.0
 11
27376.91009258532
 21
16822.986252000021
 31
0.0
  0
ARC
  5
1080E
  8
1-中柱カバ-P
 10
27376.91009258532
 20
16816.386252000011
 30
0.0
 40
6.599999999999997
 50
0.0
 51
90.0
  0
LINE
  5
1080F
  8
1-中柱カバ-P
 10
27305.110092585321
 20
16821.386252
 30
0.0
 11
27376.91009258532
 21
16821.386252000011
 31
0.0
  0
ARC
  5
10810
  8
1-中柱カバ-P
 10
27376.91009258532
 20
16816.386252000011
 30
0.0
 40
5.0
 50
0.0
 51
90.0
  0
ARC
  5
10811
  8
1-中柱カバ-P
 10
27305.110092585321
 20
16816.386252
 30
0.0
 40
5.0
 50
90.0
 51
180.0
  0
LINE
  5
10812
  8
1-中柱カバ-P
 10
27383.510092585329
 20
16816.386252000011
 30
0.0
 11
27383.510092585329
 21
16757.086252000008
 31
0.0
  0
LINE
  5
10813
  8
1-中柱カバ-P
 10
27381.91009258532
 20
16816.386252000011
 30
0.0
 11
27381.91009258532
 21
16757.086252000008
 31
0.0
  0
ARC
  5
10814
  8
1-中柱カバ-P
 10
27376.91009258532
 20
16757.086252000008
 30
0.0
 40
5.0
 50
270.0
 51
0.0
  0
LINE
  5
10815
  8
1-中柱カバ-P
  6
1PL-M
 62
     6
 10
27341.010092585329
 20
16815.486251999999
 30
0.0
 11
27341.010092585329
 21
16828.48625200001
 31
0.0
  0
LINE
  5
10816
  8
1-中柱カバ-P
  6
HIDE-M
 62
     6
 10
27334.010092585329
 20
16822.986252000021
 30
0.0
 11
27334.010092585329
 21
16821.386252000011
 31
0.0
  0
LINE
  5
10817
  8
1-中柱カバ-P
  6
HIDE-M
 62
     6
 10
27348.010092585329
 20
16822.986252000021
 30
0.0
 11
27348.010092585329
 21
16821.386252000011
 31
0.0
  0
ARC
  5
10818
  8
1-中柱カバ-P
 10
27305.110092585321
 20
16757.086252000001
 30
0.0
 40
6.599999999999997
 50
180.0
 51
270.0
  0
ARC
  5
10819
  8
1-中柱カバ-P
 10
27376.91009258532
 20
16757.086252000008
 30
0.0
 40
6.599999999999997
 50
270.0
 51
0.0
  0
LINE
  5
1081A
  8
1-中柱カバ-P
 10
27368.51009258534
 20
16750.486252000021
 30
0.0
 11
27376.91009258532
 21
16750.486252000021
 31
0.0
  0
LINE
  5
1081B
  8
1-中柱カバ-P
 10
27313.51009258534
 20
16750.48625200001
 30
0.0
 11
27305.110092585321
 21
16750.48625200001
 31
0.0
  0
LINE
  5
1081C
  8
1-中柱カバ-P
 10
27368.51009258534
 20
16752.086252000008
 30
0.0
 11
27376.91009258532
 21
16752.086252000008
 31
0.0
  0
LINE
  5
1081D
  8
1-中柱カバ-P
 10
27313.51009258534
 20
16752.086252000008
 30
0.0
 11
27305.110092585321
 21
16752.086252000008
 31
0.0
  0
LINE
  5
1081E
  8
1-中柱カバ-P
 10
27313.51009258534
 20
16752.086252000008
 30
0.0
 11
27313.51009258534
 21
16750.48625200001
 31
0.0
  0
LINE
  5
1081F
  8
1-中柱カバ-P
 10
27368.51009258534
 20
16750.486252000021
 30
0.0
 11
27368.51009258534
 21
16752.086252000008
 31
0.0
  0
LINE
  5
10820
  8
1-中柱カバ-P
  6
HIDE-M
 62
     6
 10
27372.41009258532
 20
16771.486252000021
 30
0.0
 11
27384.01009258534
 21
16771.486252000021
 31
0.0
  0
LINE
  5
10821
  8
1-中柱カバ-P
  6
HIDE-M
 62
     6
 10
27372.41009258532
 20
16779.48625200001
 30
0.0
 11
27384.01009258534
 21
16779.48625200001
 31
0.0
  0
LINE
  5
10822
  8
1-中柱カバ-P
  6
HIDE-M
 62
     6
 10
27372.41009258532
 20
16772.486252000021
 30
0.0
 11
27384.01009258534
 21
16772.486252000021
 31
0.0
  0
LINE
  5
10823
  8
1-中柱カバ-P
  6
HIDE-M
 62
     6
 10
27372.41009258532
 20
16778.486251999999
 30
0.0
 11
27384.01009258534
 21
16778.486251999999
 31
0.0
  0
LINE
  5
10824
  8
1-中柱カバ-P
 10
27373.41009258532
 20
16780.986252000021
 30
0.0
 11
27380.41009258532
 21
16780.986252000021
 31
0.0
  0
LINE
  5
10825
  8
1-中柱カバ-P
 10
27380.41009258532
 20
16769.986251999999
 30
0.0
 11
27373.41009258532
 21
16769.986251999999
 31
0.0
  0
LINE
  5
10826
  8
1-中柱カバ-P
 10
27380.41009258532
 20
16769.236251999999
 30
0.0
 11
27380.41009258532
 21
16781.736251999999
 31
0.0
  0
LINE
  5
10827
  8
1-中柱カバ-P
 10
27384.01009258534
 20
16769.486252000021
 30
0.0
 11
27384.01009258534
 21
16781.486251999999
 31
0.0
  0
LINE
  5
10828
  8
1-中柱カバ-P
  6
HIDE-M
 62
     6
 10
27381.91009258532
 20
16780.986252000021
 30
0.0
 11
27383.510092585329
 21
16780.986252000021
 31
0.0
  0
LINE
  5
10829
  8
1-中柱カバ-P
 10
27384.01009258534
 20
16781.486251999999
 30
0.0
 11
27383.510092585329
 21
16780.986252000021
 31
0.0
  0
ARC
  5
1082A
  8
1-中柱カバ-P
 10
27381.16009258532
 20
16781.736251999999
 30
0.0
 40
0.75
 50
0.0
 51
180.0
  0
LINE
  5
1082B
  8
1-中柱カバ-P
  6
HIDE-M
 62
     6
 10
27383.510092585329
 20
16769.986251999999
 30
0.0
 11
27381.91009258532
 21
16769.986251999999
 31
0.0
  0
LINE
  5
1082C
  8
1-中柱カバ-P
 10
27384.01009258534
 20
16769.486252000021
 30
0.0
 11
27383.510092585329
 21
16769.986251999999
 31
0.0
  0
ARC
  5
1082D
  8
1-中柱カバ-P
 10
27381.16009258532
 20
16769.236251999999
 30
0.0
 40
0.75
 50
180.0
 51
0.0
  0
LINE
  5
1082E
  8
1-中柱カバ-P
 10
27372.41009258532
 20
16770.986251999999
 30
0.0
 11
27372.41009258532
 21
16779.986252000021
 31
0.0
  0
ARC
  5
1082F
  8
1-中柱カバ-P
 10
27373.41009258532
 20
16779.986252000021
 30
0.0
 40
1.0
 50
90.0
 51
180.0
  0
ARC
  5
10830
  8
1-中柱カバ-P
 10
27373.41009258532
 20
16770.986251999999
 30
0.0
 40
1.0
 50
180.0
 51
270.0
  0
LINE
  5
10831
  8
1-中柱カバ-P
  6
1PL-M
 62
     6
 10
27367.41009258532
 20
16775.48625200001
 30
0.0
 11
27389.010092585329
 21
16775.48625200001
 31
0.0
  0
LINE
  5
10832
  8
1-中柱カバ-P
 10
27373.41009258532
 20
16790.98625200001
 30
0.0
 11
27380.41009258532
 21
16790.98625200001
 31
0.0
  0
LINE
  5
10833
  8
1-中柱カバ-P
 10
27384.01009258534
 20
16783.486251999999
 30
0.0
 11
27384.01009258534
 21
16791.486252000021
 31
0.0
  0
LINE
  5
10834
  8
1-中柱カバ-P
  6
HIDE-M
 62
     6
 10
27381.91009258532
 20
16790.98625200001
 30
0.0
 11
27383.510092585329
 21
16790.98625200001
 31
0.0
  0
LINE
  5
10835
  8
1-中柱カバ-P
 10
27384.01009258534
 20
16791.486252000021
 30
0.0
 11
27383.510092585329
 21
16790.98625200001
 31
0.0
  0
ARC
  5
10836
  8
1-中柱カバ-P
 10
27381.16009258532
 20
16791.736252000021
 30
0.0
 40
0.75
 50
0.0
 51
180.0
  0
LINE
  5
10837
  8
1-中柱カバ-P
 10
27372.41009258532
 20
16781.986252000021
 30
0.0
 11
27372.41009258532
 21
16789.986251999999
 31
0.0
  0
ARC
  5
10838
  8
1-中柱カバ-P
 10
27373.41009258532
 20
16789.986251999999
 30
0.0
 40
1.0
 50
90.0
 51
180.0
  0
LINE
  5
10839
  8
1-中柱カバ-P
  6
1PL-M
 62
     6
 10
27367.41009258532
 20
16785.486251999999
 30
0.0
 11
27389.010092585329
 21
16785.486251999999
 31
0.0
  0
LINE
  5
1083A
  8
1-中柱カバ-P
 10
27380.41009258532
 20
16783.736252000021
 30
0.0
 11
27380.41009258532
 21
16791.736252000021
 31
0.0
  0
LINE
  5
1083B
  8
1-中柱カバ-P
  6
HIDE-M
 62
     6
 10
27309.610092585321
 20
16771.48625200001
 30
0.0
 11
27298.01009258534
 21
16771.48625200001
 31
0.0
  0
LINE
  5
1083C
  8
1-中柱カバ-P
  6
HIDE-M
 62
     6
 10
27309.610092585321
 20
16779.48625200001
 30
0.0
 11
27298.01009258534
 21
16779.48625200001
 31
0.0
  0
LINE
  5
1083D
  8
1-中柱カバ-P
  6
HIDE-M
 62
     6
 10
27309.610092585321
 20
16772.48625200001
 30
0.0
 11
27298.01009258534
 21
16772.48625200001
 31
0.0
  0
LINE
  5
1083E
  8
1-中柱カバ-P
  6
HIDE-M
 62
     6
 10
27309.610092585321
 20
16778.486251999999
 30
0.0
 11
27298.01009258534
 21
16778.486251999999
 31
0.0
  0
LINE
  5
1083F
  8
1-中柱カバ-P
 10
27308.610092585321
 20
16780.98625200001
 30
0.0
 11
27301.610092585321
 21
16780.98625200001
 31
0.0
  0
LINE
  5
10840
  8
1-中柱カバ-P
 10
27301.610092585321
 20
16769.986251999999
 30
0.0
 11
27308.610092585321
 21
16769.986251999999
 31
0.0
  0
LINE
  5
10841
  8
1-中柱カバ-P
 10
27301.610092585321
 20
16769.236251999999
 30
0.0
 11
27301.610092585321
 21
16781.736251999992
 31
0.0
  0
LINE
  5
10842
  8
1-中柱カバ-P
 10
27298.01009258534
 20
16769.48625200001
 30
0.0
 11
27298.01009258534
 21
16781.486251999999
 31
0.0
  0
LINE
  5
10843
  8
1-中柱カバ-P
  6
HIDE-M
 62
     6
 10
27300.110092585321
 20
16780.98625200001
 30
0.0
 11
27298.510092585329
 21
16780.98625200001
 31
0.0
  0
LINE
  5
10844
  8
1-中柱カバ-P
 10
27298.01009258534
 20
16781.486251999999
 30
0.0
 11
27298.510092585329
 21
16780.98625200001
 31
0.0
  0
ARC
  5
10845
  8
1-中柱カバ-P
 10
27300.860092585321
 20
16781.736251999992
 30
0.0
 40
0.75
 50
0.0
 51
180.0
  0
LINE
  5
10846
  8
1-中柱カバ-P
  6
HIDE-M
 62
     6
 10
27298.510092585329
 20
16769.986251999999
 30
0.0
 11
27300.110092585321
 21
16769.986251999999
 31
0.0
  0
LINE
  5
10847
  8
1-中柱カバ-P
 10
27298.01009258534
 20
16769.48625200001
 30
0.0
 11
27298.510092585329
 21
16769.986251999999
 31
0.0
  0
ARC
  5
10848
  8
1-中柱カバ-P
 10
27300.860092585321
 20
16769.236251999999
 30
0.0
 40
0.75
 50
180.0
 51
0.0
  0
LINE
  5
10849
  8
1-中柱カバ-P
 10
27309.610092585321
 20
16770.986251999999
 30
0.0
 11
27309.610092585321
 21
16779.98625200001
 31
0.0
  0
ARC
  5
1084A
  8
1-中柱カバ-P
 10
27308.610092585321
 20
16779.98625200001
 30
0.0
 40
1.0
 50
0.0
 51
90.0
  0
ARC
  5
1084B
  8
1-中柱カバ-P
 10
27308.610092585321
 20
16770.986251999999
 30
0.0
 40
1.0
 50
270.0
 51
0.0
  0
LINE
  5
1084C
  8
1-中柱カバ-P
  6
1PL-M
 62
     6
 10
27314.610092585321
 20
16775.48625200001
 30
0.0
 11
27293.010092585318
 21
16775.48625200001
 31
0.0
  0
LINE
  5
1084D
  8
1-中柱カバ-P
 10
27308.610092585321
 20
16790.98625200001
 30
0.0
 11
27301.610092585321
 21
16790.98625200001
 31
0.0
  0
LINE
  5
1084E
  8
1-中柱カバ-P
 10
27298.01009258534
 20
16783.486251999999
 30
0.0
 11
27298.01009258534
 21
16791.48625200001
 31
0.0
  0
LINE
  5
1084F
  8
1-中柱カバ-P
  6
HIDE-M
 62
     6
 10
27300.110092585321
 20
16790.98625200001
 30
0.0
 11
27298.510092585329
 21
16790.98625200001
 31
0.0
  0
LINE
  5
10850
  8
1-中柱カバ-P
 10
27298.01009258534
 20
16791.48625200001
 30
0.0
 11
27298.510092585329
 21
16790.98625200001
 31
0.0
  0
ARC
  5
10851
  8
1-中柱カバ-P
 10
27300.860092585321
 20
16791.73625200001
 30
0.0
 40
0.75
 50
0.0
 51
180.0
  0
LINE
  5
10852
  8
1-中柱カバ-P
 10
27309.610092585321
 20
16781.98625200001
 30
0.0
 11
27309.610092585321
 21
16789.986251999999
 31
0.0
  0
ARC
  5
10853
  8
1-中柱カバ-P
 10
27308.610092585321
 20
16789.986251999999
 30
0.0
 40
1.0
 50
0.0
 51
90.0
  0
LINE
  5
10854
  8
1-中柱カバ-P
  6
1PL-M
 62
     6
 10
27314.610092585321
 20
16785.486251999992
 30
0.0
 11
27293.010092585318
 21
16785.486251999992
 31
0.0
  0
LINE
  5
10855
  8
1-中柱カバ-P
 10
27301.610092585321
 20
16783.73625200001
 30
0.0
 11
27301.610092585321
 21
16791.73625200001
 31
0.0
  0
LINE
  5
10856
  8
1-中柱カバ-P
  6
HIDE-M
 62
     6
 10
27372.41009258532
 20
16789.486252000021
 30
0.0
 11
27384.01009258534
 21
16789.486252000021
 31
0.0
  0
LINE
  5
10857
  8
1-中柱カバ-P
  6
HIDE-M
 62
     6
 10
27372.41009258532
 20
16788.486252000021
 30
0.0
 11
27384.01009258534
 21
16788.486252000021
 31
0.0
  0
LINE
  5
10858
  8
1-中柱カバ-P
  6
HIDE-M
 62
     6
 10
27309.610092585321
 20
16789.48625200001
 30
0.0
 11
27298.01009258534
 21
16789.48625200001
 31
0.0
  0
LINE
  5
10859
  8
1-中柱カバ-P
  6
HIDE-M
 62
     6
 10
27309.610092585321
 20
16788.48625200001
 30
0.0
 11
27298.01009258534
 21
16788.48625200001
 31
0.0
  0
ARC
  5
1085A
  8
1-前柱P
  6
HIDE-M
 62
     6
 10
27337.410092585429
 20
13900.886252000009
 30
0.0
 40
2.6000000000000001
 50
0.0
 51
90.0
  0
LINE
  5
1085B
  8
1-前柱P
  6
HIDE-M
 62
     6
 10
27349.010092585439
 20
13902.935642153199
 30
0.0
 11
27349.010092585439
 21
13899.286252000011
 31
0.0
  0
LINE
  5
1085C
  8
1-前柱P
  6
HIDE-M
 62
     6
 10
27339.010092585439
 20
13902.93564215319
 30
0.0
 11
27339.010092585439
 21
13899.286252000011
 31
0.0
  0
LINE
  5
1085D
  8
1-前柱P
  6
1PL-M
 62
     6
 10
27344.010092585439
 20
13908.48625200001
 30
0.0
 11
27344.010092585439
 21
13894.286252000011
 31
0.0
  0
ARC
  5
1085E
  8
1-前柱P
  6
HIDE-M
 62
     6
 10
27350.610092585441
 20
13900.886252000009
 30
0.0
 40
2.6000000000000001
 50
90.0
 51
180.0
  0
LINE
  5
1085F
  8
1-前柱P
  6
HIDE-M
 62
     6
 10
27340.010092585439
 20
13900.886252000009
 30
0.0
 11
27340.010092585439
 21
13899.286252000011
 31
0.0
  0
LINE
  5
10860
  8
1-前柱P
  6
HIDE-M
 62
     6
 10
27348.010092585439
 20
13900.886252000009
 30
0.0
 11
27348.010092585439
 21
13899.286252000011
 31
0.0
  0
LINE
  5
10861
  8
1-前柱P
 10
27330.110092585441
 20
13788.58625200001
 30
0.0
 11
27351.91009258544
 21
13788.586252000019
 31
0.0
  0
LINE
  5
10862
  8
1-前柱P
 10
27381.910092585451
 20
13825.886252000009
 30
0.0
 11
27381.910092585451
 21
13818.586252000019
 31
0.0
  0
ARC
  5
10863
  8
1-前柱P
 10
27351.91009258544
 20
13818.586252000019
 30
0.0
 40
30.0
 50
270.0
 51
0.0
  0
ARC
  5
10864
  8
1-前柱P
 10
27351.91009258544
 20
13818.586252000019
 30
0.0
 40
31.600000000000001
 50
270.0
 51
0.0
  0
LINE
  5
10865
  8
1-前柱P
 10
27330.110092585441
 20
13786.986252000001
 30
0.0
 11
27351.91009258544
 21
13786.98625200001
 31
0.0
  0
LINE
  5
10866
  8
1-前柱P
 10
27383.510092585439
 20
13825.886252000009
 30
0.0
 11
27383.510092585439
 21
13818.586252000019
 31
0.0
  0
LINE
  5
10867
  8
1-前柱P
 10
27360.510092585439
 20
13847.486252000021
 30
0.0
 11
27360.510092585439
 21
13837.48625200001
 31
0.0
  0
LINE
  5
10868
  8
1-前柱P
 10
27358.910092585451
 20
13837.48625200001
 30
0.0
 11
27358.910092585451
 21
13847.486252000021
 31
0.0
  0
LINE
  5
10869
  8
1-前柱P
 10
27300.110092585441
 20
13825.886252000009
 30
0.0
 11
27300.110092585441
 21
13818.58625200001
 31
0.0
  0
ARC
  5
1086A
  8
1-前柱P
 10
27330.110092585441
 20
13818.58625200001
 30
0.0
 40
30.0
 50
180.0
 51
270.0
  0
ARC
  5
1086B
  8
1-前柱P
 10
27330.110092585441
 20
13818.58625200001
 30
0.0
 40
31.600000000000001
 50
180.0
 51
270.0
  0
LINE
  5
1086C
  8
1-前柱P
 10
27298.510092585439
 20
13825.886252000009
 30
0.0
 11
27298.510092585439
 21
13818.58625200001
 31
0.0
  0
LINE
  5
1086D
  8
1-前柱P
 10
27305.110092585441
 20
13832.48625200001
 30
0.0
 11
27316.510092585439
 21
13832.48625200001
 31
0.0
  0
ARC
  5
1086E
  8
1-前柱P
 10
27305.110092585441
 20
13825.886252000009
 30
0.0
 40
6.599999999999997
 50
90.0
 51
180.0
  0
ARC
  5
1086F
  8
1-前柱P
 10
27316.510092585439
 20
13837.486252000001
 30
0.0
 40
5.0
 50
270.0
 51
0.0
  0
LINE
  5
10870
  8
1-前柱P
 10
27305.110092585441
 20
13830.886252000009
 30
0.0
 11
27316.510092585439
 21
13830.886252000009
 31
0.0
  0
ARC
  5
10871
  8
1-前柱P
 10
27305.110092585441
 20
13825.886252000009
 30
0.0
 40
5.0
 50
90.0
 51
180.0
  0
LINE
  5
10872
  8
1-前柱P
 10
27321.510092585439
 20
13837.486252000001
 30
0.0
 11
27321.510092585439
 21
13896.886252000009
 31
0.0
  0
LINE
  5
10873
  8
1-前柱P
 10
27323.110092585441
 20
13837.486252000001
 30
0.0
 11
27323.110092585441
 21
13896.886252000009
 31
0.0
  0
ARC
  5
10874
  8
1-前柱P
 10
27316.510092585439
 20
13837.486252000001
 30
0.0
 40
6.599999999999997
 50
270.0
 51
0.0
  0
LINE
  5
10875
  8
1-前柱P
 10
27328.110092585441
 20
13903.486252000001
 30
0.0
 11
27361.510092585439
 21
13903.48625200001
 31
0.0
  0
ARC
  5
10876
  8
1-前柱P
 10
27328.110092585441
 20
13896.886252000009
 30
0.0
 40
6.599999999999997
 50
90.0
 51
180.0
  0
LINE
  5
10877
  8
1-前柱P
 10
27328.110092585441
 20
13901.886252000009
 30
0.0
 11
27361.510092585439
 21
13901.886252000009
 31
0.0
  0
ARC
  5
10878
  8
1-前柱P
 10
27328.110092585441
 20
13896.886252000009
 30
0.0
 40
5.0
 50
90.0
 51
180.0
  0
LINE
  5
10879
  8
1-前柱P
 10
27361.510092585439
 20
13901.886252000009
 30
0.0
 11
27361.510092585439
 21
13903.48625200001
 31
0.0
  0
LINE
  5
1087A
  8
1-前柱P
 10
27376.91009258548
 20
13832.486252000021
 30
0.0
 11
27365.510092585439
 21
13832.486252000021
 31
0.0
  0
ARC
  5
1087B
  8
1-前柱P
 10
27376.91009258548
 20
13825.886252000009
 30
0.0
 40
6.599999999999997
 50
0.0
 51
90.0
  0
ARC
  5
1087C
  8
1-前柱P
 10
27365.510092585439
 20
13837.48625200001
 30
0.0
 40
5.0
 50
180.0
 51
270.0
  0
LINE
  5
1087D
  8
1-前柱P
 10
27365.510092585439
 20
13830.886252000009
 30
0.0
 11
27376.91009258548
 21
13830.886252000009
 31
0.0
  0
ARC
  5
1087E
  8
1-前柱P
 10
27365.510092585439
 20
13837.48625200001
 30
0.0
 40
6.599999999999997
 50
180.0
 51
270.0
  0
ARC
  5
1087F
  8
1-前柱P
 10
27376.91009258548
 20
13825.886252000009
 30
0.0
 40
5.0
 50
0.0
 51
90.0
  0
LINE
  5
10880
  8
1-前柱P
 10
27360.510092585439
 20
13847.486252000021
 30
0.0
 11
27358.910092585451
 21
13847.486252000021
 31
0.0
  0
LINE
  5
10881
  8
1-前柱カバ-P
 10
27383.510092585439
 20
13839.186252
 30
0.0
 11
27383.510092585439
 21
13898.48625200001
 31
0.0
  0
ARC
  5
10882
  8
1-前柱カバ-P
 10
27376.910092585469
 20
13898.48625200001
 30
0.0
 40
6.599999999999997
 50
0.0
 51
90.0
  0
LINE
  5
10883
  8
1-前柱カバ-P
 10
27381.910092585451
 20
13839.186252
 30
0.0
 11
27381.91009258544
 21
13898.48625200001
 31
0.0
  0
ARC
  5
10884
  8
1-前柱カバ-P
 10
27376.91009258548
 20
13839.186252
 30
0.0
 40
5.0
 50
270.0
 51
0.0
  0
LINE
  5
10885
  8
1-前柱カバ-P
 10
27376.910092585469
 20
13905.086252000019
 30
0.0
 11
27305.110092585441
 21
13905.08625200001
 31
0.0
  0
ARC
  5
10886
  8
1-前柱カバ-P
 10
27305.110092585441
 20
13898.486252000001
 30
0.0
 40
6.599999999999997
 50
90.0
 51
180.0
  0
LINE
  5
10887
  8
1-前柱カバ-P
 10
27376.910092585469
 20
13903.48625200001
 30
0.0
 11
27305.110092585441
 21
13903.486252000001
 31
0.0
  0
ARC
  5
10888
  8
1-前柱カバ-P
 10
27305.110092585441
 20
13898.486252000001
 30
0.0
 40
5.0
 50
90.0
 51
180.0
  0
ARC
  5
10889
  8
1-前柱カバ-P
 10
27376.910092585469
 20
13898.48625200001
 30
0.0
 40
5.0
 50
0.0
 51
90.0
  0
LINE
  5
1088A
  8
1-前柱カバ-P
 10
27298.510092585439
 20
13898.486252000001
 30
0.0
 11
27298.510092585439
 21
13839.186252
 31
0.0
  0
LINE
  5
1088B
  8
1-前柱カバ-P
 10
27300.110092585441
 20
13898.486252000001
 30
0.0
 11
27300.110092585441
 21
13839.186252
 31
0.0
  0
ARC
  5
1088C
  8
1-前柱カバ-P
 10
27305.110092585441
 20
13839.186252
 30
0.0
 40
5.0
 50
180.0
 51
270.0
  0
LINE
  5
1088D
  8
1-前柱カバ-P
  6
1PL-M
 62
     6
 10
27341.010092585439
 20
13897.58625200001
 30
0.0
 11
27341.010092585439
 21
13910.58625200001
 31
0.0
  0
LINE
  5
1088E
  8
1-前柱カバ-P
  6
HIDE-M
 62
     6
 10
27348.010092585439
 20
13905.086252000019
 30
0.0
 11
27348.010092585439
 21
13903.48625200001
 31
0.0
  0
LINE
  5
1088F
  8
1-前柱カバ-P
  6
HIDE-M
 62
     6
 10
27334.010092585439
 20
13905.08625200001
 30
0.0
 11
27334.010092585439
 21
13903.486252000001
 31
0.0
  0
ARC
  5
10890
  8
1-前柱カバ-P
 10
27376.91009258548
 20
13839.186252
 30
0.0
 40
6.599999999999997
 50
270.0
 51
0.0
  0
ARC
  5
10891
  8
1-前柱カバ-P
 10
27305.110092585441
 20
13839.186252
 30
0.0
 40
6.599999999999997
 50
180.0
 51
270.0
  0
LINE
  5
10892
  8
1-前柱カバ-P
 10
27313.510092585439
 20
13832.58625200001
 30
0.0
 11
27305.110092585441
 21
13832.58625200001
 31
0.0
  0
LINE
  5
10893
  8
1-前柱カバ-P
 10
27368.510092585439
 20
13832.586252000019
 30
0.0
 11
27376.91009258548
 21
13832.586252000019
 31
0.0
  0
LINE
  5
10894
  8
1-前柱カバ-P
 10
27313.510092585439
 20
13834.186252
 30
0.0
 11
27305.110092585441
 21
13834.186252
 31
0.0
  0
LINE
  5
10895
  8
1-前柱カバ-P
 10
27368.510092585439
 20
13834.186252
 30
0.0
 11
27376.91009258548
 21
13834.186252
 31
0.0
  0
LINE
  5
10896
  8
1-前柱カバ-P
 10
27368.510092585439
 20
13834.186252
 30
0.0
 11
27368.510092585439
 21
13832.586252000019
 31
0.0
  0
LINE
  5
10897
  8
1-前柱カバ-P
 10
27313.510092585439
 20
13832.58625200001
 30
0.0
 11
27313.510092585439
 21
13834.186252
 31
0.0
  0
LINE
  5
10898
  8
1-前柱カバ-P
  6
HIDE-M
 62
     6
 10
27309.610092585441
 20
13853.58625200001
 30
0.0
 11
27298.010092585439
 21
13853.58625200001
 31
0.0
  0
LINE
  5
10899
  8
1-前柱カバ-P
  6
HIDE-M
 62
     6
 10
27309.610092585441
 20
13861.58625200001
 30
0.0
 11
27298.010092585439
 21
13861.58625200001
 31
0.0
  0
LINE
  5
1089A
  8
1-前柱カバ-P
  6
HIDE-M
 62
     6
 10
27309.610092585441
 20
13854.58625200001
 30
0.0
 11
27298.010092585439
 21
13854.58625200001
 31
0.0
  0
LINE
  5
1089B
  8
1-前柱カバ-P
  6
HIDE-M
 62
     6
 10
27309.610092585441
 20
13860.58625200001
 30
0.0
 11
27298.010092585439
 21
13860.58625200001
 31
0.0
  0
LINE
  5
1089C
  8
1-前柱カバ-P
 10
27308.610092585441
 20
13863.08625200001
 30
0.0
 11
27301.610092585441
 21
13863.08625200001
 31
0.0
  0
LINE
  5
1089D
  8
1-前柱カバ-P
 10
27301.610092585441
 20
13852.08625200001
 30
0.0
 11
27308.610092585441
 21
13852.08625200001
 31
0.0
  0
LINE
  5
1089E
  8
1-前柱カバ-P
 10
27301.610092585441
 20
13851.33625200001
 30
0.0
 11
27301.610092585441
 21
13863.83625200001
 31
0.0
  0
LINE
  5
1089F
  8
1-前柱カバ-P
 10
27298.010092585439
 20
13851.58625200001
 30
0.0
 11
27298.010092585439
 21
13863.58625200001
 31
0.0
  0
LINE
  5
108A0
  8
1-前柱カバ-P
  6
HIDE-M
 62
     6
 10
27300.110092585441
 20
13863.08625200001
 30
0.0
 11
27298.510092585439
 21
13863.08625200001
 31
0.0
  0
LINE
  5
108A1
  8
1-前柱カバ-P
 10
27298.010092585439
 20
13863.58625200001
 30
0.0
 11
27298.510092585439
 21
13863.08625200001
 31
0.0
  0
ARC
  5
108A2
  8
1-前柱カバ-P
 10
27300.860092585441
 20
13863.83625200001
 30
0.0
 40
0.75
 50
0.0
 51
180.0
  0
LINE
  5
108A3
  8
1-前柱カバ-P
  6
HIDE-M
 62
     6
 10
27298.510092585439
 20
13852.08625200001
 30
0.0
 11
27300.110092585441
 21
13852.08625200001
 31
0.0
  0
LINE
  5
108A4
  8
1-前柱カバ-P
 10
27298.010092585439
 20
13851.58625200001
 30
0.0
 11
27298.510092585439
 21
13852.08625200001
 31
0.0
  0
ARC
  5
108A5
  8
1-前柱カバ-P
 10
27300.860092585441
 20
13851.33625200001
 30
0.0
 40
0.75
 50
180.0
 51
0.0
  0
LINE
  5
108A6
  8
1-前柱カバ-P
 10
27309.610092585441
 20
13853.08625200001
 30
0.0
 11
27309.610092585441
 21
13862.08625200001
 31
0.0
  0
ARC
  5
108A7
  8
1-前柱カバ-P
 10
27308.610092585441
 20
13862.08625200001
 30
0.0
 40
1.0
 50
0.0
 51
90.0
  0
ARC
  5
108A8
  8
1-前柱カバ-P
 10
27308.610092585441
 20
13853.08625200001
 30
0.0
 40
1.0
 50
270.0
 51
0.0
  0
LINE
  5
108A9
  8
1-前柱カバ-P
  6
1PL-M
 62
     6
 10
27314.610092585441
 20
13857.58625200001
 30
0.0
 11
27293.010092585431
 21
13857.58625200001
 31
0.0
  0
LINE
  5
108AA
  8
1-前柱カバ-P
 10
27308.610092585441
 20
13873.08625200001
 30
0.0
 11
27301.610092585441
 21
13873.08625200001
 31
0.0
  0
LINE
  5
108AB
  8
1-前柱カバ-P
 10
27298.010092585439
 20
13865.58625200001
 30
0.0
 11
27298.010092585439
 21
13873.58625200001
 31
0.0
  0
LINE
  5
108AC
  8
1-前柱カバ-P
  6
HIDE-M
 62
     6
 10
27300.110092585441
 20
13873.08625200001
 30
0.0
 11
27298.510092585439
 21
13873.08625200001
 31
0.0
  0
LINE
  5
108AD
  8
1-前柱カバ-P
 10
27298.010092585439
 20
13873.58625200001
 30
0.0
 11
27298.510092585439
 21
13873.08625200001
 31
0.0
  0
ARC
  5
108AE
  8
1-前柱カバ-P
 10
27300.860092585441
 20
13873.83625200001
 30
0.0
 40
0.75
 50
0.0
 51
180.0
  0
LINE
  5
108AF
  8
1-前柱カバ-P
 10
27309.610092585441
 20
13864.08625200001
 30
0.0
 11
27309.610092585441
 21
13872.08625200001
 31
0.0
  0
ARC
  5
108B0
  8
1-前柱カバ-P
 10
27308.610092585441
 20
13872.08625200001
 30
0.0
 40
1.0
 50
0.0
 51
90.0
  0
LINE
  5
108B1
  8
1-前柱カバ-P
  6
1PL-M
 62
     6
 10
27314.610092585441
 20
13867.58625200001
 30
0.0
 11
27293.010092585431
 21
13867.58625200001
 31
0.0
  0
LINE
  5
108B2
  8
1-前柱カバ-P
 10
27301.610092585441
 20
13865.83625200001
 30
0.0
 11
27301.610092585441
 21
13873.83625200001
 31
0.0
  0
LINE
  5
108B3
  8
1-前柱カバ-P
  6
HIDE-M
 62
     6
 10
27372.410092585469
 20
13853.586252000019
 30
0.0
 11
27384.010092585439
 21
13853.586252000019
 31
0.0
  0
LINE
  5
108B4
  8
1-前柱カバ-P
  6
HIDE-M
 62
     6
 10
27372.410092585469
 20
13861.58625200001
 30
0.0
 11
27384.010092585439
 21
13861.58625200001
 31
0.0
  0
LINE
  5
108B5
  8
1-前柱カバ-P
  6
HIDE-M
 62
     6
 10
27372.410092585469
 20
13854.586252000019
 30
0.0
 11
27384.010092585439
 21
13854.586252000019
 31
0.0
  0
LINE
  5
108B6
  8
1-前柱カバ-P
  6
HIDE-M
 62
     6
 10
27372.410092585469
 20
13860.586252000019
 30
0.0
 11
27384.010092585439
 21
13860.586252000019
 31
0.0
  0
LINE
  5
108B7
  8
1-前柱カバ-P
 10
27373.41009258544
 20
13863.086252000019
 30
0.0
 11
27380.41009258544
 21
13863.086252000019
 31
0.0
  0
LINE
  5
108B8
  8
1-前柱カバ-P
 10
27380.41009258544
 20
13852.08625200001
 30
0.0
 11
27373.41009258544
 21
13852.08625200001
 31
0.0
  0
LINE
  5
108B9
  8
1-前柱カバ-P
 10
27380.41009258544
 20
13851.33625200001
 30
0.0
 11
27380.41009258544
 21
13863.83625200001
 31
0.0
  0
LINE
  5
108BA
  8
1-前柱カバ-P
 10
27384.010092585439
 20
13851.586252000019
 30
0.0
 11
27384.010092585439
 21
13863.58625200001
 31
0.0
  0
LINE
  5
108BB
  8
1-前柱カバ-P
  6
HIDE-M
 62
     6
 10
27381.910092585451
 20
13863.086252000019
 30
0.0
 11
27383.510092585439
 21
13863.086252000019
 31
0.0
  0
LINE
  5
108BC
  8
1-前柱カバ-P
 10
27384.010092585439
 20
13863.58625200001
 30
0.0
 11
27383.510092585439
 21
13863.086252000019
 31
0.0
  0
ARC
  5
108BD
  8
1-前柱カバ-P
 10
27381.16009258544
 20
13863.83625200001
 30
0.0
 40
0.75
 50
0.0
 51
180.0
  0
LINE
  5
108BE
  8
1-前柱カバ-P
  6
HIDE-M
 62
     6
 10
27383.510092585439
 20
13852.08625200001
 30
0.0
 11
27381.910092585451
 21
13852.08625200001
 31
0.0
  0
LINE
  5
108BF
  8
1-前柱カバ-P
 10
27384.010092585439
 20
13851.586252000019
 30
0.0
 11
27383.510092585439
 21
13852.08625200001
 31
0.0
  0
ARC
  5
108C0
  8
1-前柱カバ-P
 10
27381.16009258544
 20
13851.33625200001
 30
0.0
 40
0.75
 50
180.0
 51
0.0
  0
LINE
  5
108C1
  8
1-前柱カバ-P
 10
27372.410092585469
 20
13853.08625200001
 30
0.0
 11
27372.410092585469
 21
13862.086252000019
 31
0.0
  0
ARC
  5
108C2
  8
1-前柱カバ-P
 10
27373.41009258544
 20
13862.086252000019
 30
0.0
 40
1.0
 50
90.0
 51
180.0
  0
ARC
  5
108C3
  8
1-前柱カバ-P
 10
27373.41009258544
 20
13853.08625200001
 30
0.0
 40
1.0
 50
180.0
 51
270.0
  0
LINE
  5
108C4
  8
1-前柱カバ-P
  6
1PL-M
 62
     6
 10
27367.41009258548
 20
13857.586252000019
 30
0.0
 11
27389.010092585439
 21
13857.586252000019
 31
0.0
  0
LINE
  5
108C5
  8
1-前柱カバ-P
 10
27373.41009258544
 20
13873.08625200001
 30
0.0
 11
27380.41009258544
 21
13873.08625200001
 31
0.0
  0
LINE
  5
108C6
  8
1-前柱カバ-P
 10
27384.010092585439
 20
13865.58625200001
 30
0.0
 11
27384.010092585439
 21
13873.586252000019
 31
0.0
  0
LINE
  5
108C7
  8
1-前柱カバ-P
  6
HIDE-M
 62
     6
 10
27381.91009258544
 20
13873.08625200001
 30
0.0
 11
27383.510092585439
 21
13873.08625200001
 31
0.0
  0
LINE
  5
108C8
  8
1-前柱カバ-P
 10
27384.010092585439
 20
13873.586252000019
 30
0.0
 11
27383.510092585439
 21
13873.08625200001
 31
0.0
  0
ARC
  5
108C9
  8
1-前柱カバ-P
 10
27381.16009258544
 20
13873.836252000019
 30
0.0
 40
0.75
 50
0.0
 51
180.0
  0
LINE
  5
108CA
  8
1-前柱カバ-P
 10
27372.410092585469
 20
13864.086252000019
 30
0.0
 11
27372.410092585458
 21
13872.08625200001
 31
0.0
  0
ARC
  5
108CB
  8
1-前柱カバ-P
 10
27373.41009258544
 20
13872.08625200001
 30
0.0
 40
1.0
 50
90.0
 51
180.0
  0
LINE
  5
108CC
  8
1-前柱カバ-P
  6
1PL-M
 62
     6
 10
27367.41009258548
 20
13867.58625200001
 30
0.0
 11
27389.010092585439
 21
13867.58625200001
 31
0.0
  0
LINE
  5
108CD
  8
1-前柱カバ-P
 10
27380.41009258544
 20
13865.836252000019
 30
0.0
 11
27380.41009258544
 21
13873.836252000019
 31
0.0
  0
LINE
  5
108CE
  8
1-前柱カバ-P
  6
HIDE-M
 62
     6
 10
27309.610092585441
 20
13871.58625200001
 30
0.0
 11
27298.010092585439
 21
13871.58625200001
 31
0.0
  0
LINE
  5
108CF
  8
1-前柱カバ-P
  6
HIDE-M
 62
     6
 10
27309.610092585441
 20
13870.58625200001
 30
0.0
 11
27298.010092585439
 21
13870.58625200001
 31
0.0
  0
LINE
  5
108D0
  8
1-前柱カバ-P
  6
HIDE-M
 62
     6
 10
27372.410092585458
 20
13871.586252000019
 30
0.0
 11
27384.010092585439
 21
13871.586252000019
 31
0.0
  0
LINE
  5
108D1
  8
1-前柱カバ-P
  6
HIDE-M
 62
     6
 10
27372.410092585458
 20
13870.586252000019
 30
0.0
 11
27384.010092585439
 21
13870.586252000019
 31
0.0
  0
LINE
  5
108D2
  8
0-6
  6
CONTINUOUS
 62
     6
 10
25890.934387764071
 20
13192.487109999949
 30
0.0
 11
26890.933728764059
 21
13192.487109999989
 31
0.0
  0
TEXT
  5
108D3
  8
0-6
  6
CONTINUOUS
 62
     7
 10
25986.934651764052
 20
13272.48737399994
 30
0.0
 40
160.0
  1
前柱（P）
 50
0.0000000000021583
 72
     4
 11
26386.934651764041
 21
13352.48737399996
 31
0.0
  0
LINE
  5
108D4
  8
0-6
  6
CONTINUOUS
 62
     6
 10
27296.010092585439
 20
13778.486252000001
 30
0.0
 11
26890.933728764059
 21
13192.487109999989
 31
0.0
  0
LINE
  5
108D5
  8
0-6
  6
CONTINUOUS
 62
     6
 10
25890.934387763959
 20
16080.04790995407
 30
0.0
 11
26890.93372876395
 21
16080.04790995411
 31
0.0
  0
TEXT
  5
108D6
  8
0-6
  6
CONTINUOUS
 62
     7
 10
25986.934651763939
 20
16160.048173954079
 30
0.0
 40
160.0
  1
中柱（P）
 50
0.0000000000021583
 72
     4
 11
26386.934651763931
 21
16240.04817395409
 31
0.0
  0
LINE
  5
108D7
  8
0-6
  6
CONTINUOUS
 62
     6
 10
27296.010092585329
 20
16666.04705195412
 30
0.0
 11
26890.93372876395
 21
16080.04790995411
 31
0.0
  0
LINE
  5
108D8
  8
0-6
  6
CONTINUOUS
 62
     6
 10
25549.87249729448
 20
14393.47698982882
 30
0.0
 11
27005.872497294491
 21
14393.476989828871
 31
0.0
  0
TEXT
  5
108D9
  8
0-6
  6
CONTINUOUS
 62
     7
 10
25589.8777705469
 20
14473.477253828791
 30
0.0
 40
160.0
  1
前柱カバー（P）
 50
0.0000000000021583
 72
     4
 11
26277.8777705469
 21
14553.47725382882
 31
0.0
  0
LINE
  5
108DA
  8
0-6
  6
CONTINUOUS
 62
     6
 10
27305.110092585441
 20
13905.086251999999
 30
0.0
 11
27005.872497294491
 21
14393.476989828871
 31
0.0
  0
LINE
  5
108DB
  8
0-6
  6
CONTINUOUS
 62
     6
 10
25549.872497294378
 20
17300.976553828801
 30
0.0
 11
27005.872497294378
 21
17300.976553828848
 31
0.0
  0
TEXT
  5
108DC
  8
0-6
  6
CONTINUOUS
 62
     7
 10
25589.877770546791
 20
17380.97681782881
 30
0.0
 40
160.0
  1
中柱カバー（P）
 50
0.0000000000021583
 72
     4
 11
26277.877770546791
 21
17460.976817828829
 31
0.0
  0
LINE
  5
108DD
  8
0-6
  6
CONTINUOUS
 62
     6
 10
27305.110092585332
 20
16812.585815999999
 30
0.0
 11
27005.872497294378
 21
17300.976553828848
 31
0.0
  0
LINE
  5
108DE
  8
0-6
  6
CONTINUOUS
 62
     6
 10
25890.934387763809
 20
19957.423617045832
 30
0.0
 11
26890.933728763801
 21
19957.423617045872
 31
0.0
  0
TEXT
  5
108DF
  8
0-6
  6
CONTINUOUS
 62
     7
 10
25986.934651763779
 20
20037.42388104583
 30
0.0
 40
160.0
  1
後柱（P）
 50
0.0000000000021583
 72
     4
 11
26386.934651763779
 21
20117.423881045841
 31
0.0
  0
LINE
  5
108E0
  8
0-6
  6
CONTINUOUS
 62
     6
 10
27296.010092585231
 20
19371.42447504586
 30
0.0
 11
26890.933728763801
 21
19957.423617045872
 31
0.0
  0
LINE
  5
108E1
  8
0-6
  6
CONTINUOUS
 62
     6
 10
25549.87249729432
 20
18751.324593541991
 30
0.0
 11
27005.87249729432
 21
18751.324593542038
 31
0.0
  0
TEXT
  5
108E2
  8
0-6
  6
CONTINUOUS
 62
     7
 10
25589.87777054674
 20
18831.324857541989
 30
0.0
 40
160.0
  1
後柱カバー（P）
 50
0.0000000000021583
 72
     4
 11
26277.87777054674
 21
18911.324857542018
 31
0.0
  0
LINE
  5
108E3
  8
0-6
  6
CONTINUOUS
 62
     6
 10
27305.110092585241
 20
19224.885710999999
 30
0.0
 11
27005.87249729432
 21
18751.324593542038
 31
0.0
  0
LINE
  5
108E4
  8
0-1
  6
CONTINUOUS
 62
     3
 10
12043.234045470939
 20
19530.48955099981
 30
0.0
 11
4457.7330954709414
 21
19530.48955099981
 31
0.0
  0
LINE
  5
108E5
  8
0-1
  6
CONTINUOUS
 62
     3
 10
12098.733808470941
 20
19482.486225999801
 30
0.0
 11
4402.2323434709406
 21
19482.486225999801
 31
0.0
  0
LINE
  5
108E6
  8
0-6
  6
CONTINUOUS
 62
     6
 10
8145.3071020999732
 20
19672.89215899981
 30
0.0
 11
8188.6090710999943
 21
19647.890838999811
 31
0.0
  0
LINE
  5
108E7
  8
0-6
  6
CONTINUOUS
 62
     6
 10
8145.3071020999732
 20
19672.89215899981
 30
0.0
 11
8091.9590760999854
 21
19530.48955099978
 31
0.0
  0
LINE
  5
108E8
  8
0-6
  6
CONTINUOUS
 62
     6
 10
8188.6090710999943
 20
19647.890838999811
 30
0.0
 11
8145.3071020999732
 21
19672.89215899981
 31
0.0
  0
LINE
  5
108E9
  8
0-6
  6
CONTINUOUS
 62
     6
 10
8091.9590760999854
 20
19530.48955099978
 30
0.0
 11
8188.6090710999943
 21
19647.890838999811
 31
0.0
  0
LINE
  5
108EA
  8
0-6
  6
CONTINUOUS
 62
     6
 10
8091.9590760999854
 20
19530.48955099978
 30
0.0
 11
8145.3071020999732
 21
19672.89215899981
 31
0.0
  0
LINE
  5
108EB
  8
0-6
  6
CONTINUOUS
 62
     6
 10
8188.6090710999943
 20
19647.890838999811
 30
0.0
 11
8091.9590760999854
 21
19530.48955099978
 31
0.0
  0
LINE
  5
108EC
  8
0-6
  6
CONTINUOUS
 62
     6
 10
8166.9570970999721
 20
19660.393478999809
 30
0.0
 11
8392.5429137696574
 21
20084.063318730921
 31
0.0
  0
TEXT
  5
108ED
  8
0-6
  6
CONTINUOUS
 62
     7
 10
7840.8807837666391
 20
20640.488758999811
 30
0.0
 40
160.0
  1
鼻隠し後
 72
     4
 11
8203.5474504333051
 21
20720.488758999811
 31
0.0
  0
LINE
  5
108EE
  8
0-6
  6
CONTINUOUS
 62
     6
 10
8646.2163610999723
 20
20560.48849499982
 30
0.0
 11
7803.7768020999738
 21
20560.48849499982
 31
0.0
  0
LINE
  5
108EF
  8
0-6
  6
CONTINUOUS
 62
     6
 10
8460.5767728221817
 20
20211.837997683211
 30
0.0
 11
8646.2163610999723
 21
20560.48849499982
 31
0.0
  0
LINE
  5
108F0
  8
0-6
  6
CONTINUOUS
 62
     6
 10
15853.699230675869
 20
13719.71680413883
 30
0.0
 11
13224.802242062749
 21
13719.71680413883
 31
0.0
  0
TEXT
  5
108F1
  8
0-6
  6
CONTINUOUS
 62
     7
 10
13289.96491808433
 20
13799.71706813884
 30
0.0
 40
160.0
  1
桁前（PU）+ 桁補強（PU）
 72
     4
 11
14537.96491808433
 21
13879.71706813884
 31
0.0
  0
LINE
  5
108F2
  8
0-6
  6
CONTINUOUS
 62
     6
 10
13224.802242062749
 20
13719.71680413883
 30
0.0
 11
11563.49700118229
 21
13293.786914777511
 31
0.0
  0
LINE
  5
108F3
  8
0-6
  6
CONTINUOUS
 62
     6
 10
11563.49700118229
 20
13293.786914777511
 30
0.0
 11
11186.55453768675
 21
13795.98689899987
 31
0.0
  0
LINE
  5
108F4
  8
0-6
  6
CONTINUOUS
 62
     6
 10
15754.609928952461
 20
16674.21615713885
 30
0.0
 11
13224.802242062749
 21
16674.21615713885
 31
0.0
  0
TEXT
  5
108F5
  8
0-6
  6
CONTINUOUS
 62
     7
 10
13346.33815710524
 20
16754.21642113883
 30
0.0
 40
160.0
  1
桁（PU）+ 桁補強（PU）
 72
     4
 11
14498.33815710524
 21
16834.21642113883
 31
0.0
  0
LINE
  5
108F6
  8
0-6
  6
CONTINUOUS
 62
     6
 10
13224.802242062749
 20
16674.21615713885
 30
0.0
 11
11563.49700118229
 21
16248.286267777539
 31
0.0
  0
LINE
  5
108F7
  8
0-6
  6
CONTINUOUS
 62
     6
 10
11563.49700118229
 20
16248.286267777539
 30
0.0
 11
11186.55453768675
 21
16750.486251999871
 31
0.0
  0
LINE
  5
108F8
  8
0-6
  6
CONTINUOUS
 62
     6
 10
15754.609928952461
 20
19202.717661138839
 30
0.0
 11
13224.80224206274
 21
19202.717661138839
 31
0.0
  0
TEXT
  5
108F9
  8
0-6
  6
CONTINUOUS
 62
     7
 10
13346.33815710524
 20
19282.717925138841
 30
0.0
 40
160.0
  1
桁（PU）+ 桁補強（PU）
 72
     4
 11
14498.33815710524
 21
19362.717925138841
 31
0.0
  0
LINE
  5
108FA
  8
0-6
  6
CONTINUOUS
 62
     6
 10
13224.80224206274
 20
19202.717661138839
 30
0.0
 11
11563.497001182281
 21
18776.787771777541
 31
0.0
  0
LINE
  5
108FB
  8
0-6
  6
CONTINUOUS
 62
     6
 10
11563.497001182281
 20
18776.787771777541
 30
0.0
 11
11186.55453768675
 21
19278.987755999849
 31
0.0
  0
TEXT
  5
108FC
  8
0-6
  6
CONTINUOUS
 62
     7
 10
12438.991952976079
 20
14242.63977402256
 30
0.0
 40
160.0
  1
梁（P）前
 72
     4
 11
12881.658619642751
 21
14322.63977402256
 31
0.0
  0
LINE
  5
108FD
  8
0-6
  6
CONTINUOUS
 62
     6
 10
13388.52297449146
 20
14162.64050002256
 30
0.0
 11
12373.532805166609
 21
14162.64050002256
 31
0.0
  0
LINE
  5
108FE
  8
0-6
  6
CONTINUOUS
 62
     6
 10
11261.274282757389
 20
19135.01576162114
 30
0.0
 11
11186.554537686759
 21
19278.987755999849
 31
0.0
  0
LINE
  5
108FF
  8
0-6
  6
CONTINUOUS
 62
     6
 10
11186.554537686759
 20
19278.987755999849
 30
0.0
 11
11303.930580670411
 21
19167.030766322419
 31
0.0
  0
LINE
  5
10900
  8
0-6
  6
CONTINUOUS
 62
     6
 10
11303.930580670411
 20
19167.030766322419
 30
0.0
 11
11261.274282757389
 21
19135.01576162114
 31
0.0
  0
LINE
  5
10901
  8
0-6
  6
CONTINUOUS
 62
     6
 10
11261.274282757389
 20
16606.514257621151
 30
0.0
 11
11186.554537686759
 21
16750.486251999871
 31
0.0
  0
LINE
  5
10902
  8
0-6
  6
CONTINUOUS
 62
     6
 10
11186.554537686759
 20
16750.486251999871
 30
0.0
 11
11303.930580670411
 21
16638.529262322401
 31
0.0
  0
LINE
  5
10903
  8
0-6
  6
CONTINUOUS
 62
     6
 10
11303.930580670411
 20
16638.529262322401
 30
0.0
 11
11261.274282757389
 21
16606.514257621151
 31
0.0
  0
LINE
  5
10904
  8
0-6
  6
CONTINUOUS
 62
     6
 10
11261.274282757389
 20
13652.01490462115
 30
0.0
 11
11186.554537686759
 21
13795.98689899987
 31
0.0
  0
LINE
  5
10905
  8
0-6
  6
CONTINUOUS
 62
     6
 10
11186.554537686759
 20
13795.98689899987
 30
0.0
 11
11303.930580670411
 21
13684.0299093224
 31
0.0
  0
LINE
  5
10906
  8
0-6
  6
CONTINUOUS
 62
     6
 10
11303.930580670411
 20
13684.0299093224
 30
0.0
 11
11261.274282757389
 21
13652.01490462115
 31
0.0
  0
LINE
  5
10907
  8
0-6
  6
CONTINUOUS
 62
     6
 10
27198.78206863728
 20
19102.38947925335
 30
0.0
 11
27305.110092585241
 21
19224.88571100001
 31
0.0
  0
LINE
  5
10908
  8
0-6
  6
CONTINUOUS
 62
     6
 10
27305.110092585241
 20
19224.88571100001
 30
0.0
 11
27244.257972991989
 21
19074.524404324558
 31
0.0
  0
LINE
  5
10909
  8
0-6
  6
CONTINUOUS
 62
     6
 10
27244.257972991989
 20
19074.524404324558
 30
0.0
 11
27198.78206863728
 21
19102.38947925335
 31
0.0
  0
LINE
  5
1090A
  8
0-6
  6
CONTINUOUS
 62
     6
 10
27226.966414143251
 20
19518.203035932689
 30
0.0
 11
27296.010092585231
 21
19371.42447504586
 31
0.0
  0
LINE
  5
1090B
  8
0-6
  6
CONTINUOUS
 62
     6
 10
27296.010092585231
 20
19371.42447504586
 30
0.0
 11
27183.093092406089
 21
19487.877272670841
 31
0.0
  0
LINE
  5
1090C
  8
0-6
  6
CONTINUOUS
 62
     6
 10
27183.093092406089
 20
19487.877272670841
 30
0.0
 11
27226.966414143251
 21
19518.203035932689
 31
0.0
  0
LINE
  5
1090D
  8
0-6
  6
CONTINUOUS
 62
     6
 10
27198.78206863736
 20
16935.082047746651
 30
0.0
 11
27305.110092585332
 21
16812.585815999999
 31
0.0
  0
LINE
  5
1090E
  8
0-6
  6
CONTINUOUS
 62
     6
 10
27305.110092585332
 20
16812.585815999999
 30
0.0
 11
27244.257972992069
 21
16962.94712267545
 31
0.0
  0
LINE
  5
1090F
  8
0-6
  6
CONTINUOUS
 62
     6
 10
27244.257972992069
 20
16962.94712267545
 30
0.0
 11
27198.78206863736
 21
16935.082047746651
 31
0.0
  0
LINE
  5
10910
  8
0-6
  6
CONTINUOUS
 62
     6
 10
27198.78206863748
 20
14027.58248374665
 30
0.0
 11
27305.110092585441
 21
13905.08625200001
 31
0.0
  0
LINE
  5
10911
  8
0-6
  6
CONTINUOUS
 62
     6
 10
27305.110092585441
 20
13905.08625200001
 30
0.0
 11
27244.257972992189
 21
14055.44755867546
 31
0.0
  0
LINE
  5
10912
  8
0-6
  6
CONTINUOUS
 62
     6
 10
27244.257972992189
 20
14055.44755867546
 30
0.0
 11
27198.78206863748
 21
14027.58248374665
 31
0.0
  0
LINE
  5
10913
  8
0-6
  6
CONTINUOUS
 62
     6
 10
27226.966414143371
 20
16519.268491067309
 30
0.0
 11
27296.010092585329
 21
16666.04705195412
 31
0.0
  0
LINE
  5
10914
  8
0-6
  6
CONTINUOUS
 62
     6
 10
27296.010092585329
 20
16666.04705195412
 30
0.0
 11
27183.093092406201
 21
16549.594254329149
 31
0.0
  0
LINE
  5
10915
  8
0-6
  6
CONTINUOUS
 62
     6
 10
27183.093092406201
 20
16549.594254329149
 30
0.0
 11
27226.966414143371
 21
16519.268491067309
 31
0.0
  0
LINE
  5
10916
  8
0-6
  6
CONTINUOUS
 62
     6
 10
27226.966414143459
 20
13631.707691113181
 30
0.0
 11
27296.010092585439
 21
13778.486252000001
 31
0.0
  0
LINE
  5
10917
  8
0-6
  6
CONTINUOUS
 62
     6
 10
27296.010092585439
 20
13778.486252000001
 30
0.0
 11
27183.09309240631
 21
13662.03345437502
 31
0.0
  0
LINE
  5
10918
  8
0-6
  6
CONTINUOUS
 62
     6
 10
27183.09309240631
 20
13662.03345437502
 30
0.0
 11
27226.966414143459
 21
13631.707691113181
 31
0.0
  0
LINE
  5
10919
  8
SUNPOU
  6
CONTINUOUS
 62
     4
 10
22341.010092585191
 20
20560.48717599981
 30
0.0
 11
27341.010092585191
 21
20560.487175999999
 31
0.0
  0
LINE
  5
1091A
  8
SUNPOU
  6
CONTINUOUS
 62
     4
 10
19773.510092585191
 20
20560.487175999711
 30
0.0
 11
22341.010092585191
 21
20560.48717599981
 31
0.0
  0
LINE
  5
1091B
  8
SUNPOU
  6
CONTINUOUS
 62
     4
 10
27341.01009258522
 20
19684.93602587733
 30
0.0
 11
27341.010092585198
 21
20240.48717600001
 31
0.0
  0
LINE
  5
1091C
  8
SUNPOU
  6
CONTINUOUS
 62
     4
 10
27298.507849585221
 20
19523.83651600001
 30
0.0
 11
27298.507849585199
 21
20240.487175999999
 31
0.0
  0
LINE
  5
1091D
  8
SUNPOU
  6
CONTINUOUS
 62
     4
 10
27341.010092585198
 20
20160.48717600001
 30
0.0
 11
27581.010092585198
 21
20160.48717600001
 31
0.0
  0
LINE
  5
1091E
  8
SUNPOU
  6
CONTINUOUS
 62
     4
 10
27298.507849585199
 20
20160.487175999999
 30
0.0
 11
27058.507849585199
 21
20160.487175999991
 31
0.0
  0
LINE
  5
1091F
  8
SUNPOU
  6
CONTINUOUS
 62
     4
 10
27341.010092585198
 20
20160.48717600001
 30
0.0
 11
27298.507849585199
 21
20160.487175999999
 31
0.0
  0
LINE
  5
10920
  8
SUNPOU
  6
CONTINUOUS
 62
     4
 10
27341.01009258522
 20
19684.93602587733
 30
0.0
 11
27341.010092585198
 21
20240.48717600001
 31
0.0
  0
LINE
  5
10921
  8
SUNPOU
  6
CONTINUOUS
 62
     4
 10
27383.508377585222
 20
19520.488759
 30
0.0
 11
27383.508377585189
 21
20240.48717600001
 31
0.0
  0
LINE
  5
10922
  8
SUNPOU
  6
CONTINUOUS
 62
     4
 10
27341.010092585198
 20
20160.48717600001
 30
0.0
 11
27101.010092585198
 21
20160.487175999991
 31
0.0
  0
LINE
  5
10923
  8
SUNPOU
  6
CONTINUOUS
 62
     4
 10
27383.508377585189
 20
20160.48717600001
 30
0.0
 11
27623.508377585189
 21
20160.487176000021
 31
0.0
  0
LINE
  5
10924
  8
SUNPOU
  6
CONTINUOUS
 62
     4
 10
27341.010092585198
 20
20160.48717600001
 30
0.0
 11
27383.508377585189
 21
20160.48717600001
 31
0.0
  0
LINE
  5
10925
  8
SUNPOU
  6
CONTINUOUS
 62
     4
 10
27725.61492853727
 20
16750.486252000032
 30
0.0
 11
28638.853716953949
 21
16750.486252000061
 31
0.0
  0
LINE
  5
10926
  8
SUNPOU
  6
CONTINUOUS
 62
     4
 10
27725.614928537179
 20
19317.986252000032
 30
0.0
 11
28638.853716953861
 21
19317.986252000061
 31
0.0
  0
LINE
  5
10927
  8
SUNPOU
  6
CONTINUOUS
 62
     4
 10
28558.85371695396
 20
16750.486252000061
 30
0.0
 11
28558.853716953869
 21
19317.986252000061
 31
0.0
  0
LINE
  5
10928
  8
SUNPOU
  6
CONTINUOUS
 62
     4
 10
27725.614928537379
 20
13832.48625200003
 30
0.0
 11
28638.853716954069
 21
13832.486252000061
 31
0.0
  0
LINE
  5
10929
  8
SUNPOU
  6
CONTINUOUS
 62
     4
 10
27725.61492853727
 20
16750.486252000032
 30
0.0
 11
28638.853716953949
 21
16750.486252000061
 31
0.0
  0
LINE
  5
1092A
  8
SUNPOU
  6
CONTINUOUS
 62
     4
 10
28558.853716954069
 20
13832.486252000061
 30
0.0
 11
28558.85371695396
 21
16750.486252000061
 31
0.0
  0
ARC
  5
1092B
  8
1-前柱P
 10
27350.610092585441
 20
13900.886252000009
 30
0.0
 40
1.0
 50
90.0
 51
180.0
  0
LINE
  5
1092C
  8
1-前柱P
 10
27349.610092585441
 20
13900.886252000009
 30
0.0
 11
27349.610092585441
 21
13899.286252000011
 31
0.0
  0
LINE
  5
1092D
  8
1-前柱P
 10
27349.610092585441
 20
13899.286252000011
 30
0.0
 11
27338.41009258544
 21
13899.286252000011
 31
0.0
  0
LINE
  5
1092E
  8
1-前柱P
 10
27338.41009258544
 20
13899.286252000011
 30
0.0
 11
27338.410092585429
 21
13900.886252000009
 31
0.0
  0
ARC
  5
1092F
  8
1-前柱P
 10
27337.410092585429
 20
13900.886252000009
 30
0.0
 40
1.0
 50
0.0
 51
90.0
  0
ARC
  5
10930
  8
1-中柱P
 10
27334.41009258532
 20
16818.786252000002
 30
0.0
 40
1.0
 50
0.0
 51
90.0
  0
LINE
  5
10931
  8
1-中柱P
 10
27335.41009258532
 20
16818.786252000002
 30
0.0
 11
27335.41009258532
 21
16817.186252000021
 31
0.0
  0
LINE
  5
10932
  8
1-中柱P
 10
27335.41009258532
 20
16817.186252000021
 30
0.0
 11
27346.610092585321
 21
16817.186252000021
 31
0.0
  0
LINE
  5
10933
  8
1-中柱P
 10
27346.610092585321
 20
16817.186252000021
 30
0.0
 11
27346.610092585321
 21
16818.786252000002
 31
0.0
  0
ARC
  5
10934
  8
1-中柱P
 10
27347.610092585321
 20
16818.786252000002
 30
0.0
 40
1.0
 50
90.0
 51
180.0
  0
ARC
  5
10935
  8
1-後柱P
 10
27331.410092585229
 20
19249.93625200001
 30
0.0
 40
1.0
 50
270.0
 51
0.0
  0
LINE
  5
10936
  8
1-後柱P
 10
27332.410092585269
 20
19249.93625200001
 30
0.0
 11
27332.410092585269
 21
19251.536252000009
 31
0.0
  0
LINE
  5
10937
  8
1-後柱P
 10
27332.410092585269
 20
19251.536252000009
 30
0.0
 11
27343.61009258523
 21
19251.536252000009
 31
0.0
  0
LINE
  5
10938
  8
1-後柱P
 10
27343.61009258523
 20
19251.536252000009
 30
0.0
 11
27343.61009258523
 21
19249.93625200001
 31
0.0
  0
ARC
  5
10939
  8
1-後柱P
 10
27344.61009258523
 20
19249.93625200001
 30
0.0
 40
1.0
 50
180.0
 51
270.0
  0
LINE
  5
1093A
  8
SUNPOU
  6
CONTINUOUS
 62
     4
 10
4304.2335704709421
 20
13639.98697799981
 30
0.0
 11
3457.233794470968
 21
13639.98697799981
 31
0.0
  0
LINE
  5
1093B
  8
SUNPOU
  6
CONTINUOUS
 62
     4
 10
3537.2337944709661
 20
13832.486251999821
 30
0.0
 11
3537.2337944709661
 21
13639.98697799981
 31
0.0
  0
LINE
  5
1093C
  8
SUNPOU
  6
CONTINUOUS
 62
     4
 10
3537.2337944709661
 20
16750.486251999799
 30
0.0
 11
3537.2337944709661
 21
13832.486251999821
 31
0.0
  0
LINE
  5
1093D
  8
SUNPOU
  6
CONTINUOUS
 62
     4
 10
3537.2337944709661
 20
19317.98625199981
 30
0.0
 11
3537.2337944709661
 21
16750.486251999799
 31
0.0
  0
LINE
  5
1093E
  8
SUNPOU
  6
CONTINUOUS
 62
     4
 10
3617.233794470968
 20
19317.98625199981
 30
0.0
 11
3577.233794470967
 21
19317.98625199981
 31
0.0
  0
LINE
  5
1093F
  8
SUNPOU
  6
CONTINUOUS
 62
     4
 10
4309.2328444709428
 20
19540.486119999801
 30
0.0
 11
3497.233794470967
 21
19540.486119999801
 31
0.0
  0
LINE
  5
10940
  8
SUNPOU
  6
CONTINUOUS
 62
     4
 10
3537.2337944709661
 20
19317.98625199981
 30
0.0
 11
3537.2337944709661
 21
19540.486119999801
 31
0.0
  0
LINE
  5
10941
  8
SUNPOU
  6
CONTINUOUS
 62
     4
 10
4377.7330954709414
 20
19530.48955099981
 30
0.0
 11
3857.2331354709768
 21
19530.48955099981
 31
0.0
  0
LINE
  5
10942
  8
SUNPOU
  6
CONTINUOUS
 62
     4
 10
4309.2328444709428
 20
19540.486119999801
 30
0.0
 11
3857.2331354709768
 21
19540.486119999801
 31
0.0
  0
LINE
  5
10943
  8
SUNPOU
  6
CONTINUOUS
 62
     4
 10
3937.2331354709768
 20
19530.48955099981
 30
0.0
 11
3937.2331354709768
 21
19290.48955099981
 31
0.0
  0
LINE
  5
10944
  8
SUNPOU
  6
CONTINUOUS
 62
     4
 10
3937.2331354709768
 20
19540.486119999801
 30
0.0
 11
3937.2331354709768
 21
19780.486119999801
 31
0.0
  0
LINE
  5
10945
  8
SUNPOU
  6
CONTINUOUS
 62
     4
 10
3937.2331354709768
 20
19530.48955099981
 30
0.0
 11
3937.2331354709768
 21
19540.486119999801
 31
0.0
  0
LINE
  5
10946
  8
SUNPOU
  6
CONTINUOUS
 62
     4
 10
12034.23357047094
 20
20165.488164999821
 30
0.0
 11
12034.23357047094
 21
20240.48717599981
 31
0.0
  0
LINE
  5
10947
  8
SUNPOU
  6
CONTINUOUS
 62
     4
 10
12119.73357047094
 20
19615.4878349998
 30
0.0
 11
12119.73357047094
 21
20240.48717599981
 31
0.0
  0
LINE
  5
10948
  8
SUNPOU
  6
CONTINUOUS
 62
     4
 10
12034.23357047094
 20
20160.48717599981
 30
0.0
 11
11794.23357047094
 21
20160.48717599981
 31
0.0
  0
LINE
  5
10949
  8
SUNPOU
  6
CONTINUOUS
 62
     4
 10
12116.73357047094
 20
20160.48717599981
 30
0.0
 11
12356.73357047094
 21
20160.48717599981
 31
0.0
  0
LINE
  5
1094A
  8
SUNPOU
  6
CONTINUOUS
 62
     4
 10
12034.23357047094
 20
20160.48717599981
 30
0.0
 11
12116.73357047094
 21
20160.48717599981
 31
0.0
  0
LINE
  5
1094B
  8
SUNPOU
  6
CONTINUOUS
 62
     4
 10
7034.2335704709421
 20
20165.488164999821
 30
0.0
 11
7034.2335704709421
 21
20240.48717599981
 31
0.0
  0
LINE
  5
1094C
  8
SUNPOU
  6
CONTINUOUS
 62
     4
 10
12034.23357047094
 20
20165.488164999821
 30
0.0
 11
12034.23357047094
 21
20240.48717599981
 31
0.0
  0
LINE
  5
1094D
  8
SUNPOU
  6
CONTINUOUS
 62
     4
 10
7034.2335704709421
 20
20160.48717599981
 30
0.0
 11
12034.23357047094
 21
20160.48717599981
 31
0.0
  0
LINE
  5
1094E
  8
SUNPOU
  6
CONTINUOUS
 62
     4
 10
4466.7335704709421
 20
19690.4878349998
 30
0.0
 11
4466.7335704709421
 21
20240.48717599981
 31
0.0
  0
LINE
  5
1094F
  8
SUNPOU
  6
CONTINUOUS
 62
     4
 10
7034.2335704709421
 20
20165.488164999821
 30
0.0
 11
7034.2335704709421
 21
20240.48717599981
 31
0.0
  0
LINE
  5
10950
  8
SUNPOU
  6
CONTINUOUS
 62
     4
 10
4466.7335704709421
 20
20160.48717599981
 30
0.0
 11
7034.2335704709421
 21
20160.48717599981
 31
0.0
  0
LINE
  5
10951
  8
SUNPOU
  6
CONTINUOUS
 62
     4
 10
4466.7335704709421
 20
19690.4878349998
 30
0.0
 11
4466.7335704709421
 21
20240.48717599981
 31
0.0
  0
LINE
  5
10952
  8
SUNPOU
  6
CONTINUOUS
 62
     4
 10
4381.2335704709421
 20
19610.487571999802
 30
0.0
 11
4381.2335704709421
 21
20240.48717599981
 31
0.0
  0
LINE
  5
10953
  8
SUNPOU
  6
CONTINUOUS
 62
     4
 10
4466.7335704709421
 20
20160.48717599981
 30
0.0
 11
4706.7335704709421
 21
20160.48717599981
 31
0.0
  0
LINE
  5
10954
  8
SUNPOU
  6
CONTINUOUS
 62
     4
 10
4384.2335704709421
 20
20160.48717599981
 30
0.0
 11
4144.2335704709421
 21
20160.48717599981
 31
0.0
  0
LINE
  5
10955
  8
SUNPOU
  6
CONTINUOUS
 62
     4
 10
4466.7335704709421
 20
20160.48717599981
 30
0.0
 11
4384.2335704709421
 21
20160.48717599981
 31
0.0
  0
LINE
  5
10956
  8
SUNPOU
  6
CONTINUOUS
 62
     4
 10
4381.2335843585251
 20
13559.97784973369
 30
0.0
 11
4381.2335843585251
 21
12269.97705773368
 31
0.0
  0
LINE
  5
10957
  8
SUNPOU
  6
CONTINUOUS
 62
     4
 10
12119.73357047094
 20
13559.986977999801
 30
0.0
 11
12119.73357047094
 21
12269.9861859998
 31
0.0
  0
LINE
  5
10958
  8
SUNPOU
  6
CONTINUOUS
 62
     4
 10
4384.2335704709421
 20
12349.9861859998
 30
0.0
 11
12116.73357047094
 21
12349.9861859998
 31
0.0
  0
LINE
  5
10959
  8
0-6
  6
CONTINUOUS
 62
     6
 10
8607.2512434935561
 20
15531.38432357485
 30
0.0
 11
8487.3965165870413
 21
15640.715420530079
 31
0.0
  0
LINE
  5
1095A
  8
0-6
  6
CONTINUOUS
 62
     6
 10
8487.3965165870413
 20
15640.715420530079
 30
0.0
 11
8565.3219146238207
 21
15498.426711687511
 31
0.0
  0
LINE
  5
1095B
  8
0-6
  6
CONTINUOUS
 62
     6
 10
8565.3219146238207
 20
15498.426711687511
 30
0.0
 11
8607.2512434935561
 21
15531.38432357485
 31
0.0
  0
LINE
  5
1095C
  8
0-6
  6
CONTINUOUS
 62
     6
 10
5129.5342643844651
 20
16944.102544278081
 30
0.0
 11
5097.8946180157236
 21
16784.988191999812
 31
0.0
  0
LINE
  5
1095D
  8
0-6
  6
CONTINUOUS
 62
     6
 10
5097.8946180157236
 20
16784.988191999812
 30
0.0
 11
5179.4207439180918
 21
16925.244867843161
 31
0.0
  0
LINE
  5
1095E
  8
0-6
  6
CONTINUOUS
 62
     6
 10
5179.4207439180918
 20
16925.244867843161
 30
0.0
 11
5129.5342643844651
 21
16944.102544278081
 31
0.0
  0
LINE
  5
1095F
  8
0-6
  6
CONTINUOUS
 62
     6
 10
12166.743322770941
 20
14525.06097015464
 30
0.0
 11
12120.453031105289
 21
14680.522169063939
 31
0.0
  0
LINE
  5
10960
  8
0-6
  6
CONTINUOUS
 62
     6
 10
12120.453031105289
 20
14680.522169063939
 30
0.0
 11
12214.662417101999
 21
14548.476364154199
 31
0.0
  0
LINE
  5
10961
  8
0-6
  6
CONTINUOUS
 62
     6
 10
12214.662417101999
 20
14548.476364154199
 30
0.0
 11
12166.743322770941
 21
14525.06097015464
 31
0.0
  0
TEXT
  5
10962
  8
0
  6
CONTINUOUS
 62
     7
 10
7354.483570470944
 20
12429.9861859998
 30
0.0
 40
160.0
  1
ケラバ外寸7738.5
  0
TEXT
  5
10963
  8
0
  6
CONTINUOUS
 62
     7
 10
3891.5864264709562
 20
20240.485459999829
 30
0.0
 40
160.0
  1
85.5
  0
TEXT
  5
10964
  8
0
  6
CONTINUOUS
 62
     7
 10
5350.4835704709421
 20
20240.48717599981
 30
0.0
 40
160.0
  1
2567.5
  0
TEXT
  5
10965
  8
0
  6
CONTINUOUS
 62
     7
 10
9280.9002371376064
 20
20240.48717599981
 30
0.0
 40
160.0
  1
5000
  0
TEXT
  5
10966
  8
0
  6
CONTINUOUS
 62
     7
 10
12180.58135847095
 20
20240.485459999829
 30
0.0
 40
160.0
  1
85.5
  0
TEXT
  5
10967
  8
0
  6
CONTINUOUS
 62
     7
 10
4145.8400660757916
 20
19711.914980666461
 30
0.0
 40
160.0
  1
10
 50
90.0
  0
TEXT
  5
10968
  8
0
  6
CONTINUOUS
 62
     7
 10
3457.233794470968
 20
19618.96777438905
 30
0.0
 40
160.0
  1
222.5
 50
90.0
  0
TEXT
  5
10969
  8
0
  6
CONTINUOUS
 62
     7
 10
3457.233794470968
 20
17634.23625199981
 30
0.0
 40
160.0
  1
2567.5
 50
90.0
  0
TEXT
  5
1096A
  8
0
  6
CONTINUOUS
 62
     7
 10
3457.233794470968
 20
15024.81958533314
 30
0.0
 40
160.0
  1
2918
 50
90.0
  0
TEXT
  5
1096B
  8
0
  6
CONTINUOUS
 62
     7
 10
3457.2337944709889
 20
12975.99734959038
 30
0.0
 40
160.0
  1
192.5
 50
90.0
  0
TEXT
  5
1096C
  8
0
  6
CONTINUOUS
 62
     7
 10
28478.85371695396
 20
15024.8195853334
 30
0.0
 40
160.0
  1
2918
 50
90.0
  0
TEXT
  5
1096D
  8
0
  6
CONTINUOUS
 62
     7
 10
28478.853716954061
 20
17634.23625200005
 30
0.0
 40
160.0
  1
2567.5
 50
90.0
  0
TEXT
  5
1096E
  8
0
  6
CONTINUOUS
 62
     7
 10
27481.93202058518
 20
20240.485460000022
 30
0.0
 40
160.0
  1
42.5
 50
0.0000000000021583
  0
TEXT
  5
1096F
  8
0
  6
CONTINUOUS
 62
     7
 10
26803.836053585219
 20
20259.829315999999
 30
0.0
 40
160.0
  1
42.5
 50
0.0000000000021583
  0
TEXT
  5
10970
  8
0
  6
CONTINUOUS
 62
     7
 10
20657.260092585191
 20
20640.487175999751
 30
0.0
 40
160.0
  1
2567.5
 50
0.0000000000021583
  0
TEXT
  5
10971
  8
0
  6
CONTINUOUS
 62
     7
 10
24587.676759251852
 20
20640.48717599989
 30
0.0
 40
160.0
  1
5000
 50
0.0000000000021583
  0
ARC
  5
10972
  8
0
  6
BYBLOCK
 62
     0
 10
22341.010092585191
 20
20560.48717599981
 30
0.0
 40
15.0
 50
180.0
 51
0.0
  0
ARC
  5
10973
  8
0
  6
BYBLOCK
 62
     0
 10
22341.010092585191
 20
20560.48717599981
 30
0.0
 40
15.0
 50
0.0
 51
180.0
  0
ARC
  5
10974
  8
0
  6
BYBLOCK
 62
     0
 10
27341.010092585191
 20
20560.487175999999
 30
0.0
 40
15.0
 50
0.0
 51
180.0
  0
ARC
  5
10975
  8
0
  6
BYBLOCK
 62
     0
 10
27341.010092585191
 20
20560.487175999999
 30
0.0
 40
15.0
 50
180.0
 51
0.0
  0
ARC
  5
10976
  8
0
  6
BYBLOCK
 62
     0
 10
19773.510092585191
 20
20560.487175999711
 30
0.0
 40
15.0
 50
180.0
 51
0.0
  0
ARC
  5
10977
  8
0
  6
BYBLOCK
 62
     0
 10
19773.510092585191
 20
20560.487175999711
 30
0.0
 40
15.0
 50
0.0
 51
180.0
  0
ARC
  5
10978
  8
0
  6
BYBLOCK
 62
     0
 10
22341.010092585191
 20
20560.48717599981
 30
0.0
 40
15.0
 50
0.0
 51
180.0
  0
ARC
  5
10979
  8
0
  6
BYBLOCK
 62
     0
 10
22341.010092585191
 20
20560.48717599981
 30
0.0
 40
15.0
 50
180.0
 51
0.0
  0
ARC
  5
1097A
  8
0
  6
BYBLOCK
 62
     0
 10
27341.010092585198
 20
20160.48717600001
 30
0.0
 40
15.0
 50
180.0
 51
0.0
  0
ARC
  5
1097B
  8
0
  6
BYBLOCK
 62
     0
 10
27341.010092585198
 20
20160.48717600001
 30
0.0
 40
15.0
 50
0.0
 51
180.0
  0
ARC
  5
1097C
  8
0
  6
BYBLOCK
 62
     0
 10
27298.507849585199
 20
20160.487175999999
 30
0.0
 40
15.0
 50
0.0
 51
180.0
  0
ARC
  5
1097D
  8
0
  6
BYBLOCK
 62
     0
 10
27298.507849585199
 20
20160.487175999999
 30
0.0
 40
15.0
 50
180.0
 51
0.0
  0
ARC
  5
1097E
  8
0
  6
BYBLOCK
 62
     0
 10
27341.010092585198
 20
20160.48717600001
 30
0.0
 40
15.0
 50
0.0
 51
180.0
  0
ARC
  5
1097F
  8
0
  6
BYBLOCK
 62
     0
 10
27341.010092585198
 20
20160.48717600001
 30
0.0
 40
15.0
 50
180.0
 51
0.0
  0
ARC
  5
10980
  8
0
  6
BYBLOCK
 62
     0
 10
27383.508377585189
 20
20160.48717600001
 30
0.0
 40
15.0
 50
180.0
 51
0.0
  0
ARC
  5
10981
  8
0
  6
BYBLOCK
 62
     0
 10
27383.508377585189
 20
20160.48717600001
 30
0.0
 40
15.0
 50
0.0
 51
180.0
  0
ARC
  5
10982
  8
0
  6
BYBLOCK
 62
     0
 10
28558.85371695396
 20
16750.486252000061
 30
0.0
 40
15.0
 50
270.0
 51
90.0
  0
ARC
  5
10983
  8
0
  6
BYBLOCK
 62
     0
 10
28558.85371695396
 20
16750.486252000061
 30
0.0
 40
15.0
 50
90.0
 51
270.0
  0
ARC
  5
10984
  8
0
  6
BYBLOCK
 62
     0
 10
28558.853716953869
 20
19317.986252000061
 30
0.0
 40
15.0
 50
90.0
 51
270.0
  0
ARC
  5
10985
  8
0
  6
BYBLOCK
 62
     0
 10
28558.853716953869
 20
19317.986252000061
 30
0.0
 40
15.0
 50
270.0
 51
90.0
  0
ARC
  5
10986
  8
0
  6
BYBLOCK
 62
     0
 10
28558.853716954069
 20
13832.486252000061
 30
0.0
 40
15.0
 50
270.0
 51
90.0
  0
ARC
  5
10987
  8
0
  6
BYBLOCK
 62
     0
 10
28558.853716954069
 20
13832.486252000061
 30
0.0
 40
15.0
 50
90.0
 51
270.0
  0
ARC
  5
10988
  8
0
  6
BYBLOCK
 62
     0
 10
28558.85371695396
 20
16750.486252000061
 30
0.0
 40
15.0
 50
90.0
 51
270.0
  0
ARC
  5
10989
  8
0
  6
BYBLOCK
 62
     0
 10
28558.85371695396
 20
16750.486252000061
 30
0.0
 40
15.0
 50
270.0
 51
90.0
  0
ARC
  5
1098A
  8
0
  6
BYBLOCK
 62
     0
 10
3537.2337944709661
 20
13832.486251999821
 30
0.0
 40
15.0
 50
90.0
 51
270.0
  0
ARC
  5
1098B
  8
0
  6
BYBLOCK
 62
     0
 10
3537.2337944709661
 20
13832.486251999821
 30
0.0
 40
15.0
 50
270.0
 51
90.0
  0
ARC
  5
1098C
  8
0
  6
BYBLOCK
 62
     0
 10
3537.2337944709661
 20
13639.98697799981
 30
0.0
 40
15.0
 50
270.0
 51
90.0
  0
ARC
  5
1098D
  8
0
  6
BYBLOCK
 62
     0
 10
3537.2337944709661
 20
13639.98697799981
 30
0.0
 40
15.0
 50
90.0
 51
270.0
  0
ARC
  5
1098E
  8
0
  6
BYBLOCK
 62
     0
 10
3537.2337944709661
 20
16750.486251999799
 30
0.0
 40
15.0
 50
90.0
 51
270.0
  0
ARC
  5
1098F
  8
0
  6
BYBLOCK
 62
     0
 10
3537.2337944709661
 20
16750.486251999799
 30
0.0
 40
15.0
 50
270.0
 51
90.0
  0
ARC
  5
10990
  8
0
  6
BYBLOCK
 62
     0
 10
3537.2337944709661
 20
13832.486251999821
 30
0.0
 40
15.0
 50
270.0
 51
90.0
  0
ARC
  5
10991
  8
0
  6
BYBLOCK
 62
     0
 10
3537.2337944709661
 20
13832.486251999821
 30
0.0
 40
15.0
 50
90.0
 51
270.0
  0
ARC
  5
10992
  8
0
  6
BYBLOCK
 62
     0
 10
3537.2337944709661
 20
19317.98625199981
 30
0.0
 40
15.0
 50
90.0
 51
270.0
  0
ARC
  5
10993
  8
0
  6
BYBLOCK
 62
     0
 10
3537.2337944709661
 20
19317.98625199981
 30
0.0
 40
15.0
 50
270.0
 51
90.0
  0
ARC
  5
10994
  8
0
  6
BYBLOCK
 62
     0
 10
3537.2337944709661
 20
16750.486251999799
 30
0.0
 40
15.0
 50
270.0
 51
90.0
  0
ARC
  5
10995
  8
0
  6
BYBLOCK
 62
     0
 10
3537.2337944709661
 20
16750.486251999799
 30
0.0
 40
15.0
 50
90.0
 51
270.0
  0
ARC
  5
10996
  8
0
  6
BYBLOCK
 62
     0
 10
3537.2337944709661
 20
19317.98625199981
 30
0.0
 40
15.0
 50
270.0
 51
90.0
  0
ARC
  5
10997
  8
0
  6
BYBLOCK
 62
     0
 10
3537.2337944709661
 20
19317.98625199981
 30
0.0
 40
15.0
 50
90.0
 51
270.0
  0
ARC
  5
10998
  8
0
  6
BYBLOCK
 62
     0
 10
3537.2337944709661
 20
19540.486119999801
 30
0.0
 40
15.0
 50
90.0
 51
270.0
  0
ARC
  5
10999
  8
0
  6
BYBLOCK
 62
     0
 10
3537.2337944709661
 20
19540.486119999801
 30
0.0
 40
15.0
 50
270.0
 51
90.0
  0
ARC
  5
1099A
  8
0
  6
BYBLOCK
 62
     0
 10
3937.2331354709768
 20
19530.48955099981
 30
0.0
 40
15.0
 50
90.0
 51
270.0
  0
ARC
  5
1099B
  8
0
  6
BYBLOCK
 62
     0
 10
3937.2331354709768
 20
19530.48955099981
 30
0.0
 40
15.0
 50
270.0
 51
90.0
  0
ARC
  5
1099C
  8
0
  6
BYBLOCK
 62
     0
 10
3937.2331354709768
 20
19540.486119999801
 30
0.0
 40
15.0
 50
270.0
 51
90.0
  0
ARC
  5
1099D
  8
0
  6
BYBLOCK
 62
     0
 10
3937.2331354709768
 20
19540.486119999801
 30
0.0
 40
15.0
 50
90.0
 51
270.0
  0
ARC
  5
1099E
  8
0
  6
BYBLOCK
 62
     0
 10
12034.23357047094
 20
20160.48717599981
 30
0.0
 40
15.0
 50
0.0
 51
180.0
  0
ARC
  5
1099F
  8
0
  6
BYBLOCK
 62
     0
 10
12034.23357047094
 20
20160.48717599981
 30
0.0
 40
15.0
 50
180.0
 51
0.0
  0
ARC
  5
109A0
  8
0
  6
BYBLOCK
 62
     0
 10
12119.73357047094
 20
20160.48717599981
 30
0.0
 40
15.0
 50
180.0
 51
0.0
  0
ARC
  5
109A1
  8
0
  6
BYBLOCK
 62
     0
 10
12119.73357047094
 20
20160.48717599981
 30
0.0
 40
15.0
 50
0.0
 51
180.0
  0
ARC
  5
109A2
  8
0
  6
BYBLOCK
 62
     0
 10
7034.2335704709421
 20
20160.48717599981
 30
0.0
 40
15.0
 50
180.0
 51
0.0
  0
ARC
  5
109A3
  8
0
  6
BYBLOCK
 62
     0
 10
7034.2335704709421
 20
20160.48717599981
 30
0.0
 40
15.0
 50
0.0
 51
180.0
  0
ARC
  5
109A4
  8
0
  6
BYBLOCK
 62
     0
 10
12034.23357047094
 20
20160.48717599981
 30
0.0
 40
15.0
 50
0.0
 51
180.0
  0
ARC
  5
109A5
  8
0
  6
BYBLOCK
 62
     0
 10
12034.23357047094
 20
20160.48717599981
 30
0.0
 40
15.0
 50
180.0
 51
0.0
  0
ARC
  5
109A6
  8
0
  6
BYBLOCK
 62
     0
 10
4466.7335704709421
 20
20160.48717599981
 30
0.0
 40
15.0
 50
180.0
 51
0.0
  0
ARC
  5
109A7
  8
0
  6
BYBLOCK
 62
     0
 10
4466.7335704709421
 20
20160.48717599981
 30
0.0
 40
15.0
 50
0.0
 51
180.0
  0
ARC
  5
109A8
  8
0
  6
BYBLOCK
 62
     0
 10
7034.2335704709421
 20
20160.48717599981
 30
0.0
 40
15.0
 50
0.0
 51
180.0
  0
ARC
  5
109A9
  8
0
  6
BYBLOCK
 62
     0
 10
7034.2335704709421
 20
20160.48717599981
 30
0.0
 40
15.0
 50
180.0
 51
0.0
  0
ARC
  5
109AA
  8
0
  6
BYBLOCK
 62
     0
 10
4466.7335704709421
 20
20160.48717599981
 30
0.0
 40
15.0
 50
180.0
 51
0.0
  0
ARC
  5
109AB
  8
0
  6
BYBLOCK
 62
     0
 10
4466.7335704709421
 20
20160.48717599981
 30
0.0
 40
15.0
 50
0.0
 51
180.0
  0
ARC
  5
109AC
  8
0
  6
BYBLOCK
 62
     0
 10
4381.2335704709421
 20
20160.48717599981
 30
0.0
 40
15.0
 50
0.0
 51
180.0
  0
ARC
  5
109AD
  8
0
  6
BYBLOCK
 62
     0
 10
4381.2335704709421
 20
20160.48717599981
 30
0.0
 40
15.0
 50
180.0
 51
0.0
  0
ARC
  5
109AE
  8
0
  6
BYBLOCK
 62
     0
 10
4381.2335843585251
 20
12349.97705773368
 30
0.0
 40
15.0
 50
180.0
 51
0.0
  0
ARC
  5
109AF
  8
0
  6
BYBLOCK
 62
     0
 10
4381.2335843585251
 20
12349.97705773368
 30
0.0
 40
15.0
 50
0.0
 51
180.0
  0
ARC
  5
109B0
  8
0
  6
BYBLOCK
 62
     0
 10
12119.73357047094
 20
12349.9861859998
 30
0.0
 40
15.0
 50
0.0
 51
180.0
  0
ARC
  5
109B1
  8
0
  6
BYBLOCK
 62
     0
 10
12119.73357047094
 20
12349.9861859998
 30
0.0
 40
15.0
 50
180.0
 51
0.0
  0
LINE
  5
109B2
  8
2-0
  6
CONTINUOUS
 62
     6
 10
21456.669008585472
 20
13192.485129999801
 30
0.0
 11
20456.675606585512
 21
13192.485129999761
 31
0.0
  0
LINE
  5
109B3
  8
2-0
  6
CONTINUOUS
 62
     6
 10
19988.735229585451
 20
13662.905843999741
 30
0.0
 11
20456.675606585512
 21
13192.485129999761
 31
0.0
  0
LINE
  5
109B4
  8
2-0
  6
CONTINUOUS
 62
     6
 10
20027.375432585352
 20
16854.513490999761
 30
0.0
 11
20332.070850585329
 21
16958.167021999769
 31
0.0
  0
LINE
  5
109B5
  8
2-0
  6
CONTINUOUS
 62
     6
 10
19872.35339358537
 20
16364.89144699976
 30
0.0
 11
20332.070850585369
 21
16120.978135999751
 31
0.0
  0
LINE
  5
109B6
  8
2-0
  6
CONTINUOUS
 62
     6
 10
21252.073885585382
 20
16120.978135999791
 30
0.0
 11
20332.070850585369
 21
16120.978135999751
 31
0.0
  0
LINE
  5
109B7
  8
2-0
  6
CONTINUOUS
 62
     6
 10
21532.064912585342
 20
16958.16702199982
 30
0.0
 11
20332.070850585329
 21
16958.167021999769
 31
0.0
  0
LINE
  5
109B8
  8
2-0
  6
CONTINUOUS
 62
     6
 10
19956.176108585449
 20
13984.589489999729
 30
0.0
 11
20332.070850585442
 21
14165.533324999749
 31
0.0
  0
LINE
  5
109B9
  8
2-0
  6
CONTINUOUS
 62
     6
 10
20852.072566585441
 20
14165.533324999769
 30
0.0
 11
20332.070850585442
 21
14165.533324999749
 31
0.0
  0
LINE
  5
109BA
  8
2-0
  6
CONTINUOUS
 62
     4
 10
22341.010092585231
 20
19440.48677999985
 30
0.0
 11
22341.010092585198
 21
20240.483480999781
 31
0.0
  0
LINE
  5
109BB
  8
2-0
  6
CONTINUOUS
 62
     3
 10
19761.009432585251
 20
19251.484325999751
 30
0.0
 11
19761.009432585251
 21
19245.488363999732
 31
0.0
  0
LINE
  5
109BC
  8
2-0
  6
CONTINUOUS
 62
     3
 10
19761.009432585251
 20
19245.488363999732
 30
0.0
 11
19731.011808585259
 21
19245.488363999732
 31
0.0
  0
LINE
  5
109BD
  8
2-0
  6
CONTINUOUS
 62
     3
 10
19731.011808585259
 20
19275.48796799971
 30
0.0
 11
19812.013708585258
 21
19275.487967999728
 31
0.0
  0
LINE
  5
109BE
  8
2-0
  6
CONTINUOUS
 62
     3
 10
19761.009432585251
 20
19235.190907999731
 30
0.0
 11
19731.011808585259
 21
19235.190907999731
 31
0.0
  0
LINE
  5
109BF
  8
2-0
  6
CONTINUOUS
 62
     3
 10
19761.009432585251
 20
19253.19264999975
 30
0.0
 11
19761.009432585251
 21
19235.190907999731
 31
0.0
  0
LINE
  5
109C0
  8
2-0
  6
CONTINUOUS
 62
     3
 10
19736.01207258525
 20
19253.19264999975
 30
0.0
 11
19761.009432585251
 21
19253.19264999975
 31
0.0
  0
LINE
  5
109C1
  8
2-0
  6
CONTINUOUS
 62
     3
 10
19736.01207258525
 20
19248.184467999748
 30
0.0
 11
19736.01207258525
 21
19253.19264999975
 31
0.0
  0
LINE
  5
109C2
  8
2-0
  6
CONTINUOUS
 62
     3
 10
19743.013629585232
 20
19248.184467999748
 30
0.0
 11
19736.01207258525
 21
19248.184467999748
 31
0.0
  0
LINE
  5
109C3
  8
2-0
  6
CONTINUOUS
 62
     3
 10
19843.309897585241
 20
19348.484694999741
 30
0.0
 11
19843.309897585241
 21
19355.490210999738
 31
0.0
  0
LINE
  5
109C4
  8
2-0
  6
CONTINUOUS
 62
     3
 10
19843.309897585241
 20
19355.490210999738
 30
0.0
 11
19838.309633585261
 21
19355.490210999738
 31
0.0
  0
LINE
  5
109C5
  8
2-0
  6
CONTINUOUS
 62
     3
 10
19838.309633585261
 20
19355.490210999738
 30
0.0
 11
19838.309633585261
 21
19330.480973999751
 31
0.0
  0
LINE
  5
109C6
  8
2-0
  6
CONTINUOUS
 62
     3
 10
19838.309633585261
 20
19330.480973999751
 30
0.0
 11
19856.311375585261
 21
19330.480973999751
 31
0.0
  0
LINE
  5
109C7
  8
2-0
  6
CONTINUOUS
 62
     3
 10
19856.311375585261
 20
19330.480973999751
 30
0.0
 11
19856.311375585261
 21
19360.484536999738
 31
0.0
  0
LINE
  5
109C8
  8
2-0
  6
CONTINUOUS
 62
     3
 10
19846.013919585239
 20
19360.484536999738
 30
0.0
 11
19731.011808585248
 21
19360.484536999731
 31
0.0
  0
LINE
  5
109C9
  8
2-0
  6
CONTINUOUS
 62
     3
 10
19846.013919585239
 20
19330.480973999751
 30
0.0
 11
19846.013919585239
 21
19360.484536999738
 31
0.0
  0
LINE
  5
109CA
  8
2-0
  6
CONTINUOUS
 62
     3
 10
19840.01201958524
 20
19330.480973999751
 30
0.0
 11
19846.013919585239
 21
19330.480973999751
 31
0.0
  0
LINE
  5
109CB
  8
2-0
  6
CONTINUOUS
 62
     3
 10
19743.01362958525
 20
18894.887645499719
 30
0.0
 11
19736.012072585261
 21
18894.887645499719
 31
0.0
  0
LINE
  5
109CC
  8
2-0
  6
CONTINUOUS
 62
     3
 10
19736.012072585261
 20
18894.887645499719
 30
0.0
 11
19736.012072585261
 21
18899.887909499721
 31
0.0
  0
LINE
  5
109CD
  8
2-0
  6
CONTINUOUS
 62
     3
 10
19736.012072585261
 20
18899.887909499721
 30
0.0
 11
19761.009432585259
 21
18899.887909499721
 31
0.0
  0
LINE
  5
109CE
  8
2-0
  6
CONTINUOUS
 62
     3
 10
19761.009432585259
 20
18899.887909499721
 30
0.0
 11
19761.009432585259
 21
18881.89210549973
 31
0.0
  0
LINE
  5
109CF
  8
2-0
  6
CONTINUOUS
 62
     3
 10
19761.009432585259
 20
18881.89210549973
 30
0.0
 11
19731.01180858527
 21
18881.89210549973
 31
0.0
  0
LINE
  5
109D0
  8
2-0
  6
CONTINUOUS
 62
     3
 10
19761.009432585259
 20
18897.983612499698
 30
0.0
 11
19761.009432585259
 21
18891.98567149973
 31
0.0
  0
LINE
  5
109D1
  8
2-0
  6
CONTINUOUS
 62
     3
 10
19761.009432585259
 20
18891.98567149973
 30
0.0
 11
19731.01180858527
 21
18891.98567149973
 31
0.0
  0
LINE
  5
109D2
  8
2-0
  6
CONTINUOUS
 62
     3
 10
19731.01180858527
 20
18891.98567149973
 30
0.0
 11
19731.01180858527
 21
18928.98683249973
 31
0.0
  0
LINE
  5
109D3
  8
2-0
  6
CONTINUOUS
 62
     3
 10
19761.009432585259
 20
18928.98683249973
 30
0.0
 11
19731.01180858527
 21
18928.98683249973
 31
0.0
  0
LINE
  5
109D4
  8
2-0
  6
CONTINUOUS
 62
     3
 10
19761.009432585259
 20
18922.982952499711
 30
0.0
 11
19761.009432585259
 21
18928.98683249973
 31
0.0
  0
LINE
  5
109D5
  8
2-0
  6
CONTINUOUS
 62
     3
 10
19761.009432585259
 20
18939.08237749973
 30
0.0
 11
19731.01180858527
 21
18939.08237749973
 31
0.0
  0
LINE
  5
109D6
  8
2-0
  6
CONTINUOUS
 62
     3
 10
19761.009432585259
 20
18921.080635499718
 30
0.0
 11
19761.009432585259
 21
18939.08237749973
 31
0.0
  0
LINE
  5
109D7
  8
2-0
  6
CONTINUOUS
 62
     3
 10
19736.012072585261
 20
18921.080635499718
 30
0.0
 11
19761.009432585259
 21
18921.080635499718
 31
0.0
  0
LINE
  5
109D8
  8
2-0
  6
CONTINUOUS
 62
     3
 10
19736.012072585261
 20
18926.080899499731
 30
0.0
 11
19736.012072585261
 21
18921.080635499718
 31
0.0
  0
LINE
  5
109D9
  8
2-0
  6
CONTINUOUS
 62
     3
 10
19743.01362958525
 20
18926.080899499731
 30
0.0
 11
19736.012072585261
 21
18926.080899499731
 31
0.0
  0
LINE
  5
109DA
  8
2-0
  6
CONTINUOUS
 62
     3
 10
19743.013629585272
 20
18193.88665599973
 30
0.0
 11
19736.01207258529
 21
18193.88665599973
 31
0.0
  0
LINE
  5
109DB
  8
2-0
  6
CONTINUOUS
 62
     3
 10
19736.01207258529
 20
18193.88665599973
 30
0.0
 11
19736.01207258529
 21
18198.89285799973
 31
0.0
  0
LINE
  5
109DC
  8
2-0
  6
CONTINUOUS
 62
     3
 10
19736.01207258529
 20
18198.89285799973
 30
0.0
 11
19761.009432585281
 21
18198.89285799973
 31
0.0
  0
LINE
  5
109DD
  8
2-0
  6
CONTINUOUS
 62
     3
 10
19761.009432585281
 20
18198.89285799973
 30
0.0
 11
19761.009432585281
 21
18180.89111599973
 31
0.0
  0
LINE
  5
109DE
  8
2-0
  6
CONTINUOUS
 62
     3
 10
19761.009432585281
 20
18180.89111599973
 30
0.0
 11
19731.011808585299
 21
18180.89111599973
 31
0.0
  0
LINE
  5
109DF
  8
2-0
  6
CONTINUOUS
 62
     3
 10
19761.009432585281
 20
18196.982622999731
 30
0.0
 11
19761.009432585281
 21
18190.986660999719
 31
0.0
  0
LINE
  5
109E0
  8
2-0
  6
CONTINUOUS
 62
     3
 10
19761.009432585281
 20
18190.986660999719
 30
0.0
 11
19731.011808585299
 21
18190.986660999719
 31
0.0
  0
LINE
  5
109E1
  8
2-0
  6
CONTINUOUS
 62
     3
 10
19731.011808585299
 20
18190.986660999719
 30
0.0
 11
19731.011808585299
 21
18227.985842999718
 31
0.0
  0
LINE
  5
109E2
  8
2-0
  6
CONTINUOUS
 62
     3
 10
19761.009432585281
 20
18227.985842999718
 30
0.0
 11
19731.011808585299
 21
18227.985842999718
 31
0.0
  0
LINE
  5
109E3
  8
2-0
  6
CONTINUOUS
 62
     3
 10
19761.009432585281
 20
18221.98988099975
 30
0.0
 11
19761.009432585281
 21
18227.985842999718
 31
0.0
  0
LINE
  5
109E4
  8
2-0
  6
CONTINUOUS
 62
     3
 10
19761.009432585281
 20
18238.081387999729
 30
0.0
 11
19731.011808585299
 21
18238.081387999729
 31
0.0
  0
LINE
  5
109E5
  8
2-0
  6
CONTINUOUS
 62
     3
 10
19761.009432585281
 20
18220.079645999718
 30
0.0
 11
19761.009432585281
 21
18238.081387999729
 31
0.0
  0
LINE
  5
109E6
  8
2-0
  6
CONTINUOUS
 62
     3
 10
19736.01207258529
 20
18220.079645999718
 30
0.0
 11
19761.009432585281
 21
18220.079645999718
 31
0.0
  0
LINE
  5
109E7
  8
2-0
  6
CONTINUOUS
 62
     3
 10
19736.01207258529
 20
18225.08584799973
 30
0.0
 11
19736.01207258529
 21
18220.079645999718
 31
0.0
  0
LINE
  5
109E8
  8
2-0
  6
CONTINUOUS
 62
     3
 10
19743.013629585272
 20
18225.08584799973
 30
0.0
 11
19736.01207258529
 21
18225.08584799973
 31
0.0
  0
LINE
  5
109E9
  8
2-0
  6
CONTINUOUS
 62
     3
 10
19743.013629585301
 20
17524.079909999731
 30
0.0
 11
19736.012072585308
 21
17524.079909999731
 31
0.0
  0
LINE
  5
109EA
  8
2-0
  6
CONTINUOUS
 62
     3
 10
19736.012072585308
 20
17524.079909999731
 30
0.0
 11
19736.012072585308
 21
17519.091522999741
 31
0.0
  0
LINE
  5
109EB
  8
2-0
  6
CONTINUOUS
 62
     3
 10
19736.012072585308
 20
17519.091522999741
 30
0.0
 11
19761.00943258531
 21
17519.091522999741
 31
0.0
  0
LINE
  5
109EC
  8
2-0
  6
CONTINUOUS
 62
     3
 10
19761.00943258531
 20
17519.091522999741
 30
0.0
 11
19761.00943258531
 21
17537.087325999732
 31
0.0
  0
LINE
  5
109ED
  8
2-0
  6
CONTINUOUS
 62
     3
 10
19761.00943258531
 20
17537.087325999732
 30
0.0
 11
19731.011808585321
 21
17537.087325999732
 31
0.0
  0
LINE
  5
109EE
  8
2-0
  6
CONTINUOUS
 62
     3
 10
19761.00943258531
 20
17520.98988099971
 30
0.0
 11
19761.00943258531
 21
17526.985842999718
 31
0.0
  0
LINE
  5
109EF
  8
2-0
  6
CONTINUOUS
 62
     3
 10
19761.00943258531
 20
17526.985842999718
 30
0.0
 11
19731.011808585321
 21
17526.985842999718
 31
0.0
  0
LINE
  5
109F0
  8
2-0
  6
CONTINUOUS
 62
     3
 10
19731.011808585321
 20
17526.985842999718
 30
0.0
 11
19731.011808585328
 21
17489.986660999752
 31
0.0
  0
LINE
  5
109F1
  8
2-0
  6
CONTINUOUS
 62
     3
 10
19761.00943258531
 20
17489.986660999752
 30
0.0
 11
19731.011808585328
 21
17489.986660999752
 31
0.0
  0
LINE
  5
109F2
  8
2-0
  6
CONTINUOUS
 62
     3
 10
19761.00943258531
 20
17495.988561999711
 30
0.0
 11
19761.00943258531
 21
17489.986660999752
 31
0.0
  0
LINE
  5
109F3
  8
2-0
  6
CONTINUOUS
 62
     3
 10
19761.00943258531
 20
17479.89705499971
 30
0.0
 11
19731.011808585328
 21
17479.89705499971
 31
0.0
  0
LINE
  5
109F4
  8
2-0
  6
CONTINUOUS
 62
     3
 10
19761.00943258531
 20
17497.89285799973
 30
0.0
 11
19761.00943258531
 21
17479.89705499971
 31
0.0
  0
LINE
  5
109F5
  8
2-0
  6
CONTINUOUS
 62
     3
 10
19736.012072585319
 20
17497.89285799973
 30
0.0
 11
19761.00943258531
 21
17497.89285799973
 31
0.0
  0
LINE
  5
109F6
  8
2-0
  6
CONTINUOUS
 62
     3
 10
19736.012072585319
 20
17492.892594999721
 30
0.0
 11
19736.012072585319
 21
17497.89285799973
 31
0.0
  0
LINE
  5
109F7
  8
2-0
  6
CONTINUOUS
 62
     3
 10
19743.013629585301
 20
17492.892594999721
 30
0.0
 11
19736.012072585319
 21
17492.892594999721
 31
0.0
  0
LINE
  5
109F8
  8
2-0
  6
CONTINUOUS
 62
     3
 10
19733.89794658533
 20
16772.98348099973
 30
0.0
 11
19733.89794658533
 21
16792.984535999731
 31
0.0
  0
LINE
  5
109F9
  8
2-0
  6
CONTINUOUS
 62
     3
 10
19733.89794658533
 20
16792.984535999731
 30
0.0
 11
19818.894515585351
 21
16792.984535999742
 31
0.0
  0
LINE
  5
109FA
  8
2-0
  6
CONTINUOUS
 62
     3
 10
19743.01362958533
 20
16819.591245999731
 30
0.0
 11
19736.012072585341
 21
16819.591245999731
 31
0.0
  0
LINE
  5
109FB
  8
2-0
  6
CONTINUOUS
 62
     3
 10
19736.012072585341
 20
16819.591245999731
 30
0.0
 11
19736.012072585341
 21
16814.596919999731
 31
0.0
  0
LINE
  5
109FC
  8
2-0
  6
CONTINUOUS
 62
     3
 10
19736.012072585341
 20
16814.596919999731
 30
0.0
 11
19761.009432585339
 21
16814.596919999731
 31
0.0
  0
LINE
  5
109FD
  8
2-0
  6
CONTINUOUS
 62
     3
 10
19761.009432585339
 20
16814.596919999731
 30
0.0
 11
19761.009432585339
 21
16832.592723999729
 31
0.0
  0
LINE
  5
109FE
  8
2-0
  6
CONTINUOUS
 62
     3
 10
19761.009432585339
 20
16832.592723999729
 30
0.0
 11
19731.01180858535
 21
16832.592723999729
 31
0.0
  0
LINE
  5
109FF
  8
2-0
  6
CONTINUOUS
 62
     3
 10
19761.009432585339
 20
16822.98413999972
 30
0.0
 11
19761.009432585339
 21
16816.982239999721
 31
0.0
  0
LINE
  5
10A00
  8
2-0
  6
CONTINUOUS
 62
     3
 10
19731.01180858535
 20
16822.98413999972
 30
0.0
 11
19761.009432585339
 21
16822.98413999972
 31
0.0
  0
LINE
  5
10A01
  8
2-0
  6
CONTINUOUS
 62
     3
 10
19731.01180858535
 20
16832.592723999729
 30
0.0
 11
19731.011808585328
 21
17479.89705499971
 31
0.0
  0
LINE
  5
10A02
  8
2-0
  6
CONTINUOUS
 62
     3
 10
19731.011808585321
 20
17537.087325999732
 30
0.0
 11
19731.011808585299
 21
18180.89111599973
 31
0.0
  0
LINE
  5
10A03
  8
2-0
  6
CONTINUOUS
 62
     3
 10
19731.011808585361
 20
16677.982424999751
 30
0.0
 11
19761.00943258535
 21
16677.982424999751
 31
0.0
  0
LINE
  5
10A04
  8
2-0
  6
CONTINUOUS
 62
     3
 10
19761.00943258535
 20
16677.982424999751
 30
0.0
 11
19761.00943258535
 21
16683.984324999721
 31
0.0
  0
LINE
  5
10A05
  8
2-0
  6
CONTINUOUS
 62
     3
 10
19818.894515585362
 20
16707.987967999728
 30
0.0
 11
19733.89794658533
 21
16707.987967999721
 31
0.0
  0
LINE
  5
10A06
  8
2-0
  6
CONTINUOUS
 62
     3
 10
19733.89794658533
 20
16707.987967999721
 30
0.0
 11
19733.89794658533
 21
16727.983084999749
 31
0.0
  0
LINE
  5
10A07
  8
2-0
  6
CONTINUOUS
 62
     3
 10
19761.00943258535
 20
16668.373841999732
 30
0.0
 11
19731.011808585361
 21
16668.373841999732
 31
0.0
  0
LINE
  5
10A08
  8
2-0
  6
CONTINUOUS
 62
     3
 10
19761.00943258535
 20
16686.369644999701
 30
0.0
 11
19761.00943258535
 21
16668.373841999732
 31
0.0
  0
LINE
  5
10A09
  8
2-0
  6
CONTINUOUS
 62
     3
 10
19736.012072585349
 20
16686.369644999701
 30
0.0
 11
19761.00943258535
 21
16686.369644999701
 31
0.0
  0
LINE
  5
10A0A
  8
2-0
  6
CONTINUOUS
 62
     3
 10
19736.012072585349
 20
16681.369380999731
 30
0.0
 11
19736.012072585349
 21
16686.369644999701
 31
0.0
  0
LINE
  5
10A0B
  8
2-0
  6
CONTINUOUS
 62
     3
 10
19743.01362958533
 20
16681.369380999731
 30
0.0
 11
19736.012072585349
 21
16681.369380999731
 31
0.0
  0
LINE
  5
10A0C
  8
2-0
  6
CONTINUOUS
 62
     3
 10
19743.013629585359
 20
15976.887150499721
 30
0.0
 11
19736.01207258537
 21
15976.88715049971
 31
0.0
  0
LINE
  5
10A0D
  8
2-0
  6
CONTINUOUS
 62
     3
 10
19736.01207258537
 20
15976.88715049971
 30
0.0
 11
19736.01207258537
 21
15981.887414499721
 31
0.0
  0
LINE
  5
10A0E
  8
2-0
  6
CONTINUOUS
 62
     3
 10
19736.01207258537
 20
15981.887414499721
 30
0.0
 11
19761.009432585361
 21
15981.88741449973
 31
0.0
  0
LINE
  5
10A0F
  8
2-0
  6
CONTINUOUS
 62
     3
 10
19761.009432585361
 20
15981.88741449973
 30
0.0
 11
19761.009432585361
 21
15963.885672499729
 31
0.0
  0
LINE
  5
10A10
  8
2-0
  6
CONTINUOUS
 62
     3
 10
19761.009432585361
 20
15963.885672499729
 30
0.0
 11
19731.011808585379
 21
15963.885672499729
 31
0.0
  0
LINE
  5
10A11
  8
2-0
  6
CONTINUOUS
 62
     3
 10
19761.009432585361
 20
15979.983117499731
 30
0.0
 11
19761.009432585361
 21
15973.98616649973
 31
0.0
  0
LINE
  5
10A12
  8
2-0
  6
CONTINUOUS
 62
     3
 10
19761.009432585361
 20
15973.98616649973
 30
0.0
 11
19731.011808585379
 21
15973.98616649973
 31
0.0
  0
LINE
  5
10A13
  8
2-0
  6
CONTINUOUS
 62
     3
 10
19731.011808585379
 20
15973.98616649973
 30
0.0
 11
19731.011808585379
 21
16010.986337499729
 31
0.0
  0
LINE
  5
10A14
  8
2-0
  6
CONTINUOUS
 62
     3
 10
19761.009432585361
 20
16010.986337499729
 30
0.0
 11
19731.011808585379
 21
16010.986337499729
 31
0.0
  0
LINE
  5
10A15
  8
2-0
  6
CONTINUOUS
 62
     3
 10
19761.009432585361
 20
16004.983447499721
 30
0.0
 11
19761.009432585361
 21
16010.986337499729
 31
0.0
  0
LINE
  5
10A16
  8
2-0
  6
CONTINUOUS
 62
     3
 10
19761.009432585361
 20
16021.08188249973
 30
0.0
 11
19731.011808585379
 21
16021.08188249973
 31
0.0
  0
LINE
  5
10A17
  8
2-0
  6
CONTINUOUS
 62
     3
 10
19761.009432585361
 20
16003.07420149973
 30
0.0
 11
19761.009432585361
 21
16021.08188249973
 31
0.0
  0
LINE
  5
10A18
  8
2-0
  6
CONTINUOUS
 62
     3
 10
19736.01207258537
 20
16003.07420149973
 30
0.0
 11
19761.009432585361
 21
16003.07420149973
 31
0.0
  0
LINE
  5
10A19
  8
2-0
  6
CONTINUOUS
 62
     3
 10
19736.01207258537
 20
16008.080404499729
 30
0.0
 11
19736.01207258537
 21
16003.07420149973
 31
0.0
  0
LINE
  5
10A1A
  8
2-0
  6
CONTINUOUS
 62
     3
 10
19743.013629585359
 20
16008.080404499729
 30
0.0
 11
19736.01207258537
 21
16008.080404499729
 31
0.0
  0
LINE
  5
10A1B
  8
2-0
  6
CONTINUOUS
 62
     3
 10
19743.013629585381
 20
15307.320420999749
 30
0.0
 11
19736.012072585399
 21
15307.320420999749
 31
0.0
  0
LINE
  5
10A1C
  8
2-0
  6
CONTINUOUS
 62
     3
 10
19736.012072585399
 20
15307.320420999749
 30
0.0
 11
19736.012072585399
 21
15302.326095999741
 31
0.0
  0
LINE
  5
10A1D
  8
2-0
  6
CONTINUOUS
 62
     3
 10
19736.012072585399
 20
15302.326095999741
 30
0.0
 11
19761.009432585401
 21
15302.32609599975
 31
0.0
  0
LINE
  5
10A1E
  8
2-0
  6
CONTINUOUS
 62
     3
 10
19761.009432585401
 20
15302.32609599975
 30
0.0
 11
19761.00943258539
 21
15320.321898999749
 31
0.0
  0
LINE
  5
10A1F
  8
2-0
  6
CONTINUOUS
 62
     3
 10
19761.00943258539
 20
15320.321898999749
 30
0.0
 11
19731.011808585408
 21
15320.321898999749
 31
0.0
  0
LINE
  5
10A20
  8
2-0
  6
CONTINUOUS
 62
     3
 10
19761.009432585401
 20
15304.22445399973
 30
0.0
 11
19761.00943258539
 21
15310.226353999749
 31
0.0
  0
LINE
  5
10A21
  8
2-0
  6
CONTINUOUS
 62
     3
 10
19761.00943258539
 20
15310.226353999749
 30
0.0
 11
19731.011808585408
 21
15310.22635399974
 31
0.0
  0
LINE
  5
10A22
  8
2-0
  6
CONTINUOUS
 62
     3
 10
19731.011808585408
 20
15273.22717299975
 30
0.0
 11
19731.011808585408
 21
15310.22635399974
 31
0.0
  0
LINE
  5
10A23
  8
2-0
  6
CONTINUOUS
 62
     3
 10
19761.009432585401
 20
15273.22717299975
 30
0.0
 11
19731.011808585408
 21
15273.22717299975
 31
0.0
  0
LINE
  5
10A24
  8
2-0
  6
CONTINUOUS
 62
     3
 10
19761.009432585401
 20
15279.224123999749
 30
0.0
 11
19761.009432585401
 21
15273.22717299975
 31
0.0
  0
LINE
  5
10A25
  8
2-0
  6
CONTINUOUS
 62
     3
 10
19761.009432585401
 20
15263.125688999749
 30
0.0
 11
19731.011808585408
 21
15263.125688999749
 31
0.0
  0
LINE
  5
10A26
  8
2-0
  6
CONTINUOUS
 62
     3
 10
19761.009432585401
 20
15281.13336999973
 30
0.0
 11
19761.009432585401
 21
15263.125688999749
 31
0.0
  0
LINE
  5
10A27
  8
2-0
  6
CONTINUOUS
 62
     3
 10
19736.012072585399
 20
15281.13336999973
 30
0.0
 11
19761.009432585401
 21
15281.13336999973
 31
0.0
  0
LINE
  5
10A28
  8
2-0
  6
CONTINUOUS
 62
     3
 10
19736.012072585399
 20
15276.13310599975
 30
0.0
 11
19736.012072585399
 21
15281.13336999973
 31
0.0
  0
LINE
  5
10A29
  8
2-0
  6
CONTINUOUS
 62
     3
 10
19743.013629585392
 20
15276.133105999759
 30
0.0
 11
19736.012072585399
 21
15276.13310599975
 31
0.0
  0
LINE
  5
10A2A
  8
2-0
  6
CONTINUOUS
 62
     3
 10
19731.011808585361
 20
16668.373841999732
 30
0.0
 11
19731.011808585379
 21
16021.08188249973
 31
0.0
  0
LINE
  5
10A2B
  8
2-0
  6
CONTINUOUS
 62
     3
 10
19731.01180858535
 20
16822.98413999972
 30
0.0
 11
19731.011808585361
 21
16677.982424999751
 31
0.0
  0
LINE
  5
10A2C
  8
2-0
  6
CONTINUOUS
 62
     3
 10
19818.894515585351
 20
16792.984535999742
 30
0.0
 11
19818.894515585362
 21
16707.987967999728
 31
0.0
  0
LINE
  5
10A2D
  8
2-0
  6
CONTINUOUS
 62
     6
 10
21357.10318258527
 20
18561.43180149977
 30
0.0
 11
20332.070850585282
 21
18561.431801499741
 31
0.0
  0
LINE
  5
10A2E
  8
2-0
  6
CONTINUOUS
 62
     3
 10
19743.01362958541
 20
14574.89209899973
 30
0.0
 11
19736.012072585429
 21
14574.89209899973
 31
0.0
  0
LINE
  5
10A2F
  8
2-0
  6
CONTINUOUS
 62
     3
 10
19736.012072585429
 20
14574.89209899973
 30
0.0
 11
19736.012072585429
 21
14579.88642499975
 31
0.0
  0
LINE
  5
10A30
  8
2-0
  6
CONTINUOUS
 62
     3
 10
19736.012072585429
 20
14579.88642499975
 30
0.0
 11
19761.00943258543
 21
14579.88642499975
 31
0.0
  0
LINE
  5
10A31
  8
2-0
  6
CONTINUOUS
 62
     3
 10
19761.00943258543
 20
14579.88642499975
 30
0.0
 11
19761.00943258543
 21
14561.890620999729
 31
0.0
  0
LINE
  5
10A32
  8
2-0
  6
CONTINUOUS
 62
     3
 10
19761.00943258543
 20
14561.890620999729
 30
0.0
 11
19731.011808585441
 21
14561.890620999729
 31
0.0
  0
LINE
  5
10A33
  8
2-0
  6
CONTINUOUS
 62
     3
 10
19761.00943258543
 20
14577.989055999749
 30
0.0
 11
19761.00943258543
 21
14571.98616599975
 31
0.0
  0
LINE
  5
10A34
  8
2-0
  6
CONTINUOUS
 62
     3
 10
19761.00943258543
 20
14571.98616599975
 30
0.0
 11
19731.011808585441
 21
14571.98616599975
 31
0.0
  0
LINE
  5
10A35
  8
2-0
  6
CONTINUOUS
 62
     3
 10
19731.011808585441
 20
14571.98616599975
 30
0.0
 11
19731.011808585441
 21
14608.98633799972
 31
0.0
  0
LINE
  5
10A36
  8
2-0
  6
CONTINUOUS
 62
     3
 10
19761.00943258543
 20
14608.98633799972
 30
0.0
 11
19731.011808585441
 21
14608.98633799972
 31
0.0
  0
LINE
  5
10A37
  8
2-0
  6
CONTINUOUS
 62
     3
 10
19761.00943258543
 20
14602.98938599973
 30
0.0
 11
19761.00943258543
 21
14608.98633799972
 31
0.0
  0
LINE
  5
10A38
  8
2-0
  6
CONTINUOUS
 62
     3
 10
19761.00943258543
 20
14619.08683099975
 30
0.0
 11
19731.011808585441
 21
14619.08683099975
 31
0.0
  0
LINE
  5
10A39
  8
2-0
  6
CONTINUOUS
 62
     3
 10
19761.00943258543
 20
14601.080139999751
 30
0.0
 11
19761.00943258543
 21
14619.08683099975
 31
0.0
  0
LINE
  5
10A3A
  8
2-0
  6
CONTINUOUS
 62
     3
 10
19736.012072585429
 20
14601.08013999974
 30
0.0
 11
19761.00943258543
 21
14601.080139999751
 31
0.0
  0
LINE
  5
10A3B
  8
2-0
  6
CONTINUOUS
 62
     3
 10
19736.012072585429
 20
14606.085352999749
 30
0.0
 11
19736.012072585429
 21
14601.08013999974
 31
0.0
  0
LINE
  5
10A3C
  8
2-0
  6
CONTINUOUS
 62
     3
 10
19743.01362958541
 20
14606.085352999749
 30
0.0
 11
19736.012072585429
 21
14606.085352999749
 31
0.0
  0
LINE
  5
10A3D
  8
2-0
  6
CONTINUOUS
 62
     3
 10
19761.009432585441
 20
13898.98817899974
 30
0.0
 11
19761.009432585441
 21
13904.993047999729
 31
0.0
  0
LINE
  5
10A3E
  8
2-0
  6
CONTINUOUS
 62
     3
 10
19761.009432585441
 20
13904.993047999729
 30
0.0
 11
19731.011808585459
 21
13904.993047999729
 31
0.0
  0
LINE
  5
10A3F
  8
2-0
  6
CONTINUOUS
 62
     3
 10
19731.011808585459
 20
13904.993047999729
 30
0.0
 11
19731.01180858547
 21
13789.98895699973
 31
0.0
  0
LINE
  5
10A40
  8
2-0
  6
CONTINUOUS
 62
     3
 10
19731.01180858547
 20
13789.98895699973
 30
0.0
 11
19816.010356585452
 21
13789.988956999739
 31
0.0
  0
LINE
  5
10A41
  8
2-0
  6
CONTINUOUS
 62
     3
 10
19816.010356585452
 20
13789.988956999739
 30
0.0
 11
19816.010356585452
 21
13874.98453599974
 31
0.0
  0
LINE
  5
10A42
  8
2-0
  6
CONTINUOUS
 62
     3
 10
19816.010356585452
 20
13874.98453599974
 30
0.0
 11
19784.011438585461
 21
13874.98453599974
 31
0.0
  0
LINE
  5
10A43
  8
2-0
  6
CONTINUOUS
 62
     3
 10
19743.013629585439
 20
13902.02278099974
 30
0.0
 11
19736.01207258545
 21
13902.02278099973
 31
0.0
  0
LINE
  5
10A44
  8
2-0
  6
CONTINUOUS
 62
     3
 10
19736.01207258545
 20
13902.02278099973
 30
0.0
 11
19736.01207258545
 21
13897.025485999709
 31
0.0
  0
LINE
  5
10A45
  8
2-0
  6
CONTINUOUS
 62
     3
 10
19736.01207258545
 20
13897.025485999709
 30
0.0
 11
19761.009432585441
 21
13897.02548599972
 31
0.0
  0
LINE
  5
10A46
  8
2-0
  6
CONTINUOUS
 62
     3
 10
19761.009432585441
 20
13897.02548599972
 30
0.0
 11
19761.009432585441
 21
13915.024258999731
 31
0.0
  0
LINE
  5
10A47
  8
2-0
  6
CONTINUOUS
 62
     3
 10
19761.009432585441
 20
13915.024258999731
 30
0.0
 11
19731.011808585459
 21
13915.024258999731
 31
0.0
  0
LINE
  5
10A48
  8
2-0
  6
CENTER2
 62
     6
 10
19773.510092585449
 20
13592.491398999729
 30
0.0
 11
19773.510092585399
 21
14748.360156999761
 31
0.0
  0
LINE
  5
10A49
  8
2-0
  6
CONTINUOUS
 62
     3
 10
19731.011808585299
 20
18238.081387999729
 30
0.0
 11
19731.01180858527
 21
18881.89210549973
 31
0.0
  0
LINE
  5
10A4A
  8
2-0
  6
CONTINUOUS
 62
     6
 10
19038.506925585221
 20
20090.487439999739
 30
0.0
 11
17838.512863585242
 21
20090.487439999692
 31
0.0
  0
LINE
  5
10A4B
  8
2-0
  6
CONTINUOUS
 62
     6
 10
19900.539758585281
 20
18803.58630949974
 30
0.0
 11
20332.070850585282
 21
18561.431801499741
 31
0.0
  0
LINE
  5
10A4C
  8
2-0
  6
CONTINUOUS
 62
     6
 10
19578.970924585268
 20
19503.164276999731
 30
0.0
 11
19038.506925585221
 21
20090.487439999739
 31
0.0
  0
LINE
  5
10A4D
  8
2-0
  6
CONTINUOUS
 62
     3
 10
19731.011808585379
 20
15963.885672499729
 30
0.0
 11
19731.011808585408
 21
15320.321898999749
 31
0.0
  0
LINE
  5
10A4E
  8
2-0
  6
CONTINUOUS
 62
     6
 10
19913.596663585271
 20
18826.845653499739
 30
0.0
 11
19761.009432585259
 21
18881.89210549973
 31
0.0
  0
LINE
  5
10A4F
  8
2-0
  6
CONTINUOUS
 62
     6
 10
19761.009432585259
 20
18881.89210549973
 30
0.0
 11
19887.490772585272
 21
18780.332905499719
 31
0.0
  0
LINE
  5
10A50
  8
2-0
  6
CONTINUOUS
 62
     6
 10
19913.596663585271
 20
18826.845653499739
 30
0.0
 11
19887.490772585272
 21
18780.332905499719
 31
0.0
  0
LINE
  5
10A51
  8
2-0
  6
CONTINUOUS
 62
     6
 10
19887.490772585272
 20
18780.332905499719
 30
0.0
 11
19761.009432585259
 21
18881.89210549973
 31
0.0
  0
LINE
  5
10A52
  8
2-0
  6
CONTINUOUS
 62
     6
 10
19761.009432585259
 20
18881.89210549973
 30
0.0
 11
19913.596663585271
 21
18826.845653499739
 31
0.0
  0
LINE
  5
10A53
  8
2-0
  6
CONTINUOUS
 62
     6
 10
19913.596663585271
 20
18826.845653499739
 30
0.0
 11
19761.009432585259
 21
18881.89210549973
 31
0.0
  0
LINE
  5
10A54
  8
2-0
  6
CONTINUOUS
 62
     6
 10
19887.490772585272
 20
18780.332905499719
 30
0.0
 11
19761.009432585259
 21
18881.89210549973
 31
0.0
  0
LINE
  5
10A55
  8
2-0
  6
CONTINUOUS
 62
     6
 10
19887.490772585272
 20
18780.332905499719
 30
0.0
 11
19913.596663585271
 21
18826.845653499739
 31
0.0
  0
LINE
  5
10A56
  8
2-0
  6
CONTINUOUS
 62
     6
 10
19559.353895585238
 20
19485.103149999752
 30
0.0
 11
19687.315915585241
 21
19385.420531999731
 31
0.0
  0
LINE
  5
10A57
  8
2-0
  6
CONTINUOUS
 62
     6
 10
19687.315915585241
 20
19385.420531999731
 30
0.0
 11
19598.601810585249
 21
19521.217486999751
 31
0.0
  0
LINE
  5
10A58
  8
2-0
  6
CONTINUOUS
 62
     6
 10
19559.353895585238
 20
19485.103149999752
 30
0.0
 11
19598.601810585249
 21
19521.217486999751
 31
0.0
  0
LINE
  5
10A59
  8
2-0
  6
CONTINUOUS
 62
     6
 10
19598.601810585249
 20
19521.217486999751
 30
0.0
 11
19687.315915585241
 21
19385.420531999731
 31
0.0
  0
LINE
  5
10A5A
  8
2-0
  6
CONTINUOUS
 62
     6
 10
19687.315915585241
 20
19385.420531999731
 30
0.0
 11
19559.353895585238
 21
19485.103149999752
 31
0.0
  0
LINE
  5
10A5B
  8
2-0
  6
CONTINUOUS
 62
     6
 10
19559.353895585238
 20
19485.103149999752
 30
0.0
 11
19687.315915585241
 21
19385.420531999731
 31
0.0
  0
LINE
  5
10A5C
  8
2-0
  6
CONTINUOUS
 62
     6
 10
19598.601810585249
 20
19521.217486999751
 30
0.0
 11
19687.315915585241
 21
19385.420531999731
 31
0.0
  0
LINE
  5
10A5D
  8
2-0
  6
CONTINUOUS
 62
     6
 10
19598.601810585249
 20
19521.217486999751
 30
0.0
 11
19559.353895585238
 21
19485.103149999752
 31
0.0
  0
LINE
  5
10A5E
  8
2-0
  6
CONTINUOUS
 62
     4
 10
22341.010092585231
 20
19440.48677999985
 30
0.0
 11
22341.010092585198
 21
20240.483480999781
 31
0.0
  0
LINE
  5
10A5F
  8
2-0
  6
CONTINUOUS
 62
     6
 10
20007.649529585458
 20
13681.716218999731
 30
0.0
 11
19875.902670585441
 21
13776.343145999739
 31
0.0
  0
LINE
  5
10A60
  8
2-0
  6
CONTINUOUS
 62
     6
 10
19875.902670585441
 20
13776.343145999739
 30
0.0
 11
19969.832806585451
 21
13644.104375999719
 31
0.0
  0
LINE
  5
10A61
  8
2-0
  6
CONTINUOUS
 62
     6
 10
20007.649529585458
 20
13681.716218999731
 30
0.0
 11
19969.832806585451
 21
13644.104375999719
 31
0.0
  0
LINE
  5
10A62
  8
2-0
  6
CONTINUOUS
 62
     6
 10
19969.832806585451
 20
13644.104375999719
 30
0.0
 11
19875.902670585441
 21
13776.343145999739
 31
0.0
  0
LINE
  5
10A63
  8
2-0
  6
CONTINUOUS
 62
     6
 10
19875.902670585441
 20
13776.343145999739
 30
0.0
 11
20007.649529585458
 21
13681.716218999731
 31
0.0
  0
LINE
  5
10A64
  8
2-0
  6
CONTINUOUS
 62
     6
 10
20007.649529585458
 20
13681.716218999731
 30
0.0
 11
19875.902670585441
 21
13776.343145999739
 31
0.0
  0
LINE
  5
10A65
  8
2-0
  6
CONTINUOUS
 62
     6
 10
19969.832806585451
 20
13644.104375999719
 30
0.0
 11
19875.902670585441
 21
13776.343145999739
 31
0.0
  0
LINE
  5
10A66
  8
2-0
  6
CONTINUOUS
 62
     6
 10
19969.832806585451
 20
13644.104375999719
 30
0.0
 11
20007.649529585458
 21
13681.716218999731
 31
0.0
  0
LINE
  5
10A67
  8
2-0
  6
CONTINUOUS
 62
     6
 10
19944.61374058545
 20
14008.62084599972
 30
0.0
 11
19812.013708585459
 21
13915.19251799972
 31
0.0
  0
LINE
  5
10A68
  8
2-0
  6
CONTINUOUS
 62
     6
 10
19812.013708585459
 20
13915.19251799972
 30
0.0
 11
19967.746394585451
 21
13960.568031999739
 31
0.0
  0
LINE
  5
10A69
  8
2-0
  6
CONTINUOUS
 62
     6
 10
19944.61374058545
 20
14008.62084599972
 30
0.0
 11
19967.746394585451
 21
13960.568031999739
 31
0.0
  0
LINE
  5
10A6A
  8
2-0
  6
CONTINUOUS
 62
     6
 10
19967.746394585451
 20
13960.568031999739
 30
0.0
 11
19812.013708585459
 21
13915.19251799972
 31
0.0
  0
LINE
  5
10A6B
  8
2-0
  6
CONTINUOUS
 62
     6
 10
19812.013708585459
 20
13915.19251799972
 30
0.0
 11
19944.61374058545
 21
14008.62084599972
 31
0.0
  0
LINE
  5
10A6C
  8
2-0
  6
CONTINUOUS
 62
     6
 10
19944.61374058545
 20
14008.62084599972
 30
0.0
 11
19812.013708585459
 21
13915.19251799972
 31
0.0
  0
LINE
  5
10A6D
  8
2-0
  6
CONTINUOUS
 62
     6
 10
19967.746394585451
 20
13960.568031999739
 30
0.0
 11
19812.013708585459
 21
13915.19251799972
 31
0.0
  0
LINE
  5
10A6E
  8
2-0
  6
CONTINUOUS
 62
     6
 10
19967.746394585451
 20
13960.568031999739
 30
0.0
 11
19944.61374058545
 21
14008.62084599972
 31
0.0
  0
LINE
  5
10A6F
  8
2-0
  6
CONTINUOUS
 62
     6
 10
19884.850094585359
 20
16388.44177899975
 30
0.0
 11
19731.011808585368
 21
16439.875609999752
 31
0.0
  0
LINE
  5
10A70
  8
2-0
  6
CONTINUOUS
 62
     6
 10
19731.011808585368
 20
16439.875609999752
 30
0.0
 11
19859.846795585388
 21
16341.335174999749
 31
0.0
  0
LINE
  5
10A71
  8
2-0
  6
CONTINUOUS
 62
     6
 10
19884.850094585359
 20
16388.44177899975
 30
0.0
 11
19859.846795585388
 21
16341.335174999749
 31
0.0
  0
LINE
  5
10A72
  8
2-0
  6
CONTINUOUS
 62
     6
 10
19859.846795585388
 20
16341.335174999749
 30
0.0
 11
19731.011808585368
 21
16439.875609999752
 31
0.0
  0
LINE
  5
10A73
  8
2-0
  6
CONTINUOUS
 62
     6
 10
19731.011808585368
 20
16439.875609999752
 30
0.0
 11
19884.850094585359
 21
16388.44177899975
 31
0.0
  0
LINE
  5
10A74
  8
2-0
  6
CONTINUOUS
 62
     6
 10
19884.850094585359
 20
16388.44177899975
 30
0.0
 11
19731.011808585368
 21
16439.875609999752
 31
0.0
  0
LINE
  5
10A75
  8
2-0
  6
CONTINUOUS
 62
     6
 10
19859.846795585388
 20
16341.335174999749
 30
0.0
 11
19731.011808585368
 21
16439.875609999752
 31
0.0
  0
LINE
  5
10A76
  8
2-0
  6
CONTINUOUS
 62
     6
 10
19859.846795585388
 20
16341.335174999749
 30
0.0
 11
19884.850094585359
 21
16388.44177899975
 31
0.0
  0
LINE
  5
10A77
  8
2-0
  6
CONTINUOUS
 62
     6
 10
20018.786301585351
 20
16879.760270999759
 30
0.0
 11
19875.902670585328
 21
16802.984641999748
 31
0.0
  0
LINE
  5
10A78
  8
2-0
  6
CONTINUOUS
 62
     6
 10
19875.902670585328
 20
16802.984641999748
 30
0.0
 11
20035.964563585341
 21
16829.266710999771
 31
0.0
  0
LINE
  5
10A79
  8
2-0
  6
CONTINUOUS
 62
     6
 10
20018.786301585351
 20
16879.760270999759
 30
0.0
 11
20035.964563585341
 21
16829.266710999771
 31
0.0
  0
LINE
  5
10A7A
  8
2-0
  6
CONTINUOUS
 62
     6
 10
20035.964563585341
 20
16829.266710999771
 30
0.0
 11
19875.902670585328
 21
16802.984641999748
 31
0.0
  0
LINE
  5
10A7B
  8
2-0
  6
CONTINUOUS
 62
     6
 10
19875.902670585328
 20
16802.984641999748
 30
0.0
 11
20018.786301585351
 21
16879.760270999759
 31
0.0
  0
LINE
  5
10A7C
  8
2-0
  6
CONTINUOUS
 62
     6
 10
20018.786301585351
 20
16879.760270999759
 30
0.0
 11
19875.902670585328
 21
16802.984641999748
 31
0.0
  0
LINE
  5
10A7D
  8
2-0
  6
CONTINUOUS
 62
     6
 10
20035.964563585341
 20
16829.266710999771
 30
0.0
 11
19875.902670585328
 21
16802.984641999748
 31
0.0
  0
LINE
  5
10A7E
  8
2-0
  6
CONTINUOUS
 62
     6
 10
20035.964563585341
 20
16829.266710999771
 30
0.0
 11
20018.786301585351
 21
16879.760270999759
 31
0.0
  0
LINE
  5
10A7F
  8
2-0
  6
CONTINUOUS
 62
     3
 10
22353.50877258525
 20
19251.484325999849
 30
0.0
 11
22353.50877258525
 21
19245.48836399983
 31
0.0
  0
LINE
  5
10A80
  8
2-0
  6
CONTINUOUS
 62
     3
 10
22353.50877258525
 20
19245.48836399983
 30
0.0
 11
22383.50639758525
 21
19245.48836399983
 31
0.0
  0
LINE
  5
10A81
  8
2-0
  6
CONTINUOUS
 62
     3
 10
22383.50639758525
 20
19245.48836399983
 30
0.0
 11
22383.50639758525
 21
19360.484536999829
 31
0.0
  0
LINE
  5
10A82
  8
2-0
  6
CONTINUOUS
 62
     3
 10
22383.50639758525
 20
19275.487967999819
 30
0.0
 11
22302.50845658523
 21
19275.487967999819
 31
0.0
  0
LINE
  5
10A83
  8
2-0
  6
CONTINUOUS
 62
     3
 10
22353.50877258525
 20
19235.19090799983
 30
0.0
 11
22383.50639758525
 21
19235.19090799983
 31
0.0
  0
LINE
  5
10A84
  8
2-0
  6
CONTINUOUS
 62
     3
 10
22353.50877258525
 20
19253.192649999859
 30
0.0
 11
22353.50877258525
 21
19235.19090799983
 31
0.0
  0
LINE
  5
10A85
  8
2-0
  6
CONTINUOUS
 62
     3
 10
22378.50217458525
 20
19253.192649999859
 30
0.0
 11
22353.50877258525
 21
19253.192649999859
 31
0.0
  0
LINE
  5
10A86
  8
2-0
  6
CONTINUOUS
 62
     3
 10
22378.50217458525
 20
19248.18446799985
 30
0.0
 11
22378.50217458525
 21
19253.192649999859
 31
0.0
  0
LINE
  5
10A87
  8
2-0
  6
CONTINUOUS
 62
     3
 10
22371.504576585259
 20
19248.18446799985
 30
0.0
 11
22378.50217458525
 21
19248.18446799985
 31
0.0
  0
LINE
  5
10A88
  8
2-0
  6
CONTINUOUS
 62
     3
 10
19843.309897585121
 20
19348.484694999828
 30
0.0
 11
19843.309897585121
 21
19355.490210999829
 31
0.0
  0
LINE
  5
10A89
  8
2-0
  6
CONTINUOUS
 62
     3
 10
22271.210287585262
 20
19355.490210999829
 30
0.0
 11
22276.21253158525
 21
19355.490210999829
 31
0.0
  0
LINE
  5
10A8A
  8
2-0
  6
CONTINUOUS
 62
     3
 10
22276.21253158525
 20
19355.490210999829
 30
0.0
 11
22276.21253158525
 21
19330.480973999842
 31
0.0
  0
LINE
  5
10A8B
  8
2-0
  6
CONTINUOUS
 62
     3
 10
22276.21253158525
 20
19330.480973999842
 30
0.0
 11
22258.204850585251
 21
19330.480973999842
 31
0.0
  0
LINE
  5
10A8C
  8
2-0
  6
CONTINUOUS
 62
     3
 10
19856.315334585131
 20
19330.480973999842
 30
0.0
 11
19856.315334585131
 21
19360.484536999829
 31
0.0
  0
LINE
  5
10A8D
  8
2-0
  6
CONTINUOUS
 62
     3
 10
22268.50428658523
 20
19360.484536999829
 30
0.0
 11
22383.50639758525
 21
19360.484536999829
 31
0.0
  0
LINE
  5
10A8E
  8
2-0
  6
CONTINUOUS
 62
     3
 10
19846.015898585149
 20
19330.480973999842
 30
0.0
 11
19846.015898585149
 21
19360.484536999829
 31
0.0
  0
LINE
  5
10A8F
  8
2-0
  6
CONTINUOUS
 62
     3
 10
19840.012019585141
 20
19330.480973999842
 30
0.0
 11
19846.015898585149
 21
19330.480973999842
 31
0.0
  0
LINE
  5
10A90
  8
2-0
  6
CONTINUOUS
 62
     3
 10
22353.50877258525
 20
19251.484325999849
 30
0.0
 11
22353.50877258525
 21
19245.48836399983
 31
0.0
  0
LINE
  5
10A91
  8
2-0
  6
CONTINUOUS
 62
     3
 10
22353.50877258525
 20
19245.48836399983
 30
0.0
 11
22383.50639758525
 21
19245.48836399983
 31
0.0
  0
LINE
  5
10A92
  8
2-0
  6
CONTINUOUS
 62
     3
 10
22383.50639758525
 20
19245.48836399983
 30
0.0
 11
22383.50639758525
 21
19360.484536999829
 31
0.0
  0
LINE
  5
10A93
  8
2-0
  6
CONTINUOUS
 62
     3
 10
22383.50639758525
 20
19275.487967999819
 30
0.0
 11
22302.50845658523
 21
19275.487967999819
 31
0.0
  0
LINE
  5
10A94
  8
2-0
  6
CONTINUOUS
 62
     3
 10
22353.50877258525
 20
19235.19090799983
 30
0.0
 11
22383.50639758525
 21
19235.19090799983
 31
0.0
  0
LINE
  5
10A95
  8
2-0
  6
CONTINUOUS
 62
     3
 10
22353.50877258525
 20
19253.192649999859
 30
0.0
 11
22353.50877258525
 21
19235.19090799983
 31
0.0
  0
LINE
  5
10A96
  8
2-0
  6
CONTINUOUS
 62
     3
 10
22378.50217458525
 20
19253.192649999859
 30
0.0
 11
22353.50877258525
 21
19253.192649999859
 31
0.0
  0
LINE
  5
10A97
  8
2-0
  6
CONTINUOUS
 62
     3
 10
22378.50217458525
 20
19248.18446799985
 30
0.0
 11
22378.50217458525
 21
19253.192649999859
 31
0.0
  0
LINE
  5
10A98
  8
2-0
  6
CONTINUOUS
 62
     3
 10
22371.504576585259
 20
19248.18446799985
 30
0.0
 11
22378.50217458525
 21
19248.18446799985
 31
0.0
  0
LINE
  5
10A99
  8
2-0
  6
CONTINUOUS
 62
     3
 10
22371.504576585288
 20
18894.887645499832
 30
0.0
 11
22378.502174585268
 21
18894.887645499832
 31
0.0
  0
LINE
  5
10A9A
  8
2-0
  6
CONTINUOUS
 62
     3
 10
22378.502174585268
 20
18894.887645499832
 30
0.0
 11
22378.502174585268
 21
18899.88790949983
 31
0.0
  0
LINE
  5
10A9B
  8
2-0
  6
CONTINUOUS
 62
     3
 10
22378.502174585268
 20
18899.88790949983
 30
0.0
 11
22353.508772585272
 21
18899.88790949983
 31
0.0
  0
LINE
  5
10A9C
  8
2-0
  6
CONTINUOUS
 62
     3
 10
22353.508772585272
 20
18899.88790949983
 30
0.0
 11
22353.508772585272
 21
18881.892105499832
 31
0.0
  0
LINE
  5
10A9D
  8
2-0
  6
CONTINUOUS
 62
     3
 10
22353.508772585272
 20
18881.892105499832
 30
0.0
 11
22383.506397585272
 21
18881.892105499832
 31
0.0
  0
LINE
  5
10A9E
  8
2-0
  6
CONTINUOUS
 62
     3
 10
22353.508772585272
 20
18897.9836124998
 30
0.0
 11
22353.508772585272
 21
18891.985671499831
 31
0.0
  0
LINE
  5
10A9F
  8
2-0
  6
CONTINUOUS
 62
     3
 10
22353.508772585272
 20
18891.985671499831
 30
0.0
 11
22383.506397585272
 21
18891.985671499831
 31
0.0
  0
LINE
  5
10AA0
  8
2-0
  6
CONTINUOUS
 62
     3
 10
22383.506397585272
 20
18891.985671499831
 30
0.0
 11
22383.506397585272
 21
18928.986832499832
 31
0.0
  0
LINE
  5
10AA1
  8
2-0
  6
CONTINUOUS
 62
     3
 10
22353.508772585272
 20
18928.986832499832
 30
0.0
 11
22383.506397585272
 21
18928.986832499832
 31
0.0
  0
LINE
  5
10AA2
  8
2-0
  6
CONTINUOUS
 62
     3
 10
22353.508772585272
 20
18922.98295249982
 30
0.0
 11
22353.508772585272
 21
18928.986832499832
 31
0.0
  0
LINE
  5
10AA3
  8
2-0
  6
CONTINUOUS
 62
     3
 10
22353.508772585261
 20
18939.082377499821
 30
0.0
 11
22383.506397585261
 21
18939.082377499821
 31
0.0
  0
LINE
  5
10AA4
  8
2-0
  6
CONTINUOUS
 62
     3
 10
22353.508772585272
 20
18921.080635499831
 30
0.0
 11
22353.508772585261
 21
18939.082377499821
 31
0.0
  0
LINE
  5
10AA5
  8
2-0
  6
CONTINUOUS
 62
     3
 10
22378.502174585268
 20
18921.080635499831
 30
0.0
 11
22353.508772585272
 21
18921.080635499831
 31
0.0
  0
LINE
  5
10AA6
  8
2-0
  6
CONTINUOUS
 62
     3
 10
22378.502174585268
 20
18926.080899499819
 30
0.0
 11
22378.502174585268
 21
18921.080635499831
 31
0.0
  0
LINE
  5
10AA7
  8
2-0
  6
CONTINUOUS
 62
     3
 10
22371.504576585288
 20
18926.080899499819
 30
0.0
 11
22378.502174585268
 21
18926.080899499819
 31
0.0
  0
LINE
  5
10AA8
  8
2-0
  6
CONTINUOUS
 62
     3
 10
22371.504576585299
 20
18193.886655999831
 30
0.0
 11
22378.50217458529
 21
18193.886655999831
 31
0.0
  0
LINE
  5
10AA9
  8
2-0
  6
CONTINUOUS
 62
     3
 10
22378.50217458529
 20
18193.886655999831
 30
0.0
 11
22378.50217458529
 21
18198.89285799981
 31
0.0
  0
LINE
  5
10AAA
  8
2-0
  6
CONTINUOUS
 62
     3
 10
22378.50217458529
 20
18198.89285799981
 30
0.0
 11
22353.50877258529
 21
18198.89285799981
 31
0.0
  0
LINE
  5
10AAB
  8
2-0
  6
CONTINUOUS
 62
     3
 10
22353.50877258529
 20
18198.89285799981
 30
0.0
 11
22353.50877258529
 21
18180.891115999832
 31
0.0
  0
LINE
  5
10AAC
  8
2-0
  6
CONTINUOUS
 62
     3
 10
22353.50877258529
 20
18180.891115999832
 30
0.0
 11
22383.50639758529
 21
18180.891115999832
 31
0.0
  0
LINE
  5
10AAD
  8
2-0
  6
CONTINUOUS
 62
     3
 10
22353.50877258529
 20
18196.982622999829
 30
0.0
 11
22353.50877258529
 21
18190.986660999821
 31
0.0
  0
LINE
  5
10AAE
  8
2-0
  6
CONTINUOUS
 62
     3
 10
22353.50877258529
 20
18190.986660999821
 30
0.0
 11
22383.50639758529
 21
18190.986660999821
 31
0.0
  0
LINE
  5
10AAF
  8
2-0
  6
CONTINUOUS
 62
     3
 10
22383.50639758529
 20
18190.986660999821
 30
0.0
 11
22383.50639758529
 21
18227.985842999831
 31
0.0
  0
LINE
  5
10AB0
  8
2-0
  6
CONTINUOUS
 62
     3
 10
22353.50877258529
 20
18227.985842999831
 30
0.0
 11
22383.50639758529
 21
18227.985842999831
 31
0.0
  0
LINE
  5
10AB1
  8
2-0
  6
CONTINUOUS
 62
     3
 10
22353.50877258529
 20
18221.989880999819
 30
0.0
 11
22353.50877258529
 21
18227.985842999831
 31
0.0
  0
LINE
  5
10AB2
  8
2-0
  6
CONTINUOUS
 62
     3
 10
22353.50877258529
 20
18238.081387999831
 30
0.0
 11
22383.50639758529
 21
18238.081387999831
 31
0.0
  0
LINE
  5
10AB3
  8
2-0
  6
CONTINUOUS
 62
     3
 10
22353.50877258529
 20
18220.07964599982
 30
0.0
 11
22353.50877258529
 21
18238.081387999831
 31
0.0
  0
LINE
  5
10AB4
  8
2-0
  6
CONTINUOUS
 62
     3
 10
22378.50217458529
 20
18220.07964599982
 30
0.0
 11
22353.50877258529
 21
18220.07964599982
 31
0.0
  0
LINE
  5
10AB5
  8
2-0
  6
CONTINUOUS
 62
     3
 10
22378.50217458529
 20
18225.085847999831
 30
0.0
 11
22378.50217458529
 21
18220.07964599982
 31
0.0
  0
LINE
  5
10AB6
  8
2-0
  6
CONTINUOUS
 62
     3
 10
22371.504576585299
 20
18225.085847999831
 30
0.0
 11
22378.50217458529
 21
18225.085847999831
 31
0.0
  0
LINE
  5
10AB7
  8
2-0
  6
CONTINUOUS
 62
     3
 10
22371.504576585328
 20
17524.079909999829
 30
0.0
 11
22378.502174585308
 21
17524.079909999829
 31
0.0
  0
LINE
  5
10AB8
  8
2-0
  6
CONTINUOUS
 62
     3
 10
22378.502174585308
 20
17524.079909999829
 30
0.0
 11
22378.502174585308
 21
17519.091522999832
 31
0.0
  0
LINE
  5
10AB9
  8
2-0
  6
CONTINUOUS
 62
     3
 10
22378.502174585308
 20
17519.091522999832
 30
0.0
 11
22353.508772585312
 21
17519.091522999832
 31
0.0
  0
LINE
  5
10ABA
  8
2-0
  6
CONTINUOUS
 62
     3
 10
22353.508772585312
 20
17519.091522999832
 30
0.0
 11
22353.508772585312
 21
17537.08732599983
 31
0.0
  0
LINE
  5
10ABB
  8
2-0
  6
CONTINUOUS
 62
     3
 10
22353.508772585312
 20
17537.08732599983
 30
0.0
 11
22383.506397585312
 21
17537.08732599983
 31
0.0
  0
LINE
  5
10ABC
  8
2-0
  6
CONTINUOUS
 62
     3
 10
22353.508772585312
 20
17520.989880999819
 30
0.0
 11
22353.508772585312
 21
17526.98584299982
 31
0.0
  0
LINE
  5
10ABD
  8
2-0
  6
CONTINUOUS
 62
     3
 10
22353.508772585312
 20
17526.98584299982
 30
0.0
 11
22383.506397585312
 21
17526.98584299982
 31
0.0
  0
LINE
  5
10ABE
  8
2-0
  6
CONTINUOUS
 62
     3
 10
22383.506397585312
 20
17526.98584299982
 30
0.0
 11
22383.506397585319
 21
17489.986660999832
 31
0.0
  0
LINE
  5
10ABF
  8
2-0
  6
CONTINUOUS
 62
     3
 10
22353.508772585319
 20
17489.986660999832
 30
0.0
 11
22383.506397585319
 21
17489.986660999832
 31
0.0
  0
LINE
  5
10AC0
  8
2-0
  6
CONTINUOUS
 62
     3
 10
22353.508772585319
 20
17495.988561999809
 30
0.0
 11
22353.508772585319
 21
17489.986660999832
 31
0.0
  0
LINE
  5
10AC1
  8
2-0
  6
CONTINUOUS
 62
     3
 10
22353.508772585319
 20
17479.897054999819
 30
0.0
 11
22383.506397585319
 21
17479.897054999819
 31
0.0
  0
LINE
  5
10AC2
  8
2-0
  6
CONTINUOUS
 62
     3
 10
22353.508772585319
 20
17497.892857999828
 30
0.0
 11
22353.508772585319
 21
17479.897054999819
 31
0.0
  0
LINE
  5
10AC3
  8
2-0
  6
CONTINUOUS
 62
     3
 10
22378.502174585319
 20
17497.892857999828
 30
0.0
 11
22353.508772585319
 21
17497.892857999828
 31
0.0
  0
LINE
  5
10AC4
  8
2-0
  6
CONTINUOUS
 62
     3
 10
22378.502174585319
 20
17492.892594999819
 30
0.0
 11
22378.502174585319
 21
17497.892857999828
 31
0.0
  0
LINE
  5
10AC5
  8
2-0
  6
CONTINUOUS
 62
     3
 10
22371.504576585328
 20
17492.892594999819
 30
0.0
 11
22378.502174585319
 21
17492.892594999819
 31
0.0
  0
LINE
  5
10AC6
  8
2-0
  6
CONTINUOUS
 62
     3
 10
22380.620259585339
 20
16772.983480999828
 30
0.0
 11
22380.620259585339
 21
16792.984535999829
 31
0.0
  0
LINE
  5
10AC7
  8
2-0
  6
CONTINUOUS
 62
     3
 10
22380.620259585339
 20
16792.984535999829
 30
0.0
 11
22295.619731585331
 21
16792.984535999829
 31
0.0
  0
LINE
  5
10AC8
  8
2-0
  6
CONTINUOUS
 62
     3
 10
22371.504576585361
 20
16819.591245999829
 30
0.0
 11
22378.502174585348
 21
16819.591245999829
 31
0.0
  0
LINE
  5
10AC9
  8
2-0
  6
CONTINUOUS
 62
     3
 10
22378.502174585348
 20
16819.591245999829
 30
0.0
 11
22378.502174585348
 21
16814.596919999829
 31
0.0
  0
LINE
  5
10ACA
  8
2-0
  6
CONTINUOUS
 62
     3
 10
22378.502174585348
 20
16814.596919999829
 30
0.0
 11
22353.508772585348
 21
16814.596919999829
 31
0.0
  0
LINE
  5
10ACB
  8
2-0
  6
CONTINUOUS
 62
     3
 10
22353.508772585348
 20
16814.596919999829
 30
0.0
 11
22353.508772585348
 21
16832.592723999831
 31
0.0
  0
LINE
  5
10ACC
  8
2-0
  6
CONTINUOUS
 62
     3
 10
22353.508772585348
 20
16832.592723999831
 30
0.0
 11
22383.506397585352
 21
16832.592723999831
 31
0.0
  0
LINE
  5
10ACD
  8
2-0
  6
CONTINUOUS
 62
     3
 10
22353.508772585348
 20
16822.984139999819
 30
0.0
 11
22353.508772585348
 21
16816.982239999819
 31
0.0
  0
LINE
  5
10ACE
  8
2-0
  6
CONTINUOUS
 62
     3
 10
22383.506397585352
 20
16822.984139999819
 30
0.0
 11
22353.508772585348
 21
16822.984139999819
 31
0.0
  0
LINE
  5
10ACF
  8
2-0
  6
CONTINUOUS
 62
     3
 10
22383.506397585352
 20
16832.592723999831
 30
0.0
 11
22383.506397585319
 21
17479.897054999819
 31
0.0
  0
LINE
  5
10AD0
  8
2-0
  6
CONTINUOUS
 62
     3
 10
22383.506397585312
 20
17537.08732599983
 30
0.0
 11
22383.50639758529
 21
18180.891115999832
 31
0.0
  0
LINE
  5
10AD1
  8
2-0
  6
CONTINUOUS
 62
     3
 10
22383.506397585352
 20
16677.982424999849
 30
0.0
 11
22353.508772585348
 21
16677.982424999849
 31
0.0
  0
LINE
  5
10AD2
  8
2-0
  6
CONTINUOUS
 62
     3
 10
22353.508772585348
 20
16677.982424999849
 30
0.0
 11
22353.508772585348
 21
16683.98432499983
 31
0.0
  0
LINE
  5
10AD3
  8
2-0
  6
CONTINUOUS
 62
     3
 10
22295.619731585331
 20
16707.987967999819
 30
0.0
 11
22380.62025958535
 21
16707.987967999819
 31
0.0
  0
LINE
  5
10AD4
  8
2-0
  6
CONTINUOUS
 62
     3
 10
22380.62025958535
 20
16707.987967999819
 30
0.0
 11
22380.62025958535
 21
16727.983084999851
 31
0.0
  0
LINE
  5
10AD5
  8
2-0
  6
CONTINUOUS
 62
     3
 10
22353.508772585348
 20
16668.37384199983
 30
0.0
 11
22383.506397585352
 21
16668.37384199983
 31
0.0
  0
LINE
  5
10AD6
  8
2-0
  6
CONTINUOUS
 62
     3
 10
22353.508772585348
 20
16686.36964499981
 30
0.0
 11
22353.508772585348
 21
16668.37384199983
 31
0.0
  0
LINE
  5
10AD7
  8
2-0
  6
CONTINUOUS
 62
     3
 10
22378.502174585348
 20
16686.36964499981
 30
0.0
 11
22353.508772585348
 21
16686.36964499981
 31
0.0
  0
LINE
  5
10AD8
  8
2-0
  6
CONTINUOUS
 62
     3
 10
22378.502174585348
 20
16681.369380999829
 30
0.0
 11
22378.502174585348
 21
16686.36964499981
 31
0.0
  0
LINE
  5
10AD9
  8
2-0
  6
CONTINUOUS
 62
     3
 10
22371.504576585361
 20
16681.369380999829
 30
0.0
 11
22378.502174585348
 21
16681.369380999829
 31
0.0
  0
LINE
  5
10ADA
  8
2-0
  6
CONTINUOUS
 62
     3
 10
22371.50457658539
 20
15976.88715049981
 30
0.0
 11
22378.50217458537
 21
15976.887150499821
 31
0.0
  0
LINE
  5
10ADB
  8
2-0
  6
CONTINUOUS
 62
     3
 10
22378.50217458537
 20
15976.887150499821
 30
0.0
 11
22378.50217458537
 21
15981.88741449983
 31
0.0
  0
LINE
  5
10ADC
  8
2-0
  6
CONTINUOUS
 62
     3
 10
22378.50217458537
 20
15981.88741449983
 30
0.0
 11
22353.50877258537
 21
15981.887414499821
 31
0.0
  0
LINE
  5
10ADD
  8
2-0
  6
CONTINUOUS
 62
     3
 10
22353.50877258537
 20
15981.887414499821
 30
0.0
 11
22353.508772585381
 21
15963.88567249983
 31
0.0
  0
LINE
  5
10ADE
  8
2-0
  6
CONTINUOUS
 62
     3
 10
22353.508772585381
 20
15963.88567249983
 30
0.0
 11
22383.506397585381
 21
15963.88567249983
 31
0.0
  0
LINE
  5
10ADF
  8
2-0
  6
CONTINUOUS
 62
     3
 10
22353.50877258537
 20
15979.983117499831
 30
0.0
 11
22353.50877258537
 21
15973.98616649983
 31
0.0
  0
LINE
  5
10AE0
  8
2-0
  6
CONTINUOUS
 62
     3
 10
22353.50877258537
 20
15973.98616649983
 30
0.0
 11
22383.50639758537
 21
15973.98616649983
 31
0.0
  0
LINE
  5
10AE1
  8
2-0
  6
CONTINUOUS
 62
     3
 10
22383.50639758537
 20
15973.98616649983
 30
0.0
 11
22383.50639758537
 21
16010.986337499829
 31
0.0
  0
LINE
  5
10AE2
  8
2-0
  6
CONTINUOUS
 62
     3
 10
22353.50877258537
 20
16010.986337499829
 30
0.0
 11
22383.50639758537
 21
16010.986337499829
 31
0.0
  0
LINE
  5
10AE3
  8
2-0
  6
CONTINUOUS
 62
     3
 10
22353.50877258537
 20
16004.98344749983
 30
0.0
 11
22353.50877258537
 21
16010.986337499829
 31
0.0
  0
LINE
  5
10AE4
  8
2-0
  6
CONTINUOUS
 62
     3
 10
22353.50877258537
 20
16021.08188249983
 30
0.0
 11
22383.50639758537
 21
16021.08188249983
 31
0.0
  0
LINE
  5
10AE5
  8
2-0
  6
CONTINUOUS
 62
     3
 10
22353.50877258537
 20
16003.07420149983
 30
0.0
 11
22353.50877258537
 21
16021.08188249983
 31
0.0
  0
LINE
  5
10AE6
  8
2-0
  6
CONTINUOUS
 62
     3
 10
22378.50217458537
 20
16003.07420149983
 30
0.0
 11
22353.50877258537
 21
16003.07420149983
 31
0.0
  0
LINE
  5
10AE7
  8
2-0
  6
CONTINUOUS
 62
     3
 10
22378.50217458537
 20
16008.080404499829
 30
0.0
 11
22378.50217458537
 21
16003.07420149983
 31
0.0
  0
LINE
  5
10AE8
  8
2-0
  6
CONTINUOUS
 62
     3
 10
22371.50457658539
 20
16008.080404499829
 30
0.0
 11
22378.50217458537
 21
16008.080404499829
 31
0.0
  0
LINE
  5
10AE9
  8
2-0
  6
CONTINUOUS
 62
     3
 10
22371.504576585408
 20
15307.320420999849
 30
0.0
 11
22378.502174585399
 21
15307.320420999849
 31
0.0
  0
LINE
  5
10AEA
  8
2-0
  6
CONTINUOUS
 62
     3
 10
22378.502174585399
 20
15307.320420999849
 30
0.0
 11
22378.502174585399
 21
15302.32609599985
 31
0.0
  0
LINE
  5
10AEB
  8
2-0
  6
CONTINUOUS
 62
     3
 10
22378.502174585399
 20
15302.32609599985
 30
0.0
 11
22353.508772585399
 21
15302.32609599985
 31
0.0
  0
LINE
  5
10AEC
  8
2-0
  6
CONTINUOUS
 62
     3
 10
22353.508772585399
 20
15302.32609599985
 30
0.0
 11
22353.508772585399
 21
15320.32189899985
 31
0.0
  0
LINE
  5
10AED
  8
2-0
  6
CONTINUOUS
 62
     3
 10
22353.508772585399
 20
15320.32189899985
 30
0.0
 11
22383.506397585399
 21
15320.32189899985
 31
0.0
  0
LINE
  5
10AEE
  8
2-0
  6
CONTINUOUS
 62
     3
 10
22353.508772585399
 20
15304.22445399983
 30
0.0
 11
22353.508772585399
 21
15310.22635399984
 31
0.0
  0
LINE
  5
10AEF
  8
2-0
  6
CONTINUOUS
 62
     3
 10
22353.508772585399
 20
15310.22635399984
 30
0.0
 11
22383.506397585399
 21
15310.226353999849
 31
0.0
  0
LINE
  5
10AF0
  8
2-0
  6
CONTINUOUS
 62
     3
 10
22383.506397585399
 20
15273.227172999859
 30
0.0
 11
22383.506397585399
 21
15310.226353999849
 31
0.0
  0
LINE
  5
10AF1
  8
2-0
  6
CONTINUOUS
 62
     3
 10
22353.508772585399
 20
15273.22717299985
 30
0.0
 11
22383.506397585399
 21
15273.227172999859
 31
0.0
  0
LINE
  5
10AF2
  8
2-0
  6
CONTINUOUS
 62
     3
 10
22353.508772585399
 20
15279.224123999829
 30
0.0
 11
22353.508772585399
 21
15273.22717299985
 31
0.0
  0
LINE
  5
10AF3
  8
2-0
  6
CONTINUOUS
 62
     3
 10
22353.508772585399
 20
15263.125688999829
 30
0.0
 11
22383.506397585399
 21
15263.125688999829
 31
0.0
  0
LINE
  5
10AF4
  8
2-0
  6
CONTINUOUS
 62
     3
 10
22353.508772585399
 20
15281.13336999983
 30
0.0
 11
22353.508772585399
 21
15263.125688999829
 31
0.0
  0
LINE
  5
10AF5
  8
2-0
  6
CONTINUOUS
 62
     3
 10
22378.502174585399
 20
15281.13336999983
 30
0.0
 11
22353.508772585399
 21
15281.13336999983
 31
0.0
  0
LINE
  5
10AF6
  8
2-0
  6
CONTINUOUS
 62
     3
 10
22378.502174585399
 20
15276.133105999859
 30
0.0
 11
22378.502174585399
 21
15281.13336999983
 31
0.0
  0
LINE
  5
10AF7
  8
2-0
  6
CONTINUOUS
 62
     3
 10
22371.504576585408
 20
15276.13310599985
 30
0.0
 11
22378.502174585399
 21
15276.133105999859
 31
0.0
  0
LINE
  5
10AF8
  8
2-0
  6
CONTINUOUS
 62
     3
 10
22383.506397585352
 20
16668.37384199983
 30
0.0
 11
22383.50639758537
 21
16021.08188249983
 31
0.0
  0
LINE
  5
10AF9
  8
2-0
  6
CONTINUOUS
 62
     3
 10
22383.506397585352
 20
16822.984139999819
 30
0.0
 11
22383.506397585352
 21
16677.982424999849
 31
0.0
  0
LINE
  5
10AFA
  8
2-0
  6
CONTINUOUS
 62
     3
 10
22295.619731585331
 20
16792.984535999829
 30
0.0
 11
22295.619731585331
 21
16707.987967999819
 31
0.0
  0
LINE
  5
10AFB
  8
2-0
  6
CONTINUOUS
 62
     3
 10
22371.504576585441
 20
14574.89209899983
 30
0.0
 11
22378.502174585428
 21
14574.89209899983
 31
0.0
  0
LINE
  5
10AFC
  8
2-0
  6
CONTINUOUS
 62
     3
 10
22378.502174585428
 20
14574.89209899983
 30
0.0
 11
22378.502174585428
 21
14579.88642499985
 31
0.0
  0
LINE
  5
10AFD
  8
2-0
  6
CONTINUOUS
 62
     3
 10
22378.502174585428
 20
14579.88642499985
 30
0.0
 11
22353.508772585428
 21
14579.88642499985
 31
0.0
  0
LINE
  5
10AFE
  8
2-0
  6
CONTINUOUS
 62
     3
 10
22353.508772585428
 20
14579.88642499985
 30
0.0
 11
22353.508772585428
 21
14561.890620999849
 31
0.0
  0
LINE
  5
10AFF
  8
2-0
  6
CONTINUOUS
 62
     3
 10
22353.508772585428
 20
14561.890620999849
 30
0.0
 11
22383.506397585428
 21
14561.890620999849
 31
0.0
  0
LINE
  5
10B00
  8
2-0
  6
CONTINUOUS
 62
     3
 10
22353.508772585428
 20
14577.989055999849
 30
0.0
 11
22353.508772585428
 21
14571.98616599985
 31
0.0
  0
LINE
  5
10B01
  8
2-0
  6
CONTINUOUS
 62
     3
 10
22353.508772585428
 20
14571.98616599985
 30
0.0
 11
22383.506397585428
 21
14571.98616599985
 31
0.0
  0
LINE
  5
10B02
  8
2-0
  6
CONTINUOUS
 62
     3
 10
22383.506397585428
 20
14571.98616599985
 30
0.0
 11
22383.506397585428
 21
14608.986337999821
 31
0.0
  0
LINE
  5
10B03
  8
2-0
  6
CONTINUOUS
 62
     3
 10
22353.508772585428
 20
14608.986337999821
 30
0.0
 11
22383.506397585428
 21
14608.986337999821
 31
0.0
  0
LINE
  5
10B04
  8
2-0
  6
CONTINUOUS
 62
     3
 10
22353.508772585428
 20
14602.98938599983
 30
0.0
 11
22353.508772585428
 21
14608.986337999821
 31
0.0
  0
LINE
  5
10B05
  8
2-0
  6
CONTINUOUS
 62
     3
 10
22353.508772585428
 20
14619.08683099984
 30
0.0
 11
22383.506397585428
 21
14619.08683099985
 31
0.0
  0
LINE
  5
10B06
  8
2-0
  6
CONTINUOUS
 62
     3
 10
22353.508772585428
 20
14601.08013999984
 30
0.0
 11
22353.508772585428
 21
14619.08683099984
 31
0.0
  0
LINE
  5
10B07
  8
2-0
  6
CONTINUOUS
 62
     3
 10
22378.502174585428
 20
14601.080139999851
 30
0.0
 11
22353.508772585428
 21
14601.08013999984
 31
0.0
  0
LINE
  5
10B08
  8
2-0
  6
CONTINUOUS
 62
     3
 10
22378.502174585428
 20
14606.085352999849
 30
0.0
 11
22378.502174585428
 21
14601.080139999851
 31
0.0
  0
LINE
  5
10B09
  8
2-0
  6
CONTINUOUS
 62
     3
 10
22371.504576585441
 20
14606.085352999849
 30
0.0
 11
22378.502174585428
 21
14606.085352999849
 31
0.0
  0
LINE
  5
10B0A
  8
2-0
  6
CONTINUOUS
 62
     3
 10
22353.50877258545
 20
13898.988178999831
 30
0.0
 11
22353.50877258545
 21
13904.993047999829
 31
0.0
  0
LINE
  5
10B0B
  8
2-0
  6
CONTINUOUS
 62
     3
 10
22353.50877258545
 20
13904.993047999829
 30
0.0
 11
22383.50639758545
 21
13904.993047999829
 31
0.0
  0
LINE
  5
10B0C
  8
2-0
  6
CONTINUOUS
 62
     3
 10
22383.50639758545
 20
13904.993047999829
 30
0.0
 11
22383.506397585461
 21
13789.98895699984
 31
0.0
  0
LINE
  5
10B0D
  8
2-0
  6
CONTINUOUS
 62
     3
 10
22383.506397585461
 20
13789.98895699984
 30
0.0
 11
22298.507849585461
 21
13789.98895699983
 31
0.0
  0
LINE
  5
10B0E
  8
2-0
  6
CONTINUOUS
 62
     3
 10
22298.507849585461
 20
13789.98895699983
 30
0.0
 11
22298.507849585461
 21
13874.984535999831
 31
0.0
  0
LINE
  5
10B0F
  8
2-0
  6
CONTINUOUS
 62
     3
 10
22298.507849585461
 20
13874.984535999831
 30
0.0
 11
22330.504787585462
 21
13874.984535999831
 31
0.0
  0
LINE
  5
10B10
  8
2-0
  6
CONTINUOUS
 62
     3
 10
22371.50457658547
 20
13902.022780999831
 30
0.0
 11
22378.50217458545
 21
13902.02278099984
 31
0.0
  0
LINE
  5
10B11
  8
2-0
  6
CONTINUOUS
 62
     3
 10
22378.50217458545
 20
13902.02278099984
 30
0.0
 11
22378.50217458545
 21
13897.02548599982
 31
0.0
  0
LINE
  5
10B12
  8
2-0
  6
CONTINUOUS
 62
     3
 10
22378.50217458545
 20
13897.02548599982
 30
0.0
 11
22353.50877258545
 21
13897.025485999809
 31
0.0
  0
LINE
  5
10B13
  8
2-0
  6
CONTINUOUS
 62
     3
 10
22353.50877258545
 20
13897.025485999809
 30
0.0
 11
22353.50877258545
 21
13915.024258999831
 31
0.0
  0
LINE
  5
10B14
  8
2-0
  6
CONTINUOUS
 62
     3
 10
22353.50877258545
 20
13915.024258999831
 30
0.0
 11
22383.50639758545
 21
13915.02425899984
 31
0.0
  0
LINE
  5
10B15
  8
2-0
  6
CONTINUOUS
 62
     3
 10
22383.506397585428
 20
14619.08683099985
 30
0.0
 11
22383.506397585399
 21
15263.125688999829
 31
0.0
  0
LINE
  5
10B16
  8
2-0
  6
CONTINUOUS
 62
     3
 10
22383.50639758529
 20
18238.081387999831
 30
0.0
 11
22383.506397585272
 21
18881.892105499832
 31
0.0
  0
LINE
  5
10B17
  8
2-0
  6
CONTINUOUS
 62
     3
 10
22383.506397585381
 20
15963.88567249983
 30
0.0
 11
22383.506397585399
 21
15320.32189899985
 31
0.0
  0
LINE
  5
10B18
  8
2-0
  6
CONTINUOUS
 62
     3
 10
19731.011808585259
 20
19245.488363999732
 30
0.0
 11
19731.011808585248
 21
19360.484536999731
 31
0.0
  0
LINE
  5
10B19
  8
2-0
  6
CONTINUOUS
 62
     3
 10
19731.013787585129
 20
19275.487967999819
 30
0.0
 11
22302.506476585109
 21
19275.487967999728
 31
0.0
  0
LINE
  5
10B1A
  8
2-0
  6
CONTINUOUS
 62
     3
 10
22383.50639758545
 20
13915.02425899984
 30
0.0
 11
22383.506397585428
 21
14561.890620999849
 31
0.0
  0
LINE
  5
10B1B
  8
2-0
  6
CENTER2
 62
     6
 10
22341.010092585191
 20
20560.484536999851
 30
0.0
 11
22341.010092585471
 21
13206.72281799982
 31
0.0
  0
LINE
  5
10B1C
  8
2-0
  6
CENTER2
 62
     6
 10
19773.510092585191
 20
20560.484536999749
 30
0.0
 11
19773.51009258546
 21
13206.72281799972
 31
0.0
  0
LINE
  5
10B1D
  8
2-0
  6
CONTINUOUS
 62
     3
 10
19731.011808585259
 20
19235.190907999731
 30
0.0
 11
19731.01180858527
 21
18939.08237749973
 31
0.0
  0
LINE
  5
10B1E
  8
2-0
  6
CONTINUOUS
 62
     3
 10
22383.50639758525
 20
19235.19090799983
 30
0.0
 11
22383.506397585261
 21
18939.082377499821
 31
0.0
  0
LINE
  5
10B1F
  8
2-0
  6
CONTINUOUS
 62
     3
 10
22302.508456585441
 20
13874.984535999831
 30
0.0
 11
22302.50845658523
 21
19360.484536999829
 31
0.0
  0
LINE
  5
10B20
  8
2-0
  6
CONTINUOUS
 62
     3
 10
19812.013708585459
 20
13874.98453599974
 30
0.0
 11
19812.01370858524
 21
19360.484536999738
 31
0.0
  0
TEXT
  5
10B21
  8
2-0
  6
CONTINUOUS
 62
     7
 10
20544.664785591231
 20
13272.49046700245
 30
0.0
 40
160.0
  1
前柱（左）
 50
359.99978700000219
 72
     4
 11
20960.665082992458
 21
13352.488920500569
 31
0.0
  0
TEXT
  5
10B22
  8
2-0
  6
CONTINUOUS
 62
     7
 10
20446.736329255491
 20
16200.97714927627
 30
0.0
 40
160.0
  1
壁パネル
 50
0.000177000002175
 72
     4
 11
20809.402748781798
 21
16280.978269637661
 31
0.0
  0
TEXT
  5
10B23
  8
2-0
  6
CONTINUOUS
 62
     7
 10
20417.405899938429
 20
17038.173678652129
 30
0.0
 40
160.0
  1
中柱（左右）
 50
359.9996460000022
 72
     4
 11
20934.73972753913
 21
17118.17048232444
 31
0.0
  0
TEXT
  5
10B24
  8
2-0
  6
CONTINUOUS
 62
     7
 10
20430.736989310859
 20
14245.53497270588
 30
0.0
 40
160.0
  1
下枠
 50
359.99893700000217
 72
     4
 11
20601.40514017615
 21
14325.53180633906
 31
0.0
  0
TEXT
  5
10B25
  8
2-0
  6
CONTINUOUS
 62
     7
 10
20434.438231918601
 20
18641.436024499741
 30
0.0
 40
160.0
  1
間柱（側）
 50
0.0000000000021583
 72
     4
 11
20855.771565251929
 21
18721.436024499759
 31
0.0
  0
TEXT
  5
10B26
  8
2-0
  6
CONTINUOUS
 62
     7
 10
17934.514579604758
 20
20170.490071748402
 30
0.0
 40
160.0
  1
後柱（左右）
 50
359.9996460000022
 72
     4
 11
18446.51507387223
 21
20250.486908372532
 31
0.0
  0
LINE
  5
10B27
  8
2-0
  6
CONTINUOUS
 62
     3
 10
21601.510673585119
 20
19360.484536999749
 30
0.0
 11
21564.509511585129
 21
19360.484536999771
 31
0.0
  0
LINE
  5
10B28
  8
2-0
  6
CONTINUOUS
 62
     3
 10
21601.510673585119
 20
19330.48097399978
 30
0.0
 11
21601.510673585119
 21
19360.484536999749
 31
0.0
  0
LINE
  5
10B29
  8
2-0
  6
CONTINUOUS
 62
     3
 10
21595.51075258512
 20
19330.48097399978
 30
0.0
 11
21601.510673585119
 21
19330.48097399978
 31
0.0
  0
LINE
  5
10B2A
  8
2-0
  6
CONTINUOUS
 62
     3
 10
21611.608197585141
 20
19330.48097399978
 30
0.0
 11
21611.608197585141
 21
19360.484536999749
 31
0.0
  0
LINE
  5
10B2B
  8
2-0
  6
CONTINUOUS
 62
     3
 10
21593.604476585151
 20
19330.48097399978
 30
0.0
 11
21611.608197585141
 21
19330.48097399978
 31
0.0
  0
LINE
  5
10B2C
  8
2-0
  6
CONTINUOUS
 62
     3
 10
21593.604476585151
 20
19355.490210999749
 30
0.0
 11
21593.604476585151
 21
19330.48097399978
 31
0.0
  0
LINE
  5
10B2D
  8
2-0
  6
CONTINUOUS
 62
     3
 10
21598.60474058515
 20
19355.490210999749
 30
0.0
 11
21593.604476585151
 21
19355.490210999749
 31
0.0
  0
LINE
  5
10B2E
  8
2-0
  6
CONTINUOUS
 62
     3
 10
21598.60474058515
 20
19348.484694999759
 30
0.0
 11
21598.60474058515
 21
19355.490210999749
 31
0.0
  0
LINE
  5
10B2F
  8
2-0
  6
CONTINUOUS
 62
     3
 10
21567.415445585139
 20
19348.48469499977
 30
0.0
 11
21567.415445585139
 21
19355.490210999771
 31
0.0
  0
LINE
  5
10B30
  8
2-0
  6
CONTINUOUS
 62
     3
 10
21567.415445585139
 20
19355.490210999771
 30
0.0
 11
21572.415709585151
 21
19355.490210999771
 31
0.0
  0
LINE
  5
10B31
  8
2-0
  6
CONTINUOUS
 62
     3
 10
21572.415709585151
 20
19355.490210999771
 30
0.0
 11
21572.415709585151
 21
19330.48097399978
 31
0.0
  0
LINE
  5
10B32
  8
2-0
  6
CONTINUOUS
 62
     3
 10
21572.415709585151
 20
19330.48097399978
 30
0.0
 11
21554.41594658513
 21
19330.48097399978
 31
0.0
  0
LINE
  5
10B33
  8
2-0
  6
CONTINUOUS
 62
     3
 10
21554.41594658513
 20
19330.48097399978
 30
0.0
 11
21554.41594658513
 21
19360.484536999771
 31
0.0
  0
LINE
  5
10B34
  8
2-0
  6
CONTINUOUS
 62
     3
 10
21570.509432585131
 20
19330.48097399978
 30
0.0
 11
21564.509511585129
 21
19330.48097399978
 31
0.0
  0
LINE
  5
10B35
  8
2-0
  6
CONTINUOUS
 62
     3
 10
21564.509511585129
 20
19330.48097399978
 30
0.0
 11
21564.509511585129
 21
19360.484536999771
 31
0.0
  0
LINE
  5
10B36
  8
2-0
  6
CONTINUOUS
 62
     3
 10
20866.409507085129
 20
19348.484694999788
 30
0.0
 11
20866.409507085129
 21
19355.490210999789
 31
0.0
  0
LINE
  5
10B37
  8
2-0
  6
CONTINUOUS
 62
     3
 10
20866.409507085129
 20
19355.490210999789
 30
0.0
 11
20871.409770085149
 21
19355.490210999789
 31
0.0
  0
LINE
  5
10B38
  8
2-0
  6
CONTINUOUS
 62
     3
 10
20871.409770085149
 20
19355.490210999789
 30
0.0
 11
20871.409770085149
 21
19330.480973999802
 31
0.0
  0
LINE
  5
10B39
  8
2-0
  6
CONTINUOUS
 62
     3
 10
20871.409770085149
 20
19330.480973999802
 30
0.0
 11
20853.415947085141
 21
19330.480973999802
 31
0.0
  0
LINE
  5
10B3A
  8
2-0
  6
CONTINUOUS
 62
     3
 10
20853.415947085141
 20
19330.480973999802
 30
0.0
 11
20853.415947085141
 21
19360.484536999789
 31
0.0
  0
LINE
  5
10B3B
  8
2-0
  6
CONTINUOUS
 62
     3
 10
20869.50745308512
 20
19330.480973999802
 30
0.0
 11
20863.509512085129
 21
19330.480973999802
 31
0.0
  0
LINE
  5
10B3C
  8
2-0
  6
CONTINUOUS
 62
     3
 10
20863.509512085129
 20
19330.480973999802
 30
0.0
 11
20863.509512085129
 21
19360.484536999789
 31
0.0
  0
LINE
  5
10B3D
  8
2-0
  6
CONTINUOUS
 62
     3
 10
20900.510673085151
 20
19360.484536999789
 30
0.0
 11
20863.509512085129
 21
19360.484536999789
 31
0.0
  0
LINE
  5
10B3E
  8
2-0
  6
CONTINUOUS
 62
     3
 10
20900.510673085151
 20
19330.480973999802
 30
0.0
 11
20900.510673085151
 21
19360.484536999789
 31
0.0
  0
LINE
  5
10B3F
  8
2-0
  6
CONTINUOUS
 62
     3
 10
20894.50481408515
 20
19330.480973999802
 30
0.0
 11
20900.510673085151
 21
19330.480973999802
 31
0.0
  0
LINE
  5
10B40
  8
2-0
  6
CONTINUOUS
 62
     3
 10
20910.60423808515
 20
19330.480973999802
 30
0.0
 11
20910.60423808515
 21
19360.484536999789
 31
0.0
  0
LINE
  5
10B41
  8
2-0
  6
CONTINUOUS
 62
     3
 10
20892.608435085142
 20
19330.480973999802
 30
0.0
 11
20910.60423808515
 21
19330.480973999802
 31
0.0
  0
LINE
  5
10B42
  8
2-0
  6
CONTINUOUS
 62
     3
 10
20892.608435085142
 20
19355.490210999789
 30
0.0
 11
20892.608435085142
 21
19330.480973999802
 31
0.0
  0
LINE
  5
10B43
  8
2-0
  6
CONTINUOUS
 62
     3
 10
20897.598801085151
 20
19355.490210999789
 30
0.0
 11
20892.608435085142
 21
19355.490210999789
 31
0.0
  0
LINE
  5
10B44
  8
2-0
  6
CONTINUOUS
 62
     3
 10
20897.598801085151
 20
19348.484694999788
 30
0.0
 11
20897.598801085151
 21
19355.490210999789
 31
0.0
  0
LINE
  5
10B45
  8
2-0
  6
CONTINUOUS
 62
     3
 10
20209.60324858515
 20
19360.484536999818
 30
0.0
 11
20853.415947085141
 21
19360.484536999789
 31
0.0
  0
LINE
  5
10B46
  8
2-0
  6
CONTINUOUS
 62
     3
 10
22258.893722585151
 20
19360.484536999738
 30
0.0
 11
21611.608197585141
 21
19360.484536999749
 31
0.0
  0
LINE
  5
10B47
  8
2-0
  6
CONTINUOUS
 62
     3
 10
21554.41594658513
 20
19360.484536999771
 30
0.0
 11
20910.60423808515
 21
19360.484536999789
 31
0.0
  0
LINE
  5
10B48
  8
2-0
  6
CONTINUOUS
 62
     3
 10
20196.601770585141
 20
19348.484694999821
 30
0.0
 11
20196.601770585141
 21
19355.490210999818
 31
0.0
  0
LINE
  5
10B49
  8
2-0
  6
CONTINUOUS
 62
     3
 10
20196.601770585141
 20
19355.490210999818
 30
0.0
 11
20191.60150658515
 21
19355.490210999818
 31
0.0
  0
LINE
  5
10B4A
  8
2-0
  6
CONTINUOUS
 62
     3
 10
20191.60150658515
 20
19355.490210999818
 30
0.0
 11
20191.60150658515
 21
19330.480973999831
 31
0.0
  0
LINE
  5
10B4B
  8
2-0
  6
CONTINUOUS
 62
     3
 10
20191.60150658515
 20
19330.480973999831
 30
0.0
 11
20209.60324858515
 21
19330.480973999831
 31
0.0
  0
LINE
  5
10B4C
  8
2-0
  6
CONTINUOUS
 62
     3
 10
20209.60324858515
 20
19330.480973999831
 30
0.0
 11
20209.60324858515
 21
19360.484536999818
 31
0.0
  0
LINE
  5
10B4D
  8
2-0
  6
CONTINUOUS
 62
     3
 10
20193.503823585172
 20
19330.480973999831
 30
0.0
 11
20199.50770358515
 21
19330.480973999831
 31
0.0
  0
LINE
  5
10B4E
  8
2-0
  6
CONTINUOUS
 62
     3
 10
20199.50770358515
 20
19330.480973999831
 30
0.0
 11
20199.50770358515
 21
19360.484536999818
 31
0.0
  0
LINE
  5
10B4F
  8
2-0
  6
CONTINUOUS
 62
     3
 10
20162.51248158512
 20
19360.484536999818
 30
0.0
 11
20199.50770358515
 21
19360.484536999818
 31
0.0
  0
LINE
  5
10B50
  8
2-0
  6
CONTINUOUS
 62
     3
 10
20162.51248158512
 20
19330.480973999831
 30
0.0
 11
20162.51248158512
 21
19360.484536999818
 31
0.0
  0
LINE
  5
10B51
  8
2-0
  6
CONTINUOUS
 62
     3
 10
20168.506463585149
 20
19330.480973999831
 30
0.0
 11
20162.51248158512
 21
19330.480973999831
 31
0.0
  0
LINE
  5
10B52
  8
2-0
  6
CONTINUOUS
 62
     3
 10
20152.416936585149
 20
19330.480973999831
 30
0.0
 11
20152.416936585149
 21
19360.484536999818
 31
0.0
  0
LINE
  5
10B53
  8
2-0
  6
CONTINUOUS
 62
     3
 10
20170.412739585161
 20
19330.480973999831
 30
0.0
 11
20152.416936585149
 21
19330.480973999831
 31
0.0
  0
LINE
  5
10B54
  8
2-0
  6
CONTINUOUS
 62
     3
 10
20170.412739585161
 20
19355.490210999818
 30
0.0
 11
20170.412739585161
 21
19330.480973999831
 31
0.0
  0
LINE
  5
10B55
  8
2-0
  6
CONTINUOUS
 62
     3
 10
20165.414455585149
 20
19355.490210999818
 30
0.0
 11
20170.412739585161
 21
19355.490210999818
 31
0.0
  0
LINE
  5
10B56
  8
2-0
  6
CONTINUOUS
 62
     3
 10
20165.414455585149
 20
19348.484694999821
 30
0.0
 11
20165.414455585149
 21
19355.490210999818
 31
0.0
  0
LINE
  5
10B57
  8
2-0
  6
CONTINUOUS
 62
     3
 10
19856.315334585131
 20
19360.484536999829
 30
0.0
 11
20152.416936585149
 21
19360.484536999818
 31
0.0
  0
LINE
  5
10B58
  8
2-0
  6
CONTINUOUS
 62
     3
 10
19731.011808585408
 20
15263.125688999749
 30
0.0
 11
19731.011808585441
 21
14619.08683099975
 31
0.0
  0
LINE
  5
10B59
  8
2-0
  6
CONTINUOUS
 62
     3
 10
19731.011808585441
 20
14561.890620999729
 30
0.0
 11
19731.011808585459
 21
13915.024258999731
 31
0.0
  0
LINE
  5
10B5A
  8
0-6
  6
CONTINUOUS
 62
     6
 10
19954.670450692702
 20
18956.277719967151
 30
0.0
 11
20979.710700692711
 21
18956.277719967111
 31
0.0
  0
TEXT
  5
10B5B
  8
0-6
  6
CONTINUOUS
 62
     7
 10
20034.670714692711
 20
19036.279963967128
 30
0.0
 40
160.0
  1
間柱（後）
 50
359.99999999999778
 72
     4
 11
20456.00404802605
 21
19116.27996396711
 31
0.0
  0
LINE
  5
10B5C
  8
0-6
  6
CONTINUOUS
 62
     6
 10
20979.710700692711
 20
18956.277719967111
 30
0.0
 11
21420.331666029531
 21
19243.175249046501
 31
0.0
  0
LINE
  5
10B5D
  8
2-0
  6
CONTINUOUS
 62
     6
 10
21554.416936585149
 20
19330.48097399978
 30
0.0
 11
21405.781274978192
 21
19265.525292404542
 31
0.0
  0
LINE
  5
10B5E
  8
2-0
  6
CONTINUOUS
 62
     6
 10
21405.781274978192
 20
19265.525292404542
 30
0.0
 11
21434.882057080889
 21
19220.825205688448
 31
0.0
  0
LINE
  5
10B5F
  8
2-0
  6
CONTINUOUS
 62
     6
 10
21434.882057080889
 20
19220.825205688448
 30
0.0
 11
21554.416936585149
 21
19330.48097399978
 31
0.0
  0
LINE
  5
10B60
  8
SUNPOU
  6
CONTINUOUS
 62
     4
 10
19651.01180858527
 20
18910.486251999719
 30
0.0
 11
18601.010488585271
 21
18910.486251999679
 31
0.0
  0
LINE
  5
10B61
  8
SUNPOU
  6
CONTINUOUS
 62
     4
 10
18801.01048858526
 20
19317.98625199969
 30
0.0
 11
18601.010488585249
 21
19317.98625199969
 31
0.0
  0
LINE
  5
10B62
  8
SUNPOU
  6
CONTINUOUS
 62
     4
 10
18681.010488585271
 20
18910.486251999679
 30
0.0
 11
18681.01048858526
 21
19317.98625199969
 31
0.0
  0
LINE
  5
10B63
  8
SUNPOU
  6
CONTINUOUS
 62
     4
 10
22341.010092585471
 20
13126.72281799982
 30
0.0
 11
22341.010092585479
 21
12781.038167999821
 31
0.0
  0
LINE
  5
10B64
  8
SUNPOU
  6
CONTINUOUS
 62
     4
 10
22383.512335585448
 20
13709.98895699984
 30
0.0
 11
22383.512335585488
 21
12781.03816799983
 31
0.0
  0
LINE
  5
10B65
  8
SUNPOU
  6
CONTINUOUS
 62
     4
 10
22341.010092585479
 20
12861.03816799983
 30
0.0
 11
22101.010092585479
 21
12861.038167999821
 31
0.0
  0
LINE
  5
10B66
  8
SUNPOU
  6
CONTINUOUS
 62
     4
 10
22383.512335585488
 20
12861.038167999841
 30
0.0
 11
22623.512335585488
 21
12861.038167999841
 31
0.0
  0
LINE
  5
10B67
  8
SUNPOU
  6
CONTINUOUS
 62
     4
 10
22341.010092585479
 20
12861.03816799983
 30
0.0
 11
22383.512335585488
 21
12861.038167999841
 31
0.0
  0
LINE
  5
10B68
  8
SUNPOU
  6
CONTINUOUS
 62
     4
 10
19773.510092585471
 20
13126.72281799972
 30
0.0
 11
19773.510092585479
 21
12781.03816799973
 31
0.0
  0
LINE
  5
10B69
  8
SUNPOU
  6
CONTINUOUS
 62
     4
 10
19731.00784958545
 20
13709.98895699973
 30
0.0
 11
19731.007849585501
 21
12781.038167999721
 31
0.0
  0
LINE
  5
10B6A
  8
SUNPOU
  6
CONTINUOUS
 62
     4
 10
19773.510092585479
 20
12861.038167999741
 30
0.0
 11
20013.510092585479
 21
12861.038167999741
 31
0.0
  0
LINE
  5
10B6B
  8
SUNPOU
  6
CONTINUOUS
 62
     4
 10
19731.00784958549
 20
12861.038167999721
 30
0.0
 11
19491.00784958549
 21
12861.038167999721
 31
0.0
  0
LINE
  5
10B6C
  8
SUNPOU
  6
CONTINUOUS
 62
     4
 10
19773.510092585479
 20
12861.038167999741
 30
0.0
 11
19731.00784958549
 21
12861.038167999721
 31
0.0
  0
LINE
  5
10B6D
  8
SUNPOU
  6
CONTINUOUS
 62
     4
 10
19773.510092585471
 20
13126.72281799972
 30
0.0
 11
19773.510092585479
 21
12781.03816799973
 31
0.0
  0
LINE
  5
10B6E
  8
SUNPOU
  6
CONTINUOUS
 62
     4
 10
19816.012335585459
 20
13709.988956999739
 30
0.0
 11
19816.012335585488
 21
12781.03816799973
 31
0.0
  0
LINE
  5
10B6F
  8
SUNPOU
  6
CONTINUOUS
 62
     4
 10
19773.510092585479
 20
12861.038167999741
 30
0.0
 11
19533.510092585479
 21
12861.038167999721
 31
0.0
  0
LINE
  5
10B70
  8
SUNPOU
  6
CONTINUOUS
 62
     4
 10
19816.012335585488
 20
12861.038167999741
 30
0.0
 11
20056.012335585488
 21
12861.038167999741
 31
0.0
  0
LINE
  5
10B71
  8
SUNPOU
  6
CONTINUOUS
 62
     4
 10
19773.510092585479
 20
12861.038167999741
 30
0.0
 11
19816.012335585488
 21
12861.038167999741
 31
0.0
  0
LINE
  5
10B72
  8
SUNPOU
  6
CONTINUOUS
 62
     4
 10
22341.010092585471
 20
13126.72281799982
 30
0.0
 11
22341.010092585479
 21
12781.038167999821
 31
0.0
  0
LINE
  5
10B73
  8
SUNPOU
  6
CONTINUOUS
 62
     4
 10
22298.507849585469
 20
13709.98895699983
 30
0.0
 11
22298.507849585501
 21
12781.038167999821
 31
0.0
  0
LINE
  5
10B74
  8
SUNPOU
  6
CONTINUOUS
 62
     4
 10
22341.010092585479
 20
12861.03816799983
 30
0.0
 11
22581.010092585479
 21
12861.038167999841
 31
0.0
  0
LINE
  5
10B75
  8
SUNPOU
  6
CONTINUOUS
 62
     4
 10
22298.507849585501
 20
12861.03816799983
 30
0.0
 11
22058.507849585501
 21
12861.038167999821
 31
0.0
  0
LINE
  5
10B76
  8
SUNPOU
  6
CONTINUOUS
 62
     4
 10
22341.010092585479
 20
12861.03816799983
 30
0.0
 11
22298.507849585501
 21
12861.03816799983
 31
0.0
  0
LINE
  5
10B77
  8
SUNPOU
  6
CONTINUOUS
 62
     4
 10
22383.512335585448
 20
13709.98895699984
 30
0.0
 11
22383.512335585499
 21
12381.03816799983
 31
0.0
  0
LINE
  5
10B78
  8
SUNPOU
  6
CONTINUOUS
 62
     4
 10
19731.00784958545
 20
13709.98895699973
 30
0.0
 11
19731.007849585509
 21
12381.038167999721
 31
0.0
  0
LINE
  5
10B79
  8
SUNPOU
  6
CONTINUOUS
 62
     4
 10
22383.512335585488
 20
12461.03816799983
 30
0.0
 11
19731.007849585509
 21
12461.038167999721
 31
0.0
  0
LINE
  5
10B7A
  8
SUNPOU
  6
CONTINUOUS
 62
     4
 10
19651.011808585441
 20
14590.48625199973
 30
0.0
 11
18601.010488585431
 21
14590.48625199969
 31
0.0
  0
LINE
  5
10B7B
  8
SUNPOU
  6
CONTINUOUS
 62
     4
 10
18801.010488585471
 20
13832.48625199969
 30
0.0
 11
18601.01048858546
 21
13832.48625199968
 31
0.0
  0
LINE
  5
10B7C
  8
SUNPOU
  6
CONTINUOUS
 62
     4
 10
18681.010488585442
 20
14590.48625199969
 30
0.0
 11
18681.01048858546
 21
13832.48625199968
 31
0.0
  0
LINE
  5
10B7D
  8
SUNPOU
  6
CONTINUOUS
 62
     4
 10
19651.011808585408
 20
15291.72676349975
 30
0.0
 11
18601.010488585409
 21
15291.72676349971
 31
0.0
  0
LINE
  5
10B7E
  8
SUNPOU
  6
CONTINUOUS
 62
     4
 10
19651.011808585441
 20
14590.48625199973
 30
0.0
 11
18601.010488585431
 21
14590.48625199969
 31
0.0
  0
LINE
  5
10B7F
  8
SUNPOU
  6
CONTINUOUS
 62
     4
 10
18681.010488585409
 20
15291.72676349971
 30
0.0
 11
18681.010488585442
 21
14590.48625199969
 31
0.0
  0
LINE
  5
10B80
  8
SUNPOU
  6
CONTINUOUS
 62
     4
 10
19651.011808585379
 20
15992.48625199973
 30
0.0
 11
18601.01048858538
 21
15992.48625199969
 31
0.0
  0
LINE
  5
10B81
  8
SUNPOU
  6
CONTINUOUS
 62
     4
 10
19651.011808585408
 20
15291.72676349975
 30
0.0
 11
18601.010488585409
 21
15291.72676349971
 31
0.0
  0
LINE
  5
10B82
  8
SUNPOU
  6
CONTINUOUS
 62
     4
 10
18681.01048858538
 20
15992.48625199969
 30
0.0
 11
18681.010488585409
 21
15291.72676349971
 31
0.0
  0
LINE
  5
10B83
  8
SUNPOU
  6
CONTINUOUS
 62
     4
 10
18801.010488585351
 20
16750.48625199969
 30
0.0
 11
18601.010488585351
 21
16750.48625199969
 31
0.0
  0
LINE
  5
10B84
  8
SUNPOU
  6
CONTINUOUS
 62
     4
 10
19651.011808585379
 20
15992.48625199973
 30
0.0
 11
18601.01048858538
 21
15992.48625199969
 31
0.0
  0
LINE
  5
10B85
  8
SUNPOU
  6
CONTINUOUS
 62
     4
 10
18681.010488585351
 20
16750.48625199969
 30
0.0
 11
18681.01048858538
 21
15992.48625199969
 31
0.0
  0
LINE
  5
10B86
  8
SUNPOU
  6
CONTINUOUS
 62
     4
 10
19651.011808585321
 20
17508.48625199973
 30
0.0
 11
18601.010488585322
 21
17508.48625199969
 31
0.0
  0
LINE
  5
10B87
  8
SUNPOU
  6
CONTINUOUS
 62
     4
 10
18801.010488585351
 20
16750.48625199969
 30
0.0
 11
18601.010488585351
 21
16750.48625199969
 31
0.0
  0
LINE
  5
10B88
  8
SUNPOU
  6
CONTINUOUS
 62
     4
 10
18681.010488585322
 20
17508.48625199969
 30
0.0
 11
18681.010488585351
 21
16750.48625199969
 31
0.0
  0
LINE
  5
10B89
  8
SUNPOU
  6
CONTINUOUS
 62
     4
 10
19651.011808585299
 20
18209.48625199973
 30
0.0
 11
18601.010488585289
 21
18209.48625199969
 31
0.0
  0
LINE
  5
10B8A
  8
SUNPOU
  6
CONTINUOUS
 62
     4
 10
19651.011808585321
 20
17508.48625199973
 30
0.0
 11
18601.010488585322
 21
17508.48625199969
 31
0.0
  0
LINE
  5
10B8B
  8
SUNPOU
  6
CONTINUOUS
 62
     4
 10
18681.0104885853
 20
18209.48625199969
 30
0.0
 11
18681.010488585322
 21
17508.48625199969
 31
0.0
  0
LINE
  5
10B8C
  8
SUNPOU
  6
CONTINUOUS
 62
     4
 10
19651.01180858527
 20
18910.486251999719
 30
0.0
 11
18601.010488585271
 21
18910.486251999679
 31
0.0
  0
LINE
  5
10B8D
  8
SUNPOU
  6
CONTINUOUS
 62
     4
 10
19651.011808585299
 20
18209.48625199973
 30
0.0
 11
18601.010488585289
 21
18209.48625199969
 31
0.0
  0
LINE
  5
10B8E
  8
SUNPOU
  6
CONTINUOUS
 62
     4
 10
18681.010488585271
 20
18910.486251999679
 30
0.0
 11
18681.0104885853
 21
18209.48625199969
 31
0.0
  0
LINE
  5
10B8F
  8
SUNPOU
  6
CONTINUOUS
 62
     4
 10
18801.01048858526
 20
19317.98625199969
 30
0.0
 11
18601.010488585249
 21
19317.986251999671
 31
0.0
  0
LINE
  5
10B90
  8
SUNPOU
  6
CONTINUOUS
 62
     4
 10
18801.010488585471
 20
13832.48625199969
 30
0.0
 11
18601.01048858546
 21
13832.48625199968
 31
0.0
  0
LINE
  5
10B91
  8
SUNPOU
  6
CONTINUOUS
 62
     4
 10
19651.011808585248
 20
19360.483546999731
 30
0.0
 11
18201.010488585242
 21
19360.483546999669
 31
0.0
  0
LINE
  5
10B92
  8
SUNPOU
  6
CONTINUOUS
 62
     4
 10
19651.011808585459
 20
13789.98895699973
 30
0.0
 11
18201.010488585449
 21
13789.988956999679
 31
0.0
  0
LINE
  5
10B93
  8
SUNPOU
  6
CONTINUOUS
 62
     4
 10
18281.010488585242
 20
19360.48354699968
 30
0.0
 11
18281.010488585449
 21
13789.988956999679
 31
0.0
  0
LINE
  5
10B94
  8
SUNPOU
  6
CONTINUOUS
 62
     4
 10
18801.01048858526
 20
19317.98625199969
 30
0.0
 11
18601.010488585249
 21
19317.986251999671
 31
0.0
  0
LINE
  5
10B95
  8
SUNPOU
  6
CONTINUOUS
 62
     4
 10
19651.011808585248
 20
19360.483546999731
 30
0.0
 11
18601.010488585249
 21
19360.483546999691
 31
0.0
  0
LINE
  5
10B96
  8
SUNPOU
  6
CONTINUOUS
 62
     4
 10
18681.01048858526
 20
19317.986251999671
 30
0.0
 11
18681.010488585271
 21
19077.986251999671
 31
0.0
  0
LINE
  5
10B97
  8
SUNPOU
  6
CONTINUOUS
 62
     4
 10
18681.010488585249
 20
19360.483546999691
 30
0.0
 11
18681.010488585249
 21
19600.483546999691
 31
0.0
  0
LINE
  5
10B98
  8
SUNPOU
  6
CONTINUOUS
 62
     4
 10
18681.01048858526
 20
19317.986251999671
 30
0.0
 11
18681.010488585249
 21
19360.483546999691
 31
0.0
  0
LINE
  5
10B99
  8
SUNPOU
  6
CONTINUOUS
 62
     4
 10
18801.010488585471
 20
13832.48625199969
 30
0.0
 11
18601.01048858546
 21
13832.48625199968
 31
0.0
  0
LINE
  5
10B9A
  8
SUNPOU
  6
CONTINUOUS
 62
     4
 10
19651.011808585459
 20
13789.98895699973
 30
0.0
 11
18601.01048858546
 21
13789.98895699969
 31
0.0
  0
LINE
  5
10B9B
  8
SUNPOU
  6
CONTINUOUS
 62
     4
 10
18681.01048858546
 20
13789.98895699969
 30
0.0
 11
18681.010488585482
 21
13549.98895699969
 31
0.0
  0
LINE
  5
10B9C
  8
SUNPOU
  6
CONTINUOUS
 62
     4
 10
18681.01048858546
 20
13832.48625199968
 30
0.0
 11
18681.01048858546
 21
13789.98895699969
 31
0.0
  0
LINE
  5
10B9D
  8
SUNPOU
  6
CONTINUOUS
 62
     4
 10
22341.010092585231
 20
19440.484536999829
 30
0.0
 11
22341.010092585198
 21
20240.48717599981
 31
0.0
  0
LINE
  5
10B9E
  8
SUNPOU
  6
CONTINUOUS
 62
     4
 10
20181.01009258514
 20
19440.484536999818
 30
0.0
 11
20181.010092585169
 21
20240.487175999799
 31
0.0
  0
LINE
  5
10B9F
  8
SUNPOU
  6
CONTINUOUS
 62
     4
 10
22341.010092585198
 20
20160.48717599981
 30
0.0
 11
22581.010092585198
 21
20160.487175999831
 31
0.0
  0
LINE
  5
10BA0
  8
SUNPOU
  6
CONTINUOUS
 62
     4
 10
20181.010092585158
 20
20160.487175999799
 30
0.0
 11
20421.010092585158
 21
20160.487175999791
 31
0.0
  0
LINE
  5
10BA1
  8
SUNPOU
  6
CONTINUOUS
 62
     4
 10
19773.51009258518
 20
20160.48717599981
 30
0.0
 11
20181.010092585158
 21
20160.487175999799
 31
0.0
  0
LINE
  5
10BA2
  8
SUNPOU
  6
CONTINUOUS
 62
     4
 10
21583.010092585151
 20
19440.484536999771
 30
0.0
 11
21583.010092585191
 21
20240.487175999751
 31
0.0
  0
LINE
  5
10BA3
  8
SUNPOU
  6
CONTINUOUS
 62
     4
 10
19773.50910308522
 20
19440.484536999738
 30
0.0
 11
19773.509103085191
 21
20240.487175999719
 31
0.0
  0
LINE
  5
10BA4
  8
SUNPOU
  6
CONTINUOUS
 62
     4
 10
21583.010092585191
 20
20160.487175999751
 30
0.0
 11
22341.011082085181
 21
20160.487175999719
 31
0.0
  0
LINE
  5
10BA5
  8
SUNPOU
  6
CONTINUOUS
 62
     4
 10
20882.01009258514
 20
19440.484536999789
 30
0.0
 11
20882.010092585169
 21
20240.48717599977
 31
0.0
  0
LINE
  5
10BA6
  8
SUNPOU
  6
CONTINUOUS
 62
     4
 10
21583.010092585151
 20
19440.484536999771
 30
0.0
 11
21583.010092585191
 21
20240.487175999751
 31
0.0
  0
LINE
  5
10BA7
  8
SUNPOU
  6
CONTINUOUS
 62
     4
 10
20882.010092585158
 20
20160.48717599977
 30
0.0
 11
21583.010092585191
 21
20160.487175999751
 31
0.0
  0
LINE
  5
10BA8
  8
SUNPOU
  6
CONTINUOUS
 62
     4
 10
20181.01009258514
 20
19440.484536999818
 30
0.0
 11
20181.010092585169
 21
20240.487175999799
 31
0.0
  0
LINE
  5
10BA9
  8
SUNPOU
  6
CONTINUOUS
 62
     4
 10
20882.01009258514
 20
19440.484536999789
 30
0.0
 11
20882.010092585169
 21
20240.48717599977
 31
0.0
  0
LINE
  5
10BAA
  8
SUNPOU
  6
CONTINUOUS
 62
     4
 10
20181.010092585158
 20
20160.487175999799
 30
0.0
 11
20882.010092585158
 21
20160.48717599977
 31
0.0
  0
LINE
  5
10BAB
  8
SUNPOU
  6
CONTINUOUS
 62
     4
 10
19773.510092585231
 20
19440.484536999738
 30
0.0
 11
19773.510092585198
 21
20240.487175999719
 31
0.0
  0
LINE
  5
10BAC
  8
SUNPOU
  6
CONTINUOUS
 62
     4
 10
19731.013787585242
 20
19440.484536999731
 30
0.0
 11
19731.013787585209
 21
20240.487175999711
 31
0.0
  0
LINE
  5
10BAD
  8
SUNPOU
  6
CONTINUOUS
 62
     4
 10
19773.510092585198
 20
20160.487175999719
 30
0.0
 11
20013.510092585198
 21
20160.48717599973
 31
0.0
  0
LINE
  5
10BAE
  8
SUNPOU
  6
CONTINUOUS
 62
     4
 10
19731.013787585209
 20
20160.487175999711
 30
0.0
 11
19491.013787585209
 21
20160.487175999711
 31
0.0
  0
LINE
  5
10BAF
  8
SUNPOU
  6
CONTINUOUS
 62
     4
 10
19773.510092585198
 20
20160.487175999719
 30
0.0
 11
19731.013787585209
 21
20160.487175999711
 31
0.0
  0
LINE
  5
10BB0
  8
SUNPOU
  6
CONTINUOUS
 62
     4
 10
22341.010092585231
 20
19440.484536999829
 30
0.0
 11
22341.010092585198
 21
20240.48717599981
 31
0.0
  0
LINE
  5
10BB1
  8
SUNPOU
  6
CONTINUOUS
 62
     4
 10
22383.506397585239
 20
19440.484536999829
 30
0.0
 11
22383.50639758521
 21
20240.48717599982
 31
0.0
  0
LINE
  5
10BB2
  8
SUNPOU
  6
CONTINUOUS
 62
     4
 10
19773.51009258518
 20
20160.48717599981
 30
0.0
 11
20013.51009258518
 21
20160.48717599981
 31
0.0
  0
LINE
  5
10BB3
  8
SUNPOU
  6
CONTINUOUS
 62
     4
 10
22383.506397585221
 20
20160.48717599982
 30
0.0
 11
22623.506397585221
 21
20160.487175999831
 31
0.0
  0
LINE
  5
10BB4
  8
SUNPOU
  6
CONTINUOUS
 62
     4
 10
22341.010092585198
 20
20160.48717599981
 30
0.0
 11
22383.506397585221
 21
20160.48717599982
 31
0.0
  0
TEXT
  5
10BB5
  8
0
  6
CONTINUOUS
 62
     7
 10
22463.822072114021
 20
20240.48717599982
 30
0.0
 40
160.0
  1
42.5
 50
0.0000000000021583
  0
TEXT
  5
10BB6
  8
0
  6
CONTINUOUS
 62
     7
 10
19170.69811305642
 20
20240.487175999689
 30
0.0
 40
160.0
  1
42.5
 50
0.0000000000021583
  0
TEXT
  5
10BB7
  8
0
  6
CONTINUOUS
 62
     7
 10
20358.176759251852
 20
19920.48717599978
 30
0.0
 40
160.0
  1
701
 50
359.99999999999778
  0
TEXT
  5
10BB8
  8
0
  6
CONTINUOUS
 62
     7
 10
21059.176759251852
 20
20240.48717599977
 30
0.0
 40
160.0
  1
701
 50
359.99999999999778
  0
TEXT
  5
10BB9
  8
0
  6
CONTINUOUS
 62
     7
 10
21748.67725400185
 20
20240.487175999751
 30
0.0
 40
160.0
  1
758
 50
359.99999999999778
  0
TEXT
  5
10BBA
  8
0
  6
CONTINUOUS
 62
     7
 10
19874.343425918509
 20
20240.48717599981
 30
0.0
 40
160.0
  1
407.5
 50
359.99999999999778
  0
TEXT
  5
10BBB
  8
0
  6
CONTINUOUS
 62
     7
 10
18601.010488585489
 20
13216.432720602879
 30
0.0
 40
160.0
  1
42.5
 50
90.0
  0
TEXT
  5
10BBC
  8
0
  6
CONTINUOUS
 62
     7
 10
18601.010488585249
 20
19454.039783396471
 30
0.0
 40
160.0
  1
42.5
 50
90.0
  0
TEXT
  5
10BBD
  8
0
  6
CONTINUOUS
 62
     7
 10
18201.010488585362
 20
16188.569585333
 30
0.0
 40
160.0
  1
5570.5
 50
90.0
  0
TEXT
  5
10BBE
  8
0
  6
CONTINUOUS
 62
     7
 10
18921.010488585289
 20
18386.652918666368
 30
0.0
 40
160.0
  1
701
 50
90.0
  0
TEXT
  5
10BBF
  8
0
  6
CONTINUOUS
 62
     7
 10
18601.010488585322
 20
17685.65291866635
 30
0.0
 40
160.0
  1
701
 50
90.0
  0
TEXT
  5
10BC0
  8
0
  6
CONTINUOUS
 62
     7
 10
18601.010488585351
 20
16916.15291866635
 30
0.0
 40
160.0
  1
758
 50
90.0
  0
TEXT
  5
10BC1
  8
0
  6
CONTINUOUS
 62
     7
 10
18601.01048858538
 20
16158.15291866635
 30
0.0
 40
160.0
  1
758
 50
90.0
  0
TEXT
  5
10BC2
  8
0
  6
CONTINUOUS
 62
     7
 10
18601.010488585402
 20
15468.773174416359
 30
0.0
 40
160.0
  1
701
 50
90.0
  0
TEXT
  5
10BC3
  8
0
  6
CONTINUOUS
 62
     7
 10
18601.010488585431
 20
14767.773174416359
 30
0.0
 40
160.0
  1
701
 50
90.0
  0
TEXT
  5
10BC4
  8
0
  6
CONTINUOUS
 62
     7
 10
18601.01048858546
 20
13998.152918666339
 30
0.0
 40
160.0
  1
758
 50
90.0
  0
TEXT
  5
10BC5
  8
0
  6
CONTINUOUS
 62
     7
 10
20657.2600925855
 20
12541.038167999761
 30
0.0
 40
160.0
  1
2652.5
 50
0.0000000000021583
  0
TEXT
  5
10BC6
  8
0
  6
CONTINUOUS
 62
     7
 10
21742.956420203391
 20
12941.03816799981
 30
0.0
 40
160.0
  1
42.5
 50
0.0000000000021583
  0
TEXT
  5
10BC7
  8
0
  6
CONTINUOUS
 62
     7
 10
19891.563764967559
 20
12941.038167999741
 30
0.0
 40
160.0
  1
42.5
 50
0.0000000000021583
  0
TEXT
  5
10BC8
  8
0
  6
CONTINUOUS
 62
     7
 10
19175.456420203391
 20
12941.03816799971
 30
0.0
 40
160.0
  1
42.5
 50
0.0000000000021583
  0
TEXT
  5
10BC9
  8
0
  6
CONTINUOUS
 62
     7
 10
22459.06376496757
 20
12941.038167999841
 30
0.0
 40
160.0
  1
42.5
 50
0.0000000000021583
  0
TEXT
  5
10BCA
  8
0
  6
CONTINUOUS
 62
     7
 10
18561.010488585282
 20
18619.864219642888
 30
0.0
 40
160.0
  1
407.5
 50
90.0
  0
ARC
  5
10BCB
  8
0
  6
BYBLOCK
 62
     0
 10
18681.010488585271
 20
18910.486251999679
 30
0.0
 40
15.0
 50
270.0
 51
90.0
  0
ARC
  5
10BCC
  8
0
  6
BYBLOCK
 62
     0
 10
18681.010488585271
 20
18910.486251999679
 30
0.0
 40
15.0
 50
90.0
 51
270.0
  0
ARC
  5
10BCD
  8
0
  6
BYBLOCK
 62
     0
 10
18681.01048858526
 20
19317.98625199969
 30
0.0
 40
15.0
 50
90.0
 51
270.0
  0
ARC
  5
10BCE
  8
0
  6
BYBLOCK
 62
     0
 10
18681.01048858526
 20
19317.98625199969
 30
0.0
 40
15.0
 50
270.0
 51
90.0
  0
ARC
  5
10BCF
  8
0
  6
BYBLOCK
 62
     0
 10
22341.010092585479
 20
12861.03816799983
 30
0.0
 40
15.0
 50
0.0
 51
180.0
  0
ARC
  5
10BD0
  8
0
  6
BYBLOCK
 62
     0
 10
22341.010092585479
 20
12861.03816799983
 30
0.0
 40
15.0
 50
180.0
 51
0.0
  0
ARC
  5
10BD1
  8
0
  6
BYBLOCK
 62
     0
 10
22383.512335585488
 20
12861.038167999841
 30
0.0
 40
15.0
 50
180.0
 51
0.0
  0
ARC
  5
10BD2
  8
0
  6
BYBLOCK
 62
     0
 10
22383.512335585488
 20
12861.038167999841
 30
0.0
 40
15.0
 50
0.0
 51
180.0
  0
ARC
  5
10BD3
  8
0
  6
BYBLOCK
 62
     0
 10
19773.510092585479
 20
12861.038167999741
 30
0.0
 40
15.0
 50
180.0
 51
0.0
  0
ARC
  5
10BD4
  8
0
  6
BYBLOCK
 62
     0
 10
19773.510092585479
 20
12861.038167999741
 30
0.0
 40
15.0
 50
0.0
 51
180.0
  0
ARC
  5
10BD5
  8
0
  6
BYBLOCK
 62
     0
 10
19731.00784958549
 20
12861.038167999721
 30
0.0
 40
15.0
 50
0.0
 51
180.0
  0
ARC
  5
10BD6
  8
0
  6
BYBLOCK
 62
     0
 10
19731.00784958549
 20
12861.038167999721
 30
0.0
 40
15.0
 50
180.0
 51
0.0
  0
ARC
  5
10BD7
  8
0
  6
BYBLOCK
 62
     0
 10
19773.510092585479
 20
12861.038167999741
 30
0.0
 40
15.0
 50
0.0
 51
180.0
  0
ARC
  5
10BD8
  8
0
  6
BYBLOCK
 62
     0
 10
19773.510092585479
 20
12861.038167999741
 30
0.0
 40
15.0
 50
180.0
 51
0.0
  0
ARC
  5
10BD9
  8
0
  6
BYBLOCK
 62
     0
 10
19816.012335585488
 20
12861.038167999741
 30
0.0
 40
15.0
 50
180.0
 51
0.0
  0
ARC
  5
10BDA
  8
0
  6
BYBLOCK
 62
     0
 10
19816.012335585488
 20
12861.038167999741
 30
0.0
 40
15.0
 50
0.0
 51
180.0
  0
ARC
  5
10BDB
  8
0
  6
BYBLOCK
 62
     0
 10
22341.010092585479
 20
12861.03816799983
 30
0.0
 40
15.0
 50
180.0
 51
0.0
  0
ARC
  5
10BDC
  8
0
  6
BYBLOCK
 62
     0
 10
22341.010092585479
 20
12861.03816799983
 30
0.0
 40
15.0
 50
0.0
 51
180.0
  0
ARC
  5
10BDD
  8
0
  6
BYBLOCK
 62
     0
 10
22298.507849585501
 20
12861.03816799983
 30
0.0
 40
15.0
 50
0.0
 51
180.0
  0
ARC
  5
10BDE
  8
0
  6
BYBLOCK
 62
     0
 10
22298.507849585501
 20
12861.03816799983
 30
0.0
 40
15.0
 50
180.0
 51
0.0
  0
ARC
  5
10BDF
  8
0
  6
BYBLOCK
 62
     0
 10
22383.512335585488
 20
12461.03816799983
 30
0.0
 40
15.0
 50
0.0
 51
180.0
  0
ARC
  5
10BE0
  8
0
  6
BYBLOCK
 62
     0
 10
22383.512335585488
 20
12461.03816799983
 30
0.0
 40
15.0
 50
180.0
 51
0.0
  0
ARC
  5
10BE1
  8
0
  6
BYBLOCK
 62
     0
 10
19731.007849585509
 20
12461.038167999721
 30
0.0
 40
15.0
 50
180.0
 51
0.0
  0
ARC
  5
10BE2
  8
0
  6
BYBLOCK
 62
     0
 10
19731.007849585509
 20
12461.038167999721
 30
0.0
 40
15.0
 50
0.0
 51
180.0
  0
ARC
  5
10BE3
  8
0
  6
BYBLOCK
 62
     0
 10
18681.010488585442
 20
14590.48625199969
 30
0.0
 40
15.0
 50
90.0
 51
270.0
  0
ARC
  5
10BE4
  8
0
  6
BYBLOCK
 62
     0
 10
18681.010488585442
 20
14590.48625199969
 30
0.0
 40
15.0
 50
270.0
 51
90.0
  0
ARC
  5
10BE5
  8
0
  6
BYBLOCK
 62
     0
 10
18681.01048858546
 20
13832.48625199968
 30
0.0
 40
15.0
 50
270.0
 51
90.0
  0
ARC
  5
10BE6
  8
0
  6
BYBLOCK
 62
     0
 10
18681.01048858546
 20
13832.48625199968
 30
0.0
 40
15.0
 50
90.0
 51
270.0
  0
ARC
  5
10BE7
  8
0
  6
BYBLOCK
 62
     0
 10
18681.010488585409
 20
15291.72676349971
 30
0.0
 40
15.0
 50
90.0
 51
270.0
  0
ARC
  5
10BE8
  8
0
  6
BYBLOCK
 62
     0
 10
18681.010488585409
 20
15291.72676349971
 30
0.0
 40
15.0
 50
270.0
 51
90.0
  0
ARC
  5
10BE9
  8
0
  6
BYBLOCK
 62
     0
 10
18681.010488585442
 20
14590.48625199969
 30
0.0
 40
15.0
 50
270.0
 51
90.0
  0
ARC
  5
10BEA
  8
0
  6
BYBLOCK
 62
     0
 10
18681.010488585442
 20
14590.48625199969
 30
0.0
 40
15.0
 50
90.0
 51
270.0
  0
ARC
  5
10BEB
  8
0
  6
BYBLOCK
 62
     0
 10
18681.01048858538
 20
15992.48625199969
 30
0.0
 40
15.0
 50
90.0
 51
270.0
  0
ARC
  5
10BEC
  8
0
  6
BYBLOCK
 62
     0
 10
18681.01048858538
 20
15992.48625199969
 30
0.0
 40
15.0
 50
270.0
 51
90.0
  0
ARC
  5
10BED
  8
0
  6
BYBLOCK
 62
     0
 10
18681.010488585409
 20
15291.72676349971
 30
0.0
 40
15.0
 50
270.0
 51
90.0
  0
ARC
  5
10BEE
  8
0
  6
BYBLOCK
 62
     0
 10
18681.010488585409
 20
15291.72676349971
 30
0.0
 40
15.0
 50
90.0
 51
270.0
  0
ARC
  5
10BEF
  8
0
  6
BYBLOCK
 62
     0
 10
18681.010488585351
 20
16750.48625199969
 30
0.0
 40
15.0
 50
90.0
 51
270.0
  0
ARC
  5
10BF0
  8
0
  6
BYBLOCK
 62
     0
 10
18681.010488585351
 20
16750.48625199969
 30
0.0
 40
15.0
 50
270.0
 51
90.0
  0
ARC
  5
10BF1
  8
0
  6
BYBLOCK
 62
     0
 10
18681.01048858538
 20
15992.48625199969
 30
0.0
 40
15.0
 50
270.0
 51
90.0
  0
ARC
  5
10BF2
  8
0
  6
BYBLOCK
 62
     0
 10
18681.01048858538
 20
15992.48625199969
 30
0.0
 40
15.0
 50
90.0
 51
270.0
  0
ARC
  5
10BF3
  8
0
  6
BYBLOCK
 62
     0
 10
18681.010488585322
 20
17508.48625199969
 30
0.0
 40
15.0
 50
90.0
 51
270.0
  0
ARC
  5
10BF4
  8
0
  6
BYBLOCK
 62
     0
 10
18681.010488585322
 20
17508.48625199969
 30
0.0
 40
15.0
 50
270.0
 51
90.0
  0
ARC
  5
10BF5
  8
0
  6
BYBLOCK
 62
     0
 10
18681.010488585351
 20
16750.48625199969
 30
0.0
 40
15.0
 50
270.0
 51
90.0
  0
ARC
  5
10BF6
  8
0
  6
BYBLOCK
 62
     0
 10
18681.010488585351
 20
16750.48625199969
 30
0.0
 40
15.0
 50
90.0
 51
270.0
  0
ARC
  5
10BF7
  8
0
  6
BYBLOCK
 62
     0
 10
18681.0104885853
 20
18209.48625199969
 30
0.0
 40
15.0
 50
90.0
 51
270.0
  0
ARC
  5
10BF8
  8
0
  6
BYBLOCK
 62
     0
 10
18681.0104885853
 20
18209.48625199969
 30
0.0
 40
15.0
 50
270.0
 51
90.0
  0
ARC
  5
10BF9
  8
0
  6
BYBLOCK
 62
     0
 10
18681.010488585322
 20
17508.48625199969
 30
0.0
 40
15.0
 50
270.0
 51
90.0
  0
ARC
  5
10BFA
  8
0
  6
BYBLOCK
 62
     0
 10
18681.010488585322
 20
17508.48625199969
 30
0.0
 40
15.0
 50
90.0
 51
270.0
  0
ARC
  5
10BFB
  8
0
  6
BYBLOCK
 62
     0
 10
18681.010488585271
 20
18910.486251999679
 30
0.0
 40
15.0
 50
90.0
 51
270.0
  0
ARC
  5
10BFC
  8
0
  6
BYBLOCK
 62
     0
 10
18681.010488585271
 20
18910.486251999679
 30
0.0
 40
15.0
 50
270.0
 51
90.0
  0
ARC
  5
10BFD
  8
0
  6
BYBLOCK
 62
     0
 10
18681.0104885853
 20
18209.48625199969
 30
0.0
 40
15.0
 50
270.0
 51
90.0
  0
ARC
  5
10BFE
  8
0
  6
BYBLOCK
 62
     0
 10
18681.0104885853
 20
18209.48625199969
 30
0.0
 40
15.0
 50
90.0
 51
270.0
  0
ARC
  5
10BFF
  8
0
  6
BYBLOCK
 62
     0
 10
18681.01048858526
 20
19317.986251999671
 30
0.0
 40
15.0
 50
90.0
 51
270.0
  0
ARC
  5
10C00
  8
0
  6
BYBLOCK
 62
     0
 10
18681.01048858526
 20
19317.986251999671
 30
0.0
 40
15.0
 50
270.0
 51
90.0
  0
ARC
  5
10C01
  8
0
  6
BYBLOCK
 62
     0
 10
18681.01048858546
 20
13832.48625199968
 30
0.0
 40
15.0
 50
270.0
 51
90.0
  0
ARC
  5
10C02
  8
0
  6
BYBLOCK
 62
     0
 10
18681.01048858546
 20
13832.48625199968
 30
0.0
 40
15.0
 50
90.0
 51
270.0
  0
ARC
  5
10C03
  8
0
  6
BYBLOCK
 62
     0
 10
18281.010488585242
 20
19360.48354699968
 30
0.0
 40
15.0
 50
90.0
 51
270.0
  0
ARC
  5
10C04
  8
0
  6
BYBLOCK
 62
     0
 10
18281.010488585242
 20
19360.48354699968
 30
0.0
 40
15.0
 50
270.0
 51
90.0
  0
ARC
  5
10C05
  8
0
  6
BYBLOCK
 62
     0
 10
18281.010488585449
 20
13789.988956999679
 30
0.0
 40
15.0
 50
270.0
 51
90.0
  0
ARC
  5
10C06
  8
0
  6
BYBLOCK
 62
     0
 10
18281.010488585449
 20
13789.988956999679
 30
0.0
 40
15.0
 50
90.0
 51
270.0
  0
ARC
  5
10C07
  8
0
  6
BYBLOCK
 62
     0
 10
18681.01048858526
 20
19317.986251999671
 30
0.0
 40
15.0
 50
90.0
 51
270.0
  0
ARC
  5
10C08
  8
0
  6
BYBLOCK
 62
     0
 10
18681.01048858526
 20
19317.986251999671
 30
0.0
 40
15.0
 50
270.0
 51
90.0
  0
ARC
  5
10C09
  8
0
  6
BYBLOCK
 62
     0
 10
18681.010488585249
 20
19360.483546999691
 30
0.0
 40
15.0
 50
270.0
 51
90.0
  0
ARC
  5
10C0A
  8
0
  6
BYBLOCK
 62
     0
 10
18681.010488585249
 20
19360.483546999691
 30
0.0
 40
15.0
 50
90.0
 51
270.0
  0
ARC
  5
10C0B
  8
0
  6
BYBLOCK
 62
     0
 10
18681.01048858546
 20
13832.48625199968
 30
0.0
 40
15.0
 50
270.0
 51
90.0
  0
ARC
  5
10C0C
  8
0
  6
BYBLOCK
 62
     0
 10
18681.01048858546
 20
13832.48625199968
 30
0.0
 40
15.0
 50
90.0
 51
270.0
  0
ARC
  5
10C0D
  8
0
  6
BYBLOCK
 62
     0
 10
18681.01048858546
 20
13789.98895699969
 30
0.0
 40
15.0
 50
90.0
 51
270.0
  0
ARC
  5
10C0E
  8
0
  6
BYBLOCK
 62
     0
 10
18681.01048858546
 20
13789.98895699969
 30
0.0
 40
15.0
 50
270.0
 51
90.0
  0
ARC
  5
10C0F
  8
0
  6
BYBLOCK
 62
     0
 10
22341.010092585198
 20
20160.48717599981
 30
0.0
 40
15.0
 50
180.0
 51
0.0
  0
ARC
  5
10C10
  8
0
  6
BYBLOCK
 62
     0
 10
22341.010092585198
 20
20160.48717599981
 30
0.0
 40
15.0
 50
0.0
 51
180.0
  0
ARC
  5
10C11
  8
0
  6
BYBLOCK
 62
     0
 10
20181.010092585158
 20
20160.487175999799
 30
0.0
 40
15.0
 50
0.000000000000007
 51
180.0
  0
ARC
  5
10C12
  8
0
  6
BYBLOCK
 62
     0
 10
20181.010092585158
 20
20160.487175999799
 30
0.0
 40
15.0
 50
180.0
 51
0.000000000000007
  0
ARC
  5
10C13
  8
0
  6
BYBLOCK
 62
     0
 10
21583.010092585191
 20
20160.487175999751
 30
0.0
 40
15.0
 50
0.000000000000007
 51
180.0
  0
ARC
  5
10C14
  8
0
  6
BYBLOCK
 62
     0
 10
21583.010092585191
 20
20160.487175999751
 30
0.0
 40
15.0
 50
180.0
 51
0.000000000000007
  0
ARC
  5
10C15
  8
0
  6
BYBLOCK
 62
     0
 10
19773.509103085202
 20
20160.487175999719
 30
0.0
 40
15.0
 50
180.0
 51
0.0
  0
ARC
  5
10C16
  8
0
  6
BYBLOCK
 62
     0
 10
19773.509103085202
 20
20160.487175999719
 30
0.0
 40
15.0
 50
0.0
 51
180.0
  0
ARC
  5
10C17
  8
0
  6
BYBLOCK
 62
     0
 10
20882.010092585158
 20
20160.48717599977
 30
0.0
 40
15.0
 50
0.000000000000007
 51
180.0
  0
ARC
  5
10C18
  8
0
  6
BYBLOCK
 62
     0
 10
20882.010092585158
 20
20160.48717599977
 30
0.0
 40
15.0
 50
180.0
 51
0.000000000000007
  0
ARC
  5
10C19
  8
0
  6
BYBLOCK
 62
     0
 10
21583.010092585191
 20
20160.487175999751
 30
0.0
 40
15.0
 50
180.0
 51
0.000000000000007
  0
ARC
  5
10C1A
  8
0
  6
BYBLOCK
 62
     0
 10
21583.010092585191
 20
20160.487175999751
 30
0.0
 40
15.0
 50
0.000000000000007
 51
180.0
  0
ARC
  5
10C1B
  8
0
  6
BYBLOCK
 62
     0
 10
20181.010092585158
 20
20160.487175999799
 30
0.0
 40
15.0
 50
0.000000000000007
 51
180.0
  0
ARC
  5
10C1C
  8
0
  6
BYBLOCK
 62
     0
 10
20181.010092585158
 20
20160.487175999799
 30
0.0
 40
15.0
 50
180.0
 51
0.000000000000007
  0
ARC
  5
10C1D
  8
0
  6
BYBLOCK
 62
     0
 10
20882.010092585158
 20
20160.48717599977
 30
0.0
 40
15.0
 50
180.0
 51
0.000000000000007
  0
ARC
  5
10C1E
  8
0
  6
BYBLOCK
 62
     0
 10
20882.010092585158
 20
20160.48717599977
 30
0.0
 40
15.0
 50
0.000000000000007
 51
180.0
  0
ARC
  5
10C1F
  8
0
  6
BYBLOCK
 62
     0
 10
19773.510092585198
 20
20160.487175999719
 30
0.0
 40
15.0
 50
180.0
 51
0.0
  0
ARC
  5
10C20
  8
0
  6
BYBLOCK
 62
     0
 10
19773.510092585198
 20
20160.487175999719
 30
0.0
 40
15.0
 50
0.0
 51
180.0
  0
ARC
  5
10C21
  8
0
  6
BYBLOCK
 62
     0
 10
19731.013787585209
 20
20160.487175999711
 30
0.0
 40
15.0
 50
0.0
 51
180.0
  0
ARC
  5
10C22
  8
0
  6
BYBLOCK
 62
     0
 10
19731.013787585209
 20
20160.487175999711
 30
0.0
 40
15.0
 50
180.0
 51
0.0
  0
ARC
  5
10C23
  8
0
  6
BYBLOCK
 62
     0
 10
22341.010092585198
 20
20160.48717599981
 30
0.0
 40
15.0
 50
0.0
 51
180.0
  0
ARC
  5
10C24
  8
0
  6
BYBLOCK
 62
     0
 10
22341.010092585198
 20
20160.48717599981
 30
0.0
 40
15.0
 50
180.0
 51
0.0
  0
ARC
  5
10C25
  8
0
  6
BYBLOCK
 62
     0
 10
22383.506397585221
 20
20160.48717599982
 30
0.0
 40
15.0
 50
180.0
 51
0.0
  0
ARC
  5
10C26
  8
0
  6
BYBLOCK
 62
     0
 10
22383.506397585221
 20
20160.48717599982
 30
0.0
 40
15.0
 50
0.0
 51
180.0
  0
TEXT
  5
10D31
  8
FILENAME
  6
CONTINUOUS
 10
26480.190476190481
 20
348.0
 30
0.0
 40
200.0
  1
＜VGC-2655+VKC-5055-R-1-A_0.DXF ＞
  7
FILENAME
 72
     2
 11
32764.0
 21
348.0
 31
0.0
  0
LINE
  5
10D36
  8
WAKUSEN-01
 10
868.00000000000193
 20
827.99999999999955
 30
0.0
 11
32764.000000000011
 21
827.99999999999943
 31
0.0
  0
LINE
  5
10D37
  8
WAKUSEN-01
 10
868.00000000000193
 20
827.99999999999955
 30
0.0
 11
868.00000000000193
 21
22484.000000000011
 31
0.0
  0
LINE
  5
10D38
  8
WAKUSEN-01
 10
32764.000000000011
 20
827.99999999999943
 30
0.0
 11
32764.000000000011
 21
22484.000000000011
 31
0.0
  0
LINE
  5
10D39
  8
WAKUSEN-01
 10
20560.0
 20
827.99999999999716
 30
0.0
 11
20560.0
 21
2484.0
 31
0.0
  0
LINE
  5
10D3A
  8
WAKUSEN-02
 10
26868.0
 20
827.99999999999261
 30
0.0
 11
26868.0
 21
2484.0
 31
0.0
  0
ENDSEC
  0
EOF
