  0
SECTION
  2
HEADER
  9
$ACADVER
  1
AC1009
  9
$INSBASE
 10
0.0
 20
0.0
 30
0.0
  9
$EXTMIN
 10
867.99324330406671
 20
327.38164749855792
 30
-0.000000000000013
  9
$EXTMAX
 10
32765.33210850941
 20
22484.553276491992
 30
0.0000000000000023
  9
$LIMMIN
 10
0.0
 20
0.0
  9
$LIMMAX
 10
33600.0
 20
23760.0
  9
$ORTHOMODE
 70
     1
  9
$REGENMODE
 70
     1
  9
$FILLMODE
 70
     1
  9
$QTEXTMODE
 70
     0
  9
$MIRRTEXT
 70
     0
  9
$DRAGMODE
 70
     2
  9
$LTSCALE
 40
80.0
  9
$OSMODE
 70
  3071
  9
$ATTMODE
 70
     1
  9
$TEXTSIZE
 40
0.2
  9
$TRACEWID
 40
0.05
  9
$TEXTSTYLE
  7
00
  9
$CLAYER
  8
0
  9
$CELTYPE
  6
BYLAYER
  9
$CECOLOR
 62
   256
  9
$DIMSCALE
 40
80.0
  9
$DIMASZ
 40
3.0
  9
$DIMEXO
 40
1.0
  9
$DIMDLI
 40
0.38
  9
$DIMRND
 40
0.5
  9
$DIMDLE
 40
0.0
  9
$DIMEXE
 40
1.0
  9
$DIMTP
 40
0.0
  9
$DIMTM
 40
0.0
  9
$DIMTXT
 40
2.0
  9
$DIMCEN
 40
0.09
  9
$DIMTSZ
 40
0.0
  9
$DIMTOL
 70
     0
  9
$DIMLIM
 70
     0
  9
$DIMTIH
 70
     0
  9
$DIMTOH
 70
     0
  9
$DIMSE1
 70
     0
  9
$DIMSE2
 70
     0
  9
$DIMTAD
 70
     1
  9
$DIMZIN
 70
     8
  9
$DIMBLK
  1
DOTSMALL
  9
$DIMASO
 70
     1
  9
$DIMSHO
 70
     1
  9
$DIMPOST
  1

  9
$DIMAPOST
  1

  9
$DIMALT
 70
     0
  9
$DIMALTD
 70
     2
  9
$DIMALTF
 40
25.399999999999999
  9
$DIMLFAC
 40
1.0
  9
$DIMTOFL
 70
     1
  9
$DIMTVP
 40
0.0
  9
$DIMTIX
 70
     0
  9
$DIMSOXD
 70
     0
  9
$DIMSAH
 70
     0
  9
$DIMBLK1
  1

  9
$DIMBLK2
  1

  9
$DIMSTYLE
  2
SUNPOU
  9
$DIMCLRD
 70
     4
  9
$DIMCLRE
 70
     4
  9
$DIMCLRT
 70
     7
  9
$DIMTFAC
 40
1.0
  9
$DIMGAP
 40
1.0
  9
$LUNITS
 70
     2
  9
$LUPREC
 70
     4
  9
$SKETCHINC
 40
0.1
  9
$FILLETRAD
 40
0.0
  9
$AUNITS
 70
     0
  9
$AUPREC
 70
     0
  9
$MENU
  1
acad
  9
$ELEVATION
 40
0.0
  9
$PELEVATION
 40
0.0
  9
$THICKNESS
 40
0.0
  9
$LIMCHECK
 70
     0
  9
$BLIPMODE
 70
     1
  9
$CHAMFERA
 40
0.0
  9
$CHAMFERB
 40
0.0
  9
$SKPOLY
 70
     0
  9
$TDCREATE
 40
2311940.075052408
  9
$TDUPDATE
 40
2458942.448897453
  9
$TDINDWG
 40
0.3737241782
  9
$TDUSRTIMER
 40
0.3737119676
  9
$USRTIMER
 70
     1
  9
$ANGBASE
 50
0.0
  9
$ANGDIR
 70
     0
  9
$PDMODE
 70
     0
  9
$PDSIZE
 40
0.0
  9
$PLINEWID
 40
0.0
  9
$COORDS
 70
     1
  9
$SPLFRAME
 70
     0
  9
$SPLINETYPE
 70
     6
  9
$SPLINESEGS
 70
     8
  9
$ATTDIA
 70
     1
  9
$ATTREQ
 70
     1
  9
$HANDLING
 70
     1
  9
$HANDSEED
  5
13DE8
  9
$SURFTAB1
 70
     6
  9
$SURFTAB2
 70
     6
  9
$SURFTYPE
 70
     6
  9
$SURFU
 70
     6
  9
$SURFV
 70
     6
  9
$UCSNAME
  2

  9
$UCSORG
 10
0.0
 20
0.0
 30
0.0
  9
$UCSXDIR
 10
1.0
 20
0.0
 30
0.0
  9
$UCSYDIR
 10
0.0
 20
1.0
 30
0.0
  9
$PUCSNAME
  2

  9
$PUCSORG
 10
0.0
 20
0.0
 30
0.0
  9
$PUCSXDIR
 10
1.0
 20
0.0
 30
0.0
  9
$PUCSYDIR
 10
0.0
 20
1.0
 30
0.0
  9
$USERI1
 70
     0
  9
$USERI2
 70
     0
  9
$USERI3
 70
     0
  9
$USERI4
 70
     0
  9
$USERI5
 70
     0
  9
$USERR1
 40
0.0
  9
$USERR2
 40
0.0
  9
$USERR3
 40
0.0
  9
$USERR4
 40
0.0
  9
$USERR5
 40
0.0
  9
$WORLDVIEW
 70
     1
  9
$SHADEDGE
 70
     3
  9
$SHADEDIF
 70
    70
  9
$TILEMODE
 70
     1
  9
$MAXACTVP
 70
    16
  9
$PLIMCHECK
 70
     0
  9
$PEXTMIN
 10
1.0000000000000000E+020
 20
1.0000000000000000E+020
 30
1.0000000000000000E+020
  9
$PEXTMAX
 10
-1.0000000000000000E+020
 20
-1.0000000000000000E+020
 30
-1.0000000000000000E+020
  9
$PLIMMIN
 10
0.0
 20
0.0
  9
$PLIMMAX
 10
12.0
 20
9.0
  9
$UNITMODE
 70
     0
  9
$VISRETAIN
 70
     0
  9
$PLINEGEN
 70
     1
  9
$PSLTSCALE
 70
     0
  0
ENDSEC
  0
SECTION
  2
TABLES
  0
TABLE
  2
VPORT
 70
     1
  0
VPORT
  2
*ACTIVE
 70
     0
 10
0.0
 20
0.0
 11
1.0
 21
1.0
 12
16800.0
 22
11880.0
 13
0.0
 23
0.0
 14
1.0
 24
1.0
 15
0.0
 25
0.0
 16
0.0
 26
0.0
 36
1.0
 17
0.0
 27
0.0
 37
0.0
 40
23981.023255813951
 41
2.195652173913043
 42
50.0
 43
0.0
 44
0.0
 50
0.0
 51
0.0
 71
     0
 72
 10000
 73
     1
 74
     1
 75
     0
 76
     0
 77
     0
 78
     0
  0
ENDTAB
  0
TABLE
  2
LTYPE
 70
     6
  0
LTYPE
  2
CONTINUOUS
 70
     0
  3
Solid line
 72
    65
 73
     0
 40
0.0
  0
LTYPE
  2
DASHED3
 70
     0
  3
------  ------  ------  ------  
 72
    65
 73
     2
 40
5.0
 49
3.75
 49
-1.25
  0
LTYPE
  2
CENTER2
 70
     0
  3
----------  --  ----------  --  
 72
    65
 73
     4
 40
20.0
 49
12.5
 49
-2.5
 49
2.5
 49
-2.5
  0
LTYPE
  2
HIDE-M
 70
     0
  3

 72
    65
 73
     2
 40
2.0
 49
1.0
 49
-1.0
  0
LTYPE
  2
1PL-M
 70
     0
  3

 72
    65
 73
     4
 40
15.0
 49
12.0
 49
-1.0
 49
1.0
 49
-1.0
  0
LTYPE
  2
PHANTOM2
 70
     0
  3
___ _ _ ___ _ _ ___ _ _ ___ _ _
 72
    65
 73
     6
 40
1.25
 49
0.625
 49
-0.125
 49
0.125
 49
-0.125
 49
0.125
 49
-0.125
  0
ENDTAB
  0
TABLE
  2
LAYER
 70
    24
  0
LAYER
  2
0
 70
     0
 62
     7
  6
CONTINUOUS
  0
LAYER
  2
SUNPOU
 70
     0
 62
     4
  6
CONTINUOUS
  0
LAYER
  2
0-1
 70
     0
 62
     7
  6
CONTINUOUS
  0
LAYER
  2
0-2
 70
     0
 62
     7
  6
CONTINUOUS
  0
LAYER
  2
0-5
 70
     0
 62
     7
  6
CONTINUOUS
  0
LAYER
  2
0-6
 70
     0
 62
     7
  6
CONTINUOUS
  0
LAYER
  2
2-0
 70
     0
 62
     7
  6
CONTINUOUS
  0
LAYER
  2
0-8
 70
     0
 62
     7
  6
CONTINUOUS
  0
LAYER
  2
YODOROGO
 70
     0
 62
   130
  6
CONTINUOUS
  0
LAYER
  2
WAKUSEN-01
 70
     0
 62
    50
  6
CONTINUOUS
  0
LAYER
  2
WAKUSEN-02
 70
     0
 62
   130
  6
CONTINUOUS
  0
LAYER
  2
WAKUMOJI-01
 70
     0
 62
   130
  6
CONTINUOUS
  0
LAYER
  2
FILENAME
 70
     0
 62
     7
  6
CONTINUOUS
  0
LAYER
  2
NAME
 70
     0
 62
    20
  6
CONTINUOUS
  0
LAYER
  2
0-4
 70
     0
 62
     7
  6
CONTINUOUS
  0
LAYER
  2
1-前柱P
 70
     0
 62
     3
  6
CONTINUOUS
  0
LAYER
  2
1-前柱カバ-P
 70
     0
 62
     3
  6
CONTINUOUS
  0
LAYER
  2
1-桁前P28
 70
     0
 62
     3
  6
CONTINUOUS
  0
LAYER
  2
1-後柱P
 70
     0
 62
     3
  6
CONTINUOUS
  0
LAYER
  2
1-中柱P
 70
     0
 62
     3
  6
CONTINUOUS
  0
LAYER
  2
1-後柱カバ-P
 70
     0
 62
     7
  6
CONTINUOUS
  0
LAYER
  2
1-中柱カバ-P
 70
     0
 62
     7
  6
CONTINUOUS
  0
ENDTAB
  0
TABLE
  2
STYLE
 70
     5
  0
STYLE
  2
STANDARD
 70
     0
 40
0.0
 41
1.0
 50
0.0
 71
     0
 42
0.0
  3
txt
  4
BIGFONT
  0
STYLE
  2
00
 70
     0
 40
0.0
 41
0.6666666666666666
 50
0.0
 71
     0
 42
0.2
  3
ROMANS
  4
BIGFONT
  0
STYLE
  2
01
 70
     0
 40
3.0
 41
1.0
 50
0.0
 71
     0
 42
0.2
  3
ROMANS
  4
BIGFONT
  0
STYLE
  2
WAKUMOJI
 70
     0
 40
3.0
 41
1.0
 50
0.0
 71
     0
 42
3.0
  3
SIMPLEX
  4
BIGFONT
  0
STYLE
  2
FILENAME
 70
     0
 40
200.0
 41
1.0
 50
0.0
 71
     0
 42
200.0
  3
romans
  4
bigfont
  0
ENDTAB
  0
TABLE
  2
VIEW
 70
     0
  0
ENDTAB
  0
TABLE
  2
UCS
 70
     0
  0
ENDTAB
  0
TABLE
  2
APPID
 70
    17
  0
APPID
  2
ACAD
 70
     0
  0
APPID
  2
ACADANNOTATIVE
 70
     0
  0
APPID
  2
ACAD_PSEXT
 70
     0
  0
APPID
  2
DCO15
 70
     0
  0
APPID
  2
ACAD_MLEADERVER
 70
     0
  0
APPID
  2
AUTOCAD_POSTSCRIPT_FIGURE
 70
     0
  0
APPID
  2
ACAD_EXEMPT_FROM_CAD_STANDARDS
 70
     0
  0
APPID
  2
ACLAYERTOOLS
 70
     0
  0
APPID
  2
ACAD_DSTYLE_DIMJAG
 70
     0
  0
APPID
  2
ACAD_DSTYLE_DIMTALN
 70
     0
  0
APPID
  2
ACAECLAYERSTANDARD
 70
     0
  0
APPID
  2
ACAD_DSTYLE_DIMBREAK
 70
     0
  0
APPID
  2
ACAD_DSTYLE_DIM_LINETYPE
 70
     0
  0
APPID
  2
ACAD_DSTYLE_DIM_EXT1_LINETYPE
 70
     0
  0
APPID
  2
ACAD_DSTYLE_DIM_EXT2_LINETYPE
 70
     0
  0
APPID
  2
ACAD_DSTYLE_DIMFLIPARROW_W
 70
     0
  0
APPID
  2
ACAD_NAV_VCDISPLAY
 70
     0
  0
ENDTAB
  0
TABLE
  2
DIMSTYLE
 70
     2
  0
DIMSTYLE
  2
SUNPOU
 70
     0
  3

  4

  5

  6

  7

 40
80.0
 41
3.0
 42
1.0
 43
0.38
 44
1.0
 45
0.5
 46
0.0
 47
0.0
 48
0.0
140
2.0
141
0.09
142
0.0
143
25.399999999999999
144
1.0
145
0.0
146
1.0
147
1.0
 71
     0
 72
     0
 73
     0
 74
     0
 75
     0
 76
     0
 77
     1
 78
     8
170
     0
171
     2
172
     1
173
     0
174
     0
175
     0
176
     4
177
     4
178
     7
  0
ENDTAB
  0
ENDSEC
  0
SECTION
  2
BLOCKS
  0
BLOCK
  8
0
  2
$MODEL_SPACE
 70
     0
 10
0.0
 20
0.0
 30
0.0
  3
$MODEL_SPACE
  1

  0
ENDBLK
  5
11A28
  8
0
  0
BLOCK
 67
     1
  8
0
  2
$PAPER_SPACE
 70
     0
 10
0.0
 20
0.0
 30
0.0
  3
$PAPER_SPACE
  1

  0
ENDBLK
  5
11A24
 67
     1
  8
0
  0
BLOCK
  8
0
  2
_DOTSMALL
 70
     0
 10
0.0
 20
0.0
 30
0.0
  3
_DOTSMALL
  1

  0
POLYLINE
  5
11A64
  8
0
  6
BYBLOCK
 62
     0
 66
     1
 10
0.0
 20
0.0
 30
0.0
 70
     1
 40
0.5
 41
0.5
  0
VERTEX
  5
13DB0
  8
0
  6
BYBLOCK
 62
     0
 10
-0.0625
 20
0.0
 30
0.0
 42
1.0
  0
VERTEX
  5
13DB1
  8
0
  6
BYBLOCK
 62
     0
 10
0.0625
 20
0.0
 30
0.0
 42
1.0
  0
SEQEND
  5
13DB2
  8
0
  6
BYBLOCK
 62
     0
  0
ENDBLK
  5
11A68
  8
0
  0
ENDSEC
  0
SECTION
  2
ENTITIES
  0
CIRCLE
  5
11AD6
  8
0-5
  6
CONTINUOUS
 62
     4
 10
15128.71667799999
 20
1375.999982000001
 30
0.0
 40
20.0
  0
ARC
  5
11AD7
  8
0-5
  6
CONTINUOUS
 62
     4
 10
15128.71667799999
 20
1375.999982000001
 30
0.0
 40
20.0
 50
180.0
 51
0.0
  0
ARC
  5
11AD8
  8
0-5
  6
CONTINUOUS
 62
     4
 10
15128.71667799999
 20
1375.999982000001
 30
0.0
 40
20.0
 50
0.0
 51
179.99998500000001
  0
CIRCLE
  5
11AD9
  8
0-5
  6
CONTINUOUS
 62
     4
 10
15128.71667799999
 20
1775.999321999999
 30
0.0
 40
20.0
  0
ARC
  5
11ADA
  8
0-5
  6
CONTINUOUS
 62
     4
 10
15128.71667799999
 20
1775.999321999999
 30
0.0
 40
20.0
 50
180.0
 51
0.0
  0
ARC
  5
11ADB
  8
0-5
  6
CONTINUOUS
 62
     4
 10
15128.71667799999
 20
1775.999321999999
 30
0.0
 40
20.0
 50
0.0
 51
179.99998500000001
  0
TEXT
  5
11AE1
  8
0-5
  6
CONTINUOUS
 62
     7
 10
16661.217403999992
 20
1655.999792000001
 30
0.0
 40
160.0
  1
H
  0
TEXT
  5
11AE2
  8
0-5
  6
CONTINUOUS
 62
     7
 10
15176.146933
 20
1655.999792000001
 30
0.0
 40
160.0
  1
（ ）内寸法ハ、  タイプヲ示ス。
  0
TEXT
  5
11AE3
  8
0-5
  6
CONTINUOUS
 62
     7
 10
15288.716216000001
 20
1255.999462
 30
0.0
 40
160.0
  1
有効高サハ、基礎高サヲ含ミマセン。
  0
TEXT
  5
11AED
  8
2-0
  6
CONTINUOUS
 62
     7
 10
22392.041079231629
 20
3292.802588999999
 30
0.0
 40
160.0
  1
正 面 立 面 図
 72
     4
 11
23037.374412564961
 21
3372.802588999999
 31
0.0
  0
TEXT
  5
11AEE
  8
2-0
  6
CONTINUOUS
 62
     7
 10
10005.28324543803
 20
3264.0669070000022
 30
0.0
 40
160.0
  1
側 面 立 面 図
 50
0.000139
 72
     4
 11
10650.616384688859
 21
3344.0684725833762
 31
0.0
  0
TEXT
  5
11AF2
  8
2-0
  6
CONTINUOUS
 62
     7
 10
12002.108569826471
 20
3291.263841583374
 30
0.0
 40
160.0
  1
1
 72
     4
 11
12028.77523649314
 21
3371.263841583374
 31
0.0
  0
TEXT
  5
11AF3
  8
2-0
  6
CONTINUOUS
 62
     7
 10
12245.197287077161
 20
3211.2653095833748
 30
0.0
 40
160.0
  1
80
 72
     4
 11
12365.197287077161
 21
3291.2653095833748
 31
0.0
  0
TEXT
  5
11AF4
  8
2-0
  6
CONTINUOUS
 62
     7
 10
11503.110535826479
 20
3264.0684725833762
 30
0.0
 40
160.0
  1
(S=  /   )
 72
     4
 11
12063.110535826479
 21
3344.0684725833762
 31
0.0
  0
TEXT
  5
11AF5
  8
2-0
  6
CONTINUOUS
 62
     7
 10
24388.866597702621
 20
3319.9979579999999
 30
0.0
 40
160.0
  1
1
 72
     4
 11
24415.533264369278
 21
3399.9979579999999
 31
0.0
  0
TEXT
  5
11AF6
  8
2-0
  6
CONTINUOUS
 62
     7
 10
24631.955314953291
 20
3239.9994260000021
 30
0.0
 40
160.0
  1
80
 72
     4
 11
24751.955314953291
 21
3319.9994260000012
 31
0.0
  0
TEXT
  5
11AF7
  8
2-0
  6
CONTINUOUS
 62
     7
 10
23889.868563702599
 20
3292.802588999999
 30
0.0
 40
160.0
  1
(S=  /   )
 72
     4
 11
24449.868563702599
 21
3372.802588999999
 31
0.0
  0
LINE
  5
11B53
  8
0-1
  6
CONTINUOUS
 62
     3
 10
9877.3161974380546
 20
8152.2344180000064
 30
0.0
 11
9877.3161974380546
 21
6291.1885390000007
 31
0.0
  0
LINE
  5
11B54
  8
0-1
  6
CONTINUOUS
 62
     3
 10
9840.3180054380573
 20
8152.2344180000064
 30
0.0
 11
9840.3180054380573
 21
6291.1885390000007
 31
0.0
  0
LINE
  5
11B55
  8
0-1
  6
CONTINUOUS
 62
     3
 10
10577.315537438049
 20
8152.2344180000064
 30
0.0
 11
10577.315537438049
 21
6291.1885390000007
 31
0.0
  0
LINE
  5
11B56
  8
0-1
  6
CONTINUOUS
 62
     3
 10
10540.31734543805
 20
8152.2344180000064
 30
0.0
 11
10540.31734543805
 21
6291.1885390000007
 31
0.0
  0
LINE
  5
11B57
  8
0-1
  6
CONTINUOUS
 62
     3
 10
10198.815748438041
 20
6291.1885390000007
 30
0.0
 11
10198.815748438041
 21
8152.2344180000064
 31
0.0
  0
LINE
  5
11B58
  8
0-1
  6
CONTINUOUS
 62
     3
 10
10218.81680443806
 20
6291.1885390000007
 30
0.0
 11
10218.81680443806
 21
8152.2344180000064
 31
0.0
  0
LINE
  5
11B59
  8
0-1
  6
CONTINUOUS
 62
     3
 10
10148.817068438049
 20
6291.1885390000007
 30
0.0
 11
10148.817068438049
 21
8152.2344180000064
 31
0.0
  0
LINE
  5
11B5A
  8
0-1
  6
CONTINUOUS
 62
     3
 10
10268.81647443805
 20
6291.1885390000007
 30
0.0
 11
10268.81647443805
 21
8152.2344180000064
 31
0.0
  0
LINE
  5
11B5B
  8
0-1
  6
CONTINUOUS
 62
     3
 10
10401.816368438051
 20
6291.1885390000007
 30
0.0
 11
10401.816368438051
 21
8152.2344180000064
 31
0.0
  0
LINE
  5
11B5C
  8
0-1
  6
CONTINUOUS
 62
     3
 10
10416.816170438051
 20
6291.1885390000007
 30
0.0
 11
10416.816170438051
 21
8152.2344180000064
 31
0.0
  0
LINE
  5
11B5D
  8
0-1
  6
CONTINUOUS
 62
     3
 10
10015.81618343805
 20
6291.1885390000007
 30
0.0
 11
10015.81618343805
 21
8152.2344180000064
 31
0.0
  0
LINE
  5
11B5E
  8
0-1
  6
CONTINUOUS
 62
     3
 10
10000.817371438059
 20
6291.1885390000007
 30
0.0
 11
10000.817371438059
 21
8152.2344180000064
 31
0.0
  0
LINE
  5
11B5F
  8
0-1
  6
CONTINUOUS
 62
     3
 10
9716.8168304380615
 20
6291.1885390000007
 30
0.0
 11
9716.8168304380615
 21
8152.2344180000064
 31
0.0
  0
LINE
  5
11B60
  8
0-1
  6
CONTINUOUS
 62
     3
 10
9701.8160384380535
 20
6291.1885390000007
 30
0.0
 11
9701.8160384380535
 21
8152.2344180000064
 31
0.0
  0
LINE
  5
11B61
  8
0-1
  6
CONTINUOUS
 62
     3
 10
9568.8171344380462
 20
6291.1885390000007
 30
0.0
 11
9568.8171344380462
 21
8152.2344180000064
 31
0.0
  0
LINE
  5
11B62
  8
0-1
  6
CONTINUOUS
 62
     3
 10
9448.8157484380554
 20
6291.1885390000007
 30
0.0
 11
9448.8157484380554
 21
8152.2344180000064
 31
0.0
  0
LINE
  5
11B63
  8
0-1
  6
CONTINUOUS
 62
     3
 10
9518.8184534380634
 20
6291.1885390000007
 30
0.0
 11
9518.8184534380634
 21
8152.2344180000064
 31
0.0
  0
LINE
  5
11B64
  8
0-1
  6
CONTINUOUS
 62
     3
 10
9498.8173984380646
 20
6291.1885390000007
 30
0.0
 11
9498.8173984380646
 21
8152.2344180000064
 31
0.0
  0
LINE
  5
11B65
  8
0-1
  6
CONTINUOUS
 62
     3
 10
10700.81572243805
 20
6291.1885390000007
 30
0.0
 11
10700.81572243805
 21
8152.2344180000064
 31
0.0
  0
LINE
  5
11B66
  8
0-1
  6
CONTINUOUS
 62
     3
 10
10715.81651343806
 20
6291.1885390000007
 30
0.0
 11
10715.81651343806
 21
8152.2344180000064
 31
0.0
  0
LINE
  5
11B67
  8
0-1
  6
CONTINUOUS
 62
     3
 10
10848.817398438059
 20
6291.1885390000007
 30
0.0
 11
10848.817398438059
 21
8152.2344180000064
 31
0.0
  0
LINE
  5
11B68
  8
0-1
  6
CONTINUOUS
 62
     3
 10
11116.816500438061
 20
6291.1885390000007
 30
0.0
 11
11116.816500438061
 21
8152.2344180000064
 31
0.0
  0
LINE
  5
11B69
  8
0-1
  6
CONTINUOUS
 62
     3
 10
11101.817688438059
 20
6291.1885390000007
 30
0.0
 11
11101.817688438059
 21
8152.2344180000064
 31
0.0
  0
LINE
  5
11B6A
  8
0-1
  6
CONTINUOUS
 62
     3
 10
10968.816804438051
 20
6291.1885390000007
 30
0.0
 11
10968.816804438051
 21
8152.2344180000064
 31
0.0
  0
LINE
  5
11B6B
  8
0-1
  6
CONTINUOUS
 62
     3
 10
10918.817134438041
 20
6291.1885390000007
 30
0.0
 11
10918.817134438041
 21
8152.2344180000064
 31
0.0
  0
LINE
  5
11B6C
  8
0-1
  6
CONTINUOUS
 62
     3
 10
10898.81805743806
 20
6291.1885390000007
 30
0.0
 11
10898.81805743806
 21
8152.2344180000064
 31
0.0
  0
LINE
  5
11B6D
  8
0-1
  6
CONTINUOUS
 62
     3
 10
11726.81702843805
 20
6291.1885390000007
 30
0.0
 11
11726.81702843805
 21
8152.2344180000064
 31
0.0
  0
LINE
  5
11B6E
  8
0-1
  6
CONTINUOUS
 62
     3
 10
11706.817952438039
 20
6291.1885390000007
 30
0.0
 11
11706.817952438039
 21
8152.2344180000064
 31
0.0
  0
LINE
  5
11B6F
  8
0-1
  6
CONTINUOUS
 62
     3
 10
11776.817688438039
 20
6291.1885390000007
 30
0.0
 11
11776.817688438039
 21
8152.2344180000064
 31
0.0
  0
LINE
  5
11B70
  8
0-1
  6
CONTINUOUS
 62
     3
 10
11656.81729243804
 20
6291.1885390000007
 30
0.0
 11
11656.81729243804
 21
8152.2344180000064
 31
0.0
  0
LINE
  5
11B71
  8
0-1
  6
CONTINUOUS
 62
     3
 10
11523.817398438039
 20
6291.1885390000007
 30
0.0
 11
11523.817398438039
 21
8152.2344180000064
 31
0.0
  0
LINE
  5
11B72
  8
0-1
  6
CONTINUOUS
 62
     3
 10
11508.81561643804
 20
6291.1885390000007
 30
0.0
 11
11508.81561643804
 21
8152.2344180000064
 31
0.0
  0
LINE
  5
11B73
  8
0-1
  6
CONTINUOUS
 62
     3
 10
11909.81758243804
 20
6291.1885390000007
 30
0.0
 11
11909.81758243804
 21
8152.2344180000064
 31
0.0
  0
LINE
  5
11B74
  8
0-1
  6
CONTINUOUS
 62
     3
 10
11924.816395438051
 20
6291.1885390000007
 30
0.0
 11
11924.816395438051
 21
8152.2344180000064
 31
0.0
  0
LINE
  5
11B75
  8
0-1
  6
CONTINUOUS
 62
     3
 10
13608.816606438029
 20
6291.1885390000007
 30
0.0
 11
13608.816606438029
 21
8152.2344180000064
 31
0.0
  0
LINE
  5
11B76
  8
0-1
  6
CONTINUOUS
 62
     3
 10
13623.816408438041
 20
6291.1885390000007
 30
0.0
 11
13623.816408438041
 21
8152.2344180000064
 31
0.0
  0
LINE
  5
11B77
  8
0-1
  6
CONTINUOUS
 62
     3
 10
13756.817292438051
 20
6291.1885390000007
 30
0.0
 11
13756.817292438051
 21
8152.2344180000064
 31
0.0
  0
LINE
  5
11B78
  8
0-1
  6
CONTINUOUS
 62
     3
 10
13876.81669843805
 20
6291.1885390000007
 30
0.0
 11
13876.81669843805
 21
8152.2344180000064
 31
0.0
  0
LINE
  5
11B79
  8
0-1
  6
CONTINUOUS
 62
     3
 10
13806.817952438039
 20
6291.1885390000007
 30
0.0
 11
13806.817952438039
 21
8152.2344180000064
 31
0.0
  0
LINE
  5
11B7A
  8
0-1
  6
CONTINUOUS
 62
     3
 10
13826.817028438039
 20
6291.1885390000007
 30
0.0
 11
13826.817028438039
 21
8152.2344180000064
 31
0.0
  0
LINE
  5
11B7B
  8
0-1
  6
CONTINUOUS
 62
     3
 10
13126.81768843805
 20
6291.1885390000007
 30
0.0
 11
13126.81768843805
 21
8152.2344180000064
 31
0.0
  0
LINE
  5
11B7C
  8
0-1
  6
CONTINUOUS
 62
     3
 10
13106.816632438071
 20
6291.1885390000007
 30
0.0
 11
13106.816632438071
 21
8152.2344180000064
 31
0.0
  0
LINE
  5
11B7D
  8
0-1
  6
CONTINUOUS
 62
     3
 10
13176.81636843804
 20
6291.1885390000007
 30
0.0
 11
13176.81636843804
 21
8152.2344180000064
 31
0.0
  0
LINE
  5
11B7E
  8
0-1
  6
CONTINUOUS
 62
     3
 10
13056.817952438039
 20
6291.1885390000007
 30
0.0
 11
13056.817952438039
 21
8152.2344180000064
 31
0.0
  0
LINE
  5
11B7F
  8
0-1
  6
CONTINUOUS
 62
     3
 10
12923.817068438049
 20
6291.1885390000007
 30
0.0
 11
12923.817068438049
 21
8152.2344180000064
 31
0.0
  0
LINE
  5
11B80
  8
0-1
  6
CONTINUOUS
 62
     3
 10
12908.817266438031
 20
6291.1885390000007
 30
0.0
 11
12908.817266438031
 21
8152.2344180000064
 31
0.0
  0
LINE
  5
11B81
  8
0-1
  6
CONTINUOUS
 62
     3
 10
13309.815273438049
 20
6291.1885390000007
 30
0.0
 11
13309.815273438049
 21
8152.2344180000064
 31
0.0
  0
LINE
  5
11B82
  8
0-1
  6
CONTINUOUS
 62
     3
 10
13324.817054438039
 20
6291.1885390000007
 30
0.0
 11
13324.817054438039
 21
8152.2344180000064
 31
0.0
  0
LINE
  5
11B83
  8
0-1
  6
CONTINUOUS
 62
     3
 10
12624.81771443803
 20
6291.1885390000007
 30
0.0
 11
12624.81771443803
 21
8152.2344180000064
 31
0.0
  0
LINE
  5
11B84
  8
0-1
  6
CONTINUOUS
 62
     3
 10
12609.815933438031
 20
6291.1885390000007
 30
0.0
 11
12609.815933438031
 21
8152.2344180000064
 31
0.0
  0
LINE
  5
11B85
  8
0-1
  6
CONTINUOUS
 62
     3
 10
12208.817925438059
 20
6291.1885390000007
 30
0.0
 11
12208.817925438059
 21
8152.2344180000064
 31
0.0
  0
LINE
  5
11B86
  8
0-1
  6
CONTINUOUS
 62
     3
 10
12223.816738438039
 20
6291.1885390000007
 30
0.0
 11
12223.816738438039
 21
8152.2344180000064
 31
0.0
  0
LINE
  5
11B87
  8
0-1
  6
CONTINUOUS
 62
     3
 10
12356.81564243805
 20
6291.1885390000007
 30
0.0
 11
12356.81564243805
 21
8152.2344180000064
 31
0.0
  0
LINE
  5
11B88
  8
0-1
  6
CONTINUOUS
 62
     3
 10
12476.817028438039
 20
6291.1885390000007
 30
0.0
 11
12476.817028438039
 21
8152.2344180000064
 31
0.0
  0
LINE
  5
11B89
  8
0-1
  6
CONTINUOUS
 62
     3
 10
12406.81729243804
 20
6291.1885390000007
 30
0.0
 11
12406.81729243804
 21
8152.2344180000064
 31
0.0
  0
LINE
  5
11B8A
  8
0-1
  6
CONTINUOUS
 62
     3
 10
12426.81636843804
 20
6291.1885390000007
 30
0.0
 11
12426.81636843804
 21
8152.2344180000064
 31
0.0
  0
LINE
  5
11B8B
  8
0-1
  6
CONTINUOUS
 62
     3
 10
12085.31774143805
 20
8152.2344180000064
 30
0.0
 11
12085.31774143805
 21
6291.1885390000007
 31
0.0
  0
LINE
  5
11B8C
  8
0-1
  6
CONTINUOUS
 62
     3
 10
12048.31657943804
 20
8152.2344180000064
 30
0.0
 11
12048.31657943804
 21
6291.1885390000007
 31
0.0
  0
LINE
  5
11B8D
  8
0-1
  6
CONTINUOUS
 62
     3
 10
13485.315431438041
 20
8152.2344180000064
 30
0.0
 11
13485.315431438041
 21
6291.1885390000007
 31
0.0
  0
LINE
  5
11B8E
  8
0-1
  6
CONTINUOUS
 62
     3
 10
13448.316249438039
 20
8152.2344180000064
 30
0.0
 11
13448.316249438039
 21
6291.1885390000007
 31
0.0
  0
LINE
  5
11B8F
  8
0-1
  6
CONTINUOUS
 62
     3
 10
12785.31708143805
 20
8152.2344180000064
 30
0.0
 11
12785.31708143805
 21
6291.1885390000007
 31
0.0
  0
LINE
  5
11B90
  8
0-1
  6
CONTINUOUS
 62
     3
 10
12748.31690943805
 20
8152.2344180000064
 30
0.0
 11
12748.31690943805
 21
6291.1885390000007
 31
0.0
  0
LINE
  5
11B91
  8
0-1
  6
CONTINUOUS
 62
     3
 10
14285.81655343803
 20
6241.1883740000012
 30
0.0
 11
14285.81655343803
 21
6141.1885390000007
 31
0.0
  0
LINE
  5
11B92
  8
0-1
  6
CONTINUOUS
 62
     3
 10
14253.315762438049
 20
8455.5174490000027
 30
0.0
 11
14253.315762438049
 21
6241.1883740000012
 31
0.0
  0
LINE
  5
11B93
  8
0-1
  6
CONTINUOUS
 62
     3
 10
14273.316553438041
 20
8456.0984379999973
 30
0.0
 11
14273.316553438041
 21
6241.1883740000012
 31
0.0
  0
LINE
  5
11B94
  8
0-1
  6
CONTINUOUS
 62
     3
 10
14158.31668543804
 20
8152.2344180000064
 30
0.0
 11
14158.31668543804
 21
6241.1883740000012
 31
0.0
  0
LINE
  5
11B95
  8
0-1
  6
CONTINUOUS
 62
     3
 10
11312.816553438041
 20
8356.9898809999977
 30
0.0
 11
11312.816553438041
 21
8152.2344180000064
 31
0.0
  0
LINE
  5
11B96
  8
0-1
  6
CONTINUOUS
 62
     3
 10
11240.31668543806
 20
8152.2344180000064
 30
0.0
 11
11240.31668543806
 21
6241.1883740000012
 31
0.0
  0
LINE
  5
11B97
  8
0-1
  6
CONTINUOUS
 62
     3
 10
11385.315431438041
 20
8152.2344180000064
 30
0.0
 11
11385.315431438041
 21
6241.1883740000012
 31
0.0
  0
LINE
  5
11B98
  8
0-1
  6
CONTINUOUS
 62
     3
 10
11385.315431438041
 20
6291.1885390000007
 30
0.0
 11
14158.31668543804
 21
6291.1885390000007
 31
0.0
  0
LINE
  5
11B99
  8
0-1
  6
CONTINUOUS
 62
     3
 10
8695.3165534380423
 20
6141.1885390000007
 30
0.0
 11
8695.3165534380423
 21
6241.1883740000012
 31
0.0
  0
LINE
  5
11B9A
  8
0-1
  6
CONTINUOUS
 62
     3
 10
8722.8163554380517
 20
8268.9908770000002
 30
0.0
 11
8722.8163554380517
 21
6241.1883740000012
 31
0.0
  0
LINE
  5
11B9B
  8
0-1
  6
CONTINUOUS
 62
     3
 10
8702.8165534380441
 20
8268.3741496838084
 30
0.0
 11
8702.8165534380441
 21
6241.1883740000012
 31
0.0
  0
LINE
  5
11B9C
  8
0-1
  6
CONTINUOUS
 62
     3
 10
8695.3165534380423
 20
6241.1883740000012
 30
0.0
 11
14285.81655343803
 21
6241.1883740000012
 31
0.0
  0
LINE
  5
11B9D
  8
0-1
  6
CONTINUOUS
 62
     3
 10
8817.8154324380521
 20
6291.1885390000007
 30
0.0
 11
11240.31668543806
 21
6291.1885390000007
 31
0.0
  0
LINE
  5
11B9E
  8
0-1
  6
CONTINUOUS
 62
     3
 10
8012.8154984380462
 20
6141.1885390000007
 30
0.0
 11
14285.81655343803
 21
6141.1885390000007
 31
0.0
  0
LINE
  5
11B9F
  8
0-1
  6
CONTINUOUS
 62
     3
 10
8722.8163554380517
 20
8152.2344180000064
 30
0.0
 11
14253.315762438049
 21
8152.2344180000064
 31
0.0
  0
LINE
  5
11BA0
  8
0-1
  6
CONTINUOUS
 62
     3
 10
8528.5147294380567
 20
8303.1736990000027
 30
0.0
 11
14359.006218438049
 21
8498.6897600000029
 31
0.0
  0
LINE
  5
11BA1
  8
0-1
  6
CONTINUOUS
 62
     3
 10
14357.50574343804
 20
8548.6686450000016
 30
0.0
 11
8527.0152444380401
 21
8353.151595000003
 31
0.0
  0
LINE
  5
11BA2
  8
0-1
  6
CONTINUOUS
 62
     3
 10
8523.9252164380523
 20
8356.0604969999968
 30
0.0
 11
8522.9651494380414
 21
8388.0460529999982
 31
0.0
  0
LINE
  5
11BA3
  8
0-1
  6
CONTINUOUS
 62
     3
 10
8527.8139804380553
 20
8393.1932959999976
 30
0.0
 11
14377.275195438049
 21
8589.2804480000032
 31
0.0
  0
LINE
  5
11BA4
  8
0-1
  6
CONTINUOUS
 62
     3
 10
14381.179795438051
 20
8459.3389100000022
 30
0.0
 11
8531.7146214380555
 21
8263.2522529999951
 31
0.0
  0
LINE
  5
11BA5
  8
0-1
  6
CONTINUOUS
 62
     3
 10
8526.5668834380558
 20
8268.099599000001
 30
0.0
 11
8525.6078064380472
 21
8300.0856499999973
 31
0.0
  0
LINE
  5
11BA6
  8
0-1
  6
CONTINUOUS
 62
     3
 10
8525.2762374380472
 20
8311.0803909999959
 30
0.0
 11
8524.2557954380554
 21
8345.0647660000068
 31
0.0
  0
LINE
  5
11BA7
  8
0-1
  6
CONTINUOUS
 62
     3
 10
8527.1646984380532
 20
8348.1538049999981
 30
0.0
 11
14357.65717643803
 21
8543.6713500000023
 31
0.0
  0
LINE
  5
11BA8
  8
0-1
  6
CONTINUOUS
 62
     3
 10
14358.856764438049
 20
8503.6880439999986
 30
0.0
 11
8528.3662664380463
 21
8308.1719839999969
 31
0.0
  0
LINE
  5
11BA9
  8
0-1
  6
CONTINUOUS
 62
     3
 10
11312.816553438041
 20
8356.9898809999977
 30
0.0
 11
11308.913932438039
 21
8486.9314189999968
 31
0.0
  0
LINE
  5
11BAA
  8
0-1
  6
CONTINUOUS
 62
     3
 10
14348.212893438051
 20
8458.3481610000017
 30
0.0
 11
14344.311262438039
 21
8588.2896989999972
 31
0.0
  0
LINE
  5
11BAB
  8
0-1
  6
CONTINUOUS
 62
     3
 10
8540.3067224380502
 20
8393.5684149999979
 30
0.0
 11
8544.2093434380531
 21
8263.6273720000008
 31
0.0
  0
LINE
  5
11BAC
  8
0-5
  6
CONTINUOUS
 62
     4
 10
15990.901541438039
 20
6241.1883740000012
 30
0.0
 11
16110.90193743804
 21
6449.035350999995
 31
0.0
  0
LINE
  5
11BAD
  8
0-5
  6
CONTINUOUS
 62
     4
 10
15870.90312443804
 20
6449.035350999995
 30
0.0
 11
15990.901541438039
 21
6241.1883740000012
 31
0.0
  0
LINE
  5
11BAE
  8
0-5
  6
CONTINUOUS
 62
     4
 10
16110.90193743804
 20
6449.035350999995
 30
0.0
 11
15870.90312443804
 21
6449.035350999995
 31
0.0
  0
LINE
  5
11BAF
  8
0-5
  6
CONTINUOUS
 62
     4
 10
14365.81384843804
 20
6241.1883740000012
 30
0.0
 11
16083.27973443804
 21
6241.1883740000012
 31
0.0
  0
LINE
  5
11BB0
  8
0-5
  6
CONTINUOUS
 62
     4
 10
14365.81384843804
 20
6141.1885390000007
 30
0.0
 11
20544.28101581736
 21
6141.1885390000007
 31
0.0
  0
LINE
  5
11BB1
  8
0-5
  6
CONTINUOUS
 62
     4
 10
14230.81655343803
 20
4461.1889349999919
 30
0.0
 11
14230.81655343803
 21
4301.1893969999992
 31
0.0
  0
LINE
  5
11BB2
  8
0-5
  6
CONTINUOUS
 62
     4
 10
11312.816553438041
 20
4461.1889349999919
 30
0.0
 11
11312.816553438041
 21
4301.1893969999992
 31
0.0
  0
LINE
  5
11BB3
  8
0-5
  6
CONTINUOUS
 62
     4
 10
8745.3165534380423
 20
4461.1889349999919
 30
0.0
 11
8745.3165534380423
 21
4301.1893969999992
 31
0.0
  0
LINE
  5
11BB4
  8
2-0
  6
CENTER2
 62
     6
 10
14230.81655343803
 20
5878.536116000002
 30
0.0
 11
14230.81655343803
 21
6935.6787139999979
 31
0.0
  0
LINE
  5
11BB5
  8
2-0
  6
CENTER2
 62
     6
 10
11312.816553438041
 20
5878.536116000002
 30
0.0
 11
11312.816553438041
 21
6935.6787139999979
 31
0.0
  0
LINE
  5
11BB6
  8
2-0
  6
CENTER2
 62
     6
 10
8745.3165534380423
 20
5878.536116000002
 30
0.0
 11
8745.3165534380423
 21
6935.6787139999979
 31
0.0
  0
ARC
  5
11BB7
  8
0-1
  6
CONTINUOUS
 62
     3
 10
14358.255980438031
 20
8523.6801919999962
 30
0.0
 40
24.999998999999999
 50
271.71998600002598
 51
91.719986000025997
  0
ARC
  5
11BB8
  8
0-1
  6
CONTINUOUS
 62
     3
 10
8526.9251764380533
 20
8356.1505649999999
 30
0.0
 40
3.0
 50
181.71998600001371
 51
271.71998600002598
  0
ARC
  5
11BB9
  8
0-1
  6
CONTINUOUS
 62
     3
 10
8527.9624444380534
 20
8388.1955069999967
 30
0.0
 40
5.0
 50
91.719986000025997
 51
181.71998600001371
  0
ARC
  5
11BBA
  8
0-1
  6
CONTINUOUS
 62
     3
 10
14353.25868643803
 20
8523.5297490000048
 30
0.0
 40
69.999999000000003
 50
293.50677499978701
 51
69.933196999905391
  0
ARC
  5
11BBB
  8
0-1
  6
CONTINUOUS
 62
     3
 10
8531.5661574380592
 20
8268.2500430000073
 30
0.0
 40
5.0
 50
181.71998600001371
 51
271.71998600002598
  0
ARC
  5
11BBC
  8
0-1
  6
CONTINUOUS
 62
     3
 10
8528.6047984380493
 20
8300.1752229999984
 30
0.0
 40
3.0
 50
91.719986000025997
 51
181.71998600001371
  0
ARC
  5
11BBD
  8
0-1
  6
CONTINUOUS
 62
     3
 10
8528.5889614380503
 20
8350.6979810000012
 30
0.0
 40
2.5
 50
271.71998600002598
 51
91.719986000025997
  0
ARC
  5
11BBE
  8
0-1
  6
CONTINUOUS
 62
     3
 10
8529.9389934380542
 20
8305.7178749999985
 30
0.0
 40
2.5
 50
271.71998600002598
 51
91.719986000025997
  0
ARC
  5
11BBF
  8
0-1
  6
CONTINUOUS
 62
     3
 10
8527.2547664380454
 20
8345.1553289999974
 30
0.0
 40
3.0
 50
91.719986000025997
 51
181.71998600001371
  0
ARC
  5
11BC0
  8
0-1
  6
CONTINUOUS
 62
     3
 10
14358.255980438031
 20
8523.6801919999962
 30
0.0
 40
20.0
 50
271.71998600002598
 51
91.719986000025997
  0
ARC
  5
11BC1
  8
0-1
  6
CONTINUOUS
 62
     3
 10
8528.2752084380463
 20
8311.1699640000006
 30
0.0
 40
3.0
 50
181.71998600001371
 51
271.71998600002598
  0
CIRCLE
  5
11BC2
  8
0-5
  6
CONTINUOUS
 62
     4
 10
11312.816553438041
 20
4101.1882420000002
 30
0.0
 40
199.9999949999999
  0
CIRCLE
  5
11BC3
  8
0-5
  6
CONTINUOUS
 62
     4
 10
14230.81655343803
 20
4101.1882420000002
 30
0.0
 40
199.9999949999999
  0
CIRCLE
  5
11BC4
  8
0-5
  6
CONTINUOUS
 62
     4
 10
8745.3165534380423
 20
4101.1882420000002
 30
0.0
 40
199.9999949999999
  0
TEXT
  5
11BC5
  8
0-5
  6
CONTINUOUS
 62
     7
 10
15531.809612438041
 20
6529.0346249999966
 30
0.0
 40
160.0
  1
布基礎天端
 72
     4
 11
15990.476279104711
 21
6609.0346249999957
 31
0.0
  0
TEXT
  5
11BC6
  8
0-5
  6
CONTINUOUS
 62
     7
 10
14183.86039343805
 20
4017.977445999999
 30
0.0
 40
160.0
  1
A
 72
     4
 11
14237.193726771389
 21
4097.9774459999999
 31
0.0
  0
TEXT
  5
11BC7
  8
0-5
  6
CONTINUOUS
 62
     7
 10
11265.86039343803
 20
4017.977445999999
 30
0.0
 40
160.0
  1
B
 72
     4
 11
11319.193726771369
 21
4097.9774459999999
 31
0.0
  0
TEXT
  5
11BC8
  8
0-5
  6
CONTINUOUS
 62
     7
 10
8698.3603934380535
 20
4017.977445999999
 30
0.0
 40
160.0
  1
C
 72
     4
 11
8751.6937267713874
 21
4097.9774459999999
 31
0.0
  0
LINE
  5
11BC9
  8
SUNPOU
  6
CONTINUOUS
 10
8522.816553438046
 20
9389.1900499999992
 30
0.0
 11
8018.0286835446404
 21
9389.1900499999992
 31
0.0
  0
LINE
  5
11BCA
  8
0-1
  6
CONTINUOUS
 62
     3
 10
14024.817384438051
 20
6291.1885389999979
 30
0.0
 11
14024.817384438051
 21
8152.2344180000036
 31
0.0
  0
LINE
  5
11BCB
  8
0-1
  6
CONTINUOUS
 62
     3
 10
14009.815603438041
 20
6291.1885389999979
 30
0.0
 11
14009.815603438041
 21
8152.2344180000036
 31
0.0
  0
LINE
  5
11BCC
  8
0-1
  6
CONTINUOUS
 62
     3
 10
9177.3138874380456
 20
8152.2344180000036
 30
0.0
 11
9177.3138874380456
 21
6291.1885389999979
 31
0.0
  0
LINE
  5
11BCD
  8
0-1
  6
CONTINUOUS
 62
     3
 10
9140.3156954380465
 20
8152.2344180000036
 30
0.0
 11
9140.3156954380465
 21
6291.1885389999979
 31
0.0
  0
LINE
  5
11BCE
  8
0-1
  6
CONTINUOUS
 62
     3
 10
9001.8147184380468
 20
6291.1885389999979
 30
0.0
 11
9001.8147184380468
 21
8152.2344180000036
 31
0.0
  0
LINE
  5
11BCF
  8
0-1
  6
CONTINUOUS
 62
     3
 10
9016.8145204380562
 20
6291.1885389999979
 30
0.0
 11
9016.8145204380562
 21
8152.2344180000036
 31
0.0
  0
LINE
  5
11BD0
  8
0-1
  6
CONTINUOUS
 62
     3
 10
9300.8140724380482
 20
6291.1885389999979
 30
0.0
 11
9300.8140724380482
 21
8152.2344180000036
 31
0.0
  0
LINE
  5
11BD1
  8
0-1
  6
CONTINUOUS
 62
     3
 10
9315.8148634380541
 20
6291.1885389999979
 30
0.0
 11
9315.8148634380541
 21
8152.2344180000036
 31
0.0
  0
LINE
  5
11BD2
  8
0-1
  6
CONTINUOUS
 62
     3
 10
8817.8154324380521
 20
8152.2344180000064
 30
0.0
 11
8817.8154324380521
 21
6241.1883740000012
 31
0.0
  0
LINE
  5
11F37
  8
0-1
  6
CONTINUOUS
 62
     3
 10
20716.778243817389
 20
8132.6883740000021
 30
0.0
 11
23199.281674817361
 21
8132.6883740000021
 31
0.0
  0
LINE
  5
11F38
  8
0-1
  6
CONTINUOUS
 62
     3
 10
20716.778243817389
 20
8326.1887430000024
 30
0.0
 11
23199.281674817361
 21
8326.1887430000024
 31
0.0
  0
LINE
  5
11F39
  8
0-1
  6
CONTINUOUS
 62
     3
 10
20588.781938817359
 20
8264.0026619999971
 30
0.0
 11
20588.781938817359
 21
8589.6883999999973
 31
0.0
  0
LINE
  5
11F3A
  8
0-1
  6
CONTINUOUS
 62
     3
 10
23284.280223817372
 20
8459.6884660000014
 30
0.0
 11
20588.781938817359
 21
8459.6884660000014
 31
0.0
  0
LINE
  5
11F3B
  8
0-1
  6
CONTINUOUS
 62
     3
 10
20588.781938817359
 20
8589.6883999999973
 30
0.0
 11
23264.28312681735
 21
8589.6883999999973
 31
0.0
  0
LINE
  5
11F3C
  8
0-1
  6
CONTINUOUS
 62
     3
 10
23291.780619817378
 20
6241.1883740000021
 30
0.0
 11
23191.78127881738
 21
6241.1883740000021
 31
0.0
  0
LINE
  5
11F3D
  8
0-1
  6
CONTINUOUS
 62
     3
 10
23191.78127881738
 20
6241.1883740000021
 30
0.0
 11
23191.78127881738
 21
6141.1885390000007
 31
0.0
  0
LINE
  5
11F3E
  8
0-1
  6
CONTINUOUS
 62
     3
 10
23291.780619817378
 20
6141.1885390000007
 30
0.0
 11
23291.780619817378
 21
6241.1883740000021
 31
0.0
  0
LINE
  5
11F3F
  8
0-1
  6
CONTINUOUS
 62
     3
 10
23199.281674817361
 20
8459.6884660000014
 30
0.0
 11
23199.281674817361
 21
6241.1883740000021
 31
0.0
  0
LINE
  5
11F40
  8
0-1
  6
CONTINUOUS
 62
     3
 10
23147.781938817359
 20
8132.6883740000021
 30
0.0
 11
23147.781938817359
 21
6141.1885390000007
 31
0.0
  0
LINE
  5
11F41
  8
0-1
  6
CONTINUOUS
 62
     3
 10
23264.28312681735
 20
8589.6883999999973
 30
0.0
 11
23264.28312681735
 21
6241.1883740000021
 31
0.0
  0
LINE
  5
11F42
  8
0-1
  6
CONTINUOUS
 62
     3
 10
23284.28193881737
 20
8459.6884660000014
 30
0.0
 11
23284.28193881737
 21
6241.1883740000021
 31
0.0
  0
LINE
  5
11F43
  8
0-1
  6
CONTINUOUS
 62
     3
 10
20588.781938817359
 20
8264.0026619999971
 30
0.0
 11
20631.781938817359
 21
8264.0026619999971
 31
0.0
  0
LINE
  5
11F44
  8
0-1
  6
CONTINUOUS
 62
     3
 10
20624.279299817372
 20
6241.1883740000021
 30
0.0
 11
20724.278639817381
 21
6241.1883740000021
 31
0.0
  0
LINE
  5
11F45
  8
0-1
  6
CONTINUOUS
 62
     3
 10
20724.278639817381
 20
6241.1883740000021
 30
0.0
 11
20724.278639817381
 21
6141.1885390000007
 31
0.0
  0
LINE
  5
11F46
  8
0-1
  6
CONTINUOUS
 62
     3
 10
20624.279299817372
 20
6141.1885390000007
 30
0.0
 11
20624.279299817372
 21
6241.1883740000021
 31
0.0
  0
LINE
  5
11F47
  8
0-1
  6
CONTINUOUS
 62
     3
 10
20768.281938817359
 20
8132.6883740000021
 30
0.0
 11
20768.281938817359
 21
6141.1885390000007
 31
0.0
  0
LINE
  5
11F48
  8
0-1
  6
CONTINUOUS
 62
     3
 10
20716.778243817389
 20
8459.6884660000014
 30
0.0
 11
20716.778243817389
 21
6241.1883740000021
 31
0.0
  0
LINE
  5
11F49
  8
0-1
  6
CONTINUOUS
 62
     3
 10
20651.778771817371
 20
8589.6883999999973
 30
0.0
 11
20651.778771817371
 21
6241.1883740000021
 31
0.0
  0
LINE
  5
11F4A
  8
0-1
  6
CONTINUOUS
 62
     3
 10
20631.781938817359
 20
8459.6884660000014
 30
0.0
 11
20631.781938817359
 21
6241.1883740000021
 31
0.0
  0
LINE
  5
11F4B
  8
0-1
  6
CONTINUOUS
 62
     3
 10
20768.281938817359
 20
6661.1892649999991
 30
0.0
 11
23147.781938817359
 21
6661.1892649999991
 31
0.0
  0
LINE
  5
11F4C
  8
0-1
  6
CONTINUOUS
 62
     3
 10
20768.281938817359
 20
6596.1888030000027
 30
0.0
 11
23147.781938817359
 21
6596.1888030000027
 31
0.0
  0
LINE
  5
11F4D
  8
0-1
  6
CONTINUOUS
 62
     3
 10
20768.281938817359
 20
6531.1888360000003
 30
0.0
 11
23147.781938817359
 21
6531.1888360000003
 31
0.0
  0
LINE
  5
11F4E
  8
0-1
  6
CONTINUOUS
 62
     3
 10
20768.281938817359
 20
6466.1883740000039
 30
0.0
 11
23147.781938817359
 21
6466.1883740000039
 31
0.0
  0
LINE
  5
11F4F
  8
0-1
  6
CONTINUOUS
 62
     3
 10
20768.281938817359
 20
6401.1889020000071
 30
0.0
 11
23147.781938817359
 21
6401.1889020000071
 31
0.0
  0
LINE
  5
11F50
  8
0-1
  6
CONTINUOUS
 62
     3
 10
20768.281938817359
 20
6336.1889349999956
 30
0.0
 11
23147.781938817359
 21
6336.1889349999956
 31
0.0
  0
LINE
  5
11F51
  8
0-1
  6
CONTINUOUS
 62
     3
 10
20768.281938817359
 20
6271.1889680000004
 30
0.0
 11
23147.781938817359
 21
6271.1889680000004
 31
0.0
  0
LINE
  5
11F52
  8
0-1
  6
CONTINUOUS
 62
     3
 10
20768.281938817359
 20
6206.1885060000041
 30
0.0
 11
23147.781938817359
 21
6206.1885060000041
 31
0.0
  0
LINE
  5
11F53
  8
0-1
  6
CONTINUOUS
 62
     3
 10
20768.281938817359
 20
8026.1885719999982
 30
0.0
 11
23147.781938817359
 21
8026.1885719999982
 31
0.0
  0
LINE
  5
11F54
  8
0-1
  6
CONTINUOUS
 62
     3
 10
20768.281938817359
 20
7961.1886050000021
 30
0.0
 11
23147.781938817359
 21
7961.1886050000021
 31
0.0
  0
LINE
  5
11F55
  8
0-1
  6
CONTINUOUS
 62
     3
 10
20768.281938817359
 20
7896.1891330000062
 30
0.0
 11
23147.781938817359
 21
7896.1891330000062
 31
0.0
  0
LINE
  5
11F56
  8
0-1
  6
CONTINUOUS
 62
     3
 10
20768.281938817359
 20
7831.1891659999937
 30
0.0
 11
23147.781938817359
 21
7831.1891659999937
 31
0.0
  0
LINE
  5
11F57
  8
0-1
  6
CONTINUOUS
 62
     3
 10
20768.281938817359
 20
7766.1891989999967
 30
0.0
 11
23147.781938817359
 21
7766.1891989999967
 31
0.0
  0
LINE
  5
11F58
  8
0-1
  6
CONTINUOUS
 62
     3
 10
20768.281938817359
 20
7701.1887370000022
 30
0.0
 11
23147.781938817359
 21
7701.1887370000022
 31
0.0
  0
LINE
  5
11F59
  8
0-1
  6
CONTINUOUS
 62
     3
 10
20768.281938817359
 20
7636.1887699999979
 30
0.0
 11
23147.781938817359
 21
7636.1887699999979
 31
0.0
  0
LINE
  5
11F5A
  8
0-1
  6
CONTINUOUS
 62
     3
 10
20768.281938817359
 20
7571.1892980000011
 30
0.0
 11
23147.781938817359
 21
7571.1892980000011
 31
0.0
  0
LINE
  5
11F5B
  8
0-1
  6
CONTINUOUS
 62
     3
 10
20768.281938817359
 20
7506.1893309999978
 30
0.0
 11
23147.781938817359
 21
7506.1893309999978
 31
0.0
  0
LINE
  5
11F5C
  8
0-1
  6
CONTINUOUS
 62
     3
 10
20768.281938817359
 20
7441.1888690000023
 30
0.0
 11
23147.781938817359
 21
7441.1888690000023
 31
0.0
  0
LINE
  5
11F5D
  8
0-1
  6
CONTINUOUS
 62
     3
 10
20768.281938817359
 20
7376.188901999999
 30
0.0
 11
23147.781938817359
 21
7376.188901999999
 31
0.0
  0
LINE
  5
11F5E
  8
0-1
  6
CONTINUOUS
 62
     3
 10
20768.281938817359
 20
7311.1889350000029
 30
0.0
 11
23147.781938817359
 21
7311.1889350000029
 31
0.0
  0
LINE
  5
11F5F
  8
0-1
  6
CONTINUOUS
 62
     3
 10
20768.281938817359
 20
7246.1884730000029
 30
0.0
 11
23147.781938817359
 21
7246.1884730000029
 31
0.0
  0
LINE
  5
11F60
  8
0-1
  6
CONTINUOUS
 62
     3
 10
20768.281938817359
 20
7181.1885060000041
 30
0.0
 11
23147.781938817359
 21
7181.1885060000041
 31
0.0
  0
LINE
  5
11F61
  8
0-1
  6
CONTINUOUS
 62
     3
 10
20768.281938817359
 20
7116.1890340000009
 30
0.0
 11
23147.781938817359
 21
7116.1890340000009
 31
0.0
  0
LINE
  5
11F62
  8
0-1
  6
CONTINUOUS
 62
     3
 10
20768.281938817359
 20
7051.1890669999966
 30
0.0
 11
23147.781938817359
 21
7051.1890669999966
 31
0.0
  0
LINE
  5
11F63
  8
0-1
  6
CONTINUOUS
 62
     3
 10
20768.281938817359
 20
6986.1891000000032
 30
0.0
 11
23147.781938817359
 21
6986.1891000000032
 31
0.0
  0
LINE
  5
11F64
  8
0-1
  6
CONTINUOUS
 62
     3
 10
20768.281938817359
 20
6921.1886380000051
 30
0.0
 11
23147.781938817359
 21
6921.1886380000051
 31
0.0
  0
LINE
  5
11F65
  8
0-1
  6
CONTINUOUS
 62
     3
 10
20768.281938817359
 20
6856.1886710000017
 30
0.0
 11
23147.781938817359
 21
6856.1886710000017
 31
0.0
  0
LINE
  5
11F66
  8
0-1
  6
CONTINUOUS
 62
     3
 10
20768.281938817359
 20
6791.1891989999967
 30
0.0
 11
23147.781938817359
 21
6791.1891989999967
 31
0.0
  0
LINE
  5
11F67
  8
0-1
  6
CONTINUOUS
 62
     3
 10
20768.281938817359
 20
6726.1892320000024
 30
0.0
 11
23147.781938817359
 21
6726.1892320000024
 31
0.0
  0
LINE
  5
11F68
  8
0-1
  6
CONTINUOUS
 62
     3
 10
20768.281938817359
 20
8080.6485920000023
 30
0.0
 11
23147.781938817359
 21
8080.6485920000023
 31
0.0
  0
LINE
  5
11F69
  8
0-1
  6
CONTINUOUS
 62
     3
 10
20624.279299817372
 20
6141.1885390000007
 30
0.0
 11
26653.260314942559
 21
6141.1885390000007
 31
0.0
  0
LINE
  5
11F6A
  8
0-1
  6
CONTINUOUS
 62
     3
 10
20742.781199817378
 20
8335.1891200000064
 30
0.0
 11
21020.21072981738
 21
8335.1891200000064
 31
0.0
  0
LINE
  5
11F6B
  8
0-1
  6
CONTINUOUS
 62
     3
 10
20742.781199817378
 20
8377.1885650000022
 30
0.0
 11
21052.207667817391
 21
8377.1885650000022
 31
0.0
  0
LINE
  5
11F6C
  8
0-1
  6
CONTINUOUS
 62
     3
 10
20737.78093681738
 20
8340.1888889999937
 30
0.0
 11
20737.78093681738
 21
8372.1892910000006
 31
0.0
  0
LINE
  5
11F6D
  8
0-1
  6
CONTINUOUS
 62
     3
 10
20716.778243817389
 20
8386.1884470000077
 30
0.0
 11
23199.281674817361
 21
8386.1884470000077
 31
0.0
  0
LINE
  5
11F6E
  8
0-1
  6
CONTINUOUS
 62
     3
 10
21023.744169817372
 20
8336.6529740000005
 30
0.0
 11
21055.745067817381
 21
8368.653376000002
 31
0.0
  0
LINE
  5
11F6F
  8
0-1
  6
CONTINUOUS
 62
     3
 10
20737.78093681738
 20
8368.7889730000006
 30
0.0
 11
21055.87373581736
 21
8368.7889730000006
 31
0.0
  0
LINE
  5
11F70
  8
0-1
  6
CONTINUOUS
 62
     3
 10
20737.78093681738
 20
8360.3888860000006
 30
0.0
 11
21047.48057781739
 21
8360.3888860000006
 31
0.0
  0
LINE
  5
11F71
  8
0-1
  6
CONTINUOUS
 62
     3
 10
20737.78093681738
 20
8351.9892939999972
 30
0.0
 11
21039.081479817381
 21
8351.9892939999972
 31
0.0
  0
LINE
  5
11F72
  8
0-1
  6
CONTINUOUS
 62
     3
 10
20737.78093681738
 20
8343.5892070000027
 30
0.0
 11
21030.67842381739
 21
8343.5892070000027
 31
0.0
  0
LINE
  5
11F73
  8
0-1
  6
CONTINUOUS
 62
     3
 10
23178.28096281736
 20
8368.7889730000006
 30
0.0
 11
22860.188162817369
 21
8368.7889730000006
 31
0.0
  0
LINE
  5
11F74
  8
0-1
  6
CONTINUOUS
 62
     3
 10
23178.28096281736
 20
8360.3888860000006
 30
0.0
 11
22868.583300817369
 21
8360.3888860000006
 31
0.0
  0
LINE
  5
11F75
  8
0-1
  6
CONTINUOUS
 62
     3
 10
23178.28096281736
 20
8351.9892939999972
 30
0.0
 11
22876.982397817359
 21
8351.9892939999972
 31
0.0
  0
LINE
  5
11F76
  8
0-1
  6
CONTINUOUS
 62
     3
 10
23178.28096281736
 20
8343.5892070000027
 30
0.0
 11
22885.38149581735
 21
8343.5892070000027
 31
0.0
  0
LINE
  5
11F77
  8
0-1
  6
CONTINUOUS
 62
     3
 10
23173.280698817369
 20
8377.1885650000022
 30
0.0
 11
22863.854230817349
 21
8377.1885650000022
 31
0.0
  0
LINE
  5
11F78
  8
0-1
  6
CONTINUOUS
 62
     3
 10
23173.280698817369
 20
8335.1891200000064
 30
0.0
 11
22895.851169817361
 21
8335.1891200000064
 31
0.0
  0
LINE
  5
11F79
  8
0-1
  6
CONTINUOUS
 62
     3
 10
23178.28096281736
 20
8340.1888889999937
 30
0.0
 11
23178.28096281736
 21
8372.1892910000006
 31
0.0
  0
LINE
  5
11F7A
  8
0-1
  6
CONTINUOUS
 62
     3
 10
22892.315748817371
 20
8336.6529740000005
 30
0.0
 11
22860.318810817382
 21
8368.653376000002
 31
0.0
  0
LINE
  5
11F7B
  8
0-2
  6
CONTINUOUS
 62
     4
 10
22321.7199793174
 20
6888.415233000007
 30
0.0
 11
22221.720639317391
 21
6888.415233000007
 31
0.0
  0
LINE
  5
11F7C
  8
0-2
  6
CONTINUOUS
 62
     4
 10
21594.33597931738
 20
6888.415233000007
 30
0.0
 11
21694.335319317372
 21
6888.415233000007
 31
0.0
  0
LINE
  5
11F7D
  8
0-5
  6
CONTINUOUS
 62
     4
 10
23241.781938817381
 20
4461.1889349999938
 30
0.0
 11
23241.781938817381
 21
4301.1893970000001
 31
0.0
  0
LINE
  5
11F7E
  8
0-5
  6
CONTINUOUS
 62
     4
 10
18452.40891881736
 20
6349.0350210000024
 30
0.0
 11
18572.40733481737
 21
6141.1885390000007
 31
0.0
  0
LINE
  5
11F7F
  8
0-5
  6
CONTINUOUS
 62
     4
 10
18572.40733481737
 20
6141.1885390000007
 30
0.0
 11
18692.407730817369
 21
6349.0350210000024
 31
0.0
  0
LINE
  5
11F80
  8
0-5
  6
CONTINUOUS
 62
     4
 10
18692.407730817369
 20
6349.0350210000024
 30
0.0
 11
18452.40891881736
 21
6349.0350210000024
 31
0.0
  0
LINE
  5
11F81
  8
0-5
  6
CONTINUOUS
 62
     4
 10
20674.281938817359
 20
4461.1889349999938
 30
0.0
 11
20674.281938817359
 21
4301.1893970000001
 31
0.0
  0
LINE
  5
11F82
  8
2-0
  6
CENTER2
 62
     6
 10
23241.781938817381
 20
5878.536116000002
 30
0.0
 11
23241.781938817381
 21
6915.6791430000003
 31
0.0
  0
LINE
  5
11F83
  8
2-0
  6
CENTER2
 62
     6
 10
20674.281938817359
 20
5878.536116000002
 30
0.0
 11
20674.281938817359
 21
6915.6791430000003
 31
0.0
  0
ARC
  5
11F84
  8
0-1
  6
CONTINUOUS
 62
     3
 10
20742.781199817378
 20
8372.1892910000006
 30
0.0
 40
5.0
 50
90.0
 51
180.0
  0
ARC
  5
11F85
  8
0-1
  6
CONTINUOUS
 62
     3
 10
20742.781199817378
 20
8340.1888889999937
 30
0.0
 40
5.0
 50
180.0
 51
269.9999850001808
  0
ARC
  5
11F86
  8
0-1
  6
CONTINUOUS
 62
     3
 10
21020.21072981738
 20
8340.1888889999937
 30
0.0
 40
5.0
 50
269.9999850001808
 51
314.99998500027681
  0
ARC
  5
11F87
  8
0-1
  6
CONTINUOUS
 62
     3
 10
21052.207667817391
 20
8372.1892910000006
 30
0.0
 40
5.0
 50
314.99998500027681
 51
90.0
  0
ARC
  5
11F88
  8
0-1
  6
CONTINUOUS
 62
     3
 10
23173.280698817369
 20
8340.1888889999937
 30
0.0
 40
5.0
 50
269.9999850001808
 51
0.0
  0
ARC
  5
11F89
  8
0-1
  6
CONTINUOUS
 62
     3
 10
23173.280698817369
 20
8372.1892910000006
 30
0.0
 40
5.0
 50
0.0
 51
90.0
  0
ARC
  5
11F8A
  8
0-1
  6
CONTINUOUS
 62
     3
 10
22863.854230817349
 20
8372.1892910000006
 30
0.0
 40
5.0
 50
90.0
 51
224.99998499997761
  0
ARC
  5
11F8B
  8
0-1
  6
CONTINUOUS
 62
     3
 10
22895.851169817361
 20
8340.1888889999937
 30
0.0
 40
5.0
 50
224.99998499997761
 51
269.9999850001808
  0
CIRCLE
  5
11F8C
  8
0-5
  6
CONTINUOUS
 62
     4
 10
23241.781938817381
 20
4101.1882420000011
 30
0.0
 40
199.9999949999999
  0
CIRCLE
  5
11F8D
  8
0-5
  6
CONTINUOUS
 62
     4
 10
20674.281938817359
 20
4101.1882420000011
 30
0.0
 40
199.9999949999999
  0
TEXT
  5
11F8E
  8
0-5
  6
CONTINUOUS
 62
     7
 10
23189.869063817361
 20
4011.7132600000009
 30
0.0
 40
160.0
  1
2
 72
     4
 11
23243.20239715069
 21
4091.7132600000009
 31
0.0
  0
TEXT
  5
11F8F
  8
0-5
  6
CONTINUOUS
 62
     7
 10
20064.281411817381
 20
6988.0104361594431
 30
0.0
 40
160.0
  1
(2131.5)
 50
90.0
 72
     4
 11
19984.281411817381
 21
7441.3437694927761
 31
0.0
  0
TEXT
  5
11F90
  8
0-5
  6
CONTINUOUS
 62
     7
 10
18452.40891881736
 20
6429.0347900000024
 30
0.0
 40
160.0
  1
G.L
 72
     4
 11
18612.40891881736
 21
6509.0347900000043
 31
0.0
  0
TEXT
  5
11F91
  8
0-5
  6
CONTINUOUS
 62
     7
 10
20622.369064817369
 20
4011.7132600000009
 30
0.0
 40
160.0
  1
1
 72
     4
 11
20649.03573148404
 21
4091.7132600000009
 31
0.0
  0
CIRCLE
  5
11F92
  8
0-4
  6
CONTINUOUS
 62
     4
 10
21958.02995931737
 20
6627.2449749999987
 30
0.0
 40
18.487504999999981
  0
LINE
  5
11F93
  8
1-前柱カバ-P
 10
25999.281938817381
 20
8459.6884660000014
 30
0.0
 11
25999.281938817381
 21
6141.1885390000007
 31
0.0
  0
LINE
  5
11F94
  8
1-前柱カバ-P
 10
26084.28193881737
 20
8589.6883999999973
 30
0.0
 11
26084.28193881737
 21
6141.1885390000007
 31
0.0
  0
LINE
  5
11F95
  8
0-1
  6
CONTINUOUS
 62
     3
 10
26127.28193881737
 20
8459.6884660000087
 30
0.0
 11
23199.281674817361
 21
8459.6884660000014
 31
0.0
  0
LINE
  5
11F96
  8
0-1
  6
CONTINUOUS
 62
     3
 10
23264.28312681735
 20
8589.6883999999973
 30
0.0
 11
26127.28193881737
 21
8589.6883999999973
 31
0.0
  0
LINE
  5
11F97
  8
0-1
  6
CONTINUOUS
 62
     3
 10
26127.28193881737
 20
8264.0026620000026
 30
0.0
 11
26127.28193881737
 21
8589.6883999999973
 31
0.0
  0
LINE
  5
11F98
  8
0-1
  6
CONTINUOUS
 62
     3
 10
26127.28193881737
 20
8264.0026620000026
 30
0.0
 11
26084.28193881737
 21
8264.0026620000026
 31
0.0
  0
LINE
  5
11F99
  8
2-0
  6
CENTER2
 62
     6
 10
26041.78193881737
 20
5878.536116000002
 30
0.0
 11
26041.78193881737
 21
6915.6791430000003
 31
0.0
  0
LINE
  5
11F9A
  8
1-桁前P28
 10
25999.281938817381
 20
8262.0026620000026
 30
0.0
 11
23284.28193881737
 21
8262.0026620000026
 31
0.0
  0
LINE
  5
11F9B
  8
0-5
  6
CONTINUOUS
 62
     4
 10
26041.78193881737
 20
4461.1889349999938
 30
0.0
 11
26041.78193881737
 21
4301.1893970000001
 31
0.0
  0
CIRCLE
  5
11F9C
  8
0-5
  6
CONTINUOUS
 62
     4
 10
26041.78193881737
 20
4101.1882420000011
 30
0.0
 40
199.9999949999999
  0
TEXT
  5
11F9D
  8
0-5
  6
CONTINUOUS
 62
     7
 10
25989.86906381739
 20
4011.7132600000009
 30
0.0
 40
160.0
  1
3
 72
     4
 11
26043.202397150719
 21
4091.7132600000009
 31
0.0
  0
TEXT
  5
11F9E
  8
0-5
  6
CONTINUOUS
 62
     7
 10
27534.107109111748
 20
7249.4069272529232
 30
0.0
 40
160.0
  1
(2260）
 50
90.0
 72
     4
 11
27454.107109111748
 21
7641.4069272529223
 31
0.0
  0
LINE
  5
11FC5
  8
WAKUSEN-01
 10
868.00000000000193
 20
22484.000000000011
 30
0.0
 11
32764.000000000011
 21
22484.000000000011
 31
0.0
  0
LINE
  5
11FC8
  8
WAKUSEN-01
 10
20560.0
 20
2484.0
 30
0.0
 11
32764.0
 21
2484.0
 31
0.0
  0
LINE
  5
11FC9
  8
WAKUSEN-02
 10
20560.0
 20
1655.9999999999991
 30
0.0
 11
26868.0
 21
1655.9999999999991
 31
0.0
  0
TEXT
  5
11FCA
  8
WAKUMOJI-01
 10
20670.260259962761
 20
2125.9030093393221
 30
0.0
 40
240.0
  1
名　称
  7
WAKUMOJI
  0
TEXT
  5
11FCB
  8
WAKUMOJI-01
 10
20656.505485091919
 20
1319.12897497982
 30
0.0
 40
240.0
  1
機種名
  7
WAKUMOJI
  0
LINE
  5
11FCE
  8
YODOROGO
 10
29977.604341291921
 20
1995.7494964292871
 30
0.0
 11
29829.604341291921
 21
1995.7494964292871
 31
0.0
1001
AUTOCAD_POSTSCRIPT_FIGURE
1002
{
1000
PSFILL
1000
Grayscale
1000
Grayscale
1070
    25
1002
}
  0
LINE
  5
11FCF
  8
YODOROGO
 10
29829.604341291921
 20
1947.749496429288
 30
0.0
 11
29977.604341291921
 21
1947.749496429288
 31
0.0
1001
AUTOCAD_POSTSCRIPT_FIGURE
1002
{
1000
PSFILL
1000
Grayscale
1000
Grayscale
1070
    25
1002
}
  0
LINE
  5
11FD0
  8
YODOROGO
 10
29977.604341291921
 20
1907.7494964292871
 30
0.0
 11
29829.604341291921
 21
1907.7494964292871
 31
0.0
1001
AUTOCAD_POSTSCRIPT_FIGURE
1002
{
1000
PSFILL
1000
Grayscale
1000
Grayscale
1070
    25
1002
}
  0
LINE
  5
11FD1
  8
YODOROGO
 10
29829.604341291921
 20
1859.749496429288
 30
0.0
 11
29977.604341291921
 21
1859.749496429288
 31
0.0
1001
AUTOCAD_POSTSCRIPT_FIGURE
1002
{
1000
PSFILL
1000
Grayscale
1000
Grayscale
1070
    25
1002
}
  0
LINE
  5
11FD2
  8
YODOROGO
 10
29977.604341291921
 20
1819.7494964292871
 30
0.0
 11
29829.604341291921
 21
1819.7494964292871
 31
0.0
1001
AUTOCAD_POSTSCRIPT_FIGURE
1002
{
1000
PSFILL
1000
Grayscale
1000
Grayscale
1070
    25
1002
}
  0
LINE
  5
11FD3
  8
YODOROGO
 10
29921.60434129191
 20
1707.749496429288
 30
0.0
 11
29977.604341291921
 21
1707.749496429288
 31
0.0
1001
AUTOCAD_POSTSCRIPT_FIGURE
1002
{
1000
PSFILL
1000
Grayscale
1000
Grayscale
1070
    25
1002
}
  0
LINE
  5
11FD4
  8
YODOROGO
 10
29737.604341291921
 20
1427.749496429288
 30
0.0
 11
29937.604341291932
 21
1481.3393349155101
 31
0.0
  0
LINE
  5
11FD5
  8
YODOROGO
 10
29949.60434129191
 20
1707.749496429288
 30
0.0
 11
29885.604341291921
 21
1707.749496429288
 31
0.0
  0
ARC
  5
11FD6
  8
YODOROGO
 10
30254.34774982791
 20
1807.864609233261
 30
0.0
 40
381.88686420564721
 50
213.96111677667841
 51
264.47872074317792
  0
ARC
  5
11FD7
  8
YODOROGO
 10
30254.347749827921
 20
1807.864609233302
 30
0.0
 40
381.8868642056816
 50
208.14114420486601
 51
212.9210361185994
  0
LINE
  5
11FD8
  8
YODOROGO
 10
29771.409872985321
 20
1556.807661346234
 30
0.0
 11
29933.78413250855
 21
1600.3157130570869
 31
0.0
  0
LINE
  5
11FD9
  8
YODOROGO
 10
29737.604341291921
 20
1427.749496429288
 30
0.0
 11
29937.604341291932
 21
1481.3393349155101
 31
0.0
  0
LINE
  5
11FDA
  8
YODOROGO
 10
29949.60434129191
 20
1707.749496429288
 30
0.0
 11
29885.604341291921
 21
1707.749496429288
 31
0.0
  0
ARC
  5
11FDB
  8
YODOROGO
 10
30254.34774982791
 20
1807.864609233261
 30
0.0
 40
381.88686420564721
 50
213.96111677667841
 51
264.47872074317792
  0
LINE
  5
11FDC
  8
YODOROGO
 10
28793.60434129191
 20
1819.7494964292871
 30
0.0
 11
28433.60434129191
 21
1819.7494964292871
 31
0.0
  0
LINE
  5
11FDD
  8
YODOROGO
 10
28513.60434129191
 20
1427.749496429288
 30
0.0
 11
28793.60434129191
 21
1427.749496429288
 31
0.0
  0
LINE
  5
11FDE
  8
YODOROGO
 10
28729.604341291921
 20
1923.7494964292871
 30
0.0
 11
28497.60434129191
 21
1923.7494964292871
 31
0.0
  0
LINE
  5
11FDF
  8
YODOROGO
 10
28585.604341291921
 20
2027.749496429288
 30
0.0
 11
28657.604341291921
 21
2027.749496429288
 31
0.0
  0
LINE
  5
11FE0
  8
YODOROGO
 10
28433.60434129191
 20
1707.749496429288
 30
0.0
 11
28433.60434129191
 21
1507.749496429288
 31
0.0
  0
LINE
  5
11FE1
  8
YODOROGO
 10
28497.60434129191
 20
1563.7494964292871
 30
0.0
 11
28497.60434129191
 21
1707.749496429288
 31
0.0
  0
LINE
  5
11FE2
  8
YODOROGO
 10
28585.604341291921
 20
1747.74949642929
 30
0.0
 11
28585.604341291921
 21
1547.749496429288
 31
0.0
  0
LINE
  5
11FE3
  8
YODOROGO
 10
27857.604341291921
 20
1683.749496429288
 30
0.0
 11
27777.604341291921
 21
1619.9724140445701
 31
0.0
  0
LINE
  5
11FE4
  8
YODOROGO
 10
27937.604341291921
 20
1619.9724140445701
 30
0.0
 11
27857.604341291921
 21
1683.749496429288
 31
0.0
  0
LINE
  5
11FE5
  8
YODOROGO
 10
27857.604341291921
 20
1707.749496429288
 30
0.0
 11
27937.604341291921
 21
1643.9724140445701
 31
0.0
  0
LINE
  5
11FE6
  8
YODOROGO
 10
27777.604341291921
 20
1643.9724140445701
 30
0.0
 11
27857.604341291921
 21
1707.749496429288
 31
0.0
  0
LINE
  5
11FE7
  8
YODOROGO
 10
28040.913204016892
 20
1659.749496429288
 30
0.0
 11
28040.913204016892
 21
1683.7494964292871
 31
0.0
  0
LINE
  5
11FE8
  8
YODOROGO
 10
27977.604341291921
 20
1683.7494964292871
 30
0.0
 11
27977.604341291921
 21
1667.749496429285
 31
0.0
  0
LINE
  5
11FE9
  8
YODOROGO
 10
28098.135520230931
 20
1707.749496429288
 30
0.0
 11
28098.135520230931
 21
1655.5036372746561
 31
0.0
1001
AUTOCAD_POSTSCRIPT_FIGURE
1002
{
1000
PSFILL
1000
Grayscale
1000
Grayscale
1070
   100
1002
}
  0
LINE
  5
11FEA
  8
YODOROGO
 10
28082.135520230921
 20
1655.5036372746561
 30
0.0
 11
28082.135520230921
 21
1707.749496429288
 31
0.0
1001
AUTOCAD_POSTSCRIPT_FIGURE
1002
{
1000
PSFILL
1000
Grayscale
1000
Grayscale
1070
   100
1002
}
  0
LINE
  5
11FEB
  8
YODOROGO
 10
27809.604341291921
 20
1608.771904043258
 30
0.0
 11
27809.604341291921
 21
1632.771904043258
 31
0.0
  0
LINE
  5
11FEC
  8
YODOROGO
 10
27905.604341291921
 20
1608.771904043258
 30
0.0
 11
27809.604341291921
 21
1608.771904043258
 31
0.0
  0
LINE
  5
11FED
  8
YODOROGO
 10
27905.604341291921
 20
1632.771904043258
 30
0.0
 11
27905.604341291921
 21
1608.771904043258
 31
0.0
  0
LINE
  5
11FEE
  8
YODOROGO
 10
27809.604341291921
 20
1632.771904043258
 30
0.0
 11
27905.604341291921
 21
1632.771904043258
 31
0.0
  0
LINE
  5
11FEF
  8
YODOROGO
 10
27824.509588915738
 20
1568.5028573704751
 30
0.0
 11
27785.604341291921
 21
1475.7494964292871
 31
0.0
1001
AUTOCAD_POSTSCRIPT_FIGURE
1002
{
1000
PSFILL
1000
Grayscale
1000
Grayscale
1070
   100
1002
}
  0
LINE
  5
11FF0
  8
YODOROGO
 10
27777.604341291921
 20
1568.5028573704751
 30
0.0
 11
27824.509588915738
 21
1568.5028573704751
 31
0.0
1001
AUTOCAD_POSTSCRIPT_FIGURE
1002
{
1000
PSFILL
1000
Grayscale
1000
Grayscale
1070
   100
1002
}
  0
LINE
  5
11FF1
  8
YODOROGO
 10
27777.604341291921
 20
1588.5028573704751
 30
0.0
 11
27777.604341291921
 21
1568.5028573704751
 31
0.0
1001
AUTOCAD_POSTSCRIPT_FIGURE
1002
{
1000
PSFILL
1000
Grayscale
1000
Grayscale
1070
   100
1002
}
  0
LINE
  5
11FF2
  8
YODOROGO
 10
27937.604341291921
 20
1588.5028573704751
 30
0.0
 11
27777.604341291921
 21
1588.5028573704751
 31
0.0
1001
AUTOCAD_POSTSCRIPT_FIGURE
1002
{
1000
PSFILL
1000
Grayscale
1000
Grayscale
1070
   100
1002
}
  0
LINE
  5
11FF3
  8
YODOROGO
 10
27937.604341291921
 20
1568.5028573704751
 30
0.0
 11
27937.604341291921
 21
1588.5028573704751
 31
0.0
1001
AUTOCAD_POSTSCRIPT_FIGURE
1002
{
1000
PSFILL
1000
Grayscale
1000
Grayscale
1070
   100
1002
}
  0
LINE
  5
11FF4
  8
YODOROGO
 10
27844.509588915738
 20
1568.5028573704751
 30
0.0
 11
27937.604341291921
 21
1568.5028573704751
 31
0.0
1001
AUTOCAD_POSTSCRIPT_FIGURE
1002
{
1000
PSFILL
1000
Grayscale
1000
Grayscale
1070
   100
1002
}
  0
LINE
  5
11FF5
  8
YODOROGO
 10
27815.546718284771
 20
1495.7494964292871
 30
0.0
 11
27844.509588915738
 21
1568.5028573704751
 31
0.0
1001
AUTOCAD_POSTSCRIPT_FIGURE
1002
{
1000
PSFILL
1000
Grayscale
1000
Grayscale
1070
   100
1002
}
  0
LINE
  5
11FF6
  8
YODOROGO
 10
27902.054790808648
 20
1495.7494964292871
 30
0.0
 11
27815.546718284771
 21
1495.7494964292871
 31
0.0
1001
AUTOCAD_POSTSCRIPT_FIGURE
1002
{
1000
PSFILL
1000
Grayscale
1000
Grayscale
1070
   100
1002
}
  0
LINE
  5
11FF7
  8
YODOROGO
 10
27885.065004790951
 20
1536.2338106976929
 30
0.0
 11
27902.054790808648
 21
1495.7494964292871
 31
0.0
1001
AUTOCAD_POSTSCRIPT_FIGURE
1002
{
1000
PSFILL
1000
Grayscale
1000
Grayscale
1070
   100
1002
}
  0
LINE
  5
11FF8
  8
YODOROGO
 10
27901.065004790951
 20
1536.2338106976929
 30
0.0
 11
27885.065004790951
 21
1536.2338106976929
 31
0.0
1001
AUTOCAD_POSTSCRIPT_FIGURE
1002
{
1000
PSFILL
1000
Grayscale
1000
Grayscale
1070
   100
1002
}
  0
LINE
  5
11FF9
  8
YODOROGO
 10
27929.604341291921
 20
1475.7494964292871
 30
0.0
 11
27901.065004790951
 21
1536.2338106976929
 31
0.0
1001
AUTOCAD_POSTSCRIPT_FIGURE
1002
{
1000
PSFILL
1000
Grayscale
1000
Grayscale
1070
   100
1002
}
  0
LINE
  5
11FFA
  8
YODOROGO
 10
27785.604341291921
 20
1475.7494964292871
 30
0.0
 11
27929.604341291921
 21
1475.7494964292871
 31
0.0
1001
AUTOCAD_POSTSCRIPT_FIGURE
1002
{
1000
PSFILL
1000
Grayscale
1000
Grayscale
1070
   100
1002
}
  0
LINE
  5
11FFB
  8
YODOROGO
 10
27777.604341291921
 20
1619.9724140445701
 30
0.0
 11
27777.604341291921
 21
1643.9724140445701
 31
0.0
  0
LINE
  5
11FFC
  8
YODOROGO
 10
27937.604341291921
 20
1643.9724140445701
 30
0.0
 11
27937.604341291921
 21
1619.9724140445701
 31
0.0
  0
ARC
  5
11FFD
  8
YODOROGO
 10
28225.940442146959
 20
1600.877765325326
 30
0.0
 40
175.9999999999998
 50
280.3644312771313
 51
3.5414836592180561
  0
ARC
  5
11FFE
  8
YODOROGO
 10
28235.756030759301
 20
1633.5978069619041
 30
0.0
 40
111.9999999999982
 50
281.24905825041549
 51
348.75094174958321
  0
LINE
  5
11FFF
  8
YODOROGO
 10
28257.604341291921
 20
1523.7494964292871
 30
0.0
 11
28257.604341291921
 21
1427.749496429288
 31
0.0
  0
LINE
  5
12000
  8
YODOROGO
 10
28020.088903736909
 20
1610.650565061914
 30
0.0
 11
28040.913204016892
 21
1659.749496429288
 31
0.0
  0
LINE
  5
12001
  8
YODOROGO
 10
28041.604341291921
 20
1583.120489948401
 30
0.0
 11
28020.088903736909
 21
1610.650565061914
 31
0.0
  0
LINE
  5
12002
  8
YODOROGO
 10
28041.604341291921
 20
1563.120489948398
 30
0.0
 11
28041.604341291921
 21
1583.120489948401
 31
0.0
  0
LINE
  5
12003
  8
YODOROGO
 10
28017.604341291921
 20
1585.2370637495301
 30
0.0
 11
28041.604341291921
 21
1563.120489948398
 31
0.0
  0
LINE
  5
12004
  8
YODOROGO
 10
28017.604341291921
 20
1475.7494964292871
 30
0.0
 11
28017.604341291921
 21
1585.2370637495301
 31
0.0
  0
LINE
  5
12005
  8
YODOROGO
 10
28001.604341291921
 20
1475.7494964292871
 30
0.0
 11
28017.604341291921
 21
1475.7494964292871
 31
0.0
  0
LINE
  5
12006
  8
YODOROGO
 10
28001.604341291921
 20
1580.0053496897469
 30
0.0
 11
28001.604341291921
 21
1475.7494964292871
 31
0.0
  0
LINE
  5
12007
  8
YODOROGO
 10
27977.604341291921
 20
1532.7680790334291
 30
0.0
 11
28001.604341291921
 21
1580.0053496897469
 31
0.0
  0
LINE
  5
12008
  8
YODOROGO
 10
27977.604341291921
 20
1556.76807903343
 30
0.0
 11
27977.604341291921
 21
1532.7680790334291
 31
0.0
  0
LINE
  5
12009
  8
YODOROGO
 10
28025.828774291349
 20
1667.749496429285
 30
0.0
 11
27977.604341291921
 21
1556.76807903343
 31
0.0
  0
LINE
  5
1200A
  8
YODOROGO
 10
27977.604341291921
 20
1667.749496429285
 30
0.0
 11
28025.828774291349
 21
1667.749496429285
 31
0.0
  0
LINE
  5
1200B
  8
YODOROGO
 10
28050.135520230899
 20
1655.5036372746561
 30
0.0
 11
28082.135520230921
 21
1655.5036372746561
 31
0.0
1001
AUTOCAD_POSTSCRIPT_FIGURE
1002
{
1000
PSFILL
1000
Grayscale
1000
Grayscale
1070
   100
1002
}
  0
LINE
  5
1200C
  8
YODOROGO
 10
28050.135520230899
 20
1631.5036372746561
 30
0.0
 11
28050.135520230899
 21
1655.5036372746561
 31
0.0
1001
AUTOCAD_POSTSCRIPT_FIGURE
1002
{
1000
PSFILL
1000
Grayscale
1000
Grayscale
1070
   100
1002
}
  0
LINE
  5
1200D
  8
YODOROGO
 10
28082.135520230921
 20
1631.5036372746561
 30
0.0
 11
28050.135520230899
 21
1631.5036372746561
 31
0.0
1001
AUTOCAD_POSTSCRIPT_FIGURE
1002
{
1000
PSFILL
1000
Grayscale
1000
Grayscale
1070
   100
1002
}
  0
LINE
  5
1200E
  8
YODOROGO
 10
28082.135520230921
 20
1499.749496429288
 30
0.0
 11
28082.135520230921
 21
1631.5036372746561
 31
0.0
1001
AUTOCAD_POSTSCRIPT_FIGURE
1002
{
1000
PSFILL
1000
Grayscale
1000
Grayscale
1070
   100
1002
}
  0
LINE
  5
1200F
  8
YODOROGO
 10
28050.135520230921
 20
1499.749496429288
 30
0.0
 11
28082.135520230921
 21
1499.749496429288
 31
0.0
1001
AUTOCAD_POSTSCRIPT_FIGURE
1002
{
1000
PSFILL
1000
Grayscale
1000
Grayscale
1070
   100
1002
}
  0
LINE
  5
12010
  8
YODOROGO
 10
28050.135520230921
 20
1475.7494964292871
 30
0.0
 11
28050.135520230921
 21
1499.749496429288
 31
0.0
1001
AUTOCAD_POSTSCRIPT_FIGURE
1002
{
1000
PSFILL
1000
Grayscale
1000
Grayscale
1070
   100
1002
}
  0
LINE
  5
12011
  8
YODOROGO
 10
28137.604341291921
 20
1475.7494964292871
 30
0.0
 11
28050.135520230921
 21
1475.7494964292871
 31
0.0
1001
AUTOCAD_POSTSCRIPT_FIGURE
1002
{
1000
PSFILL
1000
Grayscale
1000
Grayscale
1070
   100
1002
}
  0
LINE
  5
12012
  8
YODOROGO
 10
28137.604341291921
 20
1499.749496429288
 30
0.0
 11
28137.604341291921
 21
1475.7494964292871
 31
0.0
1001
AUTOCAD_POSTSCRIPT_FIGURE
1002
{
1000
PSFILL
1000
Grayscale
1000
Grayscale
1070
   100
1002
}
  0
LINE
  5
12013
  8
YODOROGO
 10
28098.135520230931
 20
1499.749496429288
 30
0.0
 11
28137.604341291921
 21
1499.749496429288
 31
0.0
1001
AUTOCAD_POSTSCRIPT_FIGURE
1002
{
1000
PSFILL
1000
Grayscale
1000
Grayscale
1070
   100
1002
}
  0
LINE
  5
12014
  8
YODOROGO
 10
28098.135520230931
 20
1631.5036372746561
 30
0.0
 11
28098.135520230931
 21
1499.749496429288
 31
0.0
1001
AUTOCAD_POSTSCRIPT_FIGURE
1002
{
1000
PSFILL
1000
Grayscale
1000
Grayscale
1070
   100
1002
}
  0
LINE
  5
12015
  8
YODOROGO
 10
28137.604341291921
 20
1631.5036372746561
 30
0.0
 11
28098.135520230931
 21
1631.5036372746561
 31
0.0
1001
AUTOCAD_POSTSCRIPT_FIGURE
1002
{
1000
PSFILL
1000
Grayscale
1000
Grayscale
1070
   100
1002
}
  0
LINE
  5
12016
  8
YODOROGO
 10
28137.604341291921
 20
1655.5036372746561
 30
0.0
 11
28137.604341291921
 21
1631.5036372746561
 31
0.0
1001
AUTOCAD_POSTSCRIPT_FIGURE
1002
{
1000
PSFILL
1000
Grayscale
1000
Grayscale
1070
   100
1002
}
  0
LINE
  5
12017
  8
YODOROGO
 10
28098.135520230931
 20
1655.5036372746561
 30
0.0
 11
28137.604341291921
 21
1655.5036372746561
 31
0.0
1001
AUTOCAD_POSTSCRIPT_FIGURE
1002
{
1000
PSFILL
1000
Grayscale
1000
Grayscale
1070
   100
1002
}
  0
LINE
  5
12018
  8
YODOROGO
 10
28401.60434129191
 20
1667.749496429288
 30
0.0
 11
28345.604341291921
 21
1667.749496429288
 31
0.0
  0
LINE
  5
12019
  8
YODOROGO
 10
28401.60434129191
 20
1611.749496429288
 30
0.0
 11
28401.60434129191
 21
1667.749496429288
 31
0.0
  0
LINE
  5
1201A
  8
YODOROGO
 10
28345.604341291921
 20
1667.749496429288
 30
0.0
 11
28345.604341291921
 21
1611.749496429288
 31
0.0
  0
ARC
  5
1201B
  8
YODOROGO
 10
28513.60434129191
 20
1507.749496429288
 30
0.0
 40
80.0
 50
180.0
 51
270.0
  0
ARC
  5
1201C
  8
YODOROGO
 10
28537.604341291921
 20
1563.7494964292871
 30
0.0
 40
40.0
 50
180.0
 51
270.0
  0
LINE
  5
1201D
  8
YODOROGO
 10
28561.604341291932
 20
1523.7494964292871
 30
0.0
 11
28537.604341291921
 21
1523.7494964292871
 31
0.0
  0
ARC
  5
1201E
  8
YODOROGO
 10
28561.604341291932
 20
1547.749496429285
 30
0.0
 40
23.999999999996358
 50
270.0
 51
0.0000000000054281
  0
LINE
  5
1201F
  8
YODOROGO
 10
27801.604341291921
 20
1890.786580793706
 30
0.0
 11
27777.604341291921
 21
1843.776747951672
 31
0.0
1001
AUTOCAD_POSTSCRIPT_FIGURE
1002
{
1000
PSFILL
1000
Grayscale
1000
Grayscale
1070
   100
1002
}
  0
LINE
  5
12020
  8
YODOROGO
 10
27801.604341291921
 20
1747.749496429286
 30
0.0
 11
27801.604341291921
 21
1890.786580793706
 31
0.0
1001
AUTOCAD_POSTSCRIPT_FIGURE
1002
{
1000
PSFILL
1000
Grayscale
1000
Grayscale
1070
   100
1002
}
  0
LINE
  5
12021
  8
YODOROGO
 10
27817.604341291921
 20
1747.749496429286
 30
0.0
 11
27801.604341291921
 21
1747.749496429286
 31
0.0
1001
AUTOCAD_POSTSCRIPT_FIGURE
1002
{
1000
PSFILL
1000
Grayscale
1000
Grayscale
1070
   100
1002
}
  0
LINE
  5
12022
  8
YODOROGO
 10
27817.604341291921
 20
1893.7713320852661
 30
0.0
 11
27817.604341291921
 21
1747.749496429286
 31
0.0
1001
AUTOCAD_POSTSCRIPT_FIGURE
1002
{
1000
PSFILL
1000
Grayscale
1000
Grayscale
1070
   100
1002
}
  0
LINE
  5
12023
  8
YODOROGO
 10
27841.604341291921
 20
1867.6547582841361
 30
0.0
 11
27817.604341291921
 21
1893.7713320852661
 31
0.0
1001
AUTOCAD_POSTSCRIPT_FIGURE
1002
{
1000
PSFILL
1000
Grayscale
1000
Grayscale
1070
   100
1002
}
  0
LINE
  5
12024
  8
YODOROGO
 10
27841.604341291921
 20
1883.6547582841361
 30
0.0
 11
27841.604341291921
 21
1867.6547582841361
 31
0.0
1001
AUTOCAD_POSTSCRIPT_FIGURE
1002
{
1000
PSFILL
1000
Grayscale
1000
Grayscale
1070
   100
1002
}
  0
LINE
  5
12025
  8
YODOROGO
 10
27817.604341291921
 20
1917.7713320852649
 30
0.0
 11
27841.604341291921
 21
1883.6547582841361
 31
0.0
1001
AUTOCAD_POSTSCRIPT_FIGURE
1002
{
1000
PSFILL
1000
Grayscale
1000
Grayscale
1070
   100
1002
}
  0
LINE
  5
12026
  8
YODOROGO
 10
27817.604341291921
 20
1939.749496429288
 30
0.0
 11
27817.604341291921
 21
1917.7713320852649
 31
0.0
1001
AUTOCAD_POSTSCRIPT_FIGURE
1002
{
1000
PSFILL
1000
Grayscale
1000
Grayscale
1070
   100
1002
}
  0
LINE
  5
12027
  8
YODOROGO
 10
27889.604341291921
 20
1939.749496429288
 30
0.0
 11
27817.604341291921
 21
1939.749496429288
 31
0.0
1001
AUTOCAD_POSTSCRIPT_FIGURE
1002
{
1000
PSFILL
1000
Grayscale
1000
Grayscale
1070
   100
1002
}
  0
LINE
  5
12028
  8
YODOROGO
 10
27889.604341291921
 20
1900.5683489363
 30
0.0
 11
27889.604341291921
 21
1939.749496429288
 31
0.0
1001
AUTOCAD_POSTSCRIPT_FIGURE
1002
{
1000
PSFILL
1000
Grayscale
1000
Grayscale
1070
   100
1002
}
  0
LINE
  5
12029
  8
YODOROGO
 10
27857.604341291921
 20
1900.5683489363
 30
0.0
 11
27889.604341291921
 21
1900.5683489363
 31
0.0
1001
AUTOCAD_POSTSCRIPT_FIGURE
1002
{
1000
PSFILL
1000
Grayscale
1000
Grayscale
1070
   100
1002
}
  0
LINE
  5
1202A
  8
YODOROGO
 10
27857.604341291921
 20
1884.568348936298
 30
0.0
 11
27857.604341291921
 21
1900.5683489363
 31
0.0
1001
AUTOCAD_POSTSCRIPT_FIGURE
1002
{
1000
PSFILL
1000
Grayscale
1000
Grayscale
1070
   100
1002
}
  0
LINE
  5
1202B
  8
YODOROGO
 10
27889.604341291921
 20
1884.568348936298
 30
0.0
 11
27857.604341291921
 21
1884.568348936298
 31
0.0
1001
AUTOCAD_POSTSCRIPT_FIGURE
1002
{
1000
PSFILL
1000
Grayscale
1000
Grayscale
1070
   100
1002
}
  0
LINE
  5
1202C
  8
YODOROGO
 10
27889.604341291921
 20
1879.6191779644371
 30
0.0
 11
27889.604341291921
 21
1884.568348936298
 31
0.0
1001
AUTOCAD_POSTSCRIPT_FIGURE
1002
{
1000
PSFILL
1000
Grayscale
1000
Grayscale
1070
   100
1002
}
  0
LINE
  5
1202D
  8
YODOROGO
 10
27849.604341291921
 20
1812.974981161417
 30
0.0
 11
27889.604341291921
 21
1879.6191779644371
 31
0.0
1001
AUTOCAD_POSTSCRIPT_FIGURE
1002
{
1000
PSFILL
1000
Grayscale
1000
Grayscale
1070
   100
1002
}
  0
LINE
  5
1202E
  8
YODOROGO
 10
27849.604341291921
 20
1796.9749811614161
 30
0.0
 11
27849.604341291921
 21
1812.974981161417
 31
0.0
1001
AUTOCAD_POSTSCRIPT_FIGURE
1002
{
1000
PSFILL
1000
Grayscale
1000
Grayscale
1070
   100
1002
}
  0
LINE
  5
1202F
  8
YODOROGO
 10
27889.604341291921
 20
1847.6191779644359
 30
0.0
 11
27849.604341291921
 21
1796.9749811614161
 31
0.0
1001
AUTOCAD_POSTSCRIPT_FIGURE
1002
{
1000
PSFILL
1000
Grayscale
1000
Grayscale
1070
   100
1002
}
  0
LINE
  5
12030
  8
YODOROGO
 10
27889.604341291921
 20
1747.749496429286
 30
0.0
 11
27889.604341291921
 21
1847.6191779644359
 31
0.0
1001
AUTOCAD_POSTSCRIPT_FIGURE
1002
{
1000
PSFILL
1000
Grayscale
1000
Grayscale
1070
   100
1002
}
  0
LINE
  5
12031
  8
YODOROGO
 10
27905.604341291921
 20
1747.749496429286
 30
0.0
 11
27889.604341291921
 21
1747.749496429286
 31
0.0
1001
AUTOCAD_POSTSCRIPT_FIGURE
1002
{
1000
PSFILL
1000
Grayscale
1000
Grayscale
1070
   100
1002
}
  0
LINE
  5
12032
  8
YODOROGO
 10
27905.604341291921
 20
1849.409012158806
 30
0.0
 11
27905.604341291921
 21
1747.749496429286
 31
0.0
1001
AUTOCAD_POSTSCRIPT_FIGURE
1002
{
1000
PSFILL
1000
Grayscale
1000
Grayscale
1070
   100
1002
}
  0
LINE
  5
12033
  8
YODOROGO
 10
27937.604341291921
 20
1796.9749811614161
 30
0.0
 11
27905.604341291921
 21
1849.409012158806
 31
0.0
1001
AUTOCAD_POSTSCRIPT_FIGURE
1002
{
1000
PSFILL
1000
Grayscale
1000
Grayscale
1070
   100
1002
}
  0
LINE
  5
12034
  8
YODOROGO
 10
27937.604341291921
 20
1812.974981161417
 30
0.0
 11
27937.604341291921
 21
1796.9749811614161
 31
0.0
1001
AUTOCAD_POSTSCRIPT_FIGURE
1002
{
1000
PSFILL
1000
Grayscale
1000
Grayscale
1070
   100
1002
}
  0
LINE
  5
12035
  8
YODOROGO
 10
27905.604341291921
 20
1881.4090121588081
 30
0.0
 11
27937.604341291921
 21
1812.974981161417
 31
0.0
1001
AUTOCAD_POSTSCRIPT_FIGURE
1002
{
1000
PSFILL
1000
Grayscale
1000
Grayscale
1070
   100
1002
}
  0
LINE
  5
12036
  8
YODOROGO
 10
27905.604341291921
 20
1884.5683489363
 30
0.0
 11
27905.604341291921
 21
1881.4090121588081
 31
0.0
1001
AUTOCAD_POSTSCRIPT_FIGURE
1002
{
1000
PSFILL
1000
Grayscale
1000
Grayscale
1070
   100
1002
}
  0
LINE
  5
12037
  8
YODOROGO
 10
27937.604341291921
 20
1884.568348936298
 30
0.0
 11
27905.604341291921
 21
1884.5683489363
 31
0.0
1001
AUTOCAD_POSTSCRIPT_FIGURE
1002
{
1000
PSFILL
1000
Grayscale
1000
Grayscale
1070
   100
1002
}
  0
LINE
  5
12038
  8
YODOROGO
 10
27937.604341291921
 20
1900.5683489363
 30
0.0
 11
27937.604341291921
 21
1884.568348936298
 31
0.0
1001
AUTOCAD_POSTSCRIPT_FIGURE
1002
{
1000
PSFILL
1000
Grayscale
1000
Grayscale
1070
   100
1002
}
  0
LINE
  5
12039
  8
YODOROGO
 10
27905.604341291921
 20
1900.5683489363
 30
0.0
 11
27937.604341291921
 21
1900.5683489363
 31
0.0
1001
AUTOCAD_POSTSCRIPT_FIGURE
1002
{
1000
PSFILL
1000
Grayscale
1000
Grayscale
1070
   100
1002
}
  0
LINE
  5
1203A
  8
YODOROGO
 10
27905.604341291921
 20
1939.749496429288
 30
0.0
 11
27905.604341291921
 21
1900.5683489363
 31
0.0
1001
AUTOCAD_POSTSCRIPT_FIGURE
1002
{
1000
PSFILL
1000
Grayscale
1000
Grayscale
1070
   100
1002
}
  0
LINE
  5
1203B
  8
YODOROGO
 10
27937.604341291921
 20
1939.749496429288
 30
0.0
 11
27905.604341291921
 21
1939.749496429288
 31
0.0
1001
AUTOCAD_POSTSCRIPT_FIGURE
1002
{
1000
PSFILL
1000
Grayscale
1000
Grayscale
1070
   100
1002
}
  0
LINE
  5
1203C
  8
YODOROGO
 10
27937.604341291921
 20
1955.7494964292871
 30
0.0
 11
27937.604341291921
 21
1939.749496429288
 31
0.0
1001
AUTOCAD_POSTSCRIPT_FIGURE
1002
{
1000
PSFILL
1000
Grayscale
1000
Grayscale
1070
   100
1002
}
  0
LINE
  5
1203D
  8
YODOROGO
 10
27905.604341291921
 20
1955.7494964292871
 30
0.0
 11
27937.604341291921
 21
1955.7494964292871
 31
0.0
1001
AUTOCAD_POSTSCRIPT_FIGURE
1002
{
1000
PSFILL
1000
Grayscale
1000
Grayscale
1070
   100
1002
}
  0
LINE
  5
1203E
  8
YODOROGO
 10
27905.604341291921
 20
1979.749496429288
 30
0.0
 11
27905.604341291921
 21
1955.7494964292871
 31
0.0
1001
AUTOCAD_POSTSCRIPT_FIGURE
1002
{
1000
PSFILL
1000
Grayscale
1000
Grayscale
1070
   100
1002
}
  0
LINE
  5
1203F
  8
YODOROGO
 10
27889.604341291921
 20
1979.749496429288
 30
0.0
 11
27905.604341291921
 21
1979.749496429288
 31
0.0
1001
AUTOCAD_POSTSCRIPT_FIGURE
1002
{
1000
PSFILL
1000
Grayscale
1000
Grayscale
1070
   100
1002
}
  0
LINE
  5
12040
  8
YODOROGO
 10
27889.604341291921
 20
1955.7494964292871
 30
0.0
 11
27889.604341291921
 21
1979.749496429288
 31
0.0
1001
AUTOCAD_POSTSCRIPT_FIGURE
1002
{
1000
PSFILL
1000
Grayscale
1000
Grayscale
1070
   100
1002
}
  0
LINE
  5
12041
  8
YODOROGO
 10
27865.604341291921
 20
1955.7494964292871
 30
0.0
 11
27889.604341291921
 21
1955.7494964292871
 31
0.0
1001
AUTOCAD_POSTSCRIPT_FIGURE
1002
{
1000
PSFILL
1000
Grayscale
1000
Grayscale
1070
   100
1002
}
  0
LINE
  5
12042
  8
YODOROGO
 10
27865.604341291921
 20
1979.749496429288
 30
0.0
 11
27865.604341291921
 21
1955.7494964292871
 31
0.0
1001
AUTOCAD_POSTSCRIPT_FIGURE
1002
{
1000
PSFILL
1000
Grayscale
1000
Grayscale
1070
   100
1002
}
  0
LINE
  5
12043
  8
YODOROGO
 10
27849.604341291921
 20
1979.749496429288
 30
0.0
 11
27865.604341291921
 21
1979.749496429288
 31
0.0
1001
AUTOCAD_POSTSCRIPT_FIGURE
1002
{
1000
PSFILL
1000
Grayscale
1000
Grayscale
1070
   100
1002
}
  0
LINE
  5
12044
  8
YODOROGO
 10
27849.604341291921
 20
1955.7494964292871
 30
0.0
 11
27849.604341291921
 21
1979.749496429288
 31
0.0
1001
AUTOCAD_POSTSCRIPT_FIGURE
1002
{
1000
PSFILL
1000
Grayscale
1000
Grayscale
1070
   100
1002
}
  0
LINE
  5
12045
  8
YODOROGO
 10
27817.604341291921
 20
1955.7494964292871
 30
0.0
 11
27849.604341291921
 21
1955.7494964292871
 31
0.0
1001
AUTOCAD_POSTSCRIPT_FIGURE
1002
{
1000
PSFILL
1000
Grayscale
1000
Grayscale
1070
   100
1002
}
  0
LINE
  5
12046
  8
YODOROGO
 10
27817.604341291921
 20
1979.749496429288
 30
0.0
 11
27817.604341291921
 21
1955.7494964292871
 31
0.0
1001
AUTOCAD_POSTSCRIPT_FIGURE
1002
{
1000
PSFILL
1000
Grayscale
1000
Grayscale
1070
   100
1002
}
  0
LINE
  5
12047
  8
YODOROGO
 10
27801.604341291921
 20
1979.749496429288
 30
0.0
 11
27817.604341291921
 21
1979.749496429288
 31
0.0
1001
AUTOCAD_POSTSCRIPT_FIGURE
1002
{
1000
PSFILL
1000
Grayscale
1000
Grayscale
1070
   100
1002
}
  0
LINE
  5
12048
  8
YODOROGO
 10
27801.604341291921
 20
1955.7494964292871
 30
0.0
 11
27801.604341291921
 21
1979.749496429288
 31
0.0
1001
AUTOCAD_POSTSCRIPT_FIGURE
1002
{
1000
PSFILL
1000
Grayscale
1000
Grayscale
1070
   100
1002
}
  0
LINE
  5
12049
  8
YODOROGO
 10
27777.604341291921
 20
1955.7494964292871
 30
0.0
 11
27801.604341291921
 21
1955.7494964292871
 31
0.0
1001
AUTOCAD_POSTSCRIPT_FIGURE
1002
{
1000
PSFILL
1000
Grayscale
1000
Grayscale
1070
   100
1002
}
  0
LINE
  5
1204A
  8
YODOROGO
 10
27777.604341291921
 20
1939.749496429288
 30
0.0
 11
27777.604341291921
 21
1955.7494964292871
 31
0.0
1001
AUTOCAD_POSTSCRIPT_FIGURE
1002
{
1000
PSFILL
1000
Grayscale
1000
Grayscale
1070
   100
1002
}
  0
LINE
  5
1204B
  8
YODOROGO
 10
27801.604341291921
 20
1939.749496429288
 30
0.0
 11
27777.604341291921
 21
1939.749496429288
 31
0.0
1001
AUTOCAD_POSTSCRIPT_FIGURE
1002
{
1000
PSFILL
1000
Grayscale
1000
Grayscale
1070
   100
1002
}
  0
LINE
  5
1204C
  8
YODOROGO
 10
27801.604341291921
 20
1914.7865807937051
 30
0.0
 11
27801.604341291921
 21
1939.749496429288
 31
0.0
1001
AUTOCAD_POSTSCRIPT_FIGURE
1002
{
1000
PSFILL
1000
Grayscale
1000
Grayscale
1070
   100
1002
}
  0
LINE
  5
1204D
  8
YODOROGO
 10
27777.604341291921
 20
1859.776747951671
 30
0.0
 11
27801.604341291921
 21
1914.7865807937051
 31
0.0
1001
AUTOCAD_POSTSCRIPT_FIGURE
1002
{
1000
PSFILL
1000
Grayscale
1000
Grayscale
1070
   100
1002
}
  0
LINE
  5
1204E
  8
YODOROGO
 10
27777.604341291921
 20
1843.776747951672
 30
0.0
 11
27777.604341291921
 21
1859.776747951671
 31
0.0
1001
AUTOCAD_POSTSCRIPT_FIGURE
1002
{
1000
PSFILL
1000
Grayscale
1000
Grayscale
1070
   100
1002
}
  0
LINE
  5
1204F
  8
YODOROGO
 10
28257.604341291921
 20
1867.7494964292871
 30
0.0
 11
28401.60434129191
 21
1824.877625640306
 31
0.0
1001
AUTOCAD_POSTSCRIPT_FIGURE
1002
{
1000
PSFILL
1000
Grayscale
1000
Grayscale
1070
   100
1002
}
  0
LINE
  5
12050
  8
YODOROGO
 10
28401.60434129191
 20
1752.877625640306
 30
0.0
 11
28257.604341291921
 21
1795.7494964292871
 31
0.0
1001
AUTOCAD_POSTSCRIPT_FIGURE
1002
{
1000
PSFILL
1000
Grayscale
1000
Grayscale
1070
   100
1002
}
  0
LINE
  5
12051
  8
YODOROGO
 10
28401.60434129191
 20
1984.877625640306
 30
0.0
 11
28257.604341291921
 21
2027.749496429288
 31
0.0
1001
AUTOCAD_POSTSCRIPT_FIGURE
1002
{
1000
PSFILL
1000
Grayscale
1000
Grayscale
1070
   100
1002
}
  0
LINE
  5
12052
  8
YODOROGO
 10
28257.604341291921
 20
1959.749496429288
 30
0.0
 11
28401.60434129191
 21
1916.8776256403071
 31
0.0
1001
AUTOCAD_POSTSCRIPT_FIGURE
1002
{
1000
PSFILL
1000
Grayscale
1000
Grayscale
1070
   100
1002
}
  0
LINE
  5
12053
  8
YODOROGO
 10
28257.604341291921
 20
1795.7494964292871
 30
0.0
 11
28257.604341291921
 21
1867.7494964292871
 31
0.0
1001
AUTOCAD_POSTSCRIPT_FIGURE
1002
{
1000
PSFILL
1000
Grayscale
1000
Grayscale
1070
   100
1002
}
  0
LINE
  5
12054
  8
YODOROGO
 10
28257.604341291921
 20
2027.749496429288
 30
0.0
 11
28257.604341291921
 21
1959.749496429288
 31
0.0
1001
AUTOCAD_POSTSCRIPT_FIGURE
1002
{
1000
PSFILL
1000
Grayscale
1000
Grayscale
1070
   100
1002
}
  0
LINE
  5
12055
  8
YODOROGO
 10
28080.236320206739
 20
1939.749496429288
 30
0.0
 11
28129.60434129191
 21
1747.749496429286
 31
0.0
1001
AUTOCAD_POSTSCRIPT_FIGURE
1002
{
1000
PSFILL
1000
Grayscale
1000
Grayscale
1070
   100
1002
}
  0
LINE
  5
12056
  8
YODOROGO
 10
27977.604341291921
 20
1939.749496429288
 30
0.0
 11
28080.236320206739
 21
1939.749496429288
 31
0.0
1001
AUTOCAD_POSTSCRIPT_FIGURE
1002
{
1000
PSFILL
1000
Grayscale
1000
Grayscale
1070
   100
1002
}
  0
LINE
  5
12057
  8
YODOROGO
 10
27977.604341291921
 20
1955.7494964292871
 30
0.0
 11
27977.604341291921
 21
1939.749496429288
 31
0.0
1001
AUTOCAD_POSTSCRIPT_FIGURE
1002
{
1000
PSFILL
1000
Grayscale
1000
Grayscale
1070
   100
1002
}
  0
LINE
  5
12058
  8
YODOROGO
 10
28076.60687851991
 20
1955.7494964292871
 30
0.0
 11
27977.604341291921
 21
1955.7494964292871
 31
0.0
1001
AUTOCAD_POSTSCRIPT_FIGURE
1002
{
1000
PSFILL
1000
Grayscale
1000
Grayscale
1070
   100
1002
}
  0
LINE
  5
12059
  8
YODOROGO
 10
28071.162715989711
 20
1979.749496429288
 30
0.0
 11
28076.60687851991
 21
1955.7494964292871
 31
0.0
1001
AUTOCAD_POSTSCRIPT_FIGURE
1002
{
1000
PSFILL
1000
Grayscale
1000
Grayscale
1070
   100
1002
}
  0
LINE
  5
1205A
  8
YODOROGO
 10
28091.162715989711
 20
1979.749496429288
 30
0.0
 11
28071.162715989711
 21
1979.749496429288
 31
0.0
1001
AUTOCAD_POSTSCRIPT_FIGURE
1002
{
1000
PSFILL
1000
Grayscale
1000
Grayscale
1070
   100
1002
}
  0
LINE
  5
1205B
  8
YODOROGO
 10
28095.806878519939
 20
1955.7494964292871
 30
0.0
 11
28091.162715989711
 21
1979.749496429288
 31
0.0
1001
AUTOCAD_POSTSCRIPT_FIGURE
1002
{
1000
PSFILL
1000
Grayscale
1000
Grayscale
1070
   100
1002
}
  0
LINE
  5
1205C
  8
YODOROGO
 10
28121.604341291921
 20
1955.7494964292871
 30
0.0
 11
28095.806878519939
 21
1955.7494964292871
 31
0.0
1001
AUTOCAD_POSTSCRIPT_FIGURE
1002
{
1000
PSFILL
1000
Grayscale
1000
Grayscale
1070
   100
1002
}
  0
LINE
  5
1205D
  8
YODOROGO
 10
28121.604341291921
 20
1979.749496429288
 30
0.0
 11
28121.604341291921
 21
1955.7494964292871
 31
0.0
1001
AUTOCAD_POSTSCRIPT_FIGURE
1002
{
1000
PSFILL
1000
Grayscale
1000
Grayscale
1070
   100
1002
}
  0
LINE
  5
1205E
  8
YODOROGO
 10
28137.604341291921
 20
1979.749496429288
 30
0.0
 11
28121.604341291921
 21
1979.749496429288
 31
0.0
1001
AUTOCAD_POSTSCRIPT_FIGURE
1002
{
1000
PSFILL
1000
Grayscale
1000
Grayscale
1070
   100
1002
}
  0
LINE
  5
1205F
  8
YODOROGO
 10
28137.604341291921
 20
1955.7494964292871
 30
0.0
 11
28137.604341291921
 21
1979.749496429288
 31
0.0
1001
AUTOCAD_POSTSCRIPT_FIGURE
1002
{
1000
PSFILL
1000
Grayscale
1000
Grayscale
1070
   100
1002
}
  0
LINE
  5
12060
  8
YODOROGO
 10
28137.604341291921
 20
1939.749496429288
 30
0.0
 11
28137.604341291921
 21
1955.7494964292871
 31
0.0
1001
AUTOCAD_POSTSCRIPT_FIGURE
1002
{
1000
PSFILL
1000
Grayscale
1000
Grayscale
1070
   100
1002
}
  0
LINE
  5
12061
  8
YODOROGO
 10
28098.902986873411
 20
1939.749496429288
 30
0.0
 11
28137.604341291921
 21
1939.749496429288
 31
0.0
1001
AUTOCAD_POSTSCRIPT_FIGURE
1002
{
1000
PSFILL
1000
Grayscale
1000
Grayscale
1070
   100
1002
}
  0
LINE
  5
12062
  8
YODOROGO
 10
28137.604341291921
 20
1747.749496429286
 30
0.0
 11
28098.902986873411
 21
1939.749496429288
 31
0.0
1001
AUTOCAD_POSTSCRIPT_FIGURE
1002
{
1000
PSFILL
1000
Grayscale
1000
Grayscale
1070
   100
1002
}
  0
LINE
  5
12063
  8
YODOROGO
 10
28129.60434129191
 20
1747.749496429286
 30
0.0
 11
28137.604341291921
 21
1747.749496429286
 31
0.0
1001
AUTOCAD_POSTSCRIPT_FIGURE
1002
{
1000
PSFILL
1000
Grayscale
1000
Grayscale
1070
   100
1002
}
  0
LINE
  5
12064
  8
YODOROGO
 10
28078.06921993379
 20
1775.7407762987939
 30
0.0
 11
27977.604341291921
 21
1747.749496429286
 31
0.0
  0
LINE
  5
12065
  8
YODOROGO
 10
28078.06921993379
 20
1798.6689795290731
 30
0.0
 11
28078.06921993379
 21
1775.7407762987939
 31
0.0
  0
LINE
  5
12066
  8
YODOROGO
 10
28033.83678061287
 20
1786.816933133767
 30
0.0
 11
28078.06921993379
 21
1798.6689795290731
 31
0.0
  0
LINE
  5
12067
  8
YODOROGO
 10
28033.83678061287
 20
1872.5683489362989
 30
0.0
 11
28033.83678061287
 21
1786.816933133767
 31
0.0
  0
LINE
  5
12068
  8
YODOROGO
 10
28078.06921993379
 20
1872.5683489362989
 30
0.0
 11
28033.83678061287
 21
1872.5683489362989
 31
0.0
  0
LINE
  5
12069
  8
YODOROGO
 10
28078.06921993379
 20
1892.568348936298
 30
0.0
 11
28078.06921993379
 21
1872.5683489362989
 31
0.0
  0
LINE
  5
1206A
  8
YODOROGO
 10
27977.604341291921
 20
1892.568348936298
 30
0.0
 11
28078.06921993379
 21
1892.568348936298
 31
0.0
  0
LINE
  5
1206B
  8
YODOROGO
 10
27977.604341291921
 20
1872.5683489362989
 30
0.0
 11
27977.604341291921
 21
1892.568348936298
 31
0.0
  0
LINE
  5
1206C
  8
YODOROGO
 10
28021.836780612852
 20
1872.5683489362989
 30
0.0
 11
27977.604341291921
 21
1872.5683489362989
 31
0.0
  0
LINE
  5
1206D
  8
YODOROGO
 10
28021.836780612852
 20
1784.673339594317
 30
0.0
 11
28021.836780612852
 21
1872.5683489362989
 31
0.0
  0
LINE
  5
1206E
  8
YODOROGO
 10
27977.604341291921
 20
1771.749496429286
 30
0.0
 11
28021.836780612852
 21
1784.673339594317
 31
0.0
  0
LINE
  5
1206F
  8
YODOROGO
 10
27977.604341291921
 20
1747.749496429286
 30
0.0
 11
27977.604341291921
 21
1771.749496429286
 31
0.0
  0
LINE
  5
12070
  8
YODOROGO
 10
28001.604341291921
 20
1707.749496429288
 30
0.0
 11
28001.604341291921
 21
1683.7494964292871
 31
0.0
  0
LINE
  5
12071
  8
YODOROGO
 10
28017.604341291921
 20
1707.749496429288
 30
0.0
 11
28001.604341291921
 21
1707.749496429288
 31
0.0
  0
LINE
  5
12072
  8
YODOROGO
 10
28017.604341291921
 20
1683.7494964292871
 30
0.0
 11
28017.604341291921
 21
1707.749496429288
 31
0.0
  0
LINE
  5
12073
  8
YODOROGO
 10
28040.913204016892
 20
1683.7494964292871
 30
0.0
 11
28017.604341291921
 21
1683.7494964292871
 31
0.0
  0
LINE
  5
12074
  8
YODOROGO
 10
28001.604341291921
 20
1683.7494964292871
 30
0.0
 11
27977.604341291921
 21
1683.7494964292871
 31
0.0
  0
LINE
  5
12075
  8
YODOROGO
 10
28082.135520230921
 20
1707.749496429288
 30
0.0
 11
28098.135520230931
 21
1707.749496429288
 31
0.0
1001
AUTOCAD_POSTSCRIPT_FIGURE
1002
{
1000
PSFILL
1000
Grayscale
1000
Grayscale
1070
   100
1002
}
  0
LINE
  5
12076
  8
YODOROGO
 10
28401.60434129191
 20
1824.877625640306
 30
0.0
 11
28401.60434129191
 21
1752.877625640306
 31
0.0
1001
AUTOCAD_POSTSCRIPT_FIGURE
1002
{
1000
PSFILL
1000
Grayscale
1000
Grayscale
1070
   100
1002
}
  0
LINE
  5
12077
  8
YODOROGO
 10
28401.60434129191
 20
1916.8776256403071
 30
0.0
 11
28401.60434129191
 21
1984.877625640306
 31
0.0
1001
AUTOCAD_POSTSCRIPT_FIGURE
1002
{
1000
PSFILL
1000
Grayscale
1000
Grayscale
1070
   100
1002
}
  0
LINE
  5
12078
  8
YODOROGO
 10
28433.60434129191
 20
1819.7494964292871
 30
0.0
 11
28433.60434129191
 21
1747.74949642929
 31
0.0
  0
LINE
  5
12079
  8
YODOROGO
 10
28497.60434129191
 20
1707.749496429288
 30
0.0
 11
28433.60434129191
 21
1707.749496429288
 31
0.0
  0
LINE
  5
1207A
  8
YODOROGO
 10
28433.60434129191
 20
1747.74949642929
 30
0.0
 11
28585.604341291921
 21
1747.74949642929
 31
0.0
  0
LINE
  5
1207B
  8
YODOROGO
 10
28497.60434129191
 20
1867.7494964292871
 30
0.0
 11
28433.60434129191
 21
1867.7494964292871
 31
0.0
  0
LINE
  5
1207C
  8
YODOROGO
 10
28497.60434129191
 20
1923.7494964292871
 30
0.0
 11
28497.60434129191
 21
1867.7494964292871
 31
0.0
  0
LINE
  5
1207D
  8
YODOROGO
 10
28585.604341291921
 20
1987.7494964292871
 30
0.0
 11
28585.604341291921
 21
2027.749496429288
 31
0.0
  0
LINE
  5
1207E
  8
YODOROGO
 10
28433.60434129191
 20
1987.7494964292871
 30
0.0
 11
28585.604341291921
 21
1987.7494964292871
 31
0.0
  0
LINE
  5
1207F
  8
YODOROGO
 10
28433.60434129191
 20
1867.7494964292871
 30
0.0
 11
28433.60434129191
 21
1987.7494964292871
 31
0.0
  0
LINE
  5
12080
  8
YODOROGO
 10
29001.60434129191
 20
2027.749496429288
 30
0.0
 11
29001.60434129191
 21
1619.749496429288
 31
0.0
  0
LINE
  5
12081
  8
YODOROGO
 10
29073.604341291921
 20
1579.749496429288
 30
0.0
 11
29073.604341291921
 21
2027.749496429288
 31
0.0
  0
LINE
  5
12082
  8
YODOROGO
 10
29261.604341291921
 20
1491.749496429286
 30
0.0
 11
29261.604341291921
 21
2007.749496429288
 31
0.0
  0
LINE
  5
12083
  8
YODOROGO
 10
29197.604341291921
 20
2007.749496429288
 30
0.0
 11
29197.604341291921
 21
1491.749496429286
 31
0.0
  0
LINE
  5
12084
  8
YODOROGO
 10
29385.604341291921
 20
2027.749496429288
 30
0.0
 11
29385.604341291921
 21
1427.749496429288
 31
0.0
  0
LINE
  5
12085
  8
YODOROGO
 10
29457.604341291921
 20
1427.749496429288
 30
0.0
 11
29457.604341291921
 21
2027.749496429288
 31
0.0
  0
LINE
  5
12086
  8
YODOROGO
 10
28657.604341291921
 20
1667.749496429288
 30
0.0
 11
28657.604341291921
 21
1747.74949642929
 31
0.0
  0
LINE
  5
12087
  8
YODOROGO
 10
29885.604341291921
 20
1707.749496429288
 30
0.0
 11
29885.604341291921
 21
1667.749496429288
 31
0.0
  0
LINE
  5
12088
  8
YODOROGO
 10
29885.604341291921
 20
1707.749496429288
 30
0.0
 11
29885.604341291921
 21
1667.749496429288
 31
0.0
  0
ARC
  5
12089
  8
YODOROGO
 10
28906.911576186842
 20
1618.217864442272
 30
0.0
 40
94.705151178741644
 50
274.05244162907098
 51
0.9266642149310712
  0
ARC
  5
1208A
  8
YODOROGO
 10
28909.186170719819
 20
1592.61072861044
 30
0.0
 40
164.92042356085511
 50
271.5351210653775
 51
355.52727750585052
  0
LINE
  5
1208B
  8
YODOROGO
 10
28913.604341291921
 20
1523.7494964292871
 30
0.0
 11
28913.604341291921
 21
1427.749496429288
 31
0.0
  0
LINE
  5
1208C
  8
YODOROGO
 10
28793.60434129191
 20
1667.749496429288
 30
0.0
 11
28657.604341291921
 21
1667.749496429288
 31
0.0
  0
LINE
  5
1208D
  8
YODOROGO
 10
28793.60434129191
 20
1603.7494964292871
 30
0.0
 11
28793.60434129191
 21
1667.749496429288
 31
0.0
  0
LINE
  5
1208E
  8
YODOROGO
 10
28657.604341291921
 20
1603.7494964292871
 30
0.0
 11
28793.60434129191
 21
1603.7494964292871
 31
0.0
  0
LINE
  5
1208F
  8
YODOROGO
 10
28657.604341291921
 20
1523.7494964292871
 30
0.0
 11
28657.604341291921
 21
1603.7494964292871
 31
0.0
  0
LINE
  5
12090
  8
YODOROGO
 10
28793.60434129191
 20
1523.7494964292871
 30
0.0
 11
28657.604341291921
 21
1523.7494964292871
 31
0.0
  0
LINE
  5
12091
  8
YODOROGO
 10
28793.60434129191
 20
1427.749496429288
 30
0.0
 11
28793.60434129191
 21
1523.7494964292871
 31
0.0
  0
LINE
  5
12092
  8
YODOROGO
 10
29197.604341291921
 20
1491.749496429286
 30
0.0
 11
29261.604341291921
 21
1491.749496429286
 31
0.0
  0
LINE
  5
12093
  8
YODOROGO
 10
29385.604341291921
 20
1427.749496429288
 30
0.0
 11
29457.604341291921
 21
1427.749496429288
 31
0.0
  0
LINE
  5
12094
  8
YODOROGO
 10
29737.604341291921
 20
1528.4414521705639
 30
0.0
 11
29737.604341291921
 21
1427.749496429288
 31
0.0
  0
LINE
  5
12095
  8
YODOROGO
 10
29617.604341291921
 20
1427.749496429288
 30
0.0
 11
29737.604341291921
 21
1528.4414521705639
 31
0.0
  0
LINE
  5
12096
  8
YODOROGO
 10
29617.604341291921
 20
1547.749496429288
 30
0.0
 11
29617.604341291921
 21
1427.749496429288
 31
0.0
  0
LINE
  5
12097
  8
YODOROGO
 10
29712.94462869945
 20
1627.749496429288
 30
0.0
 11
29617.604341291921
 21
1547.749496429288
 31
0.0
  0
LINE
  5
12098
  8
YODOROGO
 10
29617.604341291921
 20
1627.749496429288
 30
0.0
 11
29712.94462869945
 21
1627.749496429288
 31
0.0
  0
LINE
  5
12099
  8
YODOROGO
 10
29617.604341291921
 20
1667.749496429288
 30
0.0
 11
29617.604341291921
 21
1627.749496429288
 31
0.0
  0
LINE
  5
1209A
  8
YODOROGO
 10
29885.604341291921
 20
1667.749496429288
 30
0.0
 11
29617.604341291921
 21
1667.749496429288
 31
0.0
  0
LINE
  5
1209B
  8
YODOROGO
 10
29917.604341291921
 20
1627.749496429288
 30
0.0
 11
29777.604341291921
 21
1627.749496429288
 31
0.0
  0
LINE
  5
1209C
  8
YODOROGO
 10
29777.604341291921
 20
1562.0054374176559
 30
0.0
 11
29771.409872985321
 21
1556.807661346234
 31
0.0
  0
LINE
  5
1209D
  8
YODOROGO
 10
29777.604341291921
 20
1627.749496429288
 30
0.0
 11
29777.604341291921
 21
1562.0054374176559
 31
0.0
  0
LINE
  5
1209E
  8
YODOROGO
 10
29737.604341291921
 20
1528.4414521705639
 30
0.0
 11
29737.604341291921
 21
1427.749496429288
 31
0.0
  0
LINE
  5
1209F
  8
YODOROGO
 10
29617.604341291921
 20
1427.749496429288
 30
0.0
 11
29737.604341291921
 21
1528.4414521705639
 31
0.0
  0
LINE
  5
120A0
  8
YODOROGO
 10
29617.604341291921
 20
1547.749496429288
 30
0.0
 11
29617.604341291921
 21
1427.749496429288
 31
0.0
  0
LINE
  5
120A1
  8
YODOROGO
 10
29712.94462869945
 20
1627.749496429288
 30
0.0
 11
29617.604341291921
 21
1547.749496429288
 31
0.0
  0
LINE
  5
120A2
  8
YODOROGO
 10
29617.604341291921
 20
1627.749496429288
 30
0.0
 11
29712.94462869945
 21
1627.749496429288
 31
0.0
  0
LINE
  5
120A3
  8
YODOROGO
 10
29617.604341291921
 20
1667.749496429288
 30
0.0
 11
29617.604341291921
 21
1627.749496429288
 31
0.0
  0
LINE
  5
120A4
  8
YODOROGO
 10
29885.604341291921
 20
1667.749496429288
 30
0.0
 11
29617.604341291921
 21
1667.749496429288
 31
0.0
  0
LINE
  5
120A5
  8
YODOROGO
 10
28793.60434129191
 20
1747.74949642929
 30
0.0
 11
28793.60434129191
 21
1819.7494964292871
 31
0.0
  0
LINE
  5
120A6
  8
YODOROGO
 10
28657.604341291921
 20
1747.74949642929
 30
0.0
 11
28793.60434129191
 21
1747.74949642929
 31
0.0
  0
LINE
  5
120A7
  8
YODOROGO
 10
28729.604341291921
 20
1867.7494964292871
 30
0.0
 11
28729.604341291921
 21
1923.7494964292871
 31
0.0
  0
LINE
  5
120A8
  8
YODOROGO
 10
28793.60434129191
 20
1867.7494964292871
 30
0.0
 11
28729.604341291921
 21
1867.7494964292871
 31
0.0
  0
LINE
  5
120A9
  8
YODOROGO
 10
28793.60434129191
 20
1947.749496429288
 30
0.0
 11
28793.60434129191
 21
1867.7494964292871
 31
0.0
  0
ARC
  5
120AA
  8
YODOROGO
 10
28753.60434129191
 20
1947.749496429288
 30
0.0
 40
40.0
 50
0.0
 51
90.0
  0
LINE
  5
120AB
  8
YODOROGO
 10
28657.604341291921
 20
1987.7494964292871
 30
0.0
 11
28753.60434129191
 21
1987.7494964292871
 31
0.0
  0
LINE
  5
120AC
  8
YODOROGO
 10
28657.604341291921
 20
2027.749496429288
 30
0.0
 11
28657.604341291921
 21
1987.7494964292871
 31
0.0
  0
LINE
  5
120AD
  8
YODOROGO
 10
29073.604341291921
 20
2027.749496429288
 30
0.0
 11
29001.60434129191
 21
2027.749496429288
 31
0.0
  0
LINE
  5
120AE
  8
YODOROGO
 10
29261.604341291921
 20
2007.749496429288
 30
0.0
 11
29197.604341291921
 21
2007.749496429288
 31
0.0
  0
LINE
  5
120AF
  8
YODOROGO
 10
29457.604341291921
 20
2027.749496429288
 30
0.0
 11
29385.604341291921
 21
2027.749496429288
 31
0.0
  0
LINE
  5
120B0
  8
YODOROGO
 10
29673.604341291921
 20
1707.749496429288
 30
0.0
 11
29673.604341291921
 21
1771.7494964292871
 31
0.0
1001
AUTOCAD_POSTSCRIPT_FIGURE
1002
{
1000
PSFILL
1000
Grayscale
1000
Grayscale
1070
    25
1002
}
  0
LINE
  5
120B1
  8
YODOROGO
 10
29617.604341291921
 20
1707.749496429288
 30
0.0
 11
29673.604341291921
 21
1707.749496429288
 31
0.0
1001
AUTOCAD_POSTSCRIPT_FIGURE
1002
{
1000
PSFILL
1000
Grayscale
1000
Grayscale
1070
    25
1002
}
  0
LINE
  5
120B2
  8
YODOROGO
 10
29617.604341291921
 20
1819.7494964292871
 30
0.0
 11
29617.604341291921
 21
1707.749496429288
 31
0.0
1001
AUTOCAD_POSTSCRIPT_FIGURE
1002
{
1000
PSFILL
1000
Grayscale
1000
Grayscale
1070
    25
1002
}
  0
LINE
  5
120B3
  8
YODOROGO
 10
29765.604341291921
 20
1819.7494964292871
 30
0.0
 11
29617.604341291921
 21
1819.7494964292871
 31
0.0
1001
AUTOCAD_POSTSCRIPT_FIGURE
1002
{
1000
PSFILL
1000
Grayscale
1000
Grayscale
1070
    25
1002
}
  0
LINE
  5
120B4
  8
YODOROGO
 10
29765.604341291921
 20
1859.749496429288
 30
0.0
 11
29765.604341291921
 21
1819.7494964292871
 31
0.0
1001
AUTOCAD_POSTSCRIPT_FIGURE
1002
{
1000
PSFILL
1000
Grayscale
1000
Grayscale
1070
    25
1002
}
  0
LINE
  5
120B5
  8
YODOROGO
 10
29617.604341291921
 20
1859.749496429288
 30
0.0
 11
29765.604341291921
 21
1859.749496429288
 31
0.0
1001
AUTOCAD_POSTSCRIPT_FIGURE
1002
{
1000
PSFILL
1000
Grayscale
1000
Grayscale
1070
    25
1002
}
  0
LINE
  5
120B6
  8
YODOROGO
 10
29617.604341291921
 20
1907.7494964292871
 30
0.0
 11
29617.604341291921
 21
1859.749496429288
 31
0.0
1001
AUTOCAD_POSTSCRIPT_FIGURE
1002
{
1000
PSFILL
1000
Grayscale
1000
Grayscale
1070
    25
1002
}
  0
LINE
  5
120B7
  8
YODOROGO
 10
29765.604341291921
 20
1907.7494964292871
 30
0.0
 11
29617.604341291921
 21
1907.7494964292871
 31
0.0
1001
AUTOCAD_POSTSCRIPT_FIGURE
1002
{
1000
PSFILL
1000
Grayscale
1000
Grayscale
1070
    25
1002
}
  0
LINE
  5
120B8
  8
YODOROGO
 10
29765.604341291921
 20
1947.749496429288
 30
0.0
 11
29765.604341291921
 21
1907.7494964292871
 31
0.0
1001
AUTOCAD_POSTSCRIPT_FIGURE
1002
{
1000
PSFILL
1000
Grayscale
1000
Grayscale
1070
    25
1002
}
  0
LINE
  5
120B9
  8
YODOROGO
 10
29617.604341291921
 20
1947.749496429288
 30
0.0
 11
29765.604341291921
 21
1947.749496429288
 31
0.0
1001
AUTOCAD_POSTSCRIPT_FIGURE
1002
{
1000
PSFILL
1000
Grayscale
1000
Grayscale
1070
    25
1002
}
  0
LINE
  5
120BA
  8
YODOROGO
 10
29617.604341291921
 20
2027.749496429288
 30
0.0
 11
29617.604341291921
 21
1947.749496429288
 31
0.0
1001
AUTOCAD_POSTSCRIPT_FIGURE
1002
{
1000
PSFILL
1000
Grayscale
1000
Grayscale
1070
    25
1002
}
  0
LINE
  5
120BB
  8
YODOROGO
 10
29665.604341291921
 20
2027.749496429288
 30
0.0
 11
29617.604341291921
 21
2027.749496429288
 31
0.0
1001
AUTOCAD_POSTSCRIPT_FIGURE
1002
{
1000
PSFILL
1000
Grayscale
1000
Grayscale
1070
    25
1002
}
  0
LINE
  5
120BC
  8
YODOROGO
 10
29665.604341291921
 20
1995.7494964292871
 30
0.0
 11
29665.604341291921
 21
2027.749496429288
 31
0.0
1001
AUTOCAD_POSTSCRIPT_FIGURE
1002
{
1000
PSFILL
1000
Grayscale
1000
Grayscale
1070
    25
1002
}
  0
LINE
  5
120BD
  8
YODOROGO
 10
29765.604341291921
 20
1995.7494964292871
 30
0.0
 11
29665.604341291921
 21
1995.7494964292871
 31
0.0
1001
AUTOCAD_POSTSCRIPT_FIGURE
1002
{
1000
PSFILL
1000
Grayscale
1000
Grayscale
1070
    25
1002
}
  0
LINE
  5
120BE
  8
YODOROGO
 10
29765.604341291921
 20
2027.749496429288
 30
0.0
 11
29765.604341291921
 21
1995.7494964292871
 31
0.0
1001
AUTOCAD_POSTSCRIPT_FIGURE
1002
{
1000
PSFILL
1000
Grayscale
1000
Grayscale
1070
    25
1002
}
  0
LINE
  5
120BF
  8
YODOROGO
 10
29829.604341291921
 20
2027.749496429288
 30
0.0
 11
29765.604341291921
 21
2027.749496429288
 31
0.0
1001
AUTOCAD_POSTSCRIPT_FIGURE
1002
{
1000
PSFILL
1000
Grayscale
1000
Grayscale
1070
    25
1002
}
  0
LINE
  5
120C0
  8
YODOROGO
 10
29829.604341291921
 20
1995.7494964292871
 30
0.0
 11
29829.604341291921
 21
2027.749496429288
 31
0.0
1001
AUTOCAD_POSTSCRIPT_FIGURE
1002
{
1000
PSFILL
1000
Grayscale
1000
Grayscale
1070
    25
1002
}
  0
LINE
  5
120C1
  8
YODOROGO
 10
29829.604341291921
 20
1907.7494964292871
 30
0.0
 11
29829.604341291921
 21
1947.749496429288
 31
0.0
1001
AUTOCAD_POSTSCRIPT_FIGURE
1002
{
1000
PSFILL
1000
Grayscale
1000
Grayscale
1070
    25
1002
}
  0
LINE
  5
120C2
  8
YODOROGO
 10
29829.604341291921
 20
1819.7494964292871
 30
0.0
 11
29829.604341291921
 21
1859.749496429288
 31
0.0
1001
AUTOCAD_POSTSCRIPT_FIGURE
1002
{
1000
PSFILL
1000
Grayscale
1000
Grayscale
1070
    25
1002
}
  0
LINE
  5
120C3
  8
YODOROGO
 10
29921.60434129191
 20
1771.7494964292871
 30
0.0
 11
29921.60434129191
 21
1707.749496429288
 31
0.0
1001
AUTOCAD_POSTSCRIPT_FIGURE
1002
{
1000
PSFILL
1000
Grayscale
1000
Grayscale
1070
    25
1002
}
  0
LINE
  5
120C4
  8
YODOROGO
 10
29829.604341291921
 20
1771.7494964292871
 30
0.0
 11
29921.60434129191
 21
1771.7494964292871
 31
0.0
1001
AUTOCAD_POSTSCRIPT_FIGURE
1002
{
1000
PSFILL
1000
Grayscale
1000
Grayscale
1070
    25
1002
}
  0
LINE
  5
120C5
  8
YODOROGO
 10
29829.604341291921
 20
1707.749496429288
 30
0.0
 11
29829.604341291921
 21
1771.7494964292871
 31
0.0
1001
AUTOCAD_POSTSCRIPT_FIGURE
1002
{
1000
PSFILL
1000
Grayscale
1000
Grayscale
1070
    25
1002
}
  0
LINE
  5
120C6
  8
YODOROGO
 10
29765.604341291921
 20
1707.749496429288
 30
0.0
 11
29829.604341291921
 21
1707.749496429288
 31
0.0
1001
AUTOCAD_POSTSCRIPT_FIGURE
1002
{
1000
PSFILL
1000
Grayscale
1000
Grayscale
1070
    25
1002
}
  0
LINE
  5
120C7
  8
YODOROGO
 10
29765.604341291921
 20
1771.7494964292871
 30
0.0
 11
29765.604341291921
 21
1707.749496429288
 31
0.0
1001
AUTOCAD_POSTSCRIPT_FIGURE
1002
{
1000
PSFILL
1000
Grayscale
1000
Grayscale
1070
    25
1002
}
  0
LINE
  5
120C8
  8
YODOROGO
 10
29673.604341291921
 20
1771.7494964292871
 30
0.0
 11
29765.604341291921
 21
1771.7494964292871
 31
0.0
1001
AUTOCAD_POSTSCRIPT_FIGURE
1002
{
1000
PSFILL
1000
Grayscale
1000
Grayscale
1070
    25
1002
}
  0
ARC
  5
120C9
  8
YODOROGO
 10
31059.517893357912
 20
1602.6807375155761
 30
0.0
 40
178.22128111072141
 50
281.02627495425338
 51
357.77113575573799
  0
LINE
  5
120CA
  8
YODOROGO
 10
31413.604341291921
 20
1907.7494964292871
 30
0.0
 11
31165.604341291921
 21
1907.7494964292871
 31
0.0
  0
LINE
  5
120CB
  8
YODOROGO
 10
31413.604341291921
 20
2027.749496429288
 30
0.0
 11
31165.604341291921
 21
2027.749496429288
 31
0.0
  0
LINE
  5
120CC
  8
YODOROGO
 10
31165.604341291921
 20
1963.749496429286
 30
0.0
 11
31413.604341291921
 21
1963.749496429286
 31
0.0
  0
LINE
  5
120CD
  8
YODOROGO
 10
30791.604341291921
 20
1563.7494964292871
 30
0.0
 11
30791.604341291921
 21
1755.7494964292871
 31
0.0
  0
LINE
  5
120CE
  8
YODOROGO
 10
30763.604341291921
 20
1691.749496429288
 30
0.0
 11
30763.604341291921
 21
1563.7494964292871
 31
0.0
  0
LINE
  5
120CF
  8
YODOROGO
 10
30723.604341291921
 20
1491.749496429288
 30
0.0
 11
30723.604341291921
 21
1691.749496429288
 31
0.0
  0
LINE
  5
120D0
  8
YODOROGO
 10
30899.604341291932
 20
1691.749496429288
 30
0.0
 11
30899.604341291932
 21
1491.749496429288
 31
0.0
  0
LINE
  5
120D1
  8
YODOROGO
 10
30859.604341291932
 20
1563.7494964292871
 30
0.0
 11
30859.604341291932
 21
1691.749496429288
 31
0.0
  0
LINE
  5
120D2
  8
YODOROGO
 10
30831.604341291921
 20
1755.7494964292871
 30
0.0
 11
30831.604341291921
 21
1563.7494964292871
 31
0.0
  0
LINE
  5
120D3
  8
YODOROGO
 10
30973.604341291921
 20
2027.749496429288
 30
0.0
 11
30973.604341291921
 21
1467.749496429288
 31
0.0
  0
LINE
  5
120D4
  8
YODOROGO
 10
30645.604341291921
 20
1427.749496429288
 30
0.0
 11
30645.604341291921
 21
2027.749496429288
 31
0.0
  0
LINE
  5
120D5
  8
YODOROGO
 10
30697.604341291932
 20
1963.749496429286
 30
0.0
 11
30697.604341291932
 21
1427.749496429288
 31
0.0
  0
LINE
  5
120D6
  8
YODOROGO
 10
30925.604341291921
 20
1547.749496429288
 30
0.0
 11
30925.604341291921
 21
1963.749496429286
 31
0.0
  0
LINE
  5
120D7
  8
YODOROGO
 10
30381.604341291932
 20
1627.749496429288
 30
0.0
 11
30381.604341291932
 21
1679.749496429288
 31
0.0
  0
LINE
  5
120D8
  8
YODOROGO
 10
30617.604341291921
 20
1679.749496429288
 30
0.0
 11
30617.604341291921
 21
1627.749496429288
 31
0.0
  0
LINE
  5
120D9
  8
YODOROGO
 10
31165.604341291921
 20
1907.7494964292871
 30
0.0
 11
31165.604341291921
 21
1635.7494964292871
 31
0.0
  0
LINE
  5
120DA
  8
YODOROGO
 10
29949.60434129191
 20
1667.749496429288
 30
0.0
 11
29949.60434129191
 21
1707.749496429288
 31
0.0
  0
LINE
  5
120DB
  8
YODOROGO
 10
29949.60434129191
 20
1667.749496429288
 30
0.0
 11
29949.60434129191
 21
1707.749496429288
 31
0.0
  0
ARC
  5
120DC
  8
YODOROGO
 10
30537.604341291921
 20
1507.749496429288
 30
0.0
 40
80.0
 50
270.0
 51
0.0
  0
LINE
  5
120DD
  8
YODOROGO
 10
30569.604341291921
 20
1599.7494964292871
 30
0.0
 11
30617.604341291921
 21
1599.7494964292871
 31
0.0
  0
LINE
  5
120DE
  8
YODOROGO
 10
30617.604341291921
 20
1627.749496429288
 30
0.0
 11
30529.604341291939
 21
1627.749496429288
 31
0.0
  0
LINE
  5
120DF
  8
YODOROGO
 10
30217.604341291921
 20
1667.749496429288
 30
0.0
 11
29949.60434129191
 21
1667.749496429288
 31
0.0
  0
LINE
  5
120E0
  8
YODOROGO
 10
30217.604341291921
 20
1627.749496429288
 30
0.0
 11
30217.604341291921
 21
1667.749496429288
 31
0.0
  0
LINE
  5
120E1
  8
YODOROGO
 10
30017.604341291921
 20
1627.749496429288
 30
0.0
 11
30217.604341291921
 21
1627.749496429288
 31
0.0
  0
ARC
  5
120E2
  8
YODOROGO
 10
30230.05882870136
 20
1868.885714952901
 30
0.0
 40
321.37763628522822
 50
228.6181454618993
 51
245.660289248906
  0
LINE
  5
120E3
  8
YODOROGO
 10
30105.604341291921
 20
1603.7494964292871
 30
0.0
 11
30097.60434129195
 21
1576.0728158699001
 31
0.0
  0
LINE
  5
120E4
  8
YODOROGO
 10
30189.604341291921
 20
1603.7494964292871
 30
0.0
 11
30105.604341291921
 21
1603.7494964292871
 31
0.0
  0
LINE
  5
120E5
  8
YODOROGO
 10
30177.604341291921
 20
1551.817722473427
 30
0.0
 11
30189.604341291921
 21
1603.7494964292871
 31
0.0
  0
ARC
  5
120E6
  8
YODOROGO
 10
30230.05882870045
 20
1868.885714953002
 30
0.0
 40
321.37763628529081
 50
260.60629297969911
 51
267.77903556555862
  0
LINE
  5
120E7
  8
YODOROGO
 10
30217.604341291921
 20
1427.749496429285
 30
0.0
 11
30217.604341291921
 21
1547.749496429288
 31
0.0
  0
LINE
  5
120E8
  8
YODOROGO
 10
29937.604341291932
 20
1481.3393349155101
 30
0.0
 11
29937.604341291921
 21
1594.531090531141
 31
0.0
  0
LINE
  5
120E9
  8
YODOROGO
 10
30217.604341291921
 20
1667.749496429288
 30
0.0
 11
29949.60434129191
 21
1667.749496429288
 31
0.0
  0
LINE
  5
120EA
  8
YODOROGO
 10
30217.604341291921
 20
1627.749496429288
 30
0.0
 11
30217.604341291921
 21
1667.749496429288
 31
0.0
  0
LINE
  5
120EB
  8
YODOROGO
 10
30017.604341291921
 20
1627.749496429288
 30
0.0
 11
30217.604341291921
 21
1627.749496429288
 31
0.0
  0
ARC
  5
120EC
  8
YODOROGO
 10
30230.05882870136
 20
1868.885714952901
 30
0.0
 40
321.37763628522822
 50
228.6181454618993
 51
245.660289248906
  0
LINE
  5
120ED
  8
YODOROGO
 10
30105.604341291921
 20
1603.7494964292871
 30
0.0
 11
30097.60434129195
 21
1576.0728158699001
 31
0.0
  0
LINE
  5
120EE
  8
YODOROGO
 10
30189.604341291921
 20
1603.7494964292871
 30
0.0
 11
30105.604341291921
 21
1603.7494964292871
 31
0.0
  0
LINE
  5
120EF
  8
YODOROGO
 10
30177.604341291921
 20
1551.817722473427
 30
0.0
 11
30189.604341291921
 21
1603.7494964292871
 31
0.0
  0
ARC
  5
120F0
  8
YODOROGO
 10
30230.05882870045
 20
1868.885714953002
 30
0.0
 40
321.37763628529081
 50
260.60629297969911
 51
267.77903556555862
  0
LINE
  5
120F1
  8
YODOROGO
 10
30217.604341291921
 20
1427.749496429285
 30
0.0
 11
30217.604341291921
 21
1547.749496429288
 31
0.0
  0
LINE
  5
120F2
  8
YODOROGO
 10
29937.604341291932
 20
1481.3393349155101
 30
0.0
 11
29937.604341291921
 21
1594.531090531141
 31
0.0
  0
LINE
  5
120F3
  8
YODOROGO
 10
30433.604341291921
 20
1573.749496429288
 30
0.0
 11
30381.604341291932
 21
1573.749496429288
 31
0.0
  0
LINE
  5
120F4
  8
YODOROGO
 10
30433.604341291921
 20
1601.749496429285
 30
0.0
 11
30433.604341291921
 21
1573.749496429288
 31
0.0
  0
LINE
  5
120F5
  8
YODOROGO
 10
30381.604341291932
 20
1601.749496429285
 30
0.0
 11
30433.604341291921
 21
1601.749496429285
 31
0.0
  0
LINE
  5
120F6
  8
YODOROGO
 10
30381.604341291932
 20
1573.749496429288
 30
0.0
 11
30381.604341291932
 21
1601.749496429285
 31
0.0
  0
LINE
  5
120F7
  8
YODOROGO
 10
30429.604341291921
 20
1577.7494964292871
 30
0.0
 11
30385.604341291921
 21
1577.7494964292871
 31
0.0
  0
LINE
  5
120F8
  8
YODOROGO
 10
30429.604341291921
 20
1597.749496429288
 30
0.0
 11
30429.604341291921
 21
1577.7494964292871
 31
0.0
  0
LINE
  5
120F9
  8
YODOROGO
 10
30385.604341291921
 20
1597.749496429288
 30
0.0
 11
30429.604341291921
 21
1597.749496429288
 31
0.0
  0
LINE
  5
120FA
  8
YODOROGO
 10
30385.604341291921
 20
1577.7494964292871
 30
0.0
 11
30385.604341291921
 21
1597.749496429288
 31
0.0
  0
LINE
  5
120FB
  8
YODOROGO
 10
30425.604341291921
 20
1581.749496429286
 30
0.0
 11
30389.604341291921
 21
1581.749496429286
 31
0.0
  0
LINE
  5
120FC
  8
YODOROGO
 10
30425.604341291921
 20
1593.749496429288
 30
0.0
 11
30425.604341291921
 21
1581.749496429286
 31
0.0
  0
LINE
  5
120FD
  8
YODOROGO
 10
30389.604341291921
 20
1593.749496429288
 30
0.0
 11
30425.604341291921
 21
1593.749496429288
 31
0.0
  0
LINE
  5
120FE
  8
YODOROGO
 10
30389.604341291921
 20
1581.749496429286
 30
0.0
 11
30389.604341291921
 21
1593.749496429288
 31
0.0
  0
LINE
  5
120FF
  8
YODOROGO
 10
30421.604341291932
 20
1585.7494964292871
 30
0.0
 11
30393.604341291921
 21
1585.7494964292871
 31
0.0
  0
LINE
  5
12100
  8
YODOROGO
 10
30421.604341291932
 20
1589.749496429288
 30
0.0
 11
30421.604341291932
 21
1585.7494964292871
 31
0.0
  0
LINE
  5
12101
  8
YODOROGO
 10
30393.604341291921
 20
1589.749496429288
 30
0.0
 11
30421.604341291932
 21
1589.749496429288
 31
0.0
  0
LINE
  5
12102
  8
YODOROGO
 10
30393.604341291921
 20
1585.7494964292871
 30
0.0
 11
30393.604341291921
 21
1589.749496429288
 31
0.0
  0
LINE
  5
12103
  8
YODOROGO
 10
30465.604341291921
 20
1627.749496429288
 30
0.0
 11
30381.604341291932
 21
1627.749496429288
 31
0.0
  0
LINE
  5
12104
  8
YODOROGO
 10
30465.604341291921
 20
1547.749496429288
 30
0.0
 11
30465.604341291921
 21
1627.749496429288
 31
0.0
  0
LINE
  5
12105
  8
YODOROGO
 10
30381.604341291932
 20
1547.749496429288
 30
0.0
 11
30465.604341291921
 21
1547.749496429288
 31
0.0
  0
LINE
  5
12106
  8
YODOROGO
 10
30381.604341291932
 20
1427.749496429288
 30
0.0
 11
30381.604341291932
 21
1547.749496429288
 31
0.0
  0
LINE
  5
12107
  8
YODOROGO
 10
30537.604341291921
 20
1427.749496429288
 30
0.0
 11
30381.604341291932
 21
1427.749496429288
 31
0.0
  0
LINE
  5
12108
  8
YODOROGO
 10
30569.604341291921
 20
1571.749496429285
 30
0.0
 11
30569.604341291921
 21
1599.7494964292871
 31
0.0
  0
ARC
  5
12109
  8
YODOROGO
 10
30545.604341291921
 20
1571.749496429291
 30
0.0
 40
24.000000000003752
 50
270.0
 51
359.99999999998772
  0
LINE
  5
1210A
  8
YODOROGO
 10
30529.604341291939
 20
1547.749496429288
 30
0.0
 11
30545.604341291921
 21
1547.749496429288
 31
0.0
  0
LINE
  5
1210B
  8
YODOROGO
 10
30529.604341291939
 20
1627.749496429288
 30
0.0
 11
30529.604341291939
 21
1547.749496429288
 31
0.0
  0
LINE
  5
1210C
  8
YODOROGO
 10
30899.604341291932
 20
1547.749496429288
 30
0.0
 11
30925.604341291921
 21
1547.749496429288
 31
0.0
  0
LINE
  5
1210D
  8
YODOROGO
 10
30933.604341291921
 20
1427.749496429288
 30
0.0
 11
30899.604341291932
 21
1427.749496429288
 31
0.0
  0
LINE
  5
1210E
  8
YODOROGO
 10
30763.604341291921
 20
1563.7494964292871
 30
0.0
 11
30791.604341291921
 21
1563.7494964292871
 31
0.0
  0
LINE
  5
1210F
  8
YODOROGO
 10
30899.604341291932
 20
1491.749496429288
 30
0.0
 11
30723.604341291921
 21
1491.749496429288
 31
0.0
  0
LINE
  5
12110
  8
YODOROGO
 10
30831.604341291921
 20
1563.7494964292871
 30
0.0
 11
30859.604341291932
 21
1563.7494964292871
 31
0.0
  0
LINE
  5
12111
  8
YODOROGO
 10
30899.604341291932
 20
1427.749496429288
 30
0.0
 11
30899.604341291932
 21
1547.749496429288
 31
0.0
  0
LINE
  5
12112
  8
YODOROGO
 10
30697.604341291932
 20
1427.749496429288
 30
0.0
 11
30645.604341291921
 21
1427.749496429288
 31
0.0
  0
LINE
  5
12113
  8
YODOROGO
 10
30617.604341291921
 20
1599.7494964292871
 30
0.0
 11
30617.604341291921
 21
1507.749496429288
 31
0.0
  0
ARC
  5
12114
  8
YODOROGO
 10
30933.604341291921
 20
1467.749496429288
 30
0.0
 40
40.0
 50
270.0
 51
0.0
  0
LINE
  5
12115
  8
YODOROGO
 10
31093.604341291921
 20
1523.7494964292871
 30
0.0
 11
31093.604341291921
 21
1427.749496429288
 31
0.0
  0
ARC
  5
12116
  8
YODOROGO
 10
31039.721395566768
 20
1637.5313901097329
 30
0.0
 40
125.8955565916754
 50
295.34052442160112
 51
359.18902303418679
  0
LINE
  5
12117
  8
YODOROGO
 10
30617.604341291921
 20
1859.749496429288
 30
0.0
 11
30497.604341291921
 21
1939.749496429288
 31
0.0
  0
LINE
  5
12118
  8
YODOROGO
 10
30497.604341291921
 20
2027.749496429288
 30
0.0
 11
30617.604341291921
 21
1947.749496429288
 31
0.0
  0
LINE
  5
12119
  8
YODOROGO
 10
30529.604341291939
 20
1679.749496429288
 30
0.0
 11
30617.604341291921
 21
1679.749496429288
 31
0.0
  0
LINE
  5
1211A
  8
YODOROGO
 10
30617.604341291921
 20
1735.7494964292871
 30
0.0
 11
30529.604341291939
 21
1735.7494964292871
 31
0.0
  0
LINE
  5
1211B
  8
YODOROGO
 10
30381.604341291932
 20
1795.7494964292871
 30
0.0
 11
30617.604341291921
 21
1795.7494964292871
 31
0.0
  0
LINE
  5
1211C
  8
YODOROGO
 10
30081.604341291921
 20
2027.749496429288
 30
0.0
 11
30021.604341291921
 21
2027.749496429288
 31
0.0
  0
LINE
  5
1211D
  8
YODOROGO
 10
30081.604341291921
 20
1827.7494964292871
 30
0.0
 11
30081.604341291921
 21
2027.749496429288
 31
0.0
  0
LINE
  5
1211E
  8
YODOROGO
 10
30021.604341291921
 20
1827.7494964292871
 30
0.0
 11
30081.604341291921
 21
1827.7494964292871
 31
0.0
  0
LINE
  5
1211F
  8
YODOROGO
 10
30021.604341291921
 20
2027.749496429288
 30
0.0
 11
30021.604341291921
 21
1827.7494964292871
 31
0.0
  0
LINE
  5
12120
  8
YODOROGO
 10
30161.604341291921
 20
2027.749496429288
 30
0.0
 11
30217.604341291921
 21
2027.749496429288
 31
0.0
  0
LINE
  5
12121
  8
YODOROGO
 10
30161.604341291921
 20
1811.749496429288
 30
0.0
 11
30161.604341291921
 21
2027.749496429288
 31
0.0
  0
ARC
  5
12122
  8
YODOROGO
 10
30121.604341291921
 20
1811.749496429288
 30
0.0
 40
40.0
 50
270.0
 51
0.0
  0
LINE
  5
12123
  8
YODOROGO
 10
30021.604341291921
 20
1771.7494964292871
 30
0.0
 11
30121.604341291921
 21
1771.7494964292871
 31
0.0
  0
LINE
  5
12124
  8
YODOROGO
 10
30021.604341291921
 20
1707.749496429288
 30
0.0
 11
30021.604341291921
 21
1771.7494964292871
 31
0.0
  0
LINE
  5
12125
  8
YODOROGO
 10
30137.604341291921
 20
1707.749496429288
 30
0.0
 11
30021.604341291921
 21
1707.749496429288
 31
0.0
  0
ARC
  5
12126
  8
YODOROGO
 10
30137.604341291921
 20
1787.7494964292871
 30
0.0
 40
80.0
 50
270.0
 51
0.0
  0
LINE
  5
12127
  8
YODOROGO
 10
30217.604341291921
 20
2027.749496429288
 30
0.0
 11
30217.604341291921
 21
1787.7494964292871
 31
0.0
  0
LINE
  5
12128
  8
YODOROGO
 10
29977.604341291921
 20
1947.749496429288
 30
0.0
 11
29977.604341291921
 21
1995.7494964292871
 31
0.0
1001
AUTOCAD_POSTSCRIPT_FIGURE
1002
{
1000
PSFILL
1000
Grayscale
1000
Grayscale
1070
    25
1002
}
  0
LINE
  5
12129
  8
YODOROGO
 10
29977.604341291921
 20
1859.749496429288
 30
0.0
 11
29977.604341291921
 21
1907.7494964292871
 31
0.0
1001
AUTOCAD_POSTSCRIPT_FIGURE
1002
{
1000
PSFILL
1000
Grayscale
1000
Grayscale
1070
    25
1002
}
  0
LINE
  5
1212A
  8
YODOROGO
 10
29977.604341291921
 20
1707.749496429288
 30
0.0
 11
29977.604341291921
 21
1819.7494964292871
 31
0.0
1001
AUTOCAD_POSTSCRIPT_FIGURE
1002
{
1000
PSFILL
1000
Grayscale
1000
Grayscale
1070
    25
1002
}
  0
LINE
  5
1212B
  8
YODOROGO
 10
30381.604341291932
 20
1907.7494964292871
 30
0.0
 11
30497.604341291921
 21
2027.749496429288
 31
0.0
  0
LINE
  5
1212C
  8
YODOROGO
 10
30381.604341291932
 20
1819.7494964292871
 30
0.0
 11
30381.604341291932
 21
1907.7494964292871
 31
0.0
  0
LINE
  5
1212D
  8
YODOROGO
 10
30497.604341291921
 20
1939.749496429288
 30
0.0
 11
30381.604341291932
 21
1819.7494964292871
 31
0.0
  0
LINE
  5
1212E
  8
YODOROGO
 10
30465.604341291921
 20
1679.749496429288
 30
0.0
 11
30465.604341291921
 21
1735.7494964292871
 31
0.0
  0
LINE
  5
1212F
  8
YODOROGO
 10
30381.604341291932
 20
1679.749496429288
 30
0.0
 11
30465.604341291921
 21
1679.749496429288
 31
0.0
  0
LINE
  5
12130
  8
YODOROGO
 10
30529.604341291939
 20
1735.7494964292871
 30
0.0
 11
30529.604341291939
 21
1679.749496429288
 31
0.0
  0
LINE
  5
12131
  8
YODOROGO
 10
30381.604341291932
 20
1735.7494964292871
 30
0.0
 11
30381.604341291932
 21
1795.7494964292871
 31
0.0
  0
LINE
  5
12132
  8
YODOROGO
 10
30465.604341291921
 20
1735.7494964292871
 30
0.0
 11
30381.604341291932
 21
1735.7494964292871
 31
0.0
  0
LINE
  5
12133
  8
YODOROGO
 10
30645.604341291921
 20
2027.749496429288
 30
0.0
 11
30973.604341291921
 21
2027.749496429288
 31
0.0
  0
LINE
  5
12134
  8
YODOROGO
 10
30925.604341291921
 20
1963.749496429286
 30
0.0
 11
30697.604341291932
 21
1963.749496429286
 31
0.0
  0
LINE
  5
12135
  8
YODOROGO
 10
30873.604341291921
 20
1819.7494964292871
 30
0.0
 11
30899.604341291932
 21
1819.7494964292871
 31
0.0
  0
LINE
  5
12136
  8
YODOROGO
 10
30899.604341291932
 20
1939.749496429288
 30
0.0
 11
30873.604341291921
 21
1819.7494964292871
 31
0.0
  0
LINE
  5
12137
  8
YODOROGO
 10
30851.604341291939
 20
1939.749496429288
 30
0.0
 11
30899.604341291932
 21
1939.749496429288
 31
0.0
  0
LINE
  5
12138
  8
YODOROGO
 10
30825.604341291921
 20
1819.7494964292871
 30
0.0
 11
30851.604341291939
 21
1939.749496429288
 31
0.0
  0
LINE
  5
12139
  8
YODOROGO
 10
30797.604341291921
 20
1819.7494964292871
 30
0.0
 11
30825.604341291921
 21
1819.7494964292871
 31
0.0
  0
LINE
  5
1213A
  8
YODOROGO
 10
30771.604341291939
 20
1939.749496429288
 30
0.0
 11
30797.604341291921
 21
1819.7494964292871
 31
0.0
  0
LINE
  5
1213B
  8
YODOROGO
 10
30723.604341291921
 20
1939.749496429288
 30
0.0
 11
30771.604341291939
 21
1939.749496429288
 31
0.0
  0
LINE
  5
1213C
  8
YODOROGO
 10
30749.604341291921
 20
1819.7494964292871
 30
0.0
 11
30723.604341291921
 21
1939.749496429288
 31
0.0
  0
LINE
  5
1213D
  8
YODOROGO
 10
30723.604341291921
 20
1819.7494964292871
 30
0.0
 11
30749.604341291921
 21
1819.7494964292871
 31
0.0
  0
LINE
  5
1213E
  8
YODOROGO
 10
30723.604341291921
 20
1755.7494964292871
 30
0.0
 11
30723.604341291921
 21
1819.7494964292871
 31
0.0
  0
LINE
  5
1213F
  8
YODOROGO
 10
30899.604341291932
 20
1755.7494964292871
 30
0.0
 11
30723.604341291921
 21
1755.7494964292871
 31
0.0
  0
LINE
  5
12140
  8
YODOROGO
 10
30899.604341291932
 20
1819.7494964292871
 30
0.0
 11
30899.604341291932
 21
1755.7494964292871
 31
0.0
  0
LINE
  5
12141
  8
YODOROGO
 10
30617.604341291921
 20
1947.749496429288
 30
0.0
 11
30617.604341291921
 21
1859.749496429288
 31
0.0
  0
LINE
  5
12142
  8
YODOROGO
 10
30791.604341291921
 20
1755.7494964292871
 30
0.0
 11
30831.604341291921
 21
1755.7494964292871
 31
0.0
  0
LINE
  5
12143
  8
YODOROGO
 10
30723.604341291921
 20
1691.749496429288
 30
0.0
 11
30763.604341291921
 21
1691.749496429288
 31
0.0
  0
LINE
  5
12144
  8
YODOROGO
 10
30859.604341291932
 20
1691.749496429288
 30
0.0
 11
30899.604341291932
 21
1691.749496429288
 31
0.0
  0
LINE
  5
12145
  8
YODOROGO
 10
30617.604341291921
 20
1795.7494964292871
 30
0.0
 11
30617.604341291921
 21
1735.7494964292871
 31
0.0
  0
LINE
  5
12146
  8
YODOROGO
 10
31165.604341291921
 20
2027.749496429288
 30
0.0
 11
31165.604341291921
 21
1963.749496429286
 31
0.0
  0
LINE
  5
12147
  8
YODOROGO
 10
31533.604341291921
 20
1595.7494964292871
 30
0.0
 11
31533.60434129191
 21
1811.749496429288
 31
0.0
  0
LINE
  5
12148
  8
YODOROGO
 10
31461.60434129191
 20
1987.7494964292871
 30
0.0
 11
31461.60434129191
 21
1635.7494964292871
 31
0.0
  0
LINE
  5
12149
  8
YODOROGO
 10
31653.604341291921
 20
1427.749496429288
 30
0.0
 11
31653.60434129191
 21
1811.749496429288
 31
0.0
  0
LINE
  5
1214A
  8
YODOROGO
 10
31589.604341291921
 20
1811.749496429288
 30
0.0
 11
31589.604341291921
 21
1427.749496429288
 31
0.0
  0
LINE
  5
1214B
  8
YODOROGO
 10
31237.604341291921
 20
1595.7494964292871
 30
0.0
 11
31237.604341291921
 21
1707.749496429288
 31
0.0
  0
ARC
  5
1214C
  8
YODOROGO
 10
31353.914865116069
 20
1607.790351288558
 30
0.0
 40
180.0924485759885
 50
268.62849102169793
 51
356.16638457330322
  0
LINE
  5
1214D
  8
YODOROGO
 10
31349.604341291939
 20
1527.749496429288
 30
0.0
 11
31349.604341291939
 21
1427.749496429288
 31
0.0
  0
ARC
  5
1214E
  8
YODOROGO
 10
31351.518075724562
 20
1637.838957017655
 30
0.0
 40
110.1060929836122
 50
269.00410209305932
 51
358.91264455492478
  0
LINE
  5
1214F
  8
YODOROGO
 10
31589.604341291921
 20
1427.749496429288
 30
0.0
 11
31653.604341291921
 21
1427.749496429288
 31
0.0
  0
LINE
  5
12150
  8
YODOROGO
 10
31533.60434129191
 20
1811.749496429288
 30
0.0
 11
31589.604341291921
 21
1811.749496429288
 31
0.0
  0
LINE
  5
12151
  8
YODOROGO
 10
31621.604341291939
 20
1987.7494964292871
 30
0.0
 11
31461.60434129191
 21
1987.7494964292871
 31
0.0
  0
LINE
  5
12152
  8
YODOROGO
 10
31533.60434129191
 20
1915.7494964292871
 30
0.0
 11
31661.604341291939
 21
1915.7494964292871
 31
0.0
  0
LINE
  5
12153
  8
YODOROGO
 10
31701.604341291939
 20
1875.7494964292871
 30
0.0
 11
31533.60434129191
 21
1875.7494964292871
 31
0.0
  0
LINE
  5
12154
  8
YODOROGO
 10
31237.604341291921
 20
1779.749496429288
 30
0.0
 11
31349.604341291939
 21
1779.749496429288
 31
0.0
  0
LINE
  5
12155
  8
YODOROGO
 10
31237.604341291921
 20
1835.7494964292871
 30
0.0
 11
31237.604341291921
 21
1779.749496429288
 31
0.0
  0
LINE
  5
12156
  8
YODOROGO
 10
31349.604341291939
 20
1835.7494964292871
 30
0.0
 11
31237.604341291921
 21
1835.7494964292871
 31
0.0
  0
LINE
  5
12157
  8
YODOROGO
 10
31349.604341291939
 20
1779.749496429288
 30
0.0
 11
31349.604341291939
 21
1835.7494964292871
 31
0.0
  0
LINE
  5
12158
  8
YODOROGO
 10
31533.60434129191
 20
1875.7494964292871
 30
0.0
 11
31533.60434129191
 21
1915.7494964292871
 31
0.0
  0
LINE
  5
12159
  8
YODOROGO
 10
31413.604341291921
 20
1707.749496429288
 30
0.0
 11
31413.604341291921
 21
1907.7494964292871
 31
0.0
  0
LINE
  5
1215A
  8
YODOROGO
 10
31237.604341291921
 20
1707.749496429288
 30
0.0
 11
31413.604341291921
 21
1707.749496429288
 31
0.0
  0
LINE
  5
1215B
  8
YODOROGO
 10
31413.604341291921
 20
1963.749496429286
 30
0.0
 11
31413.604341291921
 21
2027.749496429288
 31
0.0
  0
ARC
  5
1215C
  8
YODOROGO
 10
31621.604341291939
 20
2003.749496429285
 30
0.0
 40
15.999999999994539
 50
270.0
 51
0.0000000000081422
  0
LINE
  5
1215D
  8
YODOROGO
 10
31637.604341291921
 20
2027.749496429288
 30
0.0
 11
31637.604341291921
 21
2003.7494964292871
 31
0.0
  0
LINE
  5
1215E
  8
YODOROGO
 10
31701.604341291939
 20
2027.749496429288
 30
0.0
 11
31637.604341291921
 21
2027.749496429288
 31
0.0
  0
LINE
  5
1215F
  8
YODOROGO
 10
31701.604341291939
 20
1955.7494964292871
 30
0.0
 11
31701.604341291939
 21
2027.749496429288
 31
0.0
  0
ARC
  5
12160
  8
YODOROGO
 10
31661.604341291939
 20
1955.7494964292871
 30
0.0
 40
40.0
 50
270.0
 51
0.0
  0
LINE
  5
12161
  8
YODOROGO
 10
31701.604341291939
 20
1811.749496429288
 30
0.0
 11
31701.604341291939
 21
1875.7494964292871
 31
0.0
  0
LINE
  5
12162
  8
YODOROGO
 10
31653.60434129191
 20
1811.749496429288
 30
0.0
 11
31701.604341291939
 21
1811.749496429288
 31
0.0
  0
LINE
  5
12169
  8
SUNPOU
  6
CONTINUOUS
 62
     4
 10
20588.781938817359
 20
8669.6883999999955
 30
0.0
 11
20588.781938817359
 21
9869.1329740000037
 31
0.0
  0
LINE
  5
1216A
  8
SUNPOU
  6
CONTINUOUS
 62
     4
 10
26127.28193881737
 20
8669.6883999999955
 30
0.0
 11
26127.28193881737
 21
9869.1329740000037
 31
0.0
  0
LINE
  5
1216B
  8
SUNPOU
  6
CONTINUOUS
 62
     4
 10
20591.781938817359
 20
9789.1329740000037
 30
0.0
 11
26124.28193881737
 21
9789.1329740000037
 31
0.0
  0
LINE
  5
1216C
  8
SUNPOU
  6
CONTINUOUS
 62
     4
 10
26084.28193881737
 20
8669.6883999999955
 30
0.0
 11
26084.28193881737
 21
9469.1900500000029
 31
0.0
  0
LINE
  5
1216D
  8
SUNPOU
  6
CONTINUOUS
 62
     4
 10
26127.28193881737
 20
8669.6883999999955
 30
0.0
 11
26127.28193881737
 21
9469.1900500000029
 31
0.0
  0
LINE
  5
1216E
  8
SUNPOU
  6
CONTINUOUS
 62
     4
 10
26084.28193881737
 20
9389.1900500000029
 30
0.0
 11
25844.28193881737
 21
9389.1900500000029
 31
0.0
  0
LINE
  5
1216F
  8
SUNPOU
  6
CONTINUOUS
 62
     4
 10
26124.28193881737
 20
9389.1900500000029
 30
0.0
 11
26364.28193881737
 21
9389.1900500000029
 31
0.0
  0
LINE
  5
12170
  8
SUNPOU
  6
CONTINUOUS
 62
     4
 10
26084.28193881737
 20
9389.1900500000029
 30
0.0
 11
26124.28193881737
 21
9389.1900500000029
 31
0.0
  0
LINE
  5
12171
  8
SUNPOU
  6
CONTINUOUS
 62
     4
 10
20631.781938817359
 20
8539.6884659999996
 30
0.0
 11
20631.781938817359
 21
9469.1900500000029
 31
0.0
  0
LINE
  5
12172
  8
SUNPOU
  6
CONTINUOUS
 62
     4
 10
20588.781938817359
 20
8669.6883999999955
 30
0.0
 11
20588.781938817359
 21
9469.1900500000029
 31
0.0
  0
LINE
  5
12173
  8
SUNPOU
  6
CONTINUOUS
 62
     4
 10
20631.781938817359
 20
9389.1900500000029
 30
0.0
 11
20871.781938817359
 21
9389.1900500000029
 31
0.0
  0
LINE
  5
12174
  8
SUNPOU
  6
CONTINUOUS
 62
     4
 10
20591.781938817359
 20
9389.1900500000029
 30
0.0
 11
20351.781938817359
 21
9389.1900500000029
 31
0.0
  0
LINE
  5
12175
  8
SUNPOU
  6
CONTINUOUS
 62
     4
 10
20631.781938817359
 20
9389.1900500000029
 30
0.0
 11
20591.781938817359
 21
9389.1900500000029
 31
0.0
  0
LINE
  5
12176
  8
SUNPOU
  6
CONTINUOUS
 62
     4
 10
23284.28193881737
 20
8539.6884659999996
 30
0.0
 11
23284.28193881737
 21
9469.1900500000029
 31
0.0
  0
LINE
  5
12177
  8
SUNPOU
  6
CONTINUOUS
 62
     4
 10
20631.781938817359
 20
8539.6884659999996
 30
0.0
 11
20631.781938817359
 21
9469.1900500000029
 31
0.0
  0
LINE
  5
12178
  8
SUNPOU
  6
CONTINUOUS
 62
     4
 10
23284.28193881737
 20
9389.1900500000029
 30
0.0
 11
20631.781938817359
 21
9389.1900500000029
 31
0.0
  0
LINE
  5
12179
  8
SUNPOU
  6
CONTINUOUS
 62
     4
 10
20544.279299817372
 20
6241.1883740000021
 30
0.0
 11
19344.279299817372
 21
6241.1883740000021
 31
0.0
  0
LINE
  5
1217A
  8
SUNPOU
  6
CONTINUOUS
 62
     4
 10
20511.781938817359
 20
8589.6883999999973
 30
0.0
 11
19344.279299817372
 21
8589.6883999999973
 31
0.0
  0
LINE
  5
1217B
  8
SUNPOU
  6
CONTINUOUS
 62
     4
 10
19424.279299817372
 20
6241.1883740000021
 30
0.0
 11
19424.279299817372
 21
8589.6883999999973
 31
0.0
  0
LINE
  5
1217C
  8
SUNPOU
  6
CONTINUOUS
 62
     4
 10
20544.279299817372
 20
6241.1883740000021
 30
0.0
 11
19744.278639817381
 21
6241.1883740000021
 31
0.0
  0
LINE
  5
1217D
  8
SUNPOU
  6
CONTINUOUS
 62
     4
 10
20636.778243817389
 20
8132.6883740000021
 30
0.0
 11
19744.278639817381
 21
8132.6883740000021
 31
0.0
  0
LINE
  5
1217E
  8
SUNPOU
  6
CONTINUOUS
 62
     4
 10
19824.278639817381
 20
6241.1883740000021
 30
0.0
 11
19824.278639817381
 21
8132.6883740000021
 31
0.0
  0
LINE
  5
1217F
  8
SUNPOU
  6
CONTINUOUS
 62
     4
 10
23287.28193881737
 20
6161.1883740000021
 30
0.0
 11
23287.28193881737
 21
5261.188374000003
 31
0.0
  0
LINE
  5
12180
  8
SUNPOU
  6
CONTINUOUS
 62
     4
 10
25999.281938817381
 20
6061.1885389999989
 30
0.0
 11
25999.281938817381
 21
5261.188374000003
 31
0.0
  0
LINE
  5
12181
  8
SUNPOU
  6
CONTINUOUS
 62
     4
 10
23287.28193881737
 20
5341.188374000003
 30
0.0
 11
25999.281938817381
 21
5341.188374000003
 31
0.0
  0
LINE
  5
12182
  8
SUNPOU
  6
CONTINUOUS
 62
     4
 10
20631.82189176491
 20
6161.1883740000021
 30
0.0
 11
20631.82189176491
 21
4461.1887040000574
 31
0.0
  0
LINE
  5
12183
  8
SUNPOU
  6
CONTINUOUS
 62
     4
 10
26084.28193881737
 20
6061.1885389999989
 30
0.0
 11
26084.28193881737
 21
4461.1887040000574
 31
0.0
  0
LINE
  5
12184
  8
SUNPOU
  6
CONTINUOUS
 62
     4
 10
20631.82189176491
 20
4541.1887040000556
 30
0.0
 11
26084.28193881737
 21
4541.1887040000556
 31
0.0
  0
LINE
  5
12185
  8
SUNPOU
  6
CONTINUOUS
 62
     4
 10
20674.281938817359
 20
5798.5361160000011
 30
0.0
 11
20674.281938817359
 21
4861.1885389999998
 31
0.0
  0
LINE
  5
12186
  8
SUNPOU
  6
CONTINUOUS
 62
     4
 10
20631.82189176491
 20
6161.1883740000021
 30
0.0
 11
20631.82189176491
 21
4861.1885389999998
 31
0.0
  0
LINE
  5
12187
  8
SUNPOU
  6
CONTINUOUS
 62
     4
 10
20674.281938817359
 20
4941.1885390000016
 30
0.0
 11
20914.281938817359
 21
4941.1885390000016
 31
0.0
  0
LINE
  5
12188
  8
SUNPOU
  6
CONTINUOUS
 62
     4
 10
20631.82189176491
 20
4941.1885390000016
 30
0.0
 11
20391.82189176491
 21
4941.1885390000016
 31
0.0
  0
LINE
  5
12189
  8
SUNPOU
  6
CONTINUOUS
 62
     4
 10
20674.281938817359
 20
4941.1885390000016
 30
0.0
 11
20631.82189176491
 21
4941.1885390000016
 31
0.0
  0
LINE
  5
1218A
  8
SUNPOU
  6
CONTINUOUS
 62
     4
 10
23241.781938817381
 20
5798.5361160000011
 30
0.0
 11
23241.781938817381
 21
4861.1885389999998
 31
0.0
  0
LINE
  5
1218B
  8
SUNPOU
  6
CONTINUOUS
 62
     4
 10
20674.281938817359
 20
5798.5361160000011
 30
0.0
 11
20674.281938817359
 21
4861.1885389999998
 31
0.0
  0
LINE
  5
1218C
  8
SUNPOU
  6
CONTINUOUS
 62
     4
 10
23241.781938817381
 20
4941.1885390000016
 30
0.0
 11
20674.281938817359
 21
4941.1885390000016
 31
0.0
  0
LINE
  5
1218D
  8
SUNPOU
  6
CONTINUOUS
 62
     4
 10
20768.281938817359
 20
6061.1885389999989
 30
0.0
 11
20768.281938817359
 21
5261.188374000003
 31
0.0
  0
LINE
  5
1218E
  8
SUNPOU
  6
CONTINUOUS
 62
     4
 10
23147.781938817359
 20
6061.1885389999989
 30
0.0
 11
23147.781938817359
 21
5261.188374000003
 31
0.0
  0
LINE
  5
1218F
  8
SUNPOU
  6
CONTINUOUS
 62
     4
 10
20768.281938817359
 20
5341.188374000003
 30
0.0
 11
23147.781938817359
 21
5341.188374000003
 31
0.0
  0
LINE
  5
12190
  8
SUNPOU
  6
CONTINUOUS
 62
     4
 10
26041.78193881737
 20
5798.5361160000011
 30
0.0
 11
26041.78193881737
 21
4861.1885389999998
 31
0.0
  0
LINE
  5
12191
  8
SUNPOU
  6
CONTINUOUS
 62
     4
 10
26084.28193881737
 20
6061.1885389999989
 30
0.0
 11
26084.28193881737
 21
4861.1885389999998
 31
0.0
  0
LINE
  5
12192
  8
SUNPOU
  6
CONTINUOUS
 62
     4
 10
26041.78193881737
 20
4941.1885390000016
 30
0.0
 11
25801.78193881737
 21
4941.1885390000016
 31
0.0
  0
LINE
  5
12193
  8
SUNPOU
  6
CONTINUOUS
 62
     4
 10
26084.28193881737
 20
4941.1885390000016
 30
0.0
 11
26324.28193881737
 21
4941.1885390000016
 31
0.0
  0
LINE
  5
12194
  8
SUNPOU
  6
CONTINUOUS
 62
     4
 10
26041.78193881737
 20
4941.1885390000016
 30
0.0
 11
26084.28193881737
 21
4941.1885390000016
 31
0.0
  0
LINE
  5
12195
  8
SUNPOU
  6
CONTINUOUS
 62
     4
 10
23241.781938817381
 20
5798.5361160000011
 30
0.0
 11
23241.781938817381
 21
4861.1885389999998
 31
0.0
  0
LINE
  5
12196
  8
SUNPOU
  6
CONTINUOUS
 62
     4
 10
26041.78193881737
 20
5798.5361160000011
 30
0.0
 11
26041.78193881737
 21
4861.1885389999998
 31
0.0
  0
LINE
  5
12197
  8
SUNPOU
  6
CONTINUOUS
 62
     4
 10
23241.781938817381
 20
4941.1885390000016
 30
0.0
 11
26041.78193881737
 21
4941.1885390000016
 31
0.0
  0
LINE
  5
12198
  8
SUNPOU
  6
CONTINUOUS
 62
     4
 10
23284.28193881737
 20
8539.6884659999996
 30
0.0
 11
23284.28193881737
 21
9469.1900500000029
 31
0.0
  0
LINE
  5
12199
  8
SUNPOU
  6
CONTINUOUS
 62
     4
 10
26084.28193881737
 20
8669.6883999999955
 30
0.0
 11
26084.28193881737
 21
9469.1900500000029
 31
0.0
  0
LINE
  5
1219A
  8
SUNPOU
  6
CONTINUOUS
 62
     4
 10
23284.28193881737
 20
9389.1900500000029
 30
0.0
 11
26084.28193881737
 21
9389.1900500000029
 31
0.0
  0
LINE
  5
1219B
  8
SUNPOU
  6
CONTINUOUS
 62
     4
 10
26164.28193881737
 20
6242.0026620000026
 30
0.0
 11
27374.104337111748
 21
6242.0026619999999
 31
0.0
  0
LINE
  5
1219C
  8
SUNPOU
  6
CONTINUOUS
 62
     4
 10
26204.28193881737
 20
8262.0026620000026
 30
0.0
 11
27374.104337111748
 21
8262.0026620000026
 31
0.0
  0
LINE
  5
1219D
  8
SUNPOU
  6
CONTINUOUS
 62
     4
 10
27294.104337111748
 20
6242.0026619999999
 30
0.0
 11
27294.104337111748
 21
8262.0026620000026
 31
0.0
  0
LINE
  5
12223
  8
SUNPOU
  6
CONTINUOUS
 62
     4
 10
8522.816553438046
 20
8478.1883740000012
 30
0.0
 11
8522.816553438046
 21
9869.1883999999955
 31
0.0
  0
LINE
  5
12224
  8
SUNPOU
  6
CONTINUOUS
 62
     4
 10
14423.31655343803
 20
8610.0781974124293
 30
0.0
 11
14423.31655343803
 21
9869.1883999999955
 31
0.0
  0
LINE
  5
12225
  8
SUNPOU
  6
CONTINUOUS
 62
     4
 10
8522.816553438046
 20
9789.1883999999955
 30
0.0
 11
14423.31655343803
 21
9789.1883999999955
 31
0.0
  0
LINE
  5
12226
  8
SUNPOU
  6
CONTINUOUS
 62
     4
 10
14273.316553438041
 20
8536.0984379999973
 30
0.0
 11
14273.316553438041
 21
9469.1900499999992
 31
0.0
  0
LINE
  5
12227
  8
SUNPOU
  6
CONTINUOUS
 62
     4
 10
14423.31655343803
 20
8610.0781974124293
 30
0.0
 11
14423.31655343803
 21
9469.1900499999992
 31
0.0
  0
LINE
  5
12228
  8
SUNPOU
  6
CONTINUOUS
 62
     4
 10
14273.316553438041
 20
9389.1900499999992
 30
0.0
 11
14033.31655343803
 21
9389.1900499999992
 31
0.0
  0
LINE
  5
12229
  8
SUNPOU
  6
CONTINUOUS
 62
     4
 10
14423.31655343803
 20
9389.1900499999992
 30
0.0
 11
14663.31655343803
 21
9389.1900499999992
 31
0.0
  0
LINE
  5
1222A
  8
SUNPOU
  6
CONTINUOUS
 62
     4
 10
14273.316553438041
 20
9389.1900499999992
 30
0.0
 11
14423.31655343803
 21
9389.1900499999992
 31
0.0
  0
LINE
  5
1222B
  8
SUNPOU
  6
CONTINUOUS
 62
     4
 10
8702.8165534380441
 20
8348.3741496838084
 30
0.0
 11
8702.8165534380441
 21
9469.1900499999992
 31
0.0
  0
LINE
  5
1222C
  8
SUNPOU
  6
CONTINUOUS
 62
     4
 10
14273.316553438041
 20
8536.0984379999973
 30
0.0
 11
14273.316553438041
 21
9469.1900499999992
 31
0.0
  0
LINE
  5
1222D
  8
SUNPOU
  6
CONTINUOUS
 62
     4
 10
8702.8165534380441
 20
9389.1900499999992
 30
0.0
 11
14273.316553438041
 21
9389.1900499999992
 31
0.0
  0
LINE
  5
1222E
  8
SUNPOU
  6
CONTINUOUS
 62
     4
 10
8522.816553438046
 20
8478.1883740000012
 30
0.0
 11
8522.816553438046
 21
9469.1900499999992
 31
0.0
  0
LINE
  5
1222F
  8
SUNPOU
  6
CONTINUOUS
 62
     4
 10
8702.8165534380441
 20
8348.3741496838084
 30
0.0
 11
8702.8165534380441
 21
9469.1900499999992
 31
0.0
  0
LINE
  5
12230
  8
SUNPOU
  6
CONTINUOUS
 62
     4
 10
8522.816553438046
 20
9389.1900499999992
 30
0.0
 11
8702.8165534380441
 21
9389.1900499999992
 31
0.0
  0
LINE
  5
12231
  8
SUNPOU
  6
CONTINUOUS
 62
     4
 10
14365.81655343803
 20
6241.1883740000012
 30
0.0
 11
15443.316949438031
 21
6241.1883740000012
 31
0.0
  0
LINE
  5
12232
  8
SUNPOU
  6
CONTINUOUS
 62
     4
 10
14458.12381303742
 20
8589.6883740000012
 30
0.0
 11
15443.316949438031
 21
8589.6883740000012
 31
0.0
  0
LINE
  5
12233
  8
SUNPOU
  6
CONTINUOUS
 62
     4
 10
15363.316949438031
 20
6241.1883740000012
 30
0.0
 11
15363.316949438031
 21
8589.6883740000012
 31
0.0
  0
LINE
  5
12234
  8
SUNPOU
  6
CONTINUOUS
 62
     4
 10
8615.3165534380423
 20
6241.1883740000012
 30
0.0
 11
7532.8161574380574
 21
6241.1883740000012
 31
0.0
  0
LINE
  5
12235
  8
SUNPOU
  6
CONTINUOUS
 62
     4
 10
8442.816553438046
 20
8397.1883739999994
 30
0.0
 11
7532.8161574380574
 21
8397.1883739999994
 31
0.0
  0
LINE
  5
12236
  8
SUNPOU
  6
CONTINUOUS
 62
     4
 10
7612.8161574380574
 20
6241.1883740000012
 30
0.0
 11
7612.8161574380574
 21
8397.1883739999994
 31
0.0
  0
LINE
  5
12237
  8
SUNPOU
  6
CONTINUOUS
 62
     4
 10
8702.8165534380441
 20
6161.1883740000012
 30
0.0
 11
8702.8165534380441
 21
4461.1887039999983
 31
0.0
  0
LINE
  5
12238
  8
SUNPOU
  6
CONTINUOUS
 62
     4
 10
14273.316553438041
 20
6161.1883740000012
 30
0.0
 11
14273.316553438041
 21
4461.1887039999983
 31
0.0
  0
LINE
  5
12239
  8
SUNPOU
  6
CONTINUOUS
 62
     4
 10
8702.8165534380441
 20
4541.1887039999947
 30
0.0
 11
14273.316553438041
 21
4541.1887039999947
 31
0.0
  0
LINE
  5
1223A
  8
SUNPOU
  6
CONTINUOUS
 62
     4
 10
14230.81655343803
 20
5798.5361160000011
 30
0.0
 11
14230.81655343803
 21
4861.1885389999989
 31
0.0
  0
LINE
  5
1223B
  8
SUNPOU
  6
CONTINUOUS
 62
     4
 10
14273.316553438041
 20
6161.1883740000012
 30
0.0
 11
14273.316553438041
 21
4861.1885389999989
 31
0.0
  0
LINE
  5
1223C
  8
SUNPOU
  6
CONTINUOUS
 62
     4
 10
14230.81655343803
 20
4941.1885390000016
 30
0.0
 11
13990.81655343803
 21
4941.1885390000016
 31
0.0
  0
LINE
  5
1223D
  8
SUNPOU
  6
CONTINUOUS
 62
     4
 10
14273.316553438041
 20
4941.1885390000016
 30
0.0
 11
14513.31655343803
 21
4941.1885390000016
 31
0.0
  0
LINE
  5
1223E
  8
SUNPOU
  6
CONTINUOUS
 62
     4
 10
14230.81655343803
 20
4941.1885390000016
 30
0.0
 11
14273.316553438041
 21
4941.1885390000016
 31
0.0
  0
LINE
  5
1223F
  8
SUNPOU
  6
CONTINUOUS
 62
     4
 10
8745.3165534380423
 20
5798.5361160000011
 30
0.0
 11
8745.3165534380423
 21
4861.1885389999989
 31
0.0
  0
LINE
  5
12240
  8
SUNPOU
  6
CONTINUOUS
 62
     4
 10
8702.8165534380441
 20
6161.1883740000012
 30
0.0
 11
8702.8165534380441
 21
4861.1885389999989
 31
0.0
  0
LINE
  5
12241
  8
SUNPOU
  6
CONTINUOUS
 62
     4
 10
8745.3165534380423
 20
4941.1885390000016
 30
0.0
 11
8985.316553438046
 21
4941.1885390000016
 31
0.0
  0
LINE
  5
12242
  8
SUNPOU
  6
CONTINUOUS
 62
     4
 10
8702.8165534380441
 20
4941.1885390000016
 30
0.0
 11
8462.8165534380423
 21
4941.1885390000016
 31
0.0
  0
LINE
  5
12243
  8
SUNPOU
  6
CONTINUOUS
 62
     4
 10
8745.3165534380423
 20
4941.1885390000016
 30
0.0
 11
8702.8165534380441
 21
4941.1885390000016
 31
0.0
  0
LINE
  5
12244
  8
SUNPOU
  6
CONTINUOUS
 62
     4
 10
11312.816553438041
 20
5798.5361160000011
 30
0.0
 11
11312.816553438041
 21
4861.1885389999989
 31
0.0
  0
LINE
  5
12245
  8
SUNPOU
  6
CONTINUOUS
 62
     4
 10
8745.3165534380423
 20
5798.5361160000011
 30
0.0
 11
8745.3165534380423
 21
4861.1885389999989
 31
0.0
  0
LINE
  5
12246
  8
SUNPOU
  6
CONTINUOUS
 62
     4
 10
11312.816553438041
 20
4941.1885390000016
 30
0.0
 11
8745.3165534380423
 21
4941.1885390000016
 31
0.0
  0
LINE
  5
12247
  8
SUNPOU
  6
CONTINUOUS
 62
     4
 10
11312.816553438041
 20
5798.5361160000011
 30
0.0
 11
11312.816553438041
 21
4861.1885389999989
 31
0.0
  0
LINE
  5
12248
  8
SUNPOU
  6
CONTINUOUS
 62
     4
 10
14230.81655343803
 20
5798.5361160000011
 30
0.0
 11
14230.81655343803
 21
4861.1885389999989
 31
0.0
  0
LINE
  5
12249
  8
SUNPOU
  6
CONTINUOUS
 62
     4
 10
11312.816553438041
 20
4941.1885390000016
 30
0.0
 11
14230.81655343803
 21
4941.1885390000016
 31
0.0
  0
TEXT
  5
1227F
  8
0
  6
CONTINUOUS
 62
     7
 10
12505.14988677136
 20
5021.1885389999989
 30
0.0
 40
160.0
  1
2918
  0
TEXT
  5
12280
  8
0
  6
CONTINUOUS
 62
     7
 10
9629.0665534380496
 20
5021.1885389999989
 30
0.0
 40
160.0
  1
2567.5
  0
TEXT
  5
12281
  8
0
  6
CONTINUOUS
 62
     7
 10
8120.8269394380532
 20
5022.1790569999976
 30
0.0
 40
160.0
  1
42.5
  0
TEXT
  5
12282
  8
0
  6
CONTINUOUS
 62
     7
 10
14393.31820343803
 20
5021.1883080000007
 30
0.0
 40
160.0
  1
42.5
  0
TEXT
  5
12283
  8
0
  6
CONTINUOUS
 62
     7
 10
11101.39988677138
 20
4621.1887039999974
 30
0.0
 40
160.0
  1
5570.5
  0
TEXT
  5
12284
  8
0
  6
CONTINUOUS
 62
     7
 10
7532.8161574380547
 20
6540.5217073333361
 30
0.0
 40
160.0
  1
2156（2396）
 50
90.0
  0
TEXT
  5
12285
  8
0
  6
CONTINUOUS
 62
     7
 10
15283.316949438051
 20
6396.7717073333361
 30
0.0
 40
160.0
  1
2348.5（2588.5）
 50
90.0
  0
TEXT
  5
12286
  8
0
  6
CONTINUOUS
 62
     7
 10
8068.4747383029489
 20
9469.1900499999992
 30
0.0
 40
160.0
  1
180
  0
TEXT
  5
12287
  8
0
  6
CONTINUOUS
 62
     7
 10
11101.39988677138
 20
9469.1900499999992
 30
0.0
 40
160.0
  1
5570.5
  0
TEXT
  5
12288
  8
0
  6
CONTINUOUS
 62
     7
 10
14489.983220104699
 20
9469.1900499999992
 30
0.0
 40
160.0
  1
150
  0
TEXT
  5
12289
  8
0
  6
CONTINUOUS
 62
     7
 10
11099.73322010471
 20
9869.1883999999955
 30
0.0
 40
160.0
  1
5900.5
  0
TEXT
  5
122A6
  8
0
  6
CONTINUOUS
 62
     7
 10
27214.104337111748
 20
6589.0026620000071
 30
0.0
 40
160.0
  1
有効高サ2020
 50
90.0
  0
TEXT
  5
122A7
  8
0
  6
CONTINUOUS
 62
     7
 10
24417.61527215071
 20
9469.1900500000029
 30
0.0
 40
160.0
  1
2800
  0
TEXT
  5
122A8
  8
0
  6
CONTINUOUS
 62
     7
 10
24375.115272150699
 20
5021.1885389999998
 30
0.0
 40
160.0
  1
2800
  0
TEXT
  5
122A9
  8
0
  6
CONTINUOUS
 62
     7
 10
26204.282598817361
 20
5021.1883080000007
 30
0.0
 40
160.0
  1
42.5
  0
TEXT
  5
122AA
  8
0
  6
CONTINUOUS
 62
     7
 10
21078.031938817359
 20
5421.188374000003
 30
0.0
 40
160.0
  1
有効開口巾2379.5
  0
TEXT
  5
122AB
  8
0
  6
CONTINUOUS
 62
     7
 10
21558.031938817359
 20
5021.1885389999998
 30
0.0
 40
160.0
  1
2567.5
  0
TEXT
  5
122AC
  8
0
  6
CONTINUOUS
 62
     7
 10
20051.958907817389
 20
5028.7357170000014
 30
0.0
 40
160.0
  1
42.5
  0
TEXT
  5
122AD
  8
0
  6
CONTINUOUS
 62
     7
 10
22958.05191529114
 20
4621.1887040000584
 30
0.0
 40
160.0
  1
5452.5
  0
TEXT
  5
122AE
  8
0
  6
CONTINUOUS
 62
     7
 10
23896.615272150699
 20
5421.188374000003
 30
0.0
 40
160.0
  1
有効開口巾2712
  0
TEXT
  5
122AF
  8
0
  6
CONTINUOUS
 62
     7
 10
19744.278639817381
 20
6264.2717073333397
 30
0.0
 40
160.0
  1
有効開口高サ1891.5
 50
90.0
  0
TEXT
  5
122B0
  8
0
  6
CONTINUOUS
 62
     7
 10
19344.279299817372
 20
6396.7717203333377
 30
0.0
 40
160.0
  1
2348.5（2588.5）
 50
90.0
  0
TEXT
  5
122B1
  8
0
  6
CONTINUOUS
 62
     7
 10
21558.031938817359
 20
9469.1900500000029
 30
0.0
 40
160.0
  1
2652.5
  0
TEXT
  5
122B2
  8
0
  6
CONTINUOUS
 62
     7
 10
20261.97395281736
 20
9469.1893240000027
 30
0.0
 40
160.0
  1
43
  0
TEXT
  5
122B3
  8
0
  6
CONTINUOUS
 62
     7
 10
26261.74775881739
 20
9469.1893240000027
 30
0.0
 40
160.0
  1
43
  0
TEXT
  5
122B4
  8
0
  6
CONTINUOUS
 62
     7
 10
22958.031938817381
 20
9869.1329740000037
 30
0.0
 40
160.0
  1
5538.5
  0
ARC
  5
122B5
  8
0
  6
BYBLOCK
 62
     0
 10
20588.781938817359
 20
9789.1329740000037
 30
0.0
 40
15.0
 50
0.0
 51
180.0
  0
ARC
  5
122B6
  8
0
  6
BYBLOCK
 62
     0
 10
20588.781938817359
 20
9789.1329740000037
 30
0.0
 40
15.0
 50
180.0
 51
0.0
  0
ARC
  5
122B7
  8
0
  6
BYBLOCK
 62
     0
 10
26127.28193881737
 20
9789.1329740000037
 30
0.0
 40
15.0
 50
180.0
 51
0.0
  0
ARC
  5
122B8
  8
0
  6
BYBLOCK
 62
     0
 10
26127.28193881737
 20
9789.1329740000037
 30
0.0
 40
15.0
 50
0.0
 51
180.0
  0
ARC
  5
122B9
  8
0
  6
BYBLOCK
 62
     0
 10
26084.28193881737
 20
9389.1900500000029
 30
0.0
 40
15.0
 50
180.0
 51
0.0
  0
ARC
  5
122BA
  8
0
  6
BYBLOCK
 62
     0
 10
26084.28193881737
 20
9389.1900500000029
 30
0.0
 40
15.0
 50
0.0
 51
180.0
  0
ARC
  5
122BB
  8
0
  6
BYBLOCK
 62
     0
 10
26127.28193881737
 20
9389.1900500000029
 30
0.0
 40
15.0
 50
0.0
 51
180.0
  0
ARC
  5
122BC
  8
0
  6
BYBLOCK
 62
     0
 10
26127.28193881737
 20
9389.1900500000029
 30
0.0
 40
15.0
 50
180.0
 51
0.0
  0
ARC
  5
122BD
  8
0
  6
BYBLOCK
 62
     0
 10
20631.781938817359
 20
9389.1900500000029
 30
0.0
 40
15.0
 50
0.0
 51
180.0
  0
ARC
  5
122BE
  8
0
  6
BYBLOCK
 62
     0
 10
20631.781938817359
 20
9389.1900500000029
 30
0.0
 40
15.0
 50
180.0
 51
0.0
  0
ARC
  5
122BF
  8
0
  6
BYBLOCK
 62
     0
 10
20588.781938817359
 20
9389.1900500000029
 30
0.0
 40
15.0
 50
180.0
 51
0.0
  0
ARC
  5
122C0
  8
0
  6
BYBLOCK
 62
     0
 10
20588.781938817359
 20
9389.1900500000029
 30
0.0
 40
15.0
 50
0.0
 51
180.0
  0
ARC
  5
122C1
  8
0
  6
BYBLOCK
 62
     0
 10
23284.28193881737
 20
9389.1900500000029
 30
0.0
 40
15.0
 50
180.0
 51
0.0
  0
ARC
  5
122C2
  8
0
  6
BYBLOCK
 62
     0
 10
23284.28193881737
 20
9389.1900500000029
 30
0.0
 40
15.0
 50
0.0
 51
180.0
  0
ARC
  5
122C3
  8
0
  6
BYBLOCK
 62
     0
 10
20631.781938817359
 20
9389.1900500000029
 30
0.0
 40
15.0
 50
0.0
 51
180.0
  0
ARC
  5
122C4
  8
0
  6
BYBLOCK
 62
     0
 10
20631.781938817359
 20
9389.1900500000029
 30
0.0
 40
15.0
 50
180.0
 51
0.0
  0
ARC
  5
122C5
  8
0
  6
BYBLOCK
 62
     0
 10
19424.279299817372
 20
6241.1883740000021
 30
0.0
 40
15.0
 50
90.0
 51
270.0
  0
ARC
  5
122C6
  8
0
  6
BYBLOCK
 62
     0
 10
19424.279299817372
 20
6241.1883740000021
 30
0.0
 40
15.0
 50
270.0
 51
90.0
  0
ARC
  5
122C7
  8
0
  6
BYBLOCK
 62
     0
 10
19424.279299817372
 20
8589.6883999999973
 30
0.0
 40
15.0
 50
270.0
 51
90.0
  0
ARC
  5
122C8
  8
0
  6
BYBLOCK
 62
     0
 10
19424.279299817372
 20
8589.6883999999973
 30
0.0
 40
15.0
 50
90.0
 51
270.0
  0
ARC
  5
122C9
  8
0
  6
BYBLOCK
 62
     0
 10
19824.278639817381
 20
6241.1883740000021
 30
0.0
 40
15.0
 50
90.0
 51
270.0
  0
ARC
  5
122CA
  8
0
  6
BYBLOCK
 62
     0
 10
19824.278639817381
 20
6241.1883740000021
 30
0.0
 40
15.0
 50
270.0
 51
90.0
  0
ARC
  5
122CB
  8
0
  6
BYBLOCK
 62
     0
 10
19824.278639817381
 20
8132.6883740000021
 30
0.0
 40
15.0
 50
270.0
 51
90.0
  0
ARC
  5
122CC
  8
0
  6
BYBLOCK
 62
     0
 10
19824.278639817381
 20
8132.6883740000021
 30
0.0
 40
15.0
 50
90.0
 51
270.0
  0
ARC
  5
122CD
  8
0
  6
BYBLOCK
 62
     0
 10
23287.28193881737
 20
5341.188374000003
 30
0.0
 40
15.0
 50
0.0
 51
180.0
  0
ARC
  5
122CE
  8
0
  6
BYBLOCK
 62
     0
 10
23287.28193881737
 20
5341.188374000003
 30
0.0
 40
15.0
 50
180.0
 51
0.0
  0
ARC
  5
122CF
  8
0
  6
BYBLOCK
 62
     0
 10
25999.281938817381
 20
5341.188374000003
 30
0.0
 40
15.0
 50
180.0
 51
0.0
  0
ARC
  5
122D0
  8
0
  6
BYBLOCK
 62
     0
 10
25999.281938817381
 20
5341.188374000003
 30
0.0
 40
15.0
 50
0.0
 51
180.0
  0
ARC
  5
122D1
  8
0
  6
BYBLOCK
 62
     0
 10
20631.82189176491
 20
4541.1887040000556
 30
0.0
 40
15.0
 50
0.0
 51
180.0
  0
ARC
  5
122D2
  8
0
  6
BYBLOCK
 62
     0
 10
20631.82189176491
 20
4541.1887040000556
 30
0.0
 40
15.0
 50
180.0
 51
0.0
  0
ARC
  5
122D3
  8
0
  6
BYBLOCK
 62
     0
 10
26084.28193881737
 20
4541.1887040000556
 30
0.0
 40
15.0
 50
180.0
 51
0.0
  0
ARC
  5
122D4
  8
0
  6
BYBLOCK
 62
     0
 10
26084.28193881737
 20
4541.1887040000556
 30
0.0
 40
15.0
 50
0.0
 51
180.0
  0
ARC
  5
122D5
  8
0
  6
BYBLOCK
 62
     0
 10
20674.281938817359
 20
4941.1885390000016
 30
0.0
 40
15.0
 50
0.0
 51
180.0
  0
ARC
  5
122D6
  8
0
  6
BYBLOCK
 62
     0
 10
20674.281938817359
 20
4941.1885390000016
 30
0.0
 40
15.0
 50
180.0
 51
0.0
  0
ARC
  5
122D7
  8
0
  6
BYBLOCK
 62
     0
 10
20631.82189176491
 20
4941.1885390000016
 30
0.0
 40
15.0
 50
180.0
 51
0.0
  0
ARC
  5
122D8
  8
0
  6
BYBLOCK
 62
     0
 10
20631.82189176491
 20
4941.1885390000016
 30
0.0
 40
15.0
 50
0.0
 51
180.0
  0
ARC
  5
122D9
  8
0
  6
BYBLOCK
 62
     0
 10
23241.781938817381
 20
4941.1885390000016
 30
0.0
 40
15.0
 50
180.0
 51
0.0
  0
ARC
  5
122DA
  8
0
  6
BYBLOCK
 62
     0
 10
23241.781938817381
 20
4941.1885390000016
 30
0.0
 40
15.0
 50
0.0
 51
180.0
  0
ARC
  5
122DB
  8
0
  6
BYBLOCK
 62
     0
 10
20674.281938817359
 20
4941.1885390000016
 30
0.0
 40
15.0
 50
0.0
 51
180.0
  0
ARC
  5
122DC
  8
0
  6
BYBLOCK
 62
     0
 10
20674.281938817359
 20
4941.1885390000016
 30
0.0
 40
15.0
 50
180.0
 51
0.0
  0
ARC
  5
122DD
  8
0
  6
BYBLOCK
 62
     0
 10
20768.281938817359
 20
5341.188374000003
 30
0.0
 40
15.0
 50
0.0
 51
180.0
  0
ARC
  5
122DE
  8
0
  6
BYBLOCK
 62
     0
 10
20768.281938817359
 20
5341.188374000003
 30
0.0
 40
15.0
 50
180.0
 51
0.0
  0
ARC
  5
122DF
  8
0
  6
BYBLOCK
 62
     0
 10
23147.781938817359
 20
5341.188374000003
 30
0.0
 40
15.0
 50
180.0
 51
0.0
  0
ARC
  5
122E0
  8
0
  6
BYBLOCK
 62
     0
 10
23147.781938817359
 20
5341.188374000003
 30
0.0
 40
15.0
 50
0.0
 51
180.0
  0
ARC
  5
122E1
  8
0
  6
BYBLOCK
 62
     0
 10
26041.78193881737
 20
4941.1885390000016
 30
0.0
 40
15.0
 50
180.0
 51
0.0
  0
ARC
  5
122E2
  8
0
  6
BYBLOCK
 62
     0
 10
26041.78193881737
 20
4941.1885390000016
 30
0.0
 40
15.0
 50
0.0
 51
180.0
  0
ARC
  5
122E3
  8
0
  6
BYBLOCK
 62
     0
 10
26084.28193881737
 20
4941.1885390000016
 30
0.0
 40
15.0
 50
0.0
 51
180.0
  0
ARC
  5
122E4
  8
0
  6
BYBLOCK
 62
     0
 10
26084.28193881737
 20
4941.1885390000016
 30
0.0
 40
15.0
 50
180.0
 51
0.0
  0
ARC
  5
122E5
  8
0
  6
BYBLOCK
 62
     0
 10
23241.781938817381
 20
4941.1885390000016
 30
0.0
 40
15.0
 50
0.0
 51
180.0
  0
ARC
  5
122E6
  8
0
  6
BYBLOCK
 62
     0
 10
23241.781938817381
 20
4941.1885390000016
 30
0.0
 40
15.0
 50
180.0
 51
0.0
  0
ARC
  5
122E7
  8
0
  6
BYBLOCK
 62
     0
 10
26041.78193881737
 20
4941.1885390000016
 30
0.0
 40
15.0
 50
180.0
 51
0.0
  0
ARC
  5
122E8
  8
0
  6
BYBLOCK
 62
     0
 10
26041.78193881737
 20
4941.1885390000016
 30
0.0
 40
15.0
 50
0.0
 51
180.0
  0
ARC
  5
122E9
  8
0
  6
BYBLOCK
 62
     0
 10
23284.28193881737
 20
9389.1900500000029
 30
0.0
 40
15.0
 50
0.0
 51
180.0
  0
ARC
  5
122EA
  8
0
  6
BYBLOCK
 62
     0
 10
23284.28193881737
 20
9389.1900500000029
 30
0.0
 40
15.0
 50
180.0
 51
0.0
  0
ARC
  5
122EB
  8
0
  6
BYBLOCK
 62
     0
 10
26084.28193881737
 20
9389.1900500000029
 30
0.0
 40
15.0
 50
180.0
 51
0.0
  0
ARC
  5
122EC
  8
0
  6
BYBLOCK
 62
     0
 10
26084.28193881737
 20
9389.1900500000029
 30
0.0
 40
15.0
 50
0.0
 51
180.0
  0
ARC
  5
122ED
  8
0
  6
BYBLOCK
 62
     0
 10
27294.104337111748
 20
6242.0026619999999
 30
0.0
 40
15.0
 50
90.0
 51
270.0
  0
ARC
  5
122EE
  8
0
  6
BYBLOCK
 62
     0
 10
27294.104337111748
 20
6242.0026619999999
 30
0.0
 40
15.0
 50
270.0
 51
90.0
  0
ARC
  5
122EF
  8
0
  6
BYBLOCK
 62
     0
 10
27294.104337111748
 20
8262.0026620000026
 30
0.0
 40
15.0
 50
270.0
 51
90.0
  0
ARC
  5
122F0
  8
0
  6
BYBLOCK
 62
     0
 10
27294.104337111748
 20
8262.0026620000026
 30
0.0
 40
15.0
 50
90.0
 51
270.0
  0
ARC
  5
12361
  8
0
  6
BYBLOCK
 62
     0
 10
8522.816553438046
 20
9789.1883999999955
 30
0.0
 40
15.0
 50
0.0
 51
180.0
  0
ARC
  5
12362
  8
0
  6
BYBLOCK
 62
     0
 10
8522.816553438046
 20
9789.1883999999955
 30
0.0
 40
15.0
 50
180.0
 51
0.0
  0
ARC
  5
12363
  8
0
  6
BYBLOCK
 62
     0
 10
14423.31655343803
 20
9789.1883999999955
 30
0.0
 40
15.0
 50
180.0
 51
0.0
  0
ARC
  5
12364
  8
0
  6
BYBLOCK
 62
     0
 10
14423.31655343803
 20
9789.1883999999955
 30
0.0
 40
15.0
 50
0.0
 51
180.0
  0
ARC
  5
12365
  8
0
  6
BYBLOCK
 62
     0
 10
14273.316553438041
 20
9389.1900499999992
 30
0.0
 40
15.0
 50
180.0
 51
0.0
  0
ARC
  5
12366
  8
0
  6
BYBLOCK
 62
     0
 10
14273.316553438041
 20
9389.1900499999992
 30
0.0
 40
15.0
 50
0.0
 51
180.0
  0
ARC
  5
12367
  8
0
  6
BYBLOCK
 62
     0
 10
14423.31655343803
 20
9389.1900499999992
 30
0.0
 40
15.0
 50
0.0
 51
180.0
  0
ARC
  5
12368
  8
0
  6
BYBLOCK
 62
     0
 10
14423.31655343803
 20
9389.1900499999992
 30
0.0
 40
15.0
 50
180.0
 51
0.0
  0
ARC
  5
12369
  8
0
  6
BYBLOCK
 62
     0
 10
8702.8165534380441
 20
9389.1900499999992
 30
0.0
 40
15.0
 50
0.0
 51
180.0
  0
ARC
  5
1236A
  8
0
  6
BYBLOCK
 62
     0
 10
8702.8165534380441
 20
9389.1900499999992
 30
0.0
 40
15.0
 50
180.0
 51
0.0
  0
ARC
  5
1236B
  8
0
  6
BYBLOCK
 62
     0
 10
14273.316553438041
 20
9389.1900499999992
 30
0.0
 40
15.0
 50
180.0
 51
0.0
  0
ARC
  5
1236C
  8
0
  6
BYBLOCK
 62
     0
 10
14273.316553438041
 20
9389.1900499999992
 30
0.0
 40
15.0
 50
0.0
 51
180.0
  0
ARC
  5
1236D
  8
0
  6
BYBLOCK
 62
     0
 10
8522.816553438046
 20
9389.1900499999992
 30
0.0
 40
15.0
 50
0.0
 51
180.0
  0
ARC
  5
1236E
  8
0
  6
BYBLOCK
 62
     0
 10
8522.816553438046
 20
9389.1900499999992
 30
0.0
 40
15.0
 50
180.0
 51
0.0
  0
ARC
  5
1236F
  8
0
  6
BYBLOCK
 62
     0
 10
8702.8165534380441
 20
9389.1900499999992
 30
0.0
 40
15.0
 50
180.0
 51
0.0
  0
ARC
  5
12370
  8
0
  6
BYBLOCK
 62
     0
 10
8702.8165534380441
 20
9389.1900499999992
 30
0.0
 40
15.0
 50
0.0
 51
180.0
  0
ARC
  5
12371
  8
0
  6
BYBLOCK
 62
     0
 10
15363.316949438031
 20
6241.1883740000012
 30
0.0
 40
15.0
 50
90.0
 51
270.0
  0
ARC
  5
12372
  8
0
  6
BYBLOCK
 62
     0
 10
15363.316949438031
 20
6241.1883740000012
 30
0.0
 40
15.0
 50
270.0
 51
90.0
  0
ARC
  5
12373
  8
0
  6
BYBLOCK
 62
     0
 10
15363.316949438031
 20
8589.6883740000012
 30
0.0
 40
15.0
 50
270.0
 51
90.0
  0
ARC
  5
12374
  8
0
  6
BYBLOCK
 62
     0
 10
15363.316949438031
 20
8589.6883740000012
 30
0.0
 40
15.0
 50
90.0
 51
270.0
  0
ARC
  5
12375
  8
0
  6
BYBLOCK
 62
     0
 10
7612.8161574380574
 20
6241.1883740000012
 30
0.0
 40
15.0
 50
90.0
 51
270.0
  0
ARC
  5
12376
  8
0
  6
BYBLOCK
 62
     0
 10
7612.8161574380574
 20
6241.1883740000012
 30
0.0
 40
15.0
 50
270.0
 51
90.0
  0
ARC
  5
12377
  8
0
  6
BYBLOCK
 62
     0
 10
7612.8161574380574
 20
8397.1883739999994
 30
0.0
 40
15.0
 50
270.0
 51
90.0
  0
ARC
  5
12378
  8
0
  6
BYBLOCK
 62
     0
 10
7612.8161574380574
 20
8397.1883739999994
 30
0.0
 40
15.0
 50
90.0
 51
270.0
  0
ARC
  5
12379
  8
0
  6
BYBLOCK
 62
     0
 10
8702.8165534380441
 20
4541.1887039999947
 30
0.0
 40
15.0
 50
0.0
 51
180.0
  0
ARC
  5
1237A
  8
0
  6
BYBLOCK
 62
     0
 10
8702.8165534380441
 20
4541.1887039999947
 30
0.0
 40
15.0
 50
180.0
 51
0.0
  0
ARC
  5
1237B
  8
0
  6
BYBLOCK
 62
     0
 10
14273.316553438041
 20
4541.1887039999947
 30
0.0
 40
15.0
 50
180.0
 51
0.0
  0
ARC
  5
1237C
  8
0
  6
BYBLOCK
 62
     0
 10
14273.316553438041
 20
4541.1887039999947
 30
0.0
 40
15.0
 50
0.0
 51
180.0
  0
ARC
  5
1237D
  8
0
  6
BYBLOCK
 62
     0
 10
14230.81655343803
 20
4941.1885390000016
 30
0.0
 40
15.0
 50
180.0
 51
0.0
  0
ARC
  5
1237E
  8
0
  6
BYBLOCK
 62
     0
 10
14230.81655343803
 20
4941.1885390000016
 30
0.0
 40
15.0
 50
0.0
 51
180.0
  0
ARC
  5
1237F
  8
0
  6
BYBLOCK
 62
     0
 10
14273.316553438041
 20
4941.1885390000016
 30
0.0
 40
15.0
 50
0.0
 51
180.0
  0
ARC
  5
12380
  8
0
  6
BYBLOCK
 62
     0
 10
14273.316553438041
 20
4941.1885390000016
 30
0.0
 40
15.0
 50
180.0
 51
0.0
  0
ARC
  5
12381
  8
0
  6
BYBLOCK
 62
     0
 10
8745.3165534380423
 20
4941.1885390000016
 30
0.0
 40
15.0
 50
0.0
 51
180.0
  0
ARC
  5
12382
  8
0
  6
BYBLOCK
 62
     0
 10
8745.3165534380423
 20
4941.1885390000016
 30
0.0
 40
15.0
 50
180.0
 51
0.0
  0
ARC
  5
12383
  8
0
  6
BYBLOCK
 62
     0
 10
8702.8165534380441
 20
4941.1885390000016
 30
0.0
 40
15.0
 50
180.0
 51
0.0
  0
ARC
  5
12384
  8
0
  6
BYBLOCK
 62
     0
 10
8702.8165534380441
 20
4941.1885390000016
 30
0.0
 40
15.0
 50
0.0
 51
180.0
  0
ARC
  5
12385
  8
0
  6
BYBLOCK
 62
     0
 10
11312.816553438041
 20
4941.1885390000016
 30
0.0
 40
15.0
 50
180.0
 51
0.0
  0
ARC
  5
12386
  8
0
  6
BYBLOCK
 62
     0
 10
11312.816553438041
 20
4941.1885390000016
 30
0.0
 40
15.0
 50
0.0
 51
180.0
  0
ARC
  5
12387
  8
0
  6
BYBLOCK
 62
     0
 10
8745.3165534380423
 20
4941.1885390000016
 30
0.0
 40
15.0
 50
0.0
 51
180.0
  0
ARC
  5
12388
  8
0
  6
BYBLOCK
 62
     0
 10
8745.3165534380423
 20
4941.1885390000016
 30
0.0
 40
15.0
 50
180.0
 51
0.0
  0
ARC
  5
12389
  8
0
  6
BYBLOCK
 62
     0
 10
11312.816553438041
 20
4941.1885390000016
 30
0.0
 40
15.0
 50
0.0
 51
180.0
  0
ARC
  5
1238A
  8
0
  6
BYBLOCK
 62
     0
 10
11312.816553438041
 20
4941.1885390000016
 30
0.0
 40
15.0
 50
180.0
 51
0.0
  0
ARC
  5
1238B
  8
0
  6
BYBLOCK
 62
     0
 10
14230.81655343803
 20
4941.1885390000016
 30
0.0
 40
15.0
 50
180.0
 51
0.0
  0
ARC
  5
1238C
  8
0
  6
BYBLOCK
 62
     0
 10
14230.81655343803
 20
4941.1885390000016
 30
0.0
 40
15.0
 50
0.0
 51
180.0
  0
TEXT
  5
1248A
  8
NAME
 10
21595.82616625919
 20
1076.6369801169251
 30
0.0
 40
360.0
  1
VGC-2655（H）+VKC-2855（H）型-R（単棟）
 41
0.45
  0
TEXT
  5
1248B
  8
NAME
 10
21933.552716389011
 20
1876.0
 30
0.0
 40
360.0
  1
ヨドガレージ ラヴィージュ
 41
0.75
  7
01
  0
LINE
  5
1248C
  8
NAME
  6
CONTINUOUS
 10
26067.886878884299
 20
2236.0
 30
0.0
 11
26067.886878884299
 21
1876.0
 31
0.0
  0
LINE
  5
1248D
  8
NAME
  6
CONTINUOUS
 10
26167.886878884299
 20
2236.0
 30
0.0
 11
26167.886878884299
 21
1876.0
 31
0.0
  0
LINE
  5
1248E
  8
NAME
  6
CONTINUOUS
 10
26267.88687888431
 20
2236.0
 30
0.0
 11
26267.88687888431
 21
1876.0
 31
0.0
  0
LINE
  5
1248F
  8
NAME
  6
CONTINUOUS
 10
26007.886878884299
 20
2236.0
 30
0.0
 11
26327.886878884299
 21
2236.0
 31
0.0
  0
LINE
  5
12490
  8
NAME
  6
CONTINUOUS
 10
26327.886878884299
 20
1876.0
 30
0.0
 11
26007.886878884299
 21
1876.0
 31
0.0
  0
TEXT
  5
1365C
  8
2-0
  6
CONTINUOUS
 62
     7
 10
22202.076865909621
 20
11251.104442
 30
0.0
 40
160.0
  1
平　面　図
 72
     4
 11
22655.41019924295
 21
11325.77110866667
 31
0.0
  0
TEXT
  5
1365D
  8
2-0
  6
CONTINUOUS
 62
     7
 10
10492.65958655853
 20
11156.81700299998
 30
0.0
 40
160.0
  1
小 屋 伏 図
 72
     4
 11
10993.992919891871
 21
11236.81700299998
 31
0.0
  0
TEXT
  5
1365E
  8
2-0
  6
CONTINUOUS
 62
     7
 10
24006.902384380592
 20
11272.96647766667
 30
0.0
 40
160.0
  1
1
 72
     4
 11
24033.56905104726
 21
11352.96647766667
 31
0.0
  0
TEXT
  5
1365F
  8
2-0
  6
CONTINUOUS
 62
     7
 10
24249.99110163128
 20
11192.967945666671
 30
0.0
 40
160.0
  1
80
 72
     4
 11
24369.99110163128
 21
11272.967945666671
 31
0.0
  0
TEXT
  5
13660
  8
2-0
  6
CONTINUOUS
 62
     7
 10
23507.904350380581
 20
11245.77110866667
 30
0.0
 40
160.0
  1
(S=  /   )
 72
     4
 11
24067.904350380581
 21
11325.77110866667
 31
0.0
  0
TEXT
  5
13661
  8
2-0
  6
CONTINUOUS
 62
     7
 10
12345.485105029489
 20
11184.01237199999
 30
0.0
 40
160.0
  1
1
 72
     4
 11
12372.151771696161
 21
11264.01237199999
 31
0.0
  0
TEXT
  5
13662
  8
2-0
  6
CONTINUOUS
 62
     7
 10
12588.57382228019
 20
11104.013839999991
 30
0.0
 40
160.0
  1
80
 72
     4
 11
12708.57382228019
 21
11184.013839999991
 31
0.0
  0
TEXT
  5
13663
  8
2-0
  6
CONTINUOUS
 62
     7
 10
11846.487071029491
 20
11156.81700299998
 30
0.0
 40
160.0
  1
(S=  /   )
 72
     4
 11
12406.487071029491
 21
11236.81700299998
 31
0.0
  0
LINE
  5
13664
  8
2-0
  6
CENTER2
 62
     6
 10
23241.78193881737
 20
20960.488495000001
 30
0.0
 11
23241.78193881737
 21
19101.48680599999
 31
0.0
  0
LINE
  5
13665
  8
2-0
  6
CENTER2
 62
     6
 10
20674.28193881737
 20
20960.488495000001
 30
0.0
 11
20674.28193881737
 21
19101.48680599999
 31
0.0
  0
LINE
  5
13666
  8
2-0
  6
CENTER2
 62
     6
 10
18631.781015817389
 20
19317.986251999999
 30
0.0
 11
19351.779695817389
 21
19317.986251999999
 31
0.0
  0
LINE
  5
13667
  8
2-0
  6
CENTER2
 62
     6
 10
19511.779695817389
 20
19317.986251999999
 30
0.0
 11
26346.3867747693
 21
19317.986251999999
 31
0.0
  0
LINE
  5
13668
  8
2-0
  6
CENTER2
 62
     6
 10
18631.781015817371
 20
16750.486251999999
 30
0.0
 11
18878.589384746469
 21
16750.486251999999
 31
0.0
  0
LINE
  5
13669
  8
2-0
  6
CENTER2
 62
     6
 10
19501.782334817392
 20
16750.48625200001
 30
0.0
 11
26346.3867747693
 21
16750.486251999999
 31
0.0
  0
LINE
  5
1366A
  8
2-0
  6
CENTER2
 62
     6
 10
18631.781015817389
 20
13832.486252000001
 30
0.0
 11
19351.779695817389
 21
13832.486252000001
 31
0.0
  0
LINE
  5
1366B
  8
2-0
  6
CENTER2
 62
     6
 10
19511.779695817389
 20
13832.486252000001
 30
0.0
 11
26346.3867747693
 21
13832.486252000001
 31
0.0
  0
CIRCLE
  5
1366C
  8
0-5
  6
CONTINUOUS
 62
     4
 10
23241.78193881737
 20
21160.487175999991
 30
0.0
 40
199.9999949999999
  0
CIRCLE
  5
1366D
  8
0-5
  6
CONTINUOUS
 62
     4
 10
18431.780355817391
 20
19317.986251999999
 30
0.0
 40
199.9999949999999
  0
CIRCLE
  5
1366E
  8
0-5
  6
CONTINUOUS
 62
     4
 10
18431.78035581738
 20
16750.486251999999
 30
0.0
 40
199.9999949999999
  0
CIRCLE
  5
1366F
  8
0-5
  6
CONTINUOUS
 62
     4
 10
18431.780355817391
 20
13832.486252000001
 30
0.0
 40
199.9999949999999
  0
CIRCLE
  5
13670
  8
0-5
  6
CONTINUOUS
 62
     4
 10
20674.28193881737
 20
21160.487175999991
 30
0.0
 40
199.9999949999999
  0
TEXT
  5
13671
  8
0-5
  6
CONTINUOUS
 62
     7
 10
23187.111594817368
 20
21074.261326000011
 30
0.0
 40
160.0
  1
2
 72
     4
 11
23240.4449281507
 21
21154.261326000011
 31
0.0
  0
TEXT
  5
13672
  8
0-5
  6
CONTINUOUS
 62
     7
 10
20647.615272150699
 20
21080.487175999991
 30
0.0
 40
160.0
  1
1
 72
     4
 11
20674.28193881737
 21
21160.487175999991
 31
0.0
  0
TEXT
  5
13673
  8
0-5
  6
CONTINUOUS
 62
     7
 10
18383.103993817382
 20
19226.368192999998
 30
0.0
 40
160.0
  1
C
 72
     4
 11
18436.437327150721
 21
19306.368192999998
 31
0.0
  0
TEXT
  5
13674
  8
0-5
  6
CONTINUOUS
 62
     7
 10
18383.103993817382
 20
16658.868193999999
 30
0.0
 40
160.0
  1
B
 72
     4
 11
18436.437327150721
 21
16738.868193999999
 31
0.0
  0
TEXT
  5
13675
  8
0-5
  6
CONTINUOUS
 62
     7
 10
18383.103993817382
 20
13740.86819299998
 30
0.0
 40
160.0
  1
A
 72
     4
 11
18436.437327150721
 21
13820.86819299998
 31
0.0
  0
LINE
  5
13676
  8
2-0
  6
CENTER2
 62
     6
 10
26041.78193881737
 20
20960.488495000001
 30
0.0
 11
26041.78193881737
 21
13474.73237353158
 31
0.0
  0
CIRCLE
  5
13677
  8
0-5
  6
CONTINUOUS
 62
     4
 10
26041.78193881737
 20
21160.487175999991
 30
0.0
 40
199.9999949999999
  0
TEXT
  5
13678
  8
0-5
  6
CONTINUOUS
 62
     7
 10
25987.111594817379
 20
21074.261326000011
 30
0.0
 40
160.0
  1
3
 72
     4
 11
26040.444928150711
 21
21154.261326000011
 31
0.0
  0
ARC
  5
13679
  8
1-後柱P
  6
HIDE-M
 62
     6
 10
26045.381938817369
 20
19249.936251999989
 30
0.0
 40
2.6000000000000001
 50
180.0
 51
270.0
  0
LINE
  5
1367A
  8
1-後柱P
  6
HIDE-M
 62
     6
 10
26033.78193881737
 20
19247.886861846811
 30
0.0
 11
26033.78193881737
 21
19251.536252000002
 31
0.0
  0
LINE
  5
1367B
  8
1-後柱P
  6
HIDE-M
 62
     6
 10
26043.78193881737
 20
19247.886861846811
 30
0.0
 11
26043.78193881737
 21
19251.536252000002
 31
0.0
  0
LINE
  5
1367C
  8
1-後柱P
  6
1PL-M
 62
     6
 10
26038.78193881737
 20
19242.33625199999
 30
0.0
 11
26038.78193881737
 21
19256.536252000002
 31
0.0
  0
ARC
  5
1367D
  8
1-後柱P
  6
HIDE-M
 62
     6
 10
26032.181938817372
 20
19249.936251999989
 30
0.0
 40
2.6000000000000001
 50
270.0
 51
0.0
  0
LINE
  5
1367E
  8
1-後柱P
  6
HIDE-M
 62
     6
 10
26042.78193881737
 20
19249.936251999989
 30
0.0
 11
26042.78193881737
 21
19251.536252000002
 31
0.0
  0
LINE
  5
1367F
  8
1-後柱P
  6
HIDE-M
 62
     6
 10
26034.78193881737
 20
19249.936251999989
 30
0.0
 11
26034.78193881737
 21
19251.536252000002
 31
0.0
  0
LINE
  5
13680
  8
1-後柱P
 10
26052.681938817372
 20
19362.236251999999
 30
0.0
 11
26030.881938817362
 21
19362.236251999999
 31
0.0
  0
LINE
  5
13681
  8
1-後柱P
 10
26000.881938817369
 20
19324.936251999989
 30
0.0
 11
26000.881938817369
 21
19332.236251999999
 31
0.0
  0
ARC
  5
13682
  8
1-後柱P
 10
26030.881938817362
 20
19332.236251999999
 30
0.0
 40
30.0
 50
90.0
 51
180.0
  0
ARC
  5
13683
  8
1-後柱P
 10
26030.881938817362
 20
19332.236251999999
 30
0.0
 40
31.600000000000001
 50
90.0
 51
180.0
  0
LINE
  5
13684
  8
1-後柱P
 10
26052.681938817372
 20
19363.83625199999
 30
0.0
 11
26030.881938817362
 21
19363.83625199999
 31
0.0
  0
LINE
  5
13685
  8
1-後柱P
 10
25999.28193881737
 20
19324.936251999989
 30
0.0
 11
25999.28193881737
 21
19332.236251999999
 31
0.0
  0
LINE
  5
13686
  8
1-後柱P
 10
26022.28193881737
 20
19303.33625199999
 30
0.0
 11
26022.28193881737
 21
19313.33625199999
 31
0.0
  0
LINE
  5
13687
  8
1-後柱P
 10
26023.881938817369
 20
19313.33625199999
 30
0.0
 11
26023.881938817369
 21
19303.33625199999
 31
0.0
  0
LINE
  5
13688
  8
1-後柱P
 10
26082.681938817372
 20
19324.936251999989
 30
0.0
 11
26082.681938817372
 21
19332.236251999999
 31
0.0
  0
ARC
  5
13689
  8
1-後柱P
 10
26052.681938817372
 20
19332.236251999999
 30
0.0
 40
30.0
 50
0.0
 51
90.0
  0
ARC
  5
1368A
  8
1-後柱P
 10
26052.681938817372
 20
19332.236251999999
 30
0.0
 40
31.600000000000001
 50
0.0
 51
90.0
  0
LINE
  5
1368B
  8
1-後柱P
 10
26084.28193881737
 20
19324.936251999989
 30
0.0
 11
26084.28193881737
 21
19332.236251999999
 31
0.0
  0
LINE
  5
1368C
  8
1-後柱P
 10
26077.681938817401
 20
19318.336252000001
 30
0.0
 11
26066.28193881737
 21
19318.336252000001
 31
0.0
  0
ARC
  5
1368D
  8
1-後柱P
 10
26077.681938817401
 20
19324.936251999989
 30
0.0
 40
6.599999999999997
 50
270.0
 51
0.0
  0
ARC
  5
1368E
  8
1-後柱P
 10
26066.28193881737
 20
19313.33625199999
 30
0.0
 40
5.0
 50
90.0
 51
180.0
  0
LINE
  5
1368F
  8
1-後柱P
 10
26077.681938817401
 20
19319.936251999989
 30
0.0
 11
26066.28193881737
 21
19319.936251999989
 31
0.0
  0
ARC
  5
13690
  8
1-後柱P
 10
26077.681938817401
 20
19324.936251999989
 30
0.0
 40
5.0
 50
270.0
 51
0.0
  0
LINE
  5
13691
  8
1-後柱P
 10
26061.28193881737
 20
19313.33625199999
 30
0.0
 11
26061.28193881737
 21
19253.936251999989
 31
0.0
  0
LINE
  5
13692
  8
1-後柱P
 10
26059.681938817372
 20
19313.33625199999
 30
0.0
 11
26059.681938817372
 21
19253.936251999989
 31
0.0
  0
ARC
  5
13693
  8
1-後柱P
 10
26066.28193881737
 20
19313.33625199999
 30
0.0
 40
6.599999999999997
 50
90.0
 51
180.0
  0
LINE
  5
13694
  8
1-後柱P
 10
26054.681938817401
 20
19247.336252000001
 30
0.0
 11
26021.28193881737
 21
19247.336252000001
 31
0.0
  0
ARC
  5
13695
  8
1-後柱P
 10
26054.681938817401
 20
19253.936251999989
 30
0.0
 40
6.599999999999997
 50
270.0
 51
0.0
  0
LINE
  5
13696
  8
1-後柱P
 10
26054.681938817401
 20
19248.936251999989
 30
0.0
 11
26021.28193881737
 21
19248.936251999989
 31
0.0
  0
ARC
  5
13697
  8
1-後柱P
 10
26054.681938817401
 20
19253.936251999989
 30
0.0
 40
5.0
 50
270.0
 51
0.0
  0
LINE
  5
13698
  8
1-後柱P
 10
26021.28193881737
 20
19248.936251999989
 30
0.0
 11
26021.28193881737
 21
19247.336252000001
 31
0.0
  0
LINE
  5
13699
  8
1-後柱P
 10
26005.881938817369
 20
19318.336252000001
 30
0.0
 11
26017.28193881737
 21
19318.336252000001
 31
0.0
  0
ARC
  5
1369A
  8
1-後柱P
 10
26005.881938817369
 20
19324.936251999989
 30
0.0
 40
6.599999999999997
 50
180.0
 51
270.0
  0
ARC
  5
1369B
  8
1-後柱P
 10
26017.28193881737
 20
19313.33625199999
 30
0.0
 40
5.0
 50
0.0
 51
90.0
  0
LINE
  5
1369C
  8
1-後柱P
 10
26017.28193881737
 20
19319.936251999989
 30
0.0
 11
26005.881938817369
 21
19319.936251999989
 31
0.0
  0
ARC
  5
1369D
  8
1-後柱P
 10
26017.28193881737
 20
19313.33625199999
 30
0.0
 40
6.599999999999997
 50
0.0
 51
90.0
  0
ARC
  5
1369E
  8
1-後柱P
 10
26005.881938817369
 20
19324.936251999989
 30
0.0
 40
5.0
 50
180.0
 51
270.0
  0
LINE
  5
1369F
  8
1-後柱P
 10
26022.28193881737
 20
19303.33625199999
 30
0.0
 11
26023.881938817369
 21
19303.33625199999
 31
0.0
  0
LINE
  5
136A0
  8
1-後柱カバ-P
 10
25999.28193881737
 20
19311.636252
 30
0.0
 11
25999.28193881737
 21
19252.33625199999
 31
0.0
  0
ARC
  5
136A1
  8
1-後柱カバ-P
 10
26005.881938817369
 20
19252.33625199999
 30
0.0
 40
6.599999999999997
 50
180.0
 51
270.0
  0
LINE
  5
136A2
  8
1-後柱カバ-P
 10
26000.881938817369
 20
19311.636252
 30
0.0
 11
26000.881938817369
 21
19252.33625199999
 31
0.0
  0
ARC
  5
136A3
  8
1-後柱カバ-P
 10
26005.881938817369
 20
19311.636252
 30
0.0
 40
5.0
 50
90.0
 51
180.0
  0
LINE
  5
136A4
  8
1-後柱カバ-P
 10
26005.881938817369
 20
19245.736251999999
 30
0.0
 11
26077.681938817401
 21
19245.736251999999
 31
0.0
  0
ARC
  5
136A5
  8
1-後柱カバ-P
 10
26077.681938817401
 20
19252.33625199999
 30
0.0
 40
6.599999999999997
 50
270.0
 51
0.0
  0
LINE
  5
136A6
  8
1-後柱カバ-P
 10
26005.881938817369
 20
19247.336252000001
 30
0.0
 11
26077.681938817401
 21
19247.336252000001
 31
0.0
  0
ARC
  5
136A7
  8
1-後柱カバ-P
 10
26077.681938817401
 20
19252.33625199999
 30
0.0
 40
5.0
 50
270.0
 51
0.0
  0
ARC
  5
136A8
  8
1-後柱カバ-P
 10
26005.881938817369
 20
19252.33625199999
 30
0.0
 40
5.0
 50
180.0
 51
270.0
  0
LINE
  5
136A9
  8
1-後柱カバ-P
 10
26084.28193881737
 20
19252.33625199999
 30
0.0
 11
26084.28193881737
 21
19311.636252
 31
0.0
  0
LINE
  5
136AA
  8
1-後柱カバ-P
 10
26082.681938817372
 20
19252.33625199999
 30
0.0
 11
26082.681938817372
 21
19311.636252
 31
0.0
  0
ARC
  5
136AB
  8
1-後柱カバ-P
 10
26077.681938817401
 20
19311.636252
 30
0.0
 40
5.0
 50
0.0
 51
90.0
  0
LINE
  5
136AC
  8
1-後柱カバ-P
  6
1PL-M
 62
     6
 10
26041.78193881737
 20
19253.236251999999
 30
0.0
 11
26041.78193881737
 21
19240.236251999999
 31
0.0
  0
LINE
  5
136AD
  8
1-後柱カバ-P
  6
HIDE-M
 62
     6
 10
26034.78193881737
 20
19245.736251999999
 30
0.0
 11
26034.78193881737
 21
19247.336252000001
 31
0.0
  0
LINE
  5
136AE
  8
1-後柱カバ-P
  6
HIDE-M
 62
     6
 10
26048.78193881737
 20
19245.736251999999
 30
0.0
 11
26048.78193881737
 21
19247.336252000001
 31
0.0
  0
ARC
  5
136AF
  8
1-後柱カバ-P
 10
26005.881938817369
 20
19311.636252
 30
0.0
 40
6.599999999999997
 50
90.0
 51
180.0
  0
ARC
  5
136B0
  8
1-後柱カバ-P
 10
26077.681938817401
 20
19311.636252
 30
0.0
 40
6.599999999999997
 50
0.0
 51
90.0
  0
LINE
  5
136B1
  8
1-後柱カバ-P
 10
26069.28193881737
 20
19318.236251999999
 30
0.0
 11
26077.681938817401
 21
19318.236251999999
 31
0.0
  0
LINE
  5
136B2
  8
1-後柱カバ-P
 10
26014.28193881737
 20
19318.236251999999
 30
0.0
 11
26005.881938817369
 21
19318.236251999999
 31
0.0
  0
LINE
  5
136B3
  8
1-後柱カバ-P
 10
26069.28193881737
 20
19316.636252
 30
0.0
 11
26077.681938817401
 21
19316.636252
 31
0.0
  0
LINE
  5
136B4
  8
1-後柱カバ-P
 10
26014.28193881737
 20
19316.636252
 30
0.0
 11
26005.881938817369
 21
19316.636252
 31
0.0
  0
LINE
  5
136B5
  8
1-後柱カバ-P
 10
26014.28193881737
 20
19316.636252
 30
0.0
 11
26014.28193881737
 21
19318.236251999999
 31
0.0
  0
LINE
  5
136B6
  8
1-後柱カバ-P
 10
26069.28193881737
 20
19318.236251999999
 30
0.0
 11
26069.28193881737
 21
19316.636252
 31
0.0
  0
LINE
  5
136B7
  8
1-後柱カバ-P
  6
HIDE-M
 62
     6
 10
26073.18193881739
 20
19297.236251999981
 30
0.0
 11
26084.78193881737
 21
19297.236251999981
 31
0.0
  0
LINE
  5
136B8
  8
1-後柱カバ-P
  6
HIDE-M
 62
     6
 10
26073.18193881739
 20
19289.236251999981
 30
0.0
 11
26084.78193881737
 21
19289.236251999981
 31
0.0
  0
LINE
  5
136B9
  8
1-後柱カバ-P
  6
HIDE-M
 62
     6
 10
26073.18193881739
 20
19296.236251999999
 30
0.0
 11
26084.78193881737
 21
19296.236251999999
 31
0.0
  0
LINE
  5
136BA
  8
1-後柱カバ-P
  6
HIDE-M
 62
     6
 10
26073.18193881739
 20
19290.236251999992
 30
0.0
 11
26084.78193881737
 21
19290.236251999992
 31
0.0
  0
LINE
  5
136BB
  8
1-後柱カバ-P
 10
26074.181938817372
 20
19287.736251999999
 30
0.0
 11
26081.181938817372
 21
19287.736251999999
 31
0.0
  0
LINE
  5
136BC
  8
1-後柱カバ-P
 10
26081.181938817372
 20
19298.736251999992
 30
0.0
 11
26074.181938817372
 21
19298.736251999992
 31
0.0
  0
LINE
  5
136BD
  8
1-後柱カバ-P
 10
26081.181938817372
 20
19299.486251999992
 30
0.0
 11
26081.181938817372
 21
19286.986251999999
 31
0.0
  0
LINE
  5
136BE
  8
1-後柱カバ-P
 10
26084.78193881737
 20
19299.236251999999
 30
0.0
 11
26084.78193881737
 21
19287.236251999992
 31
0.0
  0
LINE
  5
136BF
  8
1-後柱カバ-P
  6
HIDE-M
 62
     6
 10
26082.681938817372
 20
19287.736251999999
 30
0.0
 11
26084.28193881737
 21
19287.736251999999
 31
0.0
  0
LINE
  5
136C0
  8
1-後柱カバ-P
 10
26084.78193881737
 20
19287.236251999992
 30
0.0
 11
26084.28193881737
 21
19287.736251999999
 31
0.0
  0
ARC
  5
136C1
  8
1-後柱カバ-P
 10
26081.931938817372
 20
19286.986251999999
 30
0.0
 40
0.75
 50
180.0
 51
0.0
  0
LINE
  5
136C2
  8
1-後柱カバ-P
  6
HIDE-M
 62
     6
 10
26084.28193881737
 20
19298.736251999992
 30
0.0
 11
26082.681938817372
 21
19298.736251999992
 31
0.0
  0
LINE
  5
136C3
  8
1-後柱カバ-P
 10
26084.78193881737
 20
19299.236251999999
 30
0.0
 11
26084.28193881737
 21
19298.736251999992
 31
0.0
  0
ARC
  5
136C4
  8
1-後柱カバ-P
 10
26081.931938817372
 20
19299.486251999992
 30
0.0
 40
0.75
 50
0.0
 51
180.0
  0
LINE
  5
136C5
  8
1-後柱カバ-P
 10
26073.18193881739
 20
19297.736251999992
 30
0.0
 11
26073.18193881739
 21
19288.736251999999
 31
0.0
  0
ARC
  5
136C6
  8
1-後柱カバ-P
 10
26074.181938817372
 20
19288.736251999999
 30
0.0
 40
1.0
 50
180.0
 51
270.0
  0
ARC
  5
136C7
  8
1-後柱カバ-P
 10
26074.181938817372
 20
19297.736251999992
 30
0.0
 40
1.0
 50
90.0
 51
180.0
  0
LINE
  5
136C8
  8
1-後柱カバ-P
  6
1PL-M
 62
     6
 10
26068.181938817401
 20
19293.236251999999
 30
0.0
 11
26089.78193881737
 21
19293.236251999999
 31
0.0
  0
LINE
  5
136C9
  8
1-後柱カバ-P
 10
26074.181938817372
 20
19277.736251999992
 30
0.0
 11
26081.181938817372
 21
19277.736251999992
 31
0.0
  0
LINE
  5
136CA
  8
1-後柱カバ-P
 10
26084.78193881737
 20
19285.236251999992
 30
0.0
 11
26084.78193881737
 21
19277.236251999999
 31
0.0
  0
LINE
  5
136CB
  8
1-後柱カバ-P
  6
HIDE-M
 62
     6
 10
26082.681938817372
 20
19277.736251999992
 30
0.0
 11
26084.28193881737
 21
19277.736251999992
 31
0.0
  0
LINE
  5
136CC
  8
1-後柱カバ-P
 10
26084.78193881737
 20
19277.236251999999
 30
0.0
 11
26084.28193881737
 21
19277.736251999992
 31
0.0
  0
ARC
  5
136CD
  8
1-後柱カバ-P
 10
26081.931938817372
 20
19276.986251999999
 30
0.0
 40
0.75
 50
180.0
 51
0.0
  0
LINE
  5
136CE
  8
1-後柱カバ-P
 10
26073.18193881739
 20
19286.736251999999
 30
0.0
 11
26073.18193881739
 21
19278.736251999999
 31
0.0
  0
ARC
  5
136CF
  8
1-後柱カバ-P
 10
26074.181938817372
 20
19278.736251999999
 30
0.0
 40
1.0
 50
180.0
 51
270.0
  0
LINE
  5
136D0
  8
1-後柱カバ-P
  6
1PL-M
 62
     6
 10
26068.181938817401
 20
19283.236251999999
 30
0.0
 11
26089.78193881737
 21
19283.236251999999
 31
0.0
  0
LINE
  5
136D1
  8
1-後柱カバ-P
 10
26081.181938817372
 20
19284.986251999992
 30
0.0
 11
26081.181938817372
 21
19276.986251999999
 31
0.0
  0
LINE
  5
136D2
  8
1-後柱カバ-P
  6
HIDE-M
 62
     6
 10
26010.381938817369
 20
19297.236251999981
 30
0.0
 11
25998.78193881737
 21
19297.236251999981
 31
0.0
  0
LINE
  5
136D3
  8
1-後柱カバ-P
  6
HIDE-M
 62
     6
 10
26010.381938817369
 20
19289.236251999981
 30
0.0
 11
25998.78193881737
 21
19289.236251999981
 31
0.0
  0
LINE
  5
136D4
  8
1-後柱カバ-P
  6
HIDE-M
 62
     6
 10
26010.381938817369
 20
19296.236251999999
 30
0.0
 11
25998.78193881737
 21
19296.236251999999
 31
0.0
  0
LINE
  5
136D5
  8
1-後柱カバ-P
  6
HIDE-M
 62
     6
 10
26010.381938817369
 20
19290.236251999992
 30
0.0
 11
25998.78193881737
 21
19290.236251999992
 31
0.0
  0
LINE
  5
136D6
  8
1-後柱カバ-P
 10
26009.381938817369
 20
19287.736251999999
 30
0.0
 11
26002.381938817362
 21
19287.736251999999
 31
0.0
  0
LINE
  5
136D7
  8
1-後柱カバ-P
 10
26002.381938817362
 20
19298.736251999992
 30
0.0
 11
26009.381938817369
 21
19298.736251999992
 31
0.0
  0
LINE
  5
136D8
  8
1-後柱カバ-P
 10
26002.381938817362
 20
19299.486251999992
 30
0.0
 11
26002.381938817362
 21
19286.986251999999
 31
0.0
  0
LINE
  5
136D9
  8
1-後柱カバ-P
 10
25998.78193881737
 20
19299.236251999999
 30
0.0
 11
25998.78193881737
 21
19287.236251999992
 31
0.0
  0
LINE
  5
136DA
  8
1-後柱カバ-P
  6
HIDE-M
 62
     6
 10
26000.881938817369
 20
19287.736251999999
 30
0.0
 11
25999.28193881737
 21
19287.736251999999
 31
0.0
  0
LINE
  5
136DB
  8
1-後柱カバ-P
 10
25998.78193881737
 20
19287.236251999992
 30
0.0
 11
25999.28193881737
 21
19287.736251999999
 31
0.0
  0
ARC
  5
136DC
  8
1-後柱カバ-P
 10
26001.631938817369
 20
19286.986251999999
 30
0.0
 40
0.75
 50
180.0
 51
0.0
  0
LINE
  5
136DD
  8
1-後柱カバ-P
  6
HIDE-M
 62
     6
 10
25999.28193881737
 20
19298.736251999992
 30
0.0
 11
26000.881938817369
 21
19298.736251999992
 31
0.0
  0
LINE
  5
136DE
  8
1-後柱カバ-P
 10
25998.78193881737
 20
19299.236251999999
 30
0.0
 11
25999.28193881737
 21
19298.736251999992
 31
0.0
  0
ARC
  5
136DF
  8
1-後柱カバ-P
 10
26001.631938817369
 20
19299.486251999992
 30
0.0
 40
0.75
 50
0.0
 51
180.0
  0
LINE
  5
136E0
  8
1-後柱カバ-P
 10
26010.381938817369
 20
19297.736251999992
 30
0.0
 11
26010.381938817369
 21
19288.736251999999
 31
0.0
  0
ARC
  5
136E1
  8
1-後柱カバ-P
 10
26009.381938817369
 20
19288.736251999999
 30
0.0
 40
1.0
 50
270.0
 51
0.0
  0
ARC
  5
136E2
  8
1-後柱カバ-P
 10
26009.381938817369
 20
19297.736251999992
 30
0.0
 40
1.0
 50
0.0
 51
90.0
  0
LINE
  5
136E3
  8
1-後柱カバ-P
  6
1PL-M
 62
     6
 10
26015.381938817369
 20
19293.236251999999
 30
0.0
 11
25993.781938817359
 21
19293.236251999999
 31
0.0
  0
LINE
  5
136E4
  8
1-後柱カバ-P
 10
26009.381938817369
 20
19277.736251999992
 30
0.0
 11
26002.381938817362
 21
19277.736251999992
 31
0.0
  0
LINE
  5
136E5
  8
1-後柱カバ-P
 10
25998.78193881737
 20
19285.236251999992
 30
0.0
 11
25998.78193881737
 21
19277.236251999999
 31
0.0
  0
LINE
  5
136E6
  8
1-後柱カバ-P
  6
HIDE-M
 62
     6
 10
26000.881938817369
 20
19277.736251999992
 30
0.0
 11
25999.28193881737
 21
19277.736251999992
 31
0.0
  0
LINE
  5
136E7
  8
1-後柱カバ-P
 10
25998.78193881737
 20
19277.236251999999
 30
0.0
 11
25999.28193881737
 21
19277.736251999992
 31
0.0
  0
ARC
  5
136E8
  8
1-後柱カバ-P
 10
26001.631938817369
 20
19276.986251999999
 30
0.0
 40
0.75
 50
180.0
 51
0.0
  0
LINE
  5
136E9
  8
1-後柱カバ-P
 10
26010.381938817369
 20
19286.736251999999
 30
0.0
 11
26010.381938817369
 21
19278.736251999999
 31
0.0
  0
ARC
  5
136EA
  8
1-後柱カバ-P
 10
26009.381938817369
 20
19278.736251999999
 30
0.0
 40
1.0
 50
270.0
 51
0.0
  0
LINE
  5
136EB
  8
1-後柱カバ-P
  6
1PL-M
 62
     6
 10
26015.381938817369
 20
19283.236251999999
 30
0.0
 11
25993.781938817359
 21
19283.236251999999
 31
0.0
  0
LINE
  5
136EC
  8
1-後柱カバ-P
 10
26002.381938817362
 20
19284.986251999992
 30
0.0
 11
26002.381938817362
 21
19276.986251999999
 31
0.0
  0
LINE
  5
136ED
  8
1-後柱カバ-P
  6
HIDE-M
 62
     6
 10
26073.18193881739
 20
19279.236251999999
 30
0.0
 11
26084.78193881737
 21
19279.236251999999
 31
0.0
  0
LINE
  5
136EE
  8
1-後柱カバ-P
  6
HIDE-M
 62
     6
 10
26073.18193881739
 20
19280.236251999999
 30
0.0
 11
26084.78193881737
 21
19280.236251999999
 31
0.0
  0
LINE
  5
136EF
  8
1-後柱カバ-P
  6
HIDE-M
 62
     6
 10
26010.381938817369
 20
19279.236251999999
 30
0.0
 11
25998.78193881737
 21
19279.236251999999
 31
0.0
  0
LINE
  5
136F0
  8
1-後柱カバ-P
  6
HIDE-M
 62
     6
 10
26010.381938817369
 20
19280.236251999999
 30
0.0
 11
25998.78193881737
 21
19280.236251999999
 31
0.0
  0
LINE
  5
136F1
  8
1-中柱P
 10
26077.681938817361
 20
16679.486251999992
 30
0.0
 11
26005.881938817362
 21
16679.486251999992
 31
0.0
  0
ARC
  5
136F2
  8
1-中柱P
 10
26077.681938817361
 20
16684.486251999992
 30
0.0
 40
5.0
 50
270.0
 51
0.0
  0
ARC
  5
136F3
  8
1-中柱P
 10
26005.881938817362
 20
16684.486251999992
 30
0.0
 40
5.0
 50
180.0
 51
270.0
  0
LINE
  5
136F4
  8
1-中柱P
 10
26077.681938817361
 20
16677.886252
 30
0.0
 11
26005.881938817362
 21
16677.886252
 31
0.0
  0
ARC
  5
136F5
  8
1-中柱P
 10
26077.681938817361
 20
16684.486251999992
 30
0.0
 40
6.599999999999997
 50
270.0
 51
0.0
  0
LINE
  5
136F6
  8
1-中柱P
 10
25999.28193881737
 20
16743.786252000002
 30
0.0
 11
25999.28193881737
 21
16684.486251999992
 31
0.0
  0
ARC
  5
136F7
  8
1-中柱P
 10
26005.881938817362
 20
16684.486251999992
 30
0.0
 40
6.599999999999997
 50
180.0
 51
270.0
  0
LINE
  5
136F8
  8
1-中柱P
 10
26000.881938817362
 20
16684.486251999992
 30
0.0
 11
26000.881938817362
 21
16743.786252000002
 31
0.0
  0
ARC
  5
136F9
  8
1-中柱P
 10
26005.881938817362
 20
16743.786252000002
 30
0.0
 40
5.0
 50
90.0
 51
180.0
  0
LINE
  5
136FA
  8
1-中柱P
 10
26084.28193881737
 20
16743.786252000002
 30
0.0
 11
26084.28193881737
 21
16684.486251999992
 31
0.0
  0
LINE
  5
136FB
  8
1-中柱P
 10
26082.681938817361
 20
16684.486251999992
 30
0.0
 11
26082.681938817361
 21
16743.786252000002
 31
0.0
  0
LINE
  5
136FC
  8
1-中柱P
 10
26077.681938817361
 20
16750.386252
 30
0.0
 11
26069.28193881737
 21
16750.386252
 31
0.0
  0
ARC
  5
136FD
  8
1-中柱P
 10
26077.681938817361
 20
16743.786252000002
 30
0.0
 40
6.599999999999997
 50
0.0
 51
90.0
  0
LINE
  5
136FE
  8
1-中柱P
 10
26077.681938817361
 20
16748.786252000002
 30
0.0
 11
26069.28193881737
 21
16748.786252000002
 31
0.0
  0
ARC
  5
136FF
  8
1-中柱P
 10
26069.28193881737
 20
16755.386251999989
 30
0.0
 40
6.599999999999997
 50
180.0
 51
270.0
  0
ARC
  5
13700
  8
1-中柱P
 10
26077.681938817361
 20
16743.786252000002
 30
0.0
 40
5.0
 50
0.0
 51
90.0
  0
LINE
  5
13701
  8
1-中柱P
 10
26064.28193881737
 20
16755.386251999989
 30
0.0
 11
26064.28193881737
 21
16814.786251999991
 31
0.0
  0
ARC
  5
13702
  8
1-中柱P
 10
26069.28193881737
 20
16755.386251999989
 30
0.0
 40
5.0
 50
180.0
 51
270.0
  0
LINE
  5
13703
  8
1-中柱P
 10
26062.681938817361
 20
16755.386251999989
 30
0.0
 11
26062.681938817361
 21
16814.786251999991
 31
0.0
  0
LINE
  5
13704
  8
1-中柱P
 10
26057.681938817361
 20
16821.386251999989
 30
0.0
 11
26024.281938817359
 21
16821.386251999989
 31
0.0
  0
ARC
  5
13705
  8
1-中柱P
 10
26057.681938817361
 20
16814.786251999991
 30
0.0
 40
6.599999999999997
 50
0.0
 51
90.0
  0
LINE
  5
13706
  8
1-中柱P
 10
26057.681938817361
 20
16819.786252000002
 30
0.0
 11
26024.281938817359
 21
16819.786252000002
 31
0.0
  0
ARC
  5
13707
  8
1-中柱P
 10
26057.681938817361
 20
16814.786251999991
 30
0.0
 40
5.0
 50
0.0
 51
90.0
  0
LINE
  5
13708
  8
1-中柱P
 10
26024.281938817359
 20
16819.786252000002
 30
0.0
 11
26024.281938817359
 21
16821.386251999989
 31
0.0
  0
LINE
  5
13709
  8
1-中柱P
 10
26005.881938817362
 20
16750.386252
 30
0.0
 11
26014.28193881737
 21
16750.386252
 31
0.0
  0
ARC
  5
1370A
  8
1-中柱P
 10
26005.881938817362
 20
16743.786252000002
 30
0.0
 40
6.599999999999997
 50
90.0
 51
180.0
  0
ARC
  5
1370B
  8
1-中柱P
 10
26014.28193881737
 20
16755.386251999989
 30
0.0
 40
5.0
 50
270.0
 51
0.0
  0
LINE
  5
1370C
  8
1-中柱P
 10
26014.28193881737
 20
16748.786252000002
 30
0.0
 11
26005.881938817362
 21
16748.786252000002
 31
0.0
  0
ARC
  5
1370D
  8
1-中柱P
 10
26014.28193881737
 20
16755.386251999989
 30
0.0
 40
6.599999999999997
 50
270.0
 51
0.0
  0
ARC
  5
1370E
  8
1-中柱P
  6
HIDE-M
 62
     6
 10
26048.381938817362
 20
16818.786251999991
 30
0.0
 40
2.6000000000000001
 50
90.0
 51
180.0
  0
LINE
  5
1370F
  8
1-中柱P
  6
HIDE-M
 62
     6
 10
26036.78193881737
 20
16820.83564215319
 30
0.0
 11
26036.78193881737
 21
16817.186252
 31
0.0
  0
LINE
  5
13710
  8
1-中柱P
  6
HIDE-M
 62
     6
 10
26046.78193881737
 20
16820.83564215319
 30
0.0
 11
26046.78193881737
 21
16817.186252
 31
0.0
  0
LINE
  5
13711
  8
1-中柱P
  6
1PL-M
 62
     6
 10
26041.78193881737
 20
16826.386251999989
 30
0.0
 11
26041.78193881737
 21
16812.186252
 31
0.0
  0
ARC
  5
13712
  8
1-中柱P
  6
HIDE-M
 62
     6
 10
26035.181938817361
 20
16818.786251999991
 30
0.0
 40
2.6000000000000001
 50
0.0
 51
90.0
  0
LINE
  5
13713
  8
1-中柱P
  6
HIDE-M
 62
     6
 10
26045.78193881737
 20
16818.786251999991
 30
0.0
 11
26045.78193881737
 21
16817.186252
 31
0.0
  0
LINE
  5
13714
  8
1-中柱P
  6
HIDE-M
 62
     6
 10
26037.78193881737
 20
16818.786251999991
 30
0.0
 11
26037.78193881737
 21
16817.186252
 31
0.0
  0
LINE
  5
13715
  8
1-中柱P
 10
26020.881938817362
 20
16755.386251999989
 30
0.0
 11
26020.881938817362
 21
16765.386252000011
 31
0.0
  0
LINE
  5
13716
  8
1-中柱P
 10
26019.28193881737
 20
16755.386251999989
 30
0.0
 11
26019.28193881737
 21
16765.386252000011
 31
0.0
  0
LINE
  5
13717
  8
1-中柱P
 10
26020.881938817362
 20
16765.386252000011
 30
0.0
 11
26019.28193881737
 21
16765.386252000011
 31
0.0
  0
LINE
  5
13718
  8
1-中柱P
  6
1PL-M
 62
     6
 10
26069.28193881737
 20
16786.386251999989
 30
0.0
 11
26055.081938817391
 21
16786.386251999989
 31
0.0
  0
LINE
  5
13719
  8
1-中柱P
  6
HIDE-M
 62
     6
 10
26073.181938817361
 20
16729.386251999989
 30
0.0
 11
26084.78193881737
 21
16729.386251999989
 31
0.0
  0
LINE
  5
1371A
  8
1-中柱P
  6
HIDE-M
 62
     6
 10
26073.181938817361
 20
16721.386251999989
 30
0.0
 11
26084.78193881737
 21
16721.386251999989
 31
0.0
  0
LINE
  5
1371B
  8
1-中柱P
  6
HIDE-M
 62
     6
 10
26073.181938817361
 20
16728.386252
 30
0.0
 11
26084.78193881737
 21
16728.386252
 31
0.0
  0
LINE
  5
1371C
  8
1-中柱P
  6
HIDE-M
 62
     6
 10
26073.181938817361
 20
16722.386251999989
 30
0.0
 11
26084.78193881737
 21
16722.386251999989
 31
0.0
  0
LINE
  5
1371D
  8
1-中柱P
 10
26074.181938817361
 20
16719.886252
 30
0.0
 11
26081.181938817361
 21
16719.886252
 31
0.0
  0
LINE
  5
1371E
  8
1-中柱P
 10
26081.181938817361
 20
16730.886251999989
 30
0.0
 11
26074.181938817361
 21
16730.886251999989
 31
0.0
  0
LINE
  5
1371F
  8
1-中柱P
 10
26081.181938817361
 20
16731.636251999989
 30
0.0
 11
26081.181938817361
 21
16719.136251999989
 31
0.0
  0
LINE
  5
13720
  8
1-中柱P
 10
26084.78193881737
 20
16731.386252
 30
0.0
 11
26084.78193881737
 21
16719.386251999989
 31
0.0
  0
LINE
  5
13721
  8
1-中柱P
  6
HIDE-M
 62
     6
 10
26082.681938817361
 20
16719.886252
 30
0.0
 11
26084.28193881737
 21
16719.886252
 31
0.0
  0
LINE
  5
13722
  8
1-中柱P
 10
26084.78193881737
 20
16719.386251999989
 30
0.0
 11
26084.28193881737
 21
16719.886252
 31
0.0
  0
ARC
  5
13723
  8
1-中柱P
 10
26081.931938817361
 20
16719.136251999989
 30
0.0
 40
0.75
 50
180.0
 51
0.0
  0
LINE
  5
13724
  8
1-中柱P
  6
HIDE-M
 62
     6
 10
26084.28193881737
 20
16730.886251999989
 30
0.0
 11
26082.681938817361
 21
16730.886251999989
 31
0.0
  0
LINE
  5
13725
  8
1-中柱P
 10
26084.78193881737
 20
16731.386252
 30
0.0
 11
26084.28193881737
 21
16730.886251999989
 31
0.0
  0
ARC
  5
13726
  8
1-中柱P
 10
26081.931938817361
 20
16731.636251999989
 30
0.0
 40
0.75
 50
0.0
 51
180.0
  0
LINE
  5
13727
  8
1-中柱P
 10
26073.181938817361
 20
16729.886251999989
 30
0.0
 11
26073.181938817361
 21
16720.886252
 31
0.0
  0
ARC
  5
13728
  8
1-中柱P
 10
26074.181938817361
 20
16720.886252
 30
0.0
 40
1.0
 50
180.0
 51
270.0
  0
ARC
  5
13729
  8
1-中柱P
 10
26074.181938817361
 20
16729.886251999989
 30
0.0
 40
1.0
 50
90.0
 51
180.0
  0
LINE
  5
1372A
  8
1-中柱P
  6
1PL-M
 62
     6
 10
26068.181938817361
 20
16725.386251999989
 30
0.0
 11
26089.78193881737
 21
16725.386251999989
 31
0.0
  0
LINE
  5
1372B
  8
1-中柱P
 10
26074.181938817361
 20
16709.886251999989
 30
0.0
 11
26081.181938817361
 21
16709.886251999989
 31
0.0
  0
LINE
  5
1372C
  8
1-中柱P
 10
26084.78193881737
 20
16717.386251999989
 30
0.0
 11
26084.78193881737
 21
16709.386252
 31
0.0
  0
LINE
  5
1372D
  8
1-中柱P
  6
HIDE-M
 62
     6
 10
26082.681938817361
 20
16709.886251999989
 30
0.0
 11
26084.28193881737
 21
16709.886251999989
 31
0.0
  0
LINE
  5
1372E
  8
1-中柱P
 10
26084.78193881737
 20
16709.386252
 30
0.0
 11
26084.28193881737
 21
16709.886251999989
 31
0.0
  0
ARC
  5
1372F
  8
1-中柱P
 10
26081.931938817361
 20
16709.136251999989
 30
0.0
 40
0.75
 50
180.0
 51
0.0
  0
LINE
  5
13730
  8
1-中柱P
 10
26073.181938817361
 20
16718.886252
 30
0.0
 11
26073.181938817361
 21
16710.886251999989
 31
0.0
  0
ARC
  5
13731
  8
1-中柱P
 10
26074.181938817361
 20
16710.886251999989
 30
0.0
 40
1.0
 50
180.0
 51
270.0
  0
LINE
  5
13732
  8
1-中柱P
  6
1PL-M
 62
     6
 10
26068.181938817361
 20
16715.386251999989
 30
0.0
 11
26089.78193881737
 21
16715.386251999989
 31
0.0
  0
LINE
  5
13733
  8
1-中柱P
 10
26081.181938817361
 20
16717.136251999989
 30
0.0
 11
26081.181938817361
 21
16709.136251999989
 31
0.0
  0
LINE
  5
13734
  8
1-中柱P
  6
HIDE-M
 62
     6
 10
26073.181938817361
 20
16711.386251999989
 30
0.0
 11
26084.78193881737
 21
16711.386251999989
 31
0.0
  0
LINE
  5
13735
  8
1-中柱P
  6
HIDE-M
 62
     6
 10
26073.181938817361
 20
16712.386252
 30
0.0
 11
26084.78193881737
 21
16712.386252
 31
0.0
  0
LINE
  5
13736
  8
1-中柱P
  6
HIDE-M
 62
     6
 10
26010.381938817362
 20
16729.386251999989
 30
0.0
 11
25998.78193881737
 21
16729.386251999989
 31
0.0
  0
LINE
  5
13737
  8
1-中柱P
  6
HIDE-M
 62
     6
 10
26010.381938817362
 20
16721.386251999989
 30
0.0
 11
25998.78193881737
 21
16721.386251999989
 31
0.0
  0
LINE
  5
13738
  8
1-中柱P
  6
HIDE-M
 62
     6
 10
26010.381938817362
 20
16728.386252
 30
0.0
 11
25998.78193881737
 21
16728.386252
 31
0.0
  0
LINE
  5
13739
  8
1-中柱P
  6
HIDE-M
 62
     6
 10
26010.381938817362
 20
16722.386251999989
 30
0.0
 11
25998.78193881737
 21
16722.386251999989
 31
0.0
  0
LINE
  5
1373A
  8
1-中柱P
 10
26009.381938817362
 20
16719.886252
 30
0.0
 11
26002.381938817362
 21
16719.886252
 31
0.0
  0
LINE
  5
1373B
  8
1-中柱P
 10
26002.381938817362
 20
16730.886251999989
 30
0.0
 11
26009.381938817362
 21
16730.886251999989
 31
0.0
  0
LINE
  5
1373C
  8
1-中柱P
 10
26002.381938817362
 20
16731.636251999989
 30
0.0
 11
26002.381938817362
 21
16719.136251999989
 31
0.0
  0
LINE
  5
1373D
  8
1-中柱P
 10
25998.78193881737
 20
16731.386252
 30
0.0
 11
25998.78193881737
 21
16719.386251999989
 31
0.0
  0
LINE
  5
1373E
  8
1-中柱P
  6
HIDE-M
 62
     6
 10
26000.881938817362
 20
16719.886252
 30
0.0
 11
25999.28193881737
 21
16719.886252
 31
0.0
  0
LINE
  5
1373F
  8
1-中柱P
 10
25998.78193881737
 20
16719.386251999989
 30
0.0
 11
25999.28193881737
 21
16719.886252
 31
0.0
  0
ARC
  5
13740
  8
1-中柱P
 10
26001.631938817362
 20
16719.136251999989
 30
0.0
 40
0.75
 50
180.0
 51
0.0
  0
LINE
  5
13741
  8
1-中柱P
  6
HIDE-M
 62
     6
 10
25999.28193881737
 20
16730.886251999989
 30
0.0
 11
26000.881938817362
 21
16730.886251999989
 31
0.0
  0
LINE
  5
13742
  8
1-中柱P
 10
25998.78193881737
 20
16731.386252
 30
0.0
 11
25999.28193881737
 21
16730.886251999989
 31
0.0
  0
ARC
  5
13743
  8
1-中柱P
 10
26001.631938817362
 20
16731.636251999989
 30
0.0
 40
0.75
 50
0.0
 51
180.0
  0
LINE
  5
13744
  8
1-中柱P
 10
26010.381938817362
 20
16729.886251999989
 30
0.0
 11
26010.381938817362
 21
16720.886252
 31
0.0
  0
ARC
  5
13745
  8
1-中柱P
 10
26009.381938817362
 20
16720.886252
 30
0.0
 40
1.0
 50
270.0
 51
0.0
  0
ARC
  5
13746
  8
1-中柱P
 10
26009.381938817362
 20
16729.886251999989
 30
0.0
 40
1.0
 50
0.0
 51
90.0
  0
LINE
  5
13747
  8
1-中柱P
  6
1PL-M
 62
     6
 10
26015.381938817362
 20
16725.386251999989
 30
0.0
 11
25993.781938817359
 21
16725.386251999989
 31
0.0
  0
LINE
  5
13748
  8
1-中柱P
 10
26009.381938817362
 20
16709.886251999989
 30
0.0
 11
26002.381938817362
 21
16709.886251999989
 31
0.0
  0
LINE
  5
13749
  8
1-中柱P
 10
25998.78193881737
 20
16717.386251999989
 30
0.0
 11
25998.78193881737
 21
16709.386252
 31
0.0
  0
LINE
  5
1374A
  8
1-中柱P
  6
HIDE-M
 62
     6
 10
26000.881938817362
 20
16709.886251999989
 30
0.0
 11
25999.28193881737
 21
16709.886251999989
 31
0.0
  0
LINE
  5
1374B
  8
1-中柱P
 10
25998.78193881737
 20
16709.386252
 30
0.0
 11
25999.28193881737
 21
16709.886251999989
 31
0.0
  0
ARC
  5
1374C
  8
1-中柱P
 10
26001.631938817362
 20
16709.136251999989
 30
0.0
 40
0.75
 50
180.0
 51
0.0
  0
LINE
  5
1374D
  8
1-中柱P
 10
26010.381938817362
 20
16718.886252
 30
0.0
 11
26010.381938817362
 21
16710.886251999989
 31
0.0
  0
ARC
  5
1374E
  8
1-中柱P
 10
26009.381938817362
 20
16710.886251999989
 30
0.0
 40
1.0
 50
270.0
 51
0.0
  0
LINE
  5
1374F
  8
1-中柱P
  6
1PL-M
 62
     6
 10
26015.381938817362
 20
16715.386251999989
 30
0.0
 11
25993.781938817359
 21
16715.386251999989
 31
0.0
  0
LINE
  5
13750
  8
1-中柱P
 10
26002.381938817362
 20
16717.136251999989
 30
0.0
 11
26002.381938817362
 21
16709.136251999989
 31
0.0
  0
LINE
  5
13751
  8
1-中柱P
  6
HIDE-M
 62
     6
 10
26010.381938817362
 20
16711.386251999989
 30
0.0
 11
25998.78193881737
 21
16711.386251999989
 31
0.0
  0
LINE
  5
13752
  8
1-中柱P
  6
HIDE-M
 62
     6
 10
26010.381938817362
 20
16712.386252
 30
0.0
 11
25998.78193881737
 21
16712.386252
 31
0.0
  0
LINE
  5
13753
  8
1-中柱カバ-P
 10
25999.28193881737
 20
16757.08625199999
 30
0.0
 11
25999.28193881737
 21
16816.386251999989
 31
0.0
  0
ARC
  5
13754
  8
1-中柱カバ-P
 10
26005.881938817362
 20
16816.386251999989
 30
0.0
 40
6.599999999999997
 50
90.0
 51
180.0
  0
LINE
  5
13755
  8
1-中柱カバ-P
 10
26000.881938817362
 20
16757.08625199999
 30
0.0
 11
26000.881938817362
 21
16816.386251999989
 31
0.0
  0
ARC
  5
13756
  8
1-中柱カバ-P
 10
26005.881938817362
 20
16757.08625199999
 30
0.0
 40
5.0
 50
180.0
 51
270.0
  0
LINE
  5
13757
  8
1-中柱カバ-P
 10
26005.881938817362
 20
16822.986251999999
 30
0.0
 11
26077.681938817361
 21
16822.986251999999
 31
0.0
  0
ARC
  5
13758
  8
1-中柱カバ-P
 10
26077.681938817361
 20
16816.386251999989
 30
0.0
 40
6.599999999999997
 50
0.0
 51
90.0
  0
LINE
  5
13759
  8
1-中柱カバ-P
 10
26005.881938817362
 20
16821.386251999989
 30
0.0
 11
26077.681938817361
 21
16821.386251999989
 31
0.0
  0
ARC
  5
1375A
  8
1-中柱カバ-P
 10
26077.681938817361
 20
16816.386251999989
 30
0.0
 40
5.0
 50
0.0
 51
90.0
  0
ARC
  5
1375B
  8
1-中柱カバ-P
 10
26005.881938817362
 20
16816.386251999989
 30
0.0
 40
5.0
 50
90.0
 51
180.0
  0
LINE
  5
1375C
  8
1-中柱カバ-P
 10
26084.28193881737
 20
16816.386251999989
 30
0.0
 11
26084.28193881737
 21
16757.08625199999
 31
0.0
  0
LINE
  5
1375D
  8
1-中柱カバ-P
 10
26082.681938817361
 20
16816.386251999989
 30
0.0
 11
26082.681938817361
 21
16757.08625199999
 31
0.0
  0
ARC
  5
1375E
  8
1-中柱カバ-P
 10
26077.681938817361
 20
16757.08625199999
 30
0.0
 40
5.0
 50
270.0
 51
0.0
  0
LINE
  5
1375F
  8
1-中柱カバ-P
  6
1PL-M
 62
     6
 10
26041.78193881737
 20
16815.486251999992
 30
0.0
 11
26041.78193881737
 21
16828.486251999999
 31
0.0
  0
LINE
  5
13760
  8
1-中柱カバ-P
  6
HIDE-M
 62
     6
 10
26034.78193881737
 20
16822.986251999999
 30
0.0
 11
26034.78193881737
 21
16821.386251999989
 31
0.0
  0
LINE
  5
13761
  8
1-中柱カバ-P
  6
HIDE-M
 62
     6
 10
26048.78193881737
 20
16822.986251999999
 30
0.0
 11
26048.78193881737
 21
16821.386251999989
 31
0.0
  0
ARC
  5
13762
  8
1-中柱カバ-P
 10
26005.881938817362
 20
16757.08625199999
 30
0.0
 40
6.599999999999997
 50
180.0
 51
270.0
  0
ARC
  5
13763
  8
1-中柱カバ-P
 10
26077.681938817361
 20
16757.08625199999
 30
0.0
 40
6.599999999999997
 50
270.0
 51
0.0
  0
LINE
  5
13764
  8
1-中柱カバ-P
 10
26069.28193881737
 20
16750.486251999999
 30
0.0
 11
26077.681938817361
 21
16750.486251999999
 31
0.0
  0
LINE
  5
13765
  8
1-中柱カバ-P
 10
26014.28193881737
 20
16750.486251999999
 30
0.0
 11
26005.881938817362
 21
16750.486251999999
 31
0.0
  0
LINE
  5
13766
  8
1-中柱カバ-P
 10
26069.28193881737
 20
16752.086252000001
 30
0.0
 11
26077.681938817361
 21
16752.086252000001
 31
0.0
  0
LINE
  5
13767
  8
1-中柱カバ-P
 10
26014.28193881737
 20
16752.086252000001
 30
0.0
 11
26005.881938817362
 21
16752.086252000001
 31
0.0
  0
LINE
  5
13768
  8
1-中柱カバ-P
 10
26014.28193881737
 20
16752.086252000001
 30
0.0
 11
26014.28193881737
 21
16750.486251999999
 31
0.0
  0
LINE
  5
13769
  8
1-中柱カバ-P
 10
26069.28193881737
 20
16750.486251999999
 30
0.0
 11
26069.28193881737
 21
16752.086252000001
 31
0.0
  0
LINE
  5
1376A
  8
1-中柱カバ-P
  6
HIDE-M
 62
     6
 10
26073.181938817361
 20
16771.486251999999
 30
0.0
 11
26084.78193881737
 21
16771.486251999999
 31
0.0
  0
LINE
  5
1376B
  8
1-中柱カバ-P
  6
HIDE-M
 62
     6
 10
26073.181938817361
 20
16779.486251999999
 30
0.0
 11
26084.78193881737
 21
16779.486251999999
 31
0.0
  0
LINE
  5
1376C
  8
1-中柱カバ-P
  6
HIDE-M
 62
     6
 10
26073.181938817361
 20
16772.486251999999
 30
0.0
 11
26084.78193881737
 21
16772.486251999999
 31
0.0
  0
LINE
  5
1376D
  8
1-中柱カバ-P
  6
HIDE-M
 62
     6
 10
26073.181938817361
 20
16778.486251999992
 30
0.0
 11
26084.78193881737
 21
16778.486251999992
 31
0.0
  0
LINE
  5
1376E
  8
1-中柱カバ-P
 10
26074.181938817361
 20
16780.986251999999
 30
0.0
 11
26081.181938817361
 21
16780.986251999999
 31
0.0
  0
LINE
  5
1376F
  8
1-中柱カバ-P
 10
26081.181938817361
 20
16769.986251999992
 30
0.0
 11
26074.181938817361
 21
16769.986251999992
 31
0.0
  0
LINE
  5
13770
  8
1-中柱カバ-P
 10
26081.181938817361
 20
16769.236251999992
 30
0.0
 11
26081.181938817361
 21
16781.736251999981
 31
0.0
  0
LINE
  5
13771
  8
1-中柱カバ-P
 10
26084.78193881737
 20
16769.486251999999
 30
0.0
 11
26084.78193881737
 21
16781.486251999992
 31
0.0
  0
LINE
  5
13772
  8
1-中柱カバ-P
  6
HIDE-M
 62
     6
 10
26082.681938817361
 20
16780.986251999999
 30
0.0
 11
26084.28193881737
 21
16780.986251999999
 31
0.0
  0
LINE
  5
13773
  8
1-中柱カバ-P
 10
26084.78193881737
 20
16781.486251999992
 30
0.0
 11
26084.28193881737
 21
16780.986251999999
 31
0.0
  0
ARC
  5
13774
  8
1-中柱カバ-P
 10
26081.931938817361
 20
16781.736251999981
 30
0.0
 40
0.75
 50
0.0
 51
180.0
  0
LINE
  5
13775
  8
1-中柱カバ-P
  6
HIDE-M
 62
     6
 10
26084.28193881737
 20
16769.986251999992
 30
0.0
 11
26082.681938817361
 21
16769.986251999992
 31
0.0
  0
LINE
  5
13776
  8
1-中柱カバ-P
 10
26084.78193881737
 20
16769.486251999999
 30
0.0
 11
26084.28193881737
 21
16769.986251999992
 31
0.0
  0
ARC
  5
13777
  8
1-中柱カバ-P
 10
26081.931938817361
 20
16769.236251999992
 30
0.0
 40
0.75
 50
180.0
 51
0.0
  0
LINE
  5
13778
  8
1-中柱カバ-P
 10
26073.181938817361
 20
16770.986251999992
 30
0.0
 11
26073.181938817361
 21
16779.986251999999
 31
0.0
  0
ARC
  5
13779
  8
1-中柱カバ-P
 10
26074.181938817361
 20
16779.986251999999
 30
0.0
 40
1.0
 50
90.0
 51
180.0
  0
ARC
  5
1377A
  8
1-中柱カバ-P
 10
26074.181938817361
 20
16770.986251999992
 30
0.0
 40
1.0
 50
180.0
 51
270.0
  0
LINE
  5
1377B
  8
1-中柱カバ-P
  6
1PL-M
 62
     6
 10
26068.181938817361
 20
16775.486251999999
 30
0.0
 11
26089.78193881737
 21
16775.486251999999
 31
0.0
  0
LINE
  5
1377C
  8
1-中柱カバ-P
 10
26074.181938817361
 20
16790.986251999999
 30
0.0
 11
26081.181938817361
 21
16790.986251999999
 31
0.0
  0
LINE
  5
1377D
  8
1-中柱カバ-P
 10
26084.78193881737
 20
16783.486251999992
 30
0.0
 11
26084.78193881737
 21
16791.486251999999
 31
0.0
  0
LINE
  5
1377E
  8
1-中柱カバ-P
  6
HIDE-M
 62
     6
 10
26082.681938817361
 20
16790.986251999999
 30
0.0
 11
26084.28193881737
 21
16790.986251999999
 31
0.0
  0
LINE
  5
1377F
  8
1-中柱カバ-P
 10
26084.78193881737
 20
16791.486251999999
 30
0.0
 11
26084.28193881737
 21
16790.986251999999
 31
0.0
  0
ARC
  5
13780
  8
1-中柱カバ-P
 10
26081.931938817361
 20
16791.736251999999
 30
0.0
 40
0.75
 50
0.0
 51
180.0
  0
LINE
  5
13781
  8
1-中柱カバ-P
 10
26073.181938817361
 20
16781.986251999999
 30
0.0
 11
26073.181938817361
 21
16789.986251999992
 31
0.0
  0
ARC
  5
13782
  8
1-中柱カバ-P
 10
26074.181938817361
 20
16789.986251999992
 30
0.0
 40
1.0
 50
90.0
 51
180.0
  0
LINE
  5
13783
  8
1-中柱カバ-P
  6
1PL-M
 62
     6
 10
26068.181938817361
 20
16785.486251999981
 30
0.0
 11
26089.78193881737
 21
16785.486251999981
 31
0.0
  0
LINE
  5
13784
  8
1-中柱カバ-P
 10
26081.181938817361
 20
16783.736251999999
 30
0.0
 11
26081.181938817361
 21
16791.736251999999
 31
0.0
  0
LINE
  5
13785
  8
1-中柱カバ-P
  6
HIDE-M
 62
     6
 10
26010.381938817362
 20
16771.486251999999
 30
0.0
 11
25998.78193881737
 21
16771.486251999999
 31
0.0
  0
LINE
  5
13786
  8
1-中柱カバ-P
  6
HIDE-M
 62
     6
 10
26010.381938817362
 20
16779.486251999999
 30
0.0
 11
25998.78193881737
 21
16779.486251999999
 31
0.0
  0
LINE
  5
13787
  8
1-中柱カバ-P
  6
HIDE-M
 62
     6
 10
26010.381938817362
 20
16772.486251999999
 30
0.0
 11
25998.78193881737
 21
16772.486251999999
 31
0.0
  0
LINE
  5
13788
  8
1-中柱カバ-P
  6
HIDE-M
 62
     6
 10
26010.381938817362
 20
16778.486251999992
 30
0.0
 11
25998.78193881737
 21
16778.486251999992
 31
0.0
  0
LINE
  5
13789
  8
1-中柱カバ-P
 10
26009.381938817362
 20
16780.986251999999
 30
0.0
 11
26002.381938817362
 21
16780.986251999999
 31
0.0
  0
LINE
  5
1378A
  8
1-中柱カバ-P
 10
26002.381938817362
 20
16769.986251999992
 30
0.0
 11
26009.381938817362
 21
16769.986251999992
 31
0.0
  0
LINE
  5
1378B
  8
1-中柱カバ-P
 10
26002.381938817362
 20
16769.236251999992
 30
0.0
 11
26002.381938817362
 21
16781.736251999981
 31
0.0
  0
LINE
  5
1378C
  8
1-中柱カバ-P
 10
25998.78193881737
 20
16769.486251999999
 30
0.0
 11
25998.78193881737
 21
16781.486251999992
 31
0.0
  0
LINE
  5
1378D
  8
1-中柱カバ-P
  6
HIDE-M
 62
     6
 10
26000.881938817362
 20
16780.986251999999
 30
0.0
 11
25999.28193881737
 21
16780.986251999999
 31
0.0
  0
LINE
  5
1378E
  8
1-中柱カバ-P
 10
25998.78193881737
 20
16781.486251999992
 30
0.0
 11
25999.28193881737
 21
16780.986251999999
 31
0.0
  0
ARC
  5
1378F
  8
1-中柱カバ-P
 10
26001.631938817362
 20
16781.736251999981
 30
0.0
 40
0.75
 50
0.0
 51
180.0
  0
LINE
  5
13790
  8
1-中柱カバ-P
  6
HIDE-M
 62
     6
 10
25999.28193881737
 20
16769.986251999992
 30
0.0
 11
26000.881938817362
 21
16769.986251999992
 31
0.0
  0
LINE
  5
13791
  8
1-中柱カバ-P
 10
25998.78193881737
 20
16769.486251999999
 30
0.0
 11
25999.28193881737
 21
16769.986251999992
 31
0.0
  0
ARC
  5
13792
  8
1-中柱カバ-P
 10
26001.631938817362
 20
16769.236251999992
 30
0.0
 40
0.75
 50
180.0
 51
0.0
  0
LINE
  5
13793
  8
1-中柱カバ-P
 10
26010.381938817362
 20
16770.986251999992
 30
0.0
 11
26010.381938817362
 21
16779.986251999999
 31
0.0
  0
ARC
  5
13794
  8
1-中柱カバ-P
 10
26009.381938817362
 20
16779.986251999999
 30
0.0
 40
1.0
 50
0.0
 51
90.0
  0
ARC
  5
13795
  8
1-中柱カバ-P
 10
26009.381938817362
 20
16770.986251999992
 30
0.0
 40
1.0
 50
270.0
 51
0.0
  0
LINE
  5
13796
  8
1-中柱カバ-P
  6
1PL-M
 62
     6
 10
26015.381938817362
 20
16775.486251999999
 30
0.0
 11
25993.781938817359
 21
16775.486251999999
 31
0.0
  0
LINE
  5
13797
  8
1-中柱カバ-P
 10
26009.381938817362
 20
16790.986251999999
 30
0.0
 11
26002.381938817362
 21
16790.986251999999
 31
0.0
  0
LINE
  5
13798
  8
1-中柱カバ-P
 10
25998.78193881737
 20
16783.486251999992
 30
0.0
 11
25998.78193881737
 21
16791.486251999999
 31
0.0
  0
LINE
  5
13799
  8
1-中柱カバ-P
  6
HIDE-M
 62
     6
 10
26000.881938817362
 20
16790.986251999999
 30
0.0
 11
25999.28193881737
 21
16790.986251999999
 31
0.0
  0
LINE
  5
1379A
  8
1-中柱カバ-P
 10
25998.78193881737
 20
16791.486251999999
 30
0.0
 11
25999.28193881737
 21
16790.986251999999
 31
0.0
  0
ARC
  5
1379B
  8
1-中柱カバ-P
 10
26001.631938817362
 20
16791.736251999999
 30
0.0
 40
0.75
 50
0.0
 51
180.0
  0
LINE
  5
1379C
  8
1-中柱カバ-P
 10
26010.381938817362
 20
16781.986251999999
 30
0.0
 11
26010.381938817362
 21
16789.986251999992
 31
0.0
  0
ARC
  5
1379D
  8
1-中柱カバ-P
 10
26009.381938817362
 20
16789.986251999992
 30
0.0
 40
1.0
 50
0.0
 51
90.0
  0
LINE
  5
1379E
  8
1-中柱カバ-P
  6
1PL-M
 62
     6
 10
26015.381938817362
 20
16785.486251999981
 30
0.0
 11
25993.781938817359
 21
16785.486251999981
 31
0.0
  0
LINE
  5
1379F
  8
1-中柱カバ-P
 10
26002.381938817362
 20
16783.736251999999
 30
0.0
 11
26002.381938817362
 21
16791.736251999999
 31
0.0
  0
LINE
  5
137A0
  8
1-中柱カバ-P
  6
HIDE-M
 62
     6
 10
26073.181938817361
 20
16789.486251999999
 30
0.0
 11
26084.78193881737
 21
16789.486251999999
 31
0.0
  0
LINE
  5
137A1
  8
1-中柱カバ-P
  6
HIDE-M
 62
     6
 10
26073.181938817361
 20
16788.486251999999
 30
0.0
 11
26084.78193881737
 21
16788.486251999999
 31
0.0
  0
LINE
  5
137A2
  8
1-中柱カバ-P
  6
HIDE-M
 62
     6
 10
26010.381938817362
 20
16789.486251999999
 30
0.0
 11
25998.78193881737
 21
16789.486251999999
 31
0.0
  0
LINE
  5
137A3
  8
1-中柱カバ-P
  6
HIDE-M
 62
     6
 10
26010.381938817362
 20
16788.486251999999
 30
0.0
 11
25998.78193881737
 21
16788.486251999999
 31
0.0
  0
ARC
  5
137A4
  8
1-前柱P
  6
HIDE-M
 62
     6
 10
26038.181938817361
 20
13900.886252
 30
0.0
 40
2.6000000000000001
 50
0.0
 51
90.0
  0
LINE
  5
137A5
  8
1-前柱P
  6
HIDE-M
 62
     6
 10
26049.78193881737
 20
13902.935642153179
 30
0.0
 11
26049.78193881737
 21
13899.286252
 31
0.0
  0
LINE
  5
137A6
  8
1-前柱P
  6
HIDE-M
 62
     6
 10
26039.78193881737
 20
13902.935642153179
 30
0.0
 11
26039.78193881737
 21
13899.286252
 31
0.0
  0
LINE
  5
137A7
  8
1-前柱P
  6
1PL-M
 62
     6
 10
26044.78193881737
 20
13908.486252000001
 30
0.0
 11
26044.78193881737
 21
13894.286252
 31
0.0
  0
ARC
  5
137A8
  8
1-前柱P
  6
HIDE-M
 62
     6
 10
26051.381938817369
 20
13900.886252
 30
0.0
 40
2.6000000000000001
 50
90.0
 51
180.0
  0
LINE
  5
137A9
  8
1-前柱P
  6
HIDE-M
 62
     6
 10
26040.78193881737
 20
13900.886252
 30
0.0
 11
26040.78193881737
 21
13899.286252
 31
0.0
  0
LINE
  5
137AA
  8
1-前柱P
  6
HIDE-M
 62
     6
 10
26048.78193881737
 20
13900.886252
 30
0.0
 11
26048.78193881737
 21
13899.286252
 31
0.0
  0
LINE
  5
137AB
  8
1-前柱P
 10
26030.881938817362
 20
13788.586251999999
 30
0.0
 11
26052.681938817372
 21
13788.586251999999
 31
0.0
  0
LINE
  5
137AC
  8
1-前柱P
 10
26082.681938817372
 20
13825.886252
 30
0.0
 11
26082.681938817372
 21
13818.586251999999
 31
0.0
  0
ARC
  5
137AD
  8
1-前柱P
 10
26052.681938817372
 20
13818.586251999999
 30
0.0
 40
30.0
 50
270.0
 51
0.0
  0
ARC
  5
137AE
  8
1-前柱P
 10
26052.681938817372
 20
13818.586251999999
 30
0.0
 40
31.600000000000001
 50
270.0
 51
0.0
  0
LINE
  5
137AF
  8
1-前柱P
 10
26030.881938817362
 20
13786.98625199999
 30
0.0
 11
26052.681938817372
 21
13786.98625199999
 31
0.0
  0
LINE
  5
137B0
  8
1-前柱P
 10
26084.28193881737
 20
13825.886252
 30
0.0
 11
26084.28193881737
 21
13818.586251999999
 31
0.0
  0
LINE
  5
137B1
  8
1-前柱P
 10
26061.28193881737
 20
13847.486252000001
 30
0.0
 11
26061.28193881737
 21
13837.48625199999
 31
0.0
  0
LINE
  5
137B2
  8
1-前柱P
 10
26059.681938817372
 20
13837.48625199999
 30
0.0
 11
26059.681938817372
 21
13847.486252000001
 31
0.0
  0
LINE
  5
137B3
  8
1-前柱P
 10
26000.881938817369
 20
13825.886252
 30
0.0
 11
26000.881938817369
 21
13818.586251999999
 31
0.0
  0
ARC
  5
137B4
  8
1-前柱P
 10
26030.881938817362
 20
13818.586251999999
 30
0.0
 40
30.0
 50
180.0
 51
270.0
  0
ARC
  5
137B5
  8
1-前柱P
 10
26030.881938817362
 20
13818.586251999999
 30
0.0
 40
31.600000000000001
 50
180.0
 51
270.0
  0
LINE
  5
137B6
  8
1-前柱P
 10
25999.28193881737
 20
13825.886252
 30
0.0
 11
25999.28193881737
 21
13818.586251999999
 31
0.0
  0
LINE
  5
137B7
  8
1-前柱P
 10
26005.881938817369
 20
13832.486252000001
 30
0.0
 11
26017.28193881737
 21
13832.486252000001
 31
0.0
  0
ARC
  5
137B8
  8
1-前柱P
 10
26005.881938817369
 20
13825.886252
 30
0.0
 40
6.599999999999997
 50
90.0
 51
180.0
  0
ARC
  5
137B9
  8
1-前柱P
 10
26017.28193881737
 20
13837.48625199999
 30
0.0
 40
5.0
 50
270.0
 51
0.0
  0
LINE
  5
137BA
  8
1-前柱P
 10
26005.881938817369
 20
13830.886252
 30
0.0
 11
26017.28193881737
 21
13830.886252
 31
0.0
  0
ARC
  5
137BB
  8
1-前柱P
 10
26005.881938817369
 20
13825.886252
 30
0.0
 40
5.0
 50
90.0
 51
180.0
  0
LINE
  5
137BC
  8
1-前柱P
 10
26022.28193881737
 20
13837.48625199999
 30
0.0
 11
26022.28193881737
 21
13896.886252
 31
0.0
  0
LINE
  5
137BD
  8
1-前柱P
 10
26023.881938817369
 20
13837.48625199999
 30
0.0
 11
26023.881938817369
 21
13896.886252
 31
0.0
  0
ARC
  5
137BE
  8
1-前柱P
 10
26017.28193881737
 20
13837.48625199999
 30
0.0
 40
6.599999999999997
 50
270.0
 51
0.0
  0
LINE
  5
137BF
  8
1-前柱P
 10
26028.881938817362
 20
13903.48625199999
 30
0.0
 11
26062.28193881737
 21
13903.48625199999
 31
0.0
  0
ARC
  5
137C0
  8
1-前柱P
 10
26028.881938817362
 20
13896.886252
 30
0.0
 40
6.599999999999997
 50
90.0
 51
180.0
  0
LINE
  5
137C1
  8
1-前柱P
 10
26028.881938817362
 20
13901.886252
 30
0.0
 11
26062.28193881737
 21
13901.886252
 31
0.0
  0
ARC
  5
137C2
  8
1-前柱P
 10
26028.881938817362
 20
13896.886252
 30
0.0
 40
5.0
 50
90.0
 51
180.0
  0
LINE
  5
137C3
  8
1-前柱P
 10
26062.28193881737
 20
13901.886252
 30
0.0
 11
26062.28193881737
 21
13903.48625199999
 31
0.0
  0
LINE
  5
137C4
  8
1-前柱P
 10
26077.681938817401
 20
13832.486252000001
 30
0.0
 11
26066.28193881737
 21
13832.486252000001
 31
0.0
  0
ARC
  5
137C5
  8
1-前柱P
 10
26077.681938817401
 20
13825.886252
 30
0.0
 40
6.599999999999997
 50
0.0
 51
90.0
  0
ARC
  5
137C6
  8
1-前柱P
 10
26066.28193881737
 20
13837.48625199999
 30
0.0
 40
5.0
 50
180.0
 51
270.0
  0
LINE
  5
137C7
  8
1-前柱P
 10
26066.28193881737
 20
13830.886252
 30
0.0
 11
26077.681938817401
 21
13830.886252
 31
0.0
  0
ARC
  5
137C8
  8
1-前柱P
 10
26066.28193881737
 20
13837.48625199999
 30
0.0
 40
6.599999999999997
 50
180.0
 51
270.0
  0
ARC
  5
137C9
  8
1-前柱P
 10
26077.681938817401
 20
13825.886252
 30
0.0
 40
5.0
 50
0.0
 51
90.0
  0
LINE
  5
137CA
  8
1-前柱P
 10
26061.28193881737
 20
13847.486252000001
 30
0.0
 11
26059.681938817372
 21
13847.486252000001
 31
0.0
  0
LINE
  5
137CB
  8
1-前柱カバ-P
 10
26084.28193881737
 20
13839.18625199999
 30
0.0
 11
26084.28193881737
 21
13898.48625199999
 31
0.0
  0
ARC
  5
137CC
  8
1-前柱カバ-P
 10
26077.681938817401
 20
13898.48625199999
 30
0.0
 40
6.599999999999997
 50
0.0
 51
90.0
  0
LINE
  5
137CD
  8
1-前柱カバ-P
 10
26082.681938817372
 20
13839.18625199999
 30
0.0
 11
26082.681938817372
 21
13898.48625199999
 31
0.0
  0
ARC
  5
137CE
  8
1-前柱カバ-P
 10
26077.681938817401
 20
13839.18625199999
 30
0.0
 40
5.0
 50
270.0
 51
0.0
  0
LINE
  5
137CF
  8
1-前柱カバ-P
 10
26077.681938817401
 20
13905.086251999999
 30
0.0
 11
26005.881938817369
 21
13905.086251999999
 31
0.0
  0
ARC
  5
137D0
  8
1-前柱カバ-P
 10
26005.881938817369
 20
13898.48625199999
 30
0.0
 40
6.599999999999997
 50
90.0
 51
180.0
  0
LINE
  5
137D1
  8
1-前柱カバ-P
 10
26077.681938817401
 20
13903.48625199999
 30
0.0
 11
26005.881938817369
 21
13903.48625199999
 31
0.0
  0
ARC
  5
137D2
  8
1-前柱カバ-P
 10
26005.881938817369
 20
13898.48625199999
 30
0.0
 40
5.0
 50
90.0
 51
180.0
  0
ARC
  5
137D3
  8
1-前柱カバ-P
 10
26077.681938817401
 20
13898.48625199999
 30
0.0
 40
5.0
 50
0.0
 51
90.0
  0
LINE
  5
137D4
  8
1-前柱カバ-P
 10
25999.28193881737
 20
13898.48625199999
 30
0.0
 11
25999.28193881737
 21
13839.18625199999
 31
0.0
  0
LINE
  5
137D5
  8
1-前柱カバ-P
 10
26000.881938817369
 20
13898.48625199999
 30
0.0
 11
26000.881938817369
 21
13839.18625199999
 31
0.0
  0
ARC
  5
137D6
  8
1-前柱カバ-P
 10
26005.881938817369
 20
13839.18625199999
 30
0.0
 40
5.0
 50
180.0
 51
270.0
  0
LINE
  5
137D7
  8
1-前柱カバ-P
  6
1PL-M
 62
     6
 10
26041.78193881737
 20
13897.586251999999
 30
0.0
 11
26041.78193881737
 21
13910.586251999999
 31
0.0
  0
LINE
  5
137D8
  8
1-前柱カバ-P
  6
HIDE-M
 62
     6
 10
26048.78193881737
 20
13905.086251999999
 30
0.0
 11
26048.78193881737
 21
13903.48625199999
 31
0.0
  0
LINE
  5
137D9
  8
1-前柱カバ-P
  6
HIDE-M
 62
     6
 10
26034.78193881737
 20
13905.086251999999
 30
0.0
 11
26034.78193881737
 21
13903.48625199999
 31
0.0
  0
ARC
  5
137DA
  8
1-前柱カバ-P
 10
26077.681938817401
 20
13839.18625199999
 30
0.0
 40
6.599999999999997
 50
270.0
 51
0.0
  0
ARC
  5
137DB
  8
1-前柱カバ-P
 10
26005.881938817369
 20
13839.18625199999
 30
0.0
 40
6.599999999999997
 50
180.0
 51
270.0
  0
LINE
  5
137DC
  8
1-前柱カバ-P
 10
26014.28193881737
 20
13832.586251999999
 30
0.0
 11
26005.881938817369
 21
13832.586251999999
 31
0.0
  0
LINE
  5
137DD
  8
1-前柱カバ-P
 10
26069.28193881737
 20
13832.586251999999
 30
0.0
 11
26077.681938817401
 21
13832.586251999999
 31
0.0
  0
LINE
  5
137DE
  8
1-前柱カバ-P
 10
26014.28193881737
 20
13834.18625199999
 30
0.0
 11
26005.881938817369
 21
13834.18625199999
 31
0.0
  0
LINE
  5
137DF
  8
1-前柱カバ-P
 10
26069.28193881737
 20
13834.18625199999
 30
0.0
 11
26077.681938817401
 21
13834.18625199999
 31
0.0
  0
LINE
  5
137E0
  8
1-前柱カバ-P
 10
26069.28193881737
 20
13834.18625199999
 30
0.0
 11
26069.28193881737
 21
13832.586251999999
 31
0.0
  0
LINE
  5
137E1
  8
1-前柱カバ-P
 10
26014.28193881737
 20
13832.586251999999
 30
0.0
 11
26014.28193881737
 21
13834.18625199999
 31
0.0
  0
LINE
  5
137E2
  8
1-前柱カバ-P
  6
HIDE-M
 62
     6
 10
26010.381938817369
 20
13853.586251999999
 30
0.0
 11
25998.78193881737
 21
13853.586251999999
 31
0.0
  0
LINE
  5
137E3
  8
1-前柱カバ-P
  6
HIDE-M
 62
     6
 10
26010.381938817369
 20
13861.586251999999
 30
0.0
 11
25998.78193881737
 21
13861.586251999999
 31
0.0
  0
LINE
  5
137E4
  8
1-前柱カバ-P
  6
HIDE-M
 62
     6
 10
26010.381938817369
 20
13854.586251999999
 30
0.0
 11
25998.78193881737
 21
13854.586251999999
 31
0.0
  0
LINE
  5
137E5
  8
1-前柱カバ-P
  6
HIDE-M
 62
     6
 10
26010.381938817369
 20
13860.586251999999
 30
0.0
 11
25998.78193881737
 21
13860.586251999999
 31
0.0
  0
LINE
  5
137E6
  8
1-前柱カバ-P
 10
26009.381938817369
 20
13863.086251999999
 30
0.0
 11
26002.381938817362
 21
13863.086251999999
 31
0.0
  0
LINE
  5
137E7
  8
1-前柱カバ-P
 10
26002.381938817362
 20
13852.086251999999
 30
0.0
 11
26009.381938817369
 21
13852.086251999999
 31
0.0
  0
LINE
  5
137E8
  8
1-前柱カバ-P
 10
26002.381938817362
 20
13851.336251999999
 30
0.0
 11
26002.381938817362
 21
13863.836251999999
 31
0.0
  0
LINE
  5
137E9
  8
1-前柱カバ-P
 10
25998.78193881737
 20
13851.586251999999
 30
0.0
 11
25998.78193881737
 21
13863.586251999999
 31
0.0
  0
LINE
  5
137EA
  8
1-前柱カバ-P
  6
HIDE-M
 62
     6
 10
26000.881938817369
 20
13863.086251999999
 30
0.0
 11
25999.28193881737
 21
13863.086251999999
 31
0.0
  0
LINE
  5
137EB
  8
1-前柱カバ-P
 10
25998.78193881737
 20
13863.586251999999
 30
0.0
 11
25999.28193881737
 21
13863.086251999999
 31
0.0
  0
ARC
  5
137EC
  8
1-前柱カバ-P
 10
26001.631938817369
 20
13863.836251999999
 30
0.0
 40
0.75
 50
0.0
 51
180.0
  0
LINE
  5
137ED
  8
1-前柱カバ-P
  6
HIDE-M
 62
     6
 10
25999.28193881737
 20
13852.086251999999
 30
0.0
 11
26000.881938817369
 21
13852.086251999999
 31
0.0
  0
LINE
  5
137EE
  8
1-前柱カバ-P
 10
25998.78193881737
 20
13851.586251999999
 30
0.0
 11
25999.28193881737
 21
13852.086251999999
 31
0.0
  0
ARC
  5
137EF
  8
1-前柱カバ-P
 10
26001.631938817369
 20
13851.336251999999
 30
0.0
 40
0.75
 50
180.0
 51
0.0
  0
LINE
  5
137F0
  8
1-前柱カバ-P
 10
26010.381938817369
 20
13853.086251999999
 30
0.0
 11
26010.381938817369
 21
13862.086251999999
 31
0.0
  0
ARC
  5
137F1
  8
1-前柱カバ-P
 10
26009.381938817369
 20
13862.086251999999
 30
0.0
 40
1.0
 50
0.0
 51
90.0
  0
ARC
  5
137F2
  8
1-前柱カバ-P
 10
26009.381938817369
 20
13853.086251999999
 30
0.0
 40
1.0
 50
270.0
 51
0.0
  0
LINE
  5
137F3
  8
1-前柱カバ-P
  6
1PL-M
 62
     6
 10
26015.381938817369
 20
13857.586251999999
 30
0.0
 11
25993.781938817359
 21
13857.586251999999
 31
0.0
  0
LINE
  5
137F4
  8
1-前柱カバ-P
 10
26009.381938817369
 20
13873.086251999999
 30
0.0
 11
26002.381938817362
 21
13873.086251999999
 31
0.0
  0
LINE
  5
137F5
  8
1-前柱カバ-P
 10
25998.78193881737
 20
13865.586251999999
 30
0.0
 11
25998.78193881737
 21
13873.586251999999
 31
0.0
  0
LINE
  5
137F6
  8
1-前柱カバ-P
  6
HIDE-M
 62
     6
 10
26000.881938817369
 20
13873.086251999999
 30
0.0
 11
25999.28193881737
 21
13873.086251999999
 31
0.0
  0
LINE
  5
137F7
  8
1-前柱カバ-P
 10
25998.78193881737
 20
13873.586251999999
 30
0.0
 11
25999.28193881737
 21
13873.086251999999
 31
0.0
  0
ARC
  5
137F8
  8
1-前柱カバ-P
 10
26001.631938817369
 20
13873.836251999999
 30
0.0
 40
0.75
 50
0.0
 51
180.0
  0
LINE
  5
137F9
  8
1-前柱カバ-P
 10
26010.381938817369
 20
13864.086251999999
 30
0.0
 11
26010.381938817369
 21
13872.086251999999
 31
0.0
  0
ARC
  5
137FA
  8
1-前柱カバ-P
 10
26009.381938817369
 20
13872.086251999999
 30
0.0
 40
1.0
 50
0.0
 51
90.0
  0
LINE
  5
137FB
  8
1-前柱カバ-P
  6
1PL-M
 62
     6
 10
26015.381938817369
 20
13867.586251999999
 30
0.0
 11
25993.781938817359
 21
13867.586251999999
 31
0.0
  0
LINE
  5
137FC
  8
1-前柱カバ-P
 10
26002.381938817362
 20
13865.836251999999
 30
0.0
 11
26002.381938817362
 21
13873.836251999999
 31
0.0
  0
LINE
  5
137FD
  8
1-前柱カバ-P
  6
HIDE-M
 62
     6
 10
26073.18193881739
 20
13853.586251999999
 30
0.0
 11
26084.78193881737
 21
13853.586251999999
 31
0.0
  0
LINE
  5
137FE
  8
1-前柱カバ-P
  6
HIDE-M
 62
     6
 10
26073.18193881739
 20
13861.586251999999
 30
0.0
 11
26084.78193881737
 21
13861.586251999999
 31
0.0
  0
LINE
  5
137FF
  8
1-前柱カバ-P
  6
HIDE-M
 62
     6
 10
26073.18193881739
 20
13854.586251999999
 30
0.0
 11
26084.78193881737
 21
13854.586251999999
 31
0.0
  0
LINE
  5
13800
  8
1-前柱カバ-P
  6
HIDE-M
 62
     6
 10
26073.18193881739
 20
13860.586251999999
 30
0.0
 11
26084.78193881737
 21
13860.586251999999
 31
0.0
  0
LINE
  5
13801
  8
1-前柱カバ-P
 10
26074.181938817372
 20
13863.086251999999
 30
0.0
 11
26081.181938817372
 21
13863.086251999999
 31
0.0
  0
LINE
  5
13802
  8
1-前柱カバ-P
 10
26081.181938817372
 20
13852.086251999999
 30
0.0
 11
26074.181938817372
 21
13852.086251999999
 31
0.0
  0
LINE
  5
13803
  8
1-前柱カバ-P
 10
26081.181938817372
 20
13851.336251999999
 30
0.0
 11
26081.181938817372
 21
13863.836251999999
 31
0.0
  0
LINE
  5
13804
  8
1-前柱カバ-P
 10
26084.78193881737
 20
13851.586251999999
 30
0.0
 11
26084.78193881737
 21
13863.586251999999
 31
0.0
  0
LINE
  5
13805
  8
1-前柱カバ-P
  6
HIDE-M
 62
     6
 10
26082.681938817372
 20
13863.086251999999
 30
0.0
 11
26084.28193881737
 21
13863.086251999999
 31
0.0
  0
LINE
  5
13806
  8
1-前柱カバ-P
 10
26084.78193881737
 20
13863.586251999999
 30
0.0
 11
26084.28193881737
 21
13863.086251999999
 31
0.0
  0
ARC
  5
13807
  8
1-前柱カバ-P
 10
26081.931938817372
 20
13863.836251999999
 30
0.0
 40
0.75
 50
0.0
 51
180.0
  0
LINE
  5
13808
  8
1-前柱カバ-P
  6
HIDE-M
 62
     6
 10
26084.28193881737
 20
13852.086251999999
 30
0.0
 11
26082.681938817372
 21
13852.086251999999
 31
0.0
  0
LINE
  5
13809
  8
1-前柱カバ-P
 10
26084.78193881737
 20
13851.586251999999
 30
0.0
 11
26084.28193881737
 21
13852.086251999999
 31
0.0
  0
ARC
  5
1380A
  8
1-前柱カバ-P
 10
26081.931938817372
 20
13851.336251999999
 30
0.0
 40
0.75
 50
180.0
 51
0.0
  0
LINE
  5
1380B
  8
1-前柱カバ-P
 10
26073.18193881739
 20
13853.086251999999
 30
0.0
 11
26073.18193881739
 21
13862.086251999999
 31
0.0
  0
ARC
  5
1380C
  8
1-前柱カバ-P
 10
26074.181938817372
 20
13862.086251999999
 30
0.0
 40
1.0
 50
90.0
 51
180.0
  0
ARC
  5
1380D
  8
1-前柱カバ-P
 10
26074.181938817372
 20
13853.086251999999
 30
0.0
 40
1.0
 50
180.0
 51
270.0
  0
LINE
  5
1380E
  8
1-前柱カバ-P
  6
1PL-M
 62
     6
 10
26068.181938817401
 20
13857.586251999999
 30
0.0
 11
26089.78193881737
 21
13857.586251999999
 31
0.0
  0
LINE
  5
1380F
  8
1-前柱カバ-P
 10
26074.181938817372
 20
13873.086251999999
 30
0.0
 11
26081.181938817372
 21
13873.086251999999
 31
0.0
  0
LINE
  5
13810
  8
1-前柱カバ-P
 10
26084.78193881737
 20
13865.586251999999
 30
0.0
 11
26084.78193881737
 21
13873.586251999999
 31
0.0
  0
LINE
  5
13811
  8
1-前柱カバ-P
  6
HIDE-M
 62
     6
 10
26082.681938817372
 20
13873.086251999999
 30
0.0
 11
26084.28193881737
 21
13873.086251999999
 31
0.0
  0
LINE
  5
13812
  8
1-前柱カバ-P
 10
26084.78193881737
 20
13873.586251999999
 30
0.0
 11
26084.28193881737
 21
13873.086251999999
 31
0.0
  0
ARC
  5
13813
  8
1-前柱カバ-P
 10
26081.931938817372
 20
13873.836251999999
 30
0.0
 40
0.75
 50
0.0
 51
180.0
  0
LINE
  5
13814
  8
1-前柱カバ-P
 10
26073.18193881739
 20
13864.086251999999
 30
0.0
 11
26073.18193881739
 21
13872.086251999999
 31
0.0
  0
ARC
  5
13815
  8
1-前柱カバ-P
 10
26074.181938817372
 20
13872.086251999999
 30
0.0
 40
1.0
 50
90.0
 51
180.0
  0
LINE
  5
13816
  8
1-前柱カバ-P
  6
1PL-M
 62
     6
 10
26068.181938817401
 20
13867.586251999999
 30
0.0
 11
26089.78193881737
 21
13867.586251999999
 31
0.0
  0
LINE
  5
13817
  8
1-前柱カバ-P
 10
26081.181938817372
 20
13865.836251999999
 30
0.0
 11
26081.181938817372
 21
13873.836251999999
 31
0.0
  0
LINE
  5
13818
  8
1-前柱カバ-P
  6
HIDE-M
 62
     6
 10
26010.381938817369
 20
13871.586251999999
 30
0.0
 11
25998.78193881737
 21
13871.586251999999
 31
0.0
  0
LINE
  5
13819
  8
1-前柱カバ-P
  6
HIDE-M
 62
     6
 10
26010.381938817369
 20
13870.586251999999
 30
0.0
 11
25998.78193881737
 21
13870.586251999999
 31
0.0
  0
LINE
  5
1381A
  8
1-前柱カバ-P
  6
HIDE-M
 62
     6
 10
26073.18193881739
 20
13871.586251999999
 30
0.0
 11
26084.78193881737
 21
13871.586251999999
 31
0.0
  0
LINE
  5
1381B
  8
1-前柱カバ-P
  6
HIDE-M
 62
     6
 10
26073.18193881739
 20
13870.586251999999
 30
0.0
 11
26084.78193881737
 21
13870.586251999999
 31
0.0
  0
LINE
  5
1381C
  8
0-6
  6
CONTINUOUS
 62
     6
 10
24591.70623399597
 20
13192.487109999989
 30
0.0
 11
25591.705574995962
 21
13192.487109999989
 31
0.0
  0
TEXT
  5
1381D
  8
0-6
  6
CONTINUOUS
 62
     7
 10
24687.70649799595
 20
13272.48737399998
 30
0.0
 40
160.0
  1
前柱（P）
 72
     4
 11
25087.70649799595
 21
13352.48737399998
 31
0.0
  0
LINE
  5
1381E
  8
0-6
  6
CONTINUOUS
 62
     6
 10
25996.78193881737
 20
13778.48625199999
 30
0.0
 11
25591.705574995962
 21
13192.487109999989
 31
0.0
  0
LINE
  5
1381F
  8
0-6
  6
CONTINUOUS
 62
     6
 10
24591.70623399597
 20
16080.04790995411
 30
0.0
 11
25591.705574995962
 21
16080.04790995411
 31
0.0
  0
TEXT
  5
13820
  8
0-6
  6
CONTINUOUS
 62
     7
 10
24687.70649799595
 20
16160.04817395411
 30
0.0
 40
160.0
  1
中柱（P）
 72
     4
 11
25087.70649799595
 21
16240.04817395411
 31
0.0
  0
LINE
  5
13821
  8
0-6
  6
CONTINUOUS
 62
     6
 10
25996.78193881737
 20
16666.047051954109
 30
0.0
 11
25591.705574995962
 21
16080.04790995411
 31
0.0
  0
LINE
  5
13822
  8
0-6
  6
CONTINUOUS
 62
     6
 10
24250.64434352643
 20
14393.476989828871
 30
0.0
 11
25706.644343526441
 21
14393.476989828871
 31
0.0
  0
TEXT
  5
13823
  8
0-6
  6
CONTINUOUS
 62
     7
 10
24290.64961677885
 20
14473.477253828851
 30
0.0
 40
160.0
  1
前柱カバー（P）
 72
     4
 11
24978.64961677885
 21
14553.477253828851
 31
0.0
  0
LINE
  5
13824
  8
0-6
  6
CONTINUOUS
 62
     6
 10
26005.881938817369
 20
13905.08625199999
 30
0.0
 11
25706.644343526441
 21
14393.476989828871
 31
0.0
  0
LINE
  5
13825
  8
0-6
  6
CONTINUOUS
 62
     6
 10
24250.64434352643
 20
17300.976553828848
 30
0.0
 11
25706.644343526441
 21
17300.976553828848
 31
0.0
  0
TEXT
  5
13826
  8
0-6
  6
CONTINUOUS
 62
     7
 10
24290.64961677885
 20
17380.976817828861
 30
0.0
 40
160.0
  1
中柱カバー（P）
 72
     4
 11
24978.64961677885
 21
17460.976817828861
 31
0.0
  0
LINE
  5
13827
  8
0-6
  6
CONTINUOUS
 62
     6
 10
26005.881938817369
 20
16812.585815999992
 30
0.0
 11
25706.644343526441
 21
17300.976553828848
 31
0.0
  0
LINE
  5
13828
  8
0-6
  6
CONTINUOUS
 62
     6
 10
24591.70623399597
 20
19957.423617045872
 30
0.0
 11
25591.705574995962
 21
19957.423617045872
 31
0.0
  0
TEXT
  5
13829
  8
0-6
  6
CONTINUOUS
 62
     7
 10
24687.70649799595
 20
20037.423881045859
 30
0.0
 40
160.0
  1
後柱（P）
 72
     4
 11
25087.70649799595
 21
20117.423881045859
 31
0.0
  0
LINE
  5
1382A
  8
0-6
  6
CONTINUOUS
 62
     6
 10
25996.78193881737
 20
19371.424475045849
 30
0.0
 11
25591.705574995962
 21
19957.423617045872
 31
0.0
  0
LINE
  5
1382B
  8
0-6
  6
CONTINUOUS
 62
     6
 10
24250.64434352643
 20
18751.324593542038
 30
0.0
 11
25706.64434352643
 21
18751.324593542038
 31
0.0
  0
TEXT
  5
1382C
  8
0-6
  6
CONTINUOUS
 62
     7
 10
24290.64961677885
 20
18831.324857542051
 30
0.0
 40
160.0
  1
後柱カバー（P）
 72
     4
 11
24978.64961677885
 21
18911.324857542051
 31
0.0
  0
LINE
  5
1382D
  8
0-6
  6
CONTINUOUS
 62
     6
 10
26005.881938817369
 20
19224.885710999992
 30
0.0
 11
25706.64434352643
 21
18751.324593542038
 31
0.0
  0
LINE
  5
1382E
  8
0-1
  6
CONTINUOUS
 62
     3
 10
8863.3165534379914
 20
16705.485857000029
 30
0.0
 11
11430.816553438
 21
16705.485857
 31
0.0
  0
LINE
  5
1382F
  8
0-1
  6
CONTINUOUS
 62
     3
 10
11430.816553438
 20
16705.485857
 30
0.0
 11
14003.187404206799
 21
16705.485856999971
 31
0.0
  0
LINE
  5
13830
  8
2-0
  6
DASHED3
 62
     6
 10
14003.187404206799
 20
16705.485856999971
 30
0.0
 11
14230.81655343799
 21
16705.485856999971
 31
0.0
  0
LINE
  5
13831
  8
0-1
  6
CONTINUOUS
 62
     3
 10
11377.816922437971
 20
13795.98689899999
 30
0.0
 11
11377.816922438011
 21
17788.733651581209
 31
0.0
  0
LINE
  5
13832
  8
0-1
  6
CONTINUOUS
 62
     3
 10
8913.317173437983
 20
13671.986885000029
 30
0.0
 11
8913.3171734380339
 21
18663.528769783708
 31
0.0
  0
LINE
  5
13833
  8
0-1
  6
CONTINUOUS
 62
     3
 10
8913.3171734380339
 20
18663.528769783708
 30
0.0
 11
8913.3171734380412
 21
19482.486226000012
 31
0.0
  0
LINE
  5
13834
  8
0-1
  6
CONTINUOUS
 62
     3
 10
8777.8165534379623
 20
13639.986978000021
 30
0.0
 11
8777.8165534380132
 21
18864.552678594991
 31
0.0
  0
LINE
  5
13835
  8
0-1
  6
CONTINUOUS
 62
     3
 10
8777.8165534380132
 20
18864.552678594991
 30
0.0
 11
8777.8165534380205
 21
19530.487572000009
 31
0.0
  0
LINE
  5
13836
  8
0-1
  6
CONTINUOUS
 62
     3
 10
8820.8172794379807
 20
13795.98689900002
 30
0.0
 11
14273.317807437979
 21
13795.98689899996
 31
0.0
  0
LINE
  5
13837
  8
0-1
  6
CONTINUOUS
 62
     3
 10
8863.3165534379659
 20
13874.98651600001
 30
0.0
 11
14230.81655343797
 21
13874.98651599995
 31
0.0
  0
LINE
  5
13838
  8
0-1
  6
CONTINUOUS
 62
     3
 10
8780.8165534379623
 20
13639.986978000021
 30
0.0
 11
14313.31655343796
 21
13639.986977999961
 31
0.0
  0
LINE
  5
13839
  8
0-1
  6
CONTINUOUS
 62
     3
 10
8780.8165534379623
 20
13671.986885000029
 30
0.0
 11
14313.31655343796
 21
13671.986884999969
 31
0.0
  0
LINE
  5
1383A
  8
0-1
  6
CONTINUOUS
 62
     3
 10
11430.81655343797
 20
13795.98689899999
 30
0.0
 11
11430.81655343801
 21
17766.865601417241
 31
0.0
  0
LINE
  5
1383B
  8
0-1
  6
CONTINUOUS
 62
     3
 10
11473.317807437979
 20
13795.98689899999
 30
0.0
 11
11473.317807438019
 21
17749.329261315092
 31
0.0
  0
LINE
  5
1383C
  8
0-1
  6
CONTINUOUS
 62
     3
 10
8863.3165534379623
 20
13795.98689900002
 30
0.0
 11
8863.3165534380132
 21
18830.51279728135
 31
0.0
  0
LINE
  5
1383D
  8
0-1
  6
CONTINUOUS
 62
     3
 10
8820.8172794379807
 20
13795.98689900002
 30
0.0
 11
8820.8172794380334
 21
18848.048320420468
 31
0.0
  0
LINE
  5
1383E
  8
0-1
  6
CONTINUOUS
 62
     3
 10
10083.31767543802
 20
18325.342289999611
 30
0.0
 11
10083.317675438029
 21
19482.48622599999
 31
0.0
  0
LINE
  5
1383F
  8
0-1
  6
CONTINUOUS
 62
     3
 10
10120.318836438009
 20
18310.022904715799
 30
0.0
 11
10120.31883643802
 21
19482.48622599999
 31
0.0
  0
LINE
  5
13840
  8
0-1
  6
CONTINUOUS
 62
     3
 10
10283.31734543803
 20
18242.53753689029
 30
0.0
 11
10283.317345438039
 21
19482.48622599999
 31
0.0
  0
LINE
  5
13841
  8
0-1
  6
CONTINUOUS
 62
     3
 10
10320.31652643803
 20
18227.218971374899
 30
0.0
 11
10320.31652643804
 21
19482.48622599999
 31
0.0
  0
LINE
  5
13842
  8
0-1
  6
CONTINUOUS
 62
     3
 10
10483.31800443803
 20
18159.732374310799
 30
0.0
 11
10483.318004438041
 21
19482.48622599999
 31
0.0
  0
LINE
  5
13843
  8
0-1
  6
CONTINUOUS
 62
     3
 10
10520.31817643803
 20
18144.41339849716
 30
0.0
 11
10520.318176438041
 21
19482.48622599999
 31
0.0
  0
LINE
  5
13844
  8
0-1
  6
CONTINUOUS
 62
     3
 10
10683.317675438009
 20
18076.927620787479
 30
0.0
 11
10683.317675438029
 21
19482.48622599999
 31
0.0
  0
LINE
  5
13845
  8
0-1
  6
CONTINUOUS
 62
     3
 10
10720.318836438009
 20
18060.022354088851
 30
0.0
 11
10720.318836438029
 21
19482.48622599999
 31
0.0
  0
LINE
  5
13846
  8
0-1
  6
CONTINUOUS
 62
     3
 10
10883.317345438019
 20
17994.12286767815
 30
0.0
 11
10883.317345438039
 21
19482.48622599999
 31
0.0
  0
LINE
  5
13847
  8
0-1
  6
CONTINUOUS
 62
     3
 10
10920.317516438021
 20
17977.50138017923
 30
0.0
 11
10920.317516438039
 21
19482.48622599999
 31
0.0
  0
LINE
  5
13848
  8
0-1
  6
CONTINUOUS
 62
     3
 10
11083.31800443801
 20
17910.246141207132
 30
0.0
 11
11083.31800443803
 21
19482.486225999979
 31
0.0
  0
LINE
  5
13849
  8
0-1
  6
CONTINUOUS
 62
     3
 10
11120.31817643803
 20
17894.979589306538
 30
0.0
 11
11120.31817643805
 21
19482.486225999979
 31
0.0
  0
LINE
  5
1384A
  8
0-1
  6
CONTINUOUS
 62
     3
 10
8863.3165534379914
 20
16795.488628000028
 30
0.0
 11
11430.816553438
 21
16795.488627999999
 31
0.0
  0
LINE
  5
1384B
  8
0-1
  6
CONTINUOUS
 62
     3
 10
11430.816553438
 20
16795.488627999999
 30
0.0
 11
13785.05576392763
 21
16795.488627999981
 31
0.0
  0
LINE
  5
1384C
  8
2-0
  6
DASHED3
 62
     6
 10
13785.05576392763
 20
16795.488627999981
 30
0.0
 11
14230.816553438
 21
16795.48862799997
 31
0.0
  0
LINE
  5
1384D
  8
0-1
  6
CONTINUOUS
 62
     3
 10
11360.817453081831
 20
16750.488153658851
 30
0.0
 11
8933.3172794379825
 21
13832.48625200003
 31
0.0
  0
LINE
  5
1384E
  8
0-1
  6
CONTINUOUS
 62
     3
 10
8933.3172794380116
 20
16750.486252000032
 30
0.0
 11
11360.817807437979
 21
13832.486252000001
 31
0.0
  0
LINE
  5
1384F
  8
0-1
  6
CONTINUOUS
 62
     3
 10
9735.7998913262363
 20
18469.22314897535
 30
0.0
 11
11360.817453081831
 21
16750.488153658851
 31
0.0
  0
LINE
  5
13850
  8
0-1
  6
CONTINUOUS
 62
     3
 10
10326.93614695673
 20
18224.478286639129
 30
0.0
 11
8933.3172794380116
 21
16750.486252000032
 31
0.0
  0
LINE
  5
13851
  8
0-1
  6
CONTINUOUS
 62
     3
 10
8795.8153264380071
 20
18857.217882229659
 30
0.0
 11
8795.8153264380198
 21
19522.987175999991
 31
0.0
  0
LINE
  5
13852
  8
0-1
  6
CONTINUOUS
 62
     3
 10
8851.3160784380216
 20
19505.488231000021
 30
0.0
 11
8851.3160784380216
 21
19535.487835000022
 31
0.0
  0
LINE
  5
13853
  8
0-1
  6
CONTINUOUS
 62
     3
 10
8777.8165534380205
 20
19535.487835000022
 30
0.0
 11
8777.8165534380205
 21
19500.485988000019
 31
0.0
  0
LINE
  5
13854
  8
0-1
  6
CONTINUOUS
 62
     3
 10
8846.3158144380213
 20
19540.48612000002
 30
0.0
 11
8782.8158274380294
 21
19540.48612000002
 31
0.0
  0
LINE
  5
13855
  8
0-1
  6
CONTINUOUS
 62
     3
 10
8795.8153264380198
 20
19522.987175999991
 30
0.0
 11
8777.8165534380205
 21
19522.987175999991
 31
0.0
  0
LINE
  5
13856
  8
0-1
  6
CONTINUOUS
 62
     3
 10
8795.8153264380198
 20
19500.485988000019
 30
0.0
 11
8846.3158144380213
 21
19500.485988000019
 31
0.0
  0
LINE
  5
13857
  8
0-6
  6
CONTINUOUS
 62
     6
 10
10561.15988957542
 20
19258.210728999999
 30
0.0
 11
10705.060992575411
 21
19770.486383999989
 31
0.0
  0
LINE
  5
13858
  8
0-6
  6
CONTINUOUS
 62
     6
 10
10041.3185145754
 20
19486.164171000011
 30
0.0
 11
10148.013576575409
 21
19363.988283999999
 31
0.0
  0
LINE
  5
13859
  8
0-6
  6
CONTINUOUS
 62
     6
 10
10148.013576575409
 20
19363.988283999999
 30
0.0
 11
10086.707886575399
 21
19514.164461000018
 31
0.0
  0
LINE
  5
1385A
  8
0-6
  6
CONTINUOUS
 62
     6
 10
10148.013576575409
 20
19363.988283999999
 30
0.0
 11
10041.3185145754
 21
19486.164171000011
 31
0.0
  0
LINE
  5
1385B
  8
0-6
  6
CONTINUOUS
 62
     6
 10
10041.3185145754
 20
19486.164171000011
 30
0.0
 11
10086.707886575399
 21
19514.164461000018
 31
0.0
  0
LINE
  5
1385C
  8
0-6
  6
CONTINUOUS
 62
     6
 10
10086.707886575399
 20
19514.164461000018
 30
0.0
 11
10148.013576575409
 21
19363.988283999999
 31
0.0
  0
LINE
  5
1385D
  8
0-6
  6
CONTINUOUS
 62
     6
 10
10086.707886575399
 20
19514.164461000018
 30
0.0
 11
10041.3185145754
 21
19486.164171000011
 31
0.0
  0
LINE
  5
1385E
  8
0-6
  6
CONTINUOUS
 62
     6
 10
10148.013576575409
 20
19363.988283999999
 30
0.0
 11
9854.0857495754026
 21
19770.486384
 31
0.0
  0
LINE
  5
1385F
  8
0-6
  6
CONTINUOUS
 62
     6
 10
10535.27174557541
 20
19264.610513
 30
0.0
 11
10522.77009557541
 21
19102.885824000001
 31
0.0
  0
LINE
  5
13860
  8
0-6
  6
CONTINUOUS
 62
     6
 10
10522.77009557541
 20
19102.885824000001
 30
0.0
 11
10587.045064575421
 21
19251.81490500001
 31
0.0
  0
LINE
  5
13861
  8
0-6
  6
CONTINUOUS
 62
     6
 10
10522.77009557541
 20
19102.885824000001
 30
0.0
 11
10535.27174557541
 21
19264.610513
 31
0.0
  0
LINE
  5
13862
  8
0-6
  6
CONTINUOUS
 62
     6
 10
10535.27174557541
 20
19264.610513
 30
0.0
 11
10587.045064575421
 21
19251.81490500001
 31
0.0
  0
LINE
  5
13863
  8
0-6
  6
CONTINUOUS
 62
     6
 10
10587.045064575421
 20
19251.81490500001
 30
0.0
 11
10522.77009557541
 21
19102.885824000001
 31
0.0
  0
LINE
  5
13864
  8
0-6
  6
CONTINUOUS
 62
     6
 10
10587.045064575421
 20
19251.81490500001
 30
0.0
 11
10535.27174557541
 21
19264.610513
 31
0.0
  0
LINE
  5
13865
  8
0-6
  6
CONTINUOUS
 62
     6
 10
10705.060992575411
 20
19770.486383999989
 30
0.0
 11
11222.749640575419
 21
19770.486383999982
 31
0.0
  0
LINE
  5
13866
  8
0-6
  6
CONTINUOUS
 62
     6
 10
9006.1328804380282
 20
18184.789586663941
 30
0.0
 11
8916.3171734380285
 21
18319.862037663941
 31
0.0
  0
LINE
  5
13867
  8
0-6
  6
CONTINUOUS
 62
     6
 10
8916.3171734380285
 20
18319.862037663941
 30
0.0
 11
8957.4713644380481
 21
18162.961435663921
 31
0.0
  0
LINE
  5
13868
  8
0-6
  6
CONTINUOUS
 62
     6
 10
8916.3171734380285
 20
18319.862037663941
 30
0.0
 11
9006.1328804380282
 21
18184.789586663941
 31
0.0
  0
LINE
  5
13869
  8
0-6
  6
CONTINUOUS
 62
     6
 10
9006.1328804380282
 20
18184.789586663941
 30
0.0
 11
8957.4713644380481
 21
18162.961435663921
 31
0.0
  0
LINE
  5
1386A
  8
0-6
  6
CONTINUOUS
 62
     6
 10
8957.4713644380481
 20
18162.961435663921
 30
0.0
 11
8916.3171734380285
 21
18319.862037663941
 31
0.0
  0
LINE
  5
1386B
  8
0-6
  6
CONTINUOUS
 62
     6
 10
8957.4713644380481
 20
18162.961435663921
 30
0.0
 11
9006.1328804380282
 21
18184.789586663941
 31
0.0
  0
LINE
  5
1386C
  8
0-6
  6
CONTINUOUS
 62
     6
 10
9054.0841005754046
 20
19770.486384000011
 30
0.0
 11
9854.0857495754026
 21
19770.486384
 31
0.0
  0
LINE
  5
1386D
  8
0-6
  6
CONTINUOUS
 62
     6
 10
9080.8428804380183
 20
17953.082977663918
 30
0.0
 11
9600.8436064380257
 21
17953.082977663918
 31
0.0
  0
LINE
  5
1386E
  8
0-6
  6
CONTINUOUS
 62
     6
 10
9363.0908585038378
 20
14019.87737800001
 30
0.0
 11
9445.9782505038274
 21
14196.815656999999
 31
0.0
  0
LINE
  5
1386F
  8
0-6
  6
CONTINUOUS
 62
     6
 10
9445.9782505038274
 20
14196.815656999999
 30
0.0
 11
10245.97891050382
 21
14196.81565699999
 31
0.0
  0
LINE
  5
13870
  8
0-6
  6
CONTINUOUS
 62
     6
 10
9970.1339855038314
 20
13510.440353
 30
0.0
 11
9863.8635305038224
 21
13632.9874
 31
0.0
  0
LINE
  5
13871
  8
0-6
  6
CONTINUOUS
 62
     6
 10
9863.8635305038224
 20
13632.9874
 30
0.0
 11
9924.64563850382
 21
13482.598424
 31
0.0
  0
LINE
  5
13872
  8
0-6
  6
CONTINUOUS
 62
     6
 10
9863.8635305038224
 20
13632.9874
 30
0.0
 11
9970.1339855038314
 21
13510.440353
 31
0.0
  0
LINE
  5
13873
  8
0-6
  6
CONTINUOUS
 62
     6
 10
9970.1339855038314
 20
13510.440353
 30
0.0
 11
9924.64563850382
 21
13482.598424
 31
0.0
  0
LINE
  5
13874
  8
0-6
  6
CONTINUOUS
 62
     6
 10
9924.64563850382
 20
13482.598424
 30
0.0
 11
9863.8635305038224
 21
13632.9874
 31
0.0
  0
LINE
  5
13875
  8
0-6
  6
CONTINUOUS
 62
     6
 10
9924.64563850382
 20
13482.598424
 30
0.0
 11
9970.1339855038314
 21
13510.440353
 31
0.0
  0
LINE
  5
13876
  8
0-6
  6
CONTINUOUS
 62
     6
 10
9338.9437015038238
 20
14031.189337000011
 30
0.0
 11
9295.2181155038252
 21
13874.986516000001
 31
0.0
  0
LINE
  5
13877
  8
0-6
  6
CONTINUOUS
 62
     6
 10
9295.2181155038252
 20
13874.986516000001
 30
0.0
 11
9387.239006503838
 21
14008.564429
 31
0.0
  0
LINE
  5
13878
  8
0-6
  6
CONTINUOUS
 62
     6
 10
9295.2181155038252
 20
13874.986516000001
 30
0.0
 11
9338.9437015038238
 21
14031.189337000011
 31
0.0
  0
LINE
  5
13879
  8
0-6
  6
CONTINUOUS
 62
     6
 10
9338.9437015038238
 20
14031.189337000011
 30
0.0
 11
9387.239006503838
 21
14008.564429
 31
0.0
  0
LINE
  5
1387A
  8
0-6
  6
CONTINUOUS
 62
     6
 10
9387.239006503838
 20
14008.564429
 30
0.0
 11
9295.2181155038252
 21
13874.986516000001
 31
0.0
  0
LINE
  5
1387B
  8
0-6
  6
CONTINUOUS
 62
     6
 10
9387.239006503838
 20
14008.564429
 30
0.0
 11
9338.9437015038238
 21
14031.189337000011
 31
0.0
  0
LINE
  5
1387C
  8
0-6
  6
CONTINUOUS
 62
     6
 10
10353.502400503839
 20
12832.98772999999
 30
0.0
 11
11216.082571503821
 21
12832.987729999981
 31
0.0
  0
LINE
  5
1387D
  8
0-6
  6
CONTINUOUS
 62
     6
 10
9947.3903075038252
 20
13496.51938900001
 30
0.0
 11
10353.502400503839
 21
12832.98772999999
 31
0.0
  0
LINE
  5
1387E
  8
0-6
  6
CONTINUOUS
 62
     6
 10
8758.3658434379868
 20
13882.27722800001
 30
0.0
 11
8780.8165534379641
 21
14042.923079
 31
0.0
  0
LINE
  5
1387F
  8
0-6
  6
CONTINUOUS
 62
     6
 10
8780.8165534379641
 20
14042.923079
 30
0.0
 11
8707.4793494379574
 21
13898.24204500003
 31
0.0
  0
LINE
  5
13880
  8
0-6
  6
CONTINUOUS
 62
     6
 10
8780.8165534379641
 20
14042.923079
 30
0.0
 11
8758.3658434379868
 21
13882.27722800001
 31
0.0
  0
LINE
  5
13881
  8
0-6
  6
CONTINUOUS
 62
     6
 10
8758.3658434379868
 20
13882.27722800001
 30
0.0
 11
8707.4793494379574
 21
13898.24204500003
 31
0.0
  0
LINE
  5
13882
  8
0-6
  6
CONTINUOUS
 62
     6
 10
8707.4793494379574
 20
13898.24204500003
 30
0.0
 11
8780.8165534379641
 21
14042.923079
 31
0.0
  0
LINE
  5
13883
  8
0-6
  6
CONTINUOUS
 62
     6
 10
8707.4793494379574
 20
13898.24204500003
 30
0.0
 11
8758.3658434379868
 21
13882.27722800001
 31
0.0
  0
LINE
  5
13884
  8
0-6
  6
CONTINUOUS
 62
     6
 10
7066.1823024379437
 20
12019.98672700002
 30
0.0
 11
8146.1819064379661
 21
12019.98672700001
 31
0.0
  0
LINE
  5
13885
  8
0-6
  6
CONTINUOUS
 62
     6
 10
8732.9221014379691
 20
13890.258647000021
 30
0.0
 11
8146.1819064379661
 21
12019.98672700001
 31
0.0
  0
LINE
  5
13886
  8
0-6
  6
CONTINUOUS
 62
     6
 10
8981.8026174380175
 20
18173.87650066393
 30
0.0
 11
9080.8428804380183
 21
17953.082977663918
 31
0.0
  0
LINE
  5
13887
  8
0-6
  6
CONTINUOUS
 62
     6
 10
14313.31655343802
 20
19540.48611999995
 30
0.0
 11
14405.00389543804
 21
19674.29365799997
 31
0.0
  0
LINE
  5
13888
  8
0-6
  6
CONTINUOUS
 62
     6
 10
14443.445156438031
 20
19637.32614799996
 30
0.0
 11
14313.31655343802
 21
19540.48611999995
 31
0.0
  0
LINE
  5
13889
  8
0-6
  6
CONTINUOUS
 62
     6
 10
14443.445156438031
 20
19637.32614799996
 30
0.0
 11
14405.00389543804
 21
19674.29365799997
 31
0.0
  0
LINE
  5
1388A
  8
0-6
  6
CONTINUOUS
 62
     6
 10
14424.22502143804
 20
19655.808912999961
 30
0.0
 11
14941.21390943804
 21
20160.487175999959
 31
0.0
  0
LINE
  5
1388B
  8
0-6
  6
CONTINUOUS
 62
     6
 10
14941.21390943804
 20
20160.487175999959
 30
0.0
 11
16616.213249438049
 21
20160.487175999941
 31
0.0
  0
LINE
  5
1388C
  8
2-0
  6
DASHED3
 62
     6
 10
8863.3165534380205
 20
19278.98775600002
 30
0.0
 11
14230.81655343801
 21
19278.98775599997
 31
0.0
  0
LINE
  5
1388D
  8
2-0
  6
DASHED3
 62
     6
 10
8820.8172794380334
 20
18848.048320420468
 30
0.0
 11
8820.8172794380407
 21
19363.98828400001
 31
0.0
  0
LINE
  5
1388E
  8
2-0
  6
DASHED3
 62
     6
 10
8863.3165534380132
 20
18830.51279728135
 30
0.0
 11
8863.3165534380205
 21
19363.98828400001
 31
0.0
  0
LINE
  5
1388F
  8
2-0
  6
DASHED3
 62
     6
 10
8820.8172794380407
 20
19363.98828400001
 30
0.0
 11
14230.81655343801
 21
19363.988283999959
 31
0.0
  0
LINE
  5
13890
  8
2-0
  6
DASHED3
 62
     6
 10
11430.81655343801
 20
17766.865601417248
 30
0.0
 11
11430.81655343803
 21
19363.988283999988
 31
0.0
  0
LINE
  5
13891
  8
2-0
  6
DASHED3
 62
     6
 10
11473.317807438019
 20
17749.329261315099
 30
0.0
 11
11473.317807438039
 21
19363.988283999988
 31
0.0
  0
LINE
  5
13892
  8
2-0
  6
DASHED3
 62
     6
 10
8933.3172794380407
 20
19317.986252000021
 30
0.0
 11
9735.7998913262363
 21
18469.22314897535
 31
0.0
  0
LINE
  5
13893
  8
2-0
  6
DASHED3
 62
     6
 10
11360.817807438039
 20
19317.986251999999
 30
0.0
 11
10326.93614695673
 21
18224.478286639129
 31
0.0
  0
LINE
  5
13894
  8
2-0
  6
CENTER2
 62
     6
 10
11430.816553438041
 20
20960.48849500002
 30
0.0
 11
11430.81655343803
 21
19610.487834999989
 31
0.0
  0
LINE
  5
13895
  8
2-0
  6
CENTER2
 62
     6
 10
7533.8164484380404
 20
19317.986252000039
 30
0.0
 11
9180.3156694380195
 21
19317.986252000021
 31
0.0
  0
LINE
  5
13896
  8
0-8
  6
CONTINUOUS
 62
     6
 10
8863.3165534380296
 20
20960.488495000049
 30
0.0
 11
8863.3165534380205
 21
19610.487835000022
 31
0.0
  0
LINE
  5
13897
  8
2-0
  6
CENTER2
 62
     6
 10
7533.816448438014
 20
16750.486252000039
 30
0.0
 11
14402.616001438
 21
16750.48625199997
 31
0.0
  0
LINE
  5
13898
  8
2-0
  6
CENTER2
 62
     6
 10
7533.8164484379849
 20
13832.486252000041
 30
0.0
 11
9180.3156694379632
 21
13832.486252000021
 31
0.0
  0
ARC
  5
13899
  8
0-1
  6
CONTINUOUS
 62
     3
 10
8846.3158144380213
 20
19505.488231000021
 30
0.0
 40
5.0
 50
269.9999850001808
 51
0.0
  0
ARC
  5
1389A
  8
0-1
  6
CONTINUOUS
 62
     3
 10
8846.318515755509
 20
19535.48895392234
 30
0.0
 40
4.99729880777691
 50
359.98717116373359
 51
90.030971551829396
  0
ARC
  5
1389B
  8
0-1
  6
CONTINUOUS
 62
     3
 10
8782.8129009617915
 20
19535.489047186151
 30
0.0
 40
4.9970736707893684
 50
89.966445412290014
 51
180.01389876464731
  0
CIRCLE
  5
1389C
  8
0-5
  6
CONTINUOUS
 62
     4
 10
11430.816553438041
 20
21160.48717600001
 30
0.0
 40
199.9999949999999
  0
CIRCLE
  5
1389D
  8
0-5
  6
CONTINUOUS
 62
     4
 10
8863.3165534380369
 20
21160.487176000039
 30
0.0
 40
199.9999949999999
  0
CIRCLE
  5
1389E
  8
0-5
  6
CONTINUOUS
 62
     4
 10
7333.8167774380381
 20
19317.986252000039
 30
0.0
 40
199.9999949999999
  0
CIRCLE
  5
1389F
  8
0-5
  6
CONTINUOUS
 62
     4
 10
7333.8167774380127
 20
16750.486252000039
 30
0.0
 40
199.9999949999999
  0
CIRCLE
  5
138A0
  8
0-5
  6
CONTINUOUS
 62
     4
 10
7333.8167774379835
 20
13832.486252000041
 30
0.0
 40
199.9999949999999
  0
TEXT
  5
138A1
  8
0-5
  6
CONTINUOUS
 62
     7
 10
11377.099347438039
 20
21071.272253000028
 30
0.0
 40
160.0
  1
2
 50
359.99999999999937
 72
     4
 11
11430.432680771381
 21
21151.272253000028
 31
0.0
  0
TEXT
  5
138A2
  8
0-5
  6
CONTINUOUS
 62
     7
 10
8836.6498867713672
 20
21080.487176000039
 30
0.0
 40
160.0
  1
1
 50
359.99999999999937
 72
     4
 11
8863.3165534380369
 21
21160.487176000039
 31
0.0
  0
TEXT
  5
138A3
  8
0-5
  6
CONTINUOUS
 62
     7
 10
7280.3569094380446
 20
19238.397728000029
 30
0.0
 40
160.0
  1
C
 50
359.99999999999937
 72
     4
 11
7333.6902427713794
 21
19318.397728000029
 31
0.0
  0
TEXT
  5
138A4
  8
0-5
  6
CONTINUOUS
 62
     7
 10
7280.3569094380182
 20
16670.898718000029
 30
0.0
 40
160.0
  1
B
 50
359.99999999999937
 72
     4
 11
7333.690242771353
 21
16750.898718000029
 31
0.0
  0
TEXT
  5
138A5
  8
0-5
  6
CONTINUOUS
 62
     7
 10
7280.35690943799
 20
13752.897728000031
 30
0.0
 40
160.0
  1
A
 50
359.99999999999937
 72
     4
 11
7333.6902427713248
 21
13832.897728000031
 31
0.0
  0
TEXT
  5
138A6
  8
0-6
  6
CONTINUOUS
 62
     7
 10
10785.061256575411
 20
19850.486647999998
 30
0.0
 40
160.0
  1
屋根
 50
359.99999999999937
 72
     4
 11
10955.727923242081
 21
19930.486647999998
 31
0.0
  0
TEXT
  5
138A7
  8
0-6
  6
CONTINUOUS
 62
     7
 10
9134.0853545754162
 20
19850.486648000009
 30
0.0
 40
160.0
  1
桁（後）
 50
359.99999999999937
 72
     4
 11
9454.0853545754162
 21
19930.486648000009
 31
0.0
  0
TEXT
  5
138A8
  8
0-6
  6
CONTINUOUS
 62
     7
 10
9525.977524503829
 20
14276.81592100001
 30
0.0
 40
160.0
  1
桁（前）
 50
359.99999999999937
 72
     4
 11
9845.9775245038309
 21
14356.81592100001
 31
0.0
  0
TEXT
  5
138A9
  8
0-6
  6
CONTINUOUS
 62
     7
 10
10433.501674503819
 20
12912.987004000001
 30
0.0
 40
160.0
  1
鼻隠し前
 50
359.99999999999937
 72
     4
 11
10796.168341170491
 21
12992.987004000001
 31
0.0
  0
TEXT
  5
138AA
  8
0-6
  6
CONTINUOUS
 62
     7
 10
7146.1825664379458
 20
12099.98600100003
 30
0.0
 40
160.0
  1
ケラバ 左
 50
359.99999999999937
 72
     4
 11
7562.1825664379467
 21
12179.98600100003
 31
0.0
  0
TEXT
  5
138AB
  8
0-6
  6
CONTINUOUS
 62
     7
 10
9160.8431444380421
 20
18033.083241663931
 30
0.0
 40
160.0
  1
上枠
 50
359.99999999999937
 72
     4
 11
9331.5098111047064
 21
18113.083241663931
 31
0.0
  0
TEXT
  5
138AC
  8
0-6
  6
CONTINUOUS
 62
     7
 10
15021.21417343804
 20
20240.485459999971
 30
0.0
 40
160.0
  1
鼻隠しコーナー後
 50
359.99999999999937
 72
     4
 11
15767.88084010471
 21
20320.48545999996
 31
0.0
  0
LINE
  5
138AD
  8
2-0
  6
CENTER2
 62
     6
 10
14230.81655343803
 20
20960.488494999991
 30
0.0
 11
14230.81655343801
 21
19610.487834999971
 31
0.0
  0
CIRCLE
  5
138AE
  8
0-5
  6
CONTINUOUS
 62
     4
 10
14230.81655343803
 20
21160.487175999991
 30
0.0
 40
199.9999949999999
  0
TEXT
  5
138AF
  8
0-5
  6
CONTINUOUS
 62
     7
 10
14177.483220104699
 20
21080.487175999991
 30
0.0
 40
160.0
  1
3
 50
359.99999999999937
 72
     4
 11
14230.81655343803
 21
21160.487175999991
 31
0.0
  0
LINE
  5
138B0
  8
0-1
  6
CONTINUOUS
 62
     3
 10
14298.31679143799
 20
16584.950482299031
 30
0.0
 11
14298.31679143801
 21
19522.987175999941
 31
0.0
  0
LINE
  5
138B1
  8
0-1
  6
CONTINUOUS
 62
     3
 10
14298.31679143801
 20
19522.987175999941
 30
0.0
 11
14316.31655343801
 21
19522.98717599993
 31
0.0
  0
LINE
  5
138B2
  8
0-1
  6
CONTINUOUS
 62
     3
 10
14242.81603943803
 20
19505.488230999959
 30
0.0
 11
14242.81603943803
 21
19535.48783499996
 31
0.0
  0
LINE
  5
138B3
  8
0-1
  6
CONTINUOUS
 62
     3
 10
14298.31679143801
 20
19500.485987999971
 30
0.0
 11
14247.817293438031
 21
19500.485987999971
 31
0.0
  0
LINE
  5
138B4
  8
0-1
  6
CONTINUOUS
 62
     3
 10
14316.31655343801
 20
19535.48783499996
 30
0.0
 11
14316.31655343801
 21
19500.48598799996
 31
0.0
  0
LINE
  5
138B5
  8
0-1
  6
CONTINUOUS
 62
     3
 10
14247.817293438031
 20
19540.486119999969
 30
0.0
 11
14311.31530043802
 21
19540.48611999995
 31
0.0
  0
ARC
  5
138B6
  8
0-1
  6
CONTINUOUS
 62
     3
 10
14311.31530043802
 20
19535.48783499996
 30
0.0
 40
5.0
 50
0.0
 51
90.0
  0
ARC
  5
138B7
  8
0-1
  6
CONTINUOUS
 62
     3
 10
14247.817293438031
 20
19535.48783499996
 30
0.0
 40
5.0
 50
90.0
 51
180.0
  0
ARC
  5
138B8
  8
0-1
  6
CONTINUOUS
 62
     3
 10
14247.817293438031
 20
19505.488230999959
 30
0.0
 40
5.0
 50
180.0
 51
269.9999850001808
  0
LINE
  5
138B9
  8
0-1
  6
CONTINUOUS
 62
     3
 10
11430.81655343797
 20
13795.98689899999
 30
0.0
 11
11430.81655343797
 21
13639.98697799999
 31
0.0
  0
LINE
  5
138BA
  8
0-1
  6
CONTINUOUS
 62
     3
 10
8526.5458626506552
 20
18969.88388152016
 30
0.0
 11
11839.61500678266
 21
17598.192255659389
 31
0.0
  0
LINE
  5
138BB
  8
0-1
  6
CONTINUOUS
 62
     3
 10
12764.01761242829
 20
17216.776721804468
 30
0.0
 11
14595.90215036912
 21
16460.927252393609
 31
0.0
  0
LINE
  5
138BC
  8
0-1
  6
CONTINUOUS
 62
     3
 10
14180.816922437971
 20
13671.98688499998
 30
0.0
 11
14180.816922438
 21
16633.432391858059
 31
0.0
  0
LINE
  5
138BD
  8
0-1
  6
CONTINUOUS
 62
     3
 10
14316.31655343797
 20
13639.986977999961
 30
0.0
 11
14316.31655343799
 21
16577.523643829991
 31
0.0
  0
LINE
  5
138BE
  8
0-1
  6
CONTINUOUS
 62
     3
 10
14230.81655343797
 20
13795.98689899996
 30
0.0
 11
14230.81655343799
 21
16611.56434169408
 31
0.0
  0
LINE
  5
138BF
  8
0-1
  6
CONTINUOUS
 62
     3
 10
14273.317807437979
 20
13795.98689899996
 30
0.0
 11
14273.31780743801
 21
16594.028001591909
 31
0.0
  0
LINE
  5
138C0
  8
0-1
  6
CONTINUOUS
 62
     3
 10
14177.816922438
 20
16633.432391858059
 30
0.0
 11
14177.816922438031
 21
19482.486225999972
 31
0.0
  0
LINE
  5
138C1
  8
0-1
  6
CONTINUOUS
 62
     3
 10
14316.31655343799
 20
16577.523643829991
 30
0.0
 11
14316.31655343801
 21
19522.98717599993
 31
0.0
  0
LINE
  5
138C2
  8
2-0
  6
DASHED3
 62
     6
 10
14230.81655343799
 20
16611.56434169408
 30
0.0
 11
14230.81655343801
 21
19482.48622599995
 31
0.0
  0
LINE
  5
138C3
  8
2-0
  6
DASHED3
 62
     6
 10
14273.31780743801
 20
16594.028001591909
 30
0.0
 11
14273.31780743803
 21
19482.48622599995
 31
0.0
  0
LINE
  5
138C4
  8
0-1
  6
CONTINUOUS
 62
     3
 10
11283.31866443802
 20
17827.724350334451
 30
0.0
 11
11283.31866443804
 21
19482.486225999979
 31
0.0
  0
LINE
  5
138C5
  8
0-1
  6
CONTINUOUS
 62
     3
 10
11320.318836438029
 20
17812.457798433879
 30
0.0
 11
11320.318836438049
 21
19482.486225999979
 31
0.0
  0
LINE
  5
138C6
  8
0-1
  6
CONTINUOUS
 62
     3
 10
11483.319324438031
 20
17745.20255946177
 30
0.0
 11
11483.319324438051
 21
19482.486225999979
 31
0.0
  0
LINE
  5
138C7
  8
0-1
  6
CONTINUOUS
 62
     3
 10
11520.319496438029
 20
17729.936007561209
 30
0.0
 11
11520.319496438049
 21
19482.486225999979
 31
0.0
  0
LINE
  5
138C8
  8
0-1
  6
CONTINUOUS
 62
     3
 10
11683.31998443804
 20
17662.6807685891
 30
0.0
 11
11683.31998443806
 21
19482.486225999979
 31
0.0
  0
LINE
  5
138C9
  8
0-1
  6
CONTINUOUS
 62
     3
 10
11720.32015643806
 20
17647.41421668855
 30
0.0
 11
11720.320156438071
 21
19482.486225999979
 31
0.0
  0
LINE
  5
138CA
  8
0-1
  6
CONTINUOUS
 62
     3
 10
11883.32064443805
 20
17704.117688013219
 30
0.0
 11
11883.32064443807
 21
19482.486225999979
 31
0.0
  0
LINE
  5
138CB
  8
0-1
  6
CONTINUOUS
 62
     3
 10
11920.32081643805
 20
17793.791684927972
 30
0.0
 11
11920.32081643807
 21
19482.486225999979
 31
0.0
  0
LINE
  5
138CC
  8
0-1
  6
CONTINUOUS
 62
     3
 10
12083.32130443805
 20
17658.714093947619
 30
0.0
 11
12083.32130443807
 21
19482.486225999979
 31
0.0
  0
LINE
  5
138CD
  8
0-1
  6
CONTINUOUS
 62
     3
 10
12120.321476438059
 20
17616.170853558739
 30
0.0
 11
12120.321476438079
 21
19482.486225999972
 31
0.0
  0
LINE
  5
138CE
  8
0-1
  6
CONTINUOUS
 62
     3
 10
12283.321964438061
 20
17428.750942524632
 30
0.0
 11
12283.321964438081
 21
19482.486225999972
 31
0.0
  0
LINE
  5
138CF
  8
0-1
  6
CONTINUOUS
 62
     3
 10
12320.32213643807
 20
17386.207702135751
 30
0.0
 11
12320.32213643809
 21
19482.486225999979
 31
0.0
  0
LINE
  5
138D0
  8
0-1
  6
CONTINUOUS
 62
     3
 10
12483.32262443808
 20
17198.78779110164
 30
0.0
 11
12483.3226244381
 21
19482.486225999972
 31
0.0
  0
LINE
  5
138D1
  8
0-1
  6
CONTINUOUS
 62
     3
 10
12520.32279643808
 20
17156.244550712749
 30
0.0
 11
12520.3227964381
 21
19482.486225999979
 31
0.0
  0
LINE
  5
138D2
  8
0-1
  6
CONTINUOUS
 62
     3
 10
12683.32328443808
 20
17021.19577849182
 30
0.0
 11
12683.3232844381
 21
19482.486225999972
 31
0.0
  0
LINE
  5
138D3
  8
0-1
  6
CONTINUOUS
 62
     3
 10
12720.32345643808
 20
17110.874058523721
 30
0.0
 11
12720.323456438109
 21
19482.486225999979
 31
0.0
  0
LINE
  5
138D4
  8
0-1
  6
CONTINUOUS
 62
     3
 10
12883.32394443808
 20
17167.550023353069
 30
0.0
 11
12883.323944438111
 21
19482.486225999972
 31
0.0
  0
LINE
  5
138D5
  8
0-1
  6
CONTINUOUS
 62
     3
 10
12920.3241164381
 20
17152.283471452509
 30
0.0
 11
12920.32411643812
 21
19482.486225999979
 31
0.0
  0
LINE
  5
138D6
  8
0-1
  6
CONTINUOUS
 62
     3
 10
13083.324604438099
 20
17085.028232480388
 30
0.0
 11
13083.324604438119
 21
19482.486225999972
 31
0.0
  0
LINE
  5
138D7
  8
0-1
  6
CONTINUOUS
 62
     3
 10
13120.32477643811
 20
17069.761680579839
 30
0.0
 11
13120.32477643813
 21
19482.486225999979
 31
0.0
  0
LINE
  5
138D8
  8
0-1
  6
CONTINUOUS
 62
     3
 10
13283.32526443811
 20
17002.506441607718
 30
0.0
 11
13283.32526443813
 21
19482.48622599995
 31
0.0
  0
LINE
  5
138D9
  8
0-1
  6
CONTINUOUS
 62
     3
 10
13320.32543643811
 20
16987.239889707169
 30
0.0
 11
13320.32543643813
 21
19482.486225999972
 31
0.0
  0
LINE
  5
138DA
  8
0-1
  6
CONTINUOUS
 62
     3
 10
13483.325924438121
 20
16919.984650735048
 30
0.0
 11
13483.325924438141
 21
19482.48622599995
 31
0.0
  0
LINE
  5
138DB
  8
0-1
  6
CONTINUOUS
 62
     3
 10
13520.326096438121
 20
16904.718098834481
 30
0.0
 11
13520.32609643815
 21
19482.486225999972
 31
0.0
  0
LINE
  5
138DC
  8
0-1
  6
CONTINUOUS
 62
     3
 10
11490.316922437971
 20
13832.486252000001
 30
0.0
 11
14087.71462832388
 21
16670.60928253446
 31
0.0
  0
LINE
  5
138DD
  8
0-1
  6
CONTINUOUS
 62
     3
 10
14160.81655343797
 20
13832.486251999981
 30
0.0
 11
11490.316922438
 21
16750.486251999999
 31
0.0
  0
LINE
  5
138DE
  8
0-6
  6
CONTINUOUS
 62
     6
 10
14177.81692243798
 20
14194.425531177611
 30
0.0
 11
13278.37951301519
 21
12862.49857027387
 31
0.0
  0
LINE
  5
138DF
  8
2-0
  6
DASHED3
 62
     6
 10
11490.316922438031
 20
19317.986251999999
 30
0.0
 11
14160.816553438
 21
16750.486251999981
 31
0.0
  0
LINE
  5
138E0
  8
2-0
  6
DASHED3
 62
     6
 10
14160.81655343802
 20
19317.986251999981
 30
0.0
 11
12243.46173868366
 21
17474.582706934369
 31
0.0
  0
LINE
  5
138E1
  8
0-1
  6
CONTINUOUS
 62
     3
 10
12243.46173868366
 20
17474.582706934369
 30
0.0
 11
11490.316922438
 21
16750.486251999999
 31
0.0
  0
LINE
  5
138E2
  8
0-1
  6
CONTINUOUS
 62
     3
 10
11839.61446902289
 20
17598.190952339279
 30
0.0
 11
11934.9684893464
 21
17829.291935445479
 31
0.0
  0
LINE
  5
138E3
  8
0-1
  6
CONTINUOUS
 62
     3
 10
12668.668021529609
 20
16985.675436287838
 30
0.0
 11
12764.01867120713
 21
17216.779287994312
 31
0.0
  0
LINE
  5
138E4
  8
0-1
  6
CONTINUOUS
 62
     3
 10
12668.668021529609
 20
16985.675436287838
 30
0.0
 11
11934.9684893464
 21
17829.291935445479
 31
0.0
  0
LINE
  5
138E5
  8
0-6
  6
CONTINUOUS
 62
     6
 10
9850.5414048916227
 20
16281.2071573341
 30
0.0
 11
10730.540348891611
 21
16281.20715733408
 31
0.0
  0
LINE
  5
138E6
  8
0-6
  6
CONTINUOUS
 62
     6
 10
9672.7792675432174
 20
16111.19002966377
 30
0.0
 11
9850.5414048916227
 21
16281.2071573341
 31
0.0
  0
LINE
  5
138E7
  8
0-6
  6
CONTINUOUS
 62
     6
 10
9557.1516275432241
 20
16000.600265663759
 30
0.0
 11
9654.3489595432275
 21
16130.462622663759
 31
0.0
  0
LINE
  5
138E8
  8
0-6
  6
CONTINUOUS
 62
     6
 10
9691.2105645432075
 20
16091.917436663771
 30
0.0
 11
9557.1516275432241
 21
16000.600265663759
 31
0.0
  0
LINE
  5
138E9
  8
0-6
  6
CONTINUOUS
 62
     6
 10
9691.2105645432075
 20
16091.917436663771
 30
0.0
 11
9654.3489595432275
 21
16130.462622663759
 31
0.0
  0
TEXT
  5
138EA
  8
0-6
  6
CONTINUOUS
 62
     7
 10
9930.5426588916143
 20
16361.20742133408
 30
0.0
 40
160.0
  1
ブレース
 50
359.99999999999937
 72
     4
 11
10293.20932555828
 21
16446.540754667411
 31
0.0
  0
LINE
  5
138EB
  8
0-6
  6
CONTINUOUS
 62
     6
 10
10502.58892030063
 20
16805.488733000009
 30
0.0
 11
10383.29130196826
 21
17121.081071000001
 31
0.0
  0
LINE
  5
138EC
  8
0-6
  6
CONTINUOUS
 62
     6
 10
9582.7205409682883
 20
17121.081071000011
 30
0.0
 11
10383.29130196826
 21
17121.081071000001
 31
0.0
  0
TEXT
  5
138ED
  8
0-6
  6
CONTINUOUS
 62
     7
 10
9663.2909059682679
 20
17201.081335000021
 30
0.0
 40
160.0
  1
桁（中）
 50
359.99999999999937
 72
     4
 11
9983.2909059682679
 21
17281.081335000021
 31
0.0
  0
LINE
  5
138EE
  8
0-6
  6
CONTINUOUS
 62
     6
 10
12135.29372149522
 20
14214.50453280396
 30
0.0
 11
13015.292665495241
 21
14214.50453280395
 31
0.0
  0
LINE
  5
138EF
  8
0-6
  6
CONTINUOUS
 62
     6
 10
13383.034371069871
 20
14682.352839437121
 30
0.0
 11
13015.292665495241
 21
14214.50453280395
 31
0.0
  0
TEXT
  5
138F0
  8
0-6
  6
CONTINUOUS
 62
     7
 10
12215.294975495241
 20
14294.504796803971
 30
0.0
 40
160.0
  1
ブレース
 50
359.99999999999937
 72
     4
 11
12577.96164216191
 21
14379.838130137299
 31
0.0
  0
LINE
  5
138F1
  8
0-6
  6
CONTINUOUS
 62
     6
 10
12415.697932048441
 20
16174.315380600379
 30
0.0
 11
13208.54886947114
 21
16174.31538060037
 31
0.0
  0
TEXT
  5
138F2
  8
0-6
  6
CONTINUOUS
 62
     7
 10
12498.317690901989
 20
16254.31564460038
 30
0.0
 40
160.0
  1
桁（P）
 50
359.99999999999937
 72
     4
 11
12802.317690901989
 21
16334.31564460038
 31
0.0
  0
LINE
  5
138F3
  8
0-6
  6
CONTINUOUS
 62
     6
 10
12415.697932048441
 20
16174.315380600379
 30
0.0
 11
12100.40668143388
 21
16705.485856999989
 31
0.0
  0
LINE
  5
138F4
  8
SUNPOU
  6
CONTINUOUS
 10
7933.8167774380381
 20
19540.484140500041
 30
0.0
 11
7933.8167774380508
 21
20337.45140827851
 31
0.0
  0
LINE
  5
138F5
  8
SUNPOU
  6
CONTINUOUS
 10
7933.8167774379581
 20
12898.67438784785
 30
0.0
 11
7933.8167774379654
 21
13639.986978000021
 31
0.0
  0
LINE
  5
138F6
  8
0-1
  6
CONTINUOUS
 62
     3
 10
13683.32658443812
 20
16837.462859862411
 30
0.0
 11
13683.326584438149
 21
19482.48622599995
 31
0.0
  0
LINE
  5
138F7
  8
0-1
  6
CONTINUOUS
 62
     3
 10
13720.326756438129
 20
16822.196307961862
 30
0.0
 11
13720.326756438149
 21
19482.486225999972
 31
0.0
  0
LINE
  5
138F8
  8
0-1
  6
CONTINUOUS
 62
     3
 10
13883.32724443812
 20
16754.941068989749
 30
0.0
 11
13883.32724443816
 21
19482.48622599995
 31
0.0
  0
LINE
  5
138F9
  8
0-1
  6
CONTINUOUS
 62
     3
 10
13920.32741643814
 20
16739.674517089181
 30
0.0
 11
13920.32741643816
 21
19482.486225999972
 31
0.0
  0
LINE
  5
138FA
  8
0-1
  6
CONTINUOUS
 62
     3
 10
14083.327904438131
 20
16672.419278117071
 30
0.0
 11
14083.32790443816
 21
19482.48622599995
 31
0.0
  0
LINE
  5
138FB
  8
0-1
  6
CONTINUOUS
 62
     3
 10
14120.32807643814
 20
16657.152726216511
 30
0.0
 11
14120.328076438171
 21
19482.486225999972
 31
0.0
  0
LINE
  5
138FC
  8
0-1
  6
CONTINUOUS
 62
     3
 10
9683.3183344380341
 20
18490.95179663222
 30
0.0
 11
9683.3183344380413
 21
19482.48622599999
 31
0.0
  0
LINE
  5
138FD
  8
0-1
  6
CONTINUOUS
 62
     3
 10
9720.3185064380323
 20
18475.63282081861
 30
0.0
 11
9720.3185064380414
 21
19482.48622599999
 31
0.0
  0
LINE
  5
138FE
  8
0-1
  6
CONTINUOUS
 62
     3
 10
9883.3180054380191
 20
18408.1470431089
 30
0.0
 11
9883.3180054380337
 21
19482.48622599999
 31
0.0
  0
LINE
  5
138FF
  8
0-1
  6
CONTINUOUS
 62
     3
 10
9920.319166438012
 20
18392.82765782511
 30
0.0
 11
9920.3191664380192
 21
19482.48622599999
 31
0.0
  0
LINE
  5
13900
  8
0-6
  6
CONTINUOUS
 62
     6
 10
11357.317472993909
 20
13108.81650160039
 30
0.0
 11
12150.1684104166
 21
13108.81650160039
 31
0.0
  0
TEXT
  5
13901
  8
0-6
  6
CONTINUOUS
 62
     7
 10
11343.937231847471
 20
13188.81676560039
 30
0.0
 40
160.0
  1
桁前（P）
 50
359.99999999999937
 72
     4
 11
11743.937231847471
 21
13268.81676560039
 31
0.0
  0
LINE
  5
13902
  8
0-6
  6
CONTINUOUS
 62
     6
 10
12150.1684104166
 20
13108.81650160039
 30
0.0
 11
12465.45966103118
 21
13639.986978000001
 31
0.0
  0
LINE
  5
13903
  8
0-6
  6
CONTINUOUS
 62
     6
 10
12415.697932048481
 20
19798.55378129386
 30
0.0
 11
13208.54886947118
 21
19798.553781293849
 31
0.0
  0
TEXT
  5
13904
  8
0-6
  6
CONTINUOUS
 62
     7
 10
12498.317690902029
 20
19878.554045293859
 30
0.0
 40
160.0
  1
桁（P）
 50
359.99999999999937
 72
     4
 11
12802.317690902029
 21
19958.554045293859
 31
0.0
  0
LINE
  5
13905
  8
0-6
  6
CONTINUOUS
 62
     6
 10
12415.697932048481
 20
19798.55378129386
 30
0.0
 11
11967.827332550931
 21
19373.15682101042
 31
0.0
  0
LINE
  5
13906
  8
0-1
  6
CONTINUOUS
 62
     3
 10
14239.817028438019
 20
19530.48955099997
 30
0.0
 11
8854.3160784379997
 21
19530.489551000021
 31
0.0
  0
LINE
  5
13907
  8
0-1
  6
CONTINUOUS
 62
     3
 10
14295.31679143801
 20
19482.48622599995
 30
0.0
 11
8798.8153264380126
 21
19482.486226000012
 31
0.0
  0
LINE
  5
13908
  8
0-6
  6
CONTINUOUS
 62
     6
 10
10341.89008506706
 20
19672.892158999999
 30
0.0
 11
10385.192054067071
 21
19647.890839
 31
0.0
  0
LINE
  5
13909
  8
0-6
  6
CONTINUOUS
 62
     6
 10
10341.89008506706
 20
19672.892158999999
 30
0.0
 11
10288.542059067049
 21
19530.48955099997
 31
0.0
  0
LINE
  5
1390A
  8
0-6
  6
CONTINUOUS
 62
     6
 10
10385.192054067071
 20
19647.890839
 30
0.0
 11
10341.89008506706
 21
19672.892158999999
 31
0.0
  0
LINE
  5
1390B
  8
0-6
  6
CONTINUOUS
 62
     6
 10
10288.542059067049
 20
19530.48955099997
 30
0.0
 11
10385.192054067071
 21
19647.890839
 31
0.0
  0
LINE
  5
1390C
  8
0-6
  6
CONTINUOUS
 62
     6
 10
10288.542059067049
 20
19530.48955099997
 30
0.0
 11
10341.89008506706
 21
19672.892158999999
 31
0.0
  0
LINE
  5
1390D
  8
0-6
  6
CONTINUOUS
 62
     6
 10
10385.192054067071
 20
19647.890839
 30
0.0
 11
10288.542059067049
 21
19530.48955099997
 31
0.0
  0
LINE
  5
1390E
  8
0-6
  6
CONTINUOUS
 62
     6
 10
10363.54008006706
 20
19660.393478999998
 30
0.0
 11
10589.125896736739
 21
20084.06331873111
 31
0.0
  0
TEXT
  5
1390F
  8
0-6
  6
CONTINUOUS
 62
     7
 10
10037.463766733719
 20
20640.488759000011
 30
0.0
 40
160.0
  1
鼻隠し後
 50
359.99999999999937
 72
     4
 11
10400.130433400391
 21
20720.488759000011
 31
0.0
  0
LINE
  5
13910
  8
0-6
  6
CONTINUOUS
 62
     6
 10
10842.79934406706
 20
20560.488495000001
 30
0.0
 11
10000.35978506707
 21
20560.488495000009
 31
0.0
  0
LINE
  5
13911
  8
0-6
  6
CONTINUOUS
 62
     6
 10
10657.159755789269
 20
20211.8379976834
 30
0.0
 11
10842.79934406706
 21
20560.488495000001
 31
0.0
  0
LINE
  5
13912
  8
2-0
  6
DASHED3
 62
     6
 10
14160.816553438
 20
16750.486251999981
 30
0.0
 11
14087.71462832388
 21
16670.60928253446
 31
0.0
  0
TEXT
  5
13913
  8
0-6
  6
CONTINUOUS
 62
     7
 10
12328.84849149981
 20
12942.497844273879
 30
0.0
 40
160.0
  1
梁（P）前
 50
359.99999999999937
 72
     4
 11
12771.51515816648
 21
13022.497844273879
 31
0.0
  0
LINE
  5
13914
  8
0-6
  6
CONTINUOUS
 62
     6
 10
13278.37951301519
 20
12862.49857027387
 30
0.0
 11
12263.38934369034
 21
12862.49857027388
 31
0.0
  0
LINE
  5
13915
  8
0-1
  6
CONTINUOUS
 62
     3
 10
9483.3186644380203
 20
18573.756549741542
 30
0.0
 11
9483.3186644380348
 21
19482.48622599999
 31
0.0
  0
LINE
  5
13916
  8
0-1
  6
CONTINUOUS
 62
     3
 10
9520.3198254380222
 20
18558.43716445774
 30
0.0
 11
9520.3198254380313
 21
19482.48622599999
 31
0.0
  0
LINE
  5
13917
  8
0-1
  6
CONTINUOUS
 62
     3
 10
9083.3193234380342
 20
18739.36605637418
 30
0.0
 11
9083.3193234380415
 21
19482.486226000012
 31
0.0
  0
LINE
  5
13918
  8
0-1
  6
CONTINUOUS
 62
     3
 10
9120.3194954380378
 20
18724.047080560551
 30
0.0
 11
9120.3194954380415
 21
19482.486226000012
 31
0.0
  0
LINE
  5
13919
  8
0-1
  6
CONTINUOUS
 62
     3
 10
9283.3189944380301
 20
18656.561302850849
 30
0.0
 11
9283.3189944380374
 21
19482.48622599999
 31
0.0
  0
LINE
  5
1391A
  8
0-1
  6
CONTINUOUS
 62
     3
 10
9320.3201554380084
 20
18641.241917567051
 30
0.0
 11
9320.320155438023
 21
19482.48622599999
 31
0.0
  0
LINE
  5
1391B
  8
0-6
  6
CONTINUOUS
 62
     6
 10
12102.218595095341
 20
19464.027239051698
 30
0.0
 11
11967.827332550951
 21
19373.15682101042
 31
0.0
  0
LINE
  5
1391C
  8
0-6
  6
CONTINUOUS
 62
     6
 10
11967.827332550951
 20
19373.15682101042
 30
0.0
 11
12065.490034474389
 21
19502.696162433349
 31
0.0
  0
LINE
  5
1391D
  8
0-6
  6
CONTINUOUS
 62
     6
 10
12065.490034474389
 20
19502.696162433349
 30
0.0
 11
12102.218595095341
 21
19464.027239051698
 31
0.0
  0
LINE
  5
1391E
  8
0-6
  6
CONTINUOUS
 62
     6
 10
12406.709662402451
 20
13488.76898309064
 30
0.0
 11
12465.459661031169
 21
13639.98697799999
 31
0.0
  0
LINE
  5
1391F
  8
0-6
  6
CONTINUOUS
 62
     6
 10
12465.459661031169
 20
13639.98697799999
 30
0.0
 11
12360.84866934435
 21
13515.991071851549
 31
0.0
  0
LINE
  5
13920
  8
0-6
  6
CONTINUOUS
 62
     6
 10
12360.84866934435
 20
13515.991071851549
 30
0.0
 11
12406.709662402451
 21
13488.76898309064
 31
0.0
  0
LINE
  5
13921
  8
SUNPOU
  6
CONTINUOUS
 62
     4
 10
8700.8165534379623
 20
13639.986978000021
 30
0.0
 11
7853.8167774379799
 21
13639.986978000021
 31
0.0
  0
LINE
  5
13922
  8
SUNPOU
  6
CONTINUOUS
 62
     4
 10
7933.8167774379835
 20
13832.486252000041
 30
0.0
 11
7933.816777437979
 21
13639.986978000021
 31
0.0
  0
LINE
  5
13923
  8
SUNPOU
  6
CONTINUOUS
 62
     4
 10
7933.8167774380117
 20
16750.486252000039
 30
0.0
 11
7933.8167774379835
 21
13832.486252000041
 31
0.0
  0
LINE
  5
13924
  8
SUNPOU
  6
CONTINUOUS
 62
     4
 10
7933.8167774380381
 20
19317.986252000039
 30
0.0
 11
7933.8167774380117
 21
16750.486252000039
 31
0.0
  0
LINE
  5
13925
  8
SUNPOU
  6
CONTINUOUS
 62
     4
 10
8013.8167774380372
 20
19317.986252000039
 30
0.0
 11
7973.8167774380381
 21
19317.986252000039
 31
0.0
  0
LINE
  5
13926
  8
SUNPOU
  6
CONTINUOUS
 62
     4
 10
8705.8158274380276
 20
19540.48612000002
 30
0.0
 11
7893.8167774380399
 21
19540.48612000003
 31
0.0
  0
LINE
  5
13927
  8
SUNPOU
  6
CONTINUOUS
 62
     4
 10
7933.8167774380381
 20
19317.986252000039
 30
0.0
 11
7933.8167774380381
 21
19540.48612000003
 31
0.0
  0
LINE
  5
13928
  8
SUNPOU
  6
CONTINUOUS
 62
     4
 10
8774.3166724380371
 20
19530.489551000021
 30
0.0
 11
8253.8161184380424
 21
19530.489551000021
 31
0.0
  0
LINE
  5
13929
  8
SUNPOU
  6
CONTINUOUS
 62
     4
 10
8705.8158274380276
 20
19540.48612000002
 30
0.0
 11
8253.8161184380424
 21
19540.48612000002
 31
0.0
  0
LINE
  5
1392A
  8
SUNPOU
  6
CONTINUOUS
 62
     4
 10
8333.8161184380424
 20
19530.489551000021
 30
0.0
 11
8333.8161184380424
 21
19290.489551000021
 31
0.0
  0
LINE
  5
1392B
  8
SUNPOU
  6
CONTINUOUS
 62
     4
 10
8333.8161184380424
 20
19540.48612000002
 30
0.0
 11
8333.8161184380424
 21
19780.48612000003
 31
0.0
  0
LINE
  5
1392C
  8
SUNPOU
  6
CONTINUOUS
 62
     4
 10
8333.8161184380424
 20
19530.489551000021
 30
0.0
 11
8333.8161184380424
 21
19540.48612000002
 31
0.0
  0
LINE
  5
1392D
  8
SUNPOU
  6
CONTINUOUS
 62
     4
 10
14230.81655343803
 20
20165.488164999981
 30
0.0
 11
14230.81655343803
 21
20240.48717599997
 31
0.0
  0
LINE
  5
1392E
  8
SUNPOU
  6
CONTINUOUS
 62
     4
 10
14316.31655343801
 20
19615.48783499996
 30
0.0
 11
14316.31655343803
 21
20240.487175999959
 31
0.0
  0
LINE
  5
1392F
  8
SUNPOU
  6
CONTINUOUS
 62
     4
 10
14230.81655343803
 20
20160.48717599997
 30
0.0
 11
13990.81655343803
 21
20160.48717599997
 31
0.0
  0
LINE
  5
13930
  8
SUNPOU
  6
CONTINUOUS
 62
     4
 10
14313.31655343803
 20
20160.487175999959
 30
0.0
 11
14553.31655343803
 21
20160.487175999959
 31
0.0
  0
LINE
  5
13931
  8
SUNPOU
  6
CONTINUOUS
 62
     4
 10
14230.81655343803
 20
20160.48717599997
 30
0.0
 11
14313.31655343803
 21
20160.487175999959
 31
0.0
  0
LINE
  5
13932
  8
SUNPOU
  6
CONTINUOUS
 62
     4
 10
11430.816553438041
 20
20165.488164999999
 30
0.0
 11
11430.816553438041
 21
20240.487175999991
 31
0.0
  0
LINE
  5
13933
  8
SUNPOU
  6
CONTINUOUS
 62
     4
 10
14230.81655343803
 20
20165.488164999981
 30
0.0
 11
14230.81655343803
 21
20240.48717599997
 31
0.0
  0
LINE
  5
13934
  8
SUNPOU
  6
CONTINUOUS
 62
     4
 10
11430.816553438041
 20
20160.487175999991
 30
0.0
 11
14230.81655343803
 21
20160.48717599997
 31
0.0
  0
LINE
  5
13935
  8
SUNPOU
  6
CONTINUOUS
 62
     4
 10
8863.3165534380205
 20
19690.487835000022
 30
0.0
 11
8863.3165534380278
 21
20240.487176000021
 31
0.0
  0
LINE
  5
13936
  8
SUNPOU
  6
CONTINUOUS
 62
     4
 10
11430.816553438041
 20
20165.488164999999
 30
0.0
 11
11430.816553438041
 21
20240.487175999991
 31
0.0
  0
LINE
  5
13937
  8
SUNPOU
  6
CONTINUOUS
 62
     4
 10
8863.3165534380278
 20
20160.487176000021
 30
0.0
 11
11430.816553438041
 21
20160.487175999991
 31
0.0
  0
LINE
  5
13938
  8
SUNPOU
  6
CONTINUOUS
 62
     4
 10
8863.3165534380205
 20
19690.487835000022
 30
0.0
 11
8863.3165534380278
 21
20240.487176000021
 31
0.0
  0
LINE
  5
13939
  8
SUNPOU
  6
CONTINUOUS
 62
     4
 10
8777.8165534380205
 20
19610.487572000009
 30
0.0
 11
8777.8165534380278
 21
20240.487176000021
 31
0.0
  0
LINE
  5
1393A
  8
SUNPOU
  6
CONTINUOUS
 62
     4
 10
8863.3165534380278
 20
20160.487176000021
 30
0.0
 11
9103.3165534380387
 21
20160.487176000021
 31
0.0
  0
LINE
  5
1393B
  8
SUNPOU
  6
CONTINUOUS
 62
     4
 10
8780.8165534380278
 20
20160.487176000021
 30
0.0
 11
8540.8165534380278
 21
20160.487176000021
 31
0.0
  0
LINE
  5
1393C
  8
SUNPOU
  6
CONTINUOUS
 62
     4
 10
8863.3165534380278
 20
20160.487176000021
 30
0.0
 11
8780.8165534380278
 21
20160.487176000021
 31
0.0
  0
LINE
  5
1393D
  8
SUNPOU
  6
CONTINUOUS
 62
     4
 10
8777.8165534379623
 20
13559.986978000021
 30
0.0
 11
8777.8165534379496
 21
12269.986186000009
 31
0.0
  0
LINE
  5
1393E
  8
SUNPOU
  6
CONTINUOUS
 62
     4
 10
14316.31655343796
 20
13559.98697799995
 30
0.0
 11
14316.31655343795
 21
12269.986185999949
 31
0.0
  0
LINE
  5
1393F
  8
SUNPOU
  6
CONTINUOUS
 62
     4
 10
8780.8165534379496
 20
12349.986186000009
 30
0.0
 11
14313.31655343795
 21
12349.986185999949
 31
0.0
  0
LINE
  5
13940
  8
0-6
  6
CONTINUOUS
 62
     6
 10
12159.156680062601
 20
16554.267862090641
 30
0.0
 11
12100.406681433889
 21
16705.485856999971
 31
0.0
  0
LINE
  5
13941
  8
0-6
  6
CONTINUOUS
 62
     6
 10
12100.406681433889
 20
16705.485856999971
 30
0.0
 11
12205.01767312071
 21
16581.489950851541
 31
0.0
  0
LINE
  5
13942
  8
0-6
  6
CONTINUOUS
 62
     6
 10
12205.01767312071
 20
16581.489950851541
 30
0.0
 11
12159.156680062601
 21
16554.267862090641
 31
0.0
  0
LINE
  5
13943
  8
0-6
  6
CONTINUOUS
 62
     6
 10
13263.17964416332
 20
14573.02174248188
 30
0.0
 11
13383.03437106986
 21
14682.352839437121
 31
0.0
  0
LINE
  5
13944
  8
0-6
  6
CONTINUOUS
 62
     6
 10
13383.03437106986
 20
14682.352839437121
 30
0.0
 11
13305.10897303307
 21
14540.064130594559
 31
0.0
  0
LINE
  5
13945
  8
0-6
  6
CONTINUOUS
 62
     6
 10
13305.10897303307
 20
14540.064130594559
 30
0.0
 11
13263.17964416332
 21
14573.02174248188
 31
0.0
  0
LINE
  5
13946
  8
0-6
  6
CONTINUOUS
 62
     6
 10
10470.949273931879
 20
16964.603085278279
 30
0.0
 11
10502.58892030063
 21
16805.488733000009
 31
0.0
  0
LINE
  5
13947
  8
0-6
  6
CONTINUOUS
 62
     6
 10
10502.58892030063
 20
16805.488733000009
 30
0.0
 11
10421.06279439826
 21
16945.745408843351
 31
0.0
  0
LINE
  5
13948
  8
0-6
  6
CONTINUOUS
 62
     6
 10
10421.06279439826
 20
16945.745408843351
 30
0.0
 11
10470.949273931879
 21
16964.603085278279
 31
0.0
  0
LINE
  5
13949
  8
0-6
  6
CONTINUOUS
 62
     6
 10
14108.942565667419
 20
14047.567441688991
 30
0.0
 11
14177.81692243798
 21
14194.425531177611
 31
0.0
  0
LINE
  5
1394A
  8
0-6
  6
CONTINUOUS
 62
     6
 10
14177.81692243798
 20
14194.425531177611
 30
0.0
 11
14065.034299221919
 21
14077.842586864799
 31
0.0
  0
LINE
  5
1394B
  8
0-6
  6
CONTINUOUS
 62
     6
 10
14065.034299221919
 20
14077.842586864799
 30
0.0
 11
14108.942565667419
 21
14047.567441688991
 31
0.0
  0
LINE
  5
1394C
  8
0-6
  6
CONTINUOUS
 62
     6
 10
25899.553914869412
 20
19102.389479253339
 30
0.0
 11
26005.881938817369
 21
19224.885710999999
 31
0.0
  0
LINE
  5
1394D
  8
0-6
  6
CONTINUOUS
 62
     6
 10
26005.881938817369
 20
19224.885710999999
 30
0.0
 11
25945.029819224121
 21
19074.524404324551
 31
0.0
  0
LINE
  5
1394E
  8
0-6
  6
CONTINUOUS
 62
     6
 10
25945.029819224121
 20
19074.524404324551
 30
0.0
 11
25899.553914869412
 21
19102.389479253339
 31
0.0
  0
LINE
  5
1394F
  8
0-6
  6
CONTINUOUS
 62
     6
 10
25927.73826037539
 20
19518.203035932682
 30
0.0
 11
25996.78193881737
 21
19371.424475045849
 31
0.0
  0
LINE
  5
13950
  8
0-6
  6
CONTINUOUS
 62
     6
 10
25996.78193881737
 20
19371.424475045849
 30
0.0
 11
25883.864938638231
 21
19487.87727267083
 31
0.0
  0
LINE
  5
13951
  8
0-6
  6
CONTINUOUS
 62
     6
 10
25883.864938638231
 20
19487.87727267083
 30
0.0
 11
25927.73826037539
 21
19518.203035932682
 31
0.0
  0
LINE
  5
13952
  8
0-6
  6
CONTINUOUS
 62
     6
 10
25899.553914869412
 20
16935.08204774664
 30
0.0
 11
26005.881938817369
 21
16812.585815999992
 31
0.0
  0
LINE
  5
13953
  8
0-6
  6
CONTINUOUS
 62
     6
 10
26005.881938817369
 20
16812.585815999992
 30
0.0
 11
25945.029819224121
 21
16962.947122675439
 31
0.0
  0
LINE
  5
13954
  8
0-6
  6
CONTINUOUS
 62
     6
 10
25945.029819224121
 20
16962.947122675439
 30
0.0
 11
25899.553914869412
 21
16935.08204774664
 31
0.0
  0
LINE
  5
13955
  8
0-6
  6
CONTINUOUS
 62
     6
 10
25899.553914869412
 20
14027.582483746641
 30
0.0
 11
26005.881938817369
 21
13905.086251999999
 31
0.0
  0
LINE
  5
13956
  8
0-6
  6
CONTINUOUS
 62
     6
 10
26005.881938817369
 20
13905.086251999999
 30
0.0
 11
25945.029819224121
 21
14055.447558675451
 31
0.0
  0
LINE
  5
13957
  8
0-6
  6
CONTINUOUS
 62
     6
 10
25945.029819224121
 20
14055.447558675451
 30
0.0
 11
25899.553914869412
 21
14027.582483746641
 31
0.0
  0
LINE
  5
13958
  8
0-6
  6
CONTINUOUS
 62
     6
 10
25927.73826037539
 20
16519.268491067302
 30
0.0
 11
25996.78193881737
 21
16666.047051954109
 31
0.0
  0
LINE
  5
13959
  8
0-6
  6
CONTINUOUS
 62
     6
 10
25996.78193881737
 20
16666.047051954109
 30
0.0
 11
25883.864938638231
 21
16549.594254329138
 31
0.0
  0
LINE
  5
1395A
  8
0-6
  6
CONTINUOUS
 62
     6
 10
25883.864938638231
 20
16549.594254329138
 30
0.0
 11
25927.73826037539
 21
16519.268491067302
 31
0.0
  0
LINE
  5
1395B
  8
0-6
  6
CONTINUOUS
 62
     6
 10
25927.73826037539
 20
13631.70769111317
 30
0.0
 11
25996.78193881737
 21
13778.48625199999
 31
0.0
  0
LINE
  5
1395C
  8
0-6
  6
CONTINUOUS
 62
     6
 10
25996.78193881737
 20
13778.48625199999
 30
0.0
 11
25883.864938638231
 21
13662.03345437501
 31
0.0
  0
LINE
  5
1395D
  8
0-6
  6
CONTINUOUS
 62
     6
 10
25883.864938638231
 20
13662.03345437501
 30
0.0
 11
25927.73826037539
 21
13631.70769111317
 31
0.0
  0
LINE
  5
1395E
  8
SUNPOU
  6
CONTINUOUS
 62
     4
 10
23241.78193881737
 20
20560.487175999991
 30
0.0
 11
26041.78193881737
 21
20560.487175999991
 31
0.0
  0
LINE
  5
1395F
  8
SUNPOU
  6
CONTINUOUS
 62
     4
 10
20674.28193881737
 20
20560.487175999991
 30
0.0
 11
23241.78193881737
 21
20560.487175999991
 31
0.0
  0
LINE
  5
13960
  8
SUNPOU
  6
CONTINUOUS
 62
     4
 10
26041.78193881737
 20
19684.936025877319
 30
0.0
 11
26041.78193881737
 21
20240.487175999991
 31
0.0
  0
LINE
  5
13961
  8
SUNPOU
  6
CONTINUOUS
 62
     4
 10
25999.279695817371
 20
19523.836515999999
 30
0.0
 11
25999.279695817371
 21
20240.487175999991
 31
0.0
  0
LINE
  5
13962
  8
SUNPOU
  6
CONTINUOUS
 62
     4
 10
26041.78193881737
 20
20160.487175999991
 30
0.0
 11
26281.78193881737
 21
20160.487175999991
 31
0.0
  0
LINE
  5
13963
  8
SUNPOU
  6
CONTINUOUS
 62
     4
 10
25999.279695817371
 20
20160.487175999991
 30
0.0
 11
25759.279695817371
 21
20160.487175999991
 31
0.0
  0
LINE
  5
13964
  8
SUNPOU
  6
CONTINUOUS
 62
     4
 10
26041.78193881737
 20
20160.487175999991
 30
0.0
 11
25999.279695817371
 21
20160.487175999991
 31
0.0
  0
LINE
  5
13965
  8
SUNPOU
  6
CONTINUOUS
 62
     4
 10
26041.78193881737
 20
19684.936025877319
 30
0.0
 11
26041.78193881737
 21
20240.487175999991
 31
0.0
  0
LINE
  5
13966
  8
SUNPOU
  6
CONTINUOUS
 62
     4
 10
26084.280223817361
 20
19520.488758999989
 30
0.0
 11
26084.280223817361
 21
20240.487175999991
 31
0.0
  0
LINE
  5
13967
  8
SUNPOU
  6
CONTINUOUS
 62
     4
 10
26041.78193881737
 20
20160.487175999991
 30
0.0
 11
25801.78193881737
 21
20160.487175999991
 31
0.0
  0
LINE
  5
13968
  8
SUNPOU
  6
CONTINUOUS
 62
     4
 10
26084.280223817361
 20
20160.487175999991
 30
0.0
 11
26324.280223817361
 21
20160.487175999991
 31
0.0
  0
LINE
  5
13969
  8
SUNPOU
  6
CONTINUOUS
 62
     4
 10
26041.78193881737
 20
20160.487175999991
 30
0.0
 11
26084.280223817361
 21
20160.487175999991
 31
0.0
  0
LINE
  5
1396A
  8
SUNPOU
  6
CONTINUOUS
 62
     4
 10
26426.386774769311
 20
16750.486251999999
 30
0.0
 11
27339.625563185989
 21
16750.486251999999
 31
0.0
  0
LINE
  5
1396B
  8
SUNPOU
  6
CONTINUOUS
 62
     4
 10
26426.386774769311
 20
19317.986251999999
 30
0.0
 11
27339.625563185989
 21
19317.986251999999
 31
0.0
  0
LINE
  5
1396C
  8
SUNPOU
  6
CONTINUOUS
 62
     4
 10
27259.625563186
 20
16750.486251999999
 30
0.0
 11
27259.625563186
 21
19317.986251999999
 31
0.0
  0
LINE
  5
1396D
  8
SUNPOU
  6
CONTINUOUS
 62
     4
 10
26426.386774769311
 20
13832.486252000001
 30
0.0
 11
27339.625563185989
 21
13832.486252000001
 31
0.0
  0
LINE
  5
1396E
  8
SUNPOU
  6
CONTINUOUS
 62
     4
 10
26426.386774769311
 20
16750.486251999999
 30
0.0
 11
27339.625563185989
 21
16750.486251999999
 31
0.0
  0
LINE
  5
1396F
  8
SUNPOU
  6
CONTINUOUS
 62
     4
 10
27259.625563186
 20
13832.486252000001
 30
0.0
 11
27259.625563186
 21
16750.486251999999
 31
0.0
  0
ARC
  5
13970
  8
1-前柱P
 10
26051.381938817369
 20
13900.886252
 30
0.0
 40
1.0
 50
90.0
 51
180.0
  0
LINE
  5
13971
  8
1-前柱P
 10
26050.381938817369
 20
13900.886252
 30
0.0
 11
26050.381938817369
 21
13899.286252
 31
0.0
  0
LINE
  5
13972
  8
1-前柱P
 10
26050.381938817369
 20
13899.286252
 30
0.0
 11
26039.181938817372
 21
13899.286252
 31
0.0
  0
LINE
  5
13973
  8
1-前柱P
 10
26039.181938817372
 20
13899.286252
 30
0.0
 11
26039.181938817361
 21
13900.886252
 31
0.0
  0
ARC
  5
13974
  8
1-前柱P
 10
26038.181938817361
 20
13900.886252
 30
0.0
 40
1.0
 50
0.0
 51
90.0
  0
ARC
  5
13975
  8
1-中柱P
 10
26035.181938817361
 20
16818.786251999991
 30
0.0
 40
1.0
 50
0.0
 51
90.0
  0
LINE
  5
13976
  8
1-中柱P
 10
26036.181938817361
 20
16818.786251999991
 30
0.0
 11
26036.181938817361
 21
16817.186252
 31
0.0
  0
LINE
  5
13977
  8
1-中柱P
 10
26036.181938817361
 20
16817.186252
 30
0.0
 11
26047.381938817362
 21
16817.186252
 31
0.0
  0
LINE
  5
13978
  8
1-中柱P
 10
26047.381938817362
 20
16817.186252
 30
0.0
 11
26047.381938817362
 21
16818.786251999991
 31
0.0
  0
ARC
  5
13979
  8
1-中柱P
 10
26048.381938817362
 20
16818.786251999991
 30
0.0
 40
1.0
 50
90.0
 51
180.0
  0
ARC
  5
1397A
  8
1-後柱P
 10
26032.181938817372
 20
19249.936251999989
 30
0.0
 40
1.0
 50
270.0
 51
0.0
  0
LINE
  5
1397B
  8
1-後柱P
 10
26033.181938817401
 20
19249.936251999989
 30
0.0
 11
26033.181938817401
 21
19251.536252000002
 31
0.0
  0
LINE
  5
1397C
  8
1-後柱P
 10
26033.181938817401
 20
19251.536252000002
 30
0.0
 11
26044.381938817362
 21
19251.536252000002
 31
0.0
  0
LINE
  5
1397D
  8
1-後柱P
 10
26044.381938817362
 20
19251.536252000002
 30
0.0
 11
26044.381938817362
 21
19249.936251999989
 31
0.0
  0
ARC
  5
1397E
  8
1-後柱P
 10
26045.381938817369
 20
19249.936251999989
 30
0.0
 40
1.0
 50
180.0
 51
270.0
  0
TEXT
  5
1397F
  8
0
  6
CONTINUOUS
 62
     7
 10
27179.625563186
 20
15024.81958533334
 30
0.0
 40
160.0
  1
2918
 50
90.0
  0
TEXT
  5
13980
  8
0
  6
CONTINUOUS
 62
     7
 10
27179.625563186011
 20
17634.236251999999
 30
0.0
 40
160.0
  1
2567.5
 50
90.0
  0
TEXT
  5
13981
  8
0
  6
CONTINUOUS
 62
     7
 10
26182.703866817352
 20
20240.48546
 30
0.0
 40
160.0
  1
42.5
  0
TEXT
  5
13982
  8
0
  6
CONTINUOUS
 62
     7
 10
25504.607899817402
 20
20259.829315999999
 30
0.0
 40
160.0
  1
42.5
  0
TEXT
  5
13983
  8
0
  6
CONTINUOUS
 62
     7
 10
21558.03193881737
 20
20640.487175999991
 30
0.0
 40
160.0
  1
2567.5
  0
TEXT
  5
13984
  8
0
  6
CONTINUOUS
 62
     7
 10
24375.11527215071
 20
20640.487175999991
 30
0.0
 40
160.0
  1
2800
  0
TEXT
  5
13985
  8
0
  6
CONTINUOUS
 62
     7
 10
10651.06655343795
 20
12429.986185999989
 30
0.0
 40
160.0
  1
ケラバ外寸5538.5
 50
359.99999999999937
  0
TEXT
  5
13986
  8
0
  6
CONTINUOUS
 62
     7
 10
8288.1694094380473
 20
20240.485460000029
 30
0.0
 40
160.0
  1
85.5
 50
359.99999999999937
  0
TEXT
  5
13987
  8
0
  6
CONTINUOUS
 62
     7
 10
9747.0665534380278
 20
20240.48717600001
 30
0.0
 40
160.0
  1
2567.5
 50
359.99999999999937
  0
TEXT
  5
13988
  8
0
  6
CONTINUOUS
 62
     7
 10
12564.14988677136
 20
20240.487175999981
 30
0.0
 40
160.0
  1
2800
 50
359.99999999999937
  0
TEXT
  5
13989
  8
0
  6
CONTINUOUS
 62
     7
 10
14377.16434143804
 20
20240.485459999982
 30
0.0
 40
160.0
  1
85.5
 50
359.99999999999937
  0
TEXT
  5
1398A
  8
0
  6
CONTINUOUS
 62
     7
 10
8558.4935397571026
 20
19711.914980666668
 30
0.0
 40
160.0
  1
10
 50
90.0
  0
TEXT
  5
1398B
  8
0
  6
CONTINUOUS
 62
     7
 10
7853.8167774379617
 20
19618.967774389272
 30
0.0
 40
160.0
  1
222.5
 50
90.0
  0
TEXT
  5
1398C
  8
0
  6
CONTINUOUS
 62
     7
 10
7853.8167774379799
 20
17634.236252000039
 30
0.0
 40
160.0
  1
2567.5
 50
90.0
  0
TEXT
  5
1398D
  8
0
  6
CONTINUOUS
 62
     7
 10
7853.816777438009
 20
15024.819585333369
 30
0.0
 40
160.0
  1
2918
 50
90.0
  0
TEXT
  5
1398E
  8
0
  6
CONTINUOUS
 62
     7
 10
7853.8167774380436
 20
12975.9973495906
 30
0.0
 40
160.0
  1
192.5
 50
90.0
  0
ARC
  5
1398F
  8
0
  6
BYBLOCK
 62
     0
 10
7933.8167774379835
 20
13832.486252000041
 30
0.0
 40
15.0
 50
90.0
 51
270.0
  0
ARC
  5
13990
  8
0
  6
BYBLOCK
 62
     0
 10
7933.8167774379835
 20
13832.486252000041
 30
0.0
 40
15.0
 50
270.0
 51
90.0
  0
ARC
  5
13991
  8
0
  6
BYBLOCK
 62
     0
 10
7933.816777437979
 20
13639.986978000021
 30
0.0
 40
15.0
 50
270.0
 51
90.0
  0
ARC
  5
13992
  8
0
  6
BYBLOCK
 62
     0
 10
7933.816777437979
 20
13639.986978000021
 30
0.0
 40
15.0
 50
90.0
 51
270.0
  0
ARC
  5
13993
  8
0
  6
BYBLOCK
 62
     0
 10
7933.8167774380117
 20
16750.486252000039
 30
0.0
 40
15.0
 50
90.0
 51
270.0
  0
ARC
  5
13994
  8
0
  6
BYBLOCK
 62
     0
 10
7933.8167774380117
 20
16750.486252000039
 30
0.0
 40
15.0
 50
270.0
 51
90.0
  0
ARC
  5
13995
  8
0
  6
BYBLOCK
 62
     0
 10
7933.8167774379835
 20
13832.486252000041
 30
0.0
 40
15.0
 50
270.0
 51
90.0
  0
ARC
  5
13996
  8
0
  6
BYBLOCK
 62
     0
 10
7933.8167774379835
 20
13832.486252000041
 30
0.0
 40
15.0
 50
90.0
 51
270.0
  0
ARC
  5
13997
  8
0
  6
BYBLOCK
 62
     0
 10
7933.8167774380381
 20
19317.986252000039
 30
0.0
 40
15.0
 50
90.0
 51
270.0
  0
ARC
  5
13998
  8
0
  6
BYBLOCK
 62
     0
 10
7933.8167774380381
 20
19317.986252000039
 30
0.0
 40
15.0
 50
270.0
 51
90.0
  0
ARC
  5
13999
  8
0
  6
BYBLOCK
 62
     0
 10
7933.8167774380117
 20
16750.486252000039
 30
0.0
 40
15.0
 50
270.0
 51
90.0
  0
ARC
  5
1399A
  8
0
  6
BYBLOCK
 62
     0
 10
7933.8167774380117
 20
16750.486252000039
 30
0.0
 40
15.0
 50
90.0
 51
270.0
  0
ARC
  5
1399B
  8
0
  6
BYBLOCK
 62
     0
 10
7933.8167774380381
 20
19317.986252000039
 30
0.0
 40
15.0
 50
270.0
 51
90.0
  0
ARC
  5
1399C
  8
0
  6
BYBLOCK
 62
     0
 10
7933.8167774380381
 20
19317.986252000039
 30
0.0
 40
15.0
 50
90.0
 51
270.0
  0
ARC
  5
1399D
  8
0
  6
BYBLOCK
 62
     0
 10
7933.8167774380381
 20
19540.48612000003
 30
0.0
 40
15.0
 50
90.0
 51
270.0
  0
ARC
  5
1399E
  8
0
  6
BYBLOCK
 62
     0
 10
7933.8167774380381
 20
19540.48612000003
 30
0.0
 40
15.0
 50
270.0
 51
90.0
  0
ARC
  5
1399F
  8
0
  6
BYBLOCK
 62
     0
 10
8333.8161184380424
 20
19530.489551000021
 30
0.0
 40
15.0
 50
90.0
 51
270.0
  0
ARC
  5
139A0
  8
0
  6
BYBLOCK
 62
     0
 10
8333.8161184380424
 20
19530.489551000021
 30
0.0
 40
15.0
 50
270.0
 51
90.0
  0
ARC
  5
139A1
  8
0
  6
BYBLOCK
 62
     0
 10
8333.8161184380424
 20
19540.48612000002
 30
0.0
 40
15.0
 50
270.0
 51
90.0
  0
ARC
  5
139A2
  8
0
  6
BYBLOCK
 62
     0
 10
8333.8161184380424
 20
19540.48612000002
 30
0.0
 40
15.0
 50
90.0
 51
270.0
  0
ARC
  5
139A3
  8
0
  6
BYBLOCK
 62
     0
 10
14230.81655343803
 20
20160.48717599997
 30
0.0
 40
15.0
 50
0.0
 51
180.0
  0
ARC
  5
139A4
  8
0
  6
BYBLOCK
 62
     0
 10
14230.81655343803
 20
20160.48717599997
 30
0.0
 40
15.0
 50
180.0
 51
0.0
  0
ARC
  5
139A5
  8
0
  6
BYBLOCK
 62
     0
 10
14316.31655343803
 20
20160.487175999959
 30
0.0
 40
15.0
 50
180.0
 51
0.0
  0
ARC
  5
139A6
  8
0
  6
BYBLOCK
 62
     0
 10
14316.31655343803
 20
20160.487175999959
 30
0.0
 40
15.0
 50
0.0
 51
180.0
  0
ARC
  5
139A7
  8
0
  6
BYBLOCK
 62
     0
 10
11430.816553438041
 20
20160.487175999991
 30
0.0
 40
15.0
 50
180.0
 51
0.0
  0
ARC
  5
139A8
  8
0
  6
BYBLOCK
 62
     0
 10
11430.816553438041
 20
20160.487175999991
 30
0.0
 40
15.0
 50
0.0
 51
180.0
  0
ARC
  5
139A9
  8
0
  6
BYBLOCK
 62
     0
 10
14230.81655343803
 20
20160.48717599997
 30
0.0
 40
15.0
 50
0.0
 51
180.0
  0
ARC
  5
139AA
  8
0
  6
BYBLOCK
 62
     0
 10
14230.81655343803
 20
20160.48717599997
 30
0.0
 40
15.0
 50
180.0
 51
0.0
  0
ARC
  5
139AB
  8
0
  6
BYBLOCK
 62
     0
 10
8863.3165534380278
 20
20160.487176000021
 30
0.0
 40
15.0
 50
180.0
 51
0.0
  0
ARC
  5
139AC
  8
0
  6
BYBLOCK
 62
     0
 10
8863.3165534380278
 20
20160.487176000021
 30
0.0
 40
15.0
 50
0.0
 51
180.0
  0
ARC
  5
139AD
  8
0
  6
BYBLOCK
 62
     0
 10
11430.816553438041
 20
20160.487175999991
 30
0.0
 40
15.0
 50
0.0
 51
180.0
  0
ARC
  5
139AE
  8
0
  6
BYBLOCK
 62
     0
 10
11430.816553438041
 20
20160.487175999991
 30
0.0
 40
15.0
 50
180.0
 51
0.0
  0
ARC
  5
139AF
  8
0
  6
BYBLOCK
 62
     0
 10
8863.3165534380278
 20
20160.487176000021
 30
0.0
 40
15.0
 50
180.0
 51
0.0
  0
ARC
  5
139B0
  8
0
  6
BYBLOCK
 62
     0
 10
8863.3165534380278
 20
20160.487176000021
 30
0.0
 40
15.0
 50
0.0
 51
180.0
  0
ARC
  5
139B1
  8
0
  6
BYBLOCK
 62
     0
 10
8777.8165534380278
 20
20160.487176000021
 30
0.0
 40
15.0
 50
0.0
 51
180.0
  0
ARC
  5
139B2
  8
0
  6
BYBLOCK
 62
     0
 10
8777.8165534380278
 20
20160.487176000021
 30
0.0
 40
15.0
 50
180.0
 51
0.0
  0
ARC
  5
139B3
  8
0
  6
BYBLOCK
 62
     0
 10
8777.8165534379496
 20
12349.986186000009
 30
0.0
 40
15.0
 50
180.0
 51
0.0
  0
ARC
  5
139B4
  8
0
  6
BYBLOCK
 62
     0
 10
8777.8165534379496
 20
12349.986186000009
 30
0.0
 40
15.0
 50
0.0
 51
180.0
  0
ARC
  5
139B5
  8
0
  6
BYBLOCK
 62
     0
 10
14316.31655343795
 20
12349.986185999949
 30
0.0
 40
15.0
 50
0.0
 51
180.0
  0
ARC
  5
139B6
  8
0
  6
BYBLOCK
 62
     0
 10
14316.31655343795
 20
12349.986185999949
 30
0.0
 40
15.0
 50
180.0
 51
0.0
  0
ARC
  5
139B7
  8
0
  6
BYBLOCK
 62
     0
 10
23241.78193881737
 20
20560.487175999991
 30
0.0
 40
15.0
 50
180.0
 51
0.0
  0
ARC
  5
139B8
  8
0
  6
BYBLOCK
 62
     0
 10
23241.78193881737
 20
20560.487175999991
 30
0.0
 40
15.0
 50
0.0
 51
180.0
  0
ARC
  5
139B9
  8
0
  6
BYBLOCK
 62
     0
 10
26041.78193881737
 20
20560.487175999991
 30
0.0
 40
15.0
 50
0.0
 51
180.0
  0
ARC
  5
139BA
  8
0
  6
BYBLOCK
 62
     0
 10
26041.78193881737
 20
20560.487175999991
 30
0.0
 40
15.0
 50
180.0
 51
0.0
  0
ARC
  5
139BB
  8
0
  6
BYBLOCK
 62
     0
 10
20674.28193881737
 20
20560.487175999991
 30
0.0
 40
15.0
 50
180.0
 51
0.0
  0
ARC
  5
139BC
  8
0
  6
BYBLOCK
 62
     0
 10
20674.28193881737
 20
20560.487175999991
 30
0.0
 40
15.0
 50
0.0
 51
180.0
  0
ARC
  5
139BD
  8
0
  6
BYBLOCK
 62
     0
 10
23241.78193881737
 20
20560.487175999991
 30
0.0
 40
15.0
 50
0.0
 51
180.0
  0
ARC
  5
139BE
  8
0
  6
BYBLOCK
 62
     0
 10
23241.78193881737
 20
20560.487175999991
 30
0.0
 40
15.0
 50
180.0
 51
0.0
  0
ARC
  5
139BF
  8
0
  6
BYBLOCK
 62
     0
 10
26041.78193881737
 20
20160.487175999991
 30
0.0
 40
15.0
 50
180.0
 51
0.0
  0
ARC
  5
139C0
  8
0
  6
BYBLOCK
 62
     0
 10
26041.78193881737
 20
20160.487175999991
 30
0.0
 40
15.0
 50
0.0
 51
180.0
  0
ARC
  5
139C1
  8
0
  6
BYBLOCK
 62
     0
 10
25999.279695817371
 20
20160.487175999991
 30
0.0
 40
15.0
 50
0.0
 51
180.0
  0
ARC
  5
139C2
  8
0
  6
BYBLOCK
 62
     0
 10
25999.279695817371
 20
20160.487175999991
 30
0.0
 40
15.0
 50
180.0
 51
0.0
  0
ARC
  5
139C3
  8
0
  6
BYBLOCK
 62
     0
 10
26041.78193881737
 20
20160.487175999991
 30
0.0
 40
15.0
 50
0.0
 51
180.0
  0
ARC
  5
139C4
  8
0
  6
BYBLOCK
 62
     0
 10
26041.78193881737
 20
20160.487175999991
 30
0.0
 40
15.0
 50
180.0
 51
0.0
  0
ARC
  5
139C5
  8
0
  6
BYBLOCK
 62
     0
 10
26084.280223817361
 20
20160.487175999991
 30
0.0
 40
15.0
 50
180.0
 51
0.0
  0
ARC
  5
139C6
  8
0
  6
BYBLOCK
 62
     0
 10
26084.280223817361
 20
20160.487175999991
 30
0.0
 40
15.0
 50
0.0
 51
180.0
  0
ARC
  5
139C7
  8
0
  6
BYBLOCK
 62
     0
 10
27259.625563186
 20
16750.486251999999
 30
0.0
 40
15.0
 50
270.0
 51
90.0
  0
ARC
  5
139C8
  8
0
  6
BYBLOCK
 62
     0
 10
27259.625563186
 20
16750.486251999999
 30
0.0
 40
15.0
 50
90.0
 51
270.0
  0
ARC
  5
139C9
  8
0
  6
BYBLOCK
 62
     0
 10
27259.625563186
 20
19317.986251999999
 30
0.0
 40
15.0
 50
90.0
 51
270.0
  0
ARC
  5
139CA
  8
0
  6
BYBLOCK
 62
     0
 10
27259.625563186
 20
19317.986251999999
 30
0.0
 40
15.0
 50
270.0
 51
90.0
  0
ARC
  5
139CB
  8
0
  6
BYBLOCK
 62
     0
 10
27259.625563186
 20
13832.486252000001
 30
0.0
 40
15.0
 50
270.0
 51
90.0
  0
ARC
  5
139CC
  8
0
  6
BYBLOCK
 62
     0
 10
27259.625563186
 20
13832.486252000001
 30
0.0
 40
15.0
 50
90.0
 51
270.0
  0
ARC
  5
139CD
  8
0
  6
BYBLOCK
 62
     0
 10
27259.625563186
 20
16750.486251999999
 30
0.0
 40
15.0
 50
90.0
 51
270.0
  0
ARC
  5
139CE
  8
0
  6
BYBLOCK
 62
     0
 10
27259.625563186
 20
16750.486251999999
 30
0.0
 40
15.0
 50
270.0
 51
90.0
  0
LINE
  5
139CF
  8
2-0
  6
CONTINUOUS
 62
     6
 10
22357.440854817371
 20
13192.48513000001
 30
0.0
 11
21357.447452817411
 21
13192.48513000001
 31
0.0
  0
LINE
  5
139D0
  8
2-0
  6
CONTINUOUS
 62
     6
 10
20889.507075817372
 20
13662.90584400001
 30
0.0
 11
21357.447452817411
 21
13192.48513000001
 31
0.0
  0
LINE
  5
139D1
  8
2-0
  6
CONTINUOUS
 62
     6
 10
20928.147278817389
 20
16854.51349100002
 30
0.0
 11
21232.842696817381
 21
16958.167022000031
 31
0.0
  0
LINE
  5
139D2
  8
2-0
  6
CONTINUOUS
 62
     6
 10
20773.1252398174
 20
16364.891447000031
 30
0.0
 11
21232.842696817381
 21
16120.978136000011
 31
0.0
  0
LINE
  5
139D3
  8
2-0
  6
CONTINUOUS
 62
     6
 10
22152.845731817379
 20
16120.978136000011
 30
0.0
 11
21232.842696817381
 21
16120.978136000011
 31
0.0
  0
LINE
  5
139D4
  8
2-0
  6
CONTINUOUS
 62
     6
 10
22432.836758817379
 20
16958.167022000031
 30
0.0
 11
21232.842696817381
 21
16958.167022000031
 31
0.0
  0
LINE
  5
139D5
  8
2-0
  6
CONTINUOUS
 62
     6
 10
20856.94795481738
 20
13984.58949
 30
0.0
 11
21232.842696817381
 21
14165.533325000009
 31
0.0
  0
LINE
  5
139D6
  8
2-0
  6
CONTINUOUS
 62
     6
 10
21752.84441281738
 20
14165.533325000009
 30
0.0
 11
21232.842696817381
 21
14165.533325000009
 31
0.0
  0
LINE
  5
139D7
  8
2-0
  6
CONTINUOUS
 62
     4
 10
23241.78193881737
 20
19440.486780000021
 30
0.0
 11
23241.78193881737
 21
20240.483480999959
 31
0.0
  0
LINE
  5
139D8
  8
2-0
  6
CONTINUOUS
 62
     3
 10
20661.78127881738
 20
19251.48432600002
 30
0.0
 11
20661.78127881738
 21
19245.488364000012
 31
0.0
  0
LINE
  5
139D9
  8
2-0
  6
CONTINUOUS
 62
     3
 10
20661.78127881738
 20
19245.488364000012
 30
0.0
 11
20631.783654817391
 21
19245.488364000012
 31
0.0
  0
LINE
  5
139DA
  8
2-0
  6
CONTINUOUS
 62
     3
 10
20631.783654817391
 20
19275.487968000001
 30
0.0
 11
20712.78555481739
 21
19275.487968000001
 31
0.0
  0
LINE
  5
139DB
  8
2-0
  6
CONTINUOUS
 62
     3
 10
20661.78127881738
 20
19235.190908000011
 30
0.0
 11
20631.783654817391
 21
19235.190908000011
 31
0.0
  0
LINE
  5
139DC
  8
2-0
  6
CONTINUOUS
 62
     3
 10
20661.78127881738
 20
19253.19265000003
 30
0.0
 11
20661.78127881738
 21
19235.190908000011
 31
0.0
  0
LINE
  5
139DD
  8
2-0
  6
CONTINUOUS
 62
     3
 10
20636.783918817378
 20
19253.19265000003
 30
0.0
 11
20661.78127881738
 21
19253.19265000003
 31
0.0
  0
LINE
  5
139DE
  8
2-0
  6
CONTINUOUS
 62
     3
 10
20636.783918817378
 20
19248.184468000029
 30
0.0
 11
20636.783918817378
 21
19253.19265000003
 31
0.0
  0
LINE
  5
139DF
  8
2-0
  6
CONTINUOUS
 62
     3
 10
20643.785475817371
 20
19248.184468000029
 30
0.0
 11
20636.783918817378
 21
19248.184468000029
 31
0.0
  0
LINE
  5
139E0
  8
2-0
  6
CONTINUOUS
 62
     3
 10
20744.08174381738
 20
19348.48469500001
 30
0.0
 11
20744.08174381738
 21
19355.490211000011
 31
0.0
  0
LINE
  5
139E1
  8
2-0
  6
CONTINUOUS
 62
     3
 10
20744.08174381738
 20
19355.490211000011
 30
0.0
 11
20739.0814798174
 21
19355.490211000011
 31
0.0
  0
LINE
  5
139E2
  8
2-0
  6
CONTINUOUS
 62
     3
 10
20739.0814798174
 20
19355.490211000011
 30
0.0
 11
20739.0814798174
 21
19330.48097400002
 31
0.0
  0
LINE
  5
139E3
  8
2-0
  6
CONTINUOUS
 62
     3
 10
20739.0814798174
 20
19330.48097400002
 30
0.0
 11
20757.0832218174
 21
19330.48097400002
 31
0.0
  0
LINE
  5
139E4
  8
2-0
  6
CONTINUOUS
 62
     3
 10
20757.0832218174
 20
19330.48097400002
 30
0.0
 11
20757.0832218174
 21
19360.484537000011
 31
0.0
  0
LINE
  5
139E5
  8
2-0
  6
CONTINUOUS
 62
     3
 10
20746.785765817382
 20
19360.484537000011
 30
0.0
 11
20631.783654817391
 21
19360.484537000011
 31
0.0
  0
LINE
  5
139E6
  8
2-0
  6
CONTINUOUS
 62
     3
 10
20746.785765817382
 20
19330.48097400002
 30
0.0
 11
20746.785765817382
 21
19360.484537000011
 31
0.0
  0
LINE
  5
139E7
  8
2-0
  6
CONTINUOUS
 62
     3
 10
20740.783865817379
 20
19330.48097400002
 30
0.0
 11
20746.785765817382
 21
19330.48097400002
 31
0.0
  0
LINE
  5
139E8
  8
2-0
  6
CONTINUOUS
 62
     3
 10
20643.785475817371
 20
18894.887645499999
 30
0.0
 11
20636.783918817378
 21
18894.887645499999
 31
0.0
  0
LINE
  5
139E9
  8
2-0
  6
CONTINUOUS
 62
     3
 10
20636.783918817378
 20
18894.887645499999
 30
0.0
 11
20636.783918817378
 21
18899.887909500001
 31
0.0
  0
LINE
  5
139EA
  8
2-0
  6
CONTINUOUS
 62
     3
 10
20636.783918817378
 20
18899.887909500001
 30
0.0
 11
20661.78127881738
 21
18899.887909500001
 31
0.0
  0
LINE
  5
139EB
  8
2-0
  6
CONTINUOUS
 62
     3
 10
20661.78127881738
 20
18899.887909500001
 30
0.0
 11
20661.78127881738
 21
18881.89210550001
 31
0.0
  0
LINE
  5
139EC
  8
2-0
  6
CONTINUOUS
 62
     3
 10
20661.78127881738
 20
18881.89210550001
 30
0.0
 11
20631.783654817391
 21
18881.89210550001
 31
0.0
  0
LINE
  5
139ED
  8
2-0
  6
CONTINUOUS
 62
     3
 10
20661.78127881738
 20
18897.983612499971
 30
0.0
 11
20661.78127881738
 21
18891.98567150001
 31
0.0
  0
LINE
  5
139EE
  8
2-0
  6
CONTINUOUS
 62
     3
 10
20661.78127881738
 20
18891.98567150001
 30
0.0
 11
20631.783654817391
 21
18891.98567150001
 31
0.0
  0
LINE
  5
139EF
  8
2-0
  6
CONTINUOUS
 62
     3
 10
20631.783654817391
 20
18891.98567150001
 30
0.0
 11
20631.783654817391
 21
18928.98683250001
 31
0.0
  0
LINE
  5
139F0
  8
2-0
  6
CONTINUOUS
 62
     3
 10
20661.78127881738
 20
18928.98683250001
 30
0.0
 11
20631.783654817391
 21
18928.98683250001
 31
0.0
  0
LINE
  5
139F1
  8
2-0
  6
CONTINUOUS
 62
     3
 10
20661.78127881738
 20
18922.982952499991
 30
0.0
 11
20661.78127881738
 21
18928.98683250001
 31
0.0
  0
LINE
  5
139F2
  8
2-0
  6
CONTINUOUS
 62
     3
 10
20661.78127881738
 20
18939.082377499999
 30
0.0
 11
20631.783654817391
 21
18939.082377499999
 31
0.0
  0
LINE
  5
139F3
  8
2-0
  6
CONTINUOUS
 62
     3
 10
20661.78127881738
 20
18921.080635499999
 30
0.0
 11
20661.78127881738
 21
18939.082377499999
 31
0.0
  0
LINE
  5
139F4
  8
2-0
  6
CONTINUOUS
 62
     3
 10
20636.783918817378
 20
18921.080635499999
 30
0.0
 11
20661.78127881738
 21
18921.080635499999
 31
0.0
  0
LINE
  5
139F5
  8
2-0
  6
CONTINUOUS
 62
     3
 10
20636.783918817378
 20
18926.080899500012
 30
0.0
 11
20636.783918817378
 21
18921.080635499999
 31
0.0
  0
LINE
  5
139F6
  8
2-0
  6
CONTINUOUS
 62
     3
 10
20643.785475817371
 20
18926.080899500012
 30
0.0
 11
20636.783918817378
 21
18926.080899500012
 31
0.0
  0
LINE
  5
139F7
  8
2-0
  6
CONTINUOUS
 62
     3
 10
20643.785475817371
 20
18193.88665600001
 30
0.0
 11
20636.783918817378
 21
18193.88665600001
 31
0.0
  0
LINE
  5
139F8
  8
2-0
  6
CONTINUOUS
 62
     3
 10
20636.783918817378
 20
18193.88665600001
 30
0.0
 11
20636.783918817378
 21
18198.89285800001
 31
0.0
  0
LINE
  5
139F9
  8
2-0
  6
CONTINUOUS
 62
     3
 10
20636.783918817378
 20
18198.89285800001
 30
0.0
 11
20661.78127881738
 21
18198.89285800001
 31
0.0
  0
LINE
  5
139FA
  8
2-0
  6
CONTINUOUS
 62
     3
 10
20661.78127881738
 20
18198.89285800001
 30
0.0
 11
20661.78127881738
 21
18180.89111600001
 31
0.0
  0
LINE
  5
139FB
  8
2-0
  6
CONTINUOUS
 62
     3
 10
20661.78127881738
 20
18180.89111600001
 30
0.0
 11
20631.783654817391
 21
18180.89111600001
 31
0.0
  0
LINE
  5
139FC
  8
2-0
  6
CONTINUOUS
 62
     3
 10
20661.78127881738
 20
18196.982623
 30
0.0
 11
20661.78127881738
 21
18190.986660999999
 31
0.0
  0
LINE
  5
139FD
  8
2-0
  6
CONTINUOUS
 62
     3
 10
20661.78127881738
 20
18190.986660999999
 30
0.0
 11
20631.783654817391
 21
18190.986660999999
 31
0.0
  0
LINE
  5
139FE
  8
2-0
  6
CONTINUOUS
 62
     3
 10
20631.783654817391
 20
18190.986660999999
 30
0.0
 11
20631.783654817391
 21
18227.985842999999
 31
0.0
  0
LINE
  5
139FF
  8
2-0
  6
CONTINUOUS
 62
     3
 10
20661.78127881738
 20
18227.985842999999
 30
0.0
 11
20631.783654817391
 21
18227.985842999999
 31
0.0
  0
LINE
  5
13A00
  8
2-0
  6
CONTINUOUS
 62
     3
 10
20661.78127881738
 20
18221.98988100002
 30
0.0
 11
20661.78127881738
 21
18227.985842999999
 31
0.0
  0
LINE
  5
13A01
  8
2-0
  6
CONTINUOUS
 62
     3
 10
20661.78127881738
 20
18238.08138800001
 30
0.0
 11
20631.783654817391
 21
18238.08138800001
 31
0.0
  0
LINE
  5
13A02
  8
2-0
  6
CONTINUOUS
 62
     3
 10
20661.78127881738
 20
18220.079645999998
 30
0.0
 11
20661.78127881738
 21
18238.08138800001
 31
0.0
  0
LINE
  5
13A03
  8
2-0
  6
CONTINUOUS
 62
     3
 10
20636.783918817378
 20
18220.079645999998
 30
0.0
 11
20661.78127881738
 21
18220.079645999998
 31
0.0
  0
LINE
  5
13A04
  8
2-0
  6
CONTINUOUS
 62
     3
 10
20636.783918817378
 20
18225.08584800001
 30
0.0
 11
20636.783918817378
 21
18220.079645999998
 31
0.0
  0
LINE
  5
13A05
  8
2-0
  6
CONTINUOUS
 62
     3
 10
20643.785475817371
 20
18225.08584800001
 30
0.0
 11
20636.783918817378
 21
18225.08584800001
 31
0.0
  0
LINE
  5
13A06
  8
2-0
  6
CONTINUOUS
 62
     3
 10
20643.785475817371
 20
17524.079910000011
 30
0.0
 11
20636.783918817378
 21
17524.079910000011
 31
0.0
  0
LINE
  5
13A07
  8
2-0
  6
CONTINUOUS
 62
     3
 10
20636.783918817378
 20
17524.079910000011
 30
0.0
 11
20636.783918817378
 21
17519.091523000021
 31
0.0
  0
LINE
  5
13A08
  8
2-0
  6
CONTINUOUS
 62
     3
 10
20636.783918817378
 20
17519.091523000021
 30
0.0
 11
20661.78127881738
 21
17519.091523000021
 31
0.0
  0
LINE
  5
13A09
  8
2-0
  6
CONTINUOUS
 62
     3
 10
20661.78127881738
 20
17519.091523000021
 30
0.0
 11
20661.78127881738
 21
17537.087326000012
 31
0.0
  0
LINE
  5
13A0A
  8
2-0
  6
CONTINUOUS
 62
     3
 10
20661.78127881738
 20
17537.087326000012
 30
0.0
 11
20631.783654817391
 21
17537.087326000012
 31
0.0
  0
LINE
  5
13A0B
  8
2-0
  6
CONTINUOUS
 62
     3
 10
20661.78127881738
 20
17520.989881000001
 30
0.0
 11
20661.78127881738
 21
17526.985842999999
 31
0.0
  0
LINE
  5
13A0C
  8
2-0
  6
CONTINUOUS
 62
     3
 10
20661.78127881738
 20
17526.985842999999
 30
0.0
 11
20631.783654817391
 21
17526.985842999999
 31
0.0
  0
LINE
  5
13A0D
  8
2-0
  6
CONTINUOUS
 62
     3
 10
20631.783654817391
 20
17526.985842999999
 30
0.0
 11
20631.783654817391
 21
17489.986661000021
 31
0.0
  0
LINE
  5
13A0E
  8
2-0
  6
CONTINUOUS
 62
     3
 10
20661.78127881738
 20
17489.986661000021
 30
0.0
 11
20631.783654817391
 21
17489.986661000021
 31
0.0
  0
LINE
  5
13A0F
  8
2-0
  6
CONTINUOUS
 62
     3
 10
20661.78127881738
 20
17495.988561999991
 30
0.0
 11
20661.78127881738
 21
17489.986661000021
 31
0.0
  0
LINE
  5
13A10
  8
2-0
  6
CONTINUOUS
 62
     3
 10
20661.78127881738
 20
17479.897055000001
 30
0.0
 11
20631.783654817391
 21
17479.897055000001
 31
0.0
  0
LINE
  5
13A11
  8
2-0
  6
CONTINUOUS
 62
     3
 10
20661.78127881738
 20
17497.89285800001
 30
0.0
 11
20661.78127881738
 21
17479.897055000001
 31
0.0
  0
LINE
  5
13A12
  8
2-0
  6
CONTINUOUS
 62
     3
 10
20636.783918817378
 20
17497.89285800001
 30
0.0
 11
20661.78127881738
 21
17497.89285800001
 31
0.0
  0
LINE
  5
13A13
  8
2-0
  6
CONTINUOUS
 62
     3
 10
20636.783918817378
 20
17492.892595000001
 30
0.0
 11
20636.783918817378
 21
17497.89285800001
 31
0.0
  0
LINE
  5
13A14
  8
2-0
  6
CONTINUOUS
 62
     3
 10
20643.785475817371
 20
17492.892595000001
 30
0.0
 11
20636.783918817378
 21
17492.892595000001
 31
0.0
  0
LINE
  5
13A15
  8
2-0
  6
CONTINUOUS
 62
     3
 10
20634.669792817371
 20
16772.98348100001
 30
0.0
 11
20634.669792817371
 21
16792.984536000011
 31
0.0
  0
LINE
  5
13A16
  8
2-0
  6
CONTINUOUS
 62
     3
 10
20634.669792817371
 20
16792.984536000011
 30
0.0
 11
20719.666361817392
 21
16792.984536000011
 31
0.0
  0
LINE
  5
13A17
  8
2-0
  6
CONTINUOUS
 62
     3
 10
20643.785475817371
 20
16819.591246000011
 30
0.0
 11
20636.783918817378
 21
16819.591246000011
 31
0.0
  0
LINE
  5
13A18
  8
2-0
  6
CONTINUOUS
 62
     3
 10
20636.783918817378
 20
16819.591246000011
 30
0.0
 11
20636.783918817378
 21
16814.596920000011
 31
0.0
  0
LINE
  5
13A19
  8
2-0
  6
CONTINUOUS
 62
     3
 10
20636.783918817378
 20
16814.596920000011
 30
0.0
 11
20661.78127881738
 21
16814.596920000011
 31
0.0
  0
LINE
  5
13A1A
  8
2-0
  6
CONTINUOUS
 62
     3
 10
20661.78127881738
 20
16814.596920000011
 30
0.0
 11
20661.78127881738
 21
16832.592724000009
 31
0.0
  0
LINE
  5
13A1B
  8
2-0
  6
CONTINUOUS
 62
     3
 10
20661.78127881738
 20
16832.592724000009
 30
0.0
 11
20631.783654817391
 21
16832.592724000009
 31
0.0
  0
LINE
  5
13A1C
  8
2-0
  6
CONTINUOUS
 62
     3
 10
20661.78127881738
 20
16822.98414
 30
0.0
 11
20661.78127881738
 21
16816.982240000001
 31
0.0
  0
LINE
  5
13A1D
  8
2-0
  6
CONTINUOUS
 62
     3
 10
20631.783654817391
 20
16822.98414
 30
0.0
 11
20661.78127881738
 21
16822.98414
 31
0.0
  0
LINE
  5
13A1E
  8
2-0
  6
CONTINUOUS
 62
     3
 10
20631.783654817391
 20
16832.592724000009
 30
0.0
 11
20631.783654817391
 21
17479.897055000001
 31
0.0
  0
LINE
  5
13A1F
  8
2-0
  6
CONTINUOUS
 62
     3
 10
20631.783654817391
 20
17537.087326000012
 30
0.0
 11
20631.783654817391
 21
18180.89111600001
 31
0.0
  0
LINE
  5
13A20
  8
2-0
  6
CONTINUOUS
 62
     3
 10
20631.783654817391
 20
16677.98242500002
 30
0.0
 11
20661.78127881738
 21
16677.98242500002
 31
0.0
  0
LINE
  5
13A21
  8
2-0
  6
CONTINUOUS
 62
     3
 10
20661.78127881738
 20
16677.98242500002
 30
0.0
 11
20661.78127881738
 21
16683.984325000001
 31
0.0
  0
LINE
  5
13A22
  8
2-0
  6
CONTINUOUS
 62
     3
 10
20719.666361817392
 20
16707.987968000001
 30
0.0
 11
20634.669792817371
 21
16707.987968000001
 31
0.0
  0
LINE
  5
13A23
  8
2-0
  6
CONTINUOUS
 62
     3
 10
20634.669792817371
 20
16707.987968000001
 30
0.0
 11
20634.669792817371
 21
16727.983085000011
 31
0.0
  0
LINE
  5
13A24
  8
2-0
  6
CONTINUOUS
 62
     3
 10
20661.78127881738
 20
16668.373842000012
 30
0.0
 11
20631.783654817391
 21
16668.373842000012
 31
0.0
  0
LINE
  5
13A25
  8
2-0
  6
CONTINUOUS
 62
     3
 10
20661.78127881738
 20
16686.369644999992
 30
0.0
 11
20661.78127881738
 21
16668.373842000012
 31
0.0
  0
LINE
  5
13A26
  8
2-0
  6
CONTINUOUS
 62
     3
 10
20636.783918817378
 20
16686.369644999992
 30
0.0
 11
20661.78127881738
 21
16686.369644999992
 31
0.0
  0
LINE
  5
13A27
  8
2-0
  6
CONTINUOUS
 62
     3
 10
20636.783918817378
 20
16681.369381000011
 30
0.0
 11
20636.783918817378
 21
16686.369644999992
 31
0.0
  0
LINE
  5
13A28
  8
2-0
  6
CONTINUOUS
 62
     3
 10
20643.785475817371
 20
16681.369381000011
 30
0.0
 11
20636.783918817378
 21
16681.369381000011
 31
0.0
  0
LINE
  5
13A29
  8
2-0
  6
CONTINUOUS
 62
     3
 10
20643.785475817371
 20
15976.88715049999
 30
0.0
 11
20636.783918817378
 21
15976.88715049999
 31
0.0
  0
LINE
  5
13A2A
  8
2-0
  6
CONTINUOUS
 62
     3
 10
20636.783918817378
 20
15976.88715049999
 30
0.0
 11
20636.783918817378
 21
15981.887414500001
 31
0.0
  0
LINE
  5
13A2B
  8
2-0
  6
CONTINUOUS
 62
     3
 10
20636.783918817378
 20
15981.887414500001
 30
0.0
 11
20661.78127881738
 21
15981.887414500001
 31
0.0
  0
LINE
  5
13A2C
  8
2-0
  6
CONTINUOUS
 62
     3
 10
20661.78127881738
 20
15981.887414500001
 30
0.0
 11
20661.78127881738
 21
15963.88567250001
 31
0.0
  0
LINE
  5
13A2D
  8
2-0
  6
CONTINUOUS
 62
     3
 10
20661.78127881738
 20
15963.88567250001
 30
0.0
 11
20631.783654817391
 21
15963.88567250001
 31
0.0
  0
LINE
  5
13A2E
  8
2-0
  6
CONTINUOUS
 62
     3
 10
20661.78127881738
 20
15979.9831175
 30
0.0
 11
20661.78127881738
 21
15973.98616650001
 31
0.0
  0
LINE
  5
13A2F
  8
2-0
  6
CONTINUOUS
 62
     3
 10
20661.78127881738
 20
15973.98616650001
 30
0.0
 11
20631.783654817391
 21
15973.98616650001
 31
0.0
  0
LINE
  5
13A30
  8
2-0
  6
CONTINUOUS
 62
     3
 10
20631.783654817391
 20
15973.98616650001
 30
0.0
 11
20631.783654817391
 21
16010.98633750001
 31
0.0
  0
LINE
  5
13A31
  8
2-0
  6
CONTINUOUS
 62
     3
 10
20661.78127881738
 20
16010.98633750001
 30
0.0
 11
20631.783654817391
 21
16010.98633750001
 31
0.0
  0
LINE
  5
13A32
  8
2-0
  6
CONTINUOUS
 62
     3
 10
20661.78127881738
 20
16004.983447500001
 30
0.0
 11
20661.78127881738
 21
16010.98633750001
 31
0.0
  0
LINE
  5
13A33
  8
2-0
  6
CONTINUOUS
 62
     3
 10
20661.78127881738
 20
16021.08188250001
 30
0.0
 11
20631.783654817391
 21
16021.08188250001
 31
0.0
  0
LINE
  5
13A34
  8
2-0
  6
CONTINUOUS
 62
     3
 10
20661.78127881738
 20
16003.0742015
 30
0.0
 11
20661.78127881738
 21
16021.08188250001
 31
0.0
  0
LINE
  5
13A35
  8
2-0
  6
CONTINUOUS
 62
     3
 10
20636.783918817378
 20
16003.0742015
 30
0.0
 11
20661.78127881738
 21
16003.0742015
 31
0.0
  0
LINE
  5
13A36
  8
2-0
  6
CONTINUOUS
 62
     3
 10
20636.783918817378
 20
16008.08040450001
 30
0.0
 11
20636.783918817378
 21
16003.0742015
 31
0.0
  0
LINE
  5
13A37
  8
2-0
  6
CONTINUOUS
 62
     3
 10
20643.785475817371
 20
16008.08040450001
 30
0.0
 11
20636.783918817378
 21
16008.08040450001
 31
0.0
  0
LINE
  5
13A38
  8
2-0
  6
CONTINUOUS
 62
     3
 10
20643.785475817371
 20
15307.32042100002
 30
0.0
 11
20636.783918817378
 21
15307.32042100002
 31
0.0
  0
LINE
  5
13A39
  8
2-0
  6
CONTINUOUS
 62
     3
 10
20636.783918817378
 20
15307.32042100002
 30
0.0
 11
20636.783918817378
 21
15302.326096000021
 31
0.0
  0
LINE
  5
13A3A
  8
2-0
  6
CONTINUOUS
 62
     3
 10
20636.783918817378
 20
15302.326096000021
 30
0.0
 11
20661.78127881738
 21
15302.326096000021
 31
0.0
  0
LINE
  5
13A3B
  8
2-0
  6
CONTINUOUS
 62
     3
 10
20661.78127881738
 20
15302.326096000021
 30
0.0
 11
20661.78127881738
 21
15320.32189900002
 31
0.0
  0
LINE
  5
13A3C
  8
2-0
  6
CONTINUOUS
 62
     3
 10
20661.78127881738
 20
15320.32189900002
 30
0.0
 11
20631.783654817391
 21
15320.32189900002
 31
0.0
  0
LINE
  5
13A3D
  8
2-0
  6
CONTINUOUS
 62
     3
 10
20661.78127881738
 20
15304.22445400001
 30
0.0
 11
20661.78127881738
 21
15310.22635400002
 31
0.0
  0
LINE
  5
13A3E
  8
2-0
  6
CONTINUOUS
 62
     3
 10
20661.78127881738
 20
15310.22635400002
 30
0.0
 11
20631.783654817391
 21
15310.22635400002
 31
0.0
  0
LINE
  5
13A3F
  8
2-0
  6
CONTINUOUS
 62
     3
 10
20631.783654817391
 20
15273.22717300003
 30
0.0
 11
20631.783654817391
 21
15310.22635400002
 31
0.0
  0
LINE
  5
13A40
  8
2-0
  6
CONTINUOUS
 62
     3
 10
20661.78127881738
 20
15273.22717300003
 30
0.0
 11
20631.783654817391
 21
15273.22717300003
 31
0.0
  0
LINE
  5
13A41
  8
2-0
  6
CONTINUOUS
 62
     3
 10
20661.78127881738
 20
15279.22412400002
 30
0.0
 11
20661.78127881738
 21
15273.22717300003
 31
0.0
  0
LINE
  5
13A42
  8
2-0
  6
CONTINUOUS
 62
     3
 10
20661.78127881738
 20
15263.12568900002
 30
0.0
 11
20631.783654817391
 21
15263.12568900002
 31
0.0
  0
LINE
  5
13A43
  8
2-0
  6
CONTINUOUS
 62
     3
 10
20661.78127881738
 20
15281.13337000001
 30
0.0
 11
20661.78127881738
 21
15263.12568900002
 31
0.0
  0
LINE
  5
13A44
  8
2-0
  6
CONTINUOUS
 62
     3
 10
20636.783918817378
 20
15281.13337000001
 30
0.0
 11
20661.78127881738
 21
15281.13337000001
 31
0.0
  0
LINE
  5
13A45
  8
2-0
  6
CONTINUOUS
 62
     3
 10
20636.783918817378
 20
15276.13310600003
 30
0.0
 11
20636.783918817378
 21
15281.13337000001
 31
0.0
  0
LINE
  5
13A46
  8
2-0
  6
CONTINUOUS
 62
     3
 10
20643.785475817371
 20
15276.13310600003
 30
0.0
 11
20636.783918817378
 21
15276.13310600003
 31
0.0
  0
LINE
  5
13A47
  8
2-0
  6
CONTINUOUS
 62
     3
 10
20631.783654817391
 20
16668.373842000012
 30
0.0
 11
20631.783654817391
 21
16021.08188250001
 31
0.0
  0
LINE
  5
13A48
  8
2-0
  6
CONTINUOUS
 62
     3
 10
20631.783654817391
 20
16822.98414
 30
0.0
 11
20631.783654817391
 21
16677.98242500002
 31
0.0
  0
LINE
  5
13A49
  8
2-0
  6
CONTINUOUS
 62
     3
 10
20719.666361817392
 20
16792.984536000011
 30
0.0
 11
20719.666361817392
 21
16707.987968000001
 31
0.0
  0
LINE
  5
13A4A
  8
2-0
  6
CONTINUOUS
 62
     6
 10
22257.875028817369
 20
18561.431801499992
 30
0.0
 11
21232.842696817381
 21
18561.431801499992
 31
0.0
  0
LINE
  5
13A4B
  8
2-0
  6
CONTINUOUS
 62
     3
 10
20643.785475817371
 20
14574.89209900001
 30
0.0
 11
20636.783918817378
 21
14574.89209900001
 31
0.0
  0
LINE
  5
13A4C
  8
2-0
  6
CONTINUOUS
 62
     3
 10
20636.783918817378
 20
14574.89209900001
 30
0.0
 11
20636.783918817378
 21
14579.886425000021
 31
0.0
  0
LINE
  5
13A4D
  8
2-0
  6
CONTINUOUS
 62
     3
 10
20636.783918817378
 20
14579.886425000021
 30
0.0
 11
20661.78127881738
 21
14579.886425000021
 31
0.0
  0
LINE
  5
13A4E
  8
2-0
  6
CONTINUOUS
 62
     3
 10
20661.78127881738
 20
14579.886425000021
 30
0.0
 11
20661.78127881738
 21
14561.89062100001
 31
0.0
  0
LINE
  5
13A4F
  8
2-0
  6
CONTINUOUS
 62
     3
 10
20661.78127881738
 20
14561.89062100001
 30
0.0
 11
20631.783654817391
 21
14561.89062100001
 31
0.0
  0
LINE
  5
13A50
  8
2-0
  6
CONTINUOUS
 62
     3
 10
20661.78127881738
 20
14577.98905600002
 30
0.0
 11
20661.78127881738
 21
14571.986166000021
 31
0.0
  0
LINE
  5
13A51
  8
2-0
  6
CONTINUOUS
 62
     3
 10
20661.78127881738
 20
14571.986166000021
 30
0.0
 11
20631.783654817391
 21
14571.986166000021
 31
0.0
  0
LINE
  5
13A52
  8
2-0
  6
CONTINUOUS
 62
     3
 10
20631.783654817391
 20
14571.986166000021
 30
0.0
 11
20631.783654817391
 21
14608.986338000001
 31
0.0
  0
LINE
  5
13A53
  8
2-0
  6
CONTINUOUS
 62
     3
 10
20661.78127881738
 20
14608.986338000001
 30
0.0
 11
20631.783654817391
 21
14608.986338000001
 31
0.0
  0
LINE
  5
13A54
  8
2-0
  6
CONTINUOUS
 62
     3
 10
20661.78127881738
 20
14602.98938600001
 30
0.0
 11
20661.78127881738
 21
14608.986338000001
 31
0.0
  0
LINE
  5
13A55
  8
2-0
  6
CONTINUOUS
 62
     3
 10
20661.78127881738
 20
14619.086831000021
 30
0.0
 11
20631.783654817391
 21
14619.086831000021
 31
0.0
  0
LINE
  5
13A56
  8
2-0
  6
CONTINUOUS
 62
     3
 10
20661.78127881738
 20
14601.08014000002
 30
0.0
 11
20661.78127881738
 21
14619.086831000021
 31
0.0
  0
LINE
  5
13A57
  8
2-0
  6
CONTINUOUS
 62
     3
 10
20636.783918817378
 20
14601.08014000002
 30
0.0
 11
20661.78127881738
 21
14601.08014000002
 31
0.0
  0
LINE
  5
13A58
  8
2-0
  6
CONTINUOUS
 62
     3
 10
20636.783918817378
 20
14606.08535300002
 30
0.0
 11
20636.783918817378
 21
14601.08014000002
 31
0.0
  0
LINE
  5
13A59
  8
2-0
  6
CONTINUOUS
 62
     3
 10
20643.785475817371
 20
14606.08535300002
 30
0.0
 11
20636.783918817378
 21
14606.08535300002
 31
0.0
  0
LINE
  5
13A5A
  8
2-0
  6
CONTINUOUS
 62
     3
 10
20661.78127881738
 20
13898.988179000011
 30
0.0
 11
20661.78127881738
 21
13904.993048000009
 31
0.0
  0
LINE
  5
13A5B
  8
2-0
  6
CONTINUOUS
 62
     3
 10
20661.78127881738
 20
13904.993048000009
 30
0.0
 11
20631.783654817391
 21
13904.993048000009
 31
0.0
  0
LINE
  5
13A5C
  8
2-0
  6
CONTINUOUS
 62
     3
 10
20631.783654817391
 20
13904.993048000009
 30
0.0
 11
20631.783654817391
 21
13789.98895700001
 31
0.0
  0
LINE
  5
13A5D
  8
2-0
  6
CONTINUOUS
 62
     3
 10
20631.783654817391
 20
13789.98895700001
 30
0.0
 11
20716.78220281738
 21
13789.98895700001
 31
0.0
  0
LINE
  5
13A5E
  8
2-0
  6
CONTINUOUS
 62
     3
 10
20716.78220281738
 20
13789.98895700001
 30
0.0
 11
20716.78220281738
 21
13874.984536000011
 31
0.0
  0
LINE
  5
13A5F
  8
2-0
  6
CONTINUOUS
 62
     3
 10
20716.78220281738
 20
13874.984536000011
 30
0.0
 11
20684.783284817378
 21
13874.984536000011
 31
0.0
  0
LINE
  5
13A60
  8
2-0
  6
CONTINUOUS
 62
     3
 10
20643.785475817371
 20
13902.022781000011
 30
0.0
 11
20636.783918817378
 21
13902.022781000011
 31
0.0
  0
LINE
  5
13A61
  8
2-0
  6
CONTINUOUS
 62
     3
 10
20636.783918817378
 20
13902.022781000011
 30
0.0
 11
20636.783918817378
 21
13897.02548599999
 31
0.0
  0
LINE
  5
13A62
  8
2-0
  6
CONTINUOUS
 62
     3
 10
20636.783918817378
 20
13897.02548599999
 30
0.0
 11
20661.78127881738
 21
13897.02548599999
 31
0.0
  0
LINE
  5
13A63
  8
2-0
  6
CONTINUOUS
 62
     3
 10
20661.78127881738
 20
13897.02548599999
 30
0.0
 11
20661.78127881738
 21
13915.024259000011
 31
0.0
  0
LINE
  5
13A64
  8
2-0
  6
CONTINUOUS
 62
     3
 10
20661.78127881738
 20
13915.024259000011
 30
0.0
 11
20631.783654817391
 21
13915.024259000011
 31
0.0
  0
LINE
  5
13A65
  8
2-0
  6
CENTER2
 62
     6
 10
20674.28193881737
 20
13592.491399
 30
0.0
 11
20674.28193881737
 21
14748.36015700003
 31
0.0
  0
LINE
  5
13A66
  8
2-0
  6
CONTINUOUS
 62
     3
 10
20631.783654817391
 20
18238.08138800001
 30
0.0
 11
20631.783654817391
 21
18881.89210550001
 31
0.0
  0
LINE
  5
13A67
  8
2-0
  6
CONTINUOUS
 62
     6
 10
19939.278771817389
 20
20090.487440000041
 30
0.0
 11
18739.284709817392
 21
20090.487440000041
 31
0.0
  0
LINE
  5
13A68
  8
2-0
  6
CONTINUOUS
 62
     6
 10
20801.311604817391
 20
18803.58630950001
 30
0.0
 11
21232.842696817381
 21
18561.431801499992
 31
0.0
  0
LINE
  5
13A69
  8
2-0
  6
CONTINUOUS
 62
     6
 10
20479.742770817411
 20
19503.164277000011
 30
0.0
 11
19939.278771817389
 21
20090.487440000041
 31
0.0
  0
LINE
  5
13A6A
  8
2-0
  6
CONTINUOUS
 62
     3
 10
20631.783654817391
 20
15963.88567250001
 30
0.0
 11
20631.783654817391
 21
15320.32189900002
 31
0.0
  0
LINE
  5
13A6B
  8
2-0
  6
CONTINUOUS
 62
     6
 10
20814.368509817381
 20
18826.845653500011
 30
0.0
 11
20661.78127881738
 21
18881.89210550001
 31
0.0
  0
LINE
  5
13A6C
  8
2-0
  6
CONTINUOUS
 62
     6
 10
20661.78127881738
 20
18881.89210550001
 30
0.0
 11
20788.262618817382
 21
18780.332905499989
 31
0.0
  0
LINE
  5
13A6D
  8
2-0
  6
CONTINUOUS
 62
     6
 10
20814.368509817381
 20
18826.845653500011
 30
0.0
 11
20788.262618817382
 21
18780.332905499989
 31
0.0
  0
LINE
  5
13A6E
  8
2-0
  6
CONTINUOUS
 62
     6
 10
20788.262618817382
 20
18780.332905499989
 30
0.0
 11
20661.78127881738
 21
18881.89210550001
 31
0.0
  0
LINE
  5
13A6F
  8
2-0
  6
CONTINUOUS
 62
     6
 10
20661.78127881738
 20
18881.89210550001
 30
0.0
 11
20814.368509817381
 21
18826.845653500011
 31
0.0
  0
LINE
  5
13A70
  8
2-0
  6
CONTINUOUS
 62
     6
 10
20814.368509817381
 20
18826.845653500011
 30
0.0
 11
20661.78127881738
 21
18881.89210550001
 31
0.0
  0
LINE
  5
13A71
  8
2-0
  6
CONTINUOUS
 62
     6
 10
20788.262618817382
 20
18780.332905499989
 30
0.0
 11
20661.78127881738
 21
18881.89210550001
 31
0.0
  0
LINE
  5
13A72
  8
2-0
  6
CONTINUOUS
 62
     6
 10
20788.262618817382
 20
18780.332905499989
 30
0.0
 11
20814.368509817381
 21
18826.845653500011
 31
0.0
  0
LINE
  5
13A73
  8
2-0
  6
CONTINUOUS
 62
     6
 10
20460.125741817381
 20
19485.103150000032
 30
0.0
 11
20588.08776181738
 21
19385.420532000011
 31
0.0
  0
LINE
  5
13A74
  8
2-0
  6
CONTINUOUS
 62
     6
 10
20588.08776181738
 20
19385.420532000011
 30
0.0
 11
20499.373656817392
 21
19521.217487000031
 31
0.0
  0
LINE
  5
13A75
  8
2-0
  6
CONTINUOUS
 62
     6
 10
20460.125741817381
 20
19485.103150000032
 30
0.0
 11
20499.373656817392
 21
19521.217487000031
 31
0.0
  0
LINE
  5
13A76
  8
2-0
  6
CONTINUOUS
 62
     6
 10
20499.373656817392
 20
19521.217487000031
 30
0.0
 11
20588.08776181738
 21
19385.420532000011
 31
0.0
  0
LINE
  5
13A77
  8
2-0
  6
CONTINUOUS
 62
     6
 10
20588.08776181738
 20
19385.420532000011
 30
0.0
 11
20460.125741817381
 21
19485.103150000032
 31
0.0
  0
LINE
  5
13A78
  8
2-0
  6
CONTINUOUS
 62
     6
 10
20460.125741817381
 20
19485.103150000032
 30
0.0
 11
20588.08776181738
 21
19385.420532000011
 31
0.0
  0
LINE
  5
13A79
  8
2-0
  6
CONTINUOUS
 62
     6
 10
20499.373656817392
 20
19521.217487000031
 30
0.0
 11
20588.08776181738
 21
19385.420532000011
 31
0.0
  0
LINE
  5
13A7A
  8
2-0
  6
CONTINUOUS
 62
     6
 10
20499.373656817392
 20
19521.217487000031
 30
0.0
 11
20460.125741817381
 21
19485.103150000032
 31
0.0
  0
LINE
  5
13A7B
  8
2-0
  6
CONTINUOUS
 62
     4
 10
23241.78193881737
 20
19440.486780000021
 30
0.0
 11
23241.78193881737
 21
20240.483480999959
 31
0.0
  0
LINE
  5
13A7C
  8
2-0
  6
CONTINUOUS
 62
     6
 10
20908.421375817379
 20
13681.716219
 30
0.0
 11
20776.674516817369
 21
13776.34314600001
 31
0.0
  0
LINE
  5
13A7D
  8
2-0
  6
CONTINUOUS
 62
     6
 10
20776.674516817369
 20
13776.34314600001
 30
0.0
 11
20870.60465281739
 21
13644.10437599999
 31
0.0
  0
LINE
  5
13A7E
  8
2-0
  6
CONTINUOUS
 62
     6
 10
20908.421375817379
 20
13681.716219
 30
0.0
 11
20870.60465281739
 21
13644.10437599999
 31
0.0
  0
LINE
  5
13A7F
  8
2-0
  6
CONTINUOUS
 62
     6
 10
20870.60465281739
 20
13644.10437599999
 30
0.0
 11
20776.674516817369
 21
13776.34314600001
 31
0.0
  0
LINE
  5
13A80
  8
2-0
  6
CONTINUOUS
 62
     6
 10
20776.674516817369
 20
13776.34314600001
 30
0.0
 11
20908.421375817379
 21
13681.716219
 31
0.0
  0
LINE
  5
13A81
  8
2-0
  6
CONTINUOUS
 62
     6
 10
20908.421375817379
 20
13681.716219
 30
0.0
 11
20776.674516817369
 21
13776.34314600001
 31
0.0
  0
LINE
  5
13A82
  8
2-0
  6
CONTINUOUS
 62
     6
 10
20870.60465281739
 20
13644.10437599999
 30
0.0
 11
20776.674516817369
 21
13776.34314600001
 31
0.0
  0
LINE
  5
13A83
  8
2-0
  6
CONTINUOUS
 62
     6
 10
20870.60465281739
 20
13644.10437599999
 30
0.0
 11
20908.421375817379
 21
13681.716219
 31
0.0
  0
LINE
  5
13A84
  8
2-0
  6
CONTINUOUS
 62
     6
 10
20845.385586817381
 20
14008.620845999991
 30
0.0
 11
20712.78555481739
 21
13915.192517999991
 31
0.0
  0
LINE
  5
13A85
  8
2-0
  6
CONTINUOUS
 62
     6
 10
20712.78555481739
 20
13915.192517999991
 30
0.0
 11
20868.518240817379
 21
13960.56803200001
 31
0.0
  0
LINE
  5
13A86
  8
2-0
  6
CONTINUOUS
 62
     6
 10
20845.385586817381
 20
14008.620845999991
 30
0.0
 11
20868.518240817379
 21
13960.56803200001
 31
0.0
  0
LINE
  5
13A87
  8
2-0
  6
CONTINUOUS
 62
     6
 10
20868.518240817379
 20
13960.56803200001
 30
0.0
 11
20712.78555481739
 21
13915.192517999991
 31
0.0
  0
LINE
  5
13A88
  8
2-0
  6
CONTINUOUS
 62
     6
 10
20712.78555481739
 20
13915.192517999991
 30
0.0
 11
20845.385586817381
 21
14008.620845999991
 31
0.0
  0
LINE
  5
13A89
  8
2-0
  6
CONTINUOUS
 62
     6
 10
20845.385586817381
 20
14008.620845999991
 30
0.0
 11
20712.78555481739
 21
13915.192517999991
 31
0.0
  0
LINE
  5
13A8A
  8
2-0
  6
CONTINUOUS
 62
     6
 10
20868.518240817379
 20
13960.56803200001
 30
0.0
 11
20712.78555481739
 21
13915.192517999991
 31
0.0
  0
LINE
  5
13A8B
  8
2-0
  6
CONTINUOUS
 62
     6
 10
20868.518240817379
 20
13960.56803200001
 30
0.0
 11
20845.385586817381
 21
14008.620845999991
 31
0.0
  0
LINE
  5
13A8C
  8
2-0
  6
CONTINUOUS
 62
     6
 10
20785.621940817378
 20
16388.441779000019
 30
0.0
 11
20631.783654817391
 21
16439.875610000021
 31
0.0
  0
LINE
  5
13A8D
  8
2-0
  6
CONTINUOUS
 62
     6
 10
20631.783654817391
 20
16439.875610000021
 30
0.0
 11
20760.618641817411
 21
16341.33517500002
 31
0.0
  0
LINE
  5
13A8E
  8
2-0
  6
CONTINUOUS
 62
     6
 10
20785.621940817378
 20
16388.441779000019
 30
0.0
 11
20760.618641817411
 21
16341.33517500002
 31
0.0
  0
LINE
  5
13A8F
  8
2-0
  6
CONTINUOUS
 62
     6
 10
20760.618641817411
 20
16341.33517500002
 30
0.0
 11
20631.783654817391
 21
16439.875610000021
 31
0.0
  0
LINE
  5
13A90
  8
2-0
  6
CONTINUOUS
 62
     6
 10
20631.783654817391
 20
16439.875610000021
 30
0.0
 11
20785.621940817378
 21
16388.441779000019
 31
0.0
  0
LINE
  5
13A91
  8
2-0
  6
CONTINUOUS
 62
     6
 10
20785.621940817378
 20
16388.441779000019
 30
0.0
 11
20631.783654817391
 21
16439.875610000021
 31
0.0
  0
LINE
  5
13A92
  8
2-0
  6
CONTINUOUS
 62
     6
 10
20760.618641817411
 20
16341.33517500002
 30
0.0
 11
20631.783654817391
 21
16439.875610000021
 31
0.0
  0
LINE
  5
13A93
  8
2-0
  6
CONTINUOUS
 62
     6
 10
20760.618641817411
 20
16341.33517500002
 30
0.0
 11
20785.621940817378
 21
16388.441779000019
 31
0.0
  0
LINE
  5
13A94
  8
2-0
  6
CONTINUOUS
 62
     6
 10
20919.558147817392
 20
16879.760271000021
 30
0.0
 11
20776.674516817369
 21
16802.984642000021
 31
0.0
  0
LINE
  5
13A95
  8
2-0
  6
CONTINUOUS
 62
     6
 10
20776.674516817369
 20
16802.984642000021
 30
0.0
 11
20936.736409817389
 21
16829.266711000029
 31
0.0
  0
LINE
  5
13A96
  8
2-0
  6
CONTINUOUS
 62
     6
 10
20919.558147817392
 20
16879.760271000021
 30
0.0
 11
20936.736409817389
 21
16829.266711000029
 31
0.0
  0
LINE
  5
13A97
  8
2-0
  6
CONTINUOUS
 62
     6
 10
20936.736409817389
 20
16829.266711000029
 30
0.0
 11
20776.674516817369
 21
16802.984642000021
 31
0.0
  0
LINE
  5
13A98
  8
2-0
  6
CONTINUOUS
 62
     6
 10
20776.674516817369
 20
16802.984642000021
 30
0.0
 11
20919.558147817392
 21
16879.760271000021
 31
0.0
  0
LINE
  5
13A99
  8
2-0
  6
CONTINUOUS
 62
     6
 10
20919.558147817392
 20
16879.760271000021
 30
0.0
 11
20776.674516817369
 21
16802.984642000021
 31
0.0
  0
LINE
  5
13A9A
  8
2-0
  6
CONTINUOUS
 62
     6
 10
20936.736409817389
 20
16829.266711000029
 30
0.0
 11
20776.674516817369
 21
16802.984642000021
 31
0.0
  0
LINE
  5
13A9B
  8
2-0
  6
CONTINUOUS
 62
     6
 10
20936.736409817389
 20
16829.266711000029
 30
0.0
 11
20919.558147817392
 21
16879.760271000021
 31
0.0
  0
LINE
  5
13A9C
  8
2-0
  6
CONTINUOUS
 62
     3
 10
23254.280618817382
 20
19251.48432600002
 30
0.0
 11
23254.280618817382
 21
19245.488364000012
 31
0.0
  0
LINE
  5
13A9D
  8
2-0
  6
CONTINUOUS
 62
     3
 10
23254.280618817382
 20
19245.488364000012
 30
0.0
 11
23284.278243817382
 21
19245.488364000012
 31
0.0
  0
LINE
  5
13A9E
  8
2-0
  6
CONTINUOUS
 62
     3
 10
23284.278243817382
 20
19245.488364000012
 30
0.0
 11
23284.278243817382
 21
19360.484537000011
 31
0.0
  0
LINE
  5
13A9F
  8
2-0
  6
CONTINUOUS
 62
     3
 10
23284.278243817382
 20
19275.487968000001
 30
0.0
 11
23203.280302817369
 21
19275.487968000001
 31
0.0
  0
LINE
  5
13AA0
  8
2-0
  6
CONTINUOUS
 62
     3
 10
23254.280618817382
 20
19235.190908000011
 30
0.0
 11
23284.278243817382
 21
19235.190908000011
 31
0.0
  0
LINE
  5
13AA1
  8
2-0
  6
CONTINUOUS
 62
     3
 10
23254.280618817382
 20
19253.19265000003
 30
0.0
 11
23254.280618817382
 21
19235.190908000011
 31
0.0
  0
LINE
  5
13AA2
  8
2-0
  6
CONTINUOUS
 62
     3
 10
23279.274020817378
 20
19253.19265000003
 30
0.0
 11
23254.280618817382
 21
19253.19265000003
 31
0.0
  0
LINE
  5
13AA3
  8
2-0
  6
CONTINUOUS
 62
     3
 10
23279.274020817378
 20
19248.184468000029
 30
0.0
 11
23279.274020817378
 21
19253.19265000003
 31
0.0
  0
LINE
  5
13AA4
  8
2-0
  6
CONTINUOUS
 62
     3
 10
23272.276422817391
 20
19248.184468000029
 30
0.0
 11
23279.274020817378
 21
19248.184468000029
 31
0.0
  0
LINE
  5
13AA5
  8
2-0
  6
CONTINUOUS
 62
     3
 10
23171.98213381739
 20
19348.48469500001
 30
0.0
 11
23171.98213381739
 21
19355.490211000011
 31
0.0
  0
LINE
  5
13AA6
  8
2-0
  6
CONTINUOUS
 62
     3
 10
23171.98213381739
 20
19355.490211000011
 30
0.0
 11
23176.984377817382
 21
19355.490211000011
 31
0.0
  0
LINE
  5
13AA7
  8
2-0
  6
CONTINUOUS
 62
     3
 10
23176.984377817382
 20
19355.490211000011
 30
0.0
 11
23176.984377817382
 21
19330.48097400002
 31
0.0
  0
LINE
  5
13AA8
  8
2-0
  6
CONTINUOUS
 62
     3
 10
23176.984377817382
 20
19330.48097400002
 30
0.0
 11
23158.97669681739
 21
19330.48097400002
 31
0.0
  0
LINE
  5
13AA9
  8
2-0
  6
CONTINUOUS
 62
     3
 10
23158.97669681739
 20
19330.48097400002
 30
0.0
 11
23158.97669681739
 21
19360.484537000011
 31
0.0
  0
LINE
  5
13AAA
  8
2-0
  6
CONTINUOUS
 62
     3
 10
23169.276132817369
 20
19360.484537000011
 30
0.0
 11
23284.278243817382
 21
19360.484537000011
 31
0.0
  0
LINE
  5
13AAB
  8
2-0
  6
CONTINUOUS
 62
     3
 10
23169.276132817369
 20
19330.48097400002
 30
0.0
 11
23169.276132817369
 21
19360.484537000011
 31
0.0
  0
LINE
  5
13AAC
  8
2-0
  6
CONTINUOUS
 62
     3
 10
23175.28001181738
 20
19330.48097400002
 30
0.0
 11
23169.276132817369
 21
19330.48097400002
 31
0.0
  0
LINE
  5
13AAD
  8
2-0
  6
CONTINUOUS
 62
     3
 10
23254.280618817382
 20
19251.48432600002
 30
0.0
 11
23254.280618817382
 21
19245.488364000012
 31
0.0
  0
LINE
  5
13AAE
  8
2-0
  6
CONTINUOUS
 62
     3
 10
23254.280618817382
 20
19245.488364000012
 30
0.0
 11
23284.278243817382
 21
19245.488364000012
 31
0.0
  0
LINE
  5
13AAF
  8
2-0
  6
CONTINUOUS
 62
     3
 10
23284.278243817382
 20
19245.488364000012
 30
0.0
 11
23284.278243817382
 21
19360.484537000011
 31
0.0
  0
LINE
  5
13AB0
  8
2-0
  6
CONTINUOUS
 62
     3
 10
23284.278243817382
 20
19275.487968000001
 30
0.0
 11
23203.280302817369
 21
19275.487968000001
 31
0.0
  0
LINE
  5
13AB1
  8
2-0
  6
CONTINUOUS
 62
     3
 10
23254.280618817382
 20
19235.190908000011
 30
0.0
 11
23284.278243817382
 21
19235.190908000011
 31
0.0
  0
LINE
  5
13AB2
  8
2-0
  6
CONTINUOUS
 62
     3
 10
23254.280618817382
 20
19253.19265000003
 30
0.0
 11
23254.280618817382
 21
19235.190908000011
 31
0.0
  0
LINE
  5
13AB3
  8
2-0
  6
CONTINUOUS
 62
     3
 10
23279.274020817378
 20
19253.19265000003
 30
0.0
 11
23254.280618817382
 21
19253.19265000003
 31
0.0
  0
LINE
  5
13AB4
  8
2-0
  6
CONTINUOUS
 62
     3
 10
23279.274020817378
 20
19248.184468000029
 30
0.0
 11
23279.274020817378
 21
19253.19265000003
 31
0.0
  0
LINE
  5
13AB5
  8
2-0
  6
CONTINUOUS
 62
     3
 10
23272.276422817391
 20
19248.184468000029
 30
0.0
 11
23279.274020817378
 21
19248.184468000029
 31
0.0
  0
LINE
  5
13AB6
  8
2-0
  6
CONTINUOUS
 62
     3
 10
23272.276422817391
 20
18894.887645499999
 30
0.0
 11
23279.274020817378
 21
18894.887645499999
 31
0.0
  0
LINE
  5
13AB7
  8
2-0
  6
CONTINUOUS
 62
     3
 10
23279.274020817378
 20
18894.887645499999
 30
0.0
 11
23279.274020817378
 21
18899.887909500001
 31
0.0
  0
LINE
  5
13AB8
  8
2-0
  6
CONTINUOUS
 62
     3
 10
23279.274020817378
 20
18899.887909500001
 30
0.0
 11
23254.280618817382
 21
18899.887909500001
 31
0.0
  0
LINE
  5
13AB9
  8
2-0
  6
CONTINUOUS
 62
     3
 10
23254.280618817382
 20
18899.887909500001
 30
0.0
 11
23254.280618817382
 21
18881.892105499999
 31
0.0
  0
LINE
  5
13ABA
  8
2-0
  6
CONTINUOUS
 62
     3
 10
23254.280618817382
 20
18881.892105499999
 30
0.0
 11
23284.278243817382
 21
18881.892105499999
 31
0.0
  0
LINE
  5
13ABB
  8
2-0
  6
CONTINUOUS
 62
     3
 10
23254.280618817382
 20
18897.983612499971
 30
0.0
 11
23254.280618817382
 21
18891.985671499999
 31
0.0
  0
LINE
  5
13ABC
  8
2-0
  6
CONTINUOUS
 62
     3
 10
23254.280618817382
 20
18891.985671499999
 30
0.0
 11
23284.278243817382
 21
18891.985671499999
 31
0.0
  0
LINE
  5
13ABD
  8
2-0
  6
CONTINUOUS
 62
     3
 10
23284.278243817382
 20
18891.985671499999
 30
0.0
 11
23284.278243817382
 21
18928.98683250001
 31
0.0
  0
LINE
  5
13ABE
  8
2-0
  6
CONTINUOUS
 62
     3
 10
23254.280618817382
 20
18928.98683250001
 30
0.0
 11
23284.278243817382
 21
18928.98683250001
 31
0.0
  0
LINE
  5
13ABF
  8
2-0
  6
CONTINUOUS
 62
     3
 10
23254.280618817382
 20
18922.982952499991
 30
0.0
 11
23254.280618817382
 21
18928.98683250001
 31
0.0
  0
LINE
  5
13AC0
  8
2-0
  6
CONTINUOUS
 62
     3
 10
23254.280618817382
 20
18939.082377499992
 30
0.0
 11
23284.278243817382
 21
18939.082377499992
 31
0.0
  0
LINE
  5
13AC1
  8
2-0
  6
CONTINUOUS
 62
     3
 10
23254.280618817382
 20
18921.080635499999
 30
0.0
 11
23254.280618817382
 21
18939.082377499992
 31
0.0
  0
LINE
  5
13AC2
  8
2-0
  6
CONTINUOUS
 62
     3
 10
23279.274020817378
 20
18921.080635499999
 30
0.0
 11
23254.280618817382
 21
18921.080635499999
 31
0.0
  0
LINE
  5
13AC3
  8
2-0
  6
CONTINUOUS
 62
     3
 10
23279.274020817378
 20
18926.080899500001
 30
0.0
 11
23279.274020817378
 21
18921.080635499999
 31
0.0
  0
LINE
  5
13AC4
  8
2-0
  6
CONTINUOUS
 62
     3
 10
23272.276422817391
 20
18926.080899500001
 30
0.0
 11
23279.274020817378
 21
18926.080899500001
 31
0.0
  0
LINE
  5
13AC5
  8
2-0
  6
CONTINUOUS
 62
     3
 10
23272.276422817391
 20
18193.88665600001
 30
0.0
 11
23279.274020817378
 21
18193.88665600001
 31
0.0
  0
LINE
  5
13AC6
  8
2-0
  6
CONTINUOUS
 62
     3
 10
23279.274020817378
 20
18193.88665600001
 30
0.0
 11
23279.274020817378
 21
18198.892857999988
 31
0.0
  0
LINE
  5
13AC7
  8
2-0
  6
CONTINUOUS
 62
     3
 10
23279.274020817378
 20
18198.892857999988
 30
0.0
 11
23254.280618817382
 21
18198.892857999988
 31
0.0
  0
LINE
  5
13AC8
  8
2-0
  6
CONTINUOUS
 62
     3
 10
23254.280618817382
 20
18198.892857999988
 30
0.0
 11
23254.280618817382
 21
18180.89111600001
 31
0.0
  0
LINE
  5
13AC9
  8
2-0
  6
CONTINUOUS
 62
     3
 10
23254.280618817382
 20
18180.89111600001
 30
0.0
 11
23284.278243817382
 21
18180.89111600001
 31
0.0
  0
LINE
  5
13ACA
  8
2-0
  6
CONTINUOUS
 62
     3
 10
23254.280618817382
 20
18196.982623
 30
0.0
 11
23254.280618817382
 21
18190.986660999999
 31
0.0
  0
LINE
  5
13ACB
  8
2-0
  6
CONTINUOUS
 62
     3
 10
23254.280618817382
 20
18190.986660999999
 30
0.0
 11
23284.278243817382
 21
18190.986660999999
 31
0.0
  0
LINE
  5
13ACC
  8
2-0
  6
CONTINUOUS
 62
     3
 10
23284.278243817382
 20
18190.986660999999
 30
0.0
 11
23284.278243817382
 21
18227.985842999999
 31
0.0
  0
LINE
  5
13ACD
  8
2-0
  6
CONTINUOUS
 62
     3
 10
23254.280618817382
 20
18227.985842999999
 30
0.0
 11
23284.278243817382
 21
18227.985842999999
 31
0.0
  0
LINE
  5
13ACE
  8
2-0
  6
CONTINUOUS
 62
     3
 10
23254.280618817382
 20
18221.989881000001
 30
0.0
 11
23254.280618817382
 21
18227.985842999999
 31
0.0
  0
LINE
  5
13ACF
  8
2-0
  6
CONTINUOUS
 62
     3
 10
23254.280618817382
 20
18238.08138800001
 30
0.0
 11
23284.278243817382
 21
18238.08138800001
 31
0.0
  0
LINE
  5
13AD0
  8
2-0
  6
CONTINUOUS
 62
     3
 10
23254.280618817382
 20
18220.079645999991
 30
0.0
 11
23254.280618817382
 21
18238.08138800001
 31
0.0
  0
LINE
  5
13AD1
  8
2-0
  6
CONTINUOUS
 62
     3
 10
23279.274020817378
 20
18220.079645999991
 30
0.0
 11
23254.280618817382
 21
18220.079645999991
 31
0.0
  0
LINE
  5
13AD2
  8
2-0
  6
CONTINUOUS
 62
     3
 10
23279.274020817378
 20
18225.085847999999
 30
0.0
 11
23279.274020817378
 21
18220.079645999991
 31
0.0
  0
LINE
  5
13AD3
  8
2-0
  6
CONTINUOUS
 62
     3
 10
23272.276422817391
 20
18225.085847999999
 30
0.0
 11
23279.274020817378
 21
18225.085847999999
 31
0.0
  0
LINE
  5
13AD4
  8
2-0
  6
CONTINUOUS
 62
     3
 10
23272.276422817391
 20
17524.07991
 30
0.0
 11
23279.274020817378
 21
17524.07991
 31
0.0
  0
LINE
  5
13AD5
  8
2-0
  6
CONTINUOUS
 62
     3
 10
23279.274020817378
 20
17524.07991
 30
0.0
 11
23279.274020817378
 21
17519.09152300001
 31
0.0
  0
LINE
  5
13AD6
  8
2-0
  6
CONTINUOUS
 62
     3
 10
23279.274020817378
 20
17519.09152300001
 30
0.0
 11
23254.280618817382
 21
17519.09152300001
 31
0.0
  0
LINE
  5
13AD7
  8
2-0
  6
CONTINUOUS
 62
     3
 10
23254.280618817382
 20
17519.09152300001
 30
0.0
 11
23254.280618817382
 21
17537.087326000012
 31
0.0
  0
LINE
  5
13AD8
  8
2-0
  6
CONTINUOUS
 62
     3
 10
23254.280618817382
 20
17537.087326000012
 30
0.0
 11
23284.278243817382
 21
17537.087326000012
 31
0.0
  0
LINE
  5
13AD9
  8
2-0
  6
CONTINUOUS
 62
     3
 10
23254.280618817382
 20
17520.989881000001
 30
0.0
 11
23254.280618817382
 21
17526.985842999991
 31
0.0
  0
LINE
  5
13ADA
  8
2-0
  6
CONTINUOUS
 62
     3
 10
23254.280618817382
 20
17526.985842999991
 30
0.0
 11
23284.278243817382
 21
17526.985842999991
 31
0.0
  0
LINE
  5
13ADB
  8
2-0
  6
CONTINUOUS
 62
     3
 10
23284.278243817382
 20
17526.985842999991
 30
0.0
 11
23284.278243817382
 21
17489.98666100001
 31
0.0
  0
LINE
  5
13ADC
  8
2-0
  6
CONTINUOUS
 62
     3
 10
23254.280618817382
 20
17489.98666100001
 30
0.0
 11
23284.278243817382
 21
17489.98666100001
 31
0.0
  0
LINE
  5
13ADD
  8
2-0
  6
CONTINUOUS
 62
     3
 10
23254.280618817382
 20
17495.988561999991
 30
0.0
 11
23254.280618817382
 21
17489.98666100001
 31
0.0
  0
LINE
  5
13ADE
  8
2-0
  6
CONTINUOUS
 62
     3
 10
23254.280618817382
 20
17479.897055000001
 30
0.0
 11
23284.278243817382
 21
17479.897055000001
 31
0.0
  0
LINE
  5
13ADF
  8
2-0
  6
CONTINUOUS
 62
     3
 10
23254.280618817382
 20
17497.892857999999
 30
0.0
 11
23254.280618817382
 21
17479.897055000001
 31
0.0
  0
LINE
  5
13AE0
  8
2-0
  6
CONTINUOUS
 62
     3
 10
23279.274020817378
 20
17497.892857999999
 30
0.0
 11
23254.280618817382
 21
17497.892857999999
 31
0.0
  0
LINE
  5
13AE1
  8
2-0
  6
CONTINUOUS
 62
     3
 10
23279.274020817378
 20
17492.892595000001
 30
0.0
 11
23279.274020817378
 21
17497.892857999999
 31
0.0
  0
LINE
  5
13AE2
  8
2-0
  6
CONTINUOUS
 62
     3
 10
23272.276422817391
 20
17492.892595000001
 30
0.0
 11
23279.274020817378
 21
17492.892595000001
 31
0.0
  0
LINE
  5
13AE3
  8
2-0
  6
CONTINUOUS
 62
     3
 10
23281.39210581738
 20
16772.98348100001
 30
0.0
 11
23281.39210581738
 21
16792.984536000011
 31
0.0
  0
LINE
  5
13AE4
  8
2-0
  6
CONTINUOUS
 62
     3
 10
23281.39210581738
 20
16792.984536000011
 30
0.0
 11
23196.391577817369
 21
16792.984536000011
 31
0.0
  0
LINE
  5
13AE5
  8
2-0
  6
CONTINUOUS
 62
     3
 10
23272.276422817391
 20
16819.591246000011
 30
0.0
 11
23279.274020817378
 21
16819.591246000011
 31
0.0
  0
LINE
  5
13AE6
  8
2-0
  6
CONTINUOUS
 62
     3
 10
23279.274020817378
 20
16819.591246000011
 30
0.0
 11
23279.274020817378
 21
16814.596920000011
 31
0.0
  0
LINE
  5
13AE7
  8
2-0
  6
CONTINUOUS
 62
     3
 10
23279.274020817378
 20
16814.596920000011
 30
0.0
 11
23254.280618817382
 21
16814.596920000011
 31
0.0
  0
LINE
  5
13AE8
  8
2-0
  6
CONTINUOUS
 62
     3
 10
23254.280618817382
 20
16814.596920000011
 30
0.0
 11
23254.280618817382
 21
16832.592724000009
 31
0.0
  0
LINE
  5
13AE9
  8
2-0
  6
CONTINUOUS
 62
     3
 10
23254.280618817382
 20
16832.592724000009
 30
0.0
 11
23284.278243817382
 21
16832.592724000009
 31
0.0
  0
LINE
  5
13AEA
  8
2-0
  6
CONTINUOUS
 62
     3
 10
23254.280618817382
 20
16822.98414
 30
0.0
 11
23254.280618817382
 21
16816.982240000001
 31
0.0
  0
LINE
  5
13AEB
  8
2-0
  6
CONTINUOUS
 62
     3
 10
23284.278243817382
 20
16822.98414
 30
0.0
 11
23254.280618817382
 21
16822.98414
 31
0.0
  0
LINE
  5
13AEC
  8
2-0
  6
CONTINUOUS
 62
     3
 10
23284.278243817382
 20
16832.592724000009
 30
0.0
 11
23284.278243817382
 21
17479.897055000001
 31
0.0
  0
LINE
  5
13AED
  8
2-0
  6
CONTINUOUS
 62
     3
 10
23284.278243817382
 20
17537.087326000012
 30
0.0
 11
23284.278243817382
 21
18180.89111600001
 31
0.0
  0
LINE
  5
13AEE
  8
2-0
  6
CONTINUOUS
 62
     3
 10
23284.278243817382
 20
16677.98242500002
 30
0.0
 11
23254.280618817382
 21
16677.98242500002
 31
0.0
  0
LINE
  5
13AEF
  8
2-0
  6
CONTINUOUS
 62
     3
 10
23254.280618817382
 20
16677.98242500002
 30
0.0
 11
23254.280618817382
 21
16683.984325000001
 31
0.0
  0
LINE
  5
13AF0
  8
2-0
  6
CONTINUOUS
 62
     3
 10
23196.391577817369
 20
16707.987968000001
 30
0.0
 11
23281.39210581738
 21
16707.987968000001
 31
0.0
  0
LINE
  5
13AF1
  8
2-0
  6
CONTINUOUS
 62
     3
 10
23281.39210581738
 20
16707.987968000001
 30
0.0
 11
23281.39210581738
 21
16727.983085000011
 31
0.0
  0
LINE
  5
13AF2
  8
2-0
  6
CONTINUOUS
 62
     3
 10
23254.280618817382
 20
16668.373842000012
 30
0.0
 11
23284.278243817382
 21
16668.373842000012
 31
0.0
  0
LINE
  5
13AF3
  8
2-0
  6
CONTINUOUS
 62
     3
 10
23254.280618817382
 20
16686.369644999992
 30
0.0
 11
23254.280618817382
 21
16668.373842000012
 31
0.0
  0
LINE
  5
13AF4
  8
2-0
  6
CONTINUOUS
 62
     3
 10
23279.274020817378
 20
16686.369644999992
 30
0.0
 11
23254.280618817382
 21
16686.369644999992
 31
0.0
  0
LINE
  5
13AF5
  8
2-0
  6
CONTINUOUS
 62
     3
 10
23279.274020817378
 20
16681.369381000011
 30
0.0
 11
23279.274020817378
 21
16686.369644999992
 31
0.0
  0
LINE
  5
13AF6
  8
2-0
  6
CONTINUOUS
 62
     3
 10
23272.276422817391
 20
16681.369381000011
 30
0.0
 11
23279.274020817378
 21
16681.369381000011
 31
0.0
  0
LINE
  5
13AF7
  8
2-0
  6
CONTINUOUS
 62
     3
 10
23272.276422817391
 20
15976.88715049999
 30
0.0
 11
23279.274020817378
 21
15976.88715049999
 31
0.0
  0
LINE
  5
13AF8
  8
2-0
  6
CONTINUOUS
 62
     3
 10
23279.274020817378
 20
15976.88715049999
 30
0.0
 11
23279.274020817378
 21
15981.887414500001
 31
0.0
  0
LINE
  5
13AF9
  8
2-0
  6
CONTINUOUS
 62
     3
 10
23279.274020817378
 20
15981.887414500001
 30
0.0
 11
23254.280618817382
 21
15981.887414500001
 31
0.0
  0
LINE
  5
13AFA
  8
2-0
  6
CONTINUOUS
 62
     3
 10
23254.280618817382
 20
15981.887414500001
 30
0.0
 11
23254.280618817382
 21
15963.88567250001
 31
0.0
  0
LINE
  5
13AFB
  8
2-0
  6
CONTINUOUS
 62
     3
 10
23254.280618817382
 20
15963.88567250001
 30
0.0
 11
23284.278243817382
 21
15963.88567250001
 31
0.0
  0
LINE
  5
13AFC
  8
2-0
  6
CONTINUOUS
 62
     3
 10
23254.280618817382
 20
15979.9831175
 30
0.0
 11
23254.280618817382
 21
15973.98616650001
 31
0.0
  0
LINE
  5
13AFD
  8
2-0
  6
CONTINUOUS
 62
     3
 10
23254.280618817382
 20
15973.98616650001
 30
0.0
 11
23284.278243817382
 21
15973.98616650001
 31
0.0
  0
LINE
  5
13AFE
  8
2-0
  6
CONTINUOUS
 62
     3
 10
23284.278243817382
 20
15973.98616650001
 30
0.0
 11
23284.278243817382
 21
16010.98633750001
 31
0.0
  0
LINE
  5
13AFF
  8
2-0
  6
CONTINUOUS
 62
     3
 10
23254.280618817382
 20
16010.98633750001
 30
0.0
 11
23284.278243817382
 21
16010.98633750001
 31
0.0
  0
LINE
  5
13B00
  8
2-0
  6
CONTINUOUS
 62
     3
 10
23254.280618817382
 20
16004.983447500001
 30
0.0
 11
23254.280618817382
 21
16010.98633750001
 31
0.0
  0
LINE
  5
13B01
  8
2-0
  6
CONTINUOUS
 62
     3
 10
23254.280618817382
 20
16021.08188250001
 30
0.0
 11
23284.278243817382
 21
16021.08188250001
 31
0.0
  0
LINE
  5
13B02
  8
2-0
  6
CONTINUOUS
 62
     3
 10
23254.280618817382
 20
16003.0742015
 30
0.0
 11
23254.280618817382
 21
16021.08188250001
 31
0.0
  0
LINE
  5
13B03
  8
2-0
  6
CONTINUOUS
 62
     3
 10
23279.274020817378
 20
16003.0742015
 30
0.0
 11
23254.280618817382
 21
16003.0742015
 31
0.0
  0
LINE
  5
13B04
  8
2-0
  6
CONTINUOUS
 62
     3
 10
23279.274020817378
 20
16008.08040450001
 30
0.0
 11
23279.274020817378
 21
16003.0742015
 31
0.0
  0
LINE
  5
13B05
  8
2-0
  6
CONTINUOUS
 62
     3
 10
23272.276422817391
 20
16008.08040450001
 30
0.0
 11
23279.274020817378
 21
16008.08040450001
 31
0.0
  0
LINE
  5
13B06
  8
2-0
  6
CONTINUOUS
 62
     3
 10
23272.276422817391
 20
15307.32042100002
 30
0.0
 11
23279.274020817378
 21
15307.32042100002
 31
0.0
  0
LINE
  5
13B07
  8
2-0
  6
CONTINUOUS
 62
     3
 10
23279.274020817378
 20
15307.32042100002
 30
0.0
 11
23279.274020817378
 21
15302.326096000021
 31
0.0
  0
LINE
  5
13B08
  8
2-0
  6
CONTINUOUS
 62
     3
 10
23279.274020817378
 20
15302.326096000021
 30
0.0
 11
23254.280618817382
 21
15302.326096000021
 31
0.0
  0
LINE
  5
13B09
  8
2-0
  6
CONTINUOUS
 62
     3
 10
23254.280618817382
 20
15302.326096000021
 30
0.0
 11
23254.280618817382
 21
15320.32189900002
 31
0.0
  0
LINE
  5
13B0A
  8
2-0
  6
CONTINUOUS
 62
     3
 10
23254.280618817382
 20
15320.32189900002
 30
0.0
 11
23284.278243817382
 21
15320.32189900002
 31
0.0
  0
LINE
  5
13B0B
  8
2-0
  6
CONTINUOUS
 62
     3
 10
23254.280618817382
 20
15304.22445400001
 30
0.0
 11
23254.280618817382
 21
15310.22635400002
 31
0.0
  0
LINE
  5
13B0C
  8
2-0
  6
CONTINUOUS
 62
     3
 10
23254.280618817382
 20
15310.22635400002
 30
0.0
 11
23284.278243817382
 21
15310.22635400002
 31
0.0
  0
LINE
  5
13B0D
  8
2-0
  6
CONTINUOUS
 62
     3
 10
23284.278243817382
 20
15273.22717300003
 30
0.0
 11
23284.278243817382
 21
15310.22635400002
 31
0.0
  0
LINE
  5
13B0E
  8
2-0
  6
CONTINUOUS
 62
     3
 10
23254.280618817382
 20
15273.22717300003
 30
0.0
 11
23284.278243817382
 21
15273.22717300003
 31
0.0
  0
LINE
  5
13B0F
  8
2-0
  6
CONTINUOUS
 62
     3
 10
23254.280618817382
 20
15279.224124000009
 30
0.0
 11
23254.280618817382
 21
15273.22717300003
 31
0.0
  0
LINE
  5
13B10
  8
2-0
  6
CONTINUOUS
 62
     3
 10
23254.280618817382
 20
15263.125689
 30
0.0
 11
23284.278243817382
 21
15263.125689
 31
0.0
  0
LINE
  5
13B11
  8
2-0
  6
CONTINUOUS
 62
     3
 10
23254.280618817382
 20
15281.13337000001
 30
0.0
 11
23254.280618817382
 21
15263.125689
 31
0.0
  0
LINE
  5
13B12
  8
2-0
  6
CONTINUOUS
 62
     3
 10
23279.274020817378
 20
15281.13337000001
 30
0.0
 11
23254.280618817382
 21
15281.13337000001
 31
0.0
  0
LINE
  5
13B13
  8
2-0
  6
CONTINUOUS
 62
     3
 10
23279.274020817378
 20
15276.13310600003
 30
0.0
 11
23279.274020817378
 21
15281.13337000001
 31
0.0
  0
LINE
  5
13B14
  8
2-0
  6
CONTINUOUS
 62
     3
 10
23272.276422817391
 20
15276.13310600003
 30
0.0
 11
23279.274020817378
 21
15276.13310600003
 31
0.0
  0
LINE
  5
13B15
  8
2-0
  6
CONTINUOUS
 62
     3
 10
23284.278243817382
 20
16668.373842000012
 30
0.0
 11
23284.278243817382
 21
16021.08188250001
 31
0.0
  0
LINE
  5
13B16
  8
2-0
  6
CONTINUOUS
 62
     3
 10
23284.278243817382
 20
16822.98414
 30
0.0
 11
23284.278243817382
 21
16677.98242500002
 31
0.0
  0
LINE
  5
13B17
  8
2-0
  6
CONTINUOUS
 62
     3
 10
23196.391577817369
 20
16792.984536000011
 30
0.0
 11
23196.391577817369
 21
16707.987968000001
 31
0.0
  0
LINE
  5
13B18
  8
2-0
  6
CONTINUOUS
 62
     3
 10
23272.276422817391
 20
14574.89209900001
 30
0.0
 11
23279.274020817378
 21
14574.89209900001
 31
0.0
  0
LINE
  5
13B19
  8
2-0
  6
CONTINUOUS
 62
     3
 10
23279.274020817378
 20
14574.89209900001
 30
0.0
 11
23279.274020817378
 21
14579.886425000021
 31
0.0
  0
LINE
  5
13B1A
  8
2-0
  6
CONTINUOUS
 62
     3
 10
23279.274020817378
 20
14579.886425000021
 30
0.0
 11
23254.280618817382
 21
14579.886425000021
 31
0.0
  0
LINE
  5
13B1B
  8
2-0
  6
CONTINUOUS
 62
     3
 10
23254.280618817382
 20
14579.886425000021
 30
0.0
 11
23254.280618817382
 21
14561.89062100002
 31
0.0
  0
LINE
  5
13B1C
  8
2-0
  6
CONTINUOUS
 62
     3
 10
23254.280618817382
 20
14561.89062100002
 30
0.0
 11
23284.278243817382
 21
14561.89062100002
 31
0.0
  0
LINE
  5
13B1D
  8
2-0
  6
CONTINUOUS
 62
     3
 10
23254.280618817382
 20
14577.98905600002
 30
0.0
 11
23254.280618817382
 21
14571.986166000021
 31
0.0
  0
LINE
  5
13B1E
  8
2-0
  6
CONTINUOUS
 62
     3
 10
23254.280618817382
 20
14571.986166000021
 30
0.0
 11
23284.278243817382
 21
14571.986166000021
 31
0.0
  0
LINE
  5
13B1F
  8
2-0
  6
CONTINUOUS
 62
     3
 10
23284.278243817382
 20
14571.986166000021
 30
0.0
 11
23284.278243817382
 21
14608.986338000001
 31
0.0
  0
LINE
  5
13B20
  8
2-0
  6
CONTINUOUS
 62
     3
 10
23254.280618817382
 20
14608.986338000001
 30
0.0
 11
23284.278243817382
 21
14608.986338000001
 31
0.0
  0
LINE
  5
13B21
  8
2-0
  6
CONTINUOUS
 62
     3
 10
23254.280618817382
 20
14602.98938600001
 30
0.0
 11
23254.280618817382
 21
14608.986338000001
 31
0.0
  0
LINE
  5
13B22
  8
2-0
  6
CONTINUOUS
 62
     3
 10
23254.280618817382
 20
14619.086831000021
 30
0.0
 11
23284.278243817382
 21
14619.086831000021
 31
0.0
  0
LINE
  5
13B23
  8
2-0
  6
CONTINUOUS
 62
     3
 10
23254.280618817382
 20
14601.08014000002
 30
0.0
 11
23254.280618817382
 21
14619.086831000021
 31
0.0
  0
LINE
  5
13B24
  8
2-0
  6
CONTINUOUS
 62
     3
 10
23279.274020817378
 20
14601.08014000002
 30
0.0
 11
23254.280618817382
 21
14601.08014000002
 31
0.0
  0
LINE
  5
13B25
  8
2-0
  6
CONTINUOUS
 62
     3
 10
23279.274020817378
 20
14606.08535300002
 30
0.0
 11
23279.274020817378
 21
14601.08014000002
 31
0.0
  0
LINE
  5
13B26
  8
2-0
  6
CONTINUOUS
 62
     3
 10
23272.276422817391
 20
14606.08535300002
 30
0.0
 11
23279.274020817378
 21
14606.08535300002
 31
0.0
  0
LINE
  5
13B27
  8
2-0
  6
CONTINUOUS
 62
     3
 10
23254.280618817382
 20
13898.988179000011
 30
0.0
 11
23254.280618817382
 21
13904.993048000009
 31
0.0
  0
LINE
  5
13B28
  8
2-0
  6
CONTINUOUS
 62
     3
 10
23254.280618817382
 20
13904.993048000009
 30
0.0
 11
23284.278243817382
 21
13904.993048000009
 31
0.0
  0
LINE
  5
13B29
  8
2-0
  6
CONTINUOUS
 62
     3
 10
23284.278243817382
 20
13904.993048000009
 30
0.0
 11
23284.278243817382
 21
13789.98895700001
 31
0.0
  0
LINE
  5
13B2A
  8
2-0
  6
CONTINUOUS
 62
     3
 10
23284.278243817382
 20
13789.98895700001
 30
0.0
 11
23199.2796958174
 21
13789.98895700001
 31
0.0
  0
LINE
  5
13B2B
  8
2-0
  6
CONTINUOUS
 62
     3
 10
23199.2796958174
 20
13789.98895700001
 30
0.0
 11
23199.2796958174
 21
13874.984536000011
 31
0.0
  0
LINE
  5
13B2C
  8
2-0
  6
CONTINUOUS
 62
     3
 10
23199.2796958174
 20
13874.984536000011
 30
0.0
 11
23231.27663381739
 21
13874.984536000011
 31
0.0
  0
LINE
  5
13B2D
  8
2-0
  6
CONTINUOUS
 62
     3
 10
23272.276422817391
 20
13902.022781000011
 30
0.0
 11
23279.274020817378
 21
13902.022781000011
 31
0.0
  0
LINE
  5
13B2E
  8
2-0
  6
CONTINUOUS
 62
     3
 10
23279.274020817378
 20
13902.022781000011
 30
0.0
 11
23279.274020817378
 21
13897.02548599999
 31
0.0
  0
LINE
  5
13B2F
  8
2-0
  6
CONTINUOUS
 62
     3
 10
23279.274020817378
 20
13897.02548599999
 30
0.0
 11
23254.280618817382
 21
13897.02548599999
 31
0.0
  0
LINE
  5
13B30
  8
2-0
  6
CONTINUOUS
 62
     3
 10
23254.280618817382
 20
13897.02548599999
 30
0.0
 11
23254.280618817382
 21
13915.024259000011
 31
0.0
  0
LINE
  5
13B31
  8
2-0
  6
CONTINUOUS
 62
     3
 10
23254.280618817382
 20
13915.024259000011
 30
0.0
 11
23284.278243817382
 21
13915.024259000011
 31
0.0
  0
LINE
  5
13B32
  8
2-0
  6
CONTINUOUS
 62
     3
 10
23284.278243817382
 20
14619.086831000021
 30
0.0
 11
23284.278243817382
 21
15263.125689
 31
0.0
  0
LINE
  5
13B33
  8
2-0
  6
CONTINUOUS
 62
     3
 10
23284.278243817382
 20
18238.08138800001
 30
0.0
 11
23284.278243817382
 21
18881.892105499999
 31
0.0
  0
LINE
  5
13B34
  8
2-0
  6
CONTINUOUS
 62
     3
 10
23284.278243817382
 20
15963.88567250001
 30
0.0
 11
23284.278243817382
 21
15320.32189900002
 31
0.0
  0
LINE
  5
13B35
  8
2-0
  6
CONTINUOUS
 62
     3
 10
20631.783654817391
 20
19245.488364000012
 30
0.0
 11
20631.783654817391
 21
19360.484537000011
 31
0.0
  0
LINE
  5
13B36
  8
2-0
  6
CONTINUOUS
 62
     3
 10
23284.278243817382
 20
19275.487968000001
 30
0.0
 11
20712.78555481739
 21
19275.487968000001
 31
0.0
  0
LINE
  5
13B37
  8
2-0
  6
CONTINUOUS
 62
     3
 10
23284.278243817382
 20
13915.024259000011
 30
0.0
 11
23284.278243817382
 21
14561.89062100002
 31
0.0
  0
LINE
  5
13B38
  8
2-0
  6
CENTER2
 62
     6
 10
23241.78193881737
 20
20560.484537000018
 30
0.0
 11
23241.78193881737
 21
13206.722818
 31
0.0
  0
LINE
  5
13B39
  8
2-0
  6
CENTER2
 62
     6
 10
20674.28193881737
 20
20560.484537000018
 30
0.0
 11
20674.28193881737
 21
13206.722818
 31
0.0
  0
LINE
  5
13B3A
  8
2-0
  6
CONTINUOUS
 62
     3
 10
20631.783654817391
 20
19235.190908000011
 30
0.0
 11
20631.783654817391
 21
18939.082377499999
 31
0.0
  0
LINE
  5
13B3B
  8
2-0
  6
CONTINUOUS
 62
     3
 10
23284.278243817382
 20
19235.190908000011
 30
0.0
 11
23284.278243817382
 21
18939.082377499992
 31
0.0
  0
LINE
  5
13B3C
  8
2-0
  6
CONTINUOUS
 62
     3
 10
23203.280302817369
 20
13874.984536000011
 30
0.0
 11
23203.280302817369
 21
19360.484537000011
 31
0.0
  0
LINE
  5
13B3D
  8
2-0
  6
CONTINUOUS
 62
     3
 10
20712.78555481739
 20
13874.984536000011
 30
0.0
 11
20712.78555481739
 21
19360.484537000011
 31
0.0
  0
TEXT
  5
13B3E
  8
2-0
  6
CONTINUOUS
 62
     7
 10
21445.43663182314
 20
13272.49046700269
 30
0.0
 40
160.0
  1
前柱（左）
 50
359.99978700000003
 72
     4
 11
21861.436929224368
 21
13352.4889205008
 31
0.0
  0
TEXT
  5
13B3F
  8
2-0
  6
CONTINUOUS
 62
     7
 10
21347.508175487499
 20
16200.97714927653
 30
0.0
 40
160.0
  1
壁パネル
 50
0.0001770000000167
 72
     4
 11
21710.174595013821
 21
16280.978269637901
 31
0.0
  0
TEXT
  5
13B40
  8
2-0
  6
CONTINUOUS
 62
     7
 10
21318.177746170481
 20
17038.173678652369
 30
0.0
 40
160.0
  1
中柱（左右）
 50
359.99964599999998
 72
     4
 11
21835.511573771179
 21
17118.170482324669
 31
0.0
  0
TEXT
  5
13B41
  8
2-0
  6
CONTINUOUS
 62
     7
 10
21331.508835542802
 20
14245.53497270612
 30
0.0
 40
160.0
  1
下枠
 50
359.99893700000001
 72
     4
 11
21502.176986408089
 21
14325.531806339301
 31
0.0
  0
TEXT
  5
13B42
  8
2-0
  6
CONTINUOUS
 62
     7
 10
21335.2100781507
 20
18641.436024499992
 30
0.0
 40
160.0
  1
間柱（側）
 72
     4
 11
21756.543411484028
 21
18721.436024499992
 31
0.0
  0
TEXT
  5
13B43
  8
2-0
  6
CONTINUOUS
 62
     7
 10
18835.28642583693
 20
20170.49007174874
 30
0.0
 40
160.0
  1
後柱（左右）
 50
359.99964599999998
 72
     4
 11
19347.286920104401
 21
20250.486908372852
 31
0.0
  0
LINE
  5
13B44
  8
2-0
  6
CONTINUOUS
 62
     3
 10
22502.282519817341
 20
19360.484537000011
 30
0.0
 11
22465.281357817352
 21
19360.484537000011
 31
0.0
  0
LINE
  5
13B45
  8
2-0
  6
CONTINUOUS
 62
     3
 10
22502.282519817341
 20
19330.48097400002
 30
0.0
 11
22502.282519817341
 21
19360.484537000011
 31
0.0
  0
LINE
  5
13B46
  8
2-0
  6
CONTINUOUS
 62
     3
 10
22496.282598817321
 20
19330.48097400002
 30
0.0
 11
22502.282519817341
 21
19330.48097400002
 31
0.0
  0
LINE
  5
13B47
  8
2-0
  6
CONTINUOUS
 62
     3
 10
22512.380043817349
 20
19330.48097400002
 30
0.0
 11
22512.380043817349
 21
19360.484537000011
 31
0.0
  0
LINE
  5
13B48
  8
2-0
  6
CONTINUOUS
 62
     3
 10
22494.37632281737
 20
19330.48097400002
 30
0.0
 11
22512.380043817349
 21
19330.48097400002
 31
0.0
  0
LINE
  5
13B49
  8
2-0
  6
CONTINUOUS
 62
     3
 10
22494.37632281737
 20
19355.490211000011
 30
0.0
 11
22494.37632281737
 21
19330.48097400002
 31
0.0
  0
LINE
  5
13B4A
  8
2-0
  6
CONTINUOUS
 62
     3
 10
22499.376586817369
 20
19355.490211000011
 30
0.0
 11
22494.37632281737
 21
19355.490211000011
 31
0.0
  0
LINE
  5
13B4B
  8
2-0
  6
CONTINUOUS
 62
     3
 10
22499.376586817369
 20
19348.48469500001
 30
0.0
 11
22499.376586817369
 21
19355.490211000011
 31
0.0
  0
LINE
  5
13B4C
  8
2-0
  6
CONTINUOUS
 62
     3
 10
22468.187291817339
 20
19348.48469500001
 30
0.0
 11
22468.187291817339
 21
19355.490211000011
 31
0.0
  0
LINE
  5
13B4D
  8
2-0
  6
CONTINUOUS
 62
     3
 10
22468.187291817339
 20
19355.490211000011
 30
0.0
 11
22473.187555817371
 21
19355.490211000011
 31
0.0
  0
LINE
  5
13B4E
  8
2-0
  6
CONTINUOUS
 62
     3
 10
22473.187555817371
 20
19355.490211000011
 30
0.0
 11
22473.187555817371
 21
19330.48097400002
 31
0.0
  0
LINE
  5
13B4F
  8
2-0
  6
CONTINUOUS
 62
     3
 10
22473.187555817371
 20
19330.48097400002
 30
0.0
 11
22455.187792817349
 21
19330.48097400002
 31
0.0
  0
LINE
  5
13B50
  8
2-0
  6
CONTINUOUS
 62
     3
 10
22455.187792817349
 20
19330.48097400002
 30
0.0
 11
22455.187792817349
 21
19360.484537000011
 31
0.0
  0
LINE
  5
13B51
  8
2-0
  6
CONTINUOUS
 62
     3
 10
22471.281278817351
 20
19330.48097400002
 30
0.0
 11
22465.281357817352
 21
19330.48097400002
 31
0.0
  0
LINE
  5
13B52
  8
2-0
  6
CONTINUOUS
 62
     3
 10
22465.281357817352
 20
19330.48097400002
 30
0.0
 11
22465.281357817352
 21
19360.484537000011
 31
0.0
  0
LINE
  5
13B53
  8
2-0
  6
CONTINUOUS
 62
     3
 10
21767.181353317352
 20
19348.48469500001
 30
0.0
 11
21767.181353317352
 21
19355.490211000011
 31
0.0
  0
LINE
  5
13B54
  8
2-0
  6
CONTINUOUS
 62
     3
 10
21767.181353317352
 20
19355.490211000011
 30
0.0
 11
21772.181616317379
 21
19355.490211000011
 31
0.0
  0
LINE
  5
13B55
  8
2-0
  6
CONTINUOUS
 62
     3
 10
21772.181616317379
 20
19355.490211000011
 30
0.0
 11
21772.181616317379
 21
19330.48097400002
 31
0.0
  0
LINE
  5
13B56
  8
2-0
  6
CONTINUOUS
 62
     3
 10
21772.181616317379
 20
19330.48097400002
 30
0.0
 11
21754.187793317349
 21
19330.48097400002
 31
0.0
  0
LINE
  5
13B57
  8
2-0
  6
CONTINUOUS
 62
     3
 10
21754.187793317349
 20
19330.48097400002
 30
0.0
 11
21754.187793317349
 21
19360.484537000011
 31
0.0
  0
LINE
  5
13B58
  8
2-0
  6
CONTINUOUS
 62
     3
 10
21770.279299317332
 20
19330.48097400002
 30
0.0
 11
21764.281358317348
 21
19330.48097400002
 31
0.0
  0
LINE
  5
13B59
  8
2-0
  6
CONTINUOUS
 62
     3
 10
21764.281358317348
 20
19330.48097400002
 30
0.0
 11
21764.281358317348
 21
19360.484537000011
 31
0.0
  0
LINE
  5
13B5A
  8
2-0
  6
CONTINUOUS
 62
     3
 10
21801.28251931737
 20
19360.484537000011
 30
0.0
 11
21764.281358317348
 21
19360.484537000011
 31
0.0
  0
LINE
  5
13B5B
  8
2-0
  6
CONTINUOUS
 62
     3
 10
21801.28251931737
 20
19330.48097400002
 30
0.0
 11
21801.28251931737
 21
19360.484537000011
 31
0.0
  0
LINE
  5
13B5C
  8
2-0
  6
CONTINUOUS
 62
     3
 10
21795.27666031737
 20
19330.48097400002
 30
0.0
 11
21801.28251931737
 21
19330.48097400002
 31
0.0
  0
LINE
  5
13B5D
  8
2-0
  6
CONTINUOUS
 62
     3
 10
21811.37608431737
 20
19330.48097400002
 30
0.0
 11
21811.37608431737
 21
19360.484537000011
 31
0.0
  0
LINE
  5
13B5E
  8
2-0
  6
CONTINUOUS
 62
     3
 10
21793.38028131735
 20
19330.48097400002
 30
0.0
 11
21811.37608431737
 21
19330.48097400002
 31
0.0
  0
LINE
  5
13B5F
  8
2-0
  6
CONTINUOUS
 62
     3
 10
21793.38028131735
 20
19355.490211000011
 30
0.0
 11
21793.38028131735
 21
19330.48097400002
 31
0.0
  0
LINE
  5
13B60
  8
2-0
  6
CONTINUOUS
 62
     3
 10
21798.37064731737
 20
19355.490211000011
 30
0.0
 11
21793.38028131735
 21
19355.490211000011
 31
0.0
  0
LINE
  5
13B61
  8
2-0
  6
CONTINUOUS
 62
     3
 10
21798.37064731737
 20
19348.48469500001
 30
0.0
 11
21798.37064731737
 21
19355.490211000011
 31
0.0
  0
LINE
  5
13B62
  8
2-0
  6
CONTINUOUS
 62
     3
 10
21110.375094817369
 20
19360.484537000011
 30
0.0
 11
21754.187793317349
 21
19360.484537000011
 31
0.0
  0
LINE
  5
13B63
  8
2-0
  6
CONTINUOUS
 62
     3
 10
23159.665568817381
 20
19360.484537000011
 30
0.0
 11
22512.380043817349
 21
19360.484537000011
 31
0.0
  0
LINE
  5
13B64
  8
2-0
  6
CONTINUOUS
 62
     3
 10
22455.187792817349
 20
19360.484537000011
 30
0.0
 11
21811.37608431737
 21
19360.484537000011
 31
0.0
  0
LINE
  5
13B65
  8
2-0
  6
CONTINUOUS
 62
     3
 10
21097.373616817349
 20
19348.48469500001
 30
0.0
 11
21097.373616817349
 21
19355.490211000011
 31
0.0
  0
LINE
  5
13B66
  8
2-0
  6
CONTINUOUS
 62
     3
 10
21097.373616817349
 20
19355.490211000011
 30
0.0
 11
21092.373352817351
 21
19355.490211000011
 31
0.0
  0
LINE
  5
13B67
  8
2-0
  6
CONTINUOUS
 62
     3
 10
21092.373352817351
 20
19355.490211000011
 30
0.0
 11
21092.373352817351
 21
19330.48097400002
 31
0.0
  0
LINE
  5
13B68
  8
2-0
  6
CONTINUOUS
 62
     3
 10
21092.373352817351
 20
19330.48097400002
 30
0.0
 11
21110.375094817369
 21
19330.48097400002
 31
0.0
  0
LINE
  5
13B69
  8
2-0
  6
CONTINUOUS
 62
     3
 10
21110.375094817369
 20
19330.48097400002
 30
0.0
 11
21110.375094817369
 21
19360.484537000011
 31
0.0
  0
LINE
  5
13B6A
  8
2-0
  6
CONTINUOUS
 62
     3
 10
21094.27566981738
 20
19330.48097400002
 30
0.0
 11
21100.279549817351
 21
19330.48097400002
 31
0.0
  0
LINE
  5
13B6B
  8
2-0
  6
CONTINUOUS
 62
     3
 10
21100.279549817351
 20
19330.48097400002
 30
0.0
 11
21100.279549817351
 21
19360.484537000011
 31
0.0
  0
LINE
  5
13B6C
  8
2-0
  6
CONTINUOUS
 62
     3
 10
21063.284327817339
 20
19360.484537000011
 30
0.0
 11
21100.279549817351
 21
19360.484537000011
 31
0.0
  0
LINE
  5
13B6D
  8
2-0
  6
CONTINUOUS
 62
     3
 10
21063.284327817339
 20
19330.48097400002
 30
0.0
 11
21063.284327817339
 21
19360.484537000011
 31
0.0
  0
LINE
  5
13B6E
  8
2-0
  6
CONTINUOUS
 62
     3
 10
21069.27830981736
 20
19330.48097400002
 30
0.0
 11
21063.284327817339
 21
19330.48097400002
 31
0.0
  0
LINE
  5
13B6F
  8
2-0
  6
CONTINUOUS
 62
     3
 10
21053.188782817379
 20
19330.48097400002
 30
0.0
 11
21053.188782817379
 21
19360.484537000011
 31
0.0
  0
LINE
  5
13B70
  8
2-0
  6
CONTINUOUS
 62
     3
 10
21071.18458581738
 20
19330.48097400002
 30
0.0
 11
21053.188782817379
 21
19330.48097400002
 31
0.0
  0
LINE
  5
13B71
  8
2-0
  6
CONTINUOUS
 62
     3
 10
21071.18458581738
 20
19355.490211000011
 30
0.0
 11
21071.18458581738
 21
19330.48097400002
 31
0.0
  0
LINE
  5
13B72
  8
2-0
  6
CONTINUOUS
 62
     3
 10
21066.186301817372
 20
19355.490211000011
 30
0.0
 11
21071.18458581738
 21
19355.490211000011
 31
0.0
  0
LINE
  5
13B73
  8
2-0
  6
CONTINUOUS
 62
     3
 10
21066.186301817372
 20
19348.48469500001
 30
0.0
 11
21066.186301817372
 21
19355.490211000011
 31
0.0
  0
LINE
  5
13B74
  8
2-0
  6
CONTINUOUS
 62
     3
 10
20757.08718081734
 20
19360.484537000011
 30
0.0
 11
21053.188782817379
 21
19360.484537000011
 31
0.0
  0
LINE
  5
13B75
  8
2-0
  6
CONTINUOUS
 62
     3
 10
20631.783654817391
 20
15263.12568900002
 30
0.0
 11
20631.783654817391
 21
14619.086831000021
 31
0.0
  0
LINE
  5
13B76
  8
2-0
  6
CONTINUOUS
 62
     3
 10
20631.783654817391
 20
14561.89062100001
 30
0.0
 11
20631.783654817391
 21
13915.024259000011
 31
0.0
  0
LINE
  5
13B77
  8
0-6
  6
CONTINUOUS
 62
     6
 10
20855.442296924932
 20
18956.277719967329
 30
0.0
 11
21880.482546924941
 21
18956.277719967329
 31
0.0
  0
TEXT
  5
13B78
  8
0-6
  6
CONTINUOUS
 62
     7
 10
20935.44256092493
 20
19036.27996396731
 30
0.0
 40
160.0
  1
間柱（後）
 72
     4
 11
21356.775894258259
 21
19116.27996396731
 31
0.0
  0
LINE
  5
13B79
  8
0-6
  6
CONTINUOUS
 62
     6
 10
21880.482546924941
 20
18956.277719967329
 30
0.0
 11
22321.10351226175
 21
19243.175249046741
 31
0.0
  0
LINE
  5
13B7A
  8
2-0
  6
CONTINUOUS
 62
     6
 10
22455.18878281736
 20
19330.48097400002
 30
0.0
 11
22306.553121210411
 21
19265.525292404782
 31
0.0
  0
LINE
  5
13B7B
  8
2-0
  6
CONTINUOUS
 62
     6
 10
22306.553121210411
 20
19265.525292404782
 30
0.0
 11
22335.65390331313
 21
19220.825205688689
 31
0.0
  0
LINE
  5
13B7C
  8
2-0
  6
CONTINUOUS
 62
     6
 10
22335.65390331313
 20
19220.825205688689
 30
0.0
 11
22455.18878281736
 21
19330.48097400002
 31
0.0
  0
LINE
  5
13B7D
  8
SUNPOU
  6
CONTINUOUS
 62
     4
 10
20551.783654817391
 20
18910.486251999999
 30
0.0
 11
19501.782334817392
 21
18910.486251999999
 31
0.0
  0
LINE
  5
13B7E
  8
SUNPOU
  6
CONTINUOUS
 62
     4
 10
19701.782334817392
 20
19317.98625200001
 30
0.0
 11
19501.782334817392
 21
19317.98625200001
 31
0.0
  0
LINE
  5
13B7F
  8
SUNPOU
  6
CONTINUOUS
 62
     4
 10
19581.782334817392
 20
18910.486251999999
 30
0.0
 11
19581.782334817392
 21
19317.98625200001
 31
0.0
  0
LINE
  5
13B80
  8
SUNPOU
  6
CONTINUOUS
 62
     4
 10
23241.78193881737
 20
13126.722818
 30
0.0
 11
23241.78193881737
 21
12781.038167999999
 31
0.0
  0
LINE
  5
13B81
  8
SUNPOU
  6
CONTINUOUS
 62
     4
 10
23284.284181817358
 20
13709.98895700001
 30
0.0
 11
23284.284181817358
 21
12781.038167999999
 31
0.0
  0
LINE
  5
13B82
  8
SUNPOU
  6
CONTINUOUS
 62
     4
 10
23241.78193881737
 20
12861.03816800001
 30
0.0
 11
23001.78193881737
 21
12861.03816800001
 31
0.0
  0
LINE
  5
13B83
  8
SUNPOU
  6
CONTINUOUS
 62
     4
 10
23284.284181817358
 20
12861.03816800001
 30
0.0
 11
23524.284181817358
 21
12861.03816800001
 31
0.0
  0
LINE
  5
13B84
  8
SUNPOU
  6
CONTINUOUS
 62
     4
 10
23241.78193881737
 20
12861.03816800001
 30
0.0
 11
23284.284181817358
 21
12861.03816800001
 31
0.0
  0
LINE
  5
13B85
  8
SUNPOU
  6
CONTINUOUS
 62
     4
 10
20674.28193881737
 20
13126.722818
 30
0.0
 11
20674.28193881737
 21
12781.038167999999
 31
0.0
  0
LINE
  5
13B86
  8
SUNPOU
  6
CONTINUOUS
 62
     4
 10
20631.779695817379
 20
13709.98895700001
 30
0.0
 11
20631.779695817379
 21
12781.038167999999
 31
0.0
  0
LINE
  5
13B87
  8
SUNPOU
  6
CONTINUOUS
 62
     4
 10
20674.28193881737
 20
12861.03816800001
 30
0.0
 11
20914.28193881737
 21
12861.03816800001
 31
0.0
  0
LINE
  5
13B88
  8
SUNPOU
  6
CONTINUOUS
 62
     4
 10
20631.779695817379
 20
12861.03816800001
 30
0.0
 11
20391.779695817379
 21
12861.03816800001
 31
0.0
  0
LINE
  5
13B89
  8
SUNPOU
  6
CONTINUOUS
 62
     4
 10
20674.28193881737
 20
12861.03816800001
 30
0.0
 11
20631.779695817379
 21
12861.03816800001
 31
0.0
  0
LINE
  5
13B8A
  8
SUNPOU
  6
CONTINUOUS
 62
     4
 10
20674.28193881737
 20
13126.722818
 30
0.0
 11
20674.28193881737
 21
12781.038167999999
 31
0.0
  0
LINE
  5
13B8B
  8
SUNPOU
  6
CONTINUOUS
 62
     4
 10
20716.78418181738
 20
13709.98895700001
 30
0.0
 11
20716.78418181738
 21
12781.038167999999
 31
0.0
  0
LINE
  5
13B8C
  8
SUNPOU
  6
CONTINUOUS
 62
     4
 10
20674.28193881737
 20
12861.03816800001
 30
0.0
 11
20434.28193881737
 21
12861.03816800001
 31
0.0
  0
LINE
  5
13B8D
  8
SUNPOU
  6
CONTINUOUS
 62
     4
 10
20716.78418181738
 20
12861.03816800001
 30
0.0
 11
20956.78418181738
 21
12861.03816800001
 31
0.0
  0
LINE
  5
13B8E
  8
SUNPOU
  6
CONTINUOUS
 62
     4
 10
20674.28193881737
 20
12861.03816800001
 30
0.0
 11
20716.78418181738
 21
12861.03816800001
 31
0.0
  0
LINE
  5
13B8F
  8
SUNPOU
  6
CONTINUOUS
 62
     4
 10
23241.78193881737
 20
13126.722818
 30
0.0
 11
23241.78193881737
 21
12781.038167999999
 31
0.0
  0
LINE
  5
13B90
  8
SUNPOU
  6
CONTINUOUS
 62
     4
 10
23199.2796958174
 20
13709.98895700001
 30
0.0
 11
23199.2796958174
 21
12781.038167999999
 31
0.0
  0
LINE
  5
13B91
  8
SUNPOU
  6
CONTINUOUS
 62
     4
 10
23241.78193881737
 20
12861.03816800001
 30
0.0
 11
23481.78193881737
 21
12861.03816800001
 31
0.0
  0
LINE
  5
13B92
  8
SUNPOU
  6
CONTINUOUS
 62
     4
 10
23199.2796958174
 20
12861.03816800001
 30
0.0
 11
22959.2796958174
 21
12861.03816800001
 31
0.0
  0
LINE
  5
13B93
  8
SUNPOU
  6
CONTINUOUS
 62
     4
 10
23241.78193881737
 20
12861.03816800001
 30
0.0
 11
23199.2796958174
 21
12861.03816800001
 31
0.0
  0
LINE
  5
13B94
  8
SUNPOU
  6
CONTINUOUS
 62
     4
 10
23284.284181817358
 20
13709.98895700001
 30
0.0
 11
23284.284181817358
 21
12381.038167999999
 31
0.0
  0
LINE
  5
13B95
  8
SUNPOU
  6
CONTINUOUS
 62
     4
 10
20631.779695817379
 20
13709.98895700001
 30
0.0
 11
20631.779695817379
 21
12381.038167999999
 31
0.0
  0
LINE
  5
13B96
  8
SUNPOU
  6
CONTINUOUS
 62
     4
 10
23284.284181817358
 20
12461.038167999999
 30
0.0
 11
20631.779695817379
 21
12461.038167999999
 31
0.0
  0
LINE
  5
13B97
  8
SUNPOU
  6
CONTINUOUS
 62
     4
 10
20551.783654817391
 20
14590.48625200001
 30
0.0
 11
19501.782334817392
 21
14590.48625200001
 31
0.0
  0
LINE
  5
13B98
  8
SUNPOU
  6
CONTINUOUS
 62
     4
 10
19701.782334817392
 20
13832.486252000001
 30
0.0
 11
19501.782334817392
 21
13832.486252000001
 31
0.0
  0
LINE
  5
13B99
  8
SUNPOU
  6
CONTINUOUS
 62
     4
 10
19581.782334817392
 20
14590.48625200001
 30
0.0
 11
19581.782334817392
 21
13832.486252000001
 31
0.0
  0
LINE
  5
13B9A
  8
SUNPOU
  6
CONTINUOUS
 62
     4
 10
20551.783654817391
 20
15291.72676350003
 30
0.0
 11
19501.782334817392
 21
15291.72676350003
 31
0.0
  0
LINE
  5
13B9B
  8
SUNPOU
  6
CONTINUOUS
 62
     4
 10
20551.783654817391
 20
14590.48625200001
 30
0.0
 11
19501.782334817392
 21
14590.48625200001
 31
0.0
  0
LINE
  5
13B9C
  8
SUNPOU
  6
CONTINUOUS
 62
     4
 10
19581.782334817392
 20
15291.72676350003
 30
0.0
 11
19581.782334817392
 21
14590.48625200001
 31
0.0
  0
LINE
  5
13B9D
  8
SUNPOU
  6
CONTINUOUS
 62
     4
 10
20551.783654817391
 20
15992.48625200001
 30
0.0
 11
19501.782334817392
 21
15992.48625200001
 31
0.0
  0
LINE
  5
13B9E
  8
SUNPOU
  6
CONTINUOUS
 62
     4
 10
20551.783654817391
 20
15291.72676350003
 30
0.0
 11
19501.782334817392
 21
15291.72676350003
 31
0.0
  0
LINE
  5
13B9F
  8
SUNPOU
  6
CONTINUOUS
 62
     4
 10
19581.782334817392
 20
15992.48625200001
 30
0.0
 11
19581.782334817392
 21
15291.72676350003
 31
0.0
  0
LINE
  5
13BA0
  8
SUNPOU
  6
CONTINUOUS
 62
     4
 10
19701.782334817392
 20
16750.48625200001
 30
0.0
 11
19501.782334817392
 21
16750.48625200001
 31
0.0
  0
LINE
  5
13BA1
  8
SUNPOU
  6
CONTINUOUS
 62
     4
 10
20551.783654817391
 20
15992.48625200001
 30
0.0
 11
19501.782334817392
 21
15992.48625200001
 31
0.0
  0
LINE
  5
13BA2
  8
SUNPOU
  6
CONTINUOUS
 62
     4
 10
19581.782334817392
 20
16750.48625200001
 30
0.0
 11
19581.782334817392
 21
15992.48625200001
 31
0.0
  0
LINE
  5
13BA3
  8
SUNPOU
  6
CONTINUOUS
 62
     4
 10
20551.783654817391
 20
17508.48625200001
 30
0.0
 11
19501.782334817392
 21
17508.48625200001
 31
0.0
  0
LINE
  5
13BA4
  8
SUNPOU
  6
CONTINUOUS
 62
     4
 10
19701.782334817392
 20
16750.48625200001
 30
0.0
 11
19501.782334817392
 21
16750.48625200001
 31
0.0
  0
LINE
  5
13BA5
  8
SUNPOU
  6
CONTINUOUS
 62
     4
 10
19581.782334817392
 20
17508.48625200001
 30
0.0
 11
19581.782334817392
 21
16750.48625200001
 31
0.0
  0
LINE
  5
13BA6
  8
SUNPOU
  6
CONTINUOUS
 62
     4
 10
20551.783654817391
 20
18209.48625200001
 30
0.0
 11
19501.782334817392
 21
18209.48625200001
 31
0.0
  0
LINE
  5
13BA7
  8
SUNPOU
  6
CONTINUOUS
 62
     4
 10
20551.783654817391
 20
17508.48625200001
 30
0.0
 11
19501.782334817392
 21
17508.48625200001
 31
0.0
  0
LINE
  5
13BA8
  8
SUNPOU
  6
CONTINUOUS
 62
     4
 10
19581.782334817392
 20
18209.48625200001
 30
0.0
 11
19581.782334817392
 21
17508.48625200001
 31
0.0
  0
LINE
  5
13BA9
  8
SUNPOU
  6
CONTINUOUS
 62
     4
 10
20551.783654817391
 20
18910.486251999999
 30
0.0
 11
19501.782334817392
 21
18910.486251999999
 31
0.0
  0
LINE
  5
13BAA
  8
SUNPOU
  6
CONTINUOUS
 62
     4
 10
20551.783654817391
 20
18209.48625200001
 30
0.0
 11
19501.782334817392
 21
18209.48625200001
 31
0.0
  0
LINE
  5
13BAB
  8
SUNPOU
  6
CONTINUOUS
 62
     4
 10
19581.782334817392
 20
18910.486251999999
 30
0.0
 11
19581.782334817392
 21
18209.48625200001
 31
0.0
  0
LINE
  5
13BAC
  8
SUNPOU
  6
CONTINUOUS
 62
     4
 10
19701.782334817392
 20
19317.98625200001
 30
0.0
 11
19501.782334817392
 21
19317.986251999992
 31
0.0
  0
LINE
  5
13BAD
  8
SUNPOU
  6
CONTINUOUS
 62
     4
 10
19701.782334817392
 20
13832.486252000001
 30
0.0
 11
19501.782334817392
 21
13832.486252000001
 31
0.0
  0
LINE
  5
13BAE
  8
SUNPOU
  6
CONTINUOUS
 62
     4
 10
20551.783654817391
 20
19360.483547000011
 30
0.0
 11
19101.782334817381
 21
19360.483547000011
 31
0.0
  0
LINE
  5
13BAF
  8
SUNPOU
  6
CONTINUOUS
 62
     4
 10
20551.783654817391
 20
13789.98895700001
 30
0.0
 11
19101.782334817381
 21
13789.98895700001
 31
0.0
  0
LINE
  5
13BB0
  8
SUNPOU
  6
CONTINUOUS
 62
     4
 10
19181.782334817381
 20
19360.483547000011
 30
0.0
 11
19181.782334817381
 21
13789.98895700001
 31
0.0
  0
LINE
  5
13BB1
  8
SUNPOU
  6
CONTINUOUS
 62
     4
 10
19701.782334817392
 20
19317.98625200001
 30
0.0
 11
19501.782334817392
 21
19317.986251999992
 31
0.0
  0
LINE
  5
13BB2
  8
SUNPOU
  6
CONTINUOUS
 62
     4
 10
20551.783654817391
 20
19360.483547000011
 30
0.0
 11
19501.782334817392
 21
19360.483547000011
 31
0.0
  0
LINE
  5
13BB3
  8
SUNPOU
  6
CONTINUOUS
 62
     4
 10
19581.782334817392
 20
19317.986251999992
 30
0.0
 11
19581.782334817392
 21
19077.986251999992
 31
0.0
  0
LINE
  5
13BB4
  8
SUNPOU
  6
CONTINUOUS
 62
     4
 10
19581.782334817392
 20
19360.483547000011
 30
0.0
 11
19581.782334817392
 21
19600.483547000011
 31
0.0
  0
LINE
  5
13BB5
  8
SUNPOU
  6
CONTINUOUS
 62
     4
 10
19581.782334817392
 20
19317.986251999992
 30
0.0
 11
19581.782334817392
 21
19360.483547000011
 31
0.0
  0
LINE
  5
13BB6
  8
SUNPOU
  6
CONTINUOUS
 62
     4
 10
19701.782334817392
 20
13832.486252000001
 30
0.0
 11
19501.782334817392
 21
13832.486252000001
 31
0.0
  0
LINE
  5
13BB7
  8
SUNPOU
  6
CONTINUOUS
 62
     4
 10
20551.783654817391
 20
13789.98895700001
 30
0.0
 11
19501.782334817392
 21
13789.98895700001
 31
0.0
  0
LINE
  5
13BB8
  8
SUNPOU
  6
CONTINUOUS
 62
     4
 10
19581.782334817392
 20
13789.98895700001
 30
0.0
 11
19581.782334817392
 21
13549.98895700001
 31
0.0
  0
LINE
  5
13BB9
  8
SUNPOU
  6
CONTINUOUS
 62
     4
 10
19581.782334817392
 20
13832.486252000001
 30
0.0
 11
19581.782334817392
 21
13789.98895700001
 31
0.0
  0
LINE
  5
13BBA
  8
SUNPOU
  6
CONTINUOUS
 62
     4
 10
23241.78193881737
 20
19440.484537000011
 30
0.0
 11
23241.78193881737
 21
20240.487175999991
 31
0.0
  0
LINE
  5
13BBB
  8
SUNPOU
  6
CONTINUOUS
 62
     4
 10
21081.781938817348
 20
19440.484537000011
 30
0.0
 11
21081.781938817348
 21
20240.487175999991
 31
0.0
  0
LINE
  5
13BBC
  8
SUNPOU
  6
CONTINUOUS
 62
     4
 10
23241.78193881737
 20
20160.487175999991
 30
0.0
 11
23481.78193881737
 21
20160.487175999991
 31
0.0
  0
LINE
  5
13BBD
  8
SUNPOU
  6
CONTINUOUS
 62
     4
 10
21081.781938817348
 20
20160.487175999991
 30
0.0
 11
21321.781938817348
 21
20160.487175999991
 31
0.0
  0
LINE
  5
13BBE
  8
SUNPOU
  6
CONTINUOUS
 62
     4
 10
20674.28193881737
 20
20160.487175999991
 30
0.0
 11
21081.781938817348
 21
20160.487175999991
 31
0.0
  0
LINE
  5
13BBF
  8
SUNPOU
  6
CONTINUOUS
 62
     4
 10
22483.78193881737
 20
19440.484537000011
 30
0.0
 11
22483.78193881737
 21
20240.487175999991
 31
0.0
  0
LINE
  5
13BC0
  8
SUNPOU
  6
CONTINUOUS
 62
     4
 10
20674.28094931737
 20
19440.484537000011
 30
0.0
 11
20674.28094931737
 21
20240.487175999991
 31
0.0
  0
LINE
  5
13BC1
  8
SUNPOU
  6
CONTINUOUS
 62
     4
 10
22483.78193881737
 20
20160.487175999991
 30
0.0
 11
23241.78292831736
 21
20160.487175999991
 31
0.0
  0
LINE
  5
13BC2
  8
SUNPOU
  6
CONTINUOUS
 62
     4
 10
21782.781938817348
 20
19440.484537000011
 30
0.0
 11
21782.781938817348
 21
20240.487175999991
 31
0.0
  0
LINE
  5
13BC3
  8
SUNPOU
  6
CONTINUOUS
 62
     4
 10
22483.78193881737
 20
19440.484537000011
 30
0.0
 11
22483.78193881737
 21
20240.487175999991
 31
0.0
  0
LINE
  5
13BC4
  8
SUNPOU
  6
CONTINUOUS
 62
     4
 10
21782.781938817348
 20
20160.487175999991
 30
0.0
 11
22483.78193881737
 21
20160.487175999991
 31
0.0
  0
LINE
  5
13BC5
  8
SUNPOU
  6
CONTINUOUS
 62
     4
 10
21081.781938817348
 20
19440.484537000011
 30
0.0
 11
21081.781938817348
 21
20240.487175999991
 31
0.0
  0
LINE
  5
13BC6
  8
SUNPOU
  6
CONTINUOUS
 62
     4
 10
21782.781938817348
 20
19440.484537000011
 30
0.0
 11
21782.781938817348
 21
20240.487175999991
 31
0.0
  0
LINE
  5
13BC7
  8
SUNPOU
  6
CONTINUOUS
 62
     4
 10
21081.781938817348
 20
20160.487175999991
 30
0.0
 11
21782.781938817348
 21
20160.487175999991
 31
0.0
  0
LINE
  5
13BC8
  8
SUNPOU
  6
CONTINUOUS
 62
     4
 10
20674.28193881737
 20
19440.484537000011
 30
0.0
 11
20674.28193881737
 21
20240.487175999991
 31
0.0
  0
LINE
  5
13BC9
  8
SUNPOU
  6
CONTINUOUS
 62
     4
 10
20631.785633817381
 20
19440.484537000011
 30
0.0
 11
20631.785633817381
 21
20240.487175999991
 31
0.0
  0
LINE
  5
13BCA
  8
SUNPOU
  6
CONTINUOUS
 62
     4
 10
20674.28193881737
 20
20160.487175999991
 30
0.0
 11
20914.28193881737
 21
20160.487175999991
 31
0.0
  0
LINE
  5
13BCB
  8
SUNPOU
  6
CONTINUOUS
 62
     4
 10
20631.785633817381
 20
20160.487175999991
 30
0.0
 11
20391.785633817381
 21
20160.487175999991
 31
0.0
  0
LINE
  5
13BCC
  8
SUNPOU
  6
CONTINUOUS
 62
     4
 10
20674.28193881737
 20
20160.487175999991
 30
0.0
 11
20631.785633817381
 21
20160.487175999991
 31
0.0
  0
LINE
  5
13BCD
  8
SUNPOU
  6
CONTINUOUS
 62
     4
 10
23241.78193881737
 20
19440.484537000011
 30
0.0
 11
23241.78193881737
 21
20240.487175999991
 31
0.0
  0
LINE
  5
13BCE
  8
SUNPOU
  6
CONTINUOUS
 62
     4
 10
23284.278243817382
 20
19440.484537000011
 30
0.0
 11
23284.278243817382
 21
20240.487175999991
 31
0.0
  0
LINE
  5
13BCF
  8
SUNPOU
  6
CONTINUOUS
 62
     4
 10
20674.28193881737
 20
20160.487175999991
 30
0.0
 11
20914.28193881737
 21
20160.487175999991
 31
0.0
  0
LINE
  5
13BD0
  8
SUNPOU
  6
CONTINUOUS
 62
     4
 10
23284.278243817382
 20
20160.487175999991
 30
0.0
 11
23524.278243817382
 21
20160.487175999991
 31
0.0
  0
LINE
  5
13BD1
  8
SUNPOU
  6
CONTINUOUS
 62
     4
 10
23241.78193881737
 20
20160.487175999991
 30
0.0
 11
23284.278243817382
 21
20160.487175999991
 31
0.0
  0
TEXT
  5
13BD2
  8
0
  6
CONTINUOUS
 62
     7
 10
23364.593918346189
 20
20240.487175999991
 30
0.0
 40
160.0
  1
42.5
  0
TEXT
  5
13BD3
  8
0
  6
CONTINUOUS
 62
     7
 10
20071.469959288592
 20
20240.487175999991
 30
0.0
 40
160.0
  1
42.5
  0
TEXT
  5
13BD4
  8
0
  6
CONTINUOUS
 62
     7
 10
21258.94860548402
 20
19920.487175999991
 30
0.0
 40
160.0
  1
701
  0
TEXT
  5
13BD5
  8
0
  6
CONTINUOUS
 62
     7
 10
21959.94860548402
 20
20240.487175999991
 30
0.0
 40
160.0
  1
701
  0
TEXT
  5
13BD6
  8
0
  6
CONTINUOUS
 62
     7
 10
22649.44910023404
 20
20240.487175999991
 30
0.0
 40
160.0
  1
758
  0
TEXT
  5
13BD7
  8
0
  6
CONTINUOUS
 62
     7
 10
20775.115272150691
 20
20240.487175999991
 30
0.0
 40
160.0
  1
407.5
  0
TEXT
  5
13BD8
  8
0
  6
CONTINUOUS
 62
     7
 10
19501.782334817392
 20
13216.43272060321
 30
0.0
 40
160.0
  1
42.5
 50
90.0
  0
TEXT
  5
13BD9
  8
0
  6
CONTINUOUS
 62
     7
 10
19501.782334817392
 20
19454.039783396802
 30
0.0
 40
160.0
  1
42.5
 50
90.0
  0
TEXT
  5
13BDA
  8
0
  6
CONTINUOUS
 62
     7
 10
19101.78233481737
 20
16188.569585333349
 30
0.0
 40
160.0
  1
5570.5
 50
90.0
  0
TEXT
  5
13BDB
  8
0
  6
CONTINUOUS
 62
     7
 10
19821.782334817392
 20
18386.652918666681
 30
0.0
 40
160.0
  1
701
 50
90.0
  0
TEXT
  5
13BDC
  8
0
  6
CONTINUOUS
 62
     7
 10
19501.782334817392
 20
17685.652918666681
 30
0.0
 40
160.0
  1
701
 50
90.0
  0
TEXT
  5
13BDD
  8
0
  6
CONTINUOUS
 62
     7
 10
19501.782334817392
 20
16916.152918666681
 30
0.0
 40
160.0
  1
758
 50
90.0
  0
TEXT
  5
13BDE
  8
0
  6
CONTINUOUS
 62
     7
 10
19501.782334817392
 20
16158.152918666679
 30
0.0
 40
160.0
  1
758
 50
90.0
  0
TEXT
  5
13BDF
  8
0
  6
CONTINUOUS
 62
     7
 10
19501.782334817392
 20
15468.77317441669
 30
0.0
 40
160.0
  1
701
 50
90.0
  0
TEXT
  5
13BE0
  8
0
  6
CONTINUOUS
 62
     7
 10
19501.782334817392
 20
14767.77317441669
 30
0.0
 40
160.0
  1
701
 50
90.0
  0
TEXT
  5
13BE1
  8
0
  6
CONTINUOUS
 62
     7
 10
19501.782334817392
 20
13998.15291866667
 30
0.0
 40
160.0
  1
758
 50
90.0
  0
TEXT
  5
13BE2
  8
0
  6
CONTINUOUS
 62
     7
 10
21558.031938817381
 20
12541.038167999999
 30
0.0
 40
160.0
  1
2652.5
  0
TEXT
  5
13BE3
  8
0
  6
CONTINUOUS
 62
     7
 10
22643.72826643529
 20
12941.03816800001
 30
0.0
 40
160.0
  1
42.5
  0
TEXT
  5
13BE4
  8
0
  6
CONTINUOUS
 62
     7
 10
20792.335611199462
 20
12941.03816800001
 30
0.0
 40
160.0
  1
42.5
  0
TEXT
  5
13BE5
  8
0
  6
CONTINUOUS
 62
     7
 10
20076.22826643529
 20
12941.03816800001
 30
0.0
 40
160.0
  1
42.5
  0
TEXT
  5
13BE6
  8
0
  6
CONTINUOUS
 62
     7
 10
23359.835611199469
 20
12941.03816800001
 30
0.0
 40
160.0
  1
42.5
  0
TEXT
  5
13BE7
  8
0
  6
CONTINUOUS
 62
     7
 10
19461.782334817392
 20
18619.864219643219
 30
0.0
 40
160.0
  1
407.5
 50
90.0
  0
ARC
  5
13BE8
  8
0
  6
BYBLOCK
 62
     0
 10
19581.782334817392
 20
18910.486251999999
 30
0.0
 40
15.0
 50
270.0
 51
90.0
  0
ARC
  5
13BE9
  8
0
  6
BYBLOCK
 62
     0
 10
19581.782334817392
 20
18910.486251999999
 30
0.0
 40
15.0
 50
90.0
 51
270.0
  0
ARC
  5
13BEA
  8
0
  6
BYBLOCK
 62
     0
 10
19581.782334817392
 20
19317.98625200001
 30
0.0
 40
15.0
 50
90.0
 51
270.0
  0
ARC
  5
13BEB
  8
0
  6
BYBLOCK
 62
     0
 10
19581.782334817392
 20
19317.98625200001
 30
0.0
 40
15.0
 50
270.0
 51
90.0
  0
ARC
  5
13BEC
  8
0
  6
BYBLOCK
 62
     0
 10
23241.78193881737
 20
12861.03816800001
 30
0.0
 40
15.0
 50
0.0
 51
180.0
  0
ARC
  5
13BED
  8
0
  6
BYBLOCK
 62
     0
 10
23241.78193881737
 20
12861.03816800001
 30
0.0
 40
15.0
 50
180.0
 51
0.0
  0
ARC
  5
13BEE
  8
0
  6
BYBLOCK
 62
     0
 10
23284.284181817358
 20
12861.03816800001
 30
0.0
 40
15.0
 50
180.0
 51
0.0
  0
ARC
  5
13BEF
  8
0
  6
BYBLOCK
 62
     0
 10
23284.284181817358
 20
12861.03816800001
 30
0.0
 40
15.0
 50
0.0
 51
180.0
  0
ARC
  5
13BF0
  8
0
  6
BYBLOCK
 62
     0
 10
20674.28193881737
 20
12861.03816800001
 30
0.0
 40
15.0
 50
180.0
 51
0.0
  0
ARC
  5
13BF1
  8
0
  6
BYBLOCK
 62
     0
 10
20674.28193881737
 20
12861.03816800001
 30
0.0
 40
15.0
 50
0.0
 51
180.0
  0
ARC
  5
13BF2
  8
0
  6
BYBLOCK
 62
     0
 10
20631.779695817379
 20
12861.03816800001
 30
0.0
 40
15.0
 50
0.0
 51
180.0
  0
ARC
  5
13BF3
  8
0
  6
BYBLOCK
 62
     0
 10
20631.779695817379
 20
12861.03816800001
 30
0.0
 40
15.0
 50
180.0
 51
0.0
  0
ARC
  5
13BF4
  8
0
  6
BYBLOCK
 62
     0
 10
20674.28193881737
 20
12861.03816800001
 30
0.0
 40
15.0
 50
0.0
 51
180.0
  0
ARC
  5
13BF5
  8
0
  6
BYBLOCK
 62
     0
 10
20674.28193881737
 20
12861.03816800001
 30
0.0
 40
15.0
 50
180.0
 51
0.0
  0
ARC
  5
13BF6
  8
0
  6
BYBLOCK
 62
     0
 10
20716.78418181738
 20
12861.03816800001
 30
0.0
 40
15.0
 50
180.0
 51
0.0
  0
ARC
  5
13BF7
  8
0
  6
BYBLOCK
 62
     0
 10
20716.78418181738
 20
12861.03816800001
 30
0.0
 40
15.0
 50
0.0
 51
180.0
  0
ARC
  5
13BF8
  8
0
  6
BYBLOCK
 62
     0
 10
23241.78193881737
 20
12861.03816800001
 30
0.0
 40
15.0
 50
180.0
 51
0.0
  0
ARC
  5
13BF9
  8
0
  6
BYBLOCK
 62
     0
 10
23241.78193881737
 20
12861.03816800001
 30
0.0
 40
15.0
 50
0.0
 51
180.0
  0
ARC
  5
13BFA
  8
0
  6
BYBLOCK
 62
     0
 10
23199.2796958174
 20
12861.03816800001
 30
0.0
 40
15.0
 50
0.0
 51
180.0
  0
ARC
  5
13BFB
  8
0
  6
BYBLOCK
 62
     0
 10
23199.2796958174
 20
12861.03816800001
 30
0.0
 40
15.0
 50
180.0
 51
0.0
  0
ARC
  5
13BFC
  8
0
  6
BYBLOCK
 62
     0
 10
23284.284181817358
 20
12461.038167999999
 30
0.0
 40
15.0
 50
0.0
 51
180.0
  0
ARC
  5
13BFD
  8
0
  6
BYBLOCK
 62
     0
 10
23284.284181817358
 20
12461.038167999999
 30
0.0
 40
15.0
 50
180.0
 51
0.0
  0
ARC
  5
13BFE
  8
0
  6
BYBLOCK
 62
     0
 10
20631.779695817379
 20
12461.038167999999
 30
0.0
 40
15.0
 50
180.0
 51
0.0
  0
ARC
  5
13BFF
  8
0
  6
BYBLOCK
 62
     0
 10
20631.779695817379
 20
12461.038167999999
 30
0.0
 40
15.0
 50
0.0
 51
180.0
  0
ARC
  5
13C00
  8
0
  6
BYBLOCK
 62
     0
 10
19581.782334817392
 20
14590.48625200001
 30
0.0
 40
15.0
 50
90.0
 51
270.0
  0
ARC
  5
13C01
  8
0
  6
BYBLOCK
 62
     0
 10
19581.782334817392
 20
14590.48625200001
 30
0.0
 40
15.0
 50
270.0
 51
90.0
  0
ARC
  5
13C02
  8
0
  6
BYBLOCK
 62
     0
 10
19581.782334817392
 20
13832.486252000001
 30
0.0
 40
15.0
 50
270.0
 51
90.0
  0
ARC
  5
13C03
  8
0
  6
BYBLOCK
 62
     0
 10
19581.782334817392
 20
13832.486252000001
 30
0.0
 40
15.0
 50
90.0
 51
270.0
  0
ARC
  5
13C04
  8
0
  6
BYBLOCK
 62
     0
 10
19581.782334817392
 20
15291.72676350003
 30
0.0
 40
15.0
 50
90.0
 51
270.0
  0
ARC
  5
13C05
  8
0
  6
BYBLOCK
 62
     0
 10
19581.782334817392
 20
15291.72676350003
 30
0.0
 40
15.0
 50
270.0
 51
90.0
  0
ARC
  5
13C06
  8
0
  6
BYBLOCK
 62
     0
 10
19581.782334817392
 20
14590.48625200001
 30
0.0
 40
15.0
 50
270.0
 51
90.0
  0
ARC
  5
13C07
  8
0
  6
BYBLOCK
 62
     0
 10
19581.782334817392
 20
14590.48625200001
 30
0.0
 40
15.0
 50
90.0
 51
270.0
  0
ARC
  5
13C08
  8
0
  6
BYBLOCK
 62
     0
 10
19581.782334817392
 20
15992.48625200001
 30
0.0
 40
15.0
 50
90.0
 51
270.0
  0
ARC
  5
13C09
  8
0
  6
BYBLOCK
 62
     0
 10
19581.782334817392
 20
15992.48625200001
 30
0.0
 40
15.0
 50
270.0
 51
90.0
  0
ARC
  5
13C0A
  8
0
  6
BYBLOCK
 62
     0
 10
19581.782334817392
 20
15291.72676350003
 30
0.0
 40
15.0
 50
270.0
 51
90.0
  0
ARC
  5
13C0B
  8
0
  6
BYBLOCK
 62
     0
 10
19581.782334817392
 20
15291.72676350003
 30
0.0
 40
15.0
 50
90.0
 51
270.0
  0
ARC
  5
13C0C
  8
0
  6
BYBLOCK
 62
     0
 10
19581.782334817392
 20
16750.48625200001
 30
0.0
 40
15.0
 50
90.0
 51
270.0
  0
ARC
  5
13C0D
  8
0
  6
BYBLOCK
 62
     0
 10
19581.782334817392
 20
16750.48625200001
 30
0.0
 40
15.0
 50
270.0
 51
90.0
  0
ARC
  5
13C0E
  8
0
  6
BYBLOCK
 62
     0
 10
19581.782334817392
 20
15992.48625200001
 30
0.0
 40
15.0
 50
270.0
 51
90.0
  0
ARC
  5
13C0F
  8
0
  6
BYBLOCK
 62
     0
 10
19581.782334817392
 20
15992.48625200001
 30
0.0
 40
15.0
 50
90.0
 51
270.0
  0
ARC
  5
13C10
  8
0
  6
BYBLOCK
 62
     0
 10
19581.782334817392
 20
17508.48625200001
 30
0.0
 40
15.0
 50
90.0
 51
270.0
  0
ARC
  5
13C11
  8
0
  6
BYBLOCK
 62
     0
 10
19581.782334817392
 20
17508.48625200001
 30
0.0
 40
15.0
 50
270.0
 51
90.0
  0
ARC
  5
13C12
  8
0
  6
BYBLOCK
 62
     0
 10
19581.782334817392
 20
16750.48625200001
 30
0.0
 40
15.0
 50
270.0
 51
90.0
  0
ARC
  5
13C13
  8
0
  6
BYBLOCK
 62
     0
 10
19581.782334817392
 20
16750.48625200001
 30
0.0
 40
15.0
 50
90.0
 51
270.0
  0
ARC
  5
13C14
  8
0
  6
BYBLOCK
 62
     0
 10
19581.782334817392
 20
18209.48625200001
 30
0.0
 40
15.0
 50
90.0
 51
270.0
  0
ARC
  5
13C15
  8
0
  6
BYBLOCK
 62
     0
 10
19581.782334817392
 20
18209.48625200001
 30
0.0
 40
15.0
 50
270.0
 51
90.0
  0
ARC
  5
13C16
  8
0
  6
BYBLOCK
 62
     0
 10
19581.782334817392
 20
17508.48625200001
 30
0.0
 40
15.0
 50
270.0
 51
90.0
  0
ARC
  5
13C17
  8
0
  6
BYBLOCK
 62
     0
 10
19581.782334817392
 20
17508.48625200001
 30
0.0
 40
15.0
 50
90.0
 51
270.0
  0
ARC
  5
13C18
  8
0
  6
BYBLOCK
 62
     0
 10
19581.782334817392
 20
18910.486251999999
 30
0.0
 40
15.0
 50
90.0
 51
270.0
  0
ARC
  5
13C19
  8
0
  6
BYBLOCK
 62
     0
 10
19581.782334817392
 20
18910.486251999999
 30
0.0
 40
15.0
 50
270.0
 51
90.0
  0
ARC
  5
13C1A
  8
0
  6
BYBLOCK
 62
     0
 10
19581.782334817392
 20
18209.48625200001
 30
0.0
 40
15.0
 50
270.0
 51
90.0
  0
ARC
  5
13C1B
  8
0
  6
BYBLOCK
 62
     0
 10
19581.782334817392
 20
18209.48625200001
 30
0.0
 40
15.0
 50
90.0
 51
270.0
  0
ARC
  5
13C1C
  8
0
  6
BYBLOCK
 62
     0
 10
19581.782334817392
 20
19317.986251999992
 30
0.0
 40
15.0
 50
90.0
 51
270.0
  0
ARC
  5
13C1D
  8
0
  6
BYBLOCK
 62
     0
 10
19581.782334817392
 20
19317.986251999992
 30
0.0
 40
15.0
 50
270.0
 51
90.0
  0
ARC
  5
13C1E
  8
0
  6
BYBLOCK
 62
     0
 10
19581.782334817392
 20
13832.486252000001
 30
0.0
 40
15.0
 50
270.0
 51
90.0
  0
ARC
  5
13C1F
  8
0
  6
BYBLOCK
 62
     0
 10
19581.782334817392
 20
13832.486252000001
 30
0.0
 40
15.0
 50
90.0
 51
270.0
  0
ARC
  5
13C20
  8
0
  6
BYBLOCK
 62
     0
 10
19181.782334817381
 20
19360.483547000011
 30
0.0
 40
15.0
 50
90.0
 51
270.0
  0
ARC
  5
13C21
  8
0
  6
BYBLOCK
 62
     0
 10
19181.782334817381
 20
19360.483547000011
 30
0.0
 40
15.0
 50
270.0
 51
90.0
  0
ARC
  5
13C22
  8
0
  6
BYBLOCK
 62
     0
 10
19181.782334817381
 20
13789.98895700001
 30
0.0
 40
15.0
 50
270.0
 51
90.0
  0
ARC
  5
13C23
  8
0
  6
BYBLOCK
 62
     0
 10
19181.782334817381
 20
13789.98895700001
 30
0.0
 40
15.0
 50
90.0
 51
270.0
  0
ARC
  5
13C24
  8
0
  6
BYBLOCK
 62
     0
 10
19581.782334817392
 20
19317.986251999992
 30
0.0
 40
15.0
 50
90.0
 51
270.0
  0
ARC
  5
13C25
  8
0
  6
BYBLOCK
 62
     0
 10
19581.782334817392
 20
19317.986251999992
 30
0.0
 40
15.0
 50
270.0
 51
90.0
  0
ARC
  5
13C26
  8
0
  6
BYBLOCK
 62
     0
 10
19581.782334817392
 20
19360.483547000011
 30
0.0
 40
15.0
 50
270.0
 51
90.0
  0
ARC
  5
13C27
  8
0
  6
BYBLOCK
 62
     0
 10
19581.782334817392
 20
19360.483547000011
 30
0.0
 40
15.0
 50
90.0
 51
270.0
  0
ARC
  5
13C28
  8
0
  6
BYBLOCK
 62
     0
 10
19581.782334817392
 20
13832.486252000001
 30
0.0
 40
15.0
 50
270.0
 51
90.0
  0
ARC
  5
13C29
  8
0
  6
BYBLOCK
 62
     0
 10
19581.782334817392
 20
13832.486252000001
 30
0.0
 40
15.0
 50
90.0
 51
270.0
  0
ARC
  5
13C2A
  8
0
  6
BYBLOCK
 62
     0
 10
19581.782334817392
 20
13789.98895700001
 30
0.0
 40
15.0
 50
90.0
 51
270.0
  0
ARC
  5
13C2B
  8
0
  6
BYBLOCK
 62
     0
 10
19581.782334817392
 20
13789.98895700001
 30
0.0
 40
15.0
 50
270.0
 51
90.0
  0
ARC
  5
13C2C
  8
0
  6
BYBLOCK
 62
     0
 10
23241.78193881737
 20
20160.487175999991
 30
0.0
 40
15.0
 50
180.0
 51
0.0
  0
ARC
  5
13C2D
  8
0
  6
BYBLOCK
 62
     0
 10
23241.78193881737
 20
20160.487175999991
 30
0.0
 40
15.0
 50
0.0
 51
180.0
  0
ARC
  5
13C2E
  8
0
  6
BYBLOCK
 62
     0
 10
21081.781938817348
 20
20160.487175999991
 30
0.0
 40
15.0
 50
0.000000000000007
 51
180.0
  0
ARC
  5
13C2F
  8
0
  6
BYBLOCK
 62
     0
 10
21081.781938817348
 20
20160.487175999991
 30
0.0
 40
15.0
 50
180.0
 51
0.000000000000007
  0
ARC
  5
13C30
  8
0
  6
BYBLOCK
 62
     0
 10
22483.78193881737
 20
20160.487175999991
 30
0.0
 40
15.0
 50
0.000000000000007
 51
180.0
  0
ARC
  5
13C31
  8
0
  6
BYBLOCK
 62
     0
 10
22483.78193881737
 20
20160.487175999991
 30
0.0
 40
15.0
 50
180.0
 51
0.000000000000007
  0
ARC
  5
13C32
  8
0
  6
BYBLOCK
 62
     0
 10
20674.28094931737
 20
20160.487175999991
 30
0.0
 40
15.0
 50
180.0
 51
0.0
  0
ARC
  5
13C33
  8
0
  6
BYBLOCK
 62
     0
 10
20674.28094931737
 20
20160.487175999991
 30
0.0
 40
15.0
 50
0.0
 51
180.0
  0
ARC
  5
13C34
  8
0
  6
BYBLOCK
 62
     0
 10
21782.781938817348
 20
20160.487175999991
 30
0.0
 40
15.0
 50
0.000000000000007
 51
180.0
  0
ARC
  5
13C35
  8
0
  6
BYBLOCK
 62
     0
 10
21782.781938817348
 20
20160.487175999991
 30
0.0
 40
15.0
 50
180.0
 51
0.000000000000007
  0
ARC
  5
13C36
  8
0
  6
BYBLOCK
 62
     0
 10
22483.78193881737
 20
20160.487175999991
 30
0.0
 40
15.0
 50
180.0
 51
0.000000000000007
  0
ARC
  5
13C37
  8
0
  6
BYBLOCK
 62
     0
 10
22483.78193881737
 20
20160.487175999991
 30
0.0
 40
15.0
 50
0.000000000000007
 51
180.0
  0
ARC
  5
13C38
  8
0
  6
BYBLOCK
 62
     0
 10
21081.781938817348
 20
20160.487175999991
 30
0.0
 40
15.0
 50
0.000000000000007
 51
180.0
  0
ARC
  5
13C39
  8
0
  6
BYBLOCK
 62
     0
 10
21081.781938817348
 20
20160.487175999991
 30
0.0
 40
15.0
 50
180.0
 51
0.000000000000007
  0
ARC
  5
13C3A
  8
0
  6
BYBLOCK
 62
     0
 10
21782.781938817348
 20
20160.487175999991
 30
0.0
 40
15.0
 50
180.0
 51
0.000000000000007
  0
ARC
  5
13C3B
  8
0
  6
BYBLOCK
 62
     0
 10
21782.781938817348
 20
20160.487175999991
 30
0.0
 40
15.0
 50
0.000000000000007
 51
180.0
  0
ARC
  5
13C3C
  8
0
  6
BYBLOCK
 62
     0
 10
20674.28193881737
 20
20160.487175999991
 30
0.0
 40
15.0
 50
180.0
 51
0.0
  0
ARC
  5
13C3D
  8
0
  6
BYBLOCK
 62
     0
 10
20674.28193881737
 20
20160.487175999991
 30
0.0
 40
15.0
 50
0.0
 51
180.0
  0
ARC
  5
13C3E
  8
0
  6
BYBLOCK
 62
     0
 10
20631.785633817381
 20
20160.487175999991
 30
0.0
 40
15.0
 50
0.0
 51
180.0
  0
ARC
  5
13C3F
  8
0
  6
BYBLOCK
 62
     0
 10
20631.785633817381
 20
20160.487175999991
 30
0.0
 40
15.0
 50
180.0
 51
0.0
  0
ARC
  5
13C40
  8
0
  6
BYBLOCK
 62
     0
 10
23241.78193881737
 20
20160.487175999991
 30
0.0
 40
15.0
 50
0.0
 51
180.0
  0
ARC
  5
13C41
  8
0
  6
BYBLOCK
 62
     0
 10
23241.78193881737
 20
20160.487175999991
 30
0.0
 40
15.0
 50
180.0
 51
0.0
  0
ARC
  5
13C42
  8
0
  6
BYBLOCK
 62
     0
 10
23284.278243817382
 20
20160.487175999991
 30
0.0
 40
15.0
 50
180.0
 51
0.0
  0
ARC
  5
13C43
  8
0
  6
BYBLOCK
 62
     0
 10
23284.278243817382
 20
20160.487175999991
 30
0.0
 40
15.0
 50
0.0
 51
180.0
  0
TEXT
  5
13D98
  8
FILENAME
  6
CONTINUOUS
 10
26480.19047619047
 20
348.0
 30
0.0
 40
200.0
  1
＜VGC-2655+VKC-2855-R-1-A_0.DXF ＞
  7
FILENAME
 72
     2
 11
32764.0
 21
348.0
 31
0.0
  0
LINE
  5
13D9D
  8
WAKUSEN-01
 10
868.00000000000193
 20
827.99999999999955
 30
0.0
 11
32764.000000000011
 21
827.99999999999943
 31
0.0
  0
LINE
  5
13D9E
  8
WAKUSEN-01
 10
868.00000000000193
 20
827.99999999999955
 30
0.0
 11
868.00000000000193
 21
22484.000000000011
 31
0.0
  0
LINE
  5
13D9F
  8
WAKUSEN-01
 10
32764.000000000011
 20
827.99999999999943
 30
0.0
 11
32764.000000000011
 21
22484.000000000011
 31
0.0
  0
LINE
  5
13DA0
  8
WAKUSEN-01
 10
20560.0
 20
827.99999999999716
 30
0.0
 11
20560.0
 21
2484.0
 31
0.0
  0
LINE
  5
13DA1
  8
WAKUSEN-02
 10
26868.0
 20
827.99999999999261
 30
0.0
 11
26868.0
 21
2484.0
 31
0.0
  0
ENDSEC
  0
EOF
