  0
SECTION
  2
HEADER
  9
$ACADVER
  1
AC1009
  9
$INSBASE
 10
0.0
 20
0.0
 30
0.0
  9
$EXTMIN
 10
867.99324330406671
 20
327.38164749855792
 30
-0.0000000000000058
  9
$EXTMAX
 10
32765.33210850941
 20
22484.553276491992
 30
0.0000000000000104
  9
$LIMMIN
 10
0.0
 20
0.0
  9
$LIMMAX
 10
33600.0
 20
23760.0
  9
$ORTHOMODE
 70
     1
  9
$REGENMODE
 70
     1
  9
$FILLMODE
 70
     1
  9
$QTEXTMODE
 70
     0
  9
$MIRRTEXT
 70
     0
  9
$DRAGMODE
 70
     2
  9
$LTSCALE
 40
80.0
  9
$OSMODE
 70
  3071
  9
$ATTMODE
 70
     1
  9
$TEXTSIZE
 40
0.2
  9
$TRACEWID
 40
0.05
  9
$TEXTSTYLE
  7
00
  9
$CLAYER
  8
0
  9
$CELTYPE
  6
BYLAYER
  9
$CECOLOR
 62
   256
  9
$DIMSCALE
 40
80.0
  9
$DIMASZ
 40
3.0
  9
$DIMEXO
 40
1.0
  9
$DIMDLI
 40
0.38
  9
$DIMRND
 40
0.5
  9
$DIMDLE
 40
0.0
  9
$DIMEXE
 40
1.0
  9
$DIMTP
 40
0.0
  9
$DIMTM
 40
0.0
  9
$DIMTXT
 40
2.0
  9
$DIMCEN
 40
0.09
  9
$DIMTSZ
 40
0.0
  9
$DIMTOL
 70
     0
  9
$DIMLIM
 70
     0
  9
$DIMTIH
 70
     0
  9
$DIMTOH
 70
     0
  9
$DIMSE1
 70
     0
  9
$DIMSE2
 70
     0
  9
$DIMTAD
 70
     1
  9
$DIMZIN
 70
     8
  9
$DIMBLK
  1
DOTSMALL
  9
$DIMASO
 70
     1
  9
$DIMSHO
 70
     1
  9
$DIMPOST
  1

  9
$DIMAPOST
  1

  9
$DIMALT
 70
     0
  9
$DIMALTD
 70
     2
  9
$DIMALTF
 40
25.399999999999999
  9
$DIMLFAC
 40
1.0
  9
$DIMTOFL
 70
     1
  9
$DIMTVP
 40
0.0
  9
$DIMTIX
 70
     0
  9
$DIMSOXD
 70
     0
  9
$DIMSAH
 70
     0
  9
$DIMBLK1
  1

  9
$DIMBLK2
  1

  9
$DIMSTYLE
  2
SUNPOU
  9
$DIMCLRD
 70
     4
  9
$DIMCLRE
 70
     4
  9
$DIMCLRT
 70
     7
  9
$DIMTFAC
 40
1.0
  9
$DIMGAP
 40
1.0
  9
$LUNITS
 70
     2
  9
$LUPREC
 70
     4
  9
$SKETCHINC
 40
0.1
  9
$FILLETRAD
 40
0.0
  9
$AUNITS
 70
     0
  9
$AUPREC
 70
     0
  9
$MENU
  1
acad
  9
$ELEVATION
 40
0.0
  9
$PELEVATION
 40
0.0
  9
$THICKNESS
 40
0.0
  9
$LIMCHECK
 70
     0
  9
$BLIPMODE
 70
     1
  9
$CHAMFERA
 40
0.0
  9
$CHAMFERB
 40
0.0
  9
$SKPOLY
 70
     0
  9
$TDCREATE
 40
2311940.075052408
  9
$TDUPDATE
 40
2458942.4522898258
  9
$TDINDWG
 40
0.3435870718
  9
$TDUSRTIMER
 40
0.3435865741
  9
$USRTIMER
 70
     1
  9
$ANGBASE
 50
0.0
  9
$ANGDIR
 70
     0
  9
$PDMODE
 70
     0
  9
$PDSIZE
 40
0.0
  9
$PLINEWID
 40
0.0
  9
$COORDS
 70
     1
  9
$SPLFRAME
 70
     0
  9
$SPLINETYPE
 70
     6
  9
$SPLINESEGS
 70
     8
  9
$ATTDIA
 70
     1
  9
$ATTREQ
 70
     1
  9
$HANDLING
 70
     1
  9
$HANDSEED
  5
110AC
  9
$SURFTAB1
 70
     6
  9
$SURFTAB2
 70
     6
  9
$SURFTYPE
 70
     6
  9
$SURFU
 70
     6
  9
$SURFV
 70
     6
  9
$UCSNAME
  2

  9
$UCSORG
 10
0.0
 20
0.0
 30
0.0
  9
$UCSXDIR
 10
1.0
 20
0.0
 30
0.0
  9
$UCSYDIR
 10
0.0
 20
1.0
 30
0.0
  9
$PUCSNAME
  2

  9
$PUCSORG
 10
0.0
 20
0.0
 30
0.0
  9
$PUCSXDIR
 10
1.0
 20
0.0
 30
0.0
  9
$PUCSYDIR
 10
0.0
 20
1.0
 30
0.0
  9
$USERI1
 70
     0
  9
$USERI2
 70
     0
  9
$USERI3
 70
     0
  9
$USERI4
 70
     0
  9
$USERI5
 70
     0
  9
$USERR1
 40
0.0
  9
$USERR2
 40
0.0
  9
$USERR3
 40
0.0
  9
$USERR4
 40
0.0
  9
$USERR5
 40
0.0
  9
$WORLDVIEW
 70
     1
  9
$SHADEDGE
 70
     3
  9
$SHADEDIF
 70
    70
  9
$TILEMODE
 70
     1
  9
$MAXACTVP
 70
    16
  9
$PLIMCHECK
 70
     0
  9
$PEXTMIN
 10
1.0000000000000000E+020
 20
1.0000000000000000E+020
 30
1.0000000000000000E+020
  9
$PEXTMAX
 10
-1.0000000000000000E+020
 20
-1.0000000000000000E+020
 30
-1.0000000000000000E+020
  9
$PLIMMIN
 10
0.0
 20
0.0
  9
$PLIMMAX
 10
12.0
 20
9.0
  9
$UNITMODE
 70
     0
  9
$VISRETAIN
 70
     0
  9
$PLINEGEN
 70
     1
  9
$PSLTSCALE
 70
     0
  0
ENDSEC
  0
SECTION
  2
TABLES
  0
TABLE
  2
VPORT
 70
     1
  0
VPORT
  2
*ACTIVE
 70
     0
 10
0.0
 20
0.0
 11
1.0
 21
1.0
 12
16800.0
 22
11880.0
 13
0.0
 23
0.0
 14
1.0
 24
1.0
 15
0.0
 25
0.0
 16
0.0
 26
0.0
 36
1.0
 17
0.0
 27
0.0
 37
0.0
 40
23981.023255813951
 41
2.195652173913043
 42
50.0
 43
0.0
 44
0.0
 50
0.0
 51
0.0
 71
     0
 72
 10000
 73
     1
 74
     1
 75
     0
 76
     0
 77
     0
 78
     0
  0
ENDTAB
  0
TABLE
  2
LTYPE
 70
     6
  0
LTYPE
  2
CONTINUOUS
 70
     0
  3
Solid line
 72
    65
 73
     0
 40
0.0
  0
LTYPE
  2
DASHED3
 70
     0
  3
------  ------  ------  ------  
 72
    65
 73
     2
 40
5.0
 49
3.75
 49
-1.25
  0
LTYPE
  2
CENTER2
 70
     0
  3
----------  --  ----------  --  
 72
    65
 73
     4
 40
20.0
 49
12.5
 49
-2.5
 49
2.5
 49
-2.5
  0
LTYPE
  2
HIDE-M
 70
     0
  3

 72
    65
 73
     2
 40
2.0
 49
1.0
 49
-1.0
  0
LTYPE
  2
1PL-M
 70
     0
  3

 72
    65
 73
     4
 40
15.0
 49
12.0
 49
-1.0
 49
1.0
 49
-1.0
  0
LTYPE
  2
PHANTOM2
 70
     0
  3
___ _ _ ___ _ _ ___ _ _ ___ _ _
 72
    65
 73
     6
 40
1.25
 49
0.625
 49
-0.125
 49
0.125
 49
-0.125
 49
0.125
 49
-0.125
  0
ENDTAB
  0
TABLE
  2
LAYER
 70
    24
  0
LAYER
  2
0
 70
     0
 62
     7
  6
CONTINUOUS
  0
LAYER
  2
SUNPOU
 70
     0
 62
     4
  6
CONTINUOUS
  0
LAYER
  2
0-1
 70
     0
 62
     7
  6
CONTINUOUS
  0
LAYER
  2
0-2
 70
     0
 62
     7
  6
CONTINUOUS
  0
LAYER
  2
0-5
 70
     0
 62
     7
  6
CONTINUOUS
  0
LAYER
  2
0-6
 70
     0
 62
     7
  6
CONTINUOUS
  0
LAYER
  2
2-0
 70
     0
 62
     7
  6
CONTINUOUS
  0
LAYER
  2
0-8
 70
     0
 62
     7
  6
CONTINUOUS
  0
LAYER
  2
YODOROGO
 70
     0
 62
   130
  6
CONTINUOUS
  0
LAYER
  2
WAKUSEN-01
 70
     0
 62
    50
  6
CONTINUOUS
  0
LAYER
  2
WAKUSEN-02
 70
     0
 62
   130
  6
CONTINUOUS
  0
LAYER
  2
WAKUMOJI-01
 70
     0
 62
   130
  6
CONTINUOUS
  0
LAYER
  2
FILENAME
 70
     0
 62
     7
  6
CONTINUOUS
  0
LAYER
  2
NAME
 70
     0
 62
    20
  6
CONTINUOUS
  0
LAYER
  2
0-4
 70
     0
 62
     7
  6
CONTINUOUS
  0
LAYER
  2
1-前柱P
 70
     0
 62
     3
  6
CONTINUOUS
  0
LAYER
  2
1-前柱カバ-P
 70
     0
 62
     3
  6
CONTINUOUS
  0
LAYER
  2
1-桁前P28
 70
     0
 62
     3
  6
CONTINUOUS
  0
LAYER
  2
1-後柱P
 70
     0
 62
     3
  6
CONTINUOUS
  0
LAYER
  2
1-中柱P
 70
     0
 62
     3
  6
CONTINUOUS
  0
LAYER
  2
1-後柱カバ-P
 70
     0
 62
     7
  6
CONTINUOUS
  0
LAYER
  2
1-中柱カバ-P
 70
     0
 62
     7
  6
CONTINUOUS
  0
ENDTAB
  0
TABLE
  2
STYLE
 70
     5
  0
STYLE
  2
STANDARD
 70
     0
 40
0.0
 41
1.0
 50
0.0
 71
     0
 42
0.0
  3
txt
  4
BIGFONT
  0
STYLE
  2
00
 70
     0
 40
0.0
 41
0.6666666666666666
 50
0.0
 71
     0
 42
0.2
  3
ROMANS
  4
BIGFONT
  0
STYLE
  2
01
 70
     0
 40
3.0
 41
1.0
 50
0.0
 71
     0
 42
0.2
  3
ROMANS
  4
BIGFONT
  0
STYLE
  2
WAKUMOJI
 70
     0
 40
3.0
 41
1.0
 50
0.0
 71
     0
 42
3.0
  3
SIMPLEX
  4
BIGFONT
  0
STYLE
  2
FILENAME
 70
     0
 40
200.0
 41
1.0
 50
0.0
 71
     0
 42
200.0
  3
romans
  4
bigfont
  0
ENDTAB
  0
TABLE
  2
VIEW
 70
     0
  0
ENDTAB
  0
TABLE
  2
UCS
 70
     0
  0
ENDTAB
  0
TABLE
  2
APPID
 70
    17
  0
APPID
  2
ACAD
 70
     0
  0
APPID
  2
ACADANNOTATIVE
 70
     0
  0
APPID
  2
ACAD_PSEXT
 70
     0
  0
APPID
  2
DCO15
 70
     0
  0
APPID
  2
ACAD_MLEADERVER
 70
     0
  0
APPID
  2
AUTOCAD_POSTSCRIPT_FIGURE
 70
     0
  0
APPID
  2
ACAD_EXEMPT_FROM_CAD_STANDARDS
 70
     0
  0
APPID
  2
ACLAYERTOOLS
 70
     0
  0
APPID
  2
ACAD_DSTYLE_DIMJAG
 70
     0
  0
APPID
  2
ACAD_DSTYLE_DIMTALN
 70
     0
  0
APPID
  2
ACAECLAYERSTANDARD
 70
     0
  0
APPID
  2
ACAD_DSTYLE_DIMBREAK
 70
     0
  0
APPID
  2
ACAD_DSTYLE_DIM_LINETYPE
 70
     0
  0
APPID
  2
ACAD_DSTYLE_DIM_EXT1_LINETYPE
 70
     0
  0
APPID
  2
ACAD_DSTYLE_DIM_EXT2_LINETYPE
 70
     0
  0
APPID
  2
ACAD_DSTYLE_DIMFLIPARROW_W
 70
     0
  0
APPID
  2
ACAD_NAV_VCDISPLAY
 70
     0
  0
ENDTAB
  0
TABLE
  2
DIMSTYLE
 70
     2
  0
DIMSTYLE
  2
SUNPOU
 70
     0
  3

  4

  5

  6

  7

 40
80.0
 41
3.0
 42
1.0
 43
0.38
 44
1.0
 45
0.5
 46
0.0
 47
0.0
 48
0.0
140
2.0
141
0.09
142
0.0
143
25.399999999999999
144
1.0
145
0.0
146
1.0
147
1.0
 71
     0
 72
     0
 73
     0
 74
     0
 75
     0
 76
     0
 77
     1
 78
     8
170
     0
171
     2
172
     1
173
     0
174
     0
175
     0
176
     4
177
     4
178
     7
  0
ENDTAB
  0
ENDSEC
  0
SECTION
  2
BLOCKS
  0
BLOCK
  8
0
  2
$MODEL_SPACE
 70
     0
 10
0.0
 20
0.0
 30
0.0
  3
$MODEL_SPACE
  1

  0
ENDBLK
  5
F6EF
  8
0
  0
BLOCK
 67
     1
  8
0
  2
$PAPER_SPACE
 70
     0
 10
0.0
 20
0.0
 30
0.0
  3
$PAPER_SPACE
  1

  0
ENDBLK
  5
F6EB
 67
     1
  8
0
  0
BLOCK
  8
0
  2
_DOTSMALL
 70
     0
 10
0.0
 20
0.0
 30
0.0
  3
_DOTSMALL
  1

  0
POLYLINE
  5
F72B
  8
0
  6
BYBLOCK
 62
     0
 66
     1
 10
0.0
 20
0.0
 30
0.0
 70
     1
 40
0.5
 41
0.5
  0
VERTEX
  5
11074
  8
0
  6
BYBLOCK
 62
     0
 10
-0.0625
 20
0.0
 30
0.0
 42
1.0
  0
VERTEX
  5
11075
  8
0
  6
BYBLOCK
 62
     0
 10
0.0625
 20
0.0
 30
0.0
 42
1.0
  0
SEQEND
  5
11076
  8
0
  6
BYBLOCK
 62
     0
  0
ENDBLK
  5
F72F
  8
0
  0
ENDSEC
  0
SECTION
  2
ENTITIES
  0
CIRCLE
  5
F7A1
  8
0-5
  6
CONTINUOUS
 62
     4
 10
15128.71667799999
 20
1375.999982000001
 30
0.0
 40
20.0
  0
ARC
  5
F7A2
  8
0-5
  6
CONTINUOUS
 62
     4
 10
15128.71667799999
 20
1375.999982000001
 30
0.0
 40
20.0
 50
180.0
 51
0.0
  0
ARC
  5
F7A3
  8
0-5
  6
CONTINUOUS
 62
     4
 10
15128.71667799999
 20
1375.999982000001
 30
0.0
 40
20.0
 50
0.0
 51
179.99998500000001
  0
CIRCLE
  5
F7A4
  8
0-5
  6
CONTINUOUS
 62
     4
 10
15128.71667799999
 20
1775.999321999999
 30
0.0
 40
20.0
  0
ARC
  5
F7A5
  8
0-5
  6
CONTINUOUS
 62
     4
 10
15128.71667799999
 20
1775.999321999999
 30
0.0
 40
20.0
 50
180.0
 51
0.0
  0
ARC
  5
F7A6
  8
0-5
  6
CONTINUOUS
 62
     4
 10
15128.71667799999
 20
1775.999321999999
 30
0.0
 40
20.0
 50
0.0
 51
179.99998500000001
  0
TEXT
  5
F7AC
  8
0-5
  6
CONTINUOUS
 62
     7
 10
16661.217403999992
 20
1655.999792000001
 30
0.0
 40
160.0
  1
H
  0
TEXT
  5
F7AD
  8
0-5
  6
CONTINUOUS
 62
     7
 10
15176.146933
 20
1655.999792000001
 30
0.0
 40
160.0
  1
（ ）内寸法ハ、  タイプヲ示ス。
  0
TEXT
  5
F7AE
  8
0-5
  6
CONTINUOUS
 62
     7
 10
15288.716216000001
 20
1255.999462
 30
0.0
 40
160.0
  1
有効高サハ、基礎高サヲ含ミマセン。
  0
TEXT
  5
F7B6
  8
2-0
  6
CONTINUOUS
 62
     7
 10
22172.668069228708
 20
11251.104441999991
 30
0.0
 40
160.0
  1
平　面　図
 72
     4
 11
22626.00140256204
 21
11325.77110866666
 31
0.0
  0
TEXT
  5
F7B7
  8
2-0
  6
CONTINUOUS
 62
     7
 10
8081.198002010944
 20
11156.81700299998
 30
0.0
 40
160.0
  1
小 屋 伏 図
 72
     4
 11
8582.531335344278
 21
11236.81700299998
 31
0.0
  0
TEXT
  5
F7B8
  8
2-0
  6
CONTINUOUS
 62
     7
 10
21841.769232999432
 20
3292.802588999999
 30
0.0
 40
160.0
  1
正 面 立 面 図
 72
     4
 11
22487.102566332771
 21
3372.802588999999
 31
0.0
  0
TEXT
  5
F7B9
  8
2-0
  6
CONTINUOUS
 62
     7
 10
7808.7002624709367
 20
3264.0669070000022
 30
0.0
 40
160.0
  1
側 面 立 面 図
 50
0.000139
 72
     4
 11
8454.0334017217574
 21
3344.0684725833762
 31
0.0
  0
TEXT
  5
F7BD
  8
2-0
  6
CONTINUOUS
 62
     7
 10
9805.5255868593831
 20
3291.2638415833758
 30
0.0
 40
160.0
  1
1
 72
     4
 11
9832.1922535260492
 21
3371.2638415833749
 31
0.0
  0
TEXT
  5
F7BE
  8
2-0
  6
CONTINUOUS
 62
     7
 10
10048.61430411006
 20
3211.2653095833748
 30
0.0
 40
160.0
  1
80
 72
     4
 11
10168.61430411006
 21
3291.2653095833748
 31
0.0
  0
TEXT
  5
F7BF
  8
2-0
  6
CONTINUOUS
 62
     7
 10
9306.5275528593793
 20
3264.0684725833762
 30
0.0
 40
160.0
  1
(S=  /   )
 72
     4
 11
9866.5275528593793
 21
3344.0684725833762
 31
0.0
  0
TEXT
  5
F7C0
  8
2-0
  6
CONTINUOUS
 62
     7
 10
23838.594751470391
 20
3319.9979579999999
 30
0.0
 40
160.0
  1
1
 72
     4
 11
23865.261418137059
 21
3399.9979579999999
 31
0.0
  0
TEXT
  5
F7C1
  8
2-0
  6
CONTINUOUS
 62
     7
 10
24081.683468721101
 20
3239.9994259999989
 30
0.0
 40
160.0
  1
80
 72
     4
 11
24201.683468721101
 21
3319.9994259999989
 31
0.0
  0
TEXT
  5
F7C2
  8
2-0
  6
CONTINUOUS
 62
     7
 10
23339.596717470398
 20
3292.802588999999
 30
0.0
 40
160.0
  1
(S=  /   )
 72
     4
 11
23899.596717470398
 21
3372.802588999999
 31
0.0
  0
TEXT
  5
F7C3
  8
2-0
  6
CONTINUOUS
 62
     7
 10
23977.493587699679
 20
11272.96647766667
 30
0.0
 40
160.0
  1
1
 72
     4
 11
24004.160254366339
 21
11352.96647766667
 31
0.0
  0
TEXT
  5
F7C4
  8
2-0
  6
CONTINUOUS
 62
     7
 10
24220.58230495036
 20
11192.967945666671
 30
0.0
 40
160.0
  1
80
 72
     4
 11
24340.58230495036
 21
11272.967945666671
 31
0.0
  0
TEXT
  5
F7C5
  8
2-0
  6
CONTINUOUS
 62
     7
 10
23478.495553699671
 20
11245.77110866666
 30
0.0
 40
160.0
  1
(S=  /   )
 72
     4
 11
24038.495553699671
 21
11325.77110866666
 31
0.0
  0
TEXT
  5
F7C6
  8
2-0
  6
CONTINUOUS
 62
     7
 10
9934.0235204819055
 20
11184.012371999979
 30
0.0
 40
160.0
  1
1
 72
     4
 11
9960.6901871485716
 21
11264.012371999979
 31
0.0
  0
TEXT
  5
F7C7
  8
2-0
  6
CONTINUOUS
 62
     7
 10
10177.112237732599
 20
11104.01383999998
 30
0.0
 40
160.0
  1
80
 72
     4
 11
10297.112237732599
 21
11184.01383999998
 31
0.0
  0
TEXT
  5
F7C8
  8
2-0
  6
CONTINUOUS
 62
     7
 10
9435.0254864819035
 20
11156.81700299998
 30
0.0
 40
160.0
  1
(S=  /   )
 72
     4
 11
9995.0254864819053
 21
11236.81700299998
 31
0.0
  0
LINE
  5
F847
  8
0-1
  6
CONTINUOUS
 62
     3
 10
7680.7332144709508
 20
8152.2344180000064
 30
0.0
 11
7680.7332144709508
 21
6291.1885390000007
 31
0.0
  0
LINE
  5
F848
  8
0-1
  6
CONTINUOUS
 62
     3
 10
7643.7350224709498
 20
8152.2344180000064
 30
0.0
 11
7643.7350224709498
 21
6291.1885390000007
 31
0.0
  0
LINE
  5
F849
  8
0-1
  6
CONTINUOUS
 62
     3
 10
8380.7325544709456
 20
8152.2344180000064
 30
0.0
 11
8380.7325544709456
 21
6291.1885390000007
 31
0.0
  0
LINE
  5
F84A
  8
0-1
  6
CONTINUOUS
 62
     3
 10
8343.7343624709465
 20
8152.2344180000064
 30
0.0
 11
8343.7343624709465
 21
6291.1885390000007
 31
0.0
  0
LINE
  5
F84B
  8
0-1
  6
CONTINUOUS
 62
     3
 10
8002.2327654709388
 20
6291.1885390000007
 30
0.0
 11
8002.2327654709388
 21
8152.2344180000064
 31
0.0
  0
LINE
  5
F84C
  8
0-1
  6
CONTINUOUS
 62
     3
 10
8022.2338214709553
 20
6291.1885390000007
 30
0.0
 11
8022.2338214709553
 21
8152.2344180000064
 31
0.0
  0
LINE
  5
F84D
  8
0-1
  6
CONTINUOUS
 62
     3
 10
7952.2340854709473
 20
6291.1885390000007
 30
0.0
 11
7952.2340854709473
 21
8152.2344180000064
 31
0.0
  0
LINE
  5
F84E
  8
0-1
  6
CONTINUOUS
 62
     3
 10
8072.2334914709509
 20
6291.1885390000007
 30
0.0
 11
8072.2334914709509
 21
8152.2344180000064
 31
0.0
  0
LINE
  5
F84F
  8
0-1
  6
CONTINUOUS
 62
     3
 10
8205.2333854709432
 20
6291.1885390000007
 30
0.0
 11
8205.2333854709432
 21
8152.2344180000064
 31
0.0
  0
LINE
  5
F850
  8
0-1
  6
CONTINUOUS
 62
     3
 10
8220.2331874709489
 20
6291.1885390000007
 30
0.0
 11
8220.2331874709489
 21
8152.2344180000064
 31
0.0
  0
LINE
  5
F851
  8
0-1
  6
CONTINUOUS
 62
     3
 10
7819.233200470946
 20
6291.1885390000007
 30
0.0
 11
7819.233200470946
 21
8152.2344180000064
 31
0.0
  0
LINE
  5
F852
  8
0-1
  6
CONTINUOUS
 62
     3
 10
7804.2343884709553
 20
6291.1885390000007
 30
0.0
 11
7804.2343884709553
 21
8152.2344180000064
 31
0.0
  0
LINE
  5
F853
  8
0-1
  6
CONTINUOUS
 62
     3
 10
7520.2338474709541
 20
6291.1885390000007
 30
0.0
 11
7520.2338474709541
 21
8152.2344180000064
 31
0.0
  0
LINE
  5
F854
  8
0-1
  6
CONTINUOUS
 62
     3
 10
7505.233055470947
 20
6291.1885390000007
 30
0.0
 11
7505.233055470947
 21
8152.2344180000064
 31
0.0
  0
LINE
  5
F855
  8
0-1
  6
CONTINUOUS
 62
     3
 10
7372.2341514709406
 20
6291.1885390000007
 30
0.0
 11
7372.2341514709406
 21
8152.2344180000064
 31
0.0
  0
LINE
  5
F856
  8
0-1
  6
CONTINUOUS
 62
     3
 10
7252.232765470947
 20
6291.1885390000007
 30
0.0
 11
7252.232765470947
 21
8152.2344180000064
 31
0.0
  0
LINE
  5
F857
  8
0-1
  6
CONTINUOUS
 62
     3
 10
7322.2354704709569
 20
6291.1885390000007
 30
0.0
 11
7322.2354704709569
 21
8152.2344180000064
 31
0.0
  0
LINE
  5
F858
  8
0-1
  6
CONTINUOUS
 62
     3
 10
7302.2344154709572
 20
6291.1885390000007
 30
0.0
 11
7302.2344154709572
 21
8152.2344180000064
 31
0.0
  0
LINE
  5
F859
  8
0-1
  6
CONTINUOUS
 62
     3
 10
8504.2327394709428
 20
6291.1885390000007
 30
0.0
 11
8504.2327394709428
 21
8152.2344180000064
 31
0.0
  0
LINE
  5
F85A
  8
0-1
  6
CONTINUOUS
 62
     3
 10
8519.2335304709577
 20
6291.1885390000007
 30
0.0
 11
8519.2335304709577
 21
8152.2344180000064
 31
0.0
  0
LINE
  5
F85B
  8
0-1
  6
CONTINUOUS
 62
     3
 10
8652.2344154709572
 20
6291.1885390000007
 30
0.0
 11
8652.2344154709572
 21
8152.2344180000064
 31
0.0
  0
LINE
  5
F85C
  8
0-1
  6
CONTINUOUS
 62
     3
 10
8920.2335174709515
 20
6291.1885390000007
 30
0.0
 11
8920.2335174709515
 21
8152.2344180000064
 31
0.0
  0
LINE
  5
F85D
  8
0-1
  6
CONTINUOUS
 62
     3
 10
8905.2347054709553
 20
6291.1885390000007
 30
0.0
 11
8905.2347054709553
 21
8152.2344180000064
 31
0.0
  0
LINE
  5
F85E
  8
0-1
  6
CONTINUOUS
 62
     3
 10
8772.2338214709453
 20
6291.1885390000007
 30
0.0
 11
8772.2338214709453
 21
8152.2344180000064
 31
0.0
  0
LINE
  5
F85F
  8
0-1
  6
CONTINUOUS
 62
     3
 10
8722.2341514709406
 20
6291.1885390000007
 30
0.0
 11
8722.2341514709406
 21
8152.2344180000064
 31
0.0
  0
LINE
  5
F860
  8
0-1
  6
CONTINUOUS
 62
     3
 10
8702.2350744709547
 20
6291.1885390000007
 30
0.0
 11
8702.2350744709547
 21
8152.2344180000064
 31
0.0
  0
LINE
  5
F861
  8
0-1
  6
CONTINUOUS
 62
     3
 10
9530.2340454709465
 20
6291.1885390000007
 30
0.0
 11
9530.2340454709465
 21
8152.2344180000064
 31
0.0
  0
LINE
  5
F862
  8
0-1
  6
CONTINUOUS
 62
     3
 10
9510.2349694709555
 20
6291.1885390000007
 30
0.0
 11
9510.2349694709555
 21
8152.2344180000064
 31
0.0
  0
LINE
  5
F863
  8
0-1
  6
CONTINUOUS
 62
     3
 10
9580.2347054709408
 20
6291.1885390000007
 30
0.0
 11
9580.2347054709408
 21
8152.2344180000064
 31
0.0
  0
LINE
  5
F864
  8
0-1
  6
CONTINUOUS
 62
     3
 10
9460.2343094709522
 20
6291.1885390000007
 30
0.0
 11
9460.2343094709522
 21
8152.2344180000064
 31
0.0
  0
LINE
  5
F865
  8
0-1
  6
CONTINUOUS
 62
     3
 10
9327.2344154709444
 20
6291.1885390000007
 30
0.0
 11
9327.2344154709444
 21
8152.2344180000064
 31
0.0
  0
LINE
  5
F866
  8
0-1
  6
CONTINUOUS
 62
     3
 10
9312.2326334709342
 20
6291.1885390000007
 30
0.0
 11
9312.2326334709342
 21
8152.2344180000064
 31
0.0
  0
LINE
  5
F867
  8
0-1
  6
CONTINUOUS
 62
     3
 10
9713.2345994709485
 20
6291.1885390000007
 30
0.0
 11
9713.2345994709485
 21
8152.2344180000064
 31
0.0
  0
LINE
  5
F868
  8
0-1
  6
CONTINUOUS
 62
     3
 10
9728.2334124709523
 20
6291.1885390000007
 30
0.0
 11
9728.2334124709523
 21
8152.2344180000064
 31
0.0
  0
LINE
  5
F869
  8
0-1
  6
CONTINUOUS
 62
     3
 10
10930.23470547095
 20
6291.1885390000007
 30
0.0
 11
10930.23470547095
 21
8152.2344180000064
 31
0.0
  0
LINE
  5
F86A
  8
0-1
  6
CONTINUOUS
 62
     3
 10
10910.233649470951
 20
6291.1885390000007
 30
0.0
 11
10910.233649470951
 21
8152.2344180000064
 31
0.0
  0
LINE
  5
F86B
  8
0-1
  6
CONTINUOUS
 62
     3
 10
10980.23338547096
 20
6291.1885390000007
 30
0.0
 11
10980.23338547096
 21
8152.2344180000064
 31
0.0
  0
LINE
  5
F86C
  8
0-1
  6
CONTINUOUS
 62
     3
 10
10860.234969470939
 20
6291.1885390000007
 30
0.0
 11
10860.234969470939
 21
8152.2344180000064
 31
0.0
  0
LINE
  5
F86D
  8
0-1
  6
CONTINUOUS
 62
     3
 10
10727.23408547094
 20
6291.1885390000007
 30
0.0
 11
10727.23408547094
 21
8152.2344180000064
 31
0.0
  0
LINE
  5
F86E
  8
0-1
  6
CONTINUOUS
 62
     3
 10
10712.23428347094
 20
6291.1885390000007
 30
0.0
 11
10712.23428347094
 21
8152.2344180000064
 31
0.0
  0
LINE
  5
F86F
  8
0-1
  6
CONTINUOUS
 62
     3
 10
11113.23229047096
 20
6291.1885390000007
 30
0.0
 11
11113.23229047096
 21
8152.2344180000064
 31
0.0
  0
LINE
  5
F870
  8
0-1
  6
CONTINUOUS
 62
     3
 10
11128.23407147095
 20
6291.1885390000007
 30
0.0
 11
11128.23407147095
 21
8152.2344180000064
 31
0.0
  0
LINE
  5
F871
  8
0-1
  6
CONTINUOUS
 62
     3
 10
10428.23473147095
 20
6291.1885390000007
 30
0.0
 11
10428.23473147095
 21
8152.2344180000064
 31
0.0
  0
LINE
  5
F872
  8
0-1
  6
CONTINUOUS
 62
     3
 10
10413.232950470951
 20
6291.1885390000007
 30
0.0
 11
10413.232950470951
 21
8152.2344180000064
 31
0.0
  0
LINE
  5
F873
  8
0-1
  6
CONTINUOUS
 62
     3
 10
10012.23494247095
 20
6291.1885390000007
 30
0.0
 11
10012.23494247095
 21
8152.2344180000064
 31
0.0
  0
LINE
  5
F874
  8
0-1
  6
CONTINUOUS
 62
     3
 10
10027.23375547093
 20
6291.1885390000007
 30
0.0
 11
10027.23375547093
 21
8152.2344180000064
 31
0.0
  0
LINE
  5
F875
  8
0-1
  6
CONTINUOUS
 62
     3
 10
10160.232659470959
 20
6291.1885390000007
 30
0.0
 11
10160.232659470959
 21
8152.2344180000064
 31
0.0
  0
LINE
  5
F876
  8
0-1
  6
CONTINUOUS
 62
     3
 10
10280.23404547095
 20
6291.1885390000007
 30
0.0
 11
10280.23404547095
 21
8152.2344180000064
 31
0.0
  0
LINE
  5
F877
  8
0-1
  6
CONTINUOUS
 62
     3
 10
10210.23430947093
 20
6291.1885390000007
 30
0.0
 11
10210.23430947093
 21
8152.2344180000064
 31
0.0
  0
LINE
  5
F878
  8
0-1
  6
CONTINUOUS
 62
     3
 10
10230.23338547095
 20
6291.1885390000007
 30
0.0
 11
10230.23338547095
 21
8152.2344180000064
 31
0.0
  0
LINE
  5
F879
  8
0-1
  6
CONTINUOUS
 62
     3
 10
9888.7347584709532
 20
8152.2344180000064
 30
0.0
 11
9888.7347584709532
 21
6291.1885390000007
 31
0.0
  0
LINE
  5
F87A
  8
0-1
  6
CONTINUOUS
 62
     3
 10
9851.7335964709491
 20
8152.2344180000064
 30
0.0
 11
9851.7335964709491
 21
6291.1885390000007
 31
0.0
  0
LINE
  5
F87B
  8
0-1
  6
CONTINUOUS
 62
     3
 10
11288.73244847095
 20
8152.2344180000064
 30
0.0
 11
11288.73244847095
 21
6291.1885390000007
 31
0.0
  0
LINE
  5
F87C
  8
0-1
  6
CONTINUOUS
 62
     3
 10
11251.733266470939
 20
8152.2344180000064
 30
0.0
 11
11251.733266470939
 21
6291.1885390000007
 31
0.0
  0
LINE
  5
F87D
  8
0-1
  6
CONTINUOUS
 62
     3
 10
10588.734098470941
 20
8152.2344180000064
 30
0.0
 11
10588.734098470941
 21
6291.1885390000007
 31
0.0
  0
LINE
  5
F87E
  8
0-1
  6
CONTINUOUS
 62
     3
 10
10551.733926470941
 20
8152.2344180000064
 30
0.0
 11
10551.733926470941
 21
6291.1885390000007
 31
0.0
  0
LINE
  5
F88E
  8
0-1
  6
CONTINUOUS
 62
     3
 10
11738.73357047094
 20
6241.1883740000021
 30
0.0
 11
11738.73357047094
 21
6141.1885390000007
 31
0.0
  0
LINE
  5
F88F
  8
0-1
  6
CONTINUOUS
 62
     3
 10
11706.232779470931
 20
8455.5174490000027
 30
0.0
 11
11706.232779470931
 21
6241.1883740000021
 31
0.0
  0
LINE
  5
F890
  8
0-1
  6
CONTINUOUS
 62
     3
 10
11726.23357047094
 20
8456.0984379999973
 30
0.0
 11
11726.23357047094
 21
6241.1883740000021
 31
0.0
  0
LINE
  5
F891
  8
0-1
  6
CONTINUOUS
 62
     3
 10
9116.2335704709403
 20
8356.9898809999977
 30
0.0
 11
9116.2335704709403
 21
8152.2344180000064
 31
0.0
  0
LINE
  5
F892
  8
0-1
  6
CONTINUOUS
 62
     3
 10
9043.7337024709577
 20
8152.2344180000064
 30
0.0
 11
9043.7337024709577
 21
6241.1883740000021
 31
0.0
  0
LINE
  5
F893
  8
0-1
  6
CONTINUOUS
 62
     3
 10
9188.7324484709425
 20
8152.2344180000064
 30
0.0
 11
9188.7324484709425
 21
6241.1883740000021
 31
0.0
  0
LINE
  5
F894
  8
0-1
  6
CONTINUOUS
 62
     3
 10
9188.7324484709425
 20
6291.1885390000007
 30
0.0
 11
11611.23370247093
 21
6291.1885390000007
 31
0.0
  0
LINE
  5
F8B4
  8
0-1
  6
CONTINUOUS
 62
     3
 10
6498.7335704709412
 20
6141.1885390000007
 30
0.0
 11
6498.7335704709412
 21
6241.1883740000021
 31
0.0
  0
LINE
  5
F8B5
  8
0-1
  6
CONTINUOUS
 62
     3
 10
6526.2333724709461
 20
8268.990877000002
 30
0.0
 11
6526.2333724709461
 21
6241.1883740000021
 31
0.0
  0
LINE
  5
F8B6
  8
0-1
  6
CONTINUOUS
 62
     3
 10
6506.2335704709376
 20
8268.3741496838102
 30
0.0
 11
6506.2335704709376
 21
6241.1883740000021
 31
0.0
  0
LINE
  5
F8B7
  8
0-1
  6
CONTINUOUS
 62
     3
 10
6498.7335704709412
 20
6241.1883740000021
 30
0.0
 11
11738.73357047094
 21
6241.1883740000021
 31
0.0
  0
LINE
  5
F8B8
  8
0-1
  6
CONTINUOUS
 62
     3
 10
6621.2324494709464
 20
6291.1885390000007
 30
0.0
 11
9043.7337024709577
 21
6291.1885390000007
 31
0.0
  0
LINE
  5
F8B9
  8
0-1
  6
CONTINUOUS
 62
     3
 10
5816.2325154709397
 20
6141.1885390000007
 30
0.0
 11
11738.73357047094
 21
6141.1885390000007
 31
0.0
  0
LINE
  5
F8BA
  8
0-1
  6
CONTINUOUS
 62
     3
 10
6526.2333724709461
 20
8152.2344180000064
 30
0.0
 11
11706.232779470931
 21
8152.2344180000064
 31
0.0
  0
LINE
  5
F8CC
  8
0-1
  6
CONTINUOUS
 62
     3
 10
6331.9317464709457
 20
8303.1736990000027
 30
0.0
 11
11811.92323547094
 21
8498.6897600000066
 31
0.0
  0
LINE
  5
F8CD
  8
0-1
  6
CONTINUOUS
 62
     3
 10
11810.422760470939
 20
8548.6686450000016
 30
0.0
 11
6330.432261470939
 21
8353.151595000003
 31
0.0
  0
LINE
  5
F8CE
  8
0-1
  6
CONTINUOUS
 62
     3
 10
6327.3422334709458
 20
8356.0604969999968
 30
0.0
 11
6326.3821664709376
 21
8388.0460529999982
 31
0.0
  0
LINE
  5
F8CF
  8
0-1
  6
CONTINUOUS
 62
     3
 10
6331.2309974709488
 20
8393.1932959999976
 30
0.0
 11
11830.19221247094
 21
8589.2804480000032
 31
0.0
  0
LINE
  5
F8D0
  8
0-1
  6
CONTINUOUS
 62
     3
 10
11834.09681247094
 20
8459.338910000004
 30
0.0
 11
6335.1316384709498
 21
8263.2522529999969
 31
0.0
  0
LINE
  5
F8D1
  8
0-1
  6
CONTINUOUS
 62
     3
 10
6329.9839004709484
 20
8268.099599000001
 30
0.0
 11
6329.0248234709443
 21
8300.0856499999973
 31
0.0
  0
LINE
  5
F8D2
  8
0-1
  6
CONTINUOUS
 62
     3
 10
6328.6932544709407
 20
8311.0803909999977
 30
0.0
 11
6327.6728124709489
 21
8345.0647660000086
 31
0.0
  0
LINE
  5
F8D3
  8
0-1
  6
CONTINUOUS
 62
     3
 10
6330.5817154709521
 20
8348.1538049999999
 30
0.0
 11
11810.57419347094
 21
8543.6713500000023
 31
0.0
  0
LINE
  5
F8D4
  8
0-1
  6
CONTINUOUS
 62
     3
 10
11811.77378147094
 20
8503.6880440000004
 30
0.0
 11
6331.7832834709398
 21
8308.1719839999969
 31
0.0
  0
LINE
  5
F8D5
  8
0-1
  6
CONTINUOUS
 62
     3
 10
9116.2335704709403
 20
8356.9898809999977
 30
0.0
 11
9112.3309494709574
 21
8486.9314189999968
 31
0.0
  0
LINE
  5
F8D6
  8
0-1
  6
CONTINUOUS
 62
     3
 10
11801.129910470931
 20
8458.3481610000017
 30
0.0
 11
11797.228279470941
 21
8588.2896989999972
 31
0.0
  0
LINE
  5
F8D7
  8
0-1
  6
CONTINUOUS
 62
     3
 10
6343.7237394709446
 20
8393.5684149999979
 30
0.0
 11
6347.6263604709457
 21
8263.6273720000008
 31
0.0
  0
LINE
  5
F8DB
  8
0-5
  6
CONTINUOUS
 62
     4
 10
17551.63707258517
 20
6349.0350210000024
 30
0.0
 11
17671.635488585162
 21
6141.1885390000007
 31
0.0
  0
LINE
  5
F8DC
  8
0-5
  6
CONTINUOUS
 62
     4
 10
13443.818558470941
 20
6241.1883740000021
 30
0.0
 11
13563.81895447094
 21
6449.0353509999959
 31
0.0
  0
LINE
  5
F8DD
  8
0-5
  6
CONTINUOUS
 62
     4
 10
13323.82014147094
 20
6449.0353509999959
 30
0.0
 11
13443.818558470941
 21
6241.1883740000021
 31
0.0
  0
LINE
  5
F8DE
  8
0-5
  6
CONTINUOUS
 62
     4
 10
13563.81895447094
 20
6449.0353509999959
 30
0.0
 11
13323.82014147094
 21
6449.0353509999959
 31
0.0
  0
LINE
  5
F8DF
  8
0-5
  6
CONTINUOUS
 62
     4
 10
11818.73086547094
 20
6241.1883740000021
 30
0.0
 11
13536.19675147093
 21
6241.1883740000021
 31
0.0
  0
LINE
  5
F8E0
  8
0-5
  6
CONTINUOUS
 62
     4
 10
11818.73086547094
 20
6141.1885390000007
 30
0.0
 11
19643.509169585159
 21
6141.1885390000007
 31
0.0
  0
LINE
  5
F8E1
  8
0-5
  6
CONTINUOUS
 62
     4
 10
17671.635488585162
 20
6141.1885390000007
 30
0.0
 11
17791.635884585161
 21
6349.0350210000024
 31
0.0
  0
LINE
  5
F8E2
  8
0-5
  6
CONTINUOUS
 62
     4
 10
17791.635884585161
 20
6349.0350210000024
 30
0.0
 11
17551.63707258517
 21
6349.0350210000024
 31
0.0
  0
LINE
  5
F8E4
  8
0-5
  6
CONTINUOUS
 62
     4
 10
11683.733570470929
 20
4461.1889349999938
 30
0.0
 11
11683.733570470929
 21
4301.1893970000001
 31
0.0
  0
LINE
  5
F8E5
  8
0-5
  6
CONTINUOUS
 62
     4
 10
9116.2335704709403
 20
4461.1889349999938
 30
0.0
 11
9116.2335704709403
 21
4301.1893970000001
 31
0.0
  0
LINE
  5
F8E6
  8
0-5
  6
CONTINUOUS
 62
     4
 10
6548.7335704709412
 20
4461.1889349999938
 30
0.0
 11
6548.7335704709412
 21
4301.1893970000001
 31
0.0
  0
LINE
  5
F8E9
  8
2-0
  6
CENTER2
 62
     6
 10
11683.733570470929
 20
5878.536116000002
 30
0.0
 11
11683.733570470929
 21
6935.6787139999988
 31
0.0
  0
LINE
  5
F8EA
  8
2-0
  6
CENTER2
 62
     6
 10
9116.2335704709403
 20
5878.536116000002
 30
0.0
 11
9116.2335704709403
 21
6935.6787139999988
 31
0.0
  0
LINE
  5
F8EB
  8
2-0
  6
CENTER2
 62
     6
 10
6548.7335704709412
 20
5878.536116000002
 30
0.0
 11
6548.7335704709412
 21
6935.6787139999988
 31
0.0
  0
ARC
  5
F8F4
  8
0-1
  6
CONTINUOUS
 62
     3
 10
11811.17299747094
 20
8523.680191999998
 30
0.0
 40
24.999998999999999
 50
271.71998600002598
 51
91.719986000025997
  0
ARC
  5
F8F5
  8
0-1
  6
CONTINUOUS
 62
     3
 10
6330.3421934709459
 20
8356.1505650000017
 30
0.0
 40
3.0
 50
181.71998600001371
 51
271.71998600002598
  0
ARC
  5
F8F6
  8
0-1
  6
CONTINUOUS
 62
     3
 10
6331.3794614709477
 20
8388.1955070000022
 30
0.0
 40
5.0
 50
91.719986000025997
 51
181.71998600001371
  0
ARC
  5
F8F7
  8
0-1
  6
CONTINUOUS
 62
     3
 10
11806.17570347093
 20
8523.5297490000066
 30
0.0
 40
69.999999000000003
 50
293.50677499978701
 51
69.933196999905391
  0
ARC
  5
F8F8
  8
0-1
  6
CONTINUOUS
 62
     3
 10
6334.9831744709518
 20
8268.2500430000073
 30
0.0
 40
5.0
 50
181.71998600001371
 51
271.71998600002598
  0
ARC
  5
F8F9
  8
0-1
  6
CONTINUOUS
 62
     3
 10
6332.0218154709437
 20
8300.1752229999984
 30
0.0
 40
3.0
 50
91.719986000025997
 51
181.71998600001371
  0
ARC
  5
F8FA
  8
0-1
  6
CONTINUOUS
 62
     3
 10
6332.0059784709447
 20
8350.697981000003
 30
0.0
 40
2.5
 50
271.71998600002598
 51
91.719986000025997
  0
ARC
  5
F8FB
  8
0-1
  6
CONTINUOUS
 62
     3
 10
6333.3560104709459
 20
8305.7178750000003
 30
0.0
 40
2.5
 50
271.71998600002598
 51
91.719986000025997
  0
ARC
  5
F8FC
  8
0-1
  6
CONTINUOUS
 62
     3
 10
6330.6717834709416
 20
8345.1553289999974
 30
0.0
 40
3.0
 50
91.719986000025997
 51
181.71998600001371
  0
ARC
  5
F8FD
  8
0-1
  6
CONTINUOUS
 62
     3
 10
11811.17299747094
 20
8523.680191999998
 30
0.0
 40
20.0
 50
271.71998600002598
 51
91.719986000025997
  0
ARC
  5
F8FE
  8
0-1
  6
CONTINUOUS
 62
     3
 10
6331.6922254709416
 20
8311.1699640000006
 30
0.0
 40
3.0
 50
181.71998600001371
 51
271.71998600002598
  0
CIRCLE
  5
F900
  8
0-5
  6
CONTINUOUS
 62
     4
 10
9116.2335704709403
 20
4101.1882420000011
 30
0.0
 40
199.9999949999999
  0
CIRCLE
  5
F901
  8
0-5
  6
CONTINUOUS
 62
     4
 10
11683.733570470929
 20
4101.1882420000011
 30
0.0
 40
199.9999949999999
  0
CIRCLE
  5
F903
  8
0-5
  6
CONTINUOUS
 62
     4
 10
6548.7335704709412
 20
4101.1882420000011
 30
0.0
 40
199.9999949999999
  0
TEXT
  5
F906
  8
0-5
  6
CONTINUOUS
 62
     7
 10
12984.726629470941
 20
6529.0346249999966
 30
0.0
 40
160.0
  1
布基礎天端
 72
     4
 11
13443.39329613761
 21
6609.0346249999984
 31
0.0
  0
TEXT
  5
F907
  8
0-5
  6
CONTINUOUS
 62
     7
 10
17551.63707258517
 20
6429.0347900000024
 30
0.0
 40
160.0
  1
G.L
 72
     4
 11
17711.63707258517
 21
6509.0347900000043
 31
0.0
  0
TEXT
  5
F909
  8
0-5
  6
CONTINUOUS
 62
     7
 10
11636.777410470941
 20
4017.9774460000021
 30
0.0
 40
160.0
  1
A
 72
     4
 11
11690.11074380428
 21
4097.9774460000026
 31
0.0
  0
TEXT
  5
F90A
  8
0-5
  6
CONTINUOUS
 62
     7
 10
9069.2774104709424
 20
4017.9774460000021
 30
0.0
 40
160.0
  1
B
 72
     4
 11
9122.6107438042745
 21
4097.9774460000026
 31
0.0
  0
TEXT
  5
F90B
  8
0-5
  6
CONTINUOUS
 62
     7
 10
6501.7774104709488
 20
4017.9774460000021
 30
0.0
 40
160.0
  1
C
 72
     4
 11
6555.1107438042818
 21
4097.9774460000026
 31
0.0
  0
LINE
  5
F919
  8
SUNPOU
  6
CONTINUOUS
 10
6326.2335704709403
 20
9389.1900500000029
 30
0.0
 11
5821.445700577533
 21
9389.1900500000029
 31
0.0
  0
LINE
  5
FC7E
  8
0-1
  6
CONTINUOUS
 62
     3
 10
6980.73090447094
 20
8152.2344180000036
 30
0.0
 11
6980.73090447094
 21
6291.1885389999989
 31
0.0
  0
LINE
  5
FC7F
  8
0-1
  6
CONTINUOUS
 62
     3
 10
6943.7327124709409
 20
8152.2344180000036
 30
0.0
 11
6943.7327124709409
 21
6291.1885389999989
 31
0.0
  0
LINE
  5
FC80
  8
0-1
  6
CONTINUOUS
 62
     3
 10
6805.2317354709367
 20
6291.1885389999989
 30
0.0
 11
6805.2317354709367
 21
8152.2344180000036
 31
0.0
  0
LINE
  5
FC81
  8
0-1
  6
CONTINUOUS
 62
     3
 10
6820.2315374709506
 20
6291.1885389999989
 30
0.0
 11
6820.2315374709506
 21
8152.2344180000036
 31
0.0
  0
LINE
  5
FC82
  8
0-1
  6
CONTINUOUS
 62
     3
 10
7104.2310894709426
 20
6291.1885389999989
 30
0.0
 11
7104.2310894709426
 21
8152.2344180000036
 31
0.0
  0
LINE
  5
FC83
  8
0-1
  6
CONTINUOUS
 62
     3
 10
7119.2318804709503
 20
6291.1885389999989
 30
0.0
 11
7119.2318804709503
 21
8152.2344180000036
 31
0.0
  0
LINE
  5
FC84
  8
0-1
  6
CONTINUOUS
 62
     3
 10
6621.2324494709464
 20
8152.2344180000064
 30
0.0
 11
6621.2324494709464
 21
6241.1883740000021
 31
0.0
  0
LINE
  5
FC85
  8
0-1
  6
CONTINUOUS
 62
     3
 10
11611.23370247093
 20
8152.2344180000064
 30
0.0
 11
11611.23370247093
 21
6241.1883740000021
 31
0.0
  0
LINE
  5
FC86
  8
0-1
  6
CONTINUOUS
 62
     3
 10
11427.232435470951
 20
6291.1885390000007
 30
0.0
 11
11427.232435470951
 21
8152.2344180000064
 31
0.0
  0
LINE
  5
FC87
  8
0-1
  6
CONTINUOUS
 62
     3
 10
11412.232633470951
 20
6291.1885390000007
 30
0.0
 11
11412.232633470951
 21
8152.2344180000064
 31
0.0
  0
LINE
  5
FCA4
  8
WAKUSEN-01
 10
868.00000000000193
 20
22484.000000000011
 30
0.0
 11
32764.000000000011
 21
22484.000000000011
 31
0.0
  0
LINE
  5
FCA7
  8
WAKUSEN-01
 10
20560.0
 20
2484.0
 30
0.0
 11
32764.0
 21
2484.0
 31
0.0
  0
LINE
  5
FCA8
  8
WAKUSEN-02
 10
20560.0
 20
1655.9999999999991
 30
0.0
 11
26868.0
 21
1655.9999999999991
 31
0.0
  0
TEXT
  5
FCA9
  8
WAKUMOJI-01
 10
20670.260259962761
 20
2125.9030093393221
 30
0.0
 40
240.0
  1
名　称
  7
WAKUMOJI
  0
TEXT
  5
FCAA
  8
WAKUMOJI-01
 10
20656.505485091919
 20
1319.12897497982
 30
0.0
 40
240.0
  1
機種名
  7
WAKUMOJI
  0
LINE
  5
FCAD
  8
YODOROGO
 10
29977.604341291921
 20
1995.7494964292871
 30
0.0
 11
29829.604341291921
 21
1995.7494964292871
 31
0.0
1001
AUTOCAD_POSTSCRIPT_FIGURE
1002
{
1000
PSFILL
1000
Grayscale
1000
Grayscale
1070
    25
1002
}
  0
LINE
  5
FCAE
  8
YODOROGO
 10
29829.604341291921
 20
1947.749496429288
 30
0.0
 11
29977.604341291921
 21
1947.749496429288
 31
0.0
1001
AUTOCAD_POSTSCRIPT_FIGURE
1002
{
1000
PSFILL
1000
Grayscale
1000
Grayscale
1070
    25
1002
}
  0
LINE
  5
FCAF
  8
YODOROGO
 10
29977.604341291921
 20
1907.7494964292871
 30
0.0
 11
29829.604341291921
 21
1907.7494964292871
 31
0.0
1001
AUTOCAD_POSTSCRIPT_FIGURE
1002
{
1000
PSFILL
1000
Grayscale
1000
Grayscale
1070
    25
1002
}
  0
LINE
  5
FCB0
  8
YODOROGO
 10
29829.604341291921
 20
1859.749496429288
 30
0.0
 11
29977.604341291921
 21
1859.749496429288
 31
0.0
1001
AUTOCAD_POSTSCRIPT_FIGURE
1002
{
1000
PSFILL
1000
Grayscale
1000
Grayscale
1070
    25
1002
}
  0
LINE
  5
FCB1
  8
YODOROGO
 10
29977.604341291921
 20
1819.7494964292871
 30
0.0
 11
29829.604341291921
 21
1819.7494964292871
 31
0.0
1001
AUTOCAD_POSTSCRIPT_FIGURE
1002
{
1000
PSFILL
1000
Grayscale
1000
Grayscale
1070
    25
1002
}
  0
LINE
  5
FCB2
  8
YODOROGO
 10
29921.60434129191
 20
1707.749496429288
 30
0.0
 11
29977.604341291921
 21
1707.749496429288
 31
0.0
1001
AUTOCAD_POSTSCRIPT_FIGURE
1002
{
1000
PSFILL
1000
Grayscale
1000
Grayscale
1070
    25
1002
}
  0
LINE
  5
FCB3
  8
YODOROGO
 10
29737.604341291921
 20
1427.749496429288
 30
0.0
 11
29937.604341291932
 21
1481.3393349155101
 31
0.0
  0
LINE
  5
FCB4
  8
YODOROGO
 10
29949.60434129191
 20
1707.749496429288
 30
0.0
 11
29885.604341291921
 21
1707.749496429288
 31
0.0
  0
ARC
  5
FCB5
  8
YODOROGO
 10
30254.34774982791
 20
1807.864609233261
 30
0.0
 40
381.88686420564721
 50
213.96111677667841
 51
264.47872074317792
  0
ARC
  5
FCB6
  8
YODOROGO
 10
30254.347749827921
 20
1807.864609233302
 30
0.0
 40
381.8868642056816
 50
208.14114420486601
 51
212.9210361185994
  0
LINE
  5
FCB7
  8
YODOROGO
 10
29771.409872985321
 20
1556.807661346234
 30
0.0
 11
29933.78413250855
 21
1600.3157130570869
 31
0.0
  0
LINE
  5
FCB8
  8
YODOROGO
 10
29737.604341291921
 20
1427.749496429288
 30
0.0
 11
29937.604341291932
 21
1481.3393349155101
 31
0.0
  0
LINE
  5
FCB9
  8
YODOROGO
 10
29949.60434129191
 20
1707.749496429288
 30
0.0
 11
29885.604341291921
 21
1707.749496429288
 31
0.0
  0
ARC
  5
FCBA
  8
YODOROGO
 10
30254.34774982791
 20
1807.864609233261
 30
0.0
 40
381.88686420564721
 50
213.96111677667841
 51
264.47872074317792
  0
LINE
  5
FCBB
  8
YODOROGO
 10
28793.60434129191
 20
1819.7494964292871
 30
0.0
 11
28433.60434129191
 21
1819.7494964292871
 31
0.0
  0
LINE
  5
FCBC
  8
YODOROGO
 10
28513.60434129191
 20
1427.749496429288
 30
0.0
 11
28793.60434129191
 21
1427.749496429288
 31
0.0
  0
LINE
  5
FCBD
  8
YODOROGO
 10
28729.604341291921
 20
1923.7494964292871
 30
0.0
 11
28497.60434129191
 21
1923.7494964292871
 31
0.0
  0
LINE
  5
FCBE
  8
YODOROGO
 10
28585.604341291921
 20
2027.749496429288
 30
0.0
 11
28657.604341291921
 21
2027.749496429288
 31
0.0
  0
LINE
  5
FCBF
  8
YODOROGO
 10
28433.60434129191
 20
1707.749496429288
 30
0.0
 11
28433.60434129191
 21
1507.749496429288
 31
0.0
  0
LINE
  5
FCC0
  8
YODOROGO
 10
28497.60434129191
 20
1563.7494964292871
 30
0.0
 11
28497.60434129191
 21
1707.749496429288
 31
0.0
  0
LINE
  5
FCC1
  8
YODOROGO
 10
28585.604341291921
 20
1747.74949642929
 30
0.0
 11
28585.604341291921
 21
1547.749496429288
 31
0.0
  0
LINE
  5
FCC2
  8
YODOROGO
 10
27857.604341291921
 20
1683.749496429288
 30
0.0
 11
27777.604341291921
 21
1619.9724140445701
 31
0.0
  0
LINE
  5
FCC3
  8
YODOROGO
 10
27937.604341291921
 20
1619.9724140445701
 30
0.0
 11
27857.604341291921
 21
1683.749496429288
 31
0.0
  0
LINE
  5
FCC4
  8
YODOROGO
 10
27857.604341291921
 20
1707.749496429288
 30
0.0
 11
27937.604341291921
 21
1643.9724140445701
 31
0.0
  0
LINE
  5
FCC5
  8
YODOROGO
 10
27777.604341291921
 20
1643.9724140445701
 30
0.0
 11
27857.604341291921
 21
1707.749496429288
 31
0.0
  0
LINE
  5
FCC6
  8
YODOROGO
 10
28040.913204016892
 20
1659.749496429288
 30
0.0
 11
28040.913204016892
 21
1683.7494964292871
 31
0.0
  0
LINE
  5
FCC7
  8
YODOROGO
 10
27977.604341291921
 20
1683.7494964292871
 30
0.0
 11
27977.604341291921
 21
1667.749496429285
 31
0.0
  0
LINE
  5
FCC8
  8
YODOROGO
 10
28098.135520230931
 20
1707.749496429288
 30
0.0
 11
28098.135520230931
 21
1655.5036372746561
 31
0.0
1001
AUTOCAD_POSTSCRIPT_FIGURE
1002
{
1000
PSFILL
1000
Grayscale
1000
Grayscale
1070
   100
1002
}
  0
LINE
  5
FCC9
  8
YODOROGO
 10
28082.135520230921
 20
1655.5036372746561
 30
0.0
 11
28082.135520230921
 21
1707.749496429288
 31
0.0
1001
AUTOCAD_POSTSCRIPT_FIGURE
1002
{
1000
PSFILL
1000
Grayscale
1000
Grayscale
1070
   100
1002
}
  0
LINE
  5
FCCA
  8
YODOROGO
 10
27809.604341291921
 20
1608.771904043258
 30
0.0
 11
27809.604341291921
 21
1632.771904043258
 31
0.0
  0
LINE
  5
FCCB
  8
YODOROGO
 10
27905.604341291921
 20
1608.771904043258
 30
0.0
 11
27809.604341291921
 21
1608.771904043258
 31
0.0
  0
LINE
  5
FCCC
  8
YODOROGO
 10
27905.604341291921
 20
1632.771904043258
 30
0.0
 11
27905.604341291921
 21
1608.771904043258
 31
0.0
  0
LINE
  5
FCCD
  8
YODOROGO
 10
27809.604341291921
 20
1632.771904043258
 30
0.0
 11
27905.604341291921
 21
1632.771904043258
 31
0.0
  0
LINE
  5
FCCE
  8
YODOROGO
 10
27824.509588915738
 20
1568.5028573704751
 30
0.0
 11
27785.604341291921
 21
1475.7494964292871
 31
0.0
1001
AUTOCAD_POSTSCRIPT_FIGURE
1002
{
1000
PSFILL
1000
Grayscale
1000
Grayscale
1070
   100
1002
}
  0
LINE
  5
FCCF
  8
YODOROGO
 10
27777.604341291921
 20
1568.5028573704751
 30
0.0
 11
27824.509588915738
 21
1568.5028573704751
 31
0.0
1001
AUTOCAD_POSTSCRIPT_FIGURE
1002
{
1000
PSFILL
1000
Grayscale
1000
Grayscale
1070
   100
1002
}
  0
LINE
  5
FCD0
  8
YODOROGO
 10
27777.604341291921
 20
1588.5028573704751
 30
0.0
 11
27777.604341291921
 21
1568.5028573704751
 31
0.0
1001
AUTOCAD_POSTSCRIPT_FIGURE
1002
{
1000
PSFILL
1000
Grayscale
1000
Grayscale
1070
   100
1002
}
  0
LINE
  5
FCD1
  8
YODOROGO
 10
27937.604341291921
 20
1588.5028573704751
 30
0.0
 11
27777.604341291921
 21
1588.5028573704751
 31
0.0
1001
AUTOCAD_POSTSCRIPT_FIGURE
1002
{
1000
PSFILL
1000
Grayscale
1000
Grayscale
1070
   100
1002
}
  0
LINE
  5
FCD2
  8
YODOROGO
 10
27937.604341291921
 20
1568.5028573704751
 30
0.0
 11
27937.604341291921
 21
1588.5028573704751
 31
0.0
1001
AUTOCAD_POSTSCRIPT_FIGURE
1002
{
1000
PSFILL
1000
Grayscale
1000
Grayscale
1070
   100
1002
}
  0
LINE
  5
FCD3
  8
YODOROGO
 10
27844.509588915738
 20
1568.5028573704751
 30
0.0
 11
27937.604341291921
 21
1568.5028573704751
 31
0.0
1001
AUTOCAD_POSTSCRIPT_FIGURE
1002
{
1000
PSFILL
1000
Grayscale
1000
Grayscale
1070
   100
1002
}
  0
LINE
  5
FCD4
  8
YODOROGO
 10
27815.546718284771
 20
1495.7494964292871
 30
0.0
 11
27844.509588915738
 21
1568.5028573704751
 31
0.0
1001
AUTOCAD_POSTSCRIPT_FIGURE
1002
{
1000
PSFILL
1000
Grayscale
1000
Grayscale
1070
   100
1002
}
  0
LINE
  5
FCD5
  8
YODOROGO
 10
27902.054790808648
 20
1495.7494964292871
 30
0.0
 11
27815.546718284771
 21
1495.7494964292871
 31
0.0
1001
AUTOCAD_POSTSCRIPT_FIGURE
1002
{
1000
PSFILL
1000
Grayscale
1000
Grayscale
1070
   100
1002
}
  0
LINE
  5
FCD6
  8
YODOROGO
 10
27885.065004790951
 20
1536.2338106976929
 30
0.0
 11
27902.054790808648
 21
1495.7494964292871
 31
0.0
1001
AUTOCAD_POSTSCRIPT_FIGURE
1002
{
1000
PSFILL
1000
Grayscale
1000
Grayscale
1070
   100
1002
}
  0
LINE
  5
FCD7
  8
YODOROGO
 10
27901.065004790951
 20
1536.2338106976929
 30
0.0
 11
27885.065004790951
 21
1536.2338106976929
 31
0.0
1001
AUTOCAD_POSTSCRIPT_FIGURE
1002
{
1000
PSFILL
1000
Grayscale
1000
Grayscale
1070
   100
1002
}
  0
LINE
  5
FCD8
  8
YODOROGO
 10
27929.604341291921
 20
1475.7494964292871
 30
0.0
 11
27901.065004790951
 21
1536.2338106976929
 31
0.0
1001
AUTOCAD_POSTSCRIPT_FIGURE
1002
{
1000
PSFILL
1000
Grayscale
1000
Grayscale
1070
   100
1002
}
  0
LINE
  5
FCD9
  8
YODOROGO
 10
27785.604341291921
 20
1475.7494964292871
 30
0.0
 11
27929.604341291921
 21
1475.7494964292871
 31
0.0
1001
AUTOCAD_POSTSCRIPT_FIGURE
1002
{
1000
PSFILL
1000
Grayscale
1000
Grayscale
1070
   100
1002
}
  0
LINE
  5
FCDA
  8
YODOROGO
 10
27777.604341291921
 20
1619.9724140445701
 30
0.0
 11
27777.604341291921
 21
1643.9724140445701
 31
0.0
  0
LINE
  5
FCDB
  8
YODOROGO
 10
27937.604341291921
 20
1643.9724140445701
 30
0.0
 11
27937.604341291921
 21
1619.9724140445701
 31
0.0
  0
ARC
  5
FCDC
  8
YODOROGO
 10
28225.940442146959
 20
1600.877765325326
 30
0.0
 40
175.9999999999998
 50
280.3644312771313
 51
3.5414836592180561
  0
ARC
  5
FCDD
  8
YODOROGO
 10
28235.756030759301
 20
1633.5978069619041
 30
0.0
 40
111.9999999999982
 50
281.24905825041549
 51
348.75094174958321
  0
LINE
  5
FCDE
  8
YODOROGO
 10
28257.604341291921
 20
1523.7494964292871
 30
0.0
 11
28257.604341291921
 21
1427.749496429288
 31
0.0
  0
LINE
  5
FCDF
  8
YODOROGO
 10
28020.088903736909
 20
1610.650565061914
 30
0.0
 11
28040.913204016892
 21
1659.749496429288
 31
0.0
  0
LINE
  5
FCE0
  8
YODOROGO
 10
28041.604341291921
 20
1583.120489948401
 30
0.0
 11
28020.088903736909
 21
1610.650565061914
 31
0.0
  0
LINE
  5
FCE1
  8
YODOROGO
 10
28041.604341291921
 20
1563.120489948398
 30
0.0
 11
28041.604341291921
 21
1583.120489948401
 31
0.0
  0
LINE
  5
FCE2
  8
YODOROGO
 10
28017.604341291921
 20
1585.2370637495301
 30
0.0
 11
28041.604341291921
 21
1563.120489948398
 31
0.0
  0
LINE
  5
FCE3
  8
YODOROGO
 10
28017.604341291921
 20
1475.7494964292871
 30
0.0
 11
28017.604341291921
 21
1585.2370637495301
 31
0.0
  0
LINE
  5
FCE4
  8
YODOROGO
 10
28001.604341291921
 20
1475.7494964292871
 30
0.0
 11
28017.604341291921
 21
1475.7494964292871
 31
0.0
  0
LINE
  5
FCE5
  8
YODOROGO
 10
28001.604341291921
 20
1580.0053496897469
 30
0.0
 11
28001.604341291921
 21
1475.7494964292871
 31
0.0
  0
LINE
  5
FCE6
  8
YODOROGO
 10
27977.604341291921
 20
1532.7680790334291
 30
0.0
 11
28001.604341291921
 21
1580.0053496897469
 31
0.0
  0
LINE
  5
FCE7
  8
YODOROGO
 10
27977.604341291921
 20
1556.76807903343
 30
0.0
 11
27977.604341291921
 21
1532.7680790334291
 31
0.0
  0
LINE
  5
FCE8
  8
YODOROGO
 10
28025.828774291349
 20
1667.749496429285
 30
0.0
 11
27977.604341291921
 21
1556.76807903343
 31
0.0
  0
LINE
  5
FCE9
  8
YODOROGO
 10
27977.604341291921
 20
1667.749496429285
 30
0.0
 11
28025.828774291349
 21
1667.749496429285
 31
0.0
  0
LINE
  5
FCEA
  8
YODOROGO
 10
28050.135520230899
 20
1655.5036372746561
 30
0.0
 11
28082.135520230921
 21
1655.5036372746561
 31
0.0
1001
AUTOCAD_POSTSCRIPT_FIGURE
1002
{
1000
PSFILL
1000
Grayscale
1000
Grayscale
1070
   100
1002
}
  0
LINE
  5
FCEB
  8
YODOROGO
 10
28050.135520230899
 20
1631.5036372746561
 30
0.0
 11
28050.135520230899
 21
1655.5036372746561
 31
0.0
1001
AUTOCAD_POSTSCRIPT_FIGURE
1002
{
1000
PSFILL
1000
Grayscale
1000
Grayscale
1070
   100
1002
}
  0
LINE
  5
FCEC
  8
YODOROGO
 10
28082.135520230921
 20
1631.5036372746561
 30
0.0
 11
28050.135520230899
 21
1631.5036372746561
 31
0.0
1001
AUTOCAD_POSTSCRIPT_FIGURE
1002
{
1000
PSFILL
1000
Grayscale
1000
Grayscale
1070
   100
1002
}
  0
LINE
  5
FCED
  8
YODOROGO
 10
28082.135520230921
 20
1499.749496429288
 30
0.0
 11
28082.135520230921
 21
1631.5036372746561
 31
0.0
1001
AUTOCAD_POSTSCRIPT_FIGURE
1002
{
1000
PSFILL
1000
Grayscale
1000
Grayscale
1070
   100
1002
}
  0
LINE
  5
FCEE
  8
YODOROGO
 10
28050.135520230921
 20
1499.749496429288
 30
0.0
 11
28082.135520230921
 21
1499.749496429288
 31
0.0
1001
AUTOCAD_POSTSCRIPT_FIGURE
1002
{
1000
PSFILL
1000
Grayscale
1000
Grayscale
1070
   100
1002
}
  0
LINE
  5
FCEF
  8
YODOROGO
 10
28050.135520230921
 20
1475.7494964292871
 30
0.0
 11
28050.135520230921
 21
1499.749496429288
 31
0.0
1001
AUTOCAD_POSTSCRIPT_FIGURE
1002
{
1000
PSFILL
1000
Grayscale
1000
Grayscale
1070
   100
1002
}
  0
LINE
  5
FCF0
  8
YODOROGO
 10
28137.604341291921
 20
1475.7494964292871
 30
0.0
 11
28050.135520230921
 21
1475.7494964292871
 31
0.0
1001
AUTOCAD_POSTSCRIPT_FIGURE
1002
{
1000
PSFILL
1000
Grayscale
1000
Grayscale
1070
   100
1002
}
  0
LINE
  5
FCF1
  8
YODOROGO
 10
28137.604341291921
 20
1499.749496429288
 30
0.0
 11
28137.604341291921
 21
1475.7494964292871
 31
0.0
1001
AUTOCAD_POSTSCRIPT_FIGURE
1002
{
1000
PSFILL
1000
Grayscale
1000
Grayscale
1070
   100
1002
}
  0
LINE
  5
FCF2
  8
YODOROGO
 10
28098.135520230931
 20
1499.749496429288
 30
0.0
 11
28137.604341291921
 21
1499.749496429288
 31
0.0
1001
AUTOCAD_POSTSCRIPT_FIGURE
1002
{
1000
PSFILL
1000
Grayscale
1000
Grayscale
1070
   100
1002
}
  0
LINE
  5
FCF3
  8
YODOROGO
 10
28098.135520230931
 20
1631.5036372746561
 30
0.0
 11
28098.135520230931
 21
1499.749496429288
 31
0.0
1001
AUTOCAD_POSTSCRIPT_FIGURE
1002
{
1000
PSFILL
1000
Grayscale
1000
Grayscale
1070
   100
1002
}
  0
LINE
  5
FCF4
  8
YODOROGO
 10
28137.604341291921
 20
1631.5036372746561
 30
0.0
 11
28098.135520230931
 21
1631.5036372746561
 31
0.0
1001
AUTOCAD_POSTSCRIPT_FIGURE
1002
{
1000
PSFILL
1000
Grayscale
1000
Grayscale
1070
   100
1002
}
  0
LINE
  5
FCF5
  8
YODOROGO
 10
28137.604341291921
 20
1655.5036372746561
 30
0.0
 11
28137.604341291921
 21
1631.5036372746561
 31
0.0
1001
AUTOCAD_POSTSCRIPT_FIGURE
1002
{
1000
PSFILL
1000
Grayscale
1000
Grayscale
1070
   100
1002
}
  0
LINE
  5
FCF6
  8
YODOROGO
 10
28098.135520230931
 20
1655.5036372746561
 30
0.0
 11
28137.604341291921
 21
1655.5036372746561
 31
0.0
1001
AUTOCAD_POSTSCRIPT_FIGURE
1002
{
1000
PSFILL
1000
Grayscale
1000
Grayscale
1070
   100
1002
}
  0
LINE
  5
FCF7
  8
YODOROGO
 10
28401.60434129191
 20
1667.749496429288
 30
0.0
 11
28345.604341291921
 21
1667.749496429288
 31
0.0
  0
LINE
  5
FCF8
  8
YODOROGO
 10
28401.60434129191
 20
1611.749496429288
 30
0.0
 11
28401.60434129191
 21
1667.749496429288
 31
0.0
  0
LINE
  5
FCF9
  8
YODOROGO
 10
28345.604341291921
 20
1667.749496429288
 30
0.0
 11
28345.604341291921
 21
1611.749496429288
 31
0.0
  0
ARC
  5
FCFA
  8
YODOROGO
 10
28513.60434129191
 20
1507.749496429288
 30
0.0
 40
80.0
 50
180.0
 51
270.0
  0
ARC
  5
FCFB
  8
YODOROGO
 10
28537.604341291921
 20
1563.7494964292871
 30
0.0
 40
40.0
 50
180.0
 51
270.0
  0
LINE
  5
FCFC
  8
YODOROGO
 10
28561.604341291932
 20
1523.7494964292871
 30
0.0
 11
28537.604341291921
 21
1523.7494964292871
 31
0.0
  0
ARC
  5
FCFD
  8
YODOROGO
 10
28561.604341291932
 20
1547.749496429285
 30
0.0
 40
23.999999999996358
 50
270.0
 51
0.0000000000054281
  0
LINE
  5
FCFE
  8
YODOROGO
 10
27801.604341291921
 20
1890.786580793706
 30
0.0
 11
27777.604341291921
 21
1843.776747951672
 31
0.0
1001
AUTOCAD_POSTSCRIPT_FIGURE
1002
{
1000
PSFILL
1000
Grayscale
1000
Grayscale
1070
   100
1002
}
  0
LINE
  5
FCFF
  8
YODOROGO
 10
27801.604341291921
 20
1747.749496429286
 30
0.0
 11
27801.604341291921
 21
1890.786580793706
 31
0.0
1001
AUTOCAD_POSTSCRIPT_FIGURE
1002
{
1000
PSFILL
1000
Grayscale
1000
Grayscale
1070
   100
1002
}
  0
LINE
  5
FD00
  8
YODOROGO
 10
27817.604341291921
 20
1747.749496429286
 30
0.0
 11
27801.604341291921
 21
1747.749496429286
 31
0.0
1001
AUTOCAD_POSTSCRIPT_FIGURE
1002
{
1000
PSFILL
1000
Grayscale
1000
Grayscale
1070
   100
1002
}
  0
LINE
  5
FD01
  8
YODOROGO
 10
27817.604341291921
 20
1893.7713320852661
 30
0.0
 11
27817.604341291921
 21
1747.749496429286
 31
0.0
1001
AUTOCAD_POSTSCRIPT_FIGURE
1002
{
1000
PSFILL
1000
Grayscale
1000
Grayscale
1070
   100
1002
}
  0
LINE
  5
FD02
  8
YODOROGO
 10
27841.604341291921
 20
1867.6547582841361
 30
0.0
 11
27817.604341291921
 21
1893.7713320852661
 31
0.0
1001
AUTOCAD_POSTSCRIPT_FIGURE
1002
{
1000
PSFILL
1000
Grayscale
1000
Grayscale
1070
   100
1002
}
  0
LINE
  5
FD03
  8
YODOROGO
 10
27841.604341291921
 20
1883.6547582841361
 30
0.0
 11
27841.604341291921
 21
1867.6547582841361
 31
0.0
1001
AUTOCAD_POSTSCRIPT_FIGURE
1002
{
1000
PSFILL
1000
Grayscale
1000
Grayscale
1070
   100
1002
}
  0
LINE
  5
FD04
  8
YODOROGO
 10
27817.604341291921
 20
1917.7713320852649
 30
0.0
 11
27841.604341291921
 21
1883.6547582841361
 31
0.0
1001
AUTOCAD_POSTSCRIPT_FIGURE
1002
{
1000
PSFILL
1000
Grayscale
1000
Grayscale
1070
   100
1002
}
  0
LINE
  5
FD05
  8
YODOROGO
 10
27817.604341291921
 20
1939.749496429288
 30
0.0
 11
27817.604341291921
 21
1917.7713320852649
 31
0.0
1001
AUTOCAD_POSTSCRIPT_FIGURE
1002
{
1000
PSFILL
1000
Grayscale
1000
Grayscale
1070
   100
1002
}
  0
LINE
  5
FD06
  8
YODOROGO
 10
27889.604341291921
 20
1939.749496429288
 30
0.0
 11
27817.604341291921
 21
1939.749496429288
 31
0.0
1001
AUTOCAD_POSTSCRIPT_FIGURE
1002
{
1000
PSFILL
1000
Grayscale
1000
Grayscale
1070
   100
1002
}
  0
LINE
  5
FD07
  8
YODOROGO
 10
27889.604341291921
 20
1900.5683489363
 30
0.0
 11
27889.604341291921
 21
1939.749496429288
 31
0.0
1001
AUTOCAD_POSTSCRIPT_FIGURE
1002
{
1000
PSFILL
1000
Grayscale
1000
Grayscale
1070
   100
1002
}
  0
LINE
  5
FD08
  8
YODOROGO
 10
27857.604341291921
 20
1900.5683489363
 30
0.0
 11
27889.604341291921
 21
1900.5683489363
 31
0.0
1001
AUTOCAD_POSTSCRIPT_FIGURE
1002
{
1000
PSFILL
1000
Grayscale
1000
Grayscale
1070
   100
1002
}
  0
LINE
  5
FD09
  8
YODOROGO
 10
27857.604341291921
 20
1884.568348936298
 30
0.0
 11
27857.604341291921
 21
1900.5683489363
 31
0.0
1001
AUTOCAD_POSTSCRIPT_FIGURE
1002
{
1000
PSFILL
1000
Grayscale
1000
Grayscale
1070
   100
1002
}
  0
LINE
  5
FD0A
  8
YODOROGO
 10
27889.604341291921
 20
1884.568348936298
 30
0.0
 11
27857.604341291921
 21
1884.568348936298
 31
0.0
1001
AUTOCAD_POSTSCRIPT_FIGURE
1002
{
1000
PSFILL
1000
Grayscale
1000
Grayscale
1070
   100
1002
}
  0
LINE
  5
FD0B
  8
YODOROGO
 10
27889.604341291921
 20
1879.6191779644371
 30
0.0
 11
27889.604341291921
 21
1884.568348936298
 31
0.0
1001
AUTOCAD_POSTSCRIPT_FIGURE
1002
{
1000
PSFILL
1000
Grayscale
1000
Grayscale
1070
   100
1002
}
  0
LINE
  5
FD0C
  8
YODOROGO
 10
27849.604341291921
 20
1812.974981161417
 30
0.0
 11
27889.604341291921
 21
1879.6191779644371
 31
0.0
1001
AUTOCAD_POSTSCRIPT_FIGURE
1002
{
1000
PSFILL
1000
Grayscale
1000
Grayscale
1070
   100
1002
}
  0
LINE
  5
FD0D
  8
YODOROGO
 10
27849.604341291921
 20
1796.9749811614161
 30
0.0
 11
27849.604341291921
 21
1812.974981161417
 31
0.0
1001
AUTOCAD_POSTSCRIPT_FIGURE
1002
{
1000
PSFILL
1000
Grayscale
1000
Grayscale
1070
   100
1002
}
  0
LINE
  5
FD0E
  8
YODOROGO
 10
27889.604341291921
 20
1847.6191779644359
 30
0.0
 11
27849.604341291921
 21
1796.9749811614161
 31
0.0
1001
AUTOCAD_POSTSCRIPT_FIGURE
1002
{
1000
PSFILL
1000
Grayscale
1000
Grayscale
1070
   100
1002
}
  0
LINE
  5
FD0F
  8
YODOROGO
 10
27889.604341291921
 20
1747.749496429286
 30
0.0
 11
27889.604341291921
 21
1847.6191779644359
 31
0.0
1001
AUTOCAD_POSTSCRIPT_FIGURE
1002
{
1000
PSFILL
1000
Grayscale
1000
Grayscale
1070
   100
1002
}
  0
LINE
  5
FD10
  8
YODOROGO
 10
27905.604341291921
 20
1747.749496429286
 30
0.0
 11
27889.604341291921
 21
1747.749496429286
 31
0.0
1001
AUTOCAD_POSTSCRIPT_FIGURE
1002
{
1000
PSFILL
1000
Grayscale
1000
Grayscale
1070
   100
1002
}
  0
LINE
  5
FD11
  8
YODOROGO
 10
27905.604341291921
 20
1849.409012158806
 30
0.0
 11
27905.604341291921
 21
1747.749496429286
 31
0.0
1001
AUTOCAD_POSTSCRIPT_FIGURE
1002
{
1000
PSFILL
1000
Grayscale
1000
Grayscale
1070
   100
1002
}
  0
LINE
  5
FD12
  8
YODOROGO
 10
27937.604341291921
 20
1796.9749811614161
 30
0.0
 11
27905.604341291921
 21
1849.409012158806
 31
0.0
1001
AUTOCAD_POSTSCRIPT_FIGURE
1002
{
1000
PSFILL
1000
Grayscale
1000
Grayscale
1070
   100
1002
}
  0
LINE
  5
FD13
  8
YODOROGO
 10
27937.604341291921
 20
1812.974981161417
 30
0.0
 11
27937.604341291921
 21
1796.9749811614161
 31
0.0
1001
AUTOCAD_POSTSCRIPT_FIGURE
1002
{
1000
PSFILL
1000
Grayscale
1000
Grayscale
1070
   100
1002
}
  0
LINE
  5
FD14
  8
YODOROGO
 10
27905.604341291921
 20
1881.4090121588081
 30
0.0
 11
27937.604341291921
 21
1812.974981161417
 31
0.0
1001
AUTOCAD_POSTSCRIPT_FIGURE
1002
{
1000
PSFILL
1000
Grayscale
1000
Grayscale
1070
   100
1002
}
  0
LINE
  5
FD15
  8
YODOROGO
 10
27905.604341291921
 20
1884.5683489363
 30
0.0
 11
27905.604341291921
 21
1881.4090121588081
 31
0.0
1001
AUTOCAD_POSTSCRIPT_FIGURE
1002
{
1000
PSFILL
1000
Grayscale
1000
Grayscale
1070
   100
1002
}
  0
LINE
  5
FD16
  8
YODOROGO
 10
27937.604341291921
 20
1884.568348936298
 30
0.0
 11
27905.604341291921
 21
1884.5683489363
 31
0.0
1001
AUTOCAD_POSTSCRIPT_FIGURE
1002
{
1000
PSFILL
1000
Grayscale
1000
Grayscale
1070
   100
1002
}
  0
LINE
  5
FD17
  8
YODOROGO
 10
27937.604341291921
 20
1900.5683489363
 30
0.0
 11
27937.604341291921
 21
1884.568348936298
 31
0.0
1001
AUTOCAD_POSTSCRIPT_FIGURE
1002
{
1000
PSFILL
1000
Grayscale
1000
Grayscale
1070
   100
1002
}
  0
LINE
  5
FD18
  8
YODOROGO
 10
27905.604341291921
 20
1900.5683489363
 30
0.0
 11
27937.604341291921
 21
1900.5683489363
 31
0.0
1001
AUTOCAD_POSTSCRIPT_FIGURE
1002
{
1000
PSFILL
1000
Grayscale
1000
Grayscale
1070
   100
1002
}
  0
LINE
  5
FD19
  8
YODOROGO
 10
27905.604341291921
 20
1939.749496429288
 30
0.0
 11
27905.604341291921
 21
1900.5683489363
 31
0.0
1001
AUTOCAD_POSTSCRIPT_FIGURE
1002
{
1000
PSFILL
1000
Grayscale
1000
Grayscale
1070
   100
1002
}
  0
LINE
  5
FD1A
  8
YODOROGO
 10
27937.604341291921
 20
1939.749496429288
 30
0.0
 11
27905.604341291921
 21
1939.749496429288
 31
0.0
1001
AUTOCAD_POSTSCRIPT_FIGURE
1002
{
1000
PSFILL
1000
Grayscale
1000
Grayscale
1070
   100
1002
}
  0
LINE
  5
FD1B
  8
YODOROGO
 10
27937.604341291921
 20
1955.7494964292871
 30
0.0
 11
27937.604341291921
 21
1939.749496429288
 31
0.0
1001
AUTOCAD_POSTSCRIPT_FIGURE
1002
{
1000
PSFILL
1000
Grayscale
1000
Grayscale
1070
   100
1002
}
  0
LINE
  5
FD1C
  8
YODOROGO
 10
27905.604341291921
 20
1955.7494964292871
 30
0.0
 11
27937.604341291921
 21
1955.7494964292871
 31
0.0
1001
AUTOCAD_POSTSCRIPT_FIGURE
1002
{
1000
PSFILL
1000
Grayscale
1000
Grayscale
1070
   100
1002
}
  0
LINE
  5
FD1D
  8
YODOROGO
 10
27905.604341291921
 20
1979.749496429288
 30
0.0
 11
27905.604341291921
 21
1955.7494964292871
 31
0.0
1001
AUTOCAD_POSTSCRIPT_FIGURE
1002
{
1000
PSFILL
1000
Grayscale
1000
Grayscale
1070
   100
1002
}
  0
LINE
  5
FD1E
  8
YODOROGO
 10
27889.604341291921
 20
1979.749496429288
 30
0.0
 11
27905.604341291921
 21
1979.749496429288
 31
0.0
1001
AUTOCAD_POSTSCRIPT_FIGURE
1002
{
1000
PSFILL
1000
Grayscale
1000
Grayscale
1070
   100
1002
}
  0
LINE
  5
FD1F
  8
YODOROGO
 10
27889.604341291921
 20
1955.7494964292871
 30
0.0
 11
27889.604341291921
 21
1979.749496429288
 31
0.0
1001
AUTOCAD_POSTSCRIPT_FIGURE
1002
{
1000
PSFILL
1000
Grayscale
1000
Grayscale
1070
   100
1002
}
  0
LINE
  5
FD20
  8
YODOROGO
 10
27865.604341291921
 20
1955.7494964292871
 30
0.0
 11
27889.604341291921
 21
1955.7494964292871
 31
0.0
1001
AUTOCAD_POSTSCRIPT_FIGURE
1002
{
1000
PSFILL
1000
Grayscale
1000
Grayscale
1070
   100
1002
}
  0
LINE
  5
FD21
  8
YODOROGO
 10
27865.604341291921
 20
1979.749496429288
 30
0.0
 11
27865.604341291921
 21
1955.7494964292871
 31
0.0
1001
AUTOCAD_POSTSCRIPT_FIGURE
1002
{
1000
PSFILL
1000
Grayscale
1000
Grayscale
1070
   100
1002
}
  0
LINE
  5
FD22
  8
YODOROGO
 10
27849.604341291921
 20
1979.749496429288
 30
0.0
 11
27865.604341291921
 21
1979.749496429288
 31
0.0
1001
AUTOCAD_POSTSCRIPT_FIGURE
1002
{
1000
PSFILL
1000
Grayscale
1000
Grayscale
1070
   100
1002
}
  0
LINE
  5
FD23
  8
YODOROGO
 10
27849.604341291921
 20
1955.7494964292871
 30
0.0
 11
27849.604341291921
 21
1979.749496429288
 31
0.0
1001
AUTOCAD_POSTSCRIPT_FIGURE
1002
{
1000
PSFILL
1000
Grayscale
1000
Grayscale
1070
   100
1002
}
  0
LINE
  5
FD24
  8
YODOROGO
 10
27817.604341291921
 20
1955.7494964292871
 30
0.0
 11
27849.604341291921
 21
1955.7494964292871
 31
0.0
1001
AUTOCAD_POSTSCRIPT_FIGURE
1002
{
1000
PSFILL
1000
Grayscale
1000
Grayscale
1070
   100
1002
}
  0
LINE
  5
FD25
  8
YODOROGO
 10
27817.604341291921
 20
1979.749496429288
 30
0.0
 11
27817.604341291921
 21
1955.7494964292871
 31
0.0
1001
AUTOCAD_POSTSCRIPT_FIGURE
1002
{
1000
PSFILL
1000
Grayscale
1000
Grayscale
1070
   100
1002
}
  0
LINE
  5
FD26
  8
YODOROGO
 10
27801.604341291921
 20
1979.749496429288
 30
0.0
 11
27817.604341291921
 21
1979.749496429288
 31
0.0
1001
AUTOCAD_POSTSCRIPT_FIGURE
1002
{
1000
PSFILL
1000
Grayscale
1000
Grayscale
1070
   100
1002
}
  0
LINE
  5
FD27
  8
YODOROGO
 10
27801.604341291921
 20
1955.7494964292871
 30
0.0
 11
27801.604341291921
 21
1979.749496429288
 31
0.0
1001
AUTOCAD_POSTSCRIPT_FIGURE
1002
{
1000
PSFILL
1000
Grayscale
1000
Grayscale
1070
   100
1002
}
  0
LINE
  5
FD28
  8
YODOROGO
 10
27777.604341291921
 20
1955.7494964292871
 30
0.0
 11
27801.604341291921
 21
1955.7494964292871
 31
0.0
1001
AUTOCAD_POSTSCRIPT_FIGURE
1002
{
1000
PSFILL
1000
Grayscale
1000
Grayscale
1070
   100
1002
}
  0
LINE
  5
FD29
  8
YODOROGO
 10
27777.604341291921
 20
1939.749496429288
 30
0.0
 11
27777.604341291921
 21
1955.7494964292871
 31
0.0
1001
AUTOCAD_POSTSCRIPT_FIGURE
1002
{
1000
PSFILL
1000
Grayscale
1000
Grayscale
1070
   100
1002
}
  0
LINE
  5
FD2A
  8
YODOROGO
 10
27801.604341291921
 20
1939.749496429288
 30
0.0
 11
27777.604341291921
 21
1939.749496429288
 31
0.0
1001
AUTOCAD_POSTSCRIPT_FIGURE
1002
{
1000
PSFILL
1000
Grayscale
1000
Grayscale
1070
   100
1002
}
  0
LINE
  5
FD2B
  8
YODOROGO
 10
27801.604341291921
 20
1914.7865807937051
 30
0.0
 11
27801.604341291921
 21
1939.749496429288
 31
0.0
1001
AUTOCAD_POSTSCRIPT_FIGURE
1002
{
1000
PSFILL
1000
Grayscale
1000
Grayscale
1070
   100
1002
}
  0
LINE
  5
FD2C
  8
YODOROGO
 10
27777.604341291921
 20
1859.776747951671
 30
0.0
 11
27801.604341291921
 21
1914.7865807937051
 31
0.0
1001
AUTOCAD_POSTSCRIPT_FIGURE
1002
{
1000
PSFILL
1000
Grayscale
1000
Grayscale
1070
   100
1002
}
  0
LINE
  5
FD2D
  8
YODOROGO
 10
27777.604341291921
 20
1843.776747951672
 30
0.0
 11
27777.604341291921
 21
1859.776747951671
 31
0.0
1001
AUTOCAD_POSTSCRIPT_FIGURE
1002
{
1000
PSFILL
1000
Grayscale
1000
Grayscale
1070
   100
1002
}
  0
LINE
  5
FD2E
  8
YODOROGO
 10
28257.604341291921
 20
1867.7494964292871
 30
0.0
 11
28401.60434129191
 21
1824.877625640306
 31
0.0
1001
AUTOCAD_POSTSCRIPT_FIGURE
1002
{
1000
PSFILL
1000
Grayscale
1000
Grayscale
1070
   100
1002
}
  0
LINE
  5
FD2F
  8
YODOROGO
 10
28401.60434129191
 20
1752.877625640306
 30
0.0
 11
28257.604341291921
 21
1795.7494964292871
 31
0.0
1001
AUTOCAD_POSTSCRIPT_FIGURE
1002
{
1000
PSFILL
1000
Grayscale
1000
Grayscale
1070
   100
1002
}
  0
LINE
  5
FD30
  8
YODOROGO
 10
28401.60434129191
 20
1984.877625640306
 30
0.0
 11
28257.604341291921
 21
2027.749496429288
 31
0.0
1001
AUTOCAD_POSTSCRIPT_FIGURE
1002
{
1000
PSFILL
1000
Grayscale
1000
Grayscale
1070
   100
1002
}
  0
LINE
  5
FD31
  8
YODOROGO
 10
28257.604341291921
 20
1959.749496429288
 30
0.0
 11
28401.60434129191
 21
1916.8776256403071
 31
0.0
1001
AUTOCAD_POSTSCRIPT_FIGURE
1002
{
1000
PSFILL
1000
Grayscale
1000
Grayscale
1070
   100
1002
}
  0
LINE
  5
FD32
  8
YODOROGO
 10
28257.604341291921
 20
1795.7494964292871
 30
0.0
 11
28257.604341291921
 21
1867.7494964292871
 31
0.0
1001
AUTOCAD_POSTSCRIPT_FIGURE
1002
{
1000
PSFILL
1000
Grayscale
1000
Grayscale
1070
   100
1002
}
  0
LINE
  5
FD33
  8
YODOROGO
 10
28257.604341291921
 20
2027.749496429288
 30
0.0
 11
28257.604341291921
 21
1959.749496429288
 31
0.0
1001
AUTOCAD_POSTSCRIPT_FIGURE
1002
{
1000
PSFILL
1000
Grayscale
1000
Grayscale
1070
   100
1002
}
  0
LINE
  5
FD34
  8
YODOROGO
 10
28080.236320206739
 20
1939.749496429288
 30
0.0
 11
28129.60434129191
 21
1747.749496429286
 31
0.0
1001
AUTOCAD_POSTSCRIPT_FIGURE
1002
{
1000
PSFILL
1000
Grayscale
1000
Grayscale
1070
   100
1002
}
  0
LINE
  5
FD35
  8
YODOROGO
 10
27977.604341291921
 20
1939.749496429288
 30
0.0
 11
28080.236320206739
 21
1939.749496429288
 31
0.0
1001
AUTOCAD_POSTSCRIPT_FIGURE
1002
{
1000
PSFILL
1000
Grayscale
1000
Grayscale
1070
   100
1002
}
  0
LINE
  5
FD36
  8
YODOROGO
 10
27977.604341291921
 20
1955.7494964292871
 30
0.0
 11
27977.604341291921
 21
1939.749496429288
 31
0.0
1001
AUTOCAD_POSTSCRIPT_FIGURE
1002
{
1000
PSFILL
1000
Grayscale
1000
Grayscale
1070
   100
1002
}
  0
LINE
  5
FD37
  8
YODOROGO
 10
28076.60687851991
 20
1955.7494964292871
 30
0.0
 11
27977.604341291921
 21
1955.7494964292871
 31
0.0
1001
AUTOCAD_POSTSCRIPT_FIGURE
1002
{
1000
PSFILL
1000
Grayscale
1000
Grayscale
1070
   100
1002
}
  0
LINE
  5
FD38
  8
YODOROGO
 10
28071.162715989711
 20
1979.749496429288
 30
0.0
 11
28076.60687851991
 21
1955.7494964292871
 31
0.0
1001
AUTOCAD_POSTSCRIPT_FIGURE
1002
{
1000
PSFILL
1000
Grayscale
1000
Grayscale
1070
   100
1002
}
  0
LINE
  5
FD39
  8
YODOROGO
 10
28091.162715989711
 20
1979.749496429288
 30
0.0
 11
28071.162715989711
 21
1979.749496429288
 31
0.0
1001
AUTOCAD_POSTSCRIPT_FIGURE
1002
{
1000
PSFILL
1000
Grayscale
1000
Grayscale
1070
   100
1002
}
  0
LINE
  5
FD3A
  8
YODOROGO
 10
28095.806878519939
 20
1955.7494964292871
 30
0.0
 11
28091.162715989711
 21
1979.749496429288
 31
0.0
1001
AUTOCAD_POSTSCRIPT_FIGURE
1002
{
1000
PSFILL
1000
Grayscale
1000
Grayscale
1070
   100
1002
}
  0
LINE
  5
FD3B
  8
YODOROGO
 10
28121.604341291921
 20
1955.7494964292871
 30
0.0
 11
28095.806878519939
 21
1955.7494964292871
 31
0.0
1001
AUTOCAD_POSTSCRIPT_FIGURE
1002
{
1000
PSFILL
1000
Grayscale
1000
Grayscale
1070
   100
1002
}
  0
LINE
  5
FD3C
  8
YODOROGO
 10
28121.604341291921
 20
1979.749496429288
 30
0.0
 11
28121.604341291921
 21
1955.7494964292871
 31
0.0
1001
AUTOCAD_POSTSCRIPT_FIGURE
1002
{
1000
PSFILL
1000
Grayscale
1000
Grayscale
1070
   100
1002
}
  0
LINE
  5
FD3D
  8
YODOROGO
 10
28137.604341291921
 20
1979.749496429288
 30
0.0
 11
28121.604341291921
 21
1979.749496429288
 31
0.0
1001
AUTOCAD_POSTSCRIPT_FIGURE
1002
{
1000
PSFILL
1000
Grayscale
1000
Grayscale
1070
   100
1002
}
  0
LINE
  5
FD3E
  8
YODOROGO
 10
28137.604341291921
 20
1955.7494964292871
 30
0.0
 11
28137.604341291921
 21
1979.749496429288
 31
0.0
1001
AUTOCAD_POSTSCRIPT_FIGURE
1002
{
1000
PSFILL
1000
Grayscale
1000
Grayscale
1070
   100
1002
}
  0
LINE
  5
FD3F
  8
YODOROGO
 10
28137.604341291921
 20
1939.749496429288
 30
0.0
 11
28137.604341291921
 21
1955.7494964292871
 31
0.0
1001
AUTOCAD_POSTSCRIPT_FIGURE
1002
{
1000
PSFILL
1000
Grayscale
1000
Grayscale
1070
   100
1002
}
  0
LINE
  5
FD40
  8
YODOROGO
 10
28098.902986873411
 20
1939.749496429288
 30
0.0
 11
28137.604341291921
 21
1939.749496429288
 31
0.0
1001
AUTOCAD_POSTSCRIPT_FIGURE
1002
{
1000
PSFILL
1000
Grayscale
1000
Grayscale
1070
   100
1002
}
  0
LINE
  5
FD41
  8
YODOROGO
 10
28137.604341291921
 20
1747.749496429286
 30
0.0
 11
28098.902986873411
 21
1939.749496429288
 31
0.0
1001
AUTOCAD_POSTSCRIPT_FIGURE
1002
{
1000
PSFILL
1000
Grayscale
1000
Grayscale
1070
   100
1002
}
  0
LINE
  5
FD42
  8
YODOROGO
 10
28129.60434129191
 20
1747.749496429286
 30
0.0
 11
28137.604341291921
 21
1747.749496429286
 31
0.0
1001
AUTOCAD_POSTSCRIPT_FIGURE
1002
{
1000
PSFILL
1000
Grayscale
1000
Grayscale
1070
   100
1002
}
  0
LINE
  5
FD43
  8
YODOROGO
 10
28078.06921993379
 20
1775.7407762987939
 30
0.0
 11
27977.604341291921
 21
1747.749496429286
 31
0.0
  0
LINE
  5
FD44
  8
YODOROGO
 10
28078.06921993379
 20
1798.6689795290731
 30
0.0
 11
28078.06921993379
 21
1775.7407762987939
 31
0.0
  0
LINE
  5
FD45
  8
YODOROGO
 10
28033.83678061287
 20
1786.816933133767
 30
0.0
 11
28078.06921993379
 21
1798.6689795290731
 31
0.0
  0
LINE
  5
FD46
  8
YODOROGO
 10
28033.83678061287
 20
1872.5683489362989
 30
0.0
 11
28033.83678061287
 21
1786.816933133767
 31
0.0
  0
LINE
  5
FD47
  8
YODOROGO
 10
28078.06921993379
 20
1872.5683489362989
 30
0.0
 11
28033.83678061287
 21
1872.5683489362989
 31
0.0
  0
LINE
  5
FD48
  8
YODOROGO
 10
28078.06921993379
 20
1892.568348936298
 30
0.0
 11
28078.06921993379
 21
1872.5683489362989
 31
0.0
  0
LINE
  5
FD49
  8
YODOROGO
 10
27977.604341291921
 20
1892.568348936298
 30
0.0
 11
28078.06921993379
 21
1892.568348936298
 31
0.0
  0
LINE
  5
FD4A
  8
YODOROGO
 10
27977.604341291921
 20
1872.5683489362989
 30
0.0
 11
27977.604341291921
 21
1892.568348936298
 31
0.0
  0
LINE
  5
FD4B
  8
YODOROGO
 10
28021.836780612852
 20
1872.5683489362989
 30
0.0
 11
27977.604341291921
 21
1872.5683489362989
 31
0.0
  0
LINE
  5
FD4C
  8
YODOROGO
 10
28021.836780612852
 20
1784.673339594317
 30
0.0
 11
28021.836780612852
 21
1872.5683489362989
 31
0.0
  0
LINE
  5
FD4D
  8
YODOROGO
 10
27977.604341291921
 20
1771.749496429286
 30
0.0
 11
28021.836780612852
 21
1784.673339594317
 31
0.0
  0
LINE
  5
FD4E
  8
YODOROGO
 10
27977.604341291921
 20
1747.749496429286
 30
0.0
 11
27977.604341291921
 21
1771.749496429286
 31
0.0
  0
LINE
  5
FD4F
  8
YODOROGO
 10
28001.604341291921
 20
1707.749496429288
 30
0.0
 11
28001.604341291921
 21
1683.7494964292871
 31
0.0
  0
LINE
  5
FD50
  8
YODOROGO
 10
28017.604341291921
 20
1707.749496429288
 30
0.0
 11
28001.604341291921
 21
1707.749496429288
 31
0.0
  0
LINE
  5
FD51
  8
YODOROGO
 10
28017.604341291921
 20
1683.7494964292871
 30
0.0
 11
28017.604341291921
 21
1707.749496429288
 31
0.0
  0
LINE
  5
FD52
  8
YODOROGO
 10
28040.913204016892
 20
1683.7494964292871
 30
0.0
 11
28017.604341291921
 21
1683.7494964292871
 31
0.0
  0
LINE
  5
FD53
  8
YODOROGO
 10
28001.604341291921
 20
1683.7494964292871
 30
0.0
 11
27977.604341291921
 21
1683.7494964292871
 31
0.0
  0
LINE
  5
FD54
  8
YODOROGO
 10
28082.135520230921
 20
1707.749496429288
 30
0.0
 11
28098.135520230931
 21
1707.749496429288
 31
0.0
1001
AUTOCAD_POSTSCRIPT_FIGURE
1002
{
1000
PSFILL
1000
Grayscale
1000
Grayscale
1070
   100
1002
}
  0
LINE
  5
FD55
  8
YODOROGO
 10
28401.60434129191
 20
1824.877625640306
 30
0.0
 11
28401.60434129191
 21
1752.877625640306
 31
0.0
1001
AUTOCAD_POSTSCRIPT_FIGURE
1002
{
1000
PSFILL
1000
Grayscale
1000
Grayscale
1070
   100
1002
}
  0
LINE
  5
FD56
  8
YODOROGO
 10
28401.60434129191
 20
1916.8776256403071
 30
0.0
 11
28401.60434129191
 21
1984.877625640306
 31
0.0
1001
AUTOCAD_POSTSCRIPT_FIGURE
1002
{
1000
PSFILL
1000
Grayscale
1000
Grayscale
1070
   100
1002
}
  0
LINE
  5
FD57
  8
YODOROGO
 10
28433.60434129191
 20
1819.7494964292871
 30
0.0
 11
28433.60434129191
 21
1747.74949642929
 31
0.0
  0
LINE
  5
FD58
  8
YODOROGO
 10
28497.60434129191
 20
1707.749496429288
 30
0.0
 11
28433.60434129191
 21
1707.749496429288
 31
0.0
  0
LINE
  5
FD59
  8
YODOROGO
 10
28433.60434129191
 20
1747.74949642929
 30
0.0
 11
28585.604341291921
 21
1747.74949642929
 31
0.0
  0
LINE
  5
FD5A
  8
YODOROGO
 10
28497.60434129191
 20
1867.7494964292871
 30
0.0
 11
28433.60434129191
 21
1867.7494964292871
 31
0.0
  0
LINE
  5
FD5B
  8
YODOROGO
 10
28497.60434129191
 20
1923.7494964292871
 30
0.0
 11
28497.60434129191
 21
1867.7494964292871
 31
0.0
  0
LINE
  5
FD5C
  8
YODOROGO
 10
28585.604341291921
 20
1987.7494964292871
 30
0.0
 11
28585.604341291921
 21
2027.749496429288
 31
0.0
  0
LINE
  5
FD5D
  8
YODOROGO
 10
28433.60434129191
 20
1987.7494964292871
 30
0.0
 11
28585.604341291921
 21
1987.7494964292871
 31
0.0
  0
LINE
  5
FD5E
  8
YODOROGO
 10
28433.60434129191
 20
1867.7494964292871
 30
0.0
 11
28433.60434129191
 21
1987.7494964292871
 31
0.0
  0
LINE
  5
FD5F
  8
YODOROGO
 10
29001.60434129191
 20
2027.749496429288
 30
0.0
 11
29001.60434129191
 21
1619.749496429288
 31
0.0
  0
LINE
  5
FD60
  8
YODOROGO
 10
29073.604341291921
 20
1579.749496429288
 30
0.0
 11
29073.604341291921
 21
2027.749496429288
 31
0.0
  0
LINE
  5
FD61
  8
YODOROGO
 10
29261.604341291921
 20
1491.749496429286
 30
0.0
 11
29261.604341291921
 21
2007.749496429288
 31
0.0
  0
LINE
  5
FD62
  8
YODOROGO
 10
29197.604341291921
 20
2007.749496429288
 30
0.0
 11
29197.604341291921
 21
1491.749496429286
 31
0.0
  0
LINE
  5
FD63
  8
YODOROGO
 10
29385.604341291921
 20
2027.749496429288
 30
0.0
 11
29385.604341291921
 21
1427.749496429288
 31
0.0
  0
LINE
  5
FD64
  8
YODOROGO
 10
29457.604341291921
 20
1427.749496429288
 30
0.0
 11
29457.604341291921
 21
2027.749496429288
 31
0.0
  0
LINE
  5
FD65
  8
YODOROGO
 10
28657.604341291921
 20
1667.749496429288
 30
0.0
 11
28657.604341291921
 21
1747.74949642929
 31
0.0
  0
LINE
  5
FD66
  8
YODOROGO
 10
29885.604341291921
 20
1707.749496429288
 30
0.0
 11
29885.604341291921
 21
1667.749496429288
 31
0.0
  0
LINE
  5
FD67
  8
YODOROGO
 10
29885.604341291921
 20
1707.749496429288
 30
0.0
 11
29885.604341291921
 21
1667.749496429288
 31
0.0
  0
ARC
  5
FD68
  8
YODOROGO
 10
28906.911576186842
 20
1618.217864442272
 30
0.0
 40
94.705151178741644
 50
274.05244162907098
 51
0.9266642149310712
  0
ARC
  5
FD69
  8
YODOROGO
 10
28909.186170719819
 20
1592.61072861044
 30
0.0
 40
164.92042356085511
 50
271.5351210653775
 51
355.52727750585052
  0
LINE
  5
FD6A
  8
YODOROGO
 10
28913.604341291921
 20
1523.7494964292871
 30
0.0
 11
28913.604341291921
 21
1427.749496429288
 31
0.0
  0
LINE
  5
FD6B
  8
YODOROGO
 10
28793.60434129191
 20
1667.749496429288
 30
0.0
 11
28657.604341291921
 21
1667.749496429288
 31
0.0
  0
LINE
  5
FD6C
  8
YODOROGO
 10
28793.60434129191
 20
1603.7494964292871
 30
0.0
 11
28793.60434129191
 21
1667.749496429288
 31
0.0
  0
LINE
  5
FD6D
  8
YODOROGO
 10
28657.604341291921
 20
1603.7494964292871
 30
0.0
 11
28793.60434129191
 21
1603.7494964292871
 31
0.0
  0
LINE
  5
FD6E
  8
YODOROGO
 10
28657.604341291921
 20
1523.7494964292871
 30
0.0
 11
28657.604341291921
 21
1603.7494964292871
 31
0.0
  0
LINE
  5
FD6F
  8
YODOROGO
 10
28793.60434129191
 20
1523.7494964292871
 30
0.0
 11
28657.604341291921
 21
1523.7494964292871
 31
0.0
  0
LINE
  5
FD70
  8
YODOROGO
 10
28793.60434129191
 20
1427.749496429288
 30
0.0
 11
28793.60434129191
 21
1523.7494964292871
 31
0.0
  0
LINE
  5
FD71
  8
YODOROGO
 10
29197.604341291921
 20
1491.749496429286
 30
0.0
 11
29261.604341291921
 21
1491.749496429286
 31
0.0
  0
LINE
  5
FD72
  8
YODOROGO
 10
29385.604341291921
 20
1427.749496429288
 30
0.0
 11
29457.604341291921
 21
1427.749496429288
 31
0.0
  0
LINE
  5
FD73
  8
YODOROGO
 10
29737.604341291921
 20
1528.4414521705639
 30
0.0
 11
29737.604341291921
 21
1427.749496429288
 31
0.0
  0
LINE
  5
FD74
  8
YODOROGO
 10
29617.604341291921
 20
1427.749496429288
 30
0.0
 11
29737.604341291921
 21
1528.4414521705639
 31
0.0
  0
LINE
  5
FD75
  8
YODOROGO
 10
29617.604341291921
 20
1547.749496429288
 30
0.0
 11
29617.604341291921
 21
1427.749496429288
 31
0.0
  0
LINE
  5
FD76
  8
YODOROGO
 10
29712.94462869945
 20
1627.749496429288
 30
0.0
 11
29617.604341291921
 21
1547.749496429288
 31
0.0
  0
LINE
  5
FD77
  8
YODOROGO
 10
29617.604341291921
 20
1627.749496429288
 30
0.0
 11
29712.94462869945
 21
1627.749496429288
 31
0.0
  0
LINE
  5
FD78
  8
YODOROGO
 10
29617.604341291921
 20
1667.749496429288
 30
0.0
 11
29617.604341291921
 21
1627.749496429288
 31
0.0
  0
LINE
  5
FD79
  8
YODOROGO
 10
29885.604341291921
 20
1667.749496429288
 30
0.0
 11
29617.604341291921
 21
1667.749496429288
 31
0.0
  0
LINE
  5
FD7A
  8
YODOROGO
 10
29917.604341291921
 20
1627.749496429288
 30
0.0
 11
29777.604341291921
 21
1627.749496429288
 31
0.0
  0
LINE
  5
FD7B
  8
YODOROGO
 10
29777.604341291921
 20
1562.0054374176559
 30
0.0
 11
29771.409872985321
 21
1556.807661346234
 31
0.0
  0
LINE
  5
FD7C
  8
YODOROGO
 10
29777.604341291921
 20
1627.749496429288
 30
0.0
 11
29777.604341291921
 21
1562.0054374176559
 31
0.0
  0
LINE
  5
FD7D
  8
YODOROGO
 10
29737.604341291921
 20
1528.4414521705639
 30
0.0
 11
29737.604341291921
 21
1427.749496429288
 31
0.0
  0
LINE
  5
FD7E
  8
YODOROGO
 10
29617.604341291921
 20
1427.749496429288
 30
0.0
 11
29737.604341291921
 21
1528.4414521705639
 31
0.0
  0
LINE
  5
FD7F
  8
YODOROGO
 10
29617.604341291921
 20
1547.749496429288
 30
0.0
 11
29617.604341291921
 21
1427.749496429288
 31
0.0
  0
LINE
  5
FD80
  8
YODOROGO
 10
29712.94462869945
 20
1627.749496429288
 30
0.0
 11
29617.604341291921
 21
1547.749496429288
 31
0.0
  0
LINE
  5
FD81
  8
YODOROGO
 10
29617.604341291921
 20
1627.749496429288
 30
0.0
 11
29712.94462869945
 21
1627.749496429288
 31
0.0
  0
LINE
  5
FD82
  8
YODOROGO
 10
29617.604341291921
 20
1667.749496429288
 30
0.0
 11
29617.604341291921
 21
1627.749496429288
 31
0.0
  0
LINE
  5
FD83
  8
YODOROGO
 10
29885.604341291921
 20
1667.749496429288
 30
0.0
 11
29617.604341291921
 21
1667.749496429288
 31
0.0
  0
LINE
  5
FD84
  8
YODOROGO
 10
28793.60434129191
 20
1747.74949642929
 30
0.0
 11
28793.60434129191
 21
1819.7494964292871
 31
0.0
  0
LINE
  5
FD85
  8
YODOROGO
 10
28657.604341291921
 20
1747.74949642929
 30
0.0
 11
28793.60434129191
 21
1747.74949642929
 31
0.0
  0
LINE
  5
FD86
  8
YODOROGO
 10
28729.604341291921
 20
1867.7494964292871
 30
0.0
 11
28729.604341291921
 21
1923.7494964292871
 31
0.0
  0
LINE
  5
FD87
  8
YODOROGO
 10
28793.60434129191
 20
1867.7494964292871
 30
0.0
 11
28729.604341291921
 21
1867.7494964292871
 31
0.0
  0
LINE
  5
FD88
  8
YODOROGO
 10
28793.60434129191
 20
1947.749496429288
 30
0.0
 11
28793.60434129191
 21
1867.7494964292871
 31
0.0
  0
ARC
  5
FD89
  8
YODOROGO
 10
28753.60434129191
 20
1947.749496429288
 30
0.0
 40
40.0
 50
0.0
 51
90.0
  0
LINE
  5
FD8A
  8
YODOROGO
 10
28657.604341291921
 20
1987.7494964292871
 30
0.0
 11
28753.60434129191
 21
1987.7494964292871
 31
0.0
  0
LINE
  5
FD8B
  8
YODOROGO
 10
28657.604341291921
 20
2027.749496429288
 30
0.0
 11
28657.604341291921
 21
1987.7494964292871
 31
0.0
  0
LINE
  5
FD8C
  8
YODOROGO
 10
29073.604341291921
 20
2027.749496429288
 30
0.0
 11
29001.60434129191
 21
2027.749496429288
 31
0.0
  0
LINE
  5
FD8D
  8
YODOROGO
 10
29261.604341291921
 20
2007.749496429288
 30
0.0
 11
29197.604341291921
 21
2007.749496429288
 31
0.0
  0
LINE
  5
FD8E
  8
YODOROGO
 10
29457.604341291921
 20
2027.749496429288
 30
0.0
 11
29385.604341291921
 21
2027.749496429288
 31
0.0
  0
LINE
  5
FD8F
  8
YODOROGO
 10
29673.604341291921
 20
1707.749496429288
 30
0.0
 11
29673.604341291921
 21
1771.7494964292871
 31
0.0
1001
AUTOCAD_POSTSCRIPT_FIGURE
1002
{
1000
PSFILL
1000
Grayscale
1000
Grayscale
1070
    25
1002
}
  0
LINE
  5
FD90
  8
YODOROGO
 10
29617.604341291921
 20
1707.749496429288
 30
0.0
 11
29673.604341291921
 21
1707.749496429288
 31
0.0
1001
AUTOCAD_POSTSCRIPT_FIGURE
1002
{
1000
PSFILL
1000
Grayscale
1000
Grayscale
1070
    25
1002
}
  0
LINE
  5
FD91
  8
YODOROGO
 10
29617.604341291921
 20
1819.7494964292871
 30
0.0
 11
29617.604341291921
 21
1707.749496429288
 31
0.0
1001
AUTOCAD_POSTSCRIPT_FIGURE
1002
{
1000
PSFILL
1000
Grayscale
1000
Grayscale
1070
    25
1002
}
  0
LINE
  5
FD92
  8
YODOROGO
 10
29765.604341291921
 20
1819.7494964292871
 30
0.0
 11
29617.604341291921
 21
1819.7494964292871
 31
0.0
1001
AUTOCAD_POSTSCRIPT_FIGURE
1002
{
1000
PSFILL
1000
Grayscale
1000
Grayscale
1070
    25
1002
}
  0
LINE
  5
FD93
  8
YODOROGO
 10
29765.604341291921
 20
1859.749496429288
 30
0.0
 11
29765.604341291921
 21
1819.7494964292871
 31
0.0
1001
AUTOCAD_POSTSCRIPT_FIGURE
1002
{
1000
PSFILL
1000
Grayscale
1000
Grayscale
1070
    25
1002
}
  0
LINE
  5
FD94
  8
YODOROGO
 10
29617.604341291921
 20
1859.749496429288
 30
0.0
 11
29765.604341291921
 21
1859.749496429288
 31
0.0
1001
AUTOCAD_POSTSCRIPT_FIGURE
1002
{
1000
PSFILL
1000
Grayscale
1000
Grayscale
1070
    25
1002
}
  0
LINE
  5
FD95
  8
YODOROGO
 10
29617.604341291921
 20
1907.7494964292871
 30
0.0
 11
29617.604341291921
 21
1859.749496429288
 31
0.0
1001
AUTOCAD_POSTSCRIPT_FIGURE
1002
{
1000
PSFILL
1000
Grayscale
1000
Grayscale
1070
    25
1002
}
  0
LINE
  5
FD96
  8
YODOROGO
 10
29765.604341291921
 20
1907.7494964292871
 30
0.0
 11
29617.604341291921
 21
1907.7494964292871
 31
0.0
1001
AUTOCAD_POSTSCRIPT_FIGURE
1002
{
1000
PSFILL
1000
Grayscale
1000
Grayscale
1070
    25
1002
}
  0
LINE
  5
FD97
  8
YODOROGO
 10
29765.604341291921
 20
1947.749496429288
 30
0.0
 11
29765.604341291921
 21
1907.7494964292871
 31
0.0
1001
AUTOCAD_POSTSCRIPT_FIGURE
1002
{
1000
PSFILL
1000
Grayscale
1000
Grayscale
1070
    25
1002
}
  0
LINE
  5
FD98
  8
YODOROGO
 10
29617.604341291921
 20
1947.749496429288
 30
0.0
 11
29765.604341291921
 21
1947.749496429288
 31
0.0
1001
AUTOCAD_POSTSCRIPT_FIGURE
1002
{
1000
PSFILL
1000
Grayscale
1000
Grayscale
1070
    25
1002
}
  0
LINE
  5
FD99
  8
YODOROGO
 10
29617.604341291921
 20
2027.749496429288
 30
0.0
 11
29617.604341291921
 21
1947.749496429288
 31
0.0
1001
AUTOCAD_POSTSCRIPT_FIGURE
1002
{
1000
PSFILL
1000
Grayscale
1000
Grayscale
1070
    25
1002
}
  0
LINE
  5
FD9A
  8
YODOROGO
 10
29665.604341291921
 20
2027.749496429288
 30
0.0
 11
29617.604341291921
 21
2027.749496429288
 31
0.0
1001
AUTOCAD_POSTSCRIPT_FIGURE
1002
{
1000
PSFILL
1000
Grayscale
1000
Grayscale
1070
    25
1002
}
  0
LINE
  5
FD9B
  8
YODOROGO
 10
29665.604341291921
 20
1995.7494964292871
 30
0.0
 11
29665.604341291921
 21
2027.749496429288
 31
0.0
1001
AUTOCAD_POSTSCRIPT_FIGURE
1002
{
1000
PSFILL
1000
Grayscale
1000
Grayscale
1070
    25
1002
}
  0
LINE
  5
FD9C
  8
YODOROGO
 10
29765.604341291921
 20
1995.7494964292871
 30
0.0
 11
29665.604341291921
 21
1995.7494964292871
 31
0.0
1001
AUTOCAD_POSTSCRIPT_FIGURE
1002
{
1000
PSFILL
1000
Grayscale
1000
Grayscale
1070
    25
1002
}
  0
LINE
  5
FD9D
  8
YODOROGO
 10
29765.604341291921
 20
2027.749496429288
 30
0.0
 11
29765.604341291921
 21
1995.7494964292871
 31
0.0
1001
AUTOCAD_POSTSCRIPT_FIGURE
1002
{
1000
PSFILL
1000
Grayscale
1000
Grayscale
1070
    25
1002
}
  0
LINE
  5
FD9E
  8
YODOROGO
 10
29829.604341291921
 20
2027.749496429288
 30
0.0
 11
29765.604341291921
 21
2027.749496429288
 31
0.0
1001
AUTOCAD_POSTSCRIPT_FIGURE
1002
{
1000
PSFILL
1000
Grayscale
1000
Grayscale
1070
    25
1002
}
  0
LINE
  5
FD9F
  8
YODOROGO
 10
29829.604341291921
 20
1995.7494964292871
 30
0.0
 11
29829.604341291921
 21
2027.749496429288
 31
0.0
1001
AUTOCAD_POSTSCRIPT_FIGURE
1002
{
1000
PSFILL
1000
Grayscale
1000
Grayscale
1070
    25
1002
}
  0
LINE
  5
FDA0
  8
YODOROGO
 10
29829.604341291921
 20
1907.7494964292871
 30
0.0
 11
29829.604341291921
 21
1947.749496429288
 31
0.0
1001
AUTOCAD_POSTSCRIPT_FIGURE
1002
{
1000
PSFILL
1000
Grayscale
1000
Grayscale
1070
    25
1002
}
  0
LINE
  5
FDA1
  8
YODOROGO
 10
29829.604341291921
 20
1819.7494964292871
 30
0.0
 11
29829.604341291921
 21
1859.749496429288
 31
0.0
1001
AUTOCAD_POSTSCRIPT_FIGURE
1002
{
1000
PSFILL
1000
Grayscale
1000
Grayscale
1070
    25
1002
}
  0
LINE
  5
FDA2
  8
YODOROGO
 10
29921.60434129191
 20
1771.7494964292871
 30
0.0
 11
29921.60434129191
 21
1707.749496429288
 31
0.0
1001
AUTOCAD_POSTSCRIPT_FIGURE
1002
{
1000
PSFILL
1000
Grayscale
1000
Grayscale
1070
    25
1002
}
  0
LINE
  5
FDA3
  8
YODOROGO
 10
29829.604341291921
 20
1771.7494964292871
 30
0.0
 11
29921.60434129191
 21
1771.7494964292871
 31
0.0
1001
AUTOCAD_POSTSCRIPT_FIGURE
1002
{
1000
PSFILL
1000
Grayscale
1000
Grayscale
1070
    25
1002
}
  0
LINE
  5
FDA4
  8
YODOROGO
 10
29829.604341291921
 20
1707.749496429288
 30
0.0
 11
29829.604341291921
 21
1771.7494964292871
 31
0.0
1001
AUTOCAD_POSTSCRIPT_FIGURE
1002
{
1000
PSFILL
1000
Grayscale
1000
Grayscale
1070
    25
1002
}
  0
LINE
  5
FDA5
  8
YODOROGO
 10
29765.604341291921
 20
1707.749496429288
 30
0.0
 11
29829.604341291921
 21
1707.749496429288
 31
0.0
1001
AUTOCAD_POSTSCRIPT_FIGURE
1002
{
1000
PSFILL
1000
Grayscale
1000
Grayscale
1070
    25
1002
}
  0
LINE
  5
FDA6
  8
YODOROGO
 10
29765.604341291921
 20
1771.7494964292871
 30
0.0
 11
29765.604341291921
 21
1707.749496429288
 31
0.0
1001
AUTOCAD_POSTSCRIPT_FIGURE
1002
{
1000
PSFILL
1000
Grayscale
1000
Grayscale
1070
    25
1002
}
  0
LINE
  5
FDA7
  8
YODOROGO
 10
29673.604341291921
 20
1771.7494964292871
 30
0.0
 11
29765.604341291921
 21
1771.7494964292871
 31
0.0
1001
AUTOCAD_POSTSCRIPT_FIGURE
1002
{
1000
PSFILL
1000
Grayscale
1000
Grayscale
1070
    25
1002
}
  0
ARC
  5
FDA8
  8
YODOROGO
 10
31059.517893357912
 20
1602.6807375155761
 30
0.0
 40
178.22128111072141
 50
281.02627495425338
 51
357.77113575573799
  0
LINE
  5
FDA9
  8
YODOROGO
 10
31413.604341291921
 20
1907.7494964292871
 30
0.0
 11
31165.604341291921
 21
1907.7494964292871
 31
0.0
  0
LINE
  5
FDAA
  8
YODOROGO
 10
31413.604341291921
 20
2027.749496429288
 30
0.0
 11
31165.604341291921
 21
2027.749496429288
 31
0.0
  0
LINE
  5
FDAB
  8
YODOROGO
 10
31165.604341291921
 20
1963.749496429286
 30
0.0
 11
31413.604341291921
 21
1963.749496429286
 31
0.0
  0
LINE
  5
FDAC
  8
YODOROGO
 10
30791.604341291921
 20
1563.7494964292871
 30
0.0
 11
30791.604341291921
 21
1755.7494964292871
 31
0.0
  0
LINE
  5
FDAD
  8
YODOROGO
 10
30763.604341291921
 20
1691.749496429288
 30
0.0
 11
30763.604341291921
 21
1563.7494964292871
 31
0.0
  0
LINE
  5
FDAE
  8
YODOROGO
 10
30723.604341291921
 20
1491.749496429288
 30
0.0
 11
30723.604341291921
 21
1691.749496429288
 31
0.0
  0
LINE
  5
FDAF
  8
YODOROGO
 10
30899.604341291932
 20
1691.749496429288
 30
0.0
 11
30899.604341291932
 21
1491.749496429288
 31
0.0
  0
LINE
  5
FDB0
  8
YODOROGO
 10
30859.604341291932
 20
1563.7494964292871
 30
0.0
 11
30859.604341291932
 21
1691.749496429288
 31
0.0
  0
LINE
  5
FDB1
  8
YODOROGO
 10
30831.604341291921
 20
1755.7494964292871
 30
0.0
 11
30831.604341291921
 21
1563.7494964292871
 31
0.0
  0
LINE
  5
FDB2
  8
YODOROGO
 10
30973.604341291921
 20
2027.749496429288
 30
0.0
 11
30973.604341291921
 21
1467.749496429288
 31
0.0
  0
LINE
  5
FDB3
  8
YODOROGO
 10
30645.604341291921
 20
1427.749496429288
 30
0.0
 11
30645.604341291921
 21
2027.749496429288
 31
0.0
  0
LINE
  5
FDB4
  8
YODOROGO
 10
30697.604341291932
 20
1963.749496429286
 30
0.0
 11
30697.604341291932
 21
1427.749496429288
 31
0.0
  0
LINE
  5
FDB5
  8
YODOROGO
 10
30925.604341291921
 20
1547.749496429288
 30
0.0
 11
30925.604341291921
 21
1963.749496429286
 31
0.0
  0
LINE
  5
FDB6
  8
YODOROGO
 10
30381.604341291932
 20
1627.749496429288
 30
0.0
 11
30381.604341291932
 21
1679.749496429288
 31
0.0
  0
LINE
  5
FDB7
  8
YODOROGO
 10
30617.604341291921
 20
1679.749496429288
 30
0.0
 11
30617.604341291921
 21
1627.749496429288
 31
0.0
  0
LINE
  5
FDB8
  8
YODOROGO
 10
31165.604341291921
 20
1907.7494964292871
 30
0.0
 11
31165.604341291921
 21
1635.7494964292871
 31
0.0
  0
LINE
  5
FDB9
  8
YODOROGO
 10
29949.60434129191
 20
1667.749496429288
 30
0.0
 11
29949.60434129191
 21
1707.749496429288
 31
0.0
  0
LINE
  5
FDBA
  8
YODOROGO
 10
29949.60434129191
 20
1667.749496429288
 30
0.0
 11
29949.60434129191
 21
1707.749496429288
 31
0.0
  0
ARC
  5
FDBB
  8
YODOROGO
 10
30537.604341291921
 20
1507.749496429288
 30
0.0
 40
80.0
 50
270.0
 51
0.0
  0
LINE
  5
FDBC
  8
YODOROGO
 10
30569.604341291921
 20
1599.7494964292871
 30
0.0
 11
30617.604341291921
 21
1599.7494964292871
 31
0.0
  0
LINE
  5
FDBD
  8
YODOROGO
 10
30617.604341291921
 20
1627.749496429288
 30
0.0
 11
30529.604341291939
 21
1627.749496429288
 31
0.0
  0
LINE
  5
FDBE
  8
YODOROGO
 10
30217.604341291921
 20
1667.749496429288
 30
0.0
 11
29949.60434129191
 21
1667.749496429288
 31
0.0
  0
LINE
  5
FDBF
  8
YODOROGO
 10
30217.604341291921
 20
1627.749496429288
 30
0.0
 11
30217.604341291921
 21
1667.749496429288
 31
0.0
  0
LINE
  5
FDC0
  8
YODOROGO
 10
30017.604341291921
 20
1627.749496429288
 30
0.0
 11
30217.604341291921
 21
1627.749496429288
 31
0.0
  0
ARC
  5
FDC1
  8
YODOROGO
 10
30230.05882870136
 20
1868.885714952901
 30
0.0
 40
321.37763628522822
 50
228.6181454618993
 51
245.660289248906
  0
LINE
  5
FDC2
  8
YODOROGO
 10
30105.604341291921
 20
1603.7494964292871
 30
0.0
 11
30097.60434129195
 21
1576.0728158699001
 31
0.0
  0
LINE
  5
FDC3
  8
YODOROGO
 10
30189.604341291921
 20
1603.7494964292871
 30
0.0
 11
30105.604341291921
 21
1603.7494964292871
 31
0.0
  0
LINE
  5
FDC4
  8
YODOROGO
 10
30177.604341291921
 20
1551.817722473427
 30
0.0
 11
30189.604341291921
 21
1603.7494964292871
 31
0.0
  0
ARC
  5
FDC5
  8
YODOROGO
 10
30230.05882870045
 20
1868.885714953002
 30
0.0
 40
321.37763628529081
 50
260.60629297969911
 51
267.77903556555862
  0
LINE
  5
FDC6
  8
YODOROGO
 10
30217.604341291921
 20
1427.749496429285
 30
0.0
 11
30217.604341291921
 21
1547.749496429288
 31
0.0
  0
LINE
  5
FDC7
  8
YODOROGO
 10
29937.604341291932
 20
1481.3393349155101
 30
0.0
 11
29937.604341291921
 21
1594.531090531141
 31
0.0
  0
LINE
  5
FDC8
  8
YODOROGO
 10
30217.604341291921
 20
1667.749496429288
 30
0.0
 11
29949.60434129191
 21
1667.749496429288
 31
0.0
  0
LINE
  5
FDC9
  8
YODOROGO
 10
30217.604341291921
 20
1627.749496429288
 30
0.0
 11
30217.604341291921
 21
1667.749496429288
 31
0.0
  0
LINE
  5
FDCA
  8
YODOROGO
 10
30017.604341291921
 20
1627.749496429288
 30
0.0
 11
30217.604341291921
 21
1627.749496429288
 31
0.0
  0
ARC
  5
FDCB
  8
YODOROGO
 10
30230.05882870136
 20
1868.885714952901
 30
0.0
 40
321.37763628522822
 50
228.6181454618993
 51
245.660289248906
  0
LINE
  5
FDCC
  8
YODOROGO
 10
30105.604341291921
 20
1603.7494964292871
 30
0.0
 11
30097.60434129195
 21
1576.0728158699001
 31
0.0
  0
LINE
  5
FDCD
  8
YODOROGO
 10
30189.604341291921
 20
1603.7494964292871
 30
0.0
 11
30105.604341291921
 21
1603.7494964292871
 31
0.0
  0
LINE
  5
FDCE
  8
YODOROGO
 10
30177.604341291921
 20
1551.817722473427
 30
0.0
 11
30189.604341291921
 21
1603.7494964292871
 31
0.0
  0
ARC
  5
FDCF
  8
YODOROGO
 10
30230.05882870045
 20
1868.885714953002
 30
0.0
 40
321.37763628529081
 50
260.60629297969911
 51
267.77903556555862
  0
LINE
  5
FDD0
  8
YODOROGO
 10
30217.604341291921
 20
1427.749496429285
 30
0.0
 11
30217.604341291921
 21
1547.749496429288
 31
0.0
  0
LINE
  5
FDD1
  8
YODOROGO
 10
29937.604341291932
 20
1481.3393349155101
 30
0.0
 11
29937.604341291921
 21
1594.531090531141
 31
0.0
  0
LINE
  5
FDD2
  8
YODOROGO
 10
30433.604341291921
 20
1573.749496429288
 30
0.0
 11
30381.604341291932
 21
1573.749496429288
 31
0.0
  0
LINE
  5
FDD3
  8
YODOROGO
 10
30433.604341291921
 20
1601.749496429285
 30
0.0
 11
30433.604341291921
 21
1573.749496429288
 31
0.0
  0
LINE
  5
FDD4
  8
YODOROGO
 10
30381.604341291932
 20
1601.749496429285
 30
0.0
 11
30433.604341291921
 21
1601.749496429285
 31
0.0
  0
LINE
  5
FDD5
  8
YODOROGO
 10
30381.604341291932
 20
1573.749496429288
 30
0.0
 11
30381.604341291932
 21
1601.749496429285
 31
0.0
  0
LINE
  5
FDD6
  8
YODOROGO
 10
30429.604341291921
 20
1577.7494964292871
 30
0.0
 11
30385.604341291921
 21
1577.7494964292871
 31
0.0
  0
LINE
  5
FDD7
  8
YODOROGO
 10
30429.604341291921
 20
1597.749496429288
 30
0.0
 11
30429.604341291921
 21
1577.7494964292871
 31
0.0
  0
LINE
  5
FDD8
  8
YODOROGO
 10
30385.604341291921
 20
1597.749496429288
 30
0.0
 11
30429.604341291921
 21
1597.749496429288
 31
0.0
  0
LINE
  5
FDD9
  8
YODOROGO
 10
30385.604341291921
 20
1577.7494964292871
 30
0.0
 11
30385.604341291921
 21
1597.749496429288
 31
0.0
  0
LINE
  5
FDDA
  8
YODOROGO
 10
30425.604341291921
 20
1581.749496429286
 30
0.0
 11
30389.604341291921
 21
1581.749496429286
 31
0.0
  0
LINE
  5
FDDB
  8
YODOROGO
 10
30425.604341291921
 20
1593.749496429288
 30
0.0
 11
30425.604341291921
 21
1581.749496429286
 31
0.0
  0
LINE
  5
FDDC
  8
YODOROGO
 10
30389.604341291921
 20
1593.749496429288
 30
0.0
 11
30425.604341291921
 21
1593.749496429288
 31
0.0
  0
LINE
  5
FDDD
  8
YODOROGO
 10
30389.604341291921
 20
1581.749496429286
 30
0.0
 11
30389.604341291921
 21
1593.749496429288
 31
0.0
  0
LINE
  5
FDDE
  8
YODOROGO
 10
30421.604341291932
 20
1585.7494964292871
 30
0.0
 11
30393.604341291921
 21
1585.7494964292871
 31
0.0
  0
LINE
  5
FDDF
  8
YODOROGO
 10
30421.604341291932
 20
1589.749496429288
 30
0.0
 11
30421.604341291932
 21
1585.7494964292871
 31
0.0
  0
LINE
  5
FDE0
  8
YODOROGO
 10
30393.604341291921
 20
1589.749496429288
 30
0.0
 11
30421.604341291932
 21
1589.749496429288
 31
0.0
  0
LINE
  5
FDE1
  8
YODOROGO
 10
30393.604341291921
 20
1585.7494964292871
 30
0.0
 11
30393.604341291921
 21
1589.749496429288
 31
0.0
  0
LINE
  5
FDE2
  8
YODOROGO
 10
30465.604341291921
 20
1627.749496429288
 30
0.0
 11
30381.604341291932
 21
1627.749496429288
 31
0.0
  0
LINE
  5
FDE3
  8
YODOROGO
 10
30465.604341291921
 20
1547.749496429288
 30
0.0
 11
30465.604341291921
 21
1627.749496429288
 31
0.0
  0
LINE
  5
FDE4
  8
YODOROGO
 10
30381.604341291932
 20
1547.749496429288
 30
0.0
 11
30465.604341291921
 21
1547.749496429288
 31
0.0
  0
LINE
  5
FDE5
  8
YODOROGO
 10
30381.604341291932
 20
1427.749496429288
 30
0.0
 11
30381.604341291932
 21
1547.749496429288
 31
0.0
  0
LINE
  5
FDE6
  8
YODOROGO
 10
30537.604341291921
 20
1427.749496429288
 30
0.0
 11
30381.604341291932
 21
1427.749496429288
 31
0.0
  0
LINE
  5
FDE7
  8
YODOROGO
 10
30569.604341291921
 20
1571.749496429285
 30
0.0
 11
30569.604341291921
 21
1599.7494964292871
 31
0.0
  0
ARC
  5
FDE8
  8
YODOROGO
 10
30545.604341291921
 20
1571.749496429291
 30
0.0
 40
24.000000000003752
 50
270.0
 51
359.99999999998772
  0
LINE
  5
FDE9
  8
YODOROGO
 10
30529.604341291939
 20
1547.749496429288
 30
0.0
 11
30545.604341291921
 21
1547.749496429288
 31
0.0
  0
LINE
  5
FDEA
  8
YODOROGO
 10
30529.604341291939
 20
1627.749496429288
 30
0.0
 11
30529.604341291939
 21
1547.749496429288
 31
0.0
  0
LINE
  5
FDEB
  8
YODOROGO
 10
30899.604341291932
 20
1547.749496429288
 30
0.0
 11
30925.604341291921
 21
1547.749496429288
 31
0.0
  0
LINE
  5
FDEC
  8
YODOROGO
 10
30933.604341291921
 20
1427.749496429288
 30
0.0
 11
30899.604341291932
 21
1427.749496429288
 31
0.0
  0
LINE
  5
FDED
  8
YODOROGO
 10
30763.604341291921
 20
1563.7494964292871
 30
0.0
 11
30791.604341291921
 21
1563.7494964292871
 31
0.0
  0
LINE
  5
FDEE
  8
YODOROGO
 10
30899.604341291932
 20
1491.749496429288
 30
0.0
 11
30723.604341291921
 21
1491.749496429288
 31
0.0
  0
LINE
  5
FDEF
  8
YODOROGO
 10
30831.604341291921
 20
1563.7494964292871
 30
0.0
 11
30859.604341291932
 21
1563.7494964292871
 31
0.0
  0
LINE
  5
FDF0
  8
YODOROGO
 10
30899.604341291932
 20
1427.749496429288
 30
0.0
 11
30899.604341291932
 21
1547.749496429288
 31
0.0
  0
LINE
  5
FDF1
  8
YODOROGO
 10
30697.604341291932
 20
1427.749496429288
 30
0.0
 11
30645.604341291921
 21
1427.749496429288
 31
0.0
  0
LINE
  5
FDF2
  8
YODOROGO
 10
30617.604341291921
 20
1599.7494964292871
 30
0.0
 11
30617.604341291921
 21
1507.749496429288
 31
0.0
  0
ARC
  5
FDF3
  8
YODOROGO
 10
30933.604341291921
 20
1467.749496429288
 30
0.0
 40
40.0
 50
270.0
 51
0.0
  0
LINE
  5
FDF4
  8
YODOROGO
 10
31093.604341291921
 20
1523.7494964292871
 30
0.0
 11
31093.604341291921
 21
1427.749496429288
 31
0.0
  0
ARC
  5
FDF5
  8
YODOROGO
 10
31039.721395566768
 20
1637.5313901097329
 30
0.0
 40
125.8955565916754
 50
295.34052442160112
 51
359.18902303418679
  0
LINE
  5
FDF6
  8
YODOROGO
 10
30617.604341291921
 20
1859.749496429288
 30
0.0
 11
30497.604341291921
 21
1939.749496429288
 31
0.0
  0
LINE
  5
FDF7
  8
YODOROGO
 10
30497.604341291921
 20
2027.749496429288
 30
0.0
 11
30617.604341291921
 21
1947.749496429288
 31
0.0
  0
LINE
  5
FDF8
  8
YODOROGO
 10
30529.604341291939
 20
1679.749496429288
 30
0.0
 11
30617.604341291921
 21
1679.749496429288
 31
0.0
  0
LINE
  5
FDF9
  8
YODOROGO
 10
30617.604341291921
 20
1735.7494964292871
 30
0.0
 11
30529.604341291939
 21
1735.7494964292871
 31
0.0
  0
LINE
  5
FDFA
  8
YODOROGO
 10
30381.604341291932
 20
1795.7494964292871
 30
0.0
 11
30617.604341291921
 21
1795.7494964292871
 31
0.0
  0
LINE
  5
FDFB
  8
YODOROGO
 10
30081.604341291921
 20
2027.749496429288
 30
0.0
 11
30021.604341291921
 21
2027.749496429288
 31
0.0
  0
LINE
  5
FDFC
  8
YODOROGO
 10
30081.604341291921
 20
1827.7494964292871
 30
0.0
 11
30081.604341291921
 21
2027.749496429288
 31
0.0
  0
LINE
  5
FDFD
  8
YODOROGO
 10
30021.604341291921
 20
1827.7494964292871
 30
0.0
 11
30081.604341291921
 21
1827.7494964292871
 31
0.0
  0
LINE
  5
FDFE
  8
YODOROGO
 10
30021.604341291921
 20
2027.749496429288
 30
0.0
 11
30021.604341291921
 21
1827.7494964292871
 31
0.0
  0
LINE
  5
FDFF
  8
YODOROGO
 10
30161.604341291921
 20
2027.749496429288
 30
0.0
 11
30217.604341291921
 21
2027.749496429288
 31
0.0
  0
LINE
  5
FE00
  8
YODOROGO
 10
30161.604341291921
 20
1811.749496429288
 30
0.0
 11
30161.604341291921
 21
2027.749496429288
 31
0.0
  0
ARC
  5
FE01
  8
YODOROGO
 10
30121.604341291921
 20
1811.749496429288
 30
0.0
 40
40.0
 50
270.0
 51
0.0
  0
LINE
  5
FE02
  8
YODOROGO
 10
30021.604341291921
 20
1771.7494964292871
 30
0.0
 11
30121.604341291921
 21
1771.7494964292871
 31
0.0
  0
LINE
  5
FE03
  8
YODOROGO
 10
30021.604341291921
 20
1707.749496429288
 30
0.0
 11
30021.604341291921
 21
1771.7494964292871
 31
0.0
  0
LINE
  5
FE04
  8
YODOROGO
 10
30137.604341291921
 20
1707.749496429288
 30
0.0
 11
30021.604341291921
 21
1707.749496429288
 31
0.0
  0
ARC
  5
FE05
  8
YODOROGO
 10
30137.604341291921
 20
1787.7494964292871
 30
0.0
 40
80.0
 50
270.0
 51
0.0
  0
LINE
  5
FE06
  8
YODOROGO
 10
30217.604341291921
 20
2027.749496429288
 30
0.0
 11
30217.604341291921
 21
1787.7494964292871
 31
0.0
  0
LINE
  5
FE07
  8
YODOROGO
 10
29977.604341291921
 20
1947.749496429288
 30
0.0
 11
29977.604341291921
 21
1995.7494964292871
 31
0.0
1001
AUTOCAD_POSTSCRIPT_FIGURE
1002
{
1000
PSFILL
1000
Grayscale
1000
Grayscale
1070
    25
1002
}
  0
LINE
  5
FE08
  8
YODOROGO
 10
29977.604341291921
 20
1859.749496429288
 30
0.0
 11
29977.604341291921
 21
1907.7494964292871
 31
0.0
1001
AUTOCAD_POSTSCRIPT_FIGURE
1002
{
1000
PSFILL
1000
Grayscale
1000
Grayscale
1070
    25
1002
}
  0
LINE
  5
FE09
  8
YODOROGO
 10
29977.604341291921
 20
1707.749496429288
 30
0.0
 11
29977.604341291921
 21
1819.7494964292871
 31
0.0
1001
AUTOCAD_POSTSCRIPT_FIGURE
1002
{
1000
PSFILL
1000
Grayscale
1000
Grayscale
1070
    25
1002
}
  0
LINE
  5
FE0A
  8
YODOROGO
 10
30381.604341291932
 20
1907.7494964292871
 30
0.0
 11
30497.604341291921
 21
2027.749496429288
 31
0.0
  0
LINE
  5
FE0B
  8
YODOROGO
 10
30381.604341291932
 20
1819.7494964292871
 30
0.0
 11
30381.604341291932
 21
1907.7494964292871
 31
0.0
  0
LINE
  5
FE0C
  8
YODOROGO
 10
30497.604341291921
 20
1939.749496429288
 30
0.0
 11
30381.604341291932
 21
1819.7494964292871
 31
0.0
  0
LINE
  5
FE0D
  8
YODOROGO
 10
30465.604341291921
 20
1679.749496429288
 30
0.0
 11
30465.604341291921
 21
1735.7494964292871
 31
0.0
  0
LINE
  5
FE0E
  8
YODOROGO
 10
30381.604341291932
 20
1679.749496429288
 30
0.0
 11
30465.604341291921
 21
1679.749496429288
 31
0.0
  0
LINE
  5
FE0F
  8
YODOROGO
 10
30529.604341291939
 20
1735.7494964292871
 30
0.0
 11
30529.604341291939
 21
1679.749496429288
 31
0.0
  0
LINE
  5
FE10
  8
YODOROGO
 10
30381.604341291932
 20
1735.7494964292871
 30
0.0
 11
30381.604341291932
 21
1795.7494964292871
 31
0.0
  0
LINE
  5
FE11
  8
YODOROGO
 10
30465.604341291921
 20
1735.7494964292871
 30
0.0
 11
30381.604341291932
 21
1735.7494964292871
 31
0.0
  0
LINE
  5
FE12
  8
YODOROGO
 10
30645.604341291921
 20
2027.749496429288
 30
0.0
 11
30973.604341291921
 21
2027.749496429288
 31
0.0
  0
LINE
  5
FE13
  8
YODOROGO
 10
30925.604341291921
 20
1963.749496429286
 30
0.0
 11
30697.604341291932
 21
1963.749496429286
 31
0.0
  0
LINE
  5
FE14
  8
YODOROGO
 10
30873.604341291921
 20
1819.7494964292871
 30
0.0
 11
30899.604341291932
 21
1819.7494964292871
 31
0.0
  0
LINE
  5
FE15
  8
YODOROGO
 10
30899.604341291932
 20
1939.749496429288
 30
0.0
 11
30873.604341291921
 21
1819.7494964292871
 31
0.0
  0
LINE
  5
FE16
  8
YODOROGO
 10
30851.604341291939
 20
1939.749496429288
 30
0.0
 11
30899.604341291932
 21
1939.749496429288
 31
0.0
  0
LINE
  5
FE17
  8
YODOROGO
 10
30825.604341291921
 20
1819.7494964292871
 30
0.0
 11
30851.604341291939
 21
1939.749496429288
 31
0.0
  0
LINE
  5
FE18
  8
YODOROGO
 10
30797.604341291921
 20
1819.7494964292871
 30
0.0
 11
30825.604341291921
 21
1819.7494964292871
 31
0.0
  0
LINE
  5
FE19
  8
YODOROGO
 10
30771.604341291939
 20
1939.749496429288
 30
0.0
 11
30797.604341291921
 21
1819.7494964292871
 31
0.0
  0
LINE
  5
FE1A
  8
YODOROGO
 10
30723.604341291921
 20
1939.749496429288
 30
0.0
 11
30771.604341291939
 21
1939.749496429288
 31
0.0
  0
LINE
  5
FE1B
  8
YODOROGO
 10
30749.604341291921
 20
1819.7494964292871
 30
0.0
 11
30723.604341291921
 21
1939.749496429288
 31
0.0
  0
LINE
  5
FE1C
  8
YODOROGO
 10
30723.604341291921
 20
1819.7494964292871
 30
0.0
 11
30749.604341291921
 21
1819.7494964292871
 31
0.0
  0
LINE
  5
FE1D
  8
YODOROGO
 10
30723.604341291921
 20
1755.7494964292871
 30
0.0
 11
30723.604341291921
 21
1819.7494964292871
 31
0.0
  0
LINE
  5
FE1E
  8
YODOROGO
 10
30899.604341291932
 20
1755.7494964292871
 30
0.0
 11
30723.604341291921
 21
1755.7494964292871
 31
0.0
  0
LINE
  5
FE1F
  8
YODOROGO
 10
30899.604341291932
 20
1819.7494964292871
 30
0.0
 11
30899.604341291932
 21
1755.7494964292871
 31
0.0
  0
LINE
  5
FE20
  8
YODOROGO
 10
30617.604341291921
 20
1947.749496429288
 30
0.0
 11
30617.604341291921
 21
1859.749496429288
 31
0.0
  0
LINE
  5
FE21
  8
YODOROGO
 10
30791.604341291921
 20
1755.7494964292871
 30
0.0
 11
30831.604341291921
 21
1755.7494964292871
 31
0.0
  0
LINE
  5
FE22
  8
YODOROGO
 10
30723.604341291921
 20
1691.749496429288
 30
0.0
 11
30763.604341291921
 21
1691.749496429288
 31
0.0
  0
LINE
  5
FE23
  8
YODOROGO
 10
30859.604341291932
 20
1691.749496429288
 30
0.0
 11
30899.604341291932
 21
1691.749496429288
 31
0.0
  0
LINE
  5
FE24
  8
YODOROGO
 10
30617.604341291921
 20
1795.7494964292871
 30
0.0
 11
30617.604341291921
 21
1735.7494964292871
 31
0.0
  0
LINE
  5
FE25
  8
YODOROGO
 10
31165.604341291921
 20
2027.749496429288
 30
0.0
 11
31165.604341291921
 21
1963.749496429286
 31
0.0
  0
LINE
  5
FE26
  8
YODOROGO
 10
31533.604341291921
 20
1595.7494964292871
 30
0.0
 11
31533.60434129191
 21
1811.749496429288
 31
0.0
  0
LINE
  5
FE27
  8
YODOROGO
 10
31461.60434129191
 20
1987.7494964292871
 30
0.0
 11
31461.60434129191
 21
1635.7494964292871
 31
0.0
  0
LINE
  5
FE28
  8
YODOROGO
 10
31653.604341291921
 20
1427.749496429288
 30
0.0
 11
31653.60434129191
 21
1811.749496429288
 31
0.0
  0
LINE
  5
FE29
  8
YODOROGO
 10
31589.604341291921
 20
1811.749496429288
 30
0.0
 11
31589.604341291921
 21
1427.749496429288
 31
0.0
  0
LINE
  5
FE2A
  8
YODOROGO
 10
31237.604341291921
 20
1595.7494964292871
 30
0.0
 11
31237.604341291921
 21
1707.749496429288
 31
0.0
  0
ARC
  5
FE2B
  8
YODOROGO
 10
31353.914865116069
 20
1607.790351288558
 30
0.0
 40
180.0924485759885
 50
268.62849102169793
 51
356.16638457330322
  0
LINE
  5
FE2C
  8
YODOROGO
 10
31349.604341291939
 20
1527.749496429288
 30
0.0
 11
31349.604341291939
 21
1427.749496429288
 31
0.0
  0
ARC
  5
FE2D
  8
YODOROGO
 10
31351.518075724562
 20
1637.838957017655
 30
0.0
 40
110.1060929836122
 50
269.00410209305932
 51
358.91264455492478
  0
LINE
  5
FE2E
  8
YODOROGO
 10
31589.604341291921
 20
1427.749496429288
 30
0.0
 11
31653.604341291921
 21
1427.749496429288
 31
0.0
  0
LINE
  5
FE2F
  8
YODOROGO
 10
31533.60434129191
 20
1811.749496429288
 30
0.0
 11
31589.604341291921
 21
1811.749496429288
 31
0.0
  0
LINE
  5
FE30
  8
YODOROGO
 10
31621.604341291939
 20
1987.7494964292871
 30
0.0
 11
31461.60434129191
 21
1987.7494964292871
 31
0.0
  0
LINE
  5
FE31
  8
YODOROGO
 10
31533.60434129191
 20
1915.7494964292871
 30
0.0
 11
31661.604341291939
 21
1915.7494964292871
 31
0.0
  0
LINE
  5
FE32
  8
YODOROGO
 10
31701.604341291939
 20
1875.7494964292871
 30
0.0
 11
31533.60434129191
 21
1875.7494964292871
 31
0.0
  0
LINE
  5
FE33
  8
YODOROGO
 10
31237.604341291921
 20
1779.749496429288
 30
0.0
 11
31349.604341291939
 21
1779.749496429288
 31
0.0
  0
LINE
  5
FE34
  8
YODOROGO
 10
31237.604341291921
 20
1835.7494964292871
 30
0.0
 11
31237.604341291921
 21
1779.749496429288
 31
0.0
  0
LINE
  5
FE35
  8
YODOROGO
 10
31349.604341291939
 20
1835.7494964292871
 30
0.0
 11
31237.604341291921
 21
1835.7494964292871
 31
0.0
  0
LINE
  5
FE36
  8
YODOROGO
 10
31349.604341291939
 20
1779.749496429288
 30
0.0
 11
31349.604341291939
 21
1835.7494964292871
 31
0.0
  0
LINE
  5
FE37
  8
YODOROGO
 10
31533.60434129191
 20
1875.7494964292871
 30
0.0
 11
31533.60434129191
 21
1915.7494964292871
 31
0.0
  0
LINE
  5
FE38
  8
YODOROGO
 10
31413.604341291921
 20
1707.749496429288
 30
0.0
 11
31413.604341291921
 21
1907.7494964292871
 31
0.0
  0
LINE
  5
FE39
  8
YODOROGO
 10
31237.604341291921
 20
1707.749496429288
 30
0.0
 11
31413.604341291921
 21
1707.749496429288
 31
0.0
  0
LINE
  5
FE3A
  8
YODOROGO
 10
31413.604341291921
 20
1963.749496429286
 30
0.0
 11
31413.604341291921
 21
2027.749496429288
 31
0.0
  0
ARC
  5
FE3B
  8
YODOROGO
 10
31621.604341291939
 20
2003.749496429285
 30
0.0
 40
15.999999999994539
 50
270.0
 51
0.0000000000081422
  0
LINE
  5
FE3C
  8
YODOROGO
 10
31637.604341291921
 20
2027.749496429288
 30
0.0
 11
31637.604341291921
 21
2003.7494964292871
 31
0.0
  0
LINE
  5
FE3D
  8
YODOROGO
 10
31701.604341291939
 20
2027.749496429288
 30
0.0
 11
31637.604341291921
 21
2027.749496429288
 31
0.0
  0
LINE
  5
FE3E
  8
YODOROGO
 10
31701.604341291939
 20
1955.7494964292871
 30
0.0
 11
31701.604341291939
 21
2027.749496429288
 31
0.0
  0
ARC
  5
FE3F
  8
YODOROGO
 10
31661.604341291939
 20
1955.7494964292871
 30
0.0
 40
40.0
 50
270.0
 51
0.0
  0
LINE
  5
FE40
  8
YODOROGO
 10
31701.604341291939
 20
1811.749496429288
 30
0.0
 11
31701.604341291939
 21
1875.7494964292871
 31
0.0
  0
LINE
  5
FE41
  8
YODOROGO
 10
31653.60434129191
 20
1811.749496429288
 30
0.0
 11
31701.604341291939
 21
1811.749496429288
 31
0.0
  0
LINE
  5
FED0
  8
SUNPOU
  6
CONTINUOUS
 62
     4
 10
6326.2335704709403
 20
8478.188374000003
 30
0.0
 11
6326.2335704709403
 21
9869.1883999999955
 31
0.0
  0
LINE
  5
FED1
  8
SUNPOU
  6
CONTINUOUS
 62
     4
 10
11876.233570470929
 20
8610.0781974124311
 30
0.0
 11
11876.233570470929
 21
9869.1883999999955
 31
0.0
  0
LINE
  5
FED2
  8
SUNPOU
  6
CONTINUOUS
 62
     4
 10
6326.2335704709403
 20
9789.1883999999955
 30
0.0
 11
11876.233570470929
 21
9789.1883999999955
 31
0.0
  0
LINE
  5
FED3
  8
SUNPOU
  6
CONTINUOUS
 62
     4
 10
11726.23357047094
 20
8536.0984379999973
 30
0.0
 11
11726.23357047094
 21
9469.1900500000029
 31
0.0
  0
LINE
  5
FED4
  8
SUNPOU
  6
CONTINUOUS
 62
     4
 10
11876.233570470929
 20
8610.0781974124311
 30
0.0
 11
11876.233570470929
 21
9469.1900500000029
 31
0.0
  0
LINE
  5
FED5
  8
SUNPOU
  6
CONTINUOUS
 62
     4
 10
11726.23357047094
 20
9389.1900500000029
 30
0.0
 11
11486.23357047094
 21
9389.1900500000029
 31
0.0
  0
LINE
  5
FED6
  8
SUNPOU
  6
CONTINUOUS
 62
     4
 10
11876.233570470929
 20
9389.1900500000029
 30
0.0
 11
12116.23357047094
 21
9389.1900500000029
 31
0.0
  0
LINE
  5
FED7
  8
SUNPOU
  6
CONTINUOUS
 62
     4
 10
11726.23357047094
 20
9389.1900500000029
 30
0.0
 11
11876.233570470929
 21
9389.1900500000029
 31
0.0
  0
LINE
  5
FED8
  8
SUNPOU
  6
CONTINUOUS
 62
     4
 10
6506.2335704709376
 20
8348.3741496838102
 30
0.0
 11
6506.2335704709376
 21
9469.1900500000029
 31
0.0
  0
LINE
  5
FED9
  8
SUNPOU
  6
CONTINUOUS
 62
     4
 10
11726.23357047094
 20
8536.0984379999973
 30
0.0
 11
11726.23357047094
 21
9469.1900500000029
 31
0.0
  0
LINE
  5
FEDA
  8
SUNPOU
  6
CONTINUOUS
 62
     4
 10
6506.2335704709376
 20
9389.1900500000029
 30
0.0
 11
11726.23357047094
 21
9389.1900500000029
 31
0.0
  0
LINE
  5
FEDB
  8
SUNPOU
  6
CONTINUOUS
 62
     4
 10
6326.2335704709403
 20
8478.188374000003
 30
0.0
 11
6326.2335704709403
 21
9469.1900500000029
 31
0.0
  0
LINE
  5
FEDC
  8
SUNPOU
  6
CONTINUOUS
 62
     4
 10
6506.2335704709376
 20
8348.3741496838102
 30
0.0
 11
6506.2335704709376
 21
9469.1900500000029
 31
0.0
  0
LINE
  5
FEDD
  8
SUNPOU
  6
CONTINUOUS
 62
     4
 10
6326.2335704709403
 20
9389.1900500000029
 30
0.0
 11
6506.2335704709376
 21
9389.1900500000029
 31
0.0
  0
LINE
  5
FEDE
  8
SUNPOU
  6
CONTINUOUS
 62
     4
 10
11818.73357047094
 20
6241.1883740000021
 30
0.0
 11
12896.23396647094
 21
6241.1883740000021
 31
0.0
  0
LINE
  5
FEDF
  8
SUNPOU
  6
CONTINUOUS
 62
     4
 10
11911.04083007032
 20
8590.188374000003
 30
0.0
 11
12896.23396647094
 21
8590.188374000003
 31
0.0
  0
LINE
  5
FEE0
  8
SUNPOU
  6
CONTINUOUS
 62
     4
 10
12816.23396647094
 20
6241.1883740000021
 30
0.0
 11
12816.23396647094
 21
8590.188374000003
 31
0.0
  0
LINE
  5
FEE1
  8
SUNPOU
  6
CONTINUOUS
 62
     4
 10
6418.7335704709421
 20
6241.1883740000021
 30
0.0
 11
5336.2331744709518
 21
6241.1883740000039
 31
0.0
  0
LINE
  5
FEE2
  8
SUNPOU
  6
CONTINUOUS
 62
     4
 10
6246.2335704709403
 20
8396.688374000003
 30
0.0
 11
5336.2331744709518
 21
8396.688374000003
 31
0.0
  0
LINE
  5
FEE3
  8
SUNPOU
  6
CONTINUOUS
 62
     4
 10
5416.2331744709518
 20
6241.1883740000039
 30
0.0
 11
5416.2331744709518
 21
8396.688374000003
 31
0.0
  0
LINE
  5
FEE4
  8
SUNPOU
  6
CONTINUOUS
 62
     4
 10
6506.2335704709376
 20
6161.1883740000021
 30
0.0
 11
6506.2335704709376
 21
4461.1887039999992
 31
0.0
  0
LINE
  5
FEE5
  8
SUNPOU
  6
CONTINUOUS
 62
     4
 10
11726.23357047094
 20
6161.1883740000021
 30
0.0
 11
11726.23357047094
 21
4461.1887039999992
 31
0.0
  0
LINE
  5
FEE6
  8
SUNPOU
  6
CONTINUOUS
 62
     4
 10
6506.2335704709376
 20
4541.1887039999983
 30
0.0
 11
11726.23357047094
 21
4541.1887039999983
 31
0.0
  0
LINE
  5
FEE7
  8
SUNPOU
  6
CONTINUOUS
 62
     4
 10
11683.733570470929
 20
5798.5361160000011
 30
0.0
 11
11683.733570470929
 21
4861.1885389999998
 31
0.0
  0
LINE
  5
FEE8
  8
SUNPOU
  6
CONTINUOUS
 62
     4
 10
11726.23357047094
 20
6161.1883740000021
 30
0.0
 11
11726.23357047094
 21
4861.1885389999998
 31
0.0
  0
LINE
  5
FEE9
  8
SUNPOU
  6
CONTINUOUS
 62
     4
 10
11683.733570470929
 20
4941.1885390000016
 30
0.0
 11
11443.73357047094
 21
4941.1885390000016
 31
0.0
  0
LINE
  5
FEEA
  8
SUNPOU
  6
CONTINUOUS
 62
     4
 10
11726.23357047094
 20
4941.1885390000016
 30
0.0
 11
11966.23357047094
 21
4941.1885390000016
 31
0.0
  0
LINE
  5
FEEB
  8
SUNPOU
  6
CONTINUOUS
 62
     4
 10
11683.733570470929
 20
4941.1885390000016
 30
0.0
 11
11726.23357047094
 21
4941.1885390000016
 31
0.0
  0
LINE
  5
FEEC
  8
SUNPOU
  6
CONTINUOUS
 62
     4
 10
6548.7335704709412
 20
5798.5361160000011
 30
0.0
 11
6548.7335704709412
 21
4861.1885389999998
 31
0.0
  0
LINE
  5
FEED
  8
SUNPOU
  6
CONTINUOUS
 62
     4
 10
6506.2335704709376
 20
6161.1883740000021
 30
0.0
 11
6506.2335704709376
 21
4861.1885389999998
 31
0.0
  0
LINE
  5
FEEE
  8
SUNPOU
  6
CONTINUOUS
 62
     4
 10
6548.7335704709412
 20
4941.1885390000016
 30
0.0
 11
6788.7335704709403
 21
4941.1885390000016
 31
0.0
  0
LINE
  5
FEEF
  8
SUNPOU
  6
CONTINUOUS
 62
     4
 10
6506.2335704709376
 20
4941.1885390000016
 30
0.0
 11
6266.2335704709412
 21
4941.1885390000016
 31
0.0
  0
LINE
  5
FEF0
  8
SUNPOU
  6
CONTINUOUS
 62
     4
 10
6548.7335704709412
 20
4941.1885390000016
 30
0.0
 11
6506.2335704709376
 21
4941.1885390000016
 31
0.0
  0
LINE
  5
FEF1
  8
SUNPOU
  6
CONTINUOUS
 62
     4
 10
9116.2335704709403
 20
5798.5361160000011
 30
0.0
 11
9116.2335704709403
 21
4861.1885389999998
 31
0.0
  0
LINE
  5
FEF2
  8
SUNPOU
  6
CONTINUOUS
 62
     4
 10
6548.7335704709412
 20
5798.5361160000011
 30
0.0
 11
6548.7335704709412
 21
4861.1885389999998
 31
0.0
  0
LINE
  5
FEF3
  8
SUNPOU
  6
CONTINUOUS
 62
     4
 10
9116.2335704709403
 20
4941.1885390000016
 30
0.0
 11
6548.7335704709412
 21
4941.1885390000016
 31
0.0
  0
LINE
  5
FEF4
  8
SUNPOU
  6
CONTINUOUS
 62
     4
 10
9116.2335704709403
 20
5798.5361160000011
 30
0.0
 11
9116.2335704709403
 21
4861.1885389999998
 31
0.0
  0
LINE
  5
FEF5
  8
SUNPOU
  6
CONTINUOUS
 62
     4
 10
11683.733570470929
 20
5798.5361160000011
 30
0.0
 11
11683.733570470929
 21
4861.1885389999998
 31
0.0
  0
LINE
  5
FEF6
  8
SUNPOU
  6
CONTINUOUS
 62
     4
 10
9116.2335704709403
 20
4941.1885390000016
 30
0.0
 11
11683.733570470929
 21
4941.1885390000016
 31
0.0
  0
TEXT
  5
FF6D
  8
0
  6
CONTINUOUS
 62
     7
 10
9999.9835704709403
 20
5021.1885389999998
 30
0.0
 40
160.0
  1
2567.5
  0
TEXT
  5
FF6E
  8
0
  6
CONTINUOUS
 62
     7
 10
7432.4835704709412
 20
5021.1885389999998
 30
0.0
 40
160.0
  1
2567.5
  0
TEXT
  5
FF6F
  8
0
  6
CONTINUOUS
 62
     7
 10
5924.2439564709493
 20
5022.1790570000003
 30
0.0
 40
160.0
  1
42.5
  0
TEXT
  5
FF70
  8
0
  6
CONTINUOUS
 62
     7
 10
11846.23522047094
 20
5021.1883080000007
 30
0.0
 40
160.0
  1
42.5
  0
TEXT
  5
FF71
  8
0
  6
CONTINUOUS
 62
     7
 10
8836.2335704709403
 20
4621.1887039999983
 30
0.0
 40
160.0
  1
5220
  0
TEXT
  5
FF72
  8
0
  6
CONTINUOUS
 62
     7
 10
5336.23317447095
 20
6326.9383740000048
 30
0.0
 40
160.0
  1
2155.5（2395.5）
 50
90.0
  0
TEXT
  5
FF73
  8
0
  6
CONTINUOUS
 62
     7
 10
12736.23396647094
 20
6610.35504066667
 30
0.0
 40
160.0
  1
2349（2589）
 50
90.0
  0
TEXT
  5
FF74
  8
0
  6
CONTINUOUS
 62
     7
 10
5871.8917553358442
 20
9469.1900500000029
 30
0.0
 40
160.0
  1
180
  0
TEXT
  5
FF75
  8
0
  6
CONTINUOUS
 62
     7
 10
8836.2335704709403
 20
9469.1900500000029
 30
0.0
 40
160.0
  1
5220
  0
TEXT
  5
FF76
  8
0
  6
CONTINUOUS
 62
     7
 10
11942.900237137599
 20
9469.1900500000029
 30
0.0
 40
160.0
  1
150
  0
TEXT
  5
FF77
  8
0
  6
CONTINUOUS
 62
     7
 10
8821.2335704709403
 20
9869.1883999999955
 30
0.0
 40
160.0
  1
5550
  0
ARC
  5
10004
  8
0
  6
BYBLOCK
 62
     0
 10
6326.2335704709403
 20
9789.1883999999955
 30
0.0
 40
15.0
 50
0.0
 51
180.0
  0
ARC
  5
10005
  8
0
  6
BYBLOCK
 62
     0
 10
6326.2335704709403
 20
9789.1883999999955
 30
0.0
 40
15.0
 50
180.0
 51
0.0
  0
ARC
  5
10006
  8
0
  6
BYBLOCK
 62
     0
 10
11876.233570470929
 20
9789.1883999999955
 30
0.0
 40
15.0
 50
180.0
 51
0.0
  0
ARC
  5
10007
  8
0
  6
BYBLOCK
 62
     0
 10
11876.233570470929
 20
9789.1883999999955
 30
0.0
 40
15.0
 50
0.0
 51
180.0
  0
ARC
  5
10008
  8
0
  6
BYBLOCK
 62
     0
 10
11726.23357047094
 20
9389.1900500000029
 30
0.0
 40
15.0
 50
180.0
 51
0.0
  0
ARC
  5
10009
  8
0
  6
BYBLOCK
 62
     0
 10
11726.23357047094
 20
9389.1900500000029
 30
0.0
 40
15.0
 50
0.0
 51
180.0
  0
ARC
  5
1000A
  8
0
  6
BYBLOCK
 62
     0
 10
11876.233570470929
 20
9389.1900500000029
 30
0.0
 40
15.0
 50
0.0
 51
180.0
  0
ARC
  5
1000B
  8
0
  6
BYBLOCK
 62
     0
 10
11876.233570470929
 20
9389.1900500000029
 30
0.0
 40
15.0
 50
180.0
 51
0.0
  0
ARC
  5
1000C
  8
0
  6
BYBLOCK
 62
     0
 10
6506.2335704709376
 20
9389.1900500000029
 30
0.0
 40
15.0
 50
0.0
 51
180.0
  0
ARC
  5
1000D
  8
0
  6
BYBLOCK
 62
     0
 10
6506.2335704709376
 20
9389.1900500000029
 30
0.0
 40
15.0
 50
180.0
 51
0.0
  0
ARC
  5
1000E
  8
0
  6
BYBLOCK
 62
     0
 10
11726.23357047094
 20
9389.1900500000029
 30
0.0
 40
15.0
 50
180.0
 51
0.0
  0
ARC
  5
1000F
  8
0
  6
BYBLOCK
 62
     0
 10
11726.23357047094
 20
9389.1900500000029
 30
0.0
 40
15.0
 50
0.0
 51
180.0
  0
ARC
  5
10010
  8
0
  6
BYBLOCK
 62
     0
 10
6326.2335704709403
 20
9389.1900500000029
 30
0.0
 40
15.0
 50
0.0
 51
180.0
  0
ARC
  5
10011
  8
0
  6
BYBLOCK
 62
     0
 10
6326.2335704709403
 20
9389.1900500000029
 30
0.0
 40
15.0
 50
180.0
 51
0.0
  0
ARC
  5
10012
  8
0
  6
BYBLOCK
 62
     0
 10
6506.2335704709376
 20
9389.1900500000029
 30
0.0
 40
15.0
 50
180.0
 51
0.0
  0
ARC
  5
10013
  8
0
  6
BYBLOCK
 62
     0
 10
6506.2335704709376
 20
9389.1900500000029
 30
0.0
 40
15.0
 50
0.0
 51
180.0
  0
ARC
  5
10014
  8
0
  6
BYBLOCK
 62
     0
 10
12816.23396647094
 20
6241.1883740000021
 30
0.0
 40
15.0
 50
90.0
 51
270.0
  0
ARC
  5
10015
  8
0
  6
BYBLOCK
 62
     0
 10
12816.23396647094
 20
6241.1883740000021
 30
0.0
 40
15.0
 50
270.0
 51
90.0
  0
ARC
  5
10016
  8
0
  6
BYBLOCK
 62
     0
 10
12816.23396647094
 20
8590.188374000003
 30
0.0
 40
15.0
 50
270.0
 51
90.0
  0
ARC
  5
10017
  8
0
  6
BYBLOCK
 62
     0
 10
12816.23396647094
 20
8590.188374000003
 30
0.0
 40
15.0
 50
90.0
 51
270.0
  0
ARC
  5
10018
  8
0
  6
BYBLOCK
 62
     0
 10
5416.2331744709518
 20
6241.1883740000039
 30
0.0
 40
15.0
 50
90.0
 51
270.0
  0
ARC
  5
10019
  8
0
  6
BYBLOCK
 62
     0
 10
5416.2331744709518
 20
6241.1883740000039
 30
0.0
 40
15.0
 50
270.0
 51
90.0
  0
ARC
  5
1001A
  8
0
  6
BYBLOCK
 62
     0
 10
5416.2331744709518
 20
8396.688374000003
 30
0.0
 40
15.0
 50
270.0
 51
90.0
  0
ARC
  5
1001B
  8
0
  6
BYBLOCK
 62
     0
 10
5416.2331744709518
 20
8396.688374000003
 30
0.0
 40
15.0
 50
90.0
 51
270.0
  0
ARC
  5
1001C
  8
0
  6
BYBLOCK
 62
     0
 10
6506.2335704709376
 20
4541.1887039999983
 30
0.0
 40
15.0
 50
0.0
 51
180.0
  0
ARC
  5
1001D
  8
0
  6
BYBLOCK
 62
     0
 10
6506.2335704709376
 20
4541.1887039999983
 30
0.0
 40
15.0
 50
180.0
 51
0.0
  0
ARC
  5
1001E
  8
0
  6
BYBLOCK
 62
     0
 10
11726.23357047094
 20
4541.1887039999983
 30
0.0
 40
15.0
 50
180.0
 51
0.0
  0
ARC
  5
1001F
  8
0
  6
BYBLOCK
 62
     0
 10
11726.23357047094
 20
4541.1887039999983
 30
0.0
 40
15.0
 50
0.0
 51
180.0
  0
ARC
  5
10020
  8
0
  6
BYBLOCK
 62
     0
 10
11683.733570470929
 20
4941.1885390000016
 30
0.0
 40
15.0
 50
180.0
 51
0.0
  0
ARC
  5
10021
  8
0
  6
BYBLOCK
 62
     0
 10
11683.733570470929
 20
4941.1885390000016
 30
0.0
 40
15.0
 50
0.0
 51
180.0
  0
ARC
  5
10022
  8
0
  6
BYBLOCK
 62
     0
 10
11726.23357047094
 20
4941.1885390000016
 30
0.0
 40
15.0
 50
0.0
 51
180.0
  0
ARC
  5
10023
  8
0
  6
BYBLOCK
 62
     0
 10
11726.23357047094
 20
4941.1885390000016
 30
0.0
 40
15.0
 50
180.0
 51
0.0
  0
ARC
  5
10024
  8
0
  6
BYBLOCK
 62
     0
 10
6548.7335704709412
 20
4941.1885390000016
 30
0.0
 40
15.0
 50
0.0
 51
180.0
  0
ARC
  5
10025
  8
0
  6
BYBLOCK
 62
     0
 10
6548.7335704709412
 20
4941.1885390000016
 30
0.0
 40
15.0
 50
180.0
 51
0.0
  0
ARC
  5
10026
  8
0
  6
BYBLOCK
 62
     0
 10
6506.2335704709376
 20
4941.1885390000016
 30
0.0
 40
15.0
 50
180.0
 51
0.0
  0
ARC
  5
10027
  8
0
  6
BYBLOCK
 62
     0
 10
6506.2335704709376
 20
4941.1885390000016
 30
0.0
 40
15.0
 50
0.0
 51
180.0
  0
ARC
  5
10028
  8
0
  6
BYBLOCK
 62
     0
 10
9116.2335704709403
 20
4941.1885390000016
 30
0.0
 40
15.0
 50
180.0
 51
0.0
  0
ARC
  5
10029
  8
0
  6
BYBLOCK
 62
     0
 10
9116.2335704709403
 20
4941.1885390000016
 30
0.0
 40
15.0
 50
0.0
 51
180.0
  0
ARC
  5
1002A
  8
0
  6
BYBLOCK
 62
     0
 10
6548.7335704709412
 20
4941.1885390000016
 30
0.0
 40
15.0
 50
0.0
 51
180.0
  0
ARC
  5
1002B
  8
0
  6
BYBLOCK
 62
     0
 10
6548.7335704709412
 20
4941.1885390000016
 30
0.0
 40
15.0
 50
180.0
 51
0.0
  0
ARC
  5
1002C
  8
0
  6
BYBLOCK
 62
     0
 10
9116.2335704709403
 20
4941.1885390000016
 30
0.0
 40
15.0
 50
0.0
 51
180.0
  0
ARC
  5
1002D
  8
0
  6
BYBLOCK
 62
     0
 10
9116.2335704709403
 20
4941.1885390000016
 30
0.0
 40
15.0
 50
180.0
 51
0.0
  0
ARC
  5
1002E
  8
0
  6
BYBLOCK
 62
     0
 10
11683.733570470929
 20
4941.1885390000016
 30
0.0
 40
15.0
 50
180.0
 51
0.0
  0
ARC
  5
1002F
  8
0
  6
BYBLOCK
 62
     0
 10
11683.733570470929
 20
4941.1885390000016
 30
0.0
 40
15.0
 50
0.0
 51
180.0
  0
TEXT
  5
10169
  8
NAME
 10
21595.82616625919
 20
1076.6369801169251
 30
0.0
 40
360.0
  1
VGC-2652（H）+VKC-5052（H）型-R（単棟）
 41
0.45
  0
TEXT
  5
1016A
  8
NAME
 10
21933.552716389011
 20
1876.0
 30
0.0
 40
360.0
  1
ヨドガレージ ラヴィージュ
 41
0.75
  7
01
  0
LINE
  5
1016B
  8
NAME
  6
CONTINUOUS
 10
26067.886878884299
 20
2236.0
 30
0.0
 11
26067.886878884299
 21
1876.0
 31
0.0
  0
LINE
  5
1016C
  8
NAME
  6
CONTINUOUS
 10
26167.886878884299
 20
2236.0
 30
0.0
 11
26167.886878884299
 21
1876.0
 31
0.0
  0
LINE
  5
1016D
  8
NAME
  6
CONTINUOUS
 10
26267.88687888431
 20
2236.0
 30
0.0
 11
26267.88687888431
 21
1876.0
 31
0.0
  0
LINE
  5
1016E
  8
NAME
  6
CONTINUOUS
 10
26007.886878884299
 20
2236.0
 30
0.0
 11
26327.886878884299
 21
2236.0
 31
0.0
  0
LINE
  5
1016F
  8
NAME
  6
CONTINUOUS
 10
26327.886878884299
 20
1876.0
 30
0.0
 11
26007.886878884299
 21
1876.0
 31
0.0
  0
LINE
  5
10613
  8
2-0
  6
CENTER2
 62
     6
 10
18632.009710585629
 20
19317.986252000341
 30
0.0
 11
27666.616789537551
 21
19317.986251999511
 31
0.0
  0
LINE
  5
10614
  8
2-0
  6
CENTER2
 62
     6
 10
18622.01234958537
 20
16750.486252000341
 30
0.0
 11
27666.616789537311
 21
16750.4862519995
 31
0.0
  0
LINE
  5
10615
  8
2-0
  6
CENTER2
 62
     6
 10
18632.00971058516
 20
14182.986252000341
 30
0.0
 11
27666.616789537071
 21
14182.986251999509
 31
0.0
  0
LINE
  5
10616
  8
2-0
  6
CENTER2
 62
     6
 10
27362.01195358577
 20
20960.488494999539
 30
0.0
 11
27362.011953585112
 21
13825.23237353112
 31
0.0
  0
CIRCLE
  5
10617
  8
0-5
  6
CONTINUOUS
 62
     4
 10
27362.011953585781
 20
21160.487175999519
 30
0.0
 40
199.9999949999999
  0
TEXT
  5
10618
  8
0-5
  6
CONTINUOUS
 62
     7
 10
27307.341609585779
 20
21074.261325999549
 30
0.0
 40
160.0
  1
3
 50
359.99999999999471
 72
     4
 11
27360.674942919119
 21
21154.261325999541
 31
0.0
  0
ARC
  5
10619
  8
1-後柱P
  6
HIDE-M
 62
     6
 10
27365.611953585609
 20
19249.936251999519
 30
0.0
 40
2.6000000000000001
 50
180.0
 51
270.0
  0
LINE
  5
1061A
  8
1-後柱P
  6
HIDE-M
 62
     6
 10
27354.01195358561
 20
19247.886861846349
 30
0.0
 11
27354.01195358561
 21
19251.53625199954
 31
0.0
  0
LINE
  5
1061B
  8
1-後柱P
  6
HIDE-M
 62
     6
 10
27364.01195358561
 20
19247.886861846338
 30
0.0
 11
27364.01195358561
 21
19251.536251999529
 31
0.0
  0
LINE
  5
1061C
  8
1-後柱P
  6
1PL-M
 62
     6
 10
27359.01195358561
 20
19242.336251999532
 30
0.0
 11
27359.01195358561
 21
19256.536251999529
 31
0.0
  0
ARC
  5
1061D
  8
1-後柱P
  6
HIDE-M
 62
     6
 10
27352.411953585612
 20
19249.93625199953
 30
0.0
 40
2.6000000000000001
 50
270.0
 51
0.0
  0
LINE
  5
1061E
  8
1-後柱P
  6
HIDE-M
 62
     6
 10
27363.01195358561
 20
19249.936251999519
 30
0.0
 11
27363.01195358561
 21
19251.536251999529
 31
0.0
  0
LINE
  5
1061F
  8
1-後柱P
  6
HIDE-M
 62
     6
 10
27355.01195358561
 20
19249.93625199953
 30
0.0
 11
27355.01195358561
 21
19251.53625199954
 31
0.0
  0
LINE
  5
10620
  8
1-後柱P
 10
27372.91195358563
 20
19362.23625199954
 30
0.0
 11
27351.11195358562
 21
19362.23625199954
 31
0.0
  0
LINE
  5
10621
  8
1-後柱P
 10
27321.11195358562
 20
19324.93625199953
 30
0.0
 11
27321.11195358562
 21
19332.23625199954
 31
0.0
  0
ARC
  5
10622
  8
1-後柱P
 10
27351.11195358562
 20
19332.23625199954
 30
0.0
 40
30.0
 50
90.0
 51
180.0
  0
ARC
  5
10623
  8
1-後柱P
 10
27351.11195358562
 20
19332.23625199954
 30
0.0
 40
31.600000000000001
 50
90.0
 51
180.0
  0
LINE
  5
10624
  8
1-後柱P
 10
27372.91195358563
 20
19363.836251999532
 30
0.0
 11
27351.11195358562
 21
19363.836251999532
 31
0.0
  0
LINE
  5
10625
  8
1-後柱P
 10
27319.511953585621
 20
19324.93625199953
 30
0.0
 11
27319.511953585621
 21
19332.23625199954
 31
0.0
  0
LINE
  5
10626
  8
1-後柱P
 10
27342.51195358561
 20
19303.336251999532
 30
0.0
 11
27342.51195358561
 21
19313.336251999532
 31
0.0
  0
LINE
  5
10627
  8
1-後柱P
 10
27344.111953585609
 20
19313.336251999532
 30
0.0
 11
27344.111953585609
 21
19303.336251999532
 31
0.0
  0
LINE
  5
10628
  8
1-後柱P
 10
27402.911953585619
 20
19324.936251999519
 30
0.0
 11
27402.911953585619
 21
19332.236251999529
 31
0.0
  0
ARC
  5
10629
  8
1-後柱P
 10
27372.911953585619
 20
19332.236251999529
 30
0.0
 40
30.0
 50
0.0
 51
90.0
  0
ARC
  5
1062A
  8
1-後柱P
 10
27372.911953585619
 20
19332.236251999529
 30
0.0
 40
31.600000000000001
 50
0.0
 51
90.0
  0
LINE
  5
1062B
  8
1-後柱P
 10
27404.511953585621
 20
19324.936251999519
 30
0.0
 11
27404.511953585621
 21
19332.236251999529
 31
0.0
  0
LINE
  5
1062C
  8
1-後柱P
 10
27397.911953585652
 20
19318.336251999532
 30
0.0
 11
27386.511953585621
 21
19318.336251999532
 31
0.0
  0
ARC
  5
1062D
  8
1-後柱P
 10
27397.911953585652
 20
19324.936251999519
 30
0.0
 40
6.599999999999997
 50
270.0
 51
0.0
  0
ARC
  5
1062E
  8
1-後柱P
 10
27386.511953585621
 20
19313.336251999532
 30
0.0
 40
5.0
 50
90.0
 51
180.0
  0
LINE
  5
1062F
  8
1-後柱P
 10
27397.911953585652
 20
19319.936251999519
 30
0.0
 11
27386.511953585621
 21
19319.936251999519
 31
0.0
  0
ARC
  5
10630
  8
1-後柱P
 10
27397.911953585652
 20
19324.936251999519
 30
0.0
 40
5.0
 50
270.0
 51
0.0
  0
LINE
  5
10631
  8
1-後柱P
 10
27381.51195358561
 20
19313.336251999532
 30
0.0
 11
27381.51195358561
 21
19253.93625199953
 31
0.0
  0
LINE
  5
10632
  8
1-後柱P
 10
27379.911953585619
 20
19313.336251999532
 30
0.0
 11
27379.911953585612
 21
19253.93625199953
 31
0.0
  0
ARC
  5
10633
  8
1-後柱P
 10
27386.511953585621
 20
19313.336251999532
 30
0.0
 40
6.599999999999997
 50
90.0
 51
180.0
  0
LINE
  5
10634
  8
1-後柱P
 10
27374.91195358563
 20
19247.336251999532
 30
0.0
 11
27341.51195358561
 21
19247.336251999539
 31
0.0
  0
ARC
  5
10635
  8
1-後柱P
 10
27374.91195358563
 20
19253.93625199953
 30
0.0
 40
6.599999999999997
 50
270.0
 51
0.0
  0
LINE
  5
10636
  8
1-後柱P
 10
27374.91195358563
 20
19248.936251999519
 30
0.0
 11
27341.51195358561
 21
19248.93625199953
 31
0.0
  0
ARC
  5
10637
  8
1-後柱P
 10
27374.91195358563
 20
19253.93625199953
 30
0.0
 40
5.0
 50
270.0
 51
0.0
  0
LINE
  5
10638
  8
1-後柱P
 10
27341.51195358561
 20
19248.93625199953
 30
0.0
 11
27341.51195358561
 21
19247.336251999539
 31
0.0
  0
LINE
  5
10639
  8
1-後柱P
 10
27326.111953585609
 20
19318.336251999539
 30
0.0
 11
27337.511953585621
 21
19318.336251999539
 31
0.0
  0
ARC
  5
1063A
  8
1-後柱P
 10
27326.11195358562
 20
19324.93625199953
 30
0.0
 40
6.599999999999997
 50
180.0
 51
270.0
  0
ARC
  5
1063B
  8
1-後柱P
 10
27337.511953585621
 20
19313.336251999532
 30
0.0
 40
5.0
 50
0.0
 51
90.0
  0
LINE
  5
1063C
  8
1-後柱P
 10
27337.511953585621
 20
19319.93625199953
 30
0.0
 11
27326.111953585609
 21
19319.93625199953
 31
0.0
  0
ARC
  5
1063D
  8
1-後柱P
 10
27337.511953585621
 20
19313.336251999532
 30
0.0
 40
6.599999999999997
 50
0.0
 51
90.0
  0
ARC
  5
1063E
  8
1-後柱P
 10
27326.11195358562
 20
19324.93625199953
 30
0.0
 40
5.0
 50
180.0
 51
270.0
  0
LINE
  5
1063F
  8
1-後柱P
 10
27342.51195358561
 20
19303.336251999532
 30
0.0
 11
27344.111953585609
 21
19303.336251999532
 31
0.0
  0
LINE
  5
10640
  8
1-後柱カバ-P
 10
27319.51195358561
 20
19311.636251999538
 30
0.0
 11
27319.51195358561
 21
19252.336251999532
 31
0.0
  0
ARC
  5
10641
  8
1-後柱カバ-P
 10
27326.111953585609
 20
19252.336251999532
 30
0.0
 40
6.599999999999997
 50
180.0
 51
270.0
  0
LINE
  5
10642
  8
1-後柱カバ-P
 10
27321.111953585609
 20
19311.636251999538
 30
0.0
 11
27321.111953585609
 21
19252.336251999532
 31
0.0
  0
ARC
  5
10643
  8
1-後柱カバ-P
 10
27326.111953585609
 20
19311.636251999538
 30
0.0
 40
5.0
 50
90.0
 51
180.0
  0
LINE
  5
10644
  8
1-後柱カバ-P
 10
27326.111953585609
 20
19245.73625199954
 30
0.0
 11
27397.911953585641
 21
19245.736251999529
 31
0.0
  0
ARC
  5
10645
  8
1-後柱カバ-P
 10
27397.911953585641
 20
19252.336251999521
 30
0.0
 40
6.599999999999997
 50
270.0
 51
0.0
  0
LINE
  5
10646
  8
1-後柱カバ-P
 10
27326.111953585609
 20
19247.336251999539
 30
0.0
 11
27397.911953585641
 21
19247.336251999532
 31
0.0
  0
ARC
  5
10647
  8
1-後柱カバ-P
 10
27397.911953585641
 20
19252.336251999521
 30
0.0
 40
5.0
 50
270.0
 51
0.0
  0
ARC
  5
10648
  8
1-後柱カバ-P
 10
27326.111953585609
 20
19252.336251999532
 30
0.0
 40
5.0
 50
180.0
 51
270.0
  0
LINE
  5
10649
  8
1-後柱カバ-P
 10
27404.51195358561
 20
19252.336251999521
 30
0.0
 11
27404.51195358561
 21
19311.636251999531
 31
0.0
  0
LINE
  5
1064A
  8
1-後柱カバ-P
 10
27402.911953585612
 20
19252.336251999521
 30
0.0
 11
27402.911953585619
 21
19311.636251999531
 31
0.0
  0
ARC
  5
1064B
  8
1-後柱カバ-P
 10
27397.911953585652
 20
19311.636251999531
 30
0.0
 40
5.0
 50
0.0
 51
90.0
  0
LINE
  5
1064C
  8
1-後柱カバ-P
  6
1PL-M
 62
     6
 10
27362.01195358561
 20
19253.236251999529
 30
0.0
 11
27362.01195358561
 21
19240.23625199954
 31
0.0
  0
LINE
  5
1064D
  8
1-後柱カバ-P
  6
HIDE-M
 62
     6
 10
27355.01195358561
 20
19245.73625199954
 30
0.0
 11
27355.01195358561
 21
19247.336251999539
 31
0.0
  0
LINE
  5
1064E
  8
1-後柱カバ-P
  6
HIDE-M
 62
     6
 10
27369.01195358561
 20
19245.736251999529
 30
0.0
 11
27369.01195358561
 21
19247.336251999532
 31
0.0
  0
ARC
  5
1064F
  8
1-後柱カバ-P
 10
27326.111953585609
 20
19311.636251999538
 30
0.0
 40
6.599999999999997
 50
90.0
 51
180.0
  0
ARC
  5
10650
  8
1-後柱カバ-P
 10
27397.911953585652
 20
19311.636251999531
 30
0.0
 40
6.599999999999997
 50
0.0
 51
90.0
  0
LINE
  5
10651
  8
1-後柱カバ-P
 10
27389.51195358561
 20
19318.23625199954
 30
0.0
 11
27397.911953585652
 21
19318.236251999529
 31
0.0
  0
LINE
  5
10652
  8
1-後柱カバ-P
 10
27334.51195358561
 20
19318.23625199954
 30
0.0
 11
27326.111953585609
 21
19318.23625199954
 31
0.0
  0
LINE
  5
10653
  8
1-後柱カバ-P
 10
27389.51195358561
 20
19316.636251999538
 30
0.0
 11
27397.911953585652
 21
19316.636251999531
 31
0.0
  0
LINE
  5
10654
  8
1-後柱カバ-P
 10
27334.51195358561
 20
19316.636251999538
 30
0.0
 11
27326.111953585609
 21
19316.636251999538
 31
0.0
  0
LINE
  5
10655
  8
1-後柱カバ-P
 10
27334.51195358561
 20
19316.636251999538
 30
0.0
 11
27334.51195358561
 21
19318.23625199954
 31
0.0
  0
LINE
  5
10656
  8
1-後柱カバ-P
 10
27389.51195358561
 20
19318.23625199954
 30
0.0
 11
27389.51195358561
 21
19316.636251999538
 31
0.0
  0
LINE
  5
10657
  8
1-後柱カバ-P
  6
HIDE-M
 62
     6
 10
27393.411953585641
 20
19297.236251999519
 30
0.0
 11
27405.01195358561
 21
19297.236251999511
 31
0.0
  0
LINE
  5
10658
  8
1-後柱カバ-P
  6
HIDE-M
 62
     6
 10
27393.411953585641
 20
19289.236251999519
 30
0.0
 11
27405.01195358561
 21
19289.236251999511
 31
0.0
  0
LINE
  5
10659
  8
1-後柱カバ-P
  6
HIDE-M
 62
     6
 10
27393.411953585641
 20
19296.236251999529
 30
0.0
 11
27405.01195358561
 21
19296.236251999529
 31
0.0
  0
LINE
  5
1065A
  8
1-後柱カバ-P
  6
HIDE-M
 62
     6
 10
27393.411953585641
 20
19290.236251999519
 30
0.0
 11
27405.01195358561
 21
19290.236251999519
 31
0.0
  0
LINE
  5
1065B
  8
1-後柱カバ-P
 10
27394.411953585619
 20
19287.73625199954
 30
0.0
 11
27401.411953585619
 21
19287.736251999529
 31
0.0
  0
LINE
  5
1065C
  8
1-後柱カバ-P
 10
27401.411953585619
 20
19298.736251999519
 30
0.0
 11
27394.411953585619
 21
19298.736251999519
 31
0.0
  0
LINE
  5
1065D
  8
1-後柱カバ-P
 10
27401.411953585619
 20
19299.486251999519
 30
0.0
 11
27401.411953585619
 21
19286.986251999529
 31
0.0
  0
LINE
  5
1065E
  8
1-後柱カバ-P
 10
27405.01195358561
 20
19299.236251999529
 30
0.0
 11
27405.01195358561
 21
19287.236251999519
 31
0.0
  0
LINE
  5
1065F
  8
1-後柱カバ-P
  6
HIDE-M
 62
     6
 10
27402.911953585619
 20
19287.736251999529
 30
0.0
 11
27404.51195358561
 21
19287.736251999529
 31
0.0
  0
LINE
  5
10660
  8
1-後柱カバ-P
 10
27405.01195358561
 20
19287.236251999519
 30
0.0
 11
27404.51195358561
 21
19287.736251999529
 31
0.0
  0
ARC
  5
10661
  8
1-後柱カバ-P
 10
27402.161953585612
 20
19286.986251999529
 30
0.0
 40
0.75
 50
180.0
 51
0.0
  0
LINE
  5
10662
  8
1-後柱カバ-P
  6
HIDE-M
 62
     6
 10
27404.51195358561
 20
19298.736251999519
 30
0.0
 11
27402.911953585619
 21
19298.736251999519
 31
0.0
  0
LINE
  5
10663
  8
1-後柱カバ-P
 10
27405.01195358561
 20
19299.236251999529
 30
0.0
 11
27404.51195358561
 21
19298.736251999519
 31
0.0
  0
ARC
  5
10664
  8
1-後柱カバ-P
 10
27402.161953585612
 20
19299.486251999519
 30
0.0
 40
0.75
 50
0.0
 51
180.0
  0
LINE
  5
10665
  8
1-後柱カバ-P
 10
27393.411953585641
 20
19297.736251999519
 30
0.0
 11
27393.411953585641
 21
19288.73625199954
 31
0.0
  0
ARC
  5
10666
  8
1-後柱カバ-P
 10
27394.411953585619
 20
19288.73625199954
 30
0.0
 40
1.0
 50
180.0
 51
270.0
  0
ARC
  5
10667
  8
1-後柱カバ-P
 10
27394.411953585619
 20
19297.736251999519
 30
0.0
 40
1.0
 50
90.0
 51
180.0
  0
LINE
  5
10668
  8
1-後柱カバ-P
  6
1PL-M
 62
     6
 10
27388.411953585652
 20
19293.236251999529
 30
0.0
 11
27410.011953585621
 21
19293.236251999529
 31
0.0
  0
LINE
  5
10669
  8
1-後柱カバ-P
 10
27394.411953585612
 20
19277.736251999519
 30
0.0
 11
27401.411953585612
 21
19277.736251999519
 31
0.0
  0
LINE
  5
1066A
  8
1-後柱カバ-P
 10
27405.01195358561
 20
19285.236251999519
 30
0.0
 11
27405.01195358561
 21
19277.236251999529
 31
0.0
  0
LINE
  5
1066B
  8
1-後柱カバ-P
  6
HIDE-M
 62
     6
 10
27402.911953585612
 20
19277.736251999519
 30
0.0
 11
27404.51195358561
 21
19277.736251999519
 31
0.0
  0
LINE
  5
1066C
  8
1-後柱カバ-P
 10
27405.01195358561
 20
19277.236251999529
 30
0.0
 11
27404.51195358561
 21
19277.736251999519
 31
0.0
  0
ARC
  5
1066D
  8
1-後柱カバ-P
 10
27402.161953585612
 20
19276.986251999529
 30
0.0
 40
0.75
 50
180.0
 51
0.0
  0
LINE
  5
1066E
  8
1-後柱カバ-P
 10
27393.411953585641
 20
19286.736251999529
 30
0.0
 11
27393.411953585641
 21
19278.736251999529
 31
0.0
  0
ARC
  5
1066F
  8
1-後柱カバ-P
 10
27394.411953585612
 20
19278.736251999529
 30
0.0
 40
1.0
 50
180.0
 51
270.0
  0
LINE
  5
10670
  8
1-後柱カバ-P
  6
1PL-M
 62
     6
 10
27388.411953585641
 20
19283.236251999529
 30
0.0
 11
27410.01195358561
 21
19283.236251999529
 31
0.0
  0
LINE
  5
10671
  8
1-後柱カバ-P
 10
27401.411953585619
 20
19284.986251999511
 30
0.0
 11
27401.411953585612
 21
19276.986251999529
 31
0.0
  0
LINE
  5
10672
  8
1-後柱カバ-P
  6
HIDE-M
 62
     6
 10
27330.611953585609
 20
19297.236251999519
 30
0.0
 11
27319.01195358561
 21
19297.236251999519
 31
0.0
  0
LINE
  5
10673
  8
1-後柱カバ-P
  6
HIDE-M
 62
     6
 10
27330.611953585609
 20
19289.236251999519
 30
0.0
 11
27319.01195358561
 21
19289.236251999519
 31
0.0
  0
LINE
  5
10674
  8
1-後柱カバ-P
  6
HIDE-M
 62
     6
 10
27330.611953585609
 20
19296.23625199954
 30
0.0
 11
27319.01195358561
 21
19296.23625199954
 31
0.0
  0
LINE
  5
10675
  8
1-後柱カバ-P
  6
HIDE-M
 62
     6
 10
27330.611953585609
 20
19290.236251999529
 30
0.0
 11
27319.01195358561
 21
19290.236251999529
 31
0.0
  0
LINE
  5
10676
  8
1-後柱カバ-P
 10
27329.611953585609
 20
19287.73625199954
 30
0.0
 11
27322.611953585609
 21
19287.73625199954
 31
0.0
  0
LINE
  5
10677
  8
1-後柱カバ-P
 10
27322.611953585609
 20
19298.736251999529
 30
0.0
 11
27329.611953585609
 21
19298.736251999529
 31
0.0
  0
LINE
  5
10678
  8
1-後柱カバ-P
 10
27322.611953585609
 20
19299.486251999529
 30
0.0
 11
27322.611953585609
 21
19286.98625199954
 31
0.0
  0
LINE
  5
10679
  8
1-後柱カバ-P
 10
27319.01195358561
 20
19299.23625199954
 30
0.0
 11
27319.01195358561
 21
19287.236251999529
 31
0.0
  0
LINE
  5
1067A
  8
1-後柱カバ-P
  6
HIDE-M
 62
     6
 10
27321.111953585609
 20
19287.73625199954
 30
0.0
 11
27319.51195358561
 21
19287.73625199954
 31
0.0
  0
LINE
  5
1067B
  8
1-後柱カバ-P
 10
27319.01195358561
 20
19287.236251999529
 30
0.0
 11
27319.51195358561
 21
19287.73625199954
 31
0.0
  0
ARC
  5
1067C
  8
1-後柱カバ-P
 10
27321.861953585609
 20
19286.98625199954
 30
0.0
 40
0.75
 50
180.0
 51
0.0
  0
LINE
  5
1067D
  8
1-後柱カバ-P
  6
HIDE-M
 62
     6
 10
27319.51195358561
 20
19298.736251999529
 30
0.0
 11
27321.111953585609
 21
19298.736251999529
 31
0.0
  0
LINE
  5
1067E
  8
1-後柱カバ-P
 10
27319.01195358561
 20
19299.23625199954
 30
0.0
 11
27319.51195358561
 21
19298.736251999529
 31
0.0
  0
ARC
  5
1067F
  8
1-後柱カバ-P
 10
27321.861953585609
 20
19299.486251999529
 30
0.0
 40
0.75
 50
0.0
 51
180.0
  0
LINE
  5
10680
  8
1-後柱カバ-P
 10
27330.611953585609
 20
19297.736251999529
 30
0.0
 11
27330.611953585609
 21
19288.73625199954
 31
0.0
  0
ARC
  5
10681
  8
1-後柱カバ-P
 10
27329.611953585609
 20
19288.73625199954
 30
0.0
 40
1.0
 50
270.0
 51
0.0
  0
ARC
  5
10682
  8
1-後柱カバ-P
 10
27329.611953585609
 20
19297.736251999529
 30
0.0
 40
1.0
 50
0.0
 51
90.0
  0
LINE
  5
10683
  8
1-後柱カバ-P
  6
1PL-M
 62
     6
 10
27335.611953585609
 20
19293.23625199954
 30
0.0
 11
27314.011953585599
 21
19293.23625199954
 31
0.0
  0
LINE
  5
10684
  8
1-後柱カバ-P
 10
27329.611953585609
 20
19277.736251999529
 30
0.0
 11
27322.611953585609
 21
19277.736251999529
 31
0.0
  0
LINE
  5
10685
  8
1-後柱カバ-P
 10
27319.01195358561
 20
19285.236251999529
 30
0.0
 11
27319.01195358561
 21
19277.23625199954
 31
0.0
  0
LINE
  5
10686
  8
1-後柱カバ-P
  6
HIDE-M
 62
     6
 10
27321.111953585609
 20
19277.736251999529
 30
0.0
 11
27319.51195358561
 21
19277.736251999529
 31
0.0
  0
LINE
  5
10687
  8
1-後柱カバ-P
 10
27319.01195358561
 20
19277.23625199954
 30
0.0
 11
27319.51195358561
 21
19277.736251999529
 31
0.0
  0
ARC
  5
10688
  8
1-後柱カバ-P
 10
27321.861953585609
 20
19276.98625199954
 30
0.0
 40
0.75
 50
180.0
 51
0.0
  0
LINE
  5
10689
  8
1-後柱カバ-P
 10
27330.611953585609
 20
19286.73625199954
 30
0.0
 11
27330.611953585609
 21
19278.73625199954
 31
0.0
  0
ARC
  5
1068A
  8
1-後柱カバ-P
 10
27329.611953585609
 20
19278.73625199954
 30
0.0
 40
1.0
 50
270.0
 51
0.0
  0
LINE
  5
1068B
  8
1-後柱カバ-P
  6
1PL-M
 62
     6
 10
27335.611953585609
 20
19283.23625199954
 30
0.0
 11
27314.011953585599
 21
19283.23625199954
 31
0.0
  0
LINE
  5
1068C
  8
1-後柱カバ-P
 10
27322.611953585609
 20
19284.986251999529
 30
0.0
 11
27322.611953585609
 21
19276.98625199954
 31
0.0
  0
LINE
  5
1068D
  8
1-後柱カバ-P
  6
HIDE-M
 62
     6
 10
27393.411953585641
 20
19279.23625199954
 30
0.0
 11
27405.01195358561
 21
19279.236251999529
 31
0.0
  0
LINE
  5
1068E
  8
1-後柱カバ-P
  6
HIDE-M
 62
     6
 10
27393.411953585641
 20
19280.236251999529
 30
0.0
 11
27405.01195358561
 21
19280.236251999529
 31
0.0
  0
LINE
  5
1068F
  8
1-後柱カバ-P
  6
HIDE-M
 62
     6
 10
27330.611953585609
 20
19279.23625199954
 30
0.0
 11
27319.01195358561
 21
19279.23625199954
 31
0.0
  0
LINE
  5
10690
  8
1-後柱カバ-P
  6
HIDE-M
 62
     6
 10
27330.611953585609
 20
19280.23625199954
 30
0.0
 11
27319.01195358561
 21
19280.23625199954
 31
0.0
  0
LINE
  5
10691
  8
1-中柱P
 10
27397.911953585361
 20
16679.486251999519
 30
0.0
 11
27326.111953585361
 21
16679.486251999529
 31
0.0
  0
ARC
  5
10692
  8
1-中柱P
 10
27397.911953585361
 20
16684.486251999519
 30
0.0
 40
5.0
 50
270.0
 51
0.0
  0
ARC
  5
10693
  8
1-中柱P
 10
27326.111953585361
 20
16684.486251999529
 30
0.0
 40
5.0
 50
180.0
 51
270.0
  0
LINE
  5
10694
  8
1-中柱P
 10
27397.911953585361
 20
16677.886251999531
 30
0.0
 11
27326.111953585361
 21
16677.886251999538
 31
0.0
  0
ARC
  5
10695
  8
1-中柱P
 10
27397.911953585361
 20
16684.486251999519
 30
0.0
 40
6.599999999999997
 50
270.0
 51
0.0
  0
LINE
  5
10696
  8
1-中柱P
 10
27319.511953585381
 20
16743.78625199954
 30
0.0
 11
27319.51195358537
 21
16684.486251999529
 31
0.0
  0
ARC
  5
10697
  8
1-中柱P
 10
27326.111953585361
 20
16684.486251999529
 30
0.0
 40
6.599999999999997
 50
180.0
 51
270.0
  0
LINE
  5
10698
  8
1-中柱P
 10
27321.111953585361
 20
16684.486251999529
 30
0.0
 11
27321.111953585369
 21
16743.78625199954
 31
0.0
  0
ARC
  5
10699
  8
1-中柱P
 10
27326.111953585369
 20
16743.78625199954
 30
0.0
 40
5.0
 50
90.0
 51
180.0
  0
LINE
  5
1069A
  8
1-中柱P
 10
27404.511953585381
 20
16743.786251999529
 30
0.0
 11
27404.51195358537
 21
16684.486251999519
 31
0.0
  0
LINE
  5
1069B
  8
1-中柱P
 10
27402.911953585361
 20
16684.486251999519
 30
0.0
 11
27402.911953585372
 21
16743.786251999529
 31
0.0
  0
LINE
  5
1069C
  8
1-中柱P
 10
27397.911953585372
 20
16750.386251999531
 30
0.0
 11
27389.511953585381
 21
16750.386251999538
 31
0.0
  0
ARC
  5
1069D
  8
1-中柱P
 10
27397.911953585372
 20
16743.786251999529
 30
0.0
 40
6.599999999999997
 50
0.0
 51
90.0
  0
LINE
  5
1069E
  8
1-中柱P
 10
27397.911953585372
 20
16748.786251999529
 30
0.0
 11
27389.511953585381
 21
16748.786251999529
 31
0.0
  0
ARC
  5
1069F
  8
1-中柱P
 10
27389.511953585381
 20
16755.386251999531
 30
0.0
 40
6.599999999999997
 50
180.0
 51
270.0
  0
ARC
  5
106A0
  8
1-中柱P
 10
27397.911953585372
 20
16743.786251999529
 30
0.0
 40
5.0
 50
0.0
 51
90.0
  0
LINE
  5
106A1
  8
1-中柱P
 10
27384.511953585381
 20
16755.386251999531
 30
0.0
 11
27384.511953585388
 21
16814.786251999521
 31
0.0
  0
ARC
  5
106A2
  8
1-中柱P
 10
27389.511953585381
 20
16755.386251999531
 30
0.0
 40
5.0
 50
180.0
 51
270.0
  0
LINE
  5
106A3
  8
1-中柱P
 10
27382.911953585372
 20
16755.386251999531
 30
0.0
 11
27382.911953585379
 21
16814.786251999521
 31
0.0
  0
LINE
  5
106A4
  8
1-中柱P
 10
27377.911953585372
 20
16821.386251999531
 30
0.0
 11
27344.51195358537
 21
16821.386251999531
 31
0.0
  0
ARC
  5
106A5
  8
1-中柱P
 10
27377.911953585372
 20
16814.786251999521
 30
0.0
 40
6.599999999999997
 50
0.0
 51
90.0
  0
LINE
  5
106A6
  8
1-中柱P
 10
27377.911953585372
 20
16819.78625199954
 30
0.0
 11
27344.51195358537
 21
16819.78625199954
 31
0.0
  0
ARC
  5
106A7
  8
1-中柱P
 10
27377.911953585372
 20
16814.786251999521
 30
0.0
 40
5.0
 50
0.0
 51
90.0
  0
LINE
  5
106A8
  8
1-中柱P
 10
27344.51195358537
 20
16819.78625199954
 30
0.0
 11
27344.51195358537
 21
16821.386251999531
 31
0.0
  0
LINE
  5
106A9
  8
1-中柱P
 10
27326.111953585369
 20
16750.386251999538
 30
0.0
 11
27334.511953585381
 21
16750.386251999538
 31
0.0
  0
ARC
  5
106AA
  8
1-中柱P
 10
27326.111953585369
 20
16743.78625199954
 30
0.0
 40
6.599999999999997
 50
90.0
 51
180.0
  0
ARC
  5
106AB
  8
1-中柱P
 10
27334.511953585381
 20
16755.386251999531
 30
0.0
 40
5.0
 50
270.0
 51
0.0
  0
LINE
  5
106AC
  8
1-中柱P
 10
27334.511953585381
 20
16748.78625199954
 30
0.0
 11
27326.111953585369
 21
16748.78625199954
 31
0.0
  0
ARC
  5
106AD
  8
1-中柱P
 10
27334.511953585381
 20
16755.386251999531
 30
0.0
 40
6.599999999999997
 50
270.0
 51
0.0
  0
ARC
  5
106AE
  8
1-中柱P
  6
HIDE-M
 62
     6
 10
27368.61195358538
 20
16818.786251999521
 30
0.0
 40
2.6000000000000001
 50
90.0
 51
180.0
  0
LINE
  5
106AF
  8
1-中柱P
  6
HIDE-M
 62
     6
 10
27357.011953585381
 20
16820.835642152731
 30
0.0
 11
27357.011953585381
 21
16817.186251999541
 31
0.0
  0
LINE
  5
106B0
  8
1-中柱P
  6
HIDE-M
 62
     6
 10
27367.011953585388
 20
16820.835642152721
 30
0.0
 11
27367.011953585388
 21
16817.186251999541
 31
0.0
  0
LINE
  5
106B1
  8
1-中柱P
  6
1PL-M
 62
     6
 10
27362.011953585388
 20
16826.38625199952
 30
0.0
 11
27362.011953585388
 21
16812.186251999541
 31
0.0
  0
ARC
  5
106B2
  8
1-中柱P
  6
HIDE-M
 62
     6
 10
27355.411953585379
 20
16818.786251999529
 30
0.0
 40
2.6000000000000001
 50
0.0
 51
90.0
  0
LINE
  5
106B3
  8
1-中柱P
  6
HIDE-M
 62
     6
 10
27366.011953585381
 20
16818.786251999521
 30
0.0
 11
27366.011953585381
 21
16817.186251999541
 31
0.0
  0
LINE
  5
106B4
  8
1-中柱P
  6
HIDE-M
 62
     6
 10
27358.011953585388
 20
16818.786251999521
 30
0.0
 11
27358.011953585388
 21
16817.186251999541
 31
0.0
  0
LINE
  5
106B5
  8
1-中柱P
 10
27341.111953585369
 20
16755.386251999531
 30
0.0
 11
27341.111953585369
 21
16765.386251999549
 31
0.0
  0
LINE
  5
106B6
  8
1-中柱P
 10
27339.511953585381
 20
16755.386251999531
 30
0.0
 11
27339.511953585381
 21
16765.386251999549
 31
0.0
  0
LINE
  5
106B7
  8
1-中柱P
 10
27341.111953585369
 20
16765.386251999549
 30
0.0
 11
27339.511953585381
 21
16765.386251999549
 31
0.0
  0
LINE
  5
106B8
  8
1-中柱P
  6
1PL-M
 62
     6
 10
27389.511953585381
 20
16786.38625199952
 30
0.0
 11
27375.311953585398
 21
16786.38625199952
 31
0.0
  0
LINE
  5
106B9
  8
1-中柱P
  6
HIDE-M
 62
     6
 10
27393.411953585372
 20
16729.38625199952
 30
0.0
 11
27405.011953585381
 21
16729.38625199952
 31
0.0
  0
LINE
  5
106BA
  8
1-中柱P
  6
HIDE-M
 62
     6
 10
27393.411953585361
 20
16721.386251999531
 30
0.0
 11
27405.01195358537
 21
16721.38625199952
 31
0.0
  0
LINE
  5
106BB
  8
1-中柱P
  6
HIDE-M
 62
     6
 10
27393.411953585372
 20
16728.386251999538
 30
0.0
 11
27405.011953585381
 21
16728.386251999531
 31
0.0
  0
LINE
  5
106BC
  8
1-中柱P
  6
HIDE-M
 62
     6
 10
27393.411953585361
 20
16722.386251999531
 30
0.0
 11
27405.01195358537
 21
16722.38625199952
 31
0.0
  0
LINE
  5
106BD
  8
1-中柱P
 10
27394.411953585372
 20
16719.886251999538
 30
0.0
 11
27401.411953585361
 21
16719.886251999531
 31
0.0
  0
LINE
  5
106BE
  8
1-中柱P
 10
27401.411953585372
 20
16730.88625199952
 30
0.0
 11
27394.411953585372
 21
16730.886251999531
 31
0.0
  0
LINE
  5
106BF
  8
1-中柱P
 10
27401.411953585372
 20
16731.63625199952
 30
0.0
 11
27401.411953585361
 21
16719.13625199952
 31
0.0
  0
LINE
  5
106C0
  8
1-中柱P
 10
27405.011953585381
 20
16731.386251999531
 30
0.0
 11
27405.01195358537
 21
16719.38625199952
 31
0.0
  0
LINE
  5
106C1
  8
1-中柱P
  6
HIDE-M
 62
     6
 10
27402.911953585361
 20
16719.886251999531
 30
0.0
 11
27404.51195358537
 21
16719.886251999531
 31
0.0
  0
LINE
  5
106C2
  8
1-中柱P
 10
27405.01195358537
 20
16719.38625199952
 30
0.0
 11
27404.51195358537
 21
16719.886251999531
 31
0.0
  0
ARC
  5
106C3
  8
1-中柱P
 10
27402.161953585372
 20
16719.13625199952
 30
0.0
 40
0.75
 50
180.0
 51
0.0
  0
LINE
  5
106C4
  8
1-中柱P
  6
HIDE-M
 62
     6
 10
27404.511953585381
 20
16730.88625199952
 30
0.0
 11
27402.911953585372
 21
16730.88625199952
 31
0.0
  0
LINE
  5
106C5
  8
1-中柱P
 10
27405.011953585381
 20
16731.386251999531
 30
0.0
 11
27404.511953585381
 21
16730.88625199952
 31
0.0
  0
ARC
  5
106C6
  8
1-中柱P
 10
27402.161953585372
 20
16731.63625199952
 30
0.0
 40
0.75
 50
0.0
 51
180.0
  0
LINE
  5
106C7
  8
1-中柱P
 10
27393.411953585372
 20
16729.886251999531
 30
0.0
 11
27393.411953585361
 21
16720.886251999538
 31
0.0
  0
ARC
  5
106C8
  8
1-中柱P
 10
27394.411953585372
 20
16720.886251999538
 30
0.0
 40
1.0
 50
180.0
 51
270.0
  0
ARC
  5
106C9
  8
1-中柱P
 10
27394.411953585372
 20
16729.886251999531
 30
0.0
 40
1.0
 50
90.0
 51
180.0
  0
LINE
  5
106CA
  8
1-中柱P
  6
1PL-M
 62
     6
 10
27388.411953585372
 20
16725.38625199952
 30
0.0
 11
27410.011953585381
 21
16725.38625199952
 31
0.0
  0
LINE
  5
106CB
  8
1-中柱P
 10
27394.411953585372
 20
16709.886251999531
 30
0.0
 11
27401.411953585361
 21
16709.88625199952
 31
0.0
  0
LINE
  5
106CC
  8
1-中柱P
 10
27405.01195358537
 20
16717.38625199952
 30
0.0
 11
27405.01195358537
 21
16709.386251999531
 31
0.0
  0
LINE
  5
106CD
  8
1-中柱P
  6
HIDE-M
 62
     6
 10
27402.911953585361
 20
16709.88625199952
 30
0.0
 11
27404.51195358537
 21
16709.88625199952
 31
0.0
  0
LINE
  5
106CE
  8
1-中柱P
 10
27405.01195358537
 20
16709.386251999531
 30
0.0
 11
27404.51195358537
 21
16709.88625199952
 31
0.0
  0
ARC
  5
106CF
  8
1-中柱P
 10
27402.161953585372
 20
16709.13625199952
 30
0.0
 40
0.75
 50
180.0
 51
0.0
  0
LINE
  5
106D0
  8
1-中柱P
 10
27393.411953585361
 20
16718.886251999538
 30
0.0
 11
27393.411953585361
 21
16710.886251999531
 31
0.0
  0
ARC
  5
106D1
  8
1-中柱P
 10
27394.411953585372
 20
16710.886251999531
 30
0.0
 40
1.0
 50
180.0
 51
270.0
  0
LINE
  5
106D2
  8
1-中柱P
  6
1PL-M
 62
     6
 10
27388.411953585372
 20
16715.386251999531
 30
0.0
 11
27410.011953585381
 21
16715.38625199952
 31
0.0
  0
LINE
  5
106D3
  8
1-中柱P
 10
27401.411953585361
 20
16717.13625199952
 30
0.0
 11
27401.411953585361
 21
16709.13625199952
 31
0.0
  0
LINE
  5
106D4
  8
1-中柱P
  6
HIDE-M
 62
     6
 10
27393.411953585361
 20
16711.38625199952
 30
0.0
 11
27405.01195358537
 21
16711.38625199952
 31
0.0
  0
LINE
  5
106D5
  8
1-中柱P
  6
HIDE-M
 62
     6
 10
27393.411953585361
 20
16712.386251999531
 30
0.0
 11
27405.01195358537
 21
16712.386251999531
 31
0.0
  0
LINE
  5
106D6
  8
1-中柱P
  6
HIDE-M
 62
     6
 10
27330.611953585369
 20
16729.386251999531
 30
0.0
 11
27319.011953585381
 21
16729.386251999531
 31
0.0
  0
LINE
  5
106D7
  8
1-中柱P
  6
HIDE-M
 62
     6
 10
27330.611953585369
 20
16721.386251999531
 30
0.0
 11
27319.01195358537
 21
16721.386251999531
 31
0.0
  0
LINE
  5
106D8
  8
1-中柱P
  6
HIDE-M
 62
     6
 10
27330.611953585369
 20
16728.386251999538
 30
0.0
 11
27319.011953585381
 21
16728.386251999538
 31
0.0
  0
LINE
  5
106D9
  8
1-中柱P
  6
HIDE-M
 62
     6
 10
27330.611953585369
 20
16722.386251999531
 30
0.0
 11
27319.01195358537
 21
16722.386251999531
 31
0.0
  0
LINE
  5
106DA
  8
1-中柱P
 10
27329.611953585361
 20
16719.886251999538
 30
0.0
 11
27322.611953585369
 21
16719.886251999538
 31
0.0
  0
LINE
  5
106DB
  8
1-中柱P
 10
27322.611953585369
 20
16730.886251999531
 30
0.0
 11
27329.611953585369
 21
16730.886251999531
 31
0.0
  0
LINE
  5
106DC
  8
1-中柱P
 10
27322.611953585369
 20
16731.636251999531
 30
0.0
 11
27322.611953585369
 21
16719.136251999531
 31
0.0
  0
LINE
  5
106DD
  8
1-中柱P
 10
27319.011953585381
 20
16731.386251999538
 30
0.0
 11
27319.01195358537
 21
16719.386251999531
 31
0.0
  0
LINE
  5
106DE
  8
1-中柱P
  6
HIDE-M
 62
     6
 10
27321.111953585369
 20
16719.886251999538
 30
0.0
 11
27319.51195358537
 21
16719.886251999538
 31
0.0
  0
LINE
  5
106DF
  8
1-中柱P
 10
27319.01195358537
 20
16719.386251999531
 30
0.0
 11
27319.51195358537
 21
16719.886251999538
 31
0.0
  0
ARC
  5
106E0
  8
1-中柱P
 10
27321.861953585361
 20
16719.136251999531
 30
0.0
 40
0.75
 50
180.0
 51
0.0
  0
LINE
  5
106E1
  8
1-中柱P
  6
HIDE-M
 62
     6
 10
27319.511953585381
 20
16730.886251999531
 30
0.0
 11
27321.111953585369
 21
16730.886251999531
 31
0.0
  0
LINE
  5
106E2
  8
1-中柱P
 10
27319.011953585381
 20
16731.386251999538
 30
0.0
 11
27319.511953585381
 21
16730.886251999531
 31
0.0
  0
ARC
  5
106E3
  8
1-中柱P
 10
27321.861953585369
 20
16731.636251999531
 30
0.0
 40
0.75
 50
0.0
 51
180.0
  0
LINE
  5
106E4
  8
1-中柱P
 10
27330.611953585369
 20
16729.886251999531
 30
0.0
 11
27330.611953585369
 21
16720.886251999538
 31
0.0
  0
ARC
  5
106E5
  8
1-中柱P
 10
27329.611953585361
 20
16720.886251999538
 30
0.0
 40
1.0
 50
270.0
 51
0.0
  0
ARC
  5
106E6
  8
1-中柱P
 10
27329.611953585369
 20
16729.886251999531
 30
0.0
 40
1.0
 50
0.0
 51
90.0
  0
LINE
  5
106E7
  8
1-中柱P
  6
1PL-M
 62
     6
 10
27335.611953585369
 20
16725.386251999531
 30
0.0
 11
27314.011953585359
 21
16725.386251999531
 31
0.0
  0
LINE
  5
106E8
  8
1-中柱P
 10
27329.611953585361
 20
16709.886251999531
 30
0.0
 11
27322.611953585369
 21
16709.886251999531
 31
0.0
  0
LINE
  5
106E9
  8
1-中柱P
 10
27319.01195358537
 20
16717.386251999531
 30
0.0
 11
27319.01195358537
 21
16709.386251999538
 31
0.0
  0
LINE
  5
106EA
  8
1-中柱P
  6
HIDE-M
 62
     6
 10
27321.111953585369
 20
16709.886251999531
 30
0.0
 11
27319.51195358537
 21
16709.886251999531
 31
0.0
  0
LINE
  5
106EB
  8
1-中柱P
 10
27319.01195358537
 20
16709.386251999538
 30
0.0
 11
27319.51195358537
 21
16709.886251999531
 31
0.0
  0
ARC
  5
106EC
  8
1-中柱P
 10
27321.861953585361
 20
16709.136251999531
 30
0.0
 40
0.75
 50
180.0
 51
0.0
  0
LINE
  5
106ED
  8
1-中柱P
 10
27330.611953585369
 20
16718.886251999538
 30
0.0
 11
27330.611953585369
 21
16710.886251999531
 31
0.0
  0
ARC
  5
106EE
  8
1-中柱P
 10
27329.611953585361
 20
16710.886251999531
 30
0.0
 40
1.0
 50
270.0
 51
0.0
  0
LINE
  5
106EF
  8
1-中柱P
  6
1PL-M
 62
     6
 10
27335.611953585369
 20
16715.386251999531
 30
0.0
 11
27314.011953585359
 21
16715.386251999531
 31
0.0
  0
LINE
  5
106F0
  8
1-中柱P
 10
27322.611953585369
 20
16717.136251999531
 30
0.0
 11
27322.611953585369
 21
16709.136251999531
 31
0.0
  0
LINE
  5
106F1
  8
1-中柱P
  6
HIDE-M
 62
     6
 10
27330.611953585369
 20
16711.386251999531
 30
0.0
 11
27319.01195358537
 21
16711.386251999531
 31
0.0
  0
LINE
  5
106F2
  8
1-中柱P
  6
HIDE-M
 62
     6
 10
27330.611953585369
 20
16712.386251999538
 30
0.0
 11
27319.01195358537
 21
16712.386251999538
 31
0.0
  0
LINE
  5
106F3
  8
1-中柱カバ-P
 10
27319.511953585381
 20
16757.086251999532
 30
0.0
 11
27319.511953585388
 21
16816.386251999531
 31
0.0
  0
ARC
  5
106F4
  8
1-中柱カバ-P
 10
27326.11195358538
 20
16816.386251999531
 30
0.0
 40
6.599999999999997
 50
90.0
 51
180.0
  0
LINE
  5
106F5
  8
1-中柱カバ-P
 10
27321.111953585369
 20
16757.086251999532
 30
0.0
 11
27321.111953585369
 21
16816.386251999531
 31
0.0
  0
ARC
  5
106F6
  8
1-中柱カバ-P
 10
27326.111953585369
 20
16757.086251999532
 30
0.0
 40
5.0
 50
180.0
 51
270.0
  0
LINE
  5
106F7
  8
1-中柱カバ-P
 10
27326.11195358538
 20
16822.98625199954
 30
0.0
 11
27397.911953585379
 21
16822.986251999529
 31
0.0
  0
ARC
  5
106F8
  8
1-中柱カバ-P
 10
27397.911953585379
 20
16816.38625199952
 30
0.0
 40
6.599999999999997
 50
0.0
 51
90.0
  0
LINE
  5
106F9
  8
1-中柱カバ-P
 10
27326.11195358538
 20
16821.386251999531
 30
0.0
 11
27397.911953585379
 21
16821.38625199952
 31
0.0
  0
ARC
  5
106FA
  8
1-中柱カバ-P
 10
27397.911953585379
 20
16816.38625199952
 30
0.0
 40
5.0
 50
0.0
 51
90.0
  0
ARC
  5
106FB
  8
1-中柱カバ-P
 10
27326.11195358538
 20
16816.386251999531
 30
0.0
 40
5.0
 50
90.0
 51
180.0
  0
LINE
  5
106FC
  8
1-中柱カバ-P
 10
27404.511953585381
 20
16816.38625199952
 30
0.0
 11
27404.511953585381
 21
16757.086251999521
 31
0.0
  0
LINE
  5
106FD
  8
1-中柱カバ-P
 10
27402.911953585379
 20
16816.38625199952
 30
0.0
 11
27402.911953585372
 21
16757.086251999521
 31
0.0
  0
ARC
  5
106FE
  8
1-中柱カバ-P
 10
27397.911953585372
 20
16757.086251999521
 30
0.0
 40
5.0
 50
270.0
 51
0.0
  0
LINE
  5
106FF
  8
1-中柱カバ-P
  6
1PL-M
 62
     6
 10
27362.011953585388
 20
16815.486251999519
 30
0.0
 11
27362.011953585388
 21
16828.486251999529
 31
0.0
  0
LINE
  5
10700
  8
1-中柱カバ-P
  6
HIDE-M
 62
     6
 10
27355.011953585381
 20
16822.98625199954
 30
0.0
 11
27355.011953585381
 21
16821.386251999531
 31
0.0
  0
LINE
  5
10701
  8
1-中柱カバ-P
  6
HIDE-M
 62
     6
 10
27369.011953585388
 20
16822.986251999529
 30
0.0
 11
27369.011953585388
 21
16821.386251999531
 31
0.0
  0
ARC
  5
10702
  8
1-中柱カバ-P
 10
27326.111953585369
 20
16757.086251999532
 30
0.0
 40
6.599999999999997
 50
180.0
 51
270.0
  0
ARC
  5
10703
  8
1-中柱カバ-P
 10
27397.911953585372
 20
16757.086251999521
 30
0.0
 40
6.599999999999997
 50
270.0
 51
0.0
  0
LINE
  5
10704
  8
1-中柱カバ-P
 10
27389.511953585381
 20
16750.486251999529
 30
0.0
 11
27397.911953585372
 21
16750.486251999529
 31
0.0
  0
LINE
  5
10705
  8
1-中柱カバ-P
 10
27334.511953585381
 20
16750.48625199954
 30
0.0
 11
27326.111953585369
 21
16750.48625199954
 31
0.0
  0
LINE
  5
10706
  8
1-中柱カバ-P
 10
27389.511953585381
 20
16752.086251999532
 30
0.0
 11
27397.911953585372
 21
16752.086251999532
 31
0.0
  0
LINE
  5
10707
  8
1-中柱カバ-P
 10
27334.511953585381
 20
16752.086251999539
 30
0.0
 11
27326.111953585369
 21
16752.086251999539
 31
0.0
  0
LINE
  5
10708
  8
1-中柱カバ-P
 10
27334.511953585381
 20
16752.086251999539
 30
0.0
 11
27334.511953585381
 21
16750.48625199954
 31
0.0
  0
LINE
  5
10709
  8
1-中柱カバ-P
 10
27389.511953585381
 20
16750.486251999529
 30
0.0
 11
27389.511953585381
 21
16752.086251999532
 31
0.0
  0
LINE
  5
1070A
  8
1-中柱カバ-P
  6
HIDE-M
 62
     6
 10
27393.411953585372
 20
16771.486251999529
 30
0.0
 11
27405.011953585381
 21
16771.486251999529
 31
0.0
  0
LINE
  5
1070B
  8
1-中柱カバ-P
  6
HIDE-M
 62
     6
 10
27393.411953585372
 20
16779.486251999529
 30
0.0
 11
27405.011953585381
 21
16779.486251999529
 31
0.0
  0
LINE
  5
1070C
  8
1-中柱カバ-P
  6
HIDE-M
 62
     6
 10
27393.411953585372
 20
16772.486251999529
 30
0.0
 11
27405.011953585381
 21
16772.486251999529
 31
0.0
  0
LINE
  5
1070D
  8
1-中柱カバ-P
  6
HIDE-M
 62
     6
 10
27393.411953585372
 20
16778.486251999519
 30
0.0
 11
27405.011953585381
 21
16778.486251999519
 31
0.0
  0
LINE
  5
1070E
  8
1-中柱カバ-P
 10
27394.411953585372
 20
16780.986251999529
 30
0.0
 11
27401.411953585372
 21
16780.986251999529
 31
0.0
  0
LINE
  5
1070F
  8
1-中柱カバ-P
 10
27401.411953585372
 20
16769.986251999519
 30
0.0
 11
27394.411953585372
 21
16769.986251999519
 31
0.0
  0
LINE
  5
10710
  8
1-中柱カバ-P
 10
27401.411953585372
 20
16769.236251999519
 30
0.0
 11
27401.411953585372
 21
16781.736251999511
 31
0.0
  0
LINE
  5
10711
  8
1-中柱カバ-P
 10
27405.011953585381
 20
16769.486251999529
 30
0.0
 11
27405.011953585381
 21
16781.486251999519
 31
0.0
  0
LINE
  5
10712
  8
1-中柱カバ-P
  6
HIDE-M
 62
     6
 10
27402.911953585372
 20
16780.986251999529
 30
0.0
 11
27404.511953585381
 21
16780.986251999529
 31
0.0
  0
LINE
  5
10713
  8
1-中柱カバ-P
 10
27405.011953585381
 20
16781.486251999519
 30
0.0
 11
27404.511953585381
 21
16780.986251999529
 31
0.0
  0
ARC
  5
10714
  8
1-中柱カバ-P
 10
27402.161953585372
 20
16781.736251999511
 30
0.0
 40
0.75
 50
0.0
 51
180.0
  0
LINE
  5
10715
  8
1-中柱カバ-P
  6
HIDE-M
 62
     6
 10
27404.511953585381
 20
16769.986251999519
 30
0.0
 11
27402.911953585372
 21
16769.986251999519
 31
0.0
  0
LINE
  5
10716
  8
1-中柱カバ-P
 10
27405.011953585381
 20
16769.486251999529
 30
0.0
 11
27404.511953585381
 21
16769.986251999519
 31
0.0
  0
ARC
  5
10717
  8
1-中柱カバ-P
 10
27402.161953585372
 20
16769.236251999519
 30
0.0
 40
0.75
 50
180.0
 51
0.0
  0
LINE
  5
10718
  8
1-中柱カバ-P
 10
27393.411953585372
 20
16770.986251999519
 30
0.0
 11
27393.411953585372
 21
16779.986251999529
 31
0.0
  0
ARC
  5
10719
  8
1-中柱カバ-P
 10
27394.411953585372
 20
16779.986251999529
 30
0.0
 40
1.0
 50
90.0
 51
180.0
  0
ARC
  5
1071A
  8
1-中柱カバ-P
 10
27394.411953585372
 20
16770.986251999519
 30
0.0
 40
1.0
 50
180.0
 51
270.0
  0
LINE
  5
1071B
  8
1-中柱カバ-P
  6
1PL-M
 62
     6
 10
27388.411953585372
 20
16775.48625199954
 30
0.0
 11
27410.011953585381
 21
16775.486251999529
 31
0.0
  0
LINE
  5
1071C
  8
1-中柱カバ-P
 10
27394.411953585372
 20
16790.986251999529
 30
0.0
 11
27401.411953585372
 21
16790.986251999529
 31
0.0
  0
LINE
  5
1071D
  8
1-中柱カバ-P
 10
27405.011953585381
 20
16783.486251999519
 30
0.0
 11
27405.011953585381
 21
16791.486251999529
 31
0.0
  0
LINE
  5
1071E
  8
1-中柱カバ-P
  6
HIDE-M
 62
     6
 10
27402.911953585372
 20
16790.986251999529
 30
0.0
 11
27404.511953585381
 21
16790.986251999529
 31
0.0
  0
LINE
  5
1071F
  8
1-中柱カバ-P
 10
27405.011953585381
 20
16791.486251999529
 30
0.0
 11
27404.511953585381
 21
16790.986251999529
 31
0.0
  0
ARC
  5
10720
  8
1-中柱カバ-P
 10
27402.161953585372
 20
16791.736251999529
 30
0.0
 40
0.75
 50
0.0
 51
180.0
  0
LINE
  5
10721
  8
1-中柱カバ-P
 10
27393.411953585372
 20
16781.986251999529
 30
0.0
 11
27393.411953585372
 21
16789.986251999519
 31
0.0
  0
ARC
  5
10722
  8
1-中柱カバ-P
 10
27394.411953585372
 20
16789.986251999519
 30
0.0
 40
1.0
 50
90.0
 51
180.0
  0
LINE
  5
10723
  8
1-中柱カバ-P
  6
1PL-M
 62
     6
 10
27388.411953585372
 20
16785.486251999519
 30
0.0
 11
27410.011953585381
 21
16785.486251999511
 31
0.0
  0
LINE
  5
10724
  8
1-中柱カバ-P
 10
27401.411953585372
 20
16783.736251999529
 30
0.0
 11
27401.411953585372
 21
16791.736251999529
 31
0.0
  0
LINE
  5
10725
  8
1-中柱カバ-P
  6
HIDE-M
 62
     6
 10
27330.611953585369
 20
16771.48625199954
 30
0.0
 11
27319.011953585381
 21
16771.48625199954
 31
0.0
  0
LINE
  5
10726
  8
1-中柱カバ-P
  6
HIDE-M
 62
     6
 10
27330.611953585369
 20
16779.48625199954
 30
0.0
 11
27319.011953585381
 21
16779.48625199954
 31
0.0
  0
LINE
  5
10727
  8
1-中柱カバ-P
  6
HIDE-M
 62
     6
 10
27330.611953585369
 20
16772.48625199954
 30
0.0
 11
27319.011953585381
 21
16772.48625199954
 31
0.0
  0
LINE
  5
10728
  8
1-中柱カバ-P
  6
HIDE-M
 62
     6
 10
27330.611953585369
 20
16778.486251999529
 30
0.0
 11
27319.011953585381
 21
16778.486251999529
 31
0.0
  0
LINE
  5
10729
  8
1-中柱カバ-P
 10
27329.611953585369
 20
16780.98625199954
 30
0.0
 11
27322.611953585369
 21
16780.98625199954
 31
0.0
  0
LINE
  5
1072A
  8
1-中柱カバ-P
 10
27322.611953585369
 20
16769.986251999529
 30
0.0
 11
27329.611953585369
 21
16769.986251999529
 31
0.0
  0
LINE
  5
1072B
  8
1-中柱カバ-P
 10
27322.611953585369
 20
16769.236251999529
 30
0.0
 11
27322.611953585369
 21
16781.736251999519
 31
0.0
  0
LINE
  5
1072C
  8
1-中柱カバ-P
 10
27319.011953585381
 20
16769.48625199954
 30
0.0
 11
27319.011953585381
 21
16781.486251999529
 31
0.0
  0
LINE
  5
1072D
  8
1-中柱カバ-P
  6
HIDE-M
 62
     6
 10
27321.111953585369
 20
16780.98625199954
 30
0.0
 11
27319.511953585381
 21
16780.98625199954
 31
0.0
  0
LINE
  5
1072E
  8
1-中柱カバ-P
 10
27319.011953585381
 20
16781.486251999529
 30
0.0
 11
27319.511953585381
 21
16780.98625199954
 31
0.0
  0
ARC
  5
1072F
  8
1-中柱カバ-P
 10
27321.861953585369
 20
16781.736251999519
 30
0.0
 40
0.75
 50
0.0
 51
180.0
  0
LINE
  5
10730
  8
1-中柱カバ-P
  6
HIDE-M
 62
     6
 10
27319.511953585381
 20
16769.986251999529
 30
0.0
 11
27321.111953585369
 21
16769.986251999529
 31
0.0
  0
LINE
  5
10731
  8
1-中柱カバ-P
 10
27319.011953585381
 20
16769.48625199954
 30
0.0
 11
27319.511953585381
 21
16769.986251999529
 31
0.0
  0
ARC
  5
10732
  8
1-中柱カバ-P
 10
27321.861953585369
 20
16769.236251999529
 30
0.0
 40
0.75
 50
180.0
 51
0.0
  0
LINE
  5
10733
  8
1-中柱カバ-P
 10
27330.611953585369
 20
16770.986251999529
 30
0.0
 11
27330.611953585369
 21
16779.98625199954
 31
0.0
  0
ARC
  5
10734
  8
1-中柱カバ-P
 10
27329.611953585369
 20
16779.98625199954
 30
0.0
 40
1.0
 50
0.0
 51
90.0
  0
ARC
  5
10735
  8
1-中柱カバ-P
 10
27329.611953585369
 20
16770.986251999529
 30
0.0
 40
1.0
 50
270.0
 51
0.0
  0
LINE
  5
10736
  8
1-中柱カバ-P
  6
1PL-M
 62
     6
 10
27335.611953585369
 20
16775.48625199954
 30
0.0
 11
27314.01195358537
 21
16775.48625199954
 31
0.0
  0
LINE
  5
10737
  8
1-中柱カバ-P
 10
27329.611953585369
 20
16790.98625199954
 30
0.0
 11
27322.611953585369
 21
16790.98625199954
 31
0.0
  0
LINE
  5
10738
  8
1-中柱カバ-P
 10
27319.011953585381
 20
16783.486251999529
 30
0.0
 11
27319.011953585381
 21
16791.48625199954
 31
0.0
  0
LINE
  5
10739
  8
1-中柱カバ-P
  6
HIDE-M
 62
     6
 10
27321.111953585369
 20
16790.98625199954
 30
0.0
 11
27319.511953585381
 21
16790.98625199954
 31
0.0
  0
LINE
  5
1073A
  8
1-中柱カバ-P
 10
27319.011953585381
 20
16791.48625199954
 30
0.0
 11
27319.511953585381
 21
16790.98625199954
 31
0.0
  0
ARC
  5
1073B
  8
1-中柱カバ-P
 10
27321.861953585369
 20
16791.73625199954
 30
0.0
 40
0.75
 50
0.0
 51
180.0
  0
LINE
  5
1073C
  8
1-中柱カバ-P
 10
27330.611953585369
 20
16781.98625199954
 30
0.0
 11
27330.611953585369
 21
16789.986251999529
 31
0.0
  0
ARC
  5
1073D
  8
1-中柱カバ-P
 10
27329.611953585369
 20
16789.986251999529
 30
0.0
 40
1.0
 50
0.0
 51
90.0
  0
LINE
  5
1073E
  8
1-中柱カバ-P
  6
1PL-M
 62
     6
 10
27335.611953585369
 20
16785.486251999519
 30
0.0
 11
27314.01195358537
 21
16785.486251999519
 31
0.0
  0
LINE
  5
1073F
  8
1-中柱カバ-P
 10
27322.611953585369
 20
16783.73625199954
 30
0.0
 11
27322.611953585369
 21
16791.73625199954
 31
0.0
  0
LINE
  5
10740
  8
1-中柱カバ-P
  6
HIDE-M
 62
     6
 10
27393.411953585372
 20
16789.486251999529
 30
0.0
 11
27405.011953585381
 21
16789.486251999529
 31
0.0
  0
LINE
  5
10741
  8
1-中柱カバ-P
  6
HIDE-M
 62
     6
 10
27393.411953585372
 20
16788.486251999529
 30
0.0
 11
27405.011953585381
 21
16788.486251999529
 31
0.0
  0
LINE
  5
10742
  8
1-中柱カバ-P
  6
HIDE-M
 62
     6
 10
27330.611953585369
 20
16789.48625199954
 30
0.0
 11
27319.011953585381
 21
16789.48625199954
 31
0.0
  0
LINE
  5
10743
  8
1-中柱カバ-P
  6
HIDE-M
 62
     6
 10
27330.611953585369
 20
16788.48625199954
 30
0.0
 11
27319.011953585381
 21
16788.48625199954
 31
0.0
  0
ARC
  5
10744
  8
1-前柱P
  6
HIDE-M
 62
     6
 10
27358.411953585139
 20
14251.38625199954
 30
0.0
 40
2.6000000000000001
 50
0.0
 51
90.0
  0
LINE
  5
10745
  8
1-前柱P
  6
HIDE-M
 62
     6
 10
27370.011953585152
 20
14253.435642152721
 30
0.0
 11
27370.011953585152
 21
14249.786251999531
 31
0.0
  0
LINE
  5
10746
  8
1-前柱P
  6
HIDE-M
 62
     6
 10
27360.011953585152
 20
14253.435642152721
 30
0.0
 11
27360.011953585152
 21
14249.78625199954
 31
0.0
  0
LINE
  5
10747
  8
1-前柱P
  6
1PL-M
 62
     6
 10
27365.011953585152
 20
14258.98625199954
 30
0.0
 11
27365.011953585152
 21
14244.78625199954
 31
0.0
  0
ARC
  5
10748
  8
1-前柱P
  6
HIDE-M
 62
     6
 10
27371.61195358515
 20
14251.386251999529
 30
0.0
 40
2.6000000000000001
 50
90.0
 51
180.0
  0
LINE
  5
10749
  8
1-前柱P
  6
HIDE-M
 62
     6
 10
27361.011953585152
 20
14251.38625199954
 30
0.0
 11
27361.011953585152
 21
14249.78625199954
 31
0.0
  0
LINE
  5
1074A
  8
1-前柱P
  6
HIDE-M
 62
     6
 10
27369.011953585152
 20
14251.386251999529
 30
0.0
 11
27369.011953585152
 21
14249.786251999531
 31
0.0
  0
LINE
  5
1074B
  8
1-前柱P
 10
27351.111953585139
 20
14139.086251999541
 30
0.0
 11
27372.911953585139
 21
14139.086251999541
 31
0.0
  0
LINE
  5
1074C
  8
1-前柱P
 10
27402.911953585139
 20
14176.386251999529
 30
0.0
 11
27402.911953585139
 21
14169.08625199953
 31
0.0
  0
ARC
  5
1074D
  8
1-前柱P
 10
27372.911953585139
 20
14169.086251999541
 30
0.0
 40
30.0
 50
270.0
 51
0.0
  0
ARC
  5
1074E
  8
1-前柱P
 10
27372.911953585139
 20
14169.086251999541
 30
0.0
 40
31.600000000000001
 50
270.0
 51
0.0
  0
LINE
  5
1074F
  8
1-前柱P
 10
27351.111953585139
 20
14137.486251999529
 30
0.0
 11
27372.911953585139
 21
14137.486251999529
 31
0.0
  0
LINE
  5
10750
  8
1-前柱P
 10
27404.511953585141
 20
14176.386251999529
 30
0.0
 11
27404.511953585141
 21
14169.08625199953
 31
0.0
  0
LINE
  5
10751
  8
1-前柱P
 10
27381.511953585141
 20
14197.986251999529
 30
0.0
 11
27381.511953585141
 21
14187.986251999529
 31
0.0
  0
LINE
  5
10752
  8
1-前柱P
 10
27379.911953585139
 20
14187.986251999529
 30
0.0
 11
27379.911953585139
 21
14197.986251999529
 31
0.0
  0
LINE
  5
10753
  8
1-前柱P
 10
27321.111953585139
 20
14176.38625199954
 30
0.0
 11
27321.111953585129
 21
14169.086251999541
 31
0.0
  0
ARC
  5
10754
  8
1-前柱P
 10
27351.111953585139
 20
14169.086251999541
 30
0.0
 40
30.0
 50
180.0
 51
270.0
  0
ARC
  5
10755
  8
1-前柱P
 10
27351.111953585139
 20
14169.086251999541
 30
0.0
 40
31.600000000000001
 50
180.0
 51
270.0
  0
LINE
  5
10756
  8
1-前柱P
 10
27319.511953585141
 20
14176.38625199954
 30
0.0
 11
27319.511953585141
 21
14169.086251999541
 31
0.0
  0
LINE
  5
10757
  8
1-前柱P
 10
27326.11195358515
 20
14182.98625199954
 30
0.0
 11
27337.511953585141
 21
14182.98625199954
 31
0.0
  0
ARC
  5
10758
  8
1-前柱P
 10
27326.11195358515
 20
14176.38625199954
 30
0.0
 40
6.599999999999997
 50
90.0
 51
180.0
  0
ARC
  5
10759
  8
1-前柱P
 10
27337.511953585141
 20
14187.98625199954
 30
0.0
 40
5.0
 50
270.0
 51
0.0
  0
LINE
  5
1075A
  8
1-前柱P
 10
27326.11195358515
 20
14181.38625199954
 30
0.0
 11
27337.511953585141
 21
14181.38625199954
 31
0.0
  0
ARC
  5
1075B
  8
1-前柱P
 10
27326.11195358515
 20
14176.38625199954
 30
0.0
 40
5.0
 50
90.0
 51
180.0
  0
LINE
  5
1075C
  8
1-前柱P
 10
27342.511953585141
 20
14187.98625199954
 30
0.0
 11
27342.511953585152
 21
14247.38625199954
 31
0.0
  0
LINE
  5
1075D
  8
1-前柱P
 10
27344.111953585139
 20
14187.98625199954
 30
0.0
 11
27344.111953585139
 21
14247.38625199954
 31
0.0
  0
ARC
  5
1075E
  8
1-前柱P
 10
27337.511953585141
 20
14187.98625199954
 30
0.0
 40
6.599999999999997
 50
270.0
 51
0.0
  0
LINE
  5
1075F
  8
1-前柱P
 10
27349.11195358515
 20
14253.986251999529
 30
0.0
 11
27382.511953585152
 21
14253.986251999529
 31
0.0
  0
ARC
  5
10760
  8
1-前柱P
 10
27349.11195358515
 20
14247.38625199954
 30
0.0
 40
6.599999999999997
 50
90.0
 51
180.0
  0
LINE
  5
10761
  8
1-前柱P
 10
27349.11195358515
 20
14252.386251999529
 30
0.0
 11
27382.511953585152
 21
14252.38625199952
 31
0.0
  0
ARC
  5
10762
  8
1-前柱P
 10
27349.11195358515
 20
14247.38625199954
 30
0.0
 40
5.0
 50
90.0
 51
180.0
  0
LINE
  5
10763
  8
1-前柱P
 10
27382.511953585152
 20
14252.38625199952
 30
0.0
 11
27382.511953585152
 21
14253.986251999529
 31
0.0
  0
LINE
  5
10764
  8
1-前柱P
 10
27397.911953585171
 20
14182.986251999529
 30
0.0
 11
27386.511953585141
 21
14182.986251999529
 31
0.0
  0
ARC
  5
10765
  8
1-前柱P
 10
27397.911953585171
 20
14176.386251999529
 30
0.0
 40
6.599999999999997
 50
0.0
 51
90.0
  0
ARC
  5
10766
  8
1-前柱P
 10
27386.511953585141
 20
14187.986251999529
 30
0.0
 40
5.0
 50
180.0
 51
270.0
  0
LINE
  5
10767
  8
1-前柱P
 10
27386.511953585141
 20
14181.386251999529
 30
0.0
 11
27397.911953585171
 21
14181.386251999529
 31
0.0
  0
ARC
  5
10768
  8
1-前柱P
 10
27386.511953585141
 20
14187.986251999529
 30
0.0
 40
6.599999999999997
 50
180.0
 51
270.0
  0
ARC
  5
10769
  8
1-前柱P
 10
27397.911953585171
 20
14176.386251999529
 30
0.0
 40
5.0
 50
0.0
 51
90.0
  0
LINE
  5
1076A
  8
1-前柱P
 10
27381.511953585141
 20
14197.986251999529
 30
0.0
 11
27379.911953585139
 21
14197.986251999529
 31
0.0
  0
LINE
  5
1076B
  8
1-前柱カバ-P
 10
27404.511953585141
 20
14189.686251999519
 30
0.0
 11
27404.511953585141
 21
14248.986251999529
 31
0.0
  0
ARC
  5
1076C
  8
1-前柱カバ-P
 10
27397.91195358519
 20
14248.986251999529
 30
0.0
 40
6.599999999999997
 50
0.0
 51
90.0
  0
LINE
  5
1076D
  8
1-前柱カバ-P
 10
27402.911953585139
 20
14189.686251999519
 30
0.0
 11
27402.91195358515
 21
14248.986251999529
 31
0.0
  0
ARC
  5
1076E
  8
1-前柱カバ-P
 10
27397.911953585171
 20
14189.686251999519
 30
0.0
 40
5.0
 50
270.0
 51
0.0
  0
LINE
  5
1076F
  8
1-前柱カバ-P
 10
27397.91195358519
 20
14255.58625199953
 30
0.0
 11
27326.11195358515
 21
14255.586251999541
 31
0.0
  0
ARC
  5
10770
  8
1-前柱カバ-P
 10
27326.11195358515
 20
14248.98625199954
 30
0.0
 40
6.599999999999997
 50
90.0
 51
180.0
  0
LINE
  5
10771
  8
1-前柱カバ-P
 10
27397.91195358519
 20
14253.98625199952
 30
0.0
 11
27326.11195358515
 21
14253.986251999529
 31
0.0
  0
ARC
  5
10772
  8
1-前柱カバ-P
 10
27326.11195358515
 20
14248.98625199954
 30
0.0
 40
5.0
 50
90.0
 51
180.0
  0
ARC
  5
10773
  8
1-前柱カバ-P
 10
27397.91195358519
 20
14248.986251999529
 30
0.0
 40
5.0
 50
0.0
 51
90.0
  0
LINE
  5
10774
  8
1-前柱カバ-P
 10
27319.511953585152
 20
14248.98625199954
 30
0.0
 11
27319.511953585141
 21
14189.68625199953
 31
0.0
  0
LINE
  5
10775
  8
1-前柱カバ-P
 10
27321.111953585139
 20
14248.98625199954
 30
0.0
 11
27321.111953585139
 21
14189.68625199953
 31
0.0
  0
ARC
  5
10776
  8
1-前柱カバ-P
 10
27326.11195358515
 20
14189.68625199953
 30
0.0
 40
5.0
 50
180.0
 51
270.0
  0
LINE
  5
10777
  8
1-前柱カバ-P
  6
1PL-M
 62
     6
 10
27362.011953585152
 20
14248.086251999541
 30
0.0
 11
27362.011953585152
 21
14261.086251999541
 31
0.0
  0
LINE
  5
10778
  8
1-前柱カバ-P
  6
HIDE-M
 62
     6
 10
27369.011953585152
 20
14255.58625199953
 30
0.0
 11
27369.011953585152
 21
14253.986251999529
 31
0.0
  0
LINE
  5
10779
  8
1-前柱カバ-P
  6
HIDE-M
 62
     6
 10
27355.011953585152
 20
14255.586251999541
 30
0.0
 11
27355.011953585152
 21
14253.986251999529
 31
0.0
  0
ARC
  5
1077A
  8
1-前柱カバ-P
 10
27397.911953585171
 20
14189.686251999519
 30
0.0
 40
6.599999999999997
 50
270.0
 51
0.0
  0
ARC
  5
1077B
  8
1-前柱カバ-P
 10
27326.11195358515
 20
14189.68625199953
 30
0.0
 40
6.599999999999997
 50
180.0
 51
270.0
  0
LINE
  5
1077C
  8
1-前柱カバ-P
 10
27334.511953585141
 20
14183.086251999541
 30
0.0
 11
27326.11195358515
 21
14183.086251999541
 31
0.0
  0
LINE
  5
1077D
  8
1-前柱カバ-P
 10
27389.511953585141
 20
14183.08625199953
 30
0.0
 11
27397.911953585171
 21
14183.08625199953
 31
0.0
  0
LINE
  5
1077E
  8
1-前柱カバ-P
 10
27334.511953585141
 20
14184.68625199953
 30
0.0
 11
27326.11195358515
 21
14184.68625199953
 31
0.0
  0
LINE
  5
1077F
  8
1-前柱カバ-P
 10
27389.511953585141
 20
14184.686251999519
 30
0.0
 11
27397.911953585171
 21
14184.686251999519
 31
0.0
  0
LINE
  5
10780
  8
1-前柱カバ-P
 10
27389.511953585141
 20
14184.686251999519
 30
0.0
 11
27389.511953585141
 21
14183.08625199953
 31
0.0
  0
LINE
  5
10781
  8
1-前柱カバ-P
 10
27334.511953585141
 20
14183.086251999541
 30
0.0
 11
27334.511953585141
 21
14184.68625199953
 31
0.0
  0
LINE
  5
10782
  8
1-前柱カバ-P
  6
HIDE-M
 62
     6
 10
27330.611953585139
 20
14204.086251999541
 30
0.0
 11
27319.011953585141
 21
14204.086251999541
 31
0.0
  0
LINE
  5
10783
  8
1-前柱カバ-P
  6
HIDE-M
 62
     6
 10
27330.611953585139
 20
14212.086251999541
 30
0.0
 11
27319.011953585141
 21
14212.086251999541
 31
0.0
  0
LINE
  5
10784
  8
1-前柱カバ-P
  6
HIDE-M
 62
     6
 10
27330.611953585139
 20
14205.086251999541
 30
0.0
 11
27319.011953585141
 21
14205.086251999541
 31
0.0
  0
LINE
  5
10785
  8
1-前柱カバ-P
  6
HIDE-M
 62
     6
 10
27330.611953585139
 20
14211.086251999541
 30
0.0
 11
27319.011953585141
 21
14211.086251999541
 31
0.0
  0
LINE
  5
10786
  8
1-前柱カバ-P
 10
27329.611953585139
 20
14213.586251999541
 30
0.0
 11
27322.611953585139
 21
14213.586251999541
 31
0.0
  0
LINE
  5
10787
  8
1-前柱カバ-P
 10
27322.611953585139
 20
14202.586251999541
 30
0.0
 11
27329.611953585139
 21
14202.586251999541
 31
0.0
  0
LINE
  5
10788
  8
1-前柱カバ-P
 10
27322.611953585139
 20
14201.836251999541
 30
0.0
 11
27322.611953585139
 21
14214.336251999541
 31
0.0
  0
LINE
  5
10789
  8
1-前柱カバ-P
 10
27319.011953585141
 20
14202.086251999541
 30
0.0
 11
27319.011953585141
 21
14214.086251999541
 31
0.0
  0
LINE
  5
1078A
  8
1-前柱カバ-P
  6
HIDE-M
 62
     6
 10
27321.111953585139
 20
14213.586251999541
 30
0.0
 11
27319.511953585152
 21
14213.586251999541
 31
0.0
  0
LINE
  5
1078B
  8
1-前柱カバ-P
 10
27319.011953585141
 20
14214.086251999541
 30
0.0
 11
27319.511953585152
 21
14213.586251999541
 31
0.0
  0
ARC
  5
1078C
  8
1-前柱カバ-P
 10
27321.861953585139
 20
14214.336251999541
 30
0.0
 40
0.75
 50
0.0
 51
180.0
  0
LINE
  5
1078D
  8
1-前柱カバ-P
  6
HIDE-M
 62
     6
 10
27319.511953585141
 20
14202.586251999541
 30
0.0
 11
27321.111953585139
 21
14202.586251999541
 31
0.0
  0
LINE
  5
1078E
  8
1-前柱カバ-P
 10
27319.011953585141
 20
14202.086251999541
 30
0.0
 11
27319.511953585141
 21
14202.586251999541
 31
0.0
  0
ARC
  5
1078F
  8
1-前柱カバ-P
 10
27321.861953585139
 20
14201.836251999541
 30
0.0
 40
0.75
 50
180.0
 51
0.0
  0
LINE
  5
10790
  8
1-前柱カバ-P
 10
27330.611953585139
 20
14203.586251999541
 30
0.0
 11
27330.611953585139
 21
14212.586251999541
 31
0.0
  0
ARC
  5
10791
  8
1-前柱カバ-P
 10
27329.611953585139
 20
14212.586251999541
 30
0.0
 40
1.0
 50
0.0
 51
90.0
  0
ARC
  5
10792
  8
1-前柱カバ-P
 10
27329.611953585139
 20
14203.586251999541
 30
0.0
 40
1.0
 50
270.0
 51
0.0
  0
LINE
  5
10793
  8
1-前柱カバ-P
  6
1PL-M
 62
     6
 10
27335.61195358515
 20
14208.086251999541
 30
0.0
 11
27314.01195358513
 21
14208.086251999541
 31
0.0
  0
LINE
  5
10794
  8
1-前柱カバ-P
 10
27329.611953585139
 20
14223.586251999541
 30
0.0
 11
27322.611953585139
 21
14223.586251999541
 31
0.0
  0
LINE
  5
10795
  8
1-前柱カバ-P
 10
27319.011953585141
 20
14216.086251999541
 30
0.0
 11
27319.011953585141
 21
14224.086251999541
 31
0.0
  0
LINE
  5
10796
  8
1-前柱カバ-P
  6
HIDE-M
 62
     6
 10
27321.111953585139
 20
14223.586251999541
 30
0.0
 11
27319.511953585152
 21
14223.586251999541
 31
0.0
  0
LINE
  5
10797
  8
1-前柱カバ-P
 10
27319.011953585141
 20
14224.086251999541
 30
0.0
 11
27319.511953585152
 21
14223.586251999541
 31
0.0
  0
ARC
  5
10798
  8
1-前柱カバ-P
 10
27321.861953585139
 20
14224.336251999541
 30
0.0
 40
0.75
 50
0.0
 51
180.0
  0
LINE
  5
10799
  8
1-前柱カバ-P
 10
27330.611953585139
 20
14214.586251999541
 30
0.0
 11
27330.611953585139
 21
14222.586251999541
 31
0.0
  0
ARC
  5
1079A
  8
1-前柱カバ-P
 10
27329.611953585139
 20
14222.586251999541
 30
0.0
 40
1.0
 50
0.0
 51
90.0
  0
LINE
  5
1079B
  8
1-前柱カバ-P
  6
1PL-M
 62
     6
 10
27335.61195358515
 20
14218.086251999541
 30
0.0
 11
27314.01195358513
 21
14218.086251999541
 31
0.0
  0
LINE
  5
1079C
  8
1-前柱カバ-P
 10
27322.611953585139
 20
14216.336251999541
 30
0.0
 11
27322.611953585139
 21
14224.336251999541
 31
0.0
  0
LINE
  5
1079D
  8
1-前柱カバ-P
  6
HIDE-M
 62
     6
 10
27393.411953585161
 20
14204.08625199953
 30
0.0
 11
27405.011953585141
 21
14204.08625199953
 31
0.0
  0
LINE
  5
1079E
  8
1-前柱カバ-P
  6
HIDE-M
 62
     6
 10
27393.411953585171
 20
14212.08625199953
 30
0.0
 11
27405.011953585152
 21
14212.08625199953
 31
0.0
  0
LINE
  5
1079F
  8
1-前柱カバ-P
  6
HIDE-M
 62
     6
 10
27393.411953585161
 20
14205.08625199953
 30
0.0
 11
27405.011953585141
 21
14205.08625199953
 31
0.0
  0
LINE
  5
107A0
  8
1-前柱カバ-P
  6
HIDE-M
 62
     6
 10
27393.411953585171
 20
14211.08625199953
 30
0.0
 11
27405.011953585152
 21
14211.08625199953
 31
0.0
  0
LINE
  5
107A1
  8
1-前柱カバ-P
 10
27394.41195358515
 20
14213.58625199953
 30
0.0
 11
27401.41195358515
 21
14213.58625199953
 31
0.0
  0
LINE
  5
107A2
  8
1-前柱カバ-P
 10
27401.411953585139
 20
14202.58625199953
 30
0.0
 11
27394.411953585139
 21
14202.58625199953
 31
0.0
  0
LINE
  5
107A3
  8
1-前柱カバ-P
 10
27401.411953585139
 20
14201.83625199953
 30
0.0
 11
27401.41195358515
 21
14214.33625199953
 31
0.0
  0
LINE
  5
107A4
  8
1-前柱カバ-P
 10
27405.011953585141
 20
14202.08625199953
 30
0.0
 11
27405.011953585152
 21
14214.08625199953
 31
0.0
  0
LINE
  5
107A5
  8
1-前柱カバ-P
  6
HIDE-M
 62
     6
 10
27402.91195358515
 20
14213.58625199953
 30
0.0
 11
27404.511953585141
 21
14213.58625199953
 31
0.0
  0
LINE
  5
107A6
  8
1-前柱カバ-P
 10
27405.011953585152
 20
14214.08625199953
 30
0.0
 11
27404.511953585141
 21
14213.58625199953
 31
0.0
  0
ARC
  5
107A7
  8
1-前柱カバ-P
 10
27402.16195358515
 20
14214.33625199953
 30
0.0
 40
0.75
 50
0.0
 51
180.0
  0
LINE
  5
107A8
  8
1-前柱カバ-P
  6
HIDE-M
 62
     6
 10
27404.511953585141
 20
14202.58625199953
 30
0.0
 11
27402.911953585139
 21
14202.58625199953
 31
0.0
  0
LINE
  5
107A9
  8
1-前柱カバ-P
 10
27405.011953585141
 20
14202.08625199953
 30
0.0
 11
27404.511953585141
 21
14202.58625199953
 31
0.0
  0
ARC
  5
107AA
  8
1-前柱カバ-P
 10
27402.161953585139
 20
14201.83625199953
 30
0.0
 40
0.75
 50
180.0
 51
0.0
  0
LINE
  5
107AB
  8
1-前柱カバ-P
 10
27393.411953585161
 20
14203.58625199953
 30
0.0
 11
27393.411953585171
 21
14212.58625199953
 31
0.0
  0
ARC
  5
107AC
  8
1-前柱カバ-P
 10
27394.41195358515
 20
14212.58625199953
 30
0.0
 40
1.0
 50
90.0
 51
180.0
  0
ARC
  5
107AD
  8
1-前柱カバ-P
 10
27394.411953585139
 20
14203.58625199953
 30
0.0
 40
1.0
 50
180.0
 51
270.0
  0
LINE
  5
107AE
  8
1-前柱カバ-P
  6
1PL-M
 62
     6
 10
27388.411953585171
 20
14208.08625199953
 30
0.0
 11
27410.011953585141
 21
14208.08625199953
 31
0.0
  0
LINE
  5
107AF
  8
1-前柱カバ-P
 10
27394.41195358515
 20
14223.58625199953
 30
0.0
 11
27401.41195358515
 21
14223.58625199953
 31
0.0
  0
LINE
  5
107B0
  8
1-前柱カバ-P
 10
27405.011953585152
 20
14216.08625199953
 30
0.0
 11
27405.011953585152
 21
14224.08625199953
 31
0.0
  0
LINE
  5
107B1
  8
1-前柱カバ-P
  6
HIDE-M
 62
     6
 10
27402.91195358515
 20
14223.58625199953
 30
0.0
 11
27404.511953585141
 21
14223.58625199953
 31
0.0
  0
LINE
  5
107B2
  8
1-前柱カバ-P
 10
27405.011953585152
 20
14224.08625199953
 30
0.0
 11
27404.511953585141
 21
14223.58625199953
 31
0.0
  0
ARC
  5
107B3
  8
1-前柱カバ-P
 10
27402.16195358515
 20
14224.33625199953
 30
0.0
 40
0.75
 50
0.0
 51
180.0
  0
LINE
  5
107B4
  8
1-前柱カバ-P
 10
27393.411953585171
 20
14214.58625199953
 30
0.0
 11
27393.411953585171
 21
14222.58625199953
 31
0.0
  0
ARC
  5
107B5
  8
1-前柱カバ-P
 10
27394.41195358515
 20
14222.58625199953
 30
0.0
 40
1.0
 50
90.0
 51
180.0
  0
LINE
  5
107B6
  8
1-前柱カバ-P
  6
1PL-M
 62
     6
 10
27388.411953585179
 20
14218.08625199953
 30
0.0
 11
27410.011953585141
 21
14218.08625199953
 31
0.0
  0
LINE
  5
107B7
  8
1-前柱カバ-P
 10
27401.41195358515
 20
14216.33625199953
 30
0.0
 11
27401.41195358515
 21
14224.33625199953
 31
0.0
  0
LINE
  5
107B8
  8
1-前柱カバ-P
  6
HIDE-M
 62
     6
 10
27330.611953585139
 20
14222.086251999541
 30
0.0
 11
27319.011953585141
 21
14222.086251999541
 31
0.0
  0
LINE
  5
107B9
  8
1-前柱カバ-P
  6
HIDE-M
 62
     6
 10
27330.611953585139
 20
14221.086251999541
 30
0.0
 11
27319.011953585141
 21
14221.086251999541
 31
0.0
  0
LINE
  5
107BA
  8
1-前柱カバ-P
  6
HIDE-M
 62
     6
 10
27393.411953585171
 20
14222.08625199953
 30
0.0
 11
27405.011953585152
 21
14222.08625199953
 31
0.0
  0
LINE
  5
107BB
  8
1-前柱カバ-P
  6
HIDE-M
 62
     6
 10
27393.411953585171
 20
14221.08625199953
 30
0.0
 11
27405.011953585152
 21
14221.08625199953
 31
0.0
  0
LINE
  5
107BC
  8
0-6
  6
CONTINUOUS
 62
     6
 10
25911.936248763679
 20
13542.987109999651
 30
0.0
 11
26911.935589763681
 21
13542.98710999956
 31
0.0
  0
TEXT
  5
107BD
  8
0-6
  6
CONTINUOUS
 62
     7
 10
26007.93651276367
 20
13622.98737399964
 30
0.0
 40
160.0
  1
前柱（P）
 50
359.99999999999471
 72
     4
 11
26407.936512763681
 21
13702.9873739996
 31
0.0
  0
LINE
  5
107BE
  8
0-6
  6
CONTINUOUS
 62
     6
 10
27317.01195358513
 20
14128.986251999529
 30
0.0
 11
26911.935589763681
 21
13542.98710999956
 31
0.0
  0
LINE
  5
107BF
  8
0-6
  6
CONTINUOUS
 62
     6
 10
25911.936248763919
 20
16080.047909953781
 30
0.0
 11
26911.935589763911
 21
16080.04790995369
 31
0.0
  0
TEXT
  5
107C0
  8
0-6
  6
CONTINUOUS
 62
     7
 10
26007.936512763899
 20
16160.04817395377
 30
0.0
 40
160.0
  1
中柱（P）
 50
359.99999999999471
 72
     4
 11
26407.93651276391
 21
16240.04817395373
 31
0.0
  0
LINE
  5
107C1
  8
0-6
  6
CONTINUOUS
 62
     6
 10
27317.01195358537
 20
16666.04705195365
 30
0.0
 11
26911.935589763911
 21
16080.04790995369
 31
0.0
  0
LINE
  5
107C2
  8
0-6
  6
CONTINUOUS
 62
     6
 10
25570.874358294252
 20
14743.97698982857
 30
0.0
 11
27026.874358294259
 21
14743.976989828439
 31
0.0
  0
TEXT
  5
107C3
  8
0-6
  6
CONTINUOUS
 62
     7
 10
25610.87963154669
 20
14823.977253828551
 30
0.0
 40
160.0
  1
前柱カバー（P）
 50
359.99999999999471
 72
     4
 11
26298.87963154669
 21
14903.977253828491
 31
0.0
  0
LINE
  5
107C4
  8
0-6
  6
CONTINUOUS
 62
     6
 10
27326.11195358515
 20
14255.58625199953
 30
0.0
 11
27026.874358294259
 21
14743.976989828439
 31
0.0
  0
LINE
  5
107C5
  8
0-6
  6
CONTINUOUS
 62
     6
 10
25570.874358294492
 20
17300.97655382855
 30
0.0
 11
27026.874358294499
 21
17300.976553828419
 31
0.0
  0
TEXT
  5
107C6
  8
0-6
  6
CONTINUOUS
 62
     7
 10
25610.879631546912
 20
17380.976817828549
 30
0.0
 40
160.0
  1
中柱カバー（P）
 50
359.99999999999471
 72
     4
 11
26298.879631546919
 21
17460.97681782849
 31
0.0
  0
LINE
  5
107C7
  8
0-6
  6
CONTINUOUS
 62
     6
 10
27326.11195358539
 20
16812.58581599953
 30
0.0
 11
27026.874358294499
 21
17300.976553828419
 31
0.0
  0
LINE
  5
107C8
  8
0-6
  6
CONTINUOUS
 62
     6
 10
25911.936248764279
 20
19957.423617045541
 30
0.0
 11
26911.935589764271
 21
19957.42361704545
 31
0.0
  0
TEXT
  5
107C9
  8
0-6
  6
CONTINUOUS
 62
     7
 10
26007.93651276426
 20
20037.423881045532
 30
0.0
 40
160.0
  1
後柱（P）
 50
359.99999999999471
 72
     4
 11
26407.93651276427
 21
20117.423881045492
 31
0.0
  0
LINE
  5
107CA
  8
0-6
  6
CONTINUOUS
 62
     6
 10
27317.011953585621
 20
19371.424475045391
 30
0.0
 11
26911.935589764271
 21
19957.42361704545
 31
0.0
  0
LINE
  5
107CB
  8
0-6
  6
CONTINUOUS
 62
     6
 10
25570.87435829463
 20
18751.32459354174
 30
0.0
 11
27026.87435829463
 21
18751.324593541609
 31
0.0
  0
TEXT
  5
107CC
  8
0-6
  6
CONTINUOUS
 62
     7
 10
25610.87963154705
 20
18831.324857541749
 30
0.0
 40
160.0
  1
後柱カバー（P）
 50
359.99999999999471
 72
     4
 11
26298.879631547061
 21
18911.32485754168
 31
0.0
  0
LINE
  5
107CD
  8
0-6
  6
CONTINUOUS
 62
     6
 10
27326.111953585609
 20
19224.88571099953
 30
0.0
 11
27026.87435829463
 21
18751.324593541609
 31
0.0
  0
LINE
  5
107CE
  8
0-6
  6
CONTINUOUS
 62
     6
 10
27219.783929637641
 20
19102.389479252892
 30
0.0
 11
27326.111953585609
 21
19224.885710999541
 31
0.0
  0
LINE
  5
107CF
  8
0-6
  6
CONTINUOUS
 62
     6
 10
27326.111953585609
 20
19224.885710999541
 30
0.0
 11
27265.25983399235
 21
19074.524404324089
 31
0.0
  0
LINE
  5
107D0
  8
0-6
  6
CONTINUOUS
 62
     6
 10
27265.25983399235
 20
19074.524404324089
 30
0.0
 11
27219.783929637641
 21
19102.389479252892
 31
0.0
  0
LINE
  5
107D1
  8
0-6
  6
CONTINUOUS
 62
     6
 10
27247.968275143659
 20
19518.203035932231
 30
0.0
 11
27317.011953585621
 21
19371.424475045391
 31
0.0
  0
LINE
  5
107D2
  8
0-6
  6
CONTINUOUS
 62
     6
 10
27317.011953585621
 20
19371.424475045391
 30
0.0
 11
27204.094953406489
 21
19487.877272670379
 31
0.0
  0
LINE
  5
107D3
  8
0-6
  6
CONTINUOUS
 62
     6
 10
27204.094953406489
 20
19487.877272670379
 30
0.0
 11
27247.968275143659
 21
19518.203035932231
 31
0.0
  0
LINE
  5
107D4
  8
0-6
  6
CONTINUOUS
 62
     6
 10
27219.78392963744
 20
16935.082047746189
 30
0.0
 11
27326.11195358539
 21
16812.58581599953
 31
0.0
  0
LINE
  5
107D5
  8
0-6
  6
CONTINUOUS
 62
     6
 10
27326.11195358539
 20
16812.58581599953
 30
0.0
 11
27265.25983399215
 21
16962.947122674988
 31
0.0
  0
LINE
  5
107D6
  8
0-6
  6
CONTINUOUS
 62
     6
 10
27265.25983399215
 20
16962.947122674988
 30
0.0
 11
27219.78392963744
 21
16935.082047746189
 31
0.0
  0
LINE
  5
107D7
  8
0-6
  6
CONTINUOUS
 62
     6
 10
27219.7839296372
 20
14378.08248374619
 30
0.0
 11
27326.11195358515
 21
14255.586251999541
 31
0.0
  0
LINE
  5
107D8
  8
0-6
  6
CONTINUOUS
 62
     6
 10
27326.11195358515
 20
14255.586251999541
 30
0.0
 11
27265.25983399191
 21
14405.94755867499
 31
0.0
  0
LINE
  5
107D9
  8
0-6
  6
CONTINUOUS
 62
     6
 10
27265.25983399191
 20
14405.94755867499
 30
0.0
 11
27219.7839296372
 21
14378.08248374619
 31
0.0
  0
LINE
  5
107DA
  8
0-6
  6
CONTINUOUS
 62
     6
 10
27247.968275143379
 20
16519.268491066839
 30
0.0
 11
27317.01195358537
 21
16666.04705195365
 31
0.0
  0
LINE
  5
107DB
  8
0-6
  6
CONTINUOUS
 62
     6
 10
27317.01195358537
 20
16666.04705195365
 30
0.0
 11
27204.09495340622
 21
16549.594254328691
 31
0.0
  0
LINE
  5
107DC
  8
0-6
  6
CONTINUOUS
 62
     6
 10
27204.09495340622
 20
16549.594254328691
 30
0.0
 11
27247.968275143379
 21
16519.268491066839
 31
0.0
  0
LINE
  5
107DD
  8
0-6
  6
CONTINUOUS
 62
     6
 10
27247.96827514315
 20
13982.207691112721
 30
0.0
 11
27317.01195358513
 21
14128.986251999529
 31
0.0
  0
LINE
  5
107DE
  8
0-6
  6
CONTINUOUS
 62
     6
 10
27317.01195358513
 20
14128.986251999529
 30
0.0
 11
27204.09495340598
 21
14012.53345437457
 31
0.0
  0
LINE
  5
107DF
  8
0-6
  6
CONTINUOUS
 62
     6
 10
27204.09495340598
 20
14012.53345437457
 30
0.0
 11
27247.96827514315
 21
13982.207691112721
 31
0.0
  0
LINE
  5
107E0
  8
SUNPOU
  6
CONTINUOUS
 62
     4
 10
22362.011953585741
 20
20560.487175999991
 30
0.0
 11
27362.011953585741
 21
20560.487175999519
 31
0.0
  0
LINE
  5
107E1
  8
SUNPOU
  6
CONTINUOUS
 62
     4
 10
27362.01195358565
 20
19684.936025876861
 30
0.0
 11
27362.011953585701
 21
20240.487175999529
 31
0.0
  0
LINE
  5
107E2
  8
SUNPOU
  6
CONTINUOUS
 62
     4
 10
27319.50971058564
 20
19523.836515999541
 30
0.0
 11
27319.509710585698
 21
20240.487175999529
 31
0.0
  0
LINE
  5
107E3
  8
SUNPOU
  6
CONTINUOUS
 62
     4
 10
27362.011953585701
 20
20160.487175999529
 30
0.0
 11
27602.011953585701
 21
20160.487175999511
 31
0.0
  0
LINE
  5
107E4
  8
SUNPOU
  6
CONTINUOUS
 62
     4
 10
27319.509710585691
 20
20160.487175999529
 30
0.0
 11
27079.509710585691
 21
20160.487175999551
 31
0.0
  0
LINE
  5
107E5
  8
SUNPOU
  6
CONTINUOUS
 62
     4
 10
27362.011953585701
 20
20160.487175999529
 30
0.0
 11
27319.509710585691
 21
20160.487175999529
 31
0.0
  0
LINE
  5
107E6
  8
SUNPOU
  6
CONTINUOUS
 62
     4
 10
27362.01195358565
 20
19684.936025876861
 30
0.0
 11
27362.011953585701
 21
20240.487175999529
 31
0.0
  0
LINE
  5
107E7
  8
SUNPOU
  6
CONTINUOUS
 62
     4
 10
27404.51023858563
 20
19520.48875899952
 30
0.0
 11
27404.510238585692
 21
20240.487175999519
 31
0.0
  0
LINE
  5
107E8
  8
SUNPOU
  6
CONTINUOUS
 62
     4
 10
27362.011953585701
 20
20160.487175999529
 30
0.0
 11
27122.011953585701
 21
20160.487175999551
 31
0.0
  0
LINE
  5
107E9
  8
SUNPOU
  6
CONTINUOUS
 62
     4
 10
27404.510238585692
 20
20160.487175999519
 30
0.0
 11
27644.510238585692
 21
20160.4871759995
 31
0.0
  0
LINE
  5
107EA
  8
SUNPOU
  6
CONTINUOUS
 62
     4
 10
27362.011953585701
 20
20160.487175999529
 30
0.0
 11
27404.510238585692
 21
20160.487175999519
 31
0.0
  0
LINE
  5
107EB
  8
SUNPOU
  6
CONTINUOUS
 62
     4
 10
27746.616789537318
 20
16750.4862519995
 30
0.0
 11
28659.855577954
 21
16750.486251999409
 31
0.0
  0
LINE
  5
107EC
  8
SUNPOU
  6
CONTINUOUS
 62
     4
 10
27746.616789537551
 20
19317.9862519995
 30
0.0
 11
28659.85557795424
 21
19317.986251999409
 31
0.0
  0
LINE
  5
107ED
  8
SUNPOU
  6
CONTINUOUS
 62
     4
 10
28579.855577954018
 20
16750.48625199942
 30
0.0
 11
28579.855577954251
 21
19317.98625199942
 31
0.0
  0
LINE
  5
107EE
  8
SUNPOU
  6
CONTINUOUS
 62
     4
 10
27746.616789537082
 20
14182.9862519995
 30
0.0
 11
28659.85557795376
 21
14182.98625199942
 31
0.0
  0
LINE
  5
107EF
  8
SUNPOU
  6
CONTINUOUS
 62
     4
 10
27746.616789537318
 20
16750.4862519995
 30
0.0
 11
28659.855577954
 21
16750.486251999409
 31
0.0
  0
LINE
  5
107F0
  8
SUNPOU
  6
CONTINUOUS
 62
     4
 10
28579.855577953778
 20
14182.98625199942
 30
0.0
 11
28579.855577954018
 21
16750.48625199942
 31
0.0
  0
ARC
  5
107F1
  8
1-前柱P
 10
27371.61195358515
 20
14251.386251999529
 30
0.0
 40
1.0
 50
90.0
 51
180.0
  0
LINE
  5
107F2
  8
1-前柱P
 10
27370.61195358515
 20
14251.386251999529
 30
0.0
 11
27370.61195358515
 21
14249.786251999531
 31
0.0
  0
LINE
  5
107F3
  8
1-前柱P
 10
27370.61195358515
 20
14249.786251999531
 30
0.0
 11
27359.41195358515
 21
14249.78625199954
 31
0.0
  0
LINE
  5
107F4
  8
1-前柱P
 10
27359.41195358515
 20
14249.78625199954
 30
0.0
 11
27359.411953585139
 21
14251.38625199954
 31
0.0
  0
ARC
  5
107F5
  8
1-前柱P
 10
27358.411953585139
 20
14251.38625199954
 30
0.0
 40
1.0
 50
0.0
 51
90.0
  0
ARC
  5
107F6
  8
1-中柱P
 10
27355.411953585379
 20
16818.786251999529
 30
0.0
 40
1.0
 50
0.0
 51
90.0
  0
LINE
  5
107F7
  8
1-中柱P
 10
27356.411953585379
 20
16818.786251999529
 30
0.0
 11
27356.411953585379
 21
16817.186251999541
 31
0.0
  0
LINE
  5
107F8
  8
1-中柱P
 10
27356.411953585379
 20
16817.186251999541
 30
0.0
 11
27367.61195358538
 21
16817.186251999541
 31
0.0
  0
LINE
  5
107F9
  8
1-中柱P
 10
27367.61195358538
 20
16817.186251999541
 30
0.0
 11
27367.61195358538
 21
16818.786251999521
 31
0.0
  0
ARC
  5
107FA
  8
1-中柱P
 10
27368.61195358538
 20
16818.786251999521
 30
0.0
 40
1.0
 50
90.0
 51
180.0
  0
ARC
  5
107FB
  8
1-後柱P
 10
27352.411953585612
 20
19249.93625199953
 30
0.0
 40
1.0
 50
270.0
 51
0.0
  0
LINE
  5
107FC
  8
1-後柱P
 10
27353.411953585641
 20
19249.93625199953
 30
0.0
 11
27353.411953585641
 21
19251.53625199954
 31
0.0
  0
LINE
  5
107FD
  8
1-後柱P
 10
27353.411953585641
 20
19251.53625199954
 30
0.0
 11
27364.611953585609
 21
19251.536251999529
 31
0.0
  0
LINE
  5
107FE
  8
1-後柱P
 10
27364.611953585609
 20
19251.536251999529
 30
0.0
 11
27364.611953585609
 21
19249.936251999519
 31
0.0
  0
ARC
  5
107FF
  8
1-後柱P
 10
27365.611953585609
 20
19249.936251999519
 30
0.0
 40
1.0
 50
180.0
 51
270.0
  0
TEXT
  5
10800
  8
0
  6
CONTINUOUS
 62
     7
 10
28499.855577954058
 20
15066.73625199942
 30
0.0
 40
160.0
  1
2567.5
 50
90.0
  0
TEXT
  5
10801
  8
0
  6
CONTINUOUS
 62
     7
 10
28499.855577953829
 20
17634.23625199942
 30
0.0
 40
160.0
  1
2567.5
 50
90.0
  0
TEXT
  5
10802
  8
0
  6
CONTINUOUS
 62
     7
 10
27502.933881585679
 20
20240.485459999531
 30
0.0
 40
160.0
  1
42.5
 50
359.99999999999471
  0
TEXT
  5
10803
  8
0
  6
CONTINUOUS
 62
     7
 10
26824.837914585722
 20
20259.829315999588
 30
0.0
 40
160.0
  1
42.5
 50
359.99999999999471
  0
TEXT
  5
10804
  8
0
  6
CONTINUOUS
 62
     7
 10
24608.678620252409
 20
20640.48717599978
 30
0.0
 40
160.0
  1
5000
 50
359.99999999999471
  0
ARC
  5
10805
  8
0
  6
BYBLOCK
 62
     0
 10
27362.011953585741
 20
20560.487175999519
 30
0.0
 40
15.0
 50
0.0
 51
180.0
  0
ARC
  5
10806
  8
0
  6
BYBLOCK
 62
     0
 10
27362.011953585741
 20
20560.487175999519
 30
0.0
 40
15.0
 50
180.0
 51
0.0
  0
ARC
  5
10807
  8
0
  6
BYBLOCK
 62
     0
 10
27362.011953585701
 20
20160.487175999529
 30
0.0
 40
15.0
 50
180.0
 51
0.0
  0
ARC
  5
10808
  8
0
  6
BYBLOCK
 62
     0
 10
27362.011953585701
 20
20160.487175999529
 30
0.0
 40
15.0
 50
0.0
 51
180.0
  0
ARC
  5
10809
  8
0
  6
BYBLOCK
 62
     0
 10
27319.509710585691
 20
20160.487175999529
 30
0.0
 40
15.0
 50
0.0
 51
180.0
  0
ARC
  5
1080A
  8
0
  6
BYBLOCK
 62
     0
 10
27319.509710585691
 20
20160.487175999529
 30
0.0
 40
15.0
 50
180.0
 51
0.0
  0
ARC
  5
1080B
  8
0
  6
BYBLOCK
 62
     0
 10
27362.011953585701
 20
20160.487175999529
 30
0.0
 40
15.0
 50
0.0
 51
180.0
  0
ARC
  5
1080C
  8
0
  6
BYBLOCK
 62
     0
 10
27362.011953585701
 20
20160.487175999529
 30
0.0
 40
15.0
 50
180.0
 51
0.0
  0
ARC
  5
1080D
  8
0
  6
BYBLOCK
 62
     0
 10
27404.510238585692
 20
20160.487175999519
 30
0.0
 40
15.0
 50
180.0
 51
0.0
  0
ARC
  5
1080E
  8
0
  6
BYBLOCK
 62
     0
 10
27404.510238585692
 20
20160.487175999519
 30
0.0
 40
15.0
 50
0.0
 51
180.0
  0
ARC
  5
1080F
  8
0
  6
BYBLOCK
 62
     0
 10
28579.855577954018
 20
16750.48625199942
 30
0.0
 40
15.0
 50
270.0
 51
90.0
  0
ARC
  5
10810
  8
0
  6
BYBLOCK
 62
     0
 10
28579.855577954018
 20
16750.48625199942
 30
0.0
 40
15.0
 50
90.0
 51
270.0
  0
ARC
  5
10811
  8
0
  6
BYBLOCK
 62
     0
 10
28579.855577954251
 20
19317.98625199942
 30
0.0
 40
15.0
 50
90.0
 51
270.0
  0
ARC
  5
10812
  8
0
  6
BYBLOCK
 62
     0
 10
28579.855577954251
 20
19317.98625199942
 30
0.0
 40
15.0
 50
270.0
 51
90.0
  0
ARC
  5
10813
  8
0
  6
BYBLOCK
 62
     0
 10
28579.855577953778
 20
14182.98625199942
 30
0.0
 40
15.0
 50
270.0
 51
90.0
  0
ARC
  5
10814
  8
0
  6
BYBLOCK
 62
     0
 10
28579.855577953778
 20
14182.98625199942
 30
0.0
 40
15.0
 50
90.0
 51
270.0
  0
ARC
  5
10815
  8
0
  6
BYBLOCK
 62
     0
 10
28579.855577954018
 20
16750.48625199942
 30
0.0
 40
15.0
 50
90.0
 51
270.0
  0
ARC
  5
10816
  8
0
  6
BYBLOCK
 62
     0
 10
28579.855577954018
 20
16750.48625199942
 30
0.0
 40
15.0
 50
270.0
 51
90.0
  0
LINE
  5
10817
  8
2-0
  6
CENTER2
 62
     6
 10
22362.011953585759
 20
20960.488495000001
 30
0.0
 11
22362.011953585581
 21
19101.486805999972
 31
0.0
  0
LINE
  5
10818
  8
2-0
  6
CENTER2
 62
     6
 10
19794.511953585759
 20
20960.488495000231
 30
0.0
 11
19794.511953585588
 21
19101.486806000212
 31
0.0
  0
LINE
  5
10819
  8
2-0
  6
CENTER2
 62
     6
 10
17752.011030585629
 20
19317.986252000421
 30
0.0
 11
18472.009710585618
 21
19317.986252000352
 31
0.0
  0
LINE
  5
1081A
  8
2-0
  6
CENTER2
 62
     6
 10
17752.01103058537
 20
16750.486252000421
 30
0.0
 11
17979.811485263341
 21
16750.486252000399
 31
0.0
  0
LINE
  5
1081B
  8
2-0
  6
CENTER2
 62
     6
 10
17752.011030585159
 20
14182.986252000421
 30
0.0
 11
18472.009710585149
 21
14182.986252000361
 31
0.0
  0
CIRCLE
  5
1081C
  8
0-5
  6
CONTINUOUS
 62
     4
 10
22362.011953585781
 20
21160.487175999999
 30
0.0
 40
199.9999949999999
  0
CIRCLE
  5
1081D
  8
0-5
  6
CONTINUOUS
 62
     4
 10
17552.010370585642
 20
19317.986252000439
 30
0.0
 40
199.9999949999999
  0
CIRCLE
  5
1081E
  8
0-5
  6
CONTINUOUS
 62
     4
 10
17552.010370585391
 20
16750.486252000439
 30
0.0
 40
199.9999949999999
  0
CIRCLE
  5
1081F
  8
0-5
  6
CONTINUOUS
 62
     4
 10
17552.010370585169
 20
14182.986252000441
 30
0.0
 40
199.9999949999999
  0
CIRCLE
  5
10820
  8
0-5
  6
CONTINUOUS
 62
     4
 10
19794.511953585781
 20
21160.487176000232
 30
0.0
 40
199.9999949999999
  0
TEXT
  5
10821
  8
0-5
  6
CONTINUOUS
 62
     7
 10
22307.341609585768
 20
21074.261326000011
 30
0.0
 40
160.0
  1
2
 50
359.99999999999471
 72
     4
 11
22360.674942919111
 21
21154.261326
 31
0.0
  0
TEXT
  5
10822
  8
0-5
  6
CONTINUOUS
 62
     7
 10
19767.84528691911
 20
21080.487176000232
 30
0.0
 40
160.0
  1
1
 50
359.99999999999471
 72
     4
 11
19794.511953585781
 21
21160.487176000232
 31
0.0
  0
TEXT
  5
10823
  8
0-5
  6
CONTINUOUS
 62
     7
 10
17503.334008585622
 20
19226.368193000439
 30
0.0
 40
160.0
  1
C
 50
359.99999999999471
 72
     4
 11
17556.667341918961
 21
19306.368193000439
 31
0.0
  0
TEXT
  5
10824
  8
0-5
  6
CONTINUOUS
 62
     7
 10
17503.334008585382
 20
16658.868194000439
 30
0.0
 40
160.0
  1
B
 50
359.99999999999471
 72
     4
 11
17556.667341918721
 21
16738.868194000439
 31
0.0
  0
TEXT
  5
10825
  8
0-5
  6
CONTINUOUS
 62
     7
 10
17503.334008585149
 20
14091.36819300044
 30
0.0
 40
160.0
  1
A
 50
359.99999999999471
 72
     4
 11
17556.667341918492
 21
14171.36819300044
 31
0.0
  0
LINE
  5
10826
  8
2-0
  6
CENTER2
 62
     6
 10
22362.01195358577
 20
20960.488495000001
 30
0.0
 11
22362.011953585072
 21
13477.222817999989
 31
0.0
  0
LINE
  5
10827
  8
2-0
  6
CENTER2
 62
     6
 10
19794.511953585759
 20
20960.488495000231
 30
0.0
 11
19794.511953585072
 21
13477.222818000229
 31
0.0
  0
LINE
  5
10828
  8
SUNPOU
  6
CONTINUOUS
 62
     4
 10
19794.51195358573
 20
20560.487176000232
 30
0.0
 11
22362.011953585719
 21
20560.487175999991
 31
0.0
  0
TEXT
  5
10829
  8
0
  6
CONTINUOUS
 62
     7
 10
20678.261953585741
 20
20640.487176000152
 30
0.0
 40
160.0
  1
2567.5
 50
359.99999999999471
  0
ARC
  5
1082A
  8
0
  6
BYBLOCK
 62
     0
 10
22362.011953585719
 20
20560.487175999991
 30
0.0
 40
15.0
 50
180.0
 51
0.0
  0
ARC
  5
1082B
  8
0
  6
BYBLOCK
 62
     0
 10
22362.011953585719
 20
20560.487175999991
 30
0.0
 40
15.0
 50
0.0
 51
180.0
  0
ARC
  5
1082C
  8
0
  6
BYBLOCK
 62
     0
 10
19794.51195358573
 20
20560.487176000232
 30
0.0
 40
15.0
 50
180.0
 51
0.0
  0
ARC
  5
1082D
  8
0
  6
BYBLOCK
 62
     0
 10
19794.51195358573
 20
20560.487176000232
 30
0.0
 40
15.0
 50
0.0
 51
180.0
  0
ARC
  5
1082E
  8
0
  6
BYBLOCK
 62
     0
 10
22362.011953585719
 20
20560.487175999991
 30
0.0
 40
15.0
 50
0.0
 51
180.0
  0
ARC
  5
1082F
  8
0
  6
BYBLOCK
 62
     0
 10
22362.011953585719
 20
20560.487175999991
 30
0.0
 40
15.0
 50
180.0
 51
0.0
  0
LINE
  5
10830
  8
2-0
  6
CONTINUOUS
 62
     6
 10
21477.670869585101
 20
13542.985130000079
 30
0.0
 11
20477.67746758513
 21
13542.98513000017
 31
0.0
  0
LINE
  5
10831
  8
2-0
  6
CONTINUOUS
 62
     6
 10
20009.737090585139
 20
14013.40584400021
 30
0.0
 11
20477.67746758513
 21
13542.98513000017
 31
0.0
  0
LINE
  5
10832
  8
2-0
  6
CONTINUOUS
 62
     6
 10
20048.377293585389
 20
16854.51349100022
 30
0.0
 11
20353.072711585421
 21
16958.167022000209
 31
0.0
  0
LINE
  5
10833
  8
2-0
  6
CONTINUOUS
 62
     6
 10
19893.35525458536
 20
16364.891447000229
 30
0.0
 11
20353.072711585351
 21
16120.978136000191
 31
0.0
  0
LINE
  5
10834
  8
2-0
  6
CONTINUOUS
 62
     6
 10
21273.075746585338
 20
16120.978136000111
 30
0.0
 11
20353.072711585351
 21
16120.978136000191
 31
0.0
  0
LINE
  5
10835
  8
2-0
  6
CONTINUOUS
 62
     6
 10
21553.066773585411
 20
16958.167022000089
 30
0.0
 11
20353.072711585421
 21
16958.167022000209
 31
0.0
  0
LINE
  5
10836
  8
2-0
  6
CONTINUOUS
 62
     6
 10
19977.177969585151
 20
14335.0894900002
 30
0.0
 11
20353.072711585199
 21
14516.03332500018
 31
0.0
  0
LINE
  5
10837
  8
2-0
  6
CONTINUOUS
 62
     6
 10
20873.074427585179
 20
14516.03332500014
 30
0.0
 11
20353.072711585199
 21
14516.03332500018
 31
0.0
  0
LINE
  5
10838
  8
2-0
  6
CONTINUOUS
 62
     4
 10
22362.011953585639
 20
19440.48678000001
 30
0.0
 11
22362.011953585708
 21
20170.483745000009
 31
0.0
  0
LINE
  5
10839
  8
2-0
  6
CONTINUOUS
 62
     3
 10
19782.011293585609
 20
19251.484326000231
 30
0.0
 11
19782.011293585609
 21
19245.488364000252
 31
0.0
  0
LINE
  5
1083A
  8
2-0
  6
CONTINUOUS
 62
     3
 10
19782.011293585609
 20
19245.488364000252
 30
0.0
 11
19752.013669585609
 21
19245.488364000259
 31
0.0
  0
LINE
  5
1083B
  8
2-0
  6
CONTINUOUS
 62
     3
 10
19752.013669585609
 20
19275.487968000241
 30
0.0
 11
19833.015569585641
 21
19275.48796800023
 31
0.0
  0
LINE
  5
1083C
  8
2-0
  6
CONTINUOUS
 62
     3
 10
19782.011293585609
 20
19235.190908000219
 30
0.0
 11
19752.013669585602
 21
19235.19090800023
 31
0.0
  0
LINE
  5
1083D
  8
2-0
  6
CONTINUOUS
 62
     3
 10
19782.011293585609
 20
19253.192650000241
 30
0.0
 11
19782.011293585609
 21
19235.190908000219
 31
0.0
  0
LINE
  5
1083E
  8
2-0
  6
CONTINUOUS
 62
     3
 10
19757.013933585618
 20
19253.192650000241
 30
0.0
 11
19782.011293585609
 21
19253.192650000241
 31
0.0
  0
LINE
  5
1083F
  8
2-0
  6
CONTINUOUS
 62
     3
 10
19757.013933585618
 20
19248.18446800024
 30
0.0
 11
19757.013933585618
 21
19253.192650000241
 31
0.0
  0
LINE
  5
10840
  8
2-0
  6
CONTINUOUS
 62
     3
 10
19764.015490585611
 20
19248.18446800024
 30
0.0
 11
19757.013933585618
 21
19248.18446800024
 31
0.0
  0
LINE
  5
10841
  8
2-0
  6
CONTINUOUS
 62
     3
 10
19864.311758585609
 20
19348.484695000228
 30
0.0
 11
19864.311758585609
 21
19355.49021100024
 31
0.0
  0
LINE
  5
10842
  8
2-0
  6
CONTINUOUS
 62
     3
 10
19864.311758585609
 20
19355.49021100024
 30
0.0
 11
19859.31149458564
 21
19355.49021100024
 31
0.0
  0
LINE
  5
10843
  8
2-0
  6
CONTINUOUS
 62
     3
 10
19859.31149458564
 20
19355.49021100024
 30
0.0
 11
19859.31149458564
 21
19330.480974000231
 31
0.0
  0
LINE
  5
10844
  8
2-0
  6
CONTINUOUS
 62
     3
 10
19859.31149458564
 20
19330.480974000231
 30
0.0
 11
19877.313236585651
 21
19330.480974000231
 31
0.0
  0
LINE
  5
10845
  8
2-0
  6
CONTINUOUS
 62
     3
 10
19877.313236585651
 20
19330.480974000231
 30
0.0
 11
19877.313236585651
 21
19360.484537000251
 31
0.0
  0
LINE
  5
10846
  8
2-0
  6
CONTINUOUS
 62
     3
 10
19867.015780585629
 20
19360.484537000251
 30
0.0
 11
19752.013669585609
 21
19360.484537000259
 31
0.0
  0
LINE
  5
10847
  8
2-0
  6
CONTINUOUS
 62
     3
 10
19867.015780585629
 20
19330.480974000231
 30
0.0
 11
19867.015780585629
 21
19360.484537000251
 31
0.0
  0
LINE
  5
10848
  8
2-0
  6
CONTINUOUS
 62
     3
 10
19861.013880585611
 20
19330.480974000231
 30
0.0
 11
19867.015780585629
 21
19330.480974000231
 31
0.0
  0
LINE
  5
10849
  8
2-0
  6
CONTINUOUS
 62
     3
 10
19764.015490585571
 20
18894.887645500188
 30
0.0
 11
19757.013933585589
 21
18894.887645500188
 31
0.0
  0
LINE
  5
1084A
  8
2-0
  6
CONTINUOUS
 62
     3
 10
19757.013933585589
 20
18894.887645500188
 30
0.0
 11
19757.013933585589
 21
18899.88790950023
 31
0.0
  0
LINE
  5
1084B
  8
2-0
  6
CONTINUOUS
 62
     3
 10
19757.013933585589
 20
18899.88790950023
 30
0.0
 11
19782.01129358559
 21
18899.88790950023
 31
0.0
  0
LINE
  5
1084C
  8
2-0
  6
CONTINUOUS
 62
     3
 10
19782.01129358559
 20
18899.88790950023
 30
0.0
 11
19782.01129358559
 21
18881.892105500239
 31
0.0
  0
LINE
  5
1084D
  8
2-0
  6
CONTINUOUS
 62
     3
 10
19782.01129358559
 20
18881.892105500239
 30
0.0
 11
19752.013669585569
 21
18881.892105500239
 31
0.0
  0
LINE
  5
1084E
  8
2-0
  6
CONTINUOUS
 62
     3
 10
19782.01129358559
 20
18897.983612500218
 30
0.0
 11
19782.01129358559
 21
18891.985671500232
 31
0.0
  0
LINE
  5
1084F
  8
2-0
  6
CONTINUOUS
 62
     3
 10
19782.01129358559
 20
18891.985671500232
 30
0.0
 11
19752.013669585569
 21
18891.985671500239
 31
0.0
  0
LINE
  5
10850
  8
2-0
  6
CONTINUOUS
 62
     3
 10
19752.013669585569
 20
18891.985671500239
 30
0.0
 11
19752.013669585569
 21
18928.986832500239
 31
0.0
  0
LINE
  5
10851
  8
2-0
  6
CONTINUOUS
 62
     3
 10
19782.01129358559
 20
18928.986832500232
 30
0.0
 11
19752.013669585569
 21
18928.986832500239
 31
0.0
  0
LINE
  5
10852
  8
2-0
  6
CONTINUOUS
 62
     3
 10
19782.01129358559
 20
18922.982952500231
 30
0.0
 11
19782.01129358559
 21
18928.986832500232
 31
0.0
  0
LINE
  5
10853
  8
2-0
  6
CONTINUOUS
 62
     3
 10
19782.01129358559
 20
18939.082377500232
 30
0.0
 11
19752.01366958558
 21
18939.082377500232
 31
0.0
  0
LINE
  5
10854
  8
2-0
  6
CONTINUOUS
 62
     3
 10
19782.01129358559
 20
18921.080635500239
 30
0.0
 11
19782.01129358559
 21
18939.082377500232
 31
0.0
  0
LINE
  5
10855
  8
2-0
  6
CONTINUOUS
 62
     3
 10
19757.013933585589
 20
18921.080635500239
 30
0.0
 11
19782.01129358559
 21
18921.080635500239
 31
0.0
  0
LINE
  5
10856
  8
2-0
  6
CONTINUOUS
 62
     3
 10
19757.013933585589
 20
18926.08089950023
 30
0.0
 11
19757.013933585589
 21
18921.080635500239
 31
0.0
  0
LINE
  5
10857
  8
2-0
  6
CONTINUOUS
 62
     3
 10
19764.015490585571
 20
18926.08089950023
 30
0.0
 11
19757.013933585589
 21
18926.08089950023
 31
0.0
  0
LINE
  5
10858
  8
2-0
  6
CONTINUOUS
 62
     3
 10
19764.015490585509
 20
18193.886656000239
 30
0.0
 11
19757.013933585509
 21
18193.886656000239
 31
0.0
  0
LINE
  5
10859
  8
2-0
  6
CONTINUOUS
 62
     3
 10
19757.013933585509
 20
18193.886656000239
 30
0.0
 11
19757.013933585509
 21
18198.892858000228
 31
0.0
  0
LINE
  5
1085A
  8
2-0
  6
CONTINUOUS
 62
     3
 10
19757.013933585509
 20
18198.892858000228
 30
0.0
 11
19782.011293585521
 21
18198.892858000228
 31
0.0
  0
LINE
  5
1085B
  8
2-0
  6
CONTINUOUS
 62
     3
 10
19782.011293585521
 20
18198.892858000228
 30
0.0
 11
19782.011293585521
 21
18180.891116000232
 31
0.0
  0
LINE
  5
1085C
  8
2-0
  6
CONTINUOUS
 62
     3
 10
19782.011293585521
 20
18180.891116000232
 30
0.0
 11
19752.013669585511
 21
18180.891116000239
 31
0.0
  0
LINE
  5
1085D
  8
2-0
  6
CONTINUOUS
 62
     3
 10
19782.011293585521
 20
18196.982623000222
 30
0.0
 11
19782.011293585521
 21
18190.986661000221
 31
0.0
  0
LINE
  5
1085E
  8
2-0
  6
CONTINUOUS
 62
     3
 10
19782.011293585521
 20
18190.986661000221
 30
0.0
 11
19752.013669585511
 21
18190.986661000221
 31
0.0
  0
LINE
  5
1085F
  8
2-0
  6
CONTINUOUS
 62
     3
 10
19752.013669585511
 20
18190.986661000221
 30
0.0
 11
19752.013669585511
 21
18227.985843000239
 31
0.0
  0
LINE
  5
10860
  8
2-0
  6
CONTINUOUS
 62
     3
 10
19782.011293585521
 20
18227.985843000239
 30
0.0
 11
19752.013669585511
 21
18227.985843000239
 31
0.0
  0
LINE
  5
10861
  8
2-0
  6
CONTINUOUS
 62
     3
 10
19782.011293585521
 20
18221.989881000241
 30
0.0
 11
19782.011293585521
 21
18227.985843000239
 31
0.0
  0
LINE
  5
10862
  8
2-0
  6
CONTINUOUS
 62
     3
 10
19782.011293585521
 20
18238.081388000232
 30
0.0
 11
19752.013669585511
 21
18238.081388000239
 31
0.0
  0
LINE
  5
10863
  8
2-0
  6
CONTINUOUS
 62
     3
 10
19782.011293585521
 20
18220.079646000238
 30
0.0
 11
19782.011293585521
 21
18238.081388000232
 31
0.0
  0
LINE
  5
10864
  8
2-0
  6
CONTINUOUS
 62
     3
 10
19757.013933585509
 20
18220.079646000238
 30
0.0
 11
19782.011293585521
 21
18220.079646000238
 31
0.0
  0
LINE
  5
10865
  8
2-0
  6
CONTINUOUS
 62
     3
 10
19757.013933585509
 20
18225.085848000221
 30
0.0
 11
19757.013933585509
 21
18220.079646000238
 31
0.0
  0
LINE
  5
10866
  8
2-0
  6
CONTINUOUS
 62
     3
 10
19764.01549058552
 20
18225.085848000221
 30
0.0
 11
19757.013933585509
 21
18225.085848000221
 31
0.0
  0
LINE
  5
10867
  8
2-0
  6
CONTINUOUS
 62
     3
 10
19764.015490585451
 20
17524.07991000024
 30
0.0
 11
19757.013933585458
 21
17524.07991000024
 31
0.0
  0
LINE
  5
10868
  8
2-0
  6
CONTINUOUS
 62
     3
 10
19757.013933585458
 20
17524.07991000024
 30
0.0
 11
19757.013933585458
 21
17519.091523000239
 31
0.0
  0
LINE
  5
10869
  8
2-0
  6
CONTINUOUS
 62
     3
 10
19757.013933585458
 20
17519.091523000239
 30
0.0
 11
19782.011293585459
 21
17519.091523000239
 31
0.0
  0
LINE
  5
1086A
  8
2-0
  6
CONTINUOUS
 62
     3
 10
19782.011293585459
 20
17519.091523000239
 30
0.0
 11
19782.011293585459
 21
17537.08732600023
 31
0.0
  0
LINE
  5
1086B
  8
2-0
  6
CONTINUOUS
 62
     3
 10
19782.011293585459
 20
17537.08732600023
 30
0.0
 11
19752.013669585449
 21
17537.08732600023
 31
0.0
  0
LINE
  5
1086C
  8
2-0
  6
CONTINUOUS
 62
     3
 10
19782.011293585459
 20
17520.989881000241
 30
0.0
 11
19782.011293585459
 21
17526.985843000231
 31
0.0
  0
LINE
  5
1086D
  8
2-0
  6
CONTINUOUS
 62
     3
 10
19782.011293585459
 20
17526.985843000231
 30
0.0
 11
19752.013669585449
 21
17526.985843000231
 31
0.0
  0
LINE
  5
1086E
  8
2-0
  6
CONTINUOUS
 62
     3
 10
19752.013669585449
 20
17526.985843000231
 30
0.0
 11
19752.013669585442
 21
17489.986661000239
 31
0.0
  0
LINE
  5
1086F
  8
2-0
  6
CONTINUOUS
 62
     3
 10
19782.011293585459
 20
17489.986661000239
 30
0.0
 11
19752.013669585442
 21
17489.986661000239
 31
0.0
  0
LINE
  5
10870
  8
2-0
  6
CONTINUOUS
 62
     3
 10
19782.011293585459
 20
17495.988562000221
 30
0.0
 11
19782.011293585459
 21
17489.986661000239
 31
0.0
  0
LINE
  5
10871
  8
2-0
  6
CONTINUOUS
 62
     3
 10
19782.011293585459
 20
17479.897055000241
 30
0.0
 11
19752.013669585442
 21
17479.897055000241
 31
0.0
  0
LINE
  5
10872
  8
2-0
  6
CONTINUOUS
 62
     3
 10
19782.011293585459
 20
17497.892858000239
 30
0.0
 11
19782.011293585459
 21
17479.897055000241
 31
0.0
  0
LINE
  5
10873
  8
2-0
  6
CONTINUOUS
 62
     3
 10
19757.013933585458
 20
17497.89285800025
 30
0.0
 11
19782.011293585459
 21
17497.892858000239
 31
0.0
  0
LINE
  5
10874
  8
2-0
  6
CONTINUOUS
 62
     3
 10
19757.013933585458
 20
17492.892595000249
 30
0.0
 11
19757.013933585458
 21
17497.89285800025
 31
0.0
  0
LINE
  5
10875
  8
2-0
  6
CONTINUOUS
 62
     3
 10
19764.015490585451
 20
17492.892595000249
 30
0.0
 11
19757.013933585458
 21
17492.892595000249
 31
0.0
  0
LINE
  5
10876
  8
2-0
  6
CONTINUOUS
 62
     3
 10
19754.899807585381
 20
16772.983481000228
 30
0.0
 11
19754.899807585381
 21
16792.98453600024
 31
0.0
  0
LINE
  5
10877
  8
2-0
  6
CONTINUOUS
 62
     3
 10
19754.899807585381
 20
16792.98453600024
 30
0.0
 11
19839.896376585399
 21
16792.984536000229
 31
0.0
  0
LINE
  5
10878
  8
2-0
  6
CONTINUOUS
 62
     3
 10
19764.015490585381
 20
16819.59124600024
 30
0.0
 11
19757.013933585389
 21
16819.59124600024
 31
0.0
  0
LINE
  5
10879
  8
2-0
  6
CONTINUOUS
 62
     3
 10
19757.013933585389
 20
16819.59124600024
 30
0.0
 11
19757.013933585389
 21
16814.59692000024
 31
0.0
  0
LINE
  5
1087A
  8
2-0
  6
CONTINUOUS
 62
     3
 10
19757.013933585389
 20
16814.59692000024
 30
0.0
 11
19782.011293585401
 21
16814.59692000024
 31
0.0
  0
LINE
  5
1087B
  8
2-0
  6
CONTINUOUS
 62
     3
 10
19782.011293585401
 20
16814.59692000024
 30
0.0
 11
19782.011293585401
 21
16832.592724000238
 31
0.0
  0
LINE
  5
1087C
  8
2-0
  6
CONTINUOUS
 62
     3
 10
19782.011293585401
 20
16832.592724000238
 30
0.0
 11
19752.01366958538
 21
16832.592724000238
 31
0.0
  0
LINE
  5
1087D
  8
2-0
  6
CONTINUOUS
 62
     3
 10
19782.011293585401
 20
16822.98414000023
 30
0.0
 11
19782.011293585401
 21
16816.982240000219
 31
0.0
  0
LINE
  5
1087E
  8
2-0
  6
CONTINUOUS
 62
     3
 10
19752.01366958538
 20
16822.98414000023
 30
0.0
 11
19782.011293585401
 21
16822.98414000023
 31
0.0
  0
LINE
  5
1087F
  8
2-0
  6
CONTINUOUS
 62
     3
 10
19752.01366958538
 20
16832.592724000238
 30
0.0
 11
19752.013669585442
 21
17479.897055000241
 31
0.0
  0
LINE
  5
10880
  8
2-0
  6
CONTINUOUS
 62
     3
 10
19752.013669585449
 20
17537.08732600023
 30
0.0
 11
19752.013669585511
 21
18180.891116000239
 31
0.0
  0
LINE
  5
10881
  8
2-0
  6
CONTINUOUS
 62
     3
 10
19752.013669585369
 20
16677.982425000238
 30
0.0
 11
19782.011293585379
 21
16677.982425000238
 31
0.0
  0
LINE
  5
10882
  8
2-0
  6
CONTINUOUS
 62
     3
 10
19782.011293585379
 20
16677.982425000238
 30
0.0
 11
19782.011293585379
 21
16683.98432500022
 31
0.0
  0
LINE
  5
10883
  8
2-0
  6
CONTINUOUS
 62
     3
 10
19839.896376585399
 20
16707.98796800023
 30
0.0
 11
19754.899807585371
 21
16707.987968000241
 31
0.0
  0
LINE
  5
10884
  8
2-0
  6
CONTINUOUS
 62
     3
 10
19754.899807585371
 20
16707.987968000241
 30
0.0
 11
19754.899807585381
 21
16727.98308500024
 31
0.0
  0
LINE
  5
10885
  8
2-0
  6
CONTINUOUS
 62
     3
 10
19782.011293585379
 20
16668.373842000241
 30
0.0
 11
19752.013669585369
 21
16668.373842000241
 31
0.0
  0
LINE
  5
10886
  8
2-0
  6
CONTINUOUS
 62
     3
 10
19782.011293585379
 20
16686.369645000232
 30
0.0
 11
19782.011293585379
 21
16668.373842000241
 31
0.0
  0
LINE
  5
10887
  8
2-0
  6
CONTINUOUS
 62
     3
 10
19757.013933585378
 20
16686.369645000232
 30
0.0
 11
19782.011293585379
 21
16686.369645000232
 31
0.0
  0
LINE
  5
10888
  8
2-0
  6
CONTINUOUS
 62
     3
 10
19757.013933585378
 20
16681.36938100023
 30
0.0
 11
19757.013933585378
 21
16686.369645000232
 31
0.0
  0
LINE
  5
10889
  8
2-0
  6
CONTINUOUS
 62
     3
 10
19764.01549058536
 20
16681.36938100023
 30
0.0
 11
19757.013933585378
 21
16681.36938100023
 31
0.0
  0
LINE
  5
1088A
  8
2-0
  6
CONTINUOUS
 62
     3
 10
19764.015490585301
 20
15976.887150500221
 30
0.0
 11
19757.013933585309
 21
15976.887150500221
 31
0.0
  0
LINE
  5
1088B
  8
2-0
  6
CONTINUOUS
 62
     3
 10
19757.013933585309
 20
15976.887150500221
 30
0.0
 11
19757.01393358532
 21
15981.887414500219
 31
0.0
  0
LINE
  5
1088C
  8
2-0
  6
CONTINUOUS
 62
     3
 10
19757.01393358532
 20
15981.887414500219
 30
0.0
 11
19782.011293585321
 21
15981.887414500219
 31
0.0
  0
LINE
  5
1088D
  8
2-0
  6
CONTINUOUS
 62
     3
 10
19782.011293585321
 20
15981.887414500219
 30
0.0
 11
19782.011293585321
 21
15963.88567250023
 31
0.0
  0
LINE
  5
1088E
  8
2-0
  6
CONTINUOUS
 62
     3
 10
19782.011293585321
 20
15963.88567250023
 30
0.0
 11
19752.0136695853
 21
15963.88567250023
 31
0.0
  0
LINE
  5
1088F
  8
2-0
  6
CONTINUOUS
 62
     3
 10
19782.011293585321
 20
15979.983117500229
 30
0.0
 11
19782.011293585321
 21
15973.98616650023
 31
0.0
  0
LINE
  5
10890
  8
2-0
  6
CONTINUOUS
 62
     3
 10
19782.011293585321
 20
15973.98616650023
 30
0.0
 11
19752.0136695853
 21
15973.98616650023
 31
0.0
  0
LINE
  5
10891
  8
2-0
  6
CONTINUOUS
 62
     3
 10
19752.0136695853
 20
15973.98616650023
 30
0.0
 11
19752.013669585311
 21
16010.986337500241
 31
0.0
  0
LINE
  5
10892
  8
2-0
  6
CONTINUOUS
 62
     3
 10
19782.011293585321
 20
16010.986337500241
 30
0.0
 11
19752.013669585311
 21
16010.986337500241
 31
0.0
  0
LINE
  5
10893
  8
2-0
  6
CONTINUOUS
 62
     3
 10
19782.011293585321
 20
16004.98344750023
 30
0.0
 11
19782.011293585321
 21
16010.986337500241
 31
0.0
  0
LINE
  5
10894
  8
2-0
  6
CONTINUOUS
 62
     3
 10
19782.011293585321
 20
16021.081882500241
 30
0.0
 11
19752.013669585311
 21
16021.081882500241
 31
0.0
  0
LINE
  5
10895
  8
2-0
  6
CONTINUOUS
 62
     3
 10
19782.011293585321
 20
16003.074201500231
 30
0.0
 11
19782.011293585321
 21
16021.081882500241
 31
0.0
  0
LINE
  5
10896
  8
2-0
  6
CONTINUOUS
 62
     3
 10
19757.01393358532
 20
16003.074201500231
 30
0.0
 11
19782.011293585321
 21
16003.074201500231
 31
0.0
  0
LINE
  5
10897
  8
2-0
  6
CONTINUOUS
 62
     3
 10
19757.01393358532
 20
16008.080404500241
 30
0.0
 11
19757.01393358532
 21
16003.074201500231
 31
0.0
  0
LINE
  5
10898
  8
2-0
  6
CONTINUOUS
 62
     3
 10
19764.015490585309
 20
16008.080404500241
 30
0.0
 11
19757.01393358532
 21
16008.080404500241
 31
0.0
  0
LINE
  5
10899
  8
2-0
  6
CONTINUOUS
 62
     3
 10
19764.01549058524
 20
15307.32042100025
 30
0.0
 11
19757.013933585251
 21
15307.32042100025
 31
0.0
  0
LINE
  5
1089A
  8
2-0
  6
CONTINUOUS
 62
     3
 10
19757.013933585251
 20
15307.32042100025
 30
0.0
 11
19757.013933585251
 21
15302.326096000241
 31
0.0
  0
LINE
  5
1089B
  8
2-0
  6
CONTINUOUS
 62
     3
 10
19757.013933585251
 20
15302.326096000241
 30
0.0
 11
19782.011293585248
 21
15302.326096000241
 31
0.0
  0
LINE
  5
1089C
  8
2-0
  6
CONTINUOUS
 62
     3
 10
19782.011293585248
 20
15302.326096000241
 30
0.0
 11
19782.011293585259
 21
15320.321899000241
 31
0.0
  0
LINE
  5
1089D
  8
2-0
  6
CONTINUOUS
 62
     3
 10
19782.011293585259
 20
15320.321899000241
 30
0.0
 11
19752.013669585242
 21
15320.321899000241
 31
0.0
  0
LINE
  5
1089E
  8
2-0
  6
CONTINUOUS
 62
     3
 10
19782.011293585248
 20
15304.22445400025
 30
0.0
 11
19782.011293585248
 21
15310.22635400025
 31
0.0
  0
LINE
  5
1089F
  8
2-0
  6
CONTINUOUS
 62
     3
 10
19782.011293585248
 20
15310.22635400025
 30
0.0
 11
19752.013669585242
 21
15310.22635400025
 31
0.0
  0
LINE
  5
108A0
  8
2-0
  6
CONTINUOUS
 62
     3
 10
19752.013669585242
 20
15273.22717300025
 30
0.0
 11
19752.013669585242
 21
15310.22635400025
 31
0.0
  0
LINE
  5
108A1
  8
2-0
  6
CONTINUOUS
 62
     3
 10
19782.011293585248
 20
15273.22717300025
 30
0.0
 11
19752.013669585242
 21
15273.22717300025
 31
0.0
  0
LINE
  5
108A2
  8
2-0
  6
CONTINUOUS
 62
     3
 10
19782.011293585248
 20
15279.22412400022
 30
0.0
 11
19782.011293585248
 21
15273.22717300025
 31
0.0
  0
LINE
  5
108A3
  8
2-0
  6
CONTINUOUS
 62
     3
 10
19782.011293585248
 20
15263.125689000241
 30
0.0
 11
19752.013669585242
 21
15263.12568900025
 31
0.0
  0
LINE
  5
108A4
  8
2-0
  6
CONTINUOUS
 62
     3
 10
19782.011293585248
 20
15281.13337000024
 30
0.0
 11
19782.011293585248
 21
15263.125689000241
 31
0.0
  0
LINE
  5
108A5
  8
2-0
  6
CONTINUOUS
 62
     3
 10
19757.013933585251
 20
15281.13337000024
 30
0.0
 11
19782.011293585248
 21
15281.13337000024
 31
0.0
  0
LINE
  5
108A6
  8
2-0
  6
CONTINUOUS
 62
     3
 10
19757.013933585251
 20
15276.13310600025
 30
0.0
 11
19757.013933585251
 21
15281.13337000024
 31
0.0
  0
LINE
  5
108A7
  8
2-0
  6
CONTINUOUS
 62
     3
 10
19764.01549058524
 20
15276.13310600025
 30
0.0
 11
19757.013933585251
 21
15276.13310600025
 31
0.0
  0
LINE
  5
108A8
  8
2-0
  6
CONTINUOUS
 62
     3
 10
19752.013669585369
 20
16668.373842000241
 30
0.0
 11
19752.013669585311
 21
16021.081882500241
 31
0.0
  0
LINE
  5
108A9
  8
2-0
  6
CONTINUOUS
 62
     3
 10
19752.01366958538
 20
16822.98414000023
 30
0.0
 11
19752.013669585369
 21
16677.982425000238
 31
0.0
  0
LINE
  5
108AA
  8
2-0
  6
CONTINUOUS
 62
     3
 10
19839.896376585399
 20
16792.984536000229
 30
0.0
 11
19839.896376585399
 21
16707.98796800023
 31
0.0
  0
LINE
  5
108AB
  8
2-0
  6
CONTINUOUS
 62
     6
 10
21378.105043585561
 20
18561.43180150009
 30
0.0
 11
20353.07271158557
 21
18561.431801500181
 31
0.0
  0
LINE
  5
108AC
  8
2-0
  6
CONTINUOUS
 62
     3
 10
19764.015490585181
 20
14574.892099000241
 30
0.0
 11
19757.013933585189
 21
14574.892099000241
 31
0.0
  0
LINE
  5
108AD
  8
2-0
  6
CONTINUOUS
 62
     3
 10
19757.013933585189
 20
14574.892099000241
 30
0.0
 11
19757.013933585189
 21
14579.886425000241
 31
0.0
  0
LINE
  5
108AE
  8
2-0
  6
CONTINUOUS
 62
     3
 10
19757.013933585189
 20
14579.886425000241
 30
0.0
 11
19782.01129358519
 21
14579.886425000241
 31
0.0
  0
LINE
  5
108AF
  8
2-0
  6
CONTINUOUS
 62
     3
 10
19782.01129358519
 20
14579.886425000241
 30
0.0
 11
19782.011293585179
 21
14561.890621000241
 31
0.0
  0
LINE
  5
108B0
  8
2-0
  6
CONTINUOUS
 62
     3
 10
19782.011293585179
 20
14561.890621000241
 30
0.0
 11
19752.013669585169
 21
14561.890621000241
 31
0.0
  0
LINE
  5
108B1
  8
2-0
  6
CONTINUOUS
 62
     3
 10
19782.01129358519
 20
14577.98905600025
 30
0.0
 11
19782.01129358519
 21
14571.98616600023
 31
0.0
  0
LINE
  5
108B2
  8
2-0
  6
CONTINUOUS
 62
     3
 10
19782.01129358519
 20
14571.98616600023
 30
0.0
 11
19752.01366958518
 21
14571.986166000241
 31
0.0
  0
LINE
  5
108B3
  8
2-0
  6
CONTINUOUS
 62
     3
 10
19752.01366958518
 20
14571.986166000241
 30
0.0
 11
19752.01366958518
 21
14608.986338000221
 31
0.0
  0
LINE
  5
108B4
  8
2-0
  6
CONTINUOUS
 62
     3
 10
19782.01129358519
 20
14608.986338000221
 30
0.0
 11
19752.01366958518
 21
14608.986338000221
 31
0.0
  0
LINE
  5
108B5
  8
2-0
  6
CONTINUOUS
 62
     3
 10
19782.01129358519
 20
14602.98938600023
 30
0.0
 11
19782.01129358519
 21
14608.986338000221
 31
0.0
  0
LINE
  5
108B6
  8
2-0
  6
CONTINUOUS
 62
     3
 10
19782.01129358519
 20
14619.086831000241
 30
0.0
 11
19752.01366958518
 21
14619.086831000241
 31
0.0
  0
LINE
  5
108B7
  8
2-0
  6
CONTINUOUS
 62
     3
 10
19782.01129358519
 20
14601.080140000249
 30
0.0
 11
19782.01129358519
 21
14619.086831000241
 31
0.0
  0
LINE
  5
108B8
  8
2-0
  6
CONTINUOUS
 62
     3
 10
19757.013933585189
 20
14601.080140000249
 30
0.0
 11
19782.01129358519
 21
14601.080140000249
 31
0.0
  0
LINE
  5
108B9
  8
2-0
  6
CONTINUOUS
 62
     3
 10
19757.013933585189
 20
14606.08535300025
 30
0.0
 11
19757.013933585189
 21
14601.080140000249
 31
0.0
  0
LINE
  5
108BA
  8
2-0
  6
CONTINUOUS
 62
     3
 10
19764.015490585181
 20
14606.08535300025
 30
0.0
 11
19757.013933585189
 21
14606.08535300025
 31
0.0
  0
LINE
  5
108BB
  8
2-0
  6
CONTINUOUS
 62
     3
 10
19782.011293585161
 20
14249.488179000229
 30
0.0
 11
19782.011293585161
 21
14255.49304800024
 31
0.0
  0
LINE
  5
108BC
  8
2-0
  6
CONTINUOUS
 62
     3
 10
19782.011293585161
 20
14255.49304800024
 30
0.0
 11
19752.013669585151
 21
14255.49304800024
 31
0.0
  0
LINE
  5
108BD
  8
2-0
  6
CONTINUOUS
 62
     3
 10
19752.013669585151
 20
14255.49304800024
 30
0.0
 11
19752.013669585129
 21
14140.488957000231
 31
0.0
  0
LINE
  5
108BE
  8
2-0
  6
CONTINUOUS
 62
     3
 10
19752.013669585129
 20
14140.488957000231
 30
0.0
 11
19837.012217585128
 21
14140.48895700022
 31
0.0
  0
LINE
  5
108BF
  8
2-0
  6
CONTINUOUS
 62
     3
 10
19837.012217585128
 20
14140.48895700022
 30
0.0
 11
19837.012217585139
 21
14225.484536000229
 31
0.0
  0
LINE
  5
108C0
  8
2-0
  6
CONTINUOUS
 62
     3
 10
19837.012217585139
 20
14225.484536000229
 30
0.0
 11
19805.013299585149
 21
14225.48453600024
 31
0.0
  0
LINE
  5
108C1
  8
2-0
  6
CONTINUOUS
 62
     3
 10
19764.015490585149
 20
14252.522781000231
 30
0.0
 11
19757.01393358516
 21
14252.522781000231
 31
0.0
  0
LINE
  5
108C2
  8
2-0
  6
CONTINUOUS
 62
     3
 10
19757.01393358516
 20
14252.522781000231
 30
0.0
 11
19757.01393358516
 21
14247.525486000221
 31
0.0
  0
LINE
  5
108C3
  8
2-0
  6
CONTINUOUS
 62
     3
 10
19757.01393358516
 20
14247.525486000221
 30
0.0
 11
19782.011293585161
 21
14247.525486000221
 31
0.0
  0
LINE
  5
108C4
  8
2-0
  6
CONTINUOUS
 62
     3
 10
19782.011293585161
 20
14247.525486000221
 30
0.0
 11
19782.011293585161
 21
14265.52425900024
 31
0.0
  0
LINE
  5
108C5
  8
2-0
  6
CONTINUOUS
 62
     3
 10
19782.011293585161
 20
14265.52425900024
 30
0.0
 11
19752.013669585151
 21
14265.52425900024
 31
0.0
  0
LINE
  5
108C6
  8
2-0
  6
CONTINUOUS
 62
     3
 10
19752.013669585511
 20
18238.081388000239
 30
0.0
 11
19752.013669585569
 21
18881.892105500239
 31
0.0
  0
LINE
  5
108C7
  8
2-0
  6
CONTINUOUS
 62
     6
 10
19059.508786585699
 20
20090.487440000321
 30
0.0
 11
17859.514724585719
 21
20090.48744000043
 31
0.0
  0
LINE
  5
108C8
  8
2-0
  6
CONTINUOUS
 62
     6
 10
19921.541619585601
 20
18803.586309500221
 30
0.0
 11
20353.07271158557
 21
18561.431801500181
 31
0.0
  0
LINE
  5
108C9
  8
2-0
  6
CONTINUOUS
 62
     6
 10
19599.97278558568
 20
19503.164277000262
 30
0.0
 11
19059.508786585699
 21
20090.487440000321
 31
0.0
  0
LINE
  5
108CA
  8
2-0
  6
CONTINUOUS
 62
     3
 10
19752.0136695853
 20
15963.88567250023
 30
0.0
 11
19752.013669585242
 21
15320.321899000241
 31
0.0
  0
LINE
  5
108CB
  8
2-0
  6
CONTINUOUS
 62
     6
 10
19934.598524585581
 20
18826.845653500211
 30
0.0
 11
19782.01129358559
 21
18881.892105500239
 31
0.0
  0
LINE
  5
108CC
  8
2-0
  6
CONTINUOUS
 62
     6
 10
19782.01129358559
 20
18881.892105500239
 30
0.0
 11
19908.492633585582
 21
18780.332905500181
 31
0.0
  0
LINE
  5
108CD
  8
2-0
  6
CONTINUOUS
 62
     6
 10
19934.598524585581
 20
18826.845653500211
 30
0.0
 11
19908.492633585582
 21
18780.332905500181
 31
0.0
  0
LINE
  5
108CE
  8
2-0
  6
CONTINUOUS
 62
     6
 10
19908.492633585582
 20
18780.332905500181
 30
0.0
 11
19782.01129358559
 21
18881.892105500239
 31
0.0
  0
LINE
  5
108CF
  8
2-0
  6
CONTINUOUS
 62
     6
 10
19782.01129358559
 20
18881.892105500239
 30
0.0
 11
19934.598524585581
 21
18826.845653500211
 31
0.0
  0
LINE
  5
108D0
  8
2-0
  6
CONTINUOUS
 62
     6
 10
19934.598524585581
 20
18826.845653500211
 30
0.0
 11
19782.01129358559
 21
18881.892105500239
 31
0.0
  0
LINE
  5
108D1
  8
2-0
  6
CONTINUOUS
 62
     6
 10
19908.492633585582
 20
18780.332905500181
 30
0.0
 11
19782.01129358559
 21
18881.892105500239
 31
0.0
  0
LINE
  5
108D2
  8
2-0
  6
CONTINUOUS
 62
     6
 10
19908.492633585582
 20
18780.332905500181
 30
0.0
 11
19934.598524585581
 21
18826.845653500211
 31
0.0
  0
LINE
  5
108D3
  8
2-0
  6
CONTINUOUS
 62
     6
 10
19580.35575658565
 20
19485.10315000025
 30
0.0
 11
19708.317776585609
 21
19385.42053200024
 31
0.0
  0
LINE
  5
108D4
  8
2-0
  6
CONTINUOUS
 62
     6
 10
19708.317776585609
 20
19385.42053200024
 30
0.0
 11
19619.60367158565
 21
19521.217487000271
 31
0.0
  0
LINE
  5
108D5
  8
2-0
  6
CONTINUOUS
 62
     6
 10
19580.35575658565
 20
19485.10315000025
 30
0.0
 11
19619.60367158565
 21
19521.217487000271
 31
0.0
  0
LINE
  5
108D6
  8
2-0
  6
CONTINUOUS
 62
     6
 10
19619.60367158565
 20
19521.217487000271
 30
0.0
 11
19708.317776585609
 21
19385.42053200024
 31
0.0
  0
LINE
  5
108D7
  8
2-0
  6
CONTINUOUS
 62
     6
 10
19708.317776585609
 20
19385.42053200024
 30
0.0
 11
19580.35575658565
 21
19485.10315000025
 31
0.0
  0
LINE
  5
108D8
  8
2-0
  6
CONTINUOUS
 62
     6
 10
19580.35575658565
 20
19485.10315000025
 30
0.0
 11
19708.317776585609
 21
19385.42053200024
 31
0.0
  0
LINE
  5
108D9
  8
2-0
  6
CONTINUOUS
 62
     6
 10
19619.60367158565
 20
19521.217487000271
 30
0.0
 11
19708.317776585609
 21
19385.42053200024
 31
0.0
  0
LINE
  5
108DA
  8
2-0
  6
CONTINUOUS
 62
     6
 10
19619.60367158565
 20
19521.217487000271
 30
0.0
 11
19580.35575658565
 21
19485.10315000025
 31
0.0
  0
LINE
  5
108DB
  8
2-0
  6
CONTINUOUS
 62
     4
 10
22362.011953585639
 20
19440.48678000001
 30
0.0
 11
22362.011953585708
 21
20170.483745000009
 31
0.0
  0
LINE
  5
108DC
  8
2-0
  6
CONTINUOUS
 62
     6
 10
20028.651390585132
 20
14032.216219000209
 30
0.0
 11
19896.904531585129
 21
14126.84314600023
 31
0.0
  0
LINE
  5
108DD
  8
2-0
  6
CONTINUOUS
 62
     6
 10
19896.904531585129
 20
14126.84314600023
 30
0.0
 11
19990.834667585139
 21
13994.60437600021
 31
0.0
  0
LINE
  5
108DE
  8
2-0
  6
CONTINUOUS
 62
     6
 10
20028.651390585132
 20
14032.216219000209
 30
0.0
 11
19990.834667585139
 21
13994.60437600021
 31
0.0
  0
LINE
  5
108DF
  8
2-0
  6
CONTINUOUS
 62
     6
 10
19990.834667585139
 20
13994.60437600021
 30
0.0
 11
19896.904531585129
 21
14126.84314600023
 31
0.0
  0
LINE
  5
108E0
  8
2-0
  6
CONTINUOUS
 62
     6
 10
19896.904531585129
 20
14126.84314600023
 30
0.0
 11
20028.651390585132
 21
14032.216219000209
 31
0.0
  0
LINE
  5
108E1
  8
2-0
  6
CONTINUOUS
 62
     6
 10
20028.651390585132
 20
14032.216219000209
 30
0.0
 11
19896.904531585129
 21
14126.84314600023
 31
0.0
  0
LINE
  5
108E2
  8
2-0
  6
CONTINUOUS
 62
     6
 10
19990.834667585139
 20
13994.60437600021
 30
0.0
 11
19896.904531585129
 21
14126.84314600023
 31
0.0
  0
LINE
  5
108E3
  8
2-0
  6
CONTINUOUS
 62
     6
 10
19990.834667585139
 20
13994.60437600021
 30
0.0
 11
20028.651390585132
 21
14032.216219000209
 31
0.0
  0
LINE
  5
108E4
  8
2-0
  6
CONTINUOUS
 62
     6
 10
19965.615601585148
 20
14359.120846000211
 30
0.0
 11
19833.015569585179
 21
14265.69251800022
 31
0.0
  0
LINE
  5
108E5
  8
2-0
  6
CONTINUOUS
 62
     6
 10
19833.015569585179
 20
14265.69251800022
 30
0.0
 11
19988.74825558516
 21
14311.068032000219
 31
0.0
  0
LINE
  5
108E6
  8
2-0
  6
CONTINUOUS
 62
     6
 10
19965.615601585148
 20
14359.120846000211
 30
0.0
 11
19988.74825558516
 21
14311.068032000219
 31
0.0
  0
LINE
  5
108E7
  8
2-0
  6
CONTINUOUS
 62
     6
 10
19988.74825558516
 20
14311.068032000219
 30
0.0
 11
19833.015569585179
 21
14265.69251800022
 31
0.0
  0
LINE
  5
108E8
  8
2-0
  6
CONTINUOUS
 62
     6
 10
19833.015569585179
 20
14265.69251800022
 30
0.0
 11
19965.615601585148
 21
14359.120846000211
 31
0.0
  0
LINE
  5
108E9
  8
2-0
  6
CONTINUOUS
 62
     6
 10
19965.615601585148
 20
14359.120846000211
 30
0.0
 11
19833.015569585179
 21
14265.69251800022
 31
0.0
  0
LINE
  5
108EA
  8
2-0
  6
CONTINUOUS
 62
     6
 10
19988.74825558516
 20
14311.068032000219
 30
0.0
 11
19833.015569585179
 21
14265.69251800022
 31
0.0
  0
LINE
  5
108EB
  8
2-0
  6
CONTINUOUS
 62
     6
 10
19988.74825558516
 20
14311.068032000219
 30
0.0
 11
19965.615601585148
 21
14359.120846000211
 31
0.0
  0
LINE
  5
108EC
  8
2-0
  6
CONTINUOUS
 62
     6
 10
19905.851955585349
 20
16388.441779000252
 30
0.0
 11
19752.013669585351
 21
16439.875610000261
 31
0.0
  0
LINE
  5
108ED
  8
2-0
  6
CONTINUOUS
 62
     6
 10
19752.013669585351
 20
16439.875610000261
 30
0.0
 11
19880.84865658536
 21
16341.335175000249
 31
0.0
  0
LINE
  5
108EE
  8
2-0
  6
CONTINUOUS
 62
     6
 10
19905.851955585349
 20
16388.441779000252
 30
0.0
 11
19880.84865658536
 21
16341.335175000249
 31
0.0
  0
LINE
  5
108EF
  8
2-0
  6
CONTINUOUS
 62
     6
 10
19880.84865658536
 20
16341.335175000249
 30
0.0
 11
19752.013669585351
 21
16439.875610000261
 31
0.0
  0
LINE
  5
108F0
  8
2-0
  6
CONTINUOUS
 62
     6
 10
19752.013669585351
 20
16439.875610000261
 30
0.0
 11
19905.851955585349
 21
16388.441779000252
 31
0.0
  0
LINE
  5
108F1
  8
2-0
  6
CONTINUOUS
 62
     6
 10
19905.851955585349
 20
16388.441779000252
 30
0.0
 11
19752.013669585351
 21
16439.875610000261
 31
0.0
  0
LINE
  5
108F2
  8
2-0
  6
CONTINUOUS
 62
     6
 10
19880.84865658536
 20
16341.335175000249
 30
0.0
 11
19752.013669585351
 21
16439.875610000261
 31
0.0
  0
LINE
  5
108F3
  8
2-0
  6
CONTINUOUS
 62
     6
 10
19880.84865658536
 20
16341.335175000249
 30
0.0
 11
19905.851955585349
 21
16388.441779000252
 31
0.0
  0
LINE
  5
108F4
  8
2-0
  6
CONTINUOUS
 62
     6
 10
20039.788162585399
 20
16879.760271000228
 30
0.0
 11
19896.90453158538
 21
16802.984642000229
 31
0.0
  0
LINE
  5
108F5
  8
2-0
  6
CONTINUOUS
 62
     6
 10
19896.90453158538
 20
16802.984642000229
 30
0.0
 11
20056.966424585378
 21
16829.266711000229
 31
0.0
  0
LINE
  5
108F6
  8
2-0
  6
CONTINUOUS
 62
     6
 10
20039.788162585399
 20
16879.760271000228
 30
0.0
 11
20056.966424585378
 21
16829.266711000229
 31
0.0
  0
LINE
  5
108F7
  8
2-0
  6
CONTINUOUS
 62
     6
 10
20056.966424585378
 20
16829.266711000229
 30
0.0
 11
19896.90453158538
 21
16802.984642000229
 31
0.0
  0
LINE
  5
108F8
  8
2-0
  6
CONTINUOUS
 62
     6
 10
19896.90453158538
 20
16802.984642000229
 30
0.0
 11
20039.788162585399
 21
16879.760271000228
 31
0.0
  0
LINE
  5
108F9
  8
2-0
  6
CONTINUOUS
 62
     6
 10
20039.788162585399
 20
16879.760271000228
 30
0.0
 11
19896.90453158538
 21
16802.984642000229
 31
0.0
  0
LINE
  5
108FA
  8
2-0
  6
CONTINUOUS
 62
     6
 10
20056.966424585378
 20
16829.266711000229
 30
0.0
 11
19896.90453158538
 21
16802.984642000229
 31
0.0
  0
LINE
  5
108FB
  8
2-0
  6
CONTINUOUS
 62
     6
 10
20056.966424585378
 20
16829.266711000229
 30
0.0
 11
20039.788162585399
 21
16879.760271000228
 31
0.0
  0
LINE
  5
108FC
  8
2-0
  6
CONTINUOUS
 62
     3
 10
22374.510633585629
 20
19251.48432599998
 30
0.0
 11
22374.510633585629
 21
19245.488364000012
 31
0.0
  0
LINE
  5
108FD
  8
2-0
  6
CONTINUOUS
 62
     3
 10
22374.510633585629
 20
19245.488364000012
 30
0.0
 11
22404.508258585629
 21
19245.488364000012
 31
0.0
  0
LINE
  5
108FE
  8
2-0
  6
CONTINUOUS
 62
     3
 10
22404.508258585629
 20
19245.488364000012
 30
0.0
 11
22404.50825858564
 21
19360.484537000011
 31
0.0
  0
LINE
  5
108FF
  8
2-0
  6
CONTINUOUS
 62
     3
 10
22404.508258585629
 20
19275.48796799999
 30
0.0
 11
22323.51031758562
 21
19275.487968000001
 31
0.0
  0
LINE
  5
10900
  8
2-0
  6
CONTINUOUS
 62
     3
 10
22374.510633585629
 20
19235.190907999979
 30
0.0
 11
22404.508258585629
 21
19235.190907999979
 31
0.0
  0
LINE
  5
10901
  8
2-0
  6
CONTINUOUS
 62
     3
 10
22374.510633585629
 20
19253.192650000001
 30
0.0
 11
22374.510633585629
 21
19235.190907999979
 31
0.0
  0
LINE
  5
10902
  8
2-0
  6
CONTINUOUS
 62
     3
 10
22399.504035585629
 20
19253.192650000001
 30
0.0
 11
22374.510633585629
 21
19253.192650000001
 31
0.0
  0
LINE
  5
10903
  8
2-0
  6
CONTINUOUS
 62
     3
 10
22399.504035585629
 20
19248.184467999989
 30
0.0
 11
22399.504035585629
 21
19253.192650000001
 31
0.0
  0
LINE
  5
10904
  8
2-0
  6
CONTINUOUS
 62
     3
 10
22392.506437585638
 20
19248.184467999989
 30
0.0
 11
22399.504035585629
 21
19248.184467999989
 31
0.0
  0
LINE
  5
10905
  8
2-0
  6
CONTINUOUS
 62
     3
 10
22292.21214858563
 20
19348.484694999999
 30
0.0
 11
22292.21214858563
 21
19355.490211000011
 31
0.0
  0
LINE
  5
10906
  8
2-0
  6
CONTINUOUS
 62
     3
 10
22292.21214858563
 20
19355.490211000011
 30
0.0
 11
22297.21439258564
 21
19355.490211000011
 31
0.0
  0
LINE
  5
10907
  8
2-0
  6
CONTINUOUS
 62
     3
 10
22297.21439258564
 20
19355.490211000011
 30
0.0
 11
22297.21439258564
 21
19330.480974000009
 31
0.0
  0
LINE
  5
10908
  8
2-0
  6
CONTINUOUS
 62
     3
 10
22297.21439258564
 20
19330.480974000009
 30
0.0
 11
22279.206711585641
 21
19330.480974000009
 31
0.0
  0
LINE
  5
10909
  8
2-0
  6
CONTINUOUS
 62
     3
 10
22279.206711585641
 20
19330.480974000009
 30
0.0
 11
22279.206711585641
 21
19360.484537000018
 31
0.0
  0
LINE
  5
1090A
  8
2-0
  6
CONTINUOUS
 62
     3
 10
22289.506147585631
 20
19360.484537000018
 30
0.0
 11
22404.50825858564
 21
19360.484537000011
 31
0.0
  0
LINE
  5
1090B
  8
2-0
  6
CONTINUOUS
 62
     3
 10
22289.506147585631
 20
19330.480974000009
 30
0.0
 11
22289.506147585631
 21
19360.484537000018
 31
0.0
  0
LINE
  5
1090C
  8
2-0
  6
CONTINUOUS
 62
     3
 10
22295.510026585631
 20
19330.480974000009
 30
0.0
 11
22289.506147585631
 21
19330.480974000009
 31
0.0
  0
LINE
  5
1090D
  8
2-0
  6
CONTINUOUS
 62
     3
 10
22374.510633585629
 20
19251.48432599998
 30
0.0
 11
22374.510633585629
 21
19245.488364000012
 31
0.0
  0
LINE
  5
1090E
  8
2-0
  6
CONTINUOUS
 62
     3
 10
22374.510633585629
 20
19245.488364000012
 30
0.0
 11
22404.508258585629
 21
19245.488364000012
 31
0.0
  0
LINE
  5
1090F
  8
2-0
  6
CONTINUOUS
 62
     3
 10
22404.508258585629
 20
19245.488364000012
 30
0.0
 11
22404.50825858564
 21
19360.484537000011
 31
0.0
  0
LINE
  5
10910
  8
2-0
  6
CONTINUOUS
 62
     3
 10
22404.508258585629
 20
19275.48796799999
 30
0.0
 11
22323.51031758562
 21
19275.487968000001
 31
0.0
  0
LINE
  5
10911
  8
2-0
  6
CONTINUOUS
 62
     3
 10
22374.510633585629
 20
19235.190907999979
 30
0.0
 11
22404.508258585629
 21
19235.190907999979
 31
0.0
  0
LINE
  5
10912
  8
2-0
  6
CONTINUOUS
 62
     3
 10
22374.510633585629
 20
19253.192650000001
 30
0.0
 11
22374.510633585629
 21
19235.190907999979
 31
0.0
  0
LINE
  5
10913
  8
2-0
  6
CONTINUOUS
 62
     3
 10
22399.504035585629
 20
19253.192650000001
 30
0.0
 11
22374.510633585629
 21
19253.192650000001
 31
0.0
  0
LINE
  5
10914
  8
2-0
  6
CONTINUOUS
 62
     3
 10
22399.504035585629
 20
19248.184467999989
 30
0.0
 11
22399.504035585629
 21
19253.192650000001
 31
0.0
  0
LINE
  5
10915
  8
2-0
  6
CONTINUOUS
 62
     3
 10
22392.506437585638
 20
19248.184467999989
 30
0.0
 11
22399.504035585629
 21
19248.184467999989
 31
0.0
  0
LINE
  5
10916
  8
2-0
  6
CONTINUOUS
 62
     3
 10
22392.506437585609
 20
18894.887645499952
 30
0.0
 11
22399.5040355856
 21
18894.887645499952
 31
0.0
  0
LINE
  5
10917
  8
2-0
  6
CONTINUOUS
 62
     3
 10
22399.5040355856
 20
18894.887645499952
 30
0.0
 11
22399.5040355856
 21
18899.88790949999
 31
0.0
  0
LINE
  5
10918
  8
2-0
  6
CONTINUOUS
 62
     3
 10
22399.5040355856
 20
18899.88790949999
 30
0.0
 11
22374.5106335856
 21
18899.88790949999
 31
0.0
  0
LINE
  5
10919
  8
2-0
  6
CONTINUOUS
 62
     3
 10
22374.5106335856
 20
18899.88790949999
 30
0.0
 11
22374.5106335856
 21
18881.89210549997
 31
0.0
  0
LINE
  5
1091A
  8
2-0
  6
CONTINUOUS
 62
     3
 10
22374.5106335856
 20
18881.89210549997
 30
0.0
 11
22404.5082585856
 21
18881.89210549997
 31
0.0
  0
LINE
  5
1091B
  8
2-0
  6
CONTINUOUS
 62
     3
 10
22374.5106335856
 20
18897.98361249996
 30
0.0
 11
22374.5106335856
 21
18891.985671499991
 31
0.0
  0
LINE
  5
1091C
  8
2-0
  6
CONTINUOUS
 62
     3
 10
22374.5106335856
 20
18891.985671499991
 30
0.0
 11
22404.5082585856
 21
18891.985671499981
 31
0.0
  0
LINE
  5
1091D
  8
2-0
  6
CONTINUOUS
 62
     3
 10
22404.5082585856
 20
18891.985671499981
 30
0.0
 11
22404.5082585856
 21
18928.986832499981
 31
0.0
  0
LINE
  5
1091E
  8
2-0
  6
CONTINUOUS
 62
     3
 10
22374.5106335856
 20
18928.986832499981
 30
0.0
 11
22404.5082585856
 21
18928.986832499981
 31
0.0
  0
LINE
  5
1091F
  8
2-0
  6
CONTINUOUS
 62
     3
 10
22374.5106335856
 20
18922.982952499991
 30
0.0
 11
22374.5106335856
 21
18928.986832499981
 31
0.0
  0
LINE
  5
10920
  8
2-0
  6
CONTINUOUS
 62
     3
 10
22374.5106335856
 20
18939.082377499952
 30
0.0
 11
22404.5082585856
 21
18939.082377499952
 31
0.0
  0
LINE
  5
10921
  8
2-0
  6
CONTINUOUS
 62
     3
 10
22374.5106335856
 20
18921.080635499999
 30
0.0
 11
22374.5106335856
 21
18939.082377499952
 31
0.0
  0
LINE
  5
10922
  8
2-0
  6
CONTINUOUS
 62
     3
 10
22399.5040355856
 20
18921.080635499999
 30
0.0
 11
22374.5106335856
 21
18921.080635499999
 31
0.0
  0
LINE
  5
10923
  8
2-0
  6
CONTINUOUS
 62
     3
 10
22399.5040355856
 20
18926.080899499979
 30
0.0
 11
22399.5040355856
 21
18921.080635499999
 31
0.0
  0
LINE
  5
10924
  8
2-0
  6
CONTINUOUS
 62
     3
 10
22392.506437585609
 20
18926.080899499979
 30
0.0
 11
22399.5040355856
 21
18926.080899499979
 31
0.0
  0
LINE
  5
10925
  8
2-0
  6
CONTINUOUS
 62
     3
 10
22392.506437585551
 20
18193.886655999991
 30
0.0
 11
22399.504035585542
 21
18193.886655999991
 31
0.0
  0
LINE
  5
10926
  8
2-0
  6
CONTINUOUS
 62
     3
 10
22399.504035585542
 20
18193.886655999991
 30
0.0
 11
22399.504035585542
 21
18198.892857999959
 31
0.0
  0
LINE
  5
10927
  8
2-0
  6
CONTINUOUS
 62
     3
 10
22399.504035585542
 20
18198.892857999959
 30
0.0
 11
22374.510633585542
 21
18198.892857999959
 31
0.0
  0
LINE
  5
10928
  8
2-0
  6
CONTINUOUS
 62
     3
 10
22374.510633585542
 20
18198.892857999959
 30
0.0
 11
22374.510633585531
 21
18180.891115999992
 31
0.0
  0
LINE
  5
10929
  8
2-0
  6
CONTINUOUS
 62
     3
 10
22374.510633585531
 20
18180.891115999992
 30
0.0
 11
22404.508258585531
 21
18180.891115999992
 31
0.0
  0
LINE
  5
1092A
  8
2-0
  6
CONTINUOUS
 62
     3
 10
22374.510633585542
 20
18196.982622999949
 30
0.0
 11
22374.510633585542
 21
18190.98666099997
 31
0.0
  0
LINE
  5
1092B
  8
2-0
  6
CONTINUOUS
 62
     3
 10
22374.510633585542
 20
18190.98666099997
 30
0.0
 11
22404.508258585542
 21
18190.98666099997
 31
0.0
  0
LINE
  5
1092C
  8
2-0
  6
CONTINUOUS
 62
     3
 10
22404.508258585542
 20
18190.98666099997
 30
0.0
 11
22404.508258585542
 21
18227.985842999991
 31
0.0
  0
LINE
  5
1092D
  8
2-0
  6
CONTINUOUS
 62
     3
 10
22374.510633585542
 20
18227.985842999991
 30
0.0
 11
22404.508258585542
 21
18227.985842999991
 31
0.0
  0
LINE
  5
1092E
  8
2-0
  6
CONTINUOUS
 62
     3
 10
22374.510633585542
 20
18221.98988099999
 30
0.0
 11
22374.510633585542
 21
18227.985842999991
 31
0.0
  0
LINE
  5
1092F
  8
2-0
  6
CONTINUOUS
 62
     3
 10
22374.510633585542
 20
18238.081387999991
 30
0.0
 11
22404.508258585542
 21
18238.081387999991
 31
0.0
  0
LINE
  5
10930
  8
2-0
  6
CONTINUOUS
 62
     3
 10
22374.510633585542
 20
18220.079645999991
 30
0.0
 11
22374.510633585542
 21
18238.081387999991
 31
0.0
  0
LINE
  5
10931
  8
2-0
  6
CONTINUOUS
 62
     3
 10
22399.504035585542
 20
18220.079645999991
 30
0.0
 11
22374.510633585542
 21
18220.079645999991
 31
0.0
  0
LINE
  5
10932
  8
2-0
  6
CONTINUOUS
 62
     3
 10
22399.504035585542
 20
18225.08584799997
 30
0.0
 11
22399.504035585542
 21
18220.079645999991
 31
0.0
  0
LINE
  5
10933
  8
2-0
  6
CONTINUOUS
 62
     3
 10
22392.506437585551
 20
18225.08584799997
 30
0.0
 11
22399.504035585542
 21
18225.08584799997
 31
0.0
  0
LINE
  5
10934
  8
2-0
  6
CONTINUOUS
 62
     3
 10
22392.506437585482
 20
17524.079909999989
 30
0.0
 11
22399.504035585469
 21
17524.079909999989
 31
0.0
  0
LINE
  5
10935
  8
2-0
  6
CONTINUOUS
 62
     3
 10
22399.504035585469
 20
17524.079909999989
 30
0.0
 11
22399.504035585469
 21
17519.091522999988
 31
0.0
  0
LINE
  5
10936
  8
2-0
  6
CONTINUOUS
 62
     3
 10
22399.504035585469
 20
17519.091522999988
 30
0.0
 11
22374.510633585469
 21
17519.091522999988
 31
0.0
  0
LINE
  5
10937
  8
2-0
  6
CONTINUOUS
 62
     3
 10
22374.510633585469
 20
17519.091522999988
 30
0.0
 11
22374.510633585469
 21
17537.08732599999
 31
0.0
  0
LINE
  5
10938
  8
2-0
  6
CONTINUOUS
 62
     3
 10
22374.510633585469
 20
17537.08732599999
 30
0.0
 11
22404.508258585469
 21
17537.087325999979
 31
0.0
  0
LINE
  5
10939
  8
2-0
  6
CONTINUOUS
 62
     3
 10
22374.510633585469
 20
17520.98988099999
 30
0.0
 11
22374.510633585469
 21
17526.985842999991
 31
0.0
  0
LINE
  5
1093A
  8
2-0
  6
CONTINUOUS
 62
     3
 10
22374.510633585469
 20
17526.985842999991
 30
0.0
 11
22404.508258585469
 21
17526.985842999991
 31
0.0
  0
LINE
  5
1093B
  8
2-0
  6
CONTINUOUS
 62
     3
 10
22404.508258585469
 20
17526.985842999991
 30
0.0
 11
22404.508258585469
 21
17489.986660999992
 31
0.0
  0
LINE
  5
1093C
  8
2-0
  6
CONTINUOUS
 62
     3
 10
22374.510633585469
 20
17489.986660999992
 30
0.0
 11
22404.508258585469
 21
17489.986660999992
 31
0.0
  0
LINE
  5
1093D
  8
2-0
  6
CONTINUOUS
 62
     3
 10
22374.510633585469
 20
17495.98856199998
 30
0.0
 11
22374.510633585469
 21
17489.986660999992
 31
0.0
  0
LINE
  5
1093E
  8
2-0
  6
CONTINUOUS
 62
     3
 10
22374.510633585469
 20
17479.89705499999
 30
0.0
 11
22404.508258585469
 21
17479.897054999979
 31
0.0
  0
LINE
  5
1093F
  8
2-0
  6
CONTINUOUS
 62
     3
 10
22374.510633585469
 20
17497.892857999988
 30
0.0
 11
22374.510633585469
 21
17479.89705499999
 31
0.0
  0
LINE
  5
10940
  8
2-0
  6
CONTINUOUS
 62
     3
 10
22399.504035585469
 20
17497.892857999988
 30
0.0
 11
22374.510633585469
 21
17497.892857999988
 31
0.0
  0
LINE
  5
10941
  8
2-0
  6
CONTINUOUS
 62
     3
 10
22399.504035585469
 20
17492.892594999979
 30
0.0
 11
22399.504035585469
 21
17497.892857999988
 31
0.0
  0
LINE
  5
10942
  8
2-0
  6
CONTINUOUS
 62
     3
 10
22392.506437585482
 20
17492.892594999979
 30
0.0
 11
22399.504035585469
 21
17492.892594999979
 31
0.0
  0
LINE
  5
10943
  8
2-0
  6
CONTINUOUS
 62
     3
 10
22401.622120585391
 20
16772.983480999988
 30
0.0
 11
22401.622120585391
 21
16792.984536
 31
0.0
  0
LINE
  5
10944
  8
2-0
  6
CONTINUOUS
 62
     3
 10
22401.622120585391
 20
16792.984536
 30
0.0
 11
22316.621592585401
 21
16792.984536000011
 31
0.0
  0
LINE
  5
10945
  8
2-0
  6
CONTINUOUS
 62
     3
 10
22392.50643758542
 20
16819.591246
 30
0.0
 11
22399.504035585411
 21
16819.591246
 31
0.0
  0
LINE
  5
10946
  8
2-0
  6
CONTINUOUS
 62
     3
 10
22399.504035585411
 20
16819.591246
 30
0.0
 11
22399.504035585411
 21
16814.59692
 31
0.0
  0
LINE
  5
10947
  8
2-0
  6
CONTINUOUS
 62
     3
 10
22399.504035585411
 20
16814.59692
 30
0.0
 11
22374.510633585411
 21
16814.59692
 31
0.0
  0
LINE
  5
10948
  8
2-0
  6
CONTINUOUS
 62
     3
 10
22374.510633585411
 20
16814.59692
 30
0.0
 11
22374.510633585411
 21
16832.592723999998
 31
0.0
  0
LINE
  5
10949
  8
2-0
  6
CONTINUOUS
 62
     3
 10
22374.510633585411
 20
16832.592723999998
 30
0.0
 11
22404.508258585411
 21
16832.592723999991
 31
0.0
  0
LINE
  5
1094A
  8
2-0
  6
CONTINUOUS
 62
     3
 10
22374.510633585411
 20
16822.98413999999
 30
0.0
 11
22374.510633585411
 21
16816.982239999979
 31
0.0
  0
LINE
  5
1094B
  8
2-0
  6
CONTINUOUS
 62
     3
 10
22404.508258585411
 20
16822.984139999979
 30
0.0
 11
22374.510633585411
 21
16822.98413999999
 31
0.0
  0
LINE
  5
1094C
  8
2-0
  6
CONTINUOUS
 62
     3
 10
22404.508258585411
 20
16832.592723999991
 30
0.0
 11
22404.508258585469
 21
17479.897054999979
 31
0.0
  0
LINE
  5
1094D
  8
2-0
  6
CONTINUOUS
 62
     3
 10
22404.508258585469
 20
17537.087325999979
 30
0.0
 11
22404.508258585531
 21
18180.891115999992
 31
0.0
  0
LINE
  5
1094E
  8
2-0
  6
CONTINUOUS
 62
     3
 10
22404.508258585389
 20
16677.982424999991
 30
0.0
 11
22374.510633585389
 21
16677.982424999998
 31
0.0
  0
LINE
  5
1094F
  8
2-0
  6
CONTINUOUS
 62
     3
 10
22374.510633585389
 20
16677.982424999998
 30
0.0
 11
22374.510633585389
 21
16683.98432499999
 31
0.0
  0
LINE
  5
10950
  8
2-0
  6
CONTINUOUS
 62
     3
 10
22316.62159258539
 20
16707.987968000001
 30
0.0
 11
22401.622120585391
 21
16707.98796799999
 31
0.0
  0
LINE
  5
10951
  8
2-0
  6
CONTINUOUS
 62
     3
 10
22401.622120585391
 20
16707.98796799999
 30
0.0
 11
22401.622120585391
 21
16727.983084999989
 31
0.0
  0
LINE
  5
10952
  8
2-0
  6
CONTINUOUS
 62
     3
 10
22374.510633585389
 20
16668.37384199999
 30
0.0
 11
22404.508258585389
 21
16668.37384199999
 31
0.0
  0
LINE
  5
10953
  8
2-0
  6
CONTINUOUS
 62
     3
 10
22374.510633585389
 20
16686.369644999992
 30
0.0
 11
22374.510633585389
 21
16668.37384199999
 31
0.0
  0
LINE
  5
10954
  8
2-0
  6
CONTINUOUS
 62
     3
 10
22399.504035585389
 20
16686.369644999992
 30
0.0
 11
22374.510633585389
 21
16686.369644999992
 31
0.0
  0
LINE
  5
10955
  8
2-0
  6
CONTINUOUS
 62
     3
 10
22399.504035585389
 20
16681.369380999979
 30
0.0
 11
22399.504035585389
 21
16686.369644999992
 31
0.0
  0
LINE
  5
10956
  8
2-0
  6
CONTINUOUS
 62
     3
 10
22392.506437585402
 20
16681.369380999979
 30
0.0
 11
22399.504035585389
 21
16681.369380999979
 31
0.0
  0
LINE
  5
10957
  8
2-0
  6
CONTINUOUS
 62
     3
 10
22392.506437585351
 20
15976.887150499981
 30
0.0
 11
22399.504035585331
 21
15976.887150499981
 31
0.0
  0
LINE
  5
10958
  8
2-0
  6
CONTINUOUS
 62
     3
 10
22399.504035585331
 20
15976.887150499981
 30
0.0
 11
22399.504035585331
 21
15981.88741449997
 31
0.0
  0
LINE
  5
10959
  8
2-0
  6
CONTINUOUS
 62
     3
 10
22399.504035585331
 20
15981.88741449997
 30
0.0
 11
22374.510633585331
 21
15981.887414499981
 31
0.0
  0
LINE
  5
1095A
  8
2-0
  6
CONTINUOUS
 62
     3
 10
22374.510633585331
 20
15981.887414499981
 30
0.0
 11
22374.510633585331
 21
15963.885672499981
 31
0.0
  0
LINE
  5
1095B
  8
2-0
  6
CONTINUOUS
 62
     3
 10
22374.510633585331
 20
15963.885672499981
 30
0.0
 11
22404.508258585331
 21
15963.885672499981
 31
0.0
  0
LINE
  5
1095C
  8
2-0
  6
CONTINUOUS
 62
     3
 10
22374.510633585331
 20
15979.983117499991
 30
0.0
 11
22374.510633585331
 21
15973.98616649999
 31
0.0
  0
LINE
  5
1095D
  8
2-0
  6
CONTINUOUS
 62
     3
 10
22374.510633585331
 20
15973.98616649999
 30
0.0
 11
22404.508258585331
 21
15973.986166499981
 31
0.0
  0
LINE
  5
1095E
  8
2-0
  6
CONTINUOUS
 62
     3
 10
22404.508258585331
 20
15973.986166499981
 30
0.0
 11
22404.508258585331
 21
16010.98633749999
 31
0.0
  0
LINE
  5
1095F
  8
2-0
  6
CONTINUOUS
 62
     3
 10
22374.510633585331
 20
16010.9863375
 30
0.0
 11
22404.508258585331
 21
16010.98633749999
 31
0.0
  0
LINE
  5
10960
  8
2-0
  6
CONTINUOUS
 62
     3
 10
22374.510633585331
 20
16004.98344749999
 30
0.0
 11
22374.510633585331
 21
16010.9863375
 31
0.0
  0
LINE
  5
10961
  8
2-0
  6
CONTINUOUS
 62
     3
 10
22374.510633585342
 20
16021.08188249999
 30
0.0
 11
22404.508258585342
 21
16021.08188249999
 31
0.0
  0
LINE
  5
10962
  8
2-0
  6
CONTINUOUS
 62
     3
 10
22374.510633585331
 20
16003.074201499991
 30
0.0
 11
22374.510633585342
 21
16021.08188249999
 31
0.0
  0
LINE
  5
10963
  8
2-0
  6
CONTINUOUS
 62
     3
 10
22399.504035585331
 20
16003.07420149998
 30
0.0
 11
22374.510633585331
 21
16003.074201499991
 31
0.0
  0
LINE
  5
10964
  8
2-0
  6
CONTINUOUS
 62
     3
 10
22399.504035585331
 20
16008.08040449999
 30
0.0
 11
22399.504035585331
 21
16003.07420149998
 31
0.0
  0
LINE
  5
10965
  8
2-0
  6
CONTINUOUS
 62
     3
 10
22392.506437585351
 20
16008.08040449999
 30
0.0
 11
22399.504035585331
 21
16008.08040449999
 31
0.0
  0
LINE
  5
10966
  8
2-0
  6
CONTINUOUS
 62
     3
 10
22392.506437585282
 20
15307.320421
 30
0.0
 11
22399.504035585262
 21
15307.320421
 31
0.0
  0
LINE
  5
10967
  8
2-0
  6
CONTINUOUS
 62
     3
 10
22399.504035585262
 20
15307.320421
 30
0.0
 11
22399.504035585262
 21
15302.326096000001
 31
0.0
  0
LINE
  5
10968
  8
2-0
  6
CONTINUOUS
 62
     3
 10
22399.504035585262
 20
15302.326096000001
 30
0.0
 11
22374.510633585262
 21
15302.326096000001
 31
0.0
  0
LINE
  5
10969
  8
2-0
  6
CONTINUOUS
 62
     3
 10
22374.510633585262
 20
15302.326096000001
 30
0.0
 11
22374.510633585269
 21
15320.321899
 31
0.0
  0
LINE
  5
1096A
  8
2-0
  6
CONTINUOUS
 62
     3
 10
22374.510633585269
 20
15320.321899
 30
0.0
 11
22404.508258585269
 21
15320.32189899999
 31
0.0
  0
LINE
  5
1096B
  8
2-0
  6
CONTINUOUS
 62
     3
 10
22374.510633585262
 20
15304.22445399999
 30
0.0
 11
22374.510633585262
 21
15310.226354000009
 31
0.0
  0
LINE
  5
1096C
  8
2-0
  6
CONTINUOUS
 62
     3
 10
22374.510633585262
 20
15310.226354000009
 30
0.0
 11
22404.508258585262
 21
15310.226354
 31
0.0
  0
LINE
  5
1096D
  8
2-0
  6
CONTINUOUS
 62
     3
 10
22404.508258585262
 20
15273.22717300001
 30
0.0
 11
22404.508258585262
 21
15310.226354
 31
0.0
  0
LINE
  5
1096E
  8
2-0
  6
CONTINUOUS
 62
     3
 10
22374.510633585262
 20
15273.22717300001
 30
0.0
 11
22404.508258585262
 21
15273.22717300001
 31
0.0
  0
LINE
  5
1096F
  8
2-0
  6
CONTINUOUS
 62
     3
 10
22374.510633585262
 20
15279.22412399998
 30
0.0
 11
22374.510633585262
 21
15273.22717300001
 31
0.0
  0
LINE
  5
10970
  8
2-0
  6
CONTINUOUS
 62
     3
 10
22374.510633585262
 20
15263.12568899999
 30
0.0
 11
22404.508258585262
 21
15263.12568899999
 31
0.0
  0
LINE
  5
10971
  8
2-0
  6
CONTINUOUS
 62
     3
 10
22374.510633585262
 20
15281.13336999999
 30
0.0
 11
22374.510633585262
 21
15263.12568899999
 31
0.0
  0
LINE
  5
10972
  8
2-0
  6
CONTINUOUS
 62
     3
 10
22399.504035585262
 20
15281.13336999999
 30
0.0
 11
22374.510633585262
 21
15281.13336999999
 31
0.0
  0
LINE
  5
10973
  8
2-0
  6
CONTINUOUS
 62
     3
 10
22399.504035585262
 20
15276.133105999999
 30
0.0
 11
22399.504035585262
 21
15281.13336999999
 31
0.0
  0
LINE
  5
10974
  8
2-0
  6
CONTINUOUS
 62
     3
 10
22392.506437585282
 20
15276.133105999999
 30
0.0
 11
22399.504035585262
 21
15276.133105999999
 31
0.0
  0
LINE
  5
10975
  8
2-0
  6
CONTINUOUS
 62
     3
 10
22404.508258585389
 20
16668.37384199999
 30
0.0
 11
22404.508258585342
 21
16021.08188249999
 31
0.0
  0
LINE
  5
10976
  8
2-0
  6
CONTINUOUS
 62
     3
 10
22404.508258585411
 20
16822.984139999979
 30
0.0
 11
22404.508258585389
 21
16677.982424999991
 31
0.0
  0
LINE
  5
10977
  8
2-0
  6
CONTINUOUS
 62
     3
 10
22316.621592585401
 20
16792.984536000011
 30
0.0
 11
22316.62159258539
 21
16707.987968000001
 31
0.0
  0
LINE
  5
10978
  8
2-0
  6
CONTINUOUS
 62
     3
 10
22392.506437585209
 20
14574.892099000001
 30
0.0
 11
22399.5040355852
 21
14574.892099000001
 31
0.0
  0
LINE
  5
10979
  8
2-0
  6
CONTINUOUS
 62
     3
 10
22399.5040355852
 20
14574.892099000001
 30
0.0
 11
22399.5040355852
 21
14579.88642499999
 31
0.0
  0
LINE
  5
1097A
  8
2-0
  6
CONTINUOUS
 62
     3
 10
22399.5040355852
 20
14579.88642499999
 30
0.0
 11
22374.5106335852
 21
14579.886425000001
 31
0.0
  0
LINE
  5
1097B
  8
2-0
  6
CONTINUOUS
 62
     3
 10
22374.5106335852
 20
14579.886425000001
 30
0.0
 11
22374.5106335852
 21
14561.890621
 31
0.0
  0
LINE
  5
1097C
  8
2-0
  6
CONTINUOUS
 62
     3
 10
22374.5106335852
 20
14561.890621
 30
0.0
 11
22404.5082585852
 21
14561.89062099999
 31
0.0
  0
LINE
  5
1097D
  8
2-0
  6
CONTINUOUS
 62
     3
 10
22374.5106335852
 20
14577.989056000009
 30
0.0
 11
22374.5106335852
 21
14571.98616599999
 31
0.0
  0
LINE
  5
1097E
  8
2-0
  6
CONTINUOUS
 62
     3
 10
22374.5106335852
 20
14571.98616599999
 30
0.0
 11
22404.5082585852
 21
14571.98616599999
 31
0.0
  0
LINE
  5
1097F
  8
2-0
  6
CONTINUOUS
 62
     3
 10
22404.5082585852
 20
14571.98616599999
 30
0.0
 11
22404.5082585852
 21
14608.986337999981
 31
0.0
  0
LINE
  5
10980
  8
2-0
  6
CONTINUOUS
 62
     3
 10
22374.5106335852
 20
14608.986337999981
 30
0.0
 11
22404.5082585852
 21
14608.986337999981
 31
0.0
  0
LINE
  5
10981
  8
2-0
  6
CONTINUOUS
 62
     3
 10
22374.5106335852
 20
14602.989385999999
 30
0.0
 11
22374.5106335852
 21
14608.986337999981
 31
0.0
  0
LINE
  5
10982
  8
2-0
  6
CONTINUOUS
 62
     3
 10
22374.5106335852
 20
14619.086831000001
 30
0.0
 11
22404.5082585852
 21
14619.08683099999
 31
0.0
  0
LINE
  5
10983
  8
2-0
  6
CONTINUOUS
 62
     3
 10
22374.5106335852
 20
14601.080140000009
 30
0.0
 11
22374.5106335852
 21
14619.086831000001
 31
0.0
  0
LINE
  5
10984
  8
2-0
  6
CONTINUOUS
 62
     3
 10
22399.5040355852
 20
14601.08014
 30
0.0
 11
22374.5106335852
 21
14601.080140000009
 31
0.0
  0
LINE
  5
10985
  8
2-0
  6
CONTINUOUS
 62
     3
 10
22399.5040355852
 20
14606.085353
 30
0.0
 11
22399.5040355852
 21
14601.08014
 31
0.0
  0
LINE
  5
10986
  8
2-0
  6
CONTINUOUS
 62
     3
 10
22392.506437585209
 20
14606.085353
 30
0.0
 11
22399.5040355852
 21
14606.085353
 31
0.0
  0
LINE
  5
10987
  8
2-0
  6
CONTINUOUS
 62
     3
 10
22374.510633585171
 20
14249.488178999991
 30
0.0
 11
22374.510633585171
 21
14255.493047999989
 31
0.0
  0
LINE
  5
10988
  8
2-0
  6
CONTINUOUS
 62
     3
 10
22374.510633585171
 20
14255.493047999989
 30
0.0
 11
22404.508258585171
 21
14255.493047999989
 31
0.0
  0
LINE
  5
10989
  8
2-0
  6
CONTINUOUS
 62
     3
 10
22404.508258585171
 20
14255.493047999989
 30
0.0
 11
22404.50825858516
 21
14140.48895699998
 31
0.0
  0
LINE
  5
1098A
  8
2-0
  6
CONTINUOUS
 62
     3
 10
22404.50825858516
 20
14140.48895699998
 30
0.0
 11
22319.509710585149
 21
14140.48895699999
 31
0.0
  0
LINE
  5
1098B
  8
2-0
  6
CONTINUOUS
 62
     3
 10
22319.509710585149
 20
14140.48895699999
 30
0.0
 11
22319.50971058516
 21
14225.484536
 31
0.0
  0
LINE
  5
1098C
  8
2-0
  6
CONTINUOUS
 62
     3
 10
22319.50971058516
 20
14225.484536
 30
0.0
 11
22351.506648585171
 21
14225.484536
 31
0.0
  0
LINE
  5
1098D
  8
2-0
  6
CONTINUOUS
 62
     3
 10
22392.50643758518
 20
14252.52278099998
 30
0.0
 11
22399.504035585171
 21
14252.52278099998
 31
0.0
  0
LINE
  5
1098E
  8
2-0
  6
CONTINUOUS
 62
     3
 10
22399.504035585171
 20
14252.52278099998
 30
0.0
 11
22399.504035585171
 21
14247.52548599997
 31
0.0
  0
LINE
  5
1098F
  8
2-0
  6
CONTINUOUS
 62
     3
 10
22399.504035585171
 20
14247.52548599997
 30
0.0
 11
22374.510633585171
 21
14247.52548599998
 31
0.0
  0
LINE
  5
10990
  8
2-0
  6
CONTINUOUS
 62
     3
 10
22374.510633585171
 20
14247.52548599998
 30
0.0
 11
22374.510633585171
 21
14265.524259
 31
0.0
  0
LINE
  5
10991
  8
2-0
  6
CONTINUOUS
 62
     3
 10
22374.510633585171
 20
14265.524259
 30
0.0
 11
22404.508258585171
 21
14265.524258999991
 31
0.0
  0
LINE
  5
10992
  8
2-0
  6
CONTINUOUS
 62
     3
 10
22404.5082585852
 20
14619.08683099999
 30
0.0
 11
22404.508258585262
 21
15263.12568899999
 31
0.0
  0
LINE
  5
10993
  8
2-0
  6
CONTINUOUS
 62
     3
 10
22404.508258585542
 20
18238.081387999991
 30
0.0
 11
22404.5082585856
 21
18881.89210549997
 31
0.0
  0
LINE
  5
10994
  8
2-0
  6
CONTINUOUS
 62
     3
 10
22404.508258585331
 20
15963.885672499981
 30
0.0
 11
22404.508258585269
 21
15320.32189899999
 31
0.0
  0
LINE
  5
10995
  8
2-0
  6
CONTINUOUS
 62
     3
 10
19752.013669585609
 20
19245.488364000259
 30
0.0
 11
19752.013669585609
 21
19360.484537000259
 31
0.0
  0
LINE
  5
10996
  8
2-0
  6
CONTINUOUS
 62
     3
 10
19752.015648585821
 20
19275.48796799999
 30
0.0
 11
22323.508337585808
 21
19275.48796800023
 31
0.0
  0
LINE
  5
10997
  8
2-0
  6
CONTINUOUS
 62
     3
 10
22404.508258585171
 20
14265.524258999991
 30
0.0
 11
22404.5082585852
 21
14561.89062099999
 31
0.0
  0
LINE
  5
10998
  8
2-0
  6
CONTINUOUS
 62
     3
 10
19752.013669585602
 20
19235.19090800023
 30
0.0
 11
19752.01366958558
 21
18939.082377500232
 31
0.0
  0
LINE
  5
10999
  8
2-0
  6
CONTINUOUS
 62
     3
 10
22404.508258585629
 20
19235.190907999979
 30
0.0
 11
22404.5082585856
 21
18939.082377499952
 31
0.0
  0
LINE
  5
1099A
  8
2-0
  6
CONTINUOUS
 62
     3
 10
22323.510317585158
 20
14225.484536
 30
0.0
 11
22323.510317585631
 21
19360.484537000018
 31
0.0
  0
LINE
  5
1099B
  8
2-0
  6
CONTINUOUS
 62
     3
 10
19833.015569585179
 20
14225.484536000229
 30
0.0
 11
19833.015569585648
 21
19360.484537000251
 31
0.0
  0
TEXT
  5
1099C
  8
2-0
  6
CONTINUOUS
 62
     7
 10
20565.666646590849
 20
13622.99046700285
 30
0.0
 40
160.0
  1
前柱（左）
 50
359.99978699999468
 72
     4
 11
20981.666943992092
 21
13702.98892050092
 31
0.0
  0
TEXT
  5
1099D
  8
2-0
  6
CONTINUOUS
 62
     7
 10
20467.738190255481
 20
16200.97714927667
 30
0.0
 40
160.0
  1
壁パネル
 50
0.000176999994741
 72
     4
 11
20830.404609781799
 21
16280.97826963801
 31
0.0
  0
TEXT
  5
1099E
  8
2-0
  6
CONTINUOUS
 62
     7
 10
20438.407760938499
 20
17038.17367865254
 30
0.0
 40
160.0
  1
中柱（左右）
 50
359.99964599999458
 72
     4
 11
20955.741588539211
 21
17118.170482324789
 31
0.0
  0
TEXT
  5
1099F
  8
2-0
  6
CONTINUOUS
 62
     7
 10
20451.738850310609
 20
14596.03497270628
 30
0.0
 40
160.0
  1
下枠
 50
359.99893699999473
 72
     4
 11
20622.40700117591
 21
14676.031806339441
 31
0.0
  0
TEXT
  5
109A0
  8
2-0
  6
CONTINUOUS
 62
     7
 10
20455.440092918889
 20
18641.436024500159
 30
0.0
 40
160.0
  1
間柱（側）
 50
359.99999999999471
 72
     4
 11
20876.773426252232
 21
18721.436024500119
 31
0.0
  0
TEXT
  5
109A1
  8
2-0
  6
CONTINUOUS
 62
     7
 10
17955.516440605239
 20
20170.490071749129
 30
0.0
 40
160.0
  1
後柱（左右）
 50
359.99964599999458
 72
     4
 11
18467.516934872721
 21
20250.48690837319
 31
0.0
  0
LINE
  5
109A2
  8
2-0
  6
CONTINUOUS
 62
     3
 10
21622.512534585821
 20
19360.484537000179
 30
0.0
 11
21585.511372585839
 21
19360.484537000179
 31
0.0
  0
LINE
  5
109A3
  8
2-0
  6
CONTINUOUS
 62
     3
 10
21622.512534585821
 20
19330.480974000169
 30
0.0
 11
21622.512534585821
 21
19360.484537000179
 31
0.0
  0
LINE
  5
109A4
  8
2-0
  6
CONTINUOUS
 62
     3
 10
21616.512613585812
 20
19330.480974000169
 30
0.0
 11
21622.512534585821
 21
19330.480974000169
 31
0.0
  0
LINE
  5
109A5
  8
2-0
  6
CONTINUOUS
 62
     3
 10
21632.610058585851
 20
19330.480974000169
 30
0.0
 11
21632.610058585851
 21
19360.484537000179
 31
0.0
  0
LINE
  5
109A6
  8
2-0
  6
CONTINUOUS
 62
     3
 10
21614.606337585821
 20
19330.480974000169
 30
0.0
 11
21632.610058585851
 21
19330.480974000169
 31
0.0
  0
LINE
  5
109A7
  8
2-0
  6
CONTINUOUS
 62
     3
 10
21614.606337585821
 20
19355.490211000179
 30
0.0
 11
21614.606337585821
 21
19330.480974000169
 31
0.0
  0
LINE
  5
109A8
  8
2-0
  6
CONTINUOUS
 62
     3
 10
21619.60660158582
 20
19355.490211000179
 30
0.0
 11
21614.606337585821
 21
19355.490211000179
 31
0.0
  0
LINE
  5
109A9
  8
2-0
  6
CONTINUOUS
 62
     3
 10
21619.60660158582
 20
19348.48469500017
 30
0.0
 11
21619.60660158582
 21
19355.490211000179
 31
0.0
  0
LINE
  5
109AA
  8
2-0
  6
CONTINUOUS
 62
     3
 10
21588.417306585809
 20
19348.484695000159
 30
0.0
 11
21588.417306585809
 21
19355.49021100016
 31
0.0
  0
LINE
  5
109AB
  8
2-0
  6
CONTINUOUS
 62
     3
 10
21588.417306585809
 20
19355.49021100016
 30
0.0
 11
21593.41757058584
 21
19355.49021100016
 31
0.0
  0
LINE
  5
109AC
  8
2-0
  6
CONTINUOUS
 62
     3
 10
21593.41757058584
 20
19355.49021100016
 30
0.0
 11
21593.41757058584
 21
19330.480974000169
 31
0.0
  0
LINE
  5
109AD
  8
2-0
  6
CONTINUOUS
 62
     3
 10
21593.41757058584
 20
19330.480974000169
 30
0.0
 11
21575.41780758584
 21
19330.480974000169
 31
0.0
  0
LINE
  5
109AE
  8
2-0
  6
CONTINUOUS
 62
     3
 10
21575.41780758584
 20
19330.480974000169
 30
0.0
 11
21575.41780758584
 21
19360.484537000179
 31
0.0
  0
LINE
  5
109AF
  8
2-0
  6
CONTINUOUS
 62
     3
 10
21591.51129358582
 20
19330.480974000169
 30
0.0
 11
21585.511372585839
 21
19330.480974000169
 31
0.0
  0
LINE
  5
109B0
  8
2-0
  6
CONTINUOUS
 62
     3
 10
21585.511372585839
 20
19330.480974000169
 30
0.0
 11
21585.511372585839
 21
19360.484537000179
 31
0.0
  0
LINE
  5
109B1
  8
2-0
  6
CONTINUOUS
 62
     3
 10
20918.601652085821
 20
19348.484695000101
 30
0.0
 11
20918.601652085821
 21
19355.490211000109
 31
0.0
  0
LINE
  5
109B2
  8
2-0
  6
CONTINUOUS
 62
     3
 10
20918.601652085821
 20
19355.490211000109
 30
0.0
 11
20913.601388085819
 21
19355.490211000109
 31
0.0
  0
LINE
  5
109B3
  8
2-0
  6
CONTINUOUS
 62
     3
 10
20913.601388085819
 20
19355.490211000109
 30
0.0
 11
20913.601388085819
 21
19330.480974000111
 31
0.0
  0
LINE
  5
109B4
  8
2-0
  6
CONTINUOUS
 62
     3
 10
20913.601388085819
 20
19330.480974000111
 30
0.0
 11
20931.607089085821
 21
19330.480974000111
 31
0.0
  0
LINE
  5
109B5
  8
2-0
  6
CONTINUOUS
 62
     3
 10
20931.607089085821
 20
19330.480974000111
 30
0.0
 11
20931.607089085821
 21
19360.48453700012
 31
0.0
  0
LINE
  5
109B6
  8
2-0
  6
CONTINUOUS
 62
     3
 10
20915.509644085821
 20
19330.480974000111
 30
0.0
 11
20921.511544085821
 21
19330.480974000111
 31
0.0
  0
LINE
  5
109B7
  8
2-0
  6
CONTINUOUS
 62
     3
 10
20921.511544085821
 20
19330.480974000111
 30
0.0
 11
20921.511544085821
 21
19360.48453700012
 31
0.0
  0
LINE
  5
109B8
  8
2-0
  6
CONTINUOUS
 62
     3
 10
20884.512363085822
 20
19360.48453700012
 30
0.0
 11
20921.511544085821
 21
19360.48453700012
 31
0.0
  0
LINE
  5
109B9
  8
2-0
  6
CONTINUOUS
 62
     3
 10
20884.512363085822
 20
19330.4809740001
 30
0.0
 11
20884.512363085822
 21
19360.48453700012
 31
0.0
  0
LINE
  5
109BA
  8
2-0
  6
CONTINUOUS
 62
     3
 10
20890.506345085822
 20
19330.4809740001
 30
0.0
 11
20884.512363085822
 21
19330.4809740001
 31
0.0
  0
LINE
  5
109BB
  8
2-0
  6
CONTINUOUS
 62
     3
 10
20874.41681808584
 20
19330.4809740001
 30
0.0
 11
20874.41681808584
 21
19360.48453700012
 31
0.0
  0
LINE
  5
109BC
  8
2-0
  6
CONTINUOUS
 62
     3
 10
20892.412621085819
 20
19330.4809740001
 30
0.0
 11
20874.41681808584
 21
19330.4809740001
 31
0.0
  0
LINE
  5
109BD
  8
2-0
  6
CONTINUOUS
 62
     3
 10
20892.412621085819
 20
19355.490211000109
 30
0.0
 11
20892.412621085819
 21
19330.4809740001
 31
0.0
  0
LINE
  5
109BE
  8
2-0
  6
CONTINUOUS
 62
     3
 10
20887.412357085828
 20
19355.490211000109
 30
0.0
 11
20892.412621085819
 21
19355.490211000109
 31
0.0
  0
LINE
  5
109BF
  8
2-0
  6
CONTINUOUS
 62
     3
 10
20887.412357085828
 20
19348.484695000101
 30
0.0
 11
20887.412357085828
 21
19355.490211000109
 31
0.0
  0
LINE
  5
109C0
  8
2-0
  6
CONTINUOUS
 62
     3
 10
20887.411368085821
 20
19348.484695000101
 30
0.0
 11
20887.411368085821
 21
19355.490211000109
 31
0.0
  0
LINE
  5
109C1
  8
2-0
  6
CONTINUOUS
 62
     3
 10
20887.411368085821
 20
19355.490211000109
 30
0.0
 11
20892.411631085819
 21
19355.490211000109
 31
0.0
  0
LINE
  5
109C2
  8
2-0
  6
CONTINUOUS
 62
     3
 10
20892.411631085819
 20
19355.490211000109
 30
0.0
 11
20892.411631085819
 21
19330.4809740001
 31
0.0
  0
LINE
  5
109C3
  8
2-0
  6
CONTINUOUS
 62
     3
 10
20892.411631085819
 20
19330.4809740001
 30
0.0
 11
20874.417808085818
 21
19330.4809740001
 31
0.0
  0
LINE
  5
109C4
  8
2-0
  6
CONTINUOUS
 62
     3
 10
20874.417808085818
 20
19330.4809740001
 30
0.0
 11
20874.417808085818
 21
19360.48453700012
 31
0.0
  0
LINE
  5
109C5
  8
2-0
  6
CONTINUOUS
 62
     3
 10
20890.509314085801
 20
19330.4809740001
 30
0.0
 11
20884.511373085821
 21
19330.4809740001
 31
0.0
  0
LINE
  5
109C6
  8
2-0
  6
CONTINUOUS
 62
     3
 10
20884.511373085821
 20
19330.4809740001
 30
0.0
 11
20884.511373085821
 21
19360.48453700012
 31
0.0
  0
LINE
  5
109C7
  8
2-0
  6
CONTINUOUS
 62
     3
 10
20921.512534085821
 20
19360.48453700012
 30
0.0
 11
20884.511373085821
 21
19360.48453700012
 31
0.0
  0
LINE
  5
109C8
  8
2-0
  6
CONTINUOUS
 62
     3
 10
20921.512534085821
 20
19330.480974000111
 30
0.0
 11
20921.512534085821
 21
19360.48453700012
 31
0.0
  0
LINE
  5
109C9
  8
2-0
  6
CONTINUOUS
 62
     3
 10
20915.506675085839
 20
19330.480974000111
 30
0.0
 11
20921.512534085821
 21
19330.480974000111
 31
0.0
  0
LINE
  5
109CA
  8
2-0
  6
CONTINUOUS
 62
     3
 10
20931.606099085839
 20
19330.480974000111
 30
0.0
 11
20931.606099085839
 21
19360.48453700012
 31
0.0
  0
LINE
  5
109CB
  8
2-0
  6
CONTINUOUS
 62
     3
 10
20913.610296085819
 20
19330.480974000111
 30
0.0
 11
20931.606099085839
 21
19330.480974000111
 31
0.0
  0
LINE
  5
109CC
  8
2-0
  6
CONTINUOUS
 62
     3
 10
20913.610296085819
 20
19355.490211000109
 30
0.0
 11
20913.610296085819
 21
19330.480974000111
 31
0.0
  0
LINE
  5
109CD
  8
2-0
  6
CONTINUOUS
 62
     3
 10
20918.600662085821
 20
19355.490211000109
 30
0.0
 11
20913.610296085819
 21
19355.490211000109
 31
0.0
  0
LINE
  5
109CE
  8
2-0
  6
CONTINUOUS
 62
     3
 10
20918.600662085821
 20
19348.484695000101
 30
0.0
 11
20918.600662085821
 21
19355.490211000109
 31
0.0
  0
LINE
  5
109CF
  8
2-0
  6
CONTINUOUS
 62
     3
 10
20931.607089085821
 20
19360.48453700012
 30
0.0
 11
20874.417808085818
 21
19360.48453700012
 31
0.0
  0
LINE
  5
109D0
  8
2-0
  6
CONTINUOUS
 62
     3
 10
20230.810979585851
 20
19360.484537000058
 30
0.0
 11
20874.41681808584
 21
19360.48453700012
 31
0.0
  0
LINE
  5
109D1
  8
2-0
  6
CONTINUOUS
 62
     3
 10
22279.89558358584
 20
19360.484537000251
 30
0.0
 11
21632.610058585851
 21
19360.484537000179
 31
0.0
  0
LINE
  5
109D2
  8
2-0
  6
CONTINUOUS
 62
     3
 10
21575.41780758584
 20
19360.484537000179
 30
0.0
 11
20931.606099085839
 21
19360.48453700012
 31
0.0
  0
LINE
  5
109D3
  8
2-0
  6
CONTINUOUS
 62
     3
 10
20217.603631585818
 20
19348.484695000028
 30
0.0
 11
20217.603631585818
 21
19355.490211000051
 31
0.0
  0
LINE
  5
109D4
  8
2-0
  6
CONTINUOUS
 62
     3
 10
20217.603631585818
 20
19355.490211000051
 30
0.0
 11
20212.603367585809
 21
19355.490211000051
 31
0.0
  0
LINE
  5
109D5
  8
2-0
  6
CONTINUOUS
 62
     3
 10
20212.603367585809
 20
19355.490211000051
 30
0.0
 11
20212.603367585809
 21
19330.480974000038
 31
0.0
  0
LINE
  5
109D6
  8
2-0
  6
CONTINUOUS
 62
     3
 10
20212.603367585809
 20
19330.480974000038
 30
0.0
 11
20230.60510958582
 21
19330.480974000038
 31
0.0
  0
LINE
  5
109D7
  8
2-0
  6
CONTINUOUS
 62
     3
 10
20230.60510958582
 20
19330.480974000038
 30
0.0
 11
20230.60510958582
 21
19360.484537000058
 31
0.0
  0
LINE
  5
109D8
  8
2-0
  6
CONTINUOUS
 62
     3
 10
20214.505684585842
 20
19330.480974000038
 30
0.0
 11
20220.50956458582
 21
19330.480974000038
 31
0.0
  0
LINE
  5
109D9
  8
2-0
  6
CONTINUOUS
 62
     3
 10
20220.50956458582
 20
19330.480974000038
 30
0.0
 11
20220.50956458582
 21
19360.484537000051
 31
0.0
  0
LINE
  5
109DA
  8
2-0
  6
CONTINUOUS
 62
     3
 10
20183.514342585819
 20
19360.484537000051
 30
0.0
 11
20220.50956458582
 21
19360.484537000051
 31
0.0
  0
LINE
  5
109DB
  8
2-0
  6
CONTINUOUS
 62
     3
 10
20183.514342585819
 20
19330.480974000038
 30
0.0
 11
20183.514342585819
 21
19360.484537000051
 31
0.0
  0
LINE
  5
109DC
  8
2-0
  6
CONTINUOUS
 62
     3
 10
20189.508324585819
 20
19330.480974000038
 30
0.0
 11
20183.514342585819
 21
19330.480974000038
 31
0.0
  0
LINE
  5
109DD
  8
2-0
  6
CONTINUOUS
 62
     3
 10
20173.41879758584
 20
19330.480974000038
 30
0.0
 11
20173.41879758584
 21
19360.484537000051
 31
0.0
  0
LINE
  5
109DE
  8
2-0
  6
CONTINUOUS
 62
     3
 10
20191.414600585838
 20
19330.480974000038
 30
0.0
 11
20173.41879758584
 21
19330.480974000038
 31
0.0
  0
LINE
  5
109DF
  8
2-0
  6
CONTINUOUS
 62
     3
 10
20191.414600585838
 20
19355.490211000051
 30
0.0
 11
20191.414600585838
 21
19330.480974000038
 31
0.0
  0
LINE
  5
109E0
  8
2-0
  6
CONTINUOUS
 62
     3
 10
20186.416316585852
 20
19355.49021100004
 30
0.0
 11
20191.414600585838
 21
19355.490211000051
 31
0.0
  0
LINE
  5
109E1
  8
2-0
  6
CONTINUOUS
 62
     3
 10
20186.416316585852
 20
19348.484695000028
 30
0.0
 11
20186.416316585852
 21
19355.49021100004
 31
0.0
  0
LINE
  5
109E2
  8
2-0
  6
CONTINUOUS
 62
     3
 10
19877.317195585809
 20
19360.484537000018
 30
0.0
 11
20173.41879758584
 21
19360.484537000051
 31
0.0
  0
LINE
  5
109E3
  8
2-0
  6
CONTINUOUS
 62
     3
 10
19752.013669585242
 20
15263.12568900025
 30
0.0
 11
19752.01366958518
 21
14619.086831000241
 31
0.0
  0
LINE
  5
109E4
  8
2-0
  6
CONTINUOUS
 62
     3
 10
19752.013669585169
 20
14561.890621000241
 30
0.0
 11
19752.013669585151
 21
14265.52425900024
 31
0.0
  0
TEXT
  5
109E5
  8
0-6
  6
CONTINUOUS
 62
     7
 10
19995.23825623664
 20
19048.401313970691
 30
0.0
 40
160.0
  1
間柱（後）
 50
0.0000000000053557
 72
     4
 11
20416.571589569969
 21
19128.401313970731
 31
0.0
  0
LINE
  5
109E6
  8
SUNPOU
  6
CONTINUOUS
 62
     4
 10
19672.013669585169
 20
14590.60650775025
 30
0.0
 11
18622.01234958518
 21
14590.606507750341
 31
0.0
  0
LINE
  5
109E7
  8
SUNPOU
  6
CONTINUOUS
 62
     4
 10
18822.01234958514
 20
14183.10650775033
 30
0.0
 11
18622.01234958514
 21
14183.106507750341
 31
0.0
  0
LINE
  5
109E8
  8
SUNPOU
  6
CONTINUOUS
 62
     4
 10
18702.01234958518
 20
14590.606507750341
 30
0.0
 11
18702.01234958514
 21
14183.106507750341
 31
0.0
  0
LINE
  5
109E9
  8
SUNPOU
  6
CONTINUOUS
 62
     4
 10
19672.013669585569
 20
18910.486252000239
 30
0.0
 11
18622.01234958557
 21
18910.486252000341
 31
0.0
  0
LINE
  5
109EA
  8
SUNPOU
  6
CONTINUOUS
 62
     4
 10
18822.01234958561
 20
19317.986252000319
 30
0.0
 11
18622.01234958561
 21
19317.986252000341
 31
0.0
  0
LINE
  5
109EB
  8
SUNPOU
  6
CONTINUOUS
 62
     4
 10
18702.01234958557
 20
18910.48625200033
 30
0.0
 11
18702.01234958561
 21
19317.98625200033
 31
0.0
  0
LINE
  5
109EC
  8
SUNPOU
  6
CONTINUOUS
 62
     4
 10
22362.01195358509
 20
13477.222817999989
 30
0.0
 11
22362.011953585061
 21
13131.538167999999
 31
0.0
  0
LINE
  5
109ED
  8
SUNPOU
  6
CONTINUOUS
 62
     4
 10
22404.514196585129
 20
14060.48895699998
 30
0.0
 11
22404.514196585042
 21
13131.538167999999
 31
0.0
  0
LINE
  5
109EE
  8
SUNPOU
  6
CONTINUOUS
 62
     4
 10
22362.011953585072
 20
13211.538167999999
 30
0.0
 11
22122.011953585072
 21
13211.538168000019
 31
0.0
  0
LINE
  5
109EF
  8
SUNPOU
  6
CONTINUOUS
 62
     4
 10
22404.514196585049
 20
13211.538167999999
 30
0.0
 11
22644.514196585049
 21
13211.53816799997
 31
0.0
  0
LINE
  5
109F0
  8
SUNPOU
  6
CONTINUOUS
 62
     4
 10
22362.011953585072
 20
13211.538167999999
 30
0.0
 11
22404.514196585049
 21
13211.538167999999
 31
0.0
  0
LINE
  5
109F1
  8
SUNPOU
  6
CONTINUOUS
 62
     4
 10
19794.511953585072
 20
13477.222818000229
 30
0.0
 11
19794.511953585039
 21
13131.538168000239
 31
0.0
  0
LINE
  5
109F2
  8
SUNPOU
  6
CONTINUOUS
 62
     4
 10
19752.009710585138
 20
14060.488957000231
 30
0.0
 11
19752.00971058504
 21
13131.538168000239
 31
0.0
  0
LINE
  5
109F3
  8
SUNPOU
  6
CONTINUOUS
 62
     4
 10
19794.51195358505
 20
13211.538168000239
 30
0.0
 11
20034.51195358505
 21
13211.53816800021
 31
0.0
  0
LINE
  5
109F4
  8
SUNPOU
  6
CONTINUOUS
 62
     4
 10
19752.009710585058
 20
13211.538168000239
 30
0.0
 11
19512.009710585058
 21
13211.538168000259
 31
0.0
  0
LINE
  5
109F5
  8
SUNPOU
  6
CONTINUOUS
 62
     4
 10
19794.51195358505
 20
13211.538168000239
 30
0.0
 11
19752.009710585058
 21
13211.538168000239
 31
0.0
  0
LINE
  5
109F6
  8
SUNPOU
  6
CONTINUOUS
 62
     4
 10
19794.511953585072
 20
13477.222818000229
 30
0.0
 11
19794.511953585039
 21
13131.538168000239
 31
0.0
  0
LINE
  5
109F7
  8
SUNPOU
  6
CONTINUOUS
 62
     4
 10
19837.01419658514
 20
14060.48895700022
 30
0.0
 11
19837.014196585049
 21
13131.53816800023
 31
0.0
  0
LINE
  5
109F8
  8
SUNPOU
  6
CONTINUOUS
 62
     4
 10
19794.51195358505
 20
13211.538168000239
 30
0.0
 11
19554.51195358505
 21
13211.538168000259
 31
0.0
  0
LINE
  5
109F9
  8
SUNPOU
  6
CONTINUOUS
 62
     4
 10
19837.01419658506
 20
13211.53816800023
 30
0.0
 11
20077.014196585071
 21
13211.53816800021
 31
0.0
  0
LINE
  5
109FA
  8
SUNPOU
  6
CONTINUOUS
 62
     4
 10
19794.51195358505
 20
13211.538168000239
 30
0.0
 11
19837.01419658506
 21
13211.53816800023
 31
0.0
  0
LINE
  5
109FB
  8
SUNPOU
  6
CONTINUOUS
 62
     4
 10
22362.01195358509
 20
13477.222817999989
 30
0.0
 11
22362.011953585061
 21
13131.538167999999
 31
0.0
  0
LINE
  5
109FC
  8
SUNPOU
  6
CONTINUOUS
 62
     4
 10
22319.509710585138
 20
14060.48895699999
 30
0.0
 11
22319.509710585051
 21
13131.538167999999
 31
0.0
  0
LINE
  5
109FD
  8
SUNPOU
  6
CONTINUOUS
 62
     4
 10
22362.011953585072
 20
13211.538167999999
 30
0.0
 11
22602.011953585072
 21
13211.538167999979
 31
0.0
  0
LINE
  5
109FE
  8
SUNPOU
  6
CONTINUOUS
 62
     4
 10
22319.509710585058
 20
13211.538167999999
 30
0.0
 11
22079.509710585058
 21
13211.538168000019
 31
0.0
  0
LINE
  5
109FF
  8
SUNPOU
  6
CONTINUOUS
 62
     4
 10
22362.011953585072
 20
13211.538167999999
 30
0.0
 11
22319.509710585058
 21
13211.538167999999
 31
0.0
  0
LINE
  5
10A00
  8
SUNPOU
  6
CONTINUOUS
 62
     4
 10
22404.514196585129
 20
14060.48895699998
 30
0.0
 11
22404.514196585009
 21
12731.538167999999
 31
0.0
  0
LINE
  5
10A01
  8
SUNPOU
  6
CONTINUOUS
 62
     4
 10
19752.009710585138
 20
14060.488957000231
 30
0.0
 11
19752.009710585018
 21
12731.538168000239
 31
0.0
  0
LINE
  5
10A02
  8
SUNPOU
  6
CONTINUOUS
 62
     4
 10
22404.514196585009
 20
12811.538167999999
 30
0.0
 11
19752.009710585018
 21
12811.538168000239
 31
0.0
  0
LINE
  5
10A03
  8
SUNPOU
  6
CONTINUOUS
 62
     4
 10
19672.013669585242
 20
15291.72676350027
 30
0.0
 11
18622.012349585239
 21
15291.726763500361
 31
0.0
  0
LINE
  5
10A04
  8
SUNPOU
  6
CONTINUOUS
 62
     4
 10
19672.013669585169
 20
14590.486252000241
 30
0.0
 11
18622.01234958518
 21
14590.48625200033
 31
0.0
  0
LINE
  5
10A05
  8
SUNPOU
  6
CONTINUOUS
 62
     4
 10
18702.012349585239
 20
15291.72676350035
 30
0.0
 11
18702.01234958518
 21
14590.48625200033
 31
0.0
  0
LINE
  5
10A06
  8
SUNPOU
  6
CONTINUOUS
 62
     4
 10
19672.013669585311
 20
15992.48625200025
 30
0.0
 11
18622.012349585311
 21
15992.486252000341
 31
0.0
  0
LINE
  5
10A07
  8
SUNPOU
  6
CONTINUOUS
 62
     4
 10
19672.013669585242
 20
15291.72676350027
 30
0.0
 11
18622.012349585239
 21
15291.726763500361
 31
0.0
  0
LINE
  5
10A08
  8
SUNPOU
  6
CONTINUOUS
 62
     4
 10
18702.0123495853
 20
15992.486252000341
 30
0.0
 11
18702.012349585239
 21
15291.72676350035
 31
0.0
  0
LINE
  5
10A09
  8
SUNPOU
  6
CONTINUOUS
 62
     4
 10
18822.01234958538
 20
16750.486252000319
 30
0.0
 11
18622.01234958537
 21
16750.486252000341
 31
0.0
  0
LINE
  5
10A0A
  8
SUNPOU
  6
CONTINUOUS
 62
     4
 10
19672.013669585311
 20
15992.48625200025
 30
0.0
 11
18622.012349585311
 21
15992.486252000341
 31
0.0
  0
LINE
  5
10A0B
  8
SUNPOU
  6
CONTINUOUS
 62
     4
 10
18702.01234958537
 20
16750.48625200033
 30
0.0
 11
18702.0123495853
 21
15992.486252000341
 31
0.0
  0
LINE
  5
10A0C
  8
SUNPOU
  6
CONTINUOUS
 62
     4
 10
19672.013669585442
 20
17508.486252000232
 30
0.0
 11
18622.012349585439
 21
17508.486252000319
 31
0.0
  0
LINE
  5
10A0D
  8
SUNPOU
  6
CONTINUOUS
 62
     4
 10
18822.01234958538
 20
16750.486252000319
 30
0.0
 11
18622.01234958537
 21
16750.486252000341
 31
0.0
  0
LINE
  5
10A0E
  8
SUNPOU
  6
CONTINUOUS
 62
     4
 10
18702.012349585439
 20
17508.486252000319
 30
0.0
 11
18702.01234958537
 21
16750.48625200033
 31
0.0
  0
LINE
  5
10A0F
  8
SUNPOU
  6
CONTINUOUS
 62
     4
 10
19672.013669585511
 20
18209.486252000232
 30
0.0
 11
18622.012349585511
 21
18209.486252000319
 31
0.0
  0
LINE
  5
10A10
  8
SUNPOU
  6
CONTINUOUS
 62
     4
 10
19672.013669585442
 20
17508.486252000232
 30
0.0
 11
18622.012349585439
 21
17508.486252000319
 31
0.0
  0
LINE
  5
10A11
  8
SUNPOU
  6
CONTINUOUS
 62
     4
 10
18702.012349585511
 20
18209.486252000319
 30
0.0
 11
18702.012349585439
 21
17508.486252000319
 31
0.0
  0
LINE
  5
10A12
  8
SUNPOU
  6
CONTINUOUS
 62
     4
 10
19672.013669585569
 20
18910.486252000239
 30
0.0
 11
18622.01234958557
 21
18910.486252000341
 31
0.0
  0
LINE
  5
10A13
  8
SUNPOU
  6
CONTINUOUS
 62
     4
 10
19672.013669585511
 20
18209.486252000232
 30
0.0
 11
18622.012349585511
 21
18209.486252000319
 31
0.0
  0
LINE
  5
10A14
  8
SUNPOU
  6
CONTINUOUS
 62
     4
 10
18702.01234958557
 20
18910.48625200033
 30
0.0
 11
18702.012349585511
 21
18209.486252000319
 31
0.0
  0
LINE
  5
10A17
  8
SUNPOU
  6
CONTINUOUS
 62
     4
 10
18302.01234958561
 20
19360.483547000382
 30
0.0
 11
18302.012349585129
 21
14140.488957000371
 31
0.0
  0
LINE
  5
10A18
  8
SUNPOU
  6
CONTINUOUS
 62
     4
 10
19672.01366958562
 20
19360.483547000251
 30
0.0
 11
18222.012349585631
 21
19360.483547000382
 31
0.0
  0
LINE
  5
10A19
  8
SUNPOU
  6
CONTINUOUS
 62
     4
 10
18702.01234958561
 20
19317.98625200033
 30
0.0
 11
18702.012349585591
 21
19077.98625200033
 31
0.0
  0
LINE
  5
10A1A
  8
SUNPOU
  6
CONTINUOUS
 62
     4
 10
18702.01234958561
 20
19360.483547000342
 30
0.0
 11
18702.012349585639
 21
19600.483547000331
 31
0.0
  0
LINE
  5
10A1B
  8
SUNPOU
  6
CONTINUOUS
 62
     4
 10
18702.01234958561
 20
19317.98625200033
 30
0.0
 11
18702.01234958561
 21
19360.483547000342
 31
0.0
  0
LINE
  5
10A1C
  8
SUNPOU
  6
CONTINUOUS
 62
     4
 10
19672.01366958514
 20
14140.48895700024
 30
0.0
 11
18222.01234958514
 21
14140.488957000371
 31
0.0
  0
LINE
  5
10A1D
  8
SUNPOU
  6
CONTINUOUS
 62
     4
 10
18702.012349585129
 20
14140.488957000331
 30
0.0
 11
18702.012349585111
 21
13900.488957000331
 31
0.0
  0
LINE
  5
10A1E
  8
SUNPOU
  6
CONTINUOUS
 62
     4
 10
18702.01234958514
 20
14182.986252000341
 30
0.0
 11
18702.012349585129
 21
14140.488957000331
 31
0.0
  0
LINE
  5
10A1F
  8
SUNPOU
  6
CONTINUOUS
 62
     4
 10
22362.011953585639
 20
19440.484537000018
 30
0.0
 11
22362.011953585719
 21
20240.487175999991
 31
0.0
  0
LINE
  5
10A20
  8
SUNPOU
  6
CONTINUOUS
 62
     4
 10
20202.01195358581
 20
19440.484537000051
 30
0.0
 11
20202.01195358573
 21
20240.487176000031
 31
0.0
  0
LINE
  5
10A21
  8
SUNPOU
  6
CONTINUOUS
 62
     4
 10
19794.511953585741
 20
20160.487175999991
 30
0.0
 11
20202.011953585741
 21
20160.487176000031
 31
0.0
  0
LINE
  5
10A22
  8
SUNPOU
  6
CONTINUOUS
 62
     4
 10
21604.01195358581
 20
19440.484537000179
 30
0.0
 11
21604.011953585741
 21
20240.487176000159
 31
0.0
  0
LINE
  5
10A23
  8
SUNPOU
  6
CONTINUOUS
 62
     4
 10
19794.51096408561
 20
19440.484537000251
 30
0.0
 11
19794.51096408569
 21
20240.487176000232
 31
0.0
  0
LINE
  5
10A24
  8
SUNPOU
  6
CONTINUOUS
 62
     4
 10
21604.011953585741
 20
20160.487176000159
 30
0.0
 11
22362.012943085771
 21
20160.487176000232
 31
0.0
  0
LINE
  5
10A25
  8
SUNPOU
  6
CONTINUOUS
 62
     4
 10
20903.01195358581
 20
19440.48453700012
 30
0.0
 11
20903.01195358573
 21
20240.487176000101
 31
0.0
  0
LINE
  5
10A26
  8
SUNPOU
  6
CONTINUOUS
 62
     4
 10
21604.01195358581
 20
19440.484537000179
 30
0.0
 11
21604.011953585741
 21
20240.487176000159
 31
0.0
  0
LINE
  5
10A27
  8
SUNPOU
  6
CONTINUOUS
 62
     4
 10
20903.011953585741
 20
20160.487176000101
 30
0.0
 11
21604.011953585741
 21
20160.487176000159
 31
0.0
  0
LINE
  5
10A28
  8
SUNPOU
  6
CONTINUOUS
 62
     4
 10
20202.01195358581
 20
19440.484537000051
 30
0.0
 11
20202.01195358573
 21
20240.487176000031
 31
0.0
  0
LINE
  5
10A29
  8
SUNPOU
  6
CONTINUOUS
 62
     4
 10
20903.01195358581
 20
19440.48453700012
 30
0.0
 11
20903.01195358573
 21
20240.487176000101
 31
0.0
  0
LINE
  5
10A2A
  8
SUNPOU
  6
CONTINUOUS
 62
     4
 10
20202.011953585741
 20
20160.487176000031
 30
0.0
 11
20903.011953585741
 21
20160.487176000101
 31
0.0
  0
LINE
  5
10A2B
  8
SUNPOU
  6
CONTINUOUS
 62
     4
 10
19794.511953585621
 20
19440.484537000251
 30
0.0
 11
19794.511953585701
 21
20240.487176000232
 31
0.0
  0
LINE
  5
10A2C
  8
SUNPOU
  6
CONTINUOUS
 62
     4
 10
19752.015648585639
 20
19440.484537000259
 30
0.0
 11
19752.015648585711
 21
20240.487176000232
 31
0.0
  0
LINE
  5
10A2D
  8
SUNPOU
  6
CONTINUOUS
 62
     4
 10
19794.51195358569
 20
20160.487176000232
 30
0.0
 11
20034.51195358569
 21
20160.48717600021
 31
0.0
  0
LINE
  5
10A2E
  8
SUNPOU
  6
CONTINUOUS
 62
     4
 10
19752.015648585701
 20
20160.487176000232
 30
0.0
 11
19512.015648585701
 21
20160.487176000261
 31
0.0
  0
LINE
  5
10A2F
  8
SUNPOU
  6
CONTINUOUS
 62
     4
 10
19794.51195358569
 20
20160.487176000232
 30
0.0
 11
19752.015648585701
 21
20160.487176000232
 31
0.0
  0
LINE
  5
10A30
  8
SUNPOU
  6
CONTINUOUS
 62
     4
 10
22362.011953585639
 20
19440.484537000018
 30
0.0
 11
22362.011953585719
 21
20240.487175999991
 31
0.0
  0
LINE
  5
10A31
  8
SUNPOU
  6
CONTINUOUS
 62
     4
 10
22404.508258585651
 20
19440.484537000011
 30
0.0
 11
22404.50825858572
 21
20240.487175999991
 31
0.0
  0
LINE
  5
10A32
  8
SUNPOU
  6
CONTINUOUS
 62
     4
 10
19794.511953585741
 20
20160.487175999991
 30
0.0
 11
20034.511953585748
 21
20160.487176000021
 31
0.0
  0
LINE
  5
10A33
  8
SUNPOU
  6
CONTINUOUS
 62
     4
 10
22404.50825858572
 20
20160.487175999991
 30
0.0
 11
22644.50825858572
 21
20160.48717599997
 31
0.0
  0
LINE
  5
10A34
  8
SUNPOU
  6
CONTINUOUS
 62
     4
 10
22362.011953585708
 20
20160.487175999991
 30
0.0
 11
22404.50825858572
 21
20160.487175999991
 31
0.0
  0
TEXT
  5
10A35
  8
0
  6
CONTINUOUS
 62
     7
 10
22484.823933114501
 20
20240.487175999981
 30
0.0
 40
160.0
  1
42.5
 50
359.99999999999471
  0
TEXT
  5
10A36
  8
0
  6
CONTINUOUS
 62
     7
 10
19191.699974056919
 20
20240.48717600029
 30
0.0
 40
160.0
  1
42.5
 50
359.99999999999471
  0
TEXT
  5
10A37
  8
0
  6
CONTINUOUS
 62
     7
 10
20379.178620252449
 20
19850.487440000059
 30
0.0
 40
160.0
  1
701
 50
0.0000000000053557
  0
TEXT
  5
10A38
  8
0
  6
CONTINUOUS
 62
     7
 10
21080.178620252431
 20
20240.487176000112
 30
0.0
 40
160.0
  1
701
 50
0.0000000000053557
  0
TEXT
  5
10A39
  8
0
  6
CONTINUOUS
 62
     7
 10
21769.67911500244
 20
20240.487176000181
 30
0.0
 40
160.0
  1
758
 50
0.0000000000053557
  0
TEXT
  5
10A3A
  8
0
  6
CONTINUOUS
 62
     7
 10
19895.34528691907
 20
20240.487175999999
 30
0.0
 40
160.0
  1
407.5
 50
0.0000000000053557
  0
TEXT
  5
10A3B
  8
0
  6
CONTINUOUS
 62
     7
 10
18622.012349585159
 20
13566.93272060353
 30
0.0
 40
160.0
  1
42.5
 50
90.0
  0
TEXT
  5
10A3C
  8
0
  6
CONTINUOUS
 62
     7
 10
18622.012349584609
 20
19454.039783397118
 30
0.0
 40
160.0
  1
42.5
 50
90.0
  0
TEXT
  5
10A3D
  8
0
  6
CONTINUOUS
 62
     7
 10
18222.012349585351
 20
16470.48625200041
 30
0.0
 40
160.0
  1
5220
 50
90.0
  0
TEXT
  5
10A3E
  8
0
  6
CONTINUOUS
 62
     7
 10
18942.012349585541
 20
18386.652918667001
 30
0.0
 40
160.0
  1
701
 50
90.0
  0
TEXT
  5
10A3F
  8
0
  6
CONTINUOUS
 62
     7
 10
18622.012349585431
 20
17685.652918667049
 30
0.0
 40
160.0
  1
701
 50
90.0
  0
TEXT
  5
10A40
  8
0
  6
CONTINUOUS
 62
     7
 10
18622.012349585359
 20
16916.152918667041
 30
0.0
 40
160.0
  1
758
 50
90.0
  0
TEXT
  5
10A41
  8
0
  6
CONTINUOUS
 62
     7
 10
18622.0123495853
 20
16158.15291866704
 30
0.0
 40
160.0
  1
758
 50
90.0
  0
TEXT
  5
10A42
  8
0
  6
CONTINUOUS
 62
     7
 10
18622.012349585239
 20
15468.77317441704
 30
0.0
 40
160.0
  1
701
 50
90.0
  0
TEXT
  5
10A43
  8
0
  6
CONTINUOUS
 62
     7
 10
18942.01234958522
 20
14767.773174417
 30
0.0
 40
160.0
  1
701
 50
90.0
  0
TEXT
  5
10A44
  8
0
  6
CONTINUOUS
 62
     7
 10
20678.261953585039
 20
12891.538168000159
 30
0.0
 40
160.0
  1
2652.5
 50
359.99999999999471
  0
TEXT
  5
10A45
  8
0
  6
CONTINUOUS
 62
     7
 10
21763.95828120298
 20
13291.53816800005
 30
0.0
 40
160.0
  1
42.5
 50
359.99999999999471
  0
TEXT
  5
10A46
  8
0
  6
CONTINUOUS
 62
     7
 10
19912.565625967141
 20
13291.538168000219
 30
0.0
 40
160.0
  1
42.5
 50
359.99999999999471
  0
TEXT
  5
10A47
  8
0
  6
CONTINUOUS
 62
     7
 10
19196.45828120298
 20
13291.53816800029
 30
0.0
 40
160.0
  1
42.5
 50
359.99999999999471
  0
TEXT
  5
10A48
  8
0
  6
CONTINUOUS
 62
     7
 10
22480.06562596716
 20
13291.53816799999
 30
0.0
 40
160.0
  1
42.5
 50
359.99999999999471
  0
TEXT
  5
10A49
  8
0
  6
CONTINUOUS
 62
     7
 10
18582.012349585559
 20
18619.864219643569
 30
0.0
 40
160.0
  1
407.5
 50
90.0
  0
TEXT
  5
10A4A
  8
0
  6
CONTINUOUS
 62
     7
 10
18582.012349585159
 20
14255.926921953909
 30
0.0
 40
160.0
  1
407.5
 50
90.0
  0
ARC
  5
10A4B
  8
0
  6
BYBLOCK
 62
     0
 10
18702.01234958518
 20
14590.606507750341
 30
0.0
 40
15.0
 50
90.0
 51
270.0
  0
ARC
  5
10A4C
  8
0
  6
BYBLOCK
 62
     0
 10
18702.01234958518
 20
14590.606507750341
 30
0.0
 40
15.0
 50
270.0
 51
90.0
  0
ARC
  5
10A4D
  8
0
  6
BYBLOCK
 62
     0
 10
18702.01234958514
 20
14183.106507750341
 30
0.0
 40
15.0
 50
270.0
 51
90.0
  0
ARC
  5
10A4E
  8
0
  6
BYBLOCK
 62
     0
 10
18702.01234958514
 20
14183.106507750341
 30
0.0
 40
15.0
 50
90.0
 51
270.0
  0
ARC
  5
10A4F
  8
0
  6
BYBLOCK
 62
     0
 10
18702.01234958557
 20
18910.48625200033
 30
0.0
 40
15.0
 50
270.0
 51
90.0
  0
ARC
  5
10A50
  8
0
  6
BYBLOCK
 62
     0
 10
18702.01234958557
 20
18910.48625200033
 30
0.0
 40
15.0
 50
90.0
 51
270.0
  0
ARC
  5
10A51
  8
0
  6
BYBLOCK
 62
     0
 10
18702.01234958561
 20
19317.98625200033
 30
0.0
 40
15.0
 50
90.0
 51
270.0
  0
ARC
  5
10A52
  8
0
  6
BYBLOCK
 62
     0
 10
18702.01234958561
 20
19317.98625200033
 30
0.0
 40
15.0
 50
270.0
 51
90.0
  0
ARC
  5
10A53
  8
0
  6
BYBLOCK
 62
     0
 10
22362.011953585072
 20
13211.538167999999
 30
0.0
 40
15.0
 50
0.0
 51
180.0
  0
ARC
  5
10A54
  8
0
  6
BYBLOCK
 62
     0
 10
22362.011953585072
 20
13211.538167999999
 30
0.0
 40
15.0
 50
180.0
 51
0.0
  0
ARC
  5
10A55
  8
0
  6
BYBLOCK
 62
     0
 10
22404.514196585049
 20
13211.538167999999
 30
0.0
 40
15.0
 50
180.0
 51
0.0
  0
ARC
  5
10A56
  8
0
  6
BYBLOCK
 62
     0
 10
22404.514196585049
 20
13211.538167999999
 30
0.0
 40
15.0
 50
0.0
 51
180.0
  0
ARC
  5
10A57
  8
0
  6
BYBLOCK
 62
     0
 10
19794.51195358505
 20
13211.538168000239
 30
0.0
 40
15.0
 50
180.0
 51
0.0
  0
ARC
  5
10A58
  8
0
  6
BYBLOCK
 62
     0
 10
19794.51195358505
 20
13211.538168000239
 30
0.0
 40
15.0
 50
0.0
 51
180.0
  0
ARC
  5
10A59
  8
0
  6
BYBLOCK
 62
     0
 10
19752.009710585058
 20
13211.538168000239
 30
0.0
 40
15.0
 50
0.0
 51
180.0
  0
ARC
  5
10A5A
  8
0
  6
BYBLOCK
 62
     0
 10
19752.009710585058
 20
13211.538168000239
 30
0.0
 40
15.0
 50
180.0
 51
0.0
  0
ARC
  5
10A5B
  8
0
  6
BYBLOCK
 62
     0
 10
19794.51195358505
 20
13211.538168000239
 30
0.0
 40
15.0
 50
0.0
 51
180.0
  0
ARC
  5
10A5C
  8
0
  6
BYBLOCK
 62
     0
 10
19794.51195358505
 20
13211.538168000239
 30
0.0
 40
15.0
 50
180.0
 51
0.0
  0
ARC
  5
10A5D
  8
0
  6
BYBLOCK
 62
     0
 10
19837.01419658506
 20
13211.53816800023
 30
0.0
 40
15.0
 50
180.0
 51
0.0
  0
ARC
  5
10A5E
  8
0
  6
BYBLOCK
 62
     0
 10
19837.01419658506
 20
13211.53816800023
 30
0.0
 40
15.0
 50
0.0
 51
180.0
  0
ARC
  5
10A5F
  8
0
  6
BYBLOCK
 62
     0
 10
22362.011953585072
 20
13211.538167999999
 30
0.0
 40
15.0
 50
180.0
 51
0.0
  0
ARC
  5
10A60
  8
0
  6
BYBLOCK
 62
     0
 10
22362.011953585072
 20
13211.538167999999
 30
0.0
 40
15.0
 50
0.0
 51
180.0
  0
ARC
  5
10A61
  8
0
  6
BYBLOCK
 62
     0
 10
22319.509710585058
 20
13211.538167999999
 30
0.0
 40
15.0
 50
0.0
 51
180.0
  0
ARC
  5
10A62
  8
0
  6
BYBLOCK
 62
     0
 10
22319.509710585058
 20
13211.538167999999
 30
0.0
 40
15.0
 50
180.0
 51
0.0
  0
ARC
  5
10A63
  8
0
  6
BYBLOCK
 62
     0
 10
22404.514196585009
 20
12811.538167999999
 30
0.0
 40
15.0
 50
0.0
 51
180.0
  0
ARC
  5
10A64
  8
0
  6
BYBLOCK
 62
     0
 10
22404.514196585009
 20
12811.538167999999
 30
0.0
 40
15.0
 50
180.0
 51
0.0
  0
ARC
  5
10A65
  8
0
  6
BYBLOCK
 62
     0
 10
19752.009710585018
 20
12811.538168000239
 30
0.0
 40
15.0
 50
180.0
 51
0.0
  0
ARC
  5
10A66
  8
0
  6
BYBLOCK
 62
     0
 10
19752.009710585018
 20
12811.538168000239
 30
0.0
 40
15.0
 50
0.0
 51
180.0
  0
ARC
  5
10A67
  8
0
  6
BYBLOCK
 62
     0
 10
18702.012349585239
 20
15291.72676350035
 30
0.0
 40
15.0
 50
90.0
 51
270.0
  0
ARC
  5
10A68
  8
0
  6
BYBLOCK
 62
     0
 10
18702.012349585239
 20
15291.72676350035
 30
0.0
 40
15.0
 50
270.0
 51
90.0
  0
ARC
  5
10A69
  8
0
  6
BYBLOCK
 62
     0
 10
18702.01234958518
 20
14590.48625200033
 30
0.0
 40
15.0
 50
270.0
 51
90.0
  0
ARC
  5
10A6A
  8
0
  6
BYBLOCK
 62
     0
 10
18702.01234958518
 20
14590.48625200033
 30
0.0
 40
15.0
 50
90.0
 51
270.0
  0
ARC
  5
10A6B
  8
0
  6
BYBLOCK
 62
     0
 10
18702.0123495853
 20
15992.486252000341
 30
0.0
 40
15.0
 50
90.0
 51
270.0
  0
ARC
  5
10A6C
  8
0
  6
BYBLOCK
 62
     0
 10
18702.0123495853
 20
15992.486252000341
 30
0.0
 40
15.0
 50
270.0
 51
90.0
  0
ARC
  5
10A6D
  8
0
  6
BYBLOCK
 62
     0
 10
18702.012349585239
 20
15291.72676350035
 30
0.0
 40
15.0
 50
270.0
 51
90.0
  0
ARC
  5
10A6E
  8
0
  6
BYBLOCK
 62
     0
 10
18702.012349585239
 20
15291.72676350035
 30
0.0
 40
15.0
 50
90.0
 51
270.0
  0
ARC
  5
10A6F
  8
0
  6
BYBLOCK
 62
     0
 10
18702.01234958537
 20
16750.48625200033
 30
0.0
 40
15.0
 50
90.0
 51
270.0
  0
ARC
  5
10A70
  8
0
  6
BYBLOCK
 62
     0
 10
18702.01234958537
 20
16750.48625200033
 30
0.0
 40
15.0
 50
270.0
 51
90.0
  0
ARC
  5
10A71
  8
0
  6
BYBLOCK
 62
     0
 10
18702.0123495853
 20
15992.486252000341
 30
0.0
 40
15.0
 50
270.0
 51
90.0
  0
ARC
  5
10A72
  8
0
  6
BYBLOCK
 62
     0
 10
18702.0123495853
 20
15992.486252000341
 30
0.0
 40
15.0
 50
90.0
 51
270.0
  0
ARC
  5
10A73
  8
0
  6
BYBLOCK
 62
     0
 10
18702.012349585439
 20
17508.486252000319
 30
0.0
 40
15.0
 50
90.0
 51
270.0
  0
ARC
  5
10A74
  8
0
  6
BYBLOCK
 62
     0
 10
18702.012349585439
 20
17508.486252000319
 30
0.0
 40
15.0
 50
270.0
 51
90.0
  0
ARC
  5
10A75
  8
0
  6
BYBLOCK
 62
     0
 10
18702.01234958537
 20
16750.48625200033
 30
0.0
 40
15.0
 50
270.0
 51
90.0
  0
ARC
  5
10A76
  8
0
  6
BYBLOCK
 62
     0
 10
18702.01234958537
 20
16750.48625200033
 30
0.0
 40
15.0
 50
90.0
 51
270.0
  0
ARC
  5
10A77
  8
0
  6
BYBLOCK
 62
     0
 10
18702.012349585511
 20
18209.486252000319
 30
0.0
 40
15.0
 50
90.0
 51
270.0
  0
ARC
  5
10A78
  8
0
  6
BYBLOCK
 62
     0
 10
18702.012349585511
 20
18209.486252000319
 30
0.0
 40
15.0
 50
270.0
 51
90.0
  0
ARC
  5
10A79
  8
0
  6
BYBLOCK
 62
     0
 10
18702.012349585439
 20
17508.486252000319
 30
0.0
 40
15.0
 50
270.0
 51
90.0
  0
ARC
  5
10A7A
  8
0
  6
BYBLOCK
 62
     0
 10
18702.012349585439
 20
17508.486252000319
 30
0.0
 40
15.0
 50
90.0
 51
270.0
  0
ARC
  5
10A7B
  8
0
  6
BYBLOCK
 62
     0
 10
18702.01234958557
 20
18910.48625200033
 30
0.0
 40
15.0
 50
90.0
 51
270.0
  0
ARC
  5
10A7C
  8
0
  6
BYBLOCK
 62
     0
 10
18702.01234958557
 20
18910.48625200033
 30
0.0
 40
15.0
 50
270.0
 51
90.0
  0
ARC
  5
10A7D
  8
0
  6
BYBLOCK
 62
     0
 10
18702.012349585511
 20
18209.486252000319
 30
0.0
 40
15.0
 50
270.0
 51
90.0
  0
ARC
  5
10A7E
  8
0
  6
BYBLOCK
 62
     0
 10
18702.012349585511
 20
18209.486252000319
 30
0.0
 40
15.0
 50
90.0
 51
270.0
  0
ARC
  5
10A7F
  8
0
  6
BYBLOCK
 62
     0
 10
18702.01234958561
 20
19317.98625200033
 30
0.0
 40
15.0
 50
90.0
 51
270.0
  0
ARC
  5
10A80
  8
0
  6
BYBLOCK
 62
     0
 10
18702.01234958561
 20
19317.98625200033
 30
0.0
 40
15.0
 50
270.0
 51
90.0
  0
ARC
  5
10A81
  8
0
  6
BYBLOCK
 62
     0
 10
18702.01234958514
 20
14182.986252000341
 30
0.0
 40
15.0
 50
270.0
 51
90.0
  0
ARC
  5
10A82
  8
0
  6
BYBLOCK
 62
     0
 10
18702.01234958514
 20
14182.986252000341
 30
0.0
 40
15.0
 50
90.0
 51
270.0
  0
ARC
  5
10A83
  8
0
  6
BYBLOCK
 62
     0
 10
18302.01234958561
 20
19360.483547000382
 30
0.0
 40
15.0
 50
90.0
 51
270.0
  0
ARC
  5
10A84
  8
0
  6
BYBLOCK
 62
     0
 10
18302.01234958561
 20
19360.483547000382
 30
0.0
 40
15.0
 50
270.0
 51
90.0
  0
ARC
  5
10A85
  8
0
  6
BYBLOCK
 62
     0
 10
18302.012349585129
 20
14140.488957000371
 30
0.0
 40
15.0
 50
270.0
 51
90.0
  0
ARC
  5
10A86
  8
0
  6
BYBLOCK
 62
     0
 10
18302.012349585129
 20
14140.488957000371
 30
0.0
 40
15.0
 50
90.0
 51
270.0
  0
ARC
  5
10A87
  8
0
  6
BYBLOCK
 62
     0
 10
18702.01234958561
 20
19317.98625200033
 30
0.0
 40
15.0
 50
90.0
 51
270.0
  0
ARC
  5
10A88
  8
0
  6
BYBLOCK
 62
     0
 10
18702.01234958561
 20
19317.98625200033
 30
0.0
 40
15.0
 50
270.0
 51
90.0
  0
ARC
  5
10A89
  8
0
  6
BYBLOCK
 62
     0
 10
18702.01234958561
 20
19360.483547000342
 30
0.0
 40
15.0
 50
270.0
 51
90.0
  0
ARC
  5
10A8A
  8
0
  6
BYBLOCK
 62
     0
 10
18702.01234958561
 20
19360.483547000342
 30
0.0
 40
15.0
 50
90.0
 51
270.0
  0
ARC
  5
10A8B
  8
0
  6
BYBLOCK
 62
     0
 10
18702.01234958514
 20
14182.986252000341
 30
0.0
 40
15.0
 50
270.0
 51
90.0
  0
ARC
  5
10A8C
  8
0
  6
BYBLOCK
 62
     0
 10
18702.01234958514
 20
14182.986252000341
 30
0.0
 40
15.0
 50
90.0
 51
270.0
  0
ARC
  5
10A8D
  8
0
  6
BYBLOCK
 62
     0
 10
18702.012349585129
 20
14140.488957000331
 30
0.0
 40
15.0
 50
90.0
 51
270.0
  0
ARC
  5
10A8E
  8
0
  6
BYBLOCK
 62
     0
 10
18702.012349585129
 20
14140.488957000331
 30
0.0
 40
15.0
 50
270.0
 51
90.0
  0
ARC
  5
10A8F
  8
0
  6
BYBLOCK
 62
     0
 10
22362.011953585708
 20
20160.487175999991
 30
0.0
 40
15.0
 50
0.0
 51
180.0
  0
ARC
  5
10A90
  8
0
  6
BYBLOCK
 62
     0
 10
22362.011953585708
 20
20160.487175999991
 30
0.0
 40
15.0
 50
180.0
 51
0.0
  0
ARC
  5
10A91
  8
0
  6
BYBLOCK
 62
     0
 10
20202.011953585741
 20
20160.487176000031
 30
0.0
 40
15.0
 50
180.0
 51
0.000000000000007
  0
ARC
  5
10A92
  8
0
  6
BYBLOCK
 62
     0
 10
20202.011953585741
 20
20160.487176000031
 30
0.0
 40
15.0
 50
0.000000000000007
 51
180.0
  0
ARC
  5
10A93
  8
0
  6
BYBLOCK
 62
     0
 10
21604.011953585741
 20
20160.487176000159
 30
0.0
 40
15.0
 50
0.000000000000007
 51
180.0
  0
ARC
  5
10A94
  8
0
  6
BYBLOCK
 62
     0
 10
21604.011953585741
 20
20160.487176000159
 30
0.0
 40
15.0
 50
180.0
 51
0.000000000000007
  0
ARC
  5
10A95
  8
0
  6
BYBLOCK
 62
     0
 10
19794.510964085679
 20
20160.487176000232
 30
0.0
 40
15.0
 50
180.0
 51
0.0
  0
ARC
  5
10A96
  8
0
  6
BYBLOCK
 62
     0
 10
19794.510964085679
 20
20160.487176000232
 30
0.0
 40
15.0
 50
0.0
 51
180.0
  0
ARC
  5
10A97
  8
0
  6
BYBLOCK
 62
     0
 10
20903.011953585741
 20
20160.487176000101
 30
0.0
 40
15.0
 50
0.000000000000007
 51
180.0
  0
ARC
  5
10A98
  8
0
  6
BYBLOCK
 62
     0
 10
20903.011953585741
 20
20160.487176000101
 30
0.0
 40
15.0
 50
180.0
 51
0.000000000000007
  0
ARC
  5
10A99
  8
0
  6
BYBLOCK
 62
     0
 10
21604.011953585741
 20
20160.487176000159
 30
0.0
 40
15.0
 50
180.0
 51
0.000000000000007
  0
ARC
  5
10A9A
  8
0
  6
BYBLOCK
 62
     0
 10
21604.011953585741
 20
20160.487176000159
 30
0.0
 40
15.0
 50
0.000000000000007
 51
180.0
  0
ARC
  5
10A9B
  8
0
  6
BYBLOCK
 62
     0
 10
20202.011953585741
 20
20160.487176000031
 30
0.0
 40
15.0
 50
0.000000000000007
 51
180.0
  0
ARC
  5
10A9C
  8
0
  6
BYBLOCK
 62
     0
 10
20202.011953585741
 20
20160.487176000031
 30
0.0
 40
15.0
 50
180.0
 51
0.000000000000007
  0
ARC
  5
10A9D
  8
0
  6
BYBLOCK
 62
     0
 10
20903.011953585741
 20
20160.487176000101
 30
0.0
 40
15.0
 50
180.0
 51
0.000000000000007
  0
ARC
  5
10A9E
  8
0
  6
BYBLOCK
 62
     0
 10
20903.011953585741
 20
20160.487176000101
 30
0.0
 40
15.0
 50
0.000000000000007
 51
180.0
  0
ARC
  5
10A9F
  8
0
  6
BYBLOCK
 62
     0
 10
19794.51195358569
 20
20160.487176000232
 30
0.0
 40
15.0
 50
180.0
 51
0.0
  0
ARC
  5
10AA0
  8
0
  6
BYBLOCK
 62
     0
 10
19794.51195358569
 20
20160.487176000232
 30
0.0
 40
15.0
 50
0.0
 51
180.0
  0
ARC
  5
10AA1
  8
0
  6
BYBLOCK
 62
     0
 10
19752.015648585701
 20
20160.487176000232
 30
0.0
 40
15.0
 50
0.0
 51
180.0
  0
ARC
  5
10AA2
  8
0
  6
BYBLOCK
 62
     0
 10
19752.015648585701
 20
20160.487176000232
 30
0.0
 40
15.0
 50
180.0
 51
0.0
  0
ARC
  5
10AA3
  8
0
  6
BYBLOCK
 62
     0
 10
22362.011953585708
 20
20160.487175999991
 30
0.0
 40
15.0
 50
0.0
 51
180.0
  0
ARC
  5
10AA4
  8
0
  6
BYBLOCK
 62
     0
 10
22362.011953585708
 20
20160.487175999991
 30
0.0
 40
15.0
 50
180.0
 51
0.0
  0
ARC
  5
10AA5
  8
0
  6
BYBLOCK
 62
     0
 10
22404.50825858572
 20
20160.487175999991
 30
0.0
 40
15.0
 50
180.0
 51
0.0
  0
ARC
  5
10AA6
  8
0
  6
BYBLOCK
 62
     0
 10
22404.50825858572
 20
20160.487175999991
 30
0.0
 40
15.0
 50
0.0
 51
180.0
  0
LINE
  5
10AA7
  8
2-0
  6
CONTINUOUS
 62
     6
 10
19915.24591023667
 20
18968.399069970681
 30
0.0
 11
20940.278242236662
 21
18968.399069970768
 31
0.0
  0
LINE
  5
10AA8
  8
2-0
  6
CONTINUOUS
 62
     6
 10
21445.981046585821
 20
19252.17517800014
 30
0.0
 11
20940.278242236662
 21
18968.399069970768
 31
0.0
  0
LINE
  5
10AA9
  8
2-0
  6
CONTINUOUS
 62
     6
 10
21432.924141585841
 20
19275.434522000141
 30
0.0
 11
21585.511372585839
 21
19330.480974000169
 31
0.0
  0
LINE
  5
10AAA
  8
2-0
  6
CONTINUOUS
 62
     6
 10
21585.511372585839
 20
19330.480974000169
 30
0.0
 11
21459.030032585852
 21
19228.9217740001
 31
0.0
  0
LINE
  5
10AAB
  8
2-0
  6
CONTINUOUS
 62
     6
 10
21432.924141585841
 20
19275.434522000141
 30
0.0
 11
21459.030032585852
 21
19228.9217740001
 31
0.0
  0
LINE
  5
10AAC
  8
2-0
  6
CONTINUOUS
 62
     6
 10
21459.030032585852
 20
19228.9217740001
 30
0.0
 11
21585.511372585839
 21
19330.480974000169
 31
0.0
  0
LINE
  5
10AAD
  8
2-0
  6
CONTINUOUS
 62
     6
 10
21585.511372585839
 20
19330.480974000169
 30
0.0
 11
21432.924141585841
 21
19275.434522000141
 31
0.0
  0
LINE
  5
10AAE
  8
2-0
  6
CONTINUOUS
 62
     6
 10
21432.924141585841
 20
19275.434522000141
 30
0.0
 11
21585.511372585839
 21
19330.480974000169
 31
0.0
  0
LINE
  5
10AAF
  8
2-0
  6
CONTINUOUS
 62
     6
 10
21459.030032585852
 20
19228.9217740001
 30
0.0
 11
21585.511372585839
 21
19330.480974000169
 31
0.0
  0
LINE
  5
10AB0
  8
2-0
  6
CONTINUOUS
 62
     6
 10
21459.030032585852
 20
19228.9217740001
 30
0.0
 11
21432.924141585841
 21
19275.434522000141
 31
0.0
  0
LINE
  5
10B99
  8
0-1
  6
CONTINUOUS
 62
     3
 10
19816.006397585159
 20
8132.6883740000021
 30
0.0
 11
22298.509828585142
 21
8132.6883740000021
 31
0.0
  0
LINE
  5
10B9A
  8
0-1
  6
CONTINUOUS
 62
     3
 10
19816.006397585159
 20
8326.1887430000061
 30
0.0
 11
22298.509828585142
 21
8326.1887430000061
 31
0.0
  0
LINE
  5
10B9B
  8
0-1
  6
CONTINUOUS
 62
     3
 10
19688.01009258514
 20
8264.002661999999
 30
0.0
 11
19688.01009258514
 21
8589.6883999999973
 31
0.0
  0
LINE
  5
10B9C
  8
0-1
  6
CONTINUOUS
 62
     3
 10
22383.508377585142
 20
8459.6884660000014
 30
0.0
 11
19688.01009258514
 21
8459.6884660000014
 31
0.0
  0
LINE
  5
10B9D
  8
0-1
  6
CONTINUOUS
 62
     3
 10
19688.01009258514
 20
8589.6883999999973
 30
0.0
 11
22363.511280585139
 21
8589.6883999999973
 31
0.0
  0
LINE
  5
10B9E
  8
0-1
  6
CONTINUOUS
 62
     3
 10
22391.008773585148
 20
6241.1883740000039
 30
0.0
 11
22291.009432585161
 21
6241.1883740000039
 31
0.0
  0
LINE
  5
10B9F
  8
0-1
  6
CONTINUOUS
 62
     3
 10
22291.009432585161
 20
6241.1883740000039
 30
0.0
 11
22291.009432585161
 21
6141.1885390000007
 31
0.0
  0
LINE
  5
10BA0
  8
0-1
  6
CONTINUOUS
 62
     3
 10
22391.008773585148
 20
6141.1885390000007
 30
0.0
 11
22391.008773585148
 21
6241.1883740000039
 31
0.0
  0
LINE
  5
10BA1
  8
0-1
  6
CONTINUOUS
 62
     3
 10
22298.509828585142
 20
8459.6884660000014
 30
0.0
 11
22298.509828585142
 21
6241.1883740000039
 31
0.0
  0
LINE
  5
10BA2
  8
0-1
  6
CONTINUOUS
 62
     3
 10
22247.01009258514
 20
8132.6883740000021
 30
0.0
 11
22247.01009258514
 21
6141.1885390000007
 31
0.0
  0
LINE
  5
10BA3
  8
0-1
  6
CONTINUOUS
 62
     3
 10
22363.511280585139
 20
8589.6883999999973
 30
0.0
 11
22363.511280585139
 21
6241.1883740000039
 31
0.0
  0
LINE
  5
10BA4
  8
0-1
  6
CONTINUOUS
 62
     3
 10
22383.510092585158
 20
8459.6884660000014
 30
0.0
 11
22383.510092585158
 21
6241.1883740000039
 31
0.0
  0
LINE
  5
10BA5
  8
0-1
  6
CONTINUOUS
 62
     3
 10
19688.01009258514
 20
8264.002661999999
 30
0.0
 11
19731.01009258514
 21
8264.002661999999
 31
0.0
  0
LINE
  5
10BA6
  8
0-1
  6
CONTINUOUS
 62
     3
 10
19723.50745358516
 20
6241.1883740000039
 30
0.0
 11
19823.506793585158
 21
6241.1883740000039
 31
0.0
  0
LINE
  5
10BA7
  8
0-1
  6
CONTINUOUS
 62
     3
 10
19823.506793585158
 20
6241.1883740000039
 30
0.0
 11
19823.506793585158
 21
6141.1885390000007
 31
0.0
  0
LINE
  5
10BA8
  8
0-1
  6
CONTINUOUS
 62
     3
 10
19723.50745358516
 20
6141.1885390000007
 30
0.0
 11
19723.50745358516
 21
6241.1883740000039
 31
0.0
  0
LINE
  5
10BA9
  8
0-1
  6
CONTINUOUS
 62
     3
 10
19867.51009258514
 20
8132.6883740000021
 30
0.0
 11
19867.51009258514
 21
6141.1885390000007
 31
0.0
  0
LINE
  5
10BAA
  8
0-1
  6
CONTINUOUS
 62
     3
 10
19816.006397585159
 20
8459.6884660000014
 30
0.0
 11
19816.006397585159
 21
6241.1883740000039
 31
0.0
  0
LINE
  5
10BAB
  8
0-1
  6
CONTINUOUS
 62
     3
 10
19751.006925585149
 20
8589.6883999999973
 30
0.0
 11
19751.006925585149
 21
6241.1883740000039
 31
0.0
  0
LINE
  5
10BAC
  8
0-1
  6
CONTINUOUS
 62
     3
 10
19731.01009258514
 20
8459.6884660000014
 30
0.0
 11
19731.01009258514
 21
6241.1883740000039
 31
0.0
  0
LINE
  5
10BAD
  8
0-1
  6
CONTINUOUS
 62
     3
 10
19867.51009258514
 20
6661.1892649999991
 30
0.0
 11
22247.01009258514
 21
6661.1892649999991
 31
0.0
  0
LINE
  5
10BAE
  8
0-1
  6
CONTINUOUS
 62
     3
 10
19867.51009258514
 20
6596.1888030000027
 30
0.0
 11
22247.01009258514
 21
6596.1888030000027
 31
0.0
  0
LINE
  5
10BAF
  8
0-1
  6
CONTINUOUS
 62
     3
 10
19867.51009258514
 20
6531.1888360000003
 30
0.0
 11
22247.01009258514
 21
6531.1888360000003
 31
0.0
  0
LINE
  5
10BB0
  8
0-1
  6
CONTINUOUS
 62
     3
 10
19867.51009258514
 20
6466.1883740000039
 30
0.0
 11
22247.01009258514
 21
6466.1883740000039
 31
0.0
  0
LINE
  5
10BB1
  8
0-1
  6
CONTINUOUS
 62
     3
 10
19867.51009258514
 20
6401.1889020000099
 30
0.0
 11
22247.01009258514
 21
6401.1889020000099
 31
0.0
  0
LINE
  5
10BB2
  8
0-1
  6
CONTINUOUS
 62
     3
 10
19867.51009258514
 20
6336.1889350000047
 30
0.0
 11
22247.01009258514
 21
6336.1889350000047
 31
0.0
  0
LINE
  5
10BB3
  8
0-1
  6
CONTINUOUS
 62
     3
 10
19867.51009258514
 20
6271.188968000004
 30
0.0
 11
22247.01009258514
 21
6271.188968000004
 31
0.0
  0
LINE
  5
10BB4
  8
0-1
  6
CONTINUOUS
 62
     3
 10
19867.51009258514
 20
6206.1885060000041
 30
0.0
 11
22247.01009258514
 21
6206.1885060000041
 31
0.0
  0
LINE
  5
10BB5
  8
0-1
  6
CONTINUOUS
 62
     3
 10
19867.51009258514
 20
8026.1885720000046
 30
0.0
 11
22247.01009258514
 21
8026.1885720000046
 31
0.0
  0
LINE
  5
10BB6
  8
0-1
  6
CONTINUOUS
 62
     3
 10
19867.51009258514
 20
7961.1886050000021
 30
0.0
 11
22247.01009258514
 21
7961.1886050000021
 31
0.0
  0
LINE
  5
10BB7
  8
0-1
  6
CONTINUOUS
 62
     3
 10
19867.51009258514
 20
7896.189133000008
 30
0.0
 11
22247.01009258514
 21
7896.189133000008
 31
0.0
  0
LINE
  5
10BB8
  8
0-1
  6
CONTINUOUS
 62
     3
 10
19867.51009258514
 20
7831.1891659999937
 30
0.0
 11
22247.01009258514
 21
7831.1891659999937
 31
0.0
  0
LINE
  5
10BB9
  8
0-1
  6
CONTINUOUS
 62
     3
 10
19867.51009258514
 20
7766.1891990000067
 30
0.0
 11
22247.01009258514
 21
7766.1891990000067
 31
0.0
  0
LINE
  5
10BBA
  8
0-1
  6
CONTINUOUS
 62
     3
 10
19867.51009258514
 20
7701.188737000004
 30
0.0
 11
22247.01009258514
 21
7701.188737000004
 31
0.0
  0
LINE
  5
10BBB
  8
0-1
  6
CONTINUOUS
 62
     3
 10
19867.51009258514
 20
7636.1887700000007
 30
0.0
 11
22247.01009258514
 21
7636.1887700000007
 31
0.0
  0
LINE
  5
10BBC
  8
0-1
  6
CONTINUOUS
 62
     3
 10
19867.51009258514
 20
7571.1892980000039
 30
0.0
 11
22247.01009258514
 21
7571.1892980000039
 31
0.0
  0
LINE
  5
10BBD
  8
0-1
  6
CONTINUOUS
 62
     3
 10
19867.51009258514
 20
7506.1893309999996
 30
0.0
 11
22247.01009258514
 21
7506.1893309999996
 31
0.0
  0
LINE
  5
10BBE
  8
0-1
  6
CONTINUOUS
 62
     3
 10
19867.51009258514
 20
7441.1888690000042
 30
0.0
 11
22247.01009258514
 21
7441.1888690000042
 31
0.0
  0
LINE
  5
10BBF
  8
0-1
  6
CONTINUOUS
 62
     3
 10
19867.51009258514
 20
7376.1889020000008
 30
0.0
 11
22247.01009258514
 21
7376.1889020000008
 31
0.0
  0
LINE
  5
10BC0
  8
0-1
  6
CONTINUOUS
 62
     3
 10
19867.51009258514
 20
7311.1889350000047
 30
0.0
 11
22247.01009258514
 21
7311.1889350000047
 31
0.0
  0
LINE
  5
10BC1
  8
0-1
  6
CONTINUOUS
 62
     3
 10
19867.51009258514
 20
7246.1884730000011
 30
0.0
 11
22247.01009258514
 21
7246.1884730000011
 31
0.0
  0
LINE
  5
10BC2
  8
0-1
  6
CONTINUOUS
 62
     3
 10
19867.51009258514
 20
7181.1885059999986
 30
0.0
 11
22247.01009258514
 21
7181.1885059999986
 31
0.0
  0
LINE
  5
10BC3
  8
0-1
  6
CONTINUOUS
 62
     3
 10
19867.51009258514
 20
7116.1890340000009
 30
0.0
 11
22247.01009258514
 21
7116.1890340000009
 31
0.0
  0
LINE
  5
10BC4
  8
0-1
  6
CONTINUOUS
 62
     3
 10
19867.51009258514
 20
7051.1890669999993
 30
0.0
 11
22247.01009258514
 21
7051.1890669999993
 31
0.0
  0
LINE
  5
10BC5
  8
0-1
  6
CONTINUOUS
 62
     3
 10
19867.51009258514
 20
6986.1891000000032
 30
0.0
 11
22247.01009258514
 21
6986.1891000000032
 31
0.0
  0
LINE
  5
10BC6
  8
0-1
  6
CONTINUOUS
 62
     3
 10
19867.51009258514
 20
6921.1886380000069
 30
0.0
 11
22247.01009258514
 21
6921.1886380000069
 31
0.0
  0
LINE
  5
10BC7
  8
0-1
  6
CONTINUOUS
 62
     3
 10
19867.51009258514
 20
6856.1886710000044
 30
0.0
 11
22247.01009258514
 21
6856.1886710000044
 31
0.0
  0
LINE
  5
10BC8
  8
0-1
  6
CONTINUOUS
 62
     3
 10
19867.51009258514
 20
6791.1891990000004
 30
0.0
 11
22247.01009258514
 21
6791.1891990000004
 31
0.0
  0
LINE
  5
10BC9
  8
0-1
  6
CONTINUOUS
 62
     3
 10
19867.51009258514
 20
6726.1892320000024
 30
0.0
 11
22247.01009258514
 21
6726.1892320000024
 31
0.0
  0
LINE
  5
10BCA
  8
0-1
  6
CONTINUOUS
 62
     3
 10
19867.51009258514
 20
8080.6485920000023
 30
0.0
 11
22247.01009258514
 21
8080.6485920000023
 31
0.0
  0
LINE
  5
10BCB
  8
0-1
  6
CONTINUOUS
 62
     3
 10
19723.50745358516
 20
6141.1885390000007
 30
0.0
 11
27952.488468710359
 21
6141.1885390000007
 31
0.0
  0
LINE
  5
10BCC
  8
0-1
  6
CONTINUOUS
 62
     3
 10
19842.009353585159
 20
8335.1891199999991
 30
0.0
 11
20119.43888358515
 21
8335.1891199999991
 31
0.0
  0
LINE
  5
10BCD
  8
0-1
  6
CONTINUOUS
 62
     3
 10
19842.009353585159
 20
8377.188565000004
 30
0.0
 11
20151.435821585172
 21
8377.188565000004
 31
0.0
  0
LINE
  5
10BCE
  8
0-1
  6
CONTINUOUS
 62
     3
 10
19837.00909058515
 20
8340.1888889999973
 30
0.0
 11
19837.00909058515
 21
8372.1892910000024
 31
0.0
  0
LINE
  5
10BCF
  8
0-1
  6
CONTINUOUS
 62
     3
 10
19816.006397585159
 20
8386.1884469999968
 30
0.0
 11
22298.509828585142
 21
8386.1884469999968
 31
0.0
  0
LINE
  5
10BD0
  8
0-1
  6
CONTINUOUS
 62
     3
 10
20122.972323585149
 20
8336.6529740000005
 30
0.0
 11
20154.97322158514
 21
8368.653376000002
 31
0.0
  0
LINE
  5
10BD1
  8
0-1
  6
CONTINUOUS
 62
     3
 10
19837.00909058515
 20
8368.7889730000024
 30
0.0
 11
20155.101889585141
 21
8368.7889730000024
 31
0.0
  0
LINE
  5
10BD2
  8
0-1
  6
CONTINUOUS
 62
     3
 10
19837.00909058515
 20
8360.3888860000006
 30
0.0
 11
20146.70873158516
 21
8360.3888860000006
 31
0.0
  0
LINE
  5
10BD3
  8
0-1
  6
CONTINUOUS
 62
     3
 10
19837.00909058515
 20
8351.9892940000045
 30
0.0
 11
20138.309633585159
 21
8351.9892940000045
 31
0.0
  0
LINE
  5
10BD4
  8
0-1
  6
CONTINUOUS
 62
     3
 10
19837.00909058515
 20
8343.5892070000064
 30
0.0
 11
20129.90657758516
 21
8343.5892070000064
 31
0.0
  0
LINE
  5
10BD5
  8
0-1
  6
CONTINUOUS
 62
     3
 10
22277.509116585141
 20
8368.7889730000024
 30
0.0
 11
21959.416316585161
 21
8368.7889730000024
 31
0.0
  0
LINE
  5
10BD6
  8
0-1
  6
CONTINUOUS
 62
     3
 10
22277.509116585141
 20
8360.3888860000006
 30
0.0
 11
21967.811454585149
 21
8360.3888860000006
 31
0.0
  0
LINE
  5
10BD7
  8
0-1
  6
CONTINUOUS
 62
     3
 10
22277.509116585141
 20
8351.9892940000045
 30
0.0
 11
21976.21055158514
 21
8351.9892940000045
 31
0.0
  0
LINE
  5
10BD8
  8
0-1
  6
CONTINUOUS
 62
     3
 10
22277.509116585141
 20
8343.5892070000064
 30
0.0
 11
21984.609649585142
 21
8343.5892070000064
 31
0.0
  0
LINE
  5
10BD9
  8
0-1
  6
CONTINUOUS
 62
     3
 10
22272.508852585139
 20
8377.188565000004
 30
0.0
 11
21963.082384585141
 21
8377.188565000004
 31
0.0
  0
LINE
  5
10BDA
  8
0-1
  6
CONTINUOUS
 62
     3
 10
22272.508852585139
 20
8335.1891199999991
 30
0.0
 11
21995.079323585142
 21
8335.1891199999991
 31
0.0
  0
LINE
  5
10BDB
  8
0-1
  6
CONTINUOUS
 62
     3
 10
22277.509116585141
 20
8340.1888889999973
 30
0.0
 11
22277.509116585141
 21
8372.1892910000024
 31
0.0
  0
LINE
  5
10BDC
  8
0-1
  6
CONTINUOUS
 62
     3
 10
21991.543902585159
 20
8336.6529740000005
 30
0.0
 11
21959.546964585159
 21
8368.653376000002
 31
0.0
  0
LINE
  5
10BDD
  8
0-2
  6
CONTINUOUS
 62
     4
 10
21420.948133085181
 20
6888.4152329999979
 30
0.0
 11
21320.948793085168
 21
6888.4152329999979
 31
0.0
  0
LINE
  5
10BDE
  8
0-2
  6
CONTINUOUS
 62
     4
 10
20693.564133085139
 20
6888.4152329999979
 30
0.0
 11
20793.563473085149
 21
6888.4152329999979
 31
0.0
  0
LINE
  5
10BDF
  8
0-5
  6
CONTINUOUS
 62
     4
 10
22341.010092585158
 20
4461.1889349999938
 30
0.0
 11
22341.010092585158
 21
4301.1893970000001
 31
0.0
  0
LINE
  5
10BE0
  8
0-5
  6
CONTINUOUS
 62
     4
 10
19773.51009258514
 20
4461.1889349999938
 30
0.0
 11
19773.51009258514
 21
4301.1893970000001
 31
0.0
  0
LINE
  5
10BE1
  8
2-0
  6
CENTER2
 62
     6
 10
22341.010092585158
 20
5878.536116000002
 30
0.0
 11
22341.010092585158
 21
6915.6791430000003
 31
0.0
  0
LINE
  5
10BE2
  8
2-0
  6
CENTER2
 62
     6
 10
19773.51009258514
 20
5878.536116000002
 30
0.0
 11
19773.51009258514
 21
6915.6791430000003
 31
0.0
  0
ARC
  5
10BE3
  8
0-1
  6
CONTINUOUS
 62
     3
 10
19842.009353585159
 20
8372.1892910000024
 30
0.0
 40
5.0
 50
90.0
 51
180.0
  0
ARC
  5
10BE4
  8
0-1
  6
CONTINUOUS
 62
     3
 10
19842.009353585159
 20
8340.1888889999973
 30
0.0
 40
5.0
 50
180.0
 51
269.9999850001808
  0
ARC
  5
10BE5
  8
0-1
  6
CONTINUOUS
 62
     3
 10
20119.43888358515
 20
8340.1888889999973
 30
0.0
 40
5.0
 50
269.9999850001808
 51
314.99998500027471
  0
ARC
  5
10BE6
  8
0-1
  6
CONTINUOUS
 62
     3
 10
20151.435821585172
 20
8372.1892910000024
 30
0.0
 40
5.0
 50
314.99998500027471
 51
90.0
  0
ARC
  5
10BE7
  8
0-1
  6
CONTINUOUS
 62
     3
 10
22272.508852585139
 20
8340.1888889999973
 30
0.0
 40
5.0
 50
269.9999850001808
 51
0.0
  0
ARC
  5
10BE8
  8
0-1
  6
CONTINUOUS
 62
     3
 10
22272.508852585139
 20
8372.1892910000024
 30
0.0
 40
5.0
 50
0.0
 51
90.0
  0
ARC
  5
10BE9
  8
0-1
  6
CONTINUOUS
 62
     3
 10
21963.082384585141
 20
8372.1892910000024
 30
0.0
 40
5.0
 50
90.0
 51
224.99998499997989
  0
ARC
  5
10BEA
  8
0-1
  6
CONTINUOUS
 62
     3
 10
21995.079323585142
 20
8340.1888889999973
 30
0.0
 40
5.0
 50
224.99998499997989
 51
269.9999850001808
  0
CIRCLE
  5
10BEB
  8
0-5
  6
CONTINUOUS
 62
     4
 10
22341.010092585158
 20
4101.1882420000011
 30
0.0
 40
199.9999949999999
  0
CIRCLE
  5
10BEC
  8
0-5
  6
CONTINUOUS
 62
     4
 10
19773.51009258514
 20
4101.1882420000011
 30
0.0
 40
199.9999949999999
  0
TEXT
  5
10BED
  8
0-5
  6
CONTINUOUS
 62
     7
 10
22289.097217585149
 20
4011.7132600000032
 30
0.0
 40
160.0
  1
2
 72
     4
 11
22342.430550918481
 21
4091.7132600000032
 31
0.0
  0
TEXT
  5
10BEE
  8
0-5
  6
CONTINUOUS
 62
     7
 10
19178.475259689309
 20
7195.3690974935462
 30
0.0
 40
160.0
  1
(2131.5)
 50
90.0
 72
     4
 11
19098.475259689309
 21
7648.7024308268801
 31
0.0
  0
TEXT
  5
10BEF
  8
0-5
  6
CONTINUOUS
 62
     7
 10
19746.843425918469
 20
4021.1882420000002
 30
0.0
 40
160.0
  1
1
 72
     4
 11
19773.51009258514
 21
4101.1882420000011
 31
0.0
  0
CIRCLE
  5
10BF0
  8
0-4
  6
CONTINUOUS
 62
     4
 10
21057.25811308518
 20
6627.2449749999987
 30
0.0
 40
18.487504999999981
  0
LINE
  5
10BF1
  8
1-前柱カバ-P
 10
27298.510092585158
 20
8459.6884660000014
 30
0.0
 11
27298.510092585158
 21
6141.1885390000007
 31
0.0
  0
LINE
  5
10BF2
  8
1-前柱カバ-P
 10
27383.510092585158
 20
8589.6883999999973
 30
0.0
 11
27383.510092585158
 21
6141.1885390000007
 31
0.0
  0
LINE
  5
10BF3
  8
0-1
  6
CONTINUOUS
 62
     3
 10
27426.510092585158
 20
8459.6884660000087
 30
0.0
 11
22298.509828585142
 21
8459.6884660000014
 31
0.0
  0
LINE
  5
10BF4
  8
0-1
  6
CONTINUOUS
 62
     3
 10
22363.511280585139
 20
8589.6883999999973
 30
0.0
 11
27426.510092585158
 21
8589.6883999999973
 31
0.0
  0
LINE
  5
10BF5
  8
0-1
  6
CONTINUOUS
 62
     3
 10
27426.510092585158
 20
8264.0026620000026
 30
0.0
 11
27426.510092585158
 21
8589.6883999999973
 31
0.0
  0
LINE
  5
10BF6
  8
0-1
  6
CONTINUOUS
 62
     3
 10
27426.510092585158
 20
8264.0026620000026
 30
0.0
 11
27383.510092585158
 21
8264.0026620000026
 31
0.0
  0
LINE
  5
10BF7
  8
2-0
  6
CENTER2
 62
     6
 10
27341.010092585158
 20
5878.536116000002
 30
0.0
 11
27341.010092585158
 21
6915.6791430000003
 31
0.0
  0
LINE
  5
10BF8
  8
1-桁前P28
 10
27298.510092585158
 20
8262.0026620000026
 30
0.0
 11
22383.510092585158
 21
8262.0026620000026
 31
0.0
  0
LINE
  5
10BF9
  8
0-5
  6
CONTINUOUS
 62
     4
 10
27341.010092585151
 20
4461.1889349999938
 30
0.0
 11
27341.010092585158
 21
4301.1893970000001
 31
0.0
  0
CIRCLE
  5
10BFA
  8
0-5
  6
CONTINUOUS
 62
     4
 10
27341.010092585158
 20
4101.1882420000011
 30
0.0
 40
199.9999949999999
  0
TEXT
  5
10BFB
  8
0-5
  6
CONTINUOUS
 62
     7
 10
27289.097217585171
 20
4011.7132600000032
 30
0.0
 40
160.0
  1
3
 72
     4
 11
27342.4305509185
 21
4091.7132600000032
 31
0.0
  0
TEXT
  5
10BFC
  8
0-5
  6
CONTINUOUS
 62
     7
 10
28793.78350191456
 20
7236.7986436106039
 30
0.0
 40
160.0
  1
(2260)
 50
90.0
 72
     4
 11
28713.78350191456
 21
7623.4653102772709
 31
0.0
  0
LINE
  5
10BFD
  8
SUNPOU
  6
CONTINUOUS
 62
     4
 10
19688.01009258514
 20
8669.6883999999991
 30
0.0
 11
19688.01009258514
 21
9869.1329740000092
 31
0.0
  0
LINE
  5
10BFE
  8
SUNPOU
  6
CONTINUOUS
 62
     4
 10
27426.510092585158
 20
8669.6883999999991
 30
0.0
 11
27426.510092585158
 21
9869.1329740000092
 31
0.0
  0
LINE
  5
10BFF
  8
SUNPOU
  6
CONTINUOUS
 62
     4
 10
19691.01009258514
 20
9789.1329740000092
 30
0.0
 11
27423.510092585158
 21
9789.1329740000092
 31
0.0
  0
LINE
  5
10C00
  8
SUNPOU
  6
CONTINUOUS
 62
     4
 10
27383.510092585158
 20
8669.6883999999991
 30
0.0
 11
27383.510092585158
 21
9469.1900500000029
 31
0.0
  0
LINE
  5
10C01
  8
SUNPOU
  6
CONTINUOUS
 62
     4
 10
27426.510092585158
 20
8669.6883999999991
 30
0.0
 11
27426.510092585158
 21
9469.1900500000029
 31
0.0
  0
LINE
  5
10C02
  8
SUNPOU
  6
CONTINUOUS
 62
     4
 10
27383.510092585158
 20
9389.1900499999992
 30
0.0
 11
27143.510092585158
 21
9389.1900499999992
 31
0.0
  0
LINE
  5
10C03
  8
SUNPOU
  6
CONTINUOUS
 62
     4
 10
27423.510092585158
 20
9389.1900499999992
 30
0.0
 11
27663.510092585158
 21
9389.1900499999992
 31
0.0
  0
LINE
  5
10C04
  8
SUNPOU
  6
CONTINUOUS
 62
     4
 10
27383.510092585158
 20
9389.1900499999992
 30
0.0
 11
27423.510092585158
 21
9389.1900499999992
 31
0.0
  0
LINE
  5
10C05
  8
SUNPOU
  6
CONTINUOUS
 62
     4
 10
19731.01009258514
 20
8539.6884659999996
 30
0.0
 11
19731.01009258514
 21
9469.1900500000029
 31
0.0
  0
LINE
  5
10C06
  8
SUNPOU
  6
CONTINUOUS
 62
     4
 10
19731.01009258514
 20
9389.1900499999992
 30
0.0
 11
19971.01009258514
 21
9389.1900499999992
 31
0.0
  0
LINE
  5
10C07
  8
SUNPOU
  6
CONTINUOUS
 62
     4
 10
19691.01009258514
 20
9389.1900499999992
 30
0.0
 11
19451.01009258514
 21
9389.1900499999992
 31
0.0
  0
LINE
  5
10C08
  8
SUNPOU
  6
CONTINUOUS
 62
     4
 10
19731.01009258514
 20
9389.1900499999992
 30
0.0
 11
19691.01009258514
 21
9389.1900499999992
 31
0.0
  0
LINE
  5
10C09
  8
SUNPOU
  6
CONTINUOUS
 62
     4
 10
22383.510092585158
 20
8539.6884659999996
 30
0.0
 11
22383.510092585158
 21
9469.1900500000029
 31
0.0
  0
LINE
  5
10C0A
  8
SUNPOU
  6
CONTINUOUS
 62
     4
 10
19731.01009258514
 20
8539.6884659999996
 30
0.0
 11
19731.01009258514
 21
9469.1900500000029
 31
0.0
  0
LINE
  5
10C0B
  8
SUNPOU
  6
CONTINUOUS
 62
     4
 10
22383.510092585158
 20
9389.1900499999992
 30
0.0
 11
19731.01009258514
 21
9389.1900499999992
 31
0.0
  0
LINE
  5
10C0C
  8
SUNPOU
  6
CONTINUOUS
 62
     4
 10
19643.50745358516
 20
6241.1883740000039
 30
0.0
 11
18200.407841880431
 21
6241.1883740000039
 31
0.0
  0
LINE
  5
10C0D
  8
SUNPOU
  6
CONTINUOUS
 62
     4
 10
19611.01009258514
 20
8590.1883999999991
 30
0.0
 11
18200.407841880431
 21
8590.1883999999991
 31
0.0
  0
LINE
  5
10C0E
  8
SUNPOU
  6
CONTINUOUS
 62
     4
 10
18280.407841880431
 20
6241.1883740000039
 30
0.0
 11
18280.407841880431
 21
8590.1883999999991
 31
0.0
  0
LINE
  5
10C0F
  8
SUNPOU
  6
CONTINUOUS
 62
     4
 10
19643.50745358516
 20
6241.1883740000039
 30
0.0
 11
18843.50679358514
 21
6241.1883740000039
 31
0.0
  0
LINE
  5
10C10
  8
SUNPOU
  6
CONTINUOUS
 62
     4
 10
19736.006397585159
 20
8132.6883740000021
 30
0.0
 11
18843.50679358514
 21
8132.6883740000021
 31
0.0
  0
LINE
  5
10C11
  8
SUNPOU
  6
CONTINUOUS
 62
     4
 10
18923.506793585158
 20
6241.1883740000039
 30
0.0
 11
18923.506793585158
 21
8132.6883740000021
 31
0.0
  0
LINE
  5
10C12
  8
SUNPOU
  6
CONTINUOUS
 62
     4
 10
22386.510092585158
 20
6161.1883740000021
 30
0.0
 11
22386.510092585158
 21
5261.1883740000039
 31
0.0
  0
LINE
  5
10C13
  8
SUNPOU
  6
CONTINUOUS
 62
     4
 10
27298.510092585158
 20
6061.1885390000034
 30
0.0
 11
27298.510092585158
 21
5261.1883740000039
 31
0.0
  0
LINE
  5
10C14
  8
SUNPOU
  6
CONTINUOUS
 62
     4
 10
22386.510092585158
 20
5341.1883740000048
 30
0.0
 11
27298.510092585158
 21
5341.1883740000048
 31
0.0
  0
LINE
  5
10C15
  8
SUNPOU
  6
CONTINUOUS
 62
     4
 10
19731.050045532691
 20
6161.1883740000021
 30
0.0
 11
19731.050045532691
 21
4461.1887040000574
 31
0.0
  0
LINE
  5
10C16
  8
SUNPOU
  6
CONTINUOUS
 62
     4
 10
27383.510092585158
 20
6061.1885390000034
 30
0.0
 11
27383.510092585158
 21
4461.1887040000574
 31
0.0
  0
LINE
  5
10C17
  8
SUNPOU
  6
CONTINUOUS
 62
     4
 10
19731.050045532691
 20
4541.1887040000556
 30
0.0
 11
27383.510092585158
 21
4541.1887040000556
 31
0.0
  0
LINE
  5
10C18
  8
SUNPOU
  6
CONTINUOUS
 62
     4
 10
19773.51009258514
 20
5798.536116000002
 30
0.0
 11
19773.51009258514
 21
4861.1885390000016
 31
0.0
  0
LINE
  5
10C19
  8
SUNPOU
  6
CONTINUOUS
 62
     4
 10
19731.050045532691
 20
6161.1883740000021
 30
0.0
 11
19731.050045532691
 21
4861.1885390000016
 31
0.0
  0
LINE
  5
10C1A
  8
SUNPOU
  6
CONTINUOUS
 62
     4
 10
19773.51009258514
 20
4941.1885390000016
 30
0.0
 11
20013.51009258514
 21
4941.1885390000016
 31
0.0
  0
LINE
  5
10C1B
  8
SUNPOU
  6
CONTINUOUS
 62
     4
 10
19731.050045532691
 20
4941.1885390000016
 30
0.0
 11
19491.050045532691
 21
4941.1885390000016
 31
0.0
  0
LINE
  5
10C1C
  8
SUNPOU
  6
CONTINUOUS
 62
     4
 10
19773.51009258514
 20
4941.1885390000016
 30
0.0
 11
19731.050045532691
 21
4941.1885390000016
 31
0.0
  0
LINE
  5
10C1D
  8
SUNPOU
  6
CONTINUOUS
 62
     4
 10
22341.010092585158
 20
5798.536116000002
 30
0.0
 11
22341.010092585158
 21
4861.1885390000016
 31
0.0
  0
LINE
  5
10C1E
  8
SUNPOU
  6
CONTINUOUS
 62
     4
 10
19773.51009258514
 20
5798.536116000002
 30
0.0
 11
19773.51009258514
 21
4861.1885390000016
 31
0.0
  0
LINE
  5
10C1F
  8
SUNPOU
  6
CONTINUOUS
 62
     4
 10
22341.010092585158
 20
4941.1885390000016
 30
0.0
 11
19773.51009258514
 21
4941.1885390000016
 31
0.0
  0
LINE
  5
10C20
  8
SUNPOU
  6
CONTINUOUS
 62
     4
 10
19867.51009258514
 20
6061.1885390000034
 30
0.0
 11
19867.51009258514
 21
5261.1883740000039
 31
0.0
  0
LINE
  5
10C21
  8
SUNPOU
  6
CONTINUOUS
 62
     4
 10
22247.01009258514
 20
6061.1885390000034
 30
0.0
 11
22247.01009258514
 21
5261.1883740000039
 31
0.0
  0
LINE
  5
10C22
  8
SUNPOU
  6
CONTINUOUS
 62
     4
 10
19867.51009258514
 20
5341.1883740000048
 30
0.0
 11
22247.01009258514
 21
5341.1883740000048
 31
0.0
  0
LINE
  5
10C23
  8
SUNPOU
  6
CONTINUOUS
 62
     4
 10
27341.010092585158
 20
5798.536116000002
 30
0.0
 11
27341.010092585158
 21
4861.1885390000016
 31
0.0
  0
LINE
  5
10C24
  8
SUNPOU
  6
CONTINUOUS
 62
     4
 10
27383.510092585158
 20
6061.1885390000034
 30
0.0
 11
27383.510092585158
 21
4861.1885390000016
 31
0.0
  0
LINE
  5
10C25
  8
SUNPOU
  6
CONTINUOUS
 62
     4
 10
27341.010092585158
 20
4941.1885390000016
 30
0.0
 11
27101.010092585158
 21
4941.1885390000016
 31
0.0
  0
LINE
  5
10C26
  8
SUNPOU
  6
CONTINUOUS
 62
     4
 10
27383.510092585158
 20
4941.1885390000016
 30
0.0
 11
27623.510092585158
 21
4941.1885390000016
 31
0.0
  0
LINE
  5
10C27
  8
SUNPOU
  6
CONTINUOUS
 62
     4
 10
27341.010092585158
 20
4941.1885390000016
 30
0.0
 11
27383.510092585158
 21
4941.1885390000016
 31
0.0
  0
LINE
  5
10C28
  8
SUNPOU
  6
CONTINUOUS
 62
     4
 10
22341.010092585158
 20
5798.536116000002
 30
0.0
 11
22341.010092585158
 21
4861.1885390000016
 31
0.0
  0
LINE
  5
10C29
  8
SUNPOU
  6
CONTINUOUS
 62
     4
 10
27341.010092585158
 20
5798.536116000002
 30
0.0
 11
27341.010092585158
 21
4861.1885390000016
 31
0.0
  0
LINE
  5
10C2A
  8
SUNPOU
  6
CONTINUOUS
 62
     4
 10
22341.010092585158
 20
4941.1885390000016
 30
0.0
 11
27341.010092585158
 21
4941.1885390000016
 31
0.0
  0
LINE
  5
10C2B
  8
SUNPOU
  6
CONTINUOUS
 62
     4
 10
22383.510092585158
 20
8539.6884659999996
 30
0.0
 11
22383.510092585158
 21
9469.1900500000029
 31
0.0
  0
LINE
  5
10C2C
  8
SUNPOU
  6
CONTINUOUS
 62
     4
 10
27383.510092585158
 20
8669.6883999999991
 30
0.0
 11
27383.510092585158
 21
9469.1900500000029
 31
0.0
  0
LINE
  5
10C2D
  8
SUNPOU
  6
CONTINUOUS
 62
     4
 10
22383.510092585158
 20
9389.1900499999992
 30
0.0
 11
27383.510092585158
 21
9389.1900499999992
 31
0.0
  0
LINE
  5
10C2E
  8
SUNPOU
  6
CONTINUOUS
 62
     4
 10
27549.510092585158
 20
6242.0026620000071
 30
0.0
 11
28634.33249087954
 21
6242.0026620000071
 31
0.0
  0
LINE
  5
10C2F
  8
SUNPOU
  6
CONTINUOUS
 62
     4
 10
27464.510092585158
 20
8262.0026620000026
 30
0.0
 11
28634.33249087954
 21
8262.0026620000026
 31
0.0
  0
LINE
  5
10C30
  8
SUNPOU
  6
CONTINUOUS
 62
     4
 10
28554.332490879558
 20
6242.0026620000071
 30
0.0
 11
28554.33249087954
 21
8262.0026620000026
 31
0.0
  0
TEXT
  5
10C31
  8
0
  6
CONTINUOUS
 62
     7
 10
28474.33249087958
 20
6589.002662000009
 30
0.0
 40
160.0
  1
有効高サ2020
 50
90.0
  0
TEXT
  5
10C32
  8
0
  6
CONTINUOUS
 62
     7
 10
24630.17675925183
 20
9469.1900500000029
 30
0.0
 40
160.0
  1
5000
  0
TEXT
  5
10C33
  8
0
  6
CONTINUOUS
 62
     7
 10
24587.67675925183
 20
5021.1885390000016
 30
0.0
 40
160.0
  1
5000
  0
TEXT
  5
10C34
  8
0
  6
CONTINUOUS
 62
     7
 10
27503.510752585142
 20
5021.1883080000034
 30
0.0
 40
160.0
  1
42.5
  0
TEXT
  5
10C35
  8
0
  6
CONTINUOUS
 62
     7
 10
20177.260092585151
 20
5421.1883740000039
 30
0.0
 40
160.0
  1
有効開口巾2379.5
  0
TEXT
  5
10C36
  8
0
  6
CONTINUOUS
 62
     7
 10
20657.260092585158
 20
5021.1885390000016
 30
0.0
 40
160.0
  1
2567.5
  0
TEXT
  5
10C37
  8
0
  6
CONTINUOUS
 62
     7
 10
19151.187061585159
 20
5028.7357170000041
 30
0.0
 40
160.0
  1
42.5
  0
TEXT
  5
10C38
  8
0
  6
CONTINUOUS
 62
     7
 10
23157.28006905891
 20
4621.1887040000574
 30
0.0
 40
160.0
  1
7652.5
  0
TEXT
  5
10C39
  8
0
  6
CONTINUOUS
 62
     7
 10
24095.843425918501
 20
5421.1883740000039
 30
0.0
 40
160.0
  1
有効開口巾4912
  0
TEXT
  5
10C3A
  8
0
  6
CONTINUOUS
 62
     7
 10
18843.50679358514
 20
6264.2717073333397
 30
0.0
 40
160.0
  1
有効開口高サ1891.5
 50
90.0
  0
TEXT
  5
10C3B
  8
0
  6
CONTINUOUS
 62
     7
 10
18200.40784188042
 20
6610.3550536666726
 30
0.0
 40
160.0
  1
2349（2589）
 50
90.0
  0
TEXT
  5
10C3C
  8
0
  6
CONTINUOUS
 62
     7
 10
20657.260092585158
 20
9469.1900500000029
 30
0.0
 40
160.0
  1
2652.5
  0
TEXT
  5
10C3D
  8
0
  6
CONTINUOUS
 62
     7
 10
19334.535439918469
 20
9469.1893240000027
 30
0.0
 40
160.0
  1
43
  0
TEXT
  5
10C3E
  8
0
  6
CONTINUOUS
 62
     7
 10
27537.309245918499
 20
9469.1893240000027
 30
0.0
 40
160.0
  1
43
  0
TEXT
  5
10C3F
  8
0
  6
CONTINUOUS
 62
     7
 10
23157.260092585158
 20
9869.1329740000092
 30
0.0
 40
160.0
  1
7738.5
  0
ARC
  5
10C40
  8
0
  6
BYBLOCK
 62
     0
 10
19688.01009258514
 20
9789.1329740000092
 30
0.0
 40
15.0
 50
180.0
 51
0.0
  0
ARC
  5
10C41
  8
0
  6
BYBLOCK
 62
     0
 10
19688.01009258514
 20
9789.1329740000092
 30
0.0
 40
15.0
 50
0.0
 51
180.0
  0
ARC
  5
10C42
  8
0
  6
BYBLOCK
 62
     0
 10
27426.510092585158
 20
9789.1329740000092
 30
0.0
 40
15.0
 50
0.0
 51
180.0
  0
ARC
  5
10C43
  8
0
  6
BYBLOCK
 62
     0
 10
27426.510092585158
 20
9789.1329740000092
 30
0.0
 40
15.0
 50
180.0
 51
0.0
  0
ARC
  5
10C44
  8
0
  6
BYBLOCK
 62
     0
 10
27383.510092585158
 20
9389.1900499999992
 30
0.0
 40
15.0
 50
0.0
 51
180.0
  0
ARC
  5
10C45
  8
0
  6
BYBLOCK
 62
     0
 10
27383.510092585158
 20
9389.1900499999992
 30
0.0
 40
15.0
 50
180.0
 51
0.0
  0
ARC
  5
10C46
  8
0
  6
BYBLOCK
 62
     0
 10
27426.510092585158
 20
9389.1900499999992
 30
0.0
 40
15.0
 50
180.0
 51
0.0
  0
ARC
  5
10C47
  8
0
  6
BYBLOCK
 62
     0
 10
27426.510092585158
 20
9389.1900499999992
 30
0.0
 40
15.0
 50
0.0
 51
180.0
  0
ARC
  5
10C48
  8
0
  6
BYBLOCK
 62
     0
 10
19731.01009258514
 20
9389.1900499999992
 30
0.0
 40
15.0
 50
180.0
 51
0.0
  0
ARC
  5
10C49
  8
0
  6
BYBLOCK
 62
     0
 10
19731.01009258514
 20
9389.1900499999992
 30
0.0
 40
15.0
 50
0.0
 51
180.0
  0
ARC
  5
10C4A
  8
0
  6
BYBLOCK
 62
     0
 10
19688.01009258514
 20
9389.1900499999992
 30
0.0
 40
15.0
 50
0.0
 51
180.0
  0
ARC
  5
10C4B
  8
0
  6
BYBLOCK
 62
     0
 10
19688.01009258514
 20
9389.1900499999992
 30
0.0
 40
15.0
 50
180.0
 51
0.0
  0
ARC
  5
10C4C
  8
0
  6
BYBLOCK
 62
     0
 10
22383.510092585158
 20
9389.1900499999992
 30
0.0
 40
15.0
 50
0.0
 51
180.0
  0
ARC
  5
10C4D
  8
0
  6
BYBLOCK
 62
     0
 10
22383.510092585158
 20
9389.1900499999992
 30
0.0
 40
15.0
 50
180.0
 51
0.0
  0
ARC
  5
10C4E
  8
0
  6
BYBLOCK
 62
     0
 10
19731.01009258514
 20
9389.1900499999992
 30
0.0
 40
15.0
 50
180.0
 51
0.0
  0
ARC
  5
10C4F
  8
0
  6
BYBLOCK
 62
     0
 10
19731.01009258514
 20
9389.1900499999992
 30
0.0
 40
15.0
 50
0.0
 51
180.0
  0
ARC
  5
10C50
  8
0
  6
BYBLOCK
 62
     0
 10
18280.407841880431
 20
6241.1883740000039
 30
0.0
 40
15.0
 50
270.0
 51
90.0
  0
ARC
  5
10C51
  8
0
  6
BYBLOCK
 62
     0
 10
18280.407841880431
 20
6241.1883740000039
 30
0.0
 40
15.0
 50
90.0
 51
270.0
  0
ARC
  5
10C52
  8
0
  6
BYBLOCK
 62
     0
 10
18280.407841880431
 20
8590.1883999999991
 30
0.0
 40
15.0
 50
90.0
 51
270.0
  0
ARC
  5
10C53
  8
0
  6
BYBLOCK
 62
     0
 10
18280.407841880431
 20
8590.1883999999991
 30
0.0
 40
15.0
 50
270.0
 51
90.0
  0
ARC
  5
10C54
  8
0
  6
BYBLOCK
 62
     0
 10
18923.506793585158
 20
6241.1883740000039
 30
0.0
 40
15.0
 50
270.0
 51
90.0
  0
ARC
  5
10C55
  8
0
  6
BYBLOCK
 62
     0
 10
18923.506793585158
 20
6241.1883740000039
 30
0.0
 40
15.0
 50
90.0
 51
270.0
  0
ARC
  5
10C56
  8
0
  6
BYBLOCK
 62
     0
 10
18923.506793585158
 20
8132.6883740000021
 30
0.0
 40
15.0
 50
90.0
 51
270.0
  0
ARC
  5
10C57
  8
0
  6
BYBLOCK
 62
     0
 10
18923.506793585158
 20
8132.6883740000021
 30
0.0
 40
15.0
 50
270.0
 51
90.0
  0
ARC
  5
10C58
  8
0
  6
BYBLOCK
 62
     0
 10
22386.510092585158
 20
5341.1883740000048
 30
0.0
 40
15.0
 50
180.0
 51
0.0
  0
ARC
  5
10C59
  8
0
  6
BYBLOCK
 62
     0
 10
22386.510092585158
 20
5341.1883740000048
 30
0.0
 40
15.0
 50
0.0
 51
180.0
  0
ARC
  5
10C5A
  8
0
  6
BYBLOCK
 62
     0
 10
27298.510092585158
 20
5341.1883740000048
 30
0.0
 40
15.0
 50
0.0
 51
180.0
  0
ARC
  5
10C5B
  8
0
  6
BYBLOCK
 62
     0
 10
27298.510092585158
 20
5341.1883740000048
 30
0.0
 40
15.0
 50
180.0
 51
0.0
  0
ARC
  5
10C5C
  8
0
  6
BYBLOCK
 62
     0
 10
19731.050045532691
 20
4541.1887040000556
 30
0.0
 40
15.0
 50
180.0
 51
0.0
  0
ARC
  5
10C5D
  8
0
  6
BYBLOCK
 62
     0
 10
19731.050045532691
 20
4541.1887040000556
 30
0.0
 40
15.0
 50
0.0
 51
180.0
  0
ARC
  5
10C5E
  8
0
  6
BYBLOCK
 62
     0
 10
27383.510092585158
 20
4541.1887040000556
 30
0.0
 40
15.0
 50
0.0
 51
180.0
  0
ARC
  5
10C5F
  8
0
  6
BYBLOCK
 62
     0
 10
27383.510092585158
 20
4541.1887040000556
 30
0.0
 40
15.0
 50
180.0
 51
0.0
  0
ARC
  5
10C60
  8
0
  6
BYBLOCK
 62
     0
 10
19773.51009258514
 20
4941.1885390000016
 30
0.0
 40
15.0
 50
180.0
 51
0.0
  0
ARC
  5
10C61
  8
0
  6
BYBLOCK
 62
     0
 10
19773.51009258514
 20
4941.1885390000016
 30
0.0
 40
15.0
 50
0.0
 51
180.0
  0
ARC
  5
10C62
  8
0
  6
BYBLOCK
 62
     0
 10
19731.050045532691
 20
4941.1885390000016
 30
0.0
 40
15.0
 50
0.0
 51
180.0
  0
ARC
  5
10C63
  8
0
  6
BYBLOCK
 62
     0
 10
19731.050045532691
 20
4941.1885390000016
 30
0.0
 40
15.0
 50
180.0
 51
0.0
  0
ARC
  5
10C64
  8
0
  6
BYBLOCK
 62
     0
 10
22341.010092585158
 20
4941.1885390000016
 30
0.0
 40
15.0
 50
0.0
 51
180.0
  0
ARC
  5
10C65
  8
0
  6
BYBLOCK
 62
     0
 10
22341.010092585158
 20
4941.1885390000016
 30
0.0
 40
15.0
 50
180.0
 51
0.0
  0
ARC
  5
10C66
  8
0
  6
BYBLOCK
 62
     0
 10
19773.51009258514
 20
4941.1885390000016
 30
0.0
 40
15.0
 50
180.0
 51
0.0
  0
ARC
  5
10C67
  8
0
  6
BYBLOCK
 62
     0
 10
19773.51009258514
 20
4941.1885390000016
 30
0.0
 40
15.0
 50
0.0
 51
180.0
  0
ARC
  5
10C68
  8
0
  6
BYBLOCK
 62
     0
 10
19867.51009258514
 20
5341.1883740000048
 30
0.0
 40
15.0
 50
180.0
 51
0.0
  0
ARC
  5
10C69
  8
0
  6
BYBLOCK
 62
     0
 10
19867.51009258514
 20
5341.1883740000048
 30
0.0
 40
15.0
 50
0.0
 51
180.0
  0
ARC
  5
10C6A
  8
0
  6
BYBLOCK
 62
     0
 10
22247.01009258514
 20
5341.1883740000048
 30
0.0
 40
15.0
 50
0.0
 51
180.0
  0
ARC
  5
10C6B
  8
0
  6
BYBLOCK
 62
     0
 10
22247.01009258514
 20
5341.1883740000048
 30
0.0
 40
15.0
 50
180.0
 51
0.0
  0
ARC
  5
10C6C
  8
0
  6
BYBLOCK
 62
     0
 10
27341.010092585158
 20
4941.1885390000016
 30
0.0
 40
15.0
 50
0.0
 51
180.0
  0
ARC
  5
10C6D
  8
0
  6
BYBLOCK
 62
     0
 10
27341.010092585158
 20
4941.1885390000016
 30
0.0
 40
15.0
 50
180.0
 51
0.0
  0
ARC
  5
10C6E
  8
0
  6
BYBLOCK
 62
     0
 10
27383.510092585158
 20
4941.1885390000016
 30
0.0
 40
15.0
 50
180.0
 51
0.0
  0
ARC
  5
10C6F
  8
0
  6
BYBLOCK
 62
     0
 10
27383.510092585158
 20
4941.1885390000016
 30
0.0
 40
15.0
 50
0.0
 51
180.0
  0
ARC
  5
10C70
  8
0
  6
BYBLOCK
 62
     0
 10
22341.010092585158
 20
4941.1885390000016
 30
0.0
 40
15.0
 50
180.0
 51
0.0
  0
ARC
  5
10C71
  8
0
  6
BYBLOCK
 62
     0
 10
22341.010092585158
 20
4941.1885390000016
 30
0.0
 40
15.0
 50
0.0
 51
180.0
  0
ARC
  5
10C72
  8
0
  6
BYBLOCK
 62
     0
 10
27341.010092585158
 20
4941.1885390000016
 30
0.0
 40
15.0
 50
0.0
 51
180.0
  0
ARC
  5
10C73
  8
0
  6
BYBLOCK
 62
     0
 10
27341.010092585158
 20
4941.1885390000016
 30
0.0
 40
15.0
 50
180.0
 51
0.0
  0
ARC
  5
10C74
  8
0
  6
BYBLOCK
 62
     0
 10
22383.510092585158
 20
9389.1900499999992
 30
0.0
 40
15.0
 50
180.0
 51
0.0
  0
ARC
  5
10C75
  8
0
  6
BYBLOCK
 62
     0
 10
22383.510092585158
 20
9389.1900499999992
 30
0.0
 40
15.0
 50
0.0
 51
180.0
  0
ARC
  5
10C76
  8
0
  6
BYBLOCK
 62
     0
 10
27383.510092585158
 20
9389.1900499999992
 30
0.0
 40
15.0
 50
0.0
 51
180.0
  0
ARC
  5
10C77
  8
0
  6
BYBLOCK
 62
     0
 10
27383.510092585158
 20
9389.1900499999992
 30
0.0
 40
15.0
 50
180.0
 51
0.0
  0
ARC
  5
10C78
  8
0
  6
BYBLOCK
 62
     0
 10
28554.332490879558
 20
6242.0026620000071
 30
0.0
 40
15.0
 50
270.0
 51
90.0
  0
ARC
  5
10C79
  8
0
  6
BYBLOCK
 62
     0
 10
28554.332490879558
 20
6242.0026620000071
 30
0.0
 40
15.0
 50
90.0
 51
270.0
  0
ARC
  5
10C7A
  8
0
  6
BYBLOCK
 62
     0
 10
28554.33249087954
 20
8262.0026620000026
 30
0.0
 40
15.0
 50
90.0
 51
270.0
  0
ARC
  5
10C7B
  8
0
  6
BYBLOCK
 62
     0
 10
28554.33249087954
 20
8262.0026620000026
 30
0.0
 40
15.0
 50
270.0
 51
90.0
  0
TEXT
  5
10DEA
  8
2-0
  6
CONTINUOUS
 62
     7
 10
8602.5286285369602
 20
11163.511830999991
 30
0.0
 40
160.0
  1
1
 72
     4
 11
8629.1952952036263
 21
11243.511830999991
 31
0.0
  0
LINE
  5
10DEB
  8
0-6
  6
CONTINUOUS
 62
     6
 10
10914.10506247109
 20
19217.209646999989
 30
0.0
 11
10770.2039594711
 21
19729.48530199999
 31
0.0
  0
LINE
  5
10DEC
  8
0-6
  6
CONTINUOUS
 62
     6
 10
5850.3707613648321
 20
19322.987202
 30
0.0
 11
5957.0658233648528
 21
19445.163089000009
 31
0.0
  0
LINE
  5
10DED
  8
0-6
  6
CONTINUOUS
 62
     6
 10
5911.6764513648286
 20
19473.163379000001
 30
0.0
 11
5850.3707613648321
 21
19322.987202
 31
0.0
  0
LINE
  5
10DEE
  8
0-6
  6
CONTINUOUS
 62
     6
 10
5911.6764513648286
 20
19473.163379000001
 30
0.0
 11
5957.0658233648528
 21
19445.163089000009
 31
0.0
  0
LINE
  5
10DEF
  8
0-6
  6
CONTINUOUS
 62
     6
 10
5850.3707613648321
 20
19322.987202
 30
0.0
 11
6144.2985883648316
 21
19729.48530199999
 31
0.0
  0
LINE
  5
10DF0
  8
0-6
  6
CONTINUOUS
 62
     6
 10
10952.49485647109
 20
19061.88474199998
 30
0.0
 11
10939.99320647109
 21
19223.60943099999
 31
0.0
  0
LINE
  5
10DF1
  8
0-6
  6
CONTINUOUS
 62
     6
 10
10888.219887471079
 20
19210.813823
 30
0.0
 11
10952.49485647109
 21
19061.88474199998
 31
0.0
  0
LINE
  5
10DF2
  8
0-6
  6
CONTINUOUS
 62
     6
 10
10888.219887471079
 20
19210.813823
 30
0.0
 11
10939.99320647109
 21
19223.60943099999
 31
0.0
  0
LINE
  5
10DF3
  8
0-6
  6
CONTINUOUS
 62
     6
 10
10770.2039594711
 20
19729.48530199999
 30
0.0
 11
10252.51531147109
 21
19729.48530199999
 31
0.0
  0
LINE
  5
10DF4
  8
0-6
  6
CONTINUOUS
 62
     6
 10
5446.6986910994619
 20
17916.70331353958
 30
0.0
 11
5385.484190470982
 21
18066.9172048941
 31
0.0
  0
LINE
  5
10DF5
  8
0-6
  6
CONTINUOUS
 62
     6
 10
5385.484190470982
 20
18066.9172048941
 30
0.0
 11
5492.1073975903619
 21
17944.675812361129
 31
0.0
  0
LINE
  5
10DF6
  8
0-6
  6
CONTINUOUS
 62
     6
 10
5385.484190470982
 20
18066.9172048941
 30
0.0
 11
5446.6986910994619
 21
17916.70331353958
 31
0.0
  0
LINE
  5
10DF7
  8
0-6
  6
CONTINUOUS
 62
     6
 10
5446.6986910994619
 20
17916.70331353958
 30
0.0
 11
5492.1073975903619
 21
17944.675812361129
 31
0.0
  0
LINE
  5
10DF8
  8
0-6
  6
CONTINUOUS
 62
     6
 10
5492.1073975903619
 20
17944.675812361129
 30
0.0
 11
5385.484190470982
 21
18066.9172048941
 31
0.0
  0
LINE
  5
10DF9
  8
0-6
  6
CONTINUOUS
 62
     6
 10
5492.1073975903619
 20
17944.675812361129
 30
0.0
 11
5446.6986910994619
 21
17916.70331353958
 31
0.0
  0
LINE
  5
10DFA
  8
0-6
  6
CONTINUOUS
 62
     6
 10
6944.3002373648542
 20
19729.48530199999
 30
0.0
 11
6144.2985883648316
 21
19729.48530199999
 31
0.0
  0
LINE
  5
10DFB
  8
0-6
  6
CONTINUOUS
 62
     6
 10
6116.3239787191633
 20
17724.656373146368
 30
0.0
 11
5596.3232527191321
 21
17724.656373146368
 31
0.0
  0
LINE
  5
10DFC
  8
0-6
  6
CONTINUOUS
 62
     6
 10
7008.6066878017909
 20
14356.876415000001
 30
0.0
 11
6925.7192958017913
 21
14533.814694000001
 31
0.0
  0
LINE
  5
10DFD
  8
0-6
  6
CONTINUOUS
 62
     6
 10
6925.7192958017913
 20
14533.814694000001
 30
0.0
 11
6125.7186358018007
 21
14533.814694000001
 31
0.0
  0
LINE
  5
10DFE
  8
0-6
  6
CONTINUOUS
 62
     6
 10
7040.5294317553007
 20
13847.43938999999
 30
0.0
 11
7146.7998867553124
 21
13969.98643699999
 31
0.0
  0
LINE
  5
10DFF
  8
0-6
  6
CONTINUOUS
 62
     6
 10
7146.7998867553124
 20
13969.98643699999
 30
0.0
 11
7086.0177787553239
 21
13819.59746100001
 31
0.0
  0
LINE
  5
10E00
  8
0-6
  6
CONTINUOUS
 62
     6
 10
7146.7998867553124
 20
13969.98643699999
 30
0.0
 11
7040.5294317553007
 21
13847.43938999999
 31
0.0
  0
LINE
  5
10E01
  8
0-6
  6
CONTINUOUS
 62
     6
 10
7040.5294317553007
 20
13847.43938999999
 30
0.0
 11
7086.0177787553239
 21
13819.59746100001
 31
0.0
  0
LINE
  5
10E02
  8
0-6
  6
CONTINUOUS
 62
     6
 10
7086.0177787553239
 20
13819.59746100001
 30
0.0
 11
7146.7998867553124
 21
13969.98643699999
 31
0.0
  0
LINE
  5
10E03
  8
0-6
  6
CONTINUOUS
 62
     6
 10
7086.0177787553239
 20
13819.59746100001
 30
0.0
 11
7040.5294317553007
 21
13847.43938999999
 31
0.0
  0
LINE
  5
10E04
  8
0-6
  6
CONTINUOUS
 62
     6
 10
7032.7538448018022
 20
14368.18837400001
 30
0.0
 11
7076.4794308018008
 21
14211.985553
 31
0.0
  0
LINE
  5
10E05
  8
0-6
  6
CONTINUOUS
 62
     6
 10
7076.4794308018008
 20
14211.985553
 30
0.0
 11
6984.4585398017907
 21
14345.563465999991
 31
0.0
  0
LINE
  5
10E06
  8
0-6
  6
CONTINUOUS
 62
     6
 10
7076.4794308018008
 20
14211.985553
 30
0.0
 11
7032.7538448018022
 21
14368.18837400001
 31
0.0
  0
LINE
  5
10E07
  8
0-6
  6
CONTINUOUS
 62
     6
 10
7032.7538448018022
 20
14368.18837400001
 30
0.0
 11
6984.4585398017907
 21
14345.563465999991
 31
0.0
  0
LINE
  5
10E08
  8
0-6
  6
CONTINUOUS
 62
     6
 10
6984.4585398017907
 20
14345.563465999991
 30
0.0
 11
7076.4794308018008
 21
14211.985553
 31
0.0
  0
LINE
  5
10E09
  8
0-6
  6
CONTINUOUS
 62
     6
 10
6984.4585398017907
 20
14345.563465999991
 30
0.0
 11
7032.7538448018022
 21
14368.18837400001
 31
0.0
  0
LINE
  5
10E0A
  8
0-6
  6
CONTINUOUS
 62
     6
 10
6657.1610167553126
 20
13169.986767
 30
0.0
 11
5794.5808457553121
 21
13169.986767
 31
0.0
  0
LINE
  5
10E0B
  8
0-6
  6
CONTINUOUS
 62
     6
 10
7063.2731097553124
 20
13833.518426000001
 30
0.0
 11
6657.1610167553126
 21
13169.986767
 31
0.0
  0
LINE
  5
10E0C
  8
0-6
  6
CONTINUOUS
 62
     6
 10
5238.0334944709521
 20
14542.276146
 30
0.0
 11
5260.4842044709521
 21
14702.92199699999
 31
0.0
  0
LINE
  5
10E0D
  8
0-6
  6
CONTINUOUS
 62
     6
 10
5260.4842044709521
 20
14702.92199699999
 30
0.0
 11
5187.1470004709518
 21
14558.240963
 31
0.0
  0
LINE
  5
10E0E
  8
0-6
  6
CONTINUOUS
 62
     6
 10
5260.4842044709521
 20
14702.92199699999
 30
0.0
 11
5238.0334944709521
 21
14542.276146
 31
0.0
  0
LINE
  5
10E0F
  8
0-6
  6
CONTINUOUS
 62
     6
 10
5238.0334944709521
 20
14542.276146
 30
0.0
 11
5187.1470004709518
 21
14558.240963
 31
0.0
  0
LINE
  5
10E10
  8
0-6
  6
CONTINUOUS
 62
     6
 10
5187.1470004709518
 20
14558.240963
 30
0.0
 11
5260.4842044709521
 21
14702.92199699999
 31
0.0
  0
LINE
  5
10E11
  8
0-6
  6
CONTINUOUS
 62
     6
 10
5187.1470004709518
 20
14558.240963
 30
0.0
 11
5238.0334944709521
 21
14542.276146
 31
0.0
  0
LINE
  5
10E12
  8
0-6
  6
CONTINUOUS
 62
     6
 10
4625.8495574709414
 20
12679.985644999981
 30
0.0
 11
3545.8499534709522
 21
12679.985644999981
 31
0.0
  0
LINE
  5
10E13
  8
0-6
  6
CONTINUOUS
 62
     6
 10
5212.5897524709408
 20
14550.257564999991
 30
0.0
 11
4625.8495574709632
 21
12679.985644999981
 31
0.0
  0
LINE
  5
10E14
  8
0-6
  6
CONTINUOUS
 62
     6
 10
5469.4019477344
 20
17930.689709853868
 30
0.0
 11
5596.3232527191321
 21
17724.656373146368
 31
0.0
  0
LINE
  5
10E15
  8
0-6
  6
CONTINUOUS
 62
     6
 10
12977.351370692861
 20
19499.485037999999
 30
0.0
 11
13069.03871269286
 21
19633.292576
 31
0.0
  0
LINE
  5
10E16
  8
0-6
  6
CONTINUOUS
 62
     6
 10
13107.47997369286
 20
19596.325066000001
 30
0.0
 11
12977.351370692861
 21
19499.485037999999
 31
0.0
  0
LINE
  5
10E17
  8
0-6
  6
CONTINUOUS
 62
     6
 10
13107.47997369286
 20
19596.325066000001
 30
0.0
 11
13069.03871269286
 21
19633.292576
 31
0.0
  0
LINE
  5
10E18
  8
0-6
  6
CONTINUOUS
 62
     6
 10
13088.259838692869
 20
19614.807830999998
 30
0.0
 11
13605.24872669286
 21
20119.486094
 31
0.0
  0
LINE
  5
10E19
  8
0-6
  6
CONTINUOUS
 62
     6
 10
15280.24806669287
 20
20119.486094
 30
0.0
 11
13605.24872669286
 21
20119.486094
 31
0.0
  0
TEXT
  5
10E1A
  8
0-6
  6
CONTINUOUS
 62
     7
 10
10348.870362137741
 20
19809.485565999988
 30
0.0
 40
160.0
  1
屋根
 72
     4
 11
10519.537028804411
 21
19889.485565999988
 31
0.0
  0
TEXT
  5
10E1B
  8
0-6
  6
CONTINUOUS
 62
     7
 10
6224.2989833648107
 20
19809.485565999988
 30
0.0
 40
160.0
  1
桁（後）
 72
     4
 11
6544.2989833648107
 21
19889.485565999988
 31
0.0
  0
TEXT
  5
10E1C
  8
0-6
  6
CONTINUOUS
 62
     7
 10
6205.7200218018124
 20
14613.814958000001
 30
0.0
 40
160.0
  1
桁（前）
 72
     4
 11
6525.7200218018106
 21
14693.814958000001
 31
0.0
  0
TEXT
  5
10E1D
  8
0-6
  6
CONTINUOUS
 62
     7
 10
5851.8284094219753
 20
13249.986041
 30
0.0
 40
160.0
  1
鼻隠し前
 72
     4
 11
6214.4950760886422
 21
13329.986041
 31
0.0
  0
TEXT
  5
10E1E
  8
0-6
  6
CONTINUOUS
 62
     7
 10
3713.849293470952
 20
12759.984919
 30
0.0
 40
160.0
  1
ケラバ 左
 72
     4
 11
4129.849293470952
 21
12839.984919
 31
0.0
  0
TEXT
  5
10E1F
  8
0-6
  6
CONTINUOUS
 62
     7
 10
5694.9903813858073
 20
17804.656637146381
 30
0.0
 40
160.0
  1
上枠
 72
     4
 11
5865.6570480524733
 21
17884.656637146381
 31
0.0
  0
TEXT
  5
10E20
  8
0-6
  6
CONTINUOUS
 62
     7
 10
13706.914469359521
 20
20199.484378000008
 30
0.0
 40
160.0
  1
鼻隠しコーナー後
 72
     4
 11
14453.581136026191
 21
20279.484378000008
 31
0.0
  0
LINE
  5
10E21
  8
0-6
  6
CONTINUOUS
 62
     6
 10
12982.48357047094
 20
15423.43219442641
 30
0.0
 11
13517.45560064995
 21
14853.84930752605
 31
0.0
  0
LINE
  5
10E22
  8
0-6
  6
CONTINUOUS
 62
     6
 10
6901.3775654782339
 20
16338.7423660735
 30
0.0
 11
6021.3786214782131
 21
16338.7423660735
 31
0.0
  0
LINE
  5
10E23
  8
0-6
  6
CONTINUOUS
 62
     6
 10
7079.1397028266128
 20
16168.72523840318
 30
0.0
 11
6901.3775654782339
 21
16338.7423660735
 31
0.0
  0
LINE
  5
10E24
  8
0-6
  6
CONTINUOUS
 62
     6
 10
7194.7673428266125
 20
16058.13547440316
 30
0.0
 11
7097.5700108265928
 21
16187.99783140318
 31
0.0
  0
LINE
  5
10E25
  8
0-6
  6
CONTINUOUS
 62
     6
 10
7060.7084058266128
 20
16149.45264540318
 30
0.0
 11
7194.7673428266125
 21
16058.13547440316
 31
0.0
  0
LINE
  5
10E26
  8
0-6
  6
CONTINUOUS
 62
     6
 10
7060.7084058266128
 20
16149.45264540318
 30
0.0
 11
7097.5700108265928
 21
16187.99783140318
 31
0.0
  0
TEXT
  5
10E27
  8
0-6
  6
CONTINUOUS
 62
     7
 10
6096.0429781448747
 20
16418.74263007351
 30
0.0
 40
160.0
  1
ブレース
 72
     4
 11
6458.7096448115426
 21
16504.075963406842
 31
0.0
  0
LINE
  5
10E28
  8
0-6
  6
CONTINUOUS
 62
     6
 10
5963.6446180157218
 20
16764.487650999989
 30
0.0
 11
6082.9422363480844
 21
17080.079989000002
 31
0.0
  0
LINE
  5
10E29
  8
0-6
  6
CONTINUOUS
 62
     6
 10
6883.5129973480616
 20
17080.079989000002
 30
0.0
 11
6082.9422363480844
 21
17080.079989000002
 31
0.0
  0
TEXT
  5
10E2A
  8
0-6
  6
CONTINUOUS
 62
     7
 10
6162.9426323480911
 20
17160.080253
 30
0.0
 40
160.0
  1
桁（中）
 72
     4
 11
6482.9426323480911
 21
17240.080253
 31
0.0
  0
LINE
  5
10E2B
  8
0-6
  6
CONTINUOUS
 62
     6
 10
10754.113811458879
 20
15460.594753653761
 30
0.0
 11
9874.1148674588676
 21
15460.594753653761
 31
0.0
  0
LINE
  5
10E2C
  8
0-6
  6
CONTINUOUS
 62
     6
 10
9506.3731618842485
 20
15928.44306028694
 30
0.0
 11
9874.1148674588676
 21
15460.594753653761
 31
0.0
  0
TEXT
  5
10E2D
  8
0-6
  6
CONTINUOUS
 62
     7
 10
9948.7792241255338
 20
15540.595017653761
 30
0.0
 40
160.0
  1
ブレース
 72
     4
 11
10311.4458907922
 21
15625.9283509871
 31
0.0
  0
LINE
  5
10E2E
  8
0-1
  6
CONTINUOUS
 62
     3
 10
5332.4835704709421
 20
16684.985315999998
 30
0.0
 11
7899.983570470944
 21
16684.985315999998
 31
0.0
  0
LINE
  5
10E2F
  8
0-1
  6
CONTINUOUS
 62
     3
 10
7899.983570470944
 20
16684.985315999998
 30
0.0
 11
10472.354421239739
 21
16684.985315999998
 31
0.0
  0
LINE
  5
10E30
  8
2-0
  6
DASHED3
 62
     6
 10
10472.354421239739
 20
16684.985315999998
 30
0.0
 11
12899.98357047094
 21
16684.985315999998
 31
0.0
  0
LINE
  5
10E31
  8
0-1
  6
CONTINUOUS
 62
     3
 10
7846.9839394709516
 20
14125.986358
 30
0.0
 11
7846.9839394709516
 21
17768.233110581219
 31
0.0
  0
LINE
  5
10E32
  8
0-1
  6
CONTINUOUS
 62
     3
 10
5382.484190470981
 20
14001.986344000001
 30
0.0
 11
5382.484190470981
 21
18788.083582700081
 31
0.0
  0
LINE
  5
10E33
  8
0-1
  6
CONTINUOUS
 62
     3
 10
5382.484190470981
 20
18788.083582700081
 30
0.0
 11
5382.484190470981
 21
19461.985684999981
 31
0.0
  0
LINE
  5
10E34
  8
0-1
  6
CONTINUOUS
 62
     3
 10
5246.9835704709421
 20
13969.98643699999
 30
0.0
 11
5246.9835704709421
 21
18843.991922246649
 31
0.0
  0
LINE
  5
10E35
  8
0-1
  6
CONTINUOUS
 62
     3
 10
5246.9835704709421
 20
18843.991922246649
 30
0.0
 11
5246.9835704709421
 21
19509.98703099999
 31
0.0
  0
LINE
  5
10E36
  8
0-1
  6
CONTINUOUS
 62
     3
 10
5289.9842964709514
 20
14125.986358
 30
0.0
 11
12942.48482447095
 21
14125.986358
 31
0.0
  0
LINE
  5
10E37
  8
0-1
  6
CONTINUOUS
 62
     3
 10
5332.4835704709421
 20
14204.985974999991
 30
0.0
 11
12899.98357047094
 21
14204.985974999991
 31
0.0
  0
LINE
  5
10E38
  8
0-1
  6
CONTINUOUS
 62
     3
 10
5246.9835704709421
 20
13969.98643699999
 30
0.0
 11
12985.48357047094
 21
13969.98643699999
 31
0.0
  0
LINE
  5
10E39
  8
0-1
  6
CONTINUOUS
 62
     3
 10
5246.9835704709421
 20
14001.986344000001
 30
0.0
 11
12985.48357047094
 21
14001.986344000001
 31
0.0
  0
LINE
  5
10E3A
  8
0-1
  6
CONTINUOUS
 62
     3
 10
7899.983570470944
 20
14125.986358
 30
0.0
 11
7899.983570470944
 21
17746.36506041724
 31
0.0
  0
LINE
  5
10E3B
  8
0-1
  6
CONTINUOUS
 62
     3
 10
7942.4848244709519
 20
14125.986358
 30
0.0
 11
7942.4848244709519
 21
17728.828720315101
 31
0.0
  0
LINE
  5
10E3C
  8
0-1
  6
CONTINUOUS
 62
     3
 10
5332.4835704709421
 20
14125.986358
 30
0.0
 11
5332.4835704709421
 21
18809.952040933
 31
0.0
  0
LINE
  5
10E3D
  8
0-1
  6
CONTINUOUS
 62
     3
 10
5289.9842964709514
 20
14125.986358
 30
0.0
 11
5289.9842964709514
 21
18827.487564072111
 31
0.0
  0
LINE
  5
10E3E
  8
0-1
  6
CONTINUOUS
 62
     3
 10
6352.4850214709513
 20
18394.87481651704
 30
0.0
 11
6352.4850214709513
 21
19461.985684999981
 31
0.0
  0
LINE
  5
10E3F
  8
0-1
  6
CONTINUOUS
 62
     3
 10
6389.4851934709623
 20
18379.60826461648
 30
0.0
 11
6389.4851934709623
 21
19461.985684999981
 31
0.0
  0
LINE
  5
10E40
  8
0-1
  6
CONTINUOUS
 62
     3
 10
6552.4846924709518
 20
18312.353433713291
 30
0.0
 11
6552.4846924709518
 21
19461.985684999981
 31
0.0
  0
LINE
  5
10E41
  8
0-1
  6
CONTINUOUS
 62
     3
 10
6589.485853470951
 20
18297.086473743799
 30
0.0
 11
6589.485853470951
 21
19461.985684999981
 31
0.0
  0
LINE
  5
10E42
  8
0-1
  6
CONTINUOUS
 62
     3
 10
6752.4843624709511
 20
18219.831946322131
 30
0.0
 11
6752.4843624709511
 21
19461.985684999981
 31
0.0
  0
LINE
  5
10E43
  8
0-1
  6
CONTINUOUS
 62
     3
 10
6789.4835434709621
 20
18204.565803315691
 30
0.0
 11
6789.4835434709621
 21
19461.985684999981
 31
0.0
  0
LINE
  5
10E44
  8
0-1
  6
CONTINUOUS
 62
     3
 10
6952.4850214709531
 20
18137.31015586208
 30
0.0
 11
6952.4850214709531
 21
19461.985684999981
 31
0.0
  0
LINE
  5
10E45
  8
0-1
  6
CONTINUOUS
 62
     3
 10
6989.4851934709523
 20
18122.043603961509
 30
0.0
 11
6989.4851934709523
 21
19461.985684999981
 31
0.0
  0
LINE
  5
10E46
  8
0-1
  6
CONTINUOUS
 62
     3
 10
7152.4846924709527
 20
18054.788773058321
 30
0.0
 11
7152.4846924709527
 21
19461.985684999981
 31
0.0
  0
LINE
  5
10E47
  8
0-1
  6
CONTINUOUS
 62
     3
 10
7189.485853470952
 20
18039.52181308885
 30
0.0
 11
7189.485853470952
 21
19461.985684999981
 31
0.0
  0
LINE
  5
10E48
  8
0-1
  6
CONTINUOUS
 62
     3
 10
7352.4843624709811
 20
17972.267390667181
 30
0.0
 11
7352.4843624709811
 21
19461.985684999981
 31
0.0
  0
LINE
  5
10E49
  8
0-1
  6
CONTINUOUS
 62
     3
 10
7389.4845334709426
 20
17957.000839179229
 30
0.0
 11
7389.4845334709426
 21
19461.985684999981
 31
0.0
  0
LINE
  5
10E4A
  8
0-1
  6
CONTINUOUS
 62
     3
 10
7552.4850214709531
 20
17889.745600207119
 30
0.0
 11
7552.4850214709531
 21
19461.985684999981
 31
0.0
  0
LINE
  5
10E4B
  8
0-1
  6
CONTINUOUS
 62
     3
 10
7589.4851934709523
 20
17874.479048306541
 30
0.0
 11
7589.4851934709523
 21
19461.985684999981
 31
0.0
  0
LINE
  5
10E4C
  8
0-1
  6
CONTINUOUS
 62
     3
 10
6152.4843624709738
 20
18477.396606977101
 30
0.0
 11
6152.4843624709738
 21
19461.985684999981
 31
0.0
  0
LINE
  5
10E4D
  8
0-1
  6
CONTINUOUS
 62
     3
 10
6189.4835434709621
 20
18462.130463970661
 30
0.0
 11
6189.4835434709621
 21
19461.985684999981
 31
0.0
  0
LINE
  5
10E4E
  8
0-1
  6
CONTINUOUS
 62
     3
 10
5332.4835704709421
 20
16774.988087000002
 30
0.0
 11
7899.983570470944
 21
16774.988087000002
 31
0.0
  0
LINE
  5
10E4F
  8
0-1
  6
CONTINUOUS
 62
     3
 10
7899.983570470944
 20
16774.988087000002
 30
0.0
 11
10254.22278096057
 21
16774.988087000002
 31
0.0
  0
LINE
  5
10E50
  8
2-0
  6
DASHED3
 62
     6
 10
10254.22278096057
 20
16774.988087000002
 30
0.0
 11
12899.98357047094
 21
16774.988087000002
 31
0.0
  0
LINE
  5
10E51
  8
0-1
  6
CONTINUOUS
 62
     3
 10
7829.9844701147922
 20
16729.987612658861
 30
0.0
 11
5402.4842964709524
 21
14162.48571100001
 31
0.0
  0
LINE
  5
10E52
  8
0-1
  6
CONTINUOUS
 62
     3
 10
5402.4842964709524
 20
16729.98571099999
 30
0.0
 11
7829.9848244709519
 21
14162.48571100001
 31
0.0
  0
LINE
  5
10E53
  8
0-1
  6
CONTINUOUS
 62
     3
 10
6204.9669083591607
 20
18448.722607975342
 30
0.0
 11
7829.9844701147922
 21
16729.987612658861
 31
0.0
  0
LINE
  5
10E54
  8
0-1
  6
CONTINUOUS
 62
     3
 10
6796.1031639896628
 20
18203.977745639091
 30
0.0
 11
5402.4842964709524
 21
16729.98571099999
 31
0.0
  0
LINE
  5
10E55
  8
0-1
  6
CONTINUOUS
 62
     3
 10
5264.9823434709424
 20
18836.657125881298
 30
0.0
 11
5264.9823434709424
 21
19502.486634999961
 31
0.0
  0
LINE
  5
10E56
  8
0-1
  6
CONTINUOUS
 62
     3
 10
5320.4830954709414
 20
19484.987689999962
 30
0.0
 11
5320.4830954709414
 21
19514.98729399998
 31
0.0
  0
LINE
  5
10E57
  8
0-1
  6
CONTINUOUS
 62
     3
 10
5246.9835704709421
 20
19514.98729399998
 30
0.0
 11
5246.9835704709421
 21
19479.985446999999
 31
0.0
  0
LINE
  5
10E58
  8
0-1
  6
CONTINUOUS
 62
     3
 10
5315.4828314709321
 20
19519.985578999978
 30
0.0
 11
5251.982844470941
 21
19519.985578999978
 31
0.0
  0
LINE
  5
10E59
  8
0-1
  6
CONTINUOUS
 62
     3
 10
5264.9823434709424
 20
19502.486634999961
 30
0.0
 11
5246.9835704709421
 21
19502.486634999961
 31
0.0
  0
LINE
  5
10E5A
  8
0-1
  6
CONTINUOUS
 62
     3
 10
5264.9823434709424
 20
19479.985446999999
 30
0.0
 11
5315.4828314709321
 21
19479.985446999999
 31
0.0
  0
LINE
  5
10E5B
  8
2-0
  6
DASHED3
 62
     6
 10
5332.4835704709421
 20
19258.48721499999
 30
0.0
 11
12899.98357047094
 21
19258.48721499999
 31
0.0
  0
LINE
  5
10E5C
  8
2-0
  6
DASHED3
 62
     6
 10
5289.9842964709514
 20
18827.487564072111
 30
0.0
 11
5289.9842964709514
 21
19343.487743000002
 31
0.0
  0
LINE
  5
10E5D
  8
2-0
  6
DASHED3
 62
     6
 10
5332.4835704709421
 20
18809.952040933
 30
0.0
 11
5332.4835704709421
 21
19343.487743000002
 31
0.0
  0
LINE
  5
10E5E
  8
2-0
  6
DASHED3
 62
     6
 10
5289.9842964709514
 20
19343.487743000002
 30
0.0
 11
12899.98357047094
 21
19343.487743000002
 31
0.0
  0
LINE
  5
10E5F
  8
2-0
  6
DASHED3
 62
     6
 10
7899.983570470944
 20
17746.365060417262
 30
0.0
 11
7899.983570470944
 21
19343.487743000002
 31
0.0
  0
LINE
  5
10E60
  8
2-0
  6
DASHED3
 62
     6
 10
7942.4848244709519
 20
17728.828720315101
 30
0.0
 11
7942.4848244709519
 21
19343.487743000002
 31
0.0
  0
LINE
  5
10E61
  8
2-0
  6
DASHED3
 62
     6
 10
5402.4842964709524
 20
19297.48571099999
 30
0.0
 11
6204.9669083591516
 21
18448.722607975342
 31
0.0
  0
LINE
  5
10E62
  8
2-0
  6
DASHED3
 62
     6
 10
7829.9848244709519
 20
19297.48571099999
 30
0.0
 11
6796.1031639896628
 21
18203.977745639091
 31
0.0
  0
LINE
  5
10E63
  8
2-0
  6
CENTER2
 62
     6
 10
7899.983570470944
 20
20539.987954
 30
0.0
 11
7899.983570470944
 21
19561.985024999962
 31
0.0
  0
LINE
  5
10E64
  8
2-0
  6
CENTER2
 62
     6
 10
4002.9834654709521
 20
19297.48571099999
 30
0.0
 11
5649.4826864709521
 21
19297.48571099999
 31
0.0
  0
LINE
  5
10E65
  8
0-8
  6
CONTINUOUS
 62
     6
 10
5332.4835704709421
 20
20539.987954
 30
0.0
 11
5332.4835704709421
 21
19589.98729399998
 31
0.0
  0
LINE
  5
10E66
  8
2-0
  6
CENTER2
 62
     6
 10
4002.9834654709521
 20
16729.98571099999
 30
0.0
 11
13071.78301847094
 21
16729.98571099999
 31
0.0
  0
LINE
  5
10E67
  8
2-0
  6
CENTER2
 62
     6
 10
4002.9834654709521
 20
14162.48571100001
 30
0.0
 11
5649.4826864709521
 21
14162.48571100001
 31
0.0
  0
ARC
  5
10E68
  8
0-1
  6
CONTINUOUS
 62
     3
 10
5315.4828314709321
 20
19484.987689999962
 30
0.0
 40
5.0
 50
269.9999850001808
 51
0.0
  0
ARC
  5
10E69
  8
0-1
  6
CONTINUOUS
 62
     3
 10
5315.4855327884316
 20
19514.988412922328
 30
0.0
 40
4.99729880777691
 50
359.98717116373359
 51
90.030971551829396
  0
ARC
  5
10E6A
  8
0-1
  6
CONTINUOUS
 62
     3
 10
5251.9799179947113
 20
19514.988506186131
 30
0.0
 40
4.9970736707893684
 50
89.966445412290042
 51
180.0138987647515
  0
CIRCLE
  5
10E6B
  8
0-5
  6
CONTINUOUS
 62
     4
 10
7899.983570470944
 20
20739.98663499999
 30
0.0
 40
199.9999949999999
  0
CIRCLE
  5
10E6C
  8
0-5
  6
CONTINUOUS
 62
     4
 10
5332.4835704709421
 20
20739.98663499999
 30
0.0
 40
199.9999949999999
  0
CIRCLE
  5
10E6D
  8
0-5
  6
CONTINUOUS
 62
     4
 10
3802.9837944709529
 20
19297.48571099999
 30
0.0
 40
199.9999949999999
  0
CIRCLE
  5
10E6E
  8
0-5
  6
CONTINUOUS
 62
     4
 10
3802.9837944709529
 20
16729.98571099999
 30
0.0
 40
199.9999949999999
  0
CIRCLE
  5
10E6F
  8
0-5
  6
CONTINUOUS
 62
     4
 10
3802.9837944709529
 20
14162.48571100001
 30
0.0
 40
199.9999949999999
  0
TEXT
  5
10E70
  8
0-5
  6
CONTINUOUS
 62
     7
 10
7846.2663644709583
 20
20650.771712000002
 30
0.0
 40
160.0
  1
2
 72
     4
 11
7899.5996978042913
 21
20730.771712000002
 31
0.0
  0
TEXT
  5
10E71
  8
0-5
  6
CONTINUOUS
 62
     7
 10
5279.1502371376091
 20
20659.98663499999
 30
0.0
 40
160.0
  1
3
 72
     4
 11
5332.4835704709421
 21
20739.98663499999
 31
0.0
  0
TEXT
  5
10E72
  8
0-5
  6
CONTINUOUS
 62
     7
 10
3749.5239264709589
 20
19217.897186999991
 30
0.0
 40
160.0
  1
C
 72
     4
 11
3802.857259804292
 21
19297.897186999991
 31
0.0
  0
TEXT
  5
10E73
  8
0-5
  6
CONTINUOUS
 62
     7
 10
3749.5239264709589
 20
16650.398176999988
 30
0.0
 40
160.0
  1
B
 72
     4
 11
3802.857259804292
 21
16730.398176999988
 31
0.0
  0
TEXT
  5
10E74
  8
0-5
  6
CONTINUOUS
 62
     7
 10
3749.5239264709589
 20
14082.89718699999
 30
0.0
 40
160.0
  1
A
 72
     4
 11
3802.857259804292
 21
14162.89718699999
 31
0.0
  0
LINE
  5
10E75
  8
2-0
  6
CENTER2
 62
     6
 10
12899.98357047094
 20
20539.987954
 30
0.0
 11
12899.98357047094
 21
19589.98729399998
 31
0.0
  0
CIRCLE
  5
10E76
  8
0-5
  6
CONTINUOUS
 62
     4
 10
12899.98357047094
 20
20739.98663499999
 30
0.0
 40
199.9999949999999
  0
TEXT
  5
10E77
  8
0-5
  6
CONTINUOUS
 62
     7
 10
12872.933031137611
 20
20650.771712000002
 30
0.0
 40
160.0
  1
1
 72
     4
 11
12899.59969780428
 21
20730.771712000002
 31
0.0
  0
LINE
  5
10E78
  8
0-1
  6
CONTINUOUS
 62
     3
 10
12967.483808470941
 20
15656.71323723089
 30
0.0
 11
12967.483808470941
 21
19502.486634999961
 31
0.0
  0
LINE
  5
10E79
  8
0-1
  6
CONTINUOUS
 62
     3
 10
12967.483808470941
 20
19502.486634999961
 30
0.0
 11
12985.48357047094
 21
19502.486634999961
 31
0.0
  0
LINE
  5
10E7A
  8
0-1
  6
CONTINUOUS
 62
     3
 10
12911.98305647095
 20
19484.987689999962
 30
0.0
 11
12911.98305647095
 21
19514.98729399998
 31
0.0
  0
LINE
  5
10E7B
  8
0-1
  6
CONTINUOUS
 62
     3
 10
12967.483808470941
 20
19479.985446999999
 30
0.0
 11
12916.984310470951
 21
19479.985446999999
 31
0.0
  0
LINE
  5
10E7C
  8
0-1
  6
CONTINUOUS
 62
     3
 10
12985.48357047094
 20
19514.98729399998
 30
0.0
 11
12985.48357047094
 21
19479.985446999999
 31
0.0
  0
LINE
  5
10E7D
  8
0-1
  6
CONTINUOUS
 62
     3
 10
12916.984310470951
 20
19519.985578999978
 30
0.0
 11
12980.482317470931
 21
19519.985578999978
 31
0.0
  0
ARC
  5
10E7E
  8
0-1
  6
CONTINUOUS
 62
     3
 10
12980.482317470931
 20
19514.98729399998
 30
0.0
 40
5.0
 50
0.0
 51
90.0
  0
ARC
  5
10E7F
  8
0-1
  6
CONTINUOUS
 62
     3
 10
12916.984310470951
 20
19514.98729399998
 30
0.0
 40
5.0
 50
90.0
 51
180.0
  0
ARC
  5
10E80
  8
0-1
  6
CONTINUOUS
 62
     3
 10
12916.984310470951
 20
19484.987689999962
 30
0.0
 40
5.0
 50
180.0
 51
269.9999850001808
  0
LINE
  5
10E81
  8
0-1
  6
CONTINUOUS
 62
     3
 10
7899.983570470944
 20
14125.986358
 30
0.0
 11
7899.983570470944
 21
13969.98643699999
 31
0.0
  0
LINE
  5
10E82
  8
0-1
  6
CONTINUOUS
 62
     3
 10
5034.5920034764831
 20
18933.286432726341
 30
0.0
 11
8308.7820238155928
 21
17577.691714659399
 31
0.0
  0
LINE
  5
10E83
  8
0-1
  6
CONTINUOUS
 62
     3
 10
9233.1846294612278
 20
17196.276180804489
 30
0.0
 11
13222.48495547094
 21
15550.26057649985
 31
0.0
  0
LINE
  5
10E84
  8
0-1
  6
CONTINUOUS
 62
     3
 10
12849.983939470951
 20
14001.986344000001
 30
0.0
 11
12849.983939470951
 21
15705.1951467899
 31
0.0
  0
LINE
  5
10E85
  8
0-1
  6
CONTINUOUS
 62
     3
 10
12985.48357047094
 20
13969.98643699999
 30
0.0
 11
12985.48357047094
 21
15649.28639876184
 31
0.0
  0
LINE
  5
10E86
  8
0-1
  6
CONTINUOUS
 62
     3
 10
12899.98357047094
 20
14125.986358
 30
0.0
 11
12899.98357047094
 21
15683.327096625901
 31
0.0
  0
LINE
  5
10E87
  8
0-1
  6
CONTINUOUS
 62
     3
 10
12942.48482447095
 20
14125.986358
 30
0.0
 11
12942.48482447095
 21
15665.790756523749
 31
0.0
  0
LINE
  5
10E88
  8
0-1
  6
CONTINUOUS
 62
     3
 10
12846.983939470951
 20
15705.1951467899
 30
0.0
 11
12846.983939470951
 21
19461.985684999981
 31
0.0
  0
LINE
  5
10E89
  8
0-1
  6
CONTINUOUS
 62
     3
 10
12985.48357047094
 20
15649.28639876184
 30
0.0
 11
12985.48357047094
 21
19502.486634999961
 31
0.0
  0
LINE
  5
10E8A
  8
0-1
  6
CONTINUOUS
 62
     3
 10
12752.48370247093
 20
15744.186662093551
 30
0.0
 11
12752.48370247094
 21
19461.985684999981
 31
0.0
  0
LINE
  5
10E8B
  8
0-1
  6
CONTINUOUS
 62
     3
 10
12789.485853470949
 20
15728.91929364257
 30
0.0
 11
12789.485853470949
 21
19461.985684999981
 31
0.0
  0
LINE
  5
10E8C
  8
2-0
  6
DASHED3
 62
     6
 10
12899.98357047094
 20
15683.327096625901
 30
0.0
 11
12899.98357047094
 21
19461.985684999981
 31
0.0
  0
LINE
  5
10E8D
  8
2-0
  6
DASHED3
 62
     6
 10
12942.48482447095
 20
15665.790756523749
 30
0.0
 11
12942.48482447095
 21
19461.985684999981
 31
0.0
  0
LINE
  5
10E8E
  8
0-1
  6
CONTINUOUS
 62
     3
 10
7752.4856814709501
 20
17807.22380933446
 30
0.0
 11
7752.4856814709619
 21
19461.985684999981
 31
0.0
  0
LINE
  5
10E8F
  8
0-1
  6
CONTINUOUS
 62
     3
 10
7789.4858534709629
 20
17791.957257433889
 30
0.0
 11
7789.4858534709629
 21
19461.985684999981
 31
0.0
  0
LINE
  5
10E90
  8
0-1
  6
CONTINUOUS
 62
     3
 10
7952.4863414709807
 20
17724.70201846178
 30
0.0
 11
7952.4863414709807
 21
19461.985684999981
 31
0.0
  0
LINE
  5
10E91
  8
0-1
  6
CONTINUOUS
 62
     3
 10
7989.4865134709817
 20
17709.435466561212
 30
0.0
 11
7989.4865134709817
 21
19461.985684999981
 31
0.0
  0
LINE
  5
10E92
  8
0-1
  6
CONTINUOUS
 62
     3
 10
8152.4870014709822
 20
17642.180227589099
 30
0.0
 11
8152.4870014709822
 21
19461.985684999981
 31
0.0
  0
LINE
  5
10E93
  8
0-1
  6
CONTINUOUS
 62
     3
 10
8189.4871734709914
 20
17626.91367568856
 30
0.0
 11
8189.4871734709914
 21
19461.985684999981
 31
0.0
  0
LINE
  5
10E94
  8
0-1
  6
CONTINUOUS
 62
     3
 10
8352.4876614709938
 20
17683.61714701321
 30
0.0
 11
8352.4876614709938
 21
19461.985684999981
 31
0.0
  0
LINE
  5
10E95
  8
0-1
  6
CONTINUOUS
 62
     3
 10
8389.487833470992
 20
17773.291143927981
 30
0.0
 11
8389.487833470992
 21
19461.985684999981
 31
0.0
  0
LINE
  5
10E96
  8
0-1
  6
CONTINUOUS
 62
     3
 10
8552.4883214710098
 20
17638.213552947629
 30
0.0
 11
8552.4883214710098
 21
19461.985684999981
 31
0.0
  0
LINE
  5
10E97
  8
0-1
  6
CONTINUOUS
 62
     3
 10
8589.4884934710026
 20
17595.670312558759
 30
0.0
 11
8589.4884934710026
 21
19461.985684999981
 31
0.0
  0
LINE
  5
10E98
  8
0-1
  6
CONTINUOUS
 62
     3
 10
8752.4889814710114
 20
17408.250401524641
 30
0.0
 11
8752.4889814710004
 21
19461.985684999981
 31
0.0
  0
LINE
  5
10E99
  8
0-1
  6
CONTINUOUS
 62
     3
 10
8789.4891534710114
 20
17365.707161135771
 30
0.0
 11
8789.4891534710114
 21
19461.985684999981
 31
0.0
  0
LINE
  5
10E9A
  8
0-1
  6
CONTINUOUS
 62
     3
 10
8952.4896414710111
 20
17178.28725010165
 30
0.0
 11
8952.4896414710111
 21
19461.985684999981
 31
0.0
  0
LINE
  5
10E9B
  8
0-1
  6
CONTINUOUS
 62
     3
 10
8989.489813471022
 20
17135.744009712758
 30
0.0
 11
8989.489813471022
 21
19461.985684999981
 31
0.0
  0
LINE
  5
10E9C
  8
0-1
  6
CONTINUOUS
 62
     3
 10
9152.4903014710308
 20
17000.69523749184
 30
0.0
 11
9152.4903014710308
 21
19461.985684999981
 31
0.0
  0
LINE
  5
10E9D
  8
0-1
  6
CONTINUOUS
 62
     3
 10
9189.4904734710417
 20
17090.373517523742
 30
0.0
 11
9189.4904734710417
 21
19461.985684999981
 31
0.0
  0
LINE
  5
10E9E
  8
0-1
  6
CONTINUOUS
 62
     3
 10
9352.4909614710286
 20
17147.049482353101
 30
0.0
 11
9352.4909614710286
 21
19461.985684999981
 31
0.0
  0
LINE
  5
10E9F
  8
0-1
  6
CONTINUOUS
 62
     3
 10
9389.4911334710341
 20
17131.782930452529
 30
0.0
 11
9389.4911334710341
 21
19461.985684999981
 31
0.0
  0
LINE
  5
10EA0
  8
0-1
  6
CONTINUOUS
 62
     3
 10
9552.4916214710429
 20
17064.527691480409
 30
0.0
 11
9552.4916214710356
 21
19461.985684999981
 31
0.0
  0
LINE
  5
10EA1
  8
0-1
  6
CONTINUOUS
 62
     3
 10
9589.4917934710484
 20
17049.261139579849
 30
0.0
 11
9589.4917934710484
 21
19461.985684999981
 31
0.0
  0
LINE
  5
10EA2
  8
0-1
  6
CONTINUOUS
 62
     3
 10
9752.4922814710499
 20
16982.005900607739
 30
0.0
 11
9752.4922814710499
 21
19461.985684999981
 31
0.0
  0
LINE
  5
10EA3
  8
0-1
  6
CONTINUOUS
 62
     3
 10
9789.4924534710535
 20
16966.7393487072
 30
0.0
 11
9789.4924534710535
 21
19461.985684999981
 31
0.0
  0
LINE
  5
10EA4
  8
0-1
  6
CONTINUOUS
 62
     3
 10
9952.4929414710641
 20
16899.48410973508
 30
0.0
 11
9952.4929414710641
 21
19461.985684999981
 31
0.0
  0
LINE
  5
10EA5
  8
0-1
  6
CONTINUOUS
 62
     3
 10
9989.4931134710678
 20
16884.21755783449
 30
0.0
 11
9989.4931134710587
 21
19461.985684999981
 31
0.0
  0
LINE
  5
10EA6
  8
0-1
  6
CONTINUOUS
 62
     3
 10
10152.493601471069
 20
16816.962318862421
 30
0.0
 11
10152.493601471069
 21
19461.985684999981
 31
0.0
  0
LINE
  5
10EA7
  8
0-1
  6
CONTINUOUS
 62
     3
 10
10189.493773471069
 20
16801.69576696185
 30
0.0
 11
10189.49377347108
 21
19461.985684999981
 31
0.0
  0
LINE
  5
10EA8
  8
0-1
  6
CONTINUOUS
 62
     3
 10
10352.49426147108
 20
16734.440527989729
 30
0.0
 11
10352.494261471071
 21
19461.985684999981
 31
0.0
  0
LINE
  5
10EA9
  8
0-1
  6
CONTINUOUS
 62
     3
 10
10389.49443347108
 20
16719.17397608918
 30
0.0
 11
10389.49443347108
 21
19461.985684999981
 31
0.0
  0
LINE
  5
10EAA
  8
0-1
  6
CONTINUOUS
 62
     3
 10
10552.49492147108
 20
16651.918737117059
 30
0.0
 11
10552.49492147109
 21
19461.985684999981
 31
0.0
  0
LINE
  5
10EAB
  8
0-1
  6
CONTINUOUS
 62
     3
 10
10589.495093471091
 20
16636.652185216491
 30
0.0
 11
10589.495093471091
 21
19461.985684999981
 31
0.0
  0
LINE
  5
10EAC
  8
0-1
  6
CONTINUOUS
 62
     3
 10
10752.49558147109
 20
16569.396946244411
 30
0.0
 11
10752.49558147109
 21
19461.985684999981
 31
0.0
  0
LINE
  5
10EAD
  8
0-1
  6
CONTINUOUS
 62
     3
 10
10789.495753471099
 20
16554.130394343822
 30
0.0
 11
10789.495753471099
 21
19461.985684999981
 31
0.0
  0
LINE
  5
10EAE
  8
0-1
  6
CONTINUOUS
 62
     3
 10
10952.496241471101
 20
16486.875155371741
 30
0.0
 11
10952.496241471101
 21
19461.985684999981
 31
0.0
  0
LINE
  5
10EAF
  8
0-1
  6
CONTINUOUS
 62
     3
 10
10989.49641347111
 20
16471.608603471159
 30
0.0
 11
10989.49641347111
 21
19461.985684999981
 31
0.0
  0
LINE
  5
10EB0
  8
0-1
  6
CONTINUOUS
 62
     3
 10
11152.496901471101
 20
16404.353364499071
 30
0.0
 11
11152.496901471101
 21
19461.985684999981
 31
0.0
  0
LINE
  5
10EB1
  8
0-1
  6
CONTINUOUS
 62
     3
 10
11189.497073471121
 20
16389.086812598482
 30
0.0
 11
11189.497073471121
 21
19461.985684999981
 31
0.0
  0
LINE
  5
10EB2
  8
0-1
  6
CONTINUOUS
 62
     3
 10
11352.49756147112
 20
16321.831573626379
 30
0.0
 11
11352.497561471109
 21
19461.985684999981
 31
0.0
  0
LINE
  5
10EB3
  8
0-1
  6
CONTINUOUS
 62
     3
 10
11389.497733471129
 20
16306.565021725821
 30
0.0
 11
11389.497733471129
 21
19461.985684999981
 31
0.0
  0
LINE
  5
10EB4
  8
0-1
  6
CONTINUOUS
 62
     3
 10
11552.498221471131
 20
16239.309782753729
 30
0.0
 11
11552.498221471131
 21
19461.985684999981
 31
0.0
  0
LINE
  5
10EB5
  8
0-1
  6
CONTINUOUS
 62
     3
 10
11589.49839347112
 20
16224.04323085316
 30
0.0
 11
11589.49839347112
 21
19461.985684999981
 31
0.0
  0
LINE
  5
10EB6
  8
0-1
  6
CONTINUOUS
 62
     3
 10
11752.498881471131
 20
16156.78799188105
 30
0.0
 11
11752.498881471131
 21
19461.985684999981
 31
0.0
  0
LINE
  5
10EB7
  8
0-1
  6
CONTINUOUS
 62
     3
 10
11789.49905347114
 20
16141.52143998049
 30
0.0
 11
11789.49905347114
 21
19461.985684999981
 31
0.0
  0
LINE
  5
10EB8
  8
0-1
  6
CONTINUOUS
 62
     3
 10
11952.499541471139
 20
16074.26620100839
 30
0.0
 11
11952.499541471139
 21
19461.985684999981
 31
0.0
  0
LINE
  5
10EB9
  8
0-1
  6
CONTINUOUS
 62
     3
 10
11989.49971347115
 20
16058.9996491078
 30
0.0
 11
11989.49971347115
 21
19461.985684999981
 31
0.0
  0
LINE
  5
10EBA
  8
0-1
  6
CONTINUOUS
 62
     3
 10
12152.50020147115
 20
15991.7444101357
 30
0.0
 11
12152.50020147115
 21
19461.985684999981
 31
0.0
  0
LINE
  5
10EBB
  8
0-1
  6
CONTINUOUS
 62
     3
 10
12189.500373471161
 20
15976.47785823515
 30
0.0
 11
12189.500373471161
 21
19461.985684999981
 31
0.0
  0
LINE
  5
10EBC
  8
0-1
  6
CONTINUOUS
 62
     3
 10
12352.500861471161
 20
15909.222619263041
 30
0.0
 11
12352.500861471161
 21
19461.985684999981
 31
0.0
  0
LINE
  5
10EBD
  8
0-1
  6
CONTINUOUS
 62
     3
 10
12389.501033471161
 20
15893.95606736248
 30
0.0
 11
12389.501033471161
 21
19461.985684999981
 31
0.0
  0
LINE
  5
10EBE
  8
0-1
  6
CONTINUOUS
 62
     3
 10
12552.501521471169
 20
15826.70082839038
 30
0.0
 11
12552.501521471169
 21
19461.985684999981
 31
0.0
  0
LINE
  5
10EBF
  8
0-1
  6
CONTINUOUS
 62
     3
 10
12589.50169347118
 20
15811.434276489799
 30
0.0
 11
12589.50169347118
 21
19461.985684999981
 31
0.0
  0
LINE
  5
10EC0
  8
0-1
  6
CONTINUOUS
 62
     3
 10
7959.4839394709543
 20
14162.48571100001
 30
0.0
 11
10208.483939470951
 21
16729.98571099999
 31
0.0
  0
LINE
  5
10EC1
  8
2-0
  6
DASHED3
 62
     6
 10
12067.521000549739
 20
16026.80747366246
 30
0.0
 11
12609.483939470951
 21
16729.98571099999
 31
0.0
  0
LINE
  5
10EC2
  8
0-1
  6
CONTINUOUS
 62
     3
 10
10208.483939470951
 20
14162.48571100001
 30
0.0
 11
7959.4839394709543
 21
16729.98571099999
 31
0.0
  0
LINE
  5
10EC3
  8
2-0
  6
DASHED3
 62
     6
 10
7959.4839394709543
 20
19297.48571099999
 30
0.0
 11
10135.93312576421
 21
16823.795296878779
 31
0.0
  0
LINE
  5
10EC4
  8
2-0
  6
DASHED3
 62
     6
 10
10208.483939470951
 20
19297.48571099999
 30
0.0
 11
8610.3973064277252
 21
17571.62910929451
 31
0.0
  0
LINE
  5
10EC5
  8
0-1
  6
CONTINUOUS
 62
     3
 10
8610.3973064277252
 20
17571.62910929451
 30
0.0
 11
7959.4839394709543
 21
16729.98571099999
 31
0.0
  0
LINE
  5
10EC6
  8
0-1
  6
CONTINUOUS
 62
     3
 10
8308.781486055821
 20
17577.690411339288
 30
0.0
 11
8404.1355063793417
 21
17808.791394445481
 31
0.0
  0
LINE
  5
10EC7
  8
0-1
  6
CONTINUOUS
 62
     3
 10
9137.8350385625599
 20
16965.174895287852
 30
0.0
 11
9233.1856882400716
 21
17196.278746994329
 31
0.0
  0
LINE
  5
10EC8
  8
0-1
  6
CONTINUOUS
 62
     3
 10
9137.8350385625599
 20
16965.174895287852
 30
0.0
 11
8404.1355063793417
 21
17808.791394445481
 31
0.0
  0
LINE
  5
10EC9
  8
0-1
  6
CONTINUOUS
 62
     3
 10
10208.483939470951
 20
16729.985711000008
 30
0.0
 11
10135.93312576421
 21
16823.795296878779
 31
0.0
  0
LINE
  5
10ECA
  8
2-0
  6
DASHED3
 62
     6
 10
10360.483939470951
 20
19297.48571099999
 30
0.0
 11
12609.483939470951
 21
16729.98571099999
 31
0.0
  0
LINE
  5
10ECB
  8
2-0
  6
DASHED3
 62
     6
 10
12609.483939470951
 20
19297.48571099999
 30
0.0
 11
10360.483939470951
 21
16729.98571099999
 31
0.0
  0
LINE
  5
10ECC
  8
0-1
  6
CONTINUOUS
 62
     3
 10
10360.483939470951
 20
14162.48571100001
 30
0.0
 11
12067.521000549739
 21
16026.80747366246
 31
0.0
  0
LINE
  5
10ECD
  8
0-1
  6
CONTINUOUS
 62
     3
 10
12609.483939470951
 20
14162.48571100001
 30
0.0
 11
10360.483939470951
 21
16729.98571099999
 31
0.0
  0
LINE
  5
10ECE
  8
SUNPOU
  6
CONTINUOUS
 10
4402.9837944709634
 20
19519.983599499999
 30
0.0
 11
4402.9837944709634
 21
20316.95086727848
 31
0.0
  0
LINE
  5
10ECF
  8
SUNPOU
  6
CONTINUOUS
 10
4402.9837944709407
 20
13228.6738468478
 30
0.0
 11
4402.9837944709407
 21
13969.98643699999
 31
0.0
  0
LINE
  5
10ED0
  8
0-1
  6
CONTINUOUS
 62
     3
 10
5952.4846924709618
 20
18553.256418211698
 30
0.0
 11
5952.4846924709618
 21
19461.985684999981
 31
0.0
  0
LINE
  5
10ED1
  8
0-1
  6
CONTINUOUS
 62
     3
 10
5989.485853470951
 20
18537.93703292789
 30
0.0
 11
5989.485853470951
 21
19461.985684999981
 31
0.0
  0
LINE
  5
10ED2
  8
0-1
  6
CONTINUOUS
 62
     3
 10
5752.4840334709743
 20
18636.061580791189
 30
0.0
 11
5752.4840334709743
 21
19461.985684999981
 31
0.0
  0
LINE
  5
10ED3
  8
0-1
  6
CONTINUOUS
 62
     3
 10
5789.4832144709617
 20
18620.743015275792
 30
0.0
 11
5789.4832144709617
 21
19461.985684999981
 31
0.0
  0
LINE
  5
10ED4
  8
0-1
  6
CONTINUOUS
 62
     3
 10
5552.4843634709814
 20
18718.866333900482
 30
0.0
 11
5552.4843634709814
 21
19461.985684999981
 31
0.0
  0
LINE
  5
10ED5
  8
0-1
  6
CONTINUOUS
 62
     3
 10
5589.4855244709624
 20
18703.54694861668
 30
0.0
 11
5589.4855244709624
 21
19461.985684999981
 31
0.0
  0
LINE
  5
10ED6
  8
0-1
  6
CONTINUOUS
 62
     3
 10
12908.984045470939
 20
19509.989010000001
 30
0.0
 11
5320.4830954709414
 21
19509.989010000001
 31
0.0
  0
LINE
  5
10ED7
  8
0-1
  6
CONTINUOUS
 62
     3
 10
12964.483808470941
 20
19461.985684999981
 30
0.0
 11
5264.9823434709424
 21
19461.985684999981
 31
0.0
  0
LINE
  5
10ED8
  8
0-6
  6
CONTINUOUS
 62
     6
 10
9011.0571020999723
 20
19652.391617999991
 30
0.0
 11
9054.3590710999906
 21
19627.390297999998
 31
0.0
  0
LINE
  5
10ED9
  8
0-6
  6
CONTINUOUS
 62
     6
 10
9011.0571020999723
 20
19652.391617999991
 30
0.0
 11
8957.7090760999818
 21
19509.98900999995
 31
0.0
  0
LINE
  5
10EDA
  8
0-6
  6
CONTINUOUS
 62
     6
 10
9054.3590710999906
 20
19627.390297999998
 30
0.0
 11
9011.0571020999723
 21
19652.391617999991
 31
0.0
  0
LINE
  5
10EDB
  8
0-6
  6
CONTINUOUS
 62
     6
 10
8957.7090760999818
 20
19509.98900999995
 30
0.0
 11
9054.3590710999906
 21
19627.390297999998
 31
0.0
  0
LINE
  5
10EDC
  8
0-6
  6
CONTINUOUS
 62
     6
 10
8957.7090760999818
 20
19509.98900999995
 30
0.0
 11
9011.0571020999723
 21
19652.391617999991
 31
0.0
  0
LINE
  5
10EDD
  8
0-6
  6
CONTINUOUS
 62
     6
 10
9054.3590710999906
 20
19627.390297999998
 30
0.0
 11
8957.7090760999818
 21
19509.98900999995
 31
0.0
  0
LINE
  5
10EDE
  8
0-6
  6
CONTINUOUS
 62
     6
 10
9032.7070970999721
 20
19639.892938000001
 30
0.0
 11
9258.2929137696574
 21
20063.562777731098
 31
0.0
  0
TEXT
  5
10EDF
  8
0-6
  6
CONTINUOUS
 62
     7
 10
8706.6307837666391
 20
20619.988217999999
 30
0.0
 40
160.0
  1
鼻隠し後
 72
     4
 11
9069.2974504333051
 21
20699.988217999999
 31
0.0
  0
LINE
  5
10EE0
  8
0-6
  6
CONTINUOUS
 62
     6
 10
9511.9663610999705
 20
20539.987954
 30
0.0
 11
8669.5268020999702
 21
20539.987954
 31
0.0
  0
LINE
  5
10EE1
  8
0-6
  6
CONTINUOUS
 62
     6
 10
9326.3267728221817
 20
20191.337456683399
 30
0.0
 11
9511.9663610999705
 21
20539.987954
 31
0.0
  0
LINE
  5
10EE2
  8
0-6
  6
CONTINUOUS
 62
     6
 10
16683.34053930825
 20
14049.7162631389
 30
0.0
 11
14054.443550695139
 21
14049.7162631389
 31
0.0
  0
TEXT
  5
10EE3
  8
0-6
  6
CONTINUOUS
 62
     7
 10
14119.60622671672
 20
14129.716527138909
 30
0.0
 40
160.0
  1
桁前（PU）+ 桁補強（PU）
 72
     4
 11
15367.60622671672
 21
14209.716527138909
 31
0.0
  0
LINE
  5
10EE4
  8
0-6
  6
CONTINUOUS
 62
     6
 10
14054.443550695139
 20
14049.7162631389
 30
0.0
 11
12393.138309814671
 21
13623.786373777601
 31
0.0
  0
LINE
  5
10EE5
  8
0-6
  6
CONTINUOUS
 62
     6
 10
12393.138309814671
 20
13623.786373777601
 30
0.0
 11
12016.195846319129
 21
14125.98635799994
 31
0.0
  0
LINE
  5
10EE6
  8
0-6
  6
CONTINUOUS
 62
     6
 10
16584.251237584849
 20
16653.715616139041
 30
0.0
 11
14054.443550695139
 21
16653.715616139041
 31
0.0
  0
TEXT
  5
10EE7
  8
0-6
  6
CONTINUOUS
 62
     7
 10
14175.97946573763
 20
16733.715880139021
 30
0.0
 40
160.0
  1
桁（PU）+ 桁補強（PU）
 72
     4
 11
15327.97946573763
 21
16813.715880139021
 31
0.0
  0
LINE
  5
10EE8
  8
0-6
  6
CONTINUOUS
 62
     6
 10
14054.443550695139
 20
16653.715616139041
 30
0.0
 11
12393.138309814671
 21
16227.78572677772
 31
0.0
  0
LINE
  5
10EE9
  8
0-6
  6
CONTINUOUS
 62
     6
 10
12393.138309814671
 20
16227.78572677772
 30
0.0
 11
12016.195846319129
 21
16729.98571100007
 31
0.0
  0
LINE
  5
10EEA
  8
0-6
  6
CONTINUOUS
 62
     6
 10
16584.251237584849
 20
19182.217120138928
 30
0.0
 11
14054.44355069513
 21
19182.217120138928
 31
0.0
  0
TEXT
  5
10EEB
  8
0-6
  6
CONTINUOUS
 62
     7
 10
14175.97946573763
 20
19262.217384138909
 30
0.0
 40
160.0
  1
桁（PU）+ 桁補強（PU）
 72
     4
 11
15327.97946573763
 21
19342.217384138909
 31
0.0
  0
LINE
  5
10EEC
  8
0-6
  6
CONTINUOUS
 62
     6
 10
14054.44355069513
 20
19182.217120138928
 30
0.0
 11
12393.138309814671
 21
18756.287230777602
 31
0.0
  0
LINE
  5
10EED
  8
0-6
  6
CONTINUOUS
 62
     6
 10
12393.138309814671
 20
18756.287230777602
 30
0.0
 11
12016.195846319129
 21
19258.48721499995
 31
0.0
  0
TEXT
  5
10EEE
  8
0-6
  6
CONTINUOUS
 62
     7
 10
13582.91474845943
 20
14933.848581526039
 30
0.0
 40
160.0
  1
梁（P）前
 72
     4
 11
14025.5814151261
 21
15013.848581526039
 31
0.0
  0
LINE
  5
10EEF
  8
0-6
  6
CONTINUOUS
 62
     6
 10
14532.4457699748
 20
14853.84930752605
 30
0.0
 11
13517.45560064995
 21
14853.84930752605
 31
0.0
  0
LINE
  5
10EF0
  8
0-6
  6
CONTINUOUS
 62
     6
 10
12090.915591389779
 20
19114.51522062123
 30
0.0
 11
12016.195846319149
 21
19258.48721499995
 31
0.0
  0
LINE
  5
10EF1
  8
0-6
  6
CONTINUOUS
 62
     6
 10
12016.195846319149
 20
19258.48721499995
 30
0.0
 11
12133.571889302801
 21
19146.530225322491
 31
0.0
  0
LINE
  5
10EF2
  8
0-6
  6
CONTINUOUS
 62
     6
 10
12133.571889302801
 20
19146.530225322491
 30
0.0
 11
12090.915591389779
 21
19114.51522062123
 31
0.0
  0
LINE
  5
10EF3
  8
0-6
  6
CONTINUOUS
 62
     6
 10
12090.915591389779
 20
16586.013716621339
 30
0.0
 11
12016.195846319149
 21
16729.98571100007
 31
0.0
  0
LINE
  5
10EF4
  8
0-6
  6
CONTINUOUS
 62
     6
 10
12016.195846319149
 20
16729.98571100007
 30
0.0
 11
12133.571889302801
 21
16618.028721322589
 31
0.0
  0
LINE
  5
10EF5
  8
0-6
  6
CONTINUOUS
 62
     6
 10
12133.571889302801
 20
16618.028721322589
 30
0.0
 11
12090.915591389779
 21
16586.013716621339
 31
0.0
  0
LINE
  5
10EF6
  8
0-6
  6
CONTINUOUS
 62
     6
 10
12090.915591389779
 20
13982.01436362122
 30
0.0
 11
12016.195846319149
 21
14125.98635799994
 31
0.0
  0
LINE
  5
10EF7
  8
0-6
  6
CONTINUOUS
 62
     6
 10
12016.195846319149
 20
14125.98635799994
 30
0.0
 11
12133.571889302801
 21
14014.029368322481
 31
0.0
  0
LINE
  5
10EF8
  8
0-6
  6
CONTINUOUS
 62
     6
 10
12133.571889302801
 20
14014.029368322481
 30
0.0
 11
12090.915591389779
 21
13982.01436362122
 31
0.0
  0
LINE
  5
10EF9
  8
SUNPOU
  6
CONTINUOUS
 62
     4
 10
5169.9835704709421
 20
13969.98643699999
 30
0.0
 11
4322.9837944709634
 21
13969.98643699999
 31
0.0
  0
LINE
  5
10EFA
  8
SUNPOU
  6
CONTINUOUS
 62
     4
 10
4402.9837944709634
 20
14162.48571100001
 30
0.0
 11
4402.9837944709634
 21
13969.98643699999
 31
0.0
  0
LINE
  5
10EFB
  8
SUNPOU
  6
CONTINUOUS
 62
     4
 10
4402.9837944709634
 20
16729.98571099999
 30
0.0
 11
4402.9837944709634
 21
14162.48571100001
 31
0.0
  0
LINE
  5
10EFC
  8
SUNPOU
  6
CONTINUOUS
 62
     4
 10
4402.9837944709634
 20
19297.48571099999
 30
0.0
 11
4402.9837944709634
 21
16729.98571099999
 31
0.0
  0
LINE
  5
10EFD
  8
SUNPOU
  6
CONTINUOUS
 62
     4
 10
4482.9837944709634
 20
19297.48571099999
 30
0.0
 11
4442.9837944709634
 21
19297.48571099999
 31
0.0
  0
LINE
  5
10EFE
  8
SUNPOU
  6
CONTINUOUS
 62
     4
 10
5174.9828444709419
 20
19519.985578999978
 30
0.0
 11
4362.9837944709634
 21
19519.985578999978
 31
0.0
  0
LINE
  5
10EFF
  8
SUNPOU
  6
CONTINUOUS
 62
     4
 10
4402.9837944709634
 20
19297.48571099999
 30
0.0
 11
4402.9837944709634
 21
19519.985578999978
 31
0.0
  0
LINE
  5
10F00
  8
SUNPOU
  6
CONTINUOUS
 62
     4
 10
5243.4836894709633
 20
19509.989010000001
 30
0.0
 11
4722.9831354709731
 21
19509.989010000001
 31
0.0
  0
LINE
  5
10F01
  8
SUNPOU
  6
CONTINUOUS
 62
     4
 10
5174.9828444709419
 20
19519.985578999978
 30
0.0
 11
4722.9831354709731
 21
19519.985578999978
 31
0.0
  0
LINE
  5
10F02
  8
SUNPOU
  6
CONTINUOUS
 62
     4
 10
4802.983135470974
 20
19509.989010000001
 30
0.0
 11
4802.983135470974
 21
19269.989010000001
 31
0.0
  0
LINE
  5
10F03
  8
SUNPOU
  6
CONTINUOUS
 62
     4
 10
4802.983135470974
 20
19519.985578999978
 30
0.0
 11
4802.983135470974
 21
19759.985578999978
 31
0.0
  0
LINE
  5
10F04
  8
SUNPOU
  6
CONTINUOUS
 62
     4
 10
4802.983135470974
 20
19509.989010000001
 30
0.0
 11
4802.983135470974
 21
19519.985578999978
 31
0.0
  0
LINE
  5
10F05
  8
SUNPOU
  6
CONTINUOUS
 62
     4
 10
12899.98357047094
 20
20144.987624000009
 30
0.0
 11
12899.98357047094
 21
20219.98663499999
 31
0.0
  0
LINE
  5
10F06
  8
SUNPOU
  6
CONTINUOUS
 62
     4
 10
12985.48357047094
 20
19594.98729399998
 30
0.0
 11
12985.48357047094
 21
20219.98663499999
 31
0.0
  0
LINE
  5
10F07
  8
SUNPOU
  6
CONTINUOUS
 62
     4
 10
12899.98357047094
 20
20139.98663499999
 30
0.0
 11
12659.98357047094
 21
20139.98663499999
 31
0.0
  0
LINE
  5
10F08
  8
SUNPOU
  6
CONTINUOUS
 62
     4
 10
12982.48357047094
 20
20139.98663499999
 30
0.0
 11
13222.483570470929
 21
20139.98663499999
 31
0.0
  0
LINE
  5
10F09
  8
SUNPOU
  6
CONTINUOUS
 62
     4
 10
12899.98357047094
 20
20139.98663499999
 30
0.0
 11
12982.48357047094
 21
20139.98663499999
 31
0.0
  0
LINE
  5
10F0A
  8
SUNPOU
  6
CONTINUOUS
 62
     4
 10
7899.983570470944
 20
20144.987624000009
 30
0.0
 11
7899.983570470944
 21
20219.98663499999
 31
0.0
  0
LINE
  5
10F0B
  8
SUNPOU
  6
CONTINUOUS
 62
     4
 10
12899.98357047094
 20
20144.987624000009
 30
0.0
 11
12899.98357047094
 21
20219.98663499999
 31
0.0
  0
LINE
  5
10F0C
  8
SUNPOU
  6
CONTINUOUS
 62
     4
 10
7899.983570470944
 20
20139.98663499999
 30
0.0
 11
12899.98357047094
 21
20139.98663499999
 31
0.0
  0
LINE
  5
10F0D
  8
SUNPOU
  6
CONTINUOUS
 62
     4
 10
5332.4835704709421
 20
19669.98729399998
 30
0.0
 11
5332.4835704709421
 21
20219.98663499999
 31
0.0
  0
LINE
  5
10F0E
  8
SUNPOU
  6
CONTINUOUS
 62
     4
 10
7899.983570470944
 20
20144.987624000009
 30
0.0
 11
7899.983570470944
 21
20219.98663499999
 31
0.0
  0
LINE
  5
10F0F
  8
SUNPOU
  6
CONTINUOUS
 62
     4
 10
5332.4835704709421
 20
20139.98663499999
 30
0.0
 11
7899.983570470944
 21
20139.98663499999
 31
0.0
  0
LINE
  5
10F10
  8
SUNPOU
  6
CONTINUOUS
 62
     4
 10
5332.4835704709421
 20
19669.98729399998
 30
0.0
 11
5332.4835704709421
 21
20219.98663499999
 31
0.0
  0
LINE
  5
10F11
  8
SUNPOU
  6
CONTINUOUS
 62
     4
 10
5246.9835704709421
 20
19589.98703099999
 30
0.0
 11
5246.9835704709421
 21
20219.98663499999
 31
0.0
  0
LINE
  5
10F12
  8
SUNPOU
  6
CONTINUOUS
 62
     4
 10
5332.4835704709421
 20
20139.98663499999
 30
0.0
 11
5572.4835704709421
 21
20139.98663499999
 31
0.0
  0
LINE
  5
10F13
  8
SUNPOU
  6
CONTINUOUS
 62
     4
 10
5249.9835704709421
 20
20139.98663499999
 30
0.0
 11
5009.9835704709421
 21
20139.98663499999
 31
0.0
  0
LINE
  5
10F14
  8
SUNPOU
  6
CONTINUOUS
 62
     4
 10
5332.4835704709421
 20
20139.98663499999
 30
0.0
 11
5249.9835704709421
 21
20139.98663499999
 31
0.0
  0
LINE
  5
10F15
  8
SUNPOU
  6
CONTINUOUS
 62
     4
 10
5246.9835704709421
 20
13889.98643699999
 30
0.0
 11
5246.9835704709421
 21
12599.985644999981
 31
0.0
  0
LINE
  5
10F16
  8
SUNPOU
  6
CONTINUOUS
 62
     4
 10
12985.48357047094
 20
13889.98643699999
 30
0.0
 11
12985.48357047094
 21
12599.985644999981
 31
0.0
  0
LINE
  5
10F17
  8
SUNPOU
  6
CONTINUOUS
 62
     4
 10
5249.9835704709421
 20
12679.985644999981
 30
0.0
 11
12982.48357047094
 21
12679.985644999981
 31
0.0
  0
LINE
  5
10F18
  8
0-6
  6
CONTINUOUS
 62
     6
 10
9626.2278887907796
 20
15819.11196333169
 30
0.0
 11
9506.3731618842648
 21
15928.44306028694
 31
0.0
  0
LINE
  5
10F19
  8
0-6
  6
CONTINUOUS
 62
     6
 10
9506.3731618842648
 20
15928.44306028694
 30
0.0
 11
9584.2985599210406
 21
15786.15435144438
 31
0.0
  0
LINE
  5
10F1A
  8
0-6
  6
CONTINUOUS
 62
     6
 10
9584.2985599210406
 20
15786.15435144438
 30
0.0
 11
9626.2278887907796
 21
15819.11196333169
 31
0.0
  0
LINE
  5
10F1B
  8
0-6
  6
CONTINUOUS
 62
     6
 10
5995.2842643844633
 20
16923.602003278269
 30
0.0
 11
5963.6446180157218
 21
16764.487650999989
 31
0.0
  0
LINE
  5
10F1C
  8
0-6
  6
CONTINUOUS
 62
     6
 10
5963.6446180157218
 20
16764.487650999989
 30
0.0
 11
6045.17074391809
 21
16904.744326843349
 31
0.0
  0
LINE
  5
10F1D
  8
0-6
  6
CONTINUOUS
 62
     6
 10
6045.17074391809
 20
16904.744326843349
 30
0.0
 11
5995.2842643844633
 21
16923.602003278269
 31
0.0
  0
LINE
  5
10F1E
  8
0-6
  6
CONTINUOUS
 62
     6
 10
13072.583697860669
 20
15288.550978116829
 30
0.0
 11
12982.48357047094
 21
15423.43219442641
 31
0.0
  0
LINE
  5
10F1F
  8
0-6
  6
CONTINUOUS
 62
     6
 10
12982.48357047094
 20
15423.43219442641
 30
0.0
 11
13111.460330252699
 21
15325.0629998565
 31
0.0
  0
LINE
  5
10F20
  8
0-6
  6
CONTINUOUS
 62
     6
 10
13111.460330252699
 20
15325.0629998565
 30
0.0
 11
13072.583697860669
 21
15288.550978116829
 31
0.0
  0
TEXT
  5
10F21
  8
0
  6
CONTINUOUS
 62
     7
 10
8220.2335704709367
 20
12759.985644999981
 30
0.0
 40
160.0
  1
ケラバ外寸7738.5
  0
TEXT
  5
10F22
  8
0
  6
CONTINUOUS
 62
     7
 10
4754.3364264709517
 20
20219.98491900001
 30
0.0
 40
160.0
  1
85.5
  0
TEXT
  5
10F23
  8
0
  6
CONTINUOUS
 62
     7
 10
6216.2335704709421
 20
20219.98663499999
 30
0.0
 40
160.0
  1
2567.5
  0
TEXT
  5
10F24
  8
0
  6
CONTINUOUS
 62
     7
 10
10146.650237137599
 20
20219.98663499999
 30
0.0
 40
160.0
  1
5000
  0
TEXT
  5
10F25
  8
0
  6
CONTINUOUS
 62
     7
 10
13046.33135847095
 20
20219.98491900001
 30
0.0
 40
160.0
  1
85.5
  0
TEXT
  5
10F26
  8
0
  6
CONTINUOUS
 62
     7
 10
4754.3762048661529
 20
19691.414439666642
 30
0.0
 40
160.0
  1
10
 50
90.0
  0
TEXT
  5
10F27
  8
0
  6
CONTINUOUS
 62
     7
 10
4322.9837944709634
 20
19598.46723338923
 30
0.0
 40
160.0
  1
222.5
 50
90.0
  0
TEXT
  5
10F28
  8
0
  6
CONTINUOUS
 62
     7
 10
4322.9837944709634
 20
17613.73571099999
 30
0.0
 40
160.0
  1
2567.5
 50
90.0
  0
TEXT
  5
10F29
  8
0
  6
CONTINUOUS
 62
     7
 10
4322.9837944709634
 20
15046.235710999999
 30
0.0
 40
160.0
  1
2567.5
 50
90.0
  0
TEXT
  5
10F2A
  8
0
  6
CONTINUOUS
 62
     7
 10
4322.9837944709843
 20
13305.99680859056
 30
0.0
 40
160.0
  1
192.5
 50
90.0
  0
ARC
  5
10F2B
  8
0
  6
BYBLOCK
 62
     0
 10
4402.9837944709634
 20
14162.48571100001
 30
0.0
 40
15.0
 50
90.0
 51
270.0
  0
ARC
  5
10F2C
  8
0
  6
BYBLOCK
 62
     0
 10
4402.9837944709634
 20
14162.48571100001
 30
0.0
 40
15.0
 50
270.0
 51
90.0
  0
ARC
  5
10F2D
  8
0
  6
BYBLOCK
 62
     0
 10
4402.9837944709634
 20
13969.98643699999
 30
0.0
 40
15.0
 50
270.0
 51
90.0
  0
ARC
  5
10F2E
  8
0
  6
BYBLOCK
 62
     0
 10
4402.9837944709634
 20
13969.98643699999
 30
0.0
 40
15.0
 50
90.0
 51
270.0
  0
ARC
  5
10F2F
  8
0
  6
BYBLOCK
 62
     0
 10
4402.9837944709634
 20
16729.98571099999
 30
0.0
 40
15.0
 50
90.0
 51
270.0
  0
ARC
  5
10F30
  8
0
  6
BYBLOCK
 62
     0
 10
4402.9837944709634
 20
16729.98571099999
 30
0.0
 40
15.0
 50
270.0
 51
90.0
  0
ARC
  5
10F31
  8
0
  6
BYBLOCK
 62
     0
 10
4402.9837944709634
 20
14162.48571100001
 30
0.0
 40
15.0
 50
270.0
 51
90.0
  0
ARC
  5
10F32
  8
0
  6
BYBLOCK
 62
     0
 10
4402.9837944709634
 20
14162.48571100001
 30
0.0
 40
15.0
 50
90.0
 51
270.0
  0
ARC
  5
10F33
  8
0
  6
BYBLOCK
 62
     0
 10
4402.9837944709634
 20
19297.48571099999
 30
0.0
 40
15.0
 50
90.0
 51
270.0
  0
ARC
  5
10F34
  8
0
  6
BYBLOCK
 62
     0
 10
4402.9837944709634
 20
19297.48571099999
 30
0.0
 40
15.0
 50
270.0
 51
90.0
  0
ARC
  5
10F35
  8
0
  6
BYBLOCK
 62
     0
 10
4402.9837944709634
 20
16729.98571099999
 30
0.0
 40
15.0
 50
270.0
 51
90.0
  0
ARC
  5
10F36
  8
0
  6
BYBLOCK
 62
     0
 10
4402.9837944709634
 20
16729.98571099999
 30
0.0
 40
15.0
 50
90.0
 51
270.0
  0
ARC
  5
10F37
  8
0
  6
BYBLOCK
 62
     0
 10
4402.9837944709634
 20
19297.48571099999
 30
0.0
 40
15.0
 50
270.0
 51
90.0
  0
ARC
  5
10F38
  8
0
  6
BYBLOCK
 62
     0
 10
4402.9837944709634
 20
19297.48571099999
 30
0.0
 40
15.0
 50
90.0
 51
270.0
  0
ARC
  5
10F39
  8
0
  6
BYBLOCK
 62
     0
 10
4402.9837944709634
 20
19519.985578999978
 30
0.0
 40
15.0
 50
90.0
 51
270.0
  0
ARC
  5
10F3A
  8
0
  6
BYBLOCK
 62
     0
 10
4402.9837944709634
 20
19519.985578999978
 30
0.0
 40
15.0
 50
270.0
 51
90.0
  0
ARC
  5
10F3B
  8
0
  6
BYBLOCK
 62
     0
 10
4802.983135470974
 20
19509.989010000001
 30
0.0
 40
15.0
 50
90.0
 51
270.0
  0
ARC
  5
10F3C
  8
0
  6
BYBLOCK
 62
     0
 10
4802.983135470974
 20
19509.989010000001
 30
0.0
 40
15.0
 50
270.0
 51
90.0
  0
ARC
  5
10F3D
  8
0
  6
BYBLOCK
 62
     0
 10
4802.983135470974
 20
19519.985578999978
 30
0.0
 40
15.0
 50
270.0
 51
90.0
  0
ARC
  5
10F3E
  8
0
  6
BYBLOCK
 62
     0
 10
4802.983135470974
 20
19519.985578999978
 30
0.0
 40
15.0
 50
90.0
 51
270.0
  0
ARC
  5
10F3F
  8
0
  6
BYBLOCK
 62
     0
 10
12899.98357047094
 20
20139.98663499999
 30
0.0
 40
15.0
 50
0.0
 51
180.0
  0
ARC
  5
10F40
  8
0
  6
BYBLOCK
 62
     0
 10
12899.98357047094
 20
20139.98663499999
 30
0.0
 40
15.0
 50
180.0
 51
0.0
  0
ARC
  5
10F41
  8
0
  6
BYBLOCK
 62
     0
 10
12985.48357047094
 20
20139.98663499999
 30
0.0
 40
15.0
 50
180.0
 51
0.0
  0
ARC
  5
10F42
  8
0
  6
BYBLOCK
 62
     0
 10
12985.48357047094
 20
20139.98663499999
 30
0.0
 40
15.0
 50
0.0
 51
180.0
  0
ARC
  5
10F43
  8
0
  6
BYBLOCK
 62
     0
 10
7899.983570470944
 20
20139.98663499999
 30
0.0
 40
15.0
 50
180.0
 51
0.0
  0
ARC
  5
10F44
  8
0
  6
BYBLOCK
 62
     0
 10
7899.983570470944
 20
20139.98663499999
 30
0.0
 40
15.0
 50
0.0
 51
180.0
  0
ARC
  5
10F45
  8
0
  6
BYBLOCK
 62
     0
 10
12899.98357047094
 20
20139.98663499999
 30
0.0
 40
15.0
 50
0.0
 51
180.0
  0
ARC
  5
10F46
  8
0
  6
BYBLOCK
 62
     0
 10
12899.98357047094
 20
20139.98663499999
 30
0.0
 40
15.0
 50
180.0
 51
0.0
  0
ARC
  5
10F47
  8
0
  6
BYBLOCK
 62
     0
 10
5332.4835704709421
 20
20139.98663499999
 30
0.0
 40
15.0
 50
180.0
 51
0.0
  0
ARC
  5
10F48
  8
0
  6
BYBLOCK
 62
     0
 10
5332.4835704709421
 20
20139.98663499999
 30
0.0
 40
15.0
 50
0.0
 51
180.0
  0
ARC
  5
10F49
  8
0
  6
BYBLOCK
 62
     0
 10
7899.983570470944
 20
20139.98663499999
 30
0.0
 40
15.0
 50
0.0
 51
180.0
  0
ARC
  5
10F4A
  8
0
  6
BYBLOCK
 62
     0
 10
7899.983570470944
 20
20139.98663499999
 30
0.0
 40
15.0
 50
180.0
 51
0.0
  0
ARC
  5
10F4B
  8
0
  6
BYBLOCK
 62
     0
 10
5332.4835704709421
 20
20139.98663499999
 30
0.0
 40
15.0
 50
180.0
 51
0.0
  0
ARC
  5
10F4C
  8
0
  6
BYBLOCK
 62
     0
 10
5332.4835704709421
 20
20139.98663499999
 30
0.0
 40
15.0
 50
0.0
 51
180.0
  0
ARC
  5
10F4D
  8
0
  6
BYBLOCK
 62
     0
 10
5246.9835704709421
 20
20139.98663499999
 30
0.0
 40
15.0
 50
0.0
 51
180.0
  0
ARC
  5
10F4E
  8
0
  6
BYBLOCK
 62
     0
 10
5246.9835704709421
 20
20139.98663499999
 30
0.0
 40
15.0
 50
180.0
 51
0.0
  0
ARC
  5
10F4F
  8
0
  6
BYBLOCK
 62
     0
 10
5246.9835704709421
 20
12679.985644999981
 30
0.0
 40
15.0
 50
180.0
 51
0.0
  0
ARC
  5
10F50
  8
0
  6
BYBLOCK
 62
     0
 10
5246.9835704709421
 20
12679.985644999981
 30
0.0
 40
15.0
 50
0.0
 51
180.0
  0
ARC
  5
10F51
  8
0
  6
BYBLOCK
 62
     0
 10
12985.48357047094
 20
12679.985644999981
 30
0.0
 40
15.0
 50
0.0
 51
180.0
  0
ARC
  5
10F52
  8
0
  6
BYBLOCK
 62
     0
 10
12985.48357047094
 20
12679.985644999981
 30
0.0
 40
15.0
 50
180.0
 51
0.0
  0
TEXT
  5
1105B
  8
FILENAME
  6
CONTINUOUS
 10
26480.19047619047
 20
348.0
 30
0.0
 40
200.0
  1
＜VGC-2652+VKC-5052-R-1-A_0.DXF ＞
  7
FILENAME
 72
     2
 11
32764.0
 21
348.0
 31
0.0
  0
LINE
  5
11060
  8
WAKUSEN-01
 10
868.00000000000193
 20
827.99999999999955
 30
0.0
 11
32764.000000000011
 21
827.99999999999943
 31
0.0
  0
LINE
  5
11061
  8
WAKUSEN-01
 10
868.00000000000193
 20
827.99999999999955
 30
0.0
 11
868.00000000000193
 21
22484.000000000011
 31
0.0
  0
LINE
  5
11062
  8
WAKUSEN-01
 10
32764.000000000011
 20
827.99999999999943
 30
0.0
 11
32764.000000000011
 21
22484.000000000011
 31
0.0
  0
LINE
  5
11063
  8
WAKUSEN-01
 10
20560.0
 20
827.99999999999716
 30
0.0
 11
20560.0
 21
2484.0
 31
0.0
  0
LINE
  5
11064
  8
WAKUSEN-02
 10
26868.0
 20
827.99999999999261
 30
0.0
 11
26868.0
 21
2484.0
 31
0.0
  0
ENDSEC
  0
EOF
