  0
SECTION
  2
HEADER
  9
$ACADVER
  1
AC1009
  9
$INSBASE
 10
0.0
 20
0.0
 30
0.0
  9
$EXTMIN
 10
867.99324330406671
 20
327.38164749855792
 30
-0.000000000000013
  9
$EXTMAX
 10
32765.33210850941
 20
22484.553276491992
 30
0.0000000000000023
  9
$LIMMIN
 10
0.0
 20
0.0
  9
$LIMMAX
 10
33600.0
 20
23760.0
  9
$ORTHOMODE
 70
     1
  9
$REGENMODE
 70
     1
  9
$FILLMODE
 70
     1
  9
$QTEXTMODE
 70
     0
  9
$MIRRTEXT
 70
     0
  9
$DRAGMODE
 70
     2
  9
$LTSCALE
 40
80.0
  9
$OSMODE
 70
  3071
  9
$ATTMODE
 70
     1
  9
$TEXTSIZE
 40
0.2
  9
$TRACEWID
 40
0.05
  9
$TEXTSTYLE
  7
00
  9
$CLAYER
  8
0
  9
$CELTYPE
  6
BYLAYER
  9
$CECOLOR
 62
   256
  9
$DIMSCALE
 40
1.0
  9
$DIMASZ
 40
0.18
  9
$DIMEXO
 40
0.0625
  9
$DIMDLI
 40
0.38
  9
$DIMRND
 40
0.0
  9
$DIMDLE
 40
0.0
  9
$DIMEXE
 40
0.18
  9
$DIMTP
 40
0.0
  9
$DIMTM
 40
0.0
  9
$DIMTXT
 40
0.18
  9
$DIMCEN
 40
0.09
  9
$DIMTSZ
 40
0.0
  9
$DIMTOL
 70
     0
  9
$DIMLIM
 70
     0
  9
$DIMTIH
 70
     1
  9
$DIMTOH
 70
     1
  9
$DIMSE1
 70
     0
  9
$DIMSE2
 70
     0
  9
$DIMTAD
 70
     0
  9
$DIMZIN
 70
     0
  9
$DIMBLK
  1

  9
$DIMASO
 70
     1
  9
$DIMSHO
 70
     1
  9
$DIMPOST
  1

  9
$DIMAPOST
  1

  9
$DIMALT
 70
     0
  9
$DIMALTD
 70
     2
  9
$DIMALTF
 40
25.399999999999999
  9
$DIMLFAC
 40
1.0
  9
$DIMTOFL
 70
     0
  9
$DIMTVP
 40
0.0
  9
$DIMTIX
 70
     0
  9
$DIMSOXD
 70
     0
  9
$DIMSAH
 70
     0
  9
$DIMBLK1
  1

  9
$DIMBLK2
  1

  9
$DIMSTYLE
  2
STANDARD
  9
$DIMCLRD
 70
     0
  9
$DIMCLRE
 70
     0
  9
$DIMCLRT
 70
     0
  9
$DIMTFAC
 40
1.0
  9
$DIMGAP
 40
0.09
  9
$LUNITS
 70
     2
  9
$LUPREC
 70
     4
  9
$SKETCHINC
 40
0.1
  9
$FILLETRAD
 40
0.0
  9
$AUNITS
 70
     0
  9
$AUPREC
 70
     0
  9
$MENU
  1
acad
  9
$ELEVATION
 40
0.0
  9
$PELEVATION
 40
0.0
  9
$THICKNESS
 40
0.0
  9
$LIMCHECK
 70
     0
  9
$BLIPMODE
 70
     1
  9
$CHAMFERA
 40
0.0
  9
$CHAMFERB
 40
0.0
  9
$SKPOLY
 70
     0
  9
$TDCREATE
 40
2311940.075052408
  9
$TDUPDATE
 40
2458942.4524193062
  9
$TDINDWG
 40
0.3338733449
  9
$TDUSRTIMER
 40
0.3338727199
  9
$USRTIMER
 70
     1
  9
$ANGBASE
 50
0.0
  9
$ANGDIR
 70
     0
  9
$PDMODE
 70
     0
  9
$PDSIZE
 40
0.0
  9
$PLINEWID
 40
0.0
  9
$COORDS
 70
     1
  9
$SPLFRAME
 70
     0
  9
$SPLINETYPE
 70
     6
  9
$SPLINESEGS
 70
     8
  9
$ATTDIA
 70
     1
  9
$ATTREQ
 70
     1
  9
$HANDLING
 70
     1
  9
$HANDSEED
  5
1631A
  9
$SURFTAB1
 70
     6
  9
$SURFTAB2
 70
     6
  9
$SURFTYPE
 70
     6
  9
$SURFU
 70
     6
  9
$SURFV
 70
     6
  9
$UCSNAME
  2

  9
$UCSORG
 10
0.0
 20
0.0
 30
0.0
  9
$UCSXDIR
 10
1.0
 20
0.0
 30
0.0
  9
$UCSYDIR
 10
0.0
 20
1.0
 30
0.0
  9
$PUCSNAME
  2

  9
$PUCSORG
 10
0.0
 20
0.0
 30
0.0
  9
$PUCSXDIR
 10
1.0
 20
0.0
 30
0.0
  9
$PUCSYDIR
 10
0.0
 20
1.0
 30
0.0
  9
$USERI1
 70
     0
  9
$USERI2
 70
     0
  9
$USERI3
 70
     0
  9
$USERI4
 70
     0
  9
$USERI5
 70
     0
  9
$USERR1
 40
0.0
  9
$USERR2
 40
0.0
  9
$USERR3
 40
0.0
  9
$USERR4
 40
0.0
  9
$USERR5
 40
0.0
  9
$WORLDVIEW
 70
     1
  9
$SHADEDGE
 70
     3
  9
$SHADEDIF
 70
    70
  9
$TILEMODE
 70
     1
  9
$MAXACTVP
 70
    16
  9
$PLIMCHECK
 70
     0
  9
$PEXTMIN
 10
1.0000000000000000E+020
 20
1.0000000000000000E+020
 30
1.0000000000000000E+020
  9
$PEXTMAX
 10
-1.0000000000000000E+020
 20
-1.0000000000000000E+020
 30
-1.0000000000000000E+020
  9
$PLIMMIN
 10
0.0
 20
0.0
  9
$PLIMMAX
 10
12.0
 20
9.0
  9
$UNITMODE
 70
     0
  9
$VISRETAIN
 70
     0
  9
$PLINEGEN
 70
     1
  9
$PSLTSCALE
 70
     0
  0
ENDSEC
  0
SECTION
  2
TABLES
  0
TABLE
  2
VPORT
 70
     1
  0
VPORT
  2
*ACTIVE
 70
     0
 10
0.0
 20
0.0
 11
1.0
 21
1.0
 12
16800.0
 22
11880.0
 13
0.0
 23
0.0
 14
1.0
 24
1.0
 15
0.0
 25
0.0
 16
0.0
 26
0.0
 36
1.0
 17
0.0
 27
0.0
 37
0.0
 40
23981.023255813951
 41
2.195652173913043
 42
50.0
 43
0.0
 44
0.0
 50
0.0
 51
0.0
 71
     0
 72
 10000
 73
     1
 74
     1
 75
     0
 76
     0
 77
     0
 78
     0
  0
ENDTAB
  0
TABLE
  2
LTYPE
 70
     6
  0
LTYPE
  2
CONTINUOUS
 70
     0
  3
Solid line
 72
    65
 73
     0
 40
0.0
  0
LTYPE
  2
DASHED3
 70
     0
  3
------  ------  ------  ------  
 72
    65
 73
     2
 40
5.0
 49
3.75
 49
-1.25
  0
LTYPE
  2
CENTER2
 70
     0
  3
----------  --  ----------  --  
 72
    65
 73
     4
 40
20.0
 49
12.5
 49
-2.5
 49
2.5
 49
-2.5
  0
LTYPE
  2
HIDE-M
 70
     0
  3

 72
    65
 73
     2
 40
2.0
 49
1.0
 49
-1.0
  0
LTYPE
  2
1PL-M
 70
     0
  3

 72
    65
 73
     4
 40
15.0
 49
12.0
 49
-1.0
 49
1.0
 49
-1.0
  0
LTYPE
  2
PHANTOM2
 70
     0
  3
___ _ _ ___ _ _ ___ _ _ ___ _ _
 72
    65
 73
     6
 40
1.25
 49
0.625
 49
-0.125
 49
0.125
 49
-0.125
 49
0.125
 49
-0.125
  0
ENDTAB
  0
TABLE
  2
LAYER
 70
    24
  0
LAYER
  2
0
 70
     0
 62
     7
  6
CONTINUOUS
  0
LAYER
  2
SUNPOU
 70
     0
 62
     4
  6
CONTINUOUS
  0
LAYER
  2
0-1
 70
     0
 62
     7
  6
CONTINUOUS
  0
LAYER
  2
0-2
 70
     0
 62
     7
  6
CONTINUOUS
  0
LAYER
  2
0-5
 70
     0
 62
     7
  6
CONTINUOUS
  0
LAYER
  2
0-6
 70
     0
 62
     7
  6
CONTINUOUS
  0
LAYER
  2
2-0
 70
     0
 62
     7
  6
CONTINUOUS
  0
LAYER
  2
0-8
 70
     0
 62
     7
  6
CONTINUOUS
  0
LAYER
  2
YODOROGO
 70
     0
 62
   130
  6
CONTINUOUS
  0
LAYER
  2
WAKUSEN-01
 70
     0
 62
    50
  6
CONTINUOUS
  0
LAYER
  2
WAKUSEN-02
 70
     0
 62
   130
  6
CONTINUOUS
  0
LAYER
  2
WAKUMOJI-01
 70
     0
 62
   130
  6
CONTINUOUS
  0
LAYER
  2
FILENAME
 70
     0
 62
     7
  6
CONTINUOUS
  0
LAYER
  2
NAME
 70
     0
 62
    20
  6
CONTINUOUS
  0
LAYER
  2
0-4
 70
     0
 62
     7
  6
CONTINUOUS
  0
LAYER
  2
1-前柱P
 70
     0
 62
     3
  6
CONTINUOUS
  0
LAYER
  2
1-前柱カバ-P
 70
     0
 62
     3
  6
CONTINUOUS
  0
LAYER
  2
1-桁前P28
 70
     0
 62
     3
  6
CONTINUOUS
  0
LAYER
  2
1-後柱P
 70
     0
 62
     3
  6
CONTINUOUS
  0
LAYER
  2
1-中柱P
 70
     0
 62
     3
  6
CONTINUOUS
  0
LAYER
  2
1-後柱カバ-P
 70
     0
 62
     7
  6
CONTINUOUS
  0
LAYER
  2
1-中柱カバ-P
 70
     0
 62
     7
  6
CONTINUOUS
  0
ENDTAB
  0
TABLE
  2
STYLE
 70
     5
  0
STYLE
  2
STANDARD
 70
     0
 40
0.0
 41
1.0
 50
0.0
 71
     0
 42
0.0
  3
txt
  4
BIGFONT
  0
STYLE
  2
00
 70
     0
 40
0.0
 41
0.6666666666666666
 50
0.0
 71
     0
 42
0.2
  3
ROMANS
  4
BIGFONT
  0
STYLE
  2
01
 70
     0
 40
3.0
 41
1.0
 50
0.0
 71
     0
 42
0.2
  3
ROMANS
  4
BIGFONT
  0
STYLE
  2
WAKUMOJI
 70
     0
 40
3.0
 41
1.0
 50
0.0
 71
     0
 42
3.0
  3
SIMPLEX
  4
BIGFONT
  0
STYLE
  2
FILENAME
 70
     0
 40
200.0
 41
1.0
 50
0.0
 71
     0
 42
200.0
  3
romans
  4
bigfont
  0
ENDTAB
  0
TABLE
  2
VIEW
 70
     0
  0
ENDTAB
  0
TABLE
  2
UCS
 70
     0
  0
ENDTAB
  0
TABLE
  2
APPID
 70
    17
  0
APPID
  2
ACAD
 70
     0
  0
APPID
  2
ACADANNOTATIVE
 70
     0
  0
APPID
  2
ACAD_PSEXT
 70
     0
  0
APPID
  2
DCO15
 70
     0
  0
APPID
  2
ACAD_MLEADERVER
 70
     0
  0
APPID
  2
AUTOCAD_POSTSCRIPT_FIGURE
 70
     0
  0
APPID
  2
ACAD_EXEMPT_FROM_CAD_STANDARDS
 70
     0
  0
APPID
  2
ACLAYERTOOLS
 70
     0
  0
APPID
  2
ACAD_DSTYLE_DIMJAG
 70
     0
  0
APPID
  2
ACAD_DSTYLE_DIMTALN
 70
     0
  0
APPID
  2
ACAECLAYERSTANDARD
 70
     0
  0
APPID
  2
ACAD_DSTYLE_DIMBREAK
 70
     0
  0
APPID
  2
ACAD_DSTYLE_DIM_LINETYPE
 70
     0
  0
APPID
  2
ACAD_DSTYLE_DIM_EXT1_LINETYPE
 70
     0
  0
APPID
  2
ACAD_DSTYLE_DIM_EXT2_LINETYPE
 70
     0
  0
APPID
  2
ACAD_DSTYLE_DIMFLIPARROW_W
 70
     0
  0
APPID
  2
ACAD_NAV_VCDISPLAY
 70
     0
  0
ENDTAB
  0
TABLE
  2
DIMSTYLE
 70
     1
  0
DIMSTYLE
  2
STANDARD
 70
     0
  3

  4

  5

  6

  7

 40
1.0
 41
0.18
 42
0.0625
 43
0.38
 44
0.18
 45
0.0
 46
0.0
 47
0.0
 48
0.0
140
0.18
141
0.09
142
0.0
143
25.399999999999999
144
1.0
145
0.0
146
1.0
147
0.09
 71
     0
 72
     0
 73
     1
 74
     1
 75
     0
 76
     0
 77
     0
 78
     0
170
     0
171
     2
172
     0
173
     0
174
     0
175
     0
176
     0
177
     0
178
     0
  0
ENDTAB
  0
ENDSEC
  0
SECTION
  2
BLOCKS
  0
BLOCK
  8
0
  2
$MODEL_SPACE
 70
     0
 10
0.0
 20
0.0
 30
0.0
  3
$MODEL_SPACE
  1

  0
ENDBLK
  5
151D1
  8
0
  0
BLOCK
 67
     1
  8
0
  2
$PAPER_SPACE
 70
     0
 10
0.0
 20
0.0
 30
0.0
  3
$PAPER_SPACE
  1

  0
ENDBLK
  5
151CD
 67
     1
  8
0
  0
ENDSEC
  0
SECTION
  2
ENTITIES
  0
CIRCLE
  5
1520B
  8
0-5
  6
CONTINUOUS
 62
     4
 10
15183.09822873439
 20
1421.969151421961
 30
0.0
 40
20.0
  0
ARC
  5
1520C
  8
0-5
  6
CONTINUOUS
 62
     4
 10
15183.09822873439
 20
1421.969151421961
 30
0.0
 40
20.0
 50
180.0
 51
0.0
  0
ARC
  5
1520D
  8
0-5
  6
CONTINUOUS
 62
     4
 10
15183.09822873439
 20
1421.969151421961
 30
0.0
 40
20.0
 50
0.0
 51
179.99998500000001
  0
CIRCLE
  5
1520E
  8
0-5
  6
CONTINUOUS
 62
     4
 10
15183.09822873439
 20
1821.968491421959
 30
0.0
 40
20.0
  0
ARC
  5
1520F
  8
0-5
  6
CONTINUOUS
 62
     4
 10
15183.09822873439
 20
1821.968491421959
 30
0.0
 40
20.0
 50
180.0
 51
0.0
  0
ARC
  5
15210
  8
0-5
  6
CONTINUOUS
 62
     4
 10
15183.09822873439
 20
1821.968491421959
 30
0.0
 40
20.0
 50
0.0
 51
179.99998500000001
  0
TEXT
  5
15211
  8
0-5
  6
CONTINUOUS
 62
     7
 10
16715.598954734382
 20
1701.968961421959
 30
0.0
 40
160.0
  1
H
  0
TEXT
  5
15212
  8
0-5
  6
CONTINUOUS
 62
     7
 10
15230.52848373439
 20
1701.968961421959
 30
0.0
 40
160.0
  1
（ ）内寸法ハ、  タイプヲ示ス。
  0
TEXT
  5
15213
  8
0-5
  6
CONTINUOUS
 62
     7
 10
15343.09776673439
 20
1301.96863142196
 30
0.0
 40
160.0
  1
有効高サハ、基礎高サヲ含ミマセン。
  0
TEXT
  5
15214
  8
2-0
  6
CONTINUOUS
 62
     7
 10
22832.576509940442
 20
3338.771758421959
 30
0.0
 40
160.0
  1
正 面 立 面 図
 72
     4
 11
23477.90984327377
 21
3418.771758421959
 31
0.0
  0
TEXT
  5
15215
  8
2-0
  6
CONTINUOUS
 62
     7
 10
9149.8649603458252
 20
3310.0360764219599
 30
0.0
 40
160.0
  1
側 面 立 面 図
 50
0.000139
 72
     4
 11
9795.1980995966478
 21
3390.0376420053349
 31
0.0
  0
TEXT
  5
15216
  8
2-0
  6
CONTINUOUS
 62
     7
 10
11146.69028473427
 20
3337.2330110053349
 30
0.0
 40
160.0
  1
1
 72
     4
 11
11173.35695140094
 21
3417.2330110053349
 31
0.0
  0
TEXT
  5
15217
  8
2-0
  6
CONTINUOUS
 62
     7
 10
11389.779001984951
 20
3257.2344790053371
 30
0.0
 40
160.0
  1
80
 72
     4
 11
11509.779001984951
 21
3337.2344790053362
 31
0.0
  0
TEXT
  5
15218
  8
2-0
  6
CONTINUOUS
 62
     7
 10
10647.69225073427
 20
3310.0376420053349
 30
0.0
 40
160.0
  1
(S=  /   )
 72
     4
 11
11207.69225073427
 21
3390.0376420053349
 31
0.0
  0
TEXT
  5
15219
  8
2-0
  6
CONTINUOUS
 62
     7
 10
24829.402028411379
 20
3365.96712742196
 30
0.0
 40
160.0
  1
1
 72
     4
 11
24856.068695078051
 21
3445.96712742196
 31
0.0
  0
TEXT
  5
1521A
  8
2-0
  6
CONTINUOUS
 62
     7
 10
25072.490745662089
 20
3285.9685954219608
 30
0.0
 40
160.0
  1
80
 72
     4
 11
25192.490745662089
 21
3365.9685954219608
 31
0.0
  0
TEXT
  5
1521B
  8
2-0
  6
CONTINUOUS
 62
     7
 10
24330.403994411379
 20
3338.771758421959
 30
0.0
 40
160.0
  1
(S=  /   )
 72
     4
 11
24890.403994411379
 21
3418.771758421959
 31
0.0
  0
TEXT
  5
1521C
  8
2-0
  6
CONTINUOUS
 62
     7
 10
22429.92712756302
 20
11297.07361142196
 30
0.0
 40
160.0
  1
平　面　図
 72
     4
 11
22883.260460896359
 21
11371.74027808863
 31
0.0
  0
TEXT
  5
1521D
  8
2-0
  6
CONTINUOUS
 62
     7
 10
9493.7299220423538
 20
11202.78617242194
 30
0.0
 40
160.0
  1
小 屋 伏 図
 72
     4
 11
9995.0632553756877
 21
11282.78617242194
 31
0.0
  0
TEXT
  5
1521E
  8
2-0
  6
CONTINUOUS
 62
     7
 10
24234.75264603399
 20
11318.935647088631
 30
0.0
 40
160.0
  1
1
 72
     4
 11
24261.419312700651
 21
11398.935647088631
 31
0.0
  0
TEXT
  5
1521F
  8
2-0
  6
CONTINUOUS
 62
     7
 10
24477.841363284679
 20
11238.937115088631
 30
0.0
 40
160.0
  1
80
 72
     4
 11
24597.841363284679
 21
11318.937115088631
 31
0.0
  0
TEXT
  5
15220
  8
2-0
  6
CONTINUOUS
 62
     7
 10
23735.754612033968
 20
11291.74027808863
 30
0.0
 40
160.0
  1
(S=  /   )
 72
     4
 11
24295.754612033968
 21
11371.74027808863
 31
0.0
  0
TEXT
  5
15221
  8
2-0
  6
CONTINUOUS
 62
     7
 10
11346.55544051331
 20
11229.98154142195
 30
0.0
 40
160.0
  1
1
 72
     4
 11
11373.22210717998
 21
11309.98154142195
 31
0.0
  0
TEXT
  5
15222
  8
2-0
  6
CONTINUOUS
 62
     7
 10
11589.644157764011
 20
11149.983009421951
 30
0.0
 40
160.0
  1
80
 72
     4
 11
11709.644157764011
 21
11229.983009421951
 31
0.0
  0
TEXT
  5
15223
  8
2-0
  6
CONTINUOUS
 62
     7
 10
10847.55740651331
 20
11202.78617242194
 30
0.0
 40
160.0
  1
(S=  /   )
 72
     4
 11
11407.55740651331
 21
11282.78617242194
 31
0.0
  0
LINE
  5
15224
  8
0-6
  6
CONTINUOUS
 62
     6
 10
8317.5488381272444
 20
19283.679357421941
 30
0.0
 11
8461.4499411272245
 21
19795.95501242195
 31
0.0
  0
LINE
  5
15225
  8
0-6
  6
CONTINUOUS
 62
     6
 10
13381.283139233499
 20
19389.45691242196
 30
0.0
 11
13274.58807723348
 21
19511.632799421961
 31
0.0
  0
LINE
  5
15226
  8
0-6
  6
CONTINUOUS
 62
     6
 10
13319.9774492335
 20
19539.63308942195
 30
0.0
 11
13381.283139233499
 21
19389.45691242196
 31
0.0
  0
LINE
  5
15227
  8
0-6
  6
CONTINUOUS
 62
     6
 10
13319.9774492335
 20
19539.63308942195
 30
0.0
 11
13274.58807723348
 21
19511.632799421961
 31
0.0
  0
LINE
  5
15228
  8
0-6
  6
CONTINUOUS
 62
     6
 10
13381.283139233499
 20
19389.45691242196
 30
0.0
 11
13087.3553122335
 21
19795.95501242195
 31
0.0
  0
LINE
  5
15229
  8
0-6
  6
CONTINUOUS
 62
     6
 10
8279.1590441272419
 20
19128.35445242194
 30
0.0
 11
8291.6606941272457
 21
19290.079141421949
 31
0.0
  0
LINE
  5
1522A
  8
0-6
  6
CONTINUOUS
 62
     6
 10
8343.4340131272475
 20
19277.28353342196
 30
0.0
 11
8279.1590441272419
 21
19128.35445242194
 31
0.0
  0
LINE
  5
1522B
  8
0-6
  6
CONTINUOUS
 62
     6
 10
8343.4340131272475
 20
19277.28353342196
 30
0.0
 11
8291.6606941272457
 21
19290.079141421949
 31
0.0
  0
LINE
  5
1522C
  8
0-6
  6
CONTINUOUS
 62
     6
 10
8461.4499411272245
 20
19795.95501242195
 30
0.0
 11
8979.1385891272366
 21
19795.95501242195
 31
0.0
  0
LINE
  5
1522D
  8
0-6
  6
CONTINUOUS
 62
     6
 10
13784.95520949887
 20
17983.173023961539
 30
0.0
 11
13846.169710127349
 21
18133.386915316049
 31
0.0
  0
LINE
  5
1522E
  8
0-6
  6
CONTINUOUS
 62
     6
 10
13846.169710127349
 20
18133.386915316049
 30
0.0
 11
13739.54650300797
 21
18011.145522783081
 31
0.0
  0
LINE
  5
1522F
  8
0-6
  6
CONTINUOUS
 62
     6
 10
13846.169710127349
 20
18133.386915316049
 30
0.0
 11
13784.95520949887
 21
17983.173023961539
 31
0.0
  0
LINE
  5
15230
  8
0-6
  6
CONTINUOUS
 62
     6
 10
13784.95520949887
 20
17983.173023961539
 30
0.0
 11
13739.54650300797
 21
18011.145522783081
 31
0.0
  0
LINE
  5
15231
  8
0-6
  6
CONTINUOUS
 62
     6
 10
13739.54650300797
 20
18011.145522783081
 30
0.0
 11
13846.169710127349
 21
18133.386915316049
 31
0.0
  0
LINE
  5
15232
  8
0-6
  6
CONTINUOUS
 62
     6
 10
13739.54650300797
 20
18011.145522783081
 30
0.0
 11
13784.95520949887
 21
17983.173023961539
 31
0.0
  0
LINE
  5
15233
  8
0-6
  6
CONTINUOUS
 62
     6
 10
12287.35366323348
 20
19795.95501242195
 30
0.0
 11
13087.3553122335
 21
19795.95501242195
 31
0.0
  0
LINE
  5
15234
  8
0-6
  6
CONTINUOUS
 62
     6
 10
13115.329921879171
 20
17791.126083568332
 30
0.0
 11
13635.3306478792
 21
17791.126083568332
 31
0.0
  0
LINE
  5
15235
  8
0-6
  6
CONTINUOUS
 62
     6
 10
12223.04721279654
 20
14423.34612542196
 30
0.0
 11
12305.934604796539
 21
14600.284404421949
 31
0.0
  0
LINE
  5
15236
  8
0-6
  6
CONTINUOUS
 62
     6
 10
12305.934604796539
 20
14600.284404421949
 30
0.0
 11
13105.93526479653
 21
14600.284404421949
 31
0.0
  0
LINE
  5
15237
  8
0-6
  6
CONTINUOUS
 62
     6
 10
12191.124468843031
 20
13913.90910042195
 30
0.0
 11
12084.85401384302
 21
14036.456147421941
 31
0.0
  0
LINE
  5
15238
  8
0-6
  6
CONTINUOUS
 62
     6
 10
12084.85401384302
 20
14036.456147421941
 30
0.0
 11
12145.63612184301
 21
13886.067171421961
 31
0.0
  0
LINE
  5
15239
  8
0-6
  6
CONTINUOUS
 62
     6
 10
12084.85401384302
 20
14036.456147421941
 30
0.0
 11
12191.124468843031
 21
13913.90910042195
 31
0.0
  0
LINE
  5
1523A
  8
0-6
  6
CONTINUOUS
 62
     6
 10
12191.124468843031
 20
13913.90910042195
 30
0.0
 11
12145.63612184301
 21
13886.067171421961
 31
0.0
  0
LINE
  5
1523B
  8
0-6
  6
CONTINUOUS
 62
     6
 10
12145.63612184301
 20
13886.067171421961
 30
0.0
 11
12084.85401384302
 21
14036.456147421941
 31
0.0
  0
LINE
  5
1523C
  8
0-6
  6
CONTINUOUS
 62
     6
 10
12145.63612184301
 20
13886.067171421961
 30
0.0
 11
12191.124468843031
 21
13913.90910042195
 31
0.0
  0
LINE
  5
1523D
  8
0-6
  6
CONTINUOUS
 62
     6
 10
12198.90005579653
 20
14434.658084421961
 30
0.0
 11
12155.17446979653
 21
14278.45526342196
 31
0.0
  0
LINE
  5
1523E
  8
0-6
  6
CONTINUOUS
 62
     6
 10
12155.17446979653
 20
14278.45526342196
 30
0.0
 11
12247.195360796541
 21
14412.03317642195
 31
0.0
  0
LINE
  5
1523F
  8
0-6
  6
CONTINUOUS
 62
     6
 10
12155.17446979653
 20
14278.45526342196
 30
0.0
 11
12198.90005579653
 21
14434.658084421961
 31
0.0
  0
LINE
  5
15240
  8
0-6
  6
CONTINUOUS
 62
     6
 10
12198.90005579653
 20
14434.658084421961
 30
0.0
 11
12247.195360796541
 21
14412.03317642195
 31
0.0
  0
LINE
  5
15241
  8
0-6
  6
CONTINUOUS
 62
     6
 10
12247.195360796541
 20
14412.03317642195
 30
0.0
 11
12155.17446979653
 21
14278.45526342196
 31
0.0
  0
LINE
  5
15242
  8
0-6
  6
CONTINUOUS
 62
     6
 10
12247.195360796541
 20
14412.03317642195
 30
0.0
 11
12198.90005579653
 21
14434.658084421961
 31
0.0
  0
LINE
  5
15243
  8
0-6
  6
CONTINUOUS
 62
     6
 10
12574.492883843021
 20
13236.45647742196
 30
0.0
 11
13437.07305484302
 21
13236.45647742196
 31
0.0
  0
LINE
  5
15244
  8
0-6
  6
CONTINUOUS
 62
     6
 10
12168.380790843021
 20
13899.98813642196
 30
0.0
 11
12574.492883843021
 21
13236.45647742196
 31
0.0
  0
LINE
  5
15245
  8
0-6
  6
CONTINUOUS
 62
     6
 10
13993.62040612738
 20
14608.74585642196
 30
0.0
 11
13971.169696127379
 21
14769.39170742195
 31
0.0
  0
LINE
  5
15246
  8
0-6
  6
CONTINUOUS
 62
     6
 10
13971.169696127379
 20
14769.39170742195
 30
0.0
 11
14044.506900127381
 21
14624.71067342196
 31
0.0
  0
LINE
  5
15247
  8
0-6
  6
CONTINUOUS
 62
     6
 10
13971.169696127379
 20
14769.39170742195
 30
0.0
 11
13993.62040612738
 21
14608.74585642196
 31
0.0
  0
LINE
  5
15248
  8
0-6
  6
CONTINUOUS
 62
     6
 10
13993.62040612738
 20
14608.74585642196
 30
0.0
 11
14044.506900127381
 21
14624.71067342196
 31
0.0
  0
LINE
  5
15249
  8
0-6
  6
CONTINUOUS
 62
     6
 10
14044.506900127381
 20
14624.71067342196
 30
0.0
 11
13971.169696127379
 21
14769.39170742195
 31
0.0
  0
LINE
  5
1524A
  8
0-6
  6
CONTINUOUS
 62
     6
 10
14044.506900127381
 20
14624.71067342196
 30
0.0
 11
13993.62040612738
 21
14608.74585642196
 31
0.0
  0
LINE
  5
1524B
  8
0-6
  6
CONTINUOUS
 62
     6
 10
14605.804343127391
 20
12746.45535542194
 30
0.0
 11
15685.803947127381
 21
12746.45535542194
 31
0.0
  0
LINE
  5
1524C
  8
0-6
  6
CONTINUOUS
 62
     6
 10
14019.064148127391
 20
14616.72727542195
 30
0.0
 11
14605.804343127371
 21
12746.45535542194
 31
0.0
  0
LINE
  5
1524D
  8
0-6
  6
CONTINUOUS
 62
     6
 10
13762.25195286393
 20
17997.159420275832
 30
0.0
 11
13635.3306478792
 21
17791.126083568332
 31
0.0
  0
LINE
  5
1524E
  8
0-6
  6
CONTINUOUS
 62
     6
 10
6254.3025299054734
 20
19565.954748421958
 30
0.0
 11
6162.615187905466
 21
19699.762286421948
 31
0.0
  0
LINE
  5
1524F
  8
0-6
  6
CONTINUOUS
 62
     6
 10
6124.173926905466
 20
19662.794776421961
 30
0.0
 11
6254.3025299054734
 21
19565.954748421958
 31
0.0
  0
LINE
  5
15250
  8
0-6
  6
CONTINUOUS
 62
     6
 10
6124.173926905466
 20
19662.794776421961
 30
0.0
 11
6162.615187905466
 21
19699.762286421948
 31
0.0
  0
LINE
  5
15251
  8
0-6
  6
CONTINUOUS
 62
     6
 10
6143.3940619054629
 20
19681.277541421961
 30
0.0
 11
5626.4051739054712
 21
20185.955804421948
 31
0.0
  0
LINE
  5
15252
  8
0-6
  6
CONTINUOUS
 62
     6
 10
3951.4058339054609
 20
20185.955804421948
 30
0.0
 11
5626.4051739054712
 21
20185.955804421948
 31
0.0
  0
TEXT
  5
15253
  8
0-6
  6
CONTINUOUS
 62
     7
 10
8541.4502051272484
 20
19875.955276421941
 30
0.0
 40
160.0
  1
屋根
 72
     4
 11
8712.1168717939145
 21
19955.955276421941
 31
0.0
  0
TEXT
  5
15254
  8
0-6
  6
CONTINUOUS
 62
     7
 10
12367.354917233521
 20
19875.955276421941
 30
0.0
 40
160.0
  1
桁（後）
 72
     4
 11
12687.354917233521
 21
19955.955276421941
 31
0.0
  0
TEXT
  5
15255
  8
0-6
  6
CONTINUOUS
 62
     7
 10
12385.933878796521
 20
14680.28466842196
 30
0.0
 40
160.0
  1
桁（前）
 72
     4
 11
12705.933878796521
 21
14760.28466842196
 31
0.0
  0
TEXT
  5
15256
  8
0-6
  6
CONTINUOUS
 62
     7
 10
12654.49215784302
 20
13316.45575142196
 30
0.0
 40
160.0
  1
鼻隠し前
 72
     4
 11
13017.15882450969
 21
13396.45575142196
 31
0.0
  0
TEXT
  5
15257
  8
0-6
  6
CONTINUOUS
 62
     7
 10
14685.80460712738
 20
12826.454629421951
 30
0.0
 40
160.0
  1
ケラバ 右
 72
     4
 11
15101.80460712738
 21
12906.454629421951
 31
0.0
  0
TEXT
  5
15258
  8
0-6
  6
CONTINUOUS
 62
     7
 10
13195.330185879189
 20
17871.12634756833
 30
0.0
 40
160.0
  1
上枠
 72
     4
 11
13365.996852545861
 21
17951.12634756833
 31
0.0
  0
TEXT
  5
15259
  8
0-6
  6
CONTINUOUS
 62
     7
 10
4031.4060979054689
 20
20265.95408842196
 30
0.0
 40
160.0
  1
鼻隠しコーナー後
 72
     4
 11
4778.0727645721363
 21
20345.95408842196
 31
0.0
  0
LINE
  5
1525A
  8
0-6
  6
CONTINUOUS
 62
     6
 10
6249.1703301273938
 20
15489.90190484837
 30
0.0
 11
5714.1982999483753
 21
14920.319017948001
 31
0.0
  0
LINE
  5
1525B
  8
0-6
  6
CONTINUOUS
 62
     6
 10
12330.276335120099
 20
16405.21207649546
 30
0.0
 11
13210.27527912012
 21
16405.21207649546
 31
0.0
  0
LINE
  5
1525C
  8
0-6
  6
CONTINUOUS
 62
     6
 10
12152.514197771719
 20
16235.19494882513
 30
0.0
 11
12330.276335120099
 21
16405.21207649546
 31
0.0
  0
LINE
  5
1525D
  8
0-6
  6
CONTINUOUS
 62
     6
 10
12036.886557771721
 20
16124.605184825121
 30
0.0
 11
12134.08388977174
 21
16254.46754182513
 31
0.0
  0
LINE
  5
1525E
  8
0-6
  6
CONTINUOUS
 62
     6
 10
12170.94549477172
 20
16215.922355825131
 30
0.0
 11
12036.886557771721
 21
16124.605184825121
 31
0.0
  0
LINE
  5
1525F
  8
0-6
  6
CONTINUOUS
 62
     6
 10
12170.94549477172
 20
16215.922355825131
 30
0.0
 11
12134.08388977174
 21
16254.46754182513
 31
0.0
  0
TEXT
  5
15260
  8
0-6
  6
CONTINUOUS
 62
     7
 10
12410.27758912012
 20
16485.212340495458
 30
0.0
 40
160.0
  1
ブレース
 72
     4
 11
12772.94425578679
 21
16570.54567382879
 31
0.0
  0
LINE
  5
15261
  8
0-6
  6
CONTINUOUS
 62
     6
 10
13268.00928258261
 20
16830.957361421952
 30
0.0
 11
13148.71166425025
 21
17146.549699421961
 31
0.0
  0
LINE
  5
15262
  8
0-6
  6
CONTINUOUS
 62
     6
 10
12348.140903250271
 20
17146.549699421961
 30
0.0
 11
13148.71166425025
 21
17146.549699421961
 31
0.0
  0
TEXT
  5
15263
  8
0-6
  6
CONTINUOUS
 62
     7
 10
12428.711268250239
 20
17226.549963421949
 30
0.0
 40
160.0
  1
桁（中）
 72
     4
 11
12748.711268250239
 21
17306.549963421949
 31
0.0
  0
LINE
  5
15264
  8
0-6
  6
CONTINUOUS
 62
     6
 10
8477.5400891394565
 20
15527.064464075709
 30
0.0
 11
9357.5390331394647
 21
15527.064464075709
 31
0.0
  0
LINE
  5
15265
  8
0-6
  6
CONTINUOUS
 62
     6
 10
9725.2807387140838
 20
15994.912770708899
 30
0.0
 11
9357.5390331394647
 21
15527.064464075709
 31
0.0
  0
TEXT
  5
15266
  8
0-6
  6
CONTINUOUS
 62
     7
 10
8557.5413431394663
 20
15607.06472807572
 30
0.0
 40
160.0
  1
ブレース
 72
     4
 11
8920.2080098061324
 21
15692.39806140906
 31
0.0
  0
LINE
  5
15267
  8
0-1
  6
CONTINUOUS
 62
     3
 10
13899.17033012739
 20
16751.455026421962
 30
0.0
 11
11331.67033012739
 21
16751.455026421962
 31
0.0
  0
LINE
  5
15268
  8
0-1
  6
CONTINUOUS
 62
     3
 10
11331.67033012739
 20
16751.455026421962
 30
0.0
 11
8759.2994793585895
 21
16751.455026421962
 31
0.0
  0
LINE
  5
15269
  8
2-0
  6
DASHED3
 62
     6
 10
8759.2994793585895
 20
16751.455026421962
 30
0.0
 11
6331.6703301273938
 21
16751.455026421962
 31
0.0
  0
LINE
  5
1526A
  8
0-1
  6
CONTINUOUS
 62
     3
 10
11384.66996112738
 20
14192.45606842195
 30
0.0
 11
11384.66996112738
 21
17834.702821003179
 31
0.0
  0
LINE
  5
1526B
  8
0-1
  6
CONTINUOUS
 62
     3
 10
13849.169710127349
 20
14068.45605442196
 30
0.0
 11
13849.169710127349
 21
18854.55329312204
 31
0.0
  0
LINE
  5
1526C
  8
0-1
  6
CONTINUOUS
 62
     3
 10
13849.169710127349
 20
18854.55329312204
 30
0.0
 11
13849.169710127349
 21
19528.455395421941
 31
0.0
  0
LINE
  5
1526D
  8
0-1
  6
CONTINUOUS
 62
     3
 10
13984.67033012739
 20
14036.456147421941
 30
0.0
 11
13984.67033012739
 21
18910.461632668601
 31
0.0
  0
LINE
  5
1526E
  8
0-1
  6
CONTINUOUS
 62
     3
 10
13984.67033012739
 20
18910.461632668601
 30
0.0
 11
13984.67033012739
 21
19576.456741421938
 31
0.0
  0
LINE
  5
1526F
  8
0-1
  6
CONTINUOUS
 62
     3
 10
13941.669604127381
 20
14192.45606842195
 30
0.0
 11
6289.1690761273794
 21
14192.45606842195
 31
0.0
  0
LINE
  5
15270
  8
0-1
  6
CONTINUOUS
 62
     3
 10
13899.17033012739
 20
14271.455685421941
 30
0.0
 11
6331.6703301273938
 21
14271.455685421941
 31
0.0
  0
LINE
  5
15271
  8
0-1
  6
CONTINUOUS
 62
     3
 10
13984.67033012739
 20
14036.456147421941
 30
0.0
 11
6246.1703301273938
 21
14036.456147421941
 31
0.0
  0
LINE
  5
15272
  8
0-1
  6
CONTINUOUS
 62
     3
 10
13984.67033012739
 20
14068.45605442196
 30
0.0
 11
6246.1703301273938
 21
14068.45605442196
 31
0.0
  0
LINE
  5
15273
  8
0-1
  6
CONTINUOUS
 62
     3
 10
11331.67033012739
 20
14192.45606842195
 30
0.0
 11
11331.67033012739
 21
17812.834770839199
 31
0.0
  0
LINE
  5
15274
  8
0-1
  6
CONTINUOUS
 62
     3
 10
11289.16907612738
 20
14192.45606842195
 30
0.0
 11
11289.16907612738
 21
17795.29843073705
 31
0.0
  0
LINE
  5
15275
  8
0-1
  6
CONTINUOUS
 62
     3
 10
13899.17033012739
 20
14192.45606842195
 30
0.0
 11
13899.17033012739
 21
18876.421751354948
 31
0.0
  0
LINE
  5
15276
  8
0-1
  6
CONTINUOUS
 62
     3
 10
13941.669604127381
 20
14192.45606842195
 30
0.0
 11
13941.669604127381
 21
18893.957274494071
 31
0.0
  0
LINE
  5
15277
  8
0-1
  6
CONTINUOUS
 62
     3
 10
12879.168879127379
 20
18461.344526938989
 30
0.0
 11
12879.168879127379
 21
19528.455395421941
 31
0.0
  0
LINE
  5
15278
  8
0-1
  6
CONTINUOUS
 62
     3
 10
12842.16870712737
 20
18446.077975038439
 30
0.0
 11
12842.16870712737
 21
19528.455395421941
 31
0.0
  0
LINE
  5
15279
  8
0-1
  6
CONTINUOUS
 62
     3
 10
12679.16920812738
 20
18378.82314413524
 30
0.0
 11
12679.16920812738
 21
19528.455395421941
 31
0.0
  0
LINE
  5
1527A
  8
0-1
  6
CONTINUOUS
 62
     3
 10
12642.168047127379
 20
18363.556184165762
 30
0.0
 11
12642.168047127379
 21
19528.455395421941
 31
0.0
  0
LINE
  5
1527B
  8
0-1
  6
CONTINUOUS
 62
     3
 10
12479.16953812738
 20
18286.30165674409
 30
0.0
 11
12479.16953812738
 21
19528.455395421941
 31
0.0
  0
LINE
  5
1527C
  8
0-1
  6
CONTINUOUS
 62
     3
 10
12442.17035712737
 20
18271.03551373765
 30
0.0
 11
12442.17035712737
 21
19528.455395421941
 31
0.0
  0
LINE
  5
1527D
  8
0-1
  6
CONTINUOUS
 62
     3
 10
12279.168879127379
 20
18203.77986628404
 30
0.0
 11
12279.168879127379
 21
19528.455395421941
 31
0.0
  0
LINE
  5
1527E
  8
0-1
  6
CONTINUOUS
 62
     3
 10
12242.168707127379
 20
18188.513314383468
 30
0.0
 11
12242.168707127379
 21
19528.455395421941
 31
0.0
  0
LINE
  5
1527F
  8
0-1
  6
CONTINUOUS
 62
     3
 10
12079.16920812738
 20
18121.25848348028
 30
0.0
 11
12079.16920812738
 21
19528.455395421941
 31
0.0
  0
LINE
  5
15280
  8
0-1
  6
CONTINUOUS
 62
     3
 10
12042.168047127379
 20
18105.991523510798
 30
0.0
 11
12042.168047127379
 21
19528.455395421941
 31
0.0
  0
LINE
  5
15281
  8
0-1
  6
CONTINUOUS
 62
     3
 10
11879.169538127349
 20
18038.737101089129
 30
0.0
 11
11879.169538127349
 21
19528.455395421941
 31
0.0
  0
LINE
  5
15282
  8
0-1
  6
CONTINUOUS
 62
     3
 10
11842.16936712739
 20
18023.470549601181
 30
0.0
 11
11842.16936712739
 21
19528.455395421941
 31
0.0
  0
LINE
  5
15283
  8
0-1
  6
CONTINUOUS
 62
     3
 10
11679.168879127379
 20
17956.215310629079
 30
0.0
 11
11679.168879127379
 21
19528.455395421941
 31
0.0
  0
LINE
  5
15284
  8
0-1
  6
CONTINUOUS
 62
     3
 10
11642.168707127379
 20
17940.9487587285
 30
0.0
 11
11642.168707127379
 21
19528.455395421941
 31
0.0
  0
LINE
  5
15285
  8
0-1
  6
CONTINUOUS
 62
     3
 10
13079.16953812736
 20
18543.86631739905
 30
0.0
 11
13079.16953812736
 21
19528.455395421941
 31
0.0
  0
LINE
  5
15286
  8
0-1
  6
CONTINUOUS
 62
     3
 10
13042.17035712737
 20
18528.600174392621
 30
0.0
 11
13042.17035712737
 21
19528.455395421941
 31
0.0
  0
LINE
  5
15287
  8
0-1
  6
CONTINUOUS
 62
     3
 10
13899.17033012739
 20
16841.457797421961
 30
0.0
 11
11331.67033012739
 21
16841.457797421961
 31
0.0
  0
LINE
  5
15288
  8
0-1
  6
CONTINUOUS
 62
     3
 10
11331.67033012739
 20
16841.457797421961
 30
0.0
 11
8977.4311196377621
 21
16841.457797421961
 31
0.0
  0
LINE
  5
15289
  8
2-0
  6
DASHED3
 62
     6
 10
8977.4311196377621
 20
16841.457797421961
 30
0.0
 11
6331.6703301273938
 21
16841.457797421961
 31
0.0
  0
LINE
  5
1528A
  8
0-1
  6
CONTINUOUS
 62
     3
 10
11401.66943048354
 20
16796.457323080809
 30
0.0
 11
13829.169604127381
 21
14228.955421421961
 31
0.0
  0
LINE
  5
1528B
  8
0-1
  6
CONTINUOUS
 62
     3
 10
13829.169604127381
 20
16796.455421421939
 30
0.0
 11
11401.66907612738
 21
14228.955421421961
 31
0.0
  0
LINE
  5
1528C
  8
0-1
  6
CONTINUOUS
 62
     3
 10
13026.686992239171
 20
18515.192318397301
 30
0.0
 11
11401.66943048354
 21
16796.457323080809
 31
0.0
  0
LINE
  5
1528D
  8
0-1
  6
CONTINUOUS
 62
     3
 10
12435.550736608669
 20
18270.447456061051
 30
0.0
 11
13829.169604127381
 21
16796.455421421939
 31
0.0
  0
LINE
  5
1528E
  8
0-1
  6
CONTINUOUS
 62
     3
 10
13966.671557127391
 20
18903.12683630325
 30
0.0
 11
13966.671557127391
 21
19568.956345421921
 31
0.0
  0
LINE
  5
1528F
  8
0-1
  6
CONTINUOUS
 62
     3
 10
13911.170805127391
 20
19551.457400421921
 30
0.0
 11
13911.170805127391
 21
19581.45700442194
 31
0.0
  0
LINE
  5
15290
  8
0-1
  6
CONTINUOUS
 62
     3
 10
13984.67033012739
 20
19581.45700442194
 30
0.0
 11
13984.67033012739
 21
19546.455157421951
 31
0.0
  0
LINE
  5
15291
  8
0-1
  6
CONTINUOUS
 62
     3
 10
13916.1710691274
 20
19586.455289421941
 30
0.0
 11
13979.67105612739
 21
19586.455289421941
 31
0.0
  0
LINE
  5
15292
  8
0-1
  6
CONTINUOUS
 62
     3
 10
13966.671557127391
 20
19568.956345421921
 30
0.0
 11
13984.67033012739
 21
19568.956345421921
 31
0.0
  0
LINE
  5
15293
  8
0-1
  6
CONTINUOUS
 62
     3
 10
13966.671557127391
 20
19546.455157421951
 30
0.0
 11
13916.1710691274
 21
19546.455157421951
 31
0.0
  0
LINE
  5
15294
  8
2-0
  6
DASHED3
 62
     6
 10
13899.17033012739
 20
19324.95692542195
 30
0.0
 11
6331.6703301273938
 21
19324.95692542195
 31
0.0
  0
LINE
  5
15295
  8
2-0
  6
DASHED3
 62
     6
 10
13941.669604127381
 20
18893.957274494071
 30
0.0
 11
13941.669604127381
 21
19409.95745342195
 31
0.0
  0
LINE
  5
15296
  8
2-0
  6
DASHED3
 62
     6
 10
13899.17033012739
 20
18876.421751354948
 30
0.0
 11
13899.17033012739
 21
19409.95745342195
 31
0.0
  0
LINE
  5
15297
  8
2-0
  6
DASHED3
 62
     6
 10
13941.669604127381
 20
19409.95745342195
 30
0.0
 11
6331.6703301273938
 21
19409.95745342195
 31
0.0
  0
LINE
  5
15298
  8
2-0
  6
DASHED3
 62
     6
 10
11331.67033012739
 20
17812.83477083921
 30
0.0
 11
11331.67033012739
 21
19409.95745342195
 31
0.0
  0
LINE
  5
15299
  8
2-0
  6
DASHED3
 62
     6
 10
11289.16907612738
 20
17795.29843073705
 30
0.0
 11
11289.16907612738
 21
19409.95745342195
 31
0.0
  0
LINE
  5
1529A
  8
2-0
  6
DASHED3
 62
     6
 10
13829.169604127381
 20
19363.95542142195
 30
0.0
 11
13026.68699223918
 21
18515.192318397301
 31
0.0
  0
LINE
  5
1529B
  8
2-0
  6
DASHED3
 62
     6
 10
11401.66907612738
 20
19363.95542142195
 30
0.0
 11
12435.550736608669
 21
18270.447456061051
 31
0.0
  0
LINE
  5
1529C
  8
2-0
  6
CENTER2
 62
     6
 10
11331.67033012739
 20
20606.457664421949
 30
0.0
 11
11331.67033012739
 21
19628.454735421921
 31
0.0
  0
LINE
  5
1529D
  8
2-0
  6
CENTER2
 62
     6
 10
15228.67043512738
 20
19363.95542142195
 30
0.0
 11
13582.17121412738
 21
19363.95542142195
 31
0.0
  0
LINE
  5
1529E
  8
0-8
  6
CONTINUOUS
 62
     6
 10
13899.17033012739
 20
20606.457664421949
 30
0.0
 11
13899.17033012739
 21
19656.45700442194
 31
0.0
  0
LINE
  5
1529F
  8
2-0
  6
CENTER2
 62
     6
 10
15228.67043512738
 20
16796.455421421939
 30
0.0
 11
6159.8708821273904
 21
16796.455421421939
 31
0.0
  0
LINE
  5
152A0
  8
2-0
  6
CENTER2
 62
     6
 10
15228.67043512738
 20
14228.955421421961
 30
0.0
 11
13582.17121412738
 21
14228.955421421961
 31
0.0
  0
ARC
  5
152A1
  8
0-1
  6
CONTINUOUS
 62
     3
 10
13916.1710691274
 20
19551.457400421921
 30
0.0
 40
5.0
 50
180.0
 51
270.00001499981897
  0
ARC
  5
152A2
  8
0-1
  6
CONTINUOUS
 62
     3
 10
13916.1683678099
 20
19581.45812334428
 30
0.0
 40
4.99729880777691
 50
89.969028448222716
 51
180.0128288362661
  0
ARC
  5
152A3
  8
0-1
  6
CONTINUOUS
 62
     3
 10
13979.673982603619
 20
19581.45821660808
 30
0.0
 40
4.9970736707893684
 50
359.9861012352485
 51
90.033554587670935
  0
CIRCLE
  5
152A4
  8
0-5
  6
CONTINUOUS
 62
     4
 10
11331.67033012739
 20
20806.456345421939
 30
0.0
 40
199.9999949999999
  0
CIRCLE
  5
152A5
  8
0-5
  6
CONTINUOUS
 62
     4
 10
13899.17033012739
 20
20806.456345421939
 30
0.0
 40
199.9999949999999
  0
CIRCLE
  5
152A6
  8
0-5
  6
CONTINUOUS
 62
     4
 10
15428.67010612738
 20
19363.95542142195
 30
0.0
 40
199.9999949999999
  0
CIRCLE
  5
152A7
  8
0-5
  6
CONTINUOUS
 62
     4
 10
15428.67010612738
 20
16796.455421421939
 30
0.0
 40
199.9999949999999
  0
CIRCLE
  5
152A8
  8
0-5
  6
CONTINUOUS
 62
     4
 10
15428.67010612738
 20
14228.955421421961
 30
0.0
 40
199.9999949999999
  0
TEXT
  5
152A9
  8
0-5
  6
CONTINUOUS
 62
     7
 10
11278.7208694607
 20
20717.24142242195
 30
0.0
 40
160.0
  1
2
 72
     4
 11
11332.054202794039
 21
20797.24142242195
 31
0.0
  0
TEXT
  5
152AA
  8
0-5
  6
CONTINUOUS
 62
     7
 10
13845.836996794051
 20
20726.456345421939
 30
0.0
 40
160.0
  1
3
 72
     4
 11
13899.17033012739
 21
20806.456345421939
 31
0.0
  0
TEXT
  5
152AB
  8
0-5
  6
CONTINUOUS
 62
     7
 10
15375.463307460701
 20
19284.366897421951
 30
0.0
 40
160.0
  1
C
 72
     4
 11
15428.79664079404
 21
19364.366897421951
 31
0.0
  0
TEXT
  5
152AC
  8
0-5
  6
CONTINUOUS
 62
     7
 10
15375.463307460701
 20
16716.867887421951
 30
0.0
 40
160.0
  1
B
 72
     4
 11
15428.79664079404
 21
16796.867887421951
 31
0.0
  0
TEXT
  5
152AD
  8
0-5
  6
CONTINUOUS
 62
     7
 10
15375.463307460701
 20
14149.366897421951
 30
0.0
 40
160.0
  1
A
 72
     4
 11
15428.79664079404
 21
14229.366897421951
 31
0.0
  0
LINE
  5
152AE
  8
2-0
  6
CENTER2
 62
     6
 10
6331.6703301273938
 20
20606.457664421949
 30
0.0
 11
6331.6703301273938
 21
19656.45700442194
 31
0.0
  0
CIRCLE
  5
152AF
  8
0-5
  6
CONTINUOUS
 62
     4
 10
6331.6703301273938
 20
20806.456345421939
 30
0.0
 40
199.9999949999999
  0
TEXT
  5
152B0
  8
0-5
  6
CONTINUOUS
 62
     7
 10
6305.3875361273804
 20
20717.24142242195
 30
0.0
 40
160.0
  1
1
 72
     4
 11
6332.0542027940473
 21
20797.24142242195
 31
0.0
  0
LINE
  5
152B1
  8
0-1
  6
CONTINUOUS
 62
     3
 10
6264.1700921273878
 20
15723.18294765284
 30
0.0
 11
6264.1700921273878
 21
19568.956345421921
 31
0.0
  0
LINE
  5
152B2
  8
0-1
  6
CONTINUOUS
 62
     3
 10
6264.1700921273878
 20
19568.956345421921
 30
0.0
 11
6246.1703301273938
 21
19568.956345421921
 31
0.0
  0
LINE
  5
152B3
  8
0-1
  6
CONTINUOUS
 62
     3
 10
6319.6708441273813
 20
19551.457400421921
 30
0.0
 11
6319.6708441273813
 21
19581.45700442194
 31
0.0
  0
LINE
  5
152B4
  8
0-1
  6
CONTINUOUS
 62
     3
 10
6264.1700921273878
 20
19546.455157421951
 30
0.0
 11
6314.6695901273779
 21
19546.455157421951
 31
0.0
  0
LINE
  5
152B5
  8
0-1
  6
CONTINUOUS
 62
     3
 10
6246.1703301273938
 20
19581.45700442194
 30
0.0
 11
6246.1703301273938
 21
19546.455157421951
 31
0.0
  0
LINE
  5
152B6
  8
0-1
  6
CONTINUOUS
 62
     3
 10
6314.6695901273779
 20
19586.455289421941
 30
0.0
 11
6251.1715831273978
 21
19586.455289421941
 31
0.0
  0
ARC
  5
152B7
  8
0-1
  6
CONTINUOUS
 62
     3
 10
6251.1715831273978
 20
19581.45700442194
 30
0.0
 40
5.0
 50
90.0
 51
180.0
  0
ARC
  5
152B8
  8
0-1
  6
CONTINUOUS
 62
     3
 10
6314.6695901273779
 20
19581.45700442194
 30
0.0
 40
5.0
 50
0.000000000000007
 51
90.0
  0
ARC
  5
152B9
  8
0-1
  6
CONTINUOUS
 62
     3
 10
6314.6695901273779
 20
19551.457400421921
 30
0.0
 40
5.0
 50
270.00001499981897
 51
0.000000000000007
  0
LINE
  5
152BA
  8
0-1
  6
CONTINUOUS
 62
     3
 10
11331.67033012739
 20
14192.45606842195
 30
0.0
 11
11331.67033012739
 21
14036.456147421941
 31
0.0
  0
LINE
  5
152BB
  8
0-1
  6
CONTINUOUS
 62
     3
 10
14197.06189712185
 20
18999.75614314829
 30
0.0
 11
10922.871876782739
 21
17644.161425081362
 31
0.0
  0
LINE
  5
152BC
  8
0-1
  6
CONTINUOUS
 62
     3
 10
9998.4692711371044
 20
17262.745891226441
 30
0.0
 11
6009.1689451273924
 21
15616.730286921809
 31
0.0
  0
LINE
  5
152BD
  8
0-1
  6
CONTINUOUS
 62
     3
 10
6381.6699611273789
 20
14068.45605442196
 30
0.0
 11
6381.6699611273789
 21
15771.664857211859
 31
0.0
  0
LINE
  5
152BE
  8
0-1
  6
CONTINUOUS
 62
     3
 10
6246.1703301273938
 20
14036.456147421941
 30
0.0
 11
6246.1703301273938
 21
15715.7561091838
 31
0.0
  0
LINE
  5
152BF
  8
0-1
  6
CONTINUOUS
 62
     3
 10
6331.6703301273938
 20
14192.45606842195
 30
0.0
 11
6331.6703301273938
 21
15749.796807047869
 31
0.0
  0
LINE
  5
152C0
  8
0-1
  6
CONTINUOUS
 62
     3
 10
6289.1690761273794
 20
14192.45606842195
 30
0.0
 11
6289.1690761273794
 21
15732.260466945711
 31
0.0
  0
LINE
  5
152C1
  8
0-1
  6
CONTINUOUS
 62
     3
 10
6384.6699611273789
 20
15771.664857211859
 30
0.0
 11
6384.6699611273789
 21
19528.455395421941
 31
0.0
  0
LINE
  5
152C2
  8
0-1
  6
CONTINUOUS
 62
     3
 10
6246.1703301273938
 20
15715.7561091838
 30
0.0
 11
6246.1703301273938
 21
19568.956345421921
 31
0.0
  0
LINE
  5
152C3
  8
0-1
  6
CONTINUOUS
 62
     3
 10
6479.1701981273973
 20
15810.656372515499
 30
0.0
 11
6479.1701981273891
 21
19528.455395421941
 31
0.0
  0
LINE
  5
152C4
  8
0-1
  6
CONTINUOUS
 62
     3
 10
6442.1680471273794
 20
15795.389004064529
 30
0.0
 11
6442.1680471273794
 21
19528.455395421941
 31
0.0
  0
LINE
  5
152C5
  8
2-0
  6
DASHED3
 62
     6
 10
6331.6703301273938
 20
15749.796807047869
 30
0.0
 11
6331.6703301273938
 21
19528.455395421941
 31
0.0
  0
LINE
  5
152C6
  8
2-0
  6
DASHED3
 62
     6
 10
6289.1690761273794
 20
15732.260466945711
 30
0.0
 11
6289.1690761273794
 21
19528.455395421941
 31
0.0
  0
LINE
  5
152C7
  8
0-1
  6
CONTINUOUS
 62
     3
 10
11479.168219127379
 20
17873.693519756409
 30
0.0
 11
11479.16821912737
 21
19528.455395421941
 31
0.0
  0
LINE
  5
152C8
  8
0-1
  6
CONTINUOUS
 62
     3
 10
11442.16804712737
 20
17858.426967855841
 30
0.0
 11
11442.16804712737
 21
19528.455395421941
 31
0.0
  0
LINE
  5
152C9
  8
0-1
  6
CONTINUOUS
 62
     3
 10
11279.167559127351
 20
17791.171728883732
 30
0.0
 11
11279.167559127351
 21
19528.455395421941
 31
0.0
  0
LINE
  5
152CA
  8
0-1
  6
CONTINUOUS
 62
     3
 10
11242.167387127351
 20
17775.905176983171
 30
0.0
 11
11242.167387127351
 21
19528.455395421941
 31
0.0
  0
LINE
  5
152CB
  8
0-1
  6
CONTINUOUS
 62
     3
 10
11079.166899127349
 20
17708.649938011062
 30
0.0
 11
11079.166899127349
 21
19528.455395421941
 31
0.0
  0
LINE
  5
152CC
  8
0-1
  6
CONTINUOUS
 62
     3
 10
11042.16672712734
 20
17693.383386110509
 30
0.0
 11
11042.16672712734
 21
19528.455395421941
 31
0.0
  0
LINE
  5
152CD
  8
0-1
  6
CONTINUOUS
 62
     3
 10
10879.16623912734
 20
17750.086857435181
 30
0.0
 11
10879.16623912734
 21
19528.455395421941
 31
0.0
  0
LINE
  5
152CE
  8
0-1
  6
CONTINUOUS
 62
     3
 10
10842.16606712734
 20
17839.76085434993
 30
0.0
 11
10842.16606712734
 21
19528.455395421941
 31
0.0
  0
LINE
  5
152CF
  8
0-1
  6
CONTINUOUS
 62
     3
 10
10679.165579127321
 20
17704.683263369581
 30
0.0
 11
10679.165579127321
 21
19528.455395421941
 31
0.0
  0
LINE
  5
152D0
  8
0-1
  6
CONTINUOUS
 62
     3
 10
10642.16540712733
 20
17662.140022980711
 30
0.0
 11
10642.16540712733
 21
19528.455395421941
 31
0.0
  0
LINE
  5
152D1
  8
0-1
  6
CONTINUOUS
 62
     3
 10
10479.164919127321
 20
17474.720111946601
 30
0.0
 11
10479.16491912733
 21
19528.455395421941
 31
0.0
  0
LINE
  5
152D2
  8
0-1
  6
CONTINUOUS
 62
     3
 10
10442.164747127321
 20
17432.17687155772
 30
0.0
 11
10442.164747127321
 21
19528.455395421941
 31
0.0
  0
LINE
  5
152D3
  8
0-1
  6
CONTINUOUS
 62
     3
 10
10279.164259127319
 20
17244.756960523609
 30
0.0
 11
10279.164259127319
 21
19528.455395421941
 31
0.0
  0
LINE
  5
152D4
  8
0-1
  6
CONTINUOUS
 62
     3
 10
10242.16408712731
 20
17202.213720134721
 30
0.0
 11
10242.16408712731
 21
19528.455395421941
 31
0.0
  0
LINE
  5
152D5
  8
0-1
  6
CONTINUOUS
 62
     3
 10
10079.1635991273
 20
17067.164947913789
 30
0.0
 11
10079.1635991273
 21
19528.455395421941
 31
0.0
  0
LINE
  5
152D6
  8
0-1
  6
CONTINUOUS
 62
     3
 10
10042.163427127291
 20
17156.84322794569
 30
0.0
 11
10042.163427127291
 21
19528.455395421941
 31
0.0
  0
LINE
  5
152D7
  8
0-1
  6
CONTINUOUS
 62
     3
 10
9879.1629391273036
 20
17213.519192775049
 30
0.0
 11
9879.1629391273036
 21
19528.455395421941
 31
0.0
  0
LINE
  5
152D8
  8
0-1
  6
CONTINUOUS
 62
     3
 10
9842.1627671272981
 20
17198.252640874482
 30
0.0
 11
9842.1627671272981
 21
19528.455395421941
 31
0.0
  0
LINE
  5
152D9
  8
0-1
  6
CONTINUOUS
 62
     3
 10
9679.1622791272875
 20
17130.997401902368
 30
0.0
 11
9679.1622791272966
 21
19528.455395421941
 31
0.0
  0
LINE
  5
152DA
  8
0-1
  6
CONTINUOUS
 62
     3
 10
9642.1621071272839
 20
17115.730850001812
 30
0.0
 11
9642.1621071272839
 21
19528.455395421941
 31
0.0
  0
LINE
  5
152DB
  8
0-1
  6
CONTINUOUS
 62
     3
 10
9479.1616191272842
 20
17048.475611029698
 30
0.0
 11
9479.1616191272842
 21
19528.455395421941
 31
0.0
  0
LINE
  5
152DC
  8
0-1
  6
CONTINUOUS
 62
     3
 10
9442.1614471272806
 20
17033.209059129149
 30
0.0
 11
9442.1614471272806
 21
19528.455395421941
 31
0.0
  0
LINE
  5
152DD
  8
0-1
  6
CONTINUOUS
 62
     3
 10
9279.1609591272718
 20
16965.953820157029
 30
0.0
 11
9279.1609591272718
 21
19528.455395421941
 31
0.0
  0
LINE
  5
152DE
  8
0-1
  6
CONTINUOUS
 62
     3
 10
9242.1607871272645
 20
16950.687268256461
 30
0.0
 11
9242.1607871272718
 21
19528.455395421941
 31
0.0
  0
LINE
  5
152DF
  8
0-1
  6
CONTINUOUS
 62
     3
 10
9079.1602991272648
 20
16883.432029284369
 30
0.0
 11
9079.1602991272648
 21
19528.455395421941
 31
0.0
  0
LINE
  5
152E0
  8
0-1
  6
CONTINUOUS
 62
     3
 10
9042.1601271272575
 20
16868.165477383809
 30
0.0
 11
9042.1601271272502
 21
19528.455395421941
 31
0.0
  0
LINE
  5
152E1
  8
0-1
  6
CONTINUOUS
 62
     3
 10
8879.1596391272542
 20
16800.910238411689
 30
0.0
 11
8879.1596391272615
 21
19528.455395421941
 31
0.0
  0
LINE
  5
152E2
  8
0-1
  6
CONTINUOUS
 62
     3
 10
8842.1594671272487
 20
16785.643686511132
 30
0.0
 11
8842.1594671272487
 21
19528.455395421941
 31
0.0
  0
LINE
  5
152E3
  8
0-1
  6
CONTINUOUS
 62
     3
 10
8679.158979127249
 20
16718.388447539019
 30
0.0
 11
8679.1589791272418
 21
19528.455395421941
 31
0.0
  0
LINE
  5
152E4
  8
0-1
  6
CONTINUOUS
 62
     3
 10
8642.1588071272436
 20
16703.121895638451
 30
0.0
 11
8642.1588071272436
 21
19528.455395421941
 31
0.0
  0
LINE
  5
152E5
  8
0-1
  6
CONTINUOUS
 62
     3
 10
8479.1583191272348
 20
16635.86665666636
 30
0.0
 11
8479.1583191272348
 21
19528.455395421941
 31
0.0
  0
LINE
  5
152E6
  8
0-1
  6
CONTINUOUS
 62
     3
 10
8442.1581471272348
 20
16620.600104765781
 30
0.0
 11
8442.1581471272348
 21
19528.455395421941
 31
0.0
  0
LINE
  5
152E7
  8
0-1
  6
CONTINUOUS
 62
     3
 10
8279.1576591272296
 20
16553.34486579369
 30
0.0
 11
8279.1576591272296
 21
19528.455395421941
 31
0.0
  0
LINE
  5
152E8
  8
0-1
  6
CONTINUOUS
 62
     3
 10
8242.1574871272242
 20
16538.078313893118
 30
0.0
 11
8242.1574871272242
 21
19528.455395421941
 31
0.0
  0
LINE
  5
152E9
  8
0-1
  6
CONTINUOUS
 62
     3
 10
8079.1569991272263
 20
16470.82307492102
 30
0.0
 11
8079.1569991272263
 21
19528.455395421941
 31
0.0
  0
LINE
  5
152EA
  8
0-1
  6
CONTINUOUS
 62
     3
 10
8042.1568271272126
 20
16455.556523020441
 30
0.0
 11
8042.1568271272126
 21
19528.455395421941
 31
0.0
  0
LINE
  5
152EB
  8
0-1
  6
CONTINUOUS
 62
     3
 10
7879.156339127213
 20
16388.301284048339
 30
0.0
 11
7879.1563391272166
 21
19528.455395421941
 31
0.0
  0
LINE
  5
152EC
  8
0-1
  6
CONTINUOUS
 62
     3
 10
7842.1561671272038
 20
16373.03473214778
 30
0.0
 11
7842.1561671272038
 21
19528.455395421941
 31
0.0
  0
LINE
  5
152ED
  8
0-1
  6
CONTINUOUS
 62
     3
 10
7679.1556791272033
 20
16305.77949317568
 30
0.0
 11
7679.1556791272033
 21
19528.455395421941
 31
0.0
  0
LINE
  5
152EE
  8
0-1
  6
CONTINUOUS
 62
     3
 10
7642.1555071272041
 20
16290.51294127511
 30
0.0
 11
7642.1555071272041
 21
19528.455395421941
 31
0.0
  0
LINE
  5
152EF
  8
0-1
  6
CONTINUOUS
 62
     3
 10
7479.1550191271981
 20
16223.25770230301
 30
0.0
 11
7479.1550191271981
 21
19528.455395421941
 31
0.0
  0
LINE
  5
152F0
  8
0-1
  6
CONTINUOUS
 62
     3
 10
7442.154847127189
 20
16207.99115040244
 30
0.0
 11
7442.1548471271899
 21
19528.455395421941
 31
0.0
  0
LINE
  5
152F1
  8
0-1
  6
CONTINUOUS
 62
     3
 10
7279.154359127192
 20
16140.73591143034
 30
0.0
 11
7279.154359127192
 21
19528.455395421941
 31
0.0
  0
LINE
  5
152F2
  8
0-1
  6
CONTINUOUS
 62
     3
 10
7242.1541871271766
 20
16125.469359529759
 30
0.0
 11
7242.1541871271838
 21
19528.455395421941
 31
0.0
  0
LINE
  5
152F3
  8
0-1
  6
CONTINUOUS
 62
     3
 10
7079.1536991271787
 20
16058.214120557661
 30
0.0
 11
7079.1536991271787
 21
19528.455395421941
 31
0.0
  0
LINE
  5
152F4
  8
0-1
  6
CONTINUOUS
 62
     3
 10
7042.1535271271723
 20
16042.94756865711
 30
0.0
 11
7042.1535271271723
 21
19528.455395421941
 31
0.0
  0
LINE
  5
152F5
  8
0-1
  6
CONTINUOUS
 62
     3
 10
6879.1530391271654
 20
15975.692329685
 30
0.0
 11
6879.1530391271672
 21
19528.455395421941
 31
0.0
  0
LINE
  5
152F6
  8
0-1
  6
CONTINUOUS
 62
     3
 10
6842.1528671271662
 20
15960.42577778443
 30
0.0
 11
6842.1528671271672
 21
19528.455395421941
 31
0.0
  0
LINE
  5
152F7
  8
0-1
  6
CONTINUOUS
 62
     3
 10
6679.1523791271602
 20
15893.17053881233
 30
0.0
 11
6679.1523791271602
 21
19528.455395421941
 31
0.0
  0
LINE
  5
152F8
  8
0-1
  6
CONTINUOUS
 62
     3
 10
6642.1522071271529
 20
15877.903986911761
 30
0.0
 11
6642.1522071271547
 21
19528.455395421941
 31
0.0
  0
LINE
  5
152F9
  8
0-1
  6
CONTINUOUS
 62
     3
 10
11272.16996112738
 20
14228.955421421961
 30
0.0
 11
9023.1699611273798
 21
16796.455421421939
 31
0.0
  0
LINE
  5
152FA
  8
2-0
  6
DASHED3
 62
     6
 10
7164.1329000485939
 20
16093.27718408442
 30
0.0
 11
6622.1699611273789
 21
16796.455421421939
 31
0.0
  0
LINE
  5
152FB
  8
0-1
  6
CONTINUOUS
 62
     3
 10
9023.1699611273798
 20
14228.955421421961
 30
0.0
 11
11272.16996112738
 21
16796.455421421939
 31
0.0
  0
LINE
  5
152FC
  8
2-0
  6
DASHED3
 62
     6
 10
11272.16996112738
 20
19363.95542142195
 30
0.0
 11
9095.7207748341207
 21
16890.265007300732
 31
0.0
  0
LINE
  5
152FD
  8
2-0
  6
DASHED3
 62
     6
 10
9023.1699611273798
 20
19363.95542142195
 30
0.0
 11
10621.256594170611
 21
17638.09881971647
 31
0.0
  0
LINE
  5
152FE
  8
0-1
  6
CONTINUOUS
 62
     3
 10
10621.256594170611
 20
17638.09881971647
 30
0.0
 11
11272.16996112738
 21
16796.455421421939
 31
0.0
  0
LINE
  5
152FF
  8
0-1
  6
CONTINUOUS
 62
     3
 10
10922.872414542509
 20
17644.160121761241
 30
0.0
 11
10827.518394218991
 21
17875.261104867441
 31
0.0
  0
LINE
  5
15300
  8
0-1
  6
CONTINUOUS
 62
     3
 10
10093.818862035771
 20
17031.644605709811
 30
0.0
 11
9998.4682123582606
 21
17262.748457416281
 31
0.0
  0
LINE
  5
15301
  8
0-1
  6
CONTINUOUS
 62
     3
 10
10093.818862035771
 20
17031.644605709811
 30
0.0
 11
10827.518394218991
 21
17875.261104867441
 31
0.0
  0
LINE
  5
15302
  8
0-1
  6
CONTINUOUS
 62
     3
 10
9023.1699611273798
 20
16796.455421421961
 30
0.0
 11
9095.7207748341207
 21
16890.265007300732
 31
0.0
  0
LINE
  5
15303
  8
2-0
  6
DASHED3
 62
     6
 10
8871.1699611273798
 20
19363.95542142195
 30
0.0
 11
6622.1699611273789
 21
16796.455421421939
 31
0.0
  0
LINE
  5
15304
  8
2-0
  6
DASHED3
 62
     6
 10
6622.1699611273789
 20
19363.95542142195
 30
0.0
 11
8871.1699611273798
 21
16796.455421421939
 31
0.0
  0
LINE
  5
15305
  8
0-1
  6
CONTINUOUS
 62
     3
 10
8871.1699611273798
 20
14228.955421421961
 30
0.0
 11
7164.1329000485939
 21
16093.27718408442
 31
0.0
  0
LINE
  5
15306
  8
0-1
  6
CONTINUOUS
 62
     3
 10
6622.1699611273789
 20
14228.955421421961
 30
0.0
 11
8871.1699611273798
 21
16796.455421421939
 31
0.0
  0
LINE
  5
15307
  8
SUNPOU
  6
CONTINUOUS
 10
14828.670106127371
 20
19586.453309921959
 30
0.0
 11
14828.670106127371
 21
20383.420577700432
 31
0.0
  0
LINE
  5
15308
  8
SUNPOU
  6
CONTINUOUS
 10
14828.670106127391
 20
13295.143557269759
 30
0.0
 11
14828.670106127391
 21
14036.456147421941
 31
0.0
  0
LINE
  5
15309
  8
0-1
  6
CONTINUOUS
 62
     3
 10
13279.16920812737
 20
18619.726128633662
 30
0.0
 11
13279.16920812737
 21
19528.455395421941
 31
0.0
  0
LINE
  5
1530A
  8
0-1
  6
CONTINUOUS
 62
     3
 10
13242.168047127379
 20
18604.406743349849
 30
0.0
 11
13242.168047127379
 21
19528.455395421941
 31
0.0
  0
LINE
  5
1530B
  8
0-1
  6
CONTINUOUS
 62
     3
 10
13479.169867127361
 20
18702.531291213141
 30
0.0
 11
13479.169867127361
 21
19528.455395421941
 31
0.0
  0
LINE
  5
1530C
  8
0-1
  6
CONTINUOUS
 62
     3
 10
13442.170686127371
 20
18687.212725697751
 30
0.0
 11
13442.170686127371
 21
19528.455395421941
 31
0.0
  0
LINE
  5
1530D
  8
0-1
  6
CONTINUOUS
 62
     3
 10
13679.169537127351
 20
18785.336044322441
 30
0.0
 11
13679.169537127351
 21
19528.455395421941
 31
0.0
  0
LINE
  5
1530E
  8
0-1
  6
CONTINUOUS
 62
     3
 10
13642.168376127371
 20
18770.01665903864
 30
0.0
 11
13642.168376127371
 21
19528.455395421941
 31
0.0
  0
LINE
  5
1530F
  8
0-1
  6
CONTINUOUS
 62
     3
 10
26967.855969301181
 20
8178.6575434219612
 30
0.0
 11
24485.352538301198
 21
8178.6575434219612
 31
0.0
  0
LINE
  5
15310
  8
0-1
  6
CONTINUOUS
 62
     3
 10
26967.855969301181
 20
8372.1579124219625
 30
0.0
 11
24485.352538301198
 21
8372.1579124219625
 31
0.0
  0
LINE
  5
15311
  8
0-1
  6
CONTINUOUS
 62
     3
 10
27095.8522743012
 20
8309.9718314219554
 30
0.0
 11
27095.8522743012
 21
8635.6575694219555
 31
0.0
  0
LINE
  5
15312
  8
0-1
  6
CONTINUOUS
 62
     3
 10
24400.353989301198
 20
8505.657635421956
 30
0.0
 11
27095.8522743012
 21
8505.657635421956
 31
0.0
  0
LINE
  5
15313
  8
0-1
  6
CONTINUOUS
 62
     3
 10
27095.8522743012
 20
8635.6575694219555
 30
0.0
 11
24420.351086301202
 21
8635.6575694219555
 31
0.0
  0
LINE
  5
15314
  8
0-1
  6
CONTINUOUS
 62
     3
 10
12097.389251409581
 20
8198.2035874219546
 30
0.0
 11
12097.389251409581
 21
6337.157708421958
 31
0.0
  0
LINE
  5
15315
  8
0-1
  6
CONTINUOUS
 62
     3
 10
12134.387443409591
 20
8198.2035874219546
 30
0.0
 11
12134.387443409591
 21
6337.157708421958
 31
0.0
  0
LINE
  5
15316
  8
0-1
  6
CONTINUOUS
 62
     3
 10
11397.3899114096
 20
8198.2035874219546
 30
0.0
 11
11397.3899114096
 21
6337.157708421958
 31
0.0
  0
LINE
  5
15317
  8
0-1
  6
CONTINUOUS
 62
     3
 10
11434.388103409599
 20
8198.2035874219546
 30
0.0
 11
11434.388103409599
 21
6337.157708421958
 31
0.0
  0
LINE
  5
15318
  8
0-1
  6
CONTINUOUS
 62
     3
 10
11775.8897004096
 20
6337.157708421958
 30
0.0
 11
11775.8897004096
 21
8198.2035874219546
 31
0.0
  0
LINE
  5
15319
  8
0-1
  6
CONTINUOUS
 62
     3
 10
11755.888644409581
 20
6337.157708421958
 30
0.0
 11
11755.888644409581
 21
8198.2035874219546
 31
0.0
  0
LINE
  5
1531A
  8
0-1
  6
CONTINUOUS
 62
     3
 10
11825.88838040958
 20
6337.157708421958
 30
0.0
 11
11825.88838040958
 21
8198.2035874219546
 31
0.0
  0
LINE
  5
1531B
  8
0-1
  6
CONTINUOUS
 62
     3
 10
11705.88897440959
 20
6337.157708421958
 30
0.0
 11
11705.88897440959
 21
8198.2035874219546
 31
0.0
  0
LINE
  5
1531C
  8
0-1
  6
CONTINUOUS
 62
     3
 10
11572.88908040959
 20
6337.157708421958
 30
0.0
 11
11572.88908040959
 21
8198.2035874219546
 31
0.0
  0
LINE
  5
1531D
  8
0-1
  6
CONTINUOUS
 62
     3
 10
11557.889278409581
 20
6337.157708421958
 30
0.0
 11
11557.889278409581
 21
8198.2035874219546
 31
0.0
  0
LINE
  5
1531E
  8
0-1
  6
CONTINUOUS
 62
     3
 10
11958.8892654096
 20
6337.157708421958
 30
0.0
 11
11958.8892654096
 21
8198.2035874219546
 31
0.0
  0
LINE
  5
1531F
  8
0-1
  6
CONTINUOUS
 62
     3
 10
11973.888077409591
 20
6337.157708421958
 30
0.0
 11
11973.888077409591
 21
8198.2035874219546
 31
0.0
  0
LINE
  5
15320
  8
0-1
  6
CONTINUOUS
 62
     3
 10
12257.88861840959
 20
6337.157708421958
 30
0.0
 11
12257.88861840959
 21
8198.2035874219546
 31
0.0
  0
LINE
  5
15321
  8
0-1
  6
CONTINUOUS
 62
     3
 10
12272.889410409591
 20
6337.157708421958
 30
0.0
 11
12272.889410409591
 21
8198.2035874219546
 31
0.0
  0
LINE
  5
15322
  8
0-1
  6
CONTINUOUS
 62
     3
 10
12405.8883144096
 20
6337.157708421958
 30
0.0
 11
12405.8883144096
 21
8198.2035874219546
 31
0.0
  0
LINE
  5
15323
  8
0-1
  6
CONTINUOUS
 62
     3
 10
12525.889700409591
 20
6337.157708421958
 30
0.0
 11
12525.889700409591
 21
8198.2035874219546
 31
0.0
  0
LINE
  5
15324
  8
0-1
  6
CONTINUOUS
 62
     3
 10
12455.886995409581
 20
6337.157708421958
 30
0.0
 11
12455.886995409581
 21
8198.2035874219546
 31
0.0
  0
LINE
  5
15325
  8
0-1
  6
CONTINUOUS
 62
     3
 10
12475.88805040958
 20
6337.157708421958
 30
0.0
 11
12475.88805040958
 21
8198.2035874219546
 31
0.0
  0
LINE
  5
15326
  8
0-1
  6
CONTINUOUS
 62
     3
 10
11273.889726409599
 20
6337.157708421958
 30
0.0
 11
11273.889726409599
 21
8198.2035874219546
 31
0.0
  0
LINE
  5
15327
  8
0-1
  6
CONTINUOUS
 62
     3
 10
11258.88893540959
 20
6337.157708421958
 30
0.0
 11
11258.88893540959
 21
8198.2035874219546
 31
0.0
  0
LINE
  5
15328
  8
0-1
  6
CONTINUOUS
 62
     3
 10
11125.88805040958
 20
6337.157708421958
 30
0.0
 11
11125.88805040958
 21
8198.2035874219546
 31
0.0
  0
LINE
  5
15329
  8
0-1
  6
CONTINUOUS
 62
     3
 10
10857.888948409571
 20
6337.157708421958
 30
0.0
 11
10857.888948409571
 21
8198.2035874219546
 31
0.0
  0
LINE
  5
1532A
  8
0-1
  6
CONTINUOUS
 62
     3
 10
10872.887760409591
 20
6337.157708421958
 30
0.0
 11
10872.887760409591
 21
8198.2035874219546
 31
0.0
  0
LINE
  5
1532B
  8
0-1
  6
CONTINUOUS
 62
     3
 10
11005.88864440959
 20
6337.157708421958
 30
0.0
 11
11005.88864440959
 21
8198.2035874219546
 31
0.0
  0
LINE
  5
1532C
  8
0-1
  6
CONTINUOUS
 62
     3
 10
11055.8883144096
 20
6337.157708421958
 30
0.0
 11
11055.8883144096
 21
8198.2035874219546
 31
0.0
  0
LINE
  5
1532D
  8
0-1
  6
CONTINUOUS
 62
     3
 10
11075.88739140958
 20
6337.157708421958
 30
0.0
 11
11075.88739140958
 21
8198.2035874219546
 31
0.0
  0
LINE
  5
1532E
  8
0-1
  6
CONTINUOUS
 62
     3
 10
10247.888420409579
 20
6337.157708421958
 30
0.0
 11
10247.888420409579
 21
8198.2035874219546
 31
0.0
  0
LINE
  5
1532F
  8
0-1
  6
CONTINUOUS
 62
     3
 10
10267.88749640959
 20
6337.157708421958
 30
0.0
 11
10267.88749640959
 21
8198.2035874219546
 31
0.0
  0
LINE
  5
15330
  8
0-1
  6
CONTINUOUS
 62
     3
 10
10197.8877604096
 20
6337.157708421958
 30
0.0
 11
10197.8877604096
 21
8198.2035874219546
 31
0.0
  0
LINE
  5
15331
  8
0-1
  6
CONTINUOUS
 62
     3
 10
10317.88815640959
 20
6337.157708421958
 30
0.0
 11
10317.88815640959
 21
8198.2035874219546
 31
0.0
  0
LINE
  5
15332
  8
0-1
  6
CONTINUOUS
 62
     3
 10
10450.888050409591
 20
6337.157708421958
 30
0.0
 11
10450.888050409591
 21
8198.2035874219546
 31
0.0
  0
LINE
  5
15333
  8
0-1
  6
CONTINUOUS
 62
     3
 10
10465.889832409601
 20
6337.157708421958
 30
0.0
 11
10465.889832409601
 21
8198.2035874219546
 31
0.0
  0
LINE
  5
15334
  8
0-1
  6
CONTINUOUS
 62
     3
 10
10064.88786640959
 20
6337.157708421958
 30
0.0
 11
10064.88786640959
 21
8198.2035874219546
 31
0.0
  0
LINE
  5
15335
  8
0-1
  6
CONTINUOUS
 62
     3
 10
10049.889053409581
 20
6337.157708421958
 30
0.0
 11
10049.889053409581
 21
8198.2035874219546
 31
0.0
  0
LINE
  5
15336
  8
0-1
  6
CONTINUOUS
 62
     3
 10
8847.8877604095906
 20
6337.157708421958
 30
0.0
 11
8847.8877604095906
 21
8198.2035874219546
 31
0.0
  0
LINE
  5
15337
  8
0-1
  6
CONTINUOUS
 62
     3
 10
8867.8888164095843
 20
6337.157708421958
 30
0.0
 11
8867.8888164095843
 21
8198.2035874219546
 31
0.0
  0
LINE
  5
15338
  8
0-1
  6
CONTINUOUS
 62
     3
 10
8797.8890804095863
 20
6337.157708421958
 30
0.0
 11
8797.8890804095863
 21
8198.2035874219546
 31
0.0
  0
LINE
  5
15339
  8
0-1
  6
CONTINUOUS
 62
     3
 10
8917.8874964095867
 20
6337.157708421958
 30
0.0
 11
8917.8874964095867
 21
8198.2035874219546
 31
0.0
  0
LINE
  5
1533A
  8
0-1
  6
CONTINUOUS
 62
     3
 10
9050.8883804095858
 20
6337.157708421958
 30
0.0
 11
9050.8883804095858
 21
8198.2035874219546
 31
0.0
  0
LINE
  5
1533B
  8
0-1
  6
CONTINUOUS
 62
     3
 10
9065.8881824096043
 20
6337.157708421958
 30
0.0
 11
9065.8881824096043
 21
8198.2035874219546
 31
0.0
  0
LINE
  5
1533C
  8
0-1
  6
CONTINUOUS
 62
     3
 10
8664.8901754095878
 20
6337.157708421958
 30
0.0
 11
8664.8901754095878
 21
8198.2035874219546
 31
0.0
  0
LINE
  5
1533D
  8
0-1
  6
CONTINUOUS
 62
     3
 10
8649.8883944095869
 20
6337.157708421958
 30
0.0
 11
8649.8883944095869
 21
8198.2035874219546
 31
0.0
  0
LINE
  5
1533E
  8
0-1
  6
CONTINUOUS
 62
     3
 10
9349.8877344095963
 20
6337.157708421958
 30
0.0
 11
9349.8877344095963
 21
8198.2035874219546
 31
0.0
  0
LINE
  5
1533F
  8
0-1
  6
CONTINUOUS
 62
     3
 10
9364.8895154095953
 20
6337.157708421958
 30
0.0
 11
9364.8895154095953
 21
8198.2035874219546
 31
0.0
  0
LINE
  5
15340
  8
0-1
  6
CONTINUOUS
 62
     3
 10
9765.8875234095904
 20
6337.157708421958
 30
0.0
 11
9765.8875234095904
 21
8198.2035874219546
 31
0.0
  0
LINE
  5
15341
  8
0-1
  6
CONTINUOUS
 62
     3
 10
9750.888710409592
 20
6337.157708421958
 30
0.0
 11
9750.888710409592
 21
8198.2035874219546
 31
0.0
  0
LINE
  5
15342
  8
0-1
  6
CONTINUOUS
 62
     3
 10
9617.8898064095865
 20
6337.157708421958
 30
0.0
 11
9617.8898064095865
 21
8198.2035874219546
 31
0.0
  0
LINE
  5
15343
  8
0-1
  6
CONTINUOUS
 62
     3
 10
9497.8884204095957
 20
6337.157708421958
 30
0.0
 11
9497.8884204095957
 21
8198.2035874219546
 31
0.0
  0
LINE
  5
15344
  8
0-1
  6
CONTINUOUS
 62
     3
 10
9567.8881564096082
 20
6337.157708421958
 30
0.0
 11
9567.8881564096082
 21
8198.2035874219546
 31
0.0
  0
LINE
  5
15345
  8
0-1
  6
CONTINUOUS
 62
     3
 10
9547.8890804095863
 20
6337.157708421958
 30
0.0
 11
9547.8890804095863
 21
8198.2035874219546
 31
0.0
  0
LINE
  5
15346
  8
0-1
  6
CONTINUOUS
 62
     3
 10
9889.3877074095926
 20
8198.2035874219546
 30
0.0
 11
9889.3877074095926
 21
6337.157708421958
 31
0.0
  0
LINE
  5
15347
  8
0-1
  6
CONTINUOUS
 62
     3
 10
9926.3888694095967
 20
8198.2035874219546
 30
0.0
 11
9926.3888694095967
 21
6337.157708421958
 31
0.0
  0
LINE
  5
15348
  8
0-1
  6
CONTINUOUS
 62
     3
 10
8489.3900174095907
 20
8198.2035874219546
 30
0.0
 11
8489.3900174095907
 21
6337.157708421958
 31
0.0
  0
LINE
  5
15349
  8
0-1
  6
CONTINUOUS
 62
     3
 10
8526.389199409603
 20
8198.2035874219546
 30
0.0
 11
8526.389199409603
 21
6337.157708421958
 31
0.0
  0
LINE
  5
1534A
  8
0-1
  6
CONTINUOUS
 62
     3
 10
9189.3883674095996
 20
8198.2035874219546
 30
0.0
 11
9189.3883674095996
 21
6337.157708421958
 31
0.0
  0
LINE
  5
1534B
  8
0-1
  6
CONTINUOUS
 62
     3
 10
9226.3885394095832
 20
8198.2035874219546
 30
0.0
 11
9226.3885394095832
 21
6337.157708421958
 31
0.0
  0
LINE
  5
1534C
  8
0-1
  6
CONTINUOUS
 62
     3
 10
24392.853593301192
 20
6287.1575434219621
 30
0.0
 11
24492.852934301191
 21
6287.1575434219621
 31
0.0
  0
LINE
  5
1534D
  8
0-1
  6
CONTINUOUS
 62
     3
 10
24492.852934301191
 20
6287.1575434219621
 30
0.0
 11
24492.852934301191
 21
6187.1577084219589
 31
0.0
  0
LINE
  5
1534E
  8
0-1
  6
CONTINUOUS
 62
     3
 10
24392.853593301192
 20
6187.1577084219589
 30
0.0
 11
24392.853593301192
 21
6287.1575434219621
 31
0.0
  0
LINE
  5
1534F
  8
0-1
  6
CONTINUOUS
 62
     3
 10
24485.352538301198
 20
8505.657635421956
 30
0.0
 11
24485.352538301198
 21
6287.1575434219621
 31
0.0
  0
LINE
  5
15350
  8
0-1
  6
CONTINUOUS
 62
     3
 10
24536.8522743012
 20
8178.6575434219612
 30
0.0
 11
24536.8522743012
 21
6187.1577084219589
 31
0.0
  0
LINE
  5
15351
  8
0-1
  6
CONTINUOUS
 62
     3
 10
24420.351086301202
 20
8635.6575694219555
 30
0.0
 11
24420.351086301202
 21
6287.1575434219621
 31
0.0
  0
LINE
  5
15352
  8
0-1
  6
CONTINUOUS
 62
     3
 10
24400.352274301182
 20
8505.657635421956
 30
0.0
 11
24400.352274301182
 21
6287.1575434219621
 31
0.0
  0
LINE
  5
15353
  8
0-1
  6
CONTINUOUS
 62
     3
 10
27095.8522743012
 20
8309.9718314219554
 30
0.0
 11
27052.8522743012
 21
8309.9718314219554
 31
0.0
  0
LINE
  5
15354
  8
0-1
  6
CONTINUOUS
 62
     3
 10
27060.35491330118
 20
6287.1575434219621
 30
0.0
 11
26960.355573301182
 21
6287.1575434219621
 31
0.0
  0
LINE
  5
15355
  8
0-1
  6
CONTINUOUS
 62
     3
 10
26960.355573301182
 20
6287.1575434219621
 30
0.0
 11
26960.355573301182
 21
6187.1577084219589
 31
0.0
  0
LINE
  5
15356
  8
0-1
  6
CONTINUOUS
 62
     3
 10
27060.35491330118
 20
6187.1577084219589
 30
0.0
 11
27060.35491330118
 21
6287.1575434219621
 31
0.0
  0
LINE
  5
15357
  8
0-1
  6
CONTINUOUS
 62
     3
 10
26916.3522743012
 20
8178.6575434219612
 30
0.0
 11
26916.3522743012
 21
6187.1577084219589
 31
0.0
  0
LINE
  5
15358
  8
0-1
  6
CONTINUOUS
 62
     3
 10
26967.855969301181
 20
8505.657635421956
 30
0.0
 11
26967.855969301181
 21
6287.1575434219621
 31
0.0
  0
LINE
  5
15359
  8
0-1
  6
CONTINUOUS
 62
     3
 10
27032.855441301192
 20
8635.6575694219555
 30
0.0
 11
27032.855441301192
 21
6287.1575434219621
 31
0.0
  0
LINE
  5
1535A
  8
0-1
  6
CONTINUOUS
 62
     3
 10
27052.8522743012
 20
8505.657635421956
 30
0.0
 11
27052.8522743012
 21
6287.1575434219621
 31
0.0
  0
LINE
  5
1535B
  8
0-1
  6
CONTINUOUS
 62
     3
 10
8039.3888954096037
 20
6287.1575434219621
 30
0.0
 11
8039.3888954096037
 21
6187.1577084219589
 31
0.0
  0
LINE
  5
1535C
  8
0-1
  6
CONTINUOUS
 62
     3
 10
8071.8896864096032
 20
8501.4866184219627
 30
0.0
 11
8071.8896864096032
 21
6287.1575434219621
 31
0.0
  0
LINE
  5
1535D
  8
0-1
  6
CONTINUOUS
 62
     3
 10
8051.8888954095974
 20
8502.0676074219573
 30
0.0
 11
8051.8888954095974
 21
6287.1575434219621
 31
0.0
  0
LINE
  5
1535E
  8
0-1
  6
CONTINUOUS
 62
     3
 10
8166.8887634096109
 20
8198.2035874219546
 30
0.0
 11
8166.8887634096109
 21
6287.1575434219621
 31
0.0
  0
LINE
  5
1535F
  8
0-1
  6
CONTINUOUS
 62
     3
 10
10661.8888954096
 20
8402.9590504219595
 30
0.0
 11
10661.8888954096
 21
8198.2035874219546
 31
0.0
  0
LINE
  5
15360
  8
0-1
  6
CONTINUOUS
 62
     3
 10
10734.38876340959
 20
8198.2035874219546
 30
0.0
 11
10734.38876340959
 21
6287.1575434219621
 31
0.0
  0
LINE
  5
15361
  8
0-1
  6
CONTINUOUS
 62
     3
 10
10589.3900174096
 20
8198.2035874219546
 30
0.0
 11
10589.3900174096
 21
6287.1575434219621
 31
0.0
  0
LINE
  5
15362
  8
0-1
  6
CONTINUOUS
 62
     3
 10
10589.3900174096
 20
6337.157708421958
 30
0.0
 11
8166.8887634096109
 21
6337.157708421958
 31
0.0
  0
LINE
  5
15363
  8
0-1
  6
CONTINUOUS
 62
     3
 10
26916.3522743012
 20
6707.1584344219546
 30
0.0
 11
24536.8522743012
 21
6707.1584344219546
 31
0.0
  0
LINE
  5
15364
  8
0-1
  6
CONTINUOUS
 62
     3
 10
26916.3522743012
 20
6642.1579724219591
 30
0.0
 11
24536.8522743012
 21
6642.1579724219591
 31
0.0
  0
LINE
  5
15365
  8
0-1
  6
CONTINUOUS
 62
     3
 10
26916.3522743012
 20
6577.1580054219576
 30
0.0
 11
24536.8522743012
 21
6577.1580054219576
 31
0.0
  0
LINE
  5
15366
  8
0-1
  6
CONTINUOUS
 62
     3
 10
26916.3522743012
 20
6512.1575434219603
 30
0.0
 11
24536.8522743012
 21
6512.1575434219603
 31
0.0
  0
LINE
  5
15367
  8
0-1
  6
CONTINUOUS
 62
     3
 10
26916.3522743012
 20
6447.1580714219663
 30
0.0
 11
24536.8522743012
 21
6447.1580714219663
 31
0.0
  0
LINE
  5
15368
  8
0-1
  6
CONTINUOUS
 62
     3
 10
26916.3522743012
 20
6382.158104421962
 30
0.0
 11
24536.8522743012
 21
6382.158104421962
 31
0.0
  0
LINE
  5
15369
  8
0-1
  6
CONTINUOUS
 62
     3
 10
26916.3522743012
 20
6317.1581374219604
 30
0.0
 11
24536.8522743012
 21
6317.1581374219604
 31
0.0
  0
LINE
  5
1536A
  8
0-1
  6
CONTINUOUS
 62
     3
 10
26916.3522743012
 20
6252.1576754219623
 30
0.0
 11
24536.8522743012
 21
6252.1576754219623
 31
0.0
  0
LINE
  5
1536B
  8
0-1
  6
CONTINUOUS
 62
     3
 10
26916.3522743012
 20
8072.1577414219619
 30
0.0
 11
24536.8522743012
 21
8072.1577414219619
 31
0.0
  0
LINE
  5
1536C
  8
0-1
  6
CONTINUOUS
 62
     3
 10
26916.3522743012
 20
8007.1577744219603
 30
0.0
 11
24536.8522743012
 21
8007.1577744219603
 31
0.0
  0
LINE
  5
1536D
  8
0-1
  6
CONTINUOUS
 62
     3
 10
26916.3522743012
 20
7942.1583024219653
 30
0.0
 11
24536.8522743012
 21
7942.1583024219653
 31
0.0
  0
LINE
  5
1536E
  8
0-1
  6
CONTINUOUS
 62
     3
 10
26916.3522743012
 20
7877.158335421952
 30
0.0
 11
24536.8522743012
 21
7877.158335421952
 31
0.0
  0
LINE
  5
1536F
  8
0-1
  6
CONTINUOUS
 62
     3
 10
26916.3522743012
 20
7812.158368421965
 30
0.0
 11
24536.8522743012
 21
7812.158368421965
 31
0.0
  0
LINE
  5
15370
  8
0-1
  6
CONTINUOUS
 62
     3
 10
26916.3522743012
 20
7747.1579064219613
 30
0.0
 11
24536.8522743012
 21
7747.1579064219613
 31
0.0
  0
LINE
  5
15371
  8
0-1
  6
CONTINUOUS
 62
     3
 10
26916.3522743012
 20
7682.1579394219571
 30
0.0
 11
24536.8522743012
 21
7682.1579394219571
 31
0.0
  0
LINE
  5
15372
  8
0-1
  6
CONTINUOUS
 62
     3
 10
26916.3522743012
 20
7617.1584674219621
 30
0.0
 11
24536.8522743012
 21
7617.1584674219621
 31
0.0
  0
LINE
  5
15373
  8
0-1
  6
CONTINUOUS
 62
     3
 10
26916.3522743012
 20
7552.1585004219569
 30
0.0
 11
24536.8522743012
 21
7552.1585004219569
 31
0.0
  0
LINE
  5
15374
  8
0-1
  6
CONTINUOUS
 62
     3
 10
26916.3522743012
 20
7487.1580384219606
 30
0.0
 11
24536.8522743012
 21
7487.1580384219606
 31
0.0
  0
LINE
  5
15375
  8
0-1
  6
CONTINUOUS
 62
     3
 10
26916.3522743012
 20
7422.1580714219581
 30
0.0
 11
24536.8522743012
 21
7422.1580714219581
 31
0.0
  0
LINE
  5
15376
  8
0-1
  6
CONTINUOUS
 62
     3
 10
26916.3522743012
 20
7357.158104421962
 30
0.0
 11
24536.8522743012
 21
7357.158104421962
 31
0.0
  0
LINE
  5
15377
  8
0-1
  6
CONTINUOUS
 62
     3
 10
26916.3522743012
 20
7292.1576424219584
 30
0.0
 11
24536.8522743012
 21
7292.1576424219584
 31
0.0
  0
LINE
  5
15378
  8
0-1
  6
CONTINUOUS
 62
     3
 10
26916.3522743012
 20
7227.1576754219559
 30
0.0
 11
24536.8522743012
 21
7227.1576754219559
 31
0.0
  0
LINE
  5
15379
  8
0-1
  6
CONTINUOUS
 62
     3
 10
26916.3522743012
 20
7162.1582034219591
 30
0.0
 11
24536.8522743012
 21
7162.1582034219591
 31
0.0
  0
LINE
  5
1537A
  8
0-1
  6
CONTINUOUS
 62
     3
 10
26916.3522743012
 20
7097.1582364219557
 30
0.0
 11
24536.8522743012
 21
7097.1582364219557
 31
0.0
  0
LINE
  5
1537B
  8
0-1
  6
CONTINUOUS
 62
     3
 10
26916.3522743012
 20
7032.1582694219596
 30
0.0
 11
24536.8522743012
 21
7032.1582694219596
 31
0.0
  0
LINE
  5
1537C
  8
0-1
  6
CONTINUOUS
 62
     3
 10
26916.3522743012
 20
6967.1578074219642
 30
0.0
 11
24536.8522743012
 21
6967.1578074219642
 31
0.0
  0
LINE
  5
1537D
  8
0-1
  6
CONTINUOUS
 62
     3
 10
26916.3522743012
 20
6902.1578404219608
 30
0.0
 11
24536.8522743012
 21
6902.1578404219608
 31
0.0
  0
LINE
  5
1537E
  8
0-1
  6
CONTINUOUS
 62
     3
 10
26916.3522743012
 20
6837.1583684219568
 30
0.0
 11
24536.8522743012
 21
6837.1583684219568
 31
0.0
  0
LINE
  5
1537F
  8
0-1
  6
CONTINUOUS
 62
     3
 10
26916.3522743012
 20
6772.1584014219598
 30
0.0
 11
24536.8522743012
 21
6772.1584014219598
 31
0.0
  0
LINE
  5
15380
  8
0-1
  6
CONTINUOUS
 62
     3
 10
26916.3522743012
 20
8126.6177614219587
 30
0.0
 11
24536.8522743012
 21
8126.6177614219587
 31
0.0
  0
LINE
  5
15381
  8
0-1
  6
CONTINUOUS
 62
     3
 10
27060.35491330118
 20
6187.1577084219589
 30
0.0
 11
18831.373898175982
 21
6187.1577084219589
 31
0.0
  0
LINE
  5
15382
  8
0-1
  6
CONTINUOUS
 62
     3
 10
13279.3888954096
 20
6187.1577084219589
 30
0.0
 11
13279.3888954096
 21
6287.1575434219621
 31
0.0
  0
LINE
  5
15383
  8
0-1
  6
CONTINUOUS
 62
     3
 10
13251.8890934096
 20
8314.9600464219584
 30
0.0
 11
13251.8890934096
 21
6287.1575434219621
 31
0.0
  0
LINE
  5
15384
  8
0-1
  6
CONTINUOUS
 62
     3
 10
13271.8888954096
 20
8314.3433191057684
 30
0.0
 11
13271.8888954096
 21
6287.1575434219621
 31
0.0
  0
LINE
  5
15385
  8
0-1
  6
CONTINUOUS
 62
     3
 10
13156.89001640959
 20
8198.2035874219546
 30
0.0
 11
13156.89001640959
 21
6287.1575434219621
 31
0.0
  0
LINE
  5
15386
  8
0-1
  6
CONTINUOUS
 62
     3
 10
13279.3888954096
 20
6287.1575434219621
 30
0.0
 11
8039.3888954096037
 21
6287.1575434219621
 31
0.0
  0
LINE
  5
15387
  8
0-1
  6
CONTINUOUS
 62
     3
 10
13156.89001640959
 20
6337.157708421958
 30
0.0
 11
10734.38876340959
 21
6337.157708421958
 31
0.0
  0
LINE
  5
15388
  8
0-1
  6
CONTINUOUS
 62
     3
 10
13961.889950409601
 20
6187.1577084219589
 30
0.0
 11
8039.3888954096037
 21
6187.1577084219589
 31
0.0
  0
LINE
  5
15389
  8
0-1
  6
CONTINUOUS
 62
     3
 10
13251.8890934096
 20
8198.2035874219546
 30
0.0
 11
8071.8896864096032
 21
8198.2035874219546
 31
0.0
  0
LINE
  5
1538A
  8
0-1
  6
CONTINUOUS
 62
     3
 10
26941.853013301181
 20
8381.1582894219573
 30
0.0
 11
26664.423483301191
 21
8381.1582894219573
 31
0.0
  0
LINE
  5
1538B
  8
0-1
  6
CONTINUOUS
 62
     3
 10
26941.853013301181
 20
8423.1577344219604
 30
0.0
 11
26632.426545301169
 21
8423.1577344219604
 31
0.0
  0
LINE
  5
1538C
  8
0-1
  6
CONTINUOUS
 62
     3
 10
26946.85327630119
 20
8386.1580584219537
 30
0.0
 11
26946.85327630119
 21
8418.1584604219606
 31
0.0
  0
LINE
  5
1538D
  8
0-1
  6
CONTINUOUS
 62
     3
 10
26967.855969301181
 20
8432.157616421955
 30
0.0
 11
24485.352538301198
 21
8432.157616421955
 31
0.0
  0
LINE
  5
1538E
  8
0-1
  6
CONTINUOUS
 62
     3
 10
26660.890043301191
 20
8382.6221434219606
 30
0.0
 11
26628.8891453012
 21
8414.6225454219584
 31
0.0
  0
LINE
  5
1538F
  8
0-1
  6
CONTINUOUS
 62
     3
 10
26946.85327630119
 20
8414.7581424219588
 30
0.0
 11
26628.760477301199
 21
8414.7581424219588
 31
0.0
  0
LINE
  5
15390
  8
0-1
  6
CONTINUOUS
 62
     3
 10
26946.85327630119
 20
8406.358055421957
 30
0.0
 11
26637.15363530118
 21
8406.358055421957
 31
0.0
  0
LINE
  5
15391
  8
0-1
  6
CONTINUOUS
 62
     3
 10
26946.85327630119
 20
8397.9584634219609
 30
0.0
 11
26645.552733301181
 21
8397.9584634219609
 31
0.0
  0
LINE
  5
15392
  8
0-1
  6
CONTINUOUS
 62
     3
 10
26946.85327630119
 20
8389.5583764219609
 30
0.0
 11
26653.955789301181
 21
8389.5583764219609
 31
0.0
  0
LINE
  5
15393
  8
0-1
  6
CONTINUOUS
 62
     3
 10
24506.353250301199
 20
8414.7581424219588
 30
0.0
 11
24824.44605030118
 21
8414.7581424219588
 31
0.0
  0
LINE
  5
15394
  8
0-1
  6
CONTINUOUS
 62
     3
 10
24506.353250301199
 20
8406.358055421957
 30
0.0
 11
24816.050912301191
 21
8406.358055421957
 31
0.0
  0
LINE
  5
15395
  8
0-1
  6
CONTINUOUS
 62
     3
 10
24506.353250301199
 20
8397.9584634219609
 30
0.0
 11
24807.6518153012
 21
8397.9584634219609
 31
0.0
  0
LINE
  5
15396
  8
0-1
  6
CONTINUOUS
 62
     3
 10
24506.353250301199
 20
8389.5583764219609
 30
0.0
 11
24799.252717301199
 21
8389.5583764219609
 31
0.0
  0
LINE
  5
15397
  8
0-1
  6
CONTINUOUS
 62
     3
 10
24511.353514301201
 20
8423.1577344219604
 30
0.0
 11
24820.779982301199
 21
8423.1577344219604
 31
0.0
  0
LINE
  5
15398
  8
0-1
  6
CONTINUOUS
 62
     3
 10
24511.353514301201
 20
8381.1582894219573
 30
0.0
 11
24788.783043301199
 21
8381.1582894219573
 31
0.0
  0
LINE
  5
15399
  8
0-1
  6
CONTINUOUS
 62
     3
 10
24506.353250301199
 20
8386.1580584219537
 30
0.0
 11
24506.353250301199
 21
8418.1584604219606
 31
0.0
  0
LINE
  5
1539A
  8
0-1
  6
CONTINUOUS
 62
     3
 10
24792.318464301181
 20
8382.6221434219606
 30
0.0
 11
24824.315402301181
 21
8414.6225454219584
 31
0.0
  0
LINE
  5
1539B
  8
0-1
  6
CONTINUOUS
 62
     3
 10
13446.1907194096
 20
8349.1428684219627
 30
0.0
 11
7966.1992304095993
 21
8544.6589294219648
 31
0.0
  0
LINE
  5
1539C
  8
0-1
  6
CONTINUOUS
 62
     3
 10
7967.6997054095973
 20
8594.6378144219634
 30
0.0
 11
13447.6902044096
 21
8399.1207644219558
 31
0.0
  0
LINE
  5
1539D
  8
0-1
  6
CONTINUOUS
 62
     3
 10
13450.780232409599
 20
8402.0296664219622
 30
0.0
 11
13451.740299409599
 21
8434.0152224219564
 31
0.0
  0
LINE
  5
1539E
  8
0-1
  6
CONTINUOUS
 62
     3
 10
13446.891468409591
 20
8439.162465421954
 30
0.0
 11
7947.9302534095987
 21
8635.2496174219577
 31
0.0
  0
LINE
  5
1539F
  8
0-1
  6
CONTINUOUS
 62
     3
 10
7944.0256534095961
 20
8505.3080794219622
 30
0.0
 11
13442.990827409591
 21
8309.2214224219533
 31
0.0
  0
LINE
  5
153A0
  8
0-1
  6
CONTINUOUS
 62
     3
 10
13448.13856540959
 20
8314.0687684219574
 30
0.0
 11
13449.09764240959
 21
8346.0548194219555
 31
0.0
  0
LINE
  5
153A1
  8
0-1
  6
CONTINUOUS
 62
     3
 10
13449.429211409601
 20
8357.0495604219614
 30
0.0
 11
13450.449653409591
 21
8391.0339354219559
 31
0.0
  0
LINE
  5
153A2
  8
0-1
  6
CONTINUOUS
 62
     3
 10
13447.54075040958
 20
8394.1229744219581
 30
0.0
 11
7967.5482724096
 21
8589.6405194219587
 31
0.0
  0
LINE
  5
153A3
  8
0-1
  6
CONTINUOUS
 62
     3
 10
7966.3486844096024
 20
8549.6572134219587
 30
0.0
 11
13446.3391824096
 21
8354.1411534219587
 31
0.0
  0
LINE
  5
153A4
  8
0-1
  6
CONTINUOUS
 62
     3
 10
10661.8888954096
 20
8402.9590504219595
 30
0.0
 11
10665.79151640959
 21
8532.9005884219569
 31
0.0
  0
LINE
  5
153A5
  8
0-1
  6
CONTINUOUS
 62
     3
 10
7976.992555409598
 20
8504.3173304219581
 30
0.0
 11
7980.8941864095987
 21
8634.2588684219572
 31
0.0
  0
LINE
  5
153A6
  8
0-1
  6
CONTINUOUS
 62
     3
 10
13434.39872640959
 20
8439.5375844219616
 30
0.0
 11
13430.49610540958
 21
8309.5965414219572
 31
0.0
  0
LINE
  5
153A7
  8
0-2
  6
CONTINUOUS
 62
     4
 10
25362.914233801159
 20
6934.3844024219543
 30
0.0
 11
25462.913573801168
 21
6934.3844024219543
 31
0.0
  0
LINE
  5
153A8
  8
0-2
  6
CONTINUOUS
 62
     4
 10
26090.298233801201
 20
6934.3844024219543
 30
0.0
 11
25990.298893801191
 21
6934.3844024219543
 31
0.0
  0
LINE
  5
153A9
  8
0-5
  6
CONTINUOUS
 62
     4
 10
24442.852274301182
 20
4507.1581044219538
 30
0.0
 11
24442.852274301182
 21
4347.1585664219583
 31
0.0
  0
LINE
  5
153AA
  8
0-5
  6
CONTINUOUS
 62
     4
 10
15259.751228455891
 20
6287.1575434219612
 30
0.0
 11
15139.75083245588
 21
6495.0045204219559
 31
0.0
  0
LINE
  5
153AB
  8
0-5
  6
CONTINUOUS
 62
     4
 10
15379.74964545588
 20
6495.0045204219559
 30
0.0
 11
15259.751228455891
 21
6287.1575434219612
 31
0.0
  0
LINE
  5
153AC
  8
0-5
  6
CONTINUOUS
 62
     4
 10
15139.75083245588
 20
6495.0045204219559
 30
0.0
 11
15379.74964545588
 21
6495.0045204219559
 31
0.0
  0
LINE
  5
153AD
  8
0-5
  6
CONTINUOUS
 62
     4
 10
15737.45526069104
 20
6287.1575434219612
 30
0.0
 11
14361.88929140959
 21
6287.1575434219612
 31
0.0
  0
LINE
  5
153AE
  8
0-5
  6
CONTINUOUS
 62
     4
 10
27010.3522743012
 20
4507.1581044219538
 30
0.0
 11
27010.3522743012
 21
4347.1585664219583
 31
0.0
  0
LINE
  5
153AF
  8
0-5
  6
CONTINUOUS
 62
     4
 10
8094.3888954096064
 20
4507.1581044219538
 30
0.0
 11
8094.3888954096064
 21
4347.1585664219583
 31
0.0
  0
LINE
  5
153B0
  8
0-5
  6
CONTINUOUS
 62
     4
 10
10661.8888954096
 20
4507.1581044219538
 30
0.0
 11
10661.8888954096
 21
4347.1585664219583
 31
0.0
  0
LINE
  5
153B1
  8
0-5
  6
CONTINUOUS
 62
     4
 10
13229.3888954096
 20
4507.1581044219538
 30
0.0
 11
13229.3888954096
 21
4347.1585664219583
 31
0.0
  0
LINE
  5
153B2
  8
2-0
  6
CENTER2
 62
     6
 10
24442.852274301182
 20
5924.5052854219593
 30
0.0
 11
24442.852274301182
 21
6961.6483124219576
 31
0.0
  0
LINE
  5
153B3
  8
2-0
  6
CENTER2
 62
     6
 10
27010.3522743012
 20
5924.5052854219593
 30
0.0
 11
27010.3522743012
 21
6961.6483124219576
 31
0.0
  0
LINE
  5
153B4
  8
2-0
  6
CENTER2
 62
     6
 10
8094.3888954096064
 20
5924.5052854219593
 30
0.0
 11
8094.3888954096064
 21
6981.6478834219579
 31
0.0
  0
LINE
  5
153B5
  8
2-0
  6
CENTER2
 62
     6
 10
10661.8888954096
 20
5924.5052854219593
 30
0.0
 11
10661.8888954096
 21
6981.6478834219579
 31
0.0
  0
LINE
  5
153B6
  8
2-0
  6
CENTER2
 62
     6
 10
13229.3888954096
 20
5924.5052854219593
 30
0.0
 11
13229.3888954096
 21
6981.6478834219579
 31
0.0
  0
ARC
  5
153B7
  8
0-1
  6
CONTINUOUS
 62
     3
 10
26941.853013301181
 20
8418.1584604219606
 30
0.0
 40
5.0
 50
0.0
 51
90.0
  0
ARC
  5
153B8
  8
0-1
  6
CONTINUOUS
 62
     3
 10
26941.853013301181
 20
8386.1580584219537
 30
0.0
 40
5.0
 50
270.00001499981897
 51
0.0
  0
ARC
  5
153B9
  8
0-1
  6
CONTINUOUS
 62
     3
 10
26664.423483301191
 20
8386.1580584219537
 30
0.0
 40
5.0
 50
225.00001499972521
 51
270.00001499981897
  0
ARC
  5
153BA
  8
0-1
  6
CONTINUOUS
 62
     3
 10
26632.426545301169
 20
8418.1584604219606
 30
0.0
 40
5.0
 50
90.0
 51
225.00001499972521
  0
ARC
  5
153BB
  8
0-1
  6
CONTINUOUS
 62
     3
 10
24511.353514301201
 20
8386.1580584219537
 30
0.0
 40
5.0
 50
180.0
 51
270.00001499981897
  0
ARC
  5
153BC
  8
0-1
  6
CONTINUOUS
 62
     3
 10
24511.353514301201
 20
8418.1584604219606
 30
0.0
 40
5.0
 50
90.0
 51
180.0
  0
ARC
  5
153BD
  8
0-1
  6
CONTINUOUS
 62
     3
 10
24820.779982301199
 20
8418.1584604219606
 30
0.0
 40
5.0
 50
315.00001500002008
 51
90.0
  0
ARC
  5
153BE
  8
0-1
  6
CONTINUOUS
 62
     3
 10
24788.783043301199
 20
8386.1580584219537
 30
0.0
 40
5.0
 50
270.00001499981897
 51
315.00001500002008
  0
ARC
  5
153BF
  8
0-1
  6
CONTINUOUS
 62
     3
 10
7966.9494684096053
 20
8569.6493614219562
 30
0.0
 40
24.999998999999999
 50
88.280013999973605
 51
268.28001399997362
  0
ARC
  5
153C0
  8
0-1
  6
CONTINUOUS
 62
     3
 10
13447.780272409591
 20
8402.1197344219599
 30
0.0
 40
3.0
 50
268.28001399997362
 51
358.28001399997981
  0
ARC
  5
153C1
  8
0-1
  6
CONTINUOUS
 62
     3
 10
13446.743004409591
 20
8434.1646764219604
 30
0.0
 40
5.0
 50
358.28001399997981
 51
88.280013999973605
  0
ARC
  5
153C2
  8
0-1
  6
CONTINUOUS
 62
     3
 10
7971.9467624096142
 20
8569.4989184219648
 30
0.0
 40
69.999999000000003
 50
110.0668030000901
 51
246.49322500022339
  0
ARC
  5
153C3
  8
0-1
  6
CONTINUOUS
 62
     3
 10
13443.13929140959
 20
8314.2192124219564
 30
0.0
 40
5.0
 50
268.28001399997362
 51
358.28001399997981
  0
ARC
  5
153C4
  8
0-1
  6
CONTINUOUS
 62
     3
 10
13446.1006504096
 20
8346.144392421962
 30
0.0
 40
3.0
 50
358.28001399997981
 51
88.280013999973605
  0
ARC
  5
153C5
  8
0-1
  6
CONTINUOUS
 62
     3
 10
13446.116487409599
 20
8396.6671504219557
 30
0.0
 40
2.5
 50
88.280013999973605
 51
268.28001399997362
  0
ARC
  5
153C6
  8
0-1
  6
CONTINUOUS
 62
     3
 10
13444.766455409601
 20
8351.6870444219585
 30
0.0
 40
2.5
 50
88.280013999973605
 51
268.28001399997362
  0
ARC
  5
153C7
  8
0-1
  6
CONTINUOUS
 62
     3
 10
13447.45068240959
 20
8391.1244984219575
 30
0.0
 40
3.0
 50
358.28001399997981
 51
88.280013999973605
  0
ARC
  5
153C8
  8
0-1
  6
CONTINUOUS
 62
     3
 10
7966.9494684096053
 20
8569.6493614219562
 30
0.0
 40
20.0
 50
88.280013999973605
 51
268.28001399997362
  0
ARC
  5
153C9
  8
0-1
  6
CONTINUOUS
 62
     3
 10
13446.430240409591
 20
8357.1391334219588
 30
0.0
 40
3.0
 50
268.28001399997362
 51
358.28001399997981
  0
CIRCLE
  5
153CA
  8
0-5
  6
CONTINUOUS
 62
     4
 10
24442.852274301182
 20
4147.1574114219602
 30
0.0
 40
199.9999949999999
  0
CIRCLE
  5
153CB
  8
0-5
  6
CONTINUOUS
 62
     4
 10
10661.8888954096
 20
4147.1574114219602
 30
0.0
 40
199.9999949999999
  0
CIRCLE
  5
153CC
  8
0-5
  6
CONTINUOUS
 62
     4
 10
8094.3888954096064
 20
4147.1574114219602
 30
0.0
 40
199.9999949999999
  0
CIRCLE
  5
153CD
  8
0-5
  6
CONTINUOUS
 62
     4
 10
27010.3522743012
 20
4147.1574114219602
 30
0.0
 40
199.9999949999999
  0
CIRCLE
  5
153CE
  8
0-5
  6
CONTINUOUS
 62
     4
 10
13229.3888954096
 20
4147.1574114219602
 30
0.0
 40
199.9999949999999
  0
TEXT
  5
153CF
  8
0-5
  6
CONTINUOUS
 62
     7
 10
24388.09848263453
 20
4057.68242942196
 30
0.0
 40
160.0
  1
2
 72
     4
 11
24441.431815967859
 21
4137.6824294219596
 31
0.0
  0
TEXT
  5
153D0
  8
0-5
  6
CONTINUOUS
 62
     7
 10
28115.324039405328
 20
7241.3382669155044
 30
0.0
 40
160.0
  1
(2131.5)
 50
90.0
 72
     4
 11
28035.324039405328
 21
7694.6716002488374
 31
0.0
  0
TEXT
  5
153D1
  8
0-5
  6
CONTINUOUS
 62
     7
 10
14801.50982412255
 20
6575.0037944219539
 30
0.0
 40
160.0
  1
布基礎天端
 72
     4
 11
15260.176490789219
 21
6655.0037944219539
 31
0.0
  0
TEXT
  5
153D2
  8
0-5
  6
CONTINUOUS
 62
     7
 10
26957.018940967871
 20
4067.1574114219602
 30
0.0
 40
160.0
  1
3
 72
     4
 11
27010.3522743012
 21
4147.1574114219602
 31
0.0
  0
TEXT
  5
153D3
  8
0-5
  6
CONTINUOUS
 62
     7
 10
8034.6783887429301
 20
4063.9466154219608
 30
0.0
 40
160.0
  1
A
 72
     4
 11
8088.0117220762631
 21
4143.9466154219608
 31
0.0
  0
TEXT
  5
153D4
  8
0-5
  6
CONTINUOUS
 62
     7
 10
10602.178388742919
 20
4063.9466154219608
 30
0.0
 40
160.0
  1
B
 72
     4
 11
10655.51172207626
 21
4143.9466154219608
 31
0.0
  0
TEXT
  5
153D5
  8
0-5
  6
CONTINUOUS
 62
     7
 10
13169.678388742919
 20
4063.9466154219608
 30
0.0
 40
160.0
  1
C
 72
     4
 11
13223.01172207626
 21
4143.9466154219608
 31
0.0
  0
CIRCLE
  5
153D6
  8
0-4
  6
CONTINUOUS
 62
     4
 10
25726.604253801172
 20
6673.2141444219578
 30
0.0
 40
18.487504999999981
  0
LINE
  5
153D7
  8
1-前柱カバ-P
 10
19485.352274301182
 20
8505.657635421956
 30
0.0
 11
19485.352274301182
 21
6187.1577084219589
 31
0.0
  0
LINE
  5
153D8
  8
1-前柱カバ-P
 10
19400.352274301182
 20
8635.6575694219555
 30
0.0
 11
19400.352274301182
 21
6187.1577084219589
 31
0.0
  0
LINE
  5
153D9
  8
0-1
  6
CONTINUOUS
 62
     3
 10
19357.352274301182
 20
8505.6576354219633
 30
0.0
 11
24485.352538301198
 21
8505.657635421956
 31
0.0
  0
LINE
  5
153DA
  8
0-1
  6
CONTINUOUS
 62
     3
 10
24420.351086301202
 20
8635.6575694219555
 30
0.0
 11
19357.352274301182
 21
8635.6575694219555
 31
0.0
  0
LINE
  5
153DB
  8
0-1
  6
CONTINUOUS
 62
     3
 10
19357.352274301182
 20
8309.9718314219608
 30
0.0
 11
19357.352274301182
 21
8635.6575694219555
 31
0.0
  0
LINE
  5
153DC
  8
0-1
  6
CONTINUOUS
 62
     3
 10
19357.352274301182
 20
8309.9718314219608
 30
0.0
 11
19400.352274301182
 21
8309.9718314219608
 31
0.0
  0
LINE
  5
153DD
  8
2-0
  6
CENTER2
 62
     6
 10
19442.852274301182
 20
5924.5052854219593
 30
0.0
 11
19442.852274301182
 21
6961.6483124219576
 31
0.0
  0
LINE
  5
153DE
  8
1-桁前P28
 10
19485.352274301182
 20
8307.971831421959
 30
0.0
 11
24400.352274301182
 21
8307.971831421959
 31
0.0
  0
LINE
  5
153DF
  8
0-5
  6
CONTINUOUS
 62
     4
 10
19442.852274301189
 20
4507.1581044219538
 30
0.0
 11
19442.852274301182
 21
4347.1585664219583
 31
0.0
  0
CIRCLE
  5
153E0
  8
0-5
  6
CONTINUOUS
 62
     4
 10
19442.852274301182
 20
4147.1574114219602
 30
0.0
 40
199.9999949999999
  0
TEXT
  5
153E1
  8
0-5
  6
CONTINUOUS
 62
     7
 10
19414.765149301169
 20
4057.68242942196
 30
0.0
 40
160.0
  1
1
 72
     4
 11
19441.431815967841
 21
4137.6824294219596
 31
0.0
  0
TEXT
  5
153E2
  8
0-5
  6
CONTINUOUS
 62
     7
 10
18468.980887041791
 20
7282.7678130325612
 30
0.0
 40
160.0
  1
(2260)
 50
90.0
 72
     4
 11
18388.980887041791
 21
7669.4344796992282
 31
0.0
  0
LINE
  5
153E3
  8
SUNPOU
  6
CONTINUOUS
 10
13451.8888954096
 20
9435.1592194219593
 30
0.0
 11
13956.676765303
 21
9435.1592194219593
 31
0.0
  0
LINE
  5
153E4
  8
0-5
  6
CONTINUOUS
 62
     4
 10
17062.768864265061
 20
6395.0041904219597
 30
0.0
 11
16942.770448265059
 21
6187.1577084219589
 31
0.0
  0
LINE
  5
153E5
  8
0-5
  6
CONTINUOUS
 62
     4
 10
18802.192786352982
 20
6187.1577084219589
 30
0.0
 11
14035.44960177461
 21
6187.1577084219589
 31
0.0
  0
LINE
  5
153E6
  8
0-5
  6
CONTINUOUS
 62
     4
 10
16942.770448265059
 20
6187.1577084219589
 30
0.0
 11
16822.770052265059
 21
6395.0041904219597
 31
0.0
  0
LINE
  5
153E7
  8
0-5
  6
CONTINUOUS
 62
     4
 10
16822.770052265059
 20
6395.0041904219597
 30
0.0
 11
17062.768864265061
 21
6395.0041904219597
 31
0.0
  0
TEXT
  5
153E8
  8
0-5
  6
CONTINUOUS
 62
     7
 10
16742.768864265061
 20
6475.0039594219579
 30
0.0
 40
160.0
  1
G.L
 72
     4
 11
16902.768864265061
 21
6555.0039594219579
 31
0.0
  0
LINE
  5
15543
  8
2-0
  6
CENTER2
 62
     6
 10
28172.854517301159
 20
19363.955421421961
 30
0.0
 11
19138.247438349252
 21
19363.955421421961
 31
0.0
  0
LINE
  5
15545
  8
2-0
  6
CENTER2
 62
     6
 10
27852.85517730119
 20
16796.455421421961
 30
0.0
 11
19138.247438349252
 21
16796.455421421961
 31
0.0
  0
LINE
  5
15547
  8
2-0
  6
CENTER2
 62
     6
 10
28172.854517301159
 20
14228.955421421961
 30
0.0
 11
19138.247438349252
 21
14228.955421421961
 31
0.0
  0
LINE
  5
15552
  8
2-0
  6
CENTER2
 62
     6
 10
19442.852274301182
 20
21006.45766442196
 30
0.0
 11
19442.852274301182
 21
13871.20154295354
 31
0.0
  0
CIRCLE
  5
15553
  8
0-5
  6
CONTINUOUS
 62
     4
 10
19442.852274301182
 20
21206.456345421939
 30
0.0
 40
199.9999949999999
  0
TEXT
  5
15554
  8
0-5
  6
CONTINUOUS
 62
     7
 10
19417.522618301169
 20
21120.230495421962
 30
0.0
 40
160.0
  1
1
 72
     4
 11
19444.189284967841
 21
21200.230495421962
 31
0.0
  0
ARC
  5
15555
  8
1-後柱P
  6
HIDE-M
 62
     6
 10
19439.25227430118
 20
19295.90542142195
 30
0.0
 40
2.6000000000000001
 50
270.0
 51
0.0
  0
LINE
  5
15556
  8
1-後柱P
  6
HIDE-M
 62
     6
 10
19450.852274301182
 20
19293.85603126877
 30
0.0
 11
19450.852274301182
 21
19297.50542142196
 31
0.0
  0
LINE
  5
15557
  8
1-後柱P
  6
HIDE-M
 62
     6
 10
19440.852274301182
 20
19293.85603126877
 30
0.0
 11
19440.852274301182
 21
19297.50542142196
 31
0.0
  0
LINE
  5
15558
  8
1-後柱P
  6
1PL-M
 62
     6
 10
19445.852274301182
 20
19288.305421421948
 30
0.0
 11
19445.852274301182
 21
19302.50542142196
 31
0.0
  0
ARC
  5
15559
  8
1-後柱P
  6
HIDE-M
 62
     6
 10
19452.45227430118
 20
19295.90542142195
 30
0.0
 40
2.6000000000000001
 50
180.0
 51
270.0
  0
LINE
  5
1555A
  8
1-後柱P
  6
HIDE-M
 62
     6
 10
19441.852274301182
 20
19295.90542142195
 30
0.0
 11
19441.852274301182
 21
19297.50542142196
 31
0.0
  0
LINE
  5
1555B
  8
1-後柱P
  6
HIDE-M
 62
     6
 10
19449.852274301182
 20
19295.90542142195
 30
0.0
 11
19449.852274301182
 21
19297.50542142196
 31
0.0
  0
LINE
  5
1555C
  8
1-後柱P
 10
19431.95227430118
 20
19408.205421421961
 30
0.0
 11
19453.75227430118
 21
19408.205421421961
 31
0.0
  0
LINE
  5
1555D
  8
1-後柱P
 10
19483.75227430118
 20
19370.90542142195
 30
0.0
 11
19483.75227430118
 21
19378.205421421961
 31
0.0
  0
ARC
  5
1555E
  8
1-後柱P
 10
19453.75227430118
 20
19378.205421421961
 30
0.0
 40
30.0
 50
0.0
 51
90.0
  0
ARC
  5
1555F
  8
1-後柱P
 10
19453.75227430118
 20
19378.205421421961
 30
0.0
 40
31.600000000000001
 50
0.0
 51
90.0
  0
LINE
  5
15560
  8
1-後柱P
 10
19431.95227430118
 20
19409.805421421948
 30
0.0
 11
19453.75227430118
 21
19409.805421421948
 31
0.0
  0
LINE
  5
15561
  8
1-後柱P
 10
19485.352274301182
 20
19370.90542142195
 30
0.0
 11
19485.352274301182
 21
19378.205421421961
 31
0.0
  0
LINE
  5
15562
  8
1-後柱P
 10
19462.352274301182
 20
19349.305421421948
 30
0.0
 11
19462.352274301182
 21
19359.305421421948
 31
0.0
  0
LINE
  5
15563
  8
1-後柱P
 10
19460.75227430118
 20
19359.305421421948
 30
0.0
 11
19460.75227430118
 21
19349.305421421948
 31
0.0
  0
LINE
  5
15564
  8
1-後柱P
 10
19401.95227430118
 20
19370.90542142195
 30
0.0
 11
19401.95227430118
 21
19378.205421421961
 31
0.0
  0
ARC
  5
15565
  8
1-後柱P
 10
19431.95227430118
 20
19378.205421421961
 30
0.0
 40
30.0
 50
90.0
 51
180.0
  0
ARC
  5
15566
  8
1-後柱P
 10
19431.95227430118
 20
19378.205421421961
 30
0.0
 40
31.600000000000001
 50
90.0
 51
180.0
  0
LINE
  5
15567
  8
1-後柱P
 10
19400.352274301182
 20
19370.90542142195
 30
0.0
 11
19400.352274301182
 21
19378.205421421961
 31
0.0
  0
LINE
  5
15568
  8
1-後柱P
 10
19406.952274301151
 20
19364.305421421959
 30
0.0
 11
19418.352274301182
 21
19364.305421421959
 31
0.0
  0
ARC
  5
15569
  8
1-後柱P
 10
19406.952274301151
 20
19370.90542142195
 30
0.0
 40
6.599999999999997
 50
180.0
 51
270.0
  0
ARC
  5
1556A
  8
1-後柱P
 10
19418.352274301182
 20
19359.305421421948
 30
0.0
 40
5.0
 50
0.0
 51
90.0
  0
LINE
  5
1556B
  8
1-後柱P
 10
19406.952274301151
 20
19365.90542142195
 30
0.0
 11
19418.352274301182
 21
19365.90542142195
 31
0.0
  0
ARC
  5
1556C
  8
1-後柱P
 10
19406.952274301151
 20
19370.90542142195
 30
0.0
 40
5.0
 50
180.0
 51
270.0
  0
LINE
  5
1556D
  8
1-後柱P
 10
19423.352274301182
 20
19359.305421421948
 30
0.0
 11
19423.352274301182
 21
19299.90542142195
 31
0.0
  0
LINE
  5
1556E
  8
1-後柱P
 10
19424.95227430118
 20
19359.305421421948
 30
0.0
 11
19424.95227430118
 21
19299.90542142195
 31
0.0
  0
ARC
  5
1556F
  8
1-後柱P
 10
19418.352274301182
 20
19359.305421421948
 30
0.0
 40
6.599999999999997
 50
0.0
 51
90.0
  0
LINE
  5
15570
  8
1-後柱P
 10
19429.952274301158
 20
19293.305421421959
 30
0.0
 11
19463.352274301182
 21
19293.305421421959
 31
0.0
  0
ARC
  5
15571
  8
1-後柱P
 10
19429.952274301158
 20
19299.90542142195
 30
0.0
 40
6.599999999999997
 50
180.0
 51
270.0
  0
LINE
  5
15572
  8
1-後柱P
 10
19429.952274301158
 20
19294.90542142195
 30
0.0
 11
19463.352274301182
 21
19294.90542142195
 31
0.0
  0
ARC
  5
15573
  8
1-後柱P
 10
19429.952274301158
 20
19299.90542142195
 30
0.0
 40
5.0
 50
180.0
 51
270.0
  0
LINE
  5
15574
  8
1-後柱P
 10
19463.352274301182
 20
19294.90542142195
 30
0.0
 11
19463.352274301182
 21
19293.305421421959
 31
0.0
  0
LINE
  5
15575
  8
1-後柱P
 10
19478.75227430118
 20
19364.305421421959
 30
0.0
 11
19467.352274301182
 21
19364.305421421959
 31
0.0
  0
ARC
  5
15576
  8
1-後柱P
 10
19478.75227430118
 20
19370.90542142195
 30
0.0
 40
6.599999999999997
 50
270.0
 51
0.0
  0
ARC
  5
15577
  8
1-後柱P
 10
19467.352274301182
 20
19359.305421421948
 30
0.0
 40
5.0
 50
90.0
 51
180.0
  0
LINE
  5
15578
  8
1-後柱P
 10
19467.352274301182
 20
19365.90542142195
 30
0.0
 11
19478.75227430118
 21
19365.90542142195
 31
0.0
  0
ARC
  5
15579
  8
1-後柱P
 10
19467.352274301182
 20
19359.305421421948
 30
0.0
 40
6.599999999999997
 50
90.0
 51
180.0
  0
ARC
  5
1557A
  8
1-後柱P
 10
19478.75227430118
 20
19370.90542142195
 30
0.0
 40
5.0
 50
270.0
 51
0.0
  0
LINE
  5
1557B
  8
1-後柱P
 10
19462.352274301182
 20
19349.305421421948
 30
0.0
 11
19460.75227430118
 21
19349.305421421948
 31
0.0
  0
LINE
  5
1557C
  8
1-後柱カバ-P
 10
19485.352274301182
 20
19357.605421421958
 30
0.0
 11
19485.352274301182
 21
19298.305421421948
 31
0.0
  0
ARC
  5
1557D
  8
1-後柱カバ-P
 10
19478.75227430118
 20
19298.305421421948
 30
0.0
 40
6.599999999999997
 50
270.0
 51
0.0
  0
LINE
  5
1557E
  8
1-後柱カバ-P
 10
19483.75227430118
 20
19357.605421421958
 30
0.0
 11
19483.75227430118
 21
19298.305421421948
 31
0.0
  0
ARC
  5
1557F
  8
1-後柱カバ-P
 10
19478.75227430118
 20
19357.605421421958
 30
0.0
 40
5.0
 50
0.0
 51
90.0
  0
LINE
  5
15580
  8
1-後柱カバ-P
 10
19478.75227430118
 20
19291.705421421961
 30
0.0
 11
19406.952274301151
 21
19291.705421421961
 31
0.0
  0
ARC
  5
15581
  8
1-後柱カバ-P
 10
19406.952274301151
 20
19298.305421421948
 30
0.0
 40
6.599999999999997
 50
180.0
 51
270.0
  0
LINE
  5
15582
  8
1-後柱カバ-P
 10
19478.75227430118
 20
19293.305421421959
 30
0.0
 11
19406.952274301151
 21
19293.305421421959
 31
0.0
  0
ARC
  5
15583
  8
1-後柱カバ-P
 10
19406.952274301151
 20
19298.305421421948
 30
0.0
 40
5.0
 50
180.0
 51
270.0
  0
ARC
  5
15584
  8
1-後柱カバ-P
 10
19478.75227430118
 20
19298.305421421948
 30
0.0
 40
5.0
 50
270.0
 51
0.0
  0
LINE
  5
15585
  8
1-後柱カバ-P
 10
19400.352274301182
 20
19298.305421421948
 30
0.0
 11
19400.352274301182
 21
19357.605421421958
 31
0.0
  0
LINE
  5
15586
  8
1-後柱カバ-P
 10
19401.95227430118
 20
19298.305421421948
 30
0.0
 11
19401.95227430118
 21
19357.605421421958
 31
0.0
  0
ARC
  5
15587
  8
1-後柱カバ-P
 10
19406.952274301151
 20
19357.605421421958
 30
0.0
 40
5.0
 50
90.0
 51
180.0
  0
LINE
  5
15588
  8
1-後柱カバ-P
  6
1PL-M
 62
     6
 10
19442.852274301182
 20
19299.205421421961
 30
0.0
 11
19442.852274301182
 21
19286.205421421961
 31
0.0
  0
LINE
  5
15589
  8
1-後柱カバ-P
  6
HIDE-M
 62
     6
 10
19449.852274301182
 20
19291.705421421961
 30
0.0
 11
19449.852274301182
 21
19293.305421421959
 31
0.0
  0
LINE
  5
1558A
  8
1-後柱カバ-P
  6
HIDE-M
 62
     6
 10
19435.852274301182
 20
19291.705421421961
 30
0.0
 11
19435.852274301182
 21
19293.305421421959
 31
0.0
  0
ARC
  5
1558B
  8
1-後柱カバ-P
 10
19478.75227430118
 20
19357.605421421958
 30
0.0
 40
6.599999999999997
 50
0.0
 51
90.0
  0
ARC
  5
1558C
  8
1-後柱カバ-P
 10
19406.952274301151
 20
19357.605421421958
 30
0.0
 40
6.599999999999997
 50
90.0
 51
180.0
  0
LINE
  5
1558D
  8
1-後柱カバ-P
 10
19415.352274301182
 20
19364.205421421961
 30
0.0
 11
19406.952274301151
 21
19364.205421421961
 31
0.0
  0
LINE
  5
1558E
  8
1-後柱カバ-P
 10
19470.352274301182
 20
19364.205421421961
 30
0.0
 11
19478.75227430118
 21
19364.205421421961
 31
0.0
  0
LINE
  5
1558F
  8
1-後柱カバ-P
 10
19415.352274301182
 20
19362.605421421958
 30
0.0
 11
19406.952274301151
 21
19362.605421421958
 31
0.0
  0
LINE
  5
15590
  8
1-後柱カバ-P
 10
19470.352274301182
 20
19362.605421421958
 30
0.0
 11
19478.75227430118
 21
19362.605421421958
 31
0.0
  0
LINE
  5
15591
  8
1-後柱カバ-P
 10
19470.352274301182
 20
19362.605421421958
 30
0.0
 11
19470.352274301182
 21
19364.205421421961
 31
0.0
  0
LINE
  5
15592
  8
1-後柱カバ-P
 10
19415.352274301182
 20
19364.205421421961
 30
0.0
 11
19415.352274301182
 21
19362.605421421958
 31
0.0
  0
LINE
  5
15593
  8
1-後柱カバ-P
  6
HIDE-M
 62
     6
 10
19411.452274301158
 20
19343.205421421939
 30
0.0
 11
19399.852274301182
 21
19343.205421421939
 31
0.0
  0
LINE
  5
15594
  8
1-後柱カバ-P
  6
HIDE-M
 62
     6
 10
19411.452274301158
 20
19335.205421421939
 30
0.0
 11
19399.852274301182
 21
19335.205421421939
 31
0.0
  0
LINE
  5
15595
  8
1-後柱カバ-P
  6
HIDE-M
 62
     6
 10
19411.452274301158
 20
19342.205421421961
 30
0.0
 11
19399.852274301182
 21
19342.205421421961
 31
0.0
  0
LINE
  5
15596
  8
1-後柱カバ-P
  6
HIDE-M
 62
     6
 10
19411.452274301158
 20
19336.20542142195
 30
0.0
 11
19399.852274301182
 21
19336.20542142195
 31
0.0
  0
LINE
  5
15597
  8
1-後柱カバ-P
 10
19410.45227430118
 20
19333.705421421961
 30
0.0
 11
19403.45227430118
 21
19333.705421421961
 31
0.0
  0
LINE
  5
15598
  8
1-後柱カバ-P
 10
19403.45227430118
 20
19344.70542142195
 30
0.0
 11
19410.45227430118
 21
19344.70542142195
 31
0.0
  0
LINE
  5
15599
  8
1-後柱カバ-P
 10
19403.45227430118
 20
19345.45542142195
 30
0.0
 11
19403.45227430118
 21
19332.955421421961
 31
0.0
  0
LINE
  5
1559A
  8
1-後柱カバ-P
 10
19399.852274301182
 20
19345.205421421961
 30
0.0
 11
19399.852274301182
 21
19333.20542142195
 31
0.0
  0
LINE
  5
1559B
  8
1-後柱カバ-P
  6
HIDE-M
 62
     6
 10
19401.95227430118
 20
19333.705421421961
 30
0.0
 11
19400.352274301182
 21
19333.705421421961
 31
0.0
  0
LINE
  5
1559C
  8
1-後柱カバ-P
 10
19399.852274301182
 20
19333.20542142195
 30
0.0
 11
19400.352274301182
 21
19333.705421421961
 31
0.0
  0
ARC
  5
1559D
  8
1-後柱カバ-P
 10
19402.70227430118
 20
19332.955421421961
 30
0.0
 40
0.75
 50
180.0
 51
0.0
  0
LINE
  5
1559E
  8
1-後柱カバ-P
  6
HIDE-M
 62
     6
 10
19400.352274301182
 20
19344.70542142195
 30
0.0
 11
19401.95227430118
 21
19344.70542142195
 31
0.0
  0
LINE
  5
1559F
  8
1-後柱カバ-P
 10
19399.852274301182
 20
19345.205421421961
 30
0.0
 11
19400.352274301182
 21
19344.70542142195
 31
0.0
  0
ARC
  5
155A0
  8
1-後柱カバ-P
 10
19402.70227430118
 20
19345.45542142195
 30
0.0
 40
0.75
 50
0.0
 51
180.0
  0
LINE
  5
155A1
  8
1-後柱カバ-P
 10
19411.452274301158
 20
19343.70542142195
 30
0.0
 11
19411.452274301158
 21
19334.705421421961
 31
0.0
  0
ARC
  5
155A2
  8
1-後柱カバ-P
 10
19410.45227430118
 20
19334.705421421961
 30
0.0
 40
1.0
 50
270.0
 51
0.0
  0
ARC
  5
155A3
  8
1-後柱カバ-P
 10
19410.45227430118
 20
19343.70542142195
 30
0.0
 40
1.0
 50
0.0
 51
90.0
  0
LINE
  5
155A4
  8
1-後柱カバ-P
  6
1PL-M
 62
     6
 10
19416.452274301151
 20
19339.205421421961
 30
0.0
 11
19394.852274301182
 21
19339.205421421961
 31
0.0
  0
LINE
  5
155A5
  8
1-後柱カバ-P
 10
19410.45227430118
 20
19323.70542142195
 30
0.0
 11
19403.45227430118
 21
19323.70542142195
 31
0.0
  0
LINE
  5
155A6
  8
1-後柱カバ-P
 10
19399.852274301182
 20
19331.20542142195
 30
0.0
 11
19399.852274301182
 21
19323.205421421961
 31
0.0
  0
LINE
  5
155A7
  8
1-後柱カバ-P
  6
HIDE-M
 62
     6
 10
19401.95227430118
 20
19323.70542142195
 30
0.0
 11
19400.352274301182
 21
19323.70542142195
 31
0.0
  0
LINE
  5
155A8
  8
1-後柱カバ-P
 10
19399.852274301182
 20
19323.205421421961
 30
0.0
 11
19400.352274301182
 21
19323.70542142195
 31
0.0
  0
ARC
  5
155A9
  8
1-後柱カバ-P
 10
19402.70227430118
 20
19322.955421421961
 30
0.0
 40
0.75
 50
180.0
 51
0.0
  0
LINE
  5
155AA
  8
1-後柱カバ-P
 10
19411.452274301158
 20
19332.705421421961
 30
0.0
 11
19411.452274301158
 21
19324.705421421961
 31
0.0
  0
ARC
  5
155AB
  8
1-後柱カバ-P
 10
19410.45227430118
 20
19324.705421421961
 30
0.0
 40
1.0
 50
270.0
 51
0.0
  0
LINE
  5
155AC
  8
1-後柱カバ-P
  6
1PL-M
 62
     6
 10
19416.452274301151
 20
19329.205421421961
 30
0.0
 11
19394.852274301182
 21
19329.205421421961
 31
0.0
  0
LINE
  5
155AD
  8
1-後柱カバ-P
 10
19403.45227430118
 20
19330.95542142195
 30
0.0
 11
19403.45227430118
 21
19322.955421421961
 31
0.0
  0
LINE
  5
155AE
  8
1-後柱カバ-P
  6
HIDE-M
 62
     6
 10
19474.25227430118
 20
19343.205421421939
 30
0.0
 11
19485.852274301182
 21
19343.205421421939
 31
0.0
  0
LINE
  5
155AF
  8
1-後柱カバ-P
  6
HIDE-M
 62
     6
 10
19474.25227430118
 20
19335.205421421939
 30
0.0
 11
19485.852274301182
 21
19335.205421421939
 31
0.0
  0
LINE
  5
155B0
  8
1-後柱カバ-P
  6
HIDE-M
 62
     6
 10
19474.25227430118
 20
19342.205421421961
 30
0.0
 11
19485.852274301182
 21
19342.205421421961
 31
0.0
  0
LINE
  5
155B1
  8
1-後柱カバ-P
  6
HIDE-M
 62
     6
 10
19474.25227430118
 20
19336.20542142195
 30
0.0
 11
19485.852274301182
 21
19336.20542142195
 31
0.0
  0
LINE
  5
155B2
  8
1-後柱カバ-P
 10
19475.25227430118
 20
19333.705421421961
 30
0.0
 11
19482.25227430118
 21
19333.705421421961
 31
0.0
  0
LINE
  5
155B3
  8
1-後柱カバ-P
 10
19482.25227430118
 20
19344.70542142195
 30
0.0
 11
19475.25227430118
 21
19344.70542142195
 31
0.0
  0
LINE
  5
155B4
  8
1-後柱カバ-P
 10
19482.25227430118
 20
19345.45542142195
 30
0.0
 11
19482.25227430118
 21
19332.955421421961
 31
0.0
  0
LINE
  5
155B5
  8
1-後柱カバ-P
 10
19485.852274301182
 20
19345.205421421961
 30
0.0
 11
19485.852274301182
 21
19333.20542142195
 31
0.0
  0
LINE
  5
155B6
  8
1-後柱カバ-P
  6
HIDE-M
 62
     6
 10
19483.75227430118
 20
19333.705421421961
 30
0.0
 11
19485.352274301182
 21
19333.705421421961
 31
0.0
  0
LINE
  5
155B7
  8
1-後柱カバ-P
 10
19485.852274301182
 20
19333.20542142195
 30
0.0
 11
19485.352274301182
 21
19333.705421421961
 31
0.0
  0
ARC
  5
155B8
  8
1-後柱カバ-P
 10
19483.00227430118
 20
19332.955421421961
 30
0.0
 40
0.75
 50
180.0
 51
0.0
  0
LINE
  5
155B9
  8
1-後柱カバ-P
  6
HIDE-M
 62
     6
 10
19485.352274301182
 20
19344.70542142195
 30
0.0
 11
19483.75227430118
 21
19344.70542142195
 31
0.0
  0
LINE
  5
155BA
  8
1-後柱カバ-P
 10
19485.852274301182
 20
19345.205421421961
 30
0.0
 11
19485.352274301182
 21
19344.70542142195
 31
0.0
  0
ARC
  5
155BB
  8
1-後柱カバ-P
 10
19483.00227430118
 20
19345.45542142195
 30
0.0
 40
0.75
 50
0.0
 51
180.0
  0
LINE
  5
155BC
  8
1-後柱カバ-P
 10
19474.25227430118
 20
19343.70542142195
 30
0.0
 11
19474.25227430118
 21
19334.705421421961
 31
0.0
  0
ARC
  5
155BD
  8
1-後柱カバ-P
 10
19475.25227430118
 20
19334.705421421961
 30
0.0
 40
1.0
 50
180.0
 51
270.0
  0
ARC
  5
155BE
  8
1-後柱カバ-P
 10
19475.25227430118
 20
19343.70542142195
 30
0.0
 40
1.0
 50
90.0
 51
180.0
  0
LINE
  5
155BF
  8
1-後柱カバ-P
  6
1PL-M
 62
     6
 10
19469.25227430118
 20
19339.205421421961
 30
0.0
 11
19490.852274301189
 21
19339.205421421961
 31
0.0
  0
LINE
  5
155C0
  8
1-後柱カバ-P
 10
19475.25227430118
 20
19323.70542142195
 30
0.0
 11
19482.25227430118
 21
19323.70542142195
 31
0.0
  0
LINE
  5
155C1
  8
1-後柱カバ-P
 10
19485.852274301182
 20
19331.20542142195
 30
0.0
 11
19485.852274301182
 21
19323.205421421961
 31
0.0
  0
LINE
  5
155C2
  8
1-後柱カバ-P
  6
HIDE-M
 62
     6
 10
19483.75227430118
 20
19323.70542142195
 30
0.0
 11
19485.352274301182
 21
19323.70542142195
 31
0.0
  0
LINE
  5
155C3
  8
1-後柱カバ-P
 10
19485.852274301182
 20
19323.205421421961
 30
0.0
 11
19485.352274301182
 21
19323.70542142195
 31
0.0
  0
ARC
  5
155C4
  8
1-後柱カバ-P
 10
19483.00227430118
 20
19322.955421421961
 30
0.0
 40
0.75
 50
180.0
 51
0.0
  0
LINE
  5
155C5
  8
1-後柱カバ-P
 10
19474.25227430118
 20
19332.705421421961
 30
0.0
 11
19474.25227430118
 21
19324.705421421961
 31
0.0
  0
ARC
  5
155C6
  8
1-後柱カバ-P
 10
19475.25227430118
 20
19324.705421421961
 30
0.0
 40
1.0
 50
180.0
 51
270.0
  0
LINE
  5
155C7
  8
1-後柱カバ-P
  6
1PL-M
 62
     6
 10
19469.25227430118
 20
19329.205421421961
 30
0.0
 11
19490.852274301189
 21
19329.205421421961
 31
0.0
  0
LINE
  5
155C8
  8
1-後柱カバ-P
 10
19482.25227430118
 20
19330.95542142195
 30
0.0
 11
19482.25227430118
 21
19322.955421421961
 31
0.0
  0
LINE
  5
155C9
  8
1-後柱カバ-P
  6
HIDE-M
 62
     6
 10
19411.452274301158
 20
19325.205421421961
 30
0.0
 11
19399.852274301182
 21
19325.205421421961
 31
0.0
  0
LINE
  5
155CA
  8
1-後柱カバ-P
  6
HIDE-M
 62
     6
 10
19411.452274301158
 20
19326.205421421961
 30
0.0
 11
19399.852274301182
 21
19326.205421421961
 31
0.0
  0
LINE
  5
155CB
  8
1-後柱カバ-P
  6
HIDE-M
 62
     6
 10
19474.25227430118
 20
19325.205421421961
 30
0.0
 11
19485.852274301182
 21
19325.205421421961
 31
0.0
  0
LINE
  5
155CC
  8
1-後柱カバ-P
  6
HIDE-M
 62
     6
 10
19474.25227430118
 20
19326.205421421961
 30
0.0
 11
19485.852274301182
 21
19326.205421421961
 31
0.0
  0
LINE
  5
155CD
  8
1-中柱P
 10
19406.952274301191
 20
16725.45542142195
 30
0.0
 11
19478.75227430119
 21
16725.45542142195
 31
0.0
  0
ARC
  5
155CE
  8
1-中柱P
 10
19406.952274301191
 20
16730.45542142195
 30
0.0
 40
5.0
 50
180.0
 51
270.0
  0
ARC
  5
155CF
  8
1-中柱P
 10
19478.75227430119
 20
16730.45542142195
 30
0.0
 40
5.0
 50
270.0
 51
0.0
  0
LINE
  5
155D0
  8
1-中柱P
 10
19406.952274301191
 20
16723.855421421958
 30
0.0
 11
19478.75227430119
 21
16723.855421421958
 31
0.0
  0
ARC
  5
155D1
  8
1-中柱P
 10
19406.952274301191
 20
16730.45542142195
 30
0.0
 40
6.599999999999997
 50
180.0
 51
270.0
  0
LINE
  5
155D2
  8
1-中柱P
 10
19485.352274301182
 20
16789.75542142196
 30
0.0
 11
19485.352274301182
 21
16730.45542142195
 31
0.0
  0
ARC
  5
155D3
  8
1-中柱P
 10
19478.75227430119
 20
16730.45542142195
 30
0.0
 40
6.599999999999997
 50
270.0
 51
0.0
  0
LINE
  5
155D4
  8
1-中柱P
 10
19483.75227430119
 20
16730.45542142195
 30
0.0
 11
19483.75227430119
 21
16789.75542142196
 31
0.0
  0
ARC
  5
155D5
  8
1-中柱P
 10
19478.75227430119
 20
16789.75542142196
 30
0.0
 40
5.0
 50
0.0
 51
90.0
  0
LINE
  5
155D6
  8
1-中柱P
 10
19400.352274301182
 20
16789.75542142196
 30
0.0
 11
19400.352274301182
 21
16730.45542142195
 31
0.0
  0
LINE
  5
155D7
  8
1-中柱P
 10
19401.952274301191
 20
16730.45542142195
 30
0.0
 11
19401.952274301191
 21
16789.75542142196
 31
0.0
  0
LINE
  5
155D8
  8
1-中柱P
 10
19406.952274301191
 20
16796.355421421958
 30
0.0
 11
19415.352274301182
 21
16796.355421421958
 31
0.0
  0
ARC
  5
155D9
  8
1-中柱P
 10
19406.952274301191
 20
16789.75542142196
 30
0.0
 40
6.599999999999997
 50
90.0
 51
180.0
  0
LINE
  5
155DA
  8
1-中柱P
 10
19406.952274301191
 20
16794.75542142196
 30
0.0
 11
19415.352274301182
 21
16794.75542142196
 31
0.0
  0
ARC
  5
155DB
  8
1-中柱P
 10
19415.352274301182
 20
16801.355421421951
 30
0.0
 40
6.599999999999997
 50
270.0
 51
0.0
  0
ARC
  5
155DC
  8
1-中柱P
 10
19406.952274301191
 20
16789.75542142196
 30
0.0
 40
5.0
 50
90.0
 51
180.0
  0
LINE
  5
155DD
  8
1-中柱P
 10
19420.352274301182
 20
16801.355421421951
 30
0.0
 11
19420.352274301182
 21
16860.755421421949
 31
0.0
  0
ARC
  5
155DE
  8
1-中柱P
 10
19415.352274301182
 20
16801.355421421951
 30
0.0
 40
5.0
 50
270.0
 51
0.0
  0
LINE
  5
155DF
  8
1-中柱P
 10
19421.952274301191
 20
16801.355421421951
 30
0.0
 11
19421.952274301191
 21
16860.755421421949
 31
0.0
  0
LINE
  5
155E0
  8
1-中柱P
 10
19426.952274301191
 20
16867.355421421951
 30
0.0
 11
19460.352274301189
 21
16867.355421421951
 31
0.0
  0
ARC
  5
155E1
  8
1-中柱P
 10
19426.952274301191
 20
16860.755421421949
 30
0.0
 40
6.599999999999997
 50
90.0
 51
180.0
  0
LINE
  5
155E2
  8
1-中柱P
 10
19426.952274301191
 20
16865.75542142196
 30
0.0
 11
19460.352274301189
 21
16865.75542142196
 31
0.0
  0
ARC
  5
155E3
  8
1-中柱P
 10
19426.952274301191
 20
16860.755421421949
 30
0.0
 40
5.0
 50
90.0
 51
180.0
  0
LINE
  5
155E4
  8
1-中柱P
 10
19460.352274301189
 20
16865.75542142196
 30
0.0
 11
19460.352274301189
 21
16867.355421421951
 31
0.0
  0
LINE
  5
155E5
  8
1-中柱P
 10
19478.75227430119
 20
16796.355421421958
 30
0.0
 11
19470.352274301182
 21
16796.355421421958
 31
0.0
  0
ARC
  5
155E6
  8
1-中柱P
 10
19478.75227430119
 20
16789.75542142196
 30
0.0
 40
6.599999999999997
 50
0.0
 51
90.0
  0
ARC
  5
155E7
  8
1-中柱P
 10
19470.352274301182
 20
16801.355421421951
 30
0.0
 40
5.0
 50
180.0
 51
270.0
  0
LINE
  5
155E8
  8
1-中柱P
 10
19470.352274301182
 20
16794.75542142196
 30
0.0
 11
19478.75227430119
 21
16794.75542142196
 31
0.0
  0
ARC
  5
155E9
  8
1-中柱P
 10
19470.352274301182
 20
16801.355421421951
 30
0.0
 40
6.599999999999997
 50
180.0
 51
270.0
  0
ARC
  5
155EA
  8
1-中柱P
  6
HIDE-M
 62
     6
 10
19436.25227430119
 20
16864.755421421949
 30
0.0
 40
2.6000000000000001
 50
0.0
 51
90.0
  0
LINE
  5
155EB
  8
1-中柱P
  6
HIDE-M
 62
     6
 10
19447.852274301182
 20
16866.804811575152
 30
0.0
 11
19447.852274301182
 21
16863.155421421961
 31
0.0
  0
LINE
  5
155EC
  8
1-中柱P
  6
HIDE-M
 62
     6
 10
19437.852274301182
 20
16866.804811575152
 30
0.0
 11
19437.852274301182
 21
16863.155421421961
 31
0.0
  0
LINE
  5
155ED
  8
1-中柱P
  6
1PL-M
 62
     6
 10
19442.852274301182
 20
16872.355421421951
 30
0.0
 11
19442.852274301182
 21
16858.155421421961
 31
0.0
  0
ARC
  5
155EE
  8
1-中柱P
  6
HIDE-M
 62
     6
 10
19449.452274301191
 20
16864.755421421949
 30
0.0
 40
2.6000000000000001
 50
90.0
 51
180.0
  0
LINE
  5
155EF
  8
1-中柱P
  6
HIDE-M
 62
     6
 10
19438.852274301182
 20
16864.755421421949
 30
0.0
 11
19438.852274301182
 21
16863.155421421961
 31
0.0
  0
LINE
  5
155F0
  8
1-中柱P
  6
HIDE-M
 62
     6
 10
19446.852274301182
 20
16864.755421421949
 30
0.0
 11
19446.852274301182
 21
16863.155421421961
 31
0.0
  0
LINE
  5
155F1
  8
1-中柱P
 10
19463.75227430119
 20
16801.355421421951
 30
0.0
 11
19463.75227430119
 21
16811.355421421969
 31
0.0
  0
LINE
  5
155F2
  8
1-中柱P
 10
19465.352274301182
 20
16801.355421421951
 30
0.0
 11
19465.352274301182
 21
16811.355421421969
 31
0.0
  0
LINE
  5
155F3
  8
1-中柱P
 10
19463.75227430119
 20
16811.355421421969
 30
0.0
 11
19465.352274301182
 21
16811.355421421969
 31
0.0
  0
LINE
  5
155F4
  8
1-中柱P
  6
1PL-M
 62
     6
 10
19415.352274301182
 20
16832.355421421951
 30
0.0
 11
19429.552274301161
 21
16832.355421421951
 31
0.0
  0
LINE
  5
155F5
  8
1-中柱P
  6
HIDE-M
 62
     6
 10
19411.452274301191
 20
16775.355421421951
 30
0.0
 11
19399.852274301182
 21
16775.355421421951
 31
0.0
  0
LINE
  5
155F6
  8
1-中柱P
  6
HIDE-M
 62
     6
 10
19411.452274301191
 20
16767.355421421951
 30
0.0
 11
19399.852274301182
 21
16767.355421421951
 31
0.0
  0
LINE
  5
155F7
  8
1-中柱P
  6
HIDE-M
 62
     6
 10
19411.452274301191
 20
16774.355421421958
 30
0.0
 11
19399.852274301182
 21
16774.355421421958
 31
0.0
  0
LINE
  5
155F8
  8
1-中柱P
  6
HIDE-M
 62
     6
 10
19411.452274301191
 20
16768.355421421951
 30
0.0
 11
19399.852274301182
 21
16768.355421421951
 31
0.0
  0
LINE
  5
155F9
  8
1-中柱P
 10
19410.452274301191
 20
16765.855421421958
 30
0.0
 11
19403.452274301191
 21
16765.855421421958
 31
0.0
  0
LINE
  5
155FA
  8
1-中柱P
 10
19403.452274301191
 20
16776.855421421951
 30
0.0
 11
19410.452274301191
 21
16776.855421421951
 31
0.0
  0
LINE
  5
155FB
  8
1-中柱P
 10
19403.452274301191
 20
16777.605421421951
 30
0.0
 11
19403.452274301191
 21
16765.105421421951
 31
0.0
  0
LINE
  5
155FC
  8
1-中柱P
 10
19399.852274301182
 20
16777.355421421958
 30
0.0
 11
19399.852274301182
 21
16765.355421421951
 31
0.0
  0
LINE
  5
155FD
  8
1-中柱P
  6
HIDE-M
 62
     6
 10
19401.952274301191
 20
16765.855421421958
 30
0.0
 11
19400.352274301182
 21
16765.855421421958
 31
0.0
  0
LINE
  5
155FE
  8
1-中柱P
 10
19399.852274301182
 20
16765.355421421951
 30
0.0
 11
19400.352274301182
 21
16765.855421421958
 31
0.0
  0
ARC
  5
155FF
  8
1-中柱P
 10
19402.702274301191
 20
16765.105421421951
 30
0.0
 40
0.75
 50
180.0
 51
0.0
  0
LINE
  5
15600
  8
1-中柱P
  6
HIDE-M
 62
     6
 10
19400.352274301182
 20
16776.855421421951
 30
0.0
 11
19401.952274301191
 21
16776.855421421951
 31
0.0
  0
LINE
  5
15601
  8
1-中柱P
 10
19399.852274301182
 20
16777.355421421958
 30
0.0
 11
19400.352274301182
 21
16776.855421421951
 31
0.0
  0
ARC
  5
15602
  8
1-中柱P
 10
19402.702274301191
 20
16777.605421421951
 30
0.0
 40
0.75
 50
0.0
 51
180.0
  0
LINE
  5
15603
  8
1-中柱P
 10
19411.452274301191
 20
16775.855421421951
 30
0.0
 11
19411.452274301191
 21
16766.855421421958
 31
0.0
  0
ARC
  5
15604
  8
1-中柱P
 10
19410.452274301191
 20
16766.855421421958
 30
0.0
 40
1.0
 50
270.0
 51
0.0
  0
ARC
  5
15605
  8
1-中柱P
 10
19410.452274301191
 20
16775.855421421951
 30
0.0
 40
1.0
 50
0.0
 51
90.0
  0
LINE
  5
15606
  8
1-中柱P
  6
1PL-M
 62
     6
 10
19416.452274301191
 20
16771.355421421951
 30
0.0
 11
19394.852274301182
 21
16771.355421421951
 31
0.0
  0
LINE
  5
15607
  8
1-中柱P
 10
19410.452274301191
 20
16755.855421421951
 30
0.0
 11
19403.452274301191
 21
16755.855421421951
 31
0.0
  0
LINE
  5
15608
  8
1-中柱P
 10
19399.852274301182
 20
16763.355421421951
 30
0.0
 11
19399.852274301182
 21
16755.355421421958
 31
0.0
  0
LINE
  5
15609
  8
1-中柱P
  6
HIDE-M
 62
     6
 10
19401.952274301191
 20
16755.855421421951
 30
0.0
 11
19400.352274301182
 21
16755.855421421951
 31
0.0
  0
LINE
  5
1560A
  8
1-中柱P
 10
19399.852274301182
 20
16755.355421421958
 30
0.0
 11
19400.352274301182
 21
16755.855421421951
 31
0.0
  0
ARC
  5
1560B
  8
1-中柱P
 10
19402.702274301191
 20
16755.105421421951
 30
0.0
 40
0.75
 50
180.0
 51
0.0
  0
LINE
  5
1560C
  8
1-中柱P
 10
19411.452274301191
 20
16764.855421421958
 30
0.0
 11
19411.452274301191
 21
16756.855421421951
 31
0.0
  0
ARC
  5
1560D
  8
1-中柱P
 10
19410.452274301191
 20
16756.855421421951
 30
0.0
 40
1.0
 50
270.0
 51
0.0
  0
LINE
  5
1560E
  8
1-中柱P
  6
1PL-M
 62
     6
 10
19416.452274301191
 20
16761.355421421951
 30
0.0
 11
19394.852274301182
 21
16761.355421421951
 31
0.0
  0
LINE
  5
1560F
  8
1-中柱P
 10
19403.452274301191
 20
16763.105421421951
 30
0.0
 11
19403.452274301191
 21
16755.105421421951
 31
0.0
  0
LINE
  5
15610
  8
1-中柱P
  6
HIDE-M
 62
     6
 10
19411.452274301191
 20
16757.355421421951
 30
0.0
 11
19399.852274301182
 21
16757.355421421951
 31
0.0
  0
LINE
  5
15611
  8
1-中柱P
  6
HIDE-M
 62
     6
 10
19411.452274301191
 20
16758.355421421958
 30
0.0
 11
19399.852274301182
 21
16758.355421421958
 31
0.0
  0
LINE
  5
15612
  8
1-中柱P
  6
HIDE-M
 62
     6
 10
19474.25227430119
 20
16775.355421421951
 30
0.0
 11
19485.852274301182
 21
16775.355421421951
 31
0.0
  0
LINE
  5
15613
  8
1-中柱P
  6
HIDE-M
 62
     6
 10
19474.25227430119
 20
16767.355421421951
 30
0.0
 11
19485.852274301182
 21
16767.355421421951
 31
0.0
  0
LINE
  5
15614
  8
1-中柱P
  6
HIDE-M
 62
     6
 10
19474.25227430119
 20
16774.355421421958
 30
0.0
 11
19485.852274301182
 21
16774.355421421958
 31
0.0
  0
LINE
  5
15615
  8
1-中柱P
  6
HIDE-M
 62
     6
 10
19474.25227430119
 20
16768.355421421951
 30
0.0
 11
19485.852274301182
 21
16768.355421421951
 31
0.0
  0
LINE
  5
15616
  8
1-中柱P
 10
19475.25227430119
 20
16765.855421421958
 30
0.0
 11
19482.25227430119
 21
16765.855421421958
 31
0.0
  0
LINE
  5
15617
  8
1-中柱P
 10
19482.25227430119
 20
16776.855421421951
 30
0.0
 11
19475.25227430119
 21
16776.855421421951
 31
0.0
  0
LINE
  5
15618
  8
1-中柱P
 10
19482.25227430119
 20
16777.605421421951
 30
0.0
 11
19482.25227430119
 21
16765.105421421951
 31
0.0
  0
LINE
  5
15619
  8
1-中柱P
 10
19485.852274301182
 20
16777.355421421958
 30
0.0
 11
19485.852274301182
 21
16765.355421421951
 31
0.0
  0
LINE
  5
1561A
  8
1-中柱P
  6
HIDE-M
 62
     6
 10
19483.75227430119
 20
16765.855421421958
 30
0.0
 11
19485.352274301182
 21
16765.855421421958
 31
0.0
  0
LINE
  5
1561B
  8
1-中柱P
 10
19485.852274301182
 20
16765.355421421951
 30
0.0
 11
19485.352274301182
 21
16765.855421421958
 31
0.0
  0
ARC
  5
1561C
  8
1-中柱P
 10
19483.00227430119
 20
16765.105421421951
 30
0.0
 40
0.75
 50
180.0
 51
0.0
  0
LINE
  5
1561D
  8
1-中柱P
  6
HIDE-M
 62
     6
 10
19485.352274301182
 20
16776.855421421951
 30
0.0
 11
19483.75227430119
 21
16776.855421421951
 31
0.0
  0
LINE
  5
1561E
  8
1-中柱P
 10
19485.852274301182
 20
16777.355421421958
 30
0.0
 11
19485.352274301182
 21
16776.855421421951
 31
0.0
  0
ARC
  5
1561F
  8
1-中柱P
 10
19483.00227430119
 20
16777.605421421951
 30
0.0
 40
0.75
 50
0.0
 51
180.0
  0
LINE
  5
15620
  8
1-中柱P
 10
19474.25227430119
 20
16775.855421421951
 30
0.0
 11
19474.25227430119
 21
16766.855421421958
 31
0.0
  0
ARC
  5
15621
  8
1-中柱P
 10
19475.25227430119
 20
16766.855421421958
 30
0.0
 40
1.0
 50
180.0
 51
270.0
  0
ARC
  5
15622
  8
1-中柱P
 10
19475.25227430119
 20
16775.855421421951
 30
0.0
 40
1.0
 50
90.0
 51
180.0
  0
LINE
  5
15623
  8
1-中柱P
  6
1PL-M
 62
     6
 10
19469.25227430119
 20
16771.355421421951
 30
0.0
 11
19490.852274301189
 21
16771.355421421951
 31
0.0
  0
LINE
  5
15624
  8
1-中柱P
 10
19475.25227430119
 20
16755.855421421951
 30
0.0
 11
19482.25227430119
 21
16755.855421421951
 31
0.0
  0
LINE
  5
15625
  8
1-中柱P
 10
19485.852274301182
 20
16763.355421421951
 30
0.0
 11
19485.852274301182
 21
16755.355421421958
 31
0.0
  0
LINE
  5
15626
  8
1-中柱P
  6
HIDE-M
 62
     6
 10
19483.75227430119
 20
16755.855421421951
 30
0.0
 11
19485.352274301182
 21
16755.855421421951
 31
0.0
  0
LINE
  5
15627
  8
1-中柱P
 10
19485.852274301182
 20
16755.355421421958
 30
0.0
 11
19485.352274301182
 21
16755.855421421951
 31
0.0
  0
ARC
  5
15628
  8
1-中柱P
 10
19483.00227430119
 20
16755.105421421951
 30
0.0
 40
0.75
 50
180.0
 51
0.0
  0
LINE
  5
15629
  8
1-中柱P
 10
19474.25227430119
 20
16764.855421421958
 30
0.0
 11
19474.25227430119
 21
16756.855421421951
 31
0.0
  0
ARC
  5
1562A
  8
1-中柱P
 10
19475.25227430119
 20
16756.855421421951
 30
0.0
 40
1.0
 50
180.0
 51
270.0
  0
LINE
  5
1562B
  8
1-中柱P
  6
1PL-M
 62
     6
 10
19469.25227430119
 20
16761.355421421951
 30
0.0
 11
19490.852274301189
 21
16761.355421421951
 31
0.0
  0
LINE
  5
1562C
  8
1-中柱P
 10
19482.25227430119
 20
16763.105421421951
 30
0.0
 11
19482.25227430119
 21
16755.105421421951
 31
0.0
  0
LINE
  5
1562D
  8
1-中柱P
  6
HIDE-M
 62
     6
 10
19474.25227430119
 20
16757.355421421951
 30
0.0
 11
19485.852274301182
 21
16757.355421421951
 31
0.0
  0
LINE
  5
1562E
  8
1-中柱P
  6
HIDE-M
 62
     6
 10
19474.25227430119
 20
16758.355421421958
 30
0.0
 11
19485.852274301182
 21
16758.355421421958
 31
0.0
  0
LINE
  5
1562F
  8
1-中柱カバ-P
 10
19485.352274301182
 20
16803.055421421948
 30
0.0
 11
19485.352274301182
 21
16862.355421421951
 31
0.0
  0
ARC
  5
15630
  8
1-中柱カバ-P
 10
19478.75227430119
 20
16862.355421421951
 30
0.0
 40
6.599999999999997
 50
0.0
 51
90.0
  0
LINE
  5
15631
  8
1-中柱カバ-P
 10
19483.75227430119
 20
16803.055421421948
 30
0.0
 11
19483.75227430119
 21
16862.355421421951
 31
0.0
  0
ARC
  5
15632
  8
1-中柱カバ-P
 10
19478.75227430119
 20
16803.055421421948
 30
0.0
 40
5.0
 50
270.0
 51
0.0
  0
LINE
  5
15633
  8
1-中柱カバ-P
 10
19478.75227430119
 20
16868.955421421961
 30
0.0
 11
19406.952274301191
 21
16868.955421421961
 31
0.0
  0
ARC
  5
15634
  8
1-中柱カバ-P
 10
19406.952274301191
 20
16862.355421421951
 30
0.0
 40
6.599999999999997
 50
90.0
 51
180.0
  0
LINE
  5
15635
  8
1-中柱カバ-P
 10
19478.75227430119
 20
16867.355421421951
 30
0.0
 11
19406.952274301191
 21
16867.355421421951
 31
0.0
  0
ARC
  5
15636
  8
1-中柱カバ-P
 10
19406.952274301191
 20
16862.355421421951
 30
0.0
 40
5.0
 50
90.0
 51
180.0
  0
ARC
  5
15637
  8
1-中柱カバ-P
 10
19478.75227430119
 20
16862.355421421951
 30
0.0
 40
5.0
 50
0.0
 51
90.0
  0
LINE
  5
15638
  8
1-中柱カバ-P
 10
19400.352274301182
 20
16862.355421421951
 30
0.0
 11
19400.352274301182
 21
16803.055421421948
 31
0.0
  0
LINE
  5
15639
  8
1-中柱カバ-P
 10
19401.952274301191
 20
16862.355421421951
 30
0.0
 11
19401.952274301191
 21
16803.055421421948
 31
0.0
  0
ARC
  5
1563A
  8
1-中柱カバ-P
 10
19406.952274301191
 20
16803.055421421948
 30
0.0
 40
5.0
 50
180.0
 51
270.0
  0
LINE
  5
1563B
  8
1-中柱カバ-P
  6
1PL-M
 62
     6
 10
19442.852274301182
 20
16861.45542142195
 30
0.0
 11
19442.852274301182
 21
16874.455421421961
 31
0.0
  0
LINE
  5
1563C
  8
1-中柱カバ-P
  6
HIDE-M
 62
     6
 10
19449.852274301182
 20
16868.955421421961
 30
0.0
 11
19449.852274301182
 21
16867.355421421951
 31
0.0
  0
LINE
  5
1563D
  8
1-中柱カバ-P
  6
HIDE-M
 62
     6
 10
19435.852274301182
 20
16868.955421421961
 30
0.0
 11
19435.852274301182
 21
16867.355421421951
 31
0.0
  0
ARC
  5
1563E
  8
1-中柱カバ-P
 10
19478.75227430119
 20
16803.055421421948
 30
0.0
 40
6.599999999999997
 50
270.0
 51
0.0
  0
ARC
  5
1563F
  8
1-中柱カバ-P
 10
19406.952274301191
 20
16803.055421421948
 30
0.0
 40
6.599999999999997
 50
180.0
 51
270.0
  0
LINE
  5
15640
  8
1-中柱カバ-P
 10
19415.352274301182
 20
16796.455421421961
 30
0.0
 11
19406.952274301191
 21
16796.455421421961
 31
0.0
  0
LINE
  5
15641
  8
1-中柱カバ-P
 10
19470.352274301182
 20
16796.455421421961
 30
0.0
 11
19478.75227430119
 21
16796.455421421961
 31
0.0
  0
LINE
  5
15642
  8
1-中柱カバ-P
 10
19415.352274301182
 20
16798.055421421959
 30
0.0
 11
19406.952274301191
 21
16798.055421421959
 31
0.0
  0
LINE
  5
15643
  8
1-中柱カバ-P
 10
19470.352274301182
 20
16798.055421421959
 30
0.0
 11
19478.75227430119
 21
16798.055421421959
 31
0.0
  0
LINE
  5
15644
  8
1-中柱カバ-P
 10
19470.352274301182
 20
16798.055421421959
 30
0.0
 11
19470.352274301182
 21
16796.455421421961
 31
0.0
  0
LINE
  5
15645
  8
1-中柱カバ-P
 10
19415.352274301182
 20
16796.455421421961
 30
0.0
 11
19415.352274301182
 21
16798.055421421959
 31
0.0
  0
LINE
  5
15646
  8
1-中柱カバ-P
  6
HIDE-M
 62
     6
 10
19411.452274301191
 20
16817.455421421961
 30
0.0
 11
19399.852274301182
 21
16817.455421421961
 31
0.0
  0
LINE
  5
15647
  8
1-中柱カバ-P
  6
HIDE-M
 62
     6
 10
19411.452274301191
 20
16825.455421421961
 30
0.0
 11
19399.852274301182
 21
16825.455421421961
 31
0.0
  0
LINE
  5
15648
  8
1-中柱カバ-P
  6
HIDE-M
 62
     6
 10
19411.452274301191
 20
16818.455421421961
 30
0.0
 11
19399.852274301182
 21
16818.455421421961
 31
0.0
  0
LINE
  5
15649
  8
1-中柱カバ-P
  6
HIDE-M
 62
     6
 10
19411.452274301191
 20
16824.45542142195
 30
0.0
 11
19399.852274301182
 21
16824.45542142195
 31
0.0
  0
LINE
  5
1564A
  8
1-中柱カバ-P
 10
19410.452274301191
 20
16826.955421421961
 30
0.0
 11
19403.452274301191
 21
16826.955421421961
 31
0.0
  0
LINE
  5
1564B
  8
1-中柱カバ-P
 10
19403.452274301191
 20
16815.95542142195
 30
0.0
 11
19410.452274301191
 21
16815.95542142195
 31
0.0
  0
LINE
  5
1564C
  8
1-中柱カバ-P
 10
19403.452274301191
 20
16815.20542142195
 30
0.0
 11
19403.452274301191
 21
16827.705421421939
 31
0.0
  0
LINE
  5
1564D
  8
1-中柱カバ-P
 10
19399.852274301182
 20
16815.455421421961
 30
0.0
 11
19399.852274301182
 21
16827.45542142195
 31
0.0
  0
LINE
  5
1564E
  8
1-中柱カバ-P
  6
HIDE-M
 62
     6
 10
19401.952274301191
 20
16826.955421421961
 30
0.0
 11
19400.352274301182
 21
16826.955421421961
 31
0.0
  0
LINE
  5
1564F
  8
1-中柱カバ-P
 10
19399.852274301182
 20
16827.45542142195
 30
0.0
 11
19400.352274301182
 21
16826.955421421961
 31
0.0
  0
ARC
  5
15650
  8
1-中柱カバ-P
 10
19402.702274301191
 20
16827.705421421939
 30
0.0
 40
0.75
 50
0.0
 51
180.0
  0
LINE
  5
15651
  8
1-中柱カバ-P
  6
HIDE-M
 62
     6
 10
19400.352274301182
 20
16815.95542142195
 30
0.0
 11
19401.952274301191
 21
16815.95542142195
 31
0.0
  0
LINE
  5
15652
  8
1-中柱カバ-P
 10
19399.852274301182
 20
16815.455421421961
 30
0.0
 11
19400.352274301182
 21
16815.95542142195
 31
0.0
  0
ARC
  5
15653
  8
1-中柱カバ-P
 10
19402.702274301191
 20
16815.20542142195
 30
0.0
 40
0.75
 50
180.0
 51
0.0
  0
LINE
  5
15654
  8
1-中柱カバ-P
 10
19411.452274301191
 20
16816.95542142195
 30
0.0
 11
19411.452274301191
 21
16825.955421421961
 31
0.0
  0
ARC
  5
15655
  8
1-中柱カバ-P
 10
19410.452274301191
 20
16825.955421421961
 30
0.0
 40
1.0
 50
0.0
 51
90.0
  0
ARC
  5
15656
  8
1-中柱カバ-P
 10
19410.452274301191
 20
16816.95542142195
 30
0.0
 40
1.0
 50
270.0
 51
0.0
  0
LINE
  5
15657
  8
1-中柱カバ-P
  6
1PL-M
 62
     6
 10
19416.452274301191
 20
16821.455421421961
 30
0.0
 11
19394.852274301182
 21
16821.455421421961
 31
0.0
  0
LINE
  5
15658
  8
1-中柱カバ-P
 10
19410.452274301191
 20
16836.955421421961
 30
0.0
 11
19403.452274301191
 21
16836.955421421961
 31
0.0
  0
LINE
  5
15659
  8
1-中柱カバ-P
 10
19399.852274301182
 20
16829.45542142195
 30
0.0
 11
19399.852274301182
 21
16837.455421421961
 31
0.0
  0
LINE
  5
1565A
  8
1-中柱カバ-P
  6
HIDE-M
 62
     6
 10
19401.952274301191
 20
16836.955421421961
 30
0.0
 11
19400.352274301182
 21
16836.955421421961
 31
0.0
  0
LINE
  5
1565B
  8
1-中柱カバ-P
 10
19399.852274301182
 20
16837.455421421961
 30
0.0
 11
19400.352274301182
 21
16836.955421421961
 31
0.0
  0
ARC
  5
1565C
  8
1-中柱カバ-P
 10
19402.702274301191
 20
16837.705421421961
 30
0.0
 40
0.75
 50
0.0
 51
180.0
  0
LINE
  5
1565D
  8
1-中柱カバ-P
 10
19411.452274301191
 20
16827.955421421961
 30
0.0
 11
19411.452274301191
 21
16835.95542142195
 31
0.0
  0
ARC
  5
1565E
  8
1-中柱カバ-P
 10
19410.452274301191
 20
16835.95542142195
 30
0.0
 40
1.0
 50
0.0
 51
90.0
  0
LINE
  5
1565F
  8
1-中柱カバ-P
  6
1PL-M
 62
     6
 10
19416.452274301191
 20
16831.455421421939
 30
0.0
 11
19394.852274301182
 21
16831.455421421939
 31
0.0
  0
LINE
  5
15660
  8
1-中柱カバ-P
 10
19403.452274301191
 20
16829.705421421961
 30
0.0
 11
19403.452274301191
 21
16837.705421421961
 31
0.0
  0
LINE
  5
15661
  8
1-中柱カバ-P
  6
HIDE-M
 62
     6
 10
19474.25227430119
 20
16817.455421421961
 30
0.0
 11
19485.852274301182
 21
16817.455421421961
 31
0.0
  0
LINE
  5
15662
  8
1-中柱カバ-P
  6
HIDE-M
 62
     6
 10
19474.25227430119
 20
16825.455421421961
 30
0.0
 11
19485.852274301182
 21
16825.455421421961
 31
0.0
  0
LINE
  5
15663
  8
1-中柱カバ-P
  6
HIDE-M
 62
     6
 10
19474.25227430119
 20
16818.455421421961
 30
0.0
 11
19485.852274301182
 21
16818.455421421961
 31
0.0
  0
LINE
  5
15664
  8
1-中柱カバ-P
  6
HIDE-M
 62
     6
 10
19474.25227430119
 20
16824.45542142195
 30
0.0
 11
19485.852274301182
 21
16824.45542142195
 31
0.0
  0
LINE
  5
15665
  8
1-中柱カバ-P
 10
19475.25227430119
 20
16826.955421421961
 30
0.0
 11
19482.25227430119
 21
16826.955421421961
 31
0.0
  0
LINE
  5
15666
  8
1-中柱カバ-P
 10
19482.25227430119
 20
16815.95542142195
 30
0.0
 11
19475.25227430119
 21
16815.95542142195
 31
0.0
  0
LINE
  5
15667
  8
1-中柱カバ-P
 10
19482.25227430119
 20
16815.20542142195
 30
0.0
 11
19482.25227430119
 21
16827.705421421939
 31
0.0
  0
LINE
  5
15668
  8
1-中柱カバ-P
 10
19485.852274301182
 20
16815.455421421961
 30
0.0
 11
19485.852274301182
 21
16827.45542142195
 31
0.0
  0
LINE
  5
15669
  8
1-中柱カバ-P
  6
HIDE-M
 62
     6
 10
19483.75227430119
 20
16826.955421421961
 30
0.0
 11
19485.352274301182
 21
16826.955421421961
 31
0.0
  0
LINE
  5
1566A
  8
1-中柱カバ-P
 10
19485.852274301182
 20
16827.45542142195
 30
0.0
 11
19485.352274301182
 21
16826.955421421961
 31
0.0
  0
ARC
  5
1566B
  8
1-中柱カバ-P
 10
19483.00227430119
 20
16827.705421421939
 30
0.0
 40
0.75
 50
0.0
 51
180.0
  0
LINE
  5
1566C
  8
1-中柱カバ-P
  6
HIDE-M
 62
     6
 10
19485.352274301182
 20
16815.95542142195
 30
0.0
 11
19483.75227430119
 21
16815.95542142195
 31
0.0
  0
LINE
  5
1566D
  8
1-中柱カバ-P
 10
19485.852274301182
 20
16815.455421421961
 30
0.0
 11
19485.352274301182
 21
16815.95542142195
 31
0.0
  0
ARC
  5
1566E
  8
1-中柱カバ-P
 10
19483.00227430119
 20
16815.20542142195
 30
0.0
 40
0.75
 50
180.0
 51
0.0
  0
LINE
  5
1566F
  8
1-中柱カバ-P
 10
19474.25227430119
 20
16816.95542142195
 30
0.0
 11
19474.25227430119
 21
16825.955421421961
 31
0.0
  0
ARC
  5
15670
  8
1-中柱カバ-P
 10
19475.25227430119
 20
16825.955421421961
 30
0.0
 40
1.0
 50
90.0
 51
180.0
  0
ARC
  5
15671
  8
1-中柱カバ-P
 10
19475.25227430119
 20
16816.95542142195
 30
0.0
 40
1.0
 50
180.0
 51
270.0
  0
LINE
  5
15672
  8
1-中柱カバ-P
  6
1PL-M
 62
     6
 10
19469.25227430119
 20
16821.455421421961
 30
0.0
 11
19490.852274301189
 21
16821.455421421961
 31
0.0
  0
LINE
  5
15673
  8
1-中柱カバ-P
 10
19475.25227430119
 20
16836.955421421961
 30
0.0
 11
19482.25227430119
 21
16836.955421421961
 31
0.0
  0
LINE
  5
15674
  8
1-中柱カバ-P
 10
19485.852274301182
 20
16829.45542142195
 30
0.0
 11
19485.852274301182
 21
16837.455421421961
 31
0.0
  0
LINE
  5
15675
  8
1-中柱カバ-P
  6
HIDE-M
 62
     6
 10
19483.75227430119
 20
16836.955421421961
 30
0.0
 11
19485.352274301182
 21
16836.955421421961
 31
0.0
  0
LINE
  5
15676
  8
1-中柱カバ-P
 10
19485.852274301182
 20
16837.455421421961
 30
0.0
 11
19485.352274301182
 21
16836.955421421961
 31
0.0
  0
ARC
  5
15677
  8
1-中柱カバ-P
 10
19483.00227430119
 20
16837.705421421961
 30
0.0
 40
0.75
 50
0.0
 51
180.0
  0
LINE
  5
15678
  8
1-中柱カバ-P
 10
19474.25227430119
 20
16827.955421421961
 30
0.0
 11
19474.25227430119
 21
16835.95542142195
 31
0.0
  0
ARC
  5
15679
  8
1-中柱カバ-P
 10
19475.25227430119
 20
16835.95542142195
 30
0.0
 40
1.0
 50
90.0
 51
180.0
  0
LINE
  5
1567A
  8
1-中柱カバ-P
  6
1PL-M
 62
     6
 10
19469.25227430119
 20
16831.455421421939
 30
0.0
 11
19490.852274301189
 21
16831.455421421939
 31
0.0
  0
LINE
  5
1567B
  8
1-中柱カバ-P
 10
19482.25227430119
 20
16829.705421421961
 30
0.0
 11
19482.25227430119
 21
16837.705421421961
 31
0.0
  0
LINE
  5
1567C
  8
1-中柱カバ-P
  6
HIDE-M
 62
     6
 10
19411.452274301191
 20
16835.455421421961
 30
0.0
 11
19399.852274301182
 21
16835.455421421961
 31
0.0
  0
LINE
  5
1567D
  8
1-中柱カバ-P
  6
HIDE-M
 62
     6
 10
19411.452274301191
 20
16834.455421421961
 30
0.0
 11
19399.852274301182
 21
16834.455421421961
 31
0.0
  0
LINE
  5
1567E
  8
1-中柱カバ-P
  6
HIDE-M
 62
     6
 10
19474.25227430119
 20
16835.455421421961
 30
0.0
 11
19485.852274301182
 21
16835.455421421961
 31
0.0
  0
LINE
  5
1567F
  8
1-中柱カバ-P
  6
HIDE-M
 62
     6
 10
19474.25227430119
 20
16834.455421421961
 30
0.0
 11
19485.852274301182
 21
16834.455421421961
 31
0.0
  0
ARC
  5
15680
  8
1-前柱P
  6
HIDE-M
 62
     6
 10
19446.452274301191
 20
14297.35542142196
 30
0.0
 40
2.6000000000000001
 50
90.0
 51
180.0
  0
LINE
  5
15681
  8
1-前柱P
  6
HIDE-M
 62
     6
 10
19434.852274301182
 20
14299.404811575139
 30
0.0
 11
19434.852274301182
 21
14295.75542142196
 31
0.0
  0
LINE
  5
15682
  8
1-前柱P
  6
HIDE-M
 62
     6
 10
19444.852274301182
 20
14299.404811575139
 30
0.0
 11
19444.852274301182
 21
14295.75542142196
 31
0.0
  0
LINE
  5
15683
  8
1-前柱P
  6
1PL-M
 62
     6
 10
19439.852274301182
 20
14304.955421421961
 30
0.0
 11
19439.852274301182
 21
14290.75542142196
 31
0.0
  0
ARC
  5
15684
  8
1-前柱P
  6
HIDE-M
 62
     6
 10
19433.25227430118
 20
14297.35542142196
 30
0.0
 40
2.6000000000000001
 50
0.0
 51
90.0
  0
LINE
  5
15685
  8
1-前柱P
  6
HIDE-M
 62
     6
 10
19443.852274301182
 20
14297.35542142196
 30
0.0
 11
19443.852274301182
 21
14295.75542142196
 31
0.0
  0
LINE
  5
15686
  8
1-前柱P
  6
HIDE-M
 62
     6
 10
19435.852274301182
 20
14297.35542142196
 30
0.0
 11
19435.852274301182
 21
14295.75542142196
 31
0.0
  0
LINE
  5
15687
  8
1-前柱P
 10
19453.75227430118
 20
14185.055421421959
 30
0.0
 11
19431.95227430118
 21
14185.055421421959
 31
0.0
  0
LINE
  5
15688
  8
1-前柱P
 10
19401.95227430118
 20
14222.35542142196
 30
0.0
 11
19401.95227430118
 21
14215.055421421959
 31
0.0
  0
ARC
  5
15689
  8
1-前柱P
 10
19431.95227430118
 20
14215.055421421959
 30
0.0
 40
30.0
 50
180.0
 51
270.0
  0
ARC
  5
1568A
  8
1-前柱P
 10
19431.95227430118
 20
14215.055421421959
 30
0.0
 40
31.600000000000001
 50
180.0
 51
270.0
  0
LINE
  5
1568B
  8
1-前柱P
 10
19453.75227430118
 20
14183.45542142195
 30
0.0
 11
19431.95227430118
 21
14183.45542142195
 31
0.0
  0
LINE
  5
1568C
  8
1-前柱P
 10
19400.352274301182
 20
14222.35542142196
 30
0.0
 11
19400.352274301182
 21
14215.055421421959
 31
0.0
  0
LINE
  5
1568D
  8
1-前柱P
 10
19423.352274301182
 20
14243.95542142195
 30
0.0
 11
19423.352274301182
 21
14233.955421421961
 31
0.0
  0
LINE
  5
1568E
  8
1-前柱P
 10
19424.95227430118
 20
14233.955421421961
 30
0.0
 11
19424.95227430118
 21
14243.95542142195
 31
0.0
  0
LINE
  5
1568F
  8
1-前柱P
 10
19483.75227430118
 20
14222.35542142196
 30
0.0
 11
19483.75227430118
 21
14215.055421421959
 31
0.0
  0
ARC
  5
15690
  8
1-前柱P
 10
19453.75227430118
 20
14215.055421421959
 30
0.0
 40
30.0
 50
270.0
 51
0.0
  0
ARC
  5
15691
  8
1-前柱P
 10
19453.75227430118
 20
14215.055421421959
 30
0.0
 40
31.600000000000001
 50
270.0
 51
0.0
  0
LINE
  5
15692
  8
1-前柱P
 10
19485.352274301182
 20
14222.35542142196
 30
0.0
 11
19485.352274301182
 21
14215.055421421959
 31
0.0
  0
LINE
  5
15693
  8
1-前柱P
 10
19478.75227430118
 20
14228.955421421961
 30
0.0
 11
19467.352274301182
 21
14228.955421421961
 31
0.0
  0
ARC
  5
15694
  8
1-前柱P
 10
19478.75227430118
 20
14222.35542142196
 30
0.0
 40
6.599999999999997
 50
0.0
 51
90.0
  0
ARC
  5
15695
  8
1-前柱P
 10
19467.352274301182
 20
14233.955421421961
 30
0.0
 40
5.0
 50
180.0
 51
270.0
  0
LINE
  5
15696
  8
1-前柱P
 10
19478.75227430118
 20
14227.35542142196
 30
0.0
 11
19467.352274301182
 21
14227.35542142196
 31
0.0
  0
ARC
  5
15697
  8
1-前柱P
 10
19478.75227430118
 20
14222.35542142196
 30
0.0
 40
5.0
 50
0.0
 51
90.0
  0
LINE
  5
15698
  8
1-前柱P
 10
19462.352274301182
 20
14233.955421421961
 30
0.0
 11
19462.352274301182
 21
14293.35542142196
 31
0.0
  0
LINE
  5
15699
  8
1-前柱P
 10
19460.75227430118
 20
14233.955421421961
 30
0.0
 11
19460.75227430118
 21
14293.35542142196
 31
0.0
  0
ARC
  5
1569A
  8
1-前柱P
 10
19467.352274301182
 20
14233.955421421961
 30
0.0
 40
6.599999999999997
 50
180.0
 51
270.0
  0
LINE
  5
1569B
  8
1-前柱P
 10
19455.75227430118
 20
14299.95542142195
 30
0.0
 11
19422.352274301182
 21
14299.95542142195
 31
0.0
  0
ARC
  5
1569C
  8
1-前柱P
 10
19455.75227430118
 20
14293.35542142196
 30
0.0
 40
6.599999999999997
 50
0.0
 51
90.0
  0
LINE
  5
1569D
  8
1-前柱P
 10
19455.75227430118
 20
14298.355421421949
 30
0.0
 11
19422.352274301182
 21
14298.355421421949
 31
0.0
  0
ARC
  5
1569E
  8
1-前柱P
 10
19455.75227430118
 20
14293.35542142196
 30
0.0
 40
5.0
 50
0.0
 51
90.0
  0
LINE
  5
1569F
  8
1-前柱P
 10
19422.352274301182
 20
14298.355421421949
 30
0.0
 11
19422.352274301182
 21
14299.95542142195
 31
0.0
  0
LINE
  5
156A0
  8
1-前柱P
 10
19406.952274301151
 20
14228.955421421961
 30
0.0
 11
19418.352274301182
 21
14228.955421421961
 31
0.0
  0
ARC
  5
156A1
  8
1-前柱P
 10
19406.952274301151
 20
14222.35542142196
 30
0.0
 40
6.599999999999997
 50
90.0
 51
180.0
  0
ARC
  5
156A2
  8
1-前柱P
 10
19418.352274301182
 20
14233.955421421961
 30
0.0
 40
5.0
 50
270.0
 51
0.0
  0
LINE
  5
156A3
  8
1-前柱P
 10
19418.352274301182
 20
14227.35542142196
 30
0.0
 11
19406.952274301151
 21
14227.35542142196
 31
0.0
  0
ARC
  5
156A4
  8
1-前柱P
 10
19418.352274301182
 20
14233.955421421961
 30
0.0
 40
6.599999999999997
 50
270.0
 51
0.0
  0
ARC
  5
156A5
  8
1-前柱P
 10
19406.952274301151
 20
14222.35542142196
 30
0.0
 40
5.0
 50
90.0
 51
180.0
  0
LINE
  5
156A6
  8
1-前柱P
 10
19423.352274301182
 20
14243.95542142195
 30
0.0
 11
19424.95227430118
 21
14243.95542142195
 31
0.0
  0
LINE
  5
156A7
  8
1-前柱カバ-P
 10
19400.352274301182
 20
14235.65542142195
 30
0.0
 11
19400.352274301182
 21
14294.955421421961
 31
0.0
  0
ARC
  5
156A8
  8
1-前柱カバ-P
 10
19406.952274301151
 20
14294.955421421961
 30
0.0
 40
6.599999999999997
 50
90.0
 51
180.0
  0
LINE
  5
156A9
  8
1-前柱カバ-P
 10
19401.95227430118
 20
14235.65542142195
 30
0.0
 11
19401.95227430118
 21
14294.955421421961
 31
0.0
  0
ARC
  5
156AA
  8
1-前柱カバ-P
 10
19406.952274301151
 20
14235.65542142195
 30
0.0
 40
5.0
 50
180.0
 51
270.0
  0
LINE
  5
156AB
  8
1-前柱カバ-P
 10
19406.952274301151
 20
14301.555421421959
 30
0.0
 11
19478.75227430118
 21
14301.555421421959
 31
0.0
  0
ARC
  5
156AC
  8
1-前柱カバ-P
 10
19478.75227430118
 20
14294.955421421961
 30
0.0
 40
6.599999999999997
 50
0.0
 51
90.0
  0
LINE
  5
156AD
  8
1-前柱カバ-P
 10
19406.952274301151
 20
14299.95542142195
 30
0.0
 11
19478.75227430118
 21
14299.95542142195
 31
0.0
  0
ARC
  5
156AE
  8
1-前柱カバ-P
 10
19478.75227430118
 20
14294.955421421961
 30
0.0
 40
5.0
 50
0.0
 51
90.0
  0
ARC
  5
156AF
  8
1-前柱カバ-P
 10
19406.952274301151
 20
14294.955421421961
 30
0.0
 40
5.0
 50
90.0
 51
180.0
  0
LINE
  5
156B0
  8
1-前柱カバ-P
 10
19485.352274301182
 20
14294.955421421961
 30
0.0
 11
19485.352274301182
 21
14235.65542142195
 31
0.0
  0
LINE
  5
156B1
  8
1-前柱カバ-P
 10
19483.75227430118
 20
14294.955421421961
 30
0.0
 11
19483.75227430118
 21
14235.65542142195
 31
0.0
  0
ARC
  5
156B2
  8
1-前柱カバ-P
 10
19478.75227430118
 20
14235.65542142195
 30
0.0
 40
5.0
 50
270.0
 51
0.0
  0
LINE
  5
156B3
  8
1-前柱カバ-P
  6
1PL-M
 62
     6
 10
19442.852274301182
 20
14294.055421421959
 30
0.0
 11
19442.852274301182
 21
14307.055421421959
 31
0.0
  0
LINE
  5
156B4
  8
1-前柱カバ-P
  6
HIDE-M
 62
     6
 10
19435.852274301182
 20
14301.555421421959
 30
0.0
 11
19435.852274301182
 21
14299.95542142195
 31
0.0
  0
LINE
  5
156B5
  8
1-前柱カバ-P
  6
HIDE-M
 62
     6
 10
19449.852274301182
 20
14301.555421421959
 30
0.0
 11
19449.852274301182
 21
14299.95542142195
 31
0.0
  0
ARC
  5
156B6
  8
1-前柱カバ-P
 10
19406.952274301151
 20
14235.65542142195
 30
0.0
 40
6.599999999999997
 50
180.0
 51
270.0
  0
ARC
  5
156B7
  8
1-前柱カバ-P
 10
19478.75227430118
 20
14235.65542142195
 30
0.0
 40
6.599999999999997
 50
270.0
 51
0.0
  0
LINE
  5
156B8
  8
1-前柱カバ-P
 10
19470.352274301182
 20
14229.055421421959
 30
0.0
 11
19478.75227430118
 21
14229.055421421959
 31
0.0
  0
LINE
  5
156B9
  8
1-前柱カバ-P
 10
19415.352274301182
 20
14229.055421421959
 30
0.0
 11
19406.952274301151
 21
14229.055421421959
 31
0.0
  0
LINE
  5
156BA
  8
1-前柱カバ-P
 10
19470.352274301182
 20
14230.65542142195
 30
0.0
 11
19478.75227430118
 21
14230.65542142195
 31
0.0
  0
LINE
  5
156BB
  8
1-前柱カバ-P
 10
19415.352274301182
 20
14230.65542142195
 30
0.0
 11
19406.952274301151
 21
14230.65542142195
 31
0.0
  0
LINE
  5
156BC
  8
1-前柱カバ-P
 10
19415.352274301182
 20
14230.65542142195
 30
0.0
 11
19415.352274301182
 21
14229.055421421959
 31
0.0
  0
LINE
  5
156BD
  8
1-前柱カバ-P
 10
19470.352274301182
 20
14229.055421421959
 30
0.0
 11
19470.352274301182
 21
14230.65542142195
 31
0.0
  0
LINE
  5
156BE
  8
1-前柱カバ-P
  6
HIDE-M
 62
     6
 10
19474.25227430118
 20
14250.055421421959
 30
0.0
 11
19485.852274301182
 21
14250.055421421959
 31
0.0
  0
LINE
  5
156BF
  8
1-前柱カバ-P
  6
HIDE-M
 62
     6
 10
19474.25227430118
 20
14258.055421421959
 30
0.0
 11
19485.852274301182
 21
14258.055421421959
 31
0.0
  0
LINE
  5
156C0
  8
1-前柱カバ-P
  6
HIDE-M
 62
     6
 10
19474.25227430118
 20
14251.055421421959
 30
0.0
 11
19485.852274301182
 21
14251.055421421959
 31
0.0
  0
LINE
  5
156C1
  8
1-前柱カバ-P
  6
HIDE-M
 62
     6
 10
19474.25227430118
 20
14257.055421421959
 30
0.0
 11
19485.852274301182
 21
14257.055421421959
 31
0.0
  0
LINE
  5
156C2
  8
1-前柱カバ-P
 10
19475.25227430118
 20
14259.555421421959
 30
0.0
 11
19482.25227430118
 21
14259.555421421959
 31
0.0
  0
LINE
  5
156C3
  8
1-前柱カバ-P
 10
19482.25227430118
 20
14248.555421421959
 30
0.0
 11
19475.25227430118
 21
14248.555421421959
 31
0.0
  0
LINE
  5
156C4
  8
1-前柱カバ-P
 10
19482.25227430118
 20
14247.805421421959
 30
0.0
 11
19482.25227430118
 21
14260.305421421959
 31
0.0
  0
LINE
  5
156C5
  8
1-前柱カバ-P
 10
19485.852274301182
 20
14248.055421421959
 30
0.0
 11
19485.852274301182
 21
14260.055421421959
 31
0.0
  0
LINE
  5
156C6
  8
1-前柱カバ-P
  6
HIDE-M
 62
     6
 10
19483.75227430118
 20
14259.555421421959
 30
0.0
 11
19485.352274301182
 21
14259.555421421959
 31
0.0
  0
LINE
  5
156C7
  8
1-前柱カバ-P
 10
19485.852274301182
 20
14260.055421421959
 30
0.0
 11
19485.352274301182
 21
14259.555421421959
 31
0.0
  0
ARC
  5
156C8
  8
1-前柱カバ-P
 10
19483.00227430118
 20
14260.305421421959
 30
0.0
 40
0.75
 50
0.0
 51
180.0
  0
LINE
  5
156C9
  8
1-前柱カバ-P
  6
HIDE-M
 62
     6
 10
19485.352274301182
 20
14248.555421421959
 30
0.0
 11
19483.75227430118
 21
14248.555421421959
 31
0.0
  0
LINE
  5
156CA
  8
1-前柱カバ-P
 10
19485.852274301182
 20
14248.055421421959
 30
0.0
 11
19485.352274301182
 21
14248.555421421959
 31
0.0
  0
ARC
  5
156CB
  8
1-前柱カバ-P
 10
19483.00227430118
 20
14247.805421421959
 30
0.0
 40
0.75
 50
180.0
 51
0.0
  0
LINE
  5
156CC
  8
1-前柱カバ-P
 10
19474.25227430118
 20
14249.555421421959
 30
0.0
 11
19474.25227430118
 21
14258.555421421959
 31
0.0
  0
ARC
  5
156CD
  8
1-前柱カバ-P
 10
19475.25227430118
 20
14258.555421421959
 30
0.0
 40
1.0
 50
90.0
 51
180.0
  0
ARC
  5
156CE
  8
1-前柱カバ-P
 10
19475.25227430118
 20
14249.555421421959
 30
0.0
 40
1.0
 50
180.0
 51
270.0
  0
LINE
  5
156CF
  8
1-前柱カバ-P
  6
1PL-M
 62
     6
 10
19469.25227430118
 20
14254.055421421959
 30
0.0
 11
19490.852274301189
 21
14254.055421421959
 31
0.0
  0
LINE
  5
156D0
  8
1-前柱カバ-P
 10
19475.25227430118
 20
14269.555421421959
 30
0.0
 11
19482.25227430118
 21
14269.555421421959
 31
0.0
  0
LINE
  5
156D1
  8
1-前柱カバ-P
 10
19485.852274301182
 20
14262.055421421959
 30
0.0
 11
19485.852274301182
 21
14270.055421421959
 31
0.0
  0
LINE
  5
156D2
  8
1-前柱カバ-P
  6
HIDE-M
 62
     6
 10
19483.75227430118
 20
14269.555421421959
 30
0.0
 11
19485.352274301182
 21
14269.555421421959
 31
0.0
  0
LINE
  5
156D3
  8
1-前柱カバ-P
 10
19485.852274301182
 20
14270.055421421959
 30
0.0
 11
19485.352274301182
 21
14269.555421421959
 31
0.0
  0
ARC
  5
156D4
  8
1-前柱カバ-P
 10
19483.00227430118
 20
14270.305421421959
 30
0.0
 40
0.75
 50
0.0
 51
180.0
  0
LINE
  5
156D5
  8
1-前柱カバ-P
 10
19474.25227430118
 20
14260.555421421959
 30
0.0
 11
19474.25227430118
 21
14268.555421421959
 31
0.0
  0
ARC
  5
156D6
  8
1-前柱カバ-P
 10
19475.25227430118
 20
14268.555421421959
 30
0.0
 40
1.0
 50
90.0
 51
180.0
  0
LINE
  5
156D7
  8
1-前柱カバ-P
  6
1PL-M
 62
     6
 10
19469.25227430118
 20
14264.055421421959
 30
0.0
 11
19490.852274301189
 21
14264.055421421959
 31
0.0
  0
LINE
  5
156D8
  8
1-前柱カバ-P
 10
19482.25227430118
 20
14262.305421421959
 30
0.0
 11
19482.25227430118
 21
14270.305421421959
 31
0.0
  0
LINE
  5
156D9
  8
1-前柱カバ-P
  6
HIDE-M
 62
     6
 10
19411.452274301158
 20
14250.055421421959
 30
0.0
 11
19399.852274301182
 21
14250.055421421959
 31
0.0
  0
LINE
  5
156DA
  8
1-前柱カバ-P
  6
HIDE-M
 62
     6
 10
19411.452274301158
 20
14258.055421421959
 30
0.0
 11
19399.852274301182
 21
14258.055421421959
 31
0.0
  0
LINE
  5
156DB
  8
1-前柱カバ-P
  6
HIDE-M
 62
     6
 10
19411.452274301158
 20
14251.055421421959
 30
0.0
 11
19399.852274301182
 21
14251.055421421959
 31
0.0
  0
LINE
  5
156DC
  8
1-前柱カバ-P
  6
HIDE-M
 62
     6
 10
19411.452274301158
 20
14257.055421421959
 30
0.0
 11
19399.852274301182
 21
14257.055421421959
 31
0.0
  0
LINE
  5
156DD
  8
1-前柱カバ-P
 10
19410.45227430118
 20
14259.555421421959
 30
0.0
 11
19403.45227430118
 21
14259.555421421959
 31
0.0
  0
LINE
  5
156DE
  8
1-前柱カバ-P
 10
19403.45227430118
 20
14248.555421421959
 30
0.0
 11
19410.45227430118
 21
14248.555421421959
 31
0.0
  0
LINE
  5
156DF
  8
1-前柱カバ-P
 10
19403.45227430118
 20
14247.805421421959
 30
0.0
 11
19403.45227430118
 21
14260.305421421959
 31
0.0
  0
LINE
  5
156E0
  8
1-前柱カバ-P
 10
19399.852274301182
 20
14248.055421421959
 30
0.0
 11
19399.852274301182
 21
14260.055421421959
 31
0.0
  0
LINE
  5
156E1
  8
1-前柱カバ-P
  6
HIDE-M
 62
     6
 10
19401.95227430118
 20
14259.555421421959
 30
0.0
 11
19400.352274301182
 21
14259.555421421959
 31
0.0
  0
LINE
  5
156E2
  8
1-前柱カバ-P
 10
19399.852274301182
 20
14260.055421421959
 30
0.0
 11
19400.352274301182
 21
14259.555421421959
 31
0.0
  0
ARC
  5
156E3
  8
1-前柱カバ-P
 10
19402.70227430118
 20
14260.305421421959
 30
0.0
 40
0.75
 50
0.0
 51
180.0
  0
LINE
  5
156E4
  8
1-前柱カバ-P
  6
HIDE-M
 62
     6
 10
19400.352274301182
 20
14248.555421421959
 30
0.0
 11
19401.95227430118
 21
14248.555421421959
 31
0.0
  0
LINE
  5
156E5
  8
1-前柱カバ-P
 10
19399.852274301182
 20
14248.055421421959
 30
0.0
 11
19400.352274301182
 21
14248.555421421959
 31
0.0
  0
ARC
  5
156E6
  8
1-前柱カバ-P
 10
19402.70227430118
 20
14247.805421421959
 30
0.0
 40
0.75
 50
180.0
 51
0.0
  0
LINE
  5
156E7
  8
1-前柱カバ-P
 10
19411.452274301158
 20
14249.555421421959
 30
0.0
 11
19411.452274301158
 21
14258.555421421959
 31
0.0
  0
ARC
  5
156E8
  8
1-前柱カバ-P
 10
19410.45227430118
 20
14258.555421421959
 30
0.0
 40
1.0
 50
0.0
 51
90.0
  0
ARC
  5
156E9
  8
1-前柱カバ-P
 10
19410.45227430118
 20
14249.555421421959
 30
0.0
 40
1.0
 50
270.0
 51
0.0
  0
LINE
  5
156EA
  8
1-前柱カバ-P
  6
1PL-M
 62
     6
 10
19416.452274301151
 20
14254.055421421959
 30
0.0
 11
19394.852274301182
 21
14254.055421421959
 31
0.0
  0
LINE
  5
156EB
  8
1-前柱カバ-P
 10
19410.45227430118
 20
14269.555421421959
 30
0.0
 11
19403.45227430118
 21
14269.555421421959
 31
0.0
  0
LINE
  5
156EC
  8
1-前柱カバ-P
 10
19399.852274301182
 20
14262.055421421959
 30
0.0
 11
19399.852274301182
 21
14270.055421421959
 31
0.0
  0
LINE
  5
156ED
  8
1-前柱カバ-P
  6
HIDE-M
 62
     6
 10
19401.95227430118
 20
14269.555421421959
 30
0.0
 11
19400.352274301182
 21
14269.555421421959
 31
0.0
  0
LINE
  5
156EE
  8
1-前柱カバ-P
 10
19399.852274301182
 20
14270.055421421959
 30
0.0
 11
19400.352274301182
 21
14269.555421421959
 31
0.0
  0
ARC
  5
156EF
  8
1-前柱カバ-P
 10
19402.70227430118
 20
14270.305421421959
 30
0.0
 40
0.75
 50
0.0
 51
180.0
  0
LINE
  5
156F0
  8
1-前柱カバ-P
 10
19411.452274301158
 20
14260.555421421959
 30
0.0
 11
19411.452274301158
 21
14268.555421421959
 31
0.0
  0
ARC
  5
156F1
  8
1-前柱カバ-P
 10
19410.45227430118
 20
14268.555421421959
 30
0.0
 40
1.0
 50
0.0
 51
90.0
  0
LINE
  5
156F2
  8
1-前柱カバ-P
  6
1PL-M
 62
     6
 10
19416.452274301151
 20
14264.055421421959
 30
0.0
 11
19394.852274301182
 21
14264.055421421959
 31
0.0
  0
LINE
  5
156F3
  8
1-前柱カバ-P
 10
19403.45227430118
 20
14262.305421421959
 30
0.0
 11
19403.45227430118
 21
14270.305421421959
 31
0.0
  0
LINE
  5
156F4
  8
1-前柱カバ-P
  6
HIDE-M
 62
     6
 10
19474.25227430118
 20
14268.055421421959
 30
0.0
 11
19485.852274301182
 21
14268.055421421959
 31
0.0
  0
LINE
  5
156F5
  8
1-前柱カバ-P
  6
HIDE-M
 62
     6
 10
19474.25227430118
 20
14267.055421421959
 30
0.0
 11
19485.852274301182
 21
14267.055421421959
 31
0.0
  0
LINE
  5
156F6
  8
1-前柱カバ-P
  6
HIDE-M
 62
     6
 10
19411.452274301158
 20
14268.055421421959
 30
0.0
 11
19399.852274301182
 21
14268.055421421959
 31
0.0
  0
LINE
  5
156F7
  8
1-前柱カバ-P
  6
HIDE-M
 62
     6
 10
19411.452274301158
 20
14267.055421421959
 30
0.0
 11
19399.852274301182
 21
14267.055421421959
 31
0.0
  0
LINE
  5
156FC
  8
0-6
  6
CONTINUOUS
 62
     6
 10
20892.927979122582
 20
13588.95627942194
 30
0.0
 11
19892.92863812259
 21
13588.95627942194
 31
0.0
  0
TEXT
  5
156FD
  8
0-6
  6
CONTINUOUS
 62
     7
 10
19996.927715122602
 20
13668.95654342194
 30
0.0
 40
160.0
  1
前柱（P）
 72
     4
 11
20396.927715122602
 21
13748.95654342194
 31
0.0
  0
LINE
  5
156FE
  8
0-6
  6
CONTINUOUS
 62
     6
 10
19487.852274301182
 20
14174.95542142195
 30
0.0
 11
19892.92863812259
 21
13588.95627942194
 31
0.0
  0
LINE
  5
156FF
  8
0-6
  6
CONTINUOUS
 62
     6
 10
20892.927979122582
 20
16126.01707937607
 30
0.0
 11
19892.92863812259
 21
16126.01707937607
 31
0.0
  0
TEXT
  5
15700
  8
0-6
  6
CONTINUOUS
 62
     7
 10
19996.927715122602
 20
16206.01734337607
 30
0.0
 40
160.0
  1
中柱（P）
 72
     4
 11
20396.927715122602
 21
16286.01734337607
 31
0.0
  0
LINE
  5
15701
  8
0-6
  6
CONTINUOUS
 62
     6
 10
19487.852274301182
 20
16712.01622137607
 30
0.0
 11
19892.92863812259
 21
16126.01707937607
 31
0.0
  0
LINE
  5
15702
  8
0-6
  6
CONTINUOUS
 62
     6
 10
21233.989869592118
 20
14789.946159250831
 30
0.0
 11
19777.989869592111
 21
14789.946159250831
 31
0.0
  0
TEXT
  5
15703
  8
0-6
  6
CONTINUOUS
 62
     7
 10
19817.984596339698
 20
14869.946423250811
 30
0.0
 40
160.0
  1
前柱カバー（P）
 72
     4
 11
20505.984596339698
 21
14949.946423250811
 31
0.0
  0
LINE
  5
15704
  8
0-6
  6
CONTINUOUS
 62
     6
 10
19478.75227430118
 20
14301.55542142195
 30
0.0
 11
19777.989869592111
 21
14789.946159250831
 31
0.0
  0
LINE
  5
15705
  8
0-6
  6
CONTINUOUS
 62
     6
 10
21233.989869592118
 20
17346.94572325081
 30
0.0
 11
19777.989869592111
 21
17346.94572325081
 31
0.0
  0
TEXT
  5
15706
  8
0-6
  6
CONTINUOUS
 62
     7
 10
19817.984596339698
 20
17426.94598725082
 30
0.0
 40
160.0
  1
中柱カバー（P）
 72
     4
 11
20505.984596339698
 21
17506.94598725082
 31
0.0
  0
LINE
  5
15707
  8
0-6
  6
CONTINUOUS
 62
     6
 10
19478.75227430118
 20
16858.55498542195
 30
0.0
 11
19777.989869592111
 21
17346.94572325081
 31
0.0
  0
LINE
  5
15708
  8
0-6
  6
CONTINUOUS
 62
     6
 10
20892.927979122582
 20
20003.39278646783
 30
0.0
 11
19892.92863812259
 21
20003.39278646783
 31
0.0
  0
TEXT
  5
15709
  8
0-6
  6
CONTINUOUS
 62
     7
 10
19996.927715122602
 20
20083.393050467821
 30
0.0
 40
160.0
  1
後柱（P）
 72
     4
 11
20396.927715122602
 21
20163.393050467821
 31
0.0
  0
LINE
  5
1570A
  8
0-6
  6
CONTINUOUS
 62
     6
 10
19487.852274301182
 20
19417.393644467811
 30
0.0
 11
19892.92863812259
 21
20003.39278646783
 31
0.0
  0
LINE
  5
1570B
  8
0-6
  6
CONTINUOUS
 62
     6
 10
21233.989869592118
 20
18797.293762964
 30
0.0
 11
19777.989869592118
 21
18797.293762964
 31
0.0
  0
TEXT
  5
1570C
  8
0-6
  6
CONTINUOUS
 62
     7
 10
19817.984596339698
 20
18877.294026964009
 30
0.0
 40
160.0
  1
後柱カバー（P）
 72
     4
 11
20505.984596339698
 21
18957.294026964009
 31
0.0
  0
LINE
  5
1570D
  8
0-6
  6
CONTINUOUS
 62
     6
 10
19478.75227430118
 20
19270.85488042195
 30
0.0
 11
19777.989869592118
 21
18797.293762964
 31
0.0
  0
LINE
  5
1574D
  8
0-1
  6
CONTINUOUS
 62
     3
 10
12797.390571409591
 20
8198.2035874219546
 30
0.0
 11
12797.390571409591
 21
6337.157708421958
 31
0.0
  0
LINE
  5
1574E
  8
0-1
  6
CONTINUOUS
 62
     3
 10
12834.388763409581
 20
8198.2035874219546
 30
0.0
 11
12834.388763409581
 21
6337.157708421958
 31
0.0
  0
LINE
  5
1574F
  8
0-1
  6
CONTINUOUS
 62
     3
 10
12658.89058540959
 20
6337.157708421958
 30
0.0
 11
12658.89058540959
 21
8198.2035874219546
 31
0.0
  0
LINE
  5
15750
  8
0-1
  6
CONTINUOUS
 62
     3
 10
12673.889397409581
 20
6337.157708421958
 30
0.0
 11
12673.889397409581
 21
8198.2035874219546
 31
0.0
  0
LINE
  5
15751
  8
0-1
  6
CONTINUOUS
 62
     3
 10
12957.88993840958
 20
6337.1577084219607
 30
0.0
 11
12957.88993840958
 21
8198.2035874219619
 31
0.0
  0
LINE
  5
15752
  8
0-1
  6
CONTINUOUS
 62
     3
 10
12972.890730409579
 20
6337.1577084219607
 30
0.0
 11
12972.890730409579
 21
8198.2035874219619
 31
0.0
  0
LINE
  5
15753
  8
0-1
  6
CONTINUOUS
 62
     3
 10
8350.8900304095805
 20
6337.157708421958
 30
0.0
 11
8350.8900304095805
 21
8198.2035874219546
 31
0.0
  0
LINE
  5
15754
  8
0-1
  6
CONTINUOUS
 62
     3
 10
8365.8898324095935
 20
6337.157708421958
 30
0.0
 11
8365.8898324095935
 21
8198.2035874219546
 31
0.0
  0
LINE
  5
15755
  8
0-1
  6
CONTINUOUS
 62
     3
 10
6322.6698551273857
 20
19576.45872042195
 30
0.0
 11
13911.170805127391
 21
19576.45872042195
 31
0.0
  0
LINE
  5
15756
  8
0-1
  6
CONTINUOUS
 62
     3
 10
6267.1700921273878
 20
19528.455395421941
 30
0.0
 11
13966.671557127391
 21
19528.455395421941
 31
0.0
  0
LINE
  5
15757
  8
0-6
  6
CONTINUOUS
 62
     6
 10
10220.59679849836
 20
19718.86132842195
 30
0.0
 11
10177.29482949834
 21
19693.860008421951
 31
0.0
  0
LINE
  5
15758
  8
0-6
  6
CONTINUOUS
 62
     6
 10
10220.59679849836
 20
19718.86132842195
 30
0.0
 11
10273.94482449835
 21
19576.458720421921
 31
0.0
  0
LINE
  5
15759
  8
0-6
  6
CONTINUOUS
 62
     6
 10
10177.29482949834
 20
19693.860008421951
 30
0.0
 11
10220.59679849836
 21
19718.86132842195
 31
0.0
  0
LINE
  5
1575A
  8
0-6
  6
CONTINUOUS
 62
     6
 10
10273.94482449835
 20
19576.458720421921
 30
0.0
 11
10177.29482949834
 21
19693.860008421951
 31
0.0
  0
LINE
  5
1575B
  8
0-6
  6
CONTINUOUS
 62
     6
 10
10273.94482449835
 20
19576.458720421921
 30
0.0
 11
10220.59679849836
 21
19718.86132842195
 31
0.0
  0
LINE
  5
1575C
  8
0-6
  6
CONTINUOUS
 62
     6
 10
10177.29482949834
 20
19693.860008421951
 30
0.0
 11
10273.94482449835
 21
19576.458720421921
 31
0.0
  0
LINE
  5
1575D
  8
0-6
  6
CONTINUOUS
 62
     6
 10
10198.94680349836
 20
19706.362648421949
 30
0.0
 11
9973.3609868286749
 21
20130.032488153061
 31
0.0
  0
TEXT
  5
1575E
  8
0-6
  6
CONTINUOUS
 62
     7
 10
9799.6897834983629
 20
20686.457928421951
 30
0.0
 40
160.0
  1
鼻隠し後
 72
     4
 11
10162.356450165031
 21
20766.457928421951
 31
0.0
  0
LINE
  5
1575F
  8
0-6
  6
CONTINUOUS
 62
     6
 10
9719.6875394983635
 20
20606.457664421949
 30
0.0
 11
10562.12709849836
 21
20606.457664421949
 31
0.0
  0
LINE
  5
15760
  8
0-6
  6
CONTINUOUS
 62
     6
 10
9905.3271277761523
 20
20257.807167105351
 30
0.0
 11
9719.6875394983635
 21
20606.457664421949
 31
0.0
  0
LINE
  5
15761
  8
0-6
  6
CONTINUOUS
 62
     6
 10
2548.313361290071
 20
14116.18597356086
 30
0.0
 11
5177.2103499031937
 21
14116.18597356086
 31
0.0
  0
TEXT
  5
15762
  8
0-6
  6
CONTINUOUS
 62
     7
 10
2616.0476738816069
 20
14196.186237560871
 30
0.0
 40
160.0
  1
桁前（PU）+ 桁補強（PU）
 72
     4
 11
3864.0476738816069
 21
14276.186237560871
 31
0.0
  0
LINE
  5
1576B
  8
0-6
  6
CONTINUOUS
 62
     6
 10
5177.2103499031937
 20
14116.18597356086
 30
0.0
 11
6838.5155907836552
 21
13690.25608419956
 31
0.0
  0
LINE
  5
1576C
  8
0-6
  6
CONTINUOUS
 62
     6
 10
6838.5155907836552
 20
13690.25608419956
 30
0.0
 11
7215.4580542791964
 21
14192.45606842189
 31
0.0
  0
LINE
  5
1576D
  8
0-6
  6
CONTINUOUS
 62
     6
 10
2647.4026630134758
 20
16720.18532656099
 30
0.0
 11
5177.2103499031937
 21
16720.18532656099
 31
0.0
  0
TEXT
  5
1576E
  8
0-6
  6
CONTINUOUS
 62
     7
 10
2751.6744348607031
 20
16800.18559056097
 30
0.0
 40
160.0
  1
桁（PU）+ 桁補強（PU）
 72
     4
 11
3903.674434860704
 21
16880.18559056097
 31
0.0
  0
LINE
  5
1576F
  8
0-6
  6
CONTINUOUS
 62
     6
 10
5177.2103499031937
 20
16720.18532656099
 30
0.0
 11
6838.5155907836552
 21
16294.255437199679
 31
0.0
  0
LINE
  5
15770
  8
0-6
  6
CONTINUOUS
 62
     6
 10
6838.5155907836552
 20
16294.255437199679
 30
0.0
 11
7215.4580542791964
 21
16796.455421422019
 31
0.0
  0
LINE
  5
15771
  8
0-6
  6
CONTINUOUS
 62
     6
 10
2647.4026630134772
 20
19248.68683056088
 30
0.0
 11
5177.2103499031973
 21
19248.68683056088
 31
0.0
  0
TEXT
  5
15772
  8
0-6
  6
CONTINUOUS
 62
     7
 10
2751.6744348607031
 20
19328.687094560861
 30
0.0
 40
160.0
  1
桁（PU）+ 桁補強（PU）
 72
     4
 11
3903.674434860704
 21
19408.687094560861
 31
0.0
  0
LINE
  5
15773
  8
0-6
  6
CONTINUOUS
 62
     6
 10
5177.2103499031973
 20
19248.68683056088
 30
0.0
 11
6838.5155907836561
 21
18822.756941199561
 31
0.0
  0
LINE
  5
15774
  8
0-6
  6
CONTINUOUS
 62
     6
 10
6838.5155907836561
 20
18822.756941199561
 30
0.0
 11
7215.4580542791964
 21
19324.95692542191
 31
0.0
  0
TEXT
  5
15775
  8
0-6
  6
CONTINUOUS
 62
     7
 10
4763.4058188055678
 20
15000.318291948
 30
0.0
 40
160.0
  1
梁（P）前
 72
     4
 11
5206.0724854722357
 21
15080.318291948
 31
0.0
  0
LINE
  5
15776
  8
0-6
  6
CONTINUOUS
 62
     6
 10
4699.2081306235268
 20
14920.319017948001
 30
0.0
 11
5714.1982999483753
 21
14920.319017948001
 31
0.0
  0
LINE
  5
15779
  8
WAKUSEN-01
 10
868.00000000000193
 20
22484.000000000011
 30
0.0
 11
32764.000000000011
 21
22484.000000000011
 31
0.0
  0
LINE
  5
1577C
  8
WAKUSEN-01
 10
20560.0
 20
2484.0
 30
0.0
 11
32764.0
 21
2484.0
 31
0.0
  0
LINE
  5
1577D
  8
WAKUSEN-02
 10
20560.0
 20
1655.9999999999991
 30
0.0
 11
26868.0
 21
1655.9999999999991
 31
0.0
  0
TEXT
  5
1577E
  8
WAKUMOJI-01
 10
20670.260259962761
 20
2125.9030093393221
 30
0.0
 40
240.0
  1
名　称
  7
WAKUMOJI
  0
TEXT
  5
1577F
  8
WAKUMOJI-01
 10
20656.505485091919
 20
1319.12897497982
 30
0.0
 40
240.0
  1
機種名
  7
WAKUMOJI
  0
LINE
  5
15782
  8
YODOROGO
 10
29977.604341291921
 20
1995.7494964292871
 30
0.0
 11
29829.604341291921
 21
1995.7494964292871
 31
0.0
1001
AUTOCAD_POSTSCRIPT_FIGURE
1002
{
1000
PSFILL
1000
Grayscale
1000
Grayscale
1070
    25
1002
}
  0
LINE
  5
15783
  8
YODOROGO
 10
29829.604341291921
 20
1947.749496429288
 30
0.0
 11
29977.604341291921
 21
1947.749496429288
 31
0.0
1001
AUTOCAD_POSTSCRIPT_FIGURE
1002
{
1000
PSFILL
1000
Grayscale
1000
Grayscale
1070
    25
1002
}
  0
LINE
  5
15784
  8
YODOROGO
 10
29977.604341291921
 20
1907.7494964292871
 30
0.0
 11
29829.604341291921
 21
1907.7494964292871
 31
0.0
1001
AUTOCAD_POSTSCRIPT_FIGURE
1002
{
1000
PSFILL
1000
Grayscale
1000
Grayscale
1070
    25
1002
}
  0
LINE
  5
15785
  8
YODOROGO
 10
29829.604341291921
 20
1859.749496429288
 30
0.0
 11
29977.604341291921
 21
1859.749496429288
 31
0.0
1001
AUTOCAD_POSTSCRIPT_FIGURE
1002
{
1000
PSFILL
1000
Grayscale
1000
Grayscale
1070
    25
1002
}
  0
LINE
  5
15786
  8
YODOROGO
 10
29977.604341291921
 20
1819.7494964292871
 30
0.0
 11
29829.604341291921
 21
1819.7494964292871
 31
0.0
1001
AUTOCAD_POSTSCRIPT_FIGURE
1002
{
1000
PSFILL
1000
Grayscale
1000
Grayscale
1070
    25
1002
}
  0
LINE
  5
15787
  8
YODOROGO
 10
29921.60434129191
 20
1707.749496429288
 30
0.0
 11
29977.604341291921
 21
1707.749496429288
 31
0.0
1001
AUTOCAD_POSTSCRIPT_FIGURE
1002
{
1000
PSFILL
1000
Grayscale
1000
Grayscale
1070
    25
1002
}
  0
LINE
  5
15788
  8
YODOROGO
 10
29737.604341291921
 20
1427.749496429288
 30
0.0
 11
29937.604341291932
 21
1481.3393349155101
 31
0.0
  0
LINE
  5
15789
  8
YODOROGO
 10
29949.60434129191
 20
1707.749496429288
 30
0.0
 11
29885.604341291921
 21
1707.749496429288
 31
0.0
  0
ARC
  5
1578A
  8
YODOROGO
 10
30254.34774982791
 20
1807.864609233261
 30
0.0
 40
381.88686420564721
 50
213.96111677667841
 51
264.47872074317792
  0
ARC
  5
1578B
  8
YODOROGO
 10
30254.347749827921
 20
1807.864609233302
 30
0.0
 40
381.8868642056816
 50
208.14114420486601
 51
212.9210361185994
  0
LINE
  5
1578C
  8
YODOROGO
 10
29771.409872985321
 20
1556.807661346234
 30
0.0
 11
29933.78413250855
 21
1600.3157130570869
 31
0.0
  0
LINE
  5
1578D
  8
YODOROGO
 10
29737.604341291921
 20
1427.749496429288
 30
0.0
 11
29937.604341291932
 21
1481.3393349155101
 31
0.0
  0
LINE
  5
1578E
  8
YODOROGO
 10
29949.60434129191
 20
1707.749496429288
 30
0.0
 11
29885.604341291921
 21
1707.749496429288
 31
0.0
  0
ARC
  5
1578F
  8
YODOROGO
 10
30254.34774982791
 20
1807.864609233261
 30
0.0
 40
381.88686420564721
 50
213.96111677667841
 51
264.47872074317792
  0
LINE
  5
15790
  8
YODOROGO
 10
28793.60434129191
 20
1819.7494964292871
 30
0.0
 11
28433.60434129191
 21
1819.7494964292871
 31
0.0
  0
LINE
  5
15791
  8
YODOROGO
 10
28513.60434129191
 20
1427.749496429288
 30
0.0
 11
28793.60434129191
 21
1427.749496429288
 31
0.0
  0
LINE
  5
15792
  8
YODOROGO
 10
28729.604341291921
 20
1923.7494964292871
 30
0.0
 11
28497.60434129191
 21
1923.7494964292871
 31
0.0
  0
LINE
  5
15793
  8
YODOROGO
 10
28585.604341291921
 20
2027.749496429288
 30
0.0
 11
28657.604341291921
 21
2027.749496429288
 31
0.0
  0
LINE
  5
15794
  8
YODOROGO
 10
28433.60434129191
 20
1707.749496429288
 30
0.0
 11
28433.60434129191
 21
1507.749496429288
 31
0.0
  0
LINE
  5
15795
  8
YODOROGO
 10
28497.60434129191
 20
1563.7494964292871
 30
0.0
 11
28497.60434129191
 21
1707.749496429288
 31
0.0
  0
LINE
  5
15796
  8
YODOROGO
 10
28585.604341291921
 20
1747.74949642929
 30
0.0
 11
28585.604341291921
 21
1547.749496429288
 31
0.0
  0
LINE
  5
15797
  8
YODOROGO
 10
27857.604341291921
 20
1683.749496429288
 30
0.0
 11
27777.604341291921
 21
1619.9724140445701
 31
0.0
  0
LINE
  5
15798
  8
YODOROGO
 10
27937.604341291921
 20
1619.9724140445701
 30
0.0
 11
27857.604341291921
 21
1683.749496429288
 31
0.0
  0
LINE
  5
15799
  8
YODOROGO
 10
27857.604341291921
 20
1707.749496429288
 30
0.0
 11
27937.604341291921
 21
1643.9724140445701
 31
0.0
  0
LINE
  5
1579A
  8
YODOROGO
 10
27777.604341291921
 20
1643.9724140445701
 30
0.0
 11
27857.604341291921
 21
1707.749496429288
 31
0.0
  0
LINE
  5
1579B
  8
YODOROGO
 10
28040.913204016892
 20
1659.749496429288
 30
0.0
 11
28040.913204016892
 21
1683.7494964292871
 31
0.0
  0
LINE
  5
1579C
  8
YODOROGO
 10
27977.604341291921
 20
1683.7494964292871
 30
0.0
 11
27977.604341291921
 21
1667.749496429285
 31
0.0
  0
LINE
  5
1579D
  8
YODOROGO
 10
28098.135520230931
 20
1707.749496429288
 30
0.0
 11
28098.135520230931
 21
1655.5036372746561
 31
0.0
1001
AUTOCAD_POSTSCRIPT_FIGURE
1002
{
1000
PSFILL
1000
Grayscale
1000
Grayscale
1070
   100
1002
}
  0
LINE
  5
1579E
  8
YODOROGO
 10
28082.135520230921
 20
1655.5036372746561
 30
0.0
 11
28082.135520230921
 21
1707.749496429288
 31
0.0
1001
AUTOCAD_POSTSCRIPT_FIGURE
1002
{
1000
PSFILL
1000
Grayscale
1000
Grayscale
1070
   100
1002
}
  0
LINE
  5
1579F
  8
YODOROGO
 10
27809.604341291921
 20
1608.771904043258
 30
0.0
 11
27809.604341291921
 21
1632.771904043258
 31
0.0
  0
LINE
  5
157A0
  8
YODOROGO
 10
27905.604341291921
 20
1608.771904043258
 30
0.0
 11
27809.604341291921
 21
1608.771904043258
 31
0.0
  0
LINE
  5
157A1
  8
YODOROGO
 10
27905.604341291921
 20
1632.771904043258
 30
0.0
 11
27905.604341291921
 21
1608.771904043258
 31
0.0
  0
LINE
  5
157A2
  8
YODOROGO
 10
27809.604341291921
 20
1632.771904043258
 30
0.0
 11
27905.604341291921
 21
1632.771904043258
 31
0.0
  0
LINE
  5
157A3
  8
YODOROGO
 10
27824.509588915738
 20
1568.5028573704751
 30
0.0
 11
27785.604341291921
 21
1475.7494964292871
 31
0.0
1001
AUTOCAD_POSTSCRIPT_FIGURE
1002
{
1000
PSFILL
1000
Grayscale
1000
Grayscale
1070
   100
1002
}
  0
LINE
  5
157A4
  8
YODOROGO
 10
27777.604341291921
 20
1568.5028573704751
 30
0.0
 11
27824.509588915738
 21
1568.5028573704751
 31
0.0
1001
AUTOCAD_POSTSCRIPT_FIGURE
1002
{
1000
PSFILL
1000
Grayscale
1000
Grayscale
1070
   100
1002
}
  0
LINE
  5
157A5
  8
YODOROGO
 10
27777.604341291921
 20
1588.5028573704751
 30
0.0
 11
27777.604341291921
 21
1568.5028573704751
 31
0.0
1001
AUTOCAD_POSTSCRIPT_FIGURE
1002
{
1000
PSFILL
1000
Grayscale
1000
Grayscale
1070
   100
1002
}
  0
LINE
  5
157A6
  8
YODOROGO
 10
27937.604341291921
 20
1588.5028573704751
 30
0.0
 11
27777.604341291921
 21
1588.5028573704751
 31
0.0
1001
AUTOCAD_POSTSCRIPT_FIGURE
1002
{
1000
PSFILL
1000
Grayscale
1000
Grayscale
1070
   100
1002
}
  0
LINE
  5
157A7
  8
YODOROGO
 10
27937.604341291921
 20
1568.5028573704751
 30
0.0
 11
27937.604341291921
 21
1588.5028573704751
 31
0.0
1001
AUTOCAD_POSTSCRIPT_FIGURE
1002
{
1000
PSFILL
1000
Grayscale
1000
Grayscale
1070
   100
1002
}
  0
LINE
  5
157A8
  8
YODOROGO
 10
27844.509588915738
 20
1568.5028573704751
 30
0.0
 11
27937.604341291921
 21
1568.5028573704751
 31
0.0
1001
AUTOCAD_POSTSCRIPT_FIGURE
1002
{
1000
PSFILL
1000
Grayscale
1000
Grayscale
1070
   100
1002
}
  0
LINE
  5
157A9
  8
YODOROGO
 10
27815.546718284771
 20
1495.7494964292871
 30
0.0
 11
27844.509588915738
 21
1568.5028573704751
 31
0.0
1001
AUTOCAD_POSTSCRIPT_FIGURE
1002
{
1000
PSFILL
1000
Grayscale
1000
Grayscale
1070
   100
1002
}
  0
LINE
  5
157AA
  8
YODOROGO
 10
27902.054790808648
 20
1495.7494964292871
 30
0.0
 11
27815.546718284771
 21
1495.7494964292871
 31
0.0
1001
AUTOCAD_POSTSCRIPT_FIGURE
1002
{
1000
PSFILL
1000
Grayscale
1000
Grayscale
1070
   100
1002
}
  0
LINE
  5
157AB
  8
YODOROGO
 10
27885.065004790951
 20
1536.2338106976929
 30
0.0
 11
27902.054790808648
 21
1495.7494964292871
 31
0.0
1001
AUTOCAD_POSTSCRIPT_FIGURE
1002
{
1000
PSFILL
1000
Grayscale
1000
Grayscale
1070
   100
1002
}
  0
LINE
  5
157AC
  8
YODOROGO
 10
27901.065004790951
 20
1536.2338106976929
 30
0.0
 11
27885.065004790951
 21
1536.2338106976929
 31
0.0
1001
AUTOCAD_POSTSCRIPT_FIGURE
1002
{
1000
PSFILL
1000
Grayscale
1000
Grayscale
1070
   100
1002
}
  0
LINE
  5
157AD
  8
YODOROGO
 10
27929.604341291921
 20
1475.7494964292871
 30
0.0
 11
27901.065004790951
 21
1536.2338106976929
 31
0.0
1001
AUTOCAD_POSTSCRIPT_FIGURE
1002
{
1000
PSFILL
1000
Grayscale
1000
Grayscale
1070
   100
1002
}
  0
LINE
  5
157AE
  8
YODOROGO
 10
27785.604341291921
 20
1475.7494964292871
 30
0.0
 11
27929.604341291921
 21
1475.7494964292871
 31
0.0
1001
AUTOCAD_POSTSCRIPT_FIGURE
1002
{
1000
PSFILL
1000
Grayscale
1000
Grayscale
1070
   100
1002
}
  0
LINE
  5
157AF
  8
YODOROGO
 10
27777.604341291921
 20
1619.9724140445701
 30
0.0
 11
27777.604341291921
 21
1643.9724140445701
 31
0.0
  0
LINE
  5
157B0
  8
YODOROGO
 10
27937.604341291921
 20
1643.9724140445701
 30
0.0
 11
27937.604341291921
 21
1619.9724140445701
 31
0.0
  0
ARC
  5
157B1
  8
YODOROGO
 10
28225.940442146959
 20
1600.877765325326
 30
0.0
 40
175.9999999999998
 50
280.3644312771313
 51
3.5414836592180561
  0
ARC
  5
157B2
  8
YODOROGO
 10
28235.756030759301
 20
1633.5978069619041
 30
0.0
 40
111.9999999999982
 50
281.24905825041549
 51
348.75094174958321
  0
LINE
  5
157B3
  8
YODOROGO
 10
28257.604341291921
 20
1523.7494964292871
 30
0.0
 11
28257.604341291921
 21
1427.749496429288
 31
0.0
  0
LINE
  5
157B4
  8
YODOROGO
 10
28020.088903736909
 20
1610.650565061914
 30
0.0
 11
28040.913204016892
 21
1659.749496429288
 31
0.0
  0
LINE
  5
157B5
  8
YODOROGO
 10
28041.604341291921
 20
1583.120489948401
 30
0.0
 11
28020.088903736909
 21
1610.650565061914
 31
0.0
  0
LINE
  5
157B6
  8
YODOROGO
 10
28041.604341291921
 20
1563.120489948398
 30
0.0
 11
28041.604341291921
 21
1583.120489948401
 31
0.0
  0
LINE
  5
157B7
  8
YODOROGO
 10
28017.604341291921
 20
1585.2370637495301
 30
0.0
 11
28041.604341291921
 21
1563.120489948398
 31
0.0
  0
LINE
  5
157B8
  8
YODOROGO
 10
28017.604341291921
 20
1475.7494964292871
 30
0.0
 11
28017.604341291921
 21
1585.2370637495301
 31
0.0
  0
LINE
  5
157B9
  8
YODOROGO
 10
28001.604341291921
 20
1475.7494964292871
 30
0.0
 11
28017.604341291921
 21
1475.7494964292871
 31
0.0
  0
LINE
  5
157BA
  8
YODOROGO
 10
28001.604341291921
 20
1580.0053496897469
 30
0.0
 11
28001.604341291921
 21
1475.7494964292871
 31
0.0
  0
LINE
  5
157BB
  8
YODOROGO
 10
27977.604341291921
 20
1532.7680790334291
 30
0.0
 11
28001.604341291921
 21
1580.0053496897469
 31
0.0
  0
LINE
  5
157BC
  8
YODOROGO
 10
27977.604341291921
 20
1556.76807903343
 30
0.0
 11
27977.604341291921
 21
1532.7680790334291
 31
0.0
  0
LINE
  5
157BD
  8
YODOROGO
 10
28025.828774291349
 20
1667.749496429285
 30
0.0
 11
27977.604341291921
 21
1556.76807903343
 31
0.0
  0
LINE
  5
157BE
  8
YODOROGO
 10
27977.604341291921
 20
1667.749496429285
 30
0.0
 11
28025.828774291349
 21
1667.749496429285
 31
0.0
  0
LINE
  5
157BF
  8
YODOROGO
 10
28050.135520230899
 20
1655.5036372746561
 30
0.0
 11
28082.135520230921
 21
1655.5036372746561
 31
0.0
1001
AUTOCAD_POSTSCRIPT_FIGURE
1002
{
1000
PSFILL
1000
Grayscale
1000
Grayscale
1070
   100
1002
}
  0
LINE
  5
157C0
  8
YODOROGO
 10
28050.135520230899
 20
1631.5036372746561
 30
0.0
 11
28050.135520230899
 21
1655.5036372746561
 31
0.0
1001
AUTOCAD_POSTSCRIPT_FIGURE
1002
{
1000
PSFILL
1000
Grayscale
1000
Grayscale
1070
   100
1002
}
  0
LINE
  5
157C1
  8
YODOROGO
 10
28082.135520230921
 20
1631.5036372746561
 30
0.0
 11
28050.135520230899
 21
1631.5036372746561
 31
0.0
1001
AUTOCAD_POSTSCRIPT_FIGURE
1002
{
1000
PSFILL
1000
Grayscale
1000
Grayscale
1070
   100
1002
}
  0
LINE
  5
157C2
  8
YODOROGO
 10
28082.135520230921
 20
1499.749496429288
 30
0.0
 11
28082.135520230921
 21
1631.5036372746561
 31
0.0
1001
AUTOCAD_POSTSCRIPT_FIGURE
1002
{
1000
PSFILL
1000
Grayscale
1000
Grayscale
1070
   100
1002
}
  0
LINE
  5
157C3
  8
YODOROGO
 10
28050.135520230921
 20
1499.749496429288
 30
0.0
 11
28082.135520230921
 21
1499.749496429288
 31
0.0
1001
AUTOCAD_POSTSCRIPT_FIGURE
1002
{
1000
PSFILL
1000
Grayscale
1000
Grayscale
1070
   100
1002
}
  0
LINE
  5
157C4
  8
YODOROGO
 10
28050.135520230921
 20
1475.7494964292871
 30
0.0
 11
28050.135520230921
 21
1499.749496429288
 31
0.0
1001
AUTOCAD_POSTSCRIPT_FIGURE
1002
{
1000
PSFILL
1000
Grayscale
1000
Grayscale
1070
   100
1002
}
  0
LINE
  5
157C5
  8
YODOROGO
 10
28137.604341291921
 20
1475.7494964292871
 30
0.0
 11
28050.135520230921
 21
1475.7494964292871
 31
0.0
1001
AUTOCAD_POSTSCRIPT_FIGURE
1002
{
1000
PSFILL
1000
Grayscale
1000
Grayscale
1070
   100
1002
}
  0
LINE
  5
157C6
  8
YODOROGO
 10
28137.604341291921
 20
1499.749496429288
 30
0.0
 11
28137.604341291921
 21
1475.7494964292871
 31
0.0
1001
AUTOCAD_POSTSCRIPT_FIGURE
1002
{
1000
PSFILL
1000
Grayscale
1000
Grayscale
1070
   100
1002
}
  0
LINE
  5
157C7
  8
YODOROGO
 10
28098.135520230931
 20
1499.749496429288
 30
0.0
 11
28137.604341291921
 21
1499.749496429288
 31
0.0
1001
AUTOCAD_POSTSCRIPT_FIGURE
1002
{
1000
PSFILL
1000
Grayscale
1000
Grayscale
1070
   100
1002
}
  0
LINE
  5
157C8
  8
YODOROGO
 10
28098.135520230931
 20
1631.5036372746561
 30
0.0
 11
28098.135520230931
 21
1499.749496429288
 31
0.0
1001
AUTOCAD_POSTSCRIPT_FIGURE
1002
{
1000
PSFILL
1000
Grayscale
1000
Grayscale
1070
   100
1002
}
  0
LINE
  5
157C9
  8
YODOROGO
 10
28137.604341291921
 20
1631.5036372746561
 30
0.0
 11
28098.135520230931
 21
1631.5036372746561
 31
0.0
1001
AUTOCAD_POSTSCRIPT_FIGURE
1002
{
1000
PSFILL
1000
Grayscale
1000
Grayscale
1070
   100
1002
}
  0
LINE
  5
157CA
  8
YODOROGO
 10
28137.604341291921
 20
1655.5036372746561
 30
0.0
 11
28137.604341291921
 21
1631.5036372746561
 31
0.0
1001
AUTOCAD_POSTSCRIPT_FIGURE
1002
{
1000
PSFILL
1000
Grayscale
1000
Grayscale
1070
   100
1002
}
  0
LINE
  5
157CB
  8
YODOROGO
 10
28098.135520230931
 20
1655.5036372746561
 30
0.0
 11
28137.604341291921
 21
1655.5036372746561
 31
0.0
1001
AUTOCAD_POSTSCRIPT_FIGURE
1002
{
1000
PSFILL
1000
Grayscale
1000
Grayscale
1070
   100
1002
}
  0
LINE
  5
157CC
  8
YODOROGO
 10
28401.60434129191
 20
1667.749496429288
 30
0.0
 11
28345.604341291921
 21
1667.749496429288
 31
0.0
  0
LINE
  5
157CD
  8
YODOROGO
 10
28401.60434129191
 20
1611.749496429288
 30
0.0
 11
28401.60434129191
 21
1667.749496429288
 31
0.0
  0
LINE
  5
157CE
  8
YODOROGO
 10
28345.604341291921
 20
1667.749496429288
 30
0.0
 11
28345.604341291921
 21
1611.749496429288
 31
0.0
  0
ARC
  5
157CF
  8
YODOROGO
 10
28513.60434129191
 20
1507.749496429288
 30
0.0
 40
80.0
 50
180.0
 51
270.0
  0
ARC
  5
157D0
  8
YODOROGO
 10
28537.604341291921
 20
1563.7494964292871
 30
0.0
 40
40.0
 50
180.0
 51
270.0
  0
LINE
  5
157D1
  8
YODOROGO
 10
28561.604341291932
 20
1523.7494964292871
 30
0.0
 11
28537.604341291921
 21
1523.7494964292871
 31
0.0
  0
ARC
  5
157D2
  8
YODOROGO
 10
28561.604341291932
 20
1547.749496429285
 30
0.0
 40
23.999999999996358
 50
270.0
 51
0.0000000000054281
  0
LINE
  5
157D3
  8
YODOROGO
 10
27801.604341291921
 20
1890.786580793706
 30
0.0
 11
27777.604341291921
 21
1843.776747951672
 31
0.0
1001
AUTOCAD_POSTSCRIPT_FIGURE
1002
{
1000
PSFILL
1000
Grayscale
1000
Grayscale
1070
   100
1002
}
  0
LINE
  5
157D4
  8
YODOROGO
 10
27801.604341291921
 20
1747.749496429286
 30
0.0
 11
27801.604341291921
 21
1890.786580793706
 31
0.0
1001
AUTOCAD_POSTSCRIPT_FIGURE
1002
{
1000
PSFILL
1000
Grayscale
1000
Grayscale
1070
   100
1002
}
  0
LINE
  5
157D5
  8
YODOROGO
 10
27817.604341291921
 20
1747.749496429286
 30
0.0
 11
27801.604341291921
 21
1747.749496429286
 31
0.0
1001
AUTOCAD_POSTSCRIPT_FIGURE
1002
{
1000
PSFILL
1000
Grayscale
1000
Grayscale
1070
   100
1002
}
  0
LINE
  5
157D6
  8
YODOROGO
 10
27817.604341291921
 20
1893.7713320852661
 30
0.0
 11
27817.604341291921
 21
1747.749496429286
 31
0.0
1001
AUTOCAD_POSTSCRIPT_FIGURE
1002
{
1000
PSFILL
1000
Grayscale
1000
Grayscale
1070
   100
1002
}
  0
LINE
  5
157D7
  8
YODOROGO
 10
27841.604341291921
 20
1867.6547582841361
 30
0.0
 11
27817.604341291921
 21
1893.7713320852661
 31
0.0
1001
AUTOCAD_POSTSCRIPT_FIGURE
1002
{
1000
PSFILL
1000
Grayscale
1000
Grayscale
1070
   100
1002
}
  0
LINE
  5
157D8
  8
YODOROGO
 10
27841.604341291921
 20
1883.6547582841361
 30
0.0
 11
27841.604341291921
 21
1867.6547582841361
 31
0.0
1001
AUTOCAD_POSTSCRIPT_FIGURE
1002
{
1000
PSFILL
1000
Grayscale
1000
Grayscale
1070
   100
1002
}
  0
LINE
  5
157D9
  8
YODOROGO
 10
27817.604341291921
 20
1917.7713320852649
 30
0.0
 11
27841.604341291921
 21
1883.6547582841361
 31
0.0
1001
AUTOCAD_POSTSCRIPT_FIGURE
1002
{
1000
PSFILL
1000
Grayscale
1000
Grayscale
1070
   100
1002
}
  0
LINE
  5
157DA
  8
YODOROGO
 10
27817.604341291921
 20
1939.749496429288
 30
0.0
 11
27817.604341291921
 21
1917.7713320852649
 31
0.0
1001
AUTOCAD_POSTSCRIPT_FIGURE
1002
{
1000
PSFILL
1000
Grayscale
1000
Grayscale
1070
   100
1002
}
  0
LINE
  5
157DB
  8
YODOROGO
 10
27889.604341291921
 20
1939.749496429288
 30
0.0
 11
27817.604341291921
 21
1939.749496429288
 31
0.0
1001
AUTOCAD_POSTSCRIPT_FIGURE
1002
{
1000
PSFILL
1000
Grayscale
1000
Grayscale
1070
   100
1002
}
  0
LINE
  5
157DC
  8
YODOROGO
 10
27889.604341291921
 20
1900.5683489363
 30
0.0
 11
27889.604341291921
 21
1939.749496429288
 31
0.0
1001
AUTOCAD_POSTSCRIPT_FIGURE
1002
{
1000
PSFILL
1000
Grayscale
1000
Grayscale
1070
   100
1002
}
  0
LINE
  5
157DD
  8
YODOROGO
 10
27857.604341291921
 20
1900.5683489363
 30
0.0
 11
27889.604341291921
 21
1900.5683489363
 31
0.0
1001
AUTOCAD_POSTSCRIPT_FIGURE
1002
{
1000
PSFILL
1000
Grayscale
1000
Grayscale
1070
   100
1002
}
  0
LINE
  5
157DE
  8
YODOROGO
 10
27857.604341291921
 20
1884.568348936298
 30
0.0
 11
27857.604341291921
 21
1900.5683489363
 31
0.0
1001
AUTOCAD_POSTSCRIPT_FIGURE
1002
{
1000
PSFILL
1000
Grayscale
1000
Grayscale
1070
   100
1002
}
  0
LINE
  5
157DF
  8
YODOROGO
 10
27889.604341291921
 20
1884.568348936298
 30
0.0
 11
27857.604341291921
 21
1884.568348936298
 31
0.0
1001
AUTOCAD_POSTSCRIPT_FIGURE
1002
{
1000
PSFILL
1000
Grayscale
1000
Grayscale
1070
   100
1002
}
  0
LINE
  5
157E0
  8
YODOROGO
 10
27889.604341291921
 20
1879.6191779644371
 30
0.0
 11
27889.604341291921
 21
1884.568348936298
 31
0.0
1001
AUTOCAD_POSTSCRIPT_FIGURE
1002
{
1000
PSFILL
1000
Grayscale
1000
Grayscale
1070
   100
1002
}
  0
LINE
  5
157E1
  8
YODOROGO
 10
27849.604341291921
 20
1812.974981161417
 30
0.0
 11
27889.604341291921
 21
1879.6191779644371
 31
0.0
1001
AUTOCAD_POSTSCRIPT_FIGURE
1002
{
1000
PSFILL
1000
Grayscale
1000
Grayscale
1070
   100
1002
}
  0
LINE
  5
157E2
  8
YODOROGO
 10
27849.604341291921
 20
1796.9749811614161
 30
0.0
 11
27849.604341291921
 21
1812.974981161417
 31
0.0
1001
AUTOCAD_POSTSCRIPT_FIGURE
1002
{
1000
PSFILL
1000
Grayscale
1000
Grayscale
1070
   100
1002
}
  0
LINE
  5
157E3
  8
YODOROGO
 10
27889.604341291921
 20
1847.6191779644359
 30
0.0
 11
27849.604341291921
 21
1796.9749811614161
 31
0.0
1001
AUTOCAD_POSTSCRIPT_FIGURE
1002
{
1000
PSFILL
1000
Grayscale
1000
Grayscale
1070
   100
1002
}
  0
LINE
  5
157E4
  8
YODOROGO
 10
27889.604341291921
 20
1747.749496429286
 30
0.0
 11
27889.604341291921
 21
1847.6191779644359
 31
0.0
1001
AUTOCAD_POSTSCRIPT_FIGURE
1002
{
1000
PSFILL
1000
Grayscale
1000
Grayscale
1070
   100
1002
}
  0
LINE
  5
157E5
  8
YODOROGO
 10
27905.604341291921
 20
1747.749496429286
 30
0.0
 11
27889.604341291921
 21
1747.749496429286
 31
0.0
1001
AUTOCAD_POSTSCRIPT_FIGURE
1002
{
1000
PSFILL
1000
Grayscale
1000
Grayscale
1070
   100
1002
}
  0
LINE
  5
157E6
  8
YODOROGO
 10
27905.604341291921
 20
1849.409012158806
 30
0.0
 11
27905.604341291921
 21
1747.749496429286
 31
0.0
1001
AUTOCAD_POSTSCRIPT_FIGURE
1002
{
1000
PSFILL
1000
Grayscale
1000
Grayscale
1070
   100
1002
}
  0
LINE
  5
157E7
  8
YODOROGO
 10
27937.604341291921
 20
1796.9749811614161
 30
0.0
 11
27905.604341291921
 21
1849.409012158806
 31
0.0
1001
AUTOCAD_POSTSCRIPT_FIGURE
1002
{
1000
PSFILL
1000
Grayscale
1000
Grayscale
1070
   100
1002
}
  0
LINE
  5
157E8
  8
YODOROGO
 10
27937.604341291921
 20
1812.974981161417
 30
0.0
 11
27937.604341291921
 21
1796.9749811614161
 31
0.0
1001
AUTOCAD_POSTSCRIPT_FIGURE
1002
{
1000
PSFILL
1000
Grayscale
1000
Grayscale
1070
   100
1002
}
  0
LINE
  5
157E9
  8
YODOROGO
 10
27905.604341291921
 20
1881.4090121588081
 30
0.0
 11
27937.604341291921
 21
1812.974981161417
 31
0.0
1001
AUTOCAD_POSTSCRIPT_FIGURE
1002
{
1000
PSFILL
1000
Grayscale
1000
Grayscale
1070
   100
1002
}
  0
LINE
  5
157EA
  8
YODOROGO
 10
27905.604341291921
 20
1884.5683489363
 30
0.0
 11
27905.604341291921
 21
1881.4090121588081
 31
0.0
1001
AUTOCAD_POSTSCRIPT_FIGURE
1002
{
1000
PSFILL
1000
Grayscale
1000
Grayscale
1070
   100
1002
}
  0
LINE
  5
157EB
  8
YODOROGO
 10
27937.604341291921
 20
1884.568348936298
 30
0.0
 11
27905.604341291921
 21
1884.5683489363
 31
0.0
1001
AUTOCAD_POSTSCRIPT_FIGURE
1002
{
1000
PSFILL
1000
Grayscale
1000
Grayscale
1070
   100
1002
}
  0
LINE
  5
157EC
  8
YODOROGO
 10
27937.604341291921
 20
1900.5683489363
 30
0.0
 11
27937.604341291921
 21
1884.568348936298
 31
0.0
1001
AUTOCAD_POSTSCRIPT_FIGURE
1002
{
1000
PSFILL
1000
Grayscale
1000
Grayscale
1070
   100
1002
}
  0
LINE
  5
157ED
  8
YODOROGO
 10
27905.604341291921
 20
1900.5683489363
 30
0.0
 11
27937.604341291921
 21
1900.5683489363
 31
0.0
1001
AUTOCAD_POSTSCRIPT_FIGURE
1002
{
1000
PSFILL
1000
Grayscale
1000
Grayscale
1070
   100
1002
}
  0
LINE
  5
157EE
  8
YODOROGO
 10
27905.604341291921
 20
1939.749496429288
 30
0.0
 11
27905.604341291921
 21
1900.5683489363
 31
0.0
1001
AUTOCAD_POSTSCRIPT_FIGURE
1002
{
1000
PSFILL
1000
Grayscale
1000
Grayscale
1070
   100
1002
}
  0
LINE
  5
157EF
  8
YODOROGO
 10
27937.604341291921
 20
1939.749496429288
 30
0.0
 11
27905.604341291921
 21
1939.749496429288
 31
0.0
1001
AUTOCAD_POSTSCRIPT_FIGURE
1002
{
1000
PSFILL
1000
Grayscale
1000
Grayscale
1070
   100
1002
}
  0
LINE
  5
157F0
  8
YODOROGO
 10
27937.604341291921
 20
1955.7494964292871
 30
0.0
 11
27937.604341291921
 21
1939.749496429288
 31
0.0
1001
AUTOCAD_POSTSCRIPT_FIGURE
1002
{
1000
PSFILL
1000
Grayscale
1000
Grayscale
1070
   100
1002
}
  0
LINE
  5
157F1
  8
YODOROGO
 10
27905.604341291921
 20
1955.7494964292871
 30
0.0
 11
27937.604341291921
 21
1955.7494964292871
 31
0.0
1001
AUTOCAD_POSTSCRIPT_FIGURE
1002
{
1000
PSFILL
1000
Grayscale
1000
Grayscale
1070
   100
1002
}
  0
LINE
  5
157F2
  8
YODOROGO
 10
27905.604341291921
 20
1979.749496429288
 30
0.0
 11
27905.604341291921
 21
1955.7494964292871
 31
0.0
1001
AUTOCAD_POSTSCRIPT_FIGURE
1002
{
1000
PSFILL
1000
Grayscale
1000
Grayscale
1070
   100
1002
}
  0
LINE
  5
157F3
  8
YODOROGO
 10
27889.604341291921
 20
1979.749496429288
 30
0.0
 11
27905.604341291921
 21
1979.749496429288
 31
0.0
1001
AUTOCAD_POSTSCRIPT_FIGURE
1002
{
1000
PSFILL
1000
Grayscale
1000
Grayscale
1070
   100
1002
}
  0
LINE
  5
157F4
  8
YODOROGO
 10
27889.604341291921
 20
1955.7494964292871
 30
0.0
 11
27889.604341291921
 21
1979.749496429288
 31
0.0
1001
AUTOCAD_POSTSCRIPT_FIGURE
1002
{
1000
PSFILL
1000
Grayscale
1000
Grayscale
1070
   100
1002
}
  0
LINE
  5
157F5
  8
YODOROGO
 10
27865.604341291921
 20
1955.7494964292871
 30
0.0
 11
27889.604341291921
 21
1955.7494964292871
 31
0.0
1001
AUTOCAD_POSTSCRIPT_FIGURE
1002
{
1000
PSFILL
1000
Grayscale
1000
Grayscale
1070
   100
1002
}
  0
LINE
  5
157F6
  8
YODOROGO
 10
27865.604341291921
 20
1979.749496429288
 30
0.0
 11
27865.604341291921
 21
1955.7494964292871
 31
0.0
1001
AUTOCAD_POSTSCRIPT_FIGURE
1002
{
1000
PSFILL
1000
Grayscale
1000
Grayscale
1070
   100
1002
}
  0
LINE
  5
157F7
  8
YODOROGO
 10
27849.604341291921
 20
1979.749496429288
 30
0.0
 11
27865.604341291921
 21
1979.749496429288
 31
0.0
1001
AUTOCAD_POSTSCRIPT_FIGURE
1002
{
1000
PSFILL
1000
Grayscale
1000
Grayscale
1070
   100
1002
}
  0
LINE
  5
157F8
  8
YODOROGO
 10
27849.604341291921
 20
1955.7494964292871
 30
0.0
 11
27849.604341291921
 21
1979.749496429288
 31
0.0
1001
AUTOCAD_POSTSCRIPT_FIGURE
1002
{
1000
PSFILL
1000
Grayscale
1000
Grayscale
1070
   100
1002
}
  0
LINE
  5
157F9
  8
YODOROGO
 10
27817.604341291921
 20
1955.7494964292871
 30
0.0
 11
27849.604341291921
 21
1955.7494964292871
 31
0.0
1001
AUTOCAD_POSTSCRIPT_FIGURE
1002
{
1000
PSFILL
1000
Grayscale
1000
Grayscale
1070
   100
1002
}
  0
LINE
  5
157FA
  8
YODOROGO
 10
27817.604341291921
 20
1979.749496429288
 30
0.0
 11
27817.604341291921
 21
1955.7494964292871
 31
0.0
1001
AUTOCAD_POSTSCRIPT_FIGURE
1002
{
1000
PSFILL
1000
Grayscale
1000
Grayscale
1070
   100
1002
}
  0
LINE
  5
157FB
  8
YODOROGO
 10
27801.604341291921
 20
1979.749496429288
 30
0.0
 11
27817.604341291921
 21
1979.749496429288
 31
0.0
1001
AUTOCAD_POSTSCRIPT_FIGURE
1002
{
1000
PSFILL
1000
Grayscale
1000
Grayscale
1070
   100
1002
}
  0
LINE
  5
157FC
  8
YODOROGO
 10
27801.604341291921
 20
1955.7494964292871
 30
0.0
 11
27801.604341291921
 21
1979.749496429288
 31
0.0
1001
AUTOCAD_POSTSCRIPT_FIGURE
1002
{
1000
PSFILL
1000
Grayscale
1000
Grayscale
1070
   100
1002
}
  0
LINE
  5
157FD
  8
YODOROGO
 10
27777.604341291921
 20
1955.7494964292871
 30
0.0
 11
27801.604341291921
 21
1955.7494964292871
 31
0.0
1001
AUTOCAD_POSTSCRIPT_FIGURE
1002
{
1000
PSFILL
1000
Grayscale
1000
Grayscale
1070
   100
1002
}
  0
LINE
  5
157FE
  8
YODOROGO
 10
27777.604341291921
 20
1939.749496429288
 30
0.0
 11
27777.604341291921
 21
1955.7494964292871
 31
0.0
1001
AUTOCAD_POSTSCRIPT_FIGURE
1002
{
1000
PSFILL
1000
Grayscale
1000
Grayscale
1070
   100
1002
}
  0
LINE
  5
157FF
  8
YODOROGO
 10
27801.604341291921
 20
1939.749496429288
 30
0.0
 11
27777.604341291921
 21
1939.749496429288
 31
0.0
1001
AUTOCAD_POSTSCRIPT_FIGURE
1002
{
1000
PSFILL
1000
Grayscale
1000
Grayscale
1070
   100
1002
}
  0
LINE
  5
15800
  8
YODOROGO
 10
27801.604341291921
 20
1914.7865807937051
 30
0.0
 11
27801.604341291921
 21
1939.749496429288
 31
0.0
1001
AUTOCAD_POSTSCRIPT_FIGURE
1002
{
1000
PSFILL
1000
Grayscale
1000
Grayscale
1070
   100
1002
}
  0
LINE
  5
15801
  8
YODOROGO
 10
27777.604341291921
 20
1859.776747951671
 30
0.0
 11
27801.604341291921
 21
1914.7865807937051
 31
0.0
1001
AUTOCAD_POSTSCRIPT_FIGURE
1002
{
1000
PSFILL
1000
Grayscale
1000
Grayscale
1070
   100
1002
}
  0
LINE
  5
15802
  8
YODOROGO
 10
27777.604341291921
 20
1843.776747951672
 30
0.0
 11
27777.604341291921
 21
1859.776747951671
 31
0.0
1001
AUTOCAD_POSTSCRIPT_FIGURE
1002
{
1000
PSFILL
1000
Grayscale
1000
Grayscale
1070
   100
1002
}
  0
LINE
  5
15803
  8
YODOROGO
 10
28257.604341291921
 20
1867.7494964292871
 30
0.0
 11
28401.60434129191
 21
1824.877625640306
 31
0.0
1001
AUTOCAD_POSTSCRIPT_FIGURE
1002
{
1000
PSFILL
1000
Grayscale
1000
Grayscale
1070
   100
1002
}
  0
LINE
  5
15804
  8
YODOROGO
 10
28401.60434129191
 20
1752.877625640306
 30
0.0
 11
28257.604341291921
 21
1795.7494964292871
 31
0.0
1001
AUTOCAD_POSTSCRIPT_FIGURE
1002
{
1000
PSFILL
1000
Grayscale
1000
Grayscale
1070
   100
1002
}
  0
LINE
  5
15805
  8
YODOROGO
 10
28401.60434129191
 20
1984.877625640306
 30
0.0
 11
28257.604341291921
 21
2027.749496429288
 31
0.0
1001
AUTOCAD_POSTSCRIPT_FIGURE
1002
{
1000
PSFILL
1000
Grayscale
1000
Grayscale
1070
   100
1002
}
  0
LINE
  5
15806
  8
YODOROGO
 10
28257.604341291921
 20
1959.749496429288
 30
0.0
 11
28401.60434129191
 21
1916.8776256403071
 31
0.0
1001
AUTOCAD_POSTSCRIPT_FIGURE
1002
{
1000
PSFILL
1000
Grayscale
1000
Grayscale
1070
   100
1002
}
  0
LINE
  5
15807
  8
YODOROGO
 10
28257.604341291921
 20
1795.7494964292871
 30
0.0
 11
28257.604341291921
 21
1867.7494964292871
 31
0.0
1001
AUTOCAD_POSTSCRIPT_FIGURE
1002
{
1000
PSFILL
1000
Grayscale
1000
Grayscale
1070
   100
1002
}
  0
LINE
  5
15808
  8
YODOROGO
 10
28257.604341291921
 20
2027.749496429288
 30
0.0
 11
28257.604341291921
 21
1959.749496429288
 31
0.0
1001
AUTOCAD_POSTSCRIPT_FIGURE
1002
{
1000
PSFILL
1000
Grayscale
1000
Grayscale
1070
   100
1002
}
  0
LINE
  5
15809
  8
YODOROGO
 10
28080.236320206739
 20
1939.749496429288
 30
0.0
 11
28129.60434129191
 21
1747.749496429286
 31
0.0
1001
AUTOCAD_POSTSCRIPT_FIGURE
1002
{
1000
PSFILL
1000
Grayscale
1000
Grayscale
1070
   100
1002
}
  0
LINE
  5
1580A
  8
YODOROGO
 10
27977.604341291921
 20
1939.749496429288
 30
0.0
 11
28080.236320206739
 21
1939.749496429288
 31
0.0
1001
AUTOCAD_POSTSCRIPT_FIGURE
1002
{
1000
PSFILL
1000
Grayscale
1000
Grayscale
1070
   100
1002
}
  0
LINE
  5
1580B
  8
YODOROGO
 10
27977.604341291921
 20
1955.7494964292871
 30
0.0
 11
27977.604341291921
 21
1939.749496429288
 31
0.0
1001
AUTOCAD_POSTSCRIPT_FIGURE
1002
{
1000
PSFILL
1000
Grayscale
1000
Grayscale
1070
   100
1002
}
  0
LINE
  5
1580C
  8
YODOROGO
 10
28076.60687851991
 20
1955.7494964292871
 30
0.0
 11
27977.604341291921
 21
1955.7494964292871
 31
0.0
1001
AUTOCAD_POSTSCRIPT_FIGURE
1002
{
1000
PSFILL
1000
Grayscale
1000
Grayscale
1070
   100
1002
}
  0
LINE
  5
1580D
  8
YODOROGO
 10
28071.162715989711
 20
1979.749496429288
 30
0.0
 11
28076.60687851991
 21
1955.7494964292871
 31
0.0
1001
AUTOCAD_POSTSCRIPT_FIGURE
1002
{
1000
PSFILL
1000
Grayscale
1000
Grayscale
1070
   100
1002
}
  0
LINE
  5
1580E
  8
YODOROGO
 10
28091.162715989711
 20
1979.749496429288
 30
0.0
 11
28071.162715989711
 21
1979.749496429288
 31
0.0
1001
AUTOCAD_POSTSCRIPT_FIGURE
1002
{
1000
PSFILL
1000
Grayscale
1000
Grayscale
1070
   100
1002
}
  0
LINE
  5
1580F
  8
YODOROGO
 10
28095.806878519939
 20
1955.7494964292871
 30
0.0
 11
28091.162715989711
 21
1979.749496429288
 31
0.0
1001
AUTOCAD_POSTSCRIPT_FIGURE
1002
{
1000
PSFILL
1000
Grayscale
1000
Grayscale
1070
   100
1002
}
  0
LINE
  5
15810
  8
YODOROGO
 10
28121.604341291921
 20
1955.7494964292871
 30
0.0
 11
28095.806878519939
 21
1955.7494964292871
 31
0.0
1001
AUTOCAD_POSTSCRIPT_FIGURE
1002
{
1000
PSFILL
1000
Grayscale
1000
Grayscale
1070
   100
1002
}
  0
LINE
  5
15811
  8
YODOROGO
 10
28121.604341291921
 20
1979.749496429288
 30
0.0
 11
28121.604341291921
 21
1955.7494964292871
 31
0.0
1001
AUTOCAD_POSTSCRIPT_FIGURE
1002
{
1000
PSFILL
1000
Grayscale
1000
Grayscale
1070
   100
1002
}
  0
LINE
  5
15812
  8
YODOROGO
 10
28137.604341291921
 20
1979.749496429288
 30
0.0
 11
28121.604341291921
 21
1979.749496429288
 31
0.0
1001
AUTOCAD_POSTSCRIPT_FIGURE
1002
{
1000
PSFILL
1000
Grayscale
1000
Grayscale
1070
   100
1002
}
  0
LINE
  5
15813
  8
YODOROGO
 10
28137.604341291921
 20
1955.7494964292871
 30
0.0
 11
28137.604341291921
 21
1979.749496429288
 31
0.0
1001
AUTOCAD_POSTSCRIPT_FIGURE
1002
{
1000
PSFILL
1000
Grayscale
1000
Grayscale
1070
   100
1002
}
  0
LINE
  5
15814
  8
YODOROGO
 10
28137.604341291921
 20
1939.749496429288
 30
0.0
 11
28137.604341291921
 21
1955.7494964292871
 31
0.0
1001
AUTOCAD_POSTSCRIPT_FIGURE
1002
{
1000
PSFILL
1000
Grayscale
1000
Grayscale
1070
   100
1002
}
  0
LINE
  5
15815
  8
YODOROGO
 10
28098.902986873411
 20
1939.749496429288
 30
0.0
 11
28137.604341291921
 21
1939.749496429288
 31
0.0
1001
AUTOCAD_POSTSCRIPT_FIGURE
1002
{
1000
PSFILL
1000
Grayscale
1000
Grayscale
1070
   100
1002
}
  0
LINE
  5
15816
  8
YODOROGO
 10
28137.604341291921
 20
1747.749496429286
 30
0.0
 11
28098.902986873411
 21
1939.749496429288
 31
0.0
1001
AUTOCAD_POSTSCRIPT_FIGURE
1002
{
1000
PSFILL
1000
Grayscale
1000
Grayscale
1070
   100
1002
}
  0
LINE
  5
15817
  8
YODOROGO
 10
28129.60434129191
 20
1747.749496429286
 30
0.0
 11
28137.604341291921
 21
1747.749496429286
 31
0.0
1001
AUTOCAD_POSTSCRIPT_FIGURE
1002
{
1000
PSFILL
1000
Grayscale
1000
Grayscale
1070
   100
1002
}
  0
LINE
  5
15818
  8
YODOROGO
 10
28078.06921993379
 20
1775.7407762987939
 30
0.0
 11
27977.604341291921
 21
1747.749496429286
 31
0.0
  0
LINE
  5
15819
  8
YODOROGO
 10
28078.06921993379
 20
1798.6689795290731
 30
0.0
 11
28078.06921993379
 21
1775.7407762987939
 31
0.0
  0
LINE
  5
1581A
  8
YODOROGO
 10
28033.83678061287
 20
1786.816933133767
 30
0.0
 11
28078.06921993379
 21
1798.6689795290731
 31
0.0
  0
LINE
  5
1581B
  8
YODOROGO
 10
28033.83678061287
 20
1872.5683489362989
 30
0.0
 11
28033.83678061287
 21
1786.816933133767
 31
0.0
  0
LINE
  5
1581C
  8
YODOROGO
 10
28078.06921993379
 20
1872.5683489362989
 30
0.0
 11
28033.83678061287
 21
1872.5683489362989
 31
0.0
  0
LINE
  5
1581D
  8
YODOROGO
 10
28078.06921993379
 20
1892.568348936298
 30
0.0
 11
28078.06921993379
 21
1872.5683489362989
 31
0.0
  0
LINE
  5
1581E
  8
YODOROGO
 10
27977.604341291921
 20
1892.568348936298
 30
0.0
 11
28078.06921993379
 21
1892.568348936298
 31
0.0
  0
LINE
  5
1581F
  8
YODOROGO
 10
27977.604341291921
 20
1872.5683489362989
 30
0.0
 11
27977.604341291921
 21
1892.568348936298
 31
0.0
  0
LINE
  5
15820
  8
YODOROGO
 10
28021.836780612852
 20
1872.5683489362989
 30
0.0
 11
27977.604341291921
 21
1872.5683489362989
 31
0.0
  0
LINE
  5
15821
  8
YODOROGO
 10
28021.836780612852
 20
1784.673339594317
 30
0.0
 11
28021.836780612852
 21
1872.5683489362989
 31
0.0
  0
LINE
  5
15822
  8
YODOROGO
 10
27977.604341291921
 20
1771.749496429286
 30
0.0
 11
28021.836780612852
 21
1784.673339594317
 31
0.0
  0
LINE
  5
15823
  8
YODOROGO
 10
27977.604341291921
 20
1747.749496429286
 30
0.0
 11
27977.604341291921
 21
1771.749496429286
 31
0.0
  0
LINE
  5
15824
  8
YODOROGO
 10
28001.604341291921
 20
1707.749496429288
 30
0.0
 11
28001.604341291921
 21
1683.7494964292871
 31
0.0
  0
LINE
  5
15825
  8
YODOROGO
 10
28017.604341291921
 20
1707.749496429288
 30
0.0
 11
28001.604341291921
 21
1707.749496429288
 31
0.0
  0
LINE
  5
15826
  8
YODOROGO
 10
28017.604341291921
 20
1683.7494964292871
 30
0.0
 11
28017.604341291921
 21
1707.749496429288
 31
0.0
  0
LINE
  5
15827
  8
YODOROGO
 10
28040.913204016892
 20
1683.7494964292871
 30
0.0
 11
28017.604341291921
 21
1683.7494964292871
 31
0.0
  0
LINE
  5
15828
  8
YODOROGO
 10
28001.604341291921
 20
1683.7494964292871
 30
0.0
 11
27977.604341291921
 21
1683.7494964292871
 31
0.0
  0
LINE
  5
15829
  8
YODOROGO
 10
28082.135520230921
 20
1707.749496429288
 30
0.0
 11
28098.135520230931
 21
1707.749496429288
 31
0.0
1001
AUTOCAD_POSTSCRIPT_FIGURE
1002
{
1000
PSFILL
1000
Grayscale
1000
Grayscale
1070
   100
1002
}
  0
LINE
  5
1582A
  8
YODOROGO
 10
28401.60434129191
 20
1824.877625640306
 30
0.0
 11
28401.60434129191
 21
1752.877625640306
 31
0.0
1001
AUTOCAD_POSTSCRIPT_FIGURE
1002
{
1000
PSFILL
1000
Grayscale
1000
Grayscale
1070
   100
1002
}
  0
LINE
  5
1582B
  8
YODOROGO
 10
28401.60434129191
 20
1916.8776256403071
 30
0.0
 11
28401.60434129191
 21
1984.877625640306
 31
0.0
1001
AUTOCAD_POSTSCRIPT_FIGURE
1002
{
1000
PSFILL
1000
Grayscale
1000
Grayscale
1070
   100
1002
}
  0
LINE
  5
1582C
  8
YODOROGO
 10
28433.60434129191
 20
1819.7494964292871
 30
0.0
 11
28433.60434129191
 21
1747.74949642929
 31
0.0
  0
LINE
  5
1582D
  8
YODOROGO
 10
28497.60434129191
 20
1707.749496429288
 30
0.0
 11
28433.60434129191
 21
1707.749496429288
 31
0.0
  0
LINE
  5
1582E
  8
YODOROGO
 10
28433.60434129191
 20
1747.74949642929
 30
0.0
 11
28585.604341291921
 21
1747.74949642929
 31
0.0
  0
LINE
  5
1582F
  8
YODOROGO
 10
28497.60434129191
 20
1867.7494964292871
 30
0.0
 11
28433.60434129191
 21
1867.7494964292871
 31
0.0
  0
LINE
  5
15830
  8
YODOROGO
 10
28497.60434129191
 20
1923.7494964292871
 30
0.0
 11
28497.60434129191
 21
1867.7494964292871
 31
0.0
  0
LINE
  5
15831
  8
YODOROGO
 10
28585.604341291921
 20
1987.7494964292871
 30
0.0
 11
28585.604341291921
 21
2027.749496429288
 31
0.0
  0
LINE
  5
15832
  8
YODOROGO
 10
28433.60434129191
 20
1987.7494964292871
 30
0.0
 11
28585.604341291921
 21
1987.7494964292871
 31
0.0
  0
LINE
  5
15833
  8
YODOROGO
 10
28433.60434129191
 20
1867.7494964292871
 30
0.0
 11
28433.60434129191
 21
1987.7494964292871
 31
0.0
  0
LINE
  5
15834
  8
YODOROGO
 10
29001.60434129191
 20
2027.749496429288
 30
0.0
 11
29001.60434129191
 21
1619.749496429288
 31
0.0
  0
LINE
  5
15835
  8
YODOROGO
 10
29073.604341291921
 20
1579.749496429288
 30
0.0
 11
29073.604341291921
 21
2027.749496429288
 31
0.0
  0
LINE
  5
15836
  8
YODOROGO
 10
29261.604341291921
 20
1491.749496429286
 30
0.0
 11
29261.604341291921
 21
2007.749496429288
 31
0.0
  0
LINE
  5
15837
  8
YODOROGO
 10
29197.604341291921
 20
2007.749496429288
 30
0.0
 11
29197.604341291921
 21
1491.749496429286
 31
0.0
  0
LINE
  5
15838
  8
YODOROGO
 10
29385.604341291921
 20
2027.749496429288
 30
0.0
 11
29385.604341291921
 21
1427.749496429288
 31
0.0
  0
LINE
  5
15839
  8
YODOROGO
 10
29457.604341291921
 20
1427.749496429288
 30
0.0
 11
29457.604341291921
 21
2027.749496429288
 31
0.0
  0
LINE
  5
1583A
  8
YODOROGO
 10
28657.604341291921
 20
1667.749496429288
 30
0.0
 11
28657.604341291921
 21
1747.74949642929
 31
0.0
  0
LINE
  5
1583B
  8
YODOROGO
 10
29885.604341291921
 20
1707.749496429288
 30
0.0
 11
29885.604341291921
 21
1667.749496429288
 31
0.0
  0
LINE
  5
1583C
  8
YODOROGO
 10
29885.604341291921
 20
1707.749496429288
 30
0.0
 11
29885.604341291921
 21
1667.749496429288
 31
0.0
  0
ARC
  5
1583D
  8
YODOROGO
 10
28906.911576186842
 20
1618.217864442272
 30
0.0
 40
94.705151178741644
 50
274.05244162907098
 51
0.9266642149310712
  0
ARC
  5
1583E
  8
YODOROGO
 10
28909.186170719819
 20
1592.61072861044
 30
0.0
 40
164.92042356085511
 50
271.5351210653775
 51
355.52727750585052
  0
LINE
  5
1583F
  8
YODOROGO
 10
28913.604341291921
 20
1523.7494964292871
 30
0.0
 11
28913.604341291921
 21
1427.749496429288
 31
0.0
  0
LINE
  5
15840
  8
YODOROGO
 10
28793.60434129191
 20
1667.749496429288
 30
0.0
 11
28657.604341291921
 21
1667.749496429288
 31
0.0
  0
LINE
  5
15841
  8
YODOROGO
 10
28793.60434129191
 20
1603.7494964292871
 30
0.0
 11
28793.60434129191
 21
1667.749496429288
 31
0.0
  0
LINE
  5
15842
  8
YODOROGO
 10
28657.604341291921
 20
1603.7494964292871
 30
0.0
 11
28793.60434129191
 21
1603.7494964292871
 31
0.0
  0
LINE
  5
15843
  8
YODOROGO
 10
28657.604341291921
 20
1523.7494964292871
 30
0.0
 11
28657.604341291921
 21
1603.7494964292871
 31
0.0
  0
LINE
  5
15844
  8
YODOROGO
 10
28793.60434129191
 20
1523.7494964292871
 30
0.0
 11
28657.604341291921
 21
1523.7494964292871
 31
0.0
  0
LINE
  5
15845
  8
YODOROGO
 10
28793.60434129191
 20
1427.749496429288
 30
0.0
 11
28793.60434129191
 21
1523.7494964292871
 31
0.0
  0
LINE
  5
15846
  8
YODOROGO
 10
29197.604341291921
 20
1491.749496429286
 30
0.0
 11
29261.604341291921
 21
1491.749496429286
 31
0.0
  0
LINE
  5
15847
  8
YODOROGO
 10
29385.604341291921
 20
1427.749496429288
 30
0.0
 11
29457.604341291921
 21
1427.749496429288
 31
0.0
  0
LINE
  5
15848
  8
YODOROGO
 10
29737.604341291921
 20
1528.4414521705639
 30
0.0
 11
29737.604341291921
 21
1427.749496429288
 31
0.0
  0
LINE
  5
15849
  8
YODOROGO
 10
29617.604341291921
 20
1427.749496429288
 30
0.0
 11
29737.604341291921
 21
1528.4414521705639
 31
0.0
  0
LINE
  5
1584A
  8
YODOROGO
 10
29617.604341291921
 20
1547.749496429288
 30
0.0
 11
29617.604341291921
 21
1427.749496429288
 31
0.0
  0
LINE
  5
1584B
  8
YODOROGO
 10
29712.94462869945
 20
1627.749496429288
 30
0.0
 11
29617.604341291921
 21
1547.749496429288
 31
0.0
  0
LINE
  5
1584C
  8
YODOROGO
 10
29617.604341291921
 20
1627.749496429288
 30
0.0
 11
29712.94462869945
 21
1627.749496429288
 31
0.0
  0
LINE
  5
1584D
  8
YODOROGO
 10
29617.604341291921
 20
1667.749496429288
 30
0.0
 11
29617.604341291921
 21
1627.749496429288
 31
0.0
  0
LINE
  5
1584E
  8
YODOROGO
 10
29885.604341291921
 20
1667.749496429288
 30
0.0
 11
29617.604341291921
 21
1667.749496429288
 31
0.0
  0
LINE
  5
1584F
  8
YODOROGO
 10
29917.604341291921
 20
1627.749496429288
 30
0.0
 11
29777.604341291921
 21
1627.749496429288
 31
0.0
  0
LINE
  5
15850
  8
YODOROGO
 10
29777.604341291921
 20
1562.0054374176559
 30
0.0
 11
29771.409872985321
 21
1556.807661346234
 31
0.0
  0
LINE
  5
15851
  8
YODOROGO
 10
29777.604341291921
 20
1627.749496429288
 30
0.0
 11
29777.604341291921
 21
1562.0054374176559
 31
0.0
  0
LINE
  5
15852
  8
YODOROGO
 10
29737.604341291921
 20
1528.4414521705639
 30
0.0
 11
29737.604341291921
 21
1427.749496429288
 31
0.0
  0
LINE
  5
15853
  8
YODOROGO
 10
29617.604341291921
 20
1427.749496429288
 30
0.0
 11
29737.604341291921
 21
1528.4414521705639
 31
0.0
  0
LINE
  5
15854
  8
YODOROGO
 10
29617.604341291921
 20
1547.749496429288
 30
0.0
 11
29617.604341291921
 21
1427.749496429288
 31
0.0
  0
LINE
  5
15855
  8
YODOROGO
 10
29712.94462869945
 20
1627.749496429288
 30
0.0
 11
29617.604341291921
 21
1547.749496429288
 31
0.0
  0
LINE
  5
15856
  8
YODOROGO
 10
29617.604341291921
 20
1627.749496429288
 30
0.0
 11
29712.94462869945
 21
1627.749496429288
 31
0.0
  0
LINE
  5
15857
  8
YODOROGO
 10
29617.604341291921
 20
1667.749496429288
 30
0.0
 11
29617.604341291921
 21
1627.749496429288
 31
0.0
  0
LINE
  5
15858
  8
YODOROGO
 10
29885.604341291921
 20
1667.749496429288
 30
0.0
 11
29617.604341291921
 21
1667.749496429288
 31
0.0
  0
LINE
  5
15859
  8
YODOROGO
 10
28793.60434129191
 20
1747.74949642929
 30
0.0
 11
28793.60434129191
 21
1819.7494964292871
 31
0.0
  0
LINE
  5
1585A
  8
YODOROGO
 10
28657.604341291921
 20
1747.74949642929
 30
0.0
 11
28793.60434129191
 21
1747.74949642929
 31
0.0
  0
LINE
  5
1585B
  8
YODOROGO
 10
28729.604341291921
 20
1867.7494964292871
 30
0.0
 11
28729.604341291921
 21
1923.7494964292871
 31
0.0
  0
LINE
  5
1585C
  8
YODOROGO
 10
28793.60434129191
 20
1867.7494964292871
 30
0.0
 11
28729.604341291921
 21
1867.7494964292871
 31
0.0
  0
LINE
  5
1585D
  8
YODOROGO
 10
28793.60434129191
 20
1947.749496429288
 30
0.0
 11
28793.60434129191
 21
1867.7494964292871
 31
0.0
  0
ARC
  5
1585E
  8
YODOROGO
 10
28753.60434129191
 20
1947.749496429288
 30
0.0
 40
40.0
 50
0.0
 51
90.0
  0
LINE
  5
1585F
  8
YODOROGO
 10
28657.604341291921
 20
1987.7494964292871
 30
0.0
 11
28753.60434129191
 21
1987.7494964292871
 31
0.0
  0
LINE
  5
15860
  8
YODOROGO
 10
28657.604341291921
 20
2027.749496429288
 30
0.0
 11
28657.604341291921
 21
1987.7494964292871
 31
0.0
  0
LINE
  5
15861
  8
YODOROGO
 10
29073.604341291921
 20
2027.749496429288
 30
0.0
 11
29001.60434129191
 21
2027.749496429288
 31
0.0
  0
LINE
  5
15862
  8
YODOROGO
 10
29261.604341291921
 20
2007.749496429288
 30
0.0
 11
29197.604341291921
 21
2007.749496429288
 31
0.0
  0
LINE
  5
15863
  8
YODOROGO
 10
29457.604341291921
 20
2027.749496429288
 30
0.0
 11
29385.604341291921
 21
2027.749496429288
 31
0.0
  0
LINE
  5
15864
  8
YODOROGO
 10
29673.604341291921
 20
1707.749496429288
 30
0.0
 11
29673.604341291921
 21
1771.7494964292871
 31
0.0
1001
AUTOCAD_POSTSCRIPT_FIGURE
1002
{
1000
PSFILL
1000
Grayscale
1000
Grayscale
1070
    25
1002
}
  0
LINE
  5
15865
  8
YODOROGO
 10
29617.604341291921
 20
1707.749496429288
 30
0.0
 11
29673.604341291921
 21
1707.749496429288
 31
0.0
1001
AUTOCAD_POSTSCRIPT_FIGURE
1002
{
1000
PSFILL
1000
Grayscale
1000
Grayscale
1070
    25
1002
}
  0
LINE
  5
15866
  8
YODOROGO
 10
29617.604341291921
 20
1819.7494964292871
 30
0.0
 11
29617.604341291921
 21
1707.749496429288
 31
0.0
1001
AUTOCAD_POSTSCRIPT_FIGURE
1002
{
1000
PSFILL
1000
Grayscale
1000
Grayscale
1070
    25
1002
}
  0
LINE
  5
15867
  8
YODOROGO
 10
29765.604341291921
 20
1819.7494964292871
 30
0.0
 11
29617.604341291921
 21
1819.7494964292871
 31
0.0
1001
AUTOCAD_POSTSCRIPT_FIGURE
1002
{
1000
PSFILL
1000
Grayscale
1000
Grayscale
1070
    25
1002
}
  0
LINE
  5
15868
  8
YODOROGO
 10
29765.604341291921
 20
1859.749496429288
 30
0.0
 11
29765.604341291921
 21
1819.7494964292871
 31
0.0
1001
AUTOCAD_POSTSCRIPT_FIGURE
1002
{
1000
PSFILL
1000
Grayscale
1000
Grayscale
1070
    25
1002
}
  0
LINE
  5
15869
  8
YODOROGO
 10
29617.604341291921
 20
1859.749496429288
 30
0.0
 11
29765.604341291921
 21
1859.749496429288
 31
0.0
1001
AUTOCAD_POSTSCRIPT_FIGURE
1002
{
1000
PSFILL
1000
Grayscale
1000
Grayscale
1070
    25
1002
}
  0
LINE
  5
1586A
  8
YODOROGO
 10
29617.604341291921
 20
1907.7494964292871
 30
0.0
 11
29617.604341291921
 21
1859.749496429288
 31
0.0
1001
AUTOCAD_POSTSCRIPT_FIGURE
1002
{
1000
PSFILL
1000
Grayscale
1000
Grayscale
1070
    25
1002
}
  0
LINE
  5
1586B
  8
YODOROGO
 10
29765.604341291921
 20
1907.7494964292871
 30
0.0
 11
29617.604341291921
 21
1907.7494964292871
 31
0.0
1001
AUTOCAD_POSTSCRIPT_FIGURE
1002
{
1000
PSFILL
1000
Grayscale
1000
Grayscale
1070
    25
1002
}
  0
LINE
  5
1586C
  8
YODOROGO
 10
29765.604341291921
 20
1947.749496429288
 30
0.0
 11
29765.604341291921
 21
1907.7494964292871
 31
0.0
1001
AUTOCAD_POSTSCRIPT_FIGURE
1002
{
1000
PSFILL
1000
Grayscale
1000
Grayscale
1070
    25
1002
}
  0
LINE
  5
1586D
  8
YODOROGO
 10
29617.604341291921
 20
1947.749496429288
 30
0.0
 11
29765.604341291921
 21
1947.749496429288
 31
0.0
1001
AUTOCAD_POSTSCRIPT_FIGURE
1002
{
1000
PSFILL
1000
Grayscale
1000
Grayscale
1070
    25
1002
}
  0
LINE
  5
1586E
  8
YODOROGO
 10
29617.604341291921
 20
2027.749496429288
 30
0.0
 11
29617.604341291921
 21
1947.749496429288
 31
0.0
1001
AUTOCAD_POSTSCRIPT_FIGURE
1002
{
1000
PSFILL
1000
Grayscale
1000
Grayscale
1070
    25
1002
}
  0
LINE
  5
1586F
  8
YODOROGO
 10
29665.604341291921
 20
2027.749496429288
 30
0.0
 11
29617.604341291921
 21
2027.749496429288
 31
0.0
1001
AUTOCAD_POSTSCRIPT_FIGURE
1002
{
1000
PSFILL
1000
Grayscale
1000
Grayscale
1070
    25
1002
}
  0
LINE
  5
15870
  8
YODOROGO
 10
29665.604341291921
 20
1995.7494964292871
 30
0.0
 11
29665.604341291921
 21
2027.749496429288
 31
0.0
1001
AUTOCAD_POSTSCRIPT_FIGURE
1002
{
1000
PSFILL
1000
Grayscale
1000
Grayscale
1070
    25
1002
}
  0
LINE
  5
15871
  8
YODOROGO
 10
29765.604341291921
 20
1995.7494964292871
 30
0.0
 11
29665.604341291921
 21
1995.7494964292871
 31
0.0
1001
AUTOCAD_POSTSCRIPT_FIGURE
1002
{
1000
PSFILL
1000
Grayscale
1000
Grayscale
1070
    25
1002
}
  0
LINE
  5
15872
  8
YODOROGO
 10
29765.604341291921
 20
2027.749496429288
 30
0.0
 11
29765.604341291921
 21
1995.7494964292871
 31
0.0
1001
AUTOCAD_POSTSCRIPT_FIGURE
1002
{
1000
PSFILL
1000
Grayscale
1000
Grayscale
1070
    25
1002
}
  0
LINE
  5
15873
  8
YODOROGO
 10
29829.604341291921
 20
2027.749496429288
 30
0.0
 11
29765.604341291921
 21
2027.749496429288
 31
0.0
1001
AUTOCAD_POSTSCRIPT_FIGURE
1002
{
1000
PSFILL
1000
Grayscale
1000
Grayscale
1070
    25
1002
}
  0
LINE
  5
15874
  8
YODOROGO
 10
29829.604341291921
 20
1995.7494964292871
 30
0.0
 11
29829.604341291921
 21
2027.749496429288
 31
0.0
1001
AUTOCAD_POSTSCRIPT_FIGURE
1002
{
1000
PSFILL
1000
Grayscale
1000
Grayscale
1070
    25
1002
}
  0
LINE
  5
15875
  8
YODOROGO
 10
29829.604341291921
 20
1907.7494964292871
 30
0.0
 11
29829.604341291921
 21
1947.749496429288
 31
0.0
1001
AUTOCAD_POSTSCRIPT_FIGURE
1002
{
1000
PSFILL
1000
Grayscale
1000
Grayscale
1070
    25
1002
}
  0
LINE
  5
15876
  8
YODOROGO
 10
29829.604341291921
 20
1819.7494964292871
 30
0.0
 11
29829.604341291921
 21
1859.749496429288
 31
0.0
1001
AUTOCAD_POSTSCRIPT_FIGURE
1002
{
1000
PSFILL
1000
Grayscale
1000
Grayscale
1070
    25
1002
}
  0
LINE
  5
15877
  8
YODOROGO
 10
29921.60434129191
 20
1771.7494964292871
 30
0.0
 11
29921.60434129191
 21
1707.749496429288
 31
0.0
1001
AUTOCAD_POSTSCRIPT_FIGURE
1002
{
1000
PSFILL
1000
Grayscale
1000
Grayscale
1070
    25
1002
}
  0
LINE
  5
15878
  8
YODOROGO
 10
29829.604341291921
 20
1771.7494964292871
 30
0.0
 11
29921.60434129191
 21
1771.7494964292871
 31
0.0
1001
AUTOCAD_POSTSCRIPT_FIGURE
1002
{
1000
PSFILL
1000
Grayscale
1000
Grayscale
1070
    25
1002
}
  0
LINE
  5
15879
  8
YODOROGO
 10
29829.604341291921
 20
1707.749496429288
 30
0.0
 11
29829.604341291921
 21
1771.7494964292871
 31
0.0
1001
AUTOCAD_POSTSCRIPT_FIGURE
1002
{
1000
PSFILL
1000
Grayscale
1000
Grayscale
1070
    25
1002
}
  0
LINE
  5
1587A
  8
YODOROGO
 10
29765.604341291921
 20
1707.749496429288
 30
0.0
 11
29829.604341291921
 21
1707.749496429288
 31
0.0
1001
AUTOCAD_POSTSCRIPT_FIGURE
1002
{
1000
PSFILL
1000
Grayscale
1000
Grayscale
1070
    25
1002
}
  0
LINE
  5
1587B
  8
YODOROGO
 10
29765.604341291921
 20
1771.7494964292871
 30
0.0
 11
29765.604341291921
 21
1707.749496429288
 31
0.0
1001
AUTOCAD_POSTSCRIPT_FIGURE
1002
{
1000
PSFILL
1000
Grayscale
1000
Grayscale
1070
    25
1002
}
  0
LINE
  5
1587C
  8
YODOROGO
 10
29673.604341291921
 20
1771.7494964292871
 30
0.0
 11
29765.604341291921
 21
1771.7494964292871
 31
0.0
1001
AUTOCAD_POSTSCRIPT_FIGURE
1002
{
1000
PSFILL
1000
Grayscale
1000
Grayscale
1070
    25
1002
}
  0
ARC
  5
1587D
  8
YODOROGO
 10
31059.517893357912
 20
1602.6807375155761
 30
0.0
 40
178.22128111072141
 50
281.02627495425338
 51
357.77113575573799
  0
LINE
  5
1587E
  8
YODOROGO
 10
31413.604341291921
 20
1907.7494964292871
 30
0.0
 11
31165.604341291921
 21
1907.7494964292871
 31
0.0
  0
LINE
  5
1587F
  8
YODOROGO
 10
31413.604341291921
 20
2027.749496429288
 30
0.0
 11
31165.604341291921
 21
2027.749496429288
 31
0.0
  0
LINE
  5
15880
  8
YODOROGO
 10
31165.604341291921
 20
1963.749496429286
 30
0.0
 11
31413.604341291921
 21
1963.749496429286
 31
0.0
  0
LINE
  5
15881
  8
YODOROGO
 10
30791.604341291921
 20
1563.7494964292871
 30
0.0
 11
30791.604341291921
 21
1755.7494964292871
 31
0.0
  0
LINE
  5
15882
  8
YODOROGO
 10
30763.604341291921
 20
1691.749496429288
 30
0.0
 11
30763.604341291921
 21
1563.7494964292871
 31
0.0
  0
LINE
  5
15883
  8
YODOROGO
 10
30723.604341291921
 20
1491.749496429288
 30
0.0
 11
30723.604341291921
 21
1691.749496429288
 31
0.0
  0
LINE
  5
15884
  8
YODOROGO
 10
30899.604341291932
 20
1691.749496429288
 30
0.0
 11
30899.604341291932
 21
1491.749496429288
 31
0.0
  0
LINE
  5
15885
  8
YODOROGO
 10
30859.604341291932
 20
1563.7494964292871
 30
0.0
 11
30859.604341291932
 21
1691.749496429288
 31
0.0
  0
LINE
  5
15886
  8
YODOROGO
 10
30831.604341291921
 20
1755.7494964292871
 30
0.0
 11
30831.604341291921
 21
1563.7494964292871
 31
0.0
  0
LINE
  5
15887
  8
YODOROGO
 10
30973.604341291921
 20
2027.749496429288
 30
0.0
 11
30973.604341291921
 21
1467.749496429288
 31
0.0
  0
LINE
  5
15888
  8
YODOROGO
 10
30645.604341291921
 20
1427.749496429288
 30
0.0
 11
30645.604341291921
 21
2027.749496429288
 31
0.0
  0
LINE
  5
15889
  8
YODOROGO
 10
30697.604341291932
 20
1963.749496429286
 30
0.0
 11
30697.604341291932
 21
1427.749496429288
 31
0.0
  0
LINE
  5
1588A
  8
YODOROGO
 10
30925.604341291921
 20
1547.749496429288
 30
0.0
 11
30925.604341291921
 21
1963.749496429286
 31
0.0
  0
LINE
  5
1588B
  8
YODOROGO
 10
30381.604341291932
 20
1627.749496429288
 30
0.0
 11
30381.604341291932
 21
1679.749496429288
 31
0.0
  0
LINE
  5
1588C
  8
YODOROGO
 10
30617.604341291921
 20
1679.749496429288
 30
0.0
 11
30617.604341291921
 21
1627.749496429288
 31
0.0
  0
LINE
  5
1588D
  8
YODOROGO
 10
31165.604341291921
 20
1907.7494964292871
 30
0.0
 11
31165.604341291921
 21
1635.7494964292871
 31
0.0
  0
LINE
  5
1588E
  8
YODOROGO
 10
29949.60434129191
 20
1667.749496429288
 30
0.0
 11
29949.60434129191
 21
1707.749496429288
 31
0.0
  0
LINE
  5
1588F
  8
YODOROGO
 10
29949.60434129191
 20
1667.749496429288
 30
0.0
 11
29949.60434129191
 21
1707.749496429288
 31
0.0
  0
ARC
  5
15890
  8
YODOROGO
 10
30537.604341291921
 20
1507.749496429288
 30
0.0
 40
80.0
 50
270.0
 51
0.0
  0
LINE
  5
15891
  8
YODOROGO
 10
30569.604341291921
 20
1599.7494964292871
 30
0.0
 11
30617.604341291921
 21
1599.7494964292871
 31
0.0
  0
LINE
  5
15892
  8
YODOROGO
 10
30617.604341291921
 20
1627.749496429288
 30
0.0
 11
30529.604341291939
 21
1627.749496429288
 31
0.0
  0
LINE
  5
15893
  8
YODOROGO
 10
30217.604341291921
 20
1667.749496429288
 30
0.0
 11
29949.60434129191
 21
1667.749496429288
 31
0.0
  0
LINE
  5
15894
  8
YODOROGO
 10
30217.604341291921
 20
1627.749496429288
 30
0.0
 11
30217.604341291921
 21
1667.749496429288
 31
0.0
  0
LINE
  5
15895
  8
YODOROGO
 10
30017.604341291921
 20
1627.749496429288
 30
0.0
 11
30217.604341291921
 21
1627.749496429288
 31
0.0
  0
ARC
  5
15896
  8
YODOROGO
 10
30230.05882870136
 20
1868.885714952901
 30
0.0
 40
321.37763628522822
 50
228.6181454618993
 51
245.660289248906
  0
LINE
  5
15897
  8
YODOROGO
 10
30105.604341291921
 20
1603.7494964292871
 30
0.0
 11
30097.60434129195
 21
1576.0728158699001
 31
0.0
  0
LINE
  5
15898
  8
YODOROGO
 10
30189.604341291921
 20
1603.7494964292871
 30
0.0
 11
30105.604341291921
 21
1603.7494964292871
 31
0.0
  0
LINE
  5
15899
  8
YODOROGO
 10
30177.604341291921
 20
1551.817722473427
 30
0.0
 11
30189.604341291921
 21
1603.7494964292871
 31
0.0
  0
ARC
  5
1589A
  8
YODOROGO
 10
30230.05882870045
 20
1868.885714953002
 30
0.0
 40
321.37763628529081
 50
260.60629297969911
 51
267.77903556555862
  0
LINE
  5
1589B
  8
YODOROGO
 10
30217.604341291921
 20
1427.749496429285
 30
0.0
 11
30217.604341291921
 21
1547.749496429288
 31
0.0
  0
LINE
  5
1589C
  8
YODOROGO
 10
29937.604341291932
 20
1481.3393349155101
 30
0.0
 11
29937.604341291921
 21
1594.531090531141
 31
0.0
  0
LINE
  5
1589D
  8
YODOROGO
 10
30217.604341291921
 20
1667.749496429288
 30
0.0
 11
29949.60434129191
 21
1667.749496429288
 31
0.0
  0
LINE
  5
1589E
  8
YODOROGO
 10
30217.604341291921
 20
1627.749496429288
 30
0.0
 11
30217.604341291921
 21
1667.749496429288
 31
0.0
  0
LINE
  5
1589F
  8
YODOROGO
 10
30017.604341291921
 20
1627.749496429288
 30
0.0
 11
30217.604341291921
 21
1627.749496429288
 31
0.0
  0
ARC
  5
158A0
  8
YODOROGO
 10
30230.05882870136
 20
1868.885714952901
 30
0.0
 40
321.37763628522822
 50
228.6181454618993
 51
245.660289248906
  0
LINE
  5
158A1
  8
YODOROGO
 10
30105.604341291921
 20
1603.7494964292871
 30
0.0
 11
30097.60434129195
 21
1576.0728158699001
 31
0.0
  0
LINE
  5
158A2
  8
YODOROGO
 10
30189.604341291921
 20
1603.7494964292871
 30
0.0
 11
30105.604341291921
 21
1603.7494964292871
 31
0.0
  0
LINE
  5
158A3
  8
YODOROGO
 10
30177.604341291921
 20
1551.817722473427
 30
0.0
 11
30189.604341291921
 21
1603.7494964292871
 31
0.0
  0
ARC
  5
158A4
  8
YODOROGO
 10
30230.05882870045
 20
1868.885714953002
 30
0.0
 40
321.37763628529081
 50
260.60629297969911
 51
267.77903556555862
  0
LINE
  5
158A5
  8
YODOROGO
 10
30217.604341291921
 20
1427.749496429285
 30
0.0
 11
30217.604341291921
 21
1547.749496429288
 31
0.0
  0
LINE
  5
158A6
  8
YODOROGO
 10
29937.604341291932
 20
1481.3393349155101
 30
0.0
 11
29937.604341291921
 21
1594.531090531141
 31
0.0
  0
LINE
  5
158A7
  8
YODOROGO
 10
30433.604341291921
 20
1573.749496429288
 30
0.0
 11
30381.604341291932
 21
1573.749496429288
 31
0.0
  0
LINE
  5
158A8
  8
YODOROGO
 10
30433.604341291921
 20
1601.749496429285
 30
0.0
 11
30433.604341291921
 21
1573.749496429288
 31
0.0
  0
LINE
  5
158A9
  8
YODOROGO
 10
30381.604341291932
 20
1601.749496429285
 30
0.0
 11
30433.604341291921
 21
1601.749496429285
 31
0.0
  0
LINE
  5
158AA
  8
YODOROGO
 10
30381.604341291932
 20
1573.749496429288
 30
0.0
 11
30381.604341291932
 21
1601.749496429285
 31
0.0
  0
LINE
  5
158AB
  8
YODOROGO
 10
30429.604341291921
 20
1577.7494964292871
 30
0.0
 11
30385.604341291921
 21
1577.7494964292871
 31
0.0
  0
LINE
  5
158AC
  8
YODOROGO
 10
30429.604341291921
 20
1597.749496429288
 30
0.0
 11
30429.604341291921
 21
1577.7494964292871
 31
0.0
  0
LINE
  5
158AD
  8
YODOROGO
 10
30385.604341291921
 20
1597.749496429288
 30
0.0
 11
30429.604341291921
 21
1597.749496429288
 31
0.0
  0
LINE
  5
158AE
  8
YODOROGO
 10
30385.604341291921
 20
1577.7494964292871
 30
0.0
 11
30385.604341291921
 21
1597.749496429288
 31
0.0
  0
LINE
  5
158AF
  8
YODOROGO
 10
30425.604341291921
 20
1581.749496429286
 30
0.0
 11
30389.604341291921
 21
1581.749496429286
 31
0.0
  0
LINE
  5
158B0
  8
YODOROGO
 10
30425.604341291921
 20
1593.749496429288
 30
0.0
 11
30425.604341291921
 21
1581.749496429286
 31
0.0
  0
LINE
  5
158B1
  8
YODOROGO
 10
30389.604341291921
 20
1593.749496429288
 30
0.0
 11
30425.604341291921
 21
1593.749496429288
 31
0.0
  0
LINE
  5
158B2
  8
YODOROGO
 10
30389.604341291921
 20
1581.749496429286
 30
0.0
 11
30389.604341291921
 21
1593.749496429288
 31
0.0
  0
LINE
  5
158B3
  8
YODOROGO
 10
30421.604341291932
 20
1585.7494964292871
 30
0.0
 11
30393.604341291921
 21
1585.7494964292871
 31
0.0
  0
LINE
  5
158B4
  8
YODOROGO
 10
30421.604341291932
 20
1589.749496429288
 30
0.0
 11
30421.604341291932
 21
1585.7494964292871
 31
0.0
  0
LINE
  5
158B5
  8
YODOROGO
 10
30393.604341291921
 20
1589.749496429288
 30
0.0
 11
30421.604341291932
 21
1589.749496429288
 31
0.0
  0
LINE
  5
158B6
  8
YODOROGO
 10
30393.604341291921
 20
1585.7494964292871
 30
0.0
 11
30393.604341291921
 21
1589.749496429288
 31
0.0
  0
LINE
  5
158B7
  8
YODOROGO
 10
30465.604341291921
 20
1627.749496429288
 30
0.0
 11
30381.604341291932
 21
1627.749496429288
 31
0.0
  0
LINE
  5
158B8
  8
YODOROGO
 10
30465.604341291921
 20
1547.749496429288
 30
0.0
 11
30465.604341291921
 21
1627.749496429288
 31
0.0
  0
LINE
  5
158B9
  8
YODOROGO
 10
30381.604341291932
 20
1547.749496429288
 30
0.0
 11
30465.604341291921
 21
1547.749496429288
 31
0.0
  0
LINE
  5
158BA
  8
YODOROGO
 10
30381.604341291932
 20
1427.749496429288
 30
0.0
 11
30381.604341291932
 21
1547.749496429288
 31
0.0
  0
LINE
  5
158BB
  8
YODOROGO
 10
30537.604341291921
 20
1427.749496429288
 30
0.0
 11
30381.604341291932
 21
1427.749496429288
 31
0.0
  0
LINE
  5
158BC
  8
YODOROGO
 10
30569.604341291921
 20
1571.749496429285
 30
0.0
 11
30569.604341291921
 21
1599.7494964292871
 31
0.0
  0
ARC
  5
158BD
  8
YODOROGO
 10
30545.604341291921
 20
1571.749496429291
 30
0.0
 40
24.000000000003752
 50
270.0
 51
359.99999999998772
  0
LINE
  5
158BE
  8
YODOROGO
 10
30529.604341291939
 20
1547.749496429288
 30
0.0
 11
30545.604341291921
 21
1547.749496429288
 31
0.0
  0
LINE
  5
158BF
  8
YODOROGO
 10
30529.604341291939
 20
1627.749496429288
 30
0.0
 11
30529.604341291939
 21
1547.749496429288
 31
0.0
  0
LINE
  5
158C0
  8
YODOROGO
 10
30899.604341291932
 20
1547.749496429288
 30
0.0
 11
30925.604341291921
 21
1547.749496429288
 31
0.0
  0
LINE
  5
158C1
  8
YODOROGO
 10
30933.604341291921
 20
1427.749496429288
 30
0.0
 11
30899.604341291932
 21
1427.749496429288
 31
0.0
  0
LINE
  5
158C2
  8
YODOROGO
 10
30763.604341291921
 20
1563.7494964292871
 30
0.0
 11
30791.604341291921
 21
1563.7494964292871
 31
0.0
  0
LINE
  5
158C3
  8
YODOROGO
 10
30899.604341291932
 20
1491.749496429288
 30
0.0
 11
30723.604341291921
 21
1491.749496429288
 31
0.0
  0
LINE
  5
158C4
  8
YODOROGO
 10
30831.604341291921
 20
1563.7494964292871
 30
0.0
 11
30859.604341291932
 21
1563.7494964292871
 31
0.0
  0
LINE
  5
158C5
  8
YODOROGO
 10
30899.604341291932
 20
1427.749496429288
 30
0.0
 11
30899.604341291932
 21
1547.749496429288
 31
0.0
  0
LINE
  5
158C6
  8
YODOROGO
 10
30697.604341291932
 20
1427.749496429288
 30
0.0
 11
30645.604341291921
 21
1427.749496429288
 31
0.0
  0
LINE
  5
158C7
  8
YODOROGO
 10
30617.604341291921
 20
1599.7494964292871
 30
0.0
 11
30617.604341291921
 21
1507.749496429288
 31
0.0
  0
ARC
  5
158C8
  8
YODOROGO
 10
30933.604341291921
 20
1467.749496429288
 30
0.0
 40
40.0
 50
270.0
 51
0.0
  0
LINE
  5
158C9
  8
YODOROGO
 10
31093.604341291921
 20
1523.7494964292871
 30
0.0
 11
31093.604341291921
 21
1427.749496429288
 31
0.0
  0
ARC
  5
158CA
  8
YODOROGO
 10
31039.721395566768
 20
1637.5313901097329
 30
0.0
 40
125.8955565916754
 50
295.34052442160112
 51
359.18902303418679
  0
LINE
  5
158CB
  8
YODOROGO
 10
30617.604341291921
 20
1859.749496429288
 30
0.0
 11
30497.604341291921
 21
1939.749496429288
 31
0.0
  0
LINE
  5
158CC
  8
YODOROGO
 10
30497.604341291921
 20
2027.749496429288
 30
0.0
 11
30617.604341291921
 21
1947.749496429288
 31
0.0
  0
LINE
  5
158CD
  8
YODOROGO
 10
30529.604341291939
 20
1679.749496429288
 30
0.0
 11
30617.604341291921
 21
1679.749496429288
 31
0.0
  0
LINE
  5
158CE
  8
YODOROGO
 10
30617.604341291921
 20
1735.7494964292871
 30
0.0
 11
30529.604341291939
 21
1735.7494964292871
 31
0.0
  0
LINE
  5
158CF
  8
YODOROGO
 10
30381.604341291932
 20
1795.7494964292871
 30
0.0
 11
30617.604341291921
 21
1795.7494964292871
 31
0.0
  0
LINE
  5
158D0
  8
YODOROGO
 10
30081.604341291921
 20
2027.749496429288
 30
0.0
 11
30021.604341291921
 21
2027.749496429288
 31
0.0
  0
LINE
  5
158D1
  8
YODOROGO
 10
30081.604341291921
 20
1827.7494964292871
 30
0.0
 11
30081.604341291921
 21
2027.749496429288
 31
0.0
  0
LINE
  5
158D2
  8
YODOROGO
 10
30021.604341291921
 20
1827.7494964292871
 30
0.0
 11
30081.604341291921
 21
1827.7494964292871
 31
0.0
  0
LINE
  5
158D3
  8
YODOROGO
 10
30021.604341291921
 20
2027.749496429288
 30
0.0
 11
30021.604341291921
 21
1827.7494964292871
 31
0.0
  0
LINE
  5
158D4
  8
YODOROGO
 10
30161.604341291921
 20
2027.749496429288
 30
0.0
 11
30217.604341291921
 21
2027.749496429288
 31
0.0
  0
LINE
  5
158D5
  8
YODOROGO
 10
30161.604341291921
 20
1811.749496429288
 30
0.0
 11
30161.604341291921
 21
2027.749496429288
 31
0.0
  0
ARC
  5
158D6
  8
YODOROGO
 10
30121.604341291921
 20
1811.749496429288
 30
0.0
 40
40.0
 50
270.0
 51
0.0
  0
LINE
  5
158D7
  8
YODOROGO
 10
30021.604341291921
 20
1771.7494964292871
 30
0.0
 11
30121.604341291921
 21
1771.7494964292871
 31
0.0
  0
LINE
  5
158D8
  8
YODOROGO
 10
30021.604341291921
 20
1707.749496429288
 30
0.0
 11
30021.604341291921
 21
1771.7494964292871
 31
0.0
  0
LINE
  5
158D9
  8
YODOROGO
 10
30137.604341291921
 20
1707.749496429288
 30
0.0
 11
30021.604341291921
 21
1707.749496429288
 31
0.0
  0
ARC
  5
158DA
  8
YODOROGO
 10
30137.604341291921
 20
1787.7494964292871
 30
0.0
 40
80.0
 50
270.0
 51
0.0
  0
LINE
  5
158DB
  8
YODOROGO
 10
30217.604341291921
 20
2027.749496429288
 30
0.0
 11
30217.604341291921
 21
1787.7494964292871
 31
0.0
  0
LINE
  5
158DC
  8
YODOROGO
 10
29977.604341291921
 20
1947.749496429288
 30
0.0
 11
29977.604341291921
 21
1995.7494964292871
 31
0.0
1001
AUTOCAD_POSTSCRIPT_FIGURE
1002
{
1000
PSFILL
1000
Grayscale
1000
Grayscale
1070
    25
1002
}
  0
LINE
  5
158DD
  8
YODOROGO
 10
29977.604341291921
 20
1859.749496429288
 30
0.0
 11
29977.604341291921
 21
1907.7494964292871
 31
0.0
1001
AUTOCAD_POSTSCRIPT_FIGURE
1002
{
1000
PSFILL
1000
Grayscale
1000
Grayscale
1070
    25
1002
}
  0
LINE
  5
158DE
  8
YODOROGO
 10
29977.604341291921
 20
1707.749496429288
 30
0.0
 11
29977.604341291921
 21
1819.7494964292871
 31
0.0
1001
AUTOCAD_POSTSCRIPT_FIGURE
1002
{
1000
PSFILL
1000
Grayscale
1000
Grayscale
1070
    25
1002
}
  0
LINE
  5
158DF
  8
YODOROGO
 10
30381.604341291932
 20
1907.7494964292871
 30
0.0
 11
30497.604341291921
 21
2027.749496429288
 31
0.0
  0
LINE
  5
158E0
  8
YODOROGO
 10
30381.604341291932
 20
1819.7494964292871
 30
0.0
 11
30381.604341291932
 21
1907.7494964292871
 31
0.0
  0
LINE
  5
158E1
  8
YODOROGO
 10
30497.604341291921
 20
1939.749496429288
 30
0.0
 11
30381.604341291932
 21
1819.7494964292871
 31
0.0
  0
LINE
  5
158E2
  8
YODOROGO
 10
30465.604341291921
 20
1679.749496429288
 30
0.0
 11
30465.604341291921
 21
1735.7494964292871
 31
0.0
  0
LINE
  5
158E3
  8
YODOROGO
 10
30381.604341291932
 20
1679.749496429288
 30
0.0
 11
30465.604341291921
 21
1679.749496429288
 31
0.0
  0
LINE
  5
158E4
  8
YODOROGO
 10
30529.604341291939
 20
1735.7494964292871
 30
0.0
 11
30529.604341291939
 21
1679.749496429288
 31
0.0
  0
LINE
  5
158E5
  8
YODOROGO
 10
30381.604341291932
 20
1735.7494964292871
 30
0.0
 11
30381.604341291932
 21
1795.7494964292871
 31
0.0
  0
LINE
  5
158E6
  8
YODOROGO
 10
30465.604341291921
 20
1735.7494964292871
 30
0.0
 11
30381.604341291932
 21
1735.7494964292871
 31
0.0
  0
LINE
  5
158E7
  8
YODOROGO
 10
30645.604341291921
 20
2027.749496429288
 30
0.0
 11
30973.604341291921
 21
2027.749496429288
 31
0.0
  0
LINE
  5
158E8
  8
YODOROGO
 10
30925.604341291921
 20
1963.749496429286
 30
0.0
 11
30697.604341291932
 21
1963.749496429286
 31
0.0
  0
LINE
  5
158E9
  8
YODOROGO
 10
30873.604341291921
 20
1819.7494964292871
 30
0.0
 11
30899.604341291932
 21
1819.7494964292871
 31
0.0
  0
LINE
  5
158EA
  8
YODOROGO
 10
30899.604341291932
 20
1939.749496429288
 30
0.0
 11
30873.604341291921
 21
1819.7494964292871
 31
0.0
  0
LINE
  5
158EB
  8
YODOROGO
 10
30851.604341291939
 20
1939.749496429288
 30
0.0
 11
30899.604341291932
 21
1939.749496429288
 31
0.0
  0
LINE
  5
158EC
  8
YODOROGO
 10
30825.604341291921
 20
1819.7494964292871
 30
0.0
 11
30851.604341291939
 21
1939.749496429288
 31
0.0
  0
LINE
  5
158ED
  8
YODOROGO
 10
30797.604341291921
 20
1819.7494964292871
 30
0.0
 11
30825.604341291921
 21
1819.7494964292871
 31
0.0
  0
LINE
  5
158EE
  8
YODOROGO
 10
30771.604341291939
 20
1939.749496429288
 30
0.0
 11
30797.604341291921
 21
1819.7494964292871
 31
0.0
  0
LINE
  5
158EF
  8
YODOROGO
 10
30723.604341291921
 20
1939.749496429288
 30
0.0
 11
30771.604341291939
 21
1939.749496429288
 31
0.0
  0
LINE
  5
158F0
  8
YODOROGO
 10
30749.604341291921
 20
1819.7494964292871
 30
0.0
 11
30723.604341291921
 21
1939.749496429288
 31
0.0
  0
LINE
  5
158F1
  8
YODOROGO
 10
30723.604341291921
 20
1819.7494964292871
 30
0.0
 11
30749.604341291921
 21
1819.7494964292871
 31
0.0
  0
LINE
  5
158F2
  8
YODOROGO
 10
30723.604341291921
 20
1755.7494964292871
 30
0.0
 11
30723.604341291921
 21
1819.7494964292871
 31
0.0
  0
LINE
  5
158F3
  8
YODOROGO
 10
30899.604341291932
 20
1755.7494964292871
 30
0.0
 11
30723.604341291921
 21
1755.7494964292871
 31
0.0
  0
LINE
  5
158F4
  8
YODOROGO
 10
30899.604341291932
 20
1819.7494964292871
 30
0.0
 11
30899.604341291932
 21
1755.7494964292871
 31
0.0
  0
LINE
  5
158F5
  8
YODOROGO
 10
30617.604341291921
 20
1947.749496429288
 30
0.0
 11
30617.604341291921
 21
1859.749496429288
 31
0.0
  0
LINE
  5
158F6
  8
YODOROGO
 10
30791.604341291921
 20
1755.7494964292871
 30
0.0
 11
30831.604341291921
 21
1755.7494964292871
 31
0.0
  0
LINE
  5
158F7
  8
YODOROGO
 10
30723.604341291921
 20
1691.749496429288
 30
0.0
 11
30763.604341291921
 21
1691.749496429288
 31
0.0
  0
LINE
  5
158F8
  8
YODOROGO
 10
30859.604341291932
 20
1691.749496429288
 30
0.0
 11
30899.604341291932
 21
1691.749496429288
 31
0.0
  0
LINE
  5
158F9
  8
YODOROGO
 10
30617.604341291921
 20
1795.7494964292871
 30
0.0
 11
30617.604341291921
 21
1735.7494964292871
 31
0.0
  0
LINE
  5
158FA
  8
YODOROGO
 10
31165.604341291921
 20
2027.749496429288
 30
0.0
 11
31165.604341291921
 21
1963.749496429286
 31
0.0
  0
LINE
  5
158FB
  8
YODOROGO
 10
31533.604341291921
 20
1595.7494964292871
 30
0.0
 11
31533.60434129191
 21
1811.749496429288
 31
0.0
  0
LINE
  5
158FC
  8
YODOROGO
 10
31461.60434129191
 20
1987.7494964292871
 30
0.0
 11
31461.60434129191
 21
1635.7494964292871
 31
0.0
  0
LINE
  5
158FD
  8
YODOROGO
 10
31653.604341291921
 20
1427.749496429288
 30
0.0
 11
31653.60434129191
 21
1811.749496429288
 31
0.0
  0
LINE
  5
158FE
  8
YODOROGO
 10
31589.604341291921
 20
1811.749496429288
 30
0.0
 11
31589.604341291921
 21
1427.749496429288
 31
0.0
  0
LINE
  5
158FF
  8
YODOROGO
 10
31237.604341291921
 20
1595.7494964292871
 30
0.0
 11
31237.604341291921
 21
1707.749496429288
 31
0.0
  0
ARC
  5
15900
  8
YODOROGO
 10
31353.914865116069
 20
1607.790351288558
 30
0.0
 40
180.0924485759885
 50
268.62849102169793
 51
356.16638457330322
  0
LINE
  5
15901
  8
YODOROGO
 10
31349.604341291939
 20
1527.749496429288
 30
0.0
 11
31349.604341291939
 21
1427.749496429288
 31
0.0
  0
ARC
  5
15902
  8
YODOROGO
 10
31351.518075724562
 20
1637.838957017655
 30
0.0
 40
110.1060929836122
 50
269.00410209305932
 51
358.91264455492478
  0
LINE
  5
15903
  8
YODOROGO
 10
31589.604341291921
 20
1427.749496429288
 30
0.0
 11
31653.604341291921
 21
1427.749496429288
 31
0.0
  0
LINE
  5
15904
  8
YODOROGO
 10
31533.60434129191
 20
1811.749496429288
 30
0.0
 11
31589.604341291921
 21
1811.749496429288
 31
0.0
  0
LINE
  5
15905
  8
YODOROGO
 10
31621.604341291939
 20
1987.7494964292871
 30
0.0
 11
31461.60434129191
 21
1987.7494964292871
 31
0.0
  0
LINE
  5
15906
  8
YODOROGO
 10
31533.60434129191
 20
1915.7494964292871
 30
0.0
 11
31661.604341291939
 21
1915.7494964292871
 31
0.0
  0
LINE
  5
15907
  8
YODOROGO
 10
31701.604341291939
 20
1875.7494964292871
 30
0.0
 11
31533.60434129191
 21
1875.7494964292871
 31
0.0
  0
LINE
  5
15908
  8
YODOROGO
 10
31237.604341291921
 20
1779.749496429288
 30
0.0
 11
31349.604341291939
 21
1779.749496429288
 31
0.0
  0
LINE
  5
15909
  8
YODOROGO
 10
31237.604341291921
 20
1835.7494964292871
 30
0.0
 11
31237.604341291921
 21
1779.749496429288
 31
0.0
  0
LINE
  5
1590A
  8
YODOROGO
 10
31349.604341291939
 20
1835.7494964292871
 30
0.0
 11
31237.604341291921
 21
1835.7494964292871
 31
0.0
  0
LINE
  5
1590B
  8
YODOROGO
 10
31349.604341291939
 20
1779.749496429288
 30
0.0
 11
31349.604341291939
 21
1835.7494964292871
 31
0.0
  0
LINE
  5
1590C
  8
YODOROGO
 10
31533.60434129191
 20
1875.7494964292871
 30
0.0
 11
31533.60434129191
 21
1915.7494964292871
 31
0.0
  0
LINE
  5
1590D
  8
YODOROGO
 10
31413.604341291921
 20
1707.749496429288
 30
0.0
 11
31413.604341291921
 21
1907.7494964292871
 31
0.0
  0
LINE
  5
1590E
  8
YODOROGO
 10
31237.604341291921
 20
1707.749496429288
 30
0.0
 11
31413.604341291921
 21
1707.749496429288
 31
0.0
  0
LINE
  5
1590F
  8
YODOROGO
 10
31413.604341291921
 20
1963.749496429286
 30
0.0
 11
31413.604341291921
 21
2027.749496429288
 31
0.0
  0
ARC
  5
15910
  8
YODOROGO
 10
31621.604341291939
 20
2003.749496429285
 30
0.0
 40
15.999999999994539
 50
270.0
 51
0.0000000000081422
  0
LINE
  5
15911
  8
YODOROGO
 10
31637.604341291921
 20
2027.749496429288
 30
0.0
 11
31637.604341291921
 21
2003.7494964292871
 31
0.0
  0
LINE
  5
15912
  8
YODOROGO
 10
31701.604341291939
 20
2027.749496429288
 30
0.0
 11
31637.604341291921
 21
2027.749496429288
 31
0.0
  0
LINE
  5
15913
  8
YODOROGO
 10
31701.604341291939
 20
1955.7494964292871
 30
0.0
 11
31701.604341291939
 21
2027.749496429288
 31
0.0
  0
ARC
  5
15914
  8
YODOROGO
 10
31661.604341291939
 20
1955.7494964292871
 30
0.0
 40
40.0
 50
270.0
 51
0.0
  0
LINE
  5
15915
  8
YODOROGO
 10
31701.604341291939
 20
1811.749496429288
 30
0.0
 11
31701.604341291939
 21
1875.7494964292871
 31
0.0
  0
LINE
  5
15916
  8
YODOROGO
 10
31653.60434129191
 20
1811.749496429288
 30
0.0
 11
31701.604341291939
 21
1811.749496429288
 31
0.0
  0
LINE
  5
15917
  8
0-6
  6
CONTINUOUS
 62
     6
 10
7140.738309208552
 20
19180.984931043178
 30
0.0
 11
7215.4580542791846
 21
19324.95692542191
 31
0.0
  0
LINE
  5
15918
  8
0-6
  6
CONTINUOUS
 62
     6
 10
7215.4580542791846
 20
19324.95692542191
 30
0.0
 11
7098.082011295528
 21
19212.99993574445
 31
0.0
  0
LINE
  5
15919
  8
0-6
  6
CONTINUOUS
 62
     6
 10
7098.082011295528
 20
19212.99993574445
 30
0.0
 11
7140.738309208552
 21
19180.984931043178
 31
0.0
  0
LINE
  5
1591A
  8
0-6
  6
CONTINUOUS
 62
     6
 10
7140.738309208552
 20
16652.483427043291
 30
0.0
 11
7215.4580542791809
 21
16796.455421422019
 31
0.0
  0
LINE
  5
1591B
  8
0-6
  6
CONTINUOUS
 62
     6
 10
7215.4580542791809
 20
16796.455421422019
 30
0.0
 11
7098.0820112955271
 21
16684.498431744541
 31
0.0
  0
LINE
  5
1591C
  8
0-6
  6
CONTINUOUS
 62
     6
 10
7098.0820112955271
 20
16684.498431744541
 30
0.0
 11
7140.738309208552
 21
16652.483427043291
 31
0.0
  0
LINE
  5
1591D
  8
0-6
  6
CONTINUOUS
 62
     6
 10
7140.738309208552
 20
14048.48407404317
 30
0.0
 11
7215.4580542791809
 21
14192.45606842189
 31
0.0
  0
LINE
  5
1591E
  8
0-6
  6
CONTINUOUS
 62
     6
 10
7215.4580542791809
 20
14192.45606842189
 30
0.0
 11
7098.0820112955271
 21
14080.499078744429
 31
0.0
  0
LINE
  5
1591F
  8
0-6
  6
CONTINUOUS
 62
     6
 10
7098.0820112955271
 20
14080.499078744429
 30
0.0
 11
7140.738309208552
 21
14048.48407404317
 31
0.0
  0
LINE
  5
15925
  8
0-6
  6
CONTINUOUS
 62
     6
 10
19585.08029824914
 20
19148.358648675301
 30
0.0
 11
19478.75227430118
 21
19270.854880421961
 31
0.0
  0
LINE
  5
15926
  8
0-6
  6
CONTINUOUS
 62
     6
 10
19478.75227430118
 20
19270.854880421961
 30
0.0
 11
19539.604393894431
 21
19120.493573746509
 31
0.0
  0
LINE
  5
15927
  8
0-6
  6
CONTINUOUS
 62
     6
 10
19539.604393894431
 20
19120.493573746509
 30
0.0
 11
19585.08029824914
 21
19148.358648675301
 31
0.0
  0
LINE
  5
15928
  8
0-6
  6
CONTINUOUS
 62
     6
 10
19556.895952743162
 20
19564.17220535464
 30
0.0
 11
19487.852274301182
 21
19417.393644467811
 31
0.0
  0
LINE
  5
15929
  8
0-6
  6
CONTINUOUS
 62
     6
 10
19487.852274301182
 20
19417.393644467811
 30
0.0
 11
19600.769274480321
 21
19533.846442092788
 31
0.0
  0
LINE
  5
1592A
  8
0-6
  6
CONTINUOUS
 62
     6
 10
19600.769274480321
 20
19533.846442092788
 30
0.0
 11
19556.895952743162
 21
19564.17220535464
 31
0.0
  0
LINE
  5
1592B
  8
0-6
  6
CONTINUOUS
 62
     6
 10
19585.08029824914
 20
16981.051217168599
 30
0.0
 11
19478.75227430118
 21
16858.55498542195
 31
0.0
  0
LINE
  5
1592C
  8
0-6
  6
CONTINUOUS
 62
     6
 10
19478.75227430118
 20
16858.55498542195
 30
0.0
 11
19539.604393894431
 21
17008.916292097401
 31
0.0
  0
LINE
  5
1592D
  8
0-6
  6
CONTINUOUS
 62
     6
 10
19539.604393894431
 20
17008.916292097401
 30
0.0
 11
19585.08029824914
 21
16981.051217168599
 31
0.0
  0
LINE
  5
1592E
  8
0-6
  6
CONTINUOUS
 62
     6
 10
19585.08029824914
 20
14424.051653168601
 30
0.0
 11
19478.75227430118
 21
14301.555421421959
 31
0.0
  0
LINE
  5
1592F
  8
0-6
  6
CONTINUOUS
 62
     6
 10
19478.75227430118
 20
14301.555421421959
 30
0.0
 11
19539.604393894431
 21
14451.916728097411
 31
0.0
  0
LINE
  5
15930
  8
0-6
  6
CONTINUOUS
 62
     6
 10
19539.604393894431
 20
14451.916728097411
 30
0.0
 11
19585.08029824914
 21
14424.051653168601
 31
0.0
  0
LINE
  5
15931
  8
0-6
  6
CONTINUOUS
 62
     6
 10
19556.895952743162
 20
16565.23766048926
 30
0.0
 11
19487.852274301182
 21
16712.01622137607
 31
0.0
  0
LINE
  5
15932
  8
0-6
  6
CONTINUOUS
 62
     6
 10
19487.852274301182
 20
16712.01622137607
 30
0.0
 11
19600.769274480321
 21
16595.5634237511
 31
0.0
  0
LINE
  5
15933
  8
0-6
  6
CONTINUOUS
 62
     6
 10
19600.769274480321
 20
16595.5634237511
 30
0.0
 11
19556.895952743162
 21
16565.23766048926
 31
0.0
  0
LINE
  5
15934
  8
0-6
  6
CONTINUOUS
 62
     6
 10
19556.895952743162
 20
14028.17686053513
 30
0.0
 11
19487.852274301182
 21
14174.95542142195
 31
0.0
  0
LINE
  5
15935
  8
0-6
  6
CONTINUOUS
 62
     6
 10
19487.852274301182
 20
14174.95542142195
 30
0.0
 11
19600.769274480321
 21
14058.50262379698
 31
0.0
  0
LINE
  5
15936
  8
0-6
  6
CONTINUOUS
 62
     6
 10
19600.769274480321
 20
14058.50262379698
 30
0.0
 11
19556.895952743162
 21
14028.17686053513
 31
0.0
  0
LINE
  5
1596D
  8
SUNPOU
  6
CONTINUOUS
 62
     4
 10
24442.852274301182
 20
20606.456345421939
 30
0.0
 11
19442.852274301182
 21
20606.456345421939
 31
0.0
  0
LINE
  5
1596F
  8
SUNPOU
  6
CONTINUOUS
 62
     4
 10
19442.852274301182
 20
19730.905195299281
 30
0.0
 11
19442.852274301182
 21
20286.45634542195
 31
0.0
  0
LINE
  5
15970
  8
SUNPOU
  6
CONTINUOUS
 62
     4
 10
19485.354517301181
 20
19569.805685421961
 30
0.0
 11
19485.354517301181
 21
20286.45634542195
 31
0.0
  0
LINE
  5
15971
  8
SUNPOU
  6
CONTINUOUS
 62
     4
 10
19442.852274301182
 20
20206.45634542195
 30
0.0
 11
19202.852274301182
 21
20206.45634542195
 31
0.0
  0
LINE
  5
15972
  8
SUNPOU
  6
CONTINUOUS
 62
     4
 10
19485.354517301181
 20
20206.45634542195
 30
0.0
 11
19725.354517301181
 21
20206.45634542195
 31
0.0
  0
LINE
  5
15973
  8
SUNPOU
  6
CONTINUOUS
 62
     4
 10
19442.852274301182
 20
20206.45634542195
 30
0.0
 11
19485.354517301181
 21
20206.45634542195
 31
0.0
  0
LINE
  5
15974
  8
SUNPOU
  6
CONTINUOUS
 62
     4
 10
19442.852274301182
 20
19730.905195299281
 30
0.0
 11
19442.852274301182
 21
20286.45634542195
 31
0.0
  0
LINE
  5
15975
  8
SUNPOU
  6
CONTINUOUS
 62
     4
 10
19400.353989301191
 20
19566.457928421951
 30
0.0
 11
19400.353989301191
 21
20286.45634542195
 31
0.0
  0
LINE
  5
15976
  8
SUNPOU
  6
CONTINUOUS
 62
     4
 10
19442.852274301182
 20
20206.45634542195
 30
0.0
 11
19682.852274301182
 21
20206.45634542195
 31
0.0
  0
LINE
  5
15977
  8
SUNPOU
  6
CONTINUOUS
 62
     4
 10
19400.353989301191
 20
20206.45634542195
 30
0.0
 11
19160.353989301191
 21
20206.45634542195
 31
0.0
  0
LINE
  5
15978
  8
SUNPOU
  6
CONTINUOUS
 62
     4
 10
19442.852274301182
 20
20206.45634542195
 30
0.0
 11
19400.353989301191
 21
20206.45634542195
 31
0.0
  0
LINE
  5
15979
  8
SUNPOU
  6
CONTINUOUS
 62
     4
 10
19058.247438349241
 20
16796.455421421961
 30
0.0
 11
18145.008649932559
 21
16796.455421421961
 31
0.0
  0
LINE
  5
1597A
  8
SUNPOU
  6
CONTINUOUS
 62
     4
 10
19058.247438349241
 20
19363.955421421961
 30
0.0
 11
18145.008649932559
 21
19363.955421421961
 31
0.0
  0
LINE
  5
1597B
  8
SUNPOU
  6
CONTINUOUS
 62
     4
 10
18225.008649932552
 20
16796.455421421961
 30
0.0
 11
18225.008649932552
 21
19363.955421421961
 31
0.0
  0
LINE
  5
1597C
  8
SUNPOU
  6
CONTINUOUS
 62
     4
 10
19058.247438349241
 20
14228.955421421961
 30
0.0
 11
18145.008649932559
 21
14228.955421421961
 31
0.0
  0
LINE
  5
1597D
  8
SUNPOU
  6
CONTINUOUS
 62
     4
 10
19058.247438349241
 20
16796.455421421961
 30
0.0
 11
18145.008649932559
 21
16796.455421421961
 31
0.0
  0
LINE
  5
1597E
  8
SUNPOU
  6
CONTINUOUS
 62
     4
 10
18225.008649932552
 20
14228.955421421961
 30
0.0
 11
18225.008649932552
 21
16796.455421421961
 31
0.0
  0
ARC
  5
15996
  8
1-前柱P
 10
19433.25227430118
 20
14297.35542142196
 30
0.0
 40
1.0
 50
0.0
 51
90.0
  0
LINE
  5
15997
  8
1-前柱P
 10
19434.25227430118
 20
14297.35542142196
 30
0.0
 11
19434.25227430118
 21
14295.75542142196
 31
0.0
  0
LINE
  5
15998
  8
1-前柱P
 10
19434.25227430118
 20
14295.75542142196
 30
0.0
 11
19445.45227430118
 21
14295.75542142196
 31
0.0
  0
LINE
  5
15999
  8
1-前柱P
 10
19445.45227430118
 20
14295.75542142196
 30
0.0
 11
19445.452274301191
 21
14297.35542142196
 31
0.0
  0
ARC
  5
1599A
  8
1-前柱P
 10
19446.452274301191
 20
14297.35542142196
 30
0.0
 40
1.0
 50
90.0
 51
180.0
  0
ARC
  5
1599B
  8
1-中柱P
 10
19449.452274301191
 20
16864.755421421949
 30
0.0
 40
1.0
 50
90.0
 51
180.0
  0
LINE
  5
1599C
  8
1-中柱P
 10
19448.452274301191
 20
16864.755421421949
 30
0.0
 11
19448.452274301191
 21
16863.155421421961
 31
0.0
  0
LINE
  5
1599D
  8
1-中柱P
 10
19448.452274301191
 20
16863.155421421961
 30
0.0
 11
19437.25227430119
 21
16863.155421421961
 31
0.0
  0
LINE
  5
1599E
  8
1-中柱P
 10
19437.25227430119
 20
16863.155421421961
 30
0.0
 11
19437.25227430119
 21
16864.755421421949
 31
0.0
  0
ARC
  5
1599F
  8
1-中柱P
 10
19436.25227430119
 20
16864.755421421949
 30
0.0
 40
1.0
 50
0.0
 51
90.0
  0
ARC
  5
159A0
  8
1-後柱P
 10
19452.45227430118
 20
19295.90542142195
 30
0.0
 40
1.0
 50
180.0
 51
270.0
  0
LINE
  5
159A1
  8
1-後柱P
 10
19451.452274301151
 20
19295.90542142195
 30
0.0
 11
19451.452274301151
 21
19297.50542142196
 31
0.0
  0
LINE
  5
159A2
  8
1-後柱P
 10
19451.452274301151
 20
19297.50542142196
 30
0.0
 11
19440.25227430118
 21
19297.50542142196
 31
0.0
  0
LINE
  5
159A3
  8
1-後柱P
 10
19440.25227430118
 20
19297.50542142196
 30
0.0
 11
19440.25227430118
 21
19295.90542142195
 31
0.0
  0
ARC
  5
159A4
  8
1-後柱P
 10
19439.25227430118
 20
19295.90542142195
 30
0.0
 40
1.0
 50
270.0
 51
0.0
  0
LINE
  5
159A5
  8
SUNPOU
  6
CONTINUOUS
 62
     4
 10
13451.8888954096
 20
8524.1575434219612
 30
0.0
 11
13451.8888954096
 21
9915.1575694219573
 31
0.0
  0
LINE
  5
159A6
  8
SUNPOU
  6
CONTINUOUS
 62
     4
 10
7901.8888954096037
 20
8656.0473668343893
 30
0.0
 11
7901.8888954096037
 21
9915.1575694219573
 31
0.0
  0
LINE
  5
159A7
  8
SUNPOU
  6
CONTINUOUS
 62
     4
 10
13451.8888954096
 20
9835.1575694219573
 30
0.0
 11
7901.8888954096037
 21
9835.1575694219573
 31
0.0
  0
LINE
  5
159A8
  8
SUNPOU
  6
CONTINUOUS
 62
     4
 10
8051.8888954095974
 20
8582.0676074219573
 30
0.0
 11
8051.8888954095974
 21
9515.1592194219611
 31
0.0
  0
LINE
  5
159A9
  8
SUNPOU
  6
CONTINUOUS
 62
     4
 10
7901.8888954096037
 20
8656.0473668343893
 30
0.0
 11
7901.8888954096037
 21
9515.1592194219611
 31
0.0
  0
LINE
  5
159AA
  8
SUNPOU
  6
CONTINUOUS
 62
     4
 10
8051.8888954095974
 20
9435.1592194219593
 30
0.0
 11
8291.8888954095964
 21
9435.1592194219593
 31
0.0
  0
LINE
  5
159AB
  8
SUNPOU
  6
CONTINUOUS
 62
     4
 10
7901.8888954096037
 20
9435.1592194219593
 30
0.0
 11
7661.8888954096028
 21
9435.1592194219593
 31
0.0
  0
LINE
  5
159AC
  8
SUNPOU
  6
CONTINUOUS
 62
     4
 10
8051.8888954095974
 20
9435.1592194219593
 30
0.0
 11
7901.8888954096037
 21
9435.1592194219593
 31
0.0
  0
LINE
  5
159AD
  8
SUNPOU
  6
CONTINUOUS
 62
     4
 10
13271.8888954096
 20
8394.3433191057684
 30
0.0
 11
13271.8888954096
 21
9515.1592194219611
 31
0.0
  0
LINE
  5
159AE
  8
SUNPOU
  6
CONTINUOUS
 62
     4
 10
8051.8888954095974
 20
8582.0676074219573
 30
0.0
 11
8051.8888954095974
 21
9515.1592194219611
 31
0.0
  0
LINE
  5
159AF
  8
SUNPOU
  6
CONTINUOUS
 62
     4
 10
13271.8888954096
 20
9435.1592194219593
 30
0.0
 11
8051.8888954095974
 21
9435.1592194219593
 31
0.0
  0
LINE
  5
159B0
  8
SUNPOU
  6
CONTINUOUS
 62
     4
 10
13451.8888954096
 20
8524.1575434219612
 30
0.0
 11
13451.8888954096
 21
9515.1592194219611
 31
0.0
  0
LINE
  5
159B1
  8
SUNPOU
  6
CONTINUOUS
 62
     4
 10
13271.8888954096
 20
8394.3433191057684
 30
0.0
 11
13271.8888954096
 21
9515.1592194219611
 31
0.0
  0
LINE
  5
159B2
  8
SUNPOU
  6
CONTINUOUS
 62
     4
 10
13451.8888954096
 20
9435.1592194219593
 30
0.0
 11
13271.8888954096
 21
9435.1592194219593
 31
0.0
  0
LINE
  5
159B3
  8
SUNPOU
  6
CONTINUOUS
 62
     4
 10
7959.3888954096037
 20
6287.1575434219621
 30
0.0
 11
6881.8884994096006
 21
6287.1575434219621
 31
0.0
  0
LINE
  5
159B4
  8
SUNPOU
  6
CONTINUOUS
 62
     4
 10
7867.0816358102238
 20
8636.1575434219612
 30
0.0
 11
6881.8884994096006
 21
8636.1575434219612
 31
0.0
  0
LINE
  5
159B5
  8
SUNPOU
  6
CONTINUOUS
 62
     4
 10
6961.8884994095988
 20
6287.1575434219621
 30
0.0
 11
6961.8884994095988
 21
8636.1575434219612
 31
0.0
  0
LINE
  5
159B6
  8
SUNPOU
  6
CONTINUOUS
 62
     4
 10
13359.3888954096
 20
6287.1575434219621
 30
0.0
 11
14441.88929140959
 21
6287.1575434219612
 31
0.0
  0
LINE
  5
159B7
  8
SUNPOU
  6
CONTINUOUS
 62
     4
 10
13531.8888954096
 20
8442.6575434219612
 30
0.0
 11
14441.88929140959
 21
8442.6575434219612
 31
0.0
  0
LINE
  5
159B8
  8
SUNPOU
  6
CONTINUOUS
 62
     4
 10
14361.88929140959
 20
6287.1575434219612
 30
0.0
 11
14361.88929140959
 21
8442.6575434219612
 31
0.0
  0
LINE
  5
159B9
  8
SUNPOU
  6
CONTINUOUS
 62
     4
 10
13271.8888954096
 20
6207.1575434219603
 30
0.0
 11
13271.8888954096
 21
4507.1578734219556
 31
0.0
  0
LINE
  5
159BA
  8
SUNPOU
  6
CONTINUOUS
 62
     4
 10
8051.8888954095974
 20
6207.1575434219603
 30
0.0
 11
8051.8888954095974
 21
4507.1578734219556
 31
0.0
  0
LINE
  5
159BB
  8
SUNPOU
  6
CONTINUOUS
 62
     4
 10
13271.8888954096
 20
4587.1578734219574
 30
0.0
 11
8051.8888954095974
 21
4587.1578734219574
 31
0.0
  0
LINE
  5
159BC
  8
SUNPOU
  6
CONTINUOUS
 62
     4
 10
8094.3888954096064
 20
5844.5052854219593
 30
0.0
 11
8094.3888954096064
 21
4907.1577084219589
 31
0.0
  0
LINE
  5
159BD
  8
SUNPOU
  6
CONTINUOUS
 62
     4
 10
8051.8888954095974
 20
6207.1575434219603
 30
0.0
 11
8051.8888954095974
 21
4907.1577084219589
 31
0.0
  0
LINE
  5
159BE
  8
SUNPOU
  6
CONTINUOUS
 62
     4
 10
8094.3888954096064
 20
4987.1577084219589
 30
0.0
 11
8334.3888954096037
 21
4987.1577084219589
 31
0.0
  0
LINE
  5
159BF
  8
SUNPOU
  6
CONTINUOUS
 62
     4
 10
8051.8888954095974
 20
4987.1577084219589
 30
0.0
 11
7811.8888954095983
 21
4987.1577084219589
 31
0.0
  0
LINE
  5
159C0
  8
SUNPOU
  6
CONTINUOUS
 62
     4
 10
8094.3888954096064
 20
4987.1577084219589
 30
0.0
 11
8051.8888954095974
 21
4987.1577084219589
 31
0.0
  0
LINE
  5
159C1
  8
SUNPOU
  6
CONTINUOUS
 62
     4
 10
13229.3888954096
 20
5844.5052854219593
 30
0.0
 11
13229.3888954096
 21
4907.1577084219589
 31
0.0
  0
LINE
  5
159C2
  8
SUNPOU
  6
CONTINUOUS
 62
     4
 10
13271.8888954096
 20
6207.1575434219603
 30
0.0
 11
13271.8888954096
 21
4907.1577084219589
 31
0.0
  0
LINE
  5
159C3
  8
SUNPOU
  6
CONTINUOUS
 62
     4
 10
13229.3888954096
 20
4987.1577084219589
 30
0.0
 11
12989.3888954096
 21
4987.1577084219589
 31
0.0
  0
LINE
  5
159C4
  8
SUNPOU
  6
CONTINUOUS
 62
     4
 10
13271.8888954096
 20
4987.1577084219589
 30
0.0
 11
13511.8888954096
 21
4987.1577084219589
 31
0.0
  0
LINE
  5
159C5
  8
SUNPOU
  6
CONTINUOUS
 62
     4
 10
13229.3888954096
 20
4987.1577084219589
 30
0.0
 11
13271.8888954096
 21
4987.1577084219589
 31
0.0
  0
LINE
  5
159C6
  8
SUNPOU
  6
CONTINUOUS
 62
     4
 10
10661.8888954096
 20
5844.5052854219593
 30
0.0
 11
10661.8888954096
 21
4907.1577084219589
 31
0.0
  0
LINE
  5
159C7
  8
SUNPOU
  6
CONTINUOUS
 62
     4
 10
13229.3888954096
 20
5844.5052854219593
 30
0.0
 11
13229.3888954096
 21
4907.1577084219589
 31
0.0
  0
LINE
  5
159C8
  8
SUNPOU
  6
CONTINUOUS
 62
     4
 10
10661.8888954096
 20
4987.1577084219589
 30
0.0
 11
13229.3888954096
 21
4987.1577084219589
 31
0.0
  0
LINE
  5
159C9
  8
SUNPOU
  6
CONTINUOUS
 62
     4
 10
10661.8888954096
 20
5844.5052854219593
 30
0.0
 11
10661.8888954096
 21
4907.1577084219589
 31
0.0
  0
LINE
  5
159CA
  8
SUNPOU
  6
CONTINUOUS
 62
     4
 10
8094.3888954096064
 20
5844.5052854219593
 30
0.0
 11
8094.3888954096064
 21
4907.1577084219589
 31
0.0
  0
LINE
  5
159CB
  8
SUNPOU
  6
CONTINUOUS
 62
     4
 10
10661.8888954096
 20
4987.1577084219589
 30
0.0
 11
8094.3888954096064
 21
4987.1577084219589
 31
0.0
  0
LINE
  5
159CC
  8
SUNPOU
  6
CONTINUOUS
 62
     4
 10
27095.8522743012
 20
8715.6575694219555
 30
0.0
 11
27095.8522743012
 21
9915.1021434219656
 31
0.0
  0
LINE
  5
159CD
  8
SUNPOU
  6
CONTINUOUS
 62
     4
 10
19357.352274301182
 20
8715.6575694219555
 30
0.0
 11
19357.352274301182
 21
9915.1021434219656
 31
0.0
  0
LINE
  5
159CE
  8
SUNPOU
  6
CONTINUOUS
 62
     4
 10
27092.8522743012
 20
9835.1021434219638
 30
0.0
 11
19360.352274301182
 21
9835.1021434219638
 31
0.0
  0
LINE
  5
159CF
  8
SUNPOU
  6
CONTINUOUS
 62
     4
 10
19400.352274301182
 20
8715.6575694219555
 30
0.0
 11
19400.352274301182
 21
9515.1592194219611
 31
0.0
  0
LINE
  5
159D0
  8
SUNPOU
  6
CONTINUOUS
 62
     4
 10
19357.352274301182
 20
8715.6575694219555
 30
0.0
 11
19357.352274301182
 21
9515.1592194219611
 31
0.0
  0
LINE
  5
159D1
  8
SUNPOU
  6
CONTINUOUS
 62
     4
 10
19400.352274301182
 20
9435.1592194219593
 30
0.0
 11
19640.352274301182
 21
9435.1592194219593
 31
0.0
  0
LINE
  5
159D2
  8
SUNPOU
  6
CONTINUOUS
 62
     4
 10
19360.352274301182
 20
9435.1592194219593
 30
0.0
 11
19120.352274301182
 21
9435.1592194219593
 31
0.0
  0
LINE
  5
159D3
  8
SUNPOU
  6
CONTINUOUS
 62
     4
 10
19400.352274301182
 20
9435.1592194219593
 30
0.0
 11
19360.352274301182
 21
9435.1592194219593
 31
0.0
  0
LINE
  5
159D4
  8
SUNPOU
  6
CONTINUOUS
 62
     4
 10
27052.8522743012
 20
8585.657635421956
 30
0.0
 11
27052.8522743012
 21
9515.1592194219611
 31
0.0
  0
LINE
  5
159D6
  8
SUNPOU
  6
CONTINUOUS
 62
     4
 10
27052.8522743012
 20
9435.1592194219593
 30
0.0
 11
26812.852274301189
 21
9435.1592194219593
 31
0.0
  0
LINE
  5
159D7
  8
SUNPOU
  6
CONTINUOUS
 62
     4
 10
27092.8522743012
 20
9435.1592194219593
 30
0.0
 11
27332.8522743012
 21
9435.1592194219593
 31
0.0
  0
LINE
  5
159D8
  8
SUNPOU
  6
CONTINUOUS
 62
     4
 10
27052.8522743012
 20
9435.1592194219593
 30
0.0
 11
27092.8522743012
 21
9435.1592194219593
 31
0.0
  0
LINE
  5
159D9
  8
SUNPOU
  6
CONTINUOUS
 62
     4
 10
24400.352274301182
 20
8585.657635421956
 30
0.0
 11
24400.352274301182
 21
9515.1592194219611
 31
0.0
  0
LINE
  5
159DA
  8
SUNPOU
  6
CONTINUOUS
 62
     4
 10
27052.8522743012
 20
8585.657635421956
 30
0.0
 11
27052.8522743012
 21
9515.1592194219611
 31
0.0
  0
LINE
  5
159DB
  8
SUNPOU
  6
CONTINUOUS
 62
     4
 10
24400.352274301182
 20
9435.1592194219593
 30
0.0
 11
27052.8522743012
 21
9435.1592194219593
 31
0.0
  0
LINE
  5
159DC
  8
SUNPOU
  6
CONTINUOUS
 62
     4
 10
27140.35491330118
 20
6287.1575434219621
 30
0.0
 11
28583.454525005909
 21
6287.1575434219621
 31
0.0
  0
LINE
  5
159DD
  8
SUNPOU
  6
CONTINUOUS
 62
     4
 10
27172.8522743012
 20
8636.1575694219555
 30
0.0
 11
28583.454525005909
 21
8636.1575694219555
 31
0.0
  0
LINE
  5
159DE
  8
SUNPOU
  6
CONTINUOUS
 62
     4
 10
28503.45452500592
 20
6287.1575434219621
 30
0.0
 11
28503.45452500592
 21
8636.1575694219555
 31
0.0
  0
LINE
  5
159DF
  8
SUNPOU
  6
CONTINUOUS
 62
     4
 10
27140.35491330118
 20
6287.1575434219621
 30
0.0
 11
27940.355573301182
 21
6287.1575434219621
 31
0.0
  0
LINE
  5
159E0
  8
SUNPOU
  6
CONTINUOUS
 62
     4
 10
27047.855969301181
 20
8178.6575434219612
 30
0.0
 11
27940.355573301182
 21
8178.6575434219612
 31
0.0
  0
LINE
  5
159E1
  8
SUNPOU
  6
CONTINUOUS
 62
     4
 10
27860.355573301182
 20
6287.1575434219621
 30
0.0
 11
27860.355573301182
 21
8178.6575434219612
 31
0.0
  0
LINE
  5
159E2
  8
SUNPOU
  6
CONTINUOUS
 62
     4
 10
24397.352274301182
 20
6207.1575434219603
 30
0.0
 11
24397.352274301182
 21
5307.1575434219612
 31
0.0
  0
LINE
  5
159E3
  8
SUNPOU
  6
CONTINUOUS
 62
     4
 10
19485.352274301182
 20
6107.1577084219589
 30
0.0
 11
19485.352274301182
 21
5307.1575434219612
 31
0.0
  0
LINE
  5
159E4
  8
SUNPOU
  6
CONTINUOUS
 62
     4
 10
24397.352274301182
 20
5387.1575434219612
 30
0.0
 11
19485.352274301182
 21
5387.1575434219612
 31
0.0
  0
LINE
  5
159E5
  8
SUNPOU
  6
CONTINUOUS
 62
     4
 10
27052.812321353649
 20
6207.1575434219603
 30
0.0
 11
27052.812321353649
 21
4507.1578734220147
 31
0.0
  0
LINE
  5
159E6
  8
SUNPOU
  6
CONTINUOUS
 62
     4
 10
19400.352274301182
 20
6107.1577084219589
 30
0.0
 11
19400.352274301182
 21
4507.1578734220147
 31
0.0
  0
LINE
  5
159E7
  8
SUNPOU
  6
CONTINUOUS
 62
     4
 10
27052.812321353649
 20
4587.1578734220147
 30
0.0
 11
19400.352274301182
 21
4587.1578734220147
 31
0.0
  0
LINE
  5
159E8
  8
SUNPOU
  6
CONTINUOUS
 62
     4
 10
27010.3522743012
 20
5844.5052854219593
 30
0.0
 11
27010.3522743012
 21
4907.1577084219589
 31
0.0
  0
LINE
  5
159E9
  8
SUNPOU
  6
CONTINUOUS
 62
     4
 10
27052.812321353649
 20
6207.1575434219603
 30
0.0
 11
27052.812321353649
 21
4907.1577084219589
 31
0.0
  0
LINE
  5
159EA
  8
SUNPOU
  6
CONTINUOUS
 62
     4
 10
27010.3522743012
 20
4987.1577084219589
 30
0.0
 11
26770.3522743012
 21
4987.1577084219589
 31
0.0
  0
LINE
  5
159EB
  8
SUNPOU
  6
CONTINUOUS
 62
     4
 10
27052.812321353649
 20
4987.1577084219589
 30
0.0
 11
27292.812321353649
 21
4987.1577084219589
 31
0.0
  0
LINE
  5
159EC
  8
SUNPOU
  6
CONTINUOUS
 62
     4
 10
27010.3522743012
 20
4987.1577084219589
 30
0.0
 11
27052.812321353649
 21
4987.1577084219589
 31
0.0
  0
LINE
  5
159ED
  8
SUNPOU
  6
CONTINUOUS
 62
     4
 10
24442.852274301182
 20
5844.5052854219593
 30
0.0
 11
24442.852274301182
 21
4907.1577084219589
 31
0.0
  0
LINE
  5
159EE
  8
SUNPOU
  6
CONTINUOUS
 62
     4
 10
27010.3522743012
 20
5844.5052854219593
 30
0.0
 11
27010.3522743012
 21
4907.1577084219589
 31
0.0
  0
LINE
  5
159EF
  8
SUNPOU
  6
CONTINUOUS
 62
     4
 10
24442.852274301182
 20
4987.1577084219589
 30
0.0
 11
27010.3522743012
 21
4987.1577084219589
 31
0.0
  0
LINE
  5
159F0
  8
SUNPOU
  6
CONTINUOUS
 62
     4
 10
26916.3522743012
 20
6107.1577084219589
 30
0.0
 11
26916.3522743012
 21
5307.1575434219612
 31
0.0
  0
LINE
  5
159F1
  8
SUNPOU
  6
CONTINUOUS
 62
     4
 10
24536.8522743012
 20
6107.1577084219589
 30
0.0
 11
24536.8522743012
 21
5307.1575434219612
 31
0.0
  0
LINE
  5
159F2
  8
SUNPOU
  6
CONTINUOUS
 62
     4
 10
26916.3522743012
 20
5387.1575434219612
 30
0.0
 11
24536.8522743012
 21
5387.1575434219612
 31
0.0
  0
LINE
  5
159F3
  8
SUNPOU
  6
CONTINUOUS
 62
     4
 10
19442.852274301182
 20
5844.5052854219593
 30
0.0
 11
19442.852274301182
 21
4907.1577084219589
 31
0.0
  0
LINE
  5
159F4
  8
SUNPOU
  6
CONTINUOUS
 62
     4
 10
19400.352274301182
 20
6107.1577084219589
 30
0.0
 11
19400.352274301182
 21
4907.1577084219589
 31
0.0
  0
LINE
  5
159F5
  8
SUNPOU
  6
CONTINUOUS
 62
     4
 10
19442.852274301182
 20
4987.1577084219589
 30
0.0
 11
19682.852274301182
 21
4987.1577084219589
 31
0.0
  0
LINE
  5
159F6
  8
SUNPOU
  6
CONTINUOUS
 62
     4
 10
19400.352274301182
 20
4987.1577084219589
 30
0.0
 11
19160.352274301182
 21
4987.1577084219589
 31
0.0
  0
LINE
  5
159F7
  8
SUNPOU
  6
CONTINUOUS
 62
     4
 10
19442.852274301182
 20
4987.1577084219589
 30
0.0
 11
19400.352274301182
 21
4987.1577084219589
 31
0.0
  0
LINE
  5
159F8
  8
SUNPOU
  6
CONTINUOUS
 62
     4
 10
24442.852274301182
 20
5844.5052854219593
 30
0.0
 11
24442.852274301182
 21
4907.1577084219589
 31
0.0
  0
LINE
  5
159F9
  8
SUNPOU
  6
CONTINUOUS
 62
     4
 10
19442.852274301182
 20
5844.5052854219593
 30
0.0
 11
19442.852274301182
 21
4907.1577084219589
 31
0.0
  0
LINE
  5
159FA
  8
SUNPOU
  6
CONTINUOUS
 62
     4
 10
24442.852274301182
 20
4987.1577084219589
 30
0.0
 11
19442.852274301182
 21
4987.1577084219589
 31
0.0
  0
LINE
  5
159FB
  8
SUNPOU
  6
CONTINUOUS
 62
     4
 10
24400.352274301182
 20
8585.657635421956
 30
0.0
 11
24400.352274301182
 21
9515.1592194219611
 31
0.0
  0
LINE
  5
159FC
  8
SUNPOU
  6
CONTINUOUS
 62
     4
 10
19400.352274301182
 20
8715.6575694219555
 30
0.0
 11
19400.352274301182
 21
9515.1592194219611
 31
0.0
  0
LINE
  5
159FD
  8
SUNPOU
  6
CONTINUOUS
 62
     4
 10
24400.352274301182
 20
9435.1592194219593
 30
0.0
 11
19400.352274301182
 21
9435.1592194219593
 31
0.0
  0
LINE
  5
159FE
  8
SUNPOU
  6
CONTINUOUS
 62
     4
 10
19234.352274301182
 20
6287.9718314219654
 30
0.0
 11
18149.529876006811
 21
6287.9718314219654
 31
0.0
  0
LINE
  5
159FF
  8
SUNPOU
  6
CONTINUOUS
 62
     4
 10
19319.352274301182
 20
8307.971831421959
 30
0.0
 11
18149.529876006811
 21
8307.971831421959
 31
0.0
  0
LINE
  5
15A00
  8
SUNPOU
  6
CONTINUOUS
 62
     4
 10
18229.529876006789
 20
6287.9718314219654
 30
0.0
 11
18229.5298760068
 21
8307.971831421959
 31
0.0
  0
LINE
  5
15A01
  8
SUNPOU
  6
CONTINUOUS
 62
     4
 10
14061.67033012739
 20
14036.456147421941
 30
0.0
 11
14908.670106127371
 21
14036.456147421941
 31
0.0
  0
LINE
  5
15A02
  8
SUNPOU
  6
CONTINUOUS
 62
     4
 10
14828.670106127371
 20
14228.955421421961
 30
0.0
 11
14828.670106127371
 21
14036.456147421941
 31
0.0
  0
LINE
  5
15A03
  8
SUNPOU
  6
CONTINUOUS
 62
     4
 10
14828.670106127371
 20
16796.455421421939
 30
0.0
 11
14828.670106127371
 21
14228.955421421961
 31
0.0
  0
LINE
  5
15A04
  8
SUNPOU
  6
CONTINUOUS
 62
     4
 10
14828.670106127371
 20
19363.95542142195
 30
0.0
 11
14828.670106127371
 21
16796.455421421939
 31
0.0
  0
LINE
  5
15A05
  8
SUNPOU
  6
CONTINUOUS
 62
     4
 10
14748.670106127371
 20
19363.95542142195
 30
0.0
 11
14788.670106127371
 21
19363.95542142195
 31
0.0
  0
LINE
  5
15A06
  8
SUNPOU
  6
CONTINUOUS
 62
     4
 10
14056.67105612739
 20
19586.455289421941
 30
0.0
 11
14868.670106127371
 21
19586.455289421941
 31
0.0
  0
LINE
  5
15A07
  8
SUNPOU
  6
CONTINUOUS
 62
     4
 10
14828.670106127371
 20
19363.95542142195
 30
0.0
 11
14828.670106127371
 21
19586.455289421941
 31
0.0
  0
LINE
  5
15A08
  8
SUNPOU
  6
CONTINUOUS
 62
     4
 10
13988.17021112737
 20
19576.45872042195
 30
0.0
 11
14508.670765127359
 21
19576.45872042195
 31
0.0
  0
LINE
  5
15A09
  8
SUNPOU
  6
CONTINUOUS
 62
     4
 10
14056.67105612739
 20
19586.455289421941
 30
0.0
 11
14508.670765127359
 21
19586.455289421941
 31
0.0
  0
LINE
  5
15A0A
  8
SUNPOU
  6
CONTINUOUS
 62
     4
 10
14428.670765127359
 20
19576.45872042195
 30
0.0
 11
14428.670765127359
 21
19336.45872042195
 31
0.0
  0
LINE
  5
15A0B
  8
SUNPOU
  6
CONTINUOUS
 62
     4
 10
14428.670765127359
 20
19586.455289421941
 30
0.0
 11
14428.670765127359
 21
19826.455289421941
 31
0.0
  0
LINE
  5
15A0C
  8
SUNPOU
  6
CONTINUOUS
 62
     4
 10
14428.670765127359
 20
19576.45872042195
 30
0.0
 11
14428.670765127359
 21
19586.455289421941
 31
0.0
  0
LINE
  5
15A0D
  8
SUNPOU
  6
CONTINUOUS
 62
     4
 10
6331.6703301273938
 20
20211.457334421961
 30
0.0
 11
6331.6703301273938
 21
20286.45634542195
 31
0.0
  0
LINE
  5
15A0E
  8
SUNPOU
  6
CONTINUOUS
 62
     4
 10
6246.1703301273938
 20
19661.45700442194
 30
0.0
 11
6246.1703301273938
 21
20286.45634542195
 31
0.0
  0
LINE
  5
15A0F
  8
SUNPOU
  6
CONTINUOUS
 62
     4
 10
6331.6703301273938
 20
20206.45634542195
 30
0.0
 11
6571.6703301273928
 21
20206.45634542195
 31
0.0
  0
LINE
  5
15A10
  8
SUNPOU
  6
CONTINUOUS
 62
     4
 10
6249.1703301273938
 20
20206.45634542195
 30
0.0
 11
6009.1703301273956
 21
20206.45634542195
 31
0.0
  0
LINE
  5
15A11
  8
SUNPOU
  6
CONTINUOUS
 62
     4
 10
6331.6703301273938
 20
20206.45634542195
 30
0.0
 11
6249.1703301273938
 21
20206.45634542195
 31
0.0
  0
LINE
  5
15A12
  8
SUNPOU
  6
CONTINUOUS
 62
     4
 10
11331.67033012739
 20
20211.457334421961
 30
0.0
 11
11331.67033012739
 21
20286.45634542195
 31
0.0
  0
LINE
  5
15A13
  8
SUNPOU
  6
CONTINUOUS
 62
     4
 10
6331.6703301273938
 20
20211.457334421961
 30
0.0
 11
6331.6703301273938
 21
20286.45634542195
 31
0.0
  0
LINE
  5
15A14
  8
SUNPOU
  6
CONTINUOUS
 62
     4
 10
11331.67033012739
 20
20206.45634542195
 30
0.0
 11
6331.6703301273938
 21
20206.45634542195
 31
0.0
  0
LINE
  5
15A15
  8
SUNPOU
  6
CONTINUOUS
 62
     4
 10
13899.17033012739
 20
19736.45700442194
 30
0.0
 11
13899.17033012739
 21
20286.45634542195
 31
0.0
  0
LINE
  5
15A16
  8
SUNPOU
  6
CONTINUOUS
 62
     4
 10
11331.67033012739
 20
20211.457334421961
 30
0.0
 11
11331.67033012739
 21
20286.45634542195
 31
0.0
  0
LINE
  5
15A17
  8
SUNPOU
  6
CONTINUOUS
 62
     4
 10
13899.17033012739
 20
20206.45634542195
 30
0.0
 11
11331.67033012739
 21
20206.45634542195
 31
0.0
  0
LINE
  5
15A18
  8
SUNPOU
  6
CONTINUOUS
 62
     4
 10
13899.17033012739
 20
19736.45700442194
 30
0.0
 11
13899.17033012739
 21
20286.45634542195
 31
0.0
  0
LINE
  5
15A19
  8
SUNPOU
  6
CONTINUOUS
 62
     4
 10
13984.67033012739
 20
19656.456741421938
 30
0.0
 11
13984.67033012739
 21
20286.45634542195
 31
0.0
  0
LINE
  5
15A1A
  8
SUNPOU
  6
CONTINUOUS
 62
     4
 10
13899.17033012739
 20
20206.45634542195
 30
0.0
 11
13659.17033012739
 21
20206.45634542195
 31
0.0
  0
LINE
  5
15A1B
  8
SUNPOU
  6
CONTINUOUS
 62
     4
 10
13981.67033012739
 20
20206.45634542195
 30
0.0
 11
14221.67033012739
 21
20206.45634542195
 31
0.0
  0
LINE
  5
15A1C
  8
SUNPOU
  6
CONTINUOUS
 62
     4
 10
13899.17033012739
 20
20206.45634542195
 30
0.0
 11
13981.67033012739
 21
20206.45634542195
 31
0.0
  0
LINE
  5
15A1D
  8
SUNPOU
  6
CONTINUOUS
 62
     4
 10
13984.67033012739
 20
13956.456147421941
 30
0.0
 11
13984.67033012739
 21
12666.45535542194
 31
0.0
  0
LINE
  5
15A1E
  8
SUNPOU
  6
CONTINUOUS
 62
     4
 10
6246.1703301273938
 20
13956.456147421941
 30
0.0
 11
6246.1703301273938
 21
12666.45535542194
 31
0.0
  0
LINE
  5
15A1F
  8
SUNPOU
  6
CONTINUOUS
 62
     4
 10
13981.67033012739
 20
12746.45535542194
 30
0.0
 11
6249.1703301273938
 21
12746.45535542194
 31
0.0
  0
LINE
  5
15A20
  8
0-6
  6
CONTINUOUS
 62
     6
 10
9605.4260118075526
 20
15885.58167375365
 30
0.0
 11
9725.2807387140692
 21
15994.912770708899
 31
0.0
  0
LINE
  5
15A21
  8
0-6
  6
CONTINUOUS
 62
     6
 10
9725.2807387140692
 20
15994.912770708899
 30
0.0
 11
9647.3553406772935
 21
15852.62406186634
 31
0.0
  0
LINE
  5
15A22
  8
0-6
  6
CONTINUOUS
 62
     6
 10
9647.3553406772935
 20
15852.62406186634
 30
0.0
 11
9605.4260118075526
 21
15885.58167375365
 31
0.0
  0
LINE
  5
15A23
  8
0-6
  6
CONTINUOUS
 62
     6
 10
13236.369636213871
 20
16990.071713700221
 30
0.0
 11
13268.00928258261
 21
16830.957361421952
 31
0.0
  0
LINE
  5
15A24
  8
0-6
  6
CONTINUOUS
 62
     6
 10
13268.00928258261
 20
16830.957361421952
 30
0.0
 11
13186.48315668024
 21
16971.214037265301
 31
0.0
  0
LINE
  5
15A25
  8
0-6
  6
CONTINUOUS
 62
     6
 10
13186.48315668024
 20
16971.214037265301
 30
0.0
 11
13236.369636213871
 21
16990.071713700221
 31
0.0
  0
LINE
  5
15A26
  8
0-6
  6
CONTINUOUS
 62
     6
 10
6159.0702027376574
 20
15355.02068853878
 30
0.0
 11
6249.1703301273938
 21
15489.90190484837
 31
0.0
  0
LINE
  5
15A27
  8
0-6
  6
CONTINUOUS
 62
     6
 10
6249.1703301273938
 20
15489.90190484837
 30
0.0
 11
6120.1935703456311
 21
15391.532710278459
 31
0.0
  0
LINE
  5
15A28
  8
0-6
  6
CONTINUOUS
 62
     6
 10
6120.1935703456311
 20
15391.532710278459
 30
0.0
 11
6159.0702027376574
 21
15355.02068853878
 31
0.0
  0
TEXT
  5
15A29
  8
0
  6
CONTINUOUS
 62
     7
 10
9240.7536634607277
 20
12826.45535542194
 30
0.0
 40
160.0
  1
ケラバ外寸7738.5
  0
TEXT
  5
15A2A
  8
0
  6
CONTINUOUS
 62
     7
 10
13997.31747412738
 20
20286.454629421962
 30
0.0
 40
160.0
  1
85.5
  0
TEXT
  5
15A2B
  8
0
  6
CONTINUOUS
 62
     7
 10
12215.42033012739
 20
20286.45634542195
 30
0.0
 40
160.0
  1
2567.5
  0
TEXT
  5
15A2C
  8
0
  6
CONTINUOUS
 62
     7
 10
8578.3369967940616
 20
20286.45634542195
 30
0.0
 40
160.0
  1
5000
  0
TEXT
  5
15A2D
  8
0
  6
CONTINUOUS
 62
     7
 10
5705.3225421273819
 20
20286.454629421962
 30
0.0
 40
160.0
  1
85.5
  0
TEXT
  5
15A2E
  8
0
  6
CONTINUOUS
 62
     7
 10
14380.06383452254
 20
19757.884150088601
 30
0.0
 40
160.0
  1
10
 50
90.0
  0
TEXT
  5
15A2F
  8
0
  6
CONTINUOUS
 62
     7
 10
14748.670106127371
 20
19664.93694381119
 30
0.0
 40
160.0
  1
222.5
 50
90.0
  0
TEXT
  5
15A30
  8
0
  6
CONTINUOUS
 62
     7
 10
14748.670106127371
 20
17680.20542142195
 30
0.0
 40
160.0
  1
2567.5
 50
90.0
  0
TEXT
  5
15A31
  8
0
  6
CONTINUOUS
 62
     7
 10
14748.670106127371
 20
15112.705421421961
 30
0.0
 40
160.0
  1
2567.5
 50
90.0
  0
TEXT
  5
15A32
  8
0
  6
CONTINUOUS
 62
     7
 10
14748.670106127391
 20
13372.46651901252
 30
0.0
 40
160.0
  1
192.5
 50
90.0
  0
TEXT
  5
15A33
  8
0
  6
CONTINUOUS
 62
     7
 10
18149.529876006811
 20
6634.9718314219663
 30
0.0
 40
160.0
  1
有効高サ2020
 50
90.0
  0
TEXT
  5
15A34
  8
0
  6
CONTINUOUS
 62
     7
 10
21647.01894096785
 20
9515.1592194219611
 30
0.0
 40
160.0
  1
5000
  0
TEXT
  5
15A35
  8
0
  6
CONTINUOUS
 62
     7
 10
21689.518940967839
 20
5067.1577084219589
 30
0.0
 40
160.0
  1
5000
  0
TEXT
  5
15A36
  8
0
  6
CONTINUOUS
 62
     7
 10
18800.351614301198
 20
5067.1574774219607
 30
0.0
 40
160.0
  1
42.5
  0
TEXT
  5
15A37
  8
0
  6
CONTINUOUS
 62
     7
 10
24846.602274301189
 20
5467.1575434219612
 30
0.0
 40
160.0
  1
有効開口巾2379.5
  0
TEXT
  5
15A38
  8
0
  6
CONTINUOUS
 62
     7
 10
25326.602274301182
 20
5067.1577084219589
 30
0.0
 40
160.0
  1
2567.5
  0
TEXT
  5
15A39
  8
0
  6
CONTINUOUS
 62
     7
 10
27152.675305301182
 20
5074.7048864219623
 30
0.0
 40
160.0
  1
42.5
  0
TEXT
  5
15A3A
  8
0
  6
CONTINUOUS
 62
     7
 10
22826.58229782743
 20
4667.1578734220147
 30
0.0
 40
160.0
  1
7652.5
  0
TEXT
  5
15A3B
  8
0
  6
CONTINUOUS
 62
     7
 10
21194.685607634521
 20
5467.1575434219612
 30
0.0
 40
160.0
  1
有効開口巾4912
  0
TEXT
  5
15A3C
  8
0
  6
CONTINUOUS
 62
     7
 10
27780.355573301182
 20
6310.240876755297
 30
0.0
 40
160.0
  1
有効開口高サ1891.5
 50
90.0
  0
TEXT
  5
15A3D
  8
0
  6
CONTINUOUS
 62
     7
 10
28423.454525005909
 20
6656.324223088629
 30
0.0
 40
160.0
  1
2349（2589）
 50
90.0
  0
TEXT
  5
15A3E
  8
0
  6
CONTINUOUS
 62
     7
 10
25326.602274301182
 20
9515.1592194219611
 30
0.0
 40
160.0
  1
2652.5
  0
TEXT
  5
15A3F
  8
0
  6
CONTINUOUS
 62
     7
 10
27182.6602603012
 20
9515.1584934219627
 30
0.0
 40
160.0
  1
43
  0
TEXT
  5
15A40
  8
0
  6
CONTINUOUS
 62
     7
 10
18979.88645430118
 20
9515.1584934219627
 30
0.0
 40
160.0
  1
43
  0
TEXT
  5
15A41
  8
0
  6
CONTINUOUS
 62
     7
 10
22826.602274301182
 20
9915.1021434219656
 30
0.0
 40
160.0
  1
7738.5
  0
TEXT
  5
15A42
  8
0
  6
CONTINUOUS
 62
     7
 10
8978.1388954096055
 20
5067.1577084219589
 30
0.0
 40
160.0
  1
2567.5
  0
TEXT
  5
15A43
  8
0
  6
CONTINUOUS
 62
     7
 10
11545.6388954096
 20
5067.1577084219589
 30
0.0
 40
160.0
  1
2567.5
  0
TEXT
  5
15A44
  8
0
  6
CONTINUOUS
 62
     7
 10
13373.87850940958
 20
5068.1482264219567
 30
0.0
 40
160.0
  1
42.5
  0
TEXT
  5
15A45
  8
0
  6
CONTINUOUS
 62
     7
 10
7451.8872454095981
 20
5067.1574774219607
 30
0.0
 40
160.0
  1
42.5
  0
TEXT
  5
15A46
  8
0
  6
CONTINUOUS
 62
     7
 10
10381.8888954096
 20
4667.1578734219556
 30
0.0
 40
160.0
  1
5220
  0
TEXT
  5
15A47
  8
0
  6
CONTINUOUS
 62
     7
 10
14281.88929140959
 20
6372.9075434219631
 30
0.0
 40
160.0
  1
2155.5（2395.5）
 50
90.0
  0
TEXT
  5
15A48
  8
0
  6
CONTINUOUS
 62
     7
 10
6881.8884994095988
 20
6656.32421008863
 30
0.0
 40
160.0
  1
2349（2589）
 50
90.0
  0
TEXT
  5
15A49
  8
0
  6
CONTINUOUS
 62
     7
 10
13559.56404387803
 20
9515.1592194219611
 30
0.0
 40
160.0
  1
180
  0
TEXT
  5
15A4A
  8
0
  6
CONTINUOUS
 62
     7
 10
10381.8888954096
 20
9515.1592194219611
 30
0.0
 40
160.0
  1
5220
  0
TEXT
  5
15A4B
  8
0
  6
CONTINUOUS
 62
     7
 10
7488.5555620762698
 20
9515.1592194219611
 30
0.0
 40
160.0
  1
150
  0
TEXT
  5
15A4C
  8
0
  6
CONTINUOUS
 62
     7
 10
10396.888895409589
 20
9915.1575694219573
 30
0.0
 40
160.0
  1
5550
  0
TEXT
  5
15A52
  8
0
  6
CONTINUOUS
 62
     7
 10
18145.008649932541
 20
15112.705421421961
 30
0.0
 40
160.0
  1
2567.5
 50
90.0
  0
TEXT
  5
15A53
  8
0
  6
CONTINUOUS
 62
     7
 10
18145.008649932541
 20
17680.205421421961
 30
0.0
 40
160.0
  1
2567.5
 50
90.0
  0
TEXT
  5
15A54
  8
0
  6
CONTINUOUS
 62
     7
 10
18821.9303463012
 20
20286.454629421962
 30
0.0
 40
160.0
  1
42.5
  0
TEXT
  5
15A55
  8
0
  6
CONTINUOUS
 62
     7
 10
19500.026313301161
 20
20305.798485421961
 30
0.0
 40
160.0
  1
42.5
  0
TEXT
  5
15A57
  8
0
  6
CONTINUOUS
 62
     7
 10
21689.518940967839
 20
20686.456345421939
 30
0.0
 40
160.0
  1
5000
  0
ARC
  5
15AAF
  8
0
  6
BYBLOCK
 62
     0
 10
19442.852274301182
 20
20606.456345421939
 30
0.0
 40
15.0
 50
0.0
 51
180.0
  0
ARC
  5
15AB0
  8
0
  6
BYBLOCK
 62
     0
 10
19442.852274301182
 20
20606.456345421939
 30
0.0
 40
15.0
 50
180.0
 51
0.0
  0
ARC
  5
15AB5
  8
0
  6
BYBLOCK
 62
     0
 10
19442.852274301182
 20
20206.45634542195
 30
0.0
 40
15.0
 50
180.0
 51
0.0
  0
ARC
  5
15AB6
  8
0
  6
BYBLOCK
 62
     0
 10
19442.852274301182
 20
20206.45634542195
 30
0.0
 40
15.0
 50
0.0
 51
180.0
  0
ARC
  5
15AB7
  8
0
  6
BYBLOCK
 62
     0
 10
19485.354517301181
 20
20206.45634542195
 30
0.0
 40
15.0
 50
0.0
 51
180.0
  0
ARC
  5
15AB8
  8
0
  6
BYBLOCK
 62
     0
 10
19485.354517301181
 20
20206.45634542195
 30
0.0
 40
15.0
 50
180.0
 51
0.0
  0
ARC
  5
15AB9
  8
0
  6
BYBLOCK
 62
     0
 10
19442.852274301182
 20
20206.45634542195
 30
0.0
 40
15.0
 50
0.0
 51
180.0
  0
ARC
  5
15ABA
  8
0
  6
BYBLOCK
 62
     0
 10
19442.852274301182
 20
20206.45634542195
 30
0.0
 40
15.0
 50
180.0
 51
0.0
  0
ARC
  5
15ABB
  8
0
  6
BYBLOCK
 62
     0
 10
19400.353989301191
 20
20206.45634542195
 30
0.0
 40
15.0
 50
180.0
 51
0.0
  0
ARC
  5
15ABC
  8
0
  6
BYBLOCK
 62
     0
 10
19400.353989301191
 20
20206.45634542195
 30
0.0
 40
15.0
 50
0.0
 51
180.0
  0
ARC
  5
15ABD
  8
0
  6
BYBLOCK
 62
     0
 10
18225.008649932552
 20
16796.455421421961
 30
0.0
 40
15.0
 50
90.0
 51
270.0
  0
ARC
  5
15ABE
  8
0
  6
BYBLOCK
 62
     0
 10
18225.008649932552
 20
16796.455421421961
 30
0.0
 40
15.0
 50
270.0
 51
90.0
  0
ARC
  5
15ABF
  8
0
  6
BYBLOCK
 62
     0
 10
18225.008649932552
 20
19363.955421421961
 30
0.0
 40
15.0
 50
270.0
 51
90.0
  0
ARC
  5
15AC0
  8
0
  6
BYBLOCK
 62
     0
 10
18225.008649932552
 20
19363.955421421961
 30
0.0
 40
15.0
 50
90.0
 51
270.0
  0
ARC
  5
15AC1
  8
0
  6
BYBLOCK
 62
     0
 10
18225.008649932552
 20
14228.955421421961
 30
0.0
 40
15.0
 50
90.0
 51
270.0
  0
ARC
  5
15AC2
  8
0
  6
BYBLOCK
 62
     0
 10
18225.008649932552
 20
14228.955421421961
 30
0.0
 40
15.0
 50
270.0
 51
90.0
  0
ARC
  5
15AC3
  8
0
  6
BYBLOCK
 62
     0
 10
18225.008649932552
 20
16796.455421421961
 30
0.0
 40
15.0
 50
270.0
 51
90.0
  0
ARC
  5
15AC4
  8
0
  6
BYBLOCK
 62
     0
 10
18225.008649932552
 20
16796.455421421961
 30
0.0
 40
15.0
 50
90.0
 51
270.0
  0
ARC
  5
15AD9
  8
0
  6
BYBLOCK
 62
     0
 10
13451.8888954096
 20
9835.1575694219573
 30
0.0
 40
15.0
 50
180.0
 51
0.0
  0
ARC
  5
15ADA
  8
0
  6
BYBLOCK
 62
     0
 10
13451.8888954096
 20
9835.1575694219573
 30
0.0
 40
15.0
 50
0.0
 51
180.0
  0
ARC
  5
15ADB
  8
0
  6
BYBLOCK
 62
     0
 10
7901.8888954096037
 20
9835.1575694219573
 30
0.0
 40
15.0
 50
0.0
 51
180.0
  0
ARC
  5
15ADC
  8
0
  6
BYBLOCK
 62
     0
 10
7901.8888954096037
 20
9835.1575694219573
 30
0.0
 40
15.0
 50
180.0
 51
0.0
  0
ARC
  5
15ADD
  8
0
  6
BYBLOCK
 62
     0
 10
8051.8888954095974
 20
9435.1592194219593
 30
0.0
 40
15.0
 50
0.0
 51
180.0
  0
ARC
  5
15ADE
  8
0
  6
BYBLOCK
 62
     0
 10
8051.8888954095974
 20
9435.1592194219593
 30
0.0
 40
15.0
 50
180.0
 51
0.0
  0
ARC
  5
15ADF
  8
0
  6
BYBLOCK
 62
     0
 10
7901.8888954096037
 20
9435.1592194219593
 30
0.0
 40
15.0
 50
180.0
 51
0.0
  0
ARC
  5
15AE0
  8
0
  6
BYBLOCK
 62
     0
 10
7901.8888954096037
 20
9435.1592194219593
 30
0.0
 40
15.0
 50
0.0
 51
180.0
  0
ARC
  5
15AE1
  8
0
  6
BYBLOCK
 62
     0
 10
13271.8888954096
 20
9435.1592194219593
 30
0.0
 40
15.0
 50
180.0
 51
0.0
  0
ARC
  5
15AE2
  8
0
  6
BYBLOCK
 62
     0
 10
13271.8888954096
 20
9435.1592194219593
 30
0.0
 40
15.0
 50
0.0
 51
180.0
  0
ARC
  5
15AE3
  8
0
  6
BYBLOCK
 62
     0
 10
8051.8888954095974
 20
9435.1592194219593
 30
0.0
 40
15.0
 50
0.0
 51
180.0
  0
ARC
  5
15AE4
  8
0
  6
BYBLOCK
 62
     0
 10
8051.8888954095974
 20
9435.1592194219593
 30
0.0
 40
15.0
 50
180.0
 51
0.0
  0
ARC
  5
15AE5
  8
0
  6
BYBLOCK
 62
     0
 10
13451.8888954096
 20
9435.1592194219593
 30
0.0
 40
15.0
 50
180.0
 51
0.0
  0
ARC
  5
15AE6
  8
0
  6
BYBLOCK
 62
     0
 10
13451.8888954096
 20
9435.1592194219593
 30
0.0
 40
15.0
 50
0.0
 51
180.0
  0
ARC
  5
15AE7
  8
0
  6
BYBLOCK
 62
     0
 10
13271.8888954096
 20
9435.1592194219593
 30
0.0
 40
15.0
 50
0.0
 51
180.0
  0
ARC
  5
15AE8
  8
0
  6
BYBLOCK
 62
     0
 10
13271.8888954096
 20
9435.1592194219593
 30
0.0
 40
15.0
 50
180.0
 51
0.0
  0
ARC
  5
15AE9
  8
0
  6
BYBLOCK
 62
     0
 10
6961.8884994095988
 20
6287.1575434219621
 30
0.0
 40
15.0
 50
90.0
 51
270.0
  0
ARC
  5
15AEA
  8
0
  6
BYBLOCK
 62
     0
 10
6961.8884994095988
 20
6287.1575434219621
 30
0.0
 40
15.0
 50
270.0
 51
90.0
  0
ARC
  5
15AEB
  8
0
  6
BYBLOCK
 62
     0
 10
6961.8884994095988
 20
8636.1575434219612
 30
0.0
 40
15.0
 50
270.0
 51
90.0
  0
ARC
  5
15AEC
  8
0
  6
BYBLOCK
 62
     0
 10
6961.8884994095988
 20
8636.1575434219612
 30
0.0
 40
15.0
 50
90.0
 51
270.0
  0
ARC
  5
15AED
  8
0
  6
BYBLOCK
 62
     0
 10
14361.88929140959
 20
6287.1575434219612
 30
0.0
 40
15.0
 50
90.0
 51
270.0
  0
ARC
  5
15AEE
  8
0
  6
BYBLOCK
 62
     0
 10
14361.88929140959
 20
6287.1575434219612
 30
0.0
 40
15.0
 50
270.0
 51
90.0
  0
ARC
  5
15AEF
  8
0
  6
BYBLOCK
 62
     0
 10
14361.88929140959
 20
8442.6575434219612
 30
0.0
 40
15.0
 50
270.0
 51
90.0
  0
ARC
  5
15AF0
  8
0
  6
BYBLOCK
 62
     0
 10
14361.88929140959
 20
8442.6575434219612
 30
0.0
 40
15.0
 50
90.0
 51
270.0
  0
ARC
  5
15AF1
  8
0
  6
BYBLOCK
 62
     0
 10
13271.8888954096
 20
4587.1578734219574
 30
0.0
 40
15.0
 50
180.0
 51
0.0
  0
ARC
  5
15AF2
  8
0
  6
BYBLOCK
 62
     0
 10
13271.8888954096
 20
4587.1578734219574
 30
0.0
 40
15.0
 50
0.0
 51
180.0
  0
ARC
  5
15AF3
  8
0
  6
BYBLOCK
 62
     0
 10
8051.8888954095974
 20
4587.1578734219574
 30
0.0
 40
15.0
 50
0.0
 51
180.0
  0
ARC
  5
15AF4
  8
0
  6
BYBLOCK
 62
     0
 10
8051.8888954095974
 20
4587.1578734219574
 30
0.0
 40
15.0
 50
180.0
 51
0.0
  0
ARC
  5
15AF5
  8
0
  6
BYBLOCK
 62
     0
 10
8094.3888954096064
 20
4987.1577084219589
 30
0.0
 40
15.0
 50
0.0
 51
180.0
  0
ARC
  5
15AF6
  8
0
  6
BYBLOCK
 62
     0
 10
8094.3888954096064
 20
4987.1577084219589
 30
0.0
 40
15.0
 50
180.0
 51
0.0
  0
ARC
  5
15AF7
  8
0
  6
BYBLOCK
 62
     0
 10
8051.8888954095974
 20
4987.1577084219589
 30
0.0
 40
15.0
 50
180.0
 51
0.0
  0
ARC
  5
15AF8
  8
0
  6
BYBLOCK
 62
     0
 10
8051.8888954095974
 20
4987.1577084219589
 30
0.0
 40
15.0
 50
0.0
 51
180.0
  0
ARC
  5
15AF9
  8
0
  6
BYBLOCK
 62
     0
 10
13229.3888954096
 20
4987.1577084219589
 30
0.0
 40
15.0
 50
180.0
 51
0.0
  0
ARC
  5
15AFA
  8
0
  6
BYBLOCK
 62
     0
 10
13229.3888954096
 20
4987.1577084219589
 30
0.0
 40
15.0
 50
0.0
 51
180.0
  0
ARC
  5
15AFB
  8
0
  6
BYBLOCK
 62
     0
 10
13271.8888954096
 20
4987.1577084219589
 30
0.0
 40
15.0
 50
0.0
 51
180.0
  0
ARC
  5
15AFC
  8
0
  6
BYBLOCK
 62
     0
 10
13271.8888954096
 20
4987.1577084219589
 30
0.0
 40
15.0
 50
180.0
 51
0.0
  0
ARC
  5
15AFD
  8
0
  6
BYBLOCK
 62
     0
 10
10661.8888954096
 20
4987.1577084219589
 30
0.0
 40
15.0
 50
0.0
 51
180.0
  0
ARC
  5
15AFE
  8
0
  6
BYBLOCK
 62
     0
 10
10661.8888954096
 20
4987.1577084219589
 30
0.0
 40
15.0
 50
180.0
 51
0.0
  0
ARC
  5
15AFF
  8
0
  6
BYBLOCK
 62
     0
 10
13229.3888954096
 20
4987.1577084219589
 30
0.0
 40
15.0
 50
180.0
 51
0.0
  0
ARC
  5
15B00
  8
0
  6
BYBLOCK
 62
     0
 10
13229.3888954096
 20
4987.1577084219589
 30
0.0
 40
15.0
 50
0.0
 51
180.0
  0
ARC
  5
15B01
  8
0
  6
BYBLOCK
 62
     0
 10
10661.8888954096
 20
4987.1577084219589
 30
0.0
 40
15.0
 50
180.0
 51
0.0
  0
ARC
  5
15B02
  8
0
  6
BYBLOCK
 62
     0
 10
10661.8888954096
 20
4987.1577084219589
 30
0.0
 40
15.0
 50
0.0
 51
180.0
  0
ARC
  5
15B03
  8
0
  6
BYBLOCK
 62
     0
 10
8094.3888954096064
 20
4987.1577084219589
 30
0.0
 40
15.0
 50
0.0
 51
180.0
  0
ARC
  5
15B04
  8
0
  6
BYBLOCK
 62
     0
 10
8094.3888954096064
 20
4987.1577084219589
 30
0.0
 40
15.0
 50
180.0
 51
0.0
  0
ARC
  5
15B05
  8
0
  6
BYBLOCK
 62
     0
 10
27095.8522743012
 20
9835.1021434219638
 30
0.0
 40
15.0
 50
180.0
 51
0.0
  0
ARC
  5
15B06
  8
0
  6
BYBLOCK
 62
     0
 10
27095.8522743012
 20
9835.1021434219638
 30
0.0
 40
15.0
 50
0.0
 51
180.0
  0
ARC
  5
15B07
  8
0
  6
BYBLOCK
 62
     0
 10
19357.352274301182
 20
9835.1021434219638
 30
0.0
 40
15.0
 50
0.0
 51
180.0
  0
ARC
  5
15B08
  8
0
  6
BYBLOCK
 62
     0
 10
19357.352274301182
 20
9835.1021434219638
 30
0.0
 40
15.0
 50
180.0
 51
0.0
  0
ARC
  5
15B09
  8
0
  6
BYBLOCK
 62
     0
 10
19400.352274301182
 20
9435.1592194219593
 30
0.0
 40
15.0
 50
0.0
 51
180.0
  0
ARC
  5
15B0A
  8
0
  6
BYBLOCK
 62
     0
 10
19400.352274301182
 20
9435.1592194219593
 30
0.0
 40
15.0
 50
180.0
 51
0.0
  0
ARC
  5
15B0B
  8
0
  6
BYBLOCK
 62
     0
 10
19357.352274301182
 20
9435.1592194219593
 30
0.0
 40
15.0
 50
180.0
 51
0.0
  0
ARC
  5
15B0C
  8
0
  6
BYBLOCK
 62
     0
 10
19357.352274301182
 20
9435.1592194219593
 30
0.0
 40
15.0
 50
0.0
 51
180.0
  0
ARC
  5
15B0D
  8
0
  6
BYBLOCK
 62
     0
 10
27052.8522743012
 20
9435.1592194219593
 30
0.0
 40
15.0
 50
180.0
 51
0.0
  0
ARC
  5
15B0E
  8
0
  6
BYBLOCK
 62
     0
 10
27052.8522743012
 20
9435.1592194219593
 30
0.0
 40
15.0
 50
0.0
 51
180.0
  0
ARC
  5
15B0F
  8
0
  6
BYBLOCK
 62
     0
 10
27095.8522743012
 20
9435.1592194219593
 30
0.0
 40
15.0
 50
0.0
 51
180.0
  0
ARC
  5
15B10
  8
0
  6
BYBLOCK
 62
     0
 10
27095.8522743012
 20
9435.1592194219593
 30
0.0
 40
15.0
 50
180.0
 51
0.0
  0
ARC
  5
15B11
  8
0
  6
BYBLOCK
 62
     0
 10
24400.352274301182
 20
9435.1592194219593
 30
0.0
 40
15.0
 50
0.0
 51
180.0
  0
ARC
  5
15B12
  8
0
  6
BYBLOCK
 62
     0
 10
24400.352274301182
 20
9435.1592194219593
 30
0.0
 40
15.0
 50
180.0
 51
0.0
  0
ARC
  5
15B13
  8
0
  6
BYBLOCK
 62
     0
 10
27052.8522743012
 20
9435.1592194219593
 30
0.0
 40
15.0
 50
180.0
 51
0.0
  0
ARC
  5
15B14
  8
0
  6
BYBLOCK
 62
     0
 10
27052.8522743012
 20
9435.1592194219593
 30
0.0
 40
15.0
 50
0.0
 51
180.0
  0
ARC
  5
15B15
  8
0
  6
BYBLOCK
 62
     0
 10
28503.45452500592
 20
6287.1575434219621
 30
0.0
 40
15.0
 50
90.0
 51
270.0
  0
ARC
  5
15B16
  8
0
  6
BYBLOCK
 62
     0
 10
28503.45452500592
 20
6287.1575434219621
 30
0.0
 40
15.0
 50
270.0
 51
90.0
  0
ARC
  5
15B17
  8
0
  6
BYBLOCK
 62
     0
 10
28503.45452500592
 20
8636.1575694219555
 30
0.0
 40
15.0
 50
270.0
 51
90.0
  0
ARC
  5
15B18
  8
0
  6
BYBLOCK
 62
     0
 10
28503.45452500592
 20
8636.1575694219555
 30
0.0
 40
15.0
 50
90.0
 51
270.0
  0
ARC
  5
15B19
  8
0
  6
BYBLOCK
 62
     0
 10
27860.355573301182
 20
6287.1575434219621
 30
0.0
 40
15.0
 50
90.0
 51
270.0
  0
ARC
  5
15B1A
  8
0
  6
BYBLOCK
 62
     0
 10
27860.355573301182
 20
6287.1575434219621
 30
0.0
 40
15.0
 50
270.0
 51
90.0
  0
ARC
  5
15B1B
  8
0
  6
BYBLOCK
 62
     0
 10
27860.355573301182
 20
8178.6575434219612
 30
0.0
 40
15.0
 50
270.0
 51
90.0
  0
ARC
  5
15B1C
  8
0
  6
BYBLOCK
 62
     0
 10
27860.355573301182
 20
8178.6575434219612
 30
0.0
 40
15.0
 50
90.0
 51
270.0
  0
ARC
  5
15B1D
  8
0
  6
BYBLOCK
 62
     0
 10
24397.352274301182
 20
5387.1575434219612
 30
0.0
 40
15.0
 50
180.0
 51
0.0
  0
ARC
  5
15B1E
  8
0
  6
BYBLOCK
 62
     0
 10
24397.352274301182
 20
5387.1575434219612
 30
0.0
 40
15.0
 50
0.0
 51
180.0
  0
ARC
  5
15B1F
  8
0
  6
BYBLOCK
 62
     0
 10
19485.352274301182
 20
5387.1575434219612
 30
0.0
 40
15.0
 50
0.0
 51
180.0
  0
ARC
  5
15B20
  8
0
  6
BYBLOCK
 62
     0
 10
19485.352274301182
 20
5387.1575434219612
 30
0.0
 40
15.0
 50
180.0
 51
0.0
  0
ARC
  5
15B21
  8
0
  6
BYBLOCK
 62
     0
 10
27052.812321353649
 20
4587.1578734220147
 30
0.0
 40
15.0
 50
180.0
 51
0.0
  0
ARC
  5
15B22
  8
0
  6
BYBLOCK
 62
     0
 10
27052.812321353649
 20
4587.1578734220147
 30
0.0
 40
15.0
 50
0.0
 51
180.0
  0
ARC
  5
15B23
  8
0
  6
BYBLOCK
 62
     0
 10
19400.352274301182
 20
4587.1578734220147
 30
0.0
 40
15.0
 50
0.0
 51
180.0
  0
ARC
  5
15B24
  8
0
  6
BYBLOCK
 62
     0
 10
19400.352274301182
 20
4587.1578734220147
 30
0.0
 40
15.0
 50
180.0
 51
0.0
  0
ARC
  5
15B25
  8
0
  6
BYBLOCK
 62
     0
 10
27010.3522743012
 20
4987.1577084219589
 30
0.0
 40
15.0
 50
180.0
 51
0.0
  0
ARC
  5
15B26
  8
0
  6
BYBLOCK
 62
     0
 10
27010.3522743012
 20
4987.1577084219589
 30
0.0
 40
15.0
 50
0.0
 51
180.0
  0
ARC
  5
15B27
  8
0
  6
BYBLOCK
 62
     0
 10
27052.812321353649
 20
4987.1577084219589
 30
0.0
 40
15.0
 50
0.0
 51
180.0
  0
ARC
  5
15B28
  8
0
  6
BYBLOCK
 62
     0
 10
27052.812321353649
 20
4987.1577084219589
 30
0.0
 40
15.0
 50
180.0
 51
0.0
  0
ARC
  5
15B29
  8
0
  6
BYBLOCK
 62
     0
 10
24442.852274301182
 20
4987.1577084219589
 30
0.0
 40
15.0
 50
0.0
 51
180.0
  0
ARC
  5
15B2A
  8
0
  6
BYBLOCK
 62
     0
 10
24442.852274301182
 20
4987.1577084219589
 30
0.0
 40
15.0
 50
180.0
 51
0.0
  0
ARC
  5
15B2B
  8
0
  6
BYBLOCK
 62
     0
 10
27010.3522743012
 20
4987.1577084219589
 30
0.0
 40
15.0
 50
180.0
 51
0.0
  0
ARC
  5
15B2C
  8
0
  6
BYBLOCK
 62
     0
 10
27010.3522743012
 20
4987.1577084219589
 30
0.0
 40
15.0
 50
0.0
 51
180.0
  0
ARC
  5
15B2D
  8
0
  6
BYBLOCK
 62
     0
 10
26916.3522743012
 20
5387.1575434219612
 30
0.0
 40
15.0
 50
180.0
 51
0.0
  0
ARC
  5
15B2E
  8
0
  6
BYBLOCK
 62
     0
 10
26916.3522743012
 20
5387.1575434219612
 30
0.0
 40
15.0
 50
0.0
 51
180.0
  0
ARC
  5
15B2F
  8
0
  6
BYBLOCK
 62
     0
 10
24536.8522743012
 20
5387.1575434219612
 30
0.0
 40
15.0
 50
0.0
 51
180.0
  0
ARC
  5
15B30
  8
0
  6
BYBLOCK
 62
     0
 10
24536.8522743012
 20
5387.1575434219612
 30
0.0
 40
15.0
 50
180.0
 51
0.0
  0
ARC
  5
15B31
  8
0
  6
BYBLOCK
 62
     0
 10
19442.852274301182
 20
4987.1577084219589
 30
0.0
 40
15.0
 50
0.0
 51
180.0
  0
ARC
  5
15B32
  8
0
  6
BYBLOCK
 62
     0
 10
19442.852274301182
 20
4987.1577084219589
 30
0.0
 40
15.0
 50
180.0
 51
0.0
  0
ARC
  5
15B33
  8
0
  6
BYBLOCK
 62
     0
 10
19400.352274301182
 20
4987.1577084219589
 30
0.0
 40
15.0
 50
180.0
 51
0.0
  0
ARC
  5
15B34
  8
0
  6
BYBLOCK
 62
     0
 10
19400.352274301182
 20
4987.1577084219589
 30
0.0
 40
15.0
 50
0.0
 51
180.0
  0
ARC
  5
15B35
  8
0
  6
BYBLOCK
 62
     0
 10
24442.852274301182
 20
4987.1577084219589
 30
0.0
 40
15.0
 50
180.0
 51
0.0
  0
ARC
  5
15B36
  8
0
  6
BYBLOCK
 62
     0
 10
24442.852274301182
 20
4987.1577084219589
 30
0.0
 40
15.0
 50
0.0
 51
180.0
  0
ARC
  5
15B37
  8
0
  6
BYBLOCK
 62
     0
 10
19442.852274301182
 20
4987.1577084219589
 30
0.0
 40
15.0
 50
0.0
 51
180.0
  0
ARC
  5
15B38
  8
0
  6
BYBLOCK
 62
     0
 10
19442.852274301182
 20
4987.1577084219589
 30
0.0
 40
15.0
 50
180.0
 51
0.0
  0
ARC
  5
15B39
  8
0
  6
BYBLOCK
 62
     0
 10
24400.352274301182
 20
9435.1592194219593
 30
0.0
 40
15.0
 50
180.0
 51
0.0
  0
ARC
  5
15B3A
  8
0
  6
BYBLOCK
 62
     0
 10
24400.352274301182
 20
9435.1592194219593
 30
0.0
 40
15.0
 50
0.0
 51
180.0
  0
ARC
  5
15B3B
  8
0
  6
BYBLOCK
 62
     0
 10
19400.352274301182
 20
9435.1592194219593
 30
0.0
 40
15.0
 50
0.0
 51
180.0
  0
ARC
  5
15B3C
  8
0
  6
BYBLOCK
 62
     0
 10
19400.352274301182
 20
9435.1592194219593
 30
0.0
 40
15.0
 50
180.0
 51
0.0
  0
ARC
  5
15B3D
  8
0
  6
BYBLOCK
 62
     0
 10
18229.529876006789
 20
6287.9718314219654
 30
0.0
 40
15.0
 50
90.0
 51
270.0
  0
ARC
  5
15B3E
  8
0
  6
BYBLOCK
 62
     0
 10
18229.529876006789
 20
6287.9718314219654
 30
0.0
 40
15.0
 50
270.0
 51
90.0
  0
ARC
  5
15B3F
  8
0
  6
BYBLOCK
 62
     0
 10
18229.5298760068
 20
8307.971831421959
 30
0.0
 40
15.0
 50
270.0
 51
90.0
  0
ARC
  5
15B40
  8
0
  6
BYBLOCK
 62
     0
 10
18229.5298760068
 20
8307.971831421959
 30
0.0
 40
15.0
 50
90.0
 51
270.0
  0
ARC
  5
15B41
  8
0
  6
BYBLOCK
 62
     0
 10
14828.670106127371
 20
14228.955421421961
 30
0.0
 40
15.0
 50
270.0
 51
90.0
  0
ARC
  5
15B42
  8
0
  6
BYBLOCK
 62
     0
 10
14828.670106127371
 20
14228.955421421961
 30
0.0
 40
15.0
 50
90.0
 51
270.0
  0
ARC
  5
15B43
  8
0
  6
BYBLOCK
 62
     0
 10
14828.670106127371
 20
14036.456147421941
 30
0.0
 40
15.0
 50
90.0
 51
270.0
  0
ARC
  5
15B44
  8
0
  6
BYBLOCK
 62
     0
 10
14828.670106127371
 20
14036.456147421941
 30
0.0
 40
15.0
 50
270.0
 51
90.0
  0
ARC
  5
15B45
  8
0
  6
BYBLOCK
 62
     0
 10
14828.670106127371
 20
16796.455421421939
 30
0.0
 40
15.0
 50
270.0
 51
90.0
  0
ARC
  5
15B46
  8
0
  6
BYBLOCK
 62
     0
 10
14828.670106127371
 20
16796.455421421939
 30
0.0
 40
15.0
 50
90.0
 51
270.0
  0
ARC
  5
15B47
  8
0
  6
BYBLOCK
 62
     0
 10
14828.670106127371
 20
14228.955421421961
 30
0.0
 40
15.0
 50
90.0
 51
270.0
  0
ARC
  5
15B48
  8
0
  6
BYBLOCK
 62
     0
 10
14828.670106127371
 20
14228.955421421961
 30
0.0
 40
15.0
 50
270.0
 51
90.0
  0
ARC
  5
15B49
  8
0
  6
BYBLOCK
 62
     0
 10
14828.670106127371
 20
19363.95542142195
 30
0.0
 40
15.0
 50
270.0
 51
90.0
  0
ARC
  5
15B4A
  8
0
  6
BYBLOCK
 62
     0
 10
14828.670106127371
 20
19363.95542142195
 30
0.0
 40
15.0
 50
90.0
 51
270.0
  0
ARC
  5
15B4B
  8
0
  6
BYBLOCK
 62
     0
 10
14828.670106127371
 20
16796.455421421939
 30
0.0
 40
15.0
 50
90.0
 51
270.0
  0
ARC
  5
15B4C
  8
0
  6
BYBLOCK
 62
     0
 10
14828.670106127371
 20
16796.455421421939
 30
0.0
 40
15.0
 50
270.0
 51
90.0
  0
ARC
  5
15B4D
  8
0
  6
BYBLOCK
 62
     0
 10
14828.670106127371
 20
19363.95542142195
 30
0.0
 40
15.0
 50
90.0
 51
270.0
  0
ARC
  5
15B4E
  8
0
  6
BYBLOCK
 62
     0
 10
14828.670106127371
 20
19363.95542142195
 30
0.0
 40
15.0
 50
270.0
 51
90.0
  0
ARC
  5
15B4F
  8
0
  6
BYBLOCK
 62
     0
 10
14828.670106127371
 20
19586.455289421941
 30
0.0
 40
15.0
 50
270.0
 51
90.0
  0
ARC
  5
15B50
  8
0
  6
BYBLOCK
 62
     0
 10
14828.670106127371
 20
19586.455289421941
 30
0.0
 40
15.0
 50
90.0
 51
270.0
  0
ARC
  5
15B51
  8
0
  6
BYBLOCK
 62
     0
 10
14428.670765127359
 20
19576.45872042195
 30
0.0
 40
15.0
 50
270.0
 51
90.0
  0
ARC
  5
15B52
  8
0
  6
BYBLOCK
 62
     0
 10
14428.670765127359
 20
19576.45872042195
 30
0.0
 40
15.0
 50
90.0
 51
270.0
  0
ARC
  5
15B53
  8
0
  6
BYBLOCK
 62
     0
 10
14428.670765127359
 20
19586.455289421941
 30
0.0
 40
15.0
 50
90.0
 51
270.0
  0
ARC
  5
15B54
  8
0
  6
BYBLOCK
 62
     0
 10
14428.670765127359
 20
19586.455289421941
 30
0.0
 40
15.0
 50
270.0
 51
90.0
  0
ARC
  5
15B55
  8
0
  6
BYBLOCK
 62
     0
 10
6331.6703301273938
 20
20206.45634542195
 30
0.0
 40
15.0
 50
0.0
 51
180.0
  0
ARC
  5
15B56
  8
0
  6
BYBLOCK
 62
     0
 10
6331.6703301273938
 20
20206.45634542195
 30
0.0
 40
15.0
 50
180.0
 51
0.0
  0
ARC
  5
15B57
  8
0
  6
BYBLOCK
 62
     0
 10
6246.1703301273938
 20
20206.45634542195
 30
0.0
 40
15.0
 50
180.0
 51
0.0
  0
ARC
  5
15B58
  8
0
  6
BYBLOCK
 62
     0
 10
6246.1703301273938
 20
20206.45634542195
 30
0.0
 40
15.0
 50
0.0
 51
180.0
  0
ARC
  5
15B59
  8
0
  6
BYBLOCK
 62
     0
 10
11331.67033012739
 20
20206.45634542195
 30
0.0
 40
15.0
 50
180.0
 51
0.0
  0
ARC
  5
15B5A
  8
0
  6
BYBLOCK
 62
     0
 10
11331.67033012739
 20
20206.45634542195
 30
0.0
 40
15.0
 50
0.0
 51
180.0
  0
ARC
  5
15B5B
  8
0
  6
BYBLOCK
 62
     0
 10
6331.6703301273938
 20
20206.45634542195
 30
0.0
 40
15.0
 50
0.0
 51
180.0
  0
ARC
  5
15B5C
  8
0
  6
BYBLOCK
 62
     0
 10
6331.6703301273938
 20
20206.45634542195
 30
0.0
 40
15.0
 50
180.0
 51
0.0
  0
ARC
  5
15B5D
  8
0
  6
BYBLOCK
 62
     0
 10
13899.17033012739
 20
20206.45634542195
 30
0.0
 40
15.0
 50
180.0
 51
0.0
  0
ARC
  5
15B5E
  8
0
  6
BYBLOCK
 62
     0
 10
13899.17033012739
 20
20206.45634542195
 30
0.0
 40
15.0
 50
0.0
 51
180.0
  0
ARC
  5
15B5F
  8
0
  6
BYBLOCK
 62
     0
 10
11331.67033012739
 20
20206.45634542195
 30
0.0
 40
15.0
 50
0.0
 51
180.0
  0
ARC
  5
15B60
  8
0
  6
BYBLOCK
 62
     0
 10
11331.67033012739
 20
20206.45634542195
 30
0.0
 40
15.0
 50
180.0
 51
0.0
  0
ARC
  5
15B61
  8
0
  6
BYBLOCK
 62
     0
 10
13899.17033012739
 20
20206.45634542195
 30
0.0
 40
15.0
 50
180.0
 51
0.0
  0
ARC
  5
15B62
  8
0
  6
BYBLOCK
 62
     0
 10
13899.17033012739
 20
20206.45634542195
 30
0.0
 40
15.0
 50
0.0
 51
180.0
  0
ARC
  5
15B63
  8
0
  6
BYBLOCK
 62
     0
 10
13984.67033012739
 20
20206.45634542195
 30
0.0
 40
15.0
 50
0.0
 51
180.0
  0
ARC
  5
15B64
  8
0
  6
BYBLOCK
 62
     0
 10
13984.67033012739
 20
20206.45634542195
 30
0.0
 40
15.0
 50
180.0
 51
0.0
  0
ARC
  5
15B65
  8
0
  6
BYBLOCK
 62
     0
 10
13984.67033012739
 20
12746.45535542194
 30
0.0
 40
15.0
 50
180.0
 51
0.0
  0
ARC
  5
15B66
  8
0
  6
BYBLOCK
 62
     0
 10
13984.67033012739
 20
12746.45535542194
 30
0.0
 40
15.0
 50
0.0
 51
180.0
  0
ARC
  5
15B67
  8
0
  6
BYBLOCK
 62
     0
 10
6246.1703301273938
 20
12746.45535542194
 30
0.0
 40
15.0
 50
0.0
 51
180.0
  0
ARC
  5
15B68
  8
0
  6
BYBLOCK
 62
     0
 10
6246.1703301273938
 20
12746.45535542194
 30
0.0
 40
15.0
 50
180.0
 51
0.0
  0
LINE
  5
15ED3
  8
2-0
  6
CENTER2
 62
     6
 10
24442.852274301189
 20
21006.45766442196
 30
0.0
 11
24442.852274301189
 21
19147.45597542193
 31
0.0
  0
LINE
  5
15ED4
  8
2-0
  6
CENTER2
 62
     6
 10
27010.352274301182
 20
21006.45766442196
 30
0.0
 11
27010.352274301182
 21
19147.45597542193
 31
0.0
  0
LINE
  5
15ED5
  8
2-0
  6
CENTER2
 62
     6
 10
29052.85319730116
 20
19363.95542142195
 30
0.0
 11
28332.85451730117
 21
19363.95542142195
 31
0.0
  0
LINE
  5
15ED6
  8
2-0
  6
CENTER2
 62
     6
 10
29052.853197301181
 20
16796.45542142195
 30
0.0
 11
28665.441352999849
 21
16796.45542142195
 31
0.0
  0
LINE
  5
15ED7
  8
2-0
  6
CENTER2
 62
     6
 10
29052.85319730116
 20
14228.955421421961
 30
0.0
 11
28332.85451730117
 21
14228.955421421961
 31
0.0
  0
CIRCLE
  5
15ED8
  8
0-5
  6
CONTINUOUS
 62
     4
 10
24442.852274301189
 20
21206.45634542195
 30
0.0
 40
199.9999949999999
  0
CIRCLE
  5
15ED9
  8
0-5
  6
CONTINUOUS
 62
     4
 10
29252.85385730115
 20
19363.95542142195
 30
0.0
 40
199.9999949999999
  0
CIRCLE
  5
15EDA
  8
0-5
  6
CONTINUOUS
 62
     4
 10
29252.853857301168
 20
16796.45542142195
 30
0.0
 40
199.9999949999999
  0
CIRCLE
  5
15EDB
  8
0-5
  6
CONTINUOUS
 62
     4
 10
29252.85385730115
 20
14228.955421421961
 30
0.0
 40
199.9999949999999
  0
CIRCLE
  5
15EDC
  8
0-5
  6
CONTINUOUS
 62
     4
 10
27010.352274301182
 20
21206.45634542195
 30
0.0
 40
199.9999949999999
  0
TEXT
  5
15EDD
  8
0-5
  6
CONTINUOUS
 62
     7
 10
24390.85595163453
 20
21120.230495421962
 30
0.0
 40
160.0
  1
2
 72
     4
 11
24444.189284967859
 21
21200.230495421962
 31
0.0
  0
TEXT
  5
15EDE
  8
0-5
  6
CONTINUOUS
 62
     7
 10
26957.01894096785
 20
21126.45634542195
 30
0.0
 40
160.0
  1
3
 72
     4
 11
27010.352274301182
 21
21206.45634542195
 31
0.0
  0
TEXT
  5
15EDF
  8
0-5
  6
CONTINUOUS
 62
     7
 10
29194.863552634499
 20
19272.337362421949
 30
0.0
 40
160.0
  1
C
 72
     4
 11
29248.196885967831
 21
19352.337362421949
 31
0.0
  0
TEXT
  5
15EE0
  8
0-5
  6
CONTINUOUS
 62
     7
 10
29194.863552634499
 20
16704.837363421961
 30
0.0
 40
160.0
  1
B
 72
     4
 11
29248.196885967831
 21
16784.837363421961
 31
0.0
  0
TEXT
  5
15EE1
  8
0-5
  6
CONTINUOUS
 62
     7
 10
29194.863552634499
 20
14137.33736242196
 30
0.0
 40
160.0
  1
A
 72
     4
 11
29248.196885967831
 21
14217.33736242196
 31
0.0
  0
LINE
  5
15EE2
  8
2-0
  6
CENTER2
 62
     6
 10
24442.852274301182
 20
21006.45766442196
 30
0.0
 11
24442.852274301182
 21
13523.191987421949
 31
0.0
  0
LINE
  5
15EE3
  8
2-0
  6
CENTER2
 62
     6
 10
27010.352274301182
 20
21006.45766442196
 30
0.0
 11
27010.352274301182
 21
13523.191987421949
 31
0.0
  0
LINE
  5
15EE4
  8
SUNPOU
  6
CONTINUOUS
 62
     4
 10
27010.352274301182
 20
20606.45634542195
 30
0.0
 11
24442.852274301189
 21
20606.45634542195
 31
0.0
  0
TEXT
  5
15EE5
  8
0
  6
CONTINUOUS
 62
     7
 10
25326.602274301182
 20
20686.45634542195
 30
0.0
 40
160.0
  1
2567.5
  0
ARC
  5
15EE6
  8
0
  6
BYBLOCK
 62
     0
 10
24442.852274301189
 20
20606.45634542195
 30
0.0
 40
15.0
 50
180.0
 51
0.0
  0
ARC
  5
15EE7
  8
0
  6
BYBLOCK
 62
     0
 10
24442.852274301189
 20
20606.45634542195
 30
0.0
 40
15.0
 50
0.0
 51
180.0
  0
ARC
  5
15EE8
  8
0
  6
BYBLOCK
 62
     0
 10
27010.352274301182
 20
20606.45634542195
 30
0.0
 40
15.0
 50
180.0
 51
0.0
  0
ARC
  5
15EE9
  8
0
  6
BYBLOCK
 62
     0
 10
27010.352274301182
 20
20606.45634542195
 30
0.0
 40
15.0
 50
0.0
 51
180.0
  0
ARC
  5
15EEA
  8
0
  6
BYBLOCK
 62
     0
 10
24442.852274301189
 20
20606.45634542195
 30
0.0
 40
15.0
 50
0.0
 51
180.0
  0
ARC
  5
15EEB
  8
0
  6
BYBLOCK
 62
     0
 10
24442.852274301189
 20
20606.45634542195
 30
0.0
 40
15.0
 50
180.0
 51
0.0
  0
LINE
  5
15EEC
  8
2-0
  6
CONTINUOUS
 62
     6
 10
25327.193358301171
 20
13588.954299421959
 30
0.0
 11
26327.186760301141
 21
13588.954299421959
 31
0.0
  0
LINE
  5
15EED
  8
2-0
  6
CONTINUOUS
 62
     6
 10
26795.12713730117
 20
14059.37501342195
 30
0.0
 11
26327.186760301141
 21
13588.954299421959
 31
0.0
  0
LINE
  5
15EEE
  8
2-0
  6
CONTINUOUS
 62
     6
 10
26756.486934301181
 20
16900.48266042196
 30
0.0
 11
26451.79151630116
 21
17004.136191421981
 31
0.0
  0
LINE
  5
15EEF
  8
2-0
  6
CONTINUOUS
 62
     6
 10
26911.508973301148
 20
16410.86061642196
 30
0.0
 11
26451.79151630116
 21
16166.947305421971
 31
0.0
  0
LINE
  5
15EF0
  8
2-0
  6
CONTINUOUS
 62
     6
 10
25531.788481301159
 20
16166.947305421971
 30
0.0
 11
26451.79151630116
 21
16166.947305421971
 31
0.0
  0
LINE
  5
15EF1
  8
2-0
  6
CONTINUOUS
 62
     6
 10
25251.79745430117
 20
17004.136191421981
 30
0.0
 11
26451.79151630116
 21
17004.136191421981
 31
0.0
  0
LINE
  5
15EF2
  8
2-0
  6
CONTINUOUS
 62
     6
 10
26827.686258301179
 20
14381.05865942194
 30
0.0
 11
26451.79151630116
 21
14562.00249442196
 31
0.0
  0
LINE
  5
15EF3
  8
2-0
  6
CONTINUOUS
 62
     6
 10
25931.789800301169
 20
14562.00249442196
 30
0.0
 11
26451.79151630116
 21
14562.00249442196
 31
0.0
  0
LINE
  5
15EF4
  8
2-0
  6
CONTINUOUS
 62
     4
 10
24442.852274301171
 20
19486.455949421961
 30
0.0
 11
24442.852274301171
 21
20216.45291442197
 31
0.0
  0
LINE
  5
15EF5
  8
2-0
  6
CONTINUOUS
 62
     3
 10
27022.852934301169
 20
19297.453495421949
 30
0.0
 11
27022.852934301169
 21
19291.457533421959
 31
0.0
  0
LINE
  5
15EF6
  8
2-0
  6
CONTINUOUS
 62
     3
 10
27022.852934301169
 20
19291.457533421959
 30
0.0
 11
27052.850558301179
 21
19291.457533421959
 31
0.0
  0
LINE
  5
15EF7
  8
2-0
  6
CONTINUOUS
 62
     3
 10
27052.850558301179
 20
19321.457137421959
 30
0.0
 11
26971.848658301151
 21
19321.457137421959
 31
0.0
  0
LINE
  5
15EF8
  8
2-0
  6
CONTINUOUS
 62
     3
 10
27022.852934301169
 20
19281.160077421951
 30
0.0
 11
27052.850558301179
 21
19281.160077421951
 31
0.0
  0
LINE
  5
15EF9
  8
2-0
  6
CONTINUOUS
 62
     3
 10
27022.852934301169
 20
19299.161819421959
 30
0.0
 11
27022.852934301169
 21
19281.160077421951
 31
0.0
  0
LINE
  5
15EFA
  8
2-0
  6
CONTINUOUS
 62
     3
 10
27047.85029430117
 20
19299.161819421959
 30
0.0
 11
27022.852934301169
 21
19299.161819421959
 31
0.0
  0
LINE
  5
15EFB
  8
2-0
  6
CONTINUOUS
 62
     3
 10
27047.85029430117
 20
19294.153637421961
 30
0.0
 11
27047.85029430117
 21
19299.161819421959
 31
0.0
  0
LINE
  5
15EFC
  8
2-0
  6
CONTINUOUS
 62
     3
 10
27040.848737301181
 20
19294.153637421961
 30
0.0
 11
27047.85029430117
 21
19294.153637421961
 31
0.0
  0
LINE
  5
15EFD
  8
2-0
  6
CONTINUOUS
 62
     3
 10
26940.552469301179
 20
19394.453864421961
 30
0.0
 11
26940.552469301179
 21
19401.459380421969
 31
0.0
  0
LINE
  5
15EFE
  8
2-0
  6
CONTINUOUS
 62
     3
 10
26940.552469301179
 20
19401.459380421969
 30
0.0
 11
26945.55273330116
 21
19401.459380421969
 31
0.0
  0
LINE
  5
15EFF
  8
2-0
  6
CONTINUOUS
 62
     3
 10
26945.55273330116
 20
19401.459380421969
 30
0.0
 11
26945.55273330116
 21
19376.45014342196
 31
0.0
  0
LINE
  5
15F00
  8
2-0
  6
CONTINUOUS
 62
     3
 10
26945.55273330116
 20
19376.45014342196
 30
0.0
 11
26927.550991301148
 21
19376.45014342196
 31
0.0
  0
LINE
  5
15F01
  8
2-0
  6
CONTINUOUS
 62
     3
 10
26927.550991301148
 20
19376.45014342196
 30
0.0
 11
26927.550991301148
 21
19406.453706421969
 31
0.0
  0
LINE
  5
15F02
  8
2-0
  6
CONTINUOUS
 62
     3
 10
26937.84844730117
 20
19406.453706421969
 30
0.0
 11
27052.850558301179
 21
19406.453706421969
 31
0.0
  0
LINE
  5
15F03
  8
2-0
  6
CONTINUOUS
 62
     3
 10
26937.84844730117
 20
19376.45014342196
 30
0.0
 11
26937.84844730117
 21
19406.453706421969
 31
0.0
  0
LINE
  5
15F04
  8
2-0
  6
CONTINUOUS
 62
     3
 10
26943.850347301181
 20
19376.45014342196
 30
0.0
 11
26937.84844730117
 21
19376.45014342196
 31
0.0
  0
LINE
  5
15F05
  8
2-0
  6
CONTINUOUS
 62
     3
 10
27040.848737301181
 20
18940.85681492191
 30
0.0
 11
27047.85029430117
 21
18940.85681492191
 31
0.0
  0
LINE
  5
15F06
  8
2-0
  6
CONTINUOUS
 62
     3
 10
27047.85029430117
 20
18940.85681492191
 30
0.0
 11
27047.85029430117
 21
18945.857078921948
 31
0.0
  0
LINE
  5
15F07
  8
2-0
  6
CONTINUOUS
 62
     3
 10
27047.85029430117
 20
18945.857078921948
 30
0.0
 11
27022.852934301169
 21
18945.857078921948
 31
0.0
  0
LINE
  5
15F08
  8
2-0
  6
CONTINUOUS
 62
     3
 10
27022.852934301169
 20
18945.857078921948
 30
0.0
 11
27022.852934301169
 21
18927.861274921961
 31
0.0
  0
LINE
  5
15F09
  8
2-0
  6
CONTINUOUS
 62
     3
 10
27022.852934301169
 20
18927.861274921961
 30
0.0
 11
27052.850558301179
 21
18927.861274921961
 31
0.0
  0
LINE
  5
15F0A
  8
2-0
  6
CONTINUOUS
 62
     3
 10
27022.852934301169
 20
18943.95278192194
 30
0.0
 11
27022.852934301169
 21
18937.954840921961
 31
0.0
  0
LINE
  5
15F0B
  8
2-0
  6
CONTINUOUS
 62
     3
 10
27022.852934301169
 20
18937.954840921961
 30
0.0
 11
27052.850558301179
 21
18937.954840921961
 31
0.0
  0
LINE
  5
15F0C
  8
2-0
  6
CONTINUOUS
 62
     3
 10
27052.850558301179
 20
18937.954840921961
 30
0.0
 11
27052.850558301179
 21
18974.956001921961
 31
0.0
  0
LINE
  5
15F0D
  8
2-0
  6
CONTINUOUS
 62
     3
 10
27022.852934301169
 20
18974.956001921961
 30
0.0
 11
27052.850558301179
 21
18974.956001921961
 31
0.0
  0
LINE
  5
15F0E
  8
2-0
  6
CONTINUOUS
 62
     3
 10
27022.852934301169
 20
18968.95212192195
 30
0.0
 11
27022.852934301169
 21
18974.956001921961
 31
0.0
  0
LINE
  5
15F0F
  8
2-0
  6
CONTINUOUS
 62
     3
 10
27022.852934301169
 20
18985.05154692195
 30
0.0
 11
27052.850558301179
 21
18985.05154692195
 31
0.0
  0
LINE
  5
15F10
  8
2-0
  6
CONTINUOUS
 62
     3
 10
27022.852934301169
 20
18967.04980492196
 30
0.0
 11
27022.852934301169
 21
18985.05154692195
 31
0.0
  0
LINE
  5
15F11
  8
2-0
  6
CONTINUOUS
 62
     3
 10
27047.85029430117
 20
18967.04980492196
 30
0.0
 11
27022.852934301169
 21
18967.04980492196
 31
0.0
  0
LINE
  5
15F12
  8
2-0
  6
CONTINUOUS
 62
     3
 10
27047.85029430117
 20
18972.050068921952
 30
0.0
 11
27047.85029430117
 21
18967.04980492196
 31
0.0
  0
LINE
  5
15F13
  8
2-0
  6
CONTINUOUS
 62
     3
 10
27040.848737301181
 20
18972.050068921952
 30
0.0
 11
27047.85029430117
 21
18972.050068921952
 31
0.0
  0
LINE
  5
15F14
  8
2-0
  6
CONTINUOUS
 62
     3
 10
27040.848737301181
 20
18239.855825421961
 30
0.0
 11
27047.85029430117
 21
18239.855825421961
 31
0.0
  0
LINE
  5
15F15
  8
2-0
  6
CONTINUOUS
 62
     3
 10
27047.85029430117
 20
18239.855825421961
 30
0.0
 11
27047.85029430117
 21
18244.86202742195
 31
0.0
  0
LINE
  5
15F16
  8
2-0
  6
CONTINUOUS
 62
     3
 10
27047.85029430117
 20
18244.86202742195
 30
0.0
 11
27022.852934301169
 21
18244.86202742195
 31
0.0
  0
LINE
  5
15F17
  8
2-0
  6
CONTINUOUS
 62
     3
 10
27022.852934301169
 20
18244.86202742195
 30
0.0
 11
27022.852934301169
 21
18226.860285421961
 31
0.0
  0
LINE
  5
15F18
  8
2-0
  6
CONTINUOUS
 62
     3
 10
27022.852934301169
 20
18226.860285421961
 30
0.0
 11
27052.850558301179
 21
18226.860285421961
 31
0.0
  0
LINE
  5
15F19
  8
2-0
  6
CONTINUOUS
 62
     3
 10
27022.852934301169
 20
18242.951792421951
 30
0.0
 11
27022.852934301169
 21
18236.955830421939
 31
0.0
  0
LINE
  5
15F1A
  8
2-0
  6
CONTINUOUS
 62
     3
 10
27022.852934301169
 20
18236.955830421939
 30
0.0
 11
27052.850558301179
 21
18236.955830421939
 31
0.0
  0
LINE
  5
15F1B
  8
2-0
  6
CONTINUOUS
 62
     3
 10
27052.850558301179
 20
18236.955830421939
 30
0.0
 11
27052.850558301179
 21
18273.95501242196
 31
0.0
  0
LINE
  5
15F1C
  8
2-0
  6
CONTINUOUS
 62
     3
 10
27022.852934301169
 20
18273.95501242196
 30
0.0
 11
27052.850558301179
 21
18273.95501242196
 31
0.0
  0
LINE
  5
15F1D
  8
2-0
  6
CONTINUOUS
 62
     3
 10
27022.852934301169
 20
18267.95905042196
 30
0.0
 11
27022.852934301169
 21
18273.95501242196
 31
0.0
  0
LINE
  5
15F1E
  8
2-0
  6
CONTINUOUS
 62
     3
 10
27022.852934301169
 20
18284.05055742195
 30
0.0
 11
27052.850558301179
 21
18284.05055742195
 31
0.0
  0
LINE
  5
15F1F
  8
2-0
  6
CONTINUOUS
 62
     3
 10
27022.852934301169
 20
18266.04881542196
 30
0.0
 11
27022.852934301169
 21
18284.05055742195
 31
0.0
  0
LINE
  5
15F20
  8
2-0
  6
CONTINUOUS
 62
     3
 10
27047.85029430117
 20
18266.04881542196
 30
0.0
 11
27022.852934301169
 21
18266.04881542196
 31
0.0
  0
LINE
  5
15F21
  8
2-0
  6
CONTINUOUS
 62
     3
 10
27047.85029430117
 20
18271.055017421939
 30
0.0
 11
27047.85029430117
 21
18266.04881542196
 31
0.0
  0
LINE
  5
15F22
  8
2-0
  6
CONTINUOUS
 62
     3
 10
27040.848737301181
 20
18271.055017421939
 30
0.0
 11
27047.85029430117
 21
18271.055017421939
 31
0.0
  0
LINE
  5
15F23
  8
2-0
  6
CONTINUOUS
 62
     3
 10
27040.848737301181
 20
17570.049079421959
 30
0.0
 11
27047.85029430117
 21
17570.049079421959
 31
0.0
  0
LINE
  5
15F24
  8
2-0
  6
CONTINUOUS
 62
     3
 10
27047.85029430117
 20
17570.049079421959
 30
0.0
 11
27047.85029430117
 21
17565.060692421961
 31
0.0
  0
LINE
  5
15F25
  8
2-0
  6
CONTINUOUS
 62
     3
 10
27047.85029430117
 20
17565.060692421961
 30
0.0
 11
27022.852934301169
 21
17565.060692421961
 31
0.0
  0
LINE
  5
15F26
  8
2-0
  6
CONTINUOUS
 62
     3
 10
27022.852934301169
 20
17565.060692421961
 30
0.0
 11
27022.852934301169
 21
17583.056495421952
 31
0.0
  0
LINE
  5
15F27
  8
2-0
  6
CONTINUOUS
 62
     3
 10
27022.852934301169
 20
17583.056495421952
 30
0.0
 11
27052.850558301179
 21
17583.056495421952
 31
0.0
  0
LINE
  5
15F28
  8
2-0
  6
CONTINUOUS
 62
     3
 10
27022.852934301169
 20
17566.95905042196
 30
0.0
 11
27022.852934301169
 21
17572.95501242195
 31
0.0
  0
LINE
  5
15F29
  8
2-0
  6
CONTINUOUS
 62
     3
 10
27022.852934301169
 20
17572.95501242195
 30
0.0
 11
27052.850558301179
 21
17572.95501242195
 31
0.0
  0
LINE
  5
15F2A
  8
2-0
  6
CONTINUOUS
 62
     3
 10
27052.850558301179
 20
17572.95501242195
 30
0.0
 11
27052.850558301179
 21
17535.955830421961
 31
0.0
  0
LINE
  5
15F2B
  8
2-0
  6
CONTINUOUS
 62
     3
 10
27022.852934301169
 20
17535.955830421961
 30
0.0
 11
27052.850558301179
 21
17535.955830421961
 31
0.0
  0
LINE
  5
15F2C
  8
2-0
  6
CONTINUOUS
 62
     3
 10
27022.852934301169
 20
17541.957731421939
 30
0.0
 11
27022.852934301169
 21
17535.955830421961
 31
0.0
  0
LINE
  5
15F2D
  8
2-0
  6
CONTINUOUS
 62
     3
 10
27022.852934301169
 20
17525.866224421959
 30
0.0
 11
27052.850558301179
 21
17525.866224421959
 31
0.0
  0
LINE
  5
15F2E
  8
2-0
  6
CONTINUOUS
 62
     3
 10
27022.852934301169
 20
17543.862027421961
 30
0.0
 11
27022.852934301169
 21
17525.866224421959
 31
0.0
  0
LINE
  5
15F2F
  8
2-0
  6
CONTINUOUS
 62
     3
 10
27047.85029430117
 20
17543.862027421961
 30
0.0
 11
27022.852934301169
 21
17543.862027421961
 31
0.0
  0
LINE
  5
15F30
  8
2-0
  6
CONTINUOUS
 62
     3
 10
27047.85029430117
 20
17538.861764421959
 30
0.0
 11
27047.85029430117
 21
17543.862027421961
 31
0.0
  0
LINE
  5
15F31
  8
2-0
  6
CONTINUOUS
 62
     3
 10
27040.848737301181
 20
17538.861764421959
 30
0.0
 11
27047.85029430117
 21
17538.861764421959
 31
0.0
  0
LINE
  5
15F32
  8
2-0
  6
CONTINUOUS
 62
     3
 10
27049.964420301181
 20
16818.95265042195
 30
0.0
 11
27049.964420301181
 21
16838.953705421962
 31
0.0
  0
LINE
  5
15F33
  8
2-0
  6
CONTINUOUS
 62
     3
 10
27049.964420301181
 20
16838.953705421962
 30
0.0
 11
26964.96785130116
 21
16838.953705421962
 31
0.0
  0
LINE
  5
15F34
  8
2-0
  6
CONTINUOUS
 62
     3
 10
27040.848737301181
 20
16865.560415421962
 30
0.0
 11
27047.85029430117
 21
16865.560415421962
 31
0.0
  0
LINE
  5
15F35
  8
2-0
  6
CONTINUOUS
 62
     3
 10
27047.85029430117
 20
16865.560415421962
 30
0.0
 11
27047.85029430117
 21
16860.566089421962
 31
0.0
  0
LINE
  5
15F36
  8
2-0
  6
CONTINUOUS
 62
     3
 10
27047.85029430117
 20
16860.566089421962
 30
0.0
 11
27022.852934301169
 21
16860.566089421962
 31
0.0
  0
LINE
  5
15F37
  8
2-0
  6
CONTINUOUS
 62
     3
 10
27022.852934301169
 20
16860.566089421962
 30
0.0
 11
27022.852934301169
 21
16878.56189342196
 31
0.0
  0
LINE
  5
15F38
  8
2-0
  6
CONTINUOUS
 62
     3
 10
27022.852934301169
 20
16878.56189342196
 30
0.0
 11
27052.850558301179
 21
16878.56189342196
 31
0.0
  0
LINE
  5
15F39
  8
2-0
  6
CONTINUOUS
 62
     3
 10
27022.852934301169
 20
16868.953309421951
 30
0.0
 11
27022.852934301169
 21
16862.951409421948
 31
0.0
  0
LINE
  5
15F3A
  8
2-0
  6
CONTINUOUS
 62
     3
 10
27052.850558301179
 20
16868.953309421951
 30
0.0
 11
27022.852934301169
 21
16868.953309421951
 31
0.0
  0
LINE
  5
15F3B
  8
2-0
  6
CONTINUOUS
 62
     3
 10
27052.850558301179
 20
16878.56189342196
 30
0.0
 11
27052.850558301179
 21
17525.866224421959
 31
0.0
  0
LINE
  5
15F3C
  8
2-0
  6
CONTINUOUS
 62
     3
 10
27052.850558301179
 20
17583.056495421952
 30
0.0
 11
27052.850558301179
 21
18226.860285421961
 31
0.0
  0
LINE
  5
15F3D
  8
2-0
  6
CONTINUOUS
 62
     3
 10
27052.850558301179
 20
16723.95159442196
 30
0.0
 11
27022.852934301169
 21
16723.95159442196
 31
0.0
  0
LINE
  5
15F3E
  8
2-0
  6
CONTINUOUS
 62
     3
 10
27022.852934301169
 20
16723.95159442196
 30
0.0
 11
27022.852934301169
 21
16729.953494421949
 31
0.0
  0
LINE
  5
15F3F
  8
2-0
  6
CONTINUOUS
 62
     3
 10
26964.96785130116
 20
16753.957137421959
 30
0.0
 11
27049.964420301181
 21
16753.957137421959
 31
0.0
  0
LINE
  5
15F40
  8
2-0
  6
CONTINUOUS
 62
     3
 10
27049.964420301181
 20
16753.957137421959
 30
0.0
 11
27049.964420301181
 21
16773.952254421962
 31
0.0
  0
LINE
  5
15F41
  8
2-0
  6
CONTINUOUS
 62
     3
 10
27022.852934301169
 20
16714.34301142197
 30
0.0
 11
27052.850558301179
 21
16714.34301142197
 31
0.0
  0
LINE
  5
15F42
  8
2-0
  6
CONTINUOUS
 62
     3
 10
27022.852934301169
 20
16732.33881442195
 30
0.0
 11
27022.852934301169
 21
16714.34301142197
 31
0.0
  0
LINE
  5
15F43
  8
2-0
  6
CONTINUOUS
 62
     3
 10
27047.85029430117
 20
16732.33881442195
 30
0.0
 11
27022.852934301169
 21
16732.33881442195
 31
0.0
  0
LINE
  5
15F44
  8
2-0
  6
CONTINUOUS
 62
     3
 10
27047.85029430117
 20
16727.338550421951
 30
0.0
 11
27047.85029430117
 21
16732.33881442195
 31
0.0
  0
LINE
  5
15F45
  8
2-0
  6
CONTINUOUS
 62
     3
 10
27040.848737301181
 20
16727.338550421951
 30
0.0
 11
27047.85029430117
 21
16727.338550421951
 31
0.0
  0
LINE
  5
15F46
  8
2-0
  6
CONTINUOUS
 62
     3
 10
27040.848737301181
 20
16022.856319921941
 30
0.0
 11
27047.85029430117
 21
16022.856319921941
 31
0.0
  0
LINE
  5
15F47
  8
2-0
  6
CONTINUOUS
 62
     3
 10
27047.85029430117
 20
16022.856319921941
 30
0.0
 11
27047.85029430117
 21
16027.856583921939
 31
0.0
  0
LINE
  5
15F48
  8
2-0
  6
CONTINUOUS
 62
     3
 10
27047.85029430117
 20
16027.856583921939
 30
0.0
 11
27022.852934301169
 21
16027.856583921939
 31
0.0
  0
LINE
  5
15F49
  8
2-0
  6
CONTINUOUS
 62
     3
 10
27022.852934301169
 20
16027.856583921939
 30
0.0
 11
27022.852934301169
 21
16009.85484192195
 31
0.0
  0
LINE
  5
15F4A
  8
2-0
  6
CONTINUOUS
 62
     3
 10
27022.852934301169
 20
16009.85484192195
 30
0.0
 11
27052.850558301179
 21
16009.85484192195
 31
0.0
  0
LINE
  5
15F4B
  8
2-0
  6
CONTINUOUS
 62
     3
 10
27022.852934301169
 20
16025.952286921951
 30
0.0
 11
27022.852934301169
 21
16019.95533592195
 31
0.0
  0
LINE
  5
15F4C
  8
2-0
  6
CONTINUOUS
 62
     3
 10
27022.852934301169
 20
16019.95533592195
 30
0.0
 11
27052.850558301179
 21
16019.95533592195
 31
0.0
  0
LINE
  5
15F4D
  8
2-0
  6
CONTINUOUS
 62
     3
 10
27052.850558301179
 20
16019.95533592195
 30
0.0
 11
27052.850558301179
 21
16056.95550692196
 31
0.0
  0
LINE
  5
15F4E
  8
2-0
  6
CONTINUOUS
 62
     3
 10
27022.852934301169
 20
16056.95550692196
 30
0.0
 11
27052.850558301179
 21
16056.95550692196
 31
0.0
  0
LINE
  5
15F4F
  8
2-0
  6
CONTINUOUS
 62
     3
 10
27022.852934301169
 20
16050.95261692195
 30
0.0
 11
27022.852934301169
 21
16056.95550692196
 31
0.0
  0
LINE
  5
15F50
  8
2-0
  6
CONTINUOUS
 62
     3
 10
27022.852934301169
 20
16067.051051921961
 30
0.0
 11
27052.850558301179
 21
16067.051051921961
 31
0.0
  0
LINE
  5
15F51
  8
2-0
  6
CONTINUOUS
 62
     3
 10
27022.852934301169
 20
16049.043370921951
 30
0.0
 11
27022.852934301169
 21
16067.051051921961
 31
0.0
  0
LINE
  5
15F52
  8
2-0
  6
CONTINUOUS
 62
     3
 10
27047.85029430117
 20
16049.043370921951
 30
0.0
 11
27022.852934301169
 21
16049.043370921951
 31
0.0
  0
LINE
  5
15F53
  8
2-0
  6
CONTINUOUS
 62
     3
 10
27047.85029430117
 20
16054.04957392196
 30
0.0
 11
27047.85029430117
 21
16049.043370921951
 31
0.0
  0
LINE
  5
15F54
  8
2-0
  6
CONTINUOUS
 62
     3
 10
27040.848737301181
 20
16054.04957392196
 30
0.0
 11
27047.85029430117
 21
16054.04957392196
 31
0.0
  0
LINE
  5
15F55
  8
2-0
  6
CONTINUOUS
 62
     3
 10
27040.848737301181
 20
15353.289590421969
 30
0.0
 11
27047.85029430117
 21
15353.289590421969
 31
0.0
  0
LINE
  5
15F56
  8
2-0
  6
CONTINUOUS
 62
     3
 10
27047.85029430117
 20
15353.289590421969
 30
0.0
 11
27047.85029430117
 21
15348.295265421961
 31
0.0
  0
LINE
  5
15F57
  8
2-0
  6
CONTINUOUS
 62
     3
 10
27047.85029430117
 20
15348.295265421961
 30
0.0
 11
27022.852934301169
 21
15348.295265421961
 31
0.0
  0
LINE
  5
15F58
  8
2-0
  6
CONTINUOUS
 62
     3
 10
27022.852934301169
 20
15348.295265421961
 30
0.0
 11
27022.852934301169
 21
15366.291068421961
 31
0.0
  0
LINE
  5
15F59
  8
2-0
  6
CONTINUOUS
 62
     3
 10
27022.852934301169
 20
15366.291068421961
 30
0.0
 11
27052.850558301179
 21
15366.291068421961
 31
0.0
  0
LINE
  5
15F5A
  8
2-0
  6
CONTINUOUS
 62
     3
 10
27022.852934301169
 20
15350.19362342197
 30
0.0
 11
27022.852934301169
 21
15356.195523421969
 31
0.0
  0
LINE
  5
15F5B
  8
2-0
  6
CONTINUOUS
 62
     3
 10
27022.852934301169
 20
15356.195523421969
 30
0.0
 11
27052.850558301179
 21
15356.195523421969
 31
0.0
  0
LINE
  5
15F5C
  8
2-0
  6
CONTINUOUS
 62
     3
 10
27052.850558301179
 20
15319.19634242197
 30
0.0
 11
27052.850558301179
 21
15356.195523421969
 31
0.0
  0
LINE
  5
15F5D
  8
2-0
  6
CONTINUOUS
 62
     3
 10
27022.852934301169
 20
15319.19634242197
 30
0.0
 11
27052.850558301179
 21
15319.19634242197
 31
0.0
  0
LINE
  5
15F5E
  8
2-0
  6
CONTINUOUS
 62
     3
 10
27022.852934301169
 20
15325.193293421949
 30
0.0
 11
27022.852934301169
 21
15319.19634242197
 31
0.0
  0
LINE
  5
15F5F
  8
2-0
  6
CONTINUOUS
 62
     3
 10
27022.852934301169
 20
15309.09485842196
 30
0.0
 11
27052.850558301179
 21
15309.09485842196
 31
0.0
  0
LINE
  5
15F60
  8
2-0
  6
CONTINUOUS
 62
     3
 10
27022.852934301169
 20
15327.10253942196
 30
0.0
 11
27022.852934301169
 21
15309.09485842196
 31
0.0
  0
LINE
  5
15F61
  8
2-0
  6
CONTINUOUS
 62
     3
 10
27047.85029430117
 20
15327.10253942196
 30
0.0
 11
27022.852934301169
 21
15327.10253942196
 31
0.0
  0
LINE
  5
15F62
  8
2-0
  6
CONTINUOUS
 62
     3
 10
27047.85029430117
 20
15322.10227542197
 30
0.0
 11
27047.85029430117
 21
15327.10253942196
 31
0.0
  0
LINE
  5
15F63
  8
2-0
  6
CONTINUOUS
 62
     3
 10
27040.848737301181
 20
15322.10227542197
 30
0.0
 11
27047.85029430117
 21
15322.10227542197
 31
0.0
  0
LINE
  5
15F64
  8
2-0
  6
CONTINUOUS
 62
     3
 10
27052.850558301179
 20
16714.34301142197
 30
0.0
 11
27052.850558301179
 21
16067.051051921961
 31
0.0
  0
LINE
  5
15F65
  8
2-0
  6
CONTINUOUS
 62
     3
 10
27052.850558301179
 20
16868.953309421951
 30
0.0
 11
27052.850558301179
 21
16723.95159442196
 31
0.0
  0
LINE
  5
15F66
  8
2-0
  6
CONTINUOUS
 62
     3
 10
26964.96785130116
 20
16838.953705421962
 30
0.0
 11
26964.96785130116
 21
16753.957137421959
 31
0.0
  0
LINE
  5
15F67
  8
2-0
  6
CONTINUOUS
 62
     6
 10
25426.759184301169
 20
18607.40097092195
 30
0.0
 11
26451.79151630116
 21
18607.40097092195
 31
0.0
  0
LINE
  5
15F68
  8
2-0
  6
CONTINUOUS
 62
     3
 10
27040.848737301181
 20
14620.861268421961
 30
0.0
 11
27047.85029430117
 21
14620.861268421961
 31
0.0
  0
LINE
  5
15F69
  8
2-0
  6
CONTINUOUS
 62
     3
 10
27047.85029430117
 20
14620.861268421961
 30
0.0
 11
27047.85029430117
 21
14625.855594421961
 31
0.0
  0
LINE
  5
15F6A
  8
2-0
  6
CONTINUOUS
 62
     3
 10
27047.85029430117
 20
14625.855594421961
 30
0.0
 11
27022.852934301169
 21
14625.855594421961
 31
0.0
  0
LINE
  5
15F6B
  8
2-0
  6
CONTINUOUS
 62
     3
 10
27022.852934301169
 20
14625.855594421961
 30
0.0
 11
27022.852934301169
 21
14607.85979042196
 31
0.0
  0
LINE
  5
15F6C
  8
2-0
  6
CONTINUOUS
 62
     3
 10
27022.852934301169
 20
14607.85979042196
 30
0.0
 11
27052.850558301179
 21
14607.85979042196
 31
0.0
  0
LINE
  5
15F6D
  8
2-0
  6
CONTINUOUS
 62
     3
 10
27022.852934301169
 20
14623.958225421969
 30
0.0
 11
27022.852934301169
 21
14617.955335421961
 31
0.0
  0
LINE
  5
15F6E
  8
2-0
  6
CONTINUOUS
 62
     3
 10
27022.852934301169
 20
14617.955335421961
 30
0.0
 11
27052.850558301179
 21
14617.955335421961
 31
0.0
  0
LINE
  5
15F6F
  8
2-0
  6
CONTINUOUS
 62
     3
 10
27052.850558301179
 20
14617.955335421961
 30
0.0
 11
27052.850558301179
 21
14654.955507421941
 31
0.0
  0
LINE
  5
15F70
  8
2-0
  6
CONTINUOUS
 62
     3
 10
27022.852934301169
 20
14654.955507421941
 30
0.0
 11
27052.850558301179
 21
14654.955507421941
 31
0.0
  0
LINE
  5
15F71
  8
2-0
  6
CONTINUOUS
 62
     3
 10
27022.852934301169
 20
14648.95855542195
 30
0.0
 11
27022.852934301169
 21
14654.955507421941
 31
0.0
  0
LINE
  5
15F72
  8
2-0
  6
CONTINUOUS
 62
     3
 10
27022.852934301169
 20
14665.056000421961
 30
0.0
 11
27052.850558301179
 21
14665.056000421961
 31
0.0
  0
LINE
  5
15F73
  8
2-0
  6
CONTINUOUS
 62
     3
 10
27022.852934301169
 20
14647.049309421969
 30
0.0
 11
27022.852934301169
 21
14665.056000421961
 31
0.0
  0
LINE
  5
15F74
  8
2-0
  6
CONTINUOUS
 62
     3
 10
27047.85029430117
 20
14647.049309421969
 30
0.0
 11
27022.852934301169
 21
14647.049309421969
 31
0.0
  0
LINE
  5
15F75
  8
2-0
  6
CONTINUOUS
 62
     3
 10
27047.85029430117
 20
14652.05452242197
 30
0.0
 11
27047.85029430117
 21
14647.049309421969
 31
0.0
  0
LINE
  5
15F76
  8
2-0
  6
CONTINUOUS
 62
     3
 10
27040.848737301181
 20
14652.05452242197
 30
0.0
 11
27047.85029430117
 21
14652.05452242197
 31
0.0
  0
LINE
  5
15F77
  8
2-0
  6
CONTINUOUS
 62
     3
 10
27022.852934301169
 20
14295.457348421951
 30
0.0
 11
27022.852934301169
 21
14301.46221742196
 31
0.0
  0
LINE
  5
15F78
  8
2-0
  6
CONTINUOUS
 62
     3
 10
27022.852934301169
 20
14301.46221742196
 30
0.0
 11
27052.850558301179
 21
14301.46221742196
 31
0.0
  0
LINE
  5
15F79
  8
2-0
  6
CONTINUOUS
 62
     3
 10
27052.850558301179
 20
14301.46221742196
 30
0.0
 11
27052.850558301179
 21
14186.458126421951
 31
0.0
  0
LINE
  5
15F7A
  8
2-0
  6
CONTINUOUS
 62
     3
 10
27052.850558301179
 20
14186.458126421951
 30
0.0
 11
26967.85201030118
 21
14186.458126421951
 31
0.0
  0
LINE
  5
15F7B
  8
2-0
  6
CONTINUOUS
 62
     3
 10
26967.85201030118
 20
14186.458126421951
 30
0.0
 11
26967.85201030118
 21
14271.45370542196
 31
0.0
  0
LINE
  5
15F7C
  8
2-0
  6
CONTINUOUS
 62
     3
 10
26967.85201030118
 20
14271.45370542196
 30
0.0
 11
26999.85092830117
 21
14271.45370542196
 31
0.0
  0
LINE
  5
15F7D
  8
2-0
  6
CONTINUOUS
 62
     3
 10
27040.848737301181
 20
14298.491950421951
 30
0.0
 11
27047.85029430117
 21
14298.491950421951
 31
0.0
  0
LINE
  5
15F7E
  8
2-0
  6
CONTINUOUS
 62
     3
 10
27047.85029430117
 20
14298.491950421951
 30
0.0
 11
27047.85029430117
 21
14293.49465542194
 31
0.0
  0
LINE
  5
15F7F
  8
2-0
  6
CONTINUOUS
 62
     3
 10
27047.85029430117
 20
14293.49465542194
 30
0.0
 11
27022.852934301169
 21
14293.49465542194
 31
0.0
  0
LINE
  5
15F80
  8
2-0
  6
CONTINUOUS
 62
     3
 10
27022.852934301169
 20
14293.49465542194
 30
0.0
 11
27022.852934301169
 21
14311.49342842196
 31
0.0
  0
LINE
  5
15F81
  8
2-0
  6
CONTINUOUS
 62
     3
 10
27022.852934301169
 20
14311.49342842196
 30
0.0
 11
27052.850558301179
 21
14311.49342842196
 31
0.0
  0
LINE
  5
15F82
  8
2-0
  6
CONTINUOUS
 62
     3
 10
27052.850558301179
 20
18284.05055742195
 30
0.0
 11
27052.850558301179
 21
18927.861274921961
 31
0.0
  0
LINE
  5
15F83
  8
2-0
  6
CONTINUOUS
 62
     6
 10
27745.35544130117
 20
20136.456609421981
 30
0.0
 11
28945.34950330116
 21
20136.456609421981
 31
0.0
  0
LINE
  5
15F84
  8
2-0
  6
CONTINUOUS
 62
     6
 10
26883.322608301161
 20
18849.55547892195
 30
0.0
 11
26451.79151630116
 21
18607.40097092195
 31
0.0
  0
LINE
  5
15F85
  8
2-0
  6
CONTINUOUS
 62
     6
 10
27204.89144230113
 20
19549.133446421962
 30
0.0
 11
27745.35544130117
 21
20136.456609421981
 31
0.0
  0
LINE
  5
15F86
  8
2-0
  6
CONTINUOUS
 62
     3
 10
27052.850558301179
 20
16009.85484192195
 30
0.0
 11
27052.850558301179
 21
15366.291068421961
 31
0.0
  0
LINE
  5
15F87
  8
2-0
  6
CONTINUOUS
 62
     6
 10
26870.265703301171
 20
18872.814822921951
 30
0.0
 11
27022.852934301169
 21
18927.861274921961
 31
0.0
  0
LINE
  5
15F88
  8
2-0
  6
CONTINUOUS
 62
     6
 10
27022.852934301169
 20
18927.861274921961
 30
0.0
 11
26896.37159430117
 21
18826.30207492191
 31
0.0
  0
LINE
  5
15F89
  8
2-0
  6
CONTINUOUS
 62
     6
 10
26870.265703301171
 20
18872.814822921951
 30
0.0
 11
26896.37159430117
 21
18826.30207492191
 31
0.0
  0
LINE
  5
15F8A
  8
2-0
  6
CONTINUOUS
 62
     6
 10
26896.37159430117
 20
18826.30207492191
 30
0.0
 11
27022.852934301169
 21
18927.861274921961
 31
0.0
  0
LINE
  5
15F8B
  8
2-0
  6
CONTINUOUS
 62
     6
 10
27022.852934301169
 20
18927.861274921961
 30
0.0
 11
26870.265703301171
 21
18872.814822921951
 31
0.0
  0
LINE
  5
15F8C
  8
2-0
  6
CONTINUOUS
 62
     6
 10
26870.265703301171
 20
18872.814822921951
 30
0.0
 11
27022.852934301169
 21
18927.861274921961
 31
0.0
  0
LINE
  5
15F8D
  8
2-0
  6
CONTINUOUS
 62
     6
 10
26896.37159430117
 20
18826.30207492191
 30
0.0
 11
27022.852934301169
 21
18927.861274921961
 31
0.0
  0
LINE
  5
15F8E
  8
2-0
  6
CONTINUOUS
 62
     6
 10
26896.37159430117
 20
18826.30207492191
 30
0.0
 11
26870.265703301171
 21
18872.814822921951
 31
0.0
  0
LINE
  5
15F8F
  8
2-0
  6
CONTINUOUS
 62
     6
 10
27224.508471301171
 20
19531.072319421972
 30
0.0
 11
27096.546451301179
 21
19431.389701421969
 31
0.0
  0
LINE
  5
15F90
  8
2-0
  6
CONTINUOUS
 62
     6
 10
27096.546451301179
 20
19431.389701421969
 30
0.0
 11
27185.26055630116
 21
19567.186656421982
 31
0.0
  0
LINE
  5
15F91
  8
2-0
  6
CONTINUOUS
 62
     6
 10
27224.508471301171
 20
19531.072319421972
 30
0.0
 11
27185.26055630116
 21
19567.186656421982
 31
0.0
  0
LINE
  5
15F92
  8
2-0
  6
CONTINUOUS
 62
     6
 10
27185.26055630116
 20
19567.186656421982
 30
0.0
 11
27096.546451301179
 21
19431.389701421969
 31
0.0
  0
LINE
  5
15F93
  8
2-0
  6
CONTINUOUS
 62
     6
 10
27096.546451301179
 20
19431.389701421969
 30
0.0
 11
27224.508471301171
 21
19531.072319421972
 31
0.0
  0
LINE
  5
15F94
  8
2-0
  6
CONTINUOUS
 62
     6
 10
27224.508471301171
 20
19531.072319421972
 30
0.0
 11
27096.546451301179
 21
19431.389701421969
 31
0.0
  0
LINE
  5
15F95
  8
2-0
  6
CONTINUOUS
 62
     6
 10
27185.26055630116
 20
19567.186656421982
 30
0.0
 11
27096.546451301179
 21
19431.389701421969
 31
0.0
  0
LINE
  5
15F96
  8
2-0
  6
CONTINUOUS
 62
     6
 10
27185.26055630116
 20
19567.186656421982
 30
0.0
 11
27224.508471301171
 21
19531.072319421972
 31
0.0
  0
LINE
  5
15F97
  8
2-0
  6
CONTINUOUS
 62
     4
 10
24442.852274301171
 20
19486.455949421961
 30
0.0
 11
24442.852274301171
 21
20216.45291442197
 31
0.0
  0
LINE
  5
15F98
  8
2-0
  6
CONTINUOUS
 62
     6
 10
26776.21283730118
 20
14078.185388421951
 30
0.0
 11
26907.959696301179
 21
14172.812315421959
 31
0.0
  0
LINE
  5
15F99
  8
2-0
  6
CONTINUOUS
 62
     6
 10
26907.959696301179
 20
14172.812315421959
 30
0.0
 11
26814.029560301158
 21
14040.57354542195
 31
0.0
  0
LINE
  5
15F9A
  8
2-0
  6
CONTINUOUS
 62
     6
 10
26776.21283730118
 20
14078.185388421951
 30
0.0
 11
26814.029560301158
 21
14040.57354542195
 31
0.0
  0
LINE
  5
15F9B
  8
2-0
  6
CONTINUOUS
 62
     6
 10
26814.029560301158
 20
14040.57354542195
 30
0.0
 11
26907.959696301179
 21
14172.812315421959
 31
0.0
  0
LINE
  5
15F9C
  8
2-0
  6
CONTINUOUS
 62
     6
 10
26907.959696301179
 20
14172.812315421959
 30
0.0
 11
26776.21283730118
 21
14078.185388421951
 31
0.0
  0
LINE
  5
15F9D
  8
2-0
  6
CONTINUOUS
 62
     6
 10
26776.21283730118
 20
14078.185388421951
 30
0.0
 11
26907.959696301179
 21
14172.812315421959
 31
0.0
  0
LINE
  5
15F9E
  8
2-0
  6
CONTINUOUS
 62
     6
 10
26814.029560301158
 20
14040.57354542195
 30
0.0
 11
26907.959696301179
 21
14172.812315421959
 31
0.0
  0
LINE
  5
15F9F
  8
2-0
  6
CONTINUOUS
 62
     6
 10
26814.029560301158
 20
14040.57354542195
 30
0.0
 11
26776.21283730118
 21
14078.185388421951
 31
0.0
  0
LINE
  5
15FA0
  8
2-0
  6
CONTINUOUS
 62
     6
 10
26839.248626301182
 20
14405.090015421951
 30
0.0
 11
26971.848658301151
 21
14311.661687421951
 31
0.0
  0
LINE
  5
15FA1
  8
2-0
  6
CONTINUOUS
 62
     6
 10
26971.848658301151
 20
14311.661687421951
 30
0.0
 11
26816.11597230117
 21
14357.037201421959
 31
0.0
  0
LINE
  5
15FA2
  8
2-0
  6
CONTINUOUS
 62
     6
 10
26839.248626301182
 20
14405.090015421951
 30
0.0
 11
26816.11597230117
 21
14357.037201421959
 31
0.0
  0
LINE
  5
15FA3
  8
2-0
  6
CONTINUOUS
 62
     6
 10
26816.11597230117
 20
14357.037201421959
 30
0.0
 11
26971.848658301151
 21
14311.661687421951
 31
0.0
  0
LINE
  5
15FA4
  8
2-0
  6
CONTINUOUS
 62
     6
 10
26971.848658301151
 20
14311.661687421951
 30
0.0
 11
26839.248626301182
 21
14405.090015421951
 31
0.0
  0
LINE
  5
15FA5
  8
2-0
  6
CONTINUOUS
 62
     6
 10
26839.248626301182
 20
14405.090015421951
 30
0.0
 11
26971.848658301151
 21
14311.661687421951
 31
0.0
  0
LINE
  5
15FA6
  8
2-0
  6
CONTINUOUS
 62
     6
 10
26816.11597230117
 20
14357.037201421959
 30
0.0
 11
26971.848658301151
 21
14311.661687421951
 31
0.0
  0
LINE
  5
15FA7
  8
2-0
  6
CONTINUOUS
 62
     6
 10
26816.11597230117
 20
14357.037201421959
 30
0.0
 11
26839.248626301182
 21
14405.090015421951
 31
0.0
  0
LINE
  5
15FA8
  8
2-0
  6
CONTINUOUS
 62
     6
 10
26899.01227230117
 20
16434.410948421981
 30
0.0
 11
27052.850558301179
 21
16485.844779421979
 31
0.0
  0
LINE
  5
15FA9
  8
2-0
  6
CONTINUOUS
 62
     6
 10
27052.850558301179
 20
16485.844779421979
 30
0.0
 11
26924.015571301159
 21
16387.30434442198
 31
0.0
  0
LINE
  5
15FAA
  8
2-0
  6
CONTINUOUS
 62
     6
 10
26899.01227230117
 20
16434.410948421981
 30
0.0
 11
26924.015571301159
 21
16387.30434442198
 31
0.0
  0
LINE
  5
15FAB
  8
2-0
  6
CONTINUOUS
 62
     6
 10
26924.015571301159
 20
16387.30434442198
 30
0.0
 11
27052.850558301179
 21
16485.844779421979
 31
0.0
  0
LINE
  5
15FAC
  8
2-0
  6
CONTINUOUS
 62
     6
 10
27052.850558301179
 20
16485.844779421979
 30
0.0
 11
26899.01227230117
 21
16434.410948421981
 31
0.0
  0
LINE
  5
15FAD
  8
2-0
  6
CONTINUOUS
 62
     6
 10
26899.01227230117
 20
16434.410948421981
 30
0.0
 11
27052.850558301179
 21
16485.844779421979
 31
0.0
  0
LINE
  5
15FAE
  8
2-0
  6
CONTINUOUS
 62
     6
 10
26924.015571301159
 20
16387.30434442198
 30
0.0
 11
27052.850558301179
 21
16485.844779421979
 31
0.0
  0
LINE
  5
15FAF
  8
2-0
  6
CONTINUOUS
 62
     6
 10
26924.015571301159
 20
16387.30434442198
 30
0.0
 11
26899.01227230117
 21
16434.410948421981
 31
0.0
  0
LINE
  5
15FB0
  8
2-0
  6
CONTINUOUS
 62
     6
 10
26765.076065301171
 20
16925.729440421968
 30
0.0
 11
26907.959696301179
 21
16848.953811421961
 31
0.0
  0
LINE
  5
15FB1
  8
2-0
  6
CONTINUOUS
 62
     6
 10
26907.959696301179
 20
16848.953811421961
 30
0.0
 11
26747.897803301181
 21
16875.235880421969
 31
0.0
  0
LINE
  5
15FB2
  8
2-0
  6
CONTINUOUS
 62
     6
 10
26765.076065301171
 20
16925.729440421968
 30
0.0
 11
26747.897803301181
 21
16875.235880421969
 31
0.0
  0
LINE
  5
15FB3
  8
2-0
  6
CONTINUOUS
 62
     6
 10
26747.897803301181
 20
16875.235880421969
 30
0.0
 11
26907.959696301179
 21
16848.953811421961
 31
0.0
  0
LINE
  5
15FB4
  8
2-0
  6
CONTINUOUS
 62
     6
 10
26907.959696301179
 20
16848.953811421961
 30
0.0
 11
26765.076065301171
 21
16925.729440421968
 31
0.0
  0
LINE
  5
15FB5
  8
2-0
  6
CONTINUOUS
 62
     6
 10
26765.076065301171
 20
16925.729440421968
 30
0.0
 11
26907.959696301179
 21
16848.953811421961
 31
0.0
  0
LINE
  5
15FB6
  8
2-0
  6
CONTINUOUS
 62
     6
 10
26747.897803301181
 20
16875.235880421969
 30
0.0
 11
26907.959696301179
 21
16848.953811421961
 31
0.0
  0
LINE
  5
15FB7
  8
2-0
  6
CONTINUOUS
 62
     6
 10
26747.897803301181
 20
16875.235880421969
 30
0.0
 11
26765.076065301171
 21
16925.729440421968
 31
0.0
  0
LINE
  5
15FB8
  8
2-0
  6
CONTINUOUS
 62
     3
 10
24430.353594301148
 20
19297.453495421949
 30
0.0
 11
24430.353594301148
 21
19291.457533421959
 31
0.0
  0
LINE
  5
15FB9
  8
2-0
  6
CONTINUOUS
 62
     3
 10
24430.353594301148
 20
19291.457533421959
 30
0.0
 11
24400.355969301148
 21
19291.457533421959
 31
0.0
  0
LINE
  5
15FBA
  8
2-0
  6
CONTINUOUS
 62
     3
 10
24400.355969301148
 20
19291.457533421959
 30
0.0
 11
24400.355969301148
 21
19406.453706421969
 31
0.0
  0
LINE
  5
15FBB
  8
2-0
  6
CONTINUOUS
 62
     3
 10
24400.355969301148
 20
19321.457137421959
 30
0.0
 11
24481.353910301172
 21
19321.457137421959
 31
0.0
  0
LINE
  5
15FBC
  8
2-0
  6
CONTINUOUS
 62
     3
 10
24430.353594301148
 20
19281.160077421951
 30
0.0
 11
24400.355969301148
 21
19281.160077421951
 31
0.0
  0
LINE
  5
15FBD
  8
2-0
  6
CONTINUOUS
 62
     3
 10
24430.353594301148
 20
19299.161819421959
 30
0.0
 11
24430.353594301148
 21
19281.160077421951
 31
0.0
  0
LINE
  5
15FBE
  8
2-0
  6
CONTINUOUS
 62
     3
 10
24405.360192301148
 20
19299.161819421959
 30
0.0
 11
24430.353594301148
 21
19299.161819421959
 31
0.0
  0
LINE
  5
15FBF
  8
2-0
  6
CONTINUOUS
 62
     3
 10
24405.360192301148
 20
19294.153637421961
 30
0.0
 11
24405.360192301148
 21
19299.161819421959
 31
0.0
  0
LINE
  5
15FC0
  8
2-0
  6
CONTINUOUS
 62
     3
 10
24412.35779030115
 20
19294.153637421961
 30
0.0
 11
24405.360192301148
 21
19294.153637421961
 31
0.0
  0
LINE
  5
15FC1
  8
2-0
  6
CONTINUOUS
 62
     3
 10
24512.65207930117
 20
19394.453864421961
 30
0.0
 11
24512.65207930117
 21
19401.459380421969
 31
0.0
  0
LINE
  5
15FC2
  8
2-0
  6
CONTINUOUS
 62
     3
 10
24512.65207930117
 20
19401.459380421969
 30
0.0
 11
24507.649835301148
 21
19401.459380421969
 31
0.0
  0
LINE
  5
15FC3
  8
2-0
  6
CONTINUOUS
 62
     3
 10
24507.649835301148
 20
19401.459380421969
 30
0.0
 11
24507.649835301148
 21
19376.45014342196
 31
0.0
  0
LINE
  5
15FC4
  8
2-0
  6
CONTINUOUS
 62
     3
 10
24507.649835301148
 20
19376.45014342196
 30
0.0
 11
24525.657516301158
 21
19376.45014342196
 31
0.0
  0
LINE
  5
15FC5
  8
2-0
  6
CONTINUOUS
 62
     3
 10
24525.657516301158
 20
19376.45014342196
 30
0.0
 11
24525.657516301158
 21
19406.453706421969
 31
0.0
  0
LINE
  5
15FC6
  8
2-0
  6
CONTINUOUS
 62
     3
 10
24515.358080301168
 20
19406.453706421969
 30
0.0
 11
24400.355969301148
 21
19406.453706421969
 31
0.0
  0
LINE
  5
15FC7
  8
2-0
  6
CONTINUOUS
 62
     3
 10
24515.358080301168
 20
19376.45014342196
 30
0.0
 11
24515.358080301168
 21
19406.453706421969
 31
0.0
  0
LINE
  5
15FC8
  8
2-0
  6
CONTINUOUS
 62
     3
 10
24509.354201301168
 20
19376.45014342196
 30
0.0
 11
24515.358080301168
 21
19376.45014342196
 31
0.0
  0
LINE
  5
15FC9
  8
2-0
  6
CONTINUOUS
 62
     3
 10
24430.353594301148
 20
19297.453495421949
 30
0.0
 11
24430.353594301148
 21
19291.457533421959
 31
0.0
  0
LINE
  5
15FCA
  8
2-0
  6
CONTINUOUS
 62
     3
 10
24430.353594301148
 20
19291.457533421959
 30
0.0
 11
24400.355969301148
 21
19291.457533421959
 31
0.0
  0
LINE
  5
15FCB
  8
2-0
  6
CONTINUOUS
 62
     3
 10
24400.355969301148
 20
19291.457533421959
 30
0.0
 11
24400.355969301148
 21
19406.453706421969
 31
0.0
  0
LINE
  5
15FCC
  8
2-0
  6
CONTINUOUS
 62
     3
 10
24400.355969301148
 20
19321.457137421959
 30
0.0
 11
24481.353910301172
 21
19321.457137421959
 31
0.0
  0
LINE
  5
15FCD
  8
2-0
  6
CONTINUOUS
 62
     3
 10
24430.353594301148
 20
19281.160077421951
 30
0.0
 11
24400.355969301148
 21
19281.160077421951
 31
0.0
  0
LINE
  5
15FCE
  8
2-0
  6
CONTINUOUS
 62
     3
 10
24430.353594301148
 20
19299.161819421959
 30
0.0
 11
24430.353594301148
 21
19281.160077421951
 31
0.0
  0
LINE
  5
15FCF
  8
2-0
  6
CONTINUOUS
 62
     3
 10
24405.360192301148
 20
19299.161819421959
 30
0.0
 11
24430.353594301148
 21
19299.161819421959
 31
0.0
  0
LINE
  5
15FD0
  8
2-0
  6
CONTINUOUS
 62
     3
 10
24405.360192301148
 20
19294.153637421961
 30
0.0
 11
24405.360192301148
 21
19299.161819421959
 31
0.0
  0
LINE
  5
15FD1
  8
2-0
  6
CONTINUOUS
 62
     3
 10
24412.35779030115
 20
19294.153637421961
 30
0.0
 11
24405.360192301148
 21
19294.153637421961
 31
0.0
  0
LINE
  5
15FD2
  8
2-0
  6
CONTINUOUS
 62
     3
 10
24412.35779030115
 20
18940.85681492191
 30
0.0
 11
24405.360192301148
 21
18940.85681492191
 31
0.0
  0
LINE
  5
15FD3
  8
2-0
  6
CONTINUOUS
 62
     3
 10
24405.360192301148
 20
18940.85681492191
 30
0.0
 11
24405.360192301148
 21
18945.857078921948
 31
0.0
  0
LINE
  5
15FD4
  8
2-0
  6
CONTINUOUS
 62
     3
 10
24405.360192301148
 20
18945.857078921948
 30
0.0
 11
24430.353594301148
 21
18945.857078921948
 31
0.0
  0
LINE
  5
15FD5
  8
2-0
  6
CONTINUOUS
 62
     3
 10
24430.353594301148
 20
18945.857078921948
 30
0.0
 11
24430.353594301148
 21
18927.861274921939
 31
0.0
  0
LINE
  5
15FD6
  8
2-0
  6
CONTINUOUS
 62
     3
 10
24430.353594301148
 20
18927.861274921939
 30
0.0
 11
24400.355969301148
 21
18927.861274921939
 31
0.0
  0
LINE
  5
15FD7
  8
2-0
  6
CONTINUOUS
 62
     3
 10
24430.353594301148
 20
18943.952781921918
 30
0.0
 11
24430.353594301148
 21
18937.95484092195
 31
0.0
  0
LINE
  5
15FD8
  8
2-0
  6
CONTINUOUS
 62
     3
 10
24430.353594301148
 20
18937.95484092195
 30
0.0
 11
24400.355969301148
 21
18937.95484092195
 31
0.0
  0
LINE
  5
15FD9
  8
2-0
  6
CONTINUOUS
 62
     3
 10
24400.355969301148
 20
18937.95484092195
 30
0.0
 11
24400.355969301148
 21
18974.956001921939
 31
0.0
  0
LINE
  5
15FDA
  8
2-0
  6
CONTINUOUS
 62
     3
 10
24430.353594301148
 20
18974.956001921939
 30
0.0
 11
24400.355969301148
 21
18974.956001921939
 31
0.0
  0
LINE
  5
15FDB
  8
2-0
  6
CONTINUOUS
 62
     3
 10
24430.353594301148
 20
18968.95212192195
 30
0.0
 11
24430.353594301148
 21
18974.956001921939
 31
0.0
  0
LINE
  5
15FDC
  8
2-0
  6
CONTINUOUS
 62
     3
 10
24430.353594301148
 20
18985.05154692191
 30
0.0
 11
24400.355969301148
 21
18985.05154692191
 31
0.0
  0
LINE
  5
15FDD
  8
2-0
  6
CONTINUOUS
 62
     3
 10
24430.353594301148
 20
18967.04980492196
 30
0.0
 11
24430.353594301148
 21
18985.05154692191
 31
0.0
  0
LINE
  5
15FDE
  8
2-0
  6
CONTINUOUS
 62
     3
 10
24405.360192301148
 20
18967.04980492196
 30
0.0
 11
24430.353594301148
 21
18967.04980492196
 31
0.0
  0
LINE
  5
15FDF
  8
2-0
  6
CONTINUOUS
 62
     3
 10
24405.360192301148
 20
18972.050068921952
 30
0.0
 11
24405.360192301148
 21
18967.04980492196
 31
0.0
  0
LINE
  5
15FE0
  8
2-0
  6
CONTINUOUS
 62
     3
 10
24412.35779030115
 20
18972.050068921952
 30
0.0
 11
24405.360192301148
 21
18972.050068921952
 31
0.0
  0
LINE
  5
15FE1
  8
2-0
  6
CONTINUOUS
 62
     3
 10
24412.35779030115
 20
18239.85582542195
 30
0.0
 11
24405.360192301148
 21
18239.85582542195
 31
0.0
  0
LINE
  5
15FE2
  8
2-0
  6
CONTINUOUS
 62
     3
 10
24405.360192301148
 20
18239.85582542195
 30
0.0
 11
24405.360192301148
 21
18244.862027421921
 31
0.0
  0
LINE
  5
15FE3
  8
2-0
  6
CONTINUOUS
 62
     3
 10
24405.360192301148
 20
18244.862027421921
 30
0.0
 11
24430.353594301148
 21
18244.862027421921
 31
0.0
  0
LINE
  5
15FE4
  8
2-0
  6
CONTINUOUS
 62
     3
 10
24430.353594301148
 20
18244.862027421921
 30
0.0
 11
24430.353594301148
 21
18226.860285421961
 31
0.0
  0
LINE
  5
15FE5
  8
2-0
  6
CONTINUOUS
 62
     3
 10
24430.353594301148
 20
18226.860285421961
 30
0.0
 11
24400.355969301148
 21
18226.860285421961
 31
0.0
  0
LINE
  5
15FE6
  8
2-0
  6
CONTINUOUS
 62
     3
 10
24430.353594301148
 20
18242.951792421922
 30
0.0
 11
24430.353594301148
 21
18236.955830421939
 31
0.0
  0
LINE
  5
15FE7
  8
2-0
  6
CONTINUOUS
 62
     3
 10
24430.353594301148
 20
18236.955830421939
 30
0.0
 11
24400.355969301148
 21
18236.955830421939
 31
0.0
  0
LINE
  5
15FE8
  8
2-0
  6
CONTINUOUS
 62
     3
 10
24400.355969301148
 20
18236.955830421939
 30
0.0
 11
24400.355969301148
 21
18273.95501242195
 31
0.0
  0
LINE
  5
15FE9
  8
2-0
  6
CONTINUOUS
 62
     3
 10
24430.353594301148
 20
18273.95501242195
 30
0.0
 11
24400.355969301148
 21
18273.95501242195
 31
0.0
  0
LINE
  5
15FEA
  8
2-0
  6
CONTINUOUS
 62
     3
 10
24430.353594301148
 20
18267.959050421949
 30
0.0
 11
24430.353594301148
 21
18273.95501242195
 31
0.0
  0
LINE
  5
15FEB
  8
2-0
  6
CONTINUOUS
 62
     3
 10
24430.353594301148
 20
18284.05055742195
 30
0.0
 11
24400.355969301148
 21
18284.05055742195
 31
0.0
  0
LINE
  5
15FEC
  8
2-0
  6
CONTINUOUS
 62
     3
 10
24430.353594301148
 20
18266.048815421949
 30
0.0
 11
24430.353594301148
 21
18284.05055742195
 31
0.0
  0
LINE
  5
15FED
  8
2-0
  6
CONTINUOUS
 62
     3
 10
24405.360192301148
 20
18266.048815421949
 30
0.0
 11
24430.353594301148
 21
18266.048815421949
 31
0.0
  0
LINE
  5
15FEE
  8
2-0
  6
CONTINUOUS
 62
     3
 10
24405.360192301148
 20
18271.055017421939
 30
0.0
 11
24405.360192301148
 21
18266.048815421949
 31
0.0
  0
LINE
  5
15FEF
  8
2-0
  6
CONTINUOUS
 62
     3
 10
24412.35779030115
 20
18271.055017421939
 30
0.0
 11
24405.360192301148
 21
18271.055017421939
 31
0.0
  0
LINE
  5
15FF0
  8
2-0
  6
CONTINUOUS
 62
     3
 10
24412.35779030115
 20
17570.049079421951
 30
0.0
 11
24405.360192301148
 21
17570.049079421951
 31
0.0
  0
LINE
  5
15FF1
  8
2-0
  6
CONTINUOUS
 62
     3
 10
24405.360192301148
 20
17570.049079421951
 30
0.0
 11
24405.360192301148
 21
17565.06069242195
 31
0.0
  0
LINE
  5
15FF2
  8
2-0
  6
CONTINUOUS
 62
     3
 10
24405.360192301148
 20
17565.06069242195
 30
0.0
 11
24430.353594301148
 21
17565.06069242195
 31
0.0
  0
LINE
  5
15FF3
  8
2-0
  6
CONTINUOUS
 62
     3
 10
24430.353594301148
 20
17565.06069242195
 30
0.0
 11
24430.353594301148
 21
17583.056495421952
 31
0.0
  0
LINE
  5
15FF4
  8
2-0
  6
CONTINUOUS
 62
     3
 10
24430.353594301148
 20
17583.056495421952
 30
0.0
 11
24400.355969301148
 21
17583.056495421952
 31
0.0
  0
LINE
  5
15FF5
  8
2-0
  6
CONTINUOUS
 62
     3
 10
24430.353594301148
 20
17566.959050421949
 30
0.0
 11
24430.353594301148
 21
17572.95501242195
 31
0.0
  0
LINE
  5
15FF6
  8
2-0
  6
CONTINUOUS
 62
     3
 10
24430.353594301148
 20
17572.95501242195
 30
0.0
 11
24400.355969301148
 21
17572.95501242195
 31
0.0
  0
LINE
  5
15FF7
  8
2-0
  6
CONTINUOUS
 62
     3
 10
24400.355969301148
 20
17572.95501242195
 30
0.0
 11
24400.355969301148
 21
17535.95583042195
 31
0.0
  0
LINE
  5
15FF8
  8
2-0
  6
CONTINUOUS
 62
     3
 10
24430.353594301148
 20
17535.95583042195
 30
0.0
 11
24400.355969301148
 21
17535.95583042195
 31
0.0
  0
LINE
  5
15FF9
  8
2-0
  6
CONTINUOUS
 62
     3
 10
24430.353594301148
 20
17541.957731421939
 30
0.0
 11
24430.353594301148
 21
17535.95583042195
 31
0.0
  0
LINE
  5
15FFA
  8
2-0
  6
CONTINUOUS
 62
     3
 10
24430.353594301148
 20
17525.866224421949
 30
0.0
 11
24400.355969301148
 21
17525.866224421949
 31
0.0
  0
LINE
  5
15FFB
  8
2-0
  6
CONTINUOUS
 62
     3
 10
24430.353594301148
 20
17543.86202742195
 30
0.0
 11
24430.353594301148
 21
17525.866224421949
 31
0.0
  0
LINE
  5
15FFC
  8
2-0
  6
CONTINUOUS
 62
     3
 10
24405.360192301148
 20
17543.86202742195
 30
0.0
 11
24430.353594301148
 21
17543.86202742195
 31
0.0
  0
LINE
  5
15FFD
  8
2-0
  6
CONTINUOUS
 62
     3
 10
24405.360192301148
 20
17538.861764421948
 30
0.0
 11
24405.360192301148
 21
17543.86202742195
 31
0.0
  0
LINE
  5
15FFE
  8
2-0
  6
CONTINUOUS
 62
     3
 10
24412.35779030115
 20
17538.861764421948
 30
0.0
 11
24405.360192301148
 21
17538.861764421948
 31
0.0
  0
LINE
  5
15FFF
  8
2-0
  6
CONTINUOUS
 62
     3
 10
24403.242107301168
 20
16818.95265042195
 30
0.0
 11
24403.242107301168
 21
16838.953705421962
 31
0.0
  0
LINE
  5
16000
  8
2-0
  6
CONTINUOUS
 62
     3
 10
24403.242107301168
 20
16838.953705421962
 30
0.0
 11
24488.242635301169
 21
16838.953705421962
 31
0.0
  0
LINE
  5
16001
  8
2-0
  6
CONTINUOUS
 62
     3
 10
24412.35779030115
 20
16865.560415421962
 30
0.0
 11
24405.360192301148
 21
16865.560415421962
 31
0.0
  0
LINE
  5
16002
  8
2-0
  6
CONTINUOUS
 62
     3
 10
24405.360192301148
 20
16865.560415421962
 30
0.0
 11
24405.360192301148
 21
16860.566089421962
 31
0.0
  0
LINE
  5
16003
  8
2-0
  6
CONTINUOUS
 62
     3
 10
24405.360192301148
 20
16860.566089421962
 30
0.0
 11
24430.353594301148
 21
16860.566089421962
 31
0.0
  0
LINE
  5
16004
  8
2-0
  6
CONTINUOUS
 62
     3
 10
24430.353594301148
 20
16860.566089421962
 30
0.0
 11
24430.353594301148
 21
16878.56189342196
 31
0.0
  0
LINE
  5
16005
  8
2-0
  6
CONTINUOUS
 62
     3
 10
24430.353594301148
 20
16878.56189342196
 30
0.0
 11
24400.355969301148
 21
16878.56189342196
 31
0.0
  0
LINE
  5
16006
  8
2-0
  6
CONTINUOUS
 62
     3
 10
24430.353594301148
 20
16868.953309421951
 30
0.0
 11
24430.353594301148
 21
16862.951409421948
 31
0.0
  0
LINE
  5
16007
  8
2-0
  6
CONTINUOUS
 62
     3
 10
24400.355969301148
 20
16868.953309421951
 30
0.0
 11
24430.353594301148
 21
16868.953309421951
 31
0.0
  0
LINE
  5
16008
  8
2-0
  6
CONTINUOUS
 62
     3
 10
24400.355969301148
 20
16878.56189342196
 30
0.0
 11
24400.355969301148
 21
17525.866224421949
 31
0.0
  0
LINE
  5
16009
  8
2-0
  6
CONTINUOUS
 62
     3
 10
24400.355969301148
 20
17583.056495421952
 30
0.0
 11
24400.355969301148
 21
18226.860285421961
 31
0.0
  0
LINE
  5
1600A
  8
2-0
  6
CONTINUOUS
 62
     3
 10
24400.355969301148
 20
16723.95159442196
 30
0.0
 11
24430.353594301148
 21
16723.95159442196
 31
0.0
  0
LINE
  5
1600B
  8
2-0
  6
CONTINUOUS
 62
     3
 10
24430.353594301148
 20
16723.95159442196
 30
0.0
 11
24430.353594301148
 21
16729.953494421949
 31
0.0
  0
LINE
  5
1600C
  8
2-0
  6
CONTINUOUS
 62
     3
 10
24488.242635301169
 20
16753.957137421959
 30
0.0
 11
24403.242107301168
 21
16753.957137421959
 31
0.0
  0
LINE
  5
1600D
  8
2-0
  6
CONTINUOUS
 62
     3
 10
24403.242107301168
 20
16753.957137421959
 30
0.0
 11
24403.242107301168
 21
16773.952254421962
 31
0.0
  0
LINE
  5
1600E
  8
2-0
  6
CONTINUOUS
 62
     3
 10
24430.353594301148
 20
16714.34301142197
 30
0.0
 11
24400.355969301148
 21
16714.34301142197
 31
0.0
  0
LINE
  5
1600F
  8
2-0
  6
CONTINUOUS
 62
     3
 10
24430.353594301148
 20
16732.33881442195
 30
0.0
 11
24430.353594301148
 21
16714.34301142197
 31
0.0
  0
LINE
  5
16010
  8
2-0
  6
CONTINUOUS
 62
     3
 10
24405.360192301148
 20
16732.33881442195
 30
0.0
 11
24430.353594301148
 21
16732.33881442195
 31
0.0
  0
LINE
  5
16011
  8
2-0
  6
CONTINUOUS
 62
     3
 10
24405.360192301148
 20
16727.338550421951
 30
0.0
 11
24405.360192301148
 21
16732.33881442195
 31
0.0
  0
LINE
  5
16012
  8
2-0
  6
CONTINUOUS
 62
     3
 10
24412.35779030115
 20
16727.338550421951
 30
0.0
 11
24405.360192301148
 21
16727.338550421951
 31
0.0
  0
LINE
  5
16013
  8
2-0
  6
CONTINUOUS
 62
     3
 10
24412.35779030115
 20
16022.856319921941
 30
0.0
 11
24405.360192301148
 21
16022.856319921941
 31
0.0
  0
LINE
  5
16014
  8
2-0
  6
CONTINUOUS
 62
     3
 10
24405.360192301148
 20
16022.856319921941
 30
0.0
 11
24405.360192301148
 21
16027.856583921939
 31
0.0
  0
LINE
  5
16015
  8
2-0
  6
CONTINUOUS
 62
     3
 10
24405.360192301148
 20
16027.856583921939
 30
0.0
 11
24430.353594301148
 21
16027.856583921939
 31
0.0
  0
LINE
  5
16016
  8
2-0
  6
CONTINUOUS
 62
     3
 10
24430.353594301148
 20
16027.856583921939
 30
0.0
 11
24430.353594301148
 21
16009.854841921941
 31
0.0
  0
LINE
  5
16017
  8
2-0
  6
CONTINUOUS
 62
     3
 10
24430.353594301148
 20
16009.854841921941
 30
0.0
 11
24400.355969301148
 21
16009.854841921941
 31
0.0
  0
LINE
  5
16018
  8
2-0
  6
CONTINUOUS
 62
     3
 10
24430.353594301148
 20
16025.952286921951
 30
0.0
 11
24430.353594301148
 21
16019.95533592195
 31
0.0
  0
LINE
  5
16019
  8
2-0
  6
CONTINUOUS
 62
     3
 10
24430.353594301148
 20
16019.95533592195
 30
0.0
 11
24400.355969301148
 21
16019.95533592195
 31
0.0
  0
LINE
  5
1601A
  8
2-0
  6
CONTINUOUS
 62
     3
 10
24400.355969301148
 20
16019.95533592195
 30
0.0
 11
24400.355969301148
 21
16056.95550692196
 31
0.0
  0
LINE
  5
1601B
  8
2-0
  6
CONTINUOUS
 62
     3
 10
24430.353594301148
 20
16056.95550692196
 30
0.0
 11
24400.355969301148
 21
16056.95550692196
 31
0.0
  0
LINE
  5
1601C
  8
2-0
  6
CONTINUOUS
 62
     3
 10
24430.353594301148
 20
16050.95261692195
 30
0.0
 11
24430.353594301148
 21
16056.95550692196
 31
0.0
  0
LINE
  5
1601D
  8
2-0
  6
CONTINUOUS
 62
     3
 10
24430.353594301148
 20
16067.051051921961
 30
0.0
 11
24400.355969301148
 21
16067.051051921961
 31
0.0
  0
LINE
  5
1601E
  8
2-0
  6
CONTINUOUS
 62
     3
 10
24430.353594301148
 20
16049.043370921951
 30
0.0
 11
24430.353594301148
 21
16067.051051921961
 31
0.0
  0
LINE
  5
1601F
  8
2-0
  6
CONTINUOUS
 62
     3
 10
24405.360192301148
 20
16049.043370921951
 30
0.0
 11
24430.353594301148
 21
16049.043370921951
 31
0.0
  0
LINE
  5
16020
  8
2-0
  6
CONTINUOUS
 62
     3
 10
24405.360192301148
 20
16054.04957392196
 30
0.0
 11
24405.360192301148
 21
16049.043370921951
 31
0.0
  0
LINE
  5
16021
  8
2-0
  6
CONTINUOUS
 62
     3
 10
24412.35779030115
 20
16054.04957392196
 30
0.0
 11
24405.360192301148
 21
16054.04957392196
 31
0.0
  0
LINE
  5
16022
  8
2-0
  6
CONTINUOUS
 62
     3
 10
24412.35779030115
 20
15353.289590421969
 30
0.0
 11
24405.360192301148
 21
15353.289590421969
 31
0.0
  0
LINE
  5
16023
  8
2-0
  6
CONTINUOUS
 62
     3
 10
24405.360192301148
 20
15353.289590421969
 30
0.0
 11
24405.360192301148
 21
15348.295265421961
 31
0.0
  0
LINE
  5
16024
  8
2-0
  6
CONTINUOUS
 62
     3
 10
24405.360192301148
 20
15348.295265421961
 30
0.0
 11
24430.353594301148
 21
15348.295265421961
 31
0.0
  0
LINE
  5
16025
  8
2-0
  6
CONTINUOUS
 62
     3
 10
24430.353594301148
 20
15348.295265421961
 30
0.0
 11
24430.353594301148
 21
15366.291068421961
 31
0.0
  0
LINE
  5
16026
  8
2-0
  6
CONTINUOUS
 62
     3
 10
24430.353594301148
 20
15366.291068421961
 30
0.0
 11
24400.355969301148
 21
15366.291068421961
 31
0.0
  0
LINE
  5
16027
  8
2-0
  6
CONTINUOUS
 62
     3
 10
24430.353594301148
 20
15350.193623421959
 30
0.0
 11
24430.353594301148
 21
15356.195523421969
 31
0.0
  0
LINE
  5
16028
  8
2-0
  6
CONTINUOUS
 62
     3
 10
24430.353594301148
 20
15356.195523421969
 30
0.0
 11
24400.355969301148
 21
15356.195523421969
 31
0.0
  0
LINE
  5
16029
  8
2-0
  6
CONTINUOUS
 62
     3
 10
24400.355969301148
 20
15319.19634242197
 30
0.0
 11
24400.355969301148
 21
15356.195523421969
 31
0.0
  0
LINE
  5
1602A
  8
2-0
  6
CONTINUOUS
 62
     3
 10
24430.353594301148
 20
15319.19634242197
 30
0.0
 11
24400.355969301148
 21
15319.19634242197
 31
0.0
  0
LINE
  5
1602B
  8
2-0
  6
CONTINUOUS
 62
     3
 10
24430.353594301148
 20
15325.193293421949
 30
0.0
 11
24430.353594301148
 21
15319.19634242197
 31
0.0
  0
LINE
  5
1602C
  8
2-0
  6
CONTINUOUS
 62
     3
 10
24430.353594301148
 20
15309.09485842196
 30
0.0
 11
24400.355969301148
 21
15309.09485842196
 31
0.0
  0
LINE
  5
1602D
  8
2-0
  6
CONTINUOUS
 62
     3
 10
24430.353594301148
 20
15327.10253942196
 30
0.0
 11
24430.353594301148
 21
15309.09485842196
 31
0.0
  0
LINE
  5
1602E
  8
2-0
  6
CONTINUOUS
 62
     3
 10
24405.360192301148
 20
15327.10253942196
 30
0.0
 11
24430.353594301148
 21
15327.10253942196
 31
0.0
  0
LINE
  5
1602F
  8
2-0
  6
CONTINUOUS
 62
     3
 10
24405.360192301148
 20
15322.10227542197
 30
0.0
 11
24405.360192301148
 21
15327.10253942196
 31
0.0
  0
LINE
  5
16030
  8
2-0
  6
CONTINUOUS
 62
     3
 10
24412.35779030115
 20
15322.10227542197
 30
0.0
 11
24405.360192301148
 21
15322.10227542197
 31
0.0
  0
LINE
  5
16031
  8
2-0
  6
CONTINUOUS
 62
     3
 10
24400.355969301148
 20
16714.34301142197
 30
0.0
 11
24400.355969301148
 21
16067.051051921961
 31
0.0
  0
LINE
  5
16032
  8
2-0
  6
CONTINUOUS
 62
     3
 10
24400.355969301148
 20
16868.953309421951
 30
0.0
 11
24400.355969301148
 21
16723.95159442196
 31
0.0
  0
LINE
  5
16033
  8
2-0
  6
CONTINUOUS
 62
     3
 10
24488.242635301169
 20
16838.953705421962
 30
0.0
 11
24488.242635301169
 21
16753.957137421959
 31
0.0
  0
LINE
  5
16034
  8
2-0
  6
CONTINUOUS
 62
     3
 10
24412.35779030115
 20
14620.861268421961
 30
0.0
 11
24405.360192301148
 21
14620.861268421961
 31
0.0
  0
LINE
  5
16035
  8
2-0
  6
CONTINUOUS
 62
     3
 10
24405.360192301148
 20
14620.861268421961
 30
0.0
 11
24405.360192301148
 21
14625.855594421961
 31
0.0
  0
LINE
  5
16036
  8
2-0
  6
CONTINUOUS
 62
     3
 10
24405.360192301148
 20
14625.855594421961
 30
0.0
 11
24430.353594301148
 21
14625.855594421961
 31
0.0
  0
LINE
  5
16037
  8
2-0
  6
CONTINUOUS
 62
     3
 10
24430.353594301148
 20
14625.855594421961
 30
0.0
 11
24430.353594301148
 21
14607.85979042196
 31
0.0
  0
LINE
  5
16038
  8
2-0
  6
CONTINUOUS
 62
     3
 10
24430.353594301148
 20
14607.85979042196
 30
0.0
 11
24400.355969301148
 21
14607.85979042196
 31
0.0
  0
LINE
  5
16039
  8
2-0
  6
CONTINUOUS
 62
     3
 10
24430.353594301148
 20
14623.958225421969
 30
0.0
 11
24430.353594301148
 21
14617.955335421961
 31
0.0
  0
LINE
  5
1603A
  8
2-0
  6
CONTINUOUS
 62
     3
 10
24430.353594301148
 20
14617.955335421961
 30
0.0
 11
24400.355969301148
 21
14617.955335421961
 31
0.0
  0
LINE
  5
1603B
  8
2-0
  6
CONTINUOUS
 62
     3
 10
24400.355969301148
 20
14617.955335421961
 30
0.0
 11
24400.355969301148
 21
14654.955507421941
 31
0.0
  0
LINE
  5
1603C
  8
2-0
  6
CONTINUOUS
 62
     3
 10
24430.353594301148
 20
14654.955507421941
 30
0.0
 11
24400.355969301148
 21
14654.955507421941
 31
0.0
  0
LINE
  5
1603D
  8
2-0
  6
CONTINUOUS
 62
     3
 10
24430.353594301148
 20
14648.958555421959
 30
0.0
 11
24430.353594301148
 21
14654.955507421941
 31
0.0
  0
LINE
  5
1603E
  8
2-0
  6
CONTINUOUS
 62
     3
 10
24430.353594301148
 20
14665.056000421961
 30
0.0
 11
24400.355969301148
 21
14665.056000421961
 31
0.0
  0
LINE
  5
1603F
  8
2-0
  6
CONTINUOUS
 62
     3
 10
24430.353594301148
 20
14647.049309421969
 30
0.0
 11
24430.353594301148
 21
14665.056000421961
 31
0.0
  0
LINE
  5
16040
  8
2-0
  6
CONTINUOUS
 62
     3
 10
24405.360192301148
 20
14647.049309421969
 30
0.0
 11
24430.353594301148
 21
14647.049309421969
 31
0.0
  0
LINE
  5
16041
  8
2-0
  6
CONTINUOUS
 62
     3
 10
24405.360192301148
 20
14652.05452242197
 30
0.0
 11
24405.360192301148
 21
14647.049309421969
 31
0.0
  0
LINE
  5
16042
  8
2-0
  6
CONTINUOUS
 62
     3
 10
24412.35779030115
 20
14652.05452242197
 30
0.0
 11
24405.360192301148
 21
14652.05452242197
 31
0.0
  0
LINE
  5
16043
  8
2-0
  6
CONTINUOUS
 62
     3
 10
24430.353594301148
 20
14295.457348421951
 30
0.0
 11
24430.353594301148
 21
14301.46221742196
 31
0.0
  0
LINE
  5
16044
  8
2-0
  6
CONTINUOUS
 62
     3
 10
24430.353594301148
 20
14301.46221742196
 30
0.0
 11
24400.355969301148
 21
14301.46221742196
 31
0.0
  0
LINE
  5
16045
  8
2-0
  6
CONTINUOUS
 62
     3
 10
24400.355969301148
 20
14301.46221742196
 30
0.0
 11
24400.355969301148
 21
14186.458126421951
 31
0.0
  0
LINE
  5
16046
  8
2-0
  6
CONTINUOUS
 62
     3
 10
24400.355969301148
 20
14186.458126421951
 30
0.0
 11
24485.354517301159
 21
14186.458126421951
 31
0.0
  0
LINE
  5
16047
  8
2-0
  6
CONTINUOUS
 62
     3
 10
24485.354517301159
 20
14186.458126421951
 30
0.0
 11
24485.354517301159
 21
14271.45370542196
 31
0.0
  0
LINE
  5
16048
  8
2-0
  6
CONTINUOUS
 62
     3
 10
24485.354517301159
 20
14271.45370542196
 30
0.0
 11
24453.357579301159
 21
14271.45370542196
 31
0.0
  0
LINE
  5
16049
  8
2-0
  6
CONTINUOUS
 62
     3
 10
24412.35779030115
 20
14298.491950421951
 30
0.0
 11
24405.360192301148
 21
14298.491950421951
 31
0.0
  0
LINE
  5
1604A
  8
2-0
  6
CONTINUOUS
 62
     3
 10
24405.360192301148
 20
14298.491950421951
 30
0.0
 11
24405.360192301148
 21
14293.49465542194
 31
0.0
  0
LINE
  5
1604B
  8
2-0
  6
CONTINUOUS
 62
     3
 10
24405.360192301148
 20
14293.49465542194
 30
0.0
 11
24430.353594301148
 21
14293.49465542194
 31
0.0
  0
LINE
  5
1604C
  8
2-0
  6
CONTINUOUS
 62
     3
 10
24430.353594301148
 20
14293.49465542194
 30
0.0
 11
24430.353594301148
 21
14311.49342842196
 31
0.0
  0
LINE
  5
1604D
  8
2-0
  6
CONTINUOUS
 62
     3
 10
24430.353594301148
 20
14311.49342842196
 30
0.0
 11
24400.355969301148
 21
14311.49342842196
 31
0.0
  0
LINE
  5
1604E
  8
2-0
  6
CONTINUOUS
 62
     3
 10
24400.355969301148
 20
14665.056000421961
 30
0.0
 11
24400.355969301148
 21
15309.09485842196
 31
0.0
  0
LINE
  5
1604F
  8
2-0
  6
CONTINUOUS
 62
     3
 10
24400.355969301148
 20
18284.05055742195
 30
0.0
 11
24400.355969301148
 21
18927.861274921939
 31
0.0
  0
LINE
  5
16050
  8
2-0
  6
CONTINUOUS
 62
     3
 10
24400.355969301148
 20
16009.854841921941
 30
0.0
 11
24400.355969301148
 21
15366.291068421961
 31
0.0
  0
LINE
  5
16051
  8
2-0
  6
CONTINUOUS
 62
     3
 10
27052.850558301179
 20
19291.457533421959
 30
0.0
 11
27052.850558301179
 21
19406.453706421969
 31
0.0
  0
LINE
  5
16052
  8
2-0
  6
CONTINUOUS
 62
     3
 10
24400.355969301148
 20
19321.457137421959
 30
0.0
 11
26971.848658301151
 21
19321.457137421959
 31
0.0
  0
LINE
  5
16053
  8
2-0
  6
CONTINUOUS
 62
     3
 10
24400.355969301148
 20
14311.49342842196
 30
0.0
 11
24400.355969301148
 21
14607.85979042196
 31
0.0
  0
LINE
  5
16054
  8
2-0
  6
CONTINUOUS
 62
     3
 10
27052.850558301179
 20
19281.160077421951
 30
0.0
 11
27052.850558301179
 21
18985.05154692195
 31
0.0
  0
LINE
  5
16055
  8
2-0
  6
CONTINUOUS
 62
     3
 10
24400.355969301148
 20
19281.160077421951
 30
0.0
 11
24400.355969301148
 21
18985.05154692191
 31
0.0
  0
LINE
  5
16056
  8
2-0
  6
CONTINUOUS
 62
     3
 10
24481.353910301172
 20
14271.45370542196
 30
0.0
 11
24481.353910301172
 21
19406.453706421969
 31
0.0
  0
LINE
  5
16057
  8
2-0
  6
CONTINUOUS
 62
     3
 10
26971.848658301151
 20
14271.45370542196
 30
0.0
 11
26971.848658301151
 21
19406.453706421969
 31
0.0
  0
TEXT
  5
16058
  8
2-0
  6
CONTINUOUS
 62
     7
 10
25407.19758130117
 20
13668.95654342196
 30
0.0
 40
160.0
  1
前柱（右）
 50
0.000213
 72
     4
 11
25823.197283894191
 21
13748.958089922749
 31
0.0
  0
TEXT
  5
16059
  8
2-0
  6
CONTINUOUS
 62
     7
 10
25611.792704301159
 20
16246.94855942198
 30
0.0
 40
160.0
  1
壁パネル
 50
359.99982299999999
 72
     4
 11
25974.45961810472
 21
16326.947439059841
 31
0.0
  0
TEXT
  5
1605A
  8
2-0
  6
CONTINUOUS
 62
     7
 10
25331.78980030118
 20
17084.136455421969
 30
0.0
 40
160.0
  1
中柱（左右）
 50
0.000354
 72
     4
 11
25849.122639347392
 21
17164.13965174662
 31
0.0
  0
TEXT
  5
1605B
  8
2-0
  6
CONTINUOUS
 62
     7
 10
26011.792044301161
 20
14641.99780942195
 30
0.0
 40
160.0
  1
下枠
 50
0.001063
 72
     4
 11
26182.45722671046
 21
14722.000975761241
 31
0.0
  0
TEXT
  5
1605C
  8
2-0
  6
CONTINUOUS
 62
     7
 10
25506.757468301192
 20
18687.405193921939
 30
0.0
 40
160.0
  1
間柱（側）
 72
     4
 11
25928.09080163452
 21
18767.405193921939
 31
0.0
  0
TEXT
  5
1605D
  8
2-0
  6
CONTINUOUS
 62
     7
 10
27825.34778730118
 20
20216.45291442196
 30
0.0
 40
160.0
  1
後柱（左右）
 50
0.000354
 72
     4
 11
28337.347293014162
 21
20296.456077794792
 31
0.0
  0
LINE
  5
1605E
  8
2-0
  6
CONTINUOUS
 62
     3
 10
26270.85285530116
 20
19406.453706421969
 30
0.0
 11
26233.851693301182
 21
19406.453706421969
 31
0.0
  0
LINE
  5
1605F
  8
2-0
  6
CONTINUOUS
 62
     3
 10
26270.85285530116
 20
19376.45014342196
 30
0.0
 11
26270.85285530116
 21
19406.453706421969
 31
0.0
  0
LINE
  5
16060
  8
2-0
  6
CONTINUOUS
 62
     3
 10
26264.852934301161
 20
19376.45014342196
 30
0.0
 11
26270.85285530116
 21
19376.45014342196
 31
0.0
  0
LINE
  5
16061
  8
2-0
  6
CONTINUOUS
 62
     3
 10
26280.950379301179
 20
19376.45014342196
 30
0.0
 11
26280.950379301179
 21
19406.453706421969
 31
0.0
  0
LINE
  5
16062
  8
2-0
  6
CONTINUOUS
 62
     3
 10
26262.946658301171
 20
19376.45014342196
 30
0.0
 11
26280.950379301179
 21
19376.45014342196
 31
0.0
  0
LINE
  5
16063
  8
2-0
  6
CONTINUOUS
 62
     3
 10
26262.946658301171
 20
19401.459380421969
 30
0.0
 11
26262.946658301171
 21
19376.45014342196
 31
0.0
  0
LINE
  5
16064
  8
2-0
  6
CONTINUOUS
 62
     3
 10
26267.946922301169
 20
19401.459380421969
 30
0.0
 11
26262.946658301171
 21
19401.459380421969
 31
0.0
  0
LINE
  5
16065
  8
2-0
  6
CONTINUOUS
 62
     3
 10
26267.946922301169
 20
19394.453864421961
 30
0.0
 11
26267.946922301169
 21
19401.459380421969
 31
0.0
  0
LINE
  5
16066
  8
2-0
  6
CONTINUOUS
 62
     3
 10
26236.757627301158
 20
19394.453864421961
 30
0.0
 11
26236.757627301158
 21
19401.459380421969
 31
0.0
  0
LINE
  5
16067
  8
2-0
  6
CONTINUOUS
 62
     3
 10
26236.757627301158
 20
19401.459380421969
 30
0.0
 11
26241.757891301178
 21
19401.459380421969
 31
0.0
  0
LINE
  5
16068
  8
2-0
  6
CONTINUOUS
 62
     3
 10
26241.757891301178
 20
19401.459380421969
 30
0.0
 11
26241.757891301178
 21
19376.45014342196
 31
0.0
  0
LINE
  5
16069
  8
2-0
  6
CONTINUOUS
 62
     3
 10
26241.757891301178
 20
19376.45014342196
 30
0.0
 11
26223.758128301179
 21
19376.45014342196
 31
0.0
  0
LINE
  5
1606A
  8
2-0
  6
CONTINUOUS
 62
     3
 10
26223.758128301179
 20
19376.45014342196
 30
0.0
 11
26223.758128301179
 21
19406.453706421969
 31
0.0
  0
LINE
  5
1606B
  8
2-0
  6
CONTINUOUS
 62
     3
 10
26239.851614301169
 20
19376.45014342196
 30
0.0
 11
26233.851693301182
 21
19376.45014342196
 31
0.0
  0
LINE
  5
1606C
  8
2-0
  6
CONTINUOUS
 62
     3
 10
26233.851693301182
 20
19376.45014342196
 30
0.0
 11
26233.851693301182
 21
19406.453706421969
 31
0.0
  0
LINE
  5
1606D
  8
2-0
  6
CONTINUOUS
 62
     3
 10
25566.941972801171
 20
19394.453864421961
 30
0.0
 11
25566.941972801171
 21
19401.459380421969
 31
0.0
  0
LINE
  5
1606E
  8
2-0
  6
CONTINUOUS
 62
     3
 10
25566.941972801171
 20
19401.459380421969
 30
0.0
 11
25561.941708801169
 21
19401.459380421969
 31
0.0
  0
LINE
  5
1606F
  8
2-0
  6
CONTINUOUS
 62
     3
 10
25561.941708801169
 20
19401.459380421969
 30
0.0
 11
25561.941708801169
 21
19376.45014342196
 31
0.0
  0
LINE
  5
16070
  8
2-0
  6
CONTINUOUS
 62
     3
 10
25561.941708801169
 20
19376.45014342196
 30
0.0
 11
25579.947409801171
 21
19376.45014342196
 31
0.0
  0
LINE
  5
16071
  8
2-0
  6
CONTINUOUS
 62
     3
 10
25579.947409801171
 20
19376.45014342196
 30
0.0
 11
25579.947409801171
 21
19406.453706421969
 31
0.0
  0
LINE
  5
16072
  8
2-0
  6
CONTINUOUS
 62
     3
 10
25563.84996480116
 20
19376.45014342196
 30
0.0
 11
25569.85186480117
 21
19376.45014342196
 31
0.0
  0
LINE
  5
16073
  8
2-0
  6
CONTINUOUS
 62
     3
 10
25569.85186480117
 20
19376.45014342196
 30
0.0
 11
25569.85186480117
 21
19406.453706421969
 31
0.0
  0
LINE
  5
16074
  8
2-0
  6
CONTINUOUS
 62
     3
 10
25532.85268380116
 20
19406.453706421969
 30
0.0
 11
25569.85186480117
 21
19406.453706421969
 31
0.0
  0
LINE
  5
16075
  8
2-0
  6
CONTINUOUS
 62
     3
 10
25532.85268380116
 20
19376.45014342196
 30
0.0
 11
25532.85268380116
 21
19406.453706421969
 31
0.0
  0
LINE
  5
16076
  8
2-0
  6
CONTINUOUS
 62
     3
 10
25538.846665801171
 20
19376.45014342196
 30
0.0
 11
25532.85268380116
 21
19376.45014342196
 31
0.0
  0
LINE
  5
16077
  8
2-0
  6
CONTINUOUS
 62
     3
 10
25522.757138801178
 20
19376.45014342196
 30
0.0
 11
25522.757138801178
 21
19406.453706421969
 31
0.0
  0
LINE
  5
16078
  8
2-0
  6
CONTINUOUS
 62
     3
 10
25540.752941801169
 20
19376.45014342196
 30
0.0
 11
25522.757138801178
 21
19376.45014342196
 31
0.0
  0
LINE
  5
16079
  8
2-0
  6
CONTINUOUS
 62
     3
 10
25540.752941801169
 20
19401.459380421969
 30
0.0
 11
25540.752941801169
 21
19376.45014342196
 31
0.0
  0
LINE
  5
1607A
  8
2-0
  6
CONTINUOUS
 62
     3
 10
25535.752677801182
 20
19401.459380421969
 30
0.0
 11
25540.752941801169
 21
19401.459380421969
 31
0.0
  0
LINE
  5
1607B
  8
2-0
  6
CONTINUOUS
 62
     3
 10
25535.752677801182
 20
19394.453864421961
 30
0.0
 11
25535.752677801182
 21
19401.459380421969
 31
0.0
  0
LINE
  5
1607C
  8
2-0
  6
CONTINUOUS
 62
     3
 10
25535.751688801171
 20
19394.453864421961
 30
0.0
 11
25535.751688801171
 21
19401.459380421969
 31
0.0
  0
LINE
  5
1607D
  8
2-0
  6
CONTINUOUS
 62
     3
 10
25535.751688801171
 20
19401.459380421969
 30
0.0
 11
25540.751951801169
 21
19401.459380421969
 31
0.0
  0
LINE
  5
1607E
  8
2-0
  6
CONTINUOUS
 62
     3
 10
25540.751951801169
 20
19401.459380421969
 30
0.0
 11
25540.751951801169
 21
19376.45014342196
 31
0.0
  0
LINE
  5
1607F
  8
2-0
  6
CONTINUOUS
 62
     3
 10
25540.751951801169
 20
19376.45014342196
 30
0.0
 11
25522.758128801172
 21
19376.45014342196
 31
0.0
  0
LINE
  5
16080
  8
2-0
  6
CONTINUOUS
 62
     3
 10
25522.758128801172
 20
19376.45014342196
 30
0.0
 11
25522.758128801172
 21
19406.453706421969
 31
0.0
  0
LINE
  5
16081
  8
2-0
  6
CONTINUOUS
 62
     3
 10
25538.849634801161
 20
19376.45014342196
 30
0.0
 11
25532.851693801171
 21
19376.45014342196
 31
0.0
  0
LINE
  5
16082
  8
2-0
  6
CONTINUOUS
 62
     3
 10
25532.851693801171
 20
19376.45014342196
 30
0.0
 11
25532.851693801171
 21
19406.453706421969
 31
0.0
  0
LINE
  5
16083
  8
2-0
  6
CONTINUOUS
 62
     3
 10
25569.852854801171
 20
19406.453706421969
 30
0.0
 11
25532.851693801171
 21
19406.453706421969
 31
0.0
  0
LINE
  5
16084
  8
2-0
  6
CONTINUOUS
 62
     3
 10
25569.852854801171
 20
19376.45014342196
 30
0.0
 11
25569.852854801171
 21
19406.453706421969
 31
0.0
  0
LINE
  5
16085
  8
2-0
  6
CONTINUOUS
 62
     3
 10
25563.846995801188
 20
19376.45014342196
 30
0.0
 11
25569.852854801171
 21
19376.45014342196
 31
0.0
  0
LINE
  5
16086
  8
2-0
  6
CONTINUOUS
 62
     3
 10
25579.946419801188
 20
19376.45014342196
 30
0.0
 11
25579.946419801188
 21
19406.453706421969
 31
0.0
  0
LINE
  5
16087
  8
2-0
  6
CONTINUOUS
 62
     3
 10
25561.950616801169
 20
19376.45014342196
 30
0.0
 11
25579.946419801188
 21
19376.45014342196
 31
0.0
  0
LINE
  5
16088
  8
2-0
  6
CONTINUOUS
 62
     3
 10
25561.950616801169
 20
19401.459380421969
 30
0.0
 11
25561.950616801169
 21
19376.45014342196
 31
0.0
  0
LINE
  5
16089
  8
2-0
  6
CONTINUOUS
 62
     3
 10
25566.94098280117
 20
19401.459380421969
 30
0.0
 11
25561.950616801169
 21
19401.459380421969
 31
0.0
  0
LINE
  5
1608A
  8
2-0
  6
CONTINUOUS
 62
     3
 10
25566.94098280117
 20
19394.453864421961
 30
0.0
 11
25566.94098280117
 21
19401.459380421969
 31
0.0
  0
LINE
  5
1608B
  8
2-0
  6
CONTINUOUS
 62
     3
 10
25579.947409801171
 20
19406.453706421969
 30
0.0
 11
25522.758128801172
 21
19406.453706421969
 31
0.0
  0
LINE
  5
1608C
  8
2-0
  6
CONTINUOUS
 62
     3
 10
24879.151300301201
 20
19406.453706421969
 30
0.0
 11
25522.757138801178
 21
19406.453706421969
 31
0.0
  0
LINE
  5
1608D
  8
2-0
  6
CONTINUOUS
 62
     3
 10
26928.235904301178
 20
19406.453706421969
 30
0.0
 11
26280.950379301179
 21
19406.453706421969
 31
0.0
  0
LINE
  5
1608E
  8
2-0
  6
CONTINUOUS
 62
     3
 10
26223.758128301179
 20
19406.453706421969
 30
0.0
 11
25579.946419801188
 21
19406.453706421969
 31
0.0
  0
LINE
  5
1608F
  8
2-0
  6
CONTINUOUS
 62
     3
 10
24865.943952301172
 20
19394.453864421961
 30
0.0
 11
24865.943952301172
 21
19401.459380421969
 31
0.0
  0
LINE
  5
16090
  8
2-0
  6
CONTINUOUS
 62
     3
 10
24865.943952301172
 20
19401.459380421969
 30
0.0
 11
24860.943688301159
 21
19401.459380421969
 31
0.0
  0
LINE
  5
16091
  8
2-0
  6
CONTINUOUS
 62
     3
 10
24860.943688301159
 20
19401.459380421969
 30
0.0
 11
24860.943688301159
 21
19376.45014342196
 31
0.0
  0
LINE
  5
16092
  8
2-0
  6
CONTINUOUS
 62
     3
 10
24860.943688301159
 20
19376.45014342196
 30
0.0
 11
24878.94543030117
 21
19376.45014342196
 31
0.0
  0
LINE
  5
16093
  8
2-0
  6
CONTINUOUS
 62
     3
 10
24878.94543030117
 20
19376.45014342196
 30
0.0
 11
24878.94543030117
 21
19406.453706421969
 31
0.0
  0
LINE
  5
16094
  8
2-0
  6
CONTINUOUS
 62
     3
 10
24862.846005301191
 20
19376.45014342196
 30
0.0
 11
24868.84988530117
 21
19376.45014342196
 31
0.0
  0
LINE
  5
16095
  8
2-0
  6
CONTINUOUS
 62
     3
 10
24868.84988530117
 20
19376.45014342196
 30
0.0
 11
24868.84988530117
 21
19406.453706421969
 31
0.0
  0
LINE
  5
16096
  8
2-0
  6
CONTINUOUS
 62
     3
 10
24831.854663301168
 20
19406.453706421969
 30
0.0
 11
24868.84988530117
 21
19406.453706421969
 31
0.0
  0
LINE
  5
16097
  8
2-0
  6
CONTINUOUS
 62
     3
 10
24831.854663301168
 20
19376.45014342196
 30
0.0
 11
24831.854663301168
 21
19406.453706421969
 31
0.0
  0
LINE
  5
16098
  8
2-0
  6
CONTINUOUS
 62
     3
 10
24837.848645301168
 20
19376.45014342196
 30
0.0
 11
24831.854663301168
 21
19376.45014342196
 31
0.0
  0
LINE
  5
16099
  8
2-0
  6
CONTINUOUS
 62
     3
 10
24821.759118301179
 20
19376.45014342196
 30
0.0
 11
24821.759118301179
 21
19406.453706421969
 31
0.0
  0
LINE
  5
1609A
  8
2-0
  6
CONTINUOUS
 62
     3
 10
24839.754921301192
 20
19376.45014342196
 30
0.0
 11
24821.759118301179
 21
19376.45014342196
 31
0.0
  0
LINE
  5
1609B
  8
2-0
  6
CONTINUOUS
 62
     3
 10
24839.754921301192
 20
19401.459380421969
 30
0.0
 11
24839.754921301192
 21
19376.45014342196
 31
0.0
  0
LINE
  5
1609C
  8
2-0
  6
CONTINUOUS
 62
     3
 10
24834.756637301201
 20
19401.459380421969
 30
0.0
 11
24839.754921301192
 21
19401.459380421969
 31
0.0
  0
LINE
  5
1609D
  8
2-0
  6
CONTINUOUS
 62
     3
 10
24834.756637301201
 20
19394.453864421961
 30
0.0
 11
24834.756637301201
 21
19401.459380421969
 31
0.0
  0
LINE
  5
1609E
  8
2-0
  6
CONTINUOUS
 62
     3
 10
24525.657516301158
 20
19406.453706421969
 30
0.0
 11
24821.759118301179
 21
19406.453706421969
 31
0.0
  0
LINE
  5
1609F
  8
2-0
  6
CONTINUOUS
 62
     3
 10
27052.850558301179
 20
15309.09485842196
 30
0.0
 11
27052.850558301179
 21
14665.056000421961
 31
0.0
  0
LINE
  5
160A0
  8
2-0
  6
CONTINUOUS
 62
     3
 10
27052.850558301179
 20
14607.85979042196
 30
0.0
 11
27052.850558301179
 21
14311.49342842196
 31
0.0
  0
TEXT
  5
160A1
  8
0-6
  6
CONTINUOUS
 62
     7
 10
24643.578576951972
 20
19094.370483392631
 30
0.0
 40
160.0
  1
間柱（後）
 72
     4
 11
25064.9119102853
 21
19174.370483392631
 31
0.0
  0
LINE
  5
160A2
  8
SUNPOU
  6
CONTINUOUS
 62
     4
 10
27132.850558301179
 20
14636.575677171961
 30
0.0
 11
28182.851878301179
 21
14636.575677171961
 31
0.0
  0
LINE
  5
160A3
  8
SUNPOU
  6
CONTINUOUS
 62
     4
 10
27982.851878301179
 20
14229.075677171961
 30
0.0
 11
28182.851878301179
 21
14229.075677171961
 31
0.0
  0
LINE
  5
160A4
  8
SUNPOU
  6
CONTINUOUS
 62
     4
 10
28102.851878301179
 20
14636.575677171961
 30
0.0
 11
28102.851878301179
 21
14229.075677171961
 31
0.0
  0
LINE
  5
160A5
  8
SUNPOU
  6
CONTINUOUS
 62
     4
 10
27132.850558301179
 20
18956.45542142195
 30
0.0
 11
28182.851878301179
 21
18956.45542142195
 31
0.0
  0
LINE
  5
160A6
  8
SUNPOU
  6
CONTINUOUS
 62
     4
 10
27982.851878301179
 20
19363.95542142195
 30
0.0
 11
28182.851878301179
 21
19363.95542142195
 31
0.0
  0
LINE
  5
160A7
  8
SUNPOU
  6
CONTINUOUS
 62
     4
 10
28102.851878301179
 20
18956.45542142195
 30
0.0
 11
28102.851878301179
 21
19363.95542142195
 31
0.0
  0
LINE
  5
160A8
  8
SUNPOU
  6
CONTINUOUS
 62
     4
 10
24442.852274301171
 20
13523.191987421949
 30
0.0
 11
24442.852274301171
 21
13177.507337421959
 31
0.0
  0
LINE
  5
160A9
  8
SUNPOU
  6
CONTINUOUS
 62
     4
 10
24400.350031301179
 20
14106.458126421951
 30
0.0
 11
24400.350031301179
 21
13177.507337421959
 31
0.0
  0
LINE
  5
160AA
  8
SUNPOU
  6
CONTINUOUS
 62
     4
 10
24442.852274301171
 20
13257.507337421959
 30
0.0
 11
24682.852274301171
 21
13257.507337421959
 31
0.0
  0
LINE
  5
160AB
  8
SUNPOU
  6
CONTINUOUS
 62
     4
 10
24400.350031301179
 20
13257.507337421959
 30
0.0
 11
24160.350031301179
 21
13257.507337421959
 31
0.0
  0
LINE
  5
160AC
  8
SUNPOU
  6
CONTINUOUS
 62
     4
 10
24442.852274301171
 20
13257.507337421959
 30
0.0
 11
24400.350031301179
 21
13257.507337421959
 31
0.0
  0
LINE
  5
160AD
  8
SUNPOU
  6
CONTINUOUS
 62
     4
 10
27010.352274301182
 20
13523.191987421949
 30
0.0
 11
27010.352274301182
 21
13177.507337421959
 31
0.0
  0
LINE
  5
160AE
  8
SUNPOU
  6
CONTINUOUS
 62
     4
 10
27052.85451730117
 20
14106.458126421951
 30
0.0
 11
27052.85451730117
 21
13177.507337421959
 31
0.0
  0
LINE
  5
160AF
  8
SUNPOU
  6
CONTINUOUS
 62
     4
 10
27010.352274301182
 20
13257.507337421959
 30
0.0
 11
26770.352274301182
 21
13257.507337421959
 31
0.0
  0
LINE
  5
160B0
  8
SUNPOU
  6
CONTINUOUS
 62
     4
 10
27052.85451730117
 20
13257.507337421959
 30
0.0
 11
27292.85451730117
 21
13257.507337421959
 31
0.0
  0
LINE
  5
160B1
  8
SUNPOU
  6
CONTINUOUS
 62
     4
 10
27010.352274301182
 20
13257.507337421959
 30
0.0
 11
27052.85451730117
 21
13257.507337421959
 31
0.0
  0
LINE
  5
160B2
  8
SUNPOU
  6
CONTINUOUS
 62
     4
 10
27010.352274301182
 20
13523.191987421949
 30
0.0
 11
27010.352274301182
 21
13177.507337421959
 31
0.0
  0
LINE
  5
160B3
  8
SUNPOU
  6
CONTINUOUS
 62
     4
 10
26967.850031301168
 20
14106.458126421951
 30
0.0
 11
26967.850031301168
 21
13177.507337421959
 31
0.0
  0
LINE
  5
160B4
  8
SUNPOU
  6
CONTINUOUS
 62
     4
 10
27010.352274301182
 20
13257.507337421959
 30
0.0
 11
27250.352274301182
 21
13257.507337421959
 31
0.0
  0
LINE
  5
160B5
  8
SUNPOU
  6
CONTINUOUS
 62
     4
 10
26967.850031301168
 20
13257.507337421959
 30
0.0
 11
26727.850031301168
 21
13257.507337421959
 31
0.0
  0
LINE
  5
160B6
  8
SUNPOU
  6
CONTINUOUS
 62
     4
 10
27010.352274301182
 20
13257.507337421959
 30
0.0
 11
26967.850031301168
 21
13257.507337421959
 31
0.0
  0
LINE
  5
160B7
  8
SUNPOU
  6
CONTINUOUS
 62
     4
 10
24442.852274301171
 20
13523.191987421949
 30
0.0
 11
24442.852274301171
 21
13177.507337421959
 31
0.0
  0
LINE
  5
160B8
  8
SUNPOU
  6
CONTINUOUS
 62
     4
 10
24485.354517301159
 20
14106.458126421951
 30
0.0
 11
24485.354517301159
 21
13177.507337421959
 31
0.0
  0
LINE
  5
160B9
  8
SUNPOU
  6
CONTINUOUS
 62
     4
 10
24442.852274301171
 20
13257.507337421959
 30
0.0
 11
24202.852274301171
 21
13257.507337421959
 31
0.0
  0
LINE
  5
160BA
  8
SUNPOU
  6
CONTINUOUS
 62
     4
 10
24485.354517301159
 20
13257.507337421959
 30
0.0
 11
24725.35451730117
 21
13257.507337421959
 31
0.0
  0
LINE
  5
160BB
  8
SUNPOU
  6
CONTINUOUS
 62
     4
 10
24442.852274301171
 20
13257.507337421959
 30
0.0
 11
24485.354517301159
 21
13257.507337421959
 31
0.0
  0
LINE
  5
160BC
  8
SUNPOU
  6
CONTINUOUS
 62
     4
 10
24400.350031301179
 20
14106.458126421951
 30
0.0
 11
24400.350031301179
 21
12777.507337421959
 31
0.0
  0
LINE
  5
160BD
  8
SUNPOU
  6
CONTINUOUS
 62
     4
 10
27052.85451730117
 20
14106.458126421951
 30
0.0
 11
27052.85451730117
 21
12777.507337421959
 31
0.0
  0
LINE
  5
160BE
  8
SUNPOU
  6
CONTINUOUS
 62
     4
 10
24400.350031301179
 20
12857.507337421959
 30
0.0
 11
27052.85451730117
 21
12857.507337421959
 31
0.0
  0
LINE
  5
160BF
  8
SUNPOU
  6
CONTINUOUS
 62
     4
 10
27132.850558301179
 20
15337.695932921981
 30
0.0
 11
28182.851878301179
 21
15337.695932921981
 31
0.0
  0
LINE
  5
160C0
  8
SUNPOU
  6
CONTINUOUS
 62
     4
 10
27132.850558301179
 20
14636.45542142195
 30
0.0
 11
28182.851878301179
 21
14636.45542142195
 31
0.0
  0
LINE
  5
160C1
  8
SUNPOU
  6
CONTINUOUS
 62
     4
 10
28102.851878301179
 20
15337.695932921981
 30
0.0
 11
28102.851878301179
 21
14636.45542142195
 31
0.0
  0
LINE
  5
160C2
  8
SUNPOU
  6
CONTINUOUS
 62
     4
 10
27132.850558301179
 20
16038.455421421961
 30
0.0
 11
28182.851878301179
 21
16038.455421421961
 31
0.0
  0
LINE
  5
160C3
  8
SUNPOU
  6
CONTINUOUS
 62
     4
 10
27132.850558301179
 20
15337.695932921981
 30
0.0
 11
28182.851878301179
 21
15337.695932921981
 31
0.0
  0
LINE
  5
160C4
  8
SUNPOU
  6
CONTINUOUS
 62
     4
 10
28102.851878301179
 20
16038.455421421961
 30
0.0
 11
28102.851878301179
 21
15337.695932921981
 31
0.0
  0
LINE
  5
160C5
  8
SUNPOU
  6
CONTINUOUS
 62
     4
 10
27982.851878301179
 20
16796.45542142195
 30
0.0
 11
28182.851878301179
 21
16796.45542142195
 31
0.0
  0
LINE
  5
160C6
  8
SUNPOU
  6
CONTINUOUS
 62
     4
 10
27132.850558301179
 20
16038.455421421961
 30
0.0
 11
28182.851878301179
 21
16038.455421421961
 31
0.0
  0
LINE
  5
160C7
  8
SUNPOU
  6
CONTINUOUS
 62
     4
 10
28102.851878301179
 20
16796.45542142195
 30
0.0
 11
28102.851878301179
 21
16038.455421421961
 31
0.0
  0
LINE
  5
160C8
  8
SUNPOU
  6
CONTINUOUS
 62
     4
 10
27132.850558301179
 20
17554.455421421939
 30
0.0
 11
28182.851878301179
 21
17554.455421421939
 31
0.0
  0
LINE
  5
160C9
  8
SUNPOU
  6
CONTINUOUS
 62
     4
 10
27982.851878301179
 20
16796.45542142195
 30
0.0
 11
28182.851878301179
 21
16796.45542142195
 31
0.0
  0
LINE
  5
160CA
  8
SUNPOU
  6
CONTINUOUS
 62
     4
 10
28102.851878301179
 20
17554.455421421939
 30
0.0
 11
28102.851878301179
 21
16796.45542142195
 31
0.0
  0
LINE
  5
160CB
  8
SUNPOU
  6
CONTINUOUS
 62
     4
 10
27132.850558301179
 20
18255.455421421939
 30
0.0
 11
28182.851878301179
 21
18255.455421421939
 31
0.0
  0
LINE
  5
160CC
  8
SUNPOU
  6
CONTINUOUS
 62
     4
 10
27132.850558301179
 20
17554.455421421939
 30
0.0
 11
28182.851878301179
 21
17554.455421421939
 31
0.0
  0
LINE
  5
160CD
  8
SUNPOU
  6
CONTINUOUS
 62
     4
 10
28102.851878301179
 20
18255.455421421939
 30
0.0
 11
28102.851878301179
 21
17554.455421421939
 31
0.0
  0
LINE
  5
160CE
  8
SUNPOU
  6
CONTINUOUS
 62
     4
 10
27132.850558301179
 20
18956.45542142195
 30
0.0
 11
28182.851878301179
 21
18956.45542142195
 31
0.0
  0
LINE
  5
160CF
  8
SUNPOU
  6
CONTINUOUS
 62
     4
 10
27132.850558301179
 20
18255.455421421939
 30
0.0
 11
28182.851878301179
 21
18255.455421421939
 31
0.0
  0
LINE
  5
160D0
  8
SUNPOU
  6
CONTINUOUS
 62
     4
 10
28102.851878301179
 20
18956.45542142195
 30
0.0
 11
28102.851878301179
 21
18255.455421421939
 31
0.0
  0
LINE
  5
160D3
  8
SUNPOU
  6
CONTINUOUS
 62
     4
 10
28502.851878301179
 20
19406.452716421962
 30
0.0
 11
28502.851878301179
 21
14186.458126421951
 31
0.0
  0
LINE
  5
160D4
  8
SUNPOU
  6
CONTINUOUS
 62
     4
 10
27132.850558301179
 20
19406.452716421962
 30
0.0
 11
28582.851878301171
 21
19406.452716421962
 31
0.0
  0
LINE
  5
160D5
  8
SUNPOU
  6
CONTINUOUS
 62
     4
 10
28102.851878301179
 20
19363.95542142195
 30
0.0
 11
28102.851878301179
 21
19123.95542142195
 31
0.0
  0
LINE
  5
160D6
  8
SUNPOU
  6
CONTINUOUS
 62
     4
 10
28102.851878301179
 20
19406.452716421962
 30
0.0
 11
28102.851878301179
 21
19646.45271642194
 31
0.0
  0
LINE
  5
160D7
  8
SUNPOU
  6
CONTINUOUS
 62
     4
 10
28102.851878301179
 20
19363.95542142195
 30
0.0
 11
28102.851878301179
 21
19406.452716421962
 31
0.0
  0
LINE
  5
160D8
  8
SUNPOU
  6
CONTINUOUS
 62
     4
 10
27132.850558301179
 20
14186.458126421951
 30
0.0
 11
28582.851878301171
 21
14186.458126421951
 31
0.0
  0
LINE
  5
160D9
  8
SUNPOU
  6
CONTINUOUS
 62
     4
 10
28102.851878301179
 20
14186.458126421951
 30
0.0
 11
28102.851878301179
 21
13946.458126421951
 31
0.0
  0
LINE
  5
160DA
  8
SUNPOU
  6
CONTINUOUS
 62
     4
 10
28102.851878301179
 20
14228.955421421961
 30
0.0
 11
28102.851878301179
 21
14186.458126421951
 31
0.0
  0
LINE
  5
160DB
  8
SUNPOU
  6
CONTINUOUS
 62
     4
 10
24442.852274301171
 20
19486.453706421969
 30
0.0
 11
24442.852274301171
 21
20286.45634542195
 31
0.0
  0
LINE
  5
160DC
  8
SUNPOU
  6
CONTINUOUS
 62
     4
 10
24850.352274301171
 20
19486.453706421969
 30
0.0
 11
24850.352274301171
 21
20286.45634542195
 31
0.0
  0
LINE
  5
160DD
  8
SUNPOU
  6
CONTINUOUS
 62
     4
 10
24442.852274301171
 20
20206.45634542195
 30
0.0
 11
24850.352274301171
 21
20206.45634542195
 31
0.0
  0
LINE
  5
160DE
  8
SUNPOU
  6
CONTINUOUS
 62
     4
 10
26252.352274301171
 20
19486.453706421969
 30
0.0
 11
26252.352274301171
 21
20286.45634542195
 31
0.0
  0
LINE
  5
160DF
  8
SUNPOU
  6
CONTINUOUS
 62
     4
 10
27010.353263801189
 20
19486.453706421969
 30
0.0
 11
27010.353263801189
 21
20286.45634542195
 31
0.0
  0
LINE
  5
160E0
  8
SUNPOU
  6
CONTINUOUS
 62
     4
 10
26252.352274301171
 20
20206.45634542195
 30
0.0
 11
27010.353263801189
 21
20206.45634542195
 31
0.0
  0
LINE
  5
160E1
  8
SUNPOU
  6
CONTINUOUS
 62
     4
 10
25551.352274301171
 20
19486.453706421969
 30
0.0
 11
25551.352274301171
 21
20286.45634542195
 31
0.0
  0
LINE
  5
160E2
  8
SUNPOU
  6
CONTINUOUS
 62
     4
 10
26252.352274301171
 20
19486.453706421969
 30
0.0
 11
26252.352274301171
 21
20286.45634542195
 31
0.0
  0
LINE
  5
160E3
  8
SUNPOU
  6
CONTINUOUS
 62
     4
 10
25551.352274301171
 20
20206.45634542195
 30
0.0
 11
26252.352274301171
 21
20206.45634542195
 31
0.0
  0
LINE
  5
160E4
  8
SUNPOU
  6
CONTINUOUS
 62
     4
 10
24850.352274301171
 20
19486.453706421969
 30
0.0
 11
24850.352274301171
 21
20286.45634542195
 31
0.0
  0
LINE
  5
160E5
  8
SUNPOU
  6
CONTINUOUS
 62
     4
 10
25551.352274301171
 20
19486.453706421969
 30
0.0
 11
25551.352274301171
 21
20286.45634542195
 31
0.0
  0
LINE
  5
160E6
  8
SUNPOU
  6
CONTINUOUS
 62
     4
 10
24850.352274301171
 20
20206.45634542195
 30
0.0
 11
25551.352274301171
 21
20206.45634542195
 31
0.0
  0
LINE
  5
160E7
  8
SUNPOU
  6
CONTINUOUS
 62
     4
 10
27010.352274301182
 20
19486.453706421969
 30
0.0
 11
27010.352274301182
 21
20286.45634542195
 31
0.0
  0
LINE
  5
160E8
  8
SUNPOU
  6
CONTINUOUS
 62
     4
 10
27052.848579301171
 20
19486.453706421969
 30
0.0
 11
27052.848579301171
 21
20286.45634542195
 31
0.0
  0
LINE
  5
160E9
  8
SUNPOU
  6
CONTINUOUS
 62
     4
 10
27010.352274301182
 20
20206.45634542195
 30
0.0
 11
26770.352274301182
 21
20206.45634542195
 31
0.0
  0
LINE
  5
160EA
  8
SUNPOU
  6
CONTINUOUS
 62
     4
 10
27052.848579301171
 20
20206.45634542195
 30
0.0
 11
27292.848579301171
 21
20206.45634542195
 31
0.0
  0
LINE
  5
160EB
  8
SUNPOU
  6
CONTINUOUS
 62
     4
 10
27010.352274301182
 20
20206.45634542195
 30
0.0
 11
27052.848579301171
 21
20206.45634542195
 31
0.0
  0
LINE
  5
160EC
  8
SUNPOU
  6
CONTINUOUS
 62
     4
 10
24442.852274301171
 20
19486.453706421969
 30
0.0
 11
24442.852274301171
 21
20286.45634542195
 31
0.0
  0
LINE
  5
160ED
  8
SUNPOU
  6
CONTINUOUS
 62
     4
 10
24400.355969301148
 20
19486.453706421969
 30
0.0
 11
24400.355969301148
 21
20286.45634542195
 31
0.0
  0
LINE
  5
160EE
  8
SUNPOU
  6
CONTINUOUS
 62
     4
 10
24442.852274301171
 20
20206.45634542195
 30
0.0
 11
24682.852274301171
 21
20206.45634542195
 31
0.0
  0
LINE
  5
160EF
  8
SUNPOU
  6
CONTINUOUS
 62
     4
 10
24400.355969301148
 20
20206.45634542195
 30
0.0
 11
24160.355969301148
 21
20206.45634542195
 31
0.0
  0
LINE
  5
160F0
  8
SUNPOU
  6
CONTINUOUS
 62
     4
 10
24442.852274301171
 20
20206.45634542195
 30
0.0
 11
24400.355969301148
 21
20206.45634542195
 31
0.0
  0
TEXT
  5
160F1
  8
0
  6
CONTINUOUS
 62
     7
 10
23840.040294772381
 20
20286.45634542195
 30
0.0
 40
160.0
  1
42.5
  0
TEXT
  5
160F2
  8
0
  6
CONTINUOUS
 62
     7
 10
27133.164253829971
 20
20286.45634542195
 30
0.0
 40
160.0
  1
42.5
  0
TEXT
  5
160F3
  8
0
  6
CONTINUOUS
 62
     7
 10
25027.51894096785
 20
19896.456609421981
 30
0.0
 40
160.0
  1
701
  0
TEXT
  5
160F4
  8
0
  6
CONTINUOUS
 62
     7
 10
25728.51894096785
 20
20286.45634542195
 30
0.0
 40
160.0
  1
701
  0
TEXT
  5
160F5
  8
0
  6
CONTINUOUS
 62
     7
 10
26418.019435717859
 20
20286.45634542195
 30
0.0
 40
160.0
  1
758
  0
TEXT
  5
160F6
  8
0
  6
CONTINUOUS
 62
     7
 10
24543.685607634499
 20
20286.45634542195
 30
0.0
 40
160.0
  1
407.5
  0
TEXT
  5
160F7
  8
0
  6
CONTINUOUS
 62
     7
 10
28022.851878301179
 20
13612.901890025159
 30
0.0
 40
160.0
  1
42.5
 50
90.0
  0
TEXT
  5
160F8
  8
0
  6
CONTINUOUS
 62
     7
 10
28022.851878301179
 20
19500.008952818742
 30
0.0
 40
160.0
  1
42.5
 50
90.0
  0
TEXT
  5
160F9
  8
0
  6
CONTINUOUS
 62
     7
 10
28422.851878301179
 20
16516.455421421961
 30
0.0
 40
160.0
  1
5220
 50
90.0
  0
TEXT
  5
160FA
  8
0
  6
CONTINUOUS
 62
     7
 10
28022.85187830116
 20
18432.622088088629
 30
0.0
 40
160.0
  1
701
 50
90.0
  0
TEXT
  5
160FB
  8
0
  6
CONTINUOUS
 62
     7
 10
28022.85187830116
 20
17731.622088088629
 30
0.0
 40
160.0
  1
701
 50
90.0
  0
TEXT
  5
160FC
  8
0
  6
CONTINUOUS
 62
     7
 10
28022.85187830116
 20
16962.122088088629
 30
0.0
 40
160.0
  1
758
 50
90.0
  0
TEXT
  5
160FD
  8
0
  6
CONTINUOUS
 62
     7
 10
28022.85187830116
 20
16204.12208808863
 30
0.0
 40
160.0
  1
758
 50
90.0
  0
TEXT
  5
160FE
  8
0
  6
CONTINUOUS
 62
     7
 10
28022.85187830116
 20
15514.74234383863
 30
0.0
 40
160.0
  1
701
 50
90.0
  0
TEXT
  5
160FF
  8
0
  6
CONTINUOUS
 62
     7
 10
28022.85187830116
 20
14813.74234383863
 30
0.0
 40
160.0
  1
701
 50
90.0
  0
TEXT
  5
16100
  8
0
  6
CONTINUOUS
 62
     7
 10
25326.602274301171
 20
12937.507337421959
 30
0.0
 40
160.0
  1
2652.5
  0
TEXT
  5
16101
  8
0
  6
CONTINUOUS
 62
     7
 10
24560.905946683259
 20
13337.507337421959
 30
0.0
 40
160.0
  1
42.5
  0
TEXT
  5
16102
  8
0
  6
CONTINUOUS
 62
     7
 10
26412.29860191909
 20
13337.507337421959
 30
0.0
 40
160.0
  1
42.5
  0
TEXT
  5
16103
  8
0
  6
CONTINUOUS
 62
     7
 10
27128.405946683259
 20
13337.507337421959
 30
0.0
 40
160.0
  1
42.5
  0
TEXT
  5
16104
  8
0
  6
CONTINUOUS
 62
     7
 10
23844.79860191909
 20
13337.507337421959
 30
0.0
 40
160.0
  1
42.5
  0
TEXT
  5
16105
  8
0
  6
CONTINUOUS
 62
     7
 10
28382.851878301171
 20
18665.83338906517
 30
0.0
 40
160.0
  1
407.5
 50
90.0
  0
TEXT
  5
16106
  8
0
  6
CONTINUOUS
 62
     7
 10
28382.851878301171
 20
14301.896091375511
 30
0.0
 40
160.0
  1
407.5
 50
90.0
  0
ARC
  5
16107
  8
0
  6
BYBLOCK
 62
     0
 10
28102.851878301179
 20
14636.575677171961
 30
0.0
 40
15.0
 50
270.0
 51
90.0
  0
ARC
  5
16108
  8
0
  6
BYBLOCK
 62
     0
 10
28102.851878301179
 20
14636.575677171961
 30
0.0
 40
15.0
 50
90.0
 51
270.0
  0
ARC
  5
16109
  8
0
  6
BYBLOCK
 62
     0
 10
28102.851878301179
 20
14229.075677171961
 30
0.0
 40
15.0
 50
90.0
 51
270.0
  0
ARC
  5
1610A
  8
0
  6
BYBLOCK
 62
     0
 10
28102.851878301179
 20
14229.075677171961
 30
0.0
 40
15.0
 50
270.0
 51
90.0
  0
ARC
  5
1610B
  8
0
  6
BYBLOCK
 62
     0
 10
28102.851878301179
 20
18956.45542142195
 30
0.0
 40
15.0
 50
90.0
 51
270.0
  0
ARC
  5
1610C
  8
0
  6
BYBLOCK
 62
     0
 10
28102.851878301179
 20
18956.45542142195
 30
0.0
 40
15.0
 50
270.0
 51
90.0
  0
ARC
  5
1610D
  8
0
  6
BYBLOCK
 62
     0
 10
28102.851878301179
 20
19363.95542142195
 30
0.0
 40
15.0
 50
270.0
 51
90.0
  0
ARC
  5
1610E
  8
0
  6
BYBLOCK
 62
     0
 10
28102.851878301179
 20
19363.95542142195
 30
0.0
 40
15.0
 50
90.0
 51
270.0
  0
ARC
  5
1610F
  8
0
  6
BYBLOCK
 62
     0
 10
24442.852274301171
 20
13257.507337421959
 30
0.0
 40
15.0
 50
0.0
 51
180.0
  0
ARC
  5
16110
  8
0
  6
BYBLOCK
 62
     0
 10
24442.852274301171
 20
13257.507337421959
 30
0.0
 40
15.0
 50
180.0
 51
0.0
  0
ARC
  5
16111
  8
0
  6
BYBLOCK
 62
     0
 10
24400.350031301179
 20
13257.507337421959
 30
0.0
 40
15.0
 50
180.0
 51
0.0
  0
ARC
  5
16112
  8
0
  6
BYBLOCK
 62
     0
 10
24400.350031301179
 20
13257.507337421959
 30
0.0
 40
15.0
 50
0.0
 51
180.0
  0
ARC
  5
16113
  8
0
  6
BYBLOCK
 62
     0
 10
27010.352274301182
 20
13257.507337421959
 30
0.0
 40
15.0
 50
180.0
 51
0.0
  0
ARC
  5
16114
  8
0
  6
BYBLOCK
 62
     0
 10
27010.352274301182
 20
13257.507337421959
 30
0.0
 40
15.0
 50
0.0
 51
180.0
  0
ARC
  5
16115
  8
0
  6
BYBLOCK
 62
     0
 10
27052.85451730117
 20
13257.507337421959
 30
0.0
 40
15.0
 50
0.0
 51
180.0
  0
ARC
  5
16116
  8
0
  6
BYBLOCK
 62
     0
 10
27052.85451730117
 20
13257.507337421959
 30
0.0
 40
15.0
 50
180.0
 51
0.0
  0
ARC
  5
16117
  8
0
  6
BYBLOCK
 62
     0
 10
27010.352274301182
 20
13257.507337421959
 30
0.0
 40
15.0
 50
0.0
 51
180.0
  0
ARC
  5
16118
  8
0
  6
BYBLOCK
 62
     0
 10
27010.352274301182
 20
13257.507337421959
 30
0.0
 40
15.0
 50
180.0
 51
0.0
  0
ARC
  5
16119
  8
0
  6
BYBLOCK
 62
     0
 10
26967.850031301168
 20
13257.507337421959
 30
0.0
 40
15.0
 50
180.0
 51
0.0
  0
ARC
  5
1611A
  8
0
  6
BYBLOCK
 62
     0
 10
26967.850031301168
 20
13257.507337421959
 30
0.0
 40
15.0
 50
0.0
 51
180.0
  0
ARC
  5
1611B
  8
0
  6
BYBLOCK
 62
     0
 10
24442.852274301171
 20
13257.507337421959
 30
0.0
 40
15.0
 50
180.0
 51
0.0
  0
ARC
  5
1611C
  8
0
  6
BYBLOCK
 62
     0
 10
24442.852274301171
 20
13257.507337421959
 30
0.0
 40
15.0
 50
0.0
 51
180.0
  0
ARC
  5
1611D
  8
0
  6
BYBLOCK
 62
     0
 10
24485.354517301159
 20
13257.507337421959
 30
0.0
 40
15.0
 50
0.0
 51
180.0
  0
ARC
  5
1611E
  8
0
  6
BYBLOCK
 62
     0
 10
24485.354517301159
 20
13257.507337421959
 30
0.0
 40
15.0
 50
180.0
 51
0.0
  0
ARC
  5
1611F
  8
0
  6
BYBLOCK
 62
     0
 10
24400.350031301179
 20
12857.507337421959
 30
0.0
 40
15.0
 50
0.0
 51
180.0
  0
ARC
  5
16120
  8
0
  6
BYBLOCK
 62
     0
 10
24400.350031301179
 20
12857.507337421959
 30
0.0
 40
15.0
 50
180.0
 51
0.0
  0
ARC
  5
16121
  8
0
  6
BYBLOCK
 62
     0
 10
27052.85451730117
 20
12857.507337421959
 30
0.0
 40
15.0
 50
180.0
 51
0.0
  0
ARC
  5
16122
  8
0
  6
BYBLOCK
 62
     0
 10
27052.85451730117
 20
12857.507337421959
 30
0.0
 40
15.0
 50
0.0
 51
180.0
  0
ARC
  5
16123
  8
0
  6
BYBLOCK
 62
     0
 10
28102.851878301179
 20
15337.695932921981
 30
0.0
 40
15.0
 50
270.0
 51
90.0
  0
ARC
  5
16124
  8
0
  6
BYBLOCK
 62
     0
 10
28102.851878301179
 20
15337.695932921981
 30
0.0
 40
15.0
 50
90.0
 51
270.0
  0
ARC
  5
16125
  8
0
  6
BYBLOCK
 62
     0
 10
28102.851878301179
 20
14636.45542142195
 30
0.0
 40
15.0
 50
90.0
 51
270.0
  0
ARC
  5
16126
  8
0
  6
BYBLOCK
 62
     0
 10
28102.851878301179
 20
14636.45542142195
 30
0.0
 40
15.0
 50
270.0
 51
90.0
  0
ARC
  5
16127
  8
0
  6
BYBLOCK
 62
     0
 10
28102.851878301179
 20
16038.455421421961
 30
0.0
 40
15.0
 50
270.0
 51
90.0
  0
ARC
  5
16128
  8
0
  6
BYBLOCK
 62
     0
 10
28102.851878301179
 20
16038.455421421961
 30
0.0
 40
15.0
 50
90.0
 51
270.0
  0
ARC
  5
16129
  8
0
  6
BYBLOCK
 62
     0
 10
28102.851878301179
 20
15337.695932921981
 30
0.0
 40
15.0
 50
90.0
 51
270.0
  0
ARC
  5
1612A
  8
0
  6
BYBLOCK
 62
     0
 10
28102.851878301179
 20
15337.695932921981
 30
0.0
 40
15.0
 50
270.0
 51
90.0
  0
ARC
  5
1612B
  8
0
  6
BYBLOCK
 62
     0
 10
28102.851878301179
 20
16796.45542142195
 30
0.0
 40
15.0
 50
270.0
 51
90.0
  0
ARC
  5
1612C
  8
0
  6
BYBLOCK
 62
     0
 10
28102.851878301179
 20
16796.45542142195
 30
0.0
 40
15.0
 50
90.0
 51
270.0
  0
ARC
  5
1612D
  8
0
  6
BYBLOCK
 62
     0
 10
28102.851878301179
 20
16038.455421421961
 30
0.0
 40
15.0
 50
90.0
 51
270.0
  0
ARC
  5
1612E
  8
0
  6
BYBLOCK
 62
     0
 10
28102.851878301179
 20
16038.455421421961
 30
0.0
 40
15.0
 50
270.0
 51
90.0
  0
ARC
  5
1612F
  8
0
  6
BYBLOCK
 62
     0
 10
28102.851878301179
 20
17554.455421421939
 30
0.0
 40
15.0
 50
270.0
 51
90.0
  0
ARC
  5
16130
  8
0
  6
BYBLOCK
 62
     0
 10
28102.851878301179
 20
17554.455421421939
 30
0.0
 40
15.0
 50
90.0
 51
270.0
  0
ARC
  5
16131
  8
0
  6
BYBLOCK
 62
     0
 10
28102.851878301179
 20
16796.45542142195
 30
0.0
 40
15.0
 50
90.0
 51
270.0
  0
ARC
  5
16132
  8
0
  6
BYBLOCK
 62
     0
 10
28102.851878301179
 20
16796.45542142195
 30
0.0
 40
15.0
 50
270.0
 51
90.0
  0
ARC
  5
16133
  8
0
  6
BYBLOCK
 62
     0
 10
28102.851878301179
 20
18255.455421421939
 30
0.0
 40
15.0
 50
270.0
 51
90.0
  0
ARC
  5
16134
  8
0
  6
BYBLOCK
 62
     0
 10
28102.851878301179
 20
18255.455421421939
 30
0.0
 40
15.0
 50
90.0
 51
270.0
  0
ARC
  5
16135
  8
0
  6
BYBLOCK
 62
     0
 10
28102.851878301179
 20
17554.455421421939
 30
0.0
 40
15.0
 50
90.0
 51
270.0
  0
ARC
  5
16136
  8
0
  6
BYBLOCK
 62
     0
 10
28102.851878301179
 20
17554.455421421939
 30
0.0
 40
15.0
 50
270.0
 51
90.0
  0
ARC
  5
16137
  8
0
  6
BYBLOCK
 62
     0
 10
28102.851878301179
 20
18956.45542142195
 30
0.0
 40
15.0
 50
270.0
 51
90.0
  0
ARC
  5
16138
  8
0
  6
BYBLOCK
 62
     0
 10
28102.851878301179
 20
18956.45542142195
 30
0.0
 40
15.0
 50
90.0
 51
270.0
  0
ARC
  5
16139
  8
0
  6
BYBLOCK
 62
     0
 10
28102.851878301179
 20
18255.455421421939
 30
0.0
 40
15.0
 50
90.0
 51
270.0
  0
ARC
  5
1613A
  8
0
  6
BYBLOCK
 62
     0
 10
28102.851878301179
 20
18255.455421421939
 30
0.0
 40
15.0
 50
270.0
 51
90.0
  0
ARC
  5
1613B
  8
0
  6
BYBLOCK
 62
     0
 10
28102.851878301179
 20
19363.95542142195
 30
0.0
 40
15.0
 50
270.0
 51
90.0
  0
ARC
  5
1613C
  8
0
  6
BYBLOCK
 62
     0
 10
28102.851878301179
 20
19363.95542142195
 30
0.0
 40
15.0
 50
90.0
 51
270.0
  0
ARC
  5
1613D
  8
0
  6
BYBLOCK
 62
     0
 10
28102.851878301179
 20
14228.955421421961
 30
0.0
 40
15.0
 50
90.0
 51
270.0
  0
ARC
  5
1613E
  8
0
  6
BYBLOCK
 62
     0
 10
28102.851878301179
 20
14228.955421421961
 30
0.0
 40
15.0
 50
270.0
 51
90.0
  0
ARC
  5
1613F
  8
0
  6
BYBLOCK
 62
     0
 10
28502.851878301179
 20
19406.452716421962
 30
0.0
 40
15.0
 50
270.0
 51
90.0
  0
ARC
  5
16140
  8
0
  6
BYBLOCK
 62
     0
 10
28502.851878301179
 20
19406.452716421962
 30
0.0
 40
15.0
 50
90.0
 51
270.0
  0
ARC
  5
16141
  8
0
  6
BYBLOCK
 62
     0
 10
28502.851878301179
 20
14186.458126421951
 30
0.0
 40
15.0
 50
90.0
 51
270.0
  0
ARC
  5
16142
  8
0
  6
BYBLOCK
 62
     0
 10
28502.851878301179
 20
14186.458126421951
 30
0.0
 40
15.0
 50
270.0
 51
90.0
  0
ARC
  5
16143
  8
0
  6
BYBLOCK
 62
     0
 10
28102.851878301179
 20
19363.95542142195
 30
0.0
 40
15.0
 50
270.0
 51
90.0
  0
ARC
  5
16144
  8
0
  6
BYBLOCK
 62
     0
 10
28102.851878301179
 20
19363.95542142195
 30
0.0
 40
15.0
 50
90.0
 51
270.0
  0
ARC
  5
16145
  8
0
  6
BYBLOCK
 62
     0
 10
28102.851878301179
 20
19406.452716421962
 30
0.0
 40
15.0
 50
90.0
 51
270.0
  0
ARC
  5
16146
  8
0
  6
BYBLOCK
 62
     0
 10
28102.851878301179
 20
19406.452716421962
 30
0.0
 40
15.0
 50
270.0
 51
90.0
  0
ARC
  5
16147
  8
0
  6
BYBLOCK
 62
     0
 10
28102.851878301179
 20
14228.955421421961
 30
0.0
 40
15.0
 50
90.0
 51
270.0
  0
ARC
  5
16148
  8
0
  6
BYBLOCK
 62
     0
 10
28102.851878301179
 20
14228.955421421961
 30
0.0
 40
15.0
 50
270.0
 51
90.0
  0
ARC
  5
16149
  8
0
  6
BYBLOCK
 62
     0
 10
28102.851878301179
 20
14186.458126421951
 30
0.0
 40
15.0
 50
270.0
 51
90.0
  0
ARC
  5
1614A
  8
0
  6
BYBLOCK
 62
     0
 10
28102.851878301179
 20
14186.458126421951
 30
0.0
 40
15.0
 50
90.0
 51
270.0
  0
ARC
  5
1614B
  8
0
  6
BYBLOCK
 62
     0
 10
24442.852274301171
 20
20206.45634542195
 30
0.0
 40
15.0
 50
0.0
 51
180.0
  0
ARC
  5
1614C
  8
0
  6
BYBLOCK
 62
     0
 10
24442.852274301171
 20
20206.45634542195
 30
0.0
 40
15.0
 50
180.0
 51
0.0
  0
ARC
  5
1614D
  8
0
  6
BYBLOCK
 62
     0
 10
24850.352274301171
 20
20206.45634542195
 30
0.0
 40
15.0
 50
180.0
 51
0.0
  0
ARC
  5
1614E
  8
0
  6
BYBLOCK
 62
     0
 10
24850.352274301171
 20
20206.45634542195
 30
0.0
 40
15.0
 50
0.0
 51
180.0
  0
ARC
  5
1614F
  8
0
  6
BYBLOCK
 62
     0
 10
26252.352274301171
 20
20206.45634542195
 30
0.0
 40
15.0
 50
0.0
 51
180.0
  0
ARC
  5
16150
  8
0
  6
BYBLOCK
 62
     0
 10
26252.352274301171
 20
20206.45634542195
 30
0.0
 40
15.0
 50
180.0
 51
0.0
  0
ARC
  5
16151
  8
0
  6
BYBLOCK
 62
     0
 10
27010.353263801189
 20
20206.45634542195
 30
0.0
 40
15.0
 50
180.0
 51
0.0
  0
ARC
  5
16152
  8
0
  6
BYBLOCK
 62
     0
 10
27010.353263801189
 20
20206.45634542195
 30
0.0
 40
15.0
 50
0.0
 51
180.0
  0
ARC
  5
16153
  8
0
  6
BYBLOCK
 62
     0
 10
25551.352274301171
 20
20206.45634542195
 30
0.0
 40
15.0
 50
0.0
 51
180.0
  0
ARC
  5
16154
  8
0
  6
BYBLOCK
 62
     0
 10
25551.352274301171
 20
20206.45634542195
 30
0.0
 40
15.0
 50
180.0
 51
0.0
  0
ARC
  5
16155
  8
0
  6
BYBLOCK
 62
     0
 10
26252.352274301171
 20
20206.45634542195
 30
0.0
 40
15.0
 50
180.0
 51
0.0
  0
ARC
  5
16156
  8
0
  6
BYBLOCK
 62
     0
 10
26252.352274301171
 20
20206.45634542195
 30
0.0
 40
15.0
 50
0.0
 51
180.0
  0
ARC
  5
16157
  8
0
  6
BYBLOCK
 62
     0
 10
24850.352274301171
 20
20206.45634542195
 30
0.0
 40
15.0
 50
0.0
 51
180.0
  0
ARC
  5
16158
  8
0
  6
BYBLOCK
 62
     0
 10
24850.352274301171
 20
20206.45634542195
 30
0.0
 40
15.0
 50
180.0
 51
0.0
  0
ARC
  5
16159
  8
0
  6
BYBLOCK
 62
     0
 10
25551.352274301171
 20
20206.45634542195
 30
0.0
 40
15.0
 50
180.0
 51
0.0
  0
ARC
  5
1615A
  8
0
  6
BYBLOCK
 62
     0
 10
25551.352274301171
 20
20206.45634542195
 30
0.0
 40
15.0
 50
0.0
 51
180.0
  0
ARC
  5
1615B
  8
0
  6
BYBLOCK
 62
     0
 10
27010.352274301182
 20
20206.45634542195
 30
0.0
 40
15.0
 50
180.0
 51
0.0
  0
ARC
  5
1615C
  8
0
  6
BYBLOCK
 62
     0
 10
27010.352274301182
 20
20206.45634542195
 30
0.0
 40
15.0
 50
0.0
 51
180.0
  0
ARC
  5
1615D
  8
0
  6
BYBLOCK
 62
     0
 10
27052.848579301171
 20
20206.45634542195
 30
0.0
 40
15.0
 50
0.0
 51
180.0
  0
ARC
  5
1615E
  8
0
  6
BYBLOCK
 62
     0
 10
27052.848579301171
 20
20206.45634542195
 30
0.0
 40
15.0
 50
180.0
 51
0.0
  0
ARC
  5
1615F
  8
0
  6
BYBLOCK
 62
     0
 10
24442.852274301171
 20
20206.45634542195
 30
0.0
 40
15.0
 50
0.0
 51
180.0
  0
ARC
  5
16160
  8
0
  6
BYBLOCK
 62
     0
 10
24442.852274301171
 20
20206.45634542195
 30
0.0
 40
15.0
 50
180.0
 51
0.0
  0
ARC
  5
16161
  8
0
  6
BYBLOCK
 62
     0
 10
24400.355969301148
 20
20206.45634542195
 30
0.0
 40
15.0
 50
180.0
 51
0.0
  0
ARC
  5
16162
  8
0
  6
BYBLOCK
 62
     0
 10
24400.355969301148
 20
20206.45634542195
 30
0.0
 40
15.0
 50
0.0
 51
180.0
  0
LINE
  5
16163
  8
2-0
  6
CONTINUOUS
 62
     6
 10
24563.58623095198
 20
19014.368239392628
 30
0.0
 11
25588.618562951971
 21
19014.368239392628
 31
0.0
  0
LINE
  5
16164
  8
2-0
  6
CONTINUOUS
 62
     6
 10
26094.32136730116
 20
19298.144347421949
 30
0.0
 11
25588.618562951971
 21
19014.368239392628
 31
0.0
  0
LINE
  5
16165
  8
2-0
  6
CONTINUOUS
 62
     6
 10
26081.264462301191
 20
19321.40369142194
 30
0.0
 11
26233.851693301182
 21
19376.45014342196
 31
0.0
  0
LINE
  5
16166
  8
2-0
  6
CONTINUOUS
 62
     6
 10
26233.851693301182
 20
19376.45014342196
 30
0.0
 11
26107.370353301179
 21
19274.890943421909
 31
0.0
  0
LINE
  5
16167
  8
2-0
  6
CONTINUOUS
 62
     6
 10
26081.264462301191
 20
19321.40369142194
 30
0.0
 11
26107.370353301179
 21
19274.890943421909
 31
0.0
  0
LINE
  5
16168
  8
2-0
  6
CONTINUOUS
 62
     6
 10
26107.370353301179
 20
19274.890943421909
 30
0.0
 11
26233.851693301182
 21
19376.45014342196
 31
0.0
  0
LINE
  5
16169
  8
2-0
  6
CONTINUOUS
 62
     6
 10
26233.851693301182
 20
19376.45014342196
 30
0.0
 11
26081.264462301191
 21
19321.40369142194
 31
0.0
  0
LINE
  5
1616A
  8
2-0
  6
CONTINUOUS
 62
     6
 10
26081.264462301191
 20
19321.40369142194
 30
0.0
 11
26233.851693301182
 21
19376.45014342196
 31
0.0
  0
LINE
  5
1616B
  8
2-0
  6
CONTINUOUS
 62
     6
 10
26107.370353301179
 20
19274.890943421909
 30
0.0
 11
26233.851693301182
 21
19376.45014342196
 31
0.0
  0
LINE
  5
1616C
  8
2-0
  6
CONTINUOUS
 62
     6
 10
26107.370353301179
 20
19274.890943421909
 30
0.0
 11
26081.264462301191
 21
19321.40369142194
 31
0.0
  0
TEXT
  5
1617A
  8
NAME
 10
21595.82616625919
 20
1076.6369801169251
 30
0.0
 40
360.0
  1
VGC-2652（H）+VKC-5052（H）型-L（単棟）
 41
0.45
  0
TEXT
  5
1617B
  8
NAME
 10
21933.552716389011
 20
1876.0
 30
0.0
 40
360.0
  1
ヨドガレージ ラヴィージュ
 41
0.75
  7
01
  0
LINE
  5
1617C
  8
NAME
  6
CONTINUOUS
 10
26067.886878884299
 20
2236.0
 30
0.0
 11
26067.886878884299
 21
1876.0
 31
0.0
  0
LINE
  5
1617D
  8
NAME
  6
CONTINUOUS
 10
26167.886878884299
 20
2236.0
 30
0.0
 11
26167.886878884299
 21
1876.0
 31
0.0
  0
LINE
  5
1617E
  8
NAME
  6
CONTINUOUS
 10
26267.88687888431
 20
2236.0
 30
0.0
 11
26267.88687888431
 21
1876.0
 31
0.0
  0
LINE
  5
1617F
  8
NAME
  6
CONTINUOUS
 10
26007.886878884299
 20
2236.0
 30
0.0
 11
26327.886878884299
 21
2236.0
 31
0.0
  0
LINE
  5
16180
  8
NAME
  6
CONTINUOUS
 10
26327.886878884299
 20
1876.0
 30
0.0
 11
26007.886878884299
 21
1876.0
 31
0.0
  0
TEXT
  5
162CC
  8
FILENAME
  6
CONTINUOUS
 10
26518.285714285721
 20
348.0
 30
0.0
 40
200.0
  1
＜VGC-2652+VKC-5052-L-1-A_0.DXF ＞
  7
FILENAME
 72
     2
 11
32764.0
 21
348.0
 31
0.0
  0
LINE
  5
162D1
  8
WAKUSEN-01
 10
868.00000000000193
 20
827.99999999999955
 30
0.0
 11
32764.000000000011
 21
827.99999999999943
 31
0.0
  0
LINE
  5
162D2
  8
WAKUSEN-01
 10
868.00000000000193
 20
827.99999999999955
 30
0.0
 11
868.00000000000193
 21
22484.000000000011
 31
0.0
  0
LINE
  5
162D3
  8
WAKUSEN-01
 10
32764.000000000011
 20
827.99999999999943
 30
0.0
 11
32764.000000000011
 21
22484.000000000011
 31
0.0
  0
LINE
  5
162D4
  8
WAKUSEN-01
 10
20560.0
 20
827.99999999999716
 30
0.0
 11
20560.0
 21
2484.0
 31
0.0
  0
LINE
  5
162D5
  8
WAKUSEN-02
 10
26868.0
 20
827.99999999999261
 30
0.0
 11
26868.0
 21
2484.0
 31
0.0
  0
ENDSEC
  0
EOF
