  0
SECTION
  2
HEADER
  9
$ACADVER
  1
AC1009
  9
$INSBASE
 10
0.0
 20
0.0
 30
0.0
  9
$EXTMIN
 10
867.99324330406671
 20
327.38164749855792
 30
-0.0000000000000058
  9
$EXTMAX
 10
32765.33210850941
 20
22484.553276491992
 30
0.0000000000000104
  9
$LIMMIN
 10
0.0
 20
0.0
  9
$LIMMAX
 10
33600.0
 20
23760.0
  9
$ORTHOMODE
 70
     1
  9
$REGENMODE
 70
     1
  9
$FILLMODE
 70
     1
  9
$QTEXTMODE
 70
     0
  9
$MIRRTEXT
 70
     0
  9
$DRAGMODE
 70
     2
  9
$LTSCALE
 40
80.0
  9
$OSMODE
 70
  3071
  9
$ATTMODE
 70
     1
  9
$TEXTSIZE
 40
0.2
  9
$TRACEWID
 40
0.05
  9
$TEXTSTYLE
  7
00
  9
$CLAYER
  8
0
  9
$CELTYPE
  6
BYLAYER
  9
$CECOLOR
 62
   256
  9
$DIMSCALE
 40
80.0
  9
$DIMASZ
 40
3.0
  9
$DIMEXO
 40
1.0
  9
$DIMDLI
 40
0.38
  9
$DIMRND
 40
0.5
  9
$DIMDLE
 40
0.0
  9
$DIMEXE
 40
1.0
  9
$DIMTP
 40
0.0
  9
$DIMTM
 40
0.0
  9
$DIMTXT
 40
2.0
  9
$DIMCEN
 40
0.09
  9
$DIMTSZ
 40
0.0
  9
$DIMTOL
 70
     0
  9
$DIMLIM
 70
     0
  9
$DIMTIH
 70
     0
  9
$DIMTOH
 70
     0
  9
$DIMSE1
 70
     0
  9
$DIMSE2
 70
     0
  9
$DIMTAD
 70
     1
  9
$DIMZIN
 70
     8
  9
$DIMBLK
  1
DOTSMALL
  9
$DIMASO
 70
     1
  9
$DIMSHO
 70
     1
  9
$DIMPOST
  1

  9
$DIMAPOST
  1

  9
$DIMALT
 70
     0
  9
$DIMALTD
 70
     2
  9
$DIMALTF
 40
25.399999999999999
  9
$DIMLFAC
 40
1.0
  9
$DIMTOFL
 70
     1
  9
$DIMTVP
 40
0.0
  9
$DIMTIX
 70
     0
  9
$DIMSOXD
 70
     0
  9
$DIMSAH
 70
     0
  9
$DIMBLK1
  1

  9
$DIMBLK2
  1

  9
$DIMSTYLE
  2
SUNPOU
  9
$DIMCLRD
 70
     4
  9
$DIMCLRE
 70
     4
  9
$DIMCLRT
 70
     7
  9
$DIMTFAC
 40
1.0
  9
$DIMGAP
 40
1.0
  9
$LUNITS
 70
     2
  9
$LUPREC
 70
     4
  9
$SKETCHINC
 40
0.1
  9
$FILLETRAD
 40
0.0
  9
$AUNITS
 70
     0
  9
$AUPREC
 70
     0
  9
$MENU
  1
acad
  9
$ELEVATION
 40
0.0
  9
$PELEVATION
 40
0.0
  9
$THICKNESS
 40
0.0
  9
$LIMCHECK
 70
     0
  9
$BLIPMODE
 70
     1
  9
$CHAMFERA
 40
0.0
  9
$CHAMFERB
 40
0.0
  9
$SKPOLY
 70
     0
  9
$TDCREATE
 40
2311940.075052408
  9
$TDUPDATE
 40
2458942.4491957412
  9
$TDINDWG
 40
0.3641311806
  9
$TDUSRTIMER
 40
0.364130706
  9
$USRTIMER
 70
     1
  9
$ANGBASE
 50
0.0
  9
$ANGDIR
 70
     0
  9
$PDMODE
 70
     0
  9
$PDSIZE
 40
0.0
  9
$PLINEWID
 40
0.0
  9
$COORDS
 70
     1
  9
$SPLFRAME
 70
     0
  9
$SPLINETYPE
 70
     6
  9
$SPLINESEGS
 70
     8
  9
$ATTDIA
 70
     1
  9
$ATTREQ
 70
     1
  9
$HANDLING
 70
     1
  9
$HANDSEED
  5
13A1A
  9
$SURFTAB1
 70
     6
  9
$SURFTAB2
 70
     6
  9
$SURFTYPE
 70
     6
  9
$SURFU
 70
     6
  9
$SURFV
 70
     6
  9
$UCSNAME
  2

  9
$UCSORG
 10
0.0
 20
0.0
 30
0.0
  9
$UCSXDIR
 10
1.0
 20
0.0
 30
0.0
  9
$UCSYDIR
 10
0.0
 20
1.0
 30
0.0
  9
$PUCSNAME
  2

  9
$PUCSORG
 10
0.0
 20
0.0
 30
0.0
  9
$PUCSXDIR
 10
1.0
 20
0.0
 30
0.0
  9
$PUCSYDIR
 10
0.0
 20
1.0
 30
0.0
  9
$USERI1
 70
     0
  9
$USERI2
 70
     0
  9
$USERI3
 70
     0
  9
$USERI4
 70
     0
  9
$USERI5
 70
     0
  9
$USERR1
 40
0.0
  9
$USERR2
 40
0.0
  9
$USERR3
 40
0.0
  9
$USERR4
 40
0.0
  9
$USERR5
 40
0.0
  9
$WORLDVIEW
 70
     1
  9
$SHADEDGE
 70
     3
  9
$SHADEDIF
 70
    70
  9
$TILEMODE
 70
     1
  9
$MAXACTVP
 70
    16
  9
$PLIMCHECK
 70
     0
  9
$PEXTMIN
 10
1.0000000000000000E+020
 20
1.0000000000000000E+020
 30
1.0000000000000000E+020
  9
$PEXTMAX
 10
-1.0000000000000000E+020
 20
-1.0000000000000000E+020
 30
-1.0000000000000000E+020
  9
$PLIMMIN
 10
0.0
 20
0.0
  9
$PLIMMAX
 10
12.0
 20
9.0
  9
$UNITMODE
 70
     0
  9
$VISRETAIN
 70
     0
  9
$PLINEGEN
 70
     1
  9
$PSLTSCALE
 70
     0
  0
ENDSEC
  0
SECTION
  2
TABLES
  0
TABLE
  2
VPORT
 70
     1
  0
VPORT
  2
*ACTIVE
 70
     0
 10
0.0
 20
0.0
 11
1.0
 21
1.0
 12
16800.0
 22
11880.0
 13
0.0
 23
0.0
 14
1.0
 24
1.0
 15
0.0
 25
0.0
 16
0.0
 26
0.0
 36
1.0
 17
0.0
 27
0.0
 37
0.0
 40
23981.023255813951
 41
2.195652173913043
 42
50.0
 43
0.0
 44
0.0
 50
0.0
 51
0.0
 71
     0
 72
 10000
 73
     1
 74
     1
 75
     0
 76
     0
 77
     0
 78
     0
  0
ENDTAB
  0
TABLE
  2
LTYPE
 70
     6
  0
LTYPE
  2
CONTINUOUS
 70
     0
  3
Solid line
 72
    65
 73
     0
 40
0.0
  0
LTYPE
  2
DASHED3
 70
     0
  3
------  ------  ------  ------  
 72
    65
 73
     2
 40
5.0
 49
3.75
 49
-1.25
  0
LTYPE
  2
CENTER2
 70
     0
  3
----------  --  ----------  --  
 72
    65
 73
     4
 40
20.0
 49
12.5
 49
-2.5
 49
2.5
 49
-2.5
  0
LTYPE
  2
HIDE-M
 70
     0
  3

 72
    65
 73
     2
 40
2.0
 49
1.0
 49
-1.0
  0
LTYPE
  2
1PL-M
 70
     0
  3

 72
    65
 73
     4
 40
15.0
 49
12.0
 49
-1.0
 49
1.0
 49
-1.0
  0
LTYPE
  2
PHANTOM2
 70
     0
  3
___ _ _ ___ _ _ ___ _ _ ___ _ _
 72
    65
 73
     6
 40
1.25
 49
0.625
 49
-0.125
 49
0.125
 49
-0.125
 49
0.125
 49
-0.125
  0
ENDTAB
  0
TABLE
  2
LAYER
 70
    24
  0
LAYER
  2
0
 70
     0
 62
     7
  6
CONTINUOUS
  0
LAYER
  2
SUNPOU
 70
     0
 62
     4
  6
CONTINUOUS
  0
LAYER
  2
0-1
 70
     0
 62
     7
  6
CONTINUOUS
  0
LAYER
  2
0-2
 70
     0
 62
     7
  6
CONTINUOUS
  0
LAYER
  2
0-5
 70
     0
 62
     7
  6
CONTINUOUS
  0
LAYER
  2
0-6
 70
     0
 62
     7
  6
CONTINUOUS
  0
LAYER
  2
2-0
 70
     0
 62
     7
  6
CONTINUOUS
  0
LAYER
  2
0-8
 70
     0
 62
     7
  6
CONTINUOUS
  0
LAYER
  2
YODOROGO
 70
     0
 62
   130
  6
CONTINUOUS
  0
LAYER
  2
WAKUSEN-01
 70
     0
 62
    50
  6
CONTINUOUS
  0
LAYER
  2
WAKUSEN-02
 70
     0
 62
   130
  6
CONTINUOUS
  0
LAYER
  2
WAKUMOJI-01
 70
     0
 62
   130
  6
CONTINUOUS
  0
LAYER
  2
FILENAME
 70
     0
 62
     7
  6
CONTINUOUS
  0
LAYER
  2
NAME
 70
     0
 62
    20
  6
CONTINUOUS
  0
LAYER
  2
0-4
 70
     0
 62
     7
  6
CONTINUOUS
  0
LAYER
  2
1-前柱P
 70
     0
 62
     3
  6
CONTINUOUS
  0
LAYER
  2
1-前柱カバ-P
 70
     0
 62
     3
  6
CONTINUOUS
  0
LAYER
  2
1-桁前P28
 70
     0
 62
     3
  6
CONTINUOUS
  0
LAYER
  2
1-後柱P
 70
     0
 62
     3
  6
CONTINUOUS
  0
LAYER
  2
1-中柱P
 70
     0
 62
     3
  6
CONTINUOUS
  0
LAYER
  2
1-後柱カバ-P
 70
     0
 62
     7
  6
CONTINUOUS
  0
LAYER
  2
1-中柱カバ-P
 70
     0
 62
     7
  6
CONTINUOUS
  0
ENDTAB
  0
TABLE
  2
STYLE
 70
     5
  0
STYLE
  2
STANDARD
 70
     0
 40
0.0
 41
1.0
 50
0.0
 71
     0
 42
0.0
  3
txt
  4
BIGFONT
  0
STYLE
  2
00
 70
     0
 40
0.0
 41
0.6666666666666666
 50
0.0
 71
     0
 42
0.2
  3
ROMANS
  4
BIGFONT
  0
STYLE
  2
01
 70
     0
 40
3.0
 41
1.0
 50
0.0
 71
     0
 42
0.2
  3
ROMANS
  4
BIGFONT
  0
STYLE
  2
WAKUMOJI
 70
     0
 40
3.0
 41
1.0
 50
0.0
 71
     0
 42
3.0
  3
SIMPLEX
  4
BIGFONT
  0
STYLE
  2
FILENAME
 70
     0
 40
200.0
 41
1.0
 50
0.0
 71
     0
 42
200.0
  3
romans
  4
bigfont
  0
ENDTAB
  0
TABLE
  2
VIEW
 70
     0
  0
ENDTAB
  0
TABLE
  2
UCS
 70
     0
  0
ENDTAB
  0
TABLE
  2
APPID
 70
    17
  0
APPID
  2
ACAD
 70
     0
  0
APPID
  2
ACADANNOTATIVE
 70
     0
  0
APPID
  2
ACAD_PSEXT
 70
     0
  0
APPID
  2
DCO15
 70
     0
  0
APPID
  2
ACAD_MLEADERVER
 70
     0
  0
APPID
  2
AUTOCAD_POSTSCRIPT_FIGURE
 70
     0
  0
APPID
  2
ACAD_EXEMPT_FROM_CAD_STANDARDS
 70
     0
  0
APPID
  2
ACLAYERTOOLS
 70
     0
  0
APPID
  2
ACAD_DSTYLE_DIMJAG
 70
     0
  0
APPID
  2
ACAD_DSTYLE_DIMTALN
 70
     0
  0
APPID
  2
ACAECLAYERSTANDARD
 70
     0
  0
APPID
  2
ACAD_DSTYLE_DIMBREAK
 70
     0
  0
APPID
  2
ACAD_DSTYLE_DIM_LINETYPE
 70
     0
  0
APPID
  2
ACAD_DSTYLE_DIM_EXT1_LINETYPE
 70
     0
  0
APPID
  2
ACAD_DSTYLE_DIM_EXT2_LINETYPE
 70
     0
  0
APPID
  2
ACAD_DSTYLE_DIMFLIPARROW_W
 70
     0
  0
APPID
  2
ACAD_NAV_VCDISPLAY
 70
     0
  0
ENDTAB
  0
TABLE
  2
DIMSTYLE
 70
     2
  0
DIMSTYLE
  2
SUNPOU
 70
     0
  3

  4

  5

  6

  7

 40
80.0
 41
3.0
 42
1.0
 43
0.38
 44
1.0
 45
0.5
 46
0.0
 47
0.0
 48
0.0
140
2.0
141
0.09
142
0.0
143
25.399999999999999
144
1.0
145
0.0
146
1.0
147
1.0
 71
     0
 72
     0
 73
     0
 74
     0
 75
     0
 76
     0
 77
     1
 78
     8
170
     0
171
     2
172
     1
173
     0
174
     0
175
     0
176
     4
177
     4
178
     7
  0
ENDTAB
  0
ENDSEC
  0
SECTION
  2
BLOCKS
  0
BLOCK
  8
0
  2
$MODEL_SPACE
 70
     0
 10
0.0
 20
0.0
 30
0.0
  3
$MODEL_SPACE
  1

  0
ENDBLK
  5
11B15
  8
0
  0
BLOCK
 67
     1
  8
0
  2
$PAPER_SPACE
 70
     0
 10
0.0
 20
0.0
 30
0.0
  3
$PAPER_SPACE
  1

  0
ENDBLK
  5
11B11
 67
     1
  8
0
  0
BLOCK
  8
0
  2
_DOTSMALL
 70
     0
 10
0.0
 20
0.0
 30
0.0
  3
_DOTSMALL
  1

  0
POLYLINE
  5
11B51
  8
0
  6
BYBLOCK
 62
     0
 66
     1
 10
0.0
 20
0.0
 30
0.0
 70
     1
 40
0.5
 41
0.5
  0
VERTEX
  5
139E2
  8
0
  6
BYBLOCK
 62
     0
 10
-0.0625
 20
0.0
 30
0.0
 42
1.0
  0
VERTEX
  5
139E3
  8
0
  6
BYBLOCK
 62
     0
 10
0.0625
 20
0.0
 30
0.0
 42
1.0
  0
SEQEND
  5
139E4
  8
0
  6
BYBLOCK
 62
     0
  0
ENDBLK
  5
11B55
  8
0
  0
ENDSEC
  0
SECTION
  2
ENTITIES
  0
CIRCLE
  5
11BC3
  8
0-5
  6
CONTINUOUS
 62
     4
 10
15128.71667799999
 20
1375.999982000001
 30
0.0
 40
20.0
  0
ARC
  5
11BC4
  8
0-5
  6
CONTINUOUS
 62
     4
 10
15128.71667799999
 20
1375.999982000001
 30
0.0
 40
20.0
 50
180.0
 51
0.0
  0
ARC
  5
11BC5
  8
0-5
  6
CONTINUOUS
 62
     4
 10
15128.71667799999
 20
1375.999982000001
 30
0.0
 40
20.0
 50
0.0
 51
179.99998500000001
  0
CIRCLE
  5
11BC6
  8
0-5
  6
CONTINUOUS
 62
     4
 10
15128.71667799999
 20
1775.999321999999
 30
0.0
 40
20.0
  0
ARC
  5
11BC7
  8
0-5
  6
CONTINUOUS
 62
     4
 10
15128.71667799999
 20
1775.999321999999
 30
0.0
 40
20.0
 50
180.0
 51
0.0
  0
ARC
  5
11BC8
  8
0-5
  6
CONTINUOUS
 62
     4
 10
15128.71667799999
 20
1775.999321999999
 30
0.0
 40
20.0
 50
0.0
 51
179.99998500000001
  0
TEXT
  5
11BCE
  8
0-5
  6
CONTINUOUS
 62
     7
 10
16661.217403999992
 20
1655.999792000001
 30
0.0
 40
160.0
  1
H
  0
TEXT
  5
11BCF
  8
0-5
  6
CONTINUOUS
 62
     7
 10
15176.146933
 20
1655.999792000001
 30
0.0
 40
160.0
  1
（ ）内寸法ハ、  タイプヲ示ス。
  0
TEXT
  5
11BD0
  8
0-5
  6
CONTINUOUS
 62
     7
 10
15288.716216000001
 20
1255.999462
 30
0.0
 40
160.0
  1
有効高サハ、基礎高サヲ含ミマセン。
  0
TEXT
  5
11BD8
  8
2-0
  6
CONTINUOUS
 62
     7
 10
23073.43991546092
 20
11251.104441999991
 30
0.0
 40
160.0
  1
平　面　図
 72
     4
 11
23526.773248794249
 21
11325.77110866666
 31
0.0
  0
TEXT
  5
11BD9
  8
2-0
  6
CONTINUOUS
 62
     7
 10
9275.8641181217226
 20
11156.81700299998
 30
0.0
 40
160.0
  1
小 屋 伏 図
 72
     4
 11
9777.1974514550566
 21
11236.81700299998
 31
0.0
  0
TEXT
  5
11BDA
  8
2-0
  6
CONTINUOUS
 62
     7
 10
22742.541079231629
 20
3292.802588999999
 30
0.0
 40
160.0
  1
正 面 立 面 図
 72
     4
 11
23387.874412564961
 21
3372.802588999999
 31
0.0
  0
TEXT
  5
11BDB
  8
2-0
  6
CONTINUOUS
 62
     7
 10
8709.4721087031467
 20
3264.0669070000022
 30
0.0
 40
160.0
  1
側 面 立 面 図
 50
0.000139
 72
     4
 11
9354.8052479539692
 21
3344.0684725833762
 31
0.0
  0
TEXT
  5
11BDF
  8
2-0
  6
CONTINUOUS
 62
     7
 10
10706.29743309158
 20
3291.2638415833758
 30
0.0
 40
160.0
  1
1
 72
     4
 11
10732.96409975825
 21
3371.2638415833749
 31
0.0
  0
TEXT
  5
11BE0
  8
2-0
  6
CONTINUOUS
 62
     7
 10
10949.38615034227
 20
3211.2653095833762
 30
0.0
 40
160.0
  1
80
 72
     4
 11
11069.38615034227
 21
3291.2653095833762
 31
0.0
  0
TEXT
  5
11BE1
  8
2-0
  6
CONTINUOUS
 62
     7
 10
10207.29939909158
 20
3264.0684725833762
 30
0.0
 40
160.0
  1
(S=  /   )
 72
     4
 11
10767.29939909158
 21
3344.0684725833762
 31
0.0
  0
TEXT
  5
11BE2
  8
2-0
  6
CONTINUOUS
 62
     7
 10
24739.366597702621
 20
3319.9979579999999
 30
0.0
 40
160.0
  1
1
 72
     4
 11
24766.033264369278
 21
3399.9979579999999
 31
0.0
  0
TEXT
  5
11BE3
  8
2-0
  6
CONTINUOUS
 62
     7
 10
24982.455314953291
 20
3239.9994260000021
 30
0.0
 40
160.0
  1
80
 72
     4
 11
25102.455314953291
 21
3319.9994260000012
 31
0.0
  0
TEXT
  5
11BE4
  8
2-0
  6
CONTINUOUS
 62
     7
 10
24240.368563702599
 20
3292.802588999999
 30
0.0
 40
160.0
  1
(S=  /   )
 72
     4
 11
24800.368563702599
 21
3372.802588999999
 31
0.0
  0
TEXT
  5
11BE5
  8
2-0
  6
CONTINUOUS
 62
     7
 10
24878.26543393188
 20
11272.96647766667
 30
0.0
 40
160.0
  1
1
 72
     4
 11
24904.932100598551
 21
11352.96647766667
 31
0.0
  0
TEXT
  5
11BE6
  8
2-0
  6
CONTINUOUS
 62
     7
 10
25121.354151182572
 20
11192.967945666671
 30
0.0
 40
160.0
  1
80
 72
     4
 11
25241.354151182572
 21
11272.967945666671
 31
0.0
  0
TEXT
  5
11BE7
  8
2-0
  6
CONTINUOUS
 62
     7
 10
24379.267399931879
 20
11245.77110866666
 30
0.0
 40
160.0
  1
(S=  /   )
 72
     4
 11
24939.267399931879
 21
11325.77110866666
 31
0.0
  0
TEXT
  5
11BE8
  8
2-0
  6
CONTINUOUS
 62
     7
 10
11128.68963659268
 20
11184.012371999979
 30
0.0
 40
160.0
  1
1
 72
     4
 11
11155.35630325935
 21
11264.012371999979
 31
0.0
  0
TEXT
  5
11BE9
  8
2-0
  6
CONTINUOUS
 62
     7
 10
11371.77835384336
 20
11104.01383999998
 30
0.0
 40
160.0
  1
80
 72
     4
 11
11491.77835384336
 21
11184.01383999998
 31
0.0
  0
TEXT
  5
11BEA
  8
2-0
  6
CONTINUOUS
 62
     7
 10
10629.69160259268
 20
11156.81700299998
 30
0.0
 40
160.0
  1
(S=  /   )
 72
     4
 11
11189.69160259268
 21
11236.81700299998
 31
0.0
  0
LINE
  5
11C40
  8
0-1
  6
CONTINUOUS
 62
     3
 10
8581.505060703159
 20
8152.2344180000064
 30
0.0
 11
8581.505060703159
 21
6291.1885390000007
 31
0.0
  0
LINE
  5
11C41
  8
0-1
  6
CONTINUOUS
 62
     3
 10
8544.5068687031599
 20
8152.2344180000064
 30
0.0
 11
8544.5068687031599
 21
6291.1885390000007
 31
0.0
  0
LINE
  5
11C42
  8
0-1
  6
CONTINUOUS
 62
     3
 10
9281.504400703152
 20
8152.2344180000064
 30
0.0
 11
9281.504400703152
 21
6291.1885390000007
 31
0.0
  0
LINE
  5
11C43
  8
0-1
  6
CONTINUOUS
 62
     3
 10
9244.5062087031547
 20
8152.2344180000064
 30
0.0
 11
9244.5062087031547
 21
6291.1885390000007
 31
0.0
  0
LINE
  5
11C44
  8
0-1
  6
CONTINUOUS
 62
     3
 10
8903.0046117031452
 20
6291.1885390000007
 30
0.0
 11
8903.0046117031452
 21
8152.2344180000064
 31
0.0
  0
LINE
  5
11C45
  8
0-1
  6
CONTINUOUS
 62
     3
 10
8923.0056677031607
 20
6291.1885390000007
 30
0.0
 11
8923.0056677031607
 21
8152.2344180000064
 31
0.0
  0
LINE
  5
11C46
  8
0-1
  6
CONTINUOUS
 62
     3
 10
8853.0059317031555
 20
6291.1885390000007
 30
0.0
 11
8853.0059317031555
 21
8152.2344180000064
 31
0.0
  0
LINE
  5
11C47
  8
0-1
  6
CONTINUOUS
 62
     3
 10
8973.0053377031581
 20
6291.1885390000007
 30
0.0
 11
8973.0053377031581
 21
8152.2344180000064
 31
0.0
  0
LINE
  5
11C48
  8
0-1
  6
CONTINUOUS
 62
     3
 10
9106.0052317031514
 20
6291.1885390000007
 30
0.0
 11
9106.0052317031514
 21
8152.2344180000064
 31
0.0
  0
LINE
  5
11C49
  8
0-1
  6
CONTINUOUS
 62
     3
 10
9121.0050337031553
 20
6291.1885390000007
 30
0.0
 11
9121.0050337031553
 21
8152.2344180000064
 31
0.0
  0
LINE
  5
11C4A
  8
0-1
  6
CONTINUOUS
 62
     3
 10
8720.0050467031542
 20
6291.1885390000007
 30
0.0
 11
8720.0050467031542
 21
8152.2344180000064
 31
0.0
  0
LINE
  5
11C4B
  8
0-1
  6
CONTINUOUS
 62
     3
 10
8705.0062347031635
 20
6291.1885390000007
 30
0.0
 11
8705.0062347031635
 21
8152.2344180000064
 31
0.0
  0
LINE
  5
11C4C
  8
0-1
  6
CONTINUOUS
 62
     3
 10
8421.0056937031623
 20
6291.1885390000007
 30
0.0
 11
8421.0056937031623
 21
8152.2344180000064
 31
0.0
  0
LINE
  5
11C4D
  8
0-1
  6
CONTINUOUS
 62
     3
 10
8406.0049017031542
 20
6291.1885390000007
 30
0.0
 11
8406.0049017031542
 21
8152.2344180000064
 31
0.0
  0
LINE
  5
11C4E
  8
0-1
  6
CONTINUOUS
 62
     3
 10
8273.0059977031488
 20
6291.1885390000007
 30
0.0
 11
8273.0059977031488
 21
8152.2344180000064
 31
0.0
  0
LINE
  5
11C4F
  8
0-1
  6
CONTINUOUS
 62
     3
 10
8153.0046117031579
 20
6291.1885390000007
 30
0.0
 11
8153.0046117031579
 21
8152.2344180000064
 31
0.0
  0
LINE
  5
11C50
  8
0-1
  6
CONTINUOUS
 62
     3
 10
8223.0073167031642
 20
6291.1885390000007
 30
0.0
 11
8223.0073167031642
 21
8152.2344180000064
 31
0.0
  0
LINE
  5
11C51
  8
0-1
  6
CONTINUOUS
 62
     3
 10
8203.0062617031672
 20
6291.1885390000007
 30
0.0
 11
8203.0062617031672
 21
8152.2344180000064
 31
0.0
  0
LINE
  5
11C52
  8
0-1
  6
CONTINUOUS
 62
     3
 10
9405.004585703151
 20
6291.1885390000007
 30
0.0
 11
9405.004585703151
 21
8152.2344180000064
 31
0.0
  0
LINE
  5
11C53
  8
0-1
  6
CONTINUOUS
 62
     3
 10
9420.0053767031641
 20
6291.1885390000007
 30
0.0
 11
9420.0053767031641
 21
8152.2344180000064
 31
0.0
  0
LINE
  5
11C54
  8
0-1
  6
CONTINUOUS
 62
     3
 10
9553.0062617031635
 20
6291.1885390000007
 30
0.0
 11
9553.0062617031635
 21
8152.2344180000064
 31
0.0
  0
LINE
  5
11C55
  8
0-1
  6
CONTINUOUS
 62
     3
 10
9821.0053637031597
 20
6291.1885390000007
 30
0.0
 11
9821.0053637031597
 21
8152.2344180000064
 31
0.0
  0
LINE
  5
11C56
  8
0-1
  6
CONTINUOUS
 62
     3
 10
9806.0065517031635
 20
6291.1885390000007
 30
0.0
 11
9806.0065517031635
 21
8152.2344180000064
 31
0.0
  0
LINE
  5
11C57
  8
0-1
  6
CONTINUOUS
 62
     3
 10
9673.0056677031516
 20
6291.1885390000007
 30
0.0
 11
9673.0056677031516
 21
8152.2344180000064
 31
0.0
  0
LINE
  5
11C58
  8
0-1
  6
CONTINUOUS
 62
     3
 10
9623.0059977031488
 20
6291.1885390000007
 30
0.0
 11
9623.0059977031488
 21
8152.2344180000064
 31
0.0
  0
LINE
  5
11C59
  8
0-1
  6
CONTINUOUS
 62
     3
 10
9603.0069207031647
 20
6291.1885390000007
 30
0.0
 11
9603.0069207031647
 21
8152.2344180000064
 31
0.0
  0
LINE
  5
11C5A
  8
0-1
  6
CONTINUOUS
 62
     3
 10
10431.005891703149
 20
6291.1885390000007
 30
0.0
 11
10431.005891703149
 21
8152.2344180000064
 31
0.0
  0
LINE
  5
11C5B
  8
0-1
  6
CONTINUOUS
 62
     3
 10
10411.006815703149
 20
6291.1885390000007
 30
0.0
 11
10411.006815703149
 21
8152.2344180000064
 31
0.0
  0
LINE
  5
11C5C
  8
0-1
  6
CONTINUOUS
 62
     3
 10
10481.00655170314
 20
6291.1885390000007
 30
0.0
 11
10481.00655170314
 21
8152.2344180000064
 31
0.0
  0
LINE
  5
11C5D
  8
0-1
  6
CONTINUOUS
 62
     3
 10
10361.006155703149
 20
6291.1885390000007
 30
0.0
 11
10361.006155703149
 21
8152.2344180000064
 31
0.0
  0
LINE
  5
11C5E
  8
0-1
  6
CONTINUOUS
 62
     3
 10
10228.006261703151
 20
6291.1885390000007
 30
0.0
 11
10228.006261703151
 21
8152.2344180000064
 31
0.0
  0
LINE
  5
11C5F
  8
0-1
  6
CONTINUOUS
 62
     3
 10
10213.004479703141
 20
6291.1885390000007
 30
0.0
 11
10213.004479703141
 21
8152.2344180000064
 31
0.0
  0
LINE
  5
11C60
  8
0-1
  6
CONTINUOUS
 62
     3
 10
10614.00644570314
 20
6291.1885390000007
 30
0.0
 11
10614.00644570314
 21
8152.2344180000064
 31
0.0
  0
LINE
  5
11C61
  8
0-1
  6
CONTINUOUS
 62
     3
 10
10629.005258703161
 20
6291.1885390000007
 30
0.0
 11
10629.005258703161
 21
8152.2344180000064
 31
0.0
  0
LINE
  5
11C62
  8
0-1
  6
CONTINUOUS
 62
     3
 10
12313.00546970313
 20
6291.1885390000007
 30
0.0
 11
12313.00546970313
 21
8152.2344180000064
 31
0.0
  0
LINE
  5
11C63
  8
0-1
  6
CONTINUOUS
 62
     3
 10
12328.00527170315
 20
6291.1885390000007
 30
0.0
 11
12328.00527170315
 21
8152.2344180000064
 31
0.0
  0
LINE
  5
11C64
  8
0-1
  6
CONTINUOUS
 62
     3
 10
11831.00655170316
 20
6291.1885390000007
 30
0.0
 11
11831.00655170316
 21
8152.2344180000064
 31
0.0
  0
LINE
  5
11C65
  8
0-1
  6
CONTINUOUS
 62
     3
 10
11811.00549570317
 20
6291.1885390000007
 30
0.0
 11
11811.00549570317
 21
8152.2344180000064
 31
0.0
  0
LINE
  5
11C66
  8
0-1
  6
CONTINUOUS
 62
     3
 10
11881.00523170315
 20
6291.1885390000007
 30
0.0
 11
11881.00523170315
 21
8152.2344180000064
 31
0.0
  0
LINE
  5
11C67
  8
0-1
  6
CONTINUOUS
 62
     3
 10
11761.006815703149
 20
6291.1885390000007
 30
0.0
 11
11761.006815703149
 21
8152.2344180000064
 31
0.0
  0
LINE
  5
11C68
  8
0-1
  6
CONTINUOUS
 62
     3
 10
11628.00593170315
 20
6291.1885390000007
 30
0.0
 11
11628.00593170315
 21
8152.2344180000064
 31
0.0
  0
LINE
  5
11C69
  8
0-1
  6
CONTINUOUS
 62
     3
 10
11613.006129703141
 20
6291.1885390000007
 30
0.0
 11
11613.006129703141
 21
8152.2344180000064
 31
0.0
  0
LINE
  5
11C6A
  8
0-1
  6
CONTINUOUS
 62
     3
 10
12014.004136703161
 20
6291.1885390000007
 30
0.0
 11
12014.004136703161
 21
8152.2344180000064
 31
0.0
  0
LINE
  5
11C6B
  8
0-1
  6
CONTINUOUS
 62
     3
 10
12029.005917703151
 20
6291.1885390000007
 30
0.0
 11
12029.005917703151
 21
8152.2344180000064
 31
0.0
  0
LINE
  5
11C6C
  8
0-1
  6
CONTINUOUS
 62
     3
 10
11329.00657770314
 20
6291.1885390000007
 30
0.0
 11
11329.00657770314
 21
8152.2344180000064
 31
0.0
  0
LINE
  5
11C6D
  8
0-1
  6
CONTINUOUS
 62
     3
 10
11314.004796703141
 20
6291.1885390000007
 30
0.0
 11
11314.004796703141
 21
8152.2344180000064
 31
0.0
  0
LINE
  5
11C6E
  8
0-1
  6
CONTINUOUS
 62
     3
 10
10913.00678870316
 20
6291.1885390000007
 30
0.0
 11
10913.00678870316
 21
8152.2344180000064
 31
0.0
  0
LINE
  5
11C6F
  8
0-1
  6
CONTINUOUS
 62
     3
 10
10928.00560170314
 20
6291.1885390000007
 30
0.0
 11
10928.00560170314
 21
8152.2344180000064
 31
0.0
  0
LINE
  5
11C70
  8
0-1
  6
CONTINUOUS
 62
     3
 10
11061.004505703149
 20
6291.1885390000007
 30
0.0
 11
11061.004505703149
 21
8152.2344180000064
 31
0.0
  0
LINE
  5
11C71
  8
0-1
  6
CONTINUOUS
 62
     3
 10
11181.00589170314
 20
6291.1885390000007
 30
0.0
 11
11181.00589170314
 21
8152.2344180000064
 31
0.0
  0
LINE
  5
11C72
  8
0-1
  6
CONTINUOUS
 62
     3
 10
11111.00615570314
 20
6291.1885390000007
 30
0.0
 11
11111.00615570314
 21
8152.2344180000064
 31
0.0
  0
LINE
  5
11C73
  8
0-1
  6
CONTINUOUS
 62
     3
 10
11131.00523170315
 20
6291.1885390000007
 30
0.0
 11
11131.00523170315
 21
8152.2344180000064
 31
0.0
  0
LINE
  5
11C74
  8
0-1
  6
CONTINUOUS
 62
     3
 10
10789.50660470316
 20
8152.2344180000064
 30
0.0
 11
10789.50660470316
 21
6291.1885390000007
 31
0.0
  0
LINE
  5
11C75
  8
0-1
  6
CONTINUOUS
 62
     3
 10
10752.50544270315
 20
8152.2344180000064
 30
0.0
 11
10752.50544270315
 21
6291.1885390000007
 31
0.0
  0
LINE
  5
11C76
  8
0-1
  6
CONTINUOUS
 62
     3
 10
12189.504294703151
 20
8152.2344180000064
 30
0.0
 11
12189.504294703151
 21
6291.1885390000007
 31
0.0
  0
LINE
  5
11C77
  8
0-1
  6
CONTINUOUS
 62
     3
 10
12152.50511270314
 20
8152.2344180000064
 30
0.0
 11
12152.50511270314
 21
6291.1885390000007
 31
0.0
  0
LINE
  5
11C78
  8
0-1
  6
CONTINUOUS
 62
     3
 10
11489.505944703151
 20
8152.2344180000064
 30
0.0
 11
11489.505944703151
 21
6291.1885390000007
 31
0.0
  0
LINE
  5
11C79
  8
0-1
  6
CONTINUOUS
 62
     3
 10
11452.50577270316
 20
8152.2344180000064
 30
0.0
 11
11452.50577270316
 21
6291.1885390000007
 31
0.0
  0
LINE
  5
11C7A
  8
0-1
  6
CONTINUOUS
 62
     3
 10
12639.505416703139
 20
6241.1883740000021
 30
0.0
 11
12639.505416703139
 21
6141.1885390000007
 31
0.0
  0
LINE
  5
11C7B
  8
0-1
  6
CONTINUOUS
 62
     3
 10
12607.00462570315
 20
8455.5174490000027
 30
0.0
 11
12607.00462570315
 21
6241.1883740000021
 31
0.0
  0
LINE
  5
11C7C
  8
0-1
  6
CONTINUOUS
 62
     3
 10
12627.005416703139
 20
8456.0984379999973
 30
0.0
 11
12627.005416703139
 21
6241.1883740000021
 31
0.0
  0
LINE
  5
11C7D
  8
0-1
  6
CONTINUOUS
 62
     3
 10
12512.00554870314
 20
8152.2344180000064
 30
0.0
 11
12512.00554870314
 21
6241.1883740000021
 31
0.0
  0
LINE
  5
11C7E
  8
0-1
  6
CONTINUOUS
 62
     3
 10
10017.005416703139
 20
8356.9898809999977
 30
0.0
 11
10017.005416703139
 21
8152.2344180000064
 31
0.0
  0
LINE
  5
11C7F
  8
0-1
  6
CONTINUOUS
 62
     3
 10
9944.5055487031641
 20
8152.2344180000064
 30
0.0
 11
9944.5055487031641
 21
6241.1883740000021
 31
0.0
  0
LINE
  5
11C80
  8
0-1
  6
CONTINUOUS
 62
     3
 10
10089.50429470314
 20
8152.2344180000064
 30
0.0
 11
10089.50429470314
 21
6241.1883740000021
 31
0.0
  0
LINE
  5
11C81
  8
0-1
  6
CONTINUOUS
 62
     3
 10
10089.50429470314
 20
6291.1885390000007
 30
0.0
 11
12512.00554870314
 21
6291.1885390000007
 31
0.0
  0
LINE
  5
11C82
  8
0-1
  6
CONTINUOUS
 62
     3
 10
7399.5054167031458
 20
6141.1885390000007
 30
0.0
 11
7399.5054167031458
 21
6241.1883740000021
 31
0.0
  0
LINE
  5
11C83
  8
0-1
  6
CONTINUOUS
 62
     3
 10
7427.0052187031542
 20
8268.990877000002
 30
0.0
 11
7427.0052187031542
 21
6241.1883740000021
 31
0.0
  0
LINE
  5
11C84
  8
0-1
  6
CONTINUOUS
 62
     3
 10
7407.0054167031503
 20
8268.3741496838102
 30
0.0
 11
7407.0054167031503
 21
6241.1883740000021
 31
0.0
  0
LINE
  5
11C85
  8
0-1
  6
CONTINUOUS
 62
     3
 10
7399.5054167031458
 20
6241.1883740000021
 30
0.0
 11
12639.505416703139
 21
6241.1883740000021
 31
0.0
  0
LINE
  5
11C86
  8
0-1
  6
CONTINUOUS
 62
     3
 10
7522.0042957031546
 20
6291.1885390000007
 30
0.0
 11
9944.5055487031641
 21
6291.1885390000007
 31
0.0
  0
LINE
  5
11C87
  8
0-1
  6
CONTINUOUS
 62
     3
 10
6717.0043617031479
 20
6141.1885390000007
 30
0.0
 11
12639.505416703139
 21
6141.1885390000007
 31
0.0
  0
LINE
  5
11C88
  8
0-1
  6
CONTINUOUS
 62
     3
 10
7427.0052187031542
 20
8152.2344180000064
 30
0.0
 11
12607.00462570315
 21
8152.2344180000064
 31
0.0
  0
LINE
  5
11C89
  8
0-1
  6
CONTINUOUS
 62
     3
 10
7232.7035927031557
 20
8303.1736990000027
 30
0.0
 11
12712.69508170315
 21
8498.6897600000066
 31
0.0
  0
LINE
  5
11C8A
  8
0-1
  6
CONTINUOUS
 62
     3
 10
12711.19460670314
 20
8548.6686450000016
 30
0.0
 11
7231.2041077031454
 21
8353.151595000003
 31
0.0
  0
LINE
  5
11C8B
  8
0-1
  6
CONTINUOUS
 62
     3
 10
7228.1140797031549
 20
8356.0604969999968
 30
0.0
 11
7227.1540127031449
 21
8388.0460529999982
 31
0.0
  0
LINE
  5
11C8C
  8
0-1
  6
CONTINUOUS
 62
     3
 10
7232.0028437031579
 20
8393.1932959999976
 30
0.0
 11
12730.96405870315
 21
8589.2804480000032
 31
0.0
  0
LINE
  5
11C8D
  8
0-1
  6
CONTINUOUS
 62
     3
 10
12734.86865870315
 20
8459.338910000004
 30
0.0
 11
7235.903484703158
 21
8263.2522529999969
 31
0.0
  0
LINE
  5
11C8E
  8
0-1
  6
CONTINUOUS
 62
     3
 10
7230.7557467031602
 20
8268.099599000001
 30
0.0
 11
7229.7966697031497
 21
8300.0856499999973
 31
0.0
  0
LINE
  5
11C8F
  8
0-1
  6
CONTINUOUS
 62
     3
 10
7229.4651007031498
 20
8311.0803909999977
 30
0.0
 11
7228.4446587031571
 21
8345.0647660000086
 31
0.0
  0
LINE
  5
11C90
  8
0-1
  6
CONTINUOUS
 62
     3
 10
7231.3535617031584
 20
8348.1538049999999
 30
0.0
 11
12711.346039703139
 21
8543.6713500000023
 31
0.0
  0
LINE
  5
11C91
  8
0-1
  6
CONTINUOUS
 62
     3
 10
12712.54562770315
 20
8503.6880440000004
 30
0.0
 11
7232.5551297031498
 21
8308.1719839999969
 31
0.0
  0
LINE
  5
11C92
  8
0-1
  6
CONTINUOUS
 62
     3
 10
10017.005416703139
 20
8356.9898809999977
 30
0.0
 11
10013.102795703149
 21
8486.9314189999968
 31
0.0
  0
LINE
  5
11C93
  8
0-1
  6
CONTINUOUS
 62
     3
 10
12701.90175670315
 20
8458.3481610000017
 30
0.0
 11
12698.000125703151
 21
8588.2896989999972
 31
0.0
  0
LINE
  5
11C94
  8
0-1
  6
CONTINUOUS
 62
     3
 10
7244.4955857031518
 20
8393.5684149999979
 30
0.0
 11
7248.3982067031557
 21
8263.6273720000008
 31
0.0
  0
LINE
  5
11C95
  8
0-5
  6
CONTINUOUS
 62
     4
 10
14344.590404703151
 20
6241.1883740000021
 30
0.0
 11
14464.59080070315
 21
6449.0353509999959
 31
0.0
  0
LINE
  5
11C96
  8
0-5
  6
CONTINUOUS
 62
     4
 10
14224.591987703139
 20
6449.0353509999959
 30
0.0
 11
14344.590404703151
 21
6241.1883740000021
 31
0.0
  0
LINE
  5
11C97
  8
0-5
  6
CONTINUOUS
 62
     4
 10
14464.59080070315
 20
6449.0353509999959
 30
0.0
 11
14224.591987703139
 21
6449.0353509999959
 31
0.0
  0
LINE
  5
11C98
  8
0-5
  6
CONTINUOUS
 62
     4
 10
12719.50271170314
 20
6241.1883740000021
 30
0.0
 11
14436.96859770314
 21
6241.1883740000021
 31
0.0
  0
LINE
  5
11C99
  8
0-5
  6
CONTINUOUS
 62
     4
 10
12719.50271170314
 20
6141.1885390000007
 30
0.0
 11
20544.28101581736
 21
6141.1885390000007
 31
0.0
  0
LINE
  5
11C9A
  8
0-5
  6
CONTINUOUS
 62
     4
 10
12584.505416703139
 20
4461.1889349999938
 30
0.0
 11
12584.505416703139
 21
4301.1893970000001
 31
0.0
  0
LINE
  5
11C9B
  8
0-5
  6
CONTINUOUS
 62
     4
 10
10017.005416703139
 20
4461.1889349999938
 30
0.0
 11
10017.005416703139
 21
4301.1893970000001
 31
0.0
  0
LINE
  5
11C9C
  8
0-5
  6
CONTINUOUS
 62
     4
 10
7449.5054167031458
 20
4461.1889349999938
 30
0.0
 11
7449.5054167031458
 21
4301.1893970000001
 31
0.0
  0
LINE
  5
11C9D
  8
2-0
  6
CENTER2
 62
     6
 10
12584.505416703139
 20
5878.536116000002
 30
0.0
 11
12584.505416703139
 21
6935.6787139999988
 31
0.0
  0
LINE
  5
11C9E
  8
2-0
  6
CENTER2
 62
     6
 10
10017.005416703139
 20
5878.536116000002
 30
0.0
 11
10017.005416703139
 21
6935.6787139999988
 31
0.0
  0
LINE
  5
11C9F
  8
2-0
  6
CENTER2
 62
     6
 10
7449.5054167031458
 20
5878.536116000002
 30
0.0
 11
7449.5054167031458
 21
6935.6787139999988
 31
0.0
  0
ARC
  5
11CA0
  8
0-1
  6
CONTINUOUS
 62
     3
 10
12711.944843703141
 20
8523.680191999998
 30
0.0
 40
24.999998999999999
 50
271.71998600002598
 51
91.719986000025997
  0
ARC
  5
11CA1
  8
0-1
  6
CONTINUOUS
 62
     3
 10
7231.1140397031568
 20
8356.1505650000017
 30
0.0
 40
3.0
 50
181.71998600001291
 51
271.71998600002598
  0
ARC
  5
11CA2
  8
0-1
  6
CONTINUOUS
 62
     3
 10
7232.151307703155
 20
8388.1955070000022
 30
0.0
 40
5.0
 50
91.719986000025997
 51
181.71998600001291
  0
ARC
  5
11CA3
  8
0-1
  6
CONTINUOUS
 62
     3
 10
12706.94754970314
 20
8523.5297490000066
 30
0.0
 40
69.999999000000003
 50
293.50677499978622
 51
69.93319699990596
  0
ARC
  5
11CA4
  8
0-1
  6
CONTINUOUS
 62
     3
 10
7235.7550207031618
 20
8268.2500430000073
 30
0.0
 40
5.0
 50
181.71998600001291
 51
271.71998600002598
  0
ARC
  5
11CA5
  8
0-1
  6
CONTINUOUS
 62
     3
 10
7232.7936617031519
 20
8300.1752229999984
 30
0.0
 40
3.0
 50
91.719986000025997
 51
181.71998600001291
  0
ARC
  5
11CA6
  8
0-1
  6
CONTINUOUS
 62
     3
 10
7232.7778247031547
 20
8350.697981000003
 30
0.0
 40
2.5
 50
271.71998600002598
 51
91.719986000025997
  0
ARC
  5
11CA7
  8
0-1
  6
CONTINUOUS
 62
     3
 10
7234.1278567031568
 20
8305.7178750000003
 30
0.0
 40
2.5
 50
271.71998600002598
 51
91.719986000025997
  0
ARC
  5
11CA8
  8
0-1
  6
CONTINUOUS
 62
     3
 10
7231.4436297031498
 20
8345.1553289999974
 30
0.0
 40
3.0
 50
91.719986000025997
 51
181.71998600001291
  0
ARC
  5
11CA9
  8
0-1
  6
CONTINUOUS
 62
     3
 10
12711.944843703141
 20
8523.680191999998
 30
0.0
 40
20.0
 50
271.71998600002598
 51
91.719986000025997
  0
ARC
  5
11CAA
  8
0-1
  6
CONTINUOUS
 62
     3
 10
7232.4640717031498
 20
8311.1699640000006
 30
0.0
 40
3.0
 50
181.71998600001291
 51
271.71998600002598
  0
CIRCLE
  5
11CAB
  8
0-5
  6
CONTINUOUS
 62
     4
 10
10017.005416703139
 20
4101.1882420000011
 30
0.0
 40
199.9999949999999
  0
CIRCLE
  5
11CAC
  8
0-5
  6
CONTINUOUS
 62
     4
 10
12584.505416703139
 20
4101.1882420000011
 30
0.0
 40
199.9999949999999
  0
CIRCLE
  5
11CAD
  8
0-5
  6
CONTINUOUS
 62
     4
 10
7449.5054167031458
 20
4101.1882420000011
 30
0.0
 40
199.9999949999999
  0
TEXT
  5
11CAE
  8
0-5
  6
CONTINUOUS
 62
     7
 10
13885.498475703151
 20
6529.0346249999966
 30
0.0
 40
160.0
  1
布基礎天端
 72
     4
 11
14344.16514236982
 21
6609.0346249999984
 31
0.0
  0
TEXT
  5
11CAF
  8
0-5
  6
CONTINUOUS
 62
     7
 10
12537.549256703151
 20
4017.9774460000021
 30
0.0
 40
160.0
  1
A
 72
     4
 11
12590.88259003649
 21
4097.9774460000026
 31
0.0
  0
TEXT
  5
11CB0
  8
0-5
  6
CONTINUOUS
 62
     7
 10
9970.049256703147
 20
4017.9774460000021
 30
0.0
 40
160.0
  1
B
 72
     4
 11
10023.382590036481
 21
4097.9774460000026
 31
0.0
  0
TEXT
  5
11CB1
  8
0-5
  6
CONTINUOUS
 62
     7
 10
7402.549256703157
 20
4017.9774460000021
 30
0.0
 40
160.0
  1
C
 72
     4
 11
7455.8825900364909
 21
4097.9774460000026
 31
0.0
  0
LINE
  5
11CB2
  8
SUNPOU
  6
CONTINUOUS
 10
7227.0054167031494
 20
9389.1900500000029
 30
0.0
 11
6722.2175468097421
 21
9389.1900500000029
 31
0.0
  0
LINE
  5
11CB3
  8
0-1
  6
CONTINUOUS
 62
     3
 10
7881.5027507031482
 20
8152.2344180000036
 30
0.0
 11
7881.5027507031482
 21
6291.1885389999989
 31
0.0
  0
LINE
  5
11CB4
  8
0-1
  6
CONTINUOUS
 62
     3
 10
7844.5045587031491
 20
8152.2344180000036
 30
0.0
 11
7844.5045587031491
 21
6291.1885389999989
 31
0.0
  0
LINE
  5
11CB5
  8
0-1
  6
CONTINUOUS
 62
     3
 10
7706.0035817031458
 20
6291.1885389999989
 30
0.0
 11
7706.0035817031458
 21
8152.2344180000036
 31
0.0
  0
LINE
  5
11CB6
  8
0-1
  6
CONTINUOUS
 62
     3
 10
7721.0033837031569
 20
6291.1885389999989
 30
0.0
 11
7721.0033837031569
 21
8152.2344180000036
 31
0.0
  0
LINE
  5
11CB7
  8
0-1
  6
CONTINUOUS
 62
     3
 10
8005.0029357031508
 20
6291.1885389999989
 30
0.0
 11
8005.0029357031508
 21
8152.2344180000036
 31
0.0
  0
LINE
  5
11CB8
  8
0-1
  6
CONTINUOUS
 62
     3
 10
8020.0037267031566
 20
6291.1885389999989
 30
0.0
 11
8020.0037267031566
 21
8152.2344180000036
 31
0.0
  0
LINE
  5
11CB9
  8
0-1
  6
CONTINUOUS
 62
     3
 10
7522.0042957031546
 20
8152.2344180000064
 30
0.0
 11
7522.0042957031546
 21
6241.1883740000021
 31
0.0
  0
LINE
  5
12065
  8
0-5
  6
CONTINUOUS
 62
     4
 10
18452.40891881736
 20
6349.0350210000024
 30
0.0
 11
18572.40733481737
 21
6141.1885390000007
 31
0.0
  0
LINE
  5
12066
  8
0-5
  6
CONTINUOUS
 62
     4
 10
18572.40733481737
 20
6141.1885390000007
 30
0.0
 11
18692.407730817369
 21
6349.0350210000024
 31
0.0
  0
LINE
  5
12067
  8
0-5
  6
CONTINUOUS
 62
     4
 10
18692.407730817369
 20
6349.0350210000024
 30
0.0
 11
18452.40891881736
 21
6349.0350210000024
 31
0.0
  0
TEXT
  5
12077
  8
0-5
  6
CONTINUOUS
 62
     7
 10
18452.40891881736
 20
6429.0347900000024
 30
0.0
 40
160.0
  1
G.L
 72
     4
 11
18612.40891881736
 21
6509.0347900000043
 31
0.0
  0
LINE
  5
120B2
  8
WAKUSEN-01
 10
868.00000000000193
 20
22484.000000000011
 30
0.0
 11
32764.000000000011
 21
22484.000000000011
 31
0.0
  0
LINE
  5
120B5
  8
WAKUSEN-01
 10
20560.0
 20
2484.0
 30
0.0
 11
32764.0
 21
2484.0
 31
0.0
  0
LINE
  5
120B6
  8
WAKUSEN-02
 10
20560.0
 20
1655.9999999999991
 30
0.0
 11
26868.0
 21
1655.9999999999991
 31
0.0
  0
TEXT
  5
120B7
  8
WAKUMOJI-01
 10
20670.260259962761
 20
2125.9030093393221
 30
0.0
 40
240.0
  1
名　称
  7
WAKUMOJI
  0
TEXT
  5
120B8
  8
WAKUMOJI-01
 10
20656.505485091919
 20
1319.12897497982
 30
0.0
 40
240.0
  1
機種名
  7
WAKUMOJI
  0
LINE
  5
120BB
  8
YODOROGO
 10
29977.604341291921
 20
1995.7494964292871
 30
0.0
 11
29829.604341291921
 21
1995.7494964292871
 31
0.0
1001
AUTOCAD_POSTSCRIPT_FIGURE
1002
{
1000
PSFILL
1000
Grayscale
1000
Grayscale
1070
    25
1002
}
  0
LINE
  5
120BC
  8
YODOROGO
 10
29829.604341291921
 20
1947.749496429288
 30
0.0
 11
29977.604341291921
 21
1947.749496429288
 31
0.0
1001
AUTOCAD_POSTSCRIPT_FIGURE
1002
{
1000
PSFILL
1000
Grayscale
1000
Grayscale
1070
    25
1002
}
  0
LINE
  5
120BD
  8
YODOROGO
 10
29977.604341291921
 20
1907.7494964292871
 30
0.0
 11
29829.604341291921
 21
1907.7494964292871
 31
0.0
1001
AUTOCAD_POSTSCRIPT_FIGURE
1002
{
1000
PSFILL
1000
Grayscale
1000
Grayscale
1070
    25
1002
}
  0
LINE
  5
120BE
  8
YODOROGO
 10
29829.604341291921
 20
1859.749496429288
 30
0.0
 11
29977.604341291921
 21
1859.749496429288
 31
0.0
1001
AUTOCAD_POSTSCRIPT_FIGURE
1002
{
1000
PSFILL
1000
Grayscale
1000
Grayscale
1070
    25
1002
}
  0
LINE
  5
120BF
  8
YODOROGO
 10
29977.604341291921
 20
1819.7494964292871
 30
0.0
 11
29829.604341291921
 21
1819.7494964292871
 31
0.0
1001
AUTOCAD_POSTSCRIPT_FIGURE
1002
{
1000
PSFILL
1000
Grayscale
1000
Grayscale
1070
    25
1002
}
  0
LINE
  5
120C0
  8
YODOROGO
 10
29921.60434129191
 20
1707.749496429288
 30
0.0
 11
29977.604341291921
 21
1707.749496429288
 31
0.0
1001
AUTOCAD_POSTSCRIPT_FIGURE
1002
{
1000
PSFILL
1000
Grayscale
1000
Grayscale
1070
    25
1002
}
  0
LINE
  5
120C1
  8
YODOROGO
 10
29737.604341291921
 20
1427.749496429288
 30
0.0
 11
29937.604341291932
 21
1481.3393349155101
 31
0.0
  0
LINE
  5
120C2
  8
YODOROGO
 10
29949.60434129191
 20
1707.749496429288
 30
0.0
 11
29885.604341291921
 21
1707.749496429288
 31
0.0
  0
ARC
  5
120C3
  8
YODOROGO
 10
30254.34774982791
 20
1807.864609233261
 30
0.0
 40
381.88686420564721
 50
213.96111677667841
 51
264.47872074317792
  0
ARC
  5
120C4
  8
YODOROGO
 10
30254.347749827921
 20
1807.864609233302
 30
0.0
 40
381.8868642056816
 50
208.14114420486601
 51
212.9210361185994
  0
LINE
  5
120C5
  8
YODOROGO
 10
29771.409872985321
 20
1556.807661346234
 30
0.0
 11
29933.78413250855
 21
1600.3157130570869
 31
0.0
  0
LINE
  5
120C6
  8
YODOROGO
 10
29737.604341291921
 20
1427.749496429288
 30
0.0
 11
29937.604341291932
 21
1481.3393349155101
 31
0.0
  0
LINE
  5
120C7
  8
YODOROGO
 10
29949.60434129191
 20
1707.749496429288
 30
0.0
 11
29885.604341291921
 21
1707.749496429288
 31
0.0
  0
ARC
  5
120C8
  8
YODOROGO
 10
30254.34774982791
 20
1807.864609233261
 30
0.0
 40
381.88686420564721
 50
213.96111677667841
 51
264.47872074317792
  0
LINE
  5
120C9
  8
YODOROGO
 10
28793.60434129191
 20
1819.7494964292871
 30
0.0
 11
28433.60434129191
 21
1819.7494964292871
 31
0.0
  0
LINE
  5
120CA
  8
YODOROGO
 10
28513.60434129191
 20
1427.749496429288
 30
0.0
 11
28793.60434129191
 21
1427.749496429288
 31
0.0
  0
LINE
  5
120CB
  8
YODOROGO
 10
28729.604341291921
 20
1923.7494964292871
 30
0.0
 11
28497.60434129191
 21
1923.7494964292871
 31
0.0
  0
LINE
  5
120CC
  8
YODOROGO
 10
28585.604341291921
 20
2027.749496429288
 30
0.0
 11
28657.604341291921
 21
2027.749496429288
 31
0.0
  0
LINE
  5
120CD
  8
YODOROGO
 10
28433.60434129191
 20
1707.749496429288
 30
0.0
 11
28433.60434129191
 21
1507.749496429288
 31
0.0
  0
LINE
  5
120CE
  8
YODOROGO
 10
28497.60434129191
 20
1563.7494964292871
 30
0.0
 11
28497.60434129191
 21
1707.749496429288
 31
0.0
  0
LINE
  5
120CF
  8
YODOROGO
 10
28585.604341291921
 20
1747.74949642929
 30
0.0
 11
28585.604341291921
 21
1547.749496429288
 31
0.0
  0
LINE
  5
120D0
  8
YODOROGO
 10
27857.604341291921
 20
1683.749496429288
 30
0.0
 11
27777.604341291921
 21
1619.9724140445701
 31
0.0
  0
LINE
  5
120D1
  8
YODOROGO
 10
27937.604341291921
 20
1619.9724140445701
 30
0.0
 11
27857.604341291921
 21
1683.749496429288
 31
0.0
  0
LINE
  5
120D2
  8
YODOROGO
 10
27857.604341291921
 20
1707.749496429288
 30
0.0
 11
27937.604341291921
 21
1643.9724140445701
 31
0.0
  0
LINE
  5
120D3
  8
YODOROGO
 10
27777.604341291921
 20
1643.9724140445701
 30
0.0
 11
27857.604341291921
 21
1707.749496429288
 31
0.0
  0
LINE
  5
120D4
  8
YODOROGO
 10
28040.913204016892
 20
1659.749496429288
 30
0.0
 11
28040.913204016892
 21
1683.7494964292871
 31
0.0
  0
LINE
  5
120D5
  8
YODOROGO
 10
27977.604341291921
 20
1683.7494964292871
 30
0.0
 11
27977.604341291921
 21
1667.749496429285
 31
0.0
  0
LINE
  5
120D6
  8
YODOROGO
 10
28098.135520230931
 20
1707.749496429288
 30
0.0
 11
28098.135520230931
 21
1655.5036372746561
 31
0.0
1001
AUTOCAD_POSTSCRIPT_FIGURE
1002
{
1000
PSFILL
1000
Grayscale
1000
Grayscale
1070
   100
1002
}
  0
LINE
  5
120D7
  8
YODOROGO
 10
28082.135520230921
 20
1655.5036372746561
 30
0.0
 11
28082.135520230921
 21
1707.749496429288
 31
0.0
1001
AUTOCAD_POSTSCRIPT_FIGURE
1002
{
1000
PSFILL
1000
Grayscale
1000
Grayscale
1070
   100
1002
}
  0
LINE
  5
120D8
  8
YODOROGO
 10
27809.604341291921
 20
1608.771904043258
 30
0.0
 11
27809.604341291921
 21
1632.771904043258
 31
0.0
  0
LINE
  5
120D9
  8
YODOROGO
 10
27905.604341291921
 20
1608.771904043258
 30
0.0
 11
27809.604341291921
 21
1608.771904043258
 31
0.0
  0
LINE
  5
120DA
  8
YODOROGO
 10
27905.604341291921
 20
1632.771904043258
 30
0.0
 11
27905.604341291921
 21
1608.771904043258
 31
0.0
  0
LINE
  5
120DB
  8
YODOROGO
 10
27809.604341291921
 20
1632.771904043258
 30
0.0
 11
27905.604341291921
 21
1632.771904043258
 31
0.0
  0
LINE
  5
120DC
  8
YODOROGO
 10
27824.509588915738
 20
1568.5028573704751
 30
0.0
 11
27785.604341291921
 21
1475.7494964292871
 31
0.0
1001
AUTOCAD_POSTSCRIPT_FIGURE
1002
{
1000
PSFILL
1000
Grayscale
1000
Grayscale
1070
   100
1002
}
  0
LINE
  5
120DD
  8
YODOROGO
 10
27777.604341291921
 20
1568.5028573704751
 30
0.0
 11
27824.509588915738
 21
1568.5028573704751
 31
0.0
1001
AUTOCAD_POSTSCRIPT_FIGURE
1002
{
1000
PSFILL
1000
Grayscale
1000
Grayscale
1070
   100
1002
}
  0
LINE
  5
120DE
  8
YODOROGO
 10
27777.604341291921
 20
1588.5028573704751
 30
0.0
 11
27777.604341291921
 21
1568.5028573704751
 31
0.0
1001
AUTOCAD_POSTSCRIPT_FIGURE
1002
{
1000
PSFILL
1000
Grayscale
1000
Grayscale
1070
   100
1002
}
  0
LINE
  5
120DF
  8
YODOROGO
 10
27937.604341291921
 20
1588.5028573704751
 30
0.0
 11
27777.604341291921
 21
1588.5028573704751
 31
0.0
1001
AUTOCAD_POSTSCRIPT_FIGURE
1002
{
1000
PSFILL
1000
Grayscale
1000
Grayscale
1070
   100
1002
}
  0
LINE
  5
120E0
  8
YODOROGO
 10
27937.604341291921
 20
1568.5028573704751
 30
0.0
 11
27937.604341291921
 21
1588.5028573704751
 31
0.0
1001
AUTOCAD_POSTSCRIPT_FIGURE
1002
{
1000
PSFILL
1000
Grayscale
1000
Grayscale
1070
   100
1002
}
  0
LINE
  5
120E1
  8
YODOROGO
 10
27844.509588915738
 20
1568.5028573704751
 30
0.0
 11
27937.604341291921
 21
1568.5028573704751
 31
0.0
1001
AUTOCAD_POSTSCRIPT_FIGURE
1002
{
1000
PSFILL
1000
Grayscale
1000
Grayscale
1070
   100
1002
}
  0
LINE
  5
120E2
  8
YODOROGO
 10
27815.546718284771
 20
1495.7494964292871
 30
0.0
 11
27844.509588915738
 21
1568.5028573704751
 31
0.0
1001
AUTOCAD_POSTSCRIPT_FIGURE
1002
{
1000
PSFILL
1000
Grayscale
1000
Grayscale
1070
   100
1002
}
  0
LINE
  5
120E3
  8
YODOROGO
 10
27902.054790808648
 20
1495.7494964292871
 30
0.0
 11
27815.546718284771
 21
1495.7494964292871
 31
0.0
1001
AUTOCAD_POSTSCRIPT_FIGURE
1002
{
1000
PSFILL
1000
Grayscale
1000
Grayscale
1070
   100
1002
}
  0
LINE
  5
120E4
  8
YODOROGO
 10
27885.065004790951
 20
1536.2338106976929
 30
0.0
 11
27902.054790808648
 21
1495.7494964292871
 31
0.0
1001
AUTOCAD_POSTSCRIPT_FIGURE
1002
{
1000
PSFILL
1000
Grayscale
1000
Grayscale
1070
   100
1002
}
  0
LINE
  5
120E5
  8
YODOROGO
 10
27901.065004790951
 20
1536.2338106976929
 30
0.0
 11
27885.065004790951
 21
1536.2338106976929
 31
0.0
1001
AUTOCAD_POSTSCRIPT_FIGURE
1002
{
1000
PSFILL
1000
Grayscale
1000
Grayscale
1070
   100
1002
}
  0
LINE
  5
120E6
  8
YODOROGO
 10
27929.604341291921
 20
1475.7494964292871
 30
0.0
 11
27901.065004790951
 21
1536.2338106976929
 31
0.0
1001
AUTOCAD_POSTSCRIPT_FIGURE
1002
{
1000
PSFILL
1000
Grayscale
1000
Grayscale
1070
   100
1002
}
  0
LINE
  5
120E7
  8
YODOROGO
 10
27785.604341291921
 20
1475.7494964292871
 30
0.0
 11
27929.604341291921
 21
1475.7494964292871
 31
0.0
1001
AUTOCAD_POSTSCRIPT_FIGURE
1002
{
1000
PSFILL
1000
Grayscale
1000
Grayscale
1070
   100
1002
}
  0
LINE
  5
120E8
  8
YODOROGO
 10
27777.604341291921
 20
1619.9724140445701
 30
0.0
 11
27777.604341291921
 21
1643.9724140445701
 31
0.0
  0
LINE
  5
120E9
  8
YODOROGO
 10
27937.604341291921
 20
1643.9724140445701
 30
0.0
 11
27937.604341291921
 21
1619.9724140445701
 31
0.0
  0
ARC
  5
120EA
  8
YODOROGO
 10
28225.940442146959
 20
1600.877765325326
 30
0.0
 40
175.9999999999998
 50
280.3644312771313
 51
3.5414836592180561
  0
ARC
  5
120EB
  8
YODOROGO
 10
28235.756030759301
 20
1633.5978069619041
 30
0.0
 40
111.9999999999982
 50
281.24905825041549
 51
348.75094174958321
  0
LINE
  5
120EC
  8
YODOROGO
 10
28257.604341291921
 20
1523.7494964292871
 30
0.0
 11
28257.604341291921
 21
1427.749496429288
 31
0.0
  0
LINE
  5
120ED
  8
YODOROGO
 10
28020.088903736909
 20
1610.650565061914
 30
0.0
 11
28040.913204016892
 21
1659.749496429288
 31
0.0
  0
LINE
  5
120EE
  8
YODOROGO
 10
28041.604341291921
 20
1583.120489948401
 30
0.0
 11
28020.088903736909
 21
1610.650565061914
 31
0.0
  0
LINE
  5
120EF
  8
YODOROGO
 10
28041.604341291921
 20
1563.120489948398
 30
0.0
 11
28041.604341291921
 21
1583.120489948401
 31
0.0
  0
LINE
  5
120F0
  8
YODOROGO
 10
28017.604341291921
 20
1585.2370637495301
 30
0.0
 11
28041.604341291921
 21
1563.120489948398
 31
0.0
  0
LINE
  5
120F1
  8
YODOROGO
 10
28017.604341291921
 20
1475.7494964292871
 30
0.0
 11
28017.604341291921
 21
1585.2370637495301
 31
0.0
  0
LINE
  5
120F2
  8
YODOROGO
 10
28001.604341291921
 20
1475.7494964292871
 30
0.0
 11
28017.604341291921
 21
1475.7494964292871
 31
0.0
  0
LINE
  5
120F3
  8
YODOROGO
 10
28001.604341291921
 20
1580.0053496897469
 30
0.0
 11
28001.604341291921
 21
1475.7494964292871
 31
0.0
  0
LINE
  5
120F4
  8
YODOROGO
 10
27977.604341291921
 20
1532.7680790334291
 30
0.0
 11
28001.604341291921
 21
1580.0053496897469
 31
0.0
  0
LINE
  5
120F5
  8
YODOROGO
 10
27977.604341291921
 20
1556.76807903343
 30
0.0
 11
27977.604341291921
 21
1532.7680790334291
 31
0.0
  0
LINE
  5
120F6
  8
YODOROGO
 10
28025.828774291349
 20
1667.749496429285
 30
0.0
 11
27977.604341291921
 21
1556.76807903343
 31
0.0
  0
LINE
  5
120F7
  8
YODOROGO
 10
27977.604341291921
 20
1667.749496429285
 30
0.0
 11
28025.828774291349
 21
1667.749496429285
 31
0.0
  0
LINE
  5
120F8
  8
YODOROGO
 10
28050.135520230899
 20
1655.5036372746561
 30
0.0
 11
28082.135520230921
 21
1655.5036372746561
 31
0.0
1001
AUTOCAD_POSTSCRIPT_FIGURE
1002
{
1000
PSFILL
1000
Grayscale
1000
Grayscale
1070
   100
1002
}
  0
LINE
  5
120F9
  8
YODOROGO
 10
28050.135520230899
 20
1631.5036372746561
 30
0.0
 11
28050.135520230899
 21
1655.5036372746561
 31
0.0
1001
AUTOCAD_POSTSCRIPT_FIGURE
1002
{
1000
PSFILL
1000
Grayscale
1000
Grayscale
1070
   100
1002
}
  0
LINE
  5
120FA
  8
YODOROGO
 10
28082.135520230921
 20
1631.5036372746561
 30
0.0
 11
28050.135520230899
 21
1631.5036372746561
 31
0.0
1001
AUTOCAD_POSTSCRIPT_FIGURE
1002
{
1000
PSFILL
1000
Grayscale
1000
Grayscale
1070
   100
1002
}
  0
LINE
  5
120FB
  8
YODOROGO
 10
28082.135520230921
 20
1499.749496429288
 30
0.0
 11
28082.135520230921
 21
1631.5036372746561
 31
0.0
1001
AUTOCAD_POSTSCRIPT_FIGURE
1002
{
1000
PSFILL
1000
Grayscale
1000
Grayscale
1070
   100
1002
}
  0
LINE
  5
120FC
  8
YODOROGO
 10
28050.135520230921
 20
1499.749496429288
 30
0.0
 11
28082.135520230921
 21
1499.749496429288
 31
0.0
1001
AUTOCAD_POSTSCRIPT_FIGURE
1002
{
1000
PSFILL
1000
Grayscale
1000
Grayscale
1070
   100
1002
}
  0
LINE
  5
120FD
  8
YODOROGO
 10
28050.135520230921
 20
1475.7494964292871
 30
0.0
 11
28050.135520230921
 21
1499.749496429288
 31
0.0
1001
AUTOCAD_POSTSCRIPT_FIGURE
1002
{
1000
PSFILL
1000
Grayscale
1000
Grayscale
1070
   100
1002
}
  0
LINE
  5
120FE
  8
YODOROGO
 10
28137.604341291921
 20
1475.7494964292871
 30
0.0
 11
28050.135520230921
 21
1475.7494964292871
 31
0.0
1001
AUTOCAD_POSTSCRIPT_FIGURE
1002
{
1000
PSFILL
1000
Grayscale
1000
Grayscale
1070
   100
1002
}
  0
LINE
  5
120FF
  8
YODOROGO
 10
28137.604341291921
 20
1499.749496429288
 30
0.0
 11
28137.604341291921
 21
1475.7494964292871
 31
0.0
1001
AUTOCAD_POSTSCRIPT_FIGURE
1002
{
1000
PSFILL
1000
Grayscale
1000
Grayscale
1070
   100
1002
}
  0
LINE
  5
12100
  8
YODOROGO
 10
28098.135520230931
 20
1499.749496429288
 30
0.0
 11
28137.604341291921
 21
1499.749496429288
 31
0.0
1001
AUTOCAD_POSTSCRIPT_FIGURE
1002
{
1000
PSFILL
1000
Grayscale
1000
Grayscale
1070
   100
1002
}
  0
LINE
  5
12101
  8
YODOROGO
 10
28098.135520230931
 20
1631.5036372746561
 30
0.0
 11
28098.135520230931
 21
1499.749496429288
 31
0.0
1001
AUTOCAD_POSTSCRIPT_FIGURE
1002
{
1000
PSFILL
1000
Grayscale
1000
Grayscale
1070
   100
1002
}
  0
LINE
  5
12102
  8
YODOROGO
 10
28137.604341291921
 20
1631.5036372746561
 30
0.0
 11
28098.135520230931
 21
1631.5036372746561
 31
0.0
1001
AUTOCAD_POSTSCRIPT_FIGURE
1002
{
1000
PSFILL
1000
Grayscale
1000
Grayscale
1070
   100
1002
}
  0
LINE
  5
12103
  8
YODOROGO
 10
28137.604341291921
 20
1655.5036372746561
 30
0.0
 11
28137.604341291921
 21
1631.5036372746561
 31
0.0
1001
AUTOCAD_POSTSCRIPT_FIGURE
1002
{
1000
PSFILL
1000
Grayscale
1000
Grayscale
1070
   100
1002
}
  0
LINE
  5
12104
  8
YODOROGO
 10
28098.135520230931
 20
1655.5036372746561
 30
0.0
 11
28137.604341291921
 21
1655.5036372746561
 31
0.0
1001
AUTOCAD_POSTSCRIPT_FIGURE
1002
{
1000
PSFILL
1000
Grayscale
1000
Grayscale
1070
   100
1002
}
  0
LINE
  5
12105
  8
YODOROGO
 10
28401.60434129191
 20
1667.749496429288
 30
0.0
 11
28345.604341291921
 21
1667.749496429288
 31
0.0
  0
LINE
  5
12106
  8
YODOROGO
 10
28401.60434129191
 20
1611.749496429288
 30
0.0
 11
28401.60434129191
 21
1667.749496429288
 31
0.0
  0
LINE
  5
12107
  8
YODOROGO
 10
28345.604341291921
 20
1667.749496429288
 30
0.0
 11
28345.604341291921
 21
1611.749496429288
 31
0.0
  0
ARC
  5
12108
  8
YODOROGO
 10
28513.60434129191
 20
1507.749496429288
 30
0.0
 40
80.0
 50
180.0
 51
270.0
  0
ARC
  5
12109
  8
YODOROGO
 10
28537.604341291921
 20
1563.7494964292871
 30
0.0
 40
40.0
 50
180.0
 51
270.0
  0
LINE
  5
1210A
  8
YODOROGO
 10
28561.604341291932
 20
1523.7494964292871
 30
0.0
 11
28537.604341291921
 21
1523.7494964292871
 31
0.0
  0
ARC
  5
1210B
  8
YODOROGO
 10
28561.604341291932
 20
1547.749496429285
 30
0.0
 40
23.999999999996358
 50
270.0
 51
0.0000000000054281
  0
LINE
  5
1210C
  8
YODOROGO
 10
27801.604341291921
 20
1890.786580793706
 30
0.0
 11
27777.604341291921
 21
1843.776747951672
 31
0.0
1001
AUTOCAD_POSTSCRIPT_FIGURE
1002
{
1000
PSFILL
1000
Grayscale
1000
Grayscale
1070
   100
1002
}
  0
LINE
  5
1210D
  8
YODOROGO
 10
27801.604341291921
 20
1747.749496429286
 30
0.0
 11
27801.604341291921
 21
1890.786580793706
 31
0.0
1001
AUTOCAD_POSTSCRIPT_FIGURE
1002
{
1000
PSFILL
1000
Grayscale
1000
Grayscale
1070
   100
1002
}
  0
LINE
  5
1210E
  8
YODOROGO
 10
27817.604341291921
 20
1747.749496429286
 30
0.0
 11
27801.604341291921
 21
1747.749496429286
 31
0.0
1001
AUTOCAD_POSTSCRIPT_FIGURE
1002
{
1000
PSFILL
1000
Grayscale
1000
Grayscale
1070
   100
1002
}
  0
LINE
  5
1210F
  8
YODOROGO
 10
27817.604341291921
 20
1893.7713320852661
 30
0.0
 11
27817.604341291921
 21
1747.749496429286
 31
0.0
1001
AUTOCAD_POSTSCRIPT_FIGURE
1002
{
1000
PSFILL
1000
Grayscale
1000
Grayscale
1070
   100
1002
}
  0
LINE
  5
12110
  8
YODOROGO
 10
27841.604341291921
 20
1867.6547582841361
 30
0.0
 11
27817.604341291921
 21
1893.7713320852661
 31
0.0
1001
AUTOCAD_POSTSCRIPT_FIGURE
1002
{
1000
PSFILL
1000
Grayscale
1000
Grayscale
1070
   100
1002
}
  0
LINE
  5
12111
  8
YODOROGO
 10
27841.604341291921
 20
1883.6547582841361
 30
0.0
 11
27841.604341291921
 21
1867.6547582841361
 31
0.0
1001
AUTOCAD_POSTSCRIPT_FIGURE
1002
{
1000
PSFILL
1000
Grayscale
1000
Grayscale
1070
   100
1002
}
  0
LINE
  5
12112
  8
YODOROGO
 10
27817.604341291921
 20
1917.7713320852649
 30
0.0
 11
27841.604341291921
 21
1883.6547582841361
 31
0.0
1001
AUTOCAD_POSTSCRIPT_FIGURE
1002
{
1000
PSFILL
1000
Grayscale
1000
Grayscale
1070
   100
1002
}
  0
LINE
  5
12113
  8
YODOROGO
 10
27817.604341291921
 20
1939.749496429288
 30
0.0
 11
27817.604341291921
 21
1917.7713320852649
 31
0.0
1001
AUTOCAD_POSTSCRIPT_FIGURE
1002
{
1000
PSFILL
1000
Grayscale
1000
Grayscale
1070
   100
1002
}
  0
LINE
  5
12114
  8
YODOROGO
 10
27889.604341291921
 20
1939.749496429288
 30
0.0
 11
27817.604341291921
 21
1939.749496429288
 31
0.0
1001
AUTOCAD_POSTSCRIPT_FIGURE
1002
{
1000
PSFILL
1000
Grayscale
1000
Grayscale
1070
   100
1002
}
  0
LINE
  5
12115
  8
YODOROGO
 10
27889.604341291921
 20
1900.5683489363
 30
0.0
 11
27889.604341291921
 21
1939.749496429288
 31
0.0
1001
AUTOCAD_POSTSCRIPT_FIGURE
1002
{
1000
PSFILL
1000
Grayscale
1000
Grayscale
1070
   100
1002
}
  0
LINE
  5
12116
  8
YODOROGO
 10
27857.604341291921
 20
1900.5683489363
 30
0.0
 11
27889.604341291921
 21
1900.5683489363
 31
0.0
1001
AUTOCAD_POSTSCRIPT_FIGURE
1002
{
1000
PSFILL
1000
Grayscale
1000
Grayscale
1070
   100
1002
}
  0
LINE
  5
12117
  8
YODOROGO
 10
27857.604341291921
 20
1884.568348936298
 30
0.0
 11
27857.604341291921
 21
1900.5683489363
 31
0.0
1001
AUTOCAD_POSTSCRIPT_FIGURE
1002
{
1000
PSFILL
1000
Grayscale
1000
Grayscale
1070
   100
1002
}
  0
LINE
  5
12118
  8
YODOROGO
 10
27889.604341291921
 20
1884.568348936298
 30
0.0
 11
27857.604341291921
 21
1884.568348936298
 31
0.0
1001
AUTOCAD_POSTSCRIPT_FIGURE
1002
{
1000
PSFILL
1000
Grayscale
1000
Grayscale
1070
   100
1002
}
  0
LINE
  5
12119
  8
YODOROGO
 10
27889.604341291921
 20
1879.6191779644371
 30
0.0
 11
27889.604341291921
 21
1884.568348936298
 31
0.0
1001
AUTOCAD_POSTSCRIPT_FIGURE
1002
{
1000
PSFILL
1000
Grayscale
1000
Grayscale
1070
   100
1002
}
  0
LINE
  5
1211A
  8
YODOROGO
 10
27849.604341291921
 20
1812.974981161417
 30
0.0
 11
27889.604341291921
 21
1879.6191779644371
 31
0.0
1001
AUTOCAD_POSTSCRIPT_FIGURE
1002
{
1000
PSFILL
1000
Grayscale
1000
Grayscale
1070
   100
1002
}
  0
LINE
  5
1211B
  8
YODOROGO
 10
27849.604341291921
 20
1796.9749811614161
 30
0.0
 11
27849.604341291921
 21
1812.974981161417
 31
0.0
1001
AUTOCAD_POSTSCRIPT_FIGURE
1002
{
1000
PSFILL
1000
Grayscale
1000
Grayscale
1070
   100
1002
}
  0
LINE
  5
1211C
  8
YODOROGO
 10
27889.604341291921
 20
1847.6191779644359
 30
0.0
 11
27849.604341291921
 21
1796.9749811614161
 31
0.0
1001
AUTOCAD_POSTSCRIPT_FIGURE
1002
{
1000
PSFILL
1000
Grayscale
1000
Grayscale
1070
   100
1002
}
  0
LINE
  5
1211D
  8
YODOROGO
 10
27889.604341291921
 20
1747.749496429286
 30
0.0
 11
27889.604341291921
 21
1847.6191779644359
 31
0.0
1001
AUTOCAD_POSTSCRIPT_FIGURE
1002
{
1000
PSFILL
1000
Grayscale
1000
Grayscale
1070
   100
1002
}
  0
LINE
  5
1211E
  8
YODOROGO
 10
27905.604341291921
 20
1747.749496429286
 30
0.0
 11
27889.604341291921
 21
1747.749496429286
 31
0.0
1001
AUTOCAD_POSTSCRIPT_FIGURE
1002
{
1000
PSFILL
1000
Grayscale
1000
Grayscale
1070
   100
1002
}
  0
LINE
  5
1211F
  8
YODOROGO
 10
27905.604341291921
 20
1849.409012158806
 30
0.0
 11
27905.604341291921
 21
1747.749496429286
 31
0.0
1001
AUTOCAD_POSTSCRIPT_FIGURE
1002
{
1000
PSFILL
1000
Grayscale
1000
Grayscale
1070
   100
1002
}
  0
LINE
  5
12120
  8
YODOROGO
 10
27937.604341291921
 20
1796.9749811614161
 30
0.0
 11
27905.604341291921
 21
1849.409012158806
 31
0.0
1001
AUTOCAD_POSTSCRIPT_FIGURE
1002
{
1000
PSFILL
1000
Grayscale
1000
Grayscale
1070
   100
1002
}
  0
LINE
  5
12121
  8
YODOROGO
 10
27937.604341291921
 20
1812.974981161417
 30
0.0
 11
27937.604341291921
 21
1796.9749811614161
 31
0.0
1001
AUTOCAD_POSTSCRIPT_FIGURE
1002
{
1000
PSFILL
1000
Grayscale
1000
Grayscale
1070
   100
1002
}
  0
LINE
  5
12122
  8
YODOROGO
 10
27905.604341291921
 20
1881.4090121588081
 30
0.0
 11
27937.604341291921
 21
1812.974981161417
 31
0.0
1001
AUTOCAD_POSTSCRIPT_FIGURE
1002
{
1000
PSFILL
1000
Grayscale
1000
Grayscale
1070
   100
1002
}
  0
LINE
  5
12123
  8
YODOROGO
 10
27905.604341291921
 20
1884.5683489363
 30
0.0
 11
27905.604341291921
 21
1881.4090121588081
 31
0.0
1001
AUTOCAD_POSTSCRIPT_FIGURE
1002
{
1000
PSFILL
1000
Grayscale
1000
Grayscale
1070
   100
1002
}
  0
LINE
  5
12124
  8
YODOROGO
 10
27937.604341291921
 20
1884.568348936298
 30
0.0
 11
27905.604341291921
 21
1884.5683489363
 31
0.0
1001
AUTOCAD_POSTSCRIPT_FIGURE
1002
{
1000
PSFILL
1000
Grayscale
1000
Grayscale
1070
   100
1002
}
  0
LINE
  5
12125
  8
YODOROGO
 10
27937.604341291921
 20
1900.5683489363
 30
0.0
 11
27937.604341291921
 21
1884.568348936298
 31
0.0
1001
AUTOCAD_POSTSCRIPT_FIGURE
1002
{
1000
PSFILL
1000
Grayscale
1000
Grayscale
1070
   100
1002
}
  0
LINE
  5
12126
  8
YODOROGO
 10
27905.604341291921
 20
1900.5683489363
 30
0.0
 11
27937.604341291921
 21
1900.5683489363
 31
0.0
1001
AUTOCAD_POSTSCRIPT_FIGURE
1002
{
1000
PSFILL
1000
Grayscale
1000
Grayscale
1070
   100
1002
}
  0
LINE
  5
12127
  8
YODOROGO
 10
27905.604341291921
 20
1939.749496429288
 30
0.0
 11
27905.604341291921
 21
1900.5683489363
 31
0.0
1001
AUTOCAD_POSTSCRIPT_FIGURE
1002
{
1000
PSFILL
1000
Grayscale
1000
Grayscale
1070
   100
1002
}
  0
LINE
  5
12128
  8
YODOROGO
 10
27937.604341291921
 20
1939.749496429288
 30
0.0
 11
27905.604341291921
 21
1939.749496429288
 31
0.0
1001
AUTOCAD_POSTSCRIPT_FIGURE
1002
{
1000
PSFILL
1000
Grayscale
1000
Grayscale
1070
   100
1002
}
  0
LINE
  5
12129
  8
YODOROGO
 10
27937.604341291921
 20
1955.7494964292871
 30
0.0
 11
27937.604341291921
 21
1939.749496429288
 31
0.0
1001
AUTOCAD_POSTSCRIPT_FIGURE
1002
{
1000
PSFILL
1000
Grayscale
1000
Grayscale
1070
   100
1002
}
  0
LINE
  5
1212A
  8
YODOROGO
 10
27905.604341291921
 20
1955.7494964292871
 30
0.0
 11
27937.604341291921
 21
1955.7494964292871
 31
0.0
1001
AUTOCAD_POSTSCRIPT_FIGURE
1002
{
1000
PSFILL
1000
Grayscale
1000
Grayscale
1070
   100
1002
}
  0
LINE
  5
1212B
  8
YODOROGO
 10
27905.604341291921
 20
1979.749496429288
 30
0.0
 11
27905.604341291921
 21
1955.7494964292871
 31
0.0
1001
AUTOCAD_POSTSCRIPT_FIGURE
1002
{
1000
PSFILL
1000
Grayscale
1000
Grayscale
1070
   100
1002
}
  0
LINE
  5
1212C
  8
YODOROGO
 10
27889.604341291921
 20
1979.749496429288
 30
0.0
 11
27905.604341291921
 21
1979.749496429288
 31
0.0
1001
AUTOCAD_POSTSCRIPT_FIGURE
1002
{
1000
PSFILL
1000
Grayscale
1000
Grayscale
1070
   100
1002
}
  0
LINE
  5
1212D
  8
YODOROGO
 10
27889.604341291921
 20
1955.7494964292871
 30
0.0
 11
27889.604341291921
 21
1979.749496429288
 31
0.0
1001
AUTOCAD_POSTSCRIPT_FIGURE
1002
{
1000
PSFILL
1000
Grayscale
1000
Grayscale
1070
   100
1002
}
  0
LINE
  5
1212E
  8
YODOROGO
 10
27865.604341291921
 20
1955.7494964292871
 30
0.0
 11
27889.604341291921
 21
1955.7494964292871
 31
0.0
1001
AUTOCAD_POSTSCRIPT_FIGURE
1002
{
1000
PSFILL
1000
Grayscale
1000
Grayscale
1070
   100
1002
}
  0
LINE
  5
1212F
  8
YODOROGO
 10
27865.604341291921
 20
1979.749496429288
 30
0.0
 11
27865.604341291921
 21
1955.7494964292871
 31
0.0
1001
AUTOCAD_POSTSCRIPT_FIGURE
1002
{
1000
PSFILL
1000
Grayscale
1000
Grayscale
1070
   100
1002
}
  0
LINE
  5
12130
  8
YODOROGO
 10
27849.604341291921
 20
1979.749496429288
 30
0.0
 11
27865.604341291921
 21
1979.749496429288
 31
0.0
1001
AUTOCAD_POSTSCRIPT_FIGURE
1002
{
1000
PSFILL
1000
Grayscale
1000
Grayscale
1070
   100
1002
}
  0
LINE
  5
12131
  8
YODOROGO
 10
27849.604341291921
 20
1955.7494964292871
 30
0.0
 11
27849.604341291921
 21
1979.749496429288
 31
0.0
1001
AUTOCAD_POSTSCRIPT_FIGURE
1002
{
1000
PSFILL
1000
Grayscale
1000
Grayscale
1070
   100
1002
}
  0
LINE
  5
12132
  8
YODOROGO
 10
27817.604341291921
 20
1955.7494964292871
 30
0.0
 11
27849.604341291921
 21
1955.7494964292871
 31
0.0
1001
AUTOCAD_POSTSCRIPT_FIGURE
1002
{
1000
PSFILL
1000
Grayscale
1000
Grayscale
1070
   100
1002
}
  0
LINE
  5
12133
  8
YODOROGO
 10
27817.604341291921
 20
1979.749496429288
 30
0.0
 11
27817.604341291921
 21
1955.7494964292871
 31
0.0
1001
AUTOCAD_POSTSCRIPT_FIGURE
1002
{
1000
PSFILL
1000
Grayscale
1000
Grayscale
1070
   100
1002
}
  0
LINE
  5
12134
  8
YODOROGO
 10
27801.604341291921
 20
1979.749496429288
 30
0.0
 11
27817.604341291921
 21
1979.749496429288
 31
0.0
1001
AUTOCAD_POSTSCRIPT_FIGURE
1002
{
1000
PSFILL
1000
Grayscale
1000
Grayscale
1070
   100
1002
}
  0
LINE
  5
12135
  8
YODOROGO
 10
27801.604341291921
 20
1955.7494964292871
 30
0.0
 11
27801.604341291921
 21
1979.749496429288
 31
0.0
1001
AUTOCAD_POSTSCRIPT_FIGURE
1002
{
1000
PSFILL
1000
Grayscale
1000
Grayscale
1070
   100
1002
}
  0
LINE
  5
12136
  8
YODOROGO
 10
27777.604341291921
 20
1955.7494964292871
 30
0.0
 11
27801.604341291921
 21
1955.7494964292871
 31
0.0
1001
AUTOCAD_POSTSCRIPT_FIGURE
1002
{
1000
PSFILL
1000
Grayscale
1000
Grayscale
1070
   100
1002
}
  0
LINE
  5
12137
  8
YODOROGO
 10
27777.604341291921
 20
1939.749496429288
 30
0.0
 11
27777.604341291921
 21
1955.7494964292871
 31
0.0
1001
AUTOCAD_POSTSCRIPT_FIGURE
1002
{
1000
PSFILL
1000
Grayscale
1000
Grayscale
1070
   100
1002
}
  0
LINE
  5
12138
  8
YODOROGO
 10
27801.604341291921
 20
1939.749496429288
 30
0.0
 11
27777.604341291921
 21
1939.749496429288
 31
0.0
1001
AUTOCAD_POSTSCRIPT_FIGURE
1002
{
1000
PSFILL
1000
Grayscale
1000
Grayscale
1070
   100
1002
}
  0
LINE
  5
12139
  8
YODOROGO
 10
27801.604341291921
 20
1914.7865807937051
 30
0.0
 11
27801.604341291921
 21
1939.749496429288
 31
0.0
1001
AUTOCAD_POSTSCRIPT_FIGURE
1002
{
1000
PSFILL
1000
Grayscale
1000
Grayscale
1070
   100
1002
}
  0
LINE
  5
1213A
  8
YODOROGO
 10
27777.604341291921
 20
1859.776747951671
 30
0.0
 11
27801.604341291921
 21
1914.7865807937051
 31
0.0
1001
AUTOCAD_POSTSCRIPT_FIGURE
1002
{
1000
PSFILL
1000
Grayscale
1000
Grayscale
1070
   100
1002
}
  0
LINE
  5
1213B
  8
YODOROGO
 10
27777.604341291921
 20
1843.776747951672
 30
0.0
 11
27777.604341291921
 21
1859.776747951671
 31
0.0
1001
AUTOCAD_POSTSCRIPT_FIGURE
1002
{
1000
PSFILL
1000
Grayscale
1000
Grayscale
1070
   100
1002
}
  0
LINE
  5
1213C
  8
YODOROGO
 10
28257.604341291921
 20
1867.7494964292871
 30
0.0
 11
28401.60434129191
 21
1824.877625640306
 31
0.0
1001
AUTOCAD_POSTSCRIPT_FIGURE
1002
{
1000
PSFILL
1000
Grayscale
1000
Grayscale
1070
   100
1002
}
  0
LINE
  5
1213D
  8
YODOROGO
 10
28401.60434129191
 20
1752.877625640306
 30
0.0
 11
28257.604341291921
 21
1795.7494964292871
 31
0.0
1001
AUTOCAD_POSTSCRIPT_FIGURE
1002
{
1000
PSFILL
1000
Grayscale
1000
Grayscale
1070
   100
1002
}
  0
LINE
  5
1213E
  8
YODOROGO
 10
28401.60434129191
 20
1984.877625640306
 30
0.0
 11
28257.604341291921
 21
2027.749496429288
 31
0.0
1001
AUTOCAD_POSTSCRIPT_FIGURE
1002
{
1000
PSFILL
1000
Grayscale
1000
Grayscale
1070
   100
1002
}
  0
LINE
  5
1213F
  8
YODOROGO
 10
28257.604341291921
 20
1959.749496429288
 30
0.0
 11
28401.60434129191
 21
1916.8776256403071
 31
0.0
1001
AUTOCAD_POSTSCRIPT_FIGURE
1002
{
1000
PSFILL
1000
Grayscale
1000
Grayscale
1070
   100
1002
}
  0
LINE
  5
12140
  8
YODOROGO
 10
28257.604341291921
 20
1795.7494964292871
 30
0.0
 11
28257.604341291921
 21
1867.7494964292871
 31
0.0
1001
AUTOCAD_POSTSCRIPT_FIGURE
1002
{
1000
PSFILL
1000
Grayscale
1000
Grayscale
1070
   100
1002
}
  0
LINE
  5
12141
  8
YODOROGO
 10
28257.604341291921
 20
2027.749496429288
 30
0.0
 11
28257.604341291921
 21
1959.749496429288
 31
0.0
1001
AUTOCAD_POSTSCRIPT_FIGURE
1002
{
1000
PSFILL
1000
Grayscale
1000
Grayscale
1070
   100
1002
}
  0
LINE
  5
12142
  8
YODOROGO
 10
28080.236320206739
 20
1939.749496429288
 30
0.0
 11
28129.60434129191
 21
1747.749496429286
 31
0.0
1001
AUTOCAD_POSTSCRIPT_FIGURE
1002
{
1000
PSFILL
1000
Grayscale
1000
Grayscale
1070
   100
1002
}
  0
LINE
  5
12143
  8
YODOROGO
 10
27977.604341291921
 20
1939.749496429288
 30
0.0
 11
28080.236320206739
 21
1939.749496429288
 31
0.0
1001
AUTOCAD_POSTSCRIPT_FIGURE
1002
{
1000
PSFILL
1000
Grayscale
1000
Grayscale
1070
   100
1002
}
  0
LINE
  5
12144
  8
YODOROGO
 10
27977.604341291921
 20
1955.7494964292871
 30
0.0
 11
27977.604341291921
 21
1939.749496429288
 31
0.0
1001
AUTOCAD_POSTSCRIPT_FIGURE
1002
{
1000
PSFILL
1000
Grayscale
1000
Grayscale
1070
   100
1002
}
  0
LINE
  5
12145
  8
YODOROGO
 10
28076.60687851991
 20
1955.7494964292871
 30
0.0
 11
27977.604341291921
 21
1955.7494964292871
 31
0.0
1001
AUTOCAD_POSTSCRIPT_FIGURE
1002
{
1000
PSFILL
1000
Grayscale
1000
Grayscale
1070
   100
1002
}
  0
LINE
  5
12146
  8
YODOROGO
 10
28071.162715989711
 20
1979.749496429288
 30
0.0
 11
28076.60687851991
 21
1955.7494964292871
 31
0.0
1001
AUTOCAD_POSTSCRIPT_FIGURE
1002
{
1000
PSFILL
1000
Grayscale
1000
Grayscale
1070
   100
1002
}
  0
LINE
  5
12147
  8
YODOROGO
 10
28091.162715989711
 20
1979.749496429288
 30
0.0
 11
28071.162715989711
 21
1979.749496429288
 31
0.0
1001
AUTOCAD_POSTSCRIPT_FIGURE
1002
{
1000
PSFILL
1000
Grayscale
1000
Grayscale
1070
   100
1002
}
  0
LINE
  5
12148
  8
YODOROGO
 10
28095.806878519939
 20
1955.7494964292871
 30
0.0
 11
28091.162715989711
 21
1979.749496429288
 31
0.0
1001
AUTOCAD_POSTSCRIPT_FIGURE
1002
{
1000
PSFILL
1000
Grayscale
1000
Grayscale
1070
   100
1002
}
  0
LINE
  5
12149
  8
YODOROGO
 10
28121.604341291921
 20
1955.7494964292871
 30
0.0
 11
28095.806878519939
 21
1955.7494964292871
 31
0.0
1001
AUTOCAD_POSTSCRIPT_FIGURE
1002
{
1000
PSFILL
1000
Grayscale
1000
Grayscale
1070
   100
1002
}
  0
LINE
  5
1214A
  8
YODOROGO
 10
28121.604341291921
 20
1979.749496429288
 30
0.0
 11
28121.604341291921
 21
1955.7494964292871
 31
0.0
1001
AUTOCAD_POSTSCRIPT_FIGURE
1002
{
1000
PSFILL
1000
Grayscale
1000
Grayscale
1070
   100
1002
}
  0
LINE
  5
1214B
  8
YODOROGO
 10
28137.604341291921
 20
1979.749496429288
 30
0.0
 11
28121.604341291921
 21
1979.749496429288
 31
0.0
1001
AUTOCAD_POSTSCRIPT_FIGURE
1002
{
1000
PSFILL
1000
Grayscale
1000
Grayscale
1070
   100
1002
}
  0
LINE
  5
1214C
  8
YODOROGO
 10
28137.604341291921
 20
1955.7494964292871
 30
0.0
 11
28137.604341291921
 21
1979.749496429288
 31
0.0
1001
AUTOCAD_POSTSCRIPT_FIGURE
1002
{
1000
PSFILL
1000
Grayscale
1000
Grayscale
1070
   100
1002
}
  0
LINE
  5
1214D
  8
YODOROGO
 10
28137.604341291921
 20
1939.749496429288
 30
0.0
 11
28137.604341291921
 21
1955.7494964292871
 31
0.0
1001
AUTOCAD_POSTSCRIPT_FIGURE
1002
{
1000
PSFILL
1000
Grayscale
1000
Grayscale
1070
   100
1002
}
  0
LINE
  5
1214E
  8
YODOROGO
 10
28098.902986873411
 20
1939.749496429288
 30
0.0
 11
28137.604341291921
 21
1939.749496429288
 31
0.0
1001
AUTOCAD_POSTSCRIPT_FIGURE
1002
{
1000
PSFILL
1000
Grayscale
1000
Grayscale
1070
   100
1002
}
  0
LINE
  5
1214F
  8
YODOROGO
 10
28137.604341291921
 20
1747.749496429286
 30
0.0
 11
28098.902986873411
 21
1939.749496429288
 31
0.0
1001
AUTOCAD_POSTSCRIPT_FIGURE
1002
{
1000
PSFILL
1000
Grayscale
1000
Grayscale
1070
   100
1002
}
  0
LINE
  5
12150
  8
YODOROGO
 10
28129.60434129191
 20
1747.749496429286
 30
0.0
 11
28137.604341291921
 21
1747.749496429286
 31
0.0
1001
AUTOCAD_POSTSCRIPT_FIGURE
1002
{
1000
PSFILL
1000
Grayscale
1000
Grayscale
1070
   100
1002
}
  0
LINE
  5
12151
  8
YODOROGO
 10
28078.06921993379
 20
1775.7407762987939
 30
0.0
 11
27977.604341291921
 21
1747.749496429286
 31
0.0
  0
LINE
  5
12152
  8
YODOROGO
 10
28078.06921993379
 20
1798.6689795290731
 30
0.0
 11
28078.06921993379
 21
1775.7407762987939
 31
0.0
  0
LINE
  5
12153
  8
YODOROGO
 10
28033.83678061287
 20
1786.816933133767
 30
0.0
 11
28078.06921993379
 21
1798.6689795290731
 31
0.0
  0
LINE
  5
12154
  8
YODOROGO
 10
28033.83678061287
 20
1872.5683489362989
 30
0.0
 11
28033.83678061287
 21
1786.816933133767
 31
0.0
  0
LINE
  5
12155
  8
YODOROGO
 10
28078.06921993379
 20
1872.5683489362989
 30
0.0
 11
28033.83678061287
 21
1872.5683489362989
 31
0.0
  0
LINE
  5
12156
  8
YODOROGO
 10
28078.06921993379
 20
1892.568348936298
 30
0.0
 11
28078.06921993379
 21
1872.5683489362989
 31
0.0
  0
LINE
  5
12157
  8
YODOROGO
 10
27977.604341291921
 20
1892.568348936298
 30
0.0
 11
28078.06921993379
 21
1892.568348936298
 31
0.0
  0
LINE
  5
12158
  8
YODOROGO
 10
27977.604341291921
 20
1872.5683489362989
 30
0.0
 11
27977.604341291921
 21
1892.568348936298
 31
0.0
  0
LINE
  5
12159
  8
YODOROGO
 10
28021.836780612852
 20
1872.5683489362989
 30
0.0
 11
27977.604341291921
 21
1872.5683489362989
 31
0.0
  0
LINE
  5
1215A
  8
YODOROGO
 10
28021.836780612852
 20
1784.673339594317
 30
0.0
 11
28021.836780612852
 21
1872.5683489362989
 31
0.0
  0
LINE
  5
1215B
  8
YODOROGO
 10
27977.604341291921
 20
1771.749496429286
 30
0.0
 11
28021.836780612852
 21
1784.673339594317
 31
0.0
  0
LINE
  5
1215C
  8
YODOROGO
 10
27977.604341291921
 20
1747.749496429286
 30
0.0
 11
27977.604341291921
 21
1771.749496429286
 31
0.0
  0
LINE
  5
1215D
  8
YODOROGO
 10
28001.604341291921
 20
1707.749496429288
 30
0.0
 11
28001.604341291921
 21
1683.7494964292871
 31
0.0
  0
LINE
  5
1215E
  8
YODOROGO
 10
28017.604341291921
 20
1707.749496429288
 30
0.0
 11
28001.604341291921
 21
1707.749496429288
 31
0.0
  0
LINE
  5
1215F
  8
YODOROGO
 10
28017.604341291921
 20
1683.7494964292871
 30
0.0
 11
28017.604341291921
 21
1707.749496429288
 31
0.0
  0
LINE
  5
12160
  8
YODOROGO
 10
28040.913204016892
 20
1683.7494964292871
 30
0.0
 11
28017.604341291921
 21
1683.7494964292871
 31
0.0
  0
LINE
  5
12161
  8
YODOROGO
 10
28001.604341291921
 20
1683.7494964292871
 30
0.0
 11
27977.604341291921
 21
1683.7494964292871
 31
0.0
  0
LINE
  5
12162
  8
YODOROGO
 10
28082.135520230921
 20
1707.749496429288
 30
0.0
 11
28098.135520230931
 21
1707.749496429288
 31
0.0
1001
AUTOCAD_POSTSCRIPT_FIGURE
1002
{
1000
PSFILL
1000
Grayscale
1000
Grayscale
1070
   100
1002
}
  0
LINE
  5
12163
  8
YODOROGO
 10
28401.60434129191
 20
1824.877625640306
 30
0.0
 11
28401.60434129191
 21
1752.877625640306
 31
0.0
1001
AUTOCAD_POSTSCRIPT_FIGURE
1002
{
1000
PSFILL
1000
Grayscale
1000
Grayscale
1070
   100
1002
}
  0
LINE
  5
12164
  8
YODOROGO
 10
28401.60434129191
 20
1916.8776256403071
 30
0.0
 11
28401.60434129191
 21
1984.877625640306
 31
0.0
1001
AUTOCAD_POSTSCRIPT_FIGURE
1002
{
1000
PSFILL
1000
Grayscale
1000
Grayscale
1070
   100
1002
}
  0
LINE
  5
12165
  8
YODOROGO
 10
28433.60434129191
 20
1819.7494964292871
 30
0.0
 11
28433.60434129191
 21
1747.74949642929
 31
0.0
  0
LINE
  5
12166
  8
YODOROGO
 10
28497.60434129191
 20
1707.749496429288
 30
0.0
 11
28433.60434129191
 21
1707.749496429288
 31
0.0
  0
LINE
  5
12167
  8
YODOROGO
 10
28433.60434129191
 20
1747.74949642929
 30
0.0
 11
28585.604341291921
 21
1747.74949642929
 31
0.0
  0
LINE
  5
12168
  8
YODOROGO
 10
28497.60434129191
 20
1867.7494964292871
 30
0.0
 11
28433.60434129191
 21
1867.7494964292871
 31
0.0
  0
LINE
  5
12169
  8
YODOROGO
 10
28497.60434129191
 20
1923.7494964292871
 30
0.0
 11
28497.60434129191
 21
1867.7494964292871
 31
0.0
  0
LINE
  5
1216A
  8
YODOROGO
 10
28585.604341291921
 20
1987.7494964292871
 30
0.0
 11
28585.604341291921
 21
2027.749496429288
 31
0.0
  0
LINE
  5
1216B
  8
YODOROGO
 10
28433.60434129191
 20
1987.7494964292871
 30
0.0
 11
28585.604341291921
 21
1987.7494964292871
 31
0.0
  0
LINE
  5
1216C
  8
YODOROGO
 10
28433.60434129191
 20
1867.7494964292871
 30
0.0
 11
28433.60434129191
 21
1987.7494964292871
 31
0.0
  0
LINE
  5
1216D
  8
YODOROGO
 10
29001.60434129191
 20
2027.749496429288
 30
0.0
 11
29001.60434129191
 21
1619.749496429288
 31
0.0
  0
LINE
  5
1216E
  8
YODOROGO
 10
29073.604341291921
 20
1579.749496429288
 30
0.0
 11
29073.604341291921
 21
2027.749496429288
 31
0.0
  0
LINE
  5
1216F
  8
YODOROGO
 10
29261.604341291921
 20
1491.749496429286
 30
0.0
 11
29261.604341291921
 21
2007.749496429288
 31
0.0
  0
LINE
  5
12170
  8
YODOROGO
 10
29197.604341291921
 20
2007.749496429288
 30
0.0
 11
29197.604341291921
 21
1491.749496429286
 31
0.0
  0
LINE
  5
12171
  8
YODOROGO
 10
29385.604341291921
 20
2027.749496429288
 30
0.0
 11
29385.604341291921
 21
1427.749496429288
 31
0.0
  0
LINE
  5
12172
  8
YODOROGO
 10
29457.604341291921
 20
1427.749496429288
 30
0.0
 11
29457.604341291921
 21
2027.749496429288
 31
0.0
  0
LINE
  5
12173
  8
YODOROGO
 10
28657.604341291921
 20
1667.749496429288
 30
0.0
 11
28657.604341291921
 21
1747.74949642929
 31
0.0
  0
LINE
  5
12174
  8
YODOROGO
 10
29885.604341291921
 20
1707.749496429288
 30
0.0
 11
29885.604341291921
 21
1667.749496429288
 31
0.0
  0
LINE
  5
12175
  8
YODOROGO
 10
29885.604341291921
 20
1707.749496429288
 30
0.0
 11
29885.604341291921
 21
1667.749496429288
 31
0.0
  0
ARC
  5
12176
  8
YODOROGO
 10
28906.911576186842
 20
1618.217864442272
 30
0.0
 40
94.705151178741644
 50
274.05244162907098
 51
0.9266642149310712
  0
ARC
  5
12177
  8
YODOROGO
 10
28909.186170719819
 20
1592.61072861044
 30
0.0
 40
164.92042356085511
 50
271.5351210653775
 51
355.52727750585052
  0
LINE
  5
12178
  8
YODOROGO
 10
28913.604341291921
 20
1523.7494964292871
 30
0.0
 11
28913.604341291921
 21
1427.749496429288
 31
0.0
  0
LINE
  5
12179
  8
YODOROGO
 10
28793.60434129191
 20
1667.749496429288
 30
0.0
 11
28657.604341291921
 21
1667.749496429288
 31
0.0
  0
LINE
  5
1217A
  8
YODOROGO
 10
28793.60434129191
 20
1603.7494964292871
 30
0.0
 11
28793.60434129191
 21
1667.749496429288
 31
0.0
  0
LINE
  5
1217B
  8
YODOROGO
 10
28657.604341291921
 20
1603.7494964292871
 30
0.0
 11
28793.60434129191
 21
1603.7494964292871
 31
0.0
  0
LINE
  5
1217C
  8
YODOROGO
 10
28657.604341291921
 20
1523.7494964292871
 30
0.0
 11
28657.604341291921
 21
1603.7494964292871
 31
0.0
  0
LINE
  5
1217D
  8
YODOROGO
 10
28793.60434129191
 20
1523.7494964292871
 30
0.0
 11
28657.604341291921
 21
1523.7494964292871
 31
0.0
  0
LINE
  5
1217E
  8
YODOROGO
 10
28793.60434129191
 20
1427.749496429288
 30
0.0
 11
28793.60434129191
 21
1523.7494964292871
 31
0.0
  0
LINE
  5
1217F
  8
YODOROGO
 10
29197.604341291921
 20
1491.749496429286
 30
0.0
 11
29261.604341291921
 21
1491.749496429286
 31
0.0
  0
LINE
  5
12180
  8
YODOROGO
 10
29385.604341291921
 20
1427.749496429288
 30
0.0
 11
29457.604341291921
 21
1427.749496429288
 31
0.0
  0
LINE
  5
12181
  8
YODOROGO
 10
29737.604341291921
 20
1528.4414521705639
 30
0.0
 11
29737.604341291921
 21
1427.749496429288
 31
0.0
  0
LINE
  5
12182
  8
YODOROGO
 10
29617.604341291921
 20
1427.749496429288
 30
0.0
 11
29737.604341291921
 21
1528.4414521705639
 31
0.0
  0
LINE
  5
12183
  8
YODOROGO
 10
29617.604341291921
 20
1547.749496429288
 30
0.0
 11
29617.604341291921
 21
1427.749496429288
 31
0.0
  0
LINE
  5
12184
  8
YODOROGO
 10
29712.94462869945
 20
1627.749496429288
 30
0.0
 11
29617.604341291921
 21
1547.749496429288
 31
0.0
  0
LINE
  5
12185
  8
YODOROGO
 10
29617.604341291921
 20
1627.749496429288
 30
0.0
 11
29712.94462869945
 21
1627.749496429288
 31
0.0
  0
LINE
  5
12186
  8
YODOROGO
 10
29617.604341291921
 20
1667.749496429288
 30
0.0
 11
29617.604341291921
 21
1627.749496429288
 31
0.0
  0
LINE
  5
12187
  8
YODOROGO
 10
29885.604341291921
 20
1667.749496429288
 30
0.0
 11
29617.604341291921
 21
1667.749496429288
 31
0.0
  0
LINE
  5
12188
  8
YODOROGO
 10
29917.604341291921
 20
1627.749496429288
 30
0.0
 11
29777.604341291921
 21
1627.749496429288
 31
0.0
  0
LINE
  5
12189
  8
YODOROGO
 10
29777.604341291921
 20
1562.0054374176559
 30
0.0
 11
29771.409872985321
 21
1556.807661346234
 31
0.0
  0
LINE
  5
1218A
  8
YODOROGO
 10
29777.604341291921
 20
1627.749496429288
 30
0.0
 11
29777.604341291921
 21
1562.0054374176559
 31
0.0
  0
LINE
  5
1218B
  8
YODOROGO
 10
29737.604341291921
 20
1528.4414521705639
 30
0.0
 11
29737.604341291921
 21
1427.749496429288
 31
0.0
  0
LINE
  5
1218C
  8
YODOROGO
 10
29617.604341291921
 20
1427.749496429288
 30
0.0
 11
29737.604341291921
 21
1528.4414521705639
 31
0.0
  0
LINE
  5
1218D
  8
YODOROGO
 10
29617.604341291921
 20
1547.749496429288
 30
0.0
 11
29617.604341291921
 21
1427.749496429288
 31
0.0
  0
LINE
  5
1218E
  8
YODOROGO
 10
29712.94462869945
 20
1627.749496429288
 30
0.0
 11
29617.604341291921
 21
1547.749496429288
 31
0.0
  0
LINE
  5
1218F
  8
YODOROGO
 10
29617.604341291921
 20
1627.749496429288
 30
0.0
 11
29712.94462869945
 21
1627.749496429288
 31
0.0
  0
LINE
  5
12190
  8
YODOROGO
 10
29617.604341291921
 20
1667.749496429288
 30
0.0
 11
29617.604341291921
 21
1627.749496429288
 31
0.0
  0
LINE
  5
12191
  8
YODOROGO
 10
29885.604341291921
 20
1667.749496429288
 30
0.0
 11
29617.604341291921
 21
1667.749496429288
 31
0.0
  0
LINE
  5
12192
  8
YODOROGO
 10
28793.60434129191
 20
1747.74949642929
 30
0.0
 11
28793.60434129191
 21
1819.7494964292871
 31
0.0
  0
LINE
  5
12193
  8
YODOROGO
 10
28657.604341291921
 20
1747.74949642929
 30
0.0
 11
28793.60434129191
 21
1747.74949642929
 31
0.0
  0
LINE
  5
12194
  8
YODOROGO
 10
28729.604341291921
 20
1867.7494964292871
 30
0.0
 11
28729.604341291921
 21
1923.7494964292871
 31
0.0
  0
LINE
  5
12195
  8
YODOROGO
 10
28793.60434129191
 20
1867.7494964292871
 30
0.0
 11
28729.604341291921
 21
1867.7494964292871
 31
0.0
  0
LINE
  5
12196
  8
YODOROGO
 10
28793.60434129191
 20
1947.749496429288
 30
0.0
 11
28793.60434129191
 21
1867.7494964292871
 31
0.0
  0
ARC
  5
12197
  8
YODOROGO
 10
28753.60434129191
 20
1947.749496429288
 30
0.0
 40
40.0
 50
0.0
 51
90.0
  0
LINE
  5
12198
  8
YODOROGO
 10
28657.604341291921
 20
1987.7494964292871
 30
0.0
 11
28753.60434129191
 21
1987.7494964292871
 31
0.0
  0
LINE
  5
12199
  8
YODOROGO
 10
28657.604341291921
 20
2027.749496429288
 30
0.0
 11
28657.604341291921
 21
1987.7494964292871
 31
0.0
  0
LINE
  5
1219A
  8
YODOROGO
 10
29073.604341291921
 20
2027.749496429288
 30
0.0
 11
29001.60434129191
 21
2027.749496429288
 31
0.0
  0
LINE
  5
1219B
  8
YODOROGO
 10
29261.604341291921
 20
2007.749496429288
 30
0.0
 11
29197.604341291921
 21
2007.749496429288
 31
0.0
  0
LINE
  5
1219C
  8
YODOROGO
 10
29457.604341291921
 20
2027.749496429288
 30
0.0
 11
29385.604341291921
 21
2027.749496429288
 31
0.0
  0
LINE
  5
1219D
  8
YODOROGO
 10
29673.604341291921
 20
1707.749496429288
 30
0.0
 11
29673.604341291921
 21
1771.7494964292871
 31
0.0
1001
AUTOCAD_POSTSCRIPT_FIGURE
1002
{
1000
PSFILL
1000
Grayscale
1000
Grayscale
1070
    25
1002
}
  0
LINE
  5
1219E
  8
YODOROGO
 10
29617.604341291921
 20
1707.749496429288
 30
0.0
 11
29673.604341291921
 21
1707.749496429288
 31
0.0
1001
AUTOCAD_POSTSCRIPT_FIGURE
1002
{
1000
PSFILL
1000
Grayscale
1000
Grayscale
1070
    25
1002
}
  0
LINE
  5
1219F
  8
YODOROGO
 10
29617.604341291921
 20
1819.7494964292871
 30
0.0
 11
29617.604341291921
 21
1707.749496429288
 31
0.0
1001
AUTOCAD_POSTSCRIPT_FIGURE
1002
{
1000
PSFILL
1000
Grayscale
1000
Grayscale
1070
    25
1002
}
  0
LINE
  5
121A0
  8
YODOROGO
 10
29765.604341291921
 20
1819.7494964292871
 30
0.0
 11
29617.604341291921
 21
1819.7494964292871
 31
0.0
1001
AUTOCAD_POSTSCRIPT_FIGURE
1002
{
1000
PSFILL
1000
Grayscale
1000
Grayscale
1070
    25
1002
}
  0
LINE
  5
121A1
  8
YODOROGO
 10
29765.604341291921
 20
1859.749496429288
 30
0.0
 11
29765.604341291921
 21
1819.7494964292871
 31
0.0
1001
AUTOCAD_POSTSCRIPT_FIGURE
1002
{
1000
PSFILL
1000
Grayscale
1000
Grayscale
1070
    25
1002
}
  0
LINE
  5
121A2
  8
YODOROGO
 10
29617.604341291921
 20
1859.749496429288
 30
0.0
 11
29765.604341291921
 21
1859.749496429288
 31
0.0
1001
AUTOCAD_POSTSCRIPT_FIGURE
1002
{
1000
PSFILL
1000
Grayscale
1000
Grayscale
1070
    25
1002
}
  0
LINE
  5
121A3
  8
YODOROGO
 10
29617.604341291921
 20
1907.7494964292871
 30
0.0
 11
29617.604341291921
 21
1859.749496429288
 31
0.0
1001
AUTOCAD_POSTSCRIPT_FIGURE
1002
{
1000
PSFILL
1000
Grayscale
1000
Grayscale
1070
    25
1002
}
  0
LINE
  5
121A4
  8
YODOROGO
 10
29765.604341291921
 20
1907.7494964292871
 30
0.0
 11
29617.604341291921
 21
1907.7494964292871
 31
0.0
1001
AUTOCAD_POSTSCRIPT_FIGURE
1002
{
1000
PSFILL
1000
Grayscale
1000
Grayscale
1070
    25
1002
}
  0
LINE
  5
121A5
  8
YODOROGO
 10
29765.604341291921
 20
1947.749496429288
 30
0.0
 11
29765.604341291921
 21
1907.7494964292871
 31
0.0
1001
AUTOCAD_POSTSCRIPT_FIGURE
1002
{
1000
PSFILL
1000
Grayscale
1000
Grayscale
1070
    25
1002
}
  0
LINE
  5
121A6
  8
YODOROGO
 10
29617.604341291921
 20
1947.749496429288
 30
0.0
 11
29765.604341291921
 21
1947.749496429288
 31
0.0
1001
AUTOCAD_POSTSCRIPT_FIGURE
1002
{
1000
PSFILL
1000
Grayscale
1000
Grayscale
1070
    25
1002
}
  0
LINE
  5
121A7
  8
YODOROGO
 10
29617.604341291921
 20
2027.749496429288
 30
0.0
 11
29617.604341291921
 21
1947.749496429288
 31
0.0
1001
AUTOCAD_POSTSCRIPT_FIGURE
1002
{
1000
PSFILL
1000
Grayscale
1000
Grayscale
1070
    25
1002
}
  0
LINE
  5
121A8
  8
YODOROGO
 10
29665.604341291921
 20
2027.749496429288
 30
0.0
 11
29617.604341291921
 21
2027.749496429288
 31
0.0
1001
AUTOCAD_POSTSCRIPT_FIGURE
1002
{
1000
PSFILL
1000
Grayscale
1000
Grayscale
1070
    25
1002
}
  0
LINE
  5
121A9
  8
YODOROGO
 10
29665.604341291921
 20
1995.7494964292871
 30
0.0
 11
29665.604341291921
 21
2027.749496429288
 31
0.0
1001
AUTOCAD_POSTSCRIPT_FIGURE
1002
{
1000
PSFILL
1000
Grayscale
1000
Grayscale
1070
    25
1002
}
  0
LINE
  5
121AA
  8
YODOROGO
 10
29765.604341291921
 20
1995.7494964292871
 30
0.0
 11
29665.604341291921
 21
1995.7494964292871
 31
0.0
1001
AUTOCAD_POSTSCRIPT_FIGURE
1002
{
1000
PSFILL
1000
Grayscale
1000
Grayscale
1070
    25
1002
}
  0
LINE
  5
121AB
  8
YODOROGO
 10
29765.604341291921
 20
2027.749496429288
 30
0.0
 11
29765.604341291921
 21
1995.7494964292871
 31
0.0
1001
AUTOCAD_POSTSCRIPT_FIGURE
1002
{
1000
PSFILL
1000
Grayscale
1000
Grayscale
1070
    25
1002
}
  0
LINE
  5
121AC
  8
YODOROGO
 10
29829.604341291921
 20
2027.749496429288
 30
0.0
 11
29765.604341291921
 21
2027.749496429288
 31
0.0
1001
AUTOCAD_POSTSCRIPT_FIGURE
1002
{
1000
PSFILL
1000
Grayscale
1000
Grayscale
1070
    25
1002
}
  0
LINE
  5
121AD
  8
YODOROGO
 10
29829.604341291921
 20
1995.7494964292871
 30
0.0
 11
29829.604341291921
 21
2027.749496429288
 31
0.0
1001
AUTOCAD_POSTSCRIPT_FIGURE
1002
{
1000
PSFILL
1000
Grayscale
1000
Grayscale
1070
    25
1002
}
  0
LINE
  5
121AE
  8
YODOROGO
 10
29829.604341291921
 20
1907.7494964292871
 30
0.0
 11
29829.604341291921
 21
1947.749496429288
 31
0.0
1001
AUTOCAD_POSTSCRIPT_FIGURE
1002
{
1000
PSFILL
1000
Grayscale
1000
Grayscale
1070
    25
1002
}
  0
LINE
  5
121AF
  8
YODOROGO
 10
29829.604341291921
 20
1819.7494964292871
 30
0.0
 11
29829.604341291921
 21
1859.749496429288
 31
0.0
1001
AUTOCAD_POSTSCRIPT_FIGURE
1002
{
1000
PSFILL
1000
Grayscale
1000
Grayscale
1070
    25
1002
}
  0
LINE
  5
121B0
  8
YODOROGO
 10
29921.60434129191
 20
1771.7494964292871
 30
0.0
 11
29921.60434129191
 21
1707.749496429288
 31
0.0
1001
AUTOCAD_POSTSCRIPT_FIGURE
1002
{
1000
PSFILL
1000
Grayscale
1000
Grayscale
1070
    25
1002
}
  0
LINE
  5
121B1
  8
YODOROGO
 10
29829.604341291921
 20
1771.7494964292871
 30
0.0
 11
29921.60434129191
 21
1771.7494964292871
 31
0.0
1001
AUTOCAD_POSTSCRIPT_FIGURE
1002
{
1000
PSFILL
1000
Grayscale
1000
Grayscale
1070
    25
1002
}
  0
LINE
  5
121B2
  8
YODOROGO
 10
29829.604341291921
 20
1707.749496429288
 30
0.0
 11
29829.604341291921
 21
1771.7494964292871
 31
0.0
1001
AUTOCAD_POSTSCRIPT_FIGURE
1002
{
1000
PSFILL
1000
Grayscale
1000
Grayscale
1070
    25
1002
}
  0
LINE
  5
121B3
  8
YODOROGO
 10
29765.604341291921
 20
1707.749496429288
 30
0.0
 11
29829.604341291921
 21
1707.749496429288
 31
0.0
1001
AUTOCAD_POSTSCRIPT_FIGURE
1002
{
1000
PSFILL
1000
Grayscale
1000
Grayscale
1070
    25
1002
}
  0
LINE
  5
121B4
  8
YODOROGO
 10
29765.604341291921
 20
1771.7494964292871
 30
0.0
 11
29765.604341291921
 21
1707.749496429288
 31
0.0
1001
AUTOCAD_POSTSCRIPT_FIGURE
1002
{
1000
PSFILL
1000
Grayscale
1000
Grayscale
1070
    25
1002
}
  0
LINE
  5
121B5
  8
YODOROGO
 10
29673.604341291921
 20
1771.7494964292871
 30
0.0
 11
29765.604341291921
 21
1771.7494964292871
 31
0.0
1001
AUTOCAD_POSTSCRIPT_FIGURE
1002
{
1000
PSFILL
1000
Grayscale
1000
Grayscale
1070
    25
1002
}
  0
ARC
  5
121B6
  8
YODOROGO
 10
31059.517893357912
 20
1602.6807375155761
 30
0.0
 40
178.22128111072141
 50
281.02627495425338
 51
357.77113575573799
  0
LINE
  5
121B7
  8
YODOROGO
 10
31413.604341291921
 20
1907.7494964292871
 30
0.0
 11
31165.604341291921
 21
1907.7494964292871
 31
0.0
  0
LINE
  5
121B8
  8
YODOROGO
 10
31413.604341291921
 20
2027.749496429288
 30
0.0
 11
31165.604341291921
 21
2027.749496429288
 31
0.0
  0
LINE
  5
121B9
  8
YODOROGO
 10
31165.604341291921
 20
1963.749496429286
 30
0.0
 11
31413.604341291921
 21
1963.749496429286
 31
0.0
  0
LINE
  5
121BA
  8
YODOROGO
 10
30791.604341291921
 20
1563.7494964292871
 30
0.0
 11
30791.604341291921
 21
1755.7494964292871
 31
0.0
  0
LINE
  5
121BB
  8
YODOROGO
 10
30763.604341291921
 20
1691.749496429288
 30
0.0
 11
30763.604341291921
 21
1563.7494964292871
 31
0.0
  0
LINE
  5
121BC
  8
YODOROGO
 10
30723.604341291921
 20
1491.749496429288
 30
0.0
 11
30723.604341291921
 21
1691.749496429288
 31
0.0
  0
LINE
  5
121BD
  8
YODOROGO
 10
30899.604341291932
 20
1691.749496429288
 30
0.0
 11
30899.604341291932
 21
1491.749496429288
 31
0.0
  0
LINE
  5
121BE
  8
YODOROGO
 10
30859.604341291932
 20
1563.7494964292871
 30
0.0
 11
30859.604341291932
 21
1691.749496429288
 31
0.0
  0
LINE
  5
121BF
  8
YODOROGO
 10
30831.604341291921
 20
1755.7494964292871
 30
0.0
 11
30831.604341291921
 21
1563.7494964292871
 31
0.0
  0
LINE
  5
121C0
  8
YODOROGO
 10
30973.604341291921
 20
2027.749496429288
 30
0.0
 11
30973.604341291921
 21
1467.749496429288
 31
0.0
  0
LINE
  5
121C1
  8
YODOROGO
 10
30645.604341291921
 20
1427.749496429288
 30
0.0
 11
30645.604341291921
 21
2027.749496429288
 31
0.0
  0
LINE
  5
121C2
  8
YODOROGO
 10
30697.604341291932
 20
1963.749496429286
 30
0.0
 11
30697.604341291932
 21
1427.749496429288
 31
0.0
  0
LINE
  5
121C3
  8
YODOROGO
 10
30925.604341291921
 20
1547.749496429288
 30
0.0
 11
30925.604341291921
 21
1963.749496429286
 31
0.0
  0
LINE
  5
121C4
  8
YODOROGO
 10
30381.604341291932
 20
1627.749496429288
 30
0.0
 11
30381.604341291932
 21
1679.749496429288
 31
0.0
  0
LINE
  5
121C5
  8
YODOROGO
 10
30617.604341291921
 20
1679.749496429288
 30
0.0
 11
30617.604341291921
 21
1627.749496429288
 31
0.0
  0
LINE
  5
121C6
  8
YODOROGO
 10
31165.604341291921
 20
1907.7494964292871
 30
0.0
 11
31165.604341291921
 21
1635.7494964292871
 31
0.0
  0
LINE
  5
121C7
  8
YODOROGO
 10
29949.60434129191
 20
1667.749496429288
 30
0.0
 11
29949.60434129191
 21
1707.749496429288
 31
0.0
  0
LINE
  5
121C8
  8
YODOROGO
 10
29949.60434129191
 20
1667.749496429288
 30
0.0
 11
29949.60434129191
 21
1707.749496429288
 31
0.0
  0
ARC
  5
121C9
  8
YODOROGO
 10
30537.604341291921
 20
1507.749496429288
 30
0.0
 40
80.0
 50
270.0
 51
0.0
  0
LINE
  5
121CA
  8
YODOROGO
 10
30569.604341291921
 20
1599.7494964292871
 30
0.0
 11
30617.604341291921
 21
1599.7494964292871
 31
0.0
  0
LINE
  5
121CB
  8
YODOROGO
 10
30617.604341291921
 20
1627.749496429288
 30
0.0
 11
30529.604341291939
 21
1627.749496429288
 31
0.0
  0
LINE
  5
121CC
  8
YODOROGO
 10
30217.604341291921
 20
1667.749496429288
 30
0.0
 11
29949.60434129191
 21
1667.749496429288
 31
0.0
  0
LINE
  5
121CD
  8
YODOROGO
 10
30217.604341291921
 20
1627.749496429288
 30
0.0
 11
30217.604341291921
 21
1667.749496429288
 31
0.0
  0
LINE
  5
121CE
  8
YODOROGO
 10
30017.604341291921
 20
1627.749496429288
 30
0.0
 11
30217.604341291921
 21
1627.749496429288
 31
0.0
  0
ARC
  5
121CF
  8
YODOROGO
 10
30230.05882870136
 20
1868.885714952901
 30
0.0
 40
321.37763628522822
 50
228.6181454618993
 51
245.660289248906
  0
LINE
  5
121D0
  8
YODOROGO
 10
30105.604341291921
 20
1603.7494964292871
 30
0.0
 11
30097.60434129195
 21
1576.0728158699001
 31
0.0
  0
LINE
  5
121D1
  8
YODOROGO
 10
30189.604341291921
 20
1603.7494964292871
 30
0.0
 11
30105.604341291921
 21
1603.7494964292871
 31
0.0
  0
LINE
  5
121D2
  8
YODOROGO
 10
30177.604341291921
 20
1551.817722473427
 30
0.0
 11
30189.604341291921
 21
1603.7494964292871
 31
0.0
  0
ARC
  5
121D3
  8
YODOROGO
 10
30230.05882870045
 20
1868.885714953002
 30
0.0
 40
321.37763628529081
 50
260.60629297969911
 51
267.77903556555862
  0
LINE
  5
121D4
  8
YODOROGO
 10
30217.604341291921
 20
1427.749496429285
 30
0.0
 11
30217.604341291921
 21
1547.749496429288
 31
0.0
  0
LINE
  5
121D5
  8
YODOROGO
 10
29937.604341291932
 20
1481.3393349155101
 30
0.0
 11
29937.604341291921
 21
1594.531090531141
 31
0.0
  0
LINE
  5
121D6
  8
YODOROGO
 10
30217.604341291921
 20
1667.749496429288
 30
0.0
 11
29949.60434129191
 21
1667.749496429288
 31
0.0
  0
LINE
  5
121D7
  8
YODOROGO
 10
30217.604341291921
 20
1627.749496429288
 30
0.0
 11
30217.604341291921
 21
1667.749496429288
 31
0.0
  0
LINE
  5
121D8
  8
YODOROGO
 10
30017.604341291921
 20
1627.749496429288
 30
0.0
 11
30217.604341291921
 21
1627.749496429288
 31
0.0
  0
ARC
  5
121D9
  8
YODOROGO
 10
30230.05882870136
 20
1868.885714952901
 30
0.0
 40
321.37763628522822
 50
228.6181454618993
 51
245.660289248906
  0
LINE
  5
121DA
  8
YODOROGO
 10
30105.604341291921
 20
1603.7494964292871
 30
0.0
 11
30097.60434129195
 21
1576.0728158699001
 31
0.0
  0
LINE
  5
121DB
  8
YODOROGO
 10
30189.604341291921
 20
1603.7494964292871
 30
0.0
 11
30105.604341291921
 21
1603.7494964292871
 31
0.0
  0
LINE
  5
121DC
  8
YODOROGO
 10
30177.604341291921
 20
1551.817722473427
 30
0.0
 11
30189.604341291921
 21
1603.7494964292871
 31
0.0
  0
ARC
  5
121DD
  8
YODOROGO
 10
30230.05882870045
 20
1868.885714953002
 30
0.0
 40
321.37763628529081
 50
260.60629297969911
 51
267.77903556555862
  0
LINE
  5
121DE
  8
YODOROGO
 10
30217.604341291921
 20
1427.749496429285
 30
0.0
 11
30217.604341291921
 21
1547.749496429288
 31
0.0
  0
LINE
  5
121DF
  8
YODOROGO
 10
29937.604341291932
 20
1481.3393349155101
 30
0.0
 11
29937.604341291921
 21
1594.531090531141
 31
0.0
  0
LINE
  5
121E0
  8
YODOROGO
 10
30433.604341291921
 20
1573.749496429288
 30
0.0
 11
30381.604341291932
 21
1573.749496429288
 31
0.0
  0
LINE
  5
121E1
  8
YODOROGO
 10
30433.604341291921
 20
1601.749496429285
 30
0.0
 11
30433.604341291921
 21
1573.749496429288
 31
0.0
  0
LINE
  5
121E2
  8
YODOROGO
 10
30381.604341291932
 20
1601.749496429285
 30
0.0
 11
30433.604341291921
 21
1601.749496429285
 31
0.0
  0
LINE
  5
121E3
  8
YODOROGO
 10
30381.604341291932
 20
1573.749496429288
 30
0.0
 11
30381.604341291932
 21
1601.749496429285
 31
0.0
  0
LINE
  5
121E4
  8
YODOROGO
 10
30429.604341291921
 20
1577.7494964292871
 30
0.0
 11
30385.604341291921
 21
1577.7494964292871
 31
0.0
  0
LINE
  5
121E5
  8
YODOROGO
 10
30429.604341291921
 20
1597.749496429288
 30
0.0
 11
30429.604341291921
 21
1577.7494964292871
 31
0.0
  0
LINE
  5
121E6
  8
YODOROGO
 10
30385.604341291921
 20
1597.749496429288
 30
0.0
 11
30429.604341291921
 21
1597.749496429288
 31
0.0
  0
LINE
  5
121E7
  8
YODOROGO
 10
30385.604341291921
 20
1577.7494964292871
 30
0.0
 11
30385.604341291921
 21
1597.749496429288
 31
0.0
  0
LINE
  5
121E8
  8
YODOROGO
 10
30425.604341291921
 20
1581.749496429286
 30
0.0
 11
30389.604341291921
 21
1581.749496429286
 31
0.0
  0
LINE
  5
121E9
  8
YODOROGO
 10
30425.604341291921
 20
1593.749496429288
 30
0.0
 11
30425.604341291921
 21
1581.749496429286
 31
0.0
  0
LINE
  5
121EA
  8
YODOROGO
 10
30389.604341291921
 20
1593.749496429288
 30
0.0
 11
30425.604341291921
 21
1593.749496429288
 31
0.0
  0
LINE
  5
121EB
  8
YODOROGO
 10
30389.604341291921
 20
1581.749496429286
 30
0.0
 11
30389.604341291921
 21
1593.749496429288
 31
0.0
  0
LINE
  5
121EC
  8
YODOROGO
 10
30421.604341291932
 20
1585.7494964292871
 30
0.0
 11
30393.604341291921
 21
1585.7494964292871
 31
0.0
  0
LINE
  5
121ED
  8
YODOROGO
 10
30421.604341291932
 20
1589.749496429288
 30
0.0
 11
30421.604341291932
 21
1585.7494964292871
 31
0.0
  0
LINE
  5
121EE
  8
YODOROGO
 10
30393.604341291921
 20
1589.749496429288
 30
0.0
 11
30421.604341291932
 21
1589.749496429288
 31
0.0
  0
LINE
  5
121EF
  8
YODOROGO
 10
30393.604341291921
 20
1585.7494964292871
 30
0.0
 11
30393.604341291921
 21
1589.749496429288
 31
0.0
  0
LINE
  5
121F0
  8
YODOROGO
 10
30465.604341291921
 20
1627.749496429288
 30
0.0
 11
30381.604341291932
 21
1627.749496429288
 31
0.0
  0
LINE
  5
121F1
  8
YODOROGO
 10
30465.604341291921
 20
1547.749496429288
 30
0.0
 11
30465.604341291921
 21
1627.749496429288
 31
0.0
  0
LINE
  5
121F2
  8
YODOROGO
 10
30381.604341291932
 20
1547.749496429288
 30
0.0
 11
30465.604341291921
 21
1547.749496429288
 31
0.0
  0
LINE
  5
121F3
  8
YODOROGO
 10
30381.604341291932
 20
1427.749496429288
 30
0.0
 11
30381.604341291932
 21
1547.749496429288
 31
0.0
  0
LINE
  5
121F4
  8
YODOROGO
 10
30537.604341291921
 20
1427.749496429288
 30
0.0
 11
30381.604341291932
 21
1427.749496429288
 31
0.0
  0
LINE
  5
121F5
  8
YODOROGO
 10
30569.604341291921
 20
1571.749496429285
 30
0.0
 11
30569.604341291921
 21
1599.7494964292871
 31
0.0
  0
ARC
  5
121F6
  8
YODOROGO
 10
30545.604341291921
 20
1571.749496429291
 30
0.0
 40
24.000000000003752
 50
270.0
 51
359.99999999998772
  0
LINE
  5
121F7
  8
YODOROGO
 10
30529.604341291939
 20
1547.749496429288
 30
0.0
 11
30545.604341291921
 21
1547.749496429288
 31
0.0
  0
LINE
  5
121F8
  8
YODOROGO
 10
30529.604341291939
 20
1627.749496429288
 30
0.0
 11
30529.604341291939
 21
1547.749496429288
 31
0.0
  0
LINE
  5
121F9
  8
YODOROGO
 10
30899.604341291932
 20
1547.749496429288
 30
0.0
 11
30925.604341291921
 21
1547.749496429288
 31
0.0
  0
LINE
  5
121FA
  8
YODOROGO
 10
30933.604341291921
 20
1427.749496429288
 30
0.0
 11
30899.604341291932
 21
1427.749496429288
 31
0.0
  0
LINE
  5
121FB
  8
YODOROGO
 10
30763.604341291921
 20
1563.7494964292871
 30
0.0
 11
30791.604341291921
 21
1563.7494964292871
 31
0.0
  0
LINE
  5
121FC
  8
YODOROGO
 10
30899.604341291932
 20
1491.749496429288
 30
0.0
 11
30723.604341291921
 21
1491.749496429288
 31
0.0
  0
LINE
  5
121FD
  8
YODOROGO
 10
30831.604341291921
 20
1563.7494964292871
 30
0.0
 11
30859.604341291932
 21
1563.7494964292871
 31
0.0
  0
LINE
  5
121FE
  8
YODOROGO
 10
30899.604341291932
 20
1427.749496429288
 30
0.0
 11
30899.604341291932
 21
1547.749496429288
 31
0.0
  0
LINE
  5
121FF
  8
YODOROGO
 10
30697.604341291932
 20
1427.749496429288
 30
0.0
 11
30645.604341291921
 21
1427.749496429288
 31
0.0
  0
LINE
  5
12200
  8
YODOROGO
 10
30617.604341291921
 20
1599.7494964292871
 30
0.0
 11
30617.604341291921
 21
1507.749496429288
 31
0.0
  0
ARC
  5
12201
  8
YODOROGO
 10
30933.604341291921
 20
1467.749496429288
 30
0.0
 40
40.0
 50
270.0
 51
0.0
  0
LINE
  5
12202
  8
YODOROGO
 10
31093.604341291921
 20
1523.7494964292871
 30
0.0
 11
31093.604341291921
 21
1427.749496429288
 31
0.0
  0
ARC
  5
12203
  8
YODOROGO
 10
31039.721395566768
 20
1637.5313901097329
 30
0.0
 40
125.8955565916754
 50
295.34052442160112
 51
359.18902303418679
  0
LINE
  5
12204
  8
YODOROGO
 10
30617.604341291921
 20
1859.749496429288
 30
0.0
 11
30497.604341291921
 21
1939.749496429288
 31
0.0
  0
LINE
  5
12205
  8
YODOROGO
 10
30497.604341291921
 20
2027.749496429288
 30
0.0
 11
30617.604341291921
 21
1947.749496429288
 31
0.0
  0
LINE
  5
12206
  8
YODOROGO
 10
30529.604341291939
 20
1679.749496429288
 30
0.0
 11
30617.604341291921
 21
1679.749496429288
 31
0.0
  0
LINE
  5
12207
  8
YODOROGO
 10
30617.604341291921
 20
1735.7494964292871
 30
0.0
 11
30529.604341291939
 21
1735.7494964292871
 31
0.0
  0
LINE
  5
12208
  8
YODOROGO
 10
30381.604341291932
 20
1795.7494964292871
 30
0.0
 11
30617.604341291921
 21
1795.7494964292871
 31
0.0
  0
LINE
  5
12209
  8
YODOROGO
 10
30081.604341291921
 20
2027.749496429288
 30
0.0
 11
30021.604341291921
 21
2027.749496429288
 31
0.0
  0
LINE
  5
1220A
  8
YODOROGO
 10
30081.604341291921
 20
1827.7494964292871
 30
0.0
 11
30081.604341291921
 21
2027.749496429288
 31
0.0
  0
LINE
  5
1220B
  8
YODOROGO
 10
30021.604341291921
 20
1827.7494964292871
 30
0.0
 11
30081.604341291921
 21
1827.7494964292871
 31
0.0
  0
LINE
  5
1220C
  8
YODOROGO
 10
30021.604341291921
 20
2027.749496429288
 30
0.0
 11
30021.604341291921
 21
1827.7494964292871
 31
0.0
  0
LINE
  5
1220D
  8
YODOROGO
 10
30161.604341291921
 20
2027.749496429288
 30
0.0
 11
30217.604341291921
 21
2027.749496429288
 31
0.0
  0
LINE
  5
1220E
  8
YODOROGO
 10
30161.604341291921
 20
1811.749496429288
 30
0.0
 11
30161.604341291921
 21
2027.749496429288
 31
0.0
  0
ARC
  5
1220F
  8
YODOROGO
 10
30121.604341291921
 20
1811.749496429288
 30
0.0
 40
40.0
 50
270.0
 51
0.0
  0
LINE
  5
12210
  8
YODOROGO
 10
30021.604341291921
 20
1771.7494964292871
 30
0.0
 11
30121.604341291921
 21
1771.7494964292871
 31
0.0
  0
LINE
  5
12211
  8
YODOROGO
 10
30021.604341291921
 20
1707.749496429288
 30
0.0
 11
30021.604341291921
 21
1771.7494964292871
 31
0.0
  0
LINE
  5
12212
  8
YODOROGO
 10
30137.604341291921
 20
1707.749496429288
 30
0.0
 11
30021.604341291921
 21
1707.749496429288
 31
0.0
  0
ARC
  5
12213
  8
YODOROGO
 10
30137.604341291921
 20
1787.7494964292871
 30
0.0
 40
80.0
 50
270.0
 51
0.0
  0
LINE
  5
12214
  8
YODOROGO
 10
30217.604341291921
 20
2027.749496429288
 30
0.0
 11
30217.604341291921
 21
1787.7494964292871
 31
0.0
  0
LINE
  5
12215
  8
YODOROGO
 10
29977.604341291921
 20
1947.749496429288
 30
0.0
 11
29977.604341291921
 21
1995.7494964292871
 31
0.0
1001
AUTOCAD_POSTSCRIPT_FIGURE
1002
{
1000
PSFILL
1000
Grayscale
1000
Grayscale
1070
    25
1002
}
  0
LINE
  5
12216
  8
YODOROGO
 10
29977.604341291921
 20
1859.749496429288
 30
0.0
 11
29977.604341291921
 21
1907.7494964292871
 31
0.0
1001
AUTOCAD_POSTSCRIPT_FIGURE
1002
{
1000
PSFILL
1000
Grayscale
1000
Grayscale
1070
    25
1002
}
  0
LINE
  5
12217
  8
YODOROGO
 10
29977.604341291921
 20
1707.749496429288
 30
0.0
 11
29977.604341291921
 21
1819.7494964292871
 31
0.0
1001
AUTOCAD_POSTSCRIPT_FIGURE
1002
{
1000
PSFILL
1000
Grayscale
1000
Grayscale
1070
    25
1002
}
  0
LINE
  5
12218
  8
YODOROGO
 10
30381.604341291932
 20
1907.7494964292871
 30
0.0
 11
30497.604341291921
 21
2027.749496429288
 31
0.0
  0
LINE
  5
12219
  8
YODOROGO
 10
30381.604341291932
 20
1819.7494964292871
 30
0.0
 11
30381.604341291932
 21
1907.7494964292871
 31
0.0
  0
LINE
  5
1221A
  8
YODOROGO
 10
30497.604341291921
 20
1939.749496429288
 30
0.0
 11
30381.604341291932
 21
1819.7494964292871
 31
0.0
  0
LINE
  5
1221B
  8
YODOROGO
 10
30465.604341291921
 20
1679.749496429288
 30
0.0
 11
30465.604341291921
 21
1735.7494964292871
 31
0.0
  0
LINE
  5
1221C
  8
YODOROGO
 10
30381.604341291932
 20
1679.749496429288
 30
0.0
 11
30465.604341291921
 21
1679.749496429288
 31
0.0
  0
LINE
  5
1221D
  8
YODOROGO
 10
30529.604341291939
 20
1735.7494964292871
 30
0.0
 11
30529.604341291939
 21
1679.749496429288
 31
0.0
  0
LINE
  5
1221E
  8
YODOROGO
 10
30381.604341291932
 20
1735.7494964292871
 30
0.0
 11
30381.604341291932
 21
1795.7494964292871
 31
0.0
  0
LINE
  5
1221F
  8
YODOROGO
 10
30465.604341291921
 20
1735.7494964292871
 30
0.0
 11
30381.604341291932
 21
1735.7494964292871
 31
0.0
  0
LINE
  5
12220
  8
YODOROGO
 10
30645.604341291921
 20
2027.749496429288
 30
0.0
 11
30973.604341291921
 21
2027.749496429288
 31
0.0
  0
LINE
  5
12221
  8
YODOROGO
 10
30925.604341291921
 20
1963.749496429286
 30
0.0
 11
30697.604341291932
 21
1963.749496429286
 31
0.0
  0
LINE
  5
12222
  8
YODOROGO
 10
30873.604341291921
 20
1819.7494964292871
 30
0.0
 11
30899.604341291932
 21
1819.7494964292871
 31
0.0
  0
LINE
  5
12223
  8
YODOROGO
 10
30899.604341291932
 20
1939.749496429288
 30
0.0
 11
30873.604341291921
 21
1819.7494964292871
 31
0.0
  0
LINE
  5
12224
  8
YODOROGO
 10
30851.604341291939
 20
1939.749496429288
 30
0.0
 11
30899.604341291932
 21
1939.749496429288
 31
0.0
  0
LINE
  5
12225
  8
YODOROGO
 10
30825.604341291921
 20
1819.7494964292871
 30
0.0
 11
30851.604341291939
 21
1939.749496429288
 31
0.0
  0
LINE
  5
12226
  8
YODOROGO
 10
30797.604341291921
 20
1819.7494964292871
 30
0.0
 11
30825.604341291921
 21
1819.7494964292871
 31
0.0
  0
LINE
  5
12227
  8
YODOROGO
 10
30771.604341291939
 20
1939.749496429288
 30
0.0
 11
30797.604341291921
 21
1819.7494964292871
 31
0.0
  0
LINE
  5
12228
  8
YODOROGO
 10
30723.604341291921
 20
1939.749496429288
 30
0.0
 11
30771.604341291939
 21
1939.749496429288
 31
0.0
  0
LINE
  5
12229
  8
YODOROGO
 10
30749.604341291921
 20
1819.7494964292871
 30
0.0
 11
30723.604341291921
 21
1939.749496429288
 31
0.0
  0
LINE
  5
1222A
  8
YODOROGO
 10
30723.604341291921
 20
1819.7494964292871
 30
0.0
 11
30749.604341291921
 21
1819.7494964292871
 31
0.0
  0
LINE
  5
1222B
  8
YODOROGO
 10
30723.604341291921
 20
1755.7494964292871
 30
0.0
 11
30723.604341291921
 21
1819.7494964292871
 31
0.0
  0
LINE
  5
1222C
  8
YODOROGO
 10
30899.604341291932
 20
1755.7494964292871
 30
0.0
 11
30723.604341291921
 21
1755.7494964292871
 31
0.0
  0
LINE
  5
1222D
  8
YODOROGO
 10
30899.604341291932
 20
1819.7494964292871
 30
0.0
 11
30899.604341291932
 21
1755.7494964292871
 31
0.0
  0
LINE
  5
1222E
  8
YODOROGO
 10
30617.604341291921
 20
1947.749496429288
 30
0.0
 11
30617.604341291921
 21
1859.749496429288
 31
0.0
  0
LINE
  5
1222F
  8
YODOROGO
 10
30791.604341291921
 20
1755.7494964292871
 30
0.0
 11
30831.604341291921
 21
1755.7494964292871
 31
0.0
  0
LINE
  5
12230
  8
YODOROGO
 10
30723.604341291921
 20
1691.749496429288
 30
0.0
 11
30763.604341291921
 21
1691.749496429288
 31
0.0
  0
LINE
  5
12231
  8
YODOROGO
 10
30859.604341291932
 20
1691.749496429288
 30
0.0
 11
30899.604341291932
 21
1691.749496429288
 31
0.0
  0
LINE
  5
12232
  8
YODOROGO
 10
30617.604341291921
 20
1795.7494964292871
 30
0.0
 11
30617.604341291921
 21
1735.7494964292871
 31
0.0
  0
LINE
  5
12233
  8
YODOROGO
 10
31165.604341291921
 20
2027.749496429288
 30
0.0
 11
31165.604341291921
 21
1963.749496429286
 31
0.0
  0
LINE
  5
12234
  8
YODOROGO
 10
31533.604341291921
 20
1595.7494964292871
 30
0.0
 11
31533.60434129191
 21
1811.749496429288
 31
0.0
  0
LINE
  5
12235
  8
YODOROGO
 10
31461.60434129191
 20
1987.7494964292871
 30
0.0
 11
31461.60434129191
 21
1635.7494964292871
 31
0.0
  0
LINE
  5
12236
  8
YODOROGO
 10
31653.604341291921
 20
1427.749496429288
 30
0.0
 11
31653.60434129191
 21
1811.749496429288
 31
0.0
  0
LINE
  5
12237
  8
YODOROGO
 10
31589.604341291921
 20
1811.749496429288
 30
0.0
 11
31589.604341291921
 21
1427.749496429288
 31
0.0
  0
LINE
  5
12238
  8
YODOROGO
 10
31237.604341291921
 20
1595.7494964292871
 30
0.0
 11
31237.604341291921
 21
1707.749496429288
 31
0.0
  0
ARC
  5
12239
  8
YODOROGO
 10
31353.914865116069
 20
1607.790351288558
 30
0.0
 40
180.0924485759885
 50
268.62849102169793
 51
356.16638457330322
  0
LINE
  5
1223A
  8
YODOROGO
 10
31349.604341291939
 20
1527.749496429288
 30
0.0
 11
31349.604341291939
 21
1427.749496429288
 31
0.0
  0
ARC
  5
1223B
  8
YODOROGO
 10
31351.518075724562
 20
1637.838957017655
 30
0.0
 40
110.1060929836122
 50
269.00410209305932
 51
358.91264455492478
  0
LINE
  5
1223C
  8
YODOROGO
 10
31589.604341291921
 20
1427.749496429288
 30
0.0
 11
31653.604341291921
 21
1427.749496429288
 31
0.0
  0
LINE
  5
1223D
  8
YODOROGO
 10
31533.60434129191
 20
1811.749496429288
 30
0.0
 11
31589.604341291921
 21
1811.749496429288
 31
0.0
  0
LINE
  5
1223E
  8
YODOROGO
 10
31621.604341291939
 20
1987.7494964292871
 30
0.0
 11
31461.60434129191
 21
1987.7494964292871
 31
0.0
  0
LINE
  5
1223F
  8
YODOROGO
 10
31533.60434129191
 20
1915.7494964292871
 30
0.0
 11
31661.604341291939
 21
1915.7494964292871
 31
0.0
  0
LINE
  5
12240
  8
YODOROGO
 10
31701.604341291939
 20
1875.7494964292871
 30
0.0
 11
31533.60434129191
 21
1875.7494964292871
 31
0.0
  0
LINE
  5
12241
  8
YODOROGO
 10
31237.604341291921
 20
1779.749496429288
 30
0.0
 11
31349.604341291939
 21
1779.749496429288
 31
0.0
  0
LINE
  5
12242
  8
YODOROGO
 10
31237.604341291921
 20
1835.7494964292871
 30
0.0
 11
31237.604341291921
 21
1779.749496429288
 31
0.0
  0
LINE
  5
12243
  8
YODOROGO
 10
31349.604341291939
 20
1835.7494964292871
 30
0.0
 11
31237.604341291921
 21
1835.7494964292871
 31
0.0
  0
LINE
  5
12244
  8
YODOROGO
 10
31349.604341291939
 20
1779.749496429288
 30
0.0
 11
31349.604341291939
 21
1835.7494964292871
 31
0.0
  0
LINE
  5
12245
  8
YODOROGO
 10
31533.60434129191
 20
1875.7494964292871
 30
0.0
 11
31533.60434129191
 21
1915.7494964292871
 31
0.0
  0
LINE
  5
12246
  8
YODOROGO
 10
31413.604341291921
 20
1707.749496429288
 30
0.0
 11
31413.604341291921
 21
1907.7494964292871
 31
0.0
  0
LINE
  5
12247
  8
YODOROGO
 10
31237.604341291921
 20
1707.749496429288
 30
0.0
 11
31413.604341291921
 21
1707.749496429288
 31
0.0
  0
LINE
  5
12248
  8
YODOROGO
 10
31413.604341291921
 20
1963.749496429286
 30
0.0
 11
31413.604341291921
 21
2027.749496429288
 31
0.0
  0
ARC
  5
12249
  8
YODOROGO
 10
31621.604341291939
 20
2003.749496429285
 30
0.0
 40
15.999999999994539
 50
270.0
 51
0.0000000000081422
  0
LINE
  5
1224A
  8
YODOROGO
 10
31637.604341291921
 20
2027.749496429288
 30
0.0
 11
31637.604341291921
 21
2003.7494964292871
 31
0.0
  0
LINE
  5
1224B
  8
YODOROGO
 10
31701.604341291939
 20
2027.749496429288
 30
0.0
 11
31637.604341291921
 21
2027.749496429288
 31
0.0
  0
LINE
  5
1224C
  8
YODOROGO
 10
31701.604341291939
 20
1955.7494964292871
 30
0.0
 11
31701.604341291939
 21
2027.749496429288
 31
0.0
  0
ARC
  5
1224D
  8
YODOROGO
 10
31661.604341291939
 20
1955.7494964292871
 30
0.0
 40
40.0
 50
270.0
 51
0.0
  0
LINE
  5
1224E
  8
YODOROGO
 10
31701.604341291939
 20
1811.749496429288
 30
0.0
 11
31701.604341291939
 21
1875.7494964292871
 31
0.0
  0
LINE
  5
1224F
  8
YODOROGO
 10
31653.60434129191
 20
1811.749496429288
 30
0.0
 11
31701.604341291939
 21
1811.749496429288
 31
0.0
  0
LINE
  5
1230D
  8
SUNPOU
  6
CONTINUOUS
 62
     4
 10
7227.0054167031494
 20
8478.188374000003
 30
0.0
 11
7227.0054167031494
 21
9869.1883999999955
 31
0.0
  0
LINE
  5
1230E
  8
SUNPOU
  6
CONTINUOUS
 62
     4
 10
12777.005416703139
 20
8610.0781974124311
 30
0.0
 11
12777.005416703139
 21
9869.1883999999955
 31
0.0
  0
LINE
  5
1230F
  8
SUNPOU
  6
CONTINUOUS
 62
     4
 10
7227.0054167031494
 20
9789.1883999999955
 30
0.0
 11
12777.005416703139
 21
9789.1883999999955
 31
0.0
  0
LINE
  5
12310
  8
SUNPOU
  6
CONTINUOUS
 62
     4
 10
12627.005416703139
 20
8536.0984379999973
 30
0.0
 11
12627.005416703139
 21
9469.1900500000029
 31
0.0
  0
LINE
  5
12311
  8
SUNPOU
  6
CONTINUOUS
 62
     4
 10
12777.005416703139
 20
8610.0781974124311
 30
0.0
 11
12777.005416703139
 21
9469.1900500000029
 31
0.0
  0
LINE
  5
12312
  8
SUNPOU
  6
CONTINUOUS
 62
     4
 10
12627.005416703139
 20
9389.1900500000029
 30
0.0
 11
12387.005416703139
 21
9389.1900500000029
 31
0.0
  0
LINE
  5
12313
  8
SUNPOU
  6
CONTINUOUS
 62
     4
 10
12777.005416703139
 20
9389.1900500000029
 30
0.0
 11
13017.005416703139
 21
9389.1900500000029
 31
0.0
  0
LINE
  5
12314
  8
SUNPOU
  6
CONTINUOUS
 62
     4
 10
12627.005416703139
 20
9389.1900500000029
 30
0.0
 11
12777.005416703139
 21
9389.1900500000029
 31
0.0
  0
LINE
  5
12315
  8
SUNPOU
  6
CONTINUOUS
 62
     4
 10
7407.0054167031503
 20
8348.3741496838102
 30
0.0
 11
7407.0054167031503
 21
9469.1900500000029
 31
0.0
  0
LINE
  5
12316
  8
SUNPOU
  6
CONTINUOUS
 62
     4
 10
12627.005416703139
 20
8536.0984379999973
 30
0.0
 11
12627.005416703139
 21
9469.1900500000029
 31
0.0
  0
LINE
  5
12317
  8
SUNPOU
  6
CONTINUOUS
 62
     4
 10
7407.0054167031503
 20
9389.1900500000029
 30
0.0
 11
12627.005416703139
 21
9389.1900500000029
 31
0.0
  0
LINE
  5
12318
  8
SUNPOU
  6
CONTINUOUS
 62
     4
 10
7227.0054167031494
 20
8478.188374000003
 30
0.0
 11
7227.0054167031494
 21
9469.1900500000029
 31
0.0
  0
LINE
  5
12319
  8
SUNPOU
  6
CONTINUOUS
 62
     4
 10
7407.0054167031503
 20
8348.3741496838102
 30
0.0
 11
7407.0054167031503
 21
9469.1900500000029
 31
0.0
  0
LINE
  5
1231A
  8
SUNPOU
  6
CONTINUOUS
 62
     4
 10
7227.0054167031494
 20
9389.1900500000029
 30
0.0
 11
7407.0054167031503
 21
9389.1900500000029
 31
0.0
  0
LINE
  5
1231B
  8
SUNPOU
  6
CONTINUOUS
 62
     4
 10
12719.505416703139
 20
6241.1883740000021
 30
0.0
 11
13797.00581270315
 21
6241.1883740000021
 31
0.0
  0
LINE
  5
1231C
  8
SUNPOU
  6
CONTINUOUS
 62
     4
 10
12811.812676302519
 20
8590.188374000003
 30
0.0
 11
13797.00581270315
 21
8590.188374000003
 31
0.0
  0
LINE
  5
1231D
  8
SUNPOU
  6
CONTINUOUS
 62
     4
 10
13717.00581270315
 20
6241.1883740000021
 30
0.0
 11
13717.00581270315
 21
8590.188374000003
 31
0.0
  0
LINE
  5
1231E
  8
SUNPOU
  6
CONTINUOUS
 62
     4
 10
7319.505416703144
 20
6241.1883740000021
 30
0.0
 11
6237.00502070316
 21
6241.1883740000021
 31
0.0
  0
LINE
  5
1231F
  8
SUNPOU
  6
CONTINUOUS
 62
     4
 10
7147.0054167031494
 20
8396.688374000003
 30
0.0
 11
6237.00502070316
 21
8396.688374000003
 31
0.0
  0
LINE
  5
12320
  8
SUNPOU
  6
CONTINUOUS
 62
     4
 10
6317.00502070316
 20
6241.1883740000021
 30
0.0
 11
6317.00502070316
 21
8396.688374000003
 31
0.0
  0
LINE
  5
12321
  8
SUNPOU
  6
CONTINUOUS
 62
     4
 10
7407.0054167031503
 20
6161.1883740000021
 30
0.0
 11
7407.0054167031503
 21
4461.1887039999992
 31
0.0
  0
LINE
  5
12322
  8
SUNPOU
  6
CONTINUOUS
 62
     4
 10
12627.005416703139
 20
6161.1883740000021
 30
0.0
 11
12627.005416703139
 21
4461.1887039999992
 31
0.0
  0
LINE
  5
12323
  8
SUNPOU
  6
CONTINUOUS
 62
     4
 10
7407.0054167031503
 20
4541.1887039999983
 30
0.0
 11
12627.005416703139
 21
4541.1887039999983
 31
0.0
  0
LINE
  5
12324
  8
SUNPOU
  6
CONTINUOUS
 62
     4
 10
12584.505416703139
 20
5798.5361160000011
 30
0.0
 11
12584.505416703139
 21
4861.1885389999998
 31
0.0
  0
LINE
  5
12325
  8
SUNPOU
  6
CONTINUOUS
 62
     4
 10
12627.005416703139
 20
6161.1883740000021
 30
0.0
 11
12627.005416703139
 21
4861.1885389999998
 31
0.0
  0
LINE
  5
12326
  8
SUNPOU
  6
CONTINUOUS
 62
     4
 10
12584.505416703139
 20
4941.1885390000016
 30
0.0
 11
12344.505416703139
 21
4941.1885390000016
 31
0.0
  0
LINE
  5
12327
  8
SUNPOU
  6
CONTINUOUS
 62
     4
 10
12627.005416703139
 20
4941.1885390000016
 30
0.0
 11
12867.00541670315
 21
4941.1885390000016
 31
0.0
  0
LINE
  5
12328
  8
SUNPOU
  6
CONTINUOUS
 62
     4
 10
12584.505416703139
 20
4941.1885390000016
 30
0.0
 11
12627.005416703139
 21
4941.1885390000016
 31
0.0
  0
LINE
  5
12329
  8
SUNPOU
  6
CONTINUOUS
 62
     4
 10
7449.5054167031458
 20
5798.5361160000011
 30
0.0
 11
7449.5054167031458
 21
4861.1885389999998
 31
0.0
  0
LINE
  5
1232A
  8
SUNPOU
  6
CONTINUOUS
 62
     4
 10
7407.0054167031503
 20
6161.1883740000021
 30
0.0
 11
7407.0054167031503
 21
4861.1885389999998
 31
0.0
  0
LINE
  5
1232B
  8
SUNPOU
  6
CONTINUOUS
 62
     4
 10
7449.5054167031458
 20
4941.1885390000016
 30
0.0
 11
7689.5054167031476
 21
4941.1885390000016
 31
0.0
  0
LINE
  5
1232C
  8
SUNPOU
  6
CONTINUOUS
 62
     4
 10
7407.0054167031503
 20
4941.1885390000016
 30
0.0
 11
7167.0054167031476
 21
4941.1885390000016
 31
0.0
  0
LINE
  5
1232D
  8
SUNPOU
  6
CONTINUOUS
 62
     4
 10
7449.5054167031458
 20
4941.1885390000016
 30
0.0
 11
7407.0054167031503
 21
4941.1885390000016
 31
0.0
  0
LINE
  5
1232E
  8
SUNPOU
  6
CONTINUOUS
 62
     4
 10
10017.005416703139
 20
5798.5361160000011
 30
0.0
 11
10017.005416703139
 21
4861.1885389999998
 31
0.0
  0
LINE
  5
1232F
  8
SUNPOU
  6
CONTINUOUS
 62
     4
 10
7449.5054167031458
 20
5798.5361160000011
 30
0.0
 11
7449.5054167031458
 21
4861.1885389999998
 31
0.0
  0
LINE
  5
12330
  8
SUNPOU
  6
CONTINUOUS
 62
     4
 10
10017.005416703139
 20
4941.1885390000016
 30
0.0
 11
7449.5054167031458
 21
4941.1885390000016
 31
0.0
  0
LINE
  5
12331
  8
SUNPOU
  6
CONTINUOUS
 62
     4
 10
10017.005416703139
 20
5798.5361160000011
 30
0.0
 11
10017.005416703139
 21
4861.1885389999998
 31
0.0
  0
LINE
  5
12332
  8
SUNPOU
  6
CONTINUOUS
 62
     4
 10
12584.505416703139
 20
5798.5361160000011
 30
0.0
 11
12584.505416703139
 21
4861.1885389999998
 31
0.0
  0
LINE
  5
12333
  8
SUNPOU
  6
CONTINUOUS
 62
     4
 10
10017.005416703139
 20
4941.1885390000016
 30
0.0
 11
12584.505416703139
 21
4941.1885390000016
 31
0.0
  0
TEXT
  5
12369
  8
0
  6
CONTINUOUS
 62
     7
 10
10900.755416703139
 20
5021.1885389999998
 30
0.0
 40
160.0
  1
2567.5
  0
TEXT
  5
1236A
  8
0
  6
CONTINUOUS
 62
     7
 10
8333.2554167031485
 20
5021.1885389999998
 30
0.0
 40
160.0
  1
2567.5
  0
TEXT
  5
1236B
  8
0
  6
CONTINUOUS
 62
     7
 10
6825.0158027031566
 20
5022.1790570000003
 30
0.0
 40
160.0
  1
42.5
  0
TEXT
  5
1236C
  8
0
  6
CONTINUOUS
 62
     7
 10
12747.00706670314
 20
5021.1883080000007
 30
0.0
 40
160.0
  1
42.5
  0
TEXT
  5
1236D
  8
0
  6
CONTINUOUS
 62
     7
 10
9737.0054167031485
 20
4621.1887039999983
 30
0.0
 40
160.0
  1
5220
  0
TEXT
  5
1236E
  8
0
  6
CONTINUOUS
 62
     7
 10
6237.0050207031582
 20
6326.9383740000048
 30
0.0
 40
160.0
  1
2155.5（2395.5）
 50
90.0
  0
TEXT
  5
1236F
  8
0
  6
CONTINUOUS
 62
     7
 10
13637.00581270315
 20
6610.3550406666718
 30
0.0
 40
160.0
  1
2349（2589）
 50
90.0
  0
TEXT
  5
12370
  8
0
  6
CONTINUOUS
 62
     7
 10
6772.6636015680506
 20
9469.1900500000029
 30
0.0
 40
160.0
  1
180
  0
TEXT
  5
12371
  8
0
  6
CONTINUOUS
 62
     7
 10
9737.0054167031485
 20
9469.1900500000029
 30
0.0
 40
160.0
  1
5220
  0
TEXT
  5
12372
  8
0
  6
CONTINUOUS
 62
     7
 10
12843.6720833698
 20
9469.1900500000029
 30
0.0
 40
160.0
  1
150
  0
TEXT
  5
12373
  8
0
  6
CONTINUOUS
 62
     7
 10
9722.0054167031485
 20
9869.1883999999955
 30
0.0
 40
160.0
  1
5550
  0
ARC
  5
1244B
  8
0
  6
BYBLOCK
 62
     0
 10
7227.0054167031494
 20
9789.1883999999955
 30
0.0
 40
15.0
 50
0.0
 51
180.0
  0
ARC
  5
1244C
  8
0
  6
BYBLOCK
 62
     0
 10
7227.0054167031494
 20
9789.1883999999955
 30
0.0
 40
15.0
 50
180.0
 51
0.0
  0
ARC
  5
1244D
  8
0
  6
BYBLOCK
 62
     0
 10
12777.005416703139
 20
9789.1883999999955
 30
0.0
 40
15.0
 50
180.0
 51
0.0
  0
ARC
  5
1244E
  8
0
  6
BYBLOCK
 62
     0
 10
12777.005416703139
 20
9789.1883999999955
 30
0.0
 40
15.0
 50
0.0
 51
180.0
  0
ARC
  5
1244F
  8
0
  6
BYBLOCK
 62
     0
 10
12627.005416703139
 20
9389.1900500000029
 30
0.0
 40
15.0
 50
180.0
 51
0.0
  0
ARC
  5
12450
  8
0
  6
BYBLOCK
 62
     0
 10
12627.005416703139
 20
9389.1900500000029
 30
0.0
 40
15.0
 50
0.0
 51
180.0
  0
ARC
  5
12451
  8
0
  6
BYBLOCK
 62
     0
 10
12777.005416703139
 20
9389.1900500000029
 30
0.0
 40
15.0
 50
0.0
 51
180.0
  0
ARC
  5
12452
  8
0
  6
BYBLOCK
 62
     0
 10
12777.005416703139
 20
9389.1900500000029
 30
0.0
 40
15.0
 50
180.0
 51
0.0
  0
ARC
  5
12453
  8
0
  6
BYBLOCK
 62
     0
 10
7407.0054167031503
 20
9389.1900500000029
 30
0.0
 40
15.0
 50
0.0
 51
180.0
  0
ARC
  5
12454
  8
0
  6
BYBLOCK
 62
     0
 10
7407.0054167031503
 20
9389.1900500000029
 30
0.0
 40
15.0
 50
180.0
 51
0.0
  0
ARC
  5
12455
  8
0
  6
BYBLOCK
 62
     0
 10
12627.005416703139
 20
9389.1900500000029
 30
0.0
 40
15.0
 50
180.0
 51
0.0
  0
ARC
  5
12456
  8
0
  6
BYBLOCK
 62
     0
 10
12627.005416703139
 20
9389.1900500000029
 30
0.0
 40
15.0
 50
0.0
 51
180.0
  0
ARC
  5
12457
  8
0
  6
BYBLOCK
 62
     0
 10
7227.0054167031494
 20
9389.1900500000029
 30
0.0
 40
15.0
 50
180.0
 51
0.0
  0
ARC
  5
12458
  8
0
  6
BYBLOCK
 62
     0
 10
7227.0054167031494
 20
9389.1900500000029
 30
0.0
 40
15.0
 50
0.0
 51
180.0
  0
ARC
  5
12459
  8
0
  6
BYBLOCK
 62
     0
 10
7407.0054167031503
 20
9389.1900500000029
 30
0.0
 40
15.0
 50
180.0
 51
0.0
  0
ARC
  5
1245A
  8
0
  6
BYBLOCK
 62
     0
 10
7407.0054167031503
 20
9389.1900500000029
 30
0.0
 40
15.0
 50
0.0
 51
180.0
  0
ARC
  5
1245B
  8
0
  6
BYBLOCK
 62
     0
 10
13717.00581270315
 20
6241.1883740000021
 30
0.0
 40
15.0
 50
90.0
 51
270.0
  0
ARC
  5
1245C
  8
0
  6
BYBLOCK
 62
     0
 10
13717.00581270315
 20
6241.1883740000021
 30
0.0
 40
15.0
 50
270.0
 51
90.0
  0
ARC
  5
1245D
  8
0
  6
BYBLOCK
 62
     0
 10
13717.00581270315
 20
8590.188374000003
 30
0.0
 40
15.0
 50
270.0
 51
90.0
  0
ARC
  5
1245E
  8
0
  6
BYBLOCK
 62
     0
 10
13717.00581270315
 20
8590.188374000003
 30
0.0
 40
15.0
 50
90.0
 51
270.0
  0
ARC
  5
1245F
  8
0
  6
BYBLOCK
 62
     0
 10
6317.00502070316
 20
6241.1883740000021
 30
0.0
 40
15.0
 50
90.0
 51
270.0
  0
ARC
  5
12460
  8
0
  6
BYBLOCK
 62
     0
 10
6317.00502070316
 20
6241.1883740000021
 30
0.0
 40
15.0
 50
270.0
 51
90.0
  0
ARC
  5
12461
  8
0
  6
BYBLOCK
 62
     0
 10
6317.00502070316
 20
8396.688374000003
 30
0.0
 40
15.0
 50
270.0
 51
90.0
  0
ARC
  5
12462
  8
0
  6
BYBLOCK
 62
     0
 10
6317.00502070316
 20
8396.688374000003
 30
0.0
 40
15.0
 50
90.0
 51
270.0
  0
ARC
  5
12463
  8
0
  6
BYBLOCK
 62
     0
 10
7407.0054167031503
 20
4541.1887039999983
 30
0.0
 40
15.0
 50
0.0
 51
180.0
  0
ARC
  5
12464
  8
0
  6
BYBLOCK
 62
     0
 10
7407.0054167031503
 20
4541.1887039999983
 30
0.0
 40
15.0
 50
180.0
 51
0.0
  0
ARC
  5
12465
  8
0
  6
BYBLOCK
 62
     0
 10
12627.005416703139
 20
4541.1887039999983
 30
0.0
 40
15.0
 50
180.0
 51
0.0
  0
ARC
  5
12466
  8
0
  6
BYBLOCK
 62
     0
 10
12627.005416703139
 20
4541.1887039999983
 30
0.0
 40
15.0
 50
0.0
 51
180.0
  0
ARC
  5
12467
  8
0
  6
BYBLOCK
 62
     0
 10
12584.505416703139
 20
4941.1885390000016
 30
0.0
 40
15.0
 50
180.0
 51
0.0
  0
ARC
  5
12468
  8
0
  6
BYBLOCK
 62
     0
 10
12584.505416703139
 20
4941.1885390000016
 30
0.0
 40
15.0
 50
0.0
 51
180.0
  0
ARC
  5
12469
  8
0
  6
BYBLOCK
 62
     0
 10
12627.005416703139
 20
4941.1885390000016
 30
0.0
 40
15.0
 50
0.0
 51
180.0
  0
ARC
  5
1246A
  8
0
  6
BYBLOCK
 62
     0
 10
12627.005416703139
 20
4941.1885390000016
 30
0.0
 40
15.0
 50
180.0
 51
0.0
  0
ARC
  5
1246B
  8
0
  6
BYBLOCK
 62
     0
 10
7449.5054167031458
 20
4941.1885390000016
 30
0.0
 40
15.0
 50
0.0
 51
180.0
  0
ARC
  5
1246C
  8
0
  6
BYBLOCK
 62
     0
 10
7449.5054167031458
 20
4941.1885390000016
 30
0.0
 40
15.0
 50
180.0
 51
0.0
  0
ARC
  5
1246D
  8
0
  6
BYBLOCK
 62
     0
 10
7407.0054167031503
 20
4941.1885390000016
 30
0.0
 40
15.0
 50
180.0
 51
0.0
  0
ARC
  5
1246E
  8
0
  6
BYBLOCK
 62
     0
 10
7407.0054167031503
 20
4941.1885390000016
 30
0.0
 40
15.0
 50
0.0
 51
180.0
  0
ARC
  5
1246F
  8
0
  6
BYBLOCK
 62
     0
 10
10017.005416703139
 20
4941.1885390000016
 30
0.0
 40
15.0
 50
180.0
 51
0.0
  0
ARC
  5
12470
  8
0
  6
BYBLOCK
 62
     0
 10
10017.005416703139
 20
4941.1885390000016
 30
0.0
 40
15.0
 50
0.0
 51
180.0
  0
ARC
  5
12471
  8
0
  6
BYBLOCK
 62
     0
 10
7449.5054167031458
 20
4941.1885390000016
 30
0.0
 40
15.0
 50
0.0
 51
180.0
  0
ARC
  5
12472
  8
0
  6
BYBLOCK
 62
     0
 10
7449.5054167031458
 20
4941.1885390000016
 30
0.0
 40
15.0
 50
180.0
 51
0.0
  0
ARC
  5
12473
  8
0
  6
BYBLOCK
 62
     0
 10
10017.005416703139
 20
4941.1885390000016
 30
0.0
 40
15.0
 50
0.0
 51
180.0
  0
ARC
  5
12474
  8
0
  6
BYBLOCK
 62
     0
 10
10017.005416703139
 20
4941.1885390000016
 30
0.0
 40
15.0
 50
180.0
 51
0.0
  0
ARC
  5
12475
  8
0
  6
BYBLOCK
 62
     0
 10
12584.505416703139
 20
4941.1885390000016
 30
0.0
 40
15.0
 50
180.0
 51
0.0
  0
ARC
  5
12476
  8
0
  6
BYBLOCK
 62
     0
 10
12584.505416703139
 20
4941.1885390000016
 30
0.0
 40
15.0
 50
0.0
 51
180.0
  0
LINE
  5
12F6A
  8
2-0
  6
CENTER2
 62
     6
 10
23262.783799817331
 20
20960.489221
 30
0.0
 11
23262.783799817331
 21
19101.487531999959
 31
0.0
  0
LINE
  5
12F6B
  8
2-0
  6
CENTER2
 62
     6
 10
20695.283799817342
 20
20960.489221
 30
0.0
 11
20695.283799817342
 21
19101.487531999959
 31
0.0
  0
LINE
  5
12F6C
  8
2-0
  6
CENTER2
 62
     6
 10
18652.78287681736
 20
19317.98697799999
 30
0.0
 11
19372.78155681735
 21
19317.98697799999
 31
0.0
  0
LINE
  5
12F6D
  8
2-0
  6
CENTER2
 62
     6
 10
19532.78155681735
 20
19317.98697799999
 30
0.0
 11
26367.388635769279
 21
19317.98697799999
 31
0.0
  0
LINE
  5
12F6E
  8
2-0
  6
CENTER2
 62
     6
 10
18652.782876817331
 20
16750.48697799999
 30
0.0
 11
18897.82677636627
 21
16750.48697799999
 31
0.0
  0
LINE
  5
12F6F
  8
2-0
  6
CENTER2
 62
     6
 10
19522.784195817341
 20
16750.48697799999
 30
0.0
 11
26367.388635769279
 21
16750.48697799999
 31
0.0
  0
LINE
  5
12F70
  8
2-0
  6
CENTER2
 62
     6
 10
18652.78287681736
 20
14182.986978000001
 30
0.0
 11
19372.78155681735
 21
14182.986978000001
 31
0.0
  0
LINE
  5
12F71
  8
2-0
  6
CENTER2
 62
     6
 10
19532.78155681735
 20
14182.986978000001
 30
0.0
 11
26367.388635769279
 21
14182.986978000001
 31
0.0
  0
CIRCLE
  5
12F72
  8
0-5
  6
CONTINUOUS
 62
     4
 10
23262.783799817331
 20
21160.48790199999
 30
0.0
 40
199.9999949999999
  0
CIRCLE
  5
12F73
  8
0-5
  6
CONTINUOUS
 62
     4
 10
18452.78221681737
 20
19317.98697799999
 30
0.0
 40
199.9999949999999
  0
CIRCLE
  5
12F74
  8
0-5
  6
CONTINUOUS
 62
     4
 10
18452.782216817352
 20
16750.48697799999
 30
0.0
 40
199.9999949999999
  0
CIRCLE
  5
12F75
  8
0-5
  6
CONTINUOUS
 62
     4
 10
18452.78221681737
 20
14182.986978000001
 30
0.0
 40
199.9999949999999
  0
CIRCLE
  5
12F76
  8
0-5
  6
CONTINUOUS
 62
     4
 10
20695.283799817342
 20
21160.48790199999
 30
0.0
 40
199.9999949999999
  0
TEXT
  5
12F77
  8
0-5
  6
CONTINUOUS
 62
     7
 10
23208.113455817322
 20
21074.262051999998
 30
0.0
 40
160.0
  1
2
 72
     4
 11
23261.446789150661
 21
21154.262051999998
 31
0.0
  0
TEXT
  5
12F78
  8
0-5
  6
CONTINUOUS
 62
     7
 10
20668.61713315067
 20
21080.48790199999
 30
0.0
 40
160.0
  1
1
 72
     4
 11
20695.283799817342
 21
21160.48790199999
 31
0.0
  0
TEXT
  5
12F79
  8
0-5
  6
CONTINUOUS
 62
     7
 10
18404.10585481735
 20
19226.36891899999
 30
0.0
 40
160.0
  1
C
 72
     4
 11
18457.439188150682
 21
19306.36891899999
 31
0.0
  0
TEXT
  5
12F7A
  8
0-5
  6
CONTINUOUS
 62
     7
 10
18404.10585481735
 20
16658.868920000001
 30
0.0
 40
160.0
  1
B
 72
     4
 11
18457.439188150682
 21
16738.868920000001
 31
0.0
  0
TEXT
  5
12F7B
  8
0-5
  6
CONTINUOUS
 62
     7
 10
18404.10585481735
 20
14091.368919
 30
0.0
 40
160.0
  1
A
 72
     4
 11
18457.439188150682
 21
14171.368919
 31
0.0
  0
LINE
  5
12F7C
  8
2-0
  6
CENTER2
 62
     6
 10
26062.783799817342
 20
20960.489221
 30
0.0
 11
26062.783799817342
 21
13825.233099531581
 31
0.0
  0
LINE
  5
12F7D
  8
2-0
  6
CENTER2
 62
     6
 10
23262.783799817342
 20
20960.489221
 30
0.0
 11
23262.783799817342
 21
13477.223543999989
 31
0.0
  0
LINE
  5
12F7E
  8
2-0
  6
CENTER2
 62
     6
 10
20695.283799817342
 20
20960.489221
 30
0.0
 11
20695.283799817342
 21
13477.223543999989
 31
0.0
  0
CIRCLE
  5
12F7F
  8
0-5
  6
CONTINUOUS
 62
     4
 10
26062.783799817342
 20
21160.48790199999
 30
0.0
 40
199.9999949999999
  0
TEXT
  5
12F80
  8
0-5
  6
CONTINUOUS
 62
     7
 10
26008.113455817329
 20
21074.262051999998
 30
0.0
 40
160.0
  1
3
 72
     4
 11
26061.446789150661
 21
21154.262051999998
 31
0.0
  0
ARC
  5
12F81
  8
1-後柱P
  6
HIDE-M
 62
     6
 10
26066.383799817351
 20
19249.936977999991
 30
0.0
 40
2.6000000000000001
 50
180.0
 51
270.0
  0
LINE
  5
12F82
  8
1-後柱P
  6
HIDE-M
 62
     6
 10
26054.783799817342
 20
19247.887587846799
 30
0.0
 11
26054.783799817342
 21
19251.536978
 31
0.0
  0
LINE
  5
12F83
  8
1-後柱P
  6
HIDE-M
 62
     6
 10
26064.783799817342
 20
19247.887587846799
 30
0.0
 11
26064.783799817342
 21
19251.536978
 31
0.0
  0
LINE
  5
12F84
  8
1-後柱P
  6
1PL-M
 62
     6
 10
26059.783799817342
 20
19242.336977999999
 30
0.0
 11
26059.783799817342
 21
19256.536978
 31
0.0
  0
ARC
  5
12F85
  8
1-後柱P
  6
HIDE-M
 62
     6
 10
26053.18379981734
 20
19249.936977999991
 30
0.0
 40
2.6000000000000001
 50
270.0
 51
0.0
  0
LINE
  5
12F86
  8
1-後柱P
  6
HIDE-M
 62
     6
 10
26063.783799817342
 20
19249.936977999991
 30
0.0
 11
26063.783799817342
 21
19251.536978
 31
0.0
  0
LINE
  5
12F87
  8
1-後柱P
  6
HIDE-M
 62
     6
 10
26055.783799817331
 20
19249.936977999991
 30
0.0
 11
26055.783799817331
 21
19251.536978
 31
0.0
  0
LINE
  5
12F88
  8
1-後柱P
 10
26073.68379981734
 20
19362.23697799999
 30
0.0
 11
26051.883799817359
 21
19362.23697799999
 31
0.0
  0
LINE
  5
12F89
  8
1-後柱P
 10
26021.883799817359
 20
19324.93697799998
 30
0.0
 11
26021.883799817359
 21
19332.23697799999
 31
0.0
  0
ARC
  5
12F8A
  8
1-後柱P
 10
26051.883799817359
 20
19332.23697799999
 30
0.0
 40
30.0
 50
90.0
 51
180.0
  0
ARC
  5
12F8B
  8
1-後柱P
 10
26051.883799817359
 20
19332.23697799999
 30
0.0
 40
31.600000000000001
 50
90.0
 51
180.0
  0
LINE
  5
12F8C
  8
1-後柱P
 10
26073.68379981734
 20
19363.836977999999
 30
0.0
 11
26051.883799817359
 21
19363.836977999999
 31
0.0
  0
LINE
  5
12F8D
  8
1-後柱P
 10
26020.283799817342
 20
19324.93697799998
 30
0.0
 11
26020.283799817342
 21
19332.23697799999
 31
0.0
  0
LINE
  5
12F8E
  8
1-後柱P
 10
26043.283799817342
 20
19303.336977999999
 30
0.0
 11
26043.283799817342
 21
19313.336977999999
 31
0.0
  0
LINE
  5
12F8F
  8
1-後柱P
 10
26044.883799817359
 20
19313.336977999999
 30
0.0
 11
26044.883799817359
 21
19303.336977999999
 31
0.0
  0
LINE
  5
12F90
  8
1-後柱P
 10
26103.68379981734
 20
19324.93697799998
 30
0.0
 11
26103.68379981734
 21
19332.23697799999
 31
0.0
  0
ARC
  5
12F91
  8
1-後柱P
 10
26073.68379981734
 20
19332.23697799999
 30
0.0
 40
30.0
 50
0.0
 51
90.0
  0
ARC
  5
12F92
  8
1-後柱P
 10
26073.68379981734
 20
19332.23697799999
 30
0.0
 40
31.600000000000001
 50
0.0
 51
90.0
  0
LINE
  5
12F93
  8
1-後柱P
 10
26105.283799817342
 20
19324.93697799998
 30
0.0
 11
26105.283799817342
 21
19332.23697799999
 31
0.0
  0
LINE
  5
12F94
  8
1-後柱P
 10
26098.68379981734
 20
19318.336977999999
 30
0.0
 11
26087.283799817331
 21
19318.336977999999
 31
0.0
  0
ARC
  5
12F95
  8
1-後柱P
 10
26098.68379981734
 20
19324.93697799998
 30
0.0
 40
6.599999999999997
 50
270.0
 51
0.0
  0
ARC
  5
12F96
  8
1-後柱P
 10
26087.283799817331
 20
19313.336977999999
 30
0.0
 40
5.0
 50
90.0
 51
180.0
  0
LINE
  5
12F97
  8
1-後柱P
 10
26098.68379981734
 20
19319.93697799998
 30
0.0
 11
26087.283799817331
 21
19319.93697799998
 31
0.0
  0
ARC
  5
12F98
  8
1-後柱P
 10
26098.68379981734
 20
19324.93697799998
 30
0.0
 40
5.0
 50
270.0
 51
0.0
  0
LINE
  5
12F99
  8
1-後柱P
 10
26082.283799817342
 20
19313.336977999999
 30
0.0
 11
26082.283799817342
 21
19253.936977999991
 31
0.0
  0
LINE
  5
12F9A
  8
1-後柱P
 10
26080.68379981734
 20
19313.336977999999
 30
0.0
 11
26080.68379981734
 21
19253.936977999991
 31
0.0
  0
ARC
  5
12F9B
  8
1-後柱P
 10
26087.283799817331
 20
19313.336977999999
 30
0.0
 40
6.599999999999997
 50
90.0
 51
180.0
  0
LINE
  5
12F9C
  8
1-後柱P
 10
26075.68379981734
 20
19247.336977999999
 30
0.0
 11
26042.283799817342
 21
19247.336977999999
 31
0.0
  0
ARC
  5
12F9D
  8
1-後柱P
 10
26075.68379981734
 20
19253.936977999991
 30
0.0
 40
6.599999999999997
 50
270.0
 51
0.0
  0
LINE
  5
12F9E
  8
1-後柱P
 10
26075.68379981734
 20
19248.93697799998
 30
0.0
 11
26042.283799817342
 21
19248.93697799998
 31
0.0
  0
ARC
  5
12F9F
  8
1-後柱P
 10
26075.68379981734
 20
19253.936977999991
 30
0.0
 40
5.0
 50
270.0
 51
0.0
  0
LINE
  5
12FA0
  8
1-後柱P
 10
26042.283799817342
 20
19248.93697799998
 30
0.0
 11
26042.283799817342
 21
19247.336977999999
 31
0.0
  0
LINE
  5
12FA1
  8
1-後柱P
 10
26026.883799817359
 20
19318.336977999999
 30
0.0
 11
26038.283799817331
 21
19318.336977999999
 31
0.0
  0
ARC
  5
12FA2
  8
1-後柱P
 10
26026.883799817359
 20
19324.93697799998
 30
0.0
 40
6.599999999999997
 50
180.0
 51
270.0
  0
ARC
  5
12FA3
  8
1-後柱P
 10
26038.283799817331
 20
19313.336977999999
 30
0.0
 40
5.0
 50
0.0
 51
90.0
  0
LINE
  5
12FA4
  8
1-後柱P
 10
26038.283799817331
 20
19319.93697799998
 30
0.0
 11
26026.883799817359
 21
19319.93697799998
 31
0.0
  0
ARC
  5
12FA5
  8
1-後柱P
 10
26038.283799817331
 20
19313.336977999999
 30
0.0
 40
6.599999999999997
 50
0.0
 51
90.0
  0
ARC
  5
12FA6
  8
1-後柱P
 10
26026.883799817359
 20
19324.93697799998
 30
0.0
 40
5.0
 50
180.0
 51
270.0
  0
LINE
  5
12FA7
  8
1-後柱P
 10
26043.283799817342
 20
19303.336977999999
 30
0.0
 11
26044.883799817359
 21
19303.336977999999
 31
0.0
  0
LINE
  5
12FA8
  8
1-後柱カバ-P
 10
26020.283799817342
 20
19311.636977999999
 30
0.0
 11
26020.283799817342
 21
19252.336977999999
 31
0.0
  0
ARC
  5
12FA9
  8
1-後柱カバ-P
 10
26026.883799817359
 20
19252.336977999999
 30
0.0
 40
6.599999999999997
 50
180.0
 51
270.0
  0
LINE
  5
12FAA
  8
1-後柱カバ-P
 10
26021.883799817359
 20
19311.636977999999
 30
0.0
 11
26021.883799817359
 21
19252.336977999999
 31
0.0
  0
ARC
  5
12FAB
  8
1-後柱カバ-P
 10
26026.883799817359
 20
19311.636977999999
 30
0.0
 40
5.0
 50
90.0
 51
180.0
  0
LINE
  5
12FAC
  8
1-後柱カバ-P
 10
26026.883799817359
 20
19245.73697799999
 30
0.0
 11
26098.68379981734
 21
19245.73697799999
 31
0.0
  0
ARC
  5
12FAD
  8
1-後柱カバ-P
 10
26098.68379981734
 20
19252.336977999999
 30
0.0
 40
6.599999999999997
 50
270.0
 51
0.0
  0
LINE
  5
12FAE
  8
1-後柱カバ-P
 10
26026.883799817359
 20
19247.336977999999
 30
0.0
 11
26098.68379981734
 21
19247.336977999999
 31
0.0
  0
ARC
  5
12FAF
  8
1-後柱カバ-P
 10
26098.68379981734
 20
19252.336977999999
 30
0.0
 40
5.0
 50
270.0
 51
0.0
  0
ARC
  5
12FB0
  8
1-後柱カバ-P
 10
26026.883799817359
 20
19252.336977999999
 30
0.0
 40
5.0
 50
180.0
 51
270.0
  0
LINE
  5
12FB1
  8
1-後柱カバ-P
 10
26105.283799817342
 20
19252.336977999999
 30
0.0
 11
26105.283799817342
 21
19311.636977999999
 31
0.0
  0
LINE
  5
12FB2
  8
1-後柱カバ-P
 10
26103.68379981734
 20
19252.336977999999
 30
0.0
 11
26103.68379981734
 21
19311.636977999999
 31
0.0
  0
ARC
  5
12FB3
  8
1-後柱カバ-P
 10
26098.68379981734
 20
19311.636977999999
 30
0.0
 40
5.0
 50
0.0
 51
90.0
  0
LINE
  5
12FB4
  8
1-後柱カバ-P
  6
1PL-M
 62
     6
 10
26062.783799817342
 20
19253.23697799999
 30
0.0
 11
26062.783799817342
 21
19240.23697799999
 31
0.0
  0
LINE
  5
12FB5
  8
1-後柱カバ-P
  6
HIDE-M
 62
     6
 10
26055.783799817331
 20
19245.73697799999
 30
0.0
 11
26055.783799817331
 21
19247.336977999999
 31
0.0
  0
LINE
  5
12FB6
  8
1-後柱カバ-P
  6
HIDE-M
 62
     6
 10
26069.783799817342
 20
19245.73697799999
 30
0.0
 11
26069.783799817342
 21
19247.336977999999
 31
0.0
  0
ARC
  5
12FB7
  8
1-後柱カバ-P
 10
26026.883799817359
 20
19311.636977999999
 30
0.0
 40
6.599999999999997
 50
90.0
 51
180.0
  0
ARC
  5
12FB8
  8
1-後柱カバ-P
 10
26098.68379981734
 20
19311.636977999999
 30
0.0
 40
6.599999999999997
 50
0.0
 51
90.0
  0
LINE
  5
12FB9
  8
1-後柱カバ-P
 10
26090.283799817342
 20
19318.23697799999
 30
0.0
 11
26098.68379981734
 21
19318.23697799999
 31
0.0
  0
LINE
  5
12FBA
  8
1-後柱カバ-P
 10
26035.283799817342
 20
19318.23697799999
 30
0.0
 11
26026.883799817359
 21
19318.23697799999
 31
0.0
  0
LINE
  5
12FBB
  8
1-後柱カバ-P
 10
26090.283799817342
 20
19316.636977999999
 30
0.0
 11
26098.68379981734
 21
19316.636977999999
 31
0.0
  0
LINE
  5
12FBC
  8
1-後柱カバ-P
 10
26035.283799817342
 20
19316.636977999999
 30
0.0
 11
26026.883799817359
 21
19316.636977999999
 31
0.0
  0
LINE
  5
12FBD
  8
1-後柱カバ-P
 10
26035.283799817342
 20
19316.636977999999
 30
0.0
 11
26035.283799817342
 21
19318.23697799999
 31
0.0
  0
LINE
  5
12FBE
  8
1-後柱カバ-P
 10
26090.283799817342
 20
19318.23697799999
 30
0.0
 11
26090.283799817342
 21
19316.636977999999
 31
0.0
  0
LINE
  5
12FBF
  8
1-後柱カバ-P
  6
HIDE-M
 62
     6
 10
26094.18379981734
 20
19297.23697799999
 30
0.0
 11
26105.783799817342
 21
19297.23697799999
 31
0.0
  0
LINE
  5
12FC0
  8
1-後柱カバ-P
  6
HIDE-M
 62
     6
 10
26094.18379981734
 20
19289.23697799999
 30
0.0
 11
26105.783799817342
 21
19289.23697799999
 31
0.0
  0
LINE
  5
12FC1
  8
1-後柱カバ-P
  6
HIDE-M
 62
     6
 10
26094.18379981734
 20
19296.23697799999
 30
0.0
 11
26105.783799817342
 21
19296.23697799999
 31
0.0
  0
LINE
  5
12FC2
  8
1-後柱カバ-P
  6
HIDE-M
 62
     6
 10
26094.18379981734
 20
19290.23697799999
 30
0.0
 11
26105.783799817342
 21
19290.23697799999
 31
0.0
  0
LINE
  5
12FC3
  8
1-後柱カバ-P
 10
26095.18379981734
 20
19287.73697799999
 30
0.0
 11
26102.18379981734
 21
19287.73697799999
 31
0.0
  0
LINE
  5
12FC4
  8
1-後柱カバ-P
 10
26102.18379981734
 20
19298.73697799999
 30
0.0
 11
26095.18379981734
 21
19298.73697799999
 31
0.0
  0
LINE
  5
12FC5
  8
1-後柱カバ-P
 10
26102.18379981734
 20
19299.48697799999
 30
0.0
 11
26102.18379981734
 21
19286.98697799999
 31
0.0
  0
LINE
  5
12FC6
  8
1-後柱カバ-P
 10
26105.783799817342
 20
19299.23697799999
 30
0.0
 11
26105.783799817342
 21
19287.23697799999
 31
0.0
  0
LINE
  5
12FC7
  8
1-後柱カバ-P
  6
HIDE-M
 62
     6
 10
26103.68379981734
 20
19287.73697799999
 30
0.0
 11
26105.283799817342
 21
19287.73697799999
 31
0.0
  0
LINE
  5
12FC8
  8
1-後柱カバ-P
 10
26105.783799817342
 20
19287.23697799999
 30
0.0
 11
26105.283799817342
 21
19287.73697799999
 31
0.0
  0
ARC
  5
12FC9
  8
1-後柱カバ-P
 10
26102.93379981734
 20
19286.98697799999
 30
0.0
 40
0.75
 50
180.0
 51
0.0
  0
LINE
  5
12FCA
  8
1-後柱カバ-P
  6
HIDE-M
 62
     6
 10
26105.283799817342
 20
19298.73697799999
 30
0.0
 11
26103.68379981734
 21
19298.73697799999
 31
0.0
  0
LINE
  5
12FCB
  8
1-後柱カバ-P
 10
26105.783799817342
 20
19299.23697799999
 30
0.0
 11
26105.283799817342
 21
19298.73697799999
 31
0.0
  0
ARC
  5
12FCC
  8
1-後柱カバ-P
 10
26102.93379981734
 20
19299.48697799999
 30
0.0
 40
0.75
 50
0.0
 51
180.0
  0
LINE
  5
12FCD
  8
1-後柱カバ-P
 10
26094.18379981734
 20
19297.73697799999
 30
0.0
 11
26094.18379981734
 21
19288.73697799999
 31
0.0
  0
ARC
  5
12FCE
  8
1-後柱カバ-P
 10
26095.18379981734
 20
19288.73697799999
 30
0.0
 40
1.0
 50
180.0
 51
270.0
  0
ARC
  5
12FCF
  8
1-後柱カバ-P
 10
26095.18379981734
 20
19297.73697799999
 30
0.0
 40
1.0
 50
90.0
 51
180.0
  0
LINE
  5
12FD0
  8
1-後柱カバ-P
  6
1PL-M
 62
     6
 10
26089.18379981734
 20
19293.23697799999
 30
0.0
 11
26110.783799817342
 21
19293.23697799999
 31
0.0
  0
LINE
  5
12FD1
  8
1-後柱カバ-P
 10
26095.18379981734
 20
19277.73697799999
 30
0.0
 11
26102.18379981734
 21
19277.73697799999
 31
0.0
  0
LINE
  5
12FD2
  8
1-後柱カバ-P
 10
26105.783799817342
 20
19285.23697799999
 30
0.0
 11
26105.783799817342
 21
19277.23697799999
 31
0.0
  0
LINE
  5
12FD3
  8
1-後柱カバ-P
  6
HIDE-M
 62
     6
 10
26103.68379981734
 20
19277.73697799999
 30
0.0
 11
26105.283799817342
 21
19277.73697799999
 31
0.0
  0
LINE
  5
12FD4
  8
1-後柱カバ-P
 10
26105.783799817342
 20
19277.23697799999
 30
0.0
 11
26105.283799817342
 21
19277.73697799999
 31
0.0
  0
ARC
  5
12FD5
  8
1-後柱カバ-P
 10
26102.93379981734
 20
19276.98697799999
 30
0.0
 40
0.75
 50
180.0
 51
0.0
  0
LINE
  5
12FD6
  8
1-後柱カバ-P
 10
26094.18379981734
 20
19286.73697799999
 30
0.0
 11
26094.18379981734
 21
19278.73697799999
 31
0.0
  0
ARC
  5
12FD7
  8
1-後柱カバ-P
 10
26095.18379981734
 20
19278.73697799999
 30
0.0
 40
1.0
 50
180.0
 51
270.0
  0
LINE
  5
12FD8
  8
1-後柱カバ-P
  6
1PL-M
 62
     6
 10
26089.18379981734
 20
19283.23697799999
 30
0.0
 11
26110.783799817342
 21
19283.23697799999
 31
0.0
  0
LINE
  5
12FD9
  8
1-後柱カバ-P
 10
26102.18379981734
 20
19284.98697799999
 30
0.0
 11
26102.18379981734
 21
19276.98697799999
 31
0.0
  0
LINE
  5
12FDA
  8
1-後柱カバ-P
  6
HIDE-M
 62
     6
 10
26031.383799817351
 20
19297.23697799999
 30
0.0
 11
26019.783799817342
 21
19297.23697799999
 31
0.0
  0
LINE
  5
12FDB
  8
1-後柱カバ-P
  6
HIDE-M
 62
     6
 10
26031.383799817351
 20
19289.23697799999
 30
0.0
 11
26019.783799817342
 21
19289.23697799999
 31
0.0
  0
LINE
  5
12FDC
  8
1-後柱カバ-P
  6
HIDE-M
 62
     6
 10
26031.383799817351
 20
19296.23697799999
 30
0.0
 11
26019.783799817342
 21
19296.23697799999
 31
0.0
  0
LINE
  5
12FDD
  8
1-後柱カバ-P
  6
HIDE-M
 62
     6
 10
26031.383799817351
 20
19290.23697799999
 30
0.0
 11
26019.783799817342
 21
19290.23697799999
 31
0.0
  0
LINE
  5
12FDE
  8
1-後柱カバ-P
 10
26030.383799817359
 20
19287.73697799999
 30
0.0
 11
26023.383799817359
 21
19287.73697799999
 31
0.0
  0
LINE
  5
12FDF
  8
1-後柱カバ-P
 10
26023.383799817359
 20
19298.73697799999
 30
0.0
 11
26030.383799817359
 21
19298.73697799999
 31
0.0
  0
LINE
  5
12FE0
  8
1-後柱カバ-P
 10
26023.383799817359
 20
19299.48697799999
 30
0.0
 11
26023.383799817359
 21
19286.98697799999
 31
0.0
  0
LINE
  5
12FE1
  8
1-後柱カバ-P
 10
26019.783799817342
 20
19299.23697799999
 30
0.0
 11
26019.783799817342
 21
19287.23697799999
 31
0.0
  0
LINE
  5
12FE2
  8
1-後柱カバ-P
  6
HIDE-M
 62
     6
 10
26021.883799817359
 20
19287.73697799999
 30
0.0
 11
26020.283799817342
 21
19287.73697799999
 31
0.0
  0
LINE
  5
12FE3
  8
1-後柱カバ-P
 10
26019.783799817342
 20
19287.23697799999
 30
0.0
 11
26020.283799817342
 21
19287.73697799999
 31
0.0
  0
ARC
  5
12FE4
  8
1-後柱カバ-P
 10
26022.633799817359
 20
19286.98697799999
 30
0.0
 40
0.75
 50
180.0
 51
0.0
  0
LINE
  5
12FE5
  8
1-後柱カバ-P
  6
HIDE-M
 62
     6
 10
26020.283799817342
 20
19298.73697799999
 30
0.0
 11
26021.883799817359
 21
19298.73697799999
 31
0.0
  0
LINE
  5
12FE6
  8
1-後柱カバ-P
 10
26019.783799817342
 20
19299.23697799999
 30
0.0
 11
26020.283799817342
 21
19298.73697799999
 31
0.0
  0
ARC
  5
12FE7
  8
1-後柱カバ-P
 10
26022.633799817359
 20
19299.48697799999
 30
0.0
 40
0.75
 50
0.0
 51
180.0
  0
LINE
  5
12FE8
  8
1-後柱カバ-P
 10
26031.383799817351
 20
19297.73697799999
 30
0.0
 11
26031.383799817351
 21
19288.73697799999
 31
0.0
  0
ARC
  5
12FE9
  8
1-後柱カバ-P
 10
26030.383799817359
 20
19288.73697799999
 30
0.0
 40
1.0
 50
270.0
 51
0.0
  0
ARC
  5
12FEA
  8
1-後柱カバ-P
 10
26030.383799817359
 20
19297.73697799999
 30
0.0
 40
1.0
 50
0.0
 51
90.0
  0
LINE
  5
12FEB
  8
1-後柱カバ-P
  6
1PL-M
 62
     6
 10
26036.383799817359
 20
19293.23697799999
 30
0.0
 11
26014.783799817331
 21
19293.23697799999
 31
0.0
  0
LINE
  5
12FEC
  8
1-後柱カバ-P
 10
26030.383799817359
 20
19277.73697799999
 30
0.0
 11
26023.383799817359
 21
19277.73697799999
 31
0.0
  0
LINE
  5
12FED
  8
1-後柱カバ-P
 10
26019.783799817342
 20
19285.23697799999
 30
0.0
 11
26019.783799817342
 21
19277.23697799999
 31
0.0
  0
LINE
  5
12FEE
  8
1-後柱カバ-P
  6
HIDE-M
 62
     6
 10
26021.883799817359
 20
19277.73697799999
 30
0.0
 11
26020.283799817342
 21
19277.73697799999
 31
0.0
  0
LINE
  5
12FEF
  8
1-後柱カバ-P
 10
26019.783799817342
 20
19277.23697799999
 30
0.0
 11
26020.283799817342
 21
19277.73697799999
 31
0.0
  0
ARC
  5
12FF0
  8
1-後柱カバ-P
 10
26022.633799817359
 20
19276.98697799999
 30
0.0
 40
0.75
 50
180.0
 51
0.0
  0
LINE
  5
12FF1
  8
1-後柱カバ-P
 10
26031.383799817351
 20
19286.73697799999
 30
0.0
 11
26031.383799817351
 21
19278.73697799999
 31
0.0
  0
ARC
  5
12FF2
  8
1-後柱カバ-P
 10
26030.383799817359
 20
19278.73697799999
 30
0.0
 40
1.0
 50
270.0
 51
0.0
  0
LINE
  5
12FF3
  8
1-後柱カバ-P
  6
1PL-M
 62
     6
 10
26036.383799817359
 20
19283.23697799999
 30
0.0
 11
26014.783799817331
 21
19283.23697799999
 31
0.0
  0
LINE
  5
12FF4
  8
1-後柱カバ-P
 10
26023.383799817359
 20
19284.98697799999
 30
0.0
 11
26023.383799817359
 21
19276.98697799999
 31
0.0
  0
LINE
  5
12FF5
  8
1-後柱カバ-P
  6
HIDE-M
 62
     6
 10
26094.18379981734
 20
19279.23697799999
 30
0.0
 11
26105.783799817342
 21
19279.23697799999
 31
0.0
  0
LINE
  5
12FF6
  8
1-後柱カバ-P
  6
HIDE-M
 62
     6
 10
26094.18379981734
 20
19280.23697799999
 30
0.0
 11
26105.783799817342
 21
19280.23697799999
 31
0.0
  0
LINE
  5
12FF7
  8
1-後柱カバ-P
  6
HIDE-M
 62
     6
 10
26031.383799817351
 20
19279.23697799999
 30
0.0
 11
26019.783799817342
 21
19279.23697799999
 31
0.0
  0
LINE
  5
12FF8
  8
1-後柱カバ-P
  6
HIDE-M
 62
     6
 10
26031.383799817351
 20
19280.23697799999
 30
0.0
 11
26019.783799817342
 21
19280.23697799999
 31
0.0
  0
LINE
  5
12FF9
  8
1-中柱P
 10
26098.683799817329
 20
16679.48697799999
 30
0.0
 11
26026.883799817329
 21
16679.48697799999
 31
0.0
  0
ARC
  5
12FFA
  8
1-中柱P
 10
26098.683799817329
 20
16684.48697799999
 30
0.0
 40
5.0
 50
270.0
 51
0.0
  0
ARC
  5
12FFB
  8
1-中柱P
 10
26026.883799817329
 20
16684.48697799999
 30
0.0
 40
5.0
 50
180.0
 51
270.0
  0
LINE
  5
12FFC
  8
1-中柱P
 10
26098.683799817329
 20
16677.886977999999
 30
0.0
 11
26026.883799817329
 21
16677.886977999999
 31
0.0
  0
ARC
  5
12FFD
  8
1-中柱P
 10
26098.683799817329
 20
16684.48697799999
 30
0.0
 40
6.599999999999997
 50
270.0
 51
0.0
  0
LINE
  5
12FFE
  8
1-中柱P
 10
26020.283799817342
 20
16743.786978
 30
0.0
 11
26020.283799817342
 21
16684.48697799999
 31
0.0
  0
ARC
  5
12FFF
  8
1-中柱P
 10
26026.883799817329
 20
16684.48697799999
 30
0.0
 40
6.599999999999997
 50
180.0
 51
270.0
  0
LINE
  5
13000
  8
1-中柱P
 10
26021.883799817319
 20
16684.48697799999
 30
0.0
 11
26021.883799817319
 21
16743.786978
 31
0.0
  0
ARC
  5
13001
  8
1-中柱P
 10
26026.883799817329
 20
16743.786978
 30
0.0
 40
5.0
 50
90.0
 51
180.0
  0
LINE
  5
13002
  8
1-中柱P
 10
26105.283799817342
 20
16743.786978
 30
0.0
 11
26105.283799817342
 21
16684.48697799999
 31
0.0
  0
LINE
  5
13003
  8
1-中柱P
 10
26103.683799817329
 20
16684.48697799999
 30
0.0
 11
26103.683799817329
 21
16743.786978
 31
0.0
  0
LINE
  5
13004
  8
1-中柱P
 10
26098.683799817329
 20
16750.386977999999
 30
0.0
 11
26090.283799817342
 21
16750.386977999999
 31
0.0
  0
ARC
  5
13005
  8
1-中柱P
 10
26098.683799817329
 20
16743.786978
 30
0.0
 40
6.599999999999997
 50
0.0
 51
90.0
  0
LINE
  5
13006
  8
1-中柱P
 10
26098.683799817329
 20
16748.786978
 30
0.0
 11
26090.283799817342
 21
16748.786978
 31
0.0
  0
ARC
  5
13007
  8
1-中柱P
 10
26090.283799817342
 20
16755.386977999999
 30
0.0
 40
6.599999999999997
 50
180.0
 51
270.0
  0
ARC
  5
13008
  8
1-中柱P
 10
26098.683799817329
 20
16743.786978
 30
0.0
 40
5.0
 50
0.0
 51
90.0
  0
LINE
  5
13009
  8
1-中柱P
 10
26085.283799817342
 20
16755.386977999999
 30
0.0
 11
26085.283799817342
 21
16814.786978
 31
0.0
  0
ARC
  5
1300A
  8
1-中柱P
 10
26090.283799817342
 20
16755.386977999999
 30
0.0
 40
5.0
 50
180.0
 51
270.0
  0
LINE
  5
1300B
  8
1-中柱P
 10
26083.683799817329
 20
16755.386977999999
 30
0.0
 11
26083.683799817329
 21
16814.786978
 31
0.0
  0
LINE
  5
1300C
  8
1-中柱P
 10
26078.683799817329
 20
16821.386977999999
 30
0.0
 11
26045.283799817331
 21
16821.386977999999
 31
0.0
  0
ARC
  5
1300D
  8
1-中柱P
 10
26078.683799817329
 20
16814.786978
 30
0.0
 40
6.599999999999997
 50
0.0
 51
90.0
  0
LINE
  5
1300E
  8
1-中柱P
 10
26078.683799817329
 20
16819.786978
 30
0.0
 11
26045.283799817331
 21
16819.786978
 31
0.0
  0
ARC
  5
1300F
  8
1-中柱P
 10
26078.683799817329
 20
16814.786978
 30
0.0
 40
5.0
 50
0.0
 51
90.0
  0
LINE
  5
13010
  8
1-中柱P
 10
26045.283799817331
 20
16819.786978
 30
0.0
 11
26045.283799817331
 21
16821.386977999999
 31
0.0
  0
LINE
  5
13011
  8
1-中柱P
 10
26026.883799817329
 20
16750.386977999999
 30
0.0
 11
26035.283799817342
 21
16750.386977999999
 31
0.0
  0
ARC
  5
13012
  8
1-中柱P
 10
26026.883799817329
 20
16743.786978
 30
0.0
 40
6.599999999999997
 50
90.0
 51
180.0
  0
ARC
  5
13013
  8
1-中柱P
 10
26035.283799817342
 20
16755.386977999999
 30
0.0
 40
5.0
 50
270.0
 51
0.0
  0
LINE
  5
13014
  8
1-中柱P
 10
26035.283799817342
 20
16748.786978
 30
0.0
 11
26026.883799817329
 21
16748.786978
 31
0.0
  0
ARC
  5
13015
  8
1-中柱P
 10
26035.283799817342
 20
16755.386977999999
 30
0.0
 40
6.599999999999997
 50
270.0
 51
0.0
  0
ARC
  5
13016
  8
1-中柱P
  6
HIDE-M
 62
     6
 10
26069.383799817319
 20
16818.786978
 30
0.0
 40
2.6000000000000001
 50
90.0
 51
180.0
  0
LINE
  5
13017
  8
1-中柱P
  6
HIDE-M
 62
     6
 10
26057.783799817342
 20
16820.836368153181
 30
0.0
 11
26057.783799817342
 21
16817.186978000002
 31
0.0
  0
LINE
  5
13018
  8
1-中柱P
  6
HIDE-M
 62
     6
 10
26067.783799817342
 20
16820.836368153181
 30
0.0
 11
26067.783799817342
 21
16817.186978000002
 31
0.0
  0
LINE
  5
13019
  8
1-中柱P
  6
1PL-M
 62
     6
 10
26062.783799817342
 20
16826.386977999999
 30
0.0
 11
26062.783799817342
 21
16812.186978000002
 31
0.0
  0
ARC
  5
1301A
  8
1-中柱P
  6
HIDE-M
 62
     6
 10
26056.183799817329
 20
16818.786978
 30
0.0
 40
2.6000000000000001
 50
0.0
 51
90.0
  0
LINE
  5
1301B
  8
1-中柱P
  6
HIDE-M
 62
     6
 10
26066.783799817342
 20
16818.786978
 30
0.0
 11
26066.783799817342
 21
16817.186978000002
 31
0.0
  0
LINE
  5
1301C
  8
1-中柱P
  6
HIDE-M
 62
     6
 10
26058.783799817342
 20
16818.786978
 30
0.0
 11
26058.783799817342
 21
16817.186978000002
 31
0.0
  0
LINE
  5
1301D
  8
1-中柱P
 10
26041.883799817319
 20
16755.386977999999
 30
0.0
 11
26041.883799817319
 21
16765.386977999999
 31
0.0
  0
LINE
  5
1301E
  8
1-中柱P
 10
26040.283799817342
 20
16755.386977999999
 30
0.0
 11
26040.283799817342
 21
16765.386977999999
 31
0.0
  0
LINE
  5
1301F
  8
1-中柱P
 10
26041.883799817319
 20
16765.386977999999
 30
0.0
 11
26040.283799817342
 21
16765.386977999999
 31
0.0
  0
LINE
  5
13020
  8
1-中柱P
  6
1PL-M
 62
     6
 10
26090.283799817342
 20
16786.386977999999
 30
0.0
 11
26076.083799817341
 21
16786.386977999999
 31
0.0
  0
LINE
  5
13021
  8
1-中柱P
  6
HIDE-M
 62
     6
 10
26094.183799817329
 20
16729.386977999999
 30
0.0
 11
26105.783799817342
 21
16729.386977999999
 31
0.0
  0
LINE
  5
13022
  8
1-中柱P
  6
HIDE-M
 62
     6
 10
26094.183799817329
 20
16721.386977999999
 30
0.0
 11
26105.783799817342
 21
16721.386977999999
 31
0.0
  0
LINE
  5
13023
  8
1-中柱P
  6
HIDE-M
 62
     6
 10
26094.183799817329
 20
16728.386977999991
 30
0.0
 11
26105.783799817342
 21
16728.386977999991
 31
0.0
  0
LINE
  5
13024
  8
1-中柱P
  6
HIDE-M
 62
     6
 10
26094.183799817329
 20
16722.386977999999
 30
0.0
 11
26105.783799817342
 21
16722.386977999999
 31
0.0
  0
LINE
  5
13025
  8
1-中柱P
 10
26095.183799817329
 20
16719.886977999999
 30
0.0
 11
26102.183799817329
 21
16719.886977999999
 31
0.0
  0
LINE
  5
13026
  8
1-中柱P
 10
26102.183799817329
 20
16730.886977999999
 30
0.0
 11
26095.183799817329
 21
16730.886977999999
 31
0.0
  0
LINE
  5
13027
  8
1-中柱P
 10
26102.183799817329
 20
16731.636977999999
 30
0.0
 11
26102.183799817329
 21
16719.136977999999
 31
0.0
  0
LINE
  5
13028
  8
1-中柱P
 10
26105.783799817342
 20
16731.386977999999
 30
0.0
 11
26105.783799817342
 21
16719.386977999999
 31
0.0
  0
LINE
  5
13029
  8
1-中柱P
  6
HIDE-M
 62
     6
 10
26103.683799817329
 20
16719.886977999999
 30
0.0
 11
26105.283799817342
 21
16719.886977999999
 31
0.0
  0
LINE
  5
1302A
  8
1-中柱P
 10
26105.783799817342
 20
16719.386977999999
 30
0.0
 11
26105.283799817342
 21
16719.886977999999
 31
0.0
  0
ARC
  5
1302B
  8
1-中柱P
 10
26102.933799817329
 20
16719.136977999999
 30
0.0
 40
0.75
 50
180.0
 51
0.0
  0
LINE
  5
1302C
  8
1-中柱P
  6
HIDE-M
 62
     6
 10
26105.283799817342
 20
16730.886977999999
 30
0.0
 11
26103.683799817329
 21
16730.886977999999
 31
0.0
  0
LINE
  5
1302D
  8
1-中柱P
 10
26105.783799817342
 20
16731.386977999999
 30
0.0
 11
26105.283799817342
 21
16730.886977999999
 31
0.0
  0
ARC
  5
1302E
  8
1-中柱P
 10
26102.933799817329
 20
16731.636977999999
 30
0.0
 40
0.75
 50
0.0
 51
180.0
  0
LINE
  5
1302F
  8
1-中柱P
 10
26094.183799817329
 20
16729.886977999999
 30
0.0
 11
26094.183799817329
 21
16720.886977999991
 31
0.0
  0
ARC
  5
13030
  8
1-中柱P
 10
26095.183799817329
 20
16720.886977999991
 30
0.0
 40
1.0
 50
180.0
 51
270.0
  0
ARC
  5
13031
  8
1-中柱P
 10
26095.183799817329
 20
16729.886977999999
 30
0.0
 40
1.0
 50
90.0
 51
180.0
  0
LINE
  5
13032
  8
1-中柱P
  6
1PL-M
 62
     6
 10
26089.183799817329
 20
16725.386977999999
 30
0.0
 11
26110.783799817342
 21
16725.386977999999
 31
0.0
  0
LINE
  5
13033
  8
1-中柱P
 10
26095.183799817329
 20
16709.886977999999
 30
0.0
 11
26102.183799817329
 21
16709.886977999999
 31
0.0
  0
LINE
  5
13034
  8
1-中柱P
 10
26105.783799817342
 20
16717.386977999999
 30
0.0
 11
26105.783799817342
 21
16709.386977999991
 31
0.0
  0
LINE
  5
13035
  8
1-中柱P
  6
HIDE-M
 62
     6
 10
26103.683799817329
 20
16709.886977999999
 30
0.0
 11
26105.283799817342
 21
16709.886977999999
 31
0.0
  0
LINE
  5
13036
  8
1-中柱P
 10
26105.783799817342
 20
16709.386977999991
 30
0.0
 11
26105.283799817342
 21
16709.886977999999
 31
0.0
  0
ARC
  5
13037
  8
1-中柱P
 10
26102.933799817329
 20
16709.136977999999
 30
0.0
 40
0.75
 50
180.0
 51
0.0
  0
LINE
  5
13038
  8
1-中柱P
 10
26094.183799817329
 20
16718.886977999999
 30
0.0
 11
26094.183799817329
 21
16710.886977999999
 31
0.0
  0
ARC
  5
13039
  8
1-中柱P
 10
26095.183799817329
 20
16710.886977999999
 30
0.0
 40
1.0
 50
180.0
 51
270.0
  0
LINE
  5
1303A
  8
1-中柱P
  6
1PL-M
 62
     6
 10
26089.183799817329
 20
16715.386977999999
 30
0.0
 11
26110.783799817342
 21
16715.386977999999
 31
0.0
  0
LINE
  5
1303B
  8
1-中柱P
 10
26102.183799817329
 20
16717.136977999991
 30
0.0
 11
26102.183799817329
 21
16709.136977999999
 31
0.0
  0
LINE
  5
1303C
  8
1-中柱P
  6
HIDE-M
 62
     6
 10
26094.183799817329
 20
16711.386977999999
 30
0.0
 11
26105.783799817342
 21
16711.386977999999
 31
0.0
  0
LINE
  5
1303D
  8
1-中柱P
  6
HIDE-M
 62
     6
 10
26094.183799817329
 20
16712.386977999991
 30
0.0
 11
26105.783799817342
 21
16712.386977999991
 31
0.0
  0
LINE
  5
1303E
  8
1-中柱P
  6
HIDE-M
 62
     6
 10
26031.383799817319
 20
16729.386977999999
 30
0.0
 11
26019.783799817342
 21
16729.386977999999
 31
0.0
  0
LINE
  5
1303F
  8
1-中柱P
  6
HIDE-M
 62
     6
 10
26031.383799817319
 20
16721.386977999999
 30
0.0
 11
26019.783799817342
 21
16721.386977999999
 31
0.0
  0
LINE
  5
13040
  8
1-中柱P
  6
HIDE-M
 62
     6
 10
26031.383799817319
 20
16728.386977999991
 30
0.0
 11
26019.783799817342
 21
16728.386977999991
 31
0.0
  0
LINE
  5
13041
  8
1-中柱P
  6
HIDE-M
 62
     6
 10
26031.383799817319
 20
16722.386977999999
 30
0.0
 11
26019.783799817342
 21
16722.386977999999
 31
0.0
  0
LINE
  5
13042
  8
1-中柱P
 10
26030.383799817319
 20
16719.886977999999
 30
0.0
 11
26023.383799817329
 21
16719.886977999999
 31
0.0
  0
LINE
  5
13043
  8
1-中柱P
 10
26023.383799817329
 20
16730.886977999999
 30
0.0
 11
26030.383799817319
 21
16730.886977999999
 31
0.0
  0
LINE
  5
13044
  8
1-中柱P
 10
26023.383799817329
 20
16731.636977999999
 30
0.0
 11
26023.383799817329
 21
16719.136977999999
 31
0.0
  0
LINE
  5
13045
  8
1-中柱P
 10
26019.783799817342
 20
16731.386977999999
 30
0.0
 11
26019.783799817342
 21
16719.386977999999
 31
0.0
  0
LINE
  5
13046
  8
1-中柱P
  6
HIDE-M
 62
     6
 10
26021.883799817319
 20
16719.886977999999
 30
0.0
 11
26020.283799817342
 21
16719.886977999999
 31
0.0
  0
LINE
  5
13047
  8
1-中柱P
 10
26019.783799817342
 20
16719.386977999999
 30
0.0
 11
26020.283799817342
 21
16719.886977999999
 31
0.0
  0
ARC
  5
13048
  8
1-中柱P
 10
26022.633799817319
 20
16719.136977999999
 30
0.0
 40
0.75
 50
180.0
 51
0.0
  0
LINE
  5
13049
  8
1-中柱P
  6
HIDE-M
 62
     6
 10
26020.283799817342
 20
16730.886977999999
 30
0.0
 11
26021.883799817319
 21
16730.886977999999
 31
0.0
  0
LINE
  5
1304A
  8
1-中柱P
 10
26019.783799817342
 20
16731.386977999999
 30
0.0
 11
26020.283799817342
 21
16730.886977999999
 31
0.0
  0
ARC
  5
1304B
  8
1-中柱P
 10
26022.633799817319
 20
16731.636977999999
 30
0.0
 40
0.75
 50
0.0
 51
180.0
  0
LINE
  5
1304C
  8
1-中柱P
 10
26031.383799817319
 20
16729.886977999999
 30
0.0
 11
26031.383799817319
 21
16720.886977999991
 31
0.0
  0
ARC
  5
1304D
  8
1-中柱P
 10
26030.383799817319
 20
16720.886977999991
 30
0.0
 40
1.0
 50
270.0
 51
0.0
  0
ARC
  5
1304E
  8
1-中柱P
 10
26030.383799817319
 20
16729.886977999999
 30
0.0
 40
1.0
 50
0.0
 51
90.0
  0
LINE
  5
1304F
  8
1-中柱P
  6
1PL-M
 62
     6
 10
26036.383799817329
 20
16725.386977999999
 30
0.0
 11
26014.783799817331
 21
16725.386977999999
 31
0.0
  0
LINE
  5
13050
  8
1-中柱P
 10
26030.383799817319
 20
16709.886977999999
 30
0.0
 11
26023.383799817329
 21
16709.886977999999
 31
0.0
  0
LINE
  5
13051
  8
1-中柱P
 10
26019.783799817342
 20
16717.386977999999
 30
0.0
 11
26019.783799817342
 21
16709.386977999991
 31
0.0
  0
LINE
  5
13052
  8
1-中柱P
  6
HIDE-M
 62
     6
 10
26021.883799817319
 20
16709.886977999999
 30
0.0
 11
26020.283799817342
 21
16709.886977999999
 31
0.0
  0
LINE
  5
13053
  8
1-中柱P
 10
26019.783799817342
 20
16709.386977999991
 30
0.0
 11
26020.283799817342
 21
16709.886977999999
 31
0.0
  0
ARC
  5
13054
  8
1-中柱P
 10
26022.633799817319
 20
16709.136977999999
 30
0.0
 40
0.75
 50
180.0
 51
0.0
  0
LINE
  5
13055
  8
1-中柱P
 10
26031.383799817319
 20
16718.886977999999
 30
0.0
 11
26031.383799817319
 21
16710.886977999999
 31
0.0
  0
ARC
  5
13056
  8
1-中柱P
 10
26030.383799817319
 20
16710.886977999999
 30
0.0
 40
1.0
 50
270.0
 51
0.0
  0
LINE
  5
13057
  8
1-中柱P
  6
1PL-M
 62
     6
 10
26036.383799817329
 20
16715.386977999999
 30
0.0
 11
26014.783799817331
 21
16715.386977999999
 31
0.0
  0
LINE
  5
13058
  8
1-中柱P
 10
26023.383799817329
 20
16717.136977999991
 30
0.0
 11
26023.383799817329
 21
16709.136977999999
 31
0.0
  0
LINE
  5
13059
  8
1-中柱P
  6
HIDE-M
 62
     6
 10
26031.383799817319
 20
16711.386977999999
 30
0.0
 11
26019.783799817342
 21
16711.386977999999
 31
0.0
  0
LINE
  5
1305A
  8
1-中柱P
  6
HIDE-M
 62
     6
 10
26031.383799817319
 20
16712.386977999991
 30
0.0
 11
26019.783799817342
 21
16712.386977999991
 31
0.0
  0
LINE
  5
1305B
  8
1-中柱カバ-P
 10
26020.283799817342
 20
16757.086977999999
 30
0.0
 11
26020.283799817342
 21
16816.386977999999
 31
0.0
  0
ARC
  5
1305C
  8
1-中柱カバ-P
 10
26026.883799817329
 20
16816.386977999999
 30
0.0
 40
6.599999999999997
 50
90.0
 51
180.0
  0
LINE
  5
1305D
  8
1-中柱カバ-P
 10
26021.883799817319
 20
16757.086977999999
 30
0.0
 11
26021.883799817319
 21
16816.386977999999
 31
0.0
  0
ARC
  5
1305E
  8
1-中柱カバ-P
 10
26026.883799817329
 20
16757.086977999999
 30
0.0
 40
5.0
 50
180.0
 51
270.0
  0
LINE
  5
1305F
  8
1-中柱カバ-P
 10
26026.883799817329
 20
16822.98697799999
 30
0.0
 11
26098.683799817329
 21
16822.98697799999
 31
0.0
  0
ARC
  5
13060
  8
1-中柱カバ-P
 10
26098.683799817329
 20
16816.386977999999
 30
0.0
 40
6.599999999999997
 50
0.0
 51
90.0
  0
LINE
  5
13061
  8
1-中柱カバ-P
 10
26026.883799817329
 20
16821.386977999999
 30
0.0
 11
26098.683799817329
 21
16821.386977999999
 31
0.0
  0
ARC
  5
13062
  8
1-中柱カバ-P
 10
26098.683799817329
 20
16816.386977999999
 30
0.0
 40
5.0
 50
0.0
 51
90.0
  0
ARC
  5
13063
  8
1-中柱カバ-P
 10
26026.883799817329
 20
16816.386977999999
 30
0.0
 40
5.0
 50
90.0
 51
180.0
  0
LINE
  5
13064
  8
1-中柱カバ-P
 10
26105.283799817342
 20
16816.386977999999
 30
0.0
 11
26105.283799817342
 21
16757.086977999999
 31
0.0
  0
LINE
  5
13065
  8
1-中柱カバ-P
 10
26103.683799817329
 20
16816.386977999999
 30
0.0
 11
26103.683799817329
 21
16757.086977999999
 31
0.0
  0
ARC
  5
13066
  8
1-中柱カバ-P
 10
26098.683799817329
 20
16757.086977999999
 30
0.0
 40
5.0
 50
270.0
 51
0.0
  0
LINE
  5
13067
  8
1-中柱カバ-P
  6
1PL-M
 62
     6
 10
26062.783799817342
 20
16815.48697799999
 30
0.0
 11
26062.783799817342
 21
16828.48697799999
 31
0.0
  0
LINE
  5
13068
  8
1-中柱カバ-P
  6
HIDE-M
 62
     6
 10
26055.783799817331
 20
16822.98697799999
 30
0.0
 11
26055.783799817331
 21
16821.386977999999
 31
0.0
  0
LINE
  5
13069
  8
1-中柱カバ-P
  6
HIDE-M
 62
     6
 10
26069.783799817342
 20
16822.98697799999
 30
0.0
 11
26069.783799817342
 21
16821.386977999999
 31
0.0
  0
ARC
  5
1306A
  8
1-中柱カバ-P
 10
26026.883799817329
 20
16757.086977999999
 30
0.0
 40
6.599999999999997
 50
180.0
 51
270.0
  0
ARC
  5
1306B
  8
1-中柱カバ-P
 10
26098.683799817329
 20
16757.086977999999
 30
0.0
 40
6.599999999999997
 50
270.0
 51
0.0
  0
LINE
  5
1306C
  8
1-中柱カバ-P
 10
26090.283799817342
 20
16750.48697799999
 30
0.0
 11
26098.683799817329
 21
16750.48697799999
 31
0.0
  0
LINE
  5
1306D
  8
1-中柱カバ-P
 10
26035.283799817342
 20
16750.48697799999
 30
0.0
 11
26026.883799817329
 21
16750.48697799999
 31
0.0
  0
LINE
  5
1306E
  8
1-中柱カバ-P
 10
26090.283799817342
 20
16752.086977999999
 30
0.0
 11
26098.683799817329
 21
16752.086977999999
 31
0.0
  0
LINE
  5
1306F
  8
1-中柱カバ-P
 10
26035.283799817342
 20
16752.086977999999
 30
0.0
 11
26026.883799817329
 21
16752.086977999999
 31
0.0
  0
LINE
  5
13070
  8
1-中柱カバ-P
 10
26035.283799817342
 20
16752.086977999999
 30
0.0
 11
26035.283799817342
 21
16750.48697799999
 31
0.0
  0
LINE
  5
13071
  8
1-中柱カバ-P
 10
26090.283799817342
 20
16750.48697799999
 30
0.0
 11
26090.283799817342
 21
16752.086977999999
 31
0.0
  0
LINE
  5
13072
  8
1-中柱カバ-P
  6
HIDE-M
 62
     6
 10
26094.183799817329
 20
16771.48697799999
 30
0.0
 11
26105.783799817342
 21
16771.48697799999
 31
0.0
  0
LINE
  5
13073
  8
1-中柱カバ-P
  6
HIDE-M
 62
     6
 10
26094.183799817329
 20
16779.48697799999
 30
0.0
 11
26105.783799817342
 21
16779.48697799999
 31
0.0
  0
LINE
  5
13074
  8
1-中柱カバ-P
  6
HIDE-M
 62
     6
 10
26094.183799817329
 20
16772.48697799999
 30
0.0
 11
26105.783799817342
 21
16772.48697799999
 31
0.0
  0
LINE
  5
13075
  8
1-中柱カバ-P
  6
HIDE-M
 62
     6
 10
26094.183799817329
 20
16778.48697799999
 30
0.0
 11
26105.783799817342
 21
16778.48697799999
 31
0.0
  0
LINE
  5
13076
  8
1-中柱カバ-P
 10
26095.183799817329
 20
16780.98697799999
 30
0.0
 11
26102.183799817329
 21
16780.98697799999
 31
0.0
  0
LINE
  5
13077
  8
1-中柱カバ-P
 10
26102.183799817329
 20
16769.98697799999
 30
0.0
 11
26095.183799817329
 21
16769.98697799999
 31
0.0
  0
LINE
  5
13078
  8
1-中柱カバ-P
 10
26102.183799817329
 20
16769.23697799999
 30
0.0
 11
26102.183799817329
 21
16781.73697799999
 31
0.0
  0
LINE
  5
13079
  8
1-中柱カバ-P
 10
26105.783799817342
 20
16769.48697799999
 30
0.0
 11
26105.783799817342
 21
16781.48697799999
 31
0.0
  0
LINE
  5
1307A
  8
1-中柱カバ-P
  6
HIDE-M
 62
     6
 10
26103.683799817329
 20
16780.98697799999
 30
0.0
 11
26105.283799817342
 21
16780.98697799999
 31
0.0
  0
LINE
  5
1307B
  8
1-中柱カバ-P
 10
26105.783799817342
 20
16781.48697799999
 30
0.0
 11
26105.283799817342
 21
16780.98697799999
 31
0.0
  0
ARC
  5
1307C
  8
1-中柱カバ-P
 10
26102.933799817329
 20
16781.73697799999
 30
0.0
 40
0.75
 50
0.0
 51
180.0
  0
LINE
  5
1307D
  8
1-中柱カバ-P
  6
HIDE-M
 62
     6
 10
26105.283799817342
 20
16769.98697799999
 30
0.0
 11
26103.683799817329
 21
16769.98697799999
 31
0.0
  0
LINE
  5
1307E
  8
1-中柱カバ-P
 10
26105.783799817342
 20
16769.48697799999
 30
0.0
 11
26105.283799817342
 21
16769.98697799999
 31
0.0
  0
ARC
  5
1307F
  8
1-中柱カバ-P
 10
26102.933799817329
 20
16769.23697799999
 30
0.0
 40
0.75
 50
180.0
 51
0.0
  0
LINE
  5
13080
  8
1-中柱カバ-P
 10
26094.183799817329
 20
16770.98697799999
 30
0.0
 11
26094.183799817329
 21
16779.98697799999
 31
0.0
  0
ARC
  5
13081
  8
1-中柱カバ-P
 10
26095.183799817329
 20
16779.98697799999
 30
0.0
 40
1.0
 50
90.0
 51
180.0
  0
ARC
  5
13082
  8
1-中柱カバ-P
 10
26095.183799817329
 20
16770.98697799999
 30
0.0
 40
1.0
 50
180.0
 51
270.0
  0
LINE
  5
13083
  8
1-中柱カバ-P
  6
1PL-M
 62
     6
 10
26089.183799817329
 20
16775.48697799999
 30
0.0
 11
26110.783799817342
 21
16775.48697799999
 31
0.0
  0
LINE
  5
13084
  8
1-中柱カバ-P
 10
26095.183799817329
 20
16790.98697799999
 30
0.0
 11
26102.183799817329
 21
16790.98697799999
 31
0.0
  0
LINE
  5
13085
  8
1-中柱カバ-P
 10
26105.783799817342
 20
16783.48697799999
 30
0.0
 11
26105.783799817342
 21
16791.48697799999
 31
0.0
  0
LINE
  5
13086
  8
1-中柱カバ-P
  6
HIDE-M
 62
     6
 10
26103.683799817329
 20
16790.98697799999
 30
0.0
 11
26105.283799817342
 21
16790.98697799999
 31
0.0
  0
LINE
  5
13087
  8
1-中柱カバ-P
 10
26105.783799817342
 20
16791.48697799999
 30
0.0
 11
26105.283799817342
 21
16790.98697799999
 31
0.0
  0
ARC
  5
13088
  8
1-中柱カバ-P
 10
26102.933799817329
 20
16791.73697799999
 30
0.0
 40
0.75
 50
0.0
 51
180.0
  0
LINE
  5
13089
  8
1-中柱カバ-P
 10
26094.183799817329
 20
16781.98697799999
 30
0.0
 11
26094.183799817329
 21
16789.98697799999
 31
0.0
  0
ARC
  5
1308A
  8
1-中柱カバ-P
 10
26095.183799817329
 20
16789.98697799999
 30
0.0
 40
1.0
 50
90.0
 51
180.0
  0
LINE
  5
1308B
  8
1-中柱カバ-P
  6
1PL-M
 62
     6
 10
26089.183799817329
 20
16785.48697799999
 30
0.0
 11
26110.783799817342
 21
16785.48697799999
 31
0.0
  0
LINE
  5
1308C
  8
1-中柱カバ-P
 10
26102.183799817329
 20
16783.73697799999
 30
0.0
 11
26102.183799817329
 21
16791.73697799999
 31
0.0
  0
LINE
  5
1308D
  8
1-中柱カバ-P
  6
HIDE-M
 62
     6
 10
26031.383799817319
 20
16771.48697799999
 30
0.0
 11
26019.783799817342
 21
16771.48697799999
 31
0.0
  0
LINE
  5
1308E
  8
1-中柱カバ-P
  6
HIDE-M
 62
     6
 10
26031.383799817319
 20
16779.48697799999
 30
0.0
 11
26019.783799817342
 21
16779.48697799999
 31
0.0
  0
LINE
  5
1308F
  8
1-中柱カバ-P
  6
HIDE-M
 62
     6
 10
26031.383799817319
 20
16772.48697799999
 30
0.0
 11
26019.783799817342
 21
16772.48697799999
 31
0.0
  0
LINE
  5
13090
  8
1-中柱カバ-P
  6
HIDE-M
 62
     6
 10
26031.383799817319
 20
16778.48697799999
 30
0.0
 11
26019.783799817342
 21
16778.48697799999
 31
0.0
  0
LINE
  5
13091
  8
1-中柱カバ-P
 10
26030.383799817319
 20
16780.98697799999
 30
0.0
 11
26023.383799817329
 21
16780.98697799999
 31
0.0
  0
LINE
  5
13092
  8
1-中柱カバ-P
 10
26023.383799817329
 20
16769.98697799999
 30
0.0
 11
26030.383799817319
 21
16769.98697799999
 31
0.0
  0
LINE
  5
13093
  8
1-中柱カバ-P
 10
26023.383799817329
 20
16769.23697799999
 30
0.0
 11
26023.383799817329
 21
16781.73697799999
 31
0.0
  0
LINE
  5
13094
  8
1-中柱カバ-P
 10
26019.783799817342
 20
16769.48697799999
 30
0.0
 11
26019.783799817342
 21
16781.48697799999
 31
0.0
  0
LINE
  5
13095
  8
1-中柱カバ-P
  6
HIDE-M
 62
     6
 10
26021.883799817319
 20
16780.98697799999
 30
0.0
 11
26020.283799817342
 21
16780.98697799999
 31
0.0
  0
LINE
  5
13096
  8
1-中柱カバ-P
 10
26019.783799817342
 20
16781.48697799999
 30
0.0
 11
26020.283799817342
 21
16780.98697799999
 31
0.0
  0
ARC
  5
13097
  8
1-中柱カバ-P
 10
26022.633799817319
 20
16781.73697799999
 30
0.0
 40
0.75
 50
0.0
 51
180.0
  0
LINE
  5
13098
  8
1-中柱カバ-P
  6
HIDE-M
 62
     6
 10
26020.283799817342
 20
16769.98697799999
 30
0.0
 11
26021.883799817319
 21
16769.98697799999
 31
0.0
  0
LINE
  5
13099
  8
1-中柱カバ-P
 10
26019.783799817342
 20
16769.48697799999
 30
0.0
 11
26020.283799817342
 21
16769.98697799999
 31
0.0
  0
ARC
  5
1309A
  8
1-中柱カバ-P
 10
26022.633799817319
 20
16769.23697799999
 30
0.0
 40
0.75
 50
180.0
 51
0.0
  0
LINE
  5
1309B
  8
1-中柱カバ-P
 10
26031.383799817319
 20
16770.98697799999
 30
0.0
 11
26031.383799817319
 21
16779.98697799999
 31
0.0
  0
ARC
  5
1309C
  8
1-中柱カバ-P
 10
26030.383799817319
 20
16779.98697799999
 30
0.0
 40
1.0
 50
0.0
 51
90.0
  0
ARC
  5
1309D
  8
1-中柱カバ-P
 10
26030.383799817319
 20
16770.98697799999
 30
0.0
 40
1.0
 50
270.0
 51
0.0
  0
LINE
  5
1309E
  8
1-中柱カバ-P
  6
1PL-M
 62
     6
 10
26036.383799817329
 20
16775.48697799999
 30
0.0
 11
26014.783799817331
 21
16775.48697799999
 31
0.0
  0
LINE
  5
1309F
  8
1-中柱カバ-P
 10
26030.383799817319
 20
16790.98697799999
 30
0.0
 11
26023.383799817329
 21
16790.98697799999
 31
0.0
  0
LINE
  5
130A0
  8
1-中柱カバ-P
 10
26019.783799817342
 20
16783.48697799999
 30
0.0
 11
26019.783799817342
 21
16791.48697799999
 31
0.0
  0
LINE
  5
130A1
  8
1-中柱カバ-P
  6
HIDE-M
 62
     6
 10
26021.883799817319
 20
16790.98697799999
 30
0.0
 11
26020.283799817342
 21
16790.98697799999
 31
0.0
  0
LINE
  5
130A2
  8
1-中柱カバ-P
 10
26019.783799817342
 20
16791.48697799999
 30
0.0
 11
26020.283799817342
 21
16790.98697799999
 31
0.0
  0
ARC
  5
130A3
  8
1-中柱カバ-P
 10
26022.633799817319
 20
16791.73697799999
 30
0.0
 40
0.75
 50
0.0
 51
180.0
  0
LINE
  5
130A4
  8
1-中柱カバ-P
 10
26031.383799817319
 20
16781.98697799999
 30
0.0
 11
26031.383799817319
 21
16789.98697799999
 31
0.0
  0
ARC
  5
130A5
  8
1-中柱カバ-P
 10
26030.383799817319
 20
16789.98697799999
 30
0.0
 40
1.0
 50
0.0
 51
90.0
  0
LINE
  5
130A6
  8
1-中柱カバ-P
  6
1PL-M
 62
     6
 10
26036.383799817329
 20
16785.48697799999
 30
0.0
 11
26014.783799817331
 21
16785.48697799999
 31
0.0
  0
LINE
  5
130A7
  8
1-中柱カバ-P
 10
26023.383799817329
 20
16783.73697799999
 30
0.0
 11
26023.383799817329
 21
16791.73697799999
 31
0.0
  0
LINE
  5
130A8
  8
1-中柱カバ-P
  6
HIDE-M
 62
     6
 10
26094.183799817329
 20
16789.48697799999
 30
0.0
 11
26105.783799817342
 21
16789.48697799999
 31
0.0
  0
LINE
  5
130A9
  8
1-中柱カバ-P
  6
HIDE-M
 62
     6
 10
26094.183799817329
 20
16788.48697799999
 30
0.0
 11
26105.783799817342
 21
16788.48697799999
 31
0.0
  0
LINE
  5
130AA
  8
1-中柱カバ-P
  6
HIDE-M
 62
     6
 10
26031.383799817319
 20
16789.48697799999
 30
0.0
 11
26019.783799817342
 21
16789.48697799999
 31
0.0
  0
LINE
  5
130AB
  8
1-中柱カバ-P
  6
HIDE-M
 62
     6
 10
26031.383799817319
 20
16788.48697799999
 30
0.0
 11
26019.783799817342
 21
16788.48697799999
 31
0.0
  0
ARC
  5
130AC
  8
1-前柱P
  6
HIDE-M
 62
     6
 10
26059.183799817329
 20
14251.38697799999
 30
0.0
 40
2.6000000000000001
 50
0.0
 51
90.0
  0
LINE
  5
130AD
  8
1-前柱P
  6
HIDE-M
 62
     6
 10
26070.783799817342
 20
14253.43636815319
 30
0.0
 11
26070.783799817342
 21
14249.786978
 31
0.0
  0
LINE
  5
130AE
  8
1-前柱P
  6
HIDE-M
 62
     6
 10
26060.783799817342
 20
14253.43636815319
 30
0.0
 11
26060.783799817342
 21
14249.786978
 31
0.0
  0
LINE
  5
130AF
  8
1-前柱P
  6
1PL-M
 62
     6
 10
26065.783799817342
 20
14258.986977999981
 30
0.0
 11
26065.783799817342
 21
14244.786978
 31
0.0
  0
ARC
  5
130B0
  8
1-前柱P
  6
HIDE-M
 62
     6
 10
26072.383799817359
 20
14251.38697799999
 30
0.0
 40
2.6000000000000001
 50
90.0
 51
180.0
  0
LINE
  5
130B1
  8
1-前柱P
  6
HIDE-M
 62
     6
 10
26061.783799817342
 20
14251.38697799999
 30
0.0
 11
26061.783799817342
 21
14249.786978
 31
0.0
  0
LINE
  5
130B2
  8
1-前柱P
  6
HIDE-M
 62
     6
 10
26069.783799817342
 20
14251.38697799999
 30
0.0
 11
26069.783799817342
 21
14249.786978
 31
0.0
  0
LINE
  5
130B3
  8
1-前柱P
 10
26051.883799817359
 20
14139.08697799999
 30
0.0
 11
26073.68379981734
 21
14139.08697799999
 31
0.0
  0
LINE
  5
130B4
  8
1-前柱P
 10
26103.68379981734
 20
14176.386978
 30
0.0
 11
26103.68379981734
 21
14169.086977999999
 31
0.0
  0
ARC
  5
130B5
  8
1-前柱P
 10
26073.68379981734
 20
14169.086977999999
 30
0.0
 40
30.0
 50
270.0
 51
0.0
  0
ARC
  5
130B6
  8
1-前柱P
 10
26073.68379981734
 20
14169.086977999999
 30
0.0
 40
31.600000000000001
 50
270.0
 51
0.0
  0
LINE
  5
130B7
  8
1-前柱P
 10
26051.883799817359
 20
14137.486978000001
 30
0.0
 11
26073.68379981734
 21
14137.486978000001
 31
0.0
  0
LINE
  5
130B8
  8
1-前柱P
 10
26105.283799817342
 20
14176.386978
 30
0.0
 11
26105.283799817342
 21
14169.086977999999
 31
0.0
  0
LINE
  5
130B9
  8
1-前柱P
 10
26082.283799817342
 20
14197.986977999981
 30
0.0
 11
26082.283799817342
 21
14187.98697799999
 31
0.0
  0
LINE
  5
130BA
  8
1-前柱P
 10
26080.68379981734
 20
14187.98697799999
 30
0.0
 11
26080.68379981734
 21
14197.986977999981
 31
0.0
  0
LINE
  5
130BB
  8
1-前柱P
 10
26021.883799817359
 20
14176.386978
 30
0.0
 11
26021.883799817359
 21
14169.086977999999
 31
0.0
  0
ARC
  5
130BC
  8
1-前柱P
 10
26051.883799817359
 20
14169.086977999999
 30
0.0
 40
30.0
 50
180.0
 51
270.0
  0
ARC
  5
130BD
  8
1-前柱P
 10
26051.883799817359
 20
14169.086977999999
 30
0.0
 40
31.600000000000001
 50
180.0
 51
270.0
  0
LINE
  5
130BE
  8
1-前柱P
 10
26020.283799817342
 20
14176.386978
 30
0.0
 11
26020.283799817342
 21
14169.086977999999
 31
0.0
  0
LINE
  5
130BF
  8
1-前柱P
 10
26026.883799817359
 20
14182.986978000001
 30
0.0
 11
26038.283799817331
 21
14182.986978000001
 31
0.0
  0
ARC
  5
130C0
  8
1-前柱P
 10
26026.883799817359
 20
14176.386978
 30
0.0
 40
6.599999999999997
 50
90.0
 51
180.0
  0
ARC
  5
130C1
  8
1-前柱P
 10
26038.283799817331
 20
14187.98697799999
 30
0.0
 40
5.0
 50
270.0
 51
0.0
  0
LINE
  5
130C2
  8
1-前柱P
 10
26026.883799817359
 20
14181.386978
 30
0.0
 11
26038.283799817331
 21
14181.386978
 31
0.0
  0
ARC
  5
130C3
  8
1-前柱P
 10
26026.883799817359
 20
14176.386978
 30
0.0
 40
5.0
 50
90.0
 51
180.0
  0
LINE
  5
130C4
  8
1-前柱P
 10
26043.283799817342
 20
14187.98697799999
 30
0.0
 11
26043.283799817342
 21
14247.386978
 31
0.0
  0
LINE
  5
130C5
  8
1-前柱P
 10
26044.883799817359
 20
14187.98697799999
 30
0.0
 11
26044.883799817359
 21
14247.386978
 31
0.0
  0
ARC
  5
130C6
  8
1-前柱P
 10
26038.283799817331
 20
14187.98697799999
 30
0.0
 40
6.599999999999997
 50
270.0
 51
0.0
  0
LINE
  5
130C7
  8
1-前柱P
 10
26049.883799817359
 20
14253.98697799999
 30
0.0
 11
26083.283799817331
 21
14253.98697799999
 31
0.0
  0
ARC
  5
130C8
  8
1-前柱P
 10
26049.883799817359
 20
14247.386978
 30
0.0
 40
6.599999999999997
 50
90.0
 51
180.0
  0
LINE
  5
130C9
  8
1-前柱P
 10
26049.883799817359
 20
14252.38697799999
 30
0.0
 11
26083.283799817331
 21
14252.38697799999
 31
0.0
  0
ARC
  5
130CA
  8
1-前柱P
 10
26049.883799817359
 20
14247.386978
 30
0.0
 40
5.0
 50
90.0
 51
180.0
  0
LINE
  5
130CB
  8
1-前柱P
 10
26083.283799817331
 20
14252.38697799999
 30
0.0
 11
26083.283799817331
 21
14253.98697799999
 31
0.0
  0
LINE
  5
130CC
  8
1-前柱P
 10
26098.68379981734
 20
14182.986978000001
 30
0.0
 11
26087.283799817331
 21
14182.986978000001
 31
0.0
  0
ARC
  5
130CD
  8
1-前柱P
 10
26098.68379981734
 20
14176.386978
 30
0.0
 40
6.599999999999997
 50
0.0
 51
90.0
  0
ARC
  5
130CE
  8
1-前柱P
 10
26087.283799817331
 20
14187.98697799999
 30
0.0
 40
5.0
 50
180.0
 51
270.0
  0
LINE
  5
130CF
  8
1-前柱P
 10
26087.283799817331
 20
14181.386978
 30
0.0
 11
26098.68379981734
 21
14181.386978
 31
0.0
  0
ARC
  5
130D0
  8
1-前柱P
 10
26087.283799817331
 20
14187.98697799999
 30
0.0
 40
6.599999999999997
 50
180.0
 51
270.0
  0
ARC
  5
130D1
  8
1-前柱P
 10
26098.68379981734
 20
14176.386978
 30
0.0
 40
5.0
 50
0.0
 51
90.0
  0
LINE
  5
130D2
  8
1-前柱P
 10
26082.283799817342
 20
14197.986977999981
 30
0.0
 11
26080.68379981734
 21
14197.986977999981
 31
0.0
  0
LINE
  5
130D3
  8
1-前柱カバ-P
 10
26105.283799817342
 20
14189.686977999991
 30
0.0
 11
26105.283799817342
 21
14248.98697799999
 31
0.0
  0
ARC
  5
130D4
  8
1-前柱カバ-P
 10
26098.68379981734
 20
14248.98697799999
 30
0.0
 40
6.599999999999997
 50
0.0
 51
90.0
  0
LINE
  5
130D5
  8
1-前柱カバ-P
 10
26103.68379981734
 20
14189.686977999991
 30
0.0
 11
26103.68379981734
 21
14248.98697799999
 31
0.0
  0
ARC
  5
130D6
  8
1-前柱カバ-P
 10
26098.68379981734
 20
14189.686977999991
 30
0.0
 40
5.0
 50
270.0
 51
0.0
  0
LINE
  5
130D7
  8
1-前柱カバ-P
 10
26098.68379981734
 20
14255.58697799999
 30
0.0
 11
26026.883799817359
 21
14255.58697799999
 31
0.0
  0
ARC
  5
130D8
  8
1-前柱カバ-P
 10
26026.883799817359
 20
14248.98697799999
 30
0.0
 40
6.599999999999997
 50
90.0
 51
180.0
  0
LINE
  5
130D9
  8
1-前柱カバ-P
 10
26098.68379981734
 20
14253.98697799999
 30
0.0
 11
26026.883799817359
 21
14253.98697799999
 31
0.0
  0
ARC
  5
130DA
  8
1-前柱カバ-P
 10
26026.883799817359
 20
14248.98697799999
 30
0.0
 40
5.0
 50
90.0
 51
180.0
  0
ARC
  5
130DB
  8
1-前柱カバ-P
 10
26098.68379981734
 20
14248.98697799999
 30
0.0
 40
5.0
 50
0.0
 51
90.0
  0
LINE
  5
130DC
  8
1-前柱カバ-P
 10
26020.283799817342
 20
14248.98697799999
 30
0.0
 11
26020.283799817342
 21
14189.686977999991
 31
0.0
  0
LINE
  5
130DD
  8
1-前柱カバ-P
 10
26021.883799817359
 20
14248.98697799999
 30
0.0
 11
26021.883799817359
 21
14189.686977999991
 31
0.0
  0
ARC
  5
130DE
  8
1-前柱カバ-P
 10
26026.883799817359
 20
14189.686977999991
 30
0.0
 40
5.0
 50
180.0
 51
270.0
  0
LINE
  5
130DF
  8
1-前柱カバ-P
  6
1PL-M
 62
     6
 10
26062.783799817342
 20
14248.086977999999
 30
0.0
 11
26062.783799817342
 21
14261.08697799999
 31
0.0
  0
LINE
  5
130E0
  8
1-前柱カバ-P
  6
HIDE-M
 62
     6
 10
26069.783799817342
 20
14255.58697799999
 30
0.0
 11
26069.783799817342
 21
14253.98697799999
 31
0.0
  0
LINE
  5
130E1
  8
1-前柱カバ-P
  6
HIDE-M
 62
     6
 10
26055.783799817331
 20
14255.58697799999
 30
0.0
 11
26055.783799817331
 21
14253.98697799999
 31
0.0
  0
ARC
  5
130E2
  8
1-前柱カバ-P
 10
26098.68379981734
 20
14189.686977999991
 30
0.0
 40
6.599999999999997
 50
270.0
 51
0.0
  0
ARC
  5
130E3
  8
1-前柱カバ-P
 10
26026.883799817359
 20
14189.686977999991
 30
0.0
 40
6.599999999999997
 50
180.0
 51
270.0
  0
LINE
  5
130E4
  8
1-前柱カバ-P
 10
26035.283799817342
 20
14183.08697799999
 30
0.0
 11
26026.883799817359
 21
14183.08697799999
 31
0.0
  0
LINE
  5
130E5
  8
1-前柱カバ-P
 10
26090.283799817342
 20
14183.08697799999
 30
0.0
 11
26098.68379981734
 21
14183.08697799999
 31
0.0
  0
LINE
  5
130E6
  8
1-前柱カバ-P
 10
26035.283799817342
 20
14184.686977999991
 30
0.0
 11
26026.883799817359
 21
14184.686977999991
 31
0.0
  0
LINE
  5
130E7
  8
1-前柱カバ-P
 10
26090.283799817342
 20
14184.686977999991
 30
0.0
 11
26098.68379981734
 21
14184.686977999991
 31
0.0
  0
LINE
  5
130E8
  8
1-前柱カバ-P
 10
26090.283799817342
 20
14184.686977999991
 30
0.0
 11
26090.283799817342
 21
14183.08697799999
 31
0.0
  0
LINE
  5
130E9
  8
1-前柱カバ-P
 10
26035.283799817342
 20
14183.08697799999
 30
0.0
 11
26035.283799817342
 21
14184.686977999991
 31
0.0
  0
LINE
  5
130EA
  8
1-前柱カバ-P
  6
HIDE-M
 62
     6
 10
26031.383799817351
 20
14204.08697799999
 30
0.0
 11
26019.783799817342
 21
14204.08697799999
 31
0.0
  0
LINE
  5
130EB
  8
1-前柱カバ-P
  6
HIDE-M
 62
     6
 10
26031.383799817351
 20
14212.086977999999
 30
0.0
 11
26019.783799817342
 21
14212.086977999999
 31
0.0
  0
LINE
  5
130EC
  8
1-前柱カバ-P
  6
HIDE-M
 62
     6
 10
26031.383799817351
 20
14205.08697799999
 30
0.0
 11
26019.783799817342
 21
14205.08697799999
 31
0.0
  0
LINE
  5
130ED
  8
1-前柱カバ-P
  6
HIDE-M
 62
     6
 10
26031.383799817351
 20
14211.086977999999
 30
0.0
 11
26019.783799817342
 21
14211.086977999999
 31
0.0
  0
LINE
  5
130EE
  8
1-前柱カバ-P
 10
26030.383799817359
 20
14213.58697799999
 30
0.0
 11
26023.383799817359
 21
14213.58697799999
 31
0.0
  0
LINE
  5
130EF
  8
1-前柱カバ-P
 10
26023.383799817359
 20
14202.58697799999
 30
0.0
 11
26030.383799817359
 21
14202.58697799999
 31
0.0
  0
LINE
  5
130F0
  8
1-前柱カバ-P
 10
26023.383799817359
 20
14201.83697799999
 30
0.0
 11
26023.383799817359
 21
14214.33697799999
 31
0.0
  0
LINE
  5
130F1
  8
1-前柱カバ-P
 10
26019.783799817342
 20
14202.08697799999
 30
0.0
 11
26019.783799817342
 21
14214.08697799999
 31
0.0
  0
LINE
  5
130F2
  8
1-前柱カバ-P
  6
HIDE-M
 62
     6
 10
26021.883799817359
 20
14213.58697799999
 30
0.0
 11
26020.283799817342
 21
14213.58697799999
 31
0.0
  0
LINE
  5
130F3
  8
1-前柱カバ-P
 10
26019.783799817342
 20
14214.08697799999
 30
0.0
 11
26020.283799817342
 21
14213.58697799999
 31
0.0
  0
ARC
  5
130F4
  8
1-前柱カバ-P
 10
26022.633799817359
 20
14214.33697799999
 30
0.0
 40
0.75
 50
0.0
 51
180.0
  0
LINE
  5
130F5
  8
1-前柱カバ-P
  6
HIDE-M
 62
     6
 10
26020.283799817342
 20
14202.58697799999
 30
0.0
 11
26021.883799817359
 21
14202.58697799999
 31
0.0
  0
LINE
  5
130F6
  8
1-前柱カバ-P
 10
26019.783799817342
 20
14202.08697799999
 30
0.0
 11
26020.283799817342
 21
14202.58697799999
 31
0.0
  0
ARC
  5
130F7
  8
1-前柱カバ-P
 10
26022.633799817359
 20
14201.83697799999
 30
0.0
 40
0.75
 50
180.0
 51
0.0
  0
LINE
  5
130F8
  8
1-前柱カバ-P
 10
26031.383799817351
 20
14203.586977999999
 30
0.0
 11
26031.383799817351
 21
14212.58697799999
 31
0.0
  0
ARC
  5
130F9
  8
1-前柱カバ-P
 10
26030.383799817359
 20
14212.58697799999
 30
0.0
 40
1.0
 50
0.0
 51
90.0
  0
ARC
  5
130FA
  8
1-前柱カバ-P
 10
26030.383799817359
 20
14203.586977999999
 30
0.0
 40
1.0
 50
270.0
 51
0.0
  0
LINE
  5
130FB
  8
1-前柱カバ-P
  6
1PL-M
 62
     6
 10
26036.383799817359
 20
14208.086977999999
 30
0.0
 11
26014.783799817331
 21
14208.086977999999
 31
0.0
  0
LINE
  5
130FC
  8
1-前柱カバ-P
 10
26030.383799817359
 20
14223.586977999999
 30
0.0
 11
26023.383799817359
 21
14223.586977999999
 31
0.0
  0
LINE
  5
130FD
  8
1-前柱カバ-P
 10
26019.783799817342
 20
14216.086977999999
 30
0.0
 11
26019.783799817342
 21
14224.08697799999
 31
0.0
  0
LINE
  5
130FE
  8
1-前柱カバ-P
  6
HIDE-M
 62
     6
 10
26021.883799817359
 20
14223.586977999999
 30
0.0
 11
26020.283799817342
 21
14223.586977999999
 31
0.0
  0
LINE
  5
130FF
  8
1-前柱カバ-P
 10
26019.783799817342
 20
14224.08697799999
 30
0.0
 11
26020.283799817342
 21
14223.586977999999
 31
0.0
  0
ARC
  5
13100
  8
1-前柱カバ-P
 10
26022.633799817359
 20
14224.336977999999
 30
0.0
 40
0.75
 50
0.0
 51
180.0
  0
LINE
  5
13101
  8
1-前柱カバ-P
 10
26031.383799817351
 20
14214.58697799999
 30
0.0
 11
26031.383799817351
 21
14222.586977999999
 31
0.0
  0
ARC
  5
13102
  8
1-前柱カバ-P
 10
26030.383799817359
 20
14222.586977999999
 30
0.0
 40
1.0
 50
0.0
 51
90.0
  0
LINE
  5
13103
  8
1-前柱カバ-P
  6
1PL-M
 62
     6
 10
26036.383799817359
 20
14218.08697799999
 30
0.0
 11
26014.783799817331
 21
14218.08697799999
 31
0.0
  0
LINE
  5
13104
  8
1-前柱カバ-P
 10
26023.383799817359
 20
14216.33697799999
 30
0.0
 11
26023.383799817359
 21
14224.336977999999
 31
0.0
  0
LINE
  5
13105
  8
1-前柱カバ-P
  6
HIDE-M
 62
     6
 10
26094.18379981734
 20
14204.08697799999
 30
0.0
 11
26105.783799817342
 21
14204.08697799999
 31
0.0
  0
LINE
  5
13106
  8
1-前柱カバ-P
  6
HIDE-M
 62
     6
 10
26094.18379981734
 20
14212.086977999999
 30
0.0
 11
26105.783799817342
 21
14212.086977999999
 31
0.0
  0
LINE
  5
13107
  8
1-前柱カバ-P
  6
HIDE-M
 62
     6
 10
26094.18379981734
 20
14205.08697799999
 30
0.0
 11
26105.783799817342
 21
14205.08697799999
 31
0.0
  0
LINE
  5
13108
  8
1-前柱カバ-P
  6
HIDE-M
 62
     6
 10
26094.18379981734
 20
14211.086977999999
 30
0.0
 11
26105.783799817342
 21
14211.086977999999
 31
0.0
  0
LINE
  5
13109
  8
1-前柱カバ-P
 10
26095.18379981734
 20
14213.58697799999
 30
0.0
 11
26102.18379981734
 21
14213.58697799999
 31
0.0
  0
LINE
  5
1310A
  8
1-前柱カバ-P
 10
26102.18379981734
 20
14202.58697799999
 30
0.0
 11
26095.18379981734
 21
14202.58697799999
 31
0.0
  0
LINE
  5
1310B
  8
1-前柱カバ-P
 10
26102.18379981734
 20
14201.83697799999
 30
0.0
 11
26102.18379981734
 21
14214.33697799999
 31
0.0
  0
LINE
  5
1310C
  8
1-前柱カバ-P
 10
26105.783799817342
 20
14202.08697799999
 30
0.0
 11
26105.783799817342
 21
14214.08697799999
 31
0.0
  0
LINE
  5
1310D
  8
1-前柱カバ-P
  6
HIDE-M
 62
     6
 10
26103.68379981734
 20
14213.58697799999
 30
0.0
 11
26105.283799817342
 21
14213.58697799999
 31
0.0
  0
LINE
  5
1310E
  8
1-前柱カバ-P
 10
26105.783799817342
 20
14214.08697799999
 30
0.0
 11
26105.283799817342
 21
14213.58697799999
 31
0.0
  0
ARC
  5
1310F
  8
1-前柱カバ-P
 10
26102.93379981734
 20
14214.33697799999
 30
0.0
 40
0.75
 50
0.0
 51
180.0
  0
LINE
  5
13110
  8
1-前柱カバ-P
  6
HIDE-M
 62
     6
 10
26105.283799817342
 20
14202.58697799999
 30
0.0
 11
26103.68379981734
 21
14202.58697799999
 31
0.0
  0
LINE
  5
13111
  8
1-前柱カバ-P
 10
26105.783799817342
 20
14202.08697799999
 30
0.0
 11
26105.283799817342
 21
14202.58697799999
 31
0.0
  0
ARC
  5
13112
  8
1-前柱カバ-P
 10
26102.93379981734
 20
14201.83697799999
 30
0.0
 40
0.75
 50
180.0
 51
0.0
  0
LINE
  5
13113
  8
1-前柱カバ-P
 10
26094.18379981734
 20
14203.586977999999
 30
0.0
 11
26094.18379981734
 21
14212.58697799999
 31
0.0
  0
ARC
  5
13114
  8
1-前柱カバ-P
 10
26095.18379981734
 20
14212.58697799999
 30
0.0
 40
1.0
 50
90.0
 51
180.0
  0
ARC
  5
13115
  8
1-前柱カバ-P
 10
26095.18379981734
 20
14203.586977999999
 30
0.0
 40
1.0
 50
180.0
 51
270.0
  0
LINE
  5
13116
  8
1-前柱カバ-P
  6
1PL-M
 62
     6
 10
26089.18379981734
 20
14208.086977999999
 30
0.0
 11
26110.783799817342
 21
14208.086977999999
 31
0.0
  0
LINE
  5
13117
  8
1-前柱カバ-P
 10
26095.18379981734
 20
14223.586977999999
 30
0.0
 11
26102.18379981734
 21
14223.586977999999
 31
0.0
  0
LINE
  5
13118
  8
1-前柱カバ-P
 10
26105.783799817342
 20
14216.086977999999
 30
0.0
 11
26105.783799817342
 21
14224.08697799999
 31
0.0
  0
LINE
  5
13119
  8
1-前柱カバ-P
  6
HIDE-M
 62
     6
 10
26103.68379981734
 20
14223.586977999999
 30
0.0
 11
26105.283799817342
 21
14223.586977999999
 31
0.0
  0
LINE
  5
1311A
  8
1-前柱カバ-P
 10
26105.783799817342
 20
14224.08697799999
 30
0.0
 11
26105.283799817342
 21
14223.586977999999
 31
0.0
  0
ARC
  5
1311B
  8
1-前柱カバ-P
 10
26102.93379981734
 20
14224.336977999999
 30
0.0
 40
0.75
 50
0.0
 51
180.0
  0
LINE
  5
1311C
  8
1-前柱カバ-P
 10
26094.18379981734
 20
14214.58697799999
 30
0.0
 11
26094.18379981734
 21
14222.586977999999
 31
0.0
  0
ARC
  5
1311D
  8
1-前柱カバ-P
 10
26095.18379981734
 20
14222.586977999999
 30
0.0
 40
1.0
 50
90.0
 51
180.0
  0
LINE
  5
1311E
  8
1-前柱カバ-P
  6
1PL-M
 62
     6
 10
26089.18379981734
 20
14218.08697799999
 30
0.0
 11
26110.783799817342
 21
14218.08697799999
 31
0.0
  0
LINE
  5
1311F
  8
1-前柱カバ-P
 10
26102.18379981734
 20
14216.33697799999
 30
0.0
 11
26102.18379981734
 21
14224.336977999999
 31
0.0
  0
LINE
  5
13120
  8
1-前柱カバ-P
  6
HIDE-M
 62
     6
 10
26031.383799817351
 20
14222.08697799999
 30
0.0
 11
26019.783799817342
 21
14222.08697799999
 31
0.0
  0
LINE
  5
13121
  8
1-前柱カバ-P
  6
HIDE-M
 62
     6
 10
26031.383799817351
 20
14221.08697799999
 30
0.0
 11
26019.783799817342
 21
14221.08697799999
 31
0.0
  0
LINE
  5
13122
  8
1-前柱カバ-P
  6
HIDE-M
 62
     6
 10
26094.18379981734
 20
14222.08697799999
 30
0.0
 11
26105.783799817342
 21
14222.08697799999
 31
0.0
  0
LINE
  5
13123
  8
1-前柱カバ-P
  6
HIDE-M
 62
     6
 10
26094.18379981734
 20
14221.08697799999
 30
0.0
 11
26105.783799817342
 21
14221.08697799999
 31
0.0
  0
LINE
  5
13124
  8
0-6
  6
CONTINUOUS
 62
     6
 10
24612.708094995942
 20
13542.98783599998
 30
0.0
 11
25612.70743599593
 21
13542.98783599998
 31
0.0
  0
TEXT
  5
13125
  8
0-6
  6
CONTINUOUS
 62
     7
 10
24708.708358995918
 20
13622.98809999998
 30
0.0
 40
160.0
  1
前柱（P）
 72
     4
 11
25108.708358995918
 21
13702.98809999998
 31
0.0
  0
LINE
  5
13126
  8
0-6
  6
CONTINUOUS
 62
     6
 10
26017.783799817331
 20
14128.98697799999
 30
0.0
 11
25612.70743599593
 21
13542.98783599998
 31
0.0
  0
LINE
  5
13127
  8
0-6
  6
CONTINUOUS
 62
     6
 10
24612.708094995942
 20
16080.048635954119
 30
0.0
 11
25612.70743599593
 21
16080.048635954119
 31
0.0
  0
TEXT
  5
13128
  8
0-6
  6
CONTINUOUS
 62
     7
 10
24708.708358995918
 20
16160.048899954099
 30
0.0
 40
160.0
  1
中柱（P）
 72
     4
 11
25108.708358995918
 21
16240.048899954099
 31
0.0
  0
LINE
  5
13129
  8
0-6
  6
CONTINUOUS
 62
     6
 10
26017.783799817331
 20
16666.047777954111
 30
0.0
 11
25612.70743599593
 21
16080.048635954119
 31
0.0
  0
LINE
  5
1312A
  8
0-6
  6
CONTINUOUS
 62
     6
 10
24271.646204526402
 20
14743.977715828871
 30
0.0
 11
25727.646204526402
 21
14743.977715828871
 31
0.0
  0
TEXT
  5
1312B
  8
0-6
  6
CONTINUOUS
 62
     7
 10
24311.651477778811
 20
14823.977979828849
 30
0.0
 40
160.0
  1
前柱カバー（P）
 72
     4
 11
24999.651477778811
 21
14903.977979828849
 31
0.0
  0
LINE
  5
1312C
  8
0-6
  6
CONTINUOUS
 62
     6
 10
26026.883799817359
 20
14255.586977999979
 30
0.0
 11
25727.646204526402
 21
14743.977715828871
 31
0.0
  0
LINE
  5
1312D
  8
0-6
  6
CONTINUOUS
 62
     6
 10
24271.646204526402
 20
17300.977279828869
 30
0.0
 11
25727.646204526402
 21
17300.977279828869
 31
0.0
  0
TEXT
  5
1312E
  8
0-6
  6
CONTINUOUS
 62
     7
 10
24311.651477778811
 20
17380.97754382886
 30
0.0
 40
160.0
  1
中柱カバー（P）
 72
     4
 11
24999.651477778811
 21
17460.97754382886
 31
0.0
  0
LINE
  5
1312F
  8
0-6
  6
CONTINUOUS
 62
     6
 10
26026.883799817359
 20
16812.58654199999
 30
0.0
 11
25727.646204526402
 21
17300.977279828869
 31
0.0
  0
LINE
  5
13130
  8
0-6
  6
CONTINUOUS
 62
     6
 10
24612.708094995942
 20
19957.424343045859
 30
0.0
 11
25612.70743599593
 21
19957.424343045859
 31
0.0
  0
TEXT
  5
13131
  8
0-6
  6
CONTINUOUS
 62
     7
 10
24708.708358995918
 20
20037.42460704585
 30
0.0
 40
160.0
  1
後柱（P）
 72
     4
 11
25108.708358995918
 21
20117.42460704585
 31
0.0
  0
LINE
  5
13132
  8
0-6
  6
CONTINUOUS
 62
     6
 10
26017.783799817331
 20
19371.425201045859
 30
0.0
 11
25612.70743599593
 21
19957.424343045859
 31
0.0
  0
LINE
  5
13133
  8
0-6
  6
CONTINUOUS
 62
     6
 10
24271.646204526402
 20
18751.325319542058
 30
0.0
 11
25727.646204526391
 21
18751.325319542058
 31
0.0
  0
TEXT
  5
13134
  8
0-6
  6
CONTINUOUS
 62
     7
 10
24311.651477778811
 20
18831.325583542039
 30
0.0
 40
160.0
  1
後柱カバー（P）
 72
     4
 11
24999.651477778811
 21
18911.325583542039
 31
0.0
  0
LINE
  5
13135
  8
0-6
  6
CONTINUOUS
 62
     6
 10
26026.883799817359
 20
19224.88643699999
 30
0.0
 11
25727.646204526391
 21
18751.325319542058
 31
0.0
  0
LINE
  5
13136
  8
0-6
  6
CONTINUOUS
 62
     6
 10
25920.555775869379
 20
19102.390205253349
 30
0.0
 11
26026.883799817359
 21
19224.88643699999
 31
0.0
  0
LINE
  5
13137
  8
0-6
  6
CONTINUOUS
 62
     6
 10
26026.883799817359
 20
19224.88643699999
 30
0.0
 11
25966.031680224089
 21
19074.52513032455
 31
0.0
  0
LINE
  5
13138
  8
0-6
  6
CONTINUOUS
 62
     6
 10
25966.031680224089
 20
19074.52513032455
 30
0.0
 11
25920.555775869379
 21
19102.390205253349
 31
0.0
  0
LINE
  5
13139
  8
0-6
  6
CONTINUOUS
 62
     6
 10
25948.740121375358
 20
19518.203761932691
 30
0.0
 11
26017.783799817331
 21
19371.425201045859
 31
0.0
  0
LINE
  5
1313A
  8
0-6
  6
CONTINUOUS
 62
     6
 10
26017.783799817331
 20
19371.425201045859
 30
0.0
 11
25904.86679963821
 21
19487.87799867084
 31
0.0
  0
LINE
  5
1313B
  8
0-6
  6
CONTINUOUS
 62
     6
 10
25904.86679963821
 20
19487.87799867084
 30
0.0
 11
25948.740121375358
 21
19518.203761932691
 31
0.0
  0
LINE
  5
1313C
  8
0-6
  6
CONTINUOUS
 62
     6
 10
25920.555775869379
 20
16935.082773746639
 30
0.0
 11
26026.883799817359
 21
16812.586541999979
 31
0.0
  0
LINE
  5
1313D
  8
0-6
  6
CONTINUOUS
 62
     6
 10
26026.883799817359
 20
16812.586541999979
 30
0.0
 11
25966.031680224089
 21
16962.947848675441
 31
0.0
  0
LINE
  5
1313E
  8
0-6
  6
CONTINUOUS
 62
     6
 10
25966.031680224089
 20
16962.947848675441
 30
0.0
 11
25920.555775869379
 21
16935.082773746639
 31
0.0
  0
LINE
  5
1313F
  8
0-6
  6
CONTINUOUS
 62
     6
 10
25920.555775869379
 20
14378.08320974665
 30
0.0
 11
26026.883799817359
 21
14255.58697799999
 31
0.0
  0
LINE
  5
13140
  8
0-6
  6
CONTINUOUS
 62
     6
 10
26026.883799817359
 20
14255.58697799999
 30
0.0
 11
25966.031680224089
 21
14405.948284675451
 31
0.0
  0
LINE
  5
13141
  8
0-6
  6
CONTINUOUS
 62
     6
 10
25966.031680224089
 20
14405.948284675451
 30
0.0
 11
25920.555775869379
 21
14378.08320974665
 31
0.0
  0
LINE
  5
13142
  8
0-6
  6
CONTINUOUS
 62
     6
 10
25948.740121375358
 20
16519.2692170673
 30
0.0
 11
26017.783799817331
 21
16666.047777954111
 31
0.0
  0
LINE
  5
13143
  8
0-6
  6
CONTINUOUS
 62
     6
 10
26017.783799817331
 20
16666.047777954111
 30
0.0
 11
25904.86679963821
 21
16549.59498032913
 31
0.0
  0
LINE
  5
13144
  8
0-6
  6
CONTINUOUS
 62
     6
 10
25904.86679963821
 20
16549.59498032913
 30
0.0
 11
25948.740121375358
 21
16519.2692170673
 31
0.0
  0
LINE
  5
13145
  8
0-6
  6
CONTINUOUS
 62
     6
 10
25948.740121375358
 20
13982.20841711317
 30
0.0
 11
26017.783799817331
 21
14128.98697799999
 31
0.0
  0
LINE
  5
13146
  8
0-6
  6
CONTINUOUS
 62
     6
 10
26017.783799817331
 20
14128.98697799999
 30
0.0
 11
25904.86679963821
 21
14012.53418037502
 31
0.0
  0
LINE
  5
13147
  8
0-6
  6
CONTINUOUS
 62
     6
 10
25904.86679963821
 20
14012.53418037502
 30
0.0
 11
25948.740121375358
 21
13982.20841711317
 31
0.0
  0
LINE
  5
13148
  8
SUNPOU
  6
CONTINUOUS
 62
     4
 10
23262.783799817331
 20
20560.48790199999
 30
0.0
 11
26062.783799817342
 21
20560.48790199999
 31
0.0
  0
LINE
  5
13149
  8
SUNPOU
  6
CONTINUOUS
 62
     4
 10
20695.283799817342
 20
20560.48790199999
 30
0.0
 11
23262.783799817331
 21
20560.48790199999
 31
0.0
  0
LINE
  5
1314A
  8
SUNPOU
  6
CONTINUOUS
 62
     4
 10
26062.783799817342
 20
19684.936751877329
 30
0.0
 11
26062.783799817342
 21
20240.48790199999
 31
0.0
  0
LINE
  5
1314B
  8
SUNPOU
  6
CONTINUOUS
 62
     4
 10
26020.281556817328
 20
19523.837241999991
 30
0.0
 11
26020.281556817328
 21
20240.48790199999
 31
0.0
  0
LINE
  5
1314C
  8
SUNPOU
  6
CONTINUOUS
 62
     4
 10
26062.783799817342
 20
20160.48790199999
 30
0.0
 11
26302.783799817342
 21
20160.48790199999
 31
0.0
  0
LINE
  5
1314D
  8
SUNPOU
  6
CONTINUOUS
 62
     4
 10
26020.281556817328
 20
20160.48790199999
 30
0.0
 11
25780.281556817328
 21
20160.48790199999
 31
0.0
  0
LINE
  5
1314E
  8
SUNPOU
  6
CONTINUOUS
 62
     4
 10
26062.783799817342
 20
20160.48790199999
 30
0.0
 11
26020.281556817328
 21
20160.48790199999
 31
0.0
  0
LINE
  5
1314F
  8
SUNPOU
  6
CONTINUOUS
 62
     4
 10
26062.783799817342
 20
19684.936751877329
 30
0.0
 11
26062.783799817342
 21
20240.48790199999
 31
0.0
  0
LINE
  5
13150
  8
SUNPOU
  6
CONTINUOUS
 62
     4
 10
26105.282084817329
 20
19520.489484999991
 30
0.0
 11
26105.282084817329
 21
20240.48790199999
 31
0.0
  0
LINE
  5
13151
  8
SUNPOU
  6
CONTINUOUS
 62
     4
 10
26062.783799817342
 20
20160.48790199999
 30
0.0
 11
25822.783799817342
 21
20160.48790199999
 31
0.0
  0
LINE
  5
13152
  8
SUNPOU
  6
CONTINUOUS
 62
     4
 10
26105.282084817329
 20
20160.48790199999
 30
0.0
 11
26345.282084817329
 21
20160.48790199999
 31
0.0
  0
LINE
  5
13153
  8
SUNPOU
  6
CONTINUOUS
 62
     4
 10
26062.783799817342
 20
20160.48790199999
 30
0.0
 11
26105.282084817329
 21
20160.48790199999
 31
0.0
  0
LINE
  5
13154
  8
SUNPOU
  6
CONTINUOUS
 62
     4
 10
26447.388635769279
 20
16750.48697799999
 30
0.0
 11
27360.627424185961
 21
16750.48697799999
 31
0.0
  0
LINE
  5
13155
  8
SUNPOU
  6
CONTINUOUS
 62
     4
 10
26447.388635769279
 20
19317.98697799999
 30
0.0
 11
27360.627424185961
 21
19317.98697799999
 31
0.0
  0
LINE
  5
13156
  8
SUNPOU
  6
CONTINUOUS
 62
     4
 10
27280.627424185961
 20
16750.48697799999
 30
0.0
 11
27280.627424185961
 21
19317.98697799999
 31
0.0
  0
LINE
  5
13157
  8
SUNPOU
  6
CONTINUOUS
 62
     4
 10
26447.388635769279
 20
14182.986978000001
 30
0.0
 11
27360.627424185961
 21
14182.986978000001
 31
0.0
  0
LINE
  5
13158
  8
SUNPOU
  6
CONTINUOUS
 62
     4
 10
26447.388635769279
 20
16750.48697799999
 30
0.0
 11
27360.627424185961
 21
16750.48697799999
 31
0.0
  0
LINE
  5
13159
  8
SUNPOU
  6
CONTINUOUS
 62
     4
 10
27280.627424185961
 20
14182.986978000001
 30
0.0
 11
27280.627424185961
 21
16750.48697799999
 31
0.0
  0
ARC
  5
1315A
  8
1-前柱P
 10
26072.383799817359
 20
14251.38697799999
 30
0.0
 40
1.0
 50
90.0
 51
180.0
  0
LINE
  5
1315B
  8
1-前柱P
 10
26071.383799817359
 20
14251.38697799999
 30
0.0
 11
26071.383799817359
 21
14249.786978
 31
0.0
  0
LINE
  5
1315C
  8
1-前柱P
 10
26071.383799817359
 20
14249.786978
 30
0.0
 11
26060.18379981734
 21
14249.786978
 31
0.0
  0
LINE
  5
1315D
  8
1-前柱P
 10
26060.18379981734
 20
14249.786978
 30
0.0
 11
26060.183799817329
 21
14251.38697799999
 31
0.0
  0
ARC
  5
1315E
  8
1-前柱P
 10
26059.183799817329
 20
14251.38697799999
 30
0.0
 40
1.0
 50
0.0
 51
90.0
  0
ARC
  5
1315F
  8
1-中柱P
 10
26056.183799817329
 20
16818.786978
 30
0.0
 40
1.0
 50
0.0
 51
90.0
  0
LINE
  5
13160
  8
1-中柱P
 10
26057.183799817329
 20
16818.786978
 30
0.0
 11
26057.183799817329
 21
16817.186978000002
 31
0.0
  0
LINE
  5
13161
  8
1-中柱P
 10
26057.183799817329
 20
16817.186978000002
 30
0.0
 11
26068.38379981734
 21
16817.186978000002
 31
0.0
  0
LINE
  5
13162
  8
1-中柱P
 10
26068.38379981734
 20
16817.186978000002
 30
0.0
 11
26068.38379981734
 21
16818.786978
 31
0.0
  0
ARC
  5
13163
  8
1-中柱P
 10
26069.383799817319
 20
16818.786978
 30
0.0
 40
1.0
 50
90.0
 51
180.0
  0
ARC
  5
13164
  8
1-後柱P
 10
26053.18379981734
 20
19249.936977999991
 30
0.0
 40
1.0
 50
270.0
 51
0.0
  0
LINE
  5
13165
  8
1-後柱P
 10
26054.18379981734
 20
19249.936977999991
 30
0.0
 11
26054.18379981734
 21
19251.536978
 31
0.0
  0
LINE
  5
13166
  8
1-後柱P
 10
26054.18379981734
 20
19251.536978
 30
0.0
 11
26065.383799817359
 21
19251.536978
 31
0.0
  0
LINE
  5
13167
  8
1-後柱P
 10
26065.383799817359
 20
19251.536978
 30
0.0
 11
26065.383799817359
 21
19249.936977999991
 31
0.0
  0
ARC
  5
13168
  8
1-後柱P
 10
26066.383799817351
 20
19249.936977999991
 30
0.0
 40
1.0
 50
180.0
 51
270.0
  0
TEXT
  5
13169
  8
0
  6
CONTINUOUS
 62
     7
 10
27200.62742418595
 20
15066.736978000001
 30
0.0
 40
160.0
  1
2567.5
 50
90.0
  0
TEXT
  5
1316A
  8
0
  6
CONTINUOUS
 62
     7
 10
27200.627424185961
 20
17634.23697799999
 30
0.0
 40
160.0
  1
2567.5
 50
90.0
  0
TEXT
  5
1316B
  8
0
  6
CONTINUOUS
 62
     7
 10
26203.705727817309
 20
20240.486185999991
 30
0.0
 40
160.0
  1
42.5
  0
TEXT
  5
1316C
  8
0
  6
CONTINUOUS
 62
     7
 10
25525.609760817359
 20
20259.830042000001
 30
0.0
 40
160.0
  1
42.5
  0
TEXT
  5
1316D
  8
0
  6
CONTINUOUS
 62
     7
 10
21579.033799817342
 20
20640.48790199999
 30
0.0
 40
160.0
  1
2567.5
  0
TEXT
  5
1316E
  8
0
  6
CONTINUOUS
 62
     7
 10
24396.11713315067
 20
20640.48790199999
 30
0.0
 40
160.0
  1
2800
  0
ARC
  5
1316F
  8
0
  6
BYBLOCK
 62
     0
 10
23262.783799817331
 20
20560.48790199999
 30
0.0
 40
15.0
 50
180.0
 51
0.0
  0
ARC
  5
13170
  8
0
  6
BYBLOCK
 62
     0
 10
23262.783799817331
 20
20560.48790199999
 30
0.0
 40
15.0
 50
0.0
 51
180.0
  0
ARC
  5
13171
  8
0
  6
BYBLOCK
 62
     0
 10
26062.783799817342
 20
20560.48790199999
 30
0.0
 40
15.0
 50
0.0
 51
180.0
  0
ARC
  5
13172
  8
0
  6
BYBLOCK
 62
     0
 10
26062.783799817342
 20
20560.48790199999
 30
0.0
 40
15.0
 50
180.0
 51
0.0
  0
ARC
  5
13173
  8
0
  6
BYBLOCK
 62
     0
 10
20695.283799817342
 20
20560.48790199999
 30
0.0
 40
15.0
 50
180.0
 51
0.0
  0
ARC
  5
13174
  8
0
  6
BYBLOCK
 62
     0
 10
20695.283799817342
 20
20560.48790199999
 30
0.0
 40
15.0
 50
0.0
 51
180.0
  0
ARC
  5
13175
  8
0
  6
BYBLOCK
 62
     0
 10
23262.783799817331
 20
20560.48790199999
 30
0.0
 40
15.0
 50
0.0
 51
180.0
  0
ARC
  5
13176
  8
0
  6
BYBLOCK
 62
     0
 10
23262.783799817331
 20
20560.48790199999
 30
0.0
 40
15.0
 50
180.0
 51
0.0
  0
ARC
  5
13177
  8
0
  6
BYBLOCK
 62
     0
 10
26062.783799817342
 20
20160.48790199999
 30
0.0
 40
15.0
 50
180.0
 51
0.0
  0
ARC
  5
13178
  8
0
  6
BYBLOCK
 62
     0
 10
26062.783799817342
 20
20160.48790199999
 30
0.0
 40
15.0
 50
0.0
 51
180.0
  0
ARC
  5
13179
  8
0
  6
BYBLOCK
 62
     0
 10
26020.281556817328
 20
20160.48790199999
 30
0.0
 40
15.0
 50
0.0
 51
180.0
  0
ARC
  5
1317A
  8
0
  6
BYBLOCK
 62
     0
 10
26020.281556817328
 20
20160.48790199999
 30
0.0
 40
15.0
 50
180.0
 51
0.0
  0
ARC
  5
1317B
  8
0
  6
BYBLOCK
 62
     0
 10
26062.783799817342
 20
20160.48790199999
 30
0.0
 40
15.0
 50
0.0
 51
180.0
  0
ARC
  5
1317C
  8
0
  6
BYBLOCK
 62
     0
 10
26062.783799817342
 20
20160.48790199999
 30
0.0
 40
15.0
 50
180.0
 51
0.0
  0
ARC
  5
1317D
  8
0
  6
BYBLOCK
 62
     0
 10
26105.282084817329
 20
20160.48790199999
 30
0.0
 40
15.0
 50
180.0
 51
0.0
  0
ARC
  5
1317E
  8
0
  6
BYBLOCK
 62
     0
 10
26105.282084817329
 20
20160.48790199999
 30
0.0
 40
15.0
 50
0.0
 51
180.0
  0
ARC
  5
1317F
  8
0
  6
BYBLOCK
 62
     0
 10
27280.627424185961
 20
16750.48697799999
 30
0.0
 40
15.0
 50
270.0
 51
90.0
  0
ARC
  5
13180
  8
0
  6
BYBLOCK
 62
     0
 10
27280.627424185961
 20
16750.48697799999
 30
0.0
 40
15.0
 50
90.0
 51
270.0
  0
ARC
  5
13181
  8
0
  6
BYBLOCK
 62
     0
 10
27280.627424185961
 20
19317.98697799999
 30
0.0
 40
15.0
 50
90.0
 51
270.0
  0
ARC
  5
13182
  8
0
  6
BYBLOCK
 62
     0
 10
27280.627424185961
 20
19317.98697799999
 30
0.0
 40
15.0
 50
270.0
 51
90.0
  0
ARC
  5
13183
  8
0
  6
BYBLOCK
 62
     0
 10
27280.627424185961
 20
14182.986978000001
 30
0.0
 40
15.0
 50
270.0
 51
90.0
  0
ARC
  5
13184
  8
0
  6
BYBLOCK
 62
     0
 10
27280.627424185961
 20
14182.986978000001
 30
0.0
 40
15.0
 50
90.0
 51
270.0
  0
ARC
  5
13185
  8
0
  6
BYBLOCK
 62
     0
 10
27280.627424185961
 20
16750.48697799999
 30
0.0
 40
15.0
 50
90.0
 51
270.0
  0
ARC
  5
13186
  8
0
  6
BYBLOCK
 62
     0
 10
27280.627424185961
 20
16750.48697799999
 30
0.0
 40
15.0
 50
270.0
 51
90.0
  0
LINE
  5
13187
  8
2-0
  6
CONTINUOUS
 62
     6
 10
22378.442715817349
 20
13542.985855999999
 30
0.0
 11
21378.449313817378
 21
13542.985855999999
 31
0.0
  0
LINE
  5
13188
  8
2-0
  6
CONTINUOUS
 62
     6
 10
20910.50893681735
 20
14013.40656999999
 30
0.0
 11
21378.449313817378
 21
13542.985855999999
 31
0.0
  0
LINE
  5
13189
  8
2-0
  6
CONTINUOUS
 62
     6
 10
20949.149139817338
 20
16854.514217000011
 30
0.0
 11
21253.84455781736
 21
16958.167748000022
 31
0.0
  0
LINE
  5
1318A
  8
2-0
  6
CONTINUOUS
 62
     6
 10
20794.127100817372
 20
16364.892173000009
 30
0.0
 11
21253.84455781736
 21
16120.978862000011
 31
0.0
  0
LINE
  5
1318B
  8
2-0
  6
CONTINUOUS
 62
     6
 10
22173.847592817361
 20
16120.978862000011
 30
0.0
 11
21253.84455781736
 21
16120.978862000011
 31
0.0
  0
LINE
  5
1318C
  8
2-0
  6
CONTINUOUS
 62
     6
 10
22453.83861981735
 20
16958.167748000022
 30
0.0
 11
21253.84455781736
 21
16958.167748000022
 31
0.0
  0
LINE
  5
1318D
  8
2-0
  6
CONTINUOUS
 62
     6
 10
20877.949815817341
 20
14335.090215999981
 30
0.0
 11
21253.84455781736
 21
14516.034051000001
 31
0.0
  0
LINE
  5
1318E
  8
2-0
  6
CONTINUOUS
 62
     6
 10
21773.846273817351
 20
14516.034051000001
 30
0.0
 11
21253.84455781736
 21
14516.034051000001
 31
0.0
  0
LINE
  5
1318F
  8
2-0
  6
CONTINUOUS
 62
     4
 10
23262.783799817349
 20
19440.487506000001
 30
0.0
 11
23262.783799817349
 21
20170.484471000011
 31
0.0
  0
LINE
  5
13190
  8
2-0
  6
CONTINUOUS
 62
     3
 10
20682.783139817351
 20
19251.485051999989
 30
0.0
 11
20682.783139817351
 21
19245.489090000021
 31
0.0
  0
LINE
  5
13191
  8
2-0
  6
CONTINUOUS
 62
     3
 10
20682.783139817351
 20
19245.489090000021
 30
0.0
 11
20652.785515817341
 21
19245.489090000021
 31
0.0
  0
LINE
  5
13192
  8
2-0
  6
CONTINUOUS
 62
     3
 10
20652.785515817341
 20
19275.488694
 30
0.0
 11
20733.787415817369
 21
19275.488694
 31
0.0
  0
LINE
  5
13193
  8
2-0
  6
CONTINUOUS
 62
     3
 10
20682.783139817351
 20
19235.191633999992
 30
0.0
 11
20652.785515817341
 21
19235.191633999992
 31
0.0
  0
LINE
  5
13194
  8
2-0
  6
CONTINUOUS
 62
     3
 10
20682.783139817351
 20
19253.193375999999
 30
0.0
 11
20682.783139817351
 21
19235.191633999992
 31
0.0
  0
LINE
  5
13195
  8
2-0
  6
CONTINUOUS
 62
     3
 10
20657.78577981735
 20
19253.193375999999
 30
0.0
 11
20682.783139817351
 21
19253.193375999999
 31
0.0
  0
LINE
  5
13196
  8
2-0
  6
CONTINUOUS
 62
     3
 10
20657.78577981735
 20
19248.185194000002
 30
0.0
 11
20657.78577981735
 21
19253.193375999999
 31
0.0
  0
LINE
  5
13197
  8
2-0
  6
CONTINUOUS
 62
     3
 10
20664.787336817339
 20
19248.185194000002
 30
0.0
 11
20657.78577981735
 21
19248.185194000002
 31
0.0
  0
LINE
  5
13198
  8
2-0
  6
CONTINUOUS
 62
     3
 10
20765.083604817341
 20
19348.485421000001
 30
0.0
 11
20765.083604817341
 21
19355.49093700001
 31
0.0
  0
LINE
  5
13199
  8
2-0
  6
CONTINUOUS
 62
     3
 10
20765.083604817341
 20
19355.49093700001
 30
0.0
 11
20760.08334081736
 21
19355.49093700001
 31
0.0
  0
LINE
  5
1319A
  8
2-0
  6
CONTINUOUS
 62
     3
 10
20760.08334081736
 20
19355.49093700001
 30
0.0
 11
20760.08334081736
 21
19330.4817
 31
0.0
  0
LINE
  5
1319B
  8
2-0
  6
CONTINUOUS
 62
     3
 10
20760.08334081736
 20
19330.4817
 30
0.0
 11
20778.085082817372
 21
19330.4817
 31
0.0
  0
LINE
  5
1319C
  8
2-0
  6
CONTINUOUS
 62
     3
 10
20778.085082817372
 20
19330.4817
 30
0.0
 11
20778.085082817372
 21
19360.48526300002
 31
0.0
  0
LINE
  5
1319D
  8
2-0
  6
CONTINUOUS
 62
     3
 10
20767.78762681736
 20
19360.48526300002
 30
0.0
 11
20652.785515817341
 21
19360.48526300002
 31
0.0
  0
LINE
  5
1319E
  8
2-0
  6
CONTINUOUS
 62
     3
 10
20767.78762681736
 20
19330.4817
 30
0.0
 11
20767.78762681736
 21
19360.48526300002
 31
0.0
  0
LINE
  5
1319F
  8
2-0
  6
CONTINUOUS
 62
     3
 10
20761.78572681735
 20
19330.4817
 30
0.0
 11
20767.78762681736
 21
19330.4817
 31
0.0
  0
LINE
  5
131A0
  8
2-0
  6
CONTINUOUS
 62
     3
 10
20664.787336817339
 20
18894.88837149995
 30
0.0
 11
20657.78577981735
 21
18894.88837149995
 31
0.0
  0
LINE
  5
131A1
  8
2-0
  6
CONTINUOUS
 62
     3
 10
20657.78577981735
 20
18894.88837149995
 30
0.0
 11
20657.78577981735
 21
18899.888635499989
 31
0.0
  0
LINE
  5
131A2
  8
2-0
  6
CONTINUOUS
 62
     3
 10
20657.78577981735
 20
18899.888635499989
 30
0.0
 11
20682.783139817351
 21
18899.888635499989
 31
0.0
  0
LINE
  5
131A3
  8
2-0
  6
CONTINUOUS
 62
     3
 10
20682.783139817351
 20
18899.888635499989
 30
0.0
 11
20682.783139817351
 21
18881.892831500001
 31
0.0
  0
LINE
  5
131A4
  8
2-0
  6
CONTINUOUS
 62
     3
 10
20682.783139817351
 20
18881.892831500001
 30
0.0
 11
20652.785515817341
 21
18881.892831500001
 31
0.0
  0
LINE
  5
131A5
  8
2-0
  6
CONTINUOUS
 62
     3
 10
20682.783139817351
 20
18897.98433849998
 30
0.0
 11
20682.783139817351
 21
18891.986397500001
 31
0.0
  0
LINE
  5
131A6
  8
2-0
  6
CONTINUOUS
 62
     3
 10
20682.783139817351
 20
18891.986397500001
 30
0.0
 11
20652.785515817341
 21
18891.986397500001
 31
0.0
  0
LINE
  5
131A7
  8
2-0
  6
CONTINUOUS
 62
     3
 10
20652.785515817341
 20
18891.986397500001
 30
0.0
 11
20652.785515817341
 21
18928.987558500001
 31
0.0
  0
LINE
  5
131A8
  8
2-0
  6
CONTINUOUS
 62
     3
 10
20682.783139817351
 20
18928.987558500001
 30
0.0
 11
20652.785515817341
 21
18928.987558500001
 31
0.0
  0
LINE
  5
131A9
  8
2-0
  6
CONTINUOUS
 62
     3
 10
20682.783139817351
 20
18922.98367849999
 30
0.0
 11
20682.783139817351
 21
18928.987558500001
 31
0.0
  0
LINE
  5
131AA
  8
2-0
  6
CONTINUOUS
 62
     3
 10
20682.783139817351
 20
18939.08310349999
 30
0.0
 11
20652.785515817341
 21
18939.08310349999
 31
0.0
  0
LINE
  5
131AB
  8
2-0
  6
CONTINUOUS
 62
     3
 10
20682.783139817351
 20
18921.081361500001
 30
0.0
 11
20682.783139817351
 21
18939.08310349999
 31
0.0
  0
LINE
  5
131AC
  8
2-0
  6
CONTINUOUS
 62
     3
 10
20657.78577981735
 20
18921.081361500001
 30
0.0
 11
20682.783139817351
 21
18921.081361500001
 31
0.0
  0
LINE
  5
131AD
  8
2-0
  6
CONTINUOUS
 62
     3
 10
20657.78577981735
 20
18926.081625499992
 30
0.0
 11
20657.78577981735
 21
18921.081361500001
 31
0.0
  0
LINE
  5
131AE
  8
2-0
  6
CONTINUOUS
 62
     3
 10
20664.787336817339
 20
18926.081625499992
 30
0.0
 11
20657.78577981735
 21
18926.081625499992
 31
0.0
  0
LINE
  5
131AF
  8
2-0
  6
CONTINUOUS
 62
     3
 10
20664.787336817339
 20
18193.887382000001
 30
0.0
 11
20657.78577981735
 21
18193.887382000001
 31
0.0
  0
LINE
  5
131B0
  8
2-0
  6
CONTINUOUS
 62
     3
 10
20657.78577981735
 20
18193.887382000001
 30
0.0
 11
20657.78577981735
 21
18198.89358399999
 31
0.0
  0
LINE
  5
131B1
  8
2-0
  6
CONTINUOUS
 62
     3
 10
20657.78577981735
 20
18198.89358399999
 30
0.0
 11
20682.783139817351
 21
18198.89358399999
 31
0.0
  0
LINE
  5
131B2
  8
2-0
  6
CONTINUOUS
 62
     3
 10
20682.783139817351
 20
18198.89358399999
 30
0.0
 11
20682.783139817351
 21
18180.89184199999
 31
0.0
  0
LINE
  5
131B3
  8
2-0
  6
CONTINUOUS
 62
     3
 10
20682.783139817351
 20
18180.89184199999
 30
0.0
 11
20652.785515817341
 21
18180.89184199999
 31
0.0
  0
LINE
  5
131B4
  8
2-0
  6
CONTINUOUS
 62
     3
 10
20682.783139817351
 20
18196.983348999991
 30
0.0
 11
20682.783139817351
 21
18190.987386999979
 31
0.0
  0
LINE
  5
131B5
  8
2-0
  6
CONTINUOUS
 62
     3
 10
20682.783139817351
 20
18190.987386999979
 30
0.0
 11
20652.785515817341
 21
18190.987386999979
 31
0.0
  0
LINE
  5
131B6
  8
2-0
  6
CONTINUOUS
 62
     3
 10
20652.785515817341
 20
18190.987386999979
 30
0.0
 11
20652.785515817341
 21
18227.986569000001
 31
0.0
  0
LINE
  5
131B7
  8
2-0
  6
CONTINUOUS
 62
     3
 10
20682.783139817351
 20
18227.986569000001
 30
0.0
 11
20652.785515817341
 21
18227.986569000001
 31
0.0
  0
LINE
  5
131B8
  8
2-0
  6
CONTINUOUS
 62
     3
 10
20682.783139817351
 20
18221.990607
 30
0.0
 11
20682.783139817351
 21
18227.986569000001
 31
0.0
  0
LINE
  5
131B9
  8
2-0
  6
CONTINUOUS
 62
     3
 10
20682.783139817351
 20
18238.082114000001
 30
0.0
 11
20652.785515817341
 21
18238.082114000001
 31
0.0
  0
LINE
  5
131BA
  8
2-0
  6
CONTINUOUS
 62
     3
 10
20682.783139817351
 20
18220.080372
 30
0.0
 11
20682.783139817351
 21
18238.082114000001
 31
0.0
  0
LINE
  5
131BB
  8
2-0
  6
CONTINUOUS
 62
     3
 10
20657.78577981735
 20
18220.080372
 30
0.0
 11
20682.783139817351
 21
18220.080372
 31
0.0
  0
LINE
  5
131BC
  8
2-0
  6
CONTINUOUS
 62
     3
 10
20657.78577981735
 20
18225.086573999979
 30
0.0
 11
20657.78577981735
 21
18220.080372
 31
0.0
  0
LINE
  5
131BD
  8
2-0
  6
CONTINUOUS
 62
     3
 10
20664.787336817339
 20
18225.086573999979
 30
0.0
 11
20657.78577981735
 21
18225.086573999979
 31
0.0
  0
LINE
  5
131BE
  8
2-0
  6
CONTINUOUS
 62
     3
 10
20664.787336817339
 20
17524.080635999999
 30
0.0
 11
20657.78577981735
 21
17524.080635999999
 31
0.0
  0
LINE
  5
131BF
  8
2-0
  6
CONTINUOUS
 62
     3
 10
20657.78577981735
 20
17524.080635999999
 30
0.0
 11
20657.78577981735
 21
17519.092249000001
 31
0.0
  0
LINE
  5
131C0
  8
2-0
  6
CONTINUOUS
 62
     3
 10
20657.78577981735
 20
17519.092249000001
 30
0.0
 11
20682.783139817351
 21
17519.092249000001
 31
0.0
  0
LINE
  5
131C1
  8
2-0
  6
CONTINUOUS
 62
     3
 10
20682.783139817351
 20
17519.092249000001
 30
0.0
 11
20682.783139817351
 21
17537.088051999988
 31
0.0
  0
LINE
  5
131C2
  8
2-0
  6
CONTINUOUS
 62
     3
 10
20682.783139817351
 20
17537.088051999988
 30
0.0
 11
20652.785515817341
 21
17537.088051999988
 31
0.0
  0
LINE
  5
131C3
  8
2-0
  6
CONTINUOUS
 62
     3
 10
20682.783139817351
 20
17520.990607
 30
0.0
 11
20682.783139817351
 21
17526.98656899999
 31
0.0
  0
LINE
  5
131C4
  8
2-0
  6
CONTINUOUS
 62
     3
 10
20682.783139817351
 20
17526.98656899999
 30
0.0
 11
20652.785515817341
 21
17526.98656899999
 31
0.0
  0
LINE
  5
131C5
  8
2-0
  6
CONTINUOUS
 62
     3
 10
20652.785515817341
 20
17526.98656899999
 30
0.0
 11
20652.785515817341
 21
17489.987387000001
 31
0.0
  0
LINE
  5
131C6
  8
2-0
  6
CONTINUOUS
 62
     3
 10
20682.783139817351
 20
17489.987387000001
 30
0.0
 11
20652.785515817341
 21
17489.987387000001
 31
0.0
  0
LINE
  5
131C7
  8
2-0
  6
CONTINUOUS
 62
     3
 10
20682.783139817351
 20
17495.989287999979
 30
0.0
 11
20682.783139817351
 21
17489.987387000001
 31
0.0
  0
LINE
  5
131C8
  8
2-0
  6
CONTINUOUS
 62
     3
 10
20682.783139817351
 20
17479.897781
 30
0.0
 11
20652.785515817341
 21
17479.897781
 31
0.0
  0
LINE
  5
131C9
  8
2-0
  6
CONTINUOUS
 62
     3
 10
20682.783139817351
 20
17497.893584000001
 30
0.0
 11
20682.783139817351
 21
17479.897781
 31
0.0
  0
LINE
  5
131CA
  8
2-0
  6
CONTINUOUS
 62
     3
 10
20657.78577981735
 20
17497.893584000001
 30
0.0
 11
20682.783139817351
 21
17497.893584000001
 31
0.0
  0
LINE
  5
131CB
  8
2-0
  6
CONTINUOUS
 62
     3
 10
20657.78577981735
 20
17492.89332100001
 30
0.0
 11
20657.78577981735
 21
17497.893584000001
 31
0.0
  0
LINE
  5
131CC
  8
2-0
  6
CONTINUOUS
 62
     3
 10
20664.787336817339
 20
17492.89332100001
 30
0.0
 11
20657.78577981735
 21
17492.89332100001
 31
0.0
  0
LINE
  5
131CD
  8
2-0
  6
CONTINUOUS
 62
     3
 10
20655.671653817339
 20
16772.98420699999
 30
0.0
 11
20655.671653817339
 21
16792.985261999998
 31
0.0
  0
LINE
  5
131CE
  8
2-0
  6
CONTINUOUS
 62
     3
 10
20655.671653817339
 20
16792.985261999998
 30
0.0
 11
20740.668222817359
 21
16792.985261999998
 31
0.0
  0
LINE
  5
131CF
  8
2-0
  6
CONTINUOUS
 62
     3
 10
20664.787336817339
 20
16819.591971999998
 30
0.0
 11
20657.78577981735
 21
16819.591971999998
 31
0.0
  0
LINE
  5
131D0
  8
2-0
  6
CONTINUOUS
 62
     3
 10
20657.78577981735
 20
16819.591971999998
 30
0.0
 11
20657.78577981735
 21
16814.597645999998
 31
0.0
  0
LINE
  5
131D1
  8
2-0
  6
CONTINUOUS
 62
     3
 10
20657.78577981735
 20
16814.597645999998
 30
0.0
 11
20682.783139817351
 21
16814.597645999998
 31
0.0
  0
LINE
  5
131D2
  8
2-0
  6
CONTINUOUS
 62
     3
 10
20682.783139817351
 20
16814.597645999998
 30
0.0
 11
20682.783139817351
 21
16832.59345
 31
0.0
  0
LINE
  5
131D3
  8
2-0
  6
CONTINUOUS
 62
     3
 10
20682.783139817351
 20
16832.59345
 30
0.0
 11
20652.785515817341
 21
16832.59345
 31
0.0
  0
LINE
  5
131D4
  8
2-0
  6
CONTINUOUS
 62
     3
 10
20682.783139817351
 20
16822.984865999992
 30
0.0
 11
20682.783139817351
 21
16816.982965999989
 31
0.0
  0
LINE
  5
131D5
  8
2-0
  6
CONTINUOUS
 62
     3
 10
20652.785515817341
 20
16822.984865999992
 30
0.0
 11
20682.783139817351
 21
16822.984865999992
 31
0.0
  0
LINE
  5
131D6
  8
2-0
  6
CONTINUOUS
 62
     3
 10
20652.785515817341
 20
16832.59345
 30
0.0
 11
20652.785515817341
 21
17479.897781
 31
0.0
  0
LINE
  5
131D7
  8
2-0
  6
CONTINUOUS
 62
     3
 10
20652.785515817341
 20
17537.088051999988
 30
0.0
 11
20652.785515817341
 21
18180.89184199999
 31
0.0
  0
LINE
  5
131D8
  8
2-0
  6
CONTINUOUS
 62
     3
 10
20652.785515817341
 20
16677.983151
 30
0.0
 11
20682.783139817351
 21
16677.983151
 31
0.0
  0
LINE
  5
131D9
  8
2-0
  6
CONTINUOUS
 62
     3
 10
20682.783139817351
 20
16677.983151
 30
0.0
 11
20682.783139817351
 21
16683.985050999989
 31
0.0
  0
LINE
  5
131DA
  8
2-0
  6
CONTINUOUS
 62
     3
 10
20740.668222817359
 20
16707.988694
 30
0.0
 11
20655.671653817339
 21
16707.988694
 31
0.0
  0
LINE
  5
131DB
  8
2-0
  6
CONTINUOUS
 62
     3
 10
20655.671653817339
 20
16707.988694
 30
0.0
 11
20655.671653817339
 21
16727.983810999998
 31
0.0
  0
LINE
  5
131DC
  8
2-0
  6
CONTINUOUS
 62
     3
 10
20682.783139817351
 20
16668.37456800001
 30
0.0
 11
20652.785515817341
 21
16668.37456800001
 31
0.0
  0
LINE
  5
131DD
  8
2-0
  6
CONTINUOUS
 62
     3
 10
20682.783139817351
 20
16686.37037099999
 30
0.0
 11
20682.783139817351
 21
16668.37456800001
 31
0.0
  0
LINE
  5
131DE
  8
2-0
  6
CONTINUOUS
 62
     3
 10
20657.78577981735
 20
16686.37037099999
 30
0.0
 11
20682.783139817351
 21
16686.37037099999
 31
0.0
  0
LINE
  5
131DF
  8
2-0
  6
CONTINUOUS
 62
     3
 10
20657.78577981735
 20
16681.370106999992
 30
0.0
 11
20657.78577981735
 21
16686.37037099999
 31
0.0
  0
LINE
  5
131E0
  8
2-0
  6
CONTINUOUS
 62
     3
 10
20664.787336817339
 20
16681.370106999992
 30
0.0
 11
20657.78577981735
 21
16681.370106999992
 31
0.0
  0
LINE
  5
131E1
  8
2-0
  6
CONTINUOUS
 62
     3
 10
20664.787336817339
 20
15976.887876499981
 30
0.0
 11
20657.78577981735
 21
15976.887876499981
 31
0.0
  0
LINE
  5
131E2
  8
2-0
  6
CONTINUOUS
 62
     3
 10
20657.78577981735
 20
15976.887876499981
 30
0.0
 11
20657.78577981735
 21
15981.888140499979
 31
0.0
  0
LINE
  5
131E3
  8
2-0
  6
CONTINUOUS
 62
     3
 10
20657.78577981735
 20
15981.888140499979
 30
0.0
 11
20682.783139817351
 21
15981.888140499979
 31
0.0
  0
LINE
  5
131E4
  8
2-0
  6
CONTINUOUS
 62
     3
 10
20682.783139817351
 20
15981.888140499979
 30
0.0
 11
20682.783139817351
 21
15963.88639849999
 31
0.0
  0
LINE
  5
131E5
  8
2-0
  6
CONTINUOUS
 62
     3
 10
20682.783139817351
 20
15963.88639849999
 30
0.0
 11
20652.785515817341
 21
15963.88639849999
 31
0.0
  0
LINE
  5
131E6
  8
2-0
  6
CONTINUOUS
 62
     3
 10
20682.783139817351
 20
15979.983843499989
 30
0.0
 11
20682.783139817351
 21
15973.98689249999
 31
0.0
  0
LINE
  5
131E7
  8
2-0
  6
CONTINUOUS
 62
     3
 10
20682.783139817351
 20
15973.98689249999
 30
0.0
 11
20652.785515817341
 21
15973.98689249999
 31
0.0
  0
LINE
  5
131E8
  8
2-0
  6
CONTINUOUS
 62
     3
 10
20652.785515817341
 20
15973.98689249999
 30
0.0
 11
20652.785515817341
 21
16010.987063500001
 31
0.0
  0
LINE
  5
131E9
  8
2-0
  6
CONTINUOUS
 62
     3
 10
20682.783139817351
 20
16010.987063500001
 30
0.0
 11
20652.785515817341
 21
16010.987063500001
 31
0.0
  0
LINE
  5
131EA
  8
2-0
  6
CONTINUOUS
 62
     3
 10
20682.783139817351
 20
16004.98417349999
 30
0.0
 11
20682.783139817351
 21
16010.987063500001
 31
0.0
  0
LINE
  5
131EB
  8
2-0
  6
CONTINUOUS
 62
     3
 10
20682.783139817351
 20
16021.082608500001
 30
0.0
 11
20652.785515817341
 21
16021.082608500001
 31
0.0
  0
LINE
  5
131EC
  8
2-0
  6
CONTINUOUS
 62
     3
 10
20682.783139817351
 20
16003.074927499991
 30
0.0
 11
20682.783139817351
 21
16021.082608500001
 31
0.0
  0
LINE
  5
131ED
  8
2-0
  6
CONTINUOUS
 62
     3
 10
20657.78577981735
 20
16003.074927499991
 30
0.0
 11
20682.783139817351
 21
16003.074927499991
 31
0.0
  0
LINE
  5
131EE
  8
2-0
  6
CONTINUOUS
 62
     3
 10
20657.78577981735
 20
16008.081130500001
 30
0.0
 11
20657.78577981735
 21
16003.074927499991
 31
0.0
  0
LINE
  5
131EF
  8
2-0
  6
CONTINUOUS
 62
     3
 10
20664.787336817339
 20
16008.081130500001
 30
0.0
 11
20657.78577981735
 21
16008.081130500001
 31
0.0
  0
LINE
  5
131F0
  8
2-0
  6
CONTINUOUS
 62
     3
 10
20664.787336817339
 20
15307.32114700001
 30
0.0
 11
20657.78577981735
 21
15307.32114700001
 31
0.0
  0
LINE
  5
131F1
  8
2-0
  6
CONTINUOUS
 62
     3
 10
20657.78577981735
 20
15307.32114700001
 30
0.0
 11
20657.78577981735
 21
15302.326822000001
 31
0.0
  0
LINE
  5
131F2
  8
2-0
  6
CONTINUOUS
 62
     3
 10
20657.78577981735
 20
15302.326822000001
 30
0.0
 11
20682.783139817351
 21
15302.326822000001
 31
0.0
  0
LINE
  5
131F3
  8
2-0
  6
CONTINUOUS
 62
     3
 10
20682.783139817351
 20
15302.326822000001
 30
0.0
 11
20682.783139817351
 21
15320.322625000001
 31
0.0
  0
LINE
  5
131F4
  8
2-0
  6
CONTINUOUS
 62
     3
 10
20682.783139817351
 20
15320.322625000001
 30
0.0
 11
20652.785515817341
 21
15320.322625000001
 31
0.0
  0
LINE
  5
131F5
  8
2-0
  6
CONTINUOUS
 62
     3
 10
20682.783139817351
 20
15304.22518000001
 30
0.0
 11
20682.783139817351
 21
15310.22708000001
 31
0.0
  0
LINE
  5
131F6
  8
2-0
  6
CONTINUOUS
 62
     3
 10
20682.783139817351
 20
15310.22708000001
 30
0.0
 11
20652.785515817341
 21
15310.22708000001
 31
0.0
  0
LINE
  5
131F7
  8
2-0
  6
CONTINUOUS
 62
     3
 10
20652.785515817341
 20
15273.22789900001
 30
0.0
 11
20652.785515817341
 21
15310.22708000001
 31
0.0
  0
LINE
  5
131F8
  8
2-0
  6
CONTINUOUS
 62
     3
 10
20682.783139817351
 20
15273.22789900001
 30
0.0
 11
20652.785515817341
 21
15273.22789900001
 31
0.0
  0
LINE
  5
131F9
  8
2-0
  6
CONTINUOUS
 62
     3
 10
20682.783139817351
 20
15279.22484999999
 30
0.0
 11
20682.783139817351
 21
15273.22789900001
 31
0.0
  0
LINE
  5
131FA
  8
2-0
  6
CONTINUOUS
 62
     3
 10
20682.783139817351
 20
15263.12641500001
 30
0.0
 11
20652.785515817341
 21
15263.12641500001
 31
0.0
  0
LINE
  5
131FB
  8
2-0
  6
CONTINUOUS
 62
     3
 10
20682.783139817351
 20
15281.134096
 30
0.0
 11
20682.783139817351
 21
15263.12641500001
 31
0.0
  0
LINE
  5
131FC
  8
2-0
  6
CONTINUOUS
 62
     3
 10
20657.78577981735
 20
15281.134096
 30
0.0
 11
20682.783139817351
 21
15281.134096
 31
0.0
  0
LINE
  5
131FD
  8
2-0
  6
CONTINUOUS
 62
     3
 10
20657.78577981735
 20
15276.13383200001
 30
0.0
 11
20657.78577981735
 21
15281.134096
 31
0.0
  0
LINE
  5
131FE
  8
2-0
  6
CONTINUOUS
 62
     3
 10
20664.787336817339
 20
15276.13383200001
 30
0.0
 11
20657.78577981735
 21
15276.13383200001
 31
0.0
  0
LINE
  5
131FF
  8
2-0
  6
CONTINUOUS
 62
     3
 10
20652.785515817341
 20
16668.37456800001
 30
0.0
 11
20652.785515817341
 21
16021.082608500001
 31
0.0
  0
LINE
  5
13200
  8
2-0
  6
CONTINUOUS
 62
     3
 10
20652.785515817341
 20
16822.984865999992
 30
0.0
 11
20652.785515817341
 21
16677.983151
 31
0.0
  0
LINE
  5
13201
  8
2-0
  6
CONTINUOUS
 62
     3
 10
20740.668222817359
 20
16792.985261999998
 30
0.0
 11
20740.668222817359
 21
16707.988694
 31
0.0
  0
LINE
  5
13202
  8
2-0
  6
CONTINUOUS
 62
     6
 10
22278.876889817351
 20
18561.43252749999
 30
0.0
 11
21253.84455781736
 21
18561.43252749999
 31
0.0
  0
LINE
  5
13203
  8
2-0
  6
CONTINUOUS
 62
     3
 10
20664.787336817339
 20
14574.892825000001
 30
0.0
 11
20657.78577981735
 21
14574.892825000001
 31
0.0
  0
LINE
  5
13204
  8
2-0
  6
CONTINUOUS
 62
     3
 10
20657.78577981735
 20
14574.892825000001
 30
0.0
 11
20657.78577981735
 21
14579.887151000001
 31
0.0
  0
LINE
  5
13205
  8
2-0
  6
CONTINUOUS
 62
     3
 10
20657.78577981735
 20
14579.887151000001
 30
0.0
 11
20682.783139817351
 21
14579.887151000001
 31
0.0
  0
LINE
  5
13206
  8
2-0
  6
CONTINUOUS
 62
     3
 10
20682.783139817351
 20
14579.887151000001
 30
0.0
 11
20682.783139817351
 21
14561.891347000001
 31
0.0
  0
LINE
  5
13207
  8
2-0
  6
CONTINUOUS
 62
     3
 10
20682.783139817351
 20
14561.891347000001
 30
0.0
 11
20652.785515817341
 21
14561.891347000001
 31
0.0
  0
LINE
  5
13208
  8
2-0
  6
CONTINUOUS
 62
     3
 10
20682.783139817351
 20
14577.98978200001
 30
0.0
 11
20682.783139817351
 21
14571.986892000001
 31
0.0
  0
LINE
  5
13209
  8
2-0
  6
CONTINUOUS
 62
     3
 10
20682.783139817351
 20
14571.986892000001
 30
0.0
 11
20652.785515817341
 21
14571.986892000001
 31
0.0
  0
LINE
  5
1320A
  8
2-0
  6
CONTINUOUS
 62
     3
 10
20652.785515817341
 20
14571.986892000001
 30
0.0
 11
20652.785515817341
 21
14608.987063999981
 31
0.0
  0
LINE
  5
1320B
  8
2-0
  6
CONTINUOUS
 62
     3
 10
20682.783139817351
 20
14608.987063999981
 30
0.0
 11
20652.785515817341
 21
14608.987063999981
 31
0.0
  0
LINE
  5
1320C
  8
2-0
  6
CONTINUOUS
 62
     3
 10
20682.783139817351
 20
14602.99011199999
 30
0.0
 11
20682.783139817351
 21
14608.987063999981
 31
0.0
  0
LINE
  5
1320D
  8
2-0
  6
CONTINUOUS
 62
     3
 10
20682.783139817351
 20
14619.087557000001
 30
0.0
 11
20652.785515817341
 21
14619.087557000001
 31
0.0
  0
LINE
  5
1320E
  8
2-0
  6
CONTINUOUS
 62
     3
 10
20682.783139817351
 20
14601.080866000009
 30
0.0
 11
20682.783139817351
 21
14619.087557000001
 31
0.0
  0
LINE
  5
1320F
  8
2-0
  6
CONTINUOUS
 62
     3
 10
20657.78577981735
 20
14601.080866000009
 30
0.0
 11
20682.783139817351
 21
14601.080866000009
 31
0.0
  0
LINE
  5
13210
  8
2-0
  6
CONTINUOUS
 62
     3
 10
20657.78577981735
 20
14606.08607900001
 30
0.0
 11
20657.78577981735
 21
14601.080866000009
 31
0.0
  0
LINE
  5
13211
  8
2-0
  6
CONTINUOUS
 62
     3
 10
20664.787336817339
 20
14606.08607900001
 30
0.0
 11
20657.78577981735
 21
14606.08607900001
 31
0.0
  0
LINE
  5
13212
  8
2-0
  6
CONTINUOUS
 62
     3
 10
20682.783139817351
 20
14249.488904999989
 30
0.0
 11
20682.783139817351
 21
14255.493774
 31
0.0
  0
LINE
  5
13213
  8
2-0
  6
CONTINUOUS
 62
     3
 10
20682.783139817351
 20
14255.493774
 30
0.0
 11
20652.785515817341
 21
14255.493774
 31
0.0
  0
LINE
  5
13214
  8
2-0
  6
CONTINUOUS
 62
     3
 10
20652.785515817341
 20
14255.493774
 30
0.0
 11
20652.785515817341
 21
14140.489682999991
 31
0.0
  0
LINE
  5
13215
  8
2-0
  6
CONTINUOUS
 62
     3
 10
20652.785515817341
 20
14140.489682999991
 30
0.0
 11
20737.78406381734
 21
14140.489682999991
 31
0.0
  0
LINE
  5
13216
  8
2-0
  6
CONTINUOUS
 62
     3
 10
20737.78406381734
 20
14140.489682999991
 30
0.0
 11
20737.78406381734
 21
14225.485262
 31
0.0
  0
LINE
  5
13217
  8
2-0
  6
CONTINUOUS
 62
     3
 10
20737.78406381734
 20
14225.485262
 30
0.0
 11
20705.78514581735
 21
14225.485262
 31
0.0
  0
LINE
  5
13218
  8
2-0
  6
CONTINUOUS
 62
     3
 10
20664.787336817339
 20
14252.523506999991
 30
0.0
 11
20657.78577981735
 21
14252.523506999991
 31
0.0
  0
LINE
  5
13219
  8
2-0
  6
CONTINUOUS
 62
     3
 10
20657.78577981735
 20
14252.523506999991
 30
0.0
 11
20657.78577981735
 21
14247.526211999981
 31
0.0
  0
LINE
  5
1321A
  8
2-0
  6
CONTINUOUS
 62
     3
 10
20657.78577981735
 20
14247.526211999981
 30
0.0
 11
20682.783139817351
 21
14247.526211999981
 31
0.0
  0
LINE
  5
1321B
  8
2-0
  6
CONTINUOUS
 62
     3
 10
20682.783139817351
 20
14247.526211999981
 30
0.0
 11
20682.783139817351
 21
14265.524985
 31
0.0
  0
LINE
  5
1321C
  8
2-0
  6
CONTINUOUS
 62
     3
 10
20682.783139817351
 20
14265.524985
 30
0.0
 11
20652.785515817341
 21
14265.524985
 31
0.0
  0
LINE
  5
1321D
  8
2-0
  6
CONTINUOUS
 62
     3
 10
20652.785515817341
 20
18238.082114000001
 30
0.0
 11
20652.785515817341
 21
18881.892831500001
 31
0.0
  0
LINE
  5
1321E
  8
2-0
  6
CONTINUOUS
 62
     6
 10
19960.28063281735
 20
20090.488166000021
 30
0.0
 11
18760.28657081737
 21
20090.488166000021
 31
0.0
  0
LINE
  5
1321F
  8
2-0
  6
CONTINUOUS
 62
     6
 10
20822.313465817369
 20
18803.58703549999
 30
0.0
 11
21253.84455781736
 21
18561.43252749999
 31
0.0
  0
LINE
  5
13220
  8
2-0
  6
CONTINUOUS
 62
     6
 10
20500.74463181739
 20
19503.165002999998
 30
0.0
 11
19960.28063281735
 21
20090.488166000021
 31
0.0
  0
LINE
  5
13221
  8
2-0
  6
CONTINUOUS
 62
     3
 10
20652.785515817341
 20
15963.88639849999
 30
0.0
 11
20652.785515817341
 21
15320.322625000001
 31
0.0
  0
LINE
  5
13222
  8
2-0
  6
CONTINUOUS
 62
     6
 10
20835.370370817349
 20
18826.846379499992
 30
0.0
 11
20682.783139817351
 21
18881.892831500001
 31
0.0
  0
LINE
  5
13223
  8
2-0
  6
CONTINUOUS
 62
     6
 10
20682.783139817351
 20
18881.892831500001
 30
0.0
 11
20809.26447981735
 21
18780.333631499951
 31
0.0
  0
LINE
  5
13224
  8
2-0
  6
CONTINUOUS
 62
     6
 10
20835.370370817349
 20
18826.846379499992
 30
0.0
 11
20809.26447981735
 21
18780.333631499951
 31
0.0
  0
LINE
  5
13225
  8
2-0
  6
CONTINUOUS
 62
     6
 10
20809.26447981735
 20
18780.333631499951
 30
0.0
 11
20682.783139817351
 21
18881.892831500001
 31
0.0
  0
LINE
  5
13226
  8
2-0
  6
CONTINUOUS
 62
     6
 10
20682.783139817351
 20
18881.892831500001
 30
0.0
 11
20835.370370817349
 21
18826.846379499992
 31
0.0
  0
LINE
  5
13227
  8
2-0
  6
CONTINUOUS
 62
     6
 10
20835.370370817349
 20
18826.846379499992
 30
0.0
 11
20682.783139817351
 21
18881.892831500001
 31
0.0
  0
LINE
  5
13228
  8
2-0
  6
CONTINUOUS
 62
     6
 10
20809.26447981735
 20
18780.333631499951
 30
0.0
 11
20682.783139817351
 21
18881.892831500001
 31
0.0
  0
LINE
  5
13229
  8
2-0
  6
CONTINUOUS
 62
     6
 10
20809.26447981735
 20
18780.333631499951
 30
0.0
 11
20835.370370817349
 21
18826.846379499992
 31
0.0
  0
LINE
  5
1322A
  8
2-0
  6
CONTINUOUS
 62
     6
 10
20481.127602817349
 20
19485.103876000008
 30
0.0
 11
20609.089622817341
 21
19385.421258000009
 31
0.0
  0
LINE
  5
1322B
  8
2-0
  6
CONTINUOUS
 62
     6
 10
20609.089622817341
 20
19385.421258000009
 30
0.0
 11
20520.37551781736
 21
19521.218213000018
 31
0.0
  0
LINE
  5
1322C
  8
2-0
  6
CONTINUOUS
 62
     6
 10
20481.127602817349
 20
19485.103876000008
 30
0.0
 11
20520.37551781736
 21
19521.218213000018
 31
0.0
  0
LINE
  5
1322D
  8
2-0
  6
CONTINUOUS
 62
     6
 10
20520.37551781736
 20
19521.218213000018
 30
0.0
 11
20609.089622817341
 21
19385.421258000009
 31
0.0
  0
LINE
  5
1322E
  8
2-0
  6
CONTINUOUS
 62
     6
 10
20609.089622817341
 20
19385.421258000009
 30
0.0
 11
20481.127602817349
 21
19485.103876000008
 31
0.0
  0
LINE
  5
1322F
  8
2-0
  6
CONTINUOUS
 62
     6
 10
20481.127602817349
 20
19485.103876000008
 30
0.0
 11
20609.089622817341
 21
19385.421258000009
 31
0.0
  0
LINE
  5
13230
  8
2-0
  6
CONTINUOUS
 62
     6
 10
20520.37551781736
 20
19521.218213000018
 30
0.0
 11
20609.089622817341
 21
19385.421258000009
 31
0.0
  0
LINE
  5
13231
  8
2-0
  6
CONTINUOUS
 62
     6
 10
20520.37551781736
 20
19521.218213000018
 30
0.0
 11
20481.127602817349
 21
19485.103876000008
 31
0.0
  0
LINE
  5
13232
  8
2-0
  6
CONTINUOUS
 62
     4
 10
23262.783799817349
 20
19440.487506000001
 30
0.0
 11
23262.783799817349
 21
20170.484471000011
 31
0.0
  0
LINE
  5
13233
  8
2-0
  6
CONTINUOUS
 62
     6
 10
20929.42323681734
 20
14032.216944999989
 30
0.0
 11
20797.676377817341
 21
14126.843871999999
 31
0.0
  0
LINE
  5
13234
  8
2-0
  6
CONTINUOUS
 62
     6
 10
20797.676377817341
 20
14126.843871999999
 30
0.0
 11
20891.606513817362
 21
13994.60510199999
 31
0.0
  0
LINE
  5
13235
  8
2-0
  6
CONTINUOUS
 62
     6
 10
20929.42323681734
 20
14032.216944999989
 30
0.0
 11
20891.606513817362
 21
13994.60510199999
 31
0.0
  0
LINE
  5
13236
  8
2-0
  6
CONTINUOUS
 62
     6
 10
20891.606513817362
 20
13994.60510199999
 30
0.0
 11
20797.676377817341
 21
14126.843871999999
 31
0.0
  0
LINE
  5
13237
  8
2-0
  6
CONTINUOUS
 62
     6
 10
20797.676377817341
 20
14126.843871999999
 30
0.0
 11
20929.42323681734
 21
14032.216944999989
 31
0.0
  0
LINE
  5
13238
  8
2-0
  6
CONTINUOUS
 62
     6
 10
20929.42323681734
 20
14032.216944999989
 30
0.0
 11
20797.676377817341
 21
14126.843871999999
 31
0.0
  0
LINE
  5
13239
  8
2-0
  6
CONTINUOUS
 62
     6
 10
20891.606513817362
 20
13994.60510199999
 30
0.0
 11
20797.676377817341
 21
14126.843871999999
 31
0.0
  0
LINE
  5
1323A
  8
2-0
  6
CONTINUOUS
 62
     6
 10
20891.606513817362
 20
13994.60510199999
 30
0.0
 11
20929.42323681734
 21
14032.216944999989
 31
0.0
  0
LINE
  5
1323B
  8
2-0
  6
CONTINUOUS
 62
     6
 10
20866.387447817338
 20
14359.121571999989
 30
0.0
 11
20733.787415817369
 21
14265.693243999989
 31
0.0
  0
LINE
  5
1323C
  8
2-0
  6
CONTINUOUS
 62
     6
 10
20733.787415817369
 20
14265.693243999989
 30
0.0
 11
20889.52010181735
 21
14311.068757999999
 31
0.0
  0
LINE
  5
1323D
  8
2-0
  6
CONTINUOUS
 62
     6
 10
20866.387447817338
 20
14359.121571999989
 30
0.0
 11
20889.52010181735
 21
14311.068757999999
 31
0.0
  0
LINE
  5
1323E
  8
2-0
  6
CONTINUOUS
 62
     6
 10
20889.52010181735
 20
14311.068757999999
 30
0.0
 11
20733.787415817369
 21
14265.693243999989
 31
0.0
  0
LINE
  5
1323F
  8
2-0
  6
CONTINUOUS
 62
     6
 10
20733.787415817369
 20
14265.693243999989
 30
0.0
 11
20866.387447817338
 21
14359.121571999989
 31
0.0
  0
LINE
  5
13240
  8
2-0
  6
CONTINUOUS
 62
     6
 10
20866.387447817338
 20
14359.121571999989
 30
0.0
 11
20733.787415817369
 21
14265.693243999989
 31
0.0
  0
LINE
  5
13241
  8
2-0
  6
CONTINUOUS
 62
     6
 10
20889.52010181735
 20
14311.068757999999
 30
0.0
 11
20733.787415817369
 21
14265.693243999989
 31
0.0
  0
LINE
  5
13242
  8
2-0
  6
CONTINUOUS
 62
     6
 10
20889.52010181735
 20
14311.068757999999
 30
0.0
 11
20866.387447817338
 21
14359.121571999989
 31
0.0
  0
LINE
  5
13243
  8
2-0
  6
CONTINUOUS
 62
     6
 10
20806.62380181735
 20
16388.442505000021
 30
0.0
 11
20652.785515817341
 21
16439.876336000019
 31
0.0
  0
LINE
  5
13244
  8
2-0
  6
CONTINUOUS
 62
     6
 10
20652.785515817341
 20
16439.876336000019
 30
0.0
 11
20781.620502817361
 21
16341.33590100002
 31
0.0
  0
LINE
  5
13245
  8
2-0
  6
CONTINUOUS
 62
     6
 10
20806.62380181735
 20
16388.442505000021
 30
0.0
 11
20781.620502817361
 21
16341.33590100002
 31
0.0
  0
LINE
  5
13246
  8
2-0
  6
CONTINUOUS
 62
     6
 10
20781.620502817361
 20
16341.33590100002
 30
0.0
 11
20652.785515817341
 21
16439.876336000019
 31
0.0
  0
LINE
  5
13247
  8
2-0
  6
CONTINUOUS
 62
     6
 10
20652.785515817341
 20
16439.876336000019
 30
0.0
 11
20806.62380181735
 21
16388.442505000021
 31
0.0
  0
LINE
  5
13248
  8
2-0
  6
CONTINUOUS
 62
     6
 10
20806.62380181735
 20
16388.442505000021
 30
0.0
 11
20652.785515817341
 21
16439.876336000019
 31
0.0
  0
LINE
  5
13249
  8
2-0
  6
CONTINUOUS
 62
     6
 10
20781.620502817361
 20
16341.33590100002
 30
0.0
 11
20652.785515817341
 21
16439.876336000019
 31
0.0
  0
LINE
  5
1324A
  8
2-0
  6
CONTINUOUS
 62
     6
 10
20781.620502817361
 20
16341.33590100002
 30
0.0
 11
20806.62380181735
 21
16388.442505000021
 31
0.0
  0
LINE
  5
1324B
  8
2-0
  6
CONTINUOUS
 62
     6
 10
20940.560008817349
 20
16879.760997000009
 30
0.0
 11
20797.676377817341
 21
16802.985368000001
 31
0.0
  0
LINE
  5
1324C
  8
2-0
  6
CONTINUOUS
 62
     6
 10
20797.676377817341
 20
16802.985368000001
 30
0.0
 11
20957.738270817339
 21
16829.26743700001
 31
0.0
  0
LINE
  5
1324D
  8
2-0
  6
CONTINUOUS
 62
     6
 10
20940.560008817349
 20
16879.760997000009
 30
0.0
 11
20957.738270817339
 21
16829.26743700001
 31
0.0
  0
LINE
  5
1324E
  8
2-0
  6
CONTINUOUS
 62
     6
 10
20957.738270817339
 20
16829.26743700001
 30
0.0
 11
20797.676377817341
 21
16802.985368000001
 31
0.0
  0
LINE
  5
1324F
  8
2-0
  6
CONTINUOUS
 62
     6
 10
20797.676377817341
 20
16802.985368000001
 30
0.0
 11
20940.560008817349
 21
16879.760997000009
 31
0.0
  0
LINE
  5
13250
  8
2-0
  6
CONTINUOUS
 62
     6
 10
20940.560008817349
 20
16879.760997000009
 30
0.0
 11
20797.676377817341
 21
16802.985368000001
 31
0.0
  0
LINE
  5
13251
  8
2-0
  6
CONTINUOUS
 62
     6
 10
20957.738270817339
 20
16829.26743700001
 30
0.0
 11
20797.676377817341
 21
16802.985368000001
 31
0.0
  0
LINE
  5
13252
  8
2-0
  6
CONTINUOUS
 62
     6
 10
20957.738270817339
 20
16829.26743700001
 30
0.0
 11
20940.560008817349
 21
16879.760997000009
 31
0.0
  0
LINE
  5
13253
  8
2-0
  6
CONTINUOUS
 62
     3
 10
23275.282479817361
 20
19251.485051999989
 30
0.0
 11
23275.282479817361
 21
19245.489090000021
 31
0.0
  0
LINE
  5
13254
  8
2-0
  6
CONTINUOUS
 62
     3
 10
23275.282479817361
 20
19245.489090000021
 30
0.0
 11
23305.280104817361
 21
19245.489090000021
 31
0.0
  0
LINE
  5
13255
  8
2-0
  6
CONTINUOUS
 62
     3
 10
23305.280104817361
 20
19245.489090000021
 30
0.0
 11
23305.280104817361
 21
19360.48526300002
 31
0.0
  0
LINE
  5
13256
  8
2-0
  6
CONTINUOUS
 62
     3
 10
23305.280104817361
 20
19275.488694
 30
0.0
 11
23224.282163817348
 21
19275.488694
 31
0.0
  0
LINE
  5
13257
  8
2-0
  6
CONTINUOUS
 62
     3
 10
23275.282479817361
 20
19235.191633999992
 30
0.0
 11
23305.280104817361
 21
19235.191633999992
 31
0.0
  0
LINE
  5
13258
  8
2-0
  6
CONTINUOUS
 62
     3
 10
23275.282479817361
 20
19253.193375999999
 30
0.0
 11
23275.282479817361
 21
19235.191633999992
 31
0.0
  0
LINE
  5
13259
  8
2-0
  6
CONTINUOUS
 62
     3
 10
23300.275881817361
 20
19253.193375999999
 30
0.0
 11
23275.282479817361
 21
19253.193375999999
 31
0.0
  0
LINE
  5
1325A
  8
2-0
  6
CONTINUOUS
 62
     3
 10
23300.275881817361
 20
19248.185194000002
 30
0.0
 11
23300.275881817361
 21
19253.193375999999
 31
0.0
  0
LINE
  5
1325B
  8
2-0
  6
CONTINUOUS
 62
     3
 10
23293.27828381737
 20
19248.185194000002
 30
0.0
 11
23300.275881817361
 21
19248.185194000002
 31
0.0
  0
LINE
  5
1325C
  8
2-0
  6
CONTINUOUS
 62
     3
 10
23192.98399481735
 20
19348.485421000001
 30
0.0
 11
23192.98399481735
 21
19355.49093700001
 31
0.0
  0
LINE
  5
1325D
  8
2-0
  6
CONTINUOUS
 62
     3
 10
23192.98399481735
 20
19355.49093700001
 30
0.0
 11
23197.986238817361
 21
19355.49093700001
 31
0.0
  0
LINE
  5
1325E
  8
2-0
  6
CONTINUOUS
 62
     3
 10
23197.986238817361
 20
19355.49093700001
 30
0.0
 11
23197.986238817361
 21
19330.4817
 31
0.0
  0
LINE
  5
1325F
  8
2-0
  6
CONTINUOUS
 62
     3
 10
23197.986238817361
 20
19330.4817
 30
0.0
 11
23179.978557817361
 21
19330.4817
 31
0.0
  0
LINE
  5
13260
  8
2-0
  6
CONTINUOUS
 62
     3
 10
23179.978557817361
 20
19330.4817
 30
0.0
 11
23179.978557817361
 21
19360.48526300002
 31
0.0
  0
LINE
  5
13261
  8
2-0
  6
CONTINUOUS
 62
     3
 10
23190.277993817352
 20
19360.48526300002
 30
0.0
 11
23305.280104817361
 21
19360.48526300002
 31
0.0
  0
LINE
  5
13262
  8
2-0
  6
CONTINUOUS
 62
     3
 10
23190.277993817352
 20
19330.4817
 30
0.0
 11
23190.277993817352
 21
19360.48526300002
 31
0.0
  0
LINE
  5
13263
  8
2-0
  6
CONTINUOUS
 62
     3
 10
23196.281872817352
 20
19330.4817
 30
0.0
 11
23190.277993817352
 21
19330.4817
 31
0.0
  0
LINE
  5
13264
  8
2-0
  6
CONTINUOUS
 62
     3
 10
23275.282479817361
 20
19251.485051999989
 30
0.0
 11
23275.282479817361
 21
19245.489090000021
 31
0.0
  0
LINE
  5
13265
  8
2-0
  6
CONTINUOUS
 62
     3
 10
23275.282479817361
 20
19245.489090000021
 30
0.0
 11
23305.280104817361
 21
19245.489090000021
 31
0.0
  0
LINE
  5
13266
  8
2-0
  6
CONTINUOUS
 62
     3
 10
23305.280104817361
 20
19245.489090000021
 30
0.0
 11
23305.280104817361
 21
19360.48526300002
 31
0.0
  0
LINE
  5
13267
  8
2-0
  6
CONTINUOUS
 62
     3
 10
23305.280104817361
 20
19275.488694
 30
0.0
 11
23224.282163817348
 21
19275.488694
 31
0.0
  0
LINE
  5
13268
  8
2-0
  6
CONTINUOUS
 62
     3
 10
23275.282479817361
 20
19235.191633999992
 30
0.0
 11
23305.280104817361
 21
19235.191633999992
 31
0.0
  0
LINE
  5
13269
  8
2-0
  6
CONTINUOUS
 62
     3
 10
23275.282479817361
 20
19253.193375999999
 30
0.0
 11
23275.282479817361
 21
19235.191633999992
 31
0.0
  0
LINE
  5
1326A
  8
2-0
  6
CONTINUOUS
 62
     3
 10
23300.275881817361
 20
19253.193375999999
 30
0.0
 11
23275.282479817361
 21
19253.193375999999
 31
0.0
  0
LINE
  5
1326B
  8
2-0
  6
CONTINUOUS
 62
     3
 10
23300.275881817361
 20
19248.185194000002
 30
0.0
 11
23300.275881817361
 21
19253.193375999999
 31
0.0
  0
LINE
  5
1326C
  8
2-0
  6
CONTINUOUS
 62
     3
 10
23293.27828381737
 20
19248.185194000002
 30
0.0
 11
23300.275881817361
 21
19248.185194000002
 31
0.0
  0
LINE
  5
1326D
  8
2-0
  6
CONTINUOUS
 62
     3
 10
23293.27828381737
 20
18894.88837149995
 30
0.0
 11
23300.275881817361
 21
18894.88837149995
 31
0.0
  0
LINE
  5
1326E
  8
2-0
  6
CONTINUOUS
 62
     3
 10
23300.275881817361
 20
18894.88837149995
 30
0.0
 11
23300.275881817361
 21
18899.888635499989
 31
0.0
  0
LINE
  5
1326F
  8
2-0
  6
CONTINUOUS
 62
     3
 10
23300.275881817361
 20
18899.888635499989
 30
0.0
 11
23275.282479817361
 21
18899.888635499989
 31
0.0
  0
LINE
  5
13270
  8
2-0
  6
CONTINUOUS
 62
     3
 10
23275.282479817361
 20
18899.888635499989
 30
0.0
 11
23275.282479817361
 21
18881.892831499979
 31
0.0
  0
LINE
  5
13271
  8
2-0
  6
CONTINUOUS
 62
     3
 10
23275.282479817361
 20
18881.892831499979
 30
0.0
 11
23305.280104817361
 21
18881.892831499979
 31
0.0
  0
LINE
  5
13272
  8
2-0
  6
CONTINUOUS
 62
     3
 10
23275.282479817361
 20
18897.984338499959
 30
0.0
 11
23275.282479817361
 21
18891.98639749999
 31
0.0
  0
LINE
  5
13273
  8
2-0
  6
CONTINUOUS
 62
     3
 10
23275.282479817361
 20
18891.98639749999
 30
0.0
 11
23305.280104817361
 21
18891.98639749999
 31
0.0
  0
LINE
  5
13274
  8
2-0
  6
CONTINUOUS
 62
     3
 10
23305.280104817361
 20
18891.98639749999
 30
0.0
 11
23305.280104817361
 21
18928.987558499979
 31
0.0
  0
LINE
  5
13275
  8
2-0
  6
CONTINUOUS
 62
     3
 10
23275.282479817361
 20
18928.987558499979
 30
0.0
 11
23305.280104817361
 21
18928.987558499979
 31
0.0
  0
LINE
  5
13276
  8
2-0
  6
CONTINUOUS
 62
     3
 10
23275.282479817361
 20
18922.98367849999
 30
0.0
 11
23275.282479817361
 21
18928.987558499979
 31
0.0
  0
LINE
  5
13277
  8
2-0
  6
CONTINUOUS
 62
     3
 10
23275.282479817361
 20
18939.083103499961
 30
0.0
 11
23305.280104817361
 21
18939.083103499961
 31
0.0
  0
LINE
  5
13278
  8
2-0
  6
CONTINUOUS
 62
     3
 10
23275.282479817361
 20
18921.081361500001
 30
0.0
 11
23275.282479817361
 21
18939.083103499961
 31
0.0
  0
LINE
  5
13279
  8
2-0
  6
CONTINUOUS
 62
     3
 10
23300.275881817361
 20
18921.081361500001
 30
0.0
 11
23275.282479817361
 21
18921.081361500001
 31
0.0
  0
LINE
  5
1327A
  8
2-0
  6
CONTINUOUS
 62
     3
 10
23300.275881817361
 20
18926.081625499992
 30
0.0
 11
23300.275881817361
 21
18921.081361500001
 31
0.0
  0
LINE
  5
1327B
  8
2-0
  6
CONTINUOUS
 62
     3
 10
23293.27828381737
 20
18926.081625499992
 30
0.0
 11
23300.275881817361
 21
18926.081625499992
 31
0.0
  0
LINE
  5
1327C
  8
2-0
  6
CONTINUOUS
 62
     3
 10
23293.27828381737
 20
18193.88738199999
 30
0.0
 11
23300.275881817361
 21
18193.88738199999
 31
0.0
  0
LINE
  5
1327D
  8
2-0
  6
CONTINUOUS
 62
     3
 10
23300.275881817361
 20
18193.88738199999
 30
0.0
 11
23300.275881817361
 21
18198.89358399995
 31
0.0
  0
LINE
  5
1327E
  8
2-0
  6
CONTINUOUS
 62
     3
 10
23300.275881817361
 20
18198.89358399995
 30
0.0
 11
23275.282479817361
 21
18198.89358399995
 31
0.0
  0
LINE
  5
1327F
  8
2-0
  6
CONTINUOUS
 62
     3
 10
23275.282479817361
 20
18198.89358399995
 30
0.0
 11
23275.282479817361
 21
18180.89184199999
 31
0.0
  0
LINE
  5
13280
  8
2-0
  6
CONTINUOUS
 62
     3
 10
23275.282479817361
 20
18180.89184199999
 30
0.0
 11
23305.280104817361
 21
18180.89184199999
 31
0.0
  0
LINE
  5
13281
  8
2-0
  6
CONTINUOUS
 62
     3
 10
23275.282479817361
 20
18196.983348999958
 30
0.0
 11
23275.282479817361
 21
18190.987386999979
 31
0.0
  0
LINE
  5
13282
  8
2-0
  6
CONTINUOUS
 62
     3
 10
23275.282479817361
 20
18190.987386999979
 30
0.0
 11
23305.280104817361
 21
18190.987386999979
 31
0.0
  0
LINE
  5
13283
  8
2-0
  6
CONTINUOUS
 62
     3
 10
23305.280104817361
 20
18190.987386999979
 30
0.0
 11
23305.280104817361
 21
18227.98656899999
 31
0.0
  0
LINE
  5
13284
  8
2-0
  6
CONTINUOUS
 62
     3
 10
23275.282479817361
 20
18227.98656899999
 30
0.0
 11
23305.280104817361
 21
18227.98656899999
 31
0.0
  0
LINE
  5
13285
  8
2-0
  6
CONTINUOUS
 62
     3
 10
23275.282479817361
 20
18221.990606999989
 30
0.0
 11
23275.282479817361
 21
18227.98656899999
 31
0.0
  0
LINE
  5
13286
  8
2-0
  6
CONTINUOUS
 62
     3
 10
23275.282479817361
 20
18238.082114000001
 30
0.0
 11
23305.280104817361
 21
18238.082114000001
 31
0.0
  0
LINE
  5
13287
  8
2-0
  6
CONTINUOUS
 62
     3
 10
23275.282479817361
 20
18220.080371999989
 30
0.0
 11
23275.282479817361
 21
18238.082114000001
 31
0.0
  0
LINE
  5
13288
  8
2-0
  6
CONTINUOUS
 62
     3
 10
23300.275881817361
 20
18220.080371999989
 30
0.0
 11
23275.282479817361
 21
18220.080371999989
 31
0.0
  0
LINE
  5
13289
  8
2-0
  6
CONTINUOUS
 62
     3
 10
23300.275881817361
 20
18225.086573999979
 30
0.0
 11
23300.275881817361
 21
18220.080371999989
 31
0.0
  0
LINE
  5
1328A
  8
2-0
  6
CONTINUOUS
 62
     3
 10
23293.27828381737
 20
18225.086573999979
 30
0.0
 11
23300.275881817361
 21
18225.086573999979
 31
0.0
  0
LINE
  5
1328B
  8
2-0
  6
CONTINUOUS
 62
     3
 10
23293.27828381737
 20
17524.080635999992
 30
0.0
 11
23300.275881817361
 21
17524.080635999992
 31
0.0
  0
LINE
  5
1328C
  8
2-0
  6
CONTINUOUS
 62
     3
 10
23300.275881817361
 20
17524.080635999992
 30
0.0
 11
23300.275881817361
 21
17519.09224899999
 31
0.0
  0
LINE
  5
1328D
  8
2-0
  6
CONTINUOUS
 62
     3
 10
23300.275881817361
 20
17519.09224899999
 30
0.0
 11
23275.282479817361
 21
17519.09224899999
 31
0.0
  0
LINE
  5
1328E
  8
2-0
  6
CONTINUOUS
 62
     3
 10
23275.282479817361
 20
17519.09224899999
 30
0.0
 11
23275.282479817361
 21
17537.088051999988
 31
0.0
  0
LINE
  5
1328F
  8
2-0
  6
CONTINUOUS
 62
     3
 10
23275.282479817361
 20
17537.088051999988
 30
0.0
 11
23305.280104817361
 21
17537.088051999988
 31
0.0
  0
LINE
  5
13290
  8
2-0
  6
CONTINUOUS
 62
     3
 10
23275.282479817361
 20
17520.990606999989
 30
0.0
 11
23275.282479817361
 21
17526.98656899999
 31
0.0
  0
LINE
  5
13291
  8
2-0
  6
CONTINUOUS
 62
     3
 10
23275.282479817361
 20
17526.98656899999
 30
0.0
 11
23305.280104817361
 21
17526.98656899999
 31
0.0
  0
LINE
  5
13292
  8
2-0
  6
CONTINUOUS
 62
     3
 10
23305.280104817361
 20
17526.98656899999
 30
0.0
 11
23305.280104817361
 21
17489.98738699999
 31
0.0
  0
LINE
  5
13293
  8
2-0
  6
CONTINUOUS
 62
     3
 10
23275.282479817361
 20
17489.98738699999
 30
0.0
 11
23305.280104817361
 21
17489.98738699999
 31
0.0
  0
LINE
  5
13294
  8
2-0
  6
CONTINUOUS
 62
     3
 10
23275.282479817361
 20
17495.989287999979
 30
0.0
 11
23275.282479817361
 21
17489.98738699999
 31
0.0
  0
LINE
  5
13295
  8
2-0
  6
CONTINUOUS
 62
     3
 10
23275.282479817361
 20
17479.897780999989
 30
0.0
 11
23305.280104817361
 21
17479.897780999989
 31
0.0
  0
LINE
  5
13296
  8
2-0
  6
CONTINUOUS
 62
     3
 10
23275.282479817361
 20
17497.89358399999
 30
0.0
 11
23275.282479817361
 21
17479.897780999989
 31
0.0
  0
LINE
  5
13297
  8
2-0
  6
CONTINUOUS
 62
     3
 10
23300.275881817361
 20
17497.89358399999
 30
0.0
 11
23275.282479817361
 21
17497.89358399999
 31
0.0
  0
LINE
  5
13298
  8
2-0
  6
CONTINUOUS
 62
     3
 10
23300.275881817361
 20
17492.893320999989
 30
0.0
 11
23300.275881817361
 21
17497.89358399999
 31
0.0
  0
LINE
  5
13299
  8
2-0
  6
CONTINUOUS
 62
     3
 10
23293.27828381737
 20
17492.893320999989
 30
0.0
 11
23300.275881817361
 21
17492.893320999989
 31
0.0
  0
LINE
  5
1329A
  8
2-0
  6
CONTINUOUS
 62
     3
 10
23302.393966817352
 20
16772.98420699999
 30
0.0
 11
23302.393966817352
 21
16792.985261999998
 31
0.0
  0
LINE
  5
1329B
  8
2-0
  6
CONTINUOUS
 62
     3
 10
23302.393966817352
 20
16792.985261999998
 30
0.0
 11
23217.393438817351
 21
16792.985261999998
 31
0.0
  0
LINE
  5
1329C
  8
2-0
  6
CONTINUOUS
 62
     3
 10
23293.27828381737
 20
16819.591971999998
 30
0.0
 11
23300.275881817361
 21
16819.591971999998
 31
0.0
  0
LINE
  5
1329D
  8
2-0
  6
CONTINUOUS
 62
     3
 10
23300.275881817361
 20
16819.591971999998
 30
0.0
 11
23300.275881817361
 21
16814.597645999998
 31
0.0
  0
LINE
  5
1329E
  8
2-0
  6
CONTINUOUS
 62
     3
 10
23300.275881817361
 20
16814.597645999998
 30
0.0
 11
23275.282479817361
 21
16814.597645999998
 31
0.0
  0
LINE
  5
1329F
  8
2-0
  6
CONTINUOUS
 62
     3
 10
23275.282479817361
 20
16814.597645999998
 30
0.0
 11
23275.282479817361
 21
16832.59345
 31
0.0
  0
LINE
  5
132A0
  8
2-0
  6
CONTINUOUS
 62
     3
 10
23275.282479817361
 20
16832.59345
 30
0.0
 11
23305.280104817361
 21
16832.59345
 31
0.0
  0
LINE
  5
132A1
  8
2-0
  6
CONTINUOUS
 62
     3
 10
23275.282479817361
 20
16822.984865999992
 30
0.0
 11
23275.282479817361
 21
16816.982965999989
 31
0.0
  0
LINE
  5
132A2
  8
2-0
  6
CONTINUOUS
 62
     3
 10
23305.280104817361
 20
16822.984865999992
 30
0.0
 11
23275.282479817361
 21
16822.984865999992
 31
0.0
  0
LINE
  5
132A3
  8
2-0
  6
CONTINUOUS
 62
     3
 10
23305.280104817361
 20
16832.59345
 30
0.0
 11
23305.280104817361
 21
17479.897780999989
 31
0.0
  0
LINE
  5
132A4
  8
2-0
  6
CONTINUOUS
 62
     3
 10
23305.280104817361
 20
17537.088051999988
 30
0.0
 11
23305.280104817361
 21
18180.89184199999
 31
0.0
  0
LINE
  5
132A5
  8
2-0
  6
CONTINUOUS
 62
     3
 10
23305.280104817361
 20
16677.983151
 30
0.0
 11
23275.282479817361
 21
16677.983151
 31
0.0
  0
LINE
  5
132A6
  8
2-0
  6
CONTINUOUS
 62
     3
 10
23275.282479817361
 20
16677.983151
 30
0.0
 11
23275.282479817361
 21
16683.985050999989
 31
0.0
  0
LINE
  5
132A7
  8
2-0
  6
CONTINUOUS
 62
     3
 10
23217.393438817351
 20
16707.988694
 30
0.0
 11
23302.393966817352
 21
16707.988694
 31
0.0
  0
LINE
  5
132A8
  8
2-0
  6
CONTINUOUS
 62
     3
 10
23302.393966817352
 20
16707.988694
 30
0.0
 11
23302.393966817352
 21
16727.983810999998
 31
0.0
  0
LINE
  5
132A9
  8
2-0
  6
CONTINUOUS
 62
     3
 10
23275.282479817361
 20
16668.37456800001
 30
0.0
 11
23305.280104817361
 21
16668.37456800001
 31
0.0
  0
LINE
  5
132AA
  8
2-0
  6
CONTINUOUS
 62
     3
 10
23275.282479817361
 20
16686.37037099999
 30
0.0
 11
23275.282479817361
 21
16668.37456800001
 31
0.0
  0
LINE
  5
132AB
  8
2-0
  6
CONTINUOUS
 62
     3
 10
23300.275881817361
 20
16686.37037099999
 30
0.0
 11
23275.282479817361
 21
16686.37037099999
 31
0.0
  0
LINE
  5
132AC
  8
2-0
  6
CONTINUOUS
 62
     3
 10
23300.275881817361
 20
16681.370106999992
 30
0.0
 11
23300.275881817361
 21
16686.37037099999
 31
0.0
  0
LINE
  5
132AD
  8
2-0
  6
CONTINUOUS
 62
     3
 10
23293.27828381737
 20
16681.370106999992
 30
0.0
 11
23300.275881817361
 21
16681.370106999992
 31
0.0
  0
LINE
  5
132AE
  8
2-0
  6
CONTINUOUS
 62
     3
 10
23293.27828381737
 20
15976.887876499981
 30
0.0
 11
23300.275881817361
 21
15976.887876499981
 31
0.0
  0
LINE
  5
132AF
  8
2-0
  6
CONTINUOUS
 62
     3
 10
23300.275881817361
 20
15976.887876499981
 30
0.0
 11
23300.275881817361
 21
15981.888140499979
 31
0.0
  0
LINE
  5
132B0
  8
2-0
  6
CONTINUOUS
 62
     3
 10
23300.275881817361
 20
15981.888140499979
 30
0.0
 11
23275.282479817361
 21
15981.888140499979
 31
0.0
  0
LINE
  5
132B1
  8
2-0
  6
CONTINUOUS
 62
     3
 10
23275.282479817361
 20
15981.888140499979
 30
0.0
 11
23275.282479817361
 21
15963.886398499981
 31
0.0
  0
LINE
  5
132B2
  8
2-0
  6
CONTINUOUS
 62
     3
 10
23275.282479817361
 20
15963.886398499981
 30
0.0
 11
23305.280104817361
 21
15963.886398499981
 31
0.0
  0
LINE
  5
132B3
  8
2-0
  6
CONTINUOUS
 62
     3
 10
23275.282479817361
 20
15979.983843499989
 30
0.0
 11
23275.282479817361
 21
15973.98689249999
 31
0.0
  0
LINE
  5
132B4
  8
2-0
  6
CONTINUOUS
 62
     3
 10
23275.282479817361
 20
15973.98689249999
 30
0.0
 11
23305.280104817361
 21
15973.98689249999
 31
0.0
  0
LINE
  5
132B5
  8
2-0
  6
CONTINUOUS
 62
     3
 10
23305.280104817361
 20
15973.98689249999
 30
0.0
 11
23305.280104817361
 21
16010.987063500001
 31
0.0
  0
LINE
  5
132B6
  8
2-0
  6
CONTINUOUS
 62
     3
 10
23275.282479817361
 20
16010.987063500001
 30
0.0
 11
23305.280104817361
 21
16010.987063500001
 31
0.0
  0
LINE
  5
132B7
  8
2-0
  6
CONTINUOUS
 62
     3
 10
23275.282479817361
 20
16004.98417349999
 30
0.0
 11
23275.282479817361
 21
16010.987063500001
 31
0.0
  0
LINE
  5
132B8
  8
2-0
  6
CONTINUOUS
 62
     3
 10
23275.282479817361
 20
16021.082608500001
 30
0.0
 11
23305.280104817361
 21
16021.082608500001
 31
0.0
  0
LINE
  5
132B9
  8
2-0
  6
CONTINUOUS
 62
     3
 10
23275.282479817361
 20
16003.074927499991
 30
0.0
 11
23275.282479817361
 21
16021.082608500001
 31
0.0
  0
LINE
  5
132BA
  8
2-0
  6
CONTINUOUS
 62
     3
 10
23300.275881817361
 20
16003.074927499991
 30
0.0
 11
23275.282479817361
 21
16003.074927499991
 31
0.0
  0
LINE
  5
132BB
  8
2-0
  6
CONTINUOUS
 62
     3
 10
23300.275881817361
 20
16008.081130500001
 30
0.0
 11
23300.275881817361
 21
16003.074927499991
 31
0.0
  0
LINE
  5
132BC
  8
2-0
  6
CONTINUOUS
 62
     3
 10
23293.27828381737
 20
16008.081130500001
 30
0.0
 11
23300.275881817361
 21
16008.081130500001
 31
0.0
  0
LINE
  5
132BD
  8
2-0
  6
CONTINUOUS
 62
     3
 10
23293.27828381737
 20
15307.32114700001
 30
0.0
 11
23300.275881817361
 21
15307.32114700001
 31
0.0
  0
LINE
  5
132BE
  8
2-0
  6
CONTINUOUS
 62
     3
 10
23300.275881817361
 20
15307.32114700001
 30
0.0
 11
23300.275881817361
 21
15302.326822000001
 31
0.0
  0
LINE
  5
132BF
  8
2-0
  6
CONTINUOUS
 62
     3
 10
23300.275881817361
 20
15302.326822000001
 30
0.0
 11
23275.282479817361
 21
15302.326822000001
 31
0.0
  0
LINE
  5
132C0
  8
2-0
  6
CONTINUOUS
 62
     3
 10
23275.282479817361
 20
15302.326822000001
 30
0.0
 11
23275.282479817361
 21
15320.322625000001
 31
0.0
  0
LINE
  5
132C1
  8
2-0
  6
CONTINUOUS
 62
     3
 10
23275.282479817361
 20
15320.322625000001
 30
0.0
 11
23305.280104817361
 21
15320.322625000001
 31
0.0
  0
LINE
  5
132C2
  8
2-0
  6
CONTINUOUS
 62
     3
 10
23275.282479817361
 20
15304.225179999999
 30
0.0
 11
23275.282479817361
 21
15310.22708000001
 31
0.0
  0
LINE
  5
132C3
  8
2-0
  6
CONTINUOUS
 62
     3
 10
23275.282479817361
 20
15310.22708000001
 30
0.0
 11
23305.280104817361
 21
15310.22708000001
 31
0.0
  0
LINE
  5
132C4
  8
2-0
  6
CONTINUOUS
 62
     3
 10
23305.280104817361
 20
15273.22789900001
 30
0.0
 11
23305.280104817361
 21
15310.22708000001
 31
0.0
  0
LINE
  5
132C5
  8
2-0
  6
CONTINUOUS
 62
     3
 10
23275.282479817361
 20
15273.22789900001
 30
0.0
 11
23305.280104817361
 21
15273.22789900001
 31
0.0
  0
LINE
  5
132C6
  8
2-0
  6
CONTINUOUS
 62
     3
 10
23275.282479817361
 20
15279.22484999999
 30
0.0
 11
23275.282479817361
 21
15273.22789900001
 31
0.0
  0
LINE
  5
132C7
  8
2-0
  6
CONTINUOUS
 62
     3
 10
23275.282479817361
 20
15263.126415000001
 30
0.0
 11
23305.280104817361
 21
15263.126415000001
 31
0.0
  0
LINE
  5
132C8
  8
2-0
  6
CONTINUOUS
 62
     3
 10
23275.282479817361
 20
15281.134096
 30
0.0
 11
23275.282479817361
 21
15263.126415000001
 31
0.0
  0
LINE
  5
132C9
  8
2-0
  6
CONTINUOUS
 62
     3
 10
23300.275881817361
 20
15281.134096
 30
0.0
 11
23275.282479817361
 21
15281.134096
 31
0.0
  0
LINE
  5
132CA
  8
2-0
  6
CONTINUOUS
 62
     3
 10
23300.275881817361
 20
15276.13383200001
 30
0.0
 11
23300.275881817361
 21
15281.134096
 31
0.0
  0
LINE
  5
132CB
  8
2-0
  6
CONTINUOUS
 62
     3
 10
23293.27828381737
 20
15276.13383200001
 30
0.0
 11
23300.275881817361
 21
15276.13383200001
 31
0.0
  0
LINE
  5
132CC
  8
2-0
  6
CONTINUOUS
 62
     3
 10
23305.280104817361
 20
16668.37456800001
 30
0.0
 11
23305.280104817361
 21
16021.082608500001
 31
0.0
  0
LINE
  5
132CD
  8
2-0
  6
CONTINUOUS
 62
     3
 10
23305.280104817361
 20
16822.984865999992
 30
0.0
 11
23305.280104817361
 21
16677.983151
 31
0.0
  0
LINE
  5
132CE
  8
2-0
  6
CONTINUOUS
 62
     3
 10
23217.393438817351
 20
16792.985261999998
 30
0.0
 11
23217.393438817351
 21
16707.988694
 31
0.0
  0
LINE
  5
132CF
  8
2-0
  6
CONTINUOUS
 62
     3
 10
23293.27828381737
 20
14574.892825000001
 30
0.0
 11
23300.275881817361
 21
14574.892825000001
 31
0.0
  0
LINE
  5
132D0
  8
2-0
  6
CONTINUOUS
 62
     3
 10
23300.275881817361
 20
14574.892825000001
 30
0.0
 11
23300.275881817361
 21
14579.887151000001
 31
0.0
  0
LINE
  5
132D1
  8
2-0
  6
CONTINUOUS
 62
     3
 10
23300.275881817361
 20
14579.887151000001
 30
0.0
 11
23275.282479817361
 21
14579.887151000001
 31
0.0
  0
LINE
  5
132D2
  8
2-0
  6
CONTINUOUS
 62
     3
 10
23275.282479817361
 20
14579.887151000001
 30
0.0
 11
23275.282479817361
 21
14561.891347000001
 31
0.0
  0
LINE
  5
132D3
  8
2-0
  6
CONTINUOUS
 62
     3
 10
23275.282479817361
 20
14561.891347000001
 30
0.0
 11
23305.280104817361
 21
14561.891347000001
 31
0.0
  0
LINE
  5
132D4
  8
2-0
  6
CONTINUOUS
 62
     3
 10
23275.282479817361
 20
14577.98978200001
 30
0.0
 11
23275.282479817361
 21
14571.986892000001
 31
0.0
  0
LINE
  5
132D5
  8
2-0
  6
CONTINUOUS
 62
     3
 10
23275.282479817361
 20
14571.986892000001
 30
0.0
 11
23305.280104817361
 21
14571.986892000001
 31
0.0
  0
LINE
  5
132D6
  8
2-0
  6
CONTINUOUS
 62
     3
 10
23305.280104817361
 20
14571.986892000001
 30
0.0
 11
23305.280104817361
 21
14608.987063999981
 31
0.0
  0
LINE
  5
132D7
  8
2-0
  6
CONTINUOUS
 62
     3
 10
23275.282479817361
 20
14608.987063999981
 30
0.0
 11
23305.280104817361
 21
14608.987063999981
 31
0.0
  0
LINE
  5
132D8
  8
2-0
  6
CONTINUOUS
 62
     3
 10
23275.282479817361
 20
14602.990111999999
 30
0.0
 11
23275.282479817361
 21
14608.987063999981
 31
0.0
  0
LINE
  5
132D9
  8
2-0
  6
CONTINUOUS
 62
     3
 10
23275.282479817361
 20
14619.087557000001
 30
0.0
 11
23305.280104817361
 21
14619.087557000001
 31
0.0
  0
LINE
  5
132DA
  8
2-0
  6
CONTINUOUS
 62
     3
 10
23275.282479817361
 20
14601.080866000009
 30
0.0
 11
23275.282479817361
 21
14619.087557000001
 31
0.0
  0
LINE
  5
132DB
  8
2-0
  6
CONTINUOUS
 62
     3
 10
23300.275881817361
 20
14601.080866000009
 30
0.0
 11
23275.282479817361
 21
14601.080866000009
 31
0.0
  0
LINE
  5
132DC
  8
2-0
  6
CONTINUOUS
 62
     3
 10
23300.275881817361
 20
14606.08607900001
 30
0.0
 11
23300.275881817361
 21
14601.080866000009
 31
0.0
  0
LINE
  5
132DD
  8
2-0
  6
CONTINUOUS
 62
     3
 10
23293.27828381737
 20
14606.08607900001
 30
0.0
 11
23300.275881817361
 21
14606.08607900001
 31
0.0
  0
LINE
  5
132DE
  8
2-0
  6
CONTINUOUS
 62
     3
 10
23275.282479817361
 20
14249.488904999989
 30
0.0
 11
23275.282479817361
 21
14255.493774
 31
0.0
  0
LINE
  5
132DF
  8
2-0
  6
CONTINUOUS
 62
     3
 10
23275.282479817361
 20
14255.493774
 30
0.0
 11
23305.280104817361
 21
14255.493774
 31
0.0
  0
LINE
  5
132E0
  8
2-0
  6
CONTINUOUS
 62
     3
 10
23305.280104817361
 20
14255.493774
 30
0.0
 11
23305.280104817361
 21
14140.489682999991
 31
0.0
  0
LINE
  5
132E1
  8
2-0
  6
CONTINUOUS
 62
     3
 10
23305.280104817361
 20
14140.489682999991
 30
0.0
 11
23220.28155681735
 21
14140.489682999991
 31
0.0
  0
LINE
  5
132E2
  8
2-0
  6
CONTINUOUS
 62
     3
 10
23220.28155681735
 20
14140.489682999991
 30
0.0
 11
23220.28155681735
 21
14225.485262
 31
0.0
  0
LINE
  5
132E3
  8
2-0
  6
CONTINUOUS
 62
     3
 10
23220.28155681735
 20
14225.485262
 30
0.0
 11
23252.278494817361
 21
14225.485262
 31
0.0
  0
LINE
  5
132E4
  8
2-0
  6
CONTINUOUS
 62
     3
 10
23293.27828381737
 20
14252.523506999991
 30
0.0
 11
23300.275881817361
 21
14252.523506999991
 31
0.0
  0
LINE
  5
132E5
  8
2-0
  6
CONTINUOUS
 62
     3
 10
23300.275881817361
 20
14252.523506999991
 30
0.0
 11
23300.275881817361
 21
14247.526211999981
 31
0.0
  0
LINE
  5
132E6
  8
2-0
  6
CONTINUOUS
 62
     3
 10
23300.275881817361
 20
14247.526211999981
 30
0.0
 11
23275.282479817361
 21
14247.526211999981
 31
0.0
  0
LINE
  5
132E7
  8
2-0
  6
CONTINUOUS
 62
     3
 10
23275.282479817361
 20
14247.526211999981
 30
0.0
 11
23275.282479817361
 21
14265.524985
 31
0.0
  0
LINE
  5
132E8
  8
2-0
  6
CONTINUOUS
 62
     3
 10
23275.282479817361
 20
14265.524985
 30
0.0
 11
23305.280104817361
 21
14265.524985
 31
0.0
  0
LINE
  5
132E9
  8
2-0
  6
CONTINUOUS
 62
     3
 10
23305.280104817361
 20
14619.087557000001
 30
0.0
 11
23305.280104817361
 21
15263.126415000001
 31
0.0
  0
LINE
  5
132EA
  8
2-0
  6
CONTINUOUS
 62
     3
 10
23305.280104817361
 20
18238.082114000001
 30
0.0
 11
23305.280104817361
 21
18881.892831499979
 31
0.0
  0
LINE
  5
132EB
  8
2-0
  6
CONTINUOUS
 62
     3
 10
23305.280104817361
 20
15963.886398499981
 30
0.0
 11
23305.280104817361
 21
15320.322625000001
 31
0.0
  0
LINE
  5
132EC
  8
2-0
  6
CONTINUOUS
 62
     3
 10
20652.785515817341
 20
19245.489090000021
 30
0.0
 11
20652.785515817341
 21
19360.48526300002
 31
0.0
  0
LINE
  5
132ED
  8
2-0
  6
CONTINUOUS
 62
     3
 10
20652.787494817308
 20
19275.488694
 30
0.0
 11
23224.2801838173
 21
19275.488694
 31
0.0
  0
LINE
  5
132EE
  8
2-0
  6
CONTINUOUS
 62
     3
 10
23305.280104817361
 20
14265.524985
 30
0.0
 11
23305.280104817361
 21
14561.891347000001
 31
0.0
  0
LINE
  5
132EF
  8
2-0
  6
CONTINUOUS
 62
     3
 10
20652.785515817341
 20
19235.191633999992
 30
0.0
 11
20652.785515817341
 21
18939.08310349999
 31
0.0
  0
LINE
  5
132F0
  8
2-0
  6
CONTINUOUS
 62
     3
 10
23305.280104817361
 20
19235.191633999992
 30
0.0
 11
23305.280104817361
 21
18939.083103499961
 31
0.0
  0
LINE
  5
132F1
  8
2-0
  6
CONTINUOUS
 62
     3
 10
23224.282163817348
 20
14225.485262
 30
0.0
 11
23224.282163817348
 21
19360.48526300002
 31
0.0
  0
LINE
  5
132F2
  8
2-0
  6
CONTINUOUS
 62
     3
 10
20733.787415817369
 20
14225.485262
 30
0.0
 11
20733.787415817369
 21
19360.48526300002
 31
0.0
  0
TEXT
  5
132F3
  8
2-0
  6
CONTINUOUS
 62
     7
 10
21466.438492823101
 20
13622.99119300269
 30
0.0
 40
160.0
  1
前柱（左）
 50
359.99978700000003
 72
     4
 11
21882.438790224329
 21
13702.98964650079
 31
0.0
  0
TEXT
  5
132F4
  8
2-0
  6
CONTINUOUS
 62
     7
 10
21368.510036487482
 20
16200.977875276511
 30
0.0
 40
160.0
  1
壁パネル
 50
0.0001770000000167
 72
     4
 11
21731.1764560138
 21
16280.978995637881
 31
0.0
  0
TEXT
  5
132F5
  8
2-0
  6
CONTINUOUS
 62
     7
 10
21339.179607170441
 20
17038.174404652349
 30
0.0
 40
160.0
  1
中柱（左右）
 50
359.99964599999998
 72
     4
 11
21856.513434771139
 21
17118.171208324649
 31
0.0
  0
TEXT
  5
132F6
  8
2-0
  6
CONTINUOUS
 62
     7
 10
21352.510696542769
 20
14596.03569870611
 30
0.0
 40
160.0
  1
下枠
 50
359.99893700000001
 72
     4
 11
21523.17884740806
 21
14676.032532339281
 31
0.0
  0
TEXT
  5
132F7
  8
2-0
  6
CONTINUOUS
 62
     7
 10
21356.211939150671
 20
18641.436750499979
 30
0.0
 40
160.0
  1
間柱（側）
 72
     4
 11
21777.545272484
 21
18721.436750499979
 31
0.0
  0
TEXT
  5
132F8
  8
2-0
  6
CONTINUOUS
 62
     7
 10
18856.288286836891
 20
20170.490797748731
 30
0.0
 40
160.0
  1
後柱（左右）
 50
359.99964599999998
 72
     4
 11
19368.288781104358
 21
20250.487634372828
 31
0.0
  0
LINE
  5
132F9
  8
2-0
  6
CONTINUOUS
 62
     3
 10
22523.284380817309
 20
19360.48526300002
 30
0.0
 11
22486.283218817331
 21
19360.48526300002
 31
0.0
  0
LINE
  5
132FA
  8
2-0
  6
CONTINUOUS
 62
     3
 10
22523.284380817309
 20
19330.4817
 30
0.0
 11
22523.284380817309
 21
19360.48526300002
 31
0.0
  0
LINE
  5
132FB
  8
2-0
  6
CONTINUOUS
 62
     3
 10
22517.284459817311
 20
19330.4817
 30
0.0
 11
22523.284380817309
 21
19330.4817
 31
0.0
  0
LINE
  5
132FC
  8
2-0
  6
CONTINUOUS
 62
     3
 10
22533.381904817332
 20
19330.4817
 30
0.0
 11
22533.381904817332
 21
19360.48526300002
 31
0.0
  0
LINE
  5
132FD
  8
2-0
  6
CONTINUOUS
 62
     3
 10
22515.37818381732
 20
19330.4817
 30
0.0
 11
22533.381904817332
 21
19330.4817
 31
0.0
  0
LINE
  5
132FE
  8
2-0
  6
CONTINUOUS
 62
     3
 10
22515.37818381732
 20
19355.49093700001
 30
0.0
 11
22515.37818381732
 21
19330.4817
 31
0.0
  0
LINE
  5
132FF
  8
2-0
  6
CONTINUOUS
 62
     3
 10
22520.378447817318
 20
19355.49093700001
 30
0.0
 11
22515.37818381732
 21
19355.49093700001
 31
0.0
  0
LINE
  5
13300
  8
2-0
  6
CONTINUOUS
 62
     3
 10
22520.378447817318
 20
19348.485421000001
 30
0.0
 11
22520.378447817318
 21
19355.49093700001
 31
0.0
  0
LINE
  5
13301
  8
2-0
  6
CONTINUOUS
 62
     3
 10
22489.189152817311
 20
19348.485421000001
 30
0.0
 11
22489.189152817311
 21
19355.49093700001
 31
0.0
  0
LINE
  5
13302
  8
2-0
  6
CONTINUOUS
 62
     3
 10
22489.189152817311
 20
19355.49093700001
 30
0.0
 11
22494.189416817331
 21
19355.49093700001
 31
0.0
  0
LINE
  5
13303
  8
2-0
  6
CONTINUOUS
 62
     3
 10
22494.189416817331
 20
19355.49093700001
 30
0.0
 11
22494.189416817331
 21
19330.4817
 31
0.0
  0
LINE
  5
13304
  8
2-0
  6
CONTINUOUS
 62
     3
 10
22494.189416817331
 20
19330.4817
 30
0.0
 11
22476.189653817331
 21
19330.4817
 31
0.0
  0
LINE
  5
13305
  8
2-0
  6
CONTINUOUS
 62
     3
 10
22476.189653817331
 20
19330.4817
 30
0.0
 11
22476.189653817331
 21
19360.48526300002
 31
0.0
  0
LINE
  5
13306
  8
2-0
  6
CONTINUOUS
 62
     3
 10
22492.283139817318
 20
19330.4817
 30
0.0
 11
22486.283218817331
 21
19330.4817
 31
0.0
  0
LINE
  5
13307
  8
2-0
  6
CONTINUOUS
 62
     3
 10
22486.283218817331
 20
19330.4817
 30
0.0
 11
22486.283218817331
 21
19360.48526300002
 31
0.0
  0
LINE
  5
13308
  8
2-0
  6
CONTINUOUS
 62
     3
 10
21819.37349831732
 20
19348.485421000001
 30
0.0
 11
21819.37349831732
 21
19355.49093700001
 31
0.0
  0
LINE
  5
13309
  8
2-0
  6
CONTINUOUS
 62
     3
 10
21819.37349831732
 20
19355.49093700001
 30
0.0
 11
21814.373234317321
 21
19355.49093700001
 31
0.0
  0
LINE
  5
1330A
  8
2-0
  6
CONTINUOUS
 62
     3
 10
21814.373234317321
 20
19355.49093700001
 30
0.0
 11
21814.373234317321
 21
19330.4817
 31
0.0
  0
LINE
  5
1330B
  8
2-0
  6
CONTINUOUS
 62
     3
 10
21814.373234317321
 20
19330.4817
 30
0.0
 11
21832.37893531732
 21
19330.4817
 31
0.0
  0
LINE
  5
1330C
  8
2-0
  6
CONTINUOUS
 62
     3
 10
21832.37893531732
 20
19330.4817
 30
0.0
 11
21832.37893531732
 21
19360.48526300002
 31
0.0
  0
LINE
  5
1330D
  8
2-0
  6
CONTINUOUS
 62
     3
 10
21816.281490317309
 20
19330.4817
 30
0.0
 11
21822.28339031732
 21
19330.4817
 31
0.0
  0
LINE
  5
1330E
  8
2-0
  6
CONTINUOUS
 62
     3
 10
21822.28339031732
 20
19330.4817
 30
0.0
 11
21822.28339031732
 21
19360.48526300002
 31
0.0
  0
LINE
  5
1330F
  8
2-0
  6
CONTINUOUS
 62
     3
 10
21785.284209317309
 20
19360.48526300002
 30
0.0
 11
21822.28339031732
 21
19360.48526300002
 31
0.0
  0
LINE
  5
13310
  8
2-0
  6
CONTINUOUS
 62
     3
 10
21785.284209317309
 20
19330.4817
 30
0.0
 11
21785.284209317309
 21
19360.48526300002
 31
0.0
  0
LINE
  5
13311
  8
2-0
  6
CONTINUOUS
 62
     3
 10
21791.27819131732
 20
19330.4817
 30
0.0
 11
21785.284209317309
 21
19330.4817
 31
0.0
  0
LINE
  5
13312
  8
2-0
  6
CONTINUOUS
 62
     3
 10
21775.188664317331
 20
19330.4817
 30
0.0
 11
21775.188664317331
 21
19360.48526300002
 31
0.0
  0
LINE
  5
13313
  8
2-0
  6
CONTINUOUS
 62
     3
 10
21793.184467317318
 20
19330.4817
 30
0.0
 11
21775.188664317331
 21
19330.4817
 31
0.0
  0
LINE
  5
13314
  8
2-0
  6
CONTINUOUS
 62
     3
 10
21793.184467317318
 20
19355.49093700001
 30
0.0
 11
21793.184467317318
 21
19330.4817
 31
0.0
  0
LINE
  5
13315
  8
2-0
  6
CONTINUOUS
 62
     3
 10
21788.184203317331
 20
19355.49093700001
 30
0.0
 11
21793.184467317318
 21
19355.49093700001
 31
0.0
  0
LINE
  5
13316
  8
2-0
  6
CONTINUOUS
 62
     3
 10
21788.184203317331
 20
19348.485421000001
 30
0.0
 11
21788.184203317331
 21
19355.49093700001
 31
0.0
  0
LINE
  5
13317
  8
2-0
  6
CONTINUOUS
 62
     3
 10
21788.18321431732
 20
19348.485421000001
 30
0.0
 11
21788.18321431732
 21
19355.49093700001
 31
0.0
  0
LINE
  5
13318
  8
2-0
  6
CONTINUOUS
 62
     3
 10
21788.18321431732
 20
19355.49093700001
 30
0.0
 11
21793.183477317321
 21
19355.49093700001
 31
0.0
  0
LINE
  5
13319
  8
2-0
  6
CONTINUOUS
 62
     3
 10
21793.183477317321
 20
19355.49093700001
 30
0.0
 11
21793.183477317321
 21
19330.4817
 31
0.0
  0
LINE
  5
1331A
  8
2-0
  6
CONTINUOUS
 62
     3
 10
21793.183477317321
 20
19330.4817
 30
0.0
 11
21775.189654317321
 21
19330.4817
 31
0.0
  0
LINE
  5
1331B
  8
2-0
  6
CONTINUOUS
 62
     3
 10
21775.189654317321
 20
19330.4817
 30
0.0
 11
21775.189654317321
 21
19360.48526300002
 31
0.0
  0
LINE
  5
1331C
  8
2-0
  6
CONTINUOUS
 62
     3
 10
21791.2811603173
 20
19330.4817
 30
0.0
 11
21785.28321931732
 21
19330.4817
 31
0.0
  0
LINE
  5
1331D
  8
2-0
  6
CONTINUOUS
 62
     3
 10
21785.28321931732
 20
19330.4817
 30
0.0
 11
21785.28321931732
 21
19360.48526300002
 31
0.0
  0
LINE
  5
1331E
  8
2-0
  6
CONTINUOUS
 62
     3
 10
21822.28438031732
 20
19360.48526300002
 30
0.0
 11
21785.28321931732
 21
19360.48526300002
 31
0.0
  0
LINE
  5
1331F
  8
2-0
  6
CONTINUOUS
 62
     3
 10
21822.28438031732
 20
19330.4817
 30
0.0
 11
21822.28438031732
 21
19360.48526300002
 31
0.0
  0
LINE
  5
13320
  8
2-0
  6
CONTINUOUS
 62
     3
 10
21816.27852131733
 20
19330.4817
 30
0.0
 11
21822.28438031732
 21
19330.4817
 31
0.0
  0
LINE
  5
13321
  8
2-0
  6
CONTINUOUS
 62
     3
 10
21832.37794531733
 20
19330.4817
 30
0.0
 11
21832.37794531733
 21
19360.48526300002
 31
0.0
  0
LINE
  5
13322
  8
2-0
  6
CONTINUOUS
 62
     3
 10
21814.382142317321
 20
19330.4817
 30
0.0
 11
21832.37794531733
 21
19330.4817
 31
0.0
  0
LINE
  5
13323
  8
2-0
  6
CONTINUOUS
 62
     3
 10
21814.382142317321
 20
19355.49093700001
 30
0.0
 11
21814.382142317321
 21
19330.4817
 31
0.0
  0
LINE
  5
13324
  8
2-0
  6
CONTINUOUS
 62
     3
 10
21819.372508317319
 20
19355.49093700001
 30
0.0
 11
21814.382142317321
 21
19355.49093700001
 31
0.0
  0
LINE
  5
13325
  8
2-0
  6
CONTINUOUS
 62
     3
 10
21819.372508317319
 20
19348.485421000001
 30
0.0
 11
21819.372508317319
 21
19355.49093700001
 31
0.0
  0
LINE
  5
13326
  8
2-0
  6
CONTINUOUS
 62
     3
 10
21832.37893531732
 20
19360.48526300002
 30
0.0
 11
21775.189654317321
 21
19360.48526300002
 31
0.0
  0
LINE
  5
13327
  8
2-0
  6
CONTINUOUS
 62
     3
 10
21131.582825817339
 20
19360.48526300002
 30
0.0
 11
21775.188664317331
 21
19360.48526300002
 31
0.0
  0
LINE
  5
13328
  8
2-0
  6
CONTINUOUS
 62
     3
 10
23180.667429817331
 20
19360.48526300002
 30
0.0
 11
22533.381904817332
 21
19360.48526300002
 31
0.0
  0
LINE
  5
13329
  8
2-0
  6
CONTINUOUS
 62
     3
 10
22476.189653817331
 20
19360.48526300002
 30
0.0
 11
21832.37794531733
 21
19360.48526300002
 31
0.0
  0
LINE
  5
1332A
  8
2-0
  6
CONTINUOUS
 62
     3
 10
21118.375477817321
 20
19348.485421000001
 30
0.0
 11
21118.375477817321
 21
19355.49093700001
 31
0.0
  0
LINE
  5
1332B
  8
2-0
  6
CONTINUOUS
 62
     3
 10
21118.375477817321
 20
19355.49093700001
 30
0.0
 11
21113.375213817311
 21
19355.49093700001
 31
0.0
  0
LINE
  5
1332C
  8
2-0
  6
CONTINUOUS
 62
     3
 10
21113.375213817311
 20
19355.49093700001
 30
0.0
 11
21113.375213817311
 21
19330.4817
 31
0.0
  0
LINE
  5
1332D
  8
2-0
  6
CONTINUOUS
 62
     3
 10
21113.375213817311
 20
19330.4817
 30
0.0
 11
21131.376955817319
 21
19330.4817
 31
0.0
  0
LINE
  5
1332E
  8
2-0
  6
CONTINUOUS
 62
     3
 10
21131.376955817319
 20
19330.4817
 30
0.0
 11
21131.376955817319
 21
19360.48526300002
 31
0.0
  0
LINE
  5
1332F
  8
2-0
  6
CONTINUOUS
 62
     3
 10
21115.27753081734
 20
19330.4817
 30
0.0
 11
21121.281410817319
 21
19330.4817
 31
0.0
  0
LINE
  5
13330
  8
2-0
  6
CONTINUOUS
 62
     3
 10
21121.281410817319
 20
19330.4817
 30
0.0
 11
21121.281410817319
 21
19360.48526300002
 31
0.0
  0
LINE
  5
13331
  8
2-0
  6
CONTINUOUS
 62
     3
 10
21084.286188817321
 20
19360.48526300002
 30
0.0
 11
21121.281410817319
 21
19360.48526300002
 31
0.0
  0
LINE
  5
13332
  8
2-0
  6
CONTINUOUS
 62
     3
 10
21084.286188817321
 20
19330.4817
 30
0.0
 11
21084.286188817321
 21
19360.48526300002
 31
0.0
  0
LINE
  5
13333
  8
2-0
  6
CONTINUOUS
 62
     3
 10
21090.280170817321
 20
19330.4817
 30
0.0
 11
21084.286188817321
 21
19330.4817
 31
0.0
  0
LINE
  5
13334
  8
2-0
  6
CONTINUOUS
 62
     3
 10
21074.190643817328
 20
19330.4817
 30
0.0
 11
21074.190643817328
 21
19360.48526300002
 31
0.0
  0
LINE
  5
13335
  8
2-0
  6
CONTINUOUS
 62
     3
 10
21092.186446817341
 20
19330.4817
 30
0.0
 11
21074.190643817328
 21
19330.4817
 31
0.0
  0
LINE
  5
13336
  8
2-0
  6
CONTINUOUS
 62
     3
 10
21092.186446817341
 20
19355.49093700001
 30
0.0
 11
21092.186446817341
 21
19330.4817
 31
0.0
  0
LINE
  5
13337
  8
2-0
  6
CONTINUOUS
 62
     3
 10
21087.18816281734
 20
19355.49093700001
 30
0.0
 11
21092.186446817341
 21
19355.49093700001
 31
0.0
  0
LINE
  5
13338
  8
2-0
  6
CONTINUOUS
 62
     3
 10
21087.18816281734
 20
19348.485421000001
 30
0.0
 11
21087.18816281734
 21
19355.49093700001
 31
0.0
  0
LINE
  5
13339
  8
2-0
  6
CONTINUOUS
 62
     3
 10
20778.089041817311
 20
19360.48526300002
 30
0.0
 11
21074.190643817328
 21
19360.48526300002
 31
0.0
  0
LINE
  5
1333A
  8
2-0
  6
CONTINUOUS
 62
     3
 10
20652.785515817341
 20
15263.12641500001
 30
0.0
 11
20652.785515817341
 21
14619.087557000001
 31
0.0
  0
LINE
  5
1333B
  8
2-0
  6
CONTINUOUS
 62
     3
 10
20652.785515817341
 20
14561.891347000001
 30
0.0
 11
20652.785515817341
 21
14265.524985
 31
0.0
  0
TEXT
  5
1333C
  8
0-6
  6
CONTINUOUS
 62
     7
 10
20896.010102468121
 20
19048.402039970671
 30
0.0
 40
160.0
  1
間柱（後）
 72
     4
 11
21317.343435801449
 21
19128.402039970671
 31
0.0
  0
LINE
  5
1333D
  8
SUNPOU
  6
CONTINUOUS
 62
     4
 10
20572.785515817341
 20
14590.607233750001
 30
0.0
 11
19522.784195817341
 21
14590.607233750001
 31
0.0
  0
LINE
  5
1333E
  8
SUNPOU
  6
CONTINUOUS
 62
     4
 10
19722.78419581733
 20
14183.107233750001
 30
0.0
 11
19522.784195817341
 21
14183.107233750001
 31
0.0
  0
LINE
  5
1333F
  8
SUNPOU
  6
CONTINUOUS
 62
     4
 10
19602.78419581733
 20
14590.607233750001
 30
0.0
 11
19602.78419581733
 21
14183.107233750001
 31
0.0
  0
LINE
  5
13340
  8
SUNPOU
  6
CONTINUOUS
 62
     4
 10
20572.785515817341
 20
18910.48697799999
 30
0.0
 11
19522.784195817341
 21
18910.48697799999
 31
0.0
  0
LINE
  5
13341
  8
SUNPOU
  6
CONTINUOUS
 62
     4
 10
19722.78419581733
 20
19317.98697799999
 30
0.0
 11
19522.784195817341
 21
19317.98697799999
 31
0.0
  0
LINE
  5
13342
  8
SUNPOU
  6
CONTINUOUS
 62
     4
 10
19602.78419581733
 20
18910.48697799999
 30
0.0
 11
19602.78419581733
 21
19317.98697799999
 31
0.0
  0
LINE
  5
13343
  8
SUNPOU
  6
CONTINUOUS
 62
     4
 10
23262.783799817349
 20
13477.223543999989
 30
0.0
 11
23262.783799817349
 21
13131.538893999999
 31
0.0
  0
LINE
  5
13344
  8
SUNPOU
  6
CONTINUOUS
 62
     4
 10
23305.286042817341
 20
14060.489682999991
 30
0.0
 11
23305.286042817341
 21
13131.538893999999
 31
0.0
  0
LINE
  5
13345
  8
SUNPOU
  6
CONTINUOUS
 62
     4
 10
23262.783799817349
 20
13211.538893999999
 30
0.0
 11
23022.783799817349
 21
13211.538893999999
 31
0.0
  0
LINE
  5
13346
  8
SUNPOU
  6
CONTINUOUS
 62
     4
 10
23305.286042817341
 20
13211.538893999999
 30
0.0
 11
23545.286042817341
 21
13211.538893999999
 31
0.0
  0
LINE
  5
13347
  8
SUNPOU
  6
CONTINUOUS
 62
     4
 10
23262.783799817349
 20
13211.538893999999
 30
0.0
 11
23305.286042817341
 21
13211.538893999999
 31
0.0
  0
LINE
  5
13348
  8
SUNPOU
  6
CONTINUOUS
 62
     4
 10
20695.283799817342
 20
13477.223543999989
 30
0.0
 11
20695.283799817342
 21
13131.538893999999
 31
0.0
  0
LINE
  5
13349
  8
SUNPOU
  6
CONTINUOUS
 62
     4
 10
20652.78155681735
 20
14060.489682999991
 30
0.0
 11
20652.78155681735
 21
13131.538893999999
 31
0.0
  0
LINE
  5
1334A
  8
SUNPOU
  6
CONTINUOUS
 62
     4
 10
20695.283799817342
 20
13211.538893999999
 30
0.0
 11
20935.283799817342
 21
13211.538893999999
 31
0.0
  0
LINE
  5
1334B
  8
SUNPOU
  6
CONTINUOUS
 62
     4
 10
20652.78155681735
 20
13211.538893999999
 30
0.0
 11
20412.78155681735
 21
13211.538893999999
 31
0.0
  0
LINE
  5
1334C
  8
SUNPOU
  6
CONTINUOUS
 62
     4
 10
20695.283799817342
 20
13211.538893999999
 30
0.0
 11
20652.78155681735
 21
13211.538893999999
 31
0.0
  0
LINE
  5
1334D
  8
SUNPOU
  6
CONTINUOUS
 62
     4
 10
20695.283799817342
 20
13477.223543999989
 30
0.0
 11
20695.283799817342
 21
13131.538893999999
 31
0.0
  0
LINE
  5
1334E
  8
SUNPOU
  6
CONTINUOUS
 62
     4
 10
20737.786042817352
 20
14060.489682999991
 30
0.0
 11
20737.786042817352
 21
13131.538893999999
 31
0.0
  0
LINE
  5
1334F
  8
SUNPOU
  6
CONTINUOUS
 62
     4
 10
20695.283799817342
 20
13211.538893999999
 30
0.0
 11
20455.283799817342
 21
13211.538893999999
 31
0.0
  0
LINE
  5
13350
  8
SUNPOU
  6
CONTINUOUS
 62
     4
 10
20737.786042817352
 20
13211.538893999999
 30
0.0
 11
20977.786042817352
 21
13211.538893999999
 31
0.0
  0
LINE
  5
13351
  8
SUNPOU
  6
CONTINUOUS
 62
     4
 10
20695.283799817342
 20
13211.538893999999
 30
0.0
 11
20737.786042817352
 21
13211.538893999999
 31
0.0
  0
LINE
  5
13352
  8
SUNPOU
  6
CONTINUOUS
 62
     4
 10
23262.783799817349
 20
13477.223543999989
 30
0.0
 11
23262.783799817349
 21
13131.538893999999
 31
0.0
  0
LINE
  5
13353
  8
SUNPOU
  6
CONTINUOUS
 62
     4
 10
23220.28155681735
 20
14060.489682999991
 30
0.0
 11
23220.28155681735
 21
13131.538893999999
 31
0.0
  0
LINE
  5
13354
  8
SUNPOU
  6
CONTINUOUS
 62
     4
 10
23262.783799817349
 20
13211.538893999999
 30
0.0
 11
23502.783799817349
 21
13211.538893999999
 31
0.0
  0
LINE
  5
13355
  8
SUNPOU
  6
CONTINUOUS
 62
     4
 10
23220.28155681735
 20
13211.538893999999
 30
0.0
 11
22980.28155681735
 21
13211.538893999999
 31
0.0
  0
LINE
  5
13356
  8
SUNPOU
  6
CONTINUOUS
 62
     4
 10
23262.783799817349
 20
13211.538893999999
 30
0.0
 11
23220.28155681735
 21
13211.538893999999
 31
0.0
  0
LINE
  5
13357
  8
SUNPOU
  6
CONTINUOUS
 62
     4
 10
23305.286042817341
 20
14060.489682999991
 30
0.0
 11
23305.286042817341
 21
12731.538893999999
 31
0.0
  0
LINE
  5
13358
  8
SUNPOU
  6
CONTINUOUS
 62
     4
 10
20652.78155681735
 20
14060.489682999991
 30
0.0
 11
20652.78155681735
 21
12731.538893999999
 31
0.0
  0
LINE
  5
13359
  8
SUNPOU
  6
CONTINUOUS
 62
     4
 10
23305.286042817341
 20
12811.538893999999
 30
0.0
 11
20652.78155681735
 21
12811.538893999999
 31
0.0
  0
LINE
  5
1335A
  8
SUNPOU
  6
CONTINUOUS
 62
     4
 10
20572.785515817341
 20
15291.727489500019
 30
0.0
 11
19522.784195817341
 21
15291.727489500019
 31
0.0
  0
LINE
  5
1335B
  8
SUNPOU
  6
CONTINUOUS
 62
     4
 10
20572.785515817341
 20
14590.48697799999
 30
0.0
 11
19522.784195817341
 21
14590.48697799999
 31
0.0
  0
LINE
  5
1335C
  8
SUNPOU
  6
CONTINUOUS
 62
     4
 10
19602.78419581733
 20
15291.727489500019
 30
0.0
 11
19602.78419581733
 21
14590.48697799999
 31
0.0
  0
LINE
  5
1335D
  8
SUNPOU
  6
CONTINUOUS
 62
     4
 10
20572.785515817341
 20
15992.486978000001
 30
0.0
 11
19522.784195817341
 21
15992.486978000001
 31
0.0
  0
LINE
  5
1335E
  8
SUNPOU
  6
CONTINUOUS
 62
     4
 10
20572.785515817341
 20
15291.727489500019
 30
0.0
 11
19522.784195817341
 21
15291.727489500019
 31
0.0
  0
LINE
  5
1335F
  8
SUNPOU
  6
CONTINUOUS
 62
     4
 10
19602.78419581733
 20
15992.486978000001
 30
0.0
 11
19602.78419581733
 21
15291.727489500019
 31
0.0
  0
LINE
  5
13360
  8
SUNPOU
  6
CONTINUOUS
 62
     4
 10
19722.78419581733
 20
16750.48697799999
 30
0.0
 11
19522.784195817341
 21
16750.48697799999
 31
0.0
  0
LINE
  5
13361
  8
SUNPOU
  6
CONTINUOUS
 62
     4
 10
20572.785515817341
 20
15992.486978000001
 30
0.0
 11
19522.784195817341
 21
15992.486978000001
 31
0.0
  0
LINE
  5
13362
  8
SUNPOU
  6
CONTINUOUS
 62
     4
 10
19602.78419581733
 20
16750.48697799999
 30
0.0
 11
19602.78419581733
 21
15992.486978000001
 31
0.0
  0
LINE
  5
13363
  8
SUNPOU
  6
CONTINUOUS
 62
     4
 10
20572.785515817341
 20
17508.486977999979
 30
0.0
 11
19522.784195817341
 21
17508.486977999979
 31
0.0
  0
LINE
  5
13364
  8
SUNPOU
  6
CONTINUOUS
 62
     4
 10
19722.78419581733
 20
16750.48697799999
 30
0.0
 11
19522.784195817341
 21
16750.48697799999
 31
0.0
  0
LINE
  5
13365
  8
SUNPOU
  6
CONTINUOUS
 62
     4
 10
19602.78419581733
 20
17508.486977999979
 30
0.0
 11
19602.78419581733
 21
16750.48697799999
 31
0.0
  0
LINE
  5
13366
  8
SUNPOU
  6
CONTINUOUS
 62
     4
 10
20572.785515817341
 20
18209.486977999979
 30
0.0
 11
19522.784195817341
 21
18209.486977999979
 31
0.0
  0
LINE
  5
13367
  8
SUNPOU
  6
CONTINUOUS
 62
     4
 10
20572.785515817341
 20
17508.486977999979
 30
0.0
 11
19522.784195817341
 21
17508.486977999979
 31
0.0
  0
LINE
  5
13368
  8
SUNPOU
  6
CONTINUOUS
 62
     4
 10
19602.78419581733
 20
18209.486977999979
 30
0.0
 11
19602.78419581733
 21
17508.486977999979
 31
0.0
  0
LINE
  5
13369
  8
SUNPOU
  6
CONTINUOUS
 62
     4
 10
20572.785515817341
 20
18910.48697799999
 30
0.0
 11
19522.784195817341
 21
18910.48697799999
 31
0.0
  0
LINE
  5
1336A
  8
SUNPOU
  6
CONTINUOUS
 62
     4
 10
20572.785515817341
 20
18209.486977999979
 30
0.0
 11
19522.784195817341
 21
18209.486977999979
 31
0.0
  0
LINE
  5
1336B
  8
SUNPOU
  6
CONTINUOUS
 62
     4
 10
19602.78419581733
 20
18910.48697799999
 30
0.0
 11
19602.78419581733
 21
18209.486977999979
 31
0.0
  0
LINE
  5
1336E
  8
SUNPOU
  6
CONTINUOUS
 62
     4
 10
19202.784195817341
 20
19360.484272999998
 30
0.0
 11
19202.784195817341
 21
14140.489682999991
 31
0.0
  0
LINE
  5
1336F
  8
SUNPOU
  6
CONTINUOUS
 62
     4
 10
20572.785515817341
 20
19360.484272999998
 30
0.0
 11
19122.784195817349
 21
19360.484272999998
 31
0.0
  0
LINE
  5
13370
  8
SUNPOU
  6
CONTINUOUS
 62
     4
 10
19602.78419581733
 20
19317.98697799999
 30
0.0
 11
19602.78419581733
 21
19077.98697799999
 31
0.0
  0
LINE
  5
13371
  8
SUNPOU
  6
CONTINUOUS
 62
     4
 10
19602.78419581733
 20
19360.484272999998
 30
0.0
 11
19602.78419581733
 21
19600.48427299998
 31
0.0
  0
LINE
  5
13372
  8
SUNPOU
  6
CONTINUOUS
 62
     4
 10
19602.78419581733
 20
19317.98697799999
 30
0.0
 11
19602.78419581733
 21
19360.484272999998
 31
0.0
  0
LINE
  5
13373
  8
SUNPOU
  6
CONTINUOUS
 62
     4
 10
20572.785515817341
 20
14140.489682999991
 30
0.0
 11
19122.784195817349
 21
14140.489682999991
 31
0.0
  0
LINE
  5
13374
  8
SUNPOU
  6
CONTINUOUS
 62
     4
 10
19602.78419581733
 20
14140.489682999991
 30
0.0
 11
19602.78419581733
 21
13900.489682999991
 31
0.0
  0
LINE
  5
13375
  8
SUNPOU
  6
CONTINUOUS
 62
     4
 10
19602.78419581733
 20
14182.986978000001
 30
0.0
 11
19602.78419581733
 21
14140.489682999991
 31
0.0
  0
LINE
  5
13376
  8
SUNPOU
  6
CONTINUOUS
 62
     4
 10
23262.783799817349
 20
19440.48526300002
 30
0.0
 11
23262.783799817349
 21
20240.48790199999
 31
0.0
  0
LINE
  5
13377
  8
SUNPOU
  6
CONTINUOUS
 62
     4
 10
21102.78379981732
 20
19440.48526300002
 30
0.0
 11
21102.78379981732
 21
20240.48790199999
 31
0.0
  0
LINE
  5
13378
  8
SUNPOU
  6
CONTINUOUS
 62
     4
 10
20695.28379981732
 20
20160.48790199999
 30
0.0
 11
21102.78379981732
 21
20160.48790199999
 31
0.0
  0
LINE
  5
13379
  8
SUNPOU
  6
CONTINUOUS
 62
     4
 10
22504.78379981732
 20
19440.48526300002
 30
0.0
 11
22504.78379981732
 21
20240.48790199999
 31
0.0
  0
LINE
  5
1337A
  8
SUNPOU
  6
CONTINUOUS
 62
     4
 10
20695.282810317331
 20
19440.48526300002
 30
0.0
 11
20695.282810317331
 21
20240.48790199999
 31
0.0
  0
LINE
  5
1337B
  8
SUNPOU
  6
CONTINUOUS
 62
     4
 10
22504.78379981732
 20
20160.48790199999
 30
0.0
 11
23262.784789317338
 21
20160.48790199999
 31
0.0
  0
LINE
  5
1337C
  8
SUNPOU
  6
CONTINUOUS
 62
     4
 10
21803.783799817309
 20
19440.48526300002
 30
0.0
 11
21803.783799817309
 21
20240.48790199999
 31
0.0
  0
LINE
  5
1337D
  8
SUNPOU
  6
CONTINUOUS
 62
     4
 10
22504.78379981732
 20
19440.48526300002
 30
0.0
 11
22504.78379981732
 21
20240.48790199999
 31
0.0
  0
LINE
  5
1337E
  8
SUNPOU
  6
CONTINUOUS
 62
     4
 10
21803.783799817309
 20
20160.48790199999
 30
0.0
 11
22504.78379981732
 21
20160.48790199999
 31
0.0
  0
LINE
  5
1337F
  8
SUNPOU
  6
CONTINUOUS
 62
     4
 10
21102.78379981732
 20
19440.48526300002
 30
0.0
 11
21102.78379981732
 21
20240.48790199999
 31
0.0
  0
LINE
  5
13380
  8
SUNPOU
  6
CONTINUOUS
 62
     4
 10
21803.783799817309
 20
19440.48526300002
 30
0.0
 11
21803.783799817309
 21
20240.48790199999
 31
0.0
  0
LINE
  5
13381
  8
SUNPOU
  6
CONTINUOUS
 62
     4
 10
21102.78379981732
 20
20160.48790199999
 30
0.0
 11
21803.783799817309
 21
20160.48790199999
 31
0.0
  0
LINE
  5
13382
  8
SUNPOU
  6
CONTINUOUS
 62
     4
 10
20695.283799817342
 20
19440.48526300002
 30
0.0
 11
20695.283799817342
 21
20240.48790199999
 31
0.0
  0
LINE
  5
13383
  8
SUNPOU
  6
CONTINUOUS
 62
     4
 10
20652.787494817348
 20
19440.48526300002
 30
0.0
 11
20652.787494817348
 21
20240.48790199999
 31
0.0
  0
LINE
  5
13384
  8
SUNPOU
  6
CONTINUOUS
 62
     4
 10
20695.283799817342
 20
20160.48790199999
 30
0.0
 11
20935.283799817342
 21
20160.48790199999
 31
0.0
  0
LINE
  5
13385
  8
SUNPOU
  6
CONTINUOUS
 62
     4
 10
20652.787494817348
 20
20160.48790199999
 30
0.0
 11
20412.787494817348
 21
20160.48790199999
 31
0.0
  0
LINE
  5
13386
  8
SUNPOU
  6
CONTINUOUS
 62
     4
 10
20695.283799817342
 20
20160.48790199999
 30
0.0
 11
20652.787494817348
 21
20160.48790199999
 31
0.0
  0
LINE
  5
13387
  8
SUNPOU
  6
CONTINUOUS
 62
     4
 10
23262.783799817349
 20
19440.48526300002
 30
0.0
 11
23262.783799817349
 21
20240.48790199999
 31
0.0
  0
LINE
  5
13388
  8
SUNPOU
  6
CONTINUOUS
 62
     4
 10
23305.280104817361
 20
19440.48526300002
 30
0.0
 11
23305.280104817361
 21
20240.48790199999
 31
0.0
  0
LINE
  5
13389
  8
SUNPOU
  6
CONTINUOUS
 62
     4
 10
20695.28379981732
 20
20160.48790199999
 30
0.0
 11
20935.28379981732
 21
20160.48790199999
 31
0.0
  0
LINE
  5
1338A
  8
SUNPOU
  6
CONTINUOUS
 62
     4
 10
23305.280104817361
 20
20160.48790199999
 30
0.0
 11
23545.280104817361
 21
20160.48790199999
 31
0.0
  0
LINE
  5
1338B
  8
SUNPOU
  6
CONTINUOUS
 62
     4
 10
23262.783799817349
 20
20160.48790199999
 30
0.0
 11
23305.280104817361
 21
20160.48790199999
 31
0.0
  0
TEXT
  5
1338C
  8
0
  6
CONTINUOUS
 62
     7
 10
23385.595779346138
 20
20240.48790199999
 30
0.0
 40
160.0
  1
42.5
  0
TEXT
  5
1338D
  8
0
  6
CONTINUOUS
 62
     7
 10
20092.47182028856
 20
20240.48790199999
 30
0.0
 40
160.0
  1
42.5
  0
TEXT
  5
1338E
  8
0
  6
CONTINUOUS
 62
     7
 10
21279.95046648401
 20
19850.48816600001
 30
0.0
 40
160.0
  1
701
  0
TEXT
  5
1338F
  8
0
  6
CONTINUOUS
 62
     7
 10
21980.950466483999
 20
20240.48790199999
 30
0.0
 40
160.0
  1
701
  0
TEXT
  5
13390
  8
0
  6
CONTINUOUS
 62
     7
 10
22670.450961234012
 20
20240.48790199999
 30
0.0
 40
160.0
  1
758
  0
TEXT
  5
13391
  8
0
  6
CONTINUOUS
 62
     7
 10
20796.117133150648
 20
20240.48790199999
 30
0.0
 40
160.0
  1
407.5
  0
TEXT
  5
13392
  8
0
  6
CONTINUOUS
 62
     7
 10
19522.784195817319
 20
13566.9334466032
 30
0.0
 40
160.0
  1
42.5
 50
90.0
  0
TEXT
  5
13393
  8
0
  6
CONTINUOUS
 62
     7
 10
19522.784195817319
 20
19454.040509396778
 30
0.0
 40
160.0
  1
42.5
 50
90.0
  0
TEXT
  5
13394
  8
0
  6
CONTINUOUS
 62
     7
 10
19122.784195817341
 20
16470.486978000001
 30
0.0
 40
160.0
  1
5220
 50
90.0
  0
TEXT
  5
13395
  8
0
  6
CONTINUOUS
 62
     7
 10
19842.784195817359
 20
18386.653644666669
 30
0.0
 40
160.0
  1
701
 50
90.0
  0
TEXT
  5
13396
  8
0
  6
CONTINUOUS
 62
     7
 10
19522.784195817301
 20
17685.653644666669
 30
0.0
 40
160.0
  1
701
 50
90.0
  0
TEXT
  5
13397
  8
0
  6
CONTINUOUS
 62
     7
 10
19522.784195817301
 20
16916.153644666669
 30
0.0
 40
160.0
  1
758
 50
90.0
  0
TEXT
  5
13398
  8
0
  6
CONTINUOUS
 62
     7
 10
19522.784195817301
 20
16158.153644666671
 30
0.0
 40
160.0
  1
758
 50
90.0
  0
TEXT
  5
13399
  8
0
  6
CONTINUOUS
 62
     7
 10
19522.784195817301
 20
15468.773900416671
 30
0.0
 40
160.0
  1
701
 50
90.0
  0
TEXT
  5
1339A
  8
0
  6
CONTINUOUS
 62
     7
 10
19842.784195817359
 20
14767.773900416671
 30
0.0
 40
160.0
  1
701
 50
90.0
  0
TEXT
  5
1339B
  8
0
  6
CONTINUOUS
 62
     7
 10
21579.033799817349
 20
12891.538893999999
 30
0.0
 40
160.0
  1
2652.5
  0
TEXT
  5
1339C
  8
0
  6
CONTINUOUS
 62
     7
 10
22664.730127435261
 20
13291.538893999999
 30
0.0
 40
160.0
  1
42.5
  0
TEXT
  5
1339D
  8
0
  6
CONTINUOUS
 62
     7
 10
20813.33747219943
 20
13291.538893999999
 30
0.0
 40
160.0
  1
42.5
  0
TEXT
  5
1339E
  8
0
  6
CONTINUOUS
 62
     7
 10
20097.230127435261
 20
13291.538893999999
 30
0.0
 40
160.0
  1
42.5
  0
TEXT
  5
1339F
  8
0
  6
CONTINUOUS
 62
     7
 10
23380.837472199441
 20
13291.538893999999
 30
0.0
 40
160.0
  1
42.5
  0
TEXT
  5
133A0
  8
0
  6
CONTINUOUS
 62
     7
 10
19482.784195817349
 20
18619.86494564321
 30
0.0
 40
160.0
  1
407.5
 50
90.0
  0
TEXT
  5
133A1
  8
0
  6
CONTINUOUS
 62
     7
 10
19482.784195817349
 20
14255.927647953549
 30
0.0
 40
160.0
  1
407.5
 50
90.0
  0
ARC
  5
133A2
  8
0
  6
BYBLOCK
 62
     0
 10
19602.78419581733
 20
14590.607233750001
 30
0.0
 40
15.0
 50
90.0
 51
270.0
  0
ARC
  5
133A3
  8
0
  6
BYBLOCK
 62
     0
 10
19602.78419581733
 20
14590.607233750001
 30
0.0
 40
15.0
 50
270.0
 51
90.0
  0
ARC
  5
133A4
  8
0
  6
BYBLOCK
 62
     0
 10
19602.78419581733
 20
14183.107233750001
 30
0.0
 40
15.0
 50
270.0
 51
90.0
  0
ARC
  5
133A5
  8
0
  6
BYBLOCK
 62
     0
 10
19602.78419581733
 20
14183.107233750001
 30
0.0
 40
15.0
 50
90.0
 51
270.0
  0
ARC
  5
133A6
  8
0
  6
BYBLOCK
 62
     0
 10
19602.78419581733
 20
18910.48697799999
 30
0.0
 40
15.0
 50
270.0
 51
90.0
  0
ARC
  5
133A7
  8
0
  6
BYBLOCK
 62
     0
 10
19602.78419581733
 20
18910.48697799999
 30
0.0
 40
15.0
 50
90.0
 51
270.0
  0
ARC
  5
133A8
  8
0
  6
BYBLOCK
 62
     0
 10
19602.78419581733
 20
19317.98697799999
 30
0.0
 40
15.0
 50
90.0
 51
270.0
  0
ARC
  5
133A9
  8
0
  6
BYBLOCK
 62
     0
 10
19602.78419581733
 20
19317.98697799999
 30
0.0
 40
15.0
 50
270.0
 51
90.0
  0
ARC
  5
133AA
  8
0
  6
BYBLOCK
 62
     0
 10
23262.783799817349
 20
13211.538893999999
 30
0.0
 40
15.0
 50
0.0
 51
180.0
  0
ARC
  5
133AB
  8
0
  6
BYBLOCK
 62
     0
 10
23262.783799817349
 20
13211.538893999999
 30
0.0
 40
15.0
 50
180.0
 51
0.0
  0
ARC
  5
133AC
  8
0
  6
BYBLOCK
 62
     0
 10
23305.286042817341
 20
13211.538893999999
 30
0.0
 40
15.0
 50
180.0
 51
0.0
  0
ARC
  5
133AD
  8
0
  6
BYBLOCK
 62
     0
 10
23305.286042817341
 20
13211.538893999999
 30
0.0
 40
15.0
 50
0.0
 51
180.0
  0
ARC
  5
133AE
  8
0
  6
BYBLOCK
 62
     0
 10
20695.283799817342
 20
13211.538893999999
 30
0.0
 40
15.0
 50
180.0
 51
0.0
  0
ARC
  5
133AF
  8
0
  6
BYBLOCK
 62
     0
 10
20695.283799817342
 20
13211.538893999999
 30
0.0
 40
15.0
 50
0.0
 51
180.0
  0
ARC
  5
133B0
  8
0
  6
BYBLOCK
 62
     0
 10
20652.78155681735
 20
13211.538893999999
 30
0.0
 40
15.0
 50
0.0
 51
180.0
  0
ARC
  5
133B1
  8
0
  6
BYBLOCK
 62
     0
 10
20652.78155681735
 20
13211.538893999999
 30
0.0
 40
15.0
 50
180.0
 51
0.0
  0
ARC
  5
133B2
  8
0
  6
BYBLOCK
 62
     0
 10
20695.283799817342
 20
13211.538893999999
 30
0.0
 40
15.0
 50
0.0
 51
180.0
  0
ARC
  5
133B3
  8
0
  6
BYBLOCK
 62
     0
 10
20695.283799817342
 20
13211.538893999999
 30
0.0
 40
15.0
 50
180.0
 51
0.0
  0
ARC
  5
133B4
  8
0
  6
BYBLOCK
 62
     0
 10
20737.786042817352
 20
13211.538893999999
 30
0.0
 40
15.0
 50
180.0
 51
0.0
  0
ARC
  5
133B5
  8
0
  6
BYBLOCK
 62
     0
 10
20737.786042817352
 20
13211.538893999999
 30
0.0
 40
15.0
 50
0.0
 51
180.0
  0
ARC
  5
133B6
  8
0
  6
BYBLOCK
 62
     0
 10
23262.783799817349
 20
13211.538893999999
 30
0.0
 40
15.0
 50
180.0
 51
0.0
  0
ARC
  5
133B7
  8
0
  6
BYBLOCK
 62
     0
 10
23262.783799817349
 20
13211.538893999999
 30
0.0
 40
15.0
 50
0.0
 51
180.0
  0
ARC
  5
133B8
  8
0
  6
BYBLOCK
 62
     0
 10
23220.28155681735
 20
13211.538893999999
 30
0.0
 40
15.0
 50
0.0
 51
180.0
  0
ARC
  5
133B9
  8
0
  6
BYBLOCK
 62
     0
 10
23220.28155681735
 20
13211.538893999999
 30
0.0
 40
15.0
 50
180.0
 51
0.0
  0
ARC
  5
133BA
  8
0
  6
BYBLOCK
 62
     0
 10
23305.286042817341
 20
12811.538893999999
 30
0.0
 40
15.0
 50
0.0
 51
180.0
  0
ARC
  5
133BB
  8
0
  6
BYBLOCK
 62
     0
 10
23305.286042817341
 20
12811.538893999999
 30
0.0
 40
15.0
 50
180.0
 51
0.0
  0
ARC
  5
133BC
  8
0
  6
BYBLOCK
 62
     0
 10
20652.78155681735
 20
12811.538893999999
 30
0.0
 40
15.0
 50
180.0
 51
0.0
  0
ARC
  5
133BD
  8
0
  6
BYBLOCK
 62
     0
 10
20652.78155681735
 20
12811.538893999999
 30
0.0
 40
15.0
 50
0.0
 51
180.0
  0
ARC
  5
133BE
  8
0
  6
BYBLOCK
 62
     0
 10
19602.78419581733
 20
15291.727489500019
 30
0.0
 40
15.0
 50
90.0
 51
270.0
  0
ARC
  5
133BF
  8
0
  6
BYBLOCK
 62
     0
 10
19602.78419581733
 20
15291.727489500019
 30
0.0
 40
15.0
 50
270.0
 51
90.0
  0
ARC
  5
133C0
  8
0
  6
BYBLOCK
 62
     0
 10
19602.78419581733
 20
14590.48697799999
 30
0.0
 40
15.0
 50
270.0
 51
90.0
  0
ARC
  5
133C1
  8
0
  6
BYBLOCK
 62
     0
 10
19602.78419581733
 20
14590.48697799999
 30
0.0
 40
15.0
 50
90.0
 51
270.0
  0
ARC
  5
133C2
  8
0
  6
BYBLOCK
 62
     0
 10
19602.78419581733
 20
15992.486978000001
 30
0.0
 40
15.0
 50
90.0
 51
270.0
  0
ARC
  5
133C3
  8
0
  6
BYBLOCK
 62
     0
 10
19602.78419581733
 20
15992.486978000001
 30
0.0
 40
15.0
 50
270.0
 51
90.0
  0
ARC
  5
133C4
  8
0
  6
BYBLOCK
 62
     0
 10
19602.78419581733
 20
15291.727489500019
 30
0.0
 40
15.0
 50
270.0
 51
90.0
  0
ARC
  5
133C5
  8
0
  6
BYBLOCK
 62
     0
 10
19602.78419581733
 20
15291.727489500019
 30
0.0
 40
15.0
 50
90.0
 51
270.0
  0
ARC
  5
133C6
  8
0
  6
BYBLOCK
 62
     0
 10
19602.78419581733
 20
16750.48697799999
 30
0.0
 40
15.0
 50
90.0
 51
270.0
  0
ARC
  5
133C7
  8
0
  6
BYBLOCK
 62
     0
 10
19602.78419581733
 20
16750.48697799999
 30
0.0
 40
15.0
 50
270.0
 51
90.0
  0
ARC
  5
133C8
  8
0
  6
BYBLOCK
 62
     0
 10
19602.78419581733
 20
15992.486978000001
 30
0.0
 40
15.0
 50
270.0
 51
90.0
  0
ARC
  5
133C9
  8
0
  6
BYBLOCK
 62
     0
 10
19602.78419581733
 20
15992.486978000001
 30
0.0
 40
15.0
 50
90.0
 51
270.0
  0
ARC
  5
133CA
  8
0
  6
BYBLOCK
 62
     0
 10
19602.78419581733
 20
17508.486977999979
 30
0.0
 40
15.0
 50
90.0
 51
270.0
  0
ARC
  5
133CB
  8
0
  6
BYBLOCK
 62
     0
 10
19602.78419581733
 20
17508.486977999979
 30
0.0
 40
15.0
 50
270.0
 51
90.0
  0
ARC
  5
133CC
  8
0
  6
BYBLOCK
 62
     0
 10
19602.78419581733
 20
16750.48697799999
 30
0.0
 40
15.0
 50
270.0
 51
90.0
  0
ARC
  5
133CD
  8
0
  6
BYBLOCK
 62
     0
 10
19602.78419581733
 20
16750.48697799999
 30
0.0
 40
15.0
 50
90.0
 51
270.0
  0
ARC
  5
133CE
  8
0
  6
BYBLOCK
 62
     0
 10
19602.78419581733
 20
18209.486977999979
 30
0.0
 40
15.0
 50
90.0
 51
270.0
  0
ARC
  5
133CF
  8
0
  6
BYBLOCK
 62
     0
 10
19602.78419581733
 20
18209.486977999979
 30
0.0
 40
15.0
 50
270.0
 51
90.0
  0
ARC
  5
133D0
  8
0
  6
BYBLOCK
 62
     0
 10
19602.78419581733
 20
17508.486977999979
 30
0.0
 40
15.0
 50
270.0
 51
90.0
  0
ARC
  5
133D1
  8
0
  6
BYBLOCK
 62
     0
 10
19602.78419581733
 20
17508.486977999979
 30
0.0
 40
15.0
 50
90.0
 51
270.0
  0
ARC
  5
133D2
  8
0
  6
BYBLOCK
 62
     0
 10
19602.78419581733
 20
18910.48697799999
 30
0.0
 40
15.0
 50
90.0
 51
270.0
  0
ARC
  5
133D3
  8
0
  6
BYBLOCK
 62
     0
 10
19602.78419581733
 20
18910.48697799999
 30
0.0
 40
15.0
 50
270.0
 51
90.0
  0
ARC
  5
133D4
  8
0
  6
BYBLOCK
 62
     0
 10
19602.78419581733
 20
18209.486977999979
 30
0.0
 40
15.0
 50
270.0
 51
90.0
  0
ARC
  5
133D5
  8
0
  6
BYBLOCK
 62
     0
 10
19602.78419581733
 20
18209.486977999979
 30
0.0
 40
15.0
 50
90.0
 51
270.0
  0
ARC
  5
133D6
  8
0
  6
BYBLOCK
 62
     0
 10
19602.78419581733
 20
19317.98697799999
 30
0.0
 40
15.0
 50
90.0
 51
270.0
  0
ARC
  5
133D7
  8
0
  6
BYBLOCK
 62
     0
 10
19602.78419581733
 20
19317.98697799999
 30
0.0
 40
15.0
 50
270.0
 51
90.0
  0
ARC
  5
133D8
  8
0
  6
BYBLOCK
 62
     0
 10
19602.78419581733
 20
14182.986978000001
 30
0.0
 40
15.0
 50
270.0
 51
90.0
  0
ARC
  5
133D9
  8
0
  6
BYBLOCK
 62
     0
 10
19602.78419581733
 20
14182.986978000001
 30
0.0
 40
15.0
 50
90.0
 51
270.0
  0
ARC
  5
133DA
  8
0
  6
BYBLOCK
 62
     0
 10
19202.784195817341
 20
19360.484272999998
 30
0.0
 40
15.0
 50
90.0
 51
270.0
  0
ARC
  5
133DB
  8
0
  6
BYBLOCK
 62
     0
 10
19202.784195817341
 20
19360.484272999998
 30
0.0
 40
15.0
 50
270.0
 51
90.0
  0
ARC
  5
133DC
  8
0
  6
BYBLOCK
 62
     0
 10
19202.784195817341
 20
14140.489682999991
 30
0.0
 40
15.0
 50
270.0
 51
90.0
  0
ARC
  5
133DD
  8
0
  6
BYBLOCK
 62
     0
 10
19202.784195817341
 20
14140.489682999991
 30
0.0
 40
15.0
 50
90.0
 51
270.0
  0
ARC
  5
133DE
  8
0
  6
BYBLOCK
 62
     0
 10
19602.78419581733
 20
19317.98697799999
 30
0.0
 40
15.0
 50
90.0
 51
270.0
  0
ARC
  5
133DF
  8
0
  6
BYBLOCK
 62
     0
 10
19602.78419581733
 20
19317.98697799999
 30
0.0
 40
15.0
 50
270.0
 51
90.0
  0
ARC
  5
133E0
  8
0
  6
BYBLOCK
 62
     0
 10
19602.78419581733
 20
19360.484272999998
 30
0.0
 40
15.0
 50
270.0
 51
90.0
  0
ARC
  5
133E1
  8
0
  6
BYBLOCK
 62
     0
 10
19602.78419581733
 20
19360.484272999998
 30
0.0
 40
15.0
 50
90.0
 51
270.0
  0
ARC
  5
133E2
  8
0
  6
BYBLOCK
 62
     0
 10
19602.78419581733
 20
14182.986978000001
 30
0.0
 40
15.0
 50
270.0
 51
90.0
  0
ARC
  5
133E3
  8
0
  6
BYBLOCK
 62
     0
 10
19602.78419581733
 20
14182.986978000001
 30
0.0
 40
15.0
 50
90.0
 51
270.0
  0
ARC
  5
133E4
  8
0
  6
BYBLOCK
 62
     0
 10
19602.78419581733
 20
14140.489682999991
 30
0.0
 40
15.0
 50
90.0
 51
270.0
  0
ARC
  5
133E5
  8
0
  6
BYBLOCK
 62
     0
 10
19602.78419581733
 20
14140.489682999991
 30
0.0
 40
15.0
 50
270.0
 51
90.0
  0
ARC
  5
133E6
  8
0
  6
BYBLOCK
 62
     0
 10
23262.783799817349
 20
20160.48790199999
 30
0.0
 40
15.0
 50
0.0
 51
180.0
  0
ARC
  5
133E7
  8
0
  6
BYBLOCK
 62
     0
 10
23262.783799817349
 20
20160.48790199999
 30
0.0
 40
15.0
 50
180.0
 51
0.0
  0
ARC
  5
133E8
  8
0
  6
BYBLOCK
 62
     0
 10
21102.78379981732
 20
20160.48790199999
 30
0.0
 40
15.0
 50
180.0
 51
0.000000000000007
  0
ARC
  5
133E9
  8
0
  6
BYBLOCK
 62
     0
 10
21102.78379981732
 20
20160.48790199999
 30
0.0
 40
15.0
 50
0.000000000000007
 51
180.0
  0
ARC
  5
133EA
  8
0
  6
BYBLOCK
 62
     0
 10
22504.78379981732
 20
20160.48790199999
 30
0.0
 40
15.0
 50
0.000000000000007
 51
180.0
  0
ARC
  5
133EB
  8
0
  6
BYBLOCK
 62
     0
 10
22504.78379981732
 20
20160.48790199999
 30
0.0
 40
15.0
 50
180.0
 51
0.000000000000007
  0
ARC
  5
133EC
  8
0
  6
BYBLOCK
 62
     0
 10
20695.282810317331
 20
20160.48790199999
 30
0.0
 40
15.0
 50
180.0
 51
0.0
  0
ARC
  5
133ED
  8
0
  6
BYBLOCK
 62
     0
 10
20695.282810317331
 20
20160.48790199999
 30
0.0
 40
15.0
 50
0.0
 51
180.0
  0
ARC
  5
133EE
  8
0
  6
BYBLOCK
 62
     0
 10
21803.783799817309
 20
20160.48790199999
 30
0.0
 40
15.0
 50
0.000000000000007
 51
180.0
  0
ARC
  5
133EF
  8
0
  6
BYBLOCK
 62
     0
 10
21803.783799817309
 20
20160.48790199999
 30
0.0
 40
15.0
 50
180.0
 51
0.000000000000007
  0
ARC
  5
133F0
  8
0
  6
BYBLOCK
 62
     0
 10
22504.78379981732
 20
20160.48790199999
 30
0.0
 40
15.0
 50
180.0
 51
0.000000000000007
  0
ARC
  5
133F1
  8
0
  6
BYBLOCK
 62
     0
 10
22504.78379981732
 20
20160.48790199999
 30
0.0
 40
15.0
 50
0.000000000000007
 51
180.0
  0
ARC
  5
133F2
  8
0
  6
BYBLOCK
 62
     0
 10
21102.78379981732
 20
20160.48790199999
 30
0.0
 40
15.0
 50
0.000000000000007
 51
180.0
  0
ARC
  5
133F3
  8
0
  6
BYBLOCK
 62
     0
 10
21102.78379981732
 20
20160.48790199999
 30
0.0
 40
15.0
 50
180.0
 51
0.000000000000007
  0
ARC
  5
133F4
  8
0
  6
BYBLOCK
 62
     0
 10
21803.783799817309
 20
20160.48790199999
 30
0.0
 40
15.0
 50
180.0
 51
0.000000000000007
  0
ARC
  5
133F5
  8
0
  6
BYBLOCK
 62
     0
 10
21803.783799817309
 20
20160.48790199999
 30
0.0
 40
15.0
 50
0.000000000000007
 51
180.0
  0
ARC
  5
133F6
  8
0
  6
BYBLOCK
 62
     0
 10
20695.283799817342
 20
20160.48790199999
 30
0.0
 40
15.0
 50
180.0
 51
0.0
  0
ARC
  5
133F7
  8
0
  6
BYBLOCK
 62
     0
 10
20695.283799817342
 20
20160.48790199999
 30
0.0
 40
15.0
 50
0.0
 51
180.0
  0
ARC
  5
133F8
  8
0
  6
BYBLOCK
 62
     0
 10
20652.787494817348
 20
20160.48790199999
 30
0.0
 40
15.0
 50
0.0
 51
180.0
  0
ARC
  5
133F9
  8
0
  6
BYBLOCK
 62
     0
 10
20652.787494817348
 20
20160.48790199999
 30
0.0
 40
15.0
 50
180.0
 51
0.0
  0
ARC
  5
133FA
  8
0
  6
BYBLOCK
 62
     0
 10
23262.783799817349
 20
20160.48790199999
 30
0.0
 40
15.0
 50
0.0
 51
180.0
  0
ARC
  5
133FB
  8
0
  6
BYBLOCK
 62
     0
 10
23262.783799817349
 20
20160.48790199999
 30
0.0
 40
15.0
 50
180.0
 51
0.0
  0
ARC
  5
133FC
  8
0
  6
BYBLOCK
 62
     0
 10
23305.280104817361
 20
20160.48790199999
 30
0.0
 40
15.0
 50
180.0
 51
0.0
  0
ARC
  5
133FD
  8
0
  6
BYBLOCK
 62
     0
 10
23305.280104817361
 20
20160.48790199999
 30
0.0
 40
15.0
 50
0.0
 51
180.0
  0
LINE
  5
133FE
  8
2-0
  6
CONTINUOUS
 62
     6
 10
20816.017756468129
 20
18968.399795970668
 30
0.0
 11
21841.050088468121
 21
18968.399795970668
 31
0.0
  0
LINE
  5
133FF
  8
2-0
  6
CONTINUOUS
 62
     6
 10
22346.752892817309
 20
19252.175903999989
 30
0.0
 11
21841.050088468121
 21
18968.399795970668
 31
0.0
  0
LINE
  5
13400
  8
2-0
  6
CONTINUOUS
 62
     6
 10
22333.695987817329
 20
19275.435247999991
 30
0.0
 11
22486.283218817331
 21
19330.4817
 31
0.0
  0
LINE
  5
13401
  8
2-0
  6
CONTINUOUS
 62
     6
 10
22486.283218817331
 20
19330.4817
 30
0.0
 11
22359.801878817329
 21
19228.92249999995
 31
0.0
  0
LINE
  5
13402
  8
2-0
  6
CONTINUOUS
 62
     6
 10
22333.695987817329
 20
19275.435247999991
 30
0.0
 11
22359.801878817329
 21
19228.92249999995
 31
0.0
  0
LINE
  5
13403
  8
2-0
  6
CONTINUOUS
 62
     6
 10
22359.801878817329
 20
19228.92249999995
 30
0.0
 11
22486.283218817331
 21
19330.4817
 31
0.0
  0
LINE
  5
13404
  8
2-0
  6
CONTINUOUS
 62
     6
 10
22486.283218817331
 20
19330.4817
 30
0.0
 11
22333.695987817329
 21
19275.435247999991
 31
0.0
  0
LINE
  5
13405
  8
2-0
  6
CONTINUOUS
 62
     6
 10
22333.695987817329
 20
19275.435247999991
 30
0.0
 11
22486.283218817331
 21
19330.4817
 31
0.0
  0
LINE
  5
13406
  8
2-0
  6
CONTINUOUS
 62
     6
 10
22359.801878817329
 20
19228.92249999995
 30
0.0
 11
22486.283218817331
 21
19330.4817
 31
0.0
  0
LINE
  5
13407
  8
2-0
  6
CONTINUOUS
 62
     6
 10
22359.801878817329
 20
19228.92249999995
 30
0.0
 11
22333.695987817329
 21
19275.435247999991
 31
0.0
  0
LINE
  5
134F3
  8
0-1
  6
CONTINUOUS
 62
     3
 10
20716.778243817389
 20
8132.6883740000048
 30
0.0
 11
23199.281674817368
 21
8132.6883740000048
 31
0.0
  0
LINE
  5
134F4
  8
0-1
  6
CONTINUOUS
 62
     3
 10
20716.778243817389
 20
8326.1887430000061
 30
0.0
 11
23199.281674817368
 21
8326.1887430000061
 31
0.0
  0
LINE
  5
134F5
  8
0-1
  6
CONTINUOUS
 62
     3
 10
20588.781938817359
 20
8264.002661999999
 30
0.0
 11
20588.781938817359
 21
8589.6883999999973
 31
0.0
  0
LINE
  5
134F6
  8
0-1
  6
CONTINUOUS
 62
     3
 10
23284.280223817372
 20
8459.6884660000014
 30
0.0
 11
20588.781938817359
 21
8459.6884660000014
 31
0.0
  0
LINE
  5
134F7
  8
0-1
  6
CONTINUOUS
 62
     3
 10
20588.781938817359
 20
8589.6883999999973
 30
0.0
 11
23264.283126817369
 21
8589.6883999999973
 31
0.0
  0
LINE
  5
134F8
  8
0-1
  6
CONTINUOUS
 62
     3
 10
23291.780619817378
 20
6241.1883740000048
 30
0.0
 11
23191.781278817369
 21
6241.1883740000048
 31
0.0
  0
LINE
  5
134F9
  8
0-1
  6
CONTINUOUS
 62
     3
 10
23191.781278817369
 20
6241.1883740000048
 30
0.0
 11
23191.781278817369
 21
6141.1885390000007
 31
0.0
  0
LINE
  5
134FA
  8
0-1
  6
CONTINUOUS
 62
     3
 10
23291.780619817378
 20
6141.1885390000007
 30
0.0
 11
23291.780619817378
 21
6241.1883740000048
 31
0.0
  0
LINE
  5
134FB
  8
0-1
  6
CONTINUOUS
 62
     3
 10
23199.281674817368
 20
8459.6884660000014
 30
0.0
 11
23199.281674817368
 21
6241.1883740000048
 31
0.0
  0
LINE
  5
134FC
  8
0-1
  6
CONTINUOUS
 62
     3
 10
23147.78193881737
 20
8132.6883740000048
 30
0.0
 11
23147.78193881737
 21
6141.1885390000007
 31
0.0
  0
LINE
  5
134FD
  8
0-1
  6
CONTINUOUS
 62
     3
 10
23264.283126817369
 20
8589.6883999999973
 30
0.0
 11
23264.283126817369
 21
6241.1883740000048
 31
0.0
  0
LINE
  5
134FE
  8
0-1
  6
CONTINUOUS
 62
     3
 10
23284.281938817388
 20
8459.6884660000014
 30
0.0
 11
23284.281938817388
 21
6241.1883740000048
 31
0.0
  0
LINE
  5
134FF
  8
0-1
  6
CONTINUOUS
 62
     3
 10
20588.781938817359
 20
8264.0026620000008
 30
0.0
 11
20631.781938817359
 21
8264.002661999999
 31
0.0
  0
LINE
  5
13500
  8
0-1
  6
CONTINUOUS
 62
     3
 10
20624.279299817379
 20
6241.1883740000048
 30
0.0
 11
20724.278639817388
 21
6241.1883740000048
 31
0.0
  0
LINE
  5
13501
  8
0-1
  6
CONTINUOUS
 62
     3
 10
20724.278639817388
 20
6241.1883740000048
 30
0.0
 11
20724.278639817388
 21
6141.1885390000007
 31
0.0
  0
LINE
  5
13502
  8
0-1
  6
CONTINUOUS
 62
     3
 10
20624.279299817379
 20
6141.1885390000007
 30
0.0
 11
20624.279299817379
 21
6241.1883740000048
 31
0.0
  0
LINE
  5
13503
  8
0-1
  6
CONTINUOUS
 62
     3
 10
20768.28193881737
 20
8132.6883740000048
 30
0.0
 11
20768.28193881737
 21
6141.1885390000007
 31
0.0
  0
LINE
  5
13504
  8
0-1
  6
CONTINUOUS
 62
     3
 10
20716.778243817389
 20
8459.6884660000014
 30
0.0
 11
20716.778243817389
 21
6241.1883740000048
 31
0.0
  0
LINE
  5
13505
  8
0-1
  6
CONTINUOUS
 62
     3
 10
20651.778771817379
 20
8589.6883999999973
 30
0.0
 11
20651.778771817379
 21
6241.1883740000048
 31
0.0
  0
LINE
  5
13506
  8
0-1
  6
CONTINUOUS
 62
     3
 10
20631.781938817359
 20
8459.6884660000014
 30
0.0
 11
20631.781938817359
 21
6241.1883740000048
 31
0.0
  0
LINE
  5
13507
  8
0-1
  6
CONTINUOUS
 62
     3
 10
20768.28193881737
 20
6661.1892650000009
 30
0.0
 11
23147.78193881737
 21
6661.1892650000009
 31
0.0
  0
LINE
  5
13508
  8
0-1
  6
CONTINUOUS
 62
     3
 10
20768.28193881737
 20
6596.1888030000027
 30
0.0
 11
23147.78193881737
 21
6596.1888030000027
 31
0.0
  0
LINE
  5
13509
  8
0-1
  6
CONTINUOUS
 62
     3
 10
20768.28193881737
 20
6531.1888360000012
 30
0.0
 11
23147.78193881737
 21
6531.1888360000012
 31
0.0
  0
LINE
  5
1350A
  8
0-1
  6
CONTINUOUS
 62
     3
 10
20768.28193881737
 20
6466.1883740000048
 30
0.0
 11
23147.78193881737
 21
6466.1883740000048
 31
0.0
  0
LINE
  5
1350B
  8
0-1
  6
CONTINUOUS
 62
     3
 10
20768.28193881737
 20
6401.1889020000099
 30
0.0
 11
23147.78193881737
 21
6401.1889020000099
 31
0.0
  0
LINE
  5
1350C
  8
0-1
  6
CONTINUOUS
 62
     3
 10
20768.28193881737
 20
6336.1889350000083
 30
0.0
 11
23147.78193881737
 21
6336.1889350000083
 31
0.0
  0
LINE
  5
1350D
  8
0-1
  6
CONTINUOUS
 62
     3
 10
20768.28193881737
 20
6271.1889680000013
 30
0.0
 11
23147.78193881737
 21
6271.1889680000013
 31
0.0
  0
LINE
  5
1350E
  8
0-1
  6
CONTINUOUS
 62
     3
 10
20768.28193881737
 20
6206.1885060000059
 30
0.0
 11
23147.78193881737
 21
6206.1885060000059
 31
0.0
  0
LINE
  5
1350F
  8
0-1
  6
CONTINUOUS
 62
     3
 10
20768.28193881737
 20
8026.1885720000073
 30
0.0
 11
23147.78193881737
 21
8026.1885720000073
 31
0.0
  0
LINE
  5
13510
  8
0-1
  6
CONTINUOUS
 62
     3
 10
20768.28193881737
 20
7961.1886050000048
 30
0.0
 11
23147.78193881737
 21
7961.1886050000048
 31
0.0
  0
LINE
  5
13511
  8
0-1
  6
CONTINUOUS
 62
     3
 10
20768.28193881737
 20
7896.1891330000062
 30
0.0
 11
23147.78193881737
 21
7896.1891330000062
 31
0.0
  0
LINE
  5
13512
  8
0-1
  6
CONTINUOUS
 62
     3
 10
20768.28193881737
 20
7831.1891659999974
 30
0.0
 11
23147.78193881737
 21
7831.1891659999974
 31
0.0
  0
LINE
  5
13513
  8
0-1
  6
CONTINUOUS
 62
     3
 10
20768.28193881737
 20
7766.1891990000067
 30
0.0
 11
23147.78193881737
 21
7766.1891990000067
 31
0.0
  0
LINE
  5
13514
  8
0-1
  6
CONTINUOUS
 62
     3
 10
20768.28193881737
 20
7701.1887370000059
 30
0.0
 11
23147.78193881737
 21
7701.1887370000059
 31
0.0
  0
LINE
  5
13515
  8
0-1
  6
CONTINUOUS
 62
     3
 10
20768.28193881737
 20
7636.1887700000007
 30
0.0
 11
23147.78193881737
 21
7636.1887700000007
 31
0.0
  0
LINE
  5
13516
  8
0-1
  6
CONTINUOUS
 62
     3
 10
20768.28193881737
 20
7571.1892980000039
 30
0.0
 11
23147.78193881737
 21
7571.1892980000039
 31
0.0
  0
LINE
  5
13517
  8
0-1
  6
CONTINUOUS
 62
     3
 10
20768.28193881737
 20
7506.1893310000014
 30
0.0
 11
23147.78193881737
 21
7506.1893310000014
 31
0.0
  0
LINE
  5
13518
  8
0-1
  6
CONTINUOUS
 62
     3
 10
20768.28193881737
 20
7441.1888690000051
 30
0.0
 11
23147.78193881737
 21
7441.1888690000051
 31
0.0
  0
LINE
  5
13519
  8
0-1
  6
CONTINUOUS
 62
     3
 10
20768.28193881737
 20
7376.1889020000017
 30
0.0
 11
23147.78193881737
 21
7376.1889020000017
 31
0.0
  0
LINE
  5
1351A
  8
0-1
  6
CONTINUOUS
 62
     3
 10
20768.28193881737
 20
7311.1889350000074
 30
0.0
 11
23147.78193881737
 21
7311.1889350000074
 31
0.0
  0
LINE
  5
1351B
  8
0-1
  6
CONTINUOUS
 62
     3
 10
20768.28193881737
 20
7246.1884730000011
 30
0.0
 11
23147.78193881737
 21
7246.1884730000011
 31
0.0
  0
LINE
  5
1351C
  8
0-1
  6
CONTINUOUS
 62
     3
 10
20768.28193881737
 20
7181.1885059999986
 30
0.0
 11
23147.78193881737
 21
7181.1885059999986
 31
0.0
  0
LINE
  5
1351D
  8
0-1
  6
CONTINUOUS
 62
     3
 10
20768.28193881737
 20
7116.1890340000036
 30
0.0
 11
23147.78193881737
 21
7116.1890340000036
 31
0.0
  0
LINE
  5
1351E
  8
0-1
  6
CONTINUOUS
 62
     3
 10
20768.28193881737
 20
7051.1890669999966
 30
0.0
 11
23147.78193881737
 21
7051.1890669999966
 31
0.0
  0
LINE
  5
1351F
  8
0-1
  6
CONTINUOUS
 62
     3
 10
20768.28193881737
 20
6986.1891000000032
 30
0.0
 11
23147.78193881737
 21
6986.1891000000032
 31
0.0
  0
LINE
  5
13520
  8
0-1
  6
CONTINUOUS
 62
     3
 10
20768.28193881737
 20
6921.1886380000069
 30
0.0
 11
23147.78193881737
 21
6921.1886380000069
 31
0.0
  0
LINE
  5
13521
  8
0-1
  6
CONTINUOUS
 62
     3
 10
20768.28193881737
 20
6856.1886710000017
 30
0.0
 11
23147.78193881737
 21
6856.1886710000017
 31
0.0
  0
LINE
  5
13522
  8
0-1
  6
CONTINUOUS
 62
     3
 10
20768.28193881737
 20
6791.1891990000013
 30
0.0
 11
23147.78193881737
 21
6791.1891990000013
 31
0.0
  0
LINE
  5
13523
  8
0-1
  6
CONTINUOUS
 62
     3
 10
20768.28193881737
 20
6726.1892320000024
 30
0.0
 11
23147.78193881737
 21
6726.1892320000024
 31
0.0
  0
LINE
  5
13524
  8
0-1
  6
CONTINUOUS
 62
     3
 10
20768.28193881737
 20
8080.6485920000059
 30
0.0
 11
23147.78193881737
 21
8080.6485920000059
 31
0.0
  0
LINE
  5
13525
  8
0-1
  6
CONTINUOUS
 62
     3
 10
20227.29143125478
 20
6141.1885390000007
 30
0.0
 11
26256.272446379979
 21
6141.1885390000007
 31
0.0
  0
LINE
  5
13526
  8
0-1
  6
CONTINUOUS
 62
     3
 10
20742.781199817389
 20
8335.1891199999991
 30
0.0
 11
21020.21072981738
 21
8335.1891199999991
 31
0.0
  0
LINE
  5
13527
  8
0-1
  6
CONTINUOUS
 62
     3
 10
20742.781199817389
 20
8377.188565000004
 30
0.0
 11
21052.207667817391
 21
8377.188565000004
 31
0.0
  0
LINE
  5
13528
  8
0-1
  6
CONTINUOUS
 62
     3
 10
20737.780936817391
 20
8340.1888889999973
 30
0.0
 11
20737.780936817391
 21
8372.1892910000042
 31
0.0
  0
LINE
  5
13529
  8
0-1
  6
CONTINUOUS
 62
     3
 10
20716.778243817389
 20
8386.1884470000005
 30
0.0
 11
23199.281674817368
 21
8386.1884470000005
 31
0.0
  0
LINE
  5
1352A
  8
0-1
  6
CONTINUOUS
 62
     3
 10
21023.74416981739
 20
8336.6529740000042
 30
0.0
 11
21055.745067817359
 21
8368.653376000002
 31
0.0
  0
LINE
  5
1352B
  8
0-1
  6
CONTINUOUS
 62
     3
 10
20737.780936817391
 20
8368.7889730000043
 30
0.0
 11
21055.873735817371
 21
8368.7889730000043
 31
0.0
  0
LINE
  5
1352C
  8
0-1
  6
CONTINUOUS
 62
     3
 10
20737.780936817391
 20
8360.3888860000006
 30
0.0
 11
21047.480577817409
 21
8360.3888860000006
 31
0.0
  0
LINE
  5
1352D
  8
0-1
  6
CONTINUOUS
 62
     3
 10
20737.780936817391
 20
8351.9892940000082
 30
0.0
 11
21039.081479817381
 21
8351.9892940000082
 31
0.0
  0
LINE
  5
1352E
  8
0-1
  6
CONTINUOUS
 62
     3
 10
20737.780936817391
 20
8343.5892070000064
 30
0.0
 11
21030.67842381739
 21
8343.5892070000064
 31
0.0
  0
LINE
  5
1352F
  8
0-1
  6
CONTINUOUS
 62
     3
 10
23178.280962817371
 20
8368.7889730000043
 30
0.0
 11
22860.18816281738
 21
8368.7889730000043
 31
0.0
  0
LINE
  5
13530
  8
0-1
  6
CONTINUOUS
 62
     3
 10
23178.280962817371
 20
8360.3888860000006
 30
0.0
 11
22868.583300817369
 21
8360.3888860000006
 31
0.0
  0
LINE
  5
13531
  8
0-1
  6
CONTINUOUS
 62
     3
 10
23178.280962817371
 20
8351.9892940000082
 30
0.0
 11
22876.98239781737
 21
8351.9892940000082
 31
0.0
  0
LINE
  5
13532
  8
0-1
  6
CONTINUOUS
 62
     3
 10
23178.280962817371
 20
8343.5892070000064
 30
0.0
 11
22885.381495817372
 21
8343.5892070000064
 31
0.0
  0
LINE
  5
13533
  8
0-1
  6
CONTINUOUS
 62
     3
 10
23173.28069881738
 20
8377.188565000004
 30
0.0
 11
22863.854230817371
 21
8377.188565000004
 31
0.0
  0
LINE
  5
13534
  8
0-1
  6
CONTINUOUS
 62
     3
 10
23173.28069881738
 20
8335.1891199999991
 30
0.0
 11
22895.851169817372
 21
8335.1891199999991
 31
0.0
  0
LINE
  5
13535
  8
0-1
  6
CONTINUOUS
 62
     3
 10
23178.280962817371
 20
8340.1888889999973
 30
0.0
 11
23178.280962817371
 21
8372.1892910000042
 31
0.0
  0
LINE
  5
13536
  8
0-1
  6
CONTINUOUS
 62
     3
 10
22892.315748817378
 20
8336.6529740000042
 30
0.0
 11
22860.318810817382
 21
8368.653376000002
 31
0.0
  0
LINE
  5
13537
  8
0-2
  6
CONTINUOUS
 62
     4
 10
22321.7199793174
 20
6888.4152329999988
 30
0.0
 11
22221.720639317391
 21
6888.4152329999988
 31
0.0
  0
LINE
  5
13538
  8
0-2
  6
CONTINUOUS
 62
     4
 10
21594.335979317391
 20
6888.4152329999988
 30
0.0
 11
21694.335319317372
 21
6888.4152329999988
 31
0.0
  0
LINE
  5
13539
  8
0-5
  6
CONTINUOUS
 62
     4
 10
23241.781938817381
 20
4461.1889349999938
 30
0.0
 11
23241.781938817381
 21
4301.1893970000028
 31
0.0
  0
LINE
  5
1353A
  8
0-5
  6
CONTINUOUS
 62
     4
 10
20674.28193881737
 20
4461.1889349999938
 30
0.0
 11
20674.28193881737
 21
4301.1893970000028
 31
0.0
  0
LINE
  5
1353B
  8
2-0
  6
CENTER2
 62
     6
 10
23241.781938817381
 20
5878.536116000002
 30
0.0
 11
23241.781938817381
 21
6915.6791430000012
 31
0.0
  0
LINE
  5
1353C
  8
2-0
  6
CENTER2
 62
     6
 10
20674.28193881737
 20
5878.536116000002
 30
0.0
 11
20674.28193881737
 21
6915.6791430000012
 31
0.0
  0
ARC
  5
1353D
  8
0-1
  6
CONTINUOUS
 62
     3
 10
20742.781199817389
 20
8372.1892910000042
 30
0.0
 40
5.0
 50
90.0
 51
180.0
  0
ARC
  5
1353E
  8
0-1
  6
CONTINUOUS
 62
     3
 10
20742.781199817389
 20
8340.1888889999973
 30
0.0
 40
5.0
 50
180.0
 51
269.9999850001808
  0
ARC
  5
1353F
  8
0-1
  6
CONTINUOUS
 62
     3
 10
21020.21072981738
 20
8340.1888889999973
 30
0.0
 40
5.0
 50
269.9999850001808
 51
314.99998500027471
  0
ARC
  5
13540
  8
0-1
  6
CONTINUOUS
 62
     3
 10
21052.207667817391
 20
8372.1892910000042
 30
0.0
 40
5.0
 50
314.99998500027471
 51
90.0
  0
ARC
  5
13541
  8
0-1
  6
CONTINUOUS
 62
     3
 10
23173.28069881738
 20
8340.1888889999973
 30
0.0
 40
5.0
 50
269.9999850001808
 51
0.0
  0
ARC
  5
13542
  8
0-1
  6
CONTINUOUS
 62
     3
 10
23173.28069881738
 20
8372.1892910000042
 30
0.0
 40
5.0
 50
0.0
 51
90.0
  0
ARC
  5
13543
  8
0-1
  6
CONTINUOUS
 62
     3
 10
22863.854230817371
 20
8372.1892910000042
 30
0.0
 40
5.0
 50
90.0
 51
224.99998499997989
  0
ARC
  5
13544
  8
0-1
  6
CONTINUOUS
 62
     3
 10
22895.851169817372
 20
8340.1888889999973
 30
0.0
 40
5.0
 50
224.99998499997989
 51
269.9999850001808
  0
CIRCLE
  5
13545
  8
0-5
  6
CONTINUOUS
 62
     4
 10
23241.781938817381
 20
4101.1882420000047
 30
0.0
 40
199.9999949999999
  0
CIRCLE
  5
13546
  8
0-5
  6
CONTINUOUS
 62
     4
 10
20674.28193881737
 20
4101.1882420000047
 30
0.0
 40
199.9999949999999
  0
TEXT
  5
13547
  8
0-5
  6
CONTINUOUS
 62
     7
 10
23189.869063817379
 20
4011.7132600000041
 30
0.0
 40
160.0
  1
2
 72
     4
 11
23243.202397150711
 21
4091.713260000005
 31
0.0
  0
TEXT
  5
13548
  8
0-5
  6
CONTINUOUS
 62
     7
 10
20079.247105921531
 20
7195.369097493548
 30
0.0
 40
160.0
  1
(2131.5)
 50
90.0
 72
     4
 11
19999.247105921531
 21
7648.702430826881
 31
0.0
  0
TEXT
  5
13549
  8
0-5
  6
CONTINUOUS
 62
     7
 10
20647.615272150699
 20
4021.1882420000038
 30
0.0
 40
160.0
  1
1
 72
     4
 11
20674.28193881737
 21
4101.1882420000047
 31
0.0
  0
CIRCLE
  5
1354A
  8
0-4
  6
CONTINUOUS
 62
     4
 10
21958.029959317391
 20
6627.2449750000023
 30
0.0
 40
18.487504999999981
  0
LINE
  5
1354B
  8
1-前柱カバ-P
 10
25999.281938817388
 20
8459.6884660000014
 30
0.0
 11
25999.281938817388
 21
6141.1885390000007
 31
0.0
  0
LINE
  5
1354C
  8
1-前柱カバ-P
 10
26084.281938817388
 20
8589.6883999999973
 30
0.0
 11
26084.281938817388
 21
6141.1885390000007
 31
0.0
  0
LINE
  5
1354D
  8
0-1
  6
CONTINUOUS
 62
     3
 10
26127.281938817388
 20
8459.6884660000087
 30
0.0
 11
23199.281674817368
 21
8459.6884660000014
 31
0.0
  0
LINE
  5
1354E
  8
0-1
  6
CONTINUOUS
 62
     3
 10
23264.283126817369
 20
8589.6883999999973
 30
0.0
 11
26127.281938817388
 21
8589.6883999999973
 31
0.0
  0
LINE
  5
1354F
  8
0-1
  6
CONTINUOUS
 62
     3
 10
26127.281938817388
 20
8264.0026620000062
 30
0.0
 11
26127.281938817388
 21
8589.6883999999973
 31
0.0
  0
LINE
  5
13550
  8
0-1
  6
CONTINUOUS
 62
     3
 10
26127.281938817388
 20
8264.0026620000062
 30
0.0
 11
26084.281938817388
 21
8264.0026620000062
 31
0.0
  0
LINE
  5
13551
  8
2-0
  6
CENTER2
 62
     6
 10
26041.781938817388
 20
5878.536116000002
 30
0.0
 11
26041.781938817388
 21
6915.6791430000012
 31
0.0
  0
LINE
  5
13552
  8
1-桁前P28
 10
25999.281938817388
 20
8262.0026620000044
 30
0.0
 11
23284.281938817388
 21
8262.0026620000044
 31
0.0
  0
LINE
  5
13553
  8
0-5
  6
CONTINUOUS
 62
     4
 10
26041.781938817388
 20
4461.1889349999938
 30
0.0
 11
26041.781938817388
 21
4301.1893970000028
 31
0.0
  0
CIRCLE
  5
13554
  8
0-5
  6
CONTINUOUS
 62
     4
 10
26041.781938817388
 20
4101.1882420000047
 30
0.0
 40
199.9999949999999
  0
TEXT
  5
13555
  8
0-5
  6
CONTINUOUS
 62
     7
 10
25989.86906381739
 20
4011.7132600000041
 30
0.0
 40
160.0
  1
3
 72
     4
 11
26043.202397150719
 21
4091.713260000005
 31
0.0
  0
TEXT
  5
13556
  8
0-5
  6
CONTINUOUS
 62
     7
 10
27533.555348146761
 20
7235.7652940582439
 30
0.0
 40
160.0
  1
(2260)
 50
90.0
 72
     4
 11
27453.555348146761
 21
7622.4319607249108
 31
0.0
  0
LINE
  5
13557
  8
SUNPOU
  6
CONTINUOUS
 62
     4
 10
20588.781938817359
 20
8669.6883999999991
 30
0.0
 11
20588.781938817359
 21
9869.1329740000092
 31
0.0
  0
LINE
  5
13558
  8
SUNPOU
  6
CONTINUOUS
 62
     4
 10
26127.281938817388
 20
8669.6883999999991
 30
0.0
 11
26127.281938817388
 21
9869.1329740000092
 31
0.0
  0
LINE
  5
13559
  8
SUNPOU
  6
CONTINUOUS
 62
     4
 10
20591.781938817359
 20
9789.1329740000092
 30
0.0
 11
26124.281938817388
 21
9789.1329740000092
 31
0.0
  0
LINE
  5
1355A
  8
SUNPOU
  6
CONTINUOUS
 62
     4
 10
26084.281938817388
 20
8669.6883999999991
 30
0.0
 11
26084.281938817388
 21
9469.1900500000029
 31
0.0
  0
LINE
  5
1355B
  8
SUNPOU
  6
CONTINUOUS
 62
     4
 10
26084.281938817388
 20
9389.1900500000029
 30
0.0
 11
25844.281938817388
 21
9389.1900500000029
 31
0.0
  0
LINE
  5
1355C
  8
SUNPOU
  6
CONTINUOUS
 62
     4
 10
26127.281938817388
 20
9389.1900500000029
 30
0.0
 11
26367.281938817388
 21
9389.1900500000029
 31
0.0
  0
LINE
  5
1355D
  8
SUNPOU
  6
CONTINUOUS
 62
     4
 10
26084.281938817388
 20
9389.1900500000029
 30
0.0
 11
26124.281938817388
 21
9389.1900500000029
 31
0.0
  0
LINE
  5
1355E
  8
SUNPOU
  6
CONTINUOUS
 62
     4
 10
20631.781938817359
 20
8539.6884659999996
 30
0.0
 11
20631.781938817359
 21
9469.1900500000029
 31
0.0
  0
LINE
  5
1355F
  8
SUNPOU
  6
CONTINUOUS
 62
     4
 10
20588.781938817359
 20
8669.6883999999991
 30
0.0
 11
20588.781938817359
 21
9469.1900500000029
 31
0.0
  0
LINE
  5
13560
  8
SUNPOU
  6
CONTINUOUS
 62
     4
 10
20631.781938817359
 20
9389.1900500000029
 30
0.0
 11
20871.78193881737
 21
9389.1900500000029
 31
0.0
  0
LINE
  5
13561
  8
SUNPOU
  6
CONTINUOUS
 62
     4
 10
20591.781938817359
 20
9389.1900500000029
 30
0.0
 11
20351.78193881737
 21
9389.1900500000029
 31
0.0
  0
LINE
  5
13562
  8
SUNPOU
  6
CONTINUOUS
 62
     4
 10
20631.781938817359
 20
9389.1900500000029
 30
0.0
 11
20591.781938817359
 21
9389.1900500000029
 31
0.0
  0
LINE
  5
13563
  8
SUNPOU
  6
CONTINUOUS
 62
     4
 10
23284.281938817388
 20
8539.6884659999996
 30
0.0
 11
23284.281938817388
 21
9469.1900500000029
 31
0.0
  0
LINE
  5
13564
  8
SUNPOU
  6
CONTINUOUS
 62
     4
 10
20631.781938817359
 20
8539.6884659999996
 30
0.0
 11
20631.781938817359
 21
9469.1900500000029
 31
0.0
  0
LINE
  5
13565
  8
SUNPOU
  6
CONTINUOUS
 62
     4
 10
23284.281938817388
 20
9389.1900500000029
 30
0.0
 11
20631.781938817359
 21
9389.1900500000029
 31
0.0
  0
LINE
  5
13566
  8
SUNPOU
  6
CONTINUOUS
 62
     4
 10
20544.279299817379
 20
6241.1883740000048
 30
0.0
 11
19101.179688112639
 21
6241.1883740000048
 31
0.0
  0
LINE
  5
13567
  8
SUNPOU
  6
CONTINUOUS
 62
     4
 10
20511.78193881737
 20
8590.1883999999991
 30
0.0
 11
19101.179688112639
 21
8590.1883999999991
 31
0.0
  0
LINE
  5
13568
  8
SUNPOU
  6
CONTINUOUS
 62
     4
 10
19181.179688112639
 20
6241.1883740000048
 30
0.0
 11
19181.179688112639
 21
8590.1883999999991
 31
0.0
  0
LINE
  5
13569
  8
SUNPOU
  6
CONTINUOUS
 62
     4
 10
20544.279299817379
 20
6241.1883740000048
 30
0.0
 11
19744.278639817381
 21
6241.1883740000048
 31
0.0
  0
LINE
  5
1356A
  8
SUNPOU
  6
CONTINUOUS
 62
     4
 10
20636.778243817389
 20
8132.6883740000048
 30
0.0
 11
19744.278639817381
 21
8132.6883740000048
 31
0.0
  0
LINE
  5
1356B
  8
SUNPOU
  6
CONTINUOUS
 62
     4
 10
19824.278639817381
 20
6241.1883740000048
 30
0.0
 11
19824.278639817381
 21
8132.6883740000048
 31
0.0
  0
LINE
  5
1356C
  8
SUNPOU
  6
CONTINUOUS
 62
     4
 10
23287.281938817381
 20
6161.1883740000048
 30
0.0
 11
23287.281938817381
 21
5261.1883740000048
 31
0.0
  0
LINE
  5
1356D
  8
SUNPOU
  6
CONTINUOUS
 62
     4
 10
25999.281938817388
 20
6061.1885390000034
 30
0.0
 11
25999.281938817388
 21
5261.1883740000048
 31
0.0
  0
LINE
  5
1356E
  8
SUNPOU
  6
CONTINUOUS
 62
     4
 10
23287.281938817381
 20
5341.1883740000048
 30
0.0
 11
25999.281938817388
 21
5341.1883740000048
 31
0.0
  0
LINE
  5
1356F
  8
SUNPOU
  6
CONTINUOUS
 62
     4
 10
20631.821891764921
 20
6161.1883740000048
 30
0.0
 11
20631.821891764921
 21
4461.1887040000574
 31
0.0
  0
LINE
  5
13570
  8
SUNPOU
  6
CONTINUOUS
 62
     4
 10
26084.281938817388
 20
6061.1885390000034
 30
0.0
 11
26084.281938817388
 21
4461.1887040000574
 31
0.0
  0
LINE
  5
13571
  8
SUNPOU
  6
CONTINUOUS
 62
     4
 10
20631.821891764921
 20
4541.1887040000593
 30
0.0
 11
26084.281938817388
 21
4541.1887040000593
 31
0.0
  0
LINE
  5
13572
  8
SUNPOU
  6
CONTINUOUS
 62
     4
 10
20674.28193881737
 20
5798.5361160000039
 30
0.0
 11
20674.28193881737
 21
4861.1885390000043
 31
0.0
  0
LINE
  5
13573
  8
SUNPOU
  6
CONTINUOUS
 62
     4
 10
20631.821891764921
 20
6161.1883740000048
 30
0.0
 11
20631.821891764921
 21
4861.1885390000043
 31
0.0
  0
LINE
  5
13574
  8
SUNPOU
  6
CONTINUOUS
 62
     4
 10
20674.28193881737
 20
4941.1885390000016
 30
0.0
 11
20914.28193881737
 21
4941.1885390000016
 31
0.0
  0
LINE
  5
13575
  8
SUNPOU
  6
CONTINUOUS
 62
     4
 10
20631.821891764921
 20
4941.1885390000016
 30
0.0
 11
20391.821891764921
 21
4941.1885390000016
 31
0.0
  0
LINE
  5
13576
  8
SUNPOU
  6
CONTINUOUS
 62
     4
 10
20674.28193881737
 20
4941.1885390000016
 30
0.0
 11
20631.821891764921
 21
4941.1885390000016
 31
0.0
  0
LINE
  5
13577
  8
SUNPOU
  6
CONTINUOUS
 62
     4
 10
23241.781938817381
 20
5798.5361160000039
 30
0.0
 11
23241.781938817381
 21
4861.1885390000043
 31
0.0
  0
LINE
  5
13578
  8
SUNPOU
  6
CONTINUOUS
 62
     4
 10
20674.28193881737
 20
5798.5361160000039
 30
0.0
 11
20674.28193881737
 21
4861.1885390000043
 31
0.0
  0
LINE
  5
13579
  8
SUNPOU
  6
CONTINUOUS
 62
     4
 10
23241.781938817381
 20
4941.1885390000016
 30
0.0
 11
20674.28193881737
 21
4941.1885390000016
 31
0.0
  0
LINE
  5
1357A
  8
SUNPOU
  6
CONTINUOUS
 62
     4
 10
20768.28193881737
 20
6061.1885390000034
 30
0.0
 11
20768.28193881737
 21
5261.1883740000048
 31
0.0
  0
LINE
  5
1357B
  8
SUNPOU
  6
CONTINUOUS
 62
     4
 10
23147.78193881737
 20
6061.1885390000034
 30
0.0
 11
23147.78193881737
 21
5261.1883740000048
 31
0.0
  0
LINE
  5
1357C
  8
SUNPOU
  6
CONTINUOUS
 62
     4
 10
20768.28193881737
 20
5341.1883740000048
 30
0.0
 11
23147.78193881737
 21
5341.1883740000048
 31
0.0
  0
LINE
  5
1357D
  8
SUNPOU
  6
CONTINUOUS
 62
     4
 10
26041.781938817388
 20
5798.5361160000039
 30
0.0
 11
26041.781938817388
 21
4861.1885390000043
 31
0.0
  0
LINE
  5
1357E
  8
SUNPOU
  6
CONTINUOUS
 62
     4
 10
26084.281938817388
 20
6061.1885390000034
 30
0.0
 11
26084.281938817388
 21
4861.1885390000043
 31
0.0
  0
LINE
  5
1357F
  8
SUNPOU
  6
CONTINUOUS
 62
     4
 10
26041.781938817388
 20
4941.1885390000016
 30
0.0
 11
25801.781938817388
 21
4941.1885390000016
 31
0.0
  0
LINE
  5
13580
  8
SUNPOU
  6
CONTINUOUS
 62
     4
 10
26084.281938817388
 20
4941.1885390000016
 30
0.0
 11
26324.281938817388
 21
4941.1885390000016
 31
0.0
  0
LINE
  5
13581
  8
SUNPOU
  6
CONTINUOUS
 62
     4
 10
26041.781938817388
 20
4941.1885390000016
 30
0.0
 11
26084.281938817388
 21
4941.1885390000016
 31
0.0
  0
LINE
  5
13582
  8
SUNPOU
  6
CONTINUOUS
 62
     4
 10
23241.781938817381
 20
5798.5361160000039
 30
0.0
 11
23241.781938817381
 21
4861.1885390000043
 31
0.0
  0
LINE
  5
13583
  8
SUNPOU
  6
CONTINUOUS
 62
     4
 10
26041.781938817388
 20
5798.5361160000039
 30
0.0
 11
26041.781938817388
 21
4861.1885390000043
 31
0.0
  0
LINE
  5
13584
  8
SUNPOU
  6
CONTINUOUS
 62
     4
 10
23241.781938817381
 20
4941.1885390000016
 30
0.0
 11
26041.781938817388
 21
4941.1885390000016
 31
0.0
  0
LINE
  5
13585
  8
SUNPOU
  6
CONTINUOUS
 62
     4
 10
23284.281938817388
 20
8539.6884659999996
 30
0.0
 11
23284.281938817388
 21
9469.1900500000029
 31
0.0
  0
LINE
  5
13586
  8
SUNPOU
  6
CONTINUOUS
 62
     4
 10
26084.281938817388
 20
8669.6883999999991
 30
0.0
 11
26084.281938817388
 21
9469.1900500000029
 31
0.0
  0
LINE
  5
13587
  8
SUNPOU
  6
CONTINUOUS
 62
     4
 10
23284.281938817388
 20
9389.1900500000029
 30
0.0
 11
26084.281938817388
 21
9389.1900500000029
 31
0.0
  0
LINE
  5
13588
  8
SUNPOU
  6
CONTINUOUS
 62
     4
 10
26164.281938817388
 20
6242.002662000009
 30
0.0
 11
27374.104337111759
 21
6242.0026620000108
 31
0.0
  0
LINE
  5
13589
  8
SUNPOU
  6
CONTINUOUS
 62
     4
 10
26204.281938817388
 20
8262.0026620000044
 30
0.0
 11
27374.104337111759
 21
8262.0026620000044
 31
0.0
  0
LINE
  5
1358A
  8
SUNPOU
  6
CONTINUOUS
 62
     4
 10
27294.104337111759
 20
6242.0026620000108
 30
0.0
 11
27294.104337111759
 21
8262.0026620000044
 31
0.0
  0
TEXT
  5
1358B
  8
0
  6
CONTINUOUS
 62
     7
 10
27214.104337111759
 20
6589.0026620000108
 30
0.0
 40
160.0
  1
有効高サ2020
 50
90.0
  0
TEXT
  5
1358C
  8
0
  6
CONTINUOUS
 62
     7
 10
24417.615272150721
 20
9469.1900500000029
 30
0.0
 40
160.0
  1
2800
  0
TEXT
  5
1358D
  8
0
  6
CONTINUOUS
 62
     7
 10
24375.115272150721
 20
5021.1885390000043
 30
0.0
 40
160.0
  1
2800
  0
TEXT
  5
1358E
  8
0
  6
CONTINUOUS
 62
     7
 10
26204.282598817379
 20
5021.1883080000061
 30
0.0
 40
160.0
  1
42.5
  0
TEXT
  5
1358F
  8
0
  6
CONTINUOUS
 62
     7
 10
21078.03193881737
 20
5421.1883740000048
 30
0.0
 40
160.0
  1
有効開口巾2379.5
  0
TEXT
  5
13590
  8
0
  6
CONTINUOUS
 62
     7
 10
21558.03193881737
 20
5021.1885390000043
 30
0.0
 40
160.0
  1
2567.5
  0
TEXT
  5
13591
  8
0
  6
CONTINUOUS
 62
     7
 10
20051.95890781737
 20
5028.7357170000014
 30
0.0
 40
160.0
  1
42.5
  0
TEXT
  5
13592
  8
0
  6
CONTINUOUS
 62
     7
 10
22958.051915291158
 20
4621.188704000052
 30
0.0
 40
160.0
  1
5452.5
  0
TEXT
  5
13593
  8
0
  6
CONTINUOUS
 62
     7
 10
23896.615272150721
 20
5421.1883740000048
 30
0.0
 40
160.0
  1
有効開口巾2712
  0
TEXT
  5
13594
  8
0
  6
CONTINUOUS
 62
     7
 10
19744.278639817381
 20
6264.2717073333424
 30
0.0
 40
160.0
  1
有効開口高サ1891.5
 50
90.0
  0
TEXT
  5
13595
  8
0
  6
CONTINUOUS
 62
     7
 10
19101.179688112639
 20
6610.3550536666726
 30
0.0
 40
160.0
  1
2349（2589）
 50
90.0
  0
TEXT
  5
13596
  8
0
  6
CONTINUOUS
 62
     7
 10
21558.03193881737
 20
9469.1900500000029
 30
0.0
 40
160.0
  1
2652.5
  0
TEXT
  5
13597
  8
0
  6
CONTINUOUS
 62
     7
 10
20235.307286150699
 20
9469.1893240000081
 30
0.0
 40
160.0
  1
43
  0
TEXT
  5
13598
  8
0
  6
CONTINUOUS
 62
     7
 10
26238.081092150722
 20
9469.1893240000081
 30
0.0
 40
160.0
  1
43
  0
TEXT
  5
13599
  8
0
  6
CONTINUOUS
 62
     7
 10
22958.031938817381
 20
9869.1329740000092
 30
0.0
 40
160.0
  1
5538.5
  0
ARC
  5
1359A
  8
0
  6
BYBLOCK
 62
     0
 10
20588.781938817359
 20
9789.1329740000092
 30
0.0
 40
15.0
 50
180.0
 51
0.0
  0
ARC
  5
1359B
  8
0
  6
BYBLOCK
 62
     0
 10
20588.781938817359
 20
9789.1329740000092
 30
0.0
 40
15.0
 50
0.0
 51
180.0
  0
ARC
  5
1359C
  8
0
  6
BYBLOCK
 62
     0
 10
26127.281938817388
 20
9789.1329740000092
 30
0.0
 40
15.0
 50
0.0
 51
180.0
  0
ARC
  5
1359D
  8
0
  6
BYBLOCK
 62
     0
 10
26127.281938817388
 20
9789.1329740000092
 30
0.0
 40
15.0
 50
180.0
 51
0.0
  0
ARC
  5
1359E
  8
0
  6
BYBLOCK
 62
     0
 10
26084.281938817388
 20
9389.1900500000029
 30
0.0
 40
15.0
 50
0.0
 51
180.0
  0
ARC
  5
1359F
  8
0
  6
BYBLOCK
 62
     0
 10
26084.281938817388
 20
9389.1900500000029
 30
0.0
 40
15.0
 50
180.0
 51
0.0
  0
ARC
  5
135A0
  8
0
  6
BYBLOCK
 62
     0
 10
26127.281938817388
 20
9389.1900500000029
 30
0.0
 40
15.0
 50
180.0
 51
0.0
  0
ARC
  5
135A1
  8
0
  6
BYBLOCK
 62
     0
 10
26127.281938817388
 20
9389.1900500000029
 30
0.0
 40
15.0
 50
0.0
 51
180.0
  0
ARC
  5
135A2
  8
0
  6
BYBLOCK
 62
     0
 10
20631.781938817359
 20
9389.1900500000029
 30
0.0
 40
15.0
 50
180.0
 51
0.0
  0
ARC
  5
135A3
  8
0
  6
BYBLOCK
 62
     0
 10
20631.781938817359
 20
9389.1900500000029
 30
0.0
 40
15.0
 50
0.0
 51
180.0
  0
ARC
  5
135A4
  8
0
  6
BYBLOCK
 62
     0
 10
20588.781938817359
 20
9389.1900500000029
 30
0.0
 40
15.0
 50
0.0
 51
180.0
  0
ARC
  5
135A5
  8
0
  6
BYBLOCK
 62
     0
 10
20588.781938817359
 20
9389.1900500000029
 30
0.0
 40
15.0
 50
180.0
 51
0.0
  0
ARC
  5
135A6
  8
0
  6
BYBLOCK
 62
     0
 10
23284.281938817388
 20
9389.1900500000029
 30
0.0
 40
15.0
 50
0.0
 51
180.0
  0
ARC
  5
135A7
  8
0
  6
BYBLOCK
 62
     0
 10
23284.281938817388
 20
9389.1900500000029
 30
0.0
 40
15.0
 50
180.0
 51
0.0
  0
ARC
  5
135A8
  8
0
  6
BYBLOCK
 62
     0
 10
20631.781938817359
 20
9389.1900500000029
 30
0.0
 40
15.0
 50
180.0
 51
0.0
  0
ARC
  5
135A9
  8
0
  6
BYBLOCK
 62
     0
 10
20631.781938817359
 20
9389.1900500000029
 30
0.0
 40
15.0
 50
0.0
 51
180.0
  0
ARC
  5
135AA
  8
0
  6
BYBLOCK
 62
     0
 10
19181.179688112639
 20
6241.1883740000048
 30
0.0
 40
15.0
 50
270.0
 51
90.0
  0
ARC
  5
135AB
  8
0
  6
BYBLOCK
 62
     0
 10
19181.179688112639
 20
6241.1883740000048
 30
0.0
 40
15.0
 50
90.0
 51
270.0
  0
ARC
  5
135AC
  8
0
  6
BYBLOCK
 62
     0
 10
19181.179688112639
 20
8590.1883999999991
 30
0.0
 40
15.0
 50
90.0
 51
270.0
  0
ARC
  5
135AD
  8
0
  6
BYBLOCK
 62
     0
 10
19181.179688112639
 20
8590.1883999999991
 30
0.0
 40
15.0
 50
270.0
 51
90.0
  0
ARC
  5
135AE
  8
0
  6
BYBLOCK
 62
     0
 10
19824.278639817381
 20
6241.1883740000048
 30
0.0
 40
15.0
 50
270.0
 51
90.0
  0
ARC
  5
135AF
  8
0
  6
BYBLOCK
 62
     0
 10
19824.278639817381
 20
6241.1883740000048
 30
0.0
 40
15.0
 50
90.0
 51
270.0
  0
ARC
  5
135B0
  8
0
  6
BYBLOCK
 62
     0
 10
19824.278639817381
 20
8132.6883740000048
 30
0.0
 40
15.0
 50
90.0
 51
270.0
  0
ARC
  5
135B1
  8
0
  6
BYBLOCK
 62
     0
 10
19824.278639817381
 20
8132.6883740000048
 30
0.0
 40
15.0
 50
270.0
 51
90.0
  0
ARC
  5
135B2
  8
0
  6
BYBLOCK
 62
     0
 10
23287.281938817381
 20
5341.1883740000048
 30
0.0
 40
15.0
 50
180.0
 51
0.0
  0
ARC
  5
135B3
  8
0
  6
BYBLOCK
 62
     0
 10
23287.281938817381
 20
5341.1883740000048
 30
0.0
 40
15.0
 50
0.0
 51
180.0
  0
ARC
  5
135B4
  8
0
  6
BYBLOCK
 62
     0
 10
25999.281938817388
 20
5341.1883740000048
 30
0.0
 40
15.0
 50
0.0
 51
180.0
  0
ARC
  5
135B5
  8
0
  6
BYBLOCK
 62
     0
 10
25999.281938817388
 20
5341.1883740000048
 30
0.0
 40
15.0
 50
180.0
 51
0.0
  0
ARC
  5
135B6
  8
0
  6
BYBLOCK
 62
     0
 10
20631.821891764921
 20
4541.1887040000593
 30
0.0
 40
15.0
 50
180.0
 51
0.0
  0
ARC
  5
135B7
  8
0
  6
BYBLOCK
 62
     0
 10
20631.821891764921
 20
4541.1887040000593
 30
0.0
 40
15.0
 50
0.0
 51
180.0
  0
ARC
  5
135B8
  8
0
  6
BYBLOCK
 62
     0
 10
26084.281938817388
 20
4541.1887040000593
 30
0.0
 40
15.0
 50
0.0
 51
180.0
  0
ARC
  5
135B9
  8
0
  6
BYBLOCK
 62
     0
 10
26084.281938817388
 20
4541.1887040000593
 30
0.0
 40
15.0
 50
180.0
 51
0.0
  0
ARC
  5
135BA
  8
0
  6
BYBLOCK
 62
     0
 10
20674.28193881737
 20
4941.1885390000016
 30
0.0
 40
15.0
 50
180.0
 51
0.0
  0
ARC
  5
135BB
  8
0
  6
BYBLOCK
 62
     0
 10
20674.28193881737
 20
4941.1885390000016
 30
0.0
 40
15.0
 50
0.0
 51
180.0
  0
ARC
  5
135BC
  8
0
  6
BYBLOCK
 62
     0
 10
20631.821891764921
 20
4941.1885390000016
 30
0.0
 40
15.0
 50
0.0
 51
180.0
  0
ARC
  5
135BD
  8
0
  6
BYBLOCK
 62
     0
 10
20631.821891764921
 20
4941.1885390000016
 30
0.0
 40
15.0
 50
180.0
 51
0.0
  0
ARC
  5
135BE
  8
0
  6
BYBLOCK
 62
     0
 10
23241.781938817381
 20
4941.1885390000016
 30
0.0
 40
15.0
 50
0.0
 51
180.0
  0
ARC
  5
135BF
  8
0
  6
BYBLOCK
 62
     0
 10
23241.781938817381
 20
4941.1885390000016
 30
0.0
 40
15.0
 50
180.0
 51
0.0
  0
ARC
  5
135C0
  8
0
  6
BYBLOCK
 62
     0
 10
20674.28193881737
 20
4941.1885390000016
 30
0.0
 40
15.0
 50
180.0
 51
0.0
  0
ARC
  5
135C1
  8
0
  6
BYBLOCK
 62
     0
 10
20674.28193881737
 20
4941.1885390000016
 30
0.0
 40
15.0
 50
0.0
 51
180.0
  0
ARC
  5
135C2
  8
0
  6
BYBLOCK
 62
     0
 10
20768.28193881737
 20
5341.1883740000048
 30
0.0
 40
15.0
 50
180.0
 51
0.0
  0
ARC
  5
135C3
  8
0
  6
BYBLOCK
 62
     0
 10
20768.28193881737
 20
5341.1883740000048
 30
0.0
 40
15.0
 50
0.0
 51
180.0
  0
ARC
  5
135C4
  8
0
  6
BYBLOCK
 62
     0
 10
23147.78193881737
 20
5341.1883740000048
 30
0.0
 40
15.0
 50
0.0
 51
180.0
  0
ARC
  5
135C5
  8
0
  6
BYBLOCK
 62
     0
 10
23147.78193881737
 20
5341.1883740000048
 30
0.0
 40
15.0
 50
180.0
 51
0.0
  0
ARC
  5
135C6
  8
0
  6
BYBLOCK
 62
     0
 10
26041.781938817388
 20
4941.1885390000016
 30
0.0
 40
15.0
 50
0.0
 51
180.0
  0
ARC
  5
135C7
  8
0
  6
BYBLOCK
 62
     0
 10
26041.781938817388
 20
4941.1885390000016
 30
0.0
 40
15.0
 50
180.0
 51
0.0
  0
ARC
  5
135C8
  8
0
  6
BYBLOCK
 62
     0
 10
26084.281938817388
 20
4941.1885390000016
 30
0.0
 40
15.0
 50
180.0
 51
0.0
  0
ARC
  5
135C9
  8
0
  6
BYBLOCK
 62
     0
 10
26084.281938817388
 20
4941.1885390000016
 30
0.0
 40
15.0
 50
0.0
 51
180.0
  0
ARC
  5
135CA
  8
0
  6
BYBLOCK
 62
     0
 10
23241.781938817381
 20
4941.1885390000016
 30
0.0
 40
15.0
 50
180.0
 51
0.0
  0
ARC
  5
135CB
  8
0
  6
BYBLOCK
 62
     0
 10
23241.781938817381
 20
4941.1885390000016
 30
0.0
 40
15.0
 50
0.0
 51
180.0
  0
ARC
  5
135CC
  8
0
  6
BYBLOCK
 62
     0
 10
26041.781938817388
 20
4941.1885390000016
 30
0.0
 40
15.0
 50
0.0
 51
180.0
  0
ARC
  5
135CD
  8
0
  6
BYBLOCK
 62
     0
 10
26041.781938817388
 20
4941.1885390000016
 30
0.0
 40
15.0
 50
180.0
 51
0.0
  0
ARC
  5
135CE
  8
0
  6
BYBLOCK
 62
     0
 10
23284.281938817388
 20
9389.1900500000029
 30
0.0
 40
15.0
 50
180.0
 51
0.0
  0
ARC
  5
135CF
  8
0
  6
BYBLOCK
 62
     0
 10
23284.281938817388
 20
9389.1900500000029
 30
0.0
 40
15.0
 50
0.0
 51
180.0
  0
ARC
  5
135D0
  8
0
  6
BYBLOCK
 62
     0
 10
26084.281938817388
 20
9389.1900500000029
 30
0.0
 40
15.0
 50
0.0
 51
180.0
  0
ARC
  5
135D1
  8
0
  6
BYBLOCK
 62
     0
 10
26084.281938817388
 20
9389.1900500000029
 30
0.0
 40
15.0
 50
180.0
 51
0.0
  0
ARC
  5
135D2
  8
0
  6
BYBLOCK
 62
     0
 10
27294.104337111759
 20
6242.0026620000108
 30
0.0
 40
15.0
 50
270.0
 51
90.0
  0
ARC
  5
135D3
  8
0
  6
BYBLOCK
 62
     0
 10
27294.104337111759
 20
6242.0026620000108
 30
0.0
 40
15.0
 50
90.0
 51
270.0
  0
ARC
  5
135D4
  8
0
  6
BYBLOCK
 62
     0
 10
27294.104337111759
 20
8262.0026620000044
 30
0.0
 40
15.0
 50
90.0
 51
270.0
  0
ARC
  5
135D5
  8
0
  6
BYBLOCK
 62
     0
 10
27294.104337111759
 20
8262.0026620000044
 30
0.0
 40
15.0
 50
270.0
 51
90.0
  0
LINE
  5
1372F
  8
0-1
  6
CONTINUOUS
 62
     3
 10
7900.562841585941
 20
16684.98531599998
 30
0.0
 11
10468.06284158593
 21
16684.985315999998
 31
0.0
  0
LINE
  5
13730
  8
0-1
  6
CONTINUOUS
 62
     3
 10
10468.06284158593
 20
16684.985315999998
 30
0.0
 11
13040.43369235474
 21
16684.98531600002
 31
0.0
  0
LINE
  5
13731
  8
2-0
  6
DASHED3
 62
     6
 10
13040.43369235474
 20
16684.98531600002
 30
0.0
 11
13268.06284158593
 21
16684.98531600002
 31
0.0
  0
LINE
  5
13732
  8
0-1
  6
CONTINUOUS
 62
     3
 10
10415.06321058596
 20
14125.986358
 30
0.0
 11
10415.063210585929
 21
17768.233110581241
 31
0.0
  0
LINE
  5
13733
  8
0-1
  6
CONTINUOUS
 62
     3
 10
7950.5634615859608
 20
14001.98634399999
 30
0.0
 11
7950.5634615859281
 21
18788.083582700088
 31
0.0
  0
LINE
  5
13734
  8
0-1
  6
CONTINUOUS
 62
     3
 10
7950.5634615859281
 20
18788.083582700088
 30
0.0
 11
7950.5634615859217
 21
19461.985684999981
 31
0.0
  0
LINE
  5
13735
  8
0-1
  6
CONTINUOUS
 62
     3
 10
7815.0628415859601
 20
13969.98643699997
 30
0.0
 11
7815.0628415859264
 21
18843.991922246631
 31
0.0
  0
LINE
  5
13736
  8
0-1
  6
CONTINUOUS
 62
     3
 10
7815.0628415859264
 20
18843.991922246631
 30
0.0
 11
7815.0628415859228
 21
19509.987030999979
 31
0.0
  0
LINE
  5
13737
  8
0-1
  6
CONTINUOUS
 62
     3
 10
7858.0635675859603
 20
14125.98635799998
 30
0.0
 11
13310.56409558596
 21
14125.98635800002
 31
0.0
  0
LINE
  5
13738
  8
0-1
  6
CONTINUOUS
 62
     3
 10
7900.5628415859592
 20
14204.98597499997
 30
0.0
 11
13268.06284158595
 21
14204.985975000011
 31
0.0
  0
LINE
  5
13739
  8
0-1
  6
CONTINUOUS
 62
     3
 10
7815.0628415859601
 20
13969.98643699997
 30
0.0
 11
13353.56284158595
 21
13969.98643700001
 31
0.0
  0
LINE
  5
1373A
  8
0-1
  6
CONTINUOUS
 62
     3
 10
7815.0628415859601
 20
14001.98634399999
 30
0.0
 11
13353.56284158595
 21
14001.98634400003
 31
0.0
  0
LINE
  5
1373B
  8
0-1
  6
CONTINUOUS
 62
     3
 10
10468.06284158595
 20
14125.986358
 30
0.0
 11
10468.062841585919
 21
17746.365060417251
 31
0.0
  0
LINE
  5
1373C
  8
0-1
  6
CONTINUOUS
 62
     3
 10
10510.56409558596
 20
14125.986358
 30
0.0
 11
10510.564095585931
 21
17728.828720315101
 31
0.0
  0
LINE
  5
1373D
  8
0-1
  6
CONTINUOUS
 62
     3
 10
7900.5628415859592
 20
14125.98635799998
 30
0.0
 11
7900.5628415859273
 21
18809.952040932989
 31
0.0
  0
LINE
  5
1373E
  8
0-1
  6
CONTINUOUS
 62
     3
 10
7858.0635675859603
 20
14125.98635799998
 30
0.0
 11
7858.0635675859266
 21
18827.487564072078
 31
0.0
  0
LINE
  5
1373F
  8
0-1
  6
CONTINUOUS
 62
     3
 10
9120.5639635859279
 20
18304.841748999559
 30
0.0
 11
9120.5639635859225
 21
19461.985684999989
 31
0.0
  0
LINE
  5
13740
  8
0-1
  6
CONTINUOUS
 62
     3
 10
9157.5651245859244
 20
18289.522363715791
 30
0.0
 11
9157.5651245859135
 21
19461.985684999989
 31
0.0
  0
LINE
  5
13741
  8
0-1
  6
CONTINUOUS
 62
     3
 10
9320.5636335859326
 20
18222.036995890281
 30
0.0
 11
9320.5636335859235
 21
19461.985684999989
 31
0.0
  0
LINE
  5
13742
  8
0-1
  6
CONTINUOUS
 62
     3
 10
9357.5628145859318
 20
18206.718430374891
 30
0.0
 11
9357.5628145859228
 21
19461.985684999989
 31
0.0
  0
LINE
  5
13743
  8
0-1
  6
CONTINUOUS
 62
     3
 10
9520.564292585932
 20
18139.231833310791
 30
0.0
 11
9520.5642925859247
 21
19461.985684999989
 31
0.0
  0
LINE
  5
13744
  8
0-1
  6
CONTINUOUS
 62
     3
 10
9557.5644645859411
 20
18123.91285749718
 30
0.0
 11
9557.5644645859338
 21
19461.985684999989
 31
0.0
  0
LINE
  5
13745
  8
0-1
  6
CONTINUOUS
 62
     3
 10
9720.5639635859316
 20
18054.788773058321
 30
0.0
 11
9720.5639635859243
 21
19461.985684999989
 31
0.0
  0
LINE
  5
13746
  8
0-1
  6
CONTINUOUS
 62
     3
 10
9757.5651245859244
 20
18039.521813088839
 30
0.0
 11
9757.5651245859153
 21
19461.985684999989
 31
0.0
  0
LINE
  5
13747
  8
0-1
  6
CONTINUOUS
 62
     3
 10
9920.5636335859435
 20
17972.267390667159
 30
0.0
 11
9920.5636335859363
 21
19461.985684999989
 31
0.0
  0
LINE
  5
13748
  8
0-1
  6
CONTINUOUS
 62
     3
 10
9957.5638045859432
 20
17957.00083917924
 30
0.0
 11
9957.5638045859378
 21
19461.985684999989
 31
0.0
  0
LINE
  5
13749
  8
0-1
  6
CONTINUOUS
 62
     3
 10
10120.564292585939
 20
17889.745600207119
 30
0.0
 11
10120.56429258593
 21
19461.985684999989
 31
0.0
  0
LINE
  5
1374A
  8
0-1
  6
CONTINUOUS
 62
     3
 10
10157.564464585939
 20
17874.479048306559
 30
0.0
 11
10157.56446458593
 21
19461.985684999989
 31
0.0
  0
LINE
  5
1374B
  8
0-1
  6
CONTINUOUS
 62
     3
 10
7900.562841585941
 20
16774.98808699998
 30
0.0
 11
10468.06284158593
 21
16774.988087000002
 31
0.0
  0
LINE
  5
1374C
  8
0-1
  6
CONTINUOUS
 62
     3
 10
10468.06284158593
 20
16774.988087000002
 30
0.0
 11
12822.30205207556
 21
16774.98808700002
 31
0.0
  0
LINE
  5
1374D
  8
2-0
  6
DASHED3
 62
     6
 10
12822.30205207556
 20
16774.98808700002
 30
0.0
 11
13268.06284158593
 21
16774.98808700002
 31
0.0
  0
LINE
  5
1374E
  8
0-1
  6
CONTINUOUS
 62
     3
 10
10398.063741229769
 20
16729.987612658861
 30
0.0
 11
7970.5635675859576
 21
14162.48571099999
 31
0.0
  0
LINE
  5
1374F
  8
0-1
  6
CONTINUOUS
 62
     3
 10
7970.5635675859412
 20
16729.985710999979
 30
0.0
 11
10398.06409558596
 21
14162.48571100001
 31
0.0
  0
LINE
  5
13750
  8
0-1
  6
CONTINUOUS
 62
     3
 10
8773.0461794741313
 20
18448.722607975349
 30
0.0
 11
10398.063741229769
 21
16729.987612658861
 31
0.0
  0
LINE
  5
13751
  8
0-1
  6
CONTINUOUS
 62
     3
 10
9364.1824351046325
 20
18203.97774563912
 30
0.0
 11
7970.5635675859412
 21
16729.985710999979
 31
0.0
  0
LINE
  5
13752
  8
0-1
  6
CONTINUOUS
 62
     3
 10
7833.0616145859176
 20
18836.657125881291
 30
0.0
 11
7833.0616145859149
 21
19502.486634999979
 31
0.0
  0
LINE
  5
13753
  8
0-1
  6
CONTINUOUS
 62
     3
 10
7888.5623665859139
 20
19484.98768999998
 30
0.0
 11
7888.5623665859139
 21
19514.98729399997
 31
0.0
  0
LINE
  5
13754
  8
0-1
  6
CONTINUOUS
 62
     3
 10
7815.0628415859228
 20
19514.98729399997
 30
0.0
 11
7815.0628415859228
 21
19479.985446999981
 31
0.0
  0
LINE
  5
13755
  8
0-1
  6
CONTINUOUS
 62
     3
 10
7883.5621025859036
 20
19519.985578999989
 30
0.0
 11
7820.0621155859162
 21
19519.985578999989
 31
0.0
  0
LINE
  5
13756
  8
0-1
  6
CONTINUOUS
 62
     3
 10
7833.0616145859149
 20
19502.486634999979
 30
0.0
 11
7815.0628415859228
 21
19502.486634999979
 31
0.0
  0
LINE
  5
13757
  8
0-1
  6
CONTINUOUS
 62
     3
 10
7833.0616145859149
 20
19479.985446999981
 30
0.0
 11
7883.5621025859036
 21
19479.985446999981
 31
0.0
  0
LINE
  5
13758
  8
0-6
  6
CONTINUOUS
 62
     6
 10
9598.4061777233037
 20
19237.71018799999
 30
0.0
 11
9742.3072807232929
 21
19749.985842999991
 31
0.0
  0
LINE
  5
13759
  8
0-6
  6
CONTINUOUS
 62
     6
 10
9078.5648027232928
 20
19465.663629999999
 30
0.0
 11
9185.2598647233044
 21
19343.487742999991
 31
0.0
  0
LINE
  5
1375A
  8
0-6
  6
CONTINUOUS
 62
     6
 10
9185.2598647233044
 20
19343.487742999991
 30
0.0
 11
9123.9541747232943
 21
19493.663919999999
 31
0.0
  0
LINE
  5
1375B
  8
0-6
  6
CONTINUOUS
 62
     6
 10
9185.2598647233044
 20
19343.487742999991
 30
0.0
 11
9078.5648027232928
 21
19465.663629999999
 31
0.0
  0
LINE
  5
1375C
  8
0-6
  6
CONTINUOUS
 62
     6
 10
9078.5648027232928
 20
19465.663629999999
 30
0.0
 11
9123.9541747232943
 21
19493.663919999999
 31
0.0
  0
LINE
  5
1375D
  8
0-6
  6
CONTINUOUS
 62
     6
 10
9123.9541747232943
 20
19493.663919999999
 30
0.0
 11
9185.2598647233044
 21
19343.487742999991
 31
0.0
  0
LINE
  5
1375E
  8
0-6
  6
CONTINUOUS
 62
     6
 10
9123.9541747232943
 20
19493.663919999999
 30
0.0
 11
9078.5648027232928
 21
19465.663629999999
 31
0.0
  0
LINE
  5
1375F
  8
0-6
  6
CONTINUOUS
 62
     6
 10
9185.2598647233044
 20
19343.487742999991
 30
0.0
 11
8891.3320377232922
 21
19749.985842999991
 31
0.0
  0
LINE
  5
13760
  8
0-6
  6
CONTINUOUS
 62
     6
 10
9572.5180337233051
 20
19244.10997199998
 30
0.0
 11
9560.0163837233067
 21
19082.385282999989
 31
0.0
  0
LINE
  5
13761
  8
0-6
  6
CONTINUOUS
 62
     6
 10
9560.0163837233067
 20
19082.385282999989
 30
0.0
 11
9624.2913527233068
 21
19231.314363999991
 31
0.0
  0
LINE
  5
13762
  8
0-6
  6
CONTINUOUS
 62
     6
 10
9560.0163837233067
 20
19082.385282999989
 30
0.0
 11
9572.5180337233051
 21
19244.10997199998
 31
0.0
  0
LINE
  5
13763
  8
0-6
  6
CONTINUOUS
 62
     6
 10
9572.5180337233051
 20
19244.10997199998
 30
0.0
 11
9624.2913527233068
 21
19231.314363999991
 31
0.0
  0
LINE
  5
13764
  8
0-6
  6
CONTINUOUS
 62
     6
 10
9624.2913527233068
 20
19231.314363999991
 30
0.0
 11
9560.0163837233067
 21
19082.385282999989
 31
0.0
  0
LINE
  5
13765
  8
0-6
  6
CONTINUOUS
 62
     6
 10
9624.2913527233068
 20
19231.314363999991
 30
0.0
 11
9572.5180337233051
 21
19244.10997199998
 31
0.0
  0
LINE
  5
13766
  8
0-6
  6
CONTINUOUS
 62
     6
 10
9742.3072807232929
 20
19749.985842999991
 30
0.0
 11
10259.9959287233
 21
19749.985842999991
 31
0.0
  0
LINE
  5
13767
  8
0-6
  6
CONTINUOUS
 62
     6
 10
8043.3791685859414
 20
18164.2890456639
 30
0.0
 11
7953.5634615859317
 21
18299.361496663889
 31
0.0
  0
LINE
  5
13768
  8
0-6
  6
CONTINUOUS
 62
     6
 10
7953.5634615859317
 20
18299.361496663889
 30
0.0
 11
7994.7176525859422
 21
18142.460894663898
 31
0.0
  0
LINE
  5
13769
  8
0-6
  6
CONTINUOUS
 62
     6
 10
7953.5634615859317
 20
18299.361496663889
 30
0.0
 11
8043.3791685859414
 21
18164.2890456639
 31
0.0
  0
LINE
  5
1376A
  8
0-6
  6
CONTINUOUS
 62
     6
 10
8043.3791685859414
 20
18164.2890456639
 30
0.0
 11
7994.7176525859422
 21
18142.460894663898
 31
0.0
  0
LINE
  5
1376B
  8
0-6
  6
CONTINUOUS
 62
     6
 10
7994.7176525859422
 20
18142.460894663898
 30
0.0
 11
7953.5634615859317
 21
18299.361496663889
 31
0.0
  0
LINE
  5
1376C
  8
0-6
  6
CONTINUOUS
 62
     6
 10
7994.7176525859422
 20
18142.460894663898
 30
0.0
 11
8043.3791685859414
 21
18164.2890456639
 31
0.0
  0
LINE
  5
1376D
  8
0-6
  6
CONTINUOUS
 62
     6
 10
8091.3303887232923
 20
19749.98584299998
 30
0.0
 11
8891.3320377232922
 21
19749.985842999991
 31
0.0
  0
LINE
  5
1376E
  8
0-6
  6
CONTINUOUS
 62
     6
 10
8118.0891685859324
 20
17932.582436663899
 30
0.0
 11
8638.0898945859553
 21
17932.582436663899
 31
0.0
  0
LINE
  5
1376F
  8
0-6
  6
CONTINUOUS
 62
     6
 10
8400.3371466518165
 20
14349.876836999971
 30
0.0
 11
8483.2245386518098
 21
14526.815115999971
 31
0.0
  0
LINE
  5
13770
  8
0-6
  6
CONTINUOUS
 62
     6
 10
8483.2245386518098
 20
14526.815115999971
 30
0.0
 11
9283.2251986518077
 21
14526.81511599998
 31
0.0
  0
LINE
  5
13771
  8
0-6
  6
CONTINUOUS
 62
     6
 10
9007.3802736518246
 20
13840.43981199997
 30
0.0
 11
8901.1098186518193
 21
13962.986858999981
 31
0.0
  0
LINE
  5
13772
  8
0-6
  6
CONTINUOUS
 62
     6
 10
8901.1098186518193
 20
13962.986858999981
 30
0.0
 11
8961.8919266518205
 21
13812.597882999989
 31
0.0
  0
LINE
  5
13773
  8
0-6
  6
CONTINUOUS
 62
     6
 10
8901.1098186518193
 20
13962.986858999981
 30
0.0
 11
9007.3802736518246
 21
13840.43981199997
 31
0.0
  0
LINE
  5
13774
  8
0-6
  6
CONTINUOUS
 62
     6
 10
9007.3802736518246
 20
13840.43981199997
 30
0.0
 11
8961.8919266518205
 21
13812.597882999989
 31
0.0
  0
LINE
  5
13775
  8
0-6
  6
CONTINUOUS
 62
     6
 10
8961.8919266518205
 20
13812.597882999989
 30
0.0
 11
8901.1098186518193
 21
13962.986858999981
 31
0.0
  0
LINE
  5
13776
  8
0-6
  6
CONTINUOUS
 62
     6
 10
8961.8919266518205
 20
13812.597882999989
 30
0.0
 11
9007.3802736518246
 21
13840.43981199997
 31
0.0
  0
LINE
  5
13777
  8
0-6
  6
CONTINUOUS
 62
     6
 10
8376.1899896518116
 20
14361.18879599998
 30
0.0
 11
8332.4644036518093
 21
14204.98597499998
 31
0.0
  0
LINE
  5
13778
  8
0-6
  6
CONTINUOUS
 62
     6
 10
8332.4644036518093
 20
14204.98597499998
 30
0.0
 11
8424.4852946518167
 21
14338.56388799997
 31
0.0
  0
LINE
  5
13779
  8
0-6
  6
CONTINUOUS
 62
     6
 10
8332.4644036518093
 20
14204.98597499998
 30
0.0
 11
8376.1899896518116
 21
14361.18879599998
 31
0.0
  0
LINE
  5
1377A
  8
0-6
  6
CONTINUOUS
 62
     6
 10
8376.1899896518116
 20
14361.18879599998
 30
0.0
 11
8424.4852946518167
 21
14338.56388799997
 31
0.0
  0
LINE
  5
1377B
  8
0-6
  6
CONTINUOUS
 62
     6
 10
8424.4852946518167
 20
14338.56388799997
 30
0.0
 11
8332.4644036518093
 21
14204.98597499998
 31
0.0
  0
LINE
  5
1377C
  8
0-6
  6
CONTINUOUS
 62
     6
 10
8424.4852946518167
 20
14338.56388799997
 30
0.0
 11
8376.1899896518116
 21
14361.18879599998
 31
0.0
  0
LINE
  5
1377D
  8
0-6
  6
CONTINUOUS
 62
     6
 10
9390.7486886518236
 20
13162.987188999979
 30
0.0
 11
10253.32885965183
 21
13162.98718899999
 31
0.0
  0
LINE
  5
1377E
  8
0-6
  6
CONTINUOUS
 62
     6
 10
8984.6365956518057
 20
13826.518847999991
 30
0.0
 11
9390.7486886518236
 21
13162.987188999979
 31
0.0
  0
LINE
  5
1377F
  8
0-6
  6
CONTINUOUS
 62
     6
 10
7795.6121315859591
 20
14212.27668699998
 30
0.0
 11
7818.0628415859574
 21
14372.92253799997
 31
0.0
  0
LINE
  5
13780
  8
0-6
  6
CONTINUOUS
 62
     6
 10
7818.0628415859574
 20
14372.92253799997
 30
0.0
 11
7744.7256375859379
 21
14228.241503999991
 31
0.0
  0
LINE
  5
13781
  8
0-6
  6
CONTINUOUS
 62
     6
 10
7818.0628415859574
 20
14372.92253799997
 30
0.0
 11
7795.6121315859591
 21
14212.27668699998
 31
0.0
  0
LINE
  5
13782
  8
0-6
  6
CONTINUOUS
 62
     6
 10
7795.6121315859591
 20
14212.27668699998
 30
0.0
 11
7744.7256375859379
 21
14228.241503999991
 31
0.0
  0
LINE
  5
13783
  8
0-6
  6
CONTINUOUS
 62
     6
 10
7744.7256375859379
 20
14228.241503999991
 30
0.0
 11
7818.0628415859574
 21
14372.92253799997
 31
0.0
  0
LINE
  5
13784
  8
0-6
  6
CONTINUOUS
 62
     6
 10
7744.7256375859379
 20
14228.241503999991
 30
0.0
 11
7795.6121315859591
 21
14212.27668699998
 31
0.0
  0
LINE
  5
13785
  8
0-6
  6
CONTINUOUS
 62
     6
 10
6103.4285905859697
 20
12349.98618599996
 30
0.0
 11
7183.4281945859611
 21
12349.986185999969
 31
0.0
  0
LINE
  5
13786
  8
0-6
  6
CONTINUOUS
 62
     6
 10
7770.1683895859514
 20
14220.258105999979
 30
0.0
 11
7183.4281945859611
 21
12349.986185999969
 31
0.0
  0
LINE
  5
13787
  8
0-6
  6
CONTINUOUS
 62
     6
 10
8019.0489055859334
 20
18153.375959663899
 30
0.0
 11
8118.0891685859324
 21
17932.582436663899
 31
0.0
  0
LINE
  5
13788
  8
0-6
  6
CONTINUOUS
 62
     6
 10
13350.56284158591
 20
19519.985579000029
 30
0.0
 11
13442.250183585929
 21
19653.793117000019
 31
0.0
  0
LINE
  5
13789
  8
0-6
  6
CONTINUOUS
 62
     6
 10
13480.69144458592
 20
19616.825607000021
 30
0.0
 11
13350.56284158591
 21
19519.985579000029
 31
0.0
  0
LINE
  5
1378A
  8
0-6
  6
CONTINUOUS
 62
     6
 10
13480.69144458592
 20
19616.825607000021
 30
0.0
 11
13442.250183585929
 21
19653.793117000019
 31
0.0
  0
LINE
  5
1378B
  8
0-6
  6
CONTINUOUS
 62
     6
 10
13461.471309585921
 20
19635.308372000029
 30
0.0
 11
13978.46019758592
 21
20139.986635000019
 31
0.0
  0
LINE
  5
1378C
  8
0-6
  6
CONTINUOUS
 62
     6
 10
13978.46019758592
 20
20139.986635000019
 30
0.0
 11
15653.45953758593
 21
20139.98663500003
 31
0.0
  0
LINE
  5
1378D
  8
2-0
  6
DASHED3
 62
     6
 10
7900.5628415859273
 20
19258.487214999979
 30
0.0
 11
13268.06284158591
 21
19258.487215000019
 31
0.0
  0
LINE
  5
1378E
  8
2-0
  6
DASHED3
 62
     6
 10
7858.0635675859266
 20
18827.487564072078
 30
0.0
 11
7858.0635675859203
 21
19343.48774299998
 31
0.0
  0
LINE
  5
1378F
  8
2-0
  6
DASHED3
 62
     6
 10
7900.5628415859273
 20
18809.952040932989
 30
0.0
 11
7900.5628415859228
 21
19343.48774299998
 31
0.0
  0
LINE
  5
13790
  8
2-0
  6
DASHED3
 62
     6
 10
7858.0635675859203
 20
19343.48774299998
 30
0.0
 11
13268.06284158591
 21
19343.48774300002
 31
0.0
  0
LINE
  5
13791
  8
2-0
  6
DASHED3
 62
     6
 10
10468.062841585919
 20
17746.365060417251
 30
0.0
 11
10468.06284158591
 21
19343.487743000002
 31
0.0
  0
LINE
  5
13792
  8
2-0
  6
DASHED3
 62
     6
 10
10510.564095585931
 20
17728.828720315101
 30
0.0
 11
10510.56409558592
 21
19343.487743000002
 31
0.0
  0
LINE
  5
13793
  8
2-0
  6
DASHED3
 62
     6
 10
7970.563567585923
 20
19297.485710999979
 30
0.0
 11
8773.0461794741313
 21
18448.722607975349
 31
0.0
  0
LINE
  5
13794
  8
2-0
  6
DASHED3
 62
     6
 10
10398.06409558592
 20
19297.485711000001
 30
0.0
 11
9364.1824351046325
 21
18203.97774563912
 31
0.0
  0
LINE
  5
13795
  8
2-0
  6
CENTER2
 62
     6
 10
10468.06284158591
 20
20539.987954000011
 30
0.0
 11
10468.06284158591
 21
19589.987293999999
 31
0.0
  0
LINE
  5
13796
  8
2-0
  6
CENTER2
 62
     6
 10
6571.0627365859236
 20
19297.485710999968
 30
0.0
 11
8217.5619575859255
 21
19297.485710999979
 31
0.0
  0
LINE
  5
13797
  8
0-8
  6
CONTINUOUS
 62
     6
 10
7900.5628415859164
 20
20539.987953999989
 30
0.0
 11
7900.5628415859201
 21
19589.98729399998
 31
0.0
  0
LINE
  5
13798
  8
2-0
  6
CENTER2
 62
     6
 10
6571.0627365859418
 20
16729.985710999968
 30
0.0
 11
13439.86228958593
 21
16729.985711000019
 31
0.0
  0
LINE
  5
13799
  8
2-0
  6
CENTER2
 62
     6
 10
6571.0627365859573
 20
14162.485710999979
 30
0.0
 11
8217.5619575859582
 21
14162.48571099999
 31
0.0
  0
ARC
  5
1379A
  8
0-1
  6
CONTINUOUS
 62
     3
 10
7883.5621025859036
 20
19484.98768999998
 30
0.0
 40
5.0
 50
269.9999850001808
 51
0.0
  0
ARC
  5
1379B
  8
0-1
  6
CONTINUOUS
 62
     3
 10
7883.5648039033931
 20
19514.988412922321
 30
0.0
 40
4.99729880777691
 50
359.98717116373359
 51
90.030971551829381
  0
ARC
  5
1379C
  8
0-1
  6
CONTINUOUS
 62
     3
 10
7820.0591891096838
 20
19514.98850618611
 30
0.0
 40
4.9970736707893684
 50
89.966445412290085
 51
180.01389876464731
  0
CIRCLE
  5
1379D
  8
0-5
  6
CONTINUOUS
 62
     4
 10
10468.062841585899
 20
20739.986635000001
 30
0.0
 40
199.9999949999999
  0
CIRCLE
  5
1379E
  8
0-5
  6
CONTINUOUS
 62
     4
 10
7900.5628415859128
 20
20739.986634999979
 30
0.0
 40
199.9999949999999
  0
CIRCLE
  5
1379F
  8
0-5
  6
CONTINUOUS
 62
     4
 10
6371.0630655859213
 20
19297.485710999968
 30
0.0
 40
199.9999949999999
  0
CIRCLE
  5
137A0
  8
0-5
  6
CONTINUOUS
 62
     4
 10
6371.0630655859386
 20
16729.985710999968
 30
0.0
 40
199.9999949999999
  0
CIRCLE
  5
137A1
  8
0-5
  6
CONTINUOUS
 62
     4
 10
6371.0630655859568
 20
14162.485710999979
 30
0.0
 40
199.9999949999999
  0
TEXT
  5
137A2
  8
0-5
  6
CONTINUOUS
 62
     7
 10
10414.34563558592
 20
20650.77171200002
 30
0.0
 40
160.0
  1
2
 50
0.0000000000003997
 72
     4
 11
10467.678968919259
 21
20730.77171200002
 31
0.0
  0
TEXT
  5
137A3
  8
0-5
  6
CONTINUOUS
 62
     7
 10
7873.8961749192467
 20
20659.986634999979
 30
0.0
 40
160.0
  1
1
 50
0.0000000000003997
 72
     4
 11
7900.5628415859128
 21
20739.986634999979
 31
0.0
  0
TEXT
  5
137A4
  8
0-5
  6
CONTINUOUS
 62
     7
 10
6317.603197585935
 20
19217.89718699997
 30
0.0
 40
160.0
  1
C
 50
0.0000000000003997
 72
     4
 11
6370.9365309192663
 21
19297.89718699997
 31
0.0
  0
TEXT
  5
137A5
  8
0-5
  6
CONTINUOUS
 62
     7
 10
6317.6031975859523
 20
16650.39817699997
 30
0.0
 40
160.0
  1
B
 50
0.0000000000003997
 72
     4
 11
6370.9365309192845
 21
16730.39817699997
 31
0.0
  0
TEXT
  5
137A6
  8
0-5
  6
CONTINUOUS
 62
     7
 10
6317.6031975859678
 20
14082.89718699998
 30
0.0
 40
160.0
  1
A
 50
0.0000000000003997
 72
     4
 11
6370.9365309193008
 21
14162.89718699998
 31
0.0
  0
TEXT
  5
137A7
  8
0-6
  6
CONTINUOUS
 62
     7
 10
9822.3075447233059
 20
19829.98610699999
 30
0.0
 40
160.0
  1
屋根
 50
0.0000000000003997
 72
     4
 11
9992.9742113899702
 21
19909.98610699999
 31
0.0
  0
TEXT
  5
137A8
  8
0-6
  6
CONTINUOUS
 62
     7
 10
8171.3316427233003
 20
19829.986106999972
 30
0.0
 40
160.0
  1
桁（後）
 50
0.0000000000003997
 72
     4
 11
8491.3316427233003
 21
19909.986106999979
 31
0.0
  0
TEXT
  5
137A9
  8
0-6
  6
CONTINUOUS
 62
     7
 10
8563.2238126518077
 20
14606.815379999989
 30
0.0
 40
160.0
  1
桁（前）
 50
0.0000000000003997
 72
     4
 11
8883.2238126518077
 21
14686.815379999989
 31
0.0
  0
TEXT
  5
137AA
  8
0-6
  6
CONTINUOUS
 62
     7
 10
9470.7479626518307
 20
13242.986462999979
 30
0.0
 40
160.0
  1
鼻隠し前
 50
0.0000000000003997
 72
     4
 11
9833.4146293184967
 21
13322.986462999979
 31
0.0
  0
TEXT
  5
137AB
  8
0-6
  6
CONTINUOUS
 62
     7
 10
6183.4288545859717
 20
12429.985459999971
 30
0.0
 40
160.0
  1
ケラバ 左
 50
0.0000000000003997
 72
     4
 11
6599.4288545859699
 21
12509.985459999971
 31
0.0
  0
TEXT
  5
137AC
  8
0-6
  6
CONTINUOUS
 62
     7
 10
8198.0894325859572
 20
18012.58270066389
 30
0.0
 40
160.0
  1
上枠
 50
0.0000000000003997
 72
     4
 11
8368.7560992526232
 21
18092.582700663901
 31
0.0
  0
TEXT
  5
137AD
  8
0-6
  6
CONTINUOUS
 62
     7
 10
14058.460461585921
 20
20219.984919000031
 30
0.0
 40
160.0
  1
鼻隠しコーナー後
 50
0.0000000000003997
 72
     4
 11
14805.12712825259
 21
20299.984919000031
 31
0.0
  0
LINE
  5
137AE
  8
2-0
  6
CENTER2
 62
     6
 10
13268.06284158591
 20
20539.987954000029
 30
0.0
 11
13268.06284158591
 21
19589.98729400001
 31
0.0
  0
CIRCLE
  5
137AF
  8
0-5
  6
CONTINUOUS
 62
     4
 10
13268.06284158591
 20
20739.986635000019
 30
0.0
 40
199.9999949999999
  0
TEXT
  5
137B0
  8
0-5
  6
CONTINUOUS
 62
     7
 10
13214.729508252571
 20
20659.986635000019
 30
0.0
 40
160.0
  1
3
 50
0.0000000000003997
 72
     4
 11
13268.06284158591
 21
20739.986635000019
 31
0.0
  0
LINE
  5
137B1
  8
0-1
  6
CONTINUOUS
 62
     3
 10
13335.563079585931
 20
16564.449941299099
 30
0.0
 11
13335.563079585911
 21
19502.486635000019
 31
0.0
  0
LINE
  5
137B2
  8
0-1
  6
CONTINUOUS
 62
     3
 10
13335.563079585911
 20
19502.486635000019
 30
0.0
 11
13353.56284158591
 21
19502.486635000019
 31
0.0
  0
LINE
  5
137B3
  8
0-1
  6
CONTINUOUS
 62
     3
 10
13280.06232758592
 20
19484.98769000002
 30
0.0
 11
13280.06232758592
 21
19514.98729400001
 31
0.0
  0
LINE
  5
137B4
  8
0-1
  6
CONTINUOUS
 62
     3
 10
13335.563079585911
 20
19479.985447000021
 30
0.0
 11
13285.06358158592
 21
19479.985447000021
 31
0.0
  0
LINE
  5
137B5
  8
0-1
  6
CONTINUOUS
 62
     3
 10
13353.56284158591
 20
19514.98729400001
 30
0.0
 11
13353.56284158591
 21
19479.985447000021
 31
0.0
  0
LINE
  5
137B6
  8
0-1
  6
CONTINUOUS
 62
     3
 10
13285.06358158592
 20
19519.985579000029
 30
0.0
 11
13348.561588585901
 21
19519.985579000029
 31
0.0
  0
ARC
  5
137B7
  8
0-1
  6
CONTINUOUS
 62
     3
 10
13348.561588585901
 20
19514.98729400001
 30
0.0
 40
5.0
 50
0.0
 51
90.0
  0
ARC
  5
137B8
  8
0-1
  6
CONTINUOUS
 62
     3
 10
13285.06358158592
 20
19514.98729400001
 30
0.0
 40
5.0
 50
90.0
 51
180.0
  0
ARC
  5
137B9
  8
0-1
  6
CONTINUOUS
 62
     3
 10
13285.06358158592
 20
19484.98769000002
 30
0.0
 40
5.0
 50
180.0
 51
269.9999850001808
  0
LINE
  5
137BA
  8
0-1
  6
CONTINUOUS
 62
     3
 10
10468.06284158595
 20
14125.986358
 30
0.0
 11
10468.06284158595
 21
13969.98643699999
 31
0.0
  0
LINE
  5
137BB
  8
0-1
  6
CONTINUOUS
 62
     3
 10
7578.6633638862277
 20
18943.226294720189
 30
0.0
 11
10876.861294930581
 21
17577.691714659421
 31
0.0
  0
LINE
  5
137BC
  8
0-1
  6
CONTINUOUS
 62
     3
 10
11801.26390057621
 20
17196.2761808045
 30
0.0
 11
13633.148438517061
 21
16440.426711393669
 31
0.0
  0
LINE
  5
137BD
  8
0-1
  6
CONTINUOUS
 62
     3
 10
13218.06321058596
 20
14001.98634400003
 30
0.0
 11
13218.06321058594
 21
16612.931850858109
 31
0.0
  0
LINE
  5
137BE
  8
0-1
  6
CONTINUOUS
 62
     3
 10
13353.56284158595
 20
13969.98643700001
 30
0.0
 11
13353.56284158593
 21
16557.023102830059
 31
0.0
  0
LINE
  5
137BF
  8
0-1
  6
CONTINUOUS
 62
     3
 10
13268.06284158595
 20
14125.98635800002
 30
0.0
 11
13268.06284158593
 21
16591.063800694119
 31
0.0
  0
LINE
  5
137C0
  8
0-1
  6
CONTINUOUS
 62
     3
 10
13310.56409558596
 20
14125.98635800002
 30
0.0
 11
13310.56409558594
 21
16573.527460591969
 31
0.0
  0
LINE
  5
137C1
  8
0-1
  6
CONTINUOUS
 62
     3
 10
13218.06321058594
 20
16612.931850858109
 30
0.0
 11
13218.06321058592
 21
19461.985685000011
 31
0.0
  0
LINE
  5
137C2
  8
0-1
  6
CONTINUOUS
 62
     3
 10
13353.56284158593
 20
16557.023102830059
 30
0.0
 11
13353.56284158591
 21
19502.486635000019
 31
0.0
  0
LINE
  5
137C3
  8
2-0
  6
DASHED3
 62
     6
 10
13268.06284158593
 20
16591.063800694119
 30
0.0
 11
13268.06284158591
 21
19461.985685000011
 31
0.0
  0
LINE
  5
137C4
  8
2-0
  6
DASHED3
 62
     6
 10
13310.56409558594
 20
16573.527460591969
 30
0.0
 11
13310.56409558592
 21
19461.985685000011
 31
0.0
  0
LINE
  5
137C5
  8
0-1
  6
CONTINUOUS
 62
     3
 10
10320.564952585941
 20
17807.22380933446
 30
0.0
 11
10320.56495258593
 21
19461.985685
 31
0.0
  0
LINE
  5
137C6
  8
0-1
  6
CONTINUOUS
 62
     3
 10
10357.565124585941
 20
17791.9572574339
 30
0.0
 11
10357.56512458593
 21
19461.985685
 31
0.0
  0
LINE
  5
137C7
  8
0-1
  6
CONTINUOUS
 62
     3
 10
10520.56561258594
 20
17724.70201846179
 30
0.0
 11
10520.56561258593
 21
19461.985685
 31
0.0
  0
LINE
  5
137C8
  8
0-1
  6
CONTINUOUS
 62
     3
 10
10557.565784585961
 20
17709.435466561219
 30
0.0
 11
10557.56578458595
 21
19461.985685
 31
0.0
  0
LINE
  5
137C9
  8
0-1
  6
CONTINUOUS
 62
     3
 10
10720.56627258596
 20
17642.18022758911
 30
0.0
 11
10720.566272585949
 21
19461.985685
 31
0.0
  0
LINE
  5
137CA
  8
0-1
  6
CONTINUOUS
 62
     3
 10
10757.566444585969
 20
17626.91367568856
 30
0.0
 11
10757.56644458596
 21
19461.985685
 31
0.0
  0
LINE
  5
137CB
  8
0-1
  6
CONTINUOUS
 62
     3
 10
10920.566932585971
 20
17683.61714701325
 30
0.0
 11
10920.566932585951
 21
19461.985685
 31
0.0
  0
LINE
  5
137CC
  8
0-1
  6
CONTINUOUS
 62
     3
 10
10957.567104585971
 20
17773.291143927981
 30
0.0
 11
10957.56710458596
 21
19461.985685
 31
0.0
  0
LINE
  5
137CD
  8
0-1
  6
CONTINUOUS
 62
     3
 10
11120.56759258598
 20
17638.21355294764
 30
0.0
 11
11120.56759258596
 21
19461.985685
 31
0.0
  0
LINE
  5
137CE
  8
0-1
  6
CONTINUOUS
 62
     3
 10
11157.56776458598
 20
17595.67031255877
 30
0.0
 11
11157.567764585971
 21
19461.985685
 31
0.0
  0
LINE
  5
137CF
  8
0-1
  6
CONTINUOUS
 62
     3
 10
11320.56825258599
 20
17408.250401524649
 30
0.0
 11
11320.568252585979
 21
19461.985685
 31
0.0
  0
LINE
  5
137D0
  8
0-1
  6
CONTINUOUS
 62
     3
 10
11357.568424585999
 20
17365.707161135771
 30
0.0
 11
11357.56842458599
 21
19461.985685
 31
0.0
  0
LINE
  5
137D1
  8
0-1
  6
CONTINUOUS
 62
     3
 10
11520.568912586001
 20
17178.287250101672
 30
0.0
 11
11520.56891258599
 21
19461.985685
 31
0.0
  0
LINE
  5
137D2
  8
0-1
  6
CONTINUOUS
 62
     3
 10
11557.569084586001
 20
17135.744009712798
 30
0.0
 11
11557.56908458599
 21
19461.985685
 31
0.0
  0
LINE
  5
137D3
  8
0-1
  6
CONTINUOUS
 62
     3
 10
11720.56957258601
 20
17000.695237491858
 30
0.0
 11
11720.56957258599
 21
19461.985685
 31
0.0
  0
LINE
  5
137D4
  8
0-1
  6
CONTINUOUS
 62
     3
 10
11757.569744586021
 20
17090.373517523749
 30
0.0
 11
11757.569744586001
 21
19461.985685
 31
0.0
  0
LINE
  5
137D5
  8
0-1
  6
CONTINUOUS
 62
     3
 10
11920.570232586
 20
17147.049482353112
 30
0.0
 11
11920.570232586
 21
19461.985685
 31
0.0
  0
LINE
  5
137D6
  8
0-1
  6
CONTINUOUS
 62
     3
 10
11957.570404586029
 20
17131.78293045254
 30
0.0
 11
11957.570404586009
 21
19461.985685000011
 31
0.0
  0
LINE
  5
137D7
  8
0-1
  6
CONTINUOUS
 62
     3
 10
12120.570892586031
 20
17064.527691480442
 30
0.0
 11
12120.570892586011
 21
19461.985685000011
 31
0.0
  0
LINE
  5
137D8
  8
0-1
  6
CONTINUOUS
 62
     3
 10
12157.571064586031
 20
17049.261139579881
 30
0.0
 11
12157.57106458602
 21
19461.985685000011
 31
0.0
  0
LINE
  5
137D9
  8
0-1
  6
CONTINUOUS
 62
     3
 10
12320.57155258604
 20
16982.00590060775
 30
0.0
 11
12320.571552586031
 21
19461.985685000011
 31
0.0
  0
LINE
  5
137DA
  8
0-1
  6
CONTINUOUS
 62
     3
 10
12357.57172458604
 20
16966.739348707211
 30
0.0
 11
12357.57172458602
 21
19461.985685000011
 31
0.0
  0
LINE
  5
137DB
  8
0-1
  6
CONTINUOUS
 62
     3
 10
12520.572212586039
 20
16899.484109735102
 30
0.0
 11
12520.57221258603
 21
19461.985685000011
 31
0.0
  0
LINE
  5
137DC
  8
0-1
  6
CONTINUOUS
 62
     3
 10
12557.57238458605
 20
16884.217557834541
 30
0.0
 11
12557.57238458603
 21
19461.985685000011
 31
0.0
  0
LINE
  5
137DD
  8
0-1
  6
CONTINUOUS
 62
     3
 10
10527.56321058596
 20
14162.48571100001
 30
0.0
 11
13117.97818217251
 21
16652.989870724628
 31
0.0
  0
LINE
  5
137DE
  8
0-1
  6
CONTINUOUS
 62
     3
 10
13198.06284158595
 20
14162.48571100003
 30
0.0
 11
10527.56321058594
 21
16729.985711000001
 31
0.0
  0
LINE
  5
137DF
  8
0-6
  6
CONTINUOUS
 62
     6
 10
13215.063210585949
 20
14524.424990177669
 30
0.0
 11
12256.50683026652
 21
13123.94102834674
 31
0.0
  0
LINE
  5
137E0
  8
2-0
  6
DASHED3
 62
     6
 10
10527.56321058592
 20
19297.485711000001
 30
0.0
 11
13198.06284158593
 21
16729.985711000019
 31
0.0
  0
LINE
  5
137E1
  8
2-0
  6
DASHED3
 62
     6
 10
13198.062841585919
 20
19297.485711000019
 30
0.0
 11
11280.70802683158
 21
17454.0821659344
 31
0.0
  0
LINE
  5
137E2
  8
0-1
  6
CONTINUOUS
 62
     3
 10
11280.70802683158
 20
17454.0821659344
 30
0.0
 11
10527.56321058594
 21
16729.985711000001
 31
0.0
  0
LINE
  5
137E3
  8
0-1
  6
CONTINUOUS
 62
     3
 10
10876.8607571708
 20
17577.69041133927
 30
0.0
 11
10972.214777494321
 21
17808.791394445489
 31
0.0
  0
LINE
  5
137E4
  8
0-1
  6
CONTINUOUS
 62
     3
 10
11705.914309677541
 20
16965.174895287859
 30
0.0
 11
11801.26495935505
 21
17196.27874699434
 31
0.0
  0
LINE
  5
137E5
  8
0-1
  6
CONTINUOUS
 62
     3
 10
11705.914309677541
 20
16965.174895287859
 30
0.0
 11
10972.214777494321
 21
17808.791394445489
 31
0.0
  0
LINE
  5
137E6
  8
0-6
  6
CONTINUOUS
 62
     6
 10
8911.0336325803237
 20
16326.193724331109
 30
0.0
 11
9791.0325765803154
 21
16326.193724331109
 31
0.0
  0
LINE
  5
137E7
  8
0-6
  6
CONTINUOUS
 62
     6
 10
8733.2714952319257
 20
16156.17659666078
 30
0.0
 11
8911.0336325803237
 21
16326.193724331109
 31
0.0
  0
LINE
  5
137E8
  8
0-6
  6
CONTINUOUS
 62
     6
 10
8617.6438552319378
 20
16045.586832660751
 30
0.0
 11
8714.8411872319357
 21
16175.44918966076
 31
0.0
  0
LINE
  5
137E9
  8
0-6
  6
CONTINUOUS
 62
     6
 10
8751.7027922319157
 20
16136.90400366078
 30
0.0
 11
8617.6438552319378
 21
16045.586832660751
 31
0.0
  0
LINE
  5
137EA
  8
0-6
  6
CONTINUOUS
 62
     6
 10
8751.7027922319157
 20
16136.90400366078
 30
0.0
 11
8714.8411872319357
 21
16175.44918966076
 31
0.0
  0
TEXT
  5
137EB
  8
0-6
  6
CONTINUOUS
 62
     7
 10
8991.0348865803171
 20
16406.193988331099
 30
0.0
 40
160.0
  1
ブレース
 50
0.0000000000003997
 72
     4
 11
9353.7015532469832
 21
16491.527321664438
 31
0.0
  0
LINE
  5
137EC
  8
0-6
  6
CONTINUOUS
 62
     6
 10
9539.8352084485505
 20
16784.988192000001
 30
0.0
 11
9420.5375901162024
 21
17100.58053000001
 31
0.0
  0
LINE
  5
137ED
  8
0-6
  6
CONTINUOUS
 62
     6
 10
8619.9668291162106
 20
17100.580529999999
 30
0.0
 11
9420.5375901162024
 21
17100.58053000001
 31
0.0
  0
TEXT
  5
137EE
  8
0-6
  6
CONTINUOUS
 62
     7
 10
8700.5371941161884
 20
17180.580794000001
 30
0.0
 40
160.0
  1
桁（中）
 50
0.0000000000003997
 72
     4
 11
9020.5371941161884
 21
17260.580794000009
 31
0.0
  0
LINE
  5
137EF
  8
0-6
  6
CONTINUOUS
 62
     6
 10
11202.570951751501
 20
14492.12357307045
 30
0.0
 11
12082.569895751511
 21
14492.123573070459
 31
0.0
  0
LINE
  5
137F0
  8
0-6
  6
CONTINUOUS
 62
     6
 10
12415.13364293536
 20
14915.21778188321
 30
0.0
 11
12082.569895751511
 21
14492.123573070459
 31
0.0
  0
TEXT
  5
137F1
  8
0-6
  6
CONTINUOUS
 62
     7
 10
11282.57220575151
 20
14572.12383707047
 30
0.0
 40
160.0
  1
ブレース
 50
0.0000000000003997
 72
     4
 11
11645.23887241818
 21
14657.45717040381
 31
0.0
  0
LINE
  5
137F2
  8
0-6
  6
CONTINUOUS
 62
     6
 10
11452.94422019639
 20
16153.8148396004
 30
0.0
 11
12245.795157619081
 21
16153.814839600411
 31
0.0
  0
TEXT
  5
137F3
  8
0-6
  6
CONTINUOUS
 62
     7
 10
11535.563979049941
 20
16233.815103600409
 30
0.0
 40
160.0
  1
桁（P）
 50
0.0000000000003997
 72
     4
 11
11839.563979049941
 21
16313.815103600409
 31
0.0
  0
LINE
  5
137F4
  8
0-6
  6
CONTINUOUS
 62
     6
 10
11452.94422019639
 20
16153.8148396004
 30
0.0
 11
11137.65296958181
 21
16684.985315999998
 31
0.0
  0
LINE
  5
137F5
  8
2-0
  6
DASHED3
 62
     6
 10
13117.97818217251
 20
16652.989870724628
 30
0.0
 11
13198.06284158593
 21
16729.985711000019
 31
0.0
  0
LINE
  5
137F6
  8
SUNPOU
  6
CONTINUOUS
 10
6971.0630655859222
 20
19519.983599499981
 30
0.0
 11
6971.0630655859159
 21
20316.95086727845
 31
0.0
  0
LINE
  5
137F7
  8
SUNPOU
  6
CONTINUOUS
 10
6971.0630655859577
 20
13228.673846847791
 30
0.0
 11
6971.0630655859513
 21
13969.98643699997
 31
0.0
  0
LINE
  5
137F8
  8
0-1
  6
CONTINUOUS
 62
     3
 10
12720.57287258605
 20
16816.962318862461
 30
0.0
 11
12720.57287258603
 21
19461.985685000011
 31
0.0
  0
LINE
  5
137F9
  8
0-1
  6
CONTINUOUS
 62
     3
 10
12757.573044586061
 20
16801.695766961911
 30
0.0
 11
12757.573044586041
 21
19461.985685000011
 31
0.0
  0
LINE
  5
137FA
  8
0-1
  6
CONTINUOUS
 62
     3
 10
12920.573532586061
 20
16734.440527989798
 30
0.0
 11
12920.57353258605
 21
19461.985685000011
 31
0.0
  0
LINE
  5
137FB
  8
0-1
  6
CONTINUOUS
 62
     3
 10
12957.57370458607
 20
16719.173976089231
 30
0.0
 11
12957.57370458605
 21
19461.985685000011
 31
0.0
  0
LINE
  5
137FC
  8
0-1
  6
CONTINUOUS
 62
     3
 10
13120.574192586069
 20
16651.918737117128
 30
0.0
 11
13120.574192586049
 21
19461.985685000011
 31
0.0
  0
LINE
  5
137FD
  8
0-1
  6
CONTINUOUS
 62
     3
 10
13157.57436458608
 20
16636.652185216561
 30
0.0
 11
13157.57436458606
 21
19461.985685000011
 31
0.0
  0
LINE
  5
137FE
  8
0-1
  6
CONTINUOUS
 62
     3
 10
8520.5639635859206
 20
18553.25641821168
 30
0.0
 11
8520.5639635859225
 21
19461.985684999981
 31
0.0
  0
LINE
  5
137FF
  8
0-1
  6
CONTINUOUS
 62
     3
 10
8557.5631445859399
 20
18537.93785269629
 30
0.0
 11
8557.5631445859326
 21
19461.985684999981
 31
0.0
  0
LINE
  5
13800
  8
0-1
  6
CONTINUOUS
 62
     3
 10
8720.5646225859291
 20
18470.451255632219
 30
0.0
 11
8720.5646225859236
 21
19461.985684999989
 31
0.0
  0
LINE
  5
13801
  8
0-1
  6
CONTINUOUS
 62
     3
 10
8757.5647945859309
 20
18455.132279818601
 30
0.0
 11
8757.5647945859237
 21
19461.985684999989
 31
0.0
  0
LINE
  5
13802
  8
0-1
  6
CONTINUOUS
 62
     3
 10
8920.5642935859305
 20
18387.646502108899
 30
0.0
 11
8920.5642935859232
 21
19461.985684999989
 31
0.0
  0
LINE
  5
13803
  8
0-1
  6
CONTINUOUS
 62
     3
 10
8957.5654545859306
 20
18372.327116825079
 30
0.0
 11
8957.5654545859234
 21
19461.985684999989
 31
0.0
  0
LINE
  5
13804
  8
0-1
  6
CONTINUOUS
 62
     3
 10
13280.06232758592
 20
19509.989010000019
 30
0.0
 11
7888.5623665859139
 21
19509.989009999979
 31
0.0
  0
LINE
  5
13805
  8
0-1
  6
CONTINUOUS
 62
     3
 10
13335.563079585911
 20
19461.985685000011
 30
0.0
 11
7833.0616145859149
 21
19461.98568499996
 31
0.0
  0
LINE
  5
13806
  8
0-6
  6
CONTINUOUS
 62
     6
 10
9379.1363732149421
 20
19652.391617999991
 30
0.0
 11
9422.4383422149713
 21
19627.390297999991
 31
0.0
  0
LINE
  5
13807
  8
0-6
  6
CONTINUOUS
 62
     6
 10
9379.1363732149421
 20
19652.391617999991
 30
0.0
 11
9325.7883472149315
 21
19509.989009999979
 31
0.0
  0
LINE
  5
13808
  8
0-6
  6
CONTINUOUS
 62
     6
 10
9422.4383422149713
 20
19627.390297999991
 30
0.0
 11
9379.1363732149421
 21
19652.391617999991
 31
0.0
  0
LINE
  5
13809
  8
0-6
  6
CONTINUOUS
 62
     6
 10
9325.7883472149315
 20
19509.989009999979
 30
0.0
 11
9422.4383422149713
 21
19627.390297999991
 31
0.0
  0
LINE
  5
1380A
  8
0-6
  6
CONTINUOUS
 62
     6
 10
9325.7883472149315
 20
19509.989009999979
 30
0.0
 11
9379.1363732149421
 21
19652.391617999991
 31
0.0
  0
LINE
  5
1380B
  8
0-6
  6
CONTINUOUS
 62
     6
 10
9422.4383422149713
 20
19627.390297999991
 30
0.0
 11
9325.7883472149315
 21
19509.989009999979
 31
0.0
  0
LINE
  5
1380C
  8
0-6
  6
CONTINUOUS
 62
     6
 10
9400.7863682149436
 20
19639.89293799999
 30
0.0
 11
9626.3721848846417
 21
20063.562777731098
 31
0.0
  0
TEXT
  5
1380D
  8
0-6
  6
CONTINUOUS
 62
     7
 10
9074.7100548816088
 20
20619.988217999991
 30
0.0
 40
160.0
  1
鼻隠し後
 50
0.0000000000003997
 72
     4
 11
9437.3767215482749
 21
20699.988217999991
 31
0.0
  0
LINE
  5
1380E
  8
0-6
  6
CONTINUOUS
 62
     6
 10
9880.0456322149366
 20
20539.987954
 30
0.0
 11
9037.6060732149363
 21
20539.987953999989
 31
0.0
  0
LINE
  5
1380F
  8
0-6
  6
CONTINUOUS
 62
     6
 10
9694.4060439371424
 20
20191.337456683399
 30
0.0
 11
9880.0456322149366
 21
20539.987954
 31
0.0
  0
LINE
  5
13810
  8
0-6
  6
CONTINUOUS
 62
     6
 10
12461.344200404839
 20
19343.487743000009
 30
0.0
 11
12400.038510404829
 21
19493.663920000021
 31
0.0
  0
LINE
  5
13811
  8
0-6
  6
CONTINUOUS
 62
     6
 10
12461.344200404839
 20
19343.487743000009
 30
0.0
 11
12354.64913840484
 21
19465.663630000021
 31
0.0
  0
LINE
  5
13812
  8
0-6
  6
CONTINUOUS
 62
     6
 10
12354.64913840484
 20
19465.663630000021
 30
0.0
 11
12400.038510404829
 21
19493.663920000021
 31
0.0
  0
LINE
  5
13813
  8
0-6
  6
CONTINUOUS
 62
     6
 10
12400.038510404829
 20
19493.663920000021
 30
0.0
 11
12461.344200404839
 21
19343.487743000009
 31
0.0
  0
LINE
  5
13814
  8
0-6
  6
CONTINUOUS
 62
     6
 10
12400.038510404829
 20
19493.663920000021
 30
0.0
 11
12354.64913840484
 21
19465.663630000021
 31
0.0
  0
LINE
  5
13815
  8
0-6
  6
CONTINUOUS
 62
     6
 10
12461.344200404839
 20
19343.487743000009
 30
0.0
 11
12167.416373404831
 21
19749.985843000009
 31
0.0
  0
LINE
  5
13816
  8
0-6
  6
CONTINUOUS
 62
     6
 10
11367.414724404831
 20
19749.985842999999
 30
0.0
 11
12167.416373404831
 21
19749.985843000009
 31
0.0
  0
TEXT
  5
13817
  8
0-6
  6
CONTINUOUS
 62
     7
 10
11463.415978404841
 20
19829.986107000012
 30
0.0
 40
160.0
  1
桁（P）
 50
0.0000000000003997
 72
     4
 11
11767.415978404841
 21
19909.986107000012
 31
0.0
  0
LINE
  5
13818
  8
0-6
  6
CONTINUOUS
 62
     6
 10
10347.97016970251
 20
13438.81596060041
 30
0.0
 11
11140.821107125201
 21
13438.81596060041
 31
0.0
  0
TEXT
  5
13819
  8
0-6
  6
CONTINUOUS
 62
     7
 10
10334.589928556061
 20
13518.816224600399
 30
0.0
 40
160.0
  1
桁前（P）
 50
0.0000000000003997
 72
     4
 11
10734.589928556061
 21
13598.81622460041
 31
0.0
  0
LINE
  5
1381A
  8
0-6
  6
CONTINUOUS
 62
     6
 10
11140.821107125201
 20
13438.81596060041
 30
0.0
 11
11456.11235773977
 21
13969.98643700001
 31
0.0
  0
TEXT
  5
1381B
  8
0-6
  6
CONTINUOUS
 62
     7
 10
11306.975808751151
 20
13203.940302346729
 30
0.0
 40
160.0
  1
梁（P）前
 50
0.0000000000003997
 72
     4
 11
11749.642475417821
 21
13283.94030234674
 31
0.0
  0
LINE
  5
1381C
  8
0-6
  6
CONTINUOUS
 62
     6
 10
12256.50683026652
 20
13123.94102834674
 30
0.0
 11
11241.51666094167
 21
13123.94102834673
 31
0.0
  0
LINE
  5
1381D
  8
0-1
  6
CONTINUOUS
 62
     3
 10
8120.563633585929
 20
18718.866334314502
 30
0.0
 11
8120.5636335859217
 21
19461.985684999981
 31
0.0
  0
LINE
  5
1381E
  8
0-1
  6
CONTINUOUS
 62
     3
 10
8157.5628145859282
 20
18703.547768799112
 30
0.0
 11
8157.5628145859218
 21
19461.985684999981
 31
0.0
  0
LINE
  5
1381F
  8
0-1
  6
CONTINUOUS
 62
     3
 10
8320.5642925859283
 20
18636.061171735018
 30
0.0
 11
8320.5642925859265
 21
19461.985684999981
 31
0.0
  0
LINE
  5
13820
  8
0-1
  6
CONTINUOUS
 62
     3
 10
8357.5644645859284
 20
18620.742195921412
 30
0.0
 11
8357.5644645859229
 21
19461.985684999981
 31
0.0
  0
LINE
  5
13821
  8
0-6
  6
CONTINUOUS
 62
     6
 10
11397.36235911105
 20
13818.76844209067
 30
0.0
 11
11456.112357739759
 21
13969.98643700001
 31
0.0
  0
LINE
  5
13822
  8
0-6
  6
CONTINUOUS
 62
     6
 10
11456.112357739759
 20
13969.98643700001
 30
0.0
 11
11351.50136605294
 21
13845.99053085157
 31
0.0
  0
LINE
  5
13823
  8
0-6
  6
CONTINUOUS
 62
     6
 10
11351.50136605294
 20
13845.99053085157
 30
0.0
 11
11397.36235911105
 21
13818.76844209067
 31
0.0
  0
LINE
  5
13824
  8
SUNPOU
  6
CONTINUOUS
 62
     4
 10
7738.0628415859592
 20
13969.98643699997
 30
0.0
 11
6891.0630655859586
 21
13969.98643699996
 31
0.0
  0
LINE
  5
13825
  8
SUNPOU
  6
CONTINUOUS
 62
     4
 10
6971.0630655859577
 20
14162.485710999979
 30
0.0
 11
6971.0630655859577
 21
13969.98643699997
 31
0.0
  0
LINE
  5
13826
  8
SUNPOU
  6
CONTINUOUS
 62
     4
 10
6971.0630655859422
 20
16729.985710999968
 30
0.0
 11
6971.0630655859577
 21
14162.485710999979
 31
0.0
  0
LINE
  5
13827
  8
SUNPOU
  6
CONTINUOUS
 62
     4
 10
6971.0630655859222
 20
19297.485710999968
 30
0.0
 11
6971.0630655859422
 21
16729.985710999968
 31
0.0
  0
LINE
  5
13828
  8
SUNPOU
  6
CONTINUOUS
 62
     4
 10
7051.0630655859231
 20
19297.485710999968
 30
0.0
 11
7011.0630655859213
 21
19297.485710999968
 31
0.0
  0
LINE
  5
13829
  8
SUNPOU
  6
CONTINUOUS
 62
     4
 10
7743.0621155859162
 20
19519.985578999989
 30
0.0
 11
6931.0630655859231
 21
19519.985578999978
 31
0.0
  0
LINE
  5
1382A
  8
SUNPOU
  6
CONTINUOUS
 62
     4
 10
6971.0630655859222
 20
19297.485710999968
 30
0.0
 11
6971.0630655859222
 21
19519.985578999978
 31
0.0
  0
LINE
  5
1382B
  8
SUNPOU
  6
CONTINUOUS
 62
     4
 10
7811.562366585893
 20
19509.989009999979
 30
0.0
 11
7291.062406585922
 21
19509.989009999979
 31
0.0
  0
LINE
  5
1382C
  8
SUNPOU
  6
CONTINUOUS
 62
     4
 10
7743.0621155859162
 20
19519.985578999989
 30
0.0
 11
7291.062406585922
 21
19519.985578999978
 31
0.0
  0
LINE
  5
1382D
  8
SUNPOU
  6
CONTINUOUS
 62
     4
 10
7371.0624065859238
 20
19509.989009999979
 30
0.0
 11
7371.0624065859256
 21
19269.989009999979
 31
0.0
  0
LINE
  5
1382E
  8
SUNPOU
  6
CONTINUOUS
 62
     4
 10
7371.0624065859238
 20
19519.985578999978
 30
0.0
 11
7371.0624065859201
 21
19759.985578999978
 31
0.0
  0
LINE
  5
1382F
  8
SUNPOU
  6
CONTINUOUS
 62
     4
 10
7371.0624065859238
 20
19509.989009999979
 30
0.0
 11
7371.0624065859238
 21
19519.985578999978
 31
0.0
  0
LINE
  5
13830
  8
SUNPOU
  6
CONTINUOUS
 62
     4
 10
13268.06284158591
 20
20144.987624000019
 30
0.0
 11
13268.06284158591
 21
20219.986635000019
 31
0.0
  0
LINE
  5
13831
  8
SUNPOU
  6
CONTINUOUS
 62
     4
 10
13353.56284158591
 20
19594.98729400001
 30
0.0
 11
13353.56284158591
 21
20219.986635000019
 31
0.0
  0
LINE
  5
13832
  8
SUNPOU
  6
CONTINUOUS
 62
     4
 10
13268.06284158591
 20
20139.986635000019
 30
0.0
 11
13028.06284158591
 21
20139.986635000019
 31
0.0
  0
LINE
  5
13833
  8
SUNPOU
  6
CONTINUOUS
 62
     4
 10
13350.56284158591
 20
20139.986635000019
 30
0.0
 11
13590.56284158591
 21
20139.986635000019
 31
0.0
  0
LINE
  5
13834
  8
SUNPOU
  6
CONTINUOUS
 62
     4
 10
13268.06284158591
 20
20139.986635000019
 30
0.0
 11
13350.56284158591
 21
20139.986635000019
 31
0.0
  0
LINE
  5
13835
  8
SUNPOU
  6
CONTINUOUS
 62
     4
 10
10468.06284158591
 20
20144.987624000001
 30
0.0
 11
10468.06284158591
 21
20219.986635000001
 31
0.0
  0
LINE
  5
13836
  8
SUNPOU
  6
CONTINUOUS
 62
     4
 10
13268.06284158591
 20
20144.987624000019
 30
0.0
 11
13268.06284158591
 21
20219.986635000019
 31
0.0
  0
LINE
  5
13837
  8
SUNPOU
  6
CONTINUOUS
 62
     4
 10
10468.06284158591
 20
20139.986635000001
 30
0.0
 11
13268.06284158591
 21
20139.986635000019
 31
0.0
  0
LINE
  5
13838
  8
SUNPOU
  6
CONTINUOUS
 62
     4
 10
7900.5628415859201
 20
19669.98729399998
 30
0.0
 11
7900.5628415859182
 21
20219.986634999979
 31
0.0
  0
LINE
  5
13839
  8
SUNPOU
  6
CONTINUOUS
 62
     4
 10
10468.06284158591
 20
20144.987624000001
 30
0.0
 11
10468.06284158591
 21
20219.986635000001
 31
0.0
  0
LINE
  5
1383A
  8
SUNPOU
  6
CONTINUOUS
 62
     4
 10
7900.5628415859182
 20
20139.986634999979
 30
0.0
 11
10468.06284158591
 21
20139.986635000001
 31
0.0
  0
LINE
  5
1383B
  8
SUNPOU
  6
CONTINUOUS
 62
     4
 10
7900.5628415859201
 20
19669.98729399998
 30
0.0
 11
7900.5628415859182
 21
20219.986634999979
 31
0.0
  0
LINE
  5
1383C
  8
SUNPOU
  6
CONTINUOUS
 62
     4
 10
7815.0628415859219
 20
19589.98703099999
 30
0.0
 11
7815.0628415859164
 21
20219.986634999979
 31
0.0
  0
LINE
  5
1383D
  8
SUNPOU
  6
CONTINUOUS
 62
     4
 10
7900.5628415859182
 20
20139.986634999979
 30
0.0
 11
8140.5628415859164
 21
20139.986634999979
 31
0.0
  0
LINE
  5
1383E
  8
SUNPOU
  6
CONTINUOUS
 62
     4
 10
7818.0628415859164
 20
20139.986634999979
 30
0.0
 11
7578.0628415859173
 21
20139.986634999979
 31
0.0
  0
LINE
  5
1383F
  8
SUNPOU
  6
CONTINUOUS
 62
     4
 10
7900.5628415859182
 20
20139.986634999979
 30
0.0
 11
7818.0628415859164
 21
20139.986634999979
 31
0.0
  0
LINE
  5
13840
  8
SUNPOU
  6
CONTINUOUS
 62
     4
 10
7815.062841585961
 20
13889.98643699997
 30
0.0
 11
7815.0628415859692
 21
12599.98564499997
 31
0.0
  0
LINE
  5
13841
  8
SUNPOU
  6
CONTINUOUS
 62
     4
 10
13353.56284158595
 20
13889.98643700001
 30
0.0
 11
13353.562841585959
 21
12599.98564500001
 31
0.0
  0
LINE
  5
13842
  8
SUNPOU
  6
CONTINUOUS
 62
     4
 10
7818.0628415859692
 20
12679.98564499997
 30
0.0
 11
13350.562841585959
 21
12679.98564500001
 31
0.0
  0
LINE
  5
13843
  8
0-6
  6
CONTINUOUS
 62
     6
 10
11196.40296821053
 20
16533.767321090651
 30
0.0
 11
11137.652969581821
 21
16684.985315999991
 31
0.0
  0
LINE
  5
13844
  8
0-6
  6
CONTINUOUS
 62
     6
 10
11137.652969581821
 20
16684.985315999991
 30
0.0
 11
11242.263961268651
 21
16560.989409851551
 31
0.0
  0
LINE
  5
13845
  8
0-6
  6
CONTINUOUS
 62
     6
 10
11242.263961268651
 20
16560.989409851551
 30
0.0
 11
11196.40296821053
 21
16533.767321090651
 31
0.0
  0
LINE
  5
13846
  8
0-6
  6
CONTINUOUS
 62
     6
 10
12295.278916028819
 20
14805.886684927989
 30
0.0
 11
12415.133642935351
 21
14915.21778188321
 31
0.0
  0
LINE
  5
13847
  8
0-6
  6
CONTINUOUS
 62
     6
 10
12415.133642935351
 20
14915.21778188321
 30
0.0
 11
12337.20824489856
 21
14772.929073040659
 31
0.0
  0
LINE
  5
13848
  8
0-6
  6
CONTINUOUS
 62
     6
 10
12337.20824489856
 20
14772.929073040659
 30
0.0
 11
12295.278916028819
 21
14805.886684927989
 31
0.0
  0
LINE
  5
13849
  8
0-6
  6
CONTINUOUS
 62
     6
 10
9508.1955620797999
 20
16944.10254427827
 30
0.0
 11
9539.8352084485505
 21
16784.988192000001
 31
0.0
  0
LINE
  5
1384A
  8
0-6
  6
CONTINUOUS
 62
     6
 10
9539.8352084485505
 20
16784.988192000001
 30
0.0
 11
9458.3090825461804
 21
16925.244867843339
 31
0.0
  0
LINE
  5
1384B
  8
0-6
  6
CONTINUOUS
 62
     6
 10
9458.3090825461804
 20
16925.244867843339
 30
0.0
 11
9508.1955620797999
 21
16944.10254427827
 31
0.0
  0
LINE
  5
1384C
  8
0-6
  6
CONTINUOUS
 62
     6
 10
13146.1888538154
 20
14377.566900689029
 30
0.0
 11
13215.063210585949
 21
14524.424990177669
 31
0.0
  0
LINE
  5
1384D
  8
0-6
  6
CONTINUOUS
 62
     6
 10
13215.063210585949
 20
14524.424990177669
 30
0.0
 11
13102.2805873699
 21
14407.84204586486
 31
0.0
  0
LINE
  5
1384E
  8
0-6
  6
CONTINUOUS
 62
     6
 10
13102.2805873699
 20
14407.84204586486
 30
0.0
 11
13146.1888538154
 21
14377.566900689029
 31
0.0
  0
TEXT
  5
1384F
  8
0
  6
CONTINUOUS
 62
     7
 10
9688.3128415859574
 20
12759.985644999981
 30
0.0
 40
160.0
  1
ケラバ外寸5538.5
 50
0.0000000000003997
  0
TEXT
  5
13850
  8
0
  6
CONTINUOUS
 62
     7
 10
7325.4156975859169
 20
20219.98491899998
 30
0.0
 40
160.0
  1
85.5
 50
0.0000000000003997
  0
TEXT
  5
13851
  8
0
  6
CONTINUOUS
 62
     7
 10
8784.3128415859173
 20
20219.98663499999
 30
0.0
 40
160.0
  1
2567.5
 50
0.0000000000003997
  0
TEXT
  5
13852
  8
0
  6
CONTINUOUS
 62
     7
 10
11601.39617491924
 20
20219.986635000008
 30
0.0
 40
160.0
  1
2800
 50
0.0000000000003997
  0
TEXT
  5
13853
  8
0
  6
CONTINUOUS
 62
     7
 10
13414.41062958592
 20
20219.98491900002
 30
0.0
 40
160.0
  1
85.5
 50
0.0000000000003997
  0
TEXT
  5
13854
  8
0
  6
CONTINUOUS
 62
     7
 10
7306.3849852668409
 20
19691.414439666649
 30
0.0
 40
160.0
  1
10
 50
90.0
  0
TEXT
  5
13855
  8
0
  6
CONTINUOUS
 62
     7
 10
6891.0630655860396
 20
19598.467233389219
 30
0.0
 40
160.0
  1
222.5
 50
90.0
  0
TEXT
  5
13856
  8
0
  6
CONTINUOUS
 62
     7
 10
6891.0630655860059
 20
17613.735710999979
 30
0.0
 40
160.0
  1
2567.5
 50
90.0
  0
TEXT
  5
13857
  8
0
  6
CONTINUOUS
 62
     7
 10
6891.0630655859659
 20
15046.23571099999
 30
0.0
 40
160.0
  1
2567.5
 50
90.0
  0
TEXT
  5
13858
  8
0
  6
CONTINUOUS
 62
     7
 10
6891.0630655859431
 20
13305.99680859056
 30
0.0
 40
160.0
  1
192.5
 50
90.0
  0
ARC
  5
13859
  8
0
  6
BYBLOCK
 62
     0
 10
6971.0630655859577
 20
14162.485710999979
 30
0.0
 40
15.0
 50
90.0
 51
270.0
  0
ARC
  5
1385A
  8
0
  6
BYBLOCK
 62
     0
 10
6971.0630655859577
 20
14162.485710999979
 30
0.0
 40
15.0
 50
270.0
 51
90.0
  0
ARC
  5
1385B
  8
0
  6
BYBLOCK
 62
     0
 10
6971.0630655859577
 20
13969.98643699997
 30
0.0
 40
15.0
 50
270.0
 51
90.0
  0
ARC
  5
1385C
  8
0
  6
BYBLOCK
 62
     0
 10
6971.0630655859577
 20
13969.98643699997
 30
0.0
 40
15.0
 50
90.0
 51
270.0
  0
ARC
  5
1385D
  8
0
  6
BYBLOCK
 62
     0
 10
6971.0630655859422
 20
16729.985710999968
 30
0.0
 40
15.0
 50
90.0
 51
270.0
  0
ARC
  5
1385E
  8
0
  6
BYBLOCK
 62
     0
 10
6971.0630655859422
 20
16729.985710999968
 30
0.0
 40
15.0
 50
270.0
 51
90.0
  0
ARC
  5
1385F
  8
0
  6
BYBLOCK
 62
     0
 10
6971.0630655859577
 20
14162.485710999979
 30
0.0
 40
15.0
 50
270.0
 51
90.0
  0
ARC
  5
13860
  8
0
  6
BYBLOCK
 62
     0
 10
6971.0630655859577
 20
14162.485710999979
 30
0.0
 40
15.0
 50
90.0
 51
270.0
  0
ARC
  5
13861
  8
0
  6
BYBLOCK
 62
     0
 10
6971.0630655859222
 20
19297.485710999968
 30
0.0
 40
15.0
 50
90.0
 51
270.0
  0
ARC
  5
13862
  8
0
  6
BYBLOCK
 62
     0
 10
6971.0630655859222
 20
19297.485710999968
 30
0.0
 40
15.0
 50
270.0
 51
90.0
  0
ARC
  5
13863
  8
0
  6
BYBLOCK
 62
     0
 10
6971.0630655859422
 20
16729.985710999968
 30
0.0
 40
15.0
 50
270.0
 51
90.0
  0
ARC
  5
13864
  8
0
  6
BYBLOCK
 62
     0
 10
6971.0630655859422
 20
16729.985710999968
 30
0.0
 40
15.0
 50
90.0
 51
270.0
  0
ARC
  5
13865
  8
0
  6
BYBLOCK
 62
     0
 10
6971.0630655859222
 20
19297.485710999968
 30
0.0
 40
15.0
 50
270.0
 51
90.0
  0
ARC
  5
13866
  8
0
  6
BYBLOCK
 62
     0
 10
6971.0630655859222
 20
19297.485710999968
 30
0.0
 40
15.0
 50
90.0
 51
270.0
  0
ARC
  5
13867
  8
0
  6
BYBLOCK
 62
     0
 10
6971.0630655859222
 20
19519.985578999978
 30
0.0
 40
15.0
 50
90.0
 51
270.0
  0
ARC
  5
13868
  8
0
  6
BYBLOCK
 62
     0
 10
6971.0630655859222
 20
19519.985578999978
 30
0.0
 40
15.0
 50
270.0
 51
90.0
  0
ARC
  5
13869
  8
0
  6
BYBLOCK
 62
     0
 10
7371.0624065859238
 20
19509.989009999979
 30
0.0
 40
15.0
 50
90.0
 51
270.0
  0
ARC
  5
1386A
  8
0
  6
BYBLOCK
 62
     0
 10
7371.0624065859238
 20
19509.989009999979
 30
0.0
 40
15.0
 50
270.0
 51
90.0
  0
ARC
  5
1386B
  8
0
  6
BYBLOCK
 62
     0
 10
7371.0624065859238
 20
19519.985578999978
 30
0.0
 40
15.0
 50
270.0
 51
90.0
  0
ARC
  5
1386C
  8
0
  6
BYBLOCK
 62
     0
 10
7371.0624065859238
 20
19519.985578999978
 30
0.0
 40
15.0
 50
90.0
 51
270.0
  0
ARC
  5
1386D
  8
0
  6
BYBLOCK
 62
     0
 10
13268.06284158591
 20
20139.986635000019
 30
0.0
 40
15.0
 50
0.0
 51
180.0
  0
ARC
  5
1386E
  8
0
  6
BYBLOCK
 62
     0
 10
13268.06284158591
 20
20139.986635000019
 30
0.0
 40
15.0
 50
180.0
 51
0.0
  0
ARC
  5
1386F
  8
0
  6
BYBLOCK
 62
     0
 10
13353.56284158591
 20
20139.986635000019
 30
0.0
 40
15.0
 50
180.0
 51
0.0
  0
ARC
  5
13870
  8
0
  6
BYBLOCK
 62
     0
 10
13353.56284158591
 20
20139.986635000019
 30
0.0
 40
15.0
 50
0.0
 51
180.0
  0
ARC
  5
13871
  8
0
  6
BYBLOCK
 62
     0
 10
10468.06284158591
 20
20139.986635000001
 30
0.0
 40
15.0
 50
180.0
 51
0.0
  0
ARC
  5
13872
  8
0
  6
BYBLOCK
 62
     0
 10
10468.06284158591
 20
20139.986635000001
 30
0.0
 40
15.0
 50
0.0
 51
180.0
  0
ARC
  5
13873
  8
0
  6
BYBLOCK
 62
     0
 10
13268.06284158591
 20
20139.986635000019
 30
0.0
 40
15.0
 50
0.0
 51
180.0
  0
ARC
  5
13874
  8
0
  6
BYBLOCK
 62
     0
 10
13268.06284158591
 20
20139.986635000019
 30
0.0
 40
15.0
 50
180.0
 51
0.0
  0
ARC
  5
13875
  8
0
  6
BYBLOCK
 62
     0
 10
7900.5628415859182
 20
20139.986634999979
 30
0.0
 40
15.0
 50
180.0
 51
0.0
  0
ARC
  5
13876
  8
0
  6
BYBLOCK
 62
     0
 10
7900.5628415859182
 20
20139.986634999979
 30
0.0
 40
15.0
 50
0.0
 51
180.0
  0
ARC
  5
13877
  8
0
  6
BYBLOCK
 62
     0
 10
10468.06284158591
 20
20139.986635000001
 30
0.0
 40
15.0
 50
0.0
 51
180.0
  0
ARC
  5
13878
  8
0
  6
BYBLOCK
 62
     0
 10
10468.06284158591
 20
20139.986635000001
 30
0.0
 40
15.0
 50
180.0
 51
0.0
  0
ARC
  5
13879
  8
0
  6
BYBLOCK
 62
     0
 10
7900.5628415859182
 20
20139.986634999979
 30
0.0
 40
15.0
 50
180.0
 51
0.0
  0
ARC
  5
1387A
  8
0
  6
BYBLOCK
 62
     0
 10
7900.5628415859182
 20
20139.986634999979
 30
0.0
 40
15.0
 50
0.0
 51
180.0
  0
ARC
  5
1387B
  8
0
  6
BYBLOCK
 62
     0
 10
7818.0628415859164
 20
20139.986634999979
 30
0.0
 40
15.0
 50
0.0
 51
180.0
  0
ARC
  5
1387C
  8
0
  6
BYBLOCK
 62
     0
 10
7818.0628415859164
 20
20139.986634999979
 30
0.0
 40
15.0
 50
180.0
 51
0.0
  0
ARC
  5
1387D
  8
0
  6
BYBLOCK
 62
     0
 10
7815.0628415859692
 20
12679.98564499997
 30
0.0
 40
15.0
 50
180.0
 51
0.0
  0
ARC
  5
1387E
  8
0
  6
BYBLOCK
 62
     0
 10
7815.0628415859692
 20
12679.98564499997
 30
0.0
 40
15.0
 50
0.0
 51
180.0
  0
ARC
  5
1387F
  8
0
  6
BYBLOCK
 62
     0
 10
13353.562841585959
 20
12679.98564500001
 30
0.0
 40
15.0
 50
0.0
 51
180.0
  0
ARC
  5
13880
  8
0
  6
BYBLOCK
 62
     0
 10
13353.562841585959
 20
12679.98564500001
 30
0.0
 40
15.0
 50
180.0
 51
0.0
  0
TEXT
  5
1388E
  8
NAME
 10
21595.82616625919
 20
1076.6369801169251
 30
0.0
 40
360.0
  1
VGC-2652（H）+VKC-2852（H）型-R（単棟）
 41
0.45
  0
TEXT
  5
1388F
  8
NAME
 10
21933.552716389011
 20
1876.0
 30
0.0
 40
360.0
  1
ヨドガレージ ラヴィージュ
 41
0.75
  7
01
  0
LINE
  5
13890
  8
NAME
  6
CONTINUOUS
 10
26067.886878884299
 20
2236.0
 30
0.0
 11
26067.886878884299
 21
1876.0
 31
0.0
  0
LINE
  5
13891
  8
NAME
  6
CONTINUOUS
 10
26167.886878884299
 20
2236.0
 30
0.0
 11
26167.886878884299
 21
1876.0
 31
0.0
  0
LINE
  5
13892
  8
NAME
  6
CONTINUOUS
 10
26267.88687888431
 20
2236.0
 30
0.0
 11
26267.88687888431
 21
1876.0
 31
0.0
  0
LINE
  5
13893
  8
NAME
  6
CONTINUOUS
 10
26007.886878884299
 20
2236.0
 30
0.0
 11
26327.886878884299
 21
2236.0
 31
0.0
  0
LINE
  5
13894
  8
NAME
  6
CONTINUOUS
 10
26327.886878884299
 20
1876.0
 30
0.0
 11
26007.886878884299
 21
1876.0
 31
0.0
  0
TEXT
  5
139C9
  8
FILENAME
  6
CONTINUOUS
 10
26480.19047619047
 20
348.0
 30
0.0
 40
200.0
  1
＜VGC-2652+VKC-2852-R-1-A_0.DXF ＞
  7
FILENAME
 72
     2
 11
32764.0
 21
348.0
 31
0.0
  0
LINE
  5
139CE
  8
WAKUSEN-01
 10
868.00000000000193
 20
827.99999999999955
 30
0.0
 11
32764.000000000011
 21
827.99999999999943
 31
0.0
  0
LINE
  5
139CF
  8
WAKUSEN-01
 10
868.00000000000193
 20
827.99999999999955
 30
0.0
 11
868.00000000000193
 21
22484.000000000011
 31
0.0
  0
LINE
  5
139D0
  8
WAKUSEN-01
 10
32764.000000000011
 20
827.99999999999943
 30
0.0
 11
32764.000000000011
 21
22484.000000000011
 31
0.0
  0
LINE
  5
139D1
  8
WAKUSEN-01
 10
20560.0
 20
827.99999999999716
 30
0.0
 11
20560.0
 21
2484.0
 31
0.0
  0
LINE
  5
139D2
  8
WAKUSEN-02
 10
26868.0
 20
827.99999999999261
 30
0.0
 11
26868.0
 21
2484.0
 31
0.0
  0
ENDSEC
  0
EOF
