  0
SECTION
  2
HEADER
  9
$ACADVER
  1
AC1015
  9
$ACADMAINTVER
 70
    13
  9
$DWGCODEPAGE
  3
ANSI_932
  9
$INSBASE
 10
267.0
 20
194.8999999999998
 30
0.0
  9
$EXTMIN
 10
325.4974662390304
 20
122.7681178119601
 30
-0.0000000000000053
  9
$EXTMAX
 10
12286.99954069103
 20
8431.707478684501
 30
0.0000000000000099
  9
$LIMMIN
 10
0.0
 20
0.0
  9
$LIMMAX
 10
12600.0
 20
8910.0
  9
$ORTHOMODE
 70
     0
  9
$REGENMODE
 70
     1
  9
$FILLMODE
 70
     1
  9
$QTEXTMODE
 70
     0
  9
$MIRRTEXT
 70
     0
  9
$LTSCALE
 40
30.0
  9
$ATTMODE
 70
     1
  9
$TEXTSIZE
 40
0.2
  9
$TRACEWID
 40
0.05
  9
$TEXTSTYLE
  7
00
  9
$CLAYER
  8
SUNPOU
  9
$CELTYPE
  6
ByLayer
  9
$CECOLOR
 62
   256
  9
$CELTSCALE
 40
1.0
  9
$DISPSILH
 70
     0
  9
$DIMSCALE
 40
30.0
  9
$DIMASZ
 40
0.5
  9
$DIMEXO
 40
1.0
  9
$DIMDLI
 40
7.0
  9
$DIMRND
 40
0.0
  9
$DIMDLE
 40
3.0
  9
$DIMEXE
 40
1.5
  9
$DIMTP
 40
0.0
  9
$DIMTM
 40
0.0
  9
$DIMTXT
 40
3.0
  9
$DIMCEN
 40
0.0
  9
$DIMTSZ
 40
0.0
  9
$DIMTOL
 70
     0
  9
$DIMLIM
 70
     0
  9
$DIMTIH
 70
     0
  9
$DIMTOH
 70
     0
  9
$DIMSE1
 70
     0
  9
$DIMSE2
 70
     0
  9
$DIMTAD
 70
     1
  9
$DIMZIN
 70
     8
  9
$DIMBLK
  1
DOT
  9
$DIMASO
 70
     1
  9
$DIMSHO
 70
     0
  9
$DIMPOST
  1

  9
$DIMAPOST
  1

  9
$DIMALT
 70
     0
  9
$DIMALTD
 70
     2
  9
$DIMALTF
 40
25.4
  9
$DIMLFAC
 40
1.0
  9
$DIMTOFL
 70
     1
  9
$DIMTVP
 40
0.0
  9
$DIMTIX
 70
     0
  9
$DIMSOXD
 70
     0
  9
$DIMSAH
 70
     1
  9
$DIMBLK1
  1
DOT
  9
$DIMBLK2
  1
DOT
  9
$DIMSTYLE
  2
SUNPOU
  9
$DIMCLRD
 70
   256
  9
$DIMCLRE
 70
   256
  9
$DIMCLRT
 70
   256
  9
$DIMTFAC
 40
1.0
  9
$DIMGAP
 40
1.5
  9
$DIMJUST
 70
     0
  9
$DIMSD1
 70
     0
  9
$DIMSD2
 70
     0
  9
$DIMTOLJ
 70
     1
  9
$DIMTZIN
 70
     0
  9
$DIMALTZ
 70
     0
  9
$DIMALTTZ
 70
     0
  9
$DIMUPT
 70
     0
  9
$DIMDEC
 70
     4
  9
$DIMTDEC
 70
     4
  9
$DIMALTU
 70
     2
  9
$DIMALTTD
 70
     2
  9
$DIMTXSTY
  7
STANDARD
  9
$DIMAUNIT
 70
     0
  9
$DIMADEC
 70
     0
  9
$DIMALTRND
 40
0.0
  9
$DIMAZIN
 70
     0
  9
$DIMDSEP
 70
    46
  9
$DIMATFIT
 70
     3
  9
$DIMFRAC
 70
     0
  9
$DIMLDRBLK
  1
DOT
  9
$DIMLUNIT
 70
     2
  9
$DIMLWD
 70
    -2
  9
$DIMLWE
 70
    -2
  9
$DIMTMOVE
 70
     0
  9
$LUNITS
 70
     2
  9
$LUPREC
 70
     2
  9
$SKETCHINC
 40
0.1
  9
$FILLETRAD
 40
5.0
  9
$AUNITS
 70
     0
  9
$AUPREC
 70
     0
  9
$MENU
  1
A:\TIGER\MENU\TIGER
  9
$ELEVATION
 40
0.0
  9
$PELEVATION
 40
0.0
  9
$THICKNESS
 40
0.0
  9
$LIMCHECK
 70
     0
  9
$CHAMFERA
 40
0.0
  9
$CHAMFERB
 40
0.0
  9
$CHAMFERC
 40
0.0
  9
$CHAMFERD
 40
0.0
  9
$SKPOLY
 70
     0
  9
$TDCREATE
 40
2450266.571064815
  9
$TDUCREATE
 40
2450266.196064815
  9
$TDUPDATE
 40
2456330.310270359
  9
$TDUUPDATE
 40
2456329.935270359
  9
$TDINDWG
 40
0.1613131366
  9
$TDUSRTIMER
 40
0.1613129514
  9
$USRTIMER
 70
     1
  9
$ANGBASE
 50
0.0
  9
$ANGDIR
 70
     0
  9
$PDMODE
 70
     0
  9
$PDSIZE
 40
0.0
  9
$PLINEWID
 40
0.0
  9
$SPLFRAME
 70
     0
  9
$SPLINETYPE
 70
     6
  9
$SPLINESEGS
 70
     8
  9
$HANDSEED
  5
21090
  9
$SURFTAB1
 70
     6
  9
$SURFTAB2
 70
     6
  9
$SURFTYPE
 70
     6
  9
$SURFU
 70
     6
  9
$SURFV
 70
     6
  9
$UCSBASE
  2

  9
$UCSNAME
  2

  9
$UCSORG
 10
0.0
 20
0.0
 30
0.0
  9
$UCSXDIR
 10
1.0
 20
0.0
 30
0.0
  9
$UCSYDIR
 10
0.0
 20
1.0
 30
0.0
  9
$UCSORTHOREF
  2

  9
$UCSORTHOVIEW
 70
     0
  9
$UCSORGTOP
 10
0.0
 20
0.0
 30
0.0
  9
$UCSORGBOTTOM
 10
0.0
 20
0.0
 30
0.0
  9
$UCSORGLEFT
 10
0.0
 20
0.0
 30
0.0
  9
$UCSORGRIGHT
 10
0.0
 20
0.0
 30
0.0
  9
$UCSORGFRONT
 10
0.0
 20
0.0
 30
0.0
  9
$UCSORGBACK
 10
0.0
 20
0.0
 30
0.0
  9
$PUCSBASE
  2

  9
$PUCSNAME
  2

  9
$PUCSORG
 10
0.0
 20
0.0
 30
0.0
  9
$PUCSXDIR
 10
1.0
 20
0.0
 30
0.0
  9
$PUCSYDIR
 10
0.0
 20
1.0
 30
0.0
  9
$PUCSORTHOREF
  2

  9
$PUCSORTHOVIEW
 70
     0
  9
$PUCSORGTOP
 10
0.0
 20
0.0
 30
0.0
  9
$PUCSORGBOTTOM
 10
0.0
 20
0.0
 30
0.0
  9
$PUCSORGLEFT
 10
0.0
 20
0.0
 30
0.0
  9
$PUCSORGRIGHT
 10
0.0
 20
0.0
 30
0.0
  9
$PUCSORGFRONT
 10
0.0
 20
0.0
 30
0.0
  9
$PUCSORGBACK
 10
0.0
 20
0.0
 30
0.0
  9
$USERI1
 70
     3
  9
$USERI2
 70
     0
  9
$USERI3
 70
     0
  9
$USERI4
 70
     0
  9
$USERI5
 70
  1103
  9
$USERR1
 40
0.0
  9
$USERR2
 40
1.0
  9
$USERR3
 40
0.0
  9
$USERR4
 40
0.0
  9
$USERR5
 40
0.0
  9
$WORLDVIEW
 70
     1
  9
$SHADEDGE
 70
     3
  9
$SHADEDIF
 70
    70
  9
$TILEMODE
 70
     1
  9
$MAXACTVP
 70
    16
  9
$PINSBASE
 10
0.0
 20
0.0
 30
0.0
  9
$PLIMCHECK
 70
     0
  9
$PEXTMIN
 10
1.000000000000000E+20
 20
1.000000000000000E+20
 30
1.000000000000000E+20
  9
$PEXTMAX
 10
-1.000000000000000E+20
 20
-1.000000000000000E+20
 30
-1.000000000000000E+20
  9
$PLIMMIN
 10
0.0
 20
0.0
  9
$PLIMMAX
 10
12.0
 20
9.0
  9
$UNITMODE
 70
     0
  9
$VISRETAIN
 70
     0
  9
$PLINEGEN
 70
     1
  9
$PSLTSCALE
 70
     0
  9
$TREEDEPTH
 70
  3020
  9
$CMLSTYLE
  2
Standard
  9
$CMLJUST
 70
     0
  9
$CMLSCALE
 40
1.0
  9
$PROXYGRAPHICS
 70
     1
  9
$MEASUREMENT
 70
     0
  9
$CELWEIGHT
370
    -1
  9
$ENDCAPS
280
     0
  9
$JOINSTYLE
280
     0
  9
$LWDISPLAY
290
     0
  9
$INSUNITS
 70
     0
  9
$HYPERLINKBASE
  1

  9
$STYLESHEET
  1

  9
$XEDIT
290
     1
  9
$CEPSNTYPE
380
     0
  9
$PSTYLEMODE
290
     1
  9
$FINGERPRINTGUID
  2
{CF00F9B1-7A61-4B6E-BC11-2A0873ABB8A7}
  9
$VERSIONGUID
  2
{58C5A9F4-D9C4-4B95-8A43-43E5003AC8F1}
  9
$EXTNAMES
290
     1
  9
$PSVPSCALE
 40
0.0
  9
$OLESTARTUP
290
     0
  0
ENDSEC
  0
SECTION
  2
CLASSES
  0
CLASS
  1
ACDBDICTIONARYWDFLT
  2
AcDbDictionaryWithDefault
  3
AutoCAD 2000
 90
        0
280
     0
281
     0
  0
CLASS
  1
ACDBPLACEHOLDER
  2
AcDbPlaceHolder
  3
AutoCAD 2000
 90
        0
280
     0
281
     0
  0
CLASS
  1
LAYOUT
  2
AcDbLayout
  3
AutoCAD 2000
 90
        0
280
     0
281
     0
  0
CLASS
  1
DICTIONARYVAR
  2
AcDbDictionaryVar
  3
AutoCAD 2000
 90
        0
280
     0
281
     0
  0
ENDSEC
  0
SECTION
  2
TABLES
  0
TABLE
  2
VPORT
  5
20CC9
330
0
100
AcDbSymbolTable
 70
     2
  0
VPORT
  5
2108F
330
20CC9
100
AcDbSymbolTableRecord
100
AcDbViewportTableRecord
  2
*Active
 70
     0
 10
0.0
 20
0.0
 11
1.0
 21
1.0
 12
6306.248503465031
 22
4277.237798248231
 13
0.0
 23
0.0
 14
1.0
 24
1.0
 15
0.0
 25
0.0
 16
0.0
 26
0.0
 36
1.0
 17
0.0
 27
0.0
 37
0.0
 40
9736.810759336549
 41
1.236040609137055
 42
50.0
 43
0.0
 44
0.0
 50
0.0
 51
0.0
 71
     0
 72
 10000
 73
     1
 74
     0
 75
     0
 76
     0
 77
     0
 78
     0
281
     0
 65
     1
110
0.0
120
0.0
130
0.0
111
1.0
121
0.0
131
0.0
112
0.0
122
1.0
132
0.0
 79
     0
146
0.0
  0
ENDTAB
  0
TABLE
  2
LTYPE
  5
20CC6
330
0
100
AcDbSymbolTable
 70
     4
  0
LTYPE
  5
20CD4
330
20CC6
100
AcDbSymbolTableRecord
100
AcDbLinetypeTableRecord
  2
ByBlock
 70
     0
  3

 72
    65
 73
     0
 40
0.0
  0
LTYPE
  5
20CD5
330
20CC6
100
AcDbSymbolTableRecord
100
AcDbLinetypeTableRecord
  2
ByLayer
 70
     0
  3

 72
    65
 73
     0
 40
0.0
  0
LTYPE
  5
20CD6
330
20CC6
100
AcDbSymbolTableRecord
100
AcDbLinetypeTableRecord
  2
CONTINUOUS
 70
     0
  3
実線
 72
    65
 73
     0
 40
0.0
  0
LTYPE
  5
20CE6
330
20CC6
100
AcDbSymbolTableRecord
100
AcDbLinetypeTableRecord
  2
1PL-M
 70
     0
  3

 72
    65
 73
     4
 40
15.0
 49
12.0
 74
     0
 49
-1.0
 74
     0
 49
1.0
 74
     0
 49
-1.0
 74
     0
  0
LTYPE
  5
20CE7
330
20CC6
100
AcDbSymbolTableRecord
100
AcDbLinetypeTableRecord
  2
1PL-S
 70
     0
  3

 72
    65
 73
     4
 40
4.0
 49
2.5
 74
     0
 49
-0.5
 74
     0
 49
0.5
 74
     0
 49
-0.5
 74
     0
  0
LTYPE
  5
20CE8
330
20CC6
100
AcDbSymbolTableRecord
100
AcDbLinetypeTableRecord
  2
2PL-L
 70
     0
  3

 72
    65
 73
     6
 40
60.0
 49
50.0
 74
     0
 49
-2.0
 74
     0
 49
2.0
 74
     0
 49
-2.0
 74
     0
 49
2.0
 74
     0
 49
-2.0
 74
     0
  0
ENDTAB
  0
TABLE
  2
LAYER
  5
20CC3
330
0
100
AcDbSymbolTable
 70
    18
  0
LAYER
  5
20CD1
330
20CC3
100
AcDbSymbolTableRecord
100
AcDbLayerTableRecord
  2
0
 70
     0
 62
     7
  6
CONTINUOUS
370
    -3
390
20CD0
  0
LAYER
  5
20CE3
330
20CC3
100
AcDbSymbolTableRecord
100
AcDbLayerTableRecord
  2
SUNPOU
 70
     0
 62
     4
  6
CONTINUOUS
370
    -3
390
20CD0
  0
LAYER
  5
20CE9
330
20CC3
100
AcDbSymbolTableRecord
100
AcDbLayerTableRecord
  2
U1
 70
     0
 62
     3
  6
CONTINUOUS
370
    -3
390
20CD0
  0
LAYER
  5
20CEA
330
20CC3
100
AcDbSymbolTableRecord
100
AcDbLayerTableRecord
  2
U2
 70
     0
 62
     4
  6
CONTINUOUS
370
    -3
390
20CD0
  0
LAYER
  5
20CEB
330
20CC3
100
AcDbSymbolTableRecord
100
AcDbLayerTableRecord
  2
U3
 70
     0
 62
     6
  6
CONTINUOUS
370
    -3
390
20CD0
  0
LAYER
  5
20CEC
330
20CC3
100
AcDbSymbolTableRecord
100
AcDbLayerTableRecord
  2
HIKIDASHI
 70
     0
 62
     6
  6
CONTINUOUS
370
    -3
390
20CD0
  0
LAYER
  5
20CED
330
20CC3
100
AcDbSymbolTableRecord
100
AcDbLayerTableRecord
  2
1PL-S1
 70
     0
 62
     6
  6
1PL-S
370
    -3
390
20CD0
  0
LAYER
  5
20CEE
330
20CC3
100
AcDbSymbolTableRecord
100
AcDbLayerTableRecord
  2
1PL-M1
 70
     0
 62
     6
  6
1PL-M
370
    -3
390
20CD0
  0
LAYER
  5
20CEF
330
20CC3
100
AcDbSymbolTableRecord
100
AcDbLayerTableRecord
  2
2PL-L2
 70
     0
 62
     1
  6
2PL-L
370
    -3
390
20CD0
  0
LAYER
  5
20CF0
330
20CC3
100
AcDbSymbolTableRecord
100
AcDbLayerTableRecord
  2
KISO
 70
     0
 62
     2
  6
CONTINUOUS
370
    -3
390
20CD0
  0
LAYER
  5
20CF1
330
20CC3
100
AcDbSymbolTableRecord
100
AcDbLayerTableRecord
  2
HATCH
 70
     0
 62
     1
  6
CONTINUOUS
370
    -3
390
20CD0
  0
LAYER
  5
20CF2
330
20CC3
100
AcDbSymbolTableRecord
100
AcDbLayerTableRecord
  2
NAME
 70
     0
 62
    20
  6
CONTINUOUS
370
    -3
390
20CD0
  0
LAYER
  5
20CF3
330
20CC3
100
AcDbSymbolTableRecord
100
AcDbLayerTableRecord
  2
FILENAME
 70
     0
 62
     7
  6
CONTINUOUS
370
    -3
390
20CD0
  0
LAYER
  5
20CF4
330
20CC3
100
AcDbSymbolTableRecord
100
AcDbLayerTableRecord
  2
HASHIRA
 70
     0
 62
     3
  6
CONTINUOUS
370
    -3
390
20CD0
  0
LAYER
  5
20CF5
330
20CC3
100
AcDbSymbolTableRecord
100
AcDbLayerTableRecord
  2
YODOROGO
 70
     0
 62
   130
  6
CONTINUOUS
370
    -3
390
20CD0
  0
LAYER
  5
20CF6
330
20CC3
100
AcDbSymbolTableRecord
100
AcDbLayerTableRecord
  2
WAKUSEN-01
 70
     0
 62
    50
  6
CONTINUOUS
370
    -3
390
20CD0
  0
LAYER
  5
20CF7
330
20CC3
100
AcDbSymbolTableRecord
100
AcDbLayerTableRecord
  2
WAKUSEN-02
 70
     0
 62
   130
  6
CONTINUOUS
370
    -3
390
20CD0
  0
LAYER
  5
20CF8
330
20CC3
100
AcDbSymbolTableRecord
100
AcDbLayerTableRecord
  2
WAKUMOJI-01
 70
     0
 62
   130
  6
CONTINUOUS
370
    -3
390
20CD0
  0
ENDTAB
  0
TABLE
  2
STYLE
  5
20CC4
330
0
100
AcDbSymbolTable
 70
     5
  0
STYLE
  5
20CD2
330
20CC4
100
AcDbSymbolTableRecord
100
AcDbTextStyleTableRecord
  2
STANDARD
 70
     0
 40
3.0
 41
1.0
 50
0.0
 71
     0
 42
0.2
  3
ROMANS
  4
EXTFONT
  0
STYLE
  5
20CE4
330
20CC4
100
AcDbSymbolTableRecord
100
AcDbTextStyleTableRecord
  2
00
 70
     0
 40
0.0
 41
0.6666666666666666
 50
0.0
 71
     0
 42
0.2
  3
ROMANS
  4
BIGFONT
  0
STYLE
  5
20CF9
330
20CC4
100
AcDbSymbolTableRecord
100
AcDbTextStyleTableRecord
  2
01
 70
     0
 40
3.0
 41
1.0
 50
0.0
 71
     0
 42
0.2
  3
ROMANS
  4
BIGFONT
  0
STYLE
  5
20CFA
330
20CC4
100
AcDbSymbolTableRecord
100
AcDbTextStyleTableRecord
  2
WAKUMOJI
 70
     0
 40
3.0
 41
1.0
 50
0.0
 71
     0
 42
3.0
  3
SIMPLEX
  4
BIGFONT
  0
STYLE
  5
20CFB
330
20CC4
100
AcDbSymbolTableRecord
100
AcDbTextStyleTableRecord
  2
FILENAME
 70
     0
 40
75.0
 41
1.0
 50
0.0
 71
     0
 42
75.0
  3
romans
  4
bigfont
  0
ENDTAB
  0
TABLE
  2
VIEW
  5
20CC7
330
0
100
AcDbSymbolTable
 70
     0
  0
ENDTAB
  0
TABLE
  2
UCS
  5
20CC8
330
0
100
AcDbSymbolTable
 70
     0
  0
ENDTAB
  0
TABLE
  2
APPID
  5
20CCA
330
0
100
AcDbSymbolTable
 70
     4
  0
APPID
  5
20CD3
330
20CCA
100
AcDbSymbolTableRecord
100
AcDbRegAppTableRecord
  2
ACAD
 70
     0
  0
APPID
  5
20CFC
330
20CCA
100
AcDbSymbolTableRecord
100
AcDbRegAppTableRecord
  2
AUTOCAD_POSTSCRIPT_FIGURE
 70
     0
  0
APPID
  5
20CFD
330
20CCA
100
AcDbSymbolTableRecord
100
AcDbRegAppTableRecord
  2
ACAD_PSEXT
 70
     0
  0
APPID
  5
20CFE
330
20CCA
100
AcDbSymbolTableRecord
100
AcDbRegAppTableRecord
  2
ACAD_EXEMPT_FROM_CAD_STANDARDS
 70
     0
  0
ENDTAB
  0
TABLE
  2
DIMSTYLE
  5
20CCB
330
0
100
AcDbSymbolTable
 70
     1
100
AcDbDimStyleTable
 71
     0
  0
DIMSTYLE
105
20CFF
330
20CCB
100
AcDbSymbolTableRecord
100
AcDbDimStyleTableRecord
  2
SUNPOU
 70
     0
 40
30.0
 41
0.5
 42
1.0
 43
7.0
 44
1.5
 46
3.0
 73
     0
 74
     0
 77
     1
 78
     8
140
3.0
141
0.0
147
1.5
172
     1
173
     1
176
   256
177
   256
178
   256
271
     2
272
     2
279
     2
284
     8
285
     8
286
     8
340
20CE4
  0
ENDTAB
  0
TABLE
  2
BLOCK_RECORD
  5
20CC2
330
0
100
AcDbSymbolTable
 70
    12
  0
BLOCK_RECORD
  5
20CDF
330
20CC2
100
AcDbSymbolTableRecord
100
AcDbBlockTableRecord
  2
*Model_Space
340
20CE2
  0
BLOCK_RECORD
  5
20CDB
330
20CC2
100
AcDbSymbolTableRecord
100
AcDbBlockTableRecord
  2
*Paper_Space
340
20CDE
  0
BLOCK_RECORD
  5
20D04
330
20CC2
100
AcDbSymbolTableRecord
100
AcDbBlockTableRecord
  2
$MODEL_SPACE
340
0
  0
BLOCK_RECORD
  5
20D07
330
20CC2
100
AcDbSymbolTableRecord
100
AcDbBlockTableRecord
  2
$PAPER_SPACE
340
0
  0
BLOCK_RECORD
  5
20D0A
330
20CC2
100
AcDbSymbolTableRecord
100
AcDbBlockTableRecord
  2
DOT
340
0
  0
BLOCK_RECORD
  5
20D12
330
20CC2
100
AcDbSymbolTableRecord
100
AcDbBlockTableRecord
  2
*U3
340
0
  0
BLOCK_RECORD
  5
20D16
330
20CC2
100
AcDbSymbolTableRecord
100
AcDbBlockTableRecord
  2
*U4
340
0
  0
BLOCK_RECORD
  5
20D1A
330
20CC2
100
AcDbSymbolTableRecord
100
AcDbBlockTableRecord
  2
*U5
340
0
  0
BLOCK_RECORD
  5
20D1E
330
20CC2
100
AcDbSymbolTableRecord
100
AcDbBlockTableRecord
  2
*U6
340
0
  0
BLOCK_RECORD
  5
20D22
330
20CC2
100
AcDbSymbolTableRecord
100
AcDbBlockTableRecord
  2
*U7
340
0
  0
BLOCK_RECORD
  5
20D26
330
20CC2
100
AcDbSymbolTableRecord
100
AcDbBlockTableRecord
  2
*U8
340
0
  0
BLOCK_RECORD
  5
20D2A
330
20CC2
100
AcDbSymbolTableRecord
100
AcDbBlockTableRecord
  2
*U9
340
0
  0
BLOCK_RECORD
  5
20D2E
330
20CC2
100
AcDbSymbolTableRecord
100
AcDbBlockTableRecord
  2
*U10
340
0
  0
ENDTAB
  0
ENDSEC
  0
SECTION
  2
BLOCKS
  0
BLOCK
  5
20CE0
330
20CDF
100
AcDbEntity
  8
0
100
AcDbBlockBegin
  2
*Model_Space
 70
     0
 10
0.0
 20
0.0
 30
0.0
  3
*Model_Space
  1

  0
ENDBLK
  5
20CE1
330
20CDF
100
AcDbEntity
  8
0
100
AcDbBlockEnd
  0
BLOCK
  5
20CDC
330
20CDB
100
AcDbEntity
 67
     1
  8
0
100
AcDbBlockBegin
  2
*Paper_Space
 70
     0
 10
0.0
 20
0.0
 30
0.0
  3
*Paper_Space
  1

  0
ENDBLK
  5
20CDD
330
20CDB
100
AcDbEntity
 67
     1
  8
0
100
AcDbBlockEnd
  0
BLOCK
  5
20D05
330
20D04
100
AcDbEntity
  8
0
100
AcDbBlockBegin
  2
$MODEL_SPACE
 70
     0
 10
0.0
 20
0.0
 30
0.0
  3
$MODEL_SPACE
  1

  0
ENDBLK
  5
20D06
330
20D04
100
AcDbEntity
  8
0
100
AcDbBlockEnd
  0
BLOCK
  5
20D08
330
20D07
100
AcDbEntity
  8
0
100
AcDbBlockBegin
  2
$PAPER_SPACE
 70
     0
 10
0.0
 20
0.0
 30
0.0
  3
$PAPER_SPACE
  1

  0
ENDBLK
  5
20D09
330
20D07
100
AcDbEntity
  8
0
100
AcDbBlockEnd
  0
BLOCK
  5
20D0B
330
20D0A
100
AcDbEntity
  8
0
100
AcDbBlockBegin
  2
DOT
 70
     0
 10
0.0
 20
0.0
 30
0.0
  3
DOT
  1

  0
LWPOLYLINE
  5
20D0C
330
20D0A
100
AcDbEntity
  8
0
  6
ByBlock
 62
     0
100
AcDbPolyline
 90
        2
 70
     1
 43
0.75
 10
-0.375
 20
0.0
 42
1.0
 10
0.375
 20
0.0
 42
1.0
  0
LINE
  5
20D10
330
20D0A
100
AcDbEntity
  8
0
  6
ByBlock
 62
     0
100
AcDbLine
 10
-0.75
 20
0.0
 30
0.0
 11
-1.5
 21
0.0
 31
0.0
  0
ENDBLK
  5
20D11
330
20D0A
100
AcDbEntity
  8
0
100
AcDbBlockEnd
  0
BLOCK
  5
20D13
330
20D12
100
AcDbEntity
  8
0
100
AcDbBlockBegin
  2
*U3
 70
     1
 10
0.0
 20
0.0
 30
0.0
  3
*U3
  1

  0
TEXT
  5
20D14
330
20D12
100
AcDbEntity
  8
SUNPOU
100
AcDbText
 10
4479.31344202048
 20
4661.08385078625
 30
0.0
 40
90.0
  1
325
 41
0.6666666666666666
  7
00
100
AcDbText
  0
ENDBLK
  5
20D15
330
20D12
100
AcDbEntity
  8
0
100
AcDbBlockEnd
  0
BLOCK
  5
20D17
330
20D16
100
AcDbEntity
  8
0
100
AcDbBlockBegin
  2
*U4
 70
     1
 10
0.0
 20
0.0
 30
0.0
  3
*U4
  1

  0
TEXT
  5
20D18
330
20D16
100
AcDbEntity
  8
SUNPOU
100
AcDbText
 10
6013.242013449051
 20
4451.08385078625
 30
0.0
 40
90.0
  1
3450
 41
0.6666666666666666
  7
00
100
AcDbText
  0
ENDBLK
  5
20D19
330
20D16
100
AcDbEntity
  8
0
100
AcDbBlockEnd
  0
BLOCK
  5
20D1B
330
20D1A
100
AcDbEntity
  8
0
100
AcDbBlockBegin
  2
*U5
 70
     1
 10
0.0
 20
0.0
 30
0.0
  3
*U5
  1

  0
TEXT
  5
20D1C
330
20D1A
100
AcDbEntity
  8
SUNPOU
100
AcDbText
 10
6013.242013449053
 20
4661.08385078625
 30
0.0
 40
90.0
  1
2800
 41
0.6666666666666666
  7
00
100
AcDbText
  0
ENDBLK
  5
20D1D
330
20D1A
100
AcDbEntity
  8
0
100
AcDbBlockEnd
  0
BLOCK
  5
20D1F
330
20D1E
100
AcDbEntity
  8
0
100
AcDbBlockBegin
  2
*U6
 70
     1
 10
0.0
 20
0.0
 30
0.0
  3
*U6
  1

  0
TEXT
  5
20D20
330
20D1E
100
AcDbEntity
  8
SUNPOU
100
AcDbText
 10
5176.02056461939
 20
1831.773870478877
 30
0.0
 40
90.0
  1
500
 50
90.0
 41
0.6666666666666666
  7
00
100
AcDbText
  0
ENDBLK
  5
20D21
330
20D1E
100
AcDbEntity
  8
0
100
AcDbBlockEnd
  0
BLOCK
  5
20D23
330
20D22
100
AcDbEntity
  8
0
100
AcDbBlockBegin
  2
*U7
 70
     1
 10
0.0
 20
0.0
 30
0.0
  3
*U7
  1

  0
TEXT
  5
20D24
330
20D22
100
AcDbEntity
  8
SUNPOU
100
AcDbText
 10
7604.313442020485
 20
4661.08385078625
 30
0.0
 40
90.0
  1
325
 41
0.6666666666666666
  7
00
100
AcDbText
  0
ENDBLK
  5
20D25
330
20D22
100
AcDbEntity
  8
0
100
AcDbBlockEnd
  0
BLOCK
  5
20D27
330
20D26
100
AcDbEntity
  8
0
100
AcDbBlockBegin
  2
*U8
 70
     1
 10
0.0
 20
0.0
 30
0.0
  3
*U8
  1

  0
TEXT
  5
20D28
330
20D26
100
AcDbEntity
  8
SUNPOU
100
AcDbText
 10
5176.02056461939
 20
1169.631013336022
 30
0.0
 40
90.0
  1
100
 50
90.0
 41
0.6666666666666666
  7
00
100
AcDbText
  0
ENDBLK
  5
20D29
330
20D26
100
AcDbEntity
  8
0
100
AcDbBlockEnd
  0
BLOCK
  5
20D2B
330
20D2A
100
AcDbEntity
  8
0
100
AcDbBlockBegin
  2
*U9
 70
     1
 10
0.0
 20
0.0
 30
0.0
  3
*U9
  1

  0
TEXT
  5
20D2C
330
20D2A
100
AcDbEntity
  8
SUNPOU
100
AcDbText
 10
3133.877707476535
 20
1107.488156193162
 30
0.0
 40
90.0
  1
650
 41
0.6666666666666666
  7
00
100
AcDbText
  0
ENDBLK
  5
20D2D
330
20D2A
100
AcDbEntity
  8
0
100
AcDbBlockEnd
  0
BLOCK
  5
20D2F
330
20D2E
100
AcDbEntity
  8
0
100
AcDbBlockBegin
  2
*U10
 70
     1
 10
0.0
 20
0.0
 30
0.0
  3
*U10
  1

  0
TEXT
  5
20D30
330
20D2E
100
AcDbEntity
  8
SUNPOU
100
AcDbText
 10
3135.306278905103
 20
897.4881561931622
 30
0.0
 40
90.0
  1
850
 41
0.6666666666666666
  7
00
100
AcDbText
  0
ENDBLK
  5
20D31
330
20D2E
100
AcDbEntity
  8
0
100
AcDbBlockEnd
  0
ENDSEC
  0
SECTION
  2
ENTITIES
  0
LINE
  5
20D32
330
20CDF
100
AcDbEntity
  8
HIKIDASHI
100
AcDbLine
 10
2873.206888001605
 20
533.4391373504939
 30
0.0
 11
3568.834241237175
 21
533.4391373504939
 31
0.0
  0
LINE
  5
20D33
330
20CDF
100
AcDbEntity
  8
HIKIDASHI
100
AcDbLine
 10
2873.206888001605
 20
563.4391373504939
 30
0.0
 11
3568.834241237175
 21
563.4391373504939
 31
0.0
  0
TEXT
  5
20D34
330
20CDF
100
AcDbEntity
  8
HIKIDASHI
100
AcDbText
 10
3297.224167498163
 20
608.4391373504939
 30
0.0
 40
90.0
  1
断 面
  7
01
100
AcDbText
  0
TEXT
  5
20D35
330
20CDF
100
AcDbEntity
  8
HIKIDASHI
100
AcDbText
 10
2903.206888001605
 20
608.4391373504939
 30
0.0
 40
90.0
  1
A  ~  A'
 41
0.6700000000000001
  7
00
100
AcDbText
  0
TEXT
  5
20D36
330
20CDF
100
AcDbEntity
  8
SUNPOU
100
AcDbText
 10
5111.217177815774
 20
574.914044440873
 30
0.0
 40
90.0
  1
5-D13×5-D13
 41
0.6700000000000001
  7
01
 72
     4
 11
5454.640034958632
 21
619.9140444408732
 31
0.0
100
AcDbText
  0
TEXT
  5
20D37
330
20CDF
100
AcDbEntity
  8
SUNPOU
100
AcDbText
 10
4624.39709637313
 20
574.9140444408732
 30
0.0
 40
90.0
  1
ベース筋
  7
01
 72
     4
 11
4828.39709637313
 21
619.9140444408732
 31
0.0
100
AcDbText
  0
TEXT
  5
20D38
330
20CDF
100
AcDbEntity
  8
NAME
100
AcDbText
 10
9402.694977008243
 20
716.2499999999992
 30
0.0
 40
120.0
  1
YOTR
 41
0.7
  7
01
100
AcDbText
  0
TEXT
  5
20D39
330
20CDF
100
AcDbEntity
  8
NAME
100
AcDbText
 10
8327.765992739108
 20
716.2499999999992
 30
0.0
 40
120.0
  1
ヨド自転車置場      型
  7
01
100
AcDbText
  0
TEXT
  5
20D3A
330
20CDF
100
AcDbEntity
  8
NAME
100
AcDbText
 10
8862.031985478214
 20
405.75
 30
0.0
 40
120.0
  1
型（一般地用）
 41
0.8
  7
01
100
AcDbText
  0
TEXT
  5
20D3B
330
20CDF
100
AcDbEntity
  8
NAME
100
AcDbText
 10
8192.031985478214
 20
405.75
 30
0.0
 40
120.0
  1
YOTR-280
 41
0.7
  7
01
 72
     2
 11
8832.031985478215
 21
405.75
 31
0.0
100
AcDbText
  0
TEXT
  5
20D3C
330
20CDF
100
AcDbEntity
  8
NAME
100
AcDbText
 10
9641.100000000001
 20
405.7500000000001
 30
0.0
 40
120.0
  1
<3／3>
 41
0.6
  7
01
 72
     2
 11
10015.49999999999
 21
405.7500000000001
 31
0.0
100
AcDbText
  0
TEXT
  5
20D5A
330
20CDF
100
AcDbEntity
  8
HIKIDASHI
100
AcDbText
 10
5471.87298712167
 20
4008.480853603641
 30
0.0
 40
135.0
  1
基 礎 伏 図
  7
01
 72
     2
 11
6317.872987121671
 21
4008.480853603641
 31
0.0
100
AcDbText
  0
TEXT
  5
20D5B
330
20CDF
100
AcDbEntity
  8
HIKIDASHI
100
AcDbText
 10
6419.122987121671
 20
4035.274350663478
 30
0.0
 40
90.0
  1
(S=
 41
0.6700000000000001
  7
00
100
AcDbText
  0
TEXT
  5
20D5C
330
20CDF
100
AcDbEntity
  8
HIKIDASHI
100
AcDbText
 10
6711.780721756866
 20
4005.835540563169
 30
0.0
 40
90.0
  1
30
 41
0.6700000000000001
  7
00
100
AcDbText
  0
TEXT
  5
20D5D
330
20CDF
100
AcDbEntity
  8
HIKIDASHI
100
AcDbText
 10
6848.385484827109
 20
4035.274350663478
 30
0.0
 40
90.0
  1
)
 41
0.6700000000000001
  7
00
100
AcDbText
  0
TEXT
  5
20D5E
330
20CDF
100
AcDbEntity
  8
HIKIDASHI
100
AcDbText
 10
6659.6986726489
 20
4035.274350663478
 30
0.0
 40
90.0
  1
/
 41
0.6700000000000001
  7
00
100
AcDbText
  0
TEXT
  5
20D5F
330
20CDF
100
AcDbEntity
  8
HIKIDASHI
100
AcDbText
 10
6622.419392551553
 20
4052.781013130203
 30
0.0
 40
90.0
  1
1
 41
0.6700000000000001
  7
00
100
AcDbText
  0
LINE
  5
20D60
330
20CDF
100
AcDbEntity
  8
1PL-M1
100
AcDbLine
 10
4315.94499967089
 20
6416.08385078625
 30
0.0
 11
7959.3710464238
 21
6416.083850786249
 31
0.0
  0
LINE
  5
20D61
330
20CDF
100
AcDbEntity
  8
2PL-L2
100
AcDbLine
 10
4489.527727734765
 20
7426.172766976134
 30
0.0
 11
7765.527727734775
 21
7426.172766976134
 31
0.0
  0
LINE
  5
20D62
330
20CDF
100
AcDbEntity
  8
2PL-L2
100
AcDbLine
 10
4489.527727734765
 20
5425.172766976132
 30
0.0
 11
7765.527727734775
 21
5425.172766976133
 31
0.0
  0
LINE
  5
20D63
330
20CDF
100
AcDbEntity
  8
1PL-M1
100
AcDbLine
 10
7527.527727734774
 20
5990.805990360579
 30
0.0
 11
7527.527727734774
 21
6816.083850786251
 31
0.0
  0
LINE
  5
20D64
330
20CDF
100
AcDbEntity
  8
U3
100
AcDbLine
 10
7852.527727734766
 20
5016.08385078625
 30
0.0
 11
7852.527727734766
 21
7616.08385078625
 31
0.0
  0
LINE
  5
20D65
330
20CDF
100
AcDbEntity
  8
U3
100
AcDbLine
 10
4402.527727734763
 20
5016.083850786249
 30
0.0
 11
4402.527727734763
 21
7616.08385078625
 31
0.0
  0
LINE
  5
20D66
330
20CDF
100
AcDbEntity
  8
U3
100
AcDbLine
 10
4402.527727734763
 20
7616.08385078625
 30
0.0
 11
7852.527727734766
 21
7616.08385078625
 31
0.0
  0
LINE
  5
20D67
330
20CDF
100
AcDbEntity
  8
U3
100
AcDbLine
 10
4402.527727734763
 20
5016.08385078625
 30
0.0
 11
7852.527727734766
 21
5016.08385078625
 31
0.0
  0
TEXT
  5
20D68
330
20CDF
100
AcDbEntity
  8
SUNPOU
100
AcDbText
 10
5764.527727734763
 20
5290.172766976133
 30
0.0
 40
90.0
  1
（鼻隠し外面）
  7
01
 72
     4
 11
6127.527727734763
 21
5335.172766976133
 31
0.0
100
AcDbText
  0
TEXT
  5
20D69
330
20CDF
100
AcDbEntity
  8
SUNPOU
100
AcDbText
 10
5602.527727734763
 20
5061.083850786249
 30
0.0
 40
90.0
  1
（土間コン前面位置）
  7
01
 72
     4
 11
6127.527727734763
 21
5106.083850786249
 31
0.0
100
AcDbText
  0
TEXT
  5
20D6A
330
20CDF
100
AcDbEntity
  8
SUNPOU
100
AcDbText
 10
5710.527727734763
 20
7471.172766976135
 30
0.0
 40
90.0
  1
（屋根後面位置）
  7
01
 72
     4
 11
6127.527727734763
 21
7516.172766976135
 31
0.0
100
AcDbText
  0
TEXT
  5
20D6B
330
20CDF
100
AcDbEntity
  8
SUNPOU
100
AcDbText
 10
5602.527727734763
 20
7661.083850786249
 30
0.0
 40
90.0
  1
（土間コン後面位置）
  7
01
 72
     4
 11
6127.527727734763
 21
7706.083850786249
 31
0.0
100
AcDbText
  0
LINE
  5
20D6C
330
20CDF
100
AcDbEntity
  8
SUNPOU
100
AcDbLine
 10
7882.527727734768
 20
7616.08385078625
 30
0.0
 11
8577.527727734768
 21
7616.08385078625
 31
0.0
  0
LINE
  5
20D6D
330
20CDF
100
AcDbEntity
  8
SUNPOU
100
AcDbLine
 10
7882.527727734768
 20
5016.08385078625
 30
0.0
 11
8577.527727734768
 21
5016.08385078625
 31
0.0
  0
LINE
  5
20D6E
330
20CDF
100
AcDbEntity
  8
SUNPOU
100
AcDbLine
 10
8547.527727734768
 20
7601.08385078625
 30
0.0
 11
8547.527727734768
 21
5031.08385078625
 31
0.0
  0
TEXT
  5
20D6F
330
20CDF
100
AcDbEntity
  8
SUNPOU
100
AcDbText
 10
8502.527727734769
 20
6201.798136500535
 30
0.0
 40
90.0
  1
2600
 50
90.0
 41
0.6666666666666666
  7
00
 72
     1
 11
8457.527727734769
 21
6316.08385078625
 31
0.0
100
AcDbText
 73
     2
  0
LINE
  5
20D70
330
20CDF
100
AcDbEntity
  8
SUNPOU
100
AcDbLine
 10
8307.52772773477
 20
7616.08385078625
 30
0.0
 11
8307.52772773477
 21
7616.08385078625
 31
0.0
  0
LINE
  5
20D71
330
20CDF
100
AcDbEntity
  8
SUNPOU
100
AcDbLine
 10
8187.527727734757
 20
6416.08385078625
 30
0.0
 11
8367.527727734769
 21
6416.08385078625
 31
0.0
  0
LINE
  5
20D72
330
20CDF
100
AcDbEntity
  8
SUNPOU
100
AcDbLine
 10
8337.527727734769
 20
7601.08385078625
 30
0.0
 11
8337.527727734769
 21
6431.08385078625
 31
0.0
  0
TEXT
  5
20D73
330
20CDF
100
AcDbEntity
  8
SUNPOU
100
AcDbText
 10
8292.527727734769
 20
6897.512422214821
 30
0.0
 40
90.0
  1
1200
 50
90.0
 41
0.6666666666666666
  7
00
 72
     1
 11
8247.527727734768
 21
7016.083850786251
 31
0.0
100
AcDbText
 73
     2
  0
LINE
  5
20D74
330
20CDF
100
AcDbEntity
  8
SUNPOU
100
AcDbLine
 10
8307.52772773477
 20
5016.08385078625
 30
0.0
 11
8307.52772773477
 21
5016.08385078625
 31
0.0
  0
LINE
  5
20D75
330
20CDF
100
AcDbEntity
  8
SUNPOU
100
AcDbLine
 10
8337.527727734769
 20
6401.08385078625
 30
0.0
 11
8337.527727734769
 21
5031.08385078625
 31
0.0
  0
TEXT
  5
20D76
330
20CDF
100
AcDbEntity
  8
SUNPOU
100
AcDbText
 10
8292.527727734769
 20
5597.512422214822
 30
0.0
 40
90.0
  1
1400
 50
90.0
 41
0.6666666666666666
  7
00
 72
     1
 11
8247.527727734768
 21
5716.08385078625
 31
0.0
100
AcDbText
 73
     2
  0
LINE
  5
20D77
330
20CDF
100
AcDbEntity
  8
SUNPOU
100
AcDbLine
 10
7882.527727734768
 20
6741.08385078625
 30
0.0
 11
8157.527727734766
 21
6741.08385078625
 31
0.0
  0
LINE
  5
20D78
330
20CDF
100
AcDbEntity
  8
SUNPOU
100
AcDbLine
 10
7882.527727734768
 20
6091.08385078625
 30
0.0
 11
8157.527727734766
 21
6091.08385078625
 31
0.0
  0
LINE
  5
20D79
330
20CDF
100
AcDbEntity
  8
SUNPOU
100
AcDbLine
 10
8127.527727734769
 20
6726.08385078625
 30
0.0
 11
8127.527727734769
 21
6106.08385078625
 31
0.0
  0
TEXT
  5
20D7A
330
20CDF
100
AcDbEntity
  8
SUNPOU
100
AcDbText
 10
8082.527727734769
 20
6328.940993643393
 30
0.0
 40
90.0
  1
650
 50
90.0
 41
0.6666666666666666
  7
00
 72
     1
 11
8037.527727734767
 21
6416.08385078625
 31
0.0
100
AcDbText
 73
     2
  0
LINE
  5
20D7B
330
20CDF
100
AcDbEntity
  8
SUNPOU
100
AcDbLine
 10
7202.527727734767
 20
6061.08385078625
 30
0.0
 11
7202.527727734767
 21
5786.08385078625
 31
0.0
  0
LINE
  5
20D7C
330
20CDF
100
AcDbEntity
  8
SUNPOU
100
AcDbLine
 10
7852.527727734766
 20
5846.08385078625
 30
0.0
 11
7852.527727734766
 21
5846.08385078625
 31
0.0
  0
LINE
  5
20D7D
330
20CDF
100
AcDbEntity
  8
SUNPOU
100
AcDbLine
 10
7217.527727734766
 20
5816.08385078625
 30
0.0
 11
7837.527727734766
 21
5816.08385078625
 31
0.0
  0
TEXT
  5
20D7E
330
20CDF
100
AcDbEntity
  8
SUNPOU
100
AcDbText
 10
7440.384870591917
 20
5861.083850786251
 30
0.0
 40
90.0
  1
650
 41
0.6666666666666666
  7
00
 72
     1
 11
7527.527727734774
 21
5906.08385078625
 31
0.0
100
AcDbText
 73
     2
  0
LINE
  5
20D7F
330
20CDF
100
AcDbEntity
  8
1PL-S1
100
AcDbLine
 10
8161.732827593478
 20
6416.083850786248
 30
0.0
 11
8367.527727734769
 21
6416.083850786249
 31
0.0
  0
TEXT
  5
20D80
330
20CDF
100
AcDbEntity
  8
HIKIDASHI
100
AcDbText
 10
5005.034644336265
 20
6918.385295048667
 30
0.0
 40
90.0
  1
柱
  7
01
 72
     2
 11
5089.034644336265
 21
6963.385295048666
 31
0.0
100
AcDbText
 73
     2
  0
LINE
  5
20D81
330
20CDF
100
AcDbEntity
  8
HIKIDASHI
100
AcDbLine
 10
5002.400204585955
 20
6873.385295048665
 30
0.0
 11
5424.434156810108
 21
6873.385295048665
 31
0.0
  0
CIRCLE
  5
20D82
330
20CDF
100
AcDbEntity
  8
U1
100
AcDbCircle
 10
7527.527727734774
 20
6416.083850786249
 30
0.0
 40
38.14999999999999
  0
TEXT
  5
20D83
330
20CDF
100
AcDbEntity
  8
HIKIDASHI
100
AcDbText
 10
5364.582050751284
 20
6933.385295048664
 30
0.0
 40
90.0
  1
%%c
 41
0.6666666666666666
  7
00
100
AcDbText
  0
TEXT
  5
20D84
330
20CDF
100
AcDbEntity
  8
HIKIDASHI
100
AcDbText
 10
5136.753893386493
 20
6918.385295048667
 30
0.0
 40
90.0
  1
76.3
 41
0.6666666666666666
  7
00
 11
5136.753893386493
 21
6963.385295048666
 31
0.0
100
AcDbText
 73
     2
  0
CIRCLE
  5
20D85
330
20CDF
100
AcDbEntity
  8
U1
100
AcDbCircle
 10
4727.527727734763
 20
6416.08385078625
 30
0.0
 40
38.14999999999999
  0
LINE
  5
20D86
330
20CDF
100
AcDbEntity
  8
SUNPOU
100
AcDbLine
 10
7317.527727734781
 20
6926.083850786253
 30
0.0
 11
7527.527727734781
 21
6926.083850786253
 31
0.0
  0
TEXT
  5
20D87
330
20CDF
100
AcDbEntity
  8
SUNPOU
100
AcDbText
 10
7101.634870591924
 20
6872.512422214824
 30
0.0
 40
90.0
  1
A'
 50
0.0000000000000509
 41
0.6700000000000001
  7
00
 72
     4
 11
7137.527727734782
 21
6926.083850786253
 31
0.0
100
AcDbText
  0
LINE
  5
20D88
330
20CDF
100
AcDbEntity
  8
SUNPOU
100
AcDbLine
 10
7527.527727734781
 20
6926.083850786253
 30
0.0
 11
7527.527727734781
 21
6776.08385078625
 31
0.0
  0
LINE
  5
20D89
330
20CDF
100
AcDbEntity
  8
SUNPOU
100
AcDbLine
 10
7317.527727734781
 20
5664.79310065851
 30
0.0
 11
7527.527727734781
 21
5664.79310065851
 31
0.0
  0
TEXT
  5
20D8A
330
20CDF
100
AcDbEntity
  8
SUNPOU
100
AcDbText
 10
7111.684870591925
 20
5619.793100658509
 30
0.0
 40
90.0
  1
A
 50
0.0000000000000509
 41
0.6700000000000001
  7
00
 72
     4
 11
7137.527727734782
 21
5664.79310065851
 31
0.0
100
AcDbText
  0
LINE
  5
20D8B
330
20CDF
100
AcDbEntity
  8
SUNPOU
100
AcDbLine
 10
7852.527727734766
 20
6061.08385078625
 30
0.0
 11
7852.527727734766
 21
5786.08385078625
 31
0.0
  0
LINE
  5
20D8C
330
20CDF
100
AcDbEntity
  8
1PL-M1
100
AcDbLine
 10
4727.527727734766
 20
6016.083850786253
 30
0.0
 11
4727.527727734763
 21
6816.083850786251
 31
0.0
  0
LINE
  5
20D8D
330
20CDF
100
AcDbEntity
  8
SUNPOU
100
AcDbLine
 10
7317.527727734781
 20
5649.793100658509
 30
0.0
 11
7227.527727734781
 21
5664.79310065851
 31
0.0
  0
LINE
  5
20D8E
330
20CDF
100
AcDbEntity
  8
SUNPOU
100
AcDbLine
 10
7227.527727734781
 20
5664.79310065851
 30
0.0
 11
7317.527727734781
 21
5679.79310065851
 31
0.0
  0
SOLID
  5
20D8F
330
20CDF
100
AcDbEntity
  8
SUNPOU
100
AcDbTrace
 10
7317.527727734781
 20
5649.793100658509
 30
0.0
 11
7317.527727734781
 21
5679.79310065851
 31
0.0
 12
7227.527727734781
 22
5664.79310065851
 32
0.0
 13
7227.527727734781
 23
5664.79310065851
 33
0.0
  0
LINE
  5
20D90
330
20CDF
100
AcDbEntity
  8
SUNPOU
100
AcDbLine
 10
7317.527727734781
 20
5679.79310065851
 30
0.0
 11
7317.527727734781
 21
5649.793100658509
 31
0.0
  0
LINE
  5
20D91
330
20CDF
100
AcDbEntity
  8
SUNPOU
100
AcDbLine
 10
7317.527727734781
 20
6941.083850786252
 30
0.0
 11
7227.527727734781
 21
6926.083850786253
 31
0.0
  0
LINE
  5
20D92
330
20CDF
100
AcDbEntity
  8
SUNPOU
100
AcDbLine
 10
7227.527727734781
 20
6926.083850786253
 30
0.0
 11
7317.527727734781
 21
6911.083850786252
 31
0.0
  0
SOLID
  5
20D93
330
20CDF
100
AcDbEntity
  8
SUNPOU
100
AcDbTrace
 10
7317.527727734781
 20
6941.083850786252
 30
0.0
 11
7317.527727734781
 21
6911.083850786252
 31
0.0
 12
7227.527727734781
 22
6926.083850786253
 32
0.0
 13
7227.527727734781
 23
6926.083850786253
 33
0.0
  0
LINE
  5
20D94
330
20CDF
100
AcDbEntity
  8
SUNPOU
100
AcDbLine
 10
7317.527727734781
 20
6911.083850786252
 30
0.0
 11
7317.527727734781
 21
6941.083850786252
 31
0.0
  0
LINE
  5
20D95
330
20CDF
100
AcDbEntity
  8
SUNPOU
100
AcDbLine
 10
7213.777727734774
 20
5816.08385078625
 30
0.0
 11
7225.027727734775
 21
5816.08385078625
 31
0.0
  0
LINE
  5
20D96
330
20CDF
100
AcDbEntity
  8
SUNPOU
100
AcDbLine
 10
7841.277727734767
 20
5816.08385078625
 30
0.0
 11
7830.027727734767
 21
5816.08385078625
 31
0.0
  0
LINE
  5
20D97
330
20CDF
100
AcDbEntity
  8
SUNPOU
100
AcDbLine
 10
8337.527727734769
 20
5027.333850786249
 30
0.0
 11
8337.527727734769
 21
5038.58385078625
 31
0.0
  0
LINE
  5
20D98
330
20CDF
100
AcDbEntity
  8
SUNPOU
100
AcDbLine
 10
8547.527727734768
 20
5027.333850786249
 30
0.0
 11
8547.527727734768
 21
5038.58385078625
 31
0.0
  0
LINE
  5
20D99
330
20CDF
100
AcDbEntity
  8
SUNPOU
100
AcDbLine
 10
8127.527727734769
 20
6102.33385078625
 30
0.0
 11
8127.527727734769
 21
6113.58385078625
 31
0.0
  0
LINE
  5
20D9A
330
20CDF
100
AcDbEntity
  8
SUNPOU
100
AcDbLine
 10
8337.527727734769
 20
6404.83385078625
 30
0.0
 11
8337.527727734769
 21
6393.583850786249
 31
0.0
  0
LINE
  5
20D9B
330
20CDF
100
AcDbEntity
  8
SUNPOU
100
AcDbLine
 10
8337.527727734769
 20
6427.333850786251
 30
0.0
 11
8337.527727734769
 21
6438.58385078625
 31
0.0
  0
LINE
  5
20D9C
330
20CDF
100
AcDbEntity
  8
SUNPOU
100
AcDbLine
 10
8127.527727734769
 20
6729.833850786249
 30
0.0
 11
8127.527727734769
 21
6718.58385078625
 31
0.0
  0
LINE
  5
20D9D
330
20CDF
100
AcDbEntity
  8
SUNPOU
100
AcDbLine
 10
8337.527727734769
 20
7604.833850786249
 30
0.0
 11
8337.527727734769
 21
7593.58385078625
 31
0.0
  0
LINE
  5
20D9E
330
20CDF
100
AcDbEntity
  8
SUNPOU
100
AcDbLine
 10
8547.527727734768
 20
7604.833850786249
 30
0.0
 11
8547.527727734768
 21
7593.58385078625
 31
0.0
  0
LINE
  5
20D9F
330
20CDF
100
AcDbEntity
  8
1PL-M1
100
AcDbLine
 10
3221.02056461939
 20
1227.488156193162
 30
0.0
 11
3221.02056461939
 21
3408.892976939217
 31
0.0
  0
LINE
  5
20DA0
330
20CDF
100
AcDbEntity
  8
HASHIRA
100
AcDbLine
 10
3293.245564619388
 20
1542.488156193162
 30
0.0
 11
3293.245564619388
 21
3228.432518324389
 31
0.0
  0
LINE
  5
20DA1
330
20CDF
100
AcDbEntity
  8
HASHIRA
100
AcDbLine
 10
3148.795564619387
 20
1542.488156193162
 30
0.0
 11
3148.795564619387
 21
3228.432518324389
 31
0.0
  0
LINE
  5
20DA2
330
20CDF
100
AcDbEntity
  8
HATCH
100
AcDbLine
 10
3148.795564619387
 20
1680.26315619316
 30
0.0
 11
3011.020564619389
 21
1542.488156193162
 31
0.0
  0
LINE
  5
20DA3
330
20CDF
100
AcDbEntity
  8
KISO
100
AcDbLine
 10
3708.520564619389
 20
2292.488156193163
 30
0.0
 11
3708.520564619393
 21
1542.488156193164
 31
0.0
  0
LINE
  5
20DA4
330
20CDF
100
AcDbEntity
  8
KISO
100
AcDbLine
 10
2733.520564619389
 20
2292.488156193161
 30
0.0
 11
2733.520564619389
 21
1542.488156193162
 31
0.0
  0
LINE
  5
20DA5
330
20CDF
100
AcDbEntity
  8
HIKIDASHI
100
AcDbLine
 10
3285.859355453617
 20
1641.087546082636
 30
0.0
 11
3803.663741169759
 21
1829.552929655822
 31
0.0
  0
LINE
  5
20DA6
330
20CDF
100
AcDbEntity
  8
HATCH
100
AcDbLine
 10
3708.520564619389
 20
1745.892701763662
 30
0.0
 11
3505.116019048892
 21
1542.488156193162
 31
0.0
  0
LINE
  5
20DA7
330
20CDF
100
AcDbEntity
  8
HATCH
100
AcDbLine
 10
3708.520564619389
 20
1790.440428978419
 30
0.0
 11
3460.568291834127
 21
1542.488156193162
 31
0.0
  0
LINE
  5
20DA8
330
20CDF
100
AcDbEntity
  8
HATCH
100
AcDbLine
 10
3708.520564619389
 20
1701.344974548911
 30
0.0
 11
3549.663746263643
 21
1542.488156193162
 31
0.0
  0
LINE
  5
20DA9
330
20CDF
100
AcDbEntity
  8
HATCH
100
AcDbLine
 10
3148.795564619387
 20
2040.715428978408
 30
0.0
 11
2733.520564619389
 21
1625.440428978408
 31
0.0
  0
LINE
  5
20DAA
330
20CDF
100
AcDbEntity
  8
HATCH
100
AcDbLine
 10
3148.795564619391
 20
2085.263156193156
 30
0.0
 11
2733.520564619389
 21
1669.988156193156
 31
0.0
  0
LINE
  5
20DAB
330
20CDF
100
AcDbEntity
  8
HATCH
100
AcDbLine
 10
3148.795564619387
 20
1591.167701763656
 30
0.0
 11
3100.116019048896
 21
1542.488156193162
 31
0.0
  0
LINE
  5
20DAC
330
20CDF
100
AcDbEntity
  8
HATCH
100
AcDbLine
 10
3148.795564619387
 20
1635.71542897841
 30
0.0
 11
3055.568291834141
 21
1542.488156193162
 31
0.0
  0
CIRCLE
  5
20DAD
330
20CDF
100
AcDbEntity
  8
HASHIRA
100
AcDbCircle
 10
3221.02056461939
 20
1617.488156193163
 30
0.0
 40
9.0
  0
LINE
  5
20DAE
330
20CDF
100
AcDbEntity
  8
HIKIDASHI
100
AcDbLine
 10
3196.475123971621
 20
1617.488156193163
 30
0.0
 11
3245.566005267159
 21
1617.488156193163
 31
0.0
  0
LINE
  5
20DAF
330
20CDF
100
AcDbEntity
  8
HATCH
100
AcDbLine
 10
4416.748064070703
 20
2292.488156193163
 30
0.0
 11
4281.748064070707
 21
2157.488156193164
 31
0.0
  0
LINE
  5
20DB0
330
20CDF
100
AcDbEntity
  8
HATCH
100
AcDbLine
 10
4461.295791285447
 20
2292.488156193163
 30
0.0
 11
4326.295791285451
 21
2157.488156193164
 31
0.0
  0
LINE
  5
20DB1
330
20CDF
100
AcDbEntity
  8
KISO
100
AcDbLine
 10
5021.02056461939
 20
2292.488156193163
 30
0.0
 11
3293.245564619388
 21
2292.488156193162
 31
0.0
  0
LINE
  5
20DB2
330
20CDF
100
AcDbEntity
  8
KISO
100
AcDbLine
 10
3708.520564619393
 20
2067.48815619316
 30
0.0
 11
5021.02056461939
 21
2067.48815619316
 31
0.0
  0
LINE
  5
20DB3
330
20CDF
100
AcDbEntity
  8
KISO
100
AcDbLine
 10
3708.520564619389
 20
2157.488156193163
 30
0.0
 11
5021.02056461939
 21
2157.488156193166
 31
0.0
  0
LINE
  5
20DB4
330
20CDF
100
AcDbEntity
  8
HIKIDASHI
100
AcDbLine
 10
3803.663741169759
 20
1829.552929655822
 30
0.0
 11
4609.74032915655
 21
1829.552929655822
 31
0.0
  0
TEXT
  5
20DB5
330
20CDF
100
AcDbEntity
  8
HIKIDASHI
100
AcDbText
 10
4108.917169267541
 20
1874.552929655822
 30
0.0
 40
90.0
  1
10   x 350
 41
0.6666666666666666
  7
00
 11
4108.917169267541
 21
1919.552929655822
 31
0.0
100
AcDbText
 73
     2
  0
TEXT
  5
20DB6
330
20CDF
100
AcDbEntity
  8
HIKIDASHI
100
AcDbText
 10
3864.427463024283
 20
3004.649721559615
 30
0.0
 40
90.0
  1
76.3   x 3.2
 41
0.6666666666666666
  7
00
 11
3864.427463024283
 21
3049.649721559615
 31
0.0
100
AcDbText
 73
     2
  0
LINE
  5
20DB7
330
20CDF
100
AcDbEntity
  8
HIKIDASHI
100
AcDbLine
 10
3673.323078759066
 20
2959.649721559614
 30
0.0
 11
4479.399666745858
 21
2959.649721559614
 31
0.0
  0
TEXT
  5
20DB8
330
20CDF
100
AcDbEntity
  8
HIKIDASHI
100
AcDbText
 10
4092.255620389074
 20
3019.649721559614
 30
0.0
 40
90.0
  1
%%c
 41
0.6666666666666666
  7
00
100
AcDbText
  0
TEXT
  5
20DB9
330
20CDF
100
AcDbEntity
  8
HIKIDASHI
100
AcDbText
 10
3718.440441714461
 20
3004.649721559615
 30
0.0
 40
90.0
  1
柱
  7
01
 11
3718.440441714461
 21
3049.649721559615
 31
0.0
100
AcDbText
 73
     2
  0
LINE
  5
20DBA
330
20CDF
100
AcDbEntity
  8
HATCH
100
AcDbLine
 10
3400.568291834141
 20
2292.488156193162
 30
0.0
 11
3293.245564619388
 21
2185.165428978407
 31
0.0
  0
LINE
  5
20DBB
330
20CDF
100
AcDbEntity
  8
HATCH
100
AcDbLine
 10
3356.020564619394
 20
2292.488156193162
 30
0.0
 11
3293.245564619388
 21
2229.713156193156
 31
0.0
  0
LINE
  5
20DBC
330
20CDF
100
AcDbEntity
  8
HATCH
100
AcDbLine
 10
3708.520564619389
 20
2195.440428978415
 30
0.0
 11
3293.245564619388
 21
1780.165428978411
 31
0.0
  0
LINE
  5
20DBD
330
20CDF
100
AcDbEntity
  8
HATCH
100
AcDbLine
 10
3708.520564619389
 20
2150.892701763657
 30
0.0
 11
3293.245564619388
 21
1735.617701763656
 31
0.0
  0
LINE
  5
20DBE
330
20CDF
100
AcDbEntity
  8
HATCH
100
AcDbLine
 10
3708.520564619389
 20
2239.98815619316
 30
0.0
 11
3293.245564619388
 21
1824.713156193161
 31
0.0
  0
LINE
  5
20DBF
330
20CDF
100
AcDbEntity
  8
HIKIDASHI
100
AcDbLine
 10
3285.859355453617
 20
2818.624459418463
 30
0.0
 11
3673.323078759066
 21
2959.649721559614
 31
0.0
  0
LINE
  5
20DC0
330
20CDF
100
AcDbEntity
  8
KISO
100
AcDbLine
 10
3148.795564619387
 20
2292.488156193161
 30
0.0
 11
2364.434490557021
 21
2292.488156193161
 31
0.0
  0
LINE
  5
20DC1
330
20CDF
100
AcDbEntity
  8
HATCH
100
AcDbLine
 10
2861.925110189885
 20
2292.488156193161
 30
0.0
 11
2733.520564619389
 21
2164.083610622668
 31
0.0
  0
LINE
  5
20DC2
330
20CDF
100
AcDbEntity
  8
HATCH
100
AcDbLine
 10
2906.472837404643
 20
2292.488156193161
 30
0.0
 11
2733.520564619389
 21
2119.535883407912
 31
0.0
  0
LINE
  5
20DC3
330
20CDF
100
AcDbEntity
  8
HATCH
100
AcDbLine
 10
2951.020564619389
 20
2292.488156193161
 30
0.0
 11
2733.520564619389
 21
2074.988156193162
 31
0.0
  0
LINE
  5
20DC4
330
20CDF
100
AcDbEntity
  8
HATCH
100
AcDbLine
 10
3148.795564619387
 20
2129.810883407913
 30
0.0
 11
2733.520564619389
 21
1714.535883407912
 31
0.0
  0
LINE
  5
20DC5
330
20CDF
100
AcDbEntity
  8
HATCH
100
AcDbLine
 10
2609.724124505548
 20
2292.488156193162
 30
0.0
 11
2474.724124505552
 21
2157.488156193164
 31
0.0
  0
LINE
  5
20DC6
330
20CDF
100
AcDbEntity
  8
HATCH
100
AcDbLine
 10
2654.271851720307
 20
2292.488156193162
 30
0.0
 11
2519.27185172031
 21
2157.488156193164
 31
0.0
  0
LINE
  5
20DC7
330
20CDF
100
AcDbEntity
  8
KISO
100
AcDbLine
 10
2364.434490557021
 20
2157.48815619316
 30
0.0
 11
2733.520564619389
 21
2157.48815619316
 31
0.0
  0
LINE
  5
20DC8
330
20CDF
100
AcDbEntity
  8
KISO
100
AcDbLine
 10
2364.434490557021
 20
2067.48815619316
 30
0.0
 11
2733.520564619389
 21
2067.48815619316
 31
0.0
  0
LINE
  5
20DC9
330
20CDF
100
AcDbEntity
  8
HATCH
100
AcDbLine
 10
2565.176397290809
 20
2292.488156193162
 30
0.0
 11
2430.176397290809
 21
2157.488156193164
 31
0.0
  0
LINE
  5
20DCA
330
20CDF
100
AcDbEntity
  8
HATCH
100
AcDbLine
 10
3311.47283740464
 20
2292.488156193162
 30
0.0
 11
3293.245564619388
 21
2274.260883407914
 31
0.0
  0
LINE
  5
20DCB
330
20CDF
100
AcDbEntity
  8
HATCH
100
AcDbLine
 10
3967.200336855956
 20
2292.488156193162
 30
0.0
 11
3832.20033685596
 21
2157.488156193164
 31
0.0
  0
TEXT
  5
20DCC
330
20CDF
100
AcDbEntity
  8
HIKIDASHI
100
AcDbText
 10
3848.781104125155
 20
1874.552929655822
 30
0.0
 40
90.0
  1
鉄筋
  7
01
 11
3848.781104125155
 21
1919.552929655822
 31
0.0
100
AcDbText
 73
     2
  0
TEXT
  5
20DCD
330
20CDF
100
AcDbEntity
  8
HIKIDASHI
100
AcDbText
 10
4258.374330163604
 20
1889.552929655822
 30
0.0
 40
90.0
  1
%%c
 41
0.6666666666666666
  7
00
100
AcDbText
  0
LINE
  5
20DCE
330
20CDF
100
AcDbEntity
  8
HATCH
100
AcDbLine
 10
4056.295791285458
 20
2292.488156193162
 30
0.0
 11
3921.295791285462
 21
2157.488156193164
 31
0.0
  0
LINE
  5
20DCF
330
20CDF
100
AcDbEntity
  8
HATCH
100
AcDbLine
 10
4011.7480640707
 20
2292.488156193162
 30
0.0
 11
3876.748064070703
 21
2157.488156193164
 31
0.0
  0
TEXT
  5
20DD0
330
20CDF
100
AcDbEntity
  8
HIKIDASHI
100
AcDbText
 10
4429.591626520072
 20
3019.649721559614
 30
0.0
 40
90.0
  1
t
 41
0.6666666666666666
  7
00
100
AcDbText
  0
LINE
  5
20DD1
330
20CDF
100
AcDbEntity
  8
U3
100
AcDbLine
 10
5288.290856889297
 20
2137.717863923257
 30
0.0
 11
5398.061149159206
 21
2247.488156193162
 31
0.0
  0
LINE
  5
20DD2
330
20CDF
100
AcDbEntity
  8
U3
100
AcDbLine
 10
5713.061149159199
 20
2247.488156193163
 30
0.0
 11
5021.02056461939
 21
2247.488156193162
 31
0.0
  0
LINE
  5
20DD3
330
20CDF
100
AcDbEntity
  8
U3
100
AcDbLine
 10
5178.52056461939
 20
2247.488156193162
 30
0.0
 11
5336.020564619389
 21
2089.988156193164
 31
0.0
  0
LINE
  5
20DD4
330
20CDF
100
AcDbEntity
  8
SUNPOU
100
AcDbLine
 10
4823.600059714255
 20
2292.488156193163
 30
0.0
 11
4875.561583941323
 21
2382.488156193163
 31
0.0
  0
LINE
  5
20DD5
330
20CDF
100
AcDbEntity
  8
SUNPOU
100
AcDbLine
 10
4771.638535487189
 20
2382.488156193163
 30
0.0
 11
4823.600059714255
 21
2292.488156193163
 31
0.0
  0
LINE
  5
20DD6
330
20CDF
100
AcDbEntity
  8
HATCH
100
AcDbLine
 10
4955.391245714956
 20
2292.488156193163
 30
0.0
 11
4820.391245714956
 21
2157.488156193164
 31
0.0
  0
LINE
  5
20DD7
330
20CDF
100
AcDbEntity
  8
HATCH
100
AcDbLine
 10
4866.295791285454
 20
2292.488156193163
 30
0.0
 11
4731.295791285454
 21
2157.488156193164
 31
0.0
  0
LINE
  5
20DD8
330
20CDF
100
AcDbEntity
  8
HATCH
100
AcDbLine
 10
4910.8435185002
 20
2292.488156193163
 30
0.0
 11
4775.843518500201
 21
2157.488156193164
 31
0.0
  0
LINE
  5
20DD9
330
20CDF
100
AcDbEntity
  8
HATCH
100
AcDbLine
 10
4505.843518500209
 20
2292.488156193163
 30
0.0
 11
4370.843518500207
 21
2157.488156193164
 31
0.0
  0
LINE
  5
20DDA
330
20CDF
100
AcDbEntity
  8
U3
100
AcDbLine
 10
5021.02056461939
 20
2089.988156193164
 30
0.0
 11
5178.52056461939
 21
2247.488156193162
 31
0.0
  0
LINE
  5
20DDB
330
20CDF
100
AcDbEntity
  8
U3
100
AcDbLine
 10
5021.020564619393
 20
2185.447571653344
 30
0.0
 11
5083.06114915921
 21
2247.488156193162
 31
0.0
  0
LINE
  5
20DDC
330
20CDF
100
AcDbEntity
  8
KISO
100
AcDbLine
 10
5021.02056461939
 20
2067.48815619316
 30
0.0
 11
5021.02056461939
 21
2292.488156193162
 31
0.0
  0
LINE
  5
20DDD
330
20CDF
100
AcDbEntity
  8
U3
100
AcDbLine
 10
5130.790856889296
 20
2199.75844846307
 30
0.0
 11
5240.561149159206
 21
2089.988156193162
 31
0.0
  0
LINE
  5
20DDE
330
20CDF
100
AcDbEntity
  8
U3
100
AcDbLine
 10
5240.561149159206
 20
2185.447571653349
 30
0.0
 11
5302.601733699015
 21
2247.488156193162
 31
0.0
  0
LINE
  5
20DDF
330
20CDF
100
AcDbEntity
  8
U3
100
AcDbLine
 10
5083.061149159206
 20
2152.028740732979
 30
0.0
 11
5145.101733699022
 21
2089.988156193162
 31
0.0
  0
TEXT
  5
20DE0
330
20CDF
100
AcDbEntity
  8
SUNPOU
100
AcDbText
 10
4755.028631142827
 20
2427.488156193163
 30
0.0
 40
90.0
  1
F.L
 41
0.6666666666666666
  7
00
 72
     4
 11
4823.600059714255
 21
2472.488156193163
 31
0.0
100
AcDbText
  0
LINE
  5
20DE1
330
20CDF
100
AcDbEntity
  8
SUNPOU
100
AcDbLine
 10
4875.561583941323
 20
2382.488156193163
 30
0.0
 11
4771.638535487189
 21
2382.488156193163
 31
0.0
  0
LINE
  5
20DE2
330
20CDF
100
AcDbEntity
  8
U3
100
AcDbLine
 10
5493.52056461939
 20
2247.488156193162
 30
0.0
 11
5651.020564619384
 21
2089.988156193166
 31
0.0
  0
LINE
  5
20DE3
330
20CDF
100
AcDbEntity
  8
U3
100
AcDbLine
 10
5555.561149159199
 20
2185.447571653349
 30
0.0
 11
5617.601733699015
 21
2247.488156193162
 31
0.0
  0
LINE
  5
20DE4
330
20CDF
100
AcDbEntity
  8
U3
100
AcDbLine
 10
5336.020564619389
 20
2089.988156193164
 30
0.0
 11
5493.52056461939
 21
2247.488156193162
 31
0.0
  0
LINE
  5
20DE5
330
20CDF
100
AcDbEntity
  8
U3
100
AcDbLine
 10
5445.790856889296
 20
2199.75844846307
 30
0.0
 11
5555.561149159206
 21
2089.988156193162
 31
0.0
  0
LINE
  5
20DE6
330
20CDF
100
AcDbEntity
  8
U3
100
AcDbLine
 10
5398.061149159206
 20
2152.028740732979
 30
0.0
 11
5460.101733699023
 21
2089.988156193162
 31
0.0
  0
LINE
  5
20DE7
330
20CDF
100
AcDbEntity
  8
SUNPOU
100
AcDbLine
 10
5481.5428247019
 20
2337.488156193161
 30
0.0
 11
5377.619776247768
 21
2337.488156193161
 31
0.0
  0
LINE
  5
20DE8
330
20CDF
100
AcDbEntity
  8
SUNPOU
100
AcDbLine
 10
5429.581300474835
 20
2247.488156193162
 30
0.0
 11
5481.5428247019
 21
2337.488156193161
 31
0.0
  0
LINE
  5
20DE9
330
20CDF
100
AcDbEntity
  8
SUNPOU
100
AcDbLine
 10
5377.619776247768
 20
2337.488156193161
 30
0.0
 11
5429.581300474835
 21
2247.488156193162
 31
0.0
  0
LINE
  5
20DEA
330
20CDF
100
AcDbEntity
  8
U3
100
AcDbLine
 10
5603.290856889294
 20
2137.717863923257
 30
0.0
 11
5713.061149159199
 21
2247.488156193163
 31
0.0
  0
TEXT
  5
20DEB
330
20CDF
100
AcDbEntity
  8
SUNPOU
100
AcDbText
 10
5358.152729046263
 20
2382.488156193163
 30
0.0
 40
90.0
  1
G.L
 41
0.6666666666666666
  7
00
 72
     4
 11
5429.581300474835
 21
2427.488156193163
 31
0.0
100
AcDbText
  0
LINE
  5
20DEC
330
20CDF
100
AcDbEntity
  8
HIKIDASHI
100
AcDbLine
 10
2873.206888001605
 20
533.4391373504939
 30
0.0
 11
3568.834241237175
 21
533.4391373504939
 31
0.0
  0
LINE
  5
20DED
330
20CDF
100
AcDbEntity
  8
HIKIDASHI
100
AcDbLine
 10
2873.206888001605
 20
563.4391373504939
 30
0.0
 11
3568.834241237175
 21
563.4391373504939
 31
0.0
  0
TEXT
  5
20DEE
330
20CDF
100
AcDbEntity
  8
HIKIDASHI
100
AcDbText
 10
3297.224167498163
 20
608.4391373504939
 30
0.0
 40
90.0
  1
断 面
  7
01
100
AcDbText
  0
TEXT
  5
20DEF
330
20CDF
100
AcDbEntity
  8
HIKIDASHI
100
AcDbText
 10
2903.206888001605
 20
608.4391373504939
 30
0.0
 40
90.0
  1
A  ~  A'
 41
0.6700000000000001
  7
00
100
AcDbText
  0
TEXT
  5
20DF0
330
20CDF
100
AcDbEntity
  8
SUNPOU
100
AcDbText
 10
5111.217177815774
 20
574.914044440873
 30
0.0
 40
90.0
  1
5-D13×5-D13
 41
0.6700000000000001
  7
01
 72
     4
 11
5454.640034958632
 21
619.9140444408732
 31
0.0
100
AcDbText
  0
TEXT
  5
20DF1
330
20CDF
100
AcDbEntity
  8
SUNPOU
100
AcDbText
 10
4624.39709637313
 20
574.9140444408732
 30
0.0
 40
90.0
  1
ベース筋
  7
01
 72
     4
 11
4828.39709637313
 21
619.9140444408732
 31
0.0
100
AcDbText
  0
CIRCLE
  5
20DF2
330
20CDF
100
AcDbEntity
  8
HIKIDASHI
100
AcDbCircle
 10
3221.02056461939
 20
1617.488156193163
 30
0.0
 40
9.0
  0
LINE
  5
20DF3
330
20CDF
100
AcDbEntity
  8
HIKIDASHI
100
AcDbLine
 10
3282.439154020361
 20
1650.484472290495
 30
0.0
 11
3229.477798206462
 21
1620.566337483093
 31
0.0
  0
LINE
  5
20DF4
330
20CDF
100
AcDbEntity
  8
HIKIDASHI
100
AcDbLine
 10
3229.477798206462
 20
1620.566337483093
 30
0.0
 11
3289.279556886874
 21
1631.690619874777
 31
0.0
  0
SOLID
  5
20DF5
330
20CDF
100
AcDbEntity
  8
HIKIDASHI
100
AcDbTrace
 10
3282.439154020361
 20
1650.484472290495
 30
0.0
 11
3289.279556886874
 21
1631.690619874777
 31
0.0
 12
3229.477798206462
 22
1620.566337483093
 32
0.0
 13
3229.477798206462
 23
1620.566337483093
 33
0.0
  0
LINE
  5
20DF6
330
20CDF
100
AcDbEntity
  8
HIKIDASHI
100
AcDbLine
 10
3289.279556886874
 20
1631.690619874777
 30
0.0
 11
3282.439154020361
 21
1650.484472290495
 31
0.0
  0
LINE
  5
20DF7
330
20CDF
100
AcDbEntity
  8
HIKIDASHI
100
AcDbLine
 10
3282.439154020361
 20
2828.021385626323
 30
0.0
 11
3229.477798206462
 21
2798.103250818921
 31
0.0
  0
LINE
  5
20DF8
330
20CDF
100
AcDbEntity
  8
HIKIDASHI
100
AcDbLine
 10
3229.477798206462
 20
2798.103250818921
 30
0.0
 11
3289.279556886874
 21
2809.227533210604
 31
0.0
  0
SOLID
  5
20DF9
330
20CDF
100
AcDbEntity
  8
HIKIDASHI
100
AcDbTrace
 10
3282.439154020361
 20
2828.021385626323
 30
0.0
 11
3289.279556886874
 21
2809.227533210604
 31
0.0
 12
3229.477798206462
 22
2798.103250818921
 32
0.0
 13
3229.477798206462
 23
2798.103250818921
 33
0.0
  0
LINE
  5
20DFA
330
20CDF
100
AcDbEntity
  8
HIKIDASHI
100
AcDbLine
 10
3289.279556886874
 20
2809.227533210604
 30
0.0
 11
3282.439154020361
 21
2828.021385626323
 31
0.0
  0
LINE
  5
20DFB
330
20CDF
100
AcDbEntity
  8
KISO
100
AcDbLine
 10
2583.520564619389
 20
1392.488156193162
 30
0.0
 11
3858.520564619389
 21
1392.488156193164
 31
0.0
  0
LINE
  5
20DFC
330
20CDF
100
AcDbEntity
  8
KISO
100
AcDbLine
 10
2583.520564619391
 20
1392.488156193162
 30
0.0
 11
2583.520564619391
 21
1542.488156193161
 31
0.0
  0
LINE
  5
20DFD
330
20CDF
100
AcDbEntity
  8
KISO
100
AcDbLine
 10
3858.520564619388
 20
1392.488156193164
 30
0.0
 11
3858.520564619389
 21
1542.488156193162
 31
0.0
  0
LINE
  5
20DFE
330
20CDF
100
AcDbEntity
  8
KISO
100
AcDbLine
 10
2583.520564619389
 20
1542.488156193161
 30
0.0
 11
3858.520564619389
 21
1542.488156193162
 31
0.0
  0
LINE
  5
20DFF
330
20CDF
100
AcDbEntity
  8
2PL-L2
100
AcDbLine
 10
7765.527727734775
 20
5425.172766976134
 30
0.0
 11
7765.527727734775
 21
7426.172766976134
 31
0.0
  0
LINE
  5
20E00
330
20CDF
100
AcDbEntity
  8
2PL-L2
100
AcDbLine
 10
4489.527727734765
 20
5425.172766976132
 30
0.0
 11
4489.527727734765
 21
7426.172766976137
 31
0.0
  0
TEXT
  5
20E01
330
20CDF
100
AcDbEntity
  8
FILENAME
100
AcDbText
 10
10408.64285714285
 20
130.4999999999999
 30
0.0
 40
75.0
  1
＜YOTR-280-U1_3_JIS_GL.DXF ＞
  7
FILENAME
 72
     2
 11
12286.5
 21
130.4999999999999
 31
0.0
100
AcDbText
  0
LINE
  5
20E02
330
20CDF
100
AcDbEntity
  8
WAKUSEN-01
100
AcDbLine
 10
325.5000000000006
 20
310.4999999999997
 30
0.0
 11
12286.5
 21
310.4999999999997
 31
0.0
  0
LINE
  5
20E03
330
20CDF
100
AcDbEntity
  8
WAKUSEN-01
100
AcDbLine
 10
325.5000000000006
 20
8431.500000000003
 30
0.0
 11
12286.5
 21
8431.500000000003
 31
0.0
  0
LINE
  5
20E04
330
20CDF
100
AcDbEntity
  8
WAKUSEN-01
100
AcDbLine
 10
325.5000000000006
 20
310.4999999999997
 30
0.0
 11
325.5000000000006
 21
8431.500000000003
 31
0.0
  0
LINE
  5
20E05
330
20CDF
100
AcDbEntity
  8
WAKUSEN-01
100
AcDbLine
 10
12286.5
 20
310.4999999999997
 30
0.0
 11
12286.5
 21
8431.500000000003
 31
0.0
  0
LINE
  5
20E06
330
20CDF
100
AcDbEntity
  8
WAKUSEN-01
100
AcDbLine
 10
7710.0
 20
931.4999999999999
 30
0.0
 11
12286.5
 21
931.4999999999995
 31
0.0
  0
LINE
  5
20E07
330
20CDF
100
AcDbEntity
  8
WAKUSEN-02
100
AcDbLine
 10
7710.0
 20
620.9999999999999
 30
0.0
 11
10075.49999999999
 21
620.9999999999999
 31
0.0
  0
TEXT
  5
20E08
330
20CDF
100
AcDbEntity
  8
WAKUMOJI-01
100
AcDbText
 10
7751.347597486038
 20
797.2136285022457
 30
0.0
 40
90.0
  1
名　称
  7
WAKUMOJI
100
AcDbText
  0
TEXT
  5
20E09
330
20CDF
100
AcDbEntity
  8
WAKUMOJI-01
100
AcDbText
 10
7746.18955690947
 20
494.6733656174329
 30
0.0
 40
90.0
  1
機種名
  7
WAKUMOJI
100
AcDbText
  0
LINE
  5
20E0A
330
20CDF
100
AcDbEntity
  8
WAKUSEN-01
100
AcDbLine
 10
7710.0
 20
310.4999999999989
 30
0.0
 11
7710.0
 21
931.4999999999999
 31
0.0
  0
LINE
  5
20E0B
330
20CDF
100
AcDbEntity
  8
WAKUSEN-02
100
AcDbLine
 10
10075.49999999999
 20
310.4999999999973
 30
0.0
 11
10075.49999999999
 21
931.4999999999999
 31
0.0
  0
LINE
  5
20E0C
330
20CDF
100
AcDbEntity
  8
YODOROGO
100
AcDbLine
 10
11241.60162798446
 20
748.4060611609828
 30
0.0
 11
11186.10162798447
 21
748.4060611609828
 31
0.0
1001
AUTOCAD_POSTSCRIPT_FIGURE
1002
{
1000
PSFILL
1000
Grayscale
1000
Grayscale
1070
    25
1002
}
  0
LINE
  5
20E0D
330
20CDF
100
AcDbEntity
  8
YODOROGO
100
AcDbLine
 10
11186.10162798447
 20
730.4060611609828
 30
0.0
 11
11241.60162798446
 21
730.4060611609828
 31
0.0
1001
AUTOCAD_POSTSCRIPT_FIGURE
1002
{
1000
PSFILL
1000
Grayscale
1000
Grayscale
1070
    25
1002
}
  0
LINE
  5
20E0E
330
20CDF
100
AcDbEntity
  8
YODOROGO
100
AcDbLine
 10
11241.60162798446
 20
715.4060611609828
 30
0.0
 11
11186.10162798447
 21
715.4060611609828
 31
0.0
1001
AUTOCAD_POSTSCRIPT_FIGURE
1002
{
1000
PSFILL
1000
Grayscale
1000
Grayscale
1070
    25
1002
}
  0
LINE
  5
20E0F
330
20CDF
100
AcDbEntity
  8
YODOROGO
100
AcDbLine
 10
11186.10162798447
 20
697.406061160983
 30
0.0
 11
11241.60162798446
 21
697.406061160983
 31
0.0
1001
AUTOCAD_POSTSCRIPT_FIGURE
1002
{
1000
PSFILL
1000
Grayscale
1000
Grayscale
1070
    25
1002
}
  0
LINE
  5
20E10
330
20CDF
100
AcDbEntity
  8
YODOROGO
100
AcDbLine
 10
11241.60162798446
 20
682.4060611609829
 30
0.0
 11
11186.10162798447
 21
682.4060611609829
 31
0.0
1001
AUTOCAD_POSTSCRIPT_FIGURE
1002
{
1000
PSFILL
1000
Grayscale
1000
Grayscale
1070
    25
1002
}
  0
LINE
  5
20E11
330
20CDF
100
AcDbEntity
  8
YODOROGO
100
AcDbLine
 10
11220.60162798447
 20
640.4060611609828
 30
0.0
 11
11241.60162798446
 21
640.4060611609828
 31
0.0
1001
AUTOCAD_POSTSCRIPT_FIGURE
1002
{
1000
PSFILL
1000
Grayscale
1000
Grayscale
1070
    25
1002
}
  0
LINE
  5
20E12
330
20CDF
100
AcDbEntity
  8
YODOROGO
100
AcDbLine
 10
11151.60162798447
 20
535.4060611609829
 30
0.0
 11
11226.60162798446
 21
555.5022505933164
 31
0.0
  0
LINE
  5
20E13
330
20CDF
100
AcDbEntity
  8
YODOROGO
100
AcDbLine
 10
11231.10162798446
 20
640.4060611609828
 30
0.0
 11
11207.10162798447
 21
640.4060611609828
 31
0.0
  0
ARC
  5
20E14
330
20CDF
100
AcDbEntity
  8
YODOROGO
100
AcDbCircle
 10
11345.38040618545
 20
677.9492284624735
 30
0.0
 40
143.2075740771177
100
AcDbArc
 50
213.9611167766784
 51
264.4787207431779
  0
ARC
  5
20E15
330
20CDF
100
AcDbEntity
  8
YODOROGO
100
AcDbCircle
 10
11345.38040618547
 20
677.9492284624883
 30
0.0
 40
143.2075740771305
100
AcDbArc
 50
208.141144204866
 51
212.9210361185994
  0
LINE
  5
20E16
330
20CDF
100
AcDbEntity
  8
YODOROGO
100
AcDbLine
 10
11164.27870236948
 20
583.8028730048376
 30
0.0
 11
11225.1690496907
 21
600.1183923964076
 31
0.0
  0
LINE
  5
20E17
330
20CDF
100
AcDbEntity
  8
YODOROGO
100
AcDbLine
 10
11151.60162798447
 20
535.4060611609829
 30
0.0
 11
11226.60162798446
 21
555.5022505933164
 31
0.0
  0
LINE
  5
20E18
330
20CDF
100
AcDbEntity
  8
YODOROGO
100
AcDbLine
 10
11231.10162798446
 20
640.4060611609828
 30
0.0
 11
11207.10162798447
 21
640.4060611609828
 31
0.0
  0
ARC
  5
20E19
330
20CDF
100
AcDbEntity
  8
YODOROGO
100
AcDbCircle
 10
11345.38040618545
 20
677.9492284624735
 30
0.0
 40
143.2075740771177
100
AcDbArc
 50
213.9611167766784
 51
264.4787207431779
  0
LINE
  5
20E1A
330
20CDF
100
AcDbEntity
  8
YODOROGO
100
AcDbLine
 10
10797.60162798446
 20
682.4060611609829
 30
0.0
 11
10662.60162798446
 21
682.4060611609829
 31
0.0
  0
LINE
  5
20E1B
330
20CDF
100
AcDbEntity
  8
YODOROGO
100
AcDbLine
 10
10692.60162798446
 20
535.4060611609829
 30
0.0
 11
10797.60162798446
 21
535.4060611609829
 31
0.0
  0
LINE
  5
20E1C
330
20CDF
100
AcDbEntity
  8
YODOROGO
100
AcDbLine
 10
10773.60162798447
 20
721.4060611609824
 30
0.0
 11
10686.60162798446
 21
721.4060611609824
 31
0.0
  0
LINE
  5
20E1D
330
20CDF
100
AcDbEntity
  8
YODOROGO
100
AcDbLine
 10
10719.60162798446
 20
760.4060611609829
 30
0.0
 11
10746.60162798447
 21
760.4060611609829
 31
0.0
  0
LINE
  5
20E1E
330
20CDF
100
AcDbEntity
  8
YODOROGO
100
AcDbLine
 10
10662.60162798446
 20
640.4060611609828
 30
0.0
 11
10662.60162798446
 21
565.4060611609828
 31
0.0
  0
LINE
  5
20E1F
330
20CDF
100
AcDbEntity
  8
YODOROGO
100
AcDbLine
 10
10686.60162798446
 20
586.4060611609825
 30
0.0
 11
10686.60162798446
 21
640.4060611609828
 31
0.0
  0
LINE
  5
20E20
330
20CDF
100
AcDbEntity
  8
YODOROGO
100
AcDbLine
 10
10719.60162798446
 20
655.4060611609838
 30
0.0
 11
10719.60162798446
 21
580.406061160983
 31
0.0
  0
LINE
  5
20E21
330
20CDF
100
AcDbEntity
  8
YODOROGO
100
AcDbLine
 10
10446.60162798447
 20
631.4060611609833
 30
0.0
 11
10416.60162798446
 21
607.4896552667143
 31
0.0
  0
LINE
  5
20E22
330
20CDF
100
AcDbEntity
  8
YODOROGO
100
AcDbLine
 10
10476.60162798446
 20
607.4896552667143
 30
0.0
 11
10446.60162798447
 21
631.4060611609833
 31
0.0
  0
LINE
  5
20E23
330
20CDF
100
AcDbEntity
  8
YODOROGO
100
AcDbLine
 10
10446.60162798447
 20
640.4060611609828
 30
0.0
 11
10476.60162798446
 21
616.4896552667137
 31
0.0
  0
LINE
  5
20E24
330
20CDF
100
AcDbEntity
  8
YODOROGO
100
AcDbLine
 10
10416.60162798446
 20
616.4896552667137
 30
0.0
 11
10446.60162798447
 21
640.4060611609828
 31
0.0
  0
LINE
  5
20E25
330
20CDF
100
AcDbEntity
  8
YODOROGO
100
AcDbLine
 10
10515.34245150633
 20
622.406061160983
 30
0.0
 11
10515.34245150633
 21
631.4060611609825
 31
0.0
  0
LINE
  5
20E26
330
20CDF
100
AcDbEntity
  8
YODOROGO
100
AcDbLine
 10
10491.60162798447
 20
631.4060611609825
 30
0.0
 11
10491.60162798447
 21
625.4060611609819
 31
0.0
  0
LINE
  5
20E27
330
20CDF
100
AcDbEntity
  8
YODOROGO
100
AcDbLine
 10
10536.8008200866
 20
640.4060611609828
 30
0.0
 11
10536.8008200866
 21
620.813863977996
 31
0.0
1001
AUTOCAD_POSTSCRIPT_FIGURE
1002
{
1000
PSFILL
1000
Grayscale
1000
Grayscale
1070
   100
1002
}
  0
LINE
  5
20E28
330
20CDF
100
AcDbEntity
  8
YODOROGO
100
AcDbLine
 10
10530.80082008658
 20
620.813863977996
 30
0.0
 11
10530.80082008658
 21
640.4060611609828
 31
0.0
1001
AUTOCAD_POSTSCRIPT_FIGURE
1002
{
1000
PSFILL
1000
Grayscale
1000
Grayscale
1070
   100
1002
}
  0
LINE
  5
20E29
330
20CDF
100
AcDbEntity
  8
YODOROGO
100
AcDbLine
 10
10428.60162798447
 20
603.2894640162218
 30
0.0
 11
10428.60162798447
 21
612.2894640162221
 31
0.0
  0
LINE
  5
20E2A
330
20CDF
100
AcDbEntity
  8
YODOROGO
100
AcDbLine
 10
10464.60162798447
 20
603.2894640162218
 30
0.0
 11
10428.60162798447
 21
603.2894640162218
 31
0.0
  0
LINE
  5
20E2B
330
20CDF
100
AcDbEntity
  8
YODOROGO
100
AcDbLine
 10
10464.60162798447
 20
612.2894640162221
 30
0.0
 11
10464.60162798447
 21
603.2894640162218
 31
0.0
  0
LINE
  5
20E2C
330
20CDF
100
AcDbEntity
  8
YODOROGO
100
AcDbLine
 10
10428.60162798447
 20
612.2894640162221
 30
0.0
 11
10464.60162798447
 21
612.2894640162221
 31
0.0
  0
LINE
  5
20E2D
330
20CDF
100
AcDbEntity
  8
YODOROGO
100
AcDbLine
 10
10434.1910958434
 20
588.1885715139279
 30
0.0
 11
10419.60162798446
 21
553.4060611609827
 31
0.0
1001
AUTOCAD_POSTSCRIPT_FIGURE
1002
{
1000
PSFILL
1000
Grayscale
1000
Grayscale
1070
   100
1002
}
  0
LINE
  5
20E2E
330
20CDF
100
AcDbEntity
  8
YODOROGO
100
AcDbLine
 10
10416.60162798446
 20
588.1885715139279
 30
0.0
 11
10434.1910958434
 21
588.1885715139279
 31
0.0
1001
AUTOCAD_POSTSCRIPT_FIGURE
1002
{
1000
PSFILL
1000
Grayscale
1000
Grayscale
1070
   100
1002
}
  0
LINE
  5
20E2F
330
20CDF
100
AcDbEntity
  8
YODOROGO
100
AcDbLine
 10
10416.60162798446
 20
595.688571513928
 30
0.0
 11
10416.60162798446
 21
588.1885715139279
 31
0.0
1001
AUTOCAD_POSTSCRIPT_FIGURE
1002
{
1000
PSFILL
1000
Grayscale
1000
Grayscale
1070
   100
1002
}
  0
LINE
  5
20E30
330
20CDF
100
AcDbEntity
  8
YODOROGO
100
AcDbLine
 10
10476.60162798446
 20
595.688571513928
 30
0.0
 11
10416.60162798446
 21
595.688571513928
 31
0.0
1001
AUTOCAD_POSTSCRIPT_FIGURE
1002
{
1000
PSFILL
1000
Grayscale
1000
Grayscale
1070
   100
1002
}
  0
LINE
  5
20E31
330
20CDF
100
AcDbEntity
  8
YODOROGO
100
AcDbLine
 10
10476.60162798446
 20
588.1885715139279
 30
0.0
 11
10476.60162798446
 21
595.688571513928
 31
0.0
1001
AUTOCAD_POSTSCRIPT_FIGURE
1002
{
1000
PSFILL
1000
Grayscale
1000
Grayscale
1070
   100
1002
}
  0
LINE
  5
20E32
330
20CDF
100
AcDbEntity
  8
YODOROGO
100
AcDbLine
 10
10441.69109584339
 20
588.1885715139279
 30
0.0
 11
10476.60162798446
 21
588.1885715139279
 31
0.0
1001
AUTOCAD_POSTSCRIPT_FIGURE
1002
{
1000
PSFILL
1000
Grayscale
1000
Grayscale
1070
   100
1002
}
  0
LINE
  5
20E33
330
20CDF
100
AcDbEntity
  8
YODOROGO
100
AcDbLine
 10
10430.83001935679
 20
560.9060611609827
 30
0.0
 11
10441.69109584339
 21
588.1885715139279
 31
0.0
1001
AUTOCAD_POSTSCRIPT_FIGURE
1002
{
1000
PSFILL
1000
Grayscale
1000
Grayscale
1070
   100
1002
}
  0
LINE
  5
20E34
330
20CDF
100
AcDbEntity
  8
YODOROGO
100
AcDbLine
 10
10463.27054655324
 20
560.9060611609827
 30
0.0
 11
10430.83001935679
 21
560.9060611609827
 31
0.0
1001
AUTOCAD_POSTSCRIPT_FIGURE
1002
{
1000
PSFILL
1000
Grayscale
1000
Grayscale
1070
   100
1002
}
  0
LINE
  5
20E35
330
20CDF
100
AcDbEntity
  8
YODOROGO
100
AcDbLine
 10
10456.8993767966
 20
576.0876790116348
 30
0.0
 11
10463.27054655324
 21
560.9060611609827
 31
0.0
1001
AUTOCAD_POSTSCRIPT_FIGURE
1002
{
1000
PSFILL
1000
Grayscale
1000
Grayscale
1070
   100
1002
}
  0
LINE
  5
20E36
330
20CDF
100
AcDbEntity
  8
YODOROGO
100
AcDbLine
 10
10462.8993767966
 20
576.0876790116348
 30
0.0
 11
10456.8993767966
 21
576.0876790116348
 31
0.0
1001
AUTOCAD_POSTSCRIPT_FIGURE
1002
{
1000
PSFILL
1000
Grayscale
1000
Grayscale
1070
   100
1002
}
  0
LINE
  5
20E37
330
20CDF
100
AcDbEntity
  8
YODOROGO
100
AcDbLine
 10
10473.60162798447
 20
553.4060611609827
 30
0.0
 11
10462.8993767966
 21
576.0876790116348
 31
0.0
1001
AUTOCAD_POSTSCRIPT_FIGURE
1002
{
1000
PSFILL
1000
Grayscale
1000
Grayscale
1070
   100
1002
}
  0
LINE
  5
20E38
330
20CDF
100
AcDbEntity
  8
YODOROGO
100
AcDbLine
 10
10419.60162798446
 20
553.4060611609827
 30
0.0
 11
10473.60162798447
 21
553.4060611609827
 31
0.0
1001
AUTOCAD_POSTSCRIPT_FIGURE
1002
{
1000
PSFILL
1000
Grayscale
1000
Grayscale
1070
   100
1002
}
  0
LINE
  5
20E39
330
20CDF
100
AcDbEntity
  8
YODOROGO
100
AcDbLine
 10
10416.60162798446
 20
607.4896552667143
 30
0.0
 11
10416.60162798446
 21
616.4896552667137
 31
0.0
  0
LINE
  5
20E3A
330
20CDF
100
AcDbEntity
  8
YODOROGO
100
AcDbLine
 10
10476.60162798446
 20
616.4896552667137
 30
0.0
 11
10476.60162798446
 21
607.4896552667143
 31
0.0
  0
ARC
  5
20E3B
330
20CDF
100
AcDbEntity
  8
YODOROGO
100
AcDbCircle
 10
10584.72766580511
 20
600.3291619969972
 30
0.0
 40
65.99999999999997
100
AcDbArc
 50
280.3644312771313
 51
3.541483659218056
  0
ARC
  5
20E3C
330
20CDF
100
AcDbEntity
  8
YODOROGO
100
AcDbCircle
 10
10588.40851153474
 20
612.5991776107142
 30
0.0
 40
41.99999999999936
100
AcDbArc
 50
281.2490582504155
 51
348.7509417495832
  0
LINE
  5
20E3D
330
20CDF
100
AcDbEntity
  8
YODOROGO
100
AcDbLine
 10
10596.60162798446
 20
571.4060611609824
 30
0.0
 11
10596.60162798446
 21
535.4060611609829
 31
0.0
  0
LINE
  5
20E3E
330
20CDF
100
AcDbEntity
  8
YODOROGO
100
AcDbLine
 10
10507.53333890132
 20
603.9939618982182
 30
0.0
 11
10515.34245150633
 21
622.406061160983
 31
0.0
  0
LINE
  5
20E3F
330
20CDF
100
AcDbEntity
  8
YODOROGO
100
AcDbLine
 10
10515.60162798446
 20
593.6701837306505
 30
0.0
 11
10507.53333890132
 21
603.9939618982182
 31
0.0
  0
LINE
  5
20E40
330
20CDF
100
AcDbEntity
  8
YODOROGO
100
AcDbLine
 10
10515.60162798446
 20
586.1701837306497
 30
0.0
 11
10515.60162798446
 21
593.6701837306505
 31
0.0
  0
LINE
  5
20E41
330
20CDF
100
AcDbEntity
  8
YODOROGO
100
AcDbLine
 10
10506.60162798447
 20
594.4638989060739
 30
0.0
 11
10515.60162798446
 21
586.1701837306497
 31
0.0
  0
LINE
  5
20E42
330
20CDF
100
AcDbEntity
  8
YODOROGO
100
AcDbLine
 10
10506.60162798447
 20
553.4060611609827
 30
0.0
 11
10506.60162798447
 21
594.4638989060739
 31
0.0
  0
LINE
  5
20E43
330
20CDF
100
AcDbEntity
  8
YODOROGO
100
AcDbLine
 10
10500.60162798446
 20
553.4060611609827
 30
0.0
 11
10506.60162798447
 21
553.4060611609827
 31
0.0
  0
LINE
  5
20E44
330
20CDF
100
AcDbEntity
  8
YODOROGO
100
AcDbLine
 10
10500.60162798446
 20
592.5020061336555
 30
0.0
 11
10500.60162798446
 21
553.4060611609827
 31
0.0
  0
LINE
  5
20E45
330
20CDF
100
AcDbEntity
  8
YODOROGO
100
AcDbLine
 10
10491.60162798447
 20
574.7880296375358
 30
0.0
 11
10500.60162798446
 21
592.5020061336555
 31
0.0
  0
LINE
  5
20E46
330
20CDF
100
AcDbEntity
  8
YODOROGO
100
AcDbLine
 10
10491.60162798447
 20
583.788029637536
 30
0.0
 11
10491.60162798447
 21
574.7880296375358
 31
0.0
  0
LINE
  5
20E47
330
20CDF
100
AcDbEntity
  8
YODOROGO
100
AcDbLine
 10
10509.68579035926
 20
625.4060611609819
 30
0.0
 11
10491.60162798447
 21
583.788029637536
 31
0.0
  0
LINE
  5
20E48
330
20CDF
100
AcDbEntity
  8
YODOROGO
100
AcDbLine
 10
10491.60162798447
 20
625.4060611609819
 30
0.0
 11
10509.68579035926
 21
625.4060611609819
 31
0.0
  0
LINE
  5
20E49
330
20CDF
100
AcDbEntity
  8
YODOROGO
100
AcDbLine
 10
10518.80082008659
 20
620.813863977996
 30
0.0
 11
10530.80082008658
 21
620.813863977996
 31
0.0
1001
AUTOCAD_POSTSCRIPT_FIGURE
1002
{
1000
PSFILL
1000
Grayscale
1000
Grayscale
1070
   100
1002
}
  0
LINE
  5
20E4A
330
20CDF
100
AcDbEntity
  8
YODOROGO
100
AcDbLine
 10
10518.80082008659
 20
611.8138639779965
 30
0.0
 11
10518.80082008659
 21
620.813863977996
 31
0.0
1001
AUTOCAD_POSTSCRIPT_FIGURE
1002
{
1000
PSFILL
1000
Grayscale
1000
Grayscale
1070
   100
1002
}
  0
LINE
  5
20E4B
330
20CDF
100
AcDbEntity
  8
YODOROGO
100
AcDbLine
 10
10530.80082008658
 20
611.8138639779965
 30
0.0
 11
10518.80082008659
 21
611.8138639779965
 31
0.0
1001
AUTOCAD_POSTSCRIPT_FIGURE
1002
{
1000
PSFILL
1000
Grayscale
1000
Grayscale
1070
   100
1002
}
  0
LINE
  5
20E4C
330
20CDF
100
AcDbEntity
  8
YODOROGO
100
AcDbLine
 10
10530.80082008658
 20
562.4060611609831
 30
0.0
 11
10530.80082008658
 21
611.8138639779965
 31
0.0
1001
AUTOCAD_POSTSCRIPT_FIGURE
1002
{
1000
PSFILL
1000
Grayscale
1000
Grayscale
1070
   100
1002
}
  0
LINE
  5
20E4D
330
20CDF
100
AcDbEntity
  8
YODOROGO
100
AcDbLine
 10
10518.8008200866
 20
562.4060611609831
 30
0.0
 11
10530.80082008658
 21
562.4060611609831
 31
0.0
1001
AUTOCAD_POSTSCRIPT_FIGURE
1002
{
1000
PSFILL
1000
Grayscale
1000
Grayscale
1070
   100
1002
}
  0
LINE
  5
20E4E
330
20CDF
100
AcDbEntity
  8
YODOROGO
100
AcDbLine
 10
10518.8008200866
 20
553.4060611609827
 30
0.0
 11
10518.8008200866
 21
562.4060611609831
 31
0.0
1001
AUTOCAD_POSTSCRIPT_FIGURE
1002
{
1000
PSFILL
1000
Grayscale
1000
Grayscale
1070
   100
1002
}
  0
LINE
  5
20E4F
330
20CDF
100
AcDbEntity
  8
YODOROGO
100
AcDbLine
 10
10551.60162798447
 20
553.4060611609827
 30
0.0
 11
10518.8008200866
 21
553.4060611609827
 31
0.0
1001
AUTOCAD_POSTSCRIPT_FIGURE
1002
{
1000
PSFILL
1000
Grayscale
1000
Grayscale
1070
   100
1002
}
  0
LINE
  5
20E50
330
20CDF
100
AcDbEntity
  8
YODOROGO
100
AcDbLine
 10
10551.60162798447
 20
562.4060611609831
 30
0.0
 11
10551.60162798447
 21
553.4060611609827
 31
0.0
1001
AUTOCAD_POSTSCRIPT_FIGURE
1002
{
1000
PSFILL
1000
Grayscale
1000
Grayscale
1070
   100
1002
}
  0
LINE
  5
20E51
330
20CDF
100
AcDbEntity
  8
YODOROGO
100
AcDbLine
 10
10536.8008200866
 20
562.4060611609831
 30
0.0
 11
10551.60162798447
 21
562.4060611609831
 31
0.0
1001
AUTOCAD_POSTSCRIPT_FIGURE
1002
{
1000
PSFILL
1000
Grayscale
1000
Grayscale
1070
   100
1002
}
  0
LINE
  5
20E52
330
20CDF
100
AcDbEntity
  8
YODOROGO
100
AcDbLine
 10
10536.8008200866
 20
611.8138639779965
 30
0.0
 11
10536.8008200866
 21
562.4060611609831
 31
0.0
1001
AUTOCAD_POSTSCRIPT_FIGURE
1002
{
1000
PSFILL
1000
Grayscale
1000
Grayscale
1070
   100
1002
}
  0
LINE
  5
20E53
330
20CDF
100
AcDbEntity
  8
YODOROGO
100
AcDbLine
 10
10551.60162798447
 20
611.8138639779965
 30
0.0
 11
10536.8008200866
 21
611.8138639779965
 31
0.0
1001
AUTOCAD_POSTSCRIPT_FIGURE
1002
{
1000
PSFILL
1000
Grayscale
1000
Grayscale
1070
   100
1002
}
  0
LINE
  5
20E54
330
20CDF
100
AcDbEntity
  8
YODOROGO
100
AcDbLine
 10
10551.60162798447
 20
620.813863977996
 30
0.0
 11
10551.60162798447
 21
611.8138639779965
 31
0.0
1001
AUTOCAD_POSTSCRIPT_FIGURE
1002
{
1000
PSFILL
1000
Grayscale
1000
Grayscale
1070
   100
1002
}
  0
LINE
  5
20E55
330
20CDF
100
AcDbEntity
  8
YODOROGO
100
AcDbLine
 10
10536.8008200866
 20
620.813863977996
 30
0.0
 11
10551.60162798447
 21
620.813863977996
 31
0.0
1001
AUTOCAD_POSTSCRIPT_FIGURE
1002
{
1000
PSFILL
1000
Grayscale
1000
Grayscale
1070
   100
1002
}
  0
LINE
  5
20E56
330
20CDF
100
AcDbEntity
  8
YODOROGO
100
AcDbLine
 10
10650.60162798447
 20
625.406061160983
 30
0.0
 11
10629.60162798447
 21
625.406061160983
 31
0.0
  0
LINE
  5
20E57
330
20CDF
100
AcDbEntity
  8
YODOROGO
100
AcDbLine
 10
10650.60162798447
 20
604.4060611609832
 30
0.0
 11
10650.60162798447
 21
625.406061160983
 31
0.0
  0
LINE
  5
20E58
330
20CDF
100
AcDbEntity
  8
YODOROGO
100
AcDbLine
 10
10629.60162798447
 20
625.406061160983
 30
0.0
 11
10629.60162798447
 21
604.4060611609832
 31
0.0
  0
ARC
  5
20E59
330
20CDF
100
AcDbEntity
  8
YODOROGO
100
AcDbCircle
 10
10692.60162798446
 20
565.4060611609828
 30
0.0
 40
30.0
100
AcDbArc
 50
180.0
 51
270.0
  0
ARC
  5
20E5A
330
20CDF
100
AcDbEntity
  8
YODOROGO
100
AcDbCircle
 10
10701.60162798446
 20
586.4060611609825
 30
0.0
 40
15.0
100
AcDbArc
 50
180.0
 51
270.0
  0
LINE
  5
20E5B
330
20CDF
100
AcDbEntity
  8
YODOROGO
100
AcDbLine
 10
10710.60162798447
 20
571.4060611609824
 30
0.0
 11
10701.60162798446
 21
571.4060611609824
 31
0.0
  0
ARC
  5
20E5C
330
20CDF
100
AcDbEntity
  8
YODOROGO
100
AcDbCircle
 10
10710.60162798447
 20
580.4060611609819
 30
0.0
 40
8.999999999998637
100
AcDbArc
 50
270.0
 51
0.0000000000054281
  0
LINE
  5
20E5D
330
20CDF
100
AcDbEntity
  8
YODOROGO
100
AcDbLine
 10
10425.60162798447
 20
709.0449677976399
 30
0.0
 11
10416.60162798446
 21
691.4162804818772
 31
0.0
1001
AUTOCAD_POSTSCRIPT_FIGURE
1002
{
1000
PSFILL
1000
Grayscale
1000
Grayscale
1070
   100
1002
}
  0
LINE
  5
20E5E
330
20CDF
100
AcDbEntity
  8
YODOROGO
100
AcDbLine
 10
10425.60162798447
 20
655.406061160983
 30
0.0
 11
10425.60162798447
 21
709.0449677976399
 31
0.0
1001
AUTOCAD_POSTSCRIPT_FIGURE
1002
{
1000
PSFILL
1000
Grayscale
1000
Grayscale
1070
   100
1002
}
  0
LINE
  5
20E5F
330
20CDF
100
AcDbEntity
  8
YODOROGO
100
AcDbLine
 10
10431.60162798447
 20
655.406061160983
 30
0.0
 11
10425.60162798447
 21
655.406061160983
 31
0.0
1001
AUTOCAD_POSTSCRIPT_FIGURE
1002
{
1000
PSFILL
1000
Grayscale
1000
Grayscale
1070
   100
1002
}
  0
LINE
  5
20E60
330
20CDF
100
AcDbEntity
  8
YODOROGO
100
AcDbLine
 10
10431.60162798447
 20
710.1642495319751
 30
0.0
 11
10431.60162798447
 21
655.406061160983
 31
0.0
1001
AUTOCAD_POSTSCRIPT_FIGURE
1002
{
1000
PSFILL
1000
Grayscale
1000
Grayscale
1070
   100
1002
}
  0
LINE
  5
20E61
330
20CDF
100
AcDbEntity
  8
YODOROGO
100
AcDbLine
 10
10440.60162798446
 20
700.3705343565512
 30
0.0
 11
10431.60162798447
 21
710.1642495319751
 31
0.0
1001
AUTOCAD_POSTSCRIPT_FIGURE
1002
{
1000
PSFILL
1000
Grayscale
1000
Grayscale
1070
   100
1002
}
  0
LINE
  5
20E62
330
20CDF
100
AcDbEntity
  8
YODOROGO
100
AcDbLine
 10
10440.60162798446
 20
706.3705343565509
 30
0.0
 11
10440.60162798446
 21
700.3705343565512
 31
0.0
1001
AUTOCAD_POSTSCRIPT_FIGURE
1002
{
1000
PSFILL
1000
Grayscale
1000
Grayscale
1070
   100
1002
}
  0
LINE
  5
20E63
330
20CDF
100
AcDbEntity
  8
YODOROGO
100
AcDbLine
 10
10431.60162798447
 20
719.1642495319745
 30
0.0
 11
10440.60162798446
 21
706.3705343565509
 31
0.0
1001
AUTOCAD_POSTSCRIPT_FIGURE
1002
{
1000
PSFILL
1000
Grayscale
1000
Grayscale
1070
   100
1002
}
  0
LINE
  5
20E64
330
20CDF
100
AcDbEntity
  8
YODOROGO
100
AcDbLine
 10
10431.60162798447
 20
727.4060611609828
 30
0.0
 11
10431.60162798447
 21
719.1642495319745
 31
0.0
1001
AUTOCAD_POSTSCRIPT_FIGURE
1002
{
1000
PSFILL
1000
Grayscale
1000
Grayscale
1070
   100
1002
}
  0
LINE
  5
20E65
330
20CDF
100
AcDbEntity
  8
YODOROGO
100
AcDbLine
 10
10458.60162798446
 20
727.4060611609828
 30
0.0
 11
10431.60162798447
 21
727.4060611609828
 31
0.0
1001
AUTOCAD_POSTSCRIPT_FIGURE
1002
{
1000
PSFILL
1000
Grayscale
1000
Grayscale
1070
   100
1002
}
  0
LINE
  5
20E66
330
20CDF
100
AcDbEntity
  8
YODOROGO
100
AcDbLine
 10
10458.60162798446
 20
712.7131308511124
 30
0.0
 11
10458.60162798446
 21
727.4060611609828
 31
0.0
1001
AUTOCAD_POSTSCRIPT_FIGURE
1002
{
1000
PSFILL
1000
Grayscale
1000
Grayscale
1070
   100
1002
}
  0
LINE
  5
20E67
330
20CDF
100
AcDbEntity
  8
YODOROGO
100
AcDbLine
 10
10446.60162798447
 20
712.7131308511124
 30
0.0
 11
10458.60162798446
 21
712.7131308511124
 31
0.0
1001
AUTOCAD_POSTSCRIPT_FIGURE
1002
{
1000
PSFILL
1000
Grayscale
1000
Grayscale
1070
   100
1002
}
  0
LINE
  5
20E68
330
20CDF
100
AcDbEntity
  8
YODOROGO
100
AcDbLine
 10
10446.60162798447
 20
706.7131308511119
 30
0.0
 11
10446.60162798447
 21
712.7131308511124
 31
0.0
1001
AUTOCAD_POSTSCRIPT_FIGURE
1002
{
1000
PSFILL
1000
Grayscale
1000
Grayscale
1070
   100
1002
}
  0
LINE
  5
20E69
330
20CDF
100
AcDbEntity
  8
YODOROGO
100
AcDbLine
 10
10458.60162798446
 20
706.7131308511119
 30
0.0
 11
10446.60162798447
 21
706.7131308511119
 31
0.0
1001
AUTOCAD_POSTSCRIPT_FIGURE
1002
{
1000
PSFILL
1000
Grayscale
1000
Grayscale
1070
   100
1002
}
  0
LINE
  5
20E6A
330
20CDF
100
AcDbEntity
  8
YODOROGO
100
AcDbLine
 10
10458.60162798446
 20
704.8571917366647
 30
0.0
 11
10458.60162798446
 21
706.7131308511119
 31
0.0
1001
AUTOCAD_POSTSCRIPT_FIGURE
1002
{
1000
PSFILL
1000
Grayscale
1000
Grayscale
1070
   100
1002
}
  0
LINE
  5
20E6B
330
20CDF
100
AcDbEntity
  8
YODOROGO
100
AcDbLine
 10
10443.60162798447
 20
679.8656179355313
 30
0.0
 11
10458.60162798446
 21
704.8571917366647
 31
0.0
1001
AUTOCAD_POSTSCRIPT_FIGURE
1002
{
1000
PSFILL
1000
Grayscale
1000
Grayscale
1070
   100
1002
}
  0
LINE
  5
20E6C
330
20CDF
100
AcDbEntity
  8
YODOROGO
100
AcDbLine
 10
10443.60162798447
 20
673.8656179355309
 30
0.0
 11
10443.60162798447
 21
679.8656179355313
 31
0.0
1001
AUTOCAD_POSTSCRIPT_FIGURE
1002
{
1000
PSFILL
1000
Grayscale
1000
Grayscale
1070
   100
1002
}
  0
LINE
  5
20E6D
330
20CDF
100
AcDbEntity
  8
YODOROGO
100
AcDbLine
 10
10458.60162798446
 20
692.8571917366638
 30
0.0
 11
10443.60162798447
 21
673.8656179355309
 31
0.0
1001
AUTOCAD_POSTSCRIPT_FIGURE
1002
{
1000
PSFILL
1000
Grayscale
1000
Grayscale
1070
   100
1002
}
  0
LINE
  5
20E6E
330
20CDF
100
AcDbEntity
  8
YODOROGO
100
AcDbLine
 10
10458.60162798446
 20
655.406061160983
 30
0.0
 11
10458.60162798446
 21
692.8571917366638
 31
0.0
1001
AUTOCAD_POSTSCRIPT_FIGURE
1002
{
1000
PSFILL
1000
Grayscale
1000
Grayscale
1070
   100
1002
}
  0
LINE
  5
20E6F
330
20CDF
100
AcDbEntity
  8
YODOROGO
100
AcDbLine
 10
10464.60162798447
 20
655.406061160983
 30
0.0
 11
10458.60162798446
 21
655.406061160983
 31
0.0
1001
AUTOCAD_POSTSCRIPT_FIGURE
1002
{
1000
PSFILL
1000
Grayscale
1000
Grayscale
1070
   100
1002
}
  0
LINE
  5
20E70
330
20CDF
100
AcDbEntity
  8
YODOROGO
100
AcDbLine
 10
10464.60162798447
 20
693.5283795595521
 30
0.0
 11
10464.60162798447
 21
655.406061160983
 31
0.0
1001
AUTOCAD_POSTSCRIPT_FIGURE
1002
{
1000
PSFILL
1000
Grayscale
1000
Grayscale
1070
   100
1002
}
  0
LINE
  5
20E71
330
20CDF
100
AcDbEntity
  8
YODOROGO
100
AcDbLine
 10
10476.60162798446
 20
673.8656179355309
 30
0.0
 11
10464.60162798447
 21
693.5283795595521
 31
0.0
1001
AUTOCAD_POSTSCRIPT_FIGURE
1002
{
1000
PSFILL
1000
Grayscale
1000
Grayscale
1070
   100
1002
}
  0
LINE
  5
20E72
330
20CDF
100
AcDbEntity
  8
YODOROGO
100
AcDbLine
 10
10476.60162798446
 20
679.8656179355313
 30
0.0
 11
10476.60162798446
 21
673.8656179355309
 31
0.0
1001
AUTOCAD_POSTSCRIPT_FIGURE
1002
{
1000
PSFILL
1000
Grayscale
1000
Grayscale
1070
   100
1002
}
  0
LINE
  5
20E73
330
20CDF
100
AcDbEntity
  8
YODOROGO
100
AcDbLine
 10
10464.60162798447
 20
705.5283795595531
 30
0.0
 11
10476.60162798446
 21
679.8656179355313
 31
0.0
1001
AUTOCAD_POSTSCRIPT_FIGURE
1002
{
1000
PSFILL
1000
Grayscale
1000
Grayscale
1070
   100
1002
}
  0
LINE
  5
20E74
330
20CDF
100
AcDbEntity
  8
YODOROGO
100
AcDbLine
 10
10464.60162798447
 20
706.7131308511128
 30
0.0
 11
10464.60162798447
 21
705.5283795595531
 31
0.0
1001
AUTOCAD_POSTSCRIPT_FIGURE
1002
{
1000
PSFILL
1000
Grayscale
1000
Grayscale
1070
   100
1002
}
  0
LINE
  5
20E75
330
20CDF
100
AcDbEntity
  8
YODOROGO
100
AcDbLine
 10
10476.60162798446
 20
706.7131308511119
 30
0.0
 11
10464.60162798447
 21
706.7131308511128
 31
0.0
1001
AUTOCAD_POSTSCRIPT_FIGURE
1002
{
1000
PSFILL
1000
Grayscale
1000
Grayscale
1070
   100
1002
}
  0
LINE
  5
20E76
330
20CDF
100
AcDbEntity
  8
YODOROGO
100
AcDbLine
 10
10476.60162798446
 20
712.7131308511124
 30
0.0
 11
10476.60162798446
 21
706.7131308511119
 31
0.0
1001
AUTOCAD_POSTSCRIPT_FIGURE
1002
{
1000
PSFILL
1000
Grayscale
1000
Grayscale
1070
   100
1002
}
  0
LINE
  5
20E77
330
20CDF
100
AcDbEntity
  8
YODOROGO
100
AcDbLine
 10
10464.60162798447
 20
712.7131308511124
 30
0.0
 11
10476.60162798446
 21
712.7131308511124
 31
0.0
1001
AUTOCAD_POSTSCRIPT_FIGURE
1002
{
1000
PSFILL
1000
Grayscale
1000
Grayscale
1070
   100
1002
}
  0
LINE
  5
20E78
330
20CDF
100
AcDbEntity
  8
YODOROGO
100
AcDbLine
 10
10464.60162798447
 20
727.4060611609828
 30
0.0
 11
10464.60162798447
 21
712.7131308511124
 31
0.0
1001
AUTOCAD_POSTSCRIPT_FIGURE
1002
{
1000
PSFILL
1000
Grayscale
1000
Grayscale
1070
   100
1002
}
  0
LINE
  5
20E79
330
20CDF
100
AcDbEntity
  8
YODOROGO
100
AcDbLine
 10
10476.60162798446
 20
727.4060611609828
 30
0.0
 11
10464.60162798447
 21
727.4060611609828
 31
0.0
1001
AUTOCAD_POSTSCRIPT_FIGURE
1002
{
1000
PSFILL
1000
Grayscale
1000
Grayscale
1070
   100
1002
}
  0
LINE
  5
20E7A
330
20CDF
100
AcDbEntity
  8
YODOROGO
100
AcDbLine
 10
10476.60162798446
 20
733.4060611609828
 30
0.0
 11
10476.60162798446
 21
727.4060611609828
 31
0.0
1001
AUTOCAD_POSTSCRIPT_FIGURE
1002
{
1000
PSFILL
1000
Grayscale
1000
Grayscale
1070
   100
1002
}
  0
LINE
  5
20E7B
330
20CDF
100
AcDbEntity
  8
YODOROGO
100
AcDbLine
 10
10464.60162798447
 20
733.4060611609828
 30
0.0
 11
10476.60162798446
 21
733.4060611609828
 31
0.0
1001
AUTOCAD_POSTSCRIPT_FIGURE
1002
{
1000
PSFILL
1000
Grayscale
1000
Grayscale
1070
   100
1002
}
  0
LINE
  5
20E7C
330
20CDF
100
AcDbEntity
  8
YODOROGO
100
AcDbLine
 10
10464.60162798447
 20
742.4060611609832
 30
0.0
 11
10464.60162798447
 21
733.4060611609828
 31
0.0
1001
AUTOCAD_POSTSCRIPT_FIGURE
1002
{
1000
PSFILL
1000
Grayscale
1000
Grayscale
1070
   100
1002
}
  0
LINE
  5
20E7D
330
20CDF
100
AcDbEntity
  8
YODOROGO
100
AcDbLine
 10
10458.60162798446
 20
742.4060611609832
 30
0.0
 11
10464.60162798447
 21
742.4060611609832
 31
0.0
1001
AUTOCAD_POSTSCRIPT_FIGURE
1002
{
1000
PSFILL
1000
Grayscale
1000
Grayscale
1070
   100
1002
}
  0
LINE
  5
20E7E
330
20CDF
100
AcDbEntity
  8
YODOROGO
100
AcDbLine
 10
10458.60162798446
 20
733.4060611609828
 30
0.0
 11
10458.60162798446
 21
742.4060611609832
 31
0.0
1001
AUTOCAD_POSTSCRIPT_FIGURE
1002
{
1000
PSFILL
1000
Grayscale
1000
Grayscale
1070
   100
1002
}
  0
LINE
  5
20E7F
330
20CDF
100
AcDbEntity
  8
YODOROGO
100
AcDbLine
 10
10449.60162798447
 20
733.4060611609828
 30
0.0
 11
10458.60162798446
 21
733.4060611609828
 31
0.0
1001
AUTOCAD_POSTSCRIPT_FIGURE
1002
{
1000
PSFILL
1000
Grayscale
1000
Grayscale
1070
   100
1002
}
  0
LINE
  5
20E80
330
20CDF
100
AcDbEntity
  8
YODOROGO
100
AcDbLine
 10
10449.60162798447
 20
742.4060611609832
 30
0.0
 11
10449.60162798447
 21
733.4060611609828
 31
0.0
1001
AUTOCAD_POSTSCRIPT_FIGURE
1002
{
1000
PSFILL
1000
Grayscale
1000
Grayscale
1070
   100
1002
}
  0
LINE
  5
20E81
330
20CDF
100
AcDbEntity
  8
YODOROGO
100
AcDbLine
 10
10443.60162798447
 20
742.4060611609832
 30
0.0
 11
10449.60162798447
 21
742.4060611609832
 31
0.0
1001
AUTOCAD_POSTSCRIPT_FIGURE
1002
{
1000
PSFILL
1000
Grayscale
1000
Grayscale
1070
   100
1002
}
  0
LINE
  5
20E82
330
20CDF
100
AcDbEntity
  8
YODOROGO
100
AcDbLine
 10
10443.60162798447
 20
733.4060611609828
 30
0.0
 11
10443.60162798447
 21
742.4060611609832
 31
0.0
1001
AUTOCAD_POSTSCRIPT_FIGURE
1002
{
1000
PSFILL
1000
Grayscale
1000
Grayscale
1070
   100
1002
}
  0
LINE
  5
20E83
330
20CDF
100
AcDbEntity
  8
YODOROGO
100
AcDbLine
 10
10431.60162798447
 20
733.4060611609828
 30
0.0
 11
10443.60162798447
 21
733.4060611609828
 31
0.0
1001
AUTOCAD_POSTSCRIPT_FIGURE
1002
{
1000
PSFILL
1000
Grayscale
1000
Grayscale
1070
   100
1002
}
  0
LINE
  5
20E84
330
20CDF
100
AcDbEntity
  8
YODOROGO
100
AcDbLine
 10
10431.60162798447
 20
742.4060611609832
 30
0.0
 11
10431.60162798447
 21
733.4060611609828
 31
0.0
1001
AUTOCAD_POSTSCRIPT_FIGURE
1002
{
1000
PSFILL
1000
Grayscale
1000
Grayscale
1070
   100
1002
}
  0
LINE
  5
20E85
330
20CDF
100
AcDbEntity
  8
YODOROGO
100
AcDbLine
 10
10425.60162798447
 20
742.4060611609832
 30
0.0
 11
10431.60162798447
 21
742.4060611609832
 31
0.0
1001
AUTOCAD_POSTSCRIPT_FIGURE
1002
{
1000
PSFILL
1000
Grayscale
1000
Grayscale
1070
   100
1002
}
  0
LINE
  5
20E86
330
20CDF
100
AcDbEntity
  8
YODOROGO
100
AcDbLine
 10
10425.60162798447
 20
733.4060611609828
 30
0.0
 11
10425.60162798447
 21
742.4060611609832
 31
0.0
1001
AUTOCAD_POSTSCRIPT_FIGURE
1002
{
1000
PSFILL
1000
Grayscale
1000
Grayscale
1070
   100
1002
}
  0
LINE
  5
20E87
330
20CDF
100
AcDbEntity
  8
YODOROGO
100
AcDbLine
 10
10416.60162798446
 20
733.4060611609828
 30
0.0
 11
10425.60162798447
 21
733.4060611609828
 31
0.0
1001
AUTOCAD_POSTSCRIPT_FIGURE
1002
{
1000
PSFILL
1000
Grayscale
1000
Grayscale
1070
   100
1002
}
  0
LINE
  5
20E88
330
20CDF
100
AcDbEntity
  8
YODOROGO
100
AcDbLine
 10
10416.60162798446
 20
727.4060611609828
 30
0.0
 11
10416.60162798446
 21
733.4060611609828
 31
0.0
1001
AUTOCAD_POSTSCRIPT_FIGURE
1002
{
1000
PSFILL
1000
Grayscale
1000
Grayscale
1070
   100
1002
}
  0
LINE
  5
20E89
330
20CDF
100
AcDbEntity
  8
YODOROGO
100
AcDbLine
 10
10425.60162798447
 20
727.4060611609828
 30
0.0
 11
10416.60162798446
 21
727.4060611609828
 31
0.0
1001
AUTOCAD_POSTSCRIPT_FIGURE
1002
{
1000
PSFILL
1000
Grayscale
1000
Grayscale
1070
   100
1002
}
  0
LINE
  5
20E8A
330
20CDF
100
AcDbEntity
  8
YODOROGO
100
AcDbLine
 10
10425.60162798447
 20
718.0449677976392
 30
0.0
 11
10425.60162798447
 21
727.4060611609828
 31
0.0
1001
AUTOCAD_POSTSCRIPT_FIGURE
1002
{
1000
PSFILL
1000
Grayscale
1000
Grayscale
1070
   100
1002
}
  0
LINE
  5
20E8B
330
20CDF
100
AcDbEntity
  8
YODOROGO
100
AcDbLine
 10
10416.60162798446
 20
697.4162804818766
 30
0.0
 11
10425.60162798447
 21
718.0449677976392
 31
0.0
1001
AUTOCAD_POSTSCRIPT_FIGURE
1002
{
1000
PSFILL
1000
Grayscale
1000
Grayscale
1070
   100
1002
}
  0
LINE
  5
20E8C
330
20CDF
100
AcDbEntity
  8
YODOROGO
100
AcDbLine
 10
10416.60162798446
 20
691.4162804818772
 30
0.0
 11
10416.60162798446
 21
697.4162804818766
 31
0.0
1001
AUTOCAD_POSTSCRIPT_FIGURE
1002
{
1000
PSFILL
1000
Grayscale
1000
Grayscale
1070
   100
1002
}
  0
LINE
  5
20E8D
330
20CDF
100
AcDbEntity
  8
YODOROGO
100
AcDbLine
 10
10596.60162798446
 20
700.406061160983
 30
0.0
 11
10650.60162798447
 21
684.3291096151149
 31
0.0
1001
AUTOCAD_POSTSCRIPT_FIGURE
1002
{
1000
PSFILL
1000
Grayscale
1000
Grayscale
1070
   100
1002
}
  0
LINE
  5
20E8E
330
20CDF
100
AcDbEntity
  8
YODOROGO
100
AcDbLine
 10
10650.60162798447
 20
657.3291096151146
 30
0.0
 11
10596.60162798446
 21
673.4060611609827
 31
0.0
1001
AUTOCAD_POSTSCRIPT_FIGURE
1002
{
1000
PSFILL
1000
Grayscale
1000
Grayscale
1070
   100
1002
}
  0
LINE
  5
20E8F
330
20CDF
100
AcDbEntity
  8
YODOROGO
100
AcDbLine
 10
10650.60162798447
 20
744.329109615115
 30
0.0
 11
10596.60162798446
 21
760.4060611609829
 31
0.0
1001
AUTOCAD_POSTSCRIPT_FIGURE
1002
{
1000
PSFILL
1000
Grayscale
1000
Grayscale
1070
   100
1002
}
  0
LINE
  5
20E90
330
20CDF
100
AcDbEntity
  8
YODOROGO
100
AcDbLine
 10
10596.60162798446
 20
734.9060611609829
 30
0.0
 11
10650.60162798447
 21
718.829109615115
 31
0.0
1001
AUTOCAD_POSTSCRIPT_FIGURE
1002
{
1000
PSFILL
1000
Grayscale
1000
Grayscale
1070
   100
1002
}
  0
LINE
  5
20E91
330
20CDF
100
AcDbEntity
  8
YODOROGO
100
AcDbLine
 10
10596.60162798446
 20
673.4060611609827
 30
0.0
 11
10596.60162798446
 21
700.406061160983
 31
0.0
1001
AUTOCAD_POSTSCRIPT_FIGURE
1002
{
1000
PSFILL
1000
Grayscale
1000
Grayscale
1070
   100
1002
}
  0
LINE
  5
20E92
330
20CDF
100
AcDbEntity
  8
YODOROGO
100
AcDbLine
 10
10596.60162798446
 20
760.4060611609829
 30
0.0
 11
10596.60162798446
 21
734.9060611609829
 31
0.0
1001
AUTOCAD_POSTSCRIPT_FIGURE
1002
{
1000
PSFILL
1000
Grayscale
1000
Grayscale
1070
   100
1002
}
  0
LINE
  5
20E93
330
20CDF
100
AcDbEntity
  8
YODOROGO
100
AcDbLine
 10
10530.08862007752
 20
727.4060611609828
 30
0.0
 11
10548.60162798447
 21
655.406061160983
 31
0.0
1001
AUTOCAD_POSTSCRIPT_FIGURE
1002
{
1000
PSFILL
1000
Grayscale
1000
Grayscale
1070
   100
1002
}
  0
LINE
  5
20E94
330
20CDF
100
AcDbEntity
  8
YODOROGO
100
AcDbLine
 10
10491.60162798447
 20
727.4060611609828
 30
0.0
 11
10530.08862007752
 21
727.4060611609828
 31
0.0
1001
AUTOCAD_POSTSCRIPT_FIGURE
1002
{
1000
PSFILL
1000
Grayscale
1000
Grayscale
1070
   100
1002
}
  0
LINE
  5
20E95
330
20CDF
100
AcDbEntity
  8
YODOROGO
100
AcDbLine
 10
10491.60162798447
 20
733.4060611609828
 30
0.0
 11
10491.60162798447
 21
727.4060611609828
 31
0.0
1001
AUTOCAD_POSTSCRIPT_FIGURE
1002
{
1000
PSFILL
1000
Grayscale
1000
Grayscale
1070
   100
1002
}
  0
LINE
  5
20E96
330
20CDF
100
AcDbEntity
  8
YODOROGO
100
AcDbLine
 10
10528.72757944497
 20
733.4060611609828
 30
0.0
 11
10491.60162798447
 21
733.4060611609828
 31
0.0
1001
AUTOCAD_POSTSCRIPT_FIGURE
1002
{
1000
PSFILL
1000
Grayscale
1000
Grayscale
1070
   100
1002
}
  0
LINE
  5
20E97
330
20CDF
100
AcDbEntity
  8
YODOROGO
100
AcDbLine
 10
10526.68601849614
 20
742.4060611609832
 30
0.0
 11
10528.72757944497
 21
733.4060611609828
 31
0.0
1001
AUTOCAD_POSTSCRIPT_FIGURE
1002
{
1000
PSFILL
1000
Grayscale
1000
Grayscale
1070
   100
1002
}
  0
LINE
  5
20E98
330
20CDF
100
AcDbEntity
  8
YODOROGO
100
AcDbLine
 10
10534.18601849614
 20
742.4060611609832
 30
0.0
 11
10526.68601849614
 21
742.4060611609832
 31
0.0
1001
AUTOCAD_POSTSCRIPT_FIGURE
1002
{
1000
PSFILL
1000
Grayscale
1000
Grayscale
1070
   100
1002
}
  0
LINE
  5
20E99
330
20CDF
100
AcDbEntity
  8
YODOROGO
100
AcDbLine
 10
10535.92757944497
 20
733.4060611609828
 30
0.0
 11
10534.18601849614
 21
742.4060611609832
 31
0.0
1001
AUTOCAD_POSTSCRIPT_FIGURE
1002
{
1000
PSFILL
1000
Grayscale
1000
Grayscale
1070
   100
1002
}
  0
LINE
  5
20E9A
330
20CDF
100
AcDbEntity
  8
YODOROGO
100
AcDbLine
 10
10545.60162798447
 20
733.4060611609828
 30
0.0
 11
10535.92757944497
 21
733.4060611609828
 31
0.0
1001
AUTOCAD_POSTSCRIPT_FIGURE
1002
{
1000
PSFILL
1000
Grayscale
1000
Grayscale
1070
   100
1002
}
  0
LINE
  5
20E9B
330
20CDF
100
AcDbEntity
  8
YODOROGO
100
AcDbLine
 10
10545.60162798447
 20
742.4060611609832
 30
0.0
 11
10545.60162798447
 21
733.4060611609828
 31
0.0
1001
AUTOCAD_POSTSCRIPT_FIGURE
1002
{
1000
PSFILL
1000
Grayscale
1000
Grayscale
1070
   100
1002
}
  0
LINE
  5
20E9C
330
20CDF
100
AcDbEntity
  8
YODOROGO
100
AcDbLine
 10
10551.60162798447
 20
742.4060611609832
 30
0.0
 11
10545.60162798447
 21
742.4060611609832
 31
0.0
1001
AUTOCAD_POSTSCRIPT_FIGURE
1002
{
1000
PSFILL
1000
Grayscale
1000
Grayscale
1070
   100
1002
}
  0
LINE
  5
20E9D
330
20CDF
100
AcDbEntity
  8
YODOROGO
100
AcDbLine
 10
10551.60162798447
 20
733.4060611609828
 30
0.0
 11
10551.60162798447
 21
742.4060611609832
 31
0.0
1001
AUTOCAD_POSTSCRIPT_FIGURE
1002
{
1000
PSFILL
1000
Grayscale
1000
Grayscale
1070
   100
1002
}
  0
LINE
  5
20E9E
330
20CDF
100
AcDbEntity
  8
YODOROGO
100
AcDbLine
 10
10551.60162798447
 20
727.4060611609828
 30
0.0
 11
10551.60162798447
 21
733.4060611609828
 31
0.0
1001
AUTOCAD_POSTSCRIPT_FIGURE
1002
{
1000
PSFILL
1000
Grayscale
1000
Grayscale
1070
   100
1002
}
  0
LINE
  5
20E9F
330
20CDF
100
AcDbEntity
  8
YODOROGO
100
AcDbLine
 10
10537.08862007752
 20
727.4060611609828
 30
0.0
 11
10551.60162798447
 21
727.4060611609828
 31
0.0
1001
AUTOCAD_POSTSCRIPT_FIGURE
1002
{
1000
PSFILL
1000
Grayscale
1000
Grayscale
1070
   100
1002
}
  0
LINE
  5
20EA0
330
20CDF
100
AcDbEntity
  8
YODOROGO
100
AcDbLine
 10
10551.60162798447
 20
655.406061160983
 30
0.0
 11
10537.08862007752
 21
727.4060611609828
 31
0.0
1001
AUTOCAD_POSTSCRIPT_FIGURE
1002
{
1000
PSFILL
1000
Grayscale
1000
Grayscale
1070
   100
1002
}
  0
LINE
  5
20EA1
330
20CDF
100
AcDbEntity
  8
YODOROGO
100
AcDbLine
 10
10548.60162798447
 20
655.406061160983
 30
0.0
 11
10551.60162798447
 21
655.406061160983
 31
0.0
1001
AUTOCAD_POSTSCRIPT_FIGURE
1002
{
1000
PSFILL
1000
Grayscale
1000
Grayscale
1070
   100
1002
}
  0
LINE
  5
20EA2
330
20CDF
100
AcDbEntity
  8
YODOROGO
100
AcDbLine
 10
10529.27595747517
 20
665.902791112048
 30
0.0
 11
10491.60162798447
 21
655.406061160983
 31
0.0
  0
LINE
  5
20EA3
330
20CDF
100
AcDbEntity
  8
YODOROGO
100
AcDbLine
 10
10529.27595747517
 20
674.5008673234024
 30
0.0
 11
10529.27595747517
 21
665.902791112048
 31
0.0
  0
LINE
  5
20EA4
330
20CDF
100
AcDbEntity
  8
YODOROGO
100
AcDbLine
 10
10512.68879272982
 20
670.0563499251625
 30
0.0
 11
10529.27595747517
 21
674.5008673234024
 31
0.0
  0
LINE
  5
20EA5
330
20CDF
100
AcDbEntity
  8
YODOROGO
100
AcDbLine
 10
10512.68879272982
 20
702.2131308511124
 30
0.0
 11
10512.68879272982
 21
670.0563499251625
 31
0.0
  0
LINE
  5
20EA6
330
20CDF
100
AcDbEntity
  8
YODOROGO
100
AcDbLine
 10
10529.27595747517
 20
702.2131308511124
 30
0.0
 11
10512.68879272982
 21
702.2131308511124
 31
0.0
  0
LINE
  5
20EA7
330
20CDF
100
AcDbEntity
  8
YODOROGO
100
AcDbLine
 10
10529.27595747517
 20
709.7131308511116
 30
0.0
 11
10529.27595747517
 21
702.2131308511124
 31
0.0
  0
LINE
  5
20EA8
330
20CDF
100
AcDbEntity
  8
YODOROGO
100
AcDbLine
 10
10491.60162798447
 20
709.7131308511116
 30
0.0
 11
10529.27595747517
 21
709.7131308511116
 31
0.0
  0
LINE
  5
20EA9
330
20CDF
100
AcDbEntity
  8
YODOROGO
100
AcDbLine
 10
10491.60162798447
 20
702.2131308511124
 30
0.0
 11
10491.60162798447
 21
709.7131308511116
 31
0.0
  0
LINE
  5
20EAA
330
20CDF
100
AcDbEntity
  8
YODOROGO
100
AcDbLine
 10
10508.18879272982
 20
702.2131308511124
 30
0.0
 11
10491.60162798447
 21
702.2131308511124
 31
0.0
  0
LINE
  5
20EAB
330
20CDF
100
AcDbEntity
  8
YODOROGO
100
AcDbLine
 10
10508.18879272982
 20
669.252502347869
 30
0.0
 11
10508.18879272982
 21
702.2131308511124
 31
0.0
  0
LINE
  5
20EAC
330
20CDF
100
AcDbEntity
  8
YODOROGO
100
AcDbLine
 10
10491.60162798447
 20
664.4060611609823
 30
0.0
 11
10508.18879272982
 21
669.252502347869
 31
0.0
  0
LINE
  5
20EAD
330
20CDF
100
AcDbEntity
  8
YODOROGO
100
AcDbLine
 10
10491.60162798447
 20
655.406061160983
 30
0.0
 11
10491.60162798447
 21
664.4060611609823
 31
0.0
  0
LINE
  5
20EAE
330
20CDF
100
AcDbEntity
  8
YODOROGO
100
AcDbLine
 10
10500.60162798446
 20
640.4060611609828
 30
0.0
 11
10500.60162798446
 21
631.4060611609825
 31
0.0
  0
LINE
  5
20EAF
330
20CDF
100
AcDbEntity
  8
YODOROGO
100
AcDbLine
 10
10500.60162798446
 20
640.4060611609828
 30
0.0
 11
10500.60162798446
 21
640.4060611609828
 31
0.0
  0
LINE
  5
20EB0
330
20CDF
100
AcDbEntity
  8
YODOROGO
100
AcDbLine
 10
10506.60162798447
 20
640.4060611609828
 30
0.0
 11
10500.60162798446
 21
640.4060611609828
 31
0.0
  0
LINE
  5
20EB1
330
20CDF
100
AcDbEntity
  8
YODOROGO
100
AcDbLine
 10
10506.60162798447
 20
631.4060611609825
 30
0.0
 11
10506.60162798447
 21
640.4060611609828
 31
0.0
  0
LINE
  5
20EB2
330
20CDF
100
AcDbEntity
  8
YODOROGO
100
AcDbLine
 10
10515.34245150633
 20
631.4060611609825
 30
0.0
 11
10506.60162798447
 21
631.4060611609825
 31
0.0
  0
LINE
  5
20EB3
330
20CDF
100
AcDbEntity
  8
YODOROGO
100
AcDbLine
 10
10500.60162798446
 20
631.4060611609825
 30
0.0
 11
10491.60162798447
 21
631.4060611609825
 31
0.0
  0
LINE
  5
20EB4
330
20CDF
100
AcDbEntity
  8
YODOROGO
100
AcDbLine
 10
10530.80082008658
 20
640.4060611609828
 30
0.0
 11
10536.8008200866
 21
640.4060611609828
 31
0.0
1001
AUTOCAD_POSTSCRIPT_FIGURE
1002
{
1000
PSFILL
1000
Grayscale
1000
Grayscale
1070
   100
1002
}
  0
LINE
  5
20EB5
330
20CDF
100
AcDbEntity
  8
YODOROGO
100
AcDbLine
 10
10650.60162798447
 20
684.3291096151149
 30
0.0
 11
10650.60162798447
 21
657.3291096151146
 31
0.0
1001
AUTOCAD_POSTSCRIPT_FIGURE
1002
{
1000
PSFILL
1000
Grayscale
1000
Grayscale
1070
   100
1002
}
  0
LINE
  5
20EB6
330
20CDF
100
AcDbEntity
  8
YODOROGO
100
AcDbLine
 10
10650.60162798447
 20
718.829109615115
 30
0.0
 11
10650.60162798447
 21
744.329109615115
 31
0.0
1001
AUTOCAD_POSTSCRIPT_FIGURE
1002
{
1000
PSFILL
1000
Grayscale
1000
Grayscale
1070
   100
1002
}
  0
LINE
  5
20EB7
330
20CDF
100
AcDbEntity
  8
YODOROGO
100
AcDbLine
 10
10662.60162798446
 20
682.4060611609829
 30
0.0
 11
10662.60162798446
 21
655.4060611609838
 31
0.0
  0
LINE
  5
20EB8
330
20CDF
100
AcDbEntity
  8
YODOROGO
100
AcDbLine
 10
10686.60162798446
 20
640.4060611609828
 30
0.0
 11
10662.60162798446
 21
640.4060611609828
 31
0.0
  0
LINE
  5
20EB9
330
20CDF
100
AcDbEntity
  8
YODOROGO
100
AcDbLine
 10
10662.60162798446
 20
655.4060611609838
 30
0.0
 11
10719.60162798446
 21
655.4060611609838
 31
0.0
  0
LINE
  5
20EBA
330
20CDF
100
AcDbEntity
  8
YODOROGO
100
AcDbLine
 10
10686.60162798446
 20
700.406061160983
 30
0.0
 11
10662.60162798446
 21
700.406061160983
 31
0.0
  0
LINE
  5
20EBB
330
20CDF
100
AcDbEntity
  8
YODOROGO
100
AcDbLine
 10
10686.60162798446
 20
721.4060611609824
 30
0.0
 11
10686.60162798446
 21
700.406061160983
 31
0.0
  0
LINE
  5
20EBC
330
20CDF
100
AcDbEntity
  8
YODOROGO
100
AcDbLine
 10
10719.60162798446
 20
745.4060611609828
 30
0.0
 11
10719.60162798446
 21
760.4060611609829
 31
0.0
  0
LINE
  5
20EBD
330
20CDF
100
AcDbEntity
  8
YODOROGO
100
AcDbLine
 10
10662.60162798446
 20
745.4060611609828
 30
0.0
 11
10719.60162798446
 21
745.4060611609828
 31
0.0
  0
LINE
  5
20EBE
330
20CDF
100
AcDbEntity
  8
YODOROGO
100
AcDbLine
 10
10662.60162798446
 20
700.406061160983
 30
0.0
 11
10662.60162798446
 21
745.4060611609828
 31
0.0
  0
LINE
  5
20EBF
330
20CDF
100
AcDbEntity
  8
YODOROGO
100
AcDbLine
 10
10875.60162798447
 20
760.4060611609829
 30
0.0
 11
10875.60162798447
 21
607.4060611609829
 31
0.0
  0
LINE
  5
20EC0
330
20CDF
100
AcDbEntity
  8
YODOROGO
100
AcDbLine
 10
10902.60162798446
 20
592.4060611609831
 30
0.0
 11
10902.60162798446
 21
760.4060611609829
 31
0.0
  0
LINE
  5
20EC1
330
20CDF
100
AcDbEntity
  8
YODOROGO
100
AcDbLine
 10
10973.10162798446
 20
559.4060611609823
 30
0.0
 11
10973.10162798446
 21
752.9060611609828
 31
0.0
  0
LINE
  5
20EC2
330
20CDF
100
AcDbEntity
  8
YODOROGO
100
AcDbLine
 10
10949.10162798447
 20
752.9060611609828
 30
0.0
 11
10949.10162798447
 21
559.4060611609823
 31
0.0
  0
LINE
  5
20EC3
330
20CDF
100
AcDbEntity
  8
YODOROGO
100
AcDbLine
 10
11019.60162798446
 20
760.4060611609829
 30
0.0
 11
11019.60162798446
 21
535.4060611609829
 31
0.0
  0
LINE
  5
20EC4
330
20CDF
100
AcDbEntity
  8
YODOROGO
100
AcDbLine
 10
11046.60162798447
 20
535.4060611609829
 30
0.0
 11
11046.60162798447
 21
760.4060611609829
 31
0.0
  0
LINE
  5
20EC5
330
20CDF
100
AcDbEntity
  8
YODOROGO
100
AcDbLine
 10
10746.60162798446
 20
625.406061160983
 30
0.0
 11
10746.60162798446
 21
655.4060611609838
 31
0.0
  0
LINE
  5
20EC6
330
20CDF
100
AcDbEntity
  8
YODOROGO
100
AcDbLine
 10
11207.10162798447
 20
640.4060611609828
 30
0.0
 11
11207.10162798447
 21
625.406061160983
 31
0.0
  0
LINE
  5
20EC7
330
20CDF
100
AcDbEntity
  8
YODOROGO
100
AcDbLine
 10
11207.10162798447
 20
640.4060611609828
 30
0.0
 11
11207.10162798447
 21
625.406061160983
 31
0.0
  0
ARC
  5
20EC8
330
20CDF
100
AcDbEntity
  8
YODOROGO
100
AcDbCircle
 10
10840.09184107006
 20
606.8316991658524
 30
0.0
 40
35.51443169202812
100
AcDbArc
 50
274.052441629071
 51
0.9266642149310715
  0
ARC
  5
20EC9
330
20CDF
100
AcDbEntity
  8
YODOROGO
100
AcDbCircle
 10
10840.94481401992
 20
597.229023228915
 30
0.0
 40
61.84515883532068
100
AcDbArc
 50
271.5351210653777
 51
355.5272775058505
  0
LINE
  5
20ECA
330
20CDF
100
AcDbEntity
  8
YODOROGO
100
AcDbLine
 10
10842.60162798446
 20
571.4060611609824
 30
0.0
 11
10842.60162798446
 21
535.4060611609829
 31
0.0
  0
LINE
  5
20ECB
330
20CDF
100
AcDbEntity
  8
YODOROGO
100
AcDbLine
 10
10797.60162798446
 20
625.406061160983
 30
0.0
 11
10746.60162798446
 21
625.406061160983
 31
0.0
  0
LINE
  5
20ECC
330
20CDF
100
AcDbEntity
  8
YODOROGO
100
AcDbLine
 10
10797.60162798446
 20
601.4060611609833
 30
0.0
 11
10797.60162798446
 21
625.406061160983
 31
0.0
  0
LINE
  5
20ECD
330
20CDF
100
AcDbEntity
  8
YODOROGO
100
AcDbLine
 10
10746.60162798446
 20
601.4060611609833
 30
0.0
 11
10797.60162798446
 21
601.4060611609833
 31
0.0
  0
LINE
  5
20ECE
330
20CDF
100
AcDbEntity
  8
YODOROGO
100
AcDbLine
 10
10746.60162798446
 20
571.4060611609824
 30
0.0
 11
10746.60162798446
 21
601.4060611609833
 31
0.0
  0
LINE
  5
20ECF
330
20CDF
100
AcDbEntity
  8
YODOROGO
100
AcDbLine
 10
10797.60162798446
 20
571.4060611609824
 30
0.0
 11
10746.60162798446
 21
571.4060611609824
 31
0.0
  0
LINE
  5
20ED0
330
20CDF
100
AcDbEntity
  8
YODOROGO
100
AcDbLine
 10
10797.60162798446
 20
535.4060611609829
 30
0.0
 11
10797.60162798446
 21
571.4060611609824
 31
0.0
  0
LINE
  5
20ED1
330
20CDF
100
AcDbEntity
  8
YODOROGO
100
AcDbLine
 10
10949.10162798447
 20
559.4060611609823
 30
0.0
 11
10973.10162798446
 21
559.4060611609823
 31
0.0
  0
LINE
  5
20ED2
330
20CDF
100
AcDbEntity
  8
YODOROGO
100
AcDbLine
 10
11019.60162798446
 20
535.4060611609829
 30
0.0
 11
11046.60162798447
 21
535.4060611609829
 31
0.0
  0
LINE
  5
20ED3
330
20CDF
100
AcDbEntity
  8
YODOROGO
100
AcDbLine
 10
11151.60162798447
 20
573.1655445639615
 30
0.0
 11
11151.60162798447
 21
535.4060611609829
 31
0.0
  0
LINE
  5
20ED4
330
20CDF
100
AcDbEntity
  8
YODOROGO
100
AcDbLine
 10
11106.60162798446
 20
535.4060611609829
 30
0.0
 11
11151.60162798447
 21
573.1655445639615
 31
0.0
  0
LINE
  5
20ED5
330
20CDF
100
AcDbEntity
  8
YODOROGO
100
AcDbLine
 10
11106.60162798446
 20
580.406061160983
 30
0.0
 11
11106.60162798446
 21
535.4060611609829
 31
0.0
  0
LINE
  5
20ED6
330
20CDF
100
AcDbEntity
  8
YODOROGO
100
AcDbLine
 10
11142.35423576229
 20
610.4060611609829
 30
0.0
 11
11106.60162798446
 21
580.406061160983
 31
0.0
  0
LINE
  5
20ED7
330
20CDF
100
AcDbEntity
  8
YODOROGO
100
AcDbLine
 10
11106.60162798446
 20
610.4060611609829
 30
0.0
 11
11142.35423576229
 21
610.4060611609829
 31
0.0
  0
LINE
  5
20ED8
330
20CDF
100
AcDbEntity
  8
YODOROGO
100
AcDbLine
 10
11106.60162798446
 20
625.406061160983
 30
0.0
 11
11106.60162798446
 21
610.4060611609829
 31
0.0
  0
LINE
  5
20ED9
330
20CDF
100
AcDbEntity
  8
YODOROGO
100
AcDbLine
 10
11207.10162798447
 20
625.406061160983
 30
0.0
 11
11106.60162798446
 21
625.406061160983
 31
0.0
  0
LINE
  5
20EDA
330
20CDF
100
AcDbEntity
  8
YODOROGO
100
AcDbLine
 10
11219.10162798447
 20
610.4060611609829
 30
0.0
 11
11166.60162798446
 21
610.4060611609829
 31
0.0
  0
LINE
  5
20EDB
330
20CDF
100
AcDbEntity
  8
YODOROGO
100
AcDbLine
 10
11166.60162798446
 20
585.7520390316213
 30
0.0
 11
11164.27870236948
 21
583.8028730048376
 31
0.0
  0
LINE
  5
20EDC
330
20CDF
100
AcDbEntity
  8
YODOROGO
100
AcDbLine
 10
11166.60162798446
 20
610.4060611609829
 30
0.0
 11
11166.60162798446
 21
585.7520390316213
 31
0.0
  0
LINE
  5
20EDD
330
20CDF
100
AcDbEntity
  8
YODOROGO
100
AcDbLine
 10
11151.60162798447
 20
573.1655445639615
 30
0.0
 11
11151.60162798447
 21
535.4060611609829
 31
0.0
  0
LINE
  5
20EDE
330
20CDF
100
AcDbEntity
  8
YODOROGO
100
AcDbLine
 10
11106.60162798446
 20
535.4060611609829
 30
0.0
 11
11151.60162798447
 21
573.1655445639615
 31
0.0
  0
LINE
  5
20EDF
330
20CDF
100
AcDbEntity
  8
YODOROGO
100
AcDbLine
 10
11106.60162798446
 20
580.406061160983
 30
0.0
 11
11106.60162798446
 21
535.4060611609829
 31
0.0
  0
LINE
  5
20EE0
330
20CDF
100
AcDbEntity
  8
YODOROGO
100
AcDbLine
 10
11142.35423576229
 20
610.4060611609829
 30
0.0
 11
11106.60162798446
 21
580.406061160983
 31
0.0
  0
LINE
  5
20EE1
330
20CDF
100
AcDbEntity
  8
YODOROGO
100
AcDbLine
 10
11106.60162798446
 20
610.4060611609829
 30
0.0
 11
11142.35423576229
 21
610.4060611609829
 31
0.0
  0
LINE
  5
20EE2
330
20CDF
100
AcDbEntity
  8
YODOROGO
100
AcDbLine
 10
11106.60162798446
 20
625.406061160983
 30
0.0
 11
11106.60162798446
 21
610.4060611609829
 31
0.0
  0
LINE
  5
20EE3
330
20CDF
100
AcDbEntity
  8
YODOROGO
100
AcDbLine
 10
11207.10162798447
 20
625.406061160983
 30
0.0
 11
11106.60162798446
 21
625.406061160983
 31
0.0
  0
LINE
  5
20EE4
330
20CDF
100
AcDbEntity
  8
YODOROGO
100
AcDbLine
 10
10797.60162798446
 20
655.4060611609838
 30
0.0
 11
10797.60162798446
 21
682.4060611609829
 31
0.0
  0
LINE
  5
20EE5
330
20CDF
100
AcDbEntity
  8
YODOROGO
100
AcDbLine
 10
10746.60162798446
 20
655.4060611609838
 30
0.0
 11
10797.60162798446
 21
655.4060611609838
 31
0.0
  0
LINE
  5
20EE6
330
20CDF
100
AcDbEntity
  8
YODOROGO
100
AcDbLine
 10
10773.60162798447
 20
700.406061160983
 30
0.0
 11
10773.60162798447
 21
721.4060611609824
 31
0.0
  0
LINE
  5
20EE7
330
20CDF
100
AcDbEntity
  8
YODOROGO
100
AcDbLine
 10
10797.60162798446
 20
700.406061160983
 30
0.0
 11
10773.60162798447
 21
700.406061160983
 31
0.0
  0
LINE
  5
20EE8
330
20CDF
100
AcDbEntity
  8
YODOROGO
100
AcDbLine
 10
10797.60162798446
 20
730.4060611609828
 30
0.0
 11
10797.60162798446
 21
700.406061160983
 31
0.0
  0
ARC
  5
20EE9
330
20CDF
100
AcDbEntity
  8
YODOROGO
100
AcDbCircle
 10
10782.60162798446
 20
730.4060611609828
 30
0.0
 40
15.0
100
AcDbArc
 50
0.0
 51
90.0
  0
LINE
  5
20EEA
330
20CDF
100
AcDbEntity
  8
YODOROGO
100
AcDbLine
 10
10746.60162798447
 20
745.4060611609828
 30
0.0
 11
10782.60162798446
 21
745.4060611609828
 31
0.0
  0
LINE
  5
20EEB
330
20CDF
100
AcDbEntity
  8
YODOROGO
100
AcDbLine
 10
10746.60162798447
 20
760.4060611609829
 30
0.0
 11
10746.60162798447
 21
745.4060611609828
 31
0.0
  0
LINE
  5
20EEC
330
20CDF
100
AcDbEntity
  8
YODOROGO
100
AcDbLine
 10
10902.60162798446
 20
760.4060611609829
 30
0.0
 11
10875.60162798447
 21
760.4060611609829
 31
0.0
  0
LINE
  5
20EED
330
20CDF
100
AcDbEntity
  8
YODOROGO
100
AcDbLine
 10
10973.10162798446
 20
752.9060611609828
 30
0.0
 11
10949.10162798447
 21
752.9060611609828
 31
0.0
  0
LINE
  5
20EEE
330
20CDF
100
AcDbEntity
  8
YODOROGO
100
AcDbLine
 10
11046.60162798447
 20
760.4060611609829
 30
0.0
 11
11019.60162798446
 21
760.4060611609829
 31
0.0
  0
LINE
  5
20EEF
330
20CDF
100
AcDbEntity
  8
YODOROGO
100
AcDbLine
 10
11127.60162798447
 20
640.4060611609828
 30
0.0
 11
11127.60162798447
 21
664.4060611609833
 31
0.0
1001
AUTOCAD_POSTSCRIPT_FIGURE
1002
{
1000
PSFILL
1000
Grayscale
1000
Grayscale
1070
    25
1002
}
  0
LINE
  5
20EF0
330
20CDF
100
AcDbEntity
  8
YODOROGO
100
AcDbLine
 10
11106.60162798446
 20
640.4060611609828
 30
0.0
 11
11127.60162798447
 21
640.4060611609828
 31
0.0
1001
AUTOCAD_POSTSCRIPT_FIGURE
1002
{
1000
PSFILL
1000
Grayscale
1000
Grayscale
1070
    25
1002
}
  0
LINE
  5
20EF1
330
20CDF
100
AcDbEntity
  8
YODOROGO
100
AcDbLine
 10
11106.60162798446
 20
682.4060611609829
 30
0.0
 11
11106.60162798446
 21
640.4060611609828
 31
0.0
1001
AUTOCAD_POSTSCRIPT_FIGURE
1002
{
1000
PSFILL
1000
Grayscale
1000
Grayscale
1070
    25
1002
}
  0
LINE
  5
20EF2
330
20CDF
100
AcDbEntity
  8
YODOROGO
100
AcDbLine
 10
11162.10162798447
 20
682.4060611609829
 30
0.0
 11
11106.60162798446
 21
682.4060611609829
 31
0.0
1001
AUTOCAD_POSTSCRIPT_FIGURE
1002
{
1000
PSFILL
1000
Grayscale
1000
Grayscale
1070
    25
1002
}
  0
LINE
  5
20EF3
330
20CDF
100
AcDbEntity
  8
YODOROGO
100
AcDbLine
 10
11162.10162798447
 20
697.406061160983
 30
0.0
 11
11162.10162798447
 21
682.4060611609829
 31
0.0
1001
AUTOCAD_POSTSCRIPT_FIGURE
1002
{
1000
PSFILL
1000
Grayscale
1000
Grayscale
1070
    25
1002
}
  0
LINE
  5
20EF4
330
20CDF
100
AcDbEntity
  8
YODOROGO
100
AcDbLine
 10
11106.60162798446
 20
697.406061160983
 30
0.0
 11
11162.10162798447
 21
697.406061160983
 31
0.0
1001
AUTOCAD_POSTSCRIPT_FIGURE
1002
{
1000
PSFILL
1000
Grayscale
1000
Grayscale
1070
    25
1002
}
  0
LINE
  5
20EF5
330
20CDF
100
AcDbEntity
  8
YODOROGO
100
AcDbLine
 10
11106.60162798446
 20
715.4060611609828
 30
0.0
 11
11106.60162798446
 21
697.406061160983
 31
0.0
1001
AUTOCAD_POSTSCRIPT_FIGURE
1002
{
1000
PSFILL
1000
Grayscale
1000
Grayscale
1070
    25
1002
}
  0
LINE
  5
20EF6
330
20CDF
100
AcDbEntity
  8
YODOROGO
100
AcDbLine
 10
11162.10162798447
 20
715.4060611609828
 30
0.0
 11
11106.60162798446
 21
715.4060611609828
 31
0.0
1001
AUTOCAD_POSTSCRIPT_FIGURE
1002
{
1000
PSFILL
1000
Grayscale
1000
Grayscale
1070
    25
1002
}
  0
LINE
  5
20EF7
330
20CDF
100
AcDbEntity
  8
YODOROGO
100
AcDbLine
 10
11162.10162798447
 20
730.4060611609828
 30
0.0
 11
11162.10162798447
 21
715.4060611609828
 31
0.0
1001
AUTOCAD_POSTSCRIPT_FIGURE
1002
{
1000
PSFILL
1000
Grayscale
1000
Grayscale
1070
    25
1002
}
  0
LINE
  5
20EF8
330
20CDF
100
AcDbEntity
  8
YODOROGO
100
AcDbLine
 10
11106.60162798446
 20
730.4060611609828
 30
0.0
 11
11162.10162798447
 21
730.4060611609828
 31
0.0
1001
AUTOCAD_POSTSCRIPT_FIGURE
1002
{
1000
PSFILL
1000
Grayscale
1000
Grayscale
1070
    25
1002
}
  0
LINE
  5
20EF9
330
20CDF
100
AcDbEntity
  8
YODOROGO
100
AcDbLine
 10
11106.60162798446
 20
760.4060611609829
 30
0.0
 11
11106.60162798446
 21
730.4060611609828
 31
0.0
1001
AUTOCAD_POSTSCRIPT_FIGURE
1002
{
1000
PSFILL
1000
Grayscale
1000
Grayscale
1070
    25
1002
}
  0
LINE
  5
20EFA
330
20CDF
100
AcDbEntity
  8
YODOROGO
100
AcDbLine
 10
11124.60162798446
 20
760.4060611609829
 30
0.0
 11
11106.60162798446
 21
760.4060611609829
 31
0.0
1001
AUTOCAD_POSTSCRIPT_FIGURE
1002
{
1000
PSFILL
1000
Grayscale
1000
Grayscale
1070
    25
1002
}
  0
LINE
  5
20EFB
330
20CDF
100
AcDbEntity
  8
YODOROGO
100
AcDbLine
 10
11124.60162798446
 20
748.4060611609828
 30
0.0
 11
11124.60162798446
 21
760.4060611609829
 31
0.0
1001
AUTOCAD_POSTSCRIPT_FIGURE
1002
{
1000
PSFILL
1000
Grayscale
1000
Grayscale
1070
    25
1002
}
  0
LINE
  5
20EFC
330
20CDF
100
AcDbEntity
  8
YODOROGO
100
AcDbLine
 10
11162.10162798447
 20
748.4060611609828
 30
0.0
 11
11124.60162798446
 21
748.4060611609828
 31
0.0
1001
AUTOCAD_POSTSCRIPT_FIGURE
1002
{
1000
PSFILL
1000
Grayscale
1000
Grayscale
1070
    25
1002
}
  0
LINE
  5
20EFD
330
20CDF
100
AcDbEntity
  8
YODOROGO
100
AcDbLine
 10
11162.10162798447
 20
760.4060611609829
 30
0.0
 11
11162.10162798447
 21
748.4060611609828
 31
0.0
1001
AUTOCAD_POSTSCRIPT_FIGURE
1002
{
1000
PSFILL
1000
Grayscale
1000
Grayscale
1070
    25
1002
}
  0
LINE
  5
20EFE
330
20CDF
100
AcDbEntity
  8
YODOROGO
100
AcDbLine
 10
11186.10162798447
 20
760.4060611609829
 30
0.0
 11
11162.10162798447
 21
760.4060611609829
 31
0.0
1001
AUTOCAD_POSTSCRIPT_FIGURE
1002
{
1000
PSFILL
1000
Grayscale
1000
Grayscale
1070
    25
1002
}
  0
LINE
  5
20EFF
330
20CDF
100
AcDbEntity
  8
YODOROGO
100
AcDbLine
 10
11186.10162798447
 20
748.4060611609828
 30
0.0
 11
11186.10162798447
 21
760.4060611609829
 31
0.0
1001
AUTOCAD_POSTSCRIPT_FIGURE
1002
{
1000
PSFILL
1000
Grayscale
1000
Grayscale
1070
    25
1002
}
  0
LINE
  5
20F00
330
20CDF
100
AcDbEntity
  8
YODOROGO
100
AcDbLine
 10
11186.10162798447
 20
715.4060611609828
 30
0.0
 11
11186.10162798447
 21
730.4060611609828
 31
0.0
1001
AUTOCAD_POSTSCRIPT_FIGURE
1002
{
1000
PSFILL
1000
Grayscale
1000
Grayscale
1070
    25
1002
}
  0
LINE
  5
20F01
330
20CDF
100
AcDbEntity
  8
YODOROGO
100
AcDbLine
 10
11186.10162798447
 20
682.4060611609829
 30
0.0
 11
11186.10162798447
 21
697.406061160983
 31
0.0
1001
AUTOCAD_POSTSCRIPT_FIGURE
1002
{
1000
PSFILL
1000
Grayscale
1000
Grayscale
1070
    25
1002
}
  0
LINE
  5
20F02
330
20CDF
100
AcDbEntity
  8
YODOROGO
100
AcDbLine
 10
11220.60162798447
 20
664.4060611609833
 30
0.0
 11
11220.60162798447
 21
640.4060611609828
 31
0.0
1001
AUTOCAD_POSTSCRIPT_FIGURE
1002
{
1000
PSFILL
1000
Grayscale
1000
Grayscale
1070
    25
1002
}
  0
LINE
  5
20F03
330
20CDF
100
AcDbEntity
  8
YODOROGO
100
AcDbLine
 10
11186.10162798447
 20
664.4060611609833
 30
0.0
 11
11220.60162798447
 21
664.4060611609833
 31
0.0
1001
AUTOCAD_POSTSCRIPT_FIGURE
1002
{
1000
PSFILL
1000
Grayscale
1000
Grayscale
1070
    25
1002
}
  0
LINE
  5
20F04
330
20CDF
100
AcDbEntity
  8
YODOROGO
100
AcDbLine
 10
11186.10162798447
 20
640.4060611609828
 30
0.0
 11
11186.10162798447
 21
664.4060611609833
 31
0.0
1001
AUTOCAD_POSTSCRIPT_FIGURE
1002
{
1000
PSFILL
1000
Grayscale
1000
Grayscale
1070
    25
1002
}
  0
LINE
  5
20F05
330
20CDF
100
AcDbEntity
  8
YODOROGO
100
AcDbLine
 10
11162.10162798447
 20
640.4060611609828
 30
0.0
 11
11186.10162798447
 21
640.4060611609828
 31
0.0
1001
AUTOCAD_POSTSCRIPT_FIGURE
1002
{
1000
PSFILL
1000
Grayscale
1000
Grayscale
1070
    25
1002
}
  0
LINE
  5
20F06
330
20CDF
100
AcDbEntity
  8
YODOROGO
100
AcDbLine
 10
11162.10162798447
 20
664.4060611609833
 30
0.0
 11
11162.10162798447
 21
640.4060611609828
 31
0.0
1001
AUTOCAD_POSTSCRIPT_FIGURE
1002
{
1000
PSFILL
1000
Grayscale
1000
Grayscale
1070
    25
1002
}
  0
LINE
  5
20F07
330
20CDF
100
AcDbEntity
  8
YODOROGO
100
AcDbLine
 10
11127.60162798447
 20
664.4060611609833
 30
0.0
 11
11162.10162798447
 21
664.4060611609833
 31
0.0
1001
AUTOCAD_POSTSCRIPT_FIGURE
1002
{
1000
PSFILL
1000
Grayscale
1000
Grayscale
1070
    25
1002
}
  0
ARC
  5
20F08
330
20CDF
100
AcDbEntity
  8
YODOROGO
100
AcDbCircle
 10
11647.31921000922
 20
601.0052765683409
 30
0.0
 40
66.83298041652057
100
AcDbArc
 50
281.0262749542535
 51
357.771135755738
  0
LINE
  5
20F09
330
20CDF
100
AcDbEntity
  8
YODOROGO
100
AcDbLine
 10
11780.10162798446
 20
715.4060611609828
 30
0.0
 11
11687.10162798447
 21
715.4060611609828
 31
0.0
  0
LINE
  5
20F0A
330
20CDF
100
AcDbEntity
  8
YODOROGO
100
AcDbLine
 10
11780.10162798446
 20
760.4060611609829
 30
0.0
 11
11687.10162798447
 21
760.4060611609829
 31
0.0
  0
LINE
  5
20F0B
330
20CDF
100
AcDbEntity
  8
YODOROGO
100
AcDbLine
 10
11687.10162798447
 20
736.4060611609825
 30
0.0
 11
11780.10162798446
 21
736.4060611609825
 31
0.0
  0
LINE
  5
20F0C
330
20CDF
100
AcDbEntity
  8
YODOROGO
100
AcDbLine
 10
11546.85162798447
 20
586.4060611609825
 30
0.0
 11
11546.85162798447
 21
658.4060611609827
 31
0.0
  0
LINE
  5
20F0D
330
20CDF
100
AcDbEntity
  8
YODOROGO
100
AcDbLine
 10
11536.35162798447
 20
634.4060611609833
 30
0.0
 11
11536.35162798447
 21
586.4060611609825
 31
0.0
  0
LINE
  5
20F0E
330
20CDF
100
AcDbEntity
  8
YODOROGO
100
AcDbLine
 10
11521.35162798447
 20
559.4060611609831
 30
0.0
 11
11521.35162798447
 21
634.4060611609833
 31
0.0
  0
LINE
  5
20F0F
330
20CDF
100
AcDbEntity
  8
YODOROGO
100
AcDbLine
 10
11587.35162798447
 20
634.4060611609833
 30
0.0
 11
11587.35162798447
 21
559.4060611609831
 31
0.0
  0
LINE
  5
20F10
330
20CDF
100
AcDbEntity
  8
YODOROGO
100
AcDbLine
 10
11572.35162798446
 20
586.4060611609825
 30
0.0
 11
11572.35162798446
 21
634.4060611609833
 31
0.0
  0
LINE
  5
20F11
330
20CDF
100
AcDbEntity
  8
YODOROGO
100
AcDbLine
 10
11561.85162798446
 20
658.4060611609827
 30
0.0
 11
11561.85162798446
 21
586.4060611609825
 31
0.0
  0
LINE
  5
20F12
330
20CDF
100
AcDbEntity
  8
YODOROGO
100
AcDbLine
 10
11615.10162798446
 20
760.4060611609829
 30
0.0
 11
11615.10162798446
 21
550.4060611609828
 31
0.0
  0
LINE
  5
20F13
330
20CDF
100
AcDbEntity
  8
YODOROGO
100
AcDbLine
 10
11492.10162798447
 20
535.4060611609829
 30
0.0
 11
11492.10162798447
 21
760.4060611609829
 31
0.0
  0
LINE
  5
20F14
330
20CDF
100
AcDbEntity
  8
YODOROGO
100
AcDbLine
 10
11511.60162798447
 20
736.4060611609825
 30
0.0
 11
11511.60162798447
 21
535.4060611609829
 31
0.0
  0
LINE
  5
20F15
330
20CDF
100
AcDbEntity
  8
YODOROGO
100
AcDbLine
 10
11597.10162798446
 20
580.406061160983
 30
0.0
 11
11597.10162798446
 21
736.4060611609825
 31
0.0
  0
LINE
  5
20F16
330
20CDF
100
AcDbEntity
  8
YODOROGO
100
AcDbLine
 10
11393.10162798446
 20
610.4060611609829
 30
0.0
 11
11393.10162798446
 21
629.9060611609831
 31
0.0
  0
LINE
  5
20F17
330
20CDF
100
AcDbEntity
  8
YODOROGO
100
AcDbLine
 10
11481.60162798447
 20
629.9060611609831
 30
0.0
 11
11481.60162798447
 21
610.4060611609829
 31
0.0
  0
LINE
  5
20F18
330
20CDF
100
AcDbEntity
  8
YODOROGO
100
AcDbLine
 10
11687.10162798447
 20
715.4060611609828
 30
0.0
 11
11687.10162798447
 21
613.4060611609827
 31
0.0
  0
LINE
  5
20F19
330
20CDF
100
AcDbEntity
  8
YODOROGO
100
AcDbLine
 10
11231.10162798446
 20
625.406061160983
 30
0.0
 11
11231.10162798446
 21
640.4060611609828
 31
0.0
  0
LINE
  5
20F1A
330
20CDF
100
AcDbEntity
  8
YODOROGO
100
AcDbLine
 10
11231.10162798446
 20
625.406061160983
 30
0.0
 11
11231.10162798446
 21
640.4060611609828
 31
0.0
  0
ARC
  5
20F1B
330
20CDF
100
AcDbEntity
  8
YODOROGO
100
AcDbCircle
 10
11451.60162798447
 20
565.4060611609828
 30
0.0
 40
30.0
100
AcDbArc
 50
270.0
 51
0.0
  0
LINE
  5
20F1C
330
20CDF
100
AcDbEntity
  8
YODOROGO
100
AcDbLine
 10
11463.60162798446
 20
599.9060611609831
 30
0.0
 11
11481.60162798447
 21
599.9060611609831
 31
0.0
  0
LINE
  5
20F1D
330
20CDF
100
AcDbEntity
  8
YODOROGO
100
AcDbLine
 10
11481.60162798447
 20
610.4060611609829
 30
0.0
 11
11448.60162798446
 21
610.4060611609829
 31
0.0
  0
LINE
  5
20F1E
330
20CDF
100
AcDbEntity
  8
YODOROGO
100
AcDbLine
 10
11331.60162798447
 20
625.406061160983
 30
0.0
 11
11231.10162798446
 21
625.406061160983
 31
0.0
  0
LINE
  5
20F1F
330
20CDF
100
AcDbEntity
  8
YODOROGO
100
AcDbLine
 10
11331.60162798447
 20
610.4060611609829
 30
0.0
 11
11331.60162798447
 21
625.406061160983
 31
0.0
  0
LINE
  5
20F20
330
20CDF
100
AcDbEntity
  8
YODOROGO
100
AcDbLine
 10
11256.60162798447
 20
610.4060611609829
 30
0.0
 11
11331.60162798447
 21
610.4060611609829
 31
0.0
  0
ARC
  5
20F21
330
20CDF
100
AcDbEntity
  8
YODOROGO
100
AcDbCircle
 10
11336.27206076301
 20
700.8321431073384
 30
0.0
 40
120.5166136069605
100
AcDbArc
 50
228.6181454618993
 51
245.660289248906
  0
LINE
  5
20F22
330
20CDF
100
AcDbEntity
  8
YODOROGO
100
AcDbLine
 10
11289.60162798447
 20
601.4060611609833
 30
0.0
 11
11286.60162798448
 21
591.0273059512126
 31
0.0
  0
LINE
  5
20F23
330
20CDF
100
AcDbEntity
  8
YODOROGO
100
AcDbLine
 10
11321.10162798447
 20
601.4060611609833
 30
0.0
 11
11289.60162798447
 21
601.4060611609833
 31
0.0
  0
LINE
  5
20F24
330
20CDF
100
AcDbEntity
  8
YODOROGO
100
AcDbLine
 10
11316.60162798447
 20
581.9316459275352
 30
0.0
 11
11321.10162798447
 21
601.4060611609833
 31
0.0
  0
ARC
  5
20F25
330
20CDF
100
AcDbEntity
  8
YODOROGO
100
AcDbCircle
 10
11336.27206076267
 20
700.832143107376
 30
0.0
 40
120.516613606984
100
AcDbArc
 50
260.6062929796992
 51
267.7790355655586
  0
LINE
  5
20F26
330
20CDF
100
AcDbEntity
  8
YODOROGO
100
AcDbLine
 10
11331.60162798447
 20
535.4060611609821
 30
0.0
 11
11331.60162798447
 21
580.406061160983
 31
0.0
  0
LINE
  5
20F27
330
20CDF
100
AcDbEntity
  8
YODOROGO
100
AcDbLine
 10
11226.60162798446
 20
555.5022505933164
 30
0.0
 11
11226.60162798446
 21
597.949158949178
 31
0.0
  0
LINE
  5
20F28
330
20CDF
100
AcDbEntity
  8
YODOROGO
100
AcDbLine
 10
11331.60162798447
 20
625.406061160983
 30
0.0
 11
11231.10162798446
 21
625.406061160983
 31
0.0
  0
LINE
  5
20F29
330
20CDF
100
AcDbEntity
  8
YODOROGO
100
AcDbLine
 10
11331.60162798447
 20
610.4060611609829
 30
0.0
 11
11331.60162798447
 21
625.406061160983
 31
0.0
  0
LINE
  5
20F2A
330
20CDF
100
AcDbEntity
  8
YODOROGO
100
AcDbLine
 10
11256.60162798447
 20
610.4060611609829
 30
0.0
 11
11331.60162798447
 21
610.4060611609829
 31
0.0
  0
ARC
  5
20F2B
330
20CDF
100
AcDbEntity
  8
YODOROGO
100
AcDbCircle
 10
11336.27206076301
 20
700.8321431073384
 30
0.0
 40
120.5166136069605
100
AcDbArc
 50
228.6181454618993
 51
245.660289248906
  0
LINE
  5
20F2C
330
20CDF
100
AcDbEntity
  8
YODOROGO
100
AcDbLine
 10
11289.60162798447
 20
601.4060611609833
 30
0.0
 11
11286.60162798448
 21
591.0273059512126
 31
0.0
  0
LINE
  5
20F2D
330
20CDF
100
AcDbEntity
  8
YODOROGO
100
AcDbLine
 10
11321.10162798447
 20
601.4060611609833
 30
0.0
 11
11289.60162798447
 21
601.4060611609833
 31
0.0
  0
LINE
  5
20F2E
330
20CDF
100
AcDbEntity
  8
YODOROGO
100
AcDbLine
 10
11316.60162798447
 20
581.9316459275352
 30
0.0
 11
11321.10162798447
 21
601.4060611609833
 31
0.0
  0
ARC
  5
20F2F
330
20CDF
100
AcDbEntity
  8
YODOROGO
100
AcDbCircle
 10
11336.27206076267
 20
700.832143107376
 30
0.0
 40
120.516613606984
100
AcDbArc
 50
260.6062929796992
 51
267.7790355655586
  0
LINE
  5
20F30
330
20CDF
100
AcDbEntity
  8
YODOROGO
100
AcDbLine
 10
11331.60162798447
 20
535.4060611609821
 30
0.0
 11
11331.60162798447
 21
580.406061160983
 31
0.0
  0
LINE
  5
20F31
330
20CDF
100
AcDbEntity
  8
YODOROGO
100
AcDbLine
 10
11226.60162798446
 20
555.5022505933164
 30
0.0
 11
11226.60162798446
 21
597.949158949178
 31
0.0
  0
LINE
  5
20F32
330
20CDF
100
AcDbEntity
  8
YODOROGO
100
AcDbLine
 10
11412.60162798447
 20
590.1560611609832
 30
0.0
 11
11393.10162798446
 21
590.1560611609832
 31
0.0
  0
LINE
  5
20F33
330
20CDF
100
AcDbEntity
  8
YODOROGO
100
AcDbLine
 10
11412.60162798447
 20
600.6560611609824
 30
0.0
 11
11412.60162798447
 21
590.1560611609832
 31
0.0
  0
LINE
  5
20F34
330
20CDF
100
AcDbEntity
  8
YODOROGO
100
AcDbLine
 10
11393.10162798446
 20
600.6560611609824
 30
0.0
 11
11412.60162798447
 21
600.6560611609824
 31
0.0
  0
LINE
  5
20F35
330
20CDF
100
AcDbEntity
  8
YODOROGO
100
AcDbLine
 10
11393.10162798446
 20
590.1560611609832
 30
0.0
 11
11393.10162798446
 21
600.6560611609824
 31
0.0
  0
LINE
  5
20F36
330
20CDF
100
AcDbEntity
  8
YODOROGO
100
AcDbLine
 10
11411.10162798447
 20
591.6560611609829
 30
0.0
 11
11394.60162798447
 21
591.6560611609829
 31
0.0
  0
LINE
  5
20F37
330
20CDF
100
AcDbEntity
  8
YODOROGO
100
AcDbLine
 10
11411.10162798447
 20
599.156061160983
 30
0.0
 11
11411.10162798447
 21
591.6560611609829
 31
0.0
  0
LINE
  5
20F38
330
20CDF
100
AcDbEntity
  8
YODOROGO
100
AcDbLine
 10
11394.60162798447
 20
599.156061160983
 30
0.0
 11
11411.10162798447
 21
599.156061160983
 31
0.0
  0
LINE
  5
20F39
330
20CDF
100
AcDbEntity
  8
YODOROGO
100
AcDbLine
 10
11394.60162798447
 20
591.6560611609829
 30
0.0
 11
11394.60162798447
 21
599.156061160983
 31
0.0
  0
LINE
  5
20F3A
330
20CDF
100
AcDbEntity
  8
YODOROGO
100
AcDbLine
 10
11409.60162798447
 20
593.1560611609824
 30
0.0
 11
11396.10162798446
 21
593.1560611609824
 31
0.0
  0
LINE
  5
20F3B
330
20CDF
100
AcDbEntity
  8
YODOROGO
100
AcDbLine
 10
11409.60162798447
 20
597.6560611609833
 30
0.0
 11
11409.60162798447
 21
593.1560611609824
 31
0.0
  0
LINE
  5
20F3C
330
20CDF
100
AcDbEntity
  8
YODOROGO
100
AcDbLine
 10
11396.10162798446
 20
597.6560611609833
 30
0.0
 11
11409.60162798447
 21
597.6560611609833
 31
0.0
  0
LINE
  5
20F3D
330
20CDF
100
AcDbEntity
  8
YODOROGO
100
AcDbLine
 10
11396.10162798446
 20
593.1560611609824
 30
0.0
 11
11396.10162798446
 21
597.6560611609833
 31
0.0
  0
LINE
  5
20F3E
330
20CDF
100
AcDbEntity
  8
YODOROGO
100
AcDbLine
 10
11408.10162798447
 20
594.6560611609827
 30
0.0
 11
11397.60162798447
 21
594.6560611609827
 31
0.0
  0
LINE
  5
20F3F
330
20CDF
100
AcDbEntity
  8
YODOROGO
100
AcDbLine
 10
11408.10162798447
 20
596.1560611609829
 30
0.0
 11
11408.10162798447
 21
594.6560611609827
 31
0.0
  0
LINE
  5
20F40
330
20CDF
100
AcDbEntity
  8
YODOROGO
100
AcDbLine
 10
11397.60162798447
 20
596.1560611609829
 30
0.0
 11
11408.10162798447
 21
596.1560611609829
 31
0.0
  0
LINE
  5
20F41
330
20CDF
100
AcDbEntity
  8
YODOROGO
100
AcDbLine
 10
11397.60162798447
 20
594.6560611609827
 30
0.0
 11
11397.60162798447
 21
596.1560611609829
 31
0.0
  0
LINE
  5
20F42
330
20CDF
100
AcDbEntity
  8
YODOROGO
100
AcDbLine
 10
11424.60162798446
 20
610.4060611609829
 30
0.0
 11
11393.10162798446
 21
610.4060611609829
 31
0.0
  0
LINE
  5
20F43
330
20CDF
100
AcDbEntity
  8
YODOROGO
100
AcDbLine
 10
11424.60162798446
 20
580.406061160983
 30
0.0
 11
11424.60162798446
 21
610.4060611609829
 31
0.0
  0
LINE
  5
20F44
330
20CDF
100
AcDbEntity
  8
YODOROGO
100
AcDbLine
 10
11393.10162798446
 20
580.406061160983
 30
0.0
 11
11424.60162798446
 21
580.406061160983
 31
0.0
  0
LINE
  5
20F45
330
20CDF
100
AcDbEntity
  8
YODOROGO
100
AcDbLine
 10
11393.10162798446
 20
535.4060611609829
 30
0.0
 11
11393.10162798446
 21
580.406061160983
 31
0.0
  0
LINE
  5
20F46
330
20CDF
100
AcDbEntity
  8
YODOROGO
100
AcDbLine
 10
11451.60162798447
 20
535.4060611609829
 30
0.0
 11
11393.10162798446
 21
535.4060611609829
 31
0.0
  0
LINE
  5
20F47
330
20CDF
100
AcDbEntity
  8
YODOROGO
100
AcDbLine
 10
11463.60162798446
 20
589.4060611609823
 30
0.0
 11
11463.60162798446
 21
599.9060611609831
 31
0.0
  0
ARC
  5
20F48
330
20CDF
100
AcDbEntity
  8
YODOROGO
100
AcDbCircle
 10
11454.60162798446
 20
589.4060611609843
 30
0.0
 40
9.000000000001408
100
AcDbArc
 50
270.0
 51
359.9999999999877
  0
LINE
  5
20F49
330
20CDF
100
AcDbEntity
  8
YODOROGO
100
AcDbLine
 10
11448.60162798446
 20
580.406061160983
 30
0.0
 11
11454.60162798446
 21
580.406061160983
 31
0.0
  0
LINE
  5
20F4A
330
20CDF
100
AcDbEntity
  8
YODOROGO
100
AcDbLine
 10
11448.60162798446
 20
610.4060611609829
 30
0.0
 11
11448.60162798446
 21
580.406061160983
 31
0.0
  0
LINE
  5
20F4B
330
20CDF
100
AcDbEntity
  8
YODOROGO
100
AcDbLine
 10
11587.35162798447
 20
580.406061160983
 30
0.0
 11
11597.10162798446
 21
580.406061160983
 31
0.0
  0
LINE
  5
20F4C
330
20CDF
100
AcDbEntity
  8
YODOROGO
100
AcDbLine
 10
11600.10162798446
 20
535.4060611609829
 30
0.0
 11
11587.35162798447
 21
535.4060611609829
 31
0.0
  0
LINE
  5
20F4D
330
20CDF
100
AcDbEntity
  8
YODOROGO
100
AcDbLine
 10
11536.35162798447
 20
586.4060611609825
 30
0.0
 11
11546.85162798447
 21
586.4060611609825
 31
0.0
  0
LINE
  5
20F4E
330
20CDF
100
AcDbEntity
  8
YODOROGO
100
AcDbLine
 10
11587.35162798447
 20
559.4060611609831
 30
0.0
 11
11521.35162798447
 21
559.4060611609831
 31
0.0
  0
LINE
  5
20F4F
330
20CDF
100
AcDbEntity
  8
YODOROGO
100
AcDbLine
 10
11561.85162798446
 20
586.4060611609825
 30
0.0
 11
11572.35162798446
 21
586.4060611609825
 31
0.0
  0
LINE
  5
20F50
330
20CDF
100
AcDbEntity
  8
YODOROGO
100
AcDbLine
 10
11587.35162798447
 20
535.4060611609829
 30
0.0
 11
11587.35162798447
 21
580.406061160983
 31
0.0
  0
LINE
  5
20F51
330
20CDF
100
AcDbEntity
  8
YODOROGO
100
AcDbLine
 10
11511.60162798447
 20
535.4060611609829
 30
0.0
 11
11492.10162798447
 21
535.4060611609829
 31
0.0
  0
LINE
  5
20F52
330
20CDF
100
AcDbEntity
  8
YODOROGO
100
AcDbLine
 10
11481.60162798447
 20
599.9060611609831
 30
0.0
 11
11481.60162798447
 21
565.4060611609828
 31
0.0
  0
ARC
  5
20F53
330
20CDF
100
AcDbEntity
  8
YODOROGO
100
AcDbCircle
 10
11600.10162798446
 20
550.4060611609828
 30
0.0
 40
15.0
100
AcDbArc
 50
270.0
 51
0.0
  0
LINE
  5
20F54
330
20CDF
100
AcDbEntity
  8
YODOROGO
100
AcDbLine
 10
11660.10162798446
 20
571.4060611609824
 30
0.0
 11
11660.10162798446
 21
535.4060611609829
 31
0.0
  0
ARC
  5
20F55
330
20CDF
100
AcDbEntity
  8
YODOROGO
100
AcDbCircle
 10
11639.89552333754
 20
614.0742712911499
 30
0.0
 40
47.21083372187828
100
AcDbArc
 50
295.3405244216011
 51
359.1890230341867
  0
LINE
  5
20F56
330
20CDF
100
AcDbEntity
  8
YODOROGO
100
AcDbLine
 10
11481.60162798447
 20
697.406061160983
 30
0.0
 11
11436.60162798447
 21
727.4060611609828
 31
0.0
  0
LINE
  5
20F57
330
20CDF
100
AcDbEntity
  8
YODOROGO
100
AcDbLine
 10
11436.60162798447
 20
760.4060611609829
 30
0.0
 11
11481.60162798447
 21
730.4060611609828
 31
0.0
  0
LINE
  5
20F58
330
20CDF
100
AcDbEntity
  8
YODOROGO
100
AcDbLine
 10
11448.60162798446
 20
629.9060611609831
 30
0.0
 11
11481.60162798447
 21
629.9060611609831
 31
0.0
  0
LINE
  5
20F59
330
20CDF
100
AcDbEntity
  8
YODOROGO
100
AcDbLine
 10
11481.60162798447
 20
650.9060611609827
 30
0.0
 11
11448.60162798446
 21
650.9060611609827
 31
0.0
  0
LINE
  5
20F5A
330
20CDF
100
AcDbEntity
  8
YODOROGO
100
AcDbLine
 10
11393.10162798446
 20
673.4060611609827
 30
0.0
 11
11481.60162798447
 21
673.4060611609827
 31
0.0
  0
LINE
  5
20F5B
330
20CDF
100
AcDbEntity
  8
YODOROGO
100
AcDbLine
 10
11280.60162798447
 20
760.4060611609829
 30
0.0
 11
11258.10162798447
 21
760.4060611609829
 31
0.0
  0
LINE
  5
20F5C
330
20CDF
100
AcDbEntity
  8
YODOROGO
100
AcDbLine
 10
11280.60162798447
 20
685.4060611609829
 30
0.0
 11
11280.60162798447
 21
760.4060611609829
 31
0.0
  0
LINE
  5
20F5D
330
20CDF
100
AcDbEntity
  8
YODOROGO
100
AcDbLine
 10
11258.10162798447
 20
685.4060611609829
 30
0.0
 11
11280.60162798447
 21
685.4060611609829
 31
0.0
  0
LINE
  5
20F5E
330
20CDF
100
AcDbEntity
  8
YODOROGO
100
AcDbLine
 10
11258.10162798447
 20
760.4060611609829
 30
0.0
 11
11258.10162798447
 21
685.4060611609829
 31
0.0
  0
LINE
  5
20F5F
330
20CDF
100
AcDbEntity
  8
YODOROGO
100
AcDbLine
 10
11310.60162798447
 20
760.4060611609829
 30
0.0
 11
11331.60162798447
 21
760.4060611609829
 31
0.0
  0
LINE
  5
20F60
330
20CDF
100
AcDbEntity
  8
YODOROGO
100
AcDbLine
 10
11310.60162798447
 20
679.4060611609832
 30
0.0
 11
11310.60162798447
 21
760.4060611609829
 31
0.0
  0
ARC
  5
20F61
330
20CDF
100
AcDbEntity
  8
YODOROGO
100
AcDbCircle
 10
11295.60162798447
 20
679.4060611609832
 30
0.0
 40
15.0
100
AcDbArc
 50
270.0
 51
0.0
  0
LINE
  5
20F62
330
20CDF
100
AcDbEntity
  8
YODOROGO
100
AcDbLine
 10
11258.10162798447
 20
664.4060611609833
 30
0.0
 11
11295.60162798447
 21
664.4060611609833
 31
0.0
  0
LINE
  5
20F63
330
20CDF
100
AcDbEntity
  8
YODOROGO
100
AcDbLine
 10
11258.10162798447
 20
640.4060611609828
 30
0.0
 11
11258.10162798447
 21
664.4060611609833
 31
0.0
  0
LINE
  5
20F64
330
20CDF
100
AcDbEntity
  8
YODOROGO
100
AcDbLine
 10
11301.60162798446
 20
640.4060611609828
 30
0.0
 11
11258.10162798447
 21
640.4060611609828
 31
0.0
  0
ARC
  5
20F65
330
20CDF
100
AcDbEntity
  8
YODOROGO
100
AcDbCircle
 10
11301.60162798446
 20
670.4060611609828
 30
0.0
 40
30.0
100
AcDbArc
 50
270.0
 51
0.0
  0
LINE
  5
20F66
330
20CDF
100
AcDbEntity
  8
YODOROGO
100
AcDbLine
 10
11331.60162798447
 20
760.4060611609829
 30
0.0
 11
11331.60162798447
 21
670.4060611609828
 31
0.0
  0
LINE
  5
20F67
330
20CDF
100
AcDbEntity
  8
YODOROGO
100
AcDbLine
 10
11241.60162798446
 20
730.4060611609828
 30
0.0
 11
11241.60162798446
 21
748.4060611609828
 31
0.0
1001
AUTOCAD_POSTSCRIPT_FIGURE
1002
{
1000
PSFILL
1000
Grayscale
1000
Grayscale
1070
    25
1002
}
  0
LINE
  5
20F68
330
20CDF
100
AcDbEntity
  8
YODOROGO
100
AcDbLine
 10
11241.60162798446
 20
697.406061160983
 30
0.0
 11
11241.60162798446
 21
715.4060611609828
 31
0.0
1001
AUTOCAD_POSTSCRIPT_FIGURE
1002
{
1000
PSFILL
1000
Grayscale
1000
Grayscale
1070
    25
1002
}
  0
LINE
  5
20F69
330
20CDF
100
AcDbEntity
  8
YODOROGO
100
AcDbLine
 10
11241.60162798446
 20
640.4060611609828
 30
0.0
 11
11241.60162798446
 21
682.4060611609829
 31
0.0
1001
AUTOCAD_POSTSCRIPT_FIGURE
1002
{
1000
PSFILL
1000
Grayscale
1000
Grayscale
1070
    25
1002
}
  0
LINE
  5
20F6A
330
20CDF
100
AcDbEntity
  8
YODOROGO
100
AcDbLine
 10
11393.10162798446
 20
715.4060611609828
 30
0.0
 11
11436.60162798447
 21
760.4060611609829
 31
0.0
  0
LINE
  5
20F6B
330
20CDF
100
AcDbEntity
  8
YODOROGO
100
AcDbLine
 10
11393.10162798446
 20
682.4060611609829
 30
0.0
 11
11393.10162798446
 21
715.4060611609828
 31
0.0
  0
LINE
  5
20F6C
330
20CDF
100
AcDbEntity
  8
YODOROGO
100
AcDbLine
 10
11436.60162798447
 20
727.4060611609828
 30
0.0
 11
11393.10162798446
 21
682.4060611609829
 31
0.0
  0
LINE
  5
20F6D
330
20CDF
100
AcDbEntity
  8
YODOROGO
100
AcDbLine
 10
11424.60162798446
 20
629.9060611609831
 30
0.0
 11
11424.60162798446
 21
650.9060611609827
 31
0.0
  0
LINE
  5
20F6E
330
20CDF
100
AcDbEntity
  8
YODOROGO
100
AcDbLine
 10
11393.10162798446
 20
629.9060611609831
 30
0.0
 11
11424.60162798446
 21
629.9060611609831
 31
0.0
  0
LINE
  5
20F6F
330
20CDF
100
AcDbEntity
  8
YODOROGO
100
AcDbLine
 10
11448.60162798446
 20
650.9060611609827
 30
0.0
 11
11448.60162798446
 21
629.9060611609831
 31
0.0
  0
LINE
  5
20F70
330
20CDF
100
AcDbEntity
  8
YODOROGO
100
AcDbLine
 10
11393.10162798446
 20
650.9060611609827
 30
0.0
 11
11393.10162798446
 21
673.4060611609827
 31
0.0
  0
LINE
  5
20F71
330
20CDF
100
AcDbEntity
  8
YODOROGO
100
AcDbLine
 10
11424.60162798446
 20
650.9060611609827
 30
0.0
 11
11393.10162798446
 21
650.9060611609827
 31
0.0
  0
LINE
  5
20F72
330
20CDF
100
AcDbEntity
  8
YODOROGO
100
AcDbLine
 10
11492.10162798447
 20
760.4060611609829
 30
0.0
 11
11615.10162798446
 21
760.4060611609829
 31
0.0
  0
LINE
  5
20F73
330
20CDF
100
AcDbEntity
  8
YODOROGO
100
AcDbLine
 10
11597.10162798446
 20
736.4060611609825
 30
0.0
 11
11511.60162798447
 21
736.4060611609825
 31
0.0
  0
LINE
  5
20F74
330
20CDF
100
AcDbEntity
  8
YODOROGO
100
AcDbLine
 10
11577.60162798447
 20
682.4060611609829
 30
0.0
 11
11587.35162798447
 21
682.4060611609829
 31
0.0
  0
LINE
  5
20F75
330
20CDF
100
AcDbEntity
  8
YODOROGO
100
AcDbLine
 10
11587.35162798447
 20
727.4060611609828
 30
0.0
 11
11577.60162798447
 21
682.4060611609829
 31
0.0
  0
LINE
  5
20F76
330
20CDF
100
AcDbEntity
  8
YODOROGO
100
AcDbLine
 10
11569.35162798446
 20
727.4060611609828
 30
0.0
 11
11587.35162798447
 21
727.4060611609828
 31
0.0
  0
LINE
  5
20F77
330
20CDF
100
AcDbEntity
  8
YODOROGO
100
AcDbLine
 10
11559.60162798447
 20
682.4060611609829
 30
0.0
 11
11569.35162798446
 21
727.4060611609828
 31
0.0
  0
LINE
  5
20F78
330
20CDF
100
AcDbEntity
  8
YODOROGO
100
AcDbLine
 10
11549.10162798447
 20
682.4060611609829
 30
0.0
 11
11559.60162798447
 21
682.4060611609829
 31
0.0
  0
LINE
  5
20F79
330
20CDF
100
AcDbEntity
  8
YODOROGO
100
AcDbLine
 10
11539.35162798447
 20
727.4060611609828
 30
0.0
 11
11549.10162798447
 21
682.4060611609829
 31
0.0
  0
LINE
  5
20F7A
330
20CDF
100
AcDbEntity
  8
YODOROGO
100
AcDbLine
 10
11521.35162798447
 20
727.4060611609828
 30
0.0
 11
11539.35162798447
 21
727.4060611609828
 31
0.0
  0
LINE
  5
20F7B
330
20CDF
100
AcDbEntity
  8
YODOROGO
100
AcDbLine
 10
11531.10162798447
 20
682.4060611609829
 30
0.0
 11
11521.35162798447
 21
727.4060611609828
 31
0.0
  0
LINE
  5
20F7C
330
20CDF
100
AcDbEntity
  8
YODOROGO
100
AcDbLine
 10
11521.35162798447
 20
682.4060611609829
 30
0.0
 11
11531.10162798447
 21
682.4060611609829
 31
0.0
  0
LINE
  5
20F7D
330
20CDF
100
AcDbEntity
  8
YODOROGO
100
AcDbLine
 10
11521.35162798447
 20
658.4060611609827
 30
0.0
 11
11521.35162798447
 21
682.4060611609829
 31
0.0
  0
LINE
  5
20F7E
330
20CDF
100
AcDbEntity
  8
YODOROGO
100
AcDbLine
 10
11587.35162798447
 20
658.4060611609827
 30
0.0
 11
11521.35162798447
 21
658.4060611609827
 31
0.0
  0
LINE
  5
20F7F
330
20CDF
100
AcDbEntity
  8
YODOROGO
100
AcDbLine
 10
11587.35162798447
 20
682.4060611609829
 30
0.0
 11
11587.35162798447
 21
658.4060611609827
 31
0.0
  0
LINE
  5
20F80
330
20CDF
100
AcDbEntity
  8
YODOROGO
100
AcDbLine
 10
11481.60162798447
 20
730.4060611609828
 30
0.0
 11
11481.60162798447
 21
697.406061160983
 31
0.0
  0
LINE
  5
20F81
330
20CDF
100
AcDbEntity
  8
YODOROGO
100
AcDbLine
 10
11546.85162798447
 20
658.4060611609827
 30
0.0
 11
11561.85162798446
 21
658.4060611609827
 31
0.0
  0
LINE
  5
20F82
330
20CDF
100
AcDbEntity
  8
YODOROGO
100
AcDbLine
 10
11521.35162798447
 20
634.4060611609833
 30
0.0
 11
11536.35162798447
 21
634.4060611609833
 31
0.0
  0
LINE
  5
20F83
330
20CDF
100
AcDbEntity
  8
YODOROGO
100
AcDbLine
 10
11572.35162798446
 20
634.4060611609833
 30
0.0
 11
11587.35162798447
 21
634.4060611609833
 31
0.0
  0
LINE
  5
20F84
330
20CDF
100
AcDbEntity
  8
YODOROGO
100
AcDbLine
 10
11481.60162798447
 20
673.4060611609827
 30
0.0
 11
11481.60162798447
 21
650.9060611609827
 31
0.0
  0
LINE
  5
20F85
330
20CDF
100
AcDbEntity
  8
YODOROGO
100
AcDbLine
 10
11687.10162798447
 20
760.4060611609829
 30
0.0
 11
11687.10162798447
 21
736.4060611609825
 31
0.0
  0
LINE
  5
20F86
330
20CDF
100
AcDbEntity
  8
YODOROGO
100
AcDbLine
 10
11825.10162798447
 20
598.4060611609827
 30
0.0
 11
11825.10162798446
 21
679.4060611609832
 31
0.0
  0
LINE
  5
20F87
330
20CDF
100
AcDbEntity
  8
YODOROGO
100
AcDbLine
 10
11798.10162798446
 20
745.4060611609828
 30
0.0
 11
11798.10162798446
 21
613.4060611609827
 31
0.0
  0
LINE
  5
20F88
330
20CDF
100
AcDbEntity
  8
YODOROGO
100
AcDbLine
 10
11870.10162798447
 20
535.4060611609829
 30
0.0
 11
11870.10162798446
 21
679.4060611609832
 31
0.0
  0
LINE
  5
20F89
330
20CDF
100
AcDbEntity
  8
YODOROGO
100
AcDbLine
 10
11846.10162798447
 20
679.4060611609832
 30
0.0
 11
11846.10162798447
 21
535.4060611609829
 31
0.0
  0
LINE
  5
20F8A
330
20CDF
100
AcDbEntity
  8
YODOROGO
100
AcDbLine
 10
11714.10162798447
 20
598.4060611609827
 30
0.0
 11
11714.10162798447
 21
640.4060611609828
 31
0.0
  0
ARC
  5
20F8B
330
20CDF
100
AcDbEntity
  8
YODOROGO
100
AcDbCircle
 10
11757.71807441852
 20
602.921381733209
 30
0.0
 40
67.53466821599572
100
AcDbArc
 50
268.6284910216979
 51
356.1663845733032
  0
LINE
  5
20F8C
330
20CDF
100
AcDbEntity
  8
YODOROGO
100
AcDbLine
 10
11756.10162798446
 20
572.9060611609829
 30
0.0
 11
11756.10162798446
 21
535.4060611609829
 31
0.0
  0
ARC
  5
20F8D
330
20CDF
100
AcDbEntity
  8
YODOROGO
100
AcDbCircle
 10
11756.81927839671
 20
614.1896088816206
 30
0.0
 40
41.28978486885457
100
AcDbArc
 50
269.0041020930593
 51
358.9126445549248
  0
LINE
  5
20F8E
330
20CDF
100
AcDbEntity
  8
YODOROGO
100
AcDbLine
 10
11846.10162798447
 20
535.4060611609829
 30
0.0
 11
11870.10162798447
 21
535.4060611609829
 31
0.0
  0
LINE
  5
20F8F
330
20CDF
100
AcDbEntity
  8
YODOROGO
100
AcDbLine
 10
11825.10162798446
 20
679.4060611609832
 30
0.0
 11
11846.10162798447
 21
679.4060611609832
 31
0.0
  0
LINE
  5
20F90
330
20CDF
100
AcDbEntity
  8
YODOROGO
100
AcDbLine
 10
11858.10162798446
 20
745.4060611609828
 30
0.0
 11
11798.10162798446
 21
745.4060611609828
 31
0.0
  0
LINE
  5
20F91
330
20CDF
100
AcDbEntity
  8
YODOROGO
100
AcDbLine
 10
11825.10162798446
 20
718.4060611609829
 30
0.0
 11
11873.10162798447
 21
718.4060611609829
 31
0.0
  0
LINE
  5
20F92
330
20CDF
100
AcDbEntity
  8
YODOROGO
100
AcDbLine
 10
11888.10162798447
 20
703.4060611609828
 30
0.0
 11
11825.10162798446
 21
703.4060611609828
 31
0.0
  0
LINE
  5
20F93
330
20CDF
100
AcDbEntity
  8
YODOROGO
100
AcDbLine
 10
11714.10162798447
 20
667.4060611609831
 30
0.0
 11
11756.10162798446
 21
667.4060611609831
 31
0.0
  0
LINE
  5
20F94
330
20CDF
100
AcDbEntity
  8
YODOROGO
100
AcDbLine
 10
11714.10162798447
 20
688.4060611609828
 30
0.0
 11
11714.10162798447
 21
667.4060611609831
 31
0.0
  0
LINE
  5
20F95
330
20CDF
100
AcDbEntity
  8
YODOROGO
100
AcDbLine
 10
11756.10162798446
 20
688.4060611609828
 30
0.0
 11
11714.10162798447
 21
688.4060611609828
 31
0.0
  0
LINE
  5
20F96
330
20CDF
100
AcDbEntity
  8
YODOROGO
100
AcDbLine
 10
11756.10162798446
 20
667.4060611609831
 30
0.0
 11
11756.10162798446
 21
688.4060611609828
 31
0.0
  0
LINE
  5
20F97
330
20CDF
100
AcDbEntity
  8
YODOROGO
100
AcDbLine
 10
11825.10162798446
 20
703.4060611609828
 30
0.0
 11
11825.10162798446
 21
718.4060611609829
 31
0.0
  0
LINE
  5
20F98
330
20CDF
100
AcDbEntity
  8
YODOROGO
100
AcDbLine
 10
11780.10162798446
 20
640.4060611609828
 30
0.0
 11
11780.10162798446
 21
715.4060611609828
 31
0.0
  0
LINE
  5
20F99
330
20CDF
100
AcDbEntity
  8
YODOROGO
100
AcDbLine
 10
11714.10162798447
 20
640.4060611609828
 30
0.0
 11
11780.10162798446
 21
640.4060611609828
 31
0.0
  0
LINE
  5
20F9A
330
20CDF
100
AcDbEntity
  8
YODOROGO
100
AcDbLine
 10
11780.10162798446
 20
736.4060611609825
 30
0.0
 11
11780.10162798446
 21
760.4060611609829
 31
0.0
  0
ARC
  5
20F9B
330
20CDF
100
AcDbEntity
  8
YODOROGO
100
AcDbCircle
 10
11858.10162798446
 20
751.4060611609817
 30
0.0
 40
5.999999999997952
100
AcDbArc
 50
270.0
 51
0.0000000000081422
  0
LINE
  5
20F9C
330
20CDF
100
AcDbEntity
  8
YODOROGO
100
AcDbLine
 10
11864.10162798447
 20
760.4060611609829
 30
0.0
 11
11864.10162798447
 21
751.4060611609825
 31
0.0
  0
LINE
  5
20F9D
330
20CDF
100
AcDbEntity
  8
YODOROGO
100
AcDbLine
 10
11888.10162798447
 20
760.4060611609829
 30
0.0
 11
11864.10162798447
 21
760.4060611609829
 31
0.0
  0
LINE
  5
20F9E
330
20CDF
100
AcDbEntity
  8
YODOROGO
100
AcDbLine
 10
11888.10162798447
 20
733.4060611609828
 30
0.0
 11
11888.10162798447
 21
760.4060611609829
 31
0.0
  0
ARC
  5
20F9F
330
20CDF
100
AcDbEntity
  8
YODOROGO
100
AcDbCircle
 10
11873.10162798447
 20
733.4060611609828
 30
0.0
 40
15.0
100
AcDbArc
 50
270.0
 51
0.0
  0
LINE
  5
20FA0
330
20CDF
100
AcDbEntity
  8
YODOROGO
100
AcDbLine
 10
11888.10162798447
 20
679.4060611609832
 30
0.0
 11
11888.10162798447
 21
703.4060611609828
 31
0.0
  0
LINE
  5
20FA1
330
20CDF
100
AcDbEntity
  8
YODOROGO
100
AcDbLine
 10
11870.10162798446
 20
679.4060611609832
 30
0.0
 11
11888.10162798447
 21
679.4060611609832
 31
0.0
  0
LINE
  5
20FA2
330
20CDF
100
AcDbEntity
  8
SUNPOU
100
AcDbLine
 10
7852.527727734766
 20
4986.083850786251
 30
0.0
 11
7852.527727734766
 21
4571.08385078625
 31
0.0
  0
LINE
  5
20FA3
330
20CDF
100
AcDbEntity
  8
SUNPOU
100
AcDbLine
 10
7527.527727734774
 20
5960.805990360579
 30
0.0
 11
7527.527727734774
 21
4571.08385078625
 31
0.0
  0
LINE
  5
20FA4
330
20CDF
100
AcDbEntity
  8
SUNPOU
100
AcDbLine
 10
7837.527727734766
 20
4616.08385078625
 30
0.0
 11
7542.527727734775
 21
4616.08385078625
 31
0.0
  0
LINE
  5
20FA5
330
20CDF
100
AcDbEntity
  8
SUNPOU
100
AcDbLine
 10
3888.520564619387
 20
1542.488156193162
 30
0.0
 11
5266.02056461939
 21
1542.488156193162
 31
0.0
  0
LINE
  5
20FA6
330
20CDF
100
AcDbEntity
  8
SUNPOU
100
AcDbLine
 10
3888.520564619389
 20
1392.488156193164
 30
0.0
 11
5266.02056461939
 21
1392.488156193164
 31
0.0
  0
LINE
  5
20FA7
330
20CDF
100
AcDbEntity
  8
SUNPOU
100
AcDbLine
 10
5221.02056461939
 20
1527.488156193162
 30
0.0
 11
5221.02056461939
 21
1407.488156193164
 31
0.0
  0
LINE
  5
20FA8
330
20CDF
100
AcDbEntity
  8
SUNPOU
100
AcDbLine
 10
5221.02056461939
 20
1392.488156193164
 30
0.0
 11
5221.02056461939
 21
1141.773870478878
 31
0.0
  0
LINE
  5
20FA9
330
20CDF
100
AcDbEntity
  8
SUNPOU
100
AcDbLine
 10
5051.02056461939
 20
2292.488156193163
 30
0.0
 11
5266.020564619391
 21
2292.488156193162
 31
0.0
  0
LINE
  5
20FAA
330
20CDF
100
AcDbEntity
  8
SUNPOU
100
AcDbLine
 10
3888.520564619387
 20
1542.488156193162
 30
0.0
 11
5266.02056461939
 21
1542.488156193162
 31
0.0
  0
LINE
  5
20FAB
330
20CDF
100
AcDbEntity
  8
SUNPOU
100
AcDbLine
 10
5221.020564619391
 20
2277.488156193162
 30
0.0
 11
5221.02056461939
 21
1557.488156193163
 31
0.0
  0
LINE
  5
20FAC
330
20CDF
100
AcDbEntity
  8
SUNPOU
100
AcDbLine
 10
2733.520564619389
 20
1362.488156193162
 30
0.0
 11
2733.520564619389
 21
1017.488156193161
 31
0.0
  0
LINE
  5
20FAD
330
20CDF
100
AcDbEntity
  8
SUNPOU
100
AcDbLine
 10
3708.520564619394
 20
1362.488156193164
 30
0.0
 11
3708.520564619394
 21
1017.488156193161
 31
0.0
  0
LINE
  5
20FAE
330
20CDF
100
AcDbEntity
  8
SUNPOU
100
AcDbLine
 10
2748.520564619389
 20
1062.488156193162
 30
0.0
 11
3693.520564619394
 21
1062.488156193162
 31
0.0
  0
LINE
  5
20FAF
330
20CDF
100
AcDbEntity
  8
SUNPOU
100
AcDbLine
 10
2583.520564619391
 20
1362.488156193162
 30
0.0
 11
2583.520564619391
 21
807.4881561931622
 31
0.0
  0
LINE
  5
20FB0
330
20CDF
100
AcDbEntity
  8
SUNPOU
100
AcDbLine
 10
3858.520564619388
 20
1362.488156193164
 30
0.0
 11
3858.520564619388
 21
807.4881561931622
 31
0.0
  0
LINE
  5
20FB1
330
20CDF
100
AcDbEntity
  8
SUNPOU
100
AcDbLine
 10
2598.520564619392
 20
852.4881561931623
 30
0.0
 11
3843.520564619387
 21
852.4881561931623
 31
0.0
  0
LINE
  5
20FB2
330
20CDF
100
AcDbEntity
  8
SUNPOU
100
AcDbLine
 10
4402.527727734763
 20
4986.083850786249
 30
0.0
 11
4402.527727734763
 21
4361.08385078625
 31
0.0
  0
LINE
  5
20FB3
330
20CDF
100
AcDbEntity
  8
SUNPOU
100
AcDbLine
 10
7852.527727734766
 20
4986.083850786251
 30
0.0
 11
7852.527727734766
 21
4361.08385078625
 31
0.0
  0
LINE
  5
20FB4
330
20CDF
100
AcDbEntity
  8
SUNPOU
100
AcDbLine
 10
4417.527727734763
 20
4406.08385078625
 30
0.0
 11
7837.527727734766
 21
4406.08385078625
 31
0.0
  0
LINE
  5
20FB5
330
20CDF
100
AcDbEntity
  8
SUNPOU
100
AcDbLine
 10
4727.527727734766
 20
5986.083850786252
 30
0.0
 11
4727.527727734766
 21
4571.08385078625
 31
0.0
  0
LINE
  5
20FB6
330
20CDF
100
AcDbEntity
  8
SUNPOU
100
AcDbLine
 10
7527.527727734768
 20
5786.08385078625
 30
0.0
 11
7527.527727734768
 21
4571.08385078625
 31
0.0
  0
LINE
  5
20FB7
330
20CDF
100
AcDbEntity
  8
SUNPOU
100
AcDbLine
 10
4742.527727734766
 20
4616.08385078625
 30
0.0
 11
7512.527727734767
 21
4616.08385078625
 31
0.0
  0
LINE
  5
20FB8
330
20CDF
100
AcDbEntity
  8
SUNPOU
100
AcDbLine
 10
4402.527727734763
 20
4986.083850786249
 30
0.0
 11
4402.527727734763
 21
4571.08385078625
 31
0.0
  0
LINE
  5
20FB9
330
20CDF
100
AcDbEntity
  8
SUNPOU
100
AcDbLine
 10
4727.527727734766
 20
5986.083850786252
 30
0.0
 11
4727.527727734766
 21
4571.08385078625
 31
0.0
  0
LINE
  5
20FBA
330
20CDF
100
AcDbEntity
  8
SUNPOU
100
AcDbLine
 10
4417.527727734763
 20
4616.08385078625
 30
0.0
 11
4712.527727734767
 21
4616.08385078625
 31
0.0
  0
ARC
  5
20FBB
330
20CDF
100
AcDbEntity
  8
SUNPOU
100
AcDbCircle
 10
8547.527727734768
 20
7616.083850786248
 30
0.0
 40
5.625000000000908
100
AcDbArc
 50
270.0
 51
90.0
  0
ARC
  5
20FBC
330
20CDF
100
AcDbEntity
  8
SUNPOU
100
AcDbCircle
 10
8547.527727734768
 20
7616.083850786248
 30
0.0
 40
5.625000000001817
100
AcDbArc
 50
90.0
 51
270.0
  0
ARC
  5
20FBD
330
20CDF
100
AcDbEntity
  8
SUNPOU
100
AcDbCircle
 10
8337.527727734769
 20
7616.083850786248
 30
0.0
 40
5.625000000000908
100
AcDbArc
 50
270.0
 51
90.0
  0
ARC
  5
20FBE
330
20CDF
100
AcDbEntity
  8
SUNPOU
100
AcDbCircle
 10
8337.527727734769
 20
7616.083850786248
 30
0.0
 40
5.625000000001817
100
AcDbArc
 50
90.0
 51
270.0
  0
ARC
  5
20FBF
330
20CDF
100
AcDbEntity
  8
SUNPOU
100
AcDbCircle
 10
8127.527727734769
 20
6741.08385078625
 30
0.0
 40
5.625
100
AcDbArc
 50
270.0
 51
90.0
  0
ARC
  5
20FC0
330
20CDF
100
AcDbEntity
  8
SUNPOU
100
AcDbCircle
 10
8127.527727734769
 20
6741.08385078625
 30
0.0
 40
5.625
100
AcDbArc
 50
90.0
 51
270.0
  0
ARC
  5
20FC1
330
20CDF
100
AcDbEntity
  8
SUNPOU
100
AcDbCircle
 10
8337.527727734769
 20
6416.08385078625
 30
0.0
 40
5.625
100
AcDbArc
 50
90.0
 51
270.0
  0
ARC
  5
20FC2
330
20CDF
100
AcDbEntity
  8
SUNPOU
100
AcDbCircle
 10
8337.527727734769
 20
6416.08385078625
 30
0.0
 40
5.625
100
AcDbArc
 50
270.0
 51
90.0
  0
ARC
  5
20FC3
330
20CDF
100
AcDbEntity
  8
SUNPOU
100
AcDbCircle
 10
8337.527727734769
 20
6416.08385078625
 30
0.0
 40
5.625
100
AcDbArc
 50
270.0
 51
90.0
  0
ARC
  5
20FC4
330
20CDF
100
AcDbEntity
  8
SUNPOU
100
AcDbCircle
 10
8337.527727734769
 20
6416.08385078625
 30
0.0
 40
5.625
100
AcDbArc
 50
90.0
 51
270.0
  0
ARC
  5
20FC5
330
20CDF
100
AcDbEntity
  8
SUNPOU
100
AcDbCircle
 10
8127.527727734769
 20
6091.08385078625
 30
0.0
 40
5.624999999999089
100
AcDbArc
 50
90.0
 51
270.0
  0
ARC
  5
20FC6
330
20CDF
100
AcDbEntity
  8
SUNPOU
100
AcDbCircle
 10
8127.527727734769
 20
6091.08385078625
 30
0.0
 40
5.625
100
AcDbArc
 50
270.0
 51
90.0
  0
ARC
  5
20FC7
330
20CDF
100
AcDbEntity
  8
SUNPOU
100
AcDbCircle
 10
8547.527727734768
 20
5016.08385078625
 30
0.0
 40
5.625
100
AcDbArc
 50
90.0
 51
270.0
  0
ARC
  5
20FC8
330
20CDF
100
AcDbEntity
  8
SUNPOU
100
AcDbCircle
 10
8547.527727734768
 20
5016.08385078625
 30
0.0
 40
5.625
100
AcDbArc
 50
270.0
 51
90.0
  0
ARC
  5
20FC9
330
20CDF
100
AcDbEntity
  8
SUNPOU
100
AcDbCircle
 10
8337.527727734769
 20
5016.08385078625
 30
0.0
 40
5.625
100
AcDbArc
 50
90.0
 51
270.0
  0
ARC
  5
20FCA
330
20CDF
100
AcDbEntity
  8
SUNPOU
100
AcDbCircle
 10
8337.527727734769
 20
5016.08385078625
 30
0.0
 40
5.625
100
AcDbArc
 50
270.0
 51
90.0
  0
ARC
  5
20FCB
330
20CDF
100
AcDbEntity
  8
SUNPOU
100
AcDbCircle
 10
7852.527727734766
 20
5816.08385078625
 30
0.0
 40
5.625
100
AcDbArc
 50
180.0
 51
0.0
  0
ARC
  5
20FCC
330
20CDF
100
AcDbEntity
  8
SUNPOU
100
AcDbCircle
 10
7852.527727734766
 20
5816.08385078625
 30
0.0
 40
5.625
100
AcDbArc
 50
0.0
 51
180.0
  0
ARC
  5
20FCD
330
20CDF
100
AcDbEntity
  8
SUNPOU
100
AcDbCircle
 10
7202.527727734774
 20
5816.08385078625
 30
0.0
 40
5.625
100
AcDbArc
 50
0.0
 51
180.0
  0
ARC
  5
20FCE
330
20CDF
100
AcDbEntity
  8
SUNPOU
100
AcDbCircle
 10
7202.527727734774
 20
5816.08385078625
 30
0.0
 40
5.625
100
AcDbArc
 50
180.0
 51
0.0
  0
TEXT
  5
20FCF
330
20CDF
100
AcDbEntity
  8
SUNPOU
100
AcDbText
 10
7604.313442020485
 20
4661.08385078625
 30
0.0
 40
90.0
  1
325
 41
0.6666666666666666
  7
00
100
AcDbText
  0
LINE
  5
20FD0
330
20CDF
100
AcDbEntity
  8
SUNPOU
100
AcDbLine
 10
7538.777727734774
 20
4616.08385078625
 30
0.0
 11
7550.027727734775
 21
4616.08385078625
 31
0.0
  0
LINE
  5
20FD1
330
20CDF
100
AcDbEntity
  8
SUNPOU
100
AcDbLine
 10
7841.277727734767
 20
4616.08385078625
 30
0.0
 11
7830.027727734767
 21
4616.08385078625
 31
0.0
  0
TEXT
  5
20FD2
330
20CDF
100
AcDbEntity
  8
SUNPOU
100
AcDbText
 10
5176.02056461939
 20
1169.631013336022
 30
0.0
 40
90.0
  1
100
 50
90.0
 41
0.6666666666666666
  7
00
100
AcDbText
  0
LINE
  5
20FD3
330
20CDF
100
AcDbEntity
  8
SUNPOU
100
AcDbLine
 10
5221.02056461939
 20
1403.738156193164
 30
0.0
 11
5221.02056461939
 21
1414.988156193164
 31
0.0
  0
LINE
  5
20FD4
330
20CDF
100
AcDbEntity
  8
SUNPOU
100
AcDbLine
 10
5221.02056461939
 20
1531.238156193162
 30
0.0
 11
5221.02056461939
 21
1519.988156193162
 31
0.0
  0
TEXT
  5
20FD5
330
20CDF
100
AcDbEntity
  8
SUNPOU
100
AcDbText
 10
5176.02056461939
 20
1831.773870478877
 30
0.0
 40
90.0
  1
500
 50
90.0
 41
0.6666666666666666
  7
00
100
AcDbText
  0
LINE
  5
20FD6
330
20CDF
100
AcDbEntity
  8
SUNPOU
100
AcDbLine
 10
5221.02056461939
 20
1553.738156193163
 30
0.0
 11
5221.02056461939
 21
1564.988156193162
 31
0.0
  0
LINE
  5
20FD7
330
20CDF
100
AcDbEntity
  8
SUNPOU
100
AcDbLine
 10
5221.020564619391
 20
2281.238156193162
 30
0.0
 11
5221.020564619391
 21
2269.988156193162
 31
0.0
  0
TEXT
  5
20FD8
330
20CDF
100
AcDbEntity
  8
SUNPOU
100
AcDbText
 10
3133.877707476535
 20
1107.488156193162
 30
0.0
 40
90.0
  1
650
 41
0.6666666666666666
  7
00
100
AcDbText
  0
LINE
  5
20FD9
330
20CDF
100
AcDbEntity
  8
SUNPOU
100
AcDbLine
 10
3697.270564619394
 20
1062.488156193162
 30
0.0
 11
3686.020564619393
 21
1062.488156193162
 31
0.0
  0
LINE
  5
20FDA
330
20CDF
100
AcDbEntity
  8
SUNPOU
100
AcDbLine
 10
2744.770564619389
 20
1062.488156193162
 30
0.0
 11
2756.020564619389
 21
1062.488156193162
 31
0.0
  0
TEXT
  5
20FDB
330
20CDF
100
AcDbEntity
  8
SUNPOU
100
AcDbText
 10
3135.306278905103
 20
897.4881561931622
 30
0.0
 40
90.0
  1
850
 41
0.6666666666666666
  7
00
100
AcDbText
  0
LINE
  5
20FDC
330
20CDF
100
AcDbEntity
  8
SUNPOU
100
AcDbLine
 10
3847.270564619388
 20
852.4881561931623
 30
0.0
 11
3836.020564619389
 21
852.4881561931623
 31
0.0
  0
LINE
  5
20FDD
330
20CDF
100
AcDbEntity
  8
SUNPOU
100
AcDbLine
 10
2594.770564619392
 20
852.4881561931623
 30
0.0
 11
2606.020564619392
 21
852.4881561931623
 31
0.0
  0
TEXT
  5
20FDE
330
20CDF
100
AcDbEntity
  8
SUNPOU
100
AcDbText
 10
6013.242013449051
 20
4451.08385078625
 30
0.0
 40
90.0
  1
3450
 41
0.6666666666666666
  7
00
100
AcDbText
  0
LINE
  5
20FDF
330
20CDF
100
AcDbEntity
  8
SUNPOU
100
AcDbLine
 10
7841.277727734767
 20
4406.08385078625
 30
0.0
 11
7830.027727734767
 21
4406.08385078625
 31
0.0
  0
LINE
  5
20FE0
330
20CDF
100
AcDbEntity
  8
SUNPOU
100
AcDbLine
 10
4413.777727734763
 20
4406.08385078625
 30
0.0
 11
4425.027727734764
 21
4406.08385078625
 31
0.0
  0
TEXT
  5
20FE1
330
20CDF
100
AcDbEntity
  8
SUNPOU
100
AcDbText
 10
6013.242013449053
 20
4661.08385078625
 30
0.0
 40
90.0
  1
2800
 41
0.6666666666666666
  7
00
100
AcDbText
  0
LINE
  5
20FE2
330
20CDF
100
AcDbEntity
  8
SUNPOU
100
AcDbLine
 10
7516.277727734767
 20
4616.08385078625
 30
0.0
 11
7505.027727734767
 21
4616.08385078625
 31
0.0
  0
LINE
  5
20FE3
330
20CDF
100
AcDbEntity
  8
SUNPOU
100
AcDbLine
 10
4738.777727734766
 20
4616.08385078625
 30
0.0
 11
4750.027727734766
 21
4616.08385078625
 31
0.0
  0
TEXT
  5
20FE4
330
20CDF
100
AcDbEntity
  8
SUNPOU
100
AcDbText
 10
4479.31344202048
 20
4661.08385078625
 30
0.0
 40
90.0
  1
325
 41
0.6666666666666666
  7
00
100
AcDbText
  0
LINE
  5
20FE5
330
20CDF
100
AcDbEntity
  8
SUNPOU
100
AcDbLine
 10
4716.277727734767
 20
4616.08385078625
 30
0.0
 11
4705.027727734766
 21
4616.08385078625
 31
0.0
  0
LINE
  5
20FE6
330
20CDF
100
AcDbEntity
  8
SUNPOU
100
AcDbLine
 10
4413.777727734763
 20
4616.08385078625
 30
0.0
 11
4425.027727734764
 21
4616.08385078625
 31
0.0
  0
ARC
  5
20FE7
330
20CDF
100
AcDbEntity
  8
SUNPOU
100
AcDbCircle
 10
7527.527727734774
 20
4616.08385078625
 30
0.0
 40
5.625
100
AcDbArc
 50
0.0
 51
180.0
  0
ARC
  5
20FE8
330
20CDF
100
AcDbEntity
  8
SUNPOU
100
AcDbCircle
 10
7527.527727734774
 20
4616.08385078625
 30
0.0
 40
5.625
100
AcDbArc
 50
180.0
 51
0.0
  0
ARC
  5
20FE9
330
20CDF
100
AcDbEntity
  8
SUNPOU
100
AcDbCircle
 10
7852.527727734766
 20
4616.08385078625
 30
0.0
 40
5.625
100
AcDbArc
 50
180.0
 51
0.0
  0
ARC
  5
20FEA
330
20CDF
100
AcDbEntity
  8
SUNPOU
100
AcDbCircle
 10
7852.527727734766
 20
4616.08385078625
 30
0.0
 40
5.625
100
AcDbArc
 50
0.0
 51
180.0
  0
ARC
  5
20FEB
330
20CDF
100
AcDbEntity
  8
SUNPOU
100
AcDbCircle
 10
5221.02056461939
 20
1392.488156193164
 30
0.0
 40
5.625
100
AcDbArc
 50
90.0
 51
270.0
  0
ARC
  5
20FEC
330
20CDF
100
AcDbEntity
  8
SUNPOU
100
AcDbCircle
 10
5221.02056461939
 20
1392.488156193164
 30
0.0
 40
5.625
100
AcDbArc
 50
270.0
 51
90.0
  0
ARC
  5
20FED
330
20CDF
100
AcDbEntity
  8
SUNPOU
100
AcDbCircle
 10
5221.02056461939
 20
1542.488156193162
 30
0.0
 40
5.625
100
AcDbArc
 50
270.0
 51
90.0
  0
ARC
  5
20FEE
330
20CDF
100
AcDbEntity
  8
SUNPOU
100
AcDbCircle
 10
5221.02056461939
 20
1542.488156193162
 30
0.0
 40
5.625
100
AcDbArc
 50
90.0
 51
270.0
  0
ARC
  5
20FEF
330
20CDF
100
AcDbEntity
  8
SUNPOU
100
AcDbCircle
 10
5221.02056461939
 20
1542.488156193162
 30
0.0
 40
5.625
100
AcDbArc
 50
90.0
 51
270.0
  0
ARC
  5
20FF0
330
20CDF
100
AcDbEntity
  8
SUNPOU
100
AcDbCircle
 10
5221.02056461939
 20
1542.488156193162
 30
0.0
 40
5.625
100
AcDbArc
 50
270.0
 51
90.0
  0
ARC
  5
20FF1
330
20CDF
100
AcDbEntity
  8
SUNPOU
100
AcDbCircle
 10
5221.020564619391
 20
2292.488156193162
 30
0.0
 40
5.625
100
AcDbArc
 50
270.0
 51
90.0
  0
ARC
  5
20FF2
330
20CDF
100
AcDbEntity
  8
SUNPOU
100
AcDbCircle
 10
5221.020564619391
 20
2292.488156193162
 30
0.0
 40
5.625
100
AcDbArc
 50
90.0
 51
270.0
  0
ARC
  5
20FF3
330
20CDF
100
AcDbEntity
  8
SUNPOU
100
AcDbCircle
 10
3708.520564619394
 20
1062.488156193162
 30
0.0
 40
5.625
100
AcDbArc
 50
180.0
 51
0.0
  0
ARC
  5
20FF4
330
20CDF
100
AcDbEntity
  8
SUNPOU
100
AcDbCircle
 10
3708.520564619394
 20
1062.488156193162
 30
0.0
 40
5.625
100
AcDbArc
 50
0.0
 51
180.0
  0
ARC
  5
20FF5
330
20CDF
100
AcDbEntity
  8
SUNPOU
100
AcDbCircle
 10
2733.520564619389
 20
1062.488156193162
 30
0.0
 40
5.625
100
AcDbArc
 50
0.0
 51
180.0
  0
ARC
  5
20FF6
330
20CDF
100
AcDbEntity
  8
SUNPOU
100
AcDbCircle
 10
2733.520564619389
 20
1062.488156193162
 30
0.0
 40
5.625
100
AcDbArc
 50
180.0
 51
0.0
  0
ARC
  5
20FF7
330
20CDF
100
AcDbEntity
  8
SUNPOU
100
AcDbCircle
 10
3858.520564619388
 20
852.4881561931623
 30
0.0
 40
5.625
100
AcDbArc
 50
180.0
 51
0.0
  0
ARC
  5
20FF8
330
20CDF
100
AcDbEntity
  8
SUNPOU
100
AcDbCircle
 10
3858.520564619388
 20
852.4881561931623
 30
0.0
 40
5.625
100
AcDbArc
 50
0.0
 51
180.0
  0
ARC
  5
20FF9
330
20CDF
100
AcDbEntity
  8
SUNPOU
100
AcDbCircle
 10
2583.520564619391
 20
852.4881561931623
 30
0.0
 40
5.625
100
AcDbArc
 50
0.0
 51
180.0
  0
ARC
  5
20FFA
330
20CDF
100
AcDbEntity
  8
SUNPOU
100
AcDbCircle
 10
2583.520564619391
 20
852.4881561931623
 30
0.0
 40
5.625
100
AcDbArc
 50
180.0
 51
0.0
  0
ARC
  5
20FFB
330
20CDF
100
AcDbEntity
  8
SUNPOU
100
AcDbCircle
 10
7852.527727734766
 20
4406.08385078625
 30
0.0
 40
5.625
100
AcDbArc
 50
180.0
 51
0.0
  0
ARC
  5
20FFC
330
20CDF
100
AcDbEntity
  8
SUNPOU
100
AcDbCircle
 10
7852.527727734766
 20
4406.08385078625
 30
0.0
 40
5.625
100
AcDbArc
 50
0.0
 51
180.0
  0
ARC
  5
20FFD
330
20CDF
100
AcDbEntity
  8
SUNPOU
100
AcDbCircle
 10
4402.527727734763
 20
4406.08385078625
 30
0.0
 40
5.625
100
AcDbArc
 50
0.0
 51
180.0
  0
ARC
  5
20FFE
330
20CDF
100
AcDbEntity
  8
SUNPOU
100
AcDbCircle
 10
4402.527727734763
 20
4406.08385078625
 30
0.0
 40
5.625
100
AcDbArc
 50
180.0
 51
0.0
  0
ARC
  5
20FFF
330
20CDF
100
AcDbEntity
  8
SUNPOU
100
AcDbCircle
 10
7527.527727734768
 20
4616.08385078625
 30
0.0
 40
5.625
100
AcDbArc
 50
180.0
 51
0.0
  0
ARC
  5
21000
330
20CDF
100
AcDbEntity
  8
SUNPOU
100
AcDbCircle
 10
7527.527727734768
 20
4616.08385078625
 30
0.0
 40
5.625
100
AcDbArc
 50
0.0
 51
180.0
  0
ARC
  5
21001
330
20CDF
100
AcDbEntity
  8
SUNPOU
100
AcDbCircle
 10
4727.527727734766
 20
4616.08385078625
 30
0.0
 40
5.625
100
AcDbArc
 50
0.0
 51
180.0
  0
ARC
  5
21002
330
20CDF
100
AcDbEntity
  8
SUNPOU
100
AcDbCircle
 10
4727.527727734766
 20
4616.08385078625
 30
0.0
 40
5.625
100
AcDbArc
 50
180.0
 51
0.0
  0
ARC
  5
21003
330
20CDF
100
AcDbEntity
  8
SUNPOU
100
AcDbCircle
 10
4727.527727734766
 20
4616.08385078625
 30
0.0
 40
5.625
100
AcDbArc
 50
180.0
 51
0.0
  0
ARC
  5
21004
330
20CDF
100
AcDbEntity
  8
SUNPOU
100
AcDbCircle
 10
4727.527727734766
 20
4616.08385078625
 30
0.0
 40
5.625
100
AcDbArc
 50
0.0
 51
180.0
  0
ARC
  5
21005
330
20CDF
100
AcDbEntity
  8
SUNPOU
100
AcDbCircle
 10
4402.527727734763
 20
4616.08385078625
 30
0.0
 40
5.625
100
AcDbArc
 50
0.0
 51
180.0
  0
ARC
  5
21006
330
20CDF
100
AcDbEntity
  8
SUNPOU
100
AcDbCircle
 10
4402.527727734763
 20
4616.08385078625
 30
0.0
 40
5.625
100
AcDbArc
 50
180.0
 51
0.0
  0
ARC
  5
21007
330
20CDF
100
AcDbEntity
  8
HIKIDASHI
100
AcDbCircle
 10
3221.02056461939
 20
1617.488156193163
 30
0.0
 40
4.5
100
AcDbArc
 50
180.0
 51
0.0
  0
ARC
  5
21008
330
20CDF
100
AcDbEntity
  8
HIKIDASHI
100
AcDbCircle
 10
3221.02056461939
 20
1617.488156193163
 30
0.0
 40
4.5
100
AcDbArc
 50
0.0
 51
180.0
  0
LINE
  5
21009
330
20CDF
100
AcDbEntity
  8
HIKIDASHI
100
AcDbLine
 10
4793.547158773762
 20
6525.919442582746
 30
0.0
 11
5002.400204585955
 21
6873.385295048665
 31
0.0
1001
ACAD
1000
DSTYLE
1002
{
1070
   147
1040
1.5
1070
    77
1070
     0
1002
}
  0
LINE
  5
2100A
330
20CDF
100
AcDbEntity
  8
HIKIDASHI
100
AcDbLine
 10
4780.69086632782
 20
6533.647038880717
 30
0.0
 11
4747.181580985933
 21
6448.781687907095
 31
0.0
  0
LINE
  5
2100B
330
20CDF
100
AcDbEntity
  8
HIKIDASHI
100
AcDbLine
 10
4747.181580985933
 20
6448.781687907095
 30
0.0
 11
4806.403451219704
 21
6518.191846284773
 31
0.0
  0
SOLID
  5
2100C
330
20CDF
100
AcDbEntity
  8
HIKIDASHI
100
AcDbTrace
 10
4780.69086632782
 20
6533.647038880717
 30
0.0
 11
4806.403451219704
 21
6518.191846284773
 31
0.0
 12
4747.181580985933
 22
6448.781687907095
 32
0.0
 13
4747.181580985933
 23
6448.781687907095
 33
0.0
  0
LINE
  5
2100D
330
20CDF
100
AcDbEntity
  8
HIKIDASHI
100
AcDbLine
 10
4806.403451219704
 20
6518.191846284773
 30
0.0
 11
4780.69086632782
 21
6533.647038880717
 31
0.0
  0
LINE
  5
2100E
330
20CDF
100
AcDbEntity
  8
HATCH
100
AcDbLine
 10
2615.219294430191
 20
1392.488156193159
 30
0.0
 11
2701.821834808629
 21
1542.488156193147
 31
0.0
  0
LINE
  5
2100F
330
20CDF
100
AcDbEntity
  8
HATCH
100
AcDbLine
 10
2641.821834808634
 20
1542.488156193146
 30
0.0
 11
2671.821834808632
 21
1490.526631966087
 31
0.0
  0
LINE
  5
21010
330
20CDF
100
AcDbEntity
  8
HATCH
100
AcDbLine
 10
2645.219294430189
 20
1444.449680420223
 30
0.0
 11
2675.219294430188
 21
1392.488156193159
 31
0.0
  0
LINE
  5
21011
330
20CDF
100
AcDbEntity
  8
HATCH
100
AcDbLine
 10
2802.719294430191
 20
1392.488156193159
 30
0.0
 11
2889.321834808629
 21
1542.488156193148
 31
0.0
  0
LINE
  5
21012
330
20CDF
100
AcDbEntity
  8
HATCH
100
AcDbLine
 10
2829.321834808633
 20
1542.488156193146
 30
0.0
 11
2859.321834808631
 21
1490.526631966088
 31
0.0
  0
LINE
  5
21013
330
20CDF
100
AcDbEntity
  8
HATCH
100
AcDbLine
 10
2832.719294430189
 20
1444.449680420223
 30
0.0
 11
2862.719294430186
 21
1392.488156193159
 31
0.0
  0
LINE
  5
21014
330
20CDF
100
AcDbEntity
  8
HATCH
100
AcDbLine
 10
3740.219294430194
 20
1392.488156193161
 30
0.0
 11
3826.821834808632
 21
1542.48815619315
 31
0.0
  0
LINE
  5
21015
330
20CDF
100
AcDbEntity
  8
HATCH
100
AcDbLine
 10
3766.821834808637
 20
1542.488156193149
 30
0.0
 11
3796.821834808634
 21
1490.52663196609
 31
0.0
  0
LINE
  5
21016
330
20CDF
100
AcDbEntity
  8
HATCH
100
AcDbLine
 10
3770.219294430193
 20
1444.449680420224
 30
0.0
 11
3800.21929443019
 21
1392.488156193161
 31
0.0
  0
LINE
  5
21017
330
20CDF
100
AcDbEntity
  8
HATCH
100
AcDbLine
 10
3552.719294430193
 20
1392.488156193161
 30
0.0
 11
3639.321834808632
 21
1542.48815619315
 31
0.0
  0
LINE
  5
21018
330
20CDF
100
AcDbEntity
  8
HATCH
100
AcDbLine
 10
3579.321834808635
 20
1542.488156193149
 30
0.0
 11
3609.321834808633
 21
1490.52663196609
 31
0.0
  0
LINE
  5
21019
330
20CDF
100
AcDbEntity
  8
HATCH
100
AcDbLine
 10
3582.719294430191
 20
1444.449680420224
 30
0.0
 11
3612.719294430188
 21
1392.488156193161
 31
0.0
  0
LINE
  5
2101A
330
20CDF
100
AcDbEntity
  8
HATCH
100
AcDbLine
 10
3177.719294430192
 20
1392.488156193161
 30
0.0
 11
3264.32183480863
 21
1542.48815619315
 31
0.0
  0
LINE
  5
2101B
330
20CDF
100
AcDbEntity
  8
HATCH
100
AcDbLine
 10
3204.321834808633
 20
1542.488156193149
 30
0.0
 11
3234.321834808632
 21
1490.52663196609
 31
0.0
  0
LINE
  5
2101C
330
20CDF
100
AcDbEntity
  8
HATCH
100
AcDbLine
 10
3207.719294430189
 20
1444.449680420224
 30
0.0
 11
3237.719294430187
 21
1392.488156193161
 31
0.0
  0
LINE
  5
2101D
330
20CDF
100
AcDbEntity
  8
HATCH
100
AcDbLine
 10
2990.219294430191
 20
1392.488156193161
 30
0.0
 11
3076.821834808629
 21
1542.48815619315
 31
0.0
  0
LINE
  5
2101E
330
20CDF
100
AcDbEntity
  8
HATCH
100
AcDbLine
 10
3016.821834808633
 20
1542.488156193149
 30
0.0
 11
3046.821834808631
 21
1490.52663196609
 31
0.0
  0
LINE
  5
2101F
330
20CDF
100
AcDbEntity
  8
HATCH
100
AcDbLine
 10
3020.219294430189
 20
1444.449680420224
 30
0.0
 11
3050.219294430186
 21
1392.488156193161
 31
0.0
  0
LINE
  5
21020
330
20CDF
100
AcDbEntity
  8
HATCH
100
AcDbLine
 10
3365.219294430192
 20
1392.488156193161
 30
0.0
 11
3451.82183480863
 21
1542.48815619315
 31
0.0
  0
LINE
  5
21021
330
20CDF
100
AcDbEntity
  8
HATCH
100
AcDbLine
 10
3391.821834808635
 20
1542.488156193149
 30
0.0
 11
3421.821834808632
 21
1490.52663196609
 31
0.0
  0
LINE
  5
21022
330
20CDF
100
AcDbEntity
  8
HATCH
100
AcDbLine
 10
3395.219294430191
 20
1444.449680420224
 30
0.0
 11
3425.219294430188
 21
1392.488156193161
 31
0.0
  0
LINE
  5
21023
330
20CDF
100
AcDbEntity
  8
HATCH
100
AcDbLine
 10
4969.059040392431
 20
2067.488156193165
 30
0.0
 11
5021.020564619539
 21
2157.488156193236
 31
0.0
  0
LINE
  5
21024
330
20CDF
100
AcDbEntity
  8
HATCH
100
AcDbLine
 10
4985.02056461951
 20
2157.488156193236
 30
0.0
 11
5003.020564619525
 21
2126.311241656972
 31
0.0
  0
LINE
  5
21025
330
20CDF
100
AcDbEntity
  8
HATCH
100
AcDbLine
 10
4987.059040392445
 20
2098.66507072943
 30
0.0
 11
5005.05904039246
 21
2067.488156193165
 31
0.0
  0
LINE
  5
21026
330
20CDF
100
AcDbEntity
  8
HATCH
100
AcDbLine
 10
4834.059040392431
 20
2067.488156193165
 30
0.0
 11
4886.020564619538
 21
2157.488156193236
 31
0.0
  0
LINE
  5
21027
330
20CDF
100
AcDbEntity
  8
HATCH
100
AcDbLine
 10
4850.02056461951
 20
2157.488156193236
 30
0.0
 11
4868.020564619524
 21
2126.311241656972
 31
0.0
  0
LINE
  5
21028
330
20CDF
100
AcDbEntity
  8
HATCH
100
AcDbLine
 10
4852.059040392445
 20
2098.66507072943
 30
0.0
 11
4870.05904039246
 21
2067.488156193165
 31
0.0
  0
LINE
  5
21029
330
20CDF
100
AcDbEntity
  8
HATCH
100
AcDbLine
 10
4699.059040392429
 20
2067.488156193165
 30
0.0
 11
4751.02056461954
 21
2157.488156193236
 31
0.0
  0
LINE
  5
2102A
330
20CDF
100
AcDbEntity
  8
HATCH
100
AcDbLine
 10
4715.02056461951
 20
2157.488156193236
 30
0.0
 11
4733.020564619525
 21
2126.311241656972
 31
0.0
  0
LINE
  5
2102B
330
20CDF
100
AcDbEntity
  8
HATCH
100
AcDbLine
 10
4717.059040392443
 20
2098.66507072943
 30
0.0
 11
4735.059040392457
 21
2067.488156193165
 31
0.0
  0
LINE
  5
2102C
330
20CDF
100
AcDbEntity
  8
HATCH
100
AcDbLine
 10
4429.059040392429
 20
2067.488156193165
 30
0.0
 11
4481.020564619539
 21
2157.488156193236
 31
0.0
  0
LINE
  5
2102D
330
20CDF
100
AcDbEntity
  8
HATCH
100
AcDbLine
 10
4445.02056461951
 20
2157.488156193236
 30
0.0
 11
4463.020564619523
 21
2126.311241656972
 31
0.0
  0
LINE
  5
2102E
330
20CDF
100
AcDbEntity
  8
HATCH
100
AcDbLine
 10
4447.059040392445
 20
2098.66507072943
 30
0.0
 11
4465.05904039246
 21
2067.488156193165
 31
0.0
  0
LINE
  5
2102F
330
20CDF
100
AcDbEntity
  8
HATCH
100
AcDbLine
 10
4564.059040392431
 20
2067.488156193164
 30
0.0
 11
4616.020564619539
 21
2157.488156193236
 31
0.0
  0
LINE
  5
21030
330
20CDF
100
AcDbEntity
  8
HATCH
100
AcDbLine
 10
4580.02056461951
 20
2157.488156193235
 30
0.0
 11
4598.020564619523
 21
2126.311241656972
 31
0.0
  0
LINE
  5
21031
330
20CDF
100
AcDbEntity
  8
HATCH
100
AcDbLine
 10
4582.059040392445
 20
2098.66507072943
 30
0.0
 11
4600.059040392458
 21
2067.488156193164
 31
0.0
  0
LINE
  5
21032
330
20CDF
100
AcDbEntity
  8
HATCH
100
AcDbLine
 10
4159.059040392429
 20
2067.488156193165
 30
0.0
 11
4211.020564619539
 21
2157.488156193236
 31
0.0
  0
LINE
  5
21033
330
20CDF
100
AcDbEntity
  8
HATCH
100
AcDbLine
 10
4175.02056461951
 20
2157.488156193236
 30
0.0
 11
4193.020564619525
 21
2126.311241656972
 31
0.0
  0
LINE
  5
21034
330
20CDF
100
AcDbEntity
  8
HATCH
100
AcDbLine
 10
4177.059040392445
 20
2098.66507072943
 30
0.0
 11
4195.05904039246
 21
2067.488156193165
 31
0.0
  0
LINE
  5
21035
330
20CDF
100
AcDbEntity
  8
HATCH
100
AcDbLine
 10
4024.059040392431
 20
2067.488156193164
 30
0.0
 11
4076.020564619539
 21
2157.488156193236
 31
0.0
  0
LINE
  5
21036
330
20CDF
100
AcDbEntity
  8
HATCH
100
AcDbLine
 10
4040.020564619509
 20
2157.488156193235
 30
0.0
 11
4058.020564619524
 21
2126.311241656972
 31
0.0
  0
LINE
  5
21037
330
20CDF
100
AcDbEntity
  8
HATCH
100
AcDbLine
 10
4042.059040392445
 20
2098.66507072943
 30
0.0
 11
4060.059040392459
 21
2067.488156193164
 31
0.0
  0
LINE
  5
21038
330
20CDF
100
AcDbEntity
  8
HATCH
100
AcDbLine
 10
3889.059040392431
 20
2067.488156193164
 30
0.0
 11
3941.020564619539
 21
2157.488156193236
 31
0.0
  0
LINE
  5
21039
330
20CDF
100
AcDbEntity
  8
HATCH
100
AcDbLine
 10
3905.02056461951
 20
2157.488156193235
 30
0.0
 11
3923.020564619525
 21
2126.311241656972
 31
0.0
  0
LINE
  5
2103A
330
20CDF
100
AcDbEntity
  8
HATCH
100
AcDbLine
 10
3907.059040392446
 20
2098.66507072943
 30
0.0
 11
3925.05904039246
 21
2067.488156193164
 31
0.0
  0
LINE
  5
2103B
330
20CDF
100
AcDbEntity
  8
HATCH
100
AcDbLine
 10
3754.059040392429
 20
2067.488156193164
 30
0.0
 11
3806.020564619539
 21
2157.488156193236
 31
0.0
  0
LINE
  5
2103C
330
20CDF
100
AcDbEntity
  8
HATCH
100
AcDbLine
 10
3770.02056461951
 20
2157.488156193235
 30
0.0
 11
3788.020564619524
 21
2126.311241656972
 31
0.0
  0
LINE
  5
2103D
330
20CDF
100
AcDbEntity
  8
HATCH
100
AcDbLine
 10
3772.059040392445
 20
2098.66507072943
 30
0.0
 11
3790.059040392459
 21
2067.488156193164
 31
0.0
  0
LINE
  5
2103E
330
20CDF
100
AcDbEntity
  8
HATCH
100
AcDbLine
 10
2471.020564619497
 20
2067.48815619316
 30
0.0
 11
2522.982088846605
 21
2157.488156193231
 31
0.0
  0
LINE
  5
2103F
330
20CDF
100
AcDbEntity
  8
HATCH
100
AcDbLine
 10
2486.982088846577
 20
2157.488156193231
 30
0.0
 11
2504.982088846591
 21
2126.311241656968
 31
0.0
  0
LINE
  5
21040
330
20CDF
100
AcDbEntity
  8
HATCH
100
AcDbLine
 10
2489.020564619512
 20
2098.665070729426
 30
0.0
 11
2507.020564619525
 21
2067.48815619316
 31
0.0
  0
LINE
  5
21041
330
20CDF
100
AcDbEntity
  8
HATCH
100
AcDbLine
 10
2606.020564619497
 20
2067.48815619316
 30
0.0
 11
2657.982088846605
 21
2157.488156193231
 31
0.0
  0
LINE
  5
21042
330
20CDF
100
AcDbEntity
  8
HATCH
100
AcDbLine
 10
2621.982088846577
 20
2157.488156193231
 30
0.0
 11
2639.982088846591
 21
2126.311241656968
 31
0.0
  0
LINE
  5
21043
330
20CDF
100
AcDbEntity
  8
HATCH
100
AcDbLine
 10
2624.020564619512
 20
2098.665070729426
 30
0.0
 11
2642.020564619525
 21
2067.48815619316
 31
0.0
  0
LINE
  5
21044
330
20CDF
100
AcDbEntity
  8
HATCH
100
AcDbLine
 10
4294.059040392431
 20
2067.488156193164
 30
0.0
 11
4346.020564619538
 21
2157.488156193236
 31
0.0
  0
LINE
  5
21045
330
20CDF
100
AcDbEntity
  8
HATCH
100
AcDbLine
 10
4310.020564619509
 20
2157.488156193235
 30
0.0
 11
4328.020564619524
 21
2126.311241656972
 31
0.0
  0
LINE
  5
21046
330
20CDF
100
AcDbEntity
  8
HATCH
100
AcDbLine
 10
4312.059040392445
 20
2098.66507072943
 30
0.0
 11
4330.05904039246
 21
2067.488156193164
 31
0.0
  0
LINE
  5
21047
330
20CDF
100
AcDbEntity
  8
U2
100
AcDbLine
 10
4402.527727734763
 20
6091.083850786253
 30
0.0
 11
5052.527727734763
 21
6091.083850786253
 31
0.0
  0
LINE
  5
21048
330
20CDF
100
AcDbEntity
  8
U2
100
AcDbLine
 10
5052.527727734763
 20
6091.083850786253
 30
0.0
 11
5052.527727734763
 21
6741.083850786252
 31
0.0
  0
LINE
  5
21049
330
20CDF
100
AcDbEntity
  8
U2
100
AcDbLine
 10
5052.527727734763
 20
6741.083850786252
 30
0.0
 11
4402.527727734763
 21
6741.083850786252
 31
0.0
  0
LINE
  5
2104A
330
20CDF
100
AcDbEntity
  8
U2
100
AcDbLine
 10
4402.527727734763
 20
6741.083850786252
 30
0.0
 11
4402.527727734763
 21
6091.083850786253
 31
0.0
  0
LINE
  5
2104B
330
20CDF
100
AcDbEntity
  8
U2
100
AcDbLine
 10
7202.527727734774
 20
6091.083850786242
 30
0.0
 11
7852.527727734781
 21
6091.083850786242
 31
0.0
  0
LINE
  5
2104C
330
20CDF
100
AcDbEntity
  8
U2
100
AcDbLine
 10
7852.527727734781
 20
6091.083850786242
 30
0.0
 11
7852.527727734781
 21
6741.083850786242
 31
0.0
  0
LINE
  5
2104D
330
20CDF
100
AcDbEntity
  8
U2
100
AcDbLine
 10
7852.527727734781
 20
6741.083850786242
 30
0.0
 11
7202.527727734774
 21
6741.083850786242
 31
0.0
  0
LINE
  5
2104E
330
20CDF
100
AcDbEntity
  8
U2
100
AcDbLine
 10
7202.527727734774
 20
6741.083850786242
 30
0.0
 11
7202.527727734774
 21
6091.083850786242
 31
0.0
  0
TEXT
  5
21070
330
20CDF
100
AcDbEntity
  8
SUNPOU
100
AcDbText
 10
6735.705341416438
 20
3065.266560995258
 30
0.0
 40
120.0
  1
基礎断面図
  7
01
 72
     4
 11
7075.705341416439
 21
3125.266560995258
 31
0.0
100
AcDbText
  0
TEXT
  5
21071
330
20CDF
100
AcDbEntity
  8
SUNPOU
100
AcDbText
 10
6610.34819855929
 20
2907.766560995259
 30
0.0
 40
90.0
  1
<下記条件での参考図>
  7
01
 72
     4
 11
7199.205341416433
 21
2952.766560995259
 31
0.0
100
AcDbText
  0
TEXT
  5
21072
330
20CDF
100
AcDbEntity
  8
SUNPOU
100
AcDbText
 10
6740.911827275522
 20
2718.512558549301
 30
0.0
 40
89.9993750043402
  1
地耐力   　　　 以上,コンクリート設計基準強度　　　　　以上
  7
01
100
AcDbText
  0
TEXT
  5
21073
330
20CDF
100
AcDbEntity
  8
SUNPOU
100
AcDbText
 10
6740.911827275522
 20
2564.226844263588
 30
0.0
 40
89.9993750043402
  1
基準風速   　　 , 地表面粗度区分
  7
01
100
AcDbText
  0
ARC
  5
21074
330
20CDF
100
AcDbEntity
  8
SUNPOU
100
AcDbCircle
 10
6893.870101182729
 20
2682.299981991133
 30
0.0
 40
225.0
100
AcDbArc
 50
148.3472725282539
 51
211.652727471746
  0
TEXT
  5
21075
330
20CDF
100
AcDbEntity
  8
SUNPOU
100
AcDbText
 10
7115.867572364914
 20
2339.226844263588
 30
0.0
 40
90.0
  1
寒冷地の場合、凍結深度等を考慮し、実情に
  7
01
100
AcDbText
  0
TEXT
  5
21076
330
20CDF
100
AcDbEntity
  8
SUNPOU
100
AcDbText
 10
7115.867572364914
 20
2030.655415692162
 30
0.0
 40
90.0
  1
その他現地の実情にあわせて設計して下さい。
  7
01
100
AcDbText
  0
TEXT
  5
21077
330
20CDF
100
AcDbEntity
  8
SUNPOU
100
AcDbText
 10
7452.555678779411
 20
3077.574253302951
 30
0.0
 40
92.30769230769228
  1
（ S = 　　  ）
 41
0.6700000000000001
  7
00
 11
7452.555678779411
 21
3065.266560995259
 31
0.0
100
AcDbText
 73
     1
  0
TEXT
  5
21078
330
20CDF
100
AcDbEntity
  8
SUNPOU
100
AcDbText
 10
7115.867572364914
 20
2184.941129977873
 30
0.0
 40
90.0
  1
あわせて設計して下さい。
  7
01
100
AcDbText
  0
TEXT
  5
21079
330
20CDF
100
AcDbEntity
  8
SUNPOU
100
AcDbText
 10
7115.170234700599
 20
2718.512558549301
 30
0.0
 40
89.9993750043402
  1
50  N/m
 41
0.6700000000000001
  7
01
100
AcDbText
  0
TEXT
  5
2107A
330
20CDF
100
AcDbEntity
  8
SUNPOU
100
AcDbText
 10
7224.675255940688
 20
2564.226844263588
 30
0.0
 40
89.9993750043402
  1
34 m/s
 41
0.6700000000000001
  7
01
100
AcDbText
  0
TEXT
  5
2107B
330
20CDF
100
AcDbEntity
  8
SUNPOU
100
AcDbText
 10
6909.661827275524
 20
2339.226844263588
 30
0.0
 40
90.0
  1
1
 41
0.6700000000000001
  7
01
100
AcDbText
  0
TEXT
  5
2107C
330
20CDF
100
AcDbEntity
  8
SUNPOU
100
AcDbText
 10
6799.027907062781
 20
2339.226844263588
 30
0.0
 40
90.0
  1
注　）
  7
01
100
AcDbText
  0
TEXT
  5
2107D
330
20CDF
100
AcDbEntity
  8
SUNPOU
100
AcDbText
 10
6799.027907062781
 20
2030.655415692162
 30
0.0
 40
90.0
  1
注　）
  7
01
100
AcDbText
  0
TEXT
  5
2107E
330
20CDF
100
AcDbEntity
  8
SUNPOU
100
AcDbText
 10
6909.661827275524
 20
2030.655415692162
 30
0.0
 40
90.0
  1
2
 41
0.6700000000000001
  7
01
100
AcDbText
  0
TEXT
  5
2107F
330
20CDF
100
AcDbEntity
  8
SUNPOU
100
AcDbText
 10
7251.006687486558
 20
2718.512558549301
 30
0.0
 40
71.99950000347218
  1
K
 41
0.6700000000000001
  7
01
100
AcDbText
  0
TEXT
  5
21080
330
20CDF
100
AcDbEntity
  8
SUNPOU
100
AcDbText
 10
7518.646844214941
 20
2768.700984906789
 30
0.0
 40
46.28539285937494
  1
2
 41
0.6700000000000001
  7
00
100
AcDbText
  0
LINE
  5
21081
330
20CDF
100
AcDbEntity
  8
SUNPOU
100
AcDbLine
 10
8532.727388842131
 20
2647.71920796237
 30
0.0
 11
8588.977388842133
 21
2647.71920796237
 31
0.0
  0
LINE
  5
21082
330
20CDF
100
AcDbEntity
  8
SUNPOU
100
AcDbLine
 10
8532.727388842131
 20
2564.226844263586
 30
0.0
 11
8588.977388842133
 21
2564.226844263586
 31
0.0
  0
LINE
  5
21083
330
20CDF
100
AcDbEntity
  8
SUNPOU
100
AcDbLine
 10
8543.977388842133
 20
2564.226844263588
 30
0.0
 11
8543.977388842133
 21
2647.71920796237
 31
0.0
  0
LINE
  5
21084
330
20CDF
100
AcDbEntity
  8
SUNPOU
100
AcDbLine
 10
8560.852388842134
 20
2564.226844263588
 30
0.0
 11
8560.852388842134
 21
2647.71920796237
 31
0.0
  0
LINE
  5
21085
330
20CDF
100
AcDbEntity
  8
SUNPOU
100
AcDbLine
 10
8577.727388842129
 20
2564.226844263588
 30
0.0
 11
8577.727388842129
 21
2647.71920796237
 31
0.0
  0
TEXT
  5
21086
330
20CDF
100
AcDbEntity
  8
SUNPOU
100
AcDbText
 10
7772.25838063249
 20
3093.574253302951
 30
0.0
 40
73.84615384615381
  1
1
 41
0.6700000000000001
  7
00
 11
7772.25838063249
 21
3083.728099456797
 31
0.0
100
AcDbText
 73
     1
  0
TEXT
  5
21087
330
20CDF
100
AcDbEntity
  8
SUNPOU
100
AcDbText
 10
7820.66450794786
 20
3075.112714841413
 30
0.0
 40
73.84615384615381
  1
/
 41
0.6700000000000001
  7
00
 11
7820.66450794786
 21
3065.266560995259
 31
0.0
100
AcDbText
 73
     1
  0
TEXT
  5
21088
330
20CDF
100
AcDbEntity
  8
SUNPOU
100
AcDbText
 10
7884.613950902231
 20
3056.651176379874
 30
0.0
 40
73.84615384615381
  1
20
 41
0.6700000000000001
  7
00
 11
7884.613950902231
 21
3046.80502253372
 31
0.0
100
AcDbText
 73
     1
  0
TEXT
  5
21089
330
20CDF
100
AcDbEntity
  8
SUNPOU
100
AcDbText
 10
9291.829450361642
 20
2718.512558549301
 30
0.0
 40
89.9993750043402
  1
N/mm
 41
0.6700000000000001
  7
01
100
AcDbText
  0
TEXT
  5
2108A
330
20CDF
100
AcDbEntity
  8
SUNPOU
100
AcDbText
 10
9155.992997575685
 20
2718.512558549301
 30
0.0
 40
89.9993750043402
  1
18
 41
0.6700000000000001
  7
01
100
AcDbText
  0
TEXT
  5
2108B
330
20CDF
100
AcDbEntity
  8
SUNPOU
100
AcDbText
 10
9596.293932393056
 20
2768.700984906789
 30
0.0
 40
46.28539285937494
  1
2
 41
0.6700000000000001
  7
00
100
AcDbText
  0
ARC
  5
2108C
330
20CDF
100
AcDbEntity
  8
SUNPOU
100
AcDbCircle
 10
9720.214091989054
 20
2725.967052589766
 30
0.0
 40
225.0
100
AcDbArc
 50
328.3472725282539
 51
31.65272747174605
  0
ENDSEC
  0
SECTION
  2
OBJECTS
  0
DICTIONARY
  5
20CCD
330
0
100
AcDbDictionary
281
     1
  3
ACAD_GROUP
350
20CCE
  3
ACAD_LAYOUT
350
20CDA
  3
ACAD_MLINESTYLE
350
20CD7
  3
ACAD_PLOTSETTINGS
350
20CD9
  3
ACAD_PLOTSTYLENAME
350
20CCF
  3
AcDbVariableDictionary
350
2108D
  0
DICTIONARY
  5
20CCE
102
{ACAD_REACTORS
330
20CCD
102
}
330
20CCD
100
AcDbDictionary
281
     1
  0
DICTIONARY
  5
20CDA
102
{ACAD_REACTORS
330
20CCD
102
}
330
20CCD
100
AcDbDictionary
281
     1
  3
Model
350
20CE2
  3
ﾚｲｱｳﾄ1
350
20CDE
  0
DICTIONARY
  5
20CD7
102
{ACAD_REACTORS
330
20CCD
102
}
330
20CCD
100
AcDbDictionary
281
     1
  3
Standard
350
20CD8
  0
DICTIONARY
  5
20CD9
102
{ACAD_REACTORS
330
20CCD
102
}
330
20CCD
100
AcDbDictionary
281
     1
  0
ACDBDICTIONARYWDFLT
  5
20CCF
102
{ACAD_REACTORS
330
20CCD
102
}
330
20CCD
100
AcDbDictionary
281
     1
  3
Normal
350
20CD0
100
AcDbDictionaryWithDefault
340
20CD0
  0
DICTIONARY
  5
2108D
102
{ACAD_REACTORS
330
20CCD
102
}
330
20CCD
100
AcDbDictionary
281
     1
  3
DIMASSOC
350
2108E
  0
LAYOUT
  5
20CE2
102
{ACAD_REACTORS
330
20CDA
102
}
330
20CDA
100
AcDbPlotSettings
  1

  2
Muratec V-1200 Is@Web Printer
  4

  6

 40
0.0
 41
0.0
 42
0.0
 43
0.0
 44
0.0
 45
0.0
 46
0.0
 47
0.0
 48
0.0
 49
0.0
140
0.0
141
0.0
142
1.0
143
1.0
 70
  1712
 72
     0
 73
     0
 74
     0
  7

 75
     0
147
1.0
148
0.0
149
0.0
100
AcDbLayout
  1
Model
 70
     1
 71
     0
 10
0.0
 20
0.0
 11
12.0
 21
9.0
 12
0.0
 22
0.0
 32
0.0
 14
0.0
 24
0.0
 34
0.0
 15
0.0
 25
0.0
 35
0.0
146
0.0
 13
0.0
 23
0.0
 33
0.0
 16
1.0
 26
0.0
 36
0.0
 17
0.0
 27
1.0
 37
0.0
 76
     0
330
20CDF
  0
LAYOUT
  5
20CDE
102
{ACAD_REACTORS
330
20CDA
102
}
330
20CDA
100
AcDbPlotSettings
  1

  2
Muratec V-1200 Is@Web Printer
  4

  6

 40
0.0
 41
0.0
 42
0.0
 43
0.0
 44
0.0
 45
0.0
 46
0.0
 47
0.0
 48
0.0
 49
0.0
140
0.0
141
0.0
142
1.0
143
1.0
 70
   688
 72
     0
 73
     0
 74
     5
  7

 75
    16
147
1.0
148
0.0
149
0.0
100
AcDbLayout
  1
ﾚｲｱｳﾄ1
 70
     0
 71
     1
 10
0.0
 20
0.0
 11
12.0
 21
9.0
 12
0.0
 22
0.0
 32
0.0
 14
1.000000000000000E+20
 24
1.000000000000000E+20
 34
1.000000000000000E+20
 15
-1.000000000000000E+20
 25
-1.000000000000000E+20
 35
-1.000000000000000E+20
146
0.0
 13
0.0
 23
0.0
 33
0.0
 16
1.0
 26
0.0
 36
0.0
 17
0.0
 27
1.0
 37
0.0
 76
     0
330
20CDB
  0
MLINESTYLE
  5
20CD8
102
{ACAD_REACTORS
330
20CD7
102
}
330
20CD7
100
AcDbMlineStyle
  2
STANDARD
 70
     0
  3

 62
   256
 51
90.0
 52
90.0
 71
     2
 49
0.5
 62
   256
  6
BYLAYER
 49
-0.5
 62
   256
  6
BYLAYER
  0
ACDBPLACEHOLDER
  5
20CD0
102
{ACAD_REACTORS
330
20CCF
102
}
330
20CCF
  0
DICTIONARYVAR
  5
2108E
102
{ACAD_REACTORS
330
2108D
102
}
330
2108D
100
DictionaryVariables
280
     0
  1
1
  0
ENDSEC
  0
EOF
