  0
SECTION
  2
HEADER
  9
$ACADVER
  1
AC1015
  9
$ACADMAINTVER
 70
    13
  9
$DWGCODEPAGE
  3
ANSI_932
  9
$INSBASE
 10
267.0
 20
194.8999999999998
 30
0.0
  9
$EXTMIN
 10
325.4974662390304
 20
122.7681178119601
 30
-0.000000000000013
  9
$EXTMAX
 10
12286.99954069103
 20
8431.707478684501
 30
0.0000000000000023
  9
$LIMMIN
 10
0.0
 20
0.0
  9
$LIMMAX
 10
12600.0
 20
8910.0
  9
$ORTHOMODE
 70
     0
  9
$REGENMODE
 70
     1
  9
$FILLMODE
 70
     1
  9
$QTEXTMODE
 70
     0
  9
$MIRRTEXT
 70
     0
  9
$LTSCALE
 40
30.0
  9
$ATTMODE
 70
     1
  9
$TEXTSIZE
 40
0.2
  9
$TRACEWID
 40
0.05
  9
$TEXTSTYLE
  7
00
  9
$CLAYER
  8
SUNPOU
  9
$CELTYPE
  6
ByLayer
  9
$CECOLOR
 62
   256
  9
$CELTSCALE
 40
1.0
  9
$DISPSILH
 70
     0
  9
$DIMSCALE
 40
30.0
  9
$DIMASZ
 40
0.5
  9
$DIMEXO
 40
1.0
  9
$DIMDLI
 40
7.0
  9
$DIMRND
 40
0.0
  9
$DIMDLE
 40
3.0
  9
$DIMEXE
 40
1.5
  9
$DIMTP
 40
0.0
  9
$DIMTM
 40
0.0
  9
$DIMTXT
 40
3.0
  9
$DIMCEN
 40
0.0
  9
$DIMTSZ
 40
0.0
  9
$DIMTOL
 70
     0
  9
$DIMLIM
 70
     0
  9
$DIMTIH
 70
     0
  9
$DIMTOH
 70
     0
  9
$DIMSE1
 70
     0
  9
$DIMSE2
 70
     0
  9
$DIMTAD
 70
     1
  9
$DIMZIN
 70
     8
  9
$DIMBLK
  1
DOT
  9
$DIMASO
 70
     1
  9
$DIMSHO
 70
     0
  9
$DIMPOST
  1

  9
$DIMAPOST
  1

  9
$DIMALT
 70
     0
  9
$DIMALTD
 70
     2
  9
$DIMALTF
 40
25.4
  9
$DIMLFAC
 40
1.0
  9
$DIMTOFL
 70
     1
  9
$DIMTVP
 40
0.0
  9
$DIMTIX
 70
     0
  9
$DIMSOXD
 70
     0
  9
$DIMSAH
 70
     1
  9
$DIMBLK1
  1
DOT
  9
$DIMBLK2
  1
DOT
  9
$DIMSTYLE
  2
SUNPOU
  9
$DIMCLRD
 70
   256
  9
$DIMCLRE
 70
   256
  9
$DIMCLRT
 70
   256
  9
$DIMTFAC
 40
1.0
  9
$DIMGAP
 40
1.5
  9
$DIMJUST
 70
     0
  9
$DIMSD1
 70
     0
  9
$DIMSD2
 70
     0
  9
$DIMTOLJ
 70
     1
  9
$DIMTZIN
 70
     0
  9
$DIMALTZ
 70
     0
  9
$DIMALTTZ
 70
     0
  9
$DIMUPT
 70
     0
  9
$DIMDEC
 70
     4
  9
$DIMTDEC
 70
     4
  9
$DIMALTU
 70
     2
  9
$DIMALTTD
 70
     2
  9
$DIMTXSTY
  7
STANDARD
  9
$DIMAUNIT
 70
     0
  9
$DIMADEC
 70
     0
  9
$DIMALTRND
 40
0.0
  9
$DIMAZIN
 70
     0
  9
$DIMDSEP
 70
    46
  9
$DIMATFIT
 70
     3
  9
$DIMFRAC
 70
     0
  9
$DIMLDRBLK
  1
DOT
  9
$DIMLUNIT
 70
     2
  9
$DIMLWD
 70
    -2
  9
$DIMLWE
 70
    -2
  9
$DIMTMOVE
 70
     0
  9
$LUNITS
 70
     2
  9
$LUPREC
 70
     2
  9
$SKETCHINC
 40
0.1
  9
$FILLETRAD
 40
5.0
  9
$AUNITS
 70
     0
  9
$AUPREC
 70
     0
  9
$MENU
  1
A:\TIGER\MENU\TIGER
  9
$ELEVATION
 40
0.0
  9
$PELEVATION
 40
0.0
  9
$THICKNESS
 40
0.0
  9
$LIMCHECK
 70
     0
  9
$CHAMFERA
 40
0.0
  9
$CHAMFERB
 40
0.0
  9
$CHAMFERC
 40
0.0
  9
$CHAMFERD
 40
0.0
  9
$SKPOLY
 70
     0
  9
$TDCREATE
 40
2450266.571064815
  9
$TDUCREATE
 40
2450266.196064815
  9
$TDUPDATE
 40
2456330.308208368
  9
$TDUUPDATE
 40
2456329.933208368
  9
$TDINDWG
 40
0.1575420023
  9
$TDUSRTIMER
 40
0.1575418171
  9
$USRTIMER
 70
     1
  9
$ANGBASE
 50
0.0
  9
$ANGDIR
 70
     0
  9
$PDMODE
 70
     0
  9
$PDSIZE
 40
0.0
  9
$PLINEWID
 40
0.0
  9
$SPLFRAME
 70
     0
  9
$SPLINETYPE
 70
     6
  9
$SPLINESEGS
 70
     8
  9
$HANDSEED
  5
21880
  9
$SURFTAB1
 70
     6
  9
$SURFTAB2
 70
     6
  9
$SURFTYPE
 70
     6
  9
$SURFU
 70
     6
  9
$SURFV
 70
     6
  9
$UCSBASE
  2

  9
$UCSNAME
  2

  9
$UCSORG
 10
0.0
 20
0.0
 30
0.0
  9
$UCSXDIR
 10
1.0
 20
0.0
 30
0.0
  9
$UCSYDIR
 10
0.0
 20
1.0
 30
0.0
  9
$UCSORTHOREF
  2

  9
$UCSORTHOVIEW
 70
     0
  9
$UCSORGTOP
 10
0.0
 20
0.0
 30
0.0
  9
$UCSORGBOTTOM
 10
0.0
 20
0.0
 30
0.0
  9
$UCSORGLEFT
 10
0.0
 20
0.0
 30
0.0
  9
$UCSORGRIGHT
 10
0.0
 20
0.0
 30
0.0
  9
$UCSORGFRONT
 10
0.0
 20
0.0
 30
0.0
  9
$UCSORGBACK
 10
0.0
 20
0.0
 30
0.0
  9
$PUCSBASE
  2

  9
$PUCSNAME
  2

  9
$PUCSORG
 10
0.0
 20
0.0
 30
0.0
  9
$PUCSXDIR
 10
1.0
 20
0.0
 30
0.0
  9
$PUCSYDIR
 10
0.0
 20
1.0
 30
0.0
  9
$PUCSORTHOREF
  2

  9
$PUCSORTHOVIEW
 70
     0
  9
$PUCSORGTOP
 10
0.0
 20
0.0
 30
0.0
  9
$PUCSORGBOTTOM
 10
0.0
 20
0.0
 30
0.0
  9
$PUCSORGLEFT
 10
0.0
 20
0.0
 30
0.0
  9
$PUCSORGRIGHT
 10
0.0
 20
0.0
 30
0.0
  9
$PUCSORGFRONT
 10
0.0
 20
0.0
 30
0.0
  9
$PUCSORGBACK
 10
0.0
 20
0.0
 30
0.0
  9
$USERI1
 70
     3
  9
$USERI2
 70
     0
  9
$USERI3
 70
     0
  9
$USERI4
 70
     0
  9
$USERI5
 70
  1103
  9
$USERR1
 40
0.0
  9
$USERR2
 40
1.0
  9
$USERR3
 40
0.0
  9
$USERR4
 40
0.0
  9
$USERR5
 40
0.0
  9
$WORLDVIEW
 70
     1
  9
$SHADEDGE
 70
     3
  9
$SHADEDIF
 70
    70
  9
$TILEMODE
 70
     1
  9
$MAXACTVP
 70
    16
  9
$PINSBASE
 10
0.0
 20
0.0
 30
0.0
  9
$PLIMCHECK
 70
     0
  9
$PEXTMIN
 10
1.000000000000000E+20
 20
1.000000000000000E+20
 30
1.000000000000000E+20
  9
$PEXTMAX
 10
-1.000000000000000E+20
 20
-1.000000000000000E+20
 30
-1.000000000000000E+20
  9
$PLIMMIN
 10
0.0
 20
0.0
  9
$PLIMMAX
 10
12.0
 20
9.0
  9
$UNITMODE
 70
     0
  9
$VISRETAIN
 70
     0
  9
$PLINEGEN
 70
     1
  9
$PSLTSCALE
 70
     0
  9
$TREEDEPTH
 70
  3020
  9
$CMLSTYLE
  2
Standard
  9
$CMLJUST
 70
     0
  9
$CMLSCALE
 40
1.0
  9
$PROXYGRAPHICS
 70
     1
  9
$MEASUREMENT
 70
     0
  9
$CELWEIGHT
370
    -1
  9
$ENDCAPS
280
     0
  9
$JOINSTYLE
280
     0
  9
$LWDISPLAY
290
     0
  9
$INSUNITS
 70
     0
  9
$HYPERLINKBASE
  1

  9
$STYLESHEET
  1

  9
$XEDIT
290
     1
  9
$CEPSNTYPE
380
     0
  9
$PSTYLEMODE
290
     1
  9
$FINGERPRINTGUID
  2
{E1466B85-5D1E-4178-B380-3D90DCA9852E}
  9
$VERSIONGUID
  2
{F6DA6922-6603-4F0E-81A2-14F7C6DEEA5A}
  9
$EXTNAMES
290
     1
  9
$PSVPSCALE
 40
0.0
  9
$OLESTARTUP
290
     0
  0
ENDSEC
  0
SECTION
  2
CLASSES
  0
CLASS
  1
ACDBDICTIONARYWDFLT
  2
AcDbDictionaryWithDefault
  3
AutoCAD 2000
 90
        0
280
     0
281
     0
  0
CLASS
  1
ACDBPLACEHOLDER
  2
AcDbPlaceHolder
  3
AutoCAD 2000
 90
        0
280
     0
281
     0
  0
CLASS
  1
LAYOUT
  2
AcDbLayout
  3
AutoCAD 2000
 90
        0
280
     0
281
     0
  0
CLASS
  1
DICTIONARYVAR
  2
AcDbDictionaryVar
  3
AutoCAD 2000
 90
        0
280
     0
281
     0
  0
ENDSEC
  0
SECTION
  2
TABLES
  0
TABLE
  2
VPORT
  5
21231
330
0
100
AcDbSymbolTable
 70
     2
  0
VPORT
  5
2187F
330
21231
100
AcDbSymbolTableRecord
100
AcDbViewportTableRecord
  2
*Active
 70
     0
 10
0.0
 20
0.0
 11
1.0
 21
1.0
 12
6306.248503465031
 22
4277.237798248231
 13
0.0
 23
0.0
 14
1.0
 24
1.0
 15
0.0
 25
0.0
 16
0.0
 26
0.0
 36
1.0
 17
0.0
 27
0.0
 37
0.0
 40
9736.810759336549
 41
1.236040609137055
 42
50.0
 43
0.0
 44
0.0
 50
0.0
 51
0.0
 71
     0
 72
 10000
 73
     1
 74
     0
 75
     0
 76
     0
 77
     0
 78
     0
281
     0
 65
     1
110
0.0
120
0.0
130
0.0
111
1.0
121
0.0
131
0.0
112
0.0
122
1.0
132
0.0
 79
     0
146
0.0
  0
ENDTAB
  0
TABLE
  2
LTYPE
  5
2122E
330
0
100
AcDbSymbolTable
 70
     4
  0
LTYPE
  5
2123C
330
2122E
100
AcDbSymbolTableRecord
100
AcDbLinetypeTableRecord
  2
ByBlock
 70
     0
  3

 72
    65
 73
     0
 40
0.0
  0
LTYPE
  5
2123D
330
2122E
100
AcDbSymbolTableRecord
100
AcDbLinetypeTableRecord
  2
ByLayer
 70
     0
  3

 72
    65
 73
     0
 40
0.0
  0
LTYPE
  5
2123E
330
2122E
100
AcDbSymbolTableRecord
100
AcDbLinetypeTableRecord
  2
CONTINUOUS
 70
     0
  3
実線
 72
    65
 73
     0
 40
0.0
  0
LTYPE
  5
2124E
330
2122E
100
AcDbSymbolTableRecord
100
AcDbLinetypeTableRecord
  2
HIDE-S
 70
     0
  3

 72
    65
 73
     2
 40
1.0
 49
0.5
 74
     0
 49
-0.5
 74
     0
  0
LTYPE
  5
2124F
330
2122E
100
AcDbSymbolTableRecord
100
AcDbLinetypeTableRecord
  2
1PL-M
 70
     0
  3

 72
    65
 73
     4
 40
15.0
 49
12.0
 74
     0
 49
-1.0
 74
     0
 49
1.0
 74
     0
 49
-1.0
 74
     0
  0
LTYPE
  5
21250
330
2122E
100
AcDbSymbolTableRecord
100
AcDbLinetypeTableRecord
  2
1PL-S
 70
     0
  3

 72
    65
 73
     4
 40
4.0
 49
2.5
 74
     0
 49
-0.5
 74
     0
 49
0.5
 74
     0
 49
-0.5
 74
     0
  0
ENDTAB
  0
TABLE
  2
LAYER
  5
2122B
330
0
100
AcDbSymbolTable
 70
    31
  0
LAYER
  5
21239
330
2122B
100
AcDbSymbolTableRecord
100
AcDbLayerTableRecord
  2
0
 70
     0
 62
     7
  6
CONTINUOUS
370
    -3
390
21238
  0
LAYER
  5
2124B
330
2122B
100
AcDbSymbolTableRecord
100
AcDbLayerTableRecord
  2
SUNPOU
 70
     0
 62
     4
  6
CONTINUOUS
370
    -3
390
21238
  0
LAYER
  5
21251
330
2122B
100
AcDbSymbolTableRecord
100
AcDbLayerTableRecord
  2
U1
 70
     0
 62
     3
  6
CONTINUOUS
370
    -3
390
21238
  0
LAYER
  5
21252
330
2122B
100
AcDbSymbolTableRecord
100
AcDbLayerTableRecord
  2
U3
 70
     0
 62
     6
  6
CONTINUOUS
370
    -3
390
21238
  0
LAYER
  5
21253
330
2122B
100
AcDbSymbolTableRecord
100
AcDbLayerTableRecord
  2
HIKIDASHI
 70
     0
 62
     6
  6
CONTINUOUS
370
    -3
390
21238
  0
LAYER
  5
21254
330
2122B
100
AcDbSymbolTableRecord
100
AcDbLayerTableRecord
  2
HIDE-S1
 70
     0
 62
     6
  6
HIDE-S
370
    -3
390
21238
  0
LAYER
  5
21255
330
2122B
100
AcDbSymbolTableRecord
100
AcDbLayerTableRecord
  2
1PL-S1
 70
     0
 62
     6
  6
1PL-S
370
    -3
390
21238
  0
LAYER
  5
21256
330
2122B
100
AcDbSymbolTableRecord
100
AcDbLayerTableRecord
  2
1PL-S2
 70
     0
 62
     1
  6
1PL-S
370
    -3
390
21238
  0
LAYER
  5
21257
330
2122B
100
AcDbSymbolTableRecord
100
AcDbLayerTableRecord
  2
1PL-M1
 70
     0
 62
     6
  6
1PL-M
370
    -3
390
21238
  0
LAYER
  5
21258
330
2122B
100
AcDbSymbolTableRecord
100
AcDbLayerTableRecord
  2
YANE
 70
     0
 62
     1
  6
CONTINUOUS
370
    -3
390
21238
  0
LAYER
  5
21259
330
2122B
100
AcDbSymbolTableRecord
100
AcDbLayerTableRecord
  2
KISO
 70
     0
 62
     2
  6
CONTINUOUS
370
    -3
390
21238
  0
LAYER
  5
2125A
330
2122B
100
AcDbSymbolTableRecord
100
AcDbLayerTableRecord
  2
HATCH
 70
     0
 62
     1
  6
CONTINUOUS
370
    -3
390
21238
  0
LAYER
  5
2125B
330
2122B
100
AcDbSymbolTableRecord
100
AcDbLayerTableRecord
  2
HARI
 70
     0
 62
     3
  6
CONTINUOUS
370
    -3
390
21238
  0
LAYER
  5
2125C
330
2122B
100
AcDbSymbolTableRecord
100
AcDbLayerTableRecord
  2
CAP
 70
     0
 62
     2
  6
CONTINUOUS
370
    -3
390
21238
  0
LAYER
  5
2125D
330
2122B
100
AcDbSymbolTableRecord
100
AcDbLayerTableRecord
  2
HANA_JYUSHI
 70
     0
 62
     1
  6
CONTINUOUS
370
    -3
390
21238
  0
LAYER
  5
2125E
330
2122B
100
AcDbSymbolTableRecord
100
AcDbLayerTableRecord
  2
KERABA_JYUSHI
 70
     0
 62
     3
  6
CONTINUOUS
370
    -3
390
21238
  0
LAYER
  5
2125F
330
2122B
100
AcDbSymbolTableRecord
100
AcDbLayerTableRecord
  2
TOI
 70
     0
 62
     4
  6
CONTINUOUS
370
    -3
390
21238
  0
LAYER
  5
21260
330
2122B
100
AcDbSymbolTableRecord
100
AcDbLayerTableRecord
  2
HANA
 70
     0
 62
     3
  6
CONTINUOUS
370
    -3
390
21238
  0
LAYER
  5
21261
330
2122B
100
AcDbSymbolTableRecord
100
AcDbLayerTableRecord
  2
NAME
 70
     0
 62
    20
  6
CONTINUOUS
370
    -3
390
21238
  0
LAYER
  5
21262
330
2122B
100
AcDbSymbolTableRecord
100
AcDbLayerTableRecord
  2
FILENAME
 70
     0
 62
     7
  6
CONTINUOUS
370
    -3
390
21238
  0
LAYER
  5
21263
330
2122B
100
AcDbSymbolTableRecord
100
AcDbLayerTableRecord
  2
MOYA
 70
     0
 62
     4
  6
CONTINUOUS
370
    -3
390
21238
  0
LAYER
  5
21264
330
2122B
100
AcDbSymbolTableRecord
100
AcDbLayerTableRecord
  2
KERABA
 70
     0
 62
     2
  6
CONTINUOUS
370
    -3
390
21238
  0
LAYER
  5
21265
330
2122B
100
AcDbSymbolTableRecord
100
AcDbLayerTableRecord
  2
HASHIRA
 70
     0
 62
     3
  6
CONTINUOUS
370
    -3
390
21238
  0
LAYER
  5
21266
330
2122B
100
AcDbSymbolTableRecord
100
AcDbLayerTableRecord
  2
HARI_CAP
 70
     0
 62
     2
  6
CONTINUOUS
370
    -3
390
21238
  0
LAYER
  5
21267
330
2122B
100
AcDbSymbolTableRecord
100
AcDbLayerTableRecord
  2
MOYA_KANGU
 70
     0
 62
     4
  6
CONTINUOUS
370
    -3
390
21238
  0
LAYER
  5
21268
330
2122B
100
AcDbSymbolTableRecord
100
AcDbLayerTableRecord
  2
YANE_UKE
 70
     0
 62
     6
  6
CONTINUOUS
370
    -3
390
21238
  0
LAYER
  5
21269
330
2122B
100
AcDbSymbolTableRecord
100
AcDbLayerTableRecord
  2
HANA_KAKUSHI
 70
     0
 62
     3
  6
CONTINUOUS
370
    -3
390
21238
  0
LAYER
  5
2126A
330
2122B
100
AcDbSymbolTableRecord
100
AcDbLayerTableRecord
  2
YODOROGO
 70
     0
 62
   130
  6
CONTINUOUS
370
    -3
390
21238
  0
LAYER
  5
2126B
330
2122B
100
AcDbSymbolTableRecord
100
AcDbLayerTableRecord
  2
WAKUSEN-01
 70
     0
 62
    50
  6
CONTINUOUS
370
    -3
390
21238
  0
LAYER
  5
2126C
330
2122B
100
AcDbSymbolTableRecord
100
AcDbLayerTableRecord
  2
WAKUSEN-02
 70
     0
 62
   130
  6
CONTINUOUS
370
    -3
390
21238
  0
LAYER
  5
2126D
330
2122B
100
AcDbSymbolTableRecord
100
AcDbLayerTableRecord
  2
WAKUMOJI-01
 70
     0
 62
   130
  6
CONTINUOUS
370
    -3
390
21238
  0
ENDTAB
  0
TABLE
  2
STYLE
  5
2122C
330
0
100
AcDbSymbolTable
 70
     5
  0
STYLE
  5
2123A
330
2122C
100
AcDbSymbolTableRecord
100
AcDbTextStyleTableRecord
  2
STANDARD
 70
     0
 40
3.0
 41
1.0
 50
0.0
 71
     0
 42
0.2
  3
ROMANS
  4
EXTFONT
  0
STYLE
  5
2124C
330
2122C
100
AcDbSymbolTableRecord
100
AcDbTextStyleTableRecord
  2
00
 70
     0
 40
0.0
 41
0.6666666666666666
 50
0.0
 71
     0
 42
0.2
  3
ROMANS
  4
BIGFONT
  0
STYLE
  5
2126E
330
2122C
100
AcDbSymbolTableRecord
100
AcDbTextStyleTableRecord
  2
01
 70
     0
 40
3.0
 41
1.0
 50
0.0
 71
     0
 42
0.2
  3
ROMANS
  4
BIGFONT
  0
STYLE
  5
2126F
330
2122C
100
AcDbSymbolTableRecord
100
AcDbTextStyleTableRecord
  2
WAKUMOJI
 70
     0
 40
3.0
 41
1.0
 50
0.0
 71
     0
 42
3.0
  3
SIMPLEX
  4
BIGFONT
  0
STYLE
  5
21270
330
2122C
100
AcDbSymbolTableRecord
100
AcDbTextStyleTableRecord
  2
FILENAME
 70
     0
 40
75.0
 41
1.0
 50
0.0
 71
     0
 42
75.0
  3
romans
  4
bigfont
  0
ENDTAB
  0
TABLE
  2
VIEW
  5
2122F
330
0
100
AcDbSymbolTable
 70
     0
  0
ENDTAB
  0
TABLE
  2
UCS
  5
21230
330
0
100
AcDbSymbolTable
 70
     0
  0
ENDTAB
  0
TABLE
  2
APPID
  5
21232
330
0
100
AcDbSymbolTable
 70
     4
  0
APPID
  5
2123B
330
21232
100
AcDbSymbolTableRecord
100
AcDbRegAppTableRecord
  2
ACAD
 70
     0
  0
APPID
  5
21271
330
21232
100
AcDbSymbolTableRecord
100
AcDbRegAppTableRecord
  2
AUTOCAD_POSTSCRIPT_FIGURE
 70
     0
  0
APPID
  5
21272
330
21232
100
AcDbSymbolTableRecord
100
AcDbRegAppTableRecord
  2
ACAD_PSEXT
 70
     0
  0
APPID
  5
21273
330
21232
100
AcDbSymbolTableRecord
100
AcDbRegAppTableRecord
  2
ACAD_EXEMPT_FROM_CAD_STANDARDS
 70
     0
  0
ENDTAB
  0
TABLE
  2
DIMSTYLE
  5
21233
330
0
100
AcDbSymbolTable
 70
     1
100
AcDbDimStyleTable
 71
     0
  0
DIMSTYLE
105
21274
330
21233
100
AcDbSymbolTableRecord
100
AcDbDimStyleTableRecord
  2
SUNPOU
 70
     0
 40
30.0
 41
0.5
 42
1.0
 43
7.0
 44
1.5
 46
3.0
 73
     0
 74
     0
 77
     1
 78
     8
140
3.0
141
0.0
147
1.5
172
     1
173
     1
176
   256
177
   256
178
   256
271
     2
272
     2
279
     2
284
     8
285
     8
286
     8
340
2124C
  0
ENDTAB
  0
TABLE
  2
BLOCK_RECORD
  5
2122A
330
0
100
AcDbSymbolTable
 70
     6
  0
BLOCK_RECORD
  5
21247
330
2122A
100
AcDbSymbolTableRecord
100
AcDbBlockTableRecord
  2
*Model_Space
340
2124A
  0
BLOCK_RECORD
  5
21243
330
2122A
100
AcDbSymbolTableRecord
100
AcDbBlockTableRecord
  2
*Paper_Space
340
21246
  0
BLOCK_RECORD
  5
21279
330
2122A
100
AcDbSymbolTableRecord
100
AcDbBlockTableRecord
  2
$MODEL_SPACE
340
0
  0
BLOCK_RECORD
  5
2127C
330
2122A
100
AcDbSymbolTableRecord
100
AcDbBlockTableRecord
  2
$PAPER_SPACE
340
0
  0
BLOCK_RECORD
  5
2127F
330
2122A
100
AcDbSymbolTableRecord
100
AcDbBlockTableRecord
  2
DOT
340
0
  0
BLOCK_RECORD
  5
21287
330
2122A
100
AcDbSymbolTableRecord
100
AcDbBlockTableRecord
  2
*U3
340
0
  0
BLOCK_RECORD
  5
2128B
330
2122A
100
AcDbSymbolTableRecord
100
AcDbBlockTableRecord
  2
*U4
340
0
  0
BLOCK_RECORD
  5
2128F
330
2122A
100
AcDbSymbolTableRecord
100
AcDbBlockTableRecord
  2
*U5
340
0
  0
ENDTAB
  0
ENDSEC
  0
SECTION
  2
BLOCKS
  0
BLOCK
  5
21248
330
21247
100
AcDbEntity
  8
0
100
AcDbBlockBegin
  2
*Model_Space
 70
     0
 10
0.0
 20
0.0
 30
0.0
  3
*Model_Space
  1

  0
ENDBLK
  5
21249
330
21247
100
AcDbEntity
  8
0
100
AcDbBlockEnd
  0
BLOCK
  5
21244
330
21243
100
AcDbEntity
 67
     1
  8
0
100
AcDbBlockBegin
  2
*Paper_Space
 70
     0
 10
0.0
 20
0.0
 30
0.0
  3
*Paper_Space
  1

  0
ENDBLK
  5
21245
330
21243
100
AcDbEntity
 67
     1
  8
0
100
AcDbBlockEnd
  0
BLOCK
  5
2127A
330
21279
100
AcDbEntity
  8
0
100
AcDbBlockBegin
  2
$MODEL_SPACE
 70
     0
 10
0.0
 20
0.0
 30
0.0
  3
$MODEL_SPACE
  1

  0
ENDBLK
  5
2127B
330
21279
100
AcDbEntity
  8
0
100
AcDbBlockEnd
  0
BLOCK
  5
2127D
330
2127C
100
AcDbEntity
  8
0
100
AcDbBlockBegin
  2
$PAPER_SPACE
 70
     0
 10
0.0
 20
0.0
 30
0.0
  3
$PAPER_SPACE
  1

  0
ENDBLK
  5
2127E
330
2127C
100
AcDbEntity
  8
0
100
AcDbBlockEnd
  0
BLOCK
  5
21280
330
2127F
100
AcDbEntity
  8
0
100
AcDbBlockBegin
  2
DOT
 70
     0
 10
0.0
 20
0.0
 30
0.0
  3
DOT
  1

  0
LWPOLYLINE
  5
21281
330
2127F
100
AcDbEntity
  8
0
  6
ByBlock
 62
     0
100
AcDbPolyline
 90
        2
 70
     1
 43
0.75
 10
-0.375
 20
0.0
 42
1.0
 10
0.375
 20
0.0
 42
1.0
  0
LINE
  5
21285
330
2127F
100
AcDbEntity
  8
0
  6
ByBlock
 62
     0
100
AcDbLine
 10
-0.75
 20
0.0
 30
0.0
 11
-1.5
 21
0.0
 31
0.0
  0
ENDBLK
  5
21286
330
2127F
100
AcDbEntity
  8
0
100
AcDbBlockEnd
  0
BLOCK
  5
21288
330
21287
100
AcDbEntity
  8
0
100
AcDbBlockBegin
  2
*U3
 70
     1
 10
0.0
 20
0.0
 30
0.0
  3
*U3
  1

  0
TEXT
  5
21289
330
21287
100
AcDbEntity
  8
SUNPOU
100
AcDbText
 10
2267.113810499956
 20
8175.802125207461
 30
0.0
 40
90.0
  1
238
 41
0.6666666666666666
  7
00
100
AcDbText
  0
ENDBLK
  5
2128A
330
21287
100
AcDbEntity
  8
0
100
AcDbBlockEnd
  0
BLOCK
  5
2128C
330
2128B
100
AcDbEntity
  8
0
100
AcDbBlockBegin
  2
*U4
 70
     1
 10
0.0
 20
0.0
 30
0.0
  3
*U4
  1

  0
TEXT
  5
2128D
330
2128B
100
AcDbEntity
  8
SUNPOU
100
AcDbText
 10
3757.542381928527
 20
8175.802125207461
 30
0.0
 40
90.0
  1
2800
 41
0.6666666666666666
  7
00
100
AcDbText
  0
ENDBLK
  5
2128E
330
2128B
100
AcDbEntity
  8
0
100
AcDbBlockEnd
  0
BLOCK
  5
21290
330
2128F
100
AcDbEntity
  8
0
100
AcDbBlockBegin
  2
*U5
 70
     1
 10
0.0
 20
0.0
 30
0.0
  3
*U5
  1

  0
TEXT
  5
21291
330
2128F
100
AcDbEntity
  8
SUNPOU
100
AcDbText
 10
5305.11381049996
 20
8175.802125207461
 30
0.0
 40
90.0
  1
238
 41
0.6666666666666666
  7
00
100
AcDbText
  0
ENDBLK
  5
21292
330
2128F
100
AcDbEntity
  8
0
100
AcDbBlockEnd
  0
ENDSEC
  0
SECTION
  2
ENTITIES
  0
LINE
  5
21293
330
21247
100
AcDbEntity
  8
U3
100
AcDbLine
 10
2485.065042394513
 20
1736.805063765603
 30
0.0
 11
2023.704652701306
 21
1736.805063765603
 31
0.0
  0
LINE
  5
21294
330
21247
100
AcDbEntity
  8
KISO
100
AcDbLine
 10
5085.065042394514
 20
1736.805063765603
 30
0.0
 11
5085.065042394514
 21
1786.805063765605
 31
0.0
  0
LINE
  5
21295
330
21247
100
AcDbEntity
  8
KISO
100
AcDbLine
 10
2485.065042394513
 20
1786.805063765603
 30
0.0
 11
2485.065042394513
 21
1736.805063765603
 31
0.0
  0
LINE
  5
21296
330
21247
100
AcDbEntity
  8
U3
100
AcDbLine
 10
5546.425432087721
 20
1736.805063765605
 30
0.0
 11
5085.065042394514
 21
1736.805063765605
 31
0.0
  0
LINE
  5
21297
330
21247
100
AcDbEntity
  8
SUNPOU
100
AcDbLine
 10
2109.598225684889
 20
1826.805063765603
 30
0.0
 11
2161.559749911954
 21
1736.805063765603
 31
0.0
  0
LINE
  5
21298
330
21247
100
AcDbEntity
  8
SUNPOU
100
AcDbLine
 10
2213.521274139021
 20
1826.805063765603
 30
0.0
 11
2109.598225684889
 21
1826.805063765603
 31
0.0
  0
LINE
  5
21299
330
21247
100
AcDbEntity
  8
SUNPOU
100
AcDbLine
 10
2161.559749911954
 20
1736.805063765603
 30
0.0
 11
2213.521274139021
 21
1826.805063765603
 31
0.0
  0
TEXT
  5
2129A
330
21247
100
AcDbEntity
  8
SUNPOU
100
AcDbText
 10
2090.131178483382
 20
1871.805063765603
 30
0.0
 40
90.0
  1
G.L
 41
0.6666666666666666
  7
00
 72
     4
 11
2161.559749911954
 21
1916.805063765603
 31
0.0
100
AcDbText
  0
TEXT
  5
2129B
330
21247
100
AcDbEntity
  8
SUNPOU
100
AcDbText
 10
2733.287490583893
 20
1921.805063765603
 30
0.0
 40
90.0
  1
F.L
 41
0.6666666666666666
  7
00
 72
     4
 11
2801.858919155321
 21
1966.805063765603
 31
0.0
100
AcDbText
  0
LINE
  5
2129C
330
21247
100
AcDbEntity
  8
SUNPOU
100
AcDbLine
 10
2801.858919155321
 20
1786.805063765603
 30
0.0
 11
2853.820443382387
 21
1876.805063765603
 31
0.0
  0
LINE
  5
2129D
330
21247
100
AcDbEntity
  8
SUNPOU
100
AcDbLine
 10
2749.897394928256
 20
1876.805063765603
 30
0.0
 11
2801.858919155321
 21
1786.805063765603
 31
0.0
  0
LINE
  5
2129E
330
21247
100
AcDbEntity
  8
SUNPOU
100
AcDbLine
 10
2853.820443382387
 20
1876.805063765603
 30
0.0
 11
2749.897394928256
 21
1876.805063765603
 31
0.0
  0
LINE
  5
2129F
330
21247
100
AcDbEntity
  8
KISO
100
AcDbLine
 10
5085.065042394514
 20
1786.805063765605
 30
0.0
 11
2485.065042394513
 21
1786.805063765603
 31
0.0
  0
LINE
  5
212A0
330
21247
100
AcDbEntity
  8
KISO
100
AcDbLine
 10
2485.065042394513
 20
1736.805063765603
 30
0.0
 11
5085.065042394514
 21
1736.805063765603
 31
0.0
  0
LINE
  5
212A1
330
21247
100
AcDbEntity
  8
SUNPOU
100
AcDbLine
 10
5115.065042394514
 20
1786.805063765605
 30
0.0
 11
5540.065042394514
 21
1786.805063765605
 31
0.0
  0
LINE
  5
212A2
330
21247
100
AcDbEntity
  8
SUNPOU
100
AcDbLine
 10
5115.065042394514
 20
1786.805063765605
 30
0.0
 11
5540.065042394514
 21
1786.805063765605
 31
0.0
  0
LINE
  5
212A3
330
21247
100
AcDbEntity
  8
SUNPOU
100
AcDbLine
 10
5495.065042394514
 20
1721.805063765605
 30
0.0
 11
5495.065042394514
 21
1706.805063765605
 31
0.0
  0
LINE
  5
212A4
330
21247
100
AcDbEntity
  8
SUNPOU
100
AcDbLine
 10
5495.065042394514
 20
1786.805063765605
 30
0.0
 11
5495.065042394514
 21
1606.962206622747
 31
0.0
  0
TEXT
  5
212A5
330
21247
100
AcDbEntity
  8
SUNPOU
100
AcDbText
 10
5450.065042394514
 20
1598.390778051319
 30
0.0
 40
90.0
  1
50
 50
90.0
 41
0.6666666666666666
  7
00
 72
     1
 11
5405.065042394515
 21
1655.533635194176
 31
0.0
100
AcDbText
 73
     2
  0
CIRCLE
  5
212A6
330
21247
100
AcDbEntity
  8
HARI
100
AcDbCircle
 10
3886.828096214244
 20
3808.047672138153
 30
0.0
 40
6.0
  0
CIRCLE
  5
212A7
330
21247
100
AcDbEntity
  8
HARI
100
AcDbCircle
 10
4486.075018664135
 20
3777.995618392491
 30
0.0
 40
6.0
  0
ARC
  5
212A8
330
21247
100
AcDbEntity
  8
CAP
100
AcDbCircle
 10
3271.876732991688
 20
3844.394210772819
 30
0.0
 40
40.0
100
AcDbArc
 50
134.9514487464342
 51
219.3066292833715
  0
ARC
  5
212A9
330
21247
100
AcDbEntity
  8
CAP
100
AcDbCircle
 10
3252.488098489759
 20
3812.825702024284
 30
0.0
 40
5.0
100
AcDbArc
 50
219.3066292833715
 51
267.1290390148967
  0
LINE
  5
212AA
330
21247
100
AcDbEntity
  8
CAP
100
AcDbLine
 10
3248.619263886797
 20
3809.658350004863
 30
0.0
 11
3240.926056167989
 21
3819.055394617463
 31
0.0
  0
LINE
  5
212AB
330
21247
100
AcDbEntity
  8
CAP
100
AcDbLine
 10
3255.017306571337
 20
3807.692579463342
 30
0.0
 11
3252.237664708545
 21
3807.831977670533
 31
0.0
  0
LINE
  5
212AC
330
21247
100
AcDbEntity
  8
CAP
100
AcDbLine
 10
3247.763703903361
 20
3876.842681207413
 30
0.0
 11
3243.616439400177
 21
3872.702439366669
 31
0.0
  0
CIRCLE
  5
212AD
330
21247
100
AcDbEntity
  8
CAP
100
AcDbCircle
 10
3271.876732991688
 20
3844.394210772819
 30
0.0
 40
1.5
  0
LINE
  5
212AE
330
21247
100
AcDbEntity
  8
CAP
100
AcDbLine
 10
4573.360535961101
 20
3741.578061222892
 30
0.0
 11
4576.384036240896
 21
3801.867559339284
 31
0.0
  0
ARC
  5
212AF
330
21247
100
AcDbEntity
  8
CAP
100
AcDbCircle
 10
4560.257616258956
 20
3779.782295219653
 30
0.0
 40
40.0
100
AcDbArc
 50
314.9514487464343
 51
22.03183315050296
  0
ARC
  5
212B0
330
21247
100
AcDbEntity
  8
CAP
100
AcDbCircle
 10
4576.390611605106
 20
3746.432387369451
 30
0.0
 40
5.0
100
AcDbArc
 50
267.1290390148967
 51
314.9514487464343
  0
LINE
  5
212B1
330
21247
100
AcDbEntity
  8
CAP
100
AcDbLine
 10
4579.923148304049
 20
3742.893858795219
 30
0.0
 11
4588.517909850465
 21
3751.474066625801
 31
0.0
  0
LINE
  5
212B2
330
21247
100
AcDbEntity
  8
CAP
100
AcDbLine
 10
4573.360535961101
 20
3741.578061222892
 30
0.0
 11
4576.140177823895
 21
3741.438663015701
 31
0.0
  0
CIRCLE
  5
212B3
330
21247
100
AcDbEntity
  8
CAP
100
AcDbCircle
 10
4560.257616258956
 20
3779.782295219653
 30
0.0
 40
1.5
  0
LINE
  5
212B4
330
21247
100
AcDbEntity
  8
U1
100
AcDbLine
 10
3923.215042394513
 20
3770.978641609911
 30
0.0
 11
3923.215042394513
 21
3505.055063765604
 31
0.0
  0
LINE
  5
212B5
330
21247
100
AcDbEntity
  8
U1
100
AcDbLine
 10
3846.915042394513
 20
1786.805063765603
 30
0.0
 11
3846.915042394513
 21
3774.805063765604
 31
0.0
  0
LINE
  5
212B6
330
21247
100
AcDbEntity
  8
U1
100
AcDbLine
 10
3923.215042394513
 20
3505.055063765604
 30
0.0
 11
4234.415042394513
 21
3505.055063765604
 31
0.0
  0
LINE
  5
212B7
330
21247
100
AcDbEntity
  8
U1
100
AcDbLine
 10
3923.215042394513
 20
3444.555063765605
 30
0.0
 11
4234.415042394513
 21
3444.555063765605
 31
0.0
  0
ARC
  5
212B8
330
21247
100
AcDbEntity
  8
U1
100
AcDbCircle
 10
3923.215042394513
 20
3474.805063765605
 30
0.0
 40
30.25
100
AcDbArc
 50
90.0
 51
270.0
  0
LINE
  5
212B9
330
21247
100
AcDbEntity
  8
U1
100
AcDbLine
 10
3923.215042394513
 20
3444.555063765605
 30
0.0
 11
3923.215042394513
 21
1786.805063765603
 31
0.0
  0
LINE
  5
212BA
330
21247
100
AcDbEntity
  8
1PL-M1
100
AcDbLine
 10
3885.065042394514
 20
1679.46006769013
 30
0.0
 11
3885.065042394514
 21
3772.891852687757
 31
0.0
  0
LINE
  5
212BB
330
21247
100
AcDbEntity
  8
U1
100
AcDbLine
 10
4514.915042394513
 20
3725.055063765607
 30
0.0
 11
4514.915042394513
 21
3741.305063765556
 31
0.0
  0
LINE
  5
212BC
330
21247
100
AcDbEntity
  8
1PL-S1
100
AcDbLine
 10
3872.425878130032
 20
3474.805063765605
 30
0.0
 11
4234.415042394513
 21
3474.805063765605
 31
0.0
  0
LINE
  5
212BD
330
21247
100
AcDbEntity
  8
U1
100
AcDbLine
 10
4454.415042394514
 20
3725.055063765607
 30
0.0
 11
4454.415042394514
 21
3744.339120651788
 31
0.0
  0
ARC
  5
212BE
330
21247
100
AcDbEntity
  8
U1
100
AcDbCircle
 10
4234.415042394513
 20
3725.055063765607
 30
0.0
 40
220.0
100
AcDbArc
 50
270.0
 51
0.0
  0
ARC
  5
212BF
330
21247
100
AcDbEntity
  8
U1
100
AcDbCircle
 10
4234.415042394513
 20
3725.055063765607
 30
0.0
 40
280.5
100
AcDbArc
 50
270.0
 51
0.0
  0
ARC
  5
212C0
330
21247
100
AcDbEntity
  8
1PL-S1
100
AcDbCircle
 10
4234.415042394513
 20
3725.055063765607
 30
0.0
 40
250.2499999999999
100
AcDbArc
 50
270.0
 51
0.0
  0
LINE
  5
212C1
330
21247
100
AcDbEntity
  8
1PL-M1
100
AcDbLine
 10
4484.665042394514
 20
3725.055063765607
 30
0.0
 11
4484.665042394514
 21
3742.822092208673
 31
0.0
  0
LINE
  5
212C2
330
21247
100
AcDbEntity
  8
1PL-S1
100
AcDbLine
 10
4484.665042394516
 20
3742.822092208673
 30
0.0
 11
4489.156813401249
 21
3832.389346910821
 31
0.0
  0
LINE
  5
212C3
330
21247
100
AcDbEntity
  8
U1
100
AcDbLine
 10
4446.72320319536
 20
3814.812833545237
 30
0.0
 11
4443.217130258397
 21
3744.900692592747
 31
0.0
  0
LINE
  5
212C4
330
21247
100
AcDbEntity
  8
U1
100
AcDbLine
 10
4443.217130258397
 20
3744.900692592747
 30
0.0
 11
4526.112954530632
 21
3740.743491824596
 31
0.0
  0
LINE
  5
212C5
330
21247
100
AcDbEntity
  8
U1
100
AcDbLine
 10
4526.112954530632
 20
3740.743491824596
 30
0.0
 11
4529.619027467592
 21
3810.655632777085
 31
0.0
  0
LINE
  5
212C6
330
21247
100
AcDbEntity
  8
U1
100
AcDbLine
 10
4529.619027467592
 20
3810.655632777085
 30
0.0
 11
4446.72320319536
 21
3814.812833545237
 31
0.0
  0
CIRCLE
  5
212C7
330
21247
100
AcDbEntity
  8
U1
100
AcDbCircle
 10
4486.428096214245
 20
3777.977911659064
 30
0.0
 40
6.0
  0
LINE
  5
212C8
330
21247
100
AcDbEntity
  8
1PL-S1
100
AcDbLine
 10
3885.065042394514
 20
3772.891852687757
 30
0.0
 11
3890.171522486916
 21
3874.716590053427
 31
0.0
  0
LINE
  5
212C9
330
21247
100
AcDbEntity
  8
U1
100
AcDbLine
 10
3837.135754487862
 20
3845.383461586749
 30
0.0
 11
3940.006476175092
 21
3840.224525693744
 31
0.0
  0
LINE
  5
212CA
330
21247
100
AcDbEntity
  8
U1
100
AcDbLine
 10
3940.006476175092
 20
3840.224525693744
 30
0.0
 11
3936.500403238129
 21
3770.312384741256
 31
0.0
  0
LINE
  5
212CB
330
21247
100
AcDbEntity
  8
U1
100
AcDbLine
 10
3936.500403238129
 20
3770.312384741256
 30
0.0
 11
3833.629681550899
 21
3775.47132063426
 31
0.0
  0
LINE
  5
212CC
330
21247
100
AcDbEntity
  8
U1
100
AcDbLine
 10
3833.629681550899
 20
3775.47132063426
 30
0.0
 11
3837.135754487862
 21
3845.383461586749
 31
0.0
  0
CIRCLE
  5
212CD
330
21247
100
AcDbEntity
  8
U1
100
AcDbCircle
 10
3886.828096214244
 20
3808.047672138151
 30
0.0
 40
6.0
  0
LINE
  5
212CE
330
21247
100
AcDbEntity
  8
U1
100
AcDbLine
 10
2949.161632499135
 20
3989.940642931455
 30
0.0
 11
4512.169620982895
 21
3911.556260274631
 31
0.0
  0
LINE
  5
212CF
330
21247
100
AcDbEntity
  8
U1
100
AcDbLine
 10
2944.253130387299
 20
3892.063645597974
 30
0.0
 11
4507.261118871058
 21
3813.679262941152
 31
0.0
  0
ARC
  5
212D0
330
21247
100
AcDbEntity
  8
U1
100
AcDbCircle
 10
2929.72871864047
 20
3941.853619120852
 30
0.0
 40
44.0
100
AcDbArc
 50
87.12903901487059
 51
267.1290390148576
  0
ARC
  5
212D1
330
21247
100
AcDbEntity
  8
U1
100
AcDbCircle
 10
2942.405900914529
 20
3895.160053722713
 30
0.0
 40
2.0
100
AcDbArc
 50
357.1290390149095
 51
87.12903901487059
  0
LINE
  5
212D2
330
21247
100
AcDbEntity
  8
U1
100
AcDbLine
 10
2927.524901365769
 20
3897.90884480786
 30
0.0
 11
2942.506074427015
 21
3897.15754346421
 31
0.0
  0
LINE
  5
212D3
330
21247
100
AcDbEntity
  8
U1
100
AcDbLine
 10
2944.403390656028
 20
3895.059880210225
 30
0.0
 11
2944.253130387299
 21
3892.063645597974
 31
0.0
  0
ARC
  5
212D4
330
21247
100
AcDbEntity
  8
U1
100
AcDbCircle
 10
2947.013882488905
 20
3987.044581831695
 30
0.0
 40
2.0
100
AcDbArc
 50
267.1290390148576
 51
357.1290390149095
  0
LINE
  5
212D5
330
21247
100
AcDbEntity
  8
U1
100
AcDbLine
 10
2931.932535915172
 20
3985.798393433841
 30
0.0
 11
2946.91370897642
 21
3985.047092090193
 31
0.0
  0
LINE
  5
212D6
330
21247
100
AcDbEntity
  8
U1
100
AcDbLine
 10
2949.011372230405
 20
3986.944408319207
 30
0.0
 11
2949.161632499135
 21
3989.940642931455
 31
0.0
  0
ARC
  5
212D7
330
21247
100
AcDbEntity
  8
U1
100
AcDbCircle
 10
4492.485525779309
 20
3519.04952606996
 30
0.0
 40
393.0
100
AcDbArc
 50
14.12903901489204
 51
87.12903901487059
  0
ARC
  5
212D8
330
21247
100
AcDbEntity
  8
U1
100
AcDbCircle
 10
4492.485525779309
 20
3519.04952606996
 30
0.0
 40
295.0
100
AcDbArc
 50
16.07164098913105
 51
87.12903901487059
  0
ARC
  5
212D9
330
21247
100
AcDbEntity
  8
U1
100
AcDbCircle
 10
4789.539763920686
 20
3604.136420491169
 30
0.0
 40
10.0
100
AcDbArc
 50
203.7231072416886
 51
285.0564385430727
  0
ARC
  5
212DA
330
21247
100
AcDbEntity
  8
U1
100
AcDbCircle
 10
4778.553758948304
 20
3599.308616151022
 30
0.0
 40
2.0
100
AcDbArc
 50
23.72310724168857
 51
104.1290390148505
  0
LINE
  5
212DB
330
21247
100
AcDbEntity
  8
U1
100
AcDbLine
 10
4775.955832981841
 20
3600.717052875307
 30
0.0
 11
4778.065545873828
 21
3601.248112991418
 31
0.0
  0
LINE
  5
212DC
330
21247
100
AcDbEntity
  8
U1
100
AcDbLine
 10
4791.980829293069
 20
3594.438936289185
 30
0.0
 11
4873.596654917355
 21
3614.983395204505
 31
0.0
  0
LINE
  5
212DD
330
21247
100
AcDbEntity
  8
1PL-S2
100
AcDbLine
 10
4798.688597753579
 20
3593.033840039345
 30
0.0
 11
4794.782893157772
 21
3608.549814762521
 31
0.0
  0
LINE
  5
212DE
330
21247
100
AcDbEntity
  8
1PL-S2
100
AcDbLine
 10
4788.977758094087
 20
3598.838975103028
 30
0.0
 11
4804.493732817263
 21
3602.744679698838
 31
0.0
  0
CIRCLE
  5
212DF
330
21247
100
AcDbEntity
  8
U1
100
AcDbCircle
 10
4796.735745455674
 20
3600.791827400932
 30
0.0
 40
2.5
  0
LINE
  5
212E0
330
21247
100
AcDbEntity
  8
1PL-S2
100
AcDbLine
 10
4845.223166465608
 20
3612.997154262831
 30
0.0
 11
4860.739141188782
 21
3616.90285885864
 31
0.0
  0
LINE
  5
212E1
330
21247
100
AcDbEntity
  8
1PL-S2
100
AcDbLine
 10
4854.934006125097
 20
3607.192019199145
 30
0.0
 11
4851.028301529289
 21
3622.707993922321
 31
0.0
  0
CIRCLE
  5
212E2
330
21247
100
AcDbEntity
  8
U1
100
AcDbCircle
 10
4852.981153827194
 20
3614.950006560736
 30
0.0
 40
2.5
  0
LINE
  5
212E3
330
21247
100
AcDbEntity
  8
U1
100
AcDbLine
 10
4511.19861035182
 20
3911.604956167058
 30
0.0
 11
4511.160517558797
 21
3910.805861143961
 31
0.0
  0
LINE
  5
212E4
330
21247
100
AcDbEntity
  8
U1
100
AcDbLine
 10
4513.196032781363
 20
3911.503440434079
 30
0.0
 11
4513.153873988485
 21
3910.704552058782
 31
0.0
  0
LINE
  5
212E5
330
21247
100
AcDbEntity
  8
U1
100
AcDbLine
 10
4561.974461346487
 20
3905.857343769838
 30
0.0
 11
4561.833008042532
 21
3905.069948721084
 31
0.0
  0
LINE
  5
212E6
330
21247
100
AcDbEntity
  8
U1
100
AcDbLine
 10
4579.319877320392
 20
3902.336357819293
 30
0.0
 11
4579.143115281632
 21
3901.556130171965
 31
0.0
  0
ARC
  5
212E7
330
21247
100
AcDbEntity
  8
HANA_JYUSHI
100
AcDbCircle
 10
2930.727463511221
 20
3941.803532364608
 30
0.0
 40
50.0
100
AcDbArc
 50
87.12903901487059
 51
267.1290390148576
  0
LINE
  5
212E8
330
21247
100
AcDbEntity
  8
HANA_JYUSHI
100
AcDbLine
 10
2945.201788501805
 20
3891.014813970984
 30
0.0
 11
2928.223125699059
 21
3891.866288827116
 31
0.0
  0
LINE
  5
212E9
330
21247
100
AcDbEntity
  8
HANA_JYUSHI
100
AcDbLine
 10
2945.251875258048
 20
3892.013558841732
 30
0.0
 11
2945.201788501805
 21
3891.014813970984
 31
0.0
  0
LINE
  5
212EA
330
21247
100
AcDbEntity
  8
HANA_JYUSHI
100
AcDbLine
 10
2933.23180132338
 20
3991.740775902098
 30
0.0
 11
2950.210464126127
 21
3990.889301045963
 31
0.0
  0
LINE
  5
212EB
330
21247
100
AcDbEntity
  8
HANA_JYUSHI
100
AcDbLine
 10
2950.160377369885
 20
3989.890556175215
 30
0.0
 11
2950.210464126127
 21
3990.889301045963
 31
0.0
  0
LINE
  5
212EC
330
21247
100
AcDbEntity
  8
KERABA_JYUSHI
100
AcDbLine
 10
4870.694087385512
 20
3610.127975374769
 30
0.0
 11
4793.114213769626
 21
3590.599452395716
 31
0.0
  0
LINE
  5
212ED
330
21247
100
AcDbEntity
  8
KERABA_JYUSHI
100
AcDbLine
 10
4873.596654917355
 20
3614.983395204516
 30
0.0
 11
4792.137787620673
 21
3594.478446076511
 31
0.0
  0
ARC
  5
212EE
330
21247
100
AcDbEntity
  8
KERABA_JYUSHI
100
AcDbCircle
 10
4789.696722248293
 20
3604.175930278496
 30
0.0
 40
14.0
100
AcDbArc
 50
194.129039014892
 51
284.129039014851
  0
ARC
  5
212EF
330
21247
100
AcDbEntity
  8
KERABA_JYUSHI
100
AcDbCircle
 10
4789.696722248293
 20
3604.175930278496
 30
0.0
 40
10.0
100
AcDbArc
 50
199.344947585357
 51
284.129039014851
  0
LINE
  5
212F0
330
21247
100
AcDbEntity
  8
KERABA_JYUSHI
100
AcDbLine
 10
4776.120244365513
 20
3600.758438757163
 30
0.0
 11
4779.073660551337
 21
3601.5018771409
 31
0.0
  0
LINE
  5
212F1
330
21247
100
AcDbEntity
  8
KERABA_JYUSHI
100
AcDbLine
 10
4776.120244365513
 20
3600.758438757163
 30
0.0
 11
4776.120244365513
 21
3600.758438757163
 31
0.0
  0
ARC
  5
212F2
330
21247
100
AcDbEntity
  8
KERABA_JYUSHI
100
AcDbCircle
 10
4779.317767088576
 20
3600.532128720703
 30
0.0
 40
1.0
100
AcDbArc
 50
19.34494758535711
 51
104.1290390148509
  0
ARC
  5
212F3
330
21247
100
AcDbEntity
  8
KERABA_JYUSHI
100
AcDbCircle
 10
4869.717661236558
 20
3614.006969055565
 30
0.0
 40
4.0
100
AcDbArc
 50
284.129039014851
 51
14.12903901489204
  0
LINE
  5
212F4
330
21247
100
AcDbEntity
  8
KERABA_JYUSHI
100
AcDbLine
 10
4871.374189301477
 20
3614.423952802423
 30
0.0
 11
4871.374189301477
 21
3614.423952802423
 31
0.0
  0
LINE
  5
212F5
330
21247
100
AcDbEntity
  8
SUNPOU
100
AcDbLine
 10
4899.793999285948
 20
3608.805063765604
 30
0.0
 11
5525.065042394516
 21
3608.805063765604
 31
0.0
  0
LINE
  5
212F6
330
21247
100
AcDbEntity
  8
SUNPOU
100
AcDbLine
 10
5465.065042394514
 20
1786.805063765605
 30
0.0
 11
5465.065042394514
 21
1786.805063765605
 31
0.0
  0
LINE
  5
212F7
330
21247
100
AcDbEntity
  8
SUNPOU
100
AcDbLine
 10
5495.065042394514
 20
3593.805063765606
 30
0.0
 11
5495.065042394514
 21
1801.805063765605
 31
0.0
  0
TEXT
  5
212F8
330
21247
100
AcDbEntity
  8
SUNPOU
100
AcDbText
 10
5450.065042394514
 20
2579.233635194176
 30
0.0
 40
90.0
  1
1822
 50
90.0
 41
0.6666666666666666
  7
00
 72
     1
 11
5405.065042394515
 21
2697.805063765605
 31
0.0
100
AcDbText
 73
     2
  0
LINE
  5
212F9
330
21247
100
AcDbEntity
  8
SUNPOU
100
AcDbLine
 10
2460.155206745769
 20
1786.805063765603
 30
0.0
 11
2332.405649204297
 21
1786.805063765603
 31
0.0
  0
LINE
  5
212FA
330
21247
100
AcDbEntity
  8
SUNPOU
100
AcDbLine
 10
2877.866350100324
 20
3991.740775902098
 30
0.0
 11
2332.405649204297
 21
3991.740775902098
 31
0.0
  0
LINE
  5
212FB
330
21247
100
AcDbEntity
  8
SUNPOU
100
AcDbLine
 10
2362.405649204295
 20
1801.805063765603
 30
0.0
 11
2362.405649204295
 21
3976.740775902097
 31
0.0
  0
TEXT
  5
212FC
330
21247
100
AcDbEntity
  8
SUNPOU
100
AcDbText
 10
2317.405649204296
 20
2774.987205548136
 30
0.0
 40
90.0
  1
2200
 50
90.0
 41
0.6666666666666666
  7
00
 72
     1
 11
2272.405649204296
 21
2889.27291983385
 31
0.0
100
AcDbText
 73
     2
  0
LINE
  5
212FD
330
21247
100
AcDbEntity
  8
SUNPOU
100
AcDbLine
 10
2542.405649204297
 20
1786.805063765603
 30
0.0
 11
2542.405649204297
 21
1786.805063765603
 31
0.0
  0
LINE
  5
212FE
330
21247
100
AcDbEntity
  8
SUNPOU
100
AcDbLine
 10
2877.866350100324
 20
3893.740775902097
 30
0.0
 11
2542.405649204297
 21
3893.740775902097
 31
0.0
  0
LINE
  5
212FF
330
21247
100
AcDbEntity
  8
SUNPOU
100
AcDbLine
 10
2572.405649204296
 20
1801.805063765603
 30
0.0
 11
2572.405649204296
 21
3878.740775902097
 31
0.0
  0
TEXT
  5
21300
330
21247
100
AcDbEntity
  8
SUNPOU
100
AcDbText
 10
2527.405649204296
 20
2725.987205548136
 30
0.0
 40
90.0
  1
2102
 50
90.0
 41
0.6666666666666666
  7
00
 72
     1
 11
2482.405649204296
 21
2840.27291983385
 31
0.0
100
AcDbText
 73
     2
  0
LINE
  5
21301
330
21247
100
AcDbEntity
  8
SUNPOU
100
AcDbLine
 10
2877.866350100324
 20
3893.740775902097
 30
0.0
 11
2542.405649204297
 21
3893.740775902097
 31
0.0
  0
LINE
  5
21302
330
21247
100
AcDbEntity
  8
SUNPOU
100
AcDbLine
 10
2542.405649204297
 20
3991.740775902098
 30
0.0
 11
2542.405649204297
 21
3991.740775902098
 31
0.0
  0
LINE
  5
21303
330
21247
100
AcDbEntity
  8
SUNPOU
100
AcDbLine
 10
2572.405649204296
 20
3878.740775902097
 30
0.0
 11
2572.405649204296
 21
3863.740775902098
 31
0.0
  0
LINE
  5
21304
330
21247
100
AcDbEntity
  8
SUNPOU
100
AcDbLine
 10
2572.405649204296
 20
4006.740775902097
 30
0.0
 11
2572.405649204296
 21
4021.740775902097
 31
0.0
  0
LINE
  5
21305
330
21247
100
AcDbEntity
  8
SUNPOU
100
AcDbLine
 10
2572.405649204296
 20
3893.740775902097
 30
0.0
 11
2572.405649204296
 21
4121.583633044954
 31
0.0
  0
TEXT
  5
21306
330
21247
100
AcDbEntity
  8
SUNPOU
100
AcDbText
 10
2527.405649204296
 20
4015.86934733067
 30
0.0
 40
90.0
  1
98
 50
90.0
 41
0.6666666666666666
  7
00
 72
     1
 11
2482.405649204296
 21
4073.012204473527
 31
0.0
100
AcDbText
 73
     2
  0
LINE
  5
21307
330
21247
100
AcDbEntity
  8
SUNPOU
100
AcDbLine
 10
2871.828096214244
 20
4029.157457211571
 30
0.0
 11
2871.828096214244
 21
4741.740775902097
 31
0.0
  0
LINE
  5
21308
330
21247
100
AcDbEntity
  8
SUNPOU
100
AcDbLine
 10
4871.82809621424
 20
3678.85443653376
 30
0.0
 11
4871.82809621424
 21
4741.740775902097
 31
0.0
  0
LINE
  5
21309
330
21247
100
AcDbEntity
  8
SUNPOU
100
AcDbLine
 10
2886.828096214244
 20
4711.740775902097
 30
0.0
 11
4856.828096214242
 21
4711.740775902097
 31
0.0
  0
TEXT
  5
2130A
330
21247
100
AcDbEntity
  8
SUNPOU
100
AcDbText
 10
3757.542381928529
 20
4756.740775902096
 30
0.0
 40
90.0
  1
2000
 41
0.6666666666666666
  7
00
 72
     1
 11
3871.828096214242
 21
4801.740775902096
 31
0.0
100
AcDbText
 73
     2
  0
LINE
  5
2130B
330
21247
100
AcDbEntity
  8
SUNPOU
100
AcDbLine
 10
2871.828096214244
 20
4531.740775902097
 30
0.0
 11
2871.828096214244
 21
4531.740775902097
 31
0.0
  0
LINE
  5
2130C
330
21247
100
AcDbEntity
  8
SUNPOU
100
AcDbLine
 10
3886.828096214244
 20
3838.047672138151
 30
0.0
 11
3886.828096214244
 21
4531.740775902097
 31
0.0
  0
LINE
  5
2130D
330
21247
100
AcDbEntity
  8
SUNPOU
100
AcDbLine
 10
2886.828096214244
 20
4501.740775902097
 30
0.0
 11
3871.828096214244
 21
4501.740775902097
 31
0.0
  0
TEXT
  5
2130E
330
21247
100
AcDbEntity
  8
SUNPOU
100
AcDbText
 10
3260.756667642815
 20
4546.740775902097
 30
0.0
 40
90.0
  1
1000
 41
0.6666666666666666
  7
00
 72
     1
 11
3379.328096214243
 21
4591.740775902097
 31
0.0
100
AcDbText
 73
     2
  0
LINE
  5
2130F
330
21247
100
AcDbEntity
  8
SUNPOU
100
AcDbLine
 10
3886.828096214244
 20
3838.047672138151
 30
0.0
 11
3886.828096214244
 21
4531.740775902097
 31
0.0
  0
LINE
  5
21310
330
21247
100
AcDbEntity
  8
SUNPOU
100
AcDbLine
 10
4871.82809621424
 20
4531.740775902097
 30
0.0
 11
4871.82809621424
 21
4531.740775902097
 31
0.0
  0
LINE
  5
21311
330
21247
100
AcDbEntity
  8
SUNPOU
100
AcDbLine
 10
3901.828096214243
 20
4501.740775902097
 30
0.0
 11
4856.828096214242
 21
4501.740775902097
 31
0.0
  0
TEXT
  5
21312
330
21247
100
AcDbEntity
  8
SUNPOU
100
AcDbText
 10
4260.756667642813
 20
4546.740775902097
 30
0.0
 40
90.0
  1
1000
 41
0.6666666666666666
  7
00
 72
     1
 11
4379.328096214242
 21
4591.740775902097
 31
0.0
100
AcDbText
 73
     2
  0
LINE
  5
21313
330
21247
100
AcDbEntity
  8
SUNPOU
100
AcDbLine
 10
2362.405649204295
 20
1798.055063765603
 30
0.0
 11
2362.405649204295
 21
1809.305063765603
 31
0.0
  0
LINE
  5
21314
330
21247
100
AcDbEntity
  8
SUNPOU
100
AcDbLine
 10
2572.405649204296
 20
1798.055063765603
 30
0.0
 11
2572.405649204296
 21
1809.305063765603
 31
0.0
  0
LINE
  5
21315
330
21247
100
AcDbEntity
  8
SUNPOU
100
AcDbLine
 10
2362.405649204295
 20
3980.490775902097
 30
0.0
 11
2362.405649204295
 21
3969.240775902097
 31
0.0
  0
LINE
  5
21316
330
21247
100
AcDbEntity
  8
SUNPOU
100
AcDbLine
 10
2572.405649204296
 20
3882.490775902097
 30
0.0
 11
2572.405649204296
 21
3871.240775902096
 31
0.0
  0
LINE
  5
21317
330
21247
100
AcDbEntity
  8
SUNPOU
100
AcDbLine
 10
2572.405649204296
 20
3882.490775902097
 30
0.0
 11
2572.405649204296
 21
3871.240775902096
 31
0.0
  0
LINE
  5
21318
330
21247
100
AcDbEntity
  8
SUNPOU
100
AcDbLine
 10
2572.405649204296
 20
4002.990775902097
 30
0.0
 11
2572.405649204296
 21
4014.240775902097
 31
0.0
  0
LINE
  5
21319
330
21247
100
AcDbEntity
  8
SUNPOU
100
AcDbLine
 10
5495.065042394514
 20
1798.055063765604
 30
0.0
 11
5495.065042394514
 21
1809.305063765604
 31
0.0
  0
LINE
  5
2131A
330
21247
100
AcDbEntity
  8
SUNPOU
100
AcDbLine
 10
5495.065042394514
 20
1725.555063765605
 30
0.0
 11
5495.065042394514
 21
1714.305063765604
 31
0.0
  0
LINE
  5
2131B
330
21247
100
AcDbEntity
  8
SUNPOU
100
AcDbLine
 10
5495.065042394514
 20
1775.555063765605
 30
0.0
 11
5495.065042394514
 21
1764.305063765605
 31
0.0
  0
LINE
  5
2131C
330
21247
100
AcDbEntity
  8
SUNPOU
100
AcDbLine
 10
2883.078096214243
 20
4501.740775902097
 30
0.0
 11
2894.328096214243
 21
4501.740775902097
 31
0.0
  0
LINE
  5
2131D
330
21247
100
AcDbEntity
  8
SUNPOU
100
AcDbLine
 10
2883.078096214243
 20
4711.740775902097
 30
0.0
 11
2894.328096214243
 21
4711.740775902097
 31
0.0
  0
LINE
  5
2131E
330
21247
100
AcDbEntity
  8
SUNPOU
100
AcDbLine
 10
3898.078096214243
 20
4501.740775902097
 30
0.0
 11
3909.328096214244
 21
4501.740775902097
 31
0.0
  0
LINE
  5
2131F
330
21247
100
AcDbEntity
  8
SUNPOU
100
AcDbLine
 10
3875.578096214244
 20
4501.740775902097
 30
0.0
 11
3864.328096214243
 21
4501.740775902097
 31
0.0
  0
LINE
  5
21320
330
21247
100
AcDbEntity
  8
SUNPOU
100
AcDbLine
 10
5495.065042394514
 20
3597.555063765605
 30
0.0
 11
5495.065042394514
 21
3586.305063765604
 31
0.0
  0
LINE
  5
21321
330
21247
100
AcDbEntity
  8
SUNPOU
100
AcDbLine
 10
4860.578096214242
 20
4501.740775902097
 30
0.0
 11
4849.328096214242
 21
4501.740775902097
 31
0.0
  0
LINE
  5
21322
330
21247
100
AcDbEntity
  8
SUNPOU
100
AcDbLine
 10
4860.578096214242
 20
4711.740775902097
 30
0.0
 11
4849.328096214242
 21
4711.740775902097
 31
0.0
  0
TEXT
  5
21323
330
21247
100
AcDbEntity
  8
SUNPOU
100
AcDbText
 10
8555.472571690044
 20
4546.391364710046
 30
0.0
 40
90.0
  1
2000
 41
0.6666666666666666
  7
00
 72
     1
 11
8669.758285975758
 21
4591.391364710045
 31
0.0
100
AcDbText
 73
     2
  0
LINE
  5
21324
330
21247
100
AcDbEntity
  8
HATCH
100
AcDbLine
 10
7721.687298345448
 20
1786.805063765605
 30
0.0
 11
7631.68729834545
 21
1696.805063765604
 31
0.0
  0
LINE
  5
21325
330
21247
100
AcDbEntity
  8
HATCH
100
AcDbLine
 10
7662.290328725781
 20
1786.805063765605
 30
0.0
 11
7572.290328725775
 21
1696.805063765604
 31
0.0
  0
LINE
  5
21326
330
21247
100
AcDbEntity
  8
HATCH
100
AcDbLine
 10
7691.988813535617
 20
1786.805063765605
 30
0.0
 11
7601.988813535617
 21
1696.805063765604
 31
0.0
  0
LINE
  5
21327
330
21247
100
AcDbEntity
  8
KISO
100
AcDbLine
 10
8637.004713837292
 20
1786.805063765603
 30
0.0
 11
7275.154713837292
 21
1786.805063765603
 31
0.0
  0
LINE
  5
21328
330
21247
100
AcDbEntity
  8
SUNPOU
100
AcDbLine
 10
7643.910114825168
 20
1876.805063765603
 30
0.0
 11
7539.987066371033
 21
1876.805063765603
 31
0.0
  0
LINE
  5
21329
330
21247
100
AcDbEntity
  8
SUNPOU
100
AcDbLine
 10
7591.948590598099
 20
1786.805063765603
 30
0.0
 11
7643.910114825168
 21
1876.805063765603
 31
0.0
  0
TEXT
  5
2132A
330
21247
100
AcDbEntity
  8
SUNPOU
100
AcDbText
 10
7523.377162026671
 20
1921.805063765603
 30
0.0
 40
90.0
  1
F.L
 41
0.6666666666666666
  7
00
 72
     4
 11
7591.948590598099
 21
1966.805063765603
 31
0.0
100
AcDbText
  0
LINE
  5
2132B
330
21247
100
AcDbEntity
  8
KISO
100
AcDbLine
 10
7275.154713837292
 20
1696.805063765603
 30
0.0
 11
8350.154713837291
 21
1696.805063765603
 31
0.0
  0
LINE
  5
2132C
330
21247
100
AcDbEntity
  8
KISO
100
AcDbLine
 10
7275.154713837292
 20
1636.805063765603
 30
0.0
 11
8350.154713837291
 21
1636.805063765603
 31
0.0
  0
LINE
  5
2132D
330
21247
100
AcDbEntity
  8
SUNPOU
100
AcDbLine
 10
7687.394191081079
 20
3893.514367376559
 30
0.0
 11
7385.777754625881
 21
3893.514367376559
 31
0.0
  0
LINE
  5
2132E
330
21247
100
AcDbEntity
  8
SUNPOU
100
AcDbLine
 10
7687.394191081079
 20
3893.514367376559
 30
0.0
 11
7385.777754625881
 21
3893.514367376559
 31
0.0
  0
LINE
  5
2132F
330
21247
100
AcDbEntity
  8
SUNPOU
100
AcDbLine
 10
7692.302693192913
 20
3991.39136471004
 30
0.0
 11
7385.777754625881
 21
3991.39136471004
 31
0.0
  0
LINE
  5
21330
330
21247
100
AcDbEntity
  8
SUNPOU
100
AcDbLine
 10
7539.987066371033
 20
1876.805063765603
 30
0.0
 11
7591.948590598099
 21
1786.805063765603
 31
0.0
  0
LINE
  5
21331
330
21247
100
AcDbEntity
  8
SUNPOU
100
AcDbLine
 10
6951.649421354733
 20
1736.805063765605
 30
0.0
 11
7003.610945581802
 21
1826.805063765604
 31
0.0
  0
LINE
  5
21332
330
21247
100
AcDbEntity
  8
SUNPOU
100
AcDbLine
 10
6899.687897127669
 20
1826.805063765604
 30
0.0
 11
6951.649421354733
 21
1736.805063765605
 31
0.0
  0
LINE
  5
21333
330
21247
100
AcDbEntity
  8
SUNPOU
100
AcDbLine
 10
7415.777754625882
 20
1801.805063765603
 30
0.0
 11
7415.777754625882
 21
3878.51436737656
 31
0.0
  0
LINE
  5
21334
330
21247
100
AcDbEntity
  8
U3
100
AcDbLine
 10
7128.794324144084
 20
1736.805063765605
 30
0.0
 11
7233.79432414408
 21
1631.805063765607
 31
0.0
  0
LINE
  5
21335
330
21247
100
AcDbEntity
  8
U3
100
AcDbLine
 10
7096.97451899069
 20
1704.98525861221
 30
0.0
 11
7170.154713837296
 21
1631.805063765605
 31
0.0
  0
LINE
  5
21336
330
21247
100
AcDbEntity
  8
U3
100
AcDbLine
 10
7275.154713837292
 20
1736.805063765605
 30
0.0
 11
6813.794324144085
 21
1736.805063765605
 31
0.0
  0
LINE
  5
21337
330
21247
100
AcDbEntity
  8
U3
100
AcDbLine
 10
6886.974518990689
 20
1704.98525861221
 30
0.0
 11
6960.154713837297
 21
1631.805063765605
 31
0.0
  0
LINE
  5
21338
330
21247
100
AcDbEntity
  8
U3
100
AcDbLine
 10
6813.794324144085
 20
1631.805063765607
 30
0.0
 11
6918.794324144085
 21
1736.805063765605
 31
0.0
  0
LINE
  5
21339
330
21247
100
AcDbEntity
  8
U3
100
AcDbLine
 10
6855.154713837297
 20
1673.165453458816
 30
0.0
 11
6896.515103530507
 21
1631.805063765605
 31
0.0
  0
LINE
  5
2133A
330
21247
100
AcDbEntity
  8
U3
100
AcDbLine
 10
6813.794324144087
 20
1695.444674072392
 30
0.0
 11
6855.1547138373
 21
1736.805063765605
 31
0.0
  0
LINE
  5
2133B
330
21247
100
AcDbEntity
  8
U3
100
AcDbLine
 10
6918.794324144085
 20
1736.805063765605
 30
0.0
 11
7023.794324144086
 21
1631.805063765607
 31
0.0
  0
LINE
  5
2133C
330
21247
100
AcDbEntity
  8
U3
100
AcDbLine
 10
7065.154713837296
 20
1673.165453458818
 30
0.0
 11
7106.515103530508
 21
1631.805063765605
 31
0.0
  0
LINE
  5
2133D
330
21247
100
AcDbEntity
  8
U3
100
AcDbLine
 10
7023.794324144086
 20
1631.805063765607
 30
0.0
 11
7128.794324144084
 21
1736.805063765605
 31
0.0
  0
LINE
  5
2133E
330
21247
100
AcDbEntity
  8
U3
100
AcDbLine
 10
6991.974518990691
 20
1663.624868919001
 30
0.0
 11
7065.154713837296
 21
1736.805063765605
 31
0.0
  0
LINE
  5
2133F
330
21247
100
AcDbEntity
  8
U3
100
AcDbLine
 10
6960.154713837297
 20
1695.444674072396
 30
0.0
 11
7001.515103530504
 21
1736.805063765605
 31
0.0
  0
LINE
  5
21340
330
21247
100
AcDbEntity
  8
HATCH
100
AcDbLine
 10
7413.413290395678
 20
1786.805063765605
 30
0.0
 11
7323.413290395681
 21
1696.805063765607
 31
0.0
  0
LINE
  5
21341
330
21247
100
AcDbEntity
  8
U3
100
AcDbLine
 10
7201.974518990687
 20
1663.624868919001
 30
0.0
 11
7275.154713837292
 21
1736.805063765605
 31
0.0
  0
LINE
  5
21342
330
21247
100
AcDbEntity
  8
U3
100
AcDbLine
 10
7170.154713837293
 20
1695.444674072396
 30
0.0
 11
7211.515103530501
 21
1736.805063765605
 31
0.0
  0
LINE
  5
21343
330
21247
100
AcDbEntity
  8
HATCH
100
AcDbLine
 10
7354.016320776008
 20
1786.805063765605
 30
0.0
 11
7275.154713837292
 21
1707.943456826892
 31
0.0
  0
LINE
  5
21344
330
21247
100
AcDbEntity
  8
HATCH
100
AcDbLine
 10
7383.714805585846
 20
1786.805063765605
 30
0.0
 11
7293.714805585842
 21
1696.805063765607
 31
0.0
  0
LINE
  5
21345
330
21247
100
AcDbEntity
  8
KISO
100
AcDbLine
 10
7275.154713837292
 20
1786.805063765603
 30
0.0
 11
7275.154713837292
 21
1636.805063765603
 31
0.0
  0
LINE
  5
21346
330
21247
100
AcDbEntity
  8
SUNPOU
100
AcDbLine
 10
7385.777754625881
 20
1786.805063765603
 30
0.0
 11
7385.777754625881
 21
1786.805063765603
 31
0.0
  0
TEXT
  5
21347
330
21247
100
AcDbEntity
  8
SUNPOU
100
AcDbText
 10
6880.220849926161
 20
1871.805063765604
 30
0.0
 40
90.0
  1
G.L
 41
0.6666666666666666
  7
00
 72
     4
 11
6951.649421354733
 21
1916.805063765604
 31
0.0
100
AcDbText
  0
LINE
  5
21348
330
21247
100
AcDbEntity
  8
SUNPOU
100
AcDbLine
 10
7003.610945581802
 20
1826.805063765604
 30
0.0
 11
6899.687897127669
 21
1826.805063765604
 31
0.0
  0
TEXT
  5
21349
330
21247
100
AcDbEntity
  8
SUNPOU
100
AcDbText
 10
7370.777754625883
 20
2725.874001285368
 30
0.0
 40
90.0
  1
2102
 50
90.0
 41
0.6666666666666666
  7
00
 72
     1
 11
7325.777754625882
 21
2840.159715571083
 31
0.0
100
AcDbText
 73
     2
  0
LINE
  5
2134A
330
21247
100
AcDbEntity
  8
SUNPOU
100
AcDbLine
 10
7415.777754625882
 20
3893.514367376557
 30
0.0
 11
7415.777754625882
 21
4121.234221852899
 31
0.0
  0
LINE
  5
2134B
330
21247
100
AcDbEntity
  8
SUNPOU
100
AcDbLine
 10
7415.777754625882
 20
3878.51436737656
 30
0.0
 11
7415.777754625882
 21
3863.51436737656
 31
0.0
  0
TEXT
  5
2134C
330
21247
100
AcDbEntity
  8
SUNPOU
100
AcDbText
 10
7370.777754625883
 20
4015.519936138612
 30
0.0
 40
90.0
  1
98
 50
90.0
 41
0.6666666666666666
  7
00
 72
     1
 11
7325.777754625882
 21
4072.66279328147
 31
0.0
100
AcDbText
 73
     2
  0
LINE
  5
2134D
330
21247
100
AcDbEntity
  8
SUNPOU
100
AcDbLine
 10
7415.777754625882
 20
4006.391364710039
 30
0.0
 11
7415.777754625882
 21
4021.39136471004
 31
0.0
  0
LINE
  5
2134E
330
21247
100
AcDbEntity
  8
HASHIRA
100
AcDbLine
 10
8713.304713837294
 20
3444.555063765605
 30
0.0
 11
8713.304713837294
 21
1286.805063765603
 31
0.0
  0
LINE
  5
2134F
330
21247
100
AcDbEntity
  8
HASHIRA
100
AcDbLine
 10
8637.004713837292
 20
1286.805063765603
 30
0.0
 11
8637.004713837292
 21
3774.805063765604
 31
0.0
  0
LINE
  5
21350
330
21247
100
AcDbEntity
  8
1PL-M1
100
AcDbLine
 10
8675.154713837292
 20
1096.805063765604
 30
0.0
 11
8675.154713837292
 21
3772.891852687758
 31
0.0
  0
LINE
  5
21351
330
21247
100
AcDbEntity
  8
SUNPOU
100
AcDbLine
 10
10065.15471383728
 20
3600.582642126956
 30
0.0
 11
10065.15471383728
 21
1801.805063765605
 31
0.0
  0
LINE
  5
21352
330
21247
100
AcDbEntity
  8
HIKIDASHI
100
AcDbLine
 10
9068.761932982509
 20
1450.066375526769
 30
0.0
 11
9859.721158013911
 21
1450.066375526769
 31
0.0
  0
TEXT
  5
21353
330
21247
100
AcDbEntity
  8
HIKIDASHI
100
AcDbText
 10
9358.8979981249
 20
1495.066375526769
 30
0.0
 40
90.0
  1
10   x 350
 41
0.6666666666666666
  7
00
 11
9358.8979981249
 21
1540.066375526769
 31
0.0
100
AcDbText
 73
     2
  0
LINE
  5
21354
330
21247
100
AcDbEntity
  8
KISO
100
AcDbLine
 10
9000.154713837291
 20
1636.805063765603
 30
0.0
 11
9875.154713837291
 21
1636.805063765603
 31
0.0
  0
LINE
  5
21355
330
21247
100
AcDbEntity
  8
KISO
100
AcDbLine
 10
9000.154713837291
 20
1696.805063765604
 30
0.0
 11
9875.154713837291
 21
1696.805063765607
 31
0.0
  0
LINE
  5
21356
330
21247
100
AcDbEntity
  8
KISO
100
AcDbLine
 10
9875.154713837291
 20
1786.805063765605
 30
0.0
 11
8713.304713837294
 21
1786.805063765603
 31
0.0
  0
LINE
  5
21357
330
21247
100
AcDbEntity
  8
HATCH
100
AcDbLine
 10
8637.004713837292
 20
1628.956578955768
 30
0.0
 11
8350.154713837294
 21
1342.10657895577
 31
0.0
  0
LINE
  5
21358
330
21247
100
AcDbEntity
  8
HATCH
100
AcDbLine
 10
8637.004713837292
 20
1688.353548575437
 30
0.0
 11
8350.154713837294
 21
1401.503548575438
 31
0.0
  0
LINE
  5
21359
330
21247
100
AcDbEntity
  8
HATCH
100
AcDbLine
 10
8637.004713837292
 20
1658.655063765602
 30
0.0
 11
8350.154713837294
 21
1371.805063765601
 31
0.0
  0
LINE
  5
2135A
330
21247
100
AcDbEntity
  8
KISO
100
AcDbLine
 10
8250.154713837291
 20
1186.805063765604
 30
0.0
 11
9100.154713837291
 21
1186.805063765605
 31
0.0
  0
LINE
  5
2135B
330
21247
100
AcDbEntity
  8
HATCH
100
AcDbLine
 10
8637.004713837292
 20
1388.655063765604
 30
0.0
 11
8535.154713837291
 21
1286.805063765603
 31
0.0
  0
LINE
  5
2135C
330
21247
100
AcDbEntity
  8
HATCH
100
AcDbLine
 10
8637.004713837292
 20
1358.956578955771
 30
0.0
 11
8564.853198647128
 21
1286.805063765603
 31
0.0
  0
LINE
  5
2135D
330
21247
100
AcDbEntity
  8
HATCH
100
AcDbLine
 10
8637.004713837292
 20
1329.258094145935
 30
0.0
 11
8594.551683456961
 21
1286.805063765603
 31
0.0
  0
LINE
  5
2135E
330
21247
100
AcDbEntity
  8
HATCH
100
AcDbLine
 10
7961.988813535616
 20
1786.805063765605
 30
0.0
 11
7871.988813535613
 21
1696.805063765604
 31
0.0
  0
LINE
  5
2135F
330
21247
100
AcDbEntity
  8
HATCH
100
AcDbLine
 10
8021.385783155286
 20
1786.805063765605
 30
0.0
 11
7931.385783155286
 21
1696.805063765604
 31
0.0
  0
LINE
  5
21360
330
21247
100
AcDbEntity
  8
HATCH
100
AcDbLine
 10
7991.687298345457
 20
1786.805063765605
 30
0.0
 11
7901.687298345454
 21
1696.805063765604
 31
0.0
  0
LINE
  5
21361
330
21247
100
AcDbEntity
  8
KISO
100
AcDbLine
 10
8350.154713837291
 20
1786.805063765605
 30
0.0
 11
8350.154713837294
 21
1286.805063765603
 31
0.0
  0
LINE
  5
21362
330
21247
100
AcDbEntity
  8
KISO
100
AcDbLine
 10
8250.154713837291
 20
1186.805063765604
 30
0.0
 11
8250.154713837295
 21
1286.805063765604
 31
0.0
  0
LINE
  5
21363
330
21247
100
AcDbEntity
  8
HATCH
100
AcDbLine
 10
8435.757744217623
 20
1786.805063765605
 30
0.0
 11
8350.154713837291
 21
1701.202033385273
 31
0.0
  0
LINE
  5
21364
330
21247
100
AcDbEntity
  8
HATCH
100
AcDbLine
 10
8465.456229027459
 20
1786.805063765605
 30
0.0
 11
8350.154713837291
 21
1671.503548575437
 31
0.0
  0
LINE
  5
21365
330
21247
100
AcDbEntity
  8
HATCH
100
AcDbLine
 10
8495.154713837292
 20
1786.805063765605
 30
0.0
 11
8350.154713837291
 21
1641.805063765604
 31
0.0
  0
LINE
  5
21366
330
21247
100
AcDbEntity
  8
HATCH
100
AcDbLine
 10
8261.687298345453
 20
1786.805063765605
 30
0.0
 11
8171.687298345453
 21
1696.805063765604
 31
0.0
  0
LINE
  5
21367
330
21247
100
AcDbEntity
  8
HATCH
100
AcDbLine
 10
8291.385783155282
 20
1786.805063765605
 30
0.0
 11
8201.385783155281
 21
1696.805063765604
 31
0.0
  0
LINE
  5
21368
330
21247
100
AcDbEntity
  8
HATCH
100
AcDbLine
 10
8321.084267965122
 20
1786.805063765605
 30
0.0
 11
8231.084267965121
 21
1696.805063765607
 31
0.0
  0
LINE
  5
21369
330
21247
100
AcDbEntity
  8
HATCH
100
AcDbLine
 10
9179.201372161795
 20
1786.805063765605
 30
0.0
 11
9089.201372161795
 21
1696.805063765604
 31
0.0
  0
LINE
  5
2136A
330
21247
100
AcDbEntity
  8
HATCH
100
AcDbLine
 10
9149.502887351959
 20
1786.805063765605
 30
0.0
 11
9059.502887351955
 21
1696.805063765604
 31
0.0
  0
TEXT
  5
2136B
330
21247
100
AcDbEntity
  8
HIKIDASHI
100
AcDbText
 10
9098.76193298251
 20
1495.066375526769
 30
0.0
 40
90.0
  1
鉄筋
  7
01
 11
9098.76193298251
 21
1540.066375526769
 31
0.0
100
AcDbText
 73
     2
  0
LINE
  5
2136C
330
21247
100
AcDbEntity
  8
HATCH
100
AcDbLine
 10
9000.154713837295
 20
1692.408094145936
 30
0.0
 11
8713.304713837294
 21
1405.558094145934
 31
0.0
  0
LINE
  5
2136D
330
21247
100
AcDbEntity
  8
HATCH
100
AcDbLine
 10
9000.154713837291
 20
1722.106578955774
 30
0.0
 11
8713.304713837294
 21
1435.25657895577
 31
0.0
  0
LINE
  5
2136E
330
21247
100
AcDbEntity
  8
KISO
100
AcDbLine
 10
9000.154713837291
 20
1786.805063765605
 30
0.0
 11
9000.154713837295
 21
1286.805063765604
 31
0.0
  0
LINE
  5
2136F
330
21247
100
AcDbEntity
  8
HIKIDASHI
100
AcDbLine
 10
8737.17442680916
 20
1329.378393225101
 30
0.0
 11
9068.761932982509
 21
1450.066375526769
 31
0.0
  0
LINE
  5
21370
330
21247
100
AcDbEntity
  8
HATCH
100
AcDbLine
 10
9000.154713837291
 20
1422.408094145938
 30
0.0
 11
8864.55168345696
 21
1286.805063765603
 31
0.0
  0
LINE
  5
21371
330
21247
100
AcDbEntity
  8
HATCH
100
AcDbLine
 10
9000.154713837291
 20
1452.106578955776
 30
0.0
 11
8834.853198647117
 21
1286.805063765603
 31
0.0
  0
LINE
  5
21372
330
21247
100
AcDbEntity
  8
HIKIDASHI
100
AcDbLine
 10
8658.79108673878
 20
1346.805063765603
 30
0.0
 11
8691.518340935804
 21
1346.805063765603
 31
0.0
  0
CIRCLE
  5
21373
330
21247
100
AcDbEntity
  8
HASHIRA
100
AcDbCircle
 10
8675.154713837292
 20
1346.805063765603
 30
0.0
 40
6.0
  0
CIRCLE
  5
21374
330
21247
100
AcDbEntity
  8
HASHIRA
100
AcDbCircle
 10
8675.154713837292
 20
1306.805063765603
 30
0.0
 40
6.0
  0
LINE
  5
21375
330
21247
100
AcDbEntity
  8
HATCH
100
AcDbLine
 10
9062.059248942842
 20
1286.805063765604
 30
0.0
 11
9082.05924894284
 21
1252.164047614228
 31
0.0
  0
LINE
  5
21376
330
21247
100
AcDbEntity
  8
KISO
100
AcDbLine
 10
9100.154713837291
 20
1186.805063765605
 30
0.0
 11
9100.154713837291
 21
1286.805063765605
 31
0.0
  0
LINE
  5
21377
330
21247
100
AcDbEntity
  8
HATCH
100
AcDbLine
 10
9064.324222023875
 20
1221.446079916984
 30
0.0
 11
9084.324222023875
 21
1186.805063765605
 31
0.0
  0
LINE
  5
21378
330
21247
100
AcDbEntity
  8
HATCH
100
AcDbLine
 10
9044.324222023876
 20
1186.805063765604
 30
0.0
 11
9100.154713837291
 21
1283.506312197998
 31
0.0
  0
LINE
  5
21379
330
21247
100
AcDbEntity
  8
HATCH
100
AcDbLine
 10
9000.154713837295
 20
1392.709609336103
 30
0.0
 11
8894.250168266795
 21
1286.805063765603
 31
0.0
  0
LINE
  5
2137A
330
21247
100
AcDbEntity
  8
HATCH
100
AcDbLine
 10
9000.154713837291
 20
1751.805063765605
 30
0.0
 11
8713.304713837294
 21
1464.955063765603
 31
0.0
  0
LINE
  5
2137B
330
21247
100
AcDbEntity
  8
HATCH
100
AcDbLine
 10
8765.154713837294
 20
1786.805063765605
 30
0.0
 11
8713.304713837294
 21
1734.955063765601
 31
0.0
  0
LINE
  5
2137C
330
21247
100
AcDbEntity
  8
HATCH
100
AcDbLine
 10
8794.853198647128
 20
1786.805063765605
 30
0.0
 11
8713.304713837294
 21
1705.256578955765
 31
0.0
  0
LINE
  5
2137D
330
21247
100
AcDbEntity
  8
HATCH
100
AcDbLine
 10
8735.456229027459
 20
1786.805063765605
 30
0.0
 11
8713.304713837294
 21
1764.653548575438
 31
0.0
  0
LINE
  5
2137E
330
21247
100
AcDbEntity
  8
HATCH
100
AcDbLine
 10
9449.201372161795
 20
1786.805063765605
 30
0.0
 11
9359.201372161791
 21
1696.805063765604
 31
0.0
  0
LINE
  5
2137F
330
21247
100
AcDbEntity
  8
HATCH
100
AcDbLine
 10
9208.899856971628
 20
1786.805063765605
 30
0.0
 11
9118.899856971628
 21
1696.805063765604
 31
0.0
  0
TEXT
  5
21380
330
21247
100
AcDbEntity
  8
HIKIDASHI
100
AcDbText
 10
9508.355159020965
 20
1510.066375526769
 30
0.0
 40
90.0
  1
%%c
 41
0.6666666666666666
  7
00
100
AcDbText
  0
LINE
  5
21381
330
21247
100
AcDbEntity
  8
HATCH
100
AcDbLine
 10
9508.598341781464
 20
1786.805063765605
 30
0.0
 11
9418.598341781464
 21
1696.805063765604
 31
0.0
  0
LINE
  5
21382
330
21247
100
AcDbEntity
  8
HATCH
100
AcDbLine
 10
9478.899856971631
 20
1786.805063765605
 30
0.0
 11
9388.899856971631
 21
1696.805063765604
 31
0.0
  0
LINE
  5
21383
330
21247
100
AcDbEntity
  8
U3
100
AcDbLine
 10
10336.51510353049
 20
1736.805063765605
 30
0.0
 11
9875.154713837291
 21
1736.805063765605
 31
0.0
  0
LINE
  5
21384
330
21247
100
AcDbEntity
  8
U3
100
AcDbLine
 10
10085.15471383728
 20
1631.805063765607
 30
0.0
 11
10190.15471383728
 21
1736.805063765605
 31
0.0
  0
LINE
  5
21385
330
21247
100
AcDbEntity
  8
U3
100
AcDbLine
 10
10053.33490868389
 20
1663.624868919001
 30
0.0
 11
10126.5151035305
 21
1736.805063765605
 31
0.0
  0
LINE
  5
21386
330
21247
100
AcDbEntity
  8
HATCH
100
AcDbLine
 10
9748.899856971632
 20
1786.805063765605
 30
0.0
 11
9658.899856971631
 21
1696.805063765604
 31
0.0
  0
LINE
  5
21387
330
21247
100
AcDbEntity
  8
HATCH
100
AcDbLine
 10
9778.598341781458
 20
1786.805063765605
 30
0.0
 11
9688.59834178146
 21
1696.805063765604
 31
0.0
  0
LINE
  5
21388
330
21247
100
AcDbEntity
  8
HATCH
100
AcDbLine
 10
9808.296826591302
 20
1786.805063765605
 30
0.0
 11
9718.2968265913
 21
1696.805063765607
 31
0.0
  0
LINE
  5
21389
330
21247
100
AcDbEntity
  8
U3
100
AcDbLine
 10
9948.334908683897
 20
1704.98525861221
 30
0.0
 11
10021.5151035305
 21
1631.805063765605
 31
0.0
  0
LINE
  5
2138A
330
21247
100
AcDbEntity
  8
U3
100
AcDbLine
 10
9875.154713837291
 20
1631.805063765607
 30
0.0
 11
9980.154713837293
 21
1736.805063765605
 31
0.0
  0
LINE
  5
2138B
330
21247
100
AcDbEntity
  8
U3
100
AcDbLine
 10
9916.515103530503
 20
1673.165453458816
 30
0.0
 11
9957.875493223712
 21
1631.805063765605
 31
0.0
  0
LINE
  5
2138C
330
21247
100
AcDbEntity
  8
U3
100
AcDbLine
 10
9980.154713837293
 20
1736.805063765605
 30
0.0
 11
10085.15471383728
 21
1631.805063765607
 31
0.0
  0
LINE
  5
2138D
330
21247
100
AcDbEntity
  8
SUNPOU
100
AcDbLine
 10
9905.154713837292
 20
1786.805063765605
 30
0.0
 11
10095.15471383729
 21
1786.805063765605
 31
0.0
  0
LINE
  5
2138E
330
21247
100
AcDbEntity
  8
U3
100
AcDbLine
 10
9875.154713837297
 20
1695.444674072392
 30
0.0
 11
9916.515103530507
 21
1736.805063765605
 31
0.0
  0
LINE
  5
2138F
330
21247
100
AcDbEntity
  8
KISO
100
AcDbLine
 10
9875.154713837291
 20
1636.805063765603
 30
0.0
 11
9875.154713837291
 21
1786.805063765605
 31
0.0
  0
LINE
  5
21390
330
21247
100
AcDbEntity
  8
U3
100
AcDbLine
 10
10021.5151035305
 20
1695.444674072396
 30
0.0
 11
10062.8754932237
 21
1736.805063765605
 31
0.0
  0
LINE
  5
21391
330
21247
100
AcDbEntity
  8
SUNPOU
100
AcDbLine
 10
10035.15471383729
 20
1786.805063765605
 30
0.0
 11
10035.15471383729
 21
1786.805063765605
 31
0.0
  0
LINE
  5
21392
330
21247
100
AcDbEntity
  8
SUNPOU
100
AcDbLine
 10
10065.15471383728
 20
1786.805063765605
 30
0.0
 11
10065.15471383728
 21
1736.805063765605
 31
0.0
  0
LINE
  5
21393
330
21247
100
AcDbEntity
  8
U3
100
AcDbLine
 10
10190.15471383728
 20
1736.805063765605
 30
0.0
 11
10295.15471383728
 21
1631.805063765607
 31
0.0
  0
LINE
  5
21394
330
21247
100
AcDbEntity
  8
U3
100
AcDbLine
 10
10158.33490868389
 20
1704.98525861221
 30
0.0
 11
10231.5151035305
 21
1631.805063765605
 31
0.0
  0
LINE
  5
21395
330
21247
100
AcDbEntity
  8
U3
100
AcDbLine
 10
10126.5151035305
 20
1673.165453458816
 30
0.0
 11
10167.87549322371
 21
1631.805063765605
 31
0.0
  0
LINE
  5
21396
330
21247
100
AcDbEntity
  8
U3
100
AcDbLine
 10
10231.5151035305
 20
1695.444674072396
 30
0.0
 11
10272.8754932237
 21
1736.805063765605
 31
0.0
  0
LINE
  5
21397
330
21247
100
AcDbEntity
  8
U3
100
AcDbLine
 10
10263.33490868388
 20
1663.624868919001
 30
0.0
 11
10336.51510353049
 21
1736.805063765605
 31
0.0
  0
ARC
  5
21398
330
21247
100
AcDbEntity
  8
YANE
100
AcDbCircle
 10
9296.895897540968
 20
3524.53913881739
 30
0.0
 40
370.0
100
AcDbArc
 50
17.12903901488647
 51
87.12903901490975
  0
ARC
  5
21399
330
21247
100
AcDbEntity
  8
YANE
100
AcDbCircle
 10
9296.895897540968
 20
3524.53913881739
 30
0.0
 40
386.0
100
AcDbArc
 50
17.12903901488647
 51
87.12903901490975
  0
LINE
  5
2139A
330
21247
100
AcDbEntity
  8
HIKIDASHI
100
AcDbLine
 10
8925.510617964286
 20
2432.637663742353
 30
0.0
 11
9700.669151779532
 21
2432.637663742353
 31
0.0
  0
LINE
  5
2139B
330
21247
100
AcDbEntity
  8
SUNPOU
100
AcDbLine
 10
7684.758285975757
 20
4501.391364710045
 30
0.0
 11
9654.758285975756
 21
4501.391364710045
 31
0.0
  0
LINE
  5
2139C
330
21247
100
AcDbEntity
  8
KERABA
100
AcDbLine
 10
9582.092532688021
 20
3594.443141840194
 30
0.0
 11
9663.714417751204
 21
3614.989126046635
 31
0.0
  0
ARC
  5
2139D
330
21247
100
AcDbEntity
  8
KERABA
100
AcDbCircle
 10
9282.603288613165
 20
3519.055256912059
 30
0.0
 40
392.2
100
AcDbArc
 50
14.12903901488732
 51
87.12903901480542
  0
ARC
  5
2139E
330
21247
100
AcDbEntity
  8
KERABA
100
AcDbCircle
 10
9282.603288613165
 20
3519.055256912059
 30
0.0
 40
393.0
100
AcDbArc
 50
14.12903901488732
 51
87.12903901480542
  0
TEXT
  5
2139F
330
21247
100
AcDbEntity
  8
HIKIDASHI
100
AcDbText
 10
8955.510617964286
 20
2477.637663742354
 30
0.0
 40
90.0
  1
柱
  7
01
 11
8955.510617964286
 21
2522.637663742355
 31
0.0
100
AcDbText
 73
     2
  0
TEXT
  5
213A0
330
21247
100
AcDbEntity
  8
HIKIDASHI
100
AcDbText
 10
9636.388926869862
 20
2492.637663742355
 30
0.0
 40
90.0
  1
t
  7
01
100
AcDbText
  0
TEXT
  5
213A1
330
21247
100
AcDbEntity
  8
HIKIDASHI
100
AcDbText
 10
9395.57782440781
 20
2492.637663742355
 30
0.0
 40
90.0
  1
x
 41
0.6666666666666666
  7
00
100
AcDbText
  0
TEXT
  5
213A2
330
21247
100
AcDbEntity
  8
HIKIDASHI
100
AcDbText
 10
9087.428276450749
 20
2477.637663742353
 30
0.0
 40
90.0
  1
76.3
 41
0.6666666666666666
  7
00
100
AcDbText
  0
TEXT
  5
213A3
330
21247
100
AcDbEntity
  8
HIKIDASHI
100
AcDbText
 10
9313.434967264953
 20
2492.637663742355
 30
0.0
 40
90.0
  1
%%c
 41
0.6666666666666666
  7
00
100
AcDbText
  0
TEXT
  5
213A4
330
21247
100
AcDbEntity
  8
HIKIDASHI
100
AcDbText
 10
9480.577824407808
 20
2477.637663742353
 30
0.0
 40
90.0
  1
3.2
 41
0.6666666666666666
  7
00
100
AcDbText
  0
LINE
  5
213A5
330
21247
100
AcDbEntity
  8
YANE
100
AcDbLine
 10
7721.431183634283
 20
3974.013203958995
 30
0.0
 11
9315.427997350958
 21
3894.074740994812
 31
0.0
  0
LINE
  5
213A6
330
21247
100
AcDbEntity
  8
YANE
100
AcDbLine
 10
7722.232571734173
 20
3989.993121890993
 30
0.0
 11
9316.229385450851
 21
3910.054658926812
 31
0.0
  0
LINE
  5
213A7
330
21247
100
AcDbEntity
  8
SUNPOU
100
AcDbLine
 10
8110.657639080846
 20
4308.191880974935
 30
0.0
 11
8669.954766700731
 21
4280.143297478733
 31
0.0
  0
LINE
  5
213A8
330
21247
100
AcDbEntity
  8
KERABA
100
AcDbLine
 10
7722.272641139167
 20
3990.792117787611
 30
0.0
 11
9304.651468327554
 21
3911.436293369329
 31
0.0
  0
LINE
  5
213A9
330
21247
100
AcDbEntity
  8
KERABA
100
AcDbLine
 10
7722.232571734171
 20
3989.993121891009
 30
0.0
 11
9304.611398922556
 21
3910.637297472727
 31
0.0
  0
ARC
  5
213AA
330
21247
100
AcDbEntity
  8
HANA_KAKUSHI
100
AcDbCircle
 10
7719.758285975757
 20
3940.655125275951
 30
0.0
 40
50.0
100
AcDbArc
 50
87.12903901490975
 51
267.1290390149097
  0
ARC
  5
213AB
330
21247
100
AcDbEntity
  8
HANA_KAKUSHI
100
AcDbCircle
 10
7719.758285975757
 20
3940.655125275951
 30
0.0
 40
49.4
100
AcDbArc
 50
87.12903901490975
 51
267.1290390149097
  0
LINE
  5
213AC
330
21247
100
AcDbEntity
  8
HANA_KAKUSHI
100
AcDbLine
 10
7734.232610966341
 20
3889.866406882327
 30
0.0
 11
7734.833652041263
 21
3901.851345331326
 31
0.0
  0
LINE
  5
213AD
330
21247
100
AcDbEntity
  8
HANA_KAKUSHI
100
AcDbLine
 10
7733.66341609764
 20
3890.495705858524
 30
0.0
 11
7734.234405118813
 21
3901.881397385071
 31
0.0
  0
LINE
  5
213AE
330
21247
100
AcDbEntity
  8
KERABA
100
AcDbLine
 10
7726.623311347791
 20
3897.857561949992
 30
0.0
 11
7726.122443785356
 21
3887.870113242492
 31
0.0
  0
ARC
  5
213AF
330
21247
100
AcDbEntity
  8
KERABA
100
AcDbCircle
 10
7732.495572357304
 20
3895.160053722733
 30
0.0
 40
2.0
100
AcDbArc
 50
357.1290390148021
 51
87.12903901480542
  0
LINE
  5
213B0
330
21247
100
AcDbEntity
  8
KERABA
100
AcDbLine
 10
7717.364139027328
 20
3892.91512045413
 30
0.0
 11
8037.85337534615
 21
3876.84268120742
 31
0.0
  0
LINE
  5
213B1
330
21247
100
AcDbEntity
  8
KERABA
100
AcDbLine
 10
7717.404208432323
 20
3893.71411635073
 30
0.0
 11
8038.617360747094
 21
3877.605372933565
 31
0.0
  0
LINE
  5
213B2
330
21247
100
AcDbEntity
  8
HANA_KAKUSHI
100
AcDbLine
 10
7717.253948163598
 20
3890.717881738464
 30
0.0
 11
7734.232610966341
 21
3889.866406882327
 31
0.0
  0
LINE
  5
213B3
330
21247
100
AcDbEntity
  8
HANA_KAKUSHI
100
AcDbLine
 10
7717.284000217343
 20
3891.317128660912
 30
0.0
 11
7733.66341609764
 21
3890.495705858524
 31
0.0
  0
LINE
  5
213B4
330
21247
100
AcDbEntity
  8
KERABA
100
AcDbLine
 10
7734.493062098803
 20
3895.059880210244
 30
0.0
 11
7734.342801830074
 21
3892.063645597997
 31
0.0
  0
LINE
  5
213B5
330
21247
100
AcDbEntity
  8
KERABA
100
AcDbLine
 10
7717.364139027328
 20
3892.91512045413
 30
0.0
 11
7717.404208432323
 21
3893.71411635073
 31
0.0
  0
LINE
  5
213B6
330
21247
100
AcDbEntity
  8
KERABA
100
AcDbLine
 10
7762.578126694781
 20
3896.054438725231
 30
0.0
 11
7762.077259132349
 21
3886.066990017737
 31
0.0
  0
CIRCLE
  5
213B7
330
21247
100
AcDbEntity
  8
HARI
100
AcDbCircle
 10
8061.966404434466
 20
3844.394210772819
 30
0.0
 40
1.5
  0
LINE
  5
213B8
330
21247
100
AcDbEntity
  8
HARI_CAP
100
AcDbLine
 10
8048.863484732322
 20
3882.59844476958
 30
0.0
 11
8046.083842869533
 21
3882.73784297677
 31
0.0
  0
LINE
  5
213B9
330
21247
100
AcDbEntity
  8
HARI_CAP
100
AcDbLine
 10
8042.300872389381
 20
3881.282647197249
 30
0.0
 11
8033.706110842956
 21
3872.702439366669
 31
0.0
  0
ARC
  5
213BA
330
21247
100
AcDbEntity
  8
HARI_CAP
100
AcDbCircle
 10
8045.83340908832
 20
3877.74411862302
 30
0.0
 40
5.0
100
AcDbArc
 50
87.12903901490975
 51
134.9514487464158
  0
LINE
  5
213BB
330
21247
100
AcDbEntity
  8
HARI_CAP
100
AcDbLine
 10
8045.106978014116
 20
3807.692579463342
 30
0.0
 11
8042.327336151325
 21
3807.831977670533
 31
0.0
  0
LINE
  5
213BC
330
21247
100
AcDbEntity
  8
HARI_CAP
100
AcDbLine
 10
8038.708935329575
 20
3809.658350004863
 30
0.0
 11
8031.015727610769
 21
3819.055394617463
 31
0.0
  0
ARC
  5
213BD
330
21247
100
AcDbEntity
  8
HARI_CAP
100
AcDbCircle
 10
8042.577769932538
 20
3812.825702024284
 30
0.0
 40
5.0
100
AcDbArc
 50
219.3066292833703
 51
267.1290390149097
  0
ARC
  5
213BE
330
21247
100
AcDbEntity
  8
HARI_CAP
100
AcDbCircle
 10
8061.966404434466
 20
3844.394210772819
 30
0.0
 40
40.0
100
AcDbArc
 50
134.9514487464158
 51
219.3066292833703
  0
LINE
  5
213BF
330
21247
100
AcDbEntity
  8
HARI_CAP
100
AcDbLine
 10
8048.863484732322
 20
3882.59844476958
 30
0.0
 11
8045.106978014116
 21
3807.692579463342
 31
0.0
  0
LINE
  5
213C0
330
21247
100
AcDbEntity
  8
MOYA_KANGU
100
AcDbLine
 10
8058.353056131505
 20
3892.135112670892
 30
0.0
 11
8060.650169334227
 21
3892.019913131532
 31
0.0
  0
LINE
  5
213C1
330
21247
100
AcDbEntity
  8
HARI
100
AcDbLine
 10
8082.515577700506
 20
3874.809065155129
 30
0.0
 11
8083.168925507228
 21
3887.837015450265
 31
0.0
  0
LINE
  5
213C2
330
21247
100
AcDbEntity
  8
HARI
100
AcDbLine
 10
8132.452821238
 20
3872.30472734299
 30
0.0
 11
8133.106169044719
 21
3885.332677638126
 31
0.0
  0
LINE
  5
213C3
330
21247
100
AcDbEntity
  8
SUNPOU
100
AcDbLine
 10
7669.758285975757
 20
3970.655125275951
 30
0.0
 11
7669.758285975757
 21
4531.391364710041
 31
0.0
  0
LINE
  5
213C4
330
21247
100
AcDbEntity
  8
SUNPOU
100
AcDbLine
 10
8080.579519669447
 20
4007.905565548628
 30
0.0
 11
8097.179068706891
 21
4338.905528441075
 31
0.0
  0
LINE
  5
213C5
330
21247
100
AcDbEntity
  8
HANA_KAKUSHI
100
AcDbLine
 10
7762.21241861791
 20
3988.588898563714
 30
0.0
 11
7722.262623787918
 21
3990.592368813443
 31
0.0
  0
LINE
  5
213C6
330
21247
100
AcDbEntity
  8
HANA_KAKUSHI
100
AcDbLine
 10
7762.182366564163
 20
3987.989651641266
 30
0.0
 11
7722.232571734173
 21
3989.993121890993
 31
0.0
  0
LINE
  5
213C7
330
21247
100
AcDbEntity
  8
HANA_KAKUSHI
100
AcDbLine
 10
7734.833652041263
 20
3901.851345331326
 30
0.0
 11
7734.234405118813
 21
3901.881397385071
 31
0.0
  0
LINE
  5
213C8
330
21247
100
AcDbEntity
  8
YANE
100
AcDbLine
 10
7721.431183634283
 20
3974.013203958995
 30
0.0
 11
7722.232571734173
 21
3989.993121890993
 31
0.0
  0
ARC
  5
213C9
330
21247
100
AcDbEntity
  8
KERABA
100
AcDbCircle
 10
7719.818390083246
 20
3941.853619120872
 30
0.0
 40
44.0
100
AcDbArc
 50
87.12903901480542
 51
267.1290390148054
  0
LINE
  5
213CA
330
21247
100
AcDbEntity
  8
KERABA
100
AcDbLine
 10
7717.614572808544
 20
3897.908844807881
 30
0.0
 11
7732.59574586979
 21
3897.157543464231
 31
0.0
  0
ARC
  5
213CB
330
21247
100
AcDbEntity
  8
KERABA
100
AcDbCircle
 10
7737.103553931685
 20
3987.044581831714
 30
0.0
 40
2.0
100
AcDbArc
 50
267.1290390148054
 51
357.1290390148021
  0
LINE
  5
213CC
330
21247
100
AcDbEntity
  8
KERABA
100
AcDbLine
 10
7722.022207357951
 20
3985.798393433863
 30
0.0
 11
7737.003380419197
 21
3985.047092090212
 31
0.0
  0
LINE
  5
213CD
330
21247
100
AcDbEntity
  8
KERABA
100
AcDbLine
 10
7739.101043673184
 20
3986.944408319228
 30
0.0
 11
7739.251303941914
 21
3989.940642931474
 31
0.0
  0
LINE
  5
213CE
330
21247
100
AcDbEntity
  8
KERABA
100
AcDbLine
 10
7722.272641139167
 20
3990.792117787611
 30
0.0
 11
7722.232571734171
 21
3989.993121891009
 31
0.0
  0
LINE
  5
213CF
330
21247
100
AcDbEntity
  8
KERABA
100
AcDbLine
 10
7731.98962136295
 20
3984.898027923128
 30
0.0
 11
7732.490488925384
 21
3994.885476630626
 31
0.0
  0
LINE
  5
213D0
330
21247
100
AcDbEntity
  8
HANA_KAKUSHI
100
AcDbLine
 10
7762.182366564163
 20
3987.989651641266
 30
0.0
 11
7762.21241861791
 21
3988.588898563714
 31
0.0
  0
LINE
  5
213D1
330
21247
100
AcDbEntity
  8
KERABA
100
AcDbLine
 10
7767.446559401628
 20
3993.132440162113
 30
0.0
 11
7766.945691839194
 21
3983.144991454615
 31
0.0
  0
LINE
  5
213D2
330
21247
100
AcDbEntity
  8
MOYA
100
AcDbLine
 10
8053.187560256002
 20
3902.406727808287
 30
0.0
 11
8066.17690059857
 21
3901.755316279128
 31
0.0
  0
LINE
  5
213D3
330
21247
100
AcDbEntity
  8
YANE_UKE
100
AcDbLine
 10
8075.3860668026
 20
3954.259959129275
 30
0.0
 11
8080.379791156346
 21
3954.009525348059
 31
0.0
  0
LINE
  5
213D4
330
21247
100
AcDbEntity
  8
YANE_UKE
100
AcDbLine
 10
8075.335980046355
 20
3953.261214258525
 30
0.0
 11
8080.329704400105
 21
3953.010780477308
 31
0.0
  0
LINE
  5
213D5
330
21247
100
AcDbEntity
  8
YANE_UKE
100
AcDbLine
 10
8080.179444131372
 20
3950.014545865061
 30
0.0
 11
8080.404834534467
 21
3954.508897783433
 31
0.0
  0
LINE
  5
213D6
330
21247
100
AcDbEntity
  8
YANE_UKE
100
AcDbLine
 10
8075.185719777621
 20
3950.264979646276
 30
0.0
 11
8080.179444131372
 21
3950.014545865061
 31
0.0
  0
LINE
  5
213D7
330
21247
100
AcDbEntity
  8
YANE_UKE
100
AcDbLine
 10
8075.411110180718
 20
3954.75933156465
 30
0.0
 11
8075.185719777621
 21
3950.264979646276
 31
0.0
  0
LINE
  5
213D8
330
21247
100
AcDbEntity
  8
YANE_UKE
100
AcDbLine
 10
8065.548878363829
 20
3957.757061303956
 30
0.0
 11
8090.517500132575
 21
3956.504892397876
 31
0.0
  0
LINE
  5
213D9
330
21247
100
AcDbEntity
  8
YANE_UKE
100
AcDbLine
 10
8065.503800283213
 20
3956.858190920281
 30
0.0
 11
8066.280145004983
 21
3972.338736416904
 31
0.0
  0
LINE
  5
213DA
330
21247
100
AcDbEntity
  8
YANE_UKE
100
AcDbLine
 10
8090.472422051956
 20
3955.606022014201
 30
0.0
 11
8065.503800283213
 21
3956.858190920281
 31
0.0
  0
LINE
  5
213DB
330
21247
100
AcDbEntity
  8
YANE_UKE
100
AcDbLine
 10
8091.248766773729
 20
3971.086567510823
 30
0.0
 11
8090.472422051956
 21
3955.606022014201
 31
0.0
  0
LINE
  5
213DC
330
21247
100
AcDbEntity
  8
YANE_UKE
100
AcDbLine
 10
8066.280145004983
 20
3972.338736416904
 30
0.0
 11
8091.248766773729
 21
3971.086567510823
 31
0.0
  0
LINE
  5
213DD
330
21247
100
AcDbEntity
  8
YANE_UKE
100
AcDbLine
 10
8077.485197957733
 20
3946.203866939633
 30
0.0
 11
8079.076916982147
 21
3977.943219426133
 31
0.0
  0
LINE
  5
213DE
330
21247
100
AcDbEntity
  8
MOYA
100
AcDbLine
 10
8055.19103050571
 20
3942.35652263828
 30
0.0
 11
8068.180370848281
 21
3941.705111109122
 31
0.0
  0
LINE
  5
213DF
330
21247
100
AcDbEntity
  8
KERABA
100
AcDbLine
 10
8078.554091513131
 20
3967.517923506717
 30
0.0
 11
8079.054959075561
 21
3977.505372214217
 31
0.0
  0
TEXT
  5
213E0
330
21247
100
AcDbEntity
  8
SUNPOU
100
AcDbText
 10
8306.953403714606
 20
4343.404258945708
 30
0.0
 40
90.0
  1
590
 50
357.1290390148575
 41
0.6666666666666666
  7
00
 72
     1
 11
8394.814010952677
 21
4384.054627594315
 31
0.0
100
AcDbText
 73
     2
  0
LINE
  5
213E1
330
21247
100
AcDbEntity
  8
YANE_UKE
100
AcDbLine
 10
9268.991369536745
 20
3896.503649647737
 30
0.0
 11
9244.022747767997
 21
3897.755818553818
 31
0.0
  0
LINE
  5
213E2
330
21247
100
AcDbEntity
  8
YANE_UKE
100
AcDbLine
 10
9269.767714258511
 20
3911.98419514436
 30
0.0
 11
9268.991369536745
 21
3896.503649647737
 31
0.0
  0
LINE
  5
213E3
330
21247
100
AcDbEntity
  8
YANE_UKE
100
AcDbLine
 10
9256.004145442522
 20
3887.101494573169
 30
0.0
 11
9257.595864466935
 21
3918.84084705967
 31
0.0
  0
ARC
  5
213E4
330
21247
100
AcDbEntity
  8
1PL-S1
100
AcDbCircle
 10
9024.504713837293
 20
3725.055063765605
 30
0.0
 40
250.2499999999999
100
AcDbArc
 50
270.0
 51
0.0
  0
ARC
  5
213E5
330
21247
100
AcDbEntity
  8
HASHIRA
100
AcDbCircle
 10
9024.504713837293
 20
3725.055063765605
 30
0.0
 40
280.5
100
AcDbArc
 50
270.0
 51
0.0
  0
ARC
  5
213E6
330
21247
100
AcDbEntity
  8
HASHIRA
100
AcDbCircle
 10
9024.504713837293
 20
3725.055063765605
 30
0.0
 40
220.0
100
AcDbArc
 50
270.0
 51
0.0
  0
LINE
  5
213E7
330
21247
100
AcDbEntity
  8
HASHIRA
100
AcDbLine
 10
8713.304713837294
 20
3770.978641609911
 30
0.0
 11
8713.304713837294
 21
3505.055063765604
 31
0.0
  0
LINE
  5
213E8
330
21247
100
AcDbEntity
  8
1PL-S1
100
AcDbLine
 10
8662.515549572807
 20
3474.805063765605
 30
0.0
 11
9024.504713837293
 21
3474.805063765605
 31
0.0
  0
LINE
  5
213E9
330
21247
100
AcDbEntity
  8
HASHIRA
100
AcDbLine
 10
8713.304713837294
 20
3444.555063765605
 30
0.0
 11
9024.504713837293
 21
3444.555063765605
 31
0.0
  0
LINE
  5
213EA
330
21247
100
AcDbEntity
  8
HASHIRA
100
AcDbLine
 10
8713.304713837294
 20
3505.055063765604
 30
0.0
 11
9024.504713837293
 21
3505.055063765604
 31
0.0
  0
ARC
  5
213EB
330
21247
100
AcDbEntity
  8
HASHIRA
100
AcDbCircle
 10
8713.304713837294
 20
3474.805063765605
 30
0.0
 40
30.25
100
AcDbArc
 50
90.0
 51
270.0
  0
CIRCLE
  5
213EC
330
21247
100
AcDbEntity
  8
HARI
100
AcDbCircle
 10
8676.917767657021
 20
3808.047672138151
 30
0.0
 40
6.0
  0
LINE
  5
213ED
330
21247
100
AcDbEntity
  8
HASHIRA
100
AcDbLine
 10
8623.719352993674
 20
3775.47132063426
 30
0.0
 11
8627.225425930639
 21
3845.383461586749
 31
0.0
  0
LINE
  5
213EE
330
21247
100
AcDbEntity
  8
HASHIRA
100
AcDbLine
 10
8726.59007468091
 20
3770.312384741256
 30
0.0
 11
8623.719352993674
 21
3775.47132063426
 31
0.0
  0
LINE
  5
213EF
330
21247
100
AcDbEntity
  8
HASHIRA
100
AcDbLine
 10
8730.096147617867
 20
3840.224525693744
 30
0.0
 11
8726.59007468091
 21
3770.312384741256
 31
0.0
  0
LINE
  5
213F0
330
21247
100
AcDbEntity
  8
HASHIRA
100
AcDbLine
 10
8627.225425930639
 20
3845.383461586749
 30
0.0
 11
8730.096147617867
 21
3840.224525693744
 31
0.0
  0
LINE
  5
213F1
330
21247
100
AcDbEntity
  8
1PL-S1
100
AcDbLine
 10
8675.154713837292
 20
3772.891852687757
 30
0.0
 11
8680.261193929696
 21
3874.716590053427
 31
0.0
  0
LINE
  5
213F2
330
21247
100
AcDbEntity
  8
MOYA_KANGU
100
AcDbLine
 10
8647.612529873892
 20
3862.58392648766
 30
0.0
 11
8649.909643076616
 21
3862.468726948302
 31
0.0
  0
LINE
  5
213F3
330
21247
100
AcDbEntity
  8
MOYA
100
AcDbLine
 10
8642.1667698069
 20
3872.869596790345
 30
0.0
 11
8655.381296595155
 21
3872.20689222836
 31
0.0
  0
CIRCLE
  5
213F4
330
21247
100
AcDbEntity
  8
HARI
100
AcDbCircle
 10
8676.917767657021
 20
3808.047672138151
 30
0.0
 40
6.0
  0
LINE
  5
213F5
330
21247
100
AcDbEntity
  8
HARI
100
AcDbLine
 10
8721.712294980392
 20
3842.75354115976
 30
0.0
 11
8722.36564278711
 21
3855.781491454897
 31
0.0
  0
LINE
  5
213F6
330
21247
100
AcDbEntity
  8
HARI
100
AcDbLine
 10
8671.775051442901
 20
3845.257878971898
 30
0.0
 11
8672.428399249616
 21
3858.285829267034
 31
0.0
  0
LINE
  5
213F7
330
21247
100
AcDbEntity
  8
HASHIRA
100
AcDbLine
 10
9319.708698910373
 20
3810.655632777085
 30
0.0
 11
9236.812874638136
 21
3814.812833545237
 31
0.0
  0
LINE
  5
213F8
330
21247
100
AcDbEntity
  8
HASHIRA
100
AcDbLine
 10
9233.306801701175
 20
3744.900692592744
 30
0.0
 11
9316.202625973412
 21
3740.743491824596
 31
0.0
  0
LINE
  5
213F9
330
21247
100
AcDbEntity
  8
MOYA
100
AcDbLine
 10
9231.426243549293
 20
3843.318410607114
 30
0.0
 11
9244.640770337548
 21
3842.655706045126
 31
0.0
  0
LINE
  5
213FA
330
21247
100
AcDbEntity
  8
MOYA
100
AcDbLine
 10
9233.429713799024
 20
3883.268205437106
 30
0.0
 11
9246.644240587276
 21
3882.605500875119
 31
0.0
  0
LINE
  5
213FB
330
21247
100
AcDbEntity
  8
MOYA_KANGU
100
AcDbLine
 10
9236.872003616289
 20
3833.032740304428
 30
0.0
 11
9239.169116819011
 21
3832.91754076507
 31
0.0
  0
LINE
  5
213FC
330
21247
100
AcDbEntity
  8
HASHIRA
100
AcDbLine
 10
9236.812874638136
 20
3814.812833545237
 30
0.0
 11
9233.306801701175
 21
3744.900692592744
 31
0.0
  0
LINE
  5
213FD
330
21247
100
AcDbEntity
  8
HASHIRA
100
AcDbLine
 10
9316.202625973412
 20
3740.743491824596
 30
0.0
 11
9319.708698910373
 21
3810.655632777085
 31
0.0
  0
LINE
  5
213FE
330
21247
100
AcDbEntity
  8
1PL-S1
100
AcDbLine
 10
9274.754713837292
 20
3742.822092208672
 30
0.0
 11
9279.246484844028
 21
3832.389346910821
 31
0.0
  0
LINE
  5
213FF
330
21247
100
AcDbEntity
  8
1PL-M1
100
AcDbLine
 10
9274.754713837291
 20
3725.055063765605
 30
0.0
 11
9274.754713837291
 21
3742.822092208672
 31
0.0
  0
LINE
  5
21400
330
21247
100
AcDbEntity
  8
HASHIRA
100
AcDbLine
 10
9244.50471383729
 20
3725.055063765605
 30
0.0
 11
9244.50471383729
 21
3744.339120651788
 31
0.0
  0
LINE
  5
21401
330
21247
100
AcDbEntity
  8
HASHIRA
100
AcDbLine
 10
9305.004713837289
 20
3725.055063765605
 30
0.0
 11
9305.004713837289
 21
3741.305063765556
 31
0.0
  0
LINE
  5
21402
330
21247
100
AcDbEntity
  8
YANE_UKE
100
AcDbLine
 10
9253.704667262413
 20
3891.162607279812
 30
0.0
 11
9258.698391616155
 21
3890.912173498597
 31
0.0
  0
LINE
  5
21403
330
21247
100
AcDbEntity
  8
YANE_UKE
100
AcDbLine
 10
9253.905014287385
 20
3895.157586762811
 30
0.0
 11
9258.898738641132
 21
3894.907152981596
 31
0.0
  0
LINE
  5
21404
330
21247
100
AcDbEntity
  8
YANE_UKE
100
AcDbLine
 10
9253.85492753114
 20
3894.158841892061
 30
0.0
 11
9258.848651884894
 21
3893.908408110844
 31
0.0
  0
LINE
  5
21405
330
21247
100
AcDbEntity
  8
YANE_UKE
100
AcDbLine
 10
9253.930057665508
 20
3895.656959198185
 30
0.0
 11
9253.704667262413
 21
3891.162607279812
 31
0.0
  0
LINE
  5
21406
330
21247
100
AcDbEntity
  8
YANE_UKE
100
AcDbLine
 10
9258.698391616155
 20
3890.912173498597
 30
0.0
 11
9258.923782019257
 21
3895.406525416967
 31
0.0
  0
CIRCLE
  5
21407
330
21247
100
AcDbEntity
  8
HASHIRA
100
AcDbCircle
 10
9276.517767657024
 20
3777.977911659064
 30
0.0
 40
6.0
  0
CIRCLE
  5
21408
330
21247
100
AcDbEntity
  8
HARI
100
AcDbCircle
 10
9350.347287701735
 20
3779.782295219649
 30
0.0
 40
1.5
  0
CIRCLE
  5
21409
330
21247
100
AcDbEntity
  8
HARI
100
AcDbCircle
 10
9276.164690106915
 20
3777.995618392491
 30
0.0
 40
6.0
  0
LINE
  5
2140A
330
21247
100
AcDbEntity
  8
HARI
100
AcDbLine
 10
9310.971768722785
 20
3813.202354976527
 30
0.0
 11
9311.625116529505
 21
3826.230305271666
 31
0.0
  0
LINE
  5
2140B
330
21247
100
AcDbEntity
  8
HARI
100
AcDbLine
 10
9261.034525185298
 20
3815.706692788666
 30
0.0
 11
9261.687872992011
 21
3828.734643083802
 31
0.0
  0
ARC
  5
2140C
330
21247
100
AcDbEntity
  8
KERABA
100
AcDbCircle
 10
9282.603288613165
 20
3519.055256912059
 30
0.0
 40
295.8
100
AcDbArc
 50
16.07164098912484
 51
69.33554093276093
  0
ARC
  5
2140D
330
21247
100
AcDbEntity
  8
KERABA
100
AcDbCircle
 10
9282.603288613165
 20
3519.055256912059
 30
0.0
 40
295.0
100
AcDbArc
 50
16.07164098912484
 51
69.18782183166605
  0
ARC
  5
2140E
330
21247
100
AcDbEntity
  8
KERABA
100
AcDbCircle
 10
9568.63629415791
 20
3599.37974793989
 30
0.0
 40
2.0
100
AcDbArc
 50
23.37452780505909
 51
106.07164098913
  0
ARC
  5
2140F
330
21247
100
AcDbEntity
  8
KERABA
100
AcDbCircle
 10
9579.651467315635
 20
3604.140626042179
 30
0.0
 40
10.0
100
AcDbArc
 50
203.3745278049233
 51
284.1290390148908
  0
LINE
  5
21410
330
21247
100
AcDbEntity
  8
KERABA
100
AcDbLine
 10
9566.073595815694
 20
3600.722783717427
 30
0.0
 11
9568.08261601008
 21
3601.301580531095
 31
0.0
  0
CIRCLE
  5
21411
330
21247
100
AcDbEntity
  8
KERABA
100
AcDbCircle
 10
9586.81502378514
 20
3600.787870865477
 30
0.0
 40
2.5
  0
LINE
  5
21412
330
21247
100
AcDbEntity
  8
HARI_CAP
100
AcDbLine
 10
9370.012819746824
 20
3742.893858795216
 30
0.0
 11
9378.607581293248
 21
3751.474066625801
 31
0.0
  0
LINE
  5
21413
330
21247
100
AcDbEntity
  8
HARI_CAP
100
AcDbLine
 10
9363.450207403879
 20
3741.57806122289
 30
0.0
 11
9367.206714122087
 21
3816.483926529129
 31
0.0
  0
ARC
  5
21414
330
21247
100
AcDbEntity
  8
HARI_CAP
100
AcDbCircle
 10
9366.480283047888
 20
3746.432387369451
 30
0.0
 40
5.0
100
AcDbArc
 50
267.1290390149097
 51
314.9514487464159
  0
LINE
  5
21415
330
21247
100
AcDbEntity
  8
HARI_CAP
100
AcDbLine
 10
9363.450207403879
 20
3741.57806122289
 30
0.0
 11
9366.229849266675
 21
3741.438663015701
 31
0.0
  0
LINE
  5
21416
330
21247
100
AcDbEntity
  8
HARI_CAP
100
AcDbLine
 10
9367.206714122087
 20
3816.483926529129
 30
0.0
 11
9369.986355984883
 21
3816.344528321938
 31
0.0
  0
LINE
  5
21417
330
21247
100
AcDbEntity
  8
HARI_CAP
100
AcDbLine
 10
9373.604756806631
 20
3814.518155987607
 30
0.0
 11
9381.297964525435
 21
3805.121111375008
 31
0.0
  0
ARC
  5
21418
330
21247
100
AcDbEntity
  8
HARI_CAP
100
AcDbCircle
 10
9369.735922203664
 20
3811.350803968185
 30
0.0
 40
5.0
100
AcDbArc
 50
39.30662928337029
 51
87.12903901490975
  0
ARC
  5
21419
330
21247
100
AcDbEntity
  8
HARI_CAP
100
AcDbCircle
 10
9350.347287701735
 20
3779.782295219649
 30
0.0
 40
40.0
100
AcDbArc
 50
314.9514487464159
 51
39.30662928337029
  0
LINE
  5
2141A
330
21247
100
AcDbEntity
  8
SUNPOU
100
AcDbLine
 10
8699.917112823225
 20
4278.640694791435
 30
0.0
 11
9259.21424044311
 21
4250.592111295232
 31
0.0
  0
LINE
  5
2141B
330
21247
100
AcDbEntity
  8
SUNPOU
100
AcDbLine
 10
8669.838993411827
 20
3978.354379365129
 30
0.0
 11
8686.438542449272
 21
4309.354342257577
 31
0.0
  0
LINE
  5
2141C
330
21247
100
AcDbEntity
  8
SUNPOU
100
AcDbLine
 10
8669.838993411827
 20
3978.354379365129
 30
0.0
 11
8686.438542449272
 21
4309.354342257577
 31
0.0
  0
LINE
  5
2141D
330
21247
100
AcDbEntity
  8
YANE_UKE
100
AcDbLine
 10
8664.670583923109
 20
3925.208145381417
 30
0.0
 11
8664.445193520016
 21
3920.713793463043
 31
0.0
  0
LINE
  5
2141E
330
21247
100
AcDbEntity
  8
YANE_UKE
100
AcDbLine
 10
8666.744671700124
 20
3916.652680756401
 30
0.0
 11
8668.33639072454
 21
3948.392033242898
 31
0.0
  0
LINE
  5
2141F
330
21247
100
AcDbEntity
  8
YANE_UKE
100
AcDbLine
 10
8669.438917873764
 20
3920.463359681826
 30
0.0
 11
8669.664308276862
 21
3924.957711600201
 31
0.0
  0
LINE
  5
21420
330
21247
100
AcDbEntity
  8
YANE_UKE
100
AcDbLine
 10
8664.445193520016
 20
3920.713793463043
 30
0.0
 11
8669.438917873764
 21
3920.463359681826
 31
0.0
  0
LINE
  5
21421
330
21247
100
AcDbEntity
  8
MOYA
100
AcDbLine
 10
8644.170240056627
 20
3912.819391620338
 30
0.0
 11
8657.384766844883
 21
3912.156687058352
 31
0.0
  0
LINE
  5
21422
330
21247
100
AcDbEntity
  8
YANE_UKE
100
AcDbLine
 10
8655.53961874737
 20
3942.787550233672
 30
0.0
 11
8680.508240516116
 21
3941.535381327591
 31
0.0
  0
LINE
  5
21423
330
21247
100
AcDbEntity
  8
YANE_UKE
100
AcDbLine
 10
8654.763274025603
 20
3927.307004737049
 30
0.0
 11
8655.53961874737
 21
3942.787550233672
 31
0.0
  0
LINE
  5
21424
330
21247
100
AcDbEntity
  8
YANE_UKE
100
AcDbLine
 10
8680.508240516116
 20
3941.535381327591
 30
0.0
 11
8679.731895794345
 21
3926.054835830969
 31
0.0
  0
LINE
  5
21425
330
21247
100
AcDbEntity
  8
YANE_UKE
100
AcDbLine
 10
8679.731895794345
 20
3926.054835830969
 30
0.0
 11
8654.763274025603
 21
3927.307004737049
 31
0.0
  0
LINE
  5
21426
330
21247
100
AcDbEntity
  8
YANE_UKE
100
AcDbLine
 10
8654.80835210622
 20
3928.205875120724
 30
0.0
 11
8679.776973874966
 21
3926.953706214642
 31
0.0
  0
LINE
  5
21427
330
21247
100
AcDbEntity
  8
YANE_UKE
100
AcDbLine
 10
8664.645540544992
 20
3924.708772946041
 30
0.0
 11
8669.639264898739
 21
3924.458339164827
 31
0.0
  0
LINE
  5
21428
330
21247
100
AcDbEntity
  8
YANE_UKE
100
AcDbLine
 10
8664.595453788749
 20
3923.710028075293
 30
0.0
 11
8669.589178142498
 21
3923.459594294078
 31
0.0
  0
LINE
  5
21429
330
21247
100
AcDbEntity
  8
KERABA
100
AcDbLine
 10
8667.81356525551
 20
3937.966737323196
 30
0.0
 11
8668.314432817942
 21
3947.954186030693
 31
0.0
  0
TEXT
  5
2142A
330
21247
100
AcDbEntity
  8
SUNPOU
100
AcDbText
 10
8896.212877456985
 20
4313.853072762207
 30
0.0
 40
90.0
  1
590
 50
357.1290390148575
 41
0.6666666666666666
  7
00
 72
     1
 11
8984.073484695057
 21
4354.503441410815
 31
0.0
100
AcDbText
 73
     2
  0
LINE
  5
2142B
330
21247
100
AcDbEntity
  8
SUNPOU
100
AcDbLine
 10
9259.09846715421
 20
3948.803193181629
 30
0.0
 11
9275.698016191654
 21
4279.803156074075
 31
0.0
  0
LINE
  5
2142C
330
21247
100
AcDbEntity
  8
YANE_UKE
100
AcDbLine
 10
9244.022747767997
 20
3897.755818553818
 30
0.0
 11
9244.799092489769
 21
3913.236364050441
 31
0.0
  0
LINE
  5
2142D
330
21247
100
AcDbEntity
  8
YANE_UKE
100
AcDbLine
 10
9244.067825848619
 20
3898.654688937494
 30
0.0
 11
9269.036447617365
 21
3897.402520031411
 31
0.0
  0
LINE
  5
2142E
330
21247
100
AcDbEntity
  8
YANE_UKE
100
AcDbLine
 10
9244.799092489769
 20
3913.236364050441
 30
0.0
 11
9269.767714258511
 21
3911.98419514436
 31
0.0
  0
LINE
  5
2142F
330
21247
100
AcDbEntity
  8
KERABA
100
AcDbLine
 10
9257.073038997889
 20
3908.41555113967
 30
0.0
 11
9257.57390656032
 21
3918.402999847169
 31
0.0
  0
TEXT
  5
21430
330
21247
100
AcDbEntity
  8
SUNPOU
100
AcDbText
 10
10020.15471383729
 20
1810.933635194176
 30
0.0
 40
90.0
  1
50
 50
90.0
 41
0.6666666666666666
  7
00
 72
     1
 11
9975.154713837291
 21
1868.076492337033
 31
0.0
100
AcDbText
 73
     2
  0
TEXT
  5
21431
330
21247
100
AcDbEntity
  8
SUNPOU
100
AcDbText
 10
10020.15471383729
 20
2582.622424374852
 30
0.0
 40
90.0
  1
1822
 50
90.0
 41
0.6666666666666666
  7
00
 72
     1
 11
9975.154713837291
 21
2701.193852946281
 31
0.0
100
AcDbText
 73
     2
  0
LINE
  5
21432
330
21247
100
AcDbEntity
  8
SUNPOU
100
AcDbLine
 10
9669.75828597576
 20
3666.946408138145
 30
0.0
 11
9669.75828597576
 21
4531.391364710041
 31
0.0
  0
LINE
  5
21433
330
21247
100
AcDbEntity
  8
SUNPOU
100
AcDbLine
 10
9693.71637841388
 20
3615.582642126956
 30
0.0
 11
10095.15471383729
 21
3615.582642126956
 31
0.0
  0
LINE
  5
21434
330
21247
100
AcDbEntity
  8
TOI
100
AcDbLine
 10
9629.508526351733
 20
3608.465070359322
 30
0.0
 11
9617.82019016168
 21
3640.17977983471
 31
0.0
  0
LINE
  5
21435
330
21247
100
AcDbEntity
  8
TOI
100
AcDbLine
 10
9629.153028601109
 20
3607.694602093072
 30
0.0
 11
9617.049721895428
 21
3640.535277585339
 31
0.0
  0
LINE
  5
21436
330
21247
100
AcDbEntity
  8
TOI
100
AcDbLine
 10
9642.216120527363
 20
3649.170807673216
 30
0.0
 11
9617.82019016168
 21
3640.17977983471
 31
0.0
  0
LINE
  5
21437
330
21247
100
AcDbEntity
  8
TOI
100
AcDbLine
 10
9641.445652261115
 20
3649.52630542384
 30
0.0
 11
9617.049721895428
 21
3640.535277585339
 31
0.0
  0
LINE
  5
21438
330
21247
100
AcDbEntity
  8
TOI
100
AcDbLine
 10
9634.234344574659
 20
3657.52612051241
 30
0.0
 11
9642.303767695622
 21
3660.500075874377
 31
0.0
  0
LINE
  5
21439
330
21247
100
AcDbEntity
  8
TOI
100
AcDbLine
 10
9660.506884968473
 20
3667.208765876953
 30
0.0
 11
9652.437461847517
 21
3664.234810514987
 31
0.0
  0
LINE
  5
2143A
330
21247
100
AcDbEntity
  8
TOI
100
AcDbLine
 10
9653.295577282021
 20
3675.20858096552
 30
0.0
 11
9652.732594273585
 21
3675.001095707712
 31
0.0
  0
LINE
  5
2143B
330
21247
100
AcDbEntity
  8
TOI
100
AcDbLine
 10
9635.092460009165
 20
3668.499890962947
 30
0.0
 11
9634.529477000729
 21
3668.292405705136
 31
0.0
  0
LINE
  5
2143C
330
21247
100
AcDbEntity
  8
TOI
100
AcDbLine
 10
9635.092460009165
 20
3668.499890962947
 30
0.0
 11
9642.216120527363
 21
3649.170807673216
 31
0.0
  0
LINE
  5
2143D
330
21247
100
AcDbEntity
  8
TOI
100
AcDbLine
 10
9634.529477000729
 20
3668.292405705136
 30
0.0
 11
9641.445652261115
 21
3649.52630542384
 31
0.0
  0
LINE
  5
2143E
330
21247
100
AcDbEntity
  8
TOI
100
AcDbLine
 10
9652.732594273585
 20
3675.001095707712
 30
0.0
 11
9671.544590981831
 21
3623.957302942586
 31
0.0
  0
LINE
  5
2143F
330
21247
100
AcDbEntity
  8
TOI
100
AcDbLine
 10
9653.295577282021
 20
3675.20858096552
 30
0.0
 11
9672.315059248084
 21
3623.601805191962
 31
0.0
  0
LINE
  5
21440
330
21247
100
AcDbEntity
  8
TOI
100
AcDbLine
 10
9671.544590981831
 20
3623.957302942586
 30
0.0
 11
9629.508526351733
 21
3608.465070359322
 31
0.0
  0
LINE
  5
21441
330
21247
100
AcDbEntity
  8
TOI
100
AcDbLine
 10
9672.315059248084
 20
3623.601805191962
 30
0.0
 11
9629.153028601109
 21
3607.694602093072
 31
0.0
  0
LINE
  5
21442
330
21247
100
AcDbEntity
  8
YANE
100
AcDbLine
 10
9665.774429292161
 20
3638.2256763365
 30
0.0
 11
9650.484127457916
 21
3633.513280998921
 31
0.0
  0
CIRCLE
  5
21443
330
21247
100
AcDbEntity
  8
KERABA
100
AcDbCircle
 10
9643.066416929556
 20
3614.947556521361
 30
0.0
 40
2.5
  0
LINE
  5
21444
330
21247
100
AcDbEntity
  8
KERABA
100
AcDbLine
 10
9639.678379155656
 20
3655.342525994951
 30
0.0
 11
9659.983062805668
 21
3660.453651635665
 31
0.0
  0
LINE
  5
21445
330
21247
100
AcDbEntity
  8
SUNPOU
100
AcDbLine
 10
7415.777754625882
 20
1798.055063765603
 30
0.0
 11
7415.777754625882
 21
1809.305063765603
 31
0.0
  0
LINE
  5
21446
330
21247
100
AcDbEntity
  8
SUNPOU
100
AcDbLine
 10
7415.777754625882
 20
3882.26436737656
 30
0.0
 11
7415.777754625882
 21
3871.01436737656
 31
0.0
  0
LINE
  5
21447
330
21247
100
AcDbEntity
  8
SUNPOU
100
AcDbLine
 10
7415.777754625882
 20
3882.26436737656
 30
0.0
 11
7415.777754625882
 21
3871.01436737656
 31
0.0
  0
LINE
  5
21448
330
21247
100
AcDbEntity
  8
SUNPOU
100
AcDbLine
 10
7415.777754625882
 20
4002.641364710039
 30
0.0
 11
7415.777754625882
 21
4013.891364710042
 31
0.0
  0
LINE
  5
21449
330
21247
100
AcDbEntity
  8
SUNPOU
100
AcDbLine
 10
10065.15471383728
 20
1798.055063765604
 30
0.0
 11
10065.15471383728
 21
1809.305063765604
 31
0.0
  0
LINE
  5
2144A
330
21247
100
AcDbEntity
  8
SUNPOU
100
AcDbLine
 10
7681.008285975757
 20
4501.391364710045
 30
0.0
 11
7692.258285975757
 21
4501.391364710045
 31
0.0
  0
LINE
  5
2144B
330
21247
100
AcDbEntity
  8
SUNPOU
100
AcDbLine
 10
8106.912345815533
 20
4308.379706310843
 30
0.0
 11
8118.148225611468
 21
4307.816230303108
 31
0.0
  0
LINE
  5
2144C
330
21247
100
AcDbEntity
  8
SUNPOU
100
AcDbLine
 10
8696.171819557912
 20
4278.828520127347
 30
0.0
 11
8707.407699353845
 21
4278.265044119611
 31
0.0
  0
LINE
  5
2144D
330
21247
100
AcDbEntity
  8
SUNPOU
100
AcDbLine
 10
8673.700059966042
 20
4279.955472142819
 30
0.0
 11
8662.464180170108
 21
4280.518948150554
 31
0.0
  0
LINE
  5
2144E
330
21247
100
AcDbEntity
  8
SUNPOU
100
AcDbLine
 10
9262.959533708425
 20
4250.404285959321
 30
0.0
 11
9251.723653912488
 21
4250.967761967057
 31
0.0
  0
LINE
  5
2144F
330
21247
100
AcDbEntity
  8
SUNPOU
100
AcDbLine
 10
10065.15471383728
 20
3604.332642126956
 30
0.0
 11
10065.15471383728
 21
3593.082642126956
 31
0.0
  0
LINE
  5
21450
330
21247
100
AcDbEntity
  8
SUNPOU
100
AcDbLine
 10
9658.508285975756
 20
4501.391364710045
 30
0.0
 11
9647.258285975755
 21
4501.391364710045
 31
0.0
  0
TEXT
  5
21451
330
21247
100
AcDbEntity
  8
NAME
100
AcDbText
 10
9402.694977008239
 20
716.2499999999992
 30
0.0
 40
120.0
  1
YOTR
 41
0.7
  7
01
100
AcDbText
  0
TEXT
  5
21452
330
21247
100
AcDbEntity
  8
NAME
100
AcDbText
 10
8327.765992739108
 20
716.2499999999992
 30
0.0
 40
120.0
  1
ヨド自転車置場      型
  7
01
100
AcDbText
  0
TEXT
  5
21453
330
21247
100
AcDbEntity
  8
NAME
100
AcDbText
 10
8862.031985478219
 20
405.75
 30
0.0
 40
120.0
  1
型（一般地用）
 41
0.8
  7
01
100
AcDbText
  0
TEXT
  5
21454
330
21247
100
AcDbEntity
  8
NAME
100
AcDbText
 10
8192.031985478219
 20
405.75
 30
0.0
 40
120.0
  1
YOTR-280
 41
0.7
  7
01
 72
     2
 11
8832.03198547822
 21
405.75
 31
0.0
100
AcDbText
  0
TEXT
  5
21455
330
21247
100
AcDbEntity
  8
NAME
100
AcDbText
 10
9641.100000000001
 20
405.7500000000001
 30
0.0
 40
120.0
  1
<1／3>
 41
0.6
  7
01
 72
     2
 11
10015.49999999999
 21
405.7500000000001
 31
0.0
100
AcDbText
  0
TEXT
  5
21456
330
21247
100
AcDbEntity
  8
HIKIDASHI
100
AcDbText
 10
3059.441819018588
 20
5163.354642405096
 30
0.0
 40
135.0
  1
正 面 立 面 図
  7
01
 72
     2
 11
4148.441819018588
 21
5163.354642405096
 31
0.0
100
AcDbText
  0
TEXT
  5
21457
330
21247
100
AcDbEntity
  8
HIKIDASHI
100
AcDbText
 10
4249.691819018588
 20
5190.148139464934
 30
0.0
 40
90.0
  1
(S=
 41
0.6700000000000001
  7
00
100
AcDbText
  0
TEXT
  5
21458
330
21247
100
AcDbEntity
  8
HIKIDASHI
100
AcDbText
 10
4542.349553653784
 20
5160.709329364623
 30
0.0
 40
90.0
  1
30
 41
0.6700000000000001
  7
00
100
AcDbText
  0
TEXT
  5
21459
330
21247
100
AcDbEntity
  8
HIKIDASHI
100
AcDbText
 10
4678.954316724024
 20
5190.148139464934
 30
0.0
 40
90.0
  1
)
 41
0.6700000000000001
  7
00
100
AcDbText
  0
TEXT
  5
2145A
330
21247
100
AcDbEntity
  8
HIKIDASHI
100
AcDbText
 10
4490.267504545817
 20
5190.148139464934
 30
0.0
 40
90.0
  1
/
 41
0.6700000000000001
  7
00
100
AcDbText
  0
TEXT
  5
2145B
330
21247
100
AcDbEntity
  8
HIKIDASHI
100
AcDbText
 10
4452.988224448469
 20
5207.654801931656
 30
0.0
 40
90.0
  1
1
 41
0.6700000000000001
  7
00
100
AcDbText
  0
TEXT
  5
2145C
330
21247
100
AcDbEntity
  8
HIKIDASHI
100
AcDbText
 10
3014.009514795865
 20
1284.289947154653
 30
0.0
 40
135.0
  1
側 面 立 面 図
  7
01
 72
     2
 11
4103.009514795865
 21
1284.289947154653
 31
0.0
100
AcDbText
  0
TEXT
  5
2145D
330
21247
100
AcDbEntity
  8
HIKIDASHI
100
AcDbText
 10
4204.259514795865
 20
1311.083444214492
 30
0.0
 40
90.0
  1
(S=
 41
0.6700000000000001
  7
00
100
AcDbText
  0
TEXT
  5
2145E
330
21247
100
AcDbEntity
  8
HIKIDASHI
100
AcDbText
 10
4496.917249431063
 20
1281.64463411418
 30
0.0
 40
90.0
  1
30
 41
0.6700000000000001
  7
00
100
AcDbText
  0
TEXT
  5
2145F
330
21247
100
AcDbEntity
  8
HIKIDASHI
100
AcDbText
 10
4633.522012501303
 20
1311.083444214492
 30
0.0
 40
90.0
  1
)
 41
0.6700000000000001
  7
00
100
AcDbText
  0
TEXT
  5
21460
330
21247
100
AcDbEntity
  8
HIKIDASHI
100
AcDbText
 10
4444.835200323097
 20
1311.083444214492
 30
0.0
 40
90.0
  1
/
 41
0.6700000000000001
  7
00
100
AcDbText
  0
TEXT
  5
21461
330
21247
100
AcDbEntity
  8
HIKIDASHI
100
AcDbText
 10
4407.555920225749
 20
1328.590106681214
 30
0.0
 40
90.0
  1
1
 41
0.6700000000000001
  7
00
100
AcDbText
  0
TEXT
  5
21462
330
21247
100
AcDbEntity
  8
HIKIDASHI
100
AcDbText
 10
6351.006499023543
 20
1284.289947154653
 30
0.0
 40
135.0
  1
側 面 断 面 図
  7
01
 72
     2
 11
7440.006499023542
 21
1284.289947154653
 31
0.0
100
AcDbText
  0
TEXT
  5
21463
330
21247
100
AcDbEntity
  8
HIKIDASHI
100
AcDbText
 10
7541.256499023544
 20
1311.083444214492
 30
0.0
 40
90.0
  1
(S=
 41
0.6700000000000001
  7
00
100
AcDbText
  0
TEXT
  5
21464
330
21247
100
AcDbEntity
  8
HIKIDASHI
100
AcDbText
 10
7833.91423365874
 20
1281.64463411418
 30
0.0
 40
90.0
  1
30
 41
0.6700000000000001
  7
00
100
AcDbText
  0
TEXT
  5
21465
330
21247
100
AcDbEntity
  8
HIKIDASHI
100
AcDbText
 10
7970.51899672898
 20
1311.083444214492
 30
0.0
 40
90.0
  1
)
 41
0.6700000000000001
  7
00
100
AcDbText
  0
TEXT
  5
21466
330
21247
100
AcDbEntity
  8
HIKIDASHI
100
AcDbText
 10
7781.832184550774
 20
1311.083444214492
 30
0.0
 40
90.0
  1
/
 41
0.6700000000000001
  7
00
100
AcDbText
  0
TEXT
  5
21467
330
21247
100
AcDbEntity
  8
HIKIDASHI
100
AcDbText
 10
7744.552904453427
 20
1328.590106681214
 30
0.0
 40
90.0
  1
1
 41
0.6700000000000001
  7
00
100
AcDbText
  0
TEXT
  5
21468
330
21247
100
AcDbEntity
  8
HIKIDASHI
100
AcDbText
 10
9716.26614589136
 20
2960.916270012596
 30
0.0
 40
90.0
  1
0.8
 41
0.6700000000000001
  7
00
100
AcDbText
  0
TEXT
  5
21469
330
21247
100
AcDbEntity
  8
HIKIDASHI
100
AcDbText
 10
9002.723141051619
 20
2960.916270012596
 30
0.0
 40
90.0
  1
けらば包み
  7
01
 72
     2
 11
9512.723141051621
 21
2960.916270012596
 31
0.0
100
AcDbText
  0
TEXT
  5
2146A
330
21247
100
AcDbEntity
  8
HIKIDASHI
100
AcDbText
 10
9580.192671954682
 20
2968.416270012596
 30
0.0
 40
75.0
  1
ア
  7
01
 72
     1
 11
9612.692671954683
 21
3005.916270012596
 31
0.0
100
AcDbText
 73
     2
  0
CIRCLE
  5
2146B
330
21247
100
AcDbEntity
  8
HIKIDASHI
100
AcDbCircle
 10
9612.692671954683
 20
3005.916270012596
 30
0.0
 40
60.0
  0
LINE
  5
2146C
330
21247
100
AcDbEntity
  8
HIKIDASHI
100
AcDbLine
 10
8972.723141051622
 20
2915.916270012596
 30
0.0
 11
9881.223288748504
 21
2915.916270012596
 31
0.0
  0
TEXT
  5
2146D
330
21247
100
AcDbEntity
  8
HIKIDASHI
100
AcDbText
 10
7329.546797421565
 20
4336.740775902097
 30
0.0
 40
90.0
  1
1.6
 41
0.6700000000000001
  7
00
100
AcDbText
  0
TEXT
  5
2146E
330
21247
100
AcDbEntity
  8
HIKIDASHI
100
AcDbText
 10
6934.003792581826
 20
4336.740775902097
 30
0.0
 40
90.0
  1
母屋
  7
01
 72
     2
 11
7126.003792581826
 21
4336.740775902097
 31
0.0
100
AcDbText
  0
TEXT
  5
2146F
330
21247
100
AcDbEntity
  8
HIKIDASHI
100
AcDbText
 10
7193.473323484887
 20
4344.240775902098
 30
0.0
 40
75.0
  1
ア
  7
01
 72
     1
 11
7225.973323484888
 21
4381.740775902097
 31
0.0
100
AcDbText
 73
     2
  0
CIRCLE
  5
21470
330
21247
100
AcDbEntity
  8
HIKIDASHI
100
AcDbCircle
 10
7225.973323484888
 20
4381.740775902097
 30
0.0
 40
60.0
  0
LINE
  5
21471
330
21247
100
AcDbEntity
  8
HIKIDASHI
100
AcDbLine
 10
6904.003792581827
 20
4291.740775902098
 30
0.0
 11
7494.503940278708
 21
4291.740775902098
 31
0.0
  0
LINE
  5
21472
330
21247
100
AcDbEntity
  8
KISO
100
AcDbLine
 10
8250.154713837291
 20
1286.805063765604
 30
0.0
 11
9100.154713837291
 21
1286.805063765605
 31
0.0
  0
TEXT
  5
21473
330
21247
100
AcDbEntity
  8
HIKIDASHI
100
AcDbText
 10
8260.587232301652
 20
3470.340745024625
 30
0.0
 40
90.0
  1
2.3
 41
0.6700000000000001
  7
00
100
AcDbText
  0
TEXT
  5
21474
330
21247
100
AcDbEntity
  8
HIKIDASHI
100
AcDbText
 10
7973.044227461912
 20
3470.340745024625
 30
0.0
 40
90.0
  1
梁
  7
01
 72
     2
 11
8057.044227461913
 21
3470.340745024625
 31
0.0
100
AcDbText
  0
TEXT
  5
21475
330
21247
100
AcDbEntity
  8
HIKIDASHI
100
AcDbText
 10
8124.513758364976
 20
3477.840745024625
 30
0.0
 40
75.0
  1
ア
  7
01
 72
     1
 11
8157.013758364975
 21
3515.340745024625
 31
0.0
100
AcDbText
 73
     2
  0
CIRCLE
  5
21476
330
21247
100
AcDbEntity
  8
HIKIDASHI
100
AcDbCircle
 10
8157.013758364975
 20
3515.340745024625
 30
0.0
 40
60.0
  0
LINE
  5
21477
330
21247
100
AcDbEntity
  8
HIKIDASHI
100
AcDbLine
 10
7943.044227461915
 20
3425.340745024625
 30
0.0
 11
8425.544375158796
 21
3425.340745024625
 31
0.0
  0
LINE
  5
21478
330
21247
100
AcDbEntity
  8
YANE
100
AcDbLine
 10
2294.12809621424
 20
7408.502162099154
 30
0.0
 11
2294.12809621424
 21
7587.508122720166
 31
0.0
  0
LINE
  5
21479
330
21247
100
AcDbEntity
  8
YANE
100
AcDbLine
 10
2277.47809621424
 20
7408.502162099154
 30
0.0
 11
2277.47809621424
 21
7587.508122720166
 31
0.0
  0
LINE
  5
2147A
330
21247
100
AcDbEntity
  8
YANE
100
AcDbLine
 10
2250.47809621424
 20
7408.502162099154
 30
0.0
 11
2250.47809621424
 21
7587.508122720166
 31
0.0
  0
LINE
  5
2147B
330
21247
100
AcDbEntity
  8
YANE
100
AcDbLine
 10
2367.128096214242
 20
7408.502162099154
 30
0.0
 11
2367.128096214242
 21
7587.508122720166
 31
0.0
  0
LINE
  5
2147C
330
21247
100
AcDbEntity
  8
YANE
100
AcDbLine
 10
2383.77809621424
 20
7408.502162099154
 30
0.0
 11
2383.77809621424
 21
7587.508122720166
 31
0.0
  0
LINE
  5
2147D
330
21247
100
AcDbEntity
  8
YANE
100
AcDbLine
 10
2410.77809621424
 20
7408.502162099154
 30
0.0
 11
2410.77809621424
 21
7587.508122720166
 31
0.0
  0
LINE
  5
2147E
330
21247
100
AcDbEntity
  8
YANE
100
AcDbLine
 10
2427.42809621424
 20
7408.502162099154
 30
0.0
 11
2427.428096214241
 21
7587.508122720166
 31
0.0
  0
LINE
  5
2147F
330
21247
100
AcDbEntity
  8
U1
100
AcDbLine
 10
5308.328096214242
 20
7548.152769638574
 30
0.0
 11
5308.328096214242
 21
7515.681077028266
 31
0.0
  0
LINE
  5
21480
330
21247
100
AcDbEntity
  8
U1
100
AcDbLine
 10
5305.128096214242
 20
7518.881077028265
 30
0.0
 11
5305.128096214242
 21
7548.152769638574
 31
0.0
  0
LINE
  5
21481
330
21247
100
AcDbEntity
  8
U1
100
AcDbLine
 10
5235.328096214242
 20
7515.681077028266
 30
0.0
 11
5235.328096214242
 21
7548.152769638574
 31
0.0
  0
LINE
  5
21482
330
21247
100
AcDbEntity
  8
U1
100
AcDbLine
 10
5238.528096214242
 20
7548.152769638574
 30
0.0
 11
5238.528096214242
 21
7518.881077028265
 31
0.0
  0
LINE
  5
21483
330
21247
100
AcDbEntity
  8
U1
100
AcDbLine
 10
5304.328096214241
 20
7548.152769638578
 30
0.0
 11
5304.328096214241
 21
7518.881077028265
 31
0.0
  0
LINE
  5
21484
330
21247
100
AcDbEntity
  8
U1
100
AcDbLine
 10
5239.328096214242
 20
7548.152769638578
 30
0.0
 11
5239.328096214242
 21
7518.881077028265
 31
0.0
  0
LINE
  5
21485
330
21247
100
AcDbEntity
  8
U1
100
AcDbLine
 10
5309.978096214242
 20
7515.681077028266
 30
0.0
 11
5233.678096214242
 21
7515.681077028266
 31
0.0
  0
LINE
  5
21486
330
21247
100
AcDbEntity
  8
U1
100
AcDbLine
 10
5238.528096214242
 20
7518.881077028265
 30
0.0
 11
5305.128096214242
 21
7518.881077028265
 31
0.0
  0
LINE
  5
21487
330
21247
100
AcDbEntity
  8
CAP
100
AcDbLine
 10
5234.328096214241
 20
7548.152769638578
 30
0.0
 11
5309.328096214241
 21
7548.152769638578
 31
0.0
  0
LINE
  5
21488
330
21247
100
AcDbEntity
  8
CAP
100
AcDbLine
 10
5234.328096214241
 20
7623.058634944816
 30
0.0
 11
5309.328096214241
 21
7623.058634944816
 31
0.0
  0
LINE
  5
21489
330
21247
100
AcDbEntity
  8
CAP
100
AcDbLine
 10
5234.328096214241
 20
7623.058634944816
 30
0.0
 11
5234.328096214241
 21
7548.152769638578
 31
0.0
  0
LINE
  5
2148A
330
21247
100
AcDbEntity
  8
CAP
100
AcDbLine
 10
5309.328096214241
 20
7623.058634944816
 30
0.0
 11
5309.328096214241
 21
7548.152769638578
 31
0.0
  0
CIRCLE
  5
2148B
330
21247
100
AcDbEntity
  8
HIDE-S1
100
AcDbCircle
 10
5271.828096214242
 20
7215.014820159627
 30
0.0
 40
30.25
  0
LINE
  5
2148C
330
21247
100
AcDbEntity
  8
HANA
100
AcDbLine
 10
5309.328096214241
 20
7587.508122720166
 30
0.0
 11
5506.828096214245
 21
7587.508122720166
 31
0.0
  0
LINE
  5
2148D
330
21247
100
AcDbEntity
  8
HANA
100
AcDbLine
 10
5309.328096214241
 20
7617.052437601437
 30
0.0
 11
5506.828096214245
 21
7617.052437601437
 31
0.0
  0
LINE
  5
2148E
330
21247
100
AcDbEntity
  8
U1
100
AcDbLine
 10
5309.978096214244
 20
5527.014820159628
 30
0.0
 11
5309.978096214244
 21
7515.681077028268
 31
0.0
  0
LINE
  5
2148F
330
21247
100
AcDbEntity
  8
U1
100
AcDbLine
 10
5233.678096214244
 20
5527.014820159628
 30
0.0
 11
5233.678096214242
 21
7515.681077028268
 31
0.0
  0
LINE
  5
21490
330
21247
100
AcDbEntity
  8
1PL-M1
100
AcDbLine
 10
5271.828096214242
 20
5502.014820159627
 30
0.0
 11
5271.828096214242
 21
7973.194632209919
 31
0.0
  0
LINE
  5
21491
330
21247
100
AcDbEntity
  8
U1
100
AcDbLine
 10
2508.328096214245
 20
7548.152769638574
 30
0.0
 11
2508.328096214245
 21
7515.681077028261
 31
0.0
  0
LINE
  5
21492
330
21247
100
AcDbEntity
  8
U1
100
AcDbLine
 10
2505.128096214242
 20
7518.881077028265
 30
0.0
 11
2505.128096214242
 21
7548.152769638574
 31
0.0
  0
LINE
  5
21493
330
21247
100
AcDbEntity
  8
U1
100
AcDbLine
 10
2435.328096214243
 20
7515.681077028261
 30
0.0
 11
2435.328096214243
 21
7548.152769638574
 31
0.0
  0
LINE
  5
21494
330
21247
100
AcDbEntity
  8
U1
100
AcDbLine
 10
2438.528096214243
 20
7548.152769638574
 30
0.0
 11
2438.528096214243
 21
7518.881077028265
 31
0.0
  0
LINE
  5
21495
330
21247
100
AcDbEntity
  8
U1
100
AcDbLine
 10
2504.328096214243
 20
7548.152769638574
 30
0.0
 11
2504.328096214243
 21
7518.881077028265
 31
0.0
  0
LINE
  5
21496
330
21247
100
AcDbEntity
  8
U1
100
AcDbLine
 10
2439.328096214243
 20
7548.152769638574
 30
0.0
 11
2439.328096214243
 21
7518.881077028265
 31
0.0
  0
LINE
  5
21497
330
21247
100
AcDbEntity
  8
U1
100
AcDbLine
 10
2509.978096214243
 20
7515.681077028261
 30
0.0
 11
2433.678096214244
 21
7515.681077028261
 31
0.0
  0
LINE
  5
21498
330
21247
100
AcDbEntity
  8
U1
100
AcDbLine
 10
2438.528096214243
 20
7518.881077028265
 30
0.0
 11
2505.128096214242
 21
7518.881077028265
 31
0.0
  0
LINE
  5
21499
330
21247
100
AcDbEntity
  8
CAP
100
AcDbLine
 10
2434.328096214243
 20
7548.152769638574
 30
0.0
 11
2509.328096214243
 21
7548.152769638574
 31
0.0
  0
LINE
  5
2149A
330
21247
100
AcDbEntity
  8
CAP
100
AcDbLine
 10
2434.328096214243
 20
7623.05863494481
 30
0.0
 11
2509.328096214243
 21
7623.058634944816
 31
0.0
  0
LINE
  5
2149B
330
21247
100
AcDbEntity
  8
CAP
100
AcDbLine
 10
2434.328096214243
 20
7623.058634944816
 30
0.0
 11
2434.328096214243
 21
7548.152769638578
 31
0.0
  0
LINE
  5
2149C
330
21247
100
AcDbEntity
  8
CAP
100
AcDbLine
 10
2509.328096214243
 20
7623.058634944816
 30
0.0
 11
2509.328096214243
 21
7548.152769638578
 31
0.0
  0
CIRCLE
  5
2149D
330
21247
100
AcDbEntity
  8
HIDE-S1
100
AcDbCircle
 10
2471.828096214244
 20
7215.014820159627
 30
0.0
 40
30.25
  0
LINE
  5
2149E
330
21247
100
AcDbEntity
  8
TOI
100
AcDbLine
 10
2236.828096214242
 20
7347.904358487092
 30
0.0
 11
2433.678096214244
 21
7347.904358487092
 31
0.0
  0
LINE
  5
2149F
330
21247
100
AcDbEntity
  8
YANE
100
AcDbLine
 10
2433.678096214244
 20
7408.502162099158
 30
0.0
 11
2236.828096214242
 21
7408.502162099154
 31
0.0
  0
LINE
  5
214A0
330
21247
100
AcDbEntity
  8
TOI
100
AcDbLine
 10
2236.828096214242
 20
7380.745033979358
 30
0.0
 11
2433.678096214244
 21
7380.745033979358
 31
0.0
  0
LINE
  5
214A1
330
21247
100
AcDbEntity
  8
TOI
100
AcDbLine
 10
2236.828096214242
 20
7389.736061817862
 30
0.0
 11
2433.678096214244
 21
7389.736061817862
 31
0.0
  0
LINE
  5
214A2
330
21247
100
AcDbEntity
  8
HANA
100
AcDbLine
 10
2236.828096214242
 20
7587.508122720166
 30
0.0
 11
2434.328096214243
 21
7587.508122720165
 31
0.0
  0
LINE
  5
214A3
330
21247
100
AcDbEntity
  8
HANA
100
AcDbLine
 10
2236.828096214242
 20
7617.052437601437
 30
0.0
 11
2434.328096214243
 21
7617.052437601437
 31
0.0
  0
TEXT
  5
214A4
330
21247
100
AcDbEntity
  8
SUNPOU
100
AcDbText
 10
1793.557130362448
 20
5612.014820159623
 30
0.0
 40
90.0
  1
G.L
 41
0.6666666666666666
  7
00
 72
     4
 11
1864.98570179102
 21
5657.014820159623
 31
0.0
100
AcDbText
  0
LINE
  5
214A5
330
21247
100
AcDbEntity
  8
SUNPOU
100
AcDbLine
 10
2342.054785738787
 20
5617.014820159624
 30
0.0
 11
2238.131737284652
 21
5617.014820159624
 31
0.0
  0
TEXT
  5
214A6
330
21247
100
AcDbEntity
  8
SUNPOU
100
AcDbText
 10
2221.521832940291
 20
5662.014820159623
 30
0.0
 40
90.0
  1
F.L
 41
0.6666666666666666
  7
00
 72
     4
 11
2290.093261511719
 21
5707.014820159624
 31
0.0
100
AcDbText
  0
LINE
  5
214A7
330
21247
100
AcDbEntity
  8
KISO
100
AcDbLine
 10
2171.828096214242
 20
5477.014820159624
 30
0.0
 11
2171.828096214242
 21
5527.014820159627
 31
0.0
  0
LINE
  5
214A8
330
21247
100
AcDbEntity
  8
SUNPOU
100
AcDbLine
 10
1813.024177563952
 20
5567.014820159624
 30
0.0
 11
1864.98570179102
 21
5477.014820159624
 31
0.0
  0
LINE
  5
214A9
330
21247
100
AcDbEntity
  8
SUNPOU
100
AcDbLine
 10
1916.947226018086
 20
5567.014820159624
 30
0.0
 11
1813.024177563952
 21
5567.014820159624
 31
0.0
  0
LINE
  5
214AA
330
21247
100
AcDbEntity
  8
SUNPOU
100
AcDbLine
 10
1864.98570179102
 20
5477.014820159624
 30
0.0
 11
1916.947226018086
 21
5567.014820159624
 31
0.0
  0
LINE
  5
214AB
330
21247
100
AcDbEntity
  8
SUNPOU
100
AcDbLine
 10
2238.131737284652
 20
5617.014820159624
 30
0.0
 11
2290.093261511719
 21
5527.014820159627
 31
0.0
  0
LINE
  5
214AC
330
21247
100
AcDbEntity
  8
SUNPOU
100
AcDbLine
 10
2290.093261511719
 20
5527.014820159627
 30
0.0
 11
2342.054785738787
 21
5617.014820159624
 31
0.0
  0
LINE
  5
214AD
330
21247
100
AcDbEntity
  8
U3
100
AcDbLine
 10
1735.467706521033
 20
5477.014820159626
 30
0.0
 11
2171.828096214242
 21
5477.014820159626
 31
0.0
  0
LINE
  5
214AE
330
21247
100
AcDbEntity
  8
U1
100
AcDbLine
 10
2509.978096214245
 20
5527.014820159628
 30
0.0
 11
2509.978096214245
 21
7515.681077028266
 31
0.0
  0
LINE
  5
214AF
330
21247
100
AcDbEntity
  8
U1
100
AcDbLine
 10
2433.678096214245
 20
5527.014820159628
 30
0.0
 11
2433.678096214244
 21
7515.681077028266
 31
0.0
  0
LINE
  5
214B0
330
21247
100
AcDbEntity
  8
1PL-M1
100
AcDbLine
 10
2471.828096214243
 20
5502.014820159627
 30
0.0
 11
2471.828096214243
 21
7973.194632209919
 31
0.0
  0
LINE
  5
214B1
330
21247
100
AcDbEntity
  8
KISO
100
AcDbLine
 10
5571.828096214241
 20
5477.014820159626
 30
0.0
 11
2171.828096214242
 21
5477.014820159624
 31
0.0
  0
LINE
  5
214B2
330
21247
100
AcDbEntity
  8
KISO
100
AcDbLine
 10
2171.828096214242
 20
5527.014820159627
 30
0.0
 11
5571.828096214241
 21
5527.014820159628
 31
0.0
  0
LINE
  5
214B3
330
21247
100
AcDbEntity
  8
TOI
100
AcDbLine
 10
2509.978096214243
 20
7347.904358487092
 30
0.0
 11
5233.678096214242
 21
7347.904358487092
 31
0.0
  0
LINE
  5
214B4
330
21247
100
AcDbEntity
  8
TOI
100
AcDbLine
 10
2509.978096214243
 20
7380.745033979358
 30
0.0
 11
5233.678096214242
 21
7380.74503397936
 31
0.0
  0
LINE
  5
214B5
330
21247
100
AcDbEntity
  8
TOI
100
AcDbLine
 10
2509.978096214243
 20
7389.736061817862
 30
0.0
 11
5233.678096214242
 21
7389.736061817862
 31
0.0
  0
LINE
  5
214B6
330
21247
100
AcDbEntity
  8
HANA
100
AcDbLine
 10
2236.828096214242
 20
7730.802125207465
 30
0.0
 11
5506.828096214245
 21
7730.802125207465
 31
0.0
  0
LINE
  5
214B7
330
21247
100
AcDbEntity
  8
HANA
100
AcDbLine
 10
2236.828096214242
 20
7630.076163276349
 30
0.0
 11
5506.828096214245
 21
7630.076163276349
 31
0.0
  0
LINE
  5
214B8
330
21247
100
AcDbEntity
  8
HANA
100
AcDbLine
 10
2509.328096214243
 20
7587.508122720165
 30
0.0
 11
5234.328096214241
 21
7587.508122720166
 31
0.0
  0
LINE
  5
214B9
330
21247
100
AcDbEntity
  8
HANA
100
AcDbLine
 10
2509.328096214243
 20
7617.052437601437
 30
0.0
 11
5234.328096214241
 21
7617.052437601437
 31
0.0
  0
LINE
  5
214BA
330
21247
100
AcDbEntity
  8
YANE
100
AcDbLine
 10
5449.528096214248
 20
7408.502162099154
 30
0.0
 11
5449.528096214248
 21
7587.508122720166
 31
0.0
  0
LINE
  5
214BB
330
21247
100
AcDbEntity
  8
YANE
100
AcDbLine
 10
5466.178096214246
 20
7408.502162099154
 30
0.0
 11
5466.178096214246
 21
7587.508122720166
 31
0.0
  0
LINE
  5
214BC
330
21247
100
AcDbEntity
  8
YANE
100
AcDbLine
 10
5493.178096214247
 20
7408.502162099154
 30
0.0
 11
5493.178096214247
 21
7587.508122720166
 31
0.0
  0
LINE
  5
214BD
330
21247
100
AcDbEntity
  8
YANE
100
AcDbLine
 10
5376.528096214245
 20
7408.502162099154
 30
0.0
 11
5376.528096214245
 21
7587.508122720166
 31
0.0
  0
LINE
  5
214BE
330
21247
100
AcDbEntity
  8
YANE
100
AcDbLine
 10
5359.878096214249
 20
7408.502162099154
 30
0.0
 11
5359.878096214249
 21
7587.508122720166
 31
0.0
  0
LINE
  5
214BF
330
21247
100
AcDbEntity
  8
YANE
100
AcDbLine
 10
5332.878096214248
 20
7408.502162099154
 30
0.0
 11
5332.878096214248
 21
7587.508122720166
 31
0.0
  0
LINE
  5
214C0
330
21247
100
AcDbEntity
  8
YANE
100
AcDbLine
 10
5316.228096214246
 20
7408.502162099154
 30
0.0
 11
5316.228096214246
 21
7587.508122720166
 31
0.0
  0
LINE
  5
214C1
330
21247
100
AcDbEntity
  8
TOI
100
AcDbLine
 10
5506.828096214245
 20
7347.904358487092
 30
0.0
 11
5309.978096214243
 21
7347.904358487092
 31
0.0
  0
LINE
  5
214C2
330
21247
100
AcDbEntity
  8
YANE
100
AcDbLine
 10
5309.978096214243
 20
7408.502162099158
 30
0.0
 11
5506.828096214245
 21
7408.502162099154
 31
0.0
  0
LINE
  5
214C3
330
21247
100
AcDbEntity
  8
TOI
100
AcDbLine
 10
5506.828096214245
 20
7380.745033979358
 30
0.0
 11
5309.978096214243
 21
7380.745033979358
 31
0.0
  0
LINE
  5
214C4
330
21247
100
AcDbEntity
  8
TOI
100
AcDbLine
 10
5506.828096214245
 20
7389.736061817862
 30
0.0
 11
5309.978096214243
 21
7389.736061817862
 31
0.0
  0
LINE
  5
214C5
330
21247
100
AcDbEntity
  8
HANA
100
AcDbLine
 10
5506.828096214245
 20
7587.508122720166
 30
0.0
 11
5309.328096214245
 21
7587.508122720165
 31
0.0
  0
LINE
  5
214C6
330
21247
100
AcDbEntity
  8
HANA
100
AcDbLine
 10
5506.828096214245
 20
7617.052437601437
 30
0.0
 11
5309.328096214245
 21
7617.052437601437
 31
0.0
  0
LINE
  5
214C7
330
21247
100
AcDbEntity
  8
KISO
100
AcDbLine
 10
5571.828096214241
 20
5477.014820159626
 30
0.0
 11
5571.828096214241
 21
5527.014820159628
 31
0.0
  0
LINE
  5
214C8
330
21247
100
AcDbEntity
  8
YANE
100
AcDbLine
 10
5226.728096214229
 20
7408.502162099154
 30
0.0
 11
5226.728096214232
 21
7587.508122720166
 31
0.0
  0
LINE
  5
214C9
330
21247
100
AcDbEntity
  8
YANE
100
AcDbLine
 10
5210.078096214231
 20
7408.502162099154
 30
0.0
 11
5210.078096214231
 21
7587.508122720166
 31
0.0
  0
LINE
  5
214CA
330
21247
100
AcDbEntity
  8
YANE
100
AcDbLine
 10
5183.078096214231
 20
7408.502162099154
 30
0.0
 11
5183.078096214231
 21
7587.508122720166
 31
0.0
  0
LINE
  5
214CB
330
21247
100
AcDbEntity
  8
YANE
100
AcDbLine
 10
5166.428096214234
 20
7408.502162099154
 30
0.0
 11
5166.428096214234
 21
7587.508122720166
 31
0.0
  0
LINE
  5
214CC
330
21247
100
AcDbEntity
  8
YANE
100
AcDbLine
 10
5093.428096214232
 20
7408.502162099154
 30
0.0
 11
5093.428096214232
 21
7587.508122720166
 31
0.0
  0
LINE
  5
214CD
330
21247
100
AcDbEntity
  8
YANE
100
AcDbLine
 10
5076.77809621423
 20
7408.502162099154
 30
0.0
 11
5076.77809621423
 21
7587.508122720166
 31
0.0
  0
LINE
  5
214CE
330
21247
100
AcDbEntity
  8
YANE
100
AcDbLine
 10
5049.778096214232
 20
7408.502162099154
 30
0.0
 11
5049.778096214232
 21
7587.508122720166
 31
0.0
  0
LINE
  5
214CF
330
21247
100
AcDbEntity
  8
YANE
100
AcDbLine
 10
5033.128096214234
 20
7408.502162099154
 30
0.0
 11
5033.128096214234
 21
7587.508122720166
 31
0.0
  0
LINE
  5
214D0
330
21247
100
AcDbEntity
  8
YANE
100
AcDbLine
 10
4960.128096214231
 20
7408.502162099154
 30
0.0
 11
4960.128096214232
 21
7587.508122720166
 31
0.0
  0
LINE
  5
214D1
330
21247
100
AcDbEntity
  8
YANE
100
AcDbLine
 10
4943.478096214232
 20
7408.502162099154
 30
0.0
 11
4943.478096214232
 21
7587.508122720166
 31
0.0
  0
LINE
  5
214D2
330
21247
100
AcDbEntity
  8
YANE
100
AcDbLine
 10
4916.47809621423
 20
7408.502162099154
 30
0.0
 11
4916.47809621423
 21
7587.508122720166
 31
0.0
  0
LINE
  5
214D3
330
21247
100
AcDbEntity
  8
YANE
100
AcDbLine
 10
4899.828096214232
 20
7408.502162099154
 30
0.0
 11
4899.828096214232
 21
7587.508122720166
 31
0.0
  0
LINE
  5
214D4
330
21247
100
AcDbEntity
  8
YANE
100
AcDbLine
 10
4826.828096214231
 20
7408.502162099154
 30
0.0
 11
4826.828096214232
 21
7587.508122720166
 31
0.0
  0
LINE
  5
214D5
330
21247
100
AcDbEntity
  8
YANE
100
AcDbLine
 10
4810.178096214231
 20
7408.502162099154
 30
0.0
 11
4810.178096214231
 21
7587.508122720166
 31
0.0
  0
LINE
  5
214D6
330
21247
100
AcDbEntity
  8
YANE
100
AcDbLine
 10
4783.178096214231
 20
7408.502162099154
 30
0.0
 11
4783.178096214231
 21
7587.508122720166
 31
0.0
  0
LINE
  5
214D7
330
21247
100
AcDbEntity
  8
YANE
100
AcDbLine
 10
4766.528096214233
 20
7408.502162099154
 30
0.0
 11
4766.528096214233
 21
7587.508122720166
 31
0.0
  0
LINE
  5
214D8
330
21247
100
AcDbEntity
  8
YANE
100
AcDbLine
 10
4693.52809621423
 20
7408.502162099154
 30
0.0
 11
4693.528096214232
 21
7587.508122720166
 31
0.0
  0
LINE
  5
214D9
330
21247
100
AcDbEntity
  8
YANE
100
AcDbLine
 10
4676.878096214232
 20
7408.502162099154
 30
0.0
 11
4676.878096214232
 21
7587.508122720166
 31
0.0
  0
LINE
  5
214DA
330
21247
100
AcDbEntity
  8
YANE
100
AcDbLine
 10
4649.878096214231
 20
7408.502162099154
 30
0.0
 11
4649.878096214231
 21
7587.508122720166
 31
0.0
  0
LINE
  5
214DB
330
21247
100
AcDbEntity
  8
YANE
100
AcDbLine
 10
4633.228096214234
 20
7408.502162099154
 30
0.0
 11
4633.228096214234
 21
7587.508122720166
 31
0.0
  0
LINE
  5
214DC
330
21247
100
AcDbEntity
  8
YANE
100
AcDbLine
 10
4560.228096214229
 20
7408.502162099154
 30
0.0
 11
4560.228096214231
 21
7587.508122720166
 31
0.0
  0
LINE
  5
214DD
330
21247
100
AcDbEntity
  8
YANE
100
AcDbLine
 10
4543.578096214228
 20
7408.502162099154
 30
0.0
 11
4543.578096214228
 21
7587.508122720166
 31
0.0
  0
LINE
  5
214DE
330
21247
100
AcDbEntity
  8
YANE
100
AcDbLine
 10
4516.578096214231
 20
7408.502162099154
 30
0.0
 11
4516.578096214231
 21
7587.508122720166
 31
0.0
  0
LINE
  5
214DF
330
21247
100
AcDbEntity
  8
YANE
100
AcDbLine
 10
4499.928096214232
 20
7408.502162099154
 30
0.0
 11
4499.928096214232
 21
7587.508122720166
 31
0.0
  0
LINE
  5
214E0
330
21247
100
AcDbEntity
  8
YANE
100
AcDbLine
 10
4426.928096214231
 20
7408.502162099154
 30
0.0
 11
4426.928096214233
 21
7587.508122720166
 31
0.0
  0
LINE
  5
214E1
330
21247
100
AcDbEntity
  8
YANE
100
AcDbLine
 10
4410.27809621423
 20
7408.502162099154
 30
0.0
 11
4410.27809621423
 21
7587.508122720166
 31
0.0
  0
LINE
  5
214E2
330
21247
100
AcDbEntity
  8
YANE
100
AcDbLine
 10
4383.278096214231
 20
7408.502162099154
 30
0.0
 11
4383.278096214231
 21
7587.508122720166
 31
0.0
  0
LINE
  5
214E3
330
21247
100
AcDbEntity
  8
YANE
100
AcDbLine
 10
4366.628096214233
 20
7408.502162099154
 30
0.0
 11
4366.628096214233
 21
7587.508122720166
 31
0.0
  0
LINE
  5
214E4
330
21247
100
AcDbEntity
  8
YANE
100
AcDbLine
 10
4293.62809621423
 20
7408.502162099154
 30
0.0
 11
4293.628096214231
 21
7587.508122720166
 31
0.0
  0
LINE
  5
214E5
330
21247
100
AcDbEntity
  8
YANE
100
AcDbLine
 10
4276.97809621423
 20
7408.502162099154
 30
0.0
 11
4276.97809621423
 21
7587.508122720166
 31
0.0
  0
LINE
  5
214E6
330
21247
100
AcDbEntity
  8
YANE
100
AcDbLine
 10
4249.978096214231
 20
7408.502162099154
 30
0.0
 11
4249.978096214229
 21
7587.508122720166
 31
0.0
  0
LINE
  5
214E7
330
21247
100
AcDbEntity
  8
YANE
100
AcDbLine
 10
4233.328096214232
 20
7408.502162099154
 30
0.0
 11
4233.328096214232
 21
7587.508122720166
 31
0.0
  0
LINE
  5
214E8
330
21247
100
AcDbEntity
  8
YANE
100
AcDbLine
 10
4100.028096214233
 20
7408.502162099154
 30
0.0
 11
4100.028096214233
 21
7587.508122720166
 31
0.0
  0
LINE
  5
214E9
330
21247
100
AcDbEntity
  8
YANE
100
AcDbLine
 10
4116.678096214231
 20
7408.502162099154
 30
0.0
 11
4116.678096214231
 21
7587.508122720166
 31
0.0
  0
LINE
  5
214EA
330
21247
100
AcDbEntity
  8
YANE
100
AcDbLine
 10
4143.678096214231
 20
7408.502162099154
 30
0.0
 11
4143.678096214231
 21
7587.508122720166
 31
0.0
  0
LINE
  5
214EB
330
21247
100
AcDbEntity
  8
YANE
100
AcDbLine
 10
4160.328096214231
 20
7408.502162099154
 30
0.0
 11
4160.328096214231
 21
7587.508122720166
 31
0.0
  0
LINE
  5
214EC
330
21247
100
AcDbEntity
  8
YANE
100
AcDbLine
 10
3966.728096214234
 20
7408.502162099154
 30
0.0
 11
3966.728096214234
 21
7587.508122720166
 31
0.0
  0
LINE
  5
214ED
330
21247
100
AcDbEntity
  8
YANE
100
AcDbLine
 10
3983.378096214232
 20
7408.502162099154
 30
0.0
 11
3983.378096214232
 21
7587.508122720166
 31
0.0
  0
LINE
  5
214EE
330
21247
100
AcDbEntity
  8
YANE
100
AcDbLine
 10
4010.378096214231
 20
7408.502162099154
 30
0.0
 11
4010.378096214231
 21
7587.508122720166
 31
0.0
  0
LINE
  5
214EF
330
21247
100
AcDbEntity
  8
YANE
100
AcDbLine
 10
4027.02809621423
 20
7408.502162099154
 30
0.0
 11
4027.028096214232
 21
7587.508122720166
 31
0.0
  0
LINE
  5
214F0
330
21247
100
AcDbEntity
  8
YANE
100
AcDbLine
 10
3833.428096214235
 20
7408.502162099154
 30
0.0
 11
3833.428096214235
 21
7587.508122720166
 31
0.0
  0
LINE
  5
214F1
330
21247
100
AcDbEntity
  8
YANE
100
AcDbLine
 10
3850.078096214232
 20
7408.502162099154
 30
0.0
 11
3850.078096214232
 21
7587.508122720166
 31
0.0
  0
LINE
  5
214F2
330
21247
100
AcDbEntity
  8
YANE
100
AcDbLine
 10
3877.078096214232
 20
7408.502162099154
 30
0.0
 11
3877.078096214232
 21
7587.508122720166
 31
0.0
  0
LINE
  5
214F3
330
21247
100
AcDbEntity
  8
YANE
100
AcDbLine
 10
3893.728096214232
 20
7408.502162099154
 30
0.0
 11
3893.728096214232
 21
7587.508122720166
 31
0.0
  0
LINE
  5
214F4
330
21247
100
AcDbEntity
  8
YANE
100
AcDbLine
 10
3700.128096214235
 20
7408.502162099154
 30
0.0
 11
3700.128096214235
 21
7587.508122720166
 31
0.0
  0
LINE
  5
214F5
330
21247
100
AcDbEntity
  8
YANE
100
AcDbLine
 10
3716.778096214233
 20
7408.502162099154
 30
0.0
 11
3716.778096214233
 21
7587.508122720166
 31
0.0
  0
LINE
  5
214F6
330
21247
100
AcDbEntity
  8
YANE
100
AcDbLine
 10
3743.778096214232
 20
7408.502162099154
 30
0.0
 11
3743.778096214232
 21
7587.508122720166
 31
0.0
  0
LINE
  5
214F7
330
21247
100
AcDbEntity
  8
YANE
100
AcDbLine
 10
3760.428096214233
 20
7408.502162099154
 30
0.0
 11
3760.428096214233
 21
7587.508122720166
 31
0.0
  0
LINE
  5
214F8
330
21247
100
AcDbEntity
  8
YANE
100
AcDbLine
 10
3566.828096214237
 20
7408.502162099154
 30
0.0
 11
3566.828096214237
 21
7587.508122720166
 31
0.0
  0
LINE
  5
214F9
330
21247
100
AcDbEntity
  8
YANE
100
AcDbLine
 10
3583.478096214234
 20
7408.502162099154
 30
0.0
 11
3583.478096214234
 21
7587.508122720166
 31
0.0
  0
LINE
  5
214FA
330
21247
100
AcDbEntity
  8
YANE
100
AcDbLine
 10
3610.478096214234
 20
7408.502162099154
 30
0.0
 11
3610.478096214234
 21
7587.508122720166
 31
0.0
  0
LINE
  5
214FB
330
21247
100
AcDbEntity
  8
YANE
100
AcDbLine
 10
3627.128096214233
 20
7408.502162099154
 30
0.0
 11
3627.128096214236
 21
7587.508122720166
 31
0.0
  0
LINE
  5
214FC
330
21247
100
AcDbEntity
  8
YANE
100
AcDbLine
 10
3433.528096214237
 20
7408.502162099154
 30
0.0
 11
3433.528096214237
 21
7587.508122720166
 31
0.0
  0
LINE
  5
214FD
330
21247
100
AcDbEntity
  8
YANE
100
AcDbLine
 10
3450.178096214235
 20
7408.502162099154
 30
0.0
 11
3450.178096214235
 21
7587.508122720166
 31
0.0
  0
LINE
  5
214FE
330
21247
100
AcDbEntity
  8
YANE
100
AcDbLine
 10
3477.178096214235
 20
7408.502162099154
 30
0.0
 11
3477.178096214235
 21
7587.508122720166
 31
0.0
  0
LINE
  5
214FF
330
21247
100
AcDbEntity
  8
YANE
100
AcDbLine
 10
3493.828096214235
 20
7408.502162099154
 30
0.0
 11
3493.828096214235
 21
7587.508122720166
 31
0.0
  0
LINE
  5
21500
330
21247
100
AcDbEntity
  8
YANE
100
AcDbLine
 10
3300.228096214238
 20
7408.502162099154
 30
0.0
 11
3300.228096214238
 21
7587.508122720166
 31
0.0
  0
LINE
  5
21501
330
21247
100
AcDbEntity
  8
YANE
100
AcDbLine
 10
3316.878096214235
 20
7408.502162099154
 30
0.0
 11
3316.878096214235
 21
7587.508122720166
 31
0.0
  0
LINE
  5
21502
330
21247
100
AcDbEntity
  8
YANE
100
AcDbLine
 10
3343.878096214235
 20
7408.502162099154
 30
0.0
 11
3343.878096214235
 21
7587.508122720166
 31
0.0
  0
LINE
  5
21503
330
21247
100
AcDbEntity
  8
YANE
100
AcDbLine
 10
3360.528096214235
 20
7408.502162099154
 30
0.0
 11
3360.528096214235
 21
7587.508122720166
 31
0.0
  0
LINE
  5
21504
330
21247
100
AcDbEntity
  8
YANE
100
AcDbLine
 10
3166.928096214237
 20
7408.502162099154
 30
0.0
 11
3166.928096214237
 21
7587.508122720166
 31
0.0
  0
LINE
  5
21505
330
21247
100
AcDbEntity
  8
YANE
100
AcDbLine
 10
3183.578096214235
 20
7408.502162099154
 30
0.0
 11
3183.578096214235
 21
7587.508122720166
 31
0.0
  0
LINE
  5
21506
330
21247
100
AcDbEntity
  8
YANE
100
AcDbLine
 10
3210.578096214236
 20
7408.502162099154
 30
0.0
 11
3210.578096214236
 21
7587.508122720166
 31
0.0
  0
LINE
  5
21507
330
21247
100
AcDbEntity
  8
YANE
100
AcDbLine
 10
3227.228096214237
 20
7408.502162099154
 30
0.0
 11
3227.228096214237
 21
7587.508122720166
 31
0.0
  0
LINE
  5
21508
330
21247
100
AcDbEntity
  8
YANE
100
AcDbLine
 10
3033.628096214238
 20
7408.502162099154
 30
0.0
 11
3033.628096214238
 21
7587.508122720166
 31
0.0
  0
LINE
  5
21509
330
21247
100
AcDbEntity
  8
YANE
100
AcDbLine
 10
3050.278096214237
 20
7408.502162099154
 30
0.0
 11
3050.278096214237
 21
7587.508122720166
 31
0.0
  0
LINE
  5
2150A
330
21247
100
AcDbEntity
  8
YANE
100
AcDbLine
 10
3077.278096214237
 20
7408.502162099154
 30
0.0
 11
3077.278096214237
 21
7587.508122720166
 31
0.0
  0
LINE
  5
2150B
330
21247
100
AcDbEntity
  8
YANE
100
AcDbLine
 10
3093.928096214237
 20
7408.502162099154
 30
0.0
 11
3093.928096214237
 21
7587.508122720166
 31
0.0
  0
LINE
  5
2150C
330
21247
100
AcDbEntity
  8
YANE
100
AcDbLine
 10
2900.328096214241
 20
7408.502162099154
 30
0.0
 11
2900.328096214241
 21
7587.508122720166
 31
0.0
  0
LINE
  5
2150D
330
21247
100
AcDbEntity
  8
YANE
100
AcDbLine
 10
2916.978096214238
 20
7408.502162099154
 30
0.0
 11
2916.978096214238
 21
7587.508122720166
 31
0.0
  0
LINE
  5
2150E
330
21247
100
AcDbEntity
  8
YANE
100
AcDbLine
 10
2943.978096214238
 20
7408.502162099154
 30
0.0
 11
2943.978096214238
 21
7587.508122720166
 31
0.0
  0
LINE
  5
2150F
330
21247
100
AcDbEntity
  8
YANE
100
AcDbLine
 10
2960.628096214238
 20
7408.502162099154
 30
0.0
 11
2960.628096214239
 21
7587.508122720166
 31
0.0
  0
LINE
  5
21510
330
21247
100
AcDbEntity
  8
YANE
100
AcDbLine
 10
2767.02809621424
 20
7408.502162099154
 30
0.0
 11
2767.02809621424
 21
7587.508122720166
 31
0.0
  0
LINE
  5
21511
330
21247
100
AcDbEntity
  8
YANE
100
AcDbLine
 10
2783.678096214237
 20
7408.502162099154
 30
0.0
 11
2783.678096214237
 21
7587.508122720166
 31
0.0
  0
LINE
  5
21512
330
21247
100
AcDbEntity
  8
YANE
100
AcDbLine
 10
2810.678096214239
 20
7408.502162099154
 30
0.0
 11
2810.678096214239
 21
7587.508122720166
 31
0.0
  0
LINE
  5
21513
330
21247
100
AcDbEntity
  8
YANE
100
AcDbLine
 10
2827.328096214238
 20
7408.502162099154
 30
0.0
 11
2827.328096214239
 21
7587.508122720166
 31
0.0
  0
LINE
  5
21514
330
21247
100
AcDbEntity
  8
YANE
100
AcDbLine
 10
2633.728096214242
 20
7408.502162099154
 30
0.0
 11
2633.728096214242
 21
7587.508122720166
 31
0.0
  0
LINE
  5
21515
330
21247
100
AcDbEntity
  8
YANE
100
AcDbLine
 10
2650.37809621424
 20
7408.502162099154
 30
0.0
 11
2650.37809621424
 21
7587.508122720166
 31
0.0
  0
LINE
  5
21516
330
21247
100
AcDbEntity
  8
YANE
100
AcDbLine
 10
2677.378096214238
 20
7408.502162099154
 30
0.0
 11
2677.378096214238
 21
7587.508122720166
 31
0.0
  0
LINE
  5
21517
330
21247
100
AcDbEntity
  8
YANE
100
AcDbLine
 10
2694.028096214239
 20
7408.502162099154
 30
0.0
 11
2694.028096214239
 21
7587.508122720166
 31
0.0
  0
LINE
  5
21518
330
21247
100
AcDbEntity
  8
YANE
100
AcDbLine
 10
2517.078096214241
 20
7408.502162099154
 30
0.0
 11
2517.078096214241
 21
7587.508122720166
 31
0.0
  0
LINE
  5
21519
330
21247
100
AcDbEntity
  8
YANE
100
AcDbLine
 10
2544.078096214241
 20
7408.502162099154
 30
0.0
 11
2544.078096214241
 21
7587.508122720166
 31
0.0
  0
LINE
  5
2151A
330
21247
100
AcDbEntity
  8
YANE
100
AcDbLine
 10
2560.72809621424
 20
7408.502162099154
 30
0.0
 11
2560.72809621424
 21
7587.508122720166
 31
0.0
  0
LINE
  5
2151B
330
21247
100
AcDbEntity
  8
YANE
100
AcDbLine
 10
5233.678096214244
 20
7408.502162099154
 30
0.0
 11
2509.978096214245
 21
7408.502162099157
 31
0.0
  0
TEXT
  5
2151C
330
21247
100
AcDbEntity
  8
FILENAME
100
AcDbText
 10
10408.64285714285
 20
130.4999999999999
 30
0.0
 40
75.0
  1
＜YOTR-280-U1_1_JIS_GL.DXF ＞
  7
FILENAME
 72
     2
 11
12286.5
 21
130.4999999999999
 31
0.0
100
AcDbText
  0
LINE
  5
2151D
330
21247
100
AcDbEntity
  8
WAKUSEN-01
100
AcDbLine
 10
325.5000000000006
 20
310.4999999999997
 30
0.0
 11
12286.5
 21
310.4999999999997
 31
0.0
  0
LINE
  5
2151E
330
21247
100
AcDbEntity
  8
WAKUSEN-01
100
AcDbLine
 10
325.5000000000006
 20
8431.500000000003
 30
0.0
 11
12286.5
 21
8431.500000000003
 31
0.0
  0
LINE
  5
2151F
330
21247
100
AcDbEntity
  8
WAKUSEN-01
100
AcDbLine
 10
325.5000000000006
 20
310.4999999999997
 30
0.0
 11
325.5000000000006
 21
8431.500000000003
 31
0.0
  0
LINE
  5
21520
330
21247
100
AcDbEntity
  8
WAKUSEN-01
100
AcDbLine
 10
12286.5
 20
310.4999999999997
 30
0.0
 11
12286.5
 21
8431.500000000003
 31
0.0
  0
LINE
  5
21521
330
21247
100
AcDbEntity
  8
WAKUSEN-01
100
AcDbLine
 10
7710.0
 20
931.4999999999999
 30
0.0
 11
12286.5
 21
931.4999999999995
 31
0.0
  0
LINE
  5
21522
330
21247
100
AcDbEntity
  8
WAKUSEN-02
100
AcDbLine
 10
7710.0
 20
620.9999999999999
 30
0.0
 11
10075.49999999999
 21
620.9999999999999
 31
0.0
  0
TEXT
  5
21523
330
21247
100
AcDbEntity
  8
WAKUMOJI-01
100
AcDbText
 10
7751.347597486038
 20
797.2136285022457
 30
0.0
 40
90.0
  1
名　称
  7
WAKUMOJI
100
AcDbText
  0
TEXT
  5
21524
330
21247
100
AcDbEntity
  8
WAKUMOJI-01
100
AcDbText
 10
7746.18955690947
 20
494.6733656174329
 30
0.0
 40
90.0
  1
機種名
  7
WAKUMOJI
100
AcDbText
  0
LINE
  5
21525
330
21247
100
AcDbEntity
  8
WAKUSEN-01
100
AcDbLine
 10
7710.0
 20
310.4999999999989
 30
0.0
 11
7710.0
 21
931.4999999999999
 31
0.0
  0
LINE
  5
21526
330
21247
100
AcDbEntity
  8
WAKUSEN-02
100
AcDbLine
 10
10075.49999999999
 20
310.4999999999973
 30
0.0
 11
10075.49999999999
 21
931.4999999999999
 31
0.0
  0
LINE
  5
21527
330
21247
100
AcDbEntity
  8
YODOROGO
100
AcDbLine
 10
11241.60162798446
 20
748.4060611609828
 30
0.0
 11
11186.10162798447
 21
748.4060611609828
 31
0.0
1001
AUTOCAD_POSTSCRIPT_FIGURE
1002
{
1000
PSFILL
1000
Grayscale
1000
Grayscale
1070
    25
1002
}
  0
LINE
  5
21528
330
21247
100
AcDbEntity
  8
YODOROGO
100
AcDbLine
 10
11186.10162798447
 20
730.4060611609828
 30
0.0
 11
11241.60162798446
 21
730.4060611609828
 31
0.0
1001
AUTOCAD_POSTSCRIPT_FIGURE
1002
{
1000
PSFILL
1000
Grayscale
1000
Grayscale
1070
    25
1002
}
  0
LINE
  5
21529
330
21247
100
AcDbEntity
  8
YODOROGO
100
AcDbLine
 10
11241.60162798446
 20
715.4060611609828
 30
0.0
 11
11186.10162798447
 21
715.4060611609828
 31
0.0
1001
AUTOCAD_POSTSCRIPT_FIGURE
1002
{
1000
PSFILL
1000
Grayscale
1000
Grayscale
1070
    25
1002
}
  0
LINE
  5
2152A
330
21247
100
AcDbEntity
  8
YODOROGO
100
AcDbLine
 10
11186.10162798447
 20
697.406061160983
 30
0.0
 11
11241.60162798446
 21
697.406061160983
 31
0.0
1001
AUTOCAD_POSTSCRIPT_FIGURE
1002
{
1000
PSFILL
1000
Grayscale
1000
Grayscale
1070
    25
1002
}
  0
LINE
  5
2152B
330
21247
100
AcDbEntity
  8
YODOROGO
100
AcDbLine
 10
11241.60162798446
 20
682.4060611609829
 30
0.0
 11
11186.10162798447
 21
682.4060611609829
 31
0.0
1001
AUTOCAD_POSTSCRIPT_FIGURE
1002
{
1000
PSFILL
1000
Grayscale
1000
Grayscale
1070
    25
1002
}
  0
LINE
  5
2152C
330
21247
100
AcDbEntity
  8
YODOROGO
100
AcDbLine
 10
11220.60162798447
 20
640.4060611609828
 30
0.0
 11
11241.60162798446
 21
640.4060611609828
 31
0.0
1001
AUTOCAD_POSTSCRIPT_FIGURE
1002
{
1000
PSFILL
1000
Grayscale
1000
Grayscale
1070
    25
1002
}
  0
LINE
  5
2152D
330
21247
100
AcDbEntity
  8
YODOROGO
100
AcDbLine
 10
11151.60162798447
 20
535.4060611609829
 30
0.0
 11
11226.60162798446
 21
555.5022505933164
 31
0.0
  0
LINE
  5
2152E
330
21247
100
AcDbEntity
  8
YODOROGO
100
AcDbLine
 10
11231.10162798446
 20
640.4060611609828
 30
0.0
 11
11207.10162798447
 21
640.4060611609828
 31
0.0
  0
ARC
  5
2152F
330
21247
100
AcDbEntity
  8
YODOROGO
100
AcDbCircle
 10
11345.38040618545
 20
677.9492284624735
 30
0.0
 40
143.2075740771177
100
AcDbArc
 50
213.9611167766784
 51
264.4787207431779
  0
ARC
  5
21530
330
21247
100
AcDbEntity
  8
YODOROGO
100
AcDbCircle
 10
11345.38040618547
 20
677.9492284624883
 30
0.0
 40
143.2075740771305
100
AcDbArc
 50
208.141144204866
 51
212.9210361185994
  0
LINE
  5
21531
330
21247
100
AcDbEntity
  8
YODOROGO
100
AcDbLine
 10
11164.27870236948
 20
583.8028730048376
 30
0.0
 11
11225.1690496907
 21
600.1183923964076
 31
0.0
  0
LINE
  5
21532
330
21247
100
AcDbEntity
  8
YODOROGO
100
AcDbLine
 10
11151.60162798447
 20
535.4060611609829
 30
0.0
 11
11226.60162798446
 21
555.5022505933164
 31
0.0
  0
LINE
  5
21533
330
21247
100
AcDbEntity
  8
YODOROGO
100
AcDbLine
 10
11231.10162798446
 20
640.4060611609828
 30
0.0
 11
11207.10162798447
 21
640.4060611609828
 31
0.0
  0
ARC
  5
21534
330
21247
100
AcDbEntity
  8
YODOROGO
100
AcDbCircle
 10
11345.38040618545
 20
677.9492284624735
 30
0.0
 40
143.2075740771177
100
AcDbArc
 50
213.9611167766784
 51
264.4787207431779
  0
LINE
  5
21535
330
21247
100
AcDbEntity
  8
YODOROGO
100
AcDbLine
 10
10797.60162798446
 20
682.4060611609829
 30
0.0
 11
10662.60162798446
 21
682.4060611609829
 31
0.0
  0
LINE
  5
21536
330
21247
100
AcDbEntity
  8
YODOROGO
100
AcDbLine
 10
10692.60162798446
 20
535.4060611609829
 30
0.0
 11
10797.60162798446
 21
535.4060611609829
 31
0.0
  0
LINE
  5
21537
330
21247
100
AcDbEntity
  8
YODOROGO
100
AcDbLine
 10
10773.60162798447
 20
721.4060611609824
 30
0.0
 11
10686.60162798446
 21
721.4060611609824
 31
0.0
  0
LINE
  5
21538
330
21247
100
AcDbEntity
  8
YODOROGO
100
AcDbLine
 10
10719.60162798446
 20
760.4060611609829
 30
0.0
 11
10746.60162798447
 21
760.4060611609829
 31
0.0
  0
LINE
  5
21539
330
21247
100
AcDbEntity
  8
YODOROGO
100
AcDbLine
 10
10662.60162798446
 20
640.4060611609828
 30
0.0
 11
10662.60162798446
 21
565.4060611609828
 31
0.0
  0
LINE
  5
2153A
330
21247
100
AcDbEntity
  8
YODOROGO
100
AcDbLine
 10
10686.60162798446
 20
586.4060611609825
 30
0.0
 11
10686.60162798446
 21
640.4060611609828
 31
0.0
  0
LINE
  5
2153B
330
21247
100
AcDbEntity
  8
YODOROGO
100
AcDbLine
 10
10719.60162798446
 20
655.4060611609838
 30
0.0
 11
10719.60162798446
 21
580.406061160983
 31
0.0
  0
LINE
  5
2153C
330
21247
100
AcDbEntity
  8
YODOROGO
100
AcDbLine
 10
10446.60162798447
 20
631.4060611609833
 30
0.0
 11
10416.60162798446
 21
607.4896552667143
 31
0.0
  0
LINE
  5
2153D
330
21247
100
AcDbEntity
  8
YODOROGO
100
AcDbLine
 10
10476.60162798446
 20
607.4896552667143
 30
0.0
 11
10446.60162798447
 21
631.4060611609833
 31
0.0
  0
LINE
  5
2153E
330
21247
100
AcDbEntity
  8
YODOROGO
100
AcDbLine
 10
10446.60162798447
 20
640.4060611609828
 30
0.0
 11
10476.60162798446
 21
616.4896552667137
 31
0.0
  0
LINE
  5
2153F
330
21247
100
AcDbEntity
  8
YODOROGO
100
AcDbLine
 10
10416.60162798446
 20
616.4896552667137
 30
0.0
 11
10446.60162798447
 21
640.4060611609828
 31
0.0
  0
LINE
  5
21540
330
21247
100
AcDbEntity
  8
YODOROGO
100
AcDbLine
 10
10515.34245150633
 20
622.406061160983
 30
0.0
 11
10515.34245150633
 21
631.4060611609825
 31
0.0
  0
LINE
  5
21541
330
21247
100
AcDbEntity
  8
YODOROGO
100
AcDbLine
 10
10491.60162798447
 20
631.4060611609825
 30
0.0
 11
10491.60162798447
 21
625.4060611609819
 31
0.0
  0
LINE
  5
21542
330
21247
100
AcDbEntity
  8
YODOROGO
100
AcDbLine
 10
10536.8008200866
 20
640.4060611609828
 30
0.0
 11
10536.8008200866
 21
620.813863977996
 31
0.0
1001
AUTOCAD_POSTSCRIPT_FIGURE
1002
{
1000
PSFILL
1000
Grayscale
1000
Grayscale
1070
   100
1002
}
  0
LINE
  5
21543
330
21247
100
AcDbEntity
  8
YODOROGO
100
AcDbLine
 10
10530.80082008658
 20
620.813863977996
 30
0.0
 11
10530.80082008658
 21
640.4060611609828
 31
0.0
1001
AUTOCAD_POSTSCRIPT_FIGURE
1002
{
1000
PSFILL
1000
Grayscale
1000
Grayscale
1070
   100
1002
}
  0
LINE
  5
21544
330
21247
100
AcDbEntity
  8
YODOROGO
100
AcDbLine
 10
10428.60162798447
 20
603.2894640162218
 30
0.0
 11
10428.60162798447
 21
612.2894640162221
 31
0.0
  0
LINE
  5
21545
330
21247
100
AcDbEntity
  8
YODOROGO
100
AcDbLine
 10
10464.60162798447
 20
603.2894640162218
 30
0.0
 11
10428.60162798447
 21
603.2894640162218
 31
0.0
  0
LINE
  5
21546
330
21247
100
AcDbEntity
  8
YODOROGO
100
AcDbLine
 10
10464.60162798447
 20
612.2894640162221
 30
0.0
 11
10464.60162798447
 21
603.2894640162218
 31
0.0
  0
LINE
  5
21547
330
21247
100
AcDbEntity
  8
YODOROGO
100
AcDbLine
 10
10428.60162798447
 20
612.2894640162221
 30
0.0
 11
10464.60162798447
 21
612.2894640162221
 31
0.0
  0
LINE
  5
21548
330
21247
100
AcDbEntity
  8
YODOROGO
100
AcDbLine
 10
10434.1910958434
 20
588.1885715139279
 30
0.0
 11
10419.60162798446
 21
553.4060611609827
 31
0.0
1001
AUTOCAD_POSTSCRIPT_FIGURE
1002
{
1000
PSFILL
1000
Grayscale
1000
Grayscale
1070
   100
1002
}
  0
LINE
  5
21549
330
21247
100
AcDbEntity
  8
YODOROGO
100
AcDbLine
 10
10416.60162798446
 20
588.1885715139279
 30
0.0
 11
10434.1910958434
 21
588.1885715139279
 31
0.0
1001
AUTOCAD_POSTSCRIPT_FIGURE
1002
{
1000
PSFILL
1000
Grayscale
1000
Grayscale
1070
   100
1002
}
  0
LINE
  5
2154A
330
21247
100
AcDbEntity
  8
YODOROGO
100
AcDbLine
 10
10416.60162798446
 20
595.688571513928
 30
0.0
 11
10416.60162798446
 21
588.1885715139279
 31
0.0
1001
AUTOCAD_POSTSCRIPT_FIGURE
1002
{
1000
PSFILL
1000
Grayscale
1000
Grayscale
1070
   100
1002
}
  0
LINE
  5
2154B
330
21247
100
AcDbEntity
  8
YODOROGO
100
AcDbLine
 10
10476.60162798446
 20
595.688571513928
 30
0.0
 11
10416.60162798446
 21
595.688571513928
 31
0.0
1001
AUTOCAD_POSTSCRIPT_FIGURE
1002
{
1000
PSFILL
1000
Grayscale
1000
Grayscale
1070
   100
1002
}
  0
LINE
  5
2154C
330
21247
100
AcDbEntity
  8
YODOROGO
100
AcDbLine
 10
10476.60162798446
 20
588.1885715139279
 30
0.0
 11
10476.60162798446
 21
595.688571513928
 31
0.0
1001
AUTOCAD_POSTSCRIPT_FIGURE
1002
{
1000
PSFILL
1000
Grayscale
1000
Grayscale
1070
   100
1002
}
  0
LINE
  5
2154D
330
21247
100
AcDbEntity
  8
YODOROGO
100
AcDbLine
 10
10441.69109584339
 20
588.1885715139279
 30
0.0
 11
10476.60162798446
 21
588.1885715139279
 31
0.0
1001
AUTOCAD_POSTSCRIPT_FIGURE
1002
{
1000
PSFILL
1000
Grayscale
1000
Grayscale
1070
   100
1002
}
  0
LINE
  5
2154E
330
21247
100
AcDbEntity
  8
YODOROGO
100
AcDbLine
 10
10430.83001935679
 20
560.9060611609827
 30
0.0
 11
10441.69109584339
 21
588.1885715139279
 31
0.0
1001
AUTOCAD_POSTSCRIPT_FIGURE
1002
{
1000
PSFILL
1000
Grayscale
1000
Grayscale
1070
   100
1002
}
  0
LINE
  5
2154F
330
21247
100
AcDbEntity
  8
YODOROGO
100
AcDbLine
 10
10463.27054655324
 20
560.9060611609827
 30
0.0
 11
10430.83001935679
 21
560.9060611609827
 31
0.0
1001
AUTOCAD_POSTSCRIPT_FIGURE
1002
{
1000
PSFILL
1000
Grayscale
1000
Grayscale
1070
   100
1002
}
  0
LINE
  5
21550
330
21247
100
AcDbEntity
  8
YODOROGO
100
AcDbLine
 10
10456.8993767966
 20
576.0876790116348
 30
0.0
 11
10463.27054655324
 21
560.9060611609827
 31
0.0
1001
AUTOCAD_POSTSCRIPT_FIGURE
1002
{
1000
PSFILL
1000
Grayscale
1000
Grayscale
1070
   100
1002
}
  0
LINE
  5
21551
330
21247
100
AcDbEntity
  8
YODOROGO
100
AcDbLine
 10
10462.8993767966
 20
576.0876790116348
 30
0.0
 11
10456.8993767966
 21
576.0876790116348
 31
0.0
1001
AUTOCAD_POSTSCRIPT_FIGURE
1002
{
1000
PSFILL
1000
Grayscale
1000
Grayscale
1070
   100
1002
}
  0
LINE
  5
21552
330
21247
100
AcDbEntity
  8
YODOROGO
100
AcDbLine
 10
10473.60162798447
 20
553.4060611609827
 30
0.0
 11
10462.8993767966
 21
576.0876790116348
 31
0.0
1001
AUTOCAD_POSTSCRIPT_FIGURE
1002
{
1000
PSFILL
1000
Grayscale
1000
Grayscale
1070
   100
1002
}
  0
LINE
  5
21553
330
21247
100
AcDbEntity
  8
YODOROGO
100
AcDbLine
 10
10419.60162798446
 20
553.4060611609827
 30
0.0
 11
10473.60162798447
 21
553.4060611609827
 31
0.0
1001
AUTOCAD_POSTSCRIPT_FIGURE
1002
{
1000
PSFILL
1000
Grayscale
1000
Grayscale
1070
   100
1002
}
  0
LINE
  5
21554
330
21247
100
AcDbEntity
  8
YODOROGO
100
AcDbLine
 10
10416.60162798446
 20
607.4896552667143
 30
0.0
 11
10416.60162798446
 21
616.4896552667137
 31
0.0
  0
LINE
  5
21555
330
21247
100
AcDbEntity
  8
YODOROGO
100
AcDbLine
 10
10476.60162798446
 20
616.4896552667137
 30
0.0
 11
10476.60162798446
 21
607.4896552667143
 31
0.0
  0
ARC
  5
21556
330
21247
100
AcDbEntity
  8
YODOROGO
100
AcDbCircle
 10
10584.72766580511
 20
600.3291619969972
 30
0.0
 40
65.99999999999997
100
AcDbArc
 50
280.3644312771313
 51
3.541483659218056
  0
ARC
  5
21557
330
21247
100
AcDbEntity
  8
YODOROGO
100
AcDbCircle
 10
10588.40851153474
 20
612.5991776107142
 30
0.0
 40
41.99999999999936
100
AcDbArc
 50
281.2490582504155
 51
348.7509417495832
  0
LINE
  5
21558
330
21247
100
AcDbEntity
  8
YODOROGO
100
AcDbLine
 10
10596.60162798446
 20
571.4060611609824
 30
0.0
 11
10596.60162798446
 21
535.4060611609829
 31
0.0
  0
LINE
  5
21559
330
21247
100
AcDbEntity
  8
YODOROGO
100
AcDbLine
 10
10507.53333890132
 20
603.9939618982182
 30
0.0
 11
10515.34245150633
 21
622.406061160983
 31
0.0
  0
LINE
  5
2155A
330
21247
100
AcDbEntity
  8
YODOROGO
100
AcDbLine
 10
10515.60162798446
 20
593.6701837306505
 30
0.0
 11
10507.53333890132
 21
603.9939618982182
 31
0.0
  0
LINE
  5
2155B
330
21247
100
AcDbEntity
  8
YODOROGO
100
AcDbLine
 10
10515.60162798446
 20
586.1701837306497
 30
0.0
 11
10515.60162798446
 21
593.6701837306505
 31
0.0
  0
LINE
  5
2155C
330
21247
100
AcDbEntity
  8
YODOROGO
100
AcDbLine
 10
10506.60162798447
 20
594.4638989060739
 30
0.0
 11
10515.60162798446
 21
586.1701837306497
 31
0.0
  0
LINE
  5
2155D
330
21247
100
AcDbEntity
  8
YODOROGO
100
AcDbLine
 10
10506.60162798447
 20
553.4060611609827
 30
0.0
 11
10506.60162798447
 21
594.4638989060739
 31
0.0
  0
LINE
  5
2155E
330
21247
100
AcDbEntity
  8
YODOROGO
100
AcDbLine
 10
10500.60162798446
 20
553.4060611609827
 30
0.0
 11
10506.60162798447
 21
553.4060611609827
 31
0.0
  0
LINE
  5
2155F
330
21247
100
AcDbEntity
  8
YODOROGO
100
AcDbLine
 10
10500.60162798446
 20
592.5020061336555
 30
0.0
 11
10500.60162798446
 21
553.4060611609827
 31
0.0
  0
LINE
  5
21560
330
21247
100
AcDbEntity
  8
YODOROGO
100
AcDbLine
 10
10491.60162798447
 20
574.7880296375358
 30
0.0
 11
10500.60162798446
 21
592.5020061336555
 31
0.0
  0
LINE
  5
21561
330
21247
100
AcDbEntity
  8
YODOROGO
100
AcDbLine
 10
10491.60162798447
 20
583.788029637536
 30
0.0
 11
10491.60162798447
 21
574.7880296375358
 31
0.0
  0
LINE
  5
21562
330
21247
100
AcDbEntity
  8
YODOROGO
100
AcDbLine
 10
10509.68579035926
 20
625.4060611609819
 30
0.0
 11
10491.60162798447
 21
583.788029637536
 31
0.0
  0
LINE
  5
21563
330
21247
100
AcDbEntity
  8
YODOROGO
100
AcDbLine
 10
10491.60162798447
 20
625.4060611609819
 30
0.0
 11
10509.68579035926
 21
625.4060611609819
 31
0.0
  0
LINE
  5
21564
330
21247
100
AcDbEntity
  8
YODOROGO
100
AcDbLine
 10
10518.80082008659
 20
620.813863977996
 30
0.0
 11
10530.80082008658
 21
620.813863977996
 31
0.0
1001
AUTOCAD_POSTSCRIPT_FIGURE
1002
{
1000
PSFILL
1000
Grayscale
1000
Grayscale
1070
   100
1002
}
  0
LINE
  5
21565
330
21247
100
AcDbEntity
  8
YODOROGO
100
AcDbLine
 10
10518.80082008659
 20
611.8138639779965
 30
0.0
 11
10518.80082008659
 21
620.813863977996
 31
0.0
1001
AUTOCAD_POSTSCRIPT_FIGURE
1002
{
1000
PSFILL
1000
Grayscale
1000
Grayscale
1070
   100
1002
}
  0
LINE
  5
21566
330
21247
100
AcDbEntity
  8
YODOROGO
100
AcDbLine
 10
10530.80082008658
 20
611.8138639779965
 30
0.0
 11
10518.80082008659
 21
611.8138639779965
 31
0.0
1001
AUTOCAD_POSTSCRIPT_FIGURE
1002
{
1000
PSFILL
1000
Grayscale
1000
Grayscale
1070
   100
1002
}
  0
LINE
  5
21567
330
21247
100
AcDbEntity
  8
YODOROGO
100
AcDbLine
 10
10530.80082008658
 20
562.4060611609831
 30
0.0
 11
10530.80082008658
 21
611.8138639779965
 31
0.0
1001
AUTOCAD_POSTSCRIPT_FIGURE
1002
{
1000
PSFILL
1000
Grayscale
1000
Grayscale
1070
   100
1002
}
  0
LINE
  5
21568
330
21247
100
AcDbEntity
  8
YODOROGO
100
AcDbLine
 10
10518.8008200866
 20
562.4060611609831
 30
0.0
 11
10530.80082008658
 21
562.4060611609831
 31
0.0
1001
AUTOCAD_POSTSCRIPT_FIGURE
1002
{
1000
PSFILL
1000
Grayscale
1000
Grayscale
1070
   100
1002
}
  0
LINE
  5
21569
330
21247
100
AcDbEntity
  8
YODOROGO
100
AcDbLine
 10
10518.8008200866
 20
553.4060611609827
 30
0.0
 11
10518.8008200866
 21
562.4060611609831
 31
0.0
1001
AUTOCAD_POSTSCRIPT_FIGURE
1002
{
1000
PSFILL
1000
Grayscale
1000
Grayscale
1070
   100
1002
}
  0
LINE
  5
2156A
330
21247
100
AcDbEntity
  8
YODOROGO
100
AcDbLine
 10
10551.60162798447
 20
553.4060611609827
 30
0.0
 11
10518.8008200866
 21
553.4060611609827
 31
0.0
1001
AUTOCAD_POSTSCRIPT_FIGURE
1002
{
1000
PSFILL
1000
Grayscale
1000
Grayscale
1070
   100
1002
}
  0
LINE
  5
2156B
330
21247
100
AcDbEntity
  8
YODOROGO
100
AcDbLine
 10
10551.60162798447
 20
562.4060611609831
 30
0.0
 11
10551.60162798447
 21
553.4060611609827
 31
0.0
1001
AUTOCAD_POSTSCRIPT_FIGURE
1002
{
1000
PSFILL
1000
Grayscale
1000
Grayscale
1070
   100
1002
}
  0
LINE
  5
2156C
330
21247
100
AcDbEntity
  8
YODOROGO
100
AcDbLine
 10
10536.8008200866
 20
562.4060611609831
 30
0.0
 11
10551.60162798447
 21
562.4060611609831
 31
0.0
1001
AUTOCAD_POSTSCRIPT_FIGURE
1002
{
1000
PSFILL
1000
Grayscale
1000
Grayscale
1070
   100
1002
}
  0
LINE
  5
2156D
330
21247
100
AcDbEntity
  8
YODOROGO
100
AcDbLine
 10
10536.8008200866
 20
611.8138639779965
 30
0.0
 11
10536.8008200866
 21
562.4060611609831
 31
0.0
1001
AUTOCAD_POSTSCRIPT_FIGURE
1002
{
1000
PSFILL
1000
Grayscale
1000
Grayscale
1070
   100
1002
}
  0
LINE
  5
2156E
330
21247
100
AcDbEntity
  8
YODOROGO
100
AcDbLine
 10
10551.60162798447
 20
611.8138639779965
 30
0.0
 11
10536.8008200866
 21
611.8138639779965
 31
0.0
1001
AUTOCAD_POSTSCRIPT_FIGURE
1002
{
1000
PSFILL
1000
Grayscale
1000
Grayscale
1070
   100
1002
}
  0
LINE
  5
2156F
330
21247
100
AcDbEntity
  8
YODOROGO
100
AcDbLine
 10
10551.60162798447
 20
620.813863977996
 30
0.0
 11
10551.60162798447
 21
611.8138639779965
 31
0.0
1001
AUTOCAD_POSTSCRIPT_FIGURE
1002
{
1000
PSFILL
1000
Grayscale
1000
Grayscale
1070
   100
1002
}
  0
LINE
  5
21570
330
21247
100
AcDbEntity
  8
YODOROGO
100
AcDbLine
 10
10536.8008200866
 20
620.813863977996
 30
0.0
 11
10551.60162798447
 21
620.813863977996
 31
0.0
1001
AUTOCAD_POSTSCRIPT_FIGURE
1002
{
1000
PSFILL
1000
Grayscale
1000
Grayscale
1070
   100
1002
}
  0
LINE
  5
21571
330
21247
100
AcDbEntity
  8
YODOROGO
100
AcDbLine
 10
10650.60162798447
 20
625.406061160983
 30
0.0
 11
10629.60162798447
 21
625.406061160983
 31
0.0
  0
LINE
  5
21572
330
21247
100
AcDbEntity
  8
YODOROGO
100
AcDbLine
 10
10650.60162798447
 20
604.4060611609832
 30
0.0
 11
10650.60162798447
 21
625.406061160983
 31
0.0
  0
LINE
  5
21573
330
21247
100
AcDbEntity
  8
YODOROGO
100
AcDbLine
 10
10629.60162798447
 20
625.406061160983
 30
0.0
 11
10629.60162798447
 21
604.4060611609832
 31
0.0
  0
ARC
  5
21574
330
21247
100
AcDbEntity
  8
YODOROGO
100
AcDbCircle
 10
10692.60162798446
 20
565.4060611609828
 30
0.0
 40
30.0
100
AcDbArc
 50
180.0
 51
270.0
  0
ARC
  5
21575
330
21247
100
AcDbEntity
  8
YODOROGO
100
AcDbCircle
 10
10701.60162798446
 20
586.4060611609825
 30
0.0
 40
15.0
100
AcDbArc
 50
180.0
 51
270.0
  0
LINE
  5
21576
330
21247
100
AcDbEntity
  8
YODOROGO
100
AcDbLine
 10
10710.60162798447
 20
571.4060611609824
 30
0.0
 11
10701.60162798446
 21
571.4060611609824
 31
0.0
  0
ARC
  5
21577
330
21247
100
AcDbEntity
  8
YODOROGO
100
AcDbCircle
 10
10710.60162798447
 20
580.4060611609819
 30
0.0
 40
8.999999999998637
100
AcDbArc
 50
270.0
 51
0.0000000000054281
  0
LINE
  5
21578
330
21247
100
AcDbEntity
  8
YODOROGO
100
AcDbLine
 10
10425.60162798447
 20
709.0449677976399
 30
0.0
 11
10416.60162798446
 21
691.4162804818772
 31
0.0
1001
AUTOCAD_POSTSCRIPT_FIGURE
1002
{
1000
PSFILL
1000
Grayscale
1000
Grayscale
1070
   100
1002
}
  0
LINE
  5
21579
330
21247
100
AcDbEntity
  8
YODOROGO
100
AcDbLine
 10
10425.60162798447
 20
655.406061160983
 30
0.0
 11
10425.60162798447
 21
709.0449677976399
 31
0.0
1001
AUTOCAD_POSTSCRIPT_FIGURE
1002
{
1000
PSFILL
1000
Grayscale
1000
Grayscale
1070
   100
1002
}
  0
LINE
  5
2157A
330
21247
100
AcDbEntity
  8
YODOROGO
100
AcDbLine
 10
10431.60162798447
 20
655.406061160983
 30
0.0
 11
10425.60162798447
 21
655.406061160983
 31
0.0
1001
AUTOCAD_POSTSCRIPT_FIGURE
1002
{
1000
PSFILL
1000
Grayscale
1000
Grayscale
1070
   100
1002
}
  0
LINE
  5
2157B
330
21247
100
AcDbEntity
  8
YODOROGO
100
AcDbLine
 10
10431.60162798447
 20
710.1642495319751
 30
0.0
 11
10431.60162798447
 21
655.406061160983
 31
0.0
1001
AUTOCAD_POSTSCRIPT_FIGURE
1002
{
1000
PSFILL
1000
Grayscale
1000
Grayscale
1070
   100
1002
}
  0
LINE
  5
2157C
330
21247
100
AcDbEntity
  8
YODOROGO
100
AcDbLine
 10
10440.60162798446
 20
700.3705343565512
 30
0.0
 11
10431.60162798447
 21
710.1642495319751
 31
0.0
1001
AUTOCAD_POSTSCRIPT_FIGURE
1002
{
1000
PSFILL
1000
Grayscale
1000
Grayscale
1070
   100
1002
}
  0
LINE
  5
2157D
330
21247
100
AcDbEntity
  8
YODOROGO
100
AcDbLine
 10
10440.60162798446
 20
706.3705343565509
 30
0.0
 11
10440.60162798446
 21
700.3705343565512
 31
0.0
1001
AUTOCAD_POSTSCRIPT_FIGURE
1002
{
1000
PSFILL
1000
Grayscale
1000
Grayscale
1070
   100
1002
}
  0
LINE
  5
2157E
330
21247
100
AcDbEntity
  8
YODOROGO
100
AcDbLine
 10
10431.60162798447
 20
719.1642495319745
 30
0.0
 11
10440.60162798446
 21
706.3705343565509
 31
0.0
1001
AUTOCAD_POSTSCRIPT_FIGURE
1002
{
1000
PSFILL
1000
Grayscale
1000
Grayscale
1070
   100
1002
}
  0
LINE
  5
2157F
330
21247
100
AcDbEntity
  8
YODOROGO
100
AcDbLine
 10
10431.60162798447
 20
727.4060611609828
 30
0.0
 11
10431.60162798447
 21
719.1642495319745
 31
0.0
1001
AUTOCAD_POSTSCRIPT_FIGURE
1002
{
1000
PSFILL
1000
Grayscale
1000
Grayscale
1070
   100
1002
}
  0
LINE
  5
21580
330
21247
100
AcDbEntity
  8
YODOROGO
100
AcDbLine
 10
10458.60162798446
 20
727.4060611609828
 30
0.0
 11
10431.60162798447
 21
727.4060611609828
 31
0.0
1001
AUTOCAD_POSTSCRIPT_FIGURE
1002
{
1000
PSFILL
1000
Grayscale
1000
Grayscale
1070
   100
1002
}
  0
LINE
  5
21581
330
21247
100
AcDbEntity
  8
YODOROGO
100
AcDbLine
 10
10458.60162798446
 20
712.7131308511124
 30
0.0
 11
10458.60162798446
 21
727.4060611609828
 31
0.0
1001
AUTOCAD_POSTSCRIPT_FIGURE
1002
{
1000
PSFILL
1000
Grayscale
1000
Grayscale
1070
   100
1002
}
  0
LINE
  5
21582
330
21247
100
AcDbEntity
  8
YODOROGO
100
AcDbLine
 10
10446.60162798447
 20
712.7131308511124
 30
0.0
 11
10458.60162798446
 21
712.7131308511124
 31
0.0
1001
AUTOCAD_POSTSCRIPT_FIGURE
1002
{
1000
PSFILL
1000
Grayscale
1000
Grayscale
1070
   100
1002
}
  0
LINE
  5
21583
330
21247
100
AcDbEntity
  8
YODOROGO
100
AcDbLine
 10
10446.60162798447
 20
706.7131308511119
 30
0.0
 11
10446.60162798447
 21
712.7131308511124
 31
0.0
1001
AUTOCAD_POSTSCRIPT_FIGURE
1002
{
1000
PSFILL
1000
Grayscale
1000
Grayscale
1070
   100
1002
}
  0
LINE
  5
21584
330
21247
100
AcDbEntity
  8
YODOROGO
100
AcDbLine
 10
10458.60162798446
 20
706.7131308511119
 30
0.0
 11
10446.60162798447
 21
706.7131308511119
 31
0.0
1001
AUTOCAD_POSTSCRIPT_FIGURE
1002
{
1000
PSFILL
1000
Grayscale
1000
Grayscale
1070
   100
1002
}
  0
LINE
  5
21585
330
21247
100
AcDbEntity
  8
YODOROGO
100
AcDbLine
 10
10458.60162798446
 20
704.8571917366647
 30
0.0
 11
10458.60162798446
 21
706.7131308511119
 31
0.0
1001
AUTOCAD_POSTSCRIPT_FIGURE
1002
{
1000
PSFILL
1000
Grayscale
1000
Grayscale
1070
   100
1002
}
  0
LINE
  5
21586
330
21247
100
AcDbEntity
  8
YODOROGO
100
AcDbLine
 10
10443.60162798447
 20
679.8656179355313
 30
0.0
 11
10458.60162798446
 21
704.8571917366647
 31
0.0
1001
AUTOCAD_POSTSCRIPT_FIGURE
1002
{
1000
PSFILL
1000
Grayscale
1000
Grayscale
1070
   100
1002
}
  0
LINE
  5
21587
330
21247
100
AcDbEntity
  8
YODOROGO
100
AcDbLine
 10
10443.60162798447
 20
673.8656179355309
 30
0.0
 11
10443.60162798447
 21
679.8656179355313
 31
0.0
1001
AUTOCAD_POSTSCRIPT_FIGURE
1002
{
1000
PSFILL
1000
Grayscale
1000
Grayscale
1070
   100
1002
}
  0
LINE
  5
21588
330
21247
100
AcDbEntity
  8
YODOROGO
100
AcDbLine
 10
10458.60162798446
 20
692.8571917366638
 30
0.0
 11
10443.60162798447
 21
673.8656179355309
 31
0.0
1001
AUTOCAD_POSTSCRIPT_FIGURE
1002
{
1000
PSFILL
1000
Grayscale
1000
Grayscale
1070
   100
1002
}
  0
LINE
  5
21589
330
21247
100
AcDbEntity
  8
YODOROGO
100
AcDbLine
 10
10458.60162798446
 20
655.406061160983
 30
0.0
 11
10458.60162798446
 21
692.8571917366638
 31
0.0
1001
AUTOCAD_POSTSCRIPT_FIGURE
1002
{
1000
PSFILL
1000
Grayscale
1000
Grayscale
1070
   100
1002
}
  0
LINE
  5
2158A
330
21247
100
AcDbEntity
  8
YODOROGO
100
AcDbLine
 10
10464.60162798447
 20
655.406061160983
 30
0.0
 11
10458.60162798446
 21
655.406061160983
 31
0.0
1001
AUTOCAD_POSTSCRIPT_FIGURE
1002
{
1000
PSFILL
1000
Grayscale
1000
Grayscale
1070
   100
1002
}
  0
LINE
  5
2158B
330
21247
100
AcDbEntity
  8
YODOROGO
100
AcDbLine
 10
10464.60162798447
 20
693.5283795595521
 30
0.0
 11
10464.60162798447
 21
655.406061160983
 31
0.0
1001
AUTOCAD_POSTSCRIPT_FIGURE
1002
{
1000
PSFILL
1000
Grayscale
1000
Grayscale
1070
   100
1002
}
  0
LINE
  5
2158C
330
21247
100
AcDbEntity
  8
YODOROGO
100
AcDbLine
 10
10476.60162798446
 20
673.8656179355309
 30
0.0
 11
10464.60162798447
 21
693.5283795595521
 31
0.0
1001
AUTOCAD_POSTSCRIPT_FIGURE
1002
{
1000
PSFILL
1000
Grayscale
1000
Grayscale
1070
   100
1002
}
  0
LINE
  5
2158D
330
21247
100
AcDbEntity
  8
YODOROGO
100
AcDbLine
 10
10476.60162798446
 20
679.8656179355313
 30
0.0
 11
10476.60162798446
 21
673.8656179355309
 31
0.0
1001
AUTOCAD_POSTSCRIPT_FIGURE
1002
{
1000
PSFILL
1000
Grayscale
1000
Grayscale
1070
   100
1002
}
  0
LINE
  5
2158E
330
21247
100
AcDbEntity
  8
YODOROGO
100
AcDbLine
 10
10464.60162798447
 20
705.5283795595531
 30
0.0
 11
10476.60162798446
 21
679.8656179355313
 31
0.0
1001
AUTOCAD_POSTSCRIPT_FIGURE
1002
{
1000
PSFILL
1000
Grayscale
1000
Grayscale
1070
   100
1002
}
  0
LINE
  5
2158F
330
21247
100
AcDbEntity
  8
YODOROGO
100
AcDbLine
 10
10464.60162798447
 20
706.7131308511128
 30
0.0
 11
10464.60162798447
 21
705.5283795595531
 31
0.0
1001
AUTOCAD_POSTSCRIPT_FIGURE
1002
{
1000
PSFILL
1000
Grayscale
1000
Grayscale
1070
   100
1002
}
  0
LINE
  5
21590
330
21247
100
AcDbEntity
  8
YODOROGO
100
AcDbLine
 10
10476.60162798446
 20
706.7131308511119
 30
0.0
 11
10464.60162798447
 21
706.7131308511128
 31
0.0
1001
AUTOCAD_POSTSCRIPT_FIGURE
1002
{
1000
PSFILL
1000
Grayscale
1000
Grayscale
1070
   100
1002
}
  0
LINE
  5
21591
330
21247
100
AcDbEntity
  8
YODOROGO
100
AcDbLine
 10
10476.60162798446
 20
712.7131308511124
 30
0.0
 11
10476.60162798446
 21
706.7131308511119
 31
0.0
1001
AUTOCAD_POSTSCRIPT_FIGURE
1002
{
1000
PSFILL
1000
Grayscale
1000
Grayscale
1070
   100
1002
}
  0
LINE
  5
21592
330
21247
100
AcDbEntity
  8
YODOROGO
100
AcDbLine
 10
10464.60162798447
 20
712.7131308511124
 30
0.0
 11
10476.60162798446
 21
712.7131308511124
 31
0.0
1001
AUTOCAD_POSTSCRIPT_FIGURE
1002
{
1000
PSFILL
1000
Grayscale
1000
Grayscale
1070
   100
1002
}
  0
LINE
  5
21593
330
21247
100
AcDbEntity
  8
YODOROGO
100
AcDbLine
 10
10464.60162798447
 20
727.4060611609828
 30
0.0
 11
10464.60162798447
 21
712.7131308511124
 31
0.0
1001
AUTOCAD_POSTSCRIPT_FIGURE
1002
{
1000
PSFILL
1000
Grayscale
1000
Grayscale
1070
   100
1002
}
  0
LINE
  5
21594
330
21247
100
AcDbEntity
  8
YODOROGO
100
AcDbLine
 10
10476.60162798446
 20
727.4060611609828
 30
0.0
 11
10464.60162798447
 21
727.4060611609828
 31
0.0
1001
AUTOCAD_POSTSCRIPT_FIGURE
1002
{
1000
PSFILL
1000
Grayscale
1000
Grayscale
1070
   100
1002
}
  0
LINE
  5
21595
330
21247
100
AcDbEntity
  8
YODOROGO
100
AcDbLine
 10
10476.60162798446
 20
733.4060611609828
 30
0.0
 11
10476.60162798446
 21
727.4060611609828
 31
0.0
1001
AUTOCAD_POSTSCRIPT_FIGURE
1002
{
1000
PSFILL
1000
Grayscale
1000
Grayscale
1070
   100
1002
}
  0
LINE
  5
21596
330
21247
100
AcDbEntity
  8
YODOROGO
100
AcDbLine
 10
10464.60162798447
 20
733.4060611609828
 30
0.0
 11
10476.60162798446
 21
733.4060611609828
 31
0.0
1001
AUTOCAD_POSTSCRIPT_FIGURE
1002
{
1000
PSFILL
1000
Grayscale
1000
Grayscale
1070
   100
1002
}
  0
LINE
  5
21597
330
21247
100
AcDbEntity
  8
YODOROGO
100
AcDbLine
 10
10464.60162798447
 20
742.4060611609832
 30
0.0
 11
10464.60162798447
 21
733.4060611609828
 31
0.0
1001
AUTOCAD_POSTSCRIPT_FIGURE
1002
{
1000
PSFILL
1000
Grayscale
1000
Grayscale
1070
   100
1002
}
  0
LINE
  5
21598
330
21247
100
AcDbEntity
  8
YODOROGO
100
AcDbLine
 10
10458.60162798446
 20
742.4060611609832
 30
0.0
 11
10464.60162798447
 21
742.4060611609832
 31
0.0
1001
AUTOCAD_POSTSCRIPT_FIGURE
1002
{
1000
PSFILL
1000
Grayscale
1000
Grayscale
1070
   100
1002
}
  0
LINE
  5
21599
330
21247
100
AcDbEntity
  8
YODOROGO
100
AcDbLine
 10
10458.60162798446
 20
733.4060611609828
 30
0.0
 11
10458.60162798446
 21
742.4060611609832
 31
0.0
1001
AUTOCAD_POSTSCRIPT_FIGURE
1002
{
1000
PSFILL
1000
Grayscale
1000
Grayscale
1070
   100
1002
}
  0
LINE
  5
2159A
330
21247
100
AcDbEntity
  8
YODOROGO
100
AcDbLine
 10
10449.60162798447
 20
733.4060611609828
 30
0.0
 11
10458.60162798446
 21
733.4060611609828
 31
0.0
1001
AUTOCAD_POSTSCRIPT_FIGURE
1002
{
1000
PSFILL
1000
Grayscale
1000
Grayscale
1070
   100
1002
}
  0
LINE
  5
2159B
330
21247
100
AcDbEntity
  8
YODOROGO
100
AcDbLine
 10
10449.60162798447
 20
742.4060611609832
 30
0.0
 11
10449.60162798447
 21
733.4060611609828
 31
0.0
1001
AUTOCAD_POSTSCRIPT_FIGURE
1002
{
1000
PSFILL
1000
Grayscale
1000
Grayscale
1070
   100
1002
}
  0
LINE
  5
2159C
330
21247
100
AcDbEntity
  8
YODOROGO
100
AcDbLine
 10
10443.60162798447
 20
742.4060611609832
 30
0.0
 11
10449.60162798447
 21
742.4060611609832
 31
0.0
1001
AUTOCAD_POSTSCRIPT_FIGURE
1002
{
1000
PSFILL
1000
Grayscale
1000
Grayscale
1070
   100
1002
}
  0
LINE
  5
2159D
330
21247
100
AcDbEntity
  8
YODOROGO
100
AcDbLine
 10
10443.60162798447
 20
733.4060611609828
 30
0.0
 11
10443.60162798447
 21
742.4060611609832
 31
0.0
1001
AUTOCAD_POSTSCRIPT_FIGURE
1002
{
1000
PSFILL
1000
Grayscale
1000
Grayscale
1070
   100
1002
}
  0
LINE
  5
2159E
330
21247
100
AcDbEntity
  8
YODOROGO
100
AcDbLine
 10
10431.60162798447
 20
733.4060611609828
 30
0.0
 11
10443.60162798447
 21
733.4060611609828
 31
0.0
1001
AUTOCAD_POSTSCRIPT_FIGURE
1002
{
1000
PSFILL
1000
Grayscale
1000
Grayscale
1070
   100
1002
}
  0
LINE
  5
2159F
330
21247
100
AcDbEntity
  8
YODOROGO
100
AcDbLine
 10
10431.60162798447
 20
742.4060611609832
 30
0.0
 11
10431.60162798447
 21
733.4060611609828
 31
0.0
1001
AUTOCAD_POSTSCRIPT_FIGURE
1002
{
1000
PSFILL
1000
Grayscale
1000
Grayscale
1070
   100
1002
}
  0
LINE
  5
215A0
330
21247
100
AcDbEntity
  8
YODOROGO
100
AcDbLine
 10
10425.60162798447
 20
742.4060611609832
 30
0.0
 11
10431.60162798447
 21
742.4060611609832
 31
0.0
1001
AUTOCAD_POSTSCRIPT_FIGURE
1002
{
1000
PSFILL
1000
Grayscale
1000
Grayscale
1070
   100
1002
}
  0
LINE
  5
215A1
330
21247
100
AcDbEntity
  8
YODOROGO
100
AcDbLine
 10
10425.60162798447
 20
733.4060611609828
 30
0.0
 11
10425.60162798447
 21
742.4060611609832
 31
0.0
1001
AUTOCAD_POSTSCRIPT_FIGURE
1002
{
1000
PSFILL
1000
Grayscale
1000
Grayscale
1070
   100
1002
}
  0
LINE
  5
215A2
330
21247
100
AcDbEntity
  8
YODOROGO
100
AcDbLine
 10
10416.60162798446
 20
733.4060611609828
 30
0.0
 11
10425.60162798447
 21
733.4060611609828
 31
0.0
1001
AUTOCAD_POSTSCRIPT_FIGURE
1002
{
1000
PSFILL
1000
Grayscale
1000
Grayscale
1070
   100
1002
}
  0
LINE
  5
215A3
330
21247
100
AcDbEntity
  8
YODOROGO
100
AcDbLine
 10
10416.60162798446
 20
727.4060611609828
 30
0.0
 11
10416.60162798446
 21
733.4060611609828
 31
0.0
1001
AUTOCAD_POSTSCRIPT_FIGURE
1002
{
1000
PSFILL
1000
Grayscale
1000
Grayscale
1070
   100
1002
}
  0
LINE
  5
215A4
330
21247
100
AcDbEntity
  8
YODOROGO
100
AcDbLine
 10
10425.60162798447
 20
727.4060611609828
 30
0.0
 11
10416.60162798446
 21
727.4060611609828
 31
0.0
1001
AUTOCAD_POSTSCRIPT_FIGURE
1002
{
1000
PSFILL
1000
Grayscale
1000
Grayscale
1070
   100
1002
}
  0
LINE
  5
215A5
330
21247
100
AcDbEntity
  8
YODOROGO
100
AcDbLine
 10
10425.60162798447
 20
718.0449677976392
 30
0.0
 11
10425.60162798447
 21
727.4060611609828
 31
0.0
1001
AUTOCAD_POSTSCRIPT_FIGURE
1002
{
1000
PSFILL
1000
Grayscale
1000
Grayscale
1070
   100
1002
}
  0
LINE
  5
215A6
330
21247
100
AcDbEntity
  8
YODOROGO
100
AcDbLine
 10
10416.60162798446
 20
697.4162804818766
 30
0.0
 11
10425.60162798447
 21
718.0449677976392
 31
0.0
1001
AUTOCAD_POSTSCRIPT_FIGURE
1002
{
1000
PSFILL
1000
Grayscale
1000
Grayscale
1070
   100
1002
}
  0
LINE
  5
215A7
330
21247
100
AcDbEntity
  8
YODOROGO
100
AcDbLine
 10
10416.60162798446
 20
691.4162804818772
 30
0.0
 11
10416.60162798446
 21
697.4162804818766
 31
0.0
1001
AUTOCAD_POSTSCRIPT_FIGURE
1002
{
1000
PSFILL
1000
Grayscale
1000
Grayscale
1070
   100
1002
}
  0
LINE
  5
215A8
330
21247
100
AcDbEntity
  8
YODOROGO
100
AcDbLine
 10
10596.60162798446
 20
700.406061160983
 30
0.0
 11
10650.60162798447
 21
684.3291096151149
 31
0.0
1001
AUTOCAD_POSTSCRIPT_FIGURE
1002
{
1000
PSFILL
1000
Grayscale
1000
Grayscale
1070
   100
1002
}
  0
LINE
  5
215A9
330
21247
100
AcDbEntity
  8
YODOROGO
100
AcDbLine
 10
10650.60162798447
 20
657.3291096151146
 30
0.0
 11
10596.60162798446
 21
673.4060611609827
 31
0.0
1001
AUTOCAD_POSTSCRIPT_FIGURE
1002
{
1000
PSFILL
1000
Grayscale
1000
Grayscale
1070
   100
1002
}
  0
LINE
  5
215AA
330
21247
100
AcDbEntity
  8
YODOROGO
100
AcDbLine
 10
10650.60162798447
 20
744.329109615115
 30
0.0
 11
10596.60162798446
 21
760.4060611609829
 31
0.0
1001
AUTOCAD_POSTSCRIPT_FIGURE
1002
{
1000
PSFILL
1000
Grayscale
1000
Grayscale
1070
   100
1002
}
  0
LINE
  5
215AB
330
21247
100
AcDbEntity
  8
YODOROGO
100
AcDbLine
 10
10596.60162798446
 20
734.9060611609829
 30
0.0
 11
10650.60162798447
 21
718.829109615115
 31
0.0
1001
AUTOCAD_POSTSCRIPT_FIGURE
1002
{
1000
PSFILL
1000
Grayscale
1000
Grayscale
1070
   100
1002
}
  0
LINE
  5
215AC
330
21247
100
AcDbEntity
  8
YODOROGO
100
AcDbLine
 10
10596.60162798446
 20
673.4060611609827
 30
0.0
 11
10596.60162798446
 21
700.406061160983
 31
0.0
1001
AUTOCAD_POSTSCRIPT_FIGURE
1002
{
1000
PSFILL
1000
Grayscale
1000
Grayscale
1070
   100
1002
}
  0
LINE
  5
215AD
330
21247
100
AcDbEntity
  8
YODOROGO
100
AcDbLine
 10
10596.60162798446
 20
760.4060611609829
 30
0.0
 11
10596.60162798446
 21
734.9060611609829
 31
0.0
1001
AUTOCAD_POSTSCRIPT_FIGURE
1002
{
1000
PSFILL
1000
Grayscale
1000
Grayscale
1070
   100
1002
}
  0
LINE
  5
215AE
330
21247
100
AcDbEntity
  8
YODOROGO
100
AcDbLine
 10
10530.08862007752
 20
727.4060611609828
 30
0.0
 11
10548.60162798447
 21
655.406061160983
 31
0.0
1001
AUTOCAD_POSTSCRIPT_FIGURE
1002
{
1000
PSFILL
1000
Grayscale
1000
Grayscale
1070
   100
1002
}
  0
LINE
  5
215AF
330
21247
100
AcDbEntity
  8
YODOROGO
100
AcDbLine
 10
10491.60162798447
 20
727.4060611609828
 30
0.0
 11
10530.08862007752
 21
727.4060611609828
 31
0.0
1001
AUTOCAD_POSTSCRIPT_FIGURE
1002
{
1000
PSFILL
1000
Grayscale
1000
Grayscale
1070
   100
1002
}
  0
LINE
  5
215B0
330
21247
100
AcDbEntity
  8
YODOROGO
100
AcDbLine
 10
10491.60162798447
 20
733.4060611609828
 30
0.0
 11
10491.60162798447
 21
727.4060611609828
 31
0.0
1001
AUTOCAD_POSTSCRIPT_FIGURE
1002
{
1000
PSFILL
1000
Grayscale
1000
Grayscale
1070
   100
1002
}
  0
LINE
  5
215B1
330
21247
100
AcDbEntity
  8
YODOROGO
100
AcDbLine
 10
10528.72757944497
 20
733.4060611609828
 30
0.0
 11
10491.60162798447
 21
733.4060611609828
 31
0.0
1001
AUTOCAD_POSTSCRIPT_FIGURE
1002
{
1000
PSFILL
1000
Grayscale
1000
Grayscale
1070
   100
1002
}
  0
LINE
  5
215B2
330
21247
100
AcDbEntity
  8
YODOROGO
100
AcDbLine
 10
10526.68601849614
 20
742.4060611609832
 30
0.0
 11
10528.72757944497
 21
733.4060611609828
 31
0.0
1001
AUTOCAD_POSTSCRIPT_FIGURE
1002
{
1000
PSFILL
1000
Grayscale
1000
Grayscale
1070
   100
1002
}
  0
LINE
  5
215B3
330
21247
100
AcDbEntity
  8
YODOROGO
100
AcDbLine
 10
10534.18601849614
 20
742.4060611609832
 30
0.0
 11
10526.68601849614
 21
742.4060611609832
 31
0.0
1001
AUTOCAD_POSTSCRIPT_FIGURE
1002
{
1000
PSFILL
1000
Grayscale
1000
Grayscale
1070
   100
1002
}
  0
LINE
  5
215B4
330
21247
100
AcDbEntity
  8
YODOROGO
100
AcDbLine
 10
10535.92757944497
 20
733.4060611609828
 30
0.0
 11
10534.18601849614
 21
742.4060611609832
 31
0.0
1001
AUTOCAD_POSTSCRIPT_FIGURE
1002
{
1000
PSFILL
1000
Grayscale
1000
Grayscale
1070
   100
1002
}
  0
LINE
  5
215B5
330
21247
100
AcDbEntity
  8
YODOROGO
100
AcDbLine
 10
10545.60162798447
 20
733.4060611609828
 30
0.0
 11
10535.92757944497
 21
733.4060611609828
 31
0.0
1001
AUTOCAD_POSTSCRIPT_FIGURE
1002
{
1000
PSFILL
1000
Grayscale
1000
Grayscale
1070
   100
1002
}
  0
LINE
  5
215B6
330
21247
100
AcDbEntity
  8
YODOROGO
100
AcDbLine
 10
10545.60162798447
 20
742.4060611609832
 30
0.0
 11
10545.60162798447
 21
733.4060611609828
 31
0.0
1001
AUTOCAD_POSTSCRIPT_FIGURE
1002
{
1000
PSFILL
1000
Grayscale
1000
Grayscale
1070
   100
1002
}
  0
LINE
  5
215B7
330
21247
100
AcDbEntity
  8
YODOROGO
100
AcDbLine
 10
10551.60162798447
 20
742.4060611609832
 30
0.0
 11
10545.60162798447
 21
742.4060611609832
 31
0.0
1001
AUTOCAD_POSTSCRIPT_FIGURE
1002
{
1000
PSFILL
1000
Grayscale
1000
Grayscale
1070
   100
1002
}
  0
LINE
  5
215B8
330
21247
100
AcDbEntity
  8
YODOROGO
100
AcDbLine
 10
10551.60162798447
 20
733.4060611609828
 30
0.0
 11
10551.60162798447
 21
742.4060611609832
 31
0.0
1001
AUTOCAD_POSTSCRIPT_FIGURE
1002
{
1000
PSFILL
1000
Grayscale
1000
Grayscale
1070
   100
1002
}
  0
LINE
  5
215B9
330
21247
100
AcDbEntity
  8
YODOROGO
100
AcDbLine
 10
10551.60162798447
 20
727.4060611609828
 30
0.0
 11
10551.60162798447
 21
733.4060611609828
 31
0.0
1001
AUTOCAD_POSTSCRIPT_FIGURE
1002
{
1000
PSFILL
1000
Grayscale
1000
Grayscale
1070
   100
1002
}
  0
LINE
  5
215BA
330
21247
100
AcDbEntity
  8
YODOROGO
100
AcDbLine
 10
10537.08862007752
 20
727.4060611609828
 30
0.0
 11
10551.60162798447
 21
727.4060611609828
 31
0.0
1001
AUTOCAD_POSTSCRIPT_FIGURE
1002
{
1000
PSFILL
1000
Grayscale
1000
Grayscale
1070
   100
1002
}
  0
LINE
  5
215BB
330
21247
100
AcDbEntity
  8
YODOROGO
100
AcDbLine
 10
10551.60162798447
 20
655.406061160983
 30
0.0
 11
10537.08862007752
 21
727.4060611609828
 31
0.0
1001
AUTOCAD_POSTSCRIPT_FIGURE
1002
{
1000
PSFILL
1000
Grayscale
1000
Grayscale
1070
   100
1002
}
  0
LINE
  5
215BC
330
21247
100
AcDbEntity
  8
YODOROGO
100
AcDbLine
 10
10548.60162798447
 20
655.406061160983
 30
0.0
 11
10551.60162798447
 21
655.406061160983
 31
0.0
1001
AUTOCAD_POSTSCRIPT_FIGURE
1002
{
1000
PSFILL
1000
Grayscale
1000
Grayscale
1070
   100
1002
}
  0
LINE
  5
215BD
330
21247
100
AcDbEntity
  8
YODOROGO
100
AcDbLine
 10
10529.27595747517
 20
665.902791112048
 30
0.0
 11
10491.60162798447
 21
655.406061160983
 31
0.0
  0
LINE
  5
215BE
330
21247
100
AcDbEntity
  8
YODOROGO
100
AcDbLine
 10
10529.27595747517
 20
674.5008673234024
 30
0.0
 11
10529.27595747517
 21
665.902791112048
 31
0.0
  0
LINE
  5
215BF
330
21247
100
AcDbEntity
  8
YODOROGO
100
AcDbLine
 10
10512.68879272982
 20
670.0563499251625
 30
0.0
 11
10529.27595747517
 21
674.5008673234024
 31
0.0
  0
LINE
  5
215C0
330
21247
100
AcDbEntity
  8
YODOROGO
100
AcDbLine
 10
10512.68879272982
 20
702.2131308511124
 30
0.0
 11
10512.68879272982
 21
670.0563499251625
 31
0.0
  0
LINE
  5
215C1
330
21247
100
AcDbEntity
  8
YODOROGO
100
AcDbLine
 10
10529.27595747517
 20
702.2131308511124
 30
0.0
 11
10512.68879272982
 21
702.2131308511124
 31
0.0
  0
LINE
  5
215C2
330
21247
100
AcDbEntity
  8
YODOROGO
100
AcDbLine
 10
10529.27595747517
 20
709.7131308511116
 30
0.0
 11
10529.27595747517
 21
702.2131308511124
 31
0.0
  0
LINE
  5
215C3
330
21247
100
AcDbEntity
  8
YODOROGO
100
AcDbLine
 10
10491.60162798447
 20
709.7131308511116
 30
0.0
 11
10529.27595747517
 21
709.7131308511116
 31
0.0
  0
LINE
  5
215C4
330
21247
100
AcDbEntity
  8
YODOROGO
100
AcDbLine
 10
10491.60162798447
 20
702.2131308511124
 30
0.0
 11
10491.60162798447
 21
709.7131308511116
 31
0.0
  0
LINE
  5
215C5
330
21247
100
AcDbEntity
  8
YODOROGO
100
AcDbLine
 10
10508.18879272982
 20
702.2131308511124
 30
0.0
 11
10491.60162798447
 21
702.2131308511124
 31
0.0
  0
LINE
  5
215C6
330
21247
100
AcDbEntity
  8
YODOROGO
100
AcDbLine
 10
10508.18879272982
 20
669.252502347869
 30
0.0
 11
10508.18879272982
 21
702.2131308511124
 31
0.0
  0
LINE
  5
215C7
330
21247
100
AcDbEntity
  8
YODOROGO
100
AcDbLine
 10
10491.60162798447
 20
664.4060611609823
 30
0.0
 11
10508.18879272982
 21
669.252502347869
 31
0.0
  0
LINE
  5
215C8
330
21247
100
AcDbEntity
  8
YODOROGO
100
AcDbLine
 10
10491.60162798447
 20
655.406061160983
 30
0.0
 11
10491.60162798447
 21
664.4060611609823
 31
0.0
  0
LINE
  5
215C9
330
21247
100
AcDbEntity
  8
YODOROGO
100
AcDbLine
 10
10500.60162798446
 20
640.4060611609828
 30
0.0
 11
10500.60162798446
 21
631.4060611609825
 31
0.0
  0
LINE
  5
215CA
330
21247
100
AcDbEntity
  8
YODOROGO
100
AcDbLine
 10
10500.60162798446
 20
640.4060611609828
 30
0.0
 11
10500.60162798446
 21
640.4060611609828
 31
0.0
  0
LINE
  5
215CB
330
21247
100
AcDbEntity
  8
YODOROGO
100
AcDbLine
 10
10506.60162798447
 20
640.4060611609828
 30
0.0
 11
10500.60162798446
 21
640.4060611609828
 31
0.0
  0
LINE
  5
215CC
330
21247
100
AcDbEntity
  8
YODOROGO
100
AcDbLine
 10
10506.60162798447
 20
631.4060611609825
 30
0.0
 11
10506.60162798447
 21
640.4060611609828
 31
0.0
  0
LINE
  5
215CD
330
21247
100
AcDbEntity
  8
YODOROGO
100
AcDbLine
 10
10515.34245150633
 20
631.4060611609825
 30
0.0
 11
10506.60162798447
 21
631.4060611609825
 31
0.0
  0
LINE
  5
215CE
330
21247
100
AcDbEntity
  8
YODOROGO
100
AcDbLine
 10
10500.60162798446
 20
631.4060611609825
 30
0.0
 11
10491.60162798447
 21
631.4060611609825
 31
0.0
  0
LINE
  5
215CF
330
21247
100
AcDbEntity
  8
YODOROGO
100
AcDbLine
 10
10530.80082008658
 20
640.4060611609828
 30
0.0
 11
10536.8008200866
 21
640.4060611609828
 31
0.0
1001
AUTOCAD_POSTSCRIPT_FIGURE
1002
{
1000
PSFILL
1000
Grayscale
1000
Grayscale
1070
   100
1002
}
  0
LINE
  5
215D0
330
21247
100
AcDbEntity
  8
YODOROGO
100
AcDbLine
 10
10650.60162798447
 20
684.3291096151149
 30
0.0
 11
10650.60162798447
 21
657.3291096151146
 31
0.0
1001
AUTOCAD_POSTSCRIPT_FIGURE
1002
{
1000
PSFILL
1000
Grayscale
1000
Grayscale
1070
   100
1002
}
  0
LINE
  5
215D1
330
21247
100
AcDbEntity
  8
YODOROGO
100
AcDbLine
 10
10650.60162798447
 20
718.829109615115
 30
0.0
 11
10650.60162798447
 21
744.329109615115
 31
0.0
1001
AUTOCAD_POSTSCRIPT_FIGURE
1002
{
1000
PSFILL
1000
Grayscale
1000
Grayscale
1070
   100
1002
}
  0
LINE
  5
215D2
330
21247
100
AcDbEntity
  8
YODOROGO
100
AcDbLine
 10
10662.60162798446
 20
682.4060611609829
 30
0.0
 11
10662.60162798446
 21
655.4060611609838
 31
0.0
  0
LINE
  5
215D3
330
21247
100
AcDbEntity
  8
YODOROGO
100
AcDbLine
 10
10686.60162798446
 20
640.4060611609828
 30
0.0
 11
10662.60162798446
 21
640.4060611609828
 31
0.0
  0
LINE
  5
215D4
330
21247
100
AcDbEntity
  8
YODOROGO
100
AcDbLine
 10
10662.60162798446
 20
655.4060611609838
 30
0.0
 11
10719.60162798446
 21
655.4060611609838
 31
0.0
  0
LINE
  5
215D5
330
21247
100
AcDbEntity
  8
YODOROGO
100
AcDbLine
 10
10686.60162798446
 20
700.406061160983
 30
0.0
 11
10662.60162798446
 21
700.406061160983
 31
0.0
  0
LINE
  5
215D6
330
21247
100
AcDbEntity
  8
YODOROGO
100
AcDbLine
 10
10686.60162798446
 20
721.4060611609824
 30
0.0
 11
10686.60162798446
 21
700.406061160983
 31
0.0
  0
LINE
  5
215D7
330
21247
100
AcDbEntity
  8
YODOROGO
100
AcDbLine
 10
10719.60162798446
 20
745.4060611609828
 30
0.0
 11
10719.60162798446
 21
760.4060611609829
 31
0.0
  0
LINE
  5
215D8
330
21247
100
AcDbEntity
  8
YODOROGO
100
AcDbLine
 10
10662.60162798446
 20
745.4060611609828
 30
0.0
 11
10719.60162798446
 21
745.4060611609828
 31
0.0
  0
LINE
  5
215D9
330
21247
100
AcDbEntity
  8
YODOROGO
100
AcDbLine
 10
10662.60162798446
 20
700.406061160983
 30
0.0
 11
10662.60162798446
 21
745.4060611609828
 31
0.0
  0
LINE
  5
215DA
330
21247
100
AcDbEntity
  8
YODOROGO
100
AcDbLine
 10
10875.60162798447
 20
760.4060611609829
 30
0.0
 11
10875.60162798447
 21
607.4060611609829
 31
0.0
  0
LINE
  5
215DB
330
21247
100
AcDbEntity
  8
YODOROGO
100
AcDbLine
 10
10902.60162798446
 20
592.4060611609831
 30
0.0
 11
10902.60162798446
 21
760.4060611609829
 31
0.0
  0
LINE
  5
215DC
330
21247
100
AcDbEntity
  8
YODOROGO
100
AcDbLine
 10
10973.10162798446
 20
559.4060611609823
 30
0.0
 11
10973.10162798446
 21
752.9060611609828
 31
0.0
  0
LINE
  5
215DD
330
21247
100
AcDbEntity
  8
YODOROGO
100
AcDbLine
 10
10949.10162798447
 20
752.9060611609828
 30
0.0
 11
10949.10162798447
 21
559.4060611609823
 31
0.0
  0
LINE
  5
215DE
330
21247
100
AcDbEntity
  8
YODOROGO
100
AcDbLine
 10
11019.60162798446
 20
760.4060611609829
 30
0.0
 11
11019.60162798446
 21
535.4060611609829
 31
0.0
  0
LINE
  5
215DF
330
21247
100
AcDbEntity
  8
YODOROGO
100
AcDbLine
 10
11046.60162798447
 20
535.4060611609829
 30
0.0
 11
11046.60162798447
 21
760.4060611609829
 31
0.0
  0
LINE
  5
215E0
330
21247
100
AcDbEntity
  8
YODOROGO
100
AcDbLine
 10
10746.60162798446
 20
625.406061160983
 30
0.0
 11
10746.60162798446
 21
655.4060611609838
 31
0.0
  0
LINE
  5
215E1
330
21247
100
AcDbEntity
  8
YODOROGO
100
AcDbLine
 10
11207.10162798447
 20
640.4060611609828
 30
0.0
 11
11207.10162798447
 21
625.406061160983
 31
0.0
  0
LINE
  5
215E2
330
21247
100
AcDbEntity
  8
YODOROGO
100
AcDbLine
 10
11207.10162798447
 20
640.4060611609828
 30
0.0
 11
11207.10162798447
 21
625.406061160983
 31
0.0
  0
ARC
  5
215E3
330
21247
100
AcDbEntity
  8
YODOROGO
100
AcDbCircle
 10
10840.09184107006
 20
606.8316991658524
 30
0.0
 40
35.51443169202812
100
AcDbArc
 50
274.052441629071
 51
0.9266642149310715
  0
ARC
  5
215E4
330
21247
100
AcDbEntity
  8
YODOROGO
100
AcDbCircle
 10
10840.94481401992
 20
597.229023228915
 30
0.0
 40
61.84515883532068
100
AcDbArc
 50
271.5351210653777
 51
355.5272775058505
  0
LINE
  5
215E5
330
21247
100
AcDbEntity
  8
YODOROGO
100
AcDbLine
 10
10842.60162798446
 20
571.4060611609824
 30
0.0
 11
10842.60162798446
 21
535.4060611609829
 31
0.0
  0
LINE
  5
215E6
330
21247
100
AcDbEntity
  8
YODOROGO
100
AcDbLine
 10
10797.60162798446
 20
625.406061160983
 30
0.0
 11
10746.60162798446
 21
625.406061160983
 31
0.0
  0
LINE
  5
215E7
330
21247
100
AcDbEntity
  8
YODOROGO
100
AcDbLine
 10
10797.60162798446
 20
601.4060611609833
 30
0.0
 11
10797.60162798446
 21
625.406061160983
 31
0.0
  0
LINE
  5
215E8
330
21247
100
AcDbEntity
  8
YODOROGO
100
AcDbLine
 10
10746.60162798446
 20
601.4060611609833
 30
0.0
 11
10797.60162798446
 21
601.4060611609833
 31
0.0
  0
LINE
  5
215E9
330
21247
100
AcDbEntity
  8
YODOROGO
100
AcDbLine
 10
10746.60162798446
 20
571.4060611609824
 30
0.0
 11
10746.60162798446
 21
601.4060611609833
 31
0.0
  0
LINE
  5
215EA
330
21247
100
AcDbEntity
  8
YODOROGO
100
AcDbLine
 10
10797.60162798446
 20
571.4060611609824
 30
0.0
 11
10746.60162798446
 21
571.4060611609824
 31
0.0
  0
LINE
  5
215EB
330
21247
100
AcDbEntity
  8
YODOROGO
100
AcDbLine
 10
10797.60162798446
 20
535.4060611609829
 30
0.0
 11
10797.60162798446
 21
571.4060611609824
 31
0.0
  0
LINE
  5
215EC
330
21247
100
AcDbEntity
  8
YODOROGO
100
AcDbLine
 10
10949.10162798447
 20
559.4060611609823
 30
0.0
 11
10973.10162798446
 21
559.4060611609823
 31
0.0
  0
LINE
  5
215ED
330
21247
100
AcDbEntity
  8
YODOROGO
100
AcDbLine
 10
11019.60162798446
 20
535.4060611609829
 30
0.0
 11
11046.60162798447
 21
535.4060611609829
 31
0.0
  0
LINE
  5
215EE
330
21247
100
AcDbEntity
  8
YODOROGO
100
AcDbLine
 10
11151.60162798447
 20
573.1655445639615
 30
0.0
 11
11151.60162798447
 21
535.4060611609829
 31
0.0
  0
LINE
  5
215EF
330
21247
100
AcDbEntity
  8
YODOROGO
100
AcDbLine
 10
11106.60162798446
 20
535.4060611609829
 30
0.0
 11
11151.60162798447
 21
573.1655445639615
 31
0.0
  0
LINE
  5
215F0
330
21247
100
AcDbEntity
  8
YODOROGO
100
AcDbLine
 10
11106.60162798446
 20
580.406061160983
 30
0.0
 11
11106.60162798446
 21
535.4060611609829
 31
0.0
  0
LINE
  5
215F1
330
21247
100
AcDbEntity
  8
YODOROGO
100
AcDbLine
 10
11142.35423576229
 20
610.4060611609829
 30
0.0
 11
11106.60162798446
 21
580.406061160983
 31
0.0
  0
LINE
  5
215F2
330
21247
100
AcDbEntity
  8
YODOROGO
100
AcDbLine
 10
11106.60162798446
 20
610.4060611609829
 30
0.0
 11
11142.35423576229
 21
610.4060611609829
 31
0.0
  0
LINE
  5
215F3
330
21247
100
AcDbEntity
  8
YODOROGO
100
AcDbLine
 10
11106.60162798446
 20
625.406061160983
 30
0.0
 11
11106.60162798446
 21
610.4060611609829
 31
0.0
  0
LINE
  5
215F4
330
21247
100
AcDbEntity
  8
YODOROGO
100
AcDbLine
 10
11207.10162798447
 20
625.406061160983
 30
0.0
 11
11106.60162798446
 21
625.406061160983
 31
0.0
  0
LINE
  5
215F5
330
21247
100
AcDbEntity
  8
YODOROGO
100
AcDbLine
 10
11219.10162798447
 20
610.4060611609829
 30
0.0
 11
11166.60162798446
 21
610.4060611609829
 31
0.0
  0
LINE
  5
215F6
330
21247
100
AcDbEntity
  8
YODOROGO
100
AcDbLine
 10
11166.60162798446
 20
585.7520390316213
 30
0.0
 11
11164.27870236948
 21
583.8028730048376
 31
0.0
  0
LINE
  5
215F7
330
21247
100
AcDbEntity
  8
YODOROGO
100
AcDbLine
 10
11166.60162798446
 20
610.4060611609829
 30
0.0
 11
11166.60162798446
 21
585.7520390316213
 31
0.0
  0
LINE
  5
215F8
330
21247
100
AcDbEntity
  8
YODOROGO
100
AcDbLine
 10
11151.60162798447
 20
573.1655445639615
 30
0.0
 11
11151.60162798447
 21
535.4060611609829
 31
0.0
  0
LINE
  5
215F9
330
21247
100
AcDbEntity
  8
YODOROGO
100
AcDbLine
 10
11106.60162798446
 20
535.4060611609829
 30
0.0
 11
11151.60162798447
 21
573.1655445639615
 31
0.0
  0
LINE
  5
215FA
330
21247
100
AcDbEntity
  8
YODOROGO
100
AcDbLine
 10
11106.60162798446
 20
580.406061160983
 30
0.0
 11
11106.60162798446
 21
535.4060611609829
 31
0.0
  0
LINE
  5
215FB
330
21247
100
AcDbEntity
  8
YODOROGO
100
AcDbLine
 10
11142.35423576229
 20
610.4060611609829
 30
0.0
 11
11106.60162798446
 21
580.406061160983
 31
0.0
  0
LINE
  5
215FC
330
21247
100
AcDbEntity
  8
YODOROGO
100
AcDbLine
 10
11106.60162798446
 20
610.4060611609829
 30
0.0
 11
11142.35423576229
 21
610.4060611609829
 31
0.0
  0
LINE
  5
215FD
330
21247
100
AcDbEntity
  8
YODOROGO
100
AcDbLine
 10
11106.60162798446
 20
625.406061160983
 30
0.0
 11
11106.60162798446
 21
610.4060611609829
 31
0.0
  0
LINE
  5
215FE
330
21247
100
AcDbEntity
  8
YODOROGO
100
AcDbLine
 10
11207.10162798447
 20
625.406061160983
 30
0.0
 11
11106.60162798446
 21
625.406061160983
 31
0.0
  0
LINE
  5
215FF
330
21247
100
AcDbEntity
  8
YODOROGO
100
AcDbLine
 10
10797.60162798446
 20
655.4060611609838
 30
0.0
 11
10797.60162798446
 21
682.4060611609829
 31
0.0
  0
LINE
  5
21600
330
21247
100
AcDbEntity
  8
YODOROGO
100
AcDbLine
 10
10746.60162798446
 20
655.4060611609838
 30
0.0
 11
10797.60162798446
 21
655.4060611609838
 31
0.0
  0
LINE
  5
21601
330
21247
100
AcDbEntity
  8
YODOROGO
100
AcDbLine
 10
10773.60162798447
 20
700.406061160983
 30
0.0
 11
10773.60162798447
 21
721.4060611609824
 31
0.0
  0
LINE
  5
21602
330
21247
100
AcDbEntity
  8
YODOROGO
100
AcDbLine
 10
10797.60162798446
 20
700.406061160983
 30
0.0
 11
10773.60162798447
 21
700.406061160983
 31
0.0
  0
LINE
  5
21603
330
21247
100
AcDbEntity
  8
YODOROGO
100
AcDbLine
 10
10797.60162798446
 20
730.4060611609828
 30
0.0
 11
10797.60162798446
 21
700.406061160983
 31
0.0
  0
ARC
  5
21604
330
21247
100
AcDbEntity
  8
YODOROGO
100
AcDbCircle
 10
10782.60162798446
 20
730.4060611609828
 30
0.0
 40
15.0
100
AcDbArc
 50
0.0
 51
90.0
  0
LINE
  5
21605
330
21247
100
AcDbEntity
  8
YODOROGO
100
AcDbLine
 10
10746.60162798447
 20
745.4060611609828
 30
0.0
 11
10782.60162798446
 21
745.4060611609828
 31
0.0
  0
LINE
  5
21606
330
21247
100
AcDbEntity
  8
YODOROGO
100
AcDbLine
 10
10746.60162798447
 20
760.4060611609829
 30
0.0
 11
10746.60162798447
 21
745.4060611609828
 31
0.0
  0
LINE
  5
21607
330
21247
100
AcDbEntity
  8
YODOROGO
100
AcDbLine
 10
10902.60162798446
 20
760.4060611609829
 30
0.0
 11
10875.60162798447
 21
760.4060611609829
 31
0.0
  0
LINE
  5
21608
330
21247
100
AcDbEntity
  8
YODOROGO
100
AcDbLine
 10
10973.10162798446
 20
752.9060611609828
 30
0.0
 11
10949.10162798447
 21
752.9060611609828
 31
0.0
  0
LINE
  5
21609
330
21247
100
AcDbEntity
  8
YODOROGO
100
AcDbLine
 10
11046.60162798447
 20
760.4060611609829
 30
0.0
 11
11019.60162798446
 21
760.4060611609829
 31
0.0
  0
LINE
  5
2160A
330
21247
100
AcDbEntity
  8
YODOROGO
100
AcDbLine
 10
11127.60162798447
 20
640.4060611609828
 30
0.0
 11
11127.60162798447
 21
664.4060611609833
 31
0.0
1001
AUTOCAD_POSTSCRIPT_FIGURE
1002
{
1000
PSFILL
1000
Grayscale
1000
Grayscale
1070
    25
1002
}
  0
LINE
  5
2160B
330
21247
100
AcDbEntity
  8
YODOROGO
100
AcDbLine
 10
11106.60162798446
 20
640.4060611609828
 30
0.0
 11
11127.60162798447
 21
640.4060611609828
 31
0.0
1001
AUTOCAD_POSTSCRIPT_FIGURE
1002
{
1000
PSFILL
1000
Grayscale
1000
Grayscale
1070
    25
1002
}
  0
LINE
  5
2160C
330
21247
100
AcDbEntity
  8
YODOROGO
100
AcDbLine
 10
11106.60162798446
 20
682.4060611609829
 30
0.0
 11
11106.60162798446
 21
640.4060611609828
 31
0.0
1001
AUTOCAD_POSTSCRIPT_FIGURE
1002
{
1000
PSFILL
1000
Grayscale
1000
Grayscale
1070
    25
1002
}
  0
LINE
  5
2160D
330
21247
100
AcDbEntity
  8
YODOROGO
100
AcDbLine
 10
11162.10162798447
 20
682.4060611609829
 30
0.0
 11
11106.60162798446
 21
682.4060611609829
 31
0.0
1001
AUTOCAD_POSTSCRIPT_FIGURE
1002
{
1000
PSFILL
1000
Grayscale
1000
Grayscale
1070
    25
1002
}
  0
LINE
  5
2160E
330
21247
100
AcDbEntity
  8
YODOROGO
100
AcDbLine
 10
11162.10162798447
 20
697.406061160983
 30
0.0
 11
11162.10162798447
 21
682.4060611609829
 31
0.0
1001
AUTOCAD_POSTSCRIPT_FIGURE
1002
{
1000
PSFILL
1000
Grayscale
1000
Grayscale
1070
    25
1002
}
  0
LINE
  5
2160F
330
21247
100
AcDbEntity
  8
YODOROGO
100
AcDbLine
 10
11106.60162798446
 20
697.406061160983
 30
0.0
 11
11162.10162798447
 21
697.406061160983
 31
0.0
1001
AUTOCAD_POSTSCRIPT_FIGURE
1002
{
1000
PSFILL
1000
Grayscale
1000
Grayscale
1070
    25
1002
}
  0
LINE
  5
21610
330
21247
100
AcDbEntity
  8
YODOROGO
100
AcDbLine
 10
11106.60162798446
 20
715.4060611609828
 30
0.0
 11
11106.60162798446
 21
697.406061160983
 31
0.0
1001
AUTOCAD_POSTSCRIPT_FIGURE
1002
{
1000
PSFILL
1000
Grayscale
1000
Grayscale
1070
    25
1002
}
  0
LINE
  5
21611
330
21247
100
AcDbEntity
  8
YODOROGO
100
AcDbLine
 10
11162.10162798447
 20
715.4060611609828
 30
0.0
 11
11106.60162798446
 21
715.4060611609828
 31
0.0
1001
AUTOCAD_POSTSCRIPT_FIGURE
1002
{
1000
PSFILL
1000
Grayscale
1000
Grayscale
1070
    25
1002
}
  0
LINE
  5
21612
330
21247
100
AcDbEntity
  8
YODOROGO
100
AcDbLine
 10
11162.10162798447
 20
730.4060611609828
 30
0.0
 11
11162.10162798447
 21
715.4060611609828
 31
0.0
1001
AUTOCAD_POSTSCRIPT_FIGURE
1002
{
1000
PSFILL
1000
Grayscale
1000
Grayscale
1070
    25
1002
}
  0
LINE
  5
21613
330
21247
100
AcDbEntity
  8
YODOROGO
100
AcDbLine
 10
11106.60162798446
 20
730.4060611609828
 30
0.0
 11
11162.10162798447
 21
730.4060611609828
 31
0.0
1001
AUTOCAD_POSTSCRIPT_FIGURE
1002
{
1000
PSFILL
1000
Grayscale
1000
Grayscale
1070
    25
1002
}
  0
LINE
  5
21614
330
21247
100
AcDbEntity
  8
YODOROGO
100
AcDbLine
 10
11106.60162798446
 20
760.4060611609829
 30
0.0
 11
11106.60162798446
 21
730.4060611609828
 31
0.0
1001
AUTOCAD_POSTSCRIPT_FIGURE
1002
{
1000
PSFILL
1000
Grayscale
1000
Grayscale
1070
    25
1002
}
  0
LINE
  5
21615
330
21247
100
AcDbEntity
  8
YODOROGO
100
AcDbLine
 10
11124.60162798446
 20
760.4060611609829
 30
0.0
 11
11106.60162798446
 21
760.4060611609829
 31
0.0
1001
AUTOCAD_POSTSCRIPT_FIGURE
1002
{
1000
PSFILL
1000
Grayscale
1000
Grayscale
1070
    25
1002
}
  0
LINE
  5
21616
330
21247
100
AcDbEntity
  8
YODOROGO
100
AcDbLine
 10
11124.60162798446
 20
748.4060611609828
 30
0.0
 11
11124.60162798446
 21
760.4060611609829
 31
0.0
1001
AUTOCAD_POSTSCRIPT_FIGURE
1002
{
1000
PSFILL
1000
Grayscale
1000
Grayscale
1070
    25
1002
}
  0
LINE
  5
21617
330
21247
100
AcDbEntity
  8
YODOROGO
100
AcDbLine
 10
11162.10162798447
 20
748.4060611609828
 30
0.0
 11
11124.60162798446
 21
748.4060611609828
 31
0.0
1001
AUTOCAD_POSTSCRIPT_FIGURE
1002
{
1000
PSFILL
1000
Grayscale
1000
Grayscale
1070
    25
1002
}
  0
LINE
  5
21618
330
21247
100
AcDbEntity
  8
YODOROGO
100
AcDbLine
 10
11162.10162798447
 20
760.4060611609829
 30
0.0
 11
11162.10162798447
 21
748.4060611609828
 31
0.0
1001
AUTOCAD_POSTSCRIPT_FIGURE
1002
{
1000
PSFILL
1000
Grayscale
1000
Grayscale
1070
    25
1002
}
  0
LINE
  5
21619
330
21247
100
AcDbEntity
  8
YODOROGO
100
AcDbLine
 10
11186.10162798447
 20
760.4060611609829
 30
0.0
 11
11162.10162798447
 21
760.4060611609829
 31
0.0
1001
AUTOCAD_POSTSCRIPT_FIGURE
1002
{
1000
PSFILL
1000
Grayscale
1000
Grayscale
1070
    25
1002
}
  0
LINE
  5
2161A
330
21247
100
AcDbEntity
  8
YODOROGO
100
AcDbLine
 10
11186.10162798447
 20
748.4060611609828
 30
0.0
 11
11186.10162798447
 21
760.4060611609829
 31
0.0
1001
AUTOCAD_POSTSCRIPT_FIGURE
1002
{
1000
PSFILL
1000
Grayscale
1000
Grayscale
1070
    25
1002
}
  0
LINE
  5
2161B
330
21247
100
AcDbEntity
  8
YODOROGO
100
AcDbLine
 10
11186.10162798447
 20
715.4060611609828
 30
0.0
 11
11186.10162798447
 21
730.4060611609828
 31
0.0
1001
AUTOCAD_POSTSCRIPT_FIGURE
1002
{
1000
PSFILL
1000
Grayscale
1000
Grayscale
1070
    25
1002
}
  0
LINE
  5
2161C
330
21247
100
AcDbEntity
  8
YODOROGO
100
AcDbLine
 10
11186.10162798447
 20
682.4060611609829
 30
0.0
 11
11186.10162798447
 21
697.406061160983
 31
0.0
1001
AUTOCAD_POSTSCRIPT_FIGURE
1002
{
1000
PSFILL
1000
Grayscale
1000
Grayscale
1070
    25
1002
}
  0
LINE
  5
2161D
330
21247
100
AcDbEntity
  8
YODOROGO
100
AcDbLine
 10
11220.60162798447
 20
664.4060611609833
 30
0.0
 11
11220.60162798447
 21
640.4060611609828
 31
0.0
1001
AUTOCAD_POSTSCRIPT_FIGURE
1002
{
1000
PSFILL
1000
Grayscale
1000
Grayscale
1070
    25
1002
}
  0
LINE
  5
2161E
330
21247
100
AcDbEntity
  8
YODOROGO
100
AcDbLine
 10
11186.10162798447
 20
664.4060611609833
 30
0.0
 11
11220.60162798447
 21
664.4060611609833
 31
0.0
1001
AUTOCAD_POSTSCRIPT_FIGURE
1002
{
1000
PSFILL
1000
Grayscale
1000
Grayscale
1070
    25
1002
}
  0
LINE
  5
2161F
330
21247
100
AcDbEntity
  8
YODOROGO
100
AcDbLine
 10
11186.10162798447
 20
640.4060611609828
 30
0.0
 11
11186.10162798447
 21
664.4060611609833
 31
0.0
1001
AUTOCAD_POSTSCRIPT_FIGURE
1002
{
1000
PSFILL
1000
Grayscale
1000
Grayscale
1070
    25
1002
}
  0
LINE
  5
21620
330
21247
100
AcDbEntity
  8
YODOROGO
100
AcDbLine
 10
11162.10162798447
 20
640.4060611609828
 30
0.0
 11
11186.10162798447
 21
640.4060611609828
 31
0.0
1001
AUTOCAD_POSTSCRIPT_FIGURE
1002
{
1000
PSFILL
1000
Grayscale
1000
Grayscale
1070
    25
1002
}
  0
LINE
  5
21621
330
21247
100
AcDbEntity
  8
YODOROGO
100
AcDbLine
 10
11162.10162798447
 20
664.4060611609833
 30
0.0
 11
11162.10162798447
 21
640.4060611609828
 31
0.0
1001
AUTOCAD_POSTSCRIPT_FIGURE
1002
{
1000
PSFILL
1000
Grayscale
1000
Grayscale
1070
    25
1002
}
  0
LINE
  5
21622
330
21247
100
AcDbEntity
  8
YODOROGO
100
AcDbLine
 10
11127.60162798447
 20
664.4060611609833
 30
0.0
 11
11162.10162798447
 21
664.4060611609833
 31
0.0
1001
AUTOCAD_POSTSCRIPT_FIGURE
1002
{
1000
PSFILL
1000
Grayscale
1000
Grayscale
1070
    25
1002
}
  0
ARC
  5
21623
330
21247
100
AcDbEntity
  8
YODOROGO
100
AcDbCircle
 10
11647.31921000922
 20
601.0052765683409
 30
0.0
 40
66.83298041652057
100
AcDbArc
 50
281.0262749542535
 51
357.771135755738
  0
LINE
  5
21624
330
21247
100
AcDbEntity
  8
YODOROGO
100
AcDbLine
 10
11780.10162798446
 20
715.4060611609828
 30
0.0
 11
11687.10162798447
 21
715.4060611609828
 31
0.0
  0
LINE
  5
21625
330
21247
100
AcDbEntity
  8
YODOROGO
100
AcDbLine
 10
11780.10162798446
 20
760.4060611609829
 30
0.0
 11
11687.10162798447
 21
760.4060611609829
 31
0.0
  0
LINE
  5
21626
330
21247
100
AcDbEntity
  8
YODOROGO
100
AcDbLine
 10
11687.10162798447
 20
736.4060611609825
 30
0.0
 11
11780.10162798446
 21
736.4060611609825
 31
0.0
  0
LINE
  5
21627
330
21247
100
AcDbEntity
  8
YODOROGO
100
AcDbLine
 10
11546.85162798447
 20
586.4060611609825
 30
0.0
 11
11546.85162798447
 21
658.4060611609827
 31
0.0
  0
LINE
  5
21628
330
21247
100
AcDbEntity
  8
YODOROGO
100
AcDbLine
 10
11536.35162798447
 20
634.4060611609833
 30
0.0
 11
11536.35162798447
 21
586.4060611609825
 31
0.0
  0
LINE
  5
21629
330
21247
100
AcDbEntity
  8
YODOROGO
100
AcDbLine
 10
11521.35162798447
 20
559.4060611609831
 30
0.0
 11
11521.35162798447
 21
634.4060611609833
 31
0.0
  0
LINE
  5
2162A
330
21247
100
AcDbEntity
  8
YODOROGO
100
AcDbLine
 10
11587.35162798447
 20
634.4060611609833
 30
0.0
 11
11587.35162798447
 21
559.4060611609831
 31
0.0
  0
LINE
  5
2162B
330
21247
100
AcDbEntity
  8
YODOROGO
100
AcDbLine
 10
11572.35162798446
 20
586.4060611609825
 30
0.0
 11
11572.35162798446
 21
634.4060611609833
 31
0.0
  0
LINE
  5
2162C
330
21247
100
AcDbEntity
  8
YODOROGO
100
AcDbLine
 10
11561.85162798446
 20
658.4060611609827
 30
0.0
 11
11561.85162798446
 21
586.4060611609825
 31
0.0
  0
LINE
  5
2162D
330
21247
100
AcDbEntity
  8
YODOROGO
100
AcDbLine
 10
11615.10162798446
 20
760.4060611609829
 30
0.0
 11
11615.10162798446
 21
550.4060611609828
 31
0.0
  0
LINE
  5
2162E
330
21247
100
AcDbEntity
  8
YODOROGO
100
AcDbLine
 10
11492.10162798447
 20
535.4060611609829
 30
0.0
 11
11492.10162798447
 21
760.4060611609829
 31
0.0
  0
LINE
  5
2162F
330
21247
100
AcDbEntity
  8
YODOROGO
100
AcDbLine
 10
11511.60162798447
 20
736.4060611609825
 30
0.0
 11
11511.60162798447
 21
535.4060611609829
 31
0.0
  0
LINE
  5
21630
330
21247
100
AcDbEntity
  8
YODOROGO
100
AcDbLine
 10
11597.10162798446
 20
580.406061160983
 30
0.0
 11
11597.10162798446
 21
736.4060611609825
 31
0.0
  0
LINE
  5
21631
330
21247
100
AcDbEntity
  8
YODOROGO
100
AcDbLine
 10
11393.10162798446
 20
610.4060611609829
 30
0.0
 11
11393.10162798446
 21
629.9060611609831
 31
0.0
  0
LINE
  5
21632
330
21247
100
AcDbEntity
  8
YODOROGO
100
AcDbLine
 10
11481.60162798447
 20
629.9060611609831
 30
0.0
 11
11481.60162798447
 21
610.4060611609829
 31
0.0
  0
LINE
  5
21633
330
21247
100
AcDbEntity
  8
YODOROGO
100
AcDbLine
 10
11687.10162798447
 20
715.4060611609828
 30
0.0
 11
11687.10162798447
 21
613.4060611609827
 31
0.0
  0
LINE
  5
21634
330
21247
100
AcDbEntity
  8
YODOROGO
100
AcDbLine
 10
11231.10162798446
 20
625.406061160983
 30
0.0
 11
11231.10162798446
 21
640.4060611609828
 31
0.0
  0
LINE
  5
21635
330
21247
100
AcDbEntity
  8
YODOROGO
100
AcDbLine
 10
11231.10162798446
 20
625.406061160983
 30
0.0
 11
11231.10162798446
 21
640.4060611609828
 31
0.0
  0
ARC
  5
21636
330
21247
100
AcDbEntity
  8
YODOROGO
100
AcDbCircle
 10
11451.60162798447
 20
565.4060611609828
 30
0.0
 40
30.0
100
AcDbArc
 50
270.0
 51
0.0
  0
LINE
  5
21637
330
21247
100
AcDbEntity
  8
YODOROGO
100
AcDbLine
 10
11463.60162798446
 20
599.9060611609831
 30
0.0
 11
11481.60162798447
 21
599.9060611609831
 31
0.0
  0
LINE
  5
21638
330
21247
100
AcDbEntity
  8
YODOROGO
100
AcDbLine
 10
11481.60162798447
 20
610.4060611609829
 30
0.0
 11
11448.60162798446
 21
610.4060611609829
 31
0.0
  0
LINE
  5
21639
330
21247
100
AcDbEntity
  8
YODOROGO
100
AcDbLine
 10
11331.60162798447
 20
625.406061160983
 30
0.0
 11
11231.10162798446
 21
625.406061160983
 31
0.0
  0
LINE
  5
2163A
330
21247
100
AcDbEntity
  8
YODOROGO
100
AcDbLine
 10
11331.60162798447
 20
610.4060611609829
 30
0.0
 11
11331.60162798447
 21
625.406061160983
 31
0.0
  0
LINE
  5
2163B
330
21247
100
AcDbEntity
  8
YODOROGO
100
AcDbLine
 10
11256.60162798447
 20
610.4060611609829
 30
0.0
 11
11331.60162798447
 21
610.4060611609829
 31
0.0
  0
ARC
  5
2163C
330
21247
100
AcDbEntity
  8
YODOROGO
100
AcDbCircle
 10
11336.27206076301
 20
700.8321431073384
 30
0.0
 40
120.5166136069605
100
AcDbArc
 50
228.6181454618993
 51
245.660289248906
  0
LINE
  5
2163D
330
21247
100
AcDbEntity
  8
YODOROGO
100
AcDbLine
 10
11289.60162798447
 20
601.4060611609833
 30
0.0
 11
11286.60162798448
 21
591.0273059512126
 31
0.0
  0
LINE
  5
2163E
330
21247
100
AcDbEntity
  8
YODOROGO
100
AcDbLine
 10
11321.10162798447
 20
601.4060611609833
 30
0.0
 11
11289.60162798447
 21
601.4060611609833
 31
0.0
  0
LINE
  5
2163F
330
21247
100
AcDbEntity
  8
YODOROGO
100
AcDbLine
 10
11316.60162798447
 20
581.9316459275352
 30
0.0
 11
11321.10162798447
 21
601.4060611609833
 31
0.0
  0
ARC
  5
21640
330
21247
100
AcDbEntity
  8
YODOROGO
100
AcDbCircle
 10
11336.27206076267
 20
700.832143107376
 30
0.0
 40
120.516613606984
100
AcDbArc
 50
260.6062929796992
 51
267.7790355655586
  0
LINE
  5
21641
330
21247
100
AcDbEntity
  8
YODOROGO
100
AcDbLine
 10
11331.60162798447
 20
535.4060611609821
 30
0.0
 11
11331.60162798447
 21
580.406061160983
 31
0.0
  0
LINE
  5
21642
330
21247
100
AcDbEntity
  8
YODOROGO
100
AcDbLine
 10
11226.60162798446
 20
555.5022505933164
 30
0.0
 11
11226.60162798446
 21
597.949158949178
 31
0.0
  0
LINE
  5
21643
330
21247
100
AcDbEntity
  8
YODOROGO
100
AcDbLine
 10
11331.60162798447
 20
625.406061160983
 30
0.0
 11
11231.10162798446
 21
625.406061160983
 31
0.0
  0
LINE
  5
21644
330
21247
100
AcDbEntity
  8
YODOROGO
100
AcDbLine
 10
11331.60162798447
 20
610.4060611609829
 30
0.0
 11
11331.60162798447
 21
625.406061160983
 31
0.0
  0
LINE
  5
21645
330
21247
100
AcDbEntity
  8
YODOROGO
100
AcDbLine
 10
11256.60162798447
 20
610.4060611609829
 30
0.0
 11
11331.60162798447
 21
610.4060611609829
 31
0.0
  0
ARC
  5
21646
330
21247
100
AcDbEntity
  8
YODOROGO
100
AcDbCircle
 10
11336.27206076301
 20
700.8321431073384
 30
0.0
 40
120.5166136069605
100
AcDbArc
 50
228.6181454618993
 51
245.660289248906
  0
LINE
  5
21647
330
21247
100
AcDbEntity
  8
YODOROGO
100
AcDbLine
 10
11289.60162798447
 20
601.4060611609833
 30
0.0
 11
11286.60162798448
 21
591.0273059512126
 31
0.0
  0
LINE
  5
21648
330
21247
100
AcDbEntity
  8
YODOROGO
100
AcDbLine
 10
11321.10162798447
 20
601.4060611609833
 30
0.0
 11
11289.60162798447
 21
601.4060611609833
 31
0.0
  0
LINE
  5
21649
330
21247
100
AcDbEntity
  8
YODOROGO
100
AcDbLine
 10
11316.60162798447
 20
581.9316459275352
 30
0.0
 11
11321.10162798447
 21
601.4060611609833
 31
0.0
  0
ARC
  5
2164A
330
21247
100
AcDbEntity
  8
YODOROGO
100
AcDbCircle
 10
11336.27206076267
 20
700.832143107376
 30
0.0
 40
120.516613606984
100
AcDbArc
 50
260.6062929796992
 51
267.7790355655586
  0
LINE
  5
2164B
330
21247
100
AcDbEntity
  8
YODOROGO
100
AcDbLine
 10
11331.60162798447
 20
535.4060611609821
 30
0.0
 11
11331.60162798447
 21
580.406061160983
 31
0.0
  0
LINE
  5
2164C
330
21247
100
AcDbEntity
  8
YODOROGO
100
AcDbLine
 10
11226.60162798446
 20
555.5022505933164
 30
0.0
 11
11226.60162798446
 21
597.949158949178
 31
0.0
  0
LINE
  5
2164D
330
21247
100
AcDbEntity
  8
YODOROGO
100
AcDbLine
 10
11412.60162798447
 20
590.1560611609832
 30
0.0
 11
11393.10162798446
 21
590.1560611609832
 31
0.0
  0
LINE
  5
2164E
330
21247
100
AcDbEntity
  8
YODOROGO
100
AcDbLine
 10
11412.60162798447
 20
600.6560611609824
 30
0.0
 11
11412.60162798447
 21
590.1560611609832
 31
0.0
  0
LINE
  5
2164F
330
21247
100
AcDbEntity
  8
YODOROGO
100
AcDbLine
 10
11393.10162798446
 20
600.6560611609824
 30
0.0
 11
11412.60162798447
 21
600.6560611609824
 31
0.0
  0
LINE
  5
21650
330
21247
100
AcDbEntity
  8
YODOROGO
100
AcDbLine
 10
11393.10162798446
 20
590.1560611609832
 30
0.0
 11
11393.10162798446
 21
600.6560611609824
 31
0.0
  0
LINE
  5
21651
330
21247
100
AcDbEntity
  8
YODOROGO
100
AcDbLine
 10
11411.10162798447
 20
591.6560611609829
 30
0.0
 11
11394.60162798447
 21
591.6560611609829
 31
0.0
  0
LINE
  5
21652
330
21247
100
AcDbEntity
  8
YODOROGO
100
AcDbLine
 10
11411.10162798447
 20
599.156061160983
 30
0.0
 11
11411.10162798447
 21
591.6560611609829
 31
0.0
  0
LINE
  5
21653
330
21247
100
AcDbEntity
  8
YODOROGO
100
AcDbLine
 10
11394.60162798447
 20
599.156061160983
 30
0.0
 11
11411.10162798447
 21
599.156061160983
 31
0.0
  0
LINE
  5
21654
330
21247
100
AcDbEntity
  8
YODOROGO
100
AcDbLine
 10
11394.60162798447
 20
591.6560611609829
 30
0.0
 11
11394.60162798447
 21
599.156061160983
 31
0.0
  0
LINE
  5
21655
330
21247
100
AcDbEntity
  8
YODOROGO
100
AcDbLine
 10
11409.60162798447
 20
593.1560611609824
 30
0.0
 11
11396.10162798446
 21
593.1560611609824
 31
0.0
  0
LINE
  5
21656
330
21247
100
AcDbEntity
  8
YODOROGO
100
AcDbLine
 10
11409.60162798447
 20
597.6560611609833
 30
0.0
 11
11409.60162798447
 21
593.1560611609824
 31
0.0
  0
LINE
  5
21657
330
21247
100
AcDbEntity
  8
YODOROGO
100
AcDbLine
 10
11396.10162798446
 20
597.6560611609833
 30
0.0
 11
11409.60162798447
 21
597.6560611609833
 31
0.0
  0
LINE
  5
21658
330
21247
100
AcDbEntity
  8
YODOROGO
100
AcDbLine
 10
11396.10162798446
 20
593.1560611609824
 30
0.0
 11
11396.10162798446
 21
597.6560611609833
 31
0.0
  0
LINE
  5
21659
330
21247
100
AcDbEntity
  8
YODOROGO
100
AcDbLine
 10
11408.10162798447
 20
594.6560611609827
 30
0.0
 11
11397.60162798447
 21
594.6560611609827
 31
0.0
  0
LINE
  5
2165A
330
21247
100
AcDbEntity
  8
YODOROGO
100
AcDbLine
 10
11408.10162798447
 20
596.1560611609829
 30
0.0
 11
11408.10162798447
 21
594.6560611609827
 31
0.0
  0
LINE
  5
2165B
330
21247
100
AcDbEntity
  8
YODOROGO
100
AcDbLine
 10
11397.60162798447
 20
596.1560611609829
 30
0.0
 11
11408.10162798447
 21
596.1560611609829
 31
0.0
  0
LINE
  5
2165C
330
21247
100
AcDbEntity
  8
YODOROGO
100
AcDbLine
 10
11397.60162798447
 20
594.6560611609827
 30
0.0
 11
11397.60162798447
 21
596.1560611609829
 31
0.0
  0
LINE
  5
2165D
330
21247
100
AcDbEntity
  8
YODOROGO
100
AcDbLine
 10
11424.60162798446
 20
610.4060611609829
 30
0.0
 11
11393.10162798446
 21
610.4060611609829
 31
0.0
  0
LINE
  5
2165E
330
21247
100
AcDbEntity
  8
YODOROGO
100
AcDbLine
 10
11424.60162798446
 20
580.406061160983
 30
0.0
 11
11424.60162798446
 21
610.4060611609829
 31
0.0
  0
LINE
  5
2165F
330
21247
100
AcDbEntity
  8
YODOROGO
100
AcDbLine
 10
11393.10162798446
 20
580.406061160983
 30
0.0
 11
11424.60162798446
 21
580.406061160983
 31
0.0
  0
LINE
  5
21660
330
21247
100
AcDbEntity
  8
YODOROGO
100
AcDbLine
 10
11393.10162798446
 20
535.4060611609829
 30
0.0
 11
11393.10162798446
 21
580.406061160983
 31
0.0
  0
LINE
  5
21661
330
21247
100
AcDbEntity
  8
YODOROGO
100
AcDbLine
 10
11451.60162798447
 20
535.4060611609829
 30
0.0
 11
11393.10162798446
 21
535.4060611609829
 31
0.0
  0
LINE
  5
21662
330
21247
100
AcDbEntity
  8
YODOROGO
100
AcDbLine
 10
11463.60162798446
 20
589.4060611609823
 30
0.0
 11
11463.60162798446
 21
599.9060611609831
 31
0.0
  0
ARC
  5
21663
330
21247
100
AcDbEntity
  8
YODOROGO
100
AcDbCircle
 10
11454.60162798446
 20
589.4060611609843
 30
0.0
 40
9.000000000001408
100
AcDbArc
 50
270.0
 51
359.9999999999877
  0
LINE
  5
21664
330
21247
100
AcDbEntity
  8
YODOROGO
100
AcDbLine
 10
11448.60162798446
 20
580.406061160983
 30
0.0
 11
11454.60162798446
 21
580.406061160983
 31
0.0
  0
LINE
  5
21665
330
21247
100
AcDbEntity
  8
YODOROGO
100
AcDbLine
 10
11448.60162798446
 20
610.4060611609829
 30
0.0
 11
11448.60162798446
 21
580.406061160983
 31
0.0
  0
LINE
  5
21666
330
21247
100
AcDbEntity
  8
YODOROGO
100
AcDbLine
 10
11587.35162798447
 20
580.406061160983
 30
0.0
 11
11597.10162798446
 21
580.406061160983
 31
0.0
  0
LINE
  5
21667
330
21247
100
AcDbEntity
  8
YODOROGO
100
AcDbLine
 10
11600.10162798446
 20
535.4060611609829
 30
0.0
 11
11587.35162798447
 21
535.4060611609829
 31
0.0
  0
LINE
  5
21668
330
21247
100
AcDbEntity
  8
YODOROGO
100
AcDbLine
 10
11536.35162798447
 20
586.4060611609825
 30
0.0
 11
11546.85162798447
 21
586.4060611609825
 31
0.0
  0
LINE
  5
21669
330
21247
100
AcDbEntity
  8
YODOROGO
100
AcDbLine
 10
11587.35162798447
 20
559.4060611609831
 30
0.0
 11
11521.35162798447
 21
559.4060611609831
 31
0.0
  0
LINE
  5
2166A
330
21247
100
AcDbEntity
  8
YODOROGO
100
AcDbLine
 10
11561.85162798446
 20
586.4060611609825
 30
0.0
 11
11572.35162798446
 21
586.4060611609825
 31
0.0
  0
LINE
  5
2166B
330
21247
100
AcDbEntity
  8
YODOROGO
100
AcDbLine
 10
11587.35162798447
 20
535.4060611609829
 30
0.0
 11
11587.35162798447
 21
580.406061160983
 31
0.0
  0
LINE
  5
2166C
330
21247
100
AcDbEntity
  8
YODOROGO
100
AcDbLine
 10
11511.60162798447
 20
535.4060611609829
 30
0.0
 11
11492.10162798447
 21
535.4060611609829
 31
0.0
  0
LINE
  5
2166D
330
21247
100
AcDbEntity
  8
YODOROGO
100
AcDbLine
 10
11481.60162798447
 20
599.9060611609831
 30
0.0
 11
11481.60162798447
 21
565.4060611609828
 31
0.0
  0
ARC
  5
2166E
330
21247
100
AcDbEntity
  8
YODOROGO
100
AcDbCircle
 10
11600.10162798446
 20
550.4060611609828
 30
0.0
 40
15.0
100
AcDbArc
 50
270.0
 51
0.0
  0
LINE
  5
2166F
330
21247
100
AcDbEntity
  8
YODOROGO
100
AcDbLine
 10
11660.10162798446
 20
571.4060611609824
 30
0.0
 11
11660.10162798446
 21
535.4060611609829
 31
0.0
  0
ARC
  5
21670
330
21247
100
AcDbEntity
  8
YODOROGO
100
AcDbCircle
 10
11639.89552333754
 20
614.0742712911499
 30
0.0
 40
47.21083372187828
100
AcDbArc
 50
295.3405244216011
 51
359.1890230341867
  0
LINE
  5
21671
330
21247
100
AcDbEntity
  8
YODOROGO
100
AcDbLine
 10
11481.60162798447
 20
697.406061160983
 30
0.0
 11
11436.60162798447
 21
727.4060611609828
 31
0.0
  0
LINE
  5
21672
330
21247
100
AcDbEntity
  8
YODOROGO
100
AcDbLine
 10
11436.60162798447
 20
760.4060611609829
 30
0.0
 11
11481.60162798447
 21
730.4060611609828
 31
0.0
  0
LINE
  5
21673
330
21247
100
AcDbEntity
  8
YODOROGO
100
AcDbLine
 10
11448.60162798446
 20
629.9060611609831
 30
0.0
 11
11481.60162798447
 21
629.9060611609831
 31
0.0
  0
LINE
  5
21674
330
21247
100
AcDbEntity
  8
YODOROGO
100
AcDbLine
 10
11481.60162798447
 20
650.9060611609827
 30
0.0
 11
11448.60162798446
 21
650.9060611609827
 31
0.0
  0
LINE
  5
21675
330
21247
100
AcDbEntity
  8
YODOROGO
100
AcDbLine
 10
11393.10162798446
 20
673.4060611609827
 30
0.0
 11
11481.60162798447
 21
673.4060611609827
 31
0.0
  0
LINE
  5
21676
330
21247
100
AcDbEntity
  8
YODOROGO
100
AcDbLine
 10
11280.60162798447
 20
760.4060611609829
 30
0.0
 11
11258.10162798447
 21
760.4060611609829
 31
0.0
  0
LINE
  5
21677
330
21247
100
AcDbEntity
  8
YODOROGO
100
AcDbLine
 10
11280.60162798447
 20
685.4060611609829
 30
0.0
 11
11280.60162798447
 21
760.4060611609829
 31
0.0
  0
LINE
  5
21678
330
21247
100
AcDbEntity
  8
YODOROGO
100
AcDbLine
 10
11258.10162798447
 20
685.4060611609829
 30
0.0
 11
11280.60162798447
 21
685.4060611609829
 31
0.0
  0
LINE
  5
21679
330
21247
100
AcDbEntity
  8
YODOROGO
100
AcDbLine
 10
11258.10162798447
 20
760.4060611609829
 30
0.0
 11
11258.10162798447
 21
685.4060611609829
 31
0.0
  0
LINE
  5
2167A
330
21247
100
AcDbEntity
  8
YODOROGO
100
AcDbLine
 10
11310.60162798447
 20
760.4060611609829
 30
0.0
 11
11331.60162798447
 21
760.4060611609829
 31
0.0
  0
LINE
  5
2167B
330
21247
100
AcDbEntity
  8
YODOROGO
100
AcDbLine
 10
11310.60162798447
 20
679.4060611609832
 30
0.0
 11
11310.60162798447
 21
760.4060611609829
 31
0.0
  0
ARC
  5
2167C
330
21247
100
AcDbEntity
  8
YODOROGO
100
AcDbCircle
 10
11295.60162798447
 20
679.4060611609832
 30
0.0
 40
15.0
100
AcDbArc
 50
270.0
 51
0.0
  0
LINE
  5
2167D
330
21247
100
AcDbEntity
  8
YODOROGO
100
AcDbLine
 10
11258.10162798447
 20
664.4060611609833
 30
0.0
 11
11295.60162798447
 21
664.4060611609833
 31
0.0
  0
LINE
  5
2167E
330
21247
100
AcDbEntity
  8
YODOROGO
100
AcDbLine
 10
11258.10162798447
 20
640.4060611609828
 30
0.0
 11
11258.10162798447
 21
664.4060611609833
 31
0.0
  0
LINE
  5
2167F
330
21247
100
AcDbEntity
  8
YODOROGO
100
AcDbLine
 10
11301.60162798446
 20
640.4060611609828
 30
0.0
 11
11258.10162798447
 21
640.4060611609828
 31
0.0
  0
ARC
  5
21680
330
21247
100
AcDbEntity
  8
YODOROGO
100
AcDbCircle
 10
11301.60162798446
 20
670.4060611609828
 30
0.0
 40
30.0
100
AcDbArc
 50
270.0
 51
0.0
  0
LINE
  5
21681
330
21247
100
AcDbEntity
  8
YODOROGO
100
AcDbLine
 10
11331.60162798447
 20
760.4060611609829
 30
0.0
 11
11331.60162798447
 21
670.4060611609828
 31
0.0
  0
LINE
  5
21682
330
21247
100
AcDbEntity
  8
YODOROGO
100
AcDbLine
 10
11241.60162798446
 20
730.4060611609828
 30
0.0
 11
11241.60162798446
 21
748.4060611609828
 31
0.0
1001
AUTOCAD_POSTSCRIPT_FIGURE
1002
{
1000
PSFILL
1000
Grayscale
1000
Grayscale
1070
    25
1002
}
  0
LINE
  5
21683
330
21247
100
AcDbEntity
  8
YODOROGO
100
AcDbLine
 10
11241.60162798446
 20
697.406061160983
 30
0.0
 11
11241.60162798446
 21
715.4060611609828
 31
0.0
1001
AUTOCAD_POSTSCRIPT_FIGURE
1002
{
1000
PSFILL
1000
Grayscale
1000
Grayscale
1070
    25
1002
}
  0
LINE
  5
21684
330
21247
100
AcDbEntity
  8
YODOROGO
100
AcDbLine
 10
11241.60162798446
 20
640.4060611609828
 30
0.0
 11
11241.60162798446
 21
682.4060611609829
 31
0.0
1001
AUTOCAD_POSTSCRIPT_FIGURE
1002
{
1000
PSFILL
1000
Grayscale
1000
Grayscale
1070
    25
1002
}
  0
LINE
  5
21685
330
21247
100
AcDbEntity
  8
YODOROGO
100
AcDbLine
 10
11393.10162798446
 20
715.4060611609828
 30
0.0
 11
11436.60162798447
 21
760.4060611609829
 31
0.0
  0
LINE
  5
21686
330
21247
100
AcDbEntity
  8
YODOROGO
100
AcDbLine
 10
11393.10162798446
 20
682.4060611609829
 30
0.0
 11
11393.10162798446
 21
715.4060611609828
 31
0.0
  0
LINE
  5
21687
330
21247
100
AcDbEntity
  8
YODOROGO
100
AcDbLine
 10
11436.60162798447
 20
727.4060611609828
 30
0.0
 11
11393.10162798446
 21
682.4060611609829
 31
0.0
  0
LINE
  5
21688
330
21247
100
AcDbEntity
  8
YODOROGO
100
AcDbLine
 10
11424.60162798446
 20
629.9060611609831
 30
0.0
 11
11424.60162798446
 21
650.9060611609827
 31
0.0
  0
LINE
  5
21689
330
21247
100
AcDbEntity
  8
YODOROGO
100
AcDbLine
 10
11393.10162798446
 20
629.9060611609831
 30
0.0
 11
11424.60162798446
 21
629.9060611609831
 31
0.0
  0
LINE
  5
2168A
330
21247
100
AcDbEntity
  8
YODOROGO
100
AcDbLine
 10
11448.60162798446
 20
650.9060611609827
 30
0.0
 11
11448.60162798446
 21
629.9060611609831
 31
0.0
  0
LINE
  5
2168B
330
21247
100
AcDbEntity
  8
YODOROGO
100
AcDbLine
 10
11393.10162798446
 20
650.9060611609827
 30
0.0
 11
11393.10162798446
 21
673.4060611609827
 31
0.0
  0
LINE
  5
2168C
330
21247
100
AcDbEntity
  8
YODOROGO
100
AcDbLine
 10
11424.60162798446
 20
650.9060611609827
 30
0.0
 11
11393.10162798446
 21
650.9060611609827
 31
0.0
  0
LINE
  5
2168D
330
21247
100
AcDbEntity
  8
YODOROGO
100
AcDbLine
 10
11492.10162798447
 20
760.4060611609829
 30
0.0
 11
11615.10162798446
 21
760.4060611609829
 31
0.0
  0
LINE
  5
2168E
330
21247
100
AcDbEntity
  8
YODOROGO
100
AcDbLine
 10
11597.10162798446
 20
736.4060611609825
 30
0.0
 11
11511.60162798447
 21
736.4060611609825
 31
0.0
  0
LINE
  5
2168F
330
21247
100
AcDbEntity
  8
YODOROGO
100
AcDbLine
 10
11577.60162798447
 20
682.4060611609829
 30
0.0
 11
11587.35162798447
 21
682.4060611609829
 31
0.0
  0
LINE
  5
21690
330
21247
100
AcDbEntity
  8
YODOROGO
100
AcDbLine
 10
11587.35162798447
 20
727.4060611609828
 30
0.0
 11
11577.60162798447
 21
682.4060611609829
 31
0.0
  0
LINE
  5
21691
330
21247
100
AcDbEntity
  8
YODOROGO
100
AcDbLine
 10
11569.35162798446
 20
727.4060611609828
 30
0.0
 11
11587.35162798447
 21
727.4060611609828
 31
0.0
  0
LINE
  5
21692
330
21247
100
AcDbEntity
  8
YODOROGO
100
AcDbLine
 10
11559.60162798447
 20
682.4060611609829
 30
0.0
 11
11569.35162798446
 21
727.4060611609828
 31
0.0
  0
LINE
  5
21693
330
21247
100
AcDbEntity
  8
YODOROGO
100
AcDbLine
 10
11549.10162798447
 20
682.4060611609829
 30
0.0
 11
11559.60162798447
 21
682.4060611609829
 31
0.0
  0
LINE
  5
21694
330
21247
100
AcDbEntity
  8
YODOROGO
100
AcDbLine
 10
11539.35162798447
 20
727.4060611609828
 30
0.0
 11
11549.10162798447
 21
682.4060611609829
 31
0.0
  0
LINE
  5
21695
330
21247
100
AcDbEntity
  8
YODOROGO
100
AcDbLine
 10
11521.35162798447
 20
727.4060611609828
 30
0.0
 11
11539.35162798447
 21
727.4060611609828
 31
0.0
  0
LINE
  5
21696
330
21247
100
AcDbEntity
  8
YODOROGO
100
AcDbLine
 10
11531.10162798447
 20
682.4060611609829
 30
0.0
 11
11521.35162798447
 21
727.4060611609828
 31
0.0
  0
LINE
  5
21697
330
21247
100
AcDbEntity
  8
YODOROGO
100
AcDbLine
 10
11521.35162798447
 20
682.4060611609829
 30
0.0
 11
11531.10162798447
 21
682.4060611609829
 31
0.0
  0
LINE
  5
21698
330
21247
100
AcDbEntity
  8
YODOROGO
100
AcDbLine
 10
11521.35162798447
 20
658.4060611609827
 30
0.0
 11
11521.35162798447
 21
682.4060611609829
 31
0.0
  0
LINE
  5
21699
330
21247
100
AcDbEntity
  8
YODOROGO
100
AcDbLine
 10
11587.35162798447
 20
658.4060611609827
 30
0.0
 11
11521.35162798447
 21
658.4060611609827
 31
0.0
  0
LINE
  5
2169A
330
21247
100
AcDbEntity
  8
YODOROGO
100
AcDbLine
 10
11587.35162798447
 20
682.4060611609829
 30
0.0
 11
11587.35162798447
 21
658.4060611609827
 31
0.0
  0
LINE
  5
2169B
330
21247
100
AcDbEntity
  8
YODOROGO
100
AcDbLine
 10
11481.60162798447
 20
730.4060611609828
 30
0.0
 11
11481.60162798447
 21
697.406061160983
 31
0.0
  0
LINE
  5
2169C
330
21247
100
AcDbEntity
  8
YODOROGO
100
AcDbLine
 10
11546.85162798447
 20
658.4060611609827
 30
0.0
 11
11561.85162798446
 21
658.4060611609827
 31
0.0
  0
LINE
  5
2169D
330
21247
100
AcDbEntity
  8
YODOROGO
100
AcDbLine
 10
11521.35162798447
 20
634.4060611609833
 30
0.0
 11
11536.35162798447
 21
634.4060611609833
 31
0.0
  0
LINE
  5
2169E
330
21247
100
AcDbEntity
  8
YODOROGO
100
AcDbLine
 10
11572.35162798446
 20
634.4060611609833
 30
0.0
 11
11587.35162798447
 21
634.4060611609833
 31
0.0
  0
LINE
  5
2169F
330
21247
100
AcDbEntity
  8
YODOROGO
100
AcDbLine
 10
11481.60162798447
 20
673.4060611609827
 30
0.0
 11
11481.60162798447
 21
650.9060611609827
 31
0.0
  0
LINE
  5
216A0
330
21247
100
AcDbEntity
  8
YODOROGO
100
AcDbLine
 10
11687.10162798447
 20
760.4060611609829
 30
0.0
 11
11687.10162798447
 21
736.4060611609825
 31
0.0
  0
LINE
  5
216A1
330
21247
100
AcDbEntity
  8
YODOROGO
100
AcDbLine
 10
11825.10162798447
 20
598.4060611609827
 30
0.0
 11
11825.10162798446
 21
679.4060611609832
 31
0.0
  0
LINE
  5
216A2
330
21247
100
AcDbEntity
  8
YODOROGO
100
AcDbLine
 10
11798.10162798446
 20
745.4060611609828
 30
0.0
 11
11798.10162798446
 21
613.4060611609827
 31
0.0
  0
LINE
  5
216A3
330
21247
100
AcDbEntity
  8
YODOROGO
100
AcDbLine
 10
11870.10162798447
 20
535.4060611609829
 30
0.0
 11
11870.10162798446
 21
679.4060611609832
 31
0.0
  0
LINE
  5
216A4
330
21247
100
AcDbEntity
  8
YODOROGO
100
AcDbLine
 10
11846.10162798447
 20
679.4060611609832
 30
0.0
 11
11846.10162798447
 21
535.4060611609829
 31
0.0
  0
LINE
  5
216A5
330
21247
100
AcDbEntity
  8
YODOROGO
100
AcDbLine
 10
11714.10162798447
 20
598.4060611609827
 30
0.0
 11
11714.10162798447
 21
640.4060611609828
 31
0.0
  0
ARC
  5
216A6
330
21247
100
AcDbEntity
  8
YODOROGO
100
AcDbCircle
 10
11757.71807441852
 20
602.921381733209
 30
0.0
 40
67.53466821599572
100
AcDbArc
 50
268.6284910216979
 51
356.1663845733032
  0
LINE
  5
216A7
330
21247
100
AcDbEntity
  8
YODOROGO
100
AcDbLine
 10
11756.10162798446
 20
572.9060611609829
 30
0.0
 11
11756.10162798446
 21
535.4060611609829
 31
0.0
  0
ARC
  5
216A8
330
21247
100
AcDbEntity
  8
YODOROGO
100
AcDbCircle
 10
11756.81927839671
 20
614.1896088816206
 30
0.0
 40
41.28978486885457
100
AcDbArc
 50
269.0041020930593
 51
358.9126445549248
  0
LINE
  5
216A9
330
21247
100
AcDbEntity
  8
YODOROGO
100
AcDbLine
 10
11846.10162798447
 20
535.4060611609829
 30
0.0
 11
11870.10162798447
 21
535.4060611609829
 31
0.0
  0
LINE
  5
216AA
330
21247
100
AcDbEntity
  8
YODOROGO
100
AcDbLine
 10
11825.10162798446
 20
679.4060611609832
 30
0.0
 11
11846.10162798447
 21
679.4060611609832
 31
0.0
  0
LINE
  5
216AB
330
21247
100
AcDbEntity
  8
YODOROGO
100
AcDbLine
 10
11858.10162798446
 20
745.4060611609828
 30
0.0
 11
11798.10162798446
 21
745.4060611609828
 31
0.0
  0
LINE
  5
216AC
330
21247
100
AcDbEntity
  8
YODOROGO
100
AcDbLine
 10
11825.10162798446
 20
718.4060611609829
 30
0.0
 11
11873.10162798447
 21
718.4060611609829
 31
0.0
  0
LINE
  5
216AD
330
21247
100
AcDbEntity
  8
YODOROGO
100
AcDbLine
 10
11888.10162798447
 20
703.4060611609828
 30
0.0
 11
11825.10162798446
 21
703.4060611609828
 31
0.0
  0
LINE
  5
216AE
330
21247
100
AcDbEntity
  8
YODOROGO
100
AcDbLine
 10
11714.10162798447
 20
667.4060611609831
 30
0.0
 11
11756.10162798446
 21
667.4060611609831
 31
0.0
  0
LINE
  5
216AF
330
21247
100
AcDbEntity
  8
YODOROGO
100
AcDbLine
 10
11714.10162798447
 20
688.4060611609828
 30
0.0
 11
11714.10162798447
 21
667.4060611609831
 31
0.0
  0
LINE
  5
216B0
330
21247
100
AcDbEntity
  8
YODOROGO
100
AcDbLine
 10
11756.10162798446
 20
688.4060611609828
 30
0.0
 11
11714.10162798447
 21
688.4060611609828
 31
0.0
  0
LINE
  5
216B1
330
21247
100
AcDbEntity
  8
YODOROGO
100
AcDbLine
 10
11756.10162798446
 20
667.4060611609831
 30
0.0
 11
11756.10162798446
 21
688.4060611609828
 31
0.0
  0
LINE
  5
216B2
330
21247
100
AcDbEntity
  8
YODOROGO
100
AcDbLine
 10
11825.10162798446
 20
703.4060611609828
 30
0.0
 11
11825.10162798446
 21
718.4060611609829
 31
0.0
  0
LINE
  5
216B3
330
21247
100
AcDbEntity
  8
YODOROGO
100
AcDbLine
 10
11780.10162798446
 20
640.4060611609828
 30
0.0
 11
11780.10162798446
 21
715.4060611609828
 31
0.0
  0
LINE
  5
216B4
330
21247
100
AcDbEntity
  8
YODOROGO
100
AcDbLine
 10
11714.10162798447
 20
640.4060611609828
 30
0.0
 11
11780.10162798446
 21
640.4060611609828
 31
0.0
  0
LINE
  5
216B5
330
21247
100
AcDbEntity
  8
YODOROGO
100
AcDbLine
 10
11780.10162798446
 20
736.4060611609825
 30
0.0
 11
11780.10162798446
 21
760.4060611609829
 31
0.0
  0
ARC
  5
216B6
330
21247
100
AcDbEntity
  8
YODOROGO
100
AcDbCircle
 10
11858.10162798446
 20
751.4060611609817
 30
0.0
 40
5.999999999997952
100
AcDbArc
 50
270.0
 51
0.0000000000081422
  0
LINE
  5
216B7
330
21247
100
AcDbEntity
  8
YODOROGO
100
AcDbLine
 10
11864.10162798447
 20
760.4060611609829
 30
0.0
 11
11864.10162798447
 21
751.4060611609825
 31
0.0
  0
LINE
  5
216B8
330
21247
100
AcDbEntity
  8
YODOROGO
100
AcDbLine
 10
11888.10162798447
 20
760.4060611609829
 30
0.0
 11
11864.10162798447
 21
760.4060611609829
 31
0.0
  0
LINE
  5
216B9
330
21247
100
AcDbEntity
  8
YODOROGO
100
AcDbLine
 10
11888.10162798447
 20
733.4060611609828
 30
0.0
 11
11888.10162798447
 21
760.4060611609829
 31
0.0
  0
ARC
  5
216BA
330
21247
100
AcDbEntity
  8
YODOROGO
100
AcDbCircle
 10
11873.10162798447
 20
733.4060611609828
 30
0.0
 40
15.0
100
AcDbArc
 50
270.0
 51
0.0
  0
LINE
  5
216BB
330
21247
100
AcDbEntity
  8
YODOROGO
100
AcDbLine
 10
11888.10162798447
 20
679.4060611609832
 30
0.0
 11
11888.10162798447
 21
703.4060611609828
 31
0.0
  0
LINE
  5
216BC
330
21247
100
AcDbEntity
  8
YODOROGO
100
AcDbLine
 10
11870.10162798446
 20
679.4060611609832
 30
0.0
 11
11888.10162798447
 21
679.4060611609832
 31
0.0
  0
LINE
  5
216BD
330
21247
100
AcDbEntity
  8
SUNPOU
100
AcDbLine
 10
5271.828096214245
 20
8003.194632209918
 30
0.0
 11
5271.828096214245
 21
8175.802125207461
 31
0.0
  0
LINE
  5
216BE
330
21247
100
AcDbEntity
  8
SUNPOU
100
AcDbLine
 10
5509.828096214246
 20
7760.802125207462
 30
0.0
 11
5509.828096214246
 21
8175.802125207461
 31
0.0
  0
LINE
  5
216BF
330
21247
100
AcDbEntity
  8
SUNPOU
100
AcDbLine
 10
5286.828096214246
 20
8130.802125207461
 30
0.0
 11
5494.828096214245
 21
8130.802125207461
 31
0.0
  0
LINE
  5
216C0
330
21247
100
AcDbEntity
  8
SUNPOU
100
AcDbLine
 10
2471.828096214243
 20
8003.194632209918
 30
0.0
 11
2471.828096214243
 21
8175.802125207461
 31
0.0
  0
LINE
  5
216C1
330
21247
100
AcDbEntity
  8
SUNPOU
100
AcDbLine
 10
5271.828096214242
 20
8003.194632209918
 30
0.0
 11
5271.828096214242
 21
8175.802125207461
 31
0.0
  0
LINE
  5
216C2
330
21247
100
AcDbEntity
  8
SUNPOU
100
AcDbLine
 10
2486.828096214243
 20
8130.802125207461
 30
0.0
 11
5256.828096214242
 21
8130.802125207461
 31
0.0
  0
LINE
  5
216C3
330
21247
100
AcDbEntity
  8
SUNPOU
100
AcDbLine
 10
2471.828096214243
 20
8003.194632209918
 30
0.0
 11
2471.828096214243
 21
8175.802125207461
 31
0.0
  0
LINE
  5
216C4
330
21247
100
AcDbEntity
  8
SUNPOU
100
AcDbLine
 10
2233.828096214243
 20
7760.802125207462
 30
0.0
 11
2233.828096214243
 21
8175.802125207461
 31
0.0
  0
LINE
  5
216C5
330
21247
100
AcDbEntity
  8
SUNPOU
100
AcDbLine
 10
2456.828096214243
 20
8130.802125207461
 30
0.0
 11
2248.828096214242
 21
8130.802125207461
 31
0.0
  0
ARC
  5
216C6
330
21247
100
AcDbEntity
  8
SUNPOU
100
AcDbCircle
 10
9669.75828597576
 20
4501.391364710045
 30
0.0
 40
5.625
100
AcDbArc
 50
180.0
 51
0.0
  0
ARC
  5
216C7
330
21247
100
AcDbEntity
  8
SUNPOU
100
AcDbCircle
 10
9669.75828597576
 20
4501.391364710045
 30
0.0
 40
5.625
100
AcDbArc
 50
0.0
 51
180.0
  0
ARC
  5
216C8
330
21247
100
AcDbEntity
  8
SUNPOU
100
AcDbCircle
 10
10065.15471383728
 20
3615.582642126956
 30
0.0
 40
5.625
100
AcDbArc
 50
270.0
 51
90.0
  0
ARC
  5
216C9
330
21247
100
AcDbEntity
  8
SUNPOU
100
AcDbCircle
 10
10065.15471383728
 20
3615.582642126956
 30
0.0
 40
5.625
100
AcDbArc
 50
90.0
 51
270.0
  0
ARC
  5
216CA
330
21247
100
AcDbEntity
  8
SUNPOU
100
AcDbCircle
 10
9274.195413504356
 20
4249.840809951585
 30
0.0
 40
5.624999999999927
100
AcDbArc
 50
177.1290390148517
 51
357.1290390148516
  0
ARC
  5
216CB
330
21247
100
AcDbEntity
  8
SUNPOU
100
AcDbCircle
 10
9274.195413504356
 20
4249.840809951585
 30
0.0
 40
5.624999999999927
100
AcDbArc
 50
357.1290390148516
 51
177.1290390148517
  0
ARC
  5
216CC
330
21247
100
AcDbEntity
  8
SUNPOU
100
AcDbCircle
 10
8684.935939761977
 20
4279.391996135083
 30
0.0
 40
5.625000000001696
100
AcDbArc
 50
177.1290390148618
 51
357.1290390148619
  0
ARC
  5
216CD
330
21247
100
AcDbEntity
  8
SUNPOU
100
AcDbCircle
 10
8684.935939761977
 20
4279.391996135083
 30
0.0
 40
5.625000000001696
100
AcDbArc
 50
357.1290390148619
 51
177.1290390148618
  0
ARC
  5
216CE
330
21247
100
AcDbEntity
  8
SUNPOU
100
AcDbCircle
 10
8684.935939761977
 20
4279.391996135083
 30
0.0
 40
5.625000000001696
100
AcDbArc
 50
357.1290390148619
 51
177.1290390148618
  0
ARC
  5
216CF
330
21247
100
AcDbEntity
  8
SUNPOU
100
AcDbCircle
 10
8684.935939761977
 20
4279.391996135083
 30
0.0
 40
5.625000000001696
100
AcDbArc
 50
177.1290390148618
 51
357.1290390148619
  0
ARC
  5
216D0
330
21247
100
AcDbEntity
  8
SUNPOU
100
AcDbCircle
 10
8095.676466019595
 20
4308.943182318582
 30
0.0
 40
5.624999999999927
100
AcDbArc
 50
357.1290390148516
 51
177.1290390148517
  0
ARC
  5
216D1
330
21247
100
AcDbEntity
  8
SUNPOU
100
AcDbCircle
 10
8095.676466019595
 20
4308.943182318582
 30
0.0
 40
5.624999999999927
100
AcDbArc
 50
177.1290390148517
 51
357.1290390148516
  0
ARC
  5
216D2
330
21247
100
AcDbEntity
  8
SUNPOU
100
AcDbCircle
 10
7669.758285975757
 20
4501.391364710045
 30
0.0
 40
5.625
100
AcDbArc
 50
0.0
 51
180.0
  0
ARC
  5
216D3
330
21247
100
AcDbEntity
  8
SUNPOU
100
AcDbCircle
 10
7669.758285975757
 20
4501.391364710045
 30
0.0
 40
5.625
100
AcDbArc
 50
180.0
 51
0.0
  0
ARC
  5
216D4
330
21247
100
AcDbEntity
  8
SUNPOU
100
AcDbCircle
 10
10065.15471383728
 20
1786.805063765605
 30
0.0
 40
5.625
100
AcDbArc
 50
90.0
 51
270.0
  0
ARC
  5
216D5
330
21247
100
AcDbEntity
  8
SUNPOU
100
AcDbCircle
 10
10065.15471383728
 20
1786.805063765605
 30
0.0
 40
5.625
100
AcDbArc
 50
270.0
 51
90.0
  0
ARC
  5
216D6
330
21247
100
AcDbEntity
  8
SUNPOU
100
AcDbCircle
 10
7415.777754625882
 20
3991.39136471004
 30
0.0
 40
5.625
100
AcDbArc
 50
90.0
 51
270.0
  0
ARC
  5
216D7
330
21247
100
AcDbEntity
  8
SUNPOU
100
AcDbCircle
 10
7415.777754625882
 20
3991.39136471004
 30
0.0
 40
5.625
100
AcDbArc
 50
270.0
 51
90.0
  0
ARC
  5
216D8
330
21247
100
AcDbEntity
  8
SUNPOU
100
AcDbCircle
 10
7415.777754625882
 20
3893.514367376559
 30
0.0
 40
5.625
100
AcDbArc
 50
270.0
 51
90.0
  0
ARC
  5
216D9
330
21247
100
AcDbEntity
  8
SUNPOU
100
AcDbCircle
 10
7415.777754625882
 20
3893.514367376559
 30
0.0
 40
5.625
100
AcDbArc
 50
90.0
 51
270.0
  0
ARC
  5
216DA
330
21247
100
AcDbEntity
  8
SUNPOU
100
AcDbCircle
 10
7415.777754625882
 20
3893.514367376559
 30
0.0
 40
5.625
100
AcDbArc
 50
270.0
 51
90.0
  0
ARC
  5
216DB
330
21247
100
AcDbEntity
  8
SUNPOU
100
AcDbCircle
 10
7415.777754625882
 20
3893.514367376559
 30
0.0
 40
5.625
100
AcDbArc
 50
90.0
 51
270.0
  0
ARC
  5
216DC
330
21247
100
AcDbEntity
  8
SUNPOU
100
AcDbCircle
 10
7415.777754625882
 20
1786.805063765603
 30
0.0
 40
5.625
100
AcDbArc
 50
90.0
 51
270.0
  0
ARC
  5
216DD
330
21247
100
AcDbEntity
  8
SUNPOU
100
AcDbCircle
 10
7415.777754625882
 20
1786.805063765603
 30
0.0
 40
5.625
100
AcDbArc
 50
270.0
 51
90.0
  0
ARC
  5
216DE
330
21247
100
AcDbEntity
  8
SUNPOU
100
AcDbCircle
 10
4871.82809621424
 20
4711.740775902097
 30
0.0
 40
5.625
100
AcDbArc
 50
180.0
 51
0.0
  0
ARC
  5
216DF
330
21247
100
AcDbEntity
  8
SUNPOU
100
AcDbCircle
 10
4871.82809621424
 20
4711.740775902097
 30
0.0
 40
5.625
100
AcDbArc
 50
0.0
 51
180.0
  0
ARC
  5
216E0
330
21247
100
AcDbEntity
  8
SUNPOU
100
AcDbCircle
 10
4871.82809621424
 20
4501.740775902097
 30
0.0
 40
5.625
100
AcDbArc
 50
180.0
 51
0.0
  0
ARC
  5
216E1
330
21247
100
AcDbEntity
  8
SUNPOU
100
AcDbCircle
 10
4871.82809621424
 20
4501.740775902097
 30
0.0
 40
5.625
100
AcDbArc
 50
0.0
 51
180.0
  0
ARC
  5
216E2
330
21247
100
AcDbEntity
  8
SUNPOU
100
AcDbCircle
 10
5495.065042394514
 20
3608.805063765604
 30
0.0
 40
5.625
100
AcDbArc
 50
270.0
 51
90.0
  0
ARC
  5
216E3
330
21247
100
AcDbEntity
  8
SUNPOU
100
AcDbCircle
 10
5495.065042394514
 20
3608.805063765604
 30
0.0
 40
5.625
100
AcDbArc
 50
90.0
 51
270.0
  0
ARC
  5
216E4
330
21247
100
AcDbEntity
  8
SUNPOU
100
AcDbCircle
 10
3886.828096214243
 20
4501.740775902097
 30
0.0
 40
5.624999999999544
100
AcDbArc
 50
180.0
 51
0.0
  0
ARC
  5
216E5
330
21247
100
AcDbEntity
  8
SUNPOU
100
AcDbCircle
 10
3886.828096214243
 20
4501.740775902097
 30
0.0
 40
5.624999999999544
100
AcDbArc
 50
0.0
 51
180.0
  0
ARC
  5
216E6
330
21247
100
AcDbEntity
  8
SUNPOU
100
AcDbCircle
 10
3886.828096214243
 20
4501.740775902097
 30
0.0
 40
5.624999999999544
100
AcDbArc
 50
0.0
 51
180.0
  0
ARC
  5
216E7
330
21247
100
AcDbEntity
  8
SUNPOU
100
AcDbCircle
 10
3886.828096214243
 20
4501.740775902097
 30
0.0
 40
5.624999999999544
100
AcDbArc
 50
180.0
 51
0.0
  0
ARC
  5
216E8
330
21247
100
AcDbEntity
  8
SUNPOU
100
AcDbCircle
 10
2871.828096214242
 20
4711.740775902097
 30
0.0
 40
5.625
100
AcDbArc
 50
0.0
 51
180.0
  0
ARC
  5
216E9
330
21247
100
AcDbEntity
  8
SUNPOU
100
AcDbCircle
 10
2871.828096214242
 20
4711.740775902097
 30
0.0
 40
5.625
100
AcDbArc
 50
180.0
 51
0.0
  0
ARC
  5
216EA
330
21247
100
AcDbEntity
  8
SUNPOU
100
AcDbCircle
 10
2871.828096214242
 20
4501.740775902097
 30
0.0
 40
5.625
100
AcDbArc
 50
0.0
 51
180.0
  0
ARC
  5
216EB
330
21247
100
AcDbEntity
  8
SUNPOU
100
AcDbCircle
 10
2871.828096214242
 20
4501.740775902097
 30
0.0
 40
5.625
100
AcDbArc
 50
180.0
 51
0.0
  0
ARC
  5
216EC
330
21247
100
AcDbEntity
  8
SUNPOU
100
AcDbCircle
 10
5495.065042394514
 20
1786.805063765605
 30
0.0
 40
5.625
100
AcDbArc
 50
270.0
 51
90.0
  0
ARC
  5
216ED
330
21247
100
AcDbEntity
  8
SUNPOU
100
AcDbCircle
 10
5495.065042394514
 20
1786.805063765605
 30
0.0
 40
5.625
100
AcDbArc
 50
90.0
 51
270.0
  0
ARC
  5
216EE
330
21247
100
AcDbEntity
  8
SUNPOU
100
AcDbCircle
 10
5495.065042394514
 20
1736.805063765605
 30
0.0
 40
5.625
100
AcDbArc
 50
270.0
 51
90.0
  0
ARC
  5
216EF
330
21247
100
AcDbEntity
  8
SUNPOU
100
AcDbCircle
 10
5495.065042394514
 20
1736.805063765605
 30
0.0
 40
5.625
100
AcDbArc
 50
90.0
 51
270.0
  0
ARC
  5
216F0
330
21247
100
AcDbEntity
  8
SUNPOU
100
AcDbCircle
 10
5495.065042394514
 20
1786.805063765605
 30
0.0
 40
5.625
100
AcDbArc
 50
90.0
 51
270.0
  0
ARC
  5
216F1
330
21247
100
AcDbEntity
  8
SUNPOU
100
AcDbCircle
 10
5495.065042394514
 20
1786.805063765605
 30
0.0
 40
5.625
100
AcDbArc
 50
270.0
 51
90.0
  0
ARC
  5
216F2
330
21247
100
AcDbEntity
  8
SUNPOU
100
AcDbCircle
 10
2572.405649204296
 20
3991.740775902098
 30
0.0
 40
5.625
100
AcDbArc
 50
90.0
 51
270.0
  0
ARC
  5
216F3
330
21247
100
AcDbEntity
  8
SUNPOU
100
AcDbCircle
 10
2572.405649204296
 20
3991.740775902098
 30
0.0
 40
5.625
100
AcDbArc
 50
270.0
 51
90.0
  0
ARC
  5
216F4
330
21247
100
AcDbEntity
  8
SUNPOU
100
AcDbCircle
 10
2572.405649204296
 20
3893.740775902097
 30
0.0
 40
5.625
100
AcDbArc
 50
270.0
 51
90.0
  0
ARC
  5
216F5
330
21247
100
AcDbEntity
  8
SUNPOU
100
AcDbCircle
 10
2572.405649204296
 20
3893.740775902097
 30
0.0
 40
5.625
100
AcDbArc
 50
90.0
 51
270.0
  0
ARC
  5
216F6
330
21247
100
AcDbEntity
  8
SUNPOU
100
AcDbCircle
 10
2572.405649204296
 20
3893.740775902097
 30
0.0
 40
5.625
100
AcDbArc
 50
270.0
 51
90.0
  0
ARC
  5
216F7
330
21247
100
AcDbEntity
  8
SUNPOU
100
AcDbCircle
 10
2572.405649204296
 20
3893.740775902097
 30
0.0
 40
5.625
100
AcDbArc
 50
90.0
 51
270.0
  0
ARC
  5
216F8
330
21247
100
AcDbEntity
  8
SUNPOU
100
AcDbCircle
 10
2362.405649204295
 20
3991.740775902098
 30
0.0
 40
5.625
100
AcDbArc
 50
270.0
 51
90.0
  0
ARC
  5
216F9
330
21247
100
AcDbEntity
  8
SUNPOU
100
AcDbCircle
 10
2362.405649204295
 20
3991.740775902098
 30
0.0
 40
5.625
100
AcDbArc
 50
90.0
 51
270.0
  0
ARC
  5
216FA
330
21247
100
AcDbEntity
  8
SUNPOU
100
AcDbCircle
 10
2572.405649204296
 20
1786.805063765603
 30
0.0
 40
5.625
100
AcDbArc
 50
90.0
 51
270.0
  0
ARC
  5
216FB
330
21247
100
AcDbEntity
  8
SUNPOU
100
AcDbCircle
 10
2572.405649204296
 20
1786.805063765603
 30
0.0
 40
5.625
100
AcDbArc
 50
270.0
 51
90.0
  0
ARC
  5
216FC
330
21247
100
AcDbEntity
  8
SUNPOU
100
AcDbCircle
 10
2362.405649204295
 20
1786.805063765603
 30
0.0
 40
5.625
100
AcDbArc
 50
90.0
 51
270.0
  0
ARC
  5
216FD
330
21247
100
AcDbEntity
  8
SUNPOU
100
AcDbCircle
 10
2362.405649204295
 20
1786.805063765603
 30
0.0
 40
5.625
100
AcDbArc
 50
270.0
 51
90.0
  0
TEXT
  5
216FE
330
21247
100
AcDbEntity
  8
SUNPOU
100
AcDbText
 10
5305.11381049996
 20
8175.802125207461
 30
0.0
 40
90.0
  1
238
 41
0.6666666666666666
  7
00
100
AcDbText
  0
LINE
  5
216FF
330
21247
100
AcDbEntity
  8
SUNPOU
100
AcDbLine
 10
5498.578096214245
 20
8130.802125207461
 30
0.0
 11
5487.328096214245
 21
8130.802125207461
 31
0.0
  0
LINE
  5
21700
330
21247
100
AcDbEntity
  8
SUNPOU
100
AcDbLine
 10
5283.078096214246
 20
8130.802125207461
 30
0.0
 11
5294.328096214245
 21
8130.802125207461
 31
0.0
  0
TEXT
  5
21701
330
21247
100
AcDbEntity
  8
SUNPOU
100
AcDbText
 10
3757.542381928527
 20
8175.802125207461
 30
0.0
 40
90.0
  1
2800
 41
0.6666666666666666
  7
00
100
AcDbText
  0
LINE
  5
21702
330
21247
100
AcDbEntity
  8
SUNPOU
100
AcDbLine
 10
5260.578096214242
 20
8130.802125207461
 30
0.0
 11
5249.328096214242
 21
8130.802125207461
 31
0.0
  0
LINE
  5
21703
330
21247
100
AcDbEntity
  8
SUNPOU
100
AcDbLine
 10
2483.078096214243
 20
8130.802125207461
 30
0.0
 11
2494.328096214243
 21
8130.802125207461
 31
0.0
  0
TEXT
  5
21704
330
21247
100
AcDbEntity
  8
SUNPOU
100
AcDbText
 10
2267.113810499956
 20
8175.802125207461
 30
0.0
 40
90.0
  1
238
 41
0.6666666666666666
  7
00
100
AcDbText
  0
LINE
  5
21705
330
21247
100
AcDbEntity
  8
SUNPOU
100
AcDbLine
 10
2245.078096214243
 20
8130.802125207461
 30
0.0
 11
2256.328096214243
 21
8130.802125207461
 31
0.0
  0
LINE
  5
21706
330
21247
100
AcDbEntity
  8
SUNPOU
100
AcDbLine
 10
2460.578096214243
 20
8130.802125207461
 30
0.0
 11
2449.328096214243
 21
8130.802125207461
 31
0.0
  0
ARC
  5
21707
330
21247
100
AcDbEntity
  8
SUNPOU
100
AcDbCircle
 10
5509.828096214246
 20
8130.802125207461
 30
0.0
 40
5.625
100
AcDbArc
 50
180.0
 51
0.0
  0
ARC
  5
21708
330
21247
100
AcDbEntity
  8
SUNPOU
100
AcDbCircle
 10
5509.828096214246
 20
8130.802125207461
 30
0.0
 40
5.625
100
AcDbArc
 50
0.0
 51
180.0
  0
ARC
  5
21709
330
21247
100
AcDbEntity
  8
SUNPOU
100
AcDbCircle
 10
5271.828096214245
 20
8130.802125207461
 30
0.0
 40
5.625
100
AcDbArc
 50
0.0
 51
180.0
  0
ARC
  5
2170A
330
21247
100
AcDbEntity
  8
SUNPOU
100
AcDbCircle
 10
5271.828096214245
 20
8130.802125207461
 30
0.0
 40
5.625
100
AcDbArc
 50
180.0
 51
0.0
  0
ARC
  5
2170B
330
21247
100
AcDbEntity
  8
SUNPOU
100
AcDbCircle
 10
5271.828096214242
 20
8130.802125207461
 30
0.0
 40
5.625
100
AcDbArc
 50
180.0
 51
0.0
  0
ARC
  5
2170C
330
21247
100
AcDbEntity
  8
SUNPOU
100
AcDbCircle
 10
5271.828096214242
 20
8130.802125207461
 30
0.0
 40
5.625
100
AcDbArc
 50
0.0
 51
180.0
  0
ARC
  5
2170D
330
21247
100
AcDbEntity
  8
SUNPOU
100
AcDbCircle
 10
2471.828096214243
 20
8130.802125207461
 30
0.0
 40
5.625
100
AcDbArc
 50
0.0
 51
180.0
  0
ARC
  5
2170E
330
21247
100
AcDbEntity
  8
SUNPOU
100
AcDbCircle
 10
2471.828096214243
 20
8130.802125207461
 30
0.0
 40
5.625
100
AcDbArc
 50
180.0
 51
0.0
  0
ARC
  5
2170F
330
21247
100
AcDbEntity
  8
SUNPOU
100
AcDbCircle
 10
2233.828096214243
 20
8130.802125207461
 30
0.0
 40
5.625
100
AcDbArc
 50
0.0
 51
180.0
  0
ARC
  5
21710
330
21247
100
AcDbEntity
  8
SUNPOU
100
AcDbCircle
 10
2233.828096214243
 20
8130.802125207461
 30
0.0
 40
5.625
100
AcDbArc
 50
180.0
 51
0.0
  0
ARC
  5
21711
330
21247
100
AcDbEntity
  8
SUNPOU
100
AcDbCircle
 10
2471.828096214243
 20
8130.802125207461
 30
0.0
 40
5.625
100
AcDbArc
 50
180.0
 51
0.0
  0
ARC
  5
21712
330
21247
100
AcDbEntity
  8
SUNPOU
100
AcDbCircle
 10
2471.828096214243
 20
8130.802125207461
 30
0.0
 40
5.625
100
AcDbArc
 50
0.0
 51
180.0
  0
CIRCLE
  5
21713
330
21247
100
AcDbEntity
  8
HIKIDASHI
100
AcDbCircle
 10
8675.154713837292
 20
1346.805063765603
 30
0.0
 40
6.0
  0
CIRCLE
  5
21714
330
21247
100
AcDbEntity
  8
HIKIDASHI
100
AcDbCircle
 10
8675.154713837292
 20
1306.805063765603
 30
0.0
 40
6.0
  0
LINE
  5
21715
330
21247
100
AcDbEntity
  8
HIKIDASHI
100
AcDbLine
 10
8733.754225375903
 20
1338.775319432958
 30
0.0
 11
8680.792869562004
 21
1308.857184625558
 31
0.0
  0
LINE
  5
21716
330
21247
100
AcDbEntity
  8
HIKIDASHI
100
AcDbLine
 10
8680.792869562004
 20
1308.857184625558
 30
0.0
 11
8740.594628242417
 21
1319.98146701724
 31
0.0
  0
SOLID
  5
21717
330
21247
100
AcDbEntity
  8
HIKIDASHI
100
AcDbTrace
 10
8733.754225375903
 20
1338.775319432958
 30
0.0
 11
8740.594628242417
 21
1319.98146701724
 31
0.0
 12
8680.792869562004
 22
1308.857184625558
 32
0.0
 13
8680.792869562004
 23
1308.857184625558
 33
0.0
  0
LINE
  5
21718
330
21247
100
AcDbEntity
  8
HIKIDASHI
100
AcDbLine
 10
8740.594628242417
 20
1319.98146701724
 30
0.0
 11
8733.754225375903
 21
1338.775319432958
 31
0.0
  0
LINE
  5
21719
330
21247
100
AcDbEntity
  8
HIKIDASHI
100
AcDbLine
 10
8506.4969220342
 20
3697.012899537398
 30
0.0
 11
8425.544375158796
 21
3425.340745024625
 31
0.0
1001
ACAD
1000
DSTYLE
1002
{
1070
   147
1040
1.5
1070
    77
1070
     0
1002
}
  0
LINE
  5
2171A
330
21247
100
AcDbEntity
  8
HIKIDASHI
100
AcDbLine
 10
8520.872288446197
 20
3692.729344877903
 30
0.0
 11
8532.198249991173
 21
3783.265098009369
 31
0.0
  0
LINE
  5
2171B
330
21247
100
AcDbEntity
  8
HIKIDASHI
100
AcDbLine
 10
8532.198249991173
 20
3783.265098009369
 30
0.0
 11
8492.12155562221
 21
3701.296454196892
 31
0.0
  0
SOLID
  5
2171C
330
21247
100
AcDbEntity
  8
HIKIDASHI
100
AcDbTrace
 10
8520.872288446197
 20
3692.729344877903
 30
0.0
 11
8492.12155562221
 21
3701.296454196892
 31
0.0
 12
8532.198249991173
 22
3783.265098009369
 32
0.0
 13
8532.198249991173
 23
3783.265098009369
 33
0.0
  0
LINE
  5
2171D
330
21247
100
AcDbEntity
  8
HIKIDASHI
100
AcDbLine
 10
8492.12155562221
 20
3701.296454196892
 30
0.0
 11
8520.872288446197
 21
3692.729344877903
 31
0.0
  0
LINE
  5
2171E
330
21247
100
AcDbEntity
  8
HIKIDASHI
100
AcDbLine
 10
7983.021599806498
 20
3969.262588588069
 30
0.0
 11
7494.503940278708
 21
4291.740775902098
 31
0.0
1001
ACAD
1000
DSTYLE
1002
{
1070
   147
1040
1.5
1070
    77
1070
     0
1002
}
  0
LINE
  5
2171F
330
21247
100
AcDbEntity
  8
HIKIDASHI
100
AcDbLine
 10
7974.757957612903
 20
3956.744113533324
 30
0.0
 11
8058.132450134964
 21
3919.680735426501
 31
0.0
  0
LINE
  5
21720
330
21247
100
AcDbEntity
  8
HIKIDASHI
100
AcDbLine
 10
8058.132450134964
 20
3919.680735426501
 30
0.0
 11
7991.285242000093
 21
3981.781063642812
 31
0.0
  0
SOLID
  5
21721
330
21247
100
AcDbEntity
  8
HIKIDASHI
100
AcDbTrace
 10
7974.757957612903
 20
3956.744113533324
 30
0.0
 11
7991.285242000093
 21
3981.781063642812
 31
0.0
 12
8058.132450134964
 22
3919.680735426501
 32
0.0
 13
8058.132450134964
 23
3919.680735426501
 33
0.0
  0
LINE
  5
21722
330
21247
100
AcDbEntity
  8
HIKIDASHI
100
AcDbLine
 10
7991.285242000093
 20
3981.781063642812
 30
0.0
 11
7974.757957612903
 21
3956.744113533324
 31
0.0
  0
LINE
  5
21723
330
21247
100
AcDbEntity
  8
HIKIDASHI
100
AcDbLine
 10
8777.406930721303
 20
2286.679443287057
 30
0.0
 11
8925.510617964286
 21
2432.637663742353
 31
0.0
1001
ACAD
1000
DSTYLE
1002
{
1070
   147
1040
1.5
1070
    77
1070
     0
1002
}
  0
LINE
  5
21724
330
21247
100
AcDbEntity
  8
HIKIDASHI
100
AcDbLine
 10
8766.877994679038
 20
2297.363146101059
 30
0.0
 11
8713.304713837294
 21
2223.505827033469
 31
0.0
  0
LINE
  5
21725
330
21247
100
AcDbEntity
  8
HIKIDASHI
100
AcDbLine
 10
8713.304713837294
 20
2223.505827033469
 30
0.0
 11
8787.935866763568
 21
2275.995740473055
 31
0.0
  0
SOLID
  5
21726
330
21247
100
AcDbEntity
  8
HIKIDASHI
100
AcDbTrace
 10
8766.877994679038
 20
2297.363146101059
 30
0.0
 11
8787.935866763568
 21
2275.995740473055
 31
0.0
 12
8713.304713837294
 22
2223.505827033469
 32
0.0
 13
8713.304713837294
 23
2223.505827033469
 33
0.0
  0
LINE
  5
21727
330
21247
100
AcDbEntity
  8
HIKIDASHI
100
AcDbLine
 10
8787.935866763568
 20
2275.995740473055
 30
0.0
 11
8766.877994679038
 21
2297.363146101059
 31
0.0
  0
LINE
  5
21728
330
21247
100
AcDbEntity
  8
HIKIDASHI
100
AcDbLine
 10
9468.209399157791
 20
3608.201192776054
 30
0.0
 11
8857.22513081343
 21
3174.053961503393
 31
0.0
1001
ACAD
1000
DSTYLE
1002
{
1070
   147
1040
1.5
1070
    77
1070
     0
1002
}
  0
LINE
  5
21729
330
21247
100
AcDbEntity
  8
HIKIDASHI
100
AcDbLine
 10
8857.22513081343
 20
3174.053961503393
 30
0.0
 11
8972.723141051622
 21
2915.916270012596
 31
0.0
1001
ACAD
1000
DSTYLE
1002
{
1070
   147
1040
1.5
1070
    77
1070
     0
1002
}
  0
LINE
  5
2172A
330
21247
100
AcDbEntity
  8
HIKIDASHI
100
AcDbLine
 10
9476.897862945602
 20
3595.973740179219
 30
0.0
 11
9541.5741147388
 21
3660.331975502935
 31
0.0
  0
LINE
  5
2172B
330
21247
100
AcDbEntity
  8
HIKIDASHI
100
AcDbLine
 10
9541.5741147388
 20
3660.331975502935
 30
0.0
 11
9459.520935369971
 21
3620.428645372889
 31
0.0
  0
SOLID
  5
2172C
330
21247
100
AcDbEntity
  8
HIKIDASHI
100
AcDbTrace
 10
9476.897862945602
 20
3595.973740179219
 30
0.0
 11
9459.520935369971
 21
3620.428645372889
 31
0.0
 12
9541.5741147388
 22
3660.331975502935
 32
0.0
 13
9541.5741147388
 23
3660.331975502935
 33
0.0
  0
LINE
  5
2172D
330
21247
100
AcDbEntity
  8
HIKIDASHI
100
AcDbLine
 10
9459.520935369971
 20
3620.428645372889
 30
0.0
 11
9476.897862945602
 21
3595.973740179219
 31
0.0
  0
ARC
  5
2172E
330
21247
100
AcDbEntity
  8
HIKIDASHI
100
AcDbCircle
 10
8675.154713837292
 20
1346.805063765603
 30
0.0
 40
3.0
100
AcDbArc
 50
180.0
 51
0.0
  0
ARC
  5
2172F
330
21247
100
AcDbEntity
  8
HIKIDASHI
100
AcDbCircle
 10
8675.154713837292
 20
1346.805063765603
 30
0.0
 40
3.0
100
AcDbArc
 50
0.0
 51
180.0
  0
ARC
  5
21730
330
21247
100
AcDbEntity
  8
HIKIDASHI
100
AcDbCircle
 10
8675.154713837292
 20
1306.805063765603
 30
0.0
 40
3.0
100
AcDbArc
 50
180.0
 51
0.0
  0
ARC
  5
21731
330
21247
100
AcDbEntity
  8
HIKIDASHI
100
AcDbCircle
 10
8675.154713837292
 20
1306.805063765603
 30
0.0
 40
3.0
100
AcDbArc
 50
0.0
 51
180.0
  0
CIRCLE
  5
21732
330
21247
100
AcDbEntity
  8
HATCH
100
AcDbCircle
 10
2214.206542960405
 20
5502.014820159621
 30
0.0
 40
5.0
  0
CIRCLE
  5
21733
330
21247
100
AcDbEntity
  8
HATCH
100
AcDbCircle
 10
2364.206542960405
 20
5502.014820159621
 30
0.0
 40
5.0
  0
CIRCLE
  5
21734
330
21247
100
AcDbEntity
  8
HATCH
100
AcDbCircle
 10
2664.206542960405
 20
5502.014820159621
 30
0.0
 40
5.0
  0
CIRCLE
  5
21735
330
21247
100
AcDbEntity
  8
HATCH
100
AcDbCircle
 10
2514.206542960405
 20
5502.014820159621
 30
0.0
 40
5.0
  0
CIRCLE
  5
21736
330
21247
100
AcDbEntity
  8
HATCH
100
AcDbCircle
 10
2964.206542960405
 20
5502.014820159621
 30
0.0
 40
5.0
  0
CIRCLE
  5
21737
330
21247
100
AcDbEntity
  8
HATCH
100
AcDbCircle
 10
2814.206542960405
 20
5502.014820159621
 30
0.0
 40
5.0
  0
CIRCLE
  5
21738
330
21247
100
AcDbEntity
  8
HATCH
100
AcDbCircle
 10
3264.206542960405
 20
5502.014820159621
 30
0.0
 40
5.0
  0
CIRCLE
  5
21739
330
21247
100
AcDbEntity
  8
HATCH
100
AcDbCircle
 10
3114.206542960405
 20
5502.014820159621
 30
0.0
 40
5.0
  0
CIRCLE
  5
2173A
330
21247
100
AcDbEntity
  8
HATCH
100
AcDbCircle
 10
3414.206542960405
 20
5502.014820159621
 30
0.0
 40
5.0
  0
CIRCLE
  5
2173B
330
21247
100
AcDbEntity
  8
HATCH
100
AcDbCircle
 10
3564.206542960405
 20
5502.014820159621
 30
0.0
 40
5.0
  0
CIRCLE
  5
2173C
330
21247
100
AcDbEntity
  8
HATCH
100
AcDbCircle
 10
3714.206542960405
 20
5502.014820159621
 30
0.0
 40
5.0
  0
CIRCLE
  5
2173D
330
21247
100
AcDbEntity
  8
HATCH
100
AcDbCircle
 10
3864.206542960405
 20
5502.014820159621
 30
0.0
 40
5.0
  0
CIRCLE
  5
2173E
330
21247
100
AcDbEntity
  8
HATCH
100
AcDbCircle
 10
4014.206542960405
 20
5502.014820159621
 30
0.0
 40
5.0
  0
CIRCLE
  5
2173F
330
21247
100
AcDbEntity
  8
HATCH
100
AcDbCircle
 10
4164.206542960405
 20
5502.014820159621
 30
0.0
 40
5.0
  0
CIRCLE
  5
21740
330
21247
100
AcDbEntity
  8
HATCH
100
AcDbCircle
 10
4314.206542960405
 20
5502.014820159621
 30
0.0
 40
5.0
  0
CIRCLE
  5
21741
330
21247
100
AcDbEntity
  8
HATCH
100
AcDbCircle
 10
4464.206542960405
 20
5502.014820159621
 30
0.0
 40
5.0
  0
CIRCLE
  5
21742
330
21247
100
AcDbEntity
  8
HATCH
100
AcDbCircle
 10
4614.206542960407
 20
5502.014820159621
 30
0.0
 40
5.0
  0
CIRCLE
  5
21743
330
21247
100
AcDbEntity
  8
HATCH
100
AcDbCircle
 10
4914.206542960405
 20
5502.014820159621
 30
0.0
 40
5.0
  0
CIRCLE
  5
21744
330
21247
100
AcDbEntity
  8
HATCH
100
AcDbCircle
 10
5064.206542960405
 20
5502.014820159621
 30
0.0
 40
5.0
  0
CIRCLE
  5
21745
330
21247
100
AcDbEntity
  8
HATCH
100
AcDbCircle
 10
5214.206542960404
 20
5502.014820159621
 30
0.0
 40
5.0
  0
CIRCLE
  5
21746
330
21247
100
AcDbEntity
  8
HATCH
100
AcDbCircle
 10
5364.206542960405
 20
5502.014820159621
 30
0.0
 40
5.0
  0
CIRCLE
  5
21747
330
21247
100
AcDbEntity
  8
HATCH
100
AcDbCircle
 10
5514.206542960405
 20
5502.014820159621
 30
0.0
 40
5.0
  0
CIRCLE
  5
21748
330
21247
100
AcDbEntity
  8
HATCH
100
AcDbCircle
 10
4764.206542960405
 20
5502.014820159621
 30
0.0
 40
5.0
  0
LINE
  5
21749
330
21247
100
AcDbEntity
  8
HATCH
100
AcDbLine
 10
8294.324222023879
 20
1186.805063765604
 30
0.0
 11
8352.059248942842
 21
1286.805063765604
 31
0.0
  0
LINE
  5
2174A
330
21247
100
AcDbEntity
  8
HATCH
100
AcDbLine
 10
8312.059248942842
 20
1286.805063765604
 30
0.0
 11
8332.059248942842
 21
1252.164047614229
 31
0.0
  0
LINE
  5
2174B
330
21247
100
AcDbEntity
  8
HATCH
100
AcDbLine
 10
8314.324222023879
 20
1221.446079916984
 30
0.0
 11
8334.324222023878
 21
1186.805063765604
 31
0.0
  0
LINE
  5
2174C
330
21247
100
AcDbEntity
  8
HATCH
100
AcDbLine
 10
9750.513697685969
 20
1636.805063765606
 30
0.0
 11
9785.154713837371
 21
1696.805063765642
 31
0.0
  0
LINE
  5
2174D
330
21247
100
AcDbEntity
  8
HATCH
100
AcDbLine
 10
9761.154713837353
 20
1696.805063765642
 30
0.0
 11
9773.154713837364
 21
1676.020454074804
 31
0.0
  0
LINE
  5
2174E
330
21247
100
AcDbEntity
  8
HATCH
100
AcDbLine
 10
9762.513697685978
 20
1657.589673456445
 30
0.0
 11
9774.513697685987
 21
1636.805063765606
 31
0.0
  0
LINE
  5
2174F
330
21247
100
AcDbEntity
  8
HATCH
100
AcDbLine
 10
9660.513697685969
 20
1636.805063765606
 30
0.0
 11
9695.154713837368
 21
1696.805063765642
 31
0.0
  0
LINE
  5
21750
330
21247
100
AcDbEntity
  8
HATCH
100
AcDbLine
 10
9671.154713837353
 20
1696.805063765642
 30
0.0
 11
9683.15471383736
 21
1676.020454074804
 31
0.0
  0
LINE
  5
21751
330
21247
100
AcDbEntity
  8
HATCH
100
AcDbLine
 10
9672.513697685978
 20
1657.589673456445
 30
0.0
 11
9684.513697685986
 21
1636.805063765606
 31
0.0
  0
LINE
  5
21752
330
21247
100
AcDbEntity
  8
HATCH
100
AcDbLine
 10
9840.513697685965
 20
1636.805063765606
 30
0.0
 11
9875.154713837368
 21
1696.805063765642
 31
0.0
  0
LINE
  5
21753
330
21247
100
AcDbEntity
  8
HATCH
100
AcDbLine
 10
9851.154713837352
 20
1696.805063765642
 30
0.0
 11
9863.154713837355
 21
1676.020454074804
 31
0.0
  0
LINE
  5
21754
330
21247
100
AcDbEntity
  8
HATCH
100
AcDbLine
 10
9852.513697685973
 20
1657.589673456445
 30
0.0
 11
9864.51369768598
 21
1636.805063765606
 31
0.0
  0
LINE
  5
21755
330
21247
100
AcDbEntity
  8
HATCH
100
AcDbLine
 10
9570.513697685965
 20
1636.805063765605
 30
0.0
 11
9605.154713837364
 21
1696.805063765641
 31
0.0
  0
LINE
  5
21756
330
21247
100
AcDbEntity
  8
HATCH
100
AcDbLine
 10
9581.154713837348
 20
1696.805063765641
 30
0.0
 11
9593.154713837355
 21
1676.020454074803
 31
0.0
  0
LINE
  5
21757
330
21247
100
AcDbEntity
  8
HATCH
100
AcDbLine
 10
9582.513697685973
 20
1657.589673456445
 30
0.0
 11
9594.513697685981
 21
1636.805063765605
 31
0.0
  0
LINE
  5
21758
330
21247
100
AcDbEntity
  8
HATCH
100
AcDbLine
 10
9390.513697685966
 20
1636.805063765605
 30
0.0
 11
9425.154713837368
 21
1696.805063765641
 31
0.0
  0
LINE
  5
21759
330
21247
100
AcDbEntity
  8
HATCH
100
AcDbLine
 10
9401.154713837351
 20
1696.805063765641
 30
0.0
 11
9413.154713837359
 21
1676.020454074803
 31
0.0
  0
LINE
  5
2175A
330
21247
100
AcDbEntity
  8
HATCH
100
AcDbLine
 10
9402.513697685979
 20
1657.589673456445
 30
0.0
 11
9414.513697685983
 21
1636.805063765605
 31
0.0
  0
LINE
  5
2175B
330
21247
100
AcDbEntity
  8
HATCH
100
AcDbLine
 10
9480.513697685966
 20
1636.805063765606
 30
0.0
 11
9515.154713837365
 21
1696.805063765642
 31
0.0
  0
LINE
  5
2175C
330
21247
100
AcDbEntity
  8
HATCH
100
AcDbLine
 10
9491.154713837351
 20
1696.805063765642
 30
0.0
 11
9503.154713837355
 21
1676.020454074804
 31
0.0
  0
LINE
  5
2175D
330
21247
100
AcDbEntity
  8
HATCH
100
AcDbLine
 10
9492.51369768597
 20
1657.589673456445
 30
0.0
 11
9504.513697685979
 21
1636.805063765606
 31
0.0
  0
LINE
  5
2175E
330
21247
100
AcDbEntity
  8
HATCH
100
AcDbLine
 10
9300.513697685969
 20
1636.805063765605
 30
0.0
 11
9335.154713837367
 21
1696.805063765641
 31
0.0
  0
LINE
  5
2175F
330
21247
100
AcDbEntity
  8
HATCH
100
AcDbLine
 10
9311.154713837352
 20
1696.805063765641
 30
0.0
 11
9323.154713837359
 21
1676.020454074803
 31
0.0
  0
LINE
  5
21760
330
21247
100
AcDbEntity
  8
HATCH
100
AcDbLine
 10
9312.513697685977
 20
1657.589673456445
 30
0.0
 11
9324.513697685983
 21
1636.805063765605
 31
0.0
  0
LINE
  5
21761
330
21247
100
AcDbEntity
  8
HATCH
100
AcDbLine
 10
9120.51369768597
 20
1636.805063765605
 30
0.0
 11
9155.154713837367
 21
1696.805063765641
 31
0.0
  0
LINE
  5
21762
330
21247
100
AcDbEntity
  8
HATCH
100
AcDbLine
 10
9131.154713837352
 20
1696.805063765641
 30
0.0
 11
9143.154713837359
 21
1676.020454074803
 31
0.0
  0
LINE
  5
21763
330
21247
100
AcDbEntity
  8
HATCH
100
AcDbLine
 10
9132.513697685977
 20
1657.589673456445
 30
0.0
 11
9144.513697685983
 21
1636.805063765605
 31
0.0
  0
LINE
  5
21764
330
21247
100
AcDbEntity
  8
HATCH
100
AcDbLine
 10
9210.513697685968
 20
1636.805063765605
 30
0.0
 11
9245.15471383737
 21
1696.805063765641
 31
0.0
  0
LINE
  5
21765
330
21247
100
AcDbEntity
  8
HATCH
100
AcDbLine
 10
9221.154713837352
 20
1696.805063765641
 30
0.0
 11
9233.154713837359
 21
1676.020454074803
 31
0.0
  0
LINE
  5
21766
330
21247
100
AcDbEntity
  8
HATCH
100
AcDbLine
 10
9222.513697685977
 20
1657.589673456445
 30
0.0
 11
9234.513697685983
 21
1636.805063765605
 31
0.0
  0
LINE
  5
21767
330
21247
100
AcDbEntity
  8
HATCH
100
AcDbLine
 10
9030.513697685973
 20
1636.805063765605
 30
0.0
 11
9065.154713837371
 21
1696.805063765641
 31
0.0
  0
LINE
  5
21768
330
21247
100
AcDbEntity
  8
HATCH
100
AcDbLine
 10
9041.154713837356
 20
1696.805063765641
 30
0.0
 11
9053.154713837363
 21
1676.020454074803
 31
0.0
  0
LINE
  5
21769
330
21247
100
AcDbEntity
  8
HATCH
100
AcDbLine
 10
9042.513697685979
 20
1657.589673456445
 30
0.0
 11
9054.513697685987
 21
1636.805063765605
 31
0.0
  0
LINE
  5
2176A
330
21247
100
AcDbEntity
  8
HATCH
100
AcDbLine
 10
8919.324222023877
 20
1186.805063765604
 30
0.0
 11
8977.05924894284
 21
1286.805063765604
 31
0.0
  0
LINE
  5
2176B
330
21247
100
AcDbEntity
  8
HATCH
100
AcDbLine
 10
8937.059248942842
 20
1286.805063765604
 30
0.0
 11
8957.05924894284
 21
1252.164047614229
 31
0.0
  0
LINE
  5
2176C
330
21247
100
AcDbEntity
  8
HATCH
100
AcDbLine
 10
8939.324222023877
 20
1221.446079916983
 30
0.0
 11
8959.324222023878
 21
1186.805063765604
 31
0.0
  0
LINE
  5
2176D
330
21247
100
AcDbEntity
  8
HATCH
100
AcDbLine
 10
8794.324222023877
 20
1186.805063765604
 30
0.0
 11
8852.05924894284
 21
1286.805063765604
 31
0.0
  0
LINE
  5
2176E
330
21247
100
AcDbEntity
  8
HATCH
100
AcDbLine
 10
8812.059248942842
 20
1286.805063765604
 30
0.0
 11
8832.05924894284
 21
1252.164047614229
 31
0.0
  0
LINE
  5
2176F
330
21247
100
AcDbEntity
  8
HATCH
100
AcDbLine
 10
8814.324222023877
 20
1221.446079916983
 30
0.0
 11
8834.324222023878
 21
1186.805063765604
 31
0.0
  0
LINE
  5
21770
330
21247
100
AcDbEntity
  8
HATCH
100
AcDbLine
 10
8265.154713837345
 20
1636.805063765603
 30
0.0
 11
8299.795729988746
 21
1696.80506376564
 31
0.0
  0
LINE
  5
21771
330
21247
100
AcDbEntity
  8
HATCH
100
AcDbLine
 10
8275.795729988731
 20
1696.805063765639
 30
0.0
 11
8287.795729988738
 21
1676.020454074802
 31
0.0
  0
LINE
  5
21772
330
21247
100
AcDbEntity
  8
HATCH
100
AcDbLine
 10
8277.154713837353
 20
1657.589673456443
 30
0.0
 11
8289.15471383736
 21
1636.805063765603
 31
0.0
  0
LINE
  5
21773
330
21247
100
AcDbEntity
  8
HATCH
100
AcDbLine
 10
8175.154713837347
 20
1636.805063765603
 30
0.0
 11
8209.795729988746
 21
1696.80506376564
 31
0.0
  0
LINE
  5
21774
330
21247
100
AcDbEntity
  8
HATCH
100
AcDbLine
 10
8185.795729988731
 20
1696.805063765639
 30
0.0
 11
8197.795729988738
 21
1676.020454074802
 31
0.0
  0
LINE
  5
21775
330
21247
100
AcDbEntity
  8
HATCH
100
AcDbLine
 10
8187.154713837355
 20
1657.589673456443
 30
0.0
 11
8199.154713837359
 21
1636.805063765603
 31
0.0
  0
LINE
  5
21776
330
21247
100
AcDbEntity
  8
HATCH
100
AcDbLine
 10
8544.324222023877
 20
1186.805063765604
 30
0.0
 11
8602.05924894284
 21
1286.805063765604
 31
0.0
  0
LINE
  5
21777
330
21247
100
AcDbEntity
  8
HATCH
100
AcDbLine
 10
8562.059248942842
 20
1286.805063765604
 30
0.0
 11
8582.05924894284
 21
1252.164047614229
 31
0.0
  0
LINE
  5
21778
330
21247
100
AcDbEntity
  8
HATCH
100
AcDbLine
 10
8564.324222023877
 20
1221.446079916983
 30
0.0
 11
8584.324222023878
 21
1186.805063765604
 31
0.0
  0
LINE
  5
21779
330
21247
100
AcDbEntity
  8
HATCH
100
AcDbLine
 10
8419.324222023877
 20
1186.805063765604
 30
0.0
 11
8477.05924894284
 21
1286.805063765604
 31
0.0
  0
LINE
  5
2177A
330
21247
100
AcDbEntity
  8
HATCH
100
AcDbLine
 10
8437.059248942842
 20
1286.805063765604
 30
0.0
 11
8457.05924894284
 21
1252.164047614229
 31
0.0
  0
LINE
  5
2177B
330
21247
100
AcDbEntity
  8
HATCH
100
AcDbLine
 10
8439.324222023877
 20
1221.446079916983
 30
0.0
 11
8459.324222023878
 21
1186.805063765604
 31
0.0
  0
LINE
  5
2177C
330
21247
100
AcDbEntity
  8
HATCH
100
AcDbLine
 10
8085.154713837347
 20
1636.805063765603
 30
0.0
 11
8119.795729988746
 21
1696.80506376564
 31
0.0
  0
LINE
  5
2177D
330
21247
100
AcDbEntity
  8
HATCH
100
AcDbLine
 10
8095.795729988729
 20
1696.805063765639
 30
0.0
 11
8107.79572998874
 21
1676.020454074802
 31
0.0
  0
LINE
  5
2177E
330
21247
100
AcDbEntity
  8
HATCH
100
AcDbLine
 10
8097.154713837355
 20
1657.589673456443
 30
0.0
 11
8109.15471383736
 21
1636.805063765603
 31
0.0
  0
LINE
  5
2177F
330
21247
100
AcDbEntity
  8
HATCH
100
AcDbLine
 10
7905.154713837347
 20
1636.805063765603
 30
0.0
 11
7939.795729988746
 21
1696.80506376564
 31
0.0
  0
LINE
  5
21780
330
21247
100
AcDbEntity
  8
HATCH
100
AcDbLine
 10
7915.79572998873
 20
1696.805063765639
 30
0.0
 11
7927.795729988739
 21
1676.020454074802
 31
0.0
  0
LINE
  5
21781
330
21247
100
AcDbEntity
  8
HATCH
100
AcDbLine
 10
7917.154713837354
 20
1657.589673456443
 30
0.0
 11
7929.154713837362
 21
1636.805063765603
 31
0.0
  0
LINE
  5
21782
330
21247
100
AcDbEntity
  8
HATCH
100
AcDbLine
 10
7995.154713837347
 20
1636.805063765603
 30
0.0
 11
8029.795729988746
 21
1696.80506376564
 31
0.0
  0
LINE
  5
21783
330
21247
100
AcDbEntity
  8
HATCH
100
AcDbLine
 10
8005.795729988731
 20
1696.805063765639
 30
0.0
 11
8017.795729988739
 21
1676.020454074802
 31
0.0
  0
LINE
  5
21784
330
21247
100
AcDbEntity
  8
HATCH
100
AcDbLine
 10
8007.154713837355
 20
1657.589673456443
 30
0.0
 11
8019.154713837362
 21
1636.805063765603
 31
0.0
  0
LINE
  5
21785
330
21247
100
AcDbEntity
  8
HATCH
100
AcDbLine
 10
7815.154713837348
 20
1636.805063765603
 30
0.0
 11
7849.795729988747
 21
1696.80506376564
 31
0.0
  0
LINE
  5
21786
330
21247
100
AcDbEntity
  8
HATCH
100
AcDbLine
 10
7825.795729988731
 20
1696.805063765639
 30
0.0
 11
7837.795729988737
 21
1676.020454074802
 31
0.0
  0
LINE
  5
21787
330
21247
100
AcDbEntity
  8
HATCH
100
AcDbLine
 10
7827.154713837355
 20
1657.589673456443
 30
0.0
 11
7839.154713837363
 21
1636.805063765603
 31
0.0
  0
LINE
  5
21788
330
21247
100
AcDbEntity
  8
HATCH
100
AcDbLine
 10
7725.154713837347
 20
1636.805063765603
 30
0.0
 11
7759.795729988744
 21
1696.80506376564
 31
0.0
  0
LINE
  5
21789
330
21247
100
AcDbEntity
  8
HATCH
100
AcDbLine
 10
7735.79572998873
 20
1696.805063765639
 30
0.0
 11
7747.795729988737
 21
1676.020454074802
 31
0.0
  0
LINE
  5
2178A
330
21247
100
AcDbEntity
  8
HATCH
100
AcDbLine
 10
7737.154713837353
 20
1657.589673456443
 30
0.0
 11
7749.15471383736
 21
1636.805063765603
 31
0.0
  0
LINE
  5
2178B
330
21247
100
AcDbEntity
  8
HATCH
100
AcDbLine
 10
8669.324222023877
 20
1186.805063765604
 30
0.0
 11
8727.05924894284
 21
1286.805063765604
 31
0.0
  0
LINE
  5
2178C
330
21247
100
AcDbEntity
  8
HATCH
100
AcDbLine
 10
8687.059248942842
 20
1286.805063765604
 30
0.0
 11
8707.05924894284
 21
1252.164047614229
 31
0.0
  0
LINE
  5
2178D
330
21247
100
AcDbEntity
  8
HATCH
100
AcDbLine
 10
8689.324222023877
 20
1221.446079916983
 30
0.0
 11
8709.324222023878
 21
1186.805063765604
 31
0.0
  0
LINE
  5
2178E
330
21247
100
AcDbEntity
  8
HATCH
100
AcDbLine
 10
7545.154713837347
 20
1636.805063765603
 30
0.0
 11
7579.795729988744
 21
1696.80506376564
 31
0.0
  0
LINE
  5
2178F
330
21247
100
AcDbEntity
  8
HATCH
100
AcDbLine
 10
7555.79572998873
 20
1696.805063765639
 30
0.0
 11
7567.795729988737
 21
1676.020454074802
 31
0.0
  0
LINE
  5
21790
330
21247
100
AcDbEntity
  8
HATCH
100
AcDbLine
 10
7557.154713837353
 20
1657.589673456443
 30
0.0
 11
7569.15471383736
 21
1636.805063765603
 31
0.0
  0
LINE
  5
21791
330
21247
100
AcDbEntity
  8
HATCH
100
AcDbLine
 10
7455.154713837348
 20
1636.805063765603
 30
0.0
 11
7489.795729988746
 21
1696.80506376564
 31
0.0
  0
LINE
  5
21792
330
21247
100
AcDbEntity
  8
HATCH
100
AcDbLine
 10
7465.79572998873
 20
1696.805063765639
 30
0.0
 11
7477.795729988739
 21
1676.020454074802
 31
0.0
  0
LINE
  5
21793
330
21247
100
AcDbEntity
  8
HATCH
100
AcDbLine
 10
7467.154713837354
 20
1657.589673456443
 30
0.0
 11
7479.15471383736
 21
1636.805063765603
 31
0.0
  0
LINE
  5
21794
330
21247
100
AcDbEntity
  8
HATCH
100
AcDbLine
 10
7275.154713837347
 20
1636.805063765603
 30
0.0
 11
7309.795729988747
 21
1696.80506376564
 31
0.0
  0
LINE
  5
21795
330
21247
100
AcDbEntity
  8
HATCH
100
AcDbLine
 10
7285.795729988731
 20
1696.805063765639
 30
0.0
 11
7297.795729988739
 21
1676.020454074802
 31
0.0
  0
LINE
  5
21796
330
21247
100
AcDbEntity
  8
HATCH
100
AcDbLine
 10
7287.154713837354
 20
1657.589673456443
 30
0.0
 11
7299.154713837362
 21
1636.805063765603
 31
0.0
  0
LINE
  5
21797
330
21247
100
AcDbEntity
  8
HATCH
100
AcDbLine
 10
7365.154713837347
 20
1636.805063765603
 30
0.0
 11
7399.795729988747
 21
1696.80506376564
 31
0.0
  0
LINE
  5
21798
330
21247
100
AcDbEntity
  8
HATCH
100
AcDbLine
 10
7375.79572998873
 20
1696.805063765639
 30
0.0
 11
7387.795729988737
 21
1676.020454074802
 31
0.0
  0
LINE
  5
21799
330
21247
100
AcDbEntity
  8
HATCH
100
AcDbLine
 10
7377.154713837355
 20
1657.589673456443
 30
0.0
 11
7389.154713837362
 21
1636.805063765603
 31
0.0
  0
LINE
  5
2179A
330
21247
100
AcDbEntity
  8
HATCH
100
AcDbLine
 10
7635.154713837348
 20
1636.805063765603
 30
0.0
 11
7669.795729988746
 21
1696.80506376564
 31
0.0
  0
LINE
  5
2179B
330
21247
100
AcDbEntity
  8
HATCH
100
AcDbLine
 10
7645.79572998873
 20
1696.805063765639
 30
0.0
 11
7657.795729988738
 21
1676.020454074802
 31
0.0
  0
LINE
  5
2179C
330
21247
100
AcDbEntity
  8
HATCH
100
AcDbLine
 10
7647.154713837355
 20
1657.589673456443
 30
0.0
 11
7659.154713837359
 21
1636.805063765603
 31
0.0
  0
CIRCLE
  5
2179D
330
21247
100
AcDbEntity
  8
HATCH
100
AcDbCircle
 10
5054.209720824535
 20
1761.805063765603
 30
0.0
 40
5.0
  0
CIRCLE
  5
2179E
330
21247
100
AcDbEntity
  8
HATCH
100
AcDbCircle
 10
4904.209720824535
 20
1761.805063765603
 30
0.0
 40
5.0
  0
CIRCLE
  5
2179F
330
21247
100
AcDbEntity
  8
HATCH
100
AcDbCircle
 10
4754.209720824535
 20
1761.805063765603
 30
0.0
 40
5.0
  0
CIRCLE
  5
217A0
330
21247
100
AcDbEntity
  8
HATCH
100
AcDbCircle
 10
4604.209720824536
 20
1761.805063765603
 30
0.0
 40
5.0
  0
CIRCLE
  5
217A1
330
21247
100
AcDbEntity
  8
HATCH
100
AcDbCircle
 10
4454.209720824535
 20
1761.805063765603
 30
0.0
 40
5.0
  0
CIRCLE
  5
217A2
330
21247
100
AcDbEntity
  8
HATCH
100
AcDbCircle
 10
4304.209720824536
 20
1761.805063765603
 30
0.0
 40
5.0
  0
CIRCLE
  5
217A3
330
21247
100
AcDbEntity
  8
HATCH
100
AcDbCircle
 10
4154.209720824534
 20
1761.805063765603
 30
0.0
 40
5.0
  0
CIRCLE
  5
217A4
330
21247
100
AcDbEntity
  8
HATCH
100
AcDbCircle
 10
4004.209720824536
 20
1761.805063765603
 30
0.0
 40
5.0
  0
CIRCLE
  5
217A5
330
21247
100
AcDbEntity
  8
HATCH
100
AcDbCircle
 10
3854.209720824536
 20
1761.805063765603
 30
0.0
 40
5.0
  0
CIRCLE
  5
217A6
330
21247
100
AcDbEntity
  8
HATCH
100
AcDbCircle
 10
3704.209720824536
 20
1761.805063765603
 30
0.0
 40
5.0
  0
CIRCLE
  5
217A7
330
21247
100
AcDbEntity
  8
HATCH
100
AcDbCircle
 10
3554.209720824536
 20
1761.805063765603
 30
0.0
 40
5.0
  0
CIRCLE
  5
217A8
330
21247
100
AcDbEntity
  8
HATCH
100
AcDbCircle
 10
3404.209720824535
 20
1761.805063765603
 30
0.0
 40
5.0
  0
CIRCLE
  5
217A9
330
21247
100
AcDbEntity
  8
HATCH
100
AcDbCircle
 10
3254.209720824535
 20
1761.805063765603
 30
0.0
 40
5.0
  0
CIRCLE
  5
217AA
330
21247
100
AcDbEntity
  8
HATCH
100
AcDbCircle
 10
3104.209720824536
 20
1761.805063765603
 30
0.0
 40
5.0
  0
CIRCLE
  5
217AB
330
21247
100
AcDbEntity
  8
HATCH
100
AcDbCircle
 10
2954.209720824536
 20
1761.805063765603
 30
0.0
 40
5.0
  0
CIRCLE
  5
217AC
330
21247
100
AcDbEntity
  8
HATCH
100
AcDbCircle
 10
2804.209720824535
 20
1761.805063765603
 30
0.0
 40
5.0
  0
CIRCLE
  5
217AD
330
21247
100
AcDbEntity
  8
HATCH
100
AcDbCircle
 10
2654.209720824535
 20
1761.805063765603
 30
0.0
 40
5.0
  0
CIRCLE
  5
217AE
330
21247
100
AcDbEntity
  8
HATCH
100
AcDbCircle
 10
2504.209720824535
 20
1761.805063765603
 30
0.0
 40
5.0
  0
ARC
  5
217AF
330
21247
100
AcDbEntity
  8
HATCH
100
AcDbCircle
 10
2214.206542960405
 20
5502.014820159621
 30
0.0
 40
2.5
100
AcDbArc
 50
180.0
 51
0.0
  0
ARC
  5
217B0
330
21247
100
AcDbEntity
  8
HATCH
100
AcDbCircle
 10
2214.206542960405
 20
5502.014820159621
 30
0.0
 40
2.5
100
AcDbArc
 50
0.0
 51
180.0
  0
ARC
  5
217B1
330
21247
100
AcDbEntity
  8
HATCH
100
AcDbCircle
 10
2364.206542960405
 20
5502.014820159621
 30
0.0
 40
2.5
100
AcDbArc
 50
180.0
 51
0.0
  0
ARC
  5
217B2
330
21247
100
AcDbEntity
  8
HATCH
100
AcDbCircle
 10
2364.206542960405
 20
5502.014820159621
 30
0.0
 40
2.5
100
AcDbArc
 50
0.0
 51
180.0
  0
ARC
  5
217B3
330
21247
100
AcDbEntity
  8
HATCH
100
AcDbCircle
 10
2664.206542960405
 20
5502.014820159621
 30
0.0
 40
2.5
100
AcDbArc
 50
180.0
 51
0.0
  0
ARC
  5
217B4
330
21247
100
AcDbEntity
  8
HATCH
100
AcDbCircle
 10
2664.206542960405
 20
5502.014820159621
 30
0.0
 40
2.5
100
AcDbArc
 50
0.0
 51
180.0
  0
ARC
  5
217B5
330
21247
100
AcDbEntity
  8
HATCH
100
AcDbCircle
 10
2514.206542960405
 20
5502.014820159621
 30
0.0
 40
2.5
100
AcDbArc
 50
180.0
 51
0.0
  0
ARC
  5
217B6
330
21247
100
AcDbEntity
  8
HATCH
100
AcDbCircle
 10
2514.206542960405
 20
5502.014820159621
 30
0.0
 40
2.5
100
AcDbArc
 50
0.0
 51
180.0
  0
ARC
  5
217B7
330
21247
100
AcDbEntity
  8
HATCH
100
AcDbCircle
 10
2964.206542960405
 20
5502.014820159621
 30
0.0
 40
2.5
100
AcDbArc
 50
180.0
 51
0.0
  0
ARC
  5
217B8
330
21247
100
AcDbEntity
  8
HATCH
100
AcDbCircle
 10
2964.206542960405
 20
5502.014820159621
 30
0.0
 40
2.5
100
AcDbArc
 50
0.0
 51
180.0
  0
ARC
  5
217B9
330
21247
100
AcDbEntity
  8
HATCH
100
AcDbCircle
 10
2814.206542960405
 20
5502.014820159621
 30
0.0
 40
2.5
100
AcDbArc
 50
180.0
 51
0.0
  0
ARC
  5
217BA
330
21247
100
AcDbEntity
  8
HATCH
100
AcDbCircle
 10
2814.206542960405
 20
5502.014820159621
 30
0.0
 40
2.5
100
AcDbArc
 50
0.0
 51
180.0
  0
ARC
  5
217BB
330
21247
100
AcDbEntity
  8
HATCH
100
AcDbCircle
 10
3264.206542960405
 20
5502.014820159621
 30
0.0
 40
2.5
100
AcDbArc
 50
180.0
 51
0.0
  0
ARC
  5
217BC
330
21247
100
AcDbEntity
  8
HATCH
100
AcDbCircle
 10
3264.206542960405
 20
5502.014820159621
 30
0.0
 40
2.5
100
AcDbArc
 50
0.0
 51
180.0
  0
ARC
  5
217BD
330
21247
100
AcDbEntity
  8
HATCH
100
AcDbCircle
 10
3114.206542960405
 20
5502.014820159621
 30
0.0
 40
2.5
100
AcDbArc
 50
180.0
 51
0.0
  0
ARC
  5
217BE
330
21247
100
AcDbEntity
  8
HATCH
100
AcDbCircle
 10
3114.206542960405
 20
5502.014820159621
 30
0.0
 40
2.5
100
AcDbArc
 50
0.0
 51
180.0
  0
ARC
  5
217BF
330
21247
100
AcDbEntity
  8
HATCH
100
AcDbCircle
 10
3414.206542960405
 20
5502.014820159621
 30
0.0
 40
2.5
100
AcDbArc
 50
180.0
 51
0.0
  0
ARC
  5
217C0
330
21247
100
AcDbEntity
  8
HATCH
100
AcDbCircle
 10
3414.206542960405
 20
5502.014820159621
 30
0.0
 40
2.5
100
AcDbArc
 50
0.0
 51
180.0
  0
ARC
  5
217C1
330
21247
100
AcDbEntity
  8
HATCH
100
AcDbCircle
 10
3564.206542960405
 20
5502.014820159621
 30
0.0
 40
2.5
100
AcDbArc
 50
180.0
 51
0.0
  0
ARC
  5
217C2
330
21247
100
AcDbEntity
  8
HATCH
100
AcDbCircle
 10
3564.206542960405
 20
5502.014820159621
 30
0.0
 40
2.5
100
AcDbArc
 50
0.0
 51
180.0
  0
ARC
  5
217C3
330
21247
100
AcDbEntity
  8
HATCH
100
AcDbCircle
 10
3714.206542960405
 20
5502.014820159621
 30
0.0
 40
2.5
100
AcDbArc
 50
180.0
 51
0.0
  0
ARC
  5
217C4
330
21247
100
AcDbEntity
  8
HATCH
100
AcDbCircle
 10
3714.206542960405
 20
5502.014820159621
 30
0.0
 40
2.5
100
AcDbArc
 50
0.0
 51
180.0
  0
ARC
  5
217C5
330
21247
100
AcDbEntity
  8
HATCH
100
AcDbCircle
 10
3864.206542960405
 20
5502.014820159621
 30
0.0
 40
2.5
100
AcDbArc
 50
180.0
 51
0.0
  0
ARC
  5
217C6
330
21247
100
AcDbEntity
  8
HATCH
100
AcDbCircle
 10
3864.206542960405
 20
5502.014820159621
 30
0.0
 40
2.5
100
AcDbArc
 50
0.0
 51
180.0
  0
ARC
  5
217C7
330
21247
100
AcDbEntity
  8
HATCH
100
AcDbCircle
 10
4014.206542960405
 20
5502.014820159621
 30
0.0
 40
2.5
100
AcDbArc
 50
180.0
 51
0.0
  0
ARC
  5
217C8
330
21247
100
AcDbEntity
  8
HATCH
100
AcDbCircle
 10
4014.206542960405
 20
5502.014820159621
 30
0.0
 40
2.5
100
AcDbArc
 50
0.0
 51
180.0
  0
ARC
  5
217C9
330
21247
100
AcDbEntity
  8
HATCH
100
AcDbCircle
 10
4164.206542960405
 20
5502.014820159621
 30
0.0
 40
2.5
100
AcDbArc
 50
180.0
 51
0.0
  0
ARC
  5
217CA
330
21247
100
AcDbEntity
  8
HATCH
100
AcDbCircle
 10
4164.206542960405
 20
5502.014820159621
 30
0.0
 40
2.5
100
AcDbArc
 50
0.0
 51
180.0
  0
ARC
  5
217CB
330
21247
100
AcDbEntity
  8
HATCH
100
AcDbCircle
 10
4314.206542960405
 20
5502.014820159621
 30
0.0
 40
2.5
100
AcDbArc
 50
180.0
 51
0.0
  0
ARC
  5
217CC
330
21247
100
AcDbEntity
  8
HATCH
100
AcDbCircle
 10
4314.206542960405
 20
5502.014820159621
 30
0.0
 40
2.5
100
AcDbArc
 50
0.0
 51
180.0
  0
ARC
  5
217CD
330
21247
100
AcDbEntity
  8
HATCH
100
AcDbCircle
 10
4464.206542960405
 20
5502.014820159621
 30
0.0
 40
2.5
100
AcDbArc
 50
180.0
 51
0.0
  0
ARC
  5
217CE
330
21247
100
AcDbEntity
  8
HATCH
100
AcDbCircle
 10
4464.206542960405
 20
5502.014820159621
 30
0.0
 40
2.5
100
AcDbArc
 50
0.0
 51
180.0
  0
ARC
  5
217CF
330
21247
100
AcDbEntity
  8
HATCH
100
AcDbCircle
 10
4614.206542960407
 20
5502.014820159621
 30
0.0
 40
2.5
100
AcDbArc
 50
180.0
 51
0.0
  0
ARC
  5
217D0
330
21247
100
AcDbEntity
  8
HATCH
100
AcDbCircle
 10
4614.206542960407
 20
5502.014820159621
 30
0.0
 40
2.5
100
AcDbArc
 50
0.0
 51
180.0
  0
ARC
  5
217D1
330
21247
100
AcDbEntity
  8
HATCH
100
AcDbCircle
 10
4914.206542960405
 20
5502.014820159621
 30
0.0
 40
2.5
100
AcDbArc
 50
180.0
 51
0.0
  0
ARC
  5
217D2
330
21247
100
AcDbEntity
  8
HATCH
100
AcDbCircle
 10
4914.206542960405
 20
5502.014820159621
 30
0.0
 40
2.5
100
AcDbArc
 50
0.0
 51
180.0
  0
ARC
  5
217D3
330
21247
100
AcDbEntity
  8
HATCH
100
AcDbCircle
 10
5064.206542960405
 20
5502.014820159621
 30
0.0
 40
2.5
100
AcDbArc
 50
180.0
 51
0.0
  0
ARC
  5
217D4
330
21247
100
AcDbEntity
  8
HATCH
100
AcDbCircle
 10
5064.206542960405
 20
5502.014820159621
 30
0.0
 40
2.5
100
AcDbArc
 50
0.0
 51
180.0
  0
ARC
  5
217D5
330
21247
100
AcDbEntity
  8
HATCH
100
AcDbCircle
 10
5214.206542960404
 20
5502.014820159621
 30
0.0
 40
2.5
100
AcDbArc
 50
180.0
 51
0.0
  0
ARC
  5
217D6
330
21247
100
AcDbEntity
  8
HATCH
100
AcDbCircle
 10
5214.206542960404
 20
5502.014820159621
 30
0.0
 40
2.5
100
AcDbArc
 50
0.0
 51
180.0
  0
ARC
  5
217D7
330
21247
100
AcDbEntity
  8
HATCH
100
AcDbCircle
 10
5364.206542960405
 20
5502.014820159621
 30
0.0
 40
2.5
100
AcDbArc
 50
180.0
 51
0.0
  0
ARC
  5
217D8
330
21247
100
AcDbEntity
  8
HATCH
100
AcDbCircle
 10
5364.206542960405
 20
5502.014820159621
 30
0.0
 40
2.5
100
AcDbArc
 50
0.0
 51
180.0
  0
ARC
  5
217D9
330
21247
100
AcDbEntity
  8
HATCH
100
AcDbCircle
 10
5514.206542960405
 20
5502.014820159621
 30
0.0
 40
2.5
100
AcDbArc
 50
180.0
 51
0.0
  0
ARC
  5
217DA
330
21247
100
AcDbEntity
  8
HATCH
100
AcDbCircle
 10
5514.206542960405
 20
5502.014820159621
 30
0.0
 40
2.5
100
AcDbArc
 50
0.0
 51
180.0
  0
ARC
  5
217DB
330
21247
100
AcDbEntity
  8
HATCH
100
AcDbCircle
 10
4764.206542960405
 20
5502.014820159621
 30
0.0
 40
2.5
100
AcDbArc
 50
180.0
 51
0.0
  0
ARC
  5
217DC
330
21247
100
AcDbEntity
  8
HATCH
100
AcDbCircle
 10
4764.206542960405
 20
5502.014820159621
 30
0.0
 40
2.5
100
AcDbArc
 50
0.0
 51
180.0
  0
LINE
  5
217DD
330
21247
100
AcDbEntity
  8
HANA_JYUSHI
100
AcDbLine
 10
5506.828096214245
 20
7732.010895961368
 30
0.0
 11
5508.828096214245
 21
7732.010895961368
 31
0.0
  0
ARC
  5
217DE
330
21247
100
AcDbEntity
  8
HANA_JYUSHI
100
AcDbCircle
 10
5508.828096214245
 20
7728.010895961368
 30
0.0
 40
3.999999999999089
100
AcDbArc
 50
0.0
 51
90.00000000001302
  0
LINE
  5
217DF
330
21247
100
AcDbEntity
  8
HANA_JYUSHI
100
AcDbLine
 10
5512.828096214246
 20
7728.010895961368
 30
0.0
 11
5512.828096214246
 21
7631.224570365005
 31
0.0
  0
LINE
  5
217E0
330
21247
100
AcDbEntity
  8
HANA_JYUSHI
100
AcDbLine
 10
5512.828096214246
 20
7631.224570365005
 30
0.0
 11
5508.828096214245
 21
7631.224570365009
 31
0.0
  0
ARC
  5
217E1
330
21247
100
AcDbEntity
  8
HANA_JYUSHI
100
AcDbCircle
 10
5508.828096214245
 20
7633.224570365008
 30
0.0
 40
1.99999999999909
100
AcDbArc
 50
179.9999999999739
 51
269.9999999999739
  0
LINE
  5
217E2
330
21247
100
AcDbEntity
  8
HANA_JYUSHI
100
AcDbLine
 10
5506.828096214245
 20
7633.224570365008
 30
0.0
 11
5506.828096214245
 21
7732.010895961368
 31
0.0
  0
LINE
  5
217E3
330
21247
100
AcDbEntity
  8
U1
100
AcDbLine
 10
5506.828096214245
 20
7631.224570365005
 30
0.0
 11
5512.828096214246
 21
7631.224570365005
 31
0.0
  0
LINE
  5
217E4
330
21247
100
AcDbEntity
  8
U1
100
AcDbLine
 10
5512.828096214246
 20
7631.224570365005
 30
0.0
 11
5512.828096214246
 21
7355.43824542692
 31
0.0
  0
LINE
  5
217E5
330
21247
100
AcDbEntity
  8
U1
100
AcDbLine
 10
5512.828096214246
 20
7355.43824542692
 30
0.0
 11
5506.828096214245
 21
7355.43824542692
 31
0.0
  0
LINE
  5
217E6
330
21247
100
AcDbEntity
  8
U1
100
AcDbLine
 10
5506.828096214245
 20
7355.43824542692
 30
0.0
 11
5506.828096214245
 21
7631.224570365005
 31
0.0
  0
LINE
  5
217E7
330
21247
100
AcDbEntity
  8
HANA_JYUSHI
100
AcDbLine
 10
5506.828096214245
 20
7344.904358487092
 30
0.0
 11
5509.828096214246
 21
7344.904358487092
 31
0.0
  0
ARC
  5
217E8
330
21247
100
AcDbEntity
  8
HANA_JYUSHI
100
AcDbCircle
 10
5509.828096214246
 20
7347.904358487092
 30
0.0
 40
2.99999999999909
100
AcDbArc
 50
270.0
 51
0.0000000000173701
  0
LINE
  5
217E9
330
21247
100
AcDbEntity
  8
HANA_JYUSHI
100
AcDbLine
 10
5512.828096214246
 20
7347.904358487092
 30
0.0
 11
5512.828096214246
 21
7355.43824542692
 31
0.0
  0
LINE
  5
217EA
330
21247
100
AcDbEntity
  8
HANA_JYUSHI
100
AcDbLine
 10
5512.828096214246
 20
7355.43824542692
 30
0.0
 11
5506.828096214245
 21
7355.43824542692
 31
0.0
  0
LINE
  5
217EB
330
21247
100
AcDbEntity
  8
HANA_JYUSHI
100
AcDbLine
 10
5506.828096214245
 20
7355.43824542692
 30
0.0
 11
5506.828096214245
 21
7344.904358487092
 31
0.0
  0
LINE
  5
217EC
330
21247
100
AcDbEntity
  8
HANA_JYUSHI
100
AcDbLine
 10
2236.828096214242
 20
7732.010895961368
 30
0.0
 11
2234.828096214243
 21
7732.010895961368
 31
0.0
  0
ARC
  5
217ED
330
21247
100
AcDbEntity
  8
HANA_JYUSHI
100
AcDbCircle
 10
2234.828096214242
 20
7728.010895961368
 30
0.0
 40
3.999999999999089
100
AcDbArc
 50
89.99999999999348
 51
180.0
  0
LINE
  5
217EE
330
21247
100
AcDbEntity
  8
HANA_JYUSHI
100
AcDbLine
 10
2230.828096214243
 20
7728.010895961368
 30
0.0
 11
2230.828096214243
 21
7631.224570365005
 31
0.0
  0
LINE
  5
217EF
330
21247
100
AcDbEntity
  8
HANA_JYUSHI
100
AcDbLine
 10
2230.828096214243
 20
7631.224570365005
 30
0.0
 11
2234.828096214243
 21
7631.224570365009
 31
0.0
  0
ARC
  5
217F0
330
21247
100
AcDbEntity
  8
HANA_JYUSHI
100
AcDbCircle
 10
2234.828096214242
 20
7633.224570365008
 30
0.0
 40
1.99999999999909
100
AcDbArc
 50
270.000000000013
 51
0.0000000000260551
  0
LINE
  5
217F1
330
21247
100
AcDbEntity
  8
HANA_JYUSHI
100
AcDbLine
 10
2236.828096214242
 20
7633.224570365008
 30
0.0
 11
2236.828096214242
 21
7732.010895961368
 31
0.0
  0
LINE
  5
217F2
330
21247
100
AcDbEntity
  8
U1
100
AcDbLine
 10
2236.828096214242
 20
7631.224570365005
 30
0.0
 11
2230.828096214243
 21
7631.224570365005
 31
0.0
  0
LINE
  5
217F3
330
21247
100
AcDbEntity
  8
U1
100
AcDbLine
 10
2230.828096214243
 20
7631.224570365005
 30
0.0
 11
2230.828096214243
 21
7355.43824542692
 31
0.0
  0
LINE
  5
217F4
330
21247
100
AcDbEntity
  8
U1
100
AcDbLine
 10
2230.828096214243
 20
7355.43824542692
 30
0.0
 11
2236.828096214242
 21
7355.43824542692
 31
0.0
  0
LINE
  5
217F5
330
21247
100
AcDbEntity
  8
U1
100
AcDbLine
 10
2236.828096214242
 20
7355.43824542692
 30
0.0
 11
2236.828096214242
 21
7631.224570365005
 31
0.0
  0
LINE
  5
217F6
330
21247
100
AcDbEntity
  8
HANA_JYUSHI
100
AcDbLine
 10
2236.828096214242
 20
7344.904358487092
 30
0.0
 11
2233.828096214242
 21
7344.904358487092
 31
0.0
  0
ARC
  5
217F7
330
21247
100
AcDbEntity
  8
HANA_JYUSHI
100
AcDbCircle
 10
2233.828096214242
 20
7347.904358487092
 30
0.0
 40
2.99999999999909
100
AcDbArc
 50
179.9999999999826
 51
269.9999999999914
  0
LINE
  5
217F8
330
21247
100
AcDbEntity
  8
HANA_JYUSHI
100
AcDbLine
 10
2230.828096214243
 20
7347.904358487092
 30
0.0
 11
2230.828096214243
 21
7355.43824542692
 31
0.0
  0
LINE
  5
217F9
330
21247
100
AcDbEntity
  8
HANA_JYUSHI
100
AcDbLine
 10
2230.828096214243
 20
7355.43824542692
 30
0.0
 11
2236.828096214242
 21
7355.43824542692
 31
0.0
  0
LINE
  5
217FA
330
21247
100
AcDbEntity
  8
HANA_JYUSHI
100
AcDbLine
 10
2236.828096214242
 20
7355.43824542692
 30
0.0
 11
2236.828096214242
 21
7344.904358487092
 31
0.0
  0
LINE
  5
217FB
330
21247
100
AcDbEntity
  8
MOYA_KANGU
100
AcDbLine
 10
9238.868596281561
 20
3826.92507154057
 30
0.0
 11
9242.17432219358
 21
3892.842233010059
 31
0.0
  0
LINE
  5
217FC
330
21247
100
AcDbEntity
  8
MOYA_KANGU
100
AcDbLine
 10
9242.17432219358
 20
3892.842233010059
 30
0.0
 11
9239.877208990856
 21
3892.957432549415
 31
0.0
  0
LINE
  5
217FD
330
21247
100
AcDbEntity
  8
MOYA_KANGU
100
AcDbLine
 10
9239.877208990856
 20
3892.957432549415
 30
0.0
 11
9236.571483078831
 21
3827.040271079929
 31
0.0
  0
ARC
  5
217FE
330
21247
100
AcDbEntity
  8
MOYA_KANGU
100
AcDbCircle
 10
9240.56646256183
 20
3826.83992405496
 30
0.0
 40
3.999999999999709
100
AcDbArc
 50
177.1290390148965
 51
267.1290390149101
  0
LINE
  5
217FF
330
21247
100
AcDbEntity
  8
MOYA_KANGU
100
AcDbLine
 10
9240.366115536861
 20
3822.84494457196
 30
0.0
 11
9326.258174421344
 21
3818.537483535081
 31
0.0
  0
LINE
  5
21800
330
21247
100
AcDbEntity
  8
MOYA_KANGU
100
AcDbLine
 10
9326.258174421344
 20
3818.537483535081
 30
0.0
 11
9326.373373960704
 21
3820.834596737807
 31
0.0
  0
LINE
  5
21801
330
21247
100
AcDbEntity
  8
MOYA_KANGU
100
AcDbLine
 10
9326.373373960704
 20
3820.834596737807
 30
0.0
 11
9240.481315076221
 21
3825.142057774685
 31
0.0
  0
ARC
  5
21802
330
21247
100
AcDbEntity
  8
MOYA_KANGU
100
AcDbCircle
 10
9240.56646256183
 20
3826.839924054959
 30
0.0
 40
1.699999999999211
100
AcDbArc
 50
177.1290390149145
 51
267.1290390149144
  0
LINE
  5
21803
330
21247
100
AcDbEntity
  8
HARI
100
AcDbLine
 10
8726.75035230088
 20
3773.508368327656
 30
0.0
 11
9233.467079321149
 21
3748.096676179147
 31
0.0
  0
LINE
  5
21804
330
21247
100
AcDbEntity
  8
MOYA
100
AcDbLine
 10
9240.446254346819
 20
3824.442936365159
 30
0.0
 11
9265.215127141416
 21
3823.200784810325
 31
0.0
  0
ARC
  5
21805
330
21247
100
AcDbEntity
  8
MOYA
100
AcDbCircle
 10
9265.415474166386
 20
3827.195764293326
 30
0.0
 40
4.000000000000753
100
AcDbArc
 50
267.1290390148582
 51
357.1290390148703
  0
LINE
  5
21806
330
21247
100
AcDbEntity
  8
MOYA
100
AcDbLine
 10
9269.41045364939
 20
3826.995417268353
 30
0.0
 11
9269.881269158076
 21
3836.3836190534
 31
0.0
  0
LINE
  5
21807
330
21247
100
AcDbEntity
  8
MOYA
100
AcDbLine
 10
9269.881269158076
 20
3836.3836190534
 30
0.0
 11
9271.479260951272
 21
3836.303480243412
 31
0.0
  0
LINE
  5
21808
330
21247
100
AcDbEntity
  8
MOYA
100
AcDbLine
 10
9271.479260951272
 20
3836.303480243412
 30
0.0
 11
9271.008445442587
 21
3826.915278458364
 31
0.0
  0
ARC
  5
21809
330
21247
100
AcDbEntity
  8
MOYA
100
AcDbCircle
 10
9265.415474166386
 20
3827.195764293327
 30
0.0
 40
5.600000000002001
100
AcDbArc
 50
267.1290390148511
 51
357.1290390148512
  0
LINE
  5
2180A
330
21247
100
AcDbEntity
  8
MOYA
100
AcDbLine
 10
9265.134988331425
 20
3821.602793017126
 30
0.0
 11
9240.366115536833
 21
3822.844944571958
 31
0.0
  0
ARC
  5
2180B
330
21247
100
AcDbEntity
  8
MOYA
100
AcDbCircle
 10
9240.646601371793
 20
3828.437915848157
 30
0.0
 40
5.600000000001003
100
AcDbArc
 50
177.1290390148594
 51
267.1290390148692
  0
LINE
  5
2180C
330
21247
100
AcDbEntity
  8
MOYA
100
AcDbLine
 10
9235.053630095592
 20
3828.71840168312
 30
0.0
 11
9238.249165143912
 21
3892.438324436954
 31
0.0
  0
ARC
  5
2180D
330
21247
100
AcDbEntity
  8
MOYA
100
AcDbCircle
 10
9243.842136420113
 20
3892.157838601993
 30
0.0
 40
5.600000000001957
100
AcDbArc
 50
87.12903901485162
 51
177.1290390148605
  0
LINE
  5
2180E
330
21247
100
AcDbEntity
  8
MOYA
100
AcDbLine
 10
9244.122622255074
 20
3897.750809878195
 30
0.0
 11
9268.891495049668
 21
3896.508658323362
 31
0.0
  0
ARC
  5
2180F
330
21247
100
AcDbEntity
  8
MOYA
100
AcDbCircle
 10
9268.611009214707
 20
3890.915687047161
 30
0.0
 40
5.600000000002001
100
AcDbArc
 50
357.1290390148512
 51
87.12903901485118
  0
LINE
  5
21810
330
21247
100
AcDbEntity
  8
MOYA
100
AcDbLine
 10
9274.203980490909
 20
3890.635201212199
 30
0.0
 11
9273.733164982221
 21
3881.24699942715
 31
0.0
  0
LINE
  5
21811
330
21247
100
AcDbEntity
  8
MOYA
100
AcDbLine
 10
9273.733164982221
 20
3881.24699942715
 30
0.0
 11
9272.135173189019
 21
3881.327138237143
 31
0.0
  0
LINE
  5
21812
330
21247
100
AcDbEntity
  8
MOYA
100
AcDbLine
 10
9272.135173189019
 20
3881.327138237143
 30
0.0
 11
9272.605988697703
 21
3890.715340022188
 31
0.0
  0
ARC
  5
21813
330
21247
100
AcDbEntity
  8
MOYA
100
AcDbCircle
 10
9268.611009214707
 20
3890.915687047162
 30
0.0
 40
3.999999999999891
100
AcDbArc
 50
357.1290390148443
 51
87.12903901485814
  0
LINE
  5
21814
330
21247
100
AcDbEntity
  8
MOYA
100
AcDbLine
 10
9268.811356239679
 20
3894.910666530162
 30
0.0
 11
9244.042483445083
 21
3896.152818084993
 31
0.0
  0
ARC
  5
21815
330
21247
100
AcDbEntity
  8
MOYA
100
AcDbCircle
 10
9243.842136420107
 20
3892.157838601993
 30
0.0
 40
3.999999999999845
100
AcDbArc
 50
87.12903901485747
 51
177.1290390148575
  0
LINE
  5
21816
330
21247
100
AcDbEntity
  8
MOYA
100
AcDbLine
 10
9239.847156937111
 20
3892.358185626966
 30
0.0
 11
9236.651621888793
 21
3828.638262873129
 31
0.0
  0
ARC
  5
21817
330
21247
100
AcDbEntity
  8
MOYA
100
AcDbCircle
 10
9240.646601371793
 20
3828.437915848159
 30
0.0
 40
4.000000000001572
100
AcDbArc
 50
177.1290390148847
 51
267.1290390148847
  0
LINE
  5
21818
330
21247
100
AcDbEntity
  8
MOYA_KANGU
100
AcDbLine
 10
8649.609122539159
 20
3856.476257723804
 30
0.0
 11
8652.914848451187
 21
3922.39341919329
 31
0.0
  0
LINE
  5
21819
330
21247
100
AcDbEntity
  8
MOYA_KANGU
100
AcDbLine
 10
8652.914848451187
 20
3922.39341919329
 30
0.0
 11
8650.617735248459
 21
3922.50861873265
 31
0.0
  0
LINE
  5
2181A
330
21247
100
AcDbEntity
  8
MOYA_KANGU
100
AcDbLine
 10
8650.617735248459
 20
3922.50861873265
 30
0.0
 11
8647.312009336438
 21
3856.591457263159
 31
0.0
  0
ARC
  5
2181B
330
21247
100
AcDbEntity
  8
MOYA_KANGU
100
AcDbCircle
 10
8651.306988819433
 20
3856.391110238188
 30
0.0
 40
3.999999999996076
100
AcDbArc
 50
177.1290390148938
 51
267.1290390149076
  0
LINE
  5
2181C
330
21247
100
AcDbEntity
  8
MOYA_KANGU
100
AcDbLine
 10
8651.106641794466
 20
3852.396130755193
 30
0.0
 11
8736.998700678947
 21
3848.088669718315
 31
0.0
  0
LINE
  5
2181D
330
21247
100
AcDbEntity
  8
MOYA_KANGU
100
AcDbLine
 10
8736.998700678947
 20
3848.088669718315
 30
0.0
 11
8737.113900218307
 21
3850.385782921037
 31
0.0
  0
LINE
  5
2181E
330
21247
100
AcDbEntity
  8
MOYA_KANGU
100
AcDbLine
 10
8737.113900218307
 20
3850.385782921037
 30
0.0
 11
8651.221841333821
 21
3854.693243957916
 31
0.0
  0
ARC
  5
2181F
330
21247
100
AcDbEntity
  8
MOYA_KANGU
100
AcDbCircle
 10
8651.306988819435
 20
3856.39111023819
 30
0.0
 40
1.70000000000012
100
AcDbArc
 50
177.1290390148838
 51
267.129039014916
  0
LINE
  5
21820
330
21247
100
AcDbEntity
  8
MOYA
100
AcDbLine
 10
8651.186780604424
 20
3853.994122548391
 30
0.0
 11
8675.955653399022
 21
3852.751970993558
 31
0.0
  0
ARC
  5
21821
330
21247
100
AcDbEntity
  8
MOYA
100
AcDbCircle
 10
8676.156000423995
 20
3856.746950476558
 30
0.0
 40
3.999999999999845
100
AcDbArc
 50
267.1290390148574
 51
357.1290390148575
  0
LINE
  5
21822
330
21247
100
AcDbEntity
  8
MOYA
100
AcDbLine
 10
8680.150979906994
 20
3856.546603451585
 30
0.0
 11
8680.621795415678
 21
3865.934805236631
 31
0.0
  0
LINE
  5
21823
330
21247
100
AcDbEntity
  8
MOYA
100
AcDbLine
 10
8680.621795415678
 20
3865.934805236631
 30
0.0
 11
8682.219787208884
 21
3865.854666426642
 31
0.0
  0
LINE
  5
21824
330
21247
100
AcDbEntity
  8
MOYA
100
AcDbLine
 10
8682.219787208884
 20
3865.854666426642
 30
0.0
 11
8681.748971700192
 21
3856.466464641594
 31
0.0
  0
ARC
  5
21825
330
21247
100
AcDbEntity
  8
MOYA
100
AcDbCircle
 10
8676.156000423995
 20
3856.746950476557
 30
0.0
 40
5.599999999998322
100
AcDbArc
 50
267.1290390148498
 51
357.1290390148586
  0
LINE
  5
21826
330
21247
100
AcDbEntity
  8
MOYA
100
AcDbLine
 10
8675.87551458903
 20
3851.153979200359
 30
0.0
 11
8651.106641794434
 21
3852.396130755193
 31
0.0
  0
ARC
  5
21827
330
21247
100
AcDbEntity
  8
MOYA
100
AcDbCircle
 10
8651.387127629394
 20
3857.989102031392
 30
0.0
 40
5.600000000000093
100
AcDbArc
 50
177.1290390148688
 51
267.1290390148687
  0
LINE
  5
21828
330
21247
100
AcDbEntity
  8
MOYA
100
AcDbLine
 10
8645.794156353197
 20
3858.269587866352
 30
0.0
 11
8648.989691401515
 21
3921.989510620189
 31
0.0
  0
ARC
  5
21829
330
21247
100
AcDbEntity
  8
MOYA
100
AcDbCircle
 10
8654.582662677714
 20
3921.709024785225
 30
0.0
 40
5.600000000000231
100
AcDbArc
 50
87.1290390148321
 51
177.1290390148408
  0
LINE
  5
2182A
330
21247
100
AcDbEntity
  8
MOYA
100
AcDbLine
 10
8654.86314851268
 20
3927.301996061425
 30
0.0
 11
8679.632021307272
 21
3926.059844506593
 31
0.0
  0
ARC
  5
2182B
330
21247
100
AcDbEntity
  8
MOYA
100
AcDbCircle
 10
8679.35153547231
 20
3920.466873230394
 30
0.0
 40
5.600000000001003
100
AcDbArc
 50
357.1290390148594
 51
87.1290390148693
  0
LINE
  5
2182C
330
21247
100
AcDbEntity
  8
MOYA
100
AcDbLine
 10
8684.944506748511
 20
3920.186387395432
 30
0.0
 11
8684.473691239826
 21
3910.798185610385
 31
0.0
  0
LINE
  5
2182D
330
21247
100
AcDbEntity
  8
MOYA
100
AcDbLine
 10
8684.473691239826
 20
3910.798185610385
 30
0.0
 11
8682.875699446624
 21
3910.878324420373
 31
0.0
  0
LINE
  5
2182E
330
21247
100
AcDbEntity
  8
MOYA
100
AcDbLine
 10
8682.875699446624
 20
3910.878324420373
 30
0.0
 11
8683.346514955312
 21
3920.266526205422
 31
0.0
  0
ARC
  5
2182F
330
21247
100
AcDbEntity
  8
MOYA
100
AcDbCircle
 10
8679.35153547231
 20
3920.466873230393
 30
0.0
 40
4.000000000001572
100
AcDbArc
 50
357.1290390148847
 51
87.12903901488479
  0
LINE
  5
21830
330
21247
100
AcDbEntity
  8
MOYA
100
AcDbLine
 10
8679.551882497284
 20
3924.461852713394
 30
0.0
 11
8654.783009702686
 21
3925.704004268225
 31
0.0
  0
ARC
  5
21831
330
21247
100
AcDbEntity
  8
MOYA
100
AcDbCircle
 10
8654.582662677714
 20
3921.709024785227
 30
0.0
 40
3.999999999999845
100
AcDbArc
 50
87.12903901485747
 51
177.1290390148575
  0
LINE
  5
21832
330
21247
100
AcDbEntity
  8
MOYA
100
AcDbLine
 10
8650.587683194718
 20
3921.9093718102
 30
0.0
 11
8647.3921481464
 21
3858.189449056363
 31
0.0
  0
ARC
  5
21833
330
21247
100
AcDbEntity
  8
MOYA
100
AcDbCircle
 10
8651.387127629398
 20
3857.98910203139
 30
0.0
 40
3.999999999999845
100
AcDbArc
 50
177.1290390148575
 51
267.1290390148574
  0
LINE
  5
21834
330
21247
100
AcDbEntity
  8
MOYA_KANGU
100
AcDbLine
 10
8060.349648796767
 20
3886.027443907033
 30
0.0
 11
8063.655374708794
 21
3951.944605376521
 31
0.0
  0
LINE
  5
21835
330
21247
100
AcDbEntity
  8
MOYA_KANGU
100
AcDbLine
 10
8063.655374708794
 20
3951.944605376521
 30
0.0
 11
8061.358261506066
 21
3952.059804915881
 31
0.0
  0
LINE
  5
21836
330
21247
100
AcDbEntity
  8
MOYA_KANGU
100
AcDbLine
 10
8061.358261506066
 20
3952.059804915881
 30
0.0
 11
8058.052535594045
 21
3886.142643446396
 31
0.0
  0
ARC
  5
21837
330
21247
100
AcDbEntity
  8
MOYA_KANGU
100
AcDbCircle
 10
8062.047515077045
 20
3885.942296421421
 30
0.0
 40
3.999999999999845
100
AcDbArc
 50
177.1290390148575
 51
267.1290390148574
  0
LINE
  5
21838
330
21247
100
AcDbEntity
  8
MOYA_KANGU
100
AcDbLine
 10
8061.847168052072
 20
3881.947316938424
 30
0.0
 11
8147.739226936556
 21
3877.639855901545
 31
0.0
  0
LINE
  5
21839
330
21247
100
AcDbEntity
  8
MOYA_KANGU
100
AcDbLine
 10
8147.739226936556
 20
3877.639855901545
 30
0.0
 11
8147.854426475912
 21
3879.936969104271
 31
0.0
  0
LINE
  5
2183A
330
21247
100
AcDbEntity
  8
MOYA_KANGU
100
AcDbLine
 10
8147.854426475912
 20
3879.936969104271
 30
0.0
 11
8061.96236759143
 21
3884.244430141149
 31
0.0
  0
ARC
  5
2183B
330
21247
100
AcDbEntity
  8
MOYA_KANGU
100
AcDbCircle
 10
8062.047515077043
 20
3885.942296421421
 30
0.0
 40
1.699999999998258
100
AcDbArc
 50
177.1290390149435
 51
267.1290390149437
  0
LINE
  5
2183C
330
21247
100
AcDbEntity
  8
MOYA
100
AcDbLine
 10
8061.927306862035
 20
3883.545308731621
 30
0.0
 11
8086.69617965663
 21
3882.30315717679
 31
0.0
  0
ARC
  5
2183D
330
21247
100
AcDbEntity
  8
MOYA
100
AcDbCircle
 10
8086.896526681602
 20
3886.298136659788
 30
0.0
 40
3.999999999999845
100
AcDbArc
 50
267.1290390148574
 51
357.1290390148575
  0
LINE
  5
2183E
330
21247
100
AcDbEntity
  8
MOYA
100
AcDbLine
 10
8090.8915061646
 20
3886.097789634817
 30
0.0
 11
8091.362321673285
 21
3895.485991419863
 31
0.0
  0
LINE
  5
2183F
330
21247
100
AcDbEntity
  8
MOYA
100
AcDbLine
 10
8091.362321673285
 20
3895.485991419863
 30
0.0
 11
8092.960313466484
 21
3895.405852609876
 31
0.0
  0
LINE
  5
21840
330
21247
100
AcDbEntity
  8
MOYA
100
AcDbLine
 10
8092.960313466484
 20
3895.405852609876
 30
0.0
 11
8092.489497957798
 21
3886.017650824827
 31
0.0
  0
ARC
  5
21841
330
21247
100
AcDbEntity
  8
MOYA
100
AcDbCircle
 10
8086.896526681597
 20
3886.298136659791
 30
0.0
 40
5.600000000002001
100
AcDbArc
 50
267.1290390148511
 51
357.1290390148512
  0
LINE
  5
21842
330
21247
100
AcDbEntity
  8
MOYA
100
AcDbLine
 10
8086.616040846635
 20
3880.70516538359
 30
0.0
 11
8061.847168052043
 21
3881.947316938422
 31
0.0
  0
ARC
  5
21843
330
21247
100
AcDbEntity
  8
MOYA
100
AcDbCircle
 10
8062.127653887005
 20
3887.540288214621
 30
0.0
 40
5.600000000001047
100
AcDbArc
 50
177.12903901486
 51
267.12903901486
  0
LINE
  5
21844
330
21247
100
AcDbEntity
  8
MOYA
100
AcDbLine
 10
8056.534682610804
 20
3887.820774049584
 30
0.0
 11
8059.730217659122
 21
3951.54069680342
 31
0.0
  0
ARC
  5
21845
330
21247
100
AcDbEntity
  8
MOYA
100
AcDbCircle
 10
8065.323188935321
 20
3951.260210968458
 30
0.0
 40
5.600000000002001
100
AcDbArc
 50
87.12903901485118
 51
177.1290390148511
  0
LINE
  5
21846
330
21247
100
AcDbEntity
  8
MOYA
100
AcDbLine
 10
8065.603674770285
 20
3956.853182244658
 30
0.0
 11
8090.37254756488
 21
3955.611030689825
 31
0.0
  0
ARC
  5
21847
330
21247
100
AcDbEntity
  8
MOYA
100
AcDbCircle
 10
8090.092061729917
 20
3950.018059413626
 30
0.0
 40
5.600000000001047
100
AcDbArc
 50
357.1290390148599
 51
87.12903901485999
  0
LINE
  5
21848
330
21247
100
AcDbEntity
  8
MOYA
100
AcDbLine
 10
8095.685033006118
 20
3949.737573578664
 30
0.0
 11
8095.214217497433
 21
3940.349371793617
 31
0.0
  0
LINE
  5
21849
330
21247
100
AcDbEntity
  8
MOYA
100
AcDbLine
 10
8095.214217497433
 20
3940.349371793617
 30
0.0
 11
8093.616225704227
 21
3940.429510603606
 31
0.0
  0
LINE
  5
2184A
330
21247
100
AcDbEntity
  8
MOYA
100
AcDbLine
 10
8093.616225704227
 20
3940.429510603606
 30
0.0
 11
8094.087041212921
 21
3949.817712388651
 31
0.0
  0
ARC
  5
2184B
330
21247
100
AcDbEntity
  8
MOYA
100
AcDbCircle
 10
8090.092061729917
 20
3950.018059413624
 30
0.0
 40
4.000000000003478
100
AcDbArc
 50
357.1290390148601
 51
87.12903901486008
  0
LINE
  5
2184C
330
21247
100
AcDbEntity
  8
MOYA
100
AcDbLine
 10
8090.292408754889
 20
3954.013038896625
 30
0.0
 11
8065.523535960295
 21
3955.255190451456
 31
0.0
  0
ARC
  5
2184D
330
21247
100
AcDbEntity
  8
MOYA
100
AcDbCircle
 10
8065.323188935321
 20
3951.260210968458
 30
0.0
 40
3.999999999999845
100
AcDbArc
 50
87.12903901485747
 51
177.1290390148575
  0
LINE
  5
2184E
330
21247
100
AcDbEntity
  8
MOYA
100
AcDbLine
 10
8061.328209452323
 20
3951.46055799343
 30
0.0
 11
8058.132674404006
 21
3887.740635239593
 31
0.0
  0
ARC
  5
2184F
330
21247
100
AcDbEntity
  8
MOYA
100
AcDbCircle
 10
8062.127653887005
 20
3887.540288214621
 30
0.0
 40
3.999999999999845
100
AcDbArc
 50
177.1290390148575
 51
267.1290390148574
  0
LINE
  5
21850
330
21247
100
AcDbEntity
  8
HARI
100
AcDbLine
 10
8045.106978014116
 20
3807.692579463342
 30
0.0
 11
8623.879630613654
 21
3778.66730422066
 31
0.0
  0
LINE
  5
21851
330
21247
100
AcDbEntity
  8
HARI
100
AcDbLine
 10
9316.362903593384
 20
3743.939475410996
 30
0.0
 11
9363.450207403879
 21
3741.57806122289
 31
0.0
  0
LINE
  5
21852
330
21247
100
AcDbEntity
  8
HARI
100
AcDbLine
 10
9363.450207403879
 20
3741.57806122289
 30
0.0
 11
9367.206714122087
 21
3816.483926529129
 31
0.0
  0
LINE
  5
21853
330
21247
100
AcDbEntity
  8
HARI
100
AcDbLine
 10
9367.206714122087
 20
3816.483926529129
 30
0.0
 11
8048.863484732322
 21
3882.59844476958
 31
0.0
  0
LINE
  5
21854
330
21247
100
AcDbEntity
  8
HARI
100
AcDbLine
 10
8048.863484732322
 20
3882.59844476958
 30
0.0
 11
8045.106978014116
 21
3807.692579463342
 31
0.0
  0
LINE
  5
21855
330
21247
100
AcDbEntity
  8
HARI
100
AcDbLine
 10
4526.273232150606
 20
3743.939475410999
 30
0.0
 11
4573.360535961101
 21
3741.578061222892
 31
0.0
  0
LINE
  5
21856
330
21247
100
AcDbEntity
  8
HARI
100
AcDbLine
 10
3936.660680858105
 20
3773.508368327656
 30
0.0
 11
4443.377407878372
 21
3748.096676179148
 31
0.0
  0
LINE
  5
21857
330
21247
100
AcDbEntity
  8
HARI
100
AcDbLine
 10
3258.458266725215
 20
3876.306352083854
 30
0.0
 11
3255.017306571337
 21
3807.692579463342
 31
0.0
  0
LINE
  5
21858
330
21247
100
AcDbEntity
  8
HARI
100
AcDbLine
 10
3255.017306571337
 20
3807.692579463342
 30
0.0
 11
3833.789959170873
 21
3778.66730422066
 31
0.0
  0
ARC
  5
21859
330
21247
100
AcDbEntity
  8
HATCH
100
AcDbCircle
 10
5054.209720824535
 20
1761.805063765603
 30
0.0
 40
2.5
100
AcDbArc
 50
180.0
 51
0.0
  0
ARC
  5
2185A
330
21247
100
AcDbEntity
  8
HATCH
100
AcDbCircle
 10
5054.209720824535
 20
1761.805063765603
 30
0.0
 40
2.5
100
AcDbArc
 50
0.0
 51
180.0
  0
ARC
  5
2185B
330
21247
100
AcDbEntity
  8
HATCH
100
AcDbCircle
 10
4904.209720824535
 20
1761.805063765603
 30
0.0
 40
2.5
100
AcDbArc
 50
180.0
 51
0.0
  0
ARC
  5
2185C
330
21247
100
AcDbEntity
  8
HATCH
100
AcDbCircle
 10
4904.209720824535
 20
1761.805063765603
 30
0.0
 40
2.5
100
AcDbArc
 50
0.0
 51
180.0
  0
ARC
  5
2185D
330
21247
100
AcDbEntity
  8
HATCH
100
AcDbCircle
 10
4754.209720824535
 20
1761.805063765603
 30
0.0
 40
2.5
100
AcDbArc
 50
180.0
 51
0.0
  0
ARC
  5
2185E
330
21247
100
AcDbEntity
  8
HATCH
100
AcDbCircle
 10
4754.209720824535
 20
1761.805063765603
 30
0.0
 40
2.5
100
AcDbArc
 50
0.0
 51
180.0
  0
ARC
  5
2185F
330
21247
100
AcDbEntity
  8
HATCH
100
AcDbCircle
 10
4604.209720824536
 20
1761.805063765603
 30
0.0
 40
2.5
100
AcDbArc
 50
180.0
 51
0.0
  0
ARC
  5
21860
330
21247
100
AcDbEntity
  8
HATCH
100
AcDbCircle
 10
4604.209720824536
 20
1761.805063765603
 30
0.0
 40
2.5
100
AcDbArc
 50
0.0
 51
180.0
  0
ARC
  5
21861
330
21247
100
AcDbEntity
  8
HATCH
100
AcDbCircle
 10
4454.209720824535
 20
1761.805063765603
 30
0.0
 40
2.5
100
AcDbArc
 50
180.0
 51
0.0
  0
ARC
  5
21862
330
21247
100
AcDbEntity
  8
HATCH
100
AcDbCircle
 10
4454.209720824535
 20
1761.805063765603
 30
0.0
 40
2.5
100
AcDbArc
 50
0.0
 51
180.0
  0
ARC
  5
21863
330
21247
100
AcDbEntity
  8
HATCH
100
AcDbCircle
 10
4304.209720824536
 20
1761.805063765603
 30
0.0
 40
2.5
100
AcDbArc
 50
180.0
 51
0.0
  0
ARC
  5
21864
330
21247
100
AcDbEntity
  8
HATCH
100
AcDbCircle
 10
4304.209720824536
 20
1761.805063765603
 30
0.0
 40
2.5
100
AcDbArc
 50
0.0
 51
180.0
  0
ARC
  5
21865
330
21247
100
AcDbEntity
  8
HATCH
100
AcDbCircle
 10
4154.209720824534
 20
1761.805063765603
 30
0.0
 40
2.5
100
AcDbArc
 50
180.0
 51
0.0
  0
ARC
  5
21866
330
21247
100
AcDbEntity
  8
HATCH
100
AcDbCircle
 10
4154.209720824534
 20
1761.805063765603
 30
0.0
 40
2.5
100
AcDbArc
 50
0.0
 51
180.0
  0
ARC
  5
21867
330
21247
100
AcDbEntity
  8
HATCH
100
AcDbCircle
 10
4004.209720824536
 20
1761.805063765603
 30
0.0
 40
2.5
100
AcDbArc
 50
180.0
 51
0.0
  0
ARC
  5
21868
330
21247
100
AcDbEntity
  8
HATCH
100
AcDbCircle
 10
4004.209720824536
 20
1761.805063765603
 30
0.0
 40
2.5
100
AcDbArc
 50
0.0
 51
180.0
  0
ARC
  5
21869
330
21247
100
AcDbEntity
  8
HATCH
100
AcDbCircle
 10
3854.209720824536
 20
1761.805063765603
 30
0.0
 40
2.5
100
AcDbArc
 50
180.0
 51
0.0
  0
ARC
  5
2186A
330
21247
100
AcDbEntity
  8
HATCH
100
AcDbCircle
 10
3854.209720824536
 20
1761.805063765603
 30
0.0
 40
2.5
100
AcDbArc
 50
0.0
 51
180.0
  0
ARC
  5
2186B
330
21247
100
AcDbEntity
  8
HATCH
100
AcDbCircle
 10
3704.209720824536
 20
1761.805063765603
 30
0.0
 40
2.5
100
AcDbArc
 50
180.0
 51
0.0
  0
ARC
  5
2186C
330
21247
100
AcDbEntity
  8
HATCH
100
AcDbCircle
 10
3704.209720824536
 20
1761.805063765603
 30
0.0
 40
2.5
100
AcDbArc
 50
0.0
 51
180.0
  0
ARC
  5
2186D
330
21247
100
AcDbEntity
  8
HATCH
100
AcDbCircle
 10
3554.209720824536
 20
1761.805063765603
 30
0.0
 40
2.5
100
AcDbArc
 50
180.0
 51
0.0
  0
ARC
  5
2186E
330
21247
100
AcDbEntity
  8
HATCH
100
AcDbCircle
 10
3554.209720824536
 20
1761.805063765603
 30
0.0
 40
2.5
100
AcDbArc
 50
0.0
 51
180.0
  0
ARC
  5
2186F
330
21247
100
AcDbEntity
  8
HATCH
100
AcDbCircle
 10
3404.209720824535
 20
1761.805063765603
 30
0.0
 40
2.5
100
AcDbArc
 50
180.0
 51
0.0
  0
ARC
  5
21870
330
21247
100
AcDbEntity
  8
HATCH
100
AcDbCircle
 10
3404.209720824535
 20
1761.805063765603
 30
0.0
 40
2.5
100
AcDbArc
 50
0.0
 51
180.0
  0
ARC
  5
21871
330
21247
100
AcDbEntity
  8
HATCH
100
AcDbCircle
 10
3254.209720824535
 20
1761.805063765603
 30
0.0
 40
2.5
100
AcDbArc
 50
180.0
 51
0.0
  0
ARC
  5
21872
330
21247
100
AcDbEntity
  8
HATCH
100
AcDbCircle
 10
3254.209720824535
 20
1761.805063765603
 30
0.0
 40
2.5
100
AcDbArc
 50
0.0
 51
180.0
  0
ARC
  5
21873
330
21247
100
AcDbEntity
  8
HATCH
100
AcDbCircle
 10
3104.209720824536
 20
1761.805063765603
 30
0.0
 40
2.5
100
AcDbArc
 50
180.0
 51
0.0
  0
ARC
  5
21874
330
21247
100
AcDbEntity
  8
HATCH
100
AcDbCircle
 10
3104.209720824536
 20
1761.805063765603
 30
0.0
 40
2.5
100
AcDbArc
 50
0.0
 51
180.0
  0
ARC
  5
21875
330
21247
100
AcDbEntity
  8
HATCH
100
AcDbCircle
 10
2954.209720824536
 20
1761.805063765603
 30
0.0
 40
2.5
100
AcDbArc
 50
180.0
 51
0.0
  0
ARC
  5
21876
330
21247
100
AcDbEntity
  8
HATCH
100
AcDbCircle
 10
2954.209720824536
 20
1761.805063765603
 30
0.0
 40
2.5
100
AcDbArc
 50
0.0
 51
180.0
  0
ARC
  5
21877
330
21247
100
AcDbEntity
  8
HATCH
100
AcDbCircle
 10
2804.209720824535
 20
1761.805063765603
 30
0.0
 40
2.5
100
AcDbArc
 50
180.0
 51
0.0
  0
ARC
  5
21878
330
21247
100
AcDbEntity
  8
HATCH
100
AcDbCircle
 10
2804.209720824535
 20
1761.805063765603
 30
0.0
 40
2.5
100
AcDbArc
 50
0.0
 51
180.0
  0
ARC
  5
21879
330
21247
100
AcDbEntity
  8
HATCH
100
AcDbCircle
 10
2654.209720824535
 20
1761.805063765603
 30
0.0
 40
2.5
100
AcDbArc
 50
180.0
 51
0.0
  0
ARC
  5
2187A
330
21247
100
AcDbEntity
  8
HATCH
100
AcDbCircle
 10
2654.209720824535
 20
1761.805063765603
 30
0.0
 40
2.5
100
AcDbArc
 50
0.0
 51
180.0
  0
ARC
  5
2187B
330
21247
100
AcDbEntity
  8
HATCH
100
AcDbCircle
 10
2504.209720824535
 20
1761.805063765603
 30
0.0
 40
2.5
100
AcDbArc
 50
180.0
 51
0.0
  0
ARC
  5
2187C
330
21247
100
AcDbEntity
  8
HATCH
100
AcDbCircle
 10
2504.209720824535
 20
1761.805063765603
 30
0.0
 40
2.5
100
AcDbArc
 50
0.0
 51
180.0
  0
ENDSEC
  0
SECTION
  2
OBJECTS
  0
DICTIONARY
  5
21235
330
0
100
AcDbDictionary
281
     1
  3
ACAD_GROUP
350
21236
  3
ACAD_LAYOUT
350
21242
  3
ACAD_MLINESTYLE
350
2123F
  3
ACAD_PLOTSETTINGS
350
21241
  3
ACAD_PLOTSTYLENAME
350
21237
  3
AcDbVariableDictionary
350
2187D
  0
DICTIONARY
  5
21236
102
{ACAD_REACTORS
330
21235
102
}
330
21235
100
AcDbDictionary
281
     1
  0
DICTIONARY
  5
21242
102
{ACAD_REACTORS
330
21235
102
}
330
21235
100
AcDbDictionary
281
     1
  3
Model
350
2124A
  3
ﾚｲｱｳﾄ1
350
21246
  0
DICTIONARY
  5
2123F
102
{ACAD_REACTORS
330
21235
102
}
330
21235
100
AcDbDictionary
281
     1
  3
Standard
350
21240
  0
DICTIONARY
  5
21241
102
{ACAD_REACTORS
330
21235
102
}
330
21235
100
AcDbDictionary
281
     1
  0
ACDBDICTIONARYWDFLT
  5
21237
102
{ACAD_REACTORS
330
21235
102
}
330
21235
100
AcDbDictionary
281
     1
  3
Normal
350
21238
100
AcDbDictionaryWithDefault
340
21238
  0
DICTIONARY
  5
2187D
102
{ACAD_REACTORS
330
21235
102
}
330
21235
100
AcDbDictionary
281
     1
  3
DIMASSOC
350
2187E
  0
LAYOUT
  5
2124A
102
{ACAD_REACTORS
330
21242
102
}
330
21242
100
AcDbPlotSettings
  1

  2
Muratec V-1200 Is@Web Printer
  4

  6

 40
0.0
 41
0.0
 42
0.0
 43
0.0
 44
0.0
 45
0.0
 46
0.0
 47
0.0
 48
0.0
 49
0.0
140
0.0
141
0.0
142
1.0
143
1.0
 70
  1712
 72
     0
 73
     0
 74
     0
  7

 75
     0
147
1.0
148
0.0
149
0.0
100
AcDbLayout
  1
Model
 70
     1
 71
     0
 10
0.0
 20
0.0
 11
12.0
 21
9.0
 12
0.0
 22
0.0
 32
0.0
 14
0.0
 24
0.0
 34
0.0
 15
0.0
 25
0.0
 35
0.0
146
0.0
 13
0.0
 23
0.0
 33
0.0
 16
1.0
 26
0.0
 36
0.0
 17
0.0
 27
1.0
 37
0.0
 76
     0
330
21247
  0
LAYOUT
  5
21246
102
{ACAD_REACTORS
330
21242
102
}
330
21242
100
AcDbPlotSettings
  1

  2
Muratec V-1200 Is@Web Printer
  4

  6

 40
0.0
 41
0.0
 42
0.0
 43
0.0
 44
0.0
 45
0.0
 46
0.0
 47
0.0
 48
0.0
 49
0.0
140
0.0
141
0.0
142
1.0
143
1.0
 70
   688
 72
     0
 73
     0
 74
     5
  7

 75
    16
147
1.0
148
0.0
149
0.0
100
AcDbLayout
  1
ﾚｲｱｳﾄ1
 70
     0
 71
     1
 10
0.0
 20
0.0
 11
12.0
 21
9.0
 12
0.0
 22
0.0
 32
0.0
 14
1.000000000000000E+20
 24
1.000000000000000E+20
 34
1.000000000000000E+20
 15
-1.000000000000000E+20
 25
-1.000000000000000E+20
 35
-1.000000000000000E+20
146
0.0
 13
0.0
 23
0.0
 33
0.0
 16
1.0
 26
0.0
 36
0.0
 17
0.0
 27
1.0
 37
0.0
 76
     0
330
21243
  0
MLINESTYLE
  5
21240
102
{ACAD_REACTORS
330
2123F
102
}
330
2123F
100
AcDbMlineStyle
  2
STANDARD
 70
     0
  3

 62
   256
 51
90.0
 52
90.0
 71
     2
 49
0.5
 62
   256
  6
BYLAYER
 49
-0.5
 62
   256
  6
BYLAYER
  0
ACDBPLACEHOLDER
  5
21238
102
{ACAD_REACTORS
330
21237
102
}
330
21237
  0
DICTIONARYVAR
  5
2187E
102
{ACAD_REACTORS
330
2187D
102
}
330
2187D
100
DictionaryVariables
280
     0
  1
1
  0
ENDSEC
  0
EOF
