  0
SECTION
  2
HEADER
  9
$ACADVER
  1
AC1015
  9
$ACADMAINTVER
 70
    13
  9
$DWGCODEPAGE
  3
ANSI_932
  9
$INSBASE
 10
267.0
 20
194.8999999999998
 30
0.0
  9
$EXTMIN
 10
325.4974662390304
 20
122.7681178119601
 30
-0.0000000000000006
  9
$EXTMAX
 10
12286.99954069103
 20
8431.707478684501
 30
0.0000000000000146
  9
$LIMMIN
 10
0.0
 20
0.0
  9
$LIMMAX
 10
12600.0
 20
8910.0
  9
$ORTHOMODE
 70
     0
  9
$REGENMODE
 70
     1
  9
$FILLMODE
 70
     1
  9
$QTEXTMODE
 70
     0
  9
$MIRRTEXT
 70
     0
  9
$LTSCALE
 40
30.0
  9
$ATTMODE
 70
     1
  9
$TEXTSIZE
 40
0.2
  9
$TRACEWID
 40
0.05
  9
$TEXTSTYLE
  7
00
  9
$CLAYER
  8
SUNPOU
  9
$CELTYPE
  6
ByLayer
  9
$CECOLOR
 62
   256
  9
$CELTSCALE
 40
1.0
  9
$DISPSILH
 70
     0
  9
$DIMSCALE
 40
30.0
  9
$DIMASZ
 40
0.5
  9
$DIMEXO
 40
1.0
  9
$DIMDLI
 40
7.0
  9
$DIMRND
 40
0.0
  9
$DIMDLE
 40
3.0
  9
$DIMEXE
 40
1.5
  9
$DIMTP
 40
0.0
  9
$DIMTM
 40
0.0
  9
$DIMTXT
 40
3.0
  9
$DIMCEN
 40
0.0
  9
$DIMTSZ
 40
0.0
  9
$DIMTOL
 70
     0
  9
$DIMLIM
 70
     0
  9
$DIMTIH
 70
     0
  9
$DIMTOH
 70
     0
  9
$DIMSE1
 70
     0
  9
$DIMSE2
 70
     0
  9
$DIMTAD
 70
     1
  9
$DIMZIN
 70
     8
  9
$DIMBLK
  1
DOT
  9
$DIMASO
 70
     1
  9
$DIMSHO
 70
     0
  9
$DIMPOST
  1

  9
$DIMAPOST
  1

  9
$DIMALT
 70
     0
  9
$DIMALTD
 70
     2
  9
$DIMALTF
 40
25.4
  9
$DIMLFAC
 40
1.0
  9
$DIMTOFL
 70
     1
  9
$DIMTVP
 40
0.0
  9
$DIMTIX
 70
     0
  9
$DIMSOXD
 70
     0
  9
$DIMSAH
 70
     1
  9
$DIMBLK1
  1
DOT
  9
$DIMBLK2
  1
DOT
  9
$DIMSTYLE
  2
SUNPOU
  9
$DIMCLRD
 70
   256
  9
$DIMCLRE
 70
   256
  9
$DIMCLRT
 70
   256
  9
$DIMTFAC
 40
1.0
  9
$DIMGAP
 40
1.5
  9
$DIMJUST
 70
     0
  9
$DIMSD1
 70
     0
  9
$DIMSD2
 70
     0
  9
$DIMTOLJ
 70
     1
  9
$DIMTZIN
 70
     0
  9
$DIMALTZ
 70
     0
  9
$DIMALTTZ
 70
     0
  9
$DIMUPT
 70
     0
  9
$DIMDEC
 70
     4
  9
$DIMTDEC
 70
     4
  9
$DIMALTU
 70
     2
  9
$DIMALTTD
 70
     2
  9
$DIMTXSTY
  7
STANDARD
  9
$DIMAUNIT
 70
     0
  9
$DIMADEC
 70
     0
  9
$DIMALTRND
 40
0.0
  9
$DIMAZIN
 70
     0
  9
$DIMDSEP
 70
    46
  9
$DIMATFIT
 70
     3
  9
$DIMFRAC
 70
     0
  9
$DIMLDRBLK
  1
DOT
  9
$DIMLUNIT
 70
     2
  9
$DIMLWD
 70
    -2
  9
$DIMLWE
 70
    -2
  9
$DIMTMOVE
 70
     0
  9
$LUNITS
 70
     2
  9
$LUPREC
 70
     2
  9
$SKETCHINC
 40
0.1
  9
$FILLETRAD
 40
5.0
  9
$AUNITS
 70
     0
  9
$AUPREC
 70
     0
  9
$MENU
  1
A:\TIGER\MENU\TIGER
  9
$ELEVATION
 40
0.0
  9
$PELEVATION
 40
0.0
  9
$THICKNESS
 40
0.0
  9
$LIMCHECK
 70
     0
  9
$CHAMFERA
 40
0.0
  9
$CHAMFERB
 40
0.0
  9
$CHAMFERC
 40
0.0
  9
$CHAMFERD
 40
0.0
  9
$SKPOLY
 70
     0
  9
$TDCREATE
 40
2450266.571064815
  9
$TDUCREATE
 40
2450266.196064815
  9
$TDUPDATE
 40
2456330.315966435
  9
$TDUUPDATE
 40
2456329.940966435
  9
$TDINDWG
 40
0.1530407523
  9
$TDUSRTIMER
 40
0.1530407523
  9
$USRTIMER
 70
     1
  9
$ANGBASE
 50
0.0
  9
$ANGDIR
 70
     0
  9
$PDMODE
 70
     0
  9
$PDSIZE
 40
0.0
  9
$PLINEWID
 40
0.0
  9
$SPLFRAME
 70
     0
  9
$SPLINETYPE
 70
     6
  9
$SPLINESEGS
 70
     8
  9
$HANDSEED
  5
1F1AA
  9
$SURFTAB1
 70
     6
  9
$SURFTAB2
 70
     6
  9
$SURFTYPE
 70
     6
  9
$SURFU
 70
     6
  9
$SURFV
 70
     6
  9
$UCSBASE
  2

  9
$UCSNAME
  2

  9
$UCSORG
 10
0.0
 20
0.0
 30
0.0
  9
$UCSXDIR
 10
1.0
 20
0.0
 30
0.0
  9
$UCSYDIR
 10
0.0
 20
1.0
 30
0.0
  9
$UCSORTHOREF
  2

  9
$UCSORTHOVIEW
 70
     0
  9
$UCSORGTOP
 10
0.0
 20
0.0
 30
0.0
  9
$UCSORGBOTTOM
 10
0.0
 20
0.0
 30
0.0
  9
$UCSORGLEFT
 10
0.0
 20
0.0
 30
0.0
  9
$UCSORGRIGHT
 10
0.0
 20
0.0
 30
0.0
  9
$UCSORGFRONT
 10
0.0
 20
0.0
 30
0.0
  9
$UCSORGBACK
 10
0.0
 20
0.0
 30
0.0
  9
$PUCSBASE
  2

  9
$PUCSNAME
  2

  9
$PUCSORG
 10
0.0
 20
0.0
 30
0.0
  9
$PUCSXDIR
 10
1.0
 20
0.0
 30
0.0
  9
$PUCSYDIR
 10
0.0
 20
1.0
 30
0.0
  9
$PUCSORTHOREF
  2

  9
$PUCSORTHOVIEW
 70
     0
  9
$PUCSORGTOP
 10
0.0
 20
0.0
 30
0.0
  9
$PUCSORGBOTTOM
 10
0.0
 20
0.0
 30
0.0
  9
$PUCSORGLEFT
 10
0.0
 20
0.0
 30
0.0
  9
$PUCSORGRIGHT
 10
0.0
 20
0.0
 30
0.0
  9
$PUCSORGFRONT
 10
0.0
 20
0.0
 30
0.0
  9
$PUCSORGBACK
 10
0.0
 20
0.0
 30
0.0
  9
$USERI1
 70
     3
  9
$USERI2
 70
     0
  9
$USERI3
 70
     0
  9
$USERI4
 70
     0
  9
$USERI5
 70
  1103
  9
$USERR1
 40
0.0
  9
$USERR2
 40
1.0
  9
$USERR3
 40
0.0
  9
$USERR4
 40
0.0
  9
$USERR5
 40
0.0
  9
$WORLDVIEW
 70
     1
  9
$SHADEDGE
 70
     3
  9
$SHADEDIF
 70
    70
  9
$TILEMODE
 70
     1
  9
$MAXACTVP
 70
    16
  9
$PINSBASE
 10
0.0
 20
0.0
 30
0.0
  9
$PLIMCHECK
 70
     0
  9
$PEXTMIN
 10
1.000000000000000E+20
 20
1.000000000000000E+20
 30
1.000000000000000E+20
  9
$PEXTMAX
 10
-1.000000000000000E+20
 20
-1.000000000000000E+20
 30
-1.000000000000000E+20
  9
$PLIMMIN
 10
0.0
 20
0.0
  9
$PLIMMAX
 10
12.0
 20
9.0
  9
$UNITMODE
 70
     0
  9
$VISRETAIN
 70
     0
  9
$PLINEGEN
 70
     1
  9
$PSLTSCALE
 70
     0
  9
$TREEDEPTH
 70
  3020
  9
$CMLSTYLE
  2
Standard
  9
$CMLJUST
 70
     0
  9
$CMLSCALE
 40
1.0
  9
$PROXYGRAPHICS
 70
     1
  9
$MEASUREMENT
 70
     0
  9
$CELWEIGHT
370
    -1
  9
$ENDCAPS
280
     0
  9
$JOINSTYLE
280
     0
  9
$LWDISPLAY
290
     0
  9
$INSUNITS
 70
     0
  9
$HYPERLINKBASE
  1

  9
$STYLESHEET
  1

  9
$XEDIT
290
     1
  9
$CEPSNTYPE
380
     0
  9
$PSTYLEMODE
290
     1
  9
$FINGERPRINTGUID
  2
{83BD9D6A-E082-4949-9325-DCA1C950AF9A}
  9
$VERSIONGUID
  2
{92E749A7-0A98-4EC5-BC2F-5BD023C9576B}
  9
$EXTNAMES
290
     1
  9
$PSVPSCALE
 40
0.0
  9
$OLESTARTUP
290
     0
  0
ENDSEC
  0
SECTION
  2
CLASSES
  0
CLASS
  1
ACDBDICTIONARYWDFLT
  2
AcDbDictionaryWithDefault
  3
AutoCAD 2000
 90
        0
280
     0
281
     0
  0
CLASS
  1
ACDBPLACEHOLDER
  2
AcDbPlaceHolder
  3
AutoCAD 2000
 90
        0
280
     0
281
     0
  0
CLASS
  1
LAYOUT
  2
AcDbLayout
  3
AutoCAD 2000
 90
        0
280
     0
281
     0
  0
CLASS
  1
DICTIONARYVAR
  2
AcDbDictionaryVar
  3
AutoCAD 2000
 90
        0
280
     0
281
     0
  0
ENDSEC
  0
SECTION
  2
TABLES
  0
TABLE
  2
VPORT
  5
1EA0A
330
0
100
AcDbSymbolTable
 70
     2
  0
VPORT
  5
1F1A9
330
1EA0A
100
AcDbSymbolTableRecord
100
AcDbViewportTableRecord
  2
*Active
 70
     0
 10
0.0
 20
0.0
 11
1.0
 21
1.0
 12
6306.248503465031
 22
4277.237798248231
 13
0.0
 23
0.0
 14
1.0
 24
1.0
 15
0.0
 25
0.0
 16
0.0
 26
0.0
 36
1.0
 17
0.0
 27
0.0
 37
0.0
 40
9736.810759336549
 41
1.236040609137055
 42
50.0
 43
0.0
 44
0.0
 50
0.0
 51
0.0
 71
     0
 72
 10000
 73
     1
 74
     0
 75
     0
 76
     0
 77
     0
 78
     0
281
     0
 65
     1
110
0.0
120
0.0
130
0.0
111
1.0
121
0.0
131
0.0
112
0.0
122
1.0
132
0.0
 79
     0
146
0.0
  0
ENDTAB
  0
TABLE
  2
LTYPE
  5
1EA07
330
0
100
AcDbSymbolTable
 70
     4
  0
LTYPE
  5
1EA15
330
1EA07
100
AcDbSymbolTableRecord
100
AcDbLinetypeTableRecord
  2
ByBlock
 70
     0
  3

 72
    65
 73
     0
 40
0.0
  0
LTYPE
  5
1EA16
330
1EA07
100
AcDbSymbolTableRecord
100
AcDbLinetypeTableRecord
  2
ByLayer
 70
     0
  3

 72
    65
 73
     0
 40
0.0
  0
LTYPE
  5
1EA17
330
1EA07
100
AcDbSymbolTableRecord
100
AcDbLinetypeTableRecord
  2
CONTINUOUS
 70
     0
  3
実線
 72
    65
 73
     0
 40
0.0
  0
LTYPE
  5
1EA27
330
1EA07
100
AcDbSymbolTableRecord
100
AcDbLinetypeTableRecord
  2
HIDE-S
 70
     0
  3

 72
    65
 73
     2
 40
1.0
 49
0.5
 74
     0
 49
-0.5
 74
     0
  0
LTYPE
  5
1EA28
330
1EA07
100
AcDbSymbolTableRecord
100
AcDbLinetypeTableRecord
  2
1PL-M
 70
     0
  3

 72
    65
 73
     4
 40
15.0
 49
12.0
 74
     0
 49
-1.0
 74
     0
 49
1.0
 74
     0
 49
-1.0
 74
     0
  0
LTYPE
  5
1EA29
330
1EA07
100
AcDbSymbolTableRecord
100
AcDbLinetypeTableRecord
  2
1PL-S
 70
     0
  3

 72
    65
 73
     4
 40
4.0
 49
2.5
 74
     0
 49
-0.5
 74
     0
 49
0.5
 74
     0
 49
-0.5
 74
     0
  0
ENDTAB
  0
TABLE
  2
LAYER
  5
1EA04
330
0
100
AcDbSymbolTable
 70
    32
  0
LAYER
  5
1EA12
330
1EA04
100
AcDbSymbolTableRecord
100
AcDbLayerTableRecord
  2
0
 70
     0
 62
     7
  6
CONTINUOUS
370
    -3
390
1EA11
  0
LAYER
  5
1EA24
330
1EA04
100
AcDbSymbolTableRecord
100
AcDbLayerTableRecord
  2
SUNPOU
 70
     0
 62
     4
  6
CONTINUOUS
370
    -3
390
1EA11
  0
LAYER
  5
1EA2A
330
1EA04
100
AcDbSymbolTableRecord
100
AcDbLayerTableRecord
  2
U1
 70
     0
 62
     3
  6
CONTINUOUS
370
    -3
390
1EA11
  0
LAYER
  5
1EA2B
330
1EA04
100
AcDbSymbolTableRecord
100
AcDbLayerTableRecord
  2
U2
 70
     0
 62
     4
  6
CONTINUOUS
370
    -3
390
1EA11
  0
LAYER
  5
1EA2C
330
1EA04
100
AcDbSymbolTableRecord
100
AcDbLayerTableRecord
  2
U3
 70
     0
 62
     6
  6
CONTINUOUS
370
    -3
390
1EA11
  0
LAYER
  5
1EA2D
330
1EA04
100
AcDbSymbolTableRecord
100
AcDbLayerTableRecord
  2
HIKIDASHI
 70
     0
 62
     6
  6
CONTINUOUS
370
    -3
390
1EA11
  0
LAYER
  5
1EA2E
330
1EA04
100
AcDbSymbolTableRecord
100
AcDbLayerTableRecord
  2
HIDE-S1
 70
     0
 62
     6
  6
HIDE-S
370
    -3
390
1EA11
  0
LAYER
  5
1EA2F
330
1EA04
100
AcDbSymbolTableRecord
100
AcDbLayerTableRecord
  2
1PL-S1
 70
     0
 62
     6
  6
1PL-S
370
    -3
390
1EA11
  0
LAYER
  5
1EA30
330
1EA04
100
AcDbSymbolTableRecord
100
AcDbLayerTableRecord
  2
1PL-S2
 70
     0
 62
     1
  6
1PL-S
370
    -3
390
1EA11
  0
LAYER
  5
1EA31
330
1EA04
100
AcDbSymbolTableRecord
100
AcDbLayerTableRecord
  2
1PL-M1
 70
     0
 62
     6
  6
1PL-M
370
    -3
390
1EA11
  0
LAYER
  5
1EA32
330
1EA04
100
AcDbSymbolTableRecord
100
AcDbLayerTableRecord
  2
YANE
 70
     0
 62
     1
  6
CONTINUOUS
370
    -3
390
1EA11
  0
LAYER
  5
1EA33
330
1EA04
100
AcDbSymbolTableRecord
100
AcDbLayerTableRecord
  2
KISO
 70
     0
 62
     2
  6
CONTINUOUS
370
    -3
390
1EA11
  0
LAYER
  5
1EA34
330
1EA04
100
AcDbSymbolTableRecord
100
AcDbLayerTableRecord
  2
HATCH
 70
     0
 62
     1
  6
CONTINUOUS
370
    -3
390
1EA11
  0
LAYER
  5
1EA35
330
1EA04
100
AcDbSymbolTableRecord
100
AcDbLayerTableRecord
  2
HARI
 70
     0
 62
     3
  6
CONTINUOUS
370
    -3
390
1EA11
  0
LAYER
  5
1EA36
330
1EA04
100
AcDbSymbolTableRecord
100
AcDbLayerTableRecord
  2
CAP
 70
     0
 62
     2
  6
CONTINUOUS
370
    -3
390
1EA11
  0
LAYER
  5
1EA37
330
1EA04
100
AcDbSymbolTableRecord
100
AcDbLayerTableRecord
  2
HANA_JYUSHI
 70
     0
 62
     1
  6
CONTINUOUS
370
    -3
390
1EA11
  0
LAYER
  5
1EA38
330
1EA04
100
AcDbSymbolTableRecord
100
AcDbLayerTableRecord
  2
KERABA_JYUSHI
 70
     0
 62
     3
  6
CONTINUOUS
370
    -3
390
1EA11
  0
LAYER
  5
1EA39
330
1EA04
100
AcDbSymbolTableRecord
100
AcDbLayerTableRecord
  2
TOI
 70
     0
 62
     4
  6
CONTINUOUS
370
    -3
390
1EA11
  0
LAYER
  5
1EA3A
330
1EA04
100
AcDbSymbolTableRecord
100
AcDbLayerTableRecord
  2
HANA
 70
     0
 62
     3
  6
CONTINUOUS
370
    -3
390
1EA11
  0
LAYER
  5
1EA3B
330
1EA04
100
AcDbSymbolTableRecord
100
AcDbLayerTableRecord
  2
NAME
 70
     0
 62
    20
  6
CONTINUOUS
370
    -3
390
1EA11
  0
LAYER
  5
1EA3C
330
1EA04
100
AcDbSymbolTableRecord
100
AcDbLayerTableRecord
  2
FILENAME
 70
     0
 62
     7
  6
CONTINUOUS
370
    -3
390
1EA11
  0
LAYER
  5
1EA3D
330
1EA04
100
AcDbSymbolTableRecord
100
AcDbLayerTableRecord
  2
MOYA
 70
     0
 62
     4
  6
CONTINUOUS
370
    -3
390
1EA11
  0
LAYER
  5
1EA3E
330
1EA04
100
AcDbSymbolTableRecord
100
AcDbLayerTableRecord
  2
KERABA
 70
     0
 62
     2
  6
CONTINUOUS
370
    -3
390
1EA11
  0
LAYER
  5
1EA3F
330
1EA04
100
AcDbSymbolTableRecord
100
AcDbLayerTableRecord
  2
HASHIRA
 70
     0
 62
     3
  6
CONTINUOUS
370
    -3
390
1EA11
  0
LAYER
  5
1EA40
330
1EA04
100
AcDbSymbolTableRecord
100
AcDbLayerTableRecord
  2
HARI_CAP
 70
     0
 62
     2
  6
CONTINUOUS
370
    -3
390
1EA11
  0
LAYER
  5
1EA41
330
1EA04
100
AcDbSymbolTableRecord
100
AcDbLayerTableRecord
  2
MOYA_KANGU
 70
     0
 62
     4
  6
CONTINUOUS
370
    -3
390
1EA11
  0
LAYER
  5
1EA42
330
1EA04
100
AcDbSymbolTableRecord
100
AcDbLayerTableRecord
  2
YANE_UKE
 70
     0
 62
     6
  6
CONTINUOUS
370
    -3
390
1EA11
  0
LAYER
  5
1EA43
330
1EA04
100
AcDbSymbolTableRecord
100
AcDbLayerTableRecord
  2
HANA_KAKUSHI
 70
     0
 62
     3
  6
CONTINUOUS
370
    -3
390
1EA11
  0
LAYER
  5
1EA44
330
1EA04
100
AcDbSymbolTableRecord
100
AcDbLayerTableRecord
  2
YODOROGO
 70
     0
 62
   130
  6
CONTINUOUS
370
    -3
390
1EA11
  0
LAYER
  5
1EA45
330
1EA04
100
AcDbSymbolTableRecord
100
AcDbLayerTableRecord
  2
WAKUSEN-01
 70
     0
 62
    50
  6
CONTINUOUS
370
    -3
390
1EA11
  0
LAYER
  5
1EA46
330
1EA04
100
AcDbSymbolTableRecord
100
AcDbLayerTableRecord
  2
WAKUSEN-02
 70
     0
 62
   130
  6
CONTINUOUS
370
    -3
390
1EA11
  0
LAYER
  5
1EA47
330
1EA04
100
AcDbSymbolTableRecord
100
AcDbLayerTableRecord
  2
WAKUMOJI-01
 70
     0
 62
   130
  6
CONTINUOUS
370
    -3
390
1EA11
  0
ENDTAB
  0
TABLE
  2
STYLE
  5
1EA05
330
0
100
AcDbSymbolTable
 70
     5
  0
STYLE
  5
1EA13
330
1EA05
100
AcDbSymbolTableRecord
100
AcDbTextStyleTableRecord
  2
STANDARD
 70
     0
 40
3.0
 41
1.0
 50
0.0
 71
     0
 42
0.2
  3
ROMANS
  4
EXTFONT
  0
STYLE
  5
1EA25
330
1EA05
100
AcDbSymbolTableRecord
100
AcDbTextStyleTableRecord
  2
00
 70
     0
 40
0.0
 41
0.6666666666666666
 50
0.0
 71
     0
 42
0.2
  3
ROMANS
  4
BIGFONT
  0
STYLE
  5
1EA48
330
1EA05
100
AcDbSymbolTableRecord
100
AcDbTextStyleTableRecord
  2
01
 70
     0
 40
3.0
 41
1.0
 50
0.0
 71
     0
 42
0.2
  3
ROMANS
  4
BIGFONT
  0
STYLE
  5
1EA49
330
1EA05
100
AcDbSymbolTableRecord
100
AcDbTextStyleTableRecord
  2
WAKUMOJI
 70
     0
 40
3.0
 41
1.0
 50
0.0
 71
     0
 42
3.0
  3
SIMPLEX
  4
BIGFONT
  0
STYLE
  5
1EA4A
330
1EA05
100
AcDbSymbolTableRecord
100
AcDbTextStyleTableRecord
  2
FILENAME
 70
     0
 40
75.0
 41
1.0
 50
0.0
 71
     0
 42
75.0
  3
romans
  4
bigfont
  0
ENDTAB
  0
TABLE
  2
VIEW
  5
1EA08
330
0
100
AcDbSymbolTable
 70
     0
  0
ENDTAB
  0
TABLE
  2
UCS
  5
1EA09
330
0
100
AcDbSymbolTable
 70
     0
  0
ENDTAB
  0
TABLE
  2
APPID
  5
1EA0B
330
0
100
AcDbSymbolTable
 70
     4
  0
APPID
  5
1EA14
330
1EA0B
100
AcDbSymbolTableRecord
100
AcDbRegAppTableRecord
  2
ACAD
 70
     0
  0
APPID
  5
1EA4B
330
1EA0B
100
AcDbSymbolTableRecord
100
AcDbRegAppTableRecord
  2
AUTOCAD_POSTSCRIPT_FIGURE
 70
     0
  0
APPID
  5
1EA4C
330
1EA0B
100
AcDbSymbolTableRecord
100
AcDbRegAppTableRecord
  2
ACAD_PSEXT
 70
     0
  0
APPID
  5
1EA4D
330
1EA0B
100
AcDbSymbolTableRecord
100
AcDbRegAppTableRecord
  2
ACAD_EXEMPT_FROM_CAD_STANDARDS
 70
     0
  0
ENDTAB
  0
TABLE
  2
DIMSTYLE
  5
1EA0C
330
0
100
AcDbSymbolTable
 70
     1
100
AcDbDimStyleTable
 71
     0
  0
DIMSTYLE
105
1EA4E
330
1EA0C
100
AcDbSymbolTableRecord
100
AcDbDimStyleTableRecord
  2
SUNPOU
 70
     0
 40
30.0
 41
0.5
 42
1.0
 43
7.0
 44
1.5
 46
3.0
 73
     0
 74
     0
 77
     1
 78
     8
140
3.0
141
0.0
147
1.5
172
     1
173
     1
176
   256
177
   256
178
   256
271
     2
272
     2
279
     2
284
     8
285
     8
286
     8
340
1EA25
  0
ENDTAB
  0
TABLE
  2
BLOCK_RECORD
  5
1EA03
330
0
100
AcDbSymbolTable
 70
     3
  0
BLOCK_RECORD
  5
1EA20
330
1EA03
100
AcDbSymbolTableRecord
100
AcDbBlockTableRecord
  2
*Model_Space
340
1EA23
  0
BLOCK_RECORD
  5
1EA1C
330
1EA03
100
AcDbSymbolTableRecord
100
AcDbBlockTableRecord
  2
*Paper_Space
340
1EA1F
  0
BLOCK_RECORD
  5
1EA53
330
1EA03
100
AcDbSymbolTableRecord
100
AcDbBlockTableRecord
  2
$MODEL_SPACE
340
0
  0
BLOCK_RECORD
  5
1EA56
330
1EA03
100
AcDbSymbolTableRecord
100
AcDbBlockTableRecord
  2
$PAPER_SPACE
340
0
  0
BLOCK_RECORD
  5
1EA59
330
1EA03
100
AcDbSymbolTableRecord
100
AcDbBlockTableRecord
  2
DOT
340
0
  0
ENDTAB
  0
ENDSEC
  0
SECTION
  2
BLOCKS
  0
BLOCK
  5
1EA21
330
1EA20
100
AcDbEntity
  8
0
100
AcDbBlockBegin
  2
*Model_Space
 70
     0
 10
0.0
 20
0.0
 30
0.0
  3
*Model_Space
  1

  0
ENDBLK
  5
1EA22
330
1EA20
100
AcDbEntity
  8
0
100
AcDbBlockEnd
  0
BLOCK
  5
1EA1D
330
1EA1C
100
AcDbEntity
 67
     1
  8
0
100
AcDbBlockBegin
  2
*Paper_Space
 70
     0
 10
0.0
 20
0.0
 30
0.0
  3
*Paper_Space
  1

  0
ENDBLK
  5
1EA1E
330
1EA1C
100
AcDbEntity
 67
     1
  8
0
100
AcDbBlockEnd
  0
BLOCK
  5
1EA54
330
1EA53
100
AcDbEntity
  8
0
100
AcDbBlockBegin
  2
$MODEL_SPACE
 70
     0
 10
0.0
 20
0.0
 30
0.0
  3
$MODEL_SPACE
  1

  0
ENDBLK
  5
1EA55
330
1EA53
100
AcDbEntity
  8
0
100
AcDbBlockEnd
  0
BLOCK
  5
1EA57
330
1EA56
100
AcDbEntity
  8
0
100
AcDbBlockBegin
  2
$PAPER_SPACE
 70
     0
 10
0.0
 20
0.0
 30
0.0
  3
$PAPER_SPACE
  1

  0
ENDBLK
  5
1EA58
330
1EA56
100
AcDbEntity
  8
0
100
AcDbBlockEnd
  0
BLOCK
  5
1EA5A
330
1EA59
100
AcDbEntity
  8
0
100
AcDbBlockBegin
  2
DOT
 70
     0
 10
0.0
 20
0.0
 30
0.0
  3
DOT
  1

  0
LWPOLYLINE
  5
1EA5B
330
1EA59
100
AcDbEntity
  8
0
  6
ByBlock
 62
     0
100
AcDbPolyline
 90
        2
 70
     1
 43
0.75
 10
-0.375
 20
0.0
 42
1.0
 10
0.375
 20
0.0
 42
1.0
  0
LINE
  5
1EA5F
330
1EA59
100
AcDbEntity
  8
0
  6
ByBlock
 62
     0
100
AcDbLine
 10
-0.75
 20
0.0
 30
0.0
 11
-1.5
 21
0.0
 31
0.0
  0
ENDBLK
  5
1EA60
330
1EA59
100
AcDbEntity
  8
0
100
AcDbBlockEnd
  0
ENDSEC
  0
SECTION
  2
ENTITIES
  0
LINE
  5
1EA61
330
1EA20
100
AcDbEntity
  8
U3
100
AcDbLine
 10
1400.884030123904
 20
1736.805063765603
 30
0.0
 11
939.523640430697
 21
1736.805063765603
 31
0.0
  0
LINE
  5
1EA62
330
1EA20
100
AcDbEntity
  8
KISO
100
AcDbLine
 10
4000.884030123905
 20
1736.805063765603
 30
0.0
 11
4000.884030123905
 21
1786.805063765605
 31
0.0
  0
LINE
  5
1EA63
330
1EA20
100
AcDbEntity
  8
KISO
100
AcDbLine
 10
1400.884030123904
 20
1786.805063765603
 30
0.0
 11
1400.884030123904
 21
1736.805063765603
 31
0.0
  0
LINE
  5
1EA64
330
1EA20
100
AcDbEntity
  8
U3
100
AcDbLine
 10
4462.244419817111
 20
1736.805063765605
 30
0.0
 11
4000.884030123905
 21
1736.805063765605
 31
0.0
  0
LINE
  5
1EA65
330
1EA20
100
AcDbEntity
  8
SUNPOU
100
AcDbLine
 10
1025.417213414279
 20
1826.805063765603
 30
0.0
 11
1077.378737641345
 21
1736.805063765603
 31
0.0
  0
LINE
  5
1EA66
330
1EA20
100
AcDbEntity
  8
SUNPOU
100
AcDbLine
 10
1129.340261868412
 20
1826.805063765603
 30
0.0
 11
1025.417213414279
 21
1826.805063765603
 31
0.0
  0
LINE
  5
1EA67
330
1EA20
100
AcDbEntity
  8
SUNPOU
100
AcDbLine
 10
1077.378737641345
 20
1736.805063765603
 30
0.0
 11
1129.340261868412
 21
1826.805063765603
 31
0.0
  0
TEXT
  5
1EA68
330
1EA20
100
AcDbEntity
  8
SUNPOU
100
AcDbText
 10
1005.950166212773
 20
1871.805063765603
 30
0.0
 40
90.0
  1
G.L
 41
0.6666666666666666
  7
00
 72
     4
 11
1077.378737641345
 21
1916.805063765603
 31
0.0
100
AcDbText
  0
TEXT
  5
1EA69
330
1EA20
100
AcDbEntity
  8
SUNPOU
100
AcDbText
 10
1649.106478313283
 20
1921.805063765603
 30
0.0
 40
90.0
  1
F.L
 41
0.6666666666666666
  7
00
 72
     4
 11
1717.677906884712
 21
1966.805063765603
 31
0.0
100
AcDbText
  0
LINE
  5
1EA6A
330
1EA20
100
AcDbEntity
  8
SUNPOU
100
AcDbLine
 10
1717.677906884712
 20
1786.805063765603
 30
0.0
 11
1769.639431111778
 21
1876.805063765603
 31
0.0
  0
LINE
  5
1EA6B
330
1EA20
100
AcDbEntity
  8
SUNPOU
100
AcDbLine
 10
1665.716382657645
 20
1876.805063765603
 30
0.0
 11
1717.677906884712
 21
1786.805063765603
 31
0.0
  0
LINE
  5
1EA6C
330
1EA20
100
AcDbEntity
  8
SUNPOU
100
AcDbLine
 10
1769.639431111778
 20
1876.805063765603
 30
0.0
 11
1665.716382657645
 21
1876.805063765603
 31
0.0
  0
LINE
  5
1EA6D
330
1EA20
100
AcDbEntity
  8
KISO
100
AcDbLine
 10
4000.884030123905
 20
1786.805063765605
 30
0.0
 11
1400.884030123904
 21
1786.805063765603
 31
0.0
  0
LINE
  5
1EA6E
330
1EA20
100
AcDbEntity
  8
KISO
100
AcDbLine
 10
1400.884030123904
 20
1736.805063765603
 30
0.0
 11
4000.884030123905
 21
1736.805063765603
 31
0.0
  0
LINE
  5
1EA6F
330
1EA20
100
AcDbEntity
  8
SUNPOU
100
AcDbLine
 10
4030.884030123905
 20
1786.805063765605
 30
0.0
 11
4455.884030123905
 21
1786.805063765605
 31
0.0
  0
LINE
  5
1EA70
330
1EA20
100
AcDbEntity
  8
SUNPOU
100
AcDbLine
 10
4030.884030123905
 20
1786.805063765605
 30
0.0
 11
4455.884030123905
 21
1786.805063765605
 31
0.0
  0
LINE
  5
1EA71
330
1EA20
100
AcDbEntity
  8
SUNPOU
100
AcDbLine
 10
4410.884030123905
 20
1721.805063765605
 30
0.0
 11
4410.884030123905
 21
1706.805063765605
 31
0.0
  0
LINE
  5
1EA72
330
1EA20
100
AcDbEntity
  8
SUNPOU
100
AcDbLine
 10
4410.884030123905
 20
1786.805063765605
 30
0.0
 11
4410.884030123905
 21
1606.962206622747
 31
0.0
  0
TEXT
  5
1EA73
330
1EA20
100
AcDbEntity
  8
SUNPOU
100
AcDbText
 10
4365.884030123905
 20
1598.390778051319
 30
0.0
 40
90.0
  1
50
 50
90.0
 41
0.6666666666666666
  7
00
 72
     1
 11
4320.884030123905
 21
1655.533635194176
 31
0.0
100
AcDbText
 73
     2
  0
TEXT
  5
1EA74
330
1EA20
100
AcDbEntity
  8
SUNPOU
100
AcDbText
 10
1347.447892080635
 20
5612.014820159623
 30
0.0
 40
90.0
  1
G.L
 41
0.6666666666666666
  7
00
 72
     4
 11
1418.876463509207
 21
5657.014820159623
 31
0.0
100
AcDbText
  0
LINE
  5
1EA75
330
1EA20
100
AcDbEntity
  8
SUNPOU
100
AcDbLine
 10
1366.91493928214
 20
5567.014820159624
 30
0.0
 11
1418.876463509207
 21
5477.014820159624
 31
0.0
  0
LINE
  5
1EA76
330
1EA20
100
AcDbEntity
  8
SUNPOU
100
AcDbLine
 10
1470.837987736272
 20
5567.014820159624
 30
0.0
 11
1366.91493928214
 21
5567.014820159624
 31
0.0
  0
LINE
  5
1EA77
330
1EA20
100
AcDbEntity
  8
U2
100
AcDbLine
 10
6185.718857932429
 20
5371.953015234169
 30
0.0
 11
6185.718857932429
 21
7868.577414751519
 31
0.0
  0
LINE
  5
1EA78
330
1EA20
100
AcDbEntity
  8
SUNPOU
100
AcDbLine
 10
1792.022499002841
 20
5617.014820159624
 30
0.0
 11
1843.984023229907
 21
5527.014820159628
 31
0.0
  0
LINE
  5
1EA79
330
1EA20
100
AcDbEntity
  8
SUNPOU
100
AcDbLine
 10
1843.984023229907
 20
5527.014820159628
 30
0.0
 11
1895.945547456974
 21
5617.014820159624
 31
0.0
  0
LINE
  5
1EA7A
330
1EA20
100
AcDbEntity
  8
SUNPOU
100
AcDbLine
 10
1418.876463509207
 20
5477.014820159624
 30
0.0
 11
1470.837987736272
 21
5567.014820159624
 31
0.0
  0
LINE
  5
1EA7B
330
1EA20
100
AcDbEntity
  8
SUNPOU
100
AcDbLine
 10
1895.945547456974
 20
5617.014820159624
 30
0.0
 11
1792.022499002841
 21
5617.014820159624
 31
0.0
  0
TEXT
  5
1EA7C
330
1EA20
100
AcDbEntity
  8
SUNPOU
100
AcDbText
 10
1775.412594658478
 20
5662.014820159623
 30
0.0
 40
90.0
  1
F.L
 41
0.6666666666666666
  7
00
 72
     4
 11
1843.984023229907
 21
5707.014820159624
 31
0.0
100
AcDbText
  0
LINE
  5
1EA7D
330
1EA20
100
AcDbEntity
  8
U2
100
AcDbLine
 10
6265.71885793243
 20
5371.953015234169
 30
0.0
 11
6265.718857932429
 21
7868.577414751519
 31
0.0
  0
LINE
  5
1EA7E
330
1EA20
100
AcDbEntity
  8
KISO
100
AcDbLine
 10
6265.71885793243
 20
5477.014820159624
 30
0.0
 11
10725.71885793242
 21
5477.014820159624
 31
0.0
  0
LINE
  5
1EA7F
330
1EA20
100
AcDbEntity
  8
KISO
100
AcDbLine
 10
10725.71885793242
 20
5527.014820159628
 30
0.0
 11
6265.71885793243
 21
5527.014820159628
 31
0.0
  0
LINE
  5
1EA80
330
1EA20
100
AcDbEntity
  8
KISO
100
AcDbLine
 10
10725.71885793242
 20
5477.014820159624
 30
0.0
 11
10725.71885793242
 21
5527.014820159628
 31
0.0
  0
LINE
  5
1EA81
330
1EA20
100
AcDbEntity
  8
KISO
100
AcDbLine
 10
1725.718857932428
 20
5477.014820159624
 30
0.0
 11
1725.718857932428
 21
5527.014820159628
 31
0.0
  0
LINE
  5
1EA82
330
1EA20
100
AcDbEntity
  8
U3
100
AcDbLine
 10
1289.358468239222
 20
5477.014820159626
 30
0.0
 11
1725.718857932428
 21
5477.014820159626
 31
0.0
  0
LINE
  5
1EA83
330
1EA20
100
AcDbEntity
  8
KISO
100
AcDbLine
 10
6185.718857932429
 20
5477.014820159624
 30
0.0
 11
1725.718857932428
 21
5477.014820159624
 31
0.0
  0
LINE
  5
1EA84
330
1EA20
100
AcDbEntity
  8
KISO
100
AcDbLine
 10
1725.718857932428
 20
5527.014820159628
 30
0.0
 11
6185.718857932429
 21
5527.014820159628
 31
0.0
  0
CIRCLE
  5
1EA85
330
1EA20
100
AcDbEntity
  8
HARI
100
AcDbCircle
 10
2802.647083943633
 20
3808.047672138153
 30
0.0
 40
6.0
  0
CIRCLE
  5
1EA86
330
1EA20
100
AcDbEntity
  8
HARI
100
AcDbCircle
 10
3401.894006393527
 20
3777.995618392491
 30
0.0
 40
6.0
  0
ARC
  5
1EA87
330
1EA20
100
AcDbEntity
  8
CAP
100
AcDbCircle
 10
2187.695720721078
 20
3844.394210772819
 30
0.0
 40
40.0
100
AcDbArc
 50
134.9514487464334
 51
219.3066292833703
  0
ARC
  5
1EA88
330
1EA20
100
AcDbEntity
  8
CAP
100
AcDbCircle
 10
2168.307086219149
 20
3812.825702024284
 30
0.0
 40
5.0
100
AcDbArc
 50
219.3066292833703
 51
267.1290390148902
  0
LINE
  5
1EA89
330
1EA20
100
AcDbEntity
  8
CAP
100
AcDbLine
 10
2164.438251616187
 20
3809.658350004863
 30
0.0
 11
2156.745043897381
 21
3819.055394617463
 31
0.0
  0
LINE
  5
1EA8A
330
1EA20
100
AcDbEntity
  8
CAP
100
AcDbLine
 10
2170.836294300728
 20
3807.692579463342
 30
0.0
 11
2168.056652437936
 21
3807.831977670533
 31
0.0
  0
LINE
  5
1EA8B
330
1EA20
100
AcDbEntity
  8
CAP
100
AcDbLine
 10
2163.582691632752
 20
3876.842681207413
 30
0.0
 11
2159.435427129568
 21
3872.702439366669
 31
0.0
  0
CIRCLE
  5
1EA8C
330
1EA20
100
AcDbEntity
  8
CAP
100
AcDbCircle
 10
2187.695720721078
 20
3844.394210772819
 30
0.0
 40
1.5
  0
LINE
  5
1EA8D
330
1EA20
100
AcDbEntity
  8
CAP
100
AcDbLine
 10
3489.179523690491
 20
3741.578061222892
 30
0.0
 11
3492.203023970287
 21
3801.867559339284
 31
0.0
  0
ARC
  5
1EA8E
330
1EA20
100
AcDbEntity
  8
CAP
100
AcDbCircle
 10
3476.076603988348
 20
3779.782295219653
 30
0.0
 40
40.0
100
AcDbArc
 50
314.9514487464333
 51
22.03183315050202
  0
ARC
  5
1EA8F
330
1EA20
100
AcDbEntity
  8
CAP
100
AcDbCircle
 10
3492.209599334497
 20
3746.432387369451
 30
0.0
 40
5.0
100
AcDbArc
 50
267.1290390148902
 51
314.9514487464333
  0
LINE
  5
1EA90
330
1EA20
100
AcDbEntity
  8
CAP
100
AcDbLine
 10
3495.742136033438
 20
3742.893858795219
 30
0.0
 11
3504.336897579857
 21
3751.474066625801
 31
0.0
  0
LINE
  5
1EA91
330
1EA20
100
AcDbEntity
  8
CAP
100
AcDbLine
 10
3489.179523690491
 20
3741.578061222892
 30
0.0
 11
3491.959165553285
 21
3741.438663015701
 31
0.0
  0
CIRCLE
  5
1EA92
330
1EA20
100
AcDbEntity
  8
CAP
100
AcDbCircle
 10
3476.076603988348
 20
3779.782295219653
 30
0.0
 40
1.5
  0
LINE
  5
1EA93
330
1EA20
100
AcDbEntity
  8
U1
100
AcDbLine
 10
2839.034030123904
 20
3770.978641609911
 30
0.0
 11
2839.034030123904
 21
3505.055063765604
 31
0.0
  0
LINE
  5
1EA94
330
1EA20
100
AcDbEntity
  8
U1
100
AcDbLine
 10
2762.734030123905
 20
1786.805063765603
 30
0.0
 11
2762.734030123905
 21
3774.805063765604
 31
0.0
  0
LINE
  5
1EA95
330
1EA20
100
AcDbEntity
  8
U1
100
AcDbLine
 10
2839.034030123904
 20
3505.055063765604
 30
0.0
 11
3150.234030123905
 21
3505.055063765604
 31
0.0
  0
LINE
  5
1EA96
330
1EA20
100
AcDbEntity
  8
U1
100
AcDbLine
 10
2839.034030123904
 20
3444.555063765605
 30
0.0
 11
3150.234030123905
 21
3444.555063765605
 31
0.0
  0
ARC
  5
1EA97
330
1EA20
100
AcDbEntity
  8
U1
100
AcDbCircle
 10
2839.034030123904
 20
3474.805063765605
 30
0.0
 40
30.25
100
AcDbArc
 50
90.0
 51
270.0
  0
LINE
  5
1EA98
330
1EA20
100
AcDbEntity
  8
U1
100
AcDbLine
 10
2839.034030123904
 20
3444.555063765605
 30
0.0
 11
2839.034030123904
 21
1786.805063765603
 31
0.0
  0
LINE
  5
1EA99
330
1EA20
100
AcDbEntity
  8
1PL-M1
100
AcDbLine
 10
2800.884030123905
 20
1679.46006769013
 30
0.0
 11
2800.884030123905
 21
3772.891852687757
 31
0.0
  0
LINE
  5
1EA9A
330
1EA20
100
AcDbEntity
  8
U1
100
AcDbLine
 10
3430.734030123903
 20
3725.055063765607
 30
0.0
 11
3430.734030123903
 21
3741.305063765556
 31
0.0
  0
LINE
  5
1EA9B
330
1EA20
100
AcDbEntity
  8
1PL-S1
100
AcDbLine
 10
2788.244865859422
 20
3474.805063765605
 30
0.0
 11
3150.234030123905
 21
3474.805063765605
 31
0.0
  0
LINE
  5
1EA9C
330
1EA20
100
AcDbEntity
  8
U1
100
AcDbLine
 10
3370.234030123905
 20
3725.055063765607
 30
0.0
 11
3370.234030123905
 21
3744.339120651788
 31
0.0
  0
ARC
  5
1EA9D
330
1EA20
100
AcDbEntity
  8
U1
100
AcDbCircle
 10
3150.234030123905
 20
3725.055063765607
 30
0.0
 40
220.0
100
AcDbArc
 50
270.0
 51
0.0
  0
ARC
  5
1EA9E
330
1EA20
100
AcDbEntity
  8
U1
100
AcDbCircle
 10
3150.234030123905
 20
3725.055063765607
 30
0.0
 40
280.5
100
AcDbArc
 50
270.0
 51
0.0
  0
ARC
  5
1EA9F
330
1EA20
100
AcDbEntity
  8
1PL-S1
100
AcDbCircle
 10
3150.234030123905
 20
3725.055063765607
 30
0.0
 40
250.2499999999999
100
AcDbArc
 50
270.0
 51
0.0
  0
LINE
  5
1EAA0
330
1EA20
100
AcDbEntity
  8
1PL-M1
100
AcDbLine
 10
3400.484030123905
 20
3725.055063765607
 30
0.0
 11
3400.484030123905
 21
3742.822092208673
 31
0.0
  0
LINE
  5
1EAA1
330
1EA20
100
AcDbEntity
  8
1PL-S1
100
AcDbLine
 10
3400.484030123906
 20
3742.822092208673
 30
0.0
 11
3404.975801130642
 21
3832.389346910821
 31
0.0
  0
LINE
  5
1EAA2
330
1EA20
100
AcDbEntity
  8
U1
100
AcDbLine
 10
3362.542190924751
 20
3814.812833545237
 30
0.0
 11
3359.036117987788
 21
3744.900692592747
 31
0.0
  0
LINE
  5
1EAA3
330
1EA20
100
AcDbEntity
  8
U1
100
AcDbLine
 10
3359.036117987788
 20
3744.900692592747
 30
0.0
 11
3441.931942260023
 21
3740.743491824596
 31
0.0
  0
LINE
  5
1EAA4
330
1EA20
100
AcDbEntity
  8
U1
100
AcDbLine
 10
3441.931942260023
 20
3740.743491824596
 30
0.0
 11
3445.438015196984
 21
3810.655632777085
 31
0.0
  0
LINE
  5
1EAA5
330
1EA20
100
AcDbEntity
  8
U1
100
AcDbLine
 10
3445.438015196984
 20
3810.655632777085
 30
0.0
 11
3362.542190924751
 21
3814.812833545237
 31
0.0
  0
CIRCLE
  5
1EAA6
330
1EA20
100
AcDbEntity
  8
U1
100
AcDbCircle
 10
3402.247083943636
 20
3777.977911659064
 30
0.0
 40
6.0
  0
LINE
  5
1EAA7
330
1EA20
100
AcDbEntity
  8
1PL-S1
100
AcDbLine
 10
2800.884030123905
 20
3772.891852687757
 30
0.0
 11
2805.990510216306
 21
3874.716590053427
 31
0.0
  0
LINE
  5
1EAA8
330
1EA20
100
AcDbEntity
  8
U1
100
AcDbLine
 10
2752.954742217252
 20
3845.383461586749
 30
0.0
 11
2855.825463904483
 21
3840.224525693744
 31
0.0
  0
LINE
  5
1EAA9
330
1EA20
100
AcDbEntity
  8
U1
100
AcDbLine
 10
2855.825463904483
 20
3840.224525693744
 30
0.0
 11
2852.31939096752
 21
3770.312384741256
 31
0.0
  0
LINE
  5
1EAAA
330
1EA20
100
AcDbEntity
  8
U1
100
AcDbLine
 10
2852.31939096752
 20
3770.312384741256
 30
0.0
 11
2749.448669280289
 21
3775.47132063426
 31
0.0
  0
LINE
  5
1EAAB
330
1EA20
100
AcDbEntity
  8
U1
100
AcDbLine
 10
2749.448669280289
 20
3775.47132063426
 30
0.0
 11
2752.954742217252
 21
3845.383461586749
 31
0.0
  0
CIRCLE
  5
1EAAC
330
1EA20
100
AcDbEntity
  8
U1
100
AcDbCircle
 10
2802.647083943633
 20
3808.047672138151
 30
0.0
 40
6.0
  0
LINE
  5
1EAAD
330
1EA20
100
AcDbEntity
  8
U1
100
AcDbLine
 10
1864.980620228526
 20
3989.940642931455
 30
0.0
 11
3427.988608712286
 21
3911.556260274631
 31
0.0
  0
LINE
  5
1EAAE
330
1EA20
100
AcDbEntity
  8
U1
100
AcDbLine
 10
1860.07211811669
 20
3892.063645597974
 30
0.0
 11
3423.080106600449
 21
3813.679262941152
 31
0.0
  0
ARC
  5
1EAAF
330
1EA20
100
AcDbEntity
  8
U1
100
AcDbCircle
 10
1845.547706369861
 20
3941.853619120852
 30
0.0
 40
44.0
100
AcDbArc
 50
87.12903901486411
 51
267.129039014864
  0
ARC
  5
1EAB0
330
1EA20
100
AcDbEntity
  8
U1
100
AcDbCircle
 10
1858.22488864392
 20
3895.160053722713
 30
0.0
 40
2.0
100
AcDbArc
 50
357.1290390149096
 51
87.12903901486411
  0
LINE
  5
1EAB1
330
1EA20
100
AcDbEntity
  8
U1
100
AcDbLine
 10
1843.343889095159
 20
3897.90884480786
 30
0.0
 11
1858.325062156406
 21
3897.15754346421
 31
0.0
  0
LINE
  5
1EAB2
330
1EA20
100
AcDbEntity
  8
U1
100
AcDbLine
 10
1860.222378385419
 20
3895.059880210225
 30
0.0
 11
1860.07211811669
 21
3892.063645597974
 31
0.0
  0
ARC
  5
1EAB3
330
1EA20
100
AcDbEntity
  8
U1
100
AcDbCircle
 10
1862.832870218295
 20
3987.044581831695
 30
0.0
 40
2.0
100
AcDbArc
 50
267.129039014864
 51
357.1290390149096
  0
LINE
  5
1EAB4
330
1EA20
100
AcDbEntity
  8
U1
100
AcDbLine
 10
1847.751523644562
 20
3985.798393433841
 30
0.0
 11
1862.73269670581
 21
3985.047092090193
 31
0.0
  0
LINE
  5
1EAB5
330
1EA20
100
AcDbEntity
  8
U1
100
AcDbLine
 10
1864.830359959796
 20
3986.944408319207
 30
0.0
 11
1864.980620228526
 21
3989.940642931455
 31
0.0
  0
ARC
  5
1EAB6
330
1EA20
100
AcDbEntity
  8
U1
100
AcDbCircle
 10
3408.304513508699
 20
3519.04952606996
 30
0.0
 40
393.0
100
AcDbArc
 50
14.12903901489089
 51
87.12903901486411
  0
ARC
  5
1EAB7
330
1EA20
100
AcDbEntity
  8
U1
100
AcDbCircle
 10
3408.304513508699
 20
3519.04952606996
 30
0.0
 40
295.0
100
AcDbArc
 50
16.07164098912988
 51
87.12903901486411
  0
ARC
  5
1EAB8
330
1EA20
100
AcDbEntity
  8
U1
100
AcDbCircle
 10
3705.358751650077
 20
3604.136420491169
 30
0.0
 40
10.0
100
AcDbArc
 50
203.7231072416865
 51
285.0564385430727
  0
ARC
  5
1EAB9
330
1EA20
100
AcDbEntity
  8
U1
100
AcDbCircle
 10
3694.372746677696
 20
3599.308616151022
 30
0.0
 40
2.0
100
AcDbArc
 50
23.72310724168665
 51
104.1290390148503
  0
LINE
  5
1EABA
330
1EA20
100
AcDbEntity
  8
U1
100
AcDbLine
 10
3691.774820711232
 20
3600.717052875307
 30
0.0
 11
3693.884533603219
 21
3601.248112991418
 31
0.0
  0
LINE
  5
1EABB
330
1EA20
100
AcDbEntity
  8
U1
100
AcDbLine
 10
3707.799817022459
 20
3594.438936289185
 30
0.0
 11
3789.415642646744
 21
3614.983395204505
 31
0.0
  0
LINE
  5
1EABC
330
1EA20
100
AcDbEntity
  8
1PL-S2
100
AcDbLine
 10
3714.507585482971
 20
3593.033840039345
 30
0.0
 11
3710.601880887163
 21
3608.549814762521
 31
0.0
  0
LINE
  5
1EABD
330
1EA20
100
AcDbEntity
  8
1PL-S2
100
AcDbLine
 10
3704.796745823478
 20
3598.838975103028
 30
0.0
 11
3720.312720546655
 21
3602.744679698838
 31
0.0
  0
CIRCLE
  5
1EABE
330
1EA20
100
AcDbEntity
  8
U1
100
AcDbCircle
 10
3712.554733185065
 20
3600.791827400932
 30
0.0
 40
2.5
  0
LINE
  5
1EABF
330
1EA20
100
AcDbEntity
  8
1PL-S2
100
AcDbLine
 10
3761.042154194999
 20
3612.997154262831
 30
0.0
 11
3776.558128918173
 21
3616.90285885864
 31
0.0
  0
LINE
  5
1EAC0
330
1EA20
100
AcDbEntity
  8
1PL-S2
100
AcDbLine
 10
3770.752993854488
 20
3607.192019199145
 30
0.0
 11
3766.847289258681
 21
3622.707993922321
 31
0.0
  0
CIRCLE
  5
1EAC1
330
1EA20
100
AcDbEntity
  8
U1
100
AcDbCircle
 10
3768.800141556583
 20
3614.950006560736
 30
0.0
 40
2.5
  0
LINE
  5
1EAC2
330
1EA20
100
AcDbEntity
  8
U1
100
AcDbLine
 10
3427.017598081211
 20
3911.604956167058
 30
0.0
 11
3426.979505288187
 21
3910.805861143961
 31
0.0
  0
LINE
  5
1EAC3
330
1EA20
100
AcDbEntity
  8
U1
100
AcDbLine
 10
3429.015020510753
 20
3911.503440434079
 30
0.0
 11
3428.972861717876
 21
3910.704552058782
 31
0.0
  0
LINE
  5
1EAC4
330
1EA20
100
AcDbEntity
  8
U1
100
AcDbLine
 10
3477.793449075878
 20
3905.857343769838
 30
0.0
 11
3477.651995771923
 21
3905.069948721084
 31
0.0
  0
LINE
  5
1EAC5
330
1EA20
100
AcDbEntity
  8
U1
100
AcDbLine
 10
3495.138865049784
 20
3902.336357819293
 30
0.0
 11
3494.962103011022
 21
3901.556130171965
 31
0.0
  0
ARC
  5
1EAC6
330
1EA20
100
AcDbEntity
  8
HANA_JYUSHI
100
AcDbCircle
 10
1846.546451240611
 20
3941.803532364608
 30
0.0
 40
50.0
100
AcDbArc
 50
87.12903901486411
 51
267.129039014864
  0
LINE
  5
1EAC7
330
1EA20
100
AcDbEntity
  8
HANA_JYUSHI
100
AcDbLine
 10
1861.020776231195
 20
3891.014813970984
 30
0.0
 11
1844.042113428449
 21
3891.866288827116
 31
0.0
  0
LINE
  5
1EAC8
330
1EA20
100
AcDbEntity
  8
HANA_JYUSHI
100
AcDbLine
 10
1861.070862987439
 20
3892.013558841732
 30
0.0
 11
1861.020776231195
 21
3891.014813970984
 31
0.0
  0
LINE
  5
1EAC9
330
1EA20
100
AcDbEntity
  8
HANA_JYUSHI
100
AcDbLine
 10
1849.050789052769
 20
3991.740775902098
 30
0.0
 11
1866.029451855517
 21
3990.889301045963
 31
0.0
  0
LINE
  5
1EACA
330
1EA20
100
AcDbEntity
  8
HANA_JYUSHI
100
AcDbLine
 10
1865.979365099275
 20
3989.890556175215
 30
0.0
 11
1866.029451855517
 21
3990.889301045963
 31
0.0
  0
LINE
  5
1EACB
330
1EA20
100
AcDbEntity
  8
KERABA_JYUSHI
100
AcDbLine
 10
3786.513075114902
 20
3610.127975374769
 30
0.0
 11
3708.933201499017
 21
3590.599452395716
 31
0.0
  0
LINE
  5
1EACC
330
1EA20
100
AcDbEntity
  8
KERABA_JYUSHI
100
AcDbLine
 10
3789.415642646744
 20
3614.983395204516
 30
0.0
 11
3707.956775350064
 21
3594.478446076511
 31
0.0
  0
ARC
  5
1EACD
330
1EA20
100
AcDbEntity
  8
KERABA_JYUSHI
100
AcDbCircle
 10
3705.515709977684
 20
3604.175930278496
 30
0.0
 40
14.0
100
AcDbArc
 50
194.1290390148908
 51
284.1290390148572
  0
ARC
  5
1EACE
330
1EA20
100
AcDbEntity
  8
KERABA_JYUSHI
100
AcDbCircle
 10
3705.515709977684
 20
3604.175930278496
 30
0.0
 40
10.0
100
AcDbArc
 50
199.3449475853592
 51
284.1290390148572
  0
LINE
  5
1EACF
330
1EA20
100
AcDbEntity
  8
KERABA_JYUSHI
100
AcDbLine
 10
3691.939232094904
 20
3600.758438757163
 30
0.0
 11
3694.892648280728
 21
3601.5018771409
 31
0.0
  0
LINE
  5
1EAD0
330
1EA20
100
AcDbEntity
  8
KERABA_JYUSHI
100
AcDbLine
 10
3691.939232094904
 20
3600.758438757163
 30
0.0
 11
3691.939232094904
 21
3600.758438757163
 31
0.0
  0
ARC
  5
1EAD1
330
1EA20
100
AcDbEntity
  8
KERABA_JYUSHI
100
AcDbCircle
 10
3695.136754817966
 20
3600.532128720703
 30
0.0
 40
1.0
100
AcDbArc
 50
19.3449475853592
 51
104.1290390148573
  0
ARC
  5
1EAD2
330
1EA20
100
AcDbEntity
  8
KERABA_JYUSHI
100
AcDbCircle
 10
3785.536648965949
 20
3614.006969055565
 30
0.0
 40
4.0
100
AcDbArc
 50
284.1290390148572
 51
14.12903901489089
  0
LINE
  5
1EAD3
330
1EA20
100
AcDbEntity
  8
KERABA_JYUSHI
100
AcDbLine
 10
3787.193177030867
 20
3614.423952802423
 30
0.0
 11
3787.193177030867
 21
3614.423952802423
 31
0.0
  0
LINE
  5
1EAD4
330
1EA20
100
AcDbEntity
  8
SUNPOU
100
AcDbLine
 10
3815.612987015338
 20
3608.805063765604
 30
0.0
 11
4440.884030123905
 21
3608.805063765604
 31
0.0
  0
LINE
  5
1EAD5
330
1EA20
100
AcDbEntity
  8
SUNPOU
100
AcDbLine
 10
4380.884030123905
 20
1786.805063765605
 30
0.0
 11
4380.884030123905
 21
1786.805063765605
 31
0.0
  0
LINE
  5
1EAD6
330
1EA20
100
AcDbEntity
  8
SUNPOU
100
AcDbLine
 10
4410.884030123905
 20
3593.805063765606
 30
0.0
 11
4410.884030123905
 21
1801.805063765605
 31
0.0
  0
TEXT
  5
1EAD7
330
1EA20
100
AcDbEntity
  8
SUNPOU
100
AcDbText
 10
4365.884030123905
 20
2579.233635194176
 30
0.0
 40
90.0
  1
1822
 50
90.0
 41
0.6666666666666666
  7
00
 72
     1
 11
4320.884030123905
 21
2697.805063765605
 31
0.0
100
AcDbText
 73
     2
  0
LINE
  5
1EAD8
330
1EA20
100
AcDbEntity
  8
SUNPOU
100
AcDbLine
 10
1375.97419447516
 20
1786.805063765603
 30
0.0
 11
1248.224636933687
 21
1786.805063765603
 31
0.0
  0
LINE
  5
1EAD9
330
1EA20
100
AcDbEntity
  8
SUNPOU
100
AcDbLine
 10
1793.685337829715
 20
3991.740775902098
 30
0.0
 11
1248.224636933687
 21
3991.740775902098
 31
0.0
  0
LINE
  5
1EADA
330
1EA20
100
AcDbEntity
  8
SUNPOU
100
AcDbLine
 10
1278.224636933686
 20
1801.805063765603
 30
0.0
 11
1278.224636933686
 21
3976.740775902097
 31
0.0
  0
TEXT
  5
1EADB
330
1EA20
100
AcDbEntity
  8
SUNPOU
100
AcDbText
 10
1233.224636933687
 20
2774.987205548136
 30
0.0
 40
90.0
  1
2200
 50
90.0
 41
0.6666666666666666
  7
00
 72
     1
 11
1188.224636933686
 21
2889.27291983385
 31
0.0
100
AcDbText
 73
     2
  0
LINE
  5
1EADC
330
1EA20
100
AcDbEntity
  8
SUNPOU
100
AcDbLine
 10
1458.224636933687
 20
1786.805063765603
 30
0.0
 11
1458.224636933687
 21
1786.805063765603
 31
0.0
  0
LINE
  5
1EADD
330
1EA20
100
AcDbEntity
  8
SUNPOU
100
AcDbLine
 10
1793.685337829715
 20
3893.740775902097
 30
0.0
 11
1458.224636933687
 21
3893.740775902097
 31
0.0
  0
LINE
  5
1EADE
330
1EA20
100
AcDbEntity
  8
SUNPOU
100
AcDbLine
 10
1488.224636933687
 20
1801.805063765603
 30
0.0
 11
1488.224636933687
 21
3878.740775902097
 31
0.0
  0
TEXT
  5
1EADF
330
1EA20
100
AcDbEntity
  8
SUNPOU
100
AcDbText
 10
1443.224636933687
 20
2725.987205548136
 30
0.0
 40
90.0
  1
2102
 50
90.0
 41
0.6666666666666666
  7
00
 72
     1
 11
1398.224636933687
 21
2840.27291983385
 31
0.0
100
AcDbText
 73
     2
  0
LINE
  5
1EAE0
330
1EA20
100
AcDbEntity
  8
SUNPOU
100
AcDbLine
 10
1793.685337829715
 20
3893.740775902097
 30
0.0
 11
1458.224636933687
 21
3893.740775902097
 31
0.0
  0
LINE
  5
1EAE1
330
1EA20
100
AcDbEntity
  8
SUNPOU
100
AcDbLine
 10
1458.224636933687
 20
3991.740775902098
 30
0.0
 11
1458.224636933687
 21
3991.740775902098
 31
0.0
  0
LINE
  5
1EAE2
330
1EA20
100
AcDbEntity
  8
SUNPOU
100
AcDbLine
 10
1488.224636933687
 20
3878.740775902097
 30
0.0
 11
1488.224636933687
 21
3863.740775902098
 31
0.0
  0
LINE
  5
1EAE3
330
1EA20
100
AcDbEntity
  8
SUNPOU
100
AcDbLine
 10
1488.224636933687
 20
4006.740775902097
 30
0.0
 11
1488.224636933687
 21
4021.740775902097
 31
0.0
  0
LINE
  5
1EAE4
330
1EA20
100
AcDbEntity
  8
SUNPOU
100
AcDbLine
 10
1488.224636933687
 20
3893.740775902097
 30
0.0
 11
1488.224636933687
 21
4121.583633044954
 31
0.0
  0
TEXT
  5
1EAE5
330
1EA20
100
AcDbEntity
  8
SUNPOU
100
AcDbText
 10
1443.224636933687
 20
4015.86934733067
 30
0.0
 40
90.0
  1
98
 50
90.0
 41
0.6666666666666666
  7
00
 72
     1
 11
1398.224636933687
 21
4073.012204473527
 31
0.0
100
AcDbText
 73
     2
  0
LINE
  5
1EAE6
330
1EA20
100
AcDbEntity
  8
SUNPOU
100
AcDbLine
 10
1787.647083943634
 20
4029.157457211571
 30
0.0
 11
1787.647083943634
 21
4741.740775902097
 31
0.0
  0
LINE
  5
1EAE7
330
1EA20
100
AcDbEntity
  8
SUNPOU
100
AcDbLine
 10
3787.647083943632
 20
3678.85443653376
 30
0.0
 11
3787.647083943632
 21
4741.740775902097
 31
0.0
  0
LINE
  5
1EAE8
330
1EA20
100
AcDbEntity
  8
SUNPOU
100
AcDbLine
 10
1802.647083943633
 20
4711.740775902097
 30
0.0
 11
3772.647083943633
 21
4711.740775902097
 31
0.0
  0
TEXT
  5
1EAE9
330
1EA20
100
AcDbEntity
  8
SUNPOU
100
AcDbText
 10
2673.361369657919
 20
4756.740775902096
 30
0.0
 40
90.0
  1
2000
 41
0.6666666666666666
  7
00
 72
     1
 11
2787.647083943633
 21
4801.740775902096
 31
0.0
100
AcDbText
 73
     2
  0
LINE
  5
1EAEA
330
1EA20
100
AcDbEntity
  8
SUNPOU
100
AcDbLine
 10
1787.647083943634
 20
4531.740775902097
 30
0.0
 11
1787.647083943634
 21
4531.740775902097
 31
0.0
  0
LINE
  5
1EAEB
330
1EA20
100
AcDbEntity
  8
SUNPOU
100
AcDbLine
 10
2802.647083943633
 20
3838.047672138151
 30
0.0
 11
2802.647083943633
 21
4531.740775902097
 31
0.0
  0
LINE
  5
1EAEC
330
1EA20
100
AcDbEntity
  8
SUNPOU
100
AcDbLine
 10
1802.647083943633
 20
4501.740775902097
 30
0.0
 11
2787.647083943633
 21
4501.740775902097
 31
0.0
  0
TEXT
  5
1EAED
330
1EA20
100
AcDbEntity
  8
SUNPOU
100
AcDbText
 10
2176.575655372205
 20
4546.740775902097
 30
0.0
 40
90.0
  1
1000
 41
0.6666666666666666
  7
00
 72
     1
 11
2295.147083943633
 21
4591.740775902097
 31
0.0
100
AcDbText
 73
     2
  0
LINE
  5
1EAEE
330
1EA20
100
AcDbEntity
  8
SUNPOU
100
AcDbLine
 10
2802.647083943633
 20
3838.047672138151
 30
0.0
 11
2802.647083943633
 21
4531.740775902097
 31
0.0
  0
LINE
  5
1EAEF
330
1EA20
100
AcDbEntity
  8
SUNPOU
100
AcDbLine
 10
3787.647083943632
 20
4531.740775902097
 30
0.0
 11
3787.647083943632
 21
4531.740775902097
 31
0.0
  0
LINE
  5
1EAF0
330
1EA20
100
AcDbEntity
  8
SUNPOU
100
AcDbLine
 10
2817.647083943633
 20
4501.740775902097
 30
0.0
 11
3772.647083943633
 21
4501.740775902097
 31
0.0
  0
TEXT
  5
1EAF1
330
1EA20
100
AcDbEntity
  8
SUNPOU
100
AcDbText
 10
3176.575655372204
 20
4546.740775902097
 30
0.0
 40
90.0
  1
1000
 41
0.6666666666666666
  7
00
 72
     1
 11
3295.147083943633
 21
4591.740775902097
 31
0.0
100
AcDbText
 73
     2
  0
LINE
  5
1EAF2
330
1EA20
100
AcDbEntity
  8
1PL-M1
100
AcDbLine
 10
7625.71885793243
 20
5502.014820159628
 30
0.0
 11
7625.71885793243
 21
7973.194632209916
 31
0.0
  0
LINE
  5
1EAF3
330
1EA20
100
AcDbEntity
  8
1PL-M1
100
AcDbLine
 10
4825.718857932429
 20
5502.014820159628
 30
0.0
 11
4825.71885793243
 21
7973.194632209916
 31
0.0
  0
LINE
  5
1EAF4
330
1EA20
100
AcDbEntity
  8
1PL-M1
100
AcDbLine
 10
10425.71885793242
 20
5502.014820159628
 30
0.0
 11
10425.71885793242
 21
7973.194632209916
 31
0.0
  0
LINE
  5
1EAF5
330
1EA20
100
AcDbEntity
  8
1PL-M1
100
AcDbLine
 10
2025.71885793243
 20
5502.014820159628
 30
0.0
 11
2025.71885793243
 21
7973.194632209916
 31
0.0
  0
LINE
  5
1EAF6
330
1EA20
100
AcDbEntity
  8
U1
100
AcDbLine
 10
10463.86885793243
 20
5527.014820159628
 30
0.0
 11
10463.86885793243
 21
7515.681077028259
 31
0.0
  0
LINE
  5
1EAF7
330
1EA20
100
AcDbEntity
  8
U1
100
AcDbLine
 10
10387.56885793243
 20
5527.014820159628
 30
0.0
 11
10387.56885793243
 21
7515.681077028259
 31
0.0
  0
CIRCLE
  5
1EAF8
330
1EA20
100
AcDbEntity
  8
HIDE-S1
100
AcDbCircle
 10
10425.71885793242
 20
7215.014820159627
 30
0.0
 40
30.25
  0
LINE
  5
1EAF9
330
1EA20
100
AcDbEntity
  8
CAP
100
AcDbLine
 10
10388.21885793242
 20
7548.152769638574
 30
0.0
 11
10463.21885793242
 21
7548.152769638574
 31
0.0
  0
LINE
  5
1EAFA
330
1EA20
100
AcDbEntity
  8
CAP
100
AcDbLine
 10
10388.21885793242
 20
7623.058634944813
 30
0.0
 11
10463.21885793242
 21
7623.058634944813
 31
0.0
  0
LINE
  5
1EAFB
330
1EA20
100
AcDbEntity
  8
CAP
100
AcDbLine
 10
10388.21885793242
 20
7623.058634944813
 30
0.0
 11
10388.21885793242
 21
7548.152769638574
 31
0.0
  0
LINE
  5
1EAFC
330
1EA20
100
AcDbEntity
  8
CAP
100
AcDbLine
 10
10463.21885793242
 20
7623.058634944813
 30
0.0
 11
10463.21885793242
 21
7548.152769638574
 31
0.0
  0
LINE
  5
1EAFD
330
1EA20
100
AcDbEntity
  8
U1
100
AcDbLine
 10
10392.41885793242
 20
7548.152769638574
 30
0.0
 11
10392.41885793242
 21
7518.881077028258
 31
0.0
  0
LINE
  5
1EAFE
330
1EA20
100
AcDbEntity
  8
U1
100
AcDbLine
 10
10392.41885793242
 20
7518.881077028258
 30
0.0
 11
10459.01885793242
 21
7518.881077028258
 31
0.0
  0
LINE
  5
1EAFF
330
1EA20
100
AcDbEntity
  8
U1
100
AcDbLine
 10
10459.01885793242
 20
7518.881077028258
 30
0.0
 11
10459.01885793242
 21
7548.152769638574
 31
0.0
  0
LINE
  5
1EB00
330
1EA20
100
AcDbEntity
  8
U1
100
AcDbLine
 10
10462.21885793242
 20
7548.152769638574
 30
0.0
 11
10462.21885793242
 21
7515.681077028259
 31
0.0
  0
LINE
  5
1EB01
330
1EA20
100
AcDbEntity
  8
U1
100
AcDbLine
 10
10463.86885793243
 20
7515.681077028259
 30
0.0
 11
10387.56885793243
 21
7515.681077028259
 31
0.0
  0
LINE
  5
1EB02
330
1EA20
100
AcDbEntity
  8
U1
100
AcDbLine
 10
10389.21885793242
 20
7515.681077028259
 30
0.0
 11
10389.21885793242
 21
7548.152769638574
 31
0.0
  0
LINE
  5
1EB03
330
1EA20
100
AcDbEntity
  8
U1
100
AcDbLine
 10
10393.21885793242
 20
7548.152769638574
 30
0.0
 11
10393.21885793242
 21
7518.881077028258
 31
0.0
  0
LINE
  5
1EB04
330
1EA20
100
AcDbEntity
  8
U1
100
AcDbLine
 10
10458.21885793241
 20
7548.152769638574
 30
0.0
 11
10458.21885793241
 21
7518.881077028258
 31
0.0
  0
CIRCLE
  5
1EB05
330
1EA20
100
AcDbEntity
  8
HIDE-S1
100
AcDbCircle
 10
7625.71885793243
 20
7215.014820159627
 30
0.0
 40
30.25
  0
LINE
  5
1EB06
330
1EA20
100
AcDbEntity
  8
U1
100
AcDbLine
 10
7662.21885793243
 20
7548.152769638574
 30
0.0
 11
7662.21885793243
 21
7515.681077028259
 31
0.0
  0
LINE
  5
1EB07
330
1EA20
100
AcDbEntity
  8
U1
100
AcDbLine
 10
7659.01885793243
 20
7518.881077028258
 30
0.0
 11
7659.01885793243
 21
7548.152769638574
 31
0.0
  0
LINE
  5
1EB08
330
1EA20
100
AcDbEntity
  8
U1
100
AcDbLine
 10
7589.218857932429
 20
7515.681077028259
 30
0.0
 11
7589.218857932429
 21
7548.152769638574
 31
0.0
  0
LINE
  5
1EB09
330
1EA20
100
AcDbEntity
  8
U1
100
AcDbLine
 10
7592.418857932432
 20
7548.152769638574
 30
0.0
 11
7592.418857932432
 21
7518.881077028258
 31
0.0
  0
LINE
  5
1EB0A
330
1EA20
100
AcDbEntity
  8
U1
100
AcDbLine
 10
7658.218857932431
 20
7548.152769638574
 30
0.0
 11
7658.218857932431
 21
7518.881077028258
 31
0.0
  0
LINE
  5
1EB0B
330
1EA20
100
AcDbEntity
  8
U1
100
AcDbLine
 10
7593.218857932432
 20
7548.152769638574
 30
0.0
 11
7593.218857932432
 21
7518.881077028258
 31
0.0
  0
LINE
  5
1EB0C
330
1EA20
100
AcDbEntity
  8
U1
100
AcDbLine
 10
7663.868857932431
 20
7515.681077028259
 30
0.0
 11
7587.56885793243
 21
7515.681077028259
 31
0.0
  0
LINE
  5
1EB0D
330
1EA20
100
AcDbEntity
  8
U1
100
AcDbLine
 10
7592.418857932432
 20
7518.881077028258
 30
0.0
 11
7659.01885793243
 21
7518.881077028258
 31
0.0
  0
LINE
  5
1EB0E
330
1EA20
100
AcDbEntity
  8
CAP
100
AcDbLine
 10
7588.218857932431
 20
7548.152769638574
 30
0.0
 11
7663.218857932431
 21
7548.152769638574
 31
0.0
  0
LINE
  5
1EB0F
330
1EA20
100
AcDbEntity
  8
CAP
100
AcDbLine
 10
7588.218857932431
 20
7623.058634944813
 30
0.0
 11
7663.218857932431
 21
7623.058634944813
 31
0.0
  0
LINE
  5
1EB10
330
1EA20
100
AcDbEntity
  8
CAP
100
AcDbLine
 10
7588.218857932431
 20
7623.058634944813
 30
0.0
 11
7588.218857932431
 21
7548.152769638574
 31
0.0
  0
LINE
  5
1EB11
330
1EA20
100
AcDbEntity
  8
CAP
100
AcDbLine
 10
7663.218857932431
 20
7623.058634944813
 30
0.0
 11
7663.218857932431
 21
7548.152769638574
 31
0.0
  0
LINE
  5
1EB12
330
1EA20
100
AcDbEntity
  8
U1
100
AcDbLine
 10
7663.868857932431
 20
5527.014820159628
 30
0.0
 11
7663.868857932431
 21
7515.681077028259
 31
0.0
  0
LINE
  5
1EB13
330
1EA20
100
AcDbEntity
  8
U1
100
AcDbLine
 10
7587.56885793243
 20
5527.014820159628
 30
0.0
 11
7587.56885793243
 21
7515.681077028259
 31
0.0
  0
CIRCLE
  5
1EB14
330
1EA20
100
AcDbEntity
  8
HIDE-S1
100
AcDbCircle
 10
4825.71885793243
 20
7215.014820159627
 30
0.0
 40
30.25
  0
LINE
  5
1EB15
330
1EA20
100
AcDbEntity
  8
U1
100
AcDbLine
 10
4862.21885793243
 20
7548.152769638574
 30
0.0
 11
4862.21885793243
 21
7515.681077028265
 31
0.0
  0
LINE
  5
1EB16
330
1EA20
100
AcDbEntity
  8
U1
100
AcDbLine
 10
4859.018857932429
 20
7518.881077028265
 30
0.0
 11
4859.018857932429
 21
7548.152769638574
 31
0.0
  0
LINE
  5
1EB17
330
1EA20
100
AcDbEntity
  8
U1
100
AcDbLine
 10
4789.21885793243
 20
7515.681077028265
 30
0.0
 11
4789.21885793243
 21
7548.152769638574
 31
0.0
  0
LINE
  5
1EB18
330
1EA20
100
AcDbEntity
  8
U1
100
AcDbLine
 10
4792.41885793243
 20
7548.152769638574
 30
0.0
 11
4792.41885793243
 21
7518.881077028265
 31
0.0
  0
LINE
  5
1EB19
330
1EA20
100
AcDbEntity
  8
U1
100
AcDbLine
 10
4858.21885793243
 20
7548.152769638578
 30
0.0
 11
4858.21885793243
 21
7518.881077028265
 31
0.0
  0
LINE
  5
1EB1A
330
1EA20
100
AcDbEntity
  8
U1
100
AcDbLine
 10
4793.21885793243
 20
7548.152769638578
 30
0.0
 11
4793.21885793243
 21
7518.881077028265
 31
0.0
  0
LINE
  5
1EB1B
330
1EA20
100
AcDbEntity
  8
U1
100
AcDbLine
 10
4863.86885793243
 20
7515.681077028265
 30
0.0
 11
4787.56885793243
 21
7515.681077028265
 31
0.0
  0
LINE
  5
1EB1C
330
1EA20
100
AcDbEntity
  8
U1
100
AcDbLine
 10
4792.41885793243
 20
7518.881077028265
 30
0.0
 11
4859.018857932429
 21
7518.881077028265
 31
0.0
  0
LINE
  5
1EB1D
330
1EA20
100
AcDbEntity
  8
CAP
100
AcDbLine
 10
4788.218857932429
 20
7548.152769638578
 30
0.0
 11
4863.21885793243
 21
7548.152769638578
 31
0.0
  0
LINE
  5
1EB1E
330
1EA20
100
AcDbEntity
  8
CAP
100
AcDbLine
 10
4788.218857932429
 20
7623.058634944816
 30
0.0
 11
4863.21885793243
 21
7623.058634944816
 31
0.0
  0
LINE
  5
1EB1F
330
1EA20
100
AcDbEntity
  8
CAP
100
AcDbLine
 10
4788.218857932429
 20
7623.058634944816
 30
0.0
 11
4788.218857932429
 21
7548.152769638578
 31
0.0
  0
LINE
  5
1EB20
330
1EA20
100
AcDbEntity
  8
CAP
100
AcDbLine
 10
4863.21885793243
 20
7623.058634944816
 30
0.0
 11
4863.21885793243
 21
7548.152769638578
 31
0.0
  0
LINE
  5
1EB21
330
1EA20
100
AcDbEntity
  8
U1
100
AcDbLine
 10
4863.868857932432
 20
5527.014820159628
 30
0.0
 11
4863.868857932432
 21
7515.681077028268
 31
0.0
  0
LINE
  5
1EB22
330
1EA20
100
AcDbEntity
  8
U1
100
AcDbLine
 10
4787.568857932432
 20
5527.014820159628
 30
0.0
 11
4787.56885793243
 21
7515.681077028268
 31
0.0
  0
CIRCLE
  5
1EB23
330
1EA20
100
AcDbEntity
  8
HIDE-S1
100
AcDbCircle
 10
2025.71885793243
 20
7215.014820159627
 30
0.0
 40
30.25
  0
LINE
  5
1EB24
330
1EA20
100
AcDbEntity
  8
U1
100
AcDbLine
 10
2062.218857932431
 20
7548.152769638574
 30
0.0
 11
2062.218857932431
 21
7515.681077028259
 31
0.0
  0
LINE
  5
1EB25
330
1EA20
100
AcDbEntity
  8
U1
100
AcDbLine
 10
2059.018857932429
 20
7518.881077028265
 30
0.0
 11
2059.018857932429
 21
7548.152769638574
 31
0.0
  0
LINE
  5
1EB26
330
1EA20
100
AcDbEntity
  8
U1
100
AcDbLine
 10
1989.21885793243
 20
7515.681077028259
 30
0.0
 11
1989.21885793243
 21
7548.152769638574
 31
0.0
  0
LINE
  5
1EB27
330
1EA20
100
AcDbEntity
  8
U1
100
AcDbLine
 10
1992.41885793243
 20
7548.152769638574
 30
0.0
 11
1992.41885793243
 21
7518.881077028265
 31
0.0
  0
LINE
  5
1EB28
330
1EA20
100
AcDbEntity
  8
U1
100
AcDbLine
 10
2058.21885793243
 20
7548.152769638574
 30
0.0
 11
2058.21885793243
 21
7518.881077028265
 31
0.0
  0
LINE
  5
1EB29
330
1EA20
100
AcDbEntity
  8
U1
100
AcDbLine
 10
1993.218857932428
 20
7548.152769638574
 30
0.0
 11
1993.218857932428
 21
7518.881077028265
 31
0.0
  0
LINE
  5
1EB2A
330
1EA20
100
AcDbEntity
  8
U1
100
AcDbLine
 10
2063.868857932429
 20
7515.681077028259
 30
0.0
 11
1987.568857932432
 21
7515.681077028259
 31
0.0
  0
LINE
  5
1EB2B
330
1EA20
100
AcDbEntity
  8
U1
100
AcDbLine
 10
1992.41885793243
 20
7518.881077028265
 30
0.0
 11
2059.018857932429
 21
7518.881077028265
 31
0.0
  0
LINE
  5
1EB2C
330
1EA20
100
AcDbEntity
  8
CAP
100
AcDbLine
 10
1988.218857932428
 20
7548.152769638574
 30
0.0
 11
2063.218857932429
 21
7548.152769638574
 31
0.0
  0
LINE
  5
1EB2D
330
1EA20
100
AcDbEntity
  8
CAP
100
AcDbLine
 10
1988.218857932428
 20
7623.058634944813
 30
0.0
 11
2063.218857932429
 21
7623.058634944816
 31
0.0
  0
LINE
  5
1EB2E
330
1EA20
100
AcDbEntity
  8
CAP
100
AcDbLine
 10
1988.218857932428
 20
7623.058634944816
 30
0.0
 11
1988.218857932428
 21
7548.152769638578
 31
0.0
  0
LINE
  5
1EB2F
330
1EA20
100
AcDbEntity
  8
CAP
100
AcDbLine
 10
2063.218857932429
 20
7623.058634944816
 30
0.0
 11
2063.218857932429
 21
7548.152769638578
 31
0.0
  0
LINE
  5
1EB30
330
1EA20
100
AcDbEntity
  8
U1
100
AcDbLine
 10
2063.868857932433
 20
5527.014820159628
 30
0.0
 11
2063.868857932433
 21
7515.681077028265
 31
0.0
  0
LINE
  5
1EB31
330
1EA20
100
AcDbEntity
  8
U1
100
AcDbLine
 10
1987.568857932432
 20
5527.014820159628
 30
0.0
 11
1987.568857932432
 21
7515.681077028265
 31
0.0
  0
LINE
  5
1EB32
330
1EA20
100
AcDbEntity
  8
TOI
100
AcDbLine
 10
10660.71885793242
 20
7347.904358487092
 30
0.0
 11
10463.86885793243
 21
7347.904358487092
 31
0.0
  0
LINE
  5
1EB33
330
1EA20
100
AcDbEntity
  8
TOI
100
AcDbLine
 10
1790.71885793243
 20
7347.904358487092
 30
0.0
 11
1987.568857932432
 21
7347.904358487092
 31
0.0
  0
LINE
  5
1EB34
330
1EA20
100
AcDbEntity
  8
TOI
100
AcDbLine
 10
7587.56885793243
 20
7347.904358487092
 30
0.0
 11
6265.71885793243
 21
7347.904358487092
 31
0.0
  0
LINE
  5
1EB35
330
1EA20
100
AcDbEntity
  8
TOI
100
AcDbLine
 10
6185.718857932429
 20
7347.904358487092
 30
0.0
 11
4863.868857932432
 21
7347.904358487092
 31
0.0
  0
LINE
  5
1EB36
330
1EA20
100
AcDbEntity
  8
TOI
100
AcDbLine
 10
10387.56885793243
 20
7347.904358487092
 30
0.0
 11
7663.868857932431
 21
7347.904358487092
 31
0.0
  0
LINE
  5
1EB37
330
1EA20
100
AcDbEntity
  8
TOI
100
AcDbLine
 10
2063.868857932432
 20
7347.904358487092
 30
0.0
 11
4787.56885793243
 21
7347.904358487092
 31
0.0
  0
LINE
  5
1EB38
330
1EA20
100
AcDbEntity
  8
YANE
100
AcDbLine
 10
10486.76885793242
 20
7408.502162099155
 30
0.0
 11
10486.76885793242
 21
7587.508122720166
 31
0.0
  0
LINE
  5
1EB39
330
1EA20
100
AcDbEntity
  8
YANE
100
AcDbLine
 10
10513.76885793242
 20
7408.502162099155
 30
0.0
 11
10513.76885793242
 21
7587.508122720166
 31
0.0
  0
LINE
  5
1EB3A
330
1EA20
100
AcDbEntity
  8
YANE
100
AcDbLine
 10
10470.11885793243
 20
7408.502162099155
 30
0.0
 11
10470.11885793243
 21
7587.508122720166
 31
0.0
  0
LINE
  5
1EB3B
330
1EA20
100
AcDbEntity
  8
YANE
100
AcDbLine
 10
10530.41885793242
 20
7408.502162099155
 30
0.0
 11
10530.41885793242
 21
7587.508122720166
 31
0.0
  0
LINE
  5
1EB3C
330
1EA20
100
AcDbEntity
  8
YANE
100
AcDbLine
 10
10603.41885793242
 20
7408.502162099155
 30
0.0
 11
10603.41885793242
 21
7587.508122720166
 31
0.0
  0
LINE
  5
1EB3D
330
1EA20
100
AcDbEntity
  8
YANE
100
AcDbLine
 10
10620.06885793243
 20
7408.502162099155
 30
0.0
 11
10620.06885793243
 21
7587.508122720166
 31
0.0
  0
LINE
  5
1EB3E
330
1EA20
100
AcDbEntity
  8
YANE
100
AcDbLine
 10
10647.06885793243
 20
7408.502162099155
 30
0.0
 11
10647.06885793243
 21
7587.508122720166
 31
0.0
  0
LINE
  5
1EB3F
330
1EA20
100
AcDbEntity
  8
YANE
100
AcDbLine
 10
10336.81885793243
 20
7408.502162099155
 30
0.0
 11
10336.81885793243
 21
7587.508122720166
 31
0.0
  0
LINE
  5
1EB40
330
1EA20
100
AcDbEntity
  8
YANE
100
AcDbLine
 10
10353.46885793242
 20
7408.502162099155
 30
0.0
 11
10353.46885793242
 21
7587.508122720166
 31
0.0
  0
LINE
  5
1EB41
330
1EA20
100
AcDbEntity
  8
YANE
100
AcDbLine
 10
10380.46885793242
 20
7408.502162099155
 30
0.0
 11
10380.46885793242
 21
7587.508122720166
 31
0.0
  0
LINE
  5
1EB42
330
1EA20
100
AcDbEntity
  8
YANE
100
AcDbLine
 10
10203.51885793242
 20
7408.502162099155
 30
0.0
 11
10203.51885793242
 21
7587.508122720166
 31
0.0
  0
LINE
  5
1EB43
330
1EA20
100
AcDbEntity
  8
YANE
100
AcDbLine
 10
10220.16885793242
 20
7408.502162099155
 30
0.0
 11
10220.16885793242
 21
7587.508122720166
 31
0.0
  0
LINE
  5
1EB44
330
1EA20
100
AcDbEntity
  8
YANE
100
AcDbLine
 10
10247.16885793242
 20
7408.502162099155
 30
0.0
 11
10247.16885793242
 21
7587.508122720166
 31
0.0
  0
LINE
  5
1EB45
330
1EA20
100
AcDbEntity
  8
YANE
100
AcDbLine
 10
10263.81885793243
 20
7408.502162099155
 30
0.0
 11
10263.81885793243
 21
7587.508122720166
 31
0.0
  0
LINE
  5
1EB46
330
1EA20
100
AcDbEntity
  8
YANE
100
AcDbLine
 10
10070.21885793242
 20
7408.502162099155
 30
0.0
 11
10070.21885793242
 21
7587.508122720166
 31
0.0
  0
LINE
  5
1EB47
330
1EA20
100
AcDbEntity
  8
YANE
100
AcDbLine
 10
10086.86885793242
 20
7408.502162099155
 30
0.0
 11
10086.86885793242
 21
7587.508122720166
 31
0.0
  0
LINE
  5
1EB48
330
1EA20
100
AcDbEntity
  8
YANE
100
AcDbLine
 10
10113.86885793243
 20
7408.502162099155
 30
0.0
 11
10113.86885793243
 21
7587.508122720166
 31
0.0
  0
LINE
  5
1EB49
330
1EA20
100
AcDbEntity
  8
YANE
100
AcDbLine
 10
10130.51885793242
 20
7408.502162099155
 30
0.0
 11
10130.51885793242
 21
7587.508122720166
 31
0.0
  0
LINE
  5
1EB4A
330
1EA20
100
AcDbEntity
  8
YANE
100
AcDbLine
 10
9936.918857932427
 20
7408.502162099155
 30
0.0
 11
9936.918857932427
 21
7587.508122720166
 31
0.0
  0
LINE
  5
1EB4B
330
1EA20
100
AcDbEntity
  8
YANE
100
AcDbLine
 10
9953.568857932429
 20
7408.502162099155
 30
0.0
 11
9953.568857932429
 21
7587.508122720166
 31
0.0
  0
LINE
  5
1EB4C
330
1EA20
100
AcDbEntity
  8
YANE
100
AcDbLine
 10
9980.568857932428
 20
7408.502162099155
 30
0.0
 11
9980.568857932428
 21
7587.508122720166
 31
0.0
  0
LINE
  5
1EB4D
330
1EA20
100
AcDbEntity
  8
YANE
100
AcDbLine
 10
9997.218857932429
 20
7408.502162099155
 30
0.0
 11
9997.218857932429
 21
7587.508122720166
 31
0.0
  0
LINE
  5
1EB4E
330
1EA20
100
AcDbEntity
  8
YANE
100
AcDbLine
 10
9803.618857932438
 20
7408.502162099155
 30
0.0
 11
9803.618857932438
 21
7587.508122720166
 31
0.0
  0
LINE
  5
1EB4F
330
1EA20
100
AcDbEntity
  8
YANE
100
AcDbLine
 10
9820.268857932433
 20
7408.502162099155
 30
0.0
 11
9820.268857932433
 21
7587.508122720166
 31
0.0
  0
LINE
  5
1EB50
330
1EA20
100
AcDbEntity
  8
YANE
100
AcDbLine
 10
9847.268857932437
 20
7408.502162099155
 30
0.0
 11
9847.268857932437
 21
7587.508122720166
 31
0.0
  0
LINE
  5
1EB51
330
1EA20
100
AcDbEntity
  8
YANE
100
AcDbLine
 10
9863.918857932432
 20
7408.502162099155
 30
0.0
 11
9863.918857932432
 21
7587.508122720166
 31
0.0
  0
LINE
  5
1EB52
330
1EA20
100
AcDbEntity
  8
YANE
100
AcDbLine
 10
9670.318857932436
 20
7408.502162099155
 30
0.0
 11
9670.318857932436
 21
7587.508122720166
 31
0.0
  0
LINE
  5
1EB53
330
1EA20
100
AcDbEntity
  8
YANE
100
AcDbLine
 10
9686.968857932436
 20
7408.502162099155
 30
0.0
 11
9686.968857932436
 21
7587.508122720166
 31
0.0
  0
LINE
  5
1EB54
330
1EA20
100
AcDbEntity
  8
YANE
100
AcDbLine
 10
9713.968857932435
 20
7408.502162099155
 30
0.0
 11
9713.968857932435
 21
7587.508122720166
 31
0.0
  0
LINE
  5
1EB55
330
1EA20
100
AcDbEntity
  8
YANE
100
AcDbLine
 10
9730.618857932432
 20
7408.502162099155
 30
0.0
 11
9730.618857932432
 21
7587.508122720166
 31
0.0
  0
LINE
  5
1EB56
330
1EA20
100
AcDbEntity
  8
YANE
100
AcDbLine
 10
9537.018857932435
 20
7408.502162099155
 30
0.0
 11
9537.018857932435
 21
7587.508122720166
 31
0.0
  0
LINE
  5
1EB57
330
1EA20
100
AcDbEntity
  8
YANE
100
AcDbLine
 10
9553.668857932438
 20
7408.502162099155
 30
0.0
 11
9553.668857932438
 21
7587.508122720166
 31
0.0
  0
LINE
  5
1EB58
330
1EA20
100
AcDbEntity
  8
YANE
100
AcDbLine
 10
9580.668857932437
 20
7408.502162099155
 30
0.0
 11
9580.668857932437
 21
7587.508122720166
 31
0.0
  0
LINE
  5
1EB59
330
1EA20
100
AcDbEntity
  8
YANE
100
AcDbLine
 10
9597.318857932433
 20
7408.502162099155
 30
0.0
 11
9597.318857932433
 21
7587.508122720166
 31
0.0
  0
LINE
  5
1EB5A
330
1EA20
100
AcDbEntity
  8
YANE
100
AcDbLine
 10
9403.718857932437
 20
7408.502162099155
 30
0.0
 11
9403.718857932437
 21
7587.508122720166
 31
0.0
  0
LINE
  5
1EB5B
330
1EA20
100
AcDbEntity
  8
YANE
100
AcDbLine
 10
9420.368857932437
 20
7408.502162099155
 30
0.0
 11
9420.368857932437
 21
7587.508122720166
 31
0.0
  0
LINE
  5
1EB5C
330
1EA20
100
AcDbEntity
  8
YANE
100
AcDbLine
 10
9447.368857932437
 20
7408.502162099155
 30
0.0
 11
9447.368857932437
 21
7587.508122720166
 31
0.0
  0
LINE
  5
1EB5D
330
1EA20
100
AcDbEntity
  8
YANE
100
AcDbLine
 10
9464.018857932437
 20
7408.502162099155
 30
0.0
 11
9464.018857932437
 21
7587.508122720166
 31
0.0
  0
LINE
  5
1EB5E
330
1EA20
100
AcDbEntity
  8
YANE
100
AcDbLine
 10
9270.418857932439
 20
7408.502162099155
 30
0.0
 11
9270.418857932437
 21
7587.508122720166
 31
0.0
  0
LINE
  5
1EB5F
330
1EA20
100
AcDbEntity
  8
YANE
100
AcDbLine
 10
9287.068857932437
 20
7408.502162099155
 30
0.0
 11
9287.068857932437
 21
7587.508122720166
 31
0.0
  0
LINE
  5
1EB60
330
1EA20
100
AcDbEntity
  8
YANE
100
AcDbLine
 10
9314.068857932436
 20
7408.502162099155
 30
0.0
 11
9314.068857932436
 21
7587.508122720166
 31
0.0
  0
LINE
  5
1EB61
330
1EA20
100
AcDbEntity
  8
YANE
100
AcDbLine
 10
9330.71885793243
 20
7408.502162099155
 30
0.0
 11
9330.71885793243
 21
7587.508122720166
 31
0.0
  0
LINE
  5
1EB62
330
1EA20
100
AcDbEntity
  8
YANE
100
AcDbLine
 10
9137.11885793244
 20
7408.502162099155
 30
0.0
 11
9137.11885793244
 21
7587.508122720166
 31
0.0
  0
LINE
  5
1EB63
330
1EA20
100
AcDbEntity
  8
YANE
100
AcDbLine
 10
9153.768857932439
 20
7408.502162099155
 30
0.0
 11
9153.768857932439
 21
7587.508122720166
 31
0.0
  0
LINE
  5
1EB64
330
1EA20
100
AcDbEntity
  8
YANE
100
AcDbLine
 10
9180.768857932436
 20
7408.502162099155
 30
0.0
 11
9180.768857932436
 21
7587.508122720166
 31
0.0
  0
LINE
  5
1EB65
330
1EA20
100
AcDbEntity
  8
YANE
100
AcDbLine
 10
9197.418857932436
 20
7408.502162099155
 30
0.0
 11
9197.418857932436
 21
7587.508122720166
 31
0.0
  0
LINE
  5
1EB66
330
1EA20
100
AcDbEntity
  8
YANE
100
AcDbLine
 10
9003.818857932442
 20
7408.502162099155
 30
0.0
 11
9003.818857932435
 21
7587.508122720166
 31
0.0
  0
LINE
  5
1EB67
330
1EA20
100
AcDbEntity
  8
YANE
100
AcDbLine
 10
9020.46885793244
 20
7408.502162099155
 30
0.0
 11
9020.46885793244
 21
7587.508122720166
 31
0.0
  0
LINE
  5
1EB68
330
1EA20
100
AcDbEntity
  8
YANE
100
AcDbLine
 10
9047.46885793244
 20
7408.502162099155
 30
0.0
 11
9047.46885793244
 21
7587.508122720166
 31
0.0
  0
LINE
  5
1EB69
330
1EA20
100
AcDbEntity
  8
YANE
100
AcDbLine
 10
9064.118857932438
 20
7408.502162099155
 30
0.0
 11
9064.118857932438
 21
7587.508122720166
 31
0.0
  0
LINE
  5
1EB6A
330
1EA20
100
AcDbEntity
  8
YANE
100
AcDbLine
 10
8870.518857932443
 20
7408.502162099155
 30
0.0
 11
8870.518857932438
 21
7587.508122720166
 31
0.0
  0
LINE
  5
1EB6B
330
1EA20
100
AcDbEntity
  8
YANE
100
AcDbLine
 10
8887.16885793244
 20
7408.502162099155
 30
0.0
 11
8887.16885793244
 21
7587.508122720166
 31
0.0
  0
LINE
  5
1EB6C
330
1EA20
100
AcDbEntity
  8
YANE
100
AcDbLine
 10
8914.168857932438
 20
7408.502162099155
 30
0.0
 11
8914.168857932438
 21
7587.508122720166
 31
0.0
  0
LINE
  5
1EB6D
330
1EA20
100
AcDbEntity
  8
YANE
100
AcDbLine
 10
8930.818857932436
 20
7408.502162099155
 30
0.0
 11
8930.818857932436
 21
7587.508122720166
 31
0.0
  0
LINE
  5
1EB6E
330
1EA20
100
AcDbEntity
  8
YANE
100
AcDbLine
 10
8737.218857932441
 20
7408.502162099155
 30
0.0
 11
8737.218857932438
 21
7587.508122720166
 31
0.0
  0
LINE
  5
1EB6F
330
1EA20
100
AcDbEntity
  8
YANE
100
AcDbLine
 10
8753.868857932442
 20
7408.502162099155
 30
0.0
 11
8753.868857932442
 21
7587.508122720166
 31
0.0
  0
LINE
  5
1EB70
330
1EA20
100
AcDbEntity
  8
YANE
100
AcDbLine
 10
8780.868857932441
 20
7408.502162099155
 30
0.0
 11
8780.868857932441
 21
7587.508122720166
 31
0.0
  0
LINE
  5
1EB71
330
1EA20
100
AcDbEntity
  8
YANE
100
AcDbLine
 10
8797.518857932438
 20
7408.502162099155
 30
0.0
 11
8797.518857932438
 21
7587.508122720166
 31
0.0
  0
LINE
  5
1EB72
330
1EA20
100
AcDbEntity
  8
YANE
100
AcDbLine
 10
8664.218857932437
 20
7408.502162099155
 30
0.0
 11
8664.218857932437
 21
7587.508122720166
 31
0.0
  0
LINE
  5
1EB73
330
1EA20
100
AcDbEntity
  8
YANE
100
AcDbLine
 10
8647.568857932441
 20
7408.502162099155
 30
0.0
 11
8647.568857932441
 21
7587.508122720166
 31
0.0
  0
LINE
  5
1EB74
330
1EA20
100
AcDbEntity
  8
YANE
100
AcDbLine
 10
8620.568857932441
 20
7408.502162099155
 30
0.0
 11
8620.568857932441
 21
7587.508122720166
 31
0.0
  0
LINE
  5
1EB75
330
1EA20
100
AcDbEntity
  8
YANE
100
AcDbLine
 10
8603.918857932441
 20
7408.502162099155
 30
0.0
 11
8603.918857932439
 21
7587.508122720166
 31
0.0
  0
LINE
  5
1EB76
330
1EA20
100
AcDbEntity
  8
YANE
100
AcDbLine
 10
8530.918857932439
 20
7408.502162099155
 30
0.0
 11
8530.918857932439
 21
7587.508122720166
 31
0.0
  0
LINE
  5
1EB77
330
1EA20
100
AcDbEntity
  8
YANE
100
AcDbLine
 10
8514.268857932441
 20
7408.502162099155
 30
0.0
 11
8514.268857932441
 21
7587.508122720166
 31
0.0
  0
LINE
  5
1EB78
330
1EA20
100
AcDbEntity
  8
YANE
100
AcDbLine
 10
8487.26885793244
 20
7408.502162099155
 30
0.0
 11
8487.26885793244
 21
7587.508122720166
 31
0.0
  0
LINE
  5
1EB79
330
1EA20
100
AcDbEntity
  8
YANE
100
AcDbLine
 10
8470.618857932441
 20
7408.502162099155
 30
0.0
 11
8470.618857932441
 21
7587.508122720166
 31
0.0
  0
LINE
  5
1EB7A
330
1EA20
100
AcDbEntity
  8
YANE
100
AcDbLine
 10
8397.618857932441
 20
7408.502162099155
 30
0.0
 11
8397.618857932441
 21
7587.508122720166
 31
0.0
  0
LINE
  5
1EB7B
330
1EA20
100
AcDbEntity
  8
YANE
100
AcDbLine
 10
8380.968857932442
 20
7408.502162099155
 30
0.0
 11
8380.968857932442
 21
7587.508122720166
 31
0.0
  0
LINE
  5
1EB7C
330
1EA20
100
AcDbEntity
  8
YANE
100
AcDbLine
 10
8353.968857932441
 20
7408.502162099155
 30
0.0
 11
8353.968857932441
 21
7587.508122720166
 31
0.0
  0
LINE
  5
1EB7D
330
1EA20
100
AcDbEntity
  8
YANE
100
AcDbLine
 10
8337.318857932437
 20
7408.502162099155
 30
0.0
 11
8337.318857932437
 21
7587.508122720166
 31
0.0
  0
LINE
  5
1EB7E
330
1EA20
100
AcDbEntity
  8
YANE
100
AcDbLine
 10
8264.318857932437
 20
7408.502162099155
 30
0.0
 11
8264.318857932437
 21
7587.508122720166
 31
0.0
  0
LINE
  5
1EB7F
330
1EA20
100
AcDbEntity
  8
YANE
100
AcDbLine
 10
8247.66885793244
 20
7408.502162099155
 30
0.0
 11
8247.66885793244
 21
7587.508122720166
 31
0.0
  0
LINE
  5
1EB80
330
1EA20
100
AcDbEntity
  8
YANE
100
AcDbLine
 10
8220.668857932443
 20
7408.502162099155
 30
0.0
 11
8220.668857932443
 21
7587.508122720166
 31
0.0
  0
LINE
  5
1EB81
330
1EA20
100
AcDbEntity
  8
YANE
100
AcDbLine
 10
8204.018857932441
 20
7408.502162099155
 30
0.0
 11
8204.018857932439
 21
7587.508122720166
 31
0.0
  0
LINE
  5
1EB82
330
1EA20
100
AcDbEntity
  8
YANE
100
AcDbLine
 10
8131.018857932437
 20
7408.502162099155
 30
0.0
 11
8131.018857932437
 21
7587.508122720166
 31
0.0
  0
LINE
  5
1EB83
330
1EA20
100
AcDbEntity
  8
YANE
100
AcDbLine
 10
8114.368857932445
 20
7408.502162099155
 30
0.0
 11
8114.368857932445
 21
7587.508122720166
 31
0.0
  0
LINE
  5
1EB84
330
1EA20
100
AcDbEntity
  8
YANE
100
AcDbLine
 10
8087.368857932442
 20
7408.502162099155
 30
0.0
 11
8087.368857932442
 21
7587.508122720166
 31
0.0
  0
LINE
  5
1EB85
330
1EA20
100
AcDbEntity
  8
YANE
100
AcDbLine
 10
8070.71885793244
 20
7408.502162099155
 30
0.0
 11
8070.71885793244
 21
7587.508122720166
 31
0.0
  0
LINE
  5
1EB86
330
1EA20
100
AcDbEntity
  8
YANE
100
AcDbLine
 10
7997.718857932437
 20
7408.502162099155
 30
0.0
 11
7997.718857932437
 21
7587.508122720166
 31
0.0
  0
LINE
  5
1EB87
330
1EA20
100
AcDbEntity
  8
YANE
100
AcDbLine
 10
7981.068857932442
 20
7408.502162099155
 30
0.0
 11
7981.068857932438
 21
7587.508122720166
 31
0.0
  0
LINE
  5
1EB88
330
1EA20
100
AcDbEntity
  8
YANE
100
AcDbLine
 10
7954.068857932441
 20
7408.502162099155
 30
0.0
 11
7954.068857932441
 21
7587.508122720166
 31
0.0
  0
LINE
  5
1EB89
330
1EA20
100
AcDbEntity
  8
YANE
100
AcDbLine
 10
7937.418857932438
 20
7408.502162099155
 30
0.0
 11
7937.418857932438
 21
7587.508122720166
 31
0.0
  0
LINE
  5
1EB8A
330
1EA20
100
AcDbEntity
  8
YANE
100
AcDbLine
 10
7864.418857932438
 20
7408.502162099155
 30
0.0
 11
7864.418857932438
 21
7587.508122720166
 31
0.0
  0
LINE
  5
1EB8B
330
1EA20
100
AcDbEntity
  8
YANE
100
AcDbLine
 10
7847.76885793244
 20
7408.502162099155
 30
0.0
 11
7847.76885793244
 21
7587.508122720166
 31
0.0
  0
LINE
  5
1EB8C
330
1EA20
100
AcDbEntity
  8
YANE
100
AcDbLine
 10
7820.768857932441
 20
7408.502162099155
 30
0.0
 11
7820.768857932441
 21
7587.508122720166
 31
0.0
  0
LINE
  5
1EB8D
330
1EA20
100
AcDbEntity
  8
YANE
100
AcDbLine
 10
7804.11885793244
 20
7408.502162099155
 30
0.0
 11
7804.11885793244
 21
7587.508122720166
 31
0.0
  0
LINE
  5
1EB8E
330
1EA20
100
AcDbEntity
  8
YANE
100
AcDbLine
 10
7731.118857932438
 20
7408.502162099155
 30
0.0
 11
7731.118857932438
 21
7587.508122720166
 31
0.0
  0
LINE
  5
1EB8F
330
1EA20
100
AcDbEntity
  8
YANE
100
AcDbLine
 10
7714.468857932441
 20
7408.502162099155
 30
0.0
 11
7714.468857932441
 21
7587.508122720166
 31
0.0
  0
LINE
  5
1EB90
330
1EA20
100
AcDbEntity
  8
YANE
100
AcDbLine
 10
7687.468857932443
 20
7408.502162099155
 30
0.0
 11
7687.468857932443
 21
7587.508122720166
 31
0.0
  0
LINE
  5
1EB91
330
1EA20
100
AcDbEntity
  8
YANE
100
AcDbLine
 10
7670.818857932442
 20
7408.502162099155
 30
0.0
 11
7670.818857932442
 21
7587.508122720166
 31
0.0
  0
LINE
  5
1EB92
330
1EA20
100
AcDbEntity
  8
YANE
100
AcDbLine
 10
7581.168857932438
 20
7408.502162099155
 30
0.0
 11
7581.168857932438
 21
7587.508122720166
 31
0.0
  0
LINE
  5
1EB93
330
1EA20
100
AcDbEntity
  8
YANE
100
AcDbLine
 10
7554.168857932438
 20
7408.502162099155
 30
0.0
 11
7554.168857932438
 21
7587.508122720166
 31
0.0
  0
LINE
  5
1EB94
330
1EA20
100
AcDbEntity
  8
YANE
100
AcDbLine
 10
7537.518857932443
 20
7408.502162099155
 30
0.0
 11
7537.51885793244
 21
7587.508122720166
 31
0.0
  0
LINE
  5
1EB95
330
1EA20
100
AcDbEntity
  8
YANE
100
AcDbLine
 10
7464.518857932438
 20
7408.502162099155
 30
0.0
 11
7464.518857932438
 21
7587.508122720166
 31
0.0
  0
LINE
  5
1EB96
330
1EA20
100
AcDbEntity
  8
YANE
100
AcDbLine
 10
7447.86885793244
 20
7408.502162099155
 30
0.0
 11
7447.86885793244
 21
7587.508122720166
 31
0.0
  0
LINE
  5
1EB97
330
1EA20
100
AcDbEntity
  8
YANE
100
AcDbLine
 10
7420.86885793244
 20
7408.502162099155
 30
0.0
 11
7420.86885793244
 21
7587.508122720166
 31
0.0
  0
LINE
  5
1EB98
330
1EA20
100
AcDbEntity
  8
YANE
100
AcDbLine
 10
7404.218857932441
 20
7408.502162099155
 30
0.0
 11
7404.218857932441
 21
7587.508122720166
 31
0.0
  0
LINE
  5
1EB99
330
1EA20
100
AcDbEntity
  8
YANE
100
AcDbLine
 10
7331.218857932437
 20
7408.502162099155
 30
0.0
 11
7331.218857932437
 21
7587.508122720166
 31
0.0
  0
LINE
  5
1EB9A
330
1EA20
100
AcDbEntity
  8
YANE
100
AcDbLine
 10
7314.568857932441
 20
7408.502162099155
 30
0.0
 11
7314.568857932441
 21
7587.508122720166
 31
0.0
  0
LINE
  5
1EB9B
330
1EA20
100
AcDbEntity
  8
YANE
100
AcDbLine
 10
7287.56885793244
 20
7408.502162099155
 30
0.0
 11
7287.56885793244
 21
7587.508122720166
 31
0.0
  0
LINE
  5
1EB9C
330
1EA20
100
AcDbEntity
  8
YANE
100
AcDbLine
 10
7270.918857932439
 20
7408.502162099155
 30
0.0
 11
7270.918857932439
 21
7587.508122720166
 31
0.0
  0
LINE
  5
1EB9D
330
1EA20
100
AcDbEntity
  8
YANE
100
AcDbLine
 10
7197.918857932439
 20
7408.502162099155
 30
0.0
 11
7197.918857932439
 21
7587.508122720166
 31
0.0
  0
LINE
  5
1EB9E
330
1EA20
100
AcDbEntity
  8
YANE
100
AcDbLine
 10
7181.268857932443
 20
7408.502162099155
 30
0.0
 11
7181.268857932443
 21
7587.508122720166
 31
0.0
  0
LINE
  5
1EB9F
330
1EA20
100
AcDbEntity
  8
YANE
100
AcDbLine
 10
7154.26885793244
 20
7408.502162099155
 30
0.0
 11
7154.26885793244
 21
7587.508122720166
 31
0.0
  0
LINE
  5
1EBA0
330
1EA20
100
AcDbEntity
  8
YANE
100
AcDbLine
 10
7137.618857932442
 20
7408.502162099155
 30
0.0
 11
7137.618857932436
 21
7587.508122720166
 31
0.0
  0
LINE
  5
1EBA1
330
1EA20
100
AcDbEntity
  8
YANE
100
AcDbLine
 10
7064.618857932439
 20
7408.502162099155
 30
0.0
 11
7064.618857932439
 21
7587.508122720166
 31
0.0
  0
LINE
  5
1EBA2
330
1EA20
100
AcDbEntity
  8
YANE
100
AcDbLine
 10
7047.96885793244
 20
7408.502162099155
 30
0.0
 11
7047.96885793244
 21
7587.508122720166
 31
0.0
  0
LINE
  5
1EBA3
330
1EA20
100
AcDbEntity
  8
YANE
100
AcDbLine
 10
7020.968857932441
 20
7408.502162099155
 30
0.0
 11
7020.968857932441
 21
7587.508122720166
 31
0.0
  0
LINE
  5
1EBA4
330
1EA20
100
AcDbEntity
  8
YANE
100
AcDbLine
 10
7004.318857932442
 20
7408.502162099155
 30
0.0
 11
7004.318857932442
 21
7587.508122720166
 31
0.0
  0
LINE
  5
1EBA5
330
1EA20
100
AcDbEntity
  8
YANE
100
AcDbLine
 10
6931.318857932438
 20
7408.502162099155
 30
0.0
 11
6931.318857932438
 21
7587.508122720166
 31
0.0
  0
LINE
  5
1EBA6
330
1EA20
100
AcDbEntity
  8
YANE
100
AcDbLine
 10
6914.668857932439
 20
7408.502162099155
 30
0.0
 11
6914.668857932442
 21
7587.508122720166
 31
0.0
  0
LINE
  5
1EBA7
330
1EA20
100
AcDbEntity
  8
YANE
100
AcDbLine
 10
6887.668857932442
 20
7408.502162099155
 30
0.0
 11
6887.668857932442
 21
7587.508122720166
 31
0.0
  0
LINE
  5
1EBA8
330
1EA20
100
AcDbEntity
  8
YANE
100
AcDbLine
 10
6871.01885793244
 20
7408.502162099155
 30
0.0
 11
6871.01885793244
 21
7587.508122720166
 31
0.0
  0
LINE
  5
1EBA9
330
1EA20
100
AcDbEntity
  8
YANE
100
AcDbLine
 10
6798.018857932439
 20
7408.502162099155
 30
0.0
 11
6798.018857932439
 21
7587.508122720166
 31
0.0
  0
LINE
  5
1EBAA
330
1EA20
100
AcDbEntity
  8
YANE
100
AcDbLine
 10
6781.368857932442
 20
7408.502162099155
 30
0.0
 11
6781.368857932442
 21
7587.508122720166
 31
0.0
  0
LINE
  5
1EBAB
330
1EA20
100
AcDbEntity
  8
YANE
100
AcDbLine
 10
6754.368857932442
 20
7408.502162099155
 30
0.0
 11
6754.368857932442
 21
7587.508122720166
 31
0.0
  0
LINE
  5
1EBAC
330
1EA20
100
AcDbEntity
  8
YANE
100
AcDbLine
 10
6737.718857932441
 20
7408.502162099155
 30
0.0
 11
6737.718857932439
 21
7587.508122720166
 31
0.0
  0
LINE
  5
1EBAD
330
1EA20
100
AcDbEntity
  8
YANE
100
AcDbLine
 10
6664.718857932438
 20
7408.502162099155
 30
0.0
 11
6664.718857932438
 21
7587.508122720166
 31
0.0
  0
LINE
  5
1EBAE
330
1EA20
100
AcDbEntity
  8
YANE
100
AcDbLine
 10
6648.06885793244
 20
7408.502162099155
 30
0.0
 11
6648.06885793244
 21
7587.508122720166
 31
0.0
  0
LINE
  5
1EBAF
330
1EA20
100
AcDbEntity
  8
YANE
100
AcDbLine
 10
6621.068857932441
 20
7408.502162099155
 30
0.0
 11
6621.068857932441
 21
7587.508122720166
 31
0.0
  0
LINE
  5
1EBB0
330
1EA20
100
AcDbEntity
  8
YANE
100
AcDbLine
 10
6604.418857932441
 20
7408.502162099155
 30
0.0
 11
6604.418857932441
 21
7587.508122720166
 31
0.0
  0
LINE
  5
1EBB1
330
1EA20
100
AcDbEntity
  8
YANE
100
AcDbLine
 10
6531.418857932438
 20
7408.502162099155
 30
0.0
 11
6531.418857932438
 21
7587.508122720166
 31
0.0
  0
LINE
  5
1EBB2
330
1EA20
100
AcDbEntity
  8
YANE
100
AcDbLine
 10
6514.768857932441
 20
7408.502162099155
 30
0.0
 11
6514.768857932441
 21
7587.508122720166
 31
0.0
  0
LINE
  5
1EBB3
330
1EA20
100
AcDbEntity
  8
YANE
100
AcDbLine
 10
6487.76885793244
 20
7408.502162099155
 30
0.0
 11
6487.76885793244
 21
7587.508122720166
 31
0.0
  0
LINE
  5
1EBB4
330
1EA20
100
AcDbEntity
  8
YANE
100
AcDbLine
 10
6471.118857932442
 20
7408.502162099155
 30
0.0
 11
6471.118857932438
 21
7587.508122720166
 31
0.0
  0
LINE
  5
1EBB5
330
1EA20
100
AcDbEntity
  8
YANE
100
AcDbLine
 10
6398.118857932438
 20
7408.502162099155
 30
0.0
 11
6398.118857932438
 21
7587.508122720166
 31
0.0
  0
LINE
  5
1EBB6
330
1EA20
100
AcDbEntity
  8
YANE
100
AcDbLine
 10
6381.468857932441
 20
7408.502162099155
 30
0.0
 11
6381.468857932441
 21
7587.508122720166
 31
0.0
  0
LINE
  5
1EBB7
330
1EA20
100
AcDbEntity
  8
YANE
100
AcDbLine
 10
6354.46885793244
 20
7408.502162099155
 30
0.0
 11
6354.46885793244
 21
7587.508122720166
 31
0.0
  0
LINE
  5
1EBB8
330
1EA20
100
AcDbEntity
  8
YANE
100
AcDbLine
 10
6337.818857932441
 20
7408.502162099155
 30
0.0
 11
6337.818857932441
 21
7587.508122720166
 31
0.0
  0
LINE
  5
1EBB9
330
1EA20
100
AcDbEntity
  8
YANE
100
AcDbLine
 10
6265.718857932429
 20
7408.502162099155
 30
0.0
 11
7587.56885793243
 21
7408.502162099158
 31
0.0
  0
LINE
  5
1EBBA
330
1EA20
100
AcDbEntity
  8
YANE
100
AcDbLine
 10
6185.718857932429
 20
7408.502162099162
 30
0.0
 11
4863.868857932432
 21
7408.502162099155
 31
0.0
  0
LINE
  5
1EBBB
330
1EA20
100
AcDbEntity
  8
YANE
100
AcDbLine
 10
6113.618857932416
 20
7408.502162099155
 30
0.0
 11
6113.618857932419
 21
7587.508122720166
 31
0.0
  0
LINE
  5
1EBBC
330
1EA20
100
AcDbEntity
  8
YANE
100
AcDbLine
 10
6096.968857932418
 20
7408.502162099155
 30
0.0
 11
6096.968857932418
 21
7587.508122720166
 31
0.0
  0
LINE
  5
1EBBD
330
1EA20
100
AcDbEntity
  8
YANE
100
AcDbLine
 10
6069.968857932418
 20
7408.502162099155
 30
0.0
 11
6069.968857932418
 21
7587.508122720166
 31
0.0
  0
LINE
  5
1EBBE
330
1EA20
100
AcDbEntity
  8
YANE
100
AcDbLine
 10
6053.31885793242
 20
7408.502162099155
 30
0.0
 11
6053.31885793242
 21
7587.508122720166
 31
0.0
  0
LINE
  5
1EBBF
330
1EA20
100
AcDbEntity
  8
YANE
100
AcDbLine
 10
5980.318857932418
 20
7408.502162099155
 30
0.0
 11
5980.318857932418
 21
7587.508122720166
 31
0.0
  0
LINE
  5
1EBC0
330
1EA20
100
AcDbEntity
  8
YANE
100
AcDbLine
 10
5963.668857932417
 20
7408.502162099155
 30
0.0
 11
5963.668857932417
 21
7587.508122720166
 31
0.0
  0
LINE
  5
1EBC1
330
1EA20
100
AcDbEntity
  8
YANE
100
AcDbLine
 10
5936.668857932418
 20
7408.502162099155
 30
0.0
 11
5936.668857932418
 21
7587.508122720166
 31
0.0
  0
LINE
  5
1EBC2
330
1EA20
100
AcDbEntity
  8
YANE
100
AcDbLine
 10
5920.018857932419
 20
7408.502162099155
 30
0.0
 11
5920.018857932419
 21
7587.508122720166
 31
0.0
  0
LINE
  5
1EBC3
330
1EA20
100
AcDbEntity
  8
YANE
100
AcDbLine
 10
5847.018857932418
 20
7408.502162099155
 30
0.0
 11
5847.018857932418
 21
7587.508122720166
 31
0.0
  0
LINE
  5
1EBC4
330
1EA20
100
AcDbEntity
  8
YANE
100
AcDbLine
 10
5830.368857932417
 20
7408.502162099155
 30
0.0
 11
5830.368857932417
 21
7587.508122720166
 31
0.0
  0
LINE
  5
1EBC5
330
1EA20
100
AcDbEntity
  8
YANE
100
AcDbLine
 10
5803.368857932417
 20
7408.502162099155
 30
0.0
 11
5803.368857932417
 21
7587.508122720166
 31
0.0
  0
LINE
  5
1EBC6
330
1EA20
100
AcDbEntity
  8
YANE
100
AcDbLine
 10
5786.718857932419
 20
7408.502162099155
 30
0.0
 11
5786.718857932419
 21
7587.508122720166
 31
0.0
  0
LINE
  5
1EBC7
330
1EA20
100
AcDbEntity
  8
YANE
100
AcDbLine
 10
5713.718857932418
 20
7408.502162099155
 30
0.0
 11
5713.71885793242
 21
7587.508122720166
 31
0.0
  0
LINE
  5
1EBC8
330
1EA20
100
AcDbEntity
  8
YANE
100
AcDbLine
 10
5697.068857932418
 20
7408.502162099155
 30
0.0
 11
5697.068857932418
 21
7587.508122720166
 31
0.0
  0
LINE
  5
1EBC9
330
1EA20
100
AcDbEntity
  8
YANE
100
AcDbLine
 10
5670.068857932418
 20
7408.502162099155
 30
0.0
 11
5670.068857932418
 21
7587.508122720166
 31
0.0
  0
LINE
  5
1EBCA
330
1EA20
100
AcDbEntity
  8
YANE
100
AcDbLine
 10
5653.418857932421
 20
7408.502162099155
 30
0.0
 11
5653.418857932421
 21
7587.508122720166
 31
0.0
  0
LINE
  5
1EBCB
330
1EA20
100
AcDbEntity
  8
YANE
100
AcDbLine
 10
5580.418857932418
 20
7408.502162099155
 30
0.0
 11
5580.418857932421
 21
7587.508122720166
 31
0.0
  0
LINE
  5
1EBCC
330
1EA20
100
AcDbEntity
  8
YANE
100
AcDbLine
 10
5563.768857932418
 20
7408.502162099155
 30
0.0
 11
5563.768857932418
 21
7587.508122720166
 31
0.0
  0
LINE
  5
1EBCD
330
1EA20
100
AcDbEntity
  8
YANE
100
AcDbLine
 10
5536.768857932418
 20
7408.502162099155
 30
0.0
 11
5536.768857932418
 21
7587.508122720166
 31
0.0
  0
LINE
  5
1EBCE
330
1EA20
100
AcDbEntity
  8
YANE
100
AcDbLine
 10
5520.118857932421
 20
7408.502162099155
 30
0.0
 11
5520.118857932421
 21
7587.508122720166
 31
0.0
  0
LINE
  5
1EBCF
330
1EA20
100
AcDbEntity
  8
YANE
100
AcDbLine
 10
5447.118857932417
 20
7408.502162099155
 30
0.0
 11
5447.118857932417
 21
7587.508122720166
 31
0.0
  0
LINE
  5
1EBD0
330
1EA20
100
AcDbEntity
  8
YANE
100
AcDbLine
 10
5430.468857932418
 20
7408.502162099155
 30
0.0
 11
5430.468857932418
 21
7587.508122720166
 31
0.0
  0
LINE
  5
1EBD1
330
1EA20
100
AcDbEntity
  8
YANE
100
AcDbLine
 10
5403.468857932418
 20
7408.502162099155
 30
0.0
 11
5403.468857932418
 21
7587.508122720166
 31
0.0
  0
LINE
  5
1EBD2
330
1EA20
100
AcDbEntity
  8
YANE
100
AcDbLine
 10
5386.81885793242
 20
7408.502162099155
 30
0.0
 11
5386.81885793242
 21
7587.508122720166
 31
0.0
  0
LINE
  5
1EBD3
330
1EA20
100
AcDbEntity
  8
YANE
100
AcDbLine
 10
5313.818857932417
 20
7408.502162099155
 30
0.0
 11
5313.81885793242
 21
7587.508122720166
 31
0.0
  0
LINE
  5
1EBD4
330
1EA20
100
AcDbEntity
  8
YANE
100
AcDbLine
 10
5297.168857932417
 20
7408.502162099155
 30
0.0
 11
5297.168857932417
 21
7587.508122720166
 31
0.0
  0
LINE
  5
1EBD5
330
1EA20
100
AcDbEntity
  8
YANE
100
AcDbLine
 10
5270.168857932418
 20
7408.502162099155
 30
0.0
 11
5270.168857932418
 21
7587.508122720166
 31
0.0
  0
LINE
  5
1EBD6
330
1EA20
100
AcDbEntity
  8
YANE
100
AcDbLine
 10
5253.518857932421
 20
7408.502162099155
 30
0.0
 11
5253.51885793242
 21
7587.508122720166
 31
0.0
  0
LINE
  5
1EBD7
330
1EA20
100
AcDbEntity
  8
YANE
100
AcDbLine
 10
5180.518857932419
 20
7408.502162099155
 30
0.0
 11
5180.51885793242
 21
7587.508122720166
 31
0.0
  0
LINE
  5
1EBD8
330
1EA20
100
AcDbEntity
  8
YANE
100
AcDbLine
 10
5163.868857932418
 20
7408.502162099155
 30
0.0
 11
5163.868857932418
 21
7587.508122720166
 31
0.0
  0
LINE
  5
1EBD9
330
1EA20
100
AcDbEntity
  8
YANE
100
AcDbLine
 10
5136.868857932417
 20
7408.502162099155
 30
0.0
 11
5136.868857932417
 21
7587.508122720166
 31
0.0
  0
LINE
  5
1EBDA
330
1EA20
100
AcDbEntity
  8
YANE
100
AcDbLine
 10
5120.218857932419
 20
7408.502162099155
 30
0.0
 11
5120.218857932419
 21
7587.508122720166
 31
0.0
  0
LINE
  5
1EBDB
330
1EA20
100
AcDbEntity
  8
YANE
100
AcDbLine
 10
5047.218857932418
 20
7408.502162099155
 30
0.0
 11
5047.218857932418
 21
7587.508122720166
 31
0.0
  0
LINE
  5
1EBDC
330
1EA20
100
AcDbEntity
  8
YANE
100
AcDbLine
 10
5030.568857932418
 20
7408.502162099155
 30
0.0
 11
5030.568857932418
 21
7587.508122720166
 31
0.0
  0
LINE
  5
1EBDD
330
1EA20
100
AcDbEntity
  8
YANE
100
AcDbLine
 10
5003.568857932418
 20
7408.502162099155
 30
0.0
 11
5003.568857932418
 21
7587.508122720166
 31
0.0
  0
LINE
  5
1EBDE
330
1EA20
100
AcDbEntity
  8
YANE
100
AcDbLine
 10
4986.91885793242
 20
7408.502162099155
 30
0.0
 11
4986.91885793242
 21
7587.508122720166
 31
0.0
  0
LINE
  5
1EBDF
330
1EA20
100
AcDbEntity
  8
YANE
100
AcDbLine
 10
4913.918857932419
 20
7408.502162099155
 30
0.0
 11
4913.918857932419
 21
7587.508122720166
 31
0.0
  0
LINE
  5
1EBE0
330
1EA20
100
AcDbEntity
  8
YANE
100
AcDbLine
 10
4897.268857932418
 20
7408.502162099155
 30
0.0
 11
4897.268857932418
 21
7587.508122720166
 31
0.0
  0
LINE
  5
1EBE1
330
1EA20
100
AcDbEntity
  8
YANE
100
AcDbLine
 10
4870.268857932416
 20
7408.502162099155
 30
0.0
 11
4870.268857932416
 21
7587.508122720166
 31
0.0
  0
LINE
  5
1EBE2
330
1EA20
100
AcDbEntity
  8
YANE
100
AcDbLine
 10
4780.618857932417
 20
7408.502162099155
 30
0.0
 11
4780.618857932418
 21
7587.508122720166
 31
0.0
  0
LINE
  5
1EBE3
330
1EA20
100
AcDbEntity
  8
YANE
100
AcDbLine
 10
4763.968857932418
 20
7408.502162099155
 30
0.0
 11
4763.968857932418
 21
7587.508122720166
 31
0.0
  0
LINE
  5
1EBE4
330
1EA20
100
AcDbEntity
  8
YANE
100
AcDbLine
 10
4736.968857932418
 20
7408.502162099155
 30
0.0
 11
4736.968857932418
 21
7587.508122720166
 31
0.0
  0
LINE
  5
1EBE5
330
1EA20
100
AcDbEntity
  8
YANE
100
AcDbLine
 10
4720.31885793242
 20
7408.502162099155
 30
0.0
 11
4720.31885793242
 21
7587.508122720166
 31
0.0
  0
LINE
  5
1EBE6
330
1EA20
100
AcDbEntity
  8
YANE
100
AcDbLine
 10
4647.318857932417
 20
7408.502162099155
 30
0.0
 11
4647.318857932417
 21
7587.508122720166
 31
0.0
  0
LINE
  5
1EBE7
330
1EA20
100
AcDbEntity
  8
YANE
100
AcDbLine
 10
4630.668857932417
 20
7408.502162099155
 30
0.0
 11
4630.668857932417
 21
7587.508122720166
 31
0.0
  0
LINE
  5
1EBE8
330
1EA20
100
AcDbEntity
  8
YANE
100
AcDbLine
 10
4603.668857932418
 20
7408.502162099155
 30
0.0
 11
4603.668857932418
 21
7587.508122720166
 31
0.0
  0
LINE
  5
1EBE9
330
1EA20
100
AcDbEntity
  8
YANE
100
AcDbLine
 10
4587.018857932421
 20
7408.502162099155
 30
0.0
 11
4587.018857932421
 21
7587.508122720166
 31
0.0
  0
LINE
  5
1EBEA
330
1EA20
100
AcDbEntity
  8
YANE
100
AcDbLine
 10
4514.018857932416
 20
7408.502162099155
 30
0.0
 11
4514.01885793242
 21
7587.508122720166
 31
0.0
  0
LINE
  5
1EBEB
330
1EA20
100
AcDbEntity
  8
YANE
100
AcDbLine
 10
4497.368857932418
 20
7408.502162099155
 30
0.0
 11
4497.368857932418
 21
7587.508122720166
 31
0.0
  0
LINE
  5
1EBEC
330
1EA20
100
AcDbEntity
  8
YANE
100
AcDbLine
 10
4470.368857932417
 20
7408.502162099155
 30
0.0
 11
4470.368857932417
 21
7587.508122720166
 31
0.0
  0
LINE
  5
1EBED
330
1EA20
100
AcDbEntity
  8
YANE
100
AcDbLine
 10
4453.718857932419
 20
7408.502162099155
 30
0.0
 11
4453.718857932419
 21
7587.508122720166
 31
0.0
  0
LINE
  5
1EBEE
330
1EA20
100
AcDbEntity
  8
YANE
100
AcDbLine
 10
4380.718857932417
 20
7408.502162099155
 30
0.0
 11
4380.718857932417
 21
7587.508122720166
 31
0.0
  0
LINE
  5
1EBEF
330
1EA20
100
AcDbEntity
  8
YANE
100
AcDbLine
 10
4364.068857932418
 20
7408.502162099155
 30
0.0
 11
4364.068857932418
 21
7587.508122720166
 31
0.0
  0
LINE
  5
1EBF0
330
1EA20
100
AcDbEntity
  8
YANE
100
AcDbLine
 10
4337.068857932417
 20
7408.502162099155
 30
0.0
 11
4337.068857932417
 21
7587.508122720166
 31
0.0
  0
LINE
  5
1EBF1
330
1EA20
100
AcDbEntity
  8
YANE
100
AcDbLine
 10
4320.41885793242
 20
7408.502162099155
 30
0.0
 11
4320.41885793242
 21
7587.508122720166
 31
0.0
  0
LINE
  5
1EBF2
330
1EA20
100
AcDbEntity
  8
YANE
100
AcDbLine
 10
4247.418857932419
 20
7408.502162099155
 30
0.0
 11
4247.418857932419
 21
7587.508122720166
 31
0.0
  0
LINE
  5
1EBF3
330
1EA20
100
AcDbEntity
  8
YANE
100
AcDbLine
 10
4230.768857932417
 20
7408.502162099155
 30
0.0
 11
4230.768857932417
 21
7587.508122720166
 31
0.0
  0
LINE
  5
1EBF4
330
1EA20
100
AcDbEntity
  8
YANE
100
AcDbLine
 10
4203.768857932416
 20
7408.502162099155
 30
0.0
 11
4203.768857932416
 21
7587.508122720166
 31
0.0
  0
LINE
  5
1EBF5
330
1EA20
100
AcDbEntity
  8
YANE
100
AcDbLine
 10
4187.118857932421
 20
7408.502162099155
 30
0.0
 11
4187.118857932421
 21
7587.508122720166
 31
0.0
  0
LINE
  5
1EBF6
330
1EA20
100
AcDbEntity
  8
YANE
100
AcDbLine
 10
4114.118857932417
 20
7408.502162099155
 30
0.0
 11
4114.118857932417
 21
7587.508122720166
 31
0.0
  0
LINE
  5
1EBF7
330
1EA20
100
AcDbEntity
  8
YANE
100
AcDbLine
 10
4097.468857932415
 20
7408.502162099155
 30
0.0
 11
4097.468857932415
 21
7587.508122720166
 31
0.0
  0
LINE
  5
1EBF8
330
1EA20
100
AcDbEntity
  8
YANE
100
AcDbLine
 10
4070.468857932417
 20
7408.502162099155
 30
0.0
 11
4070.468857932417
 21
7587.508122720166
 31
0.0
  0
LINE
  5
1EBF9
330
1EA20
100
AcDbEntity
  8
YANE
100
AcDbLine
 10
4053.818857932419
 20
7408.502162099155
 30
0.0
 11
4053.818857932419
 21
7587.508122720166
 31
0.0
  0
LINE
  5
1EBFA
330
1EA20
100
AcDbEntity
  8
YANE
100
AcDbLine
 10
3980.818857932418
 20
7408.502162099155
 30
0.0
 11
3980.818857932419
 21
7587.508122720166
 31
0.0
  0
LINE
  5
1EBFB
330
1EA20
100
AcDbEntity
  8
YANE
100
AcDbLine
 10
3964.168857932417
 20
7408.502162099155
 30
0.0
 11
3964.168857932417
 21
7587.508122720166
 31
0.0
  0
LINE
  5
1EBFC
330
1EA20
100
AcDbEntity
  8
YANE
100
AcDbLine
 10
3937.168857932418
 20
7408.502162099155
 30
0.0
 11
3937.168857932418
 21
7587.508122720166
 31
0.0
  0
LINE
  5
1EBFD
330
1EA20
100
AcDbEntity
  8
YANE
100
AcDbLine
 10
3920.51885793242
 20
7408.502162099155
 30
0.0
 11
3920.51885793242
 21
7587.508122720166
 31
0.0
  0
LINE
  5
1EBFE
330
1EA20
100
AcDbEntity
  8
YANE
100
AcDbLine
 10
3847.518857932417
 20
7408.502162099155
 30
0.0
 11
3847.518857932417
 21
7587.508122720166
 31
0.0
  0
LINE
  5
1EBFF
330
1EA20
100
AcDbEntity
  8
YANE
100
AcDbLine
 10
3830.868857932415
 20
7408.502162099155
 30
0.0
 11
3830.868857932415
 21
7587.508122720166
 31
0.0
  0
LINE
  5
1EC00
330
1EA20
100
AcDbEntity
  8
YANE
100
AcDbLine
 10
3803.868857932418
 20
7408.502162099155
 30
0.0
 11
3803.868857932417
 21
7587.508122720166
 31
0.0
  0
LINE
  5
1EC01
330
1EA20
100
AcDbEntity
  8
YANE
100
AcDbLine
 10
3787.218857932418
 20
7408.502162099155
 30
0.0
 11
3787.218857932417
 21
7587.508122720166
 31
0.0
  0
LINE
  5
1EC02
330
1EA20
100
AcDbEntity
  8
YANE
100
AcDbLine
 10
1848.018857932427
 20
7408.502162099155
 30
0.0
 11
1848.018857932427
 21
7587.508122720166
 31
0.0
  0
LINE
  5
1EC03
330
1EA20
100
AcDbEntity
  8
YANE
100
AcDbLine
 10
1981.318857932426
 20
7408.502162099155
 30
0.0
 11
1981.318857932427
 21
7587.508122720166
 31
0.0
  0
LINE
  5
1EC04
330
1EA20
100
AcDbEntity
  8
YANE
100
AcDbLine
 10
1921.018857932429
 20
7408.502162099155
 30
0.0
 11
1921.018857932428
 21
7587.508122720166
 31
0.0
  0
LINE
  5
1EC05
330
1EA20
100
AcDbEntity
  8
YANE
100
AcDbLine
 10
3653.918857932421
 20
7408.502162099155
 30
0.0
 11
3653.918857932421
 21
7587.508122720166
 31
0.0
  0
LINE
  5
1EC06
330
1EA20
100
AcDbEntity
  8
YANE
100
AcDbLine
 10
3670.568857932418
 20
7408.502162099155
 30
0.0
 11
3670.568857932418
 21
7587.508122720166
 31
0.0
  0
LINE
  5
1EC07
330
1EA20
100
AcDbEntity
  8
YANE
100
AcDbLine
 10
3697.568857932417
 20
7408.502162099155
 30
0.0
 11
3697.568857932417
 21
7587.508122720166
 31
0.0
  0
LINE
  5
1EC08
330
1EA20
100
AcDbEntity
  8
YANE
100
AcDbLine
 10
3714.218857932417
 20
7408.502162099155
 30
0.0
 11
3714.218857932418
 21
7587.508122720166
 31
0.0
  0
LINE
  5
1EC09
330
1EA20
100
AcDbEntity
  8
YANE
100
AcDbLine
 10
3520.618857932421
 20
7408.502162099155
 30
0.0
 11
3520.618857932421
 21
7587.508122720166
 31
0.0
  0
LINE
  5
1EC0A
330
1EA20
100
AcDbEntity
  8
YANE
100
AcDbLine
 10
3537.268857932418
 20
7408.502162099155
 30
0.0
 11
3537.268857932418
 21
7587.508122720166
 31
0.0
  0
LINE
  5
1EC0B
330
1EA20
100
AcDbEntity
  8
YANE
100
AcDbLine
 10
3564.268857932419
 20
7408.502162099155
 30
0.0
 11
3564.268857932419
 21
7587.508122720166
 31
0.0
  0
LINE
  5
1EC0C
330
1EA20
100
AcDbEntity
  8
YANE
100
AcDbLine
 10
3580.918857932418
 20
7408.502162099155
 30
0.0
 11
3580.918857932418
 21
7587.508122720166
 31
0.0
  0
LINE
  5
1EC0D
330
1EA20
100
AcDbEntity
  8
YANE
100
AcDbLine
 10
3387.318857932421
 20
7408.502162099155
 30
0.0
 11
3387.318857932421
 21
7587.508122720166
 31
0.0
  0
LINE
  5
1EC0E
330
1EA20
100
AcDbEntity
  8
YANE
100
AcDbLine
 10
3403.968857932419
 20
7408.502162099155
 30
0.0
 11
3403.968857932419
 21
7587.508122720166
 31
0.0
  0
LINE
  5
1EC0F
330
1EA20
100
AcDbEntity
  8
YANE
100
AcDbLine
 10
3430.96885793242
 20
7408.502162099155
 30
0.0
 11
3430.96885793242
 21
7587.508122720166
 31
0.0
  0
LINE
  5
1EC10
330
1EA20
100
AcDbEntity
  8
YANE
100
AcDbLine
 10
3447.618857932418
 20
7408.502162099155
 30
0.0
 11
3447.61885793242
 21
7587.508122720166
 31
0.0
  0
LINE
  5
1EC11
330
1EA20
100
AcDbEntity
  8
YANE
100
AcDbLine
 10
3254.018857932423
 20
7408.502162099155
 30
0.0
 11
3254.018857932423
 21
7587.508122720166
 31
0.0
  0
LINE
  5
1EC12
330
1EA20
100
AcDbEntity
  8
YANE
100
AcDbLine
 10
3270.668857932421
 20
7408.502162099155
 30
0.0
 11
3270.668857932421
 21
7587.508122720166
 31
0.0
  0
LINE
  5
1EC13
330
1EA20
100
AcDbEntity
  8
YANE
100
AcDbLine
 10
3297.668857932419
 20
7408.502162099155
 30
0.0
 11
3297.668857932419
 21
7587.508122720166
 31
0.0
  0
LINE
  5
1EC14
330
1EA20
100
AcDbEntity
  8
YANE
100
AcDbLine
 10
3314.31885793242
 20
7408.502162099155
 30
0.0
 11
3314.31885793242
 21
7587.508122720166
 31
0.0
  0
LINE
  5
1EC15
330
1EA20
100
AcDbEntity
  8
YANE
100
AcDbLine
 10
3120.718857932423
 20
7408.502162099155
 30
0.0
 11
3120.718857932423
 21
7587.508122720166
 31
0.0
  0
LINE
  5
1EC16
330
1EA20
100
AcDbEntity
  8
YANE
100
AcDbLine
 10
3137.368857932421
 20
7408.502162099155
 30
0.0
 11
3137.368857932421
 21
7587.508122720166
 31
0.0
  0
LINE
  5
1EC17
330
1EA20
100
AcDbEntity
  8
YANE
100
AcDbLine
 10
3164.368857932421
 20
7408.502162099155
 30
0.0
 11
3164.368857932421
 21
7587.508122720166
 31
0.0
  0
LINE
  5
1EC18
330
1EA20
100
AcDbEntity
  8
YANE
100
AcDbLine
 10
3181.018857932421
 20
7408.502162099155
 30
0.0
 11
3181.018857932422
 21
7587.508122720166
 31
0.0
  0
LINE
  5
1EC19
330
1EA20
100
AcDbEntity
  8
YANE
100
AcDbLine
 10
2987.418857932423
 20
7408.502162099155
 30
0.0
 11
2987.418857932423
 21
7587.508122720166
 31
0.0
  0
LINE
  5
1EC1A
330
1EA20
100
AcDbEntity
  8
YANE
100
AcDbLine
 10
3004.068857932421
 20
7408.502162099155
 30
0.0
 11
3004.068857932421
 21
7587.508122720166
 31
0.0
  0
LINE
  5
1EC1B
330
1EA20
100
AcDbEntity
  8
YANE
100
AcDbLine
 10
3031.068857932421
 20
7408.502162099155
 30
0.0
 11
3031.068857932421
 21
7587.508122720166
 31
0.0
  0
LINE
  5
1EC1C
330
1EA20
100
AcDbEntity
  8
YANE
100
AcDbLine
 10
3047.718857932422
 20
7408.502162099155
 30
0.0
 11
3047.718857932422
 21
7587.508122720166
 31
0.0
  0
LINE
  5
1EC1D
330
1EA20
100
AcDbEntity
  8
YANE
100
AcDbLine
 10
2854.118857932425
 20
7408.502162099155
 30
0.0
 11
2854.118857932425
 21
7587.508122720166
 31
0.0
  0
LINE
  5
1EC1E
330
1EA20
100
AcDbEntity
  8
YANE
100
AcDbLine
 10
2870.768857932422
 20
7408.502162099155
 30
0.0
 11
2870.768857932422
 21
7587.508122720166
 31
0.0
  0
LINE
  5
1EC1F
330
1EA20
100
AcDbEntity
  8
YANE
100
AcDbLine
 10
2897.768857932423
 20
7408.502162099155
 30
0.0
 11
2897.768857932423
 21
7587.508122720166
 31
0.0
  0
LINE
  5
1EC20
330
1EA20
100
AcDbEntity
  8
YANE
100
AcDbLine
 10
2914.418857932421
 20
7408.502162099155
 30
0.0
 11
2914.418857932421
 21
7587.508122720166
 31
0.0
  0
LINE
  5
1EC21
330
1EA20
100
AcDbEntity
  8
YANE
100
AcDbLine
 10
2720.818857932425
 20
7408.502162099155
 30
0.0
 11
2720.818857932425
 21
7587.508122720166
 31
0.0
  0
LINE
  5
1EC22
330
1EA20
100
AcDbEntity
  8
YANE
100
AcDbLine
 10
2737.468857932423
 20
7408.502162099155
 30
0.0
 11
2737.468857932423
 21
7587.508122720166
 31
0.0
  0
LINE
  5
1EC23
330
1EA20
100
AcDbEntity
  8
YANE
100
AcDbLine
 10
2764.468857932422
 20
7408.502162099155
 30
0.0
 11
2764.468857932422
 21
7587.508122720166
 31
0.0
  0
LINE
  5
1EC24
330
1EA20
100
AcDbEntity
  8
YANE
100
AcDbLine
 10
2781.118857932423
 20
7408.502162099155
 30
0.0
 11
2781.118857932423
 21
7587.508122720166
 31
0.0
  0
LINE
  5
1EC25
330
1EA20
100
AcDbEntity
  8
YANE
100
AcDbLine
 10
2587.518857932425
 20
7408.502162099155
 30
0.0
 11
2587.518857932425
 21
7587.508122720166
 31
0.0
  0
LINE
  5
1EC26
330
1EA20
100
AcDbEntity
  8
YANE
100
AcDbLine
 10
2604.168857932424
 20
7408.502162099155
 30
0.0
 11
2604.168857932424
 21
7587.508122720166
 31
0.0
  0
LINE
  5
1EC27
330
1EA20
100
AcDbEntity
  8
YANE
100
AcDbLine
 10
2631.168857932424
 20
7408.502162099155
 30
0.0
 11
2631.168857932424
 21
7587.508122720166
 31
0.0
  0
LINE
  5
1EC28
330
1EA20
100
AcDbEntity
  8
YANE
100
AcDbLine
 10
2647.818857932423
 20
7408.502162099155
 30
0.0
 11
2647.818857932423
 21
7587.508122720166
 31
0.0
  0
LINE
  5
1EC29
330
1EA20
100
AcDbEntity
  8
YANE
100
AcDbLine
 10
2454.218857932428
 20
7408.502162099155
 30
0.0
 11
2454.218857932428
 21
7587.508122720166
 31
0.0
  0
LINE
  5
1EC2A
330
1EA20
100
AcDbEntity
  8
YANE
100
AcDbLine
 10
2470.868857932424
 20
7408.502162099155
 30
0.0
 11
2470.868857932424
 21
7587.508122720166
 31
0.0
  0
LINE
  5
1EC2B
330
1EA20
100
AcDbEntity
  8
YANE
100
AcDbLine
 10
2497.868857932425
 20
7408.502162099155
 30
0.0
 11
2497.868857932425
 21
7587.508122720166
 31
0.0
  0
LINE
  5
1EC2C
330
1EA20
100
AcDbEntity
  8
YANE
100
AcDbLine
 10
2514.518857932424
 20
7408.502162099155
 30
0.0
 11
2514.518857932425
 21
7587.508122720166
 31
0.0
  0
LINE
  5
1EC2D
330
1EA20
100
AcDbEntity
  8
YANE
100
AcDbLine
 10
2320.918857932428
 20
7408.502162099155
 30
0.0
 11
2320.918857932428
 21
7587.508122720166
 31
0.0
  0
LINE
  5
1EC2E
330
1EA20
100
AcDbEntity
  8
YANE
100
AcDbLine
 10
2337.568857932424
 20
7408.502162099155
 30
0.0
 11
2337.568857932424
 21
7587.508122720166
 31
0.0
  0
LINE
  5
1EC2F
330
1EA20
100
AcDbEntity
  8
YANE
100
AcDbLine
 10
2364.568857932425
 20
7408.502162099155
 30
0.0
 11
2364.568857932425
 21
7587.508122720166
 31
0.0
  0
LINE
  5
1EC30
330
1EA20
100
AcDbEntity
  8
YANE
100
AcDbLine
 10
2381.218857932424
 20
7408.502162099155
 30
0.0
 11
2381.218857932426
 21
7587.508122720166
 31
0.0
  0
LINE
  5
1EC31
330
1EA20
100
AcDbEntity
  8
YANE
100
AcDbLine
 10
2187.618857932429
 20
7408.502162099155
 30
0.0
 11
2187.618857932429
 21
7587.508122720166
 31
0.0
  0
LINE
  5
1EC32
330
1EA20
100
AcDbEntity
  8
YANE
100
AcDbLine
 10
2204.268857932424
 20
7408.502162099155
 30
0.0
 11
2204.268857932424
 21
7587.508122720166
 31
0.0
  0
LINE
  5
1EC33
330
1EA20
100
AcDbEntity
  8
YANE
100
AcDbLine
 10
2231.268857932425
 20
7408.502162099155
 30
0.0
 11
2231.268857932425
 21
7587.508122720166
 31
0.0
  0
LINE
  5
1EC34
330
1EA20
100
AcDbEntity
  8
YANE
100
AcDbLine
 10
2247.918857932425
 20
7408.502162099155
 30
0.0
 11
2247.918857932427
 21
7587.508122720166
 31
0.0
  0
LINE
  5
1EC35
330
1EA20
100
AcDbEntity
  8
YANE
100
AcDbLine
 10
2070.968857932427
 20
7408.502162099155
 30
0.0
 11
2070.968857932427
 21
7587.508122720166
 31
0.0
  0
LINE
  5
1EC36
330
1EA20
100
AcDbEntity
  8
YANE
100
AcDbLine
 10
2097.968857932427
 20
7408.502162099155
 30
0.0
 11
2097.968857932427
 21
7587.508122720166
 31
0.0
  0
LINE
  5
1EC37
330
1EA20
100
AcDbEntity
  8
YANE
100
AcDbLine
 10
2114.618857932426
 20
7408.502162099155
 30
0.0
 11
2114.618857932426
 21
7587.508122720166
 31
0.0
  0
LINE
  5
1EC38
330
1EA20
100
AcDbEntity
  8
YANE
100
AcDbLine
 10
1964.668857932426
 20
7408.502162099155
 30
0.0
 11
1964.668857932426
 21
7587.508122720166
 31
0.0
  0
LINE
  5
1EC39
330
1EA20
100
AcDbEntity
  8
YANE
100
AcDbLine
 10
1937.668857932427
 20
7408.502162099155
 30
0.0
 11
1937.668857932427
 21
7587.508122720166
 31
0.0
  0
LINE
  5
1EC3A
330
1EA20
100
AcDbEntity
  8
YANE
100
AcDbLine
 10
1804.368857932427
 20
7408.502162099155
 30
0.0
 11
1804.368857932427
 21
7587.508122720166
 31
0.0
  0
LINE
  5
1EC3B
330
1EA20
100
AcDbEntity
  8
YANE
100
AcDbLine
 10
1831.368857932427
 20
7408.502162099155
 30
0.0
 11
1831.368857932427
 21
7587.508122720166
 31
0.0
  0
LINE
  5
1EC3C
330
1EA20
100
AcDbEntity
  8
YANE
100
AcDbLine
 10
1987.568857932432
 20
7408.502162099158
 30
0.0
 11
1790.71885793243
 21
7408.502162099155
 31
0.0
  0
LINE
  5
1EC3D
330
1EA20
100
AcDbEntity
  8
YANE
100
AcDbLine
 10
4787.56885793243
 20
7408.502162099155
 30
0.0
 11
2063.868857932433
 21
7408.502162099158
 31
0.0
  0
LINE
  5
1EC3E
330
1EA20
100
AcDbEntity
  8
YANE
100
AcDbLine
 10
7663.868857932431
 20
7408.502162099158
 30
0.0
 11
10387.56885793243
 21
7408.502162099158
 31
0.0
  0
LINE
  5
1EC3F
330
1EA20
100
AcDbEntity
  8
YANE
100
AcDbLine
 10
10463.86885793243
 20
7408.502162099158
 30
0.0
 11
10660.71885793242
 21
7408.502162099162
 31
0.0
  0
LINE
  5
1EC40
330
1EA20
100
AcDbEntity
  8
TOI
100
AcDbLine
 10
1790.71885793243
 20
7380.745033979358
 30
0.0
 11
1987.568857932432
 21
7380.745033979358
 31
0.0
  0
LINE
  5
1EC41
330
1EA20
100
AcDbEntity
  8
TOI
100
AcDbLine
 10
1790.71885793243
 20
7389.736061817867
 30
0.0
 11
1987.568857932432
 21
7389.736061817867
 31
0.0
  0
LINE
  5
1EC42
330
1EA20
100
AcDbEntity
  8
TOI
100
AcDbLine
 10
2063.868857932432
 20
7380.745033979358
 30
0.0
 11
4787.56885793243
 21
7380.745033979362
 31
0.0
  0
LINE
  5
1EC43
330
1EA20
100
AcDbEntity
  8
TOI
100
AcDbLine
 10
2063.868857932432
 20
7389.736061817867
 30
0.0
 11
4787.56885793243
 21
7389.736061817867
 31
0.0
  0
LINE
  5
1EC44
330
1EA20
100
AcDbEntity
  8
TOI
100
AcDbLine
 10
4863.868857932432
 20
7389.736061817867
 30
0.0
 11
6165.718857932429
 21
7389.736061817867
 31
0.0
  0
LINE
  5
1EC45
330
1EA20
100
AcDbEntity
  8
TOI
100
AcDbLine
 10
4863.868857932432
 20
7380.745033979362
 30
0.0
 11
6265.718857932429
 21
7380.745033979358
 31
0.0
  0
LINE
  5
1EC46
330
1EA20
100
AcDbEntity
  8
TOI
100
AcDbLine
 10
7663.868857932431
 20
7389.736061817867
 30
0.0
 11
10387.56885793243
 21
7389.736061817867
 31
0.0
  0
LINE
  5
1EC47
330
1EA20
100
AcDbEntity
  8
TOI
100
AcDbLine
 10
7663.868857932431
 20
7380.745033979358
 30
0.0
 11
10387.56885793243
 21
7380.745033979358
 31
0.0
  0
LINE
  5
1EC48
330
1EA20
100
AcDbEntity
  8
TOI
100
AcDbLine
 10
10463.86885793243
 20
7380.745033979358
 30
0.0
 11
10660.71885793242
 21
7380.745033979362
 31
0.0
  0
LINE
  5
1EC49
330
1EA20
100
AcDbEntity
  8
TOI
100
AcDbLine
 10
10463.86885793243
 20
7389.736061817867
 30
0.0
 11
10660.71885793242
 21
7389.736061817867
 31
0.0
  0
LINE
  5
1EC4A
330
1EA20
100
AcDbEntity
  8
HANA
100
AcDbLine
 10
1790.71885793243
 20
7730.802125207461
 30
0.0
 11
6185.718857932429
 21
7730.802125207461
 31
0.0
  0
LINE
  5
1EC4B
330
1EA20
100
AcDbEntity
  8
HANA
100
AcDbLine
 10
1790.71885793243
 20
7630.076163276346
 30
0.0
 11
6185.718857932429
 21
7630.076163276349
 31
0.0
  0
LINE
  5
1EC4C
330
1EA20
100
AcDbEntity
  8
HANA
100
AcDbLine
 10
6265.718857932429
 20
7730.802125207461
 30
0.0
 11
10660.71885793242
 21
7730.802125207461
 31
0.0
  0
LINE
  5
1EC4D
330
1EA20
100
AcDbEntity
  8
HANA
100
AcDbLine
 10
6265.718857932429
 20
7630.076163276349
 30
0.0
 11
10660.71885793242
 21
7630.076163276349
 31
0.0
  0
LINE
  5
1EC4E
330
1EA20
100
AcDbEntity
  8
TOI
100
AcDbLine
 10
6265.71885793243
 20
7389.736061817867
 30
0.0
 11
7587.56885793243
 21
7389.736061817867
 31
0.0
  0
LINE
  5
1EC4F
330
1EA20
100
AcDbEntity
  8
TOI
100
AcDbLine
 10
6265.71885793243
 20
7380.745033979362
 30
0.0
 11
7587.56885793243
 21
7380.745033979358
 31
0.0
  0
LINE
  5
1EC50
330
1EA20
100
AcDbEntity
  8
HANA
100
AcDbLine
 10
6265.71885793243
 20
7587.508122720166
 30
0.0
 11
7588.218857932431
 21
7587.508122720166
 31
0.0
  0
LINE
  5
1EC51
330
1EA20
100
AcDbEntity
  8
HANA
100
AcDbLine
 10
1790.71885793243
 20
7587.508122720166
 30
0.0
 11
1988.218857932428
 21
7587.508122720166
 31
0.0
  0
LINE
  5
1EC52
330
1EA20
100
AcDbEntity
  8
HANA
100
AcDbLine
 10
6265.71885793243
 20
7617.052437601437
 30
0.0
 11
7588.218857932431
 21
7617.052437601437
 31
0.0
  0
LINE
  5
1EC53
330
1EA20
100
AcDbEntity
  8
HANA
100
AcDbLine
 10
1790.71885793243
 20
7617.052437601437
 30
0.0
 11
1988.218857932428
 21
7617.052437601437
 31
0.0
  0
LINE
  5
1EC54
330
1EA20
100
AcDbEntity
  8
HANA
100
AcDbLine
 10
10463.21885793242
 20
7617.052437601437
 30
0.0
 11
10660.71885793242
 21
7617.052437601437
 31
0.0
  0
LINE
  5
1EC55
330
1EA20
100
AcDbEntity
  8
HANA
100
AcDbLine
 10
10463.21885793242
 20
7587.508122720166
 30
0.0
 11
10660.71885793242
 21
7587.508122720166
 31
0.0
  0
LINE
  5
1EC56
330
1EA20
100
AcDbEntity
  8
HANA
100
AcDbLine
 10
7663.218857932431
 20
7617.052437601437
 30
0.0
 11
10388.21885793242
 21
7617.052437601437
 31
0.0
  0
LINE
  5
1EC57
330
1EA20
100
AcDbEntity
  8
HANA
100
AcDbLine
 10
7663.218857932431
 20
7587.508122720166
 30
0.0
 11
10388.21885793242
 21
7587.508122720166
 31
0.0
  0
LINE
  5
1EC58
330
1EA20
100
AcDbEntity
  8
HANA
100
AcDbLine
 10
4863.21885793243
 20
7587.508122720166
 30
0.0
 11
6185.718857932429
 21
7587.508122720166
 31
0.0
  0
LINE
  5
1EC59
330
1EA20
100
AcDbEntity
  8
HANA
100
AcDbLine
 10
4863.21885793243
 20
7617.052437601437
 30
0.0
 11
6185.718857932429
 21
7617.052437601437
 31
0.0
  0
LINE
  5
1EC5A
330
1EA20
100
AcDbEntity
  8
HANA
100
AcDbLine
 10
2063.218857932429
 20
7587.508122720166
 30
0.0
 11
4788.218857932429
 21
7587.508122720166
 31
0.0
  0
LINE
  5
1EC5B
330
1EA20
100
AcDbEntity
  8
HANA
100
AcDbLine
 10
2063.218857932429
 20
7617.052437601437
 30
0.0
 11
4788.218857932429
 21
7617.052437601437
 31
0.0
  0
LINE
  5
1EC5C
330
1EA20
100
AcDbEntity
  8
SUNPOU
100
AcDbLine
 10
1784.718857932428
 20
7758.010895961368
 30
0.0
 11
1784.718857932428
 21
8160.802125207462
 31
0.0
  0
LINE
  5
1EC5D
330
1EA20
100
AcDbEntity
  8
SUNPOU
100
AcDbLine
 10
2025.71885793243
 20
8003.194632209917
 30
0.0
 11
2025.71885793243
 21
8160.802125207462
 31
0.0
  0
LINE
  5
1EC5E
330
1EA20
100
AcDbEntity
  8
SUNPOU
100
AcDbLine
 10
1799.718857932428
 20
8130.802125207461
 30
0.0
 11
2010.718857932428
 21
8130.802125207461
 31
0.0
  0
TEXT
  5
1EC5F
330
1EA20
100
AcDbEntity
  8
SUNPOU
100
AcDbText
 10
1819.504572218143
 20
8175.802125207461
 30
0.0
 40
90.0
  1
238
 41
0.6666666666666666
  7
00
 72
     1
 11
1905.218857932428
 21
8220.802125207461
 31
0.0
100
AcDbText
 73
     2
  0
LINE
  5
1EC60
330
1EA20
100
AcDbEntity
  8
SUNPOU
100
AcDbLine
 10
2025.71885793243
 20
8003.194632209917
 30
0.0
 11
2025.71885793243
 21
8160.802125207462
 31
0.0
  0
LINE
  5
1EC61
330
1EA20
100
AcDbEntity
  8
SUNPOU
100
AcDbLine
 10
4825.71885793243
 20
8003.194632209917
 30
0.0
 11
4825.71885793243
 21
8160.802125207462
 31
0.0
  0
LINE
  5
1EC62
330
1EA20
100
AcDbEntity
  8
SUNPOU
100
AcDbLine
 10
2040.718857932428
 20
8130.802125207461
 30
0.0
 11
4810.718857932429
 21
8130.802125207461
 31
0.0
  0
TEXT
  5
1EC63
330
1EA20
100
AcDbEntity
  8
SUNPOU
100
AcDbText
 10
3311.433143646716
 20
8175.802125207461
 30
0.0
 40
90.0
  1
2800
 41
0.6666666666666666
  7
00
 72
     1
 11
3425.71885793243
 21
8220.802125207461
 31
0.0
100
AcDbText
 73
     2
  0
LINE
  5
1EC64
330
1EA20
100
AcDbEntity
  8
SUNPOU
100
AcDbLine
 10
4825.71885793243
 20
8003.194632209917
 30
0.0
 11
4825.71885793243
 21
8160.802125207462
 31
0.0
  0
LINE
  5
1EC65
330
1EA20
100
AcDbEntity
  8
SUNPOU
100
AcDbLine
 10
7625.71885793243
 20
8003.194632209917
 30
0.0
 11
7625.71885793243
 21
8160.802125207462
 31
0.0
  0
LINE
  5
1EC66
330
1EA20
100
AcDbEntity
  8
SUNPOU
100
AcDbLine
 10
4840.71885793243
 20
8130.802125207461
 30
0.0
 11
7610.718857932432
 21
8130.802125207461
 31
0.0
  0
LINE
  5
1EC67
330
1EA20
100
AcDbEntity
  8
SUNPOU
100
AcDbLine
 10
7625.71885793243
 20
8003.194632209917
 30
0.0
 11
7625.71885793243
 21
8160.802125207462
 31
0.0
  0
LINE
  5
1EC68
330
1EA20
100
AcDbEntity
  8
SUNPOU
100
AcDbLine
 10
10425.71885793242
 20
8003.194632209917
 30
0.0
 11
10425.71885793242
 21
8160.802125207462
 31
0.0
  0
LINE
  5
1EC69
330
1EA20
100
AcDbEntity
  8
SUNPOU
100
AcDbLine
 10
7640.71885793243
 20
8130.802125207461
 30
0.0
 11
10410.71885793242
 21
8130.802125207461
 31
0.0
  0
TEXT
  5
1EC6A
330
1EA20
100
AcDbEntity
  8
SUNPOU
100
AcDbText
 10
8911.433143646716
 20
8175.802125207461
 30
0.0
 40
90.0
  1
2800
 41
0.6666666666666666
  7
00
 72
     1
 11
9025.718857932428
 21
8220.802125207461
 31
0.0
100
AcDbText
 73
     2
  0
LINE
  5
1EC6B
330
1EA20
100
AcDbEntity
  8
SUNPOU
100
AcDbLine
 10
10425.71885793242
 20
8003.194632209917
 30
0.0
 11
10425.71885793242
 21
8160.802125207462
 31
0.0
  0
LINE
  5
1EC6C
330
1EA20
100
AcDbEntity
  8
SUNPOU
100
AcDbLine
 10
10666.71885793242
 20
7758.010895961368
 30
0.0
 11
10666.71885793242
 21
8160.802125207462
 31
0.0
  0
LINE
  5
1EC6D
330
1EA20
100
AcDbEntity
  8
SUNPOU
100
AcDbLine
 10
10440.71885793242
 20
8130.802125207461
 30
0.0
 11
10651.71885793242
 21
8130.802125207461
 31
0.0
  0
TEXT
  5
1EC6E
330
1EA20
100
AcDbEntity
  8
SUNPOU
100
AcDbText
 10
10460.50457221814
 20
8175.802125207461
 30
0.0
 40
90.0
  1
238
 41
0.6666666666666666
  7
00
 72
     1
 11
10546.21885793242
 21
8220.802125207461
 31
0.0
100
AcDbText
 73
     2
  0
TEXT
  5
1EC6F
330
1EA20
100
AcDbEntity
  8
SUNPOU
100
AcDbText
 10
5836.004572218143
 20
8175.802125207461
 30
0.0
 40
90.0
  1
2800 ×（ N - 2 ）
 41
0.6666666666666666
  7
00
 72
     4
 11
6225.718857932429
 21
8220.802125207461
 31
0.0
100
AcDbText
  0
LINE
  5
1EC70
330
1EA20
100
AcDbEntity
  8
SUNPOU
100
AcDbLine
 10
1795.968857932429
 20
8130.802125207461
 30
0.0
 11
1807.218857932428
 21
8130.802125207461
 31
0.0
  0
LINE
  5
1EC71
330
1EA20
100
AcDbEntity
  8
SUNPOU
100
AcDbLine
 10
2036.968857932428
 20
8130.802125207461
 30
0.0
 11
2048.21885793243
 21
8130.802125207461
 31
0.0
  0
LINE
  5
1EC72
330
1EA20
100
AcDbEntity
  8
SUNPOU
100
AcDbLine
 10
2014.46885793243
 20
8130.802125207461
 30
0.0
 11
2003.21885793243
 21
8130.802125207461
 31
0.0
  0
LINE
  5
1EC73
330
1EA20
100
AcDbEntity
  8
SUNPOU
100
AcDbLine
 10
4836.96885793243
 20
8130.802125207461
 30
0.0
 11
4848.21885793243
 21
8130.802125207461
 31
0.0
  0
LINE
  5
1EC74
330
1EA20
100
AcDbEntity
  8
SUNPOU
100
AcDbLine
 10
4814.468857932429
 20
8130.802125207461
 30
0.0
 11
4803.218857932431
 21
8130.802125207461
 31
0.0
  0
LINE
  5
1EC75
330
1EA20
100
AcDbEntity
  8
SUNPOU
100
AcDbLine
 10
7636.968857932432
 20
8130.802125207461
 30
0.0
 11
7648.21885793243
 21
8130.802125207461
 31
0.0
  0
LINE
  5
1EC76
330
1EA20
100
AcDbEntity
  8
SUNPOU
100
AcDbLine
 10
7614.468857932431
 20
8130.802125207461
 30
0.0
 11
7603.21885793243
 21
8130.802125207461
 31
0.0
  0
LINE
  5
1EC77
330
1EA20
100
AcDbEntity
  8
SUNPOU
100
AcDbLine
 10
10655.46885793241
 20
8130.802125207461
 30
0.0
 11
10644.21885793242
 21
8130.802125207461
 31
0.0
  0
LINE
  5
1EC78
330
1EA20
100
AcDbEntity
  8
SUNPOU
100
AcDbLine
 10
10414.46885793242
 20
8130.802125207461
 30
0.0
 11
10403.21885793242
 21
8130.802125207461
 31
0.0
  0
LINE
  5
1EC79
330
1EA20
100
AcDbEntity
  8
SUNPOU
100
AcDbLine
 10
10436.96885793242
 20
8130.802125207461
 30
0.0
 11
10448.21885793242
 21
8130.802125207461
 31
0.0
  0
LINE
  5
1EC7A
330
1EA20
100
AcDbEntity
  8
SUNPOU
100
AcDbLine
 10
1278.224636933686
 20
1798.055063765603
 30
0.0
 11
1278.224636933686
 21
1809.305063765603
 31
0.0
  0
LINE
  5
1EC7B
330
1EA20
100
AcDbEntity
  8
SUNPOU
100
AcDbLine
 10
1488.224636933687
 20
1798.055063765603
 30
0.0
 11
1488.224636933687
 21
1809.305063765603
 31
0.0
  0
LINE
  5
1EC7C
330
1EA20
100
AcDbEntity
  8
SUNPOU
100
AcDbLine
 10
1278.224636933686
 20
3980.490775902097
 30
0.0
 11
1278.224636933686
 21
3969.240775902097
 31
0.0
  0
LINE
  5
1EC7D
330
1EA20
100
AcDbEntity
  8
SUNPOU
100
AcDbLine
 10
1488.224636933687
 20
3882.490775902097
 30
0.0
 11
1488.224636933687
 21
3871.240775902096
 31
0.0
  0
LINE
  5
1EC7E
330
1EA20
100
AcDbEntity
  8
SUNPOU
100
AcDbLine
 10
1488.224636933687
 20
3882.490775902097
 30
0.0
 11
1488.224636933687
 21
3871.240775902096
 31
0.0
  0
LINE
  5
1EC7F
330
1EA20
100
AcDbEntity
  8
SUNPOU
100
AcDbLine
 10
1488.224636933687
 20
4002.990775902097
 30
0.0
 11
1488.224636933687
 21
4014.240775902097
 31
0.0
  0
LINE
  5
1EC80
330
1EA20
100
AcDbEntity
  8
SUNPOU
100
AcDbLine
 10
4410.884030123905
 20
1798.055063765604
 30
0.0
 11
4410.884030123905
 21
1809.305063765604
 31
0.0
  0
LINE
  5
1EC81
330
1EA20
100
AcDbEntity
  8
SUNPOU
100
AcDbLine
 10
4410.884030123905
 20
1725.555063765605
 30
0.0
 11
4410.884030123905
 21
1714.305063765604
 31
0.0
  0
LINE
  5
1EC82
330
1EA20
100
AcDbEntity
  8
SUNPOU
100
AcDbLine
 10
4410.884030123905
 20
1775.555063765605
 30
0.0
 11
4410.884030123905
 21
1764.305063765605
 31
0.0
  0
LINE
  5
1EC83
330
1EA20
100
AcDbEntity
  8
SUNPOU
100
AcDbLine
 10
1798.897083943634
 20
4501.740775902097
 30
0.0
 11
1810.147083943634
 21
4501.740775902097
 31
0.0
  0
LINE
  5
1EC84
330
1EA20
100
AcDbEntity
  8
SUNPOU
100
AcDbLine
 10
1798.897083943634
 20
4711.740775902097
 30
0.0
 11
1810.147083943634
 21
4711.740775902097
 31
0.0
  0
LINE
  5
1EC85
330
1EA20
100
AcDbEntity
  8
SUNPOU
100
AcDbLine
 10
2813.897083943633
 20
4501.740775902097
 30
0.0
 11
2825.147083943635
 21
4501.740775902097
 31
0.0
  0
LINE
  5
1EC86
330
1EA20
100
AcDbEntity
  8
SUNPOU
100
AcDbLine
 10
2791.397083943633
 20
4501.740775902097
 30
0.0
 11
2780.147083943633
 21
4501.740775902097
 31
0.0
  0
LINE
  5
1EC87
330
1EA20
100
AcDbEntity
  8
SUNPOU
100
AcDbLine
 10
4410.884030123905
 20
3597.555063765605
 30
0.0
 11
4410.884030123905
 21
3586.305063765604
 31
0.0
  0
LINE
  5
1EC88
330
1EA20
100
AcDbEntity
  8
SUNPOU
100
AcDbLine
 10
3776.397083943633
 20
4501.740775902097
 30
0.0
 11
3765.147083943633
 21
4501.740775902097
 31
0.0
  0
LINE
  5
1EC89
330
1EA20
100
AcDbEntity
  8
SUNPOU
100
AcDbLine
 10
3776.397083943633
 20
4711.740775902097
 30
0.0
 11
3765.147083943633
 21
4711.740775902097
 31
0.0
  0
TEXT
  5
1EC8A
330
1EA20
100
AcDbEntity
  8
SUNPOU
100
AcDbText
 10
7471.291559419434
 20
4546.391364710046
 30
0.0
 40
90.0
  1
2000
 41
0.6666666666666666
  7
00
 72
     1
 11
7585.577273705149
 21
4591.391364710045
 31
0.0
100
AcDbText
 73
     2
  0
LINE
  5
1EC8B
330
1EA20
100
AcDbEntity
  8
HATCH
100
AcDbLine
 10
6637.50628607484
 20
1786.805063765605
 30
0.0
 11
6547.506286074841
 21
1696.805063765604
 31
0.0
  0
LINE
  5
1EC8C
330
1EA20
100
AcDbEntity
  8
HATCH
100
AcDbLine
 10
6578.109316455172
 20
1786.805063765605
 30
0.0
 11
6488.109316455164
 21
1696.805063765604
 31
0.0
  0
LINE
  5
1EC8D
330
1EA20
100
AcDbEntity
  8
HATCH
100
AcDbLine
 10
6607.807801265008
 20
1786.805063765605
 30
0.0
 11
6517.807801265006
 21
1696.805063765604
 31
0.0
  0
LINE
  5
1EC8E
330
1EA20
100
AcDbEntity
  8
KISO
100
AcDbLine
 10
7552.823701566686
 20
1786.805063765603
 30
0.0
 11
6190.973701566683
 21
1786.805063765603
 31
0.0
  0
LINE
  5
1EC8F
330
1EA20
100
AcDbEntity
  8
SUNPOU
100
AcDbLine
 10
6559.729102554559
 20
1876.805063765603
 30
0.0
 11
6455.806054100425
 21
1876.805063765603
 31
0.0
  0
LINE
  5
1EC90
330
1EA20
100
AcDbEntity
  8
SUNPOU
100
AcDbLine
 10
6507.76757832749
 20
1786.805063765603
 30
0.0
 11
6559.729102554559
 21
1876.805063765603
 31
0.0
  0
TEXT
  5
1EC91
330
1EA20
100
AcDbEntity
  8
SUNPOU
100
AcDbText
 10
6439.196149756061
 20
1921.805063765603
 30
0.0
 40
90.0
  1
F.L
 41
0.6666666666666666
  7
00
 72
     4
 11
6507.76757832749
 21
1966.805063765603
 31
0.0
100
AcDbText
  0
LINE
  5
1EC92
330
1EA20
100
AcDbEntity
  8
KISO
100
AcDbLine
 10
6190.973701566683
 20
1696.805063765603
 30
0.0
 11
7265.973701566683
 21
1696.805063765603
 31
0.0
  0
LINE
  5
1EC93
330
1EA20
100
AcDbEntity
  8
KISO
100
AcDbLine
 10
6190.973701566683
 20
1636.805063765603
 30
0.0
 11
7265.973701566683
 21
1636.805063765603
 31
0.0
  0
LINE
  5
1EC94
330
1EA20
100
AcDbEntity
  8
SUNPOU
100
AcDbLine
 10
6603.213178810469
 20
3893.514367376559
 30
0.0
 11
6301.596742355274
 21
3893.514367376559
 31
0.0
  0
LINE
  5
1EC95
330
1EA20
100
AcDbEntity
  8
SUNPOU
100
AcDbLine
 10
6603.213178810469
 20
3893.514367376559
 30
0.0
 11
6301.596742355274
 21
3893.514367376559
 31
0.0
  0
LINE
  5
1EC96
330
1EA20
100
AcDbEntity
  8
SUNPOU
100
AcDbLine
 10
6608.121680922304
 20
3991.39136471004
 30
0.0
 11
6301.596742355274
 21
3991.39136471004
 31
0.0
  0
LINE
  5
1EC97
330
1EA20
100
AcDbEntity
  8
SUNPOU
100
AcDbLine
 10
6455.806054100425
 20
1876.805063765603
 30
0.0
 11
6507.76757832749
 21
1786.805063765603
 31
0.0
  0
LINE
  5
1EC98
330
1EA20
100
AcDbEntity
  8
SUNPOU
100
AcDbLine
 10
5867.468409084124
 20
1736.805063765605
 30
0.0
 11
5919.429933311191
 21
1826.805063765604
 31
0.0
  0
LINE
  5
1EC99
330
1EA20
100
AcDbEntity
  8
SUNPOU
100
AcDbLine
 10
5815.506884857059
 20
1826.805063765604
 30
0.0
 11
5867.468409084124
 21
1736.805063765605
 31
0.0
  0
LINE
  5
1EC9A
330
1EA20
100
AcDbEntity
  8
SUNPOU
100
AcDbLine
 10
6331.596742355274
 20
1801.805063765603
 30
0.0
 11
6331.596742355274
 21
3878.51436737656
 31
0.0
  0
LINE
  5
1EC9B
330
1EA20
100
AcDbEntity
  8
U3
100
AcDbLine
 10
6044.613311873477
 20
1736.805063765605
 30
0.0
 11
6149.613311873473
 21
1631.805063765607
 31
0.0
  0
LINE
  5
1EC9C
330
1EA20
100
AcDbEntity
  8
U3
100
AcDbLine
 10
6012.793506720082
 20
1704.98525861221
 30
0.0
 11
6085.973701566687
 21
1631.805063765605
 31
0.0
  0
LINE
  5
1EC9D
330
1EA20
100
AcDbEntity
  8
U3
100
AcDbLine
 10
6190.973701566683
 20
1736.805063765605
 30
0.0
 11
5729.613311873477
 21
1736.805063765605
 31
0.0
  0
LINE
  5
1EC9E
330
1EA20
100
AcDbEntity
  8
U3
100
AcDbLine
 10
5802.793506720082
 20
1704.98525861221
 30
0.0
 11
5875.973701566687
 21
1631.805063765605
 31
0.0
  0
LINE
  5
1EC9F
330
1EA20
100
AcDbEntity
  8
U3
100
AcDbLine
 10
5729.613311873477
 20
1631.805063765607
 30
0.0
 11
5834.613311873477
 21
1736.805063765605
 31
0.0
  0
LINE
  5
1ECA0
330
1EA20
100
AcDbEntity
  8
U3
100
AcDbLine
 10
5770.973701566687
 20
1673.165453458816
 30
0.0
 11
5812.334091259898
 21
1631.805063765605
 31
0.0
  0
LINE
  5
1ECA1
330
1EA20
100
AcDbEntity
  8
U3
100
AcDbLine
 10
5729.613311873478
 20
1695.444674072392
 30
0.0
 11
5770.973701566689
 21
1736.805063765605
 31
0.0
  0
LINE
  5
1ECA2
330
1EA20
100
AcDbEntity
  8
U3
100
AcDbLine
 10
5834.613311873477
 20
1736.805063765605
 30
0.0
 11
5939.613311873475
 21
1631.805063765607
 31
0.0
  0
LINE
  5
1ECA3
330
1EA20
100
AcDbEntity
  8
U3
100
AcDbLine
 10
5980.973701566687
 20
1673.165453458818
 30
0.0
 11
6022.334091259898
 21
1631.805063765605
 31
0.0
  0
LINE
  5
1ECA4
330
1EA20
100
AcDbEntity
  8
U3
100
AcDbLine
 10
5939.613311873475
 20
1631.805063765607
 30
0.0
 11
6044.613311873477
 21
1736.805063765605
 31
0.0
  0
LINE
  5
1ECA5
330
1EA20
100
AcDbEntity
  8
U3
100
AcDbLine
 10
5907.793506720082
 20
1663.624868919001
 30
0.0
 11
5980.973701566687
 21
1736.805063765605
 31
0.0
  0
LINE
  5
1ECA6
330
1EA20
100
AcDbEntity
  8
U3
100
AcDbLine
 10
5875.973701566687
 20
1695.444674072396
 30
0.0
 11
5917.334091259895
 21
1736.805063765605
 31
0.0
  0
LINE
  5
1ECA7
330
1EA20
100
AcDbEntity
  8
HATCH
100
AcDbLine
 10
6329.232278125069
 20
1786.805063765605
 30
0.0
 11
6239.232278125069
 21
1696.805063765607
 31
0.0
  0
LINE
  5
1ECA8
330
1EA20
100
AcDbEntity
  8
U3
100
AcDbLine
 10
6117.793506720078
 20
1663.624868919001
 30
0.0
 11
6190.973701566683
 21
1736.805063765605
 31
0.0
  0
LINE
  5
1ECA9
330
1EA20
100
AcDbEntity
  8
U3
100
AcDbLine
 10
6085.973701566683
 20
1695.444674072396
 30
0.0
 11
6127.334091259894
 21
1736.805063765605
 31
0.0
  0
LINE
  5
1ECAA
330
1EA20
100
AcDbEntity
  8
HATCH
100
AcDbLine
 10
6269.835308505399
 20
1786.805063765605
 30
0.0
 11
6190.973701566683
 21
1707.943456826892
 31
0.0
  0
LINE
  5
1ECAB
330
1EA20
100
AcDbEntity
  8
HATCH
100
AcDbLine
 10
6299.533793315237
 20
1786.805063765605
 30
0.0
 11
6209.533793315236
 21
1696.805063765607
 31
0.0
  0
LINE
  5
1ECAC
330
1EA20
100
AcDbEntity
  8
KISO
100
AcDbLine
 10
6190.973701566683
 20
1786.805063765603
 30
0.0
 11
6190.973701566683
 21
1636.805063765603
 31
0.0
  0
LINE
  5
1ECAD
330
1EA20
100
AcDbEntity
  8
SUNPOU
100
AcDbLine
 10
6301.596742355274
 20
1786.805063765603
 30
0.0
 11
6301.596742355274
 21
1786.805063765603
 31
0.0
  0
TEXT
  5
1ECAE
330
1EA20
100
AcDbEntity
  8
SUNPOU
100
AcDbText
 10
5796.039837655552
 20
1871.805063765604
 30
0.0
 40
90.0
  1
G.L
 41
0.6666666666666666
  7
00
 72
     4
 11
5867.468409084124
 21
1916.805063765604
 31
0.0
100
AcDbText
  0
LINE
  5
1ECAF
330
1EA20
100
AcDbEntity
  8
SUNPOU
100
AcDbLine
 10
5919.429933311191
 20
1826.805063765604
 30
0.0
 11
5815.506884857059
 21
1826.805063765604
 31
0.0
  0
TEXT
  5
1ECB0
330
1EA20
100
AcDbEntity
  8
SUNPOU
100
AcDbText
 10
6286.596742355274
 20
2725.874001285368
 30
0.0
 40
90.0
  1
2102
 50
90.0
 41
0.6666666666666666
  7
00
 72
     1
 11
6241.596742355273
 21
2840.159715571083
 31
0.0
100
AcDbText
 73
     2
  0
LINE
  5
1ECB1
330
1EA20
100
AcDbEntity
  8
SUNPOU
100
AcDbLine
 10
6331.596742355274
 20
3893.514367376557
 30
0.0
 11
6331.596742355274
 21
4121.234221852899
 31
0.0
  0
LINE
  5
1ECB2
330
1EA20
100
AcDbEntity
  8
SUNPOU
100
AcDbLine
 10
6331.596742355274
 20
3878.51436737656
 30
0.0
 11
6331.596742355274
 21
3863.51436737656
 31
0.0
  0
TEXT
  5
1ECB3
330
1EA20
100
AcDbEntity
  8
SUNPOU
100
AcDbText
 10
6286.596742355274
 20
4015.519936138612
 30
0.0
 40
90.0
  1
98
 50
90.0
 41
0.6666666666666666
  7
00
 72
     1
 11
6241.596742355273
 21
4072.66279328147
 31
0.0
100
AcDbText
 73
     2
  0
LINE
  5
1ECB4
330
1EA20
100
AcDbEntity
  8
SUNPOU
100
AcDbLine
 10
6331.596742355274
 20
4006.391364710039
 30
0.0
 11
6331.596742355274
 21
4021.39136471004
 31
0.0
  0
LINE
  5
1ECB5
330
1EA20
100
AcDbEntity
  8
HASHIRA
100
AcDbLine
 10
7629.123701566685
 20
3444.555063765605
 30
0.0
 11
7629.123701566685
 21
1286.805063765603
 31
0.0
  0
LINE
  5
1ECB6
330
1EA20
100
AcDbEntity
  8
HASHIRA
100
AcDbLine
 10
7552.823701566686
 20
1286.805063765603
 30
0.0
 11
7552.823701566686
 21
3774.805063765604
 31
0.0
  0
LINE
  5
1ECB7
330
1EA20
100
AcDbEntity
  8
1PL-M1
100
AcDbLine
 10
7590.973701566683
 20
1094.837470457066
 30
0.0
 11
7590.973701566683
 21
3772.891852687758
 31
0.0
  0
LINE
  5
1ECB8
330
1EA20
100
AcDbEntity
  8
SUNPOU
100
AcDbLine
 10
8980.973701566684
 20
3600.582642126956
 30
0.0
 11
8980.973701566684
 21
1801.805063765605
 31
0.0
  0
LINE
  5
1ECB9
330
1EA20
100
AcDbEntity
  8
HIKIDASHI
100
AcDbLine
 10
7984.580920711902
 20
1450.066375526769
 30
0.0
 11
8775.540145743303
 21
1450.066375526769
 31
0.0
  0
TEXT
  5
1ECBA
330
1EA20
100
AcDbEntity
  8
HIKIDASHI
100
AcDbText
 10
8274.716985854292
 20
1495.066375526769
 30
0.0
 40
90.0
  1
10   x 350
 41
0.6666666666666666
  7
00
 11
8274.716985854292
 21
1540.066375526769
 31
0.0
100
AcDbText
 73
     2
  0
LINE
  5
1ECBB
330
1EA20
100
AcDbEntity
  8
KISO
100
AcDbLine
 10
7915.973701566684
 20
1636.805063765603
 30
0.0
 11
8790.973701566683
 21
1636.805063765603
 31
0.0
  0
LINE
  5
1ECBC
330
1EA20
100
AcDbEntity
  8
KISO
100
AcDbLine
 10
7915.973701566684
 20
1696.805063765604
 30
0.0
 11
8790.973701566683
 21
1696.805063765607
 31
0.0
  0
LINE
  5
1ECBD
330
1EA20
100
AcDbEntity
  8
KISO
100
AcDbLine
 10
8790.973701566683
 20
1786.805063765605
 30
0.0
 11
7629.123701566685
 21
1786.805063765603
 31
0.0
  0
LINE
  5
1ECBE
330
1EA20
100
AcDbEntity
  8
HATCH
100
AcDbLine
 10
7552.823701566686
 20
1628.956578955768
 30
0.0
 11
7265.973701566688
 21
1342.10657895577
 31
0.0
  0
LINE
  5
1ECBF
330
1EA20
100
AcDbEntity
  8
HATCH
100
AcDbLine
 10
7552.823701566686
 20
1688.353548575437
 30
0.0
 11
7265.973701566688
 21
1401.503548575438
 31
0.0
  0
LINE
  5
1ECC0
330
1EA20
100
AcDbEntity
  8
HATCH
100
AcDbLine
 10
7552.823701566686
 20
1658.655063765602
 30
0.0
 11
7265.973701566688
 21
1371.805063765601
 31
0.0
  0
LINE
  5
1ECC1
330
1EA20
100
AcDbEntity
  8
HATCH
100
AcDbLine
 10
7552.823701566686
 20
1388.655063765604
 30
0.0
 11
7450.973701566683
 21
1286.805063765603
 31
0.0
  0
LINE
  5
1ECC2
330
1EA20
100
AcDbEntity
  8
HATCH
100
AcDbLine
 10
7552.823701566686
 20
1358.956578955771
 30
0.0
 11
7480.672186376519
 21
1286.805063765603
 31
0.0
  0
LINE
  5
1ECC3
330
1EA20
100
AcDbEntity
  8
HATCH
100
AcDbLine
 10
7552.823701566686
 20
1329.258094145935
 30
0.0
 11
7510.370671186352
 21
1286.805063765603
 31
0.0
  0
LINE
  5
1ECC4
330
1EA20
100
AcDbEntity
  8
HATCH
100
AcDbLine
 10
6877.807801265008
 20
1786.805063765605
 30
0.0
 11
6787.807801265002
 21
1696.805063765604
 31
0.0
  0
LINE
  5
1ECC5
330
1EA20
100
AcDbEntity
  8
HATCH
100
AcDbLine
 10
6937.204770884676
 20
1786.805063765605
 30
0.0
 11
6847.204770884677
 21
1696.805063765604
 31
0.0
  0
LINE
  5
1ECC6
330
1EA20
100
AcDbEntity
  8
HATCH
100
AcDbLine
 10
6907.506286074847
 20
1786.805063765605
 30
0.0
 11
6817.506286074844
 21
1696.805063765604
 31
0.0
  0
LINE
  5
1ECC7
330
1EA20
100
AcDbEntity
  8
KISO
100
AcDbLine
 10
7265.973701566683
 20
1786.805063765605
 30
0.0
 11
7265.973701566688
 21
1286.805063765603
 31
0.0
  0
LINE
  5
1ECC8
330
1EA20
100
AcDbEntity
  8
HATCH
100
AcDbLine
 10
7351.576731947014
 20
1786.805063765605
 30
0.0
 11
7265.973701566683
 21
1701.202033385273
 31
0.0
  0
LINE
  5
1ECC9
330
1EA20
100
AcDbEntity
  8
HATCH
100
AcDbLine
 10
7381.275216756851
 20
1786.805063765605
 30
0.0
 11
7265.973701566683
 21
1671.503548575437
 31
0.0
  0
LINE
  5
1ECCA
330
1EA20
100
AcDbEntity
  8
HATCH
100
AcDbLine
 10
7410.973701566684
 20
1786.805063765605
 30
0.0
 11
7265.973701566683
 21
1641.805063765604
 31
0.0
  0
LINE
  5
1ECCB
330
1EA20
100
AcDbEntity
  8
HATCH
100
AcDbLine
 10
7177.506286074842
 20
1786.805063765605
 30
0.0
 11
7087.506286074845
 21
1696.805063765604
 31
0.0
  0
LINE
  5
1ECCC
330
1EA20
100
AcDbEntity
  8
HATCH
100
AcDbLine
 10
7207.204770884674
 20
1786.805063765605
 30
0.0
 11
7117.204770884673
 21
1696.805063765604
 31
0.0
  0
LINE
  5
1ECCD
330
1EA20
100
AcDbEntity
  8
HATCH
100
AcDbLine
 10
7236.903255694514
 20
1786.805063765605
 30
0.0
 11
7146.903255694514
 21
1696.805063765607
 31
0.0
  0
LINE
  5
1ECCE
330
1EA20
100
AcDbEntity
  8
HATCH
100
AcDbLine
 10
8095.020359891186
 20
1786.805063765605
 30
0.0
 11
8005.020359891187
 21
1696.805063765604
 31
0.0
  0
LINE
  5
1ECCF
330
1EA20
100
AcDbEntity
  8
HATCH
100
AcDbLine
 10
8065.32187508135
 20
1786.805063765605
 30
0.0
 11
7975.321875081347
 21
1696.805063765604
 31
0.0
  0
TEXT
  5
1ECD0
330
1EA20
100
AcDbEntity
  8
HIKIDASHI
100
AcDbText
 10
8014.580920711901
 20
1495.066375526769
 30
0.0
 40
90.0
  1
鉄筋
  7
01
 11
8014.580920711901
 21
1540.066375526769
 31
0.0
100
AcDbText
 73
     2
  0
LINE
  5
1ECD1
330
1EA20
100
AcDbEntity
  8
HATCH
100
AcDbLine
 10
7915.973701566688
 20
1692.408094145936
 30
0.0
 11
7629.123701566685
 21
1405.558094145934
 31
0.0
  0
LINE
  5
1ECD2
330
1EA20
100
AcDbEntity
  8
HATCH
100
AcDbLine
 10
7915.973701566684
 20
1722.106578955774
 30
0.0
 11
7629.123701566685
 21
1435.25657895577
 31
0.0
  0
LINE
  5
1ECD3
330
1EA20
100
AcDbEntity
  8
KISO
100
AcDbLine
 10
7915.973701566684
 20
1786.805063765605
 30
0.0
 11
7915.973701566688
 21
1286.805063765604
 31
0.0
  0
LINE
  5
1ECD4
330
1EA20
100
AcDbEntity
  8
HIKIDASHI
100
AcDbLine
 10
7652.993414538554
 20
1329.378393225101
 30
0.0
 11
7984.580920711902
 21
1450.066375526769
 31
0.0
  0
LINE
  5
1ECD5
330
1EA20
100
AcDbEntity
  8
HATCH
100
AcDbLine
 10
7915.973701566684
 20
1422.408094145938
 30
0.0
 11
7780.370671186354
 21
1286.805063765603
 31
0.0
  0
LINE
  5
1ECD6
330
1EA20
100
AcDbEntity
  8
HATCH
100
AcDbLine
 10
7915.973701566684
 20
1452.106578955776
 30
0.0
 11
7750.672186376509
 21
1286.805063765603
 31
0.0
  0
LINE
  5
1ECD7
330
1EA20
100
AcDbEntity
  8
HIKIDASHI
100
AcDbLine
 10
7574.61007446817
 20
1346.805063765603
 30
0.0
 11
7607.337328665195
 21
1346.805063765603
 31
0.0
  0
CIRCLE
  5
1ECD8
330
1EA20
100
AcDbEntity
  8
HASHIRA
100
AcDbCircle
 10
7590.973701566683
 20
1346.805063765603
 30
0.0
 40
6.0
  0
CIRCLE
  5
1ECD9
330
1EA20
100
AcDbEntity
  8
HASHIRA
100
AcDbCircle
 10
7590.973701566683
 20
1306.805063765603
 30
0.0
 40
6.0
  0
LINE
  5
1ECDA
330
1EA20
100
AcDbEntity
  8
HATCH
100
AcDbLine
 10
7915.973701566688
 20
1392.709609336103
 30
0.0
 11
7810.069155996187
 21
1286.805063765603
 31
0.0
  0
LINE
  5
1ECDB
330
1EA20
100
AcDbEntity
  8
HATCH
100
AcDbLine
 10
7915.973701566684
 20
1751.805063765605
 30
0.0
 11
7629.123701566685
 21
1464.955063765603
 31
0.0
  0
LINE
  5
1ECDC
330
1EA20
100
AcDbEntity
  8
HATCH
100
AcDbLine
 10
7680.973701566689
 20
1786.805063765605
 30
0.0
 11
7629.123701566685
 21
1734.955063765601
 31
0.0
  0
LINE
  5
1ECDD
330
1EA20
100
AcDbEntity
  8
HATCH
100
AcDbLine
 10
7710.672186376519
 20
1786.805063765605
 30
0.0
 11
7629.123701566685
 21
1705.256578955765
 31
0.0
  0
LINE
  5
1ECDE
330
1EA20
100
AcDbEntity
  8
HATCH
100
AcDbLine
 10
7651.27521675685
 20
1786.805063765605
 30
0.0
 11
7629.123701566685
 21
1764.653548575438
 31
0.0
  0
LINE
  5
1ECDF
330
1EA20
100
AcDbEntity
  8
HATCH
100
AcDbLine
 10
8365.020359891188
 20
1786.805063765605
 30
0.0
 11
8275.020359891186
 21
1696.805063765604
 31
0.0
  0
LINE
  5
1ECE0
330
1EA20
100
AcDbEntity
  8
HATCH
100
AcDbLine
 10
8124.718844701019
 20
1786.805063765605
 30
0.0
 11
8034.718844701021
 21
1696.805063765604
 31
0.0
  0
TEXT
  5
1ECE1
330
1EA20
100
AcDbEntity
  8
HIKIDASHI
100
AcDbText
 10
8424.174146750354
 20
1510.066375526769
 30
0.0
 40
90.0
  1
%%c
 41
0.6666666666666666
  7
00
100
AcDbText
  0
LINE
  5
1ECE2
330
1EA20
100
AcDbEntity
  8
HATCH
100
AcDbLine
 10
8424.417329510854
 20
1786.805063765605
 30
0.0
 11
8334.417329510854
 21
1696.805063765604
 31
0.0
  0
LINE
  5
1ECE3
330
1EA20
100
AcDbEntity
  8
HATCH
100
AcDbLine
 10
8394.718844701023
 20
1786.805063765605
 30
0.0
 11
8304.718844701023
 21
1696.805063765604
 31
0.0
  0
LINE
  5
1ECE4
330
1EA20
100
AcDbEntity
  8
U3
100
AcDbLine
 10
9252.334091259887
 20
1736.805063765605
 30
0.0
 11
8790.973701566683
 21
1736.805063765605
 31
0.0
  0
LINE
  5
1ECE5
330
1EA20
100
AcDbEntity
  8
U3
100
AcDbLine
 10
9000.973701566683
 20
1631.805063765607
 30
0.0
 11
9105.973701566686
 21
1736.805063765605
 31
0.0
  0
LINE
  5
1ECE6
330
1EA20
100
AcDbEntity
  8
U3
100
AcDbLine
 10
8969.153896413288
 20
1663.624868919001
 30
0.0
 11
9042.334091259894
 21
1736.805063765605
 31
0.0
  0
LINE
  5
1ECE7
330
1EA20
100
AcDbEntity
  8
HATCH
100
AcDbLine
 10
8664.718844701026
 20
1786.805063765605
 30
0.0
 11
8574.718844701022
 21
1696.805063765604
 31
0.0
  0
LINE
  5
1ECE8
330
1EA20
100
AcDbEntity
  8
HATCH
100
AcDbLine
 10
8694.417329510848
 20
1786.805063765605
 30
0.0
 11
8604.41732951085
 21
1696.805063765604
 31
0.0
  0
LINE
  5
1ECE9
330
1EA20
100
AcDbEntity
  8
HATCH
100
AcDbLine
 10
8724.11581432069
 20
1786.805063765605
 30
0.0
 11
8634.115814320692
 21
1696.805063765607
 31
0.0
  0
LINE
  5
1ECEA
330
1EA20
100
AcDbEntity
  8
U3
100
AcDbLine
 10
8864.153896413283
 20
1704.98525861221
 30
0.0
 11
8937.334091259895
 21
1631.805063765605
 31
0.0
  0
LINE
  5
1ECEB
330
1EA20
100
AcDbEntity
  8
U3
100
AcDbLine
 10
8790.973701566683
 20
1631.805063765607
 30
0.0
 11
8895.973701566683
 21
1736.805063765605
 31
0.0
  0
LINE
  5
1ECEC
330
1EA20
100
AcDbEntity
  8
U3
100
AcDbLine
 10
8832.334091259891
 20
1673.165453458816
 30
0.0
 11
8873.694480953105
 21
1631.805063765605
 31
0.0
  0
LINE
  5
1ECED
330
1EA20
100
AcDbEntity
  8
U3
100
AcDbLine
 10
8895.973701566683
 20
1736.805063765605
 30
0.0
 11
9000.973701566683
 21
1631.805063765607
 31
0.0
  0
LINE
  5
1ECEE
330
1EA20
100
AcDbEntity
  8
SUNPOU
100
AcDbLine
 10
8820.973701566684
 20
1786.805063765605
 30
0.0
 11
9010.973701566685
 21
1786.805063765605
 31
0.0
  0
LINE
  5
1ECEF
330
1EA20
100
AcDbEntity
  8
U3
100
AcDbLine
 10
8790.97370156669
 20
1695.444674072392
 30
0.0
 11
8832.334091259898
 21
1736.805063765605
 31
0.0
  0
LINE
  5
1ECF0
330
1EA20
100
AcDbEntity
  8
KISO
100
AcDbLine
 10
8790.973701566683
 20
1636.805063765603
 30
0.0
 11
8790.973701566683
 21
1786.805063765605
 31
0.0
  0
LINE
  5
1ECF1
330
1EA20
100
AcDbEntity
  8
U3
100
AcDbLine
 10
8937.334091259895
 20
1695.444674072396
 30
0.0
 11
8978.694480953098
 21
1736.805063765605
 31
0.0
  0
LINE
  5
1ECF2
330
1EA20
100
AcDbEntity
  8
SUNPOU
100
AcDbLine
 10
8950.973701566683
 20
1786.805063765605
 30
0.0
 11
8950.973701566683
 21
1786.805063765605
 31
0.0
  0
LINE
  5
1ECF3
330
1EA20
100
AcDbEntity
  8
SUNPOU
100
AcDbLine
 10
8980.973701566684
 20
1786.805063765605
 30
0.0
 11
8980.973701566684
 21
1736.805063765605
 31
0.0
  0
LINE
  5
1ECF4
330
1EA20
100
AcDbEntity
  8
U3
100
AcDbLine
 10
9105.973701566686
 20
1736.805063765605
 30
0.0
 11
9210.973701566677
 21
1631.805063765607
 31
0.0
  0
LINE
  5
1ECF5
330
1EA20
100
AcDbEntity
  8
U3
100
AcDbLine
 10
9074.153896413283
 20
1704.98525861221
 30
0.0
 11
9147.334091259894
 21
1631.805063765605
 31
0.0
  0
LINE
  5
1ECF6
330
1EA20
100
AcDbEntity
  8
U3
100
AcDbLine
 10
9042.334091259894
 20
1673.165453458816
 30
0.0
 11
9083.694480953104
 21
1631.805063765605
 31
0.0
  0
LINE
  5
1ECF7
330
1EA20
100
AcDbEntity
  8
U3
100
AcDbLine
 10
9147.334091259891
 20
1695.444674072396
 30
0.0
 11
9188.694480953097
 21
1736.805063765605
 31
0.0
  0
LINE
  5
1ECF8
330
1EA20
100
AcDbEntity
  8
U3
100
AcDbLine
 10
9179.153896413284
 20
1663.624868919001
 30
0.0
 11
9252.334091259887
 21
1736.805063765605
 31
0.0
  0
ARC
  5
1ECF9
330
1EA20
100
AcDbEntity
  8
YANE
100
AcDbCircle
 10
8212.714885270356
 20
3524.53913881739
 30
0.0
 40
370.0
100
AcDbArc
 50
17.12903901488673
 51
87.12903901490951
  0
ARC
  5
1ECFA
330
1EA20
100
AcDbEntity
  8
YANE
100
AcDbCircle
 10
8212.714885270356
 20
3524.53913881739
 30
0.0
 40
386.0
100
AcDbArc
 50
17.12903901488673
 51
87.12903901490951
  0
LINE
  5
1ECFB
330
1EA20
100
AcDbEntity
  8
HIKIDASHI
100
AcDbLine
 10
7841.32960569368
 20
2432.637663742353
 30
0.0
 11
8616.488139508925
 21
2432.637663742353
 31
0.0
  0
LINE
  5
1ECFC
330
1EA20
100
AcDbEntity
  8
SUNPOU
100
AcDbLine
 10
6600.57727370515
 20
4501.391364710045
 30
0.0
 11
8570.577273705149
 21
4501.391364710045
 31
0.0
  0
LINE
  5
1ECFD
330
1EA20
100
AcDbEntity
  8
KERABA
100
AcDbLine
 10
8497.91152041741
 20
3594.443141840194
 30
0.0
 11
8579.533405480594
 21
3614.989126046635
 31
0.0
  0
ARC
  5
1ECFE
330
1EA20
100
AcDbEntity
  8
KERABA
100
AcDbCircle
 10
8198.42227634256
 20
3519.055256912059
 30
0.0
 40
392.2
100
AcDbArc
 50
14.12903901488587
 51
87.12903901480547
  0
ARC
  5
1ECFF
330
1EA20
100
AcDbEntity
  8
KERABA
100
AcDbCircle
 10
8198.42227634256
 20
3519.055256912059
 30
0.0
 40
393.0
100
AcDbArc
 50
14.12903901488587
 51
87.12903901480547
  0
TEXT
  5
1ED00
330
1EA20
100
AcDbEntity
  8
HIKIDASHI
100
AcDbText
 10
7871.329605693678
 20
2477.637663742354
 30
0.0
 40
90.0
  1
柱
  7
01
 11
7871.329605693678
 21
2522.637663742355
 31
0.0
100
AcDbText
 73
     2
  0
TEXT
  5
1ED01
330
1EA20
100
AcDbEntity
  8
HIKIDASHI
100
AcDbText
 10
8552.207914599254
 20
2492.637663742355
 30
0.0
 40
90.0
  1
t
  7
01
100
AcDbText
  0
TEXT
  5
1ED02
330
1EA20
100
AcDbEntity
  8
HIKIDASHI
100
AcDbText
 10
8311.396812137203
 20
2492.637663742355
 30
0.0
 40
90.0
  1
x
 41
0.6666666666666666
  7
00
100
AcDbText
  0
TEXT
  5
1ED03
330
1EA20
100
AcDbEntity
  8
HIKIDASHI
100
AcDbText
 10
8003.247264180137
 20
2477.637663742353
 30
0.0
 40
90.0
  1
76.3
 41
0.6666666666666666
  7
00
100
AcDbText
  0
TEXT
  5
1ED04
330
1EA20
100
AcDbEntity
  8
HIKIDASHI
100
AcDbText
 10
8229.253954994341
 20
2492.637663742355
 30
0.0
 40
90.0
  1
%%c
 41
0.6666666666666666
  7
00
100
AcDbText
  0
TEXT
  5
1ED05
330
1EA20
100
AcDbEntity
  8
HIKIDASHI
100
AcDbText
 10
8396.396812137203
 20
2477.637663742353
 30
0.0
 40
90.0
  1
3.2
 41
0.6666666666666666
  7
00
100
AcDbText
  0
LINE
  5
1ED06
330
1EA20
100
AcDbEntity
  8
YANE
100
AcDbLine
 10
6637.250171363672
 20
3974.013203958995
 30
0.0
 11
8231.24698508035
 21
3894.074740994812
 31
0.0
  0
LINE
  5
1ED07
330
1EA20
100
AcDbEntity
  8
YANE
100
AcDbLine
 10
6638.051559463564
 20
3989.993121890993
 30
0.0
 11
8232.048373180241
 21
3910.054658926812
 31
0.0
  0
LINE
  5
1ED08
330
1EA20
100
AcDbEntity
  8
SUNPOU
100
AcDbLine
 10
7026.476626810236
 20
4308.191880974935
 30
0.0
 11
7585.773754430121
 21
4280.143297478733
 31
0.0
  0
LINE
  5
1ED09
330
1EA20
100
AcDbEntity
  8
KERABA
100
AcDbLine
 10
6638.091628868558
 20
3990.792117787611
 30
0.0
 11
8220.470456056942
 21
3911.436293369329
 31
0.0
  0
LINE
  5
1ED0A
330
1EA20
100
AcDbEntity
  8
KERABA
100
AcDbLine
 10
6638.051559463562
 20
3989.993121891009
 30
0.0
 11
8220.430386651948
 21
3910.637297472727
 31
0.0
  0
ARC
  5
1ED0B
330
1EA20
100
AcDbEntity
  8
HANA_KAKUSHI
100
AcDbCircle
 10
6635.577273705149
 20
3940.655125275951
 30
0.0
 40
50.0
100
AcDbArc
 50
87.12903901490951
 51
267.1290390149096
  0
ARC
  5
1ED0C
330
1EA20
100
AcDbEntity
  8
HANA_KAKUSHI
100
AcDbCircle
 10
6635.577273705149
 20
3940.655125275951
 30
0.0
 40
49.4
100
AcDbArc
 50
87.12903901490951
 51
267.1290390149096
  0
LINE
  5
1ED0D
330
1EA20
100
AcDbEntity
  8
HANA_KAKUSHI
100
AcDbLine
 10
6650.051598695734
 20
3889.866406882327
 30
0.0
 11
6650.652639770654
 21
3901.851345331326
 31
0.0
  0
LINE
  5
1ED0E
330
1EA20
100
AcDbEntity
  8
HANA_KAKUSHI
100
AcDbLine
 10
6649.482403827033
 20
3890.495705858524
 30
0.0
 11
6650.053392848204
 21
3901.881397385071
 31
0.0
  0
LINE
  5
1ED0F
330
1EA20
100
AcDbEntity
  8
KERABA
100
AcDbLine
 10
6642.44229907718
 20
3897.857561949992
 30
0.0
 11
6641.941431514746
 21
3887.870113242492
 31
0.0
  0
ARC
  5
1ED10
330
1EA20
100
AcDbEntity
  8
KERABA
100
AcDbCircle
 10
6648.314560086693
 20
3895.160053722733
 30
0.0
 40
2.0
100
AcDbArc
 50
357.1290390148021
 51
87.12903901480547
  0
LINE
  5
1ED11
330
1EA20
100
AcDbEntity
  8
KERABA
100
AcDbLine
 10
6633.183126756718
 20
3892.91512045413
 30
0.0
 11
6953.67236307554
 21
3876.84268120742
 31
0.0
  0
LINE
  5
1ED12
330
1EA20
100
AcDbEntity
  8
KERABA
100
AcDbLine
 10
6633.223196161711
 20
3893.71411635073
 30
0.0
 11
6954.436348476486
 21
3877.605372933565
 31
0.0
  0
LINE
  5
1ED13
330
1EA20
100
AcDbEntity
  8
HANA_KAKUSHI
100
AcDbLine
 10
6633.07293589299
 20
3890.717881738464
 30
0.0
 11
6650.051598695734
 21
3889.866406882327
 31
0.0
  0
LINE
  5
1ED14
330
1EA20
100
AcDbEntity
  8
HANA_KAKUSHI
100
AcDbLine
 10
6633.102987946734
 20
3891.317128660912
 30
0.0
 11
6649.482403827033
 21
3890.495705858524
 31
0.0
  0
LINE
  5
1ED15
330
1EA20
100
AcDbEntity
  8
KERABA
100
AcDbLine
 10
6650.312049828193
 20
3895.059880210244
 30
0.0
 11
6650.161789559466
 21
3892.063645597997
 31
0.0
  0
LINE
  5
1ED16
330
1EA20
100
AcDbEntity
  8
KERABA
100
AcDbLine
 10
6633.183126756718
 20
3892.91512045413
 30
0.0
 11
6633.223196161711
 21
3893.71411635073
 31
0.0
  0
LINE
  5
1ED17
330
1EA20
100
AcDbEntity
  8
KERABA
100
AcDbLine
 10
6678.397114424173
 20
3896.054438725231
 30
0.0
 11
6677.896246861739
 21
3886.066990017737
 31
0.0
  0
CIRCLE
  5
1ED18
330
1EA20
100
AcDbEntity
  8
HARI
100
AcDbCircle
 10
6977.785392163856
 20
3844.394210772819
 30
0.0
 40
1.5
  0
LINE
  5
1ED19
330
1EA20
100
AcDbEntity
  8
HARI_CAP
100
AcDbLine
 10
6964.682472461714
 20
3882.59844476958
 30
0.0
 11
6961.902830598923
 21
3882.73784297677
 31
0.0
  0
LINE
  5
1ED1A
330
1EA20
100
AcDbEntity
  8
HARI_CAP
100
AcDbLine
 10
6958.119860118772
 20
3881.282647197249
 30
0.0
 11
6949.525098572348
 21
3872.702439366669
 31
0.0
  0
ARC
  5
1ED1B
330
1EA20
100
AcDbEntity
  8
HARI_CAP
100
AcDbCircle
 10
6961.652396817711
 20
3877.74411862302
 30
0.0
 40
5.0
100
AcDbArc
 50
87.12903901490951
 51
134.951448746415
  0
LINE
  5
1ED1C
330
1EA20
100
AcDbEntity
  8
HARI_CAP
100
AcDbLine
 10
6960.925965743506
 20
3807.692579463342
 30
0.0
 11
6958.146323880716
 21
3807.831977670533
 31
0.0
  0
LINE
  5
1ED1D
330
1EA20
100
AcDbEntity
  8
HARI_CAP
100
AcDbLine
 10
6954.527923058965
 20
3809.658350004863
 30
0.0
 11
6946.834715340158
 21
3819.055394617463
 31
0.0
  0
ARC
  5
1ED1E
330
1EA20
100
AcDbEntity
  8
HARI_CAP
100
AcDbCircle
 10
6958.396757661929
 20
3812.825702024284
 30
0.0
 40
5.0
100
AcDbArc
 50
219.3066292833683
 51
267.1290390149096
  0
ARC
  5
1ED1F
330
1EA20
100
AcDbEntity
  8
HARI_CAP
100
AcDbCircle
 10
6977.785392163856
 20
3844.394210772819
 30
0.0
 40
40.0
100
AcDbArc
 50
134.951448746415
 51
219.3066292833683
  0
LINE
  5
1ED20
330
1EA20
100
AcDbEntity
  8
HARI_CAP
100
AcDbLine
 10
6964.682472461714
 20
3882.59844476958
 30
0.0
 11
6960.925965743506
 21
3807.692579463342
 31
0.0
  0
LINE
  5
1ED21
330
1EA20
100
AcDbEntity
  8
MOYA_KANGU
100
AcDbLine
 10
6974.172043860893
 20
3892.135112670892
 30
0.0
 11
6976.469157063617
 21
3892.019913131532
 31
0.0
  0
LINE
  5
1ED22
330
1EA20
100
AcDbEntity
  8
HARI
100
AcDbLine
 10
6998.334565429897
 20
3874.809065155129
 30
0.0
 11
6998.987913236615
 21
3887.837015450265
 31
0.0
  0
LINE
  5
1ED23
330
1EA20
100
AcDbEntity
  8
HARI
100
AcDbLine
 10
7048.271808967392
 20
3872.30472734299
 30
0.0
 11
7048.925156774109
 21
3885.332677638126
 31
0.0
  0
LINE
  5
1ED24
330
1EA20
100
AcDbEntity
  8
SUNPOU
100
AcDbLine
 10
6585.577273705149
 20
3970.655125275951
 30
0.0
 11
6585.577273705149
 21
4531.391364710041
 31
0.0
  0
LINE
  5
1ED25
330
1EA20
100
AcDbEntity
  8
SUNPOU
100
AcDbLine
 10
6996.398507398835
 20
4007.905565548628
 30
0.0
 11
7012.998056436281
 21
4338.905528441075
 31
0.0
  0
LINE
  5
1ED26
330
1EA20
100
AcDbEntity
  8
HANA_KAKUSHI
100
AcDbLine
 10
6678.031406347301
 20
3988.588898563714
 30
0.0
 11
6638.081611517309
 21
3990.592368813443
 31
0.0
  0
LINE
  5
1ED27
330
1EA20
100
AcDbEntity
  8
HANA_KAKUSHI
100
AcDbLine
 10
6678.001354293553
 20
3987.989651641266
 30
0.0
 11
6638.051559463564
 21
3989.993121890993
 31
0.0
  0
LINE
  5
1ED28
330
1EA20
100
AcDbEntity
  8
HANA_KAKUSHI
100
AcDbLine
 10
6650.652639770654
 20
3901.851345331326
 30
0.0
 11
6650.053392848204
 21
3901.881397385071
 31
0.0
  0
LINE
  5
1ED29
330
1EA20
100
AcDbEntity
  8
YANE
100
AcDbLine
 10
6637.250171363672
 20
3974.013203958995
 30
0.0
 11
6638.051559463564
 21
3989.993121890993
 31
0.0
  0
ARC
  5
1ED2A
330
1EA20
100
AcDbEntity
  8
KERABA
100
AcDbCircle
 10
6635.637377812637
 20
3941.853619120872
 30
0.0
 40
44.0
100
AcDbArc
 50
87.12903901480547
 51
267.1290390148054
  0
LINE
  5
1ED2B
330
1EA20
100
AcDbEntity
  8
KERABA
100
AcDbLine
 10
6633.433560537935
 20
3897.908844807881
 30
0.0
 11
6648.414733599181
 21
3897.157543464231
 31
0.0
  0
ARC
  5
1ED2C
330
1EA20
100
AcDbEntity
  8
KERABA
100
AcDbCircle
 10
6652.922541661076
 20
3987.044581831714
 30
0.0
 40
2.0
100
AcDbArc
 50
267.1290390148054
 51
357.1290390148021
  0
LINE
  5
1ED2D
330
1EA20
100
AcDbEntity
  8
KERABA
100
AcDbLine
 10
6637.841195087341
 20
3985.798393433863
 30
0.0
 11
6652.822368148585
 21
3985.047092090212
 31
0.0
  0
LINE
  5
1ED2E
330
1EA20
100
AcDbEntity
  8
KERABA
100
AcDbLine
 10
6654.920031402575
 20
3986.944408319228
 30
0.0
 11
6655.070291671305
 21
3989.940642931474
 31
0.0
  0
LINE
  5
1ED2F
330
1EA20
100
AcDbEntity
  8
KERABA
100
AcDbLine
 10
6638.091628868558
 20
3990.792117787611
 30
0.0
 11
6638.051559463562
 21
3989.993121891009
 31
0.0
  0
LINE
  5
1ED30
330
1EA20
100
AcDbEntity
  8
KERABA
100
AcDbLine
 10
6647.808609092344
 20
3984.898027923128
 30
0.0
 11
6648.309476654775
 21
3994.885476630626
 31
0.0
  0
LINE
  5
1ED31
330
1EA20
100
AcDbEntity
  8
HANA_KAKUSHI
100
AcDbLine
 10
6678.001354293553
 20
3987.989651641266
 30
0.0
 11
6678.031406347301
 21
3988.588898563714
 31
0.0
  0
LINE
  5
1ED32
330
1EA20
100
AcDbEntity
  8
KERABA
100
AcDbLine
 10
6683.265547131019
 20
3993.132440162113
 30
0.0
 11
6682.764679568585
 21
3983.144991454615
 31
0.0
  0
LINE
  5
1ED33
330
1EA20
100
AcDbEntity
  8
MOYA
100
AcDbLine
 10
6969.00654798539
 20
3902.406727808287
 30
0.0
 11
6981.995888327961
 21
3901.755316279128
 31
0.0
  0
LINE
  5
1ED34
330
1EA20
100
AcDbEntity
  8
YANE_UKE
100
AcDbLine
 10
6991.205054531993
 20
3954.259959129275
 30
0.0
 11
6996.198778885738
 21
3954.009525348059
 31
0.0
  0
LINE
  5
1ED35
330
1EA20
100
AcDbEntity
  8
YANE_UKE
100
AcDbLine
 10
6991.154967775746
 20
3953.261214258525
 30
0.0
 11
6996.148692129496
 21
3953.010780477308
 31
0.0
  0
LINE
  5
1ED36
330
1EA20
100
AcDbEntity
  8
YANE_UKE
100
AcDbLine
 10
6995.998431860764
 20
3950.014545865061
 30
0.0
 11
6996.223822263857
 21
3954.508897783433
 31
0.0
  0
LINE
  5
1ED37
330
1EA20
100
AcDbEntity
  8
YANE_UKE
100
AcDbLine
 10
6991.004707507014
 20
3950.264979646276
 30
0.0
 11
6995.998431860764
 21
3950.014545865061
 31
0.0
  0
LINE
  5
1ED38
330
1EA20
100
AcDbEntity
  8
YANE_UKE
100
AcDbLine
 10
6991.230097910109
 20
3954.75933156465
 30
0.0
 11
6991.004707507014
 21
3950.264979646276
 31
0.0
  0
LINE
  5
1ED39
330
1EA20
100
AcDbEntity
  8
YANE_UKE
100
AcDbLine
 10
6981.367866093219
 20
3957.757061303956
 30
0.0
 11
7006.336487861965
 21
3956.504892397876
 31
0.0
  0
LINE
  5
1ED3A
330
1EA20
100
AcDbEntity
  8
YANE_UKE
100
AcDbLine
 10
6981.322788012604
 20
3956.858190920281
 30
0.0
 11
6982.099132734373
 21
3972.338736416904
 31
0.0
  0
LINE
  5
1ED3B
330
1EA20
100
AcDbEntity
  8
YANE_UKE
100
AcDbLine
 10
7006.291409781344
 20
3955.606022014201
 30
0.0
 11
6981.322788012604
 21
3956.858190920281
 31
0.0
  0
LINE
  5
1ED3C
330
1EA20
100
AcDbEntity
  8
YANE_UKE
100
AcDbLine
 10
7007.067754503117
 20
3971.086567510823
 30
0.0
 11
7006.291409781344
 21
3955.606022014201
 31
0.0
  0
LINE
  5
1ED3D
330
1EA20
100
AcDbEntity
  8
YANE_UKE
100
AcDbLine
 10
6982.099132734373
 20
3972.338736416904
 30
0.0
 11
7007.067754503117
 21
3971.086567510823
 31
0.0
  0
LINE
  5
1ED3E
330
1EA20
100
AcDbEntity
  8
YANE_UKE
100
AcDbLine
 10
6993.304185687124
 20
3946.203866939633
 30
0.0
 11
6994.895904711538
 21
3977.943219426133
 31
0.0
  0
LINE
  5
1ED3F
330
1EA20
100
AcDbEntity
  8
MOYA
100
AcDbLine
 10
6971.010018235102
 20
3942.35652263828
 30
0.0
 11
6983.999358577674
 21
3941.705111109122
 31
0.0
  0
LINE
  5
1ED40
330
1EA20
100
AcDbEntity
  8
KERABA
100
AcDbLine
 10
6994.373079242523
 20
3967.517923506717
 30
0.0
 11
6994.873946804954
 21
3977.505372214217
 31
0.0
  0
TEXT
  5
1ED41
330
1EA20
100
AcDbEntity
  8
SUNPOU
100
AcDbText
 10
7222.772391443996
 20
4343.404258945708
 30
0.0
 40
90.0
  1
590
 50
357.1290390148575
 41
0.6666666666666666
  7
00
 72
     1
 11
7310.632998682066
 21
4384.054627594315
 31
0.0
100
AcDbText
 73
     2
  0
LINE
  5
1ED42
330
1EA20
100
AcDbEntity
  8
YANE_UKE
100
AcDbLine
 10
8184.810357266135
 20
3896.503649647737
 30
0.0
 11
8159.841735497392
 21
3897.755818553818
 31
0.0
  0
LINE
  5
1ED43
330
1EA20
100
AcDbEntity
  8
YANE_UKE
100
AcDbLine
 10
8185.586701987904
 20
3911.98419514436
 30
0.0
 11
8184.810357266135
 21
3896.503649647737
 31
0.0
  0
LINE
  5
1ED44
330
1EA20
100
AcDbEntity
  8
YANE_UKE
100
AcDbLine
 10
8171.823133171914
 20
3887.101494573169
 30
0.0
 11
8173.414852196328
 21
3918.84084705967
 31
0.0
  0
ARC
  5
1ED45
330
1EA20
100
AcDbEntity
  8
1PL-S1
100
AcDbCircle
 10
7940.323701566686
 20
3725.055063765605
 30
0.0
 40
250.2499999999999
100
AcDbArc
 50
270.0
 51
0.0
  0
ARC
  5
1ED46
330
1EA20
100
AcDbEntity
  8
HASHIRA
100
AcDbCircle
 10
7940.323701566686
 20
3725.055063765605
 30
0.0
 40
280.5
100
AcDbArc
 50
270.0
 51
0.0
  0
ARC
  5
1ED47
330
1EA20
100
AcDbEntity
  8
HASHIRA
100
AcDbCircle
 10
7940.323701566686
 20
3725.055063765605
 30
0.0
 40
220.0
100
AcDbArc
 50
270.0
 51
0.0
  0
LINE
  5
1ED48
330
1EA20
100
AcDbEntity
  8
HASHIRA
100
AcDbLine
 10
7629.123701566685
 20
3770.978641609911
 30
0.0
 11
7629.123701566685
 21
3505.055063765604
 31
0.0
  0
LINE
  5
1ED49
330
1EA20
100
AcDbEntity
  8
1PL-S1
100
AcDbLine
 10
7578.334537302199
 20
3474.805063765605
 30
0.0
 11
7940.323701566686
 21
3474.805063765605
 31
0.0
  0
LINE
  5
1ED4A
330
1EA20
100
AcDbEntity
  8
HASHIRA
100
AcDbLine
 10
7629.123701566685
 20
3444.555063765605
 30
0.0
 11
7940.323701566686
 21
3444.555063765605
 31
0.0
  0
LINE
  5
1ED4B
330
1EA20
100
AcDbEntity
  8
HASHIRA
100
AcDbLine
 10
7629.123701566685
 20
3505.055063765604
 30
0.0
 11
7940.323701566686
 21
3505.055063765604
 31
0.0
  0
ARC
  5
1ED4C
330
1EA20
100
AcDbEntity
  8
HASHIRA
100
AcDbCircle
 10
7629.123701566685
 20
3474.805063765605
 30
0.0
 40
30.25
100
AcDbArc
 50
90.0
 51
270.0
  0
CIRCLE
  5
1ED4D
330
1EA20
100
AcDbEntity
  8
HARI
100
AcDbCircle
 10
7592.736755386413
 20
3808.047672138151
 30
0.0
 40
6.0
  0
LINE
  5
1ED4E
330
1EA20
100
AcDbEntity
  8
HASHIRA
100
AcDbLine
 10
7539.538340723066
 20
3775.47132063426
 30
0.0
 11
7543.044413660031
 21
3845.383461586749
 31
0.0
  0
LINE
  5
1ED4F
330
1EA20
100
AcDbEntity
  8
HASHIRA
100
AcDbLine
 10
7642.409062410301
 20
3770.312384741256
 30
0.0
 11
7539.538340723066
 21
3775.47132063426
 31
0.0
  0
LINE
  5
1ED50
330
1EA20
100
AcDbEntity
  8
HASHIRA
100
AcDbLine
 10
7645.91513534726
 20
3840.224525693744
 30
0.0
 11
7642.409062410301
 21
3770.312384741256
 31
0.0
  0
LINE
  5
1ED51
330
1EA20
100
AcDbEntity
  8
HASHIRA
100
AcDbLine
 10
7543.044413660031
 20
3845.383461586749
 30
0.0
 11
7645.91513534726
 21
3840.224525693744
 31
0.0
  0
LINE
  5
1ED52
330
1EA20
100
AcDbEntity
  8
1PL-S1
100
AcDbLine
 10
7590.973701566683
 20
3772.891852687757
 30
0.0
 11
7596.080181659086
 21
3874.716590053427
 31
0.0
  0
LINE
  5
1ED53
330
1EA20
100
AcDbEntity
  8
MOYA_KANGU
100
AcDbLine
 10
7563.431517603283
 20
3862.58392648766
 30
0.0
 11
7565.72863080601
 21
3862.468726948302
 31
0.0
  0
LINE
  5
1ED54
330
1EA20
100
AcDbEntity
  8
MOYA
100
AcDbLine
 10
7557.98575753629
 20
3872.869596790345
 30
0.0
 11
7571.200284324547
 21
3872.20689222836
 31
0.0
  0
CIRCLE
  5
1ED55
330
1EA20
100
AcDbEntity
  8
HARI
100
AcDbCircle
 10
7592.736755386413
 20
3808.047672138151
 30
0.0
 40
6.0
  0
LINE
  5
1ED56
330
1EA20
100
AcDbEntity
  8
HARI
100
AcDbLine
 10
7637.531282709784
 20
3842.75354115976
 30
0.0
 11
7638.184630516501
 21
3855.781491454897
 31
0.0
  0
LINE
  5
1ED57
330
1EA20
100
AcDbEntity
  8
HARI
100
AcDbLine
 10
7587.594039172294
 20
3845.257878971898
 30
0.0
 11
7588.24738697901
 21
3858.285829267034
 31
0.0
  0
LINE
  5
1ED58
330
1EA20
100
AcDbEntity
  8
HASHIRA
100
AcDbLine
 10
8235.527686639766
 20
3810.655632777085
 30
0.0
 11
8152.631862367531
 21
3814.812833545237
 31
0.0
  0
LINE
  5
1ED59
330
1EA20
100
AcDbEntity
  8
HASHIRA
100
AcDbLine
 10
8149.125789430568
 20
3744.900692592744
 30
0.0
 11
8232.021613702803
 21
3740.743491824596
 31
0.0
  0
LINE
  5
1ED5A
330
1EA20
100
AcDbEntity
  8
MOYA
100
AcDbLine
 10
8147.245231278683
 20
3843.318410607114
 30
0.0
 11
8160.45975806694
 21
3842.655706045126
 31
0.0
  0
LINE
  5
1ED5B
330
1EA20
100
AcDbEntity
  8
MOYA
100
AcDbLine
 10
8149.248701528419
 20
3883.268205437106
 30
0.0
 11
8162.463228316669
 21
3882.605500875119
 31
0.0
  0
LINE
  5
1ED5C
330
1EA20
100
AcDbEntity
  8
MOYA_KANGU
100
AcDbLine
 10
8152.69099134568
 20
3833.032740304428
 30
0.0
 11
8154.988104548404
 21
3832.91754076507
 31
0.0
  0
LINE
  5
1ED5D
330
1EA20
100
AcDbEntity
  8
HASHIRA
100
AcDbLine
 10
8152.631862367531
 20
3814.812833545237
 30
0.0
 11
8149.125789430568
 21
3744.900692592744
 31
0.0
  0
LINE
  5
1ED5E
330
1EA20
100
AcDbEntity
  8
HASHIRA
100
AcDbLine
 10
8232.021613702803
 20
3740.743491824596
 30
0.0
 11
8235.527686639766
 21
3810.655632777085
 31
0.0
  0
LINE
  5
1ED5F
330
1EA20
100
AcDbEntity
  8
1PL-S1
100
AcDbLine
 10
8190.573701566686
 20
3742.822092208672
 30
0.0
 11
8195.065472573421
 21
3832.389346910821
 31
0.0
  0
LINE
  5
1ED60
330
1EA20
100
AcDbEntity
  8
1PL-M1
100
AcDbLine
 10
8190.573701566682
 20
3725.055063765605
 30
0.0
 11
8190.573701566682
 21
3742.822092208672
 31
0.0
  0
LINE
  5
1ED61
330
1EA20
100
AcDbEntity
  8
HASHIRA
100
AcDbLine
 10
8160.323701566682
 20
3725.055063765605
 30
0.0
 11
8160.323701566682
 21
3744.339120651788
 31
0.0
  0
LINE
  5
1ED62
330
1EA20
100
AcDbEntity
  8
HASHIRA
100
AcDbLine
 10
8220.823701566684
 20
3725.055063765605
 30
0.0
 11
8220.823701566684
 21
3741.305063765556
 31
0.0
  0
LINE
  5
1ED63
330
1EA20
100
AcDbEntity
  8
YANE_UKE
100
AcDbLine
 10
8169.523654991802
 20
3891.162607279812
 30
0.0
 11
8174.51737934555
 21
3890.912173498597
 31
0.0
  0
LINE
  5
1ED64
330
1EA20
100
AcDbEntity
  8
YANE_UKE
100
AcDbLine
 10
8169.724002016774
 20
3895.157586762811
 30
0.0
 11
8174.717726370522
 21
3894.907152981596
 31
0.0
  0
LINE
  5
1ED65
330
1EA20
100
AcDbEntity
  8
YANE_UKE
100
AcDbLine
 10
8169.673915260533
 20
3894.158841892061
 30
0.0
 11
8174.667639614282
 21
3893.908408110844
 31
0.0
  0
LINE
  5
1ED66
330
1EA20
100
AcDbEntity
  8
YANE_UKE
100
AcDbLine
 10
8169.749045394899
 20
3895.656959198185
 30
0.0
 11
8169.523654991802
 21
3891.162607279812
 31
0.0
  0
LINE
  5
1ED67
330
1EA20
100
AcDbEntity
  8
YANE_UKE
100
AcDbLine
 10
8174.51737934555
 20
3890.912173498597
 30
0.0
 11
8174.742769748647
 21
3895.406525416967
 31
0.0
  0
CIRCLE
  5
1ED68
330
1EA20
100
AcDbEntity
  8
HASHIRA
100
AcDbCircle
 10
8192.336755386413
 20
3777.977911659064
 30
0.0
 40
6.0
  0
CIRCLE
  5
1ED69
330
1EA20
100
AcDbEntity
  8
HARI
100
AcDbCircle
 10
8266.16627543113
 20
3779.782295219649
 30
0.0
 40
1.5
  0
CIRCLE
  5
1ED6A
330
1EA20
100
AcDbEntity
  8
HARI
100
AcDbCircle
 10
8191.983677836306
 20
3777.995618392491
 30
0.0
 40
6.0
  0
LINE
  5
1ED6B
330
1EA20
100
AcDbEntity
  8
HARI
100
AcDbLine
 10
8226.790756452178
 20
3813.202354976527
 30
0.0
 11
8227.444104258893
 21
3826.230305271666
 31
0.0
  0
LINE
  5
1ED6C
330
1EA20
100
AcDbEntity
  8
HARI
100
AcDbLine
 10
8176.853512914687
 20
3815.706692788666
 30
0.0
 11
8177.506860721406
 21
3828.734643083802
 31
0.0
  0
ARC
  5
1ED6D
330
1EA20
100
AcDbEntity
  8
KERABA
100
AcDbCircle
 10
8198.42227634256
 20
3519.055256912059
 30
0.0
 40
295.8
100
AcDbArc
 50
16.07164098912314
 51
69.33554093275981
  0
ARC
  5
1ED6E
330
1EA20
100
AcDbEntity
  8
KERABA
100
AcDbCircle
 10
8198.42227634256
 20
3519.055256912059
 30
0.0
 40
295.0
100
AcDbArc
 50
16.07164098912314
 51
69.18782183166732
  0
ARC
  5
1ED6F
330
1EA20
100
AcDbEntity
  8
KERABA
100
AcDbCircle
 10
8484.455281887301
 20
3599.37974793989
 30
0.0
 40
2.0
100
AcDbArc
 50
23.37452780505778
 51
106.0716409891314
  0
ARC
  5
1ED70
330
1EA20
100
AcDbEntity
  8
KERABA
100
AcDbCircle
 10
8495.470455045026
 20
3604.140626042179
 30
0.0
 40
10.0
100
AcDbArc
 50
203.3745278049212
 51
284.1290390148889
  0
LINE
  5
1ED71
330
1EA20
100
AcDbEntity
  8
KERABA
100
AcDbLine
 10
8481.89258354508
 20
3600.722783717427
 30
0.0
 11
8483.901603739473
 21
3601.301580531095
 31
0.0
  0
CIRCLE
  5
1ED72
330
1EA20
100
AcDbEntity
  8
KERABA
100
AcDbCircle
 10
8502.634011514528
 20
3600.787870865477
 30
0.0
 40
2.5
  0
LINE
  5
1ED73
330
1EA20
100
AcDbEntity
  8
HARI_CAP
100
AcDbLine
 10
8285.831807476219
 20
3742.893858795216
 30
0.0
 11
8294.426569022638
 21
3751.474066625801
 31
0.0
  0
LINE
  5
1ED74
330
1EA20
100
AcDbEntity
  8
HARI_CAP
100
AcDbLine
 10
8279.269195133272
 20
3741.57806122289
 30
0.0
 11
8283.025701851478
 21
3816.483926529129
 31
0.0
  0
ARC
  5
1ED75
330
1EA20
100
AcDbEntity
  8
HARI_CAP
100
AcDbCircle
 10
8282.299270777278
 20
3746.432387369451
 30
0.0
 40
5.0
100
AcDbArc
 50
267.1290390149096
 51
314.9514487464149
  0
LINE
  5
1ED76
330
1EA20
100
AcDbEntity
  8
HARI_CAP
100
AcDbLine
 10
8279.269195133272
 20
3741.57806122289
 30
0.0
 11
8282.048836996066
 21
3741.438663015701
 31
0.0
  0
LINE
  5
1ED77
330
1EA20
100
AcDbEntity
  8
HARI_CAP
100
AcDbLine
 10
8283.025701851478
 20
3816.483926529129
 30
0.0
 11
8285.805343714274
 21
3816.344528321938
 31
0.0
  0
LINE
  5
1ED78
330
1EA20
100
AcDbEntity
  8
HARI_CAP
100
AcDbLine
 10
8289.423744536021
 20
3814.518155987607
 30
0.0
 11
8297.116952254826
 21
3805.121111375008
 31
0.0
  0
ARC
  5
1ED79
330
1EA20
100
AcDbEntity
  8
HARI_CAP
100
AcDbCircle
 10
8285.554909933054
 20
3811.350803968185
 30
0.0
 40
5.0
100
AcDbArc
 50
39.30662928336828
 51
87.12903901490951
  0
ARC
  5
1ED7A
330
1EA20
100
AcDbEntity
  8
HARI_CAP
100
AcDbCircle
 10
8266.16627543113
 20
3779.782295219649
 30
0.0
 40
40.0
100
AcDbArc
 50
314.9514487464149
 51
39.30662928336828
  0
LINE
  5
1ED7B
330
1EA20
100
AcDbEntity
  8
SUNPOU
100
AcDbLine
 10
7615.736100552614
 20
4278.640694791435
 30
0.0
 11
8175.033228172502
 21
4250.592111295232
 31
0.0
  0
LINE
  5
1ED7C
330
1EA20
100
AcDbEntity
  8
SUNPOU
100
AcDbLine
 10
7585.657981141219
 20
3978.354379365129
 30
0.0
 11
7602.257530178665
 21
4309.354342257577
 31
0.0
  0
LINE
  5
1ED7D
330
1EA20
100
AcDbEntity
  8
SUNPOU
100
AcDbLine
 10
7585.657981141219
 20
3978.354379365129
 30
0.0
 11
7602.257530178665
 21
4309.354342257577
 31
0.0
  0
LINE
  5
1ED7E
330
1EA20
100
AcDbEntity
  8
YANE_UKE
100
AcDbLine
 10
7580.489571652503
 20
3925.208145381417
 30
0.0
 11
7580.264181249406
 21
3920.713793463043
 31
0.0
  0
LINE
  5
1ED7F
330
1EA20
100
AcDbEntity
  8
YANE_UKE
100
AcDbLine
 10
7582.563659429516
 20
3916.652680756401
 30
0.0
 11
7584.155378453933
 21
3948.392033242898
 31
0.0
  0
LINE
  5
1ED80
330
1EA20
100
AcDbEntity
  8
YANE_UKE
100
AcDbLine
 10
7585.257905603156
 20
3920.463359681826
 30
0.0
 11
7585.483296006252
 21
3924.957711600201
 31
0.0
  0
LINE
  5
1ED81
330
1EA20
100
AcDbEntity
  8
YANE_UKE
100
AcDbLine
 10
7580.264181249406
 20
3920.713793463043
 30
0.0
 11
7585.257905603156
 21
3920.463359681826
 31
0.0
  0
LINE
  5
1ED82
330
1EA20
100
AcDbEntity
  8
MOYA
100
AcDbLine
 10
7559.989227786019
 20
3912.819391620338
 30
0.0
 11
7573.203754574276
 21
3912.156687058352
 31
0.0
  0
LINE
  5
1ED83
330
1EA20
100
AcDbEntity
  8
YANE_UKE
100
AcDbLine
 10
7571.358606476763
 20
3942.787550233672
 30
0.0
 11
7596.32722824551
 21
3941.535381327591
 31
0.0
  0
LINE
  5
1ED84
330
1EA20
100
AcDbEntity
  8
YANE_UKE
100
AcDbLine
 10
7570.582261754996
 20
3927.307004737049
 30
0.0
 11
7571.358606476763
 21
3942.787550233672
 31
0.0
  0
LINE
  5
1ED85
330
1EA20
100
AcDbEntity
  8
YANE_UKE
100
AcDbLine
 10
7596.32722824551
 20
3941.535381327591
 30
0.0
 11
7595.550883523739
 21
3926.054835830969
 31
0.0
  0
LINE
  5
1ED86
330
1EA20
100
AcDbEntity
  8
YANE_UKE
100
AcDbLine
 10
7595.550883523739
 20
3926.054835830969
 30
0.0
 11
7570.582261754996
 21
3927.307004737049
 31
0.0
  0
LINE
  5
1ED87
330
1EA20
100
AcDbEntity
  8
YANE_UKE
100
AcDbLine
 10
7570.627339835613
 20
3928.205875120724
 30
0.0
 11
7595.595961604359
 21
3926.953706214642
 31
0.0
  0
LINE
  5
1ED88
330
1EA20
100
AcDbEntity
  8
YANE_UKE
100
AcDbLine
 10
7580.464528274385
 20
3924.708772946041
 30
0.0
 11
7585.45825262813
 21
3924.458339164827
 31
0.0
  0
LINE
  5
1ED89
330
1EA20
100
AcDbEntity
  8
YANE_UKE
100
AcDbLine
 10
7580.414441518141
 20
3923.710028075293
 30
0.0
 11
7585.408165871888
 21
3923.459594294078
 31
0.0
  0
LINE
  5
1ED8A
330
1EA20
100
AcDbEntity
  8
KERABA
100
AcDbLine
 10
7583.632552984903
 20
3937.966737323196
 30
0.0
 11
7584.133420547335
 21
3947.954186030693
 31
0.0
  0
TEXT
  5
1ED8B
330
1EA20
100
AcDbEntity
  8
SUNPOU
100
AcDbText
 10
7812.03186518638
 20
4313.853072762207
 30
0.0
 40
90.0
  1
590
 50
357.1290390148575
 41
0.6666666666666666
  7
00
 72
     1
 11
7899.892472424451
 21
4354.503441410815
 31
0.0
100
AcDbText
 73
     2
  0
LINE
  5
1ED8C
330
1EA20
100
AcDbEntity
  8
SUNPOU
100
AcDbLine
 10
8174.917454883603
 20
3948.803193181629
 30
0.0
 11
8191.517003921047
 21
4279.803156074075
 31
0.0
  0
LINE
  5
1ED8D
330
1EA20
100
AcDbEntity
  8
YANE_UKE
100
AcDbLine
 10
8159.841735497392
 20
3897.755818553818
 30
0.0
 11
8160.618080219157
 21
3913.236364050441
 31
0.0
  0
LINE
  5
1ED8E
330
1EA20
100
AcDbEntity
  8
YANE_UKE
100
AcDbLine
 10
8159.88681357801
 20
3898.654688937494
 30
0.0
 11
8184.855435346754
 21
3897.402520031411
 31
0.0
  0
LINE
  5
1ED8F
330
1EA20
100
AcDbEntity
  8
YANE_UKE
100
AcDbLine
 10
8160.618080219157
 20
3913.236364050441
 30
0.0
 11
8185.586701987904
 21
3911.98419514436
 31
0.0
  0
LINE
  5
1ED90
330
1EA20
100
AcDbEntity
  8
KERABA
100
AcDbLine
 10
8172.892026727279
 20
3908.41555113967
 30
0.0
 11
8173.392894289715
 21
3918.402999847169
 31
0.0
  0
TEXT
  5
1ED91
330
1EA20
100
AcDbEntity
  8
SUNPOU
100
AcDbText
 10
8935.973701566684
 20
1810.933635194176
 30
0.0
 40
90.0
  1
50
 50
90.0
 41
0.6666666666666666
  7
00
 72
     1
 11
8890.973701566684
 21
1868.076492337033
 31
0.0
100
AcDbText
 73
     2
  0
TEXT
  5
1ED92
330
1EA20
100
AcDbEntity
  8
SUNPOU
100
AcDbText
 10
8935.973701566684
 20
2582.622424374852
 30
0.0
 40
90.0
  1
1822
 50
90.0
 41
0.6666666666666666
  7
00
 72
     1
 11
8890.973701566684
 21
2701.193852946281
 31
0.0
100
AcDbText
 73
     2
  0
LINE
  5
1ED93
330
1EA20
100
AcDbEntity
  8
SUNPOU
100
AcDbLine
 10
8585.577273705148
 20
3666.946408138145
 30
0.0
 11
8585.577273705148
 21
4531.391364710041
 31
0.0
  0
LINE
  5
1ED94
330
1EA20
100
AcDbEntity
  8
SUNPOU
100
AcDbLine
 10
8609.535366143271
 20
3615.582642126956
 30
0.0
 11
9010.973701566685
 21
3615.582642126956
 31
0.0
  0
LINE
  5
1ED95
330
1EA20
100
AcDbEntity
  8
TOI
100
AcDbLine
 10
8545.327514081124
 20
3608.465070359322
 30
0.0
 11
8533.639177891075
 21
3640.17977983471
 31
0.0
  0
LINE
  5
1ED96
330
1EA20
100
AcDbEntity
  8
TOI
100
AcDbLine
 10
8544.972016330499
 20
3607.694602093072
 30
0.0
 11
8532.868709624821
 21
3640.535277585339
 31
0.0
  0
LINE
  5
1ED97
330
1EA20
100
AcDbEntity
  8
TOI
100
AcDbLine
 10
8558.035108256754
 20
3649.170807673216
 30
0.0
 11
8533.639177891075
 21
3640.17977983471
 31
0.0
  0
LINE
  5
1ED98
330
1EA20
100
AcDbEntity
  8
TOI
100
AcDbLine
 10
8557.264639990506
 20
3649.52630542384
 30
0.0
 11
8532.868709624821
 21
3640.535277585339
 31
0.0
  0
LINE
  5
1ED99
330
1EA20
100
AcDbEntity
  8
TOI
100
AcDbLine
 10
8550.053332304051
 20
3657.52612051241
 30
0.0
 11
8558.12275542501
 21
3660.500075874377
 31
0.0
  0
LINE
  5
1ED9A
330
1EA20
100
AcDbEntity
  8
TOI
100
AcDbLine
 10
8576.325872697863
 20
3667.208765876953
 30
0.0
 11
8568.256449576907
 21
3664.234810514987
 31
0.0
  0
LINE
  5
1ED9B
330
1EA20
100
AcDbEntity
  8
TOI
100
AcDbLine
 10
8569.11456501141
 20
3675.20858096552
 30
0.0
 11
8568.551582002976
 21
3675.001095707712
 31
0.0
  0
LINE
  5
1ED9C
330
1EA20
100
AcDbEntity
  8
TOI
100
AcDbLine
 10
8550.911447738554
 20
3668.499890962947
 30
0.0
 11
8550.348464730118
 21
3668.292405705136
 31
0.0
  0
LINE
  5
1ED9D
330
1EA20
100
AcDbEntity
  8
TOI
100
AcDbLine
 10
8550.911447738554
 20
3668.499890962947
 30
0.0
 11
8558.035108256754
 21
3649.170807673216
 31
0.0
  0
LINE
  5
1ED9E
330
1EA20
100
AcDbEntity
  8
TOI
100
AcDbLine
 10
8550.348464730118
 20
3668.292405705136
 30
0.0
 11
8557.264639990506
 21
3649.52630542384
 31
0.0
  0
LINE
  5
1ED9F
330
1EA20
100
AcDbEntity
  8
TOI
100
AcDbLine
 10
8568.551582002976
 20
3675.001095707712
 30
0.0
 11
8587.363578711222
 21
3623.957302942586
 31
0.0
  0
LINE
  5
1EDA0
330
1EA20
100
AcDbEntity
  8
TOI
100
AcDbLine
 10
8569.11456501141
 20
3675.20858096552
 30
0.0
 11
8588.134046977478
 21
3623.601805191962
 31
0.0
  0
LINE
  5
1EDA1
330
1EA20
100
AcDbEntity
  8
TOI
100
AcDbLine
 10
8587.363578711222
 20
3623.957302942586
 30
0.0
 11
8545.327514081124
 21
3608.465070359322
 31
0.0
  0
LINE
  5
1EDA2
330
1EA20
100
AcDbEntity
  8
TOI
100
AcDbLine
 10
8588.134046977478
 20
3623.601805191962
 30
0.0
 11
8544.972016330499
 21
3607.694602093072
 31
0.0
  0
LINE
  5
1EDA3
330
1EA20
100
AcDbEntity
  8
YANE
100
AcDbLine
 10
8581.593417021549
 20
3638.2256763365
 30
0.0
 11
8566.303115187308
 21
3633.513280998921
 31
0.0
  0
CIRCLE
  5
1EDA4
330
1EA20
100
AcDbEntity
  8
KERABA
100
AcDbCircle
 10
8558.885404658946
 20
3614.947556521361
 30
0.0
 40
2.5
  0
LINE
  5
1EDA5
330
1EA20
100
AcDbEntity
  8
KERABA
100
AcDbLine
 10
8555.497366885047
 20
3655.342525994951
 30
0.0
 11
8575.802050535061
 21
3660.453651635665
 31
0.0
  0
LINE
  5
1EDA6
330
1EA20
100
AcDbEntity
  8
SUNPOU
100
AcDbLine
 10
6331.596742355274
 20
1798.055063765603
 30
0.0
 11
6331.596742355274
 21
1809.305063765603
 31
0.0
  0
LINE
  5
1EDA7
330
1EA20
100
AcDbEntity
  8
SUNPOU
100
AcDbLine
 10
6331.596742355274
 20
3882.26436737656
 30
0.0
 11
6331.596742355274
 21
3871.01436737656
 31
0.0
  0
LINE
  5
1EDA8
330
1EA20
100
AcDbEntity
  8
SUNPOU
100
AcDbLine
 10
6331.596742355274
 20
3882.26436737656
 30
0.0
 11
6331.596742355274
 21
3871.01436737656
 31
0.0
  0
LINE
  5
1EDA9
330
1EA20
100
AcDbEntity
  8
SUNPOU
100
AcDbLine
 10
6331.596742355274
 20
4002.641364710039
 30
0.0
 11
6331.596742355274
 21
4013.891364710042
 31
0.0
  0
LINE
  5
1EDAA
330
1EA20
100
AcDbEntity
  8
SUNPOU
100
AcDbLine
 10
8980.973701566684
 20
1798.055063765604
 30
0.0
 11
8980.973701566684
 21
1809.305063765604
 31
0.0
  0
LINE
  5
1EDAB
330
1EA20
100
AcDbEntity
  8
SUNPOU
100
AcDbLine
 10
6596.827273705149
 20
4501.391364710045
 30
0.0
 11
6608.077273705148
 21
4501.391364710045
 31
0.0
  0
LINE
  5
1EDAC
330
1EA20
100
AcDbEntity
  8
SUNPOU
100
AcDbLine
 10
7022.731333544922
 20
4308.379706310843
 30
0.0
 11
7033.967213340857
 21
4307.816230303108
 31
0.0
  0
LINE
  5
1EDAD
330
1EA20
100
AcDbEntity
  8
SUNPOU
100
AcDbLine
 10
7611.990807287305
 20
4278.828520127347
 30
0.0
 11
7623.226687083239
 21
4278.265044119611
 31
0.0
  0
LINE
  5
1EDAE
330
1EA20
100
AcDbEntity
  8
SUNPOU
100
AcDbLine
 10
7589.519047695436
 20
4279.955472142819
 30
0.0
 11
7578.283167899499
 21
4280.518948150554
 31
0.0
  0
LINE
  5
1EDAF
330
1EA20
100
AcDbEntity
  8
SUNPOU
100
AcDbLine
 10
8178.778521437816
 20
4250.404285959321
 30
0.0
 11
8167.542641641883
 21
4250.967761967057
 31
0.0
  0
LINE
  5
1EDB0
330
1EA20
100
AcDbEntity
  8
SUNPOU
100
AcDbLine
 10
8980.973701566684
 20
3604.332642126956
 30
0.0
 11
8980.973701566684
 21
3593.082642126956
 31
0.0
  0
LINE
  5
1EDB1
330
1EA20
100
AcDbEntity
  8
SUNPOU
100
AcDbLine
 10
8574.327273705149
 20
4501.391364710045
 30
0.0
 11
8563.077273705149
 21
4501.391364710045
 31
0.0
  0
TEXT
  5
1EDB2
330
1EA20
100
AcDbEntity
  8
NAME
100
AcDbText
 10
9402.694977008239
 20
716.2499999999992
 30
0.0
 40
120.0
  1
YOTR
 41
0.7
  7
01
100
AcDbText
  0
TEXT
  5
1EDB3
330
1EA20
100
AcDbEntity
  8
NAME
100
AcDbText
 10
8327.765992739108
 20
716.2499999999992
 30
0.0
 40
120.0
  1
ヨド自転車置場      型
  7
01
100
AcDbText
  0
TEXT
  5
1EDB4
330
1EA20
100
AcDbEntity
  8
NAME
100
AcDbText
 10
8862.031985478219
 20
405.75
 30
0.0
 40
120.0
  1
型（一般地用）
 41
0.8
  7
01
100
AcDbText
  0
TEXT
  5
1EDB5
330
1EA20
100
AcDbEntity
  8
NAME
100
AcDbText
 10
8192.031985478219
 20
405.75
 30
0.0
 40
120.0
  1
YOTR-280
 41
0.7
  7
01
 72
     2
 11
8832.03198547822
 21
405.75
 31
0.0
100
AcDbText
  0
TEXT
  5
1EDB6
330
1EA20
100
AcDbEntity
  8
NAME
100
AcDbText
 10
9641.100000000001
 20
405.7500000000001
 30
0.0
 40
120.0
  1
<1／3>
 41
0.6
  7
01
 72
     2
 11
10015.49999999999
 21
405.7500000000001
 31
0.0
100
AcDbText
  0
TEXT
  5
1EDB7
330
1EA20
100
AcDbEntity
  8
HIKIDASHI
100
AcDbText
 10
5402.29798154466
 20
5163.354642405096
 30
0.0
 40
135.0
  1
正 面 立 面 図
  7
01
 72
     2
 11
6491.29798154466
 21
5163.354642405096
 31
0.0
100
AcDbText
  0
TEXT
  5
1EDB8
330
1EA20
100
AcDbEntity
  8
HIKIDASHI
100
AcDbText
 10
6592.547981544662
 20
5190.148139464937
 30
0.0
 40
90.0
  1
(S=
 41
0.6700000000000001
  7
00
100
AcDbText
  0
TEXT
  5
1EDB9
330
1EA20
100
AcDbEntity
  8
HIKIDASHI
100
AcDbText
 10
6885.20571617986
 20
5160.709329364625
 30
0.0
 40
90.0
  1
30
 41
0.6700000000000001
  7
00
100
AcDbText
  0
TEXT
  5
1EDBA
330
1EA20
100
AcDbEntity
  8
HIKIDASHI
100
AcDbText
 10
7021.810479250099
 20
5190.148139464937
 30
0.0
 40
90.0
  1
)
 41
0.6700000000000001
  7
00
100
AcDbText
  0
TEXT
  5
1EDBB
330
1EA20
100
AcDbEntity
  8
HIKIDASHI
100
AcDbText
 10
6833.123667071892
 20
5190.148139464937
 30
0.0
 40
90.0
  1
/
 41
0.6700000000000001
  7
00
100
AcDbText
  0
TEXT
  5
1EDBC
330
1EA20
100
AcDbEntity
  8
HIKIDASHI
100
AcDbText
 10
6795.844386974543
 20
5207.654801931656
 30
0.0
 40
90.0
  1
1
 41
0.6700000000000001
  7
00
100
AcDbText
  0
TEXT
  5
1EDBD
330
1EA20
100
AcDbEntity
  8
HIKIDASHI
100
AcDbText
 10
5693.53841383215
 20
4983.354642405099
 30
0.0
 40
120.0
  1
（  ：スパン数）
  7
01
 72
     4
 11
6249.538413832151
 21
5043.354642405098
 31
0.0
100
AcDbText
  0
TEXT
  5
1EDBE
330
1EA20
100
AcDbEntity
  8
HIKIDASHI
100
AcDbText
 10
5872.128097142454
 20
4983.354642405099
 30
0.0
 40
120.0
  1
N
 41
0.6666666666666666
  7
00
 72
     4
 11
5914.032859047214
 21
5043.354642405098
 31
0.0
100
AcDbText
  0
TEXT
  5
1EDBF
330
1EA20
100
AcDbEntity
  8
HIKIDASHI
100
AcDbText
 10
1929.828502525257
 20
1284.289947154653
 30
0.0
 40
135.0
  1
側 面 立 面 図
  7
01
 72
     2
 11
3018.828502525257
 21
1284.289947154653
 31
0.0
100
AcDbText
  0
TEXT
  5
1EDC0
330
1EA20
100
AcDbEntity
  8
HIKIDASHI
100
AcDbText
 10
3120.078502525257
 20
1311.083444214492
 30
0.0
 40
90.0
  1
(S=
 41
0.6700000000000001
  7
00
100
AcDbText
  0
TEXT
  5
1EDC1
330
1EA20
100
AcDbEntity
  8
HIKIDASHI
100
AcDbText
 10
3412.736237160454
 20
1281.64463411418
 30
0.0
 40
90.0
  1
30
 41
0.6700000000000001
  7
00
100
AcDbText
  0
TEXT
  5
1EDC2
330
1EA20
100
AcDbEntity
  8
HIKIDASHI
100
AcDbText
 10
3549.341000230694
 20
1311.083444214492
 30
0.0
 40
90.0
  1
)
 41
0.6700000000000001
  7
00
100
AcDbText
  0
TEXT
  5
1EDC3
330
1EA20
100
AcDbEntity
  8
HIKIDASHI
100
AcDbText
 10
3360.654188052488
 20
1311.083444214492
 30
0.0
 40
90.0
  1
/
 41
0.6700000000000001
  7
00
100
AcDbText
  0
TEXT
  5
1EDC4
330
1EA20
100
AcDbEntity
  8
HIKIDASHI
100
AcDbText
 10
3323.37490795514
 20
1328.590106681214
 30
0.0
 40
90.0
  1
1
 41
0.6700000000000001
  7
00
100
AcDbText
  0
TEXT
  5
1EDC5
330
1EA20
100
AcDbEntity
  8
HIKIDASHI
100
AcDbText
 10
5266.825486752935
 20
1284.289947154653
 30
0.0
 40
135.0
  1
側 面 断 面 図
  7
01
 72
     2
 11
6355.825486752935
 21
1284.289947154653
 31
0.0
100
AcDbText
  0
TEXT
  5
1EDC6
330
1EA20
100
AcDbEntity
  8
HIKIDASHI
100
AcDbText
 10
6457.075486752934
 20
1311.083444214492
 30
0.0
 40
90.0
  1
(S=
 41
0.6700000000000001
  7
00
100
AcDbText
  0
TEXT
  5
1EDC7
330
1EA20
100
AcDbEntity
  8
HIKIDASHI
100
AcDbText
 10
6749.73322138813
 20
1281.64463411418
 30
0.0
 40
90.0
  1
30
 41
0.6700000000000001
  7
00
100
AcDbText
  0
TEXT
  5
1EDC8
330
1EA20
100
AcDbEntity
  8
HIKIDASHI
100
AcDbText
 10
6886.33798445837
 20
1311.083444214492
 30
0.0
 40
90.0
  1
)
 41
0.6700000000000001
  7
00
100
AcDbText
  0
TEXT
  5
1EDC9
330
1EA20
100
AcDbEntity
  8
HIKIDASHI
100
AcDbText
 10
6697.651172280163
 20
1311.083444214492
 30
0.0
 40
90.0
  1
/
 41
0.6700000000000001
  7
00
100
AcDbText
  0
TEXT
  5
1EDCA
330
1EA20
100
AcDbEntity
  8
HIKIDASHI
100
AcDbText
 10
6660.371892182817
 20
1328.590106681214
 30
0.0
 40
90.0
  1
1
 41
0.6700000000000001
  7
00
100
AcDbText
  0
TEXT
  5
1EDCB
330
1EA20
100
AcDbEntity
  8
HIKIDASHI
100
AcDbText
 10
8632.085133620753
 20
2960.916270012596
 30
0.0
 40
90.0
  1
0.8
 41
0.6700000000000001
  7
00
100
AcDbText
  0
TEXT
  5
1EDCC
330
1EA20
100
AcDbEntity
  8
HIKIDASHI
100
AcDbText
 10
7918.542128781012
 20
2960.916270012596
 30
0.0
 40
90.0
  1
けらば包み
  7
01
 72
     2
 11
8428.542128781014
 21
2960.916270012596
 31
0.0
100
AcDbText
  0
TEXT
  5
1EDCD
330
1EA20
100
AcDbEntity
  8
HIKIDASHI
100
AcDbText
 10
8496.011659684077
 20
2968.416270012596
 30
0.0
 40
75.0
  1
ア
  7
01
 72
     1
 11
8528.511659684077
 21
3005.916270012596
 31
0.0
100
AcDbText
 73
     2
  0
CIRCLE
  5
1EDCE
330
1EA20
100
AcDbEntity
  8
HIKIDASHI
100
AcDbCircle
 10
8528.511659684077
 20
3005.916270012596
 30
0.0
 40
60.0
  0
LINE
  5
1EDCF
330
1EA20
100
AcDbEntity
  8
HIKIDASHI
100
AcDbLine
 10
7888.542128781013
 20
2915.916270012596
 30
0.0
 11
8797.042276477894
 21
2915.916270012596
 31
0.0
  0
TEXT
  5
1EDD0
330
1EA20
100
AcDbEntity
  8
HIKIDASHI
100
AcDbText
 10
6245.365785150956
 20
4336.740775902097
 30
0.0
 40
90.0
  1
1.6
 41
0.6700000000000001
  7
00
100
AcDbText
  0
TEXT
  5
1EDD1
330
1EA20
100
AcDbEntity
  8
HIKIDASHI
100
AcDbText
 10
5849.822780311217
 20
4336.740775902097
 30
0.0
 40
90.0
  1
母屋
  7
01
 72
     2
 11
6041.822780311217
 21
4336.740775902097
 31
0.0
100
AcDbText
  0
TEXT
  5
1EDD2
330
1EA20
100
AcDbEntity
  8
HIKIDASHI
100
AcDbText
 10
6109.292311214279
 20
4344.240775902098
 30
0.0
 40
75.0
  1
ア
  7
01
 72
     1
 11
6141.792311214278
 21
4381.740775902097
 31
0.0
100
AcDbText
 73
     2
  0
CIRCLE
  5
1EDD3
330
1EA20
100
AcDbEntity
  8
HIKIDASHI
100
AcDbCircle
 10
6141.792311214278
 20
4381.740775902097
 30
0.0
 40
60.0
  0
LINE
  5
1EDD4
330
1EA20
100
AcDbEntity
  8
HIKIDASHI
100
AcDbLine
 10
5819.822780311216
 20
4291.740775902098
 30
0.0
 11
6410.322928008098
 21
4291.740775902098
 31
0.0
  0
TEXT
  5
1EDD5
330
1EA20
100
AcDbEntity
  8
HIKIDASHI
100
AcDbText
 10
7176.406220031044
 20
3470.340745024625
 30
0.0
 40
90.0
  1
2.3
 41
0.6700000000000001
  7
00
100
AcDbText
  0
TEXT
  5
1EDD6
330
1EA20
100
AcDbEntity
  8
HIKIDASHI
100
AcDbText
 10
6888.863215191306
 20
3470.340745024625
 30
0.0
 40
90.0
  1
梁
  7
01
 72
     2
 11
6972.863215191306
 21
3470.340745024625
 31
0.0
100
AcDbText
  0
TEXT
  5
1EDD7
330
1EA20
100
AcDbEntity
  8
HIKIDASHI
100
AcDbText
 10
7040.332746094367
 20
3477.840745024625
 30
0.0
 40
75.0
  1
ア
  7
01
 72
     1
 11
7072.832746094366
 21
3515.340745024625
 31
0.0
100
AcDbText
 73
     2
  0
CIRCLE
  5
1EDD8
330
1EA20
100
AcDbEntity
  8
HIKIDASHI
100
AcDbCircle
 10
7072.832746094366
 20
3515.340745024625
 30
0.0
 40
60.0
  0
LINE
  5
1EDD9
330
1EA20
100
AcDbEntity
  8
HIKIDASHI
100
AcDbLine
 10
6858.863215191306
 20
3425.340745024625
 30
0.0
 11
7341.363362888187
 21
3425.340745024625
 31
0.0
  0
LINE
  5
1EDDA
330
1EA20
100
AcDbEntity
  8
KISO
100
AcDbLine
 10
7165.973701566684
 20
1186.805063765603
 30
0.0
 11
8015.973701566684
 21
1186.805063765604
 31
0.0
  0
LINE
  5
1EDDB
330
1EA20
100
AcDbEntity
  8
KISO
100
AcDbLine
 10
7165.973701566684
 20
1186.805063765603
 30
0.0
 11
7165.973701566684
 21
1286.805063765602
 31
0.0
  0
LINE
  5
1EDDC
330
1EA20
100
AcDbEntity
  8
KISO
100
AcDbLine
 10
8015.973701566684
 20
1186.805063765604
 30
0.0
 11
8015.973701566684
 21
1286.805063765604
 31
0.0
  0
LINE
  5
1EDDD
330
1EA20
100
AcDbEntity
  8
KISO
100
AcDbLine
 10
7165.973701566684
 20
1286.805063765602
 30
0.0
 11
8015.973701566684
 21
1286.805063765604
 31
0.0
  0
TEXT
  5
1EDDE
330
1EA20
100
AcDbEntity
  8
FILENAME
100
AcDbText
 10
10651.5
 20
130.4999999999999
 30
0.0
 40
75.0
  1
＜YOTR-280_1_JIS_GL.DXF ＞
  7
FILENAME
 72
     2
 11
12286.5
 21
130.4999999999999
 31
0.0
100
AcDbText
  0
LINE
  5
1EDDF
330
1EA20
100
AcDbEntity
  8
WAKUSEN-01
100
AcDbLine
 10
325.5000000000006
 20
310.4999999999997
 30
0.0
 11
12286.5
 21
310.4999999999997
 31
0.0
  0
LINE
  5
1EDE0
330
1EA20
100
AcDbEntity
  8
WAKUSEN-01
100
AcDbLine
 10
325.5000000000006
 20
8431.500000000003
 30
0.0
 11
12286.5
 21
8431.500000000003
 31
0.0
  0
LINE
  5
1EDE1
330
1EA20
100
AcDbEntity
  8
WAKUSEN-01
100
AcDbLine
 10
325.5000000000006
 20
310.4999999999997
 30
0.0
 11
325.5000000000006
 21
8431.500000000003
 31
0.0
  0
LINE
  5
1EDE2
330
1EA20
100
AcDbEntity
  8
WAKUSEN-01
100
AcDbLine
 10
12286.5
 20
310.4999999999997
 30
0.0
 11
12286.5
 21
8431.500000000003
 31
0.0
  0
LINE
  5
1EDE3
330
1EA20
100
AcDbEntity
  8
WAKUSEN-01
100
AcDbLine
 10
7710.0
 20
931.4999999999999
 30
0.0
 11
12286.5
 21
931.4999999999995
 31
0.0
  0
LINE
  5
1EDE4
330
1EA20
100
AcDbEntity
  8
WAKUSEN-02
100
AcDbLine
 10
7710.0
 20
620.9999999999999
 30
0.0
 11
10075.49999999999
 21
620.9999999999999
 31
0.0
  0
TEXT
  5
1EDE5
330
1EA20
100
AcDbEntity
  8
WAKUMOJI-01
100
AcDbText
 10
7751.347597486038
 20
797.2136285022457
 30
0.0
 40
90.0
  1
名　称
  7
WAKUMOJI
100
AcDbText
  0
TEXT
  5
1EDE6
330
1EA20
100
AcDbEntity
  8
WAKUMOJI-01
100
AcDbText
 10
7746.18955690947
 20
494.6733656174329
 30
0.0
 40
90.0
  1
機種名
  7
WAKUMOJI
100
AcDbText
  0
LINE
  5
1EDE7
330
1EA20
100
AcDbEntity
  8
WAKUSEN-01
100
AcDbLine
 10
7710.0
 20
310.4999999999989
 30
0.0
 11
7710.0
 21
931.4999999999999
 31
0.0
  0
LINE
  5
1EDE8
330
1EA20
100
AcDbEntity
  8
WAKUSEN-02
100
AcDbLine
 10
10075.49999999999
 20
310.4999999999973
 30
0.0
 11
10075.49999999999
 21
931.4999999999999
 31
0.0
  0
LINE
  5
1EDE9
330
1EA20
100
AcDbEntity
  8
YODOROGO
100
AcDbLine
 10
11241.60162798446
 20
748.4060611609828
 30
0.0
 11
11186.10162798447
 21
748.4060611609828
 31
0.0
1001
AUTOCAD_POSTSCRIPT_FIGURE
1002
{
1000
PSFILL
1000
Grayscale
1000
Grayscale
1070
    25
1002
}
  0
LINE
  5
1EDEA
330
1EA20
100
AcDbEntity
  8
YODOROGO
100
AcDbLine
 10
11186.10162798447
 20
730.4060611609828
 30
0.0
 11
11241.60162798446
 21
730.4060611609828
 31
0.0
1001
AUTOCAD_POSTSCRIPT_FIGURE
1002
{
1000
PSFILL
1000
Grayscale
1000
Grayscale
1070
    25
1002
}
  0
LINE
  5
1EDEB
330
1EA20
100
AcDbEntity
  8
YODOROGO
100
AcDbLine
 10
11241.60162798446
 20
715.4060611609828
 30
0.0
 11
11186.10162798447
 21
715.4060611609828
 31
0.0
1001
AUTOCAD_POSTSCRIPT_FIGURE
1002
{
1000
PSFILL
1000
Grayscale
1000
Grayscale
1070
    25
1002
}
  0
LINE
  5
1EDEC
330
1EA20
100
AcDbEntity
  8
YODOROGO
100
AcDbLine
 10
11186.10162798447
 20
697.406061160983
 30
0.0
 11
11241.60162798446
 21
697.406061160983
 31
0.0
1001
AUTOCAD_POSTSCRIPT_FIGURE
1002
{
1000
PSFILL
1000
Grayscale
1000
Grayscale
1070
    25
1002
}
  0
LINE
  5
1EDED
330
1EA20
100
AcDbEntity
  8
YODOROGO
100
AcDbLine
 10
11241.60162798446
 20
682.4060611609829
 30
0.0
 11
11186.10162798447
 21
682.4060611609829
 31
0.0
1001
AUTOCAD_POSTSCRIPT_FIGURE
1002
{
1000
PSFILL
1000
Grayscale
1000
Grayscale
1070
    25
1002
}
  0
LINE
  5
1EDEE
330
1EA20
100
AcDbEntity
  8
YODOROGO
100
AcDbLine
 10
11220.60162798447
 20
640.4060611609828
 30
0.0
 11
11241.60162798446
 21
640.4060611609828
 31
0.0
1001
AUTOCAD_POSTSCRIPT_FIGURE
1002
{
1000
PSFILL
1000
Grayscale
1000
Grayscale
1070
    25
1002
}
  0
LINE
  5
1EDEF
330
1EA20
100
AcDbEntity
  8
YODOROGO
100
AcDbLine
 10
11151.60162798447
 20
535.4060611609829
 30
0.0
 11
11226.60162798446
 21
555.5022505933164
 31
0.0
  0
LINE
  5
1EDF0
330
1EA20
100
AcDbEntity
  8
YODOROGO
100
AcDbLine
 10
11231.10162798446
 20
640.4060611609828
 30
0.0
 11
11207.10162798447
 21
640.4060611609828
 31
0.0
  0
ARC
  5
1EDF1
330
1EA20
100
AcDbEntity
  8
YODOROGO
100
AcDbCircle
 10
11345.38040618545
 20
677.9492284624735
 30
0.0
 40
143.2075740771177
100
AcDbArc
 50
213.9611167766784
 51
264.4787207431779
  0
ARC
  5
1EDF2
330
1EA20
100
AcDbEntity
  8
YODOROGO
100
AcDbCircle
 10
11345.38040618547
 20
677.9492284624883
 30
0.0
 40
143.2075740771305
100
AcDbArc
 50
208.141144204866
 51
212.9210361185994
  0
LINE
  5
1EDF3
330
1EA20
100
AcDbEntity
  8
YODOROGO
100
AcDbLine
 10
11164.27870236948
 20
583.8028730048376
 30
0.0
 11
11225.1690496907
 21
600.1183923964076
 31
0.0
  0
LINE
  5
1EDF4
330
1EA20
100
AcDbEntity
  8
YODOROGO
100
AcDbLine
 10
11151.60162798447
 20
535.4060611609829
 30
0.0
 11
11226.60162798446
 21
555.5022505933164
 31
0.0
  0
LINE
  5
1EDF5
330
1EA20
100
AcDbEntity
  8
YODOROGO
100
AcDbLine
 10
11231.10162798446
 20
640.4060611609828
 30
0.0
 11
11207.10162798447
 21
640.4060611609828
 31
0.0
  0
ARC
  5
1EDF6
330
1EA20
100
AcDbEntity
  8
YODOROGO
100
AcDbCircle
 10
11345.38040618545
 20
677.9492284624735
 30
0.0
 40
143.2075740771177
100
AcDbArc
 50
213.9611167766784
 51
264.4787207431779
  0
LINE
  5
1EDF7
330
1EA20
100
AcDbEntity
  8
YODOROGO
100
AcDbLine
 10
10797.60162798446
 20
682.4060611609829
 30
0.0
 11
10662.60162798446
 21
682.4060611609829
 31
0.0
  0
LINE
  5
1EDF8
330
1EA20
100
AcDbEntity
  8
YODOROGO
100
AcDbLine
 10
10692.60162798446
 20
535.4060611609829
 30
0.0
 11
10797.60162798446
 21
535.4060611609829
 31
0.0
  0
LINE
  5
1EDF9
330
1EA20
100
AcDbEntity
  8
YODOROGO
100
AcDbLine
 10
10773.60162798447
 20
721.4060611609824
 30
0.0
 11
10686.60162798446
 21
721.4060611609824
 31
0.0
  0
LINE
  5
1EDFA
330
1EA20
100
AcDbEntity
  8
YODOROGO
100
AcDbLine
 10
10719.60162798446
 20
760.4060611609829
 30
0.0
 11
10746.60162798447
 21
760.4060611609829
 31
0.0
  0
LINE
  5
1EDFB
330
1EA20
100
AcDbEntity
  8
YODOROGO
100
AcDbLine
 10
10662.60162798446
 20
640.4060611609828
 30
0.0
 11
10662.60162798446
 21
565.4060611609828
 31
0.0
  0
LINE
  5
1EDFC
330
1EA20
100
AcDbEntity
  8
YODOROGO
100
AcDbLine
 10
10686.60162798446
 20
586.4060611609825
 30
0.0
 11
10686.60162798446
 21
640.4060611609828
 31
0.0
  0
LINE
  5
1EDFD
330
1EA20
100
AcDbEntity
  8
YODOROGO
100
AcDbLine
 10
10719.60162798446
 20
655.4060611609838
 30
0.0
 11
10719.60162798446
 21
580.406061160983
 31
0.0
  0
LINE
  5
1EDFE
330
1EA20
100
AcDbEntity
  8
YODOROGO
100
AcDbLine
 10
10446.60162798447
 20
631.4060611609833
 30
0.0
 11
10416.60162798446
 21
607.4896552667143
 31
0.0
  0
LINE
  5
1EDFF
330
1EA20
100
AcDbEntity
  8
YODOROGO
100
AcDbLine
 10
10476.60162798446
 20
607.4896552667143
 30
0.0
 11
10446.60162798447
 21
631.4060611609833
 31
0.0
  0
LINE
  5
1EE00
330
1EA20
100
AcDbEntity
  8
YODOROGO
100
AcDbLine
 10
10446.60162798447
 20
640.4060611609828
 30
0.0
 11
10476.60162798446
 21
616.4896552667137
 31
0.0
  0
LINE
  5
1EE01
330
1EA20
100
AcDbEntity
  8
YODOROGO
100
AcDbLine
 10
10416.60162798446
 20
616.4896552667137
 30
0.0
 11
10446.60162798447
 21
640.4060611609828
 31
0.0
  0
LINE
  5
1EE02
330
1EA20
100
AcDbEntity
  8
YODOROGO
100
AcDbLine
 10
10515.34245150633
 20
622.406061160983
 30
0.0
 11
10515.34245150633
 21
631.4060611609825
 31
0.0
  0
LINE
  5
1EE03
330
1EA20
100
AcDbEntity
  8
YODOROGO
100
AcDbLine
 10
10491.60162798447
 20
631.4060611609825
 30
0.0
 11
10491.60162798447
 21
625.4060611609819
 31
0.0
  0
LINE
  5
1EE04
330
1EA20
100
AcDbEntity
  8
YODOROGO
100
AcDbLine
 10
10536.8008200866
 20
640.4060611609828
 30
0.0
 11
10536.8008200866
 21
620.813863977996
 31
0.0
1001
AUTOCAD_POSTSCRIPT_FIGURE
1002
{
1000
PSFILL
1000
Grayscale
1000
Grayscale
1070
   100
1002
}
  0
LINE
  5
1EE05
330
1EA20
100
AcDbEntity
  8
YODOROGO
100
AcDbLine
 10
10530.80082008658
 20
620.813863977996
 30
0.0
 11
10530.80082008658
 21
640.4060611609828
 31
0.0
1001
AUTOCAD_POSTSCRIPT_FIGURE
1002
{
1000
PSFILL
1000
Grayscale
1000
Grayscale
1070
   100
1002
}
  0
LINE
  5
1EE06
330
1EA20
100
AcDbEntity
  8
YODOROGO
100
AcDbLine
 10
10428.60162798447
 20
603.2894640162218
 30
0.0
 11
10428.60162798447
 21
612.2894640162221
 31
0.0
  0
LINE
  5
1EE07
330
1EA20
100
AcDbEntity
  8
YODOROGO
100
AcDbLine
 10
10464.60162798447
 20
603.2894640162218
 30
0.0
 11
10428.60162798447
 21
603.2894640162218
 31
0.0
  0
LINE
  5
1EE08
330
1EA20
100
AcDbEntity
  8
YODOROGO
100
AcDbLine
 10
10464.60162798447
 20
612.2894640162221
 30
0.0
 11
10464.60162798447
 21
603.2894640162218
 31
0.0
  0
LINE
  5
1EE09
330
1EA20
100
AcDbEntity
  8
YODOROGO
100
AcDbLine
 10
10428.60162798447
 20
612.2894640162221
 30
0.0
 11
10464.60162798447
 21
612.2894640162221
 31
0.0
  0
LINE
  5
1EE0A
330
1EA20
100
AcDbEntity
  8
YODOROGO
100
AcDbLine
 10
10434.1910958434
 20
588.1885715139279
 30
0.0
 11
10419.60162798446
 21
553.4060611609827
 31
0.0
1001
AUTOCAD_POSTSCRIPT_FIGURE
1002
{
1000
PSFILL
1000
Grayscale
1000
Grayscale
1070
   100
1002
}
  0
LINE
  5
1EE0B
330
1EA20
100
AcDbEntity
  8
YODOROGO
100
AcDbLine
 10
10416.60162798446
 20
588.1885715139279
 30
0.0
 11
10434.1910958434
 21
588.1885715139279
 31
0.0
1001
AUTOCAD_POSTSCRIPT_FIGURE
1002
{
1000
PSFILL
1000
Grayscale
1000
Grayscale
1070
   100
1002
}
  0
LINE
  5
1EE0C
330
1EA20
100
AcDbEntity
  8
YODOROGO
100
AcDbLine
 10
10416.60162798446
 20
595.688571513928
 30
0.0
 11
10416.60162798446
 21
588.1885715139279
 31
0.0
1001
AUTOCAD_POSTSCRIPT_FIGURE
1002
{
1000
PSFILL
1000
Grayscale
1000
Grayscale
1070
   100
1002
}
  0
LINE
  5
1EE0D
330
1EA20
100
AcDbEntity
  8
YODOROGO
100
AcDbLine
 10
10476.60162798446
 20
595.688571513928
 30
0.0
 11
10416.60162798446
 21
595.688571513928
 31
0.0
1001
AUTOCAD_POSTSCRIPT_FIGURE
1002
{
1000
PSFILL
1000
Grayscale
1000
Grayscale
1070
   100
1002
}
  0
LINE
  5
1EE0E
330
1EA20
100
AcDbEntity
  8
YODOROGO
100
AcDbLine
 10
10476.60162798446
 20
588.1885715139279
 30
0.0
 11
10476.60162798446
 21
595.688571513928
 31
0.0
1001
AUTOCAD_POSTSCRIPT_FIGURE
1002
{
1000
PSFILL
1000
Grayscale
1000
Grayscale
1070
   100
1002
}
  0
LINE
  5
1EE0F
330
1EA20
100
AcDbEntity
  8
YODOROGO
100
AcDbLine
 10
10441.69109584339
 20
588.1885715139279
 30
0.0
 11
10476.60162798446
 21
588.1885715139279
 31
0.0
1001
AUTOCAD_POSTSCRIPT_FIGURE
1002
{
1000
PSFILL
1000
Grayscale
1000
Grayscale
1070
   100
1002
}
  0
LINE
  5
1EE10
330
1EA20
100
AcDbEntity
  8
YODOROGO
100
AcDbLine
 10
10430.83001935679
 20
560.9060611609827
 30
0.0
 11
10441.69109584339
 21
588.1885715139279
 31
0.0
1001
AUTOCAD_POSTSCRIPT_FIGURE
1002
{
1000
PSFILL
1000
Grayscale
1000
Grayscale
1070
   100
1002
}
  0
LINE
  5
1EE11
330
1EA20
100
AcDbEntity
  8
YODOROGO
100
AcDbLine
 10
10463.27054655324
 20
560.9060611609827
 30
0.0
 11
10430.83001935679
 21
560.9060611609827
 31
0.0
1001
AUTOCAD_POSTSCRIPT_FIGURE
1002
{
1000
PSFILL
1000
Grayscale
1000
Grayscale
1070
   100
1002
}
  0
LINE
  5
1EE12
330
1EA20
100
AcDbEntity
  8
YODOROGO
100
AcDbLine
 10
10456.8993767966
 20
576.0876790116348
 30
0.0
 11
10463.27054655324
 21
560.9060611609827
 31
0.0
1001
AUTOCAD_POSTSCRIPT_FIGURE
1002
{
1000
PSFILL
1000
Grayscale
1000
Grayscale
1070
   100
1002
}
  0
LINE
  5
1EE13
330
1EA20
100
AcDbEntity
  8
YODOROGO
100
AcDbLine
 10
10462.8993767966
 20
576.0876790116348
 30
0.0
 11
10456.8993767966
 21
576.0876790116348
 31
0.0
1001
AUTOCAD_POSTSCRIPT_FIGURE
1002
{
1000
PSFILL
1000
Grayscale
1000
Grayscale
1070
   100
1002
}
  0
LINE
  5
1EE14
330
1EA20
100
AcDbEntity
  8
YODOROGO
100
AcDbLine
 10
10473.60162798447
 20
553.4060611609827
 30
0.0
 11
10462.8993767966
 21
576.0876790116348
 31
0.0
1001
AUTOCAD_POSTSCRIPT_FIGURE
1002
{
1000
PSFILL
1000
Grayscale
1000
Grayscale
1070
   100
1002
}
  0
LINE
  5
1EE15
330
1EA20
100
AcDbEntity
  8
YODOROGO
100
AcDbLine
 10
10419.60162798446
 20
553.4060611609827
 30
0.0
 11
10473.60162798447
 21
553.4060611609827
 31
0.0
1001
AUTOCAD_POSTSCRIPT_FIGURE
1002
{
1000
PSFILL
1000
Grayscale
1000
Grayscale
1070
   100
1002
}
  0
LINE
  5
1EE16
330
1EA20
100
AcDbEntity
  8
YODOROGO
100
AcDbLine
 10
10416.60162798446
 20
607.4896552667143
 30
0.0
 11
10416.60162798446
 21
616.4896552667137
 31
0.0
  0
LINE
  5
1EE17
330
1EA20
100
AcDbEntity
  8
YODOROGO
100
AcDbLine
 10
10476.60162798446
 20
616.4896552667137
 30
0.0
 11
10476.60162798446
 21
607.4896552667143
 31
0.0
  0
ARC
  5
1EE18
330
1EA20
100
AcDbEntity
  8
YODOROGO
100
AcDbCircle
 10
10584.72766580511
 20
600.3291619969972
 30
0.0
 40
65.99999999999997
100
AcDbArc
 50
280.3644312771313
 51
3.541483659218056
  0
ARC
  5
1EE19
330
1EA20
100
AcDbEntity
  8
YODOROGO
100
AcDbCircle
 10
10588.40851153474
 20
612.5991776107142
 30
0.0
 40
41.99999999999936
100
AcDbArc
 50
281.2490582504155
 51
348.7509417495832
  0
LINE
  5
1EE1A
330
1EA20
100
AcDbEntity
  8
YODOROGO
100
AcDbLine
 10
10596.60162798446
 20
571.4060611609824
 30
0.0
 11
10596.60162798446
 21
535.4060611609829
 31
0.0
  0
LINE
  5
1EE1B
330
1EA20
100
AcDbEntity
  8
YODOROGO
100
AcDbLine
 10
10507.53333890132
 20
603.9939618982182
 30
0.0
 11
10515.34245150633
 21
622.406061160983
 31
0.0
  0
LINE
  5
1EE1C
330
1EA20
100
AcDbEntity
  8
YODOROGO
100
AcDbLine
 10
10515.60162798446
 20
593.6701837306505
 30
0.0
 11
10507.53333890132
 21
603.9939618982182
 31
0.0
  0
LINE
  5
1EE1D
330
1EA20
100
AcDbEntity
  8
YODOROGO
100
AcDbLine
 10
10515.60162798446
 20
586.1701837306497
 30
0.0
 11
10515.60162798446
 21
593.6701837306505
 31
0.0
  0
LINE
  5
1EE1E
330
1EA20
100
AcDbEntity
  8
YODOROGO
100
AcDbLine
 10
10506.60162798447
 20
594.4638989060739
 30
0.0
 11
10515.60162798446
 21
586.1701837306497
 31
0.0
  0
LINE
  5
1EE1F
330
1EA20
100
AcDbEntity
  8
YODOROGO
100
AcDbLine
 10
10506.60162798447
 20
553.4060611609827
 30
0.0
 11
10506.60162798447
 21
594.4638989060739
 31
0.0
  0
LINE
  5
1EE20
330
1EA20
100
AcDbEntity
  8
YODOROGO
100
AcDbLine
 10
10500.60162798446
 20
553.4060611609827
 30
0.0
 11
10506.60162798447
 21
553.4060611609827
 31
0.0
  0
LINE
  5
1EE21
330
1EA20
100
AcDbEntity
  8
YODOROGO
100
AcDbLine
 10
10500.60162798446
 20
592.5020061336555
 30
0.0
 11
10500.60162798446
 21
553.4060611609827
 31
0.0
  0
LINE
  5
1EE22
330
1EA20
100
AcDbEntity
  8
YODOROGO
100
AcDbLine
 10
10491.60162798447
 20
574.7880296375358
 30
0.0
 11
10500.60162798446
 21
592.5020061336555
 31
0.0
  0
LINE
  5
1EE23
330
1EA20
100
AcDbEntity
  8
YODOROGO
100
AcDbLine
 10
10491.60162798447
 20
583.788029637536
 30
0.0
 11
10491.60162798447
 21
574.7880296375358
 31
0.0
  0
LINE
  5
1EE24
330
1EA20
100
AcDbEntity
  8
YODOROGO
100
AcDbLine
 10
10509.68579035926
 20
625.4060611609819
 30
0.0
 11
10491.60162798447
 21
583.788029637536
 31
0.0
  0
LINE
  5
1EE25
330
1EA20
100
AcDbEntity
  8
YODOROGO
100
AcDbLine
 10
10491.60162798447
 20
625.4060611609819
 30
0.0
 11
10509.68579035926
 21
625.4060611609819
 31
0.0
  0
LINE
  5
1EE26
330
1EA20
100
AcDbEntity
  8
YODOROGO
100
AcDbLine
 10
10518.80082008659
 20
620.813863977996
 30
0.0
 11
10530.80082008658
 21
620.813863977996
 31
0.0
1001
AUTOCAD_POSTSCRIPT_FIGURE
1002
{
1000
PSFILL
1000
Grayscale
1000
Grayscale
1070
   100
1002
}
  0
LINE
  5
1EE27
330
1EA20
100
AcDbEntity
  8
YODOROGO
100
AcDbLine
 10
10518.80082008659
 20
611.8138639779965
 30
0.0
 11
10518.80082008659
 21
620.813863977996
 31
0.0
1001
AUTOCAD_POSTSCRIPT_FIGURE
1002
{
1000
PSFILL
1000
Grayscale
1000
Grayscale
1070
   100
1002
}
  0
LINE
  5
1EE28
330
1EA20
100
AcDbEntity
  8
YODOROGO
100
AcDbLine
 10
10530.80082008658
 20
611.8138639779965
 30
0.0
 11
10518.80082008659
 21
611.8138639779965
 31
0.0
1001
AUTOCAD_POSTSCRIPT_FIGURE
1002
{
1000
PSFILL
1000
Grayscale
1000
Grayscale
1070
   100
1002
}
  0
LINE
  5
1EE29
330
1EA20
100
AcDbEntity
  8
YODOROGO
100
AcDbLine
 10
10530.80082008658
 20
562.4060611609831
 30
0.0
 11
10530.80082008658
 21
611.8138639779965
 31
0.0
1001
AUTOCAD_POSTSCRIPT_FIGURE
1002
{
1000
PSFILL
1000
Grayscale
1000
Grayscale
1070
   100
1002
}
  0
LINE
  5
1EE2A
330
1EA20
100
AcDbEntity
  8
YODOROGO
100
AcDbLine
 10
10518.8008200866
 20
562.4060611609831
 30
0.0
 11
10530.80082008658
 21
562.4060611609831
 31
0.0
1001
AUTOCAD_POSTSCRIPT_FIGURE
1002
{
1000
PSFILL
1000
Grayscale
1000
Grayscale
1070
   100
1002
}
  0
LINE
  5
1EE2B
330
1EA20
100
AcDbEntity
  8
YODOROGO
100
AcDbLine
 10
10518.8008200866
 20
553.4060611609827
 30
0.0
 11
10518.8008200866
 21
562.4060611609831
 31
0.0
1001
AUTOCAD_POSTSCRIPT_FIGURE
1002
{
1000
PSFILL
1000
Grayscale
1000
Grayscale
1070
   100
1002
}
  0
LINE
  5
1EE2C
330
1EA20
100
AcDbEntity
  8
YODOROGO
100
AcDbLine
 10
10551.60162798447
 20
553.4060611609827
 30
0.0
 11
10518.8008200866
 21
553.4060611609827
 31
0.0
1001
AUTOCAD_POSTSCRIPT_FIGURE
1002
{
1000
PSFILL
1000
Grayscale
1000
Grayscale
1070
   100
1002
}
  0
LINE
  5
1EE2D
330
1EA20
100
AcDbEntity
  8
YODOROGO
100
AcDbLine
 10
10551.60162798447
 20
562.4060611609831
 30
0.0
 11
10551.60162798447
 21
553.4060611609827
 31
0.0
1001
AUTOCAD_POSTSCRIPT_FIGURE
1002
{
1000
PSFILL
1000
Grayscale
1000
Grayscale
1070
   100
1002
}
  0
LINE
  5
1EE2E
330
1EA20
100
AcDbEntity
  8
YODOROGO
100
AcDbLine
 10
10536.8008200866
 20
562.4060611609831
 30
0.0
 11
10551.60162798447
 21
562.4060611609831
 31
0.0
1001
AUTOCAD_POSTSCRIPT_FIGURE
1002
{
1000
PSFILL
1000
Grayscale
1000
Grayscale
1070
   100
1002
}
  0
LINE
  5
1EE2F
330
1EA20
100
AcDbEntity
  8
YODOROGO
100
AcDbLine
 10
10536.8008200866
 20
611.8138639779965
 30
0.0
 11
10536.8008200866
 21
562.4060611609831
 31
0.0
1001
AUTOCAD_POSTSCRIPT_FIGURE
1002
{
1000
PSFILL
1000
Grayscale
1000
Grayscale
1070
   100
1002
}
  0
LINE
  5
1EE30
330
1EA20
100
AcDbEntity
  8
YODOROGO
100
AcDbLine
 10
10551.60162798447
 20
611.8138639779965
 30
0.0
 11
10536.8008200866
 21
611.8138639779965
 31
0.0
1001
AUTOCAD_POSTSCRIPT_FIGURE
1002
{
1000
PSFILL
1000
Grayscale
1000
Grayscale
1070
   100
1002
}
  0
LINE
  5
1EE31
330
1EA20
100
AcDbEntity
  8
YODOROGO
100
AcDbLine
 10
10551.60162798447
 20
620.813863977996
 30
0.0
 11
10551.60162798447
 21
611.8138639779965
 31
0.0
1001
AUTOCAD_POSTSCRIPT_FIGURE
1002
{
1000
PSFILL
1000
Grayscale
1000
Grayscale
1070
   100
1002
}
  0
LINE
  5
1EE32
330
1EA20
100
AcDbEntity
  8
YODOROGO
100
AcDbLine
 10
10536.8008200866
 20
620.813863977996
 30
0.0
 11
10551.60162798447
 21
620.813863977996
 31
0.0
1001
AUTOCAD_POSTSCRIPT_FIGURE
1002
{
1000
PSFILL
1000
Grayscale
1000
Grayscale
1070
   100
1002
}
  0
LINE
  5
1EE33
330
1EA20
100
AcDbEntity
  8
YODOROGO
100
AcDbLine
 10
10650.60162798447
 20
625.406061160983
 30
0.0
 11
10629.60162798447
 21
625.406061160983
 31
0.0
  0
LINE
  5
1EE34
330
1EA20
100
AcDbEntity
  8
YODOROGO
100
AcDbLine
 10
10650.60162798447
 20
604.4060611609832
 30
0.0
 11
10650.60162798447
 21
625.406061160983
 31
0.0
  0
LINE
  5
1EE35
330
1EA20
100
AcDbEntity
  8
YODOROGO
100
AcDbLine
 10
10629.60162798447
 20
625.406061160983
 30
0.0
 11
10629.60162798447
 21
604.4060611609832
 31
0.0
  0
ARC
  5
1EE36
330
1EA20
100
AcDbEntity
  8
YODOROGO
100
AcDbCircle
 10
10692.60162798446
 20
565.4060611609828
 30
0.0
 40
30.0
100
AcDbArc
 50
180.0
 51
270.0
  0
ARC
  5
1EE37
330
1EA20
100
AcDbEntity
  8
YODOROGO
100
AcDbCircle
 10
10701.60162798446
 20
586.4060611609825
 30
0.0
 40
15.0
100
AcDbArc
 50
180.0
 51
270.0
  0
LINE
  5
1EE38
330
1EA20
100
AcDbEntity
  8
YODOROGO
100
AcDbLine
 10
10710.60162798447
 20
571.4060611609824
 30
0.0
 11
10701.60162798446
 21
571.4060611609824
 31
0.0
  0
ARC
  5
1EE39
330
1EA20
100
AcDbEntity
  8
YODOROGO
100
AcDbCircle
 10
10710.60162798447
 20
580.4060611609819
 30
0.0
 40
8.999999999998637
100
AcDbArc
 50
270.0
 51
0.0000000000054281
  0
LINE
  5
1EE3A
330
1EA20
100
AcDbEntity
  8
YODOROGO
100
AcDbLine
 10
10425.60162798447
 20
709.0449677976399
 30
0.0
 11
10416.60162798446
 21
691.4162804818772
 31
0.0
1001
AUTOCAD_POSTSCRIPT_FIGURE
1002
{
1000
PSFILL
1000
Grayscale
1000
Grayscale
1070
   100
1002
}
  0
LINE
  5
1EE3B
330
1EA20
100
AcDbEntity
  8
YODOROGO
100
AcDbLine
 10
10425.60162798447
 20
655.406061160983
 30
0.0
 11
10425.60162798447
 21
709.0449677976399
 31
0.0
1001
AUTOCAD_POSTSCRIPT_FIGURE
1002
{
1000
PSFILL
1000
Grayscale
1000
Grayscale
1070
   100
1002
}
  0
LINE
  5
1EE3C
330
1EA20
100
AcDbEntity
  8
YODOROGO
100
AcDbLine
 10
10431.60162798447
 20
655.406061160983
 30
0.0
 11
10425.60162798447
 21
655.406061160983
 31
0.0
1001
AUTOCAD_POSTSCRIPT_FIGURE
1002
{
1000
PSFILL
1000
Grayscale
1000
Grayscale
1070
   100
1002
}
  0
LINE
  5
1EE3D
330
1EA20
100
AcDbEntity
  8
YODOROGO
100
AcDbLine
 10
10431.60162798447
 20
710.1642495319751
 30
0.0
 11
10431.60162798447
 21
655.406061160983
 31
0.0
1001
AUTOCAD_POSTSCRIPT_FIGURE
1002
{
1000
PSFILL
1000
Grayscale
1000
Grayscale
1070
   100
1002
}
  0
LINE
  5
1EE3E
330
1EA20
100
AcDbEntity
  8
YODOROGO
100
AcDbLine
 10
10440.60162798446
 20
700.3705343565512
 30
0.0
 11
10431.60162798447
 21
710.1642495319751
 31
0.0
1001
AUTOCAD_POSTSCRIPT_FIGURE
1002
{
1000
PSFILL
1000
Grayscale
1000
Grayscale
1070
   100
1002
}
  0
LINE
  5
1EE3F
330
1EA20
100
AcDbEntity
  8
YODOROGO
100
AcDbLine
 10
10440.60162798446
 20
706.3705343565509
 30
0.0
 11
10440.60162798446
 21
700.3705343565512
 31
0.0
1001
AUTOCAD_POSTSCRIPT_FIGURE
1002
{
1000
PSFILL
1000
Grayscale
1000
Grayscale
1070
   100
1002
}
  0
LINE
  5
1EE40
330
1EA20
100
AcDbEntity
  8
YODOROGO
100
AcDbLine
 10
10431.60162798447
 20
719.1642495319745
 30
0.0
 11
10440.60162798446
 21
706.3705343565509
 31
0.0
1001
AUTOCAD_POSTSCRIPT_FIGURE
1002
{
1000
PSFILL
1000
Grayscale
1000
Grayscale
1070
   100
1002
}
  0
LINE
  5
1EE41
330
1EA20
100
AcDbEntity
  8
YODOROGO
100
AcDbLine
 10
10431.60162798447
 20
727.4060611609828
 30
0.0
 11
10431.60162798447
 21
719.1642495319745
 31
0.0
1001
AUTOCAD_POSTSCRIPT_FIGURE
1002
{
1000
PSFILL
1000
Grayscale
1000
Grayscale
1070
   100
1002
}
  0
LINE
  5
1EE42
330
1EA20
100
AcDbEntity
  8
YODOROGO
100
AcDbLine
 10
10458.60162798446
 20
727.4060611609828
 30
0.0
 11
10431.60162798447
 21
727.4060611609828
 31
0.0
1001
AUTOCAD_POSTSCRIPT_FIGURE
1002
{
1000
PSFILL
1000
Grayscale
1000
Grayscale
1070
   100
1002
}
  0
LINE
  5
1EE43
330
1EA20
100
AcDbEntity
  8
YODOROGO
100
AcDbLine
 10
10458.60162798446
 20
712.7131308511124
 30
0.0
 11
10458.60162798446
 21
727.4060611609828
 31
0.0
1001
AUTOCAD_POSTSCRIPT_FIGURE
1002
{
1000
PSFILL
1000
Grayscale
1000
Grayscale
1070
   100
1002
}
  0
LINE
  5
1EE44
330
1EA20
100
AcDbEntity
  8
YODOROGO
100
AcDbLine
 10
10446.60162798447
 20
712.7131308511124
 30
0.0
 11
10458.60162798446
 21
712.7131308511124
 31
0.0
1001
AUTOCAD_POSTSCRIPT_FIGURE
1002
{
1000
PSFILL
1000
Grayscale
1000
Grayscale
1070
   100
1002
}
  0
LINE
  5
1EE45
330
1EA20
100
AcDbEntity
  8
YODOROGO
100
AcDbLine
 10
10446.60162798447
 20
706.7131308511119
 30
0.0
 11
10446.60162798447
 21
712.7131308511124
 31
0.0
1001
AUTOCAD_POSTSCRIPT_FIGURE
1002
{
1000
PSFILL
1000
Grayscale
1000
Grayscale
1070
   100
1002
}
  0
LINE
  5
1EE46
330
1EA20
100
AcDbEntity
  8
YODOROGO
100
AcDbLine
 10
10458.60162798446
 20
706.7131308511119
 30
0.0
 11
10446.60162798447
 21
706.7131308511119
 31
0.0
1001
AUTOCAD_POSTSCRIPT_FIGURE
1002
{
1000
PSFILL
1000
Grayscale
1000
Grayscale
1070
   100
1002
}
  0
LINE
  5
1EE47
330
1EA20
100
AcDbEntity
  8
YODOROGO
100
AcDbLine
 10
10458.60162798446
 20
704.8571917366647
 30
0.0
 11
10458.60162798446
 21
706.7131308511119
 31
0.0
1001
AUTOCAD_POSTSCRIPT_FIGURE
1002
{
1000
PSFILL
1000
Grayscale
1000
Grayscale
1070
   100
1002
}
  0
LINE
  5
1EE48
330
1EA20
100
AcDbEntity
  8
YODOROGO
100
AcDbLine
 10
10443.60162798447
 20
679.8656179355313
 30
0.0
 11
10458.60162798446
 21
704.8571917366647
 31
0.0
1001
AUTOCAD_POSTSCRIPT_FIGURE
1002
{
1000
PSFILL
1000
Grayscale
1000
Grayscale
1070
   100
1002
}
  0
LINE
  5
1EE49
330
1EA20
100
AcDbEntity
  8
YODOROGO
100
AcDbLine
 10
10443.60162798447
 20
673.8656179355309
 30
0.0
 11
10443.60162798447
 21
679.8656179355313
 31
0.0
1001
AUTOCAD_POSTSCRIPT_FIGURE
1002
{
1000
PSFILL
1000
Grayscale
1000
Grayscale
1070
   100
1002
}
  0
LINE
  5
1EE4A
330
1EA20
100
AcDbEntity
  8
YODOROGO
100
AcDbLine
 10
10458.60162798446
 20
692.8571917366638
 30
0.0
 11
10443.60162798447
 21
673.8656179355309
 31
0.0
1001
AUTOCAD_POSTSCRIPT_FIGURE
1002
{
1000
PSFILL
1000
Grayscale
1000
Grayscale
1070
   100
1002
}
  0
LINE
  5
1EE4B
330
1EA20
100
AcDbEntity
  8
YODOROGO
100
AcDbLine
 10
10458.60162798446
 20
655.406061160983
 30
0.0
 11
10458.60162798446
 21
692.8571917366638
 31
0.0
1001
AUTOCAD_POSTSCRIPT_FIGURE
1002
{
1000
PSFILL
1000
Grayscale
1000
Grayscale
1070
   100
1002
}
  0
LINE
  5
1EE4C
330
1EA20
100
AcDbEntity
  8
YODOROGO
100
AcDbLine
 10
10464.60162798447
 20
655.406061160983
 30
0.0
 11
10458.60162798446
 21
655.406061160983
 31
0.0
1001
AUTOCAD_POSTSCRIPT_FIGURE
1002
{
1000
PSFILL
1000
Grayscale
1000
Grayscale
1070
   100
1002
}
  0
LINE
  5
1EE4D
330
1EA20
100
AcDbEntity
  8
YODOROGO
100
AcDbLine
 10
10464.60162798447
 20
693.5283795595521
 30
0.0
 11
10464.60162798447
 21
655.406061160983
 31
0.0
1001
AUTOCAD_POSTSCRIPT_FIGURE
1002
{
1000
PSFILL
1000
Grayscale
1000
Grayscale
1070
   100
1002
}
  0
LINE
  5
1EE4E
330
1EA20
100
AcDbEntity
  8
YODOROGO
100
AcDbLine
 10
10476.60162798446
 20
673.8656179355309
 30
0.0
 11
10464.60162798447
 21
693.5283795595521
 31
0.0
1001
AUTOCAD_POSTSCRIPT_FIGURE
1002
{
1000
PSFILL
1000
Grayscale
1000
Grayscale
1070
   100
1002
}
  0
LINE
  5
1EE4F
330
1EA20
100
AcDbEntity
  8
YODOROGO
100
AcDbLine
 10
10476.60162798446
 20
679.8656179355313
 30
0.0
 11
10476.60162798446
 21
673.8656179355309
 31
0.0
1001
AUTOCAD_POSTSCRIPT_FIGURE
1002
{
1000
PSFILL
1000
Grayscale
1000
Grayscale
1070
   100
1002
}
  0
LINE
  5
1EE50
330
1EA20
100
AcDbEntity
  8
YODOROGO
100
AcDbLine
 10
10464.60162798447
 20
705.5283795595531
 30
0.0
 11
10476.60162798446
 21
679.8656179355313
 31
0.0
1001
AUTOCAD_POSTSCRIPT_FIGURE
1002
{
1000
PSFILL
1000
Grayscale
1000
Grayscale
1070
   100
1002
}
  0
LINE
  5
1EE51
330
1EA20
100
AcDbEntity
  8
YODOROGO
100
AcDbLine
 10
10464.60162798447
 20
706.7131308511128
 30
0.0
 11
10464.60162798447
 21
705.5283795595531
 31
0.0
1001
AUTOCAD_POSTSCRIPT_FIGURE
1002
{
1000
PSFILL
1000
Grayscale
1000
Grayscale
1070
   100
1002
}
  0
LINE
  5
1EE52
330
1EA20
100
AcDbEntity
  8
YODOROGO
100
AcDbLine
 10
10476.60162798446
 20
706.7131308511119
 30
0.0
 11
10464.60162798447
 21
706.7131308511128
 31
0.0
1001
AUTOCAD_POSTSCRIPT_FIGURE
1002
{
1000
PSFILL
1000
Grayscale
1000
Grayscale
1070
   100
1002
}
  0
LINE
  5
1EE53
330
1EA20
100
AcDbEntity
  8
YODOROGO
100
AcDbLine
 10
10476.60162798446
 20
712.7131308511124
 30
0.0
 11
10476.60162798446
 21
706.7131308511119
 31
0.0
1001
AUTOCAD_POSTSCRIPT_FIGURE
1002
{
1000
PSFILL
1000
Grayscale
1000
Grayscale
1070
   100
1002
}
  0
LINE
  5
1EE54
330
1EA20
100
AcDbEntity
  8
YODOROGO
100
AcDbLine
 10
10464.60162798447
 20
712.7131308511124
 30
0.0
 11
10476.60162798446
 21
712.7131308511124
 31
0.0
1001
AUTOCAD_POSTSCRIPT_FIGURE
1002
{
1000
PSFILL
1000
Grayscale
1000
Grayscale
1070
   100
1002
}
  0
LINE
  5
1EE55
330
1EA20
100
AcDbEntity
  8
YODOROGO
100
AcDbLine
 10
10464.60162798447
 20
727.4060611609828
 30
0.0
 11
10464.60162798447
 21
712.7131308511124
 31
0.0
1001
AUTOCAD_POSTSCRIPT_FIGURE
1002
{
1000
PSFILL
1000
Grayscale
1000
Grayscale
1070
   100
1002
}
  0
LINE
  5
1EE56
330
1EA20
100
AcDbEntity
  8
YODOROGO
100
AcDbLine
 10
10476.60162798446
 20
727.4060611609828
 30
0.0
 11
10464.60162798447
 21
727.4060611609828
 31
0.0
1001
AUTOCAD_POSTSCRIPT_FIGURE
1002
{
1000
PSFILL
1000
Grayscale
1000
Grayscale
1070
   100
1002
}
  0
LINE
  5
1EE57
330
1EA20
100
AcDbEntity
  8
YODOROGO
100
AcDbLine
 10
10476.60162798446
 20
733.4060611609828
 30
0.0
 11
10476.60162798446
 21
727.4060611609828
 31
0.0
1001
AUTOCAD_POSTSCRIPT_FIGURE
1002
{
1000
PSFILL
1000
Grayscale
1000
Grayscale
1070
   100
1002
}
  0
LINE
  5
1EE58
330
1EA20
100
AcDbEntity
  8
YODOROGO
100
AcDbLine
 10
10464.60162798447
 20
733.4060611609828
 30
0.0
 11
10476.60162798446
 21
733.4060611609828
 31
0.0
1001
AUTOCAD_POSTSCRIPT_FIGURE
1002
{
1000
PSFILL
1000
Grayscale
1000
Grayscale
1070
   100
1002
}
  0
LINE
  5
1EE59
330
1EA20
100
AcDbEntity
  8
YODOROGO
100
AcDbLine
 10
10464.60162798447
 20
742.4060611609832
 30
0.0
 11
10464.60162798447
 21
733.4060611609828
 31
0.0
1001
AUTOCAD_POSTSCRIPT_FIGURE
1002
{
1000
PSFILL
1000
Grayscale
1000
Grayscale
1070
   100
1002
}
  0
LINE
  5
1EE5A
330
1EA20
100
AcDbEntity
  8
YODOROGO
100
AcDbLine
 10
10458.60162798446
 20
742.4060611609832
 30
0.0
 11
10464.60162798447
 21
742.4060611609832
 31
0.0
1001
AUTOCAD_POSTSCRIPT_FIGURE
1002
{
1000
PSFILL
1000
Grayscale
1000
Grayscale
1070
   100
1002
}
  0
LINE
  5
1EE5B
330
1EA20
100
AcDbEntity
  8
YODOROGO
100
AcDbLine
 10
10458.60162798446
 20
733.4060611609828
 30
0.0
 11
10458.60162798446
 21
742.4060611609832
 31
0.0
1001
AUTOCAD_POSTSCRIPT_FIGURE
1002
{
1000
PSFILL
1000
Grayscale
1000
Grayscale
1070
   100
1002
}
  0
LINE
  5
1EE5C
330
1EA20
100
AcDbEntity
  8
YODOROGO
100
AcDbLine
 10
10449.60162798447
 20
733.4060611609828
 30
0.0
 11
10458.60162798446
 21
733.4060611609828
 31
0.0
1001
AUTOCAD_POSTSCRIPT_FIGURE
1002
{
1000
PSFILL
1000
Grayscale
1000
Grayscale
1070
   100
1002
}
  0
LINE
  5
1EE5D
330
1EA20
100
AcDbEntity
  8
YODOROGO
100
AcDbLine
 10
10449.60162798447
 20
742.4060611609832
 30
0.0
 11
10449.60162798447
 21
733.4060611609828
 31
0.0
1001
AUTOCAD_POSTSCRIPT_FIGURE
1002
{
1000
PSFILL
1000
Grayscale
1000
Grayscale
1070
   100
1002
}
  0
LINE
  5
1EE5E
330
1EA20
100
AcDbEntity
  8
YODOROGO
100
AcDbLine
 10
10443.60162798447
 20
742.4060611609832
 30
0.0
 11
10449.60162798447
 21
742.4060611609832
 31
0.0
1001
AUTOCAD_POSTSCRIPT_FIGURE
1002
{
1000
PSFILL
1000
Grayscale
1000
Grayscale
1070
   100
1002
}
  0
LINE
  5
1EE5F
330
1EA20
100
AcDbEntity
  8
YODOROGO
100
AcDbLine
 10
10443.60162798447
 20
733.4060611609828
 30
0.0
 11
10443.60162798447
 21
742.4060611609832
 31
0.0
1001
AUTOCAD_POSTSCRIPT_FIGURE
1002
{
1000
PSFILL
1000
Grayscale
1000
Grayscale
1070
   100
1002
}
  0
LINE
  5
1EE60
330
1EA20
100
AcDbEntity
  8
YODOROGO
100
AcDbLine
 10
10431.60162798447
 20
733.4060611609828
 30
0.0
 11
10443.60162798447
 21
733.4060611609828
 31
0.0
1001
AUTOCAD_POSTSCRIPT_FIGURE
1002
{
1000
PSFILL
1000
Grayscale
1000
Grayscale
1070
   100
1002
}
  0
LINE
  5
1EE61
330
1EA20
100
AcDbEntity
  8
YODOROGO
100
AcDbLine
 10
10431.60162798447
 20
742.4060611609832
 30
0.0
 11
10431.60162798447
 21
733.4060611609828
 31
0.0
1001
AUTOCAD_POSTSCRIPT_FIGURE
1002
{
1000
PSFILL
1000
Grayscale
1000
Grayscale
1070
   100
1002
}
  0
LINE
  5
1EE62
330
1EA20
100
AcDbEntity
  8
YODOROGO
100
AcDbLine
 10
10425.60162798447
 20
742.4060611609832
 30
0.0
 11
10431.60162798447
 21
742.4060611609832
 31
0.0
1001
AUTOCAD_POSTSCRIPT_FIGURE
1002
{
1000
PSFILL
1000
Grayscale
1000
Grayscale
1070
   100
1002
}
  0
LINE
  5
1EE63
330
1EA20
100
AcDbEntity
  8
YODOROGO
100
AcDbLine
 10
10425.60162798447
 20
733.4060611609828
 30
0.0
 11
10425.60162798447
 21
742.4060611609832
 31
0.0
1001
AUTOCAD_POSTSCRIPT_FIGURE
1002
{
1000
PSFILL
1000
Grayscale
1000
Grayscale
1070
   100
1002
}
  0
LINE
  5
1EE64
330
1EA20
100
AcDbEntity
  8
YODOROGO
100
AcDbLine
 10
10416.60162798446
 20
733.4060611609828
 30
0.0
 11
10425.60162798447
 21
733.4060611609828
 31
0.0
1001
AUTOCAD_POSTSCRIPT_FIGURE
1002
{
1000
PSFILL
1000
Grayscale
1000
Grayscale
1070
   100
1002
}
  0
LINE
  5
1EE65
330
1EA20
100
AcDbEntity
  8
YODOROGO
100
AcDbLine
 10
10416.60162798446
 20
727.4060611609828
 30
0.0
 11
10416.60162798446
 21
733.4060611609828
 31
0.0
1001
AUTOCAD_POSTSCRIPT_FIGURE
1002
{
1000
PSFILL
1000
Grayscale
1000
Grayscale
1070
   100
1002
}
  0
LINE
  5
1EE66
330
1EA20
100
AcDbEntity
  8
YODOROGO
100
AcDbLine
 10
10425.60162798447
 20
727.4060611609828
 30
0.0
 11
10416.60162798446
 21
727.4060611609828
 31
0.0
1001
AUTOCAD_POSTSCRIPT_FIGURE
1002
{
1000
PSFILL
1000
Grayscale
1000
Grayscale
1070
   100
1002
}
  0
LINE
  5
1EE67
330
1EA20
100
AcDbEntity
  8
YODOROGO
100
AcDbLine
 10
10425.60162798447
 20
718.0449677976392
 30
0.0
 11
10425.60162798447
 21
727.4060611609828
 31
0.0
1001
AUTOCAD_POSTSCRIPT_FIGURE
1002
{
1000
PSFILL
1000
Grayscale
1000
Grayscale
1070
   100
1002
}
  0
LINE
  5
1EE68
330
1EA20
100
AcDbEntity
  8
YODOROGO
100
AcDbLine
 10
10416.60162798446
 20
697.4162804818766
 30
0.0
 11
10425.60162798447
 21
718.0449677976392
 31
0.0
1001
AUTOCAD_POSTSCRIPT_FIGURE
1002
{
1000
PSFILL
1000
Grayscale
1000
Grayscale
1070
   100
1002
}
  0
LINE
  5
1EE69
330
1EA20
100
AcDbEntity
  8
YODOROGO
100
AcDbLine
 10
10416.60162798446
 20
691.4162804818772
 30
0.0
 11
10416.60162798446
 21
697.4162804818766
 31
0.0
1001
AUTOCAD_POSTSCRIPT_FIGURE
1002
{
1000
PSFILL
1000
Grayscale
1000
Grayscale
1070
   100
1002
}
  0
LINE
  5
1EE6A
330
1EA20
100
AcDbEntity
  8
YODOROGO
100
AcDbLine
 10
10596.60162798446
 20
700.406061160983
 30
0.0
 11
10650.60162798447
 21
684.3291096151149
 31
0.0
1001
AUTOCAD_POSTSCRIPT_FIGURE
1002
{
1000
PSFILL
1000
Grayscale
1000
Grayscale
1070
   100
1002
}
  0
LINE
  5
1EE6B
330
1EA20
100
AcDbEntity
  8
YODOROGO
100
AcDbLine
 10
10650.60162798447
 20
657.3291096151146
 30
0.0
 11
10596.60162798446
 21
673.4060611609827
 31
0.0
1001
AUTOCAD_POSTSCRIPT_FIGURE
1002
{
1000
PSFILL
1000
Grayscale
1000
Grayscale
1070
   100
1002
}
  0
LINE
  5
1EE6C
330
1EA20
100
AcDbEntity
  8
YODOROGO
100
AcDbLine
 10
10650.60162798447
 20
744.329109615115
 30
0.0
 11
10596.60162798446
 21
760.4060611609829
 31
0.0
1001
AUTOCAD_POSTSCRIPT_FIGURE
1002
{
1000
PSFILL
1000
Grayscale
1000
Grayscale
1070
   100
1002
}
  0
LINE
  5
1EE6D
330
1EA20
100
AcDbEntity
  8
YODOROGO
100
AcDbLine
 10
10596.60162798446
 20
734.9060611609829
 30
0.0
 11
10650.60162798447
 21
718.829109615115
 31
0.0
1001
AUTOCAD_POSTSCRIPT_FIGURE
1002
{
1000
PSFILL
1000
Grayscale
1000
Grayscale
1070
   100
1002
}
  0
LINE
  5
1EE6E
330
1EA20
100
AcDbEntity
  8
YODOROGO
100
AcDbLine
 10
10596.60162798446
 20
673.4060611609827
 30
0.0
 11
10596.60162798446
 21
700.406061160983
 31
0.0
1001
AUTOCAD_POSTSCRIPT_FIGURE
1002
{
1000
PSFILL
1000
Grayscale
1000
Grayscale
1070
   100
1002
}
  0
LINE
  5
1EE6F
330
1EA20
100
AcDbEntity
  8
YODOROGO
100
AcDbLine
 10
10596.60162798446
 20
760.4060611609829
 30
0.0
 11
10596.60162798446
 21
734.9060611609829
 31
0.0
1001
AUTOCAD_POSTSCRIPT_FIGURE
1002
{
1000
PSFILL
1000
Grayscale
1000
Grayscale
1070
   100
1002
}
  0
LINE
  5
1EE70
330
1EA20
100
AcDbEntity
  8
YODOROGO
100
AcDbLine
 10
10530.08862007752
 20
727.4060611609828
 30
0.0
 11
10548.60162798447
 21
655.406061160983
 31
0.0
1001
AUTOCAD_POSTSCRIPT_FIGURE
1002
{
1000
PSFILL
1000
Grayscale
1000
Grayscale
1070
   100
1002
}
  0
LINE
  5
1EE71
330
1EA20
100
AcDbEntity
  8
YODOROGO
100
AcDbLine
 10
10491.60162798447
 20
727.4060611609828
 30
0.0
 11
10530.08862007752
 21
727.4060611609828
 31
0.0
1001
AUTOCAD_POSTSCRIPT_FIGURE
1002
{
1000
PSFILL
1000
Grayscale
1000
Grayscale
1070
   100
1002
}
  0
LINE
  5
1EE72
330
1EA20
100
AcDbEntity
  8
YODOROGO
100
AcDbLine
 10
10491.60162798447
 20
733.4060611609828
 30
0.0
 11
10491.60162798447
 21
727.4060611609828
 31
0.0
1001
AUTOCAD_POSTSCRIPT_FIGURE
1002
{
1000
PSFILL
1000
Grayscale
1000
Grayscale
1070
   100
1002
}
  0
LINE
  5
1EE73
330
1EA20
100
AcDbEntity
  8
YODOROGO
100
AcDbLine
 10
10528.72757944497
 20
733.4060611609828
 30
0.0
 11
10491.60162798447
 21
733.4060611609828
 31
0.0
1001
AUTOCAD_POSTSCRIPT_FIGURE
1002
{
1000
PSFILL
1000
Grayscale
1000
Grayscale
1070
   100
1002
}
  0
LINE
  5
1EE74
330
1EA20
100
AcDbEntity
  8
YODOROGO
100
AcDbLine
 10
10526.68601849614
 20
742.4060611609832
 30
0.0
 11
10528.72757944497
 21
733.4060611609828
 31
0.0
1001
AUTOCAD_POSTSCRIPT_FIGURE
1002
{
1000
PSFILL
1000
Grayscale
1000
Grayscale
1070
   100
1002
}
  0
LINE
  5
1EE75
330
1EA20
100
AcDbEntity
  8
YODOROGO
100
AcDbLine
 10
10534.18601849614
 20
742.4060611609832
 30
0.0
 11
10526.68601849614
 21
742.4060611609832
 31
0.0
1001
AUTOCAD_POSTSCRIPT_FIGURE
1002
{
1000
PSFILL
1000
Grayscale
1000
Grayscale
1070
   100
1002
}
  0
LINE
  5
1EE76
330
1EA20
100
AcDbEntity
  8
YODOROGO
100
AcDbLine
 10
10535.92757944497
 20
733.4060611609828
 30
0.0
 11
10534.18601849614
 21
742.4060611609832
 31
0.0
1001
AUTOCAD_POSTSCRIPT_FIGURE
1002
{
1000
PSFILL
1000
Grayscale
1000
Grayscale
1070
   100
1002
}
  0
LINE
  5
1EE77
330
1EA20
100
AcDbEntity
  8
YODOROGO
100
AcDbLine
 10
10545.60162798447
 20
733.4060611609828
 30
0.0
 11
10535.92757944497
 21
733.4060611609828
 31
0.0
1001
AUTOCAD_POSTSCRIPT_FIGURE
1002
{
1000
PSFILL
1000
Grayscale
1000
Grayscale
1070
   100
1002
}
  0
LINE
  5
1EE78
330
1EA20
100
AcDbEntity
  8
YODOROGO
100
AcDbLine
 10
10545.60162798447
 20
742.4060611609832
 30
0.0
 11
10545.60162798447
 21
733.4060611609828
 31
0.0
1001
AUTOCAD_POSTSCRIPT_FIGURE
1002
{
1000
PSFILL
1000
Grayscale
1000
Grayscale
1070
   100
1002
}
  0
LINE
  5
1EE79
330
1EA20
100
AcDbEntity
  8
YODOROGO
100
AcDbLine
 10
10551.60162798447
 20
742.4060611609832
 30
0.0
 11
10545.60162798447
 21
742.4060611609832
 31
0.0
1001
AUTOCAD_POSTSCRIPT_FIGURE
1002
{
1000
PSFILL
1000
Grayscale
1000
Grayscale
1070
   100
1002
}
  0
LINE
  5
1EE7A
330
1EA20
100
AcDbEntity
  8
YODOROGO
100
AcDbLine
 10
10551.60162798447
 20
733.4060611609828
 30
0.0
 11
10551.60162798447
 21
742.4060611609832
 31
0.0
1001
AUTOCAD_POSTSCRIPT_FIGURE
1002
{
1000
PSFILL
1000
Grayscale
1000
Grayscale
1070
   100
1002
}
  0
LINE
  5
1EE7B
330
1EA20
100
AcDbEntity
  8
YODOROGO
100
AcDbLine
 10
10551.60162798447
 20
727.4060611609828
 30
0.0
 11
10551.60162798447
 21
733.4060611609828
 31
0.0
1001
AUTOCAD_POSTSCRIPT_FIGURE
1002
{
1000
PSFILL
1000
Grayscale
1000
Grayscale
1070
   100
1002
}
  0
LINE
  5
1EE7C
330
1EA20
100
AcDbEntity
  8
YODOROGO
100
AcDbLine
 10
10537.08862007752
 20
727.4060611609828
 30
0.0
 11
10551.60162798447
 21
727.4060611609828
 31
0.0
1001
AUTOCAD_POSTSCRIPT_FIGURE
1002
{
1000
PSFILL
1000
Grayscale
1000
Grayscale
1070
   100
1002
}
  0
LINE
  5
1EE7D
330
1EA20
100
AcDbEntity
  8
YODOROGO
100
AcDbLine
 10
10551.60162798447
 20
655.406061160983
 30
0.0
 11
10537.08862007752
 21
727.4060611609828
 31
0.0
1001
AUTOCAD_POSTSCRIPT_FIGURE
1002
{
1000
PSFILL
1000
Grayscale
1000
Grayscale
1070
   100
1002
}
  0
LINE
  5
1EE7E
330
1EA20
100
AcDbEntity
  8
YODOROGO
100
AcDbLine
 10
10548.60162798447
 20
655.406061160983
 30
0.0
 11
10551.60162798447
 21
655.406061160983
 31
0.0
1001
AUTOCAD_POSTSCRIPT_FIGURE
1002
{
1000
PSFILL
1000
Grayscale
1000
Grayscale
1070
   100
1002
}
  0
LINE
  5
1EE7F
330
1EA20
100
AcDbEntity
  8
YODOROGO
100
AcDbLine
 10
10529.27595747517
 20
665.902791112048
 30
0.0
 11
10491.60162798447
 21
655.406061160983
 31
0.0
  0
LINE
  5
1EE80
330
1EA20
100
AcDbEntity
  8
YODOROGO
100
AcDbLine
 10
10529.27595747517
 20
674.5008673234024
 30
0.0
 11
10529.27595747517
 21
665.902791112048
 31
0.0
  0
LINE
  5
1EE81
330
1EA20
100
AcDbEntity
  8
YODOROGO
100
AcDbLine
 10
10512.68879272982
 20
670.0563499251625
 30
0.0
 11
10529.27595747517
 21
674.5008673234024
 31
0.0
  0
LINE
  5
1EE82
330
1EA20
100
AcDbEntity
  8
YODOROGO
100
AcDbLine
 10
10512.68879272982
 20
702.2131308511124
 30
0.0
 11
10512.68879272982
 21
670.0563499251625
 31
0.0
  0
LINE
  5
1EE83
330
1EA20
100
AcDbEntity
  8
YODOROGO
100
AcDbLine
 10
10529.27595747517
 20
702.2131308511124
 30
0.0
 11
10512.68879272982
 21
702.2131308511124
 31
0.0
  0
LINE
  5
1EE84
330
1EA20
100
AcDbEntity
  8
YODOROGO
100
AcDbLine
 10
10529.27595747517
 20
709.7131308511116
 30
0.0
 11
10529.27595747517
 21
702.2131308511124
 31
0.0
  0
LINE
  5
1EE85
330
1EA20
100
AcDbEntity
  8
YODOROGO
100
AcDbLine
 10
10491.60162798447
 20
709.7131308511116
 30
0.0
 11
10529.27595747517
 21
709.7131308511116
 31
0.0
  0
LINE
  5
1EE86
330
1EA20
100
AcDbEntity
  8
YODOROGO
100
AcDbLine
 10
10491.60162798447
 20
702.2131308511124
 30
0.0
 11
10491.60162798447
 21
709.7131308511116
 31
0.0
  0
LINE
  5
1EE87
330
1EA20
100
AcDbEntity
  8
YODOROGO
100
AcDbLine
 10
10508.18879272982
 20
702.2131308511124
 30
0.0
 11
10491.60162798447
 21
702.2131308511124
 31
0.0
  0
LINE
  5
1EE88
330
1EA20
100
AcDbEntity
  8
YODOROGO
100
AcDbLine
 10
10508.18879272982
 20
669.252502347869
 30
0.0
 11
10508.18879272982
 21
702.2131308511124
 31
0.0
  0
LINE
  5
1EE89
330
1EA20
100
AcDbEntity
  8
YODOROGO
100
AcDbLine
 10
10491.60162798447
 20
664.4060611609823
 30
0.0
 11
10508.18879272982
 21
669.252502347869
 31
0.0
  0
LINE
  5
1EE8A
330
1EA20
100
AcDbEntity
  8
YODOROGO
100
AcDbLine
 10
10491.60162798447
 20
655.406061160983
 30
0.0
 11
10491.60162798447
 21
664.4060611609823
 31
0.0
  0
LINE
  5
1EE8B
330
1EA20
100
AcDbEntity
  8
YODOROGO
100
AcDbLine
 10
10500.60162798446
 20
640.4060611609828
 30
0.0
 11
10500.60162798446
 21
631.4060611609825
 31
0.0
  0
LINE
  5
1EE8C
330
1EA20
100
AcDbEntity
  8
YODOROGO
100
AcDbLine
 10
10500.60162798446
 20
640.4060611609828
 30
0.0
 11
10500.60162798446
 21
640.4060611609828
 31
0.0
  0
LINE
  5
1EE8D
330
1EA20
100
AcDbEntity
  8
YODOROGO
100
AcDbLine
 10
10506.60162798447
 20
640.4060611609828
 30
0.0
 11
10500.60162798446
 21
640.4060611609828
 31
0.0
  0
LINE
  5
1EE8E
330
1EA20
100
AcDbEntity
  8
YODOROGO
100
AcDbLine
 10
10506.60162798447
 20
631.4060611609825
 30
0.0
 11
10506.60162798447
 21
640.4060611609828
 31
0.0
  0
LINE
  5
1EE8F
330
1EA20
100
AcDbEntity
  8
YODOROGO
100
AcDbLine
 10
10515.34245150633
 20
631.4060611609825
 30
0.0
 11
10506.60162798447
 21
631.4060611609825
 31
0.0
  0
LINE
  5
1EE90
330
1EA20
100
AcDbEntity
  8
YODOROGO
100
AcDbLine
 10
10500.60162798446
 20
631.4060611609825
 30
0.0
 11
10491.60162798447
 21
631.4060611609825
 31
0.0
  0
LINE
  5
1EE91
330
1EA20
100
AcDbEntity
  8
YODOROGO
100
AcDbLine
 10
10530.80082008658
 20
640.4060611609828
 30
0.0
 11
10536.8008200866
 21
640.4060611609828
 31
0.0
1001
AUTOCAD_POSTSCRIPT_FIGURE
1002
{
1000
PSFILL
1000
Grayscale
1000
Grayscale
1070
   100
1002
}
  0
LINE
  5
1EE92
330
1EA20
100
AcDbEntity
  8
YODOROGO
100
AcDbLine
 10
10650.60162798447
 20
684.3291096151149
 30
0.0
 11
10650.60162798447
 21
657.3291096151146
 31
0.0
1001
AUTOCAD_POSTSCRIPT_FIGURE
1002
{
1000
PSFILL
1000
Grayscale
1000
Grayscale
1070
   100
1002
}
  0
LINE
  5
1EE93
330
1EA20
100
AcDbEntity
  8
YODOROGO
100
AcDbLine
 10
10650.60162798447
 20
718.829109615115
 30
0.0
 11
10650.60162798447
 21
744.329109615115
 31
0.0
1001
AUTOCAD_POSTSCRIPT_FIGURE
1002
{
1000
PSFILL
1000
Grayscale
1000
Grayscale
1070
   100
1002
}
  0
LINE
  5
1EE94
330
1EA20
100
AcDbEntity
  8
YODOROGO
100
AcDbLine
 10
10662.60162798446
 20
682.4060611609829
 30
0.0
 11
10662.60162798446
 21
655.4060611609838
 31
0.0
  0
LINE
  5
1EE95
330
1EA20
100
AcDbEntity
  8
YODOROGO
100
AcDbLine
 10
10686.60162798446
 20
640.4060611609828
 30
0.0
 11
10662.60162798446
 21
640.4060611609828
 31
0.0
  0
LINE
  5
1EE96
330
1EA20
100
AcDbEntity
  8
YODOROGO
100
AcDbLine
 10
10662.60162798446
 20
655.4060611609838
 30
0.0
 11
10719.60162798446
 21
655.4060611609838
 31
0.0
  0
LINE
  5
1EE97
330
1EA20
100
AcDbEntity
  8
YODOROGO
100
AcDbLine
 10
10686.60162798446
 20
700.406061160983
 30
0.0
 11
10662.60162798446
 21
700.406061160983
 31
0.0
  0
LINE
  5
1EE98
330
1EA20
100
AcDbEntity
  8
YODOROGO
100
AcDbLine
 10
10686.60162798446
 20
721.4060611609824
 30
0.0
 11
10686.60162798446
 21
700.406061160983
 31
0.0
  0
LINE
  5
1EE99
330
1EA20
100
AcDbEntity
  8
YODOROGO
100
AcDbLine
 10
10719.60162798446
 20
745.4060611609828
 30
0.0
 11
10719.60162798446
 21
760.4060611609829
 31
0.0
  0
LINE
  5
1EE9A
330
1EA20
100
AcDbEntity
  8
YODOROGO
100
AcDbLine
 10
10662.60162798446
 20
745.4060611609828
 30
0.0
 11
10719.60162798446
 21
745.4060611609828
 31
0.0
  0
LINE
  5
1EE9B
330
1EA20
100
AcDbEntity
  8
YODOROGO
100
AcDbLine
 10
10662.60162798446
 20
700.406061160983
 30
0.0
 11
10662.60162798446
 21
745.4060611609828
 31
0.0
  0
LINE
  5
1EE9C
330
1EA20
100
AcDbEntity
  8
YODOROGO
100
AcDbLine
 10
10875.60162798447
 20
760.4060611609829
 30
0.0
 11
10875.60162798447
 21
607.4060611609829
 31
0.0
  0
LINE
  5
1EE9D
330
1EA20
100
AcDbEntity
  8
YODOROGO
100
AcDbLine
 10
10902.60162798446
 20
592.4060611609831
 30
0.0
 11
10902.60162798446
 21
760.4060611609829
 31
0.0
  0
LINE
  5
1EE9E
330
1EA20
100
AcDbEntity
  8
YODOROGO
100
AcDbLine
 10
10973.10162798446
 20
559.4060611609823
 30
0.0
 11
10973.10162798446
 21
752.9060611609828
 31
0.0
  0
LINE
  5
1EE9F
330
1EA20
100
AcDbEntity
  8
YODOROGO
100
AcDbLine
 10
10949.10162798447
 20
752.9060611609828
 30
0.0
 11
10949.10162798447
 21
559.4060611609823
 31
0.0
  0
LINE
  5
1EEA0
330
1EA20
100
AcDbEntity
  8
YODOROGO
100
AcDbLine
 10
11019.60162798446
 20
760.4060611609829
 30
0.0
 11
11019.60162798446
 21
535.4060611609829
 31
0.0
  0
LINE
  5
1EEA1
330
1EA20
100
AcDbEntity
  8
YODOROGO
100
AcDbLine
 10
11046.60162798447
 20
535.4060611609829
 30
0.0
 11
11046.60162798447
 21
760.4060611609829
 31
0.0
  0
LINE
  5
1EEA2
330
1EA20
100
AcDbEntity
  8
YODOROGO
100
AcDbLine
 10
10746.60162798446
 20
625.406061160983
 30
0.0
 11
10746.60162798446
 21
655.4060611609838
 31
0.0
  0
LINE
  5
1EEA3
330
1EA20
100
AcDbEntity
  8
YODOROGO
100
AcDbLine
 10
11207.10162798447
 20
640.4060611609828
 30
0.0
 11
11207.10162798447
 21
625.406061160983
 31
0.0
  0
LINE
  5
1EEA4
330
1EA20
100
AcDbEntity
  8
YODOROGO
100
AcDbLine
 10
11207.10162798447
 20
640.4060611609828
 30
0.0
 11
11207.10162798447
 21
625.406061160983
 31
0.0
  0
ARC
  5
1EEA5
330
1EA20
100
AcDbEntity
  8
YODOROGO
100
AcDbCircle
 10
10840.09184107006
 20
606.8316991658524
 30
0.0
 40
35.51443169202812
100
AcDbArc
 50
274.052441629071
 51
0.9266642149310715
  0
ARC
  5
1EEA6
330
1EA20
100
AcDbEntity
  8
YODOROGO
100
AcDbCircle
 10
10840.94481401992
 20
597.229023228915
 30
0.0
 40
61.84515883532068
100
AcDbArc
 50
271.5351210653777
 51
355.5272775058505
  0
LINE
  5
1EEA7
330
1EA20
100
AcDbEntity
  8
YODOROGO
100
AcDbLine
 10
10842.60162798446
 20
571.4060611609824
 30
0.0
 11
10842.60162798446
 21
535.4060611609829
 31
0.0
  0
LINE
  5
1EEA8
330
1EA20
100
AcDbEntity
  8
YODOROGO
100
AcDbLine
 10
10797.60162798446
 20
625.406061160983
 30
0.0
 11
10746.60162798446
 21
625.406061160983
 31
0.0
  0
LINE
  5
1EEA9
330
1EA20
100
AcDbEntity
  8
YODOROGO
100
AcDbLine
 10
10797.60162798446
 20
601.4060611609833
 30
0.0
 11
10797.60162798446
 21
625.406061160983
 31
0.0
  0
LINE
  5
1EEAA
330
1EA20
100
AcDbEntity
  8
YODOROGO
100
AcDbLine
 10
10746.60162798446
 20
601.4060611609833
 30
0.0
 11
10797.60162798446
 21
601.4060611609833
 31
0.0
  0
LINE
  5
1EEAB
330
1EA20
100
AcDbEntity
  8
YODOROGO
100
AcDbLine
 10
10746.60162798446
 20
571.4060611609824
 30
0.0
 11
10746.60162798446
 21
601.4060611609833
 31
0.0
  0
LINE
  5
1EEAC
330
1EA20
100
AcDbEntity
  8
YODOROGO
100
AcDbLine
 10
10797.60162798446
 20
571.4060611609824
 30
0.0
 11
10746.60162798446
 21
571.4060611609824
 31
0.0
  0
LINE
  5
1EEAD
330
1EA20
100
AcDbEntity
  8
YODOROGO
100
AcDbLine
 10
10797.60162798446
 20
535.4060611609829
 30
0.0
 11
10797.60162798446
 21
571.4060611609824
 31
0.0
  0
LINE
  5
1EEAE
330
1EA20
100
AcDbEntity
  8
YODOROGO
100
AcDbLine
 10
10949.10162798447
 20
559.4060611609823
 30
0.0
 11
10973.10162798446
 21
559.4060611609823
 31
0.0
  0
LINE
  5
1EEAF
330
1EA20
100
AcDbEntity
  8
YODOROGO
100
AcDbLine
 10
11019.60162798446
 20
535.4060611609829
 30
0.0
 11
11046.60162798447
 21
535.4060611609829
 31
0.0
  0
LINE
  5
1EEB0
330
1EA20
100
AcDbEntity
  8
YODOROGO
100
AcDbLine
 10
11151.60162798447
 20
573.1655445639615
 30
0.0
 11
11151.60162798447
 21
535.4060611609829
 31
0.0
  0
LINE
  5
1EEB1
330
1EA20
100
AcDbEntity
  8
YODOROGO
100
AcDbLine
 10
11106.60162798446
 20
535.4060611609829
 30
0.0
 11
11151.60162798447
 21
573.1655445639615
 31
0.0
  0
LINE
  5
1EEB2
330
1EA20
100
AcDbEntity
  8
YODOROGO
100
AcDbLine
 10
11106.60162798446
 20
580.406061160983
 30
0.0
 11
11106.60162798446
 21
535.4060611609829
 31
0.0
  0
LINE
  5
1EEB3
330
1EA20
100
AcDbEntity
  8
YODOROGO
100
AcDbLine
 10
11142.35423576229
 20
610.4060611609829
 30
0.0
 11
11106.60162798446
 21
580.406061160983
 31
0.0
  0
LINE
  5
1EEB4
330
1EA20
100
AcDbEntity
  8
YODOROGO
100
AcDbLine
 10
11106.60162798446
 20
610.4060611609829
 30
0.0
 11
11142.35423576229
 21
610.4060611609829
 31
0.0
  0
LINE
  5
1EEB5
330
1EA20
100
AcDbEntity
  8
YODOROGO
100
AcDbLine
 10
11106.60162798446
 20
625.406061160983
 30
0.0
 11
11106.60162798446
 21
610.4060611609829
 31
0.0
  0
LINE
  5
1EEB6
330
1EA20
100
AcDbEntity
  8
YODOROGO
100
AcDbLine
 10
11207.10162798447
 20
625.406061160983
 30
0.0
 11
11106.60162798446
 21
625.406061160983
 31
0.0
  0
LINE
  5
1EEB7
330
1EA20
100
AcDbEntity
  8
YODOROGO
100
AcDbLine
 10
11219.10162798447
 20
610.4060611609829
 30
0.0
 11
11166.60162798446
 21
610.4060611609829
 31
0.0
  0
LINE
  5
1EEB8
330
1EA20
100
AcDbEntity
  8
YODOROGO
100
AcDbLine
 10
11166.60162798446
 20
585.7520390316213
 30
0.0
 11
11164.27870236948
 21
583.8028730048376
 31
0.0
  0
LINE
  5
1EEB9
330
1EA20
100
AcDbEntity
  8
YODOROGO
100
AcDbLine
 10
11166.60162798446
 20
610.4060611609829
 30
0.0
 11
11166.60162798446
 21
585.7520390316213
 31
0.0
  0
LINE
  5
1EEBA
330
1EA20
100
AcDbEntity
  8
YODOROGO
100
AcDbLine
 10
11151.60162798447
 20
573.1655445639615
 30
0.0
 11
11151.60162798447
 21
535.4060611609829
 31
0.0
  0
LINE
  5
1EEBB
330
1EA20
100
AcDbEntity
  8
YODOROGO
100
AcDbLine
 10
11106.60162798446
 20
535.4060611609829
 30
0.0
 11
11151.60162798447
 21
573.1655445639615
 31
0.0
  0
LINE
  5
1EEBC
330
1EA20
100
AcDbEntity
  8
YODOROGO
100
AcDbLine
 10
11106.60162798446
 20
580.406061160983
 30
0.0
 11
11106.60162798446
 21
535.4060611609829
 31
0.0
  0
LINE
  5
1EEBD
330
1EA20
100
AcDbEntity
  8
YODOROGO
100
AcDbLine
 10
11142.35423576229
 20
610.4060611609829
 30
0.0
 11
11106.60162798446
 21
580.406061160983
 31
0.0
  0
LINE
  5
1EEBE
330
1EA20
100
AcDbEntity
  8
YODOROGO
100
AcDbLine
 10
11106.60162798446
 20
610.4060611609829
 30
0.0
 11
11142.35423576229
 21
610.4060611609829
 31
0.0
  0
LINE
  5
1EEBF
330
1EA20
100
AcDbEntity
  8
YODOROGO
100
AcDbLine
 10
11106.60162798446
 20
625.406061160983
 30
0.0
 11
11106.60162798446
 21
610.4060611609829
 31
0.0
  0
LINE
  5
1EEC0
330
1EA20
100
AcDbEntity
  8
YODOROGO
100
AcDbLine
 10
11207.10162798447
 20
625.406061160983
 30
0.0
 11
11106.60162798446
 21
625.406061160983
 31
0.0
  0
LINE
  5
1EEC1
330
1EA20
100
AcDbEntity
  8
YODOROGO
100
AcDbLine
 10
10797.60162798446
 20
655.4060611609838
 30
0.0
 11
10797.60162798446
 21
682.4060611609829
 31
0.0
  0
LINE
  5
1EEC2
330
1EA20
100
AcDbEntity
  8
YODOROGO
100
AcDbLine
 10
10746.60162798446
 20
655.4060611609838
 30
0.0
 11
10797.60162798446
 21
655.4060611609838
 31
0.0
  0
LINE
  5
1EEC3
330
1EA20
100
AcDbEntity
  8
YODOROGO
100
AcDbLine
 10
10773.60162798447
 20
700.406061160983
 30
0.0
 11
10773.60162798447
 21
721.4060611609824
 31
0.0
  0
LINE
  5
1EEC4
330
1EA20
100
AcDbEntity
  8
YODOROGO
100
AcDbLine
 10
10797.60162798446
 20
700.406061160983
 30
0.0
 11
10773.60162798447
 21
700.406061160983
 31
0.0
  0
LINE
  5
1EEC5
330
1EA20
100
AcDbEntity
  8
YODOROGO
100
AcDbLine
 10
10797.60162798446
 20
730.4060611609828
 30
0.0
 11
10797.60162798446
 21
700.406061160983
 31
0.0
  0
ARC
  5
1EEC6
330
1EA20
100
AcDbEntity
  8
YODOROGO
100
AcDbCircle
 10
10782.60162798446
 20
730.4060611609828
 30
0.0
 40
15.0
100
AcDbArc
 50
0.0
 51
90.0
  0
LINE
  5
1EEC7
330
1EA20
100
AcDbEntity
  8
YODOROGO
100
AcDbLine
 10
10746.60162798447
 20
745.4060611609828
 30
0.0
 11
10782.60162798446
 21
745.4060611609828
 31
0.0
  0
LINE
  5
1EEC8
330
1EA20
100
AcDbEntity
  8
YODOROGO
100
AcDbLine
 10
10746.60162798447
 20
760.4060611609829
 30
0.0
 11
10746.60162798447
 21
745.4060611609828
 31
0.0
  0
LINE
  5
1EEC9
330
1EA20
100
AcDbEntity
  8
YODOROGO
100
AcDbLine
 10
10902.60162798446
 20
760.4060611609829
 30
0.0
 11
10875.60162798447
 21
760.4060611609829
 31
0.0
  0
LINE
  5
1EECA
330
1EA20
100
AcDbEntity
  8
YODOROGO
100
AcDbLine
 10
10973.10162798446
 20
752.9060611609828
 30
0.0
 11
10949.10162798447
 21
752.9060611609828
 31
0.0
  0
LINE
  5
1EECB
330
1EA20
100
AcDbEntity
  8
YODOROGO
100
AcDbLine
 10
11046.60162798447
 20
760.4060611609829
 30
0.0
 11
11019.60162798446
 21
760.4060611609829
 31
0.0
  0
LINE
  5
1EECC
330
1EA20
100
AcDbEntity
  8
YODOROGO
100
AcDbLine
 10
11127.60162798447
 20
640.4060611609828
 30
0.0
 11
11127.60162798447
 21
664.4060611609833
 31
0.0
1001
AUTOCAD_POSTSCRIPT_FIGURE
1002
{
1000
PSFILL
1000
Grayscale
1000
Grayscale
1070
    25
1002
}
  0
LINE
  5
1EECD
330
1EA20
100
AcDbEntity
  8
YODOROGO
100
AcDbLine
 10
11106.60162798446
 20
640.4060611609828
 30
0.0
 11
11127.60162798447
 21
640.4060611609828
 31
0.0
1001
AUTOCAD_POSTSCRIPT_FIGURE
1002
{
1000
PSFILL
1000
Grayscale
1000
Grayscale
1070
    25
1002
}
  0
LINE
  5
1EECE
330
1EA20
100
AcDbEntity
  8
YODOROGO
100
AcDbLine
 10
11106.60162798446
 20
682.4060611609829
 30
0.0
 11
11106.60162798446
 21
640.4060611609828
 31
0.0
1001
AUTOCAD_POSTSCRIPT_FIGURE
1002
{
1000
PSFILL
1000
Grayscale
1000
Grayscale
1070
    25
1002
}
  0
LINE
  5
1EECF
330
1EA20
100
AcDbEntity
  8
YODOROGO
100
AcDbLine
 10
11162.10162798447
 20
682.4060611609829
 30
0.0
 11
11106.60162798446
 21
682.4060611609829
 31
0.0
1001
AUTOCAD_POSTSCRIPT_FIGURE
1002
{
1000
PSFILL
1000
Grayscale
1000
Grayscale
1070
    25
1002
}
  0
LINE
  5
1EED0
330
1EA20
100
AcDbEntity
  8
YODOROGO
100
AcDbLine
 10
11162.10162798447
 20
697.406061160983
 30
0.0
 11
11162.10162798447
 21
682.4060611609829
 31
0.0
1001
AUTOCAD_POSTSCRIPT_FIGURE
1002
{
1000
PSFILL
1000
Grayscale
1000
Grayscale
1070
    25
1002
}
  0
LINE
  5
1EED1
330
1EA20
100
AcDbEntity
  8
YODOROGO
100
AcDbLine
 10
11106.60162798446
 20
697.406061160983
 30
0.0
 11
11162.10162798447
 21
697.406061160983
 31
0.0
1001
AUTOCAD_POSTSCRIPT_FIGURE
1002
{
1000
PSFILL
1000
Grayscale
1000
Grayscale
1070
    25
1002
}
  0
LINE
  5
1EED2
330
1EA20
100
AcDbEntity
  8
YODOROGO
100
AcDbLine
 10
11106.60162798446
 20
715.4060611609828
 30
0.0
 11
11106.60162798446
 21
697.406061160983
 31
0.0
1001
AUTOCAD_POSTSCRIPT_FIGURE
1002
{
1000
PSFILL
1000
Grayscale
1000
Grayscale
1070
    25
1002
}
  0
LINE
  5
1EED3
330
1EA20
100
AcDbEntity
  8
YODOROGO
100
AcDbLine
 10
11162.10162798447
 20
715.4060611609828
 30
0.0
 11
11106.60162798446
 21
715.4060611609828
 31
0.0
1001
AUTOCAD_POSTSCRIPT_FIGURE
1002
{
1000
PSFILL
1000
Grayscale
1000
Grayscale
1070
    25
1002
}
  0
LINE
  5
1EED4
330
1EA20
100
AcDbEntity
  8
YODOROGO
100
AcDbLine
 10
11162.10162798447
 20
730.4060611609828
 30
0.0
 11
11162.10162798447
 21
715.4060611609828
 31
0.0
1001
AUTOCAD_POSTSCRIPT_FIGURE
1002
{
1000
PSFILL
1000
Grayscale
1000
Grayscale
1070
    25
1002
}
  0
LINE
  5
1EED5
330
1EA20
100
AcDbEntity
  8
YODOROGO
100
AcDbLine
 10
11106.60162798446
 20
730.4060611609828
 30
0.0
 11
11162.10162798447
 21
730.4060611609828
 31
0.0
1001
AUTOCAD_POSTSCRIPT_FIGURE
1002
{
1000
PSFILL
1000
Grayscale
1000
Grayscale
1070
    25
1002
}
  0
LINE
  5
1EED6
330
1EA20
100
AcDbEntity
  8
YODOROGO
100
AcDbLine
 10
11106.60162798446
 20
760.4060611609829
 30
0.0
 11
11106.60162798446
 21
730.4060611609828
 31
0.0
1001
AUTOCAD_POSTSCRIPT_FIGURE
1002
{
1000
PSFILL
1000
Grayscale
1000
Grayscale
1070
    25
1002
}
  0
LINE
  5
1EED7
330
1EA20
100
AcDbEntity
  8
YODOROGO
100
AcDbLine
 10
11124.60162798446
 20
760.4060611609829
 30
0.0
 11
11106.60162798446
 21
760.4060611609829
 31
0.0
1001
AUTOCAD_POSTSCRIPT_FIGURE
1002
{
1000
PSFILL
1000
Grayscale
1000
Grayscale
1070
    25
1002
}
  0
LINE
  5
1EED8
330
1EA20
100
AcDbEntity
  8
YODOROGO
100
AcDbLine
 10
11124.60162798446
 20
748.4060611609828
 30
0.0
 11
11124.60162798446
 21
760.4060611609829
 31
0.0
1001
AUTOCAD_POSTSCRIPT_FIGURE
1002
{
1000
PSFILL
1000
Grayscale
1000
Grayscale
1070
    25
1002
}
  0
LINE
  5
1EED9
330
1EA20
100
AcDbEntity
  8
YODOROGO
100
AcDbLine
 10
11162.10162798447
 20
748.4060611609828
 30
0.0
 11
11124.60162798446
 21
748.4060611609828
 31
0.0
1001
AUTOCAD_POSTSCRIPT_FIGURE
1002
{
1000
PSFILL
1000
Grayscale
1000
Grayscale
1070
    25
1002
}
  0
LINE
  5
1EEDA
330
1EA20
100
AcDbEntity
  8
YODOROGO
100
AcDbLine
 10
11162.10162798447
 20
760.4060611609829
 30
0.0
 11
11162.10162798447
 21
748.4060611609828
 31
0.0
1001
AUTOCAD_POSTSCRIPT_FIGURE
1002
{
1000
PSFILL
1000
Grayscale
1000
Grayscale
1070
    25
1002
}
  0
LINE
  5
1EEDB
330
1EA20
100
AcDbEntity
  8
YODOROGO
100
AcDbLine
 10
11186.10162798447
 20
760.4060611609829
 30
0.0
 11
11162.10162798447
 21
760.4060611609829
 31
0.0
1001
AUTOCAD_POSTSCRIPT_FIGURE
1002
{
1000
PSFILL
1000
Grayscale
1000
Grayscale
1070
    25
1002
}
  0
LINE
  5
1EEDC
330
1EA20
100
AcDbEntity
  8
YODOROGO
100
AcDbLine
 10
11186.10162798447
 20
748.4060611609828
 30
0.0
 11
11186.10162798447
 21
760.4060611609829
 31
0.0
1001
AUTOCAD_POSTSCRIPT_FIGURE
1002
{
1000
PSFILL
1000
Grayscale
1000
Grayscale
1070
    25
1002
}
  0
LINE
  5
1EEDD
330
1EA20
100
AcDbEntity
  8
YODOROGO
100
AcDbLine
 10
11186.10162798447
 20
715.4060611609828
 30
0.0
 11
11186.10162798447
 21
730.4060611609828
 31
0.0
1001
AUTOCAD_POSTSCRIPT_FIGURE
1002
{
1000
PSFILL
1000
Grayscale
1000
Grayscale
1070
    25
1002
}
  0
LINE
  5
1EEDE
330
1EA20
100
AcDbEntity
  8
YODOROGO
100
AcDbLine
 10
11186.10162798447
 20
682.4060611609829
 30
0.0
 11
11186.10162798447
 21
697.406061160983
 31
0.0
1001
AUTOCAD_POSTSCRIPT_FIGURE
1002
{
1000
PSFILL
1000
Grayscale
1000
Grayscale
1070
    25
1002
}
  0
LINE
  5
1EEDF
330
1EA20
100
AcDbEntity
  8
YODOROGO
100
AcDbLine
 10
11220.60162798447
 20
664.4060611609833
 30
0.0
 11
11220.60162798447
 21
640.4060611609828
 31
0.0
1001
AUTOCAD_POSTSCRIPT_FIGURE
1002
{
1000
PSFILL
1000
Grayscale
1000
Grayscale
1070
    25
1002
}
  0
LINE
  5
1EEE0
330
1EA20
100
AcDbEntity
  8
YODOROGO
100
AcDbLine
 10
11186.10162798447
 20
664.4060611609833
 30
0.0
 11
11220.60162798447
 21
664.4060611609833
 31
0.0
1001
AUTOCAD_POSTSCRIPT_FIGURE
1002
{
1000
PSFILL
1000
Grayscale
1000
Grayscale
1070
    25
1002
}
  0
LINE
  5
1EEE1
330
1EA20
100
AcDbEntity
  8
YODOROGO
100
AcDbLine
 10
11186.10162798447
 20
640.4060611609828
 30
0.0
 11
11186.10162798447
 21
664.4060611609833
 31
0.0
1001
AUTOCAD_POSTSCRIPT_FIGURE
1002
{
1000
PSFILL
1000
Grayscale
1000
Grayscale
1070
    25
1002
}
  0
LINE
  5
1EEE2
330
1EA20
100
AcDbEntity
  8
YODOROGO
100
AcDbLine
 10
11162.10162798447
 20
640.4060611609828
 30
0.0
 11
11186.10162798447
 21
640.4060611609828
 31
0.0
1001
AUTOCAD_POSTSCRIPT_FIGURE
1002
{
1000
PSFILL
1000
Grayscale
1000
Grayscale
1070
    25
1002
}
  0
LINE
  5
1EEE3
330
1EA20
100
AcDbEntity
  8
YODOROGO
100
AcDbLine
 10
11162.10162798447
 20
664.4060611609833
 30
0.0
 11
11162.10162798447
 21
640.4060611609828
 31
0.0
1001
AUTOCAD_POSTSCRIPT_FIGURE
1002
{
1000
PSFILL
1000
Grayscale
1000
Grayscale
1070
    25
1002
}
  0
LINE
  5
1EEE4
330
1EA20
100
AcDbEntity
  8
YODOROGO
100
AcDbLine
 10
11127.60162798447
 20
664.4060611609833
 30
0.0
 11
11162.10162798447
 21
664.4060611609833
 31
0.0
1001
AUTOCAD_POSTSCRIPT_FIGURE
1002
{
1000
PSFILL
1000
Grayscale
1000
Grayscale
1070
    25
1002
}
  0
ARC
  5
1EEE5
330
1EA20
100
AcDbEntity
  8
YODOROGO
100
AcDbCircle
 10
11647.31921000922
 20
601.0052765683409
 30
0.0
 40
66.83298041652057
100
AcDbArc
 50
281.0262749542535
 51
357.771135755738
  0
LINE
  5
1EEE6
330
1EA20
100
AcDbEntity
  8
YODOROGO
100
AcDbLine
 10
11780.10162798446
 20
715.4060611609828
 30
0.0
 11
11687.10162798447
 21
715.4060611609828
 31
0.0
  0
LINE
  5
1EEE7
330
1EA20
100
AcDbEntity
  8
YODOROGO
100
AcDbLine
 10
11780.10162798446
 20
760.4060611609829
 30
0.0
 11
11687.10162798447
 21
760.4060611609829
 31
0.0
  0
LINE
  5
1EEE8
330
1EA20
100
AcDbEntity
  8
YODOROGO
100
AcDbLine
 10
11687.10162798447
 20
736.4060611609825
 30
0.0
 11
11780.10162798446
 21
736.4060611609825
 31
0.0
  0
LINE
  5
1EEE9
330
1EA20
100
AcDbEntity
  8
YODOROGO
100
AcDbLine
 10
11546.85162798447
 20
586.4060611609825
 30
0.0
 11
11546.85162798447
 21
658.4060611609827
 31
0.0
  0
LINE
  5
1EEEA
330
1EA20
100
AcDbEntity
  8
YODOROGO
100
AcDbLine
 10
11536.35162798447
 20
634.4060611609833
 30
0.0
 11
11536.35162798447
 21
586.4060611609825
 31
0.0
  0
LINE
  5
1EEEB
330
1EA20
100
AcDbEntity
  8
YODOROGO
100
AcDbLine
 10
11521.35162798447
 20
559.4060611609831
 30
0.0
 11
11521.35162798447
 21
634.4060611609833
 31
0.0
  0
LINE
  5
1EEEC
330
1EA20
100
AcDbEntity
  8
YODOROGO
100
AcDbLine
 10
11587.35162798447
 20
634.4060611609833
 30
0.0
 11
11587.35162798447
 21
559.4060611609831
 31
0.0
  0
LINE
  5
1EEED
330
1EA20
100
AcDbEntity
  8
YODOROGO
100
AcDbLine
 10
11572.35162798446
 20
586.4060611609825
 30
0.0
 11
11572.35162798446
 21
634.4060611609833
 31
0.0
  0
LINE
  5
1EEEE
330
1EA20
100
AcDbEntity
  8
YODOROGO
100
AcDbLine
 10
11561.85162798446
 20
658.4060611609827
 30
0.0
 11
11561.85162798446
 21
586.4060611609825
 31
0.0
  0
LINE
  5
1EEEF
330
1EA20
100
AcDbEntity
  8
YODOROGO
100
AcDbLine
 10
11615.10162798446
 20
760.4060611609829
 30
0.0
 11
11615.10162798446
 21
550.4060611609828
 31
0.0
  0
LINE
  5
1EEF0
330
1EA20
100
AcDbEntity
  8
YODOROGO
100
AcDbLine
 10
11492.10162798447
 20
535.4060611609829
 30
0.0
 11
11492.10162798447
 21
760.4060611609829
 31
0.0
  0
LINE
  5
1EEF1
330
1EA20
100
AcDbEntity
  8
YODOROGO
100
AcDbLine
 10
11511.60162798447
 20
736.4060611609825
 30
0.0
 11
11511.60162798447
 21
535.4060611609829
 31
0.0
  0
LINE
  5
1EEF2
330
1EA20
100
AcDbEntity
  8
YODOROGO
100
AcDbLine
 10
11597.10162798446
 20
580.406061160983
 30
0.0
 11
11597.10162798446
 21
736.4060611609825
 31
0.0
  0
LINE
  5
1EEF3
330
1EA20
100
AcDbEntity
  8
YODOROGO
100
AcDbLine
 10
11393.10162798446
 20
610.4060611609829
 30
0.0
 11
11393.10162798446
 21
629.9060611609831
 31
0.0
  0
LINE
  5
1EEF4
330
1EA20
100
AcDbEntity
  8
YODOROGO
100
AcDbLine
 10
11481.60162798447
 20
629.9060611609831
 30
0.0
 11
11481.60162798447
 21
610.4060611609829
 31
0.0
  0
LINE
  5
1EEF5
330
1EA20
100
AcDbEntity
  8
YODOROGO
100
AcDbLine
 10
11687.10162798447
 20
715.4060611609828
 30
0.0
 11
11687.10162798447
 21
613.4060611609827
 31
0.0
  0
LINE
  5
1EEF6
330
1EA20
100
AcDbEntity
  8
YODOROGO
100
AcDbLine
 10
11231.10162798446
 20
625.406061160983
 30
0.0
 11
11231.10162798446
 21
640.4060611609828
 31
0.0
  0
LINE
  5
1EEF7
330
1EA20
100
AcDbEntity
  8
YODOROGO
100
AcDbLine
 10
11231.10162798446
 20
625.406061160983
 30
0.0
 11
11231.10162798446
 21
640.4060611609828
 31
0.0
  0
ARC
  5
1EEF8
330
1EA20
100
AcDbEntity
  8
YODOROGO
100
AcDbCircle
 10
11451.60162798447
 20
565.4060611609828
 30
0.0
 40
30.0
100
AcDbArc
 50
270.0
 51
0.0
  0
LINE
  5
1EEF9
330
1EA20
100
AcDbEntity
  8
YODOROGO
100
AcDbLine
 10
11463.60162798446
 20
599.9060611609831
 30
0.0
 11
11481.60162798447
 21
599.9060611609831
 31
0.0
  0
LINE
  5
1EEFA
330
1EA20
100
AcDbEntity
  8
YODOROGO
100
AcDbLine
 10
11481.60162798447
 20
610.4060611609829
 30
0.0
 11
11448.60162798446
 21
610.4060611609829
 31
0.0
  0
LINE
  5
1EEFB
330
1EA20
100
AcDbEntity
  8
YODOROGO
100
AcDbLine
 10
11331.60162798447
 20
625.406061160983
 30
0.0
 11
11231.10162798446
 21
625.406061160983
 31
0.0
  0
LINE
  5
1EEFC
330
1EA20
100
AcDbEntity
  8
YODOROGO
100
AcDbLine
 10
11331.60162798447
 20
610.4060611609829
 30
0.0
 11
11331.60162798447
 21
625.406061160983
 31
0.0
  0
LINE
  5
1EEFD
330
1EA20
100
AcDbEntity
  8
YODOROGO
100
AcDbLine
 10
11256.60162798447
 20
610.4060611609829
 30
0.0
 11
11331.60162798447
 21
610.4060611609829
 31
0.0
  0
ARC
  5
1EEFE
330
1EA20
100
AcDbEntity
  8
YODOROGO
100
AcDbCircle
 10
11336.27206076301
 20
700.8321431073384
 30
0.0
 40
120.5166136069605
100
AcDbArc
 50
228.6181454618993
 51
245.660289248906
  0
LINE
  5
1EEFF
330
1EA20
100
AcDbEntity
  8
YODOROGO
100
AcDbLine
 10
11289.60162798447
 20
601.4060611609833
 30
0.0
 11
11286.60162798448
 21
591.0273059512126
 31
0.0
  0
LINE
  5
1EF00
330
1EA20
100
AcDbEntity
  8
YODOROGO
100
AcDbLine
 10
11321.10162798447
 20
601.4060611609833
 30
0.0
 11
11289.60162798447
 21
601.4060611609833
 31
0.0
  0
LINE
  5
1EF01
330
1EA20
100
AcDbEntity
  8
YODOROGO
100
AcDbLine
 10
11316.60162798447
 20
581.9316459275352
 30
0.0
 11
11321.10162798447
 21
601.4060611609833
 31
0.0
  0
ARC
  5
1EF02
330
1EA20
100
AcDbEntity
  8
YODOROGO
100
AcDbCircle
 10
11336.27206076267
 20
700.832143107376
 30
0.0
 40
120.516613606984
100
AcDbArc
 50
260.6062929796992
 51
267.7790355655586
  0
LINE
  5
1EF03
330
1EA20
100
AcDbEntity
  8
YODOROGO
100
AcDbLine
 10
11331.60162798447
 20
535.4060611609821
 30
0.0
 11
11331.60162798447
 21
580.406061160983
 31
0.0
  0
LINE
  5
1EF04
330
1EA20
100
AcDbEntity
  8
YODOROGO
100
AcDbLine
 10
11226.60162798446
 20
555.5022505933164
 30
0.0
 11
11226.60162798446
 21
597.949158949178
 31
0.0
  0
LINE
  5
1EF05
330
1EA20
100
AcDbEntity
  8
YODOROGO
100
AcDbLine
 10
11331.60162798447
 20
625.406061160983
 30
0.0
 11
11231.10162798446
 21
625.406061160983
 31
0.0
  0
LINE
  5
1EF06
330
1EA20
100
AcDbEntity
  8
YODOROGO
100
AcDbLine
 10
11331.60162798447
 20
610.4060611609829
 30
0.0
 11
11331.60162798447
 21
625.406061160983
 31
0.0
  0
LINE
  5
1EF07
330
1EA20
100
AcDbEntity
  8
YODOROGO
100
AcDbLine
 10
11256.60162798447
 20
610.4060611609829
 30
0.0
 11
11331.60162798447
 21
610.4060611609829
 31
0.0
  0
ARC
  5
1EF08
330
1EA20
100
AcDbEntity
  8
YODOROGO
100
AcDbCircle
 10
11336.27206076301
 20
700.8321431073384
 30
0.0
 40
120.5166136069605
100
AcDbArc
 50
228.6181454618993
 51
245.660289248906
  0
LINE
  5
1EF09
330
1EA20
100
AcDbEntity
  8
YODOROGO
100
AcDbLine
 10
11289.60162798447
 20
601.4060611609833
 30
0.0
 11
11286.60162798448
 21
591.0273059512126
 31
0.0
  0
LINE
  5
1EF0A
330
1EA20
100
AcDbEntity
  8
YODOROGO
100
AcDbLine
 10
11321.10162798447
 20
601.4060611609833
 30
0.0
 11
11289.60162798447
 21
601.4060611609833
 31
0.0
  0
LINE
  5
1EF0B
330
1EA20
100
AcDbEntity
  8
YODOROGO
100
AcDbLine
 10
11316.60162798447
 20
581.9316459275352
 30
0.0
 11
11321.10162798447
 21
601.4060611609833
 31
0.0
  0
ARC
  5
1EF0C
330
1EA20
100
AcDbEntity
  8
YODOROGO
100
AcDbCircle
 10
11336.27206076267
 20
700.832143107376
 30
0.0
 40
120.516613606984
100
AcDbArc
 50
260.6062929796992
 51
267.7790355655586
  0
LINE
  5
1EF0D
330
1EA20
100
AcDbEntity
  8
YODOROGO
100
AcDbLine
 10
11331.60162798447
 20
535.4060611609821
 30
0.0
 11
11331.60162798447
 21
580.406061160983
 31
0.0
  0
LINE
  5
1EF0E
330
1EA20
100
AcDbEntity
  8
YODOROGO
100
AcDbLine
 10
11226.60162798446
 20
555.5022505933164
 30
0.0
 11
11226.60162798446
 21
597.949158949178
 31
0.0
  0
LINE
  5
1EF0F
330
1EA20
100
AcDbEntity
  8
YODOROGO
100
AcDbLine
 10
11412.60162798447
 20
590.1560611609832
 30
0.0
 11
11393.10162798446
 21
590.1560611609832
 31
0.0
  0
LINE
  5
1EF10
330
1EA20
100
AcDbEntity
  8
YODOROGO
100
AcDbLine
 10
11412.60162798447
 20
600.6560611609824
 30
0.0
 11
11412.60162798447
 21
590.1560611609832
 31
0.0
  0
LINE
  5
1EF11
330
1EA20
100
AcDbEntity
  8
YODOROGO
100
AcDbLine
 10
11393.10162798446
 20
600.6560611609824
 30
0.0
 11
11412.60162798447
 21
600.6560611609824
 31
0.0
  0
LINE
  5
1EF12
330
1EA20
100
AcDbEntity
  8
YODOROGO
100
AcDbLine
 10
11393.10162798446
 20
590.1560611609832
 30
0.0
 11
11393.10162798446
 21
600.6560611609824
 31
0.0
  0
LINE
  5
1EF13
330
1EA20
100
AcDbEntity
  8
YODOROGO
100
AcDbLine
 10
11411.10162798447
 20
591.6560611609829
 30
0.0
 11
11394.60162798447
 21
591.6560611609829
 31
0.0
  0
LINE
  5
1EF14
330
1EA20
100
AcDbEntity
  8
YODOROGO
100
AcDbLine
 10
11411.10162798447
 20
599.156061160983
 30
0.0
 11
11411.10162798447
 21
591.6560611609829
 31
0.0
  0
LINE
  5
1EF15
330
1EA20
100
AcDbEntity
  8
YODOROGO
100
AcDbLine
 10
11394.60162798447
 20
599.156061160983
 30
0.0
 11
11411.10162798447
 21
599.156061160983
 31
0.0
  0
LINE
  5
1EF16
330
1EA20
100
AcDbEntity
  8
YODOROGO
100
AcDbLine
 10
11394.60162798447
 20
591.6560611609829
 30
0.0
 11
11394.60162798447
 21
599.156061160983
 31
0.0
  0
LINE
  5
1EF17
330
1EA20
100
AcDbEntity
  8
YODOROGO
100
AcDbLine
 10
11409.60162798447
 20
593.1560611609824
 30
0.0
 11
11396.10162798446
 21
593.1560611609824
 31
0.0
  0
LINE
  5
1EF18
330
1EA20
100
AcDbEntity
  8
YODOROGO
100
AcDbLine
 10
11409.60162798447
 20
597.6560611609833
 30
0.0
 11
11409.60162798447
 21
593.1560611609824
 31
0.0
  0
LINE
  5
1EF19
330
1EA20
100
AcDbEntity
  8
YODOROGO
100
AcDbLine
 10
11396.10162798446
 20
597.6560611609833
 30
0.0
 11
11409.60162798447
 21
597.6560611609833
 31
0.0
  0
LINE
  5
1EF1A
330
1EA20
100
AcDbEntity
  8
YODOROGO
100
AcDbLine
 10
11396.10162798446
 20
593.1560611609824
 30
0.0
 11
11396.10162798446
 21
597.6560611609833
 31
0.0
  0
LINE
  5
1EF1B
330
1EA20
100
AcDbEntity
  8
YODOROGO
100
AcDbLine
 10
11408.10162798447
 20
594.6560611609827
 30
0.0
 11
11397.60162798447
 21
594.6560611609827
 31
0.0
  0
LINE
  5
1EF1C
330
1EA20
100
AcDbEntity
  8
YODOROGO
100
AcDbLine
 10
11408.10162798447
 20
596.1560611609829
 30
0.0
 11
11408.10162798447
 21
594.6560611609827
 31
0.0
  0
LINE
  5
1EF1D
330
1EA20
100
AcDbEntity
  8
YODOROGO
100
AcDbLine
 10
11397.60162798447
 20
596.1560611609829
 30
0.0
 11
11408.10162798447
 21
596.1560611609829
 31
0.0
  0
LINE
  5
1EF1E
330
1EA20
100
AcDbEntity
  8
YODOROGO
100
AcDbLine
 10
11397.60162798447
 20
594.6560611609827
 30
0.0
 11
11397.60162798447
 21
596.1560611609829
 31
0.0
  0
LINE
  5
1EF1F
330
1EA20
100
AcDbEntity
  8
YODOROGO
100
AcDbLine
 10
11424.60162798446
 20
610.4060611609829
 30
0.0
 11
11393.10162798446
 21
610.4060611609829
 31
0.0
  0
LINE
  5
1EF20
330
1EA20
100
AcDbEntity
  8
YODOROGO
100
AcDbLine
 10
11424.60162798446
 20
580.406061160983
 30
0.0
 11
11424.60162798446
 21
610.4060611609829
 31
0.0
  0
LINE
  5
1EF21
330
1EA20
100
AcDbEntity
  8
YODOROGO
100
AcDbLine
 10
11393.10162798446
 20
580.406061160983
 30
0.0
 11
11424.60162798446
 21
580.406061160983
 31
0.0
  0
LINE
  5
1EF22
330
1EA20
100
AcDbEntity
  8
YODOROGO
100
AcDbLine
 10
11393.10162798446
 20
535.4060611609829
 30
0.0
 11
11393.10162798446
 21
580.406061160983
 31
0.0
  0
LINE
  5
1EF23
330
1EA20
100
AcDbEntity
  8
YODOROGO
100
AcDbLine
 10
11451.60162798447
 20
535.4060611609829
 30
0.0
 11
11393.10162798446
 21
535.4060611609829
 31
0.0
  0
LINE
  5
1EF24
330
1EA20
100
AcDbEntity
  8
YODOROGO
100
AcDbLine
 10
11463.60162798446
 20
589.4060611609823
 30
0.0
 11
11463.60162798446
 21
599.9060611609831
 31
0.0
  0
ARC
  5
1EF25
330
1EA20
100
AcDbEntity
  8
YODOROGO
100
AcDbCircle
 10
11454.60162798446
 20
589.4060611609843
 30
0.0
 40
9.000000000001408
100
AcDbArc
 50
270.0
 51
359.9999999999877
  0
LINE
  5
1EF26
330
1EA20
100
AcDbEntity
  8
YODOROGO
100
AcDbLine
 10
11448.60162798446
 20
580.406061160983
 30
0.0
 11
11454.60162798446
 21
580.406061160983
 31
0.0
  0
LINE
  5
1EF27
330
1EA20
100
AcDbEntity
  8
YODOROGO
100
AcDbLine
 10
11448.60162798446
 20
610.4060611609829
 30
0.0
 11
11448.60162798446
 21
580.406061160983
 31
0.0
  0
LINE
  5
1EF28
330
1EA20
100
AcDbEntity
  8
YODOROGO
100
AcDbLine
 10
11587.35162798447
 20
580.406061160983
 30
0.0
 11
11597.10162798446
 21
580.406061160983
 31
0.0
  0
LINE
  5
1EF29
330
1EA20
100
AcDbEntity
  8
YODOROGO
100
AcDbLine
 10
11600.10162798446
 20
535.4060611609829
 30
0.0
 11
11587.35162798447
 21
535.4060611609829
 31
0.0
  0
LINE
  5
1EF2A
330
1EA20
100
AcDbEntity
  8
YODOROGO
100
AcDbLine
 10
11536.35162798447
 20
586.4060611609825
 30
0.0
 11
11546.85162798447
 21
586.4060611609825
 31
0.0
  0
LINE
  5
1EF2B
330
1EA20
100
AcDbEntity
  8
YODOROGO
100
AcDbLine
 10
11587.35162798447
 20
559.4060611609831
 30
0.0
 11
11521.35162798447
 21
559.4060611609831
 31
0.0
  0
LINE
  5
1EF2C
330
1EA20
100
AcDbEntity
  8
YODOROGO
100
AcDbLine
 10
11561.85162798446
 20
586.4060611609825
 30
0.0
 11
11572.35162798446
 21
586.4060611609825
 31
0.0
  0
LINE
  5
1EF2D
330
1EA20
100
AcDbEntity
  8
YODOROGO
100
AcDbLine
 10
11587.35162798447
 20
535.4060611609829
 30
0.0
 11
11587.35162798447
 21
580.406061160983
 31
0.0
  0
LINE
  5
1EF2E
330
1EA20
100
AcDbEntity
  8
YODOROGO
100
AcDbLine
 10
11511.60162798447
 20
535.4060611609829
 30
0.0
 11
11492.10162798447
 21
535.4060611609829
 31
0.0
  0
LINE
  5
1EF2F
330
1EA20
100
AcDbEntity
  8
YODOROGO
100
AcDbLine
 10
11481.60162798447
 20
599.9060611609831
 30
0.0
 11
11481.60162798447
 21
565.4060611609828
 31
0.0
  0
ARC
  5
1EF30
330
1EA20
100
AcDbEntity
  8
YODOROGO
100
AcDbCircle
 10
11600.10162798446
 20
550.4060611609828
 30
0.0
 40
15.0
100
AcDbArc
 50
270.0
 51
0.0
  0
LINE
  5
1EF31
330
1EA20
100
AcDbEntity
  8
YODOROGO
100
AcDbLine
 10
11660.10162798446
 20
571.4060611609824
 30
0.0
 11
11660.10162798446
 21
535.4060611609829
 31
0.0
  0
ARC
  5
1EF32
330
1EA20
100
AcDbEntity
  8
YODOROGO
100
AcDbCircle
 10
11639.89552333754
 20
614.0742712911499
 30
0.0
 40
47.21083372187828
100
AcDbArc
 50
295.3405244216011
 51
359.1890230341867
  0
LINE
  5
1EF33
330
1EA20
100
AcDbEntity
  8
YODOROGO
100
AcDbLine
 10
11481.60162798447
 20
697.406061160983
 30
0.0
 11
11436.60162798447
 21
727.4060611609828
 31
0.0
  0
LINE
  5
1EF34
330
1EA20
100
AcDbEntity
  8
YODOROGO
100
AcDbLine
 10
11436.60162798447
 20
760.4060611609829
 30
0.0
 11
11481.60162798447
 21
730.4060611609828
 31
0.0
  0
LINE
  5
1EF35
330
1EA20
100
AcDbEntity
  8
YODOROGO
100
AcDbLine
 10
11448.60162798446
 20
629.9060611609831
 30
0.0
 11
11481.60162798447
 21
629.9060611609831
 31
0.0
  0
LINE
  5
1EF36
330
1EA20
100
AcDbEntity
  8
YODOROGO
100
AcDbLine
 10
11481.60162798447
 20
650.9060611609827
 30
0.0
 11
11448.60162798446
 21
650.9060611609827
 31
0.0
  0
LINE
  5
1EF37
330
1EA20
100
AcDbEntity
  8
YODOROGO
100
AcDbLine
 10
11393.10162798446
 20
673.4060611609827
 30
0.0
 11
11481.60162798447
 21
673.4060611609827
 31
0.0
  0
LINE
  5
1EF38
330
1EA20
100
AcDbEntity
  8
YODOROGO
100
AcDbLine
 10
11280.60162798447
 20
760.4060611609829
 30
0.0
 11
11258.10162798447
 21
760.4060611609829
 31
0.0
  0
LINE
  5
1EF39
330
1EA20
100
AcDbEntity
  8
YODOROGO
100
AcDbLine
 10
11280.60162798447
 20
685.4060611609829
 30
0.0
 11
11280.60162798447
 21
760.4060611609829
 31
0.0
  0
LINE
  5
1EF3A
330
1EA20
100
AcDbEntity
  8
YODOROGO
100
AcDbLine
 10
11258.10162798447
 20
685.4060611609829
 30
0.0
 11
11280.60162798447
 21
685.4060611609829
 31
0.0
  0
LINE
  5
1EF3B
330
1EA20
100
AcDbEntity
  8
YODOROGO
100
AcDbLine
 10
11258.10162798447
 20
760.4060611609829
 30
0.0
 11
11258.10162798447
 21
685.4060611609829
 31
0.0
  0
LINE
  5
1EF3C
330
1EA20
100
AcDbEntity
  8
YODOROGO
100
AcDbLine
 10
11310.60162798447
 20
760.4060611609829
 30
0.0
 11
11331.60162798447
 21
760.4060611609829
 31
0.0
  0
LINE
  5
1EF3D
330
1EA20
100
AcDbEntity
  8
YODOROGO
100
AcDbLine
 10
11310.60162798447
 20
679.4060611609832
 30
0.0
 11
11310.60162798447
 21
760.4060611609829
 31
0.0
  0
ARC
  5
1EF3E
330
1EA20
100
AcDbEntity
  8
YODOROGO
100
AcDbCircle
 10
11295.60162798447
 20
679.4060611609832
 30
0.0
 40
15.0
100
AcDbArc
 50
270.0
 51
0.0
  0
LINE
  5
1EF3F
330
1EA20
100
AcDbEntity
  8
YODOROGO
100
AcDbLine
 10
11258.10162798447
 20
664.4060611609833
 30
0.0
 11
11295.60162798447
 21
664.4060611609833
 31
0.0
  0
LINE
  5
1EF40
330
1EA20
100
AcDbEntity
  8
YODOROGO
100
AcDbLine
 10
11258.10162798447
 20
640.4060611609828
 30
0.0
 11
11258.10162798447
 21
664.4060611609833
 31
0.0
  0
LINE
  5
1EF41
330
1EA20
100
AcDbEntity
  8
YODOROGO
100
AcDbLine
 10
11301.60162798446
 20
640.4060611609828
 30
0.0
 11
11258.10162798447
 21
640.4060611609828
 31
0.0
  0
ARC
  5
1EF42
330
1EA20
100
AcDbEntity
  8
YODOROGO
100
AcDbCircle
 10
11301.60162798446
 20
670.4060611609828
 30
0.0
 40
30.0
100
AcDbArc
 50
270.0
 51
0.0
  0
LINE
  5
1EF43
330
1EA20
100
AcDbEntity
  8
YODOROGO
100
AcDbLine
 10
11331.60162798447
 20
760.4060611609829
 30
0.0
 11
11331.60162798447
 21
670.4060611609828
 31
0.0
  0
LINE
  5
1EF44
330
1EA20
100
AcDbEntity
  8
YODOROGO
100
AcDbLine
 10
11241.60162798446
 20
730.4060611609828
 30
0.0
 11
11241.60162798446
 21
748.4060611609828
 31
0.0
1001
AUTOCAD_POSTSCRIPT_FIGURE
1002
{
1000
PSFILL
1000
Grayscale
1000
Grayscale
1070
    25
1002
}
  0
LINE
  5
1EF45
330
1EA20
100
AcDbEntity
  8
YODOROGO
100
AcDbLine
 10
11241.60162798446
 20
697.406061160983
 30
0.0
 11
11241.60162798446
 21
715.4060611609828
 31
0.0
1001
AUTOCAD_POSTSCRIPT_FIGURE
1002
{
1000
PSFILL
1000
Grayscale
1000
Grayscale
1070
    25
1002
}
  0
LINE
  5
1EF46
330
1EA20
100
AcDbEntity
  8
YODOROGO
100
AcDbLine
 10
11241.60162798446
 20
640.4060611609828
 30
0.0
 11
11241.60162798446
 21
682.4060611609829
 31
0.0
1001
AUTOCAD_POSTSCRIPT_FIGURE
1002
{
1000
PSFILL
1000
Grayscale
1000
Grayscale
1070
    25
1002
}
  0
LINE
  5
1EF47
330
1EA20
100
AcDbEntity
  8
YODOROGO
100
AcDbLine
 10
11393.10162798446
 20
715.4060611609828
 30
0.0
 11
11436.60162798447
 21
760.4060611609829
 31
0.0
  0
LINE
  5
1EF48
330
1EA20
100
AcDbEntity
  8
YODOROGO
100
AcDbLine
 10
11393.10162798446
 20
682.4060611609829
 30
0.0
 11
11393.10162798446
 21
715.4060611609828
 31
0.0
  0
LINE
  5
1EF49
330
1EA20
100
AcDbEntity
  8
YODOROGO
100
AcDbLine
 10
11436.60162798447
 20
727.4060611609828
 30
0.0
 11
11393.10162798446
 21
682.4060611609829
 31
0.0
  0
LINE
  5
1EF4A
330
1EA20
100
AcDbEntity
  8
YODOROGO
100
AcDbLine
 10
11424.60162798446
 20
629.9060611609831
 30
0.0
 11
11424.60162798446
 21
650.9060611609827
 31
0.0
  0
LINE
  5
1EF4B
330
1EA20
100
AcDbEntity
  8
YODOROGO
100
AcDbLine
 10
11393.10162798446
 20
629.9060611609831
 30
0.0
 11
11424.60162798446
 21
629.9060611609831
 31
0.0
  0
LINE
  5
1EF4C
330
1EA20
100
AcDbEntity
  8
YODOROGO
100
AcDbLine
 10
11448.60162798446
 20
650.9060611609827
 30
0.0
 11
11448.60162798446
 21
629.9060611609831
 31
0.0
  0
LINE
  5
1EF4D
330
1EA20
100
AcDbEntity
  8
YODOROGO
100
AcDbLine
 10
11393.10162798446
 20
650.9060611609827
 30
0.0
 11
11393.10162798446
 21
673.4060611609827
 31
0.0
  0
LINE
  5
1EF4E
330
1EA20
100
AcDbEntity
  8
YODOROGO
100
AcDbLine
 10
11424.60162798446
 20
650.9060611609827
 30
0.0
 11
11393.10162798446
 21
650.9060611609827
 31
0.0
  0
LINE
  5
1EF4F
330
1EA20
100
AcDbEntity
  8
YODOROGO
100
AcDbLine
 10
11492.10162798447
 20
760.4060611609829
 30
0.0
 11
11615.10162798446
 21
760.4060611609829
 31
0.0
  0
LINE
  5
1EF50
330
1EA20
100
AcDbEntity
  8
YODOROGO
100
AcDbLine
 10
11597.10162798446
 20
736.4060611609825
 30
0.0
 11
11511.60162798447
 21
736.4060611609825
 31
0.0
  0
LINE
  5
1EF51
330
1EA20
100
AcDbEntity
  8
YODOROGO
100
AcDbLine
 10
11577.60162798447
 20
682.4060611609829
 30
0.0
 11
11587.35162798447
 21
682.4060611609829
 31
0.0
  0
LINE
  5
1EF52
330
1EA20
100
AcDbEntity
  8
YODOROGO
100
AcDbLine
 10
11587.35162798447
 20
727.4060611609828
 30
0.0
 11
11577.60162798447
 21
682.4060611609829
 31
0.0
  0
LINE
  5
1EF53
330
1EA20
100
AcDbEntity
  8
YODOROGO
100
AcDbLine
 10
11569.35162798446
 20
727.4060611609828
 30
0.0
 11
11587.35162798447
 21
727.4060611609828
 31
0.0
  0
LINE
  5
1EF54
330
1EA20
100
AcDbEntity
  8
YODOROGO
100
AcDbLine
 10
11559.60162798447
 20
682.4060611609829
 30
0.0
 11
11569.35162798446
 21
727.4060611609828
 31
0.0
  0
LINE
  5
1EF55
330
1EA20
100
AcDbEntity
  8
YODOROGO
100
AcDbLine
 10
11549.10162798447
 20
682.4060611609829
 30
0.0
 11
11559.60162798447
 21
682.4060611609829
 31
0.0
  0
LINE
  5
1EF56
330
1EA20
100
AcDbEntity
  8
YODOROGO
100
AcDbLine
 10
11539.35162798447
 20
727.4060611609828
 30
0.0
 11
11549.10162798447
 21
682.4060611609829
 31
0.0
  0
LINE
  5
1EF57
330
1EA20
100
AcDbEntity
  8
YODOROGO
100
AcDbLine
 10
11521.35162798447
 20
727.4060611609828
 30
0.0
 11
11539.35162798447
 21
727.4060611609828
 31
0.0
  0
LINE
  5
1EF58
330
1EA20
100
AcDbEntity
  8
YODOROGO
100
AcDbLine
 10
11531.10162798447
 20
682.4060611609829
 30
0.0
 11
11521.35162798447
 21
727.4060611609828
 31
0.0
  0
LINE
  5
1EF59
330
1EA20
100
AcDbEntity
  8
YODOROGO
100
AcDbLine
 10
11521.35162798447
 20
682.4060611609829
 30
0.0
 11
11531.10162798447
 21
682.4060611609829
 31
0.0
  0
LINE
  5
1EF5A
330
1EA20
100
AcDbEntity
  8
YODOROGO
100
AcDbLine
 10
11521.35162798447
 20
658.4060611609827
 30
0.0
 11
11521.35162798447
 21
682.4060611609829
 31
0.0
  0
LINE
  5
1EF5B
330
1EA20
100
AcDbEntity
  8
YODOROGO
100
AcDbLine
 10
11587.35162798447
 20
658.4060611609827
 30
0.0
 11
11521.35162798447
 21
658.4060611609827
 31
0.0
  0
LINE
  5
1EF5C
330
1EA20
100
AcDbEntity
  8
YODOROGO
100
AcDbLine
 10
11587.35162798447
 20
682.4060611609829
 30
0.0
 11
11587.35162798447
 21
658.4060611609827
 31
0.0
  0
LINE
  5
1EF5D
330
1EA20
100
AcDbEntity
  8
YODOROGO
100
AcDbLine
 10
11481.60162798447
 20
730.4060611609828
 30
0.0
 11
11481.60162798447
 21
697.406061160983
 31
0.0
  0
LINE
  5
1EF5E
330
1EA20
100
AcDbEntity
  8
YODOROGO
100
AcDbLine
 10
11546.85162798447
 20
658.4060611609827
 30
0.0
 11
11561.85162798446
 21
658.4060611609827
 31
0.0
  0
LINE
  5
1EF5F
330
1EA20
100
AcDbEntity
  8
YODOROGO
100
AcDbLine
 10
11521.35162798447
 20
634.4060611609833
 30
0.0
 11
11536.35162798447
 21
634.4060611609833
 31
0.0
  0
LINE
  5
1EF60
330
1EA20
100
AcDbEntity
  8
YODOROGO
100
AcDbLine
 10
11572.35162798446
 20
634.4060611609833
 30
0.0
 11
11587.35162798447
 21
634.4060611609833
 31
0.0
  0
LINE
  5
1EF61
330
1EA20
100
AcDbEntity
  8
YODOROGO
100
AcDbLine
 10
11481.60162798447
 20
673.4060611609827
 30
0.0
 11
11481.60162798447
 21
650.9060611609827
 31
0.0
  0
LINE
  5
1EF62
330
1EA20
100
AcDbEntity
  8
YODOROGO
100
AcDbLine
 10
11687.10162798447
 20
760.4060611609829
 30
0.0
 11
11687.10162798447
 21
736.4060611609825
 31
0.0
  0
LINE
  5
1EF63
330
1EA20
100
AcDbEntity
  8
YODOROGO
100
AcDbLine
 10
11825.10162798447
 20
598.4060611609827
 30
0.0
 11
11825.10162798446
 21
679.4060611609832
 31
0.0
  0
LINE
  5
1EF64
330
1EA20
100
AcDbEntity
  8
YODOROGO
100
AcDbLine
 10
11798.10162798446
 20
745.4060611609828
 30
0.0
 11
11798.10162798446
 21
613.4060611609827
 31
0.0
  0
LINE
  5
1EF65
330
1EA20
100
AcDbEntity
  8
YODOROGO
100
AcDbLine
 10
11870.10162798447
 20
535.4060611609829
 30
0.0
 11
11870.10162798446
 21
679.4060611609832
 31
0.0
  0
LINE
  5
1EF66
330
1EA20
100
AcDbEntity
  8
YODOROGO
100
AcDbLine
 10
11846.10162798447
 20
679.4060611609832
 30
0.0
 11
11846.10162798447
 21
535.4060611609829
 31
0.0
  0
LINE
  5
1EF67
330
1EA20
100
AcDbEntity
  8
YODOROGO
100
AcDbLine
 10
11714.10162798447
 20
598.4060611609827
 30
0.0
 11
11714.10162798447
 21
640.4060611609828
 31
0.0
  0
ARC
  5
1EF68
330
1EA20
100
AcDbEntity
  8
YODOROGO
100
AcDbCircle
 10
11757.71807441852
 20
602.921381733209
 30
0.0
 40
67.53466821599572
100
AcDbArc
 50
268.6284910216979
 51
356.1663845733032
  0
LINE
  5
1EF69
330
1EA20
100
AcDbEntity
  8
YODOROGO
100
AcDbLine
 10
11756.10162798446
 20
572.9060611609829
 30
0.0
 11
11756.10162798446
 21
535.4060611609829
 31
0.0
  0
ARC
  5
1EF6A
330
1EA20
100
AcDbEntity
  8
YODOROGO
100
AcDbCircle
 10
11756.81927839671
 20
614.1896088816206
 30
0.0
 40
41.28978486885457
100
AcDbArc
 50
269.0041020930593
 51
358.9126445549248
  0
LINE
  5
1EF6B
330
1EA20
100
AcDbEntity
  8
YODOROGO
100
AcDbLine
 10
11846.10162798447
 20
535.4060611609829
 30
0.0
 11
11870.10162798447
 21
535.4060611609829
 31
0.0
  0
LINE
  5
1EF6C
330
1EA20
100
AcDbEntity
  8
YODOROGO
100
AcDbLine
 10
11825.10162798446
 20
679.4060611609832
 30
0.0
 11
11846.10162798447
 21
679.4060611609832
 31
0.0
  0
LINE
  5
1EF6D
330
1EA20
100
AcDbEntity
  8
YODOROGO
100
AcDbLine
 10
11858.10162798446
 20
745.4060611609828
 30
0.0
 11
11798.10162798446
 21
745.4060611609828
 31
0.0
  0
LINE
  5
1EF6E
330
1EA20
100
AcDbEntity
  8
YODOROGO
100
AcDbLine
 10
11825.10162798446
 20
718.4060611609829
 30
0.0
 11
11873.10162798447
 21
718.4060611609829
 31
0.0
  0
LINE
  5
1EF6F
330
1EA20
100
AcDbEntity
  8
YODOROGO
100
AcDbLine
 10
11888.10162798447
 20
703.4060611609828
 30
0.0
 11
11825.10162798446
 21
703.4060611609828
 31
0.0
  0
LINE
  5
1EF70
330
1EA20
100
AcDbEntity
  8
YODOROGO
100
AcDbLine
 10
11714.10162798447
 20
667.4060611609831
 30
0.0
 11
11756.10162798446
 21
667.4060611609831
 31
0.0
  0
LINE
  5
1EF71
330
1EA20
100
AcDbEntity
  8
YODOROGO
100
AcDbLine
 10
11714.10162798447
 20
688.4060611609828
 30
0.0
 11
11714.10162798447
 21
667.4060611609831
 31
0.0
  0
LINE
  5
1EF72
330
1EA20
100
AcDbEntity
  8
YODOROGO
100
AcDbLine
 10
11756.10162798446
 20
688.4060611609828
 30
0.0
 11
11714.10162798447
 21
688.4060611609828
 31
0.0
  0
LINE
  5
1EF73
330
1EA20
100
AcDbEntity
  8
YODOROGO
100
AcDbLine
 10
11756.10162798446
 20
667.4060611609831
 30
0.0
 11
11756.10162798446
 21
688.4060611609828
 31
0.0
  0
LINE
  5
1EF74
330
1EA20
100
AcDbEntity
  8
YODOROGO
100
AcDbLine
 10
11825.10162798446
 20
703.4060611609828
 30
0.0
 11
11825.10162798446
 21
718.4060611609829
 31
0.0
  0
LINE
  5
1EF75
330
1EA20
100
AcDbEntity
  8
YODOROGO
100
AcDbLine
 10
11780.10162798446
 20
640.4060611609828
 30
0.0
 11
11780.10162798446
 21
715.4060611609828
 31
0.0
  0
LINE
  5
1EF76
330
1EA20
100
AcDbEntity
  8
YODOROGO
100
AcDbLine
 10
11714.10162798447
 20
640.4060611609828
 30
0.0
 11
11780.10162798446
 21
640.4060611609828
 31
0.0
  0
LINE
  5
1EF77
330
1EA20
100
AcDbEntity
  8
YODOROGO
100
AcDbLine
 10
11780.10162798446
 20
736.4060611609825
 30
0.0
 11
11780.10162798446
 21
760.4060611609829
 31
0.0
  0
ARC
  5
1EF78
330
1EA20
100
AcDbEntity
  8
YODOROGO
100
AcDbCircle
 10
11858.10162798446
 20
751.4060611609817
 30
0.0
 40
5.999999999997952
100
AcDbArc
 50
270.0
 51
0.0000000000081422
  0
LINE
  5
1EF79
330
1EA20
100
AcDbEntity
  8
YODOROGO
100
AcDbLine
 10
11864.10162798447
 20
760.4060611609829
 30
0.0
 11
11864.10162798447
 21
751.4060611609825
 31
0.0
  0
LINE
  5
1EF7A
330
1EA20
100
AcDbEntity
  8
YODOROGO
100
AcDbLine
 10
11888.10162798447
 20
760.4060611609829
 30
0.0
 11
11864.10162798447
 21
760.4060611609829
 31
0.0
  0
LINE
  5
1EF7B
330
1EA20
100
AcDbEntity
  8
YODOROGO
100
AcDbLine
 10
11888.10162798447
 20
733.4060611609828
 30
0.0
 11
11888.10162798447
 21
760.4060611609829
 31
0.0
  0
ARC
  5
1EF7C
330
1EA20
100
AcDbEntity
  8
YODOROGO
100
AcDbCircle
 10
11873.10162798447
 20
733.4060611609828
 30
0.0
 40
15.0
100
AcDbArc
 50
270.0
 51
0.0
  0
LINE
  5
1EF7D
330
1EA20
100
AcDbEntity
  8
YODOROGO
100
AcDbLine
 10
11888.10162798447
 20
679.4060611609832
 30
0.0
 11
11888.10162798447
 21
703.4060611609828
 31
0.0
  0
LINE
  5
1EF7E
330
1EA20
100
AcDbEntity
  8
YODOROGO
100
AcDbLine
 10
11870.10162798446
 20
679.4060611609832
 30
0.0
 11
11888.10162798447
 21
679.4060611609832
 31
0.0
  0
ARC
  5
1EF7F
330
1EA20
100
AcDbEntity
  8
SUNPOU
100
AcDbCircle
 10
8585.577273705148
 20
4501.391364710045
 30
0.0
 40
5.625
100
AcDbArc
 50
180.0
 51
0.0
  0
ARC
  5
1EF80
330
1EA20
100
AcDbEntity
  8
SUNPOU
100
AcDbCircle
 10
8585.577273705148
 20
4501.391364710045
 30
0.0
 40
5.625
100
AcDbArc
 50
0.0
 51
180.0
  0
ARC
  5
1EF81
330
1EA20
100
AcDbEntity
  8
SUNPOU
100
AcDbCircle
 10
8980.973701566684
 20
3615.582642126956
 30
0.0
 40
5.625
100
AcDbArc
 50
270.0
 51
90.0
  0
ARC
  5
1EF82
330
1EA20
100
AcDbEntity
  8
SUNPOU
100
AcDbCircle
 10
8980.973701566684
 20
3615.582642126956
 30
0.0
 40
5.625
100
AcDbArc
 50
90.0
 51
270.0
  0
ARC
  5
1EF83
330
1EA20
100
AcDbEntity
  8
SUNPOU
100
AcDbCircle
 10
8190.014401233748
 20
4249.840809951585
 30
0.0
 40
5.624999999999927
100
AcDbArc
 50
177.1290390148517
 51
357.1290390148516
  0
ARC
  5
1EF84
330
1EA20
100
AcDbEntity
  8
SUNPOU
100
AcDbCircle
 10
8190.014401233748
 20
4249.840809951585
 30
0.0
 40
5.624999999999927
100
AcDbArc
 50
357.1290390148516
 51
177.1290390148517
  0
ARC
  5
1EF85
330
1EA20
100
AcDbEntity
  8
SUNPOU
100
AcDbCircle
 10
7600.754927491369
 20
4279.391996135083
 30
0.0
 40
5.625000000001696
100
AcDbArc
 50
177.1290390148618
 51
357.1290390148619
  0
ARC
  5
1EF86
330
1EA20
100
AcDbEntity
  8
SUNPOU
100
AcDbCircle
 10
7600.754927491369
 20
4279.391996135083
 30
0.0
 40
5.625000000001696
100
AcDbArc
 50
357.1290390148619
 51
177.1290390148618
  0
ARC
  5
1EF87
330
1EA20
100
AcDbEntity
  8
SUNPOU
100
AcDbCircle
 10
7600.754927491369
 20
4279.391996135083
 30
0.0
 40
5.625000000001696
100
AcDbArc
 50
357.1290390148619
 51
177.1290390148618
  0
ARC
  5
1EF88
330
1EA20
100
AcDbEntity
  8
SUNPOU
100
AcDbCircle
 10
7600.754927491369
 20
4279.391996135083
 30
0.0
 40
5.625000000001696
100
AcDbArc
 50
177.1290390148618
 51
357.1290390148619
  0
ARC
  5
1EF89
330
1EA20
100
AcDbEntity
  8
SUNPOU
100
AcDbCircle
 10
7011.495453748986
 20
4308.943182318582
 30
0.0
 40
5.624999999999927
100
AcDbArc
 50
357.1290390148516
 51
177.1290390148517
  0
ARC
  5
1EF8A
330
1EA20
100
AcDbEntity
  8
SUNPOU
100
AcDbCircle
 10
7011.495453748986
 20
4308.943182318582
 30
0.0
 40
5.624999999999927
100
AcDbArc
 50
177.1290390148517
 51
357.1290390148516
  0
ARC
  5
1EF8B
330
1EA20
100
AcDbEntity
  8
SUNPOU
100
AcDbCircle
 10
6585.577273705149
 20
4501.391364710045
 30
0.0
 40
5.625
100
AcDbArc
 50
0.0
 51
180.0
  0
ARC
  5
1EF8C
330
1EA20
100
AcDbEntity
  8
SUNPOU
100
AcDbCircle
 10
6585.577273705149
 20
4501.391364710045
 30
0.0
 40
5.625
100
AcDbArc
 50
180.0
 51
0.0
  0
ARC
  5
1EF8D
330
1EA20
100
AcDbEntity
  8
SUNPOU
100
AcDbCircle
 10
8980.973701566684
 20
1786.805063765605
 30
0.0
 40
5.625
100
AcDbArc
 50
90.0
 51
270.0
  0
ARC
  5
1EF8E
330
1EA20
100
AcDbEntity
  8
SUNPOU
100
AcDbCircle
 10
8980.973701566684
 20
1786.805063765605
 30
0.0
 40
5.625
100
AcDbArc
 50
270.0
 51
90.0
  0
ARC
  5
1EF8F
330
1EA20
100
AcDbEntity
  8
SUNPOU
100
AcDbCircle
 10
6331.596742355274
 20
3991.39136471004
 30
0.0
 40
5.625
100
AcDbArc
 50
90.0
 51
270.0
  0
ARC
  5
1EF90
330
1EA20
100
AcDbEntity
  8
SUNPOU
100
AcDbCircle
 10
6331.596742355274
 20
3991.39136471004
 30
0.0
 40
5.625
100
AcDbArc
 50
270.0
 51
90.0
  0
ARC
  5
1EF91
330
1EA20
100
AcDbEntity
  8
SUNPOU
100
AcDbCircle
 10
6331.596742355274
 20
3893.514367376559
 30
0.0
 40
5.625
100
AcDbArc
 50
270.0
 51
90.0
  0
ARC
  5
1EF92
330
1EA20
100
AcDbEntity
  8
SUNPOU
100
AcDbCircle
 10
6331.596742355274
 20
3893.514367376559
 30
0.0
 40
5.625
100
AcDbArc
 50
90.0
 51
270.0
  0
ARC
  5
1EF93
330
1EA20
100
AcDbEntity
  8
SUNPOU
100
AcDbCircle
 10
6331.596742355274
 20
3893.514367376559
 30
0.0
 40
5.625
100
AcDbArc
 50
270.0
 51
90.0
  0
ARC
  5
1EF94
330
1EA20
100
AcDbEntity
  8
SUNPOU
100
AcDbCircle
 10
6331.596742355274
 20
3893.514367376559
 30
0.0
 40
5.625
100
AcDbArc
 50
90.0
 51
270.0
  0
ARC
  5
1EF95
330
1EA20
100
AcDbEntity
  8
SUNPOU
100
AcDbCircle
 10
6331.596742355274
 20
1786.805063765603
 30
0.0
 40
5.625
100
AcDbArc
 50
90.0
 51
270.0
  0
ARC
  5
1EF96
330
1EA20
100
AcDbEntity
  8
SUNPOU
100
AcDbCircle
 10
6331.596742355274
 20
1786.805063765603
 30
0.0
 40
5.625
100
AcDbArc
 50
270.0
 51
90.0
  0
ARC
  5
1EF97
330
1EA20
100
AcDbEntity
  8
SUNPOU
100
AcDbCircle
 10
3787.647083943632
 20
4711.740775902097
 30
0.0
 40
5.625
100
AcDbArc
 50
180.0
 51
0.0
  0
ARC
  5
1EF98
330
1EA20
100
AcDbEntity
  8
SUNPOU
100
AcDbCircle
 10
3787.647083943632
 20
4711.740775902097
 30
0.0
 40
5.625
100
AcDbArc
 50
0.0
 51
180.0
  0
ARC
  5
1EF99
330
1EA20
100
AcDbEntity
  8
SUNPOU
100
AcDbCircle
 10
3787.647083943632
 20
4501.740775902097
 30
0.0
 40
5.625
100
AcDbArc
 50
180.0
 51
0.0
  0
ARC
  5
1EF9A
330
1EA20
100
AcDbEntity
  8
SUNPOU
100
AcDbCircle
 10
3787.647083943632
 20
4501.740775902097
 30
0.0
 40
5.625
100
AcDbArc
 50
0.0
 51
180.0
  0
ARC
  5
1EF9B
330
1EA20
100
AcDbEntity
  8
SUNPOU
100
AcDbCircle
 10
4410.884030123905
 20
3608.805063765604
 30
0.0
 40
5.625
100
AcDbArc
 50
270.0
 51
90.0
  0
ARC
  5
1EF9C
330
1EA20
100
AcDbEntity
  8
SUNPOU
100
AcDbCircle
 10
4410.884030123905
 20
3608.805063765604
 30
0.0
 40
5.625
100
AcDbArc
 50
90.0
 51
270.0
  0
ARC
  5
1EF9D
330
1EA20
100
AcDbEntity
  8
SUNPOU
100
AcDbCircle
 10
2802.647083943633
 20
4501.740775902097
 30
0.0
 40
5.624999999999544
100
AcDbArc
 50
180.0
 51
0.0
  0
ARC
  5
1EF9E
330
1EA20
100
AcDbEntity
  8
SUNPOU
100
AcDbCircle
 10
2802.647083943633
 20
4501.740775902097
 30
0.0
 40
5.624999999999544
100
AcDbArc
 50
0.0
 51
180.0
  0
ARC
  5
1EF9F
330
1EA20
100
AcDbEntity
  8
SUNPOU
100
AcDbCircle
 10
2802.647083943633
 20
4501.740775902097
 30
0.0
 40
5.624999999999544
100
AcDbArc
 50
0.0
 51
180.0
  0
ARC
  5
1EFA0
330
1EA20
100
AcDbEntity
  8
SUNPOU
100
AcDbCircle
 10
2802.647083943633
 20
4501.740775902097
 30
0.0
 40
5.624999999999544
100
AcDbArc
 50
180.0
 51
0.0
  0
ARC
  5
1EFA1
330
1EA20
100
AcDbEntity
  8
SUNPOU
100
AcDbCircle
 10
1787.647083943633
 20
4711.740775902097
 30
0.0
 40
5.625
100
AcDbArc
 50
0.0
 51
180.0
  0
ARC
  5
1EFA2
330
1EA20
100
AcDbEntity
  8
SUNPOU
100
AcDbCircle
 10
1787.647083943633
 20
4711.740775902097
 30
0.0
 40
5.625
100
AcDbArc
 50
180.0
 51
0.0
  0
ARC
  5
1EFA3
330
1EA20
100
AcDbEntity
  8
SUNPOU
100
AcDbCircle
 10
1787.647083943633
 20
4501.740775902097
 30
0.0
 40
5.625
100
AcDbArc
 50
0.0
 51
180.0
  0
ARC
  5
1EFA4
330
1EA20
100
AcDbEntity
  8
SUNPOU
100
AcDbCircle
 10
1787.647083943633
 20
4501.740775902097
 30
0.0
 40
5.625
100
AcDbArc
 50
180.0
 51
0.0
  0
ARC
  5
1EFA5
330
1EA20
100
AcDbEntity
  8
SUNPOU
100
AcDbCircle
 10
4410.884030123905
 20
1786.805063765605
 30
0.0
 40
5.625
100
AcDbArc
 50
270.0
 51
90.0
  0
ARC
  5
1EFA6
330
1EA20
100
AcDbEntity
  8
SUNPOU
100
AcDbCircle
 10
4410.884030123905
 20
1786.805063765605
 30
0.0
 40
5.625
100
AcDbArc
 50
90.0
 51
270.0
  0
ARC
  5
1EFA7
330
1EA20
100
AcDbEntity
  8
SUNPOU
100
AcDbCircle
 10
4410.884030123905
 20
1736.805063765605
 30
0.0
 40
5.625
100
AcDbArc
 50
270.0
 51
90.0
  0
ARC
  5
1EFA8
330
1EA20
100
AcDbEntity
  8
SUNPOU
100
AcDbCircle
 10
4410.884030123905
 20
1736.805063765605
 30
0.0
 40
5.625
100
AcDbArc
 50
90.0
 51
270.0
  0
ARC
  5
1EFA9
330
1EA20
100
AcDbEntity
  8
SUNPOU
100
AcDbCircle
 10
4410.884030123905
 20
1786.805063765605
 30
0.0
 40
5.625
100
AcDbArc
 50
90.0
 51
270.0
  0
ARC
  5
1EFAA
330
1EA20
100
AcDbEntity
  8
SUNPOU
100
AcDbCircle
 10
4410.884030123905
 20
1786.805063765605
 30
0.0
 40
5.625
100
AcDbArc
 50
270.0
 51
90.0
  0
ARC
  5
1EFAB
330
1EA20
100
AcDbEntity
  8
SUNPOU
100
AcDbCircle
 10
1488.224636933687
 20
3991.740775902098
 30
0.0
 40
5.625
100
AcDbArc
 50
90.0
 51
270.0
  0
ARC
  5
1EFAC
330
1EA20
100
AcDbEntity
  8
SUNPOU
100
AcDbCircle
 10
1488.224636933687
 20
3991.740775902098
 30
0.0
 40
5.625
100
AcDbArc
 50
270.0
 51
90.0
  0
ARC
  5
1EFAD
330
1EA20
100
AcDbEntity
  8
SUNPOU
100
AcDbCircle
 10
1488.224636933687
 20
3893.740775902097
 30
0.0
 40
5.625
100
AcDbArc
 50
270.0
 51
90.0
  0
ARC
  5
1EFAE
330
1EA20
100
AcDbEntity
  8
SUNPOU
100
AcDbCircle
 10
1488.224636933687
 20
3893.740775902097
 30
0.0
 40
5.625
100
AcDbArc
 50
90.0
 51
270.0
  0
ARC
  5
1EFAF
330
1EA20
100
AcDbEntity
  8
SUNPOU
100
AcDbCircle
 10
1488.224636933687
 20
3893.740775902097
 30
0.0
 40
5.625
100
AcDbArc
 50
270.0
 51
90.0
  0
ARC
  5
1EFB0
330
1EA20
100
AcDbEntity
  8
SUNPOU
100
AcDbCircle
 10
1488.224636933687
 20
3893.740775902097
 30
0.0
 40
5.625
100
AcDbArc
 50
90.0
 51
270.0
  0
ARC
  5
1EFB1
330
1EA20
100
AcDbEntity
  8
SUNPOU
100
AcDbCircle
 10
1278.224636933686
 20
3991.740775902098
 30
0.0
 40
5.625
100
AcDbArc
 50
270.0
 51
90.0
  0
ARC
  5
1EFB2
330
1EA20
100
AcDbEntity
  8
SUNPOU
100
AcDbCircle
 10
1278.224636933686
 20
3991.740775902098
 30
0.0
 40
5.625
100
AcDbArc
 50
90.0
 51
270.0
  0
ARC
  5
1EFB3
330
1EA20
100
AcDbEntity
  8
SUNPOU
100
AcDbCircle
 10
1488.224636933687
 20
1786.805063765603
 30
0.0
 40
5.625
100
AcDbArc
 50
90.0
 51
270.0
  0
ARC
  5
1EFB4
330
1EA20
100
AcDbEntity
  8
SUNPOU
100
AcDbCircle
 10
1488.224636933687
 20
1786.805063765603
 30
0.0
 40
5.625
100
AcDbArc
 50
270.0
 51
90.0
  0
ARC
  5
1EFB5
330
1EA20
100
AcDbEntity
  8
SUNPOU
100
AcDbCircle
 10
1278.224636933686
 20
1786.805063765603
 30
0.0
 40
5.625
100
AcDbArc
 50
90.0
 51
270.0
  0
ARC
  5
1EFB6
330
1EA20
100
AcDbEntity
  8
SUNPOU
100
AcDbCircle
 10
1278.224636933686
 20
1786.805063765603
 30
0.0
 40
5.625
100
AcDbArc
 50
270.0
 51
90.0
  0
ARC
  5
1EFB7
330
1EA20
100
AcDbEntity
  8
SUNPOU
100
AcDbCircle
 10
10425.71885793242
 20
8130.802125207461
 30
0.0
 40
5.625
100
AcDbArc
 50
0.0
 51
180.0
  0
ARC
  5
1EFB8
330
1EA20
100
AcDbEntity
  8
SUNPOU
100
AcDbCircle
 10
10425.71885793242
 20
8130.802125207461
 30
0.0
 40
5.625
100
AcDbArc
 50
180.0
 51
0.0
  0
ARC
  5
1EFB9
330
1EA20
100
AcDbEntity
  8
SUNPOU
100
AcDbCircle
 10
10425.71885793242
 20
8130.802125207461
 30
0.0
 40
5.625
100
AcDbArc
 50
180.0
 51
0.0
  0
ARC
  5
1EFBA
330
1EA20
100
AcDbEntity
  8
SUNPOU
100
AcDbCircle
 10
10425.71885793242
 20
8130.802125207461
 30
0.0
 40
5.625
100
AcDbArc
 50
0.0
 51
180.0
  0
ARC
  5
1EFBB
330
1EA20
100
AcDbEntity
  8
SUNPOU
100
AcDbCircle
 10
10666.71885793242
 20
8130.802125207461
 30
0.0
 40
5.625000000005456
100
AcDbArc
 50
180.0
 51
0.0
  0
ARC
  5
1EFBC
330
1EA20
100
AcDbEntity
  8
SUNPOU
100
AcDbCircle
 10
10666.71885793242
 20
8130.802125207461
 30
0.0
 40
5.625000000003637
100
AcDbArc
 50
0.0
 51
180.0
  0
ARC
  5
1EFBD
330
1EA20
100
AcDbEntity
  8
SUNPOU
100
AcDbCircle
 10
7625.71885793243
 20
8130.802125207461
 30
0.0
 40
5.625
100
AcDbArc
 50
180.0
 51
0.0
  0
ARC
  5
1EFBE
330
1EA20
100
AcDbEntity
  8
SUNPOU
100
AcDbCircle
 10
7625.71885793243
 20
8130.802125207461
 30
0.0
 40
5.625
100
AcDbArc
 50
0.0
 51
180.0
  0
ARC
  5
1EFBF
330
1EA20
100
AcDbEntity
  8
SUNPOU
100
AcDbCircle
 10
7625.71885793243
 20
8130.802125207461
 30
0.0
 40
5.625
100
AcDbArc
 50
0.0
 51
180.0
  0
ARC
  5
1EFC0
330
1EA20
100
AcDbEntity
  8
SUNPOU
100
AcDbCircle
 10
7625.71885793243
 20
8130.802125207461
 30
0.0
 40
5.625
100
AcDbArc
 50
180.0
 51
0.0
  0
ARC
  5
1EFC1
330
1EA20
100
AcDbEntity
  8
SUNPOU
100
AcDbCircle
 10
4825.71885793243
 20
8130.802125207461
 30
0.0
 40
5.625
100
AcDbArc
 50
180.0
 51
0.0
  0
ARC
  5
1EFC2
330
1EA20
100
AcDbEntity
  8
SUNPOU
100
AcDbCircle
 10
4825.71885793243
 20
8130.802125207461
 30
0.0
 40
5.625
100
AcDbArc
 50
0.0
 51
180.0
  0
ARC
  5
1EFC3
330
1EA20
100
AcDbEntity
  8
SUNPOU
100
AcDbCircle
 10
4825.71885793243
 20
8130.802125207461
 30
0.0
 40
5.625
100
AcDbArc
 50
0.0
 51
180.0
  0
ARC
  5
1EFC4
330
1EA20
100
AcDbEntity
  8
SUNPOU
100
AcDbCircle
 10
4825.71885793243
 20
8130.802125207461
 30
0.0
 40
5.625
100
AcDbArc
 50
180.0
 51
0.0
  0
ARC
  5
1EFC5
330
1EA20
100
AcDbEntity
  8
SUNPOU
100
AcDbCircle
 10
2025.718857932429
 20
8130.802125207461
 30
0.0
 40
5.625
100
AcDbArc
 50
180.0
 51
0.0
  0
ARC
  5
1EFC6
330
1EA20
100
AcDbEntity
  8
SUNPOU
100
AcDbCircle
 10
2025.718857932429
 20
8130.802125207461
 30
0.0
 40
5.625
100
AcDbArc
 50
0.0
 51
180.0
  0
ARC
  5
1EFC7
330
1EA20
100
AcDbEntity
  8
SUNPOU
100
AcDbCircle
 10
2025.718857932429
 20
8130.802125207461
 30
0.0
 40
5.625
100
AcDbArc
 50
0.0
 51
180.0
  0
ARC
  5
1EFC8
330
1EA20
100
AcDbEntity
  8
SUNPOU
100
AcDbCircle
 10
2025.718857932429
 20
8130.802125207461
 30
0.0
 40
5.625
100
AcDbArc
 50
180.0
 51
0.0
  0
ARC
  5
1EFC9
330
1EA20
100
AcDbEntity
  8
SUNPOU
100
AcDbCircle
 10
1784.718857932428
 20
8130.802125207461
 30
0.0
 40
5.625000000000681
100
AcDbArc
 50
0.0
 51
180.0
  0
ARC
  5
1EFCA
330
1EA20
100
AcDbEntity
  8
SUNPOU
100
AcDbCircle
 10
1784.718857932428
 20
8130.802125207461
 30
0.0
 40
5.625000000000681
100
AcDbArc
 50
180.0
 51
0.0
  0
CIRCLE
  5
1EFCB
330
1EA20
100
AcDbEntity
  8
HIKIDASHI
100
AcDbCircle
 10
7590.973701566683
 20
1346.805063765603
 30
0.0
 40
6.0
  0
CIRCLE
  5
1EFCC
330
1EA20
100
AcDbEntity
  8
HIKIDASHI
100
AcDbCircle
 10
7590.973701566683
 20
1306.805063765603
 30
0.0
 40
6.0
  0
LINE
  5
1EFCD
330
1EA20
100
AcDbEntity
  8
HIKIDASHI
100
AcDbLine
 10
7649.573213105296
 20
1338.775319432958
 30
0.0
 11
7596.611857291397
 21
1308.857184625558
 31
0.0
  0
LINE
  5
1EFCE
330
1EA20
100
AcDbEntity
  8
HIKIDASHI
100
AcDbLine
 10
7596.611857291397
 20
1308.857184625558
 30
0.0
 11
7656.413615971811
 21
1319.98146701724
 31
0.0
  0
SOLID
  5
1EFCF
330
1EA20
100
AcDbEntity
  8
HIKIDASHI
100
AcDbTrace
 10
7649.573213105296
 20
1338.775319432958
 30
0.0
 11
7656.413615971811
 21
1319.98146701724
 31
0.0
 12
7596.611857291397
 22
1308.857184625558
 32
0.0
 13
7596.611857291397
 23
1308.857184625558
 33
0.0
  0
LINE
  5
1EFD0
330
1EA20
100
AcDbEntity
  8
HIKIDASHI
100
AcDbLine
 10
7656.413615971811
 20
1319.98146701724
 30
0.0
 11
7649.573213105296
 21
1338.775319432958
 31
0.0
  0
LINE
  5
1EFD1
330
1EA20
100
AcDbEntity
  8
HIKIDASHI
100
AcDbLine
 10
7422.315909763593
 20
3697.012899537398
 30
0.0
 11
7341.363362888187
 21
3425.340745024625
 31
0.0
1001
ACAD
1000
DSTYLE
1002
{
1070
   147
1040
1.5
1070
    77
1070
     0
1002
}
  0
LINE
  5
1EFD2
330
1EA20
100
AcDbEntity
  8
HIKIDASHI
100
AcDbLine
 10
7436.691276175587
 20
3692.729344877903
 30
0.0
 11
7448.017237720563
 21
3783.265098009369
 31
0.0
  0
LINE
  5
1EFD3
330
1EA20
100
AcDbEntity
  8
HIKIDASHI
100
AcDbLine
 10
7448.017237720563
 20
3783.265098009369
 30
0.0
 11
7407.940543351597
 21
3701.296454196892
 31
0.0
  0
SOLID
  5
1EFD4
330
1EA20
100
AcDbEntity
  8
HIKIDASHI
100
AcDbTrace
 10
7436.691276175587
 20
3692.729344877903
 30
0.0
 11
7407.940543351597
 21
3701.296454196892
 31
0.0
 12
7448.017237720563
 22
3783.265098009369
 32
0.0
 13
7448.017237720563
 23
3783.265098009369
 33
0.0
  0
LINE
  5
1EFD5
330
1EA20
100
AcDbEntity
  8
HIKIDASHI
100
AcDbLine
 10
7407.940543351597
 20
3701.296454196892
 30
0.0
 11
7436.691276175587
 21
3692.729344877903
 31
0.0
  0
LINE
  5
1EFD6
330
1EA20
100
AcDbEntity
  8
HIKIDASHI
100
AcDbLine
 10
6898.84058753589
 20
3969.262588588069
 30
0.0
 11
6410.322928008098
 21
4291.740775902098
 31
0.0
1001
ACAD
1000
DSTYLE
1002
{
1070
   147
1040
1.5
1070
    77
1070
     0
1002
}
  0
LINE
  5
1EFD7
330
1EA20
100
AcDbEntity
  8
HIKIDASHI
100
AcDbLine
 10
6890.576945342296
 20
3956.744113533324
 30
0.0
 11
6973.951437864355
 21
3919.680735426501
 31
0.0
  0
LINE
  5
1EFD8
330
1EA20
100
AcDbEntity
  8
HIKIDASHI
100
AcDbLine
 10
6973.951437864355
 20
3919.680735426501
 30
0.0
 11
6907.104229729485
 21
3981.781063642812
 31
0.0
  0
SOLID
  5
1EFD9
330
1EA20
100
AcDbEntity
  8
HIKIDASHI
100
AcDbTrace
 10
6890.576945342296
 20
3956.744113533324
 30
0.0
 11
6907.104229729485
 21
3981.781063642812
 31
0.0
 12
6973.951437864355
 22
3919.680735426501
 32
0.0
 13
6973.951437864355
 23
3919.680735426501
 33
0.0
  0
LINE
  5
1EFDA
330
1EA20
100
AcDbEntity
  8
HIKIDASHI
100
AcDbLine
 10
6907.104229729485
 20
3981.781063642812
 30
0.0
 11
6890.576945342296
 21
3956.744113533324
 31
0.0
  0
LINE
  5
1EFDB
330
1EA20
100
AcDbEntity
  8
HIKIDASHI
100
AcDbLine
 10
7693.225918450695
 20
2286.679443287057
 30
0.0
 11
7841.32960569368
 21
2432.637663742353
 31
0.0
1001
ACAD
1000
DSTYLE
1002
{
1070
   147
1040
1.5
1070
    77
1070
     0
1002
}
  0
LINE
  5
1EFDC
330
1EA20
100
AcDbEntity
  8
HIKIDASHI
100
AcDbLine
 10
7682.69698240843
 20
2297.363146101059
 30
0.0
 11
7629.123701566685
 21
2223.505827033469
 31
0.0
  0
LINE
  5
1EFDD
330
1EA20
100
AcDbEntity
  8
HIKIDASHI
100
AcDbLine
 10
7629.123701566685
 20
2223.505827033469
 30
0.0
 11
7703.754854492958
 21
2275.995740473055
 31
0.0
  0
SOLID
  5
1EFDE
330
1EA20
100
AcDbEntity
  8
HIKIDASHI
100
AcDbTrace
 10
7682.69698240843
 20
2297.363146101059
 30
0.0
 11
7703.754854492958
 21
2275.995740473055
 31
0.0
 12
7629.123701566685
 22
2223.505827033469
 32
0.0
 13
7629.123701566685
 23
2223.505827033469
 33
0.0
  0
LINE
  5
1EFDF
330
1EA20
100
AcDbEntity
  8
HIKIDASHI
100
AcDbLine
 10
7703.754854492958
 20
2275.995740473055
 30
0.0
 11
7682.69698240843
 21
2297.363146101059
 31
0.0
  0
LINE
  5
1EFE0
330
1EA20
100
AcDbEntity
  8
HIKIDASHI
100
AcDbLine
 10
8384.028386887178
 20
3608.201192776054
 30
0.0
 11
7773.04411854282
 21
3174.053961503393
 31
0.0
1001
ACAD
1000
DSTYLE
1002
{
1070
   147
1040
1.5
1070
    77
1070
     0
1002
}
  0
LINE
  5
1EFE1
330
1EA20
100
AcDbEntity
  8
HIKIDASHI
100
AcDbLine
 10
7773.04411854282
 20
3174.053961503393
 30
0.0
 11
7888.542128781013
 21
2915.916270012596
 31
0.0
1001
ACAD
1000
DSTYLE
1002
{
1070
   147
1040
1.5
1070
    77
1070
     0
1002
}
  0
LINE
  5
1EFE2
330
1EA20
100
AcDbEntity
  8
HIKIDASHI
100
AcDbLine
 10
8392.716850674993
 20
3595.973740179219
 30
0.0
 11
8457.39310246819
 21
3660.331975502935
 31
0.0
  0
LINE
  5
1EFE3
330
1EA20
100
AcDbEntity
  8
HIKIDASHI
100
AcDbLine
 10
8457.39310246819
 20
3660.331975502935
 30
0.0
 11
8375.339923099366
 21
3620.428645372889
 31
0.0
  0
SOLID
  5
1EFE4
330
1EA20
100
AcDbEntity
  8
HIKIDASHI
100
AcDbTrace
 10
8392.716850674993
 20
3595.973740179219
 30
0.0
 11
8375.339923099366
 21
3620.428645372889
 31
0.0
 12
8457.39310246819
 22
3660.331975502935
 32
0.0
 13
8457.39310246819
 23
3660.331975502935
 33
0.0
  0
LINE
  5
1EFE5
330
1EA20
100
AcDbEntity
  8
HIKIDASHI
100
AcDbLine
 10
8375.339923099366
 20
3620.428645372889
 30
0.0
 11
8392.716850674993
 21
3595.973740179219
 31
0.0
  0
ARC
  5
1EFE6
330
1EA20
100
AcDbEntity
  8
HIKIDASHI
100
AcDbCircle
 10
7590.973701566683
 20
1346.805063765603
 30
0.0
 40
3.0
100
AcDbArc
 50
180.0
 51
0.0
  0
ARC
  5
1EFE7
330
1EA20
100
AcDbEntity
  8
HIKIDASHI
100
AcDbCircle
 10
7590.973701566683
 20
1346.805063765603
 30
0.0
 40
3.0
100
AcDbArc
 50
0.0
 51
180.0
  0
ARC
  5
1EFE8
330
1EA20
100
AcDbEntity
  8
HIKIDASHI
100
AcDbCircle
 10
7590.973701566683
 20
1306.805063765603
 30
0.0
 40
3.0
100
AcDbArc
 50
180.0
 51
0.0
  0
ARC
  5
1EFE9
330
1EA20
100
AcDbEntity
  8
HIKIDASHI
100
AcDbCircle
 10
7590.973701566683
 20
1306.805063765603
 30
0.0
 40
3.0
100
AcDbArc
 50
0.0
 51
180.0
  0
LINE
  5
1EFEA
330
1EA20
100
AcDbEntity
  8
HATCH
100
AcDbLine
 10
7937.106188107204
 20
1186.805063765604
 30
0.0
 11
7994.841215026163
 21
1286.805063765603
 31
0.0
  0
LINE
  5
1EFEB
330
1EA20
100
AcDbEntity
  8
HATCH
100
AcDbLine
 10
7954.841215026163
 20
1286.805063765602
 30
0.0
 11
7974.841215026163
 21
1252.164047614227
 31
0.0
  0
LINE
  5
1EFEC
330
1EA20
100
AcDbEntity
  8
HATCH
100
AcDbLine
 10
7957.106188107204
 20
1221.446079916981
 30
0.0
 11
7977.106188107201
 21
1186.805063765604
 31
0.0
  0
LINE
  5
1EFED
330
1EA20
100
AcDbEntity
  8
HATCH
100
AcDbLine
 10
7187.106188107202
 20
1186.805063765602
 30
0.0
 11
7244.841215026163
 21
1286.805063765602
 31
0.0
  0
LINE
  5
1EFEE
330
1EA20
100
AcDbEntity
  8
HATCH
100
AcDbLine
 10
7204.841215026165
 20
1286.805063765601
 30
0.0
 11
7224.841215026163
 21
1252.164047614226
 31
0.0
  0
LINE
  5
1EFEF
330
1EA20
100
AcDbEntity
  8
HATCH
100
AcDbLine
 10
7207.106188107204
 20
1221.446079916981
 30
0.0
 11
7227.106188107201
 21
1186.805063765602
 31
0.0
  0
LINE
  5
1EFF0
330
1EA20
100
AcDbEntity
  8
HATCH
100
AcDbLine
 10
7812.106188107204
 20
1186.805063765604
 30
0.0
 11
7869.841215026163
 21
1286.805063765603
 31
0.0
  0
LINE
  5
1EFF1
330
1EA20
100
AcDbEntity
  8
HATCH
100
AcDbLine
 10
7829.841215026163
 20
1286.805063765602
 30
0.0
 11
7849.841215026163
 21
1252.164047614227
 31
0.0
  0
LINE
  5
1EFF2
330
1EA20
100
AcDbEntity
  8
HATCH
100
AcDbLine
 10
7832.106188107204
 20
1221.446079916981
 30
0.0
 11
7852.106188107201
 21
1186.805063765604
 31
0.0
  0
LINE
  5
1EFF3
330
1EA20
100
AcDbEntity
  8
HATCH
100
AcDbLine
 10
7687.106188107204
 20
1186.805063765604
 30
0.0
 11
7744.841215026163
 21
1286.805063765603
 31
0.0
  0
LINE
  5
1EFF4
330
1EA20
100
AcDbEntity
  8
HATCH
100
AcDbLine
 10
7704.841215026163
 20
1286.805063765602
 30
0.0
 11
7724.841215026163
 21
1252.164047614227
 31
0.0
  0
LINE
  5
1EFF5
330
1EA20
100
AcDbEntity
  8
HATCH
100
AcDbLine
 10
7707.106188107204
 20
1221.446079916981
 30
0.0
 11
7727.106188107201
 21
1186.805063765604
 31
0.0
  0
LINE
  5
1EFF6
330
1EA20
100
AcDbEntity
  8
HATCH
100
AcDbLine
 10
7437.106188107204
 20
1186.805063765604
 30
0.0
 11
7494.841215026163
 21
1286.805063765603
 31
0.0
  0
LINE
  5
1EFF7
330
1EA20
100
AcDbEntity
  8
HATCH
100
AcDbLine
 10
7454.841215026163
 20
1286.805063765602
 30
0.0
 11
7474.841215026163
 21
1252.164047614227
 31
0.0
  0
LINE
  5
1EFF8
330
1EA20
100
AcDbEntity
  8
HATCH
100
AcDbLine
 10
7457.106188107204
 20
1221.446079916981
 30
0.0
 11
7477.106188107201
 21
1186.805063765604
 31
0.0
  0
LINE
  5
1EFF9
330
1EA20
100
AcDbEntity
  8
HATCH
100
AcDbLine
 10
7312.106188107204
 20
1186.805063765604
 30
0.0
 11
7369.841215026163
 21
1286.805063765603
 31
0.0
  0
LINE
  5
1EFFA
330
1EA20
100
AcDbEntity
  8
HATCH
100
AcDbLine
 10
7329.841215026163
 20
1286.805063765602
 30
0.0
 11
7349.841215026163
 21
1252.164047614227
 31
0.0
  0
LINE
  5
1EFFB
330
1EA20
100
AcDbEntity
  8
HATCH
100
AcDbLine
 10
7332.106188107204
 20
1221.446079916981
 30
0.0
 11
7352.106188107201
 21
1186.805063765604
 31
0.0
  0
LINE
  5
1EFFC
330
1EA20
100
AcDbEntity
  8
HATCH
100
AcDbLine
 10
7562.106188107204
 20
1186.805063765604
 30
0.0
 11
7619.841215026163
 21
1286.805063765603
 31
0.0
  0
LINE
  5
1EFFD
330
1EA20
100
AcDbEntity
  8
HATCH
100
AcDbLine
 10
7579.841215026163
 20
1286.805063765602
 30
0.0
 11
7599.841215026163
 21
1252.164047614227
 31
0.0
  0
LINE
  5
1EFFE
330
1EA20
100
AcDbEntity
  8
HATCH
100
AcDbLine
 10
7582.106188107204
 20
1221.446079916981
 30
0.0
 11
7602.106188107201
 21
1186.805063765604
 31
0.0
  0
LINE
  5
1EFFF
330
1EA20
100
AcDbEntity
  8
HATCH
100
AcDbLine
 10
8666.33268541536
 20
1636.805063765606
 30
0.0
 11
8700.973701566757
 21
1696.805063765642
 31
0.0
  0
LINE
  5
1F000
330
1EA20
100
AcDbEntity
  8
HATCH
100
AcDbLine
 10
8676.973701566746
 20
1696.805063765642
 30
0.0
 11
8688.973701566752
 21
1676.020454074804
 31
0.0
  0
LINE
  5
1F001
330
1EA20
100
AcDbEntity
  8
HATCH
100
AcDbLine
 10
8678.332685415366
 20
1657.589673456445
 30
0.0
 11
8690.332685415373
 21
1636.805063765606
 31
0.0
  0
LINE
  5
1F002
330
1EA20
100
AcDbEntity
  8
HATCH
100
AcDbLine
 10
8576.33268541536
 20
1636.805063765606
 30
0.0
 11
8610.973701566761
 21
1696.805063765642
 31
0.0
  0
LINE
  5
1F003
330
1EA20
100
AcDbEntity
  8
HATCH
100
AcDbLine
 10
8586.973701566746
 20
1696.805063765642
 30
0.0
 11
8598.973701566754
 21
1676.020454074804
 31
0.0
  0
LINE
  5
1F004
330
1EA20
100
AcDbEntity
  8
HATCH
100
AcDbLine
 10
8588.332685415364
 20
1657.589673456445
 30
0.0
 11
8600.332685415372
 21
1636.805063765606
 31
0.0
  0
LINE
  5
1F005
330
1EA20
100
AcDbEntity
  8
HATCH
100
AcDbLine
 10
8756.332685415356
 20
1636.805063765606
 30
0.0
 11
8790.973701566754
 21
1696.805063765642
 31
0.0
  0
LINE
  5
1F006
330
1EA20
100
AcDbEntity
  8
HATCH
100
AcDbLine
 10
8766.973701566742
 20
1696.805063765642
 30
0.0
 11
8778.973701566748
 21
1676.020454074804
 31
0.0
  0
LINE
  5
1F007
330
1EA20
100
AcDbEntity
  8
HATCH
100
AcDbLine
 10
8768.332685415362
 20
1657.589673456445
 30
0.0
 11
8780.332685415372
 21
1636.805063765606
 31
0.0
  0
LINE
  5
1F008
330
1EA20
100
AcDbEntity
  8
HATCH
100
AcDbLine
 10
8486.332685415357
 20
1636.805063765605
 30
0.0
 11
8520.973701566756
 21
1696.805063765641
 31
0.0
  0
LINE
  5
1F009
330
1EA20
100
AcDbEntity
  8
HATCH
100
AcDbLine
 10
8496.973701566743
 20
1696.805063765641
 30
0.0
 11
8508.97370156675
 21
1676.020454074803
 31
0.0
  0
LINE
  5
1F00A
330
1EA20
100
AcDbEntity
  8
HATCH
100
AcDbLine
 10
8498.332685415361
 20
1657.589673456445
 30
0.0
 11
8510.332685415368
 21
1636.805063765605
 31
0.0
  0
LINE
  5
1F00B
330
1EA20
100
AcDbEntity
  8
HATCH
100
AcDbLine
 10
8306.332685415361
 20
1636.805063765605
 30
0.0
 11
8340.973701566758
 21
1696.805063765641
 31
0.0
  0
LINE
  5
1F00C
330
1EA20
100
AcDbEntity
  8
HATCH
100
AcDbLine
 10
8316.973701566745
 20
1696.805063765641
 30
0.0
 11
8328.973701566752
 21
1676.020454074803
 31
0.0
  0
LINE
  5
1F00D
330
1EA20
100
AcDbEntity
  8
HATCH
100
AcDbLine
 10
8318.332685415366
 20
1657.589673456445
 30
0.0
 11
8330.332685415376
 21
1636.805063765605
 31
0.0
  0
LINE
  5
1F00E
330
1EA20
100
AcDbEntity
  8
HATCH
100
AcDbLine
 10
8396.332685415357
 20
1636.805063765606
 30
0.0
 11
8430.973701566756
 21
1696.805063765642
 31
0.0
  0
LINE
  5
1F00F
330
1EA20
100
AcDbEntity
  8
HATCH
100
AcDbLine
 10
8406.973701566741
 20
1696.805063765642
 30
0.0
 11
8418.973701566748
 21
1676.020454074804
 31
0.0
  0
LINE
  5
1F010
330
1EA20
100
AcDbEntity
  8
HATCH
100
AcDbLine
 10
8408.332685415365
 20
1657.589673456445
 30
0.0
 11
8420.332685415372
 21
1636.805063765606
 31
0.0
  0
LINE
  5
1F011
330
1EA20
100
AcDbEntity
  8
HATCH
100
AcDbLine
 10
8216.332685415361
 20
1636.805063765605
 30
0.0
 11
8250.973701566758
 21
1696.805063765641
 31
0.0
  0
LINE
  5
1F012
330
1EA20
100
AcDbEntity
  8
HATCH
100
AcDbLine
 10
8226.973701566747
 20
1696.805063765641
 30
0.0
 11
8238.973701566752
 21
1676.020454074803
 31
0.0
  0
LINE
  5
1F013
330
1EA20
100
AcDbEntity
  8
HATCH
100
AcDbLine
 10
8228.332685415365
 20
1657.589673456445
 30
0.0
 11
8240.332685415372
 21
1636.805063765605
 31
0.0
  0
LINE
  5
1F014
330
1EA20
100
AcDbEntity
  8
HATCH
100
AcDbLine
 10
8036.332685415358
 20
1636.805063765605
 30
0.0
 11
8070.973701566758
 21
1696.805063765641
 31
0.0
  0
LINE
  5
1F015
330
1EA20
100
AcDbEntity
  8
HATCH
100
AcDbLine
 10
8046.973701566747
 20
1696.805063765641
 30
0.0
 11
8058.973701566754
 21
1676.020454074803
 31
0.0
  0
LINE
  5
1F016
330
1EA20
100
AcDbEntity
  8
HATCH
100
AcDbLine
 10
8048.332685415367
 20
1657.589673456445
 30
0.0
 11
8060.332685415373
 21
1636.805063765605
 31
0.0
  0
LINE
  5
1F017
330
1EA20
100
AcDbEntity
  8
HATCH
100
AcDbLine
 10
8126.332685415363
 20
1636.805063765605
 30
0.0
 11
8160.973701566758
 21
1696.805063765641
 31
0.0
  0
LINE
  5
1F018
330
1EA20
100
AcDbEntity
  8
HATCH
100
AcDbLine
 10
8136.973701566741
 20
1696.805063765641
 30
0.0
 11
8148.973701566751
 21
1676.020454074803
 31
0.0
  0
LINE
  5
1F019
330
1EA20
100
AcDbEntity
  8
HATCH
100
AcDbLine
 10
8138.33268541537
 20
1657.589673456445
 30
0.0
 11
8150.332685415374
 21
1636.805063765605
 31
0.0
  0
LINE
  5
1F01A
330
1EA20
100
AcDbEntity
  8
HATCH
100
AcDbLine
 10
7946.332685415363
 20
1636.805063765605
 30
0.0
 11
7980.973701566762
 21
1696.805063765641
 31
0.0
  0
LINE
  5
1F01B
330
1EA20
100
AcDbEntity
  8
HATCH
100
AcDbLine
 10
7956.97370156675
 20
1696.805063765641
 30
0.0
 11
7968.973701566754
 21
1676.020454074803
 31
0.0
  0
LINE
  5
1F01C
330
1EA20
100
AcDbEntity
  8
HATCH
100
AcDbLine
 10
7958.332685415371
 20
1657.589673456445
 30
0.0
 11
7970.332685415378
 21
1636.805063765605
 31
0.0
  0
LINE
  5
1F01D
330
1EA20
100
AcDbEntity
  8
HATCH
100
AcDbLine
 10
7180.973701566738
 20
1636.805063765603
 30
0.0
 11
7215.614717718134
 21
1696.80506376564
 31
0.0
  0
LINE
  5
1F01E
330
1EA20
100
AcDbEntity
  8
HATCH
100
AcDbLine
 10
7191.614717718121
 20
1696.805063765639
 30
0.0
 11
7203.614717718129
 21
1676.020454074802
 31
0.0
  0
LINE
  5
1F01F
330
1EA20
100
AcDbEntity
  8
HATCH
100
AcDbLine
 10
7192.973701566746
 20
1657.589673456443
 30
0.0
 11
7204.973701566753
 21
1636.805063765603
 31
0.0
  0
LINE
  5
1F020
330
1EA20
100
AcDbEntity
  8
HATCH
100
AcDbLine
 10
7090.973701566738
 20
1636.805063765603
 30
0.0
 11
7125.614717718136
 21
1696.80506376564
 31
0.0
  0
LINE
  5
1F021
330
1EA20
100
AcDbEntity
  8
HATCH
100
AcDbLine
 10
7101.614717718122
 20
1696.805063765639
 30
0.0
 11
7113.61471771813
 21
1676.020454074802
 31
0.0
  0
LINE
  5
1F022
330
1EA20
100
AcDbEntity
  8
HATCH
100
AcDbLine
 10
7102.973701566746
 20
1657.589673456443
 30
0.0
 11
7114.973701566754
 21
1636.805063765603
 31
0.0
  0
LINE
  5
1F023
330
1EA20
100
AcDbEntity
  8
HATCH
100
AcDbLine
 10
7000.973701566739
 20
1636.805063765603
 30
0.0
 11
7035.614717718138
 21
1696.80506376564
 31
0.0
  0
LINE
  5
1F024
330
1EA20
100
AcDbEntity
  8
HATCH
100
AcDbLine
 10
7011.614717718123
 20
1696.805063765639
 30
0.0
 11
7023.614717718128
 21
1676.020454074802
 31
0.0
  0
LINE
  5
1F025
330
1EA20
100
AcDbEntity
  8
HATCH
100
AcDbLine
 10
7012.973701566746
 20
1657.589673456443
 30
0.0
 11
7024.973701566752
 21
1636.805063765603
 31
0.0
  0
LINE
  5
1F026
330
1EA20
100
AcDbEntity
  8
HATCH
100
AcDbLine
 10
6820.973701566739
 20
1636.805063765603
 30
0.0
 11
6855.614717718139
 21
1696.80506376564
 31
0.0
  0
LINE
  5
1F027
330
1EA20
100
AcDbEntity
  8
HATCH
100
AcDbLine
 10
6831.614717718124
 20
1696.805063765639
 30
0.0
 11
6843.614717718129
 21
1676.020454074802
 31
0.0
  0
LINE
  5
1F028
330
1EA20
100
AcDbEntity
  8
HATCH
100
AcDbLine
 10
6832.973701566746
 20
1657.589673456443
 30
0.0
 11
6844.973701566752
 21
1636.805063765603
 31
0.0
  0
LINE
  5
1F029
330
1EA20
100
AcDbEntity
  8
HATCH
100
AcDbLine
 10
6910.973701566738
 20
1636.805063765603
 30
0.0
 11
6945.614717718136
 21
1696.80506376564
 31
0.0
  0
LINE
  5
1F02A
330
1EA20
100
AcDbEntity
  8
HATCH
100
AcDbLine
 10
6921.614717718123
 20
1696.805063765639
 30
0.0
 11
6933.614717718127
 21
1676.020454074802
 31
0.0
  0
LINE
  5
1F02B
330
1EA20
100
AcDbEntity
  8
HATCH
100
AcDbLine
 10
6922.973701566746
 20
1657.589673456443
 30
0.0
 11
6934.973701566753
 21
1636.805063765603
 31
0.0
  0
LINE
  5
1F02C
330
1EA20
100
AcDbEntity
  8
HATCH
100
AcDbLine
 10
6730.973701566738
 20
1636.805063765603
 30
0.0
 11
6765.614717718135
 21
1696.80506376564
 31
0.0
  0
LINE
  5
1F02D
330
1EA20
100
AcDbEntity
  8
HATCH
100
AcDbLine
 10
6741.614717718121
 20
1696.805063765639
 30
0.0
 11
6753.614717718128
 21
1676.020454074802
 31
0.0
  0
LINE
  5
1F02E
330
1EA20
100
AcDbEntity
  8
HATCH
100
AcDbLine
 10
6742.973701566746
 20
1657.589673456443
 30
0.0
 11
6754.973701566753
 21
1636.805063765603
 31
0.0
  0
LINE
  5
1F02F
330
1EA20
100
AcDbEntity
  8
HATCH
100
AcDbLine
 10
6640.973701566736
 20
1636.805063765603
 30
0.0
 11
6675.614717718135
 21
1696.80506376564
 31
0.0
  0
LINE
  5
1F030
330
1EA20
100
AcDbEntity
  8
HATCH
100
AcDbLine
 10
6651.614717718119
 20
1696.805063765639
 30
0.0
 11
6663.614717718127
 21
1676.020454074802
 31
0.0
  0
LINE
  5
1F031
330
1EA20
100
AcDbEntity
  8
HATCH
100
AcDbLine
 10
6652.973701566743
 20
1657.589673456443
 30
0.0
 11
6664.973701566751
 21
1636.805063765603
 31
0.0
  0
LINE
  5
1F032
330
1EA20
100
AcDbEntity
  8
HATCH
100
AcDbLine
 10
6460.973701566736
 20
1636.805063765603
 30
0.0
 11
6495.614717718135
 21
1696.80506376564
 31
0.0
  0
LINE
  5
1F033
330
1EA20
100
AcDbEntity
  8
HATCH
100
AcDbLine
 10
6471.61471771812
 20
1696.805063765639
 30
0.0
 11
6483.614717718127
 21
1676.020454074802
 31
0.0
  0
LINE
  5
1F034
330
1EA20
100
AcDbEntity
  8
HATCH
100
AcDbLine
 10
6472.973701566743
 20
1657.589673456443
 30
0.0
 11
6484.97370156675
 21
1636.805063765603
 31
0.0
  0
LINE
  5
1F035
330
1EA20
100
AcDbEntity
  8
HATCH
100
AcDbLine
 10
6370.973701566738
 20
1636.805063765603
 30
0.0
 11
6405.614717718139
 21
1696.80506376564
 31
0.0
  0
LINE
  5
1F036
330
1EA20
100
AcDbEntity
  8
HATCH
100
AcDbLine
 10
6381.614717718123
 20
1696.805063765639
 30
0.0
 11
6393.614717718128
 21
1676.020454074802
 31
0.0
  0
LINE
  5
1F037
330
1EA20
100
AcDbEntity
  8
HATCH
100
AcDbLine
 10
6382.973701566746
 20
1657.589673456443
 30
0.0
 11
6394.973701566751
 21
1636.805063765603
 31
0.0
  0
LINE
  5
1F038
330
1EA20
100
AcDbEntity
  8
HATCH
100
AcDbLine
 10
6190.973701566738
 20
1636.805063765603
 30
0.0
 11
6225.614717718138
 21
1696.80506376564
 31
0.0
  0
LINE
  5
1F039
330
1EA20
100
AcDbEntity
  8
HATCH
100
AcDbLine
 10
6201.614717718123
 20
1696.805063765639
 30
0.0
 11
6213.61471771813
 21
1676.020454074802
 31
0.0
  0
LINE
  5
1F03A
330
1EA20
100
AcDbEntity
  8
HATCH
100
AcDbLine
 10
6202.973701566746
 20
1657.589673456443
 30
0.0
 11
6214.973701566751
 21
1636.805063765603
 31
0.0
  0
LINE
  5
1F03B
330
1EA20
100
AcDbEntity
  8
HATCH
100
AcDbLine
 10
6280.973701566738
 20
1636.805063765603
 30
0.0
 11
6315.614717718138
 21
1696.80506376564
 31
0.0
  0
LINE
  5
1F03C
330
1EA20
100
AcDbEntity
  8
HATCH
100
AcDbLine
 10
6291.614717718123
 20
1696.805063765639
 30
0.0
 11
6303.614717718128
 21
1676.020454074802
 31
0.0
  0
LINE
  5
1F03D
330
1EA20
100
AcDbEntity
  8
HATCH
100
AcDbLine
 10
6292.973701566746
 20
1657.589673456443
 30
0.0
 11
6304.973701566751
 21
1636.805063765603
 31
0.0
  0
LINE
  5
1F03E
330
1EA20
100
AcDbEntity
  8
HATCH
100
AcDbLine
 10
6550.973701566738
 20
1636.805063765603
 30
0.0
 11
6585.614717718138
 21
1696.80506376564
 31
0.0
  0
LINE
  5
1F03F
330
1EA20
100
AcDbEntity
  8
HATCH
100
AcDbLine
 10
6561.61471771812
 20
1696.805063765639
 30
0.0
 11
6573.614717718128
 21
1676.020454074802
 31
0.0
  0
LINE
  5
1F040
330
1EA20
100
AcDbEntity
  8
HATCH
100
AcDbLine
 10
6562.973701566746
 20
1657.589673456443
 30
0.0
 11
6574.973701566752
 21
1636.805063765603
 31
0.0
  0
CIRCLE
  5
1F041
330
1EA20
100
AcDbEntity
  8
HATCH
100
AcDbCircle
 10
1768.097304678591
 20
5502.014820159624
 30
0.0
 40
5.0
  0
CIRCLE
  5
1F042
330
1EA20
100
AcDbEntity
  8
HATCH
100
AcDbCircle
 10
1918.097304678592
 20
5502.014820159624
 30
0.0
 40
5.0
  0
CIRCLE
  5
1F043
330
1EA20
100
AcDbEntity
  8
HATCH
100
AcDbCircle
 10
2218.097304678592
 20
5502.014820159624
 30
0.0
 40
5.0
  0
CIRCLE
  5
1F044
330
1EA20
100
AcDbEntity
  8
HATCH
100
AcDbCircle
 10
2068.097304678592
 20
5502.014820159624
 30
0.0
 40
5.0
  0
CIRCLE
  5
1F045
330
1EA20
100
AcDbEntity
  8
HATCH
100
AcDbCircle
 10
2518.097304678593
 20
5502.014820159624
 30
0.0
 40
5.0
  0
CIRCLE
  5
1F046
330
1EA20
100
AcDbEntity
  8
HATCH
100
AcDbCircle
 10
2368.097304678592
 20
5502.014820159624
 30
0.0
 40
5.0
  0
CIRCLE
  5
1F047
330
1EA20
100
AcDbEntity
  8
HATCH
100
AcDbCircle
 10
2818.097304678592
 20
5502.014820159624
 30
0.0
 40
5.0
  0
CIRCLE
  5
1F048
330
1EA20
100
AcDbEntity
  8
HATCH
100
AcDbCircle
 10
2668.097304678592
 20
5502.014820159624
 30
0.0
 40
5.0
  0
CIRCLE
  5
1F049
330
1EA20
100
AcDbEntity
  8
HATCH
100
AcDbCircle
 10
2968.097304678592
 20
5502.014820159624
 30
0.0
 40
5.0
  0
CIRCLE
  5
1F04A
330
1EA20
100
AcDbEntity
  8
HATCH
100
AcDbCircle
 10
3118.097304678592
 20
5502.014820159624
 30
0.0
 40
5.0
  0
CIRCLE
  5
1F04B
330
1EA20
100
AcDbEntity
  8
HATCH
100
AcDbCircle
 10
3268.097304678593
 20
5502.014820159624
 30
0.0
 40
5.0
  0
CIRCLE
  5
1F04C
330
1EA20
100
AcDbEntity
  8
HATCH
100
AcDbCircle
 10
3418.097304678592
 20
5502.014820159624
 30
0.0
 40
5.0
  0
CIRCLE
  5
1F04D
330
1EA20
100
AcDbEntity
  8
HATCH
100
AcDbCircle
 10
3568.097304678592
 20
5502.014820159624
 30
0.0
 40
5.0
  0
CIRCLE
  5
1F04E
330
1EA20
100
AcDbEntity
  8
HATCH
100
AcDbCircle
 10
3718.097304678592
 20
5502.014820159624
 30
0.0
 40
5.0
  0
CIRCLE
  5
1F04F
330
1EA20
100
AcDbEntity
  8
HATCH
100
AcDbCircle
 10
3868.097304678592
 20
5502.014820159624
 30
0.0
 40
5.0
  0
CIRCLE
  5
1F050
330
1EA20
100
AcDbEntity
  8
HATCH
100
AcDbCircle
 10
4018.097304678592
 20
5502.014820159624
 30
0.0
 40
5.0
  0
CIRCLE
  5
1F051
330
1EA20
100
AcDbEntity
  8
HATCH
100
AcDbCircle
 10
4168.097304678592
 20
5502.014820159624
 30
0.0
 40
5.0
  0
CIRCLE
  5
1F052
330
1EA20
100
AcDbEntity
  8
HATCH
100
AcDbCircle
 10
4468.097304678592
 20
5502.014820159624
 30
0.0
 40
5.0
  0
CIRCLE
  5
1F053
330
1EA20
100
AcDbEntity
  8
HATCH
100
AcDbCircle
 10
4618.097304678592
 20
5502.014820159624
 30
0.0
 40
5.0
  0
CIRCLE
  5
1F054
330
1EA20
100
AcDbEntity
  8
HATCH
100
AcDbCircle
 10
4768.097304678589
 20
5502.014820159624
 30
0.0
 40
5.0
  0
CIRCLE
  5
1F055
330
1EA20
100
AcDbEntity
  8
HATCH
100
AcDbCircle
 10
4918.097304678592
 20
5502.014820159624
 30
0.0
 40
5.0
  0
CIRCLE
  5
1F056
330
1EA20
100
AcDbEntity
  8
HATCH
100
AcDbCircle
 10
5218.097304678592
 20
5502.014820159624
 30
0.0
 40
5.0
  0
CIRCLE
  5
1F057
330
1EA20
100
AcDbEntity
  8
HATCH
100
AcDbCircle
 10
5068.097304678592
 20
5502.014820159624
 30
0.0
 40
5.0
  0
CIRCLE
  5
1F058
330
1EA20
100
AcDbEntity
  8
HATCH
100
AcDbCircle
 10
5368.097304678592
 20
5502.014820159624
 30
0.0
 40
5.0
  0
CIRCLE
  5
1F059
330
1EA20
100
AcDbEntity
  8
HATCH
100
AcDbCircle
 10
5518.09730467859
 20
5502.014820159624
 30
0.0
 40
5.0
  0
CIRCLE
  5
1F05A
330
1EA20
100
AcDbEntity
  8
HATCH
100
AcDbCircle
 10
5668.097304678592
 20
5502.014820159624
 30
0.0
 40
5.0
  0
CIRCLE
  5
1F05B
330
1EA20
100
AcDbEntity
  8
HATCH
100
AcDbCircle
 10
5968.097304678592
 20
5502.014820159624
 30
0.0
 40
5.0
  0
CIRCLE
  5
1F05C
330
1EA20
100
AcDbEntity
  8
HATCH
100
AcDbCircle
 10
6118.097304678592
 20
5502.014820159624
 30
0.0
 40
5.0
  0
CIRCLE
  5
1F05D
330
1EA20
100
AcDbEntity
  8
HATCH
100
AcDbCircle
 10
5818.097304678592
 20
5502.014820159624
 30
0.0
 40
5.0
  0
CIRCLE
  5
1F05E
330
1EA20
100
AcDbEntity
  8
HATCH
100
AcDbCircle
 10
4318.097304678592
 20
5502.014820159624
 30
0.0
 40
5.0
  0
CIRCLE
  5
1F05F
330
1EA20
100
AcDbEntity
  8
HATCH
100
AcDbCircle
 10
10683.34041118625
 20
5502.014820159624
 30
0.0
 40
5.0
  0
CIRCLE
  5
1F060
330
1EA20
100
AcDbEntity
  8
HATCH
100
AcDbCircle
 10
10533.34041118626
 20
5502.014820159624
 30
0.0
 40
5.0
  0
CIRCLE
  5
1F061
330
1EA20
100
AcDbEntity
  8
HATCH
100
AcDbCircle
 10
10383.34041118626
 20
5502.014820159624
 30
0.0
 40
5.0
  0
CIRCLE
  5
1F062
330
1EA20
100
AcDbEntity
  8
HATCH
100
AcDbCircle
 10
10233.34041118626
 20
5502.014820159624
 30
0.0
 40
5.0
  0
CIRCLE
  5
1F063
330
1EA20
100
AcDbEntity
  8
HATCH
100
AcDbCircle
 10
10083.34041118626
 20
5502.014820159624
 30
0.0
 40
5.0
  0
CIRCLE
  5
1F064
330
1EA20
100
AcDbEntity
  8
HATCH
100
AcDbCircle
 10
9933.340411186259
 20
5502.014820159624
 30
0.0
 40
5.0
  0
CIRCLE
  5
1F065
330
1EA20
100
AcDbEntity
  8
HATCH
100
AcDbCircle
 10
9783.340411186264
 20
5502.014820159624
 30
0.0
 40
5.0
  0
CIRCLE
  5
1F066
330
1EA20
100
AcDbEntity
  8
HATCH
100
AcDbCircle
 10
9633.340411186264
 20
5502.014820159624
 30
0.0
 40
5.0
  0
CIRCLE
  5
1F067
330
1EA20
100
AcDbEntity
  8
HATCH
100
AcDbCircle
 10
9483.340411186263
 20
5502.014820159624
 30
0.0
 40
5.0
  0
CIRCLE
  5
1F068
330
1EA20
100
AcDbEntity
  8
HATCH
100
AcDbCircle
 10
9333.340411186263
 20
5502.014820159624
 30
0.0
 40
5.0
  0
CIRCLE
  5
1F069
330
1EA20
100
AcDbEntity
  8
HATCH
100
AcDbCircle
 10
9183.340411186263
 20
5502.014820159624
 30
0.0
 40
5.0
  0
CIRCLE
  5
1F06A
330
1EA20
100
AcDbEntity
  8
HATCH
100
AcDbCircle
 10
9033.340411186264
 20
5502.014820159624
 30
0.0
 40
5.0
  0
CIRCLE
  5
1F06B
330
1EA20
100
AcDbEntity
  8
HATCH
100
AcDbCircle
 10
8883.340411186265
 20
5502.014820159624
 30
0.0
 40
5.0
  0
CIRCLE
  5
1F06C
330
1EA20
100
AcDbEntity
  8
HATCH
100
AcDbCircle
 10
8733.340411186262
 20
5502.014820159624
 30
0.0
 40
5.0
  0
CIRCLE
  5
1F06D
330
1EA20
100
AcDbEntity
  8
HATCH
100
AcDbCircle
 10
8583.340411186268
 20
5502.014820159624
 30
0.0
 40
5.0
  0
CIRCLE
  5
1F06E
330
1EA20
100
AcDbEntity
  8
HATCH
100
AcDbCircle
 10
8433.340411186266
 20
5502.014820159624
 30
0.0
 40
5.0
  0
CIRCLE
  5
1F06F
330
1EA20
100
AcDbEntity
  8
HATCH
100
AcDbCircle
 10
8283.340411186266
 20
5502.014820159624
 30
0.0
 40
5.0
  0
CIRCLE
  5
1F070
330
1EA20
100
AcDbEntity
  8
HATCH
100
AcDbCircle
 10
8133.340411186264
 20
5502.014820159624
 30
0.0
 40
5.0
  0
CIRCLE
  5
1F071
330
1EA20
100
AcDbEntity
  8
HATCH
100
AcDbCircle
 10
7983.340411186266
 20
5502.014820159624
 30
0.0
 40
5.0
  0
CIRCLE
  5
1F072
330
1EA20
100
AcDbEntity
  8
HATCH
100
AcDbCircle
 10
7833.340411186267
 20
5502.014820159624
 30
0.0
 40
5.0
  0
CIRCLE
  5
1F073
330
1EA20
100
AcDbEntity
  8
HATCH
100
AcDbCircle
 10
7683.340411186266
 20
5502.014820159624
 30
0.0
 40
5.0
  0
CIRCLE
  5
1F074
330
1EA20
100
AcDbEntity
  8
HATCH
100
AcDbCircle
 10
7533.340411186269
 20
5502.014820159624
 30
0.0
 40
5.0
  0
CIRCLE
  5
1F075
330
1EA20
100
AcDbEntity
  8
HATCH
100
AcDbCircle
 10
7383.340411186267
 20
5502.014820159624
 30
0.0
 40
5.0
  0
CIRCLE
  5
1F076
330
1EA20
100
AcDbEntity
  8
HATCH
100
AcDbCircle
 10
7233.340411186266
 20
5502.014820159624
 30
0.0
 40
5.0
  0
CIRCLE
  5
1F077
330
1EA20
100
AcDbEntity
  8
HATCH
100
AcDbCircle
 10
7083.340411186267
 20
5502.014820159624
 30
0.0
 40
5.0
  0
CIRCLE
  5
1F078
330
1EA20
100
AcDbEntity
  8
HATCH
100
AcDbCircle
 10
6933.340411186266
 20
5502.014820159624
 30
0.0
 40
5.0
  0
CIRCLE
  5
1F079
330
1EA20
100
AcDbEntity
  8
HATCH
100
AcDbCircle
 10
6783.340411186268
 20
5502.014820159624
 30
0.0
 40
5.0
  0
CIRCLE
  5
1F07A
330
1EA20
100
AcDbEntity
  8
HATCH
100
AcDbCircle
 10
6633.340411186267
 20
5502.014820159624
 30
0.0
 40
5.0
  0
CIRCLE
  5
1F07B
330
1EA20
100
AcDbEntity
  8
HATCH
100
AcDbCircle
 10
6483.340411186266
 20
5502.014820159624
 30
0.0
 40
5.0
  0
CIRCLE
  5
1F07C
330
1EA20
100
AcDbEntity
  8
HATCH
100
AcDbCircle
 10
6333.340411186267
 20
5502.014820159624
 30
0.0
 40
5.0
  0
CIRCLE
  5
1F07D
330
1EA20
100
AcDbEntity
  8
HATCH
100
AcDbCircle
 10
3970.028708553926
 20
1761.805063765603
 30
0.0
 40
5.0
  0
CIRCLE
  5
1F07E
330
1EA20
100
AcDbEntity
  8
HATCH
100
AcDbCircle
 10
3820.028708553927
 20
1761.805063765603
 30
0.0
 40
5.0
  0
CIRCLE
  5
1F07F
330
1EA20
100
AcDbEntity
  8
HATCH
100
AcDbCircle
 10
3670.028708553926
 20
1761.805063765603
 30
0.0
 40
5.0
  0
CIRCLE
  5
1F080
330
1EA20
100
AcDbEntity
  8
HATCH
100
AcDbCircle
 10
3520.028708553927
 20
1761.805063765603
 30
0.0
 40
5.0
  0
CIRCLE
  5
1F081
330
1EA20
100
AcDbEntity
  8
HATCH
100
AcDbCircle
 10
3370.028708553927
 20
1761.805063765603
 30
0.0
 40
5.0
  0
CIRCLE
  5
1F082
330
1EA20
100
AcDbEntity
  8
HATCH
100
AcDbCircle
 10
3220.028708553927
 20
1761.805063765603
 30
0.0
 40
5.0
  0
CIRCLE
  5
1F083
330
1EA20
100
AcDbEntity
  8
HATCH
100
AcDbCircle
 10
3070.028708553927
 20
1761.805063765603
 30
0.0
 40
5.0
  0
CIRCLE
  5
1F084
330
1EA20
100
AcDbEntity
  8
HATCH
100
AcDbCircle
 10
2920.028708553927
 20
1761.805063765603
 30
0.0
 40
5.0
  0
CIRCLE
  5
1F085
330
1EA20
100
AcDbEntity
  8
HATCH
100
AcDbCircle
 10
2770.028708553927
 20
1761.805063765603
 30
0.0
 40
5.0
  0
CIRCLE
  5
1F086
330
1EA20
100
AcDbEntity
  8
HATCH
100
AcDbCircle
 10
2620.028708553927
 20
1761.805063765603
 30
0.0
 40
5.0
  0
CIRCLE
  5
1F087
330
1EA20
100
AcDbEntity
  8
HATCH
100
AcDbCircle
 10
2470.028708553927
 20
1761.805063765603
 30
0.0
 40
5.0
  0
CIRCLE
  5
1F088
330
1EA20
100
AcDbEntity
  8
HATCH
100
AcDbCircle
 10
2320.028708553927
 20
1761.805063765603
 30
0.0
 40
5.0
  0
CIRCLE
  5
1F089
330
1EA20
100
AcDbEntity
  8
HATCH
100
AcDbCircle
 10
2170.028708553926
 20
1761.805063765603
 30
0.0
 40
5.0
  0
CIRCLE
  5
1F08A
330
1EA20
100
AcDbEntity
  8
HATCH
100
AcDbCircle
 10
2020.028708553926
 20
1761.805063765603
 30
0.0
 40
5.0
  0
CIRCLE
  5
1F08B
330
1EA20
100
AcDbEntity
  8
HATCH
100
AcDbCircle
 10
1870.028708553926
 20
1761.805063765603
 30
0.0
 40
5.0
  0
CIRCLE
  5
1F08C
330
1EA20
100
AcDbEntity
  8
HATCH
100
AcDbCircle
 10
1720.028708553925
 20
1761.805063765603
 30
0.0
 40
5.0
  0
CIRCLE
  5
1F08D
330
1EA20
100
AcDbEntity
  8
HATCH
100
AcDbCircle
 10
1570.028708553926
 20
1761.805063765603
 30
0.0
 40
5.0
  0
CIRCLE
  5
1F08E
330
1EA20
100
AcDbEntity
  8
HATCH
100
AcDbCircle
 10
1420.028708553926
 20
1761.805063765603
 30
0.0
 40
5.0
  0
LINE
  5
1F08F
330
1EA20
100
AcDbEntity
  8
MOYA_KANGU
100
AcDbLine
 10
8154.687584010947
 20
3826.92507154057
 30
0.0
 11
8157.99330992297
 21
3892.842233010059
 31
0.0
  0
LINE
  5
1F090
330
1EA20
100
AcDbEntity
  8
MOYA_KANGU
100
AcDbLine
 10
8157.99330992297
 20
3892.842233010059
 30
0.0
 11
8155.696196720247
 21
3892.957432549415
 31
0.0
  0
LINE
  5
1F091
330
1EA20
100
AcDbEntity
  8
MOYA_KANGU
100
AcDbLine
 10
8155.696196720247
 20
3892.957432549415
 30
0.0
 11
8152.390470808221
 21
3827.040271079929
 31
0.0
  0
ARC
  5
1F092
330
1EA20
100
AcDbEntity
  8
MOYA_KANGU
100
AcDbCircle
 10
8156.385450291223
 20
3826.83992405496
 30
0.0
 40
4.000000000000617
100
AcDbArc
 50
177.129039014897
 51
267.1290390148972
  0
LINE
  5
1F093
330
1EA20
100
AcDbEntity
  8
MOYA_KANGU
100
AcDbLine
 10
8156.185103266253
 20
3822.84494457196
 30
0.0
 11
8242.07716215074
 21
3818.537483535081
 31
0.0
  0
LINE
  5
1F094
330
1EA20
100
AcDbEntity
  8
MOYA_KANGU
100
AcDbLine
 10
8242.07716215074
 20
3818.537483535081
 30
0.0
 11
8242.192361690097
 21
3820.834596737807
 31
0.0
  0
LINE
  5
1F095
330
1EA20
100
AcDbEntity
  8
MOYA_KANGU
100
AcDbLine
 10
8242.192361690097
 20
3820.834596737807
 30
0.0
 11
8156.300302805611
 21
3825.142057774685
 31
0.0
  0
ARC
  5
1F096
330
1EA20
100
AcDbEntity
  8
MOYA_KANGU
100
AcDbCircle
 10
8156.385450291223
 20
3826.839924054959
 30
0.0
 40
1.699999999999211
100
AcDbArc
 50
177.1290390149145
 51
267.1290390149144
  0
LINE
  5
1F097
330
1EA20
100
AcDbEntity
  8
HARI
100
AcDbLine
 10
7642.569340030274
 20
3773.508368327656
 30
0.0
 11
8149.286067050537
 21
3748.096676179147
 31
0.0
  0
LINE
  5
1F098
330
1EA20
100
AcDbEntity
  8
MOYA
100
AcDbLine
 10
8156.265242076214
 20
3824.442936365159
 30
0.0
 11
8181.034114870806
 21
3823.200784810325
 31
0.0
  0
ARC
  5
1F099
330
1EA20
100
AcDbEntity
  8
MOYA
100
AcDbCircle
 10
8181.23446189578
 20
3827.195764293326
 30
0.0
 40
4.000000000000708
100
AcDbArc
 50
267.1290390148711
 51
357.1290390148712
  0
LINE
  5
1F09A
330
1EA20
100
AcDbEntity
  8
MOYA
100
AcDbLine
 10
8185.229441378778
 20
3826.995417268353
 30
0.0
 11
8185.700256887468
 21
3836.3836190534
 31
0.0
  0
LINE
  5
1F09B
330
1EA20
100
AcDbEntity
  8
MOYA
100
AcDbLine
 10
8185.700256887468
 20
3836.3836190534
 30
0.0
 11
8187.298248680665
 21
3836.303480243412
 31
0.0
  0
LINE
  5
1F09C
330
1EA20
100
AcDbEntity
  8
MOYA
100
AcDbLine
 10
8187.298248680665
 20
3836.303480243412
 30
0.0
 11
8186.827433171982
 21
3826.915278458364
 31
0.0
  0
ARC
  5
1F09D
330
1EA20
100
AcDbEntity
  8
MOYA
100
AcDbCircle
 10
8181.23446189578
 20
3827.195764293327
 30
0.0
 40
5.600000000002001
100
AcDbArc
 50
267.1290390148511
 51
357.1290390148512
  0
LINE
  5
1F09E
330
1EA20
100
AcDbEntity
  8
MOYA
100
AcDbLine
 10
8180.953976060818
 20
3821.602793017126
 30
0.0
 11
8156.185103266221
 21
3822.844944571958
 31
0.0
  0
ARC
  5
1F09F
330
1EA20
100
AcDbEntity
  8
MOYA
100
AcDbCircle
 10
8156.465589101186
 20
3828.437915848157
 30
0.0
 40
5.600000000001047
100
AcDbArc
 50
177.12903901486
 51
267.12903901486
  0
LINE
  5
1F0A0
330
1EA20
100
AcDbEntity
  8
MOYA
100
AcDbLine
 10
8150.872617824985
 20
3828.71840168312
 30
0.0
 11
8154.068152873305
 21
3892.438324436954
 31
0.0
  0
ARC
  5
1F0A1
330
1EA20
100
AcDbEntity
  8
MOYA
100
AcDbCircle
 10
8159.661124149506
 20
3892.157838601993
 30
0.0
 40
5.600000000002863
100
AcDbArc
 50
87.1290390148609
 51
177.1290390148608
  0
LINE
  5
1F0A2
330
1EA20
100
AcDbEntity
  8
MOYA
100
AcDbLine
 10
8159.941609984468
 20
3897.750809878195
 30
0.0
 11
8184.710482779058
 21
3896.508658323362
 31
0.0
  0
ARC
  5
1F0A3
330
1EA20
100
AcDbEntity
  8
MOYA
100
AcDbCircle
 10
8184.429996944098
 20
3890.915687047161
 30
0.0
 40
5.600000000002001
100
AcDbArc
 50
357.1290390148512
 51
87.12903901485118
  0
LINE
  5
1F0A4
330
1EA20
100
AcDbEntity
  8
MOYA
100
AcDbLine
 10
8190.022968220299
 20
3890.635201212199
 30
0.0
 11
8189.552152711611
 21
3881.24699942715
 31
0.0
  0
LINE
  5
1F0A5
330
1EA20
100
AcDbEntity
  8
MOYA
100
AcDbLine
 10
8189.552152711611
 20
3881.24699942715
 30
0.0
 11
8187.954160918408
 21
3881.327138237143
 31
0.0
  0
LINE
  5
1F0A6
330
1EA20
100
AcDbEntity
  8
MOYA
100
AcDbLine
 10
8187.954160918408
 20
3881.327138237143
 30
0.0
 11
8188.424976427098
 21
3890.715340022188
 31
0.0
  0
ARC
  5
1F0A7
330
1EA20
100
AcDbEntity
  8
MOYA
100
AcDbCircle
 10
8184.429996944095
 20
3890.915687047162
 30
0.0
 40
4.0000000000008
100
AcDbArc
 50
357.1290390148451
 51
87.12903901484512
  0
LINE
  5
1F0A8
330
1EA20
100
AcDbEntity
  8
MOYA
100
AcDbLine
 10
8184.630343969072
 20
3894.910666530162
 30
0.0
 11
8159.861471174474
 21
3896.152818084993
 31
0.0
  0
ARC
  5
1F0A9
330
1EA20
100
AcDbEntity
  8
MOYA
100
AcDbCircle
 10
8159.661124149501
 20
3892.157838601993
 30
0.0
 40
3.999999999999845
100
AcDbArc
 50
87.12903901485747
 51
177.1290390148575
  0
LINE
  5
1F0AA
330
1EA20
100
AcDbEntity
  8
MOYA
100
AcDbLine
 10
8155.666144666502
 20
3892.358185626966
 30
0.0
 11
8152.470609618182
 21
3828.638262873129
 31
0.0
  0
ARC
  5
1F0AB
330
1EA20
100
AcDbEntity
  8
MOYA
100
AcDbCircle
 10
8156.465589101184
 20
3828.437915848159
 30
0.0
 40
4.000000000001572
100
AcDbArc
 50
177.1290390148847
 51
267.1290390148847
  0
LINE
  5
1F0AC
330
1EA20
100
AcDbEntity
  8
MOYA_KANGU
100
AcDbLine
 10
7565.428110268553
 20
3856.476257723804
 30
0.0
 11
7568.733836180578
 21
3922.39341919329
 31
0.0
  0
LINE
  5
1F0AD
330
1EA20
100
AcDbEntity
  8
MOYA_KANGU
100
AcDbLine
 10
7568.733836180578
 20
3922.39341919329
 30
0.0
 11
7566.436722977852
 21
3922.50861873265
 31
0.0
  0
LINE
  5
1F0AE
330
1EA20
100
AcDbEntity
  8
MOYA_KANGU
100
AcDbLine
 10
7566.436722977852
 20
3922.50861873265
 30
0.0
 11
7563.13099706583
 21
3856.591457263159
 31
0.0
  0
ARC
  5
1F0AF
330
1EA20
100
AcDbEntity
  8
MOYA_KANGU
100
AcDbCircle
 10
7567.125976548826
 20
3856.391110238188
 30
0.0
 40
3.999999999996984
100
AcDbArc
 50
177.1290390148945
 51
267.1290390148945
  0
LINE
  5
1F0B0
330
1EA20
100
AcDbEntity
  8
MOYA_KANGU
100
AcDbLine
 10
7566.925629523854
 20
3852.396130755193
 30
0.0
 11
7652.817688408339
 21
3848.088669718315
 31
0.0
  0
LINE
  5
1F0B1
330
1EA20
100
AcDbEntity
  8
MOYA_KANGU
100
AcDbLine
 10
7652.817688408339
 20
3848.088669718315
 30
0.0
 11
7652.932887947699
 21
3850.385782921037
 31
0.0
  0
LINE
  5
1F0B2
330
1EA20
100
AcDbEntity
  8
MOYA_KANGU
100
AcDbLine
 10
7652.932887947699
 20
3850.385782921037
 30
0.0
 11
7567.040829063216
 21
3854.693243957916
 31
0.0
  0
ARC
  5
1F0B3
330
1EA20
100
AcDbEntity
  8
MOYA_KANGU
100
AcDbCircle
 10
7567.125976548826
 20
3856.39111023819
 30
0.0
 40
1.700000000000166
100
AcDbArc
 50
177.1290390148855
 51
267.1290390148854
  0
LINE
  5
1F0B4
330
1EA20
100
AcDbEntity
  8
MOYA
100
AcDbLine
 10
7567.005768333818
 20
3853.994122548391
 30
0.0
 11
7591.774641128414
 21
3852.751970993558
 31
0.0
  0
ARC
  5
1F0B5
330
1EA20
100
AcDbEntity
  8
MOYA
100
AcDbCircle
 10
7591.974988153386
 20
3856.746950476558
 30
0.0
 40
3.999999999999845
100
AcDbArc
 50
267.1290390148574
 51
357.1290390148575
  0
LINE
  5
1F0B6
330
1EA20
100
AcDbEntity
  8
MOYA
100
AcDbLine
 10
7595.969967636385
 20
3856.546603451585
 30
0.0
 11
7596.440783145069
 21
3865.934805236631
 31
0.0
  0
LINE
  5
1F0B7
330
1EA20
100
AcDbEntity
  8
MOYA
100
AcDbLine
 10
7596.440783145069
 20
3865.934805236631
 30
0.0
 11
7598.038774938271
 21
3865.854666426642
 31
0.0
  0
LINE
  5
1F0B8
330
1EA20
100
AcDbEntity
  8
MOYA
100
AcDbLine
 10
7598.038774938271
 20
3865.854666426642
 30
0.0
 11
7597.567959429584
 21
3856.466464641594
 31
0.0
  0
ARC
  5
1F0B9
330
1EA20
100
AcDbEntity
  8
MOYA
100
AcDbCircle
 10
7591.974988153386
 20
3856.746950476557
 30
0.0
 40
5.599999999999232
100
AcDbArc
 50
267.129039014859
 51
357.129039014859
  0
LINE
  5
1F0BA
330
1EA20
100
AcDbEntity
  8
MOYA
100
AcDbLine
 10
7591.694502318424
 20
3851.153979200359
 30
0.0
 11
7566.925629523827
 21
3852.396130755193
 31
0.0
  0
ARC
  5
1F0BB
330
1EA20
100
AcDbEntity
  8
MOYA
100
AcDbCircle
 10
7567.206115358786
 20
3857.989102031392
 30
0.0
 40
5.600000000000093
100
AcDbArc
 50
177.1290390148688
 51
267.1290390148687
  0
LINE
  5
1F0BC
330
1EA20
100
AcDbEntity
  8
MOYA
100
AcDbLine
 10
7561.613144082589
 20
3858.269587866352
 30
0.0
 11
7564.808679130907
 21
3921.989510620189
 31
0.0
  0
ARC
  5
1F0BD
330
1EA20
100
AcDbEntity
  8
MOYA
100
AcDbCircle
 10
7570.401650407108
 20
3921.709024785225
 30
0.0
 40
5.60000000000114
100
AcDbArc
 50
87.12903901484137
 51
177.1290390148414
  0
LINE
  5
1F0BE
330
1EA20
100
AcDbEntity
  8
MOYA
100
AcDbLine
 10
7570.682136242071
 20
3927.301996061425
 30
0.0
 11
7595.451009036664
 21
3926.059844506593
 31
0.0
  0
ARC
  5
1F0BF
330
1EA20
100
AcDbEntity
  8
MOYA
100
AcDbCircle
 10
7595.170523201701
 20
3920.466873230394
 30
0.0
 40
5.600000000001047
100
AcDbArc
 50
357.1290390148599
 51
87.12903901485999
  0
LINE
  5
1F0C0
330
1EA20
100
AcDbEntity
  8
MOYA
100
AcDbLine
 10
7600.763494477902
 20
3920.186387395432
 30
0.0
 11
7600.292678969218
 21
3910.798185610385
 31
0.0
  0
LINE
  5
1F0C1
330
1EA20
100
AcDbEntity
  8
MOYA
100
AcDbLine
 10
7600.292678969218
 20
3910.798185610385
 30
0.0
 11
7598.694687176015
 21
3910.878324420373
 31
0.0
  0
LINE
  5
1F0C2
330
1EA20
100
AcDbEntity
  8
MOYA
100
AcDbLine
 10
7598.694687176015
 20
3910.878324420373
 30
0.0
 11
7599.165502684705
 21
3920.266526205422
 31
0.0
  0
ARC
  5
1F0C3
330
1EA20
100
AcDbEntity
  8
MOYA
100
AcDbCircle
 10
7595.170523201703
 20
3920.466873230393
 30
0.0
 40
4.000000000001572
100
AcDbArc
 50
357.1290390148847
 51
87.12903901488479
  0
LINE
  5
1F0C4
330
1EA20
100
AcDbEntity
  8
MOYA
100
AcDbLine
 10
7595.370870226673
 20
3924.461852713394
 30
0.0
 11
7570.601997432079
 21
3925.704004268225
 31
0.0
  0
ARC
  5
1F0C5
330
1EA20
100
AcDbEntity
  8
MOYA
100
AcDbCircle
 10
7570.401650407108
 20
3921.709024785227
 30
0.0
 40
3.999999999999845
100
AcDbArc
 50
87.12903901485747
 51
177.1290390148575
  0
LINE
  5
1F0C6
330
1EA20
100
AcDbEntity
  8
MOYA
100
AcDbLine
 10
7566.406670924108
 20
3921.9093718102
 30
0.0
 11
7563.211135875791
 21
3858.189449056363
 31
0.0
  0
ARC
  5
1F0C7
330
1EA20
100
AcDbEntity
  8
MOYA
100
AcDbCircle
 10
7567.206115358789
 20
3857.98910203139
 30
0.0
 40
3.999999999999845
100
AcDbArc
 50
177.1290390148575
 51
267.1290390148574
  0
LINE
  5
1F0C8
330
1EA20
100
AcDbEntity
  8
MOYA_KANGU
100
AcDbLine
 10
6976.16863652616
 20
3886.027443907033
 30
0.0
 11
6979.474362438186
 21
3951.944605376521
 31
0.0
  0
LINE
  5
1F0C9
330
1EA20
100
AcDbEntity
  8
MOYA_KANGU
100
AcDbLine
 10
6979.474362438186
 20
3951.944605376521
 30
0.0
 11
6977.177249235457
 21
3952.059804915881
 31
0.0
  0
LINE
  5
1F0CA
330
1EA20
100
AcDbEntity
  8
MOYA_KANGU
100
AcDbLine
 10
6977.177249235457
 20
3952.059804915881
 30
0.0
 11
6973.871523323436
 21
3886.142643446396
 31
0.0
  0
ARC
  5
1F0CB
330
1EA20
100
AcDbEntity
  8
MOYA_KANGU
100
AcDbCircle
 10
6977.866502806435
 20
3885.942296421421
 30
0.0
 40
3.999999999999845
100
AcDbArc
 50
177.1290390148575
 51
267.1290390148574
  0
LINE
  5
1F0CC
330
1EA20
100
AcDbEntity
  8
MOYA_KANGU
100
AcDbLine
 10
6977.666155781462
 20
3881.947316938424
 30
0.0
 11
7063.558214665947
 21
3877.639855901545
 31
0.0
  0
LINE
  5
1F0CD
330
1EA20
100
AcDbEntity
  8
MOYA_KANGU
100
AcDbLine
 10
7063.558214665947
 20
3877.639855901545
 30
0.0
 11
7063.673414205303
 21
3879.936969104271
 31
0.0
  0
LINE
  5
1F0CE
330
1EA20
100
AcDbEntity
  8
MOYA_KANGU
100
AcDbLine
 10
7063.673414205303
 20
3879.936969104271
 30
0.0
 11
6977.781355320821
 21
3884.244430141149
 31
0.0
  0
ARC
  5
1F0CF
330
1EA20
100
AcDbEntity
  8
MOYA_KANGU
100
AcDbCircle
 10
6977.866502806431
 20
3885.942296421421
 30
0.0
 40
1.699999999998258
100
AcDbArc
 50
177.1290390149435
 51
267.1290390149437
  0
LINE
  5
1F0D0
330
1EA20
100
AcDbEntity
  8
MOYA
100
AcDbLine
 10
6977.746294591423
 20
3883.545308731621
 30
0.0
 11
7002.515167386021
 21
3882.30315717679
 31
0.0
  0
ARC
  5
1F0D1
330
1EA20
100
AcDbEntity
  8
MOYA
100
AcDbCircle
 10
7002.715514410993
 20
3886.298136659788
 30
0.0
 40
3.999999999999845
100
AcDbArc
 50
267.1290390148574
 51
357.1290390148575
  0
LINE
  5
1F0D2
330
1EA20
100
AcDbEntity
  8
MOYA
100
AcDbLine
 10
7006.710493893992
 20
3886.097789634817
 30
0.0
 11
7007.181309402675
 21
3895.485991419863
 31
0.0
  0
LINE
  5
1F0D3
330
1EA20
100
AcDbEntity
  8
MOYA
100
AcDbLine
 10
7007.181309402675
 20
3895.485991419863
 30
0.0
 11
7008.779301195874
 21
3895.405852609876
 31
0.0
  0
LINE
  5
1F0D4
330
1EA20
100
AcDbEntity
  8
MOYA
100
AcDbLine
 10
7008.779301195874
 20
3895.405852609876
 30
0.0
 11
7008.308485687191
 21
3886.017650824827
 31
0.0
  0
ARC
  5
1F0D5
330
1EA20
100
AcDbEntity
  8
MOYA
100
AcDbCircle
 10
7002.71551441099
 20
3886.298136659791
 30
0.0
 40
5.600000000002001
100
AcDbArc
 50
267.1290390148511
 51
357.1290390148512
  0
LINE
  5
1F0D6
330
1EA20
100
AcDbEntity
  8
MOYA
100
AcDbLine
 10
7002.435028576027
 20
3880.70516538359
 30
0.0
 11
6977.666155781434
 21
3881.947316938422
 31
0.0
  0
ARC
  5
1F0D7
330
1EA20
100
AcDbEntity
  8
MOYA
100
AcDbCircle
 10
6977.946641616395
 20
3887.540288214621
 30
0.0
 40
5.600000000001047
100
AcDbArc
 50
177.12903901486
 51
267.12903901486
  0
LINE
  5
1F0D8
330
1EA20
100
AcDbEntity
  8
MOYA
100
AcDbLine
 10
6972.353670340194
 20
3887.820774049584
 30
0.0
 11
6975.549205388515
 21
3951.54069680342
 31
0.0
  0
ARC
  5
1F0D9
330
1EA20
100
AcDbEntity
  8
MOYA
100
AcDbCircle
 10
6981.142176664715
 20
3951.260210968458
 30
0.0
 40
5.600000000002001
100
AcDbArc
 50
87.12903901485118
 51
177.1290390148511
  0
LINE
  5
1F0DA
330
1EA20
100
AcDbEntity
  8
MOYA
100
AcDbLine
 10
6981.422662499678
 20
3956.853182244658
 30
0.0
 11
7006.19153529427
 21
3955.611030689825
 31
0.0
  0
ARC
  5
1F0DB
330
1EA20
100
AcDbEntity
  8
MOYA
100
AcDbCircle
 10
7005.911049459308
 20
3950.018059413626
 30
0.0
 40
5.600000000001047
100
AcDbArc
 50
357.1290390148599
 51
87.12903901485999
  0
LINE
  5
1F0DC
330
1EA20
100
AcDbEntity
  8
MOYA
100
AcDbLine
 10
7011.504020735509
 20
3949.737573578664
 30
0.0
 11
7011.033205226825
 21
3940.349371793617
 31
0.0
  0
LINE
  5
1F0DD
330
1EA20
100
AcDbEntity
  8
MOYA
100
AcDbLine
 10
7011.033205226825
 20
3940.349371793617
 30
0.0
 11
7009.435213433618
 21
3940.429510603606
 31
0.0
  0
LINE
  5
1F0DE
330
1EA20
100
AcDbEntity
  8
MOYA
100
AcDbLine
 10
7009.435213433618
 20
3940.429510603606
 30
0.0
 11
7009.906028942309
 21
3949.817712388651
 31
0.0
  0
ARC
  5
1F0DF
330
1EA20
100
AcDbEntity
  8
MOYA
100
AcDbCircle
 10
7005.911049459308
 20
3950.018059413624
 30
0.0
 40
4.000000000003478
100
AcDbArc
 50
357.1290390148601
 51
87.12903901486008
  0
LINE
  5
1F0E0
330
1EA20
100
AcDbEntity
  8
MOYA
100
AcDbLine
 10
7006.11139648428
 20
3954.013038896625
 30
0.0
 11
6981.342523689687
 21
3955.255190451456
 31
0.0
  0
ARC
  5
1F0E1
330
1EA20
100
AcDbEntity
  8
MOYA
100
AcDbCircle
 10
6981.142176664715
 20
3951.260210968458
 30
0.0
 40
3.999999999999845
100
AcDbArc
 50
87.12903901485747
 51
177.1290390148575
  0
LINE
  5
1F0E2
330
1EA20
100
AcDbEntity
  8
MOYA
100
AcDbLine
 10
6977.147197181714
 20
3951.46055799343
 30
0.0
 11
6973.951662133399
 21
3887.740635239593
 31
0.0
  0
ARC
  5
1F0E3
330
1EA20
100
AcDbEntity
  8
MOYA
100
AcDbCircle
 10
6977.946641616395
 20
3887.540288214621
 30
0.0
 40
3.999999999999845
100
AcDbArc
 50
177.1290390148575
 51
267.1290390148574
  0
LINE
  5
1F0E4
330
1EA20
100
AcDbEntity
  8
HARI
100
AcDbLine
 10
6960.925965743506
 20
3807.692579463342
 30
0.0
 11
7539.698618343044
 21
3778.66730422066
 31
0.0
  0
LINE
  5
1F0E5
330
1EA20
100
AcDbEntity
  8
HARI
100
AcDbLine
 10
8232.181891322776
 20
3743.939475410996
 30
0.0
 11
8279.269195133272
 21
3741.57806122289
 31
0.0
  0
LINE
  5
1F0E6
330
1EA20
100
AcDbEntity
  8
HARI
100
AcDbLine
 10
8279.269195133272
 20
3741.57806122289
 30
0.0
 11
8283.025701851478
 21
3816.483926529129
 31
0.0
  0
LINE
  5
1F0E7
330
1EA20
100
AcDbEntity
  8
HARI
100
AcDbLine
 10
8283.025701851478
 20
3816.483926529129
 30
0.0
 11
6964.682472461714
 21
3882.59844476958
 31
0.0
  0
LINE
  5
1F0E8
330
1EA20
100
AcDbEntity
  8
HARI
100
AcDbLine
 10
6964.682472461714
 20
3882.59844476958
 30
0.0
 11
6960.925965743506
 21
3807.692579463342
 31
0.0
  0
LINE
  5
1F0E9
330
1EA20
100
AcDbEntity
  8
HANA_JYUSHI
100
AcDbLine
 10
1790.71885793243
 20
7344.904358487092
 30
0.0
 11
1787.718857932429
 21
7344.904358487092
 31
0.0
  0
ARC
  5
1F0EA
330
1EA20
100
AcDbEntity
  8
HANA_JYUSHI
100
AcDbCircle
 10
1787.718857932429
 20
7347.904358487092
 30
0.0
 40
3.0
100
AcDbArc
 50
180.0
 51
270.0
  0
LINE
  5
1F0EB
330
1EA20
100
AcDbEntity
  8
HANA_JYUSHI
100
AcDbLine
 10
1784.718857932428
 20
7347.904358487092
 30
0.0
 11
1784.718857932428
 21
7355.43824542692
 31
0.0
  0
LINE
  5
1F0EC
330
1EA20
100
AcDbEntity
  8
HANA_JYUSHI
100
AcDbLine
 10
1784.718857932428
 20
7355.43824542692
 30
0.0
 11
1790.71885793243
 21
7355.43824542692
 31
0.0
  0
LINE
  5
1F0ED
330
1EA20
100
AcDbEntity
  8
HANA_JYUSHI
100
AcDbLine
 10
1790.71885793243
 20
7355.43824542692
 30
0.0
 11
1790.71885793243
 21
7344.904358487092
 31
0.0
  0
LINE
  5
1F0EE
330
1EA20
100
AcDbEntity
  8
U1
100
AcDbLine
 10
1790.71885793243
 20
7631.224570365005
 30
0.0
 11
1784.718857932428
 21
7631.224570365005
 31
0.0
  0
LINE
  5
1F0EF
330
1EA20
100
AcDbEntity
  8
U1
100
AcDbLine
 10
1784.718857932428
 20
7631.224570365005
 30
0.0
 11
1784.718857932428
 21
7355.43824542692
 31
0.0
  0
LINE
  5
1F0F0
330
1EA20
100
AcDbEntity
  8
U1
100
AcDbLine
 10
1784.718857932428
 20
7355.43824542692
 30
0.0
 11
1790.71885793243
 21
7355.43824542692
 31
0.0
  0
LINE
  5
1F0F1
330
1EA20
100
AcDbEntity
  8
U1
100
AcDbLine
 10
1790.71885793243
 20
7355.43824542692
 30
0.0
 11
1790.71885793243
 21
7631.224570365005
 31
0.0
  0
LINE
  5
1F0F2
330
1EA20
100
AcDbEntity
  8
HANA_JYUSHI
100
AcDbLine
 10
1790.71885793243
 20
7732.010895961368
 30
0.0
 11
1788.718857932428
 21
7732.010895961368
 31
0.0
  0
ARC
  5
1F0F3
330
1EA20
100
AcDbEntity
  8
HANA_JYUSHI
100
AcDbCircle
 10
1788.718857932428
 20
7728.010895961368
 30
0.0
 40
4.0
100
AcDbArc
 50
90.0
 51
180.0
  0
LINE
  5
1F0F4
330
1EA20
100
AcDbEntity
  8
HANA_JYUSHI
100
AcDbLine
 10
1784.718857932428
 20
7728.010895961368
 30
0.0
 11
1784.718857932428
 21
7631.224570365005
 31
0.0
  0
LINE
  5
1F0F5
330
1EA20
100
AcDbEntity
  8
HANA_JYUSHI
100
AcDbLine
 10
1784.718857932428
 20
7631.224570365005
 30
0.0
 11
1788.718857932428
 21
7631.224570365009
 31
0.0
  0
ARC
  5
1F0F6
330
1EA20
100
AcDbEntity
  8
HANA_JYUSHI
100
AcDbCircle
 10
1788.71885793243
 20
7633.224570365008
 30
0.0
 40
2.000000000000908
100
AcDbArc
 50
269.9999999999803
 51
359.999999999974
  0
LINE
  5
1F0F7
330
1EA20
100
AcDbEntity
  8
HANA_JYUSHI
100
AcDbLine
 10
1790.71885793243
 20
7633.224570365008
 30
0.0
 11
1790.71885793243
 21
7732.010895961368
 31
0.0
  0
LINE
  5
1F0F8
330
1EA20
100
AcDbEntity
  8
U1
100
AcDbLine
 10
10660.71885793242
 20
7631.224570365005
 30
0.0
 11
10666.71885793242
 21
7631.224570365005
 31
0.0
  0
LINE
  5
1F0F9
330
1EA20
100
AcDbEntity
  8
U1
100
AcDbLine
 10
10666.71885793242
 20
7631.224570365005
 30
0.0
 11
10666.71885793242
 21
7355.43824542692
 31
0.0
  0
LINE
  5
1F0FA
330
1EA20
100
AcDbEntity
  8
U1
100
AcDbLine
 10
10666.71885793242
 20
7355.43824542692
 30
0.0
 11
10660.71885793242
 21
7355.43824542692
 31
0.0
  0
LINE
  5
1F0FB
330
1EA20
100
AcDbEntity
  8
U1
100
AcDbLine
 10
10660.71885793242
 20
7355.43824542692
 30
0.0
 11
10660.71885793242
 21
7631.224570365005
 31
0.0
  0
LINE
  5
1F0FC
330
1EA20
100
AcDbEntity
  8
HANA_JYUSHI
100
AcDbLine
 10
10660.71885793242
 20
7344.904358487092
 30
0.0
 11
10663.71885793242
 21
7344.904358487092
 31
0.0
  0
ARC
  5
1F0FD
330
1EA20
100
AcDbEntity
  8
HANA_JYUSHI
100
AcDbCircle
 10
10663.71885793242
 20
7347.904358487092
 30
0.0
 40
3.0
100
AcDbArc
 50
270.0
 51
0.0
  0
LINE
  5
1F0FE
330
1EA20
100
AcDbEntity
  8
HANA_JYUSHI
100
AcDbLine
 10
10666.71885793242
 20
7347.904358487092
 30
0.0
 11
10666.71885793242
 21
7355.43824542692
 31
0.0
  0
LINE
  5
1F0FF
330
1EA20
100
AcDbEntity
  8
HANA_JYUSHI
100
AcDbLine
 10
10666.71885793242
 20
7355.43824542692
 30
0.0
 11
10660.71885793242
 21
7355.43824542692
 31
0.0
  0
LINE
  5
1F100
330
1EA20
100
AcDbEntity
  8
HANA_JYUSHI
100
AcDbLine
 10
10660.71885793242
 20
7355.43824542692
 30
0.0
 11
10660.71885793242
 21
7344.904358487092
 31
0.0
  0
LINE
  5
1F101
330
1EA20
100
AcDbEntity
  8
HANA_JYUSHI
100
AcDbLine
 10
10660.71885793242
 20
7732.010895961368
 30
0.0
 11
10662.71885793242
 21
7732.010895961368
 31
0.0
  0
ARC
  5
1F102
330
1EA20
100
AcDbEntity
  8
HANA_JYUSHI
100
AcDbCircle
 10
10662.71885793242
 20
7728.010895961368
 30
0.0
 40
4.0
100
AcDbArc
 50
0.0
 51
90.0
  0
LINE
  5
1F103
330
1EA20
100
AcDbEntity
  8
HANA_JYUSHI
100
AcDbLine
 10
10666.71885793242
 20
7728.010895961368
 30
0.0
 11
10666.71885793242
 21
7631.224570365005
 31
0.0
  0
LINE
  5
1F104
330
1EA20
100
AcDbEntity
  8
HANA_JYUSHI
100
AcDbLine
 10
10666.71885793242
 20
7631.224570365005
 30
0.0
 11
10662.71885793242
 21
7631.224570365009
 31
0.0
  0
ARC
  5
1F105
330
1EA20
100
AcDbEntity
  8
HANA_JYUSHI
100
AcDbCircle
 10
10662.71885793242
 20
7633.224570365008
 30
0.0
 40
2.0
100
AcDbArc
 50
180.0
 51
270.0
  0
LINE
  5
1F106
330
1EA20
100
AcDbEntity
  8
HANA_JYUSHI
100
AcDbLine
 10
10660.71885793242
 20
7633.224570365008
 30
0.0
 11
10660.71885793242
 21
7732.010895961368
 31
0.0
  0
ARC
  5
1F107
330
1EA20
100
AcDbEntity
  8
HATCH
100
AcDbCircle
 10
1768.097304678591
 20
5502.014820159624
 30
0.0
 40
2.5
100
AcDbArc
 50
180.0
 51
0.0
  0
ARC
  5
1F108
330
1EA20
100
AcDbEntity
  8
HATCH
100
AcDbCircle
 10
1768.097304678591
 20
5502.014820159624
 30
0.0
 40
2.5
100
AcDbArc
 50
0.0
 51
180.0
  0
ARC
  5
1F109
330
1EA20
100
AcDbEntity
  8
HATCH
100
AcDbCircle
 10
1918.097304678592
 20
5502.014820159624
 30
0.0
 40
2.5
100
AcDbArc
 50
180.0
 51
0.0
  0
ARC
  5
1F10A
330
1EA20
100
AcDbEntity
  8
HATCH
100
AcDbCircle
 10
1918.097304678592
 20
5502.014820159624
 30
0.0
 40
2.5
100
AcDbArc
 50
0.0
 51
180.0
  0
ARC
  5
1F10B
330
1EA20
100
AcDbEntity
  8
HATCH
100
AcDbCircle
 10
2218.097304678592
 20
5502.014820159624
 30
0.0
 40
2.5
100
AcDbArc
 50
180.0
 51
0.0
  0
ARC
  5
1F10C
330
1EA20
100
AcDbEntity
  8
HATCH
100
AcDbCircle
 10
2218.097304678592
 20
5502.014820159624
 30
0.0
 40
2.5
100
AcDbArc
 50
0.0
 51
180.0
  0
ARC
  5
1F10D
330
1EA20
100
AcDbEntity
  8
HATCH
100
AcDbCircle
 10
2068.097304678592
 20
5502.014820159624
 30
0.0
 40
2.5
100
AcDbArc
 50
180.0
 51
0.0
  0
ARC
  5
1F10E
330
1EA20
100
AcDbEntity
  8
HATCH
100
AcDbCircle
 10
2068.097304678592
 20
5502.014820159624
 30
0.0
 40
2.5
100
AcDbArc
 50
0.0
 51
180.0
  0
ARC
  5
1F10F
330
1EA20
100
AcDbEntity
  8
HATCH
100
AcDbCircle
 10
2518.097304678593
 20
5502.014820159624
 30
0.0
 40
2.5
100
AcDbArc
 50
180.0
 51
0.0
  0
ARC
  5
1F110
330
1EA20
100
AcDbEntity
  8
HATCH
100
AcDbCircle
 10
2518.097304678593
 20
5502.014820159624
 30
0.0
 40
2.5
100
AcDbArc
 50
0.0
 51
180.0
  0
ARC
  5
1F111
330
1EA20
100
AcDbEntity
  8
HATCH
100
AcDbCircle
 10
2368.097304678592
 20
5502.014820159624
 30
0.0
 40
2.5
100
AcDbArc
 50
180.0
 51
0.0
  0
ARC
  5
1F112
330
1EA20
100
AcDbEntity
  8
HATCH
100
AcDbCircle
 10
2368.097304678592
 20
5502.014820159624
 30
0.0
 40
2.5
100
AcDbArc
 50
0.0
 51
180.0
  0
ARC
  5
1F113
330
1EA20
100
AcDbEntity
  8
HATCH
100
AcDbCircle
 10
2818.097304678592
 20
5502.014820159624
 30
0.0
 40
2.5
100
AcDbArc
 50
180.0
 51
0.0
  0
ARC
  5
1F114
330
1EA20
100
AcDbEntity
  8
HATCH
100
AcDbCircle
 10
2818.097304678592
 20
5502.014820159624
 30
0.0
 40
2.5
100
AcDbArc
 50
0.0
 51
180.0
  0
ARC
  5
1F115
330
1EA20
100
AcDbEntity
  8
HATCH
100
AcDbCircle
 10
2668.097304678592
 20
5502.014820159624
 30
0.0
 40
2.5
100
AcDbArc
 50
180.0
 51
0.0
  0
ARC
  5
1F116
330
1EA20
100
AcDbEntity
  8
HATCH
100
AcDbCircle
 10
2668.097304678592
 20
5502.014820159624
 30
0.0
 40
2.5
100
AcDbArc
 50
0.0
 51
180.0
  0
ARC
  5
1F117
330
1EA20
100
AcDbEntity
  8
HATCH
100
AcDbCircle
 10
2968.097304678592
 20
5502.014820159624
 30
0.0
 40
2.5
100
AcDbArc
 50
180.0
 51
0.0
  0
ARC
  5
1F118
330
1EA20
100
AcDbEntity
  8
HATCH
100
AcDbCircle
 10
2968.097304678592
 20
5502.014820159624
 30
0.0
 40
2.5
100
AcDbArc
 50
0.0
 51
180.0
  0
ARC
  5
1F119
330
1EA20
100
AcDbEntity
  8
HATCH
100
AcDbCircle
 10
3118.097304678592
 20
5502.014820159624
 30
0.0
 40
2.5
100
AcDbArc
 50
180.0
 51
0.0
  0
ARC
  5
1F11A
330
1EA20
100
AcDbEntity
  8
HATCH
100
AcDbCircle
 10
3118.097304678592
 20
5502.014820159624
 30
0.0
 40
2.5
100
AcDbArc
 50
0.0
 51
180.0
  0
ARC
  5
1F11B
330
1EA20
100
AcDbEntity
  8
HATCH
100
AcDbCircle
 10
3268.097304678593
 20
5502.014820159624
 30
0.0
 40
2.5
100
AcDbArc
 50
180.0
 51
0.0
  0
ARC
  5
1F11C
330
1EA20
100
AcDbEntity
  8
HATCH
100
AcDbCircle
 10
3268.097304678593
 20
5502.014820159624
 30
0.0
 40
2.5
100
AcDbArc
 50
0.0
 51
180.0
  0
ARC
  5
1F11D
330
1EA20
100
AcDbEntity
  8
HATCH
100
AcDbCircle
 10
3418.097304678592
 20
5502.014820159624
 30
0.0
 40
2.5
100
AcDbArc
 50
180.0
 51
0.0
  0
ARC
  5
1F11E
330
1EA20
100
AcDbEntity
  8
HATCH
100
AcDbCircle
 10
3418.097304678592
 20
5502.014820159624
 30
0.0
 40
2.5
100
AcDbArc
 50
0.0
 51
180.0
  0
ARC
  5
1F11F
330
1EA20
100
AcDbEntity
  8
HATCH
100
AcDbCircle
 10
3568.097304678592
 20
5502.014820159624
 30
0.0
 40
2.5
100
AcDbArc
 50
180.0
 51
0.0
  0
ARC
  5
1F120
330
1EA20
100
AcDbEntity
  8
HATCH
100
AcDbCircle
 10
3568.097304678592
 20
5502.014820159624
 30
0.0
 40
2.5
100
AcDbArc
 50
0.0
 51
180.0
  0
ARC
  5
1F121
330
1EA20
100
AcDbEntity
  8
HATCH
100
AcDbCircle
 10
3718.097304678592
 20
5502.014820159624
 30
0.0
 40
2.5
100
AcDbArc
 50
180.0
 51
0.0
  0
ARC
  5
1F122
330
1EA20
100
AcDbEntity
  8
HATCH
100
AcDbCircle
 10
3718.097304678592
 20
5502.014820159624
 30
0.0
 40
2.5
100
AcDbArc
 50
0.0
 51
180.0
  0
ARC
  5
1F123
330
1EA20
100
AcDbEntity
  8
HATCH
100
AcDbCircle
 10
3868.097304678592
 20
5502.014820159624
 30
0.0
 40
2.5
100
AcDbArc
 50
180.0
 51
0.0
  0
ARC
  5
1F124
330
1EA20
100
AcDbEntity
  8
HATCH
100
AcDbCircle
 10
3868.097304678592
 20
5502.014820159624
 30
0.0
 40
2.5
100
AcDbArc
 50
0.0
 51
180.0
  0
ARC
  5
1F125
330
1EA20
100
AcDbEntity
  8
HATCH
100
AcDbCircle
 10
4018.097304678592
 20
5502.014820159624
 30
0.0
 40
2.5
100
AcDbArc
 50
180.0
 51
0.0
  0
ARC
  5
1F126
330
1EA20
100
AcDbEntity
  8
HATCH
100
AcDbCircle
 10
4018.097304678592
 20
5502.014820159624
 30
0.0
 40
2.5
100
AcDbArc
 50
0.0
 51
180.0
  0
ARC
  5
1F127
330
1EA20
100
AcDbEntity
  8
HATCH
100
AcDbCircle
 10
4168.097304678592
 20
5502.014820159624
 30
0.0
 40
2.5
100
AcDbArc
 50
180.0
 51
0.0
  0
ARC
  5
1F128
330
1EA20
100
AcDbEntity
  8
HATCH
100
AcDbCircle
 10
4168.097304678592
 20
5502.014820159624
 30
0.0
 40
2.5
100
AcDbArc
 50
0.0
 51
180.0
  0
ARC
  5
1F129
330
1EA20
100
AcDbEntity
  8
HATCH
100
AcDbCircle
 10
4468.097304678592
 20
5502.014820159624
 30
0.0
 40
2.5
100
AcDbArc
 50
180.0
 51
0.0
  0
ARC
  5
1F12A
330
1EA20
100
AcDbEntity
  8
HATCH
100
AcDbCircle
 10
4468.097304678592
 20
5502.014820159624
 30
0.0
 40
2.5
100
AcDbArc
 50
0.0
 51
180.0
  0
ARC
  5
1F12B
330
1EA20
100
AcDbEntity
  8
HATCH
100
AcDbCircle
 10
4618.097304678592
 20
5502.014820159624
 30
0.0
 40
2.5
100
AcDbArc
 50
180.0
 51
0.0
  0
ARC
  5
1F12C
330
1EA20
100
AcDbEntity
  8
HATCH
100
AcDbCircle
 10
4618.097304678592
 20
5502.014820159624
 30
0.0
 40
2.5
100
AcDbArc
 50
0.0
 51
180.0
  0
ARC
  5
1F12D
330
1EA20
100
AcDbEntity
  8
HATCH
100
AcDbCircle
 10
4768.097304678589
 20
5502.014820159624
 30
0.0
 40
2.5
100
AcDbArc
 50
180.0
 51
0.0
  0
ARC
  5
1F12E
330
1EA20
100
AcDbEntity
  8
HATCH
100
AcDbCircle
 10
4768.097304678589
 20
5502.014820159624
 30
0.0
 40
2.5
100
AcDbArc
 50
0.0
 51
180.0
  0
ARC
  5
1F12F
330
1EA20
100
AcDbEntity
  8
HATCH
100
AcDbCircle
 10
4918.097304678592
 20
5502.014820159624
 30
0.0
 40
2.5
100
AcDbArc
 50
180.0
 51
0.0
  0
ARC
  5
1F130
330
1EA20
100
AcDbEntity
  8
HATCH
100
AcDbCircle
 10
4918.097304678592
 20
5502.014820159624
 30
0.0
 40
2.5
100
AcDbArc
 50
0.0
 51
180.0
  0
ARC
  5
1F131
330
1EA20
100
AcDbEntity
  8
HATCH
100
AcDbCircle
 10
5218.097304678592
 20
5502.014820159624
 30
0.0
 40
2.5
100
AcDbArc
 50
180.0
 51
0.0
  0
ARC
  5
1F132
330
1EA20
100
AcDbEntity
  8
HATCH
100
AcDbCircle
 10
5218.097304678592
 20
5502.014820159624
 30
0.0
 40
2.5
100
AcDbArc
 50
0.0
 51
180.0
  0
ARC
  5
1F133
330
1EA20
100
AcDbEntity
  8
HATCH
100
AcDbCircle
 10
5068.097304678592
 20
5502.014820159624
 30
0.0
 40
2.5
100
AcDbArc
 50
180.0
 51
0.0
  0
ARC
  5
1F134
330
1EA20
100
AcDbEntity
  8
HATCH
100
AcDbCircle
 10
5068.097304678592
 20
5502.014820159624
 30
0.0
 40
2.5
100
AcDbArc
 50
0.0
 51
180.0
  0
ARC
  5
1F135
330
1EA20
100
AcDbEntity
  8
HATCH
100
AcDbCircle
 10
5368.097304678592
 20
5502.014820159624
 30
0.0
 40
2.5
100
AcDbArc
 50
180.0
 51
0.0
  0
ARC
  5
1F136
330
1EA20
100
AcDbEntity
  8
HATCH
100
AcDbCircle
 10
5368.097304678592
 20
5502.014820159624
 30
0.0
 40
2.5
100
AcDbArc
 50
0.0
 51
180.0
  0
ARC
  5
1F137
330
1EA20
100
AcDbEntity
  8
HATCH
100
AcDbCircle
 10
5518.09730467859
 20
5502.014820159624
 30
0.0
 40
2.5
100
AcDbArc
 50
180.0
 51
0.0
  0
ARC
  5
1F138
330
1EA20
100
AcDbEntity
  8
HATCH
100
AcDbCircle
 10
5518.09730467859
 20
5502.014820159624
 30
0.0
 40
2.5
100
AcDbArc
 50
0.0
 51
180.0
  0
ARC
  5
1F139
330
1EA20
100
AcDbEntity
  8
HATCH
100
AcDbCircle
 10
5668.097304678592
 20
5502.014820159624
 30
0.0
 40
2.5
100
AcDbArc
 50
180.0
 51
0.0
  0
ARC
  5
1F13A
330
1EA20
100
AcDbEntity
  8
HATCH
100
AcDbCircle
 10
5668.097304678592
 20
5502.014820159624
 30
0.0
 40
2.5
100
AcDbArc
 50
0.0
 51
180.0
  0
ARC
  5
1F13B
330
1EA20
100
AcDbEntity
  8
HATCH
100
AcDbCircle
 10
5968.097304678592
 20
5502.014820159624
 30
0.0
 40
2.5
100
AcDbArc
 50
180.0
 51
0.0
  0
ARC
  5
1F13C
330
1EA20
100
AcDbEntity
  8
HATCH
100
AcDbCircle
 10
5968.097304678592
 20
5502.014820159624
 30
0.0
 40
2.5
100
AcDbArc
 50
0.0
 51
180.0
  0
ARC
  5
1F13D
330
1EA20
100
AcDbEntity
  8
HATCH
100
AcDbCircle
 10
6118.097304678592
 20
5502.014820159624
 30
0.0
 40
2.5
100
AcDbArc
 50
180.0
 51
0.0
  0
ARC
  5
1F13E
330
1EA20
100
AcDbEntity
  8
HATCH
100
AcDbCircle
 10
6118.097304678592
 20
5502.014820159624
 30
0.0
 40
2.5
100
AcDbArc
 50
0.0
 51
180.0
  0
ARC
  5
1F13F
330
1EA20
100
AcDbEntity
  8
HATCH
100
AcDbCircle
 10
5818.097304678592
 20
5502.014820159624
 30
0.0
 40
2.5
100
AcDbArc
 50
180.0
 51
0.0
  0
ARC
  5
1F140
330
1EA20
100
AcDbEntity
  8
HATCH
100
AcDbCircle
 10
5818.097304678592
 20
5502.014820159624
 30
0.0
 40
2.5
100
AcDbArc
 50
0.0
 51
180.0
  0
ARC
  5
1F141
330
1EA20
100
AcDbEntity
  8
HATCH
100
AcDbCircle
 10
4318.097304678592
 20
5502.014820159624
 30
0.0
 40
2.5
100
AcDbArc
 50
180.0
 51
0.0
  0
ARC
  5
1F142
330
1EA20
100
AcDbEntity
  8
HATCH
100
AcDbCircle
 10
4318.097304678592
 20
5502.014820159624
 30
0.0
 40
2.5
100
AcDbArc
 50
0.0
 51
180.0
  0
ARC
  5
1F143
330
1EA20
100
AcDbEntity
  8
HATCH
100
AcDbCircle
 10
10683.34041118625
 20
5502.014820159624
 30
0.0
 40
2.5
100
AcDbArc
 50
180.0
 51
0.0
  0
ARC
  5
1F144
330
1EA20
100
AcDbEntity
  8
HATCH
100
AcDbCircle
 10
10683.34041118625
 20
5502.014820159624
 30
0.0
 40
2.5
100
AcDbArc
 50
0.0
 51
180.0
  0
ARC
  5
1F145
330
1EA20
100
AcDbEntity
  8
HATCH
100
AcDbCircle
 10
10533.34041118626
 20
5502.014820159624
 30
0.0
 40
2.5
100
AcDbArc
 50
180.0
 51
0.0
  0
ARC
  5
1F146
330
1EA20
100
AcDbEntity
  8
HATCH
100
AcDbCircle
 10
10533.34041118626
 20
5502.014820159624
 30
0.0
 40
2.5
100
AcDbArc
 50
0.0
 51
180.0
  0
ARC
  5
1F147
330
1EA20
100
AcDbEntity
  8
HATCH
100
AcDbCircle
 10
10383.34041118626
 20
5502.014820159624
 30
0.0
 40
2.5
100
AcDbArc
 50
180.0
 51
0.0
  0
ARC
  5
1F148
330
1EA20
100
AcDbEntity
  8
HATCH
100
AcDbCircle
 10
10383.34041118626
 20
5502.014820159624
 30
0.0
 40
2.5
100
AcDbArc
 50
0.0
 51
180.0
  0
ARC
  5
1F149
330
1EA20
100
AcDbEntity
  8
HATCH
100
AcDbCircle
 10
10233.34041118626
 20
5502.014820159624
 30
0.0
 40
2.5
100
AcDbArc
 50
180.0
 51
0.0
  0
ARC
  5
1F14A
330
1EA20
100
AcDbEntity
  8
HATCH
100
AcDbCircle
 10
10233.34041118626
 20
5502.014820159624
 30
0.0
 40
2.5
100
AcDbArc
 50
0.0
 51
180.0
  0
ARC
  5
1F14B
330
1EA20
100
AcDbEntity
  8
HATCH
100
AcDbCircle
 10
10083.34041118626
 20
5502.014820159624
 30
0.0
 40
2.5
100
AcDbArc
 50
180.0
 51
0.0
  0
ARC
  5
1F14C
330
1EA20
100
AcDbEntity
  8
HATCH
100
AcDbCircle
 10
10083.34041118626
 20
5502.014820159624
 30
0.0
 40
2.5
100
AcDbArc
 50
0.0
 51
180.0
  0
ARC
  5
1F14D
330
1EA20
100
AcDbEntity
  8
HATCH
100
AcDbCircle
 10
9933.340411186259
 20
5502.014820159624
 30
0.0
 40
2.5
100
AcDbArc
 50
180.0
 51
0.0
  0
ARC
  5
1F14E
330
1EA20
100
AcDbEntity
  8
HATCH
100
AcDbCircle
 10
9933.340411186259
 20
5502.014820159624
 30
0.0
 40
2.5
100
AcDbArc
 50
0.0
 51
180.0
  0
ARC
  5
1F14F
330
1EA20
100
AcDbEntity
  8
HATCH
100
AcDbCircle
 10
9783.340411186264
 20
5502.014820159624
 30
0.0
 40
2.5
100
AcDbArc
 50
180.0
 51
0.0
  0
ARC
  5
1F150
330
1EA20
100
AcDbEntity
  8
HATCH
100
AcDbCircle
 10
9783.340411186264
 20
5502.014820159624
 30
0.0
 40
2.5
100
AcDbArc
 50
0.0
 51
180.0
  0
ARC
  5
1F151
330
1EA20
100
AcDbEntity
  8
HATCH
100
AcDbCircle
 10
9633.340411186264
 20
5502.014820159624
 30
0.0
 40
2.5
100
AcDbArc
 50
180.0
 51
0.0
  0
ARC
  5
1F152
330
1EA20
100
AcDbEntity
  8
HATCH
100
AcDbCircle
 10
9633.340411186264
 20
5502.014820159624
 30
0.0
 40
2.5
100
AcDbArc
 50
0.0
 51
180.0
  0
ARC
  5
1F153
330
1EA20
100
AcDbEntity
  8
HATCH
100
AcDbCircle
 10
9483.340411186263
 20
5502.014820159624
 30
0.0
 40
2.5
100
AcDbArc
 50
180.0
 51
0.0
  0
ARC
  5
1F154
330
1EA20
100
AcDbEntity
  8
HATCH
100
AcDbCircle
 10
9483.340411186263
 20
5502.014820159624
 30
0.0
 40
2.5
100
AcDbArc
 50
0.0
 51
180.0
  0
ARC
  5
1F155
330
1EA20
100
AcDbEntity
  8
HATCH
100
AcDbCircle
 10
9333.340411186263
 20
5502.014820159624
 30
0.0
 40
2.5
100
AcDbArc
 50
180.0
 51
0.0
  0
ARC
  5
1F156
330
1EA20
100
AcDbEntity
  8
HATCH
100
AcDbCircle
 10
9333.340411186263
 20
5502.014820159624
 30
0.0
 40
2.5
100
AcDbArc
 50
0.0
 51
180.0
  0
ARC
  5
1F157
330
1EA20
100
AcDbEntity
  8
HATCH
100
AcDbCircle
 10
9183.340411186263
 20
5502.014820159624
 30
0.0
 40
2.5
100
AcDbArc
 50
180.0
 51
0.0
  0
ARC
  5
1F158
330
1EA20
100
AcDbEntity
  8
HATCH
100
AcDbCircle
 10
9183.340411186263
 20
5502.014820159624
 30
0.0
 40
2.5
100
AcDbArc
 50
0.0
 51
180.0
  0
ARC
  5
1F159
330
1EA20
100
AcDbEntity
  8
HATCH
100
AcDbCircle
 10
9033.340411186264
 20
5502.014820159624
 30
0.0
 40
2.5
100
AcDbArc
 50
180.0
 51
0.0
  0
ARC
  5
1F15A
330
1EA20
100
AcDbEntity
  8
HATCH
100
AcDbCircle
 10
9033.340411186264
 20
5502.014820159624
 30
0.0
 40
2.5
100
AcDbArc
 50
0.0
 51
180.0
  0
ARC
  5
1F15B
330
1EA20
100
AcDbEntity
  8
HATCH
100
AcDbCircle
 10
8883.340411186265
 20
5502.014820159624
 30
0.0
 40
2.5
100
AcDbArc
 50
180.0
 51
0.0
  0
ARC
  5
1F15C
330
1EA20
100
AcDbEntity
  8
HATCH
100
AcDbCircle
 10
8883.340411186265
 20
5502.014820159624
 30
0.0
 40
2.5
100
AcDbArc
 50
0.0
 51
180.0
  0
ARC
  5
1F15D
330
1EA20
100
AcDbEntity
  8
HATCH
100
AcDbCircle
 10
8733.340411186262
 20
5502.014820159624
 30
0.0
 40
2.5
100
AcDbArc
 50
180.0
 51
0.0
  0
ARC
  5
1F15E
330
1EA20
100
AcDbEntity
  8
HATCH
100
AcDbCircle
 10
8733.340411186262
 20
5502.014820159624
 30
0.0
 40
2.5
100
AcDbArc
 50
0.0
 51
180.0
  0
ARC
  5
1F15F
330
1EA20
100
AcDbEntity
  8
HATCH
100
AcDbCircle
 10
8583.340411186268
 20
5502.014820159624
 30
0.0
 40
2.5
100
AcDbArc
 50
180.0
 51
0.0
  0
ARC
  5
1F160
330
1EA20
100
AcDbEntity
  8
HATCH
100
AcDbCircle
 10
8583.340411186268
 20
5502.014820159624
 30
0.0
 40
2.5
100
AcDbArc
 50
0.0
 51
180.0
  0
ARC
  5
1F161
330
1EA20
100
AcDbEntity
  8
HATCH
100
AcDbCircle
 10
8433.340411186266
 20
5502.014820159624
 30
0.0
 40
2.5
100
AcDbArc
 50
180.0
 51
0.0
  0
ARC
  5
1F162
330
1EA20
100
AcDbEntity
  8
HATCH
100
AcDbCircle
 10
8433.340411186266
 20
5502.014820159624
 30
0.0
 40
2.5
100
AcDbArc
 50
0.0
 51
180.0
  0
ARC
  5
1F163
330
1EA20
100
AcDbEntity
  8
HATCH
100
AcDbCircle
 10
8283.340411186266
 20
5502.014820159624
 30
0.0
 40
2.5
100
AcDbArc
 50
180.0
 51
0.0
  0
ARC
  5
1F164
330
1EA20
100
AcDbEntity
  8
HATCH
100
AcDbCircle
 10
8283.340411186266
 20
5502.014820159624
 30
0.0
 40
2.5
100
AcDbArc
 50
0.0
 51
180.0
  0
ARC
  5
1F165
330
1EA20
100
AcDbEntity
  8
HATCH
100
AcDbCircle
 10
8133.340411186264
 20
5502.014820159624
 30
0.0
 40
2.5
100
AcDbArc
 50
180.0
 51
0.0
  0
ARC
  5
1F166
330
1EA20
100
AcDbEntity
  8
HATCH
100
AcDbCircle
 10
8133.340411186264
 20
5502.014820159624
 30
0.0
 40
2.5
100
AcDbArc
 50
0.0
 51
180.0
  0
ARC
  5
1F167
330
1EA20
100
AcDbEntity
  8
HATCH
100
AcDbCircle
 10
7983.340411186266
 20
5502.014820159624
 30
0.0
 40
2.5
100
AcDbArc
 50
180.0
 51
0.0
  0
ARC
  5
1F168
330
1EA20
100
AcDbEntity
  8
HATCH
100
AcDbCircle
 10
7983.340411186266
 20
5502.014820159624
 30
0.0
 40
2.5
100
AcDbArc
 50
0.0
 51
180.0
  0
ARC
  5
1F169
330
1EA20
100
AcDbEntity
  8
HATCH
100
AcDbCircle
 10
7833.340411186267
 20
5502.014820159624
 30
0.0
 40
2.5
100
AcDbArc
 50
180.0
 51
0.0
  0
ARC
  5
1F16A
330
1EA20
100
AcDbEntity
  8
HATCH
100
AcDbCircle
 10
7833.340411186267
 20
5502.014820159624
 30
0.0
 40
2.5
100
AcDbArc
 50
0.0
 51
180.0
  0
ARC
  5
1F16B
330
1EA20
100
AcDbEntity
  8
HATCH
100
AcDbCircle
 10
7683.340411186266
 20
5502.014820159624
 30
0.0
 40
2.5
100
AcDbArc
 50
180.0
 51
0.0
  0
ARC
  5
1F16C
330
1EA20
100
AcDbEntity
  8
HATCH
100
AcDbCircle
 10
7683.340411186266
 20
5502.014820159624
 30
0.0
 40
2.5
100
AcDbArc
 50
0.0
 51
180.0
  0
ARC
  5
1F16D
330
1EA20
100
AcDbEntity
  8
HATCH
100
AcDbCircle
 10
7533.340411186269
 20
5502.014820159624
 30
0.0
 40
2.5
100
AcDbArc
 50
180.0
 51
0.0
  0
ARC
  5
1F16E
330
1EA20
100
AcDbEntity
  8
HATCH
100
AcDbCircle
 10
7533.340411186269
 20
5502.014820159624
 30
0.0
 40
2.5
100
AcDbArc
 50
0.0
 51
180.0
  0
ARC
  5
1F16F
330
1EA20
100
AcDbEntity
  8
HATCH
100
AcDbCircle
 10
7383.340411186267
 20
5502.014820159624
 30
0.0
 40
2.5
100
AcDbArc
 50
180.0
 51
0.0
  0
ARC
  5
1F170
330
1EA20
100
AcDbEntity
  8
HATCH
100
AcDbCircle
 10
7383.340411186267
 20
5502.014820159624
 30
0.0
 40
2.5
100
AcDbArc
 50
0.0
 51
180.0
  0
ARC
  5
1F171
330
1EA20
100
AcDbEntity
  8
HATCH
100
AcDbCircle
 10
7233.340411186266
 20
5502.014820159624
 30
0.0
 40
2.5
100
AcDbArc
 50
180.0
 51
0.0
  0
ARC
  5
1F172
330
1EA20
100
AcDbEntity
  8
HATCH
100
AcDbCircle
 10
7233.340411186266
 20
5502.014820159624
 30
0.0
 40
2.5
100
AcDbArc
 50
0.0
 51
180.0
  0
ARC
  5
1F173
330
1EA20
100
AcDbEntity
  8
HATCH
100
AcDbCircle
 10
7083.340411186267
 20
5502.014820159624
 30
0.0
 40
2.5
100
AcDbArc
 50
180.0
 51
0.0
  0
ARC
  5
1F174
330
1EA20
100
AcDbEntity
  8
HATCH
100
AcDbCircle
 10
7083.340411186267
 20
5502.014820159624
 30
0.0
 40
2.5
100
AcDbArc
 50
0.0
 51
180.0
  0
ARC
  5
1F175
330
1EA20
100
AcDbEntity
  8
HATCH
100
AcDbCircle
 10
6933.340411186266
 20
5502.014820159624
 30
0.0
 40
2.5
100
AcDbArc
 50
180.0
 51
0.0
  0
ARC
  5
1F176
330
1EA20
100
AcDbEntity
  8
HATCH
100
AcDbCircle
 10
6933.340411186266
 20
5502.014820159624
 30
0.0
 40
2.5
100
AcDbArc
 50
0.0
 51
180.0
  0
ARC
  5
1F177
330
1EA20
100
AcDbEntity
  8
HATCH
100
AcDbCircle
 10
6783.340411186268
 20
5502.014820159624
 30
0.0
 40
2.5
100
AcDbArc
 50
180.0
 51
0.0
  0
ARC
  5
1F178
330
1EA20
100
AcDbEntity
  8
HATCH
100
AcDbCircle
 10
6783.340411186268
 20
5502.014820159624
 30
0.0
 40
2.5
100
AcDbArc
 50
0.0
 51
180.0
  0
ARC
  5
1F179
330
1EA20
100
AcDbEntity
  8
HATCH
100
AcDbCircle
 10
6633.340411186267
 20
5502.014820159624
 30
0.0
 40
2.5
100
AcDbArc
 50
180.0
 51
0.0
  0
ARC
  5
1F17A
330
1EA20
100
AcDbEntity
  8
HATCH
100
AcDbCircle
 10
6633.340411186267
 20
5502.014820159624
 30
0.0
 40
2.5
100
AcDbArc
 50
0.0
 51
180.0
  0
ARC
  5
1F17B
330
1EA20
100
AcDbEntity
  8
HATCH
100
AcDbCircle
 10
6483.340411186266
 20
5502.014820159624
 30
0.0
 40
2.5
100
AcDbArc
 50
180.0
 51
0.0
  0
ARC
  5
1F17C
330
1EA20
100
AcDbEntity
  8
HATCH
100
AcDbCircle
 10
6483.340411186266
 20
5502.014820159624
 30
0.0
 40
2.5
100
AcDbArc
 50
0.0
 51
180.0
  0
LINE
  5
1F17D
330
1EA20
100
AcDbEntity
  8
HARI
100
AcDbLine
 10
3442.092219879997
 20
3743.939475410999
 30
0.0
 11
3489.179523690491
 21
3741.578061222892
 31
0.0
  0
LINE
  5
1F17E
330
1EA20
100
AcDbEntity
  8
HARI
100
AcDbLine
 10
2852.479668587497
 20
3773.508368327656
 30
0.0
 11
3359.196395607764
 21
3748.096676179148
 31
0.0
  0
LINE
  5
1F17F
330
1EA20
100
AcDbEntity
  8
HARI
100
AcDbLine
 10
2174.277254454606
 20
3876.306352083854
 30
0.0
 11
2170.836294300728
 21
3807.692579463342
 31
0.0
  0
LINE
  5
1F180
330
1EA20
100
AcDbEntity
  8
HARI
100
AcDbLine
 10
2170.836294300728
 20
3807.692579463342
 30
0.0
 11
2749.608946900265
 21
3778.66730422066
 31
0.0
  0
ARC
  5
1F181
330
1EA20
100
AcDbEntity
  8
HATCH
100
AcDbCircle
 10
6333.340411186267
 20
5502.014820159624
 30
0.0
 40
2.5
100
AcDbArc
 50
180.0
 51
0.0
  0
ARC
  5
1F182
330
1EA20
100
AcDbEntity
  8
HATCH
100
AcDbCircle
 10
6333.340411186267
 20
5502.014820159624
 30
0.0
 40
2.5
100
AcDbArc
 50
0.0
 51
180.0
  0
ARC
  5
1F183
330
1EA20
100
AcDbEntity
  8
HATCH
100
AcDbCircle
 10
3970.028708553926
 20
1761.805063765603
 30
0.0
 40
2.5
100
AcDbArc
 50
180.0
 51
0.0
  0
ARC
  5
1F184
330
1EA20
100
AcDbEntity
  8
HATCH
100
AcDbCircle
 10
3970.028708553926
 20
1761.805063765603
 30
0.0
 40
2.5
100
AcDbArc
 50
0.0
 51
180.0
  0
ARC
  5
1F185
330
1EA20
100
AcDbEntity
  8
HATCH
100
AcDbCircle
 10
3820.028708553927
 20
1761.805063765603
 30
0.0
 40
2.5
100
AcDbArc
 50
180.0
 51
0.0
  0
ARC
  5
1F186
330
1EA20
100
AcDbEntity
  8
HATCH
100
AcDbCircle
 10
3820.028708553927
 20
1761.805063765603
 30
0.0
 40
2.5
100
AcDbArc
 50
0.0
 51
180.0
  0
ARC
  5
1F187
330
1EA20
100
AcDbEntity
  8
HATCH
100
AcDbCircle
 10
3670.028708553926
 20
1761.805063765603
 30
0.0
 40
2.5
100
AcDbArc
 50
180.0
 51
0.0
  0
ARC
  5
1F188
330
1EA20
100
AcDbEntity
  8
HATCH
100
AcDbCircle
 10
3670.028708553926
 20
1761.805063765603
 30
0.0
 40
2.5
100
AcDbArc
 50
0.0
 51
180.0
  0
ARC
  5
1F189
330
1EA20
100
AcDbEntity
  8
HATCH
100
AcDbCircle
 10
3520.028708553927
 20
1761.805063765603
 30
0.0
 40
2.5
100
AcDbArc
 50
180.0
 51
0.0
  0
ARC
  5
1F18A
330
1EA20
100
AcDbEntity
  8
HATCH
100
AcDbCircle
 10
3520.028708553927
 20
1761.805063765603
 30
0.0
 40
2.5
100
AcDbArc
 50
0.0
 51
180.0
  0
ARC
  5
1F18B
330
1EA20
100
AcDbEntity
  8
HATCH
100
AcDbCircle
 10
3370.028708553927
 20
1761.805063765603
 30
0.0
 40
2.5
100
AcDbArc
 50
180.0
 51
0.0
  0
ARC
  5
1F18C
330
1EA20
100
AcDbEntity
  8
HATCH
100
AcDbCircle
 10
3370.028708553927
 20
1761.805063765603
 30
0.0
 40
2.5
100
AcDbArc
 50
0.0
 51
180.0
  0
ARC
  5
1F18D
330
1EA20
100
AcDbEntity
  8
HATCH
100
AcDbCircle
 10
3220.028708553927
 20
1761.805063765603
 30
0.0
 40
2.5
100
AcDbArc
 50
180.0
 51
0.0
  0
ARC
  5
1F18E
330
1EA20
100
AcDbEntity
  8
HATCH
100
AcDbCircle
 10
3220.028708553927
 20
1761.805063765603
 30
0.0
 40
2.5
100
AcDbArc
 50
0.0
 51
180.0
  0
ARC
  5
1F18F
330
1EA20
100
AcDbEntity
  8
HATCH
100
AcDbCircle
 10
3070.028708553927
 20
1761.805063765603
 30
0.0
 40
2.5
100
AcDbArc
 50
180.0
 51
0.0
  0
ARC
  5
1F190
330
1EA20
100
AcDbEntity
  8
HATCH
100
AcDbCircle
 10
3070.028708553927
 20
1761.805063765603
 30
0.0
 40
2.5
100
AcDbArc
 50
0.0
 51
180.0
  0
ARC
  5
1F191
330
1EA20
100
AcDbEntity
  8
HATCH
100
AcDbCircle
 10
2920.028708553927
 20
1761.805063765603
 30
0.0
 40
2.5
100
AcDbArc
 50
180.0
 51
0.0
  0
ARC
  5
1F192
330
1EA20
100
AcDbEntity
  8
HATCH
100
AcDbCircle
 10
2920.028708553927
 20
1761.805063765603
 30
0.0
 40
2.5
100
AcDbArc
 50
0.0
 51
180.0
  0
ARC
  5
1F193
330
1EA20
100
AcDbEntity
  8
HATCH
100
AcDbCircle
 10
2770.028708553927
 20
1761.805063765603
 30
0.0
 40
2.5
100
AcDbArc
 50
180.0
 51
0.0
  0
ARC
  5
1F194
330
1EA20
100
AcDbEntity
  8
HATCH
100
AcDbCircle
 10
2770.028708553927
 20
1761.805063765603
 30
0.0
 40
2.5
100
AcDbArc
 50
0.0
 51
180.0
  0
ARC
  5
1F195
330
1EA20
100
AcDbEntity
  8
HATCH
100
AcDbCircle
 10
2620.028708553927
 20
1761.805063765603
 30
0.0
 40
2.5
100
AcDbArc
 50
180.0
 51
0.0
  0
ARC
  5
1F196
330
1EA20
100
AcDbEntity
  8
HATCH
100
AcDbCircle
 10
2620.028708553927
 20
1761.805063765603
 30
0.0
 40
2.5
100
AcDbArc
 50
0.0
 51
180.0
  0
ARC
  5
1F197
330
1EA20
100
AcDbEntity
  8
HATCH
100
AcDbCircle
 10
2470.028708553927
 20
1761.805063765603
 30
0.0
 40
2.5
100
AcDbArc
 50
180.0
 51
0.0
  0
ARC
  5
1F198
330
1EA20
100
AcDbEntity
  8
HATCH
100
AcDbCircle
 10
2470.028708553927
 20
1761.805063765603
 30
0.0
 40
2.5
100
AcDbArc
 50
0.0
 51
180.0
  0
ARC
  5
1F199
330
1EA20
100
AcDbEntity
  8
HATCH
100
AcDbCircle
 10
2320.028708553927
 20
1761.805063765603
 30
0.0
 40
2.5
100
AcDbArc
 50
180.0
 51
0.0
  0
ARC
  5
1F19A
330
1EA20
100
AcDbEntity
  8
HATCH
100
AcDbCircle
 10
2320.028708553927
 20
1761.805063765603
 30
0.0
 40
2.5
100
AcDbArc
 50
0.0
 51
180.0
  0
ARC
  5
1F19B
330
1EA20
100
AcDbEntity
  8
HATCH
100
AcDbCircle
 10
2170.028708553926
 20
1761.805063765603
 30
0.0
 40
2.5
100
AcDbArc
 50
180.0
 51
0.0
  0
ARC
  5
1F19C
330
1EA20
100
AcDbEntity
  8
HATCH
100
AcDbCircle
 10
2170.028708553926
 20
1761.805063765603
 30
0.0
 40
2.5
100
AcDbArc
 50
0.0
 51
180.0
  0
ARC
  5
1F19D
330
1EA20
100
AcDbEntity
  8
HATCH
100
AcDbCircle
 10
2020.028708553926
 20
1761.805063765603
 30
0.0
 40
2.5
100
AcDbArc
 50
180.0
 51
0.0
  0
ARC
  5
1F19E
330
1EA20
100
AcDbEntity
  8
HATCH
100
AcDbCircle
 10
2020.028708553926
 20
1761.805063765603
 30
0.0
 40
2.5
100
AcDbArc
 50
0.0
 51
180.0
  0
ARC
  5
1F19F
330
1EA20
100
AcDbEntity
  8
HATCH
100
AcDbCircle
 10
1870.028708553926
 20
1761.805063765603
 30
0.0
 40
2.5
100
AcDbArc
 50
180.0
 51
0.0
  0
ARC
  5
1F1A0
330
1EA20
100
AcDbEntity
  8
HATCH
100
AcDbCircle
 10
1870.028708553926
 20
1761.805063765603
 30
0.0
 40
2.5
100
AcDbArc
 50
0.0
 51
180.0
  0
ARC
  5
1F1A1
330
1EA20
100
AcDbEntity
  8
HATCH
100
AcDbCircle
 10
1720.028708553925
 20
1761.805063765603
 30
0.0
 40
2.5
100
AcDbArc
 50
180.0
 51
0.0
  0
ARC
  5
1F1A2
330
1EA20
100
AcDbEntity
  8
HATCH
100
AcDbCircle
 10
1720.028708553925
 20
1761.805063765603
 30
0.0
 40
2.5
100
AcDbArc
 50
0.0
 51
180.0
  0
ARC
  5
1F1A3
330
1EA20
100
AcDbEntity
  8
HATCH
100
AcDbCircle
 10
1570.028708553926
 20
1761.805063765603
 30
0.0
 40
2.5
100
AcDbArc
 50
180.0
 51
0.0
  0
ARC
  5
1F1A4
330
1EA20
100
AcDbEntity
  8
HATCH
100
AcDbCircle
 10
1570.028708553926
 20
1761.805063765603
 30
0.0
 40
2.5
100
AcDbArc
 50
0.0
 51
180.0
  0
ARC
  5
1F1A5
330
1EA20
100
AcDbEntity
  8
HATCH
100
AcDbCircle
 10
1420.028708553926
 20
1761.805063765603
 30
0.0
 40
2.5
100
AcDbArc
 50
180.0
 51
0.0
  0
ARC
  5
1F1A6
330
1EA20
100
AcDbEntity
  8
HATCH
100
AcDbCircle
 10
1420.028708553926
 20
1761.805063765603
 30
0.0
 40
2.5
100
AcDbArc
 50
0.0
 51
180.0
  0
ENDSEC
  0
SECTION
  2
OBJECTS
  0
DICTIONARY
  5
1EA0E
330
0
100
AcDbDictionary
281
     1
  3
ACAD_GROUP
350
1EA0F
  3
ACAD_LAYOUT
350
1EA1B
  3
ACAD_MLINESTYLE
350
1EA18
  3
ACAD_PLOTSETTINGS
350
1EA1A
  3
ACAD_PLOTSTYLENAME
350
1EA10
  3
AcDbVariableDictionary
350
1F1A7
  0
DICTIONARY
  5
1EA0F
102
{ACAD_REACTORS
330
1EA0E
102
}
330
1EA0E
100
AcDbDictionary
281
     1
  0
DICTIONARY
  5
1EA1B
102
{ACAD_REACTORS
330
1EA0E
102
}
330
1EA0E
100
AcDbDictionary
281
     1
  3
Model
350
1EA23
  3
ﾚｲｱｳﾄ1
350
1EA1F
  0
DICTIONARY
  5
1EA18
102
{ACAD_REACTORS
330
1EA0E
102
}
330
1EA0E
100
AcDbDictionary
281
     1
  3
Standard
350
1EA19
  0
DICTIONARY
  5
1EA1A
102
{ACAD_REACTORS
330
1EA0E
102
}
330
1EA0E
100
AcDbDictionary
281
     1
  0
ACDBDICTIONARYWDFLT
  5
1EA10
102
{ACAD_REACTORS
330
1EA0E
102
}
330
1EA0E
100
AcDbDictionary
281
     1
  3
Normal
350
1EA11
100
AcDbDictionaryWithDefault
340
1EA11
  0
DICTIONARY
  5
1F1A7
102
{ACAD_REACTORS
330
1EA0E
102
}
330
1EA0E
100
AcDbDictionary
281
     1
  3
DIMASSOC
350
1F1A8
  0
LAYOUT
  5
1EA23
102
{ACAD_REACTORS
330
1EA1B
102
}
330
1EA1B
100
AcDbPlotSettings
  1

  2
Muratec V-1200 Is@Web Printer
  4

  6

 40
0.0
 41
0.0
 42
0.0
 43
0.0
 44
0.0
 45
0.0
 46
0.0
 47
0.0
 48
0.0
 49
0.0
140
0.0
141
0.0
142
1.0
143
1.0
 70
  1712
 72
     0
 73
     0
 74
     0
  7

 75
     0
147
1.0
148
0.0
149
0.0
100
AcDbLayout
  1
Model
 70
     1
 71
     0
 10
0.0
 20
0.0
 11
12.0
 21
9.0
 12
0.0
 22
0.0
 32
0.0
 14
0.0
 24
0.0
 34
0.0
 15
0.0
 25
0.0
 35
0.0
146
0.0
 13
0.0
 23
0.0
 33
0.0
 16
1.0
 26
0.0
 36
0.0
 17
0.0
 27
1.0
 37
0.0
 76
     0
330
1EA20
  0
LAYOUT
  5
1EA1F
102
{ACAD_REACTORS
330
1EA1B
102
}
330
1EA1B
100
AcDbPlotSettings
  1

  2
Muratec V-1200 Is@Web Printer
  4

  6

 40
0.0
 41
0.0
 42
0.0
 43
0.0
 44
0.0
 45
0.0
 46
0.0
 47
0.0
 48
0.0
 49
0.0
140
0.0
141
0.0
142
1.0
143
1.0
 70
   688
 72
     0
 73
     0
 74
     5
  7

 75
    16
147
1.0
148
0.0
149
0.0
100
AcDbLayout
  1
ﾚｲｱｳﾄ1
 70
     0
 71
     1
 10
0.0
 20
0.0
 11
12.0
 21
9.0
 12
0.0
 22
0.0
 32
0.0
 14
1.000000000000000E+20
 24
1.000000000000000E+20
 34
1.000000000000000E+20
 15
-1.000000000000000E+20
 25
-1.000000000000000E+20
 35
-1.000000000000000E+20
146
0.0
 13
0.0
 23
0.0
 33
0.0
 16
1.0
 26
0.0
 36
0.0
 17
0.0
 27
1.0
 37
0.0
 76
     0
330
1EA1C
  0
MLINESTYLE
  5
1EA19
102
{ACAD_REACTORS
330
1EA18
102
}
330
1EA18
100
AcDbMlineStyle
  2
STANDARD
 70
     0
  3

 62
   256
 51
90.0
 52
90.0
 71
     2
 49
0.5
 62
   256
  6
BYLAYER
 49
-0.5
 62
   256
  6
BYLAYER
  0
ACDBPLACEHOLDER
  5
1EA11
102
{ACAD_REACTORS
330
1EA10
102
}
330
1EA10
  0
DICTIONARYVAR
  5
1F1A8
102
{ACAD_REACTORS
330
1F1A7
102
}
330
1F1A7
100
DictionaryVariables
280
     0
  1
1
  0
ENDSEC
  0
EOF
