  0
SECTION
  2
HEADER
  9
$ACADVER
  1
AC1015
  9
$ACADMAINTVER
 70
    13
  9
$DWGCODEPAGE
  3
ANSI_932
  9
$INSBASE
 10
267.0
 20
194.8999999999998
 30
0.0
  9
$EXTMIN
 10
325.4974662390304
 20
122.7681178119601
 30
-0.0000000000000053
  9
$EXTMAX
 10
12286.99954069103
 20
8431.707478684501
 30
0.0000000000000099
  9
$LIMMIN
 10
0.0
 20
0.0
  9
$LIMMAX
 10
12600.0
 20
8910.0
  9
$ORTHOMODE
 70
     0
  9
$REGENMODE
 70
     1
  9
$FILLMODE
 70
     1
  9
$QTEXTMODE
 70
     0
  9
$MIRRTEXT
 70
     0
  9
$LTSCALE
 40
30.0
  9
$ATTMODE
 70
     1
  9
$TEXTSIZE
 40
0.2
  9
$TRACEWID
 40
0.05
  9
$TEXTSTYLE
  7
00
  9
$CLAYER
  8
SUNPOU
  9
$CELTYPE
  6
ByLayer
  9
$CECOLOR
 62
   256
  9
$CELTSCALE
 40
1.0
  9
$DISPSILH
 70
     0
  9
$DIMSCALE
 40
30.0
  9
$DIMASZ
 40
0.5
  9
$DIMEXO
 40
1.0
  9
$DIMDLI
 40
7.0
  9
$DIMRND
 40
0.0
  9
$DIMDLE
 40
3.0
  9
$DIMEXE
 40
1.5
  9
$DIMTP
 40
0.0
  9
$DIMTM
 40
0.0
  9
$DIMTXT
 40
3.0
  9
$DIMCEN
 40
0.0
  9
$DIMTSZ
 40
0.0
  9
$DIMTOL
 70
     0
  9
$DIMLIM
 70
     0
  9
$DIMTIH
 70
     0
  9
$DIMTOH
 70
     0
  9
$DIMSE1
 70
     0
  9
$DIMSE2
 70
     0
  9
$DIMTAD
 70
     1
  9
$DIMZIN
 70
     8
  9
$DIMBLK
  1
DOT
  9
$DIMASO
 70
     1
  9
$DIMSHO
 70
     0
  9
$DIMPOST
  1

  9
$DIMAPOST
  1

  9
$DIMALT
 70
     0
  9
$DIMALTD
 70
     2
  9
$DIMALTF
 40
25.4
  9
$DIMLFAC
 40
1.0
  9
$DIMTOFL
 70
     1
  9
$DIMTVP
 40
0.0
  9
$DIMTIX
 70
     0
  9
$DIMSOXD
 70
     0
  9
$DIMSAH
 70
     1
  9
$DIMBLK1
  1
DOT
  9
$DIMBLK2
  1
DOT
  9
$DIMSTYLE
  2
SUNPOU
  9
$DIMCLRD
 70
   256
  9
$DIMCLRE
 70
   256
  9
$DIMCLRT
 70
   256
  9
$DIMTFAC
 40
1.0
  9
$DIMGAP
 40
1.5
  9
$DIMJUST
 70
     0
  9
$DIMSD1
 70
     0
  9
$DIMSD2
 70
     0
  9
$DIMTOLJ
 70
     1
  9
$DIMTZIN
 70
     0
  9
$DIMALTZ
 70
     0
  9
$DIMALTTZ
 70
     0
  9
$DIMUPT
 70
     0
  9
$DIMDEC
 70
     4
  9
$DIMTDEC
 70
     4
  9
$DIMALTU
 70
     2
  9
$DIMALTTD
 70
     2
  9
$DIMTXSTY
  7
STANDARD
  9
$DIMAUNIT
 70
     0
  9
$DIMADEC
 70
     0
  9
$DIMALTRND
 40
0.0
  9
$DIMAZIN
 70
     0
  9
$DIMDSEP
 70
    46
  9
$DIMATFIT
 70
     3
  9
$DIMFRAC
 70
     0
  9
$DIMLDRBLK
  1
DOT
  9
$DIMLUNIT
 70
     2
  9
$DIMLWD
 70
    -2
  9
$DIMLWE
 70
    -2
  9
$DIMTMOVE
 70
     0
  9
$LUNITS
 70
     2
  9
$LUPREC
 70
     2
  9
$SKETCHINC
 40
0.1
  9
$FILLETRAD
 40
5.0
  9
$AUNITS
 70
     0
  9
$AUPREC
 70
     0
  9
$MENU
  1
A:\TIGER\MENU\TIGER
  9
$ELEVATION
 40
0.0
  9
$PELEVATION
 40
0.0
  9
$THICKNESS
 40
0.0
  9
$LIMCHECK
 70
     0
  9
$CHAMFERA
 40
0.0
  9
$CHAMFERB
 40
0.0
  9
$CHAMFERC
 40
0.0
  9
$CHAMFERD
 40
0.0
  9
$SKPOLY
 70
     0
  9
$TDCREATE
 40
2450266.571064815
  9
$TDUCREATE
 40
2450266.196064815
  9
$TDUPDATE
 40
2456330.301275498
  9
$TDUUPDATE
 40
2456329.926275497
  9
$TDINDWG
 40
0.1576336690
  9
$TDUSRTIMER
 40
0.1576334954
  9
$USRTIMER
 70
     1
  9
$ANGBASE
 50
0.0
  9
$ANGDIR
 70
     0
  9
$PDMODE
 70
     0
  9
$PDSIZE
 40
0.0
  9
$PLINEWID
 40
0.0
  9
$SPLFRAME
 70
     0
  9
$SPLINETYPE
 70
     6
  9
$SPLINESEGS
 70
     8
  9
$HANDSEED
  5
216B7
  9
$SURFTAB1
 70
     6
  9
$SURFTAB2
 70
     6
  9
$SURFTYPE
 70
     6
  9
$SURFU
 70
     6
  9
$SURFV
 70
     6
  9
$UCSBASE
  2

  9
$UCSNAME
  2

  9
$UCSORG
 10
0.0
 20
0.0
 30
0.0
  9
$UCSXDIR
 10
1.0
 20
0.0
 30
0.0
  9
$UCSYDIR
 10
0.0
 20
1.0
 30
0.0
  9
$UCSORTHOREF
  2

  9
$UCSORTHOVIEW
 70
     0
  9
$UCSORGTOP
 10
0.0
 20
0.0
 30
0.0
  9
$UCSORGBOTTOM
 10
0.0
 20
0.0
 30
0.0
  9
$UCSORGLEFT
 10
0.0
 20
0.0
 30
0.0
  9
$UCSORGRIGHT
 10
0.0
 20
0.0
 30
0.0
  9
$UCSORGFRONT
 10
0.0
 20
0.0
 30
0.0
  9
$UCSORGBACK
 10
0.0
 20
0.0
 30
0.0
  9
$PUCSBASE
  2

  9
$PUCSNAME
  2

  9
$PUCSORG
 10
0.0
 20
0.0
 30
0.0
  9
$PUCSXDIR
 10
1.0
 20
0.0
 30
0.0
  9
$PUCSYDIR
 10
0.0
 20
1.0
 30
0.0
  9
$PUCSORTHOREF
  2

  9
$PUCSORTHOVIEW
 70
     0
  9
$PUCSORGTOP
 10
0.0
 20
0.0
 30
0.0
  9
$PUCSORGBOTTOM
 10
0.0
 20
0.0
 30
0.0
  9
$PUCSORGLEFT
 10
0.0
 20
0.0
 30
0.0
  9
$PUCSORGRIGHT
 10
0.0
 20
0.0
 30
0.0
  9
$PUCSORGFRONT
 10
0.0
 20
0.0
 30
0.0
  9
$PUCSORGBACK
 10
0.0
 20
0.0
 30
0.0
  9
$USERI1
 70
     3
  9
$USERI2
 70
     0
  9
$USERI3
 70
     0
  9
$USERI4
 70
     0
  9
$USERI5
 70
  1103
  9
$USERR1
 40
0.0
  9
$USERR2
 40
1.0
  9
$USERR3
 40
0.0
  9
$USERR4
 40
0.0
  9
$USERR5
 40
0.0
  9
$WORLDVIEW
 70
     1
  9
$SHADEDGE
 70
     3
  9
$SHADEDIF
 70
    70
  9
$TILEMODE
 70
     1
  9
$MAXACTVP
 70
    16
  9
$PINSBASE
 10
0.0
 20
0.0
 30
0.0
  9
$PLIMCHECK
 70
     0
  9
$PEXTMIN
 10
1.000000000000000E+20
 20
1.000000000000000E+20
 30
1.000000000000000E+20
  9
$PEXTMAX
 10
-1.000000000000000E+20
 20
-1.000000000000000E+20
 30
-1.000000000000000E+20
  9
$PLIMMIN
 10
0.0
 20
0.0
  9
$PLIMMAX
 10
12.0
 20
9.0
  9
$UNITMODE
 70
     0
  9
$VISRETAIN
 70
     0
  9
$PLINEGEN
 70
     1
  9
$PSLTSCALE
 70
     0
  9
$TREEDEPTH
 70
  3020
  9
$CMLSTYLE
  2
Standard
  9
$CMLJUST
 70
     0
  9
$CMLSCALE
 40
1.0
  9
$PROXYGRAPHICS
 70
     1
  9
$MEASUREMENT
 70
     0
  9
$CELWEIGHT
370
    -1
  9
$ENDCAPS
280
     0
  9
$JOINSTYLE
280
     0
  9
$LWDISPLAY
290
     0
  9
$INSUNITS
 70
     0
  9
$HYPERLINKBASE
  1

  9
$STYLESHEET
  1

  9
$XEDIT
290
     1
  9
$CEPSNTYPE
380
     0
  9
$PSTYLEMODE
290
     1
  9
$FINGERPRINTGUID
  2
{9E5E0815-CDBC-41EC-BDCA-0D00B6DE0308}
  9
$VERSIONGUID
  2
{B799E841-32B6-45AB-9446-41500DAE93CF}
  9
$EXTNAMES
290
     1
  9
$PSVPSCALE
 40
0.0
  9
$OLESTARTUP
290
     0
  0
ENDSEC
  0
SECTION
  2
CLASSES
  0
CLASS
  1
ACDBDICTIONARYWDFLT
  2
AcDbDictionaryWithDefault
  3
AutoCAD 2000
 90
        0
280
     0
281
     0
  0
CLASS
  1
ACDBPLACEHOLDER
  2
AcDbPlaceHolder
  3
AutoCAD 2000
 90
        0
280
     0
281
     0
  0
CLASS
  1
LAYOUT
  2
AcDbLayout
  3
AutoCAD 2000
 90
        0
280
     0
281
     0
  0
CLASS
  1
DICTIONARYVAR
  2
AcDbDictionaryVar
  3
AutoCAD 2000
 90
        0
280
     0
281
     0
  0
ENDSEC
  0
SECTION
  2
TABLES
  0
TABLE
  2
VPORT
  5
2107D
330
0
100
AcDbSymbolTable
 70
     2
  0
VPORT
  5
216B6
330
2107D
100
AcDbSymbolTableRecord
100
AcDbViewportTableRecord
  2
*Active
 70
     0
 10
0.0
 20
0.0
 11
1.0
 21
1.0
 12
6306.248503465031
 22
4277.23779824823
 13
0.0
 23
0.0
 14
1.0
 24
1.0
 15
0.0
 25
0.0
 16
0.0
 26
0.0
 36
1.0
 17
0.0
 27
0.0
 37
0.0
 40
8372.125211525563
 41
1.527918781725888
 42
50.0
 43
0.0
 44
0.0
 50
0.0
 51
0.0
 71
     0
 72
 10000
 73
     1
 74
     0
 75
     0
 76
     0
 77
     0
 78
     0
281
     0
 65
     1
110
0.0
120
0.0
130
0.0
111
1.0
121
0.0
131
0.0
112
0.0
122
1.0
132
0.0
 79
     0
146
0.0
  0
ENDTAB
  0
TABLE
  2
LTYPE
  5
2107A
330
0
100
AcDbSymbolTable
 70
     4
  0
LTYPE
  5
21088
330
2107A
100
AcDbSymbolTableRecord
100
AcDbLinetypeTableRecord
  2
ByBlock
 70
     0
  3

 72
    65
 73
     0
 40
0.0
  0
LTYPE
  5
21089
330
2107A
100
AcDbSymbolTableRecord
100
AcDbLinetypeTableRecord
  2
ByLayer
 70
     0
  3

 72
    65
 73
     0
 40
0.0
  0
LTYPE
  5
2108A
330
2107A
100
AcDbSymbolTableRecord
100
AcDbLinetypeTableRecord
  2
CONTINUOUS
 70
     0
  3
実線
 72
    65
 73
     0
 40
0.0
  0
LTYPE
  5
2109A
330
2107A
100
AcDbSymbolTableRecord
100
AcDbLinetypeTableRecord
  2
HIDE-S
 70
     0
  3

 72
    65
 73
     2
 40
1.0
 49
0.5
 74
     0
 49
-0.5
 74
     0
  0
LTYPE
  5
2109B
330
2107A
100
AcDbSymbolTableRecord
100
AcDbLinetypeTableRecord
  2
1PL-M
 70
     0
  3

 72
    65
 73
     4
 40
15.0
 49
12.0
 74
     0
 49
-1.0
 74
     0
 49
1.0
 74
     0
 49
-1.0
 74
     0
  0
LTYPE
  5
2109C
330
2107A
100
AcDbSymbolTableRecord
100
AcDbLinetypeTableRecord
  2
1PL-S
 70
     0
  3

 72
    65
 73
     4
 40
4.0
 49
2.5
 74
     0
 49
-0.5
 74
     0
 49
0.5
 74
     0
 49
-0.5
 74
     0
  0
ENDTAB
  0
TABLE
  2
LAYER
  5
21077
330
0
100
AcDbSymbolTable
 70
    31
  0
LAYER
  5
21085
330
21077
100
AcDbSymbolTableRecord
100
AcDbLayerTableRecord
  2
0
 70
     0
 62
     7
  6
CONTINUOUS
370
    -3
390
21084
  0
LAYER
  5
21097
330
21077
100
AcDbSymbolTableRecord
100
AcDbLayerTableRecord
  2
SUNPOU
 70
     0
 62
     4
  6
CONTINUOUS
370
    -3
390
21084
  0
LAYER
  5
2109D
330
21077
100
AcDbSymbolTableRecord
100
AcDbLayerTableRecord
  2
U1
 70
     0
 62
     3
  6
CONTINUOUS
370
    -3
390
21084
  0
LAYER
  5
2109E
330
21077
100
AcDbSymbolTableRecord
100
AcDbLayerTableRecord
  2
U3
 70
     0
 62
     6
  6
CONTINUOUS
370
    -3
390
21084
  0
LAYER
  5
2109F
330
21077
100
AcDbSymbolTableRecord
100
AcDbLayerTableRecord
  2
HIKIDASHI
 70
     0
 62
     6
  6
CONTINUOUS
370
    -3
390
21084
  0
LAYER
  5
210A0
330
21077
100
AcDbSymbolTableRecord
100
AcDbLayerTableRecord
  2
HIDE-S1
 70
     0
 62
     6
  6
HIDE-S
370
    -3
390
21084
  0
LAYER
  5
210A1
330
21077
100
AcDbSymbolTableRecord
100
AcDbLayerTableRecord
  2
1PL-S1
 70
     0
 62
     6
  6
1PL-S
370
    -3
390
21084
  0
LAYER
  5
210A2
330
21077
100
AcDbSymbolTableRecord
100
AcDbLayerTableRecord
  2
1PL-S2
 70
     0
 62
     1
  6
1PL-S
370
    -3
390
21084
  0
LAYER
  5
210A3
330
21077
100
AcDbSymbolTableRecord
100
AcDbLayerTableRecord
  2
1PL-M1
 70
     0
 62
     6
  6
1PL-M
370
    -3
390
21084
  0
LAYER
  5
210A4
330
21077
100
AcDbSymbolTableRecord
100
AcDbLayerTableRecord
  2
YANE
 70
     0
 62
     1
  6
CONTINUOUS
370
    -3
390
21084
  0
LAYER
  5
210A5
330
21077
100
AcDbSymbolTableRecord
100
AcDbLayerTableRecord
  2
KISO
 70
     0
 62
     2
  6
CONTINUOUS
370
    -3
390
21084
  0
LAYER
  5
210A6
330
21077
100
AcDbSymbolTableRecord
100
AcDbLayerTableRecord
  2
HATCH
 70
     0
 62
     1
  6
CONTINUOUS
370
    -3
390
21084
  0
LAYER
  5
210A7
330
21077
100
AcDbSymbolTableRecord
100
AcDbLayerTableRecord
  2
HARI
 70
     0
 62
     3
  6
CONTINUOUS
370
    -3
390
21084
  0
LAYER
  5
210A8
330
21077
100
AcDbSymbolTableRecord
100
AcDbLayerTableRecord
  2
CAP
 70
     0
 62
     2
  6
CONTINUOUS
370
    -3
390
21084
  0
LAYER
  5
210A9
330
21077
100
AcDbSymbolTableRecord
100
AcDbLayerTableRecord
  2
HANA_JYUSHI
 70
     0
 62
     1
  6
CONTINUOUS
370
    -3
390
21084
  0
LAYER
  5
210AA
330
21077
100
AcDbSymbolTableRecord
100
AcDbLayerTableRecord
  2
KERABA_JYUSHI
 70
     0
 62
     3
  6
CONTINUOUS
370
    -3
390
21084
  0
LAYER
  5
210AB
330
21077
100
AcDbSymbolTableRecord
100
AcDbLayerTableRecord
  2
TOI
 70
     0
 62
     4
  6
CONTINUOUS
370
    -3
390
21084
  0
LAYER
  5
210AC
330
21077
100
AcDbSymbolTableRecord
100
AcDbLayerTableRecord
  2
HANA
 70
     0
 62
     3
  6
CONTINUOUS
370
    -3
390
21084
  0
LAYER
  5
210AD
330
21077
100
AcDbSymbolTableRecord
100
AcDbLayerTableRecord
  2
NAME
 70
     0
 62
    20
  6
CONTINUOUS
370
    -3
390
21084
  0
LAYER
  5
210AE
330
21077
100
AcDbSymbolTableRecord
100
AcDbLayerTableRecord
  2
FILENAME
 70
     0
 62
     7
  6
CONTINUOUS
370
    -3
390
21084
  0
LAYER
  5
210AF
330
21077
100
AcDbSymbolTableRecord
100
AcDbLayerTableRecord
  2
MOYA
 70
     0
 62
     4
  6
CONTINUOUS
370
    -3
390
21084
  0
LAYER
  5
210B0
330
21077
100
AcDbSymbolTableRecord
100
AcDbLayerTableRecord
  2
KERABA
 70
     0
 62
     2
  6
CONTINUOUS
370
    -3
390
21084
  0
LAYER
  5
210B1
330
21077
100
AcDbSymbolTableRecord
100
AcDbLayerTableRecord
  2
HASHIRA
 70
     0
 62
     3
  6
CONTINUOUS
370
    -3
390
21084
  0
LAYER
  5
210B2
330
21077
100
AcDbSymbolTableRecord
100
AcDbLayerTableRecord
  2
HARI_CAP
 70
     0
 62
     2
  6
CONTINUOUS
370
    -3
390
21084
  0
LAYER
  5
210B3
330
21077
100
AcDbSymbolTableRecord
100
AcDbLayerTableRecord
  2
MOYA_KANGU
 70
     0
 62
     4
  6
CONTINUOUS
370
    -3
390
21084
  0
LAYER
  5
210B4
330
21077
100
AcDbSymbolTableRecord
100
AcDbLayerTableRecord
  2
YANE_UKE
 70
     0
 62
     6
  6
CONTINUOUS
370
    -3
390
21084
  0
LAYER
  5
210B5
330
21077
100
AcDbSymbolTableRecord
100
AcDbLayerTableRecord
  2
HANA_KAKUSHI
 70
     0
 62
     3
  6
CONTINUOUS
370
    -3
390
21084
  0
LAYER
  5
210B6
330
21077
100
AcDbSymbolTableRecord
100
AcDbLayerTableRecord
  2
YODOROGO
 70
     0
 62
   130
  6
CONTINUOUS
370
    -3
390
21084
  0
LAYER
  5
210B7
330
21077
100
AcDbSymbolTableRecord
100
AcDbLayerTableRecord
  2
WAKUSEN-01
 70
     0
 62
    50
  6
CONTINUOUS
370
    -3
390
21084
  0
LAYER
  5
210B8
330
21077
100
AcDbSymbolTableRecord
100
AcDbLayerTableRecord
  2
WAKUSEN-02
 70
     0
 62
   130
  6
CONTINUOUS
370
    -3
390
21084
  0
LAYER
  5
210B9
330
21077
100
AcDbSymbolTableRecord
100
AcDbLayerTableRecord
  2
WAKUMOJI-01
 70
     0
 62
   130
  6
CONTINUOUS
370
    -3
390
21084
  0
ENDTAB
  0
TABLE
  2
STYLE
  5
21078
330
0
100
AcDbSymbolTable
 70
     5
  0
STYLE
  5
21086
330
21078
100
AcDbSymbolTableRecord
100
AcDbTextStyleTableRecord
  2
STANDARD
 70
     0
 40
3.0
 41
1.0
 50
0.0
 71
     0
 42
0.2
  3
ROMANS
  4
EXTFONT
  0
STYLE
  5
21098
330
21078
100
AcDbSymbolTableRecord
100
AcDbTextStyleTableRecord
  2
00
 70
     0
 40
0.0
 41
0.6666666666666666
 50
0.0
 71
     0
 42
0.2
  3
ROMANS
  4
BIGFONT
  0
STYLE
  5
210BA
330
21078
100
AcDbSymbolTableRecord
100
AcDbTextStyleTableRecord
  2
01
 70
     0
 40
3.0
 41
1.0
 50
0.0
 71
     0
 42
0.2
  3
ROMANS
  4
BIGFONT
  0
STYLE
  5
210BB
330
21078
100
AcDbSymbolTableRecord
100
AcDbTextStyleTableRecord
  2
WAKUMOJI
 70
     0
 40
3.0
 41
1.0
 50
0.0
 71
     0
 42
3.0
  3
SIMPLEX
  4
BIGFONT
  0
STYLE
  5
210BC
330
21078
100
AcDbSymbolTableRecord
100
AcDbTextStyleTableRecord
  2
FILENAME
 70
     0
 40
75.0
 41
1.0
 50
0.0
 71
     0
 42
75.0
  3
romans
  4
bigfont
  0
ENDTAB
  0
TABLE
  2
VIEW
  5
2107B
330
0
100
AcDbSymbolTable
 70
     0
  0
ENDTAB
  0
TABLE
  2
UCS
  5
2107C
330
0
100
AcDbSymbolTable
 70
     0
  0
ENDTAB
  0
TABLE
  2
APPID
  5
2107E
330
0
100
AcDbSymbolTable
 70
     4
  0
APPID
  5
21087
330
2107E
100
AcDbSymbolTableRecord
100
AcDbRegAppTableRecord
  2
ACAD
 70
     0
  0
APPID
  5
210BD
330
2107E
100
AcDbSymbolTableRecord
100
AcDbRegAppTableRecord
  2
AUTOCAD_POSTSCRIPT_FIGURE
 70
     0
  0
APPID
  5
210BE
330
2107E
100
AcDbSymbolTableRecord
100
AcDbRegAppTableRecord
  2
ACAD_PSEXT
 70
     0
  0
APPID
  5
210BF
330
2107E
100
AcDbSymbolTableRecord
100
AcDbRegAppTableRecord
  2
ACAD_EXEMPT_FROM_CAD_STANDARDS
 70
     0
  0
ENDTAB
  0
TABLE
  2
DIMSTYLE
  5
2107F
330
0
100
AcDbSymbolTable
 70
     1
100
AcDbDimStyleTable
 71
     0
  0
DIMSTYLE
105
210C0
330
2107F
100
AcDbSymbolTableRecord
100
AcDbDimStyleTableRecord
  2
SUNPOU
 70
     0
 40
30.0
 41
0.5
 42
1.0
 43
7.0
 44
1.5
 46
3.0
 73
     0
 74
     0
 77
     1
 78
     8
140
3.0
141
0.0
147
1.5
172
     1
173
     1
176
   256
177
   256
178
   256
271
     2
272
     2
279
     2
284
     8
285
     8
286
     8
340
21098
  0
ENDTAB
  0
TABLE
  2
BLOCK_RECORD
  5
21076
330
0
100
AcDbSymbolTable
 70
     6
  0
BLOCK_RECORD
  5
21093
330
21076
100
AcDbSymbolTableRecord
100
AcDbBlockTableRecord
  2
*Model_Space
340
21096
  0
BLOCK_RECORD
  5
2108F
330
21076
100
AcDbSymbolTableRecord
100
AcDbBlockTableRecord
  2
*Paper_Space
340
21092
  0
BLOCK_RECORD
  5
210C5
330
21076
100
AcDbSymbolTableRecord
100
AcDbBlockTableRecord
  2
$MODEL_SPACE
340
0
  0
BLOCK_RECORD
  5
210C8
330
21076
100
AcDbSymbolTableRecord
100
AcDbBlockTableRecord
  2
$PAPER_SPACE
340
0
  0
BLOCK_RECORD
  5
210CB
330
21076
100
AcDbSymbolTableRecord
100
AcDbBlockTableRecord
  2
DOT
340
0
  0
BLOCK_RECORD
  5
210D3
330
21076
100
AcDbSymbolTableRecord
100
AcDbBlockTableRecord
  2
*U3
340
0
  0
BLOCK_RECORD
  5
210D7
330
21076
100
AcDbSymbolTableRecord
100
AcDbBlockTableRecord
  2
*U4
340
0
  0
BLOCK_RECORD
  5
210DB
330
21076
100
AcDbSymbolTableRecord
100
AcDbBlockTableRecord
  2
*U5
340
0
  0
ENDTAB
  0
ENDSEC
  0
SECTION
  2
BLOCKS
  0
BLOCK
  5
21094
330
21093
100
AcDbEntity
  8
0
100
AcDbBlockBegin
  2
*Model_Space
 70
     0
 10
0.0
 20
0.0
 30
0.0
  3
*Model_Space
  1

  0
ENDBLK
  5
21095
330
21093
100
AcDbEntity
  8
0
100
AcDbBlockEnd
  0
BLOCK
  5
21090
330
2108F
100
AcDbEntity
 67
     1
  8
0
100
AcDbBlockBegin
  2
*Paper_Space
 70
     0
 10
0.0
 20
0.0
 30
0.0
  3
*Paper_Space
  1

  0
ENDBLK
  5
21091
330
2108F
100
AcDbEntity
 67
     1
  8
0
100
AcDbBlockEnd
  0
BLOCK
  5
210C6
330
210C5
100
AcDbEntity
  8
0
100
AcDbBlockBegin
  2
$MODEL_SPACE
 70
     0
 10
0.0
 20
0.0
 30
0.0
  3
$MODEL_SPACE
  1

  0
ENDBLK
  5
210C7
330
210C5
100
AcDbEntity
  8
0
100
AcDbBlockEnd
  0
BLOCK
  5
210C9
330
210C8
100
AcDbEntity
  8
0
100
AcDbBlockBegin
  2
$PAPER_SPACE
 70
     0
 10
0.0
 20
0.0
 30
0.0
  3
$PAPER_SPACE
  1

  0
ENDBLK
  5
210CA
330
210C8
100
AcDbEntity
  8
0
100
AcDbBlockEnd
  0
BLOCK
  5
210CC
330
210CB
100
AcDbEntity
  8
0
100
AcDbBlockBegin
  2
DOT
 70
     0
 10
0.0
 20
0.0
 30
0.0
  3
DOT
  1

  0
LWPOLYLINE
  5
210CD
330
210CB
100
AcDbEntity
  8
0
  6
ByBlock
 62
     0
100
AcDbPolyline
 90
        2
 70
     1
 43
0.75
 10
-0.375
 20
0.0
 42
1.0
 10
0.375
 20
0.0
 42
1.0
  0
LINE
  5
210D1
330
210CB
100
AcDbEntity
  8
0
  6
ByBlock
 62
     0
100
AcDbLine
 10
-0.75
 20
0.0
 30
0.0
 11
-1.5
 21
0.0
 31
0.0
  0
ENDBLK
  5
210D2
330
210CB
100
AcDbEntity
  8
0
100
AcDbBlockEnd
  0
BLOCK
  5
210D4
330
210D3
100
AcDbEntity
  8
0
100
AcDbBlockBegin
  2
*U3
 70
     1
 10
0.0
 20
0.0
 30
0.0
  3
*U3
  1

  0
TEXT
  5
210D5
330
210D3
100
AcDbEntity
  8
SUNPOU
100
AcDbText
 10
2452.113810499957
 20
8175.802125207463
 30
0.0
 40
90.0
  1
238
 41
0.6666666666666666
  7
00
100
AcDbText
  0
ENDBLK
  5
210D6
330
210D3
100
AcDbEntity
  8
0
100
AcDbBlockEnd
  0
BLOCK
  5
210D8
330
210D7
100
AcDbEntity
  8
0
100
AcDbBlockBegin
  2
*U4
 70
     1
 10
0.0
 20
0.0
 30
0.0
  3
*U4
  1

  0
TEXT
  5
210D9
330
210D7
100
AcDbEntity
  8
SUNPOU
100
AcDbText
 10
3742.542381928528
 20
8175.802125207461
 30
0.0
 40
90.0
  1
2400
 41
0.6666666666666666
  7
00
100
AcDbText
  0
ENDBLK
  5
210DA
330
210D7
100
AcDbEntity
  8
0
100
AcDbBlockEnd
  0
BLOCK
  5
210DC
330
210DB
100
AcDbEntity
  8
0
100
AcDbBlockBegin
  2
*U5
 70
     1
 10
0.0
 20
0.0
 30
0.0
  3
*U5
  1

  0
TEXT
  5
210DD
330
210DB
100
AcDbEntity
  8
SUNPOU
100
AcDbText
 10
5090.113810499958
 20
8175.802125207463
 30
0.0
 40
90.0
  1
238
 41
0.6666666666666666
  7
00
100
AcDbText
  0
ENDBLK
  5
210DE
330
210DB
100
AcDbEntity
  8
0
100
AcDbBlockEnd
  0
ENDSEC
  0
SECTION
  2
ENTITIES
  0
LINE
  5
210DF
330
21093
100
AcDbEntity
  8
U3
100
AcDbLine
 10
2470.065042394512
 20
1736.805063765603
 30
0.0
 11
2008.704652701304
 21
1736.805063765603
 31
0.0
  0
LINE
  5
210E0
330
21093
100
AcDbEntity
  8
KISO
100
AcDbLine
 10
5070.065042394515
 20
1736.805063765603
 30
0.0
 11
5070.065042394515
 21
1786.805063765605
 31
0.0
  0
LINE
  5
210E1
330
21093
100
AcDbEntity
  8
KISO
100
AcDbLine
 10
2470.065042394512
 20
1786.805063765603
 30
0.0
 11
2470.065042394512
 21
1736.805063765603
 31
0.0
  0
LINE
  5
210E2
330
21093
100
AcDbEntity
  8
U3
100
AcDbLine
 10
5531.425432087718
 20
1736.805063765605
 30
0.0
 11
5070.065042394515
 21
1736.805063765605
 31
0.0
  0
LINE
  5
210E3
330
21093
100
AcDbEntity
  8
SUNPOU
100
AcDbLine
 10
2094.598225684888
 20
1826.805063765603
 30
0.0
 11
2146.559749911952
 21
1736.805063765603
 31
0.0
  0
LINE
  5
210E4
330
21093
100
AcDbEntity
  8
SUNPOU
100
AcDbLine
 10
2198.521274139021
 20
1826.805063765603
 30
0.0
 11
2094.598225684888
 21
1826.805063765603
 31
0.0
  0
LINE
  5
210E5
330
21093
100
AcDbEntity
  8
SUNPOU
100
AcDbLine
 10
2146.559749911952
 20
1736.805063765603
 30
0.0
 11
2198.521274139021
 21
1826.805063765603
 31
0.0
  0
TEXT
  5
210E6
330
21093
100
AcDbEntity
  8
SUNPOU
100
AcDbText
 10
2075.131178483381
 20
1871.805063765603
 30
0.0
 40
90.0
  1
G.L
 41
0.6666666666666666
  7
00
 72
     4
 11
2146.559749911952
 21
1916.805063765603
 31
0.0
100
AcDbText
  0
TEXT
  5
210E7
330
21093
100
AcDbEntity
  8
SUNPOU
100
AcDbText
 10
2718.287490583892
 20
1921.805063765603
 30
0.0
 40
90.0
  1
F.L
 41
0.6666666666666666
  7
00
 72
     4
 11
2786.858919155321
 21
1966.805063765603
 31
0.0
100
AcDbText
  0
LINE
  5
210E8
330
21093
100
AcDbEntity
  8
SUNPOU
100
AcDbLine
 10
2786.858919155321
 20
1786.805063765603
 30
0.0
 11
2838.820443382387
 21
1876.805063765603
 31
0.0
  0
LINE
  5
210E9
330
21093
100
AcDbEntity
  8
SUNPOU
100
AcDbLine
 10
2734.897394928255
 20
1876.805063765603
 30
0.0
 11
2786.858919155321
 21
1786.805063765603
 31
0.0
  0
LINE
  5
210EA
330
21093
100
AcDbEntity
  8
SUNPOU
100
AcDbLine
 10
2838.820443382387
 20
1876.805063765603
 30
0.0
 11
2734.897394928255
 21
1876.805063765603
 31
0.0
  0
LINE
  5
210EB
330
21093
100
AcDbEntity
  8
KISO
100
AcDbLine
 10
5070.065042394515
 20
1786.805063765605
 30
0.0
 11
2470.065042394512
 21
1786.805063765603
 31
0.0
  0
LINE
  5
210EC
330
21093
100
AcDbEntity
  8
KISO
100
AcDbLine
 10
2470.065042394512
 20
1736.805063765603
 30
0.0
 11
5070.065042394515
 21
1736.805063765603
 31
0.0
  0
LINE
  5
210ED
330
21093
100
AcDbEntity
  8
SUNPOU
100
AcDbLine
 10
5100.065042394515
 20
1786.805063765605
 30
0.0
 11
5525.065042394515
 21
1786.805063765605
 31
0.0
  0
LINE
  5
210EE
330
21093
100
AcDbEntity
  8
SUNPOU
100
AcDbLine
 10
5100.065042394515
 20
1786.805063765605
 30
0.0
 11
5525.065042394515
 21
1786.805063765605
 31
0.0
  0
LINE
  5
210EF
330
21093
100
AcDbEntity
  8
SUNPOU
100
AcDbLine
 10
5480.065042394514
 20
1721.805063765605
 30
0.0
 11
5480.065042394514
 21
1706.805063765605
 31
0.0
  0
LINE
  5
210F0
330
21093
100
AcDbEntity
  8
SUNPOU
100
AcDbLine
 10
5480.065042394514
 20
1786.805063765605
 30
0.0
 11
5480.065042394514
 21
1606.962206622747
 31
0.0
  0
TEXT
  5
210F1
330
21093
100
AcDbEntity
  8
SUNPOU
100
AcDbText
 10
5435.065042394515
 20
1598.390778051319
 30
0.0
 40
90.0
  1
50
 50
90.0
 41
0.6666666666666666
  7
00
 72
     1
 11
5390.065042394514
 21
1655.533635194176
 31
0.0
100
AcDbText
 73
     2
  0
CIRCLE
  5
210F2
330
21093
100
AcDbEntity
  8
HARI
100
AcDbCircle
 10
3871.828096214242
 20
3808.047672138153
 30
0.0
 40
6.0
  0
CIRCLE
  5
210F3
330
21093
100
AcDbEntity
  8
HARI
100
AcDbCircle
 10
4471.075018664135
 20
3777.995618392491
 30
0.0
 40
6.0
  0
ARC
  5
210F4
330
21093
100
AcDbEntity
  8
CAP
100
AcDbCircle
 10
3256.876732991687
 20
3844.394210772819
 30
0.0
 40
40.0
100
AcDbArc
 50
134.9514487464342
 51
219.3066292833715
  0
ARC
  5
210F5
330
21093
100
AcDbEntity
  8
CAP
100
AcDbCircle
 10
3237.488098489758
 20
3812.825702024284
 30
0.0
 40
5.0
100
AcDbArc
 50
219.3066292833715
 51
267.1290390148967
  0
LINE
  5
210F6
330
21093
100
AcDbEntity
  8
CAP
100
AcDbLine
 10
3233.619263886795
 20
3809.658350004863
 30
0.0
 11
3225.926056167989
 21
3819.055394617463
 31
0.0
  0
LINE
  5
210F7
330
21093
100
AcDbEntity
  8
CAP
100
AcDbLine
 10
3240.017306571336
 20
3807.692579463342
 30
0.0
 11
3237.237664708544
 21
3807.831977670533
 31
0.0
  0
LINE
  5
210F8
330
21093
100
AcDbEntity
  8
CAP
100
AcDbLine
 10
3232.763703903361
 20
3876.842681207413
 30
0.0
 11
3228.616439400177
 21
3872.702439366669
 31
0.0
  0
CIRCLE
  5
210F9
330
21093
100
AcDbEntity
  8
CAP
100
AcDbCircle
 10
3256.876732991687
 20
3844.394210772819
 30
0.0
 40
1.5
  0
LINE
  5
210FA
330
21093
100
AcDbEntity
  8
CAP
100
AcDbLine
 10
4558.360535961099
 20
3741.578061222892
 30
0.0
 11
4561.384036240894
 21
3801.867559339284
 31
0.0
  0
ARC
  5
210FB
330
21093
100
AcDbEntity
  8
CAP
100
AcDbCircle
 10
4545.257616258957
 20
3779.782295219653
 30
0.0
 40
40.0
100
AcDbArc
 50
314.9514487464343
 51
22.03183315050296
  0
ARC
  5
210FC
330
21093
100
AcDbEntity
  8
CAP
100
AcDbCircle
 10
4561.390611605104
 20
3746.432387369451
 30
0.0
 40
5.0
100
AcDbArc
 50
267.1290390148967
 51
314.9514487464343
  0
LINE
  5
210FD
330
21093
100
AcDbEntity
  8
CAP
100
AcDbLine
 10
4564.923148304047
 20
3742.893858795219
 30
0.0
 11
4573.517909850465
 21
3751.474066625801
 31
0.0
  0
LINE
  5
210FE
330
21093
100
AcDbEntity
  8
CAP
100
AcDbLine
 10
4558.360535961099
 20
3741.578061222892
 30
0.0
 11
4561.140177823894
 21
3741.438663015701
 31
0.0
  0
CIRCLE
  5
210FF
330
21093
100
AcDbEntity
  8
CAP
100
AcDbCircle
 10
4545.257616258957
 20
3779.782295219653
 30
0.0
 40
1.5
  0
LINE
  5
21100
330
21093
100
AcDbEntity
  8
U1
100
AcDbLine
 10
3908.215042394513
 20
3770.978641609911
 30
0.0
 11
3908.215042394513
 21
3505.055063765604
 31
0.0
  0
LINE
  5
21101
330
21093
100
AcDbEntity
  8
U1
100
AcDbLine
 10
3831.915042394513
 20
1786.805063765603
 30
0.0
 11
3831.915042394513
 21
3774.805063765604
 31
0.0
  0
LINE
  5
21102
330
21093
100
AcDbEntity
  8
U1
100
AcDbLine
 10
3908.215042394513
 20
3505.055063765604
 30
0.0
 11
4219.415042394513
 21
3505.055063765604
 31
0.0
  0
LINE
  5
21103
330
21093
100
AcDbEntity
  8
U1
100
AcDbLine
 10
3908.215042394513
 20
3444.555063765605
 30
0.0
 11
4219.415042394513
 21
3444.555063765605
 31
0.0
  0
ARC
  5
21104
330
21093
100
AcDbEntity
  8
U1
100
AcDbCircle
 10
3908.215042394513
 20
3474.805063765605
 30
0.0
 40
30.25
100
AcDbArc
 50
90.0
 51
270.0
  0
LINE
  5
21105
330
21093
100
AcDbEntity
  8
U1
100
AcDbLine
 10
3908.215042394513
 20
3444.555063765605
 30
0.0
 11
3908.215042394513
 21
1786.805063765603
 31
0.0
  0
LINE
  5
21106
330
21093
100
AcDbEntity
  8
1PL-M1
100
AcDbLine
 10
3870.065042394513
 20
1679.46006769013
 30
0.0
 11
3870.065042394513
 21
3772.891852687757
 31
0.0
  0
LINE
  5
21107
330
21093
100
AcDbEntity
  8
U1
100
AcDbLine
 10
4499.915042394513
 20
3725.055063765607
 30
0.0
 11
4499.915042394513
 21
3741.305063765556
 31
0.0
  0
LINE
  5
21108
330
21093
100
AcDbEntity
  8
1PL-S1
100
AcDbLine
 10
3857.425878130031
 20
3474.805063765605
 30
0.0
 11
4219.415042394513
 21
3474.805063765605
 31
0.0
  0
LINE
  5
21109
330
21093
100
AcDbEntity
  8
U1
100
AcDbLine
 10
4439.415042394513
 20
3725.055063765607
 30
0.0
 11
4439.415042394513
 21
3744.339120651788
 31
0.0
  0
ARC
  5
2110A
330
21093
100
AcDbEntity
  8
U1
100
AcDbCircle
 10
4219.415042394513
 20
3725.055063765607
 30
0.0
 40
220.0
100
AcDbArc
 50
270.0
 51
0.0
  0
ARC
  5
2110B
330
21093
100
AcDbEntity
  8
U1
100
AcDbCircle
 10
4219.415042394513
 20
3725.055063765607
 30
0.0
 40
280.5
100
AcDbArc
 50
270.0
 51
0.0
  0
ARC
  5
2110C
330
21093
100
AcDbEntity
  8
1PL-S1
100
AcDbCircle
 10
4219.415042394513
 20
3725.055063765607
 30
0.0
 40
250.2499999999999
100
AcDbArc
 50
270.0
 51
0.0
  0
LINE
  5
2110D
330
21093
100
AcDbEntity
  8
1PL-M1
100
AcDbLine
 10
4469.665042394512
 20
3725.055063765607
 30
0.0
 11
4469.665042394512
 21
3742.822092208673
 31
0.0
  0
LINE
  5
2110E
330
21093
100
AcDbEntity
  8
1PL-S1
100
AcDbLine
 10
4469.665042394515
 20
3742.822092208673
 30
0.0
 11
4474.15681340125
 21
3832.389346910821
 31
0.0
  0
LINE
  5
2110F
330
21093
100
AcDbEntity
  8
U1
100
AcDbLine
 10
4431.723203195359
 20
3814.812833545237
 30
0.0
 11
4428.217130258397
 21
3744.900692592747
 31
0.0
  0
LINE
  5
21110
330
21093
100
AcDbEntity
  8
U1
100
AcDbLine
 10
4428.217130258397
 20
3744.900692592747
 30
0.0
 11
4511.112954530631
 21
3740.743491824596
 31
0.0
  0
LINE
  5
21111
330
21093
100
AcDbEntity
  8
U1
100
AcDbLine
 10
4511.112954530631
 20
3740.743491824596
 30
0.0
 11
4514.619027467593
 21
3810.655632777085
 31
0.0
  0
LINE
  5
21112
330
21093
100
AcDbEntity
  8
U1
100
AcDbLine
 10
4514.619027467593
 20
3810.655632777085
 30
0.0
 11
4431.723203195359
 21
3814.812833545237
 31
0.0
  0
CIRCLE
  5
21113
330
21093
100
AcDbEntity
  8
U1
100
AcDbCircle
 10
4471.428096214244
 20
3777.977911659064
 30
0.0
 40
6.0
  0
LINE
  5
21114
330
21093
100
AcDbEntity
  8
1PL-S1
100
AcDbLine
 10
3870.065042394513
 20
3772.891852687757
 30
0.0
 11
3875.171522486914
 21
3874.716590053427
 31
0.0
  0
LINE
  5
21115
330
21093
100
AcDbEntity
  8
U1
100
AcDbLine
 10
3822.13575448786
 20
3845.383461586749
 30
0.0
 11
3925.006476175092
 21
3840.224525693744
 31
0.0
  0
LINE
  5
21116
330
21093
100
AcDbEntity
  8
U1
100
AcDbLine
 10
3925.006476175092
 20
3840.224525693744
 30
0.0
 11
3921.500403238129
 21
3770.312384741256
 31
0.0
  0
LINE
  5
21117
330
21093
100
AcDbEntity
  8
U1
100
AcDbLine
 10
3921.500403238129
 20
3770.312384741256
 30
0.0
 11
3818.629681550897
 21
3775.47132063426
 31
0.0
  0
LINE
  5
21118
330
21093
100
AcDbEntity
  8
U1
100
AcDbLine
 10
3818.629681550897
 20
3775.47132063426
 30
0.0
 11
3822.13575448786
 21
3845.383461586749
 31
0.0
  0
CIRCLE
  5
21119
330
21093
100
AcDbEntity
  8
U1
100
AcDbCircle
 10
3871.828096214242
 20
3808.047672138151
 30
0.0
 40
6.0
  0
LINE
  5
2111A
330
21093
100
AcDbEntity
  8
U1
100
AcDbLine
 10
2934.161632499135
 20
3989.940642931455
 30
0.0
 11
4497.169620982893
 21
3911.556260274631
 31
0.0
  0
LINE
  5
2111B
330
21093
100
AcDbEntity
  8
U1
100
AcDbLine
 10
2929.253130387298
 20
3892.063645597974
 30
0.0
 11
4492.261118871057
 21
3813.679262941152
 31
0.0
  0
ARC
  5
2111C
330
21093
100
AcDbEntity
  8
U1
100
AcDbCircle
 10
2914.72871864047
 20
3941.853619120852
 30
0.0
 40
44.0
100
AcDbArc
 50
87.12903901487059
 51
267.1290390148576
  0
ARC
  5
2111D
330
21093
100
AcDbEntity
  8
U1
100
AcDbCircle
 10
2927.405900914529
 20
3895.160053722713
 30
0.0
 40
2.0
100
AcDbArc
 50
357.1290390149095
 51
87.12903901487059
  0
LINE
  5
2111E
330
21093
100
AcDbEntity
  8
U1
100
AcDbLine
 10
2912.524901365767
 20
3897.90884480786
 30
0.0
 11
2927.506074427014
 21
3897.15754346421
 31
0.0
  0
LINE
  5
2111F
330
21093
100
AcDbEntity
  8
U1
100
AcDbLine
 10
2929.403390656027
 20
3895.059880210225
 30
0.0
 11
2929.253130387298
 21
3892.063645597974
 31
0.0
  0
ARC
  5
21120
330
21093
100
AcDbEntity
  8
U1
100
AcDbCircle
 10
2932.013882488903
 20
3987.044581831695
 30
0.0
 40
2.0
100
AcDbArc
 50
267.1290390148576
 51
357.1290390149095
  0
LINE
  5
21121
330
21093
100
AcDbEntity
  8
U1
100
AcDbLine
 10
2916.932535915172
 20
3985.798393433841
 30
0.0
 11
2931.913708976419
 21
3985.047092090193
 31
0.0
  0
LINE
  5
21122
330
21093
100
AcDbEntity
  8
U1
100
AcDbLine
 10
2934.011372230404
 20
3986.944408319207
 30
0.0
 11
2934.161632499135
 21
3989.940642931455
 31
0.0
  0
ARC
  5
21123
330
21093
100
AcDbEntity
  8
U1
100
AcDbCircle
 10
4477.485525779306
 20
3519.04952606996
 30
0.0
 40
393.0
100
AcDbArc
 50
14.12903901489204
 51
87.12903901487059
  0
ARC
  5
21124
330
21093
100
AcDbEntity
  8
U1
100
AcDbCircle
 10
4477.485525779306
 20
3519.04952606996
 30
0.0
 40
295.0
100
AcDbArc
 50
16.07164098913105
 51
87.12903901487059
  0
ARC
  5
21125
330
21093
100
AcDbEntity
  8
U1
100
AcDbCircle
 10
4774.539763920684
 20
3604.136420491169
 30
0.0
 40
10.0
100
AcDbArc
 50
203.7231072416886
 51
285.0564385430727
  0
ARC
  5
21126
330
21093
100
AcDbEntity
  8
U1
100
AcDbCircle
 10
4763.553758948305
 20
3599.308616151022
 30
0.0
 40
2.0
100
AcDbArc
 50
23.72310724168857
 51
104.1290390148505
  0
LINE
  5
21127
330
21093
100
AcDbEntity
  8
U1
100
AcDbLine
 10
4760.95583298184
 20
3600.717052875307
 30
0.0
 11
4763.065545873828
 21
3601.248112991418
 31
0.0
  0
LINE
  5
21128
330
21093
100
AcDbEntity
  8
U1
100
AcDbLine
 10
4776.980829293065
 20
3594.438936289185
 30
0.0
 11
4858.596654917352
 21
3614.983395204505
 31
0.0
  0
LINE
  5
21129
330
21093
100
AcDbEntity
  8
1PL-S2
100
AcDbLine
 10
4783.688597753577
 20
3593.033840039345
 30
0.0
 11
4779.782893157769
 21
3608.549814762521
 31
0.0
  0
LINE
  5
2112A
330
21093
100
AcDbEntity
  8
1PL-S2
100
AcDbLine
 10
4773.977758094086
 20
3598.838975103028
 30
0.0
 11
4789.493732817263
 21
3602.744679698838
 31
0.0
  0
CIRCLE
  5
2112B
330
21093
100
AcDbEntity
  8
U1
100
AcDbCircle
 10
4781.735745455674
 20
3600.791827400932
 30
0.0
 40
2.5
  0
LINE
  5
2112C
330
21093
100
AcDbEntity
  8
1PL-S2
100
AcDbLine
 10
4830.223166465605
 20
3612.997154262831
 30
0.0
 11
4845.739141188781
 21
3616.90285885864
 31
0.0
  0
LINE
  5
2112D
330
21093
100
AcDbEntity
  8
1PL-S2
100
AcDbLine
 10
4839.934006125096
 20
3607.192019199145
 30
0.0
 11
4836.02830152929
 21
3622.707993922321
 31
0.0
  0
CIRCLE
  5
2112E
330
21093
100
AcDbEntity
  8
U1
100
AcDbCircle
 10
4837.981153827191
 20
3614.950006560736
 30
0.0
 40
2.5
  0
LINE
  5
2112F
330
21093
100
AcDbEntity
  8
U1
100
AcDbLine
 10
4496.198610351819
 20
3911.604956167058
 30
0.0
 11
4496.160517558798
 21
3910.805861143961
 31
0.0
  0
LINE
  5
21130
330
21093
100
AcDbEntity
  8
U1
100
AcDbLine
 10
4498.196032781361
 20
3911.503440434079
 30
0.0
 11
4498.153873988484
 21
3910.704552058782
 31
0.0
  0
LINE
  5
21131
330
21093
100
AcDbEntity
  8
U1
100
AcDbLine
 10
4546.974461346485
 20
3905.857343769838
 30
0.0
 11
4546.833008042532
 21
3905.069948721084
 31
0.0
  0
LINE
  5
21132
330
21093
100
AcDbEntity
  8
U1
100
AcDbLine
 10
4564.319877320391
 20
3902.336357819293
 30
0.0
 11
4564.143115281631
 21
3901.556130171965
 31
0.0
  0
ARC
  5
21133
330
21093
100
AcDbEntity
  8
HANA_JYUSHI
100
AcDbCircle
 10
2915.72746351122
 20
3941.803532364608
 30
0.0
 40
50.0
100
AcDbArc
 50
87.12903901487059
 51
267.1290390148576
  0
LINE
  5
21134
330
21093
100
AcDbEntity
  8
HANA_JYUSHI
100
AcDbLine
 10
2930.201788501804
 20
3891.014813970984
 30
0.0
 11
2913.223125699058
 21
3891.866288827116
 31
0.0
  0
LINE
  5
21135
330
21093
100
AcDbEntity
  8
HANA_JYUSHI
100
AcDbLine
 10
2930.251875258048
 20
3892.013558841732
 30
0.0
 11
2930.201788501804
 21
3891.014813970984
 31
0.0
  0
LINE
  5
21136
330
21093
100
AcDbEntity
  8
HANA_JYUSHI
100
AcDbLine
 10
2918.231801323379
 20
3991.740775902098
 30
0.0
 11
2935.210464126127
 21
3990.889301045963
 31
0.0
  0
LINE
  5
21137
330
21093
100
AcDbEntity
  8
HANA_JYUSHI
100
AcDbLine
 10
2935.160377369884
 20
3989.890556175215
 30
0.0
 11
2935.210464126127
 21
3990.889301045963
 31
0.0
  0
LINE
  5
21138
330
21093
100
AcDbEntity
  8
KERABA_JYUSHI
100
AcDbLine
 10
4855.694087385511
 20
3610.127975374769
 30
0.0
 11
4778.114213769625
 21
3590.599452395716
 31
0.0
  0
LINE
  5
21139
330
21093
100
AcDbEntity
  8
KERABA_JYUSHI
100
AcDbLine
 10
4858.596654917352
 20
3614.983395204516
 30
0.0
 11
4777.137787620673
 21
3594.478446076511
 31
0.0
  0
ARC
  5
2113A
330
21093
100
AcDbEntity
  8
KERABA_JYUSHI
100
AcDbCircle
 10
4774.696722248292
 20
3604.175930278496
 30
0.0
 40
14.0
100
AcDbArc
 50
194.129039014892
 51
284.129039014851
  0
ARC
  5
2113B
330
21093
100
AcDbEntity
  8
KERABA_JYUSHI
100
AcDbCircle
 10
4774.696722248292
 20
3604.175930278496
 30
0.0
 40
10.0
100
AcDbArc
 50
199.344947585357
 51
284.129039014851
  0
LINE
  5
2113C
330
21093
100
AcDbEntity
  8
KERABA_JYUSHI
100
AcDbLine
 10
4761.120244365512
 20
3600.758438757163
 30
0.0
 11
4764.073660551336
 21
3601.5018771409
 31
0.0
  0
LINE
  5
2113D
330
21093
100
AcDbEntity
  8
KERABA_JYUSHI
100
AcDbLine
 10
4761.120244365512
 20
3600.758438757163
 30
0.0
 11
4761.120244365512
 21
3600.758438757163
 31
0.0
  0
ARC
  5
2113E
330
21093
100
AcDbEntity
  8
KERABA_JYUSHI
100
AcDbCircle
 10
4764.317767088575
 20
3600.532128720703
 30
0.0
 40
1.0
100
AcDbArc
 50
19.34494758535711
 51
104.1290390148509
  0
ARC
  5
2113F
330
21093
100
AcDbEntity
  8
KERABA_JYUSHI
100
AcDbCircle
 10
4854.717661236557
 20
3614.006969055565
 30
0.0
 40
4.0
100
AcDbArc
 50
284.129039014851
 51
14.12903901489204
  0
LINE
  5
21140
330
21093
100
AcDbEntity
  8
KERABA_JYUSHI
100
AcDbLine
 10
4856.374189301476
 20
3614.423952802423
 30
0.0
 11
4856.374189301476
 21
3614.423952802423
 31
0.0
  0
LINE
  5
21141
330
21093
100
AcDbEntity
  8
SUNPOU
100
AcDbLine
 10
4884.793999285947
 20
3608.805063765604
 30
0.0
 11
5510.065042394512
 21
3608.805063765604
 31
0.0
  0
LINE
  5
21142
330
21093
100
AcDbEntity
  8
SUNPOU
100
AcDbLine
 10
5450.065042394514
 20
1786.805063765605
 30
0.0
 11
5450.065042394514
 21
1786.805063765605
 31
0.0
  0
LINE
  5
21143
330
21093
100
AcDbEntity
  8
SUNPOU
100
AcDbLine
 10
5480.065042394514
 20
3593.805063765606
 30
0.0
 11
5480.065042394514
 21
1801.805063765605
 31
0.0
  0
TEXT
  5
21144
330
21093
100
AcDbEntity
  8
SUNPOU
100
AcDbText
 10
5435.065042394515
 20
2579.233635194176
 30
0.0
 40
90.0
  1
1822
 50
90.0
 41
0.6666666666666666
  7
00
 72
     1
 11
5390.065042394514
 21
2697.805063765605
 31
0.0
100
AcDbText
 73
     2
  0
LINE
  5
21145
330
21093
100
AcDbEntity
  8
SUNPOU
100
AcDbLine
 10
2445.155206745769
 20
1786.805063765603
 30
0.0
 11
2317.405649204296
 21
1786.805063765603
 31
0.0
  0
LINE
  5
21146
330
21093
100
AcDbEntity
  8
SUNPOU
100
AcDbLine
 10
2862.866350100324
 20
3991.740775902098
 30
0.0
 11
2317.405649204296
 21
3991.740775902098
 31
0.0
  0
LINE
  5
21147
330
21093
100
AcDbEntity
  8
SUNPOU
100
AcDbLine
 10
2347.405649204295
 20
1801.805063765603
 30
0.0
 11
2347.405649204295
 21
3976.740775902097
 31
0.0
  0
TEXT
  5
21148
330
21093
100
AcDbEntity
  8
SUNPOU
100
AcDbText
 10
2302.405649204295
 20
2774.987205548136
 30
0.0
 40
90.0
  1
2200
 50
90.0
 41
0.6666666666666666
  7
00
 72
     1
 11
2257.405649204295
 21
2889.27291983385
 31
0.0
100
AcDbText
 73
     2
  0
LINE
  5
21149
330
21093
100
AcDbEntity
  8
SUNPOU
100
AcDbLine
 10
2527.405649204296
 20
1786.805063765603
 30
0.0
 11
2527.405649204296
 21
1786.805063765603
 31
0.0
  0
LINE
  5
2114A
330
21093
100
AcDbEntity
  8
SUNPOU
100
AcDbLine
 10
2862.866350100324
 20
3893.740775902097
 30
0.0
 11
2527.405649204296
 21
3893.740775902097
 31
0.0
  0
LINE
  5
2114B
330
21093
100
AcDbEntity
  8
SUNPOU
100
AcDbLine
 10
2557.405649204295
 20
1801.805063765603
 30
0.0
 11
2557.405649204295
 21
3878.740775902097
 31
0.0
  0
TEXT
  5
2114C
330
21093
100
AcDbEntity
  8
SUNPOU
100
AcDbText
 10
2512.405649204294
 20
2725.987205548136
 30
0.0
 40
90.0
  1
2102
 50
90.0
 41
0.6666666666666666
  7
00
 72
     1
 11
2467.405649204295
 21
2840.27291983385
 31
0.0
100
AcDbText
 73
     2
  0
LINE
  5
2114D
330
21093
100
AcDbEntity
  8
SUNPOU
100
AcDbLine
 10
2862.866350100324
 20
3893.740775902097
 30
0.0
 11
2527.405649204296
 21
3893.740775902097
 31
0.0
  0
LINE
  5
2114E
330
21093
100
AcDbEntity
  8
SUNPOU
100
AcDbLine
 10
2527.405649204296
 20
3991.740775902098
 30
0.0
 11
2527.405649204296
 21
3991.740775902098
 31
0.0
  0
LINE
  5
2114F
330
21093
100
AcDbEntity
  8
SUNPOU
100
AcDbLine
 10
2557.405649204295
 20
3878.740775902097
 30
0.0
 11
2557.405649204295
 21
3863.740775902098
 31
0.0
  0
LINE
  5
21150
330
21093
100
AcDbEntity
  8
SUNPOU
100
AcDbLine
 10
2557.405649204295
 20
4006.740775902097
 30
0.0
 11
2557.405649204295
 21
4021.740775902097
 31
0.0
  0
LINE
  5
21151
330
21093
100
AcDbEntity
  8
SUNPOU
100
AcDbLine
 10
2557.405649204295
 20
3893.740775902097
 30
0.0
 11
2557.405649204295
 21
4121.583633044954
 31
0.0
  0
TEXT
  5
21152
330
21093
100
AcDbEntity
  8
SUNPOU
100
AcDbText
 10
2512.405649204294
 20
4015.86934733067
 30
0.0
 40
90.0
  1
98
 50
90.0
 41
0.6666666666666666
  7
00
 72
     1
 11
2467.405649204295
 21
4073.012204473527
 31
0.0
100
AcDbText
 73
     2
  0
LINE
  5
21153
330
21093
100
AcDbEntity
  8
SUNPOU
100
AcDbLine
 10
2856.828096214243
 20
4029.157457211571
 30
0.0
 11
2856.828096214243
 21
4741.740775902097
 31
0.0
  0
LINE
  5
21154
330
21093
100
AcDbEntity
  8
SUNPOU
100
AcDbLine
 10
4856.828096214241
 20
3678.85443653376
 30
0.0
 11
4856.828096214241
 21
4741.740775902097
 31
0.0
  0
LINE
  5
21155
330
21093
100
AcDbEntity
  8
SUNPOU
100
AcDbLine
 10
2871.828096214242
 20
4711.740775902097
 30
0.0
 11
4841.828096214241
 21
4711.740775902097
 31
0.0
  0
TEXT
  5
21156
330
21093
100
AcDbEntity
  8
SUNPOU
100
AcDbText
 10
3742.542381928527
 20
4756.740775902096
 30
0.0
 40
90.0
  1
2000
 41
0.6666666666666666
  7
00
 72
     1
 11
3856.828096214241
 21
4801.740775902096
 31
0.0
100
AcDbText
 73
     2
  0
LINE
  5
21157
330
21093
100
AcDbEntity
  8
SUNPOU
100
AcDbLine
 10
2856.828096214243
 20
4531.740775902097
 30
0.0
 11
2856.828096214243
 21
4531.740775902097
 31
0.0
  0
LINE
  5
21158
330
21093
100
AcDbEntity
  8
SUNPOU
100
AcDbLine
 10
3871.828096214242
 20
3838.047672138151
 30
0.0
 11
3871.828096214242
 21
4531.740775902097
 31
0.0
  0
LINE
  5
21159
330
21093
100
AcDbEntity
  8
SUNPOU
100
AcDbLine
 10
2871.828096214242
 20
4501.740775902097
 30
0.0
 11
3856.828096214241
 21
4501.740775902097
 31
0.0
  0
TEXT
  5
2115A
330
21093
100
AcDbEntity
  8
SUNPOU
100
AcDbText
 10
3245.756667642814
 20
4546.740775902097
 30
0.0
 40
90.0
  1
1000
 41
0.6666666666666666
  7
00
 72
     1
 11
3364.328096214243
 21
4591.740775902097
 31
0.0
100
AcDbText
 73
     2
  0
LINE
  5
2115B
330
21093
100
AcDbEntity
  8
SUNPOU
100
AcDbLine
 10
3871.828096214242
 20
3838.047672138151
 30
0.0
 11
3871.828096214242
 21
4531.740775902097
 31
0.0
  0
LINE
  5
2115C
330
21093
100
AcDbEntity
  8
SUNPOU
100
AcDbLine
 10
4856.828096214241
 20
4531.740775902097
 30
0.0
 11
4856.828096214241
 21
4531.740775902097
 31
0.0
  0
LINE
  5
2115D
330
21093
100
AcDbEntity
  8
SUNPOU
100
AcDbLine
 10
3886.828096214241
 20
4501.740775902097
 30
0.0
 11
4841.828096214241
 21
4501.740775902097
 31
0.0
  0
TEXT
  5
2115E
330
21093
100
AcDbEntity
  8
SUNPOU
100
AcDbText
 10
4245.756667642814
 20
4546.740775902097
 30
0.0
 40
90.0
  1
1000
 41
0.6666666666666666
  7
00
 72
     1
 11
4364.328096214242
 21
4591.740775902097
 31
0.0
100
AcDbText
 73
     2
  0
LINE
  5
2115F
330
21093
100
AcDbEntity
  8
SUNPOU
100
AcDbLine
 10
2347.405649204295
 20
1798.055063765603
 30
0.0
 11
2347.405649204295
 21
1809.305063765603
 31
0.0
  0
LINE
  5
21160
330
21093
100
AcDbEntity
  8
SUNPOU
100
AcDbLine
 10
2557.405649204295
 20
1798.055063765603
 30
0.0
 11
2557.405649204295
 21
1809.305063765603
 31
0.0
  0
LINE
  5
21161
330
21093
100
AcDbEntity
  8
SUNPOU
100
AcDbLine
 10
2347.405649204295
 20
3980.490775902097
 30
0.0
 11
2347.405649204295
 21
3969.240775902097
 31
0.0
  0
LINE
  5
21162
330
21093
100
AcDbEntity
  8
SUNPOU
100
AcDbLine
 10
2557.405649204295
 20
3882.490775902097
 30
0.0
 11
2557.405649204295
 21
3871.240775902096
 31
0.0
  0
LINE
  5
21163
330
21093
100
AcDbEntity
  8
SUNPOU
100
AcDbLine
 10
2557.405649204295
 20
3882.490775902097
 30
0.0
 11
2557.405649204295
 21
3871.240775902096
 31
0.0
  0
LINE
  5
21164
330
21093
100
AcDbEntity
  8
SUNPOU
100
AcDbLine
 10
2557.405649204295
 20
4002.990775902097
 30
0.0
 11
2557.405649204295
 21
4014.240775902097
 31
0.0
  0
LINE
  5
21165
330
21093
100
AcDbEntity
  8
SUNPOU
100
AcDbLine
 10
5480.065042394514
 20
1798.055063765604
 30
0.0
 11
5480.065042394514
 21
1809.305063765604
 31
0.0
  0
LINE
  5
21166
330
21093
100
AcDbEntity
  8
SUNPOU
100
AcDbLine
 10
5480.065042394514
 20
1725.555063765605
 30
0.0
 11
5480.065042394514
 21
1714.305063765604
 31
0.0
  0
LINE
  5
21167
330
21093
100
AcDbEntity
  8
SUNPOU
100
AcDbLine
 10
5480.065042394514
 20
1775.555063765605
 30
0.0
 11
5480.065042394514
 21
1764.305063765605
 31
0.0
  0
LINE
  5
21168
330
21093
100
AcDbEntity
  8
SUNPOU
100
AcDbLine
 10
2868.078096214242
 20
4501.740775902097
 30
0.0
 11
2879.328096214243
 21
4501.740775902097
 31
0.0
  0
LINE
  5
21169
330
21093
100
AcDbEntity
  8
SUNPOU
100
AcDbLine
 10
2868.078096214242
 20
4711.740775902097
 30
0.0
 11
2879.328096214243
 21
4711.740775902097
 31
0.0
  0
LINE
  5
2116A
330
21093
100
AcDbEntity
  8
SUNPOU
100
AcDbLine
 10
3883.078096214241
 20
4501.740775902097
 30
0.0
 11
3894.328096214243
 21
4501.740775902097
 31
0.0
  0
LINE
  5
2116B
330
21093
100
AcDbEntity
  8
SUNPOU
100
AcDbLine
 10
3860.578096214243
 20
4501.740775902097
 30
0.0
 11
3849.328096214241
 21
4501.740775902097
 31
0.0
  0
LINE
  5
2116C
330
21093
100
AcDbEntity
  8
SUNPOU
100
AcDbLine
 10
5480.065042394514
 20
3597.555063765605
 30
0.0
 11
5480.065042394514
 21
3586.305063765604
 31
0.0
  0
LINE
  5
2116D
330
21093
100
AcDbEntity
  8
SUNPOU
100
AcDbLine
 10
4845.578096214239
 20
4501.740775902097
 30
0.0
 11
4834.328096214241
 21
4501.740775902097
 31
0.0
  0
LINE
  5
2116E
330
21093
100
AcDbEntity
  8
SUNPOU
100
AcDbLine
 10
4845.578096214239
 20
4711.740775902097
 30
0.0
 11
4834.328096214241
 21
4711.740775902097
 31
0.0
  0
TEXT
  5
2116F
330
21093
100
AcDbEntity
  8
SUNPOU
100
AcDbText
 10
8540.472571690044
 20
4546.391364710046
 30
0.0
 40
90.0
  1
2000
 41
0.6666666666666666
  7
00
 72
     1
 11
8654.758285975757
 21
4591.391364710045
 31
0.0
100
AcDbText
 73
     2
  0
LINE
  5
21170
330
21093
100
AcDbEntity
  8
HATCH
100
AcDbLine
 10
7706.687298345447
 20
1786.805063765605
 30
0.0
 11
7616.687298345446
 21
1696.805063765604
 31
0.0
  0
LINE
  5
21171
330
21093
100
AcDbEntity
  8
HATCH
100
AcDbLine
 10
7647.290328725778
 20
1786.805063765605
 30
0.0
 11
7557.290328725774
 21
1696.805063765604
 31
0.0
  0
LINE
  5
21172
330
21093
100
AcDbEntity
  8
HATCH
100
AcDbLine
 10
7676.988813535615
 20
1786.805063765605
 30
0.0
 11
7586.988813535615
 21
1696.805063765604
 31
0.0
  0
LINE
  5
21173
330
21093
100
AcDbEntity
  8
KISO
100
AcDbLine
 10
8622.004713837291
 20
1786.805063765603
 30
0.0
 11
7260.154713837292
 21
1786.805063765603
 31
0.0
  0
LINE
  5
21174
330
21093
100
AcDbEntity
  8
SUNPOU
100
AcDbLine
 10
7628.910114825166
 20
1876.805063765603
 30
0.0
 11
7524.987066371034
 21
1876.805063765603
 31
0.0
  0
LINE
  5
21175
330
21093
100
AcDbEntity
  8
SUNPOU
100
AcDbLine
 10
7576.948590598099
 20
1786.805063765603
 30
0.0
 11
7628.910114825166
 21
1876.805063765603
 31
0.0
  0
TEXT
  5
21176
330
21093
100
AcDbEntity
  8
SUNPOU
100
AcDbText
 10
7508.37716202667
 20
1921.805063765603
 30
0.0
 40
90.0
  1
F.L
 41
0.6666666666666666
  7
00
 72
     4
 11
7576.948590598099
 21
1966.805063765603
 31
0.0
100
AcDbText
  0
LINE
  5
21177
330
21093
100
AcDbEntity
  8
KISO
100
AcDbLine
 10
7260.154713837292
 20
1696.805063765603
 30
0.0
 11
8335.154713837292
 21
1696.805063765603
 31
0.0
  0
LINE
  5
21178
330
21093
100
AcDbEntity
  8
KISO
100
AcDbLine
 10
7260.154713837292
 20
1636.805063765603
 30
0.0
 11
8335.154713837292
 21
1636.805063765603
 31
0.0
  0
LINE
  5
21179
330
21093
100
AcDbEntity
  8
SUNPOU
100
AcDbLine
 10
7672.394191081078
 20
3893.514367376559
 30
0.0
 11
7370.777754625883
 21
3893.514367376559
 31
0.0
  0
LINE
  5
2117A
330
21093
100
AcDbEntity
  8
SUNPOU
100
AcDbLine
 10
7672.394191081078
 20
3893.514367376559
 30
0.0
 11
7370.777754625883
 21
3893.514367376559
 31
0.0
  0
LINE
  5
2117B
330
21093
100
AcDbEntity
  8
SUNPOU
100
AcDbLine
 10
7677.30269319291
 20
3991.39136471004
 30
0.0
 11
7370.777754625883
 21
3991.39136471004
 31
0.0
  0
LINE
  5
2117C
330
21093
100
AcDbEntity
  8
SUNPOU
100
AcDbLine
 10
7524.987066371034
 20
1876.805063765603
 30
0.0
 11
7576.948590598099
 21
1786.805063765603
 31
0.0
  0
LINE
  5
2117D
330
21093
100
AcDbEntity
  8
SUNPOU
100
AcDbLine
 10
6936.649421354733
 20
1736.805063765605
 30
0.0
 11
6988.6109455818
 21
1826.805063765604
 31
0.0
  0
LINE
  5
2117E
330
21093
100
AcDbEntity
  8
SUNPOU
100
AcDbLine
 10
6884.687897127668
 20
1826.805063765604
 30
0.0
 11
6936.649421354733
 21
1736.805063765605
 31
0.0
  0
LINE
  5
2117F
330
21093
100
AcDbEntity
  8
SUNPOU
100
AcDbLine
 10
7400.777754625882
 20
1801.805063765603
 30
0.0
 11
7400.777754625882
 21
3878.51436737656
 31
0.0
  0
LINE
  5
21180
330
21093
100
AcDbEntity
  8
U3
100
AcDbLine
 10
7113.794324144085
 20
1736.805063765605
 30
0.0
 11
7218.794324144081
 21
1631.805063765607
 31
0.0
  0
LINE
  5
21181
330
21093
100
AcDbEntity
  8
U3
100
AcDbLine
 10
7081.97451899069
 20
1704.98525861221
 30
0.0
 11
7155.154713837295
 21
1631.805063765605
 31
0.0
  0
LINE
  5
21182
330
21093
100
AcDbEntity
  8
U3
100
AcDbLine
 10
7260.154713837292
 20
1736.805063765605
 30
0.0
 11
6798.794324144084
 21
1736.805063765605
 31
0.0
  0
LINE
  5
21183
330
21093
100
AcDbEntity
  8
U3
100
AcDbLine
 10
6871.97451899069
 20
1704.98525861221
 30
0.0
 11
6945.154713837296
 21
1631.805063765605
 31
0.0
  0
LINE
  5
21184
330
21093
100
AcDbEntity
  8
U3
100
AcDbLine
 10
6798.794324144084
 20
1631.805063765607
 30
0.0
 11
6903.794324144084
 21
1736.805063765605
 31
0.0
  0
LINE
  5
21185
330
21093
100
AcDbEntity
  8
U3
100
AcDbLine
 10
6840.154713837295
 20
1673.165453458816
 30
0.0
 11
6881.515103530507
 21
1631.805063765605
 31
0.0
  0
LINE
  5
21186
330
21093
100
AcDbEntity
  8
U3
100
AcDbLine
 10
6798.794324144086
 20
1695.444674072392
 30
0.0
 11
6840.154713837299
 21
1736.805063765605
 31
0.0
  0
LINE
  5
21187
330
21093
100
AcDbEntity
  8
U3
100
AcDbLine
 10
6903.794324144084
 20
1736.805063765605
 30
0.0
 11
7008.794324144081
 21
1631.805063765607
 31
0.0
  0
LINE
  5
21188
330
21093
100
AcDbEntity
  8
U3
100
AcDbLine
 10
7050.154713837295
 20
1673.165453458818
 30
0.0
 11
7091.515103530506
 21
1631.805063765605
 31
0.0
  0
LINE
  5
21189
330
21093
100
AcDbEntity
  8
U3
100
AcDbLine
 10
7008.794324144081
 20
1631.805063765607
 30
0.0
 11
7113.794324144085
 21
1736.805063765605
 31
0.0
  0
LINE
  5
2118A
330
21093
100
AcDbEntity
  8
U3
100
AcDbLine
 10
6976.97451899069
 20
1663.624868919001
 30
0.0
 11
7050.154713837295
 21
1736.805063765605
 31
0.0
  0
LINE
  5
2118B
330
21093
100
AcDbEntity
  8
U3
100
AcDbLine
 10
6945.154713837296
 20
1695.444674072396
 30
0.0
 11
6986.515103530504
 21
1736.805063765605
 31
0.0
  0
LINE
  5
2118C
330
21093
100
AcDbEntity
  8
HATCH
100
AcDbLine
 10
7398.413290395677
 20
1786.805063765605
 30
0.0
 11
7308.413290395678
 21
1696.805063765607
 31
0.0
  0
LINE
  5
2118D
330
21093
100
AcDbEntity
  8
U3
100
AcDbLine
 10
7186.974518990687
 20
1663.624868919001
 30
0.0
 11
7260.154713837292
 21
1736.805063765605
 31
0.0
  0
LINE
  5
2118E
330
21093
100
AcDbEntity
  8
U3
100
AcDbLine
 10
7155.154713837292
 20
1695.444674072396
 30
0.0
 11
7196.515103530504
 21
1736.805063765605
 31
0.0
  0
LINE
  5
2118F
330
21093
100
AcDbEntity
  8
HATCH
100
AcDbLine
 10
7339.016320776007
 20
1786.805063765605
 30
0.0
 11
7260.154713837292
 21
1707.943456826892
 31
0.0
  0
LINE
  5
21190
330
21093
100
AcDbEntity
  8
HATCH
100
AcDbLine
 10
7368.714805585845
 20
1786.805063765605
 30
0.0
 11
7278.714805585844
 21
1696.805063765607
 31
0.0
  0
LINE
  5
21191
330
21093
100
AcDbEntity
  8
KISO
100
AcDbLine
 10
7260.154713837292
 20
1786.805063765603
 30
0.0
 11
7260.154713837292
 21
1636.805063765603
 31
0.0
  0
LINE
  5
21192
330
21093
100
AcDbEntity
  8
SUNPOU
100
AcDbLine
 10
7370.777754625883
 20
1786.805063765603
 30
0.0
 11
7370.777754625883
 21
1786.805063765603
 31
0.0
  0
TEXT
  5
21193
330
21093
100
AcDbEntity
  8
SUNPOU
100
AcDbText
 10
6865.220849926162
 20
1871.805063765604
 30
0.0
 40
90.0
  1
G.L
 41
0.6666666666666666
  7
00
 72
     4
 11
6936.649421354733
 21
1916.805063765604
 31
0.0
100
AcDbText
  0
LINE
  5
21194
330
21093
100
AcDbEntity
  8
SUNPOU
100
AcDbLine
 10
6988.6109455818
 20
1826.805063765604
 30
0.0
 11
6884.687897127668
 21
1826.805063765604
 31
0.0
  0
TEXT
  5
21195
330
21093
100
AcDbEntity
  8
SUNPOU
100
AcDbText
 10
7355.777754625882
 20
2725.874001285368
 30
0.0
 40
90.0
  1
2102
 50
90.0
 41
0.6666666666666666
  7
00
 72
     1
 11
7310.777754625881
 21
2840.159715571083
 31
0.0
100
AcDbText
 73
     2
  0
LINE
  5
21196
330
21093
100
AcDbEntity
  8
SUNPOU
100
AcDbLine
 10
7400.777754625882
 20
3893.514367376557
 30
0.0
 11
7400.777754625882
 21
4121.234221852899
 31
0.0
  0
LINE
  5
21197
330
21093
100
AcDbEntity
  8
SUNPOU
100
AcDbLine
 10
7400.777754625882
 20
3878.51436737656
 30
0.0
 11
7400.777754625882
 21
3863.51436737656
 31
0.0
  0
TEXT
  5
21198
330
21093
100
AcDbEntity
  8
SUNPOU
100
AcDbText
 10
7355.777754625882
 20
4015.519936138612
 30
0.0
 40
90.0
  1
98
 50
90.0
 41
0.6666666666666666
  7
00
 72
     1
 11
7310.777754625881
 21
4072.66279328147
 31
0.0
100
AcDbText
 73
     2
  0
LINE
  5
21199
330
21093
100
AcDbEntity
  8
SUNPOU
100
AcDbLine
 10
7400.777754625882
 20
4006.391364710039
 30
0.0
 11
7400.777754625882
 21
4021.39136471004
 31
0.0
  0
LINE
  5
2119A
330
21093
100
AcDbEntity
  8
HASHIRA
100
AcDbLine
 10
8698.304713837293
 20
3444.555063765605
 30
0.0
 11
8698.304713837293
 21
1286.805063765603
 31
0.0
  0
LINE
  5
2119B
330
21093
100
AcDbEntity
  8
HASHIRA
100
AcDbLine
 10
8622.004713837291
 20
1286.805063765603
 30
0.0
 11
8622.004713837291
 21
3774.805063765604
 31
0.0
  0
LINE
  5
2119C
330
21093
100
AcDbEntity
  8
1PL-M1
100
AcDbLine
 10
8660.154713837291
 20
1046.805063765604
 30
0.0
 11
8660.154713837291
 21
3772.891852687758
 31
0.0
  0
LINE
  5
2119D
330
21093
100
AcDbEntity
  8
SUNPOU
100
AcDbLine
 10
10050.15471383728
 20
3600.582642126956
 30
0.0
 11
10050.15471383728
 21
1801.805063765605
 31
0.0
  0
LINE
  5
2119E
330
21093
100
AcDbEntity
  8
HIKIDASHI
100
AcDbLine
 10
9053.76193298251
 20
1450.066375526769
 30
0.0
 11
9844.721158013914
 21
1450.066375526769
 31
0.0
  0
TEXT
  5
2119F
330
21093
100
AcDbEntity
  8
HIKIDASHI
100
AcDbText
 10
9343.8979981249
 20
1495.066375526769
 30
0.0
 40
90.0
  1
10   x 350
 41
0.6666666666666666
  7
00
 11
9343.8979981249
 21
1540.066375526769
 31
0.0
100
AcDbText
 73
     2
  0
LINE
  5
211A0
330
21093
100
AcDbEntity
  8
KISO
100
AcDbLine
 10
8985.154713837292
 20
1636.805063765603
 30
0.0
 11
9860.154713837292
 21
1636.805063765603
 31
0.0
  0
LINE
  5
211A1
330
21093
100
AcDbEntity
  8
KISO
100
AcDbLine
 10
8985.154713837292
 20
1696.805063765604
 30
0.0
 11
9860.154713837292
 21
1696.805063765607
 31
0.0
  0
LINE
  5
211A2
330
21093
100
AcDbEntity
  8
KISO
100
AcDbLine
 10
9860.154713837292
 20
1786.805063765605
 30
0.0
 11
8698.304713837293
 21
1786.805063765603
 31
0.0
  0
LINE
  5
211A3
330
21093
100
AcDbEntity
  8
HATCH
100
AcDbLine
 10
8622.004713837291
 20
1628.956578955768
 30
0.0
 11
8335.154713837294
 21
1342.10657895577
 31
0.0
  0
LINE
  5
211A4
330
21093
100
AcDbEntity
  8
HATCH
100
AcDbLine
 10
8622.004713837291
 20
1688.353548575437
 30
0.0
 11
8335.154713837294
 21
1401.503548575438
 31
0.0
  0
LINE
  5
211A5
330
21093
100
AcDbEntity
  8
HATCH
100
AcDbLine
 10
8622.004713837291
 20
1658.655063765602
 30
0.0
 11
8335.154713837294
 21
1371.805063765601
 31
0.0
  0
LINE
  5
211A6
330
21093
100
AcDbEntity
  8
HATCH
100
AcDbLine
 10
8622.004713837291
 20
1388.655063765604
 30
0.0
 11
8520.154713837291
 21
1286.805063765603
 31
0.0
  0
LINE
  5
211A7
330
21093
100
AcDbEntity
  8
HATCH
100
AcDbLine
 10
8622.004713837291
 20
1358.956578955771
 30
0.0
 11
8549.853198647126
 21
1286.805063765603
 31
0.0
  0
LINE
  5
211A8
330
21093
100
AcDbEntity
  8
HATCH
100
AcDbLine
 10
8622.004713837291
 20
1329.258094145935
 30
0.0
 11
8579.55168345696
 21
1286.805063765603
 31
0.0
  0
LINE
  5
211A9
330
21093
100
AcDbEntity
  8
HATCH
100
AcDbLine
 10
7946.988813535615
 20
1786.805063765605
 30
0.0
 11
7856.988813535614
 21
1696.805063765604
 31
0.0
  0
LINE
  5
211AA
330
21093
100
AcDbEntity
  8
HATCH
100
AcDbLine
 10
8006.385783155286
 20
1786.805063765605
 30
0.0
 11
7916.385783155283
 21
1696.805063765604
 31
0.0
  0
LINE
  5
211AB
330
21093
100
AcDbEntity
  8
HATCH
100
AcDbLine
 10
7976.687298345457
 20
1786.805063765605
 30
0.0
 11
7886.687298345453
 21
1696.805063765604
 31
0.0
  0
LINE
  5
211AC
330
21093
100
AcDbEntity
  8
KISO
100
AcDbLine
 10
8335.154713837292
 20
1786.805063765605
 30
0.0
 11
8335.154713837294
 21
1286.805063765603
 31
0.0
  0
LINE
  5
211AD
330
21093
100
AcDbEntity
  8
HATCH
100
AcDbLine
 10
8420.757744217622
 20
1786.805063765605
 30
0.0
 11
8335.154713837292
 21
1701.202033385273
 31
0.0
  0
LINE
  5
211AE
330
21093
100
AcDbEntity
  8
HATCH
100
AcDbLine
 10
8450.456229027459
 20
1786.805063765605
 30
0.0
 11
8335.154713837292
 21
1671.503548575437
 31
0.0
  0
LINE
  5
211AF
330
21093
100
AcDbEntity
  8
HATCH
100
AcDbLine
 10
8480.154713837292
 20
1786.805063765605
 30
0.0
 11
8335.154713837292
 21
1641.805063765604
 31
0.0
  0
LINE
  5
211B0
330
21093
100
AcDbEntity
  8
HATCH
100
AcDbLine
 10
8246.687298345452
 20
1786.805063765605
 30
0.0
 11
8156.687298345453
 21
1696.805063765604
 31
0.0
  0
LINE
  5
211B1
330
21093
100
AcDbEntity
  8
HATCH
100
AcDbLine
 10
8276.385783155282
 20
1786.805063765605
 30
0.0
 11
8186.385783155282
 21
1696.805063765604
 31
0.0
  0
LINE
  5
211B2
330
21093
100
AcDbEntity
  8
HATCH
100
AcDbLine
 10
8306.084267965122
 20
1786.805063765605
 30
0.0
 11
8216.084267965118
 21
1696.805063765607
 31
0.0
  0
LINE
  5
211B3
330
21093
100
AcDbEntity
  8
HATCH
100
AcDbLine
 10
9164.201372161796
 20
1786.805063765605
 30
0.0
 11
9074.201372161795
 21
1696.805063765604
 31
0.0
  0
LINE
  5
211B4
330
21093
100
AcDbEntity
  8
HATCH
100
AcDbLine
 10
9134.502887351958
 20
1786.805063765605
 30
0.0
 11
9044.502887351955
 21
1696.805063765604
 31
0.0
  0
TEXT
  5
211B5
330
21093
100
AcDbEntity
  8
HIKIDASHI
100
AcDbText
 10
9083.761932982509
 20
1495.066375526769
 30
0.0
 40
90.0
  1
鉄筋
  7
01
 11
9083.761932982509
 21
1540.066375526769
 31
0.0
100
AcDbText
 73
     2
  0
LINE
  5
211B6
330
21093
100
AcDbEntity
  8
HATCH
100
AcDbLine
 10
8985.154713837292
 20
1692.408094145936
 30
0.0
 11
8698.304713837293
 21
1405.558094145934
 31
0.0
  0
LINE
  5
211B7
330
21093
100
AcDbEntity
  8
HATCH
100
AcDbLine
 10
8985.154713837292
 20
1722.106578955774
 30
0.0
 11
8698.304713837293
 21
1435.25657895577
 31
0.0
  0
LINE
  5
211B8
330
21093
100
AcDbEntity
  8
KISO
100
AcDbLine
 10
8985.154713837292
 20
1786.805063765605
 30
0.0
 11
8985.154713837292
 21
1286.805063765604
 31
0.0
  0
LINE
  5
211B9
330
21093
100
AcDbEntity
  8
HIKIDASHI
100
AcDbLine
 10
8722.174426809161
 20
1329.378393225101
 30
0.0
 11
9053.76193298251
 21
1450.066375526769
 31
0.0
  0
LINE
  5
211BA
330
21093
100
AcDbEntity
  8
HATCH
100
AcDbLine
 10
8985.154713837292
 20
1422.408094145938
 30
0.0
 11
8849.551683456963
 21
1286.805063765603
 31
0.0
  0
LINE
  5
211BB
330
21093
100
AcDbEntity
  8
HATCH
100
AcDbLine
 10
8985.154713837292
 20
1452.106578955776
 30
0.0
 11
8819.853198647114
 21
1286.805063765603
 31
0.0
  0
LINE
  5
211BC
330
21093
100
AcDbEntity
  8
HIKIDASHI
100
AcDbLine
 10
8643.791086738778
 20
1346.805063765603
 30
0.0
 11
8676.518340935803
 21
1346.805063765603
 31
0.0
  0
CIRCLE
  5
211BD
330
21093
100
AcDbEntity
  8
HASHIRA
100
AcDbCircle
 10
8660.154713837291
 20
1346.805063765603
 30
0.0
 40
6.0
  0
CIRCLE
  5
211BE
330
21093
100
AcDbEntity
  8
HASHIRA
100
AcDbCircle
 10
8660.154713837291
 20
1306.805063765603
 30
0.0
 40
6.0
  0
LINE
  5
211BF
330
21093
100
AcDbEntity
  8
HATCH
100
AcDbLine
 10
8985.154713837292
 20
1392.709609336103
 30
0.0
 11
8879.250168266796
 21
1286.805063765603
 31
0.0
  0
LINE
  5
211C0
330
21093
100
AcDbEntity
  8
HATCH
100
AcDbLine
 10
8985.154713837292
 20
1751.805063765605
 30
0.0
 11
8698.304713837293
 21
1464.955063765603
 31
0.0
  0
LINE
  5
211C1
330
21093
100
AcDbEntity
  8
HATCH
100
AcDbLine
 10
8750.154713837295
 20
1786.805063765605
 30
0.0
 11
8698.304713837293
 21
1734.955063765601
 31
0.0
  0
LINE
  5
211C2
330
21093
100
AcDbEntity
  8
HATCH
100
AcDbLine
 10
8779.853198647128
 20
1786.805063765605
 30
0.0
 11
8698.304713837293
 21
1705.256578955765
 31
0.0
  0
LINE
  5
211C3
330
21093
100
AcDbEntity
  8
HATCH
100
AcDbLine
 10
8720.45622902746
 20
1786.805063765605
 30
0.0
 11
8698.304713837293
 21
1764.653548575438
 31
0.0
  0
LINE
  5
211C4
330
21093
100
AcDbEntity
  8
HATCH
100
AcDbLine
 10
9434.201372161792
 20
1786.805063765605
 30
0.0
 11
9344.201372161791
 21
1696.805063765604
 31
0.0
  0
LINE
  5
211C5
330
21093
100
AcDbEntity
  8
HATCH
100
AcDbLine
 10
9193.899856971627
 20
1786.805063765605
 30
0.0
 11
9103.899856971628
 21
1696.805063765604
 31
0.0
  0
TEXT
  5
211C6
330
21093
100
AcDbEntity
  8
HIKIDASHI
100
AcDbText
 10
9493.355159020964
 20
1510.066375526769
 30
0.0
 40
90.0
  1
%%c
 41
0.6666666666666666
  7
00
100
AcDbText
  0
LINE
  5
211C7
330
21093
100
AcDbEntity
  8
HATCH
100
AcDbLine
 10
9493.598341781464
 20
1786.805063765605
 30
0.0
 11
9403.598341781465
 21
1696.805063765604
 31
0.0
  0
LINE
  5
211C8
330
21093
100
AcDbEntity
  8
HATCH
100
AcDbLine
 10
9463.899856971632
 20
1786.805063765605
 30
0.0
 11
9373.899856971631
 21
1696.805063765604
 31
0.0
  0
LINE
  5
211C9
330
21093
100
AcDbEntity
  8
U3
100
AcDbLine
 10
10321.51510353049
 20
1736.805063765605
 30
0.0
 11
9860.154713837292
 21
1736.805063765605
 31
0.0
  0
LINE
  5
211CA
330
21093
100
AcDbEntity
  8
U3
100
AcDbLine
 10
10070.15471383728
 20
1631.805063765607
 30
0.0
 11
10175.15471383729
 21
1736.805063765605
 31
0.0
  0
LINE
  5
211CB
330
21093
100
AcDbEntity
  8
U3
100
AcDbLine
 10
10038.33490868389
 20
1663.624868919001
 30
0.0
 11
10111.5151035305
 21
1736.805063765605
 31
0.0
  0
LINE
  5
211CC
330
21093
100
AcDbEntity
  8
HATCH
100
AcDbLine
 10
9733.899856971632
 20
1786.805063765605
 30
0.0
 11
9643.899856971632
 21
1696.805063765604
 31
0.0
  0
LINE
  5
211CD
330
21093
100
AcDbEntity
  8
HATCH
100
AcDbLine
 10
9763.598341781458
 20
1786.805063765605
 30
0.0
 11
9673.598341781461
 21
1696.805063765604
 31
0.0
  0
LINE
  5
211CE
330
21093
100
AcDbEntity
  8
HATCH
100
AcDbLine
 10
9793.296826591301
 20
1786.805063765605
 30
0.0
 11
9703.296826591301
 21
1696.805063765607
 31
0.0
  0
LINE
  5
211CF
330
21093
100
AcDbEntity
  8
U3
100
AcDbLine
 10
9933.334908683892
 20
1704.98525861221
 30
0.0
 11
10006.5151035305
 21
1631.805063765605
 31
0.0
  0
LINE
  5
211D0
330
21093
100
AcDbEntity
  8
U3
100
AcDbLine
 10
9860.154713837292
 20
1631.805063765607
 30
0.0
 11
9965.154713837293
 21
1736.805063765605
 31
0.0
  0
LINE
  5
211D1
330
21093
100
AcDbEntity
  8
U3
100
AcDbLine
 10
9901.515103530503
 20
1673.165453458816
 30
0.0
 11
9942.875493223716
 21
1631.805063765605
 31
0.0
  0
LINE
  5
211D2
330
21093
100
AcDbEntity
  8
U3
100
AcDbLine
 10
9965.154713837293
 20
1736.805063765605
 30
0.0
 11
10070.15471383728
 21
1631.805063765607
 31
0.0
  0
LINE
  5
211D3
330
21093
100
AcDbEntity
  8
SUNPOU
100
AcDbLine
 10
9890.154713837292
 20
1786.805063765605
 30
0.0
 11
10080.15471383729
 21
1786.805063765605
 31
0.0
  0
LINE
  5
211D4
330
21093
100
AcDbEntity
  8
U3
100
AcDbLine
 10
9860.154713837296
 20
1695.444674072392
 30
0.0
 11
9901.515103530506
 21
1736.805063765605
 31
0.0
  0
LINE
  5
211D5
330
21093
100
AcDbEntity
  8
KISO
100
AcDbLine
 10
9860.154713837292
 20
1636.805063765603
 30
0.0
 11
9860.154713837292
 21
1786.805063765605
 31
0.0
  0
LINE
  5
211D6
330
21093
100
AcDbEntity
  8
U3
100
AcDbLine
 10
10006.5151035305
 20
1695.444674072396
 30
0.0
 11
10047.8754932237
 21
1736.805063765605
 31
0.0
  0
LINE
  5
211D7
330
21093
100
AcDbEntity
  8
SUNPOU
100
AcDbLine
 10
10020.15471383729
 20
1786.805063765605
 30
0.0
 11
10020.15471383729
 21
1786.805063765605
 31
0.0
  0
LINE
  5
211D8
330
21093
100
AcDbEntity
  8
SUNPOU
100
AcDbLine
 10
10050.15471383728
 20
1786.805063765605
 30
0.0
 11
10050.15471383728
 21
1736.805063765605
 31
0.0
  0
LINE
  5
211D9
330
21093
100
AcDbEntity
  8
U3
100
AcDbLine
 10
10175.15471383729
 20
1736.805063765605
 30
0.0
 11
10280.15471383728
 21
1631.805063765607
 31
0.0
  0
LINE
  5
211DA
330
21093
100
AcDbEntity
  8
U3
100
AcDbLine
 10
10143.33490868388
 20
1704.98525861221
 30
0.0
 11
10216.5151035305
 21
1631.805063765605
 31
0.0
  0
LINE
  5
211DB
330
21093
100
AcDbEntity
  8
U3
100
AcDbLine
 10
10111.5151035305
 20
1673.165453458816
 30
0.0
 11
10152.8754932237
 21
1631.805063765605
 31
0.0
  0
LINE
  5
211DC
330
21093
100
AcDbEntity
  8
U3
100
AcDbLine
 10
10216.5151035305
 20
1695.444674072396
 30
0.0
 11
10257.8754932237
 21
1736.805063765605
 31
0.0
  0
LINE
  5
211DD
330
21093
100
AcDbEntity
  8
U3
100
AcDbLine
 10
10248.33490868388
 20
1663.624868919001
 30
0.0
 11
10321.51510353049
 21
1736.805063765605
 31
0.0
  0
ARC
  5
211DE
330
21093
100
AcDbEntity
  8
YANE
100
AcDbCircle
 10
9281.895897540966
 20
3524.53913881739
 30
0.0
 40
370.0
100
AcDbArc
 50
17.12903901488647
 51
87.12903901490975
  0
ARC
  5
211DF
330
21093
100
AcDbEntity
  8
YANE
100
AcDbCircle
 10
9281.895897540966
 20
3524.53913881739
 30
0.0
 40
386.0
100
AcDbArc
 50
17.12903901488647
 51
87.12903901490975
  0
LINE
  5
211E0
330
21093
100
AcDbEntity
  8
HIKIDASHI
100
AcDbLine
 10
8910.510617964286
 20
2432.637663742353
 30
0.0
 11
9685.669151779535
 21
2432.637663742353
 31
0.0
  0
LINE
  5
211E1
330
21093
100
AcDbEntity
  8
SUNPOU
100
AcDbLine
 10
7669.758285975757
 20
4501.391364710045
 30
0.0
 11
9639.758285975755
 21
4501.391364710045
 31
0.0
  0
LINE
  5
211E2
330
21093
100
AcDbEntity
  8
KERABA
100
AcDbLine
 10
9567.09253268802
 20
3594.443141840194
 30
0.0
 11
9648.7144177512
 21
3614.989126046635
 31
0.0
  0
ARC
  5
211E3
330
21093
100
AcDbEntity
  8
KERABA
100
AcDbCircle
 10
9267.603288613164
 20
3519.055256912059
 30
0.0
 40
392.2
100
AcDbArc
 50
14.12903901488732
 51
87.12903901480542
  0
ARC
  5
211E4
330
21093
100
AcDbEntity
  8
KERABA
100
AcDbCircle
 10
9267.603288613164
 20
3519.055256912059
 30
0.0
 40
393.0
100
AcDbArc
 50
14.12903901488732
 51
87.12903901480542
  0
TEXT
  5
211E5
330
21093
100
AcDbEntity
  8
HIKIDASHI
100
AcDbText
 10
8940.510617964283
 20
2477.637663742354
 30
0.0
 40
90.0
  1
柱
  7
01
 11
8940.510617964283
 21
2522.637663742355
 31
0.0
100
AcDbText
 73
     2
  0
TEXT
  5
211E6
330
21093
100
AcDbEntity
  8
HIKIDASHI
100
AcDbText
 10
9621.388926869862
 20
2492.637663742355
 30
0.0
 40
90.0
  1
t
  7
01
100
AcDbText
  0
TEXT
  5
211E7
330
21093
100
AcDbEntity
  8
HIKIDASHI
100
AcDbText
 10
9380.57782440781
 20
2492.637663742355
 30
0.0
 40
90.0
  1
x
 41
0.6666666666666666
  7
00
100
AcDbText
  0
TEXT
  5
211E8
330
21093
100
AcDbEntity
  8
HIKIDASHI
100
AcDbText
 10
9072.428276450748
 20
2477.637663742353
 30
0.0
 40
90.0
  1
76.3
 41
0.6666666666666666
  7
00
100
AcDbText
  0
TEXT
  5
211E9
330
21093
100
AcDbEntity
  8
HIKIDASHI
100
AcDbText
 10
9298.434967264952
 20
2492.637663742355
 30
0.0
 40
90.0
  1
%%c
 41
0.6666666666666666
  7
00
100
AcDbText
  0
TEXT
  5
211EA
330
21093
100
AcDbEntity
  8
HIKIDASHI
100
AcDbText
 10
9465.577824407811
 20
2477.637663742353
 30
0.0
 40
90.0
  1
3.2
 41
0.6666666666666666
  7
00
100
AcDbText
  0
LINE
  5
211EB
330
21093
100
AcDbEntity
  8
YANE
100
AcDbLine
 10
7706.431183634283
 20
3974.013203958995
 30
0.0
 11
9300.427997350958
 21
3894.074740994812
 31
0.0
  0
LINE
  5
211EC
330
21093
100
AcDbEntity
  8
YANE
100
AcDbLine
 10
7707.232571734174
 20
3989.993121890993
 30
0.0
 11
9301.229385450849
 21
3910.054658926812
 31
0.0
  0
LINE
  5
211ED
330
21093
100
AcDbEntity
  8
SUNPOU
100
AcDbLine
 10
8095.657639080846
 20
4308.191880974935
 30
0.0
 11
8654.954766700731
 21
4280.143297478733
 31
0.0
  0
LINE
  5
211EE
330
21093
100
AcDbEntity
  8
KERABA
100
AcDbLine
 10
7707.272641139168
 20
3990.792117787611
 30
0.0
 11
9289.651468327553
 21
3911.436293369329
 31
0.0
  0
LINE
  5
211EF
330
21093
100
AcDbEntity
  8
KERABA
100
AcDbLine
 10
7707.23257173417
 20
3989.993121891009
 30
0.0
 11
9289.611398922556
 21
3910.637297472727
 31
0.0
  0
ARC
  5
211F0
330
21093
100
AcDbEntity
  8
HANA_KAKUSHI
100
AcDbCircle
 10
7704.758285975756
 20
3940.655125275951
 30
0.0
 40
50.0
100
AcDbArc
 50
87.12903901490975
 51
267.1290390149097
  0
ARC
  5
211F1
330
21093
100
AcDbEntity
  8
HANA_KAKUSHI
100
AcDbCircle
 10
7704.758285975756
 20
3940.655125275951
 30
0.0
 40
49.4
100
AcDbArc
 50
87.12903901490975
 51
267.1290390149097
  0
LINE
  5
211F2
330
21093
100
AcDbEntity
  8
HANA_KAKUSHI
100
AcDbLine
 10
7719.232610966343
 20
3889.866406882327
 30
0.0
 11
7719.833652041261
 21
3901.851345331326
 31
0.0
  0
LINE
  5
211F3
330
21093
100
AcDbEntity
  8
HANA_KAKUSHI
100
AcDbLine
 10
7718.66341609764
 20
3890.495705858524
 30
0.0
 11
7719.234405118811
 21
3901.881397385071
 31
0.0
  0
LINE
  5
211F4
330
21093
100
AcDbEntity
  8
KERABA
100
AcDbLine
 10
7711.623311347789
 20
3897.857561949992
 30
0.0
 11
7711.122443785355
 21
3887.870113242492
 31
0.0
  0
ARC
  5
211F5
330
21093
100
AcDbEntity
  8
KERABA
100
AcDbCircle
 10
7717.495572357302
 20
3895.160053722733
 30
0.0
 40
2.0
100
AcDbArc
 50
357.1290390148021
 51
87.12903901480542
  0
LINE
  5
211F6
330
21093
100
AcDbEntity
  8
KERABA
100
AcDbLine
 10
7702.364139027325
 20
3892.91512045413
 30
0.0
 11
8022.85337534615
 21
3876.84268120742
 31
0.0
  0
LINE
  5
211F7
330
21093
100
AcDbEntity
  8
KERABA
100
AcDbLine
 10
7702.404208432321
 20
3893.71411635073
 30
0.0
 11
8023.617360747094
 21
3877.605372933565
 31
0.0
  0
LINE
  5
211F8
330
21093
100
AcDbEntity
  8
HANA_KAKUSHI
100
AcDbLine
 10
7702.253948163598
 20
3890.717881738464
 30
0.0
 11
7719.232610966343
 21
3889.866406882327
 31
0.0
  0
LINE
  5
211F9
330
21093
100
AcDbEntity
  8
HANA_KAKUSHI
100
AcDbLine
 10
7702.284000217344
 20
3891.317128660912
 30
0.0
 11
7718.66341609764
 21
3890.495705858524
 31
0.0
  0
LINE
  5
211FA
330
21093
100
AcDbEntity
  8
KERABA
100
AcDbLine
 10
7719.493062098803
 20
3895.059880210244
 30
0.0
 11
7719.342801830075
 21
3892.063645597997
 31
0.0
  0
LINE
  5
211FB
330
21093
100
AcDbEntity
  8
KERABA
100
AcDbLine
 10
7702.364139027325
 20
3892.91512045413
 30
0.0
 11
7702.404208432321
 21
3893.71411635073
 31
0.0
  0
LINE
  5
211FC
330
21093
100
AcDbEntity
  8
KERABA
100
AcDbLine
 10
7747.578126694782
 20
3896.054438725231
 30
0.0
 11
7747.077259132348
 21
3886.066990017737
 31
0.0
  0
CIRCLE
  5
211FD
330
21093
100
AcDbEntity
  8
HARI
100
AcDbCircle
 10
8046.966404434462
 20
3844.394210772819
 30
0.0
 40
1.5
  0
LINE
  5
211FE
330
21093
100
AcDbEntity
  8
HARI_CAP
100
AcDbLine
 10
8033.863484732323
 20
3882.59844476958
 30
0.0
 11
8031.083842869533
 21
3882.73784297677
 31
0.0
  0
LINE
  5
211FF
330
21093
100
AcDbEntity
  8
HARI_CAP
100
AcDbLine
 10
8027.30087238938
 20
3881.282647197249
 30
0.0
 11
8018.706110842956
 21
3872.702439366669
 31
0.0
  0
ARC
  5
21200
330
21093
100
AcDbEntity
  8
HARI_CAP
100
AcDbCircle
 10
8030.833409088318
 20
3877.74411862302
 30
0.0
 40
5.0
100
AcDbArc
 50
87.12903901490975
 51
134.9514487464158
  0
LINE
  5
21201
330
21093
100
AcDbEntity
  8
HARI_CAP
100
AcDbLine
 10
8030.106978014115
 20
3807.692579463342
 30
0.0
 11
8027.327336151323
 21
3807.831977670533
 31
0.0
  0
LINE
  5
21202
330
21093
100
AcDbEntity
  8
HARI_CAP
100
AcDbLine
 10
8023.708935329574
 20
3809.658350004863
 30
0.0
 11
8016.015727610771
 21
3819.055394617463
 31
0.0
  0
ARC
  5
21203
330
21093
100
AcDbEntity
  8
HARI_CAP
100
AcDbCircle
 10
8027.577769932539
 20
3812.825702024284
 30
0.0
 40
5.0
100
AcDbArc
 50
219.3066292833703
 51
267.1290390149097
  0
ARC
  5
21204
330
21093
100
AcDbEntity
  8
HARI_CAP
100
AcDbCircle
 10
8046.966404434462
 20
3844.394210772819
 30
0.0
 40
40.0
100
AcDbArc
 50
134.9514487464158
 51
219.3066292833703
  0
LINE
  5
21205
330
21093
100
AcDbEntity
  8
HARI_CAP
100
AcDbLine
 10
8033.863484732323
 20
3882.59844476958
 30
0.0
 11
8030.106978014115
 21
3807.692579463342
 31
0.0
  0
LINE
  5
21206
330
21093
100
AcDbEntity
  8
MOYA_KANGU
100
AcDbLine
 10
8043.3530561315
 20
3892.135112670892
 30
0.0
 11
8045.650169334226
 21
3892.019913131532
 31
0.0
  0
LINE
  5
21207
330
21093
100
AcDbEntity
  8
HARI
100
AcDbLine
 10
8067.515577700508
 20
3874.809065155129
 30
0.0
 11
8068.168925507221
 21
3887.837015450265
 31
0.0
  0
LINE
  5
21208
330
21093
100
AcDbEntity
  8
HARI
100
AcDbLine
 10
8117.452821238
 20
3872.30472734299
 30
0.0
 11
8118.106169044716
 21
3885.332677638126
 31
0.0
  0
LINE
  5
21209
330
21093
100
AcDbEntity
  8
SUNPOU
100
AcDbLine
 10
7654.758285975757
 20
3970.655125275951
 30
0.0
 11
7654.758285975757
 21
4531.391364710041
 31
0.0
  0
LINE
  5
2120A
330
21093
100
AcDbEntity
  8
SUNPOU
100
AcDbLine
 10
8065.579519669446
 20
4007.905565548628
 30
0.0
 11
8082.17906870689
 21
4338.905528441075
 31
0.0
  0
LINE
  5
2120B
330
21093
100
AcDbEntity
  8
HANA_KAKUSHI
100
AcDbLine
 10
7747.21241861791
 20
3988.588898563714
 30
0.0
 11
7707.262623787918
 21
3990.592368813443
 31
0.0
  0
LINE
  5
2120C
330
21093
100
AcDbEntity
  8
HANA_KAKUSHI
100
AcDbLine
 10
7747.182366564162
 20
3987.989651641266
 30
0.0
 11
7707.232571734174
 21
3989.993121890993
 31
0.0
  0
LINE
  5
2120D
330
21093
100
AcDbEntity
  8
HANA_KAKUSHI
100
AcDbLine
 10
7719.833652041261
 20
3901.851345331326
 30
0.0
 11
7719.234405118811
 21
3901.881397385071
 31
0.0
  0
LINE
  5
2120E
330
21093
100
AcDbEntity
  8
YANE
100
AcDbLine
 10
7706.431183634283
 20
3974.013203958995
 30
0.0
 11
7707.232571734174
 21
3989.993121890993
 31
0.0
  0
ARC
  5
2120F
330
21093
100
AcDbEntity
  8
KERABA
100
AcDbCircle
 10
7704.818390083244
 20
3941.853619120872
 30
0.0
 40
44.0
100
AcDbArc
 50
87.12903901480542
 51
267.1290390148054
  0
LINE
  5
21210
330
21093
100
AcDbEntity
  8
KERABA
100
AcDbLine
 10
7702.614572808544
 20
3897.908844807881
 30
0.0
 11
7717.595745869788
 21
3897.157543464231
 31
0.0
  0
ARC
  5
21211
330
21093
100
AcDbEntity
  8
KERABA
100
AcDbCircle
 10
7722.103553931685
 20
3987.044581831714
 30
0.0
 40
2.0
100
AcDbArc
 50
267.1290390148054
 51
357.1290390148021
  0
LINE
  5
21212
330
21093
100
AcDbEntity
  8
KERABA
100
AcDbLine
 10
7707.022207357948
 20
3985.798393433863
 30
0.0
 11
7722.003380419195
 21
3985.047092090212
 31
0.0
  0
LINE
  5
21213
330
21093
100
AcDbEntity
  8
KERABA
100
AcDbLine
 10
7724.101043673183
 20
3986.944408319228
 30
0.0
 11
7724.251303941914
 21
3989.940642931474
 31
0.0
  0
LINE
  5
21214
330
21093
100
AcDbEntity
  8
KERABA
100
AcDbLine
 10
7707.272641139168
 20
3990.792117787611
 30
0.0
 11
7707.23257173417
 21
3989.993121891009
 31
0.0
  0
LINE
  5
21215
330
21093
100
AcDbEntity
  8
KERABA
100
AcDbLine
 10
7716.989621362952
 20
3984.898027923128
 30
0.0
 11
7717.490488925385
 21
3994.885476630626
 31
0.0
  0
LINE
  5
21216
330
21093
100
AcDbEntity
  8
HANA_KAKUSHI
100
AcDbLine
 10
7747.182366564162
 20
3987.989651641266
 30
0.0
 11
7747.21241861791
 21
3988.588898563714
 31
0.0
  0
LINE
  5
21217
330
21093
100
AcDbEntity
  8
KERABA
100
AcDbLine
 10
7752.446559401629
 20
3993.132440162113
 30
0.0
 11
7751.945691839194
 21
3983.144991454615
 31
0.0
  0
LINE
  5
21218
330
21093
100
AcDbEntity
  8
MOYA
100
AcDbLine
 10
8038.187560256
 20
3902.406727808287
 30
0.0
 11
8051.176900598571
 21
3901.755316279128
 31
0.0
  0
LINE
  5
21219
330
21093
100
AcDbEntity
  8
YANE_UKE
100
AcDbLine
 10
8060.386066802598
 20
3954.259959129275
 30
0.0
 11
8065.379791156345
 21
3954.009525348059
 31
0.0
  0
LINE
  5
2121A
330
21093
100
AcDbEntity
  8
YANE_UKE
100
AcDbLine
 10
8060.335980046355
 20
3953.261214258525
 30
0.0
 11
8065.329704400104
 21
3953.010780477308
 31
0.0
  0
LINE
  5
2121B
330
21093
100
AcDbEntity
  8
YANE_UKE
100
AcDbLine
 10
8065.179444131373
 20
3950.014545865061
 30
0.0
 11
8065.404834534467
 21
3954.508897783433
 31
0.0
  0
LINE
  5
2121C
330
21093
100
AcDbEntity
  8
YANE_UKE
100
AcDbLine
 10
8060.185719777621
 20
3950.264979646276
 30
0.0
 11
8065.179444131373
 21
3950.014545865061
 31
0.0
  0
LINE
  5
2121D
330
21093
100
AcDbEntity
  8
YANE_UKE
100
AcDbLine
 10
8060.411110180718
 20
3954.75933156465
 30
0.0
 11
8060.185719777621
 21
3950.264979646276
 31
0.0
  0
LINE
  5
2121E
330
21093
100
AcDbEntity
  8
YANE_UKE
100
AcDbLine
 10
8050.548878363827
 20
3957.757061303956
 30
0.0
 11
8075.517500132574
 21
3956.504892397876
 31
0.0
  0
LINE
  5
2121F
330
21093
100
AcDbEntity
  8
YANE_UKE
100
AcDbLine
 10
8050.503800283211
 20
3956.858190920281
 30
0.0
 11
8051.280145004978
 21
3972.338736416904
 31
0.0
  0
LINE
  5
21220
330
21093
100
AcDbEntity
  8
YANE_UKE
100
AcDbLine
 10
8075.472422051955
 20
3955.606022014201
 30
0.0
 11
8050.503800283211
 21
3956.858190920281
 31
0.0
  0
LINE
  5
21221
330
21093
100
AcDbEntity
  8
YANE_UKE
100
AcDbLine
 10
8076.248766773726
 20
3971.086567510823
 30
0.0
 11
8075.472422051955
 21
3955.606022014201
 31
0.0
  0
LINE
  5
21222
330
21093
100
AcDbEntity
  8
YANE_UKE
100
AcDbLine
 10
8051.280145004978
 20
3972.338736416904
 30
0.0
 11
8076.248766773726
 21
3971.086567510823
 31
0.0
  0
LINE
  5
21223
330
21093
100
AcDbEntity
  8
YANE_UKE
100
AcDbLine
 10
8062.485197957732
 20
3946.203866939633
 30
0.0
 11
8064.076916982147
 21
3977.943219426133
 31
0.0
  0
LINE
  5
21224
330
21093
100
AcDbEntity
  8
MOYA
100
AcDbLine
 10
8040.191030505711
 20
3942.35652263828
 30
0.0
 11
8053.180370848279
 21
3941.705111109122
 31
0.0
  0
LINE
  5
21225
330
21093
100
AcDbEntity
  8
KERABA
100
AcDbLine
 10
8063.554091513131
 20
3967.517923506717
 30
0.0
 11
8064.054959075562
 21
3977.505372214217
 31
0.0
  0
TEXT
  5
21226
330
21093
100
AcDbEntity
  8
SUNPOU
100
AcDbText
 10
8291.953403714602
 20
4343.404258945708
 30
0.0
 40
90.0
  1
590
 50
357.1290390148575
 41
0.6666666666666666
  7
00
 72
     1
 11
8379.814010952674
 21
4384.054627594315
 31
0.0
100
AcDbText
 73
     2
  0
LINE
  5
21227
330
21093
100
AcDbEntity
  8
YANE_UKE
100
AcDbLine
 10
9253.991369536745
 20
3896.503649647737
 30
0.0
 11
9229.022747767997
 21
3897.755818553818
 31
0.0
  0
LINE
  5
21228
330
21093
100
AcDbEntity
  8
YANE_UKE
100
AcDbLine
 10
9254.767714258512
 20
3911.98419514436
 30
0.0
 11
9253.991369536745
 21
3896.503649647737
 31
0.0
  0
LINE
  5
21229
330
21093
100
AcDbEntity
  8
YANE_UKE
100
AcDbLine
 10
9241.004145442522
 20
3887.101494573169
 30
0.0
 11
9242.595864466935
 21
3918.84084705967
 31
0.0
  0
ARC
  5
2122A
330
21093
100
AcDbEntity
  8
1PL-S1
100
AcDbCircle
 10
9009.504713837293
 20
3725.055063765605
 30
0.0
 40
250.2499999999999
100
AcDbArc
 50
270.0
 51
0.0
  0
ARC
  5
2122B
330
21093
100
AcDbEntity
  8
HASHIRA
100
AcDbCircle
 10
9009.504713837293
 20
3725.055063765605
 30
0.0
 40
280.5
100
AcDbArc
 50
270.0
 51
0.0
  0
ARC
  5
2122C
330
21093
100
AcDbEntity
  8
HASHIRA
100
AcDbCircle
 10
9009.504713837293
 20
3725.055063765605
 30
0.0
 40
220.0
100
AcDbArc
 50
270.0
 51
0.0
  0
LINE
  5
2122D
330
21093
100
AcDbEntity
  8
HASHIRA
100
AcDbLine
 10
8698.304713837293
 20
3770.978641609911
 30
0.0
 11
8698.304713837293
 21
3505.055063765604
 31
0.0
  0
LINE
  5
2122E
330
21093
100
AcDbEntity
  8
1PL-S1
100
AcDbLine
 10
8647.515549572807
 20
3474.805063765605
 30
0.0
 11
9009.504713837293
 21
3474.805063765605
 31
0.0
  0
LINE
  5
2122F
330
21093
100
AcDbEntity
  8
HASHIRA
100
AcDbLine
 10
8698.304713837293
 20
3444.555063765605
 30
0.0
 11
9009.504713837293
 21
3444.555063765605
 31
0.0
  0
LINE
  5
21230
330
21093
100
AcDbEntity
  8
HASHIRA
100
AcDbLine
 10
8698.304713837293
 20
3505.055063765604
 30
0.0
 11
9009.504713837293
 21
3505.055063765604
 31
0.0
  0
ARC
  5
21231
330
21093
100
AcDbEntity
  8
HASHIRA
100
AcDbCircle
 10
8698.304713837293
 20
3474.805063765605
 30
0.0
 40
30.25
100
AcDbArc
 50
90.0
 51
270.0
  0
CIRCLE
  5
21232
330
21093
100
AcDbEntity
  8
HARI
100
AcDbCircle
 10
8661.917767657021
 20
3808.047672138151
 30
0.0
 40
6.0
  0
LINE
  5
21233
330
21093
100
AcDbEntity
  8
HASHIRA
100
AcDbLine
 10
8608.719352993674
 20
3775.47132063426
 30
0.0
 11
8612.225425930637
 21
3845.383461586749
 31
0.0
  0
LINE
  5
21234
330
21093
100
AcDbEntity
  8
HASHIRA
100
AcDbLine
 10
8711.590074680909
 20
3770.312384741256
 30
0.0
 11
8608.719352993674
 21
3775.47132063426
 31
0.0
  0
LINE
  5
21235
330
21093
100
AcDbEntity
  8
HASHIRA
100
AcDbLine
 10
8715.096147617868
 20
3840.224525693744
 30
0.0
 11
8711.590074680909
 21
3770.312384741256
 31
0.0
  0
LINE
  5
21236
330
21093
100
AcDbEntity
  8
HASHIRA
100
AcDbLine
 10
8612.225425930637
 20
3845.383461586749
 30
0.0
 11
8715.096147617868
 21
3840.224525693744
 31
0.0
  0
LINE
  5
21237
330
21093
100
AcDbEntity
  8
1PL-S1
100
AcDbLine
 10
8660.154713837291
 20
3772.891852687757
 30
0.0
 11
8665.261193929698
 21
3874.716590053427
 31
0.0
  0
LINE
  5
21238
330
21093
100
AcDbEntity
  8
MOYA_KANGU
100
AcDbLine
 10
8632.612529873892
 20
3862.58392648766
 30
0.0
 11
8634.909643076616
 21
3862.468726948302
 31
0.0
  0
LINE
  5
21239
330
21093
100
AcDbEntity
  8
MOYA
100
AcDbLine
 10
8627.166769806899
 20
3872.869596790345
 30
0.0
 11
8640.381296595155
 21
3872.20689222836
 31
0.0
  0
CIRCLE
  5
2123A
330
21093
100
AcDbEntity
  8
HARI
100
AcDbCircle
 10
8661.917767657021
 20
3808.047672138151
 30
0.0
 40
6.0
  0
LINE
  5
2123B
330
21093
100
AcDbEntity
  8
HARI
100
AcDbLine
 10
8706.712294980393
 20
3842.75354115976
 30
0.0
 11
8707.36564278711
 21
3855.781491454897
 31
0.0
  0
LINE
  5
2123C
330
21093
100
AcDbEntity
  8
HARI
100
AcDbLine
 10
8656.775051442901
 20
3845.257878971898
 30
0.0
 11
8657.428399249615
 21
3858.285829267034
 31
0.0
  0
LINE
  5
2123D
330
21093
100
AcDbEntity
  8
HASHIRA
100
AcDbLine
 10
9304.708698910372
 20
3810.655632777085
 30
0.0
 11
9221.812874638136
 21
3814.812833545237
 31
0.0
  0
LINE
  5
2123E
330
21093
100
AcDbEntity
  8
HASHIRA
100
AcDbLine
 10
9218.306801701176
 20
3744.900692592744
 30
0.0
 11
9301.202625973413
 21
3740.743491824596
 31
0.0
  0
LINE
  5
2123F
330
21093
100
AcDbEntity
  8
MOYA
100
AcDbLine
 10
9216.426243549292
 20
3843.318410607114
 30
0.0
 11
9229.640770337548
 21
3842.655706045126
 31
0.0
  0
LINE
  5
21240
330
21093
100
AcDbEntity
  8
MOYA
100
AcDbLine
 10
9218.429713799023
 20
3883.268205437106
 30
0.0
 11
9231.644240587275
 21
3882.605500875119
 31
0.0
  0
LINE
  5
21241
330
21093
100
AcDbEntity
  8
MOYA_KANGU
100
AcDbLine
 10
9221.872003616288
 20
3833.032740304428
 30
0.0
 11
9224.169116819011
 21
3832.91754076507
 31
0.0
  0
LINE
  5
21242
330
21093
100
AcDbEntity
  8
HASHIRA
100
AcDbLine
 10
9221.812874638136
 20
3814.812833545237
 30
0.0
 11
9218.306801701176
 21
3744.900692592744
 31
0.0
  0
LINE
  5
21243
330
21093
100
AcDbEntity
  8
HASHIRA
100
AcDbLine
 10
9301.202625973413
 20
3740.743491824596
 30
0.0
 11
9304.708698910372
 21
3810.655632777085
 31
0.0
  0
LINE
  5
21244
330
21093
100
AcDbEntity
  8
1PL-S1
100
AcDbLine
 10
9259.754713837292
 20
3742.822092208672
 30
0.0
 11
9264.246484844028
 21
3832.389346910821
 31
0.0
  0
LINE
  5
21245
330
21093
100
AcDbEntity
  8
1PL-M1
100
AcDbLine
 10
9259.75471383729
 20
3725.055063765605
 30
0.0
 11
9259.75471383729
 21
3742.822092208672
 31
0.0
  0
LINE
  5
21246
330
21093
100
AcDbEntity
  8
HASHIRA
100
AcDbLine
 10
9229.504713837291
 20
3725.055063765605
 30
0.0
 11
9229.504713837291
 21
3744.339120651788
 31
0.0
  0
LINE
  5
21247
330
21093
100
AcDbEntity
  8
HASHIRA
100
AcDbLine
 10
9290.004713837289
 20
3725.055063765605
 30
0.0
 11
9290.004713837289
 21
3741.305063765556
 31
0.0
  0
LINE
  5
21248
330
21093
100
AcDbEntity
  8
YANE_UKE
100
AcDbLine
 10
9238.704667262412
 20
3891.162607279812
 30
0.0
 11
9243.69839161616
 21
3890.912173498597
 31
0.0
  0
LINE
  5
21249
330
21093
100
AcDbEntity
  8
YANE_UKE
100
AcDbLine
 10
9238.905014287384
 20
3895.157586762811
 30
0.0
 11
9243.898738641131
 21
3894.907152981596
 31
0.0
  0
LINE
  5
2124A
330
21093
100
AcDbEntity
  8
YANE_UKE
100
AcDbLine
 10
9238.854927531141
 20
3894.158841892061
 30
0.0
 11
9243.848651884894
 21
3893.908408110844
 31
0.0
  0
LINE
  5
2124B
330
21093
100
AcDbEntity
  8
YANE_UKE
100
AcDbLine
 10
9238.930057665507
 20
3895.656959198185
 30
0.0
 11
9238.704667262412
 21
3891.162607279812
 31
0.0
  0
LINE
  5
2124C
330
21093
100
AcDbEntity
  8
YANE_UKE
100
AcDbLine
 10
9243.69839161616
 20
3890.912173498597
 30
0.0
 11
9243.923782019257
 21
3895.406525416967
 31
0.0
  0
CIRCLE
  5
2124D
330
21093
100
AcDbEntity
  8
HASHIRA
100
AcDbCircle
 10
9261.517767657023
 20
3777.977911659064
 30
0.0
 40
6.0
  0
CIRCLE
  5
2124E
330
21093
100
AcDbEntity
  8
HARI
100
AcDbCircle
 10
9335.347287701734
 20
3779.782295219649
 30
0.0
 40
1.5
  0
CIRCLE
  5
2124F
330
21093
100
AcDbEntity
  8
HARI
100
AcDbCircle
 10
9261.164690106914
 20
3777.995618392491
 30
0.0
 40
6.0
  0
LINE
  5
21250
330
21093
100
AcDbEntity
  8
HARI
100
AcDbLine
 10
9295.971768722784
 20
3813.202354976527
 30
0.0
 11
9296.625116529504
 21
3826.230305271666
 31
0.0
  0
LINE
  5
21251
330
21093
100
AcDbEntity
  8
HARI
100
AcDbLine
 10
9246.034525185299
 20
3815.706692788666
 30
0.0
 11
9246.687872992012
 21
3828.734643083802
 31
0.0
  0
ARC
  5
21252
330
21093
100
AcDbEntity
  8
KERABA
100
AcDbCircle
 10
9267.603288613164
 20
3519.055256912059
 30
0.0
 40
295.8
100
AcDbArc
 50
16.07164098912484
 51
69.33554093276093
  0
ARC
  5
21253
330
21093
100
AcDbEntity
  8
KERABA
100
AcDbCircle
 10
9267.603288613164
 20
3519.055256912059
 30
0.0
 40
295.0
100
AcDbArc
 50
16.07164098912484
 51
69.18782183166605
  0
ARC
  5
21254
330
21093
100
AcDbEntity
  8
KERABA
100
AcDbCircle
 10
9553.636294157909
 20
3599.37974793989
 30
0.0
 40
2.0
100
AcDbArc
 50
23.37452780505909
 51
106.07164098913
  0
ARC
  5
21255
330
21093
100
AcDbEntity
  8
KERABA
100
AcDbCircle
 10
9564.651467315634
 20
3604.140626042179
 30
0.0
 40
10.0
100
AcDbArc
 50
203.3745278049233
 51
284.1290390148908
  0
LINE
  5
21256
330
21093
100
AcDbEntity
  8
KERABA
100
AcDbLine
 10
9551.073595815694
 20
3600.722783717427
 30
0.0
 11
9553.08261601008
 21
3601.301580531095
 31
0.0
  0
CIRCLE
  5
21257
330
21093
100
AcDbEntity
  8
KERABA
100
AcDbCircle
 10
9571.81502378514
 20
3600.787870865477
 30
0.0
 40
2.5
  0
LINE
  5
21258
330
21093
100
AcDbEntity
  8
HARI_CAP
100
AcDbLine
 10
9355.012819746823
 20
3742.893858795216
 30
0.0
 11
9363.607581293249
 21
3751.474066625801
 31
0.0
  0
LINE
  5
21259
330
21093
100
AcDbEntity
  8
HARI_CAP
100
AcDbLine
 10
9348.450207403876
 20
3741.57806122289
 30
0.0
 11
9352.206714122088
 21
3816.483926529129
 31
0.0
  0
ARC
  5
2125A
330
21093
100
AcDbEntity
  8
HARI_CAP
100
AcDbCircle
 10
9351.480283047887
 20
3746.432387369451
 30
0.0
 40
5.0
100
AcDbArc
 50
267.1290390149097
 51
314.9514487464159
  0
LINE
  5
2125B
330
21093
100
AcDbEntity
  8
HARI_CAP
100
AcDbLine
 10
9348.450207403876
 20
3741.57806122289
 30
0.0
 11
9351.229849266674
 21
3741.438663015701
 31
0.0
  0
LINE
  5
2125C
330
21093
100
AcDbEntity
  8
HARI_CAP
100
AcDbLine
 10
9352.206714122088
 20
3816.483926529129
 30
0.0
 11
9354.98635598488
 21
3816.344528321938
 31
0.0
  0
LINE
  5
2125D
330
21093
100
AcDbEntity
  8
HARI_CAP
100
AcDbLine
 10
9358.604756806633
 20
3814.518155987607
 30
0.0
 11
9366.297964525434
 21
3805.121111375008
 31
0.0
  0
ARC
  5
2125E
330
21093
100
AcDbEntity
  8
HARI_CAP
100
AcDbCircle
 10
9354.735922203664
 20
3811.350803968185
 30
0.0
 40
5.0
100
AcDbArc
 50
39.30662928337029
 51
87.12903901490975
  0
ARC
  5
2125F
330
21093
100
AcDbEntity
  8
HARI_CAP
100
AcDbCircle
 10
9335.347287701734
 20
3779.782295219649
 30
0.0
 40
40.0
100
AcDbArc
 50
314.9514487464159
 51
39.30662928337029
  0
LINE
  5
21260
330
21093
100
AcDbEntity
  8
SUNPOU
100
AcDbLine
 10
8684.917112823224
 20
4278.640694791435
 30
0.0
 11
9244.214240443112
 21
4250.592111295232
 31
0.0
  0
LINE
  5
21261
330
21093
100
AcDbEntity
  8
SUNPOU
100
AcDbLine
 10
8654.838993411827
 20
3978.354379365129
 30
0.0
 11
8671.438542449271
 21
4309.354342257577
 31
0.0
  0
LINE
  5
21262
330
21093
100
AcDbEntity
  8
SUNPOU
100
AcDbLine
 10
8654.838993411827
 20
3978.354379365129
 30
0.0
 11
8671.438542449271
 21
4309.354342257577
 31
0.0
  0
LINE
  5
21263
330
21093
100
AcDbEntity
  8
YANE_UKE
100
AcDbLine
 10
8649.670583923111
 20
3925.208145381417
 30
0.0
 11
8649.445193520016
 21
3920.713793463043
 31
0.0
  0
LINE
  5
21264
330
21093
100
AcDbEntity
  8
YANE_UKE
100
AcDbLine
 10
8651.744671700127
 20
3916.652680756401
 30
0.0
 11
8653.33639072454
 21
3948.392033242898
 31
0.0
  0
LINE
  5
21265
330
21093
100
AcDbEntity
  8
YANE_UKE
100
AcDbLine
 10
8654.438917873767
 20
3920.463359681826
 30
0.0
 11
8654.664308276862
 21
3924.957711600201
 31
0.0
  0
LINE
  5
21266
330
21093
100
AcDbEntity
  8
YANE_UKE
100
AcDbLine
 10
8649.445193520016
 20
3920.713793463043
 30
0.0
 11
8654.438917873767
 21
3920.463359681826
 31
0.0
  0
LINE
  5
21267
330
21093
100
AcDbEntity
  8
MOYA
100
AcDbLine
 10
8629.170240056627
 20
3912.819391620338
 30
0.0
 11
8642.384766844882
 21
3912.156687058352
 31
0.0
  0
LINE
  5
21268
330
21093
100
AcDbEntity
  8
YANE_UKE
100
AcDbLine
 10
8640.539618747371
 20
3942.787550233672
 30
0.0
 11
8665.508240516118
 21
3941.535381327591
 31
0.0
  0
LINE
  5
21269
330
21093
100
AcDbEntity
  8
YANE_UKE
100
AcDbLine
 10
8639.763274025606
 20
3927.307004737049
 30
0.0
 11
8640.539618747371
 21
3942.787550233672
 31
0.0
  0
LINE
  5
2126A
330
21093
100
AcDbEntity
  8
YANE_UKE
100
AcDbLine
 10
8665.508240516118
 20
3941.535381327591
 30
0.0
 11
8664.731895794346
 21
3926.054835830969
 31
0.0
  0
LINE
  5
2126B
330
21093
100
AcDbEntity
  8
YANE_UKE
100
AcDbLine
 10
8664.731895794346
 20
3926.054835830969
 30
0.0
 11
8639.763274025606
 21
3927.307004737049
 31
0.0
  0
LINE
  5
2126C
330
21093
100
AcDbEntity
  8
YANE_UKE
100
AcDbLine
 10
8639.80835210622
 20
3928.205875120724
 30
0.0
 11
8664.776973874969
 21
3926.953706214642
 31
0.0
  0
LINE
  5
2126D
330
21093
100
AcDbEntity
  8
YANE_UKE
100
AcDbLine
 10
8649.645540544991
 20
3924.708772946041
 30
0.0
 11
8654.639264898738
 21
3924.458339164827
 31
0.0
  0
LINE
  5
2126E
330
21093
100
AcDbEntity
  8
YANE_UKE
100
AcDbLine
 10
8649.595453788748
 20
3923.710028075293
 30
0.0
 11
8654.589178142499
 21
3923.459594294078
 31
0.0
  0
LINE
  5
2126F
330
21093
100
AcDbEntity
  8
KERABA
100
AcDbLine
 10
8652.813565255511
 20
3937.966737323196
 30
0.0
 11
8653.314432817944
 21
3947.954186030693
 31
0.0
  0
TEXT
  5
21270
330
21093
100
AcDbEntity
  8
SUNPOU
100
AcDbText
 10
8881.212877456984
 20
4313.853072762207
 30
0.0
 40
90.0
  1
590
 50
357.1290390148575
 41
0.6666666666666666
  7
00
 72
     1
 11
8969.073484695057
 21
4354.503441410815
 31
0.0
100
AcDbText
 73
     2
  0
LINE
  5
21271
330
21093
100
AcDbEntity
  8
SUNPOU
100
AcDbLine
 10
9244.098467154207
 20
3948.803193181629
 30
0.0
 11
9260.698016191655
 21
4279.803156074075
 31
0.0
  0
LINE
  5
21272
330
21093
100
AcDbEntity
  8
YANE_UKE
100
AcDbLine
 10
9229.022747767997
 20
3897.755818553818
 30
0.0
 11
9229.799092489768
 21
3913.236364050441
 31
0.0
  0
LINE
  5
21273
330
21093
100
AcDbEntity
  8
YANE_UKE
100
AcDbLine
 10
9229.067825848618
 20
3898.654688937494
 30
0.0
 11
9254.036447617364
 21
3897.402520031411
 31
0.0
  0
LINE
  5
21274
330
21093
100
AcDbEntity
  8
YANE_UKE
100
AcDbLine
 10
9229.799092489768
 20
3913.236364050441
 30
0.0
 11
9254.767714258512
 21
3911.98419514436
 31
0.0
  0
LINE
  5
21275
330
21093
100
AcDbEntity
  8
KERABA
100
AcDbLine
 10
9242.073038997888
 20
3908.41555113967
 30
0.0
 11
9242.57390656032
 21
3918.402999847169
 31
0.0
  0
TEXT
  5
21276
330
21093
100
AcDbEntity
  8
SUNPOU
100
AcDbText
 10
10005.15471383729
 20
1810.933635194176
 30
0.0
 40
90.0
  1
50
 50
90.0
 41
0.6666666666666666
  7
00
 72
     1
 11
9960.154713837292
 21
1868.076492337033
 31
0.0
100
AcDbText
 73
     2
  0
TEXT
  5
21277
330
21093
100
AcDbEntity
  8
SUNPOU
100
AcDbText
 10
10005.15471383729
 20
2582.622424374852
 30
0.0
 40
90.0
  1
1822
 50
90.0
 41
0.6666666666666666
  7
00
 72
     1
 11
9960.154713837292
 21
2701.193852946281
 31
0.0
100
AcDbText
 73
     2
  0
LINE
  5
21278
330
21093
100
AcDbEntity
  8
SUNPOU
100
AcDbLine
 10
9654.758285975756
 20
3666.946408138145
 30
0.0
 11
9654.758285975756
 21
4531.391364710041
 31
0.0
  0
LINE
  5
21279
330
21093
100
AcDbEntity
  8
SUNPOU
100
AcDbLine
 10
9678.716378413881
 20
3615.582642126956
 30
0.0
 11
10080.15471383729
 21
3615.582642126956
 31
0.0
  0
LINE
  5
2127A
330
21093
100
AcDbEntity
  8
TOI
100
AcDbLine
 10
9614.508526351734
 20
3608.465070359322
 30
0.0
 11
9602.820190161679
 21
3640.17977983471
 31
0.0
  0
LINE
  5
2127B
330
21093
100
AcDbEntity
  8
TOI
100
AcDbLine
 10
9614.153028601108
 20
3607.694602093072
 30
0.0
 11
9602.049721895433
 21
3640.535277585339
 31
0.0
  0
LINE
  5
2127C
330
21093
100
AcDbEntity
  8
TOI
100
AcDbLine
 10
9627.216120527362
 20
3649.170807673216
 30
0.0
 11
9602.820190161679
 21
3640.17977983471
 31
0.0
  0
LINE
  5
2127D
330
21093
100
AcDbEntity
  8
TOI
100
AcDbLine
 10
9626.445652261114
 20
3649.52630542384
 30
0.0
 11
9602.049721895433
 21
3640.535277585339
 31
0.0
  0
LINE
  5
2127E
330
21093
100
AcDbEntity
  8
TOI
100
AcDbLine
 10
9619.234344574659
 20
3657.52612051241
 30
0.0
 11
9627.303767695622
 21
3660.500075874377
 31
0.0
  0
LINE
  5
2127F
330
21093
100
AcDbEntity
  8
TOI
100
AcDbLine
 10
9645.506884968472
 20
3667.208765876953
 30
0.0
 11
9637.437461847516
 21
3664.234810514987
 31
0.0
  0
LINE
  5
21280
330
21093
100
AcDbEntity
  8
TOI
100
AcDbLine
 10
9638.295577282022
 20
3675.20858096552
 30
0.0
 11
9637.732594273586
 21
3675.001095707712
 31
0.0
  0
LINE
  5
21281
330
21093
100
AcDbEntity
  8
TOI
100
AcDbLine
 10
9620.092460009166
 20
3668.499890962947
 30
0.0
 11
9619.529477000728
 21
3668.292405705136
 31
0.0
  0
LINE
  5
21282
330
21093
100
AcDbEntity
  8
TOI
100
AcDbLine
 10
9620.092460009166
 20
3668.499890962947
 30
0.0
 11
9627.216120527362
 21
3649.170807673216
 31
0.0
  0
LINE
  5
21283
330
21093
100
AcDbEntity
  8
TOI
100
AcDbLine
 10
9619.529477000728
 20
3668.292405705136
 30
0.0
 11
9626.445652261114
 21
3649.52630542384
 31
0.0
  0
LINE
  5
21284
330
21093
100
AcDbEntity
  8
TOI
100
AcDbLine
 10
9637.732594273586
 20
3675.001095707712
 30
0.0
 11
9656.544590981832
 21
3623.957302942586
 31
0.0
  0
LINE
  5
21285
330
21093
100
AcDbEntity
  8
TOI
100
AcDbLine
 10
9638.295577282022
 20
3675.20858096552
 30
0.0
 11
9657.315059248084
 21
3623.601805191962
 31
0.0
  0
LINE
  5
21286
330
21093
100
AcDbEntity
  8
TOI
100
AcDbLine
 10
9656.544590981832
 20
3623.957302942586
 30
0.0
 11
9614.508526351734
 21
3608.465070359322
 31
0.0
  0
LINE
  5
21287
330
21093
100
AcDbEntity
  8
TOI
100
AcDbLine
 10
9657.315059248084
 20
3623.601805191962
 30
0.0
 11
9614.153028601108
 21
3607.694602093072
 31
0.0
  0
LINE
  5
21288
330
21093
100
AcDbEntity
  8
YANE
100
AcDbLine
 10
9650.774429292161
 20
3638.2256763365
 30
0.0
 11
9635.484127457916
 21
3633.513280998921
 31
0.0
  0
CIRCLE
  5
21289
330
21093
100
AcDbEntity
  8
KERABA
100
AcDbCircle
 10
9628.066416929556
 20
3614.947556521361
 30
0.0
 40
2.5
  0
LINE
  5
2128A
330
21093
100
AcDbEntity
  8
KERABA
100
AcDbLine
 10
9624.678379155655
 20
3655.342525994951
 30
0.0
 11
9644.983062805673
 21
3660.453651635665
 31
0.0
  0
LINE
  5
2128B
330
21093
100
AcDbEntity
  8
SUNPOU
100
AcDbLine
 10
7400.777754625882
 20
1798.055063765603
 30
0.0
 11
7400.777754625882
 21
1809.305063765603
 31
0.0
  0
LINE
  5
2128C
330
21093
100
AcDbEntity
  8
SUNPOU
100
AcDbLine
 10
7400.777754625882
 20
3882.26436737656
 30
0.0
 11
7400.777754625882
 21
3871.01436737656
 31
0.0
  0
LINE
  5
2128D
330
21093
100
AcDbEntity
  8
SUNPOU
100
AcDbLine
 10
7400.777754625882
 20
3882.26436737656
 30
0.0
 11
7400.777754625882
 21
3871.01436737656
 31
0.0
  0
LINE
  5
2128E
330
21093
100
AcDbEntity
  8
SUNPOU
100
AcDbLine
 10
7400.777754625882
 20
4002.641364710039
 30
0.0
 11
7400.777754625882
 21
4013.891364710042
 31
0.0
  0
LINE
  5
2128F
330
21093
100
AcDbEntity
  8
SUNPOU
100
AcDbLine
 10
10050.15471383728
 20
1798.055063765604
 30
0.0
 11
10050.15471383728
 21
1809.305063765604
 31
0.0
  0
LINE
  5
21290
330
21093
100
AcDbEntity
  8
SUNPOU
100
AcDbLine
 10
7666.008285975756
 20
4501.391364710045
 30
0.0
 11
7677.258285975756
 21
4501.391364710045
 31
0.0
  0
LINE
  5
21291
330
21093
100
AcDbEntity
  8
SUNPOU
100
AcDbLine
 10
8091.912345815529
 20
4308.379706310843
 30
0.0
 11
8103.148225611468
 21
4307.816230303108
 31
0.0
  0
LINE
  5
21292
330
21093
100
AcDbEntity
  8
SUNPOU
100
AcDbLine
 10
8681.171819557913
 20
4278.828520127347
 30
0.0
 11
8692.407699353847
 21
4278.265044119611
 31
0.0
  0
LINE
  5
21293
330
21093
100
AcDbEntity
  8
SUNPOU
100
AcDbLine
 10
8658.700059966042
 20
4279.955472142819
 30
0.0
 11
8647.464180170107
 21
4280.518948150554
 31
0.0
  0
LINE
  5
21294
330
21093
100
AcDbEntity
  8
SUNPOU
100
AcDbLine
 10
9247.959533708424
 20
4250.404285959321
 30
0.0
 11
9236.723653912488
 21
4250.967761967057
 31
0.0
  0
LINE
  5
21295
330
21093
100
AcDbEntity
  8
SUNPOU
100
AcDbLine
 10
10050.15471383728
 20
3604.332642126956
 30
0.0
 11
10050.15471383728
 21
3593.082642126956
 31
0.0
  0
LINE
  5
21296
330
21093
100
AcDbEntity
  8
SUNPOU
100
AcDbLine
 10
9643.508285975755
 20
4501.391364710045
 30
0.0
 11
9632.258285975758
 21
4501.391364710045
 31
0.0
  0
TEXT
  5
21297
330
21093
100
AcDbEntity
  8
NAME
100
AcDbText
 10
9402.694977008239
 20
716.2499999999992
 30
0.0
 40
120.0
  1
YOTR
 41
0.7
  7
01
100
AcDbText
  0
TEXT
  5
21298
330
21093
100
AcDbEntity
  8
NAME
100
AcDbText
 10
8327.765992739108
 20
716.2499999999992
 30
0.0
 40
120.0
  1
ヨド自転車置場      型
  7
01
100
AcDbText
  0
TEXT
  5
21299
330
21093
100
AcDbEntity
  8
NAME
100
AcDbText
 10
8862.031985478219
 20
405.75
 30
0.0
 40
120.0
  1
型（一般地用）
 41
0.8
  7
01
100
AcDbText
  0
TEXT
  5
2129A
330
21093
100
AcDbEntity
  8
NAME
100
AcDbText
 10
8192.031985478219
 20
405.75
 30
0.0
 40
120.0
  1
YOTR-240
 41
0.7
  7
01
 72
     2
 11
8832.03198547822
 21
405.75
 31
0.0
100
AcDbText
  0
TEXT
  5
2129B
330
21093
100
AcDbEntity
  8
NAME
100
AcDbText
 10
9641.100000000001
 20
405.7500000000001
 30
0.0
 40
120.0
  1
<1／3>
 41
0.6
  7
01
 72
     2
 11
10015.49999999999
 21
405.7500000000001
 31
0.0
100
AcDbText
  0
TEXT
  5
2129C
330
21093
100
AcDbEntity
  8
HIKIDASHI
100
AcDbText
 10
3044.441819018588
 20
5163.354642405096
 30
0.0
 40
135.0
  1
正 面 立 面 図
  7
01
 72
     2
 11
4133.441819018588
 21
5163.354642405096
 31
0.0
100
AcDbText
  0
TEXT
  5
2129D
330
21093
100
AcDbEntity
  8
HIKIDASHI
100
AcDbText
 10
4234.691819018588
 20
5190.148139464937
 30
0.0
 40
90.0
  1
(S=
 41
0.6700000000000001
  7
00
100
AcDbText
  0
TEXT
  5
2129E
330
21093
100
AcDbEntity
  8
HIKIDASHI
100
AcDbText
 10
4527.349553653785
 20
5160.709329364625
 30
0.0
 40
90.0
  1
30
 41
0.6700000000000001
  7
00
100
AcDbText
  0
TEXT
  5
2129F
330
21093
100
AcDbEntity
  8
HIKIDASHI
100
AcDbText
 10
4663.954316724026
 20
5190.148139464937
 30
0.0
 40
90.0
  1
)
 41
0.6700000000000001
  7
00
100
AcDbText
  0
TEXT
  5
212A0
330
21093
100
AcDbEntity
  8
HIKIDASHI
100
AcDbText
 10
4475.267504545818
 20
5190.148139464937
 30
0.0
 40
90.0
  1
/
 41
0.6700000000000001
  7
00
100
AcDbText
  0
TEXT
  5
212A1
330
21093
100
AcDbEntity
  8
HIKIDASHI
100
AcDbText
 10
4437.988224448469
 20
5207.654801931656
 30
0.0
 40
90.0
  1
1
 41
0.6700000000000001
  7
00
100
AcDbText
  0
TEXT
  5
212A2
330
21093
100
AcDbEntity
  8
HIKIDASHI
100
AcDbText
 10
2999.009514795865
 20
1284.289947154653
 30
0.0
 40
135.0
  1
側 面 立 面 図
  7
01
 72
     2
 11
4088.009514795865
 21
1284.289947154653
 31
0.0
100
AcDbText
  0
TEXT
  5
212A3
330
21093
100
AcDbEntity
  8
HIKIDASHI
100
AcDbText
 10
4189.259514795866
 20
1311.083444214492
 30
0.0
 40
90.0
  1
(S=
 41
0.6700000000000001
  7
00
100
AcDbText
  0
TEXT
  5
212A4
330
21093
100
AcDbEntity
  8
HIKIDASHI
100
AcDbText
 10
4481.91724943106
 20
1281.64463411418
 30
0.0
 40
90.0
  1
30
 41
0.6700000000000001
  7
00
100
AcDbText
  0
TEXT
  5
212A5
330
21093
100
AcDbEntity
  8
HIKIDASHI
100
AcDbText
 10
4618.5220125013
 20
1311.083444214492
 30
0.0
 40
90.0
  1
)
 41
0.6700000000000001
  7
00
100
AcDbText
  0
TEXT
  5
212A6
330
21093
100
AcDbEntity
  8
HIKIDASHI
100
AcDbText
 10
4429.835200323096
 20
1311.083444214492
 30
0.0
 40
90.0
  1
/
 41
0.6700000000000001
  7
00
100
AcDbText
  0
TEXT
  5
212A7
330
21093
100
AcDbEntity
  8
HIKIDASHI
100
AcDbText
 10
4392.555920225748
 20
1328.590106681214
 30
0.0
 40
90.0
  1
1
 41
0.6700000000000001
  7
00
100
AcDbText
  0
TEXT
  5
212A8
330
21093
100
AcDbEntity
  8
HIKIDASHI
100
AcDbText
 10
6336.006499023542
 20
1284.289947154653
 30
0.0
 40
135.0
  1
側 面 断 面 図
  7
01
 72
     2
 11
7425.006499023543
 21
1284.289947154653
 31
0.0
100
AcDbText
  0
TEXT
  5
212A9
330
21093
100
AcDbEntity
  8
HIKIDASHI
100
AcDbText
 10
7526.256499023542
 20
1311.083444214492
 30
0.0
 40
90.0
  1
(S=
 41
0.6700000000000001
  7
00
100
AcDbText
  0
TEXT
  5
212AA
330
21093
100
AcDbEntity
  8
HIKIDASHI
100
AcDbText
 10
7818.914233658738
 20
1281.64463411418
 30
0.0
 40
90.0
  1
30
 41
0.6700000000000001
  7
00
100
AcDbText
  0
TEXT
  5
212AB
330
21093
100
AcDbEntity
  8
HIKIDASHI
100
AcDbText
 10
7955.51899672898
 20
1311.083444214492
 30
0.0
 40
90.0
  1
)
 41
0.6700000000000001
  7
00
100
AcDbText
  0
TEXT
  5
212AC
330
21093
100
AcDbEntity
  8
HIKIDASHI
100
AcDbText
 10
7766.832184550771
 20
1311.083444214492
 30
0.0
 40
90.0
  1
/
 41
0.6700000000000001
  7
00
100
AcDbText
  0
TEXT
  5
212AD
330
21093
100
AcDbEntity
  8
HIKIDASHI
100
AcDbText
 10
7729.552904453427
 20
1328.590106681214
 30
0.0
 40
90.0
  1
1
 41
0.6700000000000001
  7
00
100
AcDbText
  0
TEXT
  5
212AE
330
21093
100
AcDbEntity
  8
HIKIDASHI
100
AcDbText
 10
9701.266145891359
 20
2960.916270012596
 30
0.0
 40
90.0
  1
0.8
 41
0.6700000000000001
  7
00
100
AcDbText
  0
TEXT
  5
212AF
330
21093
100
AcDbEntity
  8
HIKIDASHI
100
AcDbText
 10
8987.72314105162
 20
2960.916270012596
 30
0.0
 40
90.0
  1
けらば包み
  7
01
 72
     2
 11
9497.72314105162
 21
2960.916270012596
 31
0.0
100
AcDbText
  0
TEXT
  5
212B0
330
21093
100
AcDbEntity
  8
HIKIDASHI
100
AcDbText
 10
9565.192671954681
 20
2968.416270012596
 30
0.0
 40
75.0
  1
ア
  7
01
 72
     1
 11
9597.69267195468
 21
3005.916270012596
 31
0.0
100
AcDbText
 73
     2
  0
CIRCLE
  5
212B1
330
21093
100
AcDbEntity
  8
HIKIDASHI
100
AcDbCircle
 10
9597.69267195468
 20
3005.916270012596
 30
0.0
 40
60.0
  0
LINE
  5
212B2
330
21093
100
AcDbEntity
  8
HIKIDASHI
100
AcDbLine
 10
8957.723141051621
 20
2915.916270012596
 30
0.0
 11
9866.223288748505
 21
2915.916270012596
 31
0.0
  0
TEXT
  5
212B3
330
21093
100
AcDbEntity
  8
HIKIDASHI
100
AcDbText
 10
7314.546797421565
 20
4336.740775902097
 30
0.0
 40
90.0
  1
1.6
 41
0.6700000000000001
  7
00
100
AcDbText
  0
TEXT
  5
212B4
330
21093
100
AcDbEntity
  8
HIKIDASHI
100
AcDbText
 10
6919.003792581825
 20
4336.740775902097
 30
0.0
 40
90.0
  1
母屋
  7
01
 72
     2
 11
7111.003792581825
 21
4336.740775902097
 31
0.0
100
AcDbText
  0
TEXT
  5
212B5
330
21093
100
AcDbEntity
  8
HIKIDASHI
100
AcDbText
 10
7178.473323484887
 20
4344.240775902098
 30
0.0
 40
75.0
  1
ア
  7
01
 72
     1
 11
7210.973323484886
 21
4381.740775902097
 31
0.0
100
AcDbText
 73
     2
  0
CIRCLE
  5
212B6
330
21093
100
AcDbEntity
  8
HIKIDASHI
100
AcDbCircle
 10
7210.973323484886
 20
4381.740775902097
 30
0.0
 40
60.0
  0
LINE
  5
212B7
330
21093
100
AcDbEntity
  8
HIKIDASHI
100
AcDbLine
 10
6889.003792581823
 20
4291.740775902098
 30
0.0
 11
7479.503940278708
 21
4291.740775902098
 31
0.0
  0
TEXT
  5
212B8
330
21093
100
AcDbEntity
  8
HIKIDASHI
100
AcDbText
 10
8245.587232301652
 20
3470.340745024625
 30
0.0
 40
90.0
  1
2.3
 41
0.6700000000000001
  7
00
100
AcDbText
  0
TEXT
  5
212B9
330
21093
100
AcDbEntity
  8
HIKIDASHI
100
AcDbText
 10
7958.044227461911
 20
3470.340745024625
 30
0.0
 40
90.0
  1
梁
  7
01
 72
     2
 11
8042.044227461913
 21
3470.340745024625
 31
0.0
100
AcDbText
  0
TEXT
  5
212BA
330
21093
100
AcDbEntity
  8
HIKIDASHI
100
AcDbText
 10
8109.513758364974
 20
3477.840745024625
 30
0.0
 40
75.0
  1
ア
  7
01
 72
     1
 11
8142.013758364974
 21
3515.340745024625
 31
0.0
100
AcDbText
 73
     2
  0
CIRCLE
  5
212BB
330
21093
100
AcDbEntity
  8
HIKIDASHI
100
AcDbCircle
 10
8142.013758364974
 20
3515.340745024625
 30
0.0
 40
60.0
  0
LINE
  5
212BC
330
21093
100
AcDbEntity
  8
HIKIDASHI
100
AcDbLine
 10
7928.044227461914
 20
3425.340745024625
 30
0.0
 11
8410.544375158796
 21
3425.340745024625
 31
0.0
  0
LINE
  5
212BD
330
21093
100
AcDbEntity
  8
YANE
100
AcDbLine
 10
2479.128096214239
 20
7408.502162099157
 30
0.0
 11
2479.128096214239
 21
7587.508122720166
 31
0.0
  0
LINE
  5
212BE
330
21093
100
AcDbEntity
  8
YANE
100
AcDbLine
 10
2462.47809621424
 20
7408.502162099157
 30
0.0
 11
2462.47809621424
 21
7587.508122720166
 31
0.0
  0
LINE
  5
212BF
330
21093
100
AcDbEntity
  8
YANE
100
AcDbLine
 10
2435.478096214239
 20
7408.502162099157
 30
0.0
 11
2435.478096214239
 21
7587.508122720166
 31
0.0
  0
LINE
  5
212C0
330
21093
100
AcDbEntity
  8
YANE
100
AcDbLine
 10
2552.128096214242
 20
7408.502162099157
 30
0.0
 11
2552.128096214242
 21
7587.508122720166
 31
0.0
  0
LINE
  5
212C1
330
21093
100
AcDbEntity
  8
YANE
100
AcDbLine
 10
2568.77809621424
 20
7408.502162099157
 30
0.0
 11
2568.77809621424
 21
7587.508122720166
 31
0.0
  0
LINE
  5
212C2
330
21093
100
AcDbEntity
  8
YANE
100
AcDbLine
 10
2595.778096214238
 20
7408.502162099157
 30
0.0
 11
2595.778096214238
 21
7587.508122720166
 31
0.0
  0
LINE
  5
212C3
330
21093
100
AcDbEntity
  8
YANE
100
AcDbLine
 10
2612.428096214239
 20
7408.502162099157
 30
0.0
 11
2612.428096214241
 21
7587.508122720166
 31
0.0
  0
LINE
  5
212C4
330
21093
100
AcDbEntity
  8
YANE
100
AcDbLine
 10
2745.628096214238
 20
7408.502162099157
 30
0.0
 11
2745.628096214238
 21
7587.508122720166
 31
0.0
  0
LINE
  5
212C5
330
21093
100
AcDbEntity
  8
YANE
100
AcDbLine
 10
2728.978096214238
 20
7408.502162099157
 30
0.0
 11
2728.978096214238
 21
7587.508122720166
 31
0.0
  0
LINE
  5
212C6
330
21093
100
AcDbEntity
  8
YANE
100
AcDbLine
 10
2701.978096214238
 20
7408.502162099157
 30
0.0
 11
2701.978096214238
 21
7587.508122720166
 31
0.0
  0
LINE
  5
212C7
330
21093
100
AcDbEntity
  8
YANE
100
AcDbLine
 10
2835.278096214238
 20
7408.502162099157
 30
0.0
 11
2835.278096214238
 21
7587.508122720166
 31
0.0
  0
LINE
  5
212C8
330
21093
100
AcDbEntity
  8
YANE
100
AcDbLine
 10
2818.62809621424
 20
7408.502162099157
 30
0.0
 11
2818.62809621424
 21
7587.508122720166
 31
0.0
  0
LINE
  5
212C9
330
21093
100
AcDbEntity
  8
YANE
100
AcDbLine
 10
3101.878096214236
 20
7408.502162099157
 30
0.0
 11
3101.878096214236
 21
7587.508122720166
 31
0.0
  0
LINE
  5
212CA
330
21093
100
AcDbEntity
  8
YANE
100
AcDbLine
 10
3085.228096214238
 20
7408.502162099157
 30
0.0
 11
3085.228096214238
 21
7587.508122720166
 31
0.0
  0
LINE
  5
212CB
330
21093
100
AcDbEntity
  8
YANE
100
AcDbLine
 10
2878.928096214237
 20
7408.502162099157
 30
0.0
 11
2878.928096214237
 21
7587.508122720166
 31
0.0
  0
LINE
  5
212CC
330
21093
100
AcDbEntity
  8
YANE
100
AcDbLine
 10
2862.278096214238
 20
7408.502162099157
 30
0.0
 11
2862.278096214238
 21
7587.508122720166
 31
0.0
  0
LINE
  5
212CD
330
21093
100
AcDbEntity
  8
YANE
100
AcDbLine
 10
2995.578096214237
 20
7408.502162099157
 30
0.0
 11
2995.578096214237
 21
7587.508122720166
 31
0.0
  0
LINE
  5
212CE
330
21093
100
AcDbEntity
  8
YANE
100
AcDbLine
 10
2968.578096214237
 20
7408.502162099157
 30
0.0
 11
2968.578096214237
 21
7587.508122720166
 31
0.0
  0
LINE
  5
212CF
330
21093
100
AcDbEntity
  8
YANE
100
AcDbLine
 10
2951.928096214238
 20
7408.502162099157
 30
0.0
 11
2951.928096214238
 21
7587.508122720166
 31
0.0
  0
LINE
  5
212D0
330
21093
100
AcDbEntity
  8
YANE
100
AcDbLine
 10
3012.228096214236
 20
7408.502162099157
 30
0.0
 11
3012.228096214236
 21
7587.508122720166
 31
0.0
  0
LINE
  5
212D1
330
21093
100
AcDbEntity
  8
YANE
100
AcDbLine
 10
3351.828096214237
 20
7408.502162099157
 30
0.0
 11
3351.828096214237
 21
7587.508122720166
 31
0.0
  0
LINE
  5
212D2
330
21093
100
AcDbEntity
  8
YANE
100
AcDbLine
 10
3145.528096214236
 20
7408.502162099157
 30
0.0
 11
3145.528096214236
 21
7587.508122720166
 31
0.0
  0
LINE
  5
212D3
330
21093
100
AcDbEntity
  8
YANE
100
AcDbLine
 10
3128.878096214236
 20
7408.502162099157
 30
0.0
 11
3128.878096214236
 21
7587.508122720166
 31
0.0
  0
LINE
  5
212D4
330
21093
100
AcDbEntity
  8
YANE
100
AcDbLine
 10
3262.178096214235
 20
7408.502162099157
 30
0.0
 11
3262.178096214235
 21
7587.508122720166
 31
0.0
  0
LINE
  5
212D5
330
21093
100
AcDbEntity
  8
YANE
100
AcDbLine
 10
3235.178096214233
 20
7408.502162099157
 30
0.0
 11
3235.178096214233
 21
7587.508122720166
 31
0.0
  0
LINE
  5
212D6
330
21093
100
AcDbEntity
  8
YANE
100
AcDbLine
 10
3218.528096214237
 20
7408.502162099157
 30
0.0
 11
3218.528096214237
 21
7587.508122720166
 31
0.0
  0
LINE
  5
212D7
330
21093
100
AcDbEntity
  8
YANE
100
AcDbLine
 10
3278.828096214235
 20
7408.502162099157
 30
0.0
 11
3278.828096214235
 21
7587.508122720166
 31
0.0
  0
LINE
  5
212D8
330
21093
100
AcDbEntity
  8
YANE
100
AcDbLine
 10
3412.128096214234
 20
7408.502162099157
 30
0.0
 11
3412.128096214235
 21
7587.508122720166
 31
0.0
  0
LINE
  5
212D9
330
21093
100
AcDbEntity
  8
YANE
100
AcDbLine
 10
3395.478096214235
 20
7408.502162099157
 30
0.0
 11
3395.478096214235
 21
7587.508122720166
 31
0.0
  0
LINE
  5
212DA
330
21093
100
AcDbEntity
  8
YANE
100
AcDbLine
 10
3368.478096214235
 20
7408.502162099157
 30
0.0
 11
3368.478096214235
 21
7587.508122720166
 31
0.0
  0
LINE
  5
212DB
330
21093
100
AcDbEntity
  8
YANE
100
AcDbLine
 10
3501.778096214234
 20
7408.502162099157
 30
0.0
 11
3501.778096214234
 21
7587.508122720166
 31
0.0
  0
LINE
  5
212DC
330
21093
100
AcDbEntity
  8
YANE
100
AcDbLine
 10
3485.128096214236
 20
7408.502162099157
 30
0.0
 11
3485.128096214236
 21
7587.508122720166
 31
0.0
  0
LINE
  5
212DD
330
21093
100
AcDbEntity
  8
YANE
100
AcDbLine
 10
3545.428096214233
 20
7408.502162099157
 30
0.0
 11
3545.428096214233
 21
7587.508122720166
 31
0.0
  0
LINE
  5
212DE
330
21093
100
AcDbEntity
  8
YANE
100
AcDbLine
 10
3528.778096214235
 20
7408.502162099157
 30
0.0
 11
3528.778096214235
 21
7587.508122720166
 31
0.0
  0
LINE
  5
212DF
330
21093
100
AcDbEntity
  8
YANE
100
AcDbLine
 10
3812.02809621423
 20
7408.502162099157
 30
0.0
 11
3812.028096214233
 21
7587.508122720166
 31
0.0
  0
LINE
  5
212E0
330
21093
100
AcDbEntity
  8
YANE
100
AcDbLine
 10
3678.728096214232
 20
7408.502162099157
 30
0.0
 11
3678.728096214234
 21
7587.508122720166
 31
0.0
  0
LINE
  5
212E1
330
21093
100
AcDbEntity
  8
YANE
100
AcDbLine
 10
3662.078096214233
 20
7408.502162099157
 30
0.0
 11
3662.078096214233
 21
7587.508122720166
 31
0.0
  0
LINE
  5
212E2
330
21093
100
AcDbEntity
  8
YANE
100
AcDbLine
 10
3635.078096214232
 20
7408.502162099157
 30
0.0
 11
3635.078096214232
 21
7587.508122720166
 31
0.0
  0
LINE
  5
212E3
330
21093
100
AcDbEntity
  8
YANE
100
AcDbLine
 10
3618.428096214235
 20
7408.502162099157
 30
0.0
 11
3618.428096214235
 21
7587.508122720166
 31
0.0
  0
LINE
  5
212E4
330
21093
100
AcDbEntity
  8
YANE
100
AcDbLine
 10
3768.378096214232
 20
7408.502162099157
 30
0.0
 11
3768.378096214232
 21
7587.508122720166
 31
0.0
  0
LINE
  5
212E5
330
21093
100
AcDbEntity
  8
YANE
100
AcDbLine
 10
3751.728096214234
 20
7408.502162099157
 30
0.0
 11
3751.728096214234
 21
7587.508122720166
 31
0.0
  0
LINE
  5
212E6
330
21093
100
AcDbEntity
  8
YANE
100
AcDbLine
 10
3795.378096214231
 20
7408.502162099157
 30
0.0
 11
3795.378096214231
 21
7587.508122720166
 31
0.0
  0
LINE
  5
212E7
330
21093
100
AcDbEntity
  8
YANE
100
AcDbLine
 10
4061.97809621423
 20
7408.502162099157
 30
0.0
 11
4061.97809621423
 21
7587.508122720166
 31
0.0
  0
LINE
  5
212E8
330
21093
100
AcDbEntity
  8
YANE
100
AcDbLine
 10
4078.62809621423
 20
7408.502162099157
 30
0.0
 11
4078.628096214232
 21
7587.508122720166
 31
0.0
  0
LINE
  5
212E9
330
21093
100
AcDbEntity
  8
YANE
100
AcDbLine
 10
3945.328096214232
 20
7408.502162099157
 30
0.0
 11
3945.328096214232
 21
7587.508122720166
 31
0.0
  0
LINE
  5
212EA
330
21093
100
AcDbEntity
  8
YANE
100
AcDbLine
 10
3928.678096214232
 20
7408.502162099157
 30
0.0
 11
3928.678096214232
 21
7587.508122720166
 31
0.0
  0
LINE
  5
212EB
330
21093
100
AcDbEntity
  8
YANE
100
AcDbLine
 10
3901.678096214232
 20
7408.502162099157
 30
0.0
 11
3901.678096214232
 21
7587.508122720166
 31
0.0
  0
LINE
  5
212EC
330
21093
100
AcDbEntity
  8
YANE
100
AcDbLine
 10
3885.028096214233
 20
7408.502162099157
 30
0.0
 11
3885.028096214233
 21
7587.508122720166
 31
0.0
  0
LINE
  5
212ED
330
21093
100
AcDbEntity
  8
YANE
100
AcDbLine
 10
4018.328096214232
 20
7408.502162099157
 30
0.0
 11
4018.328096214232
 21
7587.508122720166
 31
0.0
  0
LINE
  5
212EE
330
21093
100
AcDbEntity
  8
YANE
100
AcDbLine
 10
4034.97809621423
 20
7408.502162099157
 30
0.0
 11
4034.97809621423
 21
7587.508122720166
 31
0.0
  0
LINE
  5
212EF
330
21093
100
AcDbEntity
  8
YANE
100
AcDbLine
 10
4328.578096214231
 20
7408.502162099157
 30
0.0
 11
4328.578096214231
 21
7587.508122720166
 31
0.0
  0
LINE
  5
212F0
330
21093
100
AcDbEntity
  8
YANE
100
AcDbLine
 10
4345.22809621423
 20
7408.502162099157
 30
0.0
 11
4345.228096214232
 21
7587.508122720166
 31
0.0
  0
LINE
  5
212F1
330
21093
100
AcDbEntity
  8
YANE
100
AcDbLine
 10
4151.628096214234
 20
7408.502162099157
 30
0.0
 11
4151.628096214234
 21
7587.508122720166
 31
0.0
  0
LINE
  5
212F2
330
21093
100
AcDbEntity
  8
YANE
100
AcDbLine
 10
4168.278096214232
 20
7408.502162099157
 30
0.0
 11
4168.278096214232
 21
7587.508122720166
 31
0.0
  0
LINE
  5
212F3
330
21093
100
AcDbEntity
  8
YANE
100
AcDbLine
 10
4195.27809621423
 20
7408.502162099157
 30
0.0
 11
4195.27809621423
 21
7587.508122720166
 31
0.0
  0
LINE
  5
212F4
330
21093
100
AcDbEntity
  8
YANE
100
AcDbLine
 10
4211.928096214231
 20
7408.502162099157
 30
0.0
 11
4211.928096214233
 21
7587.508122720166
 31
0.0
  0
LINE
  5
212F5
330
21093
100
AcDbEntity
  8
YANE
100
AcDbLine
 10
4284.928096214232
 20
7408.502162099157
 30
0.0
 11
4284.928096214232
 21
7587.508122720166
 31
0.0
  0
LINE
  5
212F6
330
21093
100
AcDbEntity
  8
YANE
100
AcDbLine
 10
4301.578096214231
 20
7408.502162099157
 30
0.0
 11
4301.578096214231
 21
7587.508122720166
 31
0.0
  0
LINE
  5
212F7
330
21093
100
AcDbEntity
  8
YANE
100
AcDbLine
 10
4568.178096214231
 20
7408.502162099157
 30
0.0
 11
4568.178096214231
 21
7587.508122720166
 31
0.0
  0
LINE
  5
212F8
330
21093
100
AcDbEntity
  8
YANE
100
AcDbLine
 10
4595.178096214231
 20
7408.502162099157
 30
0.0
 11
4595.178096214231
 21
7587.508122720166
 31
0.0
  0
LINE
  5
212F9
330
21093
100
AcDbEntity
  8
YANE
100
AcDbLine
 10
4418.228096214234
 20
7408.502162099157
 30
0.0
 11
4418.228096214234
 21
7587.508122720166
 31
0.0
  0
LINE
  5
212FA
330
21093
100
AcDbEntity
  8
YANE
100
AcDbLine
 10
4434.878096214232
 20
7408.502162099157
 30
0.0
 11
4434.878096214232
 21
7587.508122720166
 31
0.0
  0
LINE
  5
212FB
330
21093
100
AcDbEntity
  8
YANE
100
AcDbLine
 10
4461.87809621423
 20
7408.502162099157
 30
0.0
 11
4461.87809621423
 21
7587.508122720166
 31
0.0
  0
LINE
  5
212FC
330
21093
100
AcDbEntity
  8
YANE
100
AcDbLine
 10
4478.528096214231
 20
7408.502162099157
 30
0.0
 11
4478.528096214231
 21
7587.508122720166
 31
0.0
  0
LINE
  5
212FD
330
21093
100
AcDbEntity
  8
YANE
100
AcDbLine
 10
4551.52809621423
 20
7408.502162099157
 30
0.0
 11
4551.52809621423
 21
7587.508122720166
 31
0.0
  0
LINE
  5
212FE
330
21093
100
AcDbEntity
  8
YANE
100
AcDbLine
 10
4818.128096214234
 20
7408.502162099157
 30
0.0
 11
4818.128096214234
 21
7587.508122720166
 31
0.0
  0
LINE
  5
212FF
330
21093
100
AcDbEntity
  8
YANE
100
AcDbLine
 10
4834.778096214233
 20
7408.502162099157
 30
0.0
 11
4834.778096214233
 21
7587.508122720166
 31
0.0
  0
LINE
  5
21300
330
21093
100
AcDbEntity
  8
YANE
100
AcDbLine
 10
4611.828096214229
 20
7408.502162099157
 30
0.0
 11
4611.828096214231
 21
7587.508122720166
 31
0.0
  0
LINE
  5
21301
330
21093
100
AcDbEntity
  8
YANE
100
AcDbLine
 10
4684.828096214232
 20
7408.502162099157
 30
0.0
 11
4684.828096214232
 21
7587.508122720166
 31
0.0
  0
LINE
  5
21302
330
21093
100
AcDbEntity
  8
YANE
100
AcDbLine
 10
4701.47809621423
 20
7408.502162099157
 30
0.0
 11
4701.478096214232
 21
7587.508122720166
 31
0.0
  0
LINE
  5
21303
330
21093
100
AcDbEntity
  8
YANE
100
AcDbLine
 10
4728.478096214231
 20
7408.502162099157
 30
0.0
 11
4728.478096214231
 21
7587.508122720166
 31
0.0
  0
LINE
  5
21304
330
21093
100
AcDbEntity
  8
YANE
100
AcDbLine
 10
4745.128096214229
 20
7408.502162099157
 30
0.0
 11
4745.128096214232
 21
7587.508122720166
 31
0.0
  0
LINE
  5
21305
330
21093
100
AcDbEntity
  8
YANE
100
AcDbLine
 10
4861.778096214233
 20
7408.502162099157
 30
0.0
 11
4861.778096214233
 21
7587.508122720166
 31
0.0
  0
LINE
  5
21306
330
21093
100
AcDbEntity
  8
YANE
100
AcDbLine
 10
4878.428096214231
 20
7408.502162099157
 30
0.0
 11
4878.428096214231
 21
7587.508122720166
 31
0.0
  0
LINE
  5
21307
330
21093
100
AcDbEntity
  8
YANE
100
AcDbLine
 10
4951.428096214232
 20
7408.502162099157
 30
0.0
 11
4951.428096214232
 21
7587.508122720166
 31
0.0
  0
LINE
  5
21308
330
21093
100
AcDbEntity
  8
YANE
100
AcDbLine
 10
4968.078096214229
 20
7408.502162099157
 30
0.0
 11
4968.078096214229
 21
7587.508122720166
 31
0.0
  0
LINE
  5
21309
330
21093
100
AcDbEntity
  8
YANE
100
AcDbLine
 10
4995.078096214231
 20
7408.502162099157
 30
0.0
 11
4995.078096214231
 21
7587.508122720166
 31
0.0
  0
LINE
  5
2130A
330
21093
100
AcDbEntity
  8
YANE
100
AcDbLine
 10
5011.72809621423
 20
7408.502162099157
 30
0.0
 11
5011.728096214232
 21
7587.508122720166
 31
0.0
  0
LINE
  5
2130B
330
21093
100
AcDbEntity
  8
U1
100
AcDbLine
 10
5093.328096214242
 20
7548.152769638578
 30
0.0
 11
5093.328096214242
 21
7515.681077028266
 31
0.0
  0
LINE
  5
2130C
330
21093
100
AcDbEntity
  8
U1
100
AcDbLine
 10
5090.128096214242
 20
7518.881077028265
 30
0.0
 11
5090.128096214242
 21
7548.152769638578
 31
0.0
  0
LINE
  5
2130D
330
21093
100
AcDbEntity
  8
U1
100
AcDbLine
 10
5020.328096214242
 20
7515.681077028266
 30
0.0
 11
5020.328096214242
 21
7548.152769638578
 31
0.0
  0
LINE
  5
2130E
330
21093
100
AcDbEntity
  8
U1
100
AcDbLine
 10
5023.528096214242
 20
7548.152769638578
 30
0.0
 11
5023.528096214242
 21
7518.881077028265
 31
0.0
  0
LINE
  5
2130F
330
21093
100
AcDbEntity
  8
U1
100
AcDbLine
 10
5089.328096214241
 20
7548.15276963858
 30
0.0
 11
5089.328096214241
 21
7518.881077028265
 31
0.0
  0
LINE
  5
21310
330
21093
100
AcDbEntity
  8
U1
100
AcDbLine
 10
5024.328096214242
 20
7548.15276963858
 30
0.0
 11
5024.328096214242
 21
7518.881077028265
 31
0.0
  0
LINE
  5
21311
330
21093
100
AcDbEntity
  8
U1
100
AcDbLine
 10
5094.978096214241
 20
7515.681077028266
 30
0.0
 11
5018.678096214242
 21
7515.681077028266
 31
0.0
  0
LINE
  5
21312
330
21093
100
AcDbEntity
  8
U1
100
AcDbLine
 10
5023.528096214242
 20
7518.881077028265
 30
0.0
 11
5090.128096214242
 21
7518.881077028265
 31
0.0
  0
LINE
  5
21313
330
21093
100
AcDbEntity
  8
CAP
100
AcDbLine
 10
5019.328096214241
 20
7548.15276963858
 30
0.0
 11
5094.32809621424
 21
7548.15276963858
 31
0.0
  0
LINE
  5
21314
330
21093
100
AcDbEntity
  8
CAP
100
AcDbLine
 10
5019.328096214241
 20
7623.058634944816
 30
0.0
 11
5094.32809621424
 21
7623.058634944816
 31
0.0
  0
LINE
  5
21315
330
21093
100
AcDbEntity
  8
CAP
100
AcDbLine
 10
5019.328096214241
 20
7623.058634944816
 30
0.0
 11
5019.328096214241
 21
7548.15276963858
 31
0.0
  0
LINE
  5
21316
330
21093
100
AcDbEntity
  8
CAP
100
AcDbLine
 10
5094.32809621424
 20
7623.058634944816
 30
0.0
 11
5094.32809621424
 21
7548.15276963858
 31
0.0
  0
CIRCLE
  5
21317
330
21093
100
AcDbEntity
  8
HIDE-S1
100
AcDbCircle
 10
5056.828096214242
 20
7215.014820159627
 30
0.0
 40
30.25
  0
LINE
  5
21318
330
21093
100
AcDbEntity
  8
HANA
100
AcDbLine
 10
5094.32809621424
 20
7587.508122720166
 30
0.0
 11
5291.828096214246
 21
7587.508122720166
 31
0.0
  0
LINE
  5
21319
330
21093
100
AcDbEntity
  8
HANA
100
AcDbLine
 10
5094.32809621424
 20
7617.052437601437
 30
0.0
 11
5291.828096214246
 21
7617.052437601437
 31
0.0
  0
LINE
  5
2131A
330
21093
100
AcDbEntity
  8
U1
100
AcDbLine
 10
5094.978096214243
 20
5527.014820159628
 30
0.0
 11
5094.978096214243
 21
7515.681077028268
 31
0.0
  0
LINE
  5
2131B
330
21093
100
AcDbEntity
  8
U1
100
AcDbLine
 10
5018.678096214244
 20
5527.014820159628
 30
0.0
 11
5018.678096214242
 21
7515.681077028268
 31
0.0
  0
LINE
  5
2131C
330
21093
100
AcDbEntity
  8
1PL-M1
100
AcDbLine
 10
5056.828096214242
 20
5502.014820159628
 30
0.0
 11
5056.828096214242
 21
7973.194632209919
 31
0.0
  0
LINE
  5
2131D
330
21093
100
AcDbEntity
  8
U1
100
AcDbLine
 10
2693.328096214244
 20
7548.152769638578
 30
0.0
 11
2693.328096214244
 21
7515.681077028261
 31
0.0
  0
LINE
  5
2131E
330
21093
100
AcDbEntity
  8
U1
100
AcDbLine
 10
2690.128096214241
 20
7518.881077028265
 30
0.0
 11
2690.128096214241
 21
7548.152769638578
 31
0.0
  0
LINE
  5
2131F
330
21093
100
AcDbEntity
  8
U1
100
AcDbLine
 10
2620.328096214243
 20
7515.681077028261
 30
0.0
 11
2620.328096214243
 21
7548.152769638578
 31
0.0
  0
LINE
  5
21320
330
21093
100
AcDbEntity
  8
U1
100
AcDbLine
 10
2623.528096214243
 20
7548.152769638578
 30
0.0
 11
2623.528096214243
 21
7518.881077028265
 31
0.0
  0
LINE
  5
21321
330
21093
100
AcDbEntity
  8
U1
100
AcDbLine
 10
2689.328096214242
 20
7548.152769638578
 30
0.0
 11
2689.328096214242
 21
7518.881077028265
 31
0.0
  0
LINE
  5
21322
330
21093
100
AcDbEntity
  8
U1
100
AcDbLine
 10
2624.328096214242
 20
7548.152769638578
 30
0.0
 11
2624.328096214242
 21
7518.881077028265
 31
0.0
  0
LINE
  5
21323
330
21093
100
AcDbEntity
  8
U1
100
AcDbLine
 10
2694.978096214242
 20
7515.681077028261
 30
0.0
 11
2618.678096214244
 21
7515.681077028261
 31
0.0
  0
LINE
  5
21324
330
21093
100
AcDbEntity
  8
U1
100
AcDbLine
 10
2623.528096214243
 20
7518.881077028265
 30
0.0
 11
2690.128096214241
 21
7518.881077028265
 31
0.0
  0
LINE
  5
21325
330
21093
100
AcDbEntity
  8
CAP
100
AcDbLine
 10
2619.328096214242
 20
7548.152769638578
 30
0.0
 11
2694.328096214242
 21
7548.152769638578
 31
0.0
  0
LINE
  5
21326
330
21093
100
AcDbEntity
  8
CAP
100
AcDbLine
 10
2619.328096214242
 20
7623.058634944813
 30
0.0
 11
2694.328096214242
 21
7623.058634944816
 31
0.0
  0
LINE
  5
21327
330
21093
100
AcDbEntity
  8
CAP
100
AcDbLine
 10
2619.328096214242
 20
7623.058634944816
 30
0.0
 11
2619.328096214242
 21
7548.15276963858
 31
0.0
  0
LINE
  5
21328
330
21093
100
AcDbEntity
  8
CAP
100
AcDbLine
 10
2694.328096214242
 20
7623.058634944816
 30
0.0
 11
2694.328096214242
 21
7548.15276963858
 31
0.0
  0
CIRCLE
  5
21329
330
21093
100
AcDbEntity
  8
HIDE-S1
100
AcDbCircle
 10
2656.828096214244
 20
7215.014820159627
 30
0.0
 40
30.25
  0
LINE
  5
2132A
330
21093
100
AcDbEntity
  8
TOI
100
AcDbLine
 10
2421.828096214241
 20
7347.904358487094
 30
0.0
 11
2618.678096214244
 21
7347.904358487092
 31
0.0
  0
LINE
  5
2132B
330
21093
100
AcDbEntity
  8
YANE
100
AcDbLine
 10
2618.678096214244
 20
7408.502162099158
 30
0.0
 11
2421.828096214241
 21
7408.502162099157
 31
0.0
  0
LINE
  5
2132C
330
21093
100
AcDbEntity
  8
TOI
100
AcDbLine
 10
2421.828096214241
 20
7380.74503397936
 30
0.0
 11
2618.678096214244
 21
7380.74503397936
 31
0.0
  0
LINE
  5
2132D
330
21093
100
AcDbEntity
  8
TOI
100
AcDbLine
 10
2421.828096214241
 20
7389.736061817867
 30
0.0
 11
2618.678096214244
 21
7389.736061817867
 31
0.0
  0
LINE
  5
2132E
330
21093
100
AcDbEntity
  8
HANA
100
AcDbLine
 10
2421.828096214241
 20
7587.508122720166
 30
0.0
 11
2619.328096214242
 21
7587.508122720166
 31
0.0
  0
LINE
  5
2132F
330
21093
100
AcDbEntity
  8
HANA
100
AcDbLine
 10
2421.828096214241
 20
7617.052437601437
 30
0.0
 11
2619.328096214242
 21
7617.052437601437
 31
0.0
  0
TEXT
  5
21330
330
21093
100
AcDbEntity
  8
SUNPOU
100
AcDbText
 10
1978.557130362447
 20
5612.014820159624
 30
0.0
 40
90.0
  1
G.L
 41
0.6666666666666666
  7
00
 72
     4
 11
2049.985701791019
 21
5657.014820159623
 31
0.0
100
AcDbText
  0
LINE
  5
21331
330
21093
100
AcDbEntity
  8
SUNPOU
100
AcDbLine
 10
2527.054785738786
 20
5617.014820159624
 30
0.0
 11
2423.131737284652
 21
5617.014820159624
 31
0.0
  0
TEXT
  5
21332
330
21093
100
AcDbEntity
  8
SUNPOU
100
AcDbText
 10
2406.521832940291
 20
5662.014820159623
 30
0.0
 40
90.0
  1
F.L
 41
0.6666666666666666
  7
00
 72
     4
 11
2475.09326151172
 21
5707.014820159624
 31
0.0
100
AcDbText
  0
LINE
  5
21333
330
21093
100
AcDbEntity
  8
KISO
100
AcDbLine
 10
2356.828096214242
 20
5477.014820159625
 30
0.0
 11
2356.828096214242
 21
5527.014820159628
 31
0.0
  0
LINE
  5
21334
330
21093
100
AcDbEntity
  8
SUNPOU
100
AcDbLine
 10
1998.024177563952
 20
5567.014820159625
 30
0.0
 11
2049.985701791019
 21
5477.014820159625
 31
0.0
  0
LINE
  5
21335
330
21093
100
AcDbEntity
  8
SUNPOU
100
AcDbLine
 10
2101.947226018084
 20
5567.014820159625
 30
0.0
 11
1998.024177563952
 21
5567.014820159625
 31
0.0
  0
LINE
  5
21336
330
21093
100
AcDbEntity
  8
SUNPOU
100
AcDbLine
 10
2049.985701791019
 20
5477.014820159625
 30
0.0
 11
2101.947226018084
 21
5567.014820159625
 31
0.0
  0
LINE
  5
21337
330
21093
100
AcDbEntity
  8
SUNPOU
100
AcDbLine
 10
2423.131737284652
 20
5617.014820159624
 30
0.0
 11
2475.09326151172
 21
5527.014820159628
 31
0.0
  0
LINE
  5
21338
330
21093
100
AcDbEntity
  8
SUNPOU
100
AcDbLine
 10
2475.09326151172
 20
5527.014820159628
 30
0.0
 11
2527.054785738786
 21
5617.014820159624
 31
0.0
  0
LINE
  5
21339
330
21093
100
AcDbEntity
  8
U3
100
AcDbLine
 10
1920.467706521034
 20
5477.014820159628
 30
0.0
 11
2356.828096214242
 21
5477.014820159626
 31
0.0
  0
LINE
  5
2133A
330
21093
100
AcDbEntity
  8
U1
100
AcDbLine
 10
2694.978096214244
 20
5527.014820159628
 30
0.0
 11
2694.978096214244
 21
7515.681077028266
 31
0.0
  0
LINE
  5
2133B
330
21093
100
AcDbEntity
  8
U1
100
AcDbLine
 10
2618.678096214245
 20
5527.014820159628
 30
0.0
 11
2618.678096214244
 21
7515.681077028266
 31
0.0
  0
LINE
  5
2133C
330
21093
100
AcDbEntity
  8
1PL-M1
100
AcDbLine
 10
2656.828096214242
 20
5502.014820159628
 30
0.0
 11
2656.828096214242
 21
7973.194632209919
 31
0.0
  0
LINE
  5
2133D
330
21093
100
AcDbEntity
  8
KISO
100
AcDbLine
 10
5356.828096214242
 20
5477.014820159626
 30
0.0
 11
2356.828096214242
 21
5477.014820159625
 31
0.0
  0
LINE
  5
2133E
330
21093
100
AcDbEntity
  8
KISO
100
AcDbLine
 10
2356.828096214242
 20
5527.014820159628
 30
0.0
 11
5356.828096214242
 21
5527.014820159628
 31
0.0
  0
LINE
  5
2133F
330
21093
100
AcDbEntity
  8
TOI
100
AcDbLine
 10
2694.978096214244
 20
7347.904358487092
 30
0.0
 11
5018.678096214242
 21
7347.904358487092
 31
0.0
  0
LINE
  5
21340
330
21093
100
AcDbEntity
  8
YANE
100
AcDbLine
 10
5018.678096214242
 20
7408.502162099157
 30
0.0
 11
2694.978096214244
 21
7408.502162099158
 31
0.0
  0
LINE
  5
21341
330
21093
100
AcDbEntity
  8
TOI
100
AcDbLine
 10
2694.978096214244
 20
7380.74503397936
 30
0.0
 11
5018.678096214242
 21
7380.745033979362
 31
0.0
  0
LINE
  5
21342
330
21093
100
AcDbEntity
  8
TOI
100
AcDbLine
 10
2694.978096214244
 20
7389.736061817867
 30
0.0
 11
5018.678096214242
 21
7389.736061817867
 31
0.0
  0
LINE
  5
21343
330
21093
100
AcDbEntity
  8
HANA
100
AcDbLine
 10
2421.828096214241
 20
7730.802125207465
 30
0.0
 11
5291.828096214246
 21
7730.802125207465
 31
0.0
  0
LINE
  5
21344
330
21093
100
AcDbEntity
  8
HANA
100
AcDbLine
 10
2421.828096214241
 20
7630.076163276349
 30
0.0
 11
5291.828096214246
 21
7630.076163276349
 31
0.0
  0
LINE
  5
21345
330
21093
100
AcDbEntity
  8
HANA
100
AcDbLine
 10
2694.328096214242
 20
7587.508122720166
 30
0.0
 11
5019.328096214241
 21
7587.508122720166
 31
0.0
  0
LINE
  5
21346
330
21093
100
AcDbEntity
  8
HANA
100
AcDbLine
 10
2694.328096214242
 20
7617.052437601437
 30
0.0
 11
5019.328096214241
 21
7617.052437601437
 31
0.0
  0
LINE
  5
21347
330
21093
100
AcDbEntity
  8
YANE
100
AcDbLine
 10
5234.528096214246
 20
7408.502162099157
 30
0.0
 11
5234.528096214246
 21
7587.508122720166
 31
0.0
  0
LINE
  5
21348
330
21093
100
AcDbEntity
  8
YANE
100
AcDbLine
 10
5251.178096214246
 20
7408.502162099157
 30
0.0
 11
5251.178096214246
 21
7587.508122720166
 31
0.0
  0
LINE
  5
21349
330
21093
100
AcDbEntity
  8
YANE
100
AcDbLine
 10
5278.178096214245
 20
7408.502162099157
 30
0.0
 11
5278.178096214245
 21
7587.508122720166
 31
0.0
  0
LINE
  5
2134A
330
21093
100
AcDbEntity
  8
YANE
100
AcDbLine
 10
5161.528096214244
 20
7408.502162099157
 30
0.0
 11
5161.528096214244
 21
7587.508122720166
 31
0.0
  0
LINE
  5
2134B
330
21093
100
AcDbEntity
  8
YANE
100
AcDbLine
 10
5144.878096214246
 20
7408.502162099157
 30
0.0
 11
5144.878096214246
 21
7587.508122720166
 31
0.0
  0
LINE
  5
2134C
330
21093
100
AcDbEntity
  8
YANE
100
AcDbLine
 10
5117.878096214247
 20
7408.502162099157
 30
0.0
 11
5117.878096214247
 21
7587.508122720166
 31
0.0
  0
LINE
  5
2134D
330
21093
100
AcDbEntity
  8
YANE
100
AcDbLine
 10
5101.228096214247
 20
7408.502162099157
 30
0.0
 11
5101.228096214245
 21
7587.508122720166
 31
0.0
  0
LINE
  5
2134E
330
21093
100
AcDbEntity
  8
TOI
100
AcDbLine
 10
5291.828096214246
 20
7347.904358487094
 30
0.0
 11
5094.978096214243
 21
7347.904358487092
 31
0.0
  0
LINE
  5
2134F
330
21093
100
AcDbEntity
  8
YANE
100
AcDbLine
 10
5094.978096214243
 20
7408.502162099158
 30
0.0
 11
5291.828096214246
 21
7408.502162099157
 31
0.0
  0
LINE
  5
21350
330
21093
100
AcDbEntity
  8
TOI
100
AcDbLine
 10
5291.828096214246
 20
7380.74503397936
 30
0.0
 11
5094.978096214243
 21
7380.74503397936
 31
0.0
  0
LINE
  5
21351
330
21093
100
AcDbEntity
  8
TOI
100
AcDbLine
 10
5291.828096214246
 20
7389.736061817867
 30
0.0
 11
5094.978096214243
 21
7389.736061817867
 31
0.0
  0
LINE
  5
21352
330
21093
100
AcDbEntity
  8
HANA
100
AcDbLine
 10
5291.828096214246
 20
7587.508122720166
 30
0.0
 11
5094.328096214245
 21
7587.508122720166
 31
0.0
  0
LINE
  5
21353
330
21093
100
AcDbEntity
  8
HANA
100
AcDbLine
 10
5291.828096214246
 20
7617.052437601437
 30
0.0
 11
5094.328096214245
 21
7617.052437601437
 31
0.0
  0
LINE
  5
21354
330
21093
100
AcDbEntity
  8
KISO
100
AcDbLine
 10
5356.828096214242
 20
5477.014820159626
 30
0.0
 11
5356.828096214242
 21
5527.014820159628
 31
0.0
  0
LINE
  5
21355
330
21093
100
AcDbEntity
  8
KISO
100
AcDbLine
 10
8235.154713837292
 20
1186.805063765605
 30
0.0
 11
9085.154713837289
 21
1186.805063765607
 31
0.0
  0
LINE
  5
21356
330
21093
100
AcDbEntity
  8
KISO
100
AcDbLine
 10
8235.154713837292
 20
1186.805063765605
 30
0.0
 11
8235.154713837292
 21
1286.805063765604
 31
0.0
  0
LINE
  5
21357
330
21093
100
AcDbEntity
  8
KISO
100
AcDbLine
 10
9085.154713837289
 20
1186.805063765607
 30
0.0
 11
9085.154713837292
 21
1286.805063765605
 31
0.0
  0
LINE
  5
21358
330
21093
100
AcDbEntity
  8
KISO
100
AcDbLine
 10
8235.154713837292
 20
1286.805063765604
 30
0.0
 11
9085.154713837289
 21
1286.805063765605
 31
0.0
  0
TEXT
  5
21359
330
21093
100
AcDbEntity
  8
FILENAME
100
AcDbText
 10
10408.64285714285
 20
130.4999999999999
 30
0.0
 40
75.0
  1
＜YOTR-240-U1_1_JIS_GL.DXF ＞
  7
FILENAME
 72
     2
 11
12286.5
 21
130.4999999999999
 31
0.0
100
AcDbText
  0
LINE
  5
2135A
330
21093
100
AcDbEntity
  8
WAKUSEN-01
100
AcDbLine
 10
325.5000000000006
 20
310.4999999999997
 30
0.0
 11
12286.5
 21
310.4999999999997
 31
0.0
  0
LINE
  5
2135B
330
21093
100
AcDbEntity
  8
WAKUSEN-01
100
AcDbLine
 10
325.5000000000006
 20
8431.500000000003
 30
0.0
 11
12286.5
 21
8431.500000000003
 31
0.0
  0
LINE
  5
2135C
330
21093
100
AcDbEntity
  8
WAKUSEN-01
100
AcDbLine
 10
325.5000000000006
 20
310.4999999999997
 30
0.0
 11
325.5000000000006
 21
8431.500000000003
 31
0.0
  0
LINE
  5
2135D
330
21093
100
AcDbEntity
  8
WAKUSEN-01
100
AcDbLine
 10
12286.5
 20
310.4999999999997
 30
0.0
 11
12286.5
 21
8431.500000000003
 31
0.0
  0
LINE
  5
2135E
330
21093
100
AcDbEntity
  8
WAKUSEN-01
100
AcDbLine
 10
7710.0
 20
931.4999999999999
 30
0.0
 11
12286.5
 21
931.4999999999995
 31
0.0
  0
LINE
  5
2135F
330
21093
100
AcDbEntity
  8
WAKUSEN-02
100
AcDbLine
 10
7710.0
 20
620.9999999999999
 30
0.0
 11
10075.49999999999
 21
620.9999999999999
 31
0.0
  0
TEXT
  5
21360
330
21093
100
AcDbEntity
  8
WAKUMOJI-01
100
AcDbText
 10
7751.347597486038
 20
797.2136285022457
 30
0.0
 40
90.0
  1
名　称
  7
WAKUMOJI
100
AcDbText
  0
TEXT
  5
21361
330
21093
100
AcDbEntity
  8
WAKUMOJI-01
100
AcDbText
 10
7746.18955690947
 20
494.6733656174329
 30
0.0
 40
90.0
  1
機種名
  7
WAKUMOJI
100
AcDbText
  0
LINE
  5
21362
330
21093
100
AcDbEntity
  8
WAKUSEN-01
100
AcDbLine
 10
7710.0
 20
310.4999999999989
 30
0.0
 11
7710.0
 21
931.4999999999999
 31
0.0
  0
LINE
  5
21363
330
21093
100
AcDbEntity
  8
WAKUSEN-02
100
AcDbLine
 10
10075.49999999999
 20
310.4999999999973
 30
0.0
 11
10075.49999999999
 21
931.4999999999999
 31
0.0
  0
LINE
  5
21364
330
21093
100
AcDbEntity
  8
YODOROGO
100
AcDbLine
 10
11241.60162798446
 20
748.4060611609828
 30
0.0
 11
11186.10162798447
 21
748.4060611609828
 31
0.0
1001
AUTOCAD_POSTSCRIPT_FIGURE
1002
{
1000
PSFILL
1000
Grayscale
1000
Grayscale
1070
    25
1002
}
  0
LINE
  5
21365
330
21093
100
AcDbEntity
  8
YODOROGO
100
AcDbLine
 10
11186.10162798447
 20
730.4060611609828
 30
0.0
 11
11241.60162798446
 21
730.4060611609828
 31
0.0
1001
AUTOCAD_POSTSCRIPT_FIGURE
1002
{
1000
PSFILL
1000
Grayscale
1000
Grayscale
1070
    25
1002
}
  0
LINE
  5
21366
330
21093
100
AcDbEntity
  8
YODOROGO
100
AcDbLine
 10
11241.60162798446
 20
715.4060611609828
 30
0.0
 11
11186.10162798447
 21
715.4060611609828
 31
0.0
1001
AUTOCAD_POSTSCRIPT_FIGURE
1002
{
1000
PSFILL
1000
Grayscale
1000
Grayscale
1070
    25
1002
}
  0
LINE
  5
21367
330
21093
100
AcDbEntity
  8
YODOROGO
100
AcDbLine
 10
11186.10162798447
 20
697.406061160983
 30
0.0
 11
11241.60162798446
 21
697.406061160983
 31
0.0
1001
AUTOCAD_POSTSCRIPT_FIGURE
1002
{
1000
PSFILL
1000
Grayscale
1000
Grayscale
1070
    25
1002
}
  0
LINE
  5
21368
330
21093
100
AcDbEntity
  8
YODOROGO
100
AcDbLine
 10
11241.60162798446
 20
682.4060611609829
 30
0.0
 11
11186.10162798447
 21
682.4060611609829
 31
0.0
1001
AUTOCAD_POSTSCRIPT_FIGURE
1002
{
1000
PSFILL
1000
Grayscale
1000
Grayscale
1070
    25
1002
}
  0
LINE
  5
21369
330
21093
100
AcDbEntity
  8
YODOROGO
100
AcDbLine
 10
11220.60162798447
 20
640.4060611609828
 30
0.0
 11
11241.60162798446
 21
640.4060611609828
 31
0.0
1001
AUTOCAD_POSTSCRIPT_FIGURE
1002
{
1000
PSFILL
1000
Grayscale
1000
Grayscale
1070
    25
1002
}
  0
LINE
  5
2136A
330
21093
100
AcDbEntity
  8
YODOROGO
100
AcDbLine
 10
11151.60162798447
 20
535.4060611609829
 30
0.0
 11
11226.60162798446
 21
555.5022505933164
 31
0.0
  0
LINE
  5
2136B
330
21093
100
AcDbEntity
  8
YODOROGO
100
AcDbLine
 10
11231.10162798446
 20
640.4060611609828
 30
0.0
 11
11207.10162798447
 21
640.4060611609828
 31
0.0
  0
ARC
  5
2136C
330
21093
100
AcDbEntity
  8
YODOROGO
100
AcDbCircle
 10
11345.38040618545
 20
677.9492284624735
 30
0.0
 40
143.2075740771177
100
AcDbArc
 50
213.9611167766784
 51
264.4787207431779
  0
ARC
  5
2136D
330
21093
100
AcDbEntity
  8
YODOROGO
100
AcDbCircle
 10
11345.38040618547
 20
677.9492284624883
 30
0.0
 40
143.2075740771305
100
AcDbArc
 50
208.141144204866
 51
212.9210361185994
  0
LINE
  5
2136E
330
21093
100
AcDbEntity
  8
YODOROGO
100
AcDbLine
 10
11164.27870236948
 20
583.8028730048376
 30
0.0
 11
11225.1690496907
 21
600.1183923964076
 31
0.0
  0
LINE
  5
2136F
330
21093
100
AcDbEntity
  8
YODOROGO
100
AcDbLine
 10
11151.60162798447
 20
535.4060611609829
 30
0.0
 11
11226.60162798446
 21
555.5022505933164
 31
0.0
  0
LINE
  5
21370
330
21093
100
AcDbEntity
  8
YODOROGO
100
AcDbLine
 10
11231.10162798446
 20
640.4060611609828
 30
0.0
 11
11207.10162798447
 21
640.4060611609828
 31
0.0
  0
ARC
  5
21371
330
21093
100
AcDbEntity
  8
YODOROGO
100
AcDbCircle
 10
11345.38040618545
 20
677.9492284624735
 30
0.0
 40
143.2075740771177
100
AcDbArc
 50
213.9611167766784
 51
264.4787207431779
  0
LINE
  5
21372
330
21093
100
AcDbEntity
  8
YODOROGO
100
AcDbLine
 10
10797.60162798446
 20
682.4060611609829
 30
0.0
 11
10662.60162798446
 21
682.4060611609829
 31
0.0
  0
LINE
  5
21373
330
21093
100
AcDbEntity
  8
YODOROGO
100
AcDbLine
 10
10692.60162798446
 20
535.4060611609829
 30
0.0
 11
10797.60162798446
 21
535.4060611609829
 31
0.0
  0
LINE
  5
21374
330
21093
100
AcDbEntity
  8
YODOROGO
100
AcDbLine
 10
10773.60162798447
 20
721.4060611609824
 30
0.0
 11
10686.60162798446
 21
721.4060611609824
 31
0.0
  0
LINE
  5
21375
330
21093
100
AcDbEntity
  8
YODOROGO
100
AcDbLine
 10
10719.60162798446
 20
760.4060611609829
 30
0.0
 11
10746.60162798447
 21
760.4060611609829
 31
0.0
  0
LINE
  5
21376
330
21093
100
AcDbEntity
  8
YODOROGO
100
AcDbLine
 10
10662.60162798446
 20
640.4060611609828
 30
0.0
 11
10662.60162798446
 21
565.4060611609828
 31
0.0
  0
LINE
  5
21377
330
21093
100
AcDbEntity
  8
YODOROGO
100
AcDbLine
 10
10686.60162798446
 20
586.4060611609825
 30
0.0
 11
10686.60162798446
 21
640.4060611609828
 31
0.0
  0
LINE
  5
21378
330
21093
100
AcDbEntity
  8
YODOROGO
100
AcDbLine
 10
10719.60162798446
 20
655.4060611609838
 30
0.0
 11
10719.60162798446
 21
580.406061160983
 31
0.0
  0
LINE
  5
21379
330
21093
100
AcDbEntity
  8
YODOROGO
100
AcDbLine
 10
10446.60162798447
 20
631.4060611609833
 30
0.0
 11
10416.60162798446
 21
607.4896552667143
 31
0.0
  0
LINE
  5
2137A
330
21093
100
AcDbEntity
  8
YODOROGO
100
AcDbLine
 10
10476.60162798446
 20
607.4896552667143
 30
0.0
 11
10446.60162798447
 21
631.4060611609833
 31
0.0
  0
LINE
  5
2137B
330
21093
100
AcDbEntity
  8
YODOROGO
100
AcDbLine
 10
10446.60162798447
 20
640.4060611609828
 30
0.0
 11
10476.60162798446
 21
616.4896552667137
 31
0.0
  0
LINE
  5
2137C
330
21093
100
AcDbEntity
  8
YODOROGO
100
AcDbLine
 10
10416.60162798446
 20
616.4896552667137
 30
0.0
 11
10446.60162798447
 21
640.4060611609828
 31
0.0
  0
LINE
  5
2137D
330
21093
100
AcDbEntity
  8
YODOROGO
100
AcDbLine
 10
10515.34245150633
 20
622.406061160983
 30
0.0
 11
10515.34245150633
 21
631.4060611609825
 31
0.0
  0
LINE
  5
2137E
330
21093
100
AcDbEntity
  8
YODOROGO
100
AcDbLine
 10
10491.60162798447
 20
631.4060611609825
 30
0.0
 11
10491.60162798447
 21
625.4060611609819
 31
0.0
  0
LINE
  5
2137F
330
21093
100
AcDbEntity
  8
YODOROGO
100
AcDbLine
 10
10536.8008200866
 20
640.4060611609828
 30
0.0
 11
10536.8008200866
 21
620.813863977996
 31
0.0
1001
AUTOCAD_POSTSCRIPT_FIGURE
1002
{
1000
PSFILL
1000
Grayscale
1000
Grayscale
1070
   100
1002
}
  0
LINE
  5
21380
330
21093
100
AcDbEntity
  8
YODOROGO
100
AcDbLine
 10
10530.80082008658
 20
620.813863977996
 30
0.0
 11
10530.80082008658
 21
640.4060611609828
 31
0.0
1001
AUTOCAD_POSTSCRIPT_FIGURE
1002
{
1000
PSFILL
1000
Grayscale
1000
Grayscale
1070
   100
1002
}
  0
LINE
  5
21381
330
21093
100
AcDbEntity
  8
YODOROGO
100
AcDbLine
 10
10428.60162798447
 20
603.2894640162218
 30
0.0
 11
10428.60162798447
 21
612.2894640162221
 31
0.0
  0
LINE
  5
21382
330
21093
100
AcDbEntity
  8
YODOROGO
100
AcDbLine
 10
10464.60162798447
 20
603.2894640162218
 30
0.0
 11
10428.60162798447
 21
603.2894640162218
 31
0.0
  0
LINE
  5
21383
330
21093
100
AcDbEntity
  8
YODOROGO
100
AcDbLine
 10
10464.60162798447
 20
612.2894640162221
 30
0.0
 11
10464.60162798447
 21
603.2894640162218
 31
0.0
  0
LINE
  5
21384
330
21093
100
AcDbEntity
  8
YODOROGO
100
AcDbLine
 10
10428.60162798447
 20
612.2894640162221
 30
0.0
 11
10464.60162798447
 21
612.2894640162221
 31
0.0
  0
LINE
  5
21385
330
21093
100
AcDbEntity
  8
YODOROGO
100
AcDbLine
 10
10434.1910958434
 20
588.1885715139279
 30
0.0
 11
10419.60162798446
 21
553.4060611609827
 31
0.0
1001
AUTOCAD_POSTSCRIPT_FIGURE
1002
{
1000
PSFILL
1000
Grayscale
1000
Grayscale
1070
   100
1002
}
  0
LINE
  5
21386
330
21093
100
AcDbEntity
  8
YODOROGO
100
AcDbLine
 10
10416.60162798446
 20
588.1885715139279
 30
0.0
 11
10434.1910958434
 21
588.1885715139279
 31
0.0
1001
AUTOCAD_POSTSCRIPT_FIGURE
1002
{
1000
PSFILL
1000
Grayscale
1000
Grayscale
1070
   100
1002
}
  0
LINE
  5
21387
330
21093
100
AcDbEntity
  8
YODOROGO
100
AcDbLine
 10
10416.60162798446
 20
595.688571513928
 30
0.0
 11
10416.60162798446
 21
588.1885715139279
 31
0.0
1001
AUTOCAD_POSTSCRIPT_FIGURE
1002
{
1000
PSFILL
1000
Grayscale
1000
Grayscale
1070
   100
1002
}
  0
LINE
  5
21388
330
21093
100
AcDbEntity
  8
YODOROGO
100
AcDbLine
 10
10476.60162798446
 20
595.688571513928
 30
0.0
 11
10416.60162798446
 21
595.688571513928
 31
0.0
1001
AUTOCAD_POSTSCRIPT_FIGURE
1002
{
1000
PSFILL
1000
Grayscale
1000
Grayscale
1070
   100
1002
}
  0
LINE
  5
21389
330
21093
100
AcDbEntity
  8
YODOROGO
100
AcDbLine
 10
10476.60162798446
 20
588.1885715139279
 30
0.0
 11
10476.60162798446
 21
595.688571513928
 31
0.0
1001
AUTOCAD_POSTSCRIPT_FIGURE
1002
{
1000
PSFILL
1000
Grayscale
1000
Grayscale
1070
   100
1002
}
  0
LINE
  5
2138A
330
21093
100
AcDbEntity
  8
YODOROGO
100
AcDbLine
 10
10441.69109584339
 20
588.1885715139279
 30
0.0
 11
10476.60162798446
 21
588.1885715139279
 31
0.0
1001
AUTOCAD_POSTSCRIPT_FIGURE
1002
{
1000
PSFILL
1000
Grayscale
1000
Grayscale
1070
   100
1002
}
  0
LINE
  5
2138B
330
21093
100
AcDbEntity
  8
YODOROGO
100
AcDbLine
 10
10430.83001935679
 20
560.9060611609827
 30
0.0
 11
10441.69109584339
 21
588.1885715139279
 31
0.0
1001
AUTOCAD_POSTSCRIPT_FIGURE
1002
{
1000
PSFILL
1000
Grayscale
1000
Grayscale
1070
   100
1002
}
  0
LINE
  5
2138C
330
21093
100
AcDbEntity
  8
YODOROGO
100
AcDbLine
 10
10463.27054655324
 20
560.9060611609827
 30
0.0
 11
10430.83001935679
 21
560.9060611609827
 31
0.0
1001
AUTOCAD_POSTSCRIPT_FIGURE
1002
{
1000
PSFILL
1000
Grayscale
1000
Grayscale
1070
   100
1002
}
  0
LINE
  5
2138D
330
21093
100
AcDbEntity
  8
YODOROGO
100
AcDbLine
 10
10456.8993767966
 20
576.0876790116348
 30
0.0
 11
10463.27054655324
 21
560.9060611609827
 31
0.0
1001
AUTOCAD_POSTSCRIPT_FIGURE
1002
{
1000
PSFILL
1000
Grayscale
1000
Grayscale
1070
   100
1002
}
  0
LINE
  5
2138E
330
21093
100
AcDbEntity
  8
YODOROGO
100
AcDbLine
 10
10462.8993767966
 20
576.0876790116348
 30
0.0
 11
10456.8993767966
 21
576.0876790116348
 31
0.0
1001
AUTOCAD_POSTSCRIPT_FIGURE
1002
{
1000
PSFILL
1000
Grayscale
1000
Grayscale
1070
   100
1002
}
  0
LINE
  5
2138F
330
21093
100
AcDbEntity
  8
YODOROGO
100
AcDbLine
 10
10473.60162798447
 20
553.4060611609827
 30
0.0
 11
10462.8993767966
 21
576.0876790116348
 31
0.0
1001
AUTOCAD_POSTSCRIPT_FIGURE
1002
{
1000
PSFILL
1000
Grayscale
1000
Grayscale
1070
   100
1002
}
  0
LINE
  5
21390
330
21093
100
AcDbEntity
  8
YODOROGO
100
AcDbLine
 10
10419.60162798446
 20
553.4060611609827
 30
0.0
 11
10473.60162798447
 21
553.4060611609827
 31
0.0
1001
AUTOCAD_POSTSCRIPT_FIGURE
1002
{
1000
PSFILL
1000
Grayscale
1000
Grayscale
1070
   100
1002
}
  0
LINE
  5
21391
330
21093
100
AcDbEntity
  8
YODOROGO
100
AcDbLine
 10
10416.60162798446
 20
607.4896552667143
 30
0.0
 11
10416.60162798446
 21
616.4896552667137
 31
0.0
  0
LINE
  5
21392
330
21093
100
AcDbEntity
  8
YODOROGO
100
AcDbLine
 10
10476.60162798446
 20
616.4896552667137
 30
0.0
 11
10476.60162798446
 21
607.4896552667143
 31
0.0
  0
ARC
  5
21393
330
21093
100
AcDbEntity
  8
YODOROGO
100
AcDbCircle
 10
10584.72766580511
 20
600.3291619969972
 30
0.0
 40
65.99999999999997
100
AcDbArc
 50
280.3644312771313
 51
3.541483659218056
  0
ARC
  5
21394
330
21093
100
AcDbEntity
  8
YODOROGO
100
AcDbCircle
 10
10588.40851153474
 20
612.5991776107142
 30
0.0
 40
41.99999999999936
100
AcDbArc
 50
281.2490582504155
 51
348.7509417495832
  0
LINE
  5
21395
330
21093
100
AcDbEntity
  8
YODOROGO
100
AcDbLine
 10
10596.60162798446
 20
571.4060611609824
 30
0.0
 11
10596.60162798446
 21
535.4060611609829
 31
0.0
  0
LINE
  5
21396
330
21093
100
AcDbEntity
  8
YODOROGO
100
AcDbLine
 10
10507.53333890132
 20
603.9939618982182
 30
0.0
 11
10515.34245150633
 21
622.406061160983
 31
0.0
  0
LINE
  5
21397
330
21093
100
AcDbEntity
  8
YODOROGO
100
AcDbLine
 10
10515.60162798446
 20
593.6701837306505
 30
0.0
 11
10507.53333890132
 21
603.9939618982182
 31
0.0
  0
LINE
  5
21398
330
21093
100
AcDbEntity
  8
YODOROGO
100
AcDbLine
 10
10515.60162798446
 20
586.1701837306497
 30
0.0
 11
10515.60162798446
 21
593.6701837306505
 31
0.0
  0
LINE
  5
21399
330
21093
100
AcDbEntity
  8
YODOROGO
100
AcDbLine
 10
10506.60162798447
 20
594.4638989060739
 30
0.0
 11
10515.60162798446
 21
586.1701837306497
 31
0.0
  0
LINE
  5
2139A
330
21093
100
AcDbEntity
  8
YODOROGO
100
AcDbLine
 10
10506.60162798447
 20
553.4060611609827
 30
0.0
 11
10506.60162798447
 21
594.4638989060739
 31
0.0
  0
LINE
  5
2139B
330
21093
100
AcDbEntity
  8
YODOROGO
100
AcDbLine
 10
10500.60162798446
 20
553.4060611609827
 30
0.0
 11
10506.60162798447
 21
553.4060611609827
 31
0.0
  0
LINE
  5
2139C
330
21093
100
AcDbEntity
  8
YODOROGO
100
AcDbLine
 10
10500.60162798446
 20
592.5020061336555
 30
0.0
 11
10500.60162798446
 21
553.4060611609827
 31
0.0
  0
LINE
  5
2139D
330
21093
100
AcDbEntity
  8
YODOROGO
100
AcDbLine
 10
10491.60162798447
 20
574.7880296375358
 30
0.0
 11
10500.60162798446
 21
592.5020061336555
 31
0.0
  0
LINE
  5
2139E
330
21093
100
AcDbEntity
  8
YODOROGO
100
AcDbLine
 10
10491.60162798447
 20
583.788029637536
 30
0.0
 11
10491.60162798447
 21
574.7880296375358
 31
0.0
  0
LINE
  5
2139F
330
21093
100
AcDbEntity
  8
YODOROGO
100
AcDbLine
 10
10509.68579035926
 20
625.4060611609819
 30
0.0
 11
10491.60162798447
 21
583.788029637536
 31
0.0
  0
LINE
  5
213A0
330
21093
100
AcDbEntity
  8
YODOROGO
100
AcDbLine
 10
10491.60162798447
 20
625.4060611609819
 30
0.0
 11
10509.68579035926
 21
625.4060611609819
 31
0.0
  0
LINE
  5
213A1
330
21093
100
AcDbEntity
  8
YODOROGO
100
AcDbLine
 10
10518.80082008659
 20
620.813863977996
 30
0.0
 11
10530.80082008658
 21
620.813863977996
 31
0.0
1001
AUTOCAD_POSTSCRIPT_FIGURE
1002
{
1000
PSFILL
1000
Grayscale
1000
Grayscale
1070
   100
1002
}
  0
LINE
  5
213A2
330
21093
100
AcDbEntity
  8
YODOROGO
100
AcDbLine
 10
10518.80082008659
 20
611.8138639779965
 30
0.0
 11
10518.80082008659
 21
620.813863977996
 31
0.0
1001
AUTOCAD_POSTSCRIPT_FIGURE
1002
{
1000
PSFILL
1000
Grayscale
1000
Grayscale
1070
   100
1002
}
  0
LINE
  5
213A3
330
21093
100
AcDbEntity
  8
YODOROGO
100
AcDbLine
 10
10530.80082008658
 20
611.8138639779965
 30
0.0
 11
10518.80082008659
 21
611.8138639779965
 31
0.0
1001
AUTOCAD_POSTSCRIPT_FIGURE
1002
{
1000
PSFILL
1000
Grayscale
1000
Grayscale
1070
   100
1002
}
  0
LINE
  5
213A4
330
21093
100
AcDbEntity
  8
YODOROGO
100
AcDbLine
 10
10530.80082008658
 20
562.4060611609831
 30
0.0
 11
10530.80082008658
 21
611.8138639779965
 31
0.0
1001
AUTOCAD_POSTSCRIPT_FIGURE
1002
{
1000
PSFILL
1000
Grayscale
1000
Grayscale
1070
   100
1002
}
  0
LINE
  5
213A5
330
21093
100
AcDbEntity
  8
YODOROGO
100
AcDbLine
 10
10518.8008200866
 20
562.4060611609831
 30
0.0
 11
10530.80082008658
 21
562.4060611609831
 31
0.0
1001
AUTOCAD_POSTSCRIPT_FIGURE
1002
{
1000
PSFILL
1000
Grayscale
1000
Grayscale
1070
   100
1002
}
  0
LINE
  5
213A6
330
21093
100
AcDbEntity
  8
YODOROGO
100
AcDbLine
 10
10518.8008200866
 20
553.4060611609827
 30
0.0
 11
10518.8008200866
 21
562.4060611609831
 31
0.0
1001
AUTOCAD_POSTSCRIPT_FIGURE
1002
{
1000
PSFILL
1000
Grayscale
1000
Grayscale
1070
   100
1002
}
  0
LINE
  5
213A7
330
21093
100
AcDbEntity
  8
YODOROGO
100
AcDbLine
 10
10551.60162798447
 20
553.4060611609827
 30
0.0
 11
10518.8008200866
 21
553.4060611609827
 31
0.0
1001
AUTOCAD_POSTSCRIPT_FIGURE
1002
{
1000
PSFILL
1000
Grayscale
1000
Grayscale
1070
   100
1002
}
  0
LINE
  5
213A8
330
21093
100
AcDbEntity
  8
YODOROGO
100
AcDbLine
 10
10551.60162798447
 20
562.4060611609831
 30
0.0
 11
10551.60162798447
 21
553.4060611609827
 31
0.0
1001
AUTOCAD_POSTSCRIPT_FIGURE
1002
{
1000
PSFILL
1000
Grayscale
1000
Grayscale
1070
   100
1002
}
  0
LINE
  5
213A9
330
21093
100
AcDbEntity
  8
YODOROGO
100
AcDbLine
 10
10536.8008200866
 20
562.4060611609831
 30
0.0
 11
10551.60162798447
 21
562.4060611609831
 31
0.0
1001
AUTOCAD_POSTSCRIPT_FIGURE
1002
{
1000
PSFILL
1000
Grayscale
1000
Grayscale
1070
   100
1002
}
  0
LINE
  5
213AA
330
21093
100
AcDbEntity
  8
YODOROGO
100
AcDbLine
 10
10536.8008200866
 20
611.8138639779965
 30
0.0
 11
10536.8008200866
 21
562.4060611609831
 31
0.0
1001
AUTOCAD_POSTSCRIPT_FIGURE
1002
{
1000
PSFILL
1000
Grayscale
1000
Grayscale
1070
   100
1002
}
  0
LINE
  5
213AB
330
21093
100
AcDbEntity
  8
YODOROGO
100
AcDbLine
 10
10551.60162798447
 20
611.8138639779965
 30
0.0
 11
10536.8008200866
 21
611.8138639779965
 31
0.0
1001
AUTOCAD_POSTSCRIPT_FIGURE
1002
{
1000
PSFILL
1000
Grayscale
1000
Grayscale
1070
   100
1002
}
  0
LINE
  5
213AC
330
21093
100
AcDbEntity
  8
YODOROGO
100
AcDbLine
 10
10551.60162798447
 20
620.813863977996
 30
0.0
 11
10551.60162798447
 21
611.8138639779965
 31
0.0
1001
AUTOCAD_POSTSCRIPT_FIGURE
1002
{
1000
PSFILL
1000
Grayscale
1000
Grayscale
1070
   100
1002
}
  0
LINE
  5
213AD
330
21093
100
AcDbEntity
  8
YODOROGO
100
AcDbLine
 10
10536.8008200866
 20
620.813863977996
 30
0.0
 11
10551.60162798447
 21
620.813863977996
 31
0.0
1001
AUTOCAD_POSTSCRIPT_FIGURE
1002
{
1000
PSFILL
1000
Grayscale
1000
Grayscale
1070
   100
1002
}
  0
LINE
  5
213AE
330
21093
100
AcDbEntity
  8
YODOROGO
100
AcDbLine
 10
10650.60162798447
 20
625.406061160983
 30
0.0
 11
10629.60162798447
 21
625.406061160983
 31
0.0
  0
LINE
  5
213AF
330
21093
100
AcDbEntity
  8
YODOROGO
100
AcDbLine
 10
10650.60162798447
 20
604.4060611609832
 30
0.0
 11
10650.60162798447
 21
625.406061160983
 31
0.0
  0
LINE
  5
213B0
330
21093
100
AcDbEntity
  8
YODOROGO
100
AcDbLine
 10
10629.60162798447
 20
625.406061160983
 30
0.0
 11
10629.60162798447
 21
604.4060611609832
 31
0.0
  0
ARC
  5
213B1
330
21093
100
AcDbEntity
  8
YODOROGO
100
AcDbCircle
 10
10692.60162798446
 20
565.4060611609828
 30
0.0
 40
30.0
100
AcDbArc
 50
180.0
 51
270.0
  0
ARC
  5
213B2
330
21093
100
AcDbEntity
  8
YODOROGO
100
AcDbCircle
 10
10701.60162798446
 20
586.4060611609825
 30
0.0
 40
15.0
100
AcDbArc
 50
180.0
 51
270.0
  0
LINE
  5
213B3
330
21093
100
AcDbEntity
  8
YODOROGO
100
AcDbLine
 10
10710.60162798447
 20
571.4060611609824
 30
0.0
 11
10701.60162798446
 21
571.4060611609824
 31
0.0
  0
ARC
  5
213B4
330
21093
100
AcDbEntity
  8
YODOROGO
100
AcDbCircle
 10
10710.60162798447
 20
580.4060611609819
 30
0.0
 40
8.999999999998637
100
AcDbArc
 50
270.0
 51
0.0000000000054281
  0
LINE
  5
213B5
330
21093
100
AcDbEntity
  8
YODOROGO
100
AcDbLine
 10
10425.60162798447
 20
709.0449677976399
 30
0.0
 11
10416.60162798446
 21
691.4162804818772
 31
0.0
1001
AUTOCAD_POSTSCRIPT_FIGURE
1002
{
1000
PSFILL
1000
Grayscale
1000
Grayscale
1070
   100
1002
}
  0
LINE
  5
213B6
330
21093
100
AcDbEntity
  8
YODOROGO
100
AcDbLine
 10
10425.60162798447
 20
655.406061160983
 30
0.0
 11
10425.60162798447
 21
709.0449677976399
 31
0.0
1001
AUTOCAD_POSTSCRIPT_FIGURE
1002
{
1000
PSFILL
1000
Grayscale
1000
Grayscale
1070
   100
1002
}
  0
LINE
  5
213B7
330
21093
100
AcDbEntity
  8
YODOROGO
100
AcDbLine
 10
10431.60162798447
 20
655.406061160983
 30
0.0
 11
10425.60162798447
 21
655.406061160983
 31
0.0
1001
AUTOCAD_POSTSCRIPT_FIGURE
1002
{
1000
PSFILL
1000
Grayscale
1000
Grayscale
1070
   100
1002
}
  0
LINE
  5
213B8
330
21093
100
AcDbEntity
  8
YODOROGO
100
AcDbLine
 10
10431.60162798447
 20
710.1642495319751
 30
0.0
 11
10431.60162798447
 21
655.406061160983
 31
0.0
1001
AUTOCAD_POSTSCRIPT_FIGURE
1002
{
1000
PSFILL
1000
Grayscale
1000
Grayscale
1070
   100
1002
}
  0
LINE
  5
213B9
330
21093
100
AcDbEntity
  8
YODOROGO
100
AcDbLine
 10
10440.60162798446
 20
700.3705343565512
 30
0.0
 11
10431.60162798447
 21
710.1642495319751
 31
0.0
1001
AUTOCAD_POSTSCRIPT_FIGURE
1002
{
1000
PSFILL
1000
Grayscale
1000
Grayscale
1070
   100
1002
}
  0
LINE
  5
213BA
330
21093
100
AcDbEntity
  8
YODOROGO
100
AcDbLine
 10
10440.60162798446
 20
706.3705343565509
 30
0.0
 11
10440.60162798446
 21
700.3705343565512
 31
0.0
1001
AUTOCAD_POSTSCRIPT_FIGURE
1002
{
1000
PSFILL
1000
Grayscale
1000
Grayscale
1070
   100
1002
}
  0
LINE
  5
213BB
330
21093
100
AcDbEntity
  8
YODOROGO
100
AcDbLine
 10
10431.60162798447
 20
719.1642495319745
 30
0.0
 11
10440.60162798446
 21
706.3705343565509
 31
0.0
1001
AUTOCAD_POSTSCRIPT_FIGURE
1002
{
1000
PSFILL
1000
Grayscale
1000
Grayscale
1070
   100
1002
}
  0
LINE
  5
213BC
330
21093
100
AcDbEntity
  8
YODOROGO
100
AcDbLine
 10
10431.60162798447
 20
727.4060611609828
 30
0.0
 11
10431.60162798447
 21
719.1642495319745
 31
0.0
1001
AUTOCAD_POSTSCRIPT_FIGURE
1002
{
1000
PSFILL
1000
Grayscale
1000
Grayscale
1070
   100
1002
}
  0
LINE
  5
213BD
330
21093
100
AcDbEntity
  8
YODOROGO
100
AcDbLine
 10
10458.60162798446
 20
727.4060611609828
 30
0.0
 11
10431.60162798447
 21
727.4060611609828
 31
0.0
1001
AUTOCAD_POSTSCRIPT_FIGURE
1002
{
1000
PSFILL
1000
Grayscale
1000
Grayscale
1070
   100
1002
}
  0
LINE
  5
213BE
330
21093
100
AcDbEntity
  8
YODOROGO
100
AcDbLine
 10
10458.60162798446
 20
712.7131308511124
 30
0.0
 11
10458.60162798446
 21
727.4060611609828
 31
0.0
1001
AUTOCAD_POSTSCRIPT_FIGURE
1002
{
1000
PSFILL
1000
Grayscale
1000
Grayscale
1070
   100
1002
}
  0
LINE
  5
213BF
330
21093
100
AcDbEntity
  8
YODOROGO
100
AcDbLine
 10
10446.60162798447
 20
712.7131308511124
 30
0.0
 11
10458.60162798446
 21
712.7131308511124
 31
0.0
1001
AUTOCAD_POSTSCRIPT_FIGURE
1002
{
1000
PSFILL
1000
Grayscale
1000
Grayscale
1070
   100
1002
}
  0
LINE
  5
213C0
330
21093
100
AcDbEntity
  8
YODOROGO
100
AcDbLine
 10
10446.60162798447
 20
706.7131308511119
 30
0.0
 11
10446.60162798447
 21
712.7131308511124
 31
0.0
1001
AUTOCAD_POSTSCRIPT_FIGURE
1002
{
1000
PSFILL
1000
Grayscale
1000
Grayscale
1070
   100
1002
}
  0
LINE
  5
213C1
330
21093
100
AcDbEntity
  8
YODOROGO
100
AcDbLine
 10
10458.60162798446
 20
706.7131308511119
 30
0.0
 11
10446.60162798447
 21
706.7131308511119
 31
0.0
1001
AUTOCAD_POSTSCRIPT_FIGURE
1002
{
1000
PSFILL
1000
Grayscale
1000
Grayscale
1070
   100
1002
}
  0
LINE
  5
213C2
330
21093
100
AcDbEntity
  8
YODOROGO
100
AcDbLine
 10
10458.60162798446
 20
704.8571917366647
 30
0.0
 11
10458.60162798446
 21
706.7131308511119
 31
0.0
1001
AUTOCAD_POSTSCRIPT_FIGURE
1002
{
1000
PSFILL
1000
Grayscale
1000
Grayscale
1070
   100
1002
}
  0
LINE
  5
213C3
330
21093
100
AcDbEntity
  8
YODOROGO
100
AcDbLine
 10
10443.60162798447
 20
679.8656179355313
 30
0.0
 11
10458.60162798446
 21
704.8571917366647
 31
0.0
1001
AUTOCAD_POSTSCRIPT_FIGURE
1002
{
1000
PSFILL
1000
Grayscale
1000
Grayscale
1070
   100
1002
}
  0
LINE
  5
213C4
330
21093
100
AcDbEntity
  8
YODOROGO
100
AcDbLine
 10
10443.60162798447
 20
673.8656179355309
 30
0.0
 11
10443.60162798447
 21
679.8656179355313
 31
0.0
1001
AUTOCAD_POSTSCRIPT_FIGURE
1002
{
1000
PSFILL
1000
Grayscale
1000
Grayscale
1070
   100
1002
}
  0
LINE
  5
213C5
330
21093
100
AcDbEntity
  8
YODOROGO
100
AcDbLine
 10
10458.60162798446
 20
692.8571917366638
 30
0.0
 11
10443.60162798447
 21
673.8656179355309
 31
0.0
1001
AUTOCAD_POSTSCRIPT_FIGURE
1002
{
1000
PSFILL
1000
Grayscale
1000
Grayscale
1070
   100
1002
}
  0
LINE
  5
213C6
330
21093
100
AcDbEntity
  8
YODOROGO
100
AcDbLine
 10
10458.60162798446
 20
655.406061160983
 30
0.0
 11
10458.60162798446
 21
692.8571917366638
 31
0.0
1001
AUTOCAD_POSTSCRIPT_FIGURE
1002
{
1000
PSFILL
1000
Grayscale
1000
Grayscale
1070
   100
1002
}
  0
LINE
  5
213C7
330
21093
100
AcDbEntity
  8
YODOROGO
100
AcDbLine
 10
10464.60162798447
 20
655.406061160983
 30
0.0
 11
10458.60162798446
 21
655.406061160983
 31
0.0
1001
AUTOCAD_POSTSCRIPT_FIGURE
1002
{
1000
PSFILL
1000
Grayscale
1000
Grayscale
1070
   100
1002
}
  0
LINE
  5
213C8
330
21093
100
AcDbEntity
  8
YODOROGO
100
AcDbLine
 10
10464.60162798447
 20
693.5283795595521
 30
0.0
 11
10464.60162798447
 21
655.406061160983
 31
0.0
1001
AUTOCAD_POSTSCRIPT_FIGURE
1002
{
1000
PSFILL
1000
Grayscale
1000
Grayscale
1070
   100
1002
}
  0
LINE
  5
213C9
330
21093
100
AcDbEntity
  8
YODOROGO
100
AcDbLine
 10
10476.60162798446
 20
673.8656179355309
 30
0.0
 11
10464.60162798447
 21
693.5283795595521
 31
0.0
1001
AUTOCAD_POSTSCRIPT_FIGURE
1002
{
1000
PSFILL
1000
Grayscale
1000
Grayscale
1070
   100
1002
}
  0
LINE
  5
213CA
330
21093
100
AcDbEntity
  8
YODOROGO
100
AcDbLine
 10
10476.60162798446
 20
679.8656179355313
 30
0.0
 11
10476.60162798446
 21
673.8656179355309
 31
0.0
1001
AUTOCAD_POSTSCRIPT_FIGURE
1002
{
1000
PSFILL
1000
Grayscale
1000
Grayscale
1070
   100
1002
}
  0
LINE
  5
213CB
330
21093
100
AcDbEntity
  8
YODOROGO
100
AcDbLine
 10
10464.60162798447
 20
705.5283795595531
 30
0.0
 11
10476.60162798446
 21
679.8656179355313
 31
0.0
1001
AUTOCAD_POSTSCRIPT_FIGURE
1002
{
1000
PSFILL
1000
Grayscale
1000
Grayscale
1070
   100
1002
}
  0
LINE
  5
213CC
330
21093
100
AcDbEntity
  8
YODOROGO
100
AcDbLine
 10
10464.60162798447
 20
706.7131308511128
 30
0.0
 11
10464.60162798447
 21
705.5283795595531
 31
0.0
1001
AUTOCAD_POSTSCRIPT_FIGURE
1002
{
1000
PSFILL
1000
Grayscale
1000
Grayscale
1070
   100
1002
}
  0
LINE
  5
213CD
330
21093
100
AcDbEntity
  8
YODOROGO
100
AcDbLine
 10
10476.60162798446
 20
706.7131308511119
 30
0.0
 11
10464.60162798447
 21
706.7131308511128
 31
0.0
1001
AUTOCAD_POSTSCRIPT_FIGURE
1002
{
1000
PSFILL
1000
Grayscale
1000
Grayscale
1070
   100
1002
}
  0
LINE
  5
213CE
330
21093
100
AcDbEntity
  8
YODOROGO
100
AcDbLine
 10
10476.60162798446
 20
712.7131308511124
 30
0.0
 11
10476.60162798446
 21
706.7131308511119
 31
0.0
1001
AUTOCAD_POSTSCRIPT_FIGURE
1002
{
1000
PSFILL
1000
Grayscale
1000
Grayscale
1070
   100
1002
}
  0
LINE
  5
213CF
330
21093
100
AcDbEntity
  8
YODOROGO
100
AcDbLine
 10
10464.60162798447
 20
712.7131308511124
 30
0.0
 11
10476.60162798446
 21
712.7131308511124
 31
0.0
1001
AUTOCAD_POSTSCRIPT_FIGURE
1002
{
1000
PSFILL
1000
Grayscale
1000
Grayscale
1070
   100
1002
}
  0
LINE
  5
213D0
330
21093
100
AcDbEntity
  8
YODOROGO
100
AcDbLine
 10
10464.60162798447
 20
727.4060611609828
 30
0.0
 11
10464.60162798447
 21
712.7131308511124
 31
0.0
1001
AUTOCAD_POSTSCRIPT_FIGURE
1002
{
1000
PSFILL
1000
Grayscale
1000
Grayscale
1070
   100
1002
}
  0
LINE
  5
213D1
330
21093
100
AcDbEntity
  8
YODOROGO
100
AcDbLine
 10
10476.60162798446
 20
727.4060611609828
 30
0.0
 11
10464.60162798447
 21
727.4060611609828
 31
0.0
1001
AUTOCAD_POSTSCRIPT_FIGURE
1002
{
1000
PSFILL
1000
Grayscale
1000
Grayscale
1070
   100
1002
}
  0
LINE
  5
213D2
330
21093
100
AcDbEntity
  8
YODOROGO
100
AcDbLine
 10
10476.60162798446
 20
733.4060611609828
 30
0.0
 11
10476.60162798446
 21
727.4060611609828
 31
0.0
1001
AUTOCAD_POSTSCRIPT_FIGURE
1002
{
1000
PSFILL
1000
Grayscale
1000
Grayscale
1070
   100
1002
}
  0
LINE
  5
213D3
330
21093
100
AcDbEntity
  8
YODOROGO
100
AcDbLine
 10
10464.60162798447
 20
733.4060611609828
 30
0.0
 11
10476.60162798446
 21
733.4060611609828
 31
0.0
1001
AUTOCAD_POSTSCRIPT_FIGURE
1002
{
1000
PSFILL
1000
Grayscale
1000
Grayscale
1070
   100
1002
}
  0
LINE
  5
213D4
330
21093
100
AcDbEntity
  8
YODOROGO
100
AcDbLine
 10
10464.60162798447
 20
742.4060611609832
 30
0.0
 11
10464.60162798447
 21
733.4060611609828
 31
0.0
1001
AUTOCAD_POSTSCRIPT_FIGURE
1002
{
1000
PSFILL
1000
Grayscale
1000
Grayscale
1070
   100
1002
}
  0
LINE
  5
213D5
330
21093
100
AcDbEntity
  8
YODOROGO
100
AcDbLine
 10
10458.60162798446
 20
742.4060611609832
 30
0.0
 11
10464.60162798447
 21
742.4060611609832
 31
0.0
1001
AUTOCAD_POSTSCRIPT_FIGURE
1002
{
1000
PSFILL
1000
Grayscale
1000
Grayscale
1070
   100
1002
}
  0
LINE
  5
213D6
330
21093
100
AcDbEntity
  8
YODOROGO
100
AcDbLine
 10
10458.60162798446
 20
733.4060611609828
 30
0.0
 11
10458.60162798446
 21
742.4060611609832
 31
0.0
1001
AUTOCAD_POSTSCRIPT_FIGURE
1002
{
1000
PSFILL
1000
Grayscale
1000
Grayscale
1070
   100
1002
}
  0
LINE
  5
213D7
330
21093
100
AcDbEntity
  8
YODOROGO
100
AcDbLine
 10
10449.60162798447
 20
733.4060611609828
 30
0.0
 11
10458.60162798446
 21
733.4060611609828
 31
0.0
1001
AUTOCAD_POSTSCRIPT_FIGURE
1002
{
1000
PSFILL
1000
Grayscale
1000
Grayscale
1070
   100
1002
}
  0
LINE
  5
213D8
330
21093
100
AcDbEntity
  8
YODOROGO
100
AcDbLine
 10
10449.60162798447
 20
742.4060611609832
 30
0.0
 11
10449.60162798447
 21
733.4060611609828
 31
0.0
1001
AUTOCAD_POSTSCRIPT_FIGURE
1002
{
1000
PSFILL
1000
Grayscale
1000
Grayscale
1070
   100
1002
}
  0
LINE
  5
213D9
330
21093
100
AcDbEntity
  8
YODOROGO
100
AcDbLine
 10
10443.60162798447
 20
742.4060611609832
 30
0.0
 11
10449.60162798447
 21
742.4060611609832
 31
0.0
1001
AUTOCAD_POSTSCRIPT_FIGURE
1002
{
1000
PSFILL
1000
Grayscale
1000
Grayscale
1070
   100
1002
}
  0
LINE
  5
213DA
330
21093
100
AcDbEntity
  8
YODOROGO
100
AcDbLine
 10
10443.60162798447
 20
733.4060611609828
 30
0.0
 11
10443.60162798447
 21
742.4060611609832
 31
0.0
1001
AUTOCAD_POSTSCRIPT_FIGURE
1002
{
1000
PSFILL
1000
Grayscale
1000
Grayscale
1070
   100
1002
}
  0
LINE
  5
213DB
330
21093
100
AcDbEntity
  8
YODOROGO
100
AcDbLine
 10
10431.60162798447
 20
733.4060611609828
 30
0.0
 11
10443.60162798447
 21
733.4060611609828
 31
0.0
1001
AUTOCAD_POSTSCRIPT_FIGURE
1002
{
1000
PSFILL
1000
Grayscale
1000
Grayscale
1070
   100
1002
}
  0
LINE
  5
213DC
330
21093
100
AcDbEntity
  8
YODOROGO
100
AcDbLine
 10
10431.60162798447
 20
742.4060611609832
 30
0.0
 11
10431.60162798447
 21
733.4060611609828
 31
0.0
1001
AUTOCAD_POSTSCRIPT_FIGURE
1002
{
1000
PSFILL
1000
Grayscale
1000
Grayscale
1070
   100
1002
}
  0
LINE
  5
213DD
330
21093
100
AcDbEntity
  8
YODOROGO
100
AcDbLine
 10
10425.60162798447
 20
742.4060611609832
 30
0.0
 11
10431.60162798447
 21
742.4060611609832
 31
0.0
1001
AUTOCAD_POSTSCRIPT_FIGURE
1002
{
1000
PSFILL
1000
Grayscale
1000
Grayscale
1070
   100
1002
}
  0
LINE
  5
213DE
330
21093
100
AcDbEntity
  8
YODOROGO
100
AcDbLine
 10
10425.60162798447
 20
733.4060611609828
 30
0.0
 11
10425.60162798447
 21
742.4060611609832
 31
0.0
1001
AUTOCAD_POSTSCRIPT_FIGURE
1002
{
1000
PSFILL
1000
Grayscale
1000
Grayscale
1070
   100
1002
}
  0
LINE
  5
213DF
330
21093
100
AcDbEntity
  8
YODOROGO
100
AcDbLine
 10
10416.60162798446
 20
733.4060611609828
 30
0.0
 11
10425.60162798447
 21
733.4060611609828
 31
0.0
1001
AUTOCAD_POSTSCRIPT_FIGURE
1002
{
1000
PSFILL
1000
Grayscale
1000
Grayscale
1070
   100
1002
}
  0
LINE
  5
213E0
330
21093
100
AcDbEntity
  8
YODOROGO
100
AcDbLine
 10
10416.60162798446
 20
727.4060611609828
 30
0.0
 11
10416.60162798446
 21
733.4060611609828
 31
0.0
1001
AUTOCAD_POSTSCRIPT_FIGURE
1002
{
1000
PSFILL
1000
Grayscale
1000
Grayscale
1070
   100
1002
}
  0
LINE
  5
213E1
330
21093
100
AcDbEntity
  8
YODOROGO
100
AcDbLine
 10
10425.60162798447
 20
727.4060611609828
 30
0.0
 11
10416.60162798446
 21
727.4060611609828
 31
0.0
1001
AUTOCAD_POSTSCRIPT_FIGURE
1002
{
1000
PSFILL
1000
Grayscale
1000
Grayscale
1070
   100
1002
}
  0
LINE
  5
213E2
330
21093
100
AcDbEntity
  8
YODOROGO
100
AcDbLine
 10
10425.60162798447
 20
718.0449677976392
 30
0.0
 11
10425.60162798447
 21
727.4060611609828
 31
0.0
1001
AUTOCAD_POSTSCRIPT_FIGURE
1002
{
1000
PSFILL
1000
Grayscale
1000
Grayscale
1070
   100
1002
}
  0
LINE
  5
213E3
330
21093
100
AcDbEntity
  8
YODOROGO
100
AcDbLine
 10
10416.60162798446
 20
697.4162804818766
 30
0.0
 11
10425.60162798447
 21
718.0449677976392
 31
0.0
1001
AUTOCAD_POSTSCRIPT_FIGURE
1002
{
1000
PSFILL
1000
Grayscale
1000
Grayscale
1070
   100
1002
}
  0
LINE
  5
213E4
330
21093
100
AcDbEntity
  8
YODOROGO
100
AcDbLine
 10
10416.60162798446
 20
691.4162804818772
 30
0.0
 11
10416.60162798446
 21
697.4162804818766
 31
0.0
1001
AUTOCAD_POSTSCRIPT_FIGURE
1002
{
1000
PSFILL
1000
Grayscale
1000
Grayscale
1070
   100
1002
}
  0
LINE
  5
213E5
330
21093
100
AcDbEntity
  8
YODOROGO
100
AcDbLine
 10
10596.60162798446
 20
700.406061160983
 30
0.0
 11
10650.60162798447
 21
684.3291096151149
 31
0.0
1001
AUTOCAD_POSTSCRIPT_FIGURE
1002
{
1000
PSFILL
1000
Grayscale
1000
Grayscale
1070
   100
1002
}
  0
LINE
  5
213E6
330
21093
100
AcDbEntity
  8
YODOROGO
100
AcDbLine
 10
10650.60162798447
 20
657.3291096151146
 30
0.0
 11
10596.60162798446
 21
673.4060611609827
 31
0.0
1001
AUTOCAD_POSTSCRIPT_FIGURE
1002
{
1000
PSFILL
1000
Grayscale
1000
Grayscale
1070
   100
1002
}
  0
LINE
  5
213E7
330
21093
100
AcDbEntity
  8
YODOROGO
100
AcDbLine
 10
10650.60162798447
 20
744.329109615115
 30
0.0
 11
10596.60162798446
 21
760.4060611609829
 31
0.0
1001
AUTOCAD_POSTSCRIPT_FIGURE
1002
{
1000
PSFILL
1000
Grayscale
1000
Grayscale
1070
   100
1002
}
  0
LINE
  5
213E8
330
21093
100
AcDbEntity
  8
YODOROGO
100
AcDbLine
 10
10596.60162798446
 20
734.9060611609829
 30
0.0
 11
10650.60162798447
 21
718.829109615115
 31
0.0
1001
AUTOCAD_POSTSCRIPT_FIGURE
1002
{
1000
PSFILL
1000
Grayscale
1000
Grayscale
1070
   100
1002
}
  0
LINE
  5
213E9
330
21093
100
AcDbEntity
  8
YODOROGO
100
AcDbLine
 10
10596.60162798446
 20
673.4060611609827
 30
0.0
 11
10596.60162798446
 21
700.406061160983
 31
0.0
1001
AUTOCAD_POSTSCRIPT_FIGURE
1002
{
1000
PSFILL
1000
Grayscale
1000
Grayscale
1070
   100
1002
}
  0
LINE
  5
213EA
330
21093
100
AcDbEntity
  8
YODOROGO
100
AcDbLine
 10
10596.60162798446
 20
760.4060611609829
 30
0.0
 11
10596.60162798446
 21
734.9060611609829
 31
0.0
1001
AUTOCAD_POSTSCRIPT_FIGURE
1002
{
1000
PSFILL
1000
Grayscale
1000
Grayscale
1070
   100
1002
}
  0
LINE
  5
213EB
330
21093
100
AcDbEntity
  8
YODOROGO
100
AcDbLine
 10
10530.08862007752
 20
727.4060611609828
 30
0.0
 11
10548.60162798447
 21
655.406061160983
 31
0.0
1001
AUTOCAD_POSTSCRIPT_FIGURE
1002
{
1000
PSFILL
1000
Grayscale
1000
Grayscale
1070
   100
1002
}
  0
LINE
  5
213EC
330
21093
100
AcDbEntity
  8
YODOROGO
100
AcDbLine
 10
10491.60162798447
 20
727.4060611609828
 30
0.0
 11
10530.08862007752
 21
727.4060611609828
 31
0.0
1001
AUTOCAD_POSTSCRIPT_FIGURE
1002
{
1000
PSFILL
1000
Grayscale
1000
Grayscale
1070
   100
1002
}
  0
LINE
  5
213ED
330
21093
100
AcDbEntity
  8
YODOROGO
100
AcDbLine
 10
10491.60162798447
 20
733.4060611609828
 30
0.0
 11
10491.60162798447
 21
727.4060611609828
 31
0.0
1001
AUTOCAD_POSTSCRIPT_FIGURE
1002
{
1000
PSFILL
1000
Grayscale
1000
Grayscale
1070
   100
1002
}
  0
LINE
  5
213EE
330
21093
100
AcDbEntity
  8
YODOROGO
100
AcDbLine
 10
10528.72757944497
 20
733.4060611609828
 30
0.0
 11
10491.60162798447
 21
733.4060611609828
 31
0.0
1001
AUTOCAD_POSTSCRIPT_FIGURE
1002
{
1000
PSFILL
1000
Grayscale
1000
Grayscale
1070
   100
1002
}
  0
LINE
  5
213EF
330
21093
100
AcDbEntity
  8
YODOROGO
100
AcDbLine
 10
10526.68601849614
 20
742.4060611609832
 30
0.0
 11
10528.72757944497
 21
733.4060611609828
 31
0.0
1001
AUTOCAD_POSTSCRIPT_FIGURE
1002
{
1000
PSFILL
1000
Grayscale
1000
Grayscale
1070
   100
1002
}
  0
LINE
  5
213F0
330
21093
100
AcDbEntity
  8
YODOROGO
100
AcDbLine
 10
10534.18601849614
 20
742.4060611609832
 30
0.0
 11
10526.68601849614
 21
742.4060611609832
 31
0.0
1001
AUTOCAD_POSTSCRIPT_FIGURE
1002
{
1000
PSFILL
1000
Grayscale
1000
Grayscale
1070
   100
1002
}
  0
LINE
  5
213F1
330
21093
100
AcDbEntity
  8
YODOROGO
100
AcDbLine
 10
10535.92757944497
 20
733.4060611609828
 30
0.0
 11
10534.18601849614
 21
742.4060611609832
 31
0.0
1001
AUTOCAD_POSTSCRIPT_FIGURE
1002
{
1000
PSFILL
1000
Grayscale
1000
Grayscale
1070
   100
1002
}
  0
LINE
  5
213F2
330
21093
100
AcDbEntity
  8
YODOROGO
100
AcDbLine
 10
10545.60162798447
 20
733.4060611609828
 30
0.0
 11
10535.92757944497
 21
733.4060611609828
 31
0.0
1001
AUTOCAD_POSTSCRIPT_FIGURE
1002
{
1000
PSFILL
1000
Grayscale
1000
Grayscale
1070
   100
1002
}
  0
LINE
  5
213F3
330
21093
100
AcDbEntity
  8
YODOROGO
100
AcDbLine
 10
10545.60162798447
 20
742.4060611609832
 30
0.0
 11
10545.60162798447
 21
733.4060611609828
 31
0.0
1001
AUTOCAD_POSTSCRIPT_FIGURE
1002
{
1000
PSFILL
1000
Grayscale
1000
Grayscale
1070
   100
1002
}
  0
LINE
  5
213F4
330
21093
100
AcDbEntity
  8
YODOROGO
100
AcDbLine
 10
10551.60162798447
 20
742.4060611609832
 30
0.0
 11
10545.60162798447
 21
742.4060611609832
 31
0.0
1001
AUTOCAD_POSTSCRIPT_FIGURE
1002
{
1000
PSFILL
1000
Grayscale
1000
Grayscale
1070
   100
1002
}
  0
LINE
  5
213F5
330
21093
100
AcDbEntity
  8
YODOROGO
100
AcDbLine
 10
10551.60162798447
 20
733.4060611609828
 30
0.0
 11
10551.60162798447
 21
742.4060611609832
 31
0.0
1001
AUTOCAD_POSTSCRIPT_FIGURE
1002
{
1000
PSFILL
1000
Grayscale
1000
Grayscale
1070
   100
1002
}
  0
LINE
  5
213F6
330
21093
100
AcDbEntity
  8
YODOROGO
100
AcDbLine
 10
10551.60162798447
 20
727.4060611609828
 30
0.0
 11
10551.60162798447
 21
733.4060611609828
 31
0.0
1001
AUTOCAD_POSTSCRIPT_FIGURE
1002
{
1000
PSFILL
1000
Grayscale
1000
Grayscale
1070
   100
1002
}
  0
LINE
  5
213F7
330
21093
100
AcDbEntity
  8
YODOROGO
100
AcDbLine
 10
10537.08862007752
 20
727.4060611609828
 30
0.0
 11
10551.60162798447
 21
727.4060611609828
 31
0.0
1001
AUTOCAD_POSTSCRIPT_FIGURE
1002
{
1000
PSFILL
1000
Grayscale
1000
Grayscale
1070
   100
1002
}
  0
LINE
  5
213F8
330
21093
100
AcDbEntity
  8
YODOROGO
100
AcDbLine
 10
10551.60162798447
 20
655.406061160983
 30
0.0
 11
10537.08862007752
 21
727.4060611609828
 31
0.0
1001
AUTOCAD_POSTSCRIPT_FIGURE
1002
{
1000
PSFILL
1000
Grayscale
1000
Grayscale
1070
   100
1002
}
  0
LINE
  5
213F9
330
21093
100
AcDbEntity
  8
YODOROGO
100
AcDbLine
 10
10548.60162798447
 20
655.406061160983
 30
0.0
 11
10551.60162798447
 21
655.406061160983
 31
0.0
1001
AUTOCAD_POSTSCRIPT_FIGURE
1002
{
1000
PSFILL
1000
Grayscale
1000
Grayscale
1070
   100
1002
}
  0
LINE
  5
213FA
330
21093
100
AcDbEntity
  8
YODOROGO
100
AcDbLine
 10
10529.27595747517
 20
665.902791112048
 30
0.0
 11
10491.60162798447
 21
655.406061160983
 31
0.0
  0
LINE
  5
213FB
330
21093
100
AcDbEntity
  8
YODOROGO
100
AcDbLine
 10
10529.27595747517
 20
674.5008673234024
 30
0.0
 11
10529.27595747517
 21
665.902791112048
 31
0.0
  0
LINE
  5
213FC
330
21093
100
AcDbEntity
  8
YODOROGO
100
AcDbLine
 10
10512.68879272982
 20
670.0563499251625
 30
0.0
 11
10529.27595747517
 21
674.5008673234024
 31
0.0
  0
LINE
  5
213FD
330
21093
100
AcDbEntity
  8
YODOROGO
100
AcDbLine
 10
10512.68879272982
 20
702.2131308511124
 30
0.0
 11
10512.68879272982
 21
670.0563499251625
 31
0.0
  0
LINE
  5
213FE
330
21093
100
AcDbEntity
  8
YODOROGO
100
AcDbLine
 10
10529.27595747517
 20
702.2131308511124
 30
0.0
 11
10512.68879272982
 21
702.2131308511124
 31
0.0
  0
LINE
  5
213FF
330
21093
100
AcDbEntity
  8
YODOROGO
100
AcDbLine
 10
10529.27595747517
 20
709.7131308511116
 30
0.0
 11
10529.27595747517
 21
702.2131308511124
 31
0.0
  0
LINE
  5
21400
330
21093
100
AcDbEntity
  8
YODOROGO
100
AcDbLine
 10
10491.60162798447
 20
709.7131308511116
 30
0.0
 11
10529.27595747517
 21
709.7131308511116
 31
0.0
  0
LINE
  5
21401
330
21093
100
AcDbEntity
  8
YODOROGO
100
AcDbLine
 10
10491.60162798447
 20
702.2131308511124
 30
0.0
 11
10491.60162798447
 21
709.7131308511116
 31
0.0
  0
LINE
  5
21402
330
21093
100
AcDbEntity
  8
YODOROGO
100
AcDbLine
 10
10508.18879272982
 20
702.2131308511124
 30
0.0
 11
10491.60162798447
 21
702.2131308511124
 31
0.0
  0
LINE
  5
21403
330
21093
100
AcDbEntity
  8
YODOROGO
100
AcDbLine
 10
10508.18879272982
 20
669.252502347869
 30
0.0
 11
10508.18879272982
 21
702.2131308511124
 31
0.0
  0
LINE
  5
21404
330
21093
100
AcDbEntity
  8
YODOROGO
100
AcDbLine
 10
10491.60162798447
 20
664.4060611609823
 30
0.0
 11
10508.18879272982
 21
669.252502347869
 31
0.0
  0
LINE
  5
21405
330
21093
100
AcDbEntity
  8
YODOROGO
100
AcDbLine
 10
10491.60162798447
 20
655.406061160983
 30
0.0
 11
10491.60162798447
 21
664.4060611609823
 31
0.0
  0
LINE
  5
21406
330
21093
100
AcDbEntity
  8
YODOROGO
100
AcDbLine
 10
10500.60162798446
 20
640.4060611609828
 30
0.0
 11
10500.60162798446
 21
631.4060611609825
 31
0.0
  0
LINE
  5
21407
330
21093
100
AcDbEntity
  8
YODOROGO
100
AcDbLine
 10
10500.60162798446
 20
640.4060611609828
 30
0.0
 11
10500.60162798446
 21
640.4060611609828
 31
0.0
  0
LINE
  5
21408
330
21093
100
AcDbEntity
  8
YODOROGO
100
AcDbLine
 10
10506.60162798447
 20
640.4060611609828
 30
0.0
 11
10500.60162798446
 21
640.4060611609828
 31
0.0
  0
LINE
  5
21409
330
21093
100
AcDbEntity
  8
YODOROGO
100
AcDbLine
 10
10506.60162798447
 20
631.4060611609825
 30
0.0
 11
10506.60162798447
 21
640.4060611609828
 31
0.0
  0
LINE
  5
2140A
330
21093
100
AcDbEntity
  8
YODOROGO
100
AcDbLine
 10
10515.34245150633
 20
631.4060611609825
 30
0.0
 11
10506.60162798447
 21
631.4060611609825
 31
0.0
  0
LINE
  5
2140B
330
21093
100
AcDbEntity
  8
YODOROGO
100
AcDbLine
 10
10500.60162798446
 20
631.4060611609825
 30
0.0
 11
10491.60162798447
 21
631.4060611609825
 31
0.0
  0
LINE
  5
2140C
330
21093
100
AcDbEntity
  8
YODOROGO
100
AcDbLine
 10
10530.80082008658
 20
640.4060611609828
 30
0.0
 11
10536.8008200866
 21
640.4060611609828
 31
0.0
1001
AUTOCAD_POSTSCRIPT_FIGURE
1002
{
1000
PSFILL
1000
Grayscale
1000
Grayscale
1070
   100
1002
}
  0
LINE
  5
2140D
330
21093
100
AcDbEntity
  8
YODOROGO
100
AcDbLine
 10
10650.60162798447
 20
684.3291096151149
 30
0.0
 11
10650.60162798447
 21
657.3291096151146
 31
0.0
1001
AUTOCAD_POSTSCRIPT_FIGURE
1002
{
1000
PSFILL
1000
Grayscale
1000
Grayscale
1070
   100
1002
}
  0
LINE
  5
2140E
330
21093
100
AcDbEntity
  8
YODOROGO
100
AcDbLine
 10
10650.60162798447
 20
718.829109615115
 30
0.0
 11
10650.60162798447
 21
744.329109615115
 31
0.0
1001
AUTOCAD_POSTSCRIPT_FIGURE
1002
{
1000
PSFILL
1000
Grayscale
1000
Grayscale
1070
   100
1002
}
  0
LINE
  5
2140F
330
21093
100
AcDbEntity
  8
YODOROGO
100
AcDbLine
 10
10662.60162798446
 20
682.4060611609829
 30
0.0
 11
10662.60162798446
 21
655.4060611609838
 31
0.0
  0
LINE
  5
21410
330
21093
100
AcDbEntity
  8
YODOROGO
100
AcDbLine
 10
10686.60162798446
 20
640.4060611609828
 30
0.0
 11
10662.60162798446
 21
640.4060611609828
 31
0.0
  0
LINE
  5
21411
330
21093
100
AcDbEntity
  8
YODOROGO
100
AcDbLine
 10
10662.60162798446
 20
655.4060611609838
 30
0.0
 11
10719.60162798446
 21
655.4060611609838
 31
0.0
  0
LINE
  5
21412
330
21093
100
AcDbEntity
  8
YODOROGO
100
AcDbLine
 10
10686.60162798446
 20
700.406061160983
 30
0.0
 11
10662.60162798446
 21
700.406061160983
 31
0.0
  0
LINE
  5
21413
330
21093
100
AcDbEntity
  8
YODOROGO
100
AcDbLine
 10
10686.60162798446
 20
721.4060611609824
 30
0.0
 11
10686.60162798446
 21
700.406061160983
 31
0.0
  0
LINE
  5
21414
330
21093
100
AcDbEntity
  8
YODOROGO
100
AcDbLine
 10
10719.60162798446
 20
745.4060611609828
 30
0.0
 11
10719.60162798446
 21
760.4060611609829
 31
0.0
  0
LINE
  5
21415
330
21093
100
AcDbEntity
  8
YODOROGO
100
AcDbLine
 10
10662.60162798446
 20
745.4060611609828
 30
0.0
 11
10719.60162798446
 21
745.4060611609828
 31
0.0
  0
LINE
  5
21416
330
21093
100
AcDbEntity
  8
YODOROGO
100
AcDbLine
 10
10662.60162798446
 20
700.406061160983
 30
0.0
 11
10662.60162798446
 21
745.4060611609828
 31
0.0
  0
LINE
  5
21417
330
21093
100
AcDbEntity
  8
YODOROGO
100
AcDbLine
 10
10875.60162798447
 20
760.4060611609829
 30
0.0
 11
10875.60162798447
 21
607.4060611609829
 31
0.0
  0
LINE
  5
21418
330
21093
100
AcDbEntity
  8
YODOROGO
100
AcDbLine
 10
10902.60162798446
 20
592.4060611609831
 30
0.0
 11
10902.60162798446
 21
760.4060611609829
 31
0.0
  0
LINE
  5
21419
330
21093
100
AcDbEntity
  8
YODOROGO
100
AcDbLine
 10
10973.10162798446
 20
559.4060611609823
 30
0.0
 11
10973.10162798446
 21
752.9060611609828
 31
0.0
  0
LINE
  5
2141A
330
21093
100
AcDbEntity
  8
YODOROGO
100
AcDbLine
 10
10949.10162798447
 20
752.9060611609828
 30
0.0
 11
10949.10162798447
 21
559.4060611609823
 31
0.0
  0
LINE
  5
2141B
330
21093
100
AcDbEntity
  8
YODOROGO
100
AcDbLine
 10
11019.60162798446
 20
760.4060611609829
 30
0.0
 11
11019.60162798446
 21
535.4060611609829
 31
0.0
  0
LINE
  5
2141C
330
21093
100
AcDbEntity
  8
YODOROGO
100
AcDbLine
 10
11046.60162798447
 20
535.4060611609829
 30
0.0
 11
11046.60162798447
 21
760.4060611609829
 31
0.0
  0
LINE
  5
2141D
330
21093
100
AcDbEntity
  8
YODOROGO
100
AcDbLine
 10
10746.60162798446
 20
625.406061160983
 30
0.0
 11
10746.60162798446
 21
655.4060611609838
 31
0.0
  0
LINE
  5
2141E
330
21093
100
AcDbEntity
  8
YODOROGO
100
AcDbLine
 10
11207.10162798447
 20
640.4060611609828
 30
0.0
 11
11207.10162798447
 21
625.406061160983
 31
0.0
  0
LINE
  5
2141F
330
21093
100
AcDbEntity
  8
YODOROGO
100
AcDbLine
 10
11207.10162798447
 20
640.4060611609828
 30
0.0
 11
11207.10162798447
 21
625.406061160983
 31
0.0
  0
ARC
  5
21420
330
21093
100
AcDbEntity
  8
YODOROGO
100
AcDbCircle
 10
10840.09184107006
 20
606.8316991658524
 30
0.0
 40
35.51443169202812
100
AcDbArc
 50
274.052441629071
 51
0.9266642149310715
  0
ARC
  5
21421
330
21093
100
AcDbEntity
  8
YODOROGO
100
AcDbCircle
 10
10840.94481401992
 20
597.229023228915
 30
0.0
 40
61.84515883532068
100
AcDbArc
 50
271.5351210653777
 51
355.5272775058505
  0
LINE
  5
21422
330
21093
100
AcDbEntity
  8
YODOROGO
100
AcDbLine
 10
10842.60162798446
 20
571.4060611609824
 30
0.0
 11
10842.60162798446
 21
535.4060611609829
 31
0.0
  0
LINE
  5
21423
330
21093
100
AcDbEntity
  8
YODOROGO
100
AcDbLine
 10
10797.60162798446
 20
625.406061160983
 30
0.0
 11
10746.60162798446
 21
625.406061160983
 31
0.0
  0
LINE
  5
21424
330
21093
100
AcDbEntity
  8
YODOROGO
100
AcDbLine
 10
10797.60162798446
 20
601.4060611609833
 30
0.0
 11
10797.60162798446
 21
625.406061160983
 31
0.0
  0
LINE
  5
21425
330
21093
100
AcDbEntity
  8
YODOROGO
100
AcDbLine
 10
10746.60162798446
 20
601.4060611609833
 30
0.0
 11
10797.60162798446
 21
601.4060611609833
 31
0.0
  0
LINE
  5
21426
330
21093
100
AcDbEntity
  8
YODOROGO
100
AcDbLine
 10
10746.60162798446
 20
571.4060611609824
 30
0.0
 11
10746.60162798446
 21
601.4060611609833
 31
0.0
  0
LINE
  5
21427
330
21093
100
AcDbEntity
  8
YODOROGO
100
AcDbLine
 10
10797.60162798446
 20
571.4060611609824
 30
0.0
 11
10746.60162798446
 21
571.4060611609824
 31
0.0
  0
LINE
  5
21428
330
21093
100
AcDbEntity
  8
YODOROGO
100
AcDbLine
 10
10797.60162798446
 20
535.4060611609829
 30
0.0
 11
10797.60162798446
 21
571.4060611609824
 31
0.0
  0
LINE
  5
21429
330
21093
100
AcDbEntity
  8
YODOROGO
100
AcDbLine
 10
10949.10162798447
 20
559.4060611609823
 30
0.0
 11
10973.10162798446
 21
559.4060611609823
 31
0.0
  0
LINE
  5
2142A
330
21093
100
AcDbEntity
  8
YODOROGO
100
AcDbLine
 10
11019.60162798446
 20
535.4060611609829
 30
0.0
 11
11046.60162798447
 21
535.4060611609829
 31
0.0
  0
LINE
  5
2142B
330
21093
100
AcDbEntity
  8
YODOROGO
100
AcDbLine
 10
11151.60162798447
 20
573.1655445639615
 30
0.0
 11
11151.60162798447
 21
535.4060611609829
 31
0.0
  0
LINE
  5
2142C
330
21093
100
AcDbEntity
  8
YODOROGO
100
AcDbLine
 10
11106.60162798446
 20
535.4060611609829
 30
0.0
 11
11151.60162798447
 21
573.1655445639615
 31
0.0
  0
LINE
  5
2142D
330
21093
100
AcDbEntity
  8
YODOROGO
100
AcDbLine
 10
11106.60162798446
 20
580.406061160983
 30
0.0
 11
11106.60162798446
 21
535.4060611609829
 31
0.0
  0
LINE
  5
2142E
330
21093
100
AcDbEntity
  8
YODOROGO
100
AcDbLine
 10
11142.35423576229
 20
610.4060611609829
 30
0.0
 11
11106.60162798446
 21
580.406061160983
 31
0.0
  0
LINE
  5
2142F
330
21093
100
AcDbEntity
  8
YODOROGO
100
AcDbLine
 10
11106.60162798446
 20
610.4060611609829
 30
0.0
 11
11142.35423576229
 21
610.4060611609829
 31
0.0
  0
LINE
  5
21430
330
21093
100
AcDbEntity
  8
YODOROGO
100
AcDbLine
 10
11106.60162798446
 20
625.406061160983
 30
0.0
 11
11106.60162798446
 21
610.4060611609829
 31
0.0
  0
LINE
  5
21431
330
21093
100
AcDbEntity
  8
YODOROGO
100
AcDbLine
 10
11207.10162798447
 20
625.406061160983
 30
0.0
 11
11106.60162798446
 21
625.406061160983
 31
0.0
  0
LINE
  5
21432
330
21093
100
AcDbEntity
  8
YODOROGO
100
AcDbLine
 10
11219.10162798447
 20
610.4060611609829
 30
0.0
 11
11166.60162798446
 21
610.4060611609829
 31
0.0
  0
LINE
  5
21433
330
21093
100
AcDbEntity
  8
YODOROGO
100
AcDbLine
 10
11166.60162798446
 20
585.7520390316213
 30
0.0
 11
11164.27870236948
 21
583.8028730048376
 31
0.0
  0
LINE
  5
21434
330
21093
100
AcDbEntity
  8
YODOROGO
100
AcDbLine
 10
11166.60162798446
 20
610.4060611609829
 30
0.0
 11
11166.60162798446
 21
585.7520390316213
 31
0.0
  0
LINE
  5
21435
330
21093
100
AcDbEntity
  8
YODOROGO
100
AcDbLine
 10
11151.60162798447
 20
573.1655445639615
 30
0.0
 11
11151.60162798447
 21
535.4060611609829
 31
0.0
  0
LINE
  5
21436
330
21093
100
AcDbEntity
  8
YODOROGO
100
AcDbLine
 10
11106.60162798446
 20
535.4060611609829
 30
0.0
 11
11151.60162798447
 21
573.1655445639615
 31
0.0
  0
LINE
  5
21437
330
21093
100
AcDbEntity
  8
YODOROGO
100
AcDbLine
 10
11106.60162798446
 20
580.406061160983
 30
0.0
 11
11106.60162798446
 21
535.4060611609829
 31
0.0
  0
LINE
  5
21438
330
21093
100
AcDbEntity
  8
YODOROGO
100
AcDbLine
 10
11142.35423576229
 20
610.4060611609829
 30
0.0
 11
11106.60162798446
 21
580.406061160983
 31
0.0
  0
LINE
  5
21439
330
21093
100
AcDbEntity
  8
YODOROGO
100
AcDbLine
 10
11106.60162798446
 20
610.4060611609829
 30
0.0
 11
11142.35423576229
 21
610.4060611609829
 31
0.0
  0
LINE
  5
2143A
330
21093
100
AcDbEntity
  8
YODOROGO
100
AcDbLine
 10
11106.60162798446
 20
625.406061160983
 30
0.0
 11
11106.60162798446
 21
610.4060611609829
 31
0.0
  0
LINE
  5
2143B
330
21093
100
AcDbEntity
  8
YODOROGO
100
AcDbLine
 10
11207.10162798447
 20
625.406061160983
 30
0.0
 11
11106.60162798446
 21
625.406061160983
 31
0.0
  0
LINE
  5
2143C
330
21093
100
AcDbEntity
  8
YODOROGO
100
AcDbLine
 10
10797.60162798446
 20
655.4060611609838
 30
0.0
 11
10797.60162798446
 21
682.4060611609829
 31
0.0
  0
LINE
  5
2143D
330
21093
100
AcDbEntity
  8
YODOROGO
100
AcDbLine
 10
10746.60162798446
 20
655.4060611609838
 30
0.0
 11
10797.60162798446
 21
655.4060611609838
 31
0.0
  0
LINE
  5
2143E
330
21093
100
AcDbEntity
  8
YODOROGO
100
AcDbLine
 10
10773.60162798447
 20
700.406061160983
 30
0.0
 11
10773.60162798447
 21
721.4060611609824
 31
0.0
  0
LINE
  5
2143F
330
21093
100
AcDbEntity
  8
YODOROGO
100
AcDbLine
 10
10797.60162798446
 20
700.406061160983
 30
0.0
 11
10773.60162798447
 21
700.406061160983
 31
0.0
  0
LINE
  5
21440
330
21093
100
AcDbEntity
  8
YODOROGO
100
AcDbLine
 10
10797.60162798446
 20
730.4060611609828
 30
0.0
 11
10797.60162798446
 21
700.406061160983
 31
0.0
  0
ARC
  5
21441
330
21093
100
AcDbEntity
  8
YODOROGO
100
AcDbCircle
 10
10782.60162798446
 20
730.4060611609828
 30
0.0
 40
15.0
100
AcDbArc
 50
0.0
 51
90.0
  0
LINE
  5
21442
330
21093
100
AcDbEntity
  8
YODOROGO
100
AcDbLine
 10
10746.60162798447
 20
745.4060611609828
 30
0.0
 11
10782.60162798446
 21
745.4060611609828
 31
0.0
  0
LINE
  5
21443
330
21093
100
AcDbEntity
  8
YODOROGO
100
AcDbLine
 10
10746.60162798447
 20
760.4060611609829
 30
0.0
 11
10746.60162798447
 21
745.4060611609828
 31
0.0
  0
LINE
  5
21444
330
21093
100
AcDbEntity
  8
YODOROGO
100
AcDbLine
 10
10902.60162798446
 20
760.4060611609829
 30
0.0
 11
10875.60162798447
 21
760.4060611609829
 31
0.0
  0
LINE
  5
21445
330
21093
100
AcDbEntity
  8
YODOROGO
100
AcDbLine
 10
10973.10162798446
 20
752.9060611609828
 30
0.0
 11
10949.10162798447
 21
752.9060611609828
 31
0.0
  0
LINE
  5
21446
330
21093
100
AcDbEntity
  8
YODOROGO
100
AcDbLine
 10
11046.60162798447
 20
760.4060611609829
 30
0.0
 11
11019.60162798446
 21
760.4060611609829
 31
0.0
  0
LINE
  5
21447
330
21093
100
AcDbEntity
  8
YODOROGO
100
AcDbLine
 10
11127.60162798447
 20
640.4060611609828
 30
0.0
 11
11127.60162798447
 21
664.4060611609833
 31
0.0
1001
AUTOCAD_POSTSCRIPT_FIGURE
1002
{
1000
PSFILL
1000
Grayscale
1000
Grayscale
1070
    25
1002
}
  0
LINE
  5
21448
330
21093
100
AcDbEntity
  8
YODOROGO
100
AcDbLine
 10
11106.60162798446
 20
640.4060611609828
 30
0.0
 11
11127.60162798447
 21
640.4060611609828
 31
0.0
1001
AUTOCAD_POSTSCRIPT_FIGURE
1002
{
1000
PSFILL
1000
Grayscale
1000
Grayscale
1070
    25
1002
}
  0
LINE
  5
21449
330
21093
100
AcDbEntity
  8
YODOROGO
100
AcDbLine
 10
11106.60162798446
 20
682.4060611609829
 30
0.0
 11
11106.60162798446
 21
640.4060611609828
 31
0.0
1001
AUTOCAD_POSTSCRIPT_FIGURE
1002
{
1000
PSFILL
1000
Grayscale
1000
Grayscale
1070
    25
1002
}
  0
LINE
  5
2144A
330
21093
100
AcDbEntity
  8
YODOROGO
100
AcDbLine
 10
11162.10162798447
 20
682.4060611609829
 30
0.0
 11
11106.60162798446
 21
682.4060611609829
 31
0.0
1001
AUTOCAD_POSTSCRIPT_FIGURE
1002
{
1000
PSFILL
1000
Grayscale
1000
Grayscale
1070
    25
1002
}
  0
LINE
  5
2144B
330
21093
100
AcDbEntity
  8
YODOROGO
100
AcDbLine
 10
11162.10162798447
 20
697.406061160983
 30
0.0
 11
11162.10162798447
 21
682.4060611609829
 31
0.0
1001
AUTOCAD_POSTSCRIPT_FIGURE
1002
{
1000
PSFILL
1000
Grayscale
1000
Grayscale
1070
    25
1002
}
  0
LINE
  5
2144C
330
21093
100
AcDbEntity
  8
YODOROGO
100
AcDbLine
 10
11106.60162798446
 20
697.406061160983
 30
0.0
 11
11162.10162798447
 21
697.406061160983
 31
0.0
1001
AUTOCAD_POSTSCRIPT_FIGURE
1002
{
1000
PSFILL
1000
Grayscale
1000
Grayscale
1070
    25
1002
}
  0
LINE
  5
2144D
330
21093
100
AcDbEntity
  8
YODOROGO
100
AcDbLine
 10
11106.60162798446
 20
715.4060611609828
 30
0.0
 11
11106.60162798446
 21
697.406061160983
 31
0.0
1001
AUTOCAD_POSTSCRIPT_FIGURE
1002
{
1000
PSFILL
1000
Grayscale
1000
Grayscale
1070
    25
1002
}
  0
LINE
  5
2144E
330
21093
100
AcDbEntity
  8
YODOROGO
100
AcDbLine
 10
11162.10162798447
 20
715.4060611609828
 30
0.0
 11
11106.60162798446
 21
715.4060611609828
 31
0.0
1001
AUTOCAD_POSTSCRIPT_FIGURE
1002
{
1000
PSFILL
1000
Grayscale
1000
Grayscale
1070
    25
1002
}
  0
LINE
  5
2144F
330
21093
100
AcDbEntity
  8
YODOROGO
100
AcDbLine
 10
11162.10162798447
 20
730.4060611609828
 30
0.0
 11
11162.10162798447
 21
715.4060611609828
 31
0.0
1001
AUTOCAD_POSTSCRIPT_FIGURE
1002
{
1000
PSFILL
1000
Grayscale
1000
Grayscale
1070
    25
1002
}
  0
LINE
  5
21450
330
21093
100
AcDbEntity
  8
YODOROGO
100
AcDbLine
 10
11106.60162798446
 20
730.4060611609828
 30
0.0
 11
11162.10162798447
 21
730.4060611609828
 31
0.0
1001
AUTOCAD_POSTSCRIPT_FIGURE
1002
{
1000
PSFILL
1000
Grayscale
1000
Grayscale
1070
    25
1002
}
  0
LINE
  5
21451
330
21093
100
AcDbEntity
  8
YODOROGO
100
AcDbLine
 10
11106.60162798446
 20
760.4060611609829
 30
0.0
 11
11106.60162798446
 21
730.4060611609828
 31
0.0
1001
AUTOCAD_POSTSCRIPT_FIGURE
1002
{
1000
PSFILL
1000
Grayscale
1000
Grayscale
1070
    25
1002
}
  0
LINE
  5
21452
330
21093
100
AcDbEntity
  8
YODOROGO
100
AcDbLine
 10
11124.60162798446
 20
760.4060611609829
 30
0.0
 11
11106.60162798446
 21
760.4060611609829
 31
0.0
1001
AUTOCAD_POSTSCRIPT_FIGURE
1002
{
1000
PSFILL
1000
Grayscale
1000
Grayscale
1070
    25
1002
}
  0
LINE
  5
21453
330
21093
100
AcDbEntity
  8
YODOROGO
100
AcDbLine
 10
11124.60162798446
 20
748.4060611609828
 30
0.0
 11
11124.60162798446
 21
760.4060611609829
 31
0.0
1001
AUTOCAD_POSTSCRIPT_FIGURE
1002
{
1000
PSFILL
1000
Grayscale
1000
Grayscale
1070
    25
1002
}
  0
LINE
  5
21454
330
21093
100
AcDbEntity
  8
YODOROGO
100
AcDbLine
 10
11162.10162798447
 20
748.4060611609828
 30
0.0
 11
11124.60162798446
 21
748.4060611609828
 31
0.0
1001
AUTOCAD_POSTSCRIPT_FIGURE
1002
{
1000
PSFILL
1000
Grayscale
1000
Grayscale
1070
    25
1002
}
  0
LINE
  5
21455
330
21093
100
AcDbEntity
  8
YODOROGO
100
AcDbLine
 10
11162.10162798447
 20
760.4060611609829
 30
0.0
 11
11162.10162798447
 21
748.4060611609828
 31
0.0
1001
AUTOCAD_POSTSCRIPT_FIGURE
1002
{
1000
PSFILL
1000
Grayscale
1000
Grayscale
1070
    25
1002
}
  0
LINE
  5
21456
330
21093
100
AcDbEntity
  8
YODOROGO
100
AcDbLine
 10
11186.10162798447
 20
760.4060611609829
 30
0.0
 11
11162.10162798447
 21
760.4060611609829
 31
0.0
1001
AUTOCAD_POSTSCRIPT_FIGURE
1002
{
1000
PSFILL
1000
Grayscale
1000
Grayscale
1070
    25
1002
}
  0
LINE
  5
21457
330
21093
100
AcDbEntity
  8
YODOROGO
100
AcDbLine
 10
11186.10162798447
 20
748.4060611609828
 30
0.0
 11
11186.10162798447
 21
760.4060611609829
 31
0.0
1001
AUTOCAD_POSTSCRIPT_FIGURE
1002
{
1000
PSFILL
1000
Grayscale
1000
Grayscale
1070
    25
1002
}
  0
LINE
  5
21458
330
21093
100
AcDbEntity
  8
YODOROGO
100
AcDbLine
 10
11186.10162798447
 20
715.4060611609828
 30
0.0
 11
11186.10162798447
 21
730.4060611609828
 31
0.0
1001
AUTOCAD_POSTSCRIPT_FIGURE
1002
{
1000
PSFILL
1000
Grayscale
1000
Grayscale
1070
    25
1002
}
  0
LINE
  5
21459
330
21093
100
AcDbEntity
  8
YODOROGO
100
AcDbLine
 10
11186.10162798447
 20
682.4060611609829
 30
0.0
 11
11186.10162798447
 21
697.406061160983
 31
0.0
1001
AUTOCAD_POSTSCRIPT_FIGURE
1002
{
1000
PSFILL
1000
Grayscale
1000
Grayscale
1070
    25
1002
}
  0
LINE
  5
2145A
330
21093
100
AcDbEntity
  8
YODOROGO
100
AcDbLine
 10
11220.60162798447
 20
664.4060611609833
 30
0.0
 11
11220.60162798447
 21
640.4060611609828
 31
0.0
1001
AUTOCAD_POSTSCRIPT_FIGURE
1002
{
1000
PSFILL
1000
Grayscale
1000
Grayscale
1070
    25
1002
}
  0
LINE
  5
2145B
330
21093
100
AcDbEntity
  8
YODOROGO
100
AcDbLine
 10
11186.10162798447
 20
664.4060611609833
 30
0.0
 11
11220.60162798447
 21
664.4060611609833
 31
0.0
1001
AUTOCAD_POSTSCRIPT_FIGURE
1002
{
1000
PSFILL
1000
Grayscale
1000
Grayscale
1070
    25
1002
}
  0
LINE
  5
2145C
330
21093
100
AcDbEntity
  8
YODOROGO
100
AcDbLine
 10
11186.10162798447
 20
640.4060611609828
 30
0.0
 11
11186.10162798447
 21
664.4060611609833
 31
0.0
1001
AUTOCAD_POSTSCRIPT_FIGURE
1002
{
1000
PSFILL
1000
Grayscale
1000
Grayscale
1070
    25
1002
}
  0
LINE
  5
2145D
330
21093
100
AcDbEntity
  8
YODOROGO
100
AcDbLine
 10
11162.10162798447
 20
640.4060611609828
 30
0.0
 11
11186.10162798447
 21
640.4060611609828
 31
0.0
1001
AUTOCAD_POSTSCRIPT_FIGURE
1002
{
1000
PSFILL
1000
Grayscale
1000
Grayscale
1070
    25
1002
}
  0
LINE
  5
2145E
330
21093
100
AcDbEntity
  8
YODOROGO
100
AcDbLine
 10
11162.10162798447
 20
664.4060611609833
 30
0.0
 11
11162.10162798447
 21
640.4060611609828
 31
0.0
1001
AUTOCAD_POSTSCRIPT_FIGURE
1002
{
1000
PSFILL
1000
Grayscale
1000
Grayscale
1070
    25
1002
}
  0
LINE
  5
2145F
330
21093
100
AcDbEntity
  8
YODOROGO
100
AcDbLine
 10
11127.60162798447
 20
664.4060611609833
 30
0.0
 11
11162.10162798447
 21
664.4060611609833
 31
0.0
1001
AUTOCAD_POSTSCRIPT_FIGURE
1002
{
1000
PSFILL
1000
Grayscale
1000
Grayscale
1070
    25
1002
}
  0
ARC
  5
21460
330
21093
100
AcDbEntity
  8
YODOROGO
100
AcDbCircle
 10
11647.31921000922
 20
601.0052765683409
 30
0.0
 40
66.83298041652057
100
AcDbArc
 50
281.0262749542535
 51
357.771135755738
  0
LINE
  5
21461
330
21093
100
AcDbEntity
  8
YODOROGO
100
AcDbLine
 10
11780.10162798446
 20
715.4060611609828
 30
0.0
 11
11687.10162798447
 21
715.4060611609828
 31
0.0
  0
LINE
  5
21462
330
21093
100
AcDbEntity
  8
YODOROGO
100
AcDbLine
 10
11780.10162798446
 20
760.4060611609829
 30
0.0
 11
11687.10162798447
 21
760.4060611609829
 31
0.0
  0
LINE
  5
21463
330
21093
100
AcDbEntity
  8
YODOROGO
100
AcDbLine
 10
11687.10162798447
 20
736.4060611609825
 30
0.0
 11
11780.10162798446
 21
736.4060611609825
 31
0.0
  0
LINE
  5
21464
330
21093
100
AcDbEntity
  8
YODOROGO
100
AcDbLine
 10
11546.85162798447
 20
586.4060611609825
 30
0.0
 11
11546.85162798447
 21
658.4060611609827
 31
0.0
  0
LINE
  5
21465
330
21093
100
AcDbEntity
  8
YODOROGO
100
AcDbLine
 10
11536.35162798447
 20
634.4060611609833
 30
0.0
 11
11536.35162798447
 21
586.4060611609825
 31
0.0
  0
LINE
  5
21466
330
21093
100
AcDbEntity
  8
YODOROGO
100
AcDbLine
 10
11521.35162798447
 20
559.4060611609831
 30
0.0
 11
11521.35162798447
 21
634.4060611609833
 31
0.0
  0
LINE
  5
21467
330
21093
100
AcDbEntity
  8
YODOROGO
100
AcDbLine
 10
11587.35162798447
 20
634.4060611609833
 30
0.0
 11
11587.35162798447
 21
559.4060611609831
 31
0.0
  0
LINE
  5
21468
330
21093
100
AcDbEntity
  8
YODOROGO
100
AcDbLine
 10
11572.35162798446
 20
586.4060611609825
 30
0.0
 11
11572.35162798446
 21
634.4060611609833
 31
0.0
  0
LINE
  5
21469
330
21093
100
AcDbEntity
  8
YODOROGO
100
AcDbLine
 10
11561.85162798446
 20
658.4060611609827
 30
0.0
 11
11561.85162798446
 21
586.4060611609825
 31
0.0
  0
LINE
  5
2146A
330
21093
100
AcDbEntity
  8
YODOROGO
100
AcDbLine
 10
11615.10162798446
 20
760.4060611609829
 30
0.0
 11
11615.10162798446
 21
550.4060611609828
 31
0.0
  0
LINE
  5
2146B
330
21093
100
AcDbEntity
  8
YODOROGO
100
AcDbLine
 10
11492.10162798447
 20
535.4060611609829
 30
0.0
 11
11492.10162798447
 21
760.4060611609829
 31
0.0
  0
LINE
  5
2146C
330
21093
100
AcDbEntity
  8
YODOROGO
100
AcDbLine
 10
11511.60162798447
 20
736.4060611609825
 30
0.0
 11
11511.60162798447
 21
535.4060611609829
 31
0.0
  0
LINE
  5
2146D
330
21093
100
AcDbEntity
  8
YODOROGO
100
AcDbLine
 10
11597.10162798446
 20
580.406061160983
 30
0.0
 11
11597.10162798446
 21
736.4060611609825
 31
0.0
  0
LINE
  5
2146E
330
21093
100
AcDbEntity
  8
YODOROGO
100
AcDbLine
 10
11393.10162798446
 20
610.4060611609829
 30
0.0
 11
11393.10162798446
 21
629.9060611609831
 31
0.0
  0
LINE
  5
2146F
330
21093
100
AcDbEntity
  8
YODOROGO
100
AcDbLine
 10
11481.60162798447
 20
629.9060611609831
 30
0.0
 11
11481.60162798447
 21
610.4060611609829
 31
0.0
  0
LINE
  5
21470
330
21093
100
AcDbEntity
  8
YODOROGO
100
AcDbLine
 10
11687.10162798447
 20
715.4060611609828
 30
0.0
 11
11687.10162798447
 21
613.4060611609827
 31
0.0
  0
LINE
  5
21471
330
21093
100
AcDbEntity
  8
YODOROGO
100
AcDbLine
 10
11231.10162798446
 20
625.406061160983
 30
0.0
 11
11231.10162798446
 21
640.4060611609828
 31
0.0
  0
LINE
  5
21472
330
21093
100
AcDbEntity
  8
YODOROGO
100
AcDbLine
 10
11231.10162798446
 20
625.406061160983
 30
0.0
 11
11231.10162798446
 21
640.4060611609828
 31
0.0
  0
ARC
  5
21473
330
21093
100
AcDbEntity
  8
YODOROGO
100
AcDbCircle
 10
11451.60162798447
 20
565.4060611609828
 30
0.0
 40
30.0
100
AcDbArc
 50
270.0
 51
0.0
  0
LINE
  5
21474
330
21093
100
AcDbEntity
  8
YODOROGO
100
AcDbLine
 10
11463.60162798446
 20
599.9060611609831
 30
0.0
 11
11481.60162798447
 21
599.9060611609831
 31
0.0
  0
LINE
  5
21475
330
21093
100
AcDbEntity
  8
YODOROGO
100
AcDbLine
 10
11481.60162798447
 20
610.4060611609829
 30
0.0
 11
11448.60162798446
 21
610.4060611609829
 31
0.0
  0
LINE
  5
21476
330
21093
100
AcDbEntity
  8
YODOROGO
100
AcDbLine
 10
11331.60162798447
 20
625.406061160983
 30
0.0
 11
11231.10162798446
 21
625.406061160983
 31
0.0
  0
LINE
  5
21477
330
21093
100
AcDbEntity
  8
YODOROGO
100
AcDbLine
 10
11331.60162798447
 20
610.4060611609829
 30
0.0
 11
11331.60162798447
 21
625.406061160983
 31
0.0
  0
LINE
  5
21478
330
21093
100
AcDbEntity
  8
YODOROGO
100
AcDbLine
 10
11256.60162798447
 20
610.4060611609829
 30
0.0
 11
11331.60162798447
 21
610.4060611609829
 31
0.0
  0
ARC
  5
21479
330
21093
100
AcDbEntity
  8
YODOROGO
100
AcDbCircle
 10
11336.27206076301
 20
700.8321431073384
 30
0.0
 40
120.5166136069605
100
AcDbArc
 50
228.6181454618993
 51
245.660289248906
  0
LINE
  5
2147A
330
21093
100
AcDbEntity
  8
YODOROGO
100
AcDbLine
 10
11289.60162798447
 20
601.4060611609833
 30
0.0
 11
11286.60162798448
 21
591.0273059512126
 31
0.0
  0
LINE
  5
2147B
330
21093
100
AcDbEntity
  8
YODOROGO
100
AcDbLine
 10
11321.10162798447
 20
601.4060611609833
 30
0.0
 11
11289.60162798447
 21
601.4060611609833
 31
0.0
  0
LINE
  5
2147C
330
21093
100
AcDbEntity
  8
YODOROGO
100
AcDbLine
 10
11316.60162798447
 20
581.9316459275352
 30
0.0
 11
11321.10162798447
 21
601.4060611609833
 31
0.0
  0
ARC
  5
2147D
330
21093
100
AcDbEntity
  8
YODOROGO
100
AcDbCircle
 10
11336.27206076267
 20
700.832143107376
 30
0.0
 40
120.516613606984
100
AcDbArc
 50
260.6062929796992
 51
267.7790355655586
  0
LINE
  5
2147E
330
21093
100
AcDbEntity
  8
YODOROGO
100
AcDbLine
 10
11331.60162798447
 20
535.4060611609821
 30
0.0
 11
11331.60162798447
 21
580.406061160983
 31
0.0
  0
LINE
  5
2147F
330
21093
100
AcDbEntity
  8
YODOROGO
100
AcDbLine
 10
11226.60162798446
 20
555.5022505933164
 30
0.0
 11
11226.60162798446
 21
597.949158949178
 31
0.0
  0
LINE
  5
21480
330
21093
100
AcDbEntity
  8
YODOROGO
100
AcDbLine
 10
11331.60162798447
 20
625.406061160983
 30
0.0
 11
11231.10162798446
 21
625.406061160983
 31
0.0
  0
LINE
  5
21481
330
21093
100
AcDbEntity
  8
YODOROGO
100
AcDbLine
 10
11331.60162798447
 20
610.4060611609829
 30
0.0
 11
11331.60162798447
 21
625.406061160983
 31
0.0
  0
LINE
  5
21482
330
21093
100
AcDbEntity
  8
YODOROGO
100
AcDbLine
 10
11256.60162798447
 20
610.4060611609829
 30
0.0
 11
11331.60162798447
 21
610.4060611609829
 31
0.0
  0
ARC
  5
21483
330
21093
100
AcDbEntity
  8
YODOROGO
100
AcDbCircle
 10
11336.27206076301
 20
700.8321431073384
 30
0.0
 40
120.5166136069605
100
AcDbArc
 50
228.6181454618993
 51
245.660289248906
  0
LINE
  5
21484
330
21093
100
AcDbEntity
  8
YODOROGO
100
AcDbLine
 10
11289.60162798447
 20
601.4060611609833
 30
0.0
 11
11286.60162798448
 21
591.0273059512126
 31
0.0
  0
LINE
  5
21485
330
21093
100
AcDbEntity
  8
YODOROGO
100
AcDbLine
 10
11321.10162798447
 20
601.4060611609833
 30
0.0
 11
11289.60162798447
 21
601.4060611609833
 31
0.0
  0
LINE
  5
21486
330
21093
100
AcDbEntity
  8
YODOROGO
100
AcDbLine
 10
11316.60162798447
 20
581.9316459275352
 30
0.0
 11
11321.10162798447
 21
601.4060611609833
 31
0.0
  0
ARC
  5
21487
330
21093
100
AcDbEntity
  8
YODOROGO
100
AcDbCircle
 10
11336.27206076267
 20
700.832143107376
 30
0.0
 40
120.516613606984
100
AcDbArc
 50
260.6062929796992
 51
267.7790355655586
  0
LINE
  5
21488
330
21093
100
AcDbEntity
  8
YODOROGO
100
AcDbLine
 10
11331.60162798447
 20
535.4060611609821
 30
0.0
 11
11331.60162798447
 21
580.406061160983
 31
0.0
  0
LINE
  5
21489
330
21093
100
AcDbEntity
  8
YODOROGO
100
AcDbLine
 10
11226.60162798446
 20
555.5022505933164
 30
0.0
 11
11226.60162798446
 21
597.949158949178
 31
0.0
  0
LINE
  5
2148A
330
21093
100
AcDbEntity
  8
YODOROGO
100
AcDbLine
 10
11412.60162798447
 20
590.1560611609832
 30
0.0
 11
11393.10162798446
 21
590.1560611609832
 31
0.0
  0
LINE
  5
2148B
330
21093
100
AcDbEntity
  8
YODOROGO
100
AcDbLine
 10
11412.60162798447
 20
600.6560611609824
 30
0.0
 11
11412.60162798447
 21
590.1560611609832
 31
0.0
  0
LINE
  5
2148C
330
21093
100
AcDbEntity
  8
YODOROGO
100
AcDbLine
 10
11393.10162798446
 20
600.6560611609824
 30
0.0
 11
11412.60162798447
 21
600.6560611609824
 31
0.0
  0
LINE
  5
2148D
330
21093
100
AcDbEntity
  8
YODOROGO
100
AcDbLine
 10
11393.10162798446
 20
590.1560611609832
 30
0.0
 11
11393.10162798446
 21
600.6560611609824
 31
0.0
  0
LINE
  5
2148E
330
21093
100
AcDbEntity
  8
YODOROGO
100
AcDbLine
 10
11411.10162798447
 20
591.6560611609829
 30
0.0
 11
11394.60162798447
 21
591.6560611609829
 31
0.0
  0
LINE
  5
2148F
330
21093
100
AcDbEntity
  8
YODOROGO
100
AcDbLine
 10
11411.10162798447
 20
599.156061160983
 30
0.0
 11
11411.10162798447
 21
591.6560611609829
 31
0.0
  0
LINE
  5
21490
330
21093
100
AcDbEntity
  8
YODOROGO
100
AcDbLine
 10
11394.60162798447
 20
599.156061160983
 30
0.0
 11
11411.10162798447
 21
599.156061160983
 31
0.0
  0
LINE
  5
21491
330
21093
100
AcDbEntity
  8
YODOROGO
100
AcDbLine
 10
11394.60162798447
 20
591.6560611609829
 30
0.0
 11
11394.60162798447
 21
599.156061160983
 31
0.0
  0
LINE
  5
21492
330
21093
100
AcDbEntity
  8
YODOROGO
100
AcDbLine
 10
11409.60162798447
 20
593.1560611609824
 30
0.0
 11
11396.10162798446
 21
593.1560611609824
 31
0.0
  0
LINE
  5
21493
330
21093
100
AcDbEntity
  8
YODOROGO
100
AcDbLine
 10
11409.60162798447
 20
597.6560611609833
 30
0.0
 11
11409.60162798447
 21
593.1560611609824
 31
0.0
  0
LINE
  5
21494
330
21093
100
AcDbEntity
  8
YODOROGO
100
AcDbLine
 10
11396.10162798446
 20
597.6560611609833
 30
0.0
 11
11409.60162798447
 21
597.6560611609833
 31
0.0
  0
LINE
  5
21495
330
21093
100
AcDbEntity
  8
YODOROGO
100
AcDbLine
 10
11396.10162798446
 20
593.1560611609824
 30
0.0
 11
11396.10162798446
 21
597.6560611609833
 31
0.0
  0
LINE
  5
21496
330
21093
100
AcDbEntity
  8
YODOROGO
100
AcDbLine
 10
11408.10162798447
 20
594.6560611609827
 30
0.0
 11
11397.60162798447
 21
594.6560611609827
 31
0.0
  0
LINE
  5
21497
330
21093
100
AcDbEntity
  8
YODOROGO
100
AcDbLine
 10
11408.10162798447
 20
596.1560611609829
 30
0.0
 11
11408.10162798447
 21
594.6560611609827
 31
0.0
  0
LINE
  5
21498
330
21093
100
AcDbEntity
  8
YODOROGO
100
AcDbLine
 10
11397.60162798447
 20
596.1560611609829
 30
0.0
 11
11408.10162798447
 21
596.1560611609829
 31
0.0
  0
LINE
  5
21499
330
21093
100
AcDbEntity
  8
YODOROGO
100
AcDbLine
 10
11397.60162798447
 20
594.6560611609827
 30
0.0
 11
11397.60162798447
 21
596.1560611609829
 31
0.0
  0
LINE
  5
2149A
330
21093
100
AcDbEntity
  8
YODOROGO
100
AcDbLine
 10
11424.60162798446
 20
610.4060611609829
 30
0.0
 11
11393.10162798446
 21
610.4060611609829
 31
0.0
  0
LINE
  5
2149B
330
21093
100
AcDbEntity
  8
YODOROGO
100
AcDbLine
 10
11424.60162798446
 20
580.406061160983
 30
0.0
 11
11424.60162798446
 21
610.4060611609829
 31
0.0
  0
LINE
  5
2149C
330
21093
100
AcDbEntity
  8
YODOROGO
100
AcDbLine
 10
11393.10162798446
 20
580.406061160983
 30
0.0
 11
11424.60162798446
 21
580.406061160983
 31
0.0
  0
LINE
  5
2149D
330
21093
100
AcDbEntity
  8
YODOROGO
100
AcDbLine
 10
11393.10162798446
 20
535.4060611609829
 30
0.0
 11
11393.10162798446
 21
580.406061160983
 31
0.0
  0
LINE
  5
2149E
330
21093
100
AcDbEntity
  8
YODOROGO
100
AcDbLine
 10
11451.60162798447
 20
535.4060611609829
 30
0.0
 11
11393.10162798446
 21
535.4060611609829
 31
0.0
  0
LINE
  5
2149F
330
21093
100
AcDbEntity
  8
YODOROGO
100
AcDbLine
 10
11463.60162798446
 20
589.4060611609823
 30
0.0
 11
11463.60162798446
 21
599.9060611609831
 31
0.0
  0
ARC
  5
214A0
330
21093
100
AcDbEntity
  8
YODOROGO
100
AcDbCircle
 10
11454.60162798446
 20
589.4060611609843
 30
0.0
 40
9.000000000001408
100
AcDbArc
 50
270.0
 51
359.9999999999877
  0
LINE
  5
214A1
330
21093
100
AcDbEntity
  8
YODOROGO
100
AcDbLine
 10
11448.60162798446
 20
580.406061160983
 30
0.0
 11
11454.60162798446
 21
580.406061160983
 31
0.0
  0
LINE
  5
214A2
330
21093
100
AcDbEntity
  8
YODOROGO
100
AcDbLine
 10
11448.60162798446
 20
610.4060611609829
 30
0.0
 11
11448.60162798446
 21
580.406061160983
 31
0.0
  0
LINE
  5
214A3
330
21093
100
AcDbEntity
  8
YODOROGO
100
AcDbLine
 10
11587.35162798447
 20
580.406061160983
 30
0.0
 11
11597.10162798446
 21
580.406061160983
 31
0.0
  0
LINE
  5
214A4
330
21093
100
AcDbEntity
  8
YODOROGO
100
AcDbLine
 10
11600.10162798446
 20
535.4060611609829
 30
0.0
 11
11587.35162798447
 21
535.4060611609829
 31
0.0
  0
LINE
  5
214A5
330
21093
100
AcDbEntity
  8
YODOROGO
100
AcDbLine
 10
11536.35162798447
 20
586.4060611609825
 30
0.0
 11
11546.85162798447
 21
586.4060611609825
 31
0.0
  0
LINE
  5
214A6
330
21093
100
AcDbEntity
  8
YODOROGO
100
AcDbLine
 10
11587.35162798447
 20
559.4060611609831
 30
0.0
 11
11521.35162798447
 21
559.4060611609831
 31
0.0
  0
LINE
  5
214A7
330
21093
100
AcDbEntity
  8
YODOROGO
100
AcDbLine
 10
11561.85162798446
 20
586.4060611609825
 30
0.0
 11
11572.35162798446
 21
586.4060611609825
 31
0.0
  0
LINE
  5
214A8
330
21093
100
AcDbEntity
  8
YODOROGO
100
AcDbLine
 10
11587.35162798447
 20
535.4060611609829
 30
0.0
 11
11587.35162798447
 21
580.406061160983
 31
0.0
  0
LINE
  5
214A9
330
21093
100
AcDbEntity
  8
YODOROGO
100
AcDbLine
 10
11511.60162798447
 20
535.4060611609829
 30
0.0
 11
11492.10162798447
 21
535.4060611609829
 31
0.0
  0
LINE
  5
214AA
330
21093
100
AcDbEntity
  8
YODOROGO
100
AcDbLine
 10
11481.60162798447
 20
599.9060611609831
 30
0.0
 11
11481.60162798447
 21
565.4060611609828
 31
0.0
  0
ARC
  5
214AB
330
21093
100
AcDbEntity
  8
YODOROGO
100
AcDbCircle
 10
11600.10162798446
 20
550.4060611609828
 30
0.0
 40
15.0
100
AcDbArc
 50
270.0
 51
0.0
  0
LINE
  5
214AC
330
21093
100
AcDbEntity
  8
YODOROGO
100
AcDbLine
 10
11660.10162798446
 20
571.4060611609824
 30
0.0
 11
11660.10162798446
 21
535.4060611609829
 31
0.0
  0
ARC
  5
214AD
330
21093
100
AcDbEntity
  8
YODOROGO
100
AcDbCircle
 10
11639.89552333754
 20
614.0742712911499
 30
0.0
 40
47.21083372187828
100
AcDbArc
 50
295.3405244216011
 51
359.1890230341867
  0
LINE
  5
214AE
330
21093
100
AcDbEntity
  8
YODOROGO
100
AcDbLine
 10
11481.60162798447
 20
697.406061160983
 30
0.0
 11
11436.60162798447
 21
727.4060611609828
 31
0.0
  0
LINE
  5
214AF
330
21093
100
AcDbEntity
  8
YODOROGO
100
AcDbLine
 10
11436.60162798447
 20
760.4060611609829
 30
0.0
 11
11481.60162798447
 21
730.4060611609828
 31
0.0
  0
LINE
  5
214B0
330
21093
100
AcDbEntity
  8
YODOROGO
100
AcDbLine
 10
11448.60162798446
 20
629.9060611609831
 30
0.0
 11
11481.60162798447
 21
629.9060611609831
 31
0.0
  0
LINE
  5
214B1
330
21093
100
AcDbEntity
  8
YODOROGO
100
AcDbLine
 10
11481.60162798447
 20
650.9060611609827
 30
0.0
 11
11448.60162798446
 21
650.9060611609827
 31
0.0
  0
LINE
  5
214B2
330
21093
100
AcDbEntity
  8
YODOROGO
100
AcDbLine
 10
11393.10162798446
 20
673.4060611609827
 30
0.0
 11
11481.60162798447
 21
673.4060611609827
 31
0.0
  0
LINE
  5
214B3
330
21093
100
AcDbEntity
  8
YODOROGO
100
AcDbLine
 10
11280.60162798447
 20
760.4060611609829
 30
0.0
 11
11258.10162798447
 21
760.4060611609829
 31
0.0
  0
LINE
  5
214B4
330
21093
100
AcDbEntity
  8
YODOROGO
100
AcDbLine
 10
11280.60162798447
 20
685.4060611609829
 30
0.0
 11
11280.60162798447
 21
760.4060611609829
 31
0.0
  0
LINE
  5
214B5
330
21093
100
AcDbEntity
  8
YODOROGO
100
AcDbLine
 10
11258.10162798447
 20
685.4060611609829
 30
0.0
 11
11280.60162798447
 21
685.4060611609829
 31
0.0
  0
LINE
  5
214B6
330
21093
100
AcDbEntity
  8
YODOROGO
100
AcDbLine
 10
11258.10162798447
 20
760.4060611609829
 30
0.0
 11
11258.10162798447
 21
685.4060611609829
 31
0.0
  0
LINE
  5
214B7
330
21093
100
AcDbEntity
  8
YODOROGO
100
AcDbLine
 10
11310.60162798447
 20
760.4060611609829
 30
0.0
 11
11331.60162798447
 21
760.4060611609829
 31
0.0
  0
LINE
  5
214B8
330
21093
100
AcDbEntity
  8
YODOROGO
100
AcDbLine
 10
11310.60162798447
 20
679.4060611609832
 30
0.0
 11
11310.60162798447
 21
760.4060611609829
 31
0.0
  0
ARC
  5
214B9
330
21093
100
AcDbEntity
  8
YODOROGO
100
AcDbCircle
 10
11295.60162798447
 20
679.4060611609832
 30
0.0
 40
15.0
100
AcDbArc
 50
270.0
 51
0.0
  0
LINE
  5
214BA
330
21093
100
AcDbEntity
  8
YODOROGO
100
AcDbLine
 10
11258.10162798447
 20
664.4060611609833
 30
0.0
 11
11295.60162798447
 21
664.4060611609833
 31
0.0
  0
LINE
  5
214BB
330
21093
100
AcDbEntity
  8
YODOROGO
100
AcDbLine
 10
11258.10162798447
 20
640.4060611609828
 30
0.0
 11
11258.10162798447
 21
664.4060611609833
 31
0.0
  0
LINE
  5
214BC
330
21093
100
AcDbEntity
  8
YODOROGO
100
AcDbLine
 10
11301.60162798446
 20
640.4060611609828
 30
0.0
 11
11258.10162798447
 21
640.4060611609828
 31
0.0
  0
ARC
  5
214BD
330
21093
100
AcDbEntity
  8
YODOROGO
100
AcDbCircle
 10
11301.60162798446
 20
670.4060611609828
 30
0.0
 40
30.0
100
AcDbArc
 50
270.0
 51
0.0
  0
LINE
  5
214BE
330
21093
100
AcDbEntity
  8
YODOROGO
100
AcDbLine
 10
11331.60162798447
 20
760.4060611609829
 30
0.0
 11
11331.60162798447
 21
670.4060611609828
 31
0.0
  0
LINE
  5
214BF
330
21093
100
AcDbEntity
  8
YODOROGO
100
AcDbLine
 10
11241.60162798446
 20
730.4060611609828
 30
0.0
 11
11241.60162798446
 21
748.4060611609828
 31
0.0
1001
AUTOCAD_POSTSCRIPT_FIGURE
1002
{
1000
PSFILL
1000
Grayscale
1000
Grayscale
1070
    25
1002
}
  0
LINE
  5
214C0
330
21093
100
AcDbEntity
  8
YODOROGO
100
AcDbLine
 10
11241.60162798446
 20
697.406061160983
 30
0.0
 11
11241.60162798446
 21
715.4060611609828
 31
0.0
1001
AUTOCAD_POSTSCRIPT_FIGURE
1002
{
1000
PSFILL
1000
Grayscale
1000
Grayscale
1070
    25
1002
}
  0
LINE
  5
214C1
330
21093
100
AcDbEntity
  8
YODOROGO
100
AcDbLine
 10
11241.60162798446
 20
640.4060611609828
 30
0.0
 11
11241.60162798446
 21
682.4060611609829
 31
0.0
1001
AUTOCAD_POSTSCRIPT_FIGURE
1002
{
1000
PSFILL
1000
Grayscale
1000
Grayscale
1070
    25
1002
}
  0
LINE
  5
214C2
330
21093
100
AcDbEntity
  8
YODOROGO
100
AcDbLine
 10
11393.10162798446
 20
715.4060611609828
 30
0.0
 11
11436.60162798447
 21
760.4060611609829
 31
0.0
  0
LINE
  5
214C3
330
21093
100
AcDbEntity
  8
YODOROGO
100
AcDbLine
 10
11393.10162798446
 20
682.4060611609829
 30
0.0
 11
11393.10162798446
 21
715.4060611609828
 31
0.0
  0
LINE
  5
214C4
330
21093
100
AcDbEntity
  8
YODOROGO
100
AcDbLine
 10
11436.60162798447
 20
727.4060611609828
 30
0.0
 11
11393.10162798446
 21
682.4060611609829
 31
0.0
  0
LINE
  5
214C5
330
21093
100
AcDbEntity
  8
YODOROGO
100
AcDbLine
 10
11424.60162798446
 20
629.9060611609831
 30
0.0
 11
11424.60162798446
 21
650.9060611609827
 31
0.0
  0
LINE
  5
214C6
330
21093
100
AcDbEntity
  8
YODOROGO
100
AcDbLine
 10
11393.10162798446
 20
629.9060611609831
 30
0.0
 11
11424.60162798446
 21
629.9060611609831
 31
0.0
  0
LINE
  5
214C7
330
21093
100
AcDbEntity
  8
YODOROGO
100
AcDbLine
 10
11448.60162798446
 20
650.9060611609827
 30
0.0
 11
11448.60162798446
 21
629.9060611609831
 31
0.0
  0
LINE
  5
214C8
330
21093
100
AcDbEntity
  8
YODOROGO
100
AcDbLine
 10
11393.10162798446
 20
650.9060611609827
 30
0.0
 11
11393.10162798446
 21
673.4060611609827
 31
0.0
  0
LINE
  5
214C9
330
21093
100
AcDbEntity
  8
YODOROGO
100
AcDbLine
 10
11424.60162798446
 20
650.9060611609827
 30
0.0
 11
11393.10162798446
 21
650.9060611609827
 31
0.0
  0
LINE
  5
214CA
330
21093
100
AcDbEntity
  8
YODOROGO
100
AcDbLine
 10
11492.10162798447
 20
760.4060611609829
 30
0.0
 11
11615.10162798446
 21
760.4060611609829
 31
0.0
  0
LINE
  5
214CB
330
21093
100
AcDbEntity
  8
YODOROGO
100
AcDbLine
 10
11597.10162798446
 20
736.4060611609825
 30
0.0
 11
11511.60162798447
 21
736.4060611609825
 31
0.0
  0
LINE
  5
214CC
330
21093
100
AcDbEntity
  8
YODOROGO
100
AcDbLine
 10
11577.60162798447
 20
682.4060611609829
 30
0.0
 11
11587.35162798447
 21
682.4060611609829
 31
0.0
  0
LINE
  5
214CD
330
21093
100
AcDbEntity
  8
YODOROGO
100
AcDbLine
 10
11587.35162798447
 20
727.4060611609828
 30
0.0
 11
11577.60162798447
 21
682.4060611609829
 31
0.0
  0
LINE
  5
214CE
330
21093
100
AcDbEntity
  8
YODOROGO
100
AcDbLine
 10
11569.35162798446
 20
727.4060611609828
 30
0.0
 11
11587.35162798447
 21
727.4060611609828
 31
0.0
  0
LINE
  5
214CF
330
21093
100
AcDbEntity
  8
YODOROGO
100
AcDbLine
 10
11559.60162798447
 20
682.4060611609829
 30
0.0
 11
11569.35162798446
 21
727.4060611609828
 31
0.0
  0
LINE
  5
214D0
330
21093
100
AcDbEntity
  8
YODOROGO
100
AcDbLine
 10
11549.10162798447
 20
682.4060611609829
 30
0.0
 11
11559.60162798447
 21
682.4060611609829
 31
0.0
  0
LINE
  5
214D1
330
21093
100
AcDbEntity
  8
YODOROGO
100
AcDbLine
 10
11539.35162798447
 20
727.4060611609828
 30
0.0
 11
11549.10162798447
 21
682.4060611609829
 31
0.0
  0
LINE
  5
214D2
330
21093
100
AcDbEntity
  8
YODOROGO
100
AcDbLine
 10
11521.35162798447
 20
727.4060611609828
 30
0.0
 11
11539.35162798447
 21
727.4060611609828
 31
0.0
  0
LINE
  5
214D3
330
21093
100
AcDbEntity
  8
YODOROGO
100
AcDbLine
 10
11531.10162798447
 20
682.4060611609829
 30
0.0
 11
11521.35162798447
 21
727.4060611609828
 31
0.0
  0
LINE
  5
214D4
330
21093
100
AcDbEntity
  8
YODOROGO
100
AcDbLine
 10
11521.35162798447
 20
682.4060611609829
 30
0.0
 11
11531.10162798447
 21
682.4060611609829
 31
0.0
  0
LINE
  5
214D5
330
21093
100
AcDbEntity
  8
YODOROGO
100
AcDbLine
 10
11521.35162798447
 20
658.4060611609827
 30
0.0
 11
11521.35162798447
 21
682.4060611609829
 31
0.0
  0
LINE
  5
214D6
330
21093
100
AcDbEntity
  8
YODOROGO
100
AcDbLine
 10
11587.35162798447
 20
658.4060611609827
 30
0.0
 11
11521.35162798447
 21
658.4060611609827
 31
0.0
  0
LINE
  5
214D7
330
21093
100
AcDbEntity
  8
YODOROGO
100
AcDbLine
 10
11587.35162798447
 20
682.4060611609829
 30
0.0
 11
11587.35162798447
 21
658.4060611609827
 31
0.0
  0
LINE
  5
214D8
330
21093
100
AcDbEntity
  8
YODOROGO
100
AcDbLine
 10
11481.60162798447
 20
730.4060611609828
 30
0.0
 11
11481.60162798447
 21
697.406061160983
 31
0.0
  0
LINE
  5
214D9
330
21093
100
AcDbEntity
  8
YODOROGO
100
AcDbLine
 10
11546.85162798447
 20
658.4060611609827
 30
0.0
 11
11561.85162798446
 21
658.4060611609827
 31
0.0
  0
LINE
  5
214DA
330
21093
100
AcDbEntity
  8
YODOROGO
100
AcDbLine
 10
11521.35162798447
 20
634.4060611609833
 30
0.0
 11
11536.35162798447
 21
634.4060611609833
 31
0.0
  0
LINE
  5
214DB
330
21093
100
AcDbEntity
  8
YODOROGO
100
AcDbLine
 10
11572.35162798446
 20
634.4060611609833
 30
0.0
 11
11587.35162798447
 21
634.4060611609833
 31
0.0
  0
LINE
  5
214DC
330
21093
100
AcDbEntity
  8
YODOROGO
100
AcDbLine
 10
11481.60162798447
 20
673.4060611609827
 30
0.0
 11
11481.60162798447
 21
650.9060611609827
 31
0.0
  0
LINE
  5
214DD
330
21093
100
AcDbEntity
  8
YODOROGO
100
AcDbLine
 10
11687.10162798447
 20
760.4060611609829
 30
0.0
 11
11687.10162798447
 21
736.4060611609825
 31
0.0
  0
LINE
  5
214DE
330
21093
100
AcDbEntity
  8
YODOROGO
100
AcDbLine
 10
11825.10162798447
 20
598.4060611609827
 30
0.0
 11
11825.10162798446
 21
679.4060611609832
 31
0.0
  0
LINE
  5
214DF
330
21093
100
AcDbEntity
  8
YODOROGO
100
AcDbLine
 10
11798.10162798446
 20
745.4060611609828
 30
0.0
 11
11798.10162798446
 21
613.4060611609827
 31
0.0
  0
LINE
  5
214E0
330
21093
100
AcDbEntity
  8
YODOROGO
100
AcDbLine
 10
11870.10162798447
 20
535.4060611609829
 30
0.0
 11
11870.10162798446
 21
679.4060611609832
 31
0.0
  0
LINE
  5
214E1
330
21093
100
AcDbEntity
  8
YODOROGO
100
AcDbLine
 10
11846.10162798447
 20
679.4060611609832
 30
0.0
 11
11846.10162798447
 21
535.4060611609829
 31
0.0
  0
LINE
  5
214E2
330
21093
100
AcDbEntity
  8
YODOROGO
100
AcDbLine
 10
11714.10162798447
 20
598.4060611609827
 30
0.0
 11
11714.10162798447
 21
640.4060611609828
 31
0.0
  0
ARC
  5
214E3
330
21093
100
AcDbEntity
  8
YODOROGO
100
AcDbCircle
 10
11757.71807441852
 20
602.921381733209
 30
0.0
 40
67.53466821599572
100
AcDbArc
 50
268.6284910216979
 51
356.1663845733032
  0
LINE
  5
214E4
330
21093
100
AcDbEntity
  8
YODOROGO
100
AcDbLine
 10
11756.10162798446
 20
572.9060611609829
 30
0.0
 11
11756.10162798446
 21
535.4060611609829
 31
0.0
  0
ARC
  5
214E5
330
21093
100
AcDbEntity
  8
YODOROGO
100
AcDbCircle
 10
11756.81927839671
 20
614.1896088816206
 30
0.0
 40
41.28978486885457
100
AcDbArc
 50
269.0041020930593
 51
358.9126445549248
  0
LINE
  5
214E6
330
21093
100
AcDbEntity
  8
YODOROGO
100
AcDbLine
 10
11846.10162798447
 20
535.4060611609829
 30
0.0
 11
11870.10162798447
 21
535.4060611609829
 31
0.0
  0
LINE
  5
214E7
330
21093
100
AcDbEntity
  8
YODOROGO
100
AcDbLine
 10
11825.10162798446
 20
679.4060611609832
 30
0.0
 11
11846.10162798447
 21
679.4060611609832
 31
0.0
  0
LINE
  5
214E8
330
21093
100
AcDbEntity
  8
YODOROGO
100
AcDbLine
 10
11858.10162798446
 20
745.4060611609828
 30
0.0
 11
11798.10162798446
 21
745.4060611609828
 31
0.0
  0
LINE
  5
214E9
330
21093
100
AcDbEntity
  8
YODOROGO
100
AcDbLine
 10
11825.10162798446
 20
718.4060611609829
 30
0.0
 11
11873.10162798447
 21
718.4060611609829
 31
0.0
  0
LINE
  5
214EA
330
21093
100
AcDbEntity
  8
YODOROGO
100
AcDbLine
 10
11888.10162798447
 20
703.4060611609828
 30
0.0
 11
11825.10162798446
 21
703.4060611609828
 31
0.0
  0
LINE
  5
214EB
330
21093
100
AcDbEntity
  8
YODOROGO
100
AcDbLine
 10
11714.10162798447
 20
667.4060611609831
 30
0.0
 11
11756.10162798446
 21
667.4060611609831
 31
0.0
  0
LINE
  5
214EC
330
21093
100
AcDbEntity
  8
YODOROGO
100
AcDbLine
 10
11714.10162798447
 20
688.4060611609828
 30
0.0
 11
11714.10162798447
 21
667.4060611609831
 31
0.0
  0
LINE
  5
214ED
330
21093
100
AcDbEntity
  8
YODOROGO
100
AcDbLine
 10
11756.10162798446
 20
688.4060611609828
 30
0.0
 11
11714.10162798447
 21
688.4060611609828
 31
0.0
  0
LINE
  5
214EE
330
21093
100
AcDbEntity
  8
YODOROGO
100
AcDbLine
 10
11756.10162798446
 20
667.4060611609831
 30
0.0
 11
11756.10162798446
 21
688.4060611609828
 31
0.0
  0
LINE
  5
214EF
330
21093
100
AcDbEntity
  8
YODOROGO
100
AcDbLine
 10
11825.10162798446
 20
703.4060611609828
 30
0.0
 11
11825.10162798446
 21
718.4060611609829
 31
0.0
  0
LINE
  5
214F0
330
21093
100
AcDbEntity
  8
YODOROGO
100
AcDbLine
 10
11780.10162798446
 20
640.4060611609828
 30
0.0
 11
11780.10162798446
 21
715.4060611609828
 31
0.0
  0
LINE
  5
214F1
330
21093
100
AcDbEntity
  8
YODOROGO
100
AcDbLine
 10
11714.10162798447
 20
640.4060611609828
 30
0.0
 11
11780.10162798446
 21
640.4060611609828
 31
0.0
  0
LINE
  5
214F2
330
21093
100
AcDbEntity
  8
YODOROGO
100
AcDbLine
 10
11780.10162798446
 20
736.4060611609825
 30
0.0
 11
11780.10162798446
 21
760.4060611609829
 31
0.0
  0
ARC
  5
214F3
330
21093
100
AcDbEntity
  8
YODOROGO
100
AcDbCircle
 10
11858.10162798446
 20
751.4060611609817
 30
0.0
 40
5.999999999997952
100
AcDbArc
 50
270.0
 51
0.0000000000081422
  0
LINE
  5
214F4
330
21093
100
AcDbEntity
  8
YODOROGO
100
AcDbLine
 10
11864.10162798447
 20
760.4060611609829
 30
0.0
 11
11864.10162798447
 21
751.4060611609825
 31
0.0
  0
LINE
  5
214F5
330
21093
100
AcDbEntity
  8
YODOROGO
100
AcDbLine
 10
11888.10162798447
 20
760.4060611609829
 30
0.0
 11
11864.10162798447
 21
760.4060611609829
 31
0.0
  0
LINE
  5
214F6
330
21093
100
AcDbEntity
  8
YODOROGO
100
AcDbLine
 10
11888.10162798447
 20
733.4060611609828
 30
0.0
 11
11888.10162798447
 21
760.4060611609829
 31
0.0
  0
ARC
  5
214F7
330
21093
100
AcDbEntity
  8
YODOROGO
100
AcDbCircle
 10
11873.10162798447
 20
733.4060611609828
 30
0.0
 40
15.0
100
AcDbArc
 50
270.0
 51
0.0
  0
LINE
  5
214F8
330
21093
100
AcDbEntity
  8
YODOROGO
100
AcDbLine
 10
11888.10162798447
 20
679.4060611609832
 30
0.0
 11
11888.10162798447
 21
703.4060611609828
 31
0.0
  0
LINE
  5
214F9
330
21093
100
AcDbEntity
  8
YODOROGO
100
AcDbLine
 10
11870.10162798446
 20
679.4060611609832
 30
0.0
 11
11888.10162798447
 21
679.4060611609832
 31
0.0
  0
LINE
  5
214FA
330
21093
100
AcDbEntity
  8
SUNPOU
100
AcDbLine
 10
5056.828096214245
 20
8003.194632209918
 30
0.0
 11
5056.828096214245
 21
8175.802125207463
 31
0.0
  0
LINE
  5
214FB
330
21093
100
AcDbEntity
  8
SUNPOU
100
AcDbLine
 10
5294.828096214242
 20
7760.802125207462
 30
0.0
 11
5294.828096214242
 21
8175.802125207463
 31
0.0
  0
LINE
  5
214FC
330
21093
100
AcDbEntity
  8
SUNPOU
100
AcDbLine
 10
5071.828096214241
 20
8130.802125207463
 30
0.0
 11
5279.828096214242
 21
8130.802125207463
 31
0.0
  0
LINE
  5
214FD
330
21093
100
AcDbEntity
  8
SUNPOU
100
AcDbLine
 10
2656.828096214242
 20
8003.194632209918
 30
0.0
 11
2656.828096214242
 21
8175.802125207463
 31
0.0
  0
LINE
  5
214FE
330
21093
100
AcDbEntity
  8
SUNPOU
100
AcDbLine
 10
5056.828096214242
 20
8003.194632209918
 30
0.0
 11
5056.828096214242
 21
8175.802125207463
 31
0.0
  0
LINE
  5
214FF
330
21093
100
AcDbEntity
  8
SUNPOU
100
AcDbLine
 10
2671.828096214242
 20
8130.802125207463
 30
0.0
 11
5041.828096214242
 21
8130.802125207463
 31
0.0
  0
LINE
  5
21500
330
21093
100
AcDbEntity
  8
SUNPOU
100
AcDbLine
 10
2656.828096214242
 20
8003.194632209918
 30
0.0
 11
2656.828096214242
 21
8175.802125207463
 31
0.0
  0
LINE
  5
21501
330
21093
100
AcDbEntity
  8
SUNPOU
100
AcDbLine
 10
2418.828096214242
 20
7760.802125207462
 30
0.0
 11
2418.828096214242
 21
8175.802125207463
 31
0.0
  0
LINE
  5
21502
330
21093
100
AcDbEntity
  8
SUNPOU
100
AcDbLine
 10
2641.828096214242
 20
8130.802125207463
 30
0.0
 11
2433.828096214242
 21
8130.802125207463
 31
0.0
  0
ARC
  5
21503
330
21093
100
AcDbEntity
  8
SUNPOU
100
AcDbCircle
 10
9654.758285975756
 20
4501.391364710045
 30
0.0
 40
5.625
100
AcDbArc
 50
180.0
 51
0.0
  0
ARC
  5
21504
330
21093
100
AcDbEntity
  8
SUNPOU
100
AcDbCircle
 10
9654.758285975756
 20
4501.391364710045
 30
0.0
 40
5.625
100
AcDbArc
 50
0.0
 51
180.0
  0
ARC
  5
21505
330
21093
100
AcDbEntity
  8
SUNPOU
100
AcDbCircle
 10
10050.15471383728
 20
3615.582642126956
 30
0.0
 40
5.625
100
AcDbArc
 50
270.0
 51
90.0
  0
ARC
  5
21506
330
21093
100
AcDbEntity
  8
SUNPOU
100
AcDbCircle
 10
10050.15471383728
 20
3615.582642126956
 30
0.0
 40
5.625
100
AcDbArc
 50
90.0
 51
270.0
  0
ARC
  5
21507
330
21093
100
AcDbEntity
  8
SUNPOU
100
AcDbCircle
 10
9259.195413504356
 20
4249.840809951585
 30
0.0
 40
5.624999999999927
100
AcDbArc
 50
177.1290390148517
 51
357.1290390148516
  0
ARC
  5
21508
330
21093
100
AcDbEntity
  8
SUNPOU
100
AcDbCircle
 10
9259.195413504356
 20
4249.840809951585
 30
0.0
 40
5.624999999999927
100
AcDbArc
 50
357.1290390148516
 51
177.1290390148517
  0
ARC
  5
21509
330
21093
100
AcDbEntity
  8
SUNPOU
100
AcDbCircle
 10
8669.935939761977
 20
4279.391996135083
 30
0.0
 40
5.625000000001696
100
AcDbArc
 50
177.1290390148618
 51
357.1290390148619
  0
ARC
  5
2150A
330
21093
100
AcDbEntity
  8
SUNPOU
100
AcDbCircle
 10
8669.935939761977
 20
4279.391996135083
 30
0.0
 40
5.625000000001696
100
AcDbArc
 50
357.1290390148619
 51
177.1290390148618
  0
ARC
  5
2150B
330
21093
100
AcDbEntity
  8
SUNPOU
100
AcDbCircle
 10
8669.935939761977
 20
4279.391996135083
 30
0.0
 40
5.625000000001696
100
AcDbArc
 50
357.1290390148619
 51
177.1290390148618
  0
ARC
  5
2150C
330
21093
100
AcDbEntity
  8
SUNPOU
100
AcDbCircle
 10
8669.935939761977
 20
4279.391996135083
 30
0.0
 40
5.625000000001696
100
AcDbArc
 50
177.1290390148618
 51
357.1290390148619
  0
ARC
  5
2150D
330
21093
100
AcDbEntity
  8
SUNPOU
100
AcDbCircle
 10
8080.676466019594
 20
4308.943182318582
 30
0.0
 40
5.624999999999927
100
AcDbArc
 50
357.1290390148516
 51
177.1290390148517
  0
ARC
  5
2150E
330
21093
100
AcDbEntity
  8
SUNPOU
100
AcDbCircle
 10
8080.676466019594
 20
4308.943182318582
 30
0.0
 40
5.624999999999927
100
AcDbArc
 50
177.1290390148517
 51
357.1290390148516
  0
ARC
  5
2150F
330
21093
100
AcDbEntity
  8
SUNPOU
100
AcDbCircle
 10
7654.758285975757
 20
4501.391364710045
 30
0.0
 40
5.625
100
AcDbArc
 50
0.0
 51
180.0
  0
ARC
  5
21510
330
21093
100
AcDbEntity
  8
SUNPOU
100
AcDbCircle
 10
7654.758285975757
 20
4501.391364710045
 30
0.0
 40
5.625
100
AcDbArc
 50
180.0
 51
0.0
  0
ARC
  5
21511
330
21093
100
AcDbEntity
  8
SUNPOU
100
AcDbCircle
 10
10050.15471383728
 20
1786.805063765605
 30
0.0
 40
5.625
100
AcDbArc
 50
90.0
 51
270.0
  0
ARC
  5
21512
330
21093
100
AcDbEntity
  8
SUNPOU
100
AcDbCircle
 10
10050.15471383728
 20
1786.805063765605
 30
0.0
 40
5.625
100
AcDbArc
 50
270.0
 51
90.0
  0
ARC
  5
21513
330
21093
100
AcDbEntity
  8
SUNPOU
100
AcDbCircle
 10
7400.777754625882
 20
3991.39136471004
 30
0.0
 40
5.625
100
AcDbArc
 50
90.0
 51
270.0
  0
ARC
  5
21514
330
21093
100
AcDbEntity
  8
SUNPOU
100
AcDbCircle
 10
7400.777754625882
 20
3991.39136471004
 30
0.0
 40
5.625
100
AcDbArc
 50
270.0
 51
90.0
  0
ARC
  5
21515
330
21093
100
AcDbEntity
  8
SUNPOU
100
AcDbCircle
 10
7400.777754625882
 20
3893.514367376559
 30
0.0
 40
5.625
100
AcDbArc
 50
270.0
 51
90.0
  0
ARC
  5
21516
330
21093
100
AcDbEntity
  8
SUNPOU
100
AcDbCircle
 10
7400.777754625882
 20
3893.514367376559
 30
0.0
 40
5.625
100
AcDbArc
 50
90.0
 51
270.0
  0
ARC
  5
21517
330
21093
100
AcDbEntity
  8
SUNPOU
100
AcDbCircle
 10
7400.777754625882
 20
3893.514367376559
 30
0.0
 40
5.625
100
AcDbArc
 50
270.0
 51
90.0
  0
ARC
  5
21518
330
21093
100
AcDbEntity
  8
SUNPOU
100
AcDbCircle
 10
7400.777754625882
 20
3893.514367376559
 30
0.0
 40
5.625
100
AcDbArc
 50
90.0
 51
270.0
  0
ARC
  5
21519
330
21093
100
AcDbEntity
  8
SUNPOU
100
AcDbCircle
 10
7400.777754625882
 20
1786.805063765603
 30
0.0
 40
5.625
100
AcDbArc
 50
90.0
 51
270.0
  0
ARC
  5
2151A
330
21093
100
AcDbEntity
  8
SUNPOU
100
AcDbCircle
 10
7400.777754625882
 20
1786.805063765603
 30
0.0
 40
5.625
100
AcDbArc
 50
270.0
 51
90.0
  0
ARC
  5
2151B
330
21093
100
AcDbEntity
  8
SUNPOU
100
AcDbCircle
 10
4856.828096214241
 20
4711.740775902097
 30
0.0
 40
5.625
100
AcDbArc
 50
180.0
 51
0.0
  0
ARC
  5
2151C
330
21093
100
AcDbEntity
  8
SUNPOU
100
AcDbCircle
 10
4856.828096214241
 20
4711.740775902097
 30
0.0
 40
5.625
100
AcDbArc
 50
0.0
 51
180.0
  0
ARC
  5
2151D
330
21093
100
AcDbEntity
  8
SUNPOU
100
AcDbCircle
 10
4856.828096214241
 20
4501.740775902097
 30
0.0
 40
5.625
100
AcDbArc
 50
180.0
 51
0.0
  0
ARC
  5
2151E
330
21093
100
AcDbEntity
  8
SUNPOU
100
AcDbCircle
 10
4856.828096214241
 20
4501.740775902097
 30
0.0
 40
5.625
100
AcDbArc
 50
0.0
 51
180.0
  0
ARC
  5
2151F
330
21093
100
AcDbEntity
  8
SUNPOU
100
AcDbCircle
 10
5480.065042394514
 20
3608.805063765604
 30
0.0
 40
5.625
100
AcDbArc
 50
270.0
 51
90.0
  0
ARC
  5
21520
330
21093
100
AcDbEntity
  8
SUNPOU
100
AcDbCircle
 10
5480.065042394514
 20
3608.805063765604
 30
0.0
 40
5.625
100
AcDbArc
 50
90.0
 51
270.0
  0
ARC
  5
21521
330
21093
100
AcDbEntity
  8
SUNPOU
100
AcDbCircle
 10
3871.828096214241
 20
4501.740775902097
 30
0.0
 40
5.624999999999544
100
AcDbArc
 50
180.0
 51
0.0
  0
ARC
  5
21522
330
21093
100
AcDbEntity
  8
SUNPOU
100
AcDbCircle
 10
3871.828096214241
 20
4501.740775902097
 30
0.0
 40
5.624999999999544
100
AcDbArc
 50
0.0
 51
180.0
  0
ARC
  5
21523
330
21093
100
AcDbEntity
  8
SUNPOU
100
AcDbCircle
 10
3871.828096214241
 20
4501.740775902097
 30
0.0
 40
5.624999999999544
100
AcDbArc
 50
0.0
 51
180.0
  0
ARC
  5
21524
330
21093
100
AcDbEntity
  8
SUNPOU
100
AcDbCircle
 10
3871.828096214241
 20
4501.740775902097
 30
0.0
 40
5.624999999999544
100
AcDbArc
 50
180.0
 51
0.0
  0
ARC
  5
21525
330
21093
100
AcDbEntity
  8
SUNPOU
100
AcDbCircle
 10
2856.828096214242
 20
4711.740775902097
 30
0.0
 40
5.625
100
AcDbArc
 50
0.0
 51
180.0
  0
ARC
  5
21526
330
21093
100
AcDbEntity
  8
SUNPOU
100
AcDbCircle
 10
2856.828096214242
 20
4711.740775902097
 30
0.0
 40
5.625
100
AcDbArc
 50
180.0
 51
0.0
  0
ARC
  5
21527
330
21093
100
AcDbEntity
  8
SUNPOU
100
AcDbCircle
 10
2856.828096214242
 20
4501.740775902097
 30
0.0
 40
5.625
100
AcDbArc
 50
0.0
 51
180.0
  0
ARC
  5
21528
330
21093
100
AcDbEntity
  8
SUNPOU
100
AcDbCircle
 10
2856.828096214242
 20
4501.740775902097
 30
0.0
 40
5.625
100
AcDbArc
 50
180.0
 51
0.0
  0
ARC
  5
21529
330
21093
100
AcDbEntity
  8
SUNPOU
100
AcDbCircle
 10
5480.065042394514
 20
1786.805063765605
 30
0.0
 40
5.625
100
AcDbArc
 50
270.0
 51
90.0
  0
ARC
  5
2152A
330
21093
100
AcDbEntity
  8
SUNPOU
100
AcDbCircle
 10
5480.065042394514
 20
1786.805063765605
 30
0.0
 40
5.625
100
AcDbArc
 50
90.0
 51
270.0
  0
ARC
  5
2152B
330
21093
100
AcDbEntity
  8
SUNPOU
100
AcDbCircle
 10
5480.065042394514
 20
1736.805063765605
 30
0.0
 40
5.625
100
AcDbArc
 50
270.0
 51
90.0
  0
ARC
  5
2152C
330
21093
100
AcDbEntity
  8
SUNPOU
100
AcDbCircle
 10
5480.065042394514
 20
1736.805063765605
 30
0.0
 40
5.625
100
AcDbArc
 50
90.0
 51
270.0
  0
ARC
  5
2152D
330
21093
100
AcDbEntity
  8
SUNPOU
100
AcDbCircle
 10
5480.065042394514
 20
1786.805063765605
 30
0.0
 40
5.625
100
AcDbArc
 50
90.0
 51
270.0
  0
ARC
  5
2152E
330
21093
100
AcDbEntity
  8
SUNPOU
100
AcDbCircle
 10
5480.065042394514
 20
1786.805063765605
 30
0.0
 40
5.625
100
AcDbArc
 50
270.0
 51
90.0
  0
ARC
  5
2152F
330
21093
100
AcDbEntity
  8
SUNPOU
100
AcDbCircle
 10
2557.405649204295
 20
3991.740775902098
 30
0.0
 40
5.625
100
AcDbArc
 50
90.0
 51
270.0
  0
ARC
  5
21530
330
21093
100
AcDbEntity
  8
SUNPOU
100
AcDbCircle
 10
2557.405649204295
 20
3991.740775902098
 30
0.0
 40
5.625
100
AcDbArc
 50
270.0
 51
90.0
  0
ARC
  5
21531
330
21093
100
AcDbEntity
  8
SUNPOU
100
AcDbCircle
 10
2557.405649204295
 20
3893.740775902097
 30
0.0
 40
5.625
100
AcDbArc
 50
270.0
 51
90.0
  0
ARC
  5
21532
330
21093
100
AcDbEntity
  8
SUNPOU
100
AcDbCircle
 10
2557.405649204295
 20
3893.740775902097
 30
0.0
 40
5.625
100
AcDbArc
 50
90.0
 51
270.0
  0
ARC
  5
21533
330
21093
100
AcDbEntity
  8
SUNPOU
100
AcDbCircle
 10
2557.405649204295
 20
3893.740775902097
 30
0.0
 40
5.625
100
AcDbArc
 50
270.0
 51
90.0
  0
ARC
  5
21534
330
21093
100
AcDbEntity
  8
SUNPOU
100
AcDbCircle
 10
2557.405649204295
 20
3893.740775902097
 30
0.0
 40
5.625
100
AcDbArc
 50
90.0
 51
270.0
  0
ARC
  5
21535
330
21093
100
AcDbEntity
  8
SUNPOU
100
AcDbCircle
 10
2347.405649204295
 20
3991.740775902098
 30
0.0
 40
5.625
100
AcDbArc
 50
270.0
 51
90.0
  0
ARC
  5
21536
330
21093
100
AcDbEntity
  8
SUNPOU
100
AcDbCircle
 10
2347.405649204295
 20
3991.740775902098
 30
0.0
 40
5.625
100
AcDbArc
 50
90.0
 51
270.0
  0
ARC
  5
21537
330
21093
100
AcDbEntity
  8
SUNPOU
100
AcDbCircle
 10
2557.405649204295
 20
1786.805063765603
 30
0.0
 40
5.625
100
AcDbArc
 50
90.0
 51
270.0
  0
ARC
  5
21538
330
21093
100
AcDbEntity
  8
SUNPOU
100
AcDbCircle
 10
2557.405649204295
 20
1786.805063765603
 30
0.0
 40
5.625
100
AcDbArc
 50
270.0
 51
90.0
  0
ARC
  5
21539
330
21093
100
AcDbEntity
  8
SUNPOU
100
AcDbCircle
 10
2347.405649204295
 20
1786.805063765603
 30
0.0
 40
5.625
100
AcDbArc
 50
90.0
 51
270.0
  0
ARC
  5
2153A
330
21093
100
AcDbEntity
  8
SUNPOU
100
AcDbCircle
 10
2347.405649204295
 20
1786.805063765603
 30
0.0
 40
5.625
100
AcDbArc
 50
270.0
 51
90.0
  0
TEXT
  5
2153B
330
21093
100
AcDbEntity
  8
SUNPOU
100
AcDbText
 10
5090.113810499958
 20
8175.802125207463
 30
0.0
 40
90.0
  1
238
 41
0.6666666666666666
  7
00
100
AcDbText
  0
LINE
  5
2153C
330
21093
100
AcDbEntity
  8
SUNPOU
100
AcDbLine
 10
5283.578096214245
 20
8130.802125207463
 30
0.0
 11
5272.328096214245
 21
8130.802125207463
 31
0.0
  0
LINE
  5
2153D
330
21093
100
AcDbEntity
  8
SUNPOU
100
AcDbLine
 10
5068.078096214242
 20
8130.802125207463
 30
0.0
 11
5079.328096214242
 21
8130.802125207463
 31
0.0
  0
TEXT
  5
2153E
330
21093
100
AcDbEntity
  8
SUNPOU
100
AcDbText
 10
3742.542381928528
 20
8175.802125207461
 30
0.0
 40
90.0
  1
2400
 41
0.6666666666666666
  7
00
100
AcDbText
  0
LINE
  5
2153F
330
21093
100
AcDbEntity
  8
SUNPOU
100
AcDbLine
 10
5045.578096214242
 20
8130.802125207463
 30
0.0
 11
5034.328096214242
 21
8130.802125207463
 31
0.0
  0
LINE
  5
21540
330
21093
100
AcDbEntity
  8
SUNPOU
100
AcDbLine
 10
2668.078096214242
 20
8130.802125207463
 30
0.0
 11
2679.328096214242
 21
8130.802125207463
 31
0.0
  0
TEXT
  5
21541
330
21093
100
AcDbEntity
  8
SUNPOU
100
AcDbText
 10
2452.113810499957
 20
8175.802125207463
 30
0.0
 40
90.0
  1
238
 41
0.6666666666666666
  7
00
100
AcDbText
  0
LINE
  5
21542
330
21093
100
AcDbEntity
  8
SUNPOU
100
AcDbLine
 10
2430.078096214242
 20
8130.802125207463
 30
0.0
 11
2441.328096214242
 21
8130.802125207463
 31
0.0
  0
LINE
  5
21543
330
21093
100
AcDbEntity
  8
SUNPOU
100
AcDbLine
 10
2645.578096214242
 20
8130.802125207463
 30
0.0
 11
2634.328096214242
 21
8130.802125207463
 31
0.0
  0
ARC
  5
21544
330
21093
100
AcDbEntity
  8
SUNPOU
100
AcDbCircle
 10
5294.828096214242
 20
8130.802125207463
 30
0.0
 40
5.625
100
AcDbArc
 50
180.0
 51
0.0
  0
ARC
  5
21545
330
21093
100
AcDbEntity
  8
SUNPOU
100
AcDbCircle
 10
5294.828096214242
 20
8130.802125207463
 30
0.0
 40
5.625
100
AcDbArc
 50
0.0
 51
180.0
  0
ARC
  5
21546
330
21093
100
AcDbEntity
  8
SUNPOU
100
AcDbCircle
 10
5056.828096214245
 20
8130.802125207463
 30
0.0
 40
5.625
100
AcDbArc
 50
0.0
 51
180.0
  0
ARC
  5
21547
330
21093
100
AcDbEntity
  8
SUNPOU
100
AcDbCircle
 10
5056.828096214245
 20
8130.802125207463
 30
0.0
 40
5.625
100
AcDbArc
 50
180.0
 51
0.0
  0
ARC
  5
21548
330
21093
100
AcDbEntity
  8
SUNPOU
100
AcDbCircle
 10
5056.828096214242
 20
8130.802125207463
 30
0.0
 40
5.625
100
AcDbArc
 50
180.0
 51
0.0
  0
ARC
  5
21549
330
21093
100
AcDbEntity
  8
SUNPOU
100
AcDbCircle
 10
5056.828096214242
 20
8130.802125207463
 30
0.0
 40
5.625
100
AcDbArc
 50
0.0
 51
180.0
  0
ARC
  5
2154A
330
21093
100
AcDbEntity
  8
SUNPOU
100
AcDbCircle
 10
2656.828096214242
 20
8130.802125207463
 30
0.0
 40
5.625
100
AcDbArc
 50
0.0
 51
180.0
  0
ARC
  5
2154B
330
21093
100
AcDbEntity
  8
SUNPOU
100
AcDbCircle
 10
2656.828096214242
 20
8130.802125207463
 30
0.0
 40
5.625
100
AcDbArc
 50
180.0
 51
0.0
  0
ARC
  5
2154C
330
21093
100
AcDbEntity
  8
SUNPOU
100
AcDbCircle
 10
2418.828096214242
 20
8130.802125207463
 30
0.0
 40
5.625
100
AcDbArc
 50
0.0
 51
180.0
  0
ARC
  5
2154D
330
21093
100
AcDbEntity
  8
SUNPOU
100
AcDbCircle
 10
2418.828096214242
 20
8130.802125207463
 30
0.0
 40
5.625
100
AcDbArc
 50
180.0
 51
0.0
  0
ARC
  5
2154E
330
21093
100
AcDbEntity
  8
SUNPOU
100
AcDbCircle
 10
2656.828096214242
 20
8130.802125207463
 30
0.0
 40
5.625
100
AcDbArc
 50
180.0
 51
0.0
  0
ARC
  5
2154F
330
21093
100
AcDbEntity
  8
SUNPOU
100
AcDbCircle
 10
2656.828096214242
 20
8130.802125207463
 30
0.0
 40
5.625
100
AcDbArc
 50
0.0
 51
180.0
  0
CIRCLE
  5
21550
330
21093
100
AcDbEntity
  8
HIKIDASHI
100
AcDbCircle
 10
8660.154713837291
 20
1346.805063765603
 30
0.0
 40
6.0
  0
CIRCLE
  5
21551
330
21093
100
AcDbEntity
  8
HIKIDASHI
100
AcDbCircle
 10
8660.154713837291
 20
1306.805063765603
 30
0.0
 40
6.0
  0
LINE
  5
21552
330
21093
100
AcDbEntity
  8
HIKIDASHI
100
AcDbLine
 10
8718.754225375903
 20
1338.775319432958
 30
0.0
 11
8665.792869562004
 21
1308.857184625558
 31
0.0
  0
LINE
  5
21553
330
21093
100
AcDbEntity
  8
HIKIDASHI
100
AcDbLine
 10
8665.792869562004
 20
1308.857184625558
 30
0.0
 11
8725.594628242417
 21
1319.98146701724
 31
0.0
  0
SOLID
  5
21554
330
21093
100
AcDbEntity
  8
HIKIDASHI
100
AcDbTrace
 10
8718.754225375903
 20
1338.775319432958
 30
0.0
 11
8725.594628242417
 21
1319.98146701724
 31
0.0
 12
8665.792869562004
 22
1308.857184625558
 32
0.0
 13
8665.792869562004
 23
1308.857184625558
 33
0.0
  0
LINE
  5
21555
330
21093
100
AcDbEntity
  8
HIKIDASHI
100
AcDbLine
 10
8725.594628242417
 20
1319.98146701724
 30
0.0
 11
8718.754225375903
 21
1338.775319432958
 31
0.0
  0
LINE
  5
21556
330
21093
100
AcDbEntity
  8
HIKIDASHI
100
AcDbLine
 10
8491.496922034201
 20
3697.012899537398
 30
0.0
 11
8410.544375158796
 21
3425.340745024625
 31
0.0
1001
ACAD
1000
DSTYLE
1002
{
1070
   147
1040
1.5
1070
    77
1070
     0
1002
}
  0
LINE
  5
21557
330
21093
100
AcDbEntity
  8
HIKIDASHI
100
AcDbLine
 10
8505.872288446196
 20
3692.729344877903
 30
0.0
 11
8517.198249991173
 21
3783.265098009369
 31
0.0
  0
LINE
  5
21558
330
21093
100
AcDbEntity
  8
HIKIDASHI
100
AcDbLine
 10
8517.198249991173
 20
3783.265098009369
 30
0.0
 11
8477.121555622202
 21
3701.296454196892
 31
0.0
  0
SOLID
  5
21559
330
21093
100
AcDbEntity
  8
HIKIDASHI
100
AcDbTrace
 10
8505.872288446196
 20
3692.729344877903
 30
0.0
 11
8477.121555622202
 21
3701.296454196892
 31
0.0
 12
8517.198249991173
 22
3783.265098009369
 32
0.0
 13
8517.198249991173
 23
3783.265098009369
 33
0.0
  0
LINE
  5
2155A
330
21093
100
AcDbEntity
  8
HIKIDASHI
100
AcDbLine
 10
8477.121555622202
 20
3701.296454196892
 30
0.0
 11
8505.872288446196
 21
3692.729344877903
 31
0.0
  0
LINE
  5
2155B
330
21093
100
AcDbEntity
  8
HIKIDASHI
100
AcDbLine
 10
7968.021599806498
 20
3969.262588588069
 30
0.0
 11
7479.503940278708
 21
4291.740775902098
 31
0.0
1001
ACAD
1000
DSTYLE
1002
{
1070
   147
1040
1.5
1070
    77
1070
     0
1002
}
  0
LINE
  5
2155C
330
21093
100
AcDbEntity
  8
HIKIDASHI
100
AcDbLine
 10
7959.757957612902
 20
3956.744113533324
 30
0.0
 11
8043.132450134962
 21
3919.680735426501
 31
0.0
  0
LINE
  5
2155D
330
21093
100
AcDbEntity
  8
HIKIDASHI
100
AcDbLine
 10
8043.132450134962
 20
3919.680735426501
 30
0.0
 11
7976.285242000092
 21
3981.781063642812
 31
0.0
  0
SOLID
  5
2155E
330
21093
100
AcDbEntity
  8
HIKIDASHI
100
AcDbTrace
 10
7959.757957612902
 20
3956.744113533324
 30
0.0
 11
7976.285242000092
 21
3981.781063642812
 31
0.0
 12
8043.132450134962
 22
3919.680735426501
 32
0.0
 13
8043.132450134962
 23
3919.680735426501
 33
0.0
  0
LINE
  5
2155F
330
21093
100
AcDbEntity
  8
HIKIDASHI
100
AcDbLine
 10
7976.285242000092
 20
3981.781063642812
 30
0.0
 11
7959.757957612902
 21
3956.744113533324
 31
0.0
  0
LINE
  5
21560
330
21093
100
AcDbEntity
  8
HIKIDASHI
100
AcDbLine
 10
8762.406930721303
 20
2286.679443287057
 30
0.0
 11
8910.510617964286
 21
2432.637663742353
 31
0.0
1001
ACAD
1000
DSTYLE
1002
{
1070
   147
1040
1.5
1070
    77
1070
     0
1002
}
  0
LINE
  5
21561
330
21093
100
AcDbEntity
  8
HIKIDASHI
100
AcDbLine
 10
8751.877994679039
 20
2297.363146101059
 30
0.0
 11
8698.304713837293
 21
2223.505827033469
 31
0.0
  0
LINE
  5
21562
330
21093
100
AcDbEntity
  8
HIKIDASHI
100
AcDbLine
 10
8698.304713837293
 20
2223.505827033469
 30
0.0
 11
8772.935866763567
 21
2275.995740473055
 31
0.0
  0
SOLID
  5
21563
330
21093
100
AcDbEntity
  8
HIKIDASHI
100
AcDbTrace
 10
8751.877994679039
 20
2297.363146101059
 30
0.0
 11
8772.935866763567
 21
2275.995740473055
 31
0.0
 12
8698.304713837293
 22
2223.505827033469
 32
0.0
 13
8698.304713837293
 23
2223.505827033469
 33
0.0
  0
LINE
  5
21564
330
21093
100
AcDbEntity
  8
HIKIDASHI
100
AcDbLine
 10
8772.935866763567
 20
2275.995740473055
 30
0.0
 11
8751.877994679039
 21
2297.363146101059
 31
0.0
  0
LINE
  5
21565
330
21093
100
AcDbEntity
  8
HIKIDASHI
100
AcDbLine
 10
9453.209399157788
 20
3608.201192776054
 30
0.0
 11
8842.22513081343
 21
3174.053961503393
 31
0.0
1001
ACAD
1000
DSTYLE
1002
{
1070
   147
1040
1.5
1070
    77
1070
     0
1002
}
  0
LINE
  5
21566
330
21093
100
AcDbEntity
  8
HIKIDASHI
100
AcDbLine
 10
8842.22513081343
 20
3174.053961503393
 30
0.0
 11
8957.723141051621
 21
2915.916270012596
 31
0.0
1001
ACAD
1000
DSTYLE
1002
{
1070
   147
1040
1.5
1070
    77
1070
     0
1002
}
  0
LINE
  5
21567
330
21093
100
AcDbEntity
  8
HIKIDASHI
100
AcDbLine
 10
9461.897862945601
 20
3595.973740179219
 30
0.0
 11
9526.574114738799
 21
3660.331975502935
 31
0.0
  0
LINE
  5
21568
330
21093
100
AcDbEntity
  8
HIKIDASHI
100
AcDbLine
 10
9526.574114738799
 20
3660.331975502935
 30
0.0
 11
9444.520935369972
 21
3620.428645372889
 31
0.0
  0
SOLID
  5
21569
330
21093
100
AcDbEntity
  8
HIKIDASHI
100
AcDbTrace
 10
9461.897862945601
 20
3595.973740179219
 30
0.0
 11
9444.520935369972
 21
3620.428645372889
 31
0.0
 12
9526.574114738799
 22
3660.331975502935
 32
0.0
 13
9526.574114738799
 23
3660.331975502935
 33
0.0
  0
LINE
  5
2156A
330
21093
100
AcDbEntity
  8
HIKIDASHI
100
AcDbLine
 10
9444.520935369972
 20
3620.428645372889
 30
0.0
 11
9461.897862945601
 21
3595.973740179219
 31
0.0
  0
ARC
  5
2156B
330
21093
100
AcDbEntity
  8
HIKIDASHI
100
AcDbCircle
 10
8660.154713837291
 20
1346.805063765603
 30
0.0
 40
3.0
100
AcDbArc
 50
180.0
 51
0.0
  0
ARC
  5
2156C
330
21093
100
AcDbEntity
  8
HIKIDASHI
100
AcDbCircle
 10
8660.154713837291
 20
1346.805063765603
 30
0.0
 40
3.0
100
AcDbArc
 50
0.0
 51
180.0
  0
ARC
  5
2156D
330
21093
100
AcDbEntity
  8
HIKIDASHI
100
AcDbCircle
 10
8660.154713837291
 20
1306.805063765603
 30
0.0
 40
3.0
100
AcDbArc
 50
180.0
 51
0.0
  0
ARC
  5
2156E
330
21093
100
AcDbEntity
  8
HIKIDASHI
100
AcDbCircle
 10
8660.154713837291
 20
1306.805063765603
 30
0.0
 40
3.0
100
AcDbArc
 50
0.0
 51
180.0
  0
LINE
  5
2156F
330
21093
100
AcDbEntity
  8
HATCH
100
AcDbLine
 10
8256.287200377814
 20
1186.805063765603
 30
0.0
 11
8314.022227296776
 21
1286.805063765603
 31
0.0
  0
LINE
  5
21570
330
21093
100
AcDbEntity
  8
HATCH
100
AcDbLine
 10
8274.022227296777
 20
1286.805063765602
 30
0.0
 11
8294.022227296776
 21
1252.164047614227
 31
0.0
  0
LINE
  5
21571
330
21093
100
AcDbEntity
  8
HATCH
100
AcDbLine
 10
8276.287200377813
 20
1221.446079916981
 30
0.0
 11
8296.287200377815
 21
1186.805063765603
 31
0.0
  0
LINE
  5
21572
330
21093
100
AcDbEntity
  8
HATCH
100
AcDbLine
 10
8381.28720037781
 20
1186.805063765604
 30
0.0
 11
8439.022227296772
 21
1286.805063765604
 31
0.0
  0
LINE
  5
21573
330
21093
100
AcDbEntity
  8
HATCH
100
AcDbLine
 10
8399.022227296773
 20
1286.805063765603
 30
0.0
 11
8419.022227296773
 21
1252.164047614228
 31
0.0
  0
LINE
  5
21574
330
21093
100
AcDbEntity
  8
HATCH
100
AcDbLine
 10
8401.28720037781
 20
1221.446079916983
 30
0.0
 11
8421.287200377809
 21
1186.805063765604
 31
0.0
  0
LINE
  5
21575
330
21093
100
AcDbEntity
  8
HATCH
100
AcDbLine
 10
9006.28720037781
 20
1186.805063765605
 30
0.0
 11
9064.022227296772
 21
1286.805063765605
 31
0.0
  0
LINE
  5
21576
330
21093
100
AcDbEntity
  8
HATCH
100
AcDbLine
 10
9024.022227296773
 20
1286.805063765604
 30
0.0
 11
9044.022227296773
 21
1252.16404761423
 31
0.0
  0
LINE
  5
21577
330
21093
100
AcDbEntity
  8
HATCH
100
AcDbLine
 10
9026.28720037781
 20
1221.446079916984
 30
0.0
 11
9046.287200377809
 21
1186.805063765605
 31
0.0
  0
LINE
  5
21578
330
21093
100
AcDbEntity
  8
HATCH
100
AcDbLine
 10
8881.28720037781
 20
1186.805063765605
 30
0.0
 11
8939.022227296772
 21
1286.805063765605
 31
0.0
  0
LINE
  5
21579
330
21093
100
AcDbEntity
  8
HATCH
100
AcDbLine
 10
8899.022227296773
 20
1286.805063765604
 30
0.0
 11
8919.022227296773
 21
1252.16404761423
 31
0.0
  0
LINE
  5
2157A
330
21093
100
AcDbEntity
  8
HATCH
100
AcDbLine
 10
8901.28720037781
 20
1221.446079916984
 30
0.0
 11
8921.287200377809
 21
1186.805063765605
 31
0.0
  0
LINE
  5
2157B
330
21093
100
AcDbEntity
  8
HATCH
100
AcDbLine
 10
8631.28720037781
 20
1186.805063765605
 30
0.0
 11
8689.022227296772
 21
1286.805063765605
 31
0.0
  0
LINE
  5
2157C
330
21093
100
AcDbEntity
  8
HATCH
100
AcDbLine
 10
8649.022227296773
 20
1286.805063765604
 30
0.0
 11
8669.022227296773
 21
1252.16404761423
 31
0.0
  0
LINE
  5
2157D
330
21093
100
AcDbEntity
  8
HATCH
100
AcDbLine
 10
8651.28720037781
 20
1221.446079916984
 30
0.0
 11
8671.287200377809
 21
1186.805063765605
 31
0.0
  0
LINE
  5
2157E
330
21093
100
AcDbEntity
  8
HATCH
100
AcDbLine
 10
8506.28720037781
 20
1186.805063765605
 30
0.0
 11
8564.022227296772
 21
1286.805063765605
 31
0.0
  0
LINE
  5
2157F
330
21093
100
AcDbEntity
  8
HATCH
100
AcDbLine
 10
8524.022227296773
 20
1286.805063765604
 30
0.0
 11
8544.022227296773
 21
1252.16404761423
 31
0.0
  0
LINE
  5
21580
330
21093
100
AcDbEntity
  8
HATCH
100
AcDbLine
 10
8526.28720037781
 20
1221.446079916984
 30
0.0
 11
8546.287200377809
 21
1186.805063765605
 31
0.0
  0
LINE
  5
21581
330
21093
100
AcDbEntity
  8
HATCH
100
AcDbLine
 10
8756.28720037781
 20
1186.805063765605
 30
0.0
 11
8814.022227296772
 21
1286.805063765605
 31
0.0
  0
LINE
  5
21582
330
21093
100
AcDbEntity
  8
HATCH
100
AcDbLine
 10
8774.022227296773
 20
1286.805063765604
 30
0.0
 11
8794.022227296773
 21
1252.16404761423
 31
0.0
  0
LINE
  5
21583
330
21093
100
AcDbEntity
  8
HATCH
100
AcDbLine
 10
8776.28720037781
 20
1221.446079916984
 30
0.0
 11
8796.287200377809
 21
1186.805063765605
 31
0.0
  0
CIRCLE
  5
21584
330
21093
100
AcDbEntity
  8
HATCH
100
AcDbCircle
 10
5249.206542960404
 20
5502.014820159625
 30
0.0
 40
5.0
  0
CIRCLE
  5
21585
330
21093
100
AcDbEntity
  8
HATCH
100
AcDbCircle
 10
5099.206542960406
 20
5502.014820159625
 30
0.0
 40
5.0
  0
CIRCLE
  5
21586
330
21093
100
AcDbEntity
  8
HATCH
100
AcDbCircle
 10
4949.206542960404
 20
5502.014820159625
 30
0.0
 40
5.0
  0
CIRCLE
  5
21587
330
21093
100
AcDbEntity
  8
HATCH
100
AcDbCircle
 10
4799.206542960402
 20
5502.014820159625
 30
0.0
 40
5.0
  0
CIRCLE
  5
21588
330
21093
100
AcDbEntity
  8
HATCH
100
AcDbCircle
 10
4649.206542960405
 20
5502.014820159625
 30
0.0
 40
5.0
  0
CIRCLE
  5
21589
330
21093
100
AcDbEntity
  8
HATCH
100
AcDbCircle
 10
4499.206542960404
 20
5502.014820159625
 30
0.0
 40
5.0
  0
CIRCLE
  5
2158A
330
21093
100
AcDbEntity
  8
HATCH
100
AcDbCircle
 10
4349.206542960405
 20
5502.014820159625
 30
0.0
 40
5.0
  0
CIRCLE
  5
2158B
330
21093
100
AcDbEntity
  8
HATCH
100
AcDbCircle
 10
4049.206542960404
 20
5502.014820159625
 30
0.0
 40
5.0
  0
CIRCLE
  5
2158C
330
21093
100
AcDbEntity
  8
HATCH
100
AcDbCircle
 10
4199.206542960406
 20
5502.014820159625
 30
0.0
 40
5.0
  0
CIRCLE
  5
2158D
330
21093
100
AcDbEntity
  8
HATCH
100
AcDbCircle
 10
3899.206542960404
 20
5502.014820159625
 30
0.0
 40
5.0
  0
CIRCLE
  5
2158E
330
21093
100
AcDbEntity
  8
HATCH
100
AcDbCircle
 10
3749.206542960404
 20
5502.014820159625
 30
0.0
 40
5.0
  0
CIRCLE
  5
2158F
330
21093
100
AcDbEntity
  8
HATCH
100
AcDbCircle
 10
3599.206542960404
 20
5502.014820159625
 30
0.0
 40
5.0
  0
CIRCLE
  5
21590
330
21093
100
AcDbEntity
  8
HATCH
100
AcDbCircle
 10
3449.206542960403
 20
5502.014820159625
 30
0.0
 40
5.0
  0
CIRCLE
  5
21591
330
21093
100
AcDbEntity
  8
HATCH
100
AcDbCircle
 10
3299.206542960404
 20
5502.014820159625
 30
0.0
 40
5.0
  0
CIRCLE
  5
21592
330
21093
100
AcDbEntity
  8
HATCH
100
AcDbCircle
 10
3149.206542960404
 20
5502.014820159625
 30
0.0
 40
5.0
  0
CIRCLE
  5
21593
330
21093
100
AcDbEntity
  8
HATCH
100
AcDbCircle
 10
2999.206542960404
 20
5502.014820159625
 30
0.0
 40
5.0
  0
CIRCLE
  5
21594
330
21093
100
AcDbEntity
  8
HATCH
100
AcDbCircle
 10
2849.206542960404
 20
5502.014820159625
 30
0.0
 40
5.0
  0
CIRCLE
  5
21595
330
21093
100
AcDbEntity
  8
HATCH
100
AcDbCircle
 10
2699.206542960403
 20
5502.014820159625
 30
0.0
 40
5.0
  0
CIRCLE
  5
21596
330
21093
100
AcDbEntity
  8
HATCH
100
AcDbCircle
 10
2549.206542960404
 20
5502.014820159625
 30
0.0
 40
5.0
  0
CIRCLE
  5
21597
330
21093
100
AcDbEntity
  8
HATCH
100
AcDbCircle
 10
2399.206542960404
 20
5502.014820159625
 30
0.0
 40
5.0
  0
LINE
  5
21598
330
21093
100
AcDbEntity
  8
HATCH
100
AcDbLine
 10
9735.513697685968
 20
1636.805063765606
 30
0.0
 11
9770.154713837371
 21
1696.805063765642
 31
0.0
  0
LINE
  5
21599
330
21093
100
AcDbEntity
  8
HATCH
100
AcDbLine
 10
9746.154713837352
 20
1696.805063765642
 30
0.0
 11
9758.15471383736
 21
1676.020454074804
 31
0.0
  0
LINE
  5
2159A
330
21093
100
AcDbEntity
  8
HATCH
100
AcDbLine
 10
9747.513697685977
 20
1657.589673456445
 30
0.0
 11
9759.513697685983
 21
1636.805063765606
 31
0.0
  0
LINE
  5
2159B
330
21093
100
AcDbEntity
  8
HATCH
100
AcDbLine
 10
9645.51369768597
 20
1636.805063765606
 30
0.0
 11
9680.154713837367
 21
1696.805063765642
 31
0.0
  0
LINE
  5
2159C
330
21093
100
AcDbEntity
  8
HATCH
100
AcDbLine
 10
9656.154713837352
 20
1696.805063765642
 30
0.0
 11
9668.154713837363
 21
1676.020454074804
 31
0.0
  0
LINE
  5
2159D
330
21093
100
AcDbEntity
  8
HATCH
100
AcDbLine
 10
9657.513697685978
 20
1657.589673456445
 30
0.0
 11
9669.513697685983
 21
1636.805063765606
 31
0.0
  0
LINE
  5
2159E
330
21093
100
AcDbEntity
  8
HATCH
100
AcDbLine
 10
9825.513697685964
 20
1636.805063765606
 30
0.0
 11
9860.154713837365
 21
1696.805063765642
 31
0.0
  0
LINE
  5
2159F
330
21093
100
AcDbEntity
  8
HATCH
100
AcDbLine
 10
9836.154713837348
 20
1696.805063765642
 30
0.0
 11
9848.154713837356
 21
1676.020454074804
 31
0.0
  0
LINE
  5
215A0
330
21093
100
AcDbEntity
  8
HATCH
100
AcDbLine
 10
9837.513697685972
 20
1657.589673456445
 30
0.0
 11
9849.51369768598
 21
1636.805063765606
 31
0.0
  0
LINE
  5
215A1
330
21093
100
AcDbEntity
  8
HATCH
100
AcDbLine
 10
9555.513697685965
 20
1636.805063765605
 30
0.0
 11
9590.154713837364
 21
1696.805063765641
 31
0.0
  0
LINE
  5
215A2
330
21093
100
AcDbEntity
  8
HATCH
100
AcDbLine
 10
9566.154713837352
 20
1696.805063765641
 30
0.0
 11
9578.154713837355
 21
1676.020454074803
 31
0.0
  0
LINE
  5
215A3
330
21093
100
AcDbEntity
  8
HATCH
100
AcDbLine
 10
9567.513697685972
 20
1657.589673456445
 30
0.0
 11
9579.51369768598
 21
1636.805063765605
 31
0.0
  0
LINE
  5
215A4
330
21093
100
AcDbEntity
  8
HATCH
100
AcDbLine
 10
9375.513697685969
 20
1636.805063765605
 30
0.0
 11
9410.154713837368
 21
1696.805063765641
 31
0.0
  0
LINE
  5
215A5
330
21093
100
AcDbEntity
  8
HATCH
100
AcDbLine
 10
9386.154713837353
 20
1696.805063765641
 30
0.0
 11
9398.154713837362
 21
1676.020454074803
 31
0.0
  0
LINE
  5
215A6
330
21093
100
AcDbEntity
  8
HATCH
100
AcDbLine
 10
9387.513697685978
 20
1657.589673456445
 30
0.0
 11
9399.51369768598
 21
1636.805063765605
 31
0.0
  0
LINE
  5
215A7
330
21093
100
AcDbEntity
  8
HATCH
100
AcDbLine
 10
9465.513697685965
 20
1636.805063765606
 30
0.0
 11
9500.154713837366
 21
1696.805063765642
 31
0.0
  0
LINE
  5
215A8
330
21093
100
AcDbEntity
  8
HATCH
100
AcDbLine
 10
9476.154713837351
 20
1696.805063765642
 30
0.0
 11
9488.154713837355
 21
1676.020454074804
 31
0.0
  0
LINE
  5
215A9
330
21093
100
AcDbEntity
  8
HATCH
100
AcDbLine
 10
9477.513697685973
 20
1657.589673456445
 30
0.0
 11
9489.51369768598
 21
1636.805063765606
 31
0.0
  0
LINE
  5
215AA
330
21093
100
AcDbEntity
  8
HATCH
100
AcDbLine
 10
9285.513697685969
 20
1636.805063765605
 30
0.0
 11
9320.154713837368
 21
1696.805063765641
 31
0.0
  0
LINE
  5
215AB
330
21093
100
AcDbEntity
  8
HATCH
100
AcDbLine
 10
9296.154713837351
 20
1696.805063765641
 30
0.0
 11
9308.154713837359
 21
1676.020454074803
 31
0.0
  0
LINE
  5
215AC
330
21093
100
AcDbEntity
  8
HATCH
100
AcDbLine
 10
9297.513697685976
 20
1657.589673456445
 30
0.0
 11
9309.513697685986
 21
1636.805063765605
 31
0.0
  0
LINE
  5
215AD
330
21093
100
AcDbEntity
  8
HATCH
100
AcDbLine
 10
9105.513697685969
 20
1636.805063765605
 30
0.0
 11
9140.154713837368
 21
1696.805063765641
 31
0.0
  0
LINE
  5
215AE
330
21093
100
AcDbEntity
  8
HATCH
100
AcDbLine
 10
9116.154713837351
 20
1696.805063765641
 30
0.0
 11
9128.154713837359
 21
1676.020454074803
 31
0.0
  0
LINE
  5
215AF
330
21093
100
AcDbEntity
  8
HATCH
100
AcDbLine
 10
9117.513697685977
 20
1657.589673456445
 30
0.0
 11
9129.513697685986
 21
1636.805063765605
 31
0.0
  0
LINE
  5
215B0
330
21093
100
AcDbEntity
  8
HATCH
100
AcDbLine
 10
9195.513697685969
 20
1636.805063765605
 30
0.0
 11
9230.154713837368
 21
1696.805063765641
 31
0.0
  0
LINE
  5
215B1
330
21093
100
AcDbEntity
  8
HATCH
100
AcDbLine
 10
9206.154713837355
 20
1696.805063765641
 30
0.0
 11
9218.154713837359
 21
1676.020454074803
 31
0.0
  0
LINE
  5
215B2
330
21093
100
AcDbEntity
  8
HATCH
100
AcDbLine
 10
9207.513697685978
 20
1657.589673456445
 30
0.0
 11
9219.513697685981
 21
1636.805063765605
 31
0.0
  0
LINE
  5
215B3
330
21093
100
AcDbEntity
  8
HATCH
100
AcDbLine
 10
9015.513697685973
 20
1636.805063765605
 30
0.0
 11
9050.154713837372
 21
1696.805063765641
 31
0.0
  0
LINE
  5
215B4
330
21093
100
AcDbEntity
  8
HATCH
100
AcDbLine
 10
9026.154713837355
 20
1696.805063765641
 30
0.0
 11
9038.154713837364
 21
1676.020454074803
 31
0.0
  0
LINE
  5
215B5
330
21093
100
AcDbEntity
  8
HATCH
100
AcDbLine
 10
9027.51369768598
 20
1657.589673456445
 30
0.0
 11
9039.513697685988
 21
1636.805063765605
 31
0.0
  0
LINE
  5
215B6
330
21093
100
AcDbEntity
  8
HATCH
100
AcDbLine
 10
8250.154713837346
 20
1636.805063765603
 30
0.0
 11
8284.795729988745
 21
1696.80506376564
 31
0.0
  0
LINE
  5
215B7
330
21093
100
AcDbEntity
  8
HATCH
100
AcDbLine
 10
8260.795729988732
 20
1696.805063765639
 30
0.0
 11
8272.79572998874
 21
1676.020454074802
 31
0.0
  0
LINE
  5
215B8
330
21093
100
AcDbEntity
  8
HATCH
100
AcDbLine
 10
8262.154713837354
 20
1657.589673456443
 30
0.0
 11
8274.15471383736
 21
1636.805063765603
 31
0.0
  0
LINE
  5
215B9
330
21093
100
AcDbEntity
  8
HATCH
100
AcDbLine
 10
8160.154713837346
 20
1636.805063765603
 30
0.0
 11
8194.795729988745
 21
1696.80506376564
 31
0.0
  0
LINE
  5
215BA
330
21093
100
AcDbEntity
  8
HATCH
100
AcDbLine
 10
8170.79572998873
 20
1696.805063765639
 30
0.0
 11
8182.795729988738
 21
1676.020454074802
 31
0.0
  0
LINE
  5
215BB
330
21093
100
AcDbEntity
  8
HATCH
100
AcDbLine
 10
8172.154713837354
 20
1657.589673456443
 30
0.0
 11
8184.154713837362
 21
1636.805063765603
 31
0.0
  0
LINE
  5
215BC
330
21093
100
AcDbEntity
  8
HATCH
100
AcDbLine
 10
8070.154713837347
 20
1636.805063765603
 30
0.0
 11
8104.795729988744
 21
1696.80506376564
 31
0.0
  0
LINE
  5
215BD
330
21093
100
AcDbEntity
  8
HATCH
100
AcDbLine
 10
8080.79572998873
 20
1696.805063765639
 30
0.0
 11
8092.795729988738
 21
1676.020454074802
 31
0.0
  0
LINE
  5
215BE
330
21093
100
AcDbEntity
  8
HATCH
100
AcDbLine
 10
8082.154713837351
 20
1657.589673456443
 30
0.0
 11
8094.15471383736
 21
1636.805063765603
 31
0.0
  0
LINE
  5
215BF
330
21093
100
AcDbEntity
  8
HATCH
100
AcDbLine
 10
7890.154713837346
 20
1636.805063765603
 30
0.0
 11
7924.795729988744
 21
1696.80506376564
 31
0.0
  0
LINE
  5
215C0
330
21093
100
AcDbEntity
  8
HATCH
100
AcDbLine
 10
7900.795729988731
 20
1696.805063765639
 30
0.0
 11
7912.795729988737
 21
1676.020454074802
 31
0.0
  0
LINE
  5
215C1
330
21093
100
AcDbEntity
  8
HATCH
100
AcDbLine
 10
7902.154713837354
 20
1657.589673456443
 30
0.0
 11
7914.154713837359
 21
1636.805063765603
 31
0.0
  0
LINE
  5
215C2
330
21093
100
AcDbEntity
  8
HATCH
100
AcDbLine
 10
7980.154713837348
 20
1636.805063765603
 30
0.0
 11
8014.795729988746
 21
1696.80506376564
 31
0.0
  0
LINE
  5
215C3
330
21093
100
AcDbEntity
  8
HATCH
100
AcDbLine
 10
7990.79572998873
 20
1696.805063765639
 30
0.0
 11
8002.795729988738
 21
1676.020454074802
 31
0.0
  0
LINE
  5
215C4
330
21093
100
AcDbEntity
  8
HATCH
100
AcDbLine
 10
7992.154713837354
 20
1657.589673456443
 30
0.0
 11
8004.154713837362
 21
1636.805063765603
 31
0.0
  0
LINE
  5
215C5
330
21093
100
AcDbEntity
  8
HATCH
100
AcDbLine
 10
7800.154713837347
 20
1636.805063765603
 30
0.0
 11
7834.795729988747
 21
1696.80506376564
 31
0.0
  0
LINE
  5
215C6
330
21093
100
AcDbEntity
  8
HATCH
100
AcDbLine
 10
7810.79572998873
 20
1696.805063765639
 30
0.0
 11
7822.795729988738
 21
1676.020454074802
 31
0.0
  0
LINE
  5
215C7
330
21093
100
AcDbEntity
  8
HATCH
100
AcDbLine
 10
7812.154713837355
 20
1657.589673456443
 30
0.0
 11
7824.15471383736
 21
1636.805063765603
 31
0.0
  0
LINE
  5
215C8
330
21093
100
AcDbEntity
  8
HATCH
100
AcDbLine
 10
7710.154713837344
 20
1636.805063765603
 30
0.0
 11
7744.795729988743
 21
1696.80506376564
 31
0.0
  0
LINE
  5
215C9
330
21093
100
AcDbEntity
  8
HATCH
100
AcDbLine
 10
7720.795729988728
 20
1696.805063765639
 30
0.0
 11
7732.795729988734
 21
1676.020454074802
 31
0.0
  0
LINE
  5
215CA
330
21093
100
AcDbEntity
  8
HATCH
100
AcDbLine
 10
7722.154713837349
 20
1657.589673456443
 30
0.0
 11
7734.15471383736
 21
1636.805063765603
 31
0.0
  0
LINE
  5
215CB
330
21093
100
AcDbEntity
  8
HATCH
100
AcDbLine
 10
7530.154713837347
 20
1636.805063765603
 30
0.0
 11
7564.795729988744
 21
1696.80506376564
 31
0.0
  0
LINE
  5
215CC
330
21093
100
AcDbEntity
  8
HATCH
100
AcDbLine
 10
7540.79572998873
 20
1696.805063765639
 30
0.0
 11
7552.795729988734
 21
1676.020454074802
 31
0.0
  0
LINE
  5
215CD
330
21093
100
AcDbEntity
  8
HATCH
100
AcDbLine
 10
7542.15471383735
 20
1657.589673456443
 30
0.0
 11
7554.15471383736
 21
1636.805063765603
 31
0.0
  0
LINE
  5
215CE
330
21093
100
AcDbEntity
  8
HATCH
100
AcDbLine
 10
7440.154713837346
 20
1636.805063765603
 30
0.0
 11
7474.795729988747
 21
1696.80506376564
 31
0.0
  0
LINE
  5
215CF
330
21093
100
AcDbEntity
  8
HATCH
100
AcDbLine
 10
7450.795729988731
 20
1696.805063765639
 30
0.0
 11
7462.795729988737
 21
1676.020454074802
 31
0.0
  0
LINE
  5
215D0
330
21093
100
AcDbEntity
  8
HATCH
100
AcDbLine
 10
7452.154713837352
 20
1657.589673456443
 30
0.0
 11
7464.154713837359
 21
1636.805063765603
 31
0.0
  0
LINE
  5
215D1
330
21093
100
AcDbEntity
  8
HATCH
100
AcDbLine
 10
7260.154713837346
 20
1636.805063765603
 30
0.0
 11
7294.795729988746
 21
1696.80506376564
 31
0.0
  0
LINE
  5
215D2
330
21093
100
AcDbEntity
  8
HATCH
100
AcDbLine
 10
7270.79572998873
 20
1696.805063765639
 30
0.0
 11
7282.795729988738
 21
1676.020454074802
 31
0.0
  0
LINE
  5
215D3
330
21093
100
AcDbEntity
  8
HATCH
100
AcDbLine
 10
7272.154713837354
 20
1657.589673456443
 30
0.0
 11
7284.154713837359
 21
1636.805063765603
 31
0.0
  0
LINE
  5
215D4
330
21093
100
AcDbEntity
  8
HATCH
100
AcDbLine
 10
7350.154713837347
 20
1636.805063765603
 30
0.0
 11
7384.795729988747
 21
1696.80506376564
 31
0.0
  0
LINE
  5
215D5
330
21093
100
AcDbEntity
  8
HATCH
100
AcDbLine
 10
7360.79572998873
 20
1696.805063765639
 30
0.0
 11
7372.795729988737
 21
1676.020454074802
 31
0.0
  0
LINE
  5
215D6
330
21093
100
AcDbEntity
  8
HATCH
100
AcDbLine
 10
7362.154713837354
 20
1657.589673456443
 30
0.0
 11
7374.15471383736
 21
1636.805063765603
 31
0.0
  0
LINE
  5
215D7
330
21093
100
AcDbEntity
  8
HATCH
100
AcDbLine
 10
7620.154713837347
 20
1636.805063765603
 30
0.0
 11
7654.795729988747
 21
1696.80506376564
 31
0.0
  0
LINE
  5
215D8
330
21093
100
AcDbEntity
  8
HATCH
100
AcDbLine
 10
7630.79572998873
 20
1696.805063765639
 30
0.0
 11
7642.795729988738
 21
1676.020454074802
 31
0.0
  0
LINE
  5
215D9
330
21093
100
AcDbEntity
  8
HATCH
100
AcDbLine
 10
7632.154713837353
 20
1657.589673456443
 30
0.0
 11
7644.154713837359
 21
1636.805063765603
 31
0.0
  0
CIRCLE
  5
215DA
330
21093
100
AcDbEntity
  8
HATCH
100
AcDbCircle
 10
5039.209720824533
 20
1761.805063765603
 30
0.0
 40
5.0
  0
CIRCLE
  5
215DB
330
21093
100
AcDbEntity
  8
HATCH
100
AcDbCircle
 10
4889.209720824535
 20
1761.805063765603
 30
0.0
 40
5.0
  0
CIRCLE
  5
215DC
330
21093
100
AcDbEntity
  8
HATCH
100
AcDbCircle
 10
4739.209720824534
 20
1761.805063765603
 30
0.0
 40
5.0
  0
CIRCLE
  5
215DD
330
21093
100
AcDbEntity
  8
HATCH
100
AcDbCircle
 10
4589.209720824535
 20
1761.805063765603
 30
0.0
 40
5.0
  0
CIRCLE
  5
215DE
330
21093
100
AcDbEntity
  8
HATCH
100
AcDbCircle
 10
4439.209720824535
 20
1761.805063765603
 30
0.0
 40
5.0
  0
CIRCLE
  5
215DF
330
21093
100
AcDbEntity
  8
HATCH
100
AcDbCircle
 10
4289.209720824535
 20
1761.805063765603
 30
0.0
 40
5.0
  0
CIRCLE
  5
215E0
330
21093
100
AcDbEntity
  8
HATCH
100
AcDbCircle
 10
4139.209720824535
 20
1761.805063765603
 30
0.0
 40
5.0
  0
CIRCLE
  5
215E1
330
21093
100
AcDbEntity
  8
HATCH
100
AcDbCircle
 10
3989.209720824535
 20
1761.805063765603
 30
0.0
 40
5.0
  0
CIRCLE
  5
215E2
330
21093
100
AcDbEntity
  8
HATCH
100
AcDbCircle
 10
3839.209720824536
 20
1761.805063765603
 30
0.0
 40
5.0
  0
CIRCLE
  5
215E3
330
21093
100
AcDbEntity
  8
HATCH
100
AcDbCircle
 10
3689.209720824536
 20
1761.805063765603
 30
0.0
 40
5.0
  0
CIRCLE
  5
215E4
330
21093
100
AcDbEntity
  8
HATCH
100
AcDbCircle
 10
3539.209720824536
 20
1761.805063765603
 30
0.0
 40
5.0
  0
CIRCLE
  5
215E5
330
21093
100
AcDbEntity
  8
HATCH
100
AcDbCircle
 10
3389.209720824535
 20
1761.805063765603
 30
0.0
 40
5.0
  0
CIRCLE
  5
215E6
330
21093
100
AcDbEntity
  8
HATCH
100
AcDbCircle
 10
3239.209720824535
 20
1761.805063765603
 30
0.0
 40
5.0
  0
CIRCLE
  5
215E7
330
21093
100
AcDbEntity
  8
HATCH
100
AcDbCircle
 10
3089.209720824535
 20
1761.805063765603
 30
0.0
 40
5.0
  0
CIRCLE
  5
215E8
330
21093
100
AcDbEntity
  8
HATCH
100
AcDbCircle
 10
2939.209720824535
 20
1761.805063765603
 30
0.0
 40
5.0
  0
CIRCLE
  5
215E9
330
21093
100
AcDbEntity
  8
HATCH
100
AcDbCircle
 10
2789.209720824534
 20
1761.805063765603
 30
0.0
 40
5.0
  0
CIRCLE
  5
215EA
330
21093
100
AcDbEntity
  8
HATCH
100
AcDbCircle
 10
2639.209720824534
 20
1761.805063765603
 30
0.0
 40
5.0
  0
CIRCLE
  5
215EB
330
21093
100
AcDbEntity
  8
HATCH
100
AcDbCircle
 10
2489.209720824534
 20
1761.805063765603
 30
0.0
 40
5.0
  0
ARC
  5
215EC
330
21093
100
AcDbEntity
  8
HATCH
100
AcDbCircle
 10
5249.206542960404
 20
5502.014820159625
 30
0.0
 40
2.5
100
AcDbArc
 50
180.0
 51
0.0
  0
ARC
  5
215ED
330
21093
100
AcDbEntity
  8
HATCH
100
AcDbCircle
 10
5249.206542960404
 20
5502.014820159625
 30
0.0
 40
2.5
100
AcDbArc
 50
0.0
 51
180.0
  0
ARC
  5
215EE
330
21093
100
AcDbEntity
  8
HATCH
100
AcDbCircle
 10
5099.206542960406
 20
5502.014820159625
 30
0.0
 40
2.5
100
AcDbArc
 50
180.0
 51
0.0
  0
ARC
  5
215EF
330
21093
100
AcDbEntity
  8
HATCH
100
AcDbCircle
 10
5099.206542960406
 20
5502.014820159625
 30
0.0
 40
2.5
100
AcDbArc
 50
0.0
 51
180.0
  0
LINE
  5
215F0
330
21093
100
AcDbEntity
  8
HANA_JYUSHI
100
AcDbLine
 10
5291.828096214246
 20
7732.010895961368
 30
0.0
 11
5293.828096214245
 21
7732.010895961368
 31
0.0
  0
ARC
  5
215F1
330
21093
100
AcDbEntity
  8
HANA_JYUSHI
100
AcDbCircle
 10
5293.828096214245
 20
7728.010895961368
 30
0.0
 40
4.0
100
AcDbArc
 50
0.0000000000130276
 51
90.00000000001302
  0
LINE
  5
215F2
330
21093
100
AcDbEntity
  8
HANA_JYUSHI
100
AcDbLine
 10
5297.828096214242
 20
7728.010895961368
 30
0.0
 11
5297.828096214242
 21
7631.224570365006
 31
0.0
  0
LINE
  5
215F3
330
21093
100
AcDbEntity
  8
HANA_JYUSHI
100
AcDbLine
 10
5297.828096214242
 20
7631.224570365006
 30
0.0
 11
5293.828096214245
 21
7631.224570365009
 31
0.0
  0
ARC
  5
215F4
330
21093
100
AcDbEntity
  8
HANA_JYUSHI
100
AcDbCircle
 10
5293.828096214245
 20
7633.224570365008
 30
0.0
 40
1.99999999999909
100
AcDbArc
 50
179.9999999999739
 51
269.9999999999739
  0
LINE
  5
215F5
330
21093
100
AcDbEntity
  8
HANA_JYUSHI
100
AcDbLine
 10
5291.828096214246
 20
7633.224570365008
 30
0.0
 11
5291.828096214246
 21
7732.010895961368
 31
0.0
  0
LINE
  5
215F6
330
21093
100
AcDbEntity
  8
U1
100
AcDbLine
 10
5291.828096214246
 20
7631.224570365006
 30
0.0
 11
5297.828096214242
 21
7631.224570365006
 31
0.0
  0
LINE
  5
215F7
330
21093
100
AcDbEntity
  8
U1
100
AcDbLine
 10
5297.828096214242
 20
7631.224570365006
 30
0.0
 11
5297.828096214242
 21
7355.438245426923
 31
0.0
  0
LINE
  5
215F8
330
21093
100
AcDbEntity
  8
U1
100
AcDbLine
 10
5297.828096214242
 20
7355.438245426923
 30
0.0
 11
5291.828096214246
 21
7355.438245426923
 31
0.0
  0
LINE
  5
215F9
330
21093
100
AcDbEntity
  8
U1
100
AcDbLine
 10
5291.828096214246
 20
7355.438245426923
 30
0.0
 11
5291.828096214246
 21
7631.224570365006
 31
0.0
  0
LINE
  5
215FA
330
21093
100
AcDbEntity
  8
HANA_JYUSHI
100
AcDbLine
 10
5291.828096214246
 20
7344.904358487093
 30
0.0
 11
5294.828096214246
 21
7344.904358487093
 31
0.0
  0
ARC
  5
215FB
330
21093
100
AcDbEntity
  8
HANA_JYUSHI
100
AcDbCircle
 10
5294.828096214246
 20
7347.904358487092
 30
0.0
 40
2.99999999999909
100
AcDbArc
 50
270.0000000000172
 51
0.0000000000173701
  0
LINE
  5
215FC
330
21093
100
AcDbEntity
  8
HANA_JYUSHI
100
AcDbLine
 10
5297.828096214242
 20
7347.904358487094
 30
0.0
 11
5297.828096214242
 21
7355.438245426919
 31
0.0
  0
LINE
  5
215FD
330
21093
100
AcDbEntity
  8
HANA_JYUSHI
100
AcDbLine
 10
5297.828096214242
 20
7355.438245426919
 30
0.0
 11
5291.828096214246
 21
7355.438245426919
 31
0.0
  0
LINE
  5
215FE
330
21093
100
AcDbEntity
  8
HANA_JYUSHI
100
AcDbLine
 10
5291.828096214246
 20
7355.438245426919
 30
0.0
 11
5291.828096214246
 21
7344.904358487093
 31
0.0
  0
LINE
  5
215FF
330
21093
100
AcDbEntity
  8
HANA_JYUSHI
100
AcDbLine
 10
2421.828096214241
 20
7732.010895961368
 30
0.0
 11
2419.828096214243
 21
7732.010895961368
 31
0.0
  0
ARC
  5
21600
330
21093
100
AcDbEntity
  8
HANA_JYUSHI
100
AcDbCircle
 10
2419.828096214242
 20
7728.010895961368
 30
0.0
 40
4.0
100
AcDbArc
 50
89.99999999999348
 51
179.999999999987
  0
LINE
  5
21601
330
21093
100
AcDbEntity
  8
HANA_JYUSHI
100
AcDbLine
 10
2415.828096214242
 20
7728.010895961368
 30
0.0
 11
2415.828096214242
 21
7631.224570365006
 31
0.0
  0
LINE
  5
21602
330
21093
100
AcDbEntity
  8
HANA_JYUSHI
100
AcDbLine
 10
2415.828096214242
 20
7631.224570365006
 30
0.0
 11
2419.828096214243
 21
7631.224570365009
 31
0.0
  0
ARC
  5
21603
330
21093
100
AcDbEntity
  8
HANA_JYUSHI
100
AcDbCircle
 10
2419.828096214242
 20
7633.224570365008
 30
0.0
 40
1.99999999999909
100
AcDbArc
 50
270.000000000013
 51
0.0000000000260551
  0
LINE
  5
21604
330
21093
100
AcDbEntity
  8
HANA_JYUSHI
100
AcDbLine
 10
2421.828096214241
 20
7633.224570365008
 30
0.0
 11
2421.828096214241
 21
7732.010895961368
 31
0.0
  0
LINE
  5
21605
330
21093
100
AcDbEntity
  8
U1
100
AcDbLine
 10
2421.828096214241
 20
7631.224570365006
 30
0.0
 11
2415.828096214242
 21
7631.224570365006
 31
0.0
  0
LINE
  5
21606
330
21093
100
AcDbEntity
  8
U1
100
AcDbLine
 10
2415.828096214242
 20
7631.224570365006
 30
0.0
 11
2415.828096214242
 21
7355.438245426923
 31
0.0
  0
LINE
  5
21607
330
21093
100
AcDbEntity
  8
U1
100
AcDbLine
 10
2415.828096214242
 20
7355.438245426923
 30
0.0
 11
2421.828096214241
 21
7355.438245426923
 31
0.0
  0
LINE
  5
21608
330
21093
100
AcDbEntity
  8
U1
100
AcDbLine
 10
2421.828096214241
 20
7355.438245426923
 30
0.0
 11
2421.828096214241
 21
7631.224570365006
 31
0.0
  0
LINE
  5
21609
330
21093
100
AcDbEntity
  8
HANA_JYUSHI
100
AcDbLine
 10
2421.828096214241
 20
7344.904358487093
 30
0.0
 11
2418.828096214241
 21
7344.904358487093
 31
0.0
  0
ARC
  5
2160A
330
21093
100
AcDbEntity
  8
HANA_JYUSHI
100
AcDbCircle
 10
2418.828096214242
 20
7347.904358487092
 30
0.0
 40
2.99999999999909
100
AcDbArc
 50
179.9999999999826
 51
269.9999999999914
  0
LINE
  5
2160B
330
21093
100
AcDbEntity
  8
HANA_JYUSHI
100
AcDbLine
 10
2415.828096214242
 20
7347.904358487094
 30
0.0
 11
2415.828096214242
 21
7355.438245426919
 31
0.0
  0
LINE
  5
2160C
330
21093
100
AcDbEntity
  8
HANA_JYUSHI
100
AcDbLine
 10
2415.828096214242
 20
7355.438245426919
 30
0.0
 11
2421.828096214241
 21
7355.438245426919
 31
0.0
  0
LINE
  5
2160D
330
21093
100
AcDbEntity
  8
HANA_JYUSHI
100
AcDbLine
 10
2421.828096214241
 20
7355.438245426919
 30
0.0
 11
2421.828096214241
 21
7344.904358487093
 31
0.0
  0
ARC
  5
2160E
330
21093
100
AcDbEntity
  8
HATCH
100
AcDbCircle
 10
4949.206542960404
 20
5502.014820159625
 30
0.0
 40
2.5
100
AcDbArc
 50
180.0
 51
0.0
  0
ARC
  5
2160F
330
21093
100
AcDbEntity
  8
HATCH
100
AcDbCircle
 10
4949.206542960404
 20
5502.014820159625
 30
0.0
 40
2.5
100
AcDbArc
 50
0.0
 51
180.0
  0
ARC
  5
21610
330
21093
100
AcDbEntity
  8
HATCH
100
AcDbCircle
 10
4799.206542960402
 20
5502.014820159625
 30
0.0
 40
2.5
100
AcDbArc
 50
180.0
 51
0.0
  0
ARC
  5
21611
330
21093
100
AcDbEntity
  8
HATCH
100
AcDbCircle
 10
4799.206542960402
 20
5502.014820159625
 30
0.0
 40
2.5
100
AcDbArc
 50
0.0
 51
180.0
  0
ARC
  5
21612
330
21093
100
AcDbEntity
  8
HATCH
100
AcDbCircle
 10
4649.206542960405
 20
5502.014820159625
 30
0.0
 40
2.5
100
AcDbArc
 50
180.0
 51
0.0
  0
ARC
  5
21613
330
21093
100
AcDbEntity
  8
HATCH
100
AcDbCircle
 10
4649.206542960405
 20
5502.014820159625
 30
0.0
 40
2.5
100
AcDbArc
 50
0.0
 51
180.0
  0
ARC
  5
21614
330
21093
100
AcDbEntity
  8
HATCH
100
AcDbCircle
 10
4499.206542960404
 20
5502.014820159625
 30
0.0
 40
2.5
100
AcDbArc
 50
180.0
 51
0.0
  0
ARC
  5
21615
330
21093
100
AcDbEntity
  8
HATCH
100
AcDbCircle
 10
4499.206542960404
 20
5502.014820159625
 30
0.0
 40
2.5
100
AcDbArc
 50
0.0
 51
180.0
  0
ARC
  5
21616
330
21093
100
AcDbEntity
  8
HATCH
100
AcDbCircle
 10
4349.206542960405
 20
5502.014820159625
 30
0.0
 40
2.5
100
AcDbArc
 50
180.0
 51
0.0
  0
ARC
  5
21617
330
21093
100
AcDbEntity
  8
HATCH
100
AcDbCircle
 10
4349.206542960405
 20
5502.014820159625
 30
0.0
 40
2.5
100
AcDbArc
 50
0.0
 51
180.0
  0
ARC
  5
21618
330
21093
100
AcDbEntity
  8
HATCH
100
AcDbCircle
 10
4049.206542960404
 20
5502.014820159625
 30
0.0
 40
2.5
100
AcDbArc
 50
180.0
 51
0.0
  0
ARC
  5
21619
330
21093
100
AcDbEntity
  8
HATCH
100
AcDbCircle
 10
4049.206542960404
 20
5502.014820159625
 30
0.0
 40
2.5
100
AcDbArc
 50
0.0
 51
180.0
  0
ARC
  5
2161A
330
21093
100
AcDbEntity
  8
HATCH
100
AcDbCircle
 10
4199.206542960406
 20
5502.014820159625
 30
0.0
 40
2.5
100
AcDbArc
 50
180.0
 51
0.0
  0
ARC
  5
2161B
330
21093
100
AcDbEntity
  8
HATCH
100
AcDbCircle
 10
4199.206542960406
 20
5502.014820159625
 30
0.0
 40
2.5
100
AcDbArc
 50
0.0
 51
180.0
  0
ARC
  5
2161C
330
21093
100
AcDbEntity
  8
HATCH
100
AcDbCircle
 10
3899.206542960404
 20
5502.014820159625
 30
0.0
 40
2.5
100
AcDbArc
 50
180.0
 51
0.0
  0
ARC
  5
2161D
330
21093
100
AcDbEntity
  8
HATCH
100
AcDbCircle
 10
3899.206542960404
 20
5502.014820159625
 30
0.0
 40
2.5
100
AcDbArc
 50
0.0
 51
180.0
  0
ARC
  5
2161E
330
21093
100
AcDbEntity
  8
HATCH
100
AcDbCircle
 10
3749.206542960404
 20
5502.014820159625
 30
0.0
 40
2.5
100
AcDbArc
 50
180.0
 51
0.0
  0
ARC
  5
2161F
330
21093
100
AcDbEntity
  8
HATCH
100
AcDbCircle
 10
3749.206542960404
 20
5502.014820159625
 30
0.0
 40
2.5
100
AcDbArc
 50
0.0
 51
180.0
  0
ARC
  5
21620
330
21093
100
AcDbEntity
  8
HATCH
100
AcDbCircle
 10
3599.206542960404
 20
5502.014820159625
 30
0.0
 40
2.5
100
AcDbArc
 50
180.0
 51
0.0
  0
ARC
  5
21621
330
21093
100
AcDbEntity
  8
HATCH
100
AcDbCircle
 10
3599.206542960404
 20
5502.014820159625
 30
0.0
 40
2.5
100
AcDbArc
 50
0.0
 51
180.0
  0
ARC
  5
21622
330
21093
100
AcDbEntity
  8
HATCH
100
AcDbCircle
 10
3449.206542960403
 20
5502.014820159625
 30
0.0
 40
2.5
100
AcDbArc
 50
180.0
 51
0.0
  0
ARC
  5
21623
330
21093
100
AcDbEntity
  8
HATCH
100
AcDbCircle
 10
3449.206542960403
 20
5502.014820159625
 30
0.0
 40
2.5
100
AcDbArc
 50
0.0
 51
180.0
  0
ARC
  5
21624
330
21093
100
AcDbEntity
  8
HATCH
100
AcDbCircle
 10
3299.206542960404
 20
5502.014820159625
 30
0.0
 40
2.5
100
AcDbArc
 50
180.0
 51
0.0
  0
ARC
  5
21625
330
21093
100
AcDbEntity
  8
HATCH
100
AcDbCircle
 10
3299.206542960404
 20
5502.014820159625
 30
0.0
 40
2.5
100
AcDbArc
 50
0.0
 51
180.0
  0
ARC
  5
21626
330
21093
100
AcDbEntity
  8
HATCH
100
AcDbCircle
 10
3149.206542960404
 20
5502.014820159625
 30
0.0
 40
2.5
100
AcDbArc
 50
180.0
 51
0.0
  0
ARC
  5
21627
330
21093
100
AcDbEntity
  8
HATCH
100
AcDbCircle
 10
3149.206542960404
 20
5502.014820159625
 30
0.0
 40
2.5
100
AcDbArc
 50
0.0
 51
180.0
  0
ARC
  5
21628
330
21093
100
AcDbEntity
  8
HATCH
100
AcDbCircle
 10
2999.206542960404
 20
5502.014820159625
 30
0.0
 40
2.5
100
AcDbArc
 50
180.0
 51
0.0
  0
ARC
  5
21629
330
21093
100
AcDbEntity
  8
HATCH
100
AcDbCircle
 10
2999.206542960404
 20
5502.014820159625
 30
0.0
 40
2.5
100
AcDbArc
 50
0.0
 51
180.0
  0
ARC
  5
2162A
330
21093
100
AcDbEntity
  8
HATCH
100
AcDbCircle
 10
2849.206542960404
 20
5502.014820159625
 30
0.0
 40
2.5
100
AcDbArc
 50
180.0
 51
0.0
  0
ARC
  5
2162B
330
21093
100
AcDbEntity
  8
HATCH
100
AcDbCircle
 10
2849.206542960404
 20
5502.014820159625
 30
0.0
 40
2.5
100
AcDbArc
 50
0.0
 51
180.0
  0
ARC
  5
2162C
330
21093
100
AcDbEntity
  8
HATCH
100
AcDbCircle
 10
2699.206542960403
 20
5502.014820159625
 30
0.0
 40
2.5
100
AcDbArc
 50
180.0
 51
0.0
  0
ARC
  5
2162D
330
21093
100
AcDbEntity
  8
HATCH
100
AcDbCircle
 10
2699.206542960403
 20
5502.014820159625
 30
0.0
 40
2.5
100
AcDbArc
 50
0.0
 51
180.0
  0
ARC
  5
2162E
330
21093
100
AcDbEntity
  8
HATCH
100
AcDbCircle
 10
2549.206542960404
 20
5502.014820159625
 30
0.0
 40
2.5
100
AcDbArc
 50
180.0
 51
0.0
  0
ARC
  5
2162F
330
21093
100
AcDbEntity
  8
HATCH
100
AcDbCircle
 10
2549.206542960404
 20
5502.014820159625
 30
0.0
 40
2.5
100
AcDbArc
 50
0.0
 51
180.0
  0
ARC
  5
21630
330
21093
100
AcDbEntity
  8
HATCH
100
AcDbCircle
 10
2399.206542960404
 20
5502.014820159625
 30
0.0
 40
2.5
100
AcDbArc
 50
180.0
 51
0.0
  0
ARC
  5
21631
330
21093
100
AcDbEntity
  8
HATCH
100
AcDbCircle
 10
2399.206542960404
 20
5502.014820159625
 30
0.0
 40
2.5
100
AcDbArc
 50
0.0
 51
180.0
  0
LINE
  5
21632
330
21093
100
AcDbEntity
  8
MOYA_KANGU
100
AcDbLine
 10
9223.868596281558
 20
3826.92507154057
 30
0.0
 11
9227.17432219358
 21
3892.842233010059
 31
0.0
  0
LINE
  5
21633
330
21093
100
AcDbEntity
  8
MOYA_KANGU
100
AcDbLine
 10
9227.17432219358
 20
3892.842233010059
 30
0.0
 11
9224.877208990857
 21
3892.957432549415
 31
0.0
  0
LINE
  5
21634
330
21093
100
AcDbEntity
  8
MOYA_KANGU
100
AcDbLine
 10
9224.877208990857
 20
3892.957432549415
 30
0.0
 11
9221.571483078831
 21
3827.040271079929
 31
0.0
  0
ARC
  5
21635
330
21093
100
AcDbEntity
  8
MOYA_KANGU
100
AcDbCircle
 10
9225.566462561831
 20
3826.83992405496
 30
0.0
 40
3.999999999999709
100
AcDbArc
 50
177.1290390148965
 51
267.1290390149101
  0
LINE
  5
21636
330
21093
100
AcDbEntity
  8
MOYA_KANGU
100
AcDbLine
 10
9225.366115536861
 20
3822.84494457196
 30
0.0
 11
9311.258174421345
 21
3818.537483535081
 31
0.0
  0
LINE
  5
21637
330
21093
100
AcDbEntity
  8
MOYA_KANGU
100
AcDbLine
 10
9311.258174421345
 20
3818.537483535081
 30
0.0
 11
9311.373373960705
 21
3820.834596737807
 31
0.0
  0
LINE
  5
21638
330
21093
100
AcDbEntity
  8
MOYA_KANGU
100
AcDbLine
 10
9311.373373960705
 20
3820.834596737807
 30
0.0
 11
9225.481315076221
 21
3825.142057774685
 31
0.0
  0
ARC
  5
21639
330
21093
100
AcDbEntity
  8
MOYA_KANGU
100
AcDbCircle
 10
9225.566462561834
 20
3826.839924054959
 30
0.0
 40
1.699999999999211
100
AcDbArc
 50
177.1290390149145
 51
267.1290390149144
  0
LINE
  5
2163A
330
21093
100
AcDbEntity
  8
HARI
100
AcDbLine
 10
8711.750352300882
 20
3773.508368327656
 30
0.0
 11
9218.467079321149
 21
3748.096676179147
 31
0.0
  0
LINE
  5
2163B
330
21093
100
AcDbEntity
  8
MOYA
100
AcDbLine
 10
9225.446254346818
 20
3824.442936365159
 30
0.0
 11
9250.215127141414
 21
3823.200784810325
 31
0.0
  0
ARC
  5
2163C
330
21093
100
AcDbEntity
  8
MOYA
100
AcDbCircle
 10
9250.415474166388
 20
3827.195764293326
 30
0.0
 40
4.000000000000753
100
AcDbArc
 50
267.1290390148582
 51
357.1290390148703
  0
LINE
  5
2163D
330
21093
100
AcDbEntity
  8
MOYA
100
AcDbLine
 10
9254.41045364939
 20
3826.995417268353
 30
0.0
 11
9254.881269158074
 21
3836.3836190534
 31
0.0
  0
LINE
  5
2163E
330
21093
100
AcDbEntity
  8
MOYA
100
AcDbLine
 10
9254.881269158074
 20
3836.3836190534
 30
0.0
 11
9256.479260951271
 21
3836.303480243412
 31
0.0
  0
LINE
  5
2163F
330
21093
100
AcDbEntity
  8
MOYA
100
AcDbLine
 10
9256.479260951271
 20
3836.303480243412
 30
0.0
 11
9256.008445442589
 21
3826.915278458364
 31
0.0
  0
ARC
  5
21640
330
21093
100
AcDbEntity
  8
MOYA
100
AcDbCircle
 10
9250.415474166388
 20
3827.195764293327
 30
0.0
 40
5.600000000002001
100
AcDbArc
 50
267.1290390148511
 51
357.1290390148512
  0
LINE
  5
21641
330
21093
100
AcDbEntity
  8
MOYA
100
AcDbLine
 10
9250.134988331424
 20
3821.602793017126
 30
0.0
 11
9225.366115536832
 21
3822.844944571958
 31
0.0
  0
ARC
  5
21642
330
21093
100
AcDbEntity
  8
MOYA
100
AcDbCircle
 10
9225.646601371792
 20
3828.437915848157
 30
0.0
 40
5.600000000001003
100
AcDbArc
 50
177.1290390148594
 51
267.1290390148692
  0
LINE
  5
21643
330
21093
100
AcDbEntity
  8
MOYA
100
AcDbLine
 10
9220.053630095591
 20
3828.71840168312
 30
0.0
 11
9223.24916514391
 21
3892.438324436954
 31
0.0
  0
ARC
  5
21644
330
21093
100
AcDbEntity
  8
MOYA
100
AcDbCircle
 10
9228.842136420112
 20
3892.157838601993
 30
0.0
 40
5.600000000001957
100
AcDbArc
 50
87.12903901485162
 51
177.1290390148605
  0
LINE
  5
21645
330
21093
100
AcDbEntity
  8
MOYA
100
AcDbLine
 10
9229.122622255076
 20
3897.750809878195
 30
0.0
 11
9253.891495049668
 21
3896.508658323362
 31
0.0
  0
ARC
  5
21646
330
21093
100
AcDbEntity
  8
MOYA
100
AcDbCircle
 10
9253.611009214706
 20
3890.915687047161
 30
0.0
 40
5.600000000002001
100
AcDbArc
 50
357.1290390148512
 51
87.12903901485118
  0
LINE
  5
21647
330
21093
100
AcDbEntity
  8
MOYA
100
AcDbLine
 10
9259.203980490909
 20
3890.635201212199
 30
0.0
 11
9258.733164982221
 21
3881.24699942715
 31
0.0
  0
LINE
  5
21648
330
21093
100
AcDbEntity
  8
MOYA
100
AcDbLine
 10
9258.733164982221
 20
3881.24699942715
 30
0.0
 11
9257.135173189016
 21
3881.327138237143
 31
0.0
  0
LINE
  5
21649
330
21093
100
AcDbEntity
  8
MOYA
100
AcDbLine
 10
9257.135173189016
 20
3881.327138237143
 30
0.0
 11
9257.605988697703
 21
3890.715340022188
 31
0.0
  0
ARC
  5
2164A
330
21093
100
AcDbEntity
  8
MOYA
100
AcDbCircle
 10
9253.611009214706
 20
3890.915687047162
 30
0.0
 40
3.999999999999891
100
AcDbArc
 50
357.1290390148443
 51
87.12903901485814
  0
LINE
  5
2164B
330
21093
100
AcDbEntity
  8
MOYA
100
AcDbLine
 10
9253.811356239676
 20
3894.910666530162
 30
0.0
 11
9229.042483445082
 21
3896.152818084993
 31
0.0
  0
ARC
  5
2164C
330
21093
100
AcDbEntity
  8
MOYA
100
AcDbCircle
 10
9228.842136420109
 20
3892.157838601993
 30
0.0
 40
3.999999999999845
100
AcDbArc
 50
87.12903901485747
 51
177.1290390148575
  0
LINE
  5
2164D
330
21093
100
AcDbEntity
  8
MOYA
100
AcDbLine
 10
9224.84715693711
 20
3892.358185626966
 30
0.0
 11
9221.651621888794
 21
3828.638262873129
 31
0.0
  0
ARC
  5
2164E
330
21093
100
AcDbEntity
  8
MOYA
100
AcDbCircle
 10
9225.646601371792
 20
3828.437915848159
 30
0.0
 40
4.000000000001572
100
AcDbArc
 50
177.1290390148847
 51
267.1290390148847
  0
LINE
  5
2164F
330
21093
100
AcDbEntity
  8
MOYA_KANGU
100
AcDbLine
 10
8634.609122539163
 20
3856.476257723804
 30
0.0
 11
8637.914848451186
 21
3922.39341919329
 31
0.0
  0
LINE
  5
21650
330
21093
100
AcDbEntity
  8
MOYA_KANGU
100
AcDbLine
 10
8637.914848451186
 20
3922.39341919329
 30
0.0
 11
8635.617735248459
 21
3922.50861873265
 31
0.0
  0
LINE
  5
21651
330
21093
100
AcDbEntity
  8
MOYA_KANGU
100
AcDbLine
 10
8635.617735248459
 20
3922.50861873265
 30
0.0
 11
8632.312009336438
 21
3856.591457263159
 31
0.0
  0
ARC
  5
21652
330
21093
100
AcDbEntity
  8
MOYA_KANGU
100
AcDbCircle
 10
8636.306988819431
 20
3856.391110238188
 30
0.0
 40
3.999999999996076
100
AcDbArc
 50
177.1290390148938
 51
267.1290390149076
  0
LINE
  5
21653
330
21093
100
AcDbEntity
  8
MOYA_KANGU
100
AcDbLine
 10
8636.106641794464
 20
3852.396130755193
 30
0.0
 11
8721.99870067895
 21
3848.088669718315
 31
0.0
  0
LINE
  5
21654
330
21093
100
AcDbEntity
  8
MOYA_KANGU
100
AcDbLine
 10
8721.99870067895
 20
3848.088669718315
 30
0.0
 11
8722.113900218307
 21
3850.385782921037
 31
0.0
  0
LINE
  5
21655
330
21093
100
AcDbEntity
  8
MOYA_KANGU
100
AcDbLine
 10
8722.113900218307
 20
3850.385782921037
 30
0.0
 11
8636.221841333821
 21
3854.693243957916
 31
0.0
  0
ARC
  5
21656
330
21093
100
AcDbEntity
  8
MOYA_KANGU
100
AcDbCircle
 10
8636.306988819432
 20
3856.39111023819
 30
0.0
 40
1.70000000000012
100
AcDbArc
 50
177.1290390148838
 51
267.129039014916
  0
LINE
  5
21657
330
21093
100
AcDbEntity
  8
MOYA
100
AcDbLine
 10
8636.186780604424
 20
3853.994122548391
 30
0.0
 11
8660.955653399021
 21
3852.751970993558
 31
0.0
  0
ARC
  5
21658
330
21093
100
AcDbEntity
  8
MOYA
100
AcDbCircle
 10
8661.156000423995
 20
3856.746950476558
 30
0.0
 40
3.999999999999845
100
AcDbArc
 50
267.1290390148574
 51
357.1290390148575
  0
LINE
  5
21659
330
21093
100
AcDbEntity
  8
MOYA
100
AcDbLine
 10
8665.150979906995
 20
3856.546603451585
 30
0.0
 11
8665.621795415679
 21
3865.934805236631
 31
0.0
  0
LINE
  5
2165A
330
21093
100
AcDbEntity
  8
MOYA
100
AcDbLine
 10
8665.621795415679
 20
3865.934805236631
 30
0.0
 11
8667.21978720888
 21
3865.854666426642
 31
0.0
  0
LINE
  5
2165B
330
21093
100
AcDbEntity
  8
MOYA
100
AcDbLine
 10
8667.21978720888
 20
3865.854666426642
 30
0.0
 11
8666.748971700192
 21
3856.466464641594
 31
0.0
  0
ARC
  5
2165C
330
21093
100
AcDbEntity
  8
MOYA
100
AcDbCircle
 10
8661.156000423995
 20
3856.746950476557
 30
0.0
 40
5.599999999998322
100
AcDbArc
 50
267.1290390148498
 51
357.1290390148586
  0
LINE
  5
2165D
330
21093
100
AcDbEntity
  8
MOYA
100
AcDbLine
 10
8660.875514589029
 20
3851.153979200359
 30
0.0
 11
8636.106641794434
 21
3852.396130755193
 31
0.0
  0
ARC
  5
2165E
330
21093
100
AcDbEntity
  8
MOYA
100
AcDbCircle
 10
8636.387127629394
 20
3857.989102031392
 30
0.0
 40
5.600000000000093
100
AcDbArc
 50
177.1290390148688
 51
267.1290390148687
  0
LINE
  5
2165F
330
21093
100
AcDbEntity
  8
MOYA
100
AcDbLine
 10
8630.794156353196
 20
3858.269587866352
 30
0.0
 11
8633.989691401515
 21
3921.989510620189
 31
0.0
  0
ARC
  5
21660
330
21093
100
AcDbEntity
  8
MOYA
100
AcDbCircle
 10
8639.582662677716
 20
3921.709024785225
 30
0.0
 40
5.600000000000231
100
AcDbArc
 50
87.1290390148321
 51
177.1290390148408
  0
LINE
  5
21661
330
21093
100
AcDbEntity
  8
MOYA
100
AcDbLine
 10
8639.863148512679
 20
3927.301996061425
 30
0.0
 11
8664.632021307273
 21
3926.059844506593
 31
0.0
  0
ARC
  5
21662
330
21093
100
AcDbEntity
  8
MOYA
100
AcDbCircle
 10
8664.351535472309
 20
3920.466873230394
 30
0.0
 40
5.600000000001003
100
AcDbArc
 50
357.1290390148594
 51
87.1290390148693
  0
LINE
  5
21663
330
21093
100
AcDbEntity
  8
MOYA
100
AcDbLine
 10
8669.94450674851
 20
3920.186387395432
 30
0.0
 11
8669.473691239826
 21
3910.798185610385
 31
0.0
  0
LINE
  5
21664
330
21093
100
AcDbEntity
  8
MOYA
100
AcDbLine
 10
8669.473691239826
 20
3910.798185610385
 30
0.0
 11
8667.875699446623
 21
3910.878324420373
 31
0.0
  0
LINE
  5
21665
330
21093
100
AcDbEntity
  8
MOYA
100
AcDbLine
 10
8667.875699446623
 20
3910.878324420373
 30
0.0
 11
8668.346514955313
 21
3920.266526205422
 31
0.0
  0
ARC
  5
21666
330
21093
100
AcDbEntity
  8
MOYA
100
AcDbCircle
 10
8664.351535472309
 20
3920.466873230393
 30
0.0
 40
4.000000000001572
100
AcDbArc
 50
357.1290390148847
 51
87.12903901488479
  0
LINE
  5
21667
330
21093
100
AcDbEntity
  8
MOYA
100
AcDbLine
 10
8664.551882497283
 20
3924.461852713394
 30
0.0
 11
8639.783009702689
 21
3925.704004268225
 31
0.0
  0
ARC
  5
21668
330
21093
100
AcDbEntity
  8
MOYA
100
AcDbCircle
 10
8639.582662677716
 20
3921.709024785227
 30
0.0
 40
3.999999999999845
100
AcDbArc
 50
87.12903901485747
 51
177.1290390148575
  0
LINE
  5
21669
330
21093
100
AcDbEntity
  8
MOYA
100
AcDbLine
 10
8635.587683194717
 20
3921.9093718102
 30
0.0
 11
8632.392148146399
 21
3858.189449056363
 31
0.0
  0
ARC
  5
2166A
330
21093
100
AcDbEntity
  8
MOYA
100
AcDbCircle
 10
8636.387127629397
 20
3857.98910203139
 30
0.0
 40
3.999999999999845
100
AcDbArc
 50
177.1290390148575
 51
267.1290390148574
  0
LINE
  5
2166B
330
21093
100
AcDbEntity
  8
MOYA_KANGU
100
AcDbLine
 10
8045.349648796769
 20
3886.027443907033
 30
0.0
 11
8048.655374708792
 21
3951.944605376521
 31
0.0
  0
LINE
  5
2166C
330
21093
100
AcDbEntity
  8
MOYA_KANGU
100
AcDbLine
 10
8048.655374708792
 20
3951.944605376521
 30
0.0
 11
8046.358261506068
 21
3952.059804915881
 31
0.0
  0
LINE
  5
2166D
330
21093
100
AcDbEntity
  8
MOYA_KANGU
100
AcDbLine
 10
8046.358261506068
 20
3952.059804915881
 30
0.0
 11
8043.052535594043
 21
3886.142643446396
 31
0.0
  0
ARC
  5
2166E
330
21093
100
AcDbEntity
  8
MOYA_KANGU
100
AcDbCircle
 10
8047.047515077045
 20
3885.942296421421
 30
0.0
 40
3.999999999999845
100
AcDbArc
 50
177.1290390148575
 51
267.1290390148574
  0
LINE
  5
2166F
330
21093
100
AcDbEntity
  8
MOYA_KANGU
100
AcDbLine
 10
8046.847168052071
 20
3881.947316938424
 30
0.0
 11
8132.739226936553
 21
3877.639855901545
 31
0.0
  0
LINE
  5
21670
330
21093
100
AcDbEntity
  8
MOYA_KANGU
100
AcDbLine
 10
8132.739226936553
 20
3877.639855901545
 30
0.0
 11
8132.854426475912
 21
3879.936969104271
 31
0.0
  0
LINE
  5
21671
330
21093
100
AcDbEntity
  8
MOYA_KANGU
100
AcDbLine
 10
8132.854426475912
 20
3879.936969104271
 30
0.0
 11
8046.962367591429
 21
3884.244430141149
 31
0.0
  0
ARC
  5
21672
330
21093
100
AcDbEntity
  8
MOYA_KANGU
100
AcDbCircle
 10
8047.047515077039
 20
3885.942296421421
 30
0.0
 40
1.699999999998258
100
AcDbArc
 50
177.1290390149435
 51
267.1290390149437
  0
LINE
  5
21673
330
21093
100
AcDbEntity
  8
MOYA
100
AcDbLine
 10
8046.927306862029
 20
3883.545308731621
 30
0.0
 11
8071.696179656628
 21
3882.30315717679
 31
0.0
  0
ARC
  5
21674
330
21093
100
AcDbEntity
  8
MOYA
100
AcDbCircle
 10
8071.896526681602
 20
3886.298136659788
 30
0.0
 40
3.999999999999845
100
AcDbArc
 50
267.1290390148574
 51
357.1290390148575
  0
LINE
  5
21675
330
21093
100
AcDbEntity
  8
MOYA
100
AcDbLine
 10
8075.8915061646
 20
3886.097789634817
 30
0.0
 11
8076.362321673284
 21
3895.485991419863
 31
0.0
  0
LINE
  5
21676
330
21093
100
AcDbEntity
  8
MOYA
100
AcDbLine
 10
8076.362321673284
 20
3895.485991419863
 30
0.0
 11
8077.960313466483
 21
3895.405852609876
 31
0.0
  0
LINE
  5
21677
330
21093
100
AcDbEntity
  8
MOYA
100
AcDbLine
 10
8077.960313466483
 20
3895.405852609876
 30
0.0
 11
8077.489497957797
 21
3886.017650824827
 31
0.0
  0
ARC
  5
21678
330
21093
100
AcDbEntity
  8
MOYA
100
AcDbCircle
 10
8071.896526681596
 20
3886.298136659791
 30
0.0
 40
5.600000000002001
100
AcDbArc
 50
267.1290390148511
 51
357.1290390148512
  0
LINE
  5
21679
330
21093
100
AcDbEntity
  8
MOYA
100
AcDbLine
 10
8071.616040846635
 20
3880.70516538359
 30
0.0
 11
8046.847168052044
 21
3881.947316938422
 31
0.0
  0
ARC
  5
2167A
330
21093
100
AcDbEntity
  8
MOYA
100
AcDbCircle
 10
8047.127653887001
 20
3887.540288214621
 30
0.0
 40
5.600000000001047
100
AcDbArc
 50
177.12903901486
 51
267.12903901486
  0
LINE
  5
2167B
330
21093
100
AcDbEntity
  8
MOYA
100
AcDbLine
 10
8041.534682610803
 20
3887.820774049584
 30
0.0
 11
8044.730217659122
 21
3951.54069680342
 31
0.0
  0
ARC
  5
2167C
330
21093
100
AcDbEntity
  8
MOYA
100
AcDbCircle
 10
8050.323188935321
 20
3951.260210968458
 30
0.0
 40
5.600000000002001
100
AcDbArc
 50
87.12903901485118
 51
177.1290390148511
  0
LINE
  5
2167D
330
21093
100
AcDbEntity
  8
MOYA
100
AcDbLine
 10
8050.603674770284
 20
3956.853182244658
 30
0.0
 11
8075.37254756488
 21
3955.611030689825
 31
0.0
  0
ARC
  5
2167E
330
21093
100
AcDbEntity
  8
MOYA
100
AcDbCircle
 10
8075.092061729916
 20
3950.018059413626
 30
0.0
 40
5.600000000001047
100
AcDbArc
 50
357.1290390148599
 51
87.12903901485999
  0
LINE
  5
2167F
330
21093
100
AcDbEntity
  8
MOYA
100
AcDbLine
 10
8080.685033006117
 20
3949.737573578664
 30
0.0
 11
8080.214217497434
 21
3940.349371793617
 31
0.0
  0
LINE
  5
21680
330
21093
100
AcDbEntity
  8
MOYA
100
AcDbLine
 10
8080.214217497434
 20
3940.349371793617
 30
0.0
 11
8078.616225704228
 21
3940.429510603606
 31
0.0
  0
LINE
  5
21681
330
21093
100
AcDbEntity
  8
MOYA
100
AcDbLine
 10
8078.616225704228
 20
3940.429510603606
 30
0.0
 11
8079.087041212916
 21
3949.817712388651
 31
0.0
  0
ARC
  5
21682
330
21093
100
AcDbEntity
  8
MOYA
100
AcDbCircle
 10
8075.092061729916
 20
3950.018059413624
 30
0.0
 40
4.000000000003478
100
AcDbArc
 50
357.1290390148601
 51
87.12903901486008
  0
LINE
  5
21683
330
21093
100
AcDbEntity
  8
MOYA
100
AcDbLine
 10
8075.292408754888
 20
3954.013038896625
 30
0.0
 11
8050.523535960293
 21
3955.255190451456
 31
0.0
  0
ARC
  5
21684
330
21093
100
AcDbEntity
  8
MOYA
100
AcDbCircle
 10
8050.323188935321
 20
3951.260210968458
 30
0.0
 40
3.999999999999845
100
AcDbArc
 50
87.12903901485747
 51
177.1290390148575
  0
LINE
  5
21685
330
21093
100
AcDbEntity
  8
MOYA
100
AcDbLine
 10
8046.328209452324
 20
3951.46055799343
 30
0.0
 11
8043.132674404002
 21
3887.740635239593
 31
0.0
  0
ARC
  5
21686
330
21093
100
AcDbEntity
  8
MOYA
100
AcDbCircle
 10
8047.127653887004
 20
3887.540288214621
 30
0.0
 40
3.999999999999845
100
AcDbArc
 50
177.1290390148575
 51
267.1290390148574
  0
LINE
  5
21687
330
21093
100
AcDbEntity
  8
HARI
100
AcDbLine
 10
8030.106978014115
 20
3807.692579463342
 30
0.0
 11
8608.879630613655
 21
3778.66730422066
 31
0.0
  0
LINE
  5
21688
330
21093
100
AcDbEntity
  8
HARI
100
AcDbLine
 10
9301.362903593384
 20
3743.939475410996
 30
0.0
 11
9348.450207403876
 21
3741.57806122289
 31
0.0
  0
LINE
  5
21689
330
21093
100
AcDbEntity
  8
HARI
100
AcDbLine
 10
9348.450207403876
 20
3741.57806122289
 30
0.0
 11
9352.206714122088
 21
3816.483926529129
 31
0.0
  0
LINE
  5
2168A
330
21093
100
AcDbEntity
  8
HARI
100
AcDbLine
 10
9352.206714122088
 20
3816.483926529129
 30
0.0
 11
8033.863484732323
 21
3882.59844476958
 31
0.0
  0
LINE
  5
2168B
330
21093
100
AcDbEntity
  8
HARI
100
AcDbLine
 10
8033.863484732323
 20
3882.59844476958
 30
0.0
 11
8030.106978014115
 21
3807.692579463342
 31
0.0
  0
LINE
  5
2168C
330
21093
100
AcDbEntity
  8
HARI
100
AcDbLine
 10
4511.273232150606
 20
3743.939475410999
 30
0.0
 11
4558.360535961099
 21
3741.578061222892
 31
0.0
  0
LINE
  5
2168D
330
21093
100
AcDbEntity
  8
HARI
100
AcDbLine
 10
3921.660680858105
 20
3773.508368327656
 30
0.0
 11
4428.377407878373
 21
3748.096676179148
 31
0.0
  0
LINE
  5
2168E
330
21093
100
AcDbEntity
  8
HARI
100
AcDbLine
 10
3243.458266725215
 20
3876.306352083854
 30
0.0
 11
3240.017306571336
 21
3807.692579463342
 31
0.0
  0
LINE
  5
2168F
330
21093
100
AcDbEntity
  8
HARI
100
AcDbLine
 10
3240.017306571336
 20
3807.692579463342
 30
0.0
 11
3818.789959170873
 21
3778.66730422066
 31
0.0
  0
ARC
  5
21690
330
21093
100
AcDbEntity
  8
HATCH
100
AcDbCircle
 10
5039.209720824533
 20
1761.805063765603
 30
0.0
 40
2.5
100
AcDbArc
 50
180.0
 51
0.0
  0
ARC
  5
21691
330
21093
100
AcDbEntity
  8
HATCH
100
AcDbCircle
 10
5039.209720824533
 20
1761.805063765603
 30
0.0
 40
2.5
100
AcDbArc
 50
0.0
 51
180.0
  0
ARC
  5
21692
330
21093
100
AcDbEntity
  8
HATCH
100
AcDbCircle
 10
4889.209720824535
 20
1761.805063765603
 30
0.0
 40
2.5
100
AcDbArc
 50
180.0
 51
0.0
  0
ARC
  5
21693
330
21093
100
AcDbEntity
  8
HATCH
100
AcDbCircle
 10
4889.209720824535
 20
1761.805063765603
 30
0.0
 40
2.5
100
AcDbArc
 50
0.0
 51
180.0
  0
ARC
  5
21694
330
21093
100
AcDbEntity
  8
HATCH
100
AcDbCircle
 10
4739.209720824534
 20
1761.805063765603
 30
0.0
 40
2.5
100
AcDbArc
 50
180.0
 51
0.0
  0
ARC
  5
21695
330
21093
100
AcDbEntity
  8
HATCH
100
AcDbCircle
 10
4739.209720824534
 20
1761.805063765603
 30
0.0
 40
2.5
100
AcDbArc
 50
0.0
 51
180.0
  0
ARC
  5
21696
330
21093
100
AcDbEntity
  8
HATCH
100
AcDbCircle
 10
4589.209720824535
 20
1761.805063765603
 30
0.0
 40
2.5
100
AcDbArc
 50
180.0
 51
0.0
  0
ARC
  5
21697
330
21093
100
AcDbEntity
  8
HATCH
100
AcDbCircle
 10
4589.209720824535
 20
1761.805063765603
 30
0.0
 40
2.5
100
AcDbArc
 50
0.0
 51
180.0
  0
ARC
  5
21698
330
21093
100
AcDbEntity
  8
HATCH
100
AcDbCircle
 10
4439.209720824535
 20
1761.805063765603
 30
0.0
 40
2.5
100
AcDbArc
 50
180.0
 51
0.0
  0
ARC
  5
21699
330
21093
100
AcDbEntity
  8
HATCH
100
AcDbCircle
 10
4439.209720824535
 20
1761.805063765603
 30
0.0
 40
2.5
100
AcDbArc
 50
0.0
 51
180.0
  0
ARC
  5
2169A
330
21093
100
AcDbEntity
  8
HATCH
100
AcDbCircle
 10
4289.209720824535
 20
1761.805063765603
 30
0.0
 40
2.5
100
AcDbArc
 50
180.0
 51
0.0
  0
ARC
  5
2169B
330
21093
100
AcDbEntity
  8
HATCH
100
AcDbCircle
 10
4289.209720824535
 20
1761.805063765603
 30
0.0
 40
2.5
100
AcDbArc
 50
0.0
 51
180.0
  0
ARC
  5
2169C
330
21093
100
AcDbEntity
  8
HATCH
100
AcDbCircle
 10
4139.209720824535
 20
1761.805063765603
 30
0.0
 40
2.5
100
AcDbArc
 50
180.0
 51
0.0
  0
ARC
  5
2169D
330
21093
100
AcDbEntity
  8
HATCH
100
AcDbCircle
 10
4139.209720824535
 20
1761.805063765603
 30
0.0
 40
2.5
100
AcDbArc
 50
0.0
 51
180.0
  0
ARC
  5
2169E
330
21093
100
AcDbEntity
  8
HATCH
100
AcDbCircle
 10
3989.209720824535
 20
1761.805063765603
 30
0.0
 40
2.5
100
AcDbArc
 50
180.0
 51
0.0
  0
ARC
  5
2169F
330
21093
100
AcDbEntity
  8
HATCH
100
AcDbCircle
 10
3989.209720824535
 20
1761.805063765603
 30
0.0
 40
2.5
100
AcDbArc
 50
0.0
 51
180.0
  0
ARC
  5
216A0
330
21093
100
AcDbEntity
  8
HATCH
100
AcDbCircle
 10
3839.209720824536
 20
1761.805063765603
 30
0.0
 40
2.5
100
AcDbArc
 50
180.0
 51
0.0
  0
ARC
  5
216A1
330
21093
100
AcDbEntity
  8
HATCH
100
AcDbCircle
 10
3839.209720824536
 20
1761.805063765603
 30
0.0
 40
2.5
100
AcDbArc
 50
0.0
 51
180.0
  0
ARC
  5
216A2
330
21093
100
AcDbEntity
  8
HATCH
100
AcDbCircle
 10
3689.209720824536
 20
1761.805063765603
 30
0.0
 40
2.5
100
AcDbArc
 50
180.0
 51
0.0
  0
ARC
  5
216A3
330
21093
100
AcDbEntity
  8
HATCH
100
AcDbCircle
 10
3689.209720824536
 20
1761.805063765603
 30
0.0
 40
2.5
100
AcDbArc
 50
0.0
 51
180.0
  0
ARC
  5
216A4
330
21093
100
AcDbEntity
  8
HATCH
100
AcDbCircle
 10
3539.209720824536
 20
1761.805063765603
 30
0.0
 40
2.5
100
AcDbArc
 50
180.0
 51
0.0
  0
ARC
  5
216A5
330
21093
100
AcDbEntity
  8
HATCH
100
AcDbCircle
 10
3539.209720824536
 20
1761.805063765603
 30
0.0
 40
2.5
100
AcDbArc
 50
0.0
 51
180.0
  0
ARC
  5
216A6
330
21093
100
AcDbEntity
  8
HATCH
100
AcDbCircle
 10
3389.209720824535
 20
1761.805063765603
 30
0.0
 40
2.5
100
AcDbArc
 50
180.0
 51
0.0
  0
ARC
  5
216A7
330
21093
100
AcDbEntity
  8
HATCH
100
AcDbCircle
 10
3389.209720824535
 20
1761.805063765603
 30
0.0
 40
2.5
100
AcDbArc
 50
0.0
 51
180.0
  0
ARC
  5
216A8
330
21093
100
AcDbEntity
  8
HATCH
100
AcDbCircle
 10
3239.209720824535
 20
1761.805063765603
 30
0.0
 40
2.5
100
AcDbArc
 50
180.0
 51
0.0
  0
ARC
  5
216A9
330
21093
100
AcDbEntity
  8
HATCH
100
AcDbCircle
 10
3239.209720824535
 20
1761.805063765603
 30
0.0
 40
2.5
100
AcDbArc
 50
0.0
 51
180.0
  0
ARC
  5
216AA
330
21093
100
AcDbEntity
  8
HATCH
100
AcDbCircle
 10
3089.209720824535
 20
1761.805063765603
 30
0.0
 40
2.5
100
AcDbArc
 50
180.0
 51
0.0
  0
ARC
  5
216AB
330
21093
100
AcDbEntity
  8
HATCH
100
AcDbCircle
 10
3089.209720824535
 20
1761.805063765603
 30
0.0
 40
2.5
100
AcDbArc
 50
0.0
 51
180.0
  0
ARC
  5
216AC
330
21093
100
AcDbEntity
  8
HATCH
100
AcDbCircle
 10
2939.209720824535
 20
1761.805063765603
 30
0.0
 40
2.5
100
AcDbArc
 50
180.0
 51
0.0
  0
ARC
  5
216AD
330
21093
100
AcDbEntity
  8
HATCH
100
AcDbCircle
 10
2939.209720824535
 20
1761.805063765603
 30
0.0
 40
2.5
100
AcDbArc
 50
0.0
 51
180.0
  0
ARC
  5
216AE
330
21093
100
AcDbEntity
  8
HATCH
100
AcDbCircle
 10
2789.209720824534
 20
1761.805063765603
 30
0.0
 40
2.5
100
AcDbArc
 50
180.0
 51
0.0
  0
ARC
  5
216AF
330
21093
100
AcDbEntity
  8
HATCH
100
AcDbCircle
 10
2789.209720824534
 20
1761.805063765603
 30
0.0
 40
2.5
100
AcDbArc
 50
0.0
 51
180.0
  0
ARC
  5
216B0
330
21093
100
AcDbEntity
  8
HATCH
100
AcDbCircle
 10
2639.209720824534
 20
1761.805063765603
 30
0.0
 40
2.5
100
AcDbArc
 50
180.0
 51
0.0
  0
ARC
  5
216B1
330
21093
100
AcDbEntity
  8
HATCH
100
AcDbCircle
 10
2639.209720824534
 20
1761.805063765603
 30
0.0
 40
2.5
100
AcDbArc
 50
0.0
 51
180.0
  0
ARC
  5
216B2
330
21093
100
AcDbEntity
  8
HATCH
100
AcDbCircle
 10
2489.209720824534
 20
1761.805063765603
 30
0.0
 40
2.5
100
AcDbArc
 50
180.0
 51
0.0
  0
ARC
  5
216B3
330
21093
100
AcDbEntity
  8
HATCH
100
AcDbCircle
 10
2489.209720824534
 20
1761.805063765603
 30
0.0
 40
2.5
100
AcDbArc
 50
0.0
 51
180.0
  0
ENDSEC
  0
SECTION
  2
OBJECTS
  0
DICTIONARY
  5
21081
330
0
100
AcDbDictionary
281
     1
  3
ACAD_GROUP
350
21082
  3
ACAD_LAYOUT
350
2108E
  3
ACAD_MLINESTYLE
350
2108B
  3
ACAD_PLOTSETTINGS
350
2108D
  3
ACAD_PLOTSTYLENAME
350
21083
  3
AcDbVariableDictionary
350
216B4
  0
DICTIONARY
  5
21082
102
{ACAD_REACTORS
330
21081
102
}
330
21081
100
AcDbDictionary
281
     1
  0
DICTIONARY
  5
2108E
102
{ACAD_REACTORS
330
21081
102
}
330
21081
100
AcDbDictionary
281
     1
  3
Model
350
21096
  3
ﾚｲｱｳﾄ1
350
21092
  0
DICTIONARY
  5
2108B
102
{ACAD_REACTORS
330
21081
102
}
330
21081
100
AcDbDictionary
281
     1
  3
Standard
350
2108C
  0
DICTIONARY
  5
2108D
102
{ACAD_REACTORS
330
21081
102
}
330
21081
100
AcDbDictionary
281
     1
  0
ACDBDICTIONARYWDFLT
  5
21083
102
{ACAD_REACTORS
330
21081
102
}
330
21081
100
AcDbDictionary
281
     1
  3
Normal
350
21084
100
AcDbDictionaryWithDefault
340
21084
  0
DICTIONARY
  5
216B4
102
{ACAD_REACTORS
330
21081
102
}
330
21081
100
AcDbDictionary
281
     1
  3
DIMASSOC
350
216B5
  0
LAYOUT
  5
21096
102
{ACAD_REACTORS
330
2108E
102
}
330
2108E
100
AcDbPlotSettings
  1

  2
Muratec V-1200 Is@Web Printer
  4

  6

 40
0.0
 41
0.0
 42
0.0
 43
0.0
 44
0.0
 45
0.0
 46
0.0
 47
0.0
 48
0.0
 49
0.0
140
0.0
141
0.0
142
1.0
143
1.0
 70
  1712
 72
     0
 73
     0
 74
     0
  7

 75
     0
147
1.0
148
0.0
149
0.0
100
AcDbLayout
  1
Model
 70
     1
 71
     0
 10
0.0
 20
0.0
 11
12.0
 21
9.0
 12
0.0
 22
0.0
 32
0.0
 14
0.0
 24
0.0
 34
0.0
 15
0.0
 25
0.0
 35
0.0
146
0.0
 13
0.0
 23
0.0
 33
0.0
 16
1.0
 26
0.0
 36
0.0
 17
0.0
 27
1.0
 37
0.0
 76
     0
330
21093
  0
LAYOUT
  5
21092
102
{ACAD_REACTORS
330
2108E
102
}
330
2108E
100
AcDbPlotSettings
  1

  2
Muratec V-1200 Is@Web Printer
  4

  6

 40
0.0
 41
0.0
 42
0.0
 43
0.0
 44
0.0
 45
0.0
 46
0.0
 47
0.0
 48
0.0
 49
0.0
140
0.0
141
0.0
142
1.0
143
1.0
 70
   688
 72
     0
 73
     0
 74
     5
  7

 75
    16
147
1.0
148
0.0
149
0.0
100
AcDbLayout
  1
ﾚｲｱｳﾄ1
 70
     0
 71
     1
 10
0.0
 20
0.0
 11
12.0
 21
9.0
 12
0.0
 22
0.0
 32
0.0
 14
1.000000000000000E+20
 24
1.000000000000000E+20
 34
1.000000000000000E+20
 15
-1.000000000000000E+20
 25
-1.000000000000000E+20
 35
-1.000000000000000E+20
146
0.0
 13
0.0
 23
0.0
 33
0.0
 16
1.0
 26
0.0
 36
0.0
 17
0.0
 27
1.0
 37
0.0
 76
     0
330
2108F
  0
MLINESTYLE
  5
2108C
102
{ACAD_REACTORS
330
2108B
102
}
330
2108B
100
AcDbMlineStyle
  2
STANDARD
 70
     0
  3

 62
   256
 51
90.0
 52
90.0
 71
     2
 49
0.5
 62
   256
  6
BYLAYER
 49
-0.5
 62
   256
  6
BYLAYER
  0
ACDBPLACEHOLDER
  5
21084
102
{ACAD_REACTORS
330
21083
102
}
330
21083
  0
DICTIONARYVAR
  5
216B5
102
{ACAD_REACTORS
330
216B4
102
}
330
216B4
100
DictionaryVariables
280
     0
  1
1
  0
ENDSEC
  0
EOF
