  0
SECTION
  2
HEADER
  9
$ACADVER
  1
AC1015
  9
$ACADMAINTVER
 70
    13
  9
$DWGCODEPAGE
  3
ANSI_932
  9
$INSBASE
 10
267.0
 20
194.8999999999998
 30
0.0
  9
$EXTMIN
 10
325.4974662390304
 20
122.7681178119601
 30
-0.000000000000013
  9
$EXTMAX
 10
12286.99954069103
 20
8431.707478684501
 30
0.0000000000000023
  9
$LIMMIN
 10
0.0
 20
0.0
  9
$LIMMAX
 10
12600.0
 20
8910.0
  9
$ORTHOMODE
 70
     0
  9
$REGENMODE
 70
     1
  9
$FILLMODE
 70
     1
  9
$QTEXTMODE
 70
     0
  9
$MIRRTEXT
 70
     0
  9
$LTSCALE
 40
30.0
  9
$ATTMODE
 70
     1
  9
$TEXTSIZE
 40
0.2
  9
$TRACEWID
 40
0.05
  9
$TEXTSTYLE
  7
00
  9
$CLAYER
  8
SUNPOU
  9
$CELTYPE
  6
ByLayer
  9
$CECOLOR
 62
   256
  9
$CELTSCALE
 40
1.0
  9
$DISPSILH
 70
     0
  9
$DIMSCALE
 40
30.0
  9
$DIMASZ
 40
0.5
  9
$DIMEXO
 40
1.0
  9
$DIMDLI
 40
7.0
  9
$DIMRND
 40
0.0
  9
$DIMDLE
 40
3.0
  9
$DIMEXE
 40
1.5
  9
$DIMTP
 40
0.0
  9
$DIMTM
 40
0.0
  9
$DIMTXT
 40
3.0
  9
$DIMCEN
 40
0.0
  9
$DIMTSZ
 40
0.0
  9
$DIMTOL
 70
     0
  9
$DIMLIM
 70
     0
  9
$DIMTIH
 70
     0
  9
$DIMTOH
 70
     0
  9
$DIMSE1
 70
     0
  9
$DIMSE2
 70
     0
  9
$DIMTAD
 70
     1
  9
$DIMZIN
 70
     8
  9
$DIMBLK
  1
DOT
  9
$DIMASO
 70
     1
  9
$DIMSHO
 70
     0
  9
$DIMPOST
  1

  9
$DIMAPOST
  1

  9
$DIMALT
 70
     0
  9
$DIMALTD
 70
     2
  9
$DIMALTF
 40
25.4
  9
$DIMLFAC
 40
1.0
  9
$DIMTOFL
 70
     1
  9
$DIMTVP
 40
0.0
  9
$DIMTIX
 70
     0
  9
$DIMSOXD
 70
     0
  9
$DIMSAH
 70
     1
  9
$DIMBLK1
  1
DOT
  9
$DIMBLK2
  1
DOT
  9
$DIMSTYLE
  2
SUNPOU
  9
$DIMCLRD
 70
   256
  9
$DIMCLRE
 70
   256
  9
$DIMCLRT
 70
   256
  9
$DIMTFAC
 40
1.0
  9
$DIMGAP
 40
1.5
  9
$DIMJUST
 70
     0
  9
$DIMSD1
 70
     0
  9
$DIMSD2
 70
     0
  9
$DIMTOLJ
 70
     1
  9
$DIMTZIN
 70
     0
  9
$DIMALTZ
 70
     0
  9
$DIMALTTZ
 70
     0
  9
$DIMUPT
 70
     0
  9
$DIMDEC
 70
     4
  9
$DIMTDEC
 70
     4
  9
$DIMALTU
 70
     2
  9
$DIMALTTD
 70
     2
  9
$DIMTXSTY
  7
STANDARD
  9
$DIMAUNIT
 70
     0
  9
$DIMADEC
 70
     0
  9
$DIMALTRND
 40
0.0
  9
$DIMAZIN
 70
     0
  9
$DIMDSEP
 70
    46
  9
$DIMATFIT
 70
     3
  9
$DIMFRAC
 70
     0
  9
$DIMLDRBLK
  1
DOT
  9
$DIMLUNIT
 70
     2
  9
$DIMLWD
 70
    -2
  9
$DIMLWE
 70
    -2
  9
$DIMTMOVE
 70
     0
  9
$LUNITS
 70
     2
  9
$LUPREC
 70
     2
  9
$SKETCHINC
 40
0.1
  9
$FILLETRAD
 40
5.0
  9
$AUNITS
 70
     0
  9
$AUPREC
 70
     0
  9
$MENU
  1
A:\TIGER\MENU\TIGER
  9
$ELEVATION
 40
0.0
  9
$PELEVATION
 40
0.0
  9
$THICKNESS
 40
0.0
  9
$LIMCHECK
 70
     0
  9
$CHAMFERA
 40
0.0
  9
$CHAMFERB
 40
0.0
  9
$CHAMFERC
 40
0.0
  9
$CHAMFERD
 40
0.0
  9
$SKPOLY
 70
     0
  9
$TDCREATE
 40
2450266.571064815
  9
$TDUCREATE
 40
2450266.196064815
  9
$TDUPDATE
 40
2456330.315528240
  9
$TDUUPDATE
 40
2456329.940528240
  9
$TDINDWG
 40
0.1555984259
  9
$TDUSRTIMER
 40
0.1555984259
  9
$USRTIMER
 70
     1
  9
$ANGBASE
 50
0.0
  9
$ANGDIR
 70
     0
  9
$PDMODE
 70
     0
  9
$PDSIZE
 40
0.0
  9
$PLINEWID
 40
0.0
  9
$SPLFRAME
 70
     0
  9
$SPLINETYPE
 70
     6
  9
$SPLINESEGS
 70
     8
  9
$HANDSEED
  5
20DCD
  9
$SURFTAB1
 70
     6
  9
$SURFTAB2
 70
     6
  9
$SURFTYPE
 70
     6
  9
$SURFU
 70
     6
  9
$SURFV
 70
     6
  9
$UCSBASE
  2

  9
$UCSNAME
  2

  9
$UCSORG
 10
0.0
 20
0.0
 30
0.0
  9
$UCSXDIR
 10
1.0
 20
0.0
 30
0.0
  9
$UCSYDIR
 10
0.0
 20
1.0
 30
0.0
  9
$UCSORTHOREF
  2

  9
$UCSORTHOVIEW
 70
     0
  9
$UCSORGTOP
 10
0.0
 20
0.0
 30
0.0
  9
$UCSORGBOTTOM
 10
0.0
 20
0.0
 30
0.0
  9
$UCSORGLEFT
 10
0.0
 20
0.0
 30
0.0
  9
$UCSORGRIGHT
 10
0.0
 20
0.0
 30
0.0
  9
$UCSORGFRONT
 10
0.0
 20
0.0
 30
0.0
  9
$UCSORGBACK
 10
0.0
 20
0.0
 30
0.0
  9
$PUCSBASE
  2

  9
$PUCSNAME
  2

  9
$PUCSORG
 10
0.0
 20
0.0
 30
0.0
  9
$PUCSXDIR
 10
1.0
 20
0.0
 30
0.0
  9
$PUCSYDIR
 10
0.0
 20
1.0
 30
0.0
  9
$PUCSORTHOREF
  2

  9
$PUCSORTHOVIEW
 70
     0
  9
$PUCSORGTOP
 10
0.0
 20
0.0
 30
0.0
  9
$PUCSORGBOTTOM
 10
0.0
 20
0.0
 30
0.0
  9
$PUCSORGLEFT
 10
0.0
 20
0.0
 30
0.0
  9
$PUCSORGRIGHT
 10
0.0
 20
0.0
 30
0.0
  9
$PUCSORGFRONT
 10
0.0
 20
0.0
 30
0.0
  9
$PUCSORGBACK
 10
0.0
 20
0.0
 30
0.0
  9
$USERI1
 70
     3
  9
$USERI2
 70
     0
  9
$USERI3
 70
     0
  9
$USERI4
 70
     0
  9
$USERI5
 70
  1103
  9
$USERR1
 40
0.0
  9
$USERR2
 40
1.0
  9
$USERR3
 40
0.0
  9
$USERR4
 40
0.0
  9
$USERR5
 40
0.0
  9
$WORLDVIEW
 70
     1
  9
$SHADEDGE
 70
     3
  9
$SHADEDIF
 70
    70
  9
$TILEMODE
 70
     1
  9
$MAXACTVP
 70
    16
  9
$PINSBASE
 10
0.0
 20
0.0
 30
0.0
  9
$PLIMCHECK
 70
     0
  9
$PEXTMIN
 10
1.000000000000000E+20
 20
1.000000000000000E+20
 30
1.000000000000000E+20
  9
$PEXTMAX
 10
-1.000000000000000E+20
 20
-1.000000000000000E+20
 30
-1.000000000000000E+20
  9
$PLIMMIN
 10
0.0
 20
0.0
  9
$PLIMMAX
 10
12.0
 20
9.0
  9
$UNITMODE
 70
     0
  9
$VISRETAIN
 70
     0
  9
$PLINEGEN
 70
     1
  9
$PSLTSCALE
 70
     0
  9
$TREEDEPTH
 70
  3020
  9
$CMLSTYLE
  2
Standard
  9
$CMLJUST
 70
     0
  9
$CMLSCALE
 40
1.0
  9
$PROXYGRAPHICS
 70
     1
  9
$MEASUREMENT
 70
     0
  9
$CELWEIGHT
370
    -1
  9
$ENDCAPS
280
     0
  9
$JOINSTYLE
280
     0
  9
$LWDISPLAY
290
     0
  9
$INSUNITS
 70
     0
  9
$HYPERLINKBASE
  1

  9
$STYLESHEET
  1

  9
$XEDIT
290
     1
  9
$CEPSNTYPE
380
     0
  9
$PSTYLEMODE
290
     1
  9
$FINGERPRINTGUID
  2
{779AD39B-B50D-4631-9724-7D342BA920AB}
  9
$VERSIONGUID
  2
{50D6B58E-0F84-4D66-A344-63CCBC9A1DAB}
  9
$EXTNAMES
290
     1
  9
$PSVPSCALE
 40
0.0
  9
$OLESTARTUP
290
     0
  0
ENDSEC
  0
SECTION
  2
CLASSES
  0
CLASS
  1
ACDBDICTIONARYWDFLT
  2
AcDbDictionaryWithDefault
  3
AutoCAD 2000
 90
        0
280
     0
281
     0
  0
CLASS
  1
ACDBPLACEHOLDER
  2
AcDbPlaceHolder
  3
AutoCAD 2000
 90
        0
280
     0
281
     0
  0
CLASS
  1
LAYOUT
  2
AcDbLayout
  3
AutoCAD 2000
 90
        0
280
     0
281
     0
  0
CLASS
  1
DICTIONARYVAR
  2
AcDbDictionaryVar
  3
AutoCAD 2000
 90
        0
280
     0
281
     0
  0
ENDSEC
  0
SECTION
  2
TABLES
  0
TABLE
  2
VPORT
  5
209ED
330
0
100
AcDbSymbolTable
 70
     2
  0
VPORT
  5
20DCC
330
209ED
100
AcDbSymbolTableRecord
100
AcDbViewportTableRecord
  2
*Active
 70
     0
 10
0.0
 20
0.0
 11
1.0
 21
1.0
 12
6306.248503465031
 22
4277.237798248231
 13
0.0
 23
0.0
 14
1.0
 24
1.0
 15
0.0
 25
0.0
 16
0.0
 26
0.0
 36
1.0
 17
0.0
 27
0.0
 37
0.0
 40
9739.304914791837
 41
1.236040609137055
 42
50.0
 43
0.0
 44
0.0
 50
0.0
 51
0.0
 71
     0
 72
 10000
 73
     1
 74
     0
 75
     0
 76
     0
 77
     0
 78
     0
281
     0
 65
     1
110
0.0
120
0.0
130
0.0
111
1.0
121
0.0
131
0.0
112
0.0
122
1.0
132
0.0
 79
     0
146
0.0
  0
ENDTAB
  0
TABLE
  2
LTYPE
  5
209EA
330
0
100
AcDbSymbolTable
 70
     4
  0
LTYPE
  5
209F8
330
209EA
100
AcDbSymbolTableRecord
100
AcDbLinetypeTableRecord
  2
ByBlock
 70
     0
  3

 72
    65
 73
     0
 40
0.0
  0
LTYPE
  5
209F9
330
209EA
100
AcDbSymbolTableRecord
100
AcDbLinetypeTableRecord
  2
ByLayer
 70
     0
  3

 72
    65
 73
     0
 40
0.0
  0
LTYPE
  5
209FA
330
209EA
100
AcDbSymbolTableRecord
100
AcDbLinetypeTableRecord
  2
CONTINUOUS
 70
     0
  3
実線
 72
    65
 73
     0
 40
0.0
  0
LTYPE
  5
20A0A
330
209EA
100
AcDbSymbolTableRecord
100
AcDbLinetypeTableRecord
  2
1PL-M
 70
     0
  3

 72
    65
 73
     4
 40
15.0
 49
12.0
 74
     0
 49
-1.0
 74
     0
 49
1.0
 74
     0
 49
-1.0
 74
     0
  0
LTYPE
  5
20A0B
330
209EA
100
AcDbSymbolTableRecord
100
AcDbLinetypeTableRecord
  2
1PL-S
 70
     0
  3

 72
    65
 73
     4
 40
4.0
 49
2.5
 74
     0
 49
-0.5
 74
     0
 49
0.5
 74
     0
 49
-0.5
 74
     0
  0
LTYPE
  5
20A0C
330
209EA
100
AcDbSymbolTableRecord
100
AcDbLinetypeTableRecord
  2
2PL-L
 70
     0
  3

 72
    65
 73
     6
 40
60.0
 49
50.0
 74
     0
 49
-2.0
 74
     0
 49
2.0
 74
     0
 49
-2.0
 74
     0
 49
2.0
 74
     0
 49
-2.0
 74
     0
  0
ENDTAB
  0
TABLE
  2
LAYER
  5
209E7
330
0
100
AcDbSymbolTable
 70
    18
  0
LAYER
  5
209F5
330
209E7
100
AcDbSymbolTableRecord
100
AcDbLayerTableRecord
  2
0
 70
     0
 62
     7
  6
CONTINUOUS
370
    -3
390
209F4
  0
LAYER
  5
20A07
330
209E7
100
AcDbSymbolTableRecord
100
AcDbLayerTableRecord
  2
SUNPOU
 70
     0
 62
     4
  6
CONTINUOUS
370
    -3
390
209F4
  0
LAYER
  5
20A0D
330
209E7
100
AcDbSymbolTableRecord
100
AcDbLayerTableRecord
  2
U1
 70
     0
 62
     3
  6
CONTINUOUS
370
    -3
390
209F4
  0
LAYER
  5
20A0E
330
209E7
100
AcDbSymbolTableRecord
100
AcDbLayerTableRecord
  2
U2
 70
     0
 62
     4
  6
CONTINUOUS
370
    -3
390
209F4
  0
LAYER
  5
20A0F
330
209E7
100
AcDbSymbolTableRecord
100
AcDbLayerTableRecord
  2
U3
 70
     0
 62
     6
  6
CONTINUOUS
370
    -3
390
209F4
  0
LAYER
  5
20A10
330
209E7
100
AcDbSymbolTableRecord
100
AcDbLayerTableRecord
  2
HIKIDASHI
 70
     0
 62
     6
  6
CONTINUOUS
370
    -3
390
209F4
  0
LAYER
  5
20A11
330
209E7
100
AcDbSymbolTableRecord
100
AcDbLayerTableRecord
  2
1PL-S1
 70
     0
 62
     6
  6
1PL-S
370
    -3
390
209F4
  0
LAYER
  5
20A12
330
209E7
100
AcDbSymbolTableRecord
100
AcDbLayerTableRecord
  2
1PL-M1
 70
     0
 62
     6
  6
1PL-M
370
    -3
390
209F4
  0
LAYER
  5
20A13
330
209E7
100
AcDbSymbolTableRecord
100
AcDbLayerTableRecord
  2
2PL-L2
 70
     0
 62
     1
  6
2PL-L
370
    -3
390
209F4
  0
LAYER
  5
20A14
330
209E7
100
AcDbSymbolTableRecord
100
AcDbLayerTableRecord
  2
KISO
 70
     0
 62
     2
  6
CONTINUOUS
370
    -3
390
209F4
  0
LAYER
  5
20A15
330
209E7
100
AcDbSymbolTableRecord
100
AcDbLayerTableRecord
  2
HATCH
 70
     0
 62
     1
  6
CONTINUOUS
370
    -3
390
209F4
  0
LAYER
  5
20A16
330
209E7
100
AcDbSymbolTableRecord
100
AcDbLayerTableRecord
  2
NAME
 70
     0
 62
    20
  6
CONTINUOUS
370
    -3
390
209F4
  0
LAYER
  5
20A17
330
209E7
100
AcDbSymbolTableRecord
100
AcDbLayerTableRecord
  2
FILENAME
 70
     0
 62
     7
  6
CONTINUOUS
370
    -3
390
209F4
  0
LAYER
  5
20A18
330
209E7
100
AcDbSymbolTableRecord
100
AcDbLayerTableRecord
  2
HASHIRA
 70
     0
 62
     3
  6
CONTINUOUS
370
    -3
390
209F4
  0
LAYER
  5
20A19
330
209E7
100
AcDbSymbolTableRecord
100
AcDbLayerTableRecord
  2
YODOROGO
 70
     0
 62
   130
  6
CONTINUOUS
370
    -3
390
209F4
  0
LAYER
  5
20A1A
330
209E7
100
AcDbSymbolTableRecord
100
AcDbLayerTableRecord
  2
WAKUSEN-01
 70
     0
 62
    50
  6
CONTINUOUS
370
    -3
390
209F4
  0
LAYER
  5
20A1B
330
209E7
100
AcDbSymbolTableRecord
100
AcDbLayerTableRecord
  2
WAKUSEN-02
 70
     0
 62
   130
  6
CONTINUOUS
370
    -3
390
209F4
  0
LAYER
  5
20A1C
330
209E7
100
AcDbSymbolTableRecord
100
AcDbLayerTableRecord
  2
WAKUMOJI-01
 70
     0
 62
   130
  6
CONTINUOUS
370
    -3
390
209F4
  0
ENDTAB
  0
TABLE
  2
STYLE
  5
209E8
330
0
100
AcDbSymbolTable
 70
     5
  0
STYLE
  5
209F6
330
209E8
100
AcDbSymbolTableRecord
100
AcDbTextStyleTableRecord
  2
STANDARD
 70
     0
 40
3.0
 41
1.0
 50
0.0
 71
     0
 42
0.2
  3
ROMANS
  4
EXTFONT
  0
STYLE
  5
20A08
330
209E8
100
AcDbSymbolTableRecord
100
AcDbTextStyleTableRecord
  2
00
 70
     0
 40
0.0
 41
0.6666666666666666
 50
0.0
 71
     0
 42
0.2
  3
ROMANS
  4
BIGFONT
  0
STYLE
  5
20A1D
330
209E8
100
AcDbSymbolTableRecord
100
AcDbTextStyleTableRecord
  2
01
 70
     0
 40
3.0
 41
1.0
 50
0.0
 71
     0
 42
0.2
  3
ROMANS
  4
BIGFONT
  0
STYLE
  5
20A1E
330
209E8
100
AcDbSymbolTableRecord
100
AcDbTextStyleTableRecord
  2
WAKUMOJI
 70
     0
 40
3.0
 41
1.0
 50
0.0
 71
     0
 42
3.0
  3
SIMPLEX
  4
BIGFONT
  0
STYLE
  5
20A1F
330
209E8
100
AcDbSymbolTableRecord
100
AcDbTextStyleTableRecord
  2
FILENAME
 70
     0
 40
75.0
 41
1.0
 50
0.0
 71
     0
 42
75.0
  3
romans
  4
bigfont
  0
ENDTAB
  0
TABLE
  2
VIEW
  5
209EB
330
0
100
AcDbSymbolTable
 70
     0
  0
ENDTAB
  0
TABLE
  2
UCS
  5
209EC
330
0
100
AcDbSymbolTable
 70
     0
  0
ENDTAB
  0
TABLE
  2
APPID
  5
209EE
330
0
100
AcDbSymbolTable
 70
     4
  0
APPID
  5
209F7
330
209EE
100
AcDbSymbolTableRecord
100
AcDbRegAppTableRecord
  2
ACAD
 70
     0
  0
APPID
  5
20A20
330
209EE
100
AcDbSymbolTableRecord
100
AcDbRegAppTableRecord
  2
AUTOCAD_POSTSCRIPT_FIGURE
 70
     0
  0
APPID
  5
20A21
330
209EE
100
AcDbSymbolTableRecord
100
AcDbRegAppTableRecord
  2
ACAD_PSEXT
 70
     0
  0
APPID
  5
20A22
330
209EE
100
AcDbSymbolTableRecord
100
AcDbRegAppTableRecord
  2
ACAD_EXEMPT_FROM_CAD_STANDARDS
 70
     0
  0
ENDTAB
  0
TABLE
  2
DIMSTYLE
  5
209EF
330
0
100
AcDbSymbolTable
 70
     1
100
AcDbDimStyleTable
 71
     0
  0
DIMSTYLE
105
20A23
330
209EF
100
AcDbSymbolTableRecord
100
AcDbDimStyleTableRecord
  2
SUNPOU
 70
     0
 40
30.0
 41
0.5
 42
1.0
 43
7.0
 44
1.5
 46
3.0
 73
     0
 74
     0
 77
     1
 78
     8
140
3.0
141
0.0
147
1.5
172
     1
173
     1
176
   256
177
   256
178
   256
271
     2
272
     2
279
     2
284
     8
285
     8
286
     8
340
20A08
  0
ENDTAB
  0
TABLE
  2
BLOCK_RECORD
  5
209E6
330
0
100
AcDbSymbolTable
 70
     8
  0
BLOCK_RECORD
  5
20A03
330
209E6
100
AcDbSymbolTableRecord
100
AcDbBlockTableRecord
  2
*Model_Space
340
20A06
  0
BLOCK_RECORD
  5
209FF
330
209E6
100
AcDbSymbolTableRecord
100
AcDbBlockTableRecord
  2
*Paper_Space
340
20A02
  0
BLOCK_RECORD
  5
20A28
330
209E6
100
AcDbSymbolTableRecord
100
AcDbBlockTableRecord
  2
$MODEL_SPACE
340
0
  0
BLOCK_RECORD
  5
20A2B
330
209E6
100
AcDbSymbolTableRecord
100
AcDbBlockTableRecord
  2
$PAPER_SPACE
340
0
  0
BLOCK_RECORD
  5
20A2E
330
209E6
100
AcDbSymbolTableRecord
100
AcDbBlockTableRecord
  2
DOT
340
0
  0
BLOCK_RECORD
  5
20A36
330
209E6
100
AcDbSymbolTableRecord
100
AcDbBlockTableRecord
  2
*U3
340
0
  0
BLOCK_RECORD
  5
20A3A
330
209E6
100
AcDbSymbolTableRecord
100
AcDbBlockTableRecord
  2
*U4
340
0
  0
BLOCK_RECORD
  5
20A3E
330
209E6
100
AcDbSymbolTableRecord
100
AcDbBlockTableRecord
  2
*U5
340
0
  0
BLOCK_RECORD
  5
20A42
330
209E6
100
AcDbSymbolTableRecord
100
AcDbBlockTableRecord
  2
*U6
340
0
  0
ENDTAB
  0
ENDSEC
  0
SECTION
  2
BLOCKS
  0
BLOCK
  5
20A04
330
20A03
100
AcDbEntity
  8
0
100
AcDbBlockBegin
  2
*Model_Space
 70
     0
 10
0.0
 20
0.0
 30
0.0
  3
*Model_Space
  1

  0
ENDBLK
  5
20A05
330
20A03
100
AcDbEntity
  8
0
100
AcDbBlockEnd
  0
BLOCK
  5
20A00
330
209FF
100
AcDbEntity
 67
     1
  8
0
100
AcDbBlockBegin
  2
*Paper_Space
 70
     0
 10
0.0
 20
0.0
 30
0.0
  3
*Paper_Space
  1

  0
ENDBLK
  5
20A01
330
209FF
100
AcDbEntity
 67
     1
  8
0
100
AcDbBlockEnd
  0
BLOCK
  5
20A29
330
20A28
100
AcDbEntity
  8
0
100
AcDbBlockBegin
  2
$MODEL_SPACE
 70
     0
 10
0.0
 20
0.0
 30
0.0
  3
$MODEL_SPACE
  1

  0
ENDBLK
  5
20A2A
330
20A28
100
AcDbEntity
  8
0
100
AcDbBlockEnd
  0
BLOCK
  5
20A2C
330
20A2B
100
AcDbEntity
  8
0
100
AcDbBlockBegin
  2
$PAPER_SPACE
 70
     0
 10
0.0
 20
0.0
 30
0.0
  3
$PAPER_SPACE
  1

  0
ENDBLK
  5
20A2D
330
20A2B
100
AcDbEntity
  8
0
100
AcDbBlockEnd
  0
BLOCK
  5
20A2F
330
20A2E
100
AcDbEntity
  8
0
100
AcDbBlockBegin
  2
DOT
 70
     0
 10
0.0
 20
0.0
 30
0.0
  3
DOT
  1

  0
LWPOLYLINE
  5
20A30
330
20A2E
100
AcDbEntity
  8
0
  6
ByBlock
 62
     0
100
AcDbPolyline
 90
        2
 70
     1
 43
0.75
 10
-0.375
 20
0.0
 42
1.0
 10
0.375
 20
0.0
 42
1.0
  0
LINE
  5
20A34
330
20A2E
100
AcDbEntity
  8
0
  6
ByBlock
 62
     0
100
AcDbLine
 10
-0.75
 20
0.0
 30
0.0
 11
-1.5
 21
0.0
 31
0.0
  0
ENDBLK
  5
20A35
330
20A2E
100
AcDbEntity
  8
0
100
AcDbBlockEnd
  0
BLOCK
  5
20A37
330
20A36
100
AcDbEntity
  8
0
100
AcDbBlockBegin
  2
*U3
 70
     1
 10
0.0
 20
0.0
 30
0.0
  3
*U3
  1

  0
TEXT
  5
20A38
330
20A36
100
AcDbEntity
  8
SUNPOU
100
AcDbText
 10
5176.02056461939
 20
1831.773870478877
 30
0.0
 40
90.0
  1
500
 50
90.0
 41
0.6666666666666666
  7
00
100
AcDbText
  0
ENDBLK
  5
20A39
330
20A36
100
AcDbEntity
  8
0
100
AcDbBlockEnd
  0
BLOCK
  5
20A3B
330
20A3A
100
AcDbEntity
  8
0
100
AcDbBlockBegin
  2
*U4
 70
     1
 10
0.0
 20
0.0
 30
0.0
  3
*U4
  1

  0
TEXT
  5
20A3C
330
20A3A
100
AcDbEntity
  8
SUNPOU
100
AcDbText
 10
5176.02056461939
 20
1169.631013336022
 30
0.0
 40
90.0
  1
100
 50
90.0
 41
0.6666666666666666
  7
00
100
AcDbText
  0
ENDBLK
  5
20A3D
330
20A3A
100
AcDbEntity
  8
0
100
AcDbBlockEnd
  0
BLOCK
  5
20A3F
330
20A3E
100
AcDbEntity
  8
0
100
AcDbBlockBegin
  2
*U5
 70
     1
 10
0.0
 20
0.0
 30
0.0
  3
*U5
  1

  0
TEXT
  5
20A40
330
20A3E
100
AcDbEntity
  8
SUNPOU
100
AcDbText
 10
3133.877707476536
 20
1107.488156193162
 30
0.0
 40
90.0
  1
650
 41
0.6666666666666666
  7
00
100
AcDbText
  0
ENDBLK
  5
20A41
330
20A3E
100
AcDbEntity
  8
0
100
AcDbBlockEnd
  0
BLOCK
  5
20A43
330
20A42
100
AcDbEntity
  8
0
100
AcDbBlockBegin
  2
*U6
 70
     1
 10
0.0
 20
0.0
 30
0.0
  3
*U6
  1

  0
TEXT
  5
20A44
330
20A42
100
AcDbEntity
  8
SUNPOU
100
AcDbText
 10
3135.306278905103
 20
897.4881561931622
 30
0.0
 40
90.0
  1
850
 41
0.6666666666666666
  7
00
100
AcDbText
  0
ENDBLK
  5
20A45
330
20A42
100
AcDbEntity
  8
0
100
AcDbBlockEnd
  0
ENDSEC
  0
SECTION
  2
ENTITIES
  0
LINE
  5
20A46
330
20A03
100
AcDbEntity
  8
HIKIDASHI
100
AcDbLine
 10
2873.206888001605
 20
533.4391373504939
 30
0.0
 11
3568.834241237175
 21
533.4391373504939
 31
0.0
  0
LINE
  5
20A47
330
20A03
100
AcDbEntity
  8
HIKIDASHI
100
AcDbLine
 10
2873.206888001605
 20
563.4391373504939
 30
0.0
 11
3568.834241237175
 21
563.4391373504939
 31
0.0
  0
TEXT
  5
20A48
330
20A03
100
AcDbEntity
  8
HIKIDASHI
100
AcDbText
 10
3297.224167498163
 20
608.4391373504939
 30
0.0
 40
90.0
  1
断 面
  7
01
100
AcDbText
  0
TEXT
  5
20A49
330
20A03
100
AcDbEntity
  8
HIKIDASHI
100
AcDbText
 10
2903.206888001605
 20
608.4391373504939
 30
0.0
 40
90.0
  1
A  ~  A'
 41
0.6700000000000001
  7
00
100
AcDbText
  0
TEXT
  5
20A4A
330
20A03
100
AcDbEntity
  8
SUNPOU
100
AcDbText
 10
5111.217177815774
 20
574.914044440873
 30
0.0
 40
90.0
  1
5-D13×5-D13
 41
0.6700000000000001
  7
01
 72
     4
 11
5454.640034958632
 21
619.9140444408732
 31
0.0
100
AcDbText
  0
TEXT
  5
20A4B
330
20A03
100
AcDbEntity
  8
SUNPOU
100
AcDbText
 10
4624.39709637313
 20
574.9140444408732
 30
0.0
 40
90.0
  1
ベース筋
  7
01
 72
     4
 11
4828.39709637313
 21
619.9140444408732
 31
0.0
100
AcDbText
  0
TEXT
  5
20A4C
330
20A03
100
AcDbEntity
  8
NAME
100
AcDbText
 10
9402.694977008243
 20
716.2499999999992
 30
0.0
 40
120.0
  1
YOTR
 41
0.7
  7
01
100
AcDbText
  0
TEXT
  5
20A4D
330
20A03
100
AcDbEntity
  8
NAME
100
AcDbText
 10
8327.765992739108
 20
716.2499999999992
 30
0.0
 40
120.0
  1
ヨド自転車置場      型
  7
01
100
AcDbText
  0
TEXT
  5
20A4E
330
20A03
100
AcDbEntity
  8
NAME
100
AcDbText
 10
8862.031985478214
 20
405.75
 30
0.0
 40
120.0
  1
型（一般地用）
 41
0.8
  7
01
100
AcDbText
  0
TEXT
  5
20A4F
330
20A03
100
AcDbEntity
  8
NAME
100
AcDbText
 10
8192.031985478214
 20
405.75
 30
0.0
 40
120.0
  1
YOTR-240
 41
0.7
  7
01
 72
     2
 11
8832.031985478215
 21
405.75
 31
0.0
100
AcDbText
  0
TEXT
  5
20A50
330
20A03
100
AcDbEntity
  8
NAME
100
AcDbText
 10
9641.100000000001
 20
405.7500000000001
 30
0.0
 40
120.0
  1
<3／3>
 41
0.6
  7
01
 72
     2
 11
10015.49999999999
 21
405.7500000000001
 31
0.0
100
AcDbText
  0
TEXT
  5
20A6E
330
20A03
100
AcDbEntity
  8
HIKIDASHI
100
AcDbText
 10
5471.87298712167
 20
4008.480853603641
 30
0.0
 40
135.0
  1
基 礎 伏 図
  7
01
 72
     2
 11
6317.872987121671
 21
4008.480853603641
 31
0.0
100
AcDbText
  0
TEXT
  5
20A6F
330
20A03
100
AcDbEntity
  8
HIKIDASHI
100
AcDbText
 10
6419.122987121671
 20
4035.274350663478
 30
0.0
 40
90.0
  1
(S=
 41
0.6700000000000001
  7
00
100
AcDbText
  0
TEXT
  5
20A70
330
20A03
100
AcDbEntity
  8
HIKIDASHI
100
AcDbText
 10
6711.780721756866
 20
4005.835540563169
 30
0.0
 40
90.0
  1
30
 41
0.6700000000000001
  7
00
100
AcDbText
  0
TEXT
  5
20A71
330
20A03
100
AcDbEntity
  8
HIKIDASHI
100
AcDbText
 10
6848.385484827109
 20
4035.274350663478
 30
0.0
 40
90.0
  1
)
 41
0.6700000000000001
  7
00
100
AcDbText
  0
TEXT
  5
20A72
330
20A03
100
AcDbEntity
  8
HIKIDASHI
100
AcDbText
 10
6659.6986726489
 20
4035.274350663478
 30
0.0
 40
90.0
  1
/
 41
0.6700000000000001
  7
00
100
AcDbText
  0
TEXT
  5
20A73
330
20A03
100
AcDbEntity
  8
HIKIDASHI
100
AcDbText
 10
6622.419392551553
 20
4052.781013130203
 30
0.0
 40
90.0
  1
1
 41
0.6700000000000001
  7
00
100
AcDbText
  0
TEXT
  5
20A74
330
20A03
100
AcDbEntity
  8
HIKIDASHI
100
AcDbText
 10
5623.150172296462
 20
3828.480853603641
 30
0.0
 40
120.0
  1
（  ：スパン数）
  7
01
 72
     4
 11
6179.150172296461
 21
3888.48085360364
 31
0.0
100
AcDbText
  0
TEXT
  5
20A75
330
20A03
100
AcDbEntity
  8
HIKIDASHI
100
AcDbText
 10
5801.739855606761
 20
3828.480853603641
 30
0.0
 40
120.0
  1
N
 41
0.6666666666666666
  7
00
 72
     4
 11
5843.644617511523
 21
3888.48085360364
 31
0.0
100
AcDbText
  0
LINE
  5
20A76
330
20A03
100
AcDbEntity
  8
U2
100
AcDbLine
 10
6167.527727734767
 20
4916.08385078625
 30
0.0
 11
6167.527727734767
 21
7716.083850786251
 31
0.0
  0
LINE
  5
20A77
330
20A03
100
AcDbEntity
  8
U2
100
AcDbLine
 10
6087.52772773477
 20
4916.08385078625
 30
0.0
 11
6087.527727734767
 21
7716.083850786251
 31
0.0
  0
LINE
  5
20A78
330
20A03
100
AcDbEntity
  8
1PL-M1
100
AcDbLine
 10
2115.944999670893
 20
6416.08385078625
 30
0.0
 11
10159.37104642379
 21
6416.083850786249
 31
0.0
  0
LINE
  5
20A79
330
20A03
100
AcDbEntity
  8
1PL-M1
100
AcDbLine
 10
7327.527727734768
 20
6016.083850786253
 30
0.0
 11
7327.527727734768
 21
6816.083850786251
 31
0.0
  0
LINE
  5
20A7A
330
20A03
100
AcDbEntity
  8
2PL-L2
100
AcDbLine
 10
2289.527727734768
 20
7426.172766976134
 30
0.0
 11
6087.527727734767
 21
7426.172766976134
 31
0.0
  0
LINE
  5
20A7B
330
20A03
100
AcDbEntity
  8
2PL-L2
100
AcDbLine
 10
2289.527727734768
 20
5425.172766976135
 30
0.0
 11
6087.527727734767
 21
5425.172766976133
 31
0.0
  0
LINE
  5
20A7C
330
20A03
100
AcDbEntity
  8
2PL-L2
100
AcDbLine
 10
6167.527727734767
 20
7426.172766976134
 30
0.0
 11
9965.527727734773
 21
7426.172766976131
 31
0.0
  0
LINE
  5
20A7D
330
20A03
100
AcDbEntity
  8
2PL-L2
100
AcDbLine
 10
6167.527727734767
 20
5425.172766976133
 30
0.0
 11
9965.527727734773
 21
5425.172766976134
 31
0.0
  0
LINE
  5
20A7E
330
20A03
100
AcDbEntity
  8
SUNPOU
100
AcDbLine
 10
2202.527727734767
 20
5395.172766976133
 30
0.0
 11
2202.527727734763
 21
4376.08385078625
 31
0.0
  0
LINE
  5
20A7F
330
20A03
100
AcDbEntity
  8
SUNPOU
100
AcDbLine
 10
10052.52772773475
 20
5395.172766976133
 30
0.0
 11
10052.52772773475
 21
4376.08385078625
 31
0.0
  0
LINE
  5
20A80
330
20A03
100
AcDbEntity
  8
SUNPOU
100
AcDbLine
 10
2217.527727734763
 20
4406.08385078625
 30
0.0
 11
10037.52772773476
 21
4406.08385078625
 31
0.0
  0
LINE
  5
20A81
330
20A03
100
AcDbEntity
  8
SUNPOU
100
AcDbLine
 10
2202.527727734763
 20
4646.08385078625
 30
0.0
 11
2202.527727734763
 21
4646.08385078625
 31
0.0
  0
LINE
  5
20A82
330
20A03
100
AcDbEntity
  8
SUNPOU
100
AcDbLine
 10
2527.527727734771
 20
5986.083850786251
 30
0.0
 11
2527.527727734764
 21
4586.08385078625
 31
0.0
  0
LINE
  5
20A83
330
20A03
100
AcDbEntity
  8
SUNPOU
100
AcDbLine
 10
2217.527727734763
 20
4616.08385078625
 30
0.0
 11
2512.527727734763
 21
4616.08385078625
 31
0.0
  0
TEXT
  5
20A84
330
20A03
100
AcDbEntity
  8
SUNPOU
100
AcDbText
 10
2283.169849437352
 20
4661.083850786249
 30
0.0
 40
90.0
  1
325
 41
0.6666666666666666
  7
00
 72
     4
 11
2368.884135151638
 21
4706.083850786249
 31
0.0
100
AcDbText
  0
LINE
  5
20A85
330
20A03
100
AcDbEntity
  8
SUNPOU
100
AcDbLine
 10
2527.527727734767
 20
5631.025698751698
 30
0.0
 11
2527.527727734764
 21
4586.08385078625
 31
0.0
  0
LINE
  5
20A86
330
20A03
100
AcDbEntity
  8
SUNPOU
100
AcDbLine
 10
4927.527727734767
 20
5986.083850786251
 30
0.0
 11
4927.527727734763
 21
4586.08385078625
 31
0.0
  0
LINE
  5
20A87
330
20A03
100
AcDbEntity
  8
SUNPOU
100
AcDbLine
 10
2542.527727734762
 20
4616.08385078625
 30
0.0
 11
4912.527727734767
 21
4616.08385078625
 31
0.0
  0
TEXT
  5
20A88
330
20A03
100
AcDbEntity
  8
SUNPOU
100
AcDbText
 10
3613.242013449049
 20
4661.083850786249
 30
0.0
 40
90.0
  1
2400
 41
0.6666666666666666
  7
00
 72
     4
 11
3727.527727734763
 21
4706.083850786249
 31
0.0
100
AcDbText
  0
LINE
  5
20A89
330
20A03
100
AcDbEntity
  8
SUNPOU
100
AcDbLine
 10
4927.527727734767
 20
5631.025698751698
 30
0.0
 11
4927.527727734763
 21
4586.08385078625
 31
0.0
  0
LINE
  5
20A8A
330
20A03
100
AcDbEntity
  8
SUNPOU
100
AcDbLine
 10
7327.527727734768
 20
5986.083850786249
 30
0.0
 11
7327.527727734763
 21
4586.08385078625
 31
0.0
  0
LINE
  5
20A8B
330
20A03
100
AcDbEntity
  8
SUNPOU
100
AcDbLine
 10
4942.527727734763
 20
4616.08385078625
 30
0.0
 11
7312.527727734765
 21
4616.08385078625
 31
0.0
  0
LINE
  5
20A8C
330
20A03
100
AcDbEntity
  8
SUNPOU
100
AcDbLine
 10
7327.527727734768
 20
5631.025698751698
 30
0.0
 11
7327.527727734763
 21
4586.08385078625
 31
0.0
  0
LINE
  5
20A8D
330
20A03
100
AcDbEntity
  8
SUNPOU
100
AcDbLine
 10
7342.527727734763
 20
4616.08385078625
 30
0.0
 11
9712.527727734766
 21
4616.08385078625
 31
0.0
  0
TEXT
  5
20A8E
330
20A03
100
AcDbEntity
  8
SUNPOU
100
AcDbText
 10
8413.242013449048
 20
4661.083850786249
 30
0.0
 40
90.0
  1
2400
 41
0.6666666666666666
  7
00
 72
     4
 11
8527.527727734762
 21
4706.083850786249
 31
0.0
100
AcDbText
  0
LINE
  5
20A8F
330
20A03
100
AcDbEntity
  8
SUNPOU
100
AcDbLine
 10
9727.527727734774
 20
5395.172766976133
 30
0.0
 11
9727.527727734766
 21
4586.08385078625
 31
0.0
  0
LINE
  5
20A90
330
20A03
100
AcDbEntity
  8
SUNPOU
100
AcDbLine
 10
10052.52772773475
 20
4646.08385078625
 30
0.0
 11
10052.52772773475
 21
4646.08385078625
 31
0.0
  0
LINE
  5
20A91
330
20A03
100
AcDbEntity
  8
SUNPOU
100
AcDbLine
 10
9742.527727734765
 20
4616.08385078625
 30
0.0
 11
10037.52772773476
 21
4616.08385078625
 31
0.0
  0
TEXT
  5
20A92
330
20A03
100
AcDbEntity
  8
SUNPOU
100
AcDbText
 10
9804.313442020479
 20
4661.083850786249
 30
0.0
 40
90.0
  1
325
 41
0.6666666666666666
  7
00
 72
     4
 11
9890.027727734766
 21
4706.083850786249
 31
0.0
100
AcDbText
  0
TEXT
  5
20A93
330
20A03
100
AcDbEntity
  8
SUNPOU
100
AcDbText
 10
5654.38487059191
 20
4451.08385078625
 30
0.0
 40
90.0
  1
L ＝ 2400 × N ＋ 650
 41
0.6666666666666666
  7
00
 72
     4
 11
6127.527727734767
 21
4496.083850786249
 31
0.0
100
AcDbText
  0
TEXT
  5
20A94
330
20A03
100
AcDbEntity
  8
SUNPOU
100
AcDbText
 10
5737.813442020481
 20
4661.083850786249
 30
0.0
 40
90.0
  1
2400 ×（ N - 2 ）
 41
0.6666666666666666
  7
00
 72
     4
 11
6127.527727734767
 21
4706.083850786249
 31
0.0
100
AcDbText
  0
LINE
  5
20A95
330
20A03
100
AcDbEntity
  8
1PL-M1
100
AcDbLine
 10
9727.527727734774
 20
5990.805990360579
 30
0.0
 11
9727.527727734774
 21
6816.083850786251
 31
0.0
  0
LINE
  5
20A96
330
20A03
100
AcDbEntity
  8
U3
100
AcDbLine
 10
10052.52772773475
 20
5016.08385078625
 30
0.0
 11
10052.52772773475
 21
7616.08385078625
 31
0.0
  0
LINE
  5
20A97
330
20A03
100
AcDbEntity
  8
U3
100
AcDbLine
 10
2202.527727734767
 20
7616.08385078625
 30
0.0
 11
6087.527727734767
 21
7616.08385078625
 31
0.0
  0
LINE
  5
20A98
330
20A03
100
AcDbEntity
  8
U3
100
AcDbLine
 10
2202.527727734767
 20
5016.083850786249
 30
0.0
 11
6087.52772773477
 21
5016.08385078625
 31
0.0
  0
LINE
  5
20A99
330
20A03
100
AcDbEntity
  8
U3
100
AcDbLine
 10
2202.527727734767
 20
5016.083850786249
 30
0.0
 11
2202.527727734767
 21
7616.08385078625
 31
0.0
  0
LINE
  5
20A9A
330
20A03
100
AcDbEntity
  8
U3
100
AcDbLine
 10
6167.527727734767
 20
7616.08385078625
 30
0.0
 11
10052.52772773475
 21
7616.08385078625
 31
0.0
  0
LINE
  5
20A9B
330
20A03
100
AcDbEntity
  8
U3
100
AcDbLine
 10
6167.52772773477
 20
5016.08385078625
 30
0.0
 11
10052.52772773475
 21
5016.08385078625
 31
0.0
  0
TEXT
  5
20A9C
330
20A03
100
AcDbEntity
  8
SUNPOU
100
AcDbText
 10
3364.527727734766
 20
5290.172766976133
 30
0.0
 40
90.0
  1
（鼻隠し外面）
  7
01
 72
     4
 11
3727.527727734766
 21
5335.172766976133
 31
0.0
100
AcDbText
  0
TEXT
  5
20A9D
330
20A03
100
AcDbEntity
  8
SUNPOU
100
AcDbText
 10
3202.527727734767
 20
5061.083850786249
 30
0.0
 40
90.0
  1
（土間コン前面位置）
  7
01
 72
     4
 11
3727.527727734766
 21
5106.083850786249
 31
0.0
100
AcDbText
  0
TEXT
  5
20A9E
330
20A03
100
AcDbEntity
  8
SUNPOU
100
AcDbText
 10
3310.527727734767
 20
7471.172766976135
 30
0.0
 40
90.0
  1
（屋根後面位置）
  7
01
 72
     4
 11
3727.527727734766
 21
7516.172766976135
 31
0.0
100
AcDbText
  0
TEXT
  5
20A9F
330
20A03
100
AcDbEntity
  8
SUNPOU
100
AcDbText
 10
3202.527727734767
 20
7661.083850786249
 30
0.0
 40
90.0
  1
（土間コン後面位置）
  7
01
 72
     4
 11
3727.527727734766
 21
7706.083850786249
 31
0.0
100
AcDbText
  0
LINE
  5
20AA0
330
20A03
100
AcDbEntity
  8
SUNPOU
100
AcDbLine
 10
10082.52772773476
 20
7616.08385078625
 30
0.0
 11
10777.52772773475
 21
7616.08385078625
 31
0.0
  0
LINE
  5
20AA1
330
20A03
100
AcDbEntity
  8
SUNPOU
100
AcDbLine
 10
10082.52772773476
 20
5016.08385078625
 30
0.0
 11
10777.52772773475
 21
5016.08385078625
 31
0.0
  0
LINE
  5
20AA2
330
20A03
100
AcDbEntity
  8
SUNPOU
100
AcDbLine
 10
10747.52772773476
 20
7601.08385078625
 30
0.0
 11
10747.52772773476
 21
5031.08385078625
 31
0.0
  0
TEXT
  5
20AA3
330
20A03
100
AcDbEntity
  8
SUNPOU
100
AcDbText
 10
10702.52772773476
 20
6201.798136500535
 30
0.0
 40
90.0
  1
2600
 50
90.0
 41
0.6666666666666666
  7
00
 72
     1
 11
10657.52772773475
 21
6316.08385078625
 31
0.0
100
AcDbText
 73
     2
  0
LINE
  5
20AA4
330
20A03
100
AcDbEntity
  8
SUNPOU
100
AcDbLine
 10
10507.52772773476
 20
7616.08385078625
 30
0.0
 11
10507.52772773476
 21
7616.08385078625
 31
0.0
  0
LINE
  5
20AA5
330
20A03
100
AcDbEntity
  8
SUNPOU
100
AcDbLine
 10
10387.52772773475
 20
6416.08385078625
 30
0.0
 11
10567.52772773476
 21
6416.08385078625
 31
0.0
  0
LINE
  5
20AA6
330
20A03
100
AcDbEntity
  8
SUNPOU
100
AcDbLine
 10
10537.52772773475
 20
7601.08385078625
 30
0.0
 11
10537.52772773475
 21
6431.08385078625
 31
0.0
  0
TEXT
  5
20AA7
330
20A03
100
AcDbEntity
  8
SUNPOU
100
AcDbText
 10
10492.52772773475
 20
6897.512422214821
 30
0.0
 40
90.0
  1
1200
 50
90.0
 41
0.6666666666666666
  7
00
 72
     1
 11
10447.52772773476
 21
7016.083850786251
 31
0.0
100
AcDbText
 73
     2
  0
LINE
  5
20AA8
330
20A03
100
AcDbEntity
  8
SUNPOU
100
AcDbLine
 10
10507.52772773476
 20
5016.08385078625
 30
0.0
 11
10507.52772773476
 21
5016.08385078625
 31
0.0
  0
LINE
  5
20AA9
330
20A03
100
AcDbEntity
  8
SUNPOU
100
AcDbLine
 10
10537.52772773475
 20
6401.08385078625
 30
0.0
 11
10537.52772773475
 21
5031.08385078625
 31
0.0
  0
TEXT
  5
20AAA
330
20A03
100
AcDbEntity
  8
SUNPOU
100
AcDbText
 10
10492.52772773475
 20
5597.512422214822
 30
0.0
 40
90.0
  1
1400
 50
90.0
 41
0.6666666666666666
  7
00
 72
     1
 11
10447.52772773476
 21
5716.08385078625
 31
0.0
100
AcDbText
 73
     2
  0
LINE
  5
20AAB
330
20A03
100
AcDbEntity
  8
SUNPOU
100
AcDbLine
 10
10082.52772773476
 20
6741.08385078625
 30
0.0
 11
10357.52772773476
 21
6741.08385078625
 31
0.0
  0
LINE
  5
20AAC
330
20A03
100
AcDbEntity
  8
SUNPOU
100
AcDbLine
 10
10082.52772773476
 20
6091.08385078625
 30
0.0
 11
10357.52772773476
 21
6091.08385078625
 31
0.0
  0
LINE
  5
20AAD
330
20A03
100
AcDbEntity
  8
SUNPOU
100
AcDbLine
 10
10327.52772773475
 20
6726.08385078625
 30
0.0
 11
10327.52772773475
 21
6106.08385078625
 31
0.0
  0
TEXT
  5
20AAE
330
20A03
100
AcDbEntity
  8
SUNPOU
100
AcDbText
 10
10282.52772773476
 20
6328.940993643393
 30
0.0
 40
90.0
  1
650
 50
90.0
 41
0.6666666666666666
  7
00
 72
     1
 11
10237.52772773476
 21
6416.08385078625
 31
0.0
100
AcDbText
 73
     2
  0
LINE
  5
20AAF
330
20A03
100
AcDbEntity
  8
SUNPOU
100
AcDbLine
 10
9402.52772773476
 20
6061.08385078625
 30
0.0
 11
9402.52772773476
 21
5786.08385078625
 31
0.0
  0
LINE
  5
20AB0
330
20A03
100
AcDbEntity
  8
SUNPOU
100
AcDbLine
 10
10052.52772773475
 20
5846.08385078625
 30
0.0
 11
10052.52772773475
 21
5846.08385078625
 31
0.0
  0
LINE
  5
20AB1
330
20A03
100
AcDbEntity
  8
SUNPOU
100
AcDbLine
 10
9417.527727734761
 20
5816.08385078625
 30
0.0
 11
10037.52772773476
 21
5816.08385078625
 31
0.0
  0
TEXT
  5
20AB2
330
20A03
100
AcDbEntity
  8
SUNPOU
100
AcDbText
 10
9640.384870591915
 20
5861.083850786251
 30
0.0
 40
90.0
  1
650
 41
0.6666666666666666
  7
00
 72
     1
 11
9727.527727734774
 21
5906.08385078625
 31
0.0
100
AcDbText
 73
     2
  0
LINE
  5
20AB3
330
20A03
100
AcDbEntity
  8
1PL-S1
100
AcDbLine
 10
10361.73282759347
 20
6416.083850786248
 30
0.0
 11
10567.52772773476
 21
6416.083850786249
 31
0.0
  0
LINE
  5
20AB4
330
20A03
100
AcDbEntity
  8
SUNPOU
100
AcDbLine
 10
9727.527727734774
 20
5781.917411318055
 30
0.0
 11
9727.527727734766
 21
4586.08385078625
 31
0.0
  0
LINE
  5
20AB5
330
20A03
100
AcDbEntity
  8
HIKIDASHI
100
AcDbLine
 10
9700.903269398208
 20
6443.407114103198
 30
0.0
 11
9452.655250883564
 21
6873.385295048665
 31
0.0
  0
TEXT
  5
20AB6
330
20A03
100
AcDbEntity
  8
HIKIDASHI
100
AcDbText
 10
9033.255738409719
 20
6918.385295048667
 30
0.0
 40
90.0
  1
柱
  7
01
 72
     2
 11
9117.255738409721
 21
6963.385295048666
 31
0.0
100
AcDbText
 73
     2
  0
LINE
  5
20AB7
330
20A03
100
AcDbEntity
  8
HIKIDASHI
100
AcDbLine
 10
9030.621298659408
 20
6873.385295048665
 30
0.0
 11
9452.655250883564
 21
6873.385295048665
 31
0.0
  0
CIRCLE
  5
20AB8
330
20A03
100
AcDbEntity
  8
U1
100
AcDbCircle
 10
9727.527727734774
 20
6416.083850786249
 30
0.0
 40
38.14999999999999
  0
TEXT
  5
20AB9
330
20A03
100
AcDbEntity
  8
HIKIDASHI
100
AcDbText
 10
9392.803144824744
 20
6933.385295048664
 30
0.0
 40
90.0
  1
%%c
 41
0.6666666666666666
  7
00
100
AcDbText
  0
TEXT
  5
20ABA
330
20A03
100
AcDbEntity
  8
HIKIDASHI
100
AcDbText
 10
9164.974987459954
 20
6918.385295048667
 30
0.0
 40
90.0
  1
76.3
 41
0.6666666666666666
  7
00
 11
9164.974987459954
 21
6963.385295048666
 31
0.0
100
AcDbText
 73
     2
  0
CIRCLE
  5
20ABB
330
20A03
100
AcDbEntity
  8
U1
100
AcDbCircle
 10
7327.527727734768
 20
6416.083850786249
 30
0.0
 40
38.14999999999999
  0
CIRCLE
  5
20ABC
330
20A03
100
AcDbEntity
  8
U1
100
AcDbCircle
 10
4927.527727734767
 20
6416.083850786249
 30
0.0
 40
38.14999999999999
  0
CIRCLE
  5
20ABD
330
20A03
100
AcDbEntity
  8
U1
100
AcDbCircle
 10
2527.527727734767
 20
6416.08385078625
 30
0.0
 40
38.14999999999999
  0
LINE
  5
20ABE
330
20A03
100
AcDbEntity
  8
SUNPOU
100
AcDbLine
 10
7117.527727734771
 20
6926.083850786254
 30
0.0
 11
7327.527727734771
 21
6926.083850786254
 31
0.0
  0
TEXT
  5
20ABF
330
20A03
100
AcDbEntity
  8
SUNPOU
100
AcDbText
 10
6901.634870591914
 20
6872.512422214824
 30
0.0
 40
90.0
  1
A'
 50
0.0000000000000509
 41
0.6700000000000001
  7
00
 72
     4
 11
6937.527727734771
 21
6926.083850786253
 31
0.0
100
AcDbText
  0
LINE
  5
20AC0
330
20A03
100
AcDbEntity
  8
SUNPOU
100
AcDbLine
 10
7327.527727734771
 20
6926.083850786254
 30
0.0
 11
7327.527727734771
 21
6776.083850786253
 31
0.0
  0
LINE
  5
20AC1
330
20A03
100
AcDbEntity
  8
SUNPOU
100
AcDbLine
 10
7117.527727734771
 20
5906.083850786252
 30
0.0
 11
7327.527727734771
 21
5906.083850786252
 31
0.0
  0
TEXT
  5
20AC2
330
20A03
100
AcDbEntity
  8
SUNPOU
100
AcDbText
 10
6911.684870591914
 20
5861.083850786252
 30
0.0
 40
90.0
  1
A
 50
0.0000000000000509
 41
0.6700000000000001
  7
00
 72
     4
 11
6937.527727734771
 21
5906.083850786252
 31
0.0
100
AcDbText
  0
LINE
  5
20AC3
330
20A03
100
AcDbEntity
  8
SUNPOU
100
AcDbLine
 10
7327.527727734771
 20
5906.083850786256
 30
0.0
 11
7327.527727734771
 21
6056.083850786256
 31
0.0
  0
LINE
  5
20AC4
330
20A03
100
AcDbEntity
  8
SUNPOU
100
AcDbLine
 10
10052.52772773475
 20
6061.08385078625
 30
0.0
 11
10052.52772773475
 21
5786.08385078625
 31
0.0
  0
LINE
  5
20AC5
330
20A03
100
AcDbEntity
  8
1PL-M1
100
AcDbLine
 10
4927.527727734769
 20
6016.083850786253
 30
0.0
 11
4927.527727734767
 21
6816.083850786251
 31
0.0
  0
LINE
  5
20AC6
330
20A03
100
AcDbEntity
  8
1PL-M1
100
AcDbLine
 10
2527.527727734771
 20
6016.083850786253
 30
0.0
 11
2527.527727734767
 21
6816.083850786251
 31
0.0
  0
LINE
  5
20AC7
330
20A03
100
AcDbEntity
  8
SUNPOU
100
AcDbLine
 10
2213.777727734763
 20
4406.08385078625
 30
0.0
 11
2225.027727734763
 21
4406.08385078625
 31
0.0
  0
LINE
  5
20AC8
330
20A03
100
AcDbEntity
  8
SUNPOU
100
AcDbLine
 10
2213.777727734763
 20
4616.08385078625
 30
0.0
 11
2225.027727734763
 21
4616.08385078625
 31
0.0
  0
LINE
  5
20AC9
330
20A03
100
AcDbEntity
  8
SUNPOU
100
AcDbLine
 10
2538.777727734762
 20
4616.08385078625
 30
0.0
 11
2550.027727734763
 21
4616.08385078625
 31
0.0
  0
LINE
  5
20ACA
330
20A03
100
AcDbEntity
  8
SUNPOU
100
AcDbLine
 10
2516.277727734764
 20
4616.08385078625
 30
0.0
 11
2505.027727734763
 21
4616.08385078625
 31
0.0
  0
LINE
  5
20ACB
330
20A03
100
AcDbEntity
  8
SUNPOU
100
AcDbLine
 10
4938.777727734763
 20
4616.08385078625
 30
0.0
 11
4950.027727734763
 21
4616.08385078625
 31
0.0
  0
LINE
  5
20ACC
330
20A03
100
AcDbEntity
  8
SUNPOU
100
AcDbLine
 10
4916.277727734767
 20
4616.08385078625
 30
0.0
 11
4905.027727734763
 21
4616.08385078625
 31
0.0
  0
LINE
  5
20ACD
330
20A03
100
AcDbEntity
  8
SUNPOU
100
AcDbLine
 10
10041.27772773476
 20
4406.08385078625
 30
0.0
 11
10030.02772773476
 21
4406.08385078625
 31
0.0
  0
LINE
  5
20ACE
330
20A03
100
AcDbEntity
  8
SUNPOU
100
AcDbLine
 10
7338.777727734764
 20
4616.08385078625
 30
0.0
 11
7350.027727734763
 21
4616.08385078625
 31
0.0
  0
LINE
  5
20ACF
330
20A03
100
AcDbEntity
  8
SUNPOU
100
AcDbLine
 10
7316.277727734763
 20
4616.08385078625
 30
0.0
 11
7305.027727734763
 21
4616.08385078625
 31
0.0
  0
LINE
  5
20AD0
330
20A03
100
AcDbEntity
  8
SUNPOU
100
AcDbLine
 10
7117.527727734771
 20
5891.083850786253
 30
0.0
 11
7027.527727734771
 21
5906.083850786252
 31
0.0
  0
LINE
  5
20AD1
330
20A03
100
AcDbEntity
  8
SUNPOU
100
AcDbLine
 10
7027.527727734771
 20
5906.083850786252
 30
0.0
 11
7117.527727734771
 21
5921.083850786254
 31
0.0
  0
SOLID
  5
20AD2
330
20A03
100
AcDbEntity
  8
SUNPOU
100
AcDbTrace
 10
7117.527727734771
 20
5891.083850786253
 30
0.0
 11
7117.527727734771
 21
5921.083850786254
 31
0.0
 12
7027.527727734771
 22
5906.083850786252
 32
0.0
 13
7027.527727734771
 23
5906.083850786252
 33
0.0
  0
LINE
  5
20AD3
330
20A03
100
AcDbEntity
  8
SUNPOU
100
AcDbLine
 10
7117.527727734771
 20
5921.083850786254
 30
0.0
 11
7117.527727734771
 21
5891.083850786253
 31
0.0
  0
LINE
  5
20AD4
330
20A03
100
AcDbEntity
  8
SUNPOU
100
AcDbLine
 10
7117.527727734771
 20
6941.083850786252
 30
0.0
 11
7027.527727734771
 21
6926.083850786253
 31
0.0
  0
LINE
  5
20AD5
330
20A03
100
AcDbEntity
  8
SUNPOU
100
AcDbLine
 10
7027.527727734771
 20
6926.083850786253
 30
0.0
 11
7117.527727734771
 21
6911.083850786252
 31
0.0
  0
SOLID
  5
20AD6
330
20A03
100
AcDbEntity
  8
SUNPOU
100
AcDbTrace
 10
7117.527727734771
 20
6941.083850786252
 30
0.0
 11
7117.527727734771
 21
6911.083850786252
 31
0.0
 12
7027.527727734771
 22
6926.083850786253
 32
0.0
 13
7027.527727734771
 23
6926.083850786253
 33
0.0
  0
LINE
  5
20AD7
330
20A03
100
AcDbEntity
  8
SUNPOU
100
AcDbLine
 10
7117.527727734771
 20
6911.083850786252
 30
0.0
 11
7117.527727734771
 21
6941.083850786252
 31
0.0
  0
LINE
  5
20AD8
330
20A03
100
AcDbEntity
  8
SUNPOU
100
AcDbLine
 10
9738.777727734765
 20
4616.08385078625
 30
0.0
 11
9750.027727734766
 21
4616.08385078625
 31
0.0
  0
LINE
  5
20AD9
330
20A03
100
AcDbEntity
  8
SUNPOU
100
AcDbLine
 10
9716.277727734761
 20
4616.08385078625
 30
0.0
 11
9705.027727734766
 21
4616.08385078625
 31
0.0
  0
LINE
  5
20ADA
330
20A03
100
AcDbEntity
  8
SUNPOU
100
AcDbLine
 10
10041.27772773476
 20
4616.08385078625
 30
0.0
 11
10030.02772773476
 21
4616.08385078625
 31
0.0
  0
LINE
  5
20ADB
330
20A03
100
AcDbEntity
  8
SUNPOU
100
AcDbLine
 10
9413.777727734771
 20
5816.08385078625
 30
0.0
 11
9425.02772773477
 21
5816.08385078625
 31
0.0
  0
LINE
  5
20ADC
330
20A03
100
AcDbEntity
  8
SUNPOU
100
AcDbLine
 10
10041.27772773476
 20
5816.08385078625
 30
0.0
 11
10030.02772773476
 21
5816.08385078625
 31
0.0
  0
LINE
  5
20ADD
330
20A03
100
AcDbEntity
  8
SUNPOU
100
AcDbLine
 10
10537.52772773475
 20
5027.333850786249
 30
0.0
 11
10537.52772773475
 21
5038.58385078625
 31
0.0
  0
LINE
  5
20ADE
330
20A03
100
AcDbEntity
  8
SUNPOU
100
AcDbLine
 10
10747.52772773476
 20
5027.333850786249
 30
0.0
 11
10747.52772773476
 21
5038.58385078625
 31
0.0
  0
LINE
  5
20ADF
330
20A03
100
AcDbEntity
  8
SUNPOU
100
AcDbLine
 10
10327.52772773475
 20
6102.33385078625
 30
0.0
 11
10327.52772773475
 21
6113.58385078625
 31
0.0
  0
LINE
  5
20AE0
330
20A03
100
AcDbEntity
  8
SUNPOU
100
AcDbLine
 10
10537.52772773475
 20
6404.83385078625
 30
0.0
 11
10537.52772773475
 21
6393.583850786249
 31
0.0
  0
LINE
  5
20AE1
330
20A03
100
AcDbEntity
  8
SUNPOU
100
AcDbLine
 10
10537.52772773475
 20
6427.333850786251
 30
0.0
 11
10537.52772773475
 21
6438.58385078625
 31
0.0
  0
LINE
  5
20AE2
330
20A03
100
AcDbEntity
  8
SUNPOU
100
AcDbLine
 10
10327.52772773475
 20
6729.833850786249
 30
0.0
 11
10327.52772773475
 21
6718.58385078625
 31
0.0
  0
LINE
  5
20AE3
330
20A03
100
AcDbEntity
  8
SUNPOU
100
AcDbLine
 10
10537.52772773475
 20
7604.833850786249
 30
0.0
 11
10537.52772773475
 21
7593.58385078625
 31
0.0
  0
LINE
  5
20AE4
330
20A03
100
AcDbEntity
  8
SUNPOU
100
AcDbLine
 10
10747.52772773476
 20
7604.833850786249
 30
0.0
 11
10747.52772773476
 21
7593.58385078625
 31
0.0
  0
LINE
  5
20AE5
330
20A03
100
AcDbEntity
  8
HIKIDASHI
100
AcDbLine
 10
9662.243015360347
 20
6490.368638330257
 30
0.0
 11
9700.903269398208
 21
6443.407114103198
 31
0.0
  0
LINE
  5
20AE6
330
20A03
100
AcDbEntity
  8
HIKIDASHI
100
AcDbLine
 10
9700.903269398208
 20
6443.407114103198
 30
0.0
 11
9679.563523436037
 21
6500.368638330257
 31
0.0
  0
SOLID
  5
20AE7
330
20A03
100
AcDbEntity
  8
HIKIDASHI
100
AcDbTrace
 10
9662.243015360347
 20
6490.368638330257
 30
0.0
 11
9679.563523436037
 21
6500.368638330257
 31
0.0
 12
9700.903269398208
 22
6443.407114103198
 32
0.0
 13
9700.903269398208
 23
6443.407114103198
 33
0.0
  0
LINE
  5
20AE8
330
20A03
100
AcDbEntity
  8
HIKIDASHI
100
AcDbLine
 10
9679.563523436037
 20
6500.368638330257
 30
0.0
 11
9662.243015360347
 21
6490.368638330257
 31
0.0
  0
LINE
  5
20AE9
330
20A03
100
AcDbEntity
  8
1PL-M1
100
AcDbLine
 10
3221.02056461939
 20
1227.488156193162
 30
0.0
 11
3221.02056461939
 21
3408.892976939217
 31
0.0
  0
LINE
  5
20AEA
330
20A03
100
AcDbEntity
  8
HASHIRA
100
AcDbLine
 10
3293.245564619388
 20
1542.488156193162
 30
0.0
 11
3293.245564619388
 21
3228.432518324389
 31
0.0
  0
LINE
  5
20AEB
330
20A03
100
AcDbEntity
  8
HASHIRA
100
AcDbLine
 10
3148.795564619387
 20
1542.488156193162
 30
0.0
 11
3148.795564619387
 21
3228.432518324389
 31
0.0
  0
LINE
  5
20AEC
330
20A03
100
AcDbEntity
  8
HATCH
100
AcDbLine
 10
3148.795564619387
 20
1680.26315619316
 30
0.0
 11
3011.020564619389
 21
1542.488156193162
 31
0.0
  0
LINE
  5
20AED
330
20A03
100
AcDbEntity
  8
KISO
100
AcDbLine
 10
3708.520564619389
 20
2292.488156193163
 30
0.0
 11
3708.520564619393
 21
1542.488156193164
 31
0.0
  0
LINE
  5
20AEE
330
20A03
100
AcDbEntity
  8
KISO
100
AcDbLine
 10
2733.520564619389
 20
2292.488156193161
 30
0.0
 11
2733.520564619389
 21
1542.488156193162
 31
0.0
  0
LINE
  5
20AEF
330
20A03
100
AcDbEntity
  8
HIKIDASHI
100
AcDbLine
 10
3285.859355453617
 20
1641.087546082636
 30
0.0
 11
3803.663741169759
 21
1829.552929655822
 31
0.0
  0
LINE
  5
20AF0
330
20A03
100
AcDbEntity
  8
HATCH
100
AcDbLine
 10
3708.520564619389
 20
1745.892701763662
 30
0.0
 11
3505.116019048892
 21
1542.488156193162
 31
0.0
  0
LINE
  5
20AF1
330
20A03
100
AcDbEntity
  8
HATCH
100
AcDbLine
 10
3708.520564619389
 20
1790.440428978419
 30
0.0
 11
3460.568291834127
 21
1542.488156193162
 31
0.0
  0
LINE
  5
20AF2
330
20A03
100
AcDbEntity
  8
HATCH
100
AcDbLine
 10
3708.520564619389
 20
1701.344974548911
 30
0.0
 11
3549.663746263643
 21
1542.488156193162
 31
0.0
  0
LINE
  5
20AF3
330
20A03
100
AcDbEntity
  8
HATCH
100
AcDbLine
 10
3148.795564619387
 20
2040.715428978408
 30
0.0
 11
2733.520564619389
 21
1625.440428978408
 31
0.0
  0
LINE
  5
20AF4
330
20A03
100
AcDbEntity
  8
HATCH
100
AcDbLine
 10
3148.795564619391
 20
2085.263156193156
 30
0.0
 11
2733.520564619389
 21
1669.988156193156
 31
0.0
  0
LINE
  5
20AF5
330
20A03
100
AcDbEntity
  8
HATCH
100
AcDbLine
 10
3148.795564619387
 20
1591.167701763656
 30
0.0
 11
3100.116019048896
 21
1542.488156193162
 31
0.0
  0
LINE
  5
20AF6
330
20A03
100
AcDbEntity
  8
HATCH
100
AcDbLine
 10
3148.795564619387
 20
1635.71542897841
 30
0.0
 11
3055.568291834141
 21
1542.488156193162
 31
0.0
  0
CIRCLE
  5
20AF7
330
20A03
100
AcDbEntity
  8
HASHIRA
100
AcDbCircle
 10
3221.02056461939
 20
1617.488156193163
 30
0.0
 40
9.0
  0
LINE
  5
20AF8
330
20A03
100
AcDbEntity
  8
HIKIDASHI
100
AcDbLine
 10
3196.475123971621
 20
1617.488156193163
 30
0.0
 11
3245.566005267159
 21
1617.488156193163
 31
0.0
  0
LINE
  5
20AF9
330
20A03
100
AcDbEntity
  8
HATCH
100
AcDbLine
 10
4416.748064070703
 20
2292.488156193163
 30
0.0
 11
4281.748064070707
 21
2157.488156193164
 31
0.0
  0
LINE
  5
20AFA
330
20A03
100
AcDbEntity
  8
HATCH
100
AcDbLine
 10
4461.295791285447
 20
2292.488156193163
 30
0.0
 11
4326.295791285451
 21
2157.488156193164
 31
0.0
  0
LINE
  5
20AFB
330
20A03
100
AcDbEntity
  8
KISO
100
AcDbLine
 10
5021.02056461939
 20
2292.488156193163
 30
0.0
 11
3293.245564619388
 21
2292.488156193162
 31
0.0
  0
LINE
  5
20AFC
330
20A03
100
AcDbEntity
  8
KISO
100
AcDbLine
 10
3708.520564619393
 20
2067.48815619316
 30
0.0
 11
5021.02056461939
 21
2067.48815619316
 31
0.0
  0
LINE
  5
20AFD
330
20A03
100
AcDbEntity
  8
KISO
100
AcDbLine
 10
3708.520564619389
 20
2157.488156193163
 30
0.0
 11
5021.02056461939
 21
2157.488156193166
 31
0.0
  0
LINE
  5
20AFE
330
20A03
100
AcDbEntity
  8
HIKIDASHI
100
AcDbLine
 10
3803.663741169759
 20
1829.552929655822
 30
0.0
 11
4609.74032915655
 21
1829.552929655822
 31
0.0
  0
TEXT
  5
20AFF
330
20A03
100
AcDbEntity
  8
HIKIDASHI
100
AcDbText
 10
4108.917169267541
 20
1874.552929655822
 30
0.0
 40
90.0
  1
10   x 350
 41
0.6666666666666666
  7
00
 11
4108.917169267541
 21
1919.552929655822
 31
0.0
100
AcDbText
 73
     2
  0
TEXT
  5
20B00
330
20A03
100
AcDbEntity
  8
HIKIDASHI
100
AcDbText
 10
3864.427463024283
 20
3004.649721559615
 30
0.0
 40
90.0
  1
76.3   x 3.2
 41
0.6666666666666666
  7
00
 11
3864.427463024283
 21
3049.649721559615
 31
0.0
100
AcDbText
 73
     2
  0
LINE
  5
20B01
330
20A03
100
AcDbEntity
  8
HIKIDASHI
100
AcDbLine
 10
3673.323078759066
 20
2959.649721559614
 30
0.0
 11
4479.399666745858
 21
2959.649721559614
 31
0.0
  0
TEXT
  5
20B02
330
20A03
100
AcDbEntity
  8
HIKIDASHI
100
AcDbText
 10
4092.255620389074
 20
3019.649721559614
 30
0.0
 40
90.0
  1
%%c
 41
0.6666666666666666
  7
00
100
AcDbText
  0
TEXT
  5
20B03
330
20A03
100
AcDbEntity
  8
HIKIDASHI
100
AcDbText
 10
3718.440441714461
 20
3004.649721559615
 30
0.0
 40
90.0
  1
柱
  7
01
 11
3718.440441714461
 21
3049.649721559615
 31
0.0
100
AcDbText
 73
     2
  0
LINE
  5
20B04
330
20A03
100
AcDbEntity
  8
HATCH
100
AcDbLine
 10
3400.568291834141
 20
2292.488156193162
 30
0.0
 11
3293.245564619388
 21
2185.165428978407
 31
0.0
  0
LINE
  5
20B05
330
20A03
100
AcDbEntity
  8
HATCH
100
AcDbLine
 10
3356.020564619394
 20
2292.488156193162
 30
0.0
 11
3293.245564619388
 21
2229.713156193156
 31
0.0
  0
LINE
  5
20B06
330
20A03
100
AcDbEntity
  8
HATCH
100
AcDbLine
 10
3708.520564619389
 20
2195.440428978415
 30
0.0
 11
3293.245564619388
 21
1780.165428978411
 31
0.0
  0
LINE
  5
20B07
330
20A03
100
AcDbEntity
  8
HATCH
100
AcDbLine
 10
3708.520564619389
 20
2150.892701763657
 30
0.0
 11
3293.245564619388
 21
1735.617701763656
 31
0.0
  0
LINE
  5
20B08
330
20A03
100
AcDbEntity
  8
HATCH
100
AcDbLine
 10
3708.520564619389
 20
2239.98815619316
 30
0.0
 11
3293.245564619388
 21
1824.713156193161
 31
0.0
  0
LINE
  5
20B09
330
20A03
100
AcDbEntity
  8
HIKIDASHI
100
AcDbLine
 10
3285.859355453617
 20
2818.624459418463
 30
0.0
 11
3673.323078759066
 21
2959.649721559614
 31
0.0
  0
LINE
  5
20B0A
330
20A03
100
AcDbEntity
  8
KISO
100
AcDbLine
 10
3148.795564619387
 20
2292.488156193161
 30
0.0
 11
2364.434490557021
 21
2292.488156193161
 31
0.0
  0
LINE
  5
20B0B
330
20A03
100
AcDbEntity
  8
HATCH
100
AcDbLine
 10
2861.925110189885
 20
2292.488156193161
 30
0.0
 11
2733.520564619389
 21
2164.083610622668
 31
0.0
  0
LINE
  5
20B0C
330
20A03
100
AcDbEntity
  8
HATCH
100
AcDbLine
 10
2906.472837404643
 20
2292.488156193161
 30
0.0
 11
2733.520564619389
 21
2119.535883407912
 31
0.0
  0
LINE
  5
20B0D
330
20A03
100
AcDbEntity
  8
HATCH
100
AcDbLine
 10
2951.020564619389
 20
2292.488156193161
 30
0.0
 11
2733.520564619389
 21
2074.988156193162
 31
0.0
  0
LINE
  5
20B0E
330
20A03
100
AcDbEntity
  8
HATCH
100
AcDbLine
 10
3148.795564619387
 20
2129.810883407913
 30
0.0
 11
2733.520564619389
 21
1714.535883407912
 31
0.0
  0
LINE
  5
20B0F
330
20A03
100
AcDbEntity
  8
HATCH
100
AcDbLine
 10
2609.724124505548
 20
2292.488156193162
 30
0.0
 11
2474.724124505552
 21
2157.488156193164
 31
0.0
  0
LINE
  5
20B10
330
20A03
100
AcDbEntity
  8
HATCH
100
AcDbLine
 10
2654.271851720307
 20
2292.488156193162
 30
0.0
 11
2519.27185172031
 21
2157.488156193164
 31
0.0
  0
LINE
  5
20B11
330
20A03
100
AcDbEntity
  8
KISO
100
AcDbLine
 10
2364.434490557021
 20
2157.48815619316
 30
0.0
 11
2733.520564619389
 21
2157.48815619316
 31
0.0
  0
LINE
  5
20B12
330
20A03
100
AcDbEntity
  8
KISO
100
AcDbLine
 10
2364.434490557021
 20
2067.48815619316
 30
0.0
 11
2733.520564619389
 21
2067.48815619316
 31
0.0
  0
LINE
  5
20B13
330
20A03
100
AcDbEntity
  8
HATCH
100
AcDbLine
 10
2565.176397290809
 20
2292.488156193162
 30
0.0
 11
2430.176397290809
 21
2157.488156193164
 31
0.0
  0
LINE
  5
20B14
330
20A03
100
AcDbEntity
  8
HATCH
100
AcDbLine
 10
3311.47283740464
 20
2292.488156193162
 30
0.0
 11
3293.245564619388
 21
2274.260883407914
 31
0.0
  0
LINE
  5
20B15
330
20A03
100
AcDbEntity
  8
HATCH
100
AcDbLine
 10
3967.200336855956
 20
2292.488156193162
 30
0.0
 11
3832.20033685596
 21
2157.488156193164
 31
0.0
  0
TEXT
  5
20B16
330
20A03
100
AcDbEntity
  8
HIKIDASHI
100
AcDbText
 10
3848.781104125155
 20
1874.552929655822
 30
0.0
 40
90.0
  1
鉄筋
  7
01
 11
3848.781104125155
 21
1919.552929655822
 31
0.0
100
AcDbText
 73
     2
  0
TEXT
  5
20B17
330
20A03
100
AcDbEntity
  8
HIKIDASHI
100
AcDbText
 10
4258.374330163604
 20
1889.552929655822
 30
0.0
 40
90.0
  1
%%c
 41
0.6666666666666666
  7
00
100
AcDbText
  0
LINE
  5
20B18
330
20A03
100
AcDbEntity
  8
HATCH
100
AcDbLine
 10
4056.295791285458
 20
2292.488156193162
 30
0.0
 11
3921.295791285462
 21
2157.488156193164
 31
0.0
  0
LINE
  5
20B19
330
20A03
100
AcDbEntity
  8
HATCH
100
AcDbLine
 10
4011.7480640707
 20
2292.488156193162
 30
0.0
 11
3876.748064070703
 21
2157.488156193164
 31
0.0
  0
TEXT
  5
20B1A
330
20A03
100
AcDbEntity
  8
HIKIDASHI
100
AcDbText
 10
4429.591626520072
 20
3019.649721559614
 30
0.0
 40
90.0
  1
t
 41
0.6666666666666666
  7
00
100
AcDbText
  0
LINE
  5
20B1B
330
20A03
100
AcDbEntity
  8
U3
100
AcDbLine
 10
5288.290856889297
 20
2137.717863923257
 30
0.0
 11
5398.061149159206
 21
2247.488156193162
 31
0.0
  0
LINE
  5
20B1C
330
20A03
100
AcDbEntity
  8
U3
100
AcDbLine
 10
5713.061149159199
 20
2247.488156193163
 30
0.0
 11
5021.02056461939
 21
2247.488156193162
 31
0.0
  0
LINE
  5
20B1D
330
20A03
100
AcDbEntity
  8
U3
100
AcDbLine
 10
5178.52056461939
 20
2247.488156193162
 30
0.0
 11
5336.020564619389
 21
2089.988156193164
 31
0.0
  0
LINE
  5
20B1E
330
20A03
100
AcDbEntity
  8
SUNPOU
100
AcDbLine
 10
4823.600059714255
 20
2292.488156193163
 30
0.0
 11
4875.561583941323
 21
2382.488156193163
 31
0.0
  0
LINE
  5
20B1F
330
20A03
100
AcDbEntity
  8
SUNPOU
100
AcDbLine
 10
4771.638535487189
 20
2382.488156193163
 30
0.0
 11
4823.600059714255
 21
2292.488156193163
 31
0.0
  0
LINE
  5
20B20
330
20A03
100
AcDbEntity
  8
HATCH
100
AcDbLine
 10
4955.391245714956
 20
2292.488156193163
 30
0.0
 11
4820.391245714956
 21
2157.488156193164
 31
0.0
  0
LINE
  5
20B21
330
20A03
100
AcDbEntity
  8
HATCH
100
AcDbLine
 10
4866.295791285454
 20
2292.488156193163
 30
0.0
 11
4731.295791285454
 21
2157.488156193164
 31
0.0
  0
LINE
  5
20B22
330
20A03
100
AcDbEntity
  8
HATCH
100
AcDbLine
 10
4910.8435185002
 20
2292.488156193163
 30
0.0
 11
4775.843518500201
 21
2157.488156193164
 31
0.0
  0
LINE
  5
20B23
330
20A03
100
AcDbEntity
  8
HATCH
100
AcDbLine
 10
4505.843518500209
 20
2292.488156193163
 30
0.0
 11
4370.843518500207
 21
2157.488156193164
 31
0.0
  0
LINE
  5
20B24
330
20A03
100
AcDbEntity
  8
U3
100
AcDbLine
 10
5021.02056461939
 20
2089.988156193164
 30
0.0
 11
5178.52056461939
 21
2247.488156193162
 31
0.0
  0
LINE
  5
20B25
330
20A03
100
AcDbEntity
  8
U3
100
AcDbLine
 10
5021.020564619393
 20
2185.447571653344
 30
0.0
 11
5083.06114915921
 21
2247.488156193162
 31
0.0
  0
LINE
  5
20B26
330
20A03
100
AcDbEntity
  8
KISO
100
AcDbLine
 10
5021.02056461939
 20
2067.48815619316
 30
0.0
 11
5021.02056461939
 21
2292.488156193162
 31
0.0
  0
LINE
  5
20B27
330
20A03
100
AcDbEntity
  8
U3
100
AcDbLine
 10
5130.790856889296
 20
2199.75844846307
 30
0.0
 11
5240.561149159206
 21
2089.988156193162
 31
0.0
  0
LINE
  5
20B28
330
20A03
100
AcDbEntity
  8
U3
100
AcDbLine
 10
5240.561149159206
 20
2185.447571653349
 30
0.0
 11
5302.601733699015
 21
2247.488156193162
 31
0.0
  0
LINE
  5
20B29
330
20A03
100
AcDbEntity
  8
U3
100
AcDbLine
 10
5083.061149159206
 20
2152.028740732979
 30
0.0
 11
5145.101733699022
 21
2089.988156193162
 31
0.0
  0
TEXT
  5
20B2A
330
20A03
100
AcDbEntity
  8
SUNPOU
100
AcDbText
 10
4755.028631142827
 20
2427.488156193163
 30
0.0
 40
90.0
  1
F.L
 41
0.6666666666666666
  7
00
 72
     4
 11
4823.600059714255
 21
2472.488156193163
 31
0.0
100
AcDbText
  0
LINE
  5
20B2B
330
20A03
100
AcDbEntity
  8
SUNPOU
100
AcDbLine
 10
4875.561583941323
 20
2382.488156193163
 30
0.0
 11
4771.638535487189
 21
2382.488156193163
 31
0.0
  0
LINE
  5
20B2C
330
20A03
100
AcDbEntity
  8
U3
100
AcDbLine
 10
5493.52056461939
 20
2247.488156193162
 30
0.0
 11
5651.020564619384
 21
2089.988156193166
 31
0.0
  0
LINE
  5
20B2D
330
20A03
100
AcDbEntity
  8
U3
100
AcDbLine
 10
5555.561149159199
 20
2185.447571653349
 30
0.0
 11
5617.601733699015
 21
2247.488156193162
 31
0.0
  0
LINE
  5
20B2E
330
20A03
100
AcDbEntity
  8
U3
100
AcDbLine
 10
5336.020564619389
 20
2089.988156193164
 30
0.0
 11
5493.52056461939
 21
2247.488156193162
 31
0.0
  0
LINE
  5
20B2F
330
20A03
100
AcDbEntity
  8
U3
100
AcDbLine
 10
5445.790856889296
 20
2199.75844846307
 30
0.0
 11
5555.561149159206
 21
2089.988156193162
 31
0.0
  0
LINE
  5
20B30
330
20A03
100
AcDbEntity
  8
U3
100
AcDbLine
 10
5398.061149159206
 20
2152.028740732979
 30
0.0
 11
5460.101733699023
 21
2089.988156193162
 31
0.0
  0
LINE
  5
20B31
330
20A03
100
AcDbEntity
  8
SUNPOU
100
AcDbLine
 10
5481.5428247019
 20
2337.488156193161
 30
0.0
 11
5377.619776247768
 21
2337.488156193161
 31
0.0
  0
LINE
  5
20B32
330
20A03
100
AcDbEntity
  8
SUNPOU
100
AcDbLine
 10
5429.581300474835
 20
2247.488156193162
 30
0.0
 11
5481.5428247019
 21
2337.488156193161
 31
0.0
  0
LINE
  5
20B33
330
20A03
100
AcDbEntity
  8
SUNPOU
100
AcDbLine
 10
5377.619776247768
 20
2337.488156193161
 30
0.0
 11
5429.581300474835
 21
2247.488156193162
 31
0.0
  0
LINE
  5
20B34
330
20A03
100
AcDbEntity
  8
U3
100
AcDbLine
 10
5603.290856889294
 20
2137.717863923257
 30
0.0
 11
5713.061149159199
 21
2247.488156193163
 31
0.0
  0
TEXT
  5
20B35
330
20A03
100
AcDbEntity
  8
SUNPOU
100
AcDbText
 10
5358.152729046263
 20
2382.488156193163
 30
0.0
 40
90.0
  1
G.L
 41
0.6666666666666666
  7
00
 72
     4
 11
5429.581300474835
 21
2427.488156193163
 31
0.0
100
AcDbText
  0
LINE
  5
20B36
330
20A03
100
AcDbEntity
  8
HIKIDASHI
100
AcDbLine
 10
2873.206888001605
 20
533.4391373504939
 30
0.0
 11
3568.834241237175
 21
533.4391373504939
 31
0.0
  0
LINE
  5
20B37
330
20A03
100
AcDbEntity
  8
HIKIDASHI
100
AcDbLine
 10
2873.206888001605
 20
563.4391373504939
 30
0.0
 11
3568.834241237175
 21
563.4391373504939
 31
0.0
  0
TEXT
  5
20B38
330
20A03
100
AcDbEntity
  8
HIKIDASHI
100
AcDbText
 10
3297.224167498163
 20
608.4391373504939
 30
0.0
 40
90.0
  1
断 面
  7
01
100
AcDbText
  0
TEXT
  5
20B39
330
20A03
100
AcDbEntity
  8
HIKIDASHI
100
AcDbText
 10
2903.206888001605
 20
608.4391373504939
 30
0.0
 40
90.0
  1
A  ~  A'
 41
0.6700000000000001
  7
00
100
AcDbText
  0
TEXT
  5
20B3A
330
20A03
100
AcDbEntity
  8
SUNPOU
100
AcDbText
 10
5111.217177815774
 20
574.914044440873
 30
0.0
 40
90.0
  1
5-D13×5-D13
 41
0.6700000000000001
  7
01
 72
     4
 11
5454.640034958632
 21
619.9140444408732
 31
0.0
100
AcDbText
  0
TEXT
  5
20B3B
330
20A03
100
AcDbEntity
  8
SUNPOU
100
AcDbText
 10
4624.39709637313
 20
574.9140444408732
 30
0.0
 40
90.0
  1
ベース筋
  7
01
 72
     4
 11
4828.39709637313
 21
619.9140444408732
 31
0.0
100
AcDbText
  0
CIRCLE
  5
20B3C
330
20A03
100
AcDbEntity
  8
HIKIDASHI
100
AcDbCircle
 10
3221.02056461939
 20
1617.488156193163
 30
0.0
 40
9.0
  0
LINE
  5
20B3D
330
20A03
100
AcDbEntity
  8
HIKIDASHI
100
AcDbLine
 10
3282.439154020361
 20
1650.484472290495
 30
0.0
 11
3229.477798206462
 21
1620.566337483093
 31
0.0
  0
LINE
  5
20B3E
330
20A03
100
AcDbEntity
  8
HIKIDASHI
100
AcDbLine
 10
3229.477798206462
 20
1620.566337483093
 30
0.0
 11
3289.279556886874
 21
1631.690619874777
 31
0.0
  0
SOLID
  5
20B3F
330
20A03
100
AcDbEntity
  8
HIKIDASHI
100
AcDbTrace
 10
3282.439154020361
 20
1650.484472290495
 30
0.0
 11
3289.279556886874
 21
1631.690619874777
 31
0.0
 12
3229.477798206462
 22
1620.566337483093
 32
0.0
 13
3229.477798206462
 23
1620.566337483093
 33
0.0
  0
LINE
  5
20B40
330
20A03
100
AcDbEntity
  8
HIKIDASHI
100
AcDbLine
 10
3289.279556886874
 20
1631.690619874777
 30
0.0
 11
3282.439154020361
 21
1650.484472290495
 31
0.0
  0
LINE
  5
20B41
330
20A03
100
AcDbEntity
  8
HIKIDASHI
100
AcDbLine
 10
3282.439154020361
 20
2828.021385626323
 30
0.0
 11
3229.477798206462
 21
2798.103250818921
 31
0.0
  0
LINE
  5
20B42
330
20A03
100
AcDbEntity
  8
HIKIDASHI
100
AcDbLine
 10
3229.477798206462
 20
2798.103250818921
 30
0.0
 11
3289.279556886874
 21
2809.227533210604
 31
0.0
  0
SOLID
  5
20B43
330
20A03
100
AcDbEntity
  8
HIKIDASHI
100
AcDbTrace
 10
3282.439154020361
 20
2828.021385626323
 30
0.0
 11
3289.279556886874
 21
2809.227533210604
 31
0.0
 12
3229.477798206462
 22
2798.103250818921
 32
0.0
 13
3229.477798206462
 23
2798.103250818921
 33
0.0
  0
LINE
  5
20B44
330
20A03
100
AcDbEntity
  8
HIKIDASHI
100
AcDbLine
 10
3289.279556886874
 20
2809.227533210604
 30
0.0
 11
3282.439154020361
 21
2828.021385626323
 31
0.0
  0
LINE
  5
20B45
330
20A03
100
AcDbEntity
  8
2PL-L2
100
AcDbLine
 10
9965.527727734773
 20
5425.172766976134
 30
0.0
 11
9965.527727734778
 21
7426.172766976133
 31
0.0
  0
LINE
  5
20B46
330
20A03
100
AcDbEntity
  8
2PL-L2
100
AcDbLine
 10
2289.527727734768
 20
5425.172766976134
 30
0.0
 11
2289.527727734768
 21
7426.172766976134
 31
0.0
  0
LINE
  5
20B47
330
20A03
100
AcDbEntity
  8
KISO
100
AcDbLine
 10
2583.520564619391
 20
1392.488156193162
 30
0.0
 11
3858.52056461939
 21
1392.488156193164
 31
0.0
  0
LINE
  5
20B48
330
20A03
100
AcDbEntity
  8
KISO
100
AcDbLine
 10
2583.520564619392
 20
1392.488156193162
 30
0.0
 11
2583.520564619392
 21
1542.488156193161
 31
0.0
  0
LINE
  5
20B49
330
20A03
100
AcDbEntity
  8
KISO
100
AcDbLine
 10
3858.520564619389
 20
1392.488156193164
 30
0.0
 11
3858.52056461939
 21
1542.488156193162
 31
0.0
  0
LINE
  5
20B4A
330
20A03
100
AcDbEntity
  8
KISO
100
AcDbLine
 10
2583.520564619391
 20
1542.488156193161
 30
0.0
 11
3858.52056461939
 21
1542.488156193162
 31
0.0
  0
TEXT
  5
20B4B
330
20A03
100
AcDbEntity
  8
FILENAME
100
AcDbText
 10
10651.5
 20
130.4999999999999
 30
0.0
 40
75.0
  1
＜YOTR-240_3_JIS_GL.DXF ＞
  7
FILENAME
 72
     2
 11
12286.5
 21
130.4999999999999
 31
0.0
100
AcDbText
  0
LINE
  5
20B4C
330
20A03
100
AcDbEntity
  8
WAKUSEN-01
100
AcDbLine
 10
325.5000000000006
 20
310.4999999999997
 30
0.0
 11
12286.5
 21
310.4999999999997
 31
0.0
  0
LINE
  5
20B4D
330
20A03
100
AcDbEntity
  8
WAKUSEN-01
100
AcDbLine
 10
325.5000000000006
 20
8431.500000000003
 30
0.0
 11
12286.5
 21
8431.500000000003
 31
0.0
  0
LINE
  5
20B4E
330
20A03
100
AcDbEntity
  8
WAKUSEN-01
100
AcDbLine
 10
325.5000000000006
 20
310.4999999999997
 30
0.0
 11
325.5000000000006
 21
8431.500000000003
 31
0.0
  0
LINE
  5
20B4F
330
20A03
100
AcDbEntity
  8
WAKUSEN-01
100
AcDbLine
 10
12286.5
 20
310.4999999999997
 30
0.0
 11
12286.5
 21
8431.500000000003
 31
0.0
  0
LINE
  5
20B50
330
20A03
100
AcDbEntity
  8
WAKUSEN-01
100
AcDbLine
 10
7710.0
 20
931.4999999999999
 30
0.0
 11
12286.5
 21
931.4999999999995
 31
0.0
  0
LINE
  5
20B51
330
20A03
100
AcDbEntity
  8
WAKUSEN-02
100
AcDbLine
 10
7710.0
 20
620.9999999999999
 30
0.0
 11
10075.49999999999
 21
620.9999999999999
 31
0.0
  0
TEXT
  5
20B52
330
20A03
100
AcDbEntity
  8
WAKUMOJI-01
100
AcDbText
 10
7751.347597486038
 20
797.2136285022457
 30
0.0
 40
90.0
  1
名　称
  7
WAKUMOJI
100
AcDbText
  0
TEXT
  5
20B53
330
20A03
100
AcDbEntity
  8
WAKUMOJI-01
100
AcDbText
 10
7746.18955690947
 20
494.6733656174329
 30
0.0
 40
90.0
  1
機種名
  7
WAKUMOJI
100
AcDbText
  0
LINE
  5
20B54
330
20A03
100
AcDbEntity
  8
WAKUSEN-01
100
AcDbLine
 10
7710.0
 20
310.4999999999989
 30
0.0
 11
7710.0
 21
931.4999999999999
 31
0.0
  0
LINE
  5
20B55
330
20A03
100
AcDbEntity
  8
WAKUSEN-02
100
AcDbLine
 10
10075.49999999999
 20
310.4999999999973
 30
0.0
 11
10075.49999999999
 21
931.4999999999999
 31
0.0
  0
LINE
  5
20B56
330
20A03
100
AcDbEntity
  8
YODOROGO
100
AcDbLine
 10
11241.60162798446
 20
748.4060611609828
 30
0.0
 11
11186.10162798447
 21
748.4060611609828
 31
0.0
1001
AUTOCAD_POSTSCRIPT_FIGURE
1002
{
1000
PSFILL
1000
Grayscale
1000
Grayscale
1070
    25
1002
}
  0
LINE
  5
20B57
330
20A03
100
AcDbEntity
  8
YODOROGO
100
AcDbLine
 10
11186.10162798447
 20
730.4060611609828
 30
0.0
 11
11241.60162798446
 21
730.4060611609828
 31
0.0
1001
AUTOCAD_POSTSCRIPT_FIGURE
1002
{
1000
PSFILL
1000
Grayscale
1000
Grayscale
1070
    25
1002
}
  0
LINE
  5
20B58
330
20A03
100
AcDbEntity
  8
YODOROGO
100
AcDbLine
 10
11241.60162798446
 20
715.4060611609828
 30
0.0
 11
11186.10162798447
 21
715.4060611609828
 31
0.0
1001
AUTOCAD_POSTSCRIPT_FIGURE
1002
{
1000
PSFILL
1000
Grayscale
1000
Grayscale
1070
    25
1002
}
  0
LINE
  5
20B59
330
20A03
100
AcDbEntity
  8
YODOROGO
100
AcDbLine
 10
11186.10162798447
 20
697.406061160983
 30
0.0
 11
11241.60162798446
 21
697.406061160983
 31
0.0
1001
AUTOCAD_POSTSCRIPT_FIGURE
1002
{
1000
PSFILL
1000
Grayscale
1000
Grayscale
1070
    25
1002
}
  0
LINE
  5
20B5A
330
20A03
100
AcDbEntity
  8
YODOROGO
100
AcDbLine
 10
11241.60162798446
 20
682.4060611609829
 30
0.0
 11
11186.10162798447
 21
682.4060611609829
 31
0.0
1001
AUTOCAD_POSTSCRIPT_FIGURE
1002
{
1000
PSFILL
1000
Grayscale
1000
Grayscale
1070
    25
1002
}
  0
LINE
  5
20B5B
330
20A03
100
AcDbEntity
  8
YODOROGO
100
AcDbLine
 10
11220.60162798447
 20
640.4060611609828
 30
0.0
 11
11241.60162798446
 21
640.4060611609828
 31
0.0
1001
AUTOCAD_POSTSCRIPT_FIGURE
1002
{
1000
PSFILL
1000
Grayscale
1000
Grayscale
1070
    25
1002
}
  0
LINE
  5
20B5C
330
20A03
100
AcDbEntity
  8
YODOROGO
100
AcDbLine
 10
11151.60162798447
 20
535.4060611609829
 30
0.0
 11
11226.60162798446
 21
555.5022505933164
 31
0.0
  0
LINE
  5
20B5D
330
20A03
100
AcDbEntity
  8
YODOROGO
100
AcDbLine
 10
11231.10162798446
 20
640.4060611609828
 30
0.0
 11
11207.10162798447
 21
640.4060611609828
 31
0.0
  0
ARC
  5
20B5E
330
20A03
100
AcDbEntity
  8
YODOROGO
100
AcDbCircle
 10
11345.38040618545
 20
677.9492284624735
 30
0.0
 40
143.2075740771177
100
AcDbArc
 50
213.9611167766784
 51
264.4787207431779
  0
ARC
  5
20B5F
330
20A03
100
AcDbEntity
  8
YODOROGO
100
AcDbCircle
 10
11345.38040618547
 20
677.9492284624883
 30
0.0
 40
143.2075740771305
100
AcDbArc
 50
208.141144204866
 51
212.9210361185994
  0
LINE
  5
20B60
330
20A03
100
AcDbEntity
  8
YODOROGO
100
AcDbLine
 10
11164.27870236948
 20
583.8028730048376
 30
0.0
 11
11225.1690496907
 21
600.1183923964076
 31
0.0
  0
LINE
  5
20B61
330
20A03
100
AcDbEntity
  8
YODOROGO
100
AcDbLine
 10
11151.60162798447
 20
535.4060611609829
 30
0.0
 11
11226.60162798446
 21
555.5022505933164
 31
0.0
  0
LINE
  5
20B62
330
20A03
100
AcDbEntity
  8
YODOROGO
100
AcDbLine
 10
11231.10162798446
 20
640.4060611609828
 30
0.0
 11
11207.10162798447
 21
640.4060611609828
 31
0.0
  0
ARC
  5
20B63
330
20A03
100
AcDbEntity
  8
YODOROGO
100
AcDbCircle
 10
11345.38040618545
 20
677.9492284624735
 30
0.0
 40
143.2075740771177
100
AcDbArc
 50
213.9611167766784
 51
264.4787207431779
  0
LINE
  5
20B64
330
20A03
100
AcDbEntity
  8
YODOROGO
100
AcDbLine
 10
10797.60162798446
 20
682.4060611609829
 30
0.0
 11
10662.60162798446
 21
682.4060611609829
 31
0.0
  0
LINE
  5
20B65
330
20A03
100
AcDbEntity
  8
YODOROGO
100
AcDbLine
 10
10692.60162798446
 20
535.4060611609829
 30
0.0
 11
10797.60162798446
 21
535.4060611609829
 31
0.0
  0
LINE
  5
20B66
330
20A03
100
AcDbEntity
  8
YODOROGO
100
AcDbLine
 10
10773.60162798447
 20
721.4060611609824
 30
0.0
 11
10686.60162798446
 21
721.4060611609824
 31
0.0
  0
LINE
  5
20B67
330
20A03
100
AcDbEntity
  8
YODOROGO
100
AcDbLine
 10
10719.60162798446
 20
760.4060611609829
 30
0.0
 11
10746.60162798447
 21
760.4060611609829
 31
0.0
  0
LINE
  5
20B68
330
20A03
100
AcDbEntity
  8
YODOROGO
100
AcDbLine
 10
10662.60162798446
 20
640.4060611609828
 30
0.0
 11
10662.60162798446
 21
565.4060611609828
 31
0.0
  0
LINE
  5
20B69
330
20A03
100
AcDbEntity
  8
YODOROGO
100
AcDbLine
 10
10686.60162798446
 20
586.4060611609825
 30
0.0
 11
10686.60162798446
 21
640.4060611609828
 31
0.0
  0
LINE
  5
20B6A
330
20A03
100
AcDbEntity
  8
YODOROGO
100
AcDbLine
 10
10719.60162798446
 20
655.4060611609838
 30
0.0
 11
10719.60162798446
 21
580.406061160983
 31
0.0
  0
LINE
  5
20B6B
330
20A03
100
AcDbEntity
  8
YODOROGO
100
AcDbLine
 10
10446.60162798447
 20
631.4060611609833
 30
0.0
 11
10416.60162798446
 21
607.4896552667143
 31
0.0
  0
LINE
  5
20B6C
330
20A03
100
AcDbEntity
  8
YODOROGO
100
AcDbLine
 10
10476.60162798446
 20
607.4896552667143
 30
0.0
 11
10446.60162798447
 21
631.4060611609833
 31
0.0
  0
LINE
  5
20B6D
330
20A03
100
AcDbEntity
  8
YODOROGO
100
AcDbLine
 10
10446.60162798447
 20
640.4060611609828
 30
0.0
 11
10476.60162798446
 21
616.4896552667137
 31
0.0
  0
LINE
  5
20B6E
330
20A03
100
AcDbEntity
  8
YODOROGO
100
AcDbLine
 10
10416.60162798446
 20
616.4896552667137
 30
0.0
 11
10446.60162798447
 21
640.4060611609828
 31
0.0
  0
LINE
  5
20B6F
330
20A03
100
AcDbEntity
  8
YODOROGO
100
AcDbLine
 10
10515.34245150633
 20
622.406061160983
 30
0.0
 11
10515.34245150633
 21
631.4060611609825
 31
0.0
  0
LINE
  5
20B70
330
20A03
100
AcDbEntity
  8
YODOROGO
100
AcDbLine
 10
10491.60162798447
 20
631.4060611609825
 30
0.0
 11
10491.60162798447
 21
625.4060611609819
 31
0.0
  0
LINE
  5
20B71
330
20A03
100
AcDbEntity
  8
YODOROGO
100
AcDbLine
 10
10536.8008200866
 20
640.4060611609828
 30
0.0
 11
10536.8008200866
 21
620.813863977996
 31
0.0
1001
AUTOCAD_POSTSCRIPT_FIGURE
1002
{
1000
PSFILL
1000
Grayscale
1000
Grayscale
1070
   100
1002
}
  0
LINE
  5
20B72
330
20A03
100
AcDbEntity
  8
YODOROGO
100
AcDbLine
 10
10530.80082008658
 20
620.813863977996
 30
0.0
 11
10530.80082008658
 21
640.4060611609828
 31
0.0
1001
AUTOCAD_POSTSCRIPT_FIGURE
1002
{
1000
PSFILL
1000
Grayscale
1000
Grayscale
1070
   100
1002
}
  0
LINE
  5
20B73
330
20A03
100
AcDbEntity
  8
YODOROGO
100
AcDbLine
 10
10428.60162798447
 20
603.2894640162218
 30
0.0
 11
10428.60162798447
 21
612.2894640162221
 31
0.0
  0
LINE
  5
20B74
330
20A03
100
AcDbEntity
  8
YODOROGO
100
AcDbLine
 10
10464.60162798447
 20
603.2894640162218
 30
0.0
 11
10428.60162798447
 21
603.2894640162218
 31
0.0
  0
LINE
  5
20B75
330
20A03
100
AcDbEntity
  8
YODOROGO
100
AcDbLine
 10
10464.60162798447
 20
612.2894640162221
 30
0.0
 11
10464.60162798447
 21
603.2894640162218
 31
0.0
  0
LINE
  5
20B76
330
20A03
100
AcDbEntity
  8
YODOROGO
100
AcDbLine
 10
10428.60162798447
 20
612.2894640162221
 30
0.0
 11
10464.60162798447
 21
612.2894640162221
 31
0.0
  0
LINE
  5
20B77
330
20A03
100
AcDbEntity
  8
YODOROGO
100
AcDbLine
 10
10434.1910958434
 20
588.1885715139279
 30
0.0
 11
10419.60162798446
 21
553.4060611609827
 31
0.0
1001
AUTOCAD_POSTSCRIPT_FIGURE
1002
{
1000
PSFILL
1000
Grayscale
1000
Grayscale
1070
   100
1002
}
  0
LINE
  5
20B78
330
20A03
100
AcDbEntity
  8
YODOROGO
100
AcDbLine
 10
10416.60162798446
 20
588.1885715139279
 30
0.0
 11
10434.1910958434
 21
588.1885715139279
 31
0.0
1001
AUTOCAD_POSTSCRIPT_FIGURE
1002
{
1000
PSFILL
1000
Grayscale
1000
Grayscale
1070
   100
1002
}
  0
LINE
  5
20B79
330
20A03
100
AcDbEntity
  8
YODOROGO
100
AcDbLine
 10
10416.60162798446
 20
595.688571513928
 30
0.0
 11
10416.60162798446
 21
588.1885715139279
 31
0.0
1001
AUTOCAD_POSTSCRIPT_FIGURE
1002
{
1000
PSFILL
1000
Grayscale
1000
Grayscale
1070
   100
1002
}
  0
LINE
  5
20B7A
330
20A03
100
AcDbEntity
  8
YODOROGO
100
AcDbLine
 10
10476.60162798446
 20
595.688571513928
 30
0.0
 11
10416.60162798446
 21
595.688571513928
 31
0.0
1001
AUTOCAD_POSTSCRIPT_FIGURE
1002
{
1000
PSFILL
1000
Grayscale
1000
Grayscale
1070
   100
1002
}
  0
LINE
  5
20B7B
330
20A03
100
AcDbEntity
  8
YODOROGO
100
AcDbLine
 10
10476.60162798446
 20
588.1885715139279
 30
0.0
 11
10476.60162798446
 21
595.688571513928
 31
0.0
1001
AUTOCAD_POSTSCRIPT_FIGURE
1002
{
1000
PSFILL
1000
Grayscale
1000
Grayscale
1070
   100
1002
}
  0
LINE
  5
20B7C
330
20A03
100
AcDbEntity
  8
YODOROGO
100
AcDbLine
 10
10441.69109584339
 20
588.1885715139279
 30
0.0
 11
10476.60162798446
 21
588.1885715139279
 31
0.0
1001
AUTOCAD_POSTSCRIPT_FIGURE
1002
{
1000
PSFILL
1000
Grayscale
1000
Grayscale
1070
   100
1002
}
  0
LINE
  5
20B7D
330
20A03
100
AcDbEntity
  8
YODOROGO
100
AcDbLine
 10
10430.83001935679
 20
560.9060611609827
 30
0.0
 11
10441.69109584339
 21
588.1885715139279
 31
0.0
1001
AUTOCAD_POSTSCRIPT_FIGURE
1002
{
1000
PSFILL
1000
Grayscale
1000
Grayscale
1070
   100
1002
}
  0
LINE
  5
20B7E
330
20A03
100
AcDbEntity
  8
YODOROGO
100
AcDbLine
 10
10463.27054655324
 20
560.9060611609827
 30
0.0
 11
10430.83001935679
 21
560.9060611609827
 31
0.0
1001
AUTOCAD_POSTSCRIPT_FIGURE
1002
{
1000
PSFILL
1000
Grayscale
1000
Grayscale
1070
   100
1002
}
  0
LINE
  5
20B7F
330
20A03
100
AcDbEntity
  8
YODOROGO
100
AcDbLine
 10
10456.8993767966
 20
576.0876790116348
 30
0.0
 11
10463.27054655324
 21
560.9060611609827
 31
0.0
1001
AUTOCAD_POSTSCRIPT_FIGURE
1002
{
1000
PSFILL
1000
Grayscale
1000
Grayscale
1070
   100
1002
}
  0
LINE
  5
20B80
330
20A03
100
AcDbEntity
  8
YODOROGO
100
AcDbLine
 10
10462.8993767966
 20
576.0876790116348
 30
0.0
 11
10456.8993767966
 21
576.0876790116348
 31
0.0
1001
AUTOCAD_POSTSCRIPT_FIGURE
1002
{
1000
PSFILL
1000
Grayscale
1000
Grayscale
1070
   100
1002
}
  0
LINE
  5
20B81
330
20A03
100
AcDbEntity
  8
YODOROGO
100
AcDbLine
 10
10473.60162798447
 20
553.4060611609827
 30
0.0
 11
10462.8993767966
 21
576.0876790116348
 31
0.0
1001
AUTOCAD_POSTSCRIPT_FIGURE
1002
{
1000
PSFILL
1000
Grayscale
1000
Grayscale
1070
   100
1002
}
  0
LINE
  5
20B82
330
20A03
100
AcDbEntity
  8
YODOROGO
100
AcDbLine
 10
10419.60162798446
 20
553.4060611609827
 30
0.0
 11
10473.60162798447
 21
553.4060611609827
 31
0.0
1001
AUTOCAD_POSTSCRIPT_FIGURE
1002
{
1000
PSFILL
1000
Grayscale
1000
Grayscale
1070
   100
1002
}
  0
LINE
  5
20B83
330
20A03
100
AcDbEntity
  8
YODOROGO
100
AcDbLine
 10
10416.60162798446
 20
607.4896552667143
 30
0.0
 11
10416.60162798446
 21
616.4896552667137
 31
0.0
  0
LINE
  5
20B84
330
20A03
100
AcDbEntity
  8
YODOROGO
100
AcDbLine
 10
10476.60162798446
 20
616.4896552667137
 30
0.0
 11
10476.60162798446
 21
607.4896552667143
 31
0.0
  0
ARC
  5
20B85
330
20A03
100
AcDbEntity
  8
YODOROGO
100
AcDbCircle
 10
10584.72766580511
 20
600.3291619969972
 30
0.0
 40
65.99999999999997
100
AcDbArc
 50
280.3644312771313
 51
3.541483659218056
  0
ARC
  5
20B86
330
20A03
100
AcDbEntity
  8
YODOROGO
100
AcDbCircle
 10
10588.40851153474
 20
612.5991776107142
 30
0.0
 40
41.99999999999936
100
AcDbArc
 50
281.2490582504155
 51
348.7509417495832
  0
LINE
  5
20B87
330
20A03
100
AcDbEntity
  8
YODOROGO
100
AcDbLine
 10
10596.60162798446
 20
571.4060611609824
 30
0.0
 11
10596.60162798446
 21
535.4060611609829
 31
0.0
  0
LINE
  5
20B88
330
20A03
100
AcDbEntity
  8
YODOROGO
100
AcDbLine
 10
10507.53333890132
 20
603.9939618982182
 30
0.0
 11
10515.34245150633
 21
622.406061160983
 31
0.0
  0
LINE
  5
20B89
330
20A03
100
AcDbEntity
  8
YODOROGO
100
AcDbLine
 10
10515.60162798446
 20
593.6701837306505
 30
0.0
 11
10507.53333890132
 21
603.9939618982182
 31
0.0
  0
LINE
  5
20B8A
330
20A03
100
AcDbEntity
  8
YODOROGO
100
AcDbLine
 10
10515.60162798446
 20
586.1701837306497
 30
0.0
 11
10515.60162798446
 21
593.6701837306505
 31
0.0
  0
LINE
  5
20B8B
330
20A03
100
AcDbEntity
  8
YODOROGO
100
AcDbLine
 10
10506.60162798447
 20
594.4638989060739
 30
0.0
 11
10515.60162798446
 21
586.1701837306497
 31
0.0
  0
LINE
  5
20B8C
330
20A03
100
AcDbEntity
  8
YODOROGO
100
AcDbLine
 10
10506.60162798447
 20
553.4060611609827
 30
0.0
 11
10506.60162798447
 21
594.4638989060739
 31
0.0
  0
LINE
  5
20B8D
330
20A03
100
AcDbEntity
  8
YODOROGO
100
AcDbLine
 10
10500.60162798446
 20
553.4060611609827
 30
0.0
 11
10506.60162798447
 21
553.4060611609827
 31
0.0
  0
LINE
  5
20B8E
330
20A03
100
AcDbEntity
  8
YODOROGO
100
AcDbLine
 10
10500.60162798446
 20
592.5020061336555
 30
0.0
 11
10500.60162798446
 21
553.4060611609827
 31
0.0
  0
LINE
  5
20B8F
330
20A03
100
AcDbEntity
  8
YODOROGO
100
AcDbLine
 10
10491.60162798447
 20
574.7880296375358
 30
0.0
 11
10500.60162798446
 21
592.5020061336555
 31
0.0
  0
LINE
  5
20B90
330
20A03
100
AcDbEntity
  8
YODOROGO
100
AcDbLine
 10
10491.60162798447
 20
583.788029637536
 30
0.0
 11
10491.60162798447
 21
574.7880296375358
 31
0.0
  0
LINE
  5
20B91
330
20A03
100
AcDbEntity
  8
YODOROGO
100
AcDbLine
 10
10509.68579035926
 20
625.4060611609819
 30
0.0
 11
10491.60162798447
 21
583.788029637536
 31
0.0
  0
LINE
  5
20B92
330
20A03
100
AcDbEntity
  8
YODOROGO
100
AcDbLine
 10
10491.60162798447
 20
625.4060611609819
 30
0.0
 11
10509.68579035926
 21
625.4060611609819
 31
0.0
  0
LINE
  5
20B93
330
20A03
100
AcDbEntity
  8
YODOROGO
100
AcDbLine
 10
10518.80082008659
 20
620.813863977996
 30
0.0
 11
10530.80082008658
 21
620.813863977996
 31
0.0
1001
AUTOCAD_POSTSCRIPT_FIGURE
1002
{
1000
PSFILL
1000
Grayscale
1000
Grayscale
1070
   100
1002
}
  0
LINE
  5
20B94
330
20A03
100
AcDbEntity
  8
YODOROGO
100
AcDbLine
 10
10518.80082008659
 20
611.8138639779965
 30
0.0
 11
10518.80082008659
 21
620.813863977996
 31
0.0
1001
AUTOCAD_POSTSCRIPT_FIGURE
1002
{
1000
PSFILL
1000
Grayscale
1000
Grayscale
1070
   100
1002
}
  0
LINE
  5
20B95
330
20A03
100
AcDbEntity
  8
YODOROGO
100
AcDbLine
 10
10530.80082008658
 20
611.8138639779965
 30
0.0
 11
10518.80082008659
 21
611.8138639779965
 31
0.0
1001
AUTOCAD_POSTSCRIPT_FIGURE
1002
{
1000
PSFILL
1000
Grayscale
1000
Grayscale
1070
   100
1002
}
  0
LINE
  5
20B96
330
20A03
100
AcDbEntity
  8
YODOROGO
100
AcDbLine
 10
10530.80082008658
 20
562.4060611609831
 30
0.0
 11
10530.80082008658
 21
611.8138639779965
 31
0.0
1001
AUTOCAD_POSTSCRIPT_FIGURE
1002
{
1000
PSFILL
1000
Grayscale
1000
Grayscale
1070
   100
1002
}
  0
LINE
  5
20B97
330
20A03
100
AcDbEntity
  8
YODOROGO
100
AcDbLine
 10
10518.8008200866
 20
562.4060611609831
 30
0.0
 11
10530.80082008658
 21
562.4060611609831
 31
0.0
1001
AUTOCAD_POSTSCRIPT_FIGURE
1002
{
1000
PSFILL
1000
Grayscale
1000
Grayscale
1070
   100
1002
}
  0
LINE
  5
20B98
330
20A03
100
AcDbEntity
  8
YODOROGO
100
AcDbLine
 10
10518.8008200866
 20
553.4060611609827
 30
0.0
 11
10518.8008200866
 21
562.4060611609831
 31
0.0
1001
AUTOCAD_POSTSCRIPT_FIGURE
1002
{
1000
PSFILL
1000
Grayscale
1000
Grayscale
1070
   100
1002
}
  0
LINE
  5
20B99
330
20A03
100
AcDbEntity
  8
YODOROGO
100
AcDbLine
 10
10551.60162798447
 20
553.4060611609827
 30
0.0
 11
10518.8008200866
 21
553.4060611609827
 31
0.0
1001
AUTOCAD_POSTSCRIPT_FIGURE
1002
{
1000
PSFILL
1000
Grayscale
1000
Grayscale
1070
   100
1002
}
  0
LINE
  5
20B9A
330
20A03
100
AcDbEntity
  8
YODOROGO
100
AcDbLine
 10
10551.60162798447
 20
562.4060611609831
 30
0.0
 11
10551.60162798447
 21
553.4060611609827
 31
0.0
1001
AUTOCAD_POSTSCRIPT_FIGURE
1002
{
1000
PSFILL
1000
Grayscale
1000
Grayscale
1070
   100
1002
}
  0
LINE
  5
20B9B
330
20A03
100
AcDbEntity
  8
YODOROGO
100
AcDbLine
 10
10536.8008200866
 20
562.4060611609831
 30
0.0
 11
10551.60162798447
 21
562.4060611609831
 31
0.0
1001
AUTOCAD_POSTSCRIPT_FIGURE
1002
{
1000
PSFILL
1000
Grayscale
1000
Grayscale
1070
   100
1002
}
  0
LINE
  5
20B9C
330
20A03
100
AcDbEntity
  8
YODOROGO
100
AcDbLine
 10
10536.8008200866
 20
611.8138639779965
 30
0.0
 11
10536.8008200866
 21
562.4060611609831
 31
0.0
1001
AUTOCAD_POSTSCRIPT_FIGURE
1002
{
1000
PSFILL
1000
Grayscale
1000
Grayscale
1070
   100
1002
}
  0
LINE
  5
20B9D
330
20A03
100
AcDbEntity
  8
YODOROGO
100
AcDbLine
 10
10551.60162798447
 20
611.8138639779965
 30
0.0
 11
10536.8008200866
 21
611.8138639779965
 31
0.0
1001
AUTOCAD_POSTSCRIPT_FIGURE
1002
{
1000
PSFILL
1000
Grayscale
1000
Grayscale
1070
   100
1002
}
  0
LINE
  5
20B9E
330
20A03
100
AcDbEntity
  8
YODOROGO
100
AcDbLine
 10
10551.60162798447
 20
620.813863977996
 30
0.0
 11
10551.60162798447
 21
611.8138639779965
 31
0.0
1001
AUTOCAD_POSTSCRIPT_FIGURE
1002
{
1000
PSFILL
1000
Grayscale
1000
Grayscale
1070
   100
1002
}
  0
LINE
  5
20B9F
330
20A03
100
AcDbEntity
  8
YODOROGO
100
AcDbLine
 10
10536.8008200866
 20
620.813863977996
 30
0.0
 11
10551.60162798447
 21
620.813863977996
 31
0.0
1001
AUTOCAD_POSTSCRIPT_FIGURE
1002
{
1000
PSFILL
1000
Grayscale
1000
Grayscale
1070
   100
1002
}
  0
LINE
  5
20BA0
330
20A03
100
AcDbEntity
  8
YODOROGO
100
AcDbLine
 10
10650.60162798447
 20
625.406061160983
 30
0.0
 11
10629.60162798447
 21
625.406061160983
 31
0.0
  0
LINE
  5
20BA1
330
20A03
100
AcDbEntity
  8
YODOROGO
100
AcDbLine
 10
10650.60162798447
 20
604.4060611609832
 30
0.0
 11
10650.60162798447
 21
625.406061160983
 31
0.0
  0
LINE
  5
20BA2
330
20A03
100
AcDbEntity
  8
YODOROGO
100
AcDbLine
 10
10629.60162798447
 20
625.406061160983
 30
0.0
 11
10629.60162798447
 21
604.4060611609832
 31
0.0
  0
ARC
  5
20BA3
330
20A03
100
AcDbEntity
  8
YODOROGO
100
AcDbCircle
 10
10692.60162798446
 20
565.4060611609828
 30
0.0
 40
30.0
100
AcDbArc
 50
180.0
 51
270.0
  0
ARC
  5
20BA4
330
20A03
100
AcDbEntity
  8
YODOROGO
100
AcDbCircle
 10
10701.60162798446
 20
586.4060611609825
 30
0.0
 40
15.0
100
AcDbArc
 50
180.0
 51
270.0
  0
LINE
  5
20BA5
330
20A03
100
AcDbEntity
  8
YODOROGO
100
AcDbLine
 10
10710.60162798447
 20
571.4060611609824
 30
0.0
 11
10701.60162798446
 21
571.4060611609824
 31
0.0
  0
ARC
  5
20BA6
330
20A03
100
AcDbEntity
  8
YODOROGO
100
AcDbCircle
 10
10710.60162798447
 20
580.4060611609819
 30
0.0
 40
8.999999999998637
100
AcDbArc
 50
270.0
 51
0.0000000000054281
  0
LINE
  5
20BA7
330
20A03
100
AcDbEntity
  8
YODOROGO
100
AcDbLine
 10
10425.60162798447
 20
709.0449677976399
 30
0.0
 11
10416.60162798446
 21
691.4162804818772
 31
0.0
1001
AUTOCAD_POSTSCRIPT_FIGURE
1002
{
1000
PSFILL
1000
Grayscale
1000
Grayscale
1070
   100
1002
}
  0
LINE
  5
20BA8
330
20A03
100
AcDbEntity
  8
YODOROGO
100
AcDbLine
 10
10425.60162798447
 20
655.406061160983
 30
0.0
 11
10425.60162798447
 21
709.0449677976399
 31
0.0
1001
AUTOCAD_POSTSCRIPT_FIGURE
1002
{
1000
PSFILL
1000
Grayscale
1000
Grayscale
1070
   100
1002
}
  0
LINE
  5
20BA9
330
20A03
100
AcDbEntity
  8
YODOROGO
100
AcDbLine
 10
10431.60162798447
 20
655.406061160983
 30
0.0
 11
10425.60162798447
 21
655.406061160983
 31
0.0
1001
AUTOCAD_POSTSCRIPT_FIGURE
1002
{
1000
PSFILL
1000
Grayscale
1000
Grayscale
1070
   100
1002
}
  0
LINE
  5
20BAA
330
20A03
100
AcDbEntity
  8
YODOROGO
100
AcDbLine
 10
10431.60162798447
 20
710.1642495319751
 30
0.0
 11
10431.60162798447
 21
655.406061160983
 31
0.0
1001
AUTOCAD_POSTSCRIPT_FIGURE
1002
{
1000
PSFILL
1000
Grayscale
1000
Grayscale
1070
   100
1002
}
  0
LINE
  5
20BAB
330
20A03
100
AcDbEntity
  8
YODOROGO
100
AcDbLine
 10
10440.60162798446
 20
700.3705343565512
 30
0.0
 11
10431.60162798447
 21
710.1642495319751
 31
0.0
1001
AUTOCAD_POSTSCRIPT_FIGURE
1002
{
1000
PSFILL
1000
Grayscale
1000
Grayscale
1070
   100
1002
}
  0
LINE
  5
20BAC
330
20A03
100
AcDbEntity
  8
YODOROGO
100
AcDbLine
 10
10440.60162798446
 20
706.3705343565509
 30
0.0
 11
10440.60162798446
 21
700.3705343565512
 31
0.0
1001
AUTOCAD_POSTSCRIPT_FIGURE
1002
{
1000
PSFILL
1000
Grayscale
1000
Grayscale
1070
   100
1002
}
  0
LINE
  5
20BAD
330
20A03
100
AcDbEntity
  8
YODOROGO
100
AcDbLine
 10
10431.60162798447
 20
719.1642495319745
 30
0.0
 11
10440.60162798446
 21
706.3705343565509
 31
0.0
1001
AUTOCAD_POSTSCRIPT_FIGURE
1002
{
1000
PSFILL
1000
Grayscale
1000
Grayscale
1070
   100
1002
}
  0
LINE
  5
20BAE
330
20A03
100
AcDbEntity
  8
YODOROGO
100
AcDbLine
 10
10431.60162798447
 20
727.4060611609828
 30
0.0
 11
10431.60162798447
 21
719.1642495319745
 31
0.0
1001
AUTOCAD_POSTSCRIPT_FIGURE
1002
{
1000
PSFILL
1000
Grayscale
1000
Grayscale
1070
   100
1002
}
  0
LINE
  5
20BAF
330
20A03
100
AcDbEntity
  8
YODOROGO
100
AcDbLine
 10
10458.60162798446
 20
727.4060611609828
 30
0.0
 11
10431.60162798447
 21
727.4060611609828
 31
0.0
1001
AUTOCAD_POSTSCRIPT_FIGURE
1002
{
1000
PSFILL
1000
Grayscale
1000
Grayscale
1070
   100
1002
}
  0
LINE
  5
20BB0
330
20A03
100
AcDbEntity
  8
YODOROGO
100
AcDbLine
 10
10458.60162798446
 20
712.7131308511124
 30
0.0
 11
10458.60162798446
 21
727.4060611609828
 31
0.0
1001
AUTOCAD_POSTSCRIPT_FIGURE
1002
{
1000
PSFILL
1000
Grayscale
1000
Grayscale
1070
   100
1002
}
  0
LINE
  5
20BB1
330
20A03
100
AcDbEntity
  8
YODOROGO
100
AcDbLine
 10
10446.60162798447
 20
712.7131308511124
 30
0.0
 11
10458.60162798446
 21
712.7131308511124
 31
0.0
1001
AUTOCAD_POSTSCRIPT_FIGURE
1002
{
1000
PSFILL
1000
Grayscale
1000
Grayscale
1070
   100
1002
}
  0
LINE
  5
20BB2
330
20A03
100
AcDbEntity
  8
YODOROGO
100
AcDbLine
 10
10446.60162798447
 20
706.7131308511119
 30
0.0
 11
10446.60162798447
 21
712.7131308511124
 31
0.0
1001
AUTOCAD_POSTSCRIPT_FIGURE
1002
{
1000
PSFILL
1000
Grayscale
1000
Grayscale
1070
   100
1002
}
  0
LINE
  5
20BB3
330
20A03
100
AcDbEntity
  8
YODOROGO
100
AcDbLine
 10
10458.60162798446
 20
706.7131308511119
 30
0.0
 11
10446.60162798447
 21
706.7131308511119
 31
0.0
1001
AUTOCAD_POSTSCRIPT_FIGURE
1002
{
1000
PSFILL
1000
Grayscale
1000
Grayscale
1070
   100
1002
}
  0
LINE
  5
20BB4
330
20A03
100
AcDbEntity
  8
YODOROGO
100
AcDbLine
 10
10458.60162798446
 20
704.8571917366647
 30
0.0
 11
10458.60162798446
 21
706.7131308511119
 31
0.0
1001
AUTOCAD_POSTSCRIPT_FIGURE
1002
{
1000
PSFILL
1000
Grayscale
1000
Grayscale
1070
   100
1002
}
  0
LINE
  5
20BB5
330
20A03
100
AcDbEntity
  8
YODOROGO
100
AcDbLine
 10
10443.60162798447
 20
679.8656179355313
 30
0.0
 11
10458.60162798446
 21
704.8571917366647
 31
0.0
1001
AUTOCAD_POSTSCRIPT_FIGURE
1002
{
1000
PSFILL
1000
Grayscale
1000
Grayscale
1070
   100
1002
}
  0
LINE
  5
20BB6
330
20A03
100
AcDbEntity
  8
YODOROGO
100
AcDbLine
 10
10443.60162798447
 20
673.8656179355309
 30
0.0
 11
10443.60162798447
 21
679.8656179355313
 31
0.0
1001
AUTOCAD_POSTSCRIPT_FIGURE
1002
{
1000
PSFILL
1000
Grayscale
1000
Grayscale
1070
   100
1002
}
  0
LINE
  5
20BB7
330
20A03
100
AcDbEntity
  8
YODOROGO
100
AcDbLine
 10
10458.60162798446
 20
692.8571917366638
 30
0.0
 11
10443.60162798447
 21
673.8656179355309
 31
0.0
1001
AUTOCAD_POSTSCRIPT_FIGURE
1002
{
1000
PSFILL
1000
Grayscale
1000
Grayscale
1070
   100
1002
}
  0
LINE
  5
20BB8
330
20A03
100
AcDbEntity
  8
YODOROGO
100
AcDbLine
 10
10458.60162798446
 20
655.406061160983
 30
0.0
 11
10458.60162798446
 21
692.8571917366638
 31
0.0
1001
AUTOCAD_POSTSCRIPT_FIGURE
1002
{
1000
PSFILL
1000
Grayscale
1000
Grayscale
1070
   100
1002
}
  0
LINE
  5
20BB9
330
20A03
100
AcDbEntity
  8
YODOROGO
100
AcDbLine
 10
10464.60162798447
 20
655.406061160983
 30
0.0
 11
10458.60162798446
 21
655.406061160983
 31
0.0
1001
AUTOCAD_POSTSCRIPT_FIGURE
1002
{
1000
PSFILL
1000
Grayscale
1000
Grayscale
1070
   100
1002
}
  0
LINE
  5
20BBA
330
20A03
100
AcDbEntity
  8
YODOROGO
100
AcDbLine
 10
10464.60162798447
 20
693.5283795595521
 30
0.0
 11
10464.60162798447
 21
655.406061160983
 31
0.0
1001
AUTOCAD_POSTSCRIPT_FIGURE
1002
{
1000
PSFILL
1000
Grayscale
1000
Grayscale
1070
   100
1002
}
  0
LINE
  5
20BBB
330
20A03
100
AcDbEntity
  8
YODOROGO
100
AcDbLine
 10
10476.60162798446
 20
673.8656179355309
 30
0.0
 11
10464.60162798447
 21
693.5283795595521
 31
0.0
1001
AUTOCAD_POSTSCRIPT_FIGURE
1002
{
1000
PSFILL
1000
Grayscale
1000
Grayscale
1070
   100
1002
}
  0
LINE
  5
20BBC
330
20A03
100
AcDbEntity
  8
YODOROGO
100
AcDbLine
 10
10476.60162798446
 20
679.8656179355313
 30
0.0
 11
10476.60162798446
 21
673.8656179355309
 31
0.0
1001
AUTOCAD_POSTSCRIPT_FIGURE
1002
{
1000
PSFILL
1000
Grayscale
1000
Grayscale
1070
   100
1002
}
  0
LINE
  5
20BBD
330
20A03
100
AcDbEntity
  8
YODOROGO
100
AcDbLine
 10
10464.60162798447
 20
705.5283795595531
 30
0.0
 11
10476.60162798446
 21
679.8656179355313
 31
0.0
1001
AUTOCAD_POSTSCRIPT_FIGURE
1002
{
1000
PSFILL
1000
Grayscale
1000
Grayscale
1070
   100
1002
}
  0
LINE
  5
20BBE
330
20A03
100
AcDbEntity
  8
YODOROGO
100
AcDbLine
 10
10464.60162798447
 20
706.7131308511128
 30
0.0
 11
10464.60162798447
 21
705.5283795595531
 31
0.0
1001
AUTOCAD_POSTSCRIPT_FIGURE
1002
{
1000
PSFILL
1000
Grayscale
1000
Grayscale
1070
   100
1002
}
  0
LINE
  5
20BBF
330
20A03
100
AcDbEntity
  8
YODOROGO
100
AcDbLine
 10
10476.60162798446
 20
706.7131308511119
 30
0.0
 11
10464.60162798447
 21
706.7131308511128
 31
0.0
1001
AUTOCAD_POSTSCRIPT_FIGURE
1002
{
1000
PSFILL
1000
Grayscale
1000
Grayscale
1070
   100
1002
}
  0
LINE
  5
20BC0
330
20A03
100
AcDbEntity
  8
YODOROGO
100
AcDbLine
 10
10476.60162798446
 20
712.7131308511124
 30
0.0
 11
10476.60162798446
 21
706.7131308511119
 31
0.0
1001
AUTOCAD_POSTSCRIPT_FIGURE
1002
{
1000
PSFILL
1000
Grayscale
1000
Grayscale
1070
   100
1002
}
  0
LINE
  5
20BC1
330
20A03
100
AcDbEntity
  8
YODOROGO
100
AcDbLine
 10
10464.60162798447
 20
712.7131308511124
 30
0.0
 11
10476.60162798446
 21
712.7131308511124
 31
0.0
1001
AUTOCAD_POSTSCRIPT_FIGURE
1002
{
1000
PSFILL
1000
Grayscale
1000
Grayscale
1070
   100
1002
}
  0
LINE
  5
20BC2
330
20A03
100
AcDbEntity
  8
YODOROGO
100
AcDbLine
 10
10464.60162798447
 20
727.4060611609828
 30
0.0
 11
10464.60162798447
 21
712.7131308511124
 31
0.0
1001
AUTOCAD_POSTSCRIPT_FIGURE
1002
{
1000
PSFILL
1000
Grayscale
1000
Grayscale
1070
   100
1002
}
  0
LINE
  5
20BC3
330
20A03
100
AcDbEntity
  8
YODOROGO
100
AcDbLine
 10
10476.60162798446
 20
727.4060611609828
 30
0.0
 11
10464.60162798447
 21
727.4060611609828
 31
0.0
1001
AUTOCAD_POSTSCRIPT_FIGURE
1002
{
1000
PSFILL
1000
Grayscale
1000
Grayscale
1070
   100
1002
}
  0
LINE
  5
20BC4
330
20A03
100
AcDbEntity
  8
YODOROGO
100
AcDbLine
 10
10476.60162798446
 20
733.4060611609828
 30
0.0
 11
10476.60162798446
 21
727.4060611609828
 31
0.0
1001
AUTOCAD_POSTSCRIPT_FIGURE
1002
{
1000
PSFILL
1000
Grayscale
1000
Grayscale
1070
   100
1002
}
  0
LINE
  5
20BC5
330
20A03
100
AcDbEntity
  8
YODOROGO
100
AcDbLine
 10
10464.60162798447
 20
733.4060611609828
 30
0.0
 11
10476.60162798446
 21
733.4060611609828
 31
0.0
1001
AUTOCAD_POSTSCRIPT_FIGURE
1002
{
1000
PSFILL
1000
Grayscale
1000
Grayscale
1070
   100
1002
}
  0
LINE
  5
20BC6
330
20A03
100
AcDbEntity
  8
YODOROGO
100
AcDbLine
 10
10464.60162798447
 20
742.4060611609832
 30
0.0
 11
10464.60162798447
 21
733.4060611609828
 31
0.0
1001
AUTOCAD_POSTSCRIPT_FIGURE
1002
{
1000
PSFILL
1000
Grayscale
1000
Grayscale
1070
   100
1002
}
  0
LINE
  5
20BC7
330
20A03
100
AcDbEntity
  8
YODOROGO
100
AcDbLine
 10
10458.60162798446
 20
742.4060611609832
 30
0.0
 11
10464.60162798447
 21
742.4060611609832
 31
0.0
1001
AUTOCAD_POSTSCRIPT_FIGURE
1002
{
1000
PSFILL
1000
Grayscale
1000
Grayscale
1070
   100
1002
}
  0
LINE
  5
20BC8
330
20A03
100
AcDbEntity
  8
YODOROGO
100
AcDbLine
 10
10458.60162798446
 20
733.4060611609828
 30
0.0
 11
10458.60162798446
 21
742.4060611609832
 31
0.0
1001
AUTOCAD_POSTSCRIPT_FIGURE
1002
{
1000
PSFILL
1000
Grayscale
1000
Grayscale
1070
   100
1002
}
  0
LINE
  5
20BC9
330
20A03
100
AcDbEntity
  8
YODOROGO
100
AcDbLine
 10
10449.60162798447
 20
733.4060611609828
 30
0.0
 11
10458.60162798446
 21
733.4060611609828
 31
0.0
1001
AUTOCAD_POSTSCRIPT_FIGURE
1002
{
1000
PSFILL
1000
Grayscale
1000
Grayscale
1070
   100
1002
}
  0
LINE
  5
20BCA
330
20A03
100
AcDbEntity
  8
YODOROGO
100
AcDbLine
 10
10449.60162798447
 20
742.4060611609832
 30
0.0
 11
10449.60162798447
 21
733.4060611609828
 31
0.0
1001
AUTOCAD_POSTSCRIPT_FIGURE
1002
{
1000
PSFILL
1000
Grayscale
1000
Grayscale
1070
   100
1002
}
  0
LINE
  5
20BCB
330
20A03
100
AcDbEntity
  8
YODOROGO
100
AcDbLine
 10
10443.60162798447
 20
742.4060611609832
 30
0.0
 11
10449.60162798447
 21
742.4060611609832
 31
0.0
1001
AUTOCAD_POSTSCRIPT_FIGURE
1002
{
1000
PSFILL
1000
Grayscale
1000
Grayscale
1070
   100
1002
}
  0
LINE
  5
20BCC
330
20A03
100
AcDbEntity
  8
YODOROGO
100
AcDbLine
 10
10443.60162798447
 20
733.4060611609828
 30
0.0
 11
10443.60162798447
 21
742.4060611609832
 31
0.0
1001
AUTOCAD_POSTSCRIPT_FIGURE
1002
{
1000
PSFILL
1000
Grayscale
1000
Grayscale
1070
   100
1002
}
  0
LINE
  5
20BCD
330
20A03
100
AcDbEntity
  8
YODOROGO
100
AcDbLine
 10
10431.60162798447
 20
733.4060611609828
 30
0.0
 11
10443.60162798447
 21
733.4060611609828
 31
0.0
1001
AUTOCAD_POSTSCRIPT_FIGURE
1002
{
1000
PSFILL
1000
Grayscale
1000
Grayscale
1070
   100
1002
}
  0
LINE
  5
20BCE
330
20A03
100
AcDbEntity
  8
YODOROGO
100
AcDbLine
 10
10431.60162798447
 20
742.4060611609832
 30
0.0
 11
10431.60162798447
 21
733.4060611609828
 31
0.0
1001
AUTOCAD_POSTSCRIPT_FIGURE
1002
{
1000
PSFILL
1000
Grayscale
1000
Grayscale
1070
   100
1002
}
  0
LINE
  5
20BCF
330
20A03
100
AcDbEntity
  8
YODOROGO
100
AcDbLine
 10
10425.60162798447
 20
742.4060611609832
 30
0.0
 11
10431.60162798447
 21
742.4060611609832
 31
0.0
1001
AUTOCAD_POSTSCRIPT_FIGURE
1002
{
1000
PSFILL
1000
Grayscale
1000
Grayscale
1070
   100
1002
}
  0
LINE
  5
20BD0
330
20A03
100
AcDbEntity
  8
YODOROGO
100
AcDbLine
 10
10425.60162798447
 20
733.4060611609828
 30
0.0
 11
10425.60162798447
 21
742.4060611609832
 31
0.0
1001
AUTOCAD_POSTSCRIPT_FIGURE
1002
{
1000
PSFILL
1000
Grayscale
1000
Grayscale
1070
   100
1002
}
  0
LINE
  5
20BD1
330
20A03
100
AcDbEntity
  8
YODOROGO
100
AcDbLine
 10
10416.60162798446
 20
733.4060611609828
 30
0.0
 11
10425.60162798447
 21
733.4060611609828
 31
0.0
1001
AUTOCAD_POSTSCRIPT_FIGURE
1002
{
1000
PSFILL
1000
Grayscale
1000
Grayscale
1070
   100
1002
}
  0
LINE
  5
20BD2
330
20A03
100
AcDbEntity
  8
YODOROGO
100
AcDbLine
 10
10416.60162798446
 20
727.4060611609828
 30
0.0
 11
10416.60162798446
 21
733.4060611609828
 31
0.0
1001
AUTOCAD_POSTSCRIPT_FIGURE
1002
{
1000
PSFILL
1000
Grayscale
1000
Grayscale
1070
   100
1002
}
  0
LINE
  5
20BD3
330
20A03
100
AcDbEntity
  8
YODOROGO
100
AcDbLine
 10
10425.60162798447
 20
727.4060611609828
 30
0.0
 11
10416.60162798446
 21
727.4060611609828
 31
0.0
1001
AUTOCAD_POSTSCRIPT_FIGURE
1002
{
1000
PSFILL
1000
Grayscale
1000
Grayscale
1070
   100
1002
}
  0
LINE
  5
20BD4
330
20A03
100
AcDbEntity
  8
YODOROGO
100
AcDbLine
 10
10425.60162798447
 20
718.0449677976392
 30
0.0
 11
10425.60162798447
 21
727.4060611609828
 31
0.0
1001
AUTOCAD_POSTSCRIPT_FIGURE
1002
{
1000
PSFILL
1000
Grayscale
1000
Grayscale
1070
   100
1002
}
  0
LINE
  5
20BD5
330
20A03
100
AcDbEntity
  8
YODOROGO
100
AcDbLine
 10
10416.60162798446
 20
697.4162804818766
 30
0.0
 11
10425.60162798447
 21
718.0449677976392
 31
0.0
1001
AUTOCAD_POSTSCRIPT_FIGURE
1002
{
1000
PSFILL
1000
Grayscale
1000
Grayscale
1070
   100
1002
}
  0
LINE
  5
20BD6
330
20A03
100
AcDbEntity
  8
YODOROGO
100
AcDbLine
 10
10416.60162798446
 20
691.4162804818772
 30
0.0
 11
10416.60162798446
 21
697.4162804818766
 31
0.0
1001
AUTOCAD_POSTSCRIPT_FIGURE
1002
{
1000
PSFILL
1000
Grayscale
1000
Grayscale
1070
   100
1002
}
  0
LINE
  5
20BD7
330
20A03
100
AcDbEntity
  8
YODOROGO
100
AcDbLine
 10
10596.60162798446
 20
700.406061160983
 30
0.0
 11
10650.60162798447
 21
684.3291096151149
 31
0.0
1001
AUTOCAD_POSTSCRIPT_FIGURE
1002
{
1000
PSFILL
1000
Grayscale
1000
Grayscale
1070
   100
1002
}
  0
LINE
  5
20BD8
330
20A03
100
AcDbEntity
  8
YODOROGO
100
AcDbLine
 10
10650.60162798447
 20
657.3291096151146
 30
0.0
 11
10596.60162798446
 21
673.4060611609827
 31
0.0
1001
AUTOCAD_POSTSCRIPT_FIGURE
1002
{
1000
PSFILL
1000
Grayscale
1000
Grayscale
1070
   100
1002
}
  0
LINE
  5
20BD9
330
20A03
100
AcDbEntity
  8
YODOROGO
100
AcDbLine
 10
10650.60162798447
 20
744.329109615115
 30
0.0
 11
10596.60162798446
 21
760.4060611609829
 31
0.0
1001
AUTOCAD_POSTSCRIPT_FIGURE
1002
{
1000
PSFILL
1000
Grayscale
1000
Grayscale
1070
   100
1002
}
  0
LINE
  5
20BDA
330
20A03
100
AcDbEntity
  8
YODOROGO
100
AcDbLine
 10
10596.60162798446
 20
734.9060611609829
 30
0.0
 11
10650.60162798447
 21
718.829109615115
 31
0.0
1001
AUTOCAD_POSTSCRIPT_FIGURE
1002
{
1000
PSFILL
1000
Grayscale
1000
Grayscale
1070
   100
1002
}
  0
LINE
  5
20BDB
330
20A03
100
AcDbEntity
  8
YODOROGO
100
AcDbLine
 10
10596.60162798446
 20
673.4060611609827
 30
0.0
 11
10596.60162798446
 21
700.406061160983
 31
0.0
1001
AUTOCAD_POSTSCRIPT_FIGURE
1002
{
1000
PSFILL
1000
Grayscale
1000
Grayscale
1070
   100
1002
}
  0
LINE
  5
20BDC
330
20A03
100
AcDbEntity
  8
YODOROGO
100
AcDbLine
 10
10596.60162798446
 20
760.4060611609829
 30
0.0
 11
10596.60162798446
 21
734.9060611609829
 31
0.0
1001
AUTOCAD_POSTSCRIPT_FIGURE
1002
{
1000
PSFILL
1000
Grayscale
1000
Grayscale
1070
   100
1002
}
  0
LINE
  5
20BDD
330
20A03
100
AcDbEntity
  8
YODOROGO
100
AcDbLine
 10
10530.08862007752
 20
727.4060611609828
 30
0.0
 11
10548.60162798447
 21
655.406061160983
 31
0.0
1001
AUTOCAD_POSTSCRIPT_FIGURE
1002
{
1000
PSFILL
1000
Grayscale
1000
Grayscale
1070
   100
1002
}
  0
LINE
  5
20BDE
330
20A03
100
AcDbEntity
  8
YODOROGO
100
AcDbLine
 10
10491.60162798447
 20
727.4060611609828
 30
0.0
 11
10530.08862007752
 21
727.4060611609828
 31
0.0
1001
AUTOCAD_POSTSCRIPT_FIGURE
1002
{
1000
PSFILL
1000
Grayscale
1000
Grayscale
1070
   100
1002
}
  0
LINE
  5
20BDF
330
20A03
100
AcDbEntity
  8
YODOROGO
100
AcDbLine
 10
10491.60162798447
 20
733.4060611609828
 30
0.0
 11
10491.60162798447
 21
727.4060611609828
 31
0.0
1001
AUTOCAD_POSTSCRIPT_FIGURE
1002
{
1000
PSFILL
1000
Grayscale
1000
Grayscale
1070
   100
1002
}
  0
LINE
  5
20BE0
330
20A03
100
AcDbEntity
  8
YODOROGO
100
AcDbLine
 10
10528.72757944497
 20
733.4060611609828
 30
0.0
 11
10491.60162798447
 21
733.4060611609828
 31
0.0
1001
AUTOCAD_POSTSCRIPT_FIGURE
1002
{
1000
PSFILL
1000
Grayscale
1000
Grayscale
1070
   100
1002
}
  0
LINE
  5
20BE1
330
20A03
100
AcDbEntity
  8
YODOROGO
100
AcDbLine
 10
10526.68601849614
 20
742.4060611609832
 30
0.0
 11
10528.72757944497
 21
733.4060611609828
 31
0.0
1001
AUTOCAD_POSTSCRIPT_FIGURE
1002
{
1000
PSFILL
1000
Grayscale
1000
Grayscale
1070
   100
1002
}
  0
LINE
  5
20BE2
330
20A03
100
AcDbEntity
  8
YODOROGO
100
AcDbLine
 10
10534.18601849614
 20
742.4060611609832
 30
0.0
 11
10526.68601849614
 21
742.4060611609832
 31
0.0
1001
AUTOCAD_POSTSCRIPT_FIGURE
1002
{
1000
PSFILL
1000
Grayscale
1000
Grayscale
1070
   100
1002
}
  0
LINE
  5
20BE3
330
20A03
100
AcDbEntity
  8
YODOROGO
100
AcDbLine
 10
10535.92757944497
 20
733.4060611609828
 30
0.0
 11
10534.18601849614
 21
742.4060611609832
 31
0.0
1001
AUTOCAD_POSTSCRIPT_FIGURE
1002
{
1000
PSFILL
1000
Grayscale
1000
Grayscale
1070
   100
1002
}
  0
LINE
  5
20BE4
330
20A03
100
AcDbEntity
  8
YODOROGO
100
AcDbLine
 10
10545.60162798447
 20
733.4060611609828
 30
0.0
 11
10535.92757944497
 21
733.4060611609828
 31
0.0
1001
AUTOCAD_POSTSCRIPT_FIGURE
1002
{
1000
PSFILL
1000
Grayscale
1000
Grayscale
1070
   100
1002
}
  0
LINE
  5
20BE5
330
20A03
100
AcDbEntity
  8
YODOROGO
100
AcDbLine
 10
10545.60162798447
 20
742.4060611609832
 30
0.0
 11
10545.60162798447
 21
733.4060611609828
 31
0.0
1001
AUTOCAD_POSTSCRIPT_FIGURE
1002
{
1000
PSFILL
1000
Grayscale
1000
Grayscale
1070
   100
1002
}
  0
LINE
  5
20BE6
330
20A03
100
AcDbEntity
  8
YODOROGO
100
AcDbLine
 10
10551.60162798447
 20
742.4060611609832
 30
0.0
 11
10545.60162798447
 21
742.4060611609832
 31
0.0
1001
AUTOCAD_POSTSCRIPT_FIGURE
1002
{
1000
PSFILL
1000
Grayscale
1000
Grayscale
1070
   100
1002
}
  0
LINE
  5
20BE7
330
20A03
100
AcDbEntity
  8
YODOROGO
100
AcDbLine
 10
10551.60162798447
 20
733.4060611609828
 30
0.0
 11
10551.60162798447
 21
742.4060611609832
 31
0.0
1001
AUTOCAD_POSTSCRIPT_FIGURE
1002
{
1000
PSFILL
1000
Grayscale
1000
Grayscale
1070
   100
1002
}
  0
LINE
  5
20BE8
330
20A03
100
AcDbEntity
  8
YODOROGO
100
AcDbLine
 10
10551.60162798447
 20
727.4060611609828
 30
0.0
 11
10551.60162798447
 21
733.4060611609828
 31
0.0
1001
AUTOCAD_POSTSCRIPT_FIGURE
1002
{
1000
PSFILL
1000
Grayscale
1000
Grayscale
1070
   100
1002
}
  0
LINE
  5
20BE9
330
20A03
100
AcDbEntity
  8
YODOROGO
100
AcDbLine
 10
10537.08862007752
 20
727.4060611609828
 30
0.0
 11
10551.60162798447
 21
727.4060611609828
 31
0.0
1001
AUTOCAD_POSTSCRIPT_FIGURE
1002
{
1000
PSFILL
1000
Grayscale
1000
Grayscale
1070
   100
1002
}
  0
LINE
  5
20BEA
330
20A03
100
AcDbEntity
  8
YODOROGO
100
AcDbLine
 10
10551.60162798447
 20
655.406061160983
 30
0.0
 11
10537.08862007752
 21
727.4060611609828
 31
0.0
1001
AUTOCAD_POSTSCRIPT_FIGURE
1002
{
1000
PSFILL
1000
Grayscale
1000
Grayscale
1070
   100
1002
}
  0
LINE
  5
20BEB
330
20A03
100
AcDbEntity
  8
YODOROGO
100
AcDbLine
 10
10548.60162798447
 20
655.406061160983
 30
0.0
 11
10551.60162798447
 21
655.406061160983
 31
0.0
1001
AUTOCAD_POSTSCRIPT_FIGURE
1002
{
1000
PSFILL
1000
Grayscale
1000
Grayscale
1070
   100
1002
}
  0
LINE
  5
20BEC
330
20A03
100
AcDbEntity
  8
YODOROGO
100
AcDbLine
 10
10529.27595747517
 20
665.902791112048
 30
0.0
 11
10491.60162798447
 21
655.406061160983
 31
0.0
  0
LINE
  5
20BED
330
20A03
100
AcDbEntity
  8
YODOROGO
100
AcDbLine
 10
10529.27595747517
 20
674.5008673234024
 30
0.0
 11
10529.27595747517
 21
665.902791112048
 31
0.0
  0
LINE
  5
20BEE
330
20A03
100
AcDbEntity
  8
YODOROGO
100
AcDbLine
 10
10512.68879272982
 20
670.0563499251625
 30
0.0
 11
10529.27595747517
 21
674.5008673234024
 31
0.0
  0
LINE
  5
20BEF
330
20A03
100
AcDbEntity
  8
YODOROGO
100
AcDbLine
 10
10512.68879272982
 20
702.2131308511124
 30
0.0
 11
10512.68879272982
 21
670.0563499251625
 31
0.0
  0
LINE
  5
20BF0
330
20A03
100
AcDbEntity
  8
YODOROGO
100
AcDbLine
 10
10529.27595747517
 20
702.2131308511124
 30
0.0
 11
10512.68879272982
 21
702.2131308511124
 31
0.0
  0
LINE
  5
20BF1
330
20A03
100
AcDbEntity
  8
YODOROGO
100
AcDbLine
 10
10529.27595747517
 20
709.7131308511116
 30
0.0
 11
10529.27595747517
 21
702.2131308511124
 31
0.0
  0
LINE
  5
20BF2
330
20A03
100
AcDbEntity
  8
YODOROGO
100
AcDbLine
 10
10491.60162798447
 20
709.7131308511116
 30
0.0
 11
10529.27595747517
 21
709.7131308511116
 31
0.0
  0
LINE
  5
20BF3
330
20A03
100
AcDbEntity
  8
YODOROGO
100
AcDbLine
 10
10491.60162798447
 20
702.2131308511124
 30
0.0
 11
10491.60162798447
 21
709.7131308511116
 31
0.0
  0
LINE
  5
20BF4
330
20A03
100
AcDbEntity
  8
YODOROGO
100
AcDbLine
 10
10508.18879272982
 20
702.2131308511124
 30
0.0
 11
10491.60162798447
 21
702.2131308511124
 31
0.0
  0
LINE
  5
20BF5
330
20A03
100
AcDbEntity
  8
YODOROGO
100
AcDbLine
 10
10508.18879272982
 20
669.252502347869
 30
0.0
 11
10508.18879272982
 21
702.2131308511124
 31
0.0
  0
LINE
  5
20BF6
330
20A03
100
AcDbEntity
  8
YODOROGO
100
AcDbLine
 10
10491.60162798447
 20
664.4060611609823
 30
0.0
 11
10508.18879272982
 21
669.252502347869
 31
0.0
  0
LINE
  5
20BF7
330
20A03
100
AcDbEntity
  8
YODOROGO
100
AcDbLine
 10
10491.60162798447
 20
655.406061160983
 30
0.0
 11
10491.60162798447
 21
664.4060611609823
 31
0.0
  0
LINE
  5
20BF8
330
20A03
100
AcDbEntity
  8
YODOROGO
100
AcDbLine
 10
10500.60162798446
 20
640.4060611609828
 30
0.0
 11
10500.60162798446
 21
631.4060611609825
 31
0.0
  0
LINE
  5
20BF9
330
20A03
100
AcDbEntity
  8
YODOROGO
100
AcDbLine
 10
10500.60162798446
 20
640.4060611609828
 30
0.0
 11
10500.60162798446
 21
640.4060611609828
 31
0.0
  0
LINE
  5
20BFA
330
20A03
100
AcDbEntity
  8
YODOROGO
100
AcDbLine
 10
10506.60162798447
 20
640.4060611609828
 30
0.0
 11
10500.60162798446
 21
640.4060611609828
 31
0.0
  0
LINE
  5
20BFB
330
20A03
100
AcDbEntity
  8
YODOROGO
100
AcDbLine
 10
10506.60162798447
 20
631.4060611609825
 30
0.0
 11
10506.60162798447
 21
640.4060611609828
 31
0.0
  0
LINE
  5
20BFC
330
20A03
100
AcDbEntity
  8
YODOROGO
100
AcDbLine
 10
10515.34245150633
 20
631.4060611609825
 30
0.0
 11
10506.60162798447
 21
631.4060611609825
 31
0.0
  0
LINE
  5
20BFD
330
20A03
100
AcDbEntity
  8
YODOROGO
100
AcDbLine
 10
10500.60162798446
 20
631.4060611609825
 30
0.0
 11
10491.60162798447
 21
631.4060611609825
 31
0.0
  0
LINE
  5
20BFE
330
20A03
100
AcDbEntity
  8
YODOROGO
100
AcDbLine
 10
10530.80082008658
 20
640.4060611609828
 30
0.0
 11
10536.8008200866
 21
640.4060611609828
 31
0.0
1001
AUTOCAD_POSTSCRIPT_FIGURE
1002
{
1000
PSFILL
1000
Grayscale
1000
Grayscale
1070
   100
1002
}
  0
LINE
  5
20BFF
330
20A03
100
AcDbEntity
  8
YODOROGO
100
AcDbLine
 10
10650.60162798447
 20
684.3291096151149
 30
0.0
 11
10650.60162798447
 21
657.3291096151146
 31
0.0
1001
AUTOCAD_POSTSCRIPT_FIGURE
1002
{
1000
PSFILL
1000
Grayscale
1000
Grayscale
1070
   100
1002
}
  0
LINE
  5
20C00
330
20A03
100
AcDbEntity
  8
YODOROGO
100
AcDbLine
 10
10650.60162798447
 20
718.829109615115
 30
0.0
 11
10650.60162798447
 21
744.329109615115
 31
0.0
1001
AUTOCAD_POSTSCRIPT_FIGURE
1002
{
1000
PSFILL
1000
Grayscale
1000
Grayscale
1070
   100
1002
}
  0
LINE
  5
20C01
330
20A03
100
AcDbEntity
  8
YODOROGO
100
AcDbLine
 10
10662.60162798446
 20
682.4060611609829
 30
0.0
 11
10662.60162798446
 21
655.4060611609838
 31
0.0
  0
LINE
  5
20C02
330
20A03
100
AcDbEntity
  8
YODOROGO
100
AcDbLine
 10
10686.60162798446
 20
640.4060611609828
 30
0.0
 11
10662.60162798446
 21
640.4060611609828
 31
0.0
  0
LINE
  5
20C03
330
20A03
100
AcDbEntity
  8
YODOROGO
100
AcDbLine
 10
10662.60162798446
 20
655.4060611609838
 30
0.0
 11
10719.60162798446
 21
655.4060611609838
 31
0.0
  0
LINE
  5
20C04
330
20A03
100
AcDbEntity
  8
YODOROGO
100
AcDbLine
 10
10686.60162798446
 20
700.406061160983
 30
0.0
 11
10662.60162798446
 21
700.406061160983
 31
0.0
  0
LINE
  5
20C05
330
20A03
100
AcDbEntity
  8
YODOROGO
100
AcDbLine
 10
10686.60162798446
 20
721.4060611609824
 30
0.0
 11
10686.60162798446
 21
700.406061160983
 31
0.0
  0
LINE
  5
20C06
330
20A03
100
AcDbEntity
  8
YODOROGO
100
AcDbLine
 10
10719.60162798446
 20
745.4060611609828
 30
0.0
 11
10719.60162798446
 21
760.4060611609829
 31
0.0
  0
LINE
  5
20C07
330
20A03
100
AcDbEntity
  8
YODOROGO
100
AcDbLine
 10
10662.60162798446
 20
745.4060611609828
 30
0.0
 11
10719.60162798446
 21
745.4060611609828
 31
0.0
  0
LINE
  5
20C08
330
20A03
100
AcDbEntity
  8
YODOROGO
100
AcDbLine
 10
10662.60162798446
 20
700.406061160983
 30
0.0
 11
10662.60162798446
 21
745.4060611609828
 31
0.0
  0
LINE
  5
20C09
330
20A03
100
AcDbEntity
  8
YODOROGO
100
AcDbLine
 10
10875.60162798447
 20
760.4060611609829
 30
0.0
 11
10875.60162798447
 21
607.4060611609829
 31
0.0
  0
LINE
  5
20C0A
330
20A03
100
AcDbEntity
  8
YODOROGO
100
AcDbLine
 10
10902.60162798446
 20
592.4060611609831
 30
0.0
 11
10902.60162798446
 21
760.4060611609829
 31
0.0
  0
LINE
  5
20C0B
330
20A03
100
AcDbEntity
  8
YODOROGO
100
AcDbLine
 10
10973.10162798446
 20
559.4060611609823
 30
0.0
 11
10973.10162798446
 21
752.9060611609828
 31
0.0
  0
LINE
  5
20C0C
330
20A03
100
AcDbEntity
  8
YODOROGO
100
AcDbLine
 10
10949.10162798447
 20
752.9060611609828
 30
0.0
 11
10949.10162798447
 21
559.4060611609823
 31
0.0
  0
LINE
  5
20C0D
330
20A03
100
AcDbEntity
  8
YODOROGO
100
AcDbLine
 10
11019.60162798446
 20
760.4060611609829
 30
0.0
 11
11019.60162798446
 21
535.4060611609829
 31
0.0
  0
LINE
  5
20C0E
330
20A03
100
AcDbEntity
  8
YODOROGO
100
AcDbLine
 10
11046.60162798447
 20
535.4060611609829
 30
0.0
 11
11046.60162798447
 21
760.4060611609829
 31
0.0
  0
LINE
  5
20C0F
330
20A03
100
AcDbEntity
  8
YODOROGO
100
AcDbLine
 10
10746.60162798446
 20
625.406061160983
 30
0.0
 11
10746.60162798446
 21
655.4060611609838
 31
0.0
  0
LINE
  5
20C10
330
20A03
100
AcDbEntity
  8
YODOROGO
100
AcDbLine
 10
11207.10162798447
 20
640.4060611609828
 30
0.0
 11
11207.10162798447
 21
625.406061160983
 31
0.0
  0
LINE
  5
20C11
330
20A03
100
AcDbEntity
  8
YODOROGO
100
AcDbLine
 10
11207.10162798447
 20
640.4060611609828
 30
0.0
 11
11207.10162798447
 21
625.406061160983
 31
0.0
  0
ARC
  5
20C12
330
20A03
100
AcDbEntity
  8
YODOROGO
100
AcDbCircle
 10
10840.09184107006
 20
606.8316991658524
 30
0.0
 40
35.51443169202812
100
AcDbArc
 50
274.052441629071
 51
0.9266642149310715
  0
ARC
  5
20C13
330
20A03
100
AcDbEntity
  8
YODOROGO
100
AcDbCircle
 10
10840.94481401992
 20
597.229023228915
 30
0.0
 40
61.84515883532068
100
AcDbArc
 50
271.5351210653777
 51
355.5272775058505
  0
LINE
  5
20C14
330
20A03
100
AcDbEntity
  8
YODOROGO
100
AcDbLine
 10
10842.60162798446
 20
571.4060611609824
 30
0.0
 11
10842.60162798446
 21
535.4060611609829
 31
0.0
  0
LINE
  5
20C15
330
20A03
100
AcDbEntity
  8
YODOROGO
100
AcDbLine
 10
10797.60162798446
 20
625.406061160983
 30
0.0
 11
10746.60162798446
 21
625.406061160983
 31
0.0
  0
LINE
  5
20C16
330
20A03
100
AcDbEntity
  8
YODOROGO
100
AcDbLine
 10
10797.60162798446
 20
601.4060611609833
 30
0.0
 11
10797.60162798446
 21
625.406061160983
 31
0.0
  0
LINE
  5
20C17
330
20A03
100
AcDbEntity
  8
YODOROGO
100
AcDbLine
 10
10746.60162798446
 20
601.4060611609833
 30
0.0
 11
10797.60162798446
 21
601.4060611609833
 31
0.0
  0
LINE
  5
20C18
330
20A03
100
AcDbEntity
  8
YODOROGO
100
AcDbLine
 10
10746.60162798446
 20
571.4060611609824
 30
0.0
 11
10746.60162798446
 21
601.4060611609833
 31
0.0
  0
LINE
  5
20C19
330
20A03
100
AcDbEntity
  8
YODOROGO
100
AcDbLine
 10
10797.60162798446
 20
571.4060611609824
 30
0.0
 11
10746.60162798446
 21
571.4060611609824
 31
0.0
  0
LINE
  5
20C1A
330
20A03
100
AcDbEntity
  8
YODOROGO
100
AcDbLine
 10
10797.60162798446
 20
535.4060611609829
 30
0.0
 11
10797.60162798446
 21
571.4060611609824
 31
0.0
  0
LINE
  5
20C1B
330
20A03
100
AcDbEntity
  8
YODOROGO
100
AcDbLine
 10
10949.10162798447
 20
559.4060611609823
 30
0.0
 11
10973.10162798446
 21
559.4060611609823
 31
0.0
  0
LINE
  5
20C1C
330
20A03
100
AcDbEntity
  8
YODOROGO
100
AcDbLine
 10
11019.60162798446
 20
535.4060611609829
 30
0.0
 11
11046.60162798447
 21
535.4060611609829
 31
0.0
  0
LINE
  5
20C1D
330
20A03
100
AcDbEntity
  8
YODOROGO
100
AcDbLine
 10
11151.60162798447
 20
573.1655445639615
 30
0.0
 11
11151.60162798447
 21
535.4060611609829
 31
0.0
  0
LINE
  5
20C1E
330
20A03
100
AcDbEntity
  8
YODOROGO
100
AcDbLine
 10
11106.60162798446
 20
535.4060611609829
 30
0.0
 11
11151.60162798447
 21
573.1655445639615
 31
0.0
  0
LINE
  5
20C1F
330
20A03
100
AcDbEntity
  8
YODOROGO
100
AcDbLine
 10
11106.60162798446
 20
580.406061160983
 30
0.0
 11
11106.60162798446
 21
535.4060611609829
 31
0.0
  0
LINE
  5
20C20
330
20A03
100
AcDbEntity
  8
YODOROGO
100
AcDbLine
 10
11142.35423576229
 20
610.4060611609829
 30
0.0
 11
11106.60162798446
 21
580.406061160983
 31
0.0
  0
LINE
  5
20C21
330
20A03
100
AcDbEntity
  8
YODOROGO
100
AcDbLine
 10
11106.60162798446
 20
610.4060611609829
 30
0.0
 11
11142.35423576229
 21
610.4060611609829
 31
0.0
  0
LINE
  5
20C22
330
20A03
100
AcDbEntity
  8
YODOROGO
100
AcDbLine
 10
11106.60162798446
 20
625.406061160983
 30
0.0
 11
11106.60162798446
 21
610.4060611609829
 31
0.0
  0
LINE
  5
20C23
330
20A03
100
AcDbEntity
  8
YODOROGO
100
AcDbLine
 10
11207.10162798447
 20
625.406061160983
 30
0.0
 11
11106.60162798446
 21
625.406061160983
 31
0.0
  0
LINE
  5
20C24
330
20A03
100
AcDbEntity
  8
YODOROGO
100
AcDbLine
 10
11219.10162798447
 20
610.4060611609829
 30
0.0
 11
11166.60162798446
 21
610.4060611609829
 31
0.0
  0
LINE
  5
20C25
330
20A03
100
AcDbEntity
  8
YODOROGO
100
AcDbLine
 10
11166.60162798446
 20
585.7520390316213
 30
0.0
 11
11164.27870236948
 21
583.8028730048376
 31
0.0
  0
LINE
  5
20C26
330
20A03
100
AcDbEntity
  8
YODOROGO
100
AcDbLine
 10
11166.60162798446
 20
610.4060611609829
 30
0.0
 11
11166.60162798446
 21
585.7520390316213
 31
0.0
  0
LINE
  5
20C27
330
20A03
100
AcDbEntity
  8
YODOROGO
100
AcDbLine
 10
11151.60162798447
 20
573.1655445639615
 30
0.0
 11
11151.60162798447
 21
535.4060611609829
 31
0.0
  0
LINE
  5
20C28
330
20A03
100
AcDbEntity
  8
YODOROGO
100
AcDbLine
 10
11106.60162798446
 20
535.4060611609829
 30
0.0
 11
11151.60162798447
 21
573.1655445639615
 31
0.0
  0
LINE
  5
20C29
330
20A03
100
AcDbEntity
  8
YODOROGO
100
AcDbLine
 10
11106.60162798446
 20
580.406061160983
 30
0.0
 11
11106.60162798446
 21
535.4060611609829
 31
0.0
  0
LINE
  5
20C2A
330
20A03
100
AcDbEntity
  8
YODOROGO
100
AcDbLine
 10
11142.35423576229
 20
610.4060611609829
 30
0.0
 11
11106.60162798446
 21
580.406061160983
 31
0.0
  0
LINE
  5
20C2B
330
20A03
100
AcDbEntity
  8
YODOROGO
100
AcDbLine
 10
11106.60162798446
 20
610.4060611609829
 30
0.0
 11
11142.35423576229
 21
610.4060611609829
 31
0.0
  0
LINE
  5
20C2C
330
20A03
100
AcDbEntity
  8
YODOROGO
100
AcDbLine
 10
11106.60162798446
 20
625.406061160983
 30
0.0
 11
11106.60162798446
 21
610.4060611609829
 31
0.0
  0
LINE
  5
20C2D
330
20A03
100
AcDbEntity
  8
YODOROGO
100
AcDbLine
 10
11207.10162798447
 20
625.406061160983
 30
0.0
 11
11106.60162798446
 21
625.406061160983
 31
0.0
  0
LINE
  5
20C2E
330
20A03
100
AcDbEntity
  8
YODOROGO
100
AcDbLine
 10
10797.60162798446
 20
655.4060611609838
 30
0.0
 11
10797.60162798446
 21
682.4060611609829
 31
0.0
  0
LINE
  5
20C2F
330
20A03
100
AcDbEntity
  8
YODOROGO
100
AcDbLine
 10
10746.60162798446
 20
655.4060611609838
 30
0.0
 11
10797.60162798446
 21
655.4060611609838
 31
0.0
  0
LINE
  5
20C30
330
20A03
100
AcDbEntity
  8
YODOROGO
100
AcDbLine
 10
10773.60162798447
 20
700.406061160983
 30
0.0
 11
10773.60162798447
 21
721.4060611609824
 31
0.0
  0
LINE
  5
20C31
330
20A03
100
AcDbEntity
  8
YODOROGO
100
AcDbLine
 10
10797.60162798446
 20
700.406061160983
 30
0.0
 11
10773.60162798447
 21
700.406061160983
 31
0.0
  0
LINE
  5
20C32
330
20A03
100
AcDbEntity
  8
YODOROGO
100
AcDbLine
 10
10797.60162798446
 20
730.4060611609828
 30
0.0
 11
10797.60162798446
 21
700.406061160983
 31
0.0
  0
ARC
  5
20C33
330
20A03
100
AcDbEntity
  8
YODOROGO
100
AcDbCircle
 10
10782.60162798446
 20
730.4060611609828
 30
0.0
 40
15.0
100
AcDbArc
 50
0.0
 51
90.0
  0
LINE
  5
20C34
330
20A03
100
AcDbEntity
  8
YODOROGO
100
AcDbLine
 10
10746.60162798447
 20
745.4060611609828
 30
0.0
 11
10782.60162798446
 21
745.4060611609828
 31
0.0
  0
LINE
  5
20C35
330
20A03
100
AcDbEntity
  8
YODOROGO
100
AcDbLine
 10
10746.60162798447
 20
760.4060611609829
 30
0.0
 11
10746.60162798447
 21
745.4060611609828
 31
0.0
  0
LINE
  5
20C36
330
20A03
100
AcDbEntity
  8
YODOROGO
100
AcDbLine
 10
10902.60162798446
 20
760.4060611609829
 30
0.0
 11
10875.60162798447
 21
760.4060611609829
 31
0.0
  0
LINE
  5
20C37
330
20A03
100
AcDbEntity
  8
YODOROGO
100
AcDbLine
 10
10973.10162798446
 20
752.9060611609828
 30
0.0
 11
10949.10162798447
 21
752.9060611609828
 31
0.0
  0
LINE
  5
20C38
330
20A03
100
AcDbEntity
  8
YODOROGO
100
AcDbLine
 10
11046.60162798447
 20
760.4060611609829
 30
0.0
 11
11019.60162798446
 21
760.4060611609829
 31
0.0
  0
LINE
  5
20C39
330
20A03
100
AcDbEntity
  8
YODOROGO
100
AcDbLine
 10
11127.60162798447
 20
640.4060611609828
 30
0.0
 11
11127.60162798447
 21
664.4060611609833
 31
0.0
1001
AUTOCAD_POSTSCRIPT_FIGURE
1002
{
1000
PSFILL
1000
Grayscale
1000
Grayscale
1070
    25
1002
}
  0
LINE
  5
20C3A
330
20A03
100
AcDbEntity
  8
YODOROGO
100
AcDbLine
 10
11106.60162798446
 20
640.4060611609828
 30
0.0
 11
11127.60162798447
 21
640.4060611609828
 31
0.0
1001
AUTOCAD_POSTSCRIPT_FIGURE
1002
{
1000
PSFILL
1000
Grayscale
1000
Grayscale
1070
    25
1002
}
  0
LINE
  5
20C3B
330
20A03
100
AcDbEntity
  8
YODOROGO
100
AcDbLine
 10
11106.60162798446
 20
682.4060611609829
 30
0.0
 11
11106.60162798446
 21
640.4060611609828
 31
0.0
1001
AUTOCAD_POSTSCRIPT_FIGURE
1002
{
1000
PSFILL
1000
Grayscale
1000
Grayscale
1070
    25
1002
}
  0
LINE
  5
20C3C
330
20A03
100
AcDbEntity
  8
YODOROGO
100
AcDbLine
 10
11162.10162798447
 20
682.4060611609829
 30
0.0
 11
11106.60162798446
 21
682.4060611609829
 31
0.0
1001
AUTOCAD_POSTSCRIPT_FIGURE
1002
{
1000
PSFILL
1000
Grayscale
1000
Grayscale
1070
    25
1002
}
  0
LINE
  5
20C3D
330
20A03
100
AcDbEntity
  8
YODOROGO
100
AcDbLine
 10
11162.10162798447
 20
697.406061160983
 30
0.0
 11
11162.10162798447
 21
682.4060611609829
 31
0.0
1001
AUTOCAD_POSTSCRIPT_FIGURE
1002
{
1000
PSFILL
1000
Grayscale
1000
Grayscale
1070
    25
1002
}
  0
LINE
  5
20C3E
330
20A03
100
AcDbEntity
  8
YODOROGO
100
AcDbLine
 10
11106.60162798446
 20
697.406061160983
 30
0.0
 11
11162.10162798447
 21
697.406061160983
 31
0.0
1001
AUTOCAD_POSTSCRIPT_FIGURE
1002
{
1000
PSFILL
1000
Grayscale
1000
Grayscale
1070
    25
1002
}
  0
LINE
  5
20C3F
330
20A03
100
AcDbEntity
  8
YODOROGO
100
AcDbLine
 10
11106.60162798446
 20
715.4060611609828
 30
0.0
 11
11106.60162798446
 21
697.406061160983
 31
0.0
1001
AUTOCAD_POSTSCRIPT_FIGURE
1002
{
1000
PSFILL
1000
Grayscale
1000
Grayscale
1070
    25
1002
}
  0
LINE
  5
20C40
330
20A03
100
AcDbEntity
  8
YODOROGO
100
AcDbLine
 10
11162.10162798447
 20
715.4060611609828
 30
0.0
 11
11106.60162798446
 21
715.4060611609828
 31
0.0
1001
AUTOCAD_POSTSCRIPT_FIGURE
1002
{
1000
PSFILL
1000
Grayscale
1000
Grayscale
1070
    25
1002
}
  0
LINE
  5
20C41
330
20A03
100
AcDbEntity
  8
YODOROGO
100
AcDbLine
 10
11162.10162798447
 20
730.4060611609828
 30
0.0
 11
11162.10162798447
 21
715.4060611609828
 31
0.0
1001
AUTOCAD_POSTSCRIPT_FIGURE
1002
{
1000
PSFILL
1000
Grayscale
1000
Grayscale
1070
    25
1002
}
  0
LINE
  5
20C42
330
20A03
100
AcDbEntity
  8
YODOROGO
100
AcDbLine
 10
11106.60162798446
 20
730.4060611609828
 30
0.0
 11
11162.10162798447
 21
730.4060611609828
 31
0.0
1001
AUTOCAD_POSTSCRIPT_FIGURE
1002
{
1000
PSFILL
1000
Grayscale
1000
Grayscale
1070
    25
1002
}
  0
LINE
  5
20C43
330
20A03
100
AcDbEntity
  8
YODOROGO
100
AcDbLine
 10
11106.60162798446
 20
760.4060611609829
 30
0.0
 11
11106.60162798446
 21
730.4060611609828
 31
0.0
1001
AUTOCAD_POSTSCRIPT_FIGURE
1002
{
1000
PSFILL
1000
Grayscale
1000
Grayscale
1070
    25
1002
}
  0
LINE
  5
20C44
330
20A03
100
AcDbEntity
  8
YODOROGO
100
AcDbLine
 10
11124.60162798446
 20
760.4060611609829
 30
0.0
 11
11106.60162798446
 21
760.4060611609829
 31
0.0
1001
AUTOCAD_POSTSCRIPT_FIGURE
1002
{
1000
PSFILL
1000
Grayscale
1000
Grayscale
1070
    25
1002
}
  0
LINE
  5
20C45
330
20A03
100
AcDbEntity
  8
YODOROGO
100
AcDbLine
 10
11124.60162798446
 20
748.4060611609828
 30
0.0
 11
11124.60162798446
 21
760.4060611609829
 31
0.0
1001
AUTOCAD_POSTSCRIPT_FIGURE
1002
{
1000
PSFILL
1000
Grayscale
1000
Grayscale
1070
    25
1002
}
  0
LINE
  5
20C46
330
20A03
100
AcDbEntity
  8
YODOROGO
100
AcDbLine
 10
11162.10162798447
 20
748.4060611609828
 30
0.0
 11
11124.60162798446
 21
748.4060611609828
 31
0.0
1001
AUTOCAD_POSTSCRIPT_FIGURE
1002
{
1000
PSFILL
1000
Grayscale
1000
Grayscale
1070
    25
1002
}
  0
LINE
  5
20C47
330
20A03
100
AcDbEntity
  8
YODOROGO
100
AcDbLine
 10
11162.10162798447
 20
760.4060611609829
 30
0.0
 11
11162.10162798447
 21
748.4060611609828
 31
0.0
1001
AUTOCAD_POSTSCRIPT_FIGURE
1002
{
1000
PSFILL
1000
Grayscale
1000
Grayscale
1070
    25
1002
}
  0
LINE
  5
20C48
330
20A03
100
AcDbEntity
  8
YODOROGO
100
AcDbLine
 10
11186.10162798447
 20
760.4060611609829
 30
0.0
 11
11162.10162798447
 21
760.4060611609829
 31
0.0
1001
AUTOCAD_POSTSCRIPT_FIGURE
1002
{
1000
PSFILL
1000
Grayscale
1000
Grayscale
1070
    25
1002
}
  0
LINE
  5
20C49
330
20A03
100
AcDbEntity
  8
YODOROGO
100
AcDbLine
 10
11186.10162798447
 20
748.4060611609828
 30
0.0
 11
11186.10162798447
 21
760.4060611609829
 31
0.0
1001
AUTOCAD_POSTSCRIPT_FIGURE
1002
{
1000
PSFILL
1000
Grayscale
1000
Grayscale
1070
    25
1002
}
  0
LINE
  5
20C4A
330
20A03
100
AcDbEntity
  8
YODOROGO
100
AcDbLine
 10
11186.10162798447
 20
715.4060611609828
 30
0.0
 11
11186.10162798447
 21
730.4060611609828
 31
0.0
1001
AUTOCAD_POSTSCRIPT_FIGURE
1002
{
1000
PSFILL
1000
Grayscale
1000
Grayscale
1070
    25
1002
}
  0
LINE
  5
20C4B
330
20A03
100
AcDbEntity
  8
YODOROGO
100
AcDbLine
 10
11186.10162798447
 20
682.4060611609829
 30
0.0
 11
11186.10162798447
 21
697.406061160983
 31
0.0
1001
AUTOCAD_POSTSCRIPT_FIGURE
1002
{
1000
PSFILL
1000
Grayscale
1000
Grayscale
1070
    25
1002
}
  0
LINE
  5
20C4C
330
20A03
100
AcDbEntity
  8
YODOROGO
100
AcDbLine
 10
11220.60162798447
 20
664.4060611609833
 30
0.0
 11
11220.60162798447
 21
640.4060611609828
 31
0.0
1001
AUTOCAD_POSTSCRIPT_FIGURE
1002
{
1000
PSFILL
1000
Grayscale
1000
Grayscale
1070
    25
1002
}
  0
LINE
  5
20C4D
330
20A03
100
AcDbEntity
  8
YODOROGO
100
AcDbLine
 10
11186.10162798447
 20
664.4060611609833
 30
0.0
 11
11220.60162798447
 21
664.4060611609833
 31
0.0
1001
AUTOCAD_POSTSCRIPT_FIGURE
1002
{
1000
PSFILL
1000
Grayscale
1000
Grayscale
1070
    25
1002
}
  0
LINE
  5
20C4E
330
20A03
100
AcDbEntity
  8
YODOROGO
100
AcDbLine
 10
11186.10162798447
 20
640.4060611609828
 30
0.0
 11
11186.10162798447
 21
664.4060611609833
 31
0.0
1001
AUTOCAD_POSTSCRIPT_FIGURE
1002
{
1000
PSFILL
1000
Grayscale
1000
Grayscale
1070
    25
1002
}
  0
LINE
  5
20C4F
330
20A03
100
AcDbEntity
  8
YODOROGO
100
AcDbLine
 10
11162.10162798447
 20
640.4060611609828
 30
0.0
 11
11186.10162798447
 21
640.4060611609828
 31
0.0
1001
AUTOCAD_POSTSCRIPT_FIGURE
1002
{
1000
PSFILL
1000
Grayscale
1000
Grayscale
1070
    25
1002
}
  0
LINE
  5
20C50
330
20A03
100
AcDbEntity
  8
YODOROGO
100
AcDbLine
 10
11162.10162798447
 20
664.4060611609833
 30
0.0
 11
11162.10162798447
 21
640.4060611609828
 31
0.0
1001
AUTOCAD_POSTSCRIPT_FIGURE
1002
{
1000
PSFILL
1000
Grayscale
1000
Grayscale
1070
    25
1002
}
  0
LINE
  5
20C51
330
20A03
100
AcDbEntity
  8
YODOROGO
100
AcDbLine
 10
11127.60162798447
 20
664.4060611609833
 30
0.0
 11
11162.10162798447
 21
664.4060611609833
 31
0.0
1001
AUTOCAD_POSTSCRIPT_FIGURE
1002
{
1000
PSFILL
1000
Grayscale
1000
Grayscale
1070
    25
1002
}
  0
ARC
  5
20C52
330
20A03
100
AcDbEntity
  8
YODOROGO
100
AcDbCircle
 10
11647.31921000922
 20
601.0052765683409
 30
0.0
 40
66.83298041652057
100
AcDbArc
 50
281.0262749542535
 51
357.771135755738
  0
LINE
  5
20C53
330
20A03
100
AcDbEntity
  8
YODOROGO
100
AcDbLine
 10
11780.10162798446
 20
715.4060611609828
 30
0.0
 11
11687.10162798447
 21
715.4060611609828
 31
0.0
  0
LINE
  5
20C54
330
20A03
100
AcDbEntity
  8
YODOROGO
100
AcDbLine
 10
11780.10162798446
 20
760.4060611609829
 30
0.0
 11
11687.10162798447
 21
760.4060611609829
 31
0.0
  0
LINE
  5
20C55
330
20A03
100
AcDbEntity
  8
YODOROGO
100
AcDbLine
 10
11687.10162798447
 20
736.4060611609825
 30
0.0
 11
11780.10162798446
 21
736.4060611609825
 31
0.0
  0
LINE
  5
20C56
330
20A03
100
AcDbEntity
  8
YODOROGO
100
AcDbLine
 10
11546.85162798447
 20
586.4060611609825
 30
0.0
 11
11546.85162798447
 21
658.4060611609827
 31
0.0
  0
LINE
  5
20C57
330
20A03
100
AcDbEntity
  8
YODOROGO
100
AcDbLine
 10
11536.35162798447
 20
634.4060611609833
 30
0.0
 11
11536.35162798447
 21
586.4060611609825
 31
0.0
  0
LINE
  5
20C58
330
20A03
100
AcDbEntity
  8
YODOROGO
100
AcDbLine
 10
11521.35162798447
 20
559.4060611609831
 30
0.0
 11
11521.35162798447
 21
634.4060611609833
 31
0.0
  0
LINE
  5
20C59
330
20A03
100
AcDbEntity
  8
YODOROGO
100
AcDbLine
 10
11587.35162798447
 20
634.4060611609833
 30
0.0
 11
11587.35162798447
 21
559.4060611609831
 31
0.0
  0
LINE
  5
20C5A
330
20A03
100
AcDbEntity
  8
YODOROGO
100
AcDbLine
 10
11572.35162798446
 20
586.4060611609825
 30
0.0
 11
11572.35162798446
 21
634.4060611609833
 31
0.0
  0
LINE
  5
20C5B
330
20A03
100
AcDbEntity
  8
YODOROGO
100
AcDbLine
 10
11561.85162798446
 20
658.4060611609827
 30
0.0
 11
11561.85162798446
 21
586.4060611609825
 31
0.0
  0
LINE
  5
20C5C
330
20A03
100
AcDbEntity
  8
YODOROGO
100
AcDbLine
 10
11615.10162798446
 20
760.4060611609829
 30
0.0
 11
11615.10162798446
 21
550.4060611609828
 31
0.0
  0
LINE
  5
20C5D
330
20A03
100
AcDbEntity
  8
YODOROGO
100
AcDbLine
 10
11492.10162798447
 20
535.4060611609829
 30
0.0
 11
11492.10162798447
 21
760.4060611609829
 31
0.0
  0
LINE
  5
20C5E
330
20A03
100
AcDbEntity
  8
YODOROGO
100
AcDbLine
 10
11511.60162798447
 20
736.4060611609825
 30
0.0
 11
11511.60162798447
 21
535.4060611609829
 31
0.0
  0
LINE
  5
20C5F
330
20A03
100
AcDbEntity
  8
YODOROGO
100
AcDbLine
 10
11597.10162798446
 20
580.406061160983
 30
0.0
 11
11597.10162798446
 21
736.4060611609825
 31
0.0
  0
LINE
  5
20C60
330
20A03
100
AcDbEntity
  8
YODOROGO
100
AcDbLine
 10
11393.10162798446
 20
610.4060611609829
 30
0.0
 11
11393.10162798446
 21
629.9060611609831
 31
0.0
  0
LINE
  5
20C61
330
20A03
100
AcDbEntity
  8
YODOROGO
100
AcDbLine
 10
11481.60162798447
 20
629.9060611609831
 30
0.0
 11
11481.60162798447
 21
610.4060611609829
 31
0.0
  0
LINE
  5
20C62
330
20A03
100
AcDbEntity
  8
YODOROGO
100
AcDbLine
 10
11687.10162798447
 20
715.4060611609828
 30
0.0
 11
11687.10162798447
 21
613.4060611609827
 31
0.0
  0
LINE
  5
20C63
330
20A03
100
AcDbEntity
  8
YODOROGO
100
AcDbLine
 10
11231.10162798446
 20
625.406061160983
 30
0.0
 11
11231.10162798446
 21
640.4060611609828
 31
0.0
  0
LINE
  5
20C64
330
20A03
100
AcDbEntity
  8
YODOROGO
100
AcDbLine
 10
11231.10162798446
 20
625.406061160983
 30
0.0
 11
11231.10162798446
 21
640.4060611609828
 31
0.0
  0
ARC
  5
20C65
330
20A03
100
AcDbEntity
  8
YODOROGO
100
AcDbCircle
 10
11451.60162798447
 20
565.4060611609828
 30
0.0
 40
30.0
100
AcDbArc
 50
270.0
 51
0.0
  0
LINE
  5
20C66
330
20A03
100
AcDbEntity
  8
YODOROGO
100
AcDbLine
 10
11463.60162798446
 20
599.9060611609831
 30
0.0
 11
11481.60162798447
 21
599.9060611609831
 31
0.0
  0
LINE
  5
20C67
330
20A03
100
AcDbEntity
  8
YODOROGO
100
AcDbLine
 10
11481.60162798447
 20
610.4060611609829
 30
0.0
 11
11448.60162798446
 21
610.4060611609829
 31
0.0
  0
LINE
  5
20C68
330
20A03
100
AcDbEntity
  8
YODOROGO
100
AcDbLine
 10
11331.60162798447
 20
625.406061160983
 30
0.0
 11
11231.10162798446
 21
625.406061160983
 31
0.0
  0
LINE
  5
20C69
330
20A03
100
AcDbEntity
  8
YODOROGO
100
AcDbLine
 10
11331.60162798447
 20
610.4060611609829
 30
0.0
 11
11331.60162798447
 21
625.406061160983
 31
0.0
  0
LINE
  5
20C6A
330
20A03
100
AcDbEntity
  8
YODOROGO
100
AcDbLine
 10
11256.60162798447
 20
610.4060611609829
 30
0.0
 11
11331.60162798447
 21
610.4060611609829
 31
0.0
  0
ARC
  5
20C6B
330
20A03
100
AcDbEntity
  8
YODOROGO
100
AcDbCircle
 10
11336.27206076301
 20
700.8321431073384
 30
0.0
 40
120.5166136069605
100
AcDbArc
 50
228.6181454618993
 51
245.660289248906
  0
LINE
  5
20C6C
330
20A03
100
AcDbEntity
  8
YODOROGO
100
AcDbLine
 10
11289.60162798447
 20
601.4060611609833
 30
0.0
 11
11286.60162798448
 21
591.0273059512126
 31
0.0
  0
LINE
  5
20C6D
330
20A03
100
AcDbEntity
  8
YODOROGO
100
AcDbLine
 10
11321.10162798447
 20
601.4060611609833
 30
0.0
 11
11289.60162798447
 21
601.4060611609833
 31
0.0
  0
LINE
  5
20C6E
330
20A03
100
AcDbEntity
  8
YODOROGO
100
AcDbLine
 10
11316.60162798447
 20
581.9316459275352
 30
0.0
 11
11321.10162798447
 21
601.4060611609833
 31
0.0
  0
ARC
  5
20C6F
330
20A03
100
AcDbEntity
  8
YODOROGO
100
AcDbCircle
 10
11336.27206076267
 20
700.832143107376
 30
0.0
 40
120.516613606984
100
AcDbArc
 50
260.6062929796992
 51
267.7790355655586
  0
LINE
  5
20C70
330
20A03
100
AcDbEntity
  8
YODOROGO
100
AcDbLine
 10
11331.60162798447
 20
535.4060611609821
 30
0.0
 11
11331.60162798447
 21
580.406061160983
 31
0.0
  0
LINE
  5
20C71
330
20A03
100
AcDbEntity
  8
YODOROGO
100
AcDbLine
 10
11226.60162798446
 20
555.5022505933164
 30
0.0
 11
11226.60162798446
 21
597.949158949178
 31
0.0
  0
LINE
  5
20C72
330
20A03
100
AcDbEntity
  8
YODOROGO
100
AcDbLine
 10
11331.60162798447
 20
625.406061160983
 30
0.0
 11
11231.10162798446
 21
625.406061160983
 31
0.0
  0
LINE
  5
20C73
330
20A03
100
AcDbEntity
  8
YODOROGO
100
AcDbLine
 10
11331.60162798447
 20
610.4060611609829
 30
0.0
 11
11331.60162798447
 21
625.406061160983
 31
0.0
  0
LINE
  5
20C74
330
20A03
100
AcDbEntity
  8
YODOROGO
100
AcDbLine
 10
11256.60162798447
 20
610.4060611609829
 30
0.0
 11
11331.60162798447
 21
610.4060611609829
 31
0.0
  0
ARC
  5
20C75
330
20A03
100
AcDbEntity
  8
YODOROGO
100
AcDbCircle
 10
11336.27206076301
 20
700.8321431073384
 30
0.0
 40
120.5166136069605
100
AcDbArc
 50
228.6181454618993
 51
245.660289248906
  0
LINE
  5
20C76
330
20A03
100
AcDbEntity
  8
YODOROGO
100
AcDbLine
 10
11289.60162798447
 20
601.4060611609833
 30
0.0
 11
11286.60162798448
 21
591.0273059512126
 31
0.0
  0
LINE
  5
20C77
330
20A03
100
AcDbEntity
  8
YODOROGO
100
AcDbLine
 10
11321.10162798447
 20
601.4060611609833
 30
0.0
 11
11289.60162798447
 21
601.4060611609833
 31
0.0
  0
LINE
  5
20C78
330
20A03
100
AcDbEntity
  8
YODOROGO
100
AcDbLine
 10
11316.60162798447
 20
581.9316459275352
 30
0.0
 11
11321.10162798447
 21
601.4060611609833
 31
0.0
  0
ARC
  5
20C79
330
20A03
100
AcDbEntity
  8
YODOROGO
100
AcDbCircle
 10
11336.27206076267
 20
700.832143107376
 30
0.0
 40
120.516613606984
100
AcDbArc
 50
260.6062929796992
 51
267.7790355655586
  0
LINE
  5
20C7A
330
20A03
100
AcDbEntity
  8
YODOROGO
100
AcDbLine
 10
11331.60162798447
 20
535.4060611609821
 30
0.0
 11
11331.60162798447
 21
580.406061160983
 31
0.0
  0
LINE
  5
20C7B
330
20A03
100
AcDbEntity
  8
YODOROGO
100
AcDbLine
 10
11226.60162798446
 20
555.5022505933164
 30
0.0
 11
11226.60162798446
 21
597.949158949178
 31
0.0
  0
LINE
  5
20C7C
330
20A03
100
AcDbEntity
  8
YODOROGO
100
AcDbLine
 10
11412.60162798447
 20
590.1560611609832
 30
0.0
 11
11393.10162798446
 21
590.1560611609832
 31
0.0
  0
LINE
  5
20C7D
330
20A03
100
AcDbEntity
  8
YODOROGO
100
AcDbLine
 10
11412.60162798447
 20
600.6560611609824
 30
0.0
 11
11412.60162798447
 21
590.1560611609832
 31
0.0
  0
LINE
  5
20C7E
330
20A03
100
AcDbEntity
  8
YODOROGO
100
AcDbLine
 10
11393.10162798446
 20
600.6560611609824
 30
0.0
 11
11412.60162798447
 21
600.6560611609824
 31
0.0
  0
LINE
  5
20C7F
330
20A03
100
AcDbEntity
  8
YODOROGO
100
AcDbLine
 10
11393.10162798446
 20
590.1560611609832
 30
0.0
 11
11393.10162798446
 21
600.6560611609824
 31
0.0
  0
LINE
  5
20C80
330
20A03
100
AcDbEntity
  8
YODOROGO
100
AcDbLine
 10
11411.10162798447
 20
591.6560611609829
 30
0.0
 11
11394.60162798447
 21
591.6560611609829
 31
0.0
  0
LINE
  5
20C81
330
20A03
100
AcDbEntity
  8
YODOROGO
100
AcDbLine
 10
11411.10162798447
 20
599.156061160983
 30
0.0
 11
11411.10162798447
 21
591.6560611609829
 31
0.0
  0
LINE
  5
20C82
330
20A03
100
AcDbEntity
  8
YODOROGO
100
AcDbLine
 10
11394.60162798447
 20
599.156061160983
 30
0.0
 11
11411.10162798447
 21
599.156061160983
 31
0.0
  0
LINE
  5
20C83
330
20A03
100
AcDbEntity
  8
YODOROGO
100
AcDbLine
 10
11394.60162798447
 20
591.6560611609829
 30
0.0
 11
11394.60162798447
 21
599.156061160983
 31
0.0
  0
LINE
  5
20C84
330
20A03
100
AcDbEntity
  8
YODOROGO
100
AcDbLine
 10
11409.60162798447
 20
593.1560611609824
 30
0.0
 11
11396.10162798446
 21
593.1560611609824
 31
0.0
  0
LINE
  5
20C85
330
20A03
100
AcDbEntity
  8
YODOROGO
100
AcDbLine
 10
11409.60162798447
 20
597.6560611609833
 30
0.0
 11
11409.60162798447
 21
593.1560611609824
 31
0.0
  0
LINE
  5
20C86
330
20A03
100
AcDbEntity
  8
YODOROGO
100
AcDbLine
 10
11396.10162798446
 20
597.6560611609833
 30
0.0
 11
11409.60162798447
 21
597.6560611609833
 31
0.0
  0
LINE
  5
20C87
330
20A03
100
AcDbEntity
  8
YODOROGO
100
AcDbLine
 10
11396.10162798446
 20
593.1560611609824
 30
0.0
 11
11396.10162798446
 21
597.6560611609833
 31
0.0
  0
LINE
  5
20C88
330
20A03
100
AcDbEntity
  8
YODOROGO
100
AcDbLine
 10
11408.10162798447
 20
594.6560611609827
 30
0.0
 11
11397.60162798447
 21
594.6560611609827
 31
0.0
  0
LINE
  5
20C89
330
20A03
100
AcDbEntity
  8
YODOROGO
100
AcDbLine
 10
11408.10162798447
 20
596.1560611609829
 30
0.0
 11
11408.10162798447
 21
594.6560611609827
 31
0.0
  0
LINE
  5
20C8A
330
20A03
100
AcDbEntity
  8
YODOROGO
100
AcDbLine
 10
11397.60162798447
 20
596.1560611609829
 30
0.0
 11
11408.10162798447
 21
596.1560611609829
 31
0.0
  0
LINE
  5
20C8B
330
20A03
100
AcDbEntity
  8
YODOROGO
100
AcDbLine
 10
11397.60162798447
 20
594.6560611609827
 30
0.0
 11
11397.60162798447
 21
596.1560611609829
 31
0.0
  0
LINE
  5
20C8C
330
20A03
100
AcDbEntity
  8
YODOROGO
100
AcDbLine
 10
11424.60162798446
 20
610.4060611609829
 30
0.0
 11
11393.10162798446
 21
610.4060611609829
 31
0.0
  0
LINE
  5
20C8D
330
20A03
100
AcDbEntity
  8
YODOROGO
100
AcDbLine
 10
11424.60162798446
 20
580.406061160983
 30
0.0
 11
11424.60162798446
 21
610.4060611609829
 31
0.0
  0
LINE
  5
20C8E
330
20A03
100
AcDbEntity
  8
YODOROGO
100
AcDbLine
 10
11393.10162798446
 20
580.406061160983
 30
0.0
 11
11424.60162798446
 21
580.406061160983
 31
0.0
  0
LINE
  5
20C8F
330
20A03
100
AcDbEntity
  8
YODOROGO
100
AcDbLine
 10
11393.10162798446
 20
535.4060611609829
 30
0.0
 11
11393.10162798446
 21
580.406061160983
 31
0.0
  0
LINE
  5
20C90
330
20A03
100
AcDbEntity
  8
YODOROGO
100
AcDbLine
 10
11451.60162798447
 20
535.4060611609829
 30
0.0
 11
11393.10162798446
 21
535.4060611609829
 31
0.0
  0
LINE
  5
20C91
330
20A03
100
AcDbEntity
  8
YODOROGO
100
AcDbLine
 10
11463.60162798446
 20
589.4060611609823
 30
0.0
 11
11463.60162798446
 21
599.9060611609831
 31
0.0
  0
ARC
  5
20C92
330
20A03
100
AcDbEntity
  8
YODOROGO
100
AcDbCircle
 10
11454.60162798446
 20
589.4060611609843
 30
0.0
 40
9.000000000001408
100
AcDbArc
 50
270.0
 51
359.9999999999877
  0
LINE
  5
20C93
330
20A03
100
AcDbEntity
  8
YODOROGO
100
AcDbLine
 10
11448.60162798446
 20
580.406061160983
 30
0.0
 11
11454.60162798446
 21
580.406061160983
 31
0.0
  0
LINE
  5
20C94
330
20A03
100
AcDbEntity
  8
YODOROGO
100
AcDbLine
 10
11448.60162798446
 20
610.4060611609829
 30
0.0
 11
11448.60162798446
 21
580.406061160983
 31
0.0
  0
LINE
  5
20C95
330
20A03
100
AcDbEntity
  8
YODOROGO
100
AcDbLine
 10
11587.35162798447
 20
580.406061160983
 30
0.0
 11
11597.10162798446
 21
580.406061160983
 31
0.0
  0
LINE
  5
20C96
330
20A03
100
AcDbEntity
  8
YODOROGO
100
AcDbLine
 10
11600.10162798446
 20
535.4060611609829
 30
0.0
 11
11587.35162798447
 21
535.4060611609829
 31
0.0
  0
LINE
  5
20C97
330
20A03
100
AcDbEntity
  8
YODOROGO
100
AcDbLine
 10
11536.35162798447
 20
586.4060611609825
 30
0.0
 11
11546.85162798447
 21
586.4060611609825
 31
0.0
  0
LINE
  5
20C98
330
20A03
100
AcDbEntity
  8
YODOROGO
100
AcDbLine
 10
11587.35162798447
 20
559.4060611609831
 30
0.0
 11
11521.35162798447
 21
559.4060611609831
 31
0.0
  0
LINE
  5
20C99
330
20A03
100
AcDbEntity
  8
YODOROGO
100
AcDbLine
 10
11561.85162798446
 20
586.4060611609825
 30
0.0
 11
11572.35162798446
 21
586.4060611609825
 31
0.0
  0
LINE
  5
20C9A
330
20A03
100
AcDbEntity
  8
YODOROGO
100
AcDbLine
 10
11587.35162798447
 20
535.4060611609829
 30
0.0
 11
11587.35162798447
 21
580.406061160983
 31
0.0
  0
LINE
  5
20C9B
330
20A03
100
AcDbEntity
  8
YODOROGO
100
AcDbLine
 10
11511.60162798447
 20
535.4060611609829
 30
0.0
 11
11492.10162798447
 21
535.4060611609829
 31
0.0
  0
LINE
  5
20C9C
330
20A03
100
AcDbEntity
  8
YODOROGO
100
AcDbLine
 10
11481.60162798447
 20
599.9060611609831
 30
0.0
 11
11481.60162798447
 21
565.4060611609828
 31
0.0
  0
ARC
  5
20C9D
330
20A03
100
AcDbEntity
  8
YODOROGO
100
AcDbCircle
 10
11600.10162798446
 20
550.4060611609828
 30
0.0
 40
15.0
100
AcDbArc
 50
270.0
 51
0.0
  0
LINE
  5
20C9E
330
20A03
100
AcDbEntity
  8
YODOROGO
100
AcDbLine
 10
11660.10162798446
 20
571.4060611609824
 30
0.0
 11
11660.10162798446
 21
535.4060611609829
 31
0.0
  0
ARC
  5
20C9F
330
20A03
100
AcDbEntity
  8
YODOROGO
100
AcDbCircle
 10
11639.89552333754
 20
614.0742712911499
 30
0.0
 40
47.21083372187828
100
AcDbArc
 50
295.3405244216011
 51
359.1890230341867
  0
LINE
  5
20CA0
330
20A03
100
AcDbEntity
  8
YODOROGO
100
AcDbLine
 10
11481.60162798447
 20
697.406061160983
 30
0.0
 11
11436.60162798447
 21
727.4060611609828
 31
0.0
  0
LINE
  5
20CA1
330
20A03
100
AcDbEntity
  8
YODOROGO
100
AcDbLine
 10
11436.60162798447
 20
760.4060611609829
 30
0.0
 11
11481.60162798447
 21
730.4060611609828
 31
0.0
  0
LINE
  5
20CA2
330
20A03
100
AcDbEntity
  8
YODOROGO
100
AcDbLine
 10
11448.60162798446
 20
629.9060611609831
 30
0.0
 11
11481.60162798447
 21
629.9060611609831
 31
0.0
  0
LINE
  5
20CA3
330
20A03
100
AcDbEntity
  8
YODOROGO
100
AcDbLine
 10
11481.60162798447
 20
650.9060611609827
 30
0.0
 11
11448.60162798446
 21
650.9060611609827
 31
0.0
  0
LINE
  5
20CA4
330
20A03
100
AcDbEntity
  8
YODOROGO
100
AcDbLine
 10
11393.10162798446
 20
673.4060611609827
 30
0.0
 11
11481.60162798447
 21
673.4060611609827
 31
0.0
  0
LINE
  5
20CA5
330
20A03
100
AcDbEntity
  8
YODOROGO
100
AcDbLine
 10
11280.60162798447
 20
760.4060611609829
 30
0.0
 11
11258.10162798447
 21
760.4060611609829
 31
0.0
  0
LINE
  5
20CA6
330
20A03
100
AcDbEntity
  8
YODOROGO
100
AcDbLine
 10
11280.60162798447
 20
685.4060611609829
 30
0.0
 11
11280.60162798447
 21
760.4060611609829
 31
0.0
  0
LINE
  5
20CA7
330
20A03
100
AcDbEntity
  8
YODOROGO
100
AcDbLine
 10
11258.10162798447
 20
685.4060611609829
 30
0.0
 11
11280.60162798447
 21
685.4060611609829
 31
0.0
  0
LINE
  5
20CA8
330
20A03
100
AcDbEntity
  8
YODOROGO
100
AcDbLine
 10
11258.10162798447
 20
760.4060611609829
 30
0.0
 11
11258.10162798447
 21
685.4060611609829
 31
0.0
  0
LINE
  5
20CA9
330
20A03
100
AcDbEntity
  8
YODOROGO
100
AcDbLine
 10
11310.60162798447
 20
760.4060611609829
 30
0.0
 11
11331.60162798447
 21
760.4060611609829
 31
0.0
  0
LINE
  5
20CAA
330
20A03
100
AcDbEntity
  8
YODOROGO
100
AcDbLine
 10
11310.60162798447
 20
679.4060611609832
 30
0.0
 11
11310.60162798447
 21
760.4060611609829
 31
0.0
  0
ARC
  5
20CAB
330
20A03
100
AcDbEntity
  8
YODOROGO
100
AcDbCircle
 10
11295.60162798447
 20
679.4060611609832
 30
0.0
 40
15.0
100
AcDbArc
 50
270.0
 51
0.0
  0
LINE
  5
20CAC
330
20A03
100
AcDbEntity
  8
YODOROGO
100
AcDbLine
 10
11258.10162798447
 20
664.4060611609833
 30
0.0
 11
11295.60162798447
 21
664.4060611609833
 31
0.0
  0
LINE
  5
20CAD
330
20A03
100
AcDbEntity
  8
YODOROGO
100
AcDbLine
 10
11258.10162798447
 20
640.4060611609828
 30
0.0
 11
11258.10162798447
 21
664.4060611609833
 31
0.0
  0
LINE
  5
20CAE
330
20A03
100
AcDbEntity
  8
YODOROGO
100
AcDbLine
 10
11301.60162798446
 20
640.4060611609828
 30
0.0
 11
11258.10162798447
 21
640.4060611609828
 31
0.0
  0
ARC
  5
20CAF
330
20A03
100
AcDbEntity
  8
YODOROGO
100
AcDbCircle
 10
11301.60162798446
 20
670.4060611609828
 30
0.0
 40
30.0
100
AcDbArc
 50
270.0
 51
0.0
  0
LINE
  5
20CB0
330
20A03
100
AcDbEntity
  8
YODOROGO
100
AcDbLine
 10
11331.60162798447
 20
760.4060611609829
 30
0.0
 11
11331.60162798447
 21
670.4060611609828
 31
0.0
  0
LINE
  5
20CB1
330
20A03
100
AcDbEntity
  8
YODOROGO
100
AcDbLine
 10
11241.60162798446
 20
730.4060611609828
 30
0.0
 11
11241.60162798446
 21
748.4060611609828
 31
0.0
1001
AUTOCAD_POSTSCRIPT_FIGURE
1002
{
1000
PSFILL
1000
Grayscale
1000
Grayscale
1070
    25
1002
}
  0
LINE
  5
20CB2
330
20A03
100
AcDbEntity
  8
YODOROGO
100
AcDbLine
 10
11241.60162798446
 20
697.406061160983
 30
0.0
 11
11241.60162798446
 21
715.4060611609828
 31
0.0
1001
AUTOCAD_POSTSCRIPT_FIGURE
1002
{
1000
PSFILL
1000
Grayscale
1000
Grayscale
1070
    25
1002
}
  0
LINE
  5
20CB3
330
20A03
100
AcDbEntity
  8
YODOROGO
100
AcDbLine
 10
11241.60162798446
 20
640.4060611609828
 30
0.0
 11
11241.60162798446
 21
682.4060611609829
 31
0.0
1001
AUTOCAD_POSTSCRIPT_FIGURE
1002
{
1000
PSFILL
1000
Grayscale
1000
Grayscale
1070
    25
1002
}
  0
LINE
  5
20CB4
330
20A03
100
AcDbEntity
  8
YODOROGO
100
AcDbLine
 10
11393.10162798446
 20
715.4060611609828
 30
0.0
 11
11436.60162798447
 21
760.4060611609829
 31
0.0
  0
LINE
  5
20CB5
330
20A03
100
AcDbEntity
  8
YODOROGO
100
AcDbLine
 10
11393.10162798446
 20
682.4060611609829
 30
0.0
 11
11393.10162798446
 21
715.4060611609828
 31
0.0
  0
LINE
  5
20CB6
330
20A03
100
AcDbEntity
  8
YODOROGO
100
AcDbLine
 10
11436.60162798447
 20
727.4060611609828
 30
0.0
 11
11393.10162798446
 21
682.4060611609829
 31
0.0
  0
LINE
  5
20CB7
330
20A03
100
AcDbEntity
  8
YODOROGO
100
AcDbLine
 10
11424.60162798446
 20
629.9060611609831
 30
0.0
 11
11424.60162798446
 21
650.9060611609827
 31
0.0
  0
LINE
  5
20CB8
330
20A03
100
AcDbEntity
  8
YODOROGO
100
AcDbLine
 10
11393.10162798446
 20
629.9060611609831
 30
0.0
 11
11424.60162798446
 21
629.9060611609831
 31
0.0
  0
LINE
  5
20CB9
330
20A03
100
AcDbEntity
  8
YODOROGO
100
AcDbLine
 10
11448.60162798446
 20
650.9060611609827
 30
0.0
 11
11448.60162798446
 21
629.9060611609831
 31
0.0
  0
LINE
  5
20CBA
330
20A03
100
AcDbEntity
  8
YODOROGO
100
AcDbLine
 10
11393.10162798446
 20
650.9060611609827
 30
0.0
 11
11393.10162798446
 21
673.4060611609827
 31
0.0
  0
LINE
  5
20CBB
330
20A03
100
AcDbEntity
  8
YODOROGO
100
AcDbLine
 10
11424.60162798446
 20
650.9060611609827
 30
0.0
 11
11393.10162798446
 21
650.9060611609827
 31
0.0
  0
LINE
  5
20CBC
330
20A03
100
AcDbEntity
  8
YODOROGO
100
AcDbLine
 10
11492.10162798447
 20
760.4060611609829
 30
0.0
 11
11615.10162798446
 21
760.4060611609829
 31
0.0
  0
LINE
  5
20CBD
330
20A03
100
AcDbEntity
  8
YODOROGO
100
AcDbLine
 10
11597.10162798446
 20
736.4060611609825
 30
0.0
 11
11511.60162798447
 21
736.4060611609825
 31
0.0
  0
LINE
  5
20CBE
330
20A03
100
AcDbEntity
  8
YODOROGO
100
AcDbLine
 10
11577.60162798447
 20
682.4060611609829
 30
0.0
 11
11587.35162798447
 21
682.4060611609829
 31
0.0
  0
LINE
  5
20CBF
330
20A03
100
AcDbEntity
  8
YODOROGO
100
AcDbLine
 10
11587.35162798447
 20
727.4060611609828
 30
0.0
 11
11577.60162798447
 21
682.4060611609829
 31
0.0
  0
LINE
  5
20CC0
330
20A03
100
AcDbEntity
  8
YODOROGO
100
AcDbLine
 10
11569.35162798446
 20
727.4060611609828
 30
0.0
 11
11587.35162798447
 21
727.4060611609828
 31
0.0
  0
LINE
  5
20CC1
330
20A03
100
AcDbEntity
  8
YODOROGO
100
AcDbLine
 10
11559.60162798447
 20
682.4060611609829
 30
0.0
 11
11569.35162798446
 21
727.4060611609828
 31
0.0
  0
LINE
  5
20CC2
330
20A03
100
AcDbEntity
  8
YODOROGO
100
AcDbLine
 10
11549.10162798447
 20
682.4060611609829
 30
0.0
 11
11559.60162798447
 21
682.4060611609829
 31
0.0
  0
LINE
  5
20CC3
330
20A03
100
AcDbEntity
  8
YODOROGO
100
AcDbLine
 10
11539.35162798447
 20
727.4060611609828
 30
0.0
 11
11549.10162798447
 21
682.4060611609829
 31
0.0
  0
LINE
  5
20CC4
330
20A03
100
AcDbEntity
  8
YODOROGO
100
AcDbLine
 10
11521.35162798447
 20
727.4060611609828
 30
0.0
 11
11539.35162798447
 21
727.4060611609828
 31
0.0
  0
LINE
  5
20CC5
330
20A03
100
AcDbEntity
  8
YODOROGO
100
AcDbLine
 10
11531.10162798447
 20
682.4060611609829
 30
0.0
 11
11521.35162798447
 21
727.4060611609828
 31
0.0
  0
LINE
  5
20CC6
330
20A03
100
AcDbEntity
  8
YODOROGO
100
AcDbLine
 10
11521.35162798447
 20
682.4060611609829
 30
0.0
 11
11531.10162798447
 21
682.4060611609829
 31
0.0
  0
LINE
  5
20CC7
330
20A03
100
AcDbEntity
  8
YODOROGO
100
AcDbLine
 10
11521.35162798447
 20
658.4060611609827
 30
0.0
 11
11521.35162798447
 21
682.4060611609829
 31
0.0
  0
LINE
  5
20CC8
330
20A03
100
AcDbEntity
  8
YODOROGO
100
AcDbLine
 10
11587.35162798447
 20
658.4060611609827
 30
0.0
 11
11521.35162798447
 21
658.4060611609827
 31
0.0
  0
LINE
  5
20CC9
330
20A03
100
AcDbEntity
  8
YODOROGO
100
AcDbLine
 10
11587.35162798447
 20
682.4060611609829
 30
0.0
 11
11587.35162798447
 21
658.4060611609827
 31
0.0
  0
LINE
  5
20CCA
330
20A03
100
AcDbEntity
  8
YODOROGO
100
AcDbLine
 10
11481.60162798447
 20
730.4060611609828
 30
0.0
 11
11481.60162798447
 21
697.406061160983
 31
0.0
  0
LINE
  5
20CCB
330
20A03
100
AcDbEntity
  8
YODOROGO
100
AcDbLine
 10
11546.85162798447
 20
658.4060611609827
 30
0.0
 11
11561.85162798446
 21
658.4060611609827
 31
0.0
  0
LINE
  5
20CCC
330
20A03
100
AcDbEntity
  8
YODOROGO
100
AcDbLine
 10
11521.35162798447
 20
634.4060611609833
 30
0.0
 11
11536.35162798447
 21
634.4060611609833
 31
0.0
  0
LINE
  5
20CCD
330
20A03
100
AcDbEntity
  8
YODOROGO
100
AcDbLine
 10
11572.35162798446
 20
634.4060611609833
 30
0.0
 11
11587.35162798447
 21
634.4060611609833
 31
0.0
  0
LINE
  5
20CCE
330
20A03
100
AcDbEntity
  8
YODOROGO
100
AcDbLine
 10
11481.60162798447
 20
673.4060611609827
 30
0.0
 11
11481.60162798447
 21
650.9060611609827
 31
0.0
  0
LINE
  5
20CCF
330
20A03
100
AcDbEntity
  8
YODOROGO
100
AcDbLine
 10
11687.10162798447
 20
760.4060611609829
 30
0.0
 11
11687.10162798447
 21
736.4060611609825
 31
0.0
  0
LINE
  5
20CD0
330
20A03
100
AcDbEntity
  8
YODOROGO
100
AcDbLine
 10
11825.10162798447
 20
598.4060611609827
 30
0.0
 11
11825.10162798446
 21
679.4060611609832
 31
0.0
  0
LINE
  5
20CD1
330
20A03
100
AcDbEntity
  8
YODOROGO
100
AcDbLine
 10
11798.10162798446
 20
745.4060611609828
 30
0.0
 11
11798.10162798446
 21
613.4060611609827
 31
0.0
  0
LINE
  5
20CD2
330
20A03
100
AcDbEntity
  8
YODOROGO
100
AcDbLine
 10
11870.10162798447
 20
535.4060611609829
 30
0.0
 11
11870.10162798446
 21
679.4060611609832
 31
0.0
  0
LINE
  5
20CD3
330
20A03
100
AcDbEntity
  8
YODOROGO
100
AcDbLine
 10
11846.10162798447
 20
679.4060611609832
 30
0.0
 11
11846.10162798447
 21
535.4060611609829
 31
0.0
  0
LINE
  5
20CD4
330
20A03
100
AcDbEntity
  8
YODOROGO
100
AcDbLine
 10
11714.10162798447
 20
598.4060611609827
 30
0.0
 11
11714.10162798447
 21
640.4060611609828
 31
0.0
  0
ARC
  5
20CD5
330
20A03
100
AcDbEntity
  8
YODOROGO
100
AcDbCircle
 10
11757.71807441852
 20
602.921381733209
 30
0.0
 40
67.53466821599572
100
AcDbArc
 50
268.6284910216979
 51
356.1663845733032
  0
LINE
  5
20CD6
330
20A03
100
AcDbEntity
  8
YODOROGO
100
AcDbLine
 10
11756.10162798446
 20
572.9060611609829
 30
0.0
 11
11756.10162798446
 21
535.4060611609829
 31
0.0
  0
ARC
  5
20CD7
330
20A03
100
AcDbEntity
  8
YODOROGO
100
AcDbCircle
 10
11756.81927839671
 20
614.1896088816206
 30
0.0
 40
41.28978486885457
100
AcDbArc
 50
269.0041020930593
 51
358.9126445549248
  0
LINE
  5
20CD8
330
20A03
100
AcDbEntity
  8
YODOROGO
100
AcDbLine
 10
11846.10162798447
 20
535.4060611609829
 30
0.0
 11
11870.10162798447
 21
535.4060611609829
 31
0.0
  0
LINE
  5
20CD9
330
20A03
100
AcDbEntity
  8
YODOROGO
100
AcDbLine
 10
11825.10162798446
 20
679.4060611609832
 30
0.0
 11
11846.10162798447
 21
679.4060611609832
 31
0.0
  0
LINE
  5
20CDA
330
20A03
100
AcDbEntity
  8
YODOROGO
100
AcDbLine
 10
11858.10162798446
 20
745.4060611609828
 30
0.0
 11
11798.10162798446
 21
745.4060611609828
 31
0.0
  0
LINE
  5
20CDB
330
20A03
100
AcDbEntity
  8
YODOROGO
100
AcDbLine
 10
11825.10162798446
 20
718.4060611609829
 30
0.0
 11
11873.10162798447
 21
718.4060611609829
 31
0.0
  0
LINE
  5
20CDC
330
20A03
100
AcDbEntity
  8
YODOROGO
100
AcDbLine
 10
11888.10162798447
 20
703.4060611609828
 30
0.0
 11
11825.10162798446
 21
703.4060611609828
 31
0.0
  0
LINE
  5
20CDD
330
20A03
100
AcDbEntity
  8
YODOROGO
100
AcDbLine
 10
11714.10162798447
 20
667.4060611609831
 30
0.0
 11
11756.10162798446
 21
667.4060611609831
 31
0.0
  0
LINE
  5
20CDE
330
20A03
100
AcDbEntity
  8
YODOROGO
100
AcDbLine
 10
11714.10162798447
 20
688.4060611609828
 30
0.0
 11
11714.10162798447
 21
667.4060611609831
 31
0.0
  0
LINE
  5
20CDF
330
20A03
100
AcDbEntity
  8
YODOROGO
100
AcDbLine
 10
11756.10162798446
 20
688.4060611609828
 30
0.0
 11
11714.10162798447
 21
688.4060611609828
 31
0.0
  0
LINE
  5
20CE0
330
20A03
100
AcDbEntity
  8
YODOROGO
100
AcDbLine
 10
11756.10162798446
 20
667.4060611609831
 30
0.0
 11
11756.10162798446
 21
688.4060611609828
 31
0.0
  0
LINE
  5
20CE1
330
20A03
100
AcDbEntity
  8
YODOROGO
100
AcDbLine
 10
11825.10162798446
 20
703.4060611609828
 30
0.0
 11
11825.10162798446
 21
718.4060611609829
 31
0.0
  0
LINE
  5
20CE2
330
20A03
100
AcDbEntity
  8
YODOROGO
100
AcDbLine
 10
11780.10162798446
 20
640.4060611609828
 30
0.0
 11
11780.10162798446
 21
715.4060611609828
 31
0.0
  0
LINE
  5
20CE3
330
20A03
100
AcDbEntity
  8
YODOROGO
100
AcDbLine
 10
11714.10162798447
 20
640.4060611609828
 30
0.0
 11
11780.10162798446
 21
640.4060611609828
 31
0.0
  0
LINE
  5
20CE4
330
20A03
100
AcDbEntity
  8
YODOROGO
100
AcDbLine
 10
11780.10162798446
 20
736.4060611609825
 30
0.0
 11
11780.10162798446
 21
760.4060611609829
 31
0.0
  0
ARC
  5
20CE5
330
20A03
100
AcDbEntity
  8
YODOROGO
100
AcDbCircle
 10
11858.10162798446
 20
751.4060611609817
 30
0.0
 40
5.999999999997952
100
AcDbArc
 50
270.0
 51
0.0000000000081422
  0
LINE
  5
20CE6
330
20A03
100
AcDbEntity
  8
YODOROGO
100
AcDbLine
 10
11864.10162798447
 20
760.4060611609829
 30
0.0
 11
11864.10162798447
 21
751.4060611609825
 31
0.0
  0
LINE
  5
20CE7
330
20A03
100
AcDbEntity
  8
YODOROGO
100
AcDbLine
 10
11888.10162798447
 20
760.4060611609829
 30
0.0
 11
11864.10162798447
 21
760.4060611609829
 31
0.0
  0
LINE
  5
20CE8
330
20A03
100
AcDbEntity
  8
YODOROGO
100
AcDbLine
 10
11888.10162798447
 20
733.4060611609828
 30
0.0
 11
11888.10162798447
 21
760.4060611609829
 31
0.0
  0
ARC
  5
20CE9
330
20A03
100
AcDbEntity
  8
YODOROGO
100
AcDbCircle
 10
11873.10162798447
 20
733.4060611609828
 30
0.0
 40
15.0
100
AcDbArc
 50
270.0
 51
0.0
  0
LINE
  5
20CEA
330
20A03
100
AcDbEntity
  8
YODOROGO
100
AcDbLine
 10
11888.10162798447
 20
679.4060611609832
 30
0.0
 11
11888.10162798447
 21
703.4060611609828
 31
0.0
  0
LINE
  5
20CEB
330
20A03
100
AcDbEntity
  8
YODOROGO
100
AcDbLine
 10
11870.10162798446
 20
679.4060611609832
 30
0.0
 11
11888.10162798447
 21
679.4060611609832
 31
0.0
  0
LINE
  5
20CEC
330
20A03
100
AcDbEntity
  8
SUNPOU
100
AcDbLine
 10
3888.520564619387
 20
1542.488156193162
 30
0.0
 11
5266.02056461939
 21
1542.488156193162
 31
0.0
  0
LINE
  5
20CED
330
20A03
100
AcDbEntity
  8
SUNPOU
100
AcDbLine
 10
3888.520564619389
 20
1392.488156193164
 30
0.0
 11
5266.02056461939
 21
1392.488156193164
 31
0.0
  0
LINE
  5
20CEE
330
20A03
100
AcDbEntity
  8
SUNPOU
100
AcDbLine
 10
5221.02056461939
 20
1527.488156193162
 30
0.0
 11
5221.02056461939
 21
1407.488156193164
 31
0.0
  0
LINE
  5
20CEF
330
20A03
100
AcDbEntity
  8
SUNPOU
100
AcDbLine
 10
5221.02056461939
 20
1392.488156193164
 30
0.0
 11
5221.02056461939
 21
1141.773870478878
 31
0.0
  0
LINE
  5
20CF0
330
20A03
100
AcDbEntity
  8
SUNPOU
100
AcDbLine
 10
5051.02056461939
 20
2292.488156193163
 30
0.0
 11
5266.020564619391
 21
2292.488156193162
 31
0.0
  0
LINE
  5
20CF1
330
20A03
100
AcDbEntity
  8
SUNPOU
100
AcDbLine
 10
3888.520564619387
 20
1542.488156193162
 30
0.0
 11
5266.02056461939
 21
1542.488156193162
 31
0.0
  0
LINE
  5
20CF2
330
20A03
100
AcDbEntity
  8
SUNPOU
100
AcDbLine
 10
5221.020564619391
 20
2277.488156193162
 30
0.0
 11
5221.02056461939
 21
1557.488156193163
 31
0.0
  0
LINE
  5
20CF3
330
20A03
100
AcDbEntity
  8
SUNPOU
100
AcDbLine
 10
2733.520564619391
 20
1362.488156193162
 30
0.0
 11
2733.520564619391
 21
1017.488156193161
 31
0.0
  0
LINE
  5
20CF4
330
20A03
100
AcDbEntity
  8
SUNPOU
100
AcDbLine
 10
3708.520564619394
 20
1362.488156193164
 30
0.0
 11
3708.520564619394
 21
1017.488156193161
 31
0.0
  0
LINE
  5
20CF5
330
20A03
100
AcDbEntity
  8
SUNPOU
100
AcDbLine
 10
2748.520564619389
 20
1062.488156193162
 30
0.0
 11
3693.520564619394
 21
1062.488156193162
 31
0.0
  0
LINE
  5
20CF6
330
20A03
100
AcDbEntity
  8
SUNPOU
100
AcDbLine
 10
2583.520564619392
 20
1362.488156193162
 30
0.0
 11
2583.520564619392
 21
807.4881561931622
 31
0.0
  0
LINE
  5
20CF7
330
20A03
100
AcDbEntity
  8
SUNPOU
100
AcDbLine
 10
3858.520564619388
 20
1362.488156193164
 30
0.0
 11
3858.520564619388
 21
807.4881561931622
 31
0.0
  0
LINE
  5
20CF8
330
20A03
100
AcDbEntity
  8
SUNPOU
100
AcDbLine
 10
2598.520564619392
 20
852.4881561931623
 30
0.0
 11
3843.520564619389
 21
852.4881561931623
 31
0.0
  0
ARC
  5
20CF9
330
20A03
100
AcDbEntity
  8
SUNPOU
100
AcDbCircle
 10
10747.52772773476
 20
7616.083850786248
 30
0.0
 40
5.625000000000908
100
AcDbArc
 50
270.0
 51
90.0
  0
ARC
  5
20CFA
330
20A03
100
AcDbEntity
  8
SUNPOU
100
AcDbCircle
 10
10747.52772773476
 20
7616.083850786248
 30
0.0
 40
5.625000000001817
100
AcDbArc
 50
90.0
 51
270.0
  0
ARC
  5
20CFB
330
20A03
100
AcDbEntity
  8
SUNPOU
100
AcDbCircle
 10
10537.52772773475
 20
7616.083850786248
 30
0.0
 40
5.625000000000908
100
AcDbArc
 50
270.0
 51
90.0
  0
ARC
  5
20CFC
330
20A03
100
AcDbEntity
  8
SUNPOU
100
AcDbCircle
 10
10537.52772773475
 20
7616.083850786248
 30
0.0
 40
5.625000000001817
100
AcDbArc
 50
90.0
 51
270.0
  0
ARC
  5
20CFD
330
20A03
100
AcDbEntity
  8
SUNPOU
100
AcDbCircle
 10
10327.52772773475
 20
6741.08385078625
 30
0.0
 40
5.625
100
AcDbArc
 50
270.0
 51
90.0
  0
ARC
  5
20CFE
330
20A03
100
AcDbEntity
  8
SUNPOU
100
AcDbCircle
 10
10327.52772773475
 20
6741.08385078625
 30
0.0
 40
5.625
100
AcDbArc
 50
90.0
 51
270.0
  0
ARC
  5
20CFF
330
20A03
100
AcDbEntity
  8
SUNPOU
100
AcDbCircle
 10
10537.52772773475
 20
6416.08385078625
 30
0.0
 40
5.625
100
AcDbArc
 50
90.0
 51
270.0
  0
ARC
  5
20D00
330
20A03
100
AcDbEntity
  8
SUNPOU
100
AcDbCircle
 10
10537.52772773475
 20
6416.08385078625
 30
0.0
 40
5.625
100
AcDbArc
 50
270.0
 51
90.0
  0
ARC
  5
20D01
330
20A03
100
AcDbEntity
  8
SUNPOU
100
AcDbCircle
 10
10537.52772773475
 20
6416.08385078625
 30
0.0
 40
5.625
100
AcDbArc
 50
270.0
 51
90.0
  0
ARC
  5
20D02
330
20A03
100
AcDbEntity
  8
SUNPOU
100
AcDbCircle
 10
10537.52772773475
 20
6416.08385078625
 30
0.0
 40
5.625
100
AcDbArc
 50
90.0
 51
270.0
  0
ARC
  5
20D03
330
20A03
100
AcDbEntity
  8
SUNPOU
100
AcDbCircle
 10
10327.52772773475
 20
6091.08385078625
 30
0.0
 40
5.624999999999089
100
AcDbArc
 50
90.0
 51
270.0
  0
ARC
  5
20D04
330
20A03
100
AcDbEntity
  8
SUNPOU
100
AcDbCircle
 10
10327.52772773475
 20
6091.08385078625
 30
0.0
 40
5.625
100
AcDbArc
 50
270.0
 51
90.0
  0
ARC
  5
20D05
330
20A03
100
AcDbEntity
  8
SUNPOU
100
AcDbCircle
 10
10747.52772773476
 20
5016.08385078625
 30
0.0
 40
5.625
100
AcDbArc
 50
90.0
 51
270.0
  0
ARC
  5
20D06
330
20A03
100
AcDbEntity
  8
SUNPOU
100
AcDbCircle
 10
10747.52772773476
 20
5016.08385078625
 30
0.0
 40
5.625
100
AcDbArc
 50
270.0
 51
90.0
  0
ARC
  5
20D07
330
20A03
100
AcDbEntity
  8
SUNPOU
100
AcDbCircle
 10
10537.52772773475
 20
5016.08385078625
 30
0.0
 40
5.625
100
AcDbArc
 50
90.0
 51
270.0
  0
ARC
  5
20D08
330
20A03
100
AcDbEntity
  8
SUNPOU
100
AcDbCircle
 10
10537.52772773475
 20
5016.08385078625
 30
0.0
 40
5.625
100
AcDbArc
 50
270.0
 51
90.0
  0
ARC
  5
20D09
330
20A03
100
AcDbEntity
  8
SUNPOU
100
AcDbCircle
 10
10052.52772773475
 20
5816.08385078625
 30
0.0
 40
5.625
100
AcDbArc
 50
180.0
 51
0.0
  0
ARC
  5
20D0A
330
20A03
100
AcDbEntity
  8
SUNPOU
100
AcDbCircle
 10
10052.52772773475
 20
5816.08385078625
 30
0.0
 40
5.625
100
AcDbArc
 50
0.0
 51
180.0
  0
ARC
  5
20D0B
330
20A03
100
AcDbEntity
  8
SUNPOU
100
AcDbCircle
 10
9402.527727734771
 20
5816.08385078625
 30
0.0
 40
5.625
100
AcDbArc
 50
0.0
 51
180.0
  0
ARC
  5
20D0C
330
20A03
100
AcDbEntity
  8
SUNPOU
100
AcDbCircle
 10
9402.527727734771
 20
5816.08385078625
 30
0.0
 40
5.625
100
AcDbArc
 50
180.0
 51
0.0
  0
ARC
  5
20D0D
330
20A03
100
AcDbEntity
  8
SUNPOU
100
AcDbCircle
 10
10052.52772773475
 20
4616.08385078625
 30
0.0
 40
5.624999999996362
100
AcDbArc
 50
180.0
 51
0.0
  0
ARC
  5
20D0E
330
20A03
100
AcDbEntity
  8
SUNPOU
100
AcDbCircle
 10
10052.52772773475
 20
4616.08385078625
 30
0.0
 40
5.624999999996362
100
AcDbArc
 50
0.0
 51
180.0
  0
ARC
  5
20D0F
330
20A03
100
AcDbEntity
  8
SUNPOU
100
AcDbCircle
 10
9727.527727734766
 20
4616.08385078625
 30
0.0
 40
5.625
100
AcDbArc
 50
180.0
 51
0.0
  0
ARC
  5
20D10
330
20A03
100
AcDbEntity
  8
SUNPOU
100
AcDbCircle
 10
9727.527727734766
 20
4616.08385078625
 30
0.0
 40
5.625
100
AcDbArc
 50
0.0
 51
180.0
  0
ARC
  5
20D11
330
20A03
100
AcDbEntity
  8
SUNPOU
100
AcDbCircle
 10
9727.527727734766
 20
4616.08385078625
 30
0.0
 40
5.625
100
AcDbArc
 50
0.0
 51
180.0
  0
ARC
  5
20D12
330
20A03
100
AcDbEntity
  8
SUNPOU
100
AcDbCircle
 10
9727.527727734766
 20
4616.08385078625
 30
0.0
 40
5.625
100
AcDbArc
 50
180.0
 51
0.0
  0
ARC
  5
20D13
330
20A03
100
AcDbEntity
  8
SUNPOU
100
AcDbCircle
 10
7327.527727734763
 20
4616.08385078625
 30
0.0
 40
5.625
100
AcDbArc
 50
180.0
 51
0.0
  0
ARC
  5
20D14
330
20A03
100
AcDbEntity
  8
SUNPOU
100
AcDbCircle
 10
7327.527727734763
 20
4616.08385078625
 30
0.0
 40
5.625
100
AcDbArc
 50
0.0
 51
180.0
  0
ARC
  5
20D15
330
20A03
100
AcDbEntity
  8
SUNPOU
100
AcDbCircle
 10
7327.527727734763
 20
4616.08385078625
 30
0.0
 40
5.625
100
AcDbArc
 50
0.0
 51
180.0
  0
ARC
  5
20D16
330
20A03
100
AcDbEntity
  8
SUNPOU
100
AcDbCircle
 10
7327.527727734763
 20
4616.08385078625
 30
0.0
 40
5.625
100
AcDbArc
 50
180.0
 51
0.0
  0
ARC
  5
20D17
330
20A03
100
AcDbEntity
  8
SUNPOU
100
AcDbCircle
 10
10052.52772773475
 20
4406.08385078625
 30
0.0
 40
5.624999999996362
100
AcDbArc
 50
180.0
 51
0.0
  0
ARC
  5
20D18
330
20A03
100
AcDbEntity
  8
SUNPOU
100
AcDbCircle
 10
10052.52772773475
 20
4406.08385078625
 30
0.0
 40
5.624999999996362
100
AcDbArc
 50
0.0
 51
180.0
  0
ARC
  5
20D19
330
20A03
100
AcDbEntity
  8
SUNPOU
100
AcDbCircle
 10
4927.527727734765
 20
4616.08385078625
 30
0.0
 40
5.625000000001817
100
AcDbArc
 50
180.0
 51
0.0
  0
ARC
  5
20D1A
330
20A03
100
AcDbEntity
  8
SUNPOU
100
AcDbCircle
 10
4927.527727734765
 20
4616.08385078625
 30
0.0
 40
5.625000000001817
100
AcDbArc
 50
0.0
 51
180.0
  0
ARC
  5
20D1B
330
20A03
100
AcDbEntity
  8
SUNPOU
100
AcDbCircle
 10
4927.527727734765
 20
4616.08385078625
 30
0.0
 40
5.625000000001817
100
AcDbArc
 50
0.0
 51
180.0
  0
ARC
  5
20D1C
330
20A03
100
AcDbEntity
  8
SUNPOU
100
AcDbCircle
 10
4927.527727734765
 20
4616.08385078625
 30
0.0
 40
5.625000000001817
100
AcDbArc
 50
180.0
 51
0.0
  0
ARC
  5
20D1D
330
20A03
100
AcDbEntity
  8
SUNPOU
100
AcDbCircle
 10
2527.527727734764
 20
4616.08385078625
 30
0.0
 40
5.625
100
AcDbArc
 50
180.0
 51
0.0
  0
ARC
  5
20D1E
330
20A03
100
AcDbEntity
  8
SUNPOU
100
AcDbCircle
 10
2527.527727734764
 20
4616.08385078625
 30
0.0
 40
5.625
100
AcDbArc
 50
0.0
 51
180.0
  0
ARC
  5
20D1F
330
20A03
100
AcDbEntity
  8
SUNPOU
100
AcDbCircle
 10
2527.527727734764
 20
4616.08385078625
 30
0.0
 40
5.625
100
AcDbArc
 50
0.0
 51
180.0
  0
ARC
  5
20D20
330
20A03
100
AcDbEntity
  8
SUNPOU
100
AcDbCircle
 10
2527.527727734764
 20
4616.08385078625
 30
0.0
 40
5.625
100
AcDbArc
 50
180.0
 51
0.0
  0
ARC
  5
20D21
330
20A03
100
AcDbEntity
  8
SUNPOU
100
AcDbCircle
 10
2202.527727734763
 20
4616.08385078625
 30
0.0
 40
5.625
100
AcDbArc
 50
0.0
 51
180.0
  0
ARC
  5
20D22
330
20A03
100
AcDbEntity
  8
SUNPOU
100
AcDbCircle
 10
2202.527727734763
 20
4616.08385078625
 30
0.0
 40
5.625
100
AcDbArc
 50
180.0
 51
0.0
  0
ARC
  5
20D23
330
20A03
100
AcDbEntity
  8
SUNPOU
100
AcDbCircle
 10
2202.527727734763
 20
4406.08385078625
 30
0.0
 40
5.625
100
AcDbArc
 50
0.0
 51
180.0
  0
ARC
  5
20D24
330
20A03
100
AcDbEntity
  8
SUNPOU
100
AcDbCircle
 10
2202.527727734763
 20
4406.08385078625
 30
0.0
 40
5.625
100
AcDbArc
 50
180.0
 51
0.0
  0
TEXT
  5
20D25
330
20A03
100
AcDbEntity
  8
SUNPOU
100
AcDbText
 10
5176.02056461939
 20
1169.631013336022
 30
0.0
 40
90.0
  1
100
 50
90.0
 41
0.6666666666666666
  7
00
100
AcDbText
  0
LINE
  5
20D26
330
20A03
100
AcDbEntity
  8
SUNPOU
100
AcDbLine
 10
5221.02056461939
 20
1403.738156193164
 30
0.0
 11
5221.02056461939
 21
1414.988156193164
 31
0.0
  0
LINE
  5
20D27
330
20A03
100
AcDbEntity
  8
SUNPOU
100
AcDbLine
 10
5221.02056461939
 20
1531.238156193162
 30
0.0
 11
5221.02056461939
 21
1519.988156193162
 31
0.0
  0
TEXT
  5
20D28
330
20A03
100
AcDbEntity
  8
SUNPOU
100
AcDbText
 10
5176.02056461939
 20
1831.773870478877
 30
0.0
 40
90.0
  1
500
 50
90.0
 41
0.6666666666666666
  7
00
100
AcDbText
  0
LINE
  5
20D29
330
20A03
100
AcDbEntity
  8
SUNPOU
100
AcDbLine
 10
5221.02056461939
 20
1553.738156193163
 30
0.0
 11
5221.02056461939
 21
1564.988156193162
 31
0.0
  0
LINE
  5
20D2A
330
20A03
100
AcDbEntity
  8
SUNPOU
100
AcDbLine
 10
5221.020564619391
 20
2281.238156193162
 30
0.0
 11
5221.020564619391
 21
2269.988156193162
 31
0.0
  0
TEXT
  5
20D2B
330
20A03
100
AcDbEntity
  8
SUNPOU
100
AcDbText
 10
3133.877707476536
 20
1107.488156193162
 30
0.0
 40
90.0
  1
650
 41
0.6666666666666666
  7
00
100
AcDbText
  0
LINE
  5
20D2C
330
20A03
100
AcDbEntity
  8
SUNPOU
100
AcDbLine
 10
3697.270564619394
 20
1062.488156193162
 30
0.0
 11
3686.020564619394
 21
1062.488156193162
 31
0.0
  0
LINE
  5
20D2D
330
20A03
100
AcDbEntity
  8
SUNPOU
100
AcDbLine
 10
2744.770564619389
 20
1062.488156193162
 30
0.0
 11
2756.02056461939
 21
1062.488156193162
 31
0.0
  0
TEXT
  5
20D2E
330
20A03
100
AcDbEntity
  8
SUNPOU
100
AcDbText
 10
3135.306278905103
 20
897.4881561931622
 30
0.0
 40
90.0
  1
850
 41
0.6666666666666666
  7
00
100
AcDbText
  0
LINE
  5
20D2F
330
20A03
100
AcDbEntity
  8
SUNPOU
100
AcDbLine
 10
3847.270564619389
 20
852.4881561931623
 30
0.0
 11
3836.020564619389
 21
852.4881561931623
 31
0.0
  0
LINE
  5
20D30
330
20A03
100
AcDbEntity
  8
SUNPOU
100
AcDbLine
 10
2594.770564619392
 20
852.4881561931623
 30
0.0
 11
2606.020564619392
 21
852.4881561931623
 31
0.0
  0
ARC
  5
20D31
330
20A03
100
AcDbEntity
  8
SUNPOU
100
AcDbCircle
 10
5221.02056461939
 20
1392.488156193164
 30
0.0
 40
5.625
100
AcDbArc
 50
90.0
 51
270.0
  0
ARC
  5
20D32
330
20A03
100
AcDbEntity
  8
SUNPOU
100
AcDbCircle
 10
5221.02056461939
 20
1392.488156193164
 30
0.0
 40
5.625
100
AcDbArc
 50
270.0
 51
90.0
  0
ARC
  5
20D33
330
20A03
100
AcDbEntity
  8
SUNPOU
100
AcDbCircle
 10
5221.02056461939
 20
1542.488156193162
 30
0.0
 40
5.625
100
AcDbArc
 50
270.0
 51
90.0
  0
ARC
  5
20D34
330
20A03
100
AcDbEntity
  8
SUNPOU
100
AcDbCircle
 10
5221.02056461939
 20
1542.488156193162
 30
0.0
 40
5.625
100
AcDbArc
 50
90.0
 51
270.0
  0
ARC
  5
20D35
330
20A03
100
AcDbEntity
  8
SUNPOU
100
AcDbCircle
 10
5221.02056461939
 20
1542.488156193162
 30
0.0
 40
5.625
100
AcDbArc
 50
90.0
 51
270.0
  0
ARC
  5
20D36
330
20A03
100
AcDbEntity
  8
SUNPOU
100
AcDbCircle
 10
5221.02056461939
 20
1542.488156193162
 30
0.0
 40
5.625
100
AcDbArc
 50
270.0
 51
90.0
  0
ARC
  5
20D37
330
20A03
100
AcDbEntity
  8
SUNPOU
100
AcDbCircle
 10
5221.020564619391
 20
2292.488156193162
 30
0.0
 40
5.625
100
AcDbArc
 50
270.0
 51
90.0
  0
ARC
  5
20D38
330
20A03
100
AcDbEntity
  8
SUNPOU
100
AcDbCircle
 10
5221.020564619391
 20
2292.488156193162
 30
0.0
 40
5.625
100
AcDbArc
 50
90.0
 51
270.0
  0
ARC
  5
20D39
330
20A03
100
AcDbEntity
  8
SUNPOU
100
AcDbCircle
 10
3708.520564619394
 20
1062.488156193162
 30
0.0
 40
5.625
100
AcDbArc
 50
180.0
 51
0.0
  0
ARC
  5
20D3A
330
20A03
100
AcDbEntity
  8
SUNPOU
100
AcDbCircle
 10
3708.520564619394
 20
1062.488156193162
 30
0.0
 40
5.625
100
AcDbArc
 50
0.0
 51
180.0
  0
ARC
  5
20D3B
330
20A03
100
AcDbEntity
  8
SUNPOU
100
AcDbCircle
 10
2733.520564619391
 20
1062.488156193162
 30
0.0
 40
5.625
100
AcDbArc
 50
0.0
 51
180.0
  0
ARC
  5
20D3C
330
20A03
100
AcDbEntity
  8
SUNPOU
100
AcDbCircle
 10
2733.520564619391
 20
1062.488156193162
 30
0.0
 40
5.625
100
AcDbArc
 50
180.0
 51
0.0
  0
ARC
  5
20D3D
330
20A03
100
AcDbEntity
  8
SUNPOU
100
AcDbCircle
 10
3858.520564619388
 20
852.4881561931623
 30
0.0
 40
5.625
100
AcDbArc
 50
180.0
 51
0.0
  0
ARC
  5
20D3E
330
20A03
100
AcDbEntity
  8
SUNPOU
100
AcDbCircle
 10
3858.520564619388
 20
852.4881561931623
 30
0.0
 40
5.625
100
AcDbArc
 50
0.0
 51
180.0
  0
ARC
  5
20D3F
330
20A03
100
AcDbEntity
  8
SUNPOU
100
AcDbCircle
 10
2583.520564619392
 20
852.4881561931623
 30
0.0
 40
5.625
100
AcDbArc
 50
0.0
 51
180.0
  0
ARC
  5
20D40
330
20A03
100
AcDbEntity
  8
SUNPOU
100
AcDbCircle
 10
2583.520564619392
 20
852.4881561931623
 30
0.0
 40
5.625
100
AcDbArc
 50
180.0
 51
0.0
  0
ARC
  5
20D41
330
20A03
100
AcDbEntity
  8
HIKIDASHI
100
AcDbCircle
 10
3221.02056461939
 20
1617.488156193163
 30
0.0
 40
4.5
100
AcDbArc
 50
180.0
 51
0.0
  0
ARC
  5
20D42
330
20A03
100
AcDbEntity
  8
HIKIDASHI
100
AcDbCircle
 10
3221.02056461939
 20
1617.488156193163
 30
0.0
 40
4.5
100
AcDbArc
 50
0.0
 51
180.0
  0
LINE
  5
20D43
330
20A03
100
AcDbEntity
  8
HATCH
100
AcDbLine
 10
2615.219294430175
 20
1392.488156193159
 30
0.0
 11
2701.821834808606
 21
1542.488156193136
 31
0.0
  0
LINE
  5
20D44
330
20A03
100
AcDbEntity
  8
HATCH
100
AcDbLine
 10
2641.821834808616
 20
1542.488156193133
 30
0.0
 11
2671.821834808611
 21
1490.52663196608
 31
0.0
  0
LINE
  5
20D45
330
20A03
100
AcDbEntity
  8
HATCH
100
AcDbLine
 10
2645.219294430171
 20
1444.449680420219
 30
0.0
 11
2675.219294430167
 21
1392.488156193159
 31
0.0
  0
LINE
  5
20D46
330
20A03
100
AcDbEntity
  8
HATCH
100
AcDbLine
 10
2802.719294430174
 20
1392.488156193159
 30
0.0
 11
2889.321834808605
 21
1542.488156193136
 31
0.0
  0
LINE
  5
20D47
330
20A03
100
AcDbEntity
  8
HATCH
100
AcDbLine
 10
2829.321834808613
 20
1542.488156193135
 30
0.0
 11
2859.32183480861
 21
1490.52663196608
 31
0.0
  0
LINE
  5
20D48
330
20A03
100
AcDbEntity
  8
HATCH
100
AcDbLine
 10
2832.71929443017
 20
1444.449680420219
 30
0.0
 11
2862.719294430164
 21
1392.488156193159
 31
0.0
  0
LINE
  5
20D49
330
20A03
100
AcDbEntity
  8
HATCH
100
AcDbLine
 10
3740.219294430178
 20
1392.488156193161
 30
0.0
 11
3826.821834808608
 21
1542.488156193139
 31
0.0
  0
LINE
  5
20D4A
330
20A03
100
AcDbEntity
  8
HATCH
100
AcDbLine
 10
3766.821834808617
 20
1542.488156193137
 30
0.0
 11
3796.821834808613
 21
1490.526631966083
 31
0.0
  0
LINE
  5
20D4B
330
20A03
100
AcDbEntity
  8
HATCH
100
AcDbLine
 10
3770.219294430175
 20
1444.449680420221
 30
0.0
 11
3800.219294430169
 21
1392.488156193161
 31
0.0
  0
LINE
  5
20D4C
330
20A03
100
AcDbEntity
  8
HATCH
100
AcDbLine
 10
3552.719294430176
 20
1392.488156193161
 30
0.0
 11
3639.321834808608
 21
1542.488156193139
 31
0.0
  0
LINE
  5
20D4D
330
20A03
100
AcDbEntity
  8
HATCH
100
AcDbLine
 10
3579.321834808617
 20
1542.488156193137
 30
0.0
 11
3609.321834808613
 21
1490.526631966083
 31
0.0
  0
LINE
  5
20D4E
330
20A03
100
AcDbEntity
  8
HATCH
100
AcDbLine
 10
3582.719294430172
 20
1444.449680420221
 30
0.0
 11
3612.719294430167
 21
1392.488156193161
 31
0.0
  0
LINE
  5
20D4F
330
20A03
100
AcDbEntity
  8
HATCH
100
AcDbLine
 10
3177.719294430175
 20
1392.488156193161
 30
0.0
 11
3264.321834808606
 21
1542.488156193139
 31
0.0
  0
LINE
  5
20D50
330
20A03
100
AcDbEntity
  8
HATCH
100
AcDbLine
 10
3204.321834808615
 20
1542.488156193137
 30
0.0
 11
3234.32183480861
 21
1490.526631966083
 31
0.0
  0
LINE
  5
20D51
330
20A03
100
AcDbEntity
  8
HATCH
100
AcDbLine
 10
3207.71929443017
 20
1444.449680420221
 30
0.0
 11
3237.719294430166
 21
1392.488156193161
 31
0.0
  0
LINE
  5
20D52
330
20A03
100
AcDbEntity
  8
HATCH
100
AcDbLine
 10
2990.219294430174
 20
1392.488156193161
 30
0.0
 11
3076.821834808605
 21
1542.488156193139
 31
0.0
  0
LINE
  5
20D53
330
20A03
100
AcDbEntity
  8
HATCH
100
AcDbLine
 10
3016.821834808613
 20
1542.488156193137
 30
0.0
 11
3046.82183480861
 21
1490.526631966083
 31
0.0
  0
LINE
  5
20D54
330
20A03
100
AcDbEntity
  8
HATCH
100
AcDbLine
 10
3020.21929443017
 20
1444.449680420221
 30
0.0
 11
3050.219294430164
 21
1392.488156193161
 31
0.0
  0
LINE
  5
20D55
330
20A03
100
AcDbEntity
  8
HATCH
100
AcDbLine
 10
3365.219294430175
 20
1392.488156193161
 30
0.0
 11
3451.821834808607
 21
1542.488156193139
 31
0.0
  0
LINE
  5
20D56
330
20A03
100
AcDbEntity
  8
HATCH
100
AcDbLine
 10
3391.821834808617
 20
1542.488156193137
 30
0.0
 11
3421.821834808612
 21
1490.526631966083
 31
0.0
  0
LINE
  5
20D57
330
20A03
100
AcDbEntity
  8
HATCH
100
AcDbLine
 10
3395.219294430172
 20
1444.449680420221
 30
0.0
 11
3425.219294430167
 21
1392.488156193161
 31
0.0
  0
LINE
  5
20D58
330
20A03
100
AcDbEntity
  8
HATCH
100
AcDbLine
 10
4969.059040392431
 20
2067.488156193165
 30
0.0
 11
5021.020564619539
 21
2157.488156193236
 31
0.0
  0
LINE
  5
20D59
330
20A03
100
AcDbEntity
  8
HATCH
100
AcDbLine
 10
4985.02056461951
 20
2157.488156193236
 30
0.0
 11
5003.020564619525
 21
2126.311241656972
 31
0.0
  0
LINE
  5
20D5A
330
20A03
100
AcDbEntity
  8
HATCH
100
AcDbLine
 10
4987.059040392445
 20
2098.66507072943
 30
0.0
 11
5005.05904039246
 21
2067.488156193165
 31
0.0
  0
LINE
  5
20D5B
330
20A03
100
AcDbEntity
  8
HATCH
100
AcDbLine
 10
4834.059040392431
 20
2067.488156193165
 30
0.0
 11
4886.020564619538
 21
2157.488156193236
 31
0.0
  0
LINE
  5
20D5C
330
20A03
100
AcDbEntity
  8
HATCH
100
AcDbLine
 10
4850.02056461951
 20
2157.488156193236
 30
0.0
 11
4868.020564619524
 21
2126.311241656972
 31
0.0
  0
LINE
  5
20D5D
330
20A03
100
AcDbEntity
  8
HATCH
100
AcDbLine
 10
4852.059040392445
 20
2098.66507072943
 30
0.0
 11
4870.05904039246
 21
2067.488156193165
 31
0.0
  0
LINE
  5
20D5E
330
20A03
100
AcDbEntity
  8
HATCH
100
AcDbLine
 10
4699.059040392429
 20
2067.488156193165
 30
0.0
 11
4751.02056461954
 21
2157.488156193236
 31
0.0
  0
LINE
  5
20D5F
330
20A03
100
AcDbEntity
  8
HATCH
100
AcDbLine
 10
4715.02056461951
 20
2157.488156193236
 30
0.0
 11
4733.020564619525
 21
2126.311241656972
 31
0.0
  0
LINE
  5
20D60
330
20A03
100
AcDbEntity
  8
HATCH
100
AcDbLine
 10
4717.059040392443
 20
2098.66507072943
 30
0.0
 11
4735.059040392457
 21
2067.488156193165
 31
0.0
  0
LINE
  5
20D61
330
20A03
100
AcDbEntity
  8
HATCH
100
AcDbLine
 10
4429.059040392429
 20
2067.488156193165
 30
0.0
 11
4481.020564619539
 21
2157.488156193236
 31
0.0
  0
LINE
  5
20D62
330
20A03
100
AcDbEntity
  8
HATCH
100
AcDbLine
 10
4445.02056461951
 20
2157.488156193236
 30
0.0
 11
4463.020564619523
 21
2126.311241656972
 31
0.0
  0
LINE
  5
20D63
330
20A03
100
AcDbEntity
  8
HATCH
100
AcDbLine
 10
4447.059040392445
 20
2098.66507072943
 30
0.0
 11
4465.05904039246
 21
2067.488156193165
 31
0.0
  0
LINE
  5
20D64
330
20A03
100
AcDbEntity
  8
HATCH
100
AcDbLine
 10
4564.059040392431
 20
2067.488156193164
 30
0.0
 11
4616.020564619539
 21
2157.488156193236
 31
0.0
  0
LINE
  5
20D65
330
20A03
100
AcDbEntity
  8
HATCH
100
AcDbLine
 10
4580.02056461951
 20
2157.488156193235
 30
0.0
 11
4598.020564619523
 21
2126.311241656972
 31
0.0
  0
LINE
  5
20D66
330
20A03
100
AcDbEntity
  8
HATCH
100
AcDbLine
 10
4582.059040392445
 20
2098.66507072943
 30
0.0
 11
4600.059040392458
 21
2067.488156193164
 31
0.0
  0
LINE
  5
20D67
330
20A03
100
AcDbEntity
  8
HATCH
100
AcDbLine
 10
4159.059040392429
 20
2067.488156193165
 30
0.0
 11
4211.020564619539
 21
2157.488156193236
 31
0.0
  0
LINE
  5
20D68
330
20A03
100
AcDbEntity
  8
HATCH
100
AcDbLine
 10
4175.02056461951
 20
2157.488156193236
 30
0.0
 11
4193.020564619525
 21
2126.311241656972
 31
0.0
  0
LINE
  5
20D69
330
20A03
100
AcDbEntity
  8
HATCH
100
AcDbLine
 10
4177.059040392445
 20
2098.66507072943
 30
0.0
 11
4195.05904039246
 21
2067.488156193165
 31
0.0
  0
LINE
  5
20D6A
330
20A03
100
AcDbEntity
  8
HATCH
100
AcDbLine
 10
4024.059040392431
 20
2067.488156193164
 30
0.0
 11
4076.020564619539
 21
2157.488156193236
 31
0.0
  0
LINE
  5
20D6B
330
20A03
100
AcDbEntity
  8
HATCH
100
AcDbLine
 10
4040.020564619509
 20
2157.488156193235
 30
0.0
 11
4058.020564619524
 21
2126.311241656972
 31
0.0
  0
LINE
  5
20D6C
330
20A03
100
AcDbEntity
  8
HATCH
100
AcDbLine
 10
4042.059040392445
 20
2098.66507072943
 30
0.0
 11
4060.059040392459
 21
2067.488156193164
 31
0.0
  0
LINE
  5
20D6D
330
20A03
100
AcDbEntity
  8
HATCH
100
AcDbLine
 10
3889.059040392431
 20
2067.488156193164
 30
0.0
 11
3941.020564619539
 21
2157.488156193236
 31
0.0
  0
LINE
  5
20D6E
330
20A03
100
AcDbEntity
  8
HATCH
100
AcDbLine
 10
3905.02056461951
 20
2157.488156193235
 30
0.0
 11
3923.020564619525
 21
2126.311241656972
 31
0.0
  0
LINE
  5
20D6F
330
20A03
100
AcDbEntity
  8
HATCH
100
AcDbLine
 10
3907.059040392446
 20
2098.66507072943
 30
0.0
 11
3925.05904039246
 21
2067.488156193164
 31
0.0
  0
LINE
  5
20D70
330
20A03
100
AcDbEntity
  8
HATCH
100
AcDbLine
 10
3754.059040392429
 20
2067.488156193164
 30
0.0
 11
3806.020564619539
 21
2157.488156193236
 31
0.0
  0
LINE
  5
20D71
330
20A03
100
AcDbEntity
  8
HATCH
100
AcDbLine
 10
3770.02056461951
 20
2157.488156193235
 30
0.0
 11
3788.020564619524
 21
2126.311241656972
 31
0.0
  0
LINE
  5
20D72
330
20A03
100
AcDbEntity
  8
HATCH
100
AcDbLine
 10
3772.059040392445
 20
2098.66507072943
 30
0.0
 11
3790.059040392459
 21
2067.488156193164
 31
0.0
  0
LINE
  5
20D73
330
20A03
100
AcDbEntity
  8
HATCH
100
AcDbLine
 10
2471.020564619497
 20
2067.48815619316
 30
0.0
 11
2522.982088846605
 21
2157.488156193231
 31
0.0
  0
LINE
  5
20D74
330
20A03
100
AcDbEntity
  8
HATCH
100
AcDbLine
 10
2486.982088846577
 20
2157.488156193231
 30
0.0
 11
2504.982088846591
 21
2126.311241656968
 31
0.0
  0
LINE
  5
20D75
330
20A03
100
AcDbEntity
  8
HATCH
100
AcDbLine
 10
2489.020564619512
 20
2098.665070729426
 30
0.0
 11
2507.020564619525
 21
2067.48815619316
 31
0.0
  0
LINE
  5
20D76
330
20A03
100
AcDbEntity
  8
HATCH
100
AcDbLine
 10
2606.020564619497
 20
2067.48815619316
 30
0.0
 11
2657.982088846605
 21
2157.488156193231
 31
0.0
  0
LINE
  5
20D77
330
20A03
100
AcDbEntity
  8
HATCH
100
AcDbLine
 10
2621.982088846577
 20
2157.488156193231
 30
0.0
 11
2639.982088846591
 21
2126.311241656968
 31
0.0
  0
LINE
  5
20D78
330
20A03
100
AcDbEntity
  8
HATCH
100
AcDbLine
 10
2624.020564619512
 20
2098.665070729426
 30
0.0
 11
2642.020564619525
 21
2067.48815619316
 31
0.0
  0
LINE
  5
20D79
330
20A03
100
AcDbEntity
  8
HATCH
100
AcDbLine
 10
4294.059040392431
 20
2067.488156193164
 30
0.0
 11
4346.020564619538
 21
2157.488156193236
 31
0.0
  0
LINE
  5
20D7A
330
20A03
100
AcDbEntity
  8
HATCH
100
AcDbLine
 10
4310.020564619509
 20
2157.488156193235
 30
0.0
 11
4328.020564619524
 21
2126.311241656972
 31
0.0
  0
LINE
  5
20D7B
330
20A03
100
AcDbEntity
  8
HATCH
100
AcDbLine
 10
4312.059040392445
 20
2098.66507072943
 30
0.0
 11
4330.05904039246
 21
2067.488156193164
 31
0.0
  0
LINE
  5
20D7C
330
20A03
100
AcDbEntity
  8
U2
100
AcDbLine
 10
2202.527727734767
 20
6091.083850786253
 30
0.0
 11
2852.527727734766
 21
6091.083850786253
 31
0.0
  0
LINE
  5
20D7D
330
20A03
100
AcDbEntity
  8
U2
100
AcDbLine
 10
2852.527727734766
 20
6091.083850786253
 30
0.0
 11
2852.527727734766
 21
6741.083850786252
 31
0.0
  0
LINE
  5
20D7E
330
20A03
100
AcDbEntity
  8
U2
100
AcDbLine
 10
2852.527727734766
 20
6741.083850786252
 30
0.0
 11
2202.527727734767
 21
6741.083850786252
 31
0.0
  0
LINE
  5
20D7F
330
20A03
100
AcDbEntity
  8
U2
100
AcDbLine
 10
2202.527727734767
 20
6741.083850786252
 30
0.0
 11
2202.527727734767
 21
6091.083850786253
 31
0.0
  0
LINE
  5
20D80
330
20A03
100
AcDbEntity
  8
U2
100
AcDbLine
 10
4602.527727734766
 20
6091.083850786253
 30
0.0
 11
5252.527727734767
 21
6091.083850786253
 31
0.0
  0
LINE
  5
20D81
330
20A03
100
AcDbEntity
  8
U2
100
AcDbLine
 10
5252.527727734767
 20
6091.083850786253
 30
0.0
 11
5252.527727734767
 21
6741.083850786252
 31
0.0
  0
LINE
  5
20D82
330
20A03
100
AcDbEntity
  8
U2
100
AcDbLine
 10
5252.527727734767
 20
6741.083850786252
 30
0.0
 11
4602.527727734766
 21
6741.083850786252
 31
0.0
  0
LINE
  5
20D83
330
20A03
100
AcDbEntity
  8
U2
100
AcDbLine
 10
4602.527727734766
 20
6741.083850786252
 30
0.0
 11
4602.527727734766
 21
6091.083850786253
 31
0.0
  0
LINE
  5
20D84
330
20A03
100
AcDbEntity
  8
U2
100
AcDbLine
 10
7002.527727734767
 20
6091.083850786253
 30
0.0
 11
7652.527727734771
 21
6091.083850786253
 31
0.0
  0
LINE
  5
20D85
330
20A03
100
AcDbEntity
  8
U2
100
AcDbLine
 10
7652.527727734771
 20
6091.083850786253
 30
0.0
 11
7652.527727734771
 21
6741.083850786252
 31
0.0
  0
LINE
  5
20D86
330
20A03
100
AcDbEntity
  8
U2
100
AcDbLine
 10
7652.527727734771
 20
6741.083850786252
 30
0.0
 11
7002.527727734767
 21
6741.083850786252
 31
0.0
  0
LINE
  5
20D87
330
20A03
100
AcDbEntity
  8
U2
100
AcDbLine
 10
7002.527727734767
 20
6741.083850786252
 30
0.0
 11
7002.527727734767
 21
6091.083850786253
 31
0.0
  0
LINE
  5
20D88
330
20A03
100
AcDbEntity
  8
U2
100
AcDbLine
 10
9402.527727734771
 20
6091.083850786242
 30
0.0
 11
10052.52772773477
 21
6091.083850786242
 31
0.0
  0
LINE
  5
20D89
330
20A03
100
AcDbEntity
  8
U2
100
AcDbLine
 10
10052.52772773477
 20
6091.083850786242
 30
0.0
 11
10052.52772773477
 21
6741.083850786242
 31
0.0
  0
LINE
  5
20D8A
330
20A03
100
AcDbEntity
  8
U2
100
AcDbLine
 10
10052.52772773477
 20
6741.083850786242
 30
0.0
 11
9402.527727734771
 21
6741.083850786242
 31
0.0
  0
LINE
  5
20D8B
330
20A03
100
AcDbEntity
  8
U2
100
AcDbLine
 10
9402.527727734771
 20
6741.083850786242
 30
0.0
 11
9402.527727734771
 21
6091.083850786242
 31
0.0
  0
TEXT
  5
20DAD
330
20A03
100
AcDbEntity
  8
SUNPOU
100
AcDbText
 10
6846.602440635789
 20
2769.013921937081
 30
0.0
 40
120.0
  1
基礎断面図
  7
01
 72
     4
 11
7186.602440635788
 21
2829.013921937081
 31
0.0
100
AcDbText
  0
TEXT
  5
20DAE
330
20A03
100
AcDbEntity
  8
SUNPOU
100
AcDbText
 10
6721.24529777864
 20
2611.513921937082
 30
0.0
 40
90.0
  1
<下記条件での参考図>
  7
01
 72
     4
 11
7310.102440635784
 21
2656.513921937082
 31
0.0
100
AcDbText
  0
TEXT
  5
20DAF
330
20A03
100
AcDbEntity
  8
SUNPOU
100
AcDbText
 10
6851.808926494872
 20
2422.259919491125
 30
0.0
 40
89.9993750043402
  1
地耐力   　　　 以上,コンクリート設計基準強度　　　　　以上
  7
01
100
AcDbText
  0
TEXT
  5
20DB0
330
20A03
100
AcDbEntity
  8
SUNPOU
100
AcDbText
 10
6851.808926494872
 20
2267.974205205411
 30
0.0
 40
89.9993750043402
  1
基準風速   　　 , 地表面粗度区分
  7
01
100
AcDbText
  0
ARC
  5
20DB1
330
20A03
100
AcDbEntity
  8
SUNPOU
100
AcDbCircle
 10
7004.767200402078
 20
2386.047342932955
 30
0.0
 40
225.0
100
AcDbArc
 50
148.3472725282539
 51
211.652727471746
  0
TEXT
  5
20DB2
330
20A03
100
AcDbEntity
  8
SUNPOU
100
AcDbText
 10
7226.764671584264
 20
2042.974205205411
 30
0.0
 40
90.0
  1
寒冷地の場合、凍結深度等を考慮し、実情に
  7
01
100
AcDbText
  0
TEXT
  5
20DB3
330
20A03
100
AcDbEntity
  8
SUNPOU
100
AcDbText
 10
7226.764671584264
 20
1734.402776633984
 30
0.0
 40
90.0
  1
その他現地の実情にあわせて設計して下さい。
  7
01
100
AcDbText
  0
TEXT
  5
20DB4
330
20A03
100
AcDbEntity
  8
SUNPOU
100
AcDbText
 10
7563.452777998762
 20
2781.321614244774
 30
0.0
 40
92.30769230769228
  1
（ S = 　　  ）
 41
0.6700000000000001
  7
00
 11
7563.452777998762
 21
2769.013921937082
 31
0.0
100
AcDbText
 73
     1
  0
TEXT
  5
20DB5
330
20A03
100
AcDbEntity
  8
SUNPOU
100
AcDbText
 10
7226.764671584264
 20
1888.688490919696
 30
0.0
 40
90.0
  1
あわせて設計して下さい。
  7
01
100
AcDbText
  0
TEXT
  5
20DB6
330
20A03
100
AcDbEntity
  8
SUNPOU
100
AcDbText
 10
7226.067333919949
 20
2422.259919491125
 30
0.0
 40
89.9993750043402
  1
50  N/m
 41
0.6700000000000001
  7
01
100
AcDbText
  0
TEXT
  5
20DB7
330
20A03
100
AcDbEntity
  8
SUNPOU
100
AcDbText
 10
7335.572355160039
 20
2267.974205205411
 30
0.0
 40
89.9993750043402
  1
34 m/s
 41
0.6700000000000001
  7
01
100
AcDbText
  0
TEXT
  5
20DB8
330
20A03
100
AcDbEntity
  8
SUNPOU
100
AcDbText
 10
7020.558926494874
 20
2042.974205205411
 30
0.0
 40
90.0
  1
1
 41
0.6700000000000001
  7
01
100
AcDbText
  0
TEXT
  5
20DB9
330
20A03
100
AcDbEntity
  8
SUNPOU
100
AcDbText
 10
6909.925006282129
 20
2042.974205205411
 30
0.0
 40
90.0
  1
注　）
  7
01
100
AcDbText
  0
TEXT
  5
20DBA
330
20A03
100
AcDbEntity
  8
SUNPOU
100
AcDbText
 10
6909.925006282129
 20
1734.402776633984
 30
0.0
 40
90.0
  1
注　）
  7
01
100
AcDbText
  0
TEXT
  5
20DBB
330
20A03
100
AcDbEntity
  8
SUNPOU
100
AcDbText
 10
7020.558926494874
 20
1734.402776633984
 30
0.0
 40
90.0
  1
2
 41
0.6700000000000001
  7
01
100
AcDbText
  0
TEXT
  5
20DBC
330
20A03
100
AcDbEntity
  8
SUNPOU
100
AcDbText
 10
7361.903786705909
 20
2422.259919491125
 30
0.0
 40
71.99950000347218
  1
K
 41
0.6700000000000001
  7
01
100
AcDbText
  0
TEXT
  5
20DBD
330
20A03
100
AcDbEntity
  8
SUNPOU
100
AcDbText
 10
7629.543943434292
 20
2472.448345848613
 30
0.0
 40
46.28539285937494
  1
2
 41
0.6700000000000001
  7
00
100
AcDbText
  0
LINE
  5
20DBE
330
20A03
100
AcDbEntity
  8
SUNPOU
100
AcDbLine
 10
8643.62448806148
 20
2351.466568904192
 30
0.0
 11
8699.874488061484
 21
2351.466568904192
 31
0.0
  0
LINE
  5
20DBF
330
20A03
100
AcDbEntity
  8
SUNPOU
100
AcDbLine
 10
8643.62448806148
 20
2267.97420520541
 30
0.0
 11
8699.874488061484
 21
2267.97420520541
 31
0.0
  0
LINE
  5
20DC0
330
20A03
100
AcDbEntity
  8
SUNPOU
100
AcDbLine
 10
8654.874488061484
 20
2267.974205205411
 30
0.0
 11
8654.874488061484
 21
2351.466568904192
 31
0.0
  0
LINE
  5
20DC1
330
20A03
100
AcDbEntity
  8
SUNPOU
100
AcDbLine
 10
8671.749488061484
 20
2267.974205205411
 30
0.0
 11
8671.749488061484
 21
2351.466568904192
 31
0.0
  0
LINE
  5
20DC2
330
20A03
100
AcDbEntity
  8
SUNPOU
100
AcDbLine
 10
8688.62448806148
 20
2267.974205205411
 30
0.0
 11
8688.62448806148
 21
2351.466568904192
 31
0.0
  0
TEXT
  5
20DC3
330
20A03
100
AcDbEntity
  8
SUNPOU
100
AcDbText
 10
7883.155479851841
 20
2797.321614244774
 30
0.0
 40
73.84615384615381
  1
1
 41
0.6700000000000001
  7
00
 11
7883.155479851841
 21
2787.47546039862
 31
0.0
100
AcDbText
 73
     1
  0
TEXT
  5
20DC4
330
20A03
100
AcDbEntity
  8
SUNPOU
100
AcDbText
 10
7931.561607167211
 20
2778.860075783236
 30
0.0
 40
73.84615384615381
  1
/
 41
0.6700000000000001
  7
00
 11
7931.561607167211
 21
2769.013921937082
 31
0.0
100
AcDbText
 73
     1
  0
TEXT
  5
20DC5
330
20A03
100
AcDbEntity
  8
SUNPOU
100
AcDbText
 10
7995.51105012158
 20
2760.398537321697
 30
0.0
 40
73.84615384615381
  1
20
 41
0.6700000000000001
  7
00
 11
7995.51105012158
 21
2750.552383475543
 31
0.0
100
AcDbText
 73
     1
  0
TEXT
  5
20DC6
330
20A03
100
AcDbEntity
  8
SUNPOU
100
AcDbText
 10
9402.726549580991
 20
2422.259919491125
 30
0.0
 40
89.9993750043402
  1
N/mm
 41
0.6700000000000001
  7
01
100
AcDbText
  0
TEXT
  5
20DC7
330
20A03
100
AcDbEntity
  8
SUNPOU
100
AcDbText
 10
9266.890096795034
 20
2422.259919491125
 30
0.0
 40
89.9993750043402
  1
18
 41
0.6700000000000001
  7
01
100
AcDbText
  0
TEXT
  5
20DC8
330
20A03
100
AcDbEntity
  8
SUNPOU
100
AcDbText
 10
9707.191031612405
 20
2472.448345848613
 30
0.0
 40
46.28539285937494
  1
2
 41
0.6700000000000001
  7
00
100
AcDbText
  0
ARC
  5
20DC9
330
20A03
100
AcDbEntity
  8
SUNPOU
100
AcDbCircle
 10
9831.111191208403
 20
2429.714413531589
 30
0.0
 40
225.0
100
AcDbArc
 50
328.3472725282539
 51
31.65272747174605
  0
ENDSEC
  0
SECTION
  2
OBJECTS
  0
DICTIONARY
  5
209F1
330
0
100
AcDbDictionary
281
     1
  3
ACAD_GROUP
350
209F2
  3
ACAD_LAYOUT
350
209FE
  3
ACAD_MLINESTYLE
350
209FB
  3
ACAD_PLOTSETTINGS
350
209FD
  3
ACAD_PLOTSTYLENAME
350
209F3
  3
AcDbVariableDictionary
350
20DCA
  0
DICTIONARY
  5
209F2
102
{ACAD_REACTORS
330
209F1
102
}
330
209F1
100
AcDbDictionary
281
     1
  0
DICTIONARY
  5
209FE
102
{ACAD_REACTORS
330
209F1
102
}
330
209F1
100
AcDbDictionary
281
     1
  3
Model
350
20A06
  3
ﾚｲｱｳﾄ1
350
20A02
  0
DICTIONARY
  5
209FB
102
{ACAD_REACTORS
330
209F1
102
}
330
209F1
100
AcDbDictionary
281
     1
  3
Standard
350
209FC
  0
DICTIONARY
  5
209FD
102
{ACAD_REACTORS
330
209F1
102
}
330
209F1
100
AcDbDictionary
281
     1
  0
ACDBDICTIONARYWDFLT
  5
209F3
102
{ACAD_REACTORS
330
209F1
102
}
330
209F1
100
AcDbDictionary
281
     1
  3
Normal
350
209F4
100
AcDbDictionaryWithDefault
340
209F4
  0
DICTIONARY
  5
20DCA
102
{ACAD_REACTORS
330
209F1
102
}
330
209F1
100
AcDbDictionary
281
     1
  3
DIMASSOC
350
20DCB
  0
LAYOUT
  5
20A06
102
{ACAD_REACTORS
330
209FE
102
}
330
209FE
100
AcDbPlotSettings
  1

  2
Muratec V-1200 Is@Web Printer
  4

  6

 40
0.0
 41
0.0
 42
0.0
 43
0.0
 44
0.0
 45
0.0
 46
0.0
 47
0.0
 48
0.0
 49
0.0
140
0.0
141
0.0
142
1.0
143
1.0
 70
  1712
 72
     0
 73
     0
 74
     0
  7

 75
     0
147
1.0
148
0.0
149
0.0
100
AcDbLayout
  1
Model
 70
     1
 71
     0
 10
0.0
 20
0.0
 11
12.0
 21
9.0
 12
0.0
 22
0.0
 32
0.0
 14
0.0
 24
0.0
 34
0.0
 15
0.0
 25
0.0
 35
0.0
146
0.0
 13
0.0
 23
0.0
 33
0.0
 16
1.0
 26
0.0
 36
0.0
 17
0.0
 27
1.0
 37
0.0
 76
     0
330
20A03
  0
LAYOUT
  5
20A02
102
{ACAD_REACTORS
330
209FE
102
}
330
209FE
100
AcDbPlotSettings
  1

  2
Muratec V-1200 Is@Web Printer
  4

  6

 40
0.0
 41
0.0
 42
0.0
 43
0.0
 44
0.0
 45
0.0
 46
0.0
 47
0.0
 48
0.0
 49
0.0
140
0.0
141
0.0
142
1.0
143
1.0
 70
   688
 72
     0
 73
     0
 74
     5
  7

 75
    16
147
1.0
148
0.0
149
0.0
100
AcDbLayout
  1
ﾚｲｱｳﾄ1
 70
     0
 71
     1
 10
0.0
 20
0.0
 11
12.0
 21
9.0
 12
0.0
 22
0.0
 32
0.0
 14
1.000000000000000E+20
 24
1.000000000000000E+20
 34
1.000000000000000E+20
 15
-1.000000000000000E+20
 25
-1.000000000000000E+20
 35
-1.000000000000000E+20
146
0.0
 13
0.0
 23
0.0
 33
0.0
 16
1.0
 26
0.0
 36
0.0
 17
0.0
 27
1.0
 37
0.0
 76
     0
330
209FF
  0
MLINESTYLE
  5
209FC
102
{ACAD_REACTORS
330
209FB
102
}
330
209FB
100
AcDbMlineStyle
  2
STANDARD
 70
     0
  3

 62
   256
 51
90.0
 52
90.0
 71
     2
 49
0.5
 62
   256
  6
BYLAYER
 49
-0.5
 62
   256
  6
BYLAYER
  0
ACDBPLACEHOLDER
  5
209F4
102
{ACAD_REACTORS
330
209F3
102
}
330
209F3
  0
DICTIONARYVAR
  5
20DCB
102
{ACAD_REACTORS
330
20DCA
102
}
330
20DCA
100
DictionaryVariables
280
     0
  1
1
  0
ENDSEC
  0
EOF
