  0
SECTION
  2
HEADER
  9
$ACADVER
  1
AC1015
  9
$ACADMAINTVER
 70
    13
  9
$DWGCODEPAGE
  3
ANSI_932
  9
$INSBASE
 10
267.0
 20
194.8999999999998
 30
0.0
  9
$EXTMIN
 10
325.4974662390304
 20
122.7681178119601
 30
-0.0000000000000006
  9
$EXTMAX
 10
12286.99954069103
 20
8431.707478684501
 30
0.0000000000000146
  9
$LIMMIN
 10
0.0
 20
0.0
  9
$LIMMAX
 10
12600.0
 20
8910.0
  9
$ORTHOMODE
 70
     0
  9
$REGENMODE
 70
     1
  9
$FILLMODE
 70
     1
  9
$QTEXTMODE
 70
     0
  9
$MIRRTEXT
 70
     0
  9
$LTSCALE
 40
30.0
  9
$ATTMODE
 70
     1
  9
$TEXTSIZE
 40
0.2
  9
$TRACEWID
 40
0.05
  9
$TEXTSTYLE
  7
00
  9
$CLAYER
  8
SUNPOU
  9
$CELTYPE
  6
ByLayer
  9
$CECOLOR
 62
   256
  9
$CELTSCALE
 40
1.0
  9
$DISPSILH
 70
     0
  9
$DIMSCALE
 40
30.0
  9
$DIMASZ
 40
0.5
  9
$DIMEXO
 40
1.0
  9
$DIMDLI
 40
7.0
  9
$DIMRND
 40
0.0
  9
$DIMDLE
 40
3.0
  9
$DIMEXE
 40
1.5
  9
$DIMTP
 40
0.0
  9
$DIMTM
 40
0.0
  9
$DIMTXT
 40
3.0
  9
$DIMCEN
 40
0.0
  9
$DIMTSZ
 40
0.0
  9
$DIMTOL
 70
     0
  9
$DIMLIM
 70
     0
  9
$DIMTIH
 70
     0
  9
$DIMTOH
 70
     0
  9
$DIMSE1
 70
     0
  9
$DIMSE2
 70
     0
  9
$DIMTAD
 70
     1
  9
$DIMZIN
 70
     8
  9
$DIMBLK
  1
DOT
  9
$DIMASO
 70
     1
  9
$DIMSHO
 70
     0
  9
$DIMPOST
  1

  9
$DIMAPOST
  1

  9
$DIMALT
 70
     0
  9
$DIMALTD
 70
     2
  9
$DIMALTF
 40
25.4
  9
$DIMLFAC
 40
1.0
  9
$DIMTOFL
 70
     1
  9
$DIMTVP
 40
0.0
  9
$DIMTIX
 70
     0
  9
$DIMSOXD
 70
     0
  9
$DIMSAH
 70
     1
  9
$DIMBLK1
  1
DOT
  9
$DIMBLK2
  1
DOT
  9
$DIMSTYLE
  2
SUNPOU
  9
$DIMCLRD
 70
   256
  9
$DIMCLRE
 70
   256
  9
$DIMCLRT
 70
   256
  9
$DIMTFAC
 40
1.0
  9
$DIMGAP
 40
1.5
  9
$DIMJUST
 70
     0
  9
$DIMSD1
 70
     0
  9
$DIMSD2
 70
     0
  9
$DIMTOLJ
 70
     1
  9
$DIMTZIN
 70
     0
  9
$DIMALTZ
 70
     0
  9
$DIMALTTZ
 70
     0
  9
$DIMUPT
 70
     0
  9
$DIMDEC
 70
     4
  9
$DIMTDEC
 70
     4
  9
$DIMALTU
 70
     2
  9
$DIMALTTD
 70
     2
  9
$DIMTXSTY
  7
STANDARD
  9
$DIMAUNIT
 70
     0
  9
$DIMADEC
 70
     0
  9
$DIMALTRND
 40
0.0
  9
$DIMAZIN
 70
     0
  9
$DIMDSEP
 70
    46
  9
$DIMATFIT
 70
     3
  9
$DIMFRAC
 70
     0
  9
$DIMLDRBLK
  1
DOT
  9
$DIMLUNIT
 70
     2
  9
$DIMLWD
 70
    -2
  9
$DIMLWE
 70
    -2
  9
$DIMTMOVE
 70
     0
  9
$LUNITS
 70
     2
  9
$LUPREC
 70
     2
  9
$SKETCHINC
 40
0.1
  9
$FILLETRAD
 40
5.0
  9
$AUNITS
 70
     0
  9
$AUPREC
 70
     0
  9
$MENU
  1
A:\TIGER\MENU\TIGER
  9
$ELEVATION
 40
0.0
  9
$PELEVATION
 40
0.0
  9
$THICKNESS
 40
0.0
  9
$LIMCHECK
 70
     0
  9
$CHAMFERA
 40
0.0
  9
$CHAMFERB
 40
0.0
  9
$CHAMFERC
 40
0.0
  9
$CHAMFERD
 40
0.0
  9
$SKPOLY
 70
     0
  9
$TDCREATE
 40
2450266.571064815
  9
$TDUCREATE
 40
2450266.196064815
  9
$TDUPDATE
 40
2456330.313966643
  9
$TDUUPDATE
 40
2456329.938966643
  9
$TDINDWG
 40
0.1526215856
  9
$TDUSRTIMER
 40
0.1526215856
  9
$USRTIMER
 70
     1
  9
$ANGBASE
 50
0.0
  9
$ANGDIR
 70
     0
  9
$PDMODE
 70
     0
  9
$PDSIZE
 40
0.0
  9
$PLINEWID
 40
0.0
  9
$SPLFRAME
 70
     0
  9
$SPLINETYPE
 70
     6
  9
$SPLINESEGS
 70
     8
  9
$HANDSEED
  5
2106F
  9
$SURFTAB1
 70
     6
  9
$SURFTAB2
 70
     6
  9
$SURFTYPE
 70
     6
  9
$SURFU
 70
     6
  9
$SURFV
 70
     6
  9
$UCSBASE
  2

  9
$UCSNAME
  2

  9
$UCSORG
 10
0.0
 20
0.0
 30
0.0
  9
$UCSXDIR
 10
1.0
 20
0.0
 30
0.0
  9
$UCSYDIR
 10
0.0
 20
1.0
 30
0.0
  9
$UCSORTHOREF
  2

  9
$UCSORTHOVIEW
 70
     0
  9
$UCSORGTOP
 10
0.0
 20
0.0
 30
0.0
  9
$UCSORGBOTTOM
 10
0.0
 20
0.0
 30
0.0
  9
$UCSORGLEFT
 10
0.0
 20
0.0
 30
0.0
  9
$UCSORGRIGHT
 10
0.0
 20
0.0
 30
0.0
  9
$UCSORGFRONT
 10
0.0
 20
0.0
 30
0.0
  9
$UCSORGBACK
 10
0.0
 20
0.0
 30
0.0
  9
$PUCSBASE
  2

  9
$PUCSNAME
  2

  9
$PUCSORG
 10
0.0
 20
0.0
 30
0.0
  9
$PUCSXDIR
 10
1.0
 20
0.0
 30
0.0
  9
$PUCSYDIR
 10
0.0
 20
1.0
 30
0.0
  9
$PUCSORTHOREF
  2

  9
$PUCSORTHOVIEW
 70
     0
  9
$PUCSORGTOP
 10
0.0
 20
0.0
 30
0.0
  9
$PUCSORGBOTTOM
 10
0.0
 20
0.0
 30
0.0
  9
$PUCSORGLEFT
 10
0.0
 20
0.0
 30
0.0
  9
$PUCSORGRIGHT
 10
0.0
 20
0.0
 30
0.0
  9
$PUCSORGFRONT
 10
0.0
 20
0.0
 30
0.0
  9
$PUCSORGBACK
 10
0.0
 20
0.0
 30
0.0
  9
$USERI1
 70
     3
  9
$USERI2
 70
     0
  9
$USERI3
 70
     0
  9
$USERI4
 70
     0
  9
$USERI5
 70
  1103
  9
$USERR1
 40
0.0
  9
$USERR2
 40
1.0
  9
$USERR3
 40
0.0
  9
$USERR4
 40
0.0
  9
$USERR5
 40
0.0
  9
$WORLDVIEW
 70
     1
  9
$SHADEDGE
 70
     3
  9
$SHADEDIF
 70
    70
  9
$TILEMODE
 70
     1
  9
$MAXACTVP
 70
    16
  9
$PINSBASE
 10
0.0
 20
0.0
 30
0.0
  9
$PLIMCHECK
 70
     0
  9
$PEXTMIN
 10
1.000000000000000E+20
 20
1.000000000000000E+20
 30
1.000000000000000E+20
  9
$PEXTMAX
 10
-1.000000000000000E+20
 20
-1.000000000000000E+20
 30
-1.000000000000000E+20
  9
$PLIMMIN
 10
0.0
 20
0.0
  9
$PLIMMAX
 10
12.0
 20
9.0
  9
$UNITMODE
 70
     0
  9
$VISRETAIN
 70
     0
  9
$PLINEGEN
 70
     1
  9
$PSLTSCALE
 70
     0
  9
$TREEDEPTH
 70
  3020
  9
$CMLSTYLE
  2
Standard
  9
$CMLJUST
 70
     0
  9
$CMLSCALE
 40
1.0
  9
$PROXYGRAPHICS
 70
     1
  9
$MEASUREMENT
 70
     0
  9
$CELWEIGHT
370
    -1
  9
$ENDCAPS
280
     0
  9
$JOINSTYLE
280
     0
  9
$LWDISPLAY
290
     0
  9
$INSUNITS
 70
     0
  9
$HYPERLINKBASE
  1

  9
$STYLESHEET
  1

  9
$XEDIT
290
     1
  9
$CEPSNTYPE
380
     0
  9
$PSTYLEMODE
290
     1
  9
$FINGERPRINTGUID
  2
{1BB05301-17CF-44B9-BA71-F656E4AFDDE5}
  9
$VERSIONGUID
  2
{D077DF82-F0FA-49A1-B191-41756E9D3747}
  9
$EXTNAMES
290
     1
  9
$PSVPSCALE
 40
0.0
  9
$OLESTARTUP
290
     0
  0
ENDSEC
  0
SECTION
  2
CLASSES
  0
CLASS
  1
ACDBDICTIONARYWDFLT
  2
AcDbDictionaryWithDefault
  3
AutoCAD 2000
 90
        0
280
     0
281
     0
  0
CLASS
  1
ACDBPLACEHOLDER
  2
AcDbPlaceHolder
  3
AutoCAD 2000
 90
        0
280
     0
281
     0
  0
CLASS
  1
LAYOUT
  2
AcDbLayout
  3
AutoCAD 2000
 90
        0
280
     0
281
     0
  0
CLASS
  1
DICTIONARYVAR
  2
AcDbDictionaryVar
  3
AutoCAD 2000
 90
        0
280
     0
281
     0
  0
ENDSEC
  0
SECTION
  2
TABLES
  0
TABLE
  2
VPORT
  5
20909
330
0
100
AcDbSymbolTable
 70
     2
  0
VPORT
  5
2106E
330
20909
100
AcDbSymbolTableRecord
100
AcDbViewportTableRecord
  2
*Active
 70
     0
 10
0.0
 20
0.0
 11
1.0
 21
1.0
 12
6306.248503465031
 22
4277.237798248231
 13
0.0
 23
0.0
 14
1.0
 24
1.0
 15
0.0
 25
0.0
 16
0.0
 26
0.0
 36
1.0
 17
0.0
 27
0.0
 37
0.0
 40
9736.810759336549
 41
1.236040609137055
 42
50.0
 43
0.0
 44
0.0
 50
0.0
 51
0.0
 71
     0
 72
 10000
 73
     1
 74
     0
 75
     0
 76
     0
 77
     0
 78
     0
281
     0
 65
     1
110
0.0
120
0.0
130
0.0
111
1.0
121
0.0
131
0.0
112
0.0
122
1.0
132
0.0
 79
     0
146
0.0
  0
ENDTAB
  0
TABLE
  2
LTYPE
  5
20906
330
0
100
AcDbSymbolTable
 70
     4
  0
LTYPE
  5
20914
330
20906
100
AcDbSymbolTableRecord
100
AcDbLinetypeTableRecord
  2
ByBlock
 70
     0
  3

 72
    65
 73
     0
 40
0.0
  0
LTYPE
  5
20915
330
20906
100
AcDbSymbolTableRecord
100
AcDbLinetypeTableRecord
  2
ByLayer
 70
     0
  3

 72
    65
 73
     0
 40
0.0
  0
LTYPE
  5
20916
330
20906
100
AcDbSymbolTableRecord
100
AcDbLinetypeTableRecord
  2
CONTINUOUS
 70
     0
  3
実線
 72
    65
 73
     0
 40
0.0
  0
LTYPE
  5
20926
330
20906
100
AcDbSymbolTableRecord
100
AcDbLinetypeTableRecord
  2
HIDE-S
 70
     0
  3

 72
    65
 73
     2
 40
1.0
 49
0.5
 74
     0
 49
-0.5
 74
     0
  0
LTYPE
  5
20927
330
20906
100
AcDbSymbolTableRecord
100
AcDbLinetypeTableRecord
  2
1PL-M
 70
     0
  3

 72
    65
 73
     4
 40
15.0
 49
12.0
 74
     0
 49
-1.0
 74
     0
 49
1.0
 74
     0
 49
-1.0
 74
     0
  0
LTYPE
  5
20928
330
20906
100
AcDbSymbolTableRecord
100
AcDbLinetypeTableRecord
  2
1PL-S
 70
     0
  3

 72
    65
 73
     4
 40
4.0
 49
2.5
 74
     0
 49
-0.5
 74
     0
 49
0.5
 74
     0
 49
-0.5
 74
     0
  0
ENDTAB
  0
TABLE
  2
LAYER
  5
20903
330
0
100
AcDbSymbolTable
 70
    32
  0
LAYER
  5
20911
330
20903
100
AcDbSymbolTableRecord
100
AcDbLayerTableRecord
  2
0
 70
     0
 62
     7
  6
CONTINUOUS
370
    -3
390
20910
  0
LAYER
  5
20923
330
20903
100
AcDbSymbolTableRecord
100
AcDbLayerTableRecord
  2
SUNPOU
 70
     0
 62
     4
  6
CONTINUOUS
370
    -3
390
20910
  0
LAYER
  5
20929
330
20903
100
AcDbSymbolTableRecord
100
AcDbLayerTableRecord
  2
U1
 70
     0
 62
     3
  6
CONTINUOUS
370
    -3
390
20910
  0
LAYER
  5
2092A
330
20903
100
AcDbSymbolTableRecord
100
AcDbLayerTableRecord
  2
U2
 70
     0
 62
     4
  6
CONTINUOUS
370
    -3
390
20910
  0
LAYER
  5
2092B
330
20903
100
AcDbSymbolTableRecord
100
AcDbLayerTableRecord
  2
U3
 70
     0
 62
     6
  6
CONTINUOUS
370
    -3
390
20910
  0
LAYER
  5
2092C
330
20903
100
AcDbSymbolTableRecord
100
AcDbLayerTableRecord
  2
HIKIDASHI
 70
     0
 62
     6
  6
CONTINUOUS
370
    -3
390
20910
  0
LAYER
  5
2092D
330
20903
100
AcDbSymbolTableRecord
100
AcDbLayerTableRecord
  2
HIDE-S1
 70
     0
 62
     6
  6
HIDE-S
370
    -3
390
20910
  0
LAYER
  5
2092E
330
20903
100
AcDbSymbolTableRecord
100
AcDbLayerTableRecord
  2
1PL-S1
 70
     0
 62
     6
  6
1PL-S
370
    -3
390
20910
  0
LAYER
  5
2092F
330
20903
100
AcDbSymbolTableRecord
100
AcDbLayerTableRecord
  2
1PL-S2
 70
     0
 62
     1
  6
1PL-S
370
    -3
390
20910
  0
LAYER
  5
20930
330
20903
100
AcDbSymbolTableRecord
100
AcDbLayerTableRecord
  2
1PL-M1
 70
     0
 62
     6
  6
1PL-M
370
    -3
390
20910
  0
LAYER
  5
20931
330
20903
100
AcDbSymbolTableRecord
100
AcDbLayerTableRecord
  2
YANE
 70
     0
 62
     1
  6
CONTINUOUS
370
    -3
390
20910
  0
LAYER
  5
20932
330
20903
100
AcDbSymbolTableRecord
100
AcDbLayerTableRecord
  2
KISO
 70
     0
 62
     2
  6
CONTINUOUS
370
    -3
390
20910
  0
LAYER
  5
20933
330
20903
100
AcDbSymbolTableRecord
100
AcDbLayerTableRecord
  2
HATCH
 70
     0
 62
     1
  6
CONTINUOUS
370
    -3
390
20910
  0
LAYER
  5
20934
330
20903
100
AcDbSymbolTableRecord
100
AcDbLayerTableRecord
  2
HARI
 70
     0
 62
     3
  6
CONTINUOUS
370
    -3
390
20910
  0
LAYER
  5
20935
330
20903
100
AcDbSymbolTableRecord
100
AcDbLayerTableRecord
  2
CAP
 70
     0
 62
     2
  6
CONTINUOUS
370
    -3
390
20910
  0
LAYER
  5
20936
330
20903
100
AcDbSymbolTableRecord
100
AcDbLayerTableRecord
  2
HANA_JYUSHI
 70
     0
 62
     1
  6
CONTINUOUS
370
    -3
390
20910
  0
LAYER
  5
20937
330
20903
100
AcDbSymbolTableRecord
100
AcDbLayerTableRecord
  2
KERABA_JYUSHI
 70
     0
 62
     3
  6
CONTINUOUS
370
    -3
390
20910
  0
LAYER
  5
20938
330
20903
100
AcDbSymbolTableRecord
100
AcDbLayerTableRecord
  2
TOI
 70
     0
 62
     4
  6
CONTINUOUS
370
    -3
390
20910
  0
LAYER
  5
20939
330
20903
100
AcDbSymbolTableRecord
100
AcDbLayerTableRecord
  2
HANA
 70
     0
 62
     3
  6
CONTINUOUS
370
    -3
390
20910
  0
LAYER
  5
2093A
330
20903
100
AcDbSymbolTableRecord
100
AcDbLayerTableRecord
  2
NAME
 70
     0
 62
    20
  6
CONTINUOUS
370
    -3
390
20910
  0
LAYER
  5
2093B
330
20903
100
AcDbSymbolTableRecord
100
AcDbLayerTableRecord
  2
FILENAME
 70
     0
 62
     7
  6
CONTINUOUS
370
    -3
390
20910
  0
LAYER
  5
2093C
330
20903
100
AcDbSymbolTableRecord
100
AcDbLayerTableRecord
  2
MOYA
 70
     0
 62
     4
  6
CONTINUOUS
370
    -3
390
20910
  0
LAYER
  5
2093D
330
20903
100
AcDbSymbolTableRecord
100
AcDbLayerTableRecord
  2
KERABA
 70
     0
 62
     2
  6
CONTINUOUS
370
    -3
390
20910
  0
LAYER
  5
2093E
330
20903
100
AcDbSymbolTableRecord
100
AcDbLayerTableRecord
  2
HASHIRA
 70
     0
 62
     3
  6
CONTINUOUS
370
    -3
390
20910
  0
LAYER
  5
2093F
330
20903
100
AcDbSymbolTableRecord
100
AcDbLayerTableRecord
  2
HARI_CAP
 70
     0
 62
     2
  6
CONTINUOUS
370
    -3
390
20910
  0
LAYER
  5
20940
330
20903
100
AcDbSymbolTableRecord
100
AcDbLayerTableRecord
  2
MOYA_KANGU
 70
     0
 62
     4
  6
CONTINUOUS
370
    -3
390
20910
  0
LAYER
  5
20941
330
20903
100
AcDbSymbolTableRecord
100
AcDbLayerTableRecord
  2
YANE_UKE
 70
     0
 62
     6
  6
CONTINUOUS
370
    -3
390
20910
  0
LAYER
  5
20942
330
20903
100
AcDbSymbolTableRecord
100
AcDbLayerTableRecord
  2
HANA_KAKUSHI
 70
     0
 62
     3
  6
CONTINUOUS
370
    -3
390
20910
  0
LAYER
  5
20943
330
20903
100
AcDbSymbolTableRecord
100
AcDbLayerTableRecord
  2
YODOROGO
 70
     0
 62
   130
  6
CONTINUOUS
370
    -3
390
20910
  0
LAYER
  5
20944
330
20903
100
AcDbSymbolTableRecord
100
AcDbLayerTableRecord
  2
WAKUSEN-01
 70
     0
 62
    50
  6
CONTINUOUS
370
    -3
390
20910
  0
LAYER
  5
20945
330
20903
100
AcDbSymbolTableRecord
100
AcDbLayerTableRecord
  2
WAKUSEN-02
 70
     0
 62
   130
  6
CONTINUOUS
370
    -3
390
20910
  0
LAYER
  5
20946
330
20903
100
AcDbSymbolTableRecord
100
AcDbLayerTableRecord
  2
WAKUMOJI-01
 70
     0
 62
   130
  6
CONTINUOUS
370
    -3
390
20910
  0
ENDTAB
  0
TABLE
  2
STYLE
  5
20904
330
0
100
AcDbSymbolTable
 70
     5
  0
STYLE
  5
20912
330
20904
100
AcDbSymbolTableRecord
100
AcDbTextStyleTableRecord
  2
STANDARD
 70
     0
 40
3.0
 41
1.0
 50
0.0
 71
     0
 42
0.2
  3
ROMANS
  4
EXTFONT
  0
STYLE
  5
20924
330
20904
100
AcDbSymbolTableRecord
100
AcDbTextStyleTableRecord
  2
00
 70
     0
 40
0.0
 41
0.6666666666666666
 50
0.0
 71
     0
 42
0.2
  3
ROMANS
  4
BIGFONT
  0
STYLE
  5
20947
330
20904
100
AcDbSymbolTableRecord
100
AcDbTextStyleTableRecord
  2
01
 70
     0
 40
3.0
 41
1.0
 50
0.0
 71
     0
 42
0.2
  3
ROMANS
  4
BIGFONT
  0
STYLE
  5
20948
330
20904
100
AcDbSymbolTableRecord
100
AcDbTextStyleTableRecord
  2
WAKUMOJI
 70
     0
 40
3.0
 41
1.0
 50
0.0
 71
     0
 42
3.0
  3
SIMPLEX
  4
BIGFONT
  0
STYLE
  5
20949
330
20904
100
AcDbSymbolTableRecord
100
AcDbTextStyleTableRecord
  2
FILENAME
 70
     0
 40
75.0
 41
1.0
 50
0.0
 71
     0
 42
75.0
  3
romans
  4
bigfont
  0
ENDTAB
  0
TABLE
  2
VIEW
  5
20907
330
0
100
AcDbSymbolTable
 70
     0
  0
ENDTAB
  0
TABLE
  2
UCS
  5
20908
330
0
100
AcDbSymbolTable
 70
     0
  0
ENDTAB
  0
TABLE
  2
APPID
  5
2090A
330
0
100
AcDbSymbolTable
 70
     4
  0
APPID
  5
20913
330
2090A
100
AcDbSymbolTableRecord
100
AcDbRegAppTableRecord
  2
ACAD
 70
     0
  0
APPID
  5
2094A
330
2090A
100
AcDbSymbolTableRecord
100
AcDbRegAppTableRecord
  2
AUTOCAD_POSTSCRIPT_FIGURE
 70
     0
  0
APPID
  5
2094B
330
2090A
100
AcDbSymbolTableRecord
100
AcDbRegAppTableRecord
  2
ACAD_PSEXT
 70
     0
  0
APPID
  5
2094C
330
2090A
100
AcDbSymbolTableRecord
100
AcDbRegAppTableRecord
  2
ACAD_EXEMPT_FROM_CAD_STANDARDS
 70
     0
  0
ENDTAB
  0
TABLE
  2
DIMSTYLE
  5
2090B
330
0
100
AcDbSymbolTable
 70
     1
100
AcDbDimStyleTable
 71
     0
  0
DIMSTYLE
105
2094D
330
2090B
100
AcDbSymbolTableRecord
100
AcDbDimStyleTableRecord
  2
SUNPOU
 70
     0
 40
30.0
 41
0.5
 42
1.0
 43
7.0
 44
1.5
 46
3.0
 73
     0
 74
     0
 77
     1
 78
     8
140
3.0
141
0.0
147
1.5
172
     1
173
     1
176
   256
177
   256
178
   256
271
     2
272
     2
279
     2
284
     8
285
     8
286
     8
340
20924
  0
ENDTAB
  0
TABLE
  2
BLOCK_RECORD
  5
20902
330
0
100
AcDbSymbolTable
 70
     3
  0
BLOCK_RECORD
  5
2091F
330
20902
100
AcDbSymbolTableRecord
100
AcDbBlockTableRecord
  2
*Model_Space
340
20922
  0
BLOCK_RECORD
  5
2091B
330
20902
100
AcDbSymbolTableRecord
100
AcDbBlockTableRecord
  2
*Paper_Space
340
2091E
  0
BLOCK_RECORD
  5
20952
330
20902
100
AcDbSymbolTableRecord
100
AcDbBlockTableRecord
  2
$MODEL_SPACE
340
0
  0
BLOCK_RECORD
  5
20955
330
20902
100
AcDbSymbolTableRecord
100
AcDbBlockTableRecord
  2
$PAPER_SPACE
340
0
  0
BLOCK_RECORD
  5
20958
330
20902
100
AcDbSymbolTableRecord
100
AcDbBlockTableRecord
  2
DOT
340
0
  0
ENDTAB
  0
ENDSEC
  0
SECTION
  2
BLOCKS
  0
BLOCK
  5
20920
330
2091F
100
AcDbEntity
  8
0
100
AcDbBlockBegin
  2
*Model_Space
 70
     0
 10
0.0
 20
0.0
 30
0.0
  3
*Model_Space
  1

  0
ENDBLK
  5
20921
330
2091F
100
AcDbEntity
  8
0
100
AcDbBlockEnd
  0
BLOCK
  5
2091C
330
2091B
100
AcDbEntity
 67
     1
  8
0
100
AcDbBlockBegin
  2
*Paper_Space
 70
     0
 10
0.0
 20
0.0
 30
0.0
  3
*Paper_Space
  1

  0
ENDBLK
  5
2091D
330
2091B
100
AcDbEntity
 67
     1
  8
0
100
AcDbBlockEnd
  0
BLOCK
  5
20953
330
20952
100
AcDbEntity
  8
0
100
AcDbBlockBegin
  2
$MODEL_SPACE
 70
     0
 10
0.0
 20
0.0
 30
0.0
  3
$MODEL_SPACE
  1

  0
ENDBLK
  5
20954
330
20952
100
AcDbEntity
  8
0
100
AcDbBlockEnd
  0
BLOCK
  5
20956
330
20955
100
AcDbEntity
  8
0
100
AcDbBlockBegin
  2
$PAPER_SPACE
 70
     0
 10
0.0
 20
0.0
 30
0.0
  3
$PAPER_SPACE
  1

  0
ENDBLK
  5
20957
330
20955
100
AcDbEntity
  8
0
100
AcDbBlockEnd
  0
BLOCK
  5
20959
330
20958
100
AcDbEntity
  8
0
100
AcDbBlockBegin
  2
DOT
 70
     0
 10
0.0
 20
0.0
 30
0.0
  3
DOT
  1

  0
LWPOLYLINE
  5
2095A
330
20958
100
AcDbEntity
  8
0
  6
ByBlock
 62
     0
100
AcDbPolyline
 90
        2
 70
     1
 43
0.75
 10
-0.375
 20
0.0
 42
1.0
 10
0.375
 20
0.0
 42
1.0
  0
LINE
  5
2095E
330
20958
100
AcDbEntity
  8
0
  6
ByBlock
 62
     0
100
AcDbLine
 10
-0.75
 20
0.0
 30
0.0
 11
-1.5
 21
0.0
 31
0.0
  0
ENDBLK
  5
2095F
330
20958
100
AcDbEntity
  8
0
100
AcDbBlockEnd
  0
ENDSEC
  0
SECTION
  2
ENTITIES
  0
LINE
  5
20960
330
2091F
100
AcDbEntity
  8
U3
100
AcDbLine
 10
1400.884030123904
 20
1736.805063765603
 30
0.0
 11
939.523640430697
 21
1736.805063765603
 31
0.0
  0
LINE
  5
20961
330
2091F
100
AcDbEntity
  8
KISO
100
AcDbLine
 10
4000.884030123905
 20
1736.805063765603
 30
0.0
 11
4000.884030123905
 21
1786.805063765605
 31
0.0
  0
LINE
  5
20962
330
2091F
100
AcDbEntity
  8
KISO
100
AcDbLine
 10
1400.884030123904
 20
1786.805063765603
 30
0.0
 11
1400.884030123904
 21
1736.805063765603
 31
0.0
  0
LINE
  5
20963
330
2091F
100
AcDbEntity
  8
U3
100
AcDbLine
 10
4462.244419817111
 20
1736.805063765605
 30
0.0
 11
4000.884030123905
 21
1736.805063765605
 31
0.0
  0
LINE
  5
20964
330
2091F
100
AcDbEntity
  8
SUNPOU
100
AcDbLine
 10
1025.417213414279
 20
1826.805063765603
 30
0.0
 11
1077.378737641345
 21
1736.805063765603
 31
0.0
  0
LINE
  5
20965
330
2091F
100
AcDbEntity
  8
SUNPOU
100
AcDbLine
 10
1129.340261868412
 20
1826.805063765603
 30
0.0
 11
1025.417213414279
 21
1826.805063765603
 31
0.0
  0
LINE
  5
20966
330
2091F
100
AcDbEntity
  8
SUNPOU
100
AcDbLine
 10
1077.378737641345
 20
1736.805063765603
 30
0.0
 11
1129.340261868412
 21
1826.805063765603
 31
0.0
  0
TEXT
  5
20967
330
2091F
100
AcDbEntity
  8
SUNPOU
100
AcDbText
 10
1005.950166212773
 20
1871.805063765603
 30
0.0
 40
90.0
  1
G.L
 41
0.6666666666666666
  7
00
 72
     4
 11
1077.378737641345
 21
1916.805063765603
 31
0.0
100
AcDbText
  0
TEXT
  5
20968
330
2091F
100
AcDbEntity
  8
SUNPOU
100
AcDbText
 10
1649.106478313283
 20
1921.805063765603
 30
0.0
 40
90.0
  1
F.L
 41
0.6666666666666666
  7
00
 72
     4
 11
1717.677906884712
 21
1966.805063765603
 31
0.0
100
AcDbText
  0
LINE
  5
20969
330
2091F
100
AcDbEntity
  8
SUNPOU
100
AcDbLine
 10
1717.677906884712
 20
1786.805063765603
 30
0.0
 11
1769.639431111778
 21
1876.805063765603
 31
0.0
  0
LINE
  5
2096A
330
2091F
100
AcDbEntity
  8
SUNPOU
100
AcDbLine
 10
1665.716382657645
 20
1876.805063765603
 30
0.0
 11
1717.677906884712
 21
1786.805063765603
 31
0.0
  0
LINE
  5
2096B
330
2091F
100
AcDbEntity
  8
SUNPOU
100
AcDbLine
 10
1769.639431111778
 20
1876.805063765603
 30
0.0
 11
1665.716382657645
 21
1876.805063765603
 31
0.0
  0
LINE
  5
2096C
330
2091F
100
AcDbEntity
  8
KISO
100
AcDbLine
 10
4000.884030123905
 20
1786.805063765605
 30
0.0
 11
1400.884030123904
 21
1786.805063765603
 31
0.0
  0
LINE
  5
2096D
330
2091F
100
AcDbEntity
  8
KISO
100
AcDbLine
 10
1400.884030123904
 20
1736.805063765603
 30
0.0
 11
4000.884030123905
 21
1736.805063765603
 31
0.0
  0
LINE
  5
2096E
330
2091F
100
AcDbEntity
  8
SUNPOU
100
AcDbLine
 10
4030.884030123905
 20
1786.805063765605
 30
0.0
 11
4455.884030123905
 21
1786.805063765605
 31
0.0
  0
LINE
  5
2096F
330
2091F
100
AcDbEntity
  8
SUNPOU
100
AcDbLine
 10
4030.884030123905
 20
1786.805063765605
 30
0.0
 11
4455.884030123905
 21
1786.805063765605
 31
0.0
  0
LINE
  5
20970
330
2091F
100
AcDbEntity
  8
SUNPOU
100
AcDbLine
 10
4410.884030123905
 20
1721.805063765605
 30
0.0
 11
4410.884030123905
 21
1706.805063765605
 31
0.0
  0
LINE
  5
20971
330
2091F
100
AcDbEntity
  8
SUNPOU
100
AcDbLine
 10
4410.884030123905
 20
1786.805063765605
 30
0.0
 11
4410.884030123905
 21
1606.962206622747
 31
0.0
  0
TEXT
  5
20972
330
2091F
100
AcDbEntity
  8
SUNPOU
100
AcDbText
 10
4365.884030123905
 20
1598.390778051319
 30
0.0
 40
90.0
  1
50
 50
90.0
 41
0.6666666666666666
  7
00
 72
     1
 11
4320.884030123905
 21
1655.533635194176
 31
0.0
100
AcDbText
 73
     2
  0
CIRCLE
  5
20973
330
2091F
100
AcDbEntity
  8
HARI
100
AcDbCircle
 10
2802.647083943633
 20
3808.047672138153
 30
0.0
 40
6.0
  0
CIRCLE
  5
20974
330
2091F
100
AcDbEntity
  8
HARI
100
AcDbCircle
 10
3401.894006393527
 20
3777.995618392491
 30
0.0
 40
6.0
  0
ARC
  5
20975
330
2091F
100
AcDbEntity
  8
CAP
100
AcDbCircle
 10
2187.695720721078
 20
3844.394210772819
 30
0.0
 40
40.0
100
AcDbArc
 50
134.9514487464334
 51
219.3066292833703
  0
ARC
  5
20976
330
2091F
100
AcDbEntity
  8
CAP
100
AcDbCircle
 10
2168.307086219149
 20
3812.825702024284
 30
0.0
 40
5.0
100
AcDbArc
 50
219.3066292833703
 51
267.1290390148902
  0
LINE
  5
20977
330
2091F
100
AcDbEntity
  8
CAP
100
AcDbLine
 10
2164.438251616187
 20
3809.658350004863
 30
0.0
 11
2156.745043897381
 21
3819.055394617463
 31
0.0
  0
LINE
  5
20978
330
2091F
100
AcDbEntity
  8
CAP
100
AcDbLine
 10
2170.836294300728
 20
3807.692579463342
 30
0.0
 11
2168.056652437936
 21
3807.831977670533
 31
0.0
  0
LINE
  5
20979
330
2091F
100
AcDbEntity
  8
CAP
100
AcDbLine
 10
2163.582691632752
 20
3876.842681207413
 30
0.0
 11
2159.435427129568
 21
3872.702439366669
 31
0.0
  0
CIRCLE
  5
2097A
330
2091F
100
AcDbEntity
  8
CAP
100
AcDbCircle
 10
2187.695720721078
 20
3844.394210772819
 30
0.0
 40
1.5
  0
LINE
  5
2097B
330
2091F
100
AcDbEntity
  8
CAP
100
AcDbLine
 10
3489.179523690491
 20
3741.578061222892
 30
0.0
 11
3492.203023970287
 21
3801.867559339284
 31
0.0
  0
ARC
  5
2097C
330
2091F
100
AcDbEntity
  8
CAP
100
AcDbCircle
 10
3476.076603988348
 20
3779.782295219653
 30
0.0
 40
40.0
100
AcDbArc
 50
314.9514487464333
 51
22.03183315050202
  0
ARC
  5
2097D
330
2091F
100
AcDbEntity
  8
CAP
100
AcDbCircle
 10
3492.209599334497
 20
3746.432387369451
 30
0.0
 40
5.0
100
AcDbArc
 50
267.1290390148902
 51
314.9514487464333
  0
LINE
  5
2097E
330
2091F
100
AcDbEntity
  8
CAP
100
AcDbLine
 10
3495.742136033438
 20
3742.893858795219
 30
0.0
 11
3504.336897579857
 21
3751.474066625801
 31
0.0
  0
LINE
  5
2097F
330
2091F
100
AcDbEntity
  8
CAP
100
AcDbLine
 10
3489.179523690491
 20
3741.578061222892
 30
0.0
 11
3491.959165553285
 21
3741.438663015701
 31
0.0
  0
CIRCLE
  5
20980
330
2091F
100
AcDbEntity
  8
CAP
100
AcDbCircle
 10
3476.076603988348
 20
3779.782295219653
 30
0.0
 40
1.5
  0
LINE
  5
20981
330
2091F
100
AcDbEntity
  8
U1
100
AcDbLine
 10
2839.034030123904
 20
3770.978641609911
 30
0.0
 11
2839.034030123904
 21
3505.055063765604
 31
0.0
  0
LINE
  5
20982
330
2091F
100
AcDbEntity
  8
U1
100
AcDbLine
 10
2762.734030123905
 20
1786.805063765603
 30
0.0
 11
2762.734030123905
 21
3774.805063765604
 31
0.0
  0
LINE
  5
20983
330
2091F
100
AcDbEntity
  8
U1
100
AcDbLine
 10
2839.034030123904
 20
3505.055063765604
 30
0.0
 11
3150.234030123905
 21
3505.055063765604
 31
0.0
  0
LINE
  5
20984
330
2091F
100
AcDbEntity
  8
U1
100
AcDbLine
 10
2839.034030123904
 20
3444.555063765605
 30
0.0
 11
3150.234030123905
 21
3444.555063765605
 31
0.0
  0
ARC
  5
20985
330
2091F
100
AcDbEntity
  8
U1
100
AcDbCircle
 10
2839.034030123904
 20
3474.805063765605
 30
0.0
 40
30.25
100
AcDbArc
 50
90.0
 51
270.0
  0
LINE
  5
20986
330
2091F
100
AcDbEntity
  8
U1
100
AcDbLine
 10
2839.034030123904
 20
3444.555063765605
 30
0.0
 11
2839.034030123904
 21
1786.805063765603
 31
0.0
  0
LINE
  5
20987
330
2091F
100
AcDbEntity
  8
1PL-M1
100
AcDbLine
 10
2800.884030123905
 20
1679.46006769013
 30
0.0
 11
2800.884030123905
 21
3772.891852687757
 31
0.0
  0
LINE
  5
20988
330
2091F
100
AcDbEntity
  8
U1
100
AcDbLine
 10
3430.734030123903
 20
3725.055063765607
 30
0.0
 11
3430.734030123903
 21
3741.305063765556
 31
0.0
  0
LINE
  5
20989
330
2091F
100
AcDbEntity
  8
1PL-S1
100
AcDbLine
 10
2788.244865859422
 20
3474.805063765605
 30
0.0
 11
3150.234030123905
 21
3474.805063765605
 31
0.0
  0
LINE
  5
2098A
330
2091F
100
AcDbEntity
  8
U1
100
AcDbLine
 10
3370.234030123905
 20
3725.055063765607
 30
0.0
 11
3370.234030123905
 21
3744.339120651788
 31
0.0
  0
ARC
  5
2098B
330
2091F
100
AcDbEntity
  8
U1
100
AcDbCircle
 10
3150.234030123905
 20
3725.055063765607
 30
0.0
 40
220.0
100
AcDbArc
 50
270.0
 51
0.0
  0
ARC
  5
2098C
330
2091F
100
AcDbEntity
  8
U1
100
AcDbCircle
 10
3150.234030123905
 20
3725.055063765607
 30
0.0
 40
280.5
100
AcDbArc
 50
270.0
 51
0.0
  0
ARC
  5
2098D
330
2091F
100
AcDbEntity
  8
1PL-S1
100
AcDbCircle
 10
3150.234030123905
 20
3725.055063765607
 30
0.0
 40
250.2499999999999
100
AcDbArc
 50
270.0
 51
0.0
  0
LINE
  5
2098E
330
2091F
100
AcDbEntity
  8
1PL-M1
100
AcDbLine
 10
3400.484030123905
 20
3725.055063765607
 30
0.0
 11
3400.484030123905
 21
3742.822092208673
 31
0.0
  0
LINE
  5
2098F
330
2091F
100
AcDbEntity
  8
1PL-S1
100
AcDbLine
 10
3400.484030123906
 20
3742.822092208673
 30
0.0
 11
3404.975801130642
 21
3832.389346910821
 31
0.0
  0
LINE
  5
20990
330
2091F
100
AcDbEntity
  8
U1
100
AcDbLine
 10
3362.542190924751
 20
3814.812833545237
 30
0.0
 11
3359.036117987788
 21
3744.900692592747
 31
0.0
  0
LINE
  5
20991
330
2091F
100
AcDbEntity
  8
U1
100
AcDbLine
 10
3359.036117987788
 20
3744.900692592747
 30
0.0
 11
3441.931942260023
 21
3740.743491824596
 31
0.0
  0
LINE
  5
20992
330
2091F
100
AcDbEntity
  8
U1
100
AcDbLine
 10
3441.931942260023
 20
3740.743491824596
 30
0.0
 11
3445.438015196984
 21
3810.655632777085
 31
0.0
  0
LINE
  5
20993
330
2091F
100
AcDbEntity
  8
U1
100
AcDbLine
 10
3445.438015196984
 20
3810.655632777085
 30
0.0
 11
3362.542190924751
 21
3814.812833545237
 31
0.0
  0
CIRCLE
  5
20994
330
2091F
100
AcDbEntity
  8
U1
100
AcDbCircle
 10
3402.247083943636
 20
3777.977911659064
 30
0.0
 40
6.0
  0
LINE
  5
20995
330
2091F
100
AcDbEntity
  8
1PL-S1
100
AcDbLine
 10
2800.884030123905
 20
3772.891852687757
 30
0.0
 11
2805.990510216306
 21
3874.716590053427
 31
0.0
  0
LINE
  5
20996
330
2091F
100
AcDbEntity
  8
U1
100
AcDbLine
 10
2752.954742217252
 20
3845.383461586749
 30
0.0
 11
2855.825463904483
 21
3840.224525693744
 31
0.0
  0
LINE
  5
20997
330
2091F
100
AcDbEntity
  8
U1
100
AcDbLine
 10
2855.825463904483
 20
3840.224525693744
 30
0.0
 11
2852.31939096752
 21
3770.312384741256
 31
0.0
  0
LINE
  5
20998
330
2091F
100
AcDbEntity
  8
U1
100
AcDbLine
 10
2852.31939096752
 20
3770.312384741256
 30
0.0
 11
2749.448669280289
 21
3775.47132063426
 31
0.0
  0
LINE
  5
20999
330
2091F
100
AcDbEntity
  8
U1
100
AcDbLine
 10
2749.448669280289
 20
3775.47132063426
 30
0.0
 11
2752.954742217252
 21
3845.383461586749
 31
0.0
  0
CIRCLE
  5
2099A
330
2091F
100
AcDbEntity
  8
U1
100
AcDbCircle
 10
2802.647083943633
 20
3808.047672138151
 30
0.0
 40
6.0
  0
LINE
  5
2099B
330
2091F
100
AcDbEntity
  8
U1
100
AcDbLine
 10
1864.980620228526
 20
3989.940642931455
 30
0.0
 11
3427.988608712286
 21
3911.556260274631
 31
0.0
  0
LINE
  5
2099C
330
2091F
100
AcDbEntity
  8
U1
100
AcDbLine
 10
1860.07211811669
 20
3892.063645597974
 30
0.0
 11
3423.080106600449
 21
3813.679262941152
 31
0.0
  0
ARC
  5
2099D
330
2091F
100
AcDbEntity
  8
U1
100
AcDbCircle
 10
1845.547706369861
 20
3941.853619120852
 30
0.0
 40
44.0
100
AcDbArc
 50
87.12903901486411
 51
267.129039014864
  0
ARC
  5
2099E
330
2091F
100
AcDbEntity
  8
U1
100
AcDbCircle
 10
1858.22488864392
 20
3895.160053722713
 30
0.0
 40
2.0
100
AcDbArc
 50
357.1290390149096
 51
87.12903901486411
  0
LINE
  5
2099F
330
2091F
100
AcDbEntity
  8
U1
100
AcDbLine
 10
1843.343889095159
 20
3897.90884480786
 30
0.0
 11
1858.325062156406
 21
3897.15754346421
 31
0.0
  0
LINE
  5
209A0
330
2091F
100
AcDbEntity
  8
U1
100
AcDbLine
 10
1860.222378385419
 20
3895.059880210225
 30
0.0
 11
1860.07211811669
 21
3892.063645597974
 31
0.0
  0
ARC
  5
209A1
330
2091F
100
AcDbEntity
  8
U1
100
AcDbCircle
 10
1862.832870218295
 20
3987.044581831695
 30
0.0
 40
2.0
100
AcDbArc
 50
267.129039014864
 51
357.1290390149096
  0
LINE
  5
209A2
330
2091F
100
AcDbEntity
  8
U1
100
AcDbLine
 10
1847.751523644562
 20
3985.798393433841
 30
0.0
 11
1862.73269670581
 21
3985.047092090193
 31
0.0
  0
LINE
  5
209A3
330
2091F
100
AcDbEntity
  8
U1
100
AcDbLine
 10
1864.830359959796
 20
3986.944408319207
 30
0.0
 11
1864.980620228526
 21
3989.940642931455
 31
0.0
  0
ARC
  5
209A4
330
2091F
100
AcDbEntity
  8
U1
100
AcDbCircle
 10
3408.304513508699
 20
3519.04952606996
 30
0.0
 40
393.0
100
AcDbArc
 50
14.12903901489089
 51
87.12903901486411
  0
ARC
  5
209A5
330
2091F
100
AcDbEntity
  8
U1
100
AcDbCircle
 10
3408.304513508699
 20
3519.04952606996
 30
0.0
 40
295.0
100
AcDbArc
 50
16.07164098912988
 51
87.12903901486411
  0
ARC
  5
209A6
330
2091F
100
AcDbEntity
  8
U1
100
AcDbCircle
 10
3705.358751650077
 20
3604.136420491169
 30
0.0
 40
10.0
100
AcDbArc
 50
203.7231072416865
 51
285.0564385430727
  0
ARC
  5
209A7
330
2091F
100
AcDbEntity
  8
U1
100
AcDbCircle
 10
3694.372746677696
 20
3599.308616151022
 30
0.0
 40
2.0
100
AcDbArc
 50
23.72310724168665
 51
104.1290390148503
  0
LINE
  5
209A8
330
2091F
100
AcDbEntity
  8
U1
100
AcDbLine
 10
3691.774820711232
 20
3600.717052875307
 30
0.0
 11
3693.884533603219
 21
3601.248112991418
 31
0.0
  0
LINE
  5
209A9
330
2091F
100
AcDbEntity
  8
U1
100
AcDbLine
 10
3707.799817022459
 20
3594.438936289185
 30
0.0
 11
3789.415642646744
 21
3614.983395204505
 31
0.0
  0
LINE
  5
209AA
330
2091F
100
AcDbEntity
  8
1PL-S2
100
AcDbLine
 10
3714.507585482971
 20
3593.033840039345
 30
0.0
 11
3710.601880887163
 21
3608.549814762521
 31
0.0
  0
LINE
  5
209AB
330
2091F
100
AcDbEntity
  8
1PL-S2
100
AcDbLine
 10
3704.796745823478
 20
3598.838975103028
 30
0.0
 11
3720.312720546655
 21
3602.744679698838
 31
0.0
  0
CIRCLE
  5
209AC
330
2091F
100
AcDbEntity
  8
U1
100
AcDbCircle
 10
3712.554733185065
 20
3600.791827400932
 30
0.0
 40
2.5
  0
LINE
  5
209AD
330
2091F
100
AcDbEntity
  8
1PL-S2
100
AcDbLine
 10
3761.042154194999
 20
3612.997154262831
 30
0.0
 11
3776.558128918173
 21
3616.90285885864
 31
0.0
  0
LINE
  5
209AE
330
2091F
100
AcDbEntity
  8
1PL-S2
100
AcDbLine
 10
3770.752993854488
 20
3607.192019199145
 30
0.0
 11
3766.847289258681
 21
3622.707993922321
 31
0.0
  0
CIRCLE
  5
209AF
330
2091F
100
AcDbEntity
  8
U1
100
AcDbCircle
 10
3768.800141556583
 20
3614.950006560736
 30
0.0
 40
2.5
  0
LINE
  5
209B0
330
2091F
100
AcDbEntity
  8
U1
100
AcDbLine
 10
3427.017598081211
 20
3911.604956167058
 30
0.0
 11
3426.979505288187
 21
3910.805861143961
 31
0.0
  0
LINE
  5
209B1
330
2091F
100
AcDbEntity
  8
U1
100
AcDbLine
 10
3429.015020510753
 20
3911.503440434079
 30
0.0
 11
3428.972861717876
 21
3910.704552058782
 31
0.0
  0
LINE
  5
209B2
330
2091F
100
AcDbEntity
  8
U1
100
AcDbLine
 10
3477.793449075878
 20
3905.857343769838
 30
0.0
 11
3477.651995771923
 21
3905.069948721084
 31
0.0
  0
LINE
  5
209B3
330
2091F
100
AcDbEntity
  8
U1
100
AcDbLine
 10
3495.138865049784
 20
3902.336357819293
 30
0.0
 11
3494.962103011022
 21
3901.556130171965
 31
0.0
  0
ARC
  5
209B4
330
2091F
100
AcDbEntity
  8
HANA_JYUSHI
100
AcDbCircle
 10
1846.546451240611
 20
3941.803532364608
 30
0.0
 40
50.0
100
AcDbArc
 50
87.12903901486411
 51
267.129039014864
  0
LINE
  5
209B5
330
2091F
100
AcDbEntity
  8
HANA_JYUSHI
100
AcDbLine
 10
1861.020776231195
 20
3891.014813970984
 30
0.0
 11
1844.042113428449
 21
3891.866288827116
 31
0.0
  0
LINE
  5
209B6
330
2091F
100
AcDbEntity
  8
HANA_JYUSHI
100
AcDbLine
 10
1861.070862987439
 20
3892.013558841732
 30
0.0
 11
1861.020776231195
 21
3891.014813970984
 31
0.0
  0
LINE
  5
209B7
330
2091F
100
AcDbEntity
  8
HANA_JYUSHI
100
AcDbLine
 10
1849.050789052769
 20
3991.740775902098
 30
0.0
 11
1866.029451855517
 21
3990.889301045963
 31
0.0
  0
LINE
  5
209B8
330
2091F
100
AcDbEntity
  8
HANA_JYUSHI
100
AcDbLine
 10
1865.979365099275
 20
3989.890556175215
 30
0.0
 11
1866.029451855517
 21
3990.889301045963
 31
0.0
  0
LINE
  5
209B9
330
2091F
100
AcDbEntity
  8
KERABA_JYUSHI
100
AcDbLine
 10
3786.513075114902
 20
3610.127975374769
 30
0.0
 11
3708.933201499017
 21
3590.599452395716
 31
0.0
  0
LINE
  5
209BA
330
2091F
100
AcDbEntity
  8
KERABA_JYUSHI
100
AcDbLine
 10
3789.415642646744
 20
3614.983395204516
 30
0.0
 11
3707.956775350064
 21
3594.478446076511
 31
0.0
  0
ARC
  5
209BB
330
2091F
100
AcDbEntity
  8
KERABA_JYUSHI
100
AcDbCircle
 10
3705.515709977684
 20
3604.175930278496
 30
0.0
 40
14.0
100
AcDbArc
 50
194.1290390148908
 51
284.1290390148572
  0
ARC
  5
209BC
330
2091F
100
AcDbEntity
  8
KERABA_JYUSHI
100
AcDbCircle
 10
3705.515709977684
 20
3604.175930278496
 30
0.0
 40
10.0
100
AcDbArc
 50
199.3449475853592
 51
284.1290390148572
  0
LINE
  5
209BD
330
2091F
100
AcDbEntity
  8
KERABA_JYUSHI
100
AcDbLine
 10
3691.939232094904
 20
3600.758438757163
 30
0.0
 11
3694.892648280728
 21
3601.5018771409
 31
0.0
  0
LINE
  5
209BE
330
2091F
100
AcDbEntity
  8
KERABA_JYUSHI
100
AcDbLine
 10
3691.939232094904
 20
3600.758438757163
 30
0.0
 11
3691.939232094904
 21
3600.758438757163
 31
0.0
  0
ARC
  5
209BF
330
2091F
100
AcDbEntity
  8
KERABA_JYUSHI
100
AcDbCircle
 10
3695.136754817966
 20
3600.532128720703
 30
0.0
 40
1.0
100
AcDbArc
 50
19.3449475853592
 51
104.1290390148573
  0
ARC
  5
209C0
330
2091F
100
AcDbEntity
  8
KERABA_JYUSHI
100
AcDbCircle
 10
3785.536648965949
 20
3614.006969055565
 30
0.0
 40
4.0
100
AcDbArc
 50
284.1290390148572
 51
14.12903901489089
  0
LINE
  5
209C1
330
2091F
100
AcDbEntity
  8
KERABA_JYUSHI
100
AcDbLine
 10
3787.193177030867
 20
3614.423952802423
 30
0.0
 11
3787.193177030867
 21
3614.423952802423
 31
0.0
  0
LINE
  5
209C2
330
2091F
100
AcDbEntity
  8
SUNPOU
100
AcDbLine
 10
3815.612987015338
 20
3608.805063765604
 30
0.0
 11
4440.884030123905
 21
3608.805063765604
 31
0.0
  0
LINE
  5
209C3
330
2091F
100
AcDbEntity
  8
SUNPOU
100
AcDbLine
 10
4380.884030123905
 20
1786.805063765605
 30
0.0
 11
4380.884030123905
 21
1786.805063765605
 31
0.0
  0
LINE
  5
209C4
330
2091F
100
AcDbEntity
  8
SUNPOU
100
AcDbLine
 10
4410.884030123905
 20
3593.805063765606
 30
0.0
 11
4410.884030123905
 21
1801.805063765605
 31
0.0
  0
TEXT
  5
209C5
330
2091F
100
AcDbEntity
  8
SUNPOU
100
AcDbText
 10
4365.884030123905
 20
2579.233635194176
 30
0.0
 40
90.0
  1
1822
 50
90.0
 41
0.6666666666666666
  7
00
 72
     1
 11
4320.884030123905
 21
2697.805063765605
 31
0.0
100
AcDbText
 73
     2
  0
LINE
  5
209C6
330
2091F
100
AcDbEntity
  8
SUNPOU
100
AcDbLine
 10
1375.97419447516
 20
1786.805063765603
 30
0.0
 11
1248.224636933687
 21
1786.805063765603
 31
0.0
  0
LINE
  5
209C7
330
2091F
100
AcDbEntity
  8
SUNPOU
100
AcDbLine
 10
1793.685337829715
 20
3991.740775902098
 30
0.0
 11
1248.224636933687
 21
3991.740775902098
 31
0.0
  0
LINE
  5
209C8
330
2091F
100
AcDbEntity
  8
SUNPOU
100
AcDbLine
 10
1278.224636933686
 20
1801.805063765603
 30
0.0
 11
1278.224636933686
 21
3976.740775902097
 31
0.0
  0
TEXT
  5
209C9
330
2091F
100
AcDbEntity
  8
SUNPOU
100
AcDbText
 10
1233.224636933687
 20
2774.987205548136
 30
0.0
 40
90.0
  1
2200
 50
90.0
 41
0.6666666666666666
  7
00
 72
     1
 11
1188.224636933686
 21
2889.27291983385
 31
0.0
100
AcDbText
 73
     2
  0
LINE
  5
209CA
330
2091F
100
AcDbEntity
  8
SUNPOU
100
AcDbLine
 10
1458.224636933687
 20
1786.805063765603
 30
0.0
 11
1458.224636933687
 21
1786.805063765603
 31
0.0
  0
LINE
  5
209CB
330
2091F
100
AcDbEntity
  8
SUNPOU
100
AcDbLine
 10
1793.685337829715
 20
3893.740775902097
 30
0.0
 11
1458.224636933687
 21
3893.740775902097
 31
0.0
  0
LINE
  5
209CC
330
2091F
100
AcDbEntity
  8
SUNPOU
100
AcDbLine
 10
1488.224636933687
 20
1801.805063765603
 30
0.0
 11
1488.224636933687
 21
3878.740775902097
 31
0.0
  0
TEXT
  5
209CD
330
2091F
100
AcDbEntity
  8
SUNPOU
100
AcDbText
 10
1443.224636933687
 20
2725.987205548136
 30
0.0
 40
90.0
  1
2102
 50
90.0
 41
0.6666666666666666
  7
00
 72
     1
 11
1398.224636933687
 21
2840.27291983385
 31
0.0
100
AcDbText
 73
     2
  0
LINE
  5
209CE
330
2091F
100
AcDbEntity
  8
SUNPOU
100
AcDbLine
 10
1793.685337829715
 20
3893.740775902097
 30
0.0
 11
1458.224636933687
 21
3893.740775902097
 31
0.0
  0
LINE
  5
209CF
330
2091F
100
AcDbEntity
  8
SUNPOU
100
AcDbLine
 10
1458.224636933687
 20
3991.740775902098
 30
0.0
 11
1458.224636933687
 21
3991.740775902098
 31
0.0
  0
LINE
  5
209D0
330
2091F
100
AcDbEntity
  8
SUNPOU
100
AcDbLine
 10
1488.224636933687
 20
3878.740775902097
 30
0.0
 11
1488.224636933687
 21
3863.740775902098
 31
0.0
  0
LINE
  5
209D1
330
2091F
100
AcDbEntity
  8
SUNPOU
100
AcDbLine
 10
1488.224636933687
 20
4006.740775902097
 30
0.0
 11
1488.224636933687
 21
4021.740775902097
 31
0.0
  0
LINE
  5
209D2
330
2091F
100
AcDbEntity
  8
SUNPOU
100
AcDbLine
 10
1488.224636933687
 20
3893.740775902097
 30
0.0
 11
1488.224636933687
 21
4121.583633044954
 31
0.0
  0
TEXT
  5
209D3
330
2091F
100
AcDbEntity
  8
SUNPOU
100
AcDbText
 10
1443.224636933687
 20
4015.86934733067
 30
0.0
 40
90.0
  1
98
 50
90.0
 41
0.6666666666666666
  7
00
 72
     1
 11
1398.224636933687
 21
4073.012204473527
 31
0.0
100
AcDbText
 73
     2
  0
LINE
  5
209D4
330
2091F
100
AcDbEntity
  8
SUNPOU
100
AcDbLine
 10
1787.647083943634
 20
4029.157457211571
 30
0.0
 11
1787.647083943634
 21
4741.740775902097
 31
0.0
  0
LINE
  5
209D5
330
2091F
100
AcDbEntity
  8
SUNPOU
100
AcDbLine
 10
3787.647083943632
 20
3678.85443653376
 30
0.0
 11
3787.647083943632
 21
4741.740775902097
 31
0.0
  0
LINE
  5
209D6
330
2091F
100
AcDbEntity
  8
SUNPOU
100
AcDbLine
 10
1802.647083943633
 20
4711.740775902097
 30
0.0
 11
3772.647083943633
 21
4711.740775902097
 31
0.0
  0
TEXT
  5
209D7
330
2091F
100
AcDbEntity
  8
SUNPOU
100
AcDbText
 10
2673.361369657919
 20
4756.740775902096
 30
0.0
 40
90.0
  1
2000
 41
0.6666666666666666
  7
00
 72
     1
 11
2787.647083943633
 21
4801.740775902096
 31
0.0
100
AcDbText
 73
     2
  0
LINE
  5
209D8
330
2091F
100
AcDbEntity
  8
SUNPOU
100
AcDbLine
 10
1787.647083943634
 20
4531.740775902097
 30
0.0
 11
1787.647083943634
 21
4531.740775902097
 31
0.0
  0
LINE
  5
209D9
330
2091F
100
AcDbEntity
  8
SUNPOU
100
AcDbLine
 10
2802.647083943633
 20
3838.047672138151
 30
0.0
 11
2802.647083943633
 21
4531.740775902097
 31
0.0
  0
LINE
  5
209DA
330
2091F
100
AcDbEntity
  8
SUNPOU
100
AcDbLine
 10
1802.647083943633
 20
4501.740775902097
 30
0.0
 11
2787.647083943633
 21
4501.740775902097
 31
0.0
  0
TEXT
  5
209DB
330
2091F
100
AcDbEntity
  8
SUNPOU
100
AcDbText
 10
2176.575655372205
 20
4546.740775902097
 30
0.0
 40
90.0
  1
1000
 41
0.6666666666666666
  7
00
 72
     1
 11
2295.147083943633
 21
4591.740775902097
 31
0.0
100
AcDbText
 73
     2
  0
LINE
  5
209DC
330
2091F
100
AcDbEntity
  8
SUNPOU
100
AcDbLine
 10
2802.647083943633
 20
3838.047672138151
 30
0.0
 11
2802.647083943633
 21
4531.740775902097
 31
0.0
  0
LINE
  5
209DD
330
2091F
100
AcDbEntity
  8
SUNPOU
100
AcDbLine
 10
3787.647083943632
 20
4531.740775902097
 30
0.0
 11
3787.647083943632
 21
4531.740775902097
 31
0.0
  0
LINE
  5
209DE
330
2091F
100
AcDbEntity
  8
SUNPOU
100
AcDbLine
 10
2817.647083943633
 20
4501.740775902097
 30
0.0
 11
3772.647083943633
 21
4501.740775902097
 31
0.0
  0
TEXT
  5
209DF
330
2091F
100
AcDbEntity
  8
SUNPOU
100
AcDbText
 10
3176.575655372204
 20
4546.740775902097
 30
0.0
 40
90.0
  1
1000
 41
0.6666666666666666
  7
00
 72
     1
 11
3295.147083943633
 21
4591.740775902097
 31
0.0
100
AcDbText
 73
     2
  0
LINE
  5
209E0
330
2091F
100
AcDbEntity
  8
SUNPOU
100
AcDbLine
 10
1278.224636933686
 20
1798.055063765603
 30
0.0
 11
1278.224636933686
 21
1809.305063765603
 31
0.0
  0
LINE
  5
209E1
330
2091F
100
AcDbEntity
  8
SUNPOU
100
AcDbLine
 10
1488.224636933687
 20
1798.055063765603
 30
0.0
 11
1488.224636933687
 21
1809.305063765603
 31
0.0
  0
LINE
  5
209E2
330
2091F
100
AcDbEntity
  8
SUNPOU
100
AcDbLine
 10
1278.224636933686
 20
3980.490775902097
 30
0.0
 11
1278.224636933686
 21
3969.240775902097
 31
0.0
  0
LINE
  5
209E3
330
2091F
100
AcDbEntity
  8
SUNPOU
100
AcDbLine
 10
1488.224636933687
 20
3882.490775902097
 30
0.0
 11
1488.224636933687
 21
3871.240775902096
 31
0.0
  0
LINE
  5
209E4
330
2091F
100
AcDbEntity
  8
SUNPOU
100
AcDbLine
 10
1488.224636933687
 20
3882.490775902097
 30
0.0
 11
1488.224636933687
 21
3871.240775902096
 31
0.0
  0
LINE
  5
209E5
330
2091F
100
AcDbEntity
  8
SUNPOU
100
AcDbLine
 10
1488.224636933687
 20
4002.990775902097
 30
0.0
 11
1488.224636933687
 21
4014.240775902097
 31
0.0
  0
LINE
  5
209E6
330
2091F
100
AcDbEntity
  8
SUNPOU
100
AcDbLine
 10
4410.884030123905
 20
1798.055063765604
 30
0.0
 11
4410.884030123905
 21
1809.305063765604
 31
0.0
  0
LINE
  5
209E7
330
2091F
100
AcDbEntity
  8
SUNPOU
100
AcDbLine
 10
4410.884030123905
 20
1725.555063765605
 30
0.0
 11
4410.884030123905
 21
1714.305063765604
 31
0.0
  0
LINE
  5
209E8
330
2091F
100
AcDbEntity
  8
SUNPOU
100
AcDbLine
 10
4410.884030123905
 20
1775.555063765605
 30
0.0
 11
4410.884030123905
 21
1764.305063765605
 31
0.0
  0
LINE
  5
209E9
330
2091F
100
AcDbEntity
  8
SUNPOU
100
AcDbLine
 10
1798.897083943634
 20
4501.740775902097
 30
0.0
 11
1810.147083943634
 21
4501.740775902097
 31
0.0
  0
LINE
  5
209EA
330
2091F
100
AcDbEntity
  8
SUNPOU
100
AcDbLine
 10
1798.897083943634
 20
4711.740775902097
 30
0.0
 11
1810.147083943634
 21
4711.740775902097
 31
0.0
  0
LINE
  5
209EB
330
2091F
100
AcDbEntity
  8
SUNPOU
100
AcDbLine
 10
2813.897083943633
 20
4501.740775902097
 30
0.0
 11
2825.147083943635
 21
4501.740775902097
 31
0.0
  0
LINE
  5
209EC
330
2091F
100
AcDbEntity
  8
SUNPOU
100
AcDbLine
 10
2791.397083943633
 20
4501.740775902097
 30
0.0
 11
2780.147083943633
 21
4501.740775902097
 31
0.0
  0
LINE
  5
209ED
330
2091F
100
AcDbEntity
  8
SUNPOU
100
AcDbLine
 10
4410.884030123905
 20
3597.555063765605
 30
0.0
 11
4410.884030123905
 21
3586.305063765604
 31
0.0
  0
LINE
  5
209EE
330
2091F
100
AcDbEntity
  8
SUNPOU
100
AcDbLine
 10
3776.397083943633
 20
4501.740775902097
 30
0.0
 11
3765.147083943633
 21
4501.740775902097
 31
0.0
  0
LINE
  5
209EF
330
2091F
100
AcDbEntity
  8
SUNPOU
100
AcDbLine
 10
3776.397083943633
 20
4711.740775902097
 30
0.0
 11
3765.147083943633
 21
4711.740775902097
 31
0.0
  0
TEXT
  5
209F0
330
2091F
100
AcDbEntity
  8
SUNPOU
100
AcDbText
 10
7471.291559419434
 20
4546.391364710046
 30
0.0
 40
90.0
  1
2000
 41
0.6666666666666666
  7
00
 72
     1
 11
7585.577273705149
 21
4591.391364710045
 31
0.0
100
AcDbText
 73
     2
  0
LINE
  5
209F1
330
2091F
100
AcDbEntity
  8
HATCH
100
AcDbLine
 10
6637.50628607484
 20
1786.805063765605
 30
0.0
 11
6547.506286074841
 21
1696.805063765604
 31
0.0
  0
LINE
  5
209F2
330
2091F
100
AcDbEntity
  8
HATCH
100
AcDbLine
 10
6578.109316455172
 20
1786.805063765605
 30
0.0
 11
6488.109316455164
 21
1696.805063765604
 31
0.0
  0
LINE
  5
209F3
330
2091F
100
AcDbEntity
  8
HATCH
100
AcDbLine
 10
6607.807801265008
 20
1786.805063765605
 30
0.0
 11
6517.807801265006
 21
1696.805063765604
 31
0.0
  0
LINE
  5
209F4
330
2091F
100
AcDbEntity
  8
KISO
100
AcDbLine
 10
7552.823701566686
 20
1786.805063765603
 30
0.0
 11
6190.973701566683
 21
1786.805063765603
 31
0.0
  0
LINE
  5
209F5
330
2091F
100
AcDbEntity
  8
SUNPOU
100
AcDbLine
 10
6559.729102554559
 20
1876.805063765603
 30
0.0
 11
6455.806054100425
 21
1876.805063765603
 31
0.0
  0
LINE
  5
209F6
330
2091F
100
AcDbEntity
  8
SUNPOU
100
AcDbLine
 10
6507.76757832749
 20
1786.805063765603
 30
0.0
 11
6559.729102554559
 21
1876.805063765603
 31
0.0
  0
TEXT
  5
209F7
330
2091F
100
AcDbEntity
  8
SUNPOU
100
AcDbText
 10
6439.196149756061
 20
1921.805063765603
 30
0.0
 40
90.0
  1
F.L
 41
0.6666666666666666
  7
00
 72
     4
 11
6507.76757832749
 21
1966.805063765603
 31
0.0
100
AcDbText
  0
LINE
  5
209F8
330
2091F
100
AcDbEntity
  8
KISO
100
AcDbLine
 10
6190.973701566683
 20
1696.805063765603
 30
0.0
 11
7265.973701566683
 21
1696.805063765603
 31
0.0
  0
LINE
  5
209F9
330
2091F
100
AcDbEntity
  8
KISO
100
AcDbLine
 10
6190.973701566683
 20
1636.805063765603
 30
0.0
 11
7265.973701566683
 21
1636.805063765603
 31
0.0
  0
LINE
  5
209FA
330
2091F
100
AcDbEntity
  8
SUNPOU
100
AcDbLine
 10
6603.213178810469
 20
3893.514367376559
 30
0.0
 11
6301.596742355274
 21
3893.514367376559
 31
0.0
  0
LINE
  5
209FB
330
2091F
100
AcDbEntity
  8
SUNPOU
100
AcDbLine
 10
6603.213178810469
 20
3893.514367376559
 30
0.0
 11
6301.596742355274
 21
3893.514367376559
 31
0.0
  0
LINE
  5
209FC
330
2091F
100
AcDbEntity
  8
SUNPOU
100
AcDbLine
 10
6608.121680922304
 20
3991.39136471004
 30
0.0
 11
6301.596742355274
 21
3991.39136471004
 31
0.0
  0
LINE
  5
209FD
330
2091F
100
AcDbEntity
  8
SUNPOU
100
AcDbLine
 10
6455.806054100425
 20
1876.805063765603
 30
0.0
 11
6507.76757832749
 21
1786.805063765603
 31
0.0
  0
LINE
  5
209FE
330
2091F
100
AcDbEntity
  8
SUNPOU
100
AcDbLine
 10
5867.468409084124
 20
1736.805063765605
 30
0.0
 11
5919.429933311191
 21
1826.805063765604
 31
0.0
  0
LINE
  5
209FF
330
2091F
100
AcDbEntity
  8
SUNPOU
100
AcDbLine
 10
5815.506884857059
 20
1826.805063765604
 30
0.0
 11
5867.468409084124
 21
1736.805063765605
 31
0.0
  0
LINE
  5
20A00
330
2091F
100
AcDbEntity
  8
SUNPOU
100
AcDbLine
 10
6331.596742355274
 20
1801.805063765603
 30
0.0
 11
6331.596742355274
 21
3878.51436737656
 31
0.0
  0
LINE
  5
20A01
330
2091F
100
AcDbEntity
  8
U3
100
AcDbLine
 10
6044.613311873477
 20
1736.805063765605
 30
0.0
 11
6149.613311873473
 21
1631.805063765607
 31
0.0
  0
LINE
  5
20A02
330
2091F
100
AcDbEntity
  8
U3
100
AcDbLine
 10
6012.793506720082
 20
1704.98525861221
 30
0.0
 11
6085.973701566687
 21
1631.805063765605
 31
0.0
  0
LINE
  5
20A03
330
2091F
100
AcDbEntity
  8
U3
100
AcDbLine
 10
6190.973701566683
 20
1736.805063765605
 30
0.0
 11
5729.613311873477
 21
1736.805063765605
 31
0.0
  0
LINE
  5
20A04
330
2091F
100
AcDbEntity
  8
U3
100
AcDbLine
 10
5802.793506720082
 20
1704.98525861221
 30
0.0
 11
5875.973701566687
 21
1631.805063765605
 31
0.0
  0
LINE
  5
20A05
330
2091F
100
AcDbEntity
  8
U3
100
AcDbLine
 10
5729.613311873477
 20
1631.805063765607
 30
0.0
 11
5834.613311873477
 21
1736.805063765605
 31
0.0
  0
LINE
  5
20A06
330
2091F
100
AcDbEntity
  8
U3
100
AcDbLine
 10
5770.973701566687
 20
1673.165453458816
 30
0.0
 11
5812.334091259898
 21
1631.805063765605
 31
0.0
  0
LINE
  5
20A07
330
2091F
100
AcDbEntity
  8
U3
100
AcDbLine
 10
5729.613311873478
 20
1695.444674072392
 30
0.0
 11
5770.973701566689
 21
1736.805063765605
 31
0.0
  0
LINE
  5
20A08
330
2091F
100
AcDbEntity
  8
U3
100
AcDbLine
 10
5834.613311873477
 20
1736.805063765605
 30
0.0
 11
5939.613311873475
 21
1631.805063765607
 31
0.0
  0
LINE
  5
20A09
330
2091F
100
AcDbEntity
  8
U3
100
AcDbLine
 10
5980.973701566687
 20
1673.165453458818
 30
0.0
 11
6022.334091259898
 21
1631.805063765605
 31
0.0
  0
LINE
  5
20A0A
330
2091F
100
AcDbEntity
  8
U3
100
AcDbLine
 10
5939.613311873475
 20
1631.805063765607
 30
0.0
 11
6044.613311873477
 21
1736.805063765605
 31
0.0
  0
LINE
  5
20A0B
330
2091F
100
AcDbEntity
  8
U3
100
AcDbLine
 10
5907.793506720082
 20
1663.624868919001
 30
0.0
 11
5980.973701566687
 21
1736.805063765605
 31
0.0
  0
LINE
  5
20A0C
330
2091F
100
AcDbEntity
  8
U3
100
AcDbLine
 10
5875.973701566687
 20
1695.444674072396
 30
0.0
 11
5917.334091259895
 21
1736.805063765605
 31
0.0
  0
LINE
  5
20A0D
330
2091F
100
AcDbEntity
  8
HATCH
100
AcDbLine
 10
6329.232278125069
 20
1786.805063765605
 30
0.0
 11
6239.232278125069
 21
1696.805063765607
 31
0.0
  0
LINE
  5
20A0E
330
2091F
100
AcDbEntity
  8
U3
100
AcDbLine
 10
6117.793506720078
 20
1663.624868919001
 30
0.0
 11
6190.973701566683
 21
1736.805063765605
 31
0.0
  0
LINE
  5
20A0F
330
2091F
100
AcDbEntity
  8
U3
100
AcDbLine
 10
6085.973701566683
 20
1695.444674072396
 30
0.0
 11
6127.334091259894
 21
1736.805063765605
 31
0.0
  0
LINE
  5
20A10
330
2091F
100
AcDbEntity
  8
HATCH
100
AcDbLine
 10
6269.835308505399
 20
1786.805063765605
 30
0.0
 11
6190.973701566683
 21
1707.943456826892
 31
0.0
  0
LINE
  5
20A11
330
2091F
100
AcDbEntity
  8
HATCH
100
AcDbLine
 10
6299.533793315237
 20
1786.805063765605
 30
0.0
 11
6209.533793315236
 21
1696.805063765607
 31
0.0
  0
LINE
  5
20A12
330
2091F
100
AcDbEntity
  8
KISO
100
AcDbLine
 10
6190.973701566683
 20
1786.805063765603
 30
0.0
 11
6190.973701566683
 21
1636.805063765603
 31
0.0
  0
LINE
  5
20A13
330
2091F
100
AcDbEntity
  8
SUNPOU
100
AcDbLine
 10
6301.596742355274
 20
1786.805063765603
 30
0.0
 11
6301.596742355274
 21
1786.805063765603
 31
0.0
  0
TEXT
  5
20A14
330
2091F
100
AcDbEntity
  8
SUNPOU
100
AcDbText
 10
5796.039837655552
 20
1871.805063765604
 30
0.0
 40
90.0
  1
G.L
 41
0.6666666666666666
  7
00
 72
     4
 11
5867.468409084124
 21
1916.805063765604
 31
0.0
100
AcDbText
  0
LINE
  5
20A15
330
2091F
100
AcDbEntity
  8
SUNPOU
100
AcDbLine
 10
5919.429933311191
 20
1826.805063765604
 30
0.0
 11
5815.506884857059
 21
1826.805063765604
 31
0.0
  0
TEXT
  5
20A16
330
2091F
100
AcDbEntity
  8
SUNPOU
100
AcDbText
 10
6286.596742355274
 20
2725.874001285368
 30
0.0
 40
90.0
  1
2102
 50
90.0
 41
0.6666666666666666
  7
00
 72
     1
 11
6241.596742355273
 21
2840.159715571083
 31
0.0
100
AcDbText
 73
     2
  0
LINE
  5
20A17
330
2091F
100
AcDbEntity
  8
SUNPOU
100
AcDbLine
 10
6331.596742355274
 20
3893.514367376557
 30
0.0
 11
6331.596742355274
 21
4121.234221852899
 31
0.0
  0
LINE
  5
20A18
330
2091F
100
AcDbEntity
  8
SUNPOU
100
AcDbLine
 10
6331.596742355274
 20
3878.51436737656
 30
0.0
 11
6331.596742355274
 21
3863.51436737656
 31
0.0
  0
TEXT
  5
20A19
330
2091F
100
AcDbEntity
  8
SUNPOU
100
AcDbText
 10
6286.596742355274
 20
4015.519936138612
 30
0.0
 40
90.0
  1
98
 50
90.0
 41
0.6666666666666666
  7
00
 72
     1
 11
6241.596742355273
 21
4072.66279328147
 31
0.0
100
AcDbText
 73
     2
  0
LINE
  5
20A1A
330
2091F
100
AcDbEntity
  8
SUNPOU
100
AcDbLine
 10
6331.596742355274
 20
4006.391364710039
 30
0.0
 11
6331.596742355274
 21
4021.39136471004
 31
0.0
  0
LINE
  5
20A1B
330
2091F
100
AcDbEntity
  8
HASHIRA
100
AcDbLine
 10
7629.123701566685
 20
3444.555063765605
 30
0.0
 11
7629.123701566685
 21
1286.805063765603
 31
0.0
  0
LINE
  5
20A1C
330
2091F
100
AcDbEntity
  8
HASHIRA
100
AcDbLine
 10
7552.823701566686
 20
1286.805063765603
 30
0.0
 11
7552.823701566686
 21
3774.805063765604
 31
0.0
  0
LINE
  5
20A1D
330
2091F
100
AcDbEntity
  8
1PL-M1
100
AcDbLine
 10
7590.973701566682
 20
1046.805063765604
 30
0.0
 11
7590.973701566683
 21
3772.891852687758
 31
0.0
  0
LINE
  5
20A1E
330
2091F
100
AcDbEntity
  8
SUNPOU
100
AcDbLine
 10
8980.973701566684
 20
3600.582642126956
 30
0.0
 11
8980.973701566684
 21
1801.805063765605
 31
0.0
  0
LINE
  5
20A1F
330
2091F
100
AcDbEntity
  8
HIKIDASHI
100
AcDbLine
 10
7984.580920711902
 20
1450.066375526769
 30
0.0
 11
8775.540145743303
 21
1450.066375526769
 31
0.0
  0
TEXT
  5
20A20
330
2091F
100
AcDbEntity
  8
HIKIDASHI
100
AcDbText
 10
8274.716985854292
 20
1495.066375526769
 30
0.0
 40
90.0
  1
10   x 350
 41
0.6666666666666666
  7
00
 11
8274.716985854292
 21
1540.066375526769
 31
0.0
100
AcDbText
 73
     2
  0
LINE
  5
20A21
330
2091F
100
AcDbEntity
  8
KISO
100
AcDbLine
 10
7915.973701566684
 20
1636.805063765603
 30
0.0
 11
8790.973701566683
 21
1636.805063765603
 31
0.0
  0
LINE
  5
20A22
330
2091F
100
AcDbEntity
  8
KISO
100
AcDbLine
 10
7915.973701566684
 20
1696.805063765604
 30
0.0
 11
8790.973701566683
 21
1696.805063765607
 31
0.0
  0
LINE
  5
20A23
330
2091F
100
AcDbEntity
  8
KISO
100
AcDbLine
 10
8790.973701566683
 20
1786.805063765605
 30
0.0
 11
7629.123701566685
 21
1786.805063765603
 31
0.0
  0
LINE
  5
20A24
330
2091F
100
AcDbEntity
  8
HATCH
100
AcDbLine
 10
7552.823701566686
 20
1628.956578955768
 30
0.0
 11
7265.973701566688
 21
1342.10657895577
 31
0.0
  0
LINE
  5
20A25
330
2091F
100
AcDbEntity
  8
HATCH
100
AcDbLine
 10
7552.823701566686
 20
1688.353548575437
 30
0.0
 11
7265.973701566688
 21
1401.503548575438
 31
0.0
  0
LINE
  5
20A26
330
2091F
100
AcDbEntity
  8
HATCH
100
AcDbLine
 10
7552.823701566686
 20
1658.655063765602
 30
0.0
 11
7265.973701566688
 21
1371.805063765601
 31
0.0
  0
LINE
  5
20A27
330
2091F
100
AcDbEntity
  8
HATCH
100
AcDbLine
 10
7552.823701566686
 20
1388.655063765604
 30
0.0
 11
7450.973701566683
 21
1286.805063765603
 31
0.0
  0
LINE
  5
20A28
330
2091F
100
AcDbEntity
  8
HATCH
100
AcDbLine
 10
7552.823701566686
 20
1358.956578955771
 30
0.0
 11
7480.672186376519
 21
1286.805063765603
 31
0.0
  0
LINE
  5
20A29
330
2091F
100
AcDbEntity
  8
HATCH
100
AcDbLine
 10
7552.823701566686
 20
1329.258094145935
 30
0.0
 11
7510.370671186352
 21
1286.805063765603
 31
0.0
  0
LINE
  5
20A2A
330
2091F
100
AcDbEntity
  8
HATCH
100
AcDbLine
 10
6877.807801265008
 20
1786.805063765605
 30
0.0
 11
6787.807801265002
 21
1696.805063765604
 31
0.0
  0
LINE
  5
20A2B
330
2091F
100
AcDbEntity
  8
HATCH
100
AcDbLine
 10
6937.204770884676
 20
1786.805063765605
 30
0.0
 11
6847.204770884677
 21
1696.805063765604
 31
0.0
  0
LINE
  5
20A2C
330
2091F
100
AcDbEntity
  8
HATCH
100
AcDbLine
 10
6907.506286074847
 20
1786.805063765605
 30
0.0
 11
6817.506286074844
 21
1696.805063765604
 31
0.0
  0
LINE
  5
20A2D
330
2091F
100
AcDbEntity
  8
KISO
100
AcDbLine
 10
7265.973701566683
 20
1786.805063765605
 30
0.0
 11
7265.973701566688
 21
1286.805063765603
 31
0.0
  0
LINE
  5
20A2E
330
2091F
100
AcDbEntity
  8
HATCH
100
AcDbLine
 10
7351.576731947014
 20
1786.805063765605
 30
0.0
 11
7265.973701566683
 21
1701.202033385273
 31
0.0
  0
LINE
  5
20A2F
330
2091F
100
AcDbEntity
  8
HATCH
100
AcDbLine
 10
7381.275216756851
 20
1786.805063765605
 30
0.0
 11
7265.973701566683
 21
1671.503548575437
 31
0.0
  0
LINE
  5
20A30
330
2091F
100
AcDbEntity
  8
HATCH
100
AcDbLine
 10
7410.973701566684
 20
1786.805063765605
 30
0.0
 11
7265.973701566683
 21
1641.805063765604
 31
0.0
  0
LINE
  5
20A31
330
2091F
100
AcDbEntity
  8
HATCH
100
AcDbLine
 10
7177.506286074842
 20
1786.805063765605
 30
0.0
 11
7087.506286074845
 21
1696.805063765604
 31
0.0
  0
LINE
  5
20A32
330
2091F
100
AcDbEntity
  8
HATCH
100
AcDbLine
 10
7207.204770884674
 20
1786.805063765605
 30
0.0
 11
7117.204770884673
 21
1696.805063765604
 31
0.0
  0
LINE
  5
20A33
330
2091F
100
AcDbEntity
  8
HATCH
100
AcDbLine
 10
7236.903255694514
 20
1786.805063765605
 30
0.0
 11
7146.903255694514
 21
1696.805063765607
 31
0.0
  0
LINE
  5
20A34
330
2091F
100
AcDbEntity
  8
HATCH
100
AcDbLine
 10
8095.020359891186
 20
1786.805063765605
 30
0.0
 11
8005.020359891187
 21
1696.805063765604
 31
0.0
  0
LINE
  5
20A35
330
2091F
100
AcDbEntity
  8
HATCH
100
AcDbLine
 10
8065.32187508135
 20
1786.805063765605
 30
0.0
 11
7975.321875081347
 21
1696.805063765604
 31
0.0
  0
TEXT
  5
20A36
330
2091F
100
AcDbEntity
  8
HIKIDASHI
100
AcDbText
 10
8014.580920711901
 20
1495.066375526769
 30
0.0
 40
90.0
  1
鉄筋
  7
01
 11
8014.580920711901
 21
1540.066375526769
 31
0.0
100
AcDbText
 73
     2
  0
LINE
  5
20A37
330
2091F
100
AcDbEntity
  8
HATCH
100
AcDbLine
 10
7915.973701566688
 20
1692.408094145936
 30
0.0
 11
7629.123701566685
 21
1405.558094145934
 31
0.0
  0
LINE
  5
20A38
330
2091F
100
AcDbEntity
  8
HATCH
100
AcDbLine
 10
7915.973701566684
 20
1722.106578955774
 30
0.0
 11
7629.123701566685
 21
1435.25657895577
 31
0.0
  0
LINE
  5
20A39
330
2091F
100
AcDbEntity
  8
KISO
100
AcDbLine
 10
7915.973701566684
 20
1786.805063765605
 30
0.0
 11
7915.973701566688
 21
1286.805063765604
 31
0.0
  0
LINE
  5
20A3A
330
2091F
100
AcDbEntity
  8
HIKIDASHI
100
AcDbLine
 10
7652.993414538554
 20
1329.378393225101
 30
0.0
 11
7984.580920711902
 21
1450.066375526769
 31
0.0
  0
LINE
  5
20A3B
330
2091F
100
AcDbEntity
  8
HATCH
100
AcDbLine
 10
7915.973701566684
 20
1422.408094145938
 30
0.0
 11
7780.370671186354
 21
1286.805063765603
 31
0.0
  0
LINE
  5
20A3C
330
2091F
100
AcDbEntity
  8
HATCH
100
AcDbLine
 10
7915.973701566684
 20
1452.106578955776
 30
0.0
 11
7750.672186376509
 21
1286.805063765603
 31
0.0
  0
LINE
  5
20A3D
330
2091F
100
AcDbEntity
  8
HIKIDASHI
100
AcDbLine
 10
7574.61007446817
 20
1346.805063765603
 30
0.0
 11
7607.337328665195
 21
1346.805063765603
 31
0.0
  0
CIRCLE
  5
20A3E
330
2091F
100
AcDbEntity
  8
HASHIRA
100
AcDbCircle
 10
7590.973701566683
 20
1346.805063765603
 30
0.0
 40
6.0
  0
CIRCLE
  5
20A3F
330
2091F
100
AcDbEntity
  8
HASHIRA
100
AcDbCircle
 10
7590.973701566683
 20
1306.805063765603
 30
0.0
 40
6.0
  0
LINE
  5
20A40
330
2091F
100
AcDbEntity
  8
HATCH
100
AcDbLine
 10
7915.973701566688
 20
1392.709609336103
 30
0.0
 11
7810.069155996187
 21
1286.805063765603
 31
0.0
  0
LINE
  5
20A41
330
2091F
100
AcDbEntity
  8
HATCH
100
AcDbLine
 10
7915.973701566684
 20
1751.805063765605
 30
0.0
 11
7629.123701566685
 21
1464.955063765603
 31
0.0
  0
LINE
  5
20A42
330
2091F
100
AcDbEntity
  8
HATCH
100
AcDbLine
 10
7680.973701566689
 20
1786.805063765605
 30
0.0
 11
7629.123701566685
 21
1734.955063765601
 31
0.0
  0
LINE
  5
20A43
330
2091F
100
AcDbEntity
  8
HATCH
100
AcDbLine
 10
7710.672186376519
 20
1786.805063765605
 30
0.0
 11
7629.123701566685
 21
1705.256578955765
 31
0.0
  0
LINE
  5
20A44
330
2091F
100
AcDbEntity
  8
HATCH
100
AcDbLine
 10
7651.27521675685
 20
1786.805063765605
 30
0.0
 11
7629.123701566685
 21
1764.653548575438
 31
0.0
  0
LINE
  5
20A45
330
2091F
100
AcDbEntity
  8
HATCH
100
AcDbLine
 10
8365.020359891188
 20
1786.805063765605
 30
0.0
 11
8275.020359891186
 21
1696.805063765604
 31
0.0
  0
LINE
  5
20A46
330
2091F
100
AcDbEntity
  8
HATCH
100
AcDbLine
 10
8124.718844701019
 20
1786.805063765605
 30
0.0
 11
8034.718844701021
 21
1696.805063765604
 31
0.0
  0
TEXT
  5
20A47
330
2091F
100
AcDbEntity
  8
HIKIDASHI
100
AcDbText
 10
8424.174146750354
 20
1510.066375526769
 30
0.0
 40
90.0
  1
%%c
 41
0.6666666666666666
  7
00
100
AcDbText
  0
LINE
  5
20A48
330
2091F
100
AcDbEntity
  8
HATCH
100
AcDbLine
 10
8424.417329510854
 20
1786.805063765605
 30
0.0
 11
8334.417329510854
 21
1696.805063765604
 31
0.0
  0
LINE
  5
20A49
330
2091F
100
AcDbEntity
  8
HATCH
100
AcDbLine
 10
8394.718844701023
 20
1786.805063765605
 30
0.0
 11
8304.718844701023
 21
1696.805063765604
 31
0.0
  0
LINE
  5
20A4A
330
2091F
100
AcDbEntity
  8
U3
100
AcDbLine
 10
9252.334091259887
 20
1736.805063765605
 30
0.0
 11
8790.973701566683
 21
1736.805063765605
 31
0.0
  0
LINE
  5
20A4B
330
2091F
100
AcDbEntity
  8
U3
100
AcDbLine
 10
9000.973701566683
 20
1631.805063765607
 30
0.0
 11
9105.973701566686
 21
1736.805063765605
 31
0.0
  0
LINE
  5
20A4C
330
2091F
100
AcDbEntity
  8
U3
100
AcDbLine
 10
8969.153896413288
 20
1663.624868919001
 30
0.0
 11
9042.334091259894
 21
1736.805063765605
 31
0.0
  0
LINE
  5
20A4D
330
2091F
100
AcDbEntity
  8
HATCH
100
AcDbLine
 10
8664.718844701026
 20
1786.805063765605
 30
0.0
 11
8574.718844701022
 21
1696.805063765604
 31
0.0
  0
LINE
  5
20A4E
330
2091F
100
AcDbEntity
  8
HATCH
100
AcDbLine
 10
8694.417329510848
 20
1786.805063765605
 30
0.0
 11
8604.41732951085
 21
1696.805063765604
 31
0.0
  0
LINE
  5
20A4F
330
2091F
100
AcDbEntity
  8
HATCH
100
AcDbLine
 10
8724.11581432069
 20
1786.805063765605
 30
0.0
 11
8634.115814320692
 21
1696.805063765607
 31
0.0
  0
LINE
  5
20A50
330
2091F
100
AcDbEntity
  8
U3
100
AcDbLine
 10
8864.153896413283
 20
1704.98525861221
 30
0.0
 11
8937.334091259895
 21
1631.805063765605
 31
0.0
  0
LINE
  5
20A51
330
2091F
100
AcDbEntity
  8
U3
100
AcDbLine
 10
8790.973701566683
 20
1631.805063765607
 30
0.0
 11
8895.973701566683
 21
1736.805063765605
 31
0.0
  0
LINE
  5
20A52
330
2091F
100
AcDbEntity
  8
U3
100
AcDbLine
 10
8832.334091259891
 20
1673.165453458816
 30
0.0
 11
8873.694480953105
 21
1631.805063765605
 31
0.0
  0
LINE
  5
20A53
330
2091F
100
AcDbEntity
  8
U3
100
AcDbLine
 10
8895.973701566683
 20
1736.805063765605
 30
0.0
 11
9000.973701566683
 21
1631.805063765607
 31
0.0
  0
LINE
  5
20A54
330
2091F
100
AcDbEntity
  8
SUNPOU
100
AcDbLine
 10
8820.973701566684
 20
1786.805063765605
 30
0.0
 11
9010.973701566685
 21
1786.805063765605
 31
0.0
  0
LINE
  5
20A55
330
2091F
100
AcDbEntity
  8
U3
100
AcDbLine
 10
8790.97370156669
 20
1695.444674072392
 30
0.0
 11
8832.334091259898
 21
1736.805063765605
 31
0.0
  0
LINE
  5
20A56
330
2091F
100
AcDbEntity
  8
KISO
100
AcDbLine
 10
8790.973701566683
 20
1636.805063765603
 30
0.0
 11
8790.973701566683
 21
1786.805063765605
 31
0.0
  0
LINE
  5
20A57
330
2091F
100
AcDbEntity
  8
U3
100
AcDbLine
 10
8937.334091259895
 20
1695.444674072396
 30
0.0
 11
8978.694480953098
 21
1736.805063765605
 31
0.0
  0
LINE
  5
20A58
330
2091F
100
AcDbEntity
  8
SUNPOU
100
AcDbLine
 10
8950.973701566683
 20
1786.805063765605
 30
0.0
 11
8950.973701566683
 21
1786.805063765605
 31
0.0
  0
LINE
  5
20A59
330
2091F
100
AcDbEntity
  8
SUNPOU
100
AcDbLine
 10
8980.973701566684
 20
1786.805063765605
 30
0.0
 11
8980.973701566684
 21
1736.805063765605
 31
0.0
  0
LINE
  5
20A5A
330
2091F
100
AcDbEntity
  8
U3
100
AcDbLine
 10
9105.973701566686
 20
1736.805063765605
 30
0.0
 11
9210.973701566677
 21
1631.805063765607
 31
0.0
  0
LINE
  5
20A5B
330
2091F
100
AcDbEntity
  8
U3
100
AcDbLine
 10
9074.153896413283
 20
1704.98525861221
 30
0.0
 11
9147.334091259894
 21
1631.805063765605
 31
0.0
  0
LINE
  5
20A5C
330
2091F
100
AcDbEntity
  8
U3
100
AcDbLine
 10
9042.334091259894
 20
1673.165453458816
 30
0.0
 11
9083.694480953104
 21
1631.805063765605
 31
0.0
  0
LINE
  5
20A5D
330
2091F
100
AcDbEntity
  8
U3
100
AcDbLine
 10
9147.334091259891
 20
1695.444674072396
 30
0.0
 11
9188.694480953097
 21
1736.805063765605
 31
0.0
  0
LINE
  5
20A5E
330
2091F
100
AcDbEntity
  8
U3
100
AcDbLine
 10
9179.153896413284
 20
1663.624868919001
 30
0.0
 11
9252.334091259887
 21
1736.805063765605
 31
0.0
  0
ARC
  5
20A5F
330
2091F
100
AcDbEntity
  8
YANE
100
AcDbCircle
 10
8212.714885270356
 20
3524.53913881739
 30
0.0
 40
370.0
100
AcDbArc
 50
17.12903901488673
 51
87.12903901490951
  0
ARC
  5
20A60
330
2091F
100
AcDbEntity
  8
YANE
100
AcDbCircle
 10
8212.714885270356
 20
3524.53913881739
 30
0.0
 40
386.0
100
AcDbArc
 50
17.12903901488673
 51
87.12903901490951
  0
LINE
  5
20A61
330
2091F
100
AcDbEntity
  8
HIKIDASHI
100
AcDbLine
 10
7841.32960569368
 20
2432.637663742353
 30
0.0
 11
8616.488139508925
 21
2432.637663742353
 31
0.0
  0
LINE
  5
20A62
330
2091F
100
AcDbEntity
  8
SUNPOU
100
AcDbLine
 10
6600.57727370515
 20
4501.391364710045
 30
0.0
 11
8570.577273705149
 21
4501.391364710045
 31
0.0
  0
LINE
  5
20A63
330
2091F
100
AcDbEntity
  8
KERABA
100
AcDbLine
 10
8497.91152041741
 20
3594.443141840194
 30
0.0
 11
8579.533405480594
 21
3614.989126046635
 31
0.0
  0
ARC
  5
20A64
330
2091F
100
AcDbEntity
  8
KERABA
100
AcDbCircle
 10
8198.42227634256
 20
3519.055256912059
 30
0.0
 40
392.2
100
AcDbArc
 50
14.12903901488587
 51
87.12903901480547
  0
ARC
  5
20A65
330
2091F
100
AcDbEntity
  8
KERABA
100
AcDbCircle
 10
8198.42227634256
 20
3519.055256912059
 30
0.0
 40
393.0
100
AcDbArc
 50
14.12903901488587
 51
87.12903901480547
  0
TEXT
  5
20A66
330
2091F
100
AcDbEntity
  8
HIKIDASHI
100
AcDbText
 10
7871.329605693678
 20
2477.637663742354
 30
0.0
 40
90.0
  1
柱
  7
01
 11
7871.329605693678
 21
2522.637663742355
 31
0.0
100
AcDbText
 73
     2
  0
TEXT
  5
20A67
330
2091F
100
AcDbEntity
  8
HIKIDASHI
100
AcDbText
 10
8552.207914599254
 20
2492.637663742355
 30
0.0
 40
90.0
  1
t
  7
01
100
AcDbText
  0
TEXT
  5
20A68
330
2091F
100
AcDbEntity
  8
HIKIDASHI
100
AcDbText
 10
8311.396812137203
 20
2492.637663742355
 30
0.0
 40
90.0
  1
x
 41
0.6666666666666666
  7
00
100
AcDbText
  0
TEXT
  5
20A69
330
2091F
100
AcDbEntity
  8
HIKIDASHI
100
AcDbText
 10
8003.247264180137
 20
2477.637663742353
 30
0.0
 40
90.0
  1
76.3
 41
0.6666666666666666
  7
00
100
AcDbText
  0
TEXT
  5
20A6A
330
2091F
100
AcDbEntity
  8
HIKIDASHI
100
AcDbText
 10
8229.253954994341
 20
2492.637663742355
 30
0.0
 40
90.0
  1
%%c
 41
0.6666666666666666
  7
00
100
AcDbText
  0
TEXT
  5
20A6B
330
2091F
100
AcDbEntity
  8
HIKIDASHI
100
AcDbText
 10
8396.396812137203
 20
2477.637663742353
 30
0.0
 40
90.0
  1
3.2
 41
0.6666666666666666
  7
00
100
AcDbText
  0
LINE
  5
20A6C
330
2091F
100
AcDbEntity
  8
YANE
100
AcDbLine
 10
6637.250171363672
 20
3974.013203958995
 30
0.0
 11
8231.24698508035
 21
3894.074740994812
 31
0.0
  0
LINE
  5
20A6D
330
2091F
100
AcDbEntity
  8
YANE
100
AcDbLine
 10
6638.051559463564
 20
3989.993121890993
 30
0.0
 11
8232.048373180241
 21
3910.054658926812
 31
0.0
  0
LINE
  5
20A6E
330
2091F
100
AcDbEntity
  8
SUNPOU
100
AcDbLine
 10
7026.476626810236
 20
4308.191880974935
 30
0.0
 11
7585.773754430121
 21
4280.143297478733
 31
0.0
  0
LINE
  5
20A6F
330
2091F
100
AcDbEntity
  8
KERABA
100
AcDbLine
 10
6638.091628868558
 20
3990.792117787611
 30
0.0
 11
8220.470456056942
 21
3911.436293369329
 31
0.0
  0
LINE
  5
20A70
330
2091F
100
AcDbEntity
  8
KERABA
100
AcDbLine
 10
6638.051559463562
 20
3989.993121891009
 30
0.0
 11
8220.430386651948
 21
3910.637297472727
 31
0.0
  0
ARC
  5
20A71
330
2091F
100
AcDbEntity
  8
HANA_KAKUSHI
100
AcDbCircle
 10
6635.577273705149
 20
3940.655125275951
 30
0.0
 40
50.0
100
AcDbArc
 50
87.12903901490951
 51
267.1290390149096
  0
ARC
  5
20A72
330
2091F
100
AcDbEntity
  8
HANA_KAKUSHI
100
AcDbCircle
 10
6635.577273705149
 20
3940.655125275951
 30
0.0
 40
49.4
100
AcDbArc
 50
87.12903901490951
 51
267.1290390149096
  0
LINE
  5
20A73
330
2091F
100
AcDbEntity
  8
HANA_KAKUSHI
100
AcDbLine
 10
6650.051598695734
 20
3889.866406882327
 30
0.0
 11
6650.652639770654
 21
3901.851345331326
 31
0.0
  0
LINE
  5
20A74
330
2091F
100
AcDbEntity
  8
HANA_KAKUSHI
100
AcDbLine
 10
6649.482403827033
 20
3890.495705858524
 30
0.0
 11
6650.053392848204
 21
3901.881397385071
 31
0.0
  0
LINE
  5
20A75
330
2091F
100
AcDbEntity
  8
KERABA
100
AcDbLine
 10
6642.44229907718
 20
3897.857561949992
 30
0.0
 11
6641.941431514746
 21
3887.870113242492
 31
0.0
  0
ARC
  5
20A76
330
2091F
100
AcDbEntity
  8
KERABA
100
AcDbCircle
 10
6648.314560086693
 20
3895.160053722733
 30
0.0
 40
2.0
100
AcDbArc
 50
357.1290390148021
 51
87.12903901480547
  0
LINE
  5
20A77
330
2091F
100
AcDbEntity
  8
KERABA
100
AcDbLine
 10
6633.183126756718
 20
3892.91512045413
 30
0.0
 11
6953.67236307554
 21
3876.84268120742
 31
0.0
  0
LINE
  5
20A78
330
2091F
100
AcDbEntity
  8
KERABA
100
AcDbLine
 10
6633.223196161711
 20
3893.71411635073
 30
0.0
 11
6954.436348476486
 21
3877.605372933565
 31
0.0
  0
LINE
  5
20A79
330
2091F
100
AcDbEntity
  8
HANA_KAKUSHI
100
AcDbLine
 10
6633.07293589299
 20
3890.717881738464
 30
0.0
 11
6650.051598695734
 21
3889.866406882327
 31
0.0
  0
LINE
  5
20A7A
330
2091F
100
AcDbEntity
  8
HANA_KAKUSHI
100
AcDbLine
 10
6633.102987946734
 20
3891.317128660912
 30
0.0
 11
6649.482403827033
 21
3890.495705858524
 31
0.0
  0
LINE
  5
20A7B
330
2091F
100
AcDbEntity
  8
KERABA
100
AcDbLine
 10
6650.312049828193
 20
3895.059880210244
 30
0.0
 11
6650.161789559466
 21
3892.063645597997
 31
0.0
  0
LINE
  5
20A7C
330
2091F
100
AcDbEntity
  8
KERABA
100
AcDbLine
 10
6633.183126756718
 20
3892.91512045413
 30
0.0
 11
6633.223196161711
 21
3893.71411635073
 31
0.0
  0
LINE
  5
20A7D
330
2091F
100
AcDbEntity
  8
KERABA
100
AcDbLine
 10
6678.397114424173
 20
3896.054438725231
 30
0.0
 11
6677.896246861739
 21
3886.066990017737
 31
0.0
  0
CIRCLE
  5
20A7E
330
2091F
100
AcDbEntity
  8
HARI
100
AcDbCircle
 10
6977.785392163856
 20
3844.394210772819
 30
0.0
 40
1.5
  0
LINE
  5
20A7F
330
2091F
100
AcDbEntity
  8
HARI_CAP
100
AcDbLine
 10
6964.682472461714
 20
3882.59844476958
 30
0.0
 11
6961.902830598923
 21
3882.73784297677
 31
0.0
  0
LINE
  5
20A80
330
2091F
100
AcDbEntity
  8
HARI_CAP
100
AcDbLine
 10
6958.119860118772
 20
3881.282647197249
 30
0.0
 11
6949.525098572348
 21
3872.702439366669
 31
0.0
  0
ARC
  5
20A81
330
2091F
100
AcDbEntity
  8
HARI_CAP
100
AcDbCircle
 10
6961.652396817711
 20
3877.74411862302
 30
0.0
 40
5.0
100
AcDbArc
 50
87.12903901490951
 51
134.951448746415
  0
LINE
  5
20A82
330
2091F
100
AcDbEntity
  8
HARI_CAP
100
AcDbLine
 10
6960.925965743506
 20
3807.692579463342
 30
0.0
 11
6958.146323880716
 21
3807.831977670533
 31
0.0
  0
LINE
  5
20A83
330
2091F
100
AcDbEntity
  8
HARI_CAP
100
AcDbLine
 10
6954.527923058965
 20
3809.658350004863
 30
0.0
 11
6946.834715340158
 21
3819.055394617463
 31
0.0
  0
ARC
  5
20A84
330
2091F
100
AcDbEntity
  8
HARI_CAP
100
AcDbCircle
 10
6958.396757661929
 20
3812.825702024284
 30
0.0
 40
5.0
100
AcDbArc
 50
219.3066292833683
 51
267.1290390149096
  0
ARC
  5
20A85
330
2091F
100
AcDbEntity
  8
HARI_CAP
100
AcDbCircle
 10
6977.785392163856
 20
3844.394210772819
 30
0.0
 40
40.0
100
AcDbArc
 50
134.951448746415
 51
219.3066292833683
  0
LINE
  5
20A86
330
2091F
100
AcDbEntity
  8
HARI_CAP
100
AcDbLine
 10
6964.682472461714
 20
3882.59844476958
 30
0.0
 11
6960.925965743506
 21
3807.692579463342
 31
0.0
  0
LINE
  5
20A87
330
2091F
100
AcDbEntity
  8
MOYA_KANGU
100
AcDbLine
 10
6974.172043860893
 20
3892.135112670892
 30
0.0
 11
6976.469157063617
 21
3892.019913131532
 31
0.0
  0
LINE
  5
20A88
330
2091F
100
AcDbEntity
  8
HARI
100
AcDbLine
 10
6998.334565429897
 20
3874.809065155129
 30
0.0
 11
6998.987913236615
 21
3887.837015450265
 31
0.0
  0
LINE
  5
20A89
330
2091F
100
AcDbEntity
  8
HARI
100
AcDbLine
 10
7048.271808967392
 20
3872.30472734299
 30
0.0
 11
7048.925156774109
 21
3885.332677638126
 31
0.0
  0
LINE
  5
20A8A
330
2091F
100
AcDbEntity
  8
SUNPOU
100
AcDbLine
 10
6585.577273705149
 20
3970.655125275951
 30
0.0
 11
6585.577273705149
 21
4531.391364710041
 31
0.0
  0
LINE
  5
20A8B
330
2091F
100
AcDbEntity
  8
SUNPOU
100
AcDbLine
 10
6996.398507398835
 20
4007.905565548628
 30
0.0
 11
7012.998056436281
 21
4338.905528441075
 31
0.0
  0
LINE
  5
20A8C
330
2091F
100
AcDbEntity
  8
HANA_KAKUSHI
100
AcDbLine
 10
6678.031406347301
 20
3988.588898563714
 30
0.0
 11
6638.081611517309
 21
3990.592368813443
 31
0.0
  0
LINE
  5
20A8D
330
2091F
100
AcDbEntity
  8
HANA_KAKUSHI
100
AcDbLine
 10
6678.001354293553
 20
3987.989651641266
 30
0.0
 11
6638.051559463564
 21
3989.993121890993
 31
0.0
  0
LINE
  5
20A8E
330
2091F
100
AcDbEntity
  8
HANA_KAKUSHI
100
AcDbLine
 10
6650.652639770654
 20
3901.851345331326
 30
0.0
 11
6650.053392848204
 21
3901.881397385071
 31
0.0
  0
LINE
  5
20A8F
330
2091F
100
AcDbEntity
  8
YANE
100
AcDbLine
 10
6637.250171363672
 20
3974.013203958995
 30
0.0
 11
6638.051559463564
 21
3989.993121890993
 31
0.0
  0
ARC
  5
20A90
330
2091F
100
AcDbEntity
  8
KERABA
100
AcDbCircle
 10
6635.637377812637
 20
3941.853619120872
 30
0.0
 40
44.0
100
AcDbArc
 50
87.12903901480547
 51
267.1290390148054
  0
LINE
  5
20A91
330
2091F
100
AcDbEntity
  8
KERABA
100
AcDbLine
 10
6633.433560537935
 20
3897.908844807881
 30
0.0
 11
6648.414733599181
 21
3897.157543464231
 31
0.0
  0
ARC
  5
20A92
330
2091F
100
AcDbEntity
  8
KERABA
100
AcDbCircle
 10
6652.922541661076
 20
3987.044581831714
 30
0.0
 40
2.0
100
AcDbArc
 50
267.1290390148054
 51
357.1290390148021
  0
LINE
  5
20A93
330
2091F
100
AcDbEntity
  8
KERABA
100
AcDbLine
 10
6637.841195087341
 20
3985.798393433863
 30
0.0
 11
6652.822368148585
 21
3985.047092090212
 31
0.0
  0
LINE
  5
20A94
330
2091F
100
AcDbEntity
  8
KERABA
100
AcDbLine
 10
6654.920031402575
 20
3986.944408319228
 30
0.0
 11
6655.070291671305
 21
3989.940642931474
 31
0.0
  0
LINE
  5
20A95
330
2091F
100
AcDbEntity
  8
KERABA
100
AcDbLine
 10
6638.091628868558
 20
3990.792117787611
 30
0.0
 11
6638.051559463562
 21
3989.993121891009
 31
0.0
  0
LINE
  5
20A96
330
2091F
100
AcDbEntity
  8
KERABA
100
AcDbLine
 10
6647.808609092344
 20
3984.898027923128
 30
0.0
 11
6648.309476654775
 21
3994.885476630626
 31
0.0
  0
LINE
  5
20A97
330
2091F
100
AcDbEntity
  8
HANA_KAKUSHI
100
AcDbLine
 10
6678.001354293553
 20
3987.989651641266
 30
0.0
 11
6678.031406347301
 21
3988.588898563714
 31
0.0
  0
LINE
  5
20A98
330
2091F
100
AcDbEntity
  8
KERABA
100
AcDbLine
 10
6683.265547131019
 20
3993.132440162113
 30
0.0
 11
6682.764679568585
 21
3983.144991454615
 31
0.0
  0
LINE
  5
20A99
330
2091F
100
AcDbEntity
  8
MOYA
100
AcDbLine
 10
6969.00654798539
 20
3902.406727808287
 30
0.0
 11
6981.995888327961
 21
3901.755316279128
 31
0.0
  0
LINE
  5
20A9A
330
2091F
100
AcDbEntity
  8
YANE_UKE
100
AcDbLine
 10
6991.205054531993
 20
3954.259959129275
 30
0.0
 11
6996.198778885738
 21
3954.009525348059
 31
0.0
  0
LINE
  5
20A9B
330
2091F
100
AcDbEntity
  8
YANE_UKE
100
AcDbLine
 10
6991.154967775746
 20
3953.261214258525
 30
0.0
 11
6996.148692129496
 21
3953.010780477308
 31
0.0
  0
LINE
  5
20A9C
330
2091F
100
AcDbEntity
  8
YANE_UKE
100
AcDbLine
 10
6995.998431860764
 20
3950.014545865061
 30
0.0
 11
6996.223822263857
 21
3954.508897783433
 31
0.0
  0
LINE
  5
20A9D
330
2091F
100
AcDbEntity
  8
YANE_UKE
100
AcDbLine
 10
6991.004707507014
 20
3950.264979646276
 30
0.0
 11
6995.998431860764
 21
3950.014545865061
 31
0.0
  0
LINE
  5
20A9E
330
2091F
100
AcDbEntity
  8
YANE_UKE
100
AcDbLine
 10
6991.230097910109
 20
3954.75933156465
 30
0.0
 11
6991.004707507014
 21
3950.264979646276
 31
0.0
  0
LINE
  5
20A9F
330
2091F
100
AcDbEntity
  8
YANE_UKE
100
AcDbLine
 10
6981.367866093219
 20
3957.757061303956
 30
0.0
 11
7006.336487861965
 21
3956.504892397876
 31
0.0
  0
LINE
  5
20AA0
330
2091F
100
AcDbEntity
  8
YANE_UKE
100
AcDbLine
 10
6981.322788012604
 20
3956.858190920281
 30
0.0
 11
6982.099132734373
 21
3972.338736416904
 31
0.0
  0
LINE
  5
20AA1
330
2091F
100
AcDbEntity
  8
YANE_UKE
100
AcDbLine
 10
7006.291409781344
 20
3955.606022014201
 30
0.0
 11
6981.322788012604
 21
3956.858190920281
 31
0.0
  0
LINE
  5
20AA2
330
2091F
100
AcDbEntity
  8
YANE_UKE
100
AcDbLine
 10
7007.067754503117
 20
3971.086567510823
 30
0.0
 11
7006.291409781344
 21
3955.606022014201
 31
0.0
  0
LINE
  5
20AA3
330
2091F
100
AcDbEntity
  8
YANE_UKE
100
AcDbLine
 10
6982.099132734373
 20
3972.338736416904
 30
0.0
 11
7007.067754503117
 21
3971.086567510823
 31
0.0
  0
LINE
  5
20AA4
330
2091F
100
AcDbEntity
  8
YANE_UKE
100
AcDbLine
 10
6993.304185687124
 20
3946.203866939633
 30
0.0
 11
6994.895904711538
 21
3977.943219426133
 31
0.0
  0
LINE
  5
20AA5
330
2091F
100
AcDbEntity
  8
MOYA
100
AcDbLine
 10
6971.010018235102
 20
3942.35652263828
 30
0.0
 11
6983.999358577674
 21
3941.705111109122
 31
0.0
  0
LINE
  5
20AA6
330
2091F
100
AcDbEntity
  8
KERABA
100
AcDbLine
 10
6994.373079242523
 20
3967.517923506717
 30
0.0
 11
6994.873946804954
 21
3977.505372214217
 31
0.0
  0
TEXT
  5
20AA7
330
2091F
100
AcDbEntity
  8
SUNPOU
100
AcDbText
 10
7222.772391443996
 20
4343.404258945708
 30
0.0
 40
90.0
  1
590
 50
357.1290390148575
 41
0.6666666666666666
  7
00
 72
     1
 11
7310.632998682066
 21
4384.054627594315
 31
0.0
100
AcDbText
 73
     2
  0
LINE
  5
20AA8
330
2091F
100
AcDbEntity
  8
YANE_UKE
100
AcDbLine
 10
8184.810357266135
 20
3896.503649647737
 30
0.0
 11
8159.841735497392
 21
3897.755818553818
 31
0.0
  0
LINE
  5
20AA9
330
2091F
100
AcDbEntity
  8
YANE_UKE
100
AcDbLine
 10
8185.586701987904
 20
3911.98419514436
 30
0.0
 11
8184.810357266135
 21
3896.503649647737
 31
0.0
  0
LINE
  5
20AAA
330
2091F
100
AcDbEntity
  8
YANE_UKE
100
AcDbLine
 10
8171.823133171914
 20
3887.101494573169
 30
0.0
 11
8173.414852196328
 21
3918.84084705967
 31
0.0
  0
ARC
  5
20AAB
330
2091F
100
AcDbEntity
  8
1PL-S1
100
AcDbCircle
 10
7940.323701566686
 20
3725.055063765605
 30
0.0
 40
250.2499999999999
100
AcDbArc
 50
270.0
 51
0.0
  0
ARC
  5
20AAC
330
2091F
100
AcDbEntity
  8
HASHIRA
100
AcDbCircle
 10
7940.323701566686
 20
3725.055063765605
 30
0.0
 40
280.5
100
AcDbArc
 50
270.0
 51
0.0
  0
ARC
  5
20AAD
330
2091F
100
AcDbEntity
  8
HASHIRA
100
AcDbCircle
 10
7940.323701566686
 20
3725.055063765605
 30
0.0
 40
220.0
100
AcDbArc
 50
270.0
 51
0.0
  0
LINE
  5
20AAE
330
2091F
100
AcDbEntity
  8
HASHIRA
100
AcDbLine
 10
7629.123701566685
 20
3770.978641609911
 30
0.0
 11
7629.123701566685
 21
3505.055063765604
 31
0.0
  0
LINE
  5
20AAF
330
2091F
100
AcDbEntity
  8
1PL-S1
100
AcDbLine
 10
7578.334537302199
 20
3474.805063765605
 30
0.0
 11
7940.323701566686
 21
3474.805063765605
 31
0.0
  0
LINE
  5
20AB0
330
2091F
100
AcDbEntity
  8
HASHIRA
100
AcDbLine
 10
7629.123701566685
 20
3444.555063765605
 30
0.0
 11
7940.323701566686
 21
3444.555063765605
 31
0.0
  0
LINE
  5
20AB1
330
2091F
100
AcDbEntity
  8
HASHIRA
100
AcDbLine
 10
7629.123701566685
 20
3505.055063765604
 30
0.0
 11
7940.323701566686
 21
3505.055063765604
 31
0.0
  0
ARC
  5
20AB2
330
2091F
100
AcDbEntity
  8
HASHIRA
100
AcDbCircle
 10
7629.123701566685
 20
3474.805063765605
 30
0.0
 40
30.25
100
AcDbArc
 50
90.0
 51
270.0
  0
CIRCLE
  5
20AB3
330
2091F
100
AcDbEntity
  8
HARI
100
AcDbCircle
 10
7592.736755386413
 20
3808.047672138151
 30
0.0
 40
6.0
  0
LINE
  5
20AB4
330
2091F
100
AcDbEntity
  8
HASHIRA
100
AcDbLine
 10
7539.538340723066
 20
3775.47132063426
 30
0.0
 11
7543.044413660031
 21
3845.383461586749
 31
0.0
  0
LINE
  5
20AB5
330
2091F
100
AcDbEntity
  8
HASHIRA
100
AcDbLine
 10
7642.409062410301
 20
3770.312384741256
 30
0.0
 11
7539.538340723066
 21
3775.47132063426
 31
0.0
  0
LINE
  5
20AB6
330
2091F
100
AcDbEntity
  8
HASHIRA
100
AcDbLine
 10
7645.91513534726
 20
3840.224525693744
 30
0.0
 11
7642.409062410301
 21
3770.312384741256
 31
0.0
  0
LINE
  5
20AB7
330
2091F
100
AcDbEntity
  8
HASHIRA
100
AcDbLine
 10
7543.044413660031
 20
3845.383461586749
 30
0.0
 11
7645.91513534726
 21
3840.224525693744
 31
0.0
  0
LINE
  5
20AB8
330
2091F
100
AcDbEntity
  8
1PL-S1
100
AcDbLine
 10
7590.973701566683
 20
3772.891852687757
 30
0.0
 11
7596.080181659086
 21
3874.716590053427
 31
0.0
  0
LINE
  5
20AB9
330
2091F
100
AcDbEntity
  8
MOYA_KANGU
100
AcDbLine
 10
7563.431517603283
 20
3862.58392648766
 30
0.0
 11
7565.72863080601
 21
3862.468726948302
 31
0.0
  0
LINE
  5
20ABA
330
2091F
100
AcDbEntity
  8
MOYA
100
AcDbLine
 10
7557.98575753629
 20
3872.869596790345
 30
0.0
 11
7571.200284324547
 21
3872.20689222836
 31
0.0
  0
CIRCLE
  5
20ABB
330
2091F
100
AcDbEntity
  8
HARI
100
AcDbCircle
 10
7592.736755386413
 20
3808.047672138151
 30
0.0
 40
6.0
  0
LINE
  5
20ABC
330
2091F
100
AcDbEntity
  8
HARI
100
AcDbLine
 10
7637.531282709784
 20
3842.75354115976
 30
0.0
 11
7638.184630516501
 21
3855.781491454897
 31
0.0
  0
LINE
  5
20ABD
330
2091F
100
AcDbEntity
  8
HARI
100
AcDbLine
 10
7587.594039172294
 20
3845.257878971898
 30
0.0
 11
7588.24738697901
 21
3858.285829267034
 31
0.0
  0
LINE
  5
20ABE
330
2091F
100
AcDbEntity
  8
HASHIRA
100
AcDbLine
 10
8235.527686639766
 20
3810.655632777085
 30
0.0
 11
8152.631862367531
 21
3814.812833545237
 31
0.0
  0
LINE
  5
20ABF
330
2091F
100
AcDbEntity
  8
HASHIRA
100
AcDbLine
 10
8149.125789430568
 20
3744.900692592744
 30
0.0
 11
8232.021613702803
 21
3740.743491824596
 31
0.0
  0
LINE
  5
20AC0
330
2091F
100
AcDbEntity
  8
MOYA
100
AcDbLine
 10
8147.245231278683
 20
3843.318410607114
 30
0.0
 11
8160.45975806694
 21
3842.655706045126
 31
0.0
  0
LINE
  5
20AC1
330
2091F
100
AcDbEntity
  8
MOYA
100
AcDbLine
 10
8149.248701528419
 20
3883.268205437106
 30
0.0
 11
8162.463228316669
 21
3882.605500875119
 31
0.0
  0
LINE
  5
20AC2
330
2091F
100
AcDbEntity
  8
MOYA_KANGU
100
AcDbLine
 10
8152.69099134568
 20
3833.032740304428
 30
0.0
 11
8154.988104548404
 21
3832.91754076507
 31
0.0
  0
LINE
  5
20AC3
330
2091F
100
AcDbEntity
  8
HASHIRA
100
AcDbLine
 10
8152.631862367531
 20
3814.812833545237
 30
0.0
 11
8149.125789430568
 21
3744.900692592744
 31
0.0
  0
LINE
  5
20AC4
330
2091F
100
AcDbEntity
  8
HASHIRA
100
AcDbLine
 10
8232.021613702803
 20
3740.743491824596
 30
0.0
 11
8235.527686639766
 21
3810.655632777085
 31
0.0
  0
LINE
  5
20AC5
330
2091F
100
AcDbEntity
  8
1PL-S1
100
AcDbLine
 10
8190.573701566686
 20
3742.822092208672
 30
0.0
 11
8195.065472573421
 21
3832.389346910821
 31
0.0
  0
LINE
  5
20AC6
330
2091F
100
AcDbEntity
  8
1PL-M1
100
AcDbLine
 10
8190.573701566682
 20
3725.055063765605
 30
0.0
 11
8190.573701566682
 21
3742.822092208672
 31
0.0
  0
LINE
  5
20AC7
330
2091F
100
AcDbEntity
  8
HASHIRA
100
AcDbLine
 10
8160.323701566682
 20
3725.055063765605
 30
0.0
 11
8160.323701566682
 21
3744.339120651788
 31
0.0
  0
LINE
  5
20AC8
330
2091F
100
AcDbEntity
  8
HASHIRA
100
AcDbLine
 10
8220.823701566684
 20
3725.055063765605
 30
0.0
 11
8220.823701566684
 21
3741.305063765556
 31
0.0
  0
LINE
  5
20AC9
330
2091F
100
AcDbEntity
  8
YANE_UKE
100
AcDbLine
 10
8169.523654991802
 20
3891.162607279812
 30
0.0
 11
8174.51737934555
 21
3890.912173498597
 31
0.0
  0
LINE
  5
20ACA
330
2091F
100
AcDbEntity
  8
YANE_UKE
100
AcDbLine
 10
8169.724002016774
 20
3895.157586762811
 30
0.0
 11
8174.717726370522
 21
3894.907152981596
 31
0.0
  0
LINE
  5
20ACB
330
2091F
100
AcDbEntity
  8
YANE_UKE
100
AcDbLine
 10
8169.673915260533
 20
3894.158841892061
 30
0.0
 11
8174.667639614282
 21
3893.908408110844
 31
0.0
  0
LINE
  5
20ACC
330
2091F
100
AcDbEntity
  8
YANE_UKE
100
AcDbLine
 10
8169.749045394899
 20
3895.656959198185
 30
0.0
 11
8169.523654991802
 21
3891.162607279812
 31
0.0
  0
LINE
  5
20ACD
330
2091F
100
AcDbEntity
  8
YANE_UKE
100
AcDbLine
 10
8174.51737934555
 20
3890.912173498597
 30
0.0
 11
8174.742769748647
 21
3895.406525416967
 31
0.0
  0
CIRCLE
  5
20ACE
330
2091F
100
AcDbEntity
  8
HASHIRA
100
AcDbCircle
 10
8192.336755386413
 20
3777.977911659064
 30
0.0
 40
6.0
  0
CIRCLE
  5
20ACF
330
2091F
100
AcDbEntity
  8
HARI
100
AcDbCircle
 10
8266.16627543113
 20
3779.782295219649
 30
0.0
 40
1.5
  0
CIRCLE
  5
20AD0
330
2091F
100
AcDbEntity
  8
HARI
100
AcDbCircle
 10
8191.983677836306
 20
3777.995618392491
 30
0.0
 40
6.0
  0
LINE
  5
20AD1
330
2091F
100
AcDbEntity
  8
HARI
100
AcDbLine
 10
8226.790756452178
 20
3813.202354976527
 30
0.0
 11
8227.444104258893
 21
3826.230305271666
 31
0.0
  0
LINE
  5
20AD2
330
2091F
100
AcDbEntity
  8
HARI
100
AcDbLine
 10
8176.853512914687
 20
3815.706692788666
 30
0.0
 11
8177.506860721406
 21
3828.734643083802
 31
0.0
  0
ARC
  5
20AD3
330
2091F
100
AcDbEntity
  8
KERABA
100
AcDbCircle
 10
8198.42227634256
 20
3519.055256912059
 30
0.0
 40
295.8
100
AcDbArc
 50
16.07164098912314
 51
69.33554093275981
  0
ARC
  5
20AD4
330
2091F
100
AcDbEntity
  8
KERABA
100
AcDbCircle
 10
8198.42227634256
 20
3519.055256912059
 30
0.0
 40
295.0
100
AcDbArc
 50
16.07164098912314
 51
69.18782183166732
  0
ARC
  5
20AD5
330
2091F
100
AcDbEntity
  8
KERABA
100
AcDbCircle
 10
8484.455281887301
 20
3599.37974793989
 30
0.0
 40
2.0
100
AcDbArc
 50
23.37452780505778
 51
106.0716409891314
  0
ARC
  5
20AD6
330
2091F
100
AcDbEntity
  8
KERABA
100
AcDbCircle
 10
8495.470455045026
 20
3604.140626042179
 30
0.0
 40
10.0
100
AcDbArc
 50
203.3745278049212
 51
284.1290390148889
  0
LINE
  5
20AD7
330
2091F
100
AcDbEntity
  8
KERABA
100
AcDbLine
 10
8481.89258354508
 20
3600.722783717427
 30
0.0
 11
8483.901603739473
 21
3601.301580531095
 31
0.0
  0
CIRCLE
  5
20AD8
330
2091F
100
AcDbEntity
  8
KERABA
100
AcDbCircle
 10
8502.634011514528
 20
3600.787870865477
 30
0.0
 40
2.5
  0
LINE
  5
20AD9
330
2091F
100
AcDbEntity
  8
HARI_CAP
100
AcDbLine
 10
8285.831807476219
 20
3742.893858795216
 30
0.0
 11
8294.426569022638
 21
3751.474066625801
 31
0.0
  0
LINE
  5
20ADA
330
2091F
100
AcDbEntity
  8
HARI_CAP
100
AcDbLine
 10
8279.269195133272
 20
3741.57806122289
 30
0.0
 11
8283.025701851478
 21
3816.483926529129
 31
0.0
  0
ARC
  5
20ADB
330
2091F
100
AcDbEntity
  8
HARI_CAP
100
AcDbCircle
 10
8282.299270777278
 20
3746.432387369451
 30
0.0
 40
5.0
100
AcDbArc
 50
267.1290390149096
 51
314.9514487464149
  0
LINE
  5
20ADC
330
2091F
100
AcDbEntity
  8
HARI_CAP
100
AcDbLine
 10
8279.269195133272
 20
3741.57806122289
 30
0.0
 11
8282.048836996066
 21
3741.438663015701
 31
0.0
  0
LINE
  5
20ADD
330
2091F
100
AcDbEntity
  8
HARI_CAP
100
AcDbLine
 10
8283.025701851478
 20
3816.483926529129
 30
0.0
 11
8285.805343714274
 21
3816.344528321938
 31
0.0
  0
LINE
  5
20ADE
330
2091F
100
AcDbEntity
  8
HARI_CAP
100
AcDbLine
 10
8289.423744536021
 20
3814.518155987607
 30
0.0
 11
8297.116952254826
 21
3805.121111375008
 31
0.0
  0
ARC
  5
20ADF
330
2091F
100
AcDbEntity
  8
HARI_CAP
100
AcDbCircle
 10
8285.554909933054
 20
3811.350803968185
 30
0.0
 40
5.0
100
AcDbArc
 50
39.30662928336828
 51
87.12903901490951
  0
ARC
  5
20AE0
330
2091F
100
AcDbEntity
  8
HARI_CAP
100
AcDbCircle
 10
8266.16627543113
 20
3779.782295219649
 30
0.0
 40
40.0
100
AcDbArc
 50
314.9514487464149
 51
39.30662928336828
  0
LINE
  5
20AE1
330
2091F
100
AcDbEntity
  8
SUNPOU
100
AcDbLine
 10
7615.736100552614
 20
4278.640694791435
 30
0.0
 11
8175.033228172502
 21
4250.592111295232
 31
0.0
  0
LINE
  5
20AE2
330
2091F
100
AcDbEntity
  8
SUNPOU
100
AcDbLine
 10
7585.657981141219
 20
3978.354379365129
 30
0.0
 11
7602.257530178665
 21
4309.354342257577
 31
0.0
  0
LINE
  5
20AE3
330
2091F
100
AcDbEntity
  8
SUNPOU
100
AcDbLine
 10
7585.657981141219
 20
3978.354379365129
 30
0.0
 11
7602.257530178665
 21
4309.354342257577
 31
0.0
  0
LINE
  5
20AE4
330
2091F
100
AcDbEntity
  8
YANE_UKE
100
AcDbLine
 10
7580.489571652503
 20
3925.208145381417
 30
0.0
 11
7580.264181249406
 21
3920.713793463043
 31
0.0
  0
LINE
  5
20AE5
330
2091F
100
AcDbEntity
  8
YANE_UKE
100
AcDbLine
 10
7582.563659429516
 20
3916.652680756401
 30
0.0
 11
7584.155378453933
 21
3948.392033242898
 31
0.0
  0
LINE
  5
20AE6
330
2091F
100
AcDbEntity
  8
YANE_UKE
100
AcDbLine
 10
7585.257905603156
 20
3920.463359681826
 30
0.0
 11
7585.483296006252
 21
3924.957711600201
 31
0.0
  0
LINE
  5
20AE7
330
2091F
100
AcDbEntity
  8
YANE_UKE
100
AcDbLine
 10
7580.264181249406
 20
3920.713793463043
 30
0.0
 11
7585.257905603156
 21
3920.463359681826
 31
0.0
  0
LINE
  5
20AE8
330
2091F
100
AcDbEntity
  8
MOYA
100
AcDbLine
 10
7559.989227786019
 20
3912.819391620338
 30
0.0
 11
7573.203754574276
 21
3912.156687058352
 31
0.0
  0
LINE
  5
20AE9
330
2091F
100
AcDbEntity
  8
YANE_UKE
100
AcDbLine
 10
7571.358606476763
 20
3942.787550233672
 30
0.0
 11
7596.32722824551
 21
3941.535381327591
 31
0.0
  0
LINE
  5
20AEA
330
2091F
100
AcDbEntity
  8
YANE_UKE
100
AcDbLine
 10
7570.582261754996
 20
3927.307004737049
 30
0.0
 11
7571.358606476763
 21
3942.787550233672
 31
0.0
  0
LINE
  5
20AEB
330
2091F
100
AcDbEntity
  8
YANE_UKE
100
AcDbLine
 10
7596.32722824551
 20
3941.535381327591
 30
0.0
 11
7595.550883523739
 21
3926.054835830969
 31
0.0
  0
LINE
  5
20AEC
330
2091F
100
AcDbEntity
  8
YANE_UKE
100
AcDbLine
 10
7595.550883523739
 20
3926.054835830969
 30
0.0
 11
7570.582261754996
 21
3927.307004737049
 31
0.0
  0
LINE
  5
20AED
330
2091F
100
AcDbEntity
  8
YANE_UKE
100
AcDbLine
 10
7570.627339835613
 20
3928.205875120724
 30
0.0
 11
7595.595961604359
 21
3926.953706214642
 31
0.0
  0
LINE
  5
20AEE
330
2091F
100
AcDbEntity
  8
YANE_UKE
100
AcDbLine
 10
7580.464528274385
 20
3924.708772946041
 30
0.0
 11
7585.45825262813
 21
3924.458339164827
 31
0.0
  0
LINE
  5
20AEF
330
2091F
100
AcDbEntity
  8
YANE_UKE
100
AcDbLine
 10
7580.414441518141
 20
3923.710028075293
 30
0.0
 11
7585.408165871888
 21
3923.459594294078
 31
0.0
  0
LINE
  5
20AF0
330
2091F
100
AcDbEntity
  8
KERABA
100
AcDbLine
 10
7583.632552984903
 20
3937.966737323196
 30
0.0
 11
7584.133420547335
 21
3947.954186030693
 31
0.0
  0
TEXT
  5
20AF1
330
2091F
100
AcDbEntity
  8
SUNPOU
100
AcDbText
 10
7812.03186518638
 20
4313.853072762207
 30
0.0
 40
90.0
  1
590
 50
357.1290390148575
 41
0.6666666666666666
  7
00
 72
     1
 11
7899.892472424451
 21
4354.503441410815
 31
0.0
100
AcDbText
 73
     2
  0
LINE
  5
20AF2
330
2091F
100
AcDbEntity
  8
SUNPOU
100
AcDbLine
 10
8174.917454883603
 20
3948.803193181629
 30
0.0
 11
8191.517003921047
 21
4279.803156074075
 31
0.0
  0
LINE
  5
20AF3
330
2091F
100
AcDbEntity
  8
YANE_UKE
100
AcDbLine
 10
8159.841735497392
 20
3897.755818553818
 30
0.0
 11
8160.618080219157
 21
3913.236364050441
 31
0.0
  0
LINE
  5
20AF4
330
2091F
100
AcDbEntity
  8
YANE_UKE
100
AcDbLine
 10
8159.88681357801
 20
3898.654688937494
 30
0.0
 11
8184.855435346754
 21
3897.402520031411
 31
0.0
  0
LINE
  5
20AF5
330
2091F
100
AcDbEntity
  8
YANE_UKE
100
AcDbLine
 10
8160.618080219157
 20
3913.236364050441
 30
0.0
 11
8185.586701987904
 21
3911.98419514436
 31
0.0
  0
LINE
  5
20AF6
330
2091F
100
AcDbEntity
  8
KERABA
100
AcDbLine
 10
8172.892026727279
 20
3908.41555113967
 30
0.0
 11
8173.392894289715
 21
3918.402999847169
 31
0.0
  0
TEXT
  5
20AF7
330
2091F
100
AcDbEntity
  8
SUNPOU
100
AcDbText
 10
8935.973701566684
 20
1810.933635194176
 30
0.0
 40
90.0
  1
50
 50
90.0
 41
0.6666666666666666
  7
00
 72
     1
 11
8890.973701566684
 21
1868.076492337033
 31
0.0
100
AcDbText
 73
     2
  0
TEXT
  5
20AF8
330
2091F
100
AcDbEntity
  8
SUNPOU
100
AcDbText
 10
8935.973701566684
 20
2582.622424374852
 30
0.0
 40
90.0
  1
1822
 50
90.0
 41
0.6666666666666666
  7
00
 72
     1
 11
8890.973701566684
 21
2701.193852946281
 31
0.0
100
AcDbText
 73
     2
  0
LINE
  5
20AF9
330
2091F
100
AcDbEntity
  8
SUNPOU
100
AcDbLine
 10
8585.577273705148
 20
3666.946408138145
 30
0.0
 11
8585.577273705148
 21
4531.391364710041
 31
0.0
  0
LINE
  5
20AFA
330
2091F
100
AcDbEntity
  8
SUNPOU
100
AcDbLine
 10
8609.535366143271
 20
3615.582642126956
 30
0.0
 11
9010.973701566685
 21
3615.582642126956
 31
0.0
  0
LINE
  5
20AFB
330
2091F
100
AcDbEntity
  8
TOI
100
AcDbLine
 10
8545.327514081124
 20
3608.465070359322
 30
0.0
 11
8533.639177891075
 21
3640.17977983471
 31
0.0
  0
LINE
  5
20AFC
330
2091F
100
AcDbEntity
  8
TOI
100
AcDbLine
 10
8544.972016330499
 20
3607.694602093072
 30
0.0
 11
8532.868709624821
 21
3640.535277585339
 31
0.0
  0
LINE
  5
20AFD
330
2091F
100
AcDbEntity
  8
TOI
100
AcDbLine
 10
8558.035108256754
 20
3649.170807673216
 30
0.0
 11
8533.639177891075
 21
3640.17977983471
 31
0.0
  0
LINE
  5
20AFE
330
2091F
100
AcDbEntity
  8
TOI
100
AcDbLine
 10
8557.264639990506
 20
3649.52630542384
 30
0.0
 11
8532.868709624821
 21
3640.535277585339
 31
0.0
  0
LINE
  5
20AFF
330
2091F
100
AcDbEntity
  8
TOI
100
AcDbLine
 10
8550.053332304051
 20
3657.52612051241
 30
0.0
 11
8558.12275542501
 21
3660.500075874377
 31
0.0
  0
LINE
  5
20B00
330
2091F
100
AcDbEntity
  8
TOI
100
AcDbLine
 10
8576.325872697863
 20
3667.208765876953
 30
0.0
 11
8568.256449576907
 21
3664.234810514987
 31
0.0
  0
LINE
  5
20B01
330
2091F
100
AcDbEntity
  8
TOI
100
AcDbLine
 10
8569.11456501141
 20
3675.20858096552
 30
0.0
 11
8568.551582002976
 21
3675.001095707712
 31
0.0
  0
LINE
  5
20B02
330
2091F
100
AcDbEntity
  8
TOI
100
AcDbLine
 10
8550.911447738554
 20
3668.499890962947
 30
0.0
 11
8550.348464730118
 21
3668.292405705136
 31
0.0
  0
LINE
  5
20B03
330
2091F
100
AcDbEntity
  8
TOI
100
AcDbLine
 10
8550.911447738554
 20
3668.499890962947
 30
0.0
 11
8558.035108256754
 21
3649.170807673216
 31
0.0
  0
LINE
  5
20B04
330
2091F
100
AcDbEntity
  8
TOI
100
AcDbLine
 10
8550.348464730118
 20
3668.292405705136
 30
0.0
 11
8557.264639990506
 21
3649.52630542384
 31
0.0
  0
LINE
  5
20B05
330
2091F
100
AcDbEntity
  8
TOI
100
AcDbLine
 10
8568.551582002976
 20
3675.001095707712
 30
0.0
 11
8587.363578711222
 21
3623.957302942586
 31
0.0
  0
LINE
  5
20B06
330
2091F
100
AcDbEntity
  8
TOI
100
AcDbLine
 10
8569.11456501141
 20
3675.20858096552
 30
0.0
 11
8588.134046977478
 21
3623.601805191962
 31
0.0
  0
LINE
  5
20B07
330
2091F
100
AcDbEntity
  8
TOI
100
AcDbLine
 10
8587.363578711222
 20
3623.957302942586
 30
0.0
 11
8545.327514081124
 21
3608.465070359322
 31
0.0
  0
LINE
  5
20B08
330
2091F
100
AcDbEntity
  8
TOI
100
AcDbLine
 10
8588.134046977478
 20
3623.601805191962
 30
0.0
 11
8544.972016330499
 21
3607.694602093072
 31
0.0
  0
LINE
  5
20B09
330
2091F
100
AcDbEntity
  8
YANE
100
AcDbLine
 10
8581.593417021549
 20
3638.2256763365
 30
0.0
 11
8566.303115187308
 21
3633.513280998921
 31
0.0
  0
CIRCLE
  5
20B0A
330
2091F
100
AcDbEntity
  8
KERABA
100
AcDbCircle
 10
8558.885404658946
 20
3614.947556521361
 30
0.0
 40
2.5
  0
LINE
  5
20B0B
330
2091F
100
AcDbEntity
  8
KERABA
100
AcDbLine
 10
8555.497366885047
 20
3655.342525994951
 30
0.0
 11
8575.802050535061
 21
3660.453651635665
 31
0.0
  0
LINE
  5
20B0C
330
2091F
100
AcDbEntity
  8
SUNPOU
100
AcDbLine
 10
6331.596742355274
 20
1798.055063765603
 30
0.0
 11
6331.596742355274
 21
1809.305063765603
 31
0.0
  0
LINE
  5
20B0D
330
2091F
100
AcDbEntity
  8
SUNPOU
100
AcDbLine
 10
6331.596742355274
 20
3882.26436737656
 30
0.0
 11
6331.596742355274
 21
3871.01436737656
 31
0.0
  0
LINE
  5
20B0E
330
2091F
100
AcDbEntity
  8
SUNPOU
100
AcDbLine
 10
6331.596742355274
 20
3882.26436737656
 30
0.0
 11
6331.596742355274
 21
3871.01436737656
 31
0.0
  0
LINE
  5
20B0F
330
2091F
100
AcDbEntity
  8
SUNPOU
100
AcDbLine
 10
6331.596742355274
 20
4002.641364710039
 30
0.0
 11
6331.596742355274
 21
4013.891364710042
 31
0.0
  0
LINE
  5
20B10
330
2091F
100
AcDbEntity
  8
SUNPOU
100
AcDbLine
 10
8980.973701566684
 20
1798.055063765604
 30
0.0
 11
8980.973701566684
 21
1809.305063765604
 31
0.0
  0
LINE
  5
20B11
330
2091F
100
AcDbEntity
  8
SUNPOU
100
AcDbLine
 10
6596.827273705149
 20
4501.391364710045
 30
0.0
 11
6608.077273705148
 21
4501.391364710045
 31
0.0
  0
LINE
  5
20B12
330
2091F
100
AcDbEntity
  8
SUNPOU
100
AcDbLine
 10
7022.731333544922
 20
4308.379706310843
 30
0.0
 11
7033.967213340857
 21
4307.816230303108
 31
0.0
  0
LINE
  5
20B13
330
2091F
100
AcDbEntity
  8
SUNPOU
100
AcDbLine
 10
7611.990807287305
 20
4278.828520127347
 30
0.0
 11
7623.226687083239
 21
4278.265044119611
 31
0.0
  0
LINE
  5
20B14
330
2091F
100
AcDbEntity
  8
SUNPOU
100
AcDbLine
 10
7589.519047695436
 20
4279.955472142819
 30
0.0
 11
7578.283167899499
 21
4280.518948150554
 31
0.0
  0
LINE
  5
20B15
330
2091F
100
AcDbEntity
  8
SUNPOU
100
AcDbLine
 10
8178.778521437816
 20
4250.404285959321
 30
0.0
 11
8167.542641641883
 21
4250.967761967057
 31
0.0
  0
LINE
  5
20B16
330
2091F
100
AcDbEntity
  8
SUNPOU
100
AcDbLine
 10
8980.973701566684
 20
3604.332642126956
 30
0.0
 11
8980.973701566684
 21
3593.082642126956
 31
0.0
  0
LINE
  5
20B17
330
2091F
100
AcDbEntity
  8
SUNPOU
100
AcDbLine
 10
8574.327273705149
 20
4501.391364710045
 30
0.0
 11
8563.077273705149
 21
4501.391364710045
 31
0.0
  0
TEXT
  5
20B18
330
2091F
100
AcDbEntity
  8
NAME
100
AcDbText
 10
9402.694977008239
 20
716.2499999999992
 30
0.0
 40
120.0
  1
YOTR
 41
0.7
  7
01
100
AcDbText
  0
TEXT
  5
20B19
330
2091F
100
AcDbEntity
  8
NAME
100
AcDbText
 10
8327.765992739108
 20
716.2499999999992
 30
0.0
 40
120.0
  1
ヨド自転車置場      型
  7
01
100
AcDbText
  0
TEXT
  5
20B1A
330
2091F
100
AcDbEntity
  8
NAME
100
AcDbText
 10
8862.031985478219
 20
405.75
 30
0.0
 40
120.0
  1
型（一般地用）
 41
0.8
  7
01
100
AcDbText
  0
TEXT
  5
20B1B
330
2091F
100
AcDbEntity
  8
NAME
100
AcDbText
 10
8192.031985478219
 20
405.75
 30
0.0
 40
120.0
  1
YOTR-240
 41
0.7
  7
01
 72
     2
 11
8832.03198547822
 21
405.75
 31
0.0
100
AcDbText
  0
TEXT
  5
20B1C
330
2091F
100
AcDbEntity
  8
NAME
100
AcDbText
 10
9641.100000000001
 20
405.7500000000001
 30
0.0
 40
120.0
  1
<1／3>
 41
0.6
  7
01
 72
     2
 11
10015.49999999999
 21
405.7500000000001
 31
0.0
100
AcDbText
  0
TEXT
  5
20B1D
330
2091F
100
AcDbEntity
  8
HIKIDASHI
100
AcDbText
 10
5402.29798154466
 20
5163.354642405096
 30
0.0
 40
135.0
  1
正 面 立 面 図
  7
01
 72
     2
 11
6491.29798154466
 21
5163.354642405096
 31
0.0
100
AcDbText
  0
TEXT
  5
20B1E
330
2091F
100
AcDbEntity
  8
HIKIDASHI
100
AcDbText
 10
6592.547981544662
 20
5190.148139464937
 30
0.0
 40
90.0
  1
(S=
 41
0.6700000000000001
  7
00
100
AcDbText
  0
TEXT
  5
20B1F
330
2091F
100
AcDbEntity
  8
HIKIDASHI
100
AcDbText
 10
6885.20571617986
 20
5160.709329364625
 30
0.0
 40
90.0
  1
30
 41
0.6700000000000001
  7
00
100
AcDbText
  0
TEXT
  5
20B20
330
2091F
100
AcDbEntity
  8
HIKIDASHI
100
AcDbText
 10
7021.810479250099
 20
5190.148139464937
 30
0.0
 40
90.0
  1
)
 41
0.6700000000000001
  7
00
100
AcDbText
  0
TEXT
  5
20B21
330
2091F
100
AcDbEntity
  8
HIKIDASHI
100
AcDbText
 10
6833.123667071892
 20
5190.148139464937
 30
0.0
 40
90.0
  1
/
 41
0.6700000000000001
  7
00
100
AcDbText
  0
TEXT
  5
20B22
330
2091F
100
AcDbEntity
  8
HIKIDASHI
100
AcDbText
 10
6795.844386974543
 20
5207.654801931656
 30
0.0
 40
90.0
  1
1
 41
0.6700000000000001
  7
00
100
AcDbText
  0
TEXT
  5
20B23
330
2091F
100
AcDbEntity
  8
HIKIDASHI
100
AcDbText
 10
5693.53841383215
 20
4983.354642405099
 30
0.0
 40
120.0
  1
（  ：スパン数）
  7
01
 72
     4
 11
6249.538413832151
 21
5043.354642405098
 31
0.0
100
AcDbText
  0
TEXT
  5
20B24
330
2091F
100
AcDbEntity
  8
HIKIDASHI
100
AcDbText
 10
5872.128097142454
 20
4983.354642405099
 30
0.0
 40
120.0
  1
N
 41
0.6666666666666666
  7
00
 72
     4
 11
5914.032859047214
 21
5043.354642405098
 31
0.0
100
AcDbText
  0
TEXT
  5
20B25
330
2091F
100
AcDbEntity
  8
HIKIDASHI
100
AcDbText
 10
1929.828502525257
 20
1284.289947154653
 30
0.0
 40
135.0
  1
側 面 立 面 図
  7
01
 72
     2
 11
3018.828502525257
 21
1284.289947154653
 31
0.0
100
AcDbText
  0
TEXT
  5
20B26
330
2091F
100
AcDbEntity
  8
HIKIDASHI
100
AcDbText
 10
3120.078502525257
 20
1311.083444214492
 30
0.0
 40
90.0
  1
(S=
 41
0.6700000000000001
  7
00
100
AcDbText
  0
TEXT
  5
20B27
330
2091F
100
AcDbEntity
  8
HIKIDASHI
100
AcDbText
 10
3412.736237160454
 20
1281.64463411418
 30
0.0
 40
90.0
  1
30
 41
0.6700000000000001
  7
00
100
AcDbText
  0
TEXT
  5
20B28
330
2091F
100
AcDbEntity
  8
HIKIDASHI
100
AcDbText
 10
3549.341000230694
 20
1311.083444214492
 30
0.0
 40
90.0
  1
)
 41
0.6700000000000001
  7
00
100
AcDbText
  0
TEXT
  5
20B29
330
2091F
100
AcDbEntity
  8
HIKIDASHI
100
AcDbText
 10
3360.654188052488
 20
1311.083444214492
 30
0.0
 40
90.0
  1
/
 41
0.6700000000000001
  7
00
100
AcDbText
  0
TEXT
  5
20B2A
330
2091F
100
AcDbEntity
  8
HIKIDASHI
100
AcDbText
 10
3323.37490795514
 20
1328.590106681214
 30
0.0
 40
90.0
  1
1
 41
0.6700000000000001
  7
00
100
AcDbText
  0
TEXT
  5
20B2B
330
2091F
100
AcDbEntity
  8
HIKIDASHI
100
AcDbText
 10
5266.825486752935
 20
1284.289947154653
 30
0.0
 40
135.0
  1
側 面 断 面 図
  7
01
 72
     2
 11
6355.825486752935
 21
1284.289947154653
 31
0.0
100
AcDbText
  0
TEXT
  5
20B2C
330
2091F
100
AcDbEntity
  8
HIKIDASHI
100
AcDbText
 10
6457.075486752934
 20
1311.083444214492
 30
0.0
 40
90.0
  1
(S=
 41
0.6700000000000001
  7
00
100
AcDbText
  0
TEXT
  5
20B2D
330
2091F
100
AcDbEntity
  8
HIKIDASHI
100
AcDbText
 10
6749.73322138813
 20
1281.64463411418
 30
0.0
 40
90.0
  1
30
 41
0.6700000000000001
  7
00
100
AcDbText
  0
TEXT
  5
20B2E
330
2091F
100
AcDbEntity
  8
HIKIDASHI
100
AcDbText
 10
6886.33798445837
 20
1311.083444214492
 30
0.0
 40
90.0
  1
)
 41
0.6700000000000001
  7
00
100
AcDbText
  0
TEXT
  5
20B2F
330
2091F
100
AcDbEntity
  8
HIKIDASHI
100
AcDbText
 10
6697.651172280163
 20
1311.083444214492
 30
0.0
 40
90.0
  1
/
 41
0.6700000000000001
  7
00
100
AcDbText
  0
TEXT
  5
20B30
330
2091F
100
AcDbEntity
  8
HIKIDASHI
100
AcDbText
 10
6660.371892182817
 20
1328.590106681214
 30
0.0
 40
90.0
  1
1
 41
0.6700000000000001
  7
00
100
AcDbText
  0
TEXT
  5
20B31
330
2091F
100
AcDbEntity
  8
HIKIDASHI
100
AcDbText
 10
8632.085133620753
 20
2960.916270012596
 30
0.0
 40
90.0
  1
0.8
 41
0.6700000000000001
  7
00
100
AcDbText
  0
TEXT
  5
20B32
330
2091F
100
AcDbEntity
  8
HIKIDASHI
100
AcDbText
 10
7918.542128781012
 20
2960.916270012596
 30
0.0
 40
90.0
  1
けらば包み
  7
01
 72
     2
 11
8428.542128781014
 21
2960.916270012596
 31
0.0
100
AcDbText
  0
TEXT
  5
20B33
330
2091F
100
AcDbEntity
  8
HIKIDASHI
100
AcDbText
 10
8496.011659684077
 20
2968.416270012596
 30
0.0
 40
75.0
  1
ア
  7
01
 72
     1
 11
8528.511659684077
 21
3005.916270012596
 31
0.0
100
AcDbText
 73
     2
  0
CIRCLE
  5
20B34
330
2091F
100
AcDbEntity
  8
HIKIDASHI
100
AcDbCircle
 10
8528.511659684077
 20
3005.916270012596
 30
0.0
 40
60.0
  0
LINE
  5
20B35
330
2091F
100
AcDbEntity
  8
HIKIDASHI
100
AcDbLine
 10
7888.542128781013
 20
2915.916270012596
 30
0.0
 11
8797.042276477894
 21
2915.916270012596
 31
0.0
  0
TEXT
  5
20B36
330
2091F
100
AcDbEntity
  8
HIKIDASHI
100
AcDbText
 10
6245.365785150956
 20
4336.740775902097
 30
0.0
 40
90.0
  1
1.6
 41
0.6700000000000001
  7
00
100
AcDbText
  0
TEXT
  5
20B37
330
2091F
100
AcDbEntity
  8
HIKIDASHI
100
AcDbText
 10
5849.822780311217
 20
4336.740775902097
 30
0.0
 40
90.0
  1
母屋
  7
01
 72
     2
 11
6041.822780311217
 21
4336.740775902097
 31
0.0
100
AcDbText
  0
TEXT
  5
20B38
330
2091F
100
AcDbEntity
  8
HIKIDASHI
100
AcDbText
 10
6109.292311214279
 20
4344.240775902098
 30
0.0
 40
75.0
  1
ア
  7
01
 72
     1
 11
6141.792311214278
 21
4381.740775902097
 31
0.0
100
AcDbText
 73
     2
  0
CIRCLE
  5
20B39
330
2091F
100
AcDbEntity
  8
HIKIDASHI
100
AcDbCircle
 10
6141.792311214278
 20
4381.740775902097
 30
0.0
 40
60.0
  0
LINE
  5
20B3A
330
2091F
100
AcDbEntity
  8
HIKIDASHI
100
AcDbLine
 10
5819.822780311216
 20
4291.740775902098
 30
0.0
 11
6410.322928008098
 21
4291.740775902098
 31
0.0
  0
TEXT
  5
20B3B
330
2091F
100
AcDbEntity
  8
HIKIDASHI
100
AcDbText
 10
7176.406220031044
 20
3470.340745024625
 30
0.0
 40
90.0
  1
2.3
 41
0.6700000000000001
  7
00
100
AcDbText
  0
TEXT
  5
20B3C
330
2091F
100
AcDbEntity
  8
HIKIDASHI
100
AcDbText
 10
6888.863215191306
 20
3470.340745024625
 30
0.0
 40
90.0
  1
梁
  7
01
 72
     2
 11
6972.863215191306
 21
3470.340745024625
 31
0.0
100
AcDbText
  0
TEXT
  5
20B3D
330
2091F
100
AcDbEntity
  8
HIKIDASHI
100
AcDbText
 10
7040.332746094367
 20
3477.840745024625
 30
0.0
 40
75.0
  1
ア
  7
01
 72
     1
 11
7072.832746094366
 21
3515.340745024625
 31
0.0
100
AcDbText
 73
     2
  0
CIRCLE
  5
20B3E
330
2091F
100
AcDbEntity
  8
HIKIDASHI
100
AcDbCircle
 10
7072.832746094366
 20
3515.340745024625
 30
0.0
 40
60.0
  0
LINE
  5
20B3F
330
2091F
100
AcDbEntity
  8
HIKIDASHI
100
AcDbLine
 10
6858.863215191306
 20
3425.340745024625
 30
0.0
 11
7341.363362888187
 21
3425.340745024625
 31
0.0
  0
LINE
  5
20B40
330
2091F
100
AcDbEntity
  8
YANE
100
AcDbLine
 10
2448.018857932428
 20
7408.502162099157
 30
0.0
 11
2448.018857932428
 21
7587.508122720166
 31
0.0
  0
LINE
  5
20B41
330
2091F
100
AcDbEntity
  8
YANE
100
AcDbLine
 10
2431.368857932428
 20
7408.502162099157
 30
0.0
 11
2431.368857932428
 21
7587.508122720166
 31
0.0
  0
LINE
  5
20B42
330
2091F
100
AcDbEntity
  8
YANE
100
AcDbLine
 10
2404.368857932428
 20
7408.502162099157
 30
0.0
 11
2404.368857932428
 21
7587.508122720166
 31
0.0
  0
LINE
  5
20B43
330
2091F
100
AcDbEntity
  8
YANE
100
AcDbLine
 10
2521.018857932429
 20
7408.502162099157
 30
0.0
 11
2521.018857932429
 21
7587.508122720166
 31
0.0
  0
LINE
  5
20B44
330
2091F
100
AcDbEntity
  8
YANE
100
AcDbLine
 10
2537.668857932427
 20
7408.502162099157
 30
0.0
 11
2537.668857932427
 21
7587.508122720166
 31
0.0
  0
LINE
  5
20B45
330
2091F
100
AcDbEntity
  8
YANE
100
AcDbLine
 10
2564.668857932427
 20
7408.502162099157
 30
0.0
 11
2564.668857932427
 21
7587.508122720166
 31
0.0
  0
LINE
  5
20B46
330
2091F
100
AcDbEntity
  8
YANE
100
AcDbLine
 10
2581.318857932426
 20
7408.502162099157
 30
0.0
 11
2581.318857932428
 21
7587.508122720166
 31
0.0
  0
LINE
  5
20B47
330
2091F
100
AcDbEntity
  8
YANE
100
AcDbLine
 10
2714.518857932425
 20
7408.502162099157
 30
0.0
 11
2714.518857932425
 21
7587.508122720166
 31
0.0
  0
LINE
  5
20B48
330
2091F
100
AcDbEntity
  8
YANE
100
AcDbLine
 10
2697.868857932427
 20
7408.502162099157
 30
0.0
 11
2697.868857932427
 21
7587.508122720166
 31
0.0
  0
LINE
  5
20B49
330
2091F
100
AcDbEntity
  8
YANE
100
AcDbLine
 10
2670.868857932426
 20
7408.502162099157
 30
0.0
 11
2670.868857932426
 21
7587.508122720166
 31
0.0
  0
LINE
  5
20B4A
330
2091F
100
AcDbEntity
  8
YANE
100
AcDbLine
 10
2804.168857932425
 20
7408.502162099157
 30
0.0
 11
2804.168857932425
 21
7587.508122720166
 31
0.0
  0
LINE
  5
20B4B
330
2091F
100
AcDbEntity
  8
YANE
100
AcDbLine
 10
2787.518857932428
 20
7408.502162099157
 30
0.0
 11
2787.518857932428
 21
7587.508122720166
 31
0.0
  0
LINE
  5
20B4C
330
2091F
100
AcDbEntity
  8
YANE
100
AcDbLine
 10
3070.768857932423
 20
7408.502162099157
 30
0.0
 11
3070.768857932423
 21
7587.508122720166
 31
0.0
  0
LINE
  5
20B4D
330
2091F
100
AcDbEntity
  8
YANE
100
AcDbLine
 10
3054.118857932426
 20
7408.502162099157
 30
0.0
 11
3054.118857932426
 21
7587.508122720166
 31
0.0
  0
LINE
  5
20B4E
330
2091F
100
AcDbEntity
  8
YANE
100
AcDbLine
 10
2847.818857932425
 20
7408.502162099157
 30
0.0
 11
2847.818857932425
 21
7587.508122720166
 31
0.0
  0
LINE
  5
20B4F
330
2091F
100
AcDbEntity
  8
YANE
100
AcDbLine
 10
2831.168857932425
 20
7408.502162099157
 30
0.0
 11
2831.168857932425
 21
7587.508122720166
 31
0.0
  0
LINE
  5
20B50
330
2091F
100
AcDbEntity
  8
YANE
100
AcDbLine
 10
2964.468857932423
 20
7408.502162099157
 30
0.0
 11
2964.468857932423
 21
7587.508122720166
 31
0.0
  0
LINE
  5
20B51
330
2091F
100
AcDbEntity
  8
YANE
100
AcDbLine
 10
2937.468857932424
 20
7408.502162099157
 30
0.0
 11
2937.468857932424
 21
7587.508122720166
 31
0.0
  0
LINE
  5
20B52
330
2091F
100
AcDbEntity
  8
YANE
100
AcDbLine
 10
2920.818857932427
 20
7408.502162099157
 30
0.0
 11
2920.818857932427
 21
7587.508122720166
 31
0.0
  0
LINE
  5
20B53
330
2091F
100
AcDbEntity
  8
YANE
100
AcDbLine
 10
2981.118857932424
 20
7408.502162099157
 30
0.0
 11
2981.118857932424
 21
7587.508122720166
 31
0.0
  0
LINE
  5
20B54
330
2091F
100
AcDbEntity
  8
YANE
100
AcDbLine
 10
3320.718857932424
 20
7408.502162099157
 30
0.0
 11
3320.718857932424
 21
7587.508122720166
 31
0.0
  0
LINE
  5
20B55
330
2091F
100
AcDbEntity
  8
YANE
100
AcDbLine
 10
3114.418857932423
 20
7408.502162099157
 30
0.0
 11
3114.418857932423
 21
7587.508122720166
 31
0.0
  0
LINE
  5
20B56
330
2091F
100
AcDbEntity
  8
YANE
100
AcDbLine
 10
3097.768857932424
 20
7408.502162099157
 30
0.0
 11
3097.768857932424
 21
7587.508122720166
 31
0.0
  0
LINE
  5
20B57
330
2091F
100
AcDbEntity
  8
YANE
100
AcDbLine
 10
3231.068857932423
 20
7408.502162099157
 30
0.0
 11
3231.068857932423
 21
7587.508122720166
 31
0.0
  0
LINE
  5
20B58
330
2091F
100
AcDbEntity
  8
YANE
100
AcDbLine
 10
3204.068857932423
 20
7408.502162099157
 30
0.0
 11
3204.068857932423
 21
7587.508122720166
 31
0.0
  0
LINE
  5
20B59
330
2091F
100
AcDbEntity
  8
YANE
100
AcDbLine
 10
3187.418857932425
 20
7408.502162099157
 30
0.0
 11
3187.418857932425
 21
7587.508122720166
 31
0.0
  0
LINE
  5
20B5A
330
2091F
100
AcDbEntity
  8
YANE
100
AcDbLine
 10
3247.718857932422
 20
7408.502162099157
 30
0.0
 11
3247.718857932422
 21
7587.508122720166
 31
0.0
  0
LINE
  5
20B5B
330
2091F
100
AcDbEntity
  8
YANE
100
AcDbLine
 10
3381.018857932422
 20
7408.502162099157
 30
0.0
 11
3381.018857932423
 21
7587.508122720166
 31
0.0
  0
LINE
  5
20B5C
330
2091F
100
AcDbEntity
  8
YANE
100
AcDbLine
 10
3364.368857932424
 20
7408.502162099157
 30
0.0
 11
3364.368857932424
 21
7587.508122720166
 31
0.0
  0
LINE
  5
20B5D
330
2091F
100
AcDbEntity
  8
YANE
100
AcDbLine
 10
3337.368857932423
 20
7408.502162099157
 30
0.0
 11
3337.368857932423
 21
7587.508122720166
 31
0.0
  0
LINE
  5
20B5E
330
2091F
100
AcDbEntity
  8
YANE
100
AcDbLine
 10
3470.668857932421
 20
7408.502162099157
 30
0.0
 11
3470.668857932421
 21
7587.508122720166
 31
0.0
  0
LINE
  5
20B5F
330
2091F
100
AcDbEntity
  8
YANE
100
AcDbLine
 10
3454.018857932423
 20
7408.502162099157
 30
0.0
 11
3454.018857932423
 21
7587.508122720166
 31
0.0
  0
LINE
  5
20B60
330
2091F
100
AcDbEntity
  8
YANE
100
AcDbLine
 10
3514.318857932421
 20
7408.502162099157
 30
0.0
 11
3514.318857932423
 21
7587.508122720166
 31
0.0
  0
LINE
  5
20B61
330
2091F
100
AcDbEntity
  8
YANE
100
AcDbLine
 10
3497.668857932421
 20
7408.502162099157
 30
0.0
 11
3497.668857932421
 21
7587.508122720166
 31
0.0
  0
LINE
  5
20B62
330
2091F
100
AcDbEntity
  8
YANE
100
AcDbLine
 10
3780.918857932418
 20
7408.502162099157
 30
0.0
 11
3780.918857932421
 21
7587.508122720166
 31
0.0
  0
LINE
  5
20B63
330
2091F
100
AcDbEntity
  8
YANE
100
AcDbLine
 10
3647.61885793242
 20
7408.502162099157
 30
0.0
 11
3647.618857932422
 21
7587.508122720166
 31
0.0
  0
LINE
  5
20B64
330
2091F
100
AcDbEntity
  8
YANE
100
AcDbLine
 10
3630.968857932421
 20
7408.502162099157
 30
0.0
 11
3630.968857932421
 21
7587.508122720166
 31
0.0
  0
LINE
  5
20B65
330
2091F
100
AcDbEntity
  8
YANE
100
AcDbLine
 10
3603.968857932422
 20
7408.502162099157
 30
0.0
 11
3603.968857932422
 21
7587.508122720166
 31
0.0
  0
LINE
  5
20B66
330
2091F
100
AcDbEntity
  8
YANE
100
AcDbLine
 10
3587.318857932423
 20
7408.502162099157
 30
0.0
 11
3587.318857932423
 21
7587.508122720166
 31
0.0
  0
LINE
  5
20B67
330
2091F
100
AcDbEntity
  8
YANE
100
AcDbLine
 10
3737.26885793242
 20
7408.502162099157
 30
0.0
 11
3737.26885793242
 21
7587.508122720166
 31
0.0
  0
LINE
  5
20B68
330
2091F
100
AcDbEntity
  8
YANE
100
AcDbLine
 10
3720.618857932422
 20
7408.502162099157
 30
0.0
 11
3720.618857932422
 21
7587.508122720166
 31
0.0
  0
LINE
  5
20B69
330
2091F
100
AcDbEntity
  8
YANE
100
AcDbLine
 10
3764.26885793242
 20
7408.502162099157
 30
0.0
 11
3764.26885793242
 21
7587.508122720166
 31
0.0
  0
LINE
  5
20B6A
330
2091F
100
AcDbEntity
  8
YANE
100
AcDbLine
 10
4030.868857932418
 20
7408.502162099157
 30
0.0
 11
4030.868857932418
 21
7587.508122720166
 31
0.0
  0
LINE
  5
20B6B
330
2091F
100
AcDbEntity
  8
YANE
100
AcDbLine
 10
4047.518857932417
 20
7408.502162099157
 30
0.0
 11
4047.518857932419
 21
7587.508122720166
 31
0.0
  0
LINE
  5
20B6C
330
2091F
100
AcDbEntity
  8
YANE
100
AcDbLine
 10
3914.218857932418
 20
7408.502162099157
 30
0.0
 11
3914.218857932421
 21
7587.508122720166
 31
0.0
  0
LINE
  5
20B6D
330
2091F
100
AcDbEntity
  8
YANE
100
AcDbLine
 10
3897.568857932418
 20
7408.502162099157
 30
0.0
 11
3897.568857932418
 21
7587.508122720166
 31
0.0
  0
LINE
  5
20B6E
330
2091F
100
AcDbEntity
  8
YANE
100
AcDbLine
 10
3870.56885793242
 20
7408.502162099157
 30
0.0
 11
3870.56885793242
 21
7587.508122720166
 31
0.0
  0
LINE
  5
20B6F
330
2091F
100
AcDbEntity
  8
YANE
100
AcDbLine
 10
3853.918857932421
 20
7408.502162099157
 30
0.0
 11
3853.918857932421
 21
7587.508122720166
 31
0.0
  0
LINE
  5
20B70
330
2091F
100
AcDbEntity
  8
YANE
100
AcDbLine
 10
3987.21885793242
 20
7408.502162099157
 30
0.0
 11
3987.21885793242
 21
7587.508122720166
 31
0.0
  0
LINE
  5
20B71
330
2091F
100
AcDbEntity
  8
YANE
100
AcDbLine
 10
4003.868857932418
 20
7408.502162099157
 30
0.0
 11
4003.868857932418
 21
7587.508122720166
 31
0.0
  0
LINE
  5
20B72
330
2091F
100
AcDbEntity
  8
YANE
100
AcDbLine
 10
4297.468857932417
 20
7408.502162099157
 30
0.0
 11
4297.468857932417
 21
7587.508122720166
 31
0.0
  0
LINE
  5
20B73
330
2091F
100
AcDbEntity
  8
YANE
100
AcDbLine
 10
4314.118857932418
 20
7408.502162099157
 30
0.0
 11
4314.118857932419
 21
7587.508122720166
 31
0.0
  0
LINE
  5
20B74
330
2091F
100
AcDbEntity
  8
YANE
100
AcDbLine
 10
4120.518857932421
 20
7408.502162099157
 30
0.0
 11
4120.518857932421
 21
7587.508122720166
 31
0.0
  0
LINE
  5
20B75
330
2091F
100
AcDbEntity
  8
YANE
100
AcDbLine
 10
4137.168857932419
 20
7408.502162099157
 30
0.0
 11
4137.168857932419
 21
7587.508122720166
 31
0.0
  0
LINE
  5
20B76
330
2091F
100
AcDbEntity
  8
YANE
100
AcDbLine
 10
4164.16885793242
 20
7408.502162099157
 30
0.0
 11
4164.16885793242
 21
7587.508122720166
 31
0.0
  0
LINE
  5
20B77
330
2091F
100
AcDbEntity
  8
YANE
100
AcDbLine
 10
4180.818857932417
 20
7408.502162099157
 30
0.0
 11
4180.818857932421
 21
7587.508122720166
 31
0.0
  0
LINE
  5
20B78
330
2091F
100
AcDbEntity
  8
YANE
100
AcDbLine
 10
4253.818857932421
 20
7408.502162099157
 30
0.0
 11
4253.818857932421
 21
7587.508122720166
 31
0.0
  0
LINE
  5
20B79
330
2091F
100
AcDbEntity
  8
YANE
100
AcDbLine
 10
4270.468857932417
 20
7408.502162099157
 30
0.0
 11
4270.468857932417
 21
7587.508122720166
 31
0.0
  0
LINE
  5
20B7A
330
2091F
100
AcDbEntity
  8
YANE
100
AcDbLine
 10
4537.068857932418
 20
7408.502162099157
 30
0.0
 11
4537.068857932418
 21
7587.508122720166
 31
0.0
  0
LINE
  5
20B7B
330
2091F
100
AcDbEntity
  8
YANE
100
AcDbLine
 10
4564.06885793242
 20
7408.502162099157
 30
0.0
 11
4564.06885793242
 21
7587.508122720166
 31
0.0
  0
LINE
  5
20B7C
330
2091F
100
AcDbEntity
  8
YANE
100
AcDbLine
 10
4387.118857932422
 20
7408.502162099157
 30
0.0
 11
4387.118857932422
 21
7587.508122720166
 31
0.0
  0
LINE
  5
20B7D
330
2091F
100
AcDbEntity
  8
YANE
100
AcDbLine
 10
4403.76885793242
 20
7408.502162099157
 30
0.0
 11
4403.76885793242
 21
7587.508122720166
 31
0.0
  0
LINE
  5
20B7E
330
2091F
100
AcDbEntity
  8
YANE
100
AcDbLine
 10
4430.76885793242
 20
7408.502162099157
 30
0.0
 11
4430.76885793242
 21
7587.508122720166
 31
0.0
  0
LINE
  5
20B7F
330
2091F
100
AcDbEntity
  8
YANE
100
AcDbLine
 10
4447.418857932419
 20
7408.502162099157
 30
0.0
 11
4447.41885793242
 21
7587.508122720166
 31
0.0
  0
LINE
  5
20B80
330
2091F
100
AcDbEntity
  8
YANE
100
AcDbLine
 10
4520.41885793242
 20
7408.502162099157
 30
0.0
 11
4520.41885793242
 21
7587.508122720166
 31
0.0
  0
LINE
  5
20B81
330
2091F
100
AcDbEntity
  8
YANE
100
AcDbLine
 10
4787.018857932421
 20
7408.502162099157
 30
0.0
 11
4787.018857932421
 21
7587.508122720166
 31
0.0
  0
LINE
  5
20B82
330
2091F
100
AcDbEntity
  8
YANE
100
AcDbLine
 10
4803.668857932419
 20
7408.502162099157
 30
0.0
 11
4803.668857932419
 21
7587.508122720166
 31
0.0
  0
LINE
  5
20B83
330
2091F
100
AcDbEntity
  8
YANE
100
AcDbLine
 10
4580.718857932418
 20
7408.502162099157
 30
0.0
 11
4580.718857932418
 21
7587.508122720166
 31
0.0
  0
LINE
  5
20B84
330
2091F
100
AcDbEntity
  8
YANE
100
AcDbLine
 10
4653.71885793242
 20
7408.502162099157
 30
0.0
 11
4653.71885793242
 21
7587.508122720166
 31
0.0
  0
LINE
  5
20B85
330
2091F
100
AcDbEntity
  8
YANE
100
AcDbLine
 10
4670.368857932418
 20
7408.502162099157
 30
0.0
 11
4670.36885793242
 21
7587.508122720166
 31
0.0
  0
LINE
  5
20B86
330
2091F
100
AcDbEntity
  8
YANE
100
AcDbLine
 10
4697.368857932418
 20
7408.502162099157
 30
0.0
 11
4697.368857932418
 21
7587.508122720166
 31
0.0
  0
LINE
  5
20B87
330
2091F
100
AcDbEntity
  8
YANE
100
AcDbLine
 10
4714.018857932418
 20
7408.502162099157
 30
0.0
 11
4714.01885793242
 21
7587.508122720166
 31
0.0
  0
LINE
  5
20B88
330
2091F
100
AcDbEntity
  8
YANE
100
AcDbLine
 10
4830.668857932419
 20
7408.502162099157
 30
0.0
 11
4830.668857932419
 21
7587.508122720166
 31
0.0
  0
LINE
  5
20B89
330
2091F
100
AcDbEntity
  8
YANE
100
AcDbLine
 10
4847.318857932418
 20
7408.502162099157
 30
0.0
 11
4847.318857932418
 21
7587.508122720166
 31
0.0
  0
LINE
  5
20B8A
330
2091F
100
AcDbEntity
  8
YANE
100
AcDbLine
 10
4920.318857932421
 20
7408.502162099157
 30
0.0
 11
4920.318857932421
 21
7587.508122720166
 31
0.0
  0
LINE
  5
20B8B
330
2091F
100
AcDbEntity
  8
YANE
100
AcDbLine
 10
4936.968857932418
 20
7408.502162099157
 30
0.0
 11
4936.968857932418
 21
7587.508122720166
 31
0.0
  0
LINE
  5
20B8C
330
2091F
100
AcDbEntity
  8
YANE
100
AcDbLine
 10
4963.968857932419
 20
7408.502162099157
 30
0.0
 11
4963.968857932419
 21
7587.508122720166
 31
0.0
  0
LINE
  5
20B8D
330
2091F
100
AcDbEntity
  8
YANE
100
AcDbLine
 10
4980.618857932417
 20
7408.502162099157
 30
0.0
 11
4980.618857932419
 21
7587.508122720166
 31
0.0
  0
LINE
  5
20B8E
330
2091F
100
AcDbEntity
  8
YANE
100
AcDbLine
 10
6163.668857932414
 20
7408.502162099157
 30
0.0
 11
6163.668857932414
 21
7587.508122720166
 31
0.0
  0
LINE
  5
20B8F
330
2091F
100
AcDbEntity
  8
YANE
100
AcDbLine
 10
5113.918857932418
 20
7408.502162099157
 30
0.0
 11
5113.918857932418
 21
7587.508122720166
 31
0.0
  0
LINE
  5
20B90
330
2091F
100
AcDbEntity
  8
YANE
100
AcDbLine
 10
5097.268857932419
 20
7408.502162099157
 30
0.0
 11
5097.268857932419
 21
7587.508122720166
 31
0.0
  0
LINE
  5
20B91
330
2091F
100
AcDbEntity
  8
YANE
100
AcDbLine
 10
5247.218857932418
 20
7408.502162099157
 30
0.0
 11
5247.218857932418
 21
7587.508122720166
 31
0.0
  0
LINE
  5
20B92
330
2091F
100
AcDbEntity
  8
YANE
100
AcDbLine
 10
5230.568857932416
 20
7408.502162099157
 30
0.0
 11
5230.568857932416
 21
7587.508122720166
 31
0.0
  0
LINE
  5
20B93
330
2091F
100
AcDbEntity
  8
YANE
100
AcDbLine
 10
5203.568857932418
 20
7408.502162099157
 30
0.0
 11
5203.568857932418
 21
7587.508122720166
 31
0.0
  0
LINE
  5
20B94
330
2091F
100
AcDbEntity
  8
YANE
100
AcDbLine
 10
5186.918857932419
 20
7408.502162099157
 30
0.0
 11
5186.918857932419
 21
7587.508122720166
 31
0.0
  0
LINE
  5
20B95
330
2091F
100
AcDbEntity
  8
YANE
100
AcDbLine
 10
5380.518857932418
 20
7408.502162099157
 30
0.0
 11
5380.518857932418
 21
7587.508122720166
 31
0.0
  0
LINE
  5
20B96
330
2091F
100
AcDbEntity
  8
YANE
100
AcDbLine
 10
5363.868857932416
 20
7408.502162099157
 30
0.0
 11
5363.868857932416
 21
7587.508122720166
 31
0.0
  0
LINE
  5
20B97
330
2091F
100
AcDbEntity
  8
YANE
100
AcDbLine
 10
5336.868857932416
 20
7408.502162099157
 30
0.0
 11
5336.868857932416
 21
7587.508122720166
 31
0.0
  0
LINE
  5
20B98
330
2091F
100
AcDbEntity
  8
YANE
100
AcDbLine
 10
5320.218857932418
 20
7408.502162099157
 30
0.0
 11
5320.218857932418
 21
7587.508122720166
 31
0.0
  0
LINE
  5
20B99
330
2091F
100
AcDbEntity
  8
YANE
100
AcDbLine
 10
5513.818857932414
 20
7408.502162099157
 30
0.0
 11
5513.818857932414
 21
7587.508122720166
 31
0.0
  0
LINE
  5
20B9A
330
2091F
100
AcDbEntity
  8
YANE
100
AcDbLine
 10
5497.168857932416
 20
7408.502162099157
 30
0.0
 11
5497.168857932416
 21
7587.508122720166
 31
0.0
  0
LINE
  5
20B9B
330
2091F
100
AcDbEntity
  8
YANE
100
AcDbLine
 10
5470.168857932415
 20
7408.502162099157
 30
0.0
 11
5470.168857932415
 21
7587.508122720166
 31
0.0
  0
LINE
  5
20B9C
330
2091F
100
AcDbEntity
  8
YANE
100
AcDbLine
 10
5453.518857932419
 20
7408.502162099157
 30
0.0
 11
5453.518857932419
 21
7587.508122720166
 31
0.0
  0
LINE
  5
20B9D
330
2091F
100
AcDbEntity
  8
YANE
100
AcDbLine
 10
5647.118857932414
 20
7408.502162099157
 30
0.0
 11
5647.118857932414
 21
7587.508122720166
 31
0.0
  0
LINE
  5
20B9E
330
2091F
100
AcDbEntity
  8
YANE
100
AcDbLine
 10
5630.468857932415
 20
7408.502162099157
 30
0.0
 11
5630.468857932415
 21
7587.508122720166
 31
0.0
  0
LINE
  5
20B9F
330
2091F
100
AcDbEntity
  8
YANE
100
AcDbLine
 10
5603.468857932415
 20
7408.502162099157
 30
0.0
 11
5603.468857932415
 21
7587.508122720166
 31
0.0
  0
LINE
  5
20BA0
330
2091F
100
AcDbEntity
  8
YANE
100
AcDbLine
 10
5586.818857932416
 20
7408.502162099157
 30
0.0
 11
5586.818857932416
 21
7587.508122720166
 31
0.0
  0
LINE
  5
20BA1
330
2091F
100
AcDbEntity
  8
YANE
100
AcDbLine
 10
5780.418857932414
 20
7408.502162099157
 30
0.0
 11
5780.418857932414
 21
7587.508122720166
 31
0.0
  0
LINE
  5
20BA2
330
2091F
100
AcDbEntity
  8
YANE
100
AcDbLine
 10
5763.768857932415
 20
7408.502162099157
 30
0.0
 11
5763.768857932415
 21
7587.508122720166
 31
0.0
  0
LINE
  5
20BA3
330
2091F
100
AcDbEntity
  8
YANE
100
AcDbLine
 10
5736.768857932415
 20
7408.502162099157
 30
0.0
 11
5736.768857932415
 21
7587.508122720166
 31
0.0
  0
LINE
  5
20BA4
330
2091F
100
AcDbEntity
  8
YANE
100
AcDbLine
 10
5720.118857932416
 20
7408.502162099157
 30
0.0
 11
5720.118857932416
 21
7587.508122720166
 31
0.0
  0
LINE
  5
20BA5
330
2091F
100
AcDbEntity
  8
YANE
100
AcDbLine
 10
5913.718857932415
 20
7408.502162099157
 30
0.0
 11
5913.718857932415
 21
7587.508122720166
 31
0.0
  0
LINE
  5
20BA6
330
2091F
100
AcDbEntity
  8
YANE
100
AcDbLine
 10
5897.068857932413
 20
7408.502162099157
 30
0.0
 11
5897.068857932413
 21
7587.508122720166
 31
0.0
  0
LINE
  5
20BA7
330
2091F
100
AcDbEntity
  8
YANE
100
AcDbLine
 10
5870.068857932414
 20
7408.502162099157
 30
0.0
 11
5870.068857932414
 21
7587.508122720166
 31
0.0
  0
LINE
  5
20BA8
330
2091F
100
AcDbEntity
  8
YANE
100
AcDbLine
 10
5853.418857932414
 20
7408.502162099157
 30
0.0
 11
5853.418857932414
 21
7587.508122720166
 31
0.0
  0
LINE
  5
20BA9
330
2091F
100
AcDbEntity
  8
YANE
100
AcDbLine
 10
6047.018857932411
 20
7408.502162099157
 30
0.0
 11
6047.018857932412
 21
7587.508122720166
 31
0.0
  0
LINE
  5
20BAA
330
2091F
100
AcDbEntity
  8
YANE
100
AcDbLine
 10
6030.368857932412
 20
7408.502162099157
 30
0.0
 11
6030.368857932412
 21
7587.508122720166
 31
0.0
  0
LINE
  5
20BAB
330
2091F
100
AcDbEntity
  8
YANE
100
AcDbLine
 10
6003.368857932414
 20
7408.502162099157
 30
0.0
 11
6003.368857932414
 21
7587.508122720166
 31
0.0
  0
LINE
  5
20BAC
330
2091F
100
AcDbEntity
  8
YANE
100
AcDbLine
 10
5986.718857932415
 20
7408.502162099157
 30
0.0
 11
5986.718857932415
 21
7587.508122720166
 31
0.0
  0
LINE
  5
20BAD
330
2091F
100
AcDbEntity
  8
YANE
100
AcDbLine
 10
6136.668857932414
 20
7408.502162099157
 30
0.0
 11
6136.668857932414
 21
7587.508122720166
 31
0.0
  0
LINE
  5
20BAE
330
2091F
100
AcDbEntity
  8
YANE
100
AcDbLine
 10
6120.018857932414
 20
7408.502162099157
 30
0.0
 11
6120.018857932414
 21
7587.508122720166
 31
0.0
  0
LINE
  5
20BAF
330
2091F
100
AcDbEntity
  8
YANE
100
AcDbLine
 10
5070.268857932417
 20
7408.502162099157
 30
0.0
 11
5070.268857932417
 21
7587.508122720166
 31
0.0
  0
LINE
  5
20BB0
330
2091F
100
AcDbEntity
  8
YANE
100
AcDbLine
 10
6331.418857932444
 20
7408.502162099157
 30
0.0
 11
6331.418857932444
 21
7587.508122720166
 31
0.0
  0
LINE
  5
20BB1
330
2091F
100
AcDbEntity
  8
YANE
100
AcDbLine
 10
6314.768857932446
 20
7408.502162099157
 30
0.0
 11
6314.768857932446
 21
7587.508122720166
 31
0.0
  0
LINE
  5
20BB2
330
2091F
100
AcDbEntity
  8
YANE
100
AcDbLine
 10
6287.768857932447
 20
7408.502162099157
 30
0.0
 11
6287.768857932447
 21
7587.508122720166
 31
0.0
  0
LINE
  5
20BB3
330
2091F
100
AcDbEntity
  8
YANE
100
AcDbLine
 10
6464.718857932441
 20
7408.502162099157
 30
0.0
 11
6464.718857932441
 21
7587.508122720166
 31
0.0
  0
LINE
  5
20BB4
330
2091F
100
AcDbEntity
  8
YANE
100
AcDbLine
 10
6448.068857932445
 20
7408.502162099157
 30
0.0
 11
6448.068857932445
 21
7587.508122720166
 31
0.0
  0
LINE
  5
20BB5
330
2091F
100
AcDbEntity
  8
YANE
100
AcDbLine
 10
6421.068857932444
 20
7408.502162099157
 30
0.0
 11
6421.068857932444
 21
7587.508122720166
 31
0.0
  0
LINE
  5
20BB6
330
2091F
100
AcDbEntity
  8
YANE
100
AcDbLine
 10
6404.418857932445
 20
7408.502162099157
 30
0.0
 11
6404.418857932445
 21
7587.508122720166
 31
0.0
  0
LINE
  5
20BB7
330
2091F
100
AcDbEntity
  8
YANE
100
AcDbLine
 10
6598.018857932442
 20
7408.502162099157
 30
0.0
 11
6598.018857932442
 21
7587.508122720166
 31
0.0
  0
LINE
  5
20BB8
330
2091F
100
AcDbEntity
  8
YANE
100
AcDbLine
 10
6581.368857932442
 20
7408.502162099157
 30
0.0
 11
6581.368857932442
 21
7587.508122720166
 31
0.0
  0
LINE
  5
20BB9
330
2091F
100
AcDbEntity
  8
YANE
100
AcDbLine
 10
6554.368857932445
 20
7408.502162099157
 30
0.0
 11
6554.368857932445
 21
7587.508122720166
 31
0.0
  0
LINE
  5
20BBA
330
2091F
100
AcDbEntity
  8
YANE
100
AcDbLine
 10
6537.718857932444
 20
7408.502162099157
 30
0.0
 11
6537.718857932441
 21
7587.508122720166
 31
0.0
  0
LINE
  5
20BBB
330
2091F
100
AcDbEntity
  8
YANE
100
AcDbLine
 10
6731.31885793244
 20
7408.502162099157
 30
0.0
 11
6731.31885793244
 21
7587.508122720166
 31
0.0
  0
LINE
  5
20BBC
330
2091F
100
AcDbEntity
  8
YANE
100
AcDbLine
 10
6714.668857932443
 20
7408.502162099157
 30
0.0
 11
6714.668857932443
 21
7587.508122720166
 31
0.0
  0
LINE
  5
20BBD
330
2091F
100
AcDbEntity
  8
YANE
100
AcDbLine
 10
6687.668857932445
 20
7408.502162099157
 30
0.0
 11
6687.668857932445
 21
7587.508122720166
 31
0.0
  0
LINE
  5
20BBE
330
2091F
100
AcDbEntity
  8
YANE
100
AcDbLine
 10
6671.018857932444
 20
7408.502162099157
 30
0.0
 11
6671.018857932441
 21
7587.508122720166
 31
0.0
  0
LINE
  5
20BBF
330
2091F
100
AcDbEntity
  8
YANE
100
AcDbLine
 10
6864.618857932441
 20
7408.502162099157
 30
0.0
 11
6864.618857932441
 21
7587.508122720166
 31
0.0
  0
LINE
  5
20BC0
330
2091F
100
AcDbEntity
  8
YANE
100
AcDbLine
 10
6847.968857932442
 20
7408.502162099157
 30
0.0
 11
6847.968857932442
 21
7587.508122720166
 31
0.0
  0
LINE
  5
20BC1
330
2091F
100
AcDbEntity
  8
YANE
100
AcDbLine
 10
6820.968857932441
 20
7408.502162099157
 30
0.0
 11
6820.968857932441
 21
7587.508122720166
 31
0.0
  0
LINE
  5
20BC2
330
2091F
100
AcDbEntity
  8
YANE
100
AcDbLine
 10
6804.318857932442
 20
7408.502162099157
 30
0.0
 11
6804.318857932442
 21
7587.508122720166
 31
0.0
  0
LINE
  5
20BC3
330
2091F
100
AcDbEntity
  8
YANE
100
AcDbLine
 10
6997.918857932441
 20
7408.502162099157
 30
0.0
 11
6997.918857932441
 21
7587.508122720166
 31
0.0
  0
LINE
  5
20BC4
330
2091F
100
AcDbEntity
  8
YANE
100
AcDbLine
 10
6981.268857932443
 20
7408.502162099157
 30
0.0
 11
6981.268857932443
 21
7587.508122720166
 31
0.0
  0
LINE
  5
20BC5
330
2091F
100
AcDbEntity
  8
YANE
100
AcDbLine
 10
6954.268857932442
 20
7408.502162099157
 30
0.0
 11
6954.268857932442
 21
7587.508122720166
 31
0.0
  0
LINE
  5
20BC6
330
2091F
100
AcDbEntity
  8
YANE
100
AcDbLine
 10
6937.618857932442
 20
7408.502162099157
 30
0.0
 11
6937.618857932442
 21
7587.508122720166
 31
0.0
  0
LINE
  5
20BC7
330
2091F
100
AcDbEntity
  8
YANE
100
AcDbLine
 10
7131.21885793244
 20
7408.502162099157
 30
0.0
 11
7131.21885793244
 21
7587.508122720166
 31
0.0
  0
LINE
  5
20BC8
330
2091F
100
AcDbEntity
  8
YANE
100
AcDbLine
 10
7114.568857932441
 20
7408.502162099157
 30
0.0
 11
7114.568857932441
 21
7587.508122720166
 31
0.0
  0
LINE
  5
20BC9
330
2091F
100
AcDbEntity
  8
YANE
100
AcDbLine
 10
7087.56885793244
 20
7408.502162099157
 30
0.0
 11
7087.56885793244
 21
7587.508122720166
 31
0.0
  0
LINE
  5
20BCA
330
2091F
100
AcDbEntity
  8
YANE
100
AcDbLine
 10
7070.918857932442
 20
7408.502162099157
 30
0.0
 11
7070.918857932442
 21
7587.508122720166
 31
0.0
  0
LINE
  5
20BCB
330
2091F
100
AcDbEntity
  8
YANE
100
AcDbLine
 10
7264.518857932436
 20
7408.502162099157
 30
0.0
 11
7264.518857932436
 21
7587.508122720166
 31
0.0
  0
LINE
  5
20BCC
330
2091F
100
AcDbEntity
  8
YANE
100
AcDbLine
 10
7247.86885793244
 20
7408.502162099157
 30
0.0
 11
7247.86885793244
 21
7587.508122720166
 31
0.0
  0
LINE
  5
20BCD
330
2091F
100
AcDbEntity
  8
YANE
100
AcDbLine
 10
7220.86885793244
 20
7408.502162099157
 30
0.0
 11
7220.86885793244
 21
7587.508122720166
 31
0.0
  0
LINE
  5
20BCE
330
2091F
100
AcDbEntity
  8
YANE
100
AcDbLine
 10
7204.218857932442
 20
7408.502162099157
 30
0.0
 11
7204.218857932442
 21
7587.508122720166
 31
0.0
  0
LINE
  5
20BCF
330
2091F
100
AcDbEntity
  8
YANE
100
AcDbLine
 10
7381.16885793244
 20
7408.502162099157
 30
0.0
 11
7381.16885793244
 21
7587.508122720166
 31
0.0
  0
LINE
  5
20BD0
330
2091F
100
AcDbEntity
  8
YANE
100
AcDbLine
 10
7354.168857932439
 20
7408.502162099157
 30
0.0
 11
7354.168857932439
 21
7587.508122720166
 31
0.0
  0
LINE
  5
20BD1
330
2091F
100
AcDbEntity
  8
YANE
100
AcDbLine
 10
7337.518857932443
 20
7408.502162099157
 30
0.0
 11
7337.51885793244
 21
7587.508122720166
 31
0.0
  0
LINE
  5
20BD2
330
2091F
100
AcDbEntity
  8
SUNPOU
100
AcDbLine
 10
9840.718857932429
 20
8130.802125207463
 30
0.0
 11
10051.71885793242
 21
8130.802125207463
 31
0.0
  0
TEXT
  5
20BD3
330
2091F
100
AcDbEntity
  8
SUNPOU
100
AcDbText
 10
9860.504572218143
 20
8175.802125207461
 30
0.0
 40
90.0
  1
238
 41
0.6666666666666666
  7
00
 72
     1
 11
9946.218857932429
 21
8220.802125207461
 31
0.0
100
AcDbText
 73
     2
  0
LINE
  5
20BD4
330
2091F
100
AcDbEntity
  8
SUNPOU
100
AcDbLine
 10
10066.71885793242
 20
7758.010895961368
 30
0.0
 11
10066.71885793242
 21
8160.802125207466
 31
0.0
  0
LINE
  5
20BD5
330
2091F
100
AcDbEntity
  8
CAP
100
AcDbLine
 10
9863.21885793243
 20
7623.058634944813
 30
0.0
 11
9863.21885793243
 21
7548.152769638578
 31
0.0
  0
LINE
  5
20BD6
330
2091F
100
AcDbEntity
  8
U1
100
AcDbLine
 10
9859.018857932428
 20
7518.881077028265
 30
0.0
 11
9859.018857932428
 21
7548.152769638574
 31
0.0
  0
LINE
  5
20BD7
330
2091F
100
AcDbEntity
  8
U1
100
AcDbLine
 10
9862.218857932429
 20
7548.152769638574
 30
0.0
 11
9862.218857932429
 21
7515.681077028261
 31
0.0
  0
LINE
  5
20BD8
330
2091F
100
AcDbEntity
  8
U1
100
AcDbLine
 10
9858.218857932428
 20
7548.152769638578
 30
0.0
 11
9858.218857932428
 21
7518.881077028265
 31
0.0
  0
LINE
  5
20BD9
330
2091F
100
AcDbEntity
  8
HANA
100
AcDbLine
 10
9863.21885793243
 20
7617.052437601437
 30
0.0
 11
10060.71885793242
 21
7617.052437601437
 31
0.0
  0
LINE
  5
20BDA
330
2091F
100
AcDbEntity
  8
HANA
100
AcDbLine
 10
9863.21885793243
 20
7587.508122720166
 30
0.0
 11
10060.71885793242
 21
7587.508122720166
 31
0.0
  0
LINE
  5
20BDB
330
2091F
100
AcDbEntity
  8
TOI
100
AcDbLine
 10
10060.71885793242
 20
7347.904358487092
 30
0.0
 11
9863.868857932429
 21
7347.904358487094
 31
0.0
  0
LINE
  5
20BDC
330
2091F
100
AcDbEntity
  8
YANE
100
AcDbLine
 10
9863.868857932429
 20
7408.502162099158
 30
0.0
 11
10060.71885793242
 21
7408.50216209916
 31
0.0
  0
LINE
  5
20BDD
330
2091F
100
AcDbEntity
  8
TOI
100
AcDbLine
 10
9863.868857932429
 20
7380.745033979358
 30
0.0
 11
10060.71885793242
 21
7380.745033979362
 31
0.0
  0
LINE
  5
20BDE
330
2091F
100
AcDbEntity
  8
TOI
100
AcDbLine
 10
9863.868857932429
 20
7389.736061817867
 30
0.0
 11
10060.71885793242
 21
7389.736061817867
 31
0.0
  0
LINE
  5
20BDF
330
2091F
100
AcDbEntity
  8
YANE
100
AcDbLine
 10
9886.768857932429
 20
7408.502162099157
 30
0.0
 11
9886.768857932429
 21
7587.508122720166
 31
0.0
  0
LINE
  5
20BE0
330
2091F
100
AcDbEntity
  8
YANE
100
AcDbLine
 10
9913.768857932431
 20
7408.502162099157
 30
0.0
 11
9913.768857932431
 21
7587.508122720166
 31
0.0
  0
LINE
  5
20BE1
330
2091F
100
AcDbEntity
  8
YANE
100
AcDbLine
 10
9870.118857932432
 20
7408.502162099157
 30
0.0
 11
9870.118857932428
 21
7587.508122720166
 31
0.0
  0
LINE
  5
20BE2
330
2091F
100
AcDbEntity
  8
YANE
100
AcDbLine
 10
9930.418857932428
 20
7408.502162099157
 30
0.0
 11
9930.418857932428
 21
7587.508122720166
 31
0.0
  0
LINE
  5
20BE3
330
2091F
100
AcDbEntity
  8
YANE
100
AcDbLine
 10
10003.41885793242
 20
7408.502162099157
 30
0.0
 11
10003.41885793242
 21
7587.508122720166
 31
0.0
  0
LINE
  5
20BE4
330
2091F
100
AcDbEntity
  8
YANE
100
AcDbLine
 10
10020.06885793243
 20
7408.502162099157
 30
0.0
 11
10020.06885793243
 21
7587.508122720166
 31
0.0
  0
LINE
  5
20BE5
330
2091F
100
AcDbEntity
  8
YANE
100
AcDbLine
 10
10047.06885793243
 20
7408.502162099157
 30
0.0
 11
10047.06885793243
 21
7587.508122720166
 31
0.0
  0
LINE
  5
20BE6
330
2091F
100
AcDbEntity
  8
KISO
100
AcDbLine
 10
10125.71885793242
 20
5477.014820159625
 30
0.0
 11
10125.71885793242
 21
5527.014820159628
 31
0.0
  0
LINE
  5
20BE7
330
2091F
100
AcDbEntity
  8
U1
100
AcDbLine
 10
9863.868857932429
 20
5527.014820159628
 30
0.0
 11
9863.868857932429
 21
7515.681077028261
 31
0.0
  0
LINE
  5
20BE8
330
2091F
100
AcDbEntity
  8
SUNPOU
100
AcDbLine
 10
9825.718857932429
 20
8003.194632209918
 30
0.0
 11
9825.718857932429
 21
8160.802125207466
 31
0.0
  0
LINE
  5
20BE9
330
2091F
100
AcDbEntity
  8
SUNPOU
100
AcDbLine
 10
9825.718857932429
 20
8003.194632209918
 30
0.0
 11
9825.718857932429
 21
8160.802125207466
 31
0.0
  0
TEXT
  5
20BEA
330
2091F
100
AcDbEntity
  8
SUNPOU
100
AcDbText
 10
8511.433143646716
 20
8175.802125207461
 30
0.0
 40
90.0
  1
2400
 41
0.6666666666666666
  7
00
 72
     4
 11
8625.718857932428
 21
8220.802125207461
 31
0.0
100
AcDbText
  0
LINE
  5
20BEB
330
2091F
100
AcDbEntity
  8
SUNPOU
100
AcDbLine
 10
7425.718857932429
 20
8003.194632209918
 30
0.0
 11
7425.718857932429
 21
8160.802125207466
 31
0.0
  0
LINE
  5
20BEC
330
2091F
100
AcDbEntity
  8
SUNPOU
100
AcDbLine
 10
7425.718857932429
 20
8003.194632209918
 30
0.0
 11
7425.718857932429
 21
8160.802125207466
 31
0.0
  0
LINE
  5
20BED
330
2091F
100
AcDbEntity
  8
SUNPOU
100
AcDbLine
 10
7440.71885793243
 20
8130.802125207463
 30
0.0
 11
9810.718857932428
 21
8130.802125207463
 31
0.0
  0
LINE
  5
20BEE
330
2091F
100
AcDbEntity
  8
CAP
100
AcDbLine
 10
9788.218857932429
 20
7623.058634944813
 30
0.0
 11
9788.218857932429
 21
7548.152769638578
 31
0.0
  0
LINE
  5
20BEF
330
2091F
100
AcDbEntity
  8
U1
100
AcDbLine
 10
9792.418857932428
 20
7548.152769638574
 30
0.0
 11
9792.418857932428
 21
7518.881077028265
 31
0.0
  0
LINE
  5
20BF0
330
2091F
100
AcDbEntity
  8
U1
100
AcDbLine
 10
9789.218857932429
 20
7515.681077028261
 30
0.0
 11
9789.218857932429
 21
7548.152769638574
 31
0.0
  0
LINE
  5
20BF1
330
2091F
100
AcDbEntity
  8
U1
100
AcDbLine
 10
9793.218857932425
 20
7548.152769638578
 30
0.0
 11
9793.218857932425
 21
7518.881077028265
 31
0.0
  0
LINE
  5
20BF2
330
2091F
100
AcDbEntity
  8
YANE
100
AcDbLine
 10
9736.918857932431
 20
7408.502162099157
 30
0.0
 11
9736.918857932431
 21
7587.508122720166
 31
0.0
  0
LINE
  5
20BF3
330
2091F
100
AcDbEntity
  8
YANE
100
AcDbLine
 10
9753.568857932433
 20
7408.502162099157
 30
0.0
 11
9753.568857932433
 21
7587.508122720166
 31
0.0
  0
LINE
  5
20BF4
330
2091F
100
AcDbEntity
  8
YANE
100
AcDbLine
 10
9780.568857932433
 20
7408.502162099157
 30
0.0
 11
9780.568857932433
 21
7587.508122720166
 31
0.0
  0
LINE
  5
20BF5
330
2091F
100
AcDbEntity
  8
YANE
100
AcDbLine
 10
9603.618857932431
 20
7408.502162099157
 30
0.0
 11
9603.618857932431
 21
7587.508122720166
 31
0.0
  0
LINE
  5
20BF6
330
2091F
100
AcDbEntity
  8
YANE
100
AcDbLine
 10
9620.268857932437
 20
7408.502162099157
 30
0.0
 11
9620.268857932437
 21
7587.508122720166
 31
0.0
  0
LINE
  5
20BF7
330
2091F
100
AcDbEntity
  8
YANE
100
AcDbLine
 10
9647.268857932438
 20
7408.502162099157
 30
0.0
 11
9647.268857932438
 21
7587.508122720166
 31
0.0
  0
LINE
  5
20BF8
330
2091F
100
AcDbEntity
  8
YANE
100
AcDbLine
 10
9663.918857932431
 20
7408.502162099157
 30
0.0
 11
9663.918857932431
 21
7587.508122720166
 31
0.0
  0
LINE
  5
20BF9
330
2091F
100
AcDbEntity
  8
YANE
100
AcDbLine
 10
9486.96885793243
 20
7408.502162099157
 30
0.0
 11
9486.96885793243
 21
7587.508122720166
 31
0.0
  0
LINE
  5
20BFA
330
2091F
100
AcDbEntity
  8
YANE
100
AcDbLine
 10
9513.968857932432
 20
7408.502162099157
 30
0.0
 11
9513.968857932432
 21
7587.508122720166
 31
0.0
  0
LINE
  5
20BFB
330
2091F
100
AcDbEntity
  8
YANE
100
AcDbLine
 10
9530.618857932431
 20
7408.502162099157
 30
0.0
 11
9530.618857932431
 21
7587.508122720166
 31
0.0
  0
LINE
  5
20BFC
330
2091F
100
AcDbEntity
  8
YANE
100
AcDbLine
 10
9470.318857932431
 20
7408.502162099157
 30
0.0
 11
9470.318857932431
 21
7587.508122720166
 31
0.0
  0
LINE
  5
20BFD
330
2091F
100
AcDbEntity
  8
YANE
100
AcDbLine
 10
9337.018857932433
 20
7408.502162099157
 30
0.0
 11
9337.018857932433
 21
7587.508122720166
 31
0.0
  0
LINE
  5
20BFE
330
2091F
100
AcDbEntity
  8
YANE
100
AcDbLine
 10
9353.668857932435
 20
7408.502162099157
 30
0.0
 11
9353.668857932435
 21
7587.508122720166
 31
0.0
  0
LINE
  5
20BFF
330
2091F
100
AcDbEntity
  8
YANE
100
AcDbLine
 10
9380.668857932434
 20
7408.502162099157
 30
0.0
 11
9380.668857932434
 21
7587.508122720166
 31
0.0
  0
LINE
  5
20C00
330
2091F
100
AcDbEntity
  8
YANE
100
AcDbLine
 10
9397.318857932432
 20
7408.502162099157
 30
0.0
 11
9397.318857932432
 21
7587.508122720166
 31
0.0
  0
LINE
  5
20C01
330
2091F
100
AcDbEntity
  8
YANE
100
AcDbLine
 10
9220.368857932438
 20
7408.502162099157
 30
0.0
 11
9220.368857932438
 21
7587.508122720166
 31
0.0
  0
LINE
  5
20C02
330
2091F
100
AcDbEntity
  8
YANE
100
AcDbLine
 10
9247.368857932437
 20
7408.502162099157
 30
0.0
 11
9247.368857932437
 21
7587.508122720166
 31
0.0
  0
LINE
  5
20C03
330
2091F
100
AcDbEntity
  8
YANE
100
AcDbLine
 10
9264.018857932432
 20
7408.502162099157
 30
0.0
 11
9264.018857932432
 21
7587.508122720166
 31
0.0
  0
LINE
  5
20C04
330
2091F
100
AcDbEntity
  8
YANE
100
AcDbLine
 10
9203.718857932436
 20
7408.502162099157
 30
0.0
 11
9203.718857932436
 21
7587.508122720166
 31
0.0
  0
LINE
  5
20C05
330
2091F
100
AcDbEntity
  8
YANE
100
AcDbLine
 10
9070.418857932436
 20
7408.502162099157
 30
0.0
 11
9070.41885793243
 21
7587.508122720166
 31
0.0
  0
LINE
  5
20C06
330
2091F
100
AcDbEntity
  8
YANE
100
AcDbLine
 10
9087.068857932436
 20
7408.502162099157
 30
0.0
 11
9087.068857932436
 21
7587.508122720166
 31
0.0
  0
LINE
  5
20C07
330
2091F
100
AcDbEntity
  8
YANE
100
AcDbLine
 10
9114.068857932435
 20
7408.502162099157
 30
0.0
 11
9114.068857932435
 21
7587.508122720166
 31
0.0
  0
LINE
  5
20C08
330
2091F
100
AcDbEntity
  8
YANE
100
AcDbLine
 10
9130.718857932432
 20
7408.502162099157
 30
0.0
 11
9130.718857932432
 21
7587.508122720166
 31
0.0
  0
LINE
  5
20C09
330
2091F
100
AcDbEntity
  8
YANE
100
AcDbLine
 10
8980.768857932435
 20
7408.502162099157
 30
0.0
 11
8980.768857932435
 21
7587.508122720166
 31
0.0
  0
LINE
  5
20C0A
330
2091F
100
AcDbEntity
  8
YANE
100
AcDbLine
 10
8997.418857932435
 20
7408.502162099157
 30
0.0
 11
8997.418857932435
 21
7587.508122720166
 31
0.0
  0
LINE
  5
20C0B
330
2091F
100
AcDbEntity
  8
YANE
100
AcDbLine
 10
8937.118857932437
 20
7408.502162099157
 30
0.0
 11
8937.118857932437
 21
7587.508122720166
 31
0.0
  0
LINE
  5
20C0C
330
2091F
100
AcDbEntity
  8
YANE
100
AcDbLine
 10
8953.768857932436
 20
7408.502162099157
 30
0.0
 11
8953.768857932436
 21
7587.508122720166
 31
0.0
  0
LINE
  5
20C0D
330
2091F
100
AcDbEntity
  8
YANE
100
AcDbLine
 10
8803.818857932434
 20
7408.502162099157
 30
0.0
 11
8803.818857932434
 21
7587.508122720166
 31
0.0
  0
LINE
  5
20C0E
330
2091F
100
AcDbEntity
  8
YANE
100
AcDbLine
 10
8820.468857932436
 20
7408.502162099157
 30
0.0
 11
8820.468857932436
 21
7587.508122720166
 31
0.0
  0
LINE
  5
20C0F
330
2091F
100
AcDbEntity
  8
YANE
100
AcDbLine
 10
8847.468857932437
 20
7408.502162099157
 30
0.0
 11
8847.468857932437
 21
7587.508122720166
 31
0.0
  0
LINE
  5
20C10
330
2091F
100
AcDbEntity
  8
YANE
100
AcDbLine
 10
8864.118857932437
 20
7408.502162099157
 30
0.0
 11
8864.118857932437
 21
7587.508122720166
 31
0.0
  0
LINE
  5
20C11
330
2091F
100
AcDbEntity
  8
YANE
100
AcDbLine
 10
8714.168857932438
 20
7408.502162099157
 30
0.0
 11
8714.168857932438
 21
7587.508122720166
 31
0.0
  0
LINE
  5
20C12
330
2091F
100
AcDbEntity
  8
YANE
100
AcDbLine
 10
8730.818857932431
 20
7408.502162099157
 30
0.0
 11
8730.818857932431
 21
7587.508122720166
 31
0.0
  0
LINE
  5
20C13
330
2091F
100
AcDbEntity
  8
YANE
100
AcDbLine
 10
8670.518857932439
 20
7408.502162099157
 30
0.0
 11
8670.518857932435
 21
7587.508122720166
 31
0.0
  0
LINE
  5
20C14
330
2091F
100
AcDbEntity
  8
YANE
100
AcDbLine
 10
8687.168857932439
 20
7408.502162099157
 30
0.0
 11
8687.168857932439
 21
7587.508122720166
 31
0.0
  0
LINE
  5
20C15
330
2091F
100
AcDbEntity
  8
YANE
100
AcDbLine
 10
8537.218857932442
 20
7408.502162099157
 30
0.0
 11
8537.218857932435
 21
7587.508122720166
 31
0.0
  0
LINE
  5
20C16
330
2091F
100
AcDbEntity
  8
YANE
100
AcDbLine
 10
8553.868857932441
 20
7408.502162099157
 30
0.0
 11
8553.868857932441
 21
7587.508122720166
 31
0.0
  0
LINE
  5
20C17
330
2091F
100
AcDbEntity
  8
YANE
100
AcDbLine
 10
8580.868857932442
 20
7408.502162099157
 30
0.0
 11
8580.868857932442
 21
7587.508122720166
 31
0.0
  0
LINE
  5
20C18
330
2091F
100
AcDbEntity
  8
YANE
100
AcDbLine
 10
8597.518857932438
 20
7408.502162099157
 30
0.0
 11
8597.518857932438
 21
7587.508122720166
 31
0.0
  0
LINE
  5
20C19
330
2091F
100
AcDbEntity
  8
YANE
100
AcDbLine
 10
8464.218857932435
 20
7408.502162099157
 30
0.0
 11
8464.218857932435
 21
7587.508122720166
 31
0.0
  0
LINE
  5
20C1A
330
2091F
100
AcDbEntity
  8
YANE
100
AcDbLine
 10
8447.568857932438
 20
7408.502162099157
 30
0.0
 11
8447.568857932438
 21
7587.508122720166
 31
0.0
  0
LINE
  5
20C1B
330
2091F
100
AcDbEntity
  8
YANE
100
AcDbLine
 10
8420.568857932437
 20
7408.502162099157
 30
0.0
 11
8420.568857932437
 21
7587.508122720166
 31
0.0
  0
LINE
  5
20C1C
330
2091F
100
AcDbEntity
  8
YANE
100
AcDbLine
 10
8403.91885793244
 20
7408.502162099157
 30
0.0
 11
8403.918857932438
 21
7587.508122720166
 31
0.0
  0
LINE
  5
20C1D
330
2091F
100
AcDbEntity
  8
YANE
100
AcDbLine
 10
8330.918857932434
 20
7408.502162099157
 30
0.0
 11
8330.918857932434
 21
7587.508122720166
 31
0.0
  0
LINE
  5
20C1E
330
2091F
100
AcDbEntity
  8
YANE
100
AcDbLine
 10
8314.268857932438
 20
7408.502162099157
 30
0.0
 11
8314.268857932438
 21
7587.508122720166
 31
0.0
  0
LINE
  5
20C1F
330
2091F
100
AcDbEntity
  8
YANE
100
AcDbLine
 10
8287.268857932438
 20
7408.502162099157
 30
0.0
 11
8287.268857932438
 21
7587.508122720166
 31
0.0
  0
LINE
  5
20C20
330
2091F
100
AcDbEntity
  8
YANE
100
AcDbLine
 10
8270.618857932438
 20
7408.502162099157
 30
0.0
 11
8270.618857932438
 21
7587.508122720166
 31
0.0
  0
LINE
  5
20C21
330
2091F
100
AcDbEntity
  8
U1
100
AcDbLine
 10
9787.568857932434
 20
5527.014820159628
 30
0.0
 11
9787.568857932429
 21
7515.681077028261
 31
0.0
  0
LINE
  5
20C22
330
2091F
100
AcDbEntity
  8
YANE
100
AcDbLine
 10
8197.618857932438
 20
7408.502162099157
 30
0.0
 11
8197.618857932438
 21
7587.508122720166
 31
0.0
  0
LINE
  5
20C23
330
2091F
100
AcDbEntity
  8
YANE
100
AcDbLine
 10
8180.968857932437
 20
7408.502162099157
 30
0.0
 11
8180.968857932437
 21
7587.508122720166
 31
0.0
  0
LINE
  5
20C24
330
2091F
100
AcDbEntity
  8
YANE
100
AcDbLine
 10
8153.968857932438
 20
7408.502162099157
 30
0.0
 11
8153.968857932438
 21
7587.508122720166
 31
0.0
  0
LINE
  5
20C25
330
2091F
100
AcDbEntity
  8
YANE
100
AcDbLine
 10
8137.318857932438
 20
7408.502162099157
 30
0.0
 11
8137.318857932438
 21
7587.508122720166
 31
0.0
  0
LINE
  5
20C26
330
2091F
100
AcDbEntity
  8
YANE
100
AcDbLine
 10
8064.318857932438
 20
7408.502162099157
 30
0.0
 11
8064.318857932438
 21
7587.508122720166
 31
0.0
  0
LINE
  5
20C27
330
2091F
100
AcDbEntity
  8
YANE
100
AcDbLine
 10
8047.668857932439
 20
7408.502162099157
 30
0.0
 11
8047.668857932439
 21
7587.508122720166
 31
0.0
  0
LINE
  5
20C28
330
2091F
100
AcDbEntity
  8
YANE
100
AcDbLine
 10
8020.668857932438
 20
7408.502162099157
 30
0.0
 11
8020.668857932438
 21
7587.508122720166
 31
0.0
  0
LINE
  5
20C29
330
2091F
100
AcDbEntity
  8
YANE
100
AcDbLine
 10
8004.018857932441
 20
7408.502162099157
 30
0.0
 11
8004.018857932441
 21
7587.508122720166
 31
0.0
  0
LINE
  5
20C2A
330
2091F
100
AcDbEntity
  8
YANE
100
AcDbLine
 10
7931.018857932437
 20
7408.502162099157
 30
0.0
 11
7931.018857932437
 21
7587.508122720166
 31
0.0
  0
LINE
  5
20C2B
330
2091F
100
AcDbEntity
  8
YANE
100
AcDbLine
 10
7914.368857932436
 20
7408.502162099157
 30
0.0
 11
7914.368857932436
 21
7587.508122720166
 31
0.0
  0
LINE
  5
20C2C
330
2091F
100
AcDbEntity
  8
YANE
100
AcDbLine
 10
7887.368857932438
 20
7408.502162099157
 30
0.0
 11
7887.368857932438
 21
7587.508122720166
 31
0.0
  0
LINE
  5
20C2D
330
2091F
100
AcDbEntity
  8
YANE
100
AcDbLine
 10
7870.718857932438
 20
7408.502162099157
 30
0.0
 11
7870.718857932438
 21
7587.508122720166
 31
0.0
  0
LINE
  5
20C2E
330
2091F
100
AcDbEntity
  8
YANE
100
AcDbLine
 10
7797.718857932436
 20
7408.502162099157
 30
0.0
 11
7797.718857932436
 21
7587.508122720166
 31
0.0
  0
LINE
  5
20C2F
330
2091F
100
AcDbEntity
  8
YANE
100
AcDbLine
 10
7781.068857932438
 20
7408.502162099157
 30
0.0
 11
7781.068857932438
 21
7587.508122720166
 31
0.0
  0
LINE
  5
20C30
330
2091F
100
AcDbEntity
  8
YANE
100
AcDbLine
 10
7754.068857932438
 20
7408.502162099157
 30
0.0
 11
7754.068857932438
 21
7587.508122720166
 31
0.0
  0
LINE
  5
20C31
330
2091F
100
AcDbEntity
  8
YANE
100
AcDbLine
 10
7737.418857932438
 20
7408.502162099157
 30
0.0
 11
7737.418857932438
 21
7587.508122720166
 31
0.0
  0
LINE
  5
20C32
330
2091F
100
AcDbEntity
  8
U1
100
AcDbLine
 10
7462.218857932429
 20
7548.152769638574
 30
0.0
 11
7462.218857932429
 21
7515.681077028261
 31
0.0
  0
LINE
  5
20C33
330
2091F
100
AcDbEntity
  8
U1
100
AcDbLine
 10
7459.018857932429
 20
7518.881077028265
 30
0.0
 11
7459.018857932429
 21
7548.152769638574
 31
0.0
  0
LINE
  5
20C34
330
2091F
100
AcDbEntity
  8
U1
100
AcDbLine
 10
7458.218857932429
 20
7548.152769638578
 30
0.0
 11
7458.218857932429
 21
7518.881077028265
 31
0.0
  0
LINE
  5
20C35
330
2091F
100
AcDbEntity
  8
CAP
100
AcDbLine
 10
7463.218857932429
 20
7623.058634944813
 30
0.0
 11
7463.218857932429
 21
7548.152769638578
 31
0.0
  0
LINE
  5
20C36
330
2091F
100
AcDbEntity
  8
YANE
100
AcDbLine
 10
7664.418857932438
 20
7408.502162099157
 30
0.0
 11
7664.418857932438
 21
7587.508122720166
 31
0.0
  0
LINE
  5
20C37
330
2091F
100
AcDbEntity
  8
YANE
100
AcDbLine
 10
7647.768857932438
 20
7408.502162099157
 30
0.0
 11
7647.768857932438
 21
7587.508122720166
 31
0.0
  0
LINE
  5
20C38
330
2091F
100
AcDbEntity
  8
YANE
100
AcDbLine
 10
7620.768857932438
 20
7408.502162099157
 30
0.0
 11
7620.768857932438
 21
7587.508122720166
 31
0.0
  0
LINE
  5
20C39
330
2091F
100
AcDbEntity
  8
YANE
100
AcDbLine
 10
7604.118857932438
 20
7408.502162099157
 30
0.0
 11
7604.118857932437
 21
7587.508122720166
 31
0.0
  0
LINE
  5
20C3A
330
2091F
100
AcDbEntity
  8
YANE
100
AcDbLine
 10
7531.118857932437
 20
7408.502162099157
 30
0.0
 11
7531.118857932437
 21
7587.508122720166
 31
0.0
  0
LINE
  5
20C3B
330
2091F
100
AcDbEntity
  8
YANE
100
AcDbLine
 10
7514.468857932438
 20
7408.502162099157
 30
0.0
 11
7514.468857932438
 21
7587.508122720166
 31
0.0
  0
LINE
  5
20C3C
330
2091F
100
AcDbEntity
  8
YANE
100
AcDbLine
 10
7487.468857932437
 20
7408.502162099157
 30
0.0
 11
7487.468857932437
 21
7587.508122720166
 31
0.0
  0
LINE
  5
20C3D
330
2091F
100
AcDbEntity
  8
YANE
100
AcDbLine
 10
7470.818857932439
 20
7408.502162099157
 30
0.0
 11
7470.818857932439
 21
7587.508122720166
 31
0.0
  0
LINE
  5
20C3E
330
2091F
100
AcDbEntity
  8
U1
100
AcDbLine
 10
7389.21885793243
 20
7515.681077028261
 30
0.0
 11
7389.21885793243
 21
7548.152769638574
 31
0.0
  0
LINE
  5
20C3F
330
2091F
100
AcDbEntity
  8
U1
100
AcDbLine
 10
7392.41885793243
 20
7548.152769638574
 30
0.0
 11
7392.41885793243
 21
7518.881077028265
 31
0.0
  0
LINE
  5
20C40
330
2091F
100
AcDbEntity
  8
U1
100
AcDbLine
 10
7393.218857932429
 20
7548.152769638578
 30
0.0
 11
7393.218857932429
 21
7518.881077028265
 31
0.0
  0
LINE
  5
20C41
330
2091F
100
AcDbEntity
  8
CAP
100
AcDbLine
 10
7388.218857932429
 20
7623.058634944813
 30
0.0
 11
7388.218857932429
 21
7548.152769638578
 31
0.0
  0
LINE
  5
20C42
330
2091F
100
AcDbEntity
  8
U1
100
AcDbLine
 10
7463.868857932428
 20
7515.681077028261
 30
0.0
 11
7387.56885793243
 21
7515.681077028261
 31
0.0
  0
LINE
  5
20C43
330
2091F
100
AcDbEntity
  8
U1
100
AcDbLine
 10
7392.41885793243
 20
7518.881077028265
 30
0.0
 11
7459.018857932429
 21
7518.881077028265
 31
0.0
  0
LINE
  5
20C44
330
2091F
100
AcDbEntity
  8
CAP
100
AcDbLine
 10
7388.218857932429
 20
7548.152769638578
 30
0.0
 11
7463.218857932429
 21
7548.152769638578
 31
0.0
  0
LINE
  5
20C45
330
2091F
100
AcDbEntity
  8
CAP
100
AcDbLine
 10
7388.218857932429
 20
7623.058634944813
 30
0.0
 11
7463.218857932429
 21
7623.058634944813
 31
0.0
  0
CIRCLE
  5
20C46
330
2091F
100
AcDbEntity
  8
HIDE-S1
100
AcDbCircle
 10
7425.718857932429
 20
7215.014820159627
 30
0.0
 40
30.25
  0
LINE
  5
20C47
330
2091F
100
AcDbEntity
  8
U1
100
AcDbLine
 10
7463.868857932428
 20
5527.014820159628
 30
0.0
 11
7463.868857932428
 21
7515.681077028261
 31
0.0
  0
LINE
  5
20C48
330
2091F
100
AcDbEntity
  8
U1
100
AcDbLine
 10
7387.56885793243
 20
5527.014820159628
 30
0.0
 11
7387.56885793243
 21
7515.681077028261
 31
0.0
  0
LINE
  5
20C49
330
2091F
100
AcDbEntity
  8
TOI
100
AcDbLine
 10
9787.568857932429
 20
7347.904358487094
 30
0.0
 11
7463.868857932428
 21
7347.904358487094
 31
0.0
  0
LINE
  5
20C4A
330
2091F
100
AcDbEntity
  8
YANE
100
AcDbLine
 10
7463.868857932428
 20
7408.502162099158
 30
0.0
 11
9787.568857932429
 21
7408.502162099158
 31
0.0
  0
LINE
  5
20C4B
330
2091F
100
AcDbEntity
  8
TOI
100
AcDbLine
 10
7463.868857932428
 20
7389.736061817867
 30
0.0
 11
9787.568857932429
 21
7389.736061817867
 31
0.0
  0
LINE
  5
20C4C
330
2091F
100
AcDbEntity
  8
TOI
100
AcDbLine
 10
7463.868857932428
 20
7380.74503397936
 30
0.0
 11
9787.568857932429
 21
7380.745033979358
 31
0.0
  0
LINE
  5
20C4D
330
2091F
100
AcDbEntity
  8
HANA
100
AcDbLine
 10
7463.218857932431
 20
7617.052437601437
 30
0.0
 11
9788.218857932429
 21
7617.052437601437
 31
0.0
  0
LINE
  5
20C4E
330
2091F
100
AcDbEntity
  8
HANA
100
AcDbLine
 10
7463.218857932431
 20
7587.508122720166
 30
0.0
 11
9788.218857932429
 21
7587.508122720166
 31
0.0
  0
LINE
  5
20C4F
330
2091F
100
AcDbEntity
  8
1PL-M1
100
AcDbLine
 10
7425.718857932429
 20
5502.014820159628
 30
0.0
 11
7425.718857932429
 21
7973.194632209919
 31
0.0
  0
LINE
  5
20C50
330
2091F
100
AcDbEntity
  8
1PL-M1
100
AcDbLine
 10
9825.718857932429
 20
5502.014820159628
 30
0.0
 11
9825.718857932429
 21
7973.194632209919
 31
0.0
  0
CIRCLE
  5
20C51
330
2091F
100
AcDbEntity
  8
HIDE-S1
100
AcDbCircle
 10
9825.718857932429
 20
7215.014820159627
 30
0.0
 40
30.25
  0
LINE
  5
20C52
330
2091F
100
AcDbEntity
  8
CAP
100
AcDbLine
 10
9788.218857932429
 20
7548.152769638578
 30
0.0
 11
9863.21885793243
 21
7548.152769638578
 31
0.0
  0
LINE
  5
20C53
330
2091F
100
AcDbEntity
  8
CAP
100
AcDbLine
 10
9788.218857932429
 20
7623.058634944813
 30
0.0
 11
9863.21885793243
 21
7623.058634944813
 31
0.0
  0
LINE
  5
20C54
330
2091F
100
AcDbEntity
  8
U1
100
AcDbLine
 10
9792.418857932428
 20
7518.881077028265
 30
0.0
 11
9859.018857932428
 21
7518.881077028265
 31
0.0
  0
LINE
  5
20C55
330
2091F
100
AcDbEntity
  8
U1
100
AcDbLine
 10
9863.868857932429
 20
7515.681077028261
 30
0.0
 11
9787.568857932429
 21
7515.681077028261
 31
0.0
  0
LINE
  5
20C56
330
2091F
100
AcDbEntity
  8
SUNPOU
100
AcDbLine
 10
5025.718857932429
 20
8003.194632209918
 30
0.0
 11
5025.718857932429
 21
8160.802125207466
 31
0.0
  0
LINE
  5
20C57
330
2091F
100
AcDbEntity
  8
SUNPOU
100
AcDbLine
 10
5025.718857932429
 20
8003.194632209918
 30
0.0
 11
5025.718857932429
 21
8160.802125207466
 31
0.0
  0
TEXT
  5
20C58
330
2091F
100
AcDbEntity
  8
SUNPOU
100
AcDbText
 10
3711.433143646717
 20
8175.802125207461
 30
0.0
 40
90.0
  1
2400
 41
0.6666666666666666
  7
00
 72
     4
 11
3825.718857932431
 21
8220.802125207461
 31
0.0
100
AcDbText
  0
LINE
  5
20C59
330
2091F
100
AcDbEntity
  8
U1
100
AcDbLine
 10
5062.218857932429
 20
7548.152769638578
 30
0.0
 11
5062.218857932429
 21
7515.681077028266
 31
0.0
  0
LINE
  5
20C5A
330
2091F
100
AcDbEntity
  8
U1
100
AcDbLine
 10
5059.01885793243
 20
7518.881077028265
 30
0.0
 11
5059.01885793243
 21
7548.152769638578
 31
0.0
  0
LINE
  5
20C5B
330
2091F
100
AcDbEntity
  8
U1
100
AcDbLine
 10
4989.218857932431
 20
7515.681077028266
 30
0.0
 11
4989.218857932431
 21
7548.152769638578
 31
0.0
  0
LINE
  5
20C5C
330
2091F
100
AcDbEntity
  8
U1
100
AcDbLine
 10
4992.41885793243
 20
7548.152769638578
 30
0.0
 11
4992.41885793243
 21
7518.881077028265
 31
0.0
  0
LINE
  5
20C5D
330
2091F
100
AcDbEntity
  8
U1
100
AcDbLine
 10
5058.21885793243
 20
7548.15276963858
 30
0.0
 11
5058.21885793243
 21
7518.881077028265
 31
0.0
  0
LINE
  5
20C5E
330
2091F
100
AcDbEntity
  8
U1
100
AcDbLine
 10
4993.21885793243
 20
7548.15276963858
 30
0.0
 11
4993.21885793243
 21
7518.881077028265
 31
0.0
  0
LINE
  5
20C5F
330
2091F
100
AcDbEntity
  8
U1
100
AcDbLine
 10
5063.86885793243
 20
7515.681077028266
 30
0.0
 11
4987.56885793243
 21
7515.681077028266
 31
0.0
  0
LINE
  5
20C60
330
2091F
100
AcDbEntity
  8
U1
100
AcDbLine
 10
4992.41885793243
 20
7518.881077028265
 30
0.0
 11
5059.01885793243
 21
7518.881077028265
 31
0.0
  0
LINE
  5
20C61
330
2091F
100
AcDbEntity
  8
CAP
100
AcDbLine
 10
4988.21885793243
 20
7548.15276963858
 30
0.0
 11
5063.218857932429
 21
7548.15276963858
 31
0.0
  0
LINE
  5
20C62
330
2091F
100
AcDbEntity
  8
CAP
100
AcDbLine
 10
4988.21885793243
 20
7623.058634944816
 30
0.0
 11
5063.218857932429
 21
7623.058634944816
 31
0.0
  0
LINE
  5
20C63
330
2091F
100
AcDbEntity
  8
CAP
100
AcDbLine
 10
4988.21885793243
 20
7623.058634944816
 30
0.0
 11
4988.21885793243
 21
7548.15276963858
 31
0.0
  0
LINE
  5
20C64
330
2091F
100
AcDbEntity
  8
CAP
100
AcDbLine
 10
5063.218857932429
 20
7623.058634944816
 30
0.0
 11
5063.218857932429
 21
7548.15276963858
 31
0.0
  0
CIRCLE
  5
20C65
330
2091F
100
AcDbEntity
  8
HIDE-S1
100
AcDbCircle
 10
5025.718857932429
 20
7215.014820159627
 30
0.0
 40
30.25
  0
LINE
  5
20C66
330
2091F
100
AcDbEntity
  8
TOI
100
AcDbLine
 10
6185.718857932429
 20
7347.904358487089
 30
0.0
 11
5063.868857932432
 21
7347.904358487092
 31
0.0
  0
LINE
  5
20C67
330
2091F
100
AcDbEntity
  8
YANE
100
AcDbLine
 10
6185.718857932429
 20
7408.502162099158
 30
0.0
 11
5063.868857932432
 21
7408.502162099157
 31
0.0
  0
LINE
  5
20C68
330
2091F
100
AcDbEntity
  8
TOI
100
AcDbLine
 10
5063.868857932432
 20
7389.736061817867
 30
0.0
 11
6185.718857932429
 21
7389.736061817867
 31
0.0
  0
LINE
  5
20C69
330
2091F
100
AcDbEntity
  8
TOI
100
AcDbLine
 10
5063.868857932432
 20
7380.745033979362
 30
0.0
 11
6185.718857932429
 21
7380.74503397936
 31
0.0
  0
LINE
  5
20C6A
330
2091F
100
AcDbEntity
  8
HANA
100
AcDbLine
 10
5063.218857932429
 20
7587.508122720166
 30
0.0
 11
6185.718857932429
 21
7587.508122720166
 31
0.0
  0
LINE
  5
20C6B
330
2091F
100
AcDbEntity
  8
HANA
100
AcDbLine
 10
5063.218857932429
 20
7617.052437601437
 30
0.0
 11
6185.718857932429
 21
7617.052437601437
 31
0.0
  0
LINE
  5
20C6C
330
2091F
100
AcDbEntity
  8
U1
100
AcDbLine
 10
5063.868857932432
 20
5527.014820159628
 30
0.0
 11
5063.868857932432
 21
7515.681077028268
 31
0.0
  0
LINE
  5
20C6D
330
2091F
100
AcDbEntity
  8
U1
100
AcDbLine
 10
4987.568857932433
 20
5527.014820159628
 30
0.0
 11
4987.56885793243
 21
7515.681077028268
 31
0.0
  0
LINE
  5
20C6E
330
2091F
100
AcDbEntity
  8
U2
100
AcDbLine
 10
6185.718857932429
 20
5371.953015234169
 30
0.0
 11
6185.718857932429
 21
7868.577414751519
 31
0.0
  0
LINE
  5
20C6F
330
2091F
100
AcDbEntity
  8
U2
100
AcDbLine
 10
6265.71885793243
 20
5371.953015234169
 30
0.0
 11
6265.718857932429
 21
7868.577414751519
 31
0.0
  0
LINE
  5
20C70
330
2091F
100
AcDbEntity
  8
1PL-M1
100
AcDbLine
 10
5025.718857932429
 20
5502.014820159628
 30
0.0
 11
5025.718857932429
 21
7973.194632209919
 31
0.0
  0
LINE
  5
20C71
330
2091F
100
AcDbEntity
  8
SUNPOU
100
AcDbLine
 10
2625.71885793243
 20
8003.194632209918
 30
0.0
 11
2625.71885793243
 21
8160.802125207466
 31
0.0
  0
LINE
  5
20C72
330
2091F
100
AcDbEntity
  8
SUNPOU
100
AcDbLine
 10
2625.71885793243
 20
8003.194632209918
 30
0.0
 11
2625.71885793243
 21
8160.802125207466
 31
0.0
  0
LINE
  5
20C73
330
2091F
100
AcDbEntity
  8
SUNPOU
100
AcDbLine
 10
2384.71885793243
 20
7758.010895961368
 30
0.0
 11
2384.71885793243
 21
8160.802125207466
 31
0.0
  0
LINE
  5
20C74
330
2091F
100
AcDbEntity
  8
SUNPOU
100
AcDbLine
 10
2399.71885793243
 20
8130.802125207463
 30
0.0
 11
2610.718857932431
 21
8130.802125207463
 31
0.0
  0
TEXT
  5
20C75
330
2091F
100
AcDbEntity
  8
SUNPOU
100
AcDbText
 10
2419.504572218144
 20
8175.802125207461
 30
0.0
 40
90.0
  1
238
 41
0.6666666666666666
  7
00
 72
     1
 11
2505.218857932431
 21
8220.802125207461
 31
0.0
100
AcDbText
 73
     2
  0
LINE
  5
20C76
330
2091F
100
AcDbEntity
  8
U1
100
AcDbLine
 10
2662.218857932431
 20
7548.152769638578
 30
0.0
 11
2662.218857932431
 21
7515.681077028261
 31
0.0
  0
LINE
  5
20C77
330
2091F
100
AcDbEntity
  8
U1
100
AcDbLine
 10
2659.018857932429
 20
7518.881077028265
 30
0.0
 11
2659.018857932429
 21
7548.152769638578
 31
0.0
  0
LINE
  5
20C78
330
2091F
100
AcDbEntity
  8
U1
100
AcDbLine
 10
2589.218857932431
 20
7515.681077028261
 30
0.0
 11
2589.218857932431
 21
7548.152769638578
 31
0.0
  0
LINE
  5
20C79
330
2091F
100
AcDbEntity
  8
U1
100
AcDbLine
 10
2592.418857932432
 20
7548.152769638578
 30
0.0
 11
2592.418857932432
 21
7518.881077028265
 31
0.0
  0
LINE
  5
20C7A
330
2091F
100
AcDbEntity
  8
U1
100
AcDbLine
 10
2658.21885793243
 20
7548.152769638578
 30
0.0
 11
2658.21885793243
 21
7518.881077028265
 31
0.0
  0
LINE
  5
20C7B
330
2091F
100
AcDbEntity
  8
U1
100
AcDbLine
 10
2593.218857932431
 20
7548.152769638578
 30
0.0
 11
2593.218857932431
 21
7518.881077028265
 31
0.0
  0
LINE
  5
20C7C
330
2091F
100
AcDbEntity
  8
U1
100
AcDbLine
 10
2663.868857932429
 20
7515.681077028261
 30
0.0
 11
2587.568857932431
 21
7515.681077028261
 31
0.0
  0
LINE
  5
20C7D
330
2091F
100
AcDbEntity
  8
U1
100
AcDbLine
 10
2592.418857932432
 20
7518.881077028265
 30
0.0
 11
2659.018857932429
 21
7518.881077028265
 31
0.0
  0
LINE
  5
20C7E
330
2091F
100
AcDbEntity
  8
CAP
100
AcDbLine
 10
2588.21885793243
 20
7548.152769638578
 30
0.0
 11
2663.21885793243
 21
7548.152769638578
 31
0.0
  0
LINE
  5
20C7F
330
2091F
100
AcDbEntity
  8
CAP
100
AcDbLine
 10
2588.21885793243
 20
7623.058634944813
 30
0.0
 11
2663.21885793243
 21
7623.058634944816
 31
0.0
  0
LINE
  5
20C80
330
2091F
100
AcDbEntity
  8
CAP
100
AcDbLine
 10
2588.21885793243
 20
7623.058634944816
 30
0.0
 11
2588.21885793243
 21
7548.15276963858
 31
0.0
  0
LINE
  5
20C81
330
2091F
100
AcDbEntity
  8
CAP
100
AcDbLine
 10
2663.21885793243
 20
7623.058634944816
 30
0.0
 11
2663.21885793243
 21
7548.15276963858
 31
0.0
  0
CIRCLE
  5
20C82
330
2091F
100
AcDbEntity
  8
HIDE-S1
100
AcDbCircle
 10
2625.718857932432
 20
7215.014820159627
 30
0.0
 40
30.25
  0
LINE
  5
20C83
330
2091F
100
AcDbEntity
  8
TOI
100
AcDbLine
 10
2390.71885793243
 20
7347.904358487094
 30
0.0
 11
2587.568857932431
 21
7347.904358487092
 31
0.0
  0
LINE
  5
20C84
330
2091F
100
AcDbEntity
  8
YANE
100
AcDbLine
 10
2587.568857932431
 20
7408.502162099158
 30
0.0
 11
2390.71885793243
 21
7408.502162099157
 31
0.0
  0
LINE
  5
20C85
330
2091F
100
AcDbEntity
  8
TOI
100
AcDbLine
 10
2390.71885793243
 20
7380.74503397936
 30
0.0
 11
2587.568857932431
 21
7380.74503397936
 31
0.0
  0
LINE
  5
20C86
330
2091F
100
AcDbEntity
  8
TOI
100
AcDbLine
 10
2390.71885793243
 20
7389.736061817867
 30
0.0
 11
2587.568857932431
 21
7389.736061817867
 31
0.0
  0
LINE
  5
20C87
330
2091F
100
AcDbEntity
  8
HANA
100
AcDbLine
 10
2390.71885793243
 20
7587.508122720166
 30
0.0
 11
2588.21885793243
 21
7587.508122720166
 31
0.0
  0
LINE
  5
20C88
330
2091F
100
AcDbEntity
  8
HANA
100
AcDbLine
 10
2390.71885793243
 20
7617.052437601437
 30
0.0
 11
2588.21885793243
 21
7617.052437601437
 31
0.0
  0
TEXT
  5
20C89
330
2091F
100
AcDbEntity
  8
SUNPOU
100
AcDbText
 10
1947.447892080637
 20
5612.014820159624
 30
0.0
 40
90.0
  1
G.L
 41
0.6666666666666666
  7
00
 72
     4
 11
2018.876463509208
 21
5657.014820159623
 31
0.0
100
AcDbText
  0
LINE
  5
20C8A
330
2091F
100
AcDbEntity
  8
SUNPOU
100
AcDbLine
 10
2495.945547456974
 20
5617.014820159624
 30
0.0
 11
2392.022499002841
 21
5617.014820159624
 31
0.0
  0
TEXT
  5
20C8B
330
2091F
100
AcDbEntity
  8
SUNPOU
100
AcDbText
 10
2375.412594658479
 20
5662.014820159623
 30
0.0
 40
90.0
  1
F.L
 41
0.6666666666666666
  7
00
 72
     4
 11
2443.984023229908
 21
5707.014820159624
 31
0.0
100
AcDbText
  0
LINE
  5
20C8C
330
2091F
100
AcDbEntity
  8
KISO
100
AcDbLine
 10
2325.71885793243
 20
5477.014820159625
 30
0.0
 11
2325.71885793243
 21
5527.014820159628
 31
0.0
  0
LINE
  5
20C8D
330
2091F
100
AcDbEntity
  8
SUNPOU
100
AcDbLine
 10
1966.91493928214
 20
5567.014820159625
 30
0.0
 11
2018.876463509208
 21
5477.014820159625
 31
0.0
  0
LINE
  5
20C8E
330
2091F
100
AcDbEntity
  8
SUNPOU
100
AcDbLine
 10
2070.837987736272
 20
5567.014820159625
 30
0.0
 11
1966.91493928214
 21
5567.014820159625
 31
0.0
  0
LINE
  5
20C8F
330
2091F
100
AcDbEntity
  8
SUNPOU
100
AcDbLine
 10
2018.876463509208
 20
5477.014820159625
 30
0.0
 11
2070.837987736272
 21
5567.014820159625
 31
0.0
  0
LINE
  5
20C90
330
2091F
100
AcDbEntity
  8
SUNPOU
100
AcDbLine
 10
2392.022499002841
 20
5617.014820159624
 30
0.0
 11
2443.984023229908
 21
5527.014820159628
 31
0.0
  0
LINE
  5
20C91
330
2091F
100
AcDbEntity
  8
SUNPOU
100
AcDbLine
 10
2443.984023229908
 20
5527.014820159628
 30
0.0
 11
2495.945547456974
 21
5617.014820159624
 31
0.0
  0
LINE
  5
20C92
330
2091F
100
AcDbEntity
  8
U3
100
AcDbLine
 10
1889.358468239222
 20
5477.014820159628
 30
0.0
 11
2325.71885793243
 21
5477.014820159626
 31
0.0
  0
LINE
  5
20C93
330
2091F
100
AcDbEntity
  8
U1
100
AcDbLine
 10
2663.868857932433
 20
5527.014820159628
 30
0.0
 11
2663.868857932433
 21
7515.681077028266
 31
0.0
  0
LINE
  5
20C94
330
2091F
100
AcDbEntity
  8
U1
100
AcDbLine
 10
2587.568857932433
 20
5527.014820159628
 30
0.0
 11
2587.568857932431
 21
7515.681077028266
 31
0.0
  0
LINE
  5
20C95
330
2091F
100
AcDbEntity
  8
1PL-M1
100
AcDbLine
 10
2625.71885793243
 20
5502.014820159628
 30
0.0
 11
2625.71885793243
 21
7973.194632209919
 31
0.0
  0
LINE
  5
20C96
330
2091F
100
AcDbEntity
  8
KISO
100
AcDbLine
 10
6185.718857932429
 20
5477.014820159626
 30
0.0
 11
2325.71885793243
 21
5477.014820159625
 31
0.0
  0
LINE
  5
20C97
330
2091F
100
AcDbEntity
  8
KISO
100
AcDbLine
 10
2325.71885793243
 20
5527.014820159628
 30
0.0
 11
6185.718857932429
 21
5527.014820159628
 31
0.0
  0
LINE
  5
20C98
330
2091F
100
AcDbEntity
  8
TOI
100
AcDbLine
 10
2663.868857932432
 20
7347.904358487092
 30
0.0
 11
4987.56885793243
 21
7347.904358487092
 31
0.0
  0
LINE
  5
20C99
330
2091F
100
AcDbEntity
  8
YANE
100
AcDbLine
 10
4987.56885793243
 20
7408.502162099157
 30
0.0
 11
2663.868857932433
 21
7408.502162099158
 31
0.0
  0
LINE
  5
20C9A
330
2091F
100
AcDbEntity
  8
TOI
100
AcDbLine
 10
2663.868857932432
 20
7380.74503397936
 30
0.0
 11
4987.56885793243
 21
7380.745033979362
 31
0.0
  0
LINE
  5
20C9B
330
2091F
100
AcDbEntity
  8
TOI
100
AcDbLine
 10
2663.868857932432
 20
7389.736061817867
 30
0.0
 11
4987.56885793243
 21
7389.736061817867
 31
0.0
  0
LINE
  5
20C9C
330
2091F
100
AcDbEntity
  8
HANA
100
AcDbLine
 10
2390.71885793243
 20
7730.802125207465
 30
0.0
 11
6185.718857932429
 21
7730.802125207465
 31
0.0
  0
LINE
  5
20C9D
330
2091F
100
AcDbEntity
  8
HANA
100
AcDbLine
 10
2390.71885793243
 20
7630.076163276349
 30
0.0
 11
6185.718857932429
 21
7630.076163276349
 31
0.0
  0
LINE
  5
20C9E
330
2091F
100
AcDbEntity
  8
HANA
100
AcDbLine
 10
2663.21885793243
 20
7587.508122720166
 30
0.0
 11
4988.21885793243
 21
7587.508122720166
 31
0.0
  0
LINE
  5
20C9F
330
2091F
100
AcDbEntity
  8
HANA
100
AcDbLine
 10
2663.21885793243
 20
7617.052437601437
 30
0.0
 11
4988.21885793243
 21
7617.052437601437
 31
0.0
  0
LINE
  5
20CA0
330
2091F
100
AcDbEntity
  8
SUNPOU
100
AcDbLine
 10
2640.71885793243
 20
8130.802125207463
 30
0.0
 11
5010.718857932429
 21
8130.802125207463
 31
0.0
  0
LINE
  5
20CA1
330
2091F
100
AcDbEntity
  8
KISO
100
AcDbLine
 10
6265.71885793243
 20
5477.014820159626
 30
0.0
 11
10125.71885793242
 21
5477.014820159625
 31
0.0
  0
LINE
  5
20CA2
330
2091F
100
AcDbEntity
  8
KISO
100
AcDbLine
 10
10125.71885793242
 20
5527.014820159628
 30
0.0
 11
6265.71885793243
 21
5527.014820159628
 31
0.0
  0
LINE
  5
20CA3
330
2091F
100
AcDbEntity
  8
TOI
100
AcDbLine
 10
7387.56885793243
 20
7347.904358487094
 30
0.0
 11
6265.718857932429
 21
7347.904358487089
 31
0.0
  0
LINE
  5
20CA4
330
2091F
100
AcDbEntity
  8
YANE
100
AcDbLine
 10
6265.718857932429
 20
7408.502162099158
 30
0.0
 11
7387.56885793243
 21
7408.502162099158
 31
0.0
  0
LINE
  5
20CA5
330
2091F
100
AcDbEntity
  8
HANA
100
AcDbLine
 10
6265.718857932429
 20
7730.802125207465
 30
0.0
 11
10060.71885793242
 21
7730.802125207465
 31
0.0
  0
LINE
  5
20CA6
330
2091F
100
AcDbEntity
  8
HANA
100
AcDbLine
 10
6265.71885793243
 20
7630.076163276349
 30
0.0
 11
10060.71885793242
 21
7630.076163276349
 31
0.0
  0
LINE
  5
20CA7
330
2091F
100
AcDbEntity
  8
TOI
100
AcDbLine
 10
6265.718857932429
 20
7389.736061817867
 30
0.0
 11
7387.56885793243
 21
7389.736061817867
 31
0.0
  0
LINE
  5
20CA8
330
2091F
100
AcDbEntity
  8
TOI
100
AcDbLine
 10
6265.718857932429
 20
7380.74503397936
 30
0.0
 11
7387.56885793243
 21
7380.74503397936
 31
0.0
  0
LINE
  5
20CA9
330
2091F
100
AcDbEntity
  8
HANA
100
AcDbLine
 10
6265.71885793243
 20
7587.508122720166
 30
0.0
 11
7388.218857932431
 21
7587.508122720166
 31
0.0
  0
LINE
  5
20CAA
330
2091F
100
AcDbEntity
  8
HANA
100
AcDbLine
 10
6265.71885793243
 20
7617.052437601437
 30
0.0
 11
7388.218857932431
 21
7617.052437601437
 31
0.0
  0
LINE
  5
20CAB
330
2091F
100
AcDbEntity
  8
SUNPOU
100
AcDbLine
 10
5040.71885793243
 20
8130.802125207463
 30
0.0
 11
7410.71885793243
 21
8130.802125207463
 31
0.0
  0
TEXT
  5
20CAC
330
2091F
100
AcDbEntity
  8
SUNPOU
100
AcDbText
 10
5836.004572218143
 20
8175.802125207461
 30
0.0
 40
90.0
  1
2400 ×（ N - 2 ）
 41
0.6666666666666666
  7
00
 72
     4
 11
6225.718857932429
 21
8220.802125207461
 31
0.0
100
AcDbText
  0
LINE
  5
20CAD
330
2091F
100
AcDbEntity
  8
SUNPOU
100
AcDbLine
 10
2395.96885793243
 20
8130.802125207463
 30
0.0
 11
2407.218857932431
 21
8130.802125207463
 31
0.0
  0
LINE
  5
20CAE
330
2091F
100
AcDbEntity
  8
SUNPOU
100
AcDbLine
 10
2636.968857932429
 20
8130.802125207463
 30
0.0
 11
2648.21885793243
 21
8130.802125207463
 31
0.0
  0
LINE
  5
20CAF
330
2091F
100
AcDbEntity
  8
SUNPOU
100
AcDbLine
 10
2614.46885793243
 20
8130.802125207463
 30
0.0
 11
2603.21885793243
 21
8130.802125207463
 31
0.0
  0
LINE
  5
20CB0
330
2091F
100
AcDbEntity
  8
SUNPOU
100
AcDbLine
 10
5036.96885793243
 20
8130.802125207463
 30
0.0
 11
5048.21885793243
 21
8130.802125207463
 31
0.0
  0
LINE
  5
20CB1
330
2091F
100
AcDbEntity
  8
SUNPOU
100
AcDbLine
 10
5014.46885793243
 20
8130.802125207463
 30
0.0
 11
5003.218857932431
 21
8130.802125207463
 31
0.0
  0
LINE
  5
20CB2
330
2091F
100
AcDbEntity
  8
SUNPOU
100
AcDbLine
 10
7436.968857932429
 20
8130.802125207463
 30
0.0
 11
7448.21885793243
 21
8130.802125207463
 31
0.0
  0
LINE
  5
20CB3
330
2091F
100
AcDbEntity
  8
SUNPOU
100
AcDbLine
 10
7414.46885793243
 20
8130.802125207463
 30
0.0
 11
7403.218857932429
 21
8130.802125207463
 31
0.0
  0
LINE
  5
20CB4
330
2091F
100
AcDbEntity
  8
SUNPOU
100
AcDbLine
 10
9836.968857932429
 20
8130.802125207463
 30
0.0
 11
9848.21885793243
 21
8130.802125207463
 31
0.0
  0
LINE
  5
20CB5
330
2091F
100
AcDbEntity
  8
SUNPOU
100
AcDbLine
 10
9814.468857932428
 20
8130.802125207463
 30
0.0
 11
9803.218857932428
 21
8130.802125207463
 31
0.0
  0
LINE
  5
20CB6
330
2091F
100
AcDbEntity
  8
SUNPOU
100
AcDbLine
 10
10055.46885793242
 20
8130.802125207463
 30
0.0
 11
10044.21885793242
 21
8130.802125207463
 31
0.0
  0
LINE
  5
20CB7
330
2091F
100
AcDbEntity
  8
KISO
100
AcDbLine
 10
7165.973701566682
 20
1186.805063765603
 30
0.0
 11
8015.973701566679
 21
1186.805063765604
 31
0.0
  0
LINE
  5
20CB8
330
2091F
100
AcDbEntity
  8
KISO
100
AcDbLine
 10
7165.973701566682
 20
1186.805063765603
 30
0.0
 11
7165.973701566684
 21
1286.805063765602
 31
0.0
  0
LINE
  5
20CB9
330
2091F
100
AcDbEntity
  8
KISO
100
AcDbLine
 10
8015.973701566679
 20
1186.805063765604
 30
0.0
 11
8015.973701566682
 21
1286.805063765604
 31
0.0
  0
LINE
  5
20CBA
330
2091F
100
AcDbEntity
  8
KISO
100
AcDbLine
 10
7165.973701566682
 20
1286.805063765602
 30
0.0
 11
8015.973701566682
 21
1286.805063765604
 31
0.0
  0
TEXT
  5
20CBB
330
2091F
100
AcDbEntity
  8
FILENAME
100
AcDbText
 10
10651.5
 20
130.4999999999999
 30
0.0
 40
75.0
  1
＜YOTR-240_1_JIS_GL.DXF ＞
  7
FILENAME
 72
     2
 11
12286.5
 21
130.4999999999999
 31
0.0
100
AcDbText
  0
LINE
  5
20CBC
330
2091F
100
AcDbEntity
  8
WAKUSEN-01
100
AcDbLine
 10
325.5000000000006
 20
310.4999999999997
 30
0.0
 11
12286.5
 21
310.4999999999997
 31
0.0
  0
LINE
  5
20CBD
330
2091F
100
AcDbEntity
  8
WAKUSEN-01
100
AcDbLine
 10
325.5000000000006
 20
8431.500000000003
 30
0.0
 11
12286.5
 21
8431.500000000003
 31
0.0
  0
LINE
  5
20CBE
330
2091F
100
AcDbEntity
  8
WAKUSEN-01
100
AcDbLine
 10
325.5000000000006
 20
310.4999999999997
 30
0.0
 11
325.5000000000006
 21
8431.500000000003
 31
0.0
  0
LINE
  5
20CBF
330
2091F
100
AcDbEntity
  8
WAKUSEN-01
100
AcDbLine
 10
12286.5
 20
310.4999999999997
 30
0.0
 11
12286.5
 21
8431.500000000003
 31
0.0
  0
LINE
  5
20CC0
330
2091F
100
AcDbEntity
  8
WAKUSEN-01
100
AcDbLine
 10
7710.0
 20
931.4999999999999
 30
0.0
 11
12286.5
 21
931.4999999999995
 31
0.0
  0
LINE
  5
20CC1
330
2091F
100
AcDbEntity
  8
WAKUSEN-02
100
AcDbLine
 10
7710.0
 20
620.9999999999999
 30
0.0
 11
10075.49999999999
 21
620.9999999999999
 31
0.0
  0
TEXT
  5
20CC2
330
2091F
100
AcDbEntity
  8
WAKUMOJI-01
100
AcDbText
 10
7751.347597486038
 20
797.2136285022457
 30
0.0
 40
90.0
  1
名　称
  7
WAKUMOJI
100
AcDbText
  0
TEXT
  5
20CC3
330
2091F
100
AcDbEntity
  8
WAKUMOJI-01
100
AcDbText
 10
7746.18955690947
 20
494.6733656174329
 30
0.0
 40
90.0
  1
機種名
  7
WAKUMOJI
100
AcDbText
  0
LINE
  5
20CC4
330
2091F
100
AcDbEntity
  8
WAKUSEN-01
100
AcDbLine
 10
7710.0
 20
310.4999999999989
 30
0.0
 11
7710.0
 21
931.4999999999999
 31
0.0
  0
LINE
  5
20CC5
330
2091F
100
AcDbEntity
  8
WAKUSEN-02
100
AcDbLine
 10
10075.49999999999
 20
310.4999999999973
 30
0.0
 11
10075.49999999999
 21
931.4999999999999
 31
0.0
  0
LINE
  5
20CC6
330
2091F
100
AcDbEntity
  8
YODOROGO
100
AcDbLine
 10
11241.60162798446
 20
748.4060611609828
 30
0.0
 11
11186.10162798447
 21
748.4060611609828
 31
0.0
1001
AUTOCAD_POSTSCRIPT_FIGURE
1002
{
1000
PSFILL
1000
Grayscale
1000
Grayscale
1070
    25
1002
}
  0
LINE
  5
20CC7
330
2091F
100
AcDbEntity
  8
YODOROGO
100
AcDbLine
 10
11186.10162798447
 20
730.4060611609828
 30
0.0
 11
11241.60162798446
 21
730.4060611609828
 31
0.0
1001
AUTOCAD_POSTSCRIPT_FIGURE
1002
{
1000
PSFILL
1000
Grayscale
1000
Grayscale
1070
    25
1002
}
  0
LINE
  5
20CC8
330
2091F
100
AcDbEntity
  8
YODOROGO
100
AcDbLine
 10
11241.60162798446
 20
715.4060611609828
 30
0.0
 11
11186.10162798447
 21
715.4060611609828
 31
0.0
1001
AUTOCAD_POSTSCRIPT_FIGURE
1002
{
1000
PSFILL
1000
Grayscale
1000
Grayscale
1070
    25
1002
}
  0
LINE
  5
20CC9
330
2091F
100
AcDbEntity
  8
YODOROGO
100
AcDbLine
 10
11186.10162798447
 20
697.406061160983
 30
0.0
 11
11241.60162798446
 21
697.406061160983
 31
0.0
1001
AUTOCAD_POSTSCRIPT_FIGURE
1002
{
1000
PSFILL
1000
Grayscale
1000
Grayscale
1070
    25
1002
}
  0
LINE
  5
20CCA
330
2091F
100
AcDbEntity
  8
YODOROGO
100
AcDbLine
 10
11241.60162798446
 20
682.4060611609829
 30
0.0
 11
11186.10162798447
 21
682.4060611609829
 31
0.0
1001
AUTOCAD_POSTSCRIPT_FIGURE
1002
{
1000
PSFILL
1000
Grayscale
1000
Grayscale
1070
    25
1002
}
  0
LINE
  5
20CCB
330
2091F
100
AcDbEntity
  8
YODOROGO
100
AcDbLine
 10
11220.60162798447
 20
640.4060611609828
 30
0.0
 11
11241.60162798446
 21
640.4060611609828
 31
0.0
1001
AUTOCAD_POSTSCRIPT_FIGURE
1002
{
1000
PSFILL
1000
Grayscale
1000
Grayscale
1070
    25
1002
}
  0
LINE
  5
20CCC
330
2091F
100
AcDbEntity
  8
YODOROGO
100
AcDbLine
 10
11151.60162798447
 20
535.4060611609829
 30
0.0
 11
11226.60162798446
 21
555.5022505933164
 31
0.0
  0
LINE
  5
20CCD
330
2091F
100
AcDbEntity
  8
YODOROGO
100
AcDbLine
 10
11231.10162798446
 20
640.4060611609828
 30
0.0
 11
11207.10162798447
 21
640.4060611609828
 31
0.0
  0
ARC
  5
20CCE
330
2091F
100
AcDbEntity
  8
YODOROGO
100
AcDbCircle
 10
11345.38040618545
 20
677.9492284624735
 30
0.0
 40
143.2075740771177
100
AcDbArc
 50
213.9611167766784
 51
264.4787207431779
  0
ARC
  5
20CCF
330
2091F
100
AcDbEntity
  8
YODOROGO
100
AcDbCircle
 10
11345.38040618547
 20
677.9492284624883
 30
0.0
 40
143.2075740771305
100
AcDbArc
 50
208.141144204866
 51
212.9210361185994
  0
LINE
  5
20CD0
330
2091F
100
AcDbEntity
  8
YODOROGO
100
AcDbLine
 10
11164.27870236948
 20
583.8028730048376
 30
0.0
 11
11225.1690496907
 21
600.1183923964076
 31
0.0
  0
LINE
  5
20CD1
330
2091F
100
AcDbEntity
  8
YODOROGO
100
AcDbLine
 10
11151.60162798447
 20
535.4060611609829
 30
0.0
 11
11226.60162798446
 21
555.5022505933164
 31
0.0
  0
LINE
  5
20CD2
330
2091F
100
AcDbEntity
  8
YODOROGO
100
AcDbLine
 10
11231.10162798446
 20
640.4060611609828
 30
0.0
 11
11207.10162798447
 21
640.4060611609828
 31
0.0
  0
ARC
  5
20CD3
330
2091F
100
AcDbEntity
  8
YODOROGO
100
AcDbCircle
 10
11345.38040618545
 20
677.9492284624735
 30
0.0
 40
143.2075740771177
100
AcDbArc
 50
213.9611167766784
 51
264.4787207431779
  0
LINE
  5
20CD4
330
2091F
100
AcDbEntity
  8
YODOROGO
100
AcDbLine
 10
10797.60162798446
 20
682.4060611609829
 30
0.0
 11
10662.60162798446
 21
682.4060611609829
 31
0.0
  0
LINE
  5
20CD5
330
2091F
100
AcDbEntity
  8
YODOROGO
100
AcDbLine
 10
10692.60162798446
 20
535.4060611609829
 30
0.0
 11
10797.60162798446
 21
535.4060611609829
 31
0.0
  0
LINE
  5
20CD6
330
2091F
100
AcDbEntity
  8
YODOROGO
100
AcDbLine
 10
10773.60162798447
 20
721.4060611609824
 30
0.0
 11
10686.60162798446
 21
721.4060611609824
 31
0.0
  0
LINE
  5
20CD7
330
2091F
100
AcDbEntity
  8
YODOROGO
100
AcDbLine
 10
10719.60162798446
 20
760.4060611609829
 30
0.0
 11
10746.60162798447
 21
760.4060611609829
 31
0.0
  0
LINE
  5
20CD8
330
2091F
100
AcDbEntity
  8
YODOROGO
100
AcDbLine
 10
10662.60162798446
 20
640.4060611609828
 30
0.0
 11
10662.60162798446
 21
565.4060611609828
 31
0.0
  0
LINE
  5
20CD9
330
2091F
100
AcDbEntity
  8
YODOROGO
100
AcDbLine
 10
10686.60162798446
 20
586.4060611609825
 30
0.0
 11
10686.60162798446
 21
640.4060611609828
 31
0.0
  0
LINE
  5
20CDA
330
2091F
100
AcDbEntity
  8
YODOROGO
100
AcDbLine
 10
10719.60162798446
 20
655.4060611609838
 30
0.0
 11
10719.60162798446
 21
580.406061160983
 31
0.0
  0
LINE
  5
20CDB
330
2091F
100
AcDbEntity
  8
YODOROGO
100
AcDbLine
 10
10446.60162798447
 20
631.4060611609833
 30
0.0
 11
10416.60162798446
 21
607.4896552667143
 31
0.0
  0
LINE
  5
20CDC
330
2091F
100
AcDbEntity
  8
YODOROGO
100
AcDbLine
 10
10476.60162798446
 20
607.4896552667143
 30
0.0
 11
10446.60162798447
 21
631.4060611609833
 31
0.0
  0
LINE
  5
20CDD
330
2091F
100
AcDbEntity
  8
YODOROGO
100
AcDbLine
 10
10446.60162798447
 20
640.4060611609828
 30
0.0
 11
10476.60162798446
 21
616.4896552667137
 31
0.0
  0
LINE
  5
20CDE
330
2091F
100
AcDbEntity
  8
YODOROGO
100
AcDbLine
 10
10416.60162798446
 20
616.4896552667137
 30
0.0
 11
10446.60162798447
 21
640.4060611609828
 31
0.0
  0
LINE
  5
20CDF
330
2091F
100
AcDbEntity
  8
YODOROGO
100
AcDbLine
 10
10515.34245150633
 20
622.406061160983
 30
0.0
 11
10515.34245150633
 21
631.4060611609825
 31
0.0
  0
LINE
  5
20CE0
330
2091F
100
AcDbEntity
  8
YODOROGO
100
AcDbLine
 10
10491.60162798447
 20
631.4060611609825
 30
0.0
 11
10491.60162798447
 21
625.4060611609819
 31
0.0
  0
LINE
  5
20CE1
330
2091F
100
AcDbEntity
  8
YODOROGO
100
AcDbLine
 10
10536.8008200866
 20
640.4060611609828
 30
0.0
 11
10536.8008200866
 21
620.813863977996
 31
0.0
1001
AUTOCAD_POSTSCRIPT_FIGURE
1002
{
1000
PSFILL
1000
Grayscale
1000
Grayscale
1070
   100
1002
}
  0
LINE
  5
20CE2
330
2091F
100
AcDbEntity
  8
YODOROGO
100
AcDbLine
 10
10530.80082008658
 20
620.813863977996
 30
0.0
 11
10530.80082008658
 21
640.4060611609828
 31
0.0
1001
AUTOCAD_POSTSCRIPT_FIGURE
1002
{
1000
PSFILL
1000
Grayscale
1000
Grayscale
1070
   100
1002
}
  0
LINE
  5
20CE3
330
2091F
100
AcDbEntity
  8
YODOROGO
100
AcDbLine
 10
10428.60162798447
 20
603.2894640162218
 30
0.0
 11
10428.60162798447
 21
612.2894640162221
 31
0.0
  0
LINE
  5
20CE4
330
2091F
100
AcDbEntity
  8
YODOROGO
100
AcDbLine
 10
10464.60162798447
 20
603.2894640162218
 30
0.0
 11
10428.60162798447
 21
603.2894640162218
 31
0.0
  0
LINE
  5
20CE5
330
2091F
100
AcDbEntity
  8
YODOROGO
100
AcDbLine
 10
10464.60162798447
 20
612.2894640162221
 30
0.0
 11
10464.60162798447
 21
603.2894640162218
 31
0.0
  0
LINE
  5
20CE6
330
2091F
100
AcDbEntity
  8
YODOROGO
100
AcDbLine
 10
10428.60162798447
 20
612.2894640162221
 30
0.0
 11
10464.60162798447
 21
612.2894640162221
 31
0.0
  0
LINE
  5
20CE7
330
2091F
100
AcDbEntity
  8
YODOROGO
100
AcDbLine
 10
10434.1910958434
 20
588.1885715139279
 30
0.0
 11
10419.60162798446
 21
553.4060611609827
 31
0.0
1001
AUTOCAD_POSTSCRIPT_FIGURE
1002
{
1000
PSFILL
1000
Grayscale
1000
Grayscale
1070
   100
1002
}
  0
LINE
  5
20CE8
330
2091F
100
AcDbEntity
  8
YODOROGO
100
AcDbLine
 10
10416.60162798446
 20
588.1885715139279
 30
0.0
 11
10434.1910958434
 21
588.1885715139279
 31
0.0
1001
AUTOCAD_POSTSCRIPT_FIGURE
1002
{
1000
PSFILL
1000
Grayscale
1000
Grayscale
1070
   100
1002
}
  0
LINE
  5
20CE9
330
2091F
100
AcDbEntity
  8
YODOROGO
100
AcDbLine
 10
10416.60162798446
 20
595.688571513928
 30
0.0
 11
10416.60162798446
 21
588.1885715139279
 31
0.0
1001
AUTOCAD_POSTSCRIPT_FIGURE
1002
{
1000
PSFILL
1000
Grayscale
1000
Grayscale
1070
   100
1002
}
  0
LINE
  5
20CEA
330
2091F
100
AcDbEntity
  8
YODOROGO
100
AcDbLine
 10
10476.60162798446
 20
595.688571513928
 30
0.0
 11
10416.60162798446
 21
595.688571513928
 31
0.0
1001
AUTOCAD_POSTSCRIPT_FIGURE
1002
{
1000
PSFILL
1000
Grayscale
1000
Grayscale
1070
   100
1002
}
  0
LINE
  5
20CEB
330
2091F
100
AcDbEntity
  8
YODOROGO
100
AcDbLine
 10
10476.60162798446
 20
588.1885715139279
 30
0.0
 11
10476.60162798446
 21
595.688571513928
 31
0.0
1001
AUTOCAD_POSTSCRIPT_FIGURE
1002
{
1000
PSFILL
1000
Grayscale
1000
Grayscale
1070
   100
1002
}
  0
LINE
  5
20CEC
330
2091F
100
AcDbEntity
  8
YODOROGO
100
AcDbLine
 10
10441.69109584339
 20
588.1885715139279
 30
0.0
 11
10476.60162798446
 21
588.1885715139279
 31
0.0
1001
AUTOCAD_POSTSCRIPT_FIGURE
1002
{
1000
PSFILL
1000
Grayscale
1000
Grayscale
1070
   100
1002
}
  0
LINE
  5
20CED
330
2091F
100
AcDbEntity
  8
YODOROGO
100
AcDbLine
 10
10430.83001935679
 20
560.9060611609827
 30
0.0
 11
10441.69109584339
 21
588.1885715139279
 31
0.0
1001
AUTOCAD_POSTSCRIPT_FIGURE
1002
{
1000
PSFILL
1000
Grayscale
1000
Grayscale
1070
   100
1002
}
  0
LINE
  5
20CEE
330
2091F
100
AcDbEntity
  8
YODOROGO
100
AcDbLine
 10
10463.27054655324
 20
560.9060611609827
 30
0.0
 11
10430.83001935679
 21
560.9060611609827
 31
0.0
1001
AUTOCAD_POSTSCRIPT_FIGURE
1002
{
1000
PSFILL
1000
Grayscale
1000
Grayscale
1070
   100
1002
}
  0
LINE
  5
20CEF
330
2091F
100
AcDbEntity
  8
YODOROGO
100
AcDbLine
 10
10456.8993767966
 20
576.0876790116348
 30
0.0
 11
10463.27054655324
 21
560.9060611609827
 31
0.0
1001
AUTOCAD_POSTSCRIPT_FIGURE
1002
{
1000
PSFILL
1000
Grayscale
1000
Grayscale
1070
   100
1002
}
  0
LINE
  5
20CF0
330
2091F
100
AcDbEntity
  8
YODOROGO
100
AcDbLine
 10
10462.8993767966
 20
576.0876790116348
 30
0.0
 11
10456.8993767966
 21
576.0876790116348
 31
0.0
1001
AUTOCAD_POSTSCRIPT_FIGURE
1002
{
1000
PSFILL
1000
Grayscale
1000
Grayscale
1070
   100
1002
}
  0
LINE
  5
20CF1
330
2091F
100
AcDbEntity
  8
YODOROGO
100
AcDbLine
 10
10473.60162798447
 20
553.4060611609827
 30
0.0
 11
10462.8993767966
 21
576.0876790116348
 31
0.0
1001
AUTOCAD_POSTSCRIPT_FIGURE
1002
{
1000
PSFILL
1000
Grayscale
1000
Grayscale
1070
   100
1002
}
  0
LINE
  5
20CF2
330
2091F
100
AcDbEntity
  8
YODOROGO
100
AcDbLine
 10
10419.60162798446
 20
553.4060611609827
 30
0.0
 11
10473.60162798447
 21
553.4060611609827
 31
0.0
1001
AUTOCAD_POSTSCRIPT_FIGURE
1002
{
1000
PSFILL
1000
Grayscale
1000
Grayscale
1070
   100
1002
}
  0
LINE
  5
20CF3
330
2091F
100
AcDbEntity
  8
YODOROGO
100
AcDbLine
 10
10416.60162798446
 20
607.4896552667143
 30
0.0
 11
10416.60162798446
 21
616.4896552667137
 31
0.0
  0
LINE
  5
20CF4
330
2091F
100
AcDbEntity
  8
YODOROGO
100
AcDbLine
 10
10476.60162798446
 20
616.4896552667137
 30
0.0
 11
10476.60162798446
 21
607.4896552667143
 31
0.0
  0
ARC
  5
20CF5
330
2091F
100
AcDbEntity
  8
YODOROGO
100
AcDbCircle
 10
10584.72766580511
 20
600.3291619969972
 30
0.0
 40
65.99999999999997
100
AcDbArc
 50
280.3644312771313
 51
3.541483659218056
  0
ARC
  5
20CF6
330
2091F
100
AcDbEntity
  8
YODOROGO
100
AcDbCircle
 10
10588.40851153474
 20
612.5991776107142
 30
0.0
 40
41.99999999999936
100
AcDbArc
 50
281.2490582504155
 51
348.7509417495832
  0
LINE
  5
20CF7
330
2091F
100
AcDbEntity
  8
YODOROGO
100
AcDbLine
 10
10596.60162798446
 20
571.4060611609824
 30
0.0
 11
10596.60162798446
 21
535.4060611609829
 31
0.0
  0
LINE
  5
20CF8
330
2091F
100
AcDbEntity
  8
YODOROGO
100
AcDbLine
 10
10507.53333890132
 20
603.9939618982182
 30
0.0
 11
10515.34245150633
 21
622.406061160983
 31
0.0
  0
LINE
  5
20CF9
330
2091F
100
AcDbEntity
  8
YODOROGO
100
AcDbLine
 10
10515.60162798446
 20
593.6701837306505
 30
0.0
 11
10507.53333890132
 21
603.9939618982182
 31
0.0
  0
LINE
  5
20CFA
330
2091F
100
AcDbEntity
  8
YODOROGO
100
AcDbLine
 10
10515.60162798446
 20
586.1701837306497
 30
0.0
 11
10515.60162798446
 21
593.6701837306505
 31
0.0
  0
LINE
  5
20CFB
330
2091F
100
AcDbEntity
  8
YODOROGO
100
AcDbLine
 10
10506.60162798447
 20
594.4638989060739
 30
0.0
 11
10515.60162798446
 21
586.1701837306497
 31
0.0
  0
LINE
  5
20CFC
330
2091F
100
AcDbEntity
  8
YODOROGO
100
AcDbLine
 10
10506.60162798447
 20
553.4060611609827
 30
0.0
 11
10506.60162798447
 21
594.4638989060739
 31
0.0
  0
LINE
  5
20CFD
330
2091F
100
AcDbEntity
  8
YODOROGO
100
AcDbLine
 10
10500.60162798446
 20
553.4060611609827
 30
0.0
 11
10506.60162798447
 21
553.4060611609827
 31
0.0
  0
LINE
  5
20CFE
330
2091F
100
AcDbEntity
  8
YODOROGO
100
AcDbLine
 10
10500.60162798446
 20
592.5020061336555
 30
0.0
 11
10500.60162798446
 21
553.4060611609827
 31
0.0
  0
LINE
  5
20CFF
330
2091F
100
AcDbEntity
  8
YODOROGO
100
AcDbLine
 10
10491.60162798447
 20
574.7880296375358
 30
0.0
 11
10500.60162798446
 21
592.5020061336555
 31
0.0
  0
LINE
  5
20D00
330
2091F
100
AcDbEntity
  8
YODOROGO
100
AcDbLine
 10
10491.60162798447
 20
583.788029637536
 30
0.0
 11
10491.60162798447
 21
574.7880296375358
 31
0.0
  0
LINE
  5
20D01
330
2091F
100
AcDbEntity
  8
YODOROGO
100
AcDbLine
 10
10509.68579035926
 20
625.4060611609819
 30
0.0
 11
10491.60162798447
 21
583.788029637536
 31
0.0
  0
LINE
  5
20D02
330
2091F
100
AcDbEntity
  8
YODOROGO
100
AcDbLine
 10
10491.60162798447
 20
625.4060611609819
 30
0.0
 11
10509.68579035926
 21
625.4060611609819
 31
0.0
  0
LINE
  5
20D03
330
2091F
100
AcDbEntity
  8
YODOROGO
100
AcDbLine
 10
10518.80082008659
 20
620.813863977996
 30
0.0
 11
10530.80082008658
 21
620.813863977996
 31
0.0
1001
AUTOCAD_POSTSCRIPT_FIGURE
1002
{
1000
PSFILL
1000
Grayscale
1000
Grayscale
1070
   100
1002
}
  0
LINE
  5
20D04
330
2091F
100
AcDbEntity
  8
YODOROGO
100
AcDbLine
 10
10518.80082008659
 20
611.8138639779965
 30
0.0
 11
10518.80082008659
 21
620.813863977996
 31
0.0
1001
AUTOCAD_POSTSCRIPT_FIGURE
1002
{
1000
PSFILL
1000
Grayscale
1000
Grayscale
1070
   100
1002
}
  0
LINE
  5
20D05
330
2091F
100
AcDbEntity
  8
YODOROGO
100
AcDbLine
 10
10530.80082008658
 20
611.8138639779965
 30
0.0
 11
10518.80082008659
 21
611.8138639779965
 31
0.0
1001
AUTOCAD_POSTSCRIPT_FIGURE
1002
{
1000
PSFILL
1000
Grayscale
1000
Grayscale
1070
   100
1002
}
  0
LINE
  5
20D06
330
2091F
100
AcDbEntity
  8
YODOROGO
100
AcDbLine
 10
10530.80082008658
 20
562.4060611609831
 30
0.0
 11
10530.80082008658
 21
611.8138639779965
 31
0.0
1001
AUTOCAD_POSTSCRIPT_FIGURE
1002
{
1000
PSFILL
1000
Grayscale
1000
Grayscale
1070
   100
1002
}
  0
LINE
  5
20D07
330
2091F
100
AcDbEntity
  8
YODOROGO
100
AcDbLine
 10
10518.8008200866
 20
562.4060611609831
 30
0.0
 11
10530.80082008658
 21
562.4060611609831
 31
0.0
1001
AUTOCAD_POSTSCRIPT_FIGURE
1002
{
1000
PSFILL
1000
Grayscale
1000
Grayscale
1070
   100
1002
}
  0
LINE
  5
20D08
330
2091F
100
AcDbEntity
  8
YODOROGO
100
AcDbLine
 10
10518.8008200866
 20
553.4060611609827
 30
0.0
 11
10518.8008200866
 21
562.4060611609831
 31
0.0
1001
AUTOCAD_POSTSCRIPT_FIGURE
1002
{
1000
PSFILL
1000
Grayscale
1000
Grayscale
1070
   100
1002
}
  0
LINE
  5
20D09
330
2091F
100
AcDbEntity
  8
YODOROGO
100
AcDbLine
 10
10551.60162798447
 20
553.4060611609827
 30
0.0
 11
10518.8008200866
 21
553.4060611609827
 31
0.0
1001
AUTOCAD_POSTSCRIPT_FIGURE
1002
{
1000
PSFILL
1000
Grayscale
1000
Grayscale
1070
   100
1002
}
  0
LINE
  5
20D0A
330
2091F
100
AcDbEntity
  8
YODOROGO
100
AcDbLine
 10
10551.60162798447
 20
562.4060611609831
 30
0.0
 11
10551.60162798447
 21
553.4060611609827
 31
0.0
1001
AUTOCAD_POSTSCRIPT_FIGURE
1002
{
1000
PSFILL
1000
Grayscale
1000
Grayscale
1070
   100
1002
}
  0
LINE
  5
20D0B
330
2091F
100
AcDbEntity
  8
YODOROGO
100
AcDbLine
 10
10536.8008200866
 20
562.4060611609831
 30
0.0
 11
10551.60162798447
 21
562.4060611609831
 31
0.0
1001
AUTOCAD_POSTSCRIPT_FIGURE
1002
{
1000
PSFILL
1000
Grayscale
1000
Grayscale
1070
   100
1002
}
  0
LINE
  5
20D0C
330
2091F
100
AcDbEntity
  8
YODOROGO
100
AcDbLine
 10
10536.8008200866
 20
611.8138639779965
 30
0.0
 11
10536.8008200866
 21
562.4060611609831
 31
0.0
1001
AUTOCAD_POSTSCRIPT_FIGURE
1002
{
1000
PSFILL
1000
Grayscale
1000
Grayscale
1070
   100
1002
}
  0
LINE
  5
20D0D
330
2091F
100
AcDbEntity
  8
YODOROGO
100
AcDbLine
 10
10551.60162798447
 20
611.8138639779965
 30
0.0
 11
10536.8008200866
 21
611.8138639779965
 31
0.0
1001
AUTOCAD_POSTSCRIPT_FIGURE
1002
{
1000
PSFILL
1000
Grayscale
1000
Grayscale
1070
   100
1002
}
  0
LINE
  5
20D0E
330
2091F
100
AcDbEntity
  8
YODOROGO
100
AcDbLine
 10
10551.60162798447
 20
620.813863977996
 30
0.0
 11
10551.60162798447
 21
611.8138639779965
 31
0.0
1001
AUTOCAD_POSTSCRIPT_FIGURE
1002
{
1000
PSFILL
1000
Grayscale
1000
Grayscale
1070
   100
1002
}
  0
LINE
  5
20D0F
330
2091F
100
AcDbEntity
  8
YODOROGO
100
AcDbLine
 10
10536.8008200866
 20
620.813863977996
 30
0.0
 11
10551.60162798447
 21
620.813863977996
 31
0.0
1001
AUTOCAD_POSTSCRIPT_FIGURE
1002
{
1000
PSFILL
1000
Grayscale
1000
Grayscale
1070
   100
1002
}
  0
LINE
  5
20D10
330
2091F
100
AcDbEntity
  8
YODOROGO
100
AcDbLine
 10
10650.60162798447
 20
625.406061160983
 30
0.0
 11
10629.60162798447
 21
625.406061160983
 31
0.0
  0
LINE
  5
20D11
330
2091F
100
AcDbEntity
  8
YODOROGO
100
AcDbLine
 10
10650.60162798447
 20
604.4060611609832
 30
0.0
 11
10650.60162798447
 21
625.406061160983
 31
0.0
  0
LINE
  5
20D12
330
2091F
100
AcDbEntity
  8
YODOROGO
100
AcDbLine
 10
10629.60162798447
 20
625.406061160983
 30
0.0
 11
10629.60162798447
 21
604.4060611609832
 31
0.0
  0
ARC
  5
20D13
330
2091F
100
AcDbEntity
  8
YODOROGO
100
AcDbCircle
 10
10692.60162798446
 20
565.4060611609828
 30
0.0
 40
30.0
100
AcDbArc
 50
180.0
 51
270.0
  0
ARC
  5
20D14
330
2091F
100
AcDbEntity
  8
YODOROGO
100
AcDbCircle
 10
10701.60162798446
 20
586.4060611609825
 30
0.0
 40
15.0
100
AcDbArc
 50
180.0
 51
270.0
  0
LINE
  5
20D15
330
2091F
100
AcDbEntity
  8
YODOROGO
100
AcDbLine
 10
10710.60162798447
 20
571.4060611609824
 30
0.0
 11
10701.60162798446
 21
571.4060611609824
 31
0.0
  0
ARC
  5
20D16
330
2091F
100
AcDbEntity
  8
YODOROGO
100
AcDbCircle
 10
10710.60162798447
 20
580.4060611609819
 30
0.0
 40
8.999999999998637
100
AcDbArc
 50
270.0
 51
0.0000000000054281
  0
LINE
  5
20D17
330
2091F
100
AcDbEntity
  8
YODOROGO
100
AcDbLine
 10
10425.60162798447
 20
709.0449677976399
 30
0.0
 11
10416.60162798446
 21
691.4162804818772
 31
0.0
1001
AUTOCAD_POSTSCRIPT_FIGURE
1002
{
1000
PSFILL
1000
Grayscale
1000
Grayscale
1070
   100
1002
}
  0
LINE
  5
20D18
330
2091F
100
AcDbEntity
  8
YODOROGO
100
AcDbLine
 10
10425.60162798447
 20
655.406061160983
 30
0.0
 11
10425.60162798447
 21
709.0449677976399
 31
0.0
1001
AUTOCAD_POSTSCRIPT_FIGURE
1002
{
1000
PSFILL
1000
Grayscale
1000
Grayscale
1070
   100
1002
}
  0
LINE
  5
20D19
330
2091F
100
AcDbEntity
  8
YODOROGO
100
AcDbLine
 10
10431.60162798447
 20
655.406061160983
 30
0.0
 11
10425.60162798447
 21
655.406061160983
 31
0.0
1001
AUTOCAD_POSTSCRIPT_FIGURE
1002
{
1000
PSFILL
1000
Grayscale
1000
Grayscale
1070
   100
1002
}
  0
LINE
  5
20D1A
330
2091F
100
AcDbEntity
  8
YODOROGO
100
AcDbLine
 10
10431.60162798447
 20
710.1642495319751
 30
0.0
 11
10431.60162798447
 21
655.406061160983
 31
0.0
1001
AUTOCAD_POSTSCRIPT_FIGURE
1002
{
1000
PSFILL
1000
Grayscale
1000
Grayscale
1070
   100
1002
}
  0
LINE
  5
20D1B
330
2091F
100
AcDbEntity
  8
YODOROGO
100
AcDbLine
 10
10440.60162798446
 20
700.3705343565512
 30
0.0
 11
10431.60162798447
 21
710.1642495319751
 31
0.0
1001
AUTOCAD_POSTSCRIPT_FIGURE
1002
{
1000
PSFILL
1000
Grayscale
1000
Grayscale
1070
   100
1002
}
  0
LINE
  5
20D1C
330
2091F
100
AcDbEntity
  8
YODOROGO
100
AcDbLine
 10
10440.60162798446
 20
706.3705343565509
 30
0.0
 11
10440.60162798446
 21
700.3705343565512
 31
0.0
1001
AUTOCAD_POSTSCRIPT_FIGURE
1002
{
1000
PSFILL
1000
Grayscale
1000
Grayscale
1070
   100
1002
}
  0
LINE
  5
20D1D
330
2091F
100
AcDbEntity
  8
YODOROGO
100
AcDbLine
 10
10431.60162798447
 20
719.1642495319745
 30
0.0
 11
10440.60162798446
 21
706.3705343565509
 31
0.0
1001
AUTOCAD_POSTSCRIPT_FIGURE
1002
{
1000
PSFILL
1000
Grayscale
1000
Grayscale
1070
   100
1002
}
  0
LINE
  5
20D1E
330
2091F
100
AcDbEntity
  8
YODOROGO
100
AcDbLine
 10
10431.60162798447
 20
727.4060611609828
 30
0.0
 11
10431.60162798447
 21
719.1642495319745
 31
0.0
1001
AUTOCAD_POSTSCRIPT_FIGURE
1002
{
1000
PSFILL
1000
Grayscale
1000
Grayscale
1070
   100
1002
}
  0
LINE
  5
20D1F
330
2091F
100
AcDbEntity
  8
YODOROGO
100
AcDbLine
 10
10458.60162798446
 20
727.4060611609828
 30
0.0
 11
10431.60162798447
 21
727.4060611609828
 31
0.0
1001
AUTOCAD_POSTSCRIPT_FIGURE
1002
{
1000
PSFILL
1000
Grayscale
1000
Grayscale
1070
   100
1002
}
  0
LINE
  5
20D20
330
2091F
100
AcDbEntity
  8
YODOROGO
100
AcDbLine
 10
10458.60162798446
 20
712.7131308511124
 30
0.0
 11
10458.60162798446
 21
727.4060611609828
 31
0.0
1001
AUTOCAD_POSTSCRIPT_FIGURE
1002
{
1000
PSFILL
1000
Grayscale
1000
Grayscale
1070
   100
1002
}
  0
LINE
  5
20D21
330
2091F
100
AcDbEntity
  8
YODOROGO
100
AcDbLine
 10
10446.60162798447
 20
712.7131308511124
 30
0.0
 11
10458.60162798446
 21
712.7131308511124
 31
0.0
1001
AUTOCAD_POSTSCRIPT_FIGURE
1002
{
1000
PSFILL
1000
Grayscale
1000
Grayscale
1070
   100
1002
}
  0
LINE
  5
20D22
330
2091F
100
AcDbEntity
  8
YODOROGO
100
AcDbLine
 10
10446.60162798447
 20
706.7131308511119
 30
0.0
 11
10446.60162798447
 21
712.7131308511124
 31
0.0
1001
AUTOCAD_POSTSCRIPT_FIGURE
1002
{
1000
PSFILL
1000
Grayscale
1000
Grayscale
1070
   100
1002
}
  0
LINE
  5
20D23
330
2091F
100
AcDbEntity
  8
YODOROGO
100
AcDbLine
 10
10458.60162798446
 20
706.7131308511119
 30
0.0
 11
10446.60162798447
 21
706.7131308511119
 31
0.0
1001
AUTOCAD_POSTSCRIPT_FIGURE
1002
{
1000
PSFILL
1000
Grayscale
1000
Grayscale
1070
   100
1002
}
  0
LINE
  5
20D24
330
2091F
100
AcDbEntity
  8
YODOROGO
100
AcDbLine
 10
10458.60162798446
 20
704.8571917366647
 30
0.0
 11
10458.60162798446
 21
706.7131308511119
 31
0.0
1001
AUTOCAD_POSTSCRIPT_FIGURE
1002
{
1000
PSFILL
1000
Grayscale
1000
Grayscale
1070
   100
1002
}
  0
LINE
  5
20D25
330
2091F
100
AcDbEntity
  8
YODOROGO
100
AcDbLine
 10
10443.60162798447
 20
679.8656179355313
 30
0.0
 11
10458.60162798446
 21
704.8571917366647
 31
0.0
1001
AUTOCAD_POSTSCRIPT_FIGURE
1002
{
1000
PSFILL
1000
Grayscale
1000
Grayscale
1070
   100
1002
}
  0
LINE
  5
20D26
330
2091F
100
AcDbEntity
  8
YODOROGO
100
AcDbLine
 10
10443.60162798447
 20
673.8656179355309
 30
0.0
 11
10443.60162798447
 21
679.8656179355313
 31
0.0
1001
AUTOCAD_POSTSCRIPT_FIGURE
1002
{
1000
PSFILL
1000
Grayscale
1000
Grayscale
1070
   100
1002
}
  0
LINE
  5
20D27
330
2091F
100
AcDbEntity
  8
YODOROGO
100
AcDbLine
 10
10458.60162798446
 20
692.8571917366638
 30
0.0
 11
10443.60162798447
 21
673.8656179355309
 31
0.0
1001
AUTOCAD_POSTSCRIPT_FIGURE
1002
{
1000
PSFILL
1000
Grayscale
1000
Grayscale
1070
   100
1002
}
  0
LINE
  5
20D28
330
2091F
100
AcDbEntity
  8
YODOROGO
100
AcDbLine
 10
10458.60162798446
 20
655.406061160983
 30
0.0
 11
10458.60162798446
 21
692.8571917366638
 31
0.0
1001
AUTOCAD_POSTSCRIPT_FIGURE
1002
{
1000
PSFILL
1000
Grayscale
1000
Grayscale
1070
   100
1002
}
  0
LINE
  5
20D29
330
2091F
100
AcDbEntity
  8
YODOROGO
100
AcDbLine
 10
10464.60162798447
 20
655.406061160983
 30
0.0
 11
10458.60162798446
 21
655.406061160983
 31
0.0
1001
AUTOCAD_POSTSCRIPT_FIGURE
1002
{
1000
PSFILL
1000
Grayscale
1000
Grayscale
1070
   100
1002
}
  0
LINE
  5
20D2A
330
2091F
100
AcDbEntity
  8
YODOROGO
100
AcDbLine
 10
10464.60162798447
 20
693.5283795595521
 30
0.0
 11
10464.60162798447
 21
655.406061160983
 31
0.0
1001
AUTOCAD_POSTSCRIPT_FIGURE
1002
{
1000
PSFILL
1000
Grayscale
1000
Grayscale
1070
   100
1002
}
  0
LINE
  5
20D2B
330
2091F
100
AcDbEntity
  8
YODOROGO
100
AcDbLine
 10
10476.60162798446
 20
673.8656179355309
 30
0.0
 11
10464.60162798447
 21
693.5283795595521
 31
0.0
1001
AUTOCAD_POSTSCRIPT_FIGURE
1002
{
1000
PSFILL
1000
Grayscale
1000
Grayscale
1070
   100
1002
}
  0
LINE
  5
20D2C
330
2091F
100
AcDbEntity
  8
YODOROGO
100
AcDbLine
 10
10476.60162798446
 20
679.8656179355313
 30
0.0
 11
10476.60162798446
 21
673.8656179355309
 31
0.0
1001
AUTOCAD_POSTSCRIPT_FIGURE
1002
{
1000
PSFILL
1000
Grayscale
1000
Grayscale
1070
   100
1002
}
  0
LINE
  5
20D2D
330
2091F
100
AcDbEntity
  8
YODOROGO
100
AcDbLine
 10
10464.60162798447
 20
705.5283795595531
 30
0.0
 11
10476.60162798446
 21
679.8656179355313
 31
0.0
1001
AUTOCAD_POSTSCRIPT_FIGURE
1002
{
1000
PSFILL
1000
Grayscale
1000
Grayscale
1070
   100
1002
}
  0
LINE
  5
20D2E
330
2091F
100
AcDbEntity
  8
YODOROGO
100
AcDbLine
 10
10464.60162798447
 20
706.7131308511128
 30
0.0
 11
10464.60162798447
 21
705.5283795595531
 31
0.0
1001
AUTOCAD_POSTSCRIPT_FIGURE
1002
{
1000
PSFILL
1000
Grayscale
1000
Grayscale
1070
   100
1002
}
  0
LINE
  5
20D2F
330
2091F
100
AcDbEntity
  8
YODOROGO
100
AcDbLine
 10
10476.60162798446
 20
706.7131308511119
 30
0.0
 11
10464.60162798447
 21
706.7131308511128
 31
0.0
1001
AUTOCAD_POSTSCRIPT_FIGURE
1002
{
1000
PSFILL
1000
Grayscale
1000
Grayscale
1070
   100
1002
}
  0
LINE
  5
20D30
330
2091F
100
AcDbEntity
  8
YODOROGO
100
AcDbLine
 10
10476.60162798446
 20
712.7131308511124
 30
0.0
 11
10476.60162798446
 21
706.7131308511119
 31
0.0
1001
AUTOCAD_POSTSCRIPT_FIGURE
1002
{
1000
PSFILL
1000
Grayscale
1000
Grayscale
1070
   100
1002
}
  0
LINE
  5
20D31
330
2091F
100
AcDbEntity
  8
YODOROGO
100
AcDbLine
 10
10464.60162798447
 20
712.7131308511124
 30
0.0
 11
10476.60162798446
 21
712.7131308511124
 31
0.0
1001
AUTOCAD_POSTSCRIPT_FIGURE
1002
{
1000
PSFILL
1000
Grayscale
1000
Grayscale
1070
   100
1002
}
  0
LINE
  5
20D32
330
2091F
100
AcDbEntity
  8
YODOROGO
100
AcDbLine
 10
10464.60162798447
 20
727.4060611609828
 30
0.0
 11
10464.60162798447
 21
712.7131308511124
 31
0.0
1001
AUTOCAD_POSTSCRIPT_FIGURE
1002
{
1000
PSFILL
1000
Grayscale
1000
Grayscale
1070
   100
1002
}
  0
LINE
  5
20D33
330
2091F
100
AcDbEntity
  8
YODOROGO
100
AcDbLine
 10
10476.60162798446
 20
727.4060611609828
 30
0.0
 11
10464.60162798447
 21
727.4060611609828
 31
0.0
1001
AUTOCAD_POSTSCRIPT_FIGURE
1002
{
1000
PSFILL
1000
Grayscale
1000
Grayscale
1070
   100
1002
}
  0
LINE
  5
20D34
330
2091F
100
AcDbEntity
  8
YODOROGO
100
AcDbLine
 10
10476.60162798446
 20
733.4060611609828
 30
0.0
 11
10476.60162798446
 21
727.4060611609828
 31
0.0
1001
AUTOCAD_POSTSCRIPT_FIGURE
1002
{
1000
PSFILL
1000
Grayscale
1000
Grayscale
1070
   100
1002
}
  0
LINE
  5
20D35
330
2091F
100
AcDbEntity
  8
YODOROGO
100
AcDbLine
 10
10464.60162798447
 20
733.4060611609828
 30
0.0
 11
10476.60162798446
 21
733.4060611609828
 31
0.0
1001
AUTOCAD_POSTSCRIPT_FIGURE
1002
{
1000
PSFILL
1000
Grayscale
1000
Grayscale
1070
   100
1002
}
  0
LINE
  5
20D36
330
2091F
100
AcDbEntity
  8
YODOROGO
100
AcDbLine
 10
10464.60162798447
 20
742.4060611609832
 30
0.0
 11
10464.60162798447
 21
733.4060611609828
 31
0.0
1001
AUTOCAD_POSTSCRIPT_FIGURE
1002
{
1000
PSFILL
1000
Grayscale
1000
Grayscale
1070
   100
1002
}
  0
LINE
  5
20D37
330
2091F
100
AcDbEntity
  8
YODOROGO
100
AcDbLine
 10
10458.60162798446
 20
742.4060611609832
 30
0.0
 11
10464.60162798447
 21
742.4060611609832
 31
0.0
1001
AUTOCAD_POSTSCRIPT_FIGURE
1002
{
1000
PSFILL
1000
Grayscale
1000
Grayscale
1070
   100
1002
}
  0
LINE
  5
20D38
330
2091F
100
AcDbEntity
  8
YODOROGO
100
AcDbLine
 10
10458.60162798446
 20
733.4060611609828
 30
0.0
 11
10458.60162798446
 21
742.4060611609832
 31
0.0
1001
AUTOCAD_POSTSCRIPT_FIGURE
1002
{
1000
PSFILL
1000
Grayscale
1000
Grayscale
1070
   100
1002
}
  0
LINE
  5
20D39
330
2091F
100
AcDbEntity
  8
YODOROGO
100
AcDbLine
 10
10449.60162798447
 20
733.4060611609828
 30
0.0
 11
10458.60162798446
 21
733.4060611609828
 31
0.0
1001
AUTOCAD_POSTSCRIPT_FIGURE
1002
{
1000
PSFILL
1000
Grayscale
1000
Grayscale
1070
   100
1002
}
  0
LINE
  5
20D3A
330
2091F
100
AcDbEntity
  8
YODOROGO
100
AcDbLine
 10
10449.60162798447
 20
742.4060611609832
 30
0.0
 11
10449.60162798447
 21
733.4060611609828
 31
0.0
1001
AUTOCAD_POSTSCRIPT_FIGURE
1002
{
1000
PSFILL
1000
Grayscale
1000
Grayscale
1070
   100
1002
}
  0
LINE
  5
20D3B
330
2091F
100
AcDbEntity
  8
YODOROGO
100
AcDbLine
 10
10443.60162798447
 20
742.4060611609832
 30
0.0
 11
10449.60162798447
 21
742.4060611609832
 31
0.0
1001
AUTOCAD_POSTSCRIPT_FIGURE
1002
{
1000
PSFILL
1000
Grayscale
1000
Grayscale
1070
   100
1002
}
  0
LINE
  5
20D3C
330
2091F
100
AcDbEntity
  8
YODOROGO
100
AcDbLine
 10
10443.60162798447
 20
733.4060611609828
 30
0.0
 11
10443.60162798447
 21
742.4060611609832
 31
0.0
1001
AUTOCAD_POSTSCRIPT_FIGURE
1002
{
1000
PSFILL
1000
Grayscale
1000
Grayscale
1070
   100
1002
}
  0
LINE
  5
20D3D
330
2091F
100
AcDbEntity
  8
YODOROGO
100
AcDbLine
 10
10431.60162798447
 20
733.4060611609828
 30
0.0
 11
10443.60162798447
 21
733.4060611609828
 31
0.0
1001
AUTOCAD_POSTSCRIPT_FIGURE
1002
{
1000
PSFILL
1000
Grayscale
1000
Grayscale
1070
   100
1002
}
  0
LINE
  5
20D3E
330
2091F
100
AcDbEntity
  8
YODOROGO
100
AcDbLine
 10
10431.60162798447
 20
742.4060611609832
 30
0.0
 11
10431.60162798447
 21
733.4060611609828
 31
0.0
1001
AUTOCAD_POSTSCRIPT_FIGURE
1002
{
1000
PSFILL
1000
Grayscale
1000
Grayscale
1070
   100
1002
}
  0
LINE
  5
20D3F
330
2091F
100
AcDbEntity
  8
YODOROGO
100
AcDbLine
 10
10425.60162798447
 20
742.4060611609832
 30
0.0
 11
10431.60162798447
 21
742.4060611609832
 31
0.0
1001
AUTOCAD_POSTSCRIPT_FIGURE
1002
{
1000
PSFILL
1000
Grayscale
1000
Grayscale
1070
   100
1002
}
  0
LINE
  5
20D40
330
2091F
100
AcDbEntity
  8
YODOROGO
100
AcDbLine
 10
10425.60162798447
 20
733.4060611609828
 30
0.0
 11
10425.60162798447
 21
742.4060611609832
 31
0.0
1001
AUTOCAD_POSTSCRIPT_FIGURE
1002
{
1000
PSFILL
1000
Grayscale
1000
Grayscale
1070
   100
1002
}
  0
LINE
  5
20D41
330
2091F
100
AcDbEntity
  8
YODOROGO
100
AcDbLine
 10
10416.60162798446
 20
733.4060611609828
 30
0.0
 11
10425.60162798447
 21
733.4060611609828
 31
0.0
1001
AUTOCAD_POSTSCRIPT_FIGURE
1002
{
1000
PSFILL
1000
Grayscale
1000
Grayscale
1070
   100
1002
}
  0
LINE
  5
20D42
330
2091F
100
AcDbEntity
  8
YODOROGO
100
AcDbLine
 10
10416.60162798446
 20
727.4060611609828
 30
0.0
 11
10416.60162798446
 21
733.4060611609828
 31
0.0
1001
AUTOCAD_POSTSCRIPT_FIGURE
1002
{
1000
PSFILL
1000
Grayscale
1000
Grayscale
1070
   100
1002
}
  0
LINE
  5
20D43
330
2091F
100
AcDbEntity
  8
YODOROGO
100
AcDbLine
 10
10425.60162798447
 20
727.4060611609828
 30
0.0
 11
10416.60162798446
 21
727.4060611609828
 31
0.0
1001
AUTOCAD_POSTSCRIPT_FIGURE
1002
{
1000
PSFILL
1000
Grayscale
1000
Grayscale
1070
   100
1002
}
  0
LINE
  5
20D44
330
2091F
100
AcDbEntity
  8
YODOROGO
100
AcDbLine
 10
10425.60162798447
 20
718.0449677976392
 30
0.0
 11
10425.60162798447
 21
727.4060611609828
 31
0.0
1001
AUTOCAD_POSTSCRIPT_FIGURE
1002
{
1000
PSFILL
1000
Grayscale
1000
Grayscale
1070
   100
1002
}
  0
LINE
  5
20D45
330
2091F
100
AcDbEntity
  8
YODOROGO
100
AcDbLine
 10
10416.60162798446
 20
697.4162804818766
 30
0.0
 11
10425.60162798447
 21
718.0449677976392
 31
0.0
1001
AUTOCAD_POSTSCRIPT_FIGURE
1002
{
1000
PSFILL
1000
Grayscale
1000
Grayscale
1070
   100
1002
}
  0
LINE
  5
20D46
330
2091F
100
AcDbEntity
  8
YODOROGO
100
AcDbLine
 10
10416.60162798446
 20
691.4162804818772
 30
0.0
 11
10416.60162798446
 21
697.4162804818766
 31
0.0
1001
AUTOCAD_POSTSCRIPT_FIGURE
1002
{
1000
PSFILL
1000
Grayscale
1000
Grayscale
1070
   100
1002
}
  0
LINE
  5
20D47
330
2091F
100
AcDbEntity
  8
YODOROGO
100
AcDbLine
 10
10596.60162798446
 20
700.406061160983
 30
0.0
 11
10650.60162798447
 21
684.3291096151149
 31
0.0
1001
AUTOCAD_POSTSCRIPT_FIGURE
1002
{
1000
PSFILL
1000
Grayscale
1000
Grayscale
1070
   100
1002
}
  0
LINE
  5
20D48
330
2091F
100
AcDbEntity
  8
YODOROGO
100
AcDbLine
 10
10650.60162798447
 20
657.3291096151146
 30
0.0
 11
10596.60162798446
 21
673.4060611609827
 31
0.0
1001
AUTOCAD_POSTSCRIPT_FIGURE
1002
{
1000
PSFILL
1000
Grayscale
1000
Grayscale
1070
   100
1002
}
  0
LINE
  5
20D49
330
2091F
100
AcDbEntity
  8
YODOROGO
100
AcDbLine
 10
10650.60162798447
 20
744.329109615115
 30
0.0
 11
10596.60162798446
 21
760.4060611609829
 31
0.0
1001
AUTOCAD_POSTSCRIPT_FIGURE
1002
{
1000
PSFILL
1000
Grayscale
1000
Grayscale
1070
   100
1002
}
  0
LINE
  5
20D4A
330
2091F
100
AcDbEntity
  8
YODOROGO
100
AcDbLine
 10
10596.60162798446
 20
734.9060611609829
 30
0.0
 11
10650.60162798447
 21
718.829109615115
 31
0.0
1001
AUTOCAD_POSTSCRIPT_FIGURE
1002
{
1000
PSFILL
1000
Grayscale
1000
Grayscale
1070
   100
1002
}
  0
LINE
  5
20D4B
330
2091F
100
AcDbEntity
  8
YODOROGO
100
AcDbLine
 10
10596.60162798446
 20
673.4060611609827
 30
0.0
 11
10596.60162798446
 21
700.406061160983
 31
0.0
1001
AUTOCAD_POSTSCRIPT_FIGURE
1002
{
1000
PSFILL
1000
Grayscale
1000
Grayscale
1070
   100
1002
}
  0
LINE
  5
20D4C
330
2091F
100
AcDbEntity
  8
YODOROGO
100
AcDbLine
 10
10596.60162798446
 20
760.4060611609829
 30
0.0
 11
10596.60162798446
 21
734.9060611609829
 31
0.0
1001
AUTOCAD_POSTSCRIPT_FIGURE
1002
{
1000
PSFILL
1000
Grayscale
1000
Grayscale
1070
   100
1002
}
  0
LINE
  5
20D4D
330
2091F
100
AcDbEntity
  8
YODOROGO
100
AcDbLine
 10
10530.08862007752
 20
727.4060611609828
 30
0.0
 11
10548.60162798447
 21
655.406061160983
 31
0.0
1001
AUTOCAD_POSTSCRIPT_FIGURE
1002
{
1000
PSFILL
1000
Grayscale
1000
Grayscale
1070
   100
1002
}
  0
LINE
  5
20D4E
330
2091F
100
AcDbEntity
  8
YODOROGO
100
AcDbLine
 10
10491.60162798447
 20
727.4060611609828
 30
0.0
 11
10530.08862007752
 21
727.4060611609828
 31
0.0
1001
AUTOCAD_POSTSCRIPT_FIGURE
1002
{
1000
PSFILL
1000
Grayscale
1000
Grayscale
1070
   100
1002
}
  0
LINE
  5
20D4F
330
2091F
100
AcDbEntity
  8
YODOROGO
100
AcDbLine
 10
10491.60162798447
 20
733.4060611609828
 30
0.0
 11
10491.60162798447
 21
727.4060611609828
 31
0.0
1001
AUTOCAD_POSTSCRIPT_FIGURE
1002
{
1000
PSFILL
1000
Grayscale
1000
Grayscale
1070
   100
1002
}
  0
LINE
  5
20D50
330
2091F
100
AcDbEntity
  8
YODOROGO
100
AcDbLine
 10
10528.72757944497
 20
733.4060611609828
 30
0.0
 11
10491.60162798447
 21
733.4060611609828
 31
0.0
1001
AUTOCAD_POSTSCRIPT_FIGURE
1002
{
1000
PSFILL
1000
Grayscale
1000
Grayscale
1070
   100
1002
}
  0
LINE
  5
20D51
330
2091F
100
AcDbEntity
  8
YODOROGO
100
AcDbLine
 10
10526.68601849614
 20
742.4060611609832
 30
0.0
 11
10528.72757944497
 21
733.4060611609828
 31
0.0
1001
AUTOCAD_POSTSCRIPT_FIGURE
1002
{
1000
PSFILL
1000
Grayscale
1000
Grayscale
1070
   100
1002
}
  0
LINE
  5
20D52
330
2091F
100
AcDbEntity
  8
YODOROGO
100
AcDbLine
 10
10534.18601849614
 20
742.4060611609832
 30
0.0
 11
10526.68601849614
 21
742.4060611609832
 31
0.0
1001
AUTOCAD_POSTSCRIPT_FIGURE
1002
{
1000
PSFILL
1000
Grayscale
1000
Grayscale
1070
   100
1002
}
  0
LINE
  5
20D53
330
2091F
100
AcDbEntity
  8
YODOROGO
100
AcDbLine
 10
10535.92757944497
 20
733.4060611609828
 30
0.0
 11
10534.18601849614
 21
742.4060611609832
 31
0.0
1001
AUTOCAD_POSTSCRIPT_FIGURE
1002
{
1000
PSFILL
1000
Grayscale
1000
Grayscale
1070
   100
1002
}
  0
LINE
  5
20D54
330
2091F
100
AcDbEntity
  8
YODOROGO
100
AcDbLine
 10
10545.60162798447
 20
733.4060611609828
 30
0.0
 11
10535.92757944497
 21
733.4060611609828
 31
0.0
1001
AUTOCAD_POSTSCRIPT_FIGURE
1002
{
1000
PSFILL
1000
Grayscale
1000
Grayscale
1070
   100
1002
}
  0
LINE
  5
20D55
330
2091F
100
AcDbEntity
  8
YODOROGO
100
AcDbLine
 10
10545.60162798447
 20
742.4060611609832
 30
0.0
 11
10545.60162798447
 21
733.4060611609828
 31
0.0
1001
AUTOCAD_POSTSCRIPT_FIGURE
1002
{
1000
PSFILL
1000
Grayscale
1000
Grayscale
1070
   100
1002
}
  0
LINE
  5
20D56
330
2091F
100
AcDbEntity
  8
YODOROGO
100
AcDbLine
 10
10551.60162798447
 20
742.4060611609832
 30
0.0
 11
10545.60162798447
 21
742.4060611609832
 31
0.0
1001
AUTOCAD_POSTSCRIPT_FIGURE
1002
{
1000
PSFILL
1000
Grayscale
1000
Grayscale
1070
   100
1002
}
  0
LINE
  5
20D57
330
2091F
100
AcDbEntity
  8
YODOROGO
100
AcDbLine
 10
10551.60162798447
 20
733.4060611609828
 30
0.0
 11
10551.60162798447
 21
742.4060611609832
 31
0.0
1001
AUTOCAD_POSTSCRIPT_FIGURE
1002
{
1000
PSFILL
1000
Grayscale
1000
Grayscale
1070
   100
1002
}
  0
LINE
  5
20D58
330
2091F
100
AcDbEntity
  8
YODOROGO
100
AcDbLine
 10
10551.60162798447
 20
727.4060611609828
 30
0.0
 11
10551.60162798447
 21
733.4060611609828
 31
0.0
1001
AUTOCAD_POSTSCRIPT_FIGURE
1002
{
1000
PSFILL
1000
Grayscale
1000
Grayscale
1070
   100
1002
}
  0
LINE
  5
20D59
330
2091F
100
AcDbEntity
  8
YODOROGO
100
AcDbLine
 10
10537.08862007752
 20
727.4060611609828
 30
0.0
 11
10551.60162798447
 21
727.4060611609828
 31
0.0
1001
AUTOCAD_POSTSCRIPT_FIGURE
1002
{
1000
PSFILL
1000
Grayscale
1000
Grayscale
1070
   100
1002
}
  0
LINE
  5
20D5A
330
2091F
100
AcDbEntity
  8
YODOROGO
100
AcDbLine
 10
10551.60162798447
 20
655.406061160983
 30
0.0
 11
10537.08862007752
 21
727.4060611609828
 31
0.0
1001
AUTOCAD_POSTSCRIPT_FIGURE
1002
{
1000
PSFILL
1000
Grayscale
1000
Grayscale
1070
   100
1002
}
  0
LINE
  5
20D5B
330
2091F
100
AcDbEntity
  8
YODOROGO
100
AcDbLine
 10
10548.60162798447
 20
655.406061160983
 30
0.0
 11
10551.60162798447
 21
655.406061160983
 31
0.0
1001
AUTOCAD_POSTSCRIPT_FIGURE
1002
{
1000
PSFILL
1000
Grayscale
1000
Grayscale
1070
   100
1002
}
  0
LINE
  5
20D5C
330
2091F
100
AcDbEntity
  8
YODOROGO
100
AcDbLine
 10
10529.27595747517
 20
665.902791112048
 30
0.0
 11
10491.60162798447
 21
655.406061160983
 31
0.0
  0
LINE
  5
20D5D
330
2091F
100
AcDbEntity
  8
YODOROGO
100
AcDbLine
 10
10529.27595747517
 20
674.5008673234024
 30
0.0
 11
10529.27595747517
 21
665.902791112048
 31
0.0
  0
LINE
  5
20D5E
330
2091F
100
AcDbEntity
  8
YODOROGO
100
AcDbLine
 10
10512.68879272982
 20
670.0563499251625
 30
0.0
 11
10529.27595747517
 21
674.5008673234024
 31
0.0
  0
LINE
  5
20D5F
330
2091F
100
AcDbEntity
  8
YODOROGO
100
AcDbLine
 10
10512.68879272982
 20
702.2131308511124
 30
0.0
 11
10512.68879272982
 21
670.0563499251625
 31
0.0
  0
LINE
  5
20D60
330
2091F
100
AcDbEntity
  8
YODOROGO
100
AcDbLine
 10
10529.27595747517
 20
702.2131308511124
 30
0.0
 11
10512.68879272982
 21
702.2131308511124
 31
0.0
  0
LINE
  5
20D61
330
2091F
100
AcDbEntity
  8
YODOROGO
100
AcDbLine
 10
10529.27595747517
 20
709.7131308511116
 30
0.0
 11
10529.27595747517
 21
702.2131308511124
 31
0.0
  0
LINE
  5
20D62
330
2091F
100
AcDbEntity
  8
YODOROGO
100
AcDbLine
 10
10491.60162798447
 20
709.7131308511116
 30
0.0
 11
10529.27595747517
 21
709.7131308511116
 31
0.0
  0
LINE
  5
20D63
330
2091F
100
AcDbEntity
  8
YODOROGO
100
AcDbLine
 10
10491.60162798447
 20
702.2131308511124
 30
0.0
 11
10491.60162798447
 21
709.7131308511116
 31
0.0
  0
LINE
  5
20D64
330
2091F
100
AcDbEntity
  8
YODOROGO
100
AcDbLine
 10
10508.18879272982
 20
702.2131308511124
 30
0.0
 11
10491.60162798447
 21
702.2131308511124
 31
0.0
  0
LINE
  5
20D65
330
2091F
100
AcDbEntity
  8
YODOROGO
100
AcDbLine
 10
10508.18879272982
 20
669.252502347869
 30
0.0
 11
10508.18879272982
 21
702.2131308511124
 31
0.0
  0
LINE
  5
20D66
330
2091F
100
AcDbEntity
  8
YODOROGO
100
AcDbLine
 10
10491.60162798447
 20
664.4060611609823
 30
0.0
 11
10508.18879272982
 21
669.252502347869
 31
0.0
  0
LINE
  5
20D67
330
2091F
100
AcDbEntity
  8
YODOROGO
100
AcDbLine
 10
10491.60162798447
 20
655.406061160983
 30
0.0
 11
10491.60162798447
 21
664.4060611609823
 31
0.0
  0
LINE
  5
20D68
330
2091F
100
AcDbEntity
  8
YODOROGO
100
AcDbLine
 10
10500.60162798446
 20
640.4060611609828
 30
0.0
 11
10500.60162798446
 21
631.4060611609825
 31
0.0
  0
LINE
  5
20D69
330
2091F
100
AcDbEntity
  8
YODOROGO
100
AcDbLine
 10
10500.60162798446
 20
640.4060611609828
 30
0.0
 11
10500.60162798446
 21
640.4060611609828
 31
0.0
  0
LINE
  5
20D6A
330
2091F
100
AcDbEntity
  8
YODOROGO
100
AcDbLine
 10
10506.60162798447
 20
640.4060611609828
 30
0.0
 11
10500.60162798446
 21
640.4060611609828
 31
0.0
  0
LINE
  5
20D6B
330
2091F
100
AcDbEntity
  8
YODOROGO
100
AcDbLine
 10
10506.60162798447
 20
631.4060611609825
 30
0.0
 11
10506.60162798447
 21
640.4060611609828
 31
0.0
  0
LINE
  5
20D6C
330
2091F
100
AcDbEntity
  8
YODOROGO
100
AcDbLine
 10
10515.34245150633
 20
631.4060611609825
 30
0.0
 11
10506.60162798447
 21
631.4060611609825
 31
0.0
  0
LINE
  5
20D6D
330
2091F
100
AcDbEntity
  8
YODOROGO
100
AcDbLine
 10
10500.60162798446
 20
631.4060611609825
 30
0.0
 11
10491.60162798447
 21
631.4060611609825
 31
0.0
  0
LINE
  5
20D6E
330
2091F
100
AcDbEntity
  8
YODOROGO
100
AcDbLine
 10
10530.80082008658
 20
640.4060611609828
 30
0.0
 11
10536.8008200866
 21
640.4060611609828
 31
0.0
1001
AUTOCAD_POSTSCRIPT_FIGURE
1002
{
1000
PSFILL
1000
Grayscale
1000
Grayscale
1070
   100
1002
}
  0
LINE
  5
20D6F
330
2091F
100
AcDbEntity
  8
YODOROGO
100
AcDbLine
 10
10650.60162798447
 20
684.3291096151149
 30
0.0
 11
10650.60162798447
 21
657.3291096151146
 31
0.0
1001
AUTOCAD_POSTSCRIPT_FIGURE
1002
{
1000
PSFILL
1000
Grayscale
1000
Grayscale
1070
   100
1002
}
  0
LINE
  5
20D70
330
2091F
100
AcDbEntity
  8
YODOROGO
100
AcDbLine
 10
10650.60162798447
 20
718.829109615115
 30
0.0
 11
10650.60162798447
 21
744.329109615115
 31
0.0
1001
AUTOCAD_POSTSCRIPT_FIGURE
1002
{
1000
PSFILL
1000
Grayscale
1000
Grayscale
1070
   100
1002
}
  0
LINE
  5
20D71
330
2091F
100
AcDbEntity
  8
YODOROGO
100
AcDbLine
 10
10662.60162798446
 20
682.4060611609829
 30
0.0
 11
10662.60162798446
 21
655.4060611609838
 31
0.0
  0
LINE
  5
20D72
330
2091F
100
AcDbEntity
  8
YODOROGO
100
AcDbLine
 10
10686.60162798446
 20
640.4060611609828
 30
0.0
 11
10662.60162798446
 21
640.4060611609828
 31
0.0
  0
LINE
  5
20D73
330
2091F
100
AcDbEntity
  8
YODOROGO
100
AcDbLine
 10
10662.60162798446
 20
655.4060611609838
 30
0.0
 11
10719.60162798446
 21
655.4060611609838
 31
0.0
  0
LINE
  5
20D74
330
2091F
100
AcDbEntity
  8
YODOROGO
100
AcDbLine
 10
10686.60162798446
 20
700.406061160983
 30
0.0
 11
10662.60162798446
 21
700.406061160983
 31
0.0
  0
LINE
  5
20D75
330
2091F
100
AcDbEntity
  8
YODOROGO
100
AcDbLine
 10
10686.60162798446
 20
721.4060611609824
 30
0.0
 11
10686.60162798446
 21
700.406061160983
 31
0.0
  0
LINE
  5
20D76
330
2091F
100
AcDbEntity
  8
YODOROGO
100
AcDbLine
 10
10719.60162798446
 20
745.4060611609828
 30
0.0
 11
10719.60162798446
 21
760.4060611609829
 31
0.0
  0
LINE
  5
20D77
330
2091F
100
AcDbEntity
  8
YODOROGO
100
AcDbLine
 10
10662.60162798446
 20
745.4060611609828
 30
0.0
 11
10719.60162798446
 21
745.4060611609828
 31
0.0
  0
LINE
  5
20D78
330
2091F
100
AcDbEntity
  8
YODOROGO
100
AcDbLine
 10
10662.60162798446
 20
700.406061160983
 30
0.0
 11
10662.60162798446
 21
745.4060611609828
 31
0.0
  0
LINE
  5
20D79
330
2091F
100
AcDbEntity
  8
YODOROGO
100
AcDbLine
 10
10875.60162798447
 20
760.4060611609829
 30
0.0
 11
10875.60162798447
 21
607.4060611609829
 31
0.0
  0
LINE
  5
20D7A
330
2091F
100
AcDbEntity
  8
YODOROGO
100
AcDbLine
 10
10902.60162798446
 20
592.4060611609831
 30
0.0
 11
10902.60162798446
 21
760.4060611609829
 31
0.0
  0
LINE
  5
20D7B
330
2091F
100
AcDbEntity
  8
YODOROGO
100
AcDbLine
 10
10973.10162798446
 20
559.4060611609823
 30
0.0
 11
10973.10162798446
 21
752.9060611609828
 31
0.0
  0
LINE
  5
20D7C
330
2091F
100
AcDbEntity
  8
YODOROGO
100
AcDbLine
 10
10949.10162798447
 20
752.9060611609828
 30
0.0
 11
10949.10162798447
 21
559.4060611609823
 31
0.0
  0
LINE
  5
20D7D
330
2091F
100
AcDbEntity
  8
YODOROGO
100
AcDbLine
 10
11019.60162798446
 20
760.4060611609829
 30
0.0
 11
11019.60162798446
 21
535.4060611609829
 31
0.0
  0
LINE
  5
20D7E
330
2091F
100
AcDbEntity
  8
YODOROGO
100
AcDbLine
 10
11046.60162798447
 20
535.4060611609829
 30
0.0
 11
11046.60162798447
 21
760.4060611609829
 31
0.0
  0
LINE
  5
20D7F
330
2091F
100
AcDbEntity
  8
YODOROGO
100
AcDbLine
 10
10746.60162798446
 20
625.406061160983
 30
0.0
 11
10746.60162798446
 21
655.4060611609838
 31
0.0
  0
LINE
  5
20D80
330
2091F
100
AcDbEntity
  8
YODOROGO
100
AcDbLine
 10
11207.10162798447
 20
640.4060611609828
 30
0.0
 11
11207.10162798447
 21
625.406061160983
 31
0.0
  0
LINE
  5
20D81
330
2091F
100
AcDbEntity
  8
YODOROGO
100
AcDbLine
 10
11207.10162798447
 20
640.4060611609828
 30
0.0
 11
11207.10162798447
 21
625.406061160983
 31
0.0
  0
ARC
  5
20D82
330
2091F
100
AcDbEntity
  8
YODOROGO
100
AcDbCircle
 10
10840.09184107006
 20
606.8316991658524
 30
0.0
 40
35.51443169202812
100
AcDbArc
 50
274.052441629071
 51
0.9266642149310715
  0
ARC
  5
20D83
330
2091F
100
AcDbEntity
  8
YODOROGO
100
AcDbCircle
 10
10840.94481401992
 20
597.229023228915
 30
0.0
 40
61.84515883532068
100
AcDbArc
 50
271.5351210653777
 51
355.5272775058505
  0
LINE
  5
20D84
330
2091F
100
AcDbEntity
  8
YODOROGO
100
AcDbLine
 10
10842.60162798446
 20
571.4060611609824
 30
0.0
 11
10842.60162798446
 21
535.4060611609829
 31
0.0
  0
LINE
  5
20D85
330
2091F
100
AcDbEntity
  8
YODOROGO
100
AcDbLine
 10
10797.60162798446
 20
625.406061160983
 30
0.0
 11
10746.60162798446
 21
625.406061160983
 31
0.0
  0
LINE
  5
20D86
330
2091F
100
AcDbEntity
  8
YODOROGO
100
AcDbLine
 10
10797.60162798446
 20
601.4060611609833
 30
0.0
 11
10797.60162798446
 21
625.406061160983
 31
0.0
  0
LINE
  5
20D87
330
2091F
100
AcDbEntity
  8
YODOROGO
100
AcDbLine
 10
10746.60162798446
 20
601.4060611609833
 30
0.0
 11
10797.60162798446
 21
601.4060611609833
 31
0.0
  0
LINE
  5
20D88
330
2091F
100
AcDbEntity
  8
YODOROGO
100
AcDbLine
 10
10746.60162798446
 20
571.4060611609824
 30
0.0
 11
10746.60162798446
 21
601.4060611609833
 31
0.0
  0
LINE
  5
20D89
330
2091F
100
AcDbEntity
  8
YODOROGO
100
AcDbLine
 10
10797.60162798446
 20
571.4060611609824
 30
0.0
 11
10746.60162798446
 21
571.4060611609824
 31
0.0
  0
LINE
  5
20D8A
330
2091F
100
AcDbEntity
  8
YODOROGO
100
AcDbLine
 10
10797.60162798446
 20
535.4060611609829
 30
0.0
 11
10797.60162798446
 21
571.4060611609824
 31
0.0
  0
LINE
  5
20D8B
330
2091F
100
AcDbEntity
  8
YODOROGO
100
AcDbLine
 10
10949.10162798447
 20
559.4060611609823
 30
0.0
 11
10973.10162798446
 21
559.4060611609823
 31
0.0
  0
LINE
  5
20D8C
330
2091F
100
AcDbEntity
  8
YODOROGO
100
AcDbLine
 10
11019.60162798446
 20
535.4060611609829
 30
0.0
 11
11046.60162798447
 21
535.4060611609829
 31
0.0
  0
LINE
  5
20D8D
330
2091F
100
AcDbEntity
  8
YODOROGO
100
AcDbLine
 10
11151.60162798447
 20
573.1655445639615
 30
0.0
 11
11151.60162798447
 21
535.4060611609829
 31
0.0
  0
LINE
  5
20D8E
330
2091F
100
AcDbEntity
  8
YODOROGO
100
AcDbLine
 10
11106.60162798446
 20
535.4060611609829
 30
0.0
 11
11151.60162798447
 21
573.1655445639615
 31
0.0
  0
LINE
  5
20D8F
330
2091F
100
AcDbEntity
  8
YODOROGO
100
AcDbLine
 10
11106.60162798446
 20
580.406061160983
 30
0.0
 11
11106.60162798446
 21
535.4060611609829
 31
0.0
  0
LINE
  5
20D90
330
2091F
100
AcDbEntity
  8
YODOROGO
100
AcDbLine
 10
11142.35423576229
 20
610.4060611609829
 30
0.0
 11
11106.60162798446
 21
580.406061160983
 31
0.0
  0
LINE
  5
20D91
330
2091F
100
AcDbEntity
  8
YODOROGO
100
AcDbLine
 10
11106.60162798446
 20
610.4060611609829
 30
0.0
 11
11142.35423576229
 21
610.4060611609829
 31
0.0
  0
LINE
  5
20D92
330
2091F
100
AcDbEntity
  8
YODOROGO
100
AcDbLine
 10
11106.60162798446
 20
625.406061160983
 30
0.0
 11
11106.60162798446
 21
610.4060611609829
 31
0.0
  0
LINE
  5
20D93
330
2091F
100
AcDbEntity
  8
YODOROGO
100
AcDbLine
 10
11207.10162798447
 20
625.406061160983
 30
0.0
 11
11106.60162798446
 21
625.406061160983
 31
0.0
  0
LINE
  5
20D94
330
2091F
100
AcDbEntity
  8
YODOROGO
100
AcDbLine
 10
11219.10162798447
 20
610.4060611609829
 30
0.0
 11
11166.60162798446
 21
610.4060611609829
 31
0.0
  0
LINE
  5
20D95
330
2091F
100
AcDbEntity
  8
YODOROGO
100
AcDbLine
 10
11166.60162798446
 20
585.7520390316213
 30
0.0
 11
11164.27870236948
 21
583.8028730048376
 31
0.0
  0
LINE
  5
20D96
330
2091F
100
AcDbEntity
  8
YODOROGO
100
AcDbLine
 10
11166.60162798446
 20
610.4060611609829
 30
0.0
 11
11166.60162798446
 21
585.7520390316213
 31
0.0
  0
LINE
  5
20D97
330
2091F
100
AcDbEntity
  8
YODOROGO
100
AcDbLine
 10
11151.60162798447
 20
573.1655445639615
 30
0.0
 11
11151.60162798447
 21
535.4060611609829
 31
0.0
  0
LINE
  5
20D98
330
2091F
100
AcDbEntity
  8
YODOROGO
100
AcDbLine
 10
11106.60162798446
 20
535.4060611609829
 30
0.0
 11
11151.60162798447
 21
573.1655445639615
 31
0.0
  0
LINE
  5
20D99
330
2091F
100
AcDbEntity
  8
YODOROGO
100
AcDbLine
 10
11106.60162798446
 20
580.406061160983
 30
0.0
 11
11106.60162798446
 21
535.4060611609829
 31
0.0
  0
LINE
  5
20D9A
330
2091F
100
AcDbEntity
  8
YODOROGO
100
AcDbLine
 10
11142.35423576229
 20
610.4060611609829
 30
0.0
 11
11106.60162798446
 21
580.406061160983
 31
0.0
  0
LINE
  5
20D9B
330
2091F
100
AcDbEntity
  8
YODOROGO
100
AcDbLine
 10
11106.60162798446
 20
610.4060611609829
 30
0.0
 11
11142.35423576229
 21
610.4060611609829
 31
0.0
  0
LINE
  5
20D9C
330
2091F
100
AcDbEntity
  8
YODOROGO
100
AcDbLine
 10
11106.60162798446
 20
625.406061160983
 30
0.0
 11
11106.60162798446
 21
610.4060611609829
 31
0.0
  0
LINE
  5
20D9D
330
2091F
100
AcDbEntity
  8
YODOROGO
100
AcDbLine
 10
11207.10162798447
 20
625.406061160983
 30
0.0
 11
11106.60162798446
 21
625.406061160983
 31
0.0
  0
LINE
  5
20D9E
330
2091F
100
AcDbEntity
  8
YODOROGO
100
AcDbLine
 10
10797.60162798446
 20
655.4060611609838
 30
0.0
 11
10797.60162798446
 21
682.4060611609829
 31
0.0
  0
LINE
  5
20D9F
330
2091F
100
AcDbEntity
  8
YODOROGO
100
AcDbLine
 10
10746.60162798446
 20
655.4060611609838
 30
0.0
 11
10797.60162798446
 21
655.4060611609838
 31
0.0
  0
LINE
  5
20DA0
330
2091F
100
AcDbEntity
  8
YODOROGO
100
AcDbLine
 10
10773.60162798447
 20
700.406061160983
 30
0.0
 11
10773.60162798447
 21
721.4060611609824
 31
0.0
  0
LINE
  5
20DA1
330
2091F
100
AcDbEntity
  8
YODOROGO
100
AcDbLine
 10
10797.60162798446
 20
700.406061160983
 30
0.0
 11
10773.60162798447
 21
700.406061160983
 31
0.0
  0
LINE
  5
20DA2
330
2091F
100
AcDbEntity
  8
YODOROGO
100
AcDbLine
 10
10797.60162798446
 20
730.4060611609828
 30
0.0
 11
10797.60162798446
 21
700.406061160983
 31
0.0
  0
ARC
  5
20DA3
330
2091F
100
AcDbEntity
  8
YODOROGO
100
AcDbCircle
 10
10782.60162798446
 20
730.4060611609828
 30
0.0
 40
15.0
100
AcDbArc
 50
0.0
 51
90.0
  0
LINE
  5
20DA4
330
2091F
100
AcDbEntity
  8
YODOROGO
100
AcDbLine
 10
10746.60162798447
 20
745.4060611609828
 30
0.0
 11
10782.60162798446
 21
745.4060611609828
 31
0.0
  0
LINE
  5
20DA5
330
2091F
100
AcDbEntity
  8
YODOROGO
100
AcDbLine
 10
10746.60162798447
 20
760.4060611609829
 30
0.0
 11
10746.60162798447
 21
745.4060611609828
 31
0.0
  0
LINE
  5
20DA6
330
2091F
100
AcDbEntity
  8
YODOROGO
100
AcDbLine
 10
10902.60162798446
 20
760.4060611609829
 30
0.0
 11
10875.60162798447
 21
760.4060611609829
 31
0.0
  0
LINE
  5
20DA7
330
2091F
100
AcDbEntity
  8
YODOROGO
100
AcDbLine
 10
10973.10162798446
 20
752.9060611609828
 30
0.0
 11
10949.10162798447
 21
752.9060611609828
 31
0.0
  0
LINE
  5
20DA8
330
2091F
100
AcDbEntity
  8
YODOROGO
100
AcDbLine
 10
11046.60162798447
 20
760.4060611609829
 30
0.0
 11
11019.60162798446
 21
760.4060611609829
 31
0.0
  0
LINE
  5
20DA9
330
2091F
100
AcDbEntity
  8
YODOROGO
100
AcDbLine
 10
11127.60162798447
 20
640.4060611609828
 30
0.0
 11
11127.60162798447
 21
664.4060611609833
 31
0.0
1001
AUTOCAD_POSTSCRIPT_FIGURE
1002
{
1000
PSFILL
1000
Grayscale
1000
Grayscale
1070
    25
1002
}
  0
LINE
  5
20DAA
330
2091F
100
AcDbEntity
  8
YODOROGO
100
AcDbLine
 10
11106.60162798446
 20
640.4060611609828
 30
0.0
 11
11127.60162798447
 21
640.4060611609828
 31
0.0
1001
AUTOCAD_POSTSCRIPT_FIGURE
1002
{
1000
PSFILL
1000
Grayscale
1000
Grayscale
1070
    25
1002
}
  0
LINE
  5
20DAB
330
2091F
100
AcDbEntity
  8
YODOROGO
100
AcDbLine
 10
11106.60162798446
 20
682.4060611609829
 30
0.0
 11
11106.60162798446
 21
640.4060611609828
 31
0.0
1001
AUTOCAD_POSTSCRIPT_FIGURE
1002
{
1000
PSFILL
1000
Grayscale
1000
Grayscale
1070
    25
1002
}
  0
LINE
  5
20DAC
330
2091F
100
AcDbEntity
  8
YODOROGO
100
AcDbLine
 10
11162.10162798447
 20
682.4060611609829
 30
0.0
 11
11106.60162798446
 21
682.4060611609829
 31
0.0
1001
AUTOCAD_POSTSCRIPT_FIGURE
1002
{
1000
PSFILL
1000
Grayscale
1000
Grayscale
1070
    25
1002
}
  0
LINE
  5
20DAD
330
2091F
100
AcDbEntity
  8
YODOROGO
100
AcDbLine
 10
11162.10162798447
 20
697.406061160983
 30
0.0
 11
11162.10162798447
 21
682.4060611609829
 31
0.0
1001
AUTOCAD_POSTSCRIPT_FIGURE
1002
{
1000
PSFILL
1000
Grayscale
1000
Grayscale
1070
    25
1002
}
  0
LINE
  5
20DAE
330
2091F
100
AcDbEntity
  8
YODOROGO
100
AcDbLine
 10
11106.60162798446
 20
697.406061160983
 30
0.0
 11
11162.10162798447
 21
697.406061160983
 31
0.0
1001
AUTOCAD_POSTSCRIPT_FIGURE
1002
{
1000
PSFILL
1000
Grayscale
1000
Grayscale
1070
    25
1002
}
  0
LINE
  5
20DAF
330
2091F
100
AcDbEntity
  8
YODOROGO
100
AcDbLine
 10
11106.60162798446
 20
715.4060611609828
 30
0.0
 11
11106.60162798446
 21
697.406061160983
 31
0.0
1001
AUTOCAD_POSTSCRIPT_FIGURE
1002
{
1000
PSFILL
1000
Grayscale
1000
Grayscale
1070
    25
1002
}
  0
LINE
  5
20DB0
330
2091F
100
AcDbEntity
  8
YODOROGO
100
AcDbLine
 10
11162.10162798447
 20
715.4060611609828
 30
0.0
 11
11106.60162798446
 21
715.4060611609828
 31
0.0
1001
AUTOCAD_POSTSCRIPT_FIGURE
1002
{
1000
PSFILL
1000
Grayscale
1000
Grayscale
1070
    25
1002
}
  0
LINE
  5
20DB1
330
2091F
100
AcDbEntity
  8
YODOROGO
100
AcDbLine
 10
11162.10162798447
 20
730.4060611609828
 30
0.0
 11
11162.10162798447
 21
715.4060611609828
 31
0.0
1001
AUTOCAD_POSTSCRIPT_FIGURE
1002
{
1000
PSFILL
1000
Grayscale
1000
Grayscale
1070
    25
1002
}
  0
LINE
  5
20DB2
330
2091F
100
AcDbEntity
  8
YODOROGO
100
AcDbLine
 10
11106.60162798446
 20
730.4060611609828
 30
0.0
 11
11162.10162798447
 21
730.4060611609828
 31
0.0
1001
AUTOCAD_POSTSCRIPT_FIGURE
1002
{
1000
PSFILL
1000
Grayscale
1000
Grayscale
1070
    25
1002
}
  0
LINE
  5
20DB3
330
2091F
100
AcDbEntity
  8
YODOROGO
100
AcDbLine
 10
11106.60162798446
 20
760.4060611609829
 30
0.0
 11
11106.60162798446
 21
730.4060611609828
 31
0.0
1001
AUTOCAD_POSTSCRIPT_FIGURE
1002
{
1000
PSFILL
1000
Grayscale
1000
Grayscale
1070
    25
1002
}
  0
LINE
  5
20DB4
330
2091F
100
AcDbEntity
  8
YODOROGO
100
AcDbLine
 10
11124.60162798446
 20
760.4060611609829
 30
0.0
 11
11106.60162798446
 21
760.4060611609829
 31
0.0
1001
AUTOCAD_POSTSCRIPT_FIGURE
1002
{
1000
PSFILL
1000
Grayscale
1000
Grayscale
1070
    25
1002
}
  0
LINE
  5
20DB5
330
2091F
100
AcDbEntity
  8
YODOROGO
100
AcDbLine
 10
11124.60162798446
 20
748.4060611609828
 30
0.0
 11
11124.60162798446
 21
760.4060611609829
 31
0.0
1001
AUTOCAD_POSTSCRIPT_FIGURE
1002
{
1000
PSFILL
1000
Grayscale
1000
Grayscale
1070
    25
1002
}
  0
LINE
  5
20DB6
330
2091F
100
AcDbEntity
  8
YODOROGO
100
AcDbLine
 10
11162.10162798447
 20
748.4060611609828
 30
0.0
 11
11124.60162798446
 21
748.4060611609828
 31
0.0
1001
AUTOCAD_POSTSCRIPT_FIGURE
1002
{
1000
PSFILL
1000
Grayscale
1000
Grayscale
1070
    25
1002
}
  0
LINE
  5
20DB7
330
2091F
100
AcDbEntity
  8
YODOROGO
100
AcDbLine
 10
11162.10162798447
 20
760.4060611609829
 30
0.0
 11
11162.10162798447
 21
748.4060611609828
 31
0.0
1001
AUTOCAD_POSTSCRIPT_FIGURE
1002
{
1000
PSFILL
1000
Grayscale
1000
Grayscale
1070
    25
1002
}
  0
LINE
  5
20DB8
330
2091F
100
AcDbEntity
  8
YODOROGO
100
AcDbLine
 10
11186.10162798447
 20
760.4060611609829
 30
0.0
 11
11162.10162798447
 21
760.4060611609829
 31
0.0
1001
AUTOCAD_POSTSCRIPT_FIGURE
1002
{
1000
PSFILL
1000
Grayscale
1000
Grayscale
1070
    25
1002
}
  0
LINE
  5
20DB9
330
2091F
100
AcDbEntity
  8
YODOROGO
100
AcDbLine
 10
11186.10162798447
 20
748.4060611609828
 30
0.0
 11
11186.10162798447
 21
760.4060611609829
 31
0.0
1001
AUTOCAD_POSTSCRIPT_FIGURE
1002
{
1000
PSFILL
1000
Grayscale
1000
Grayscale
1070
    25
1002
}
  0
LINE
  5
20DBA
330
2091F
100
AcDbEntity
  8
YODOROGO
100
AcDbLine
 10
11186.10162798447
 20
715.4060611609828
 30
0.0
 11
11186.10162798447
 21
730.4060611609828
 31
0.0
1001
AUTOCAD_POSTSCRIPT_FIGURE
1002
{
1000
PSFILL
1000
Grayscale
1000
Grayscale
1070
    25
1002
}
  0
LINE
  5
20DBB
330
2091F
100
AcDbEntity
  8
YODOROGO
100
AcDbLine
 10
11186.10162798447
 20
682.4060611609829
 30
0.0
 11
11186.10162798447
 21
697.406061160983
 31
0.0
1001
AUTOCAD_POSTSCRIPT_FIGURE
1002
{
1000
PSFILL
1000
Grayscale
1000
Grayscale
1070
    25
1002
}
  0
LINE
  5
20DBC
330
2091F
100
AcDbEntity
  8
YODOROGO
100
AcDbLine
 10
11220.60162798447
 20
664.4060611609833
 30
0.0
 11
11220.60162798447
 21
640.4060611609828
 31
0.0
1001
AUTOCAD_POSTSCRIPT_FIGURE
1002
{
1000
PSFILL
1000
Grayscale
1000
Grayscale
1070
    25
1002
}
  0
LINE
  5
20DBD
330
2091F
100
AcDbEntity
  8
YODOROGO
100
AcDbLine
 10
11186.10162798447
 20
664.4060611609833
 30
0.0
 11
11220.60162798447
 21
664.4060611609833
 31
0.0
1001
AUTOCAD_POSTSCRIPT_FIGURE
1002
{
1000
PSFILL
1000
Grayscale
1000
Grayscale
1070
    25
1002
}
  0
LINE
  5
20DBE
330
2091F
100
AcDbEntity
  8
YODOROGO
100
AcDbLine
 10
11186.10162798447
 20
640.4060611609828
 30
0.0
 11
11186.10162798447
 21
664.4060611609833
 31
0.0
1001
AUTOCAD_POSTSCRIPT_FIGURE
1002
{
1000
PSFILL
1000
Grayscale
1000
Grayscale
1070
    25
1002
}
  0
LINE
  5
20DBF
330
2091F
100
AcDbEntity
  8
YODOROGO
100
AcDbLine
 10
11162.10162798447
 20
640.4060611609828
 30
0.0
 11
11186.10162798447
 21
640.4060611609828
 31
0.0
1001
AUTOCAD_POSTSCRIPT_FIGURE
1002
{
1000
PSFILL
1000
Grayscale
1000
Grayscale
1070
    25
1002
}
  0
LINE
  5
20DC0
330
2091F
100
AcDbEntity
  8
YODOROGO
100
AcDbLine
 10
11162.10162798447
 20
664.4060611609833
 30
0.0
 11
11162.10162798447
 21
640.4060611609828
 31
0.0
1001
AUTOCAD_POSTSCRIPT_FIGURE
1002
{
1000
PSFILL
1000
Grayscale
1000
Grayscale
1070
    25
1002
}
  0
LINE
  5
20DC1
330
2091F
100
AcDbEntity
  8
YODOROGO
100
AcDbLine
 10
11127.60162798447
 20
664.4060611609833
 30
0.0
 11
11162.10162798447
 21
664.4060611609833
 31
0.0
1001
AUTOCAD_POSTSCRIPT_FIGURE
1002
{
1000
PSFILL
1000
Grayscale
1000
Grayscale
1070
    25
1002
}
  0
ARC
  5
20DC2
330
2091F
100
AcDbEntity
  8
YODOROGO
100
AcDbCircle
 10
11647.31921000922
 20
601.0052765683409
 30
0.0
 40
66.83298041652057
100
AcDbArc
 50
281.0262749542535
 51
357.771135755738
  0
LINE
  5
20DC3
330
2091F
100
AcDbEntity
  8
YODOROGO
100
AcDbLine
 10
11780.10162798446
 20
715.4060611609828
 30
0.0
 11
11687.10162798447
 21
715.4060611609828
 31
0.0
  0
LINE
  5
20DC4
330
2091F
100
AcDbEntity
  8
YODOROGO
100
AcDbLine
 10
11780.10162798446
 20
760.4060611609829
 30
0.0
 11
11687.10162798447
 21
760.4060611609829
 31
0.0
  0
LINE
  5
20DC5
330
2091F
100
AcDbEntity
  8
YODOROGO
100
AcDbLine
 10
11687.10162798447
 20
736.4060611609825
 30
0.0
 11
11780.10162798446
 21
736.4060611609825
 31
0.0
  0
LINE
  5
20DC6
330
2091F
100
AcDbEntity
  8
YODOROGO
100
AcDbLine
 10
11546.85162798447
 20
586.4060611609825
 30
0.0
 11
11546.85162798447
 21
658.4060611609827
 31
0.0
  0
LINE
  5
20DC7
330
2091F
100
AcDbEntity
  8
YODOROGO
100
AcDbLine
 10
11536.35162798447
 20
634.4060611609833
 30
0.0
 11
11536.35162798447
 21
586.4060611609825
 31
0.0
  0
LINE
  5
20DC8
330
2091F
100
AcDbEntity
  8
YODOROGO
100
AcDbLine
 10
11521.35162798447
 20
559.4060611609831
 30
0.0
 11
11521.35162798447
 21
634.4060611609833
 31
0.0
  0
LINE
  5
20DC9
330
2091F
100
AcDbEntity
  8
YODOROGO
100
AcDbLine
 10
11587.35162798447
 20
634.4060611609833
 30
0.0
 11
11587.35162798447
 21
559.4060611609831
 31
0.0
  0
LINE
  5
20DCA
330
2091F
100
AcDbEntity
  8
YODOROGO
100
AcDbLine
 10
11572.35162798446
 20
586.4060611609825
 30
0.0
 11
11572.35162798446
 21
634.4060611609833
 31
0.0
  0
LINE
  5
20DCB
330
2091F
100
AcDbEntity
  8
YODOROGO
100
AcDbLine
 10
11561.85162798446
 20
658.4060611609827
 30
0.0
 11
11561.85162798446
 21
586.4060611609825
 31
0.0
  0
LINE
  5
20DCC
330
2091F
100
AcDbEntity
  8
YODOROGO
100
AcDbLine
 10
11615.10162798446
 20
760.4060611609829
 30
0.0
 11
11615.10162798446
 21
550.4060611609828
 31
0.0
  0
LINE
  5
20DCD
330
2091F
100
AcDbEntity
  8
YODOROGO
100
AcDbLine
 10
11492.10162798447
 20
535.4060611609829
 30
0.0
 11
11492.10162798447
 21
760.4060611609829
 31
0.0
  0
LINE
  5
20DCE
330
2091F
100
AcDbEntity
  8
YODOROGO
100
AcDbLine
 10
11511.60162798447
 20
736.4060611609825
 30
0.0
 11
11511.60162798447
 21
535.4060611609829
 31
0.0
  0
LINE
  5
20DCF
330
2091F
100
AcDbEntity
  8
YODOROGO
100
AcDbLine
 10
11597.10162798446
 20
580.406061160983
 30
0.0
 11
11597.10162798446
 21
736.4060611609825
 31
0.0
  0
LINE
  5
20DD0
330
2091F
100
AcDbEntity
  8
YODOROGO
100
AcDbLine
 10
11393.10162798446
 20
610.4060611609829
 30
0.0
 11
11393.10162798446
 21
629.9060611609831
 31
0.0
  0
LINE
  5
20DD1
330
2091F
100
AcDbEntity
  8
YODOROGO
100
AcDbLine
 10
11481.60162798447
 20
629.9060611609831
 30
0.0
 11
11481.60162798447
 21
610.4060611609829
 31
0.0
  0
LINE
  5
20DD2
330
2091F
100
AcDbEntity
  8
YODOROGO
100
AcDbLine
 10
11687.10162798447
 20
715.4060611609828
 30
0.0
 11
11687.10162798447
 21
613.4060611609827
 31
0.0
  0
LINE
  5
20DD3
330
2091F
100
AcDbEntity
  8
YODOROGO
100
AcDbLine
 10
11231.10162798446
 20
625.406061160983
 30
0.0
 11
11231.10162798446
 21
640.4060611609828
 31
0.0
  0
LINE
  5
20DD4
330
2091F
100
AcDbEntity
  8
YODOROGO
100
AcDbLine
 10
11231.10162798446
 20
625.406061160983
 30
0.0
 11
11231.10162798446
 21
640.4060611609828
 31
0.0
  0
ARC
  5
20DD5
330
2091F
100
AcDbEntity
  8
YODOROGO
100
AcDbCircle
 10
11451.60162798447
 20
565.4060611609828
 30
0.0
 40
30.0
100
AcDbArc
 50
270.0
 51
0.0
  0
LINE
  5
20DD6
330
2091F
100
AcDbEntity
  8
YODOROGO
100
AcDbLine
 10
11463.60162798446
 20
599.9060611609831
 30
0.0
 11
11481.60162798447
 21
599.9060611609831
 31
0.0
  0
LINE
  5
20DD7
330
2091F
100
AcDbEntity
  8
YODOROGO
100
AcDbLine
 10
11481.60162798447
 20
610.4060611609829
 30
0.0
 11
11448.60162798446
 21
610.4060611609829
 31
0.0
  0
LINE
  5
20DD8
330
2091F
100
AcDbEntity
  8
YODOROGO
100
AcDbLine
 10
11331.60162798447
 20
625.406061160983
 30
0.0
 11
11231.10162798446
 21
625.406061160983
 31
0.0
  0
LINE
  5
20DD9
330
2091F
100
AcDbEntity
  8
YODOROGO
100
AcDbLine
 10
11331.60162798447
 20
610.4060611609829
 30
0.0
 11
11331.60162798447
 21
625.406061160983
 31
0.0
  0
LINE
  5
20DDA
330
2091F
100
AcDbEntity
  8
YODOROGO
100
AcDbLine
 10
11256.60162798447
 20
610.4060611609829
 30
0.0
 11
11331.60162798447
 21
610.4060611609829
 31
0.0
  0
ARC
  5
20DDB
330
2091F
100
AcDbEntity
  8
YODOROGO
100
AcDbCircle
 10
11336.27206076301
 20
700.8321431073384
 30
0.0
 40
120.5166136069605
100
AcDbArc
 50
228.6181454618993
 51
245.660289248906
  0
LINE
  5
20DDC
330
2091F
100
AcDbEntity
  8
YODOROGO
100
AcDbLine
 10
11289.60162798447
 20
601.4060611609833
 30
0.0
 11
11286.60162798448
 21
591.0273059512126
 31
0.0
  0
LINE
  5
20DDD
330
2091F
100
AcDbEntity
  8
YODOROGO
100
AcDbLine
 10
11321.10162798447
 20
601.4060611609833
 30
0.0
 11
11289.60162798447
 21
601.4060611609833
 31
0.0
  0
LINE
  5
20DDE
330
2091F
100
AcDbEntity
  8
YODOROGO
100
AcDbLine
 10
11316.60162798447
 20
581.9316459275352
 30
0.0
 11
11321.10162798447
 21
601.4060611609833
 31
0.0
  0
ARC
  5
20DDF
330
2091F
100
AcDbEntity
  8
YODOROGO
100
AcDbCircle
 10
11336.27206076267
 20
700.832143107376
 30
0.0
 40
120.516613606984
100
AcDbArc
 50
260.6062929796992
 51
267.7790355655586
  0
LINE
  5
20DE0
330
2091F
100
AcDbEntity
  8
YODOROGO
100
AcDbLine
 10
11331.60162798447
 20
535.4060611609821
 30
0.0
 11
11331.60162798447
 21
580.406061160983
 31
0.0
  0
LINE
  5
20DE1
330
2091F
100
AcDbEntity
  8
YODOROGO
100
AcDbLine
 10
11226.60162798446
 20
555.5022505933164
 30
0.0
 11
11226.60162798446
 21
597.949158949178
 31
0.0
  0
LINE
  5
20DE2
330
2091F
100
AcDbEntity
  8
YODOROGO
100
AcDbLine
 10
11331.60162798447
 20
625.406061160983
 30
0.0
 11
11231.10162798446
 21
625.406061160983
 31
0.0
  0
LINE
  5
20DE3
330
2091F
100
AcDbEntity
  8
YODOROGO
100
AcDbLine
 10
11331.60162798447
 20
610.4060611609829
 30
0.0
 11
11331.60162798447
 21
625.406061160983
 31
0.0
  0
LINE
  5
20DE4
330
2091F
100
AcDbEntity
  8
YODOROGO
100
AcDbLine
 10
11256.60162798447
 20
610.4060611609829
 30
0.0
 11
11331.60162798447
 21
610.4060611609829
 31
0.0
  0
ARC
  5
20DE5
330
2091F
100
AcDbEntity
  8
YODOROGO
100
AcDbCircle
 10
11336.27206076301
 20
700.8321431073384
 30
0.0
 40
120.5166136069605
100
AcDbArc
 50
228.6181454618993
 51
245.660289248906
  0
LINE
  5
20DE6
330
2091F
100
AcDbEntity
  8
YODOROGO
100
AcDbLine
 10
11289.60162798447
 20
601.4060611609833
 30
0.0
 11
11286.60162798448
 21
591.0273059512126
 31
0.0
  0
LINE
  5
20DE7
330
2091F
100
AcDbEntity
  8
YODOROGO
100
AcDbLine
 10
11321.10162798447
 20
601.4060611609833
 30
0.0
 11
11289.60162798447
 21
601.4060611609833
 31
0.0
  0
LINE
  5
20DE8
330
2091F
100
AcDbEntity
  8
YODOROGO
100
AcDbLine
 10
11316.60162798447
 20
581.9316459275352
 30
0.0
 11
11321.10162798447
 21
601.4060611609833
 31
0.0
  0
ARC
  5
20DE9
330
2091F
100
AcDbEntity
  8
YODOROGO
100
AcDbCircle
 10
11336.27206076267
 20
700.832143107376
 30
0.0
 40
120.516613606984
100
AcDbArc
 50
260.6062929796992
 51
267.7790355655586
  0
LINE
  5
20DEA
330
2091F
100
AcDbEntity
  8
YODOROGO
100
AcDbLine
 10
11331.60162798447
 20
535.4060611609821
 30
0.0
 11
11331.60162798447
 21
580.406061160983
 31
0.0
  0
LINE
  5
20DEB
330
2091F
100
AcDbEntity
  8
YODOROGO
100
AcDbLine
 10
11226.60162798446
 20
555.5022505933164
 30
0.0
 11
11226.60162798446
 21
597.949158949178
 31
0.0
  0
LINE
  5
20DEC
330
2091F
100
AcDbEntity
  8
YODOROGO
100
AcDbLine
 10
11412.60162798447
 20
590.1560611609832
 30
0.0
 11
11393.10162798446
 21
590.1560611609832
 31
0.0
  0
LINE
  5
20DED
330
2091F
100
AcDbEntity
  8
YODOROGO
100
AcDbLine
 10
11412.60162798447
 20
600.6560611609824
 30
0.0
 11
11412.60162798447
 21
590.1560611609832
 31
0.0
  0
LINE
  5
20DEE
330
2091F
100
AcDbEntity
  8
YODOROGO
100
AcDbLine
 10
11393.10162798446
 20
600.6560611609824
 30
0.0
 11
11412.60162798447
 21
600.6560611609824
 31
0.0
  0
LINE
  5
20DEF
330
2091F
100
AcDbEntity
  8
YODOROGO
100
AcDbLine
 10
11393.10162798446
 20
590.1560611609832
 30
0.0
 11
11393.10162798446
 21
600.6560611609824
 31
0.0
  0
LINE
  5
20DF0
330
2091F
100
AcDbEntity
  8
YODOROGO
100
AcDbLine
 10
11411.10162798447
 20
591.6560611609829
 30
0.0
 11
11394.60162798447
 21
591.6560611609829
 31
0.0
  0
LINE
  5
20DF1
330
2091F
100
AcDbEntity
  8
YODOROGO
100
AcDbLine
 10
11411.10162798447
 20
599.156061160983
 30
0.0
 11
11411.10162798447
 21
591.6560611609829
 31
0.0
  0
LINE
  5
20DF2
330
2091F
100
AcDbEntity
  8
YODOROGO
100
AcDbLine
 10
11394.60162798447
 20
599.156061160983
 30
0.0
 11
11411.10162798447
 21
599.156061160983
 31
0.0
  0
LINE
  5
20DF3
330
2091F
100
AcDbEntity
  8
YODOROGO
100
AcDbLine
 10
11394.60162798447
 20
591.6560611609829
 30
0.0
 11
11394.60162798447
 21
599.156061160983
 31
0.0
  0
LINE
  5
20DF4
330
2091F
100
AcDbEntity
  8
YODOROGO
100
AcDbLine
 10
11409.60162798447
 20
593.1560611609824
 30
0.0
 11
11396.10162798446
 21
593.1560611609824
 31
0.0
  0
LINE
  5
20DF5
330
2091F
100
AcDbEntity
  8
YODOROGO
100
AcDbLine
 10
11409.60162798447
 20
597.6560611609833
 30
0.0
 11
11409.60162798447
 21
593.1560611609824
 31
0.0
  0
LINE
  5
20DF6
330
2091F
100
AcDbEntity
  8
YODOROGO
100
AcDbLine
 10
11396.10162798446
 20
597.6560611609833
 30
0.0
 11
11409.60162798447
 21
597.6560611609833
 31
0.0
  0
LINE
  5
20DF7
330
2091F
100
AcDbEntity
  8
YODOROGO
100
AcDbLine
 10
11396.10162798446
 20
593.1560611609824
 30
0.0
 11
11396.10162798446
 21
597.6560611609833
 31
0.0
  0
LINE
  5
20DF8
330
2091F
100
AcDbEntity
  8
YODOROGO
100
AcDbLine
 10
11408.10162798447
 20
594.6560611609827
 30
0.0
 11
11397.60162798447
 21
594.6560611609827
 31
0.0
  0
LINE
  5
20DF9
330
2091F
100
AcDbEntity
  8
YODOROGO
100
AcDbLine
 10
11408.10162798447
 20
596.1560611609829
 30
0.0
 11
11408.10162798447
 21
594.6560611609827
 31
0.0
  0
LINE
  5
20DFA
330
2091F
100
AcDbEntity
  8
YODOROGO
100
AcDbLine
 10
11397.60162798447
 20
596.1560611609829
 30
0.0
 11
11408.10162798447
 21
596.1560611609829
 31
0.0
  0
LINE
  5
20DFB
330
2091F
100
AcDbEntity
  8
YODOROGO
100
AcDbLine
 10
11397.60162798447
 20
594.6560611609827
 30
0.0
 11
11397.60162798447
 21
596.1560611609829
 31
0.0
  0
LINE
  5
20DFC
330
2091F
100
AcDbEntity
  8
YODOROGO
100
AcDbLine
 10
11424.60162798446
 20
610.4060611609829
 30
0.0
 11
11393.10162798446
 21
610.4060611609829
 31
0.0
  0
LINE
  5
20DFD
330
2091F
100
AcDbEntity
  8
YODOROGO
100
AcDbLine
 10
11424.60162798446
 20
580.406061160983
 30
0.0
 11
11424.60162798446
 21
610.4060611609829
 31
0.0
  0
LINE
  5
20DFE
330
2091F
100
AcDbEntity
  8
YODOROGO
100
AcDbLine
 10
11393.10162798446
 20
580.406061160983
 30
0.0
 11
11424.60162798446
 21
580.406061160983
 31
0.0
  0
LINE
  5
20DFF
330
2091F
100
AcDbEntity
  8
YODOROGO
100
AcDbLine
 10
11393.10162798446
 20
535.4060611609829
 30
0.0
 11
11393.10162798446
 21
580.406061160983
 31
0.0
  0
LINE
  5
20E00
330
2091F
100
AcDbEntity
  8
YODOROGO
100
AcDbLine
 10
11451.60162798447
 20
535.4060611609829
 30
0.0
 11
11393.10162798446
 21
535.4060611609829
 31
0.0
  0
LINE
  5
20E01
330
2091F
100
AcDbEntity
  8
YODOROGO
100
AcDbLine
 10
11463.60162798446
 20
589.4060611609823
 30
0.0
 11
11463.60162798446
 21
599.9060611609831
 31
0.0
  0
ARC
  5
20E02
330
2091F
100
AcDbEntity
  8
YODOROGO
100
AcDbCircle
 10
11454.60162798446
 20
589.4060611609843
 30
0.0
 40
9.000000000001408
100
AcDbArc
 50
270.0
 51
359.9999999999877
  0
LINE
  5
20E03
330
2091F
100
AcDbEntity
  8
YODOROGO
100
AcDbLine
 10
11448.60162798446
 20
580.406061160983
 30
0.0
 11
11454.60162798446
 21
580.406061160983
 31
0.0
  0
LINE
  5
20E04
330
2091F
100
AcDbEntity
  8
YODOROGO
100
AcDbLine
 10
11448.60162798446
 20
610.4060611609829
 30
0.0
 11
11448.60162798446
 21
580.406061160983
 31
0.0
  0
LINE
  5
20E05
330
2091F
100
AcDbEntity
  8
YODOROGO
100
AcDbLine
 10
11587.35162798447
 20
580.406061160983
 30
0.0
 11
11597.10162798446
 21
580.406061160983
 31
0.0
  0
LINE
  5
20E06
330
2091F
100
AcDbEntity
  8
YODOROGO
100
AcDbLine
 10
11600.10162798446
 20
535.4060611609829
 30
0.0
 11
11587.35162798447
 21
535.4060611609829
 31
0.0
  0
LINE
  5
20E07
330
2091F
100
AcDbEntity
  8
YODOROGO
100
AcDbLine
 10
11536.35162798447
 20
586.4060611609825
 30
0.0
 11
11546.85162798447
 21
586.4060611609825
 31
0.0
  0
LINE
  5
20E08
330
2091F
100
AcDbEntity
  8
YODOROGO
100
AcDbLine
 10
11587.35162798447
 20
559.4060611609831
 30
0.0
 11
11521.35162798447
 21
559.4060611609831
 31
0.0
  0
LINE
  5
20E09
330
2091F
100
AcDbEntity
  8
YODOROGO
100
AcDbLine
 10
11561.85162798446
 20
586.4060611609825
 30
0.0
 11
11572.35162798446
 21
586.4060611609825
 31
0.0
  0
LINE
  5
20E0A
330
2091F
100
AcDbEntity
  8
YODOROGO
100
AcDbLine
 10
11587.35162798447
 20
535.4060611609829
 30
0.0
 11
11587.35162798447
 21
580.406061160983
 31
0.0
  0
LINE
  5
20E0B
330
2091F
100
AcDbEntity
  8
YODOROGO
100
AcDbLine
 10
11511.60162798447
 20
535.4060611609829
 30
0.0
 11
11492.10162798447
 21
535.4060611609829
 31
0.0
  0
LINE
  5
20E0C
330
2091F
100
AcDbEntity
  8
YODOROGO
100
AcDbLine
 10
11481.60162798447
 20
599.9060611609831
 30
0.0
 11
11481.60162798447
 21
565.4060611609828
 31
0.0
  0
ARC
  5
20E0D
330
2091F
100
AcDbEntity
  8
YODOROGO
100
AcDbCircle
 10
11600.10162798446
 20
550.4060611609828
 30
0.0
 40
15.0
100
AcDbArc
 50
270.0
 51
0.0
  0
LINE
  5
20E0E
330
2091F
100
AcDbEntity
  8
YODOROGO
100
AcDbLine
 10
11660.10162798446
 20
571.4060611609824
 30
0.0
 11
11660.10162798446
 21
535.4060611609829
 31
0.0
  0
ARC
  5
20E0F
330
2091F
100
AcDbEntity
  8
YODOROGO
100
AcDbCircle
 10
11639.89552333754
 20
614.0742712911499
 30
0.0
 40
47.21083372187828
100
AcDbArc
 50
295.3405244216011
 51
359.1890230341867
  0
LINE
  5
20E10
330
2091F
100
AcDbEntity
  8
YODOROGO
100
AcDbLine
 10
11481.60162798447
 20
697.406061160983
 30
0.0
 11
11436.60162798447
 21
727.4060611609828
 31
0.0
  0
LINE
  5
20E11
330
2091F
100
AcDbEntity
  8
YODOROGO
100
AcDbLine
 10
11436.60162798447
 20
760.4060611609829
 30
0.0
 11
11481.60162798447
 21
730.4060611609828
 31
0.0
  0
LINE
  5
20E12
330
2091F
100
AcDbEntity
  8
YODOROGO
100
AcDbLine
 10
11448.60162798446
 20
629.9060611609831
 30
0.0
 11
11481.60162798447
 21
629.9060611609831
 31
0.0
  0
LINE
  5
20E13
330
2091F
100
AcDbEntity
  8
YODOROGO
100
AcDbLine
 10
11481.60162798447
 20
650.9060611609827
 30
0.0
 11
11448.60162798446
 21
650.9060611609827
 31
0.0
  0
LINE
  5
20E14
330
2091F
100
AcDbEntity
  8
YODOROGO
100
AcDbLine
 10
11393.10162798446
 20
673.4060611609827
 30
0.0
 11
11481.60162798447
 21
673.4060611609827
 31
0.0
  0
LINE
  5
20E15
330
2091F
100
AcDbEntity
  8
YODOROGO
100
AcDbLine
 10
11280.60162798447
 20
760.4060611609829
 30
0.0
 11
11258.10162798447
 21
760.4060611609829
 31
0.0
  0
LINE
  5
20E16
330
2091F
100
AcDbEntity
  8
YODOROGO
100
AcDbLine
 10
11280.60162798447
 20
685.4060611609829
 30
0.0
 11
11280.60162798447
 21
760.4060611609829
 31
0.0
  0
LINE
  5
20E17
330
2091F
100
AcDbEntity
  8
YODOROGO
100
AcDbLine
 10
11258.10162798447
 20
685.4060611609829
 30
0.0
 11
11280.60162798447
 21
685.4060611609829
 31
0.0
  0
LINE
  5
20E18
330
2091F
100
AcDbEntity
  8
YODOROGO
100
AcDbLine
 10
11258.10162798447
 20
760.4060611609829
 30
0.0
 11
11258.10162798447
 21
685.4060611609829
 31
0.0
  0
LINE
  5
20E19
330
2091F
100
AcDbEntity
  8
YODOROGO
100
AcDbLine
 10
11310.60162798447
 20
760.4060611609829
 30
0.0
 11
11331.60162798447
 21
760.4060611609829
 31
0.0
  0
LINE
  5
20E1A
330
2091F
100
AcDbEntity
  8
YODOROGO
100
AcDbLine
 10
11310.60162798447
 20
679.4060611609832
 30
0.0
 11
11310.60162798447
 21
760.4060611609829
 31
0.0
  0
ARC
  5
20E1B
330
2091F
100
AcDbEntity
  8
YODOROGO
100
AcDbCircle
 10
11295.60162798447
 20
679.4060611609832
 30
0.0
 40
15.0
100
AcDbArc
 50
270.0
 51
0.0
  0
LINE
  5
20E1C
330
2091F
100
AcDbEntity
  8
YODOROGO
100
AcDbLine
 10
11258.10162798447
 20
664.4060611609833
 30
0.0
 11
11295.60162798447
 21
664.4060611609833
 31
0.0
  0
LINE
  5
20E1D
330
2091F
100
AcDbEntity
  8
YODOROGO
100
AcDbLine
 10
11258.10162798447
 20
640.4060611609828
 30
0.0
 11
11258.10162798447
 21
664.4060611609833
 31
0.0
  0
LINE
  5
20E1E
330
2091F
100
AcDbEntity
  8
YODOROGO
100
AcDbLine
 10
11301.60162798446
 20
640.4060611609828
 30
0.0
 11
11258.10162798447
 21
640.4060611609828
 31
0.0
  0
ARC
  5
20E1F
330
2091F
100
AcDbEntity
  8
YODOROGO
100
AcDbCircle
 10
11301.60162798446
 20
670.4060611609828
 30
0.0
 40
30.0
100
AcDbArc
 50
270.0
 51
0.0
  0
LINE
  5
20E20
330
2091F
100
AcDbEntity
  8
YODOROGO
100
AcDbLine
 10
11331.60162798447
 20
760.4060611609829
 30
0.0
 11
11331.60162798447
 21
670.4060611609828
 31
0.0
  0
LINE
  5
20E21
330
2091F
100
AcDbEntity
  8
YODOROGO
100
AcDbLine
 10
11241.60162798446
 20
730.4060611609828
 30
0.0
 11
11241.60162798446
 21
748.4060611609828
 31
0.0
1001
AUTOCAD_POSTSCRIPT_FIGURE
1002
{
1000
PSFILL
1000
Grayscale
1000
Grayscale
1070
    25
1002
}
  0
LINE
  5
20E22
330
2091F
100
AcDbEntity
  8
YODOROGO
100
AcDbLine
 10
11241.60162798446
 20
697.406061160983
 30
0.0
 11
11241.60162798446
 21
715.4060611609828
 31
0.0
1001
AUTOCAD_POSTSCRIPT_FIGURE
1002
{
1000
PSFILL
1000
Grayscale
1000
Grayscale
1070
    25
1002
}
  0
LINE
  5
20E23
330
2091F
100
AcDbEntity
  8
YODOROGO
100
AcDbLine
 10
11241.60162798446
 20
640.4060611609828
 30
0.0
 11
11241.60162798446
 21
682.4060611609829
 31
0.0
1001
AUTOCAD_POSTSCRIPT_FIGURE
1002
{
1000
PSFILL
1000
Grayscale
1000
Grayscale
1070
    25
1002
}
  0
LINE
  5
20E24
330
2091F
100
AcDbEntity
  8
YODOROGO
100
AcDbLine
 10
11393.10162798446
 20
715.4060611609828
 30
0.0
 11
11436.60162798447
 21
760.4060611609829
 31
0.0
  0
LINE
  5
20E25
330
2091F
100
AcDbEntity
  8
YODOROGO
100
AcDbLine
 10
11393.10162798446
 20
682.4060611609829
 30
0.0
 11
11393.10162798446
 21
715.4060611609828
 31
0.0
  0
LINE
  5
20E26
330
2091F
100
AcDbEntity
  8
YODOROGO
100
AcDbLine
 10
11436.60162798447
 20
727.4060611609828
 30
0.0
 11
11393.10162798446
 21
682.4060611609829
 31
0.0
  0
LINE
  5
20E27
330
2091F
100
AcDbEntity
  8
YODOROGO
100
AcDbLine
 10
11424.60162798446
 20
629.9060611609831
 30
0.0
 11
11424.60162798446
 21
650.9060611609827
 31
0.0
  0
LINE
  5
20E28
330
2091F
100
AcDbEntity
  8
YODOROGO
100
AcDbLine
 10
11393.10162798446
 20
629.9060611609831
 30
0.0
 11
11424.60162798446
 21
629.9060611609831
 31
0.0
  0
LINE
  5
20E29
330
2091F
100
AcDbEntity
  8
YODOROGO
100
AcDbLine
 10
11448.60162798446
 20
650.9060611609827
 30
0.0
 11
11448.60162798446
 21
629.9060611609831
 31
0.0
  0
LINE
  5
20E2A
330
2091F
100
AcDbEntity
  8
YODOROGO
100
AcDbLine
 10
11393.10162798446
 20
650.9060611609827
 30
0.0
 11
11393.10162798446
 21
673.4060611609827
 31
0.0
  0
LINE
  5
20E2B
330
2091F
100
AcDbEntity
  8
YODOROGO
100
AcDbLine
 10
11424.60162798446
 20
650.9060611609827
 30
0.0
 11
11393.10162798446
 21
650.9060611609827
 31
0.0
  0
LINE
  5
20E2C
330
2091F
100
AcDbEntity
  8
YODOROGO
100
AcDbLine
 10
11492.10162798447
 20
760.4060611609829
 30
0.0
 11
11615.10162798446
 21
760.4060611609829
 31
0.0
  0
LINE
  5
20E2D
330
2091F
100
AcDbEntity
  8
YODOROGO
100
AcDbLine
 10
11597.10162798446
 20
736.4060611609825
 30
0.0
 11
11511.60162798447
 21
736.4060611609825
 31
0.0
  0
LINE
  5
20E2E
330
2091F
100
AcDbEntity
  8
YODOROGO
100
AcDbLine
 10
11577.60162798447
 20
682.4060611609829
 30
0.0
 11
11587.35162798447
 21
682.4060611609829
 31
0.0
  0
LINE
  5
20E2F
330
2091F
100
AcDbEntity
  8
YODOROGO
100
AcDbLine
 10
11587.35162798447
 20
727.4060611609828
 30
0.0
 11
11577.60162798447
 21
682.4060611609829
 31
0.0
  0
LINE
  5
20E30
330
2091F
100
AcDbEntity
  8
YODOROGO
100
AcDbLine
 10
11569.35162798446
 20
727.4060611609828
 30
0.0
 11
11587.35162798447
 21
727.4060611609828
 31
0.0
  0
LINE
  5
20E31
330
2091F
100
AcDbEntity
  8
YODOROGO
100
AcDbLine
 10
11559.60162798447
 20
682.4060611609829
 30
0.0
 11
11569.35162798446
 21
727.4060611609828
 31
0.0
  0
LINE
  5
20E32
330
2091F
100
AcDbEntity
  8
YODOROGO
100
AcDbLine
 10
11549.10162798447
 20
682.4060611609829
 30
0.0
 11
11559.60162798447
 21
682.4060611609829
 31
0.0
  0
LINE
  5
20E33
330
2091F
100
AcDbEntity
  8
YODOROGO
100
AcDbLine
 10
11539.35162798447
 20
727.4060611609828
 30
0.0
 11
11549.10162798447
 21
682.4060611609829
 31
0.0
  0
LINE
  5
20E34
330
2091F
100
AcDbEntity
  8
YODOROGO
100
AcDbLine
 10
11521.35162798447
 20
727.4060611609828
 30
0.0
 11
11539.35162798447
 21
727.4060611609828
 31
0.0
  0
LINE
  5
20E35
330
2091F
100
AcDbEntity
  8
YODOROGO
100
AcDbLine
 10
11531.10162798447
 20
682.4060611609829
 30
0.0
 11
11521.35162798447
 21
727.4060611609828
 31
0.0
  0
LINE
  5
20E36
330
2091F
100
AcDbEntity
  8
YODOROGO
100
AcDbLine
 10
11521.35162798447
 20
682.4060611609829
 30
0.0
 11
11531.10162798447
 21
682.4060611609829
 31
0.0
  0
LINE
  5
20E37
330
2091F
100
AcDbEntity
  8
YODOROGO
100
AcDbLine
 10
11521.35162798447
 20
658.4060611609827
 30
0.0
 11
11521.35162798447
 21
682.4060611609829
 31
0.0
  0
LINE
  5
20E38
330
2091F
100
AcDbEntity
  8
YODOROGO
100
AcDbLine
 10
11587.35162798447
 20
658.4060611609827
 30
0.0
 11
11521.35162798447
 21
658.4060611609827
 31
0.0
  0
LINE
  5
20E39
330
2091F
100
AcDbEntity
  8
YODOROGO
100
AcDbLine
 10
11587.35162798447
 20
682.4060611609829
 30
0.0
 11
11587.35162798447
 21
658.4060611609827
 31
0.0
  0
LINE
  5
20E3A
330
2091F
100
AcDbEntity
  8
YODOROGO
100
AcDbLine
 10
11481.60162798447
 20
730.4060611609828
 30
0.0
 11
11481.60162798447
 21
697.406061160983
 31
0.0
  0
LINE
  5
20E3B
330
2091F
100
AcDbEntity
  8
YODOROGO
100
AcDbLine
 10
11546.85162798447
 20
658.4060611609827
 30
0.0
 11
11561.85162798446
 21
658.4060611609827
 31
0.0
  0
LINE
  5
20E3C
330
2091F
100
AcDbEntity
  8
YODOROGO
100
AcDbLine
 10
11521.35162798447
 20
634.4060611609833
 30
0.0
 11
11536.35162798447
 21
634.4060611609833
 31
0.0
  0
LINE
  5
20E3D
330
2091F
100
AcDbEntity
  8
YODOROGO
100
AcDbLine
 10
11572.35162798446
 20
634.4060611609833
 30
0.0
 11
11587.35162798447
 21
634.4060611609833
 31
0.0
  0
LINE
  5
20E3E
330
2091F
100
AcDbEntity
  8
YODOROGO
100
AcDbLine
 10
11481.60162798447
 20
673.4060611609827
 30
0.0
 11
11481.60162798447
 21
650.9060611609827
 31
0.0
  0
LINE
  5
20E3F
330
2091F
100
AcDbEntity
  8
YODOROGO
100
AcDbLine
 10
11687.10162798447
 20
760.4060611609829
 30
0.0
 11
11687.10162798447
 21
736.4060611609825
 31
0.0
  0
LINE
  5
20E40
330
2091F
100
AcDbEntity
  8
YODOROGO
100
AcDbLine
 10
11825.10162798447
 20
598.4060611609827
 30
0.0
 11
11825.10162798446
 21
679.4060611609832
 31
0.0
  0
LINE
  5
20E41
330
2091F
100
AcDbEntity
  8
YODOROGO
100
AcDbLine
 10
11798.10162798446
 20
745.4060611609828
 30
0.0
 11
11798.10162798446
 21
613.4060611609827
 31
0.0
  0
LINE
  5
20E42
330
2091F
100
AcDbEntity
  8
YODOROGO
100
AcDbLine
 10
11870.10162798447
 20
535.4060611609829
 30
0.0
 11
11870.10162798446
 21
679.4060611609832
 31
0.0
  0
LINE
  5
20E43
330
2091F
100
AcDbEntity
  8
YODOROGO
100
AcDbLine
 10
11846.10162798447
 20
679.4060611609832
 30
0.0
 11
11846.10162798447
 21
535.4060611609829
 31
0.0
  0
LINE
  5
20E44
330
2091F
100
AcDbEntity
  8
YODOROGO
100
AcDbLine
 10
11714.10162798447
 20
598.4060611609827
 30
0.0
 11
11714.10162798447
 21
640.4060611609828
 31
0.0
  0
ARC
  5
20E45
330
2091F
100
AcDbEntity
  8
YODOROGO
100
AcDbCircle
 10
11757.71807441852
 20
602.921381733209
 30
0.0
 40
67.53466821599572
100
AcDbArc
 50
268.6284910216979
 51
356.1663845733032
  0
LINE
  5
20E46
330
2091F
100
AcDbEntity
  8
YODOROGO
100
AcDbLine
 10
11756.10162798446
 20
572.9060611609829
 30
0.0
 11
11756.10162798446
 21
535.4060611609829
 31
0.0
  0
ARC
  5
20E47
330
2091F
100
AcDbEntity
  8
YODOROGO
100
AcDbCircle
 10
11756.81927839671
 20
614.1896088816206
 30
0.0
 40
41.28978486885457
100
AcDbArc
 50
269.0041020930593
 51
358.9126445549248
  0
LINE
  5
20E48
330
2091F
100
AcDbEntity
  8
YODOROGO
100
AcDbLine
 10
11846.10162798447
 20
535.4060611609829
 30
0.0
 11
11870.10162798447
 21
535.4060611609829
 31
0.0
  0
LINE
  5
20E49
330
2091F
100
AcDbEntity
  8
YODOROGO
100
AcDbLine
 10
11825.10162798446
 20
679.4060611609832
 30
0.0
 11
11846.10162798447
 21
679.4060611609832
 31
0.0
  0
LINE
  5
20E4A
330
2091F
100
AcDbEntity
  8
YODOROGO
100
AcDbLine
 10
11858.10162798446
 20
745.4060611609828
 30
0.0
 11
11798.10162798446
 21
745.4060611609828
 31
0.0
  0
LINE
  5
20E4B
330
2091F
100
AcDbEntity
  8
YODOROGO
100
AcDbLine
 10
11825.10162798446
 20
718.4060611609829
 30
0.0
 11
11873.10162798447
 21
718.4060611609829
 31
0.0
  0
LINE
  5
20E4C
330
2091F
100
AcDbEntity
  8
YODOROGO
100
AcDbLine
 10
11888.10162798447
 20
703.4060611609828
 30
0.0
 11
11825.10162798446
 21
703.4060611609828
 31
0.0
  0
LINE
  5
20E4D
330
2091F
100
AcDbEntity
  8
YODOROGO
100
AcDbLine
 10
11714.10162798447
 20
667.4060611609831
 30
0.0
 11
11756.10162798446
 21
667.4060611609831
 31
0.0
  0
LINE
  5
20E4E
330
2091F
100
AcDbEntity
  8
YODOROGO
100
AcDbLine
 10
11714.10162798447
 20
688.4060611609828
 30
0.0
 11
11714.10162798447
 21
667.4060611609831
 31
0.0
  0
LINE
  5
20E4F
330
2091F
100
AcDbEntity
  8
YODOROGO
100
AcDbLine
 10
11756.10162798446
 20
688.4060611609828
 30
0.0
 11
11714.10162798447
 21
688.4060611609828
 31
0.0
  0
LINE
  5
20E50
330
2091F
100
AcDbEntity
  8
YODOROGO
100
AcDbLine
 10
11756.10162798446
 20
667.4060611609831
 30
0.0
 11
11756.10162798446
 21
688.4060611609828
 31
0.0
  0
LINE
  5
20E51
330
2091F
100
AcDbEntity
  8
YODOROGO
100
AcDbLine
 10
11825.10162798446
 20
703.4060611609828
 30
0.0
 11
11825.10162798446
 21
718.4060611609829
 31
0.0
  0
LINE
  5
20E52
330
2091F
100
AcDbEntity
  8
YODOROGO
100
AcDbLine
 10
11780.10162798446
 20
640.4060611609828
 30
0.0
 11
11780.10162798446
 21
715.4060611609828
 31
0.0
  0
LINE
  5
20E53
330
2091F
100
AcDbEntity
  8
YODOROGO
100
AcDbLine
 10
11714.10162798447
 20
640.4060611609828
 30
0.0
 11
11780.10162798446
 21
640.4060611609828
 31
0.0
  0
LINE
  5
20E54
330
2091F
100
AcDbEntity
  8
YODOROGO
100
AcDbLine
 10
11780.10162798446
 20
736.4060611609825
 30
0.0
 11
11780.10162798446
 21
760.4060611609829
 31
0.0
  0
ARC
  5
20E55
330
2091F
100
AcDbEntity
  8
YODOROGO
100
AcDbCircle
 10
11858.10162798446
 20
751.4060611609817
 30
0.0
 40
5.999999999997952
100
AcDbArc
 50
270.0
 51
0.0000000000081422
  0
LINE
  5
20E56
330
2091F
100
AcDbEntity
  8
YODOROGO
100
AcDbLine
 10
11864.10162798447
 20
760.4060611609829
 30
0.0
 11
11864.10162798447
 21
751.4060611609825
 31
0.0
  0
LINE
  5
20E57
330
2091F
100
AcDbEntity
  8
YODOROGO
100
AcDbLine
 10
11888.10162798447
 20
760.4060611609829
 30
0.0
 11
11864.10162798447
 21
760.4060611609829
 31
0.0
  0
LINE
  5
20E58
330
2091F
100
AcDbEntity
  8
YODOROGO
100
AcDbLine
 10
11888.10162798447
 20
733.4060611609828
 30
0.0
 11
11888.10162798447
 21
760.4060611609829
 31
0.0
  0
ARC
  5
20E59
330
2091F
100
AcDbEntity
  8
YODOROGO
100
AcDbCircle
 10
11873.10162798447
 20
733.4060611609828
 30
0.0
 40
15.0
100
AcDbArc
 50
270.0
 51
0.0
  0
LINE
  5
20E5A
330
2091F
100
AcDbEntity
  8
YODOROGO
100
AcDbLine
 10
11888.10162798447
 20
679.4060611609832
 30
0.0
 11
11888.10162798447
 21
703.4060611609828
 31
0.0
  0
LINE
  5
20E5B
330
2091F
100
AcDbEntity
  8
YODOROGO
100
AcDbLine
 10
11870.10162798446
 20
679.4060611609832
 30
0.0
 11
11888.10162798447
 21
679.4060611609832
 31
0.0
  0
ARC
  5
20E5C
330
2091F
100
AcDbEntity
  8
SUNPOU
100
AcDbCircle
 10
10066.71885793241
 20
8130.802125207463
 30
0.0
 40
5.624999999996362
100
AcDbArc
 50
180.0
 51
0.0
  0
ARC
  5
20E5D
330
2091F
100
AcDbEntity
  8
SUNPOU
100
AcDbCircle
 10
10066.71885793241
 20
8130.802125207463
 30
0.0
 40
5.624999999994543
100
AcDbArc
 50
0.0
 51
180.0
  0
ARC
  5
20E5E
330
2091F
100
AcDbEntity
  8
SUNPOU
100
AcDbCircle
 10
9825.718857932429
 20
8130.802125207463
 30
0.0
 40
5.625
100
AcDbArc
 50
180.0
 51
0.0
  0
ARC
  5
20E5F
330
2091F
100
AcDbEntity
  8
SUNPOU
100
AcDbCircle
 10
9825.718857932429
 20
8130.802125207463
 30
0.0
 40
5.625
100
AcDbArc
 50
0.0
 51
180.0
  0
ARC
  5
20E60
330
2091F
100
AcDbEntity
  8
SUNPOU
100
AcDbCircle
 10
9825.718857932429
 20
8130.802125207463
 30
0.0
 40
5.625
100
AcDbArc
 50
0.0
 51
180.0
  0
ARC
  5
20E61
330
2091F
100
AcDbEntity
  8
SUNPOU
100
AcDbCircle
 10
9825.718857932429
 20
8130.802125207463
 30
0.0
 40
5.625
100
AcDbArc
 50
180.0
 51
0.0
  0
ARC
  5
20E62
330
2091F
100
AcDbEntity
  8
SUNPOU
100
AcDbCircle
 10
7425.71885793243
 20
8130.802125207463
 30
0.0
 40
5.625000000001817
100
AcDbArc
 50
180.0
 51
0.0
  0
ARC
  5
20E63
330
2091F
100
AcDbEntity
  8
SUNPOU
100
AcDbCircle
 10
7425.71885793243
 20
8130.802125207463
 30
0.0
 40
5.625000000000908
100
AcDbArc
 50
0.0
 51
180.0
  0
ARC
  5
20E64
330
2091F
100
AcDbEntity
  8
SUNPOU
100
AcDbCircle
 10
7425.71885793243
 20
8130.802125207463
 30
0.0
 40
5.625000000000908
100
AcDbArc
 50
0.0
 51
180.0
  0
ARC
  5
20E65
330
2091F
100
AcDbEntity
  8
SUNPOU
100
AcDbCircle
 10
7425.71885793243
 20
8130.802125207463
 30
0.0
 40
5.625000000001817
100
AcDbArc
 50
180.0
 51
0.0
  0
ARC
  5
20E66
330
2091F
100
AcDbEntity
  8
SUNPOU
100
AcDbCircle
 10
5025.71885793243
 20
8130.802125207463
 30
0.0
 40
5.625
100
AcDbArc
 50
180.0
 51
0.0
  0
ARC
  5
20E67
330
2091F
100
AcDbEntity
  8
SUNPOU
100
AcDbCircle
 10
5025.71885793243
 20
8130.802125207463
 30
0.0
 40
5.625
100
AcDbArc
 50
0.0
 51
180.0
  0
ARC
  5
20E68
330
2091F
100
AcDbEntity
  8
SUNPOU
100
AcDbCircle
 10
5025.71885793243
 20
8130.802125207463
 30
0.0
 40
5.625
100
AcDbArc
 50
0.0
 51
180.0
  0
ARC
  5
20E69
330
2091F
100
AcDbEntity
  8
SUNPOU
100
AcDbCircle
 10
5025.71885793243
 20
8130.802125207463
 30
0.0
 40
5.625
100
AcDbArc
 50
180.0
 51
0.0
  0
ARC
  5
20E6A
330
2091F
100
AcDbEntity
  8
SUNPOU
100
AcDbCircle
 10
2625.718857932429
 20
8130.802125207463
 30
0.0
 40
5.625
100
AcDbArc
 50
180.0
 51
0.0
  0
ARC
  5
20E6B
330
2091F
100
AcDbEntity
  8
SUNPOU
100
AcDbCircle
 10
2625.718857932429
 20
8130.802125207463
 30
0.0
 40
5.625
100
AcDbArc
 50
0.0
 51
180.0
  0
ARC
  5
20E6C
330
2091F
100
AcDbEntity
  8
SUNPOU
100
AcDbCircle
 10
2625.718857932429
 20
8130.802125207463
 30
0.0
 40
5.625
100
AcDbArc
 50
0.0
 51
180.0
  0
ARC
  5
20E6D
330
2091F
100
AcDbEntity
  8
SUNPOU
100
AcDbCircle
 10
2625.718857932429
 20
8130.802125207463
 30
0.0
 40
5.625
100
AcDbArc
 50
180.0
 51
0.0
  0
ARC
  5
20E6E
330
2091F
100
AcDbEntity
  8
SUNPOU
100
AcDbCircle
 10
2384.718857932428
 20
8130.802125207463
 30
0.0
 40
5.625
100
AcDbArc
 50
0.0
 51
180.0
  0
ARC
  5
20E6F
330
2091F
100
AcDbEntity
  8
SUNPOU
100
AcDbCircle
 10
2384.718857932428
 20
8130.802125207463
 30
0.0
 40
5.625
100
AcDbArc
 50
180.0
 51
0.0
  0
ARC
  5
20E70
330
2091F
100
AcDbEntity
  8
SUNPOU
100
AcDbCircle
 10
8585.577273705148
 20
4501.391364710045
 30
0.0
 40
5.625
100
AcDbArc
 50
180.0
 51
0.0
  0
ARC
  5
20E71
330
2091F
100
AcDbEntity
  8
SUNPOU
100
AcDbCircle
 10
8585.577273705148
 20
4501.391364710045
 30
0.0
 40
5.625
100
AcDbArc
 50
0.0
 51
180.0
  0
ARC
  5
20E72
330
2091F
100
AcDbEntity
  8
SUNPOU
100
AcDbCircle
 10
8980.973701566684
 20
3615.582642126956
 30
0.0
 40
5.625
100
AcDbArc
 50
270.0
 51
90.0
  0
ARC
  5
20E73
330
2091F
100
AcDbEntity
  8
SUNPOU
100
AcDbCircle
 10
8980.973701566684
 20
3615.582642126956
 30
0.0
 40
5.625
100
AcDbArc
 50
90.0
 51
270.0
  0
ARC
  5
20E74
330
2091F
100
AcDbEntity
  8
SUNPOU
100
AcDbCircle
 10
8190.014401233748
 20
4249.840809951585
 30
0.0
 40
5.624999999999927
100
AcDbArc
 50
177.1290390148517
 51
357.1290390148516
  0
ARC
  5
20E75
330
2091F
100
AcDbEntity
  8
SUNPOU
100
AcDbCircle
 10
8190.014401233748
 20
4249.840809951585
 30
0.0
 40
5.624999999999927
100
AcDbArc
 50
357.1290390148516
 51
177.1290390148517
  0
ARC
  5
20E76
330
2091F
100
AcDbEntity
  8
SUNPOU
100
AcDbCircle
 10
7600.754927491369
 20
4279.391996135083
 30
0.0
 40
5.625000000001696
100
AcDbArc
 50
177.1290390148618
 51
357.1290390148619
  0
ARC
  5
20E77
330
2091F
100
AcDbEntity
  8
SUNPOU
100
AcDbCircle
 10
7600.754927491369
 20
4279.391996135083
 30
0.0
 40
5.625000000001696
100
AcDbArc
 50
357.1290390148619
 51
177.1290390148618
  0
ARC
  5
20E78
330
2091F
100
AcDbEntity
  8
SUNPOU
100
AcDbCircle
 10
7600.754927491369
 20
4279.391996135083
 30
0.0
 40
5.625000000001696
100
AcDbArc
 50
357.1290390148619
 51
177.1290390148618
  0
ARC
  5
20E79
330
2091F
100
AcDbEntity
  8
SUNPOU
100
AcDbCircle
 10
7600.754927491369
 20
4279.391996135083
 30
0.0
 40
5.625000000001696
100
AcDbArc
 50
177.1290390148618
 51
357.1290390148619
  0
ARC
  5
20E7A
330
2091F
100
AcDbEntity
  8
SUNPOU
100
AcDbCircle
 10
7011.495453748986
 20
4308.943182318582
 30
0.0
 40
5.624999999999927
100
AcDbArc
 50
357.1290390148516
 51
177.1290390148517
  0
ARC
  5
20E7B
330
2091F
100
AcDbEntity
  8
SUNPOU
100
AcDbCircle
 10
7011.495453748986
 20
4308.943182318582
 30
0.0
 40
5.624999999999927
100
AcDbArc
 50
177.1290390148517
 51
357.1290390148516
  0
ARC
  5
20E7C
330
2091F
100
AcDbEntity
  8
SUNPOU
100
AcDbCircle
 10
6585.577273705149
 20
4501.391364710045
 30
0.0
 40
5.625
100
AcDbArc
 50
0.0
 51
180.0
  0
ARC
  5
20E7D
330
2091F
100
AcDbEntity
  8
SUNPOU
100
AcDbCircle
 10
6585.577273705149
 20
4501.391364710045
 30
0.0
 40
5.625
100
AcDbArc
 50
180.0
 51
0.0
  0
ARC
  5
20E7E
330
2091F
100
AcDbEntity
  8
SUNPOU
100
AcDbCircle
 10
8980.973701566684
 20
1786.805063765605
 30
0.0
 40
5.625
100
AcDbArc
 50
90.0
 51
270.0
  0
ARC
  5
20E7F
330
2091F
100
AcDbEntity
  8
SUNPOU
100
AcDbCircle
 10
8980.973701566684
 20
1786.805063765605
 30
0.0
 40
5.625
100
AcDbArc
 50
270.0
 51
90.0
  0
ARC
  5
20E80
330
2091F
100
AcDbEntity
  8
SUNPOU
100
AcDbCircle
 10
6331.596742355274
 20
3991.39136471004
 30
0.0
 40
5.625
100
AcDbArc
 50
90.0
 51
270.0
  0
ARC
  5
20E81
330
2091F
100
AcDbEntity
  8
SUNPOU
100
AcDbCircle
 10
6331.596742355274
 20
3991.39136471004
 30
0.0
 40
5.625
100
AcDbArc
 50
270.0
 51
90.0
  0
ARC
  5
20E82
330
2091F
100
AcDbEntity
  8
SUNPOU
100
AcDbCircle
 10
6331.596742355274
 20
3893.514367376559
 30
0.0
 40
5.625
100
AcDbArc
 50
270.0
 51
90.0
  0
ARC
  5
20E83
330
2091F
100
AcDbEntity
  8
SUNPOU
100
AcDbCircle
 10
6331.596742355274
 20
3893.514367376559
 30
0.0
 40
5.625
100
AcDbArc
 50
90.0
 51
270.0
  0
ARC
  5
20E84
330
2091F
100
AcDbEntity
  8
SUNPOU
100
AcDbCircle
 10
6331.596742355274
 20
3893.514367376559
 30
0.0
 40
5.625
100
AcDbArc
 50
270.0
 51
90.0
  0
ARC
  5
20E85
330
2091F
100
AcDbEntity
  8
SUNPOU
100
AcDbCircle
 10
6331.596742355274
 20
3893.514367376559
 30
0.0
 40
5.625
100
AcDbArc
 50
90.0
 51
270.0
  0
ARC
  5
20E86
330
2091F
100
AcDbEntity
  8
SUNPOU
100
AcDbCircle
 10
6331.596742355274
 20
1786.805063765603
 30
0.0
 40
5.625
100
AcDbArc
 50
90.0
 51
270.0
  0
ARC
  5
20E87
330
2091F
100
AcDbEntity
  8
SUNPOU
100
AcDbCircle
 10
6331.596742355274
 20
1786.805063765603
 30
0.0
 40
5.625
100
AcDbArc
 50
270.0
 51
90.0
  0
ARC
  5
20E88
330
2091F
100
AcDbEntity
  8
SUNPOU
100
AcDbCircle
 10
3787.647083943632
 20
4711.740775902097
 30
0.0
 40
5.625
100
AcDbArc
 50
180.0
 51
0.0
  0
ARC
  5
20E89
330
2091F
100
AcDbEntity
  8
SUNPOU
100
AcDbCircle
 10
3787.647083943632
 20
4711.740775902097
 30
0.0
 40
5.625
100
AcDbArc
 50
0.0
 51
180.0
  0
ARC
  5
20E8A
330
2091F
100
AcDbEntity
  8
SUNPOU
100
AcDbCircle
 10
3787.647083943632
 20
4501.740775902097
 30
0.0
 40
5.625
100
AcDbArc
 50
180.0
 51
0.0
  0
ARC
  5
20E8B
330
2091F
100
AcDbEntity
  8
SUNPOU
100
AcDbCircle
 10
3787.647083943632
 20
4501.740775902097
 30
0.0
 40
5.625
100
AcDbArc
 50
0.0
 51
180.0
  0
ARC
  5
20E8C
330
2091F
100
AcDbEntity
  8
SUNPOU
100
AcDbCircle
 10
4410.884030123905
 20
3608.805063765604
 30
0.0
 40
5.625
100
AcDbArc
 50
270.0
 51
90.0
  0
ARC
  5
20E8D
330
2091F
100
AcDbEntity
  8
SUNPOU
100
AcDbCircle
 10
4410.884030123905
 20
3608.805063765604
 30
0.0
 40
5.625
100
AcDbArc
 50
90.0
 51
270.0
  0
ARC
  5
20E8E
330
2091F
100
AcDbEntity
  8
SUNPOU
100
AcDbCircle
 10
2802.647083943633
 20
4501.740775902097
 30
0.0
 40
5.624999999999544
100
AcDbArc
 50
180.0
 51
0.0
  0
ARC
  5
20E8F
330
2091F
100
AcDbEntity
  8
SUNPOU
100
AcDbCircle
 10
2802.647083943633
 20
4501.740775902097
 30
0.0
 40
5.624999999999544
100
AcDbArc
 50
0.0
 51
180.0
  0
ARC
  5
20E90
330
2091F
100
AcDbEntity
  8
SUNPOU
100
AcDbCircle
 10
2802.647083943633
 20
4501.740775902097
 30
0.0
 40
5.624999999999544
100
AcDbArc
 50
0.0
 51
180.0
  0
ARC
  5
20E91
330
2091F
100
AcDbEntity
  8
SUNPOU
100
AcDbCircle
 10
2802.647083943633
 20
4501.740775902097
 30
0.0
 40
5.624999999999544
100
AcDbArc
 50
180.0
 51
0.0
  0
ARC
  5
20E92
330
2091F
100
AcDbEntity
  8
SUNPOU
100
AcDbCircle
 10
1787.647083943633
 20
4711.740775902097
 30
0.0
 40
5.625
100
AcDbArc
 50
0.0
 51
180.0
  0
ARC
  5
20E93
330
2091F
100
AcDbEntity
  8
SUNPOU
100
AcDbCircle
 10
1787.647083943633
 20
4711.740775902097
 30
0.0
 40
5.625
100
AcDbArc
 50
180.0
 51
0.0
  0
ARC
  5
20E94
330
2091F
100
AcDbEntity
  8
SUNPOU
100
AcDbCircle
 10
1787.647083943633
 20
4501.740775902097
 30
0.0
 40
5.625
100
AcDbArc
 50
0.0
 51
180.0
  0
ARC
  5
20E95
330
2091F
100
AcDbEntity
  8
SUNPOU
100
AcDbCircle
 10
1787.647083943633
 20
4501.740775902097
 30
0.0
 40
5.625
100
AcDbArc
 50
180.0
 51
0.0
  0
ARC
  5
20E96
330
2091F
100
AcDbEntity
  8
SUNPOU
100
AcDbCircle
 10
4410.884030123905
 20
1786.805063765605
 30
0.0
 40
5.625
100
AcDbArc
 50
270.0
 51
90.0
  0
ARC
  5
20E97
330
2091F
100
AcDbEntity
  8
SUNPOU
100
AcDbCircle
 10
4410.884030123905
 20
1786.805063765605
 30
0.0
 40
5.625
100
AcDbArc
 50
90.0
 51
270.0
  0
ARC
  5
20E98
330
2091F
100
AcDbEntity
  8
SUNPOU
100
AcDbCircle
 10
4410.884030123905
 20
1736.805063765605
 30
0.0
 40
5.625
100
AcDbArc
 50
270.0
 51
90.0
  0
ARC
  5
20E99
330
2091F
100
AcDbEntity
  8
SUNPOU
100
AcDbCircle
 10
4410.884030123905
 20
1736.805063765605
 30
0.0
 40
5.625
100
AcDbArc
 50
90.0
 51
270.0
  0
ARC
  5
20E9A
330
2091F
100
AcDbEntity
  8
SUNPOU
100
AcDbCircle
 10
4410.884030123905
 20
1786.805063765605
 30
0.0
 40
5.625
100
AcDbArc
 50
90.0
 51
270.0
  0
ARC
  5
20E9B
330
2091F
100
AcDbEntity
  8
SUNPOU
100
AcDbCircle
 10
4410.884030123905
 20
1786.805063765605
 30
0.0
 40
5.625
100
AcDbArc
 50
270.0
 51
90.0
  0
ARC
  5
20E9C
330
2091F
100
AcDbEntity
  8
SUNPOU
100
AcDbCircle
 10
1488.224636933687
 20
3991.740775902098
 30
0.0
 40
5.625
100
AcDbArc
 50
90.0
 51
270.0
  0
ARC
  5
20E9D
330
2091F
100
AcDbEntity
  8
SUNPOU
100
AcDbCircle
 10
1488.224636933687
 20
3991.740775902098
 30
0.0
 40
5.625
100
AcDbArc
 50
270.0
 51
90.0
  0
ARC
  5
20E9E
330
2091F
100
AcDbEntity
  8
SUNPOU
100
AcDbCircle
 10
1488.224636933687
 20
3893.740775902097
 30
0.0
 40
5.625
100
AcDbArc
 50
270.0
 51
90.0
  0
ARC
  5
20E9F
330
2091F
100
AcDbEntity
  8
SUNPOU
100
AcDbCircle
 10
1488.224636933687
 20
3893.740775902097
 30
0.0
 40
5.625
100
AcDbArc
 50
90.0
 51
270.0
  0
ARC
  5
20EA0
330
2091F
100
AcDbEntity
  8
SUNPOU
100
AcDbCircle
 10
1488.224636933687
 20
3893.740775902097
 30
0.0
 40
5.625
100
AcDbArc
 50
270.0
 51
90.0
  0
ARC
  5
20EA1
330
2091F
100
AcDbEntity
  8
SUNPOU
100
AcDbCircle
 10
1488.224636933687
 20
3893.740775902097
 30
0.0
 40
5.625
100
AcDbArc
 50
90.0
 51
270.0
  0
ARC
  5
20EA2
330
2091F
100
AcDbEntity
  8
SUNPOU
100
AcDbCircle
 10
1278.224636933686
 20
3991.740775902098
 30
0.0
 40
5.625
100
AcDbArc
 50
270.0
 51
90.0
  0
ARC
  5
20EA3
330
2091F
100
AcDbEntity
  8
SUNPOU
100
AcDbCircle
 10
1278.224636933686
 20
3991.740775902098
 30
0.0
 40
5.625
100
AcDbArc
 50
90.0
 51
270.0
  0
ARC
  5
20EA4
330
2091F
100
AcDbEntity
  8
SUNPOU
100
AcDbCircle
 10
1488.224636933687
 20
1786.805063765603
 30
0.0
 40
5.625
100
AcDbArc
 50
90.0
 51
270.0
  0
ARC
  5
20EA5
330
2091F
100
AcDbEntity
  8
SUNPOU
100
AcDbCircle
 10
1488.224636933687
 20
1786.805063765603
 30
0.0
 40
5.625
100
AcDbArc
 50
270.0
 51
90.0
  0
ARC
  5
20EA6
330
2091F
100
AcDbEntity
  8
SUNPOU
100
AcDbCircle
 10
1278.224636933686
 20
1786.805063765603
 30
0.0
 40
5.625
100
AcDbArc
 50
90.0
 51
270.0
  0
ARC
  5
20EA7
330
2091F
100
AcDbEntity
  8
SUNPOU
100
AcDbCircle
 10
1278.224636933686
 20
1786.805063765603
 30
0.0
 40
5.625
100
AcDbArc
 50
270.0
 51
90.0
  0
CIRCLE
  5
20EA8
330
2091F
100
AcDbEntity
  8
HIKIDASHI
100
AcDbCircle
 10
7590.973701566683
 20
1346.805063765603
 30
0.0
 40
6.0
  0
CIRCLE
  5
20EA9
330
2091F
100
AcDbEntity
  8
HIKIDASHI
100
AcDbCircle
 10
7590.973701566683
 20
1306.805063765603
 30
0.0
 40
6.0
  0
LINE
  5
20EAA
330
2091F
100
AcDbEntity
  8
HIKIDASHI
100
AcDbLine
 10
7649.573213105296
 20
1338.775319432958
 30
0.0
 11
7596.611857291397
 21
1308.857184625558
 31
0.0
  0
LINE
  5
20EAB
330
2091F
100
AcDbEntity
  8
HIKIDASHI
100
AcDbLine
 10
7596.611857291397
 20
1308.857184625558
 30
0.0
 11
7656.413615971811
 21
1319.98146701724
 31
0.0
  0
SOLID
  5
20EAC
330
2091F
100
AcDbEntity
  8
HIKIDASHI
100
AcDbTrace
 10
7649.573213105296
 20
1338.775319432958
 30
0.0
 11
7656.413615971811
 21
1319.98146701724
 31
0.0
 12
7596.611857291397
 22
1308.857184625558
 32
0.0
 13
7596.611857291397
 23
1308.857184625558
 33
0.0
  0
LINE
  5
20EAD
330
2091F
100
AcDbEntity
  8
HIKIDASHI
100
AcDbLine
 10
7656.413615971811
 20
1319.98146701724
 30
0.0
 11
7649.573213105296
 21
1338.775319432958
 31
0.0
  0
LINE
  5
20EAE
330
2091F
100
AcDbEntity
  8
HIKIDASHI
100
AcDbLine
 10
7422.315909763593
 20
3697.012899537398
 30
0.0
 11
7341.363362888187
 21
3425.340745024625
 31
0.0
1001
ACAD
1000
DSTYLE
1002
{
1070
   147
1040
1.5
1070
    77
1070
     0
1002
}
  0
LINE
  5
20EAF
330
2091F
100
AcDbEntity
  8
HIKIDASHI
100
AcDbLine
 10
7436.691276175587
 20
3692.729344877903
 30
0.0
 11
7448.017237720563
 21
3783.265098009369
 31
0.0
  0
LINE
  5
20EB0
330
2091F
100
AcDbEntity
  8
HIKIDASHI
100
AcDbLine
 10
7448.017237720563
 20
3783.265098009369
 30
0.0
 11
7407.940543351597
 21
3701.296454196892
 31
0.0
  0
SOLID
  5
20EB1
330
2091F
100
AcDbEntity
  8
HIKIDASHI
100
AcDbTrace
 10
7436.691276175587
 20
3692.729344877903
 30
0.0
 11
7407.940543351597
 21
3701.296454196892
 31
0.0
 12
7448.017237720563
 22
3783.265098009369
 32
0.0
 13
7448.017237720563
 23
3783.265098009369
 33
0.0
  0
LINE
  5
20EB2
330
2091F
100
AcDbEntity
  8
HIKIDASHI
100
AcDbLine
 10
7407.940543351597
 20
3701.296454196892
 30
0.0
 11
7436.691276175587
 21
3692.729344877903
 31
0.0
  0
LINE
  5
20EB3
330
2091F
100
AcDbEntity
  8
HIKIDASHI
100
AcDbLine
 10
6898.84058753589
 20
3969.262588588069
 30
0.0
 11
6410.322928008098
 21
4291.740775902098
 31
0.0
1001
ACAD
1000
DSTYLE
1002
{
1070
   147
1040
1.5
1070
    77
1070
     0
1002
}
  0
LINE
  5
20EB4
330
2091F
100
AcDbEntity
  8
HIKIDASHI
100
AcDbLine
 10
6890.576945342296
 20
3956.744113533324
 30
0.0
 11
6973.951437864355
 21
3919.680735426501
 31
0.0
  0
LINE
  5
20EB5
330
2091F
100
AcDbEntity
  8
HIKIDASHI
100
AcDbLine
 10
6973.951437864355
 20
3919.680735426501
 30
0.0
 11
6907.104229729485
 21
3981.781063642812
 31
0.0
  0
SOLID
  5
20EB6
330
2091F
100
AcDbEntity
  8
HIKIDASHI
100
AcDbTrace
 10
6890.576945342296
 20
3956.744113533324
 30
0.0
 11
6907.104229729485
 21
3981.781063642812
 31
0.0
 12
6973.951437864355
 22
3919.680735426501
 32
0.0
 13
6973.951437864355
 23
3919.680735426501
 33
0.0
  0
LINE
  5
20EB7
330
2091F
100
AcDbEntity
  8
HIKIDASHI
100
AcDbLine
 10
6907.104229729485
 20
3981.781063642812
 30
0.0
 11
6890.576945342296
 21
3956.744113533324
 31
0.0
  0
LINE
  5
20EB8
330
2091F
100
AcDbEntity
  8
HIKIDASHI
100
AcDbLine
 10
7693.225918450695
 20
2286.679443287057
 30
0.0
 11
7841.32960569368
 21
2432.637663742353
 31
0.0
1001
ACAD
1000
DSTYLE
1002
{
1070
   147
1040
1.5
1070
    77
1070
     0
1002
}
  0
LINE
  5
20EB9
330
2091F
100
AcDbEntity
  8
HIKIDASHI
100
AcDbLine
 10
7682.69698240843
 20
2297.363146101059
 30
0.0
 11
7629.123701566685
 21
2223.505827033469
 31
0.0
  0
LINE
  5
20EBA
330
2091F
100
AcDbEntity
  8
HIKIDASHI
100
AcDbLine
 10
7629.123701566685
 20
2223.505827033469
 30
0.0
 11
7703.754854492958
 21
2275.995740473055
 31
0.0
  0
SOLID
  5
20EBB
330
2091F
100
AcDbEntity
  8
HIKIDASHI
100
AcDbTrace
 10
7682.69698240843
 20
2297.363146101059
 30
0.0
 11
7703.754854492958
 21
2275.995740473055
 31
0.0
 12
7629.123701566685
 22
2223.505827033469
 32
0.0
 13
7629.123701566685
 23
2223.505827033469
 33
0.0
  0
LINE
  5
20EBC
330
2091F
100
AcDbEntity
  8
HIKIDASHI
100
AcDbLine
 10
7703.754854492958
 20
2275.995740473055
 30
0.0
 11
7682.69698240843
 21
2297.363146101059
 31
0.0
  0
LINE
  5
20EBD
330
2091F
100
AcDbEntity
  8
HIKIDASHI
100
AcDbLine
 10
8384.028386887178
 20
3608.201192776054
 30
0.0
 11
7773.04411854282
 21
3174.053961503393
 31
0.0
1001
ACAD
1000
DSTYLE
1002
{
1070
   147
1040
1.5
1070
    77
1070
     0
1002
}
  0
LINE
  5
20EBE
330
2091F
100
AcDbEntity
  8
HIKIDASHI
100
AcDbLine
 10
7773.04411854282
 20
3174.053961503393
 30
0.0
 11
7888.542128781013
 21
2915.916270012596
 31
0.0
1001
ACAD
1000
DSTYLE
1002
{
1070
   147
1040
1.5
1070
    77
1070
     0
1002
}
  0
LINE
  5
20EBF
330
2091F
100
AcDbEntity
  8
HIKIDASHI
100
AcDbLine
 10
8392.716850674993
 20
3595.973740179219
 30
0.0
 11
8457.39310246819
 21
3660.331975502935
 31
0.0
  0
LINE
  5
20EC0
330
2091F
100
AcDbEntity
  8
HIKIDASHI
100
AcDbLine
 10
8457.39310246819
 20
3660.331975502935
 30
0.0
 11
8375.339923099366
 21
3620.428645372889
 31
0.0
  0
SOLID
  5
20EC1
330
2091F
100
AcDbEntity
  8
HIKIDASHI
100
AcDbTrace
 10
8392.716850674993
 20
3595.973740179219
 30
0.0
 11
8375.339923099366
 21
3620.428645372889
 31
0.0
 12
8457.39310246819
 22
3660.331975502935
 32
0.0
 13
8457.39310246819
 23
3660.331975502935
 33
0.0
  0
LINE
  5
20EC2
330
2091F
100
AcDbEntity
  8
HIKIDASHI
100
AcDbLine
 10
8375.339923099366
 20
3620.428645372889
 30
0.0
 11
8392.716850674993
 21
3595.973740179219
 31
0.0
  0
ARC
  5
20EC3
330
2091F
100
AcDbEntity
  8
HIKIDASHI
100
AcDbCircle
 10
7590.973701566683
 20
1346.805063765603
 30
0.0
 40
3.0
100
AcDbArc
 50
180.0
 51
0.0
  0
ARC
  5
20EC4
330
2091F
100
AcDbEntity
  8
HIKIDASHI
100
AcDbCircle
 10
7590.973701566683
 20
1346.805063765603
 30
0.0
 40
3.0
100
AcDbArc
 50
0.0
 51
180.0
  0
ARC
  5
20EC5
330
2091F
100
AcDbEntity
  8
HIKIDASHI
100
AcDbCircle
 10
7590.973701566683
 20
1306.805063765603
 30
0.0
 40
3.0
100
AcDbArc
 50
180.0
 51
0.0
  0
ARC
  5
20EC6
330
2091F
100
AcDbEntity
  8
HIKIDASHI
100
AcDbCircle
 10
7590.973701566683
 20
1306.805063765603
 30
0.0
 40
3.0
100
AcDbArc
 50
0.0
 51
180.0
  0
LINE
  5
20EC7
330
2091F
100
AcDbEntity
  8
HATCH
100
AcDbLine
 10
7187.1061881072
 20
1186.8050637656
 30
0.0
 11
7244.841215026163
 21
1286.8050637656
 31
0.0
  0
LINE
  5
20EC8
330
2091F
100
AcDbEntity
  8
HATCH
100
AcDbLine
 10
7204.841215026165
 20
1286.805063765599
 30
0.0
 11
7224.841215026163
 21
1252.164047614224
 31
0.0
  0
LINE
  5
20EC9
330
2091F
100
AcDbEntity
  8
HATCH
100
AcDbLine
 10
7207.106188107201
 20
1221.446079916979
 30
0.0
 11
7227.106188107201
 21
1186.8050637656
 31
0.0
  0
LINE
  5
20ECA
330
2091F
100
AcDbEntity
  8
HATCH
100
AcDbLine
 10
7312.1061881072
 20
1186.805063765602
 30
0.0
 11
7369.841215026163
 21
1286.805063765602
 31
0.0
  0
LINE
  5
20ECB
330
2091F
100
AcDbEntity
  8
HATCH
100
AcDbLine
 10
7329.841215026163
 20
1286.805063765601
 30
0.0
 11
7349.841215026163
 21
1252.164047614226
 31
0.0
  0
LINE
  5
20ECC
330
2091F
100
AcDbEntity
  8
HATCH
100
AcDbLine
 10
7332.106188107201
 20
1221.446079916981
 30
0.0
 11
7352.106188107201
 21
1186.805063765602
 31
0.0
  0
LINE
  5
20ECD
330
2091F
100
AcDbEntity
  8
HATCH
100
AcDbLine
 10
7937.1061881072
 20
1186.805063765604
 30
0.0
 11
7994.841215026163
 21
1286.805063765603
 31
0.0
  0
LINE
  5
20ECE
330
2091F
100
AcDbEntity
  8
HATCH
100
AcDbLine
 10
7954.841215026163
 20
1286.805063765602
 30
0.0
 11
7974.841215026163
 21
1252.164047614227
 31
0.0
  0
LINE
  5
20ECF
330
2091F
100
AcDbEntity
  8
HATCH
100
AcDbLine
 10
7957.106188107201
 20
1221.446079916981
 30
0.0
 11
7977.106188107201
 21
1186.805063765604
 31
0.0
  0
LINE
  5
20ED0
330
2091F
100
AcDbEntity
  8
HATCH
100
AcDbLine
 10
7812.1061881072
 20
1186.805063765604
 30
0.0
 11
7869.841215026163
 21
1286.805063765603
 31
0.0
  0
LINE
  5
20ED1
330
2091F
100
AcDbEntity
  8
HATCH
100
AcDbLine
 10
7829.841215026163
 20
1286.805063765602
 30
0.0
 11
7849.841215026163
 21
1252.164047614227
 31
0.0
  0
LINE
  5
20ED2
330
2091F
100
AcDbEntity
  8
HATCH
100
AcDbLine
 10
7832.106188107201
 20
1221.446079916981
 30
0.0
 11
7852.106188107201
 21
1186.805063765604
 31
0.0
  0
LINE
  5
20ED3
330
2091F
100
AcDbEntity
  8
HATCH
100
AcDbLine
 10
7562.1061881072
 20
1186.805063765604
 30
0.0
 11
7619.841215026163
 21
1286.805063765603
 31
0.0
  0
LINE
  5
20ED4
330
2091F
100
AcDbEntity
  8
HATCH
100
AcDbLine
 10
7579.841215026163
 20
1286.805063765602
 30
0.0
 11
7599.841215026163
 21
1252.164047614227
 31
0.0
  0
LINE
  5
20ED5
330
2091F
100
AcDbEntity
  8
HATCH
100
AcDbLine
 10
7582.106188107201
 20
1221.446079916981
 30
0.0
 11
7602.106188107201
 21
1186.805063765604
 31
0.0
  0
LINE
  5
20ED6
330
2091F
100
AcDbEntity
  8
HATCH
100
AcDbLine
 10
7437.1061881072
 20
1186.805063765604
 30
0.0
 11
7494.841215026163
 21
1286.805063765603
 31
0.0
  0
LINE
  5
20ED7
330
2091F
100
AcDbEntity
  8
HATCH
100
AcDbLine
 10
7454.841215026163
 20
1286.805063765602
 30
0.0
 11
7474.841215026163
 21
1252.164047614227
 31
0.0
  0
LINE
  5
20ED8
330
2091F
100
AcDbEntity
  8
HATCH
100
AcDbLine
 10
7457.106188107201
 20
1221.446079916981
 30
0.0
 11
7477.106188107201
 21
1186.805063765604
 31
0.0
  0
LINE
  5
20ED9
330
2091F
100
AcDbEntity
  8
HATCH
100
AcDbLine
 10
7687.1061881072
 20
1186.805063765604
 30
0.0
 11
7744.841215026163
 21
1286.805063765603
 31
0.0
  0
LINE
  5
20EDA
330
2091F
100
AcDbEntity
  8
HATCH
100
AcDbLine
 10
7704.841215026163
 20
1286.805063765602
 30
0.0
 11
7724.841215026163
 21
1252.164047614227
 31
0.0
  0
LINE
  5
20EDB
330
2091F
100
AcDbEntity
  8
HATCH
100
AcDbLine
 10
7707.106188107201
 20
1221.446079916981
 30
0.0
 11
7727.106188107201
 21
1186.805063765604
 31
0.0
  0
CIRCLE
  5
20EDC
330
2091F
100
AcDbEntity
  8
HATCH
100
AcDbCircle
 10
6333.340411186267
 20
5502.014820159625
 30
0.0
 40
5.0
  0
CIRCLE
  5
20EDD
330
2091F
100
AcDbEntity
  8
HATCH
100
AcDbCircle
 10
6483.340411186266
 20
5502.014820159625
 30
0.0
 40
5.0
  0
CIRCLE
  5
20EDE
330
2091F
100
AcDbEntity
  8
HATCH
100
AcDbCircle
 10
6633.340411186267
 20
5502.014820159625
 30
0.0
 40
5.0
  0
CIRCLE
  5
20EDF
330
2091F
100
AcDbEntity
  8
HATCH
100
AcDbCircle
 10
6783.340411186268
 20
5502.014820159625
 30
0.0
 40
5.0
  0
CIRCLE
  5
20EE0
330
2091F
100
AcDbEntity
  8
HATCH
100
AcDbCircle
 10
6933.340411186266
 20
5502.014820159625
 30
0.0
 40
5.0
  0
CIRCLE
  5
20EE1
330
2091F
100
AcDbEntity
  8
HATCH
100
AcDbCircle
 10
7083.340411186267
 20
5502.014820159625
 30
0.0
 40
5.0
  0
CIRCLE
  5
20EE2
330
2091F
100
AcDbEntity
  8
HATCH
100
AcDbCircle
 10
7233.340411186266
 20
5502.014820159625
 30
0.0
 40
5.0
  0
CIRCLE
  5
20EE3
330
2091F
100
AcDbEntity
  8
HATCH
100
AcDbCircle
 10
7383.340411186267
 20
5502.014820159625
 30
0.0
 40
5.0
  0
CIRCLE
  5
20EE4
330
2091F
100
AcDbEntity
  8
HATCH
100
AcDbCircle
 10
7533.340411186269
 20
5502.014820159625
 30
0.0
 40
5.0
  0
CIRCLE
  5
20EE5
330
2091F
100
AcDbEntity
  8
HATCH
100
AcDbCircle
 10
7683.340411186266
 20
5502.014820159625
 30
0.0
 40
5.0
  0
CIRCLE
  5
20EE6
330
2091F
100
AcDbEntity
  8
HATCH
100
AcDbCircle
 10
7833.340411186267
 20
5502.014820159625
 30
0.0
 40
5.0
  0
CIRCLE
  5
20EE7
330
2091F
100
AcDbEntity
  8
HATCH
100
AcDbCircle
 10
7983.340411186266
 20
5502.014820159625
 30
0.0
 40
5.0
  0
CIRCLE
  5
20EE8
330
2091F
100
AcDbEntity
  8
HATCH
100
AcDbCircle
 10
8133.340411186264
 20
5502.014820159625
 30
0.0
 40
5.0
  0
CIRCLE
  5
20EE9
330
2091F
100
AcDbEntity
  8
HATCH
100
AcDbCircle
 10
8283.340411186266
 20
5502.014820159625
 30
0.0
 40
5.0
  0
CIRCLE
  5
20EEA
330
2091F
100
AcDbEntity
  8
HATCH
100
AcDbCircle
 10
8433.340411186266
 20
5502.014820159625
 30
0.0
 40
5.0
  0
CIRCLE
  5
20EEB
330
2091F
100
AcDbEntity
  8
HATCH
100
AcDbCircle
 10
8583.340411186268
 20
5502.014820159625
 30
0.0
 40
5.0
  0
CIRCLE
  5
20EEC
330
2091F
100
AcDbEntity
  8
HATCH
100
AcDbCircle
 10
8733.340411186262
 20
5502.014820159625
 30
0.0
 40
5.0
  0
CIRCLE
  5
20EED
330
2091F
100
AcDbEntity
  8
HATCH
100
AcDbCircle
 10
8883.340411186265
 20
5502.014820159625
 30
0.0
 40
5.0
  0
CIRCLE
  5
20EEE
330
2091F
100
AcDbEntity
  8
HATCH
100
AcDbCircle
 10
9033.340411186264
 20
5502.014820159625
 30
0.0
 40
5.0
  0
CIRCLE
  5
20EEF
330
2091F
100
AcDbEntity
  8
HATCH
100
AcDbCircle
 10
9183.340411186263
 20
5502.014820159625
 30
0.0
 40
5.0
  0
CIRCLE
  5
20EF0
330
2091F
100
AcDbEntity
  8
HATCH
100
AcDbCircle
 10
9333.340411186263
 20
5502.014820159625
 30
0.0
 40
5.0
  0
CIRCLE
  5
20EF1
330
2091F
100
AcDbEntity
  8
HATCH
100
AcDbCircle
 10
9483.340411186263
 20
5502.014820159625
 30
0.0
 40
5.0
  0
CIRCLE
  5
20EF2
330
2091F
100
AcDbEntity
  8
HATCH
100
AcDbCircle
 10
9633.340411186264
 20
5502.014820159625
 30
0.0
 40
5.0
  0
CIRCLE
  5
20EF3
330
2091F
100
AcDbEntity
  8
HATCH
100
AcDbCircle
 10
9783.340411186264
 20
5502.014820159625
 30
0.0
 40
5.0
  0
CIRCLE
  5
20EF4
330
2091F
100
AcDbEntity
  8
HATCH
100
AcDbCircle
 10
9933.340411186259
 20
5502.014820159625
 30
0.0
 40
5.0
  0
CIRCLE
  5
20EF5
330
2091F
100
AcDbEntity
  8
HATCH
100
AcDbCircle
 10
10083.34041118626
 20
5502.014820159625
 30
0.0
 40
5.0
  0
CIRCLE
  5
20EF6
330
2091F
100
AcDbEntity
  8
HATCH
100
AcDbCircle
 10
6118.097304678592
 20
5502.014820159625
 30
0.0
 40
5.0
  0
CIRCLE
  5
20EF7
330
2091F
100
AcDbEntity
  8
HATCH
100
AcDbCircle
 10
5968.097304678592
 20
5502.014820159625
 30
0.0
 40
5.0
  0
CIRCLE
  5
20EF8
330
2091F
100
AcDbEntity
  8
HATCH
100
AcDbCircle
 10
5818.097304678592
 20
5502.014820159625
 30
0.0
 40
5.0
  0
CIRCLE
  5
20EF9
330
2091F
100
AcDbEntity
  8
HATCH
100
AcDbCircle
 10
5668.097304678592
 20
5502.014820159625
 30
0.0
 40
5.0
  0
CIRCLE
  5
20EFA
330
2091F
100
AcDbEntity
  8
HATCH
100
AcDbCircle
 10
5518.09730467859
 20
5502.014820159625
 30
0.0
 40
5.0
  0
CIRCLE
  5
20EFB
330
2091F
100
AcDbEntity
  8
HATCH
100
AcDbCircle
 10
5368.097304678592
 20
5502.014820159625
 30
0.0
 40
5.0
  0
CIRCLE
  5
20EFC
330
2091F
100
AcDbEntity
  8
HATCH
100
AcDbCircle
 10
5218.097304678592
 20
5502.014820159625
 30
0.0
 40
5.0
  0
CIRCLE
  5
20EFD
330
2091F
100
AcDbEntity
  8
HATCH
100
AcDbCircle
 10
5068.097304678592
 20
5502.014820159625
 30
0.0
 40
5.0
  0
CIRCLE
  5
20EFE
330
2091F
100
AcDbEntity
  8
HATCH
100
AcDbCircle
 10
4918.097304678592
 20
5502.014820159625
 30
0.0
 40
5.0
  0
CIRCLE
  5
20EFF
330
2091F
100
AcDbEntity
  8
HATCH
100
AcDbCircle
 10
4768.097304678589
 20
5502.014820159625
 30
0.0
 40
5.0
  0
CIRCLE
  5
20F00
330
2091F
100
AcDbEntity
  8
HATCH
100
AcDbCircle
 10
4618.097304678592
 20
5502.014820159625
 30
0.0
 40
5.0
  0
CIRCLE
  5
20F01
330
2091F
100
AcDbEntity
  8
HATCH
100
AcDbCircle
 10
4468.097304678592
 20
5502.014820159625
 30
0.0
 40
5.0
  0
CIRCLE
  5
20F02
330
2091F
100
AcDbEntity
  8
HATCH
100
AcDbCircle
 10
4318.097304678592
 20
5502.014820159625
 30
0.0
 40
5.0
  0
CIRCLE
  5
20F03
330
2091F
100
AcDbEntity
  8
HATCH
100
AcDbCircle
 10
4018.097304678592
 20
5502.014820159625
 30
0.0
 40
5.0
  0
CIRCLE
  5
20F04
330
2091F
100
AcDbEntity
  8
HATCH
100
AcDbCircle
 10
4168.097304678592
 20
5502.014820159625
 30
0.0
 40
5.0
  0
CIRCLE
  5
20F05
330
2091F
100
AcDbEntity
  8
HATCH
100
AcDbCircle
 10
3868.097304678592
 20
5502.014820159625
 30
0.0
 40
5.0
  0
CIRCLE
  5
20F06
330
2091F
100
AcDbEntity
  8
HATCH
100
AcDbCircle
 10
3718.097304678592
 20
5502.014820159625
 30
0.0
 40
5.0
  0
CIRCLE
  5
20F07
330
2091F
100
AcDbEntity
  8
HATCH
100
AcDbCircle
 10
3568.097304678592
 20
5502.014820159625
 30
0.0
 40
5.0
  0
CIRCLE
  5
20F08
330
2091F
100
AcDbEntity
  8
HATCH
100
AcDbCircle
 10
3418.097304678592
 20
5502.014820159625
 30
0.0
 40
5.0
  0
CIRCLE
  5
20F09
330
2091F
100
AcDbEntity
  8
HATCH
100
AcDbCircle
 10
3268.097304678593
 20
5502.014820159625
 30
0.0
 40
5.0
  0
CIRCLE
  5
20F0A
330
2091F
100
AcDbEntity
  8
HATCH
100
AcDbCircle
 10
3118.097304678592
 20
5502.014820159625
 30
0.0
 40
5.0
  0
CIRCLE
  5
20F0B
330
2091F
100
AcDbEntity
  8
HATCH
100
AcDbCircle
 10
2968.097304678592
 20
5502.014820159625
 30
0.0
 40
5.0
  0
CIRCLE
  5
20F0C
330
2091F
100
AcDbEntity
  8
HATCH
100
AcDbCircle
 10
2818.097304678592
 20
5502.014820159625
 30
0.0
 40
5.0
  0
CIRCLE
  5
20F0D
330
2091F
100
AcDbEntity
  8
HATCH
100
AcDbCircle
 10
2668.097304678592
 20
5502.014820159625
 30
0.0
 40
5.0
  0
CIRCLE
  5
20F0E
330
2091F
100
AcDbEntity
  8
HATCH
100
AcDbCircle
 10
2518.097304678593
 20
5502.014820159625
 30
0.0
 40
5.0
  0
CIRCLE
  5
20F0F
330
2091F
100
AcDbEntity
  8
HATCH
100
AcDbCircle
 10
2368.097304678592
 20
5502.014820159625
 30
0.0
 40
5.0
  0
LINE
  5
20F10
330
2091F
100
AcDbEntity
  8
HATCH
100
AcDbLine
 10
8666.33268541536
 20
1636.805063765606
 30
0.0
 11
8700.973701566757
 21
1696.805063765642
 31
0.0
  0
LINE
  5
20F11
330
2091F
100
AcDbEntity
  8
HATCH
100
AcDbLine
 10
8676.973701566746
 20
1696.805063765642
 30
0.0
 11
8688.973701566752
 21
1676.020454074804
 31
0.0
  0
LINE
  5
20F12
330
2091F
100
AcDbEntity
  8
HATCH
100
AcDbLine
 10
8678.332685415366
 20
1657.589673456445
 30
0.0
 11
8690.332685415373
 21
1636.805063765606
 31
0.0
  0
LINE
  5
20F13
330
2091F
100
AcDbEntity
  8
HATCH
100
AcDbLine
 10
8576.33268541536
 20
1636.805063765606
 30
0.0
 11
8610.973701566761
 21
1696.805063765642
 31
0.0
  0
LINE
  5
20F14
330
2091F
100
AcDbEntity
  8
HATCH
100
AcDbLine
 10
8586.973701566746
 20
1696.805063765642
 30
0.0
 11
8598.973701566754
 21
1676.020454074804
 31
0.0
  0
LINE
  5
20F15
330
2091F
100
AcDbEntity
  8
HATCH
100
AcDbLine
 10
8588.332685415364
 20
1657.589673456445
 30
0.0
 11
8600.332685415372
 21
1636.805063765606
 31
0.0
  0
LINE
  5
20F16
330
2091F
100
AcDbEntity
  8
HATCH
100
AcDbLine
 10
8756.332685415356
 20
1636.805063765606
 30
0.0
 11
8790.973701566754
 21
1696.805063765642
 31
0.0
  0
LINE
  5
20F17
330
2091F
100
AcDbEntity
  8
HATCH
100
AcDbLine
 10
8766.973701566742
 20
1696.805063765642
 30
0.0
 11
8778.973701566748
 21
1676.020454074804
 31
0.0
  0
LINE
  5
20F18
330
2091F
100
AcDbEntity
  8
HATCH
100
AcDbLine
 10
8768.332685415362
 20
1657.589673456445
 30
0.0
 11
8780.332685415372
 21
1636.805063765606
 31
0.0
  0
LINE
  5
20F19
330
2091F
100
AcDbEntity
  8
HATCH
100
AcDbLine
 10
8486.332685415357
 20
1636.805063765605
 30
0.0
 11
8520.973701566756
 21
1696.805063765641
 31
0.0
  0
LINE
  5
20F1A
330
2091F
100
AcDbEntity
  8
HATCH
100
AcDbLine
 10
8496.973701566743
 20
1696.805063765641
 30
0.0
 11
8508.97370156675
 21
1676.020454074803
 31
0.0
  0
LINE
  5
20F1B
330
2091F
100
AcDbEntity
  8
HATCH
100
AcDbLine
 10
8498.332685415361
 20
1657.589673456445
 30
0.0
 11
8510.332685415368
 21
1636.805063765605
 31
0.0
  0
LINE
  5
20F1C
330
2091F
100
AcDbEntity
  8
HATCH
100
AcDbLine
 10
8306.332685415361
 20
1636.805063765605
 30
0.0
 11
8340.973701566758
 21
1696.805063765641
 31
0.0
  0
LINE
  5
20F1D
330
2091F
100
AcDbEntity
  8
HATCH
100
AcDbLine
 10
8316.973701566745
 20
1696.805063765641
 30
0.0
 11
8328.973701566752
 21
1676.020454074803
 31
0.0
  0
LINE
  5
20F1E
330
2091F
100
AcDbEntity
  8
HATCH
100
AcDbLine
 10
8318.332685415366
 20
1657.589673456445
 30
0.0
 11
8330.332685415376
 21
1636.805063765605
 31
0.0
  0
LINE
  5
20F1F
330
2091F
100
AcDbEntity
  8
HATCH
100
AcDbLine
 10
8396.332685415357
 20
1636.805063765606
 30
0.0
 11
8430.973701566756
 21
1696.805063765642
 31
0.0
  0
LINE
  5
20F20
330
2091F
100
AcDbEntity
  8
HATCH
100
AcDbLine
 10
8406.973701566741
 20
1696.805063765642
 30
0.0
 11
8418.973701566748
 21
1676.020454074804
 31
0.0
  0
LINE
  5
20F21
330
2091F
100
AcDbEntity
  8
HATCH
100
AcDbLine
 10
8408.332685415365
 20
1657.589673456445
 30
0.0
 11
8420.332685415372
 21
1636.805063765606
 31
0.0
  0
LINE
  5
20F22
330
2091F
100
AcDbEntity
  8
HATCH
100
AcDbLine
 10
8216.332685415361
 20
1636.805063765605
 30
0.0
 11
8250.973701566758
 21
1696.805063765641
 31
0.0
  0
LINE
  5
20F23
330
2091F
100
AcDbEntity
  8
HATCH
100
AcDbLine
 10
8226.973701566747
 20
1696.805063765641
 30
0.0
 11
8238.973701566752
 21
1676.020454074803
 31
0.0
  0
LINE
  5
20F24
330
2091F
100
AcDbEntity
  8
HATCH
100
AcDbLine
 10
8228.332685415365
 20
1657.589673456445
 30
0.0
 11
8240.332685415372
 21
1636.805063765605
 31
0.0
  0
LINE
  5
20F25
330
2091F
100
AcDbEntity
  8
HATCH
100
AcDbLine
 10
8036.332685415358
 20
1636.805063765605
 30
0.0
 11
8070.973701566758
 21
1696.805063765641
 31
0.0
  0
LINE
  5
20F26
330
2091F
100
AcDbEntity
  8
HATCH
100
AcDbLine
 10
8046.973701566747
 20
1696.805063765641
 30
0.0
 11
8058.973701566754
 21
1676.020454074803
 31
0.0
  0
LINE
  5
20F27
330
2091F
100
AcDbEntity
  8
HATCH
100
AcDbLine
 10
8048.332685415367
 20
1657.589673456445
 30
0.0
 11
8060.332685415373
 21
1636.805063765605
 31
0.0
  0
LINE
  5
20F28
330
2091F
100
AcDbEntity
  8
HATCH
100
AcDbLine
 10
8126.332685415363
 20
1636.805063765605
 30
0.0
 11
8160.973701566758
 21
1696.805063765641
 31
0.0
  0
LINE
  5
20F29
330
2091F
100
AcDbEntity
  8
HATCH
100
AcDbLine
 10
8136.973701566741
 20
1696.805063765641
 30
0.0
 11
8148.973701566751
 21
1676.020454074803
 31
0.0
  0
LINE
  5
20F2A
330
2091F
100
AcDbEntity
  8
HATCH
100
AcDbLine
 10
8138.33268541537
 20
1657.589673456445
 30
0.0
 11
8150.332685415374
 21
1636.805063765605
 31
0.0
  0
LINE
  5
20F2B
330
2091F
100
AcDbEntity
  8
HATCH
100
AcDbLine
 10
7946.332685415363
 20
1636.805063765605
 30
0.0
 11
7980.973701566762
 21
1696.805063765641
 31
0.0
  0
LINE
  5
20F2C
330
2091F
100
AcDbEntity
  8
HATCH
100
AcDbLine
 10
7956.97370156675
 20
1696.805063765641
 30
0.0
 11
7968.973701566754
 21
1676.020454074803
 31
0.0
  0
LINE
  5
20F2D
330
2091F
100
AcDbEntity
  8
HATCH
100
AcDbLine
 10
7958.332685415371
 20
1657.589673456445
 30
0.0
 11
7970.332685415378
 21
1636.805063765605
 31
0.0
  0
LINE
  5
20F2E
330
2091F
100
AcDbEntity
  8
HATCH
100
AcDbLine
 10
7180.973701566738
 20
1636.805063765603
 30
0.0
 11
7215.614717718134
 21
1696.80506376564
 31
0.0
  0
LINE
  5
20F2F
330
2091F
100
AcDbEntity
  8
HATCH
100
AcDbLine
 10
7191.614717718121
 20
1696.805063765639
 30
0.0
 11
7203.614717718129
 21
1676.020454074802
 31
0.0
  0
LINE
  5
20F30
330
2091F
100
AcDbEntity
  8
HATCH
100
AcDbLine
 10
7192.973701566746
 20
1657.589673456443
 30
0.0
 11
7204.973701566753
 21
1636.805063765603
 31
0.0
  0
LINE
  5
20F31
330
2091F
100
AcDbEntity
  8
HATCH
100
AcDbLine
 10
7090.973701566738
 20
1636.805063765603
 30
0.0
 11
7125.614717718136
 21
1696.80506376564
 31
0.0
  0
LINE
  5
20F32
330
2091F
100
AcDbEntity
  8
HATCH
100
AcDbLine
 10
7101.614717718122
 20
1696.805063765639
 30
0.0
 11
7113.61471771813
 21
1676.020454074802
 31
0.0
  0
LINE
  5
20F33
330
2091F
100
AcDbEntity
  8
HATCH
100
AcDbLine
 10
7102.973701566746
 20
1657.589673456443
 30
0.0
 11
7114.973701566754
 21
1636.805063765603
 31
0.0
  0
LINE
  5
20F34
330
2091F
100
AcDbEntity
  8
HATCH
100
AcDbLine
 10
7000.973701566739
 20
1636.805063765603
 30
0.0
 11
7035.614717718138
 21
1696.80506376564
 31
0.0
  0
LINE
  5
20F35
330
2091F
100
AcDbEntity
  8
HATCH
100
AcDbLine
 10
7011.614717718123
 20
1696.805063765639
 30
0.0
 11
7023.614717718128
 21
1676.020454074802
 31
0.0
  0
LINE
  5
20F36
330
2091F
100
AcDbEntity
  8
HATCH
100
AcDbLine
 10
7012.973701566746
 20
1657.589673456443
 30
0.0
 11
7024.973701566752
 21
1636.805063765603
 31
0.0
  0
LINE
  5
20F37
330
2091F
100
AcDbEntity
  8
HATCH
100
AcDbLine
 10
6820.973701566739
 20
1636.805063765603
 30
0.0
 11
6855.614717718139
 21
1696.80506376564
 31
0.0
  0
LINE
  5
20F38
330
2091F
100
AcDbEntity
  8
HATCH
100
AcDbLine
 10
6831.614717718124
 20
1696.805063765639
 30
0.0
 11
6843.614717718129
 21
1676.020454074802
 31
0.0
  0
LINE
  5
20F39
330
2091F
100
AcDbEntity
  8
HATCH
100
AcDbLine
 10
6832.973701566746
 20
1657.589673456443
 30
0.0
 11
6844.973701566752
 21
1636.805063765603
 31
0.0
  0
LINE
  5
20F3A
330
2091F
100
AcDbEntity
  8
HATCH
100
AcDbLine
 10
6910.973701566738
 20
1636.805063765603
 30
0.0
 11
6945.614717718136
 21
1696.80506376564
 31
0.0
  0
LINE
  5
20F3B
330
2091F
100
AcDbEntity
  8
HATCH
100
AcDbLine
 10
6921.614717718123
 20
1696.805063765639
 30
0.0
 11
6933.614717718127
 21
1676.020454074802
 31
0.0
  0
LINE
  5
20F3C
330
2091F
100
AcDbEntity
  8
HATCH
100
AcDbLine
 10
6922.973701566746
 20
1657.589673456443
 30
0.0
 11
6934.973701566753
 21
1636.805063765603
 31
0.0
  0
LINE
  5
20F3D
330
2091F
100
AcDbEntity
  8
HATCH
100
AcDbLine
 10
6730.973701566738
 20
1636.805063765603
 30
0.0
 11
6765.614717718135
 21
1696.80506376564
 31
0.0
  0
LINE
  5
20F3E
330
2091F
100
AcDbEntity
  8
HATCH
100
AcDbLine
 10
6741.614717718121
 20
1696.805063765639
 30
0.0
 11
6753.614717718128
 21
1676.020454074802
 31
0.0
  0
LINE
  5
20F3F
330
2091F
100
AcDbEntity
  8
HATCH
100
AcDbLine
 10
6742.973701566746
 20
1657.589673456443
 30
0.0
 11
6754.973701566753
 21
1636.805063765603
 31
0.0
  0
LINE
  5
20F40
330
2091F
100
AcDbEntity
  8
HATCH
100
AcDbLine
 10
6640.973701566736
 20
1636.805063765603
 30
0.0
 11
6675.614717718135
 21
1696.80506376564
 31
0.0
  0
LINE
  5
20F41
330
2091F
100
AcDbEntity
  8
HATCH
100
AcDbLine
 10
6651.614717718119
 20
1696.805063765639
 30
0.0
 11
6663.614717718127
 21
1676.020454074802
 31
0.0
  0
LINE
  5
20F42
330
2091F
100
AcDbEntity
  8
HATCH
100
AcDbLine
 10
6652.973701566743
 20
1657.589673456443
 30
0.0
 11
6664.973701566751
 21
1636.805063765603
 31
0.0
  0
LINE
  5
20F43
330
2091F
100
AcDbEntity
  8
HATCH
100
AcDbLine
 10
6460.973701566736
 20
1636.805063765603
 30
0.0
 11
6495.614717718135
 21
1696.80506376564
 31
0.0
  0
LINE
  5
20F44
330
2091F
100
AcDbEntity
  8
HATCH
100
AcDbLine
 10
6471.61471771812
 20
1696.805063765639
 30
0.0
 11
6483.614717718127
 21
1676.020454074802
 31
0.0
  0
LINE
  5
20F45
330
2091F
100
AcDbEntity
  8
HATCH
100
AcDbLine
 10
6472.973701566743
 20
1657.589673456443
 30
0.0
 11
6484.97370156675
 21
1636.805063765603
 31
0.0
  0
LINE
  5
20F46
330
2091F
100
AcDbEntity
  8
HATCH
100
AcDbLine
 10
6370.973701566738
 20
1636.805063765603
 30
0.0
 11
6405.614717718139
 21
1696.80506376564
 31
0.0
  0
LINE
  5
20F47
330
2091F
100
AcDbEntity
  8
HATCH
100
AcDbLine
 10
6381.614717718123
 20
1696.805063765639
 30
0.0
 11
6393.614717718128
 21
1676.020454074802
 31
0.0
  0
LINE
  5
20F48
330
2091F
100
AcDbEntity
  8
HATCH
100
AcDbLine
 10
6382.973701566746
 20
1657.589673456443
 30
0.0
 11
6394.973701566751
 21
1636.805063765603
 31
0.0
  0
LINE
  5
20F49
330
2091F
100
AcDbEntity
  8
HATCH
100
AcDbLine
 10
6190.973701566738
 20
1636.805063765603
 30
0.0
 11
6225.614717718138
 21
1696.80506376564
 31
0.0
  0
LINE
  5
20F4A
330
2091F
100
AcDbEntity
  8
HATCH
100
AcDbLine
 10
6201.614717718123
 20
1696.805063765639
 30
0.0
 11
6213.61471771813
 21
1676.020454074802
 31
0.0
  0
LINE
  5
20F4B
330
2091F
100
AcDbEntity
  8
HATCH
100
AcDbLine
 10
6202.973701566746
 20
1657.589673456443
 30
0.0
 11
6214.973701566751
 21
1636.805063765603
 31
0.0
  0
LINE
  5
20F4C
330
2091F
100
AcDbEntity
  8
HATCH
100
AcDbLine
 10
6280.973701566738
 20
1636.805063765603
 30
0.0
 11
6315.614717718138
 21
1696.80506376564
 31
0.0
  0
LINE
  5
20F4D
330
2091F
100
AcDbEntity
  8
HATCH
100
AcDbLine
 10
6291.614717718123
 20
1696.805063765639
 30
0.0
 11
6303.614717718128
 21
1676.020454074802
 31
0.0
  0
LINE
  5
20F4E
330
2091F
100
AcDbEntity
  8
HATCH
100
AcDbLine
 10
6292.973701566746
 20
1657.589673456443
 30
0.0
 11
6304.973701566751
 21
1636.805063765603
 31
0.0
  0
LINE
  5
20F4F
330
2091F
100
AcDbEntity
  8
HATCH
100
AcDbLine
 10
6550.973701566738
 20
1636.805063765603
 30
0.0
 11
6585.614717718138
 21
1696.80506376564
 31
0.0
  0
LINE
  5
20F50
330
2091F
100
AcDbEntity
  8
HATCH
100
AcDbLine
 10
6561.61471771812
 20
1696.805063765639
 30
0.0
 11
6573.614717718128
 21
1676.020454074802
 31
0.0
  0
LINE
  5
20F51
330
2091F
100
AcDbEntity
  8
HATCH
100
AcDbLine
 10
6562.973701566746
 20
1657.589673456443
 30
0.0
 11
6574.973701566752
 21
1636.805063765603
 31
0.0
  0
CIRCLE
  5
20F52
330
2091F
100
AcDbEntity
  8
HATCH
100
AcDbCircle
 10
3970.028708553926
 20
1761.805063765603
 30
0.0
 40
5.0
  0
CIRCLE
  5
20F53
330
2091F
100
AcDbEntity
  8
HATCH
100
AcDbCircle
 10
3820.028708553927
 20
1761.805063765603
 30
0.0
 40
5.0
  0
CIRCLE
  5
20F54
330
2091F
100
AcDbEntity
  8
HATCH
100
AcDbCircle
 10
3670.028708553926
 20
1761.805063765603
 30
0.0
 40
5.0
  0
CIRCLE
  5
20F55
330
2091F
100
AcDbEntity
  8
HATCH
100
AcDbCircle
 10
3520.028708553927
 20
1761.805063765603
 30
0.0
 40
5.0
  0
CIRCLE
  5
20F56
330
2091F
100
AcDbEntity
  8
HATCH
100
AcDbCircle
 10
3370.028708553927
 20
1761.805063765603
 30
0.0
 40
5.0
  0
CIRCLE
  5
20F57
330
2091F
100
AcDbEntity
  8
HATCH
100
AcDbCircle
 10
3220.028708553927
 20
1761.805063765603
 30
0.0
 40
5.0
  0
CIRCLE
  5
20F58
330
2091F
100
AcDbEntity
  8
HATCH
100
AcDbCircle
 10
3070.028708553927
 20
1761.805063765603
 30
0.0
 40
5.0
  0
CIRCLE
  5
20F59
330
2091F
100
AcDbEntity
  8
HATCH
100
AcDbCircle
 10
2920.028708553927
 20
1761.805063765603
 30
0.0
 40
5.0
  0
CIRCLE
  5
20F5A
330
2091F
100
AcDbEntity
  8
HATCH
100
AcDbCircle
 10
2770.028708553927
 20
1761.805063765603
 30
0.0
 40
5.0
  0
CIRCLE
  5
20F5B
330
2091F
100
AcDbEntity
  8
HATCH
100
AcDbCircle
 10
2620.028708553927
 20
1761.805063765603
 30
0.0
 40
5.0
  0
CIRCLE
  5
20F5C
330
2091F
100
AcDbEntity
  8
HATCH
100
AcDbCircle
 10
2470.028708553927
 20
1761.805063765603
 30
0.0
 40
5.0
  0
CIRCLE
  5
20F5D
330
2091F
100
AcDbEntity
  8
HATCH
100
AcDbCircle
 10
2320.028708553927
 20
1761.805063765603
 30
0.0
 40
5.0
  0
CIRCLE
  5
20F5E
330
2091F
100
AcDbEntity
  8
HATCH
100
AcDbCircle
 10
2170.028708553926
 20
1761.805063765603
 30
0.0
 40
5.0
  0
CIRCLE
  5
20F5F
330
2091F
100
AcDbEntity
  8
HATCH
100
AcDbCircle
 10
2020.028708553926
 20
1761.805063765603
 30
0.0
 40
5.0
  0
CIRCLE
  5
20F60
330
2091F
100
AcDbEntity
  8
HATCH
100
AcDbCircle
 10
1870.028708553926
 20
1761.805063765603
 30
0.0
 40
5.0
  0
CIRCLE
  5
20F61
330
2091F
100
AcDbEntity
  8
HATCH
100
AcDbCircle
 10
1720.028708553925
 20
1761.805063765603
 30
0.0
 40
5.0
  0
CIRCLE
  5
20F62
330
2091F
100
AcDbEntity
  8
HATCH
100
AcDbCircle
 10
1570.028708553926
 20
1761.805063765603
 30
0.0
 40
5.0
  0
CIRCLE
  5
20F63
330
2091F
100
AcDbEntity
  8
HATCH
100
AcDbCircle
 10
1420.028708553926
 20
1761.805063765603
 30
0.0
 40
5.0
  0
LINE
  5
20F64
330
2091F
100
AcDbEntity
  8
HANA_JYUSHI
100
AcDbLine
 10
2390.71885793243
 20
7732.010895961368
 30
0.0
 11
2388.71885793243
 21
7732.010895961368
 31
0.0
  0
ARC
  5
20F65
330
2091F
100
AcDbEntity
  8
HANA_JYUSHI
100
AcDbCircle
 10
2388.718857932428
 20
7728.010895961368
 30
0.0
 40
4.0
100
AcDbArc
 50
89.99999999999348
 51
179.999999999987
  0
LINE
  5
20F66
330
2091F
100
AcDbEntity
  8
HANA_JYUSHI
100
AcDbLine
 10
2384.71885793243
 20
7728.010895961368
 30
0.0
 11
2384.71885793243
 21
7631.224570365006
 31
0.0
  0
LINE
  5
20F67
330
2091F
100
AcDbEntity
  8
HANA_JYUSHI
100
AcDbLine
 10
2384.71885793243
 20
7631.224570365006
 30
0.0
 11
2388.71885793243
 21
7631.224570365009
 31
0.0
  0
ARC
  5
20F68
330
2091F
100
AcDbEntity
  8
HANA_JYUSHI
100
AcDbCircle
 10
2388.718857932428
 20
7633.224570365008
 30
0.0
 40
2.0
100
AcDbArc
 50
270.000000000013
 51
0.0
  0
LINE
  5
20F69
330
2091F
100
AcDbEntity
  8
HANA_JYUSHI
100
AcDbLine
 10
2390.71885793243
 20
7633.224570365008
 30
0.0
 11
2390.71885793243
 21
7732.010895961368
 31
0.0
  0
LINE
  5
20F6A
330
2091F
100
AcDbEntity
  8
U1
100
AcDbLine
 10
2390.71885793243
 20
7631.224570365006
 30
0.0
 11
2384.71885793243
 21
7631.224570365006
 31
0.0
  0
LINE
  5
20F6B
330
2091F
100
AcDbEntity
  8
U1
100
AcDbLine
 10
2384.71885793243
 20
7631.224570365006
 30
0.0
 11
2384.71885793243
 21
7355.438245426923
 31
0.0
  0
LINE
  5
20F6C
330
2091F
100
AcDbEntity
  8
U1
100
AcDbLine
 10
2384.71885793243
 20
7355.438245426923
 30
0.0
 11
2390.71885793243
 21
7355.438245426923
 31
0.0
  0
LINE
  5
20F6D
330
2091F
100
AcDbEntity
  8
U1
100
AcDbLine
 10
2390.71885793243
 20
7355.438245426923
 30
0.0
 11
2390.71885793243
 21
7631.224570365006
 31
0.0
  0
LINE
  5
20F6E
330
2091F
100
AcDbEntity
  8
HANA_JYUSHI
100
AcDbLine
 10
2390.71885793243
 20
7344.904358487093
 30
0.0
 11
2387.718857932429
 21
7344.904358487093
 31
0.0
  0
ARC
  5
20F6F
330
2091F
100
AcDbEntity
  8
HANA_JYUSHI
100
AcDbCircle
 10
2387.718857932429
 20
7347.904358487094
 30
0.0
 40
3.0
100
AcDbArc
 50
180.0
 51
270.0
  0
LINE
  5
20F70
330
2091F
100
AcDbEntity
  8
HANA_JYUSHI
100
AcDbLine
 10
2384.71885793243
 20
7347.904358487094
 30
0.0
 11
2384.71885793243
 21
7355.438245426919
 31
0.0
  0
LINE
  5
20F71
330
2091F
100
AcDbEntity
  8
HANA_JYUSHI
100
AcDbLine
 10
2384.71885793243
 20
7355.438245426919
 30
0.0
 11
2390.71885793243
 21
7355.438245426919
 31
0.0
  0
LINE
  5
20F72
330
2091F
100
AcDbEntity
  8
HANA_JYUSHI
100
AcDbLine
 10
2390.71885793243
 20
7355.438245426919
 30
0.0
 11
2390.71885793243
 21
7344.904358487093
 31
0.0
  0
ARC
  5
20F73
330
2091F
100
AcDbEntity
  8
HATCH
100
AcDbCircle
 10
6333.340411186267
 20
5502.014820159625
 30
0.0
 40
2.5
100
AcDbArc
 50
180.0
 51
0.0
  0
ARC
  5
20F74
330
2091F
100
AcDbEntity
  8
HATCH
100
AcDbCircle
 10
6333.340411186267
 20
5502.014820159625
 30
0.0
 40
2.5
100
AcDbArc
 50
0.0
 51
180.0
  0
LINE
  5
20F75
330
2091F
100
AcDbEntity
  8
HANA_JYUSHI
100
AcDbLine
 10
10060.71885793242
 20
7732.010895961368
 30
0.0
 11
10062.71885793242
 21
7732.010895961368
 31
0.0
  0
ARC
  5
20F76
330
2091F
100
AcDbEntity
  8
HANA_JYUSHI
100
AcDbCircle
 10
10062.71885793242
 20
7728.010895961368
 30
0.0
 40
4.0
100
AcDbArc
 50
0.0000000000130276
 51
90.0
  0
LINE
  5
20F77
330
2091F
100
AcDbEntity
  8
HANA_JYUSHI
100
AcDbLine
 10
10066.71885793242
 20
7728.010895961368
 30
0.0
 11
10066.71885793242
 21
7631.224570365006
 31
0.0
  0
LINE
  5
20F78
330
2091F
100
AcDbEntity
  8
HANA_JYUSHI
100
AcDbLine
 10
10066.71885793242
 20
7631.224570365006
 30
0.0
 11
10062.71885793242
 21
7631.224570365009
 31
0.0
  0
ARC
  5
20F79
330
2091F
100
AcDbEntity
  8
HANA_JYUSHI
100
AcDbCircle
 10
10062.71885793242
 20
7633.224570365008
 30
0.0
 40
2.0
100
AcDbArc
 50
180.0
 51
270.0
  0
LINE
  5
20F7A
330
2091F
100
AcDbEntity
  8
HANA_JYUSHI
100
AcDbLine
 10
10060.71885793242
 20
7633.224570365008
 30
0.0
 11
10060.71885793242
 21
7732.010895961368
 31
0.0
  0
LINE
  5
20F7B
330
2091F
100
AcDbEntity
  8
U1
100
AcDbLine
 10
10060.71885793242
 20
7631.224570365006
 30
0.0
 11
10066.71885793242
 21
7631.224570365006
 31
0.0
  0
LINE
  5
20F7C
330
2091F
100
AcDbEntity
  8
U1
100
AcDbLine
 10
10066.71885793242
 20
7631.224570365006
 30
0.0
 11
10066.71885793242
 21
7355.438245426923
 31
0.0
  0
LINE
  5
20F7D
330
2091F
100
AcDbEntity
  8
U1
100
AcDbLine
 10
10066.71885793242
 20
7355.438245426923
 30
0.0
 11
10060.71885793242
 21
7355.438245426923
 31
0.0
  0
LINE
  5
20F7E
330
2091F
100
AcDbEntity
  8
U1
100
AcDbLine
 10
10060.71885793242
 20
7355.438245426923
 30
0.0
 11
10060.71885793242
 21
7631.224570365006
 31
0.0
  0
LINE
  5
20F7F
330
2091F
100
AcDbEntity
  8
HANA_JYUSHI
100
AcDbLine
 10
10060.71885793242
 20
7344.904358487093
 30
0.0
 11
10063.71885793242
 21
7344.904358487093
 31
0.0
  0
ARC
  5
20F80
330
2091F
100
AcDbEntity
  8
HANA_JYUSHI
100
AcDbCircle
 10
10063.71885793242
 20
7347.904358487094
 30
0.0
 40
3.0
100
AcDbArc
 50
270.0
 51
0.0
  0
LINE
  5
20F81
330
2091F
100
AcDbEntity
  8
HANA_JYUSHI
100
AcDbLine
 10
10066.71885793242
 20
7347.904358487094
 30
0.0
 11
10066.71885793242
 21
7355.438245426919
 31
0.0
  0
LINE
  5
20F82
330
2091F
100
AcDbEntity
  8
HANA_JYUSHI
100
AcDbLine
 10
10066.71885793242
 20
7355.438245426919
 30
0.0
 11
10060.71885793242
 21
7355.438245426919
 31
0.0
  0
LINE
  5
20F83
330
2091F
100
AcDbEntity
  8
HANA_JYUSHI
100
AcDbLine
 10
10060.71885793242
 20
7355.438245426919
 30
0.0
 11
10060.71885793242
 21
7344.904358487093
 31
0.0
  0
ARC
  5
20F84
330
2091F
100
AcDbEntity
  8
HATCH
100
AcDbCircle
 10
6483.340411186266
 20
5502.014820159625
 30
0.0
 40
2.5
100
AcDbArc
 50
180.0
 51
0.0
  0
ARC
  5
20F85
330
2091F
100
AcDbEntity
  8
HATCH
100
AcDbCircle
 10
6483.340411186266
 20
5502.014820159625
 30
0.0
 40
2.5
100
AcDbArc
 50
0.0
 51
180.0
  0
ARC
  5
20F86
330
2091F
100
AcDbEntity
  8
HATCH
100
AcDbCircle
 10
6633.340411186267
 20
5502.014820159625
 30
0.0
 40
2.5
100
AcDbArc
 50
180.0
 51
0.0
  0
ARC
  5
20F87
330
2091F
100
AcDbEntity
  8
HATCH
100
AcDbCircle
 10
6633.340411186267
 20
5502.014820159625
 30
0.0
 40
2.5
100
AcDbArc
 50
0.0
 51
180.0
  0
ARC
  5
20F88
330
2091F
100
AcDbEntity
  8
HATCH
100
AcDbCircle
 10
6783.340411186268
 20
5502.014820159625
 30
0.0
 40
2.5
100
AcDbArc
 50
180.0
 51
0.0
  0
ARC
  5
20F89
330
2091F
100
AcDbEntity
  8
HATCH
100
AcDbCircle
 10
6783.340411186268
 20
5502.014820159625
 30
0.0
 40
2.5
100
AcDbArc
 50
0.0
 51
180.0
  0
ARC
  5
20F8A
330
2091F
100
AcDbEntity
  8
HATCH
100
AcDbCircle
 10
6933.340411186266
 20
5502.014820159625
 30
0.0
 40
2.5
100
AcDbArc
 50
180.0
 51
0.0
  0
ARC
  5
20F8B
330
2091F
100
AcDbEntity
  8
HATCH
100
AcDbCircle
 10
6933.340411186266
 20
5502.014820159625
 30
0.0
 40
2.5
100
AcDbArc
 50
0.0
 51
180.0
  0
ARC
  5
20F8C
330
2091F
100
AcDbEntity
  8
HATCH
100
AcDbCircle
 10
7083.340411186267
 20
5502.014820159625
 30
0.0
 40
2.5
100
AcDbArc
 50
180.0
 51
0.0
  0
ARC
  5
20F8D
330
2091F
100
AcDbEntity
  8
HATCH
100
AcDbCircle
 10
7083.340411186267
 20
5502.014820159625
 30
0.0
 40
2.5
100
AcDbArc
 50
0.0
 51
180.0
  0
ARC
  5
20F8E
330
2091F
100
AcDbEntity
  8
HATCH
100
AcDbCircle
 10
7233.340411186266
 20
5502.014820159625
 30
0.0
 40
2.5
100
AcDbArc
 50
180.0
 51
0.0
  0
ARC
  5
20F8F
330
2091F
100
AcDbEntity
  8
HATCH
100
AcDbCircle
 10
7233.340411186266
 20
5502.014820159625
 30
0.0
 40
2.5
100
AcDbArc
 50
0.0
 51
180.0
  0
ARC
  5
20F90
330
2091F
100
AcDbEntity
  8
HATCH
100
AcDbCircle
 10
7383.340411186267
 20
5502.014820159625
 30
0.0
 40
2.5
100
AcDbArc
 50
180.0
 51
0.0
  0
ARC
  5
20F91
330
2091F
100
AcDbEntity
  8
HATCH
100
AcDbCircle
 10
7383.340411186267
 20
5502.014820159625
 30
0.0
 40
2.5
100
AcDbArc
 50
0.0
 51
180.0
  0
ARC
  5
20F92
330
2091F
100
AcDbEntity
  8
HATCH
100
AcDbCircle
 10
7533.340411186269
 20
5502.014820159625
 30
0.0
 40
2.5
100
AcDbArc
 50
180.0
 51
0.0
  0
ARC
  5
20F93
330
2091F
100
AcDbEntity
  8
HATCH
100
AcDbCircle
 10
7533.340411186269
 20
5502.014820159625
 30
0.0
 40
2.5
100
AcDbArc
 50
0.0
 51
180.0
  0
ARC
  5
20F94
330
2091F
100
AcDbEntity
  8
HATCH
100
AcDbCircle
 10
7683.340411186266
 20
5502.014820159625
 30
0.0
 40
2.5
100
AcDbArc
 50
180.0
 51
0.0
  0
ARC
  5
20F95
330
2091F
100
AcDbEntity
  8
HATCH
100
AcDbCircle
 10
7683.340411186266
 20
5502.014820159625
 30
0.0
 40
2.5
100
AcDbArc
 50
0.0
 51
180.0
  0
ARC
  5
20F96
330
2091F
100
AcDbEntity
  8
HATCH
100
AcDbCircle
 10
7833.340411186267
 20
5502.014820159625
 30
0.0
 40
2.5
100
AcDbArc
 50
180.0
 51
0.0
  0
ARC
  5
20F97
330
2091F
100
AcDbEntity
  8
HATCH
100
AcDbCircle
 10
7833.340411186267
 20
5502.014820159625
 30
0.0
 40
2.5
100
AcDbArc
 50
0.0
 51
180.0
  0
ARC
  5
20F98
330
2091F
100
AcDbEntity
  8
HATCH
100
AcDbCircle
 10
7983.340411186266
 20
5502.014820159625
 30
0.0
 40
2.5
100
AcDbArc
 50
180.0
 51
0.0
  0
ARC
  5
20F99
330
2091F
100
AcDbEntity
  8
HATCH
100
AcDbCircle
 10
7983.340411186266
 20
5502.014820159625
 30
0.0
 40
2.5
100
AcDbArc
 50
0.0
 51
180.0
  0
ARC
  5
20F9A
330
2091F
100
AcDbEntity
  8
HATCH
100
AcDbCircle
 10
8133.340411186264
 20
5502.014820159625
 30
0.0
 40
2.5
100
AcDbArc
 50
180.0
 51
0.0
  0
ARC
  5
20F9B
330
2091F
100
AcDbEntity
  8
HATCH
100
AcDbCircle
 10
8133.340411186264
 20
5502.014820159625
 30
0.0
 40
2.5
100
AcDbArc
 50
0.0
 51
180.0
  0
ARC
  5
20F9C
330
2091F
100
AcDbEntity
  8
HATCH
100
AcDbCircle
 10
8283.340411186266
 20
5502.014820159625
 30
0.0
 40
2.5
100
AcDbArc
 50
180.0
 51
0.0
  0
ARC
  5
20F9D
330
2091F
100
AcDbEntity
  8
HATCH
100
AcDbCircle
 10
8283.340411186266
 20
5502.014820159625
 30
0.0
 40
2.5
100
AcDbArc
 50
0.0
 51
180.0
  0
ARC
  5
20F9E
330
2091F
100
AcDbEntity
  8
HATCH
100
AcDbCircle
 10
8433.340411186266
 20
5502.014820159625
 30
0.0
 40
2.5
100
AcDbArc
 50
180.0
 51
0.0
  0
ARC
  5
20F9F
330
2091F
100
AcDbEntity
  8
HATCH
100
AcDbCircle
 10
8433.340411186266
 20
5502.014820159625
 30
0.0
 40
2.5
100
AcDbArc
 50
0.0
 51
180.0
  0
ARC
  5
20FA0
330
2091F
100
AcDbEntity
  8
HATCH
100
AcDbCircle
 10
8583.340411186268
 20
5502.014820159625
 30
0.0
 40
2.5
100
AcDbArc
 50
180.0
 51
0.0
  0
ARC
  5
20FA1
330
2091F
100
AcDbEntity
  8
HATCH
100
AcDbCircle
 10
8583.340411186268
 20
5502.014820159625
 30
0.0
 40
2.5
100
AcDbArc
 50
0.0
 51
180.0
  0
ARC
  5
20FA2
330
2091F
100
AcDbEntity
  8
HATCH
100
AcDbCircle
 10
8733.340411186262
 20
5502.014820159625
 30
0.0
 40
2.5
100
AcDbArc
 50
180.0
 51
0.0
  0
ARC
  5
20FA3
330
2091F
100
AcDbEntity
  8
HATCH
100
AcDbCircle
 10
8733.340411186262
 20
5502.014820159625
 30
0.0
 40
2.5
100
AcDbArc
 50
0.0
 51
180.0
  0
ARC
  5
20FA4
330
2091F
100
AcDbEntity
  8
HATCH
100
AcDbCircle
 10
8883.340411186265
 20
5502.014820159625
 30
0.0
 40
2.5
100
AcDbArc
 50
180.0
 51
0.0
  0
ARC
  5
20FA5
330
2091F
100
AcDbEntity
  8
HATCH
100
AcDbCircle
 10
8883.340411186265
 20
5502.014820159625
 30
0.0
 40
2.5
100
AcDbArc
 50
0.0
 51
180.0
  0
ARC
  5
20FA6
330
2091F
100
AcDbEntity
  8
HATCH
100
AcDbCircle
 10
9033.340411186264
 20
5502.014820159625
 30
0.0
 40
2.5
100
AcDbArc
 50
180.0
 51
0.0
  0
ARC
  5
20FA7
330
2091F
100
AcDbEntity
  8
HATCH
100
AcDbCircle
 10
9033.340411186264
 20
5502.014820159625
 30
0.0
 40
2.5
100
AcDbArc
 50
0.0
 51
180.0
  0
ARC
  5
20FA8
330
2091F
100
AcDbEntity
  8
HATCH
100
AcDbCircle
 10
9183.340411186263
 20
5502.014820159625
 30
0.0
 40
2.5
100
AcDbArc
 50
180.0
 51
0.0
  0
ARC
  5
20FA9
330
2091F
100
AcDbEntity
  8
HATCH
100
AcDbCircle
 10
9183.340411186263
 20
5502.014820159625
 30
0.0
 40
2.5
100
AcDbArc
 50
0.0
 51
180.0
  0
ARC
  5
20FAA
330
2091F
100
AcDbEntity
  8
HATCH
100
AcDbCircle
 10
9333.340411186263
 20
5502.014820159625
 30
0.0
 40
2.5
100
AcDbArc
 50
180.0
 51
0.0
  0
ARC
  5
20FAB
330
2091F
100
AcDbEntity
  8
HATCH
100
AcDbCircle
 10
9333.340411186263
 20
5502.014820159625
 30
0.0
 40
2.5
100
AcDbArc
 50
0.0
 51
180.0
  0
ARC
  5
20FAC
330
2091F
100
AcDbEntity
  8
HATCH
100
AcDbCircle
 10
9483.340411186263
 20
5502.014820159625
 30
0.0
 40
2.5
100
AcDbArc
 50
180.0
 51
0.0
  0
ARC
  5
20FAD
330
2091F
100
AcDbEntity
  8
HATCH
100
AcDbCircle
 10
9483.340411186263
 20
5502.014820159625
 30
0.0
 40
2.5
100
AcDbArc
 50
0.0
 51
180.0
  0
ARC
  5
20FAE
330
2091F
100
AcDbEntity
  8
HATCH
100
AcDbCircle
 10
9633.340411186264
 20
5502.014820159625
 30
0.0
 40
2.5
100
AcDbArc
 50
180.0
 51
0.0
  0
ARC
  5
20FAF
330
2091F
100
AcDbEntity
  8
HATCH
100
AcDbCircle
 10
9633.340411186264
 20
5502.014820159625
 30
0.0
 40
2.5
100
AcDbArc
 50
0.0
 51
180.0
  0
ARC
  5
20FB0
330
2091F
100
AcDbEntity
  8
HATCH
100
AcDbCircle
 10
9783.340411186264
 20
5502.014820159625
 30
0.0
 40
2.5
100
AcDbArc
 50
180.0
 51
0.0
  0
ARC
  5
20FB1
330
2091F
100
AcDbEntity
  8
HATCH
100
AcDbCircle
 10
9783.340411186264
 20
5502.014820159625
 30
0.0
 40
2.5
100
AcDbArc
 50
0.0
 51
180.0
  0
ARC
  5
20FB2
330
2091F
100
AcDbEntity
  8
HATCH
100
AcDbCircle
 10
9933.340411186259
 20
5502.014820159625
 30
0.0
 40
2.5
100
AcDbArc
 50
180.0
 51
0.0
  0
ARC
  5
20FB3
330
2091F
100
AcDbEntity
  8
HATCH
100
AcDbCircle
 10
9933.340411186259
 20
5502.014820159625
 30
0.0
 40
2.5
100
AcDbArc
 50
0.0
 51
180.0
  0
ARC
  5
20FB4
330
2091F
100
AcDbEntity
  8
HATCH
100
AcDbCircle
 10
10083.34041118626
 20
5502.014820159625
 30
0.0
 40
2.5
100
AcDbArc
 50
180.0
 51
0.0
  0
ARC
  5
20FB5
330
2091F
100
AcDbEntity
  8
HATCH
100
AcDbCircle
 10
10083.34041118626
 20
5502.014820159625
 30
0.0
 40
2.5
100
AcDbArc
 50
0.0
 51
180.0
  0
ARC
  5
20FB6
330
2091F
100
AcDbEntity
  8
HATCH
100
AcDbCircle
 10
6118.097304678592
 20
5502.014820159625
 30
0.0
 40
2.5
100
AcDbArc
 50
180.0
 51
0.0
  0
ARC
  5
20FB7
330
2091F
100
AcDbEntity
  8
HATCH
100
AcDbCircle
 10
6118.097304678592
 20
5502.014820159625
 30
0.0
 40
2.5
100
AcDbArc
 50
0.0
 51
180.0
  0
ARC
  5
20FB8
330
2091F
100
AcDbEntity
  8
HATCH
100
AcDbCircle
 10
5968.097304678592
 20
5502.014820159625
 30
0.0
 40
2.5
100
AcDbArc
 50
180.0
 51
0.0
  0
ARC
  5
20FB9
330
2091F
100
AcDbEntity
  8
HATCH
100
AcDbCircle
 10
5968.097304678592
 20
5502.014820159625
 30
0.0
 40
2.5
100
AcDbArc
 50
0.0
 51
180.0
  0
ARC
  5
20FBA
330
2091F
100
AcDbEntity
  8
HATCH
100
AcDbCircle
 10
5818.097304678592
 20
5502.014820159625
 30
0.0
 40
2.5
100
AcDbArc
 50
180.0
 51
0.0
  0
ARC
  5
20FBB
330
2091F
100
AcDbEntity
  8
HATCH
100
AcDbCircle
 10
5818.097304678592
 20
5502.014820159625
 30
0.0
 40
2.5
100
AcDbArc
 50
0.0
 51
180.0
  0
ARC
  5
20FBC
330
2091F
100
AcDbEntity
  8
HATCH
100
AcDbCircle
 10
5668.097304678592
 20
5502.014820159625
 30
0.0
 40
2.5
100
AcDbArc
 50
180.0
 51
0.0
  0
ARC
  5
20FBD
330
2091F
100
AcDbEntity
  8
HATCH
100
AcDbCircle
 10
5668.097304678592
 20
5502.014820159625
 30
0.0
 40
2.5
100
AcDbArc
 50
0.0
 51
180.0
  0
ARC
  5
20FBE
330
2091F
100
AcDbEntity
  8
HATCH
100
AcDbCircle
 10
5518.09730467859
 20
5502.014820159625
 30
0.0
 40
2.5
100
AcDbArc
 50
180.0
 51
0.0
  0
ARC
  5
20FBF
330
2091F
100
AcDbEntity
  8
HATCH
100
AcDbCircle
 10
5518.09730467859
 20
5502.014820159625
 30
0.0
 40
2.5
100
AcDbArc
 50
0.0
 51
180.0
  0
ARC
  5
20FC0
330
2091F
100
AcDbEntity
  8
HATCH
100
AcDbCircle
 10
5368.097304678592
 20
5502.014820159625
 30
0.0
 40
2.5
100
AcDbArc
 50
180.0
 51
0.0
  0
ARC
  5
20FC1
330
2091F
100
AcDbEntity
  8
HATCH
100
AcDbCircle
 10
5368.097304678592
 20
5502.014820159625
 30
0.0
 40
2.5
100
AcDbArc
 50
0.0
 51
180.0
  0
ARC
  5
20FC2
330
2091F
100
AcDbEntity
  8
HATCH
100
AcDbCircle
 10
5218.097304678592
 20
5502.014820159625
 30
0.0
 40
2.5
100
AcDbArc
 50
180.0
 51
0.0
  0
ARC
  5
20FC3
330
2091F
100
AcDbEntity
  8
HATCH
100
AcDbCircle
 10
5218.097304678592
 20
5502.014820159625
 30
0.0
 40
2.5
100
AcDbArc
 50
0.0
 51
180.0
  0
ARC
  5
20FC4
330
2091F
100
AcDbEntity
  8
HATCH
100
AcDbCircle
 10
5068.097304678592
 20
5502.014820159625
 30
0.0
 40
2.5
100
AcDbArc
 50
180.0
 51
0.0
  0
ARC
  5
20FC5
330
2091F
100
AcDbEntity
  8
HATCH
100
AcDbCircle
 10
5068.097304678592
 20
5502.014820159625
 30
0.0
 40
2.5
100
AcDbArc
 50
0.0
 51
180.0
  0
ARC
  5
20FC6
330
2091F
100
AcDbEntity
  8
HATCH
100
AcDbCircle
 10
4918.097304678592
 20
5502.014820159625
 30
0.0
 40
2.5
100
AcDbArc
 50
180.0
 51
0.0
  0
ARC
  5
20FC7
330
2091F
100
AcDbEntity
  8
HATCH
100
AcDbCircle
 10
4918.097304678592
 20
5502.014820159625
 30
0.0
 40
2.5
100
AcDbArc
 50
0.0
 51
180.0
  0
ARC
  5
20FC8
330
2091F
100
AcDbEntity
  8
HATCH
100
AcDbCircle
 10
4768.097304678589
 20
5502.014820159625
 30
0.0
 40
2.5
100
AcDbArc
 50
180.0
 51
0.0
  0
ARC
  5
20FC9
330
2091F
100
AcDbEntity
  8
HATCH
100
AcDbCircle
 10
4768.097304678589
 20
5502.014820159625
 30
0.0
 40
2.5
100
AcDbArc
 50
0.0
 51
180.0
  0
ARC
  5
20FCA
330
2091F
100
AcDbEntity
  8
HATCH
100
AcDbCircle
 10
4618.097304678592
 20
5502.014820159625
 30
0.0
 40
2.5
100
AcDbArc
 50
180.0
 51
0.0
  0
ARC
  5
20FCB
330
2091F
100
AcDbEntity
  8
HATCH
100
AcDbCircle
 10
4618.097304678592
 20
5502.014820159625
 30
0.0
 40
2.5
100
AcDbArc
 50
0.0
 51
180.0
  0
ARC
  5
20FCC
330
2091F
100
AcDbEntity
  8
HATCH
100
AcDbCircle
 10
4468.097304678592
 20
5502.014820159625
 30
0.0
 40
2.5
100
AcDbArc
 50
180.0
 51
0.0
  0
ARC
  5
20FCD
330
2091F
100
AcDbEntity
  8
HATCH
100
AcDbCircle
 10
4468.097304678592
 20
5502.014820159625
 30
0.0
 40
2.5
100
AcDbArc
 50
0.0
 51
180.0
  0
ARC
  5
20FCE
330
2091F
100
AcDbEntity
  8
HATCH
100
AcDbCircle
 10
4318.097304678592
 20
5502.014820159625
 30
0.0
 40
2.5
100
AcDbArc
 50
180.0
 51
0.0
  0
ARC
  5
20FCF
330
2091F
100
AcDbEntity
  8
HATCH
100
AcDbCircle
 10
4318.097304678592
 20
5502.014820159625
 30
0.0
 40
2.5
100
AcDbArc
 50
0.0
 51
180.0
  0
ARC
  5
20FD0
330
2091F
100
AcDbEntity
  8
HATCH
100
AcDbCircle
 10
4018.097304678592
 20
5502.014820159625
 30
0.0
 40
2.5
100
AcDbArc
 50
180.0
 51
0.0
  0
ARC
  5
20FD1
330
2091F
100
AcDbEntity
  8
HATCH
100
AcDbCircle
 10
4018.097304678592
 20
5502.014820159625
 30
0.0
 40
2.5
100
AcDbArc
 50
0.0
 51
180.0
  0
ARC
  5
20FD2
330
2091F
100
AcDbEntity
  8
HATCH
100
AcDbCircle
 10
4168.097304678592
 20
5502.014820159625
 30
0.0
 40
2.5
100
AcDbArc
 50
180.0
 51
0.0
  0
ARC
  5
20FD3
330
2091F
100
AcDbEntity
  8
HATCH
100
AcDbCircle
 10
4168.097304678592
 20
5502.014820159625
 30
0.0
 40
2.5
100
AcDbArc
 50
0.0
 51
180.0
  0
ARC
  5
20FD4
330
2091F
100
AcDbEntity
  8
HATCH
100
AcDbCircle
 10
3868.097304678592
 20
5502.014820159625
 30
0.0
 40
2.5
100
AcDbArc
 50
180.0
 51
0.0
  0
ARC
  5
20FD5
330
2091F
100
AcDbEntity
  8
HATCH
100
AcDbCircle
 10
3868.097304678592
 20
5502.014820159625
 30
0.0
 40
2.5
100
AcDbArc
 50
0.0
 51
180.0
  0
ARC
  5
20FD6
330
2091F
100
AcDbEntity
  8
HATCH
100
AcDbCircle
 10
3718.097304678592
 20
5502.014820159625
 30
0.0
 40
2.5
100
AcDbArc
 50
180.0
 51
0.0
  0
ARC
  5
20FD7
330
2091F
100
AcDbEntity
  8
HATCH
100
AcDbCircle
 10
3718.097304678592
 20
5502.014820159625
 30
0.0
 40
2.5
100
AcDbArc
 50
0.0
 51
180.0
  0
ARC
  5
20FD8
330
2091F
100
AcDbEntity
  8
HATCH
100
AcDbCircle
 10
3568.097304678592
 20
5502.014820159625
 30
0.0
 40
2.5
100
AcDbArc
 50
180.0
 51
0.0
  0
ARC
  5
20FD9
330
2091F
100
AcDbEntity
  8
HATCH
100
AcDbCircle
 10
3568.097304678592
 20
5502.014820159625
 30
0.0
 40
2.5
100
AcDbArc
 50
0.0
 51
180.0
  0
ARC
  5
20FDA
330
2091F
100
AcDbEntity
  8
HATCH
100
AcDbCircle
 10
3418.097304678592
 20
5502.014820159625
 30
0.0
 40
2.5
100
AcDbArc
 50
180.0
 51
0.0
  0
ARC
  5
20FDB
330
2091F
100
AcDbEntity
  8
HATCH
100
AcDbCircle
 10
3418.097304678592
 20
5502.014820159625
 30
0.0
 40
2.5
100
AcDbArc
 50
0.0
 51
180.0
  0
ARC
  5
20FDC
330
2091F
100
AcDbEntity
  8
HATCH
100
AcDbCircle
 10
3268.097304678593
 20
5502.014820159625
 30
0.0
 40
2.5
100
AcDbArc
 50
180.0
 51
0.0
  0
ARC
  5
20FDD
330
2091F
100
AcDbEntity
  8
HATCH
100
AcDbCircle
 10
3268.097304678593
 20
5502.014820159625
 30
0.0
 40
2.5
100
AcDbArc
 50
0.0
 51
180.0
  0
ARC
  5
20FDE
330
2091F
100
AcDbEntity
  8
HATCH
100
AcDbCircle
 10
3118.097304678592
 20
5502.014820159625
 30
0.0
 40
2.5
100
AcDbArc
 50
180.0
 51
0.0
  0
ARC
  5
20FDF
330
2091F
100
AcDbEntity
  8
HATCH
100
AcDbCircle
 10
3118.097304678592
 20
5502.014820159625
 30
0.0
 40
2.5
100
AcDbArc
 50
0.0
 51
180.0
  0
ARC
  5
20FE0
330
2091F
100
AcDbEntity
  8
HATCH
100
AcDbCircle
 10
2968.097304678592
 20
5502.014820159625
 30
0.0
 40
2.5
100
AcDbArc
 50
180.0
 51
0.0
  0
ARC
  5
20FE1
330
2091F
100
AcDbEntity
  8
HATCH
100
AcDbCircle
 10
2968.097304678592
 20
5502.014820159625
 30
0.0
 40
2.5
100
AcDbArc
 50
0.0
 51
180.0
  0
ARC
  5
20FE2
330
2091F
100
AcDbEntity
  8
HATCH
100
AcDbCircle
 10
2818.097304678592
 20
5502.014820159625
 30
0.0
 40
2.5
100
AcDbArc
 50
180.0
 51
0.0
  0
ARC
  5
20FE3
330
2091F
100
AcDbEntity
  8
HATCH
100
AcDbCircle
 10
2818.097304678592
 20
5502.014820159625
 30
0.0
 40
2.5
100
AcDbArc
 50
0.0
 51
180.0
  0
ARC
  5
20FE4
330
2091F
100
AcDbEntity
  8
HATCH
100
AcDbCircle
 10
2668.097304678592
 20
5502.014820159625
 30
0.0
 40
2.5
100
AcDbArc
 50
180.0
 51
0.0
  0
ARC
  5
20FE5
330
2091F
100
AcDbEntity
  8
HATCH
100
AcDbCircle
 10
2668.097304678592
 20
5502.014820159625
 30
0.0
 40
2.5
100
AcDbArc
 50
0.0
 51
180.0
  0
ARC
  5
20FE6
330
2091F
100
AcDbEntity
  8
HATCH
100
AcDbCircle
 10
2518.097304678593
 20
5502.014820159625
 30
0.0
 40
2.5
100
AcDbArc
 50
180.0
 51
0.0
  0
ARC
  5
20FE7
330
2091F
100
AcDbEntity
  8
HATCH
100
AcDbCircle
 10
2518.097304678593
 20
5502.014820159625
 30
0.0
 40
2.5
100
AcDbArc
 50
0.0
 51
180.0
  0
ARC
  5
20FE8
330
2091F
100
AcDbEntity
  8
HATCH
100
AcDbCircle
 10
2368.097304678592
 20
5502.014820159625
 30
0.0
 40
2.5
100
AcDbArc
 50
180.0
 51
0.0
  0
ARC
  5
20FE9
330
2091F
100
AcDbEntity
  8
HATCH
100
AcDbCircle
 10
2368.097304678592
 20
5502.014820159625
 30
0.0
 40
2.5
100
AcDbArc
 50
0.0
 51
180.0
  0
LINE
  5
20FEA
330
2091F
100
AcDbEntity
  8
MOYA_KANGU
100
AcDbLine
 10
8154.687584010947
 20
3826.92507154057
 30
0.0
 11
8157.99330992297
 21
3892.842233010059
 31
0.0
  0
LINE
  5
20FEB
330
2091F
100
AcDbEntity
  8
MOYA_KANGU
100
AcDbLine
 10
8157.99330992297
 20
3892.842233010059
 30
0.0
 11
8155.696196720247
 21
3892.957432549415
 31
0.0
  0
LINE
  5
20FEC
330
2091F
100
AcDbEntity
  8
MOYA_KANGU
100
AcDbLine
 10
8155.696196720247
 20
3892.957432549415
 30
0.0
 11
8152.390470808221
 21
3827.040271079929
 31
0.0
  0
ARC
  5
20FED
330
2091F
100
AcDbEntity
  8
MOYA_KANGU
100
AcDbCircle
 10
8156.385450291223
 20
3826.83992405496
 30
0.0
 40
4.000000000000617
100
AcDbArc
 50
177.129039014897
 51
267.1290390148972
  0
LINE
  5
20FEE
330
2091F
100
AcDbEntity
  8
MOYA_KANGU
100
AcDbLine
 10
8156.185103266253
 20
3822.84494457196
 30
0.0
 11
8242.07716215074
 21
3818.537483535081
 31
0.0
  0
LINE
  5
20FEF
330
2091F
100
AcDbEntity
  8
MOYA_KANGU
100
AcDbLine
 10
8242.07716215074
 20
3818.537483535081
 30
0.0
 11
8242.192361690097
 21
3820.834596737807
 31
0.0
  0
LINE
  5
20FF0
330
2091F
100
AcDbEntity
  8
MOYA_KANGU
100
AcDbLine
 10
8242.192361690097
 20
3820.834596737807
 30
0.0
 11
8156.300302805611
 21
3825.142057774685
 31
0.0
  0
ARC
  5
20FF1
330
2091F
100
AcDbEntity
  8
MOYA_KANGU
100
AcDbCircle
 10
8156.385450291223
 20
3826.839924054959
 30
0.0
 40
1.699999999999211
100
AcDbArc
 50
177.1290390149145
 51
267.1290390149144
  0
LINE
  5
20FF2
330
2091F
100
AcDbEntity
  8
HARI
100
AcDbLine
 10
7642.569340030274
 20
3773.508368327656
 30
0.0
 11
8149.286067050537
 21
3748.096676179147
 31
0.0
  0
LINE
  5
20FF3
330
2091F
100
AcDbEntity
  8
MOYA
100
AcDbLine
 10
8156.265242076214
 20
3824.442936365159
 30
0.0
 11
8181.034114870806
 21
3823.200784810325
 31
0.0
  0
ARC
  5
20FF4
330
2091F
100
AcDbEntity
  8
MOYA
100
AcDbCircle
 10
8181.23446189578
 20
3827.195764293326
 30
0.0
 40
4.000000000000708
100
AcDbArc
 50
267.1290390148711
 51
357.1290390148712
  0
LINE
  5
20FF5
330
2091F
100
AcDbEntity
  8
MOYA
100
AcDbLine
 10
8185.229441378778
 20
3826.995417268353
 30
0.0
 11
8185.700256887468
 21
3836.3836190534
 31
0.0
  0
LINE
  5
20FF6
330
2091F
100
AcDbEntity
  8
MOYA
100
AcDbLine
 10
8185.700256887468
 20
3836.3836190534
 30
0.0
 11
8187.298248680665
 21
3836.303480243412
 31
0.0
  0
LINE
  5
20FF7
330
2091F
100
AcDbEntity
  8
MOYA
100
AcDbLine
 10
8187.298248680665
 20
3836.303480243412
 30
0.0
 11
8186.827433171982
 21
3826.915278458364
 31
0.0
  0
ARC
  5
20FF8
330
2091F
100
AcDbEntity
  8
MOYA
100
AcDbCircle
 10
8181.23446189578
 20
3827.195764293327
 30
0.0
 40
5.600000000002001
100
AcDbArc
 50
267.1290390148511
 51
357.1290390148512
  0
LINE
  5
20FF9
330
2091F
100
AcDbEntity
  8
MOYA
100
AcDbLine
 10
8180.953976060818
 20
3821.602793017126
 30
0.0
 11
8156.185103266221
 21
3822.844944571958
 31
0.0
  0
ARC
  5
20FFA
330
2091F
100
AcDbEntity
  8
MOYA
100
AcDbCircle
 10
8156.465589101186
 20
3828.437915848157
 30
0.0
 40
5.600000000001047
100
AcDbArc
 50
177.12903901486
 51
267.12903901486
  0
LINE
  5
20FFB
330
2091F
100
AcDbEntity
  8
MOYA
100
AcDbLine
 10
8150.872617824985
 20
3828.71840168312
 30
0.0
 11
8154.068152873305
 21
3892.438324436954
 31
0.0
  0
ARC
  5
20FFC
330
2091F
100
AcDbEntity
  8
MOYA
100
AcDbCircle
 10
8159.661124149506
 20
3892.157838601993
 30
0.0
 40
5.600000000002863
100
AcDbArc
 50
87.1290390148609
 51
177.1290390148608
  0
LINE
  5
20FFD
330
2091F
100
AcDbEntity
  8
MOYA
100
AcDbLine
 10
8159.941609984468
 20
3897.750809878195
 30
0.0
 11
8184.710482779058
 21
3896.508658323362
 31
0.0
  0
ARC
  5
20FFE
330
2091F
100
AcDbEntity
  8
MOYA
100
AcDbCircle
 10
8184.429996944098
 20
3890.915687047161
 30
0.0
 40
5.600000000002001
100
AcDbArc
 50
357.1290390148512
 51
87.12903901485118
  0
LINE
  5
20FFF
330
2091F
100
AcDbEntity
  8
MOYA
100
AcDbLine
 10
8190.022968220299
 20
3890.635201212199
 30
0.0
 11
8189.552152711611
 21
3881.24699942715
 31
0.0
  0
LINE
  5
21000
330
2091F
100
AcDbEntity
  8
MOYA
100
AcDbLine
 10
8189.552152711611
 20
3881.24699942715
 30
0.0
 11
8187.954160918408
 21
3881.327138237143
 31
0.0
  0
LINE
  5
21001
330
2091F
100
AcDbEntity
  8
MOYA
100
AcDbLine
 10
8187.954160918408
 20
3881.327138237143
 30
0.0
 11
8188.424976427098
 21
3890.715340022188
 31
0.0
  0
ARC
  5
21002
330
2091F
100
AcDbEntity
  8
MOYA
100
AcDbCircle
 10
8184.429996944095
 20
3890.915687047162
 30
0.0
 40
4.0000000000008
100
AcDbArc
 50
357.1290390148451
 51
87.12903901484512
  0
LINE
  5
21003
330
2091F
100
AcDbEntity
  8
MOYA
100
AcDbLine
 10
8184.630343969072
 20
3894.910666530162
 30
0.0
 11
8159.861471174474
 21
3896.152818084993
 31
0.0
  0
ARC
  5
21004
330
2091F
100
AcDbEntity
  8
MOYA
100
AcDbCircle
 10
8159.661124149501
 20
3892.157838601993
 30
0.0
 40
3.999999999999845
100
AcDbArc
 50
87.12903901485747
 51
177.1290390148575
  0
LINE
  5
21005
330
2091F
100
AcDbEntity
  8
MOYA
100
AcDbLine
 10
8155.666144666502
 20
3892.358185626966
 30
0.0
 11
8152.470609618182
 21
3828.638262873129
 31
0.0
  0
ARC
  5
21006
330
2091F
100
AcDbEntity
  8
MOYA
100
AcDbCircle
 10
8156.465589101184
 20
3828.437915848159
 30
0.0
 40
4.000000000001572
100
AcDbArc
 50
177.1290390148847
 51
267.1290390148847
  0
LINE
  5
21007
330
2091F
100
AcDbEntity
  8
MOYA_KANGU
100
AcDbLine
 10
7565.428110268553
 20
3856.476257723804
 30
0.0
 11
7568.733836180578
 21
3922.39341919329
 31
0.0
  0
LINE
  5
21008
330
2091F
100
AcDbEntity
  8
MOYA_KANGU
100
AcDbLine
 10
7568.733836180578
 20
3922.39341919329
 30
0.0
 11
7566.436722977852
 21
3922.50861873265
 31
0.0
  0
LINE
  5
21009
330
2091F
100
AcDbEntity
  8
MOYA_KANGU
100
AcDbLine
 10
7566.436722977852
 20
3922.50861873265
 30
0.0
 11
7563.13099706583
 21
3856.591457263159
 31
0.0
  0
ARC
  5
2100A
330
2091F
100
AcDbEntity
  8
MOYA_KANGU
100
AcDbCircle
 10
7567.125976548826
 20
3856.391110238188
 30
0.0
 40
3.999999999996984
100
AcDbArc
 50
177.1290390148945
 51
267.1290390148945
  0
LINE
  5
2100B
330
2091F
100
AcDbEntity
  8
MOYA_KANGU
100
AcDbLine
 10
7566.925629523854
 20
3852.396130755193
 30
0.0
 11
7652.817688408339
 21
3848.088669718315
 31
0.0
  0
LINE
  5
2100C
330
2091F
100
AcDbEntity
  8
MOYA_KANGU
100
AcDbLine
 10
7652.817688408339
 20
3848.088669718315
 30
0.0
 11
7652.932887947699
 21
3850.385782921037
 31
0.0
  0
LINE
  5
2100D
330
2091F
100
AcDbEntity
  8
MOYA_KANGU
100
AcDbLine
 10
7652.932887947699
 20
3850.385782921037
 30
0.0
 11
7567.040829063216
 21
3854.693243957916
 31
0.0
  0
ARC
  5
2100E
330
2091F
100
AcDbEntity
  8
MOYA_KANGU
100
AcDbCircle
 10
7567.125976548826
 20
3856.39111023819
 30
0.0
 40
1.700000000000166
100
AcDbArc
 50
177.1290390148855
 51
267.1290390148854
  0
LINE
  5
2100F
330
2091F
100
AcDbEntity
  8
MOYA
100
AcDbLine
 10
7567.005768333818
 20
3853.994122548391
 30
0.0
 11
7591.774641128414
 21
3852.751970993558
 31
0.0
  0
ARC
  5
21010
330
2091F
100
AcDbEntity
  8
MOYA
100
AcDbCircle
 10
7591.974988153386
 20
3856.746950476558
 30
0.0
 40
3.999999999999845
100
AcDbArc
 50
267.1290390148574
 51
357.1290390148575
  0
LINE
  5
21011
330
2091F
100
AcDbEntity
  8
MOYA
100
AcDbLine
 10
7595.969967636385
 20
3856.546603451585
 30
0.0
 11
7596.440783145069
 21
3865.934805236631
 31
0.0
  0
LINE
  5
21012
330
2091F
100
AcDbEntity
  8
MOYA
100
AcDbLine
 10
7596.440783145069
 20
3865.934805236631
 30
0.0
 11
7598.038774938271
 21
3865.854666426642
 31
0.0
  0
LINE
  5
21013
330
2091F
100
AcDbEntity
  8
MOYA
100
AcDbLine
 10
7598.038774938271
 20
3865.854666426642
 30
0.0
 11
7597.567959429584
 21
3856.466464641594
 31
0.0
  0
ARC
  5
21014
330
2091F
100
AcDbEntity
  8
MOYA
100
AcDbCircle
 10
7591.974988153386
 20
3856.746950476557
 30
0.0
 40
5.599999999999232
100
AcDbArc
 50
267.129039014859
 51
357.129039014859
  0
LINE
  5
21015
330
2091F
100
AcDbEntity
  8
MOYA
100
AcDbLine
 10
7591.694502318424
 20
3851.153979200359
 30
0.0
 11
7566.925629523827
 21
3852.396130755193
 31
0.0
  0
ARC
  5
21016
330
2091F
100
AcDbEntity
  8
MOYA
100
AcDbCircle
 10
7567.206115358786
 20
3857.989102031392
 30
0.0
 40
5.600000000000093
100
AcDbArc
 50
177.1290390148688
 51
267.1290390148687
  0
LINE
  5
21017
330
2091F
100
AcDbEntity
  8
MOYA
100
AcDbLine
 10
7561.613144082589
 20
3858.269587866352
 30
0.0
 11
7564.808679130907
 21
3921.989510620189
 31
0.0
  0
ARC
  5
21018
330
2091F
100
AcDbEntity
  8
MOYA
100
AcDbCircle
 10
7570.401650407108
 20
3921.709024785225
 30
0.0
 40
5.60000000000114
100
AcDbArc
 50
87.12903901484137
 51
177.1290390148414
  0
LINE
  5
21019
330
2091F
100
AcDbEntity
  8
MOYA
100
AcDbLine
 10
7570.682136242071
 20
3927.301996061425
 30
0.0
 11
7595.451009036664
 21
3926.059844506593
 31
0.0
  0
ARC
  5
2101A
330
2091F
100
AcDbEntity
  8
MOYA
100
AcDbCircle
 10
7595.170523201701
 20
3920.466873230394
 30
0.0
 40
5.600000000001047
100
AcDbArc
 50
357.1290390148599
 51
87.12903901485999
  0
LINE
  5
2101B
330
2091F
100
AcDbEntity
  8
MOYA
100
AcDbLine
 10
7600.763494477902
 20
3920.186387395432
 30
0.0
 11
7600.292678969218
 21
3910.798185610385
 31
0.0
  0
LINE
  5
2101C
330
2091F
100
AcDbEntity
  8
MOYA
100
AcDbLine
 10
7600.292678969218
 20
3910.798185610385
 30
0.0
 11
7598.694687176015
 21
3910.878324420373
 31
0.0
  0
LINE
  5
2101D
330
2091F
100
AcDbEntity
  8
MOYA
100
AcDbLine
 10
7598.694687176015
 20
3910.878324420373
 30
0.0
 11
7599.165502684705
 21
3920.266526205422
 31
0.0
  0
ARC
  5
2101E
330
2091F
100
AcDbEntity
  8
MOYA
100
AcDbCircle
 10
7595.170523201703
 20
3920.466873230393
 30
0.0
 40
4.000000000001572
100
AcDbArc
 50
357.1290390148847
 51
87.12903901488479
  0
LINE
  5
2101F
330
2091F
100
AcDbEntity
  8
MOYA
100
AcDbLine
 10
7595.370870226673
 20
3924.461852713394
 30
0.0
 11
7570.601997432079
 21
3925.704004268225
 31
0.0
  0
ARC
  5
21020
330
2091F
100
AcDbEntity
  8
MOYA
100
AcDbCircle
 10
7570.401650407108
 20
3921.709024785227
 30
0.0
 40
3.999999999999845
100
AcDbArc
 50
87.12903901485747
 51
177.1290390148575
  0
LINE
  5
21021
330
2091F
100
AcDbEntity
  8
MOYA
100
AcDbLine
 10
7566.406670924108
 20
3921.9093718102
 30
0.0
 11
7563.211135875791
 21
3858.189449056363
 31
0.0
  0
ARC
  5
21022
330
2091F
100
AcDbEntity
  8
MOYA
100
AcDbCircle
 10
7567.206115358789
 20
3857.98910203139
 30
0.0
 40
3.999999999999845
100
AcDbArc
 50
177.1290390148575
 51
267.1290390148574
  0
LINE
  5
21023
330
2091F
100
AcDbEntity
  8
MOYA_KANGU
100
AcDbLine
 10
6976.16863652616
 20
3886.027443907033
 30
0.0
 11
6979.474362438186
 21
3951.944605376521
 31
0.0
  0
LINE
  5
21024
330
2091F
100
AcDbEntity
  8
MOYA_KANGU
100
AcDbLine
 10
6979.474362438186
 20
3951.944605376521
 30
0.0
 11
6977.177249235457
 21
3952.059804915881
 31
0.0
  0
LINE
  5
21025
330
2091F
100
AcDbEntity
  8
MOYA_KANGU
100
AcDbLine
 10
6977.177249235457
 20
3952.059804915881
 30
0.0
 11
6973.871523323436
 21
3886.142643446396
 31
0.0
  0
ARC
  5
21026
330
2091F
100
AcDbEntity
  8
MOYA_KANGU
100
AcDbCircle
 10
6977.866502806435
 20
3885.942296421421
 30
0.0
 40
3.999999999999845
100
AcDbArc
 50
177.1290390148575
 51
267.1290390148574
  0
LINE
  5
21027
330
2091F
100
AcDbEntity
  8
MOYA_KANGU
100
AcDbLine
 10
6977.666155781462
 20
3881.947316938424
 30
0.0
 11
7063.558214665947
 21
3877.639855901545
 31
0.0
  0
LINE
  5
21028
330
2091F
100
AcDbEntity
  8
MOYA_KANGU
100
AcDbLine
 10
7063.558214665947
 20
3877.639855901545
 30
0.0
 11
7063.673414205303
 21
3879.936969104271
 31
0.0
  0
LINE
  5
21029
330
2091F
100
AcDbEntity
  8
MOYA_KANGU
100
AcDbLine
 10
7063.673414205303
 20
3879.936969104271
 30
0.0
 11
6977.781355320821
 21
3884.244430141149
 31
0.0
  0
ARC
  5
2102A
330
2091F
100
AcDbEntity
  8
MOYA_KANGU
100
AcDbCircle
 10
6977.866502806431
 20
3885.942296421421
 30
0.0
 40
1.699999999998258
100
AcDbArc
 50
177.1290390149435
 51
267.1290390149437
  0
LINE
  5
2102B
330
2091F
100
AcDbEntity
  8
MOYA
100
AcDbLine
 10
6977.746294591423
 20
3883.545308731621
 30
0.0
 11
7002.515167386021
 21
3882.30315717679
 31
0.0
  0
ARC
  5
2102C
330
2091F
100
AcDbEntity
  8
MOYA
100
AcDbCircle
 10
7002.715514410993
 20
3886.298136659788
 30
0.0
 40
3.999999999999845
100
AcDbArc
 50
267.1290390148574
 51
357.1290390148575
  0
LINE
  5
2102D
330
2091F
100
AcDbEntity
  8
MOYA
100
AcDbLine
 10
7006.710493893992
 20
3886.097789634817
 30
0.0
 11
7007.181309402675
 21
3895.485991419863
 31
0.0
  0
LINE
  5
2102E
330
2091F
100
AcDbEntity
  8
MOYA
100
AcDbLine
 10
7007.181309402675
 20
3895.485991419863
 30
0.0
 11
7008.779301195874
 21
3895.405852609876
 31
0.0
  0
LINE
  5
2102F
330
2091F
100
AcDbEntity
  8
MOYA
100
AcDbLine
 10
7008.779301195874
 20
3895.405852609876
 30
0.0
 11
7008.308485687191
 21
3886.017650824827
 31
0.0
  0
ARC
  5
21030
330
2091F
100
AcDbEntity
  8
MOYA
100
AcDbCircle
 10
7002.71551441099
 20
3886.298136659791
 30
0.0
 40
5.600000000002001
100
AcDbArc
 50
267.1290390148511
 51
357.1290390148512
  0
LINE
  5
21031
330
2091F
100
AcDbEntity
  8
MOYA
100
AcDbLine
 10
7002.435028576027
 20
3880.70516538359
 30
0.0
 11
6977.666155781434
 21
3881.947316938422
 31
0.0
  0
ARC
  5
21032
330
2091F
100
AcDbEntity
  8
MOYA
100
AcDbCircle
 10
6977.946641616395
 20
3887.540288214621
 30
0.0
 40
5.600000000001047
100
AcDbArc
 50
177.12903901486
 51
267.12903901486
  0
LINE
  5
21033
330
2091F
100
AcDbEntity
  8
MOYA
100
AcDbLine
 10
6972.353670340194
 20
3887.820774049584
 30
0.0
 11
6975.549205388515
 21
3951.54069680342
 31
0.0
  0
ARC
  5
21034
330
2091F
100
AcDbEntity
  8
MOYA
100
AcDbCircle
 10
6981.142176664715
 20
3951.260210968458
 30
0.0
 40
5.600000000002001
100
AcDbArc
 50
87.12903901485118
 51
177.1290390148511
  0
LINE
  5
21035
330
2091F
100
AcDbEntity
  8
MOYA
100
AcDbLine
 10
6981.422662499678
 20
3956.853182244658
 30
0.0
 11
7006.19153529427
 21
3955.611030689825
 31
0.0
  0
ARC
  5
21036
330
2091F
100
AcDbEntity
  8
MOYA
100
AcDbCircle
 10
7005.911049459308
 20
3950.018059413626
 30
0.0
 40
5.600000000001047
100
AcDbArc
 50
357.1290390148599
 51
87.12903901485999
  0
LINE
  5
21037
330
2091F
100
AcDbEntity
  8
MOYA
100
AcDbLine
 10
7011.504020735509
 20
3949.737573578664
 30
0.0
 11
7011.033205226825
 21
3940.349371793617
 31
0.0
  0
LINE
  5
21038
330
2091F
100
AcDbEntity
  8
MOYA
100
AcDbLine
 10
7011.033205226825
 20
3940.349371793617
 30
0.0
 11
7009.435213433618
 21
3940.429510603606
 31
0.0
  0
LINE
  5
21039
330
2091F
100
AcDbEntity
  8
MOYA
100
AcDbLine
 10
7009.435213433618
 20
3940.429510603606
 30
0.0
 11
7009.906028942309
 21
3949.817712388651
 31
0.0
  0
ARC
  5
2103A
330
2091F
100
AcDbEntity
  8
MOYA
100
AcDbCircle
 10
7005.911049459308
 20
3950.018059413624
 30
0.0
 40
4.000000000003478
100
AcDbArc
 50
357.1290390148601
 51
87.12903901486008
  0
LINE
  5
2103B
330
2091F
100
AcDbEntity
  8
MOYA
100
AcDbLine
 10
7006.11139648428
 20
3954.013038896625
 30
0.0
 11
6981.342523689687
 21
3955.255190451456
 31
0.0
  0
ARC
  5
2103C
330
2091F
100
AcDbEntity
  8
MOYA
100
AcDbCircle
 10
6981.142176664715
 20
3951.260210968458
 30
0.0
 40
3.999999999999845
100
AcDbArc
 50
87.12903901485747
 51
177.1290390148575
  0
LINE
  5
2103D
330
2091F
100
AcDbEntity
  8
MOYA
100
AcDbLine
 10
6977.147197181714
 20
3951.46055799343
 30
0.0
 11
6973.951662133399
 21
3887.740635239593
 31
0.0
  0
ARC
  5
2103E
330
2091F
100
AcDbEntity
  8
MOYA
100
AcDbCircle
 10
6977.946641616395
 20
3887.540288214621
 30
0.0
 40
3.999999999999845
100
AcDbArc
 50
177.1290390148575
 51
267.1290390148574
  0
LINE
  5
2103F
330
2091F
100
AcDbEntity
  8
HARI
100
AcDbLine
 10
6960.925965743506
 20
3807.692579463342
 30
0.0
 11
7539.698618343044
 21
3778.66730422066
 31
0.0
  0
LINE
  5
21040
330
2091F
100
AcDbEntity
  8
HARI
100
AcDbLine
 10
8232.181891322776
 20
3743.939475410996
 30
0.0
 11
8279.269195133272
 21
3741.57806122289
 31
0.0
  0
LINE
  5
21041
330
2091F
100
AcDbEntity
  8
HARI
100
AcDbLine
 10
8279.269195133272
 20
3741.57806122289
 30
0.0
 11
8283.025701851478
 21
3816.483926529129
 31
0.0
  0
LINE
  5
21042
330
2091F
100
AcDbEntity
  8
HARI
100
AcDbLine
 10
8283.025701851478
 20
3816.483926529129
 30
0.0
 11
6964.682472461714
 21
3882.59844476958
 31
0.0
  0
LINE
  5
21043
330
2091F
100
AcDbEntity
  8
HARI
100
AcDbLine
 10
6964.682472461714
 20
3882.59844476958
 30
0.0
 11
6960.925965743506
 21
3807.692579463342
 31
0.0
  0
LINE
  5
21044
330
2091F
100
AcDbEntity
  8
HARI
100
AcDbLine
 10
3442.092219879997
 20
3743.939475410999
 30
0.0
 11
3489.179523690491
 21
3741.578061222892
 31
0.0
  0
LINE
  5
21045
330
2091F
100
AcDbEntity
  8
HARI
100
AcDbLine
 10
2852.479668587497
 20
3773.508368327656
 30
0.0
 11
3359.196395607764
 21
3748.096676179148
 31
0.0
  0
LINE
  5
21046
330
2091F
100
AcDbEntity
  8
HARI
100
AcDbLine
 10
2174.277254454606
 20
3876.306352083854
 30
0.0
 11
2170.836294300728
 21
3807.692579463342
 31
0.0
  0
LINE
  5
21047
330
2091F
100
AcDbEntity
  8
HARI
100
AcDbLine
 10
2170.836294300728
 20
3807.692579463342
 30
0.0
 11
2749.608946900265
 21
3778.66730422066
 31
0.0
  0
ARC
  5
21048
330
2091F
100
AcDbEntity
  8
HATCH
100
AcDbCircle
 10
3970.028708553926
 20
1761.805063765603
 30
0.0
 40
2.5
100
AcDbArc
 50
180.0
 51
0.0
  0
ARC
  5
21049
330
2091F
100
AcDbEntity
  8
HATCH
100
AcDbCircle
 10
3970.028708553926
 20
1761.805063765603
 30
0.0
 40
2.5
100
AcDbArc
 50
0.0
 51
180.0
  0
ARC
  5
2104A
330
2091F
100
AcDbEntity
  8
HATCH
100
AcDbCircle
 10
3820.028708553927
 20
1761.805063765603
 30
0.0
 40
2.5
100
AcDbArc
 50
180.0
 51
0.0
  0
ARC
  5
2104B
330
2091F
100
AcDbEntity
  8
HATCH
100
AcDbCircle
 10
3820.028708553927
 20
1761.805063765603
 30
0.0
 40
2.5
100
AcDbArc
 50
0.0
 51
180.0
  0
ARC
  5
2104C
330
2091F
100
AcDbEntity
  8
HATCH
100
AcDbCircle
 10
3670.028708553926
 20
1761.805063765603
 30
0.0
 40
2.5
100
AcDbArc
 50
180.0
 51
0.0
  0
ARC
  5
2104D
330
2091F
100
AcDbEntity
  8
HATCH
100
AcDbCircle
 10
3670.028708553926
 20
1761.805063765603
 30
0.0
 40
2.5
100
AcDbArc
 50
0.0
 51
180.0
  0
ARC
  5
2104E
330
2091F
100
AcDbEntity
  8
HATCH
100
AcDbCircle
 10
3520.028708553927
 20
1761.805063765603
 30
0.0
 40
2.5
100
AcDbArc
 50
180.0
 51
0.0
  0
ARC
  5
2104F
330
2091F
100
AcDbEntity
  8
HATCH
100
AcDbCircle
 10
3520.028708553927
 20
1761.805063765603
 30
0.0
 40
2.5
100
AcDbArc
 50
0.0
 51
180.0
  0
ARC
  5
21050
330
2091F
100
AcDbEntity
  8
HATCH
100
AcDbCircle
 10
3370.028708553927
 20
1761.805063765603
 30
0.0
 40
2.5
100
AcDbArc
 50
180.0
 51
0.0
  0
ARC
  5
21051
330
2091F
100
AcDbEntity
  8
HATCH
100
AcDbCircle
 10
3370.028708553927
 20
1761.805063765603
 30
0.0
 40
2.5
100
AcDbArc
 50
0.0
 51
180.0
  0
ARC
  5
21052
330
2091F
100
AcDbEntity
  8
HATCH
100
AcDbCircle
 10
3220.028708553927
 20
1761.805063765603
 30
0.0
 40
2.5
100
AcDbArc
 50
180.0
 51
0.0
  0
ARC
  5
21053
330
2091F
100
AcDbEntity
  8
HATCH
100
AcDbCircle
 10
3220.028708553927
 20
1761.805063765603
 30
0.0
 40
2.5
100
AcDbArc
 50
0.0
 51
180.0
  0
ARC
  5
21054
330
2091F
100
AcDbEntity
  8
HATCH
100
AcDbCircle
 10
3070.028708553927
 20
1761.805063765603
 30
0.0
 40
2.5
100
AcDbArc
 50
180.0
 51
0.0
  0
ARC
  5
21055
330
2091F
100
AcDbEntity
  8
HATCH
100
AcDbCircle
 10
3070.028708553927
 20
1761.805063765603
 30
0.0
 40
2.5
100
AcDbArc
 50
0.0
 51
180.0
  0
ARC
  5
21056
330
2091F
100
AcDbEntity
  8
HATCH
100
AcDbCircle
 10
2920.028708553927
 20
1761.805063765603
 30
0.0
 40
2.5
100
AcDbArc
 50
180.0
 51
0.0
  0
ARC
  5
21057
330
2091F
100
AcDbEntity
  8
HATCH
100
AcDbCircle
 10
2920.028708553927
 20
1761.805063765603
 30
0.0
 40
2.5
100
AcDbArc
 50
0.0
 51
180.0
  0
ARC
  5
21058
330
2091F
100
AcDbEntity
  8
HATCH
100
AcDbCircle
 10
2770.028708553927
 20
1761.805063765603
 30
0.0
 40
2.5
100
AcDbArc
 50
180.0
 51
0.0
  0
ARC
  5
21059
330
2091F
100
AcDbEntity
  8
HATCH
100
AcDbCircle
 10
2770.028708553927
 20
1761.805063765603
 30
0.0
 40
2.5
100
AcDbArc
 50
0.0
 51
180.0
  0
ARC
  5
2105A
330
2091F
100
AcDbEntity
  8
HATCH
100
AcDbCircle
 10
2620.028708553927
 20
1761.805063765603
 30
0.0
 40
2.5
100
AcDbArc
 50
180.0
 51
0.0
  0
ARC
  5
2105B
330
2091F
100
AcDbEntity
  8
HATCH
100
AcDbCircle
 10
2620.028708553927
 20
1761.805063765603
 30
0.0
 40
2.5
100
AcDbArc
 50
0.0
 51
180.0
  0
ARC
  5
2105C
330
2091F
100
AcDbEntity
  8
HATCH
100
AcDbCircle
 10
2470.028708553927
 20
1761.805063765603
 30
0.0
 40
2.5
100
AcDbArc
 50
180.0
 51
0.0
  0
ARC
  5
2105D
330
2091F
100
AcDbEntity
  8
HATCH
100
AcDbCircle
 10
2470.028708553927
 20
1761.805063765603
 30
0.0
 40
2.5
100
AcDbArc
 50
0.0
 51
180.0
  0
ARC
  5
2105E
330
2091F
100
AcDbEntity
  8
HATCH
100
AcDbCircle
 10
2320.028708553927
 20
1761.805063765603
 30
0.0
 40
2.5
100
AcDbArc
 50
180.0
 51
0.0
  0
ARC
  5
2105F
330
2091F
100
AcDbEntity
  8
HATCH
100
AcDbCircle
 10
2320.028708553927
 20
1761.805063765603
 30
0.0
 40
2.5
100
AcDbArc
 50
0.0
 51
180.0
  0
ARC
  5
21060
330
2091F
100
AcDbEntity
  8
HATCH
100
AcDbCircle
 10
2170.028708553926
 20
1761.805063765603
 30
0.0
 40
2.5
100
AcDbArc
 50
180.0
 51
0.0
  0
ARC
  5
21061
330
2091F
100
AcDbEntity
  8
HATCH
100
AcDbCircle
 10
2170.028708553926
 20
1761.805063765603
 30
0.0
 40
2.5
100
AcDbArc
 50
0.0
 51
180.0
  0
ARC
  5
21062
330
2091F
100
AcDbEntity
  8
HATCH
100
AcDbCircle
 10
2020.028708553926
 20
1761.805063765603
 30
0.0
 40
2.5
100
AcDbArc
 50
180.0
 51
0.0
  0
ARC
  5
21063
330
2091F
100
AcDbEntity
  8
HATCH
100
AcDbCircle
 10
2020.028708553926
 20
1761.805063765603
 30
0.0
 40
2.5
100
AcDbArc
 50
0.0
 51
180.0
  0
ARC
  5
21064
330
2091F
100
AcDbEntity
  8
HATCH
100
AcDbCircle
 10
1870.028708553926
 20
1761.805063765603
 30
0.0
 40
2.5
100
AcDbArc
 50
180.0
 51
0.0
  0
ARC
  5
21065
330
2091F
100
AcDbEntity
  8
HATCH
100
AcDbCircle
 10
1870.028708553926
 20
1761.805063765603
 30
0.0
 40
2.5
100
AcDbArc
 50
0.0
 51
180.0
  0
ARC
  5
21066
330
2091F
100
AcDbEntity
  8
HATCH
100
AcDbCircle
 10
1720.028708553925
 20
1761.805063765603
 30
0.0
 40
2.5
100
AcDbArc
 50
180.0
 51
0.0
  0
ARC
  5
21067
330
2091F
100
AcDbEntity
  8
HATCH
100
AcDbCircle
 10
1720.028708553925
 20
1761.805063765603
 30
0.0
 40
2.5
100
AcDbArc
 50
0.0
 51
180.0
  0
ARC
  5
21068
330
2091F
100
AcDbEntity
  8
HATCH
100
AcDbCircle
 10
1570.028708553926
 20
1761.805063765603
 30
0.0
 40
2.5
100
AcDbArc
 50
180.0
 51
0.0
  0
ARC
  5
21069
330
2091F
100
AcDbEntity
  8
HATCH
100
AcDbCircle
 10
1570.028708553926
 20
1761.805063765603
 30
0.0
 40
2.5
100
AcDbArc
 50
0.0
 51
180.0
  0
ARC
  5
2106A
330
2091F
100
AcDbEntity
  8
HATCH
100
AcDbCircle
 10
1420.028708553926
 20
1761.805063765603
 30
0.0
 40
2.5
100
AcDbArc
 50
180.0
 51
0.0
  0
ARC
  5
2106B
330
2091F
100
AcDbEntity
  8
HATCH
100
AcDbCircle
 10
1420.028708553926
 20
1761.805063765603
 30
0.0
 40
2.5
100
AcDbArc
 50
0.0
 51
180.0
  0
ENDSEC
  0
SECTION
  2
OBJECTS
  0
DICTIONARY
  5
2090D
330
0
100
AcDbDictionary
281
     1
  3
ACAD_GROUP
350
2090E
  3
ACAD_LAYOUT
350
2091A
  3
ACAD_MLINESTYLE
350
20917
  3
ACAD_PLOTSETTINGS
350
20919
  3
ACAD_PLOTSTYLENAME
350
2090F
  3
AcDbVariableDictionary
350
2106C
  0
DICTIONARY
  5
2090E
102
{ACAD_REACTORS
330
2090D
102
}
330
2090D
100
AcDbDictionary
281
     1
  0
DICTIONARY
  5
2091A
102
{ACAD_REACTORS
330
2090D
102
}
330
2090D
100
AcDbDictionary
281
     1
  3
Model
350
20922
  3
ﾚｲｱｳﾄ1
350
2091E
  0
DICTIONARY
  5
20917
102
{ACAD_REACTORS
330
2090D
102
}
330
2090D
100
AcDbDictionary
281
     1
  3
Standard
350
20918
  0
DICTIONARY
  5
20919
102
{ACAD_REACTORS
330
2090D
102
}
330
2090D
100
AcDbDictionary
281
     1
  0
ACDBDICTIONARYWDFLT
  5
2090F
102
{ACAD_REACTORS
330
2090D
102
}
330
2090D
100
AcDbDictionary
281
     1
  3
Normal
350
20910
100
AcDbDictionaryWithDefault
340
20910
  0
DICTIONARY
  5
2106C
102
{ACAD_REACTORS
330
2090D
102
}
330
2090D
100
AcDbDictionary
281
     1
  3
DIMASSOC
350
2106D
  0
LAYOUT
  5
20922
102
{ACAD_REACTORS
330
2091A
102
}
330
2091A
100
AcDbPlotSettings
  1

  2
Muratec V-1200 Is@Web Printer
  4

  6

 40
0.0
 41
0.0
 42
0.0
 43
0.0
 44
0.0
 45
0.0
 46
0.0
 47
0.0
 48
0.0
 49
0.0
140
0.0
141
0.0
142
1.0
143
1.0
 70
  1712
 72
     0
 73
     0
 74
     0
  7

 75
     0
147
1.0
148
0.0
149
0.0
100
AcDbLayout
  1
Model
 70
     1
 71
     0
 10
0.0
 20
0.0
 11
12.0
 21
9.0
 12
0.0
 22
0.0
 32
0.0
 14
0.0
 24
0.0
 34
0.0
 15
0.0
 25
0.0
 35
0.0
146
0.0
 13
0.0
 23
0.0
 33
0.0
 16
1.0
 26
0.0
 36
0.0
 17
0.0
 27
1.0
 37
0.0
 76
     0
330
2091F
  0
LAYOUT
  5
2091E
102
{ACAD_REACTORS
330
2091A
102
}
330
2091A
100
AcDbPlotSettings
  1

  2
Muratec V-1200 Is@Web Printer
  4

  6

 40
0.0
 41
0.0
 42
0.0
 43
0.0
 44
0.0
 45
0.0
 46
0.0
 47
0.0
 48
0.0
 49
0.0
140
0.0
141
0.0
142
1.0
143
1.0
 70
   688
 72
     0
 73
     0
 74
     5
  7

 75
    16
147
1.0
148
0.0
149
0.0
100
AcDbLayout
  1
ﾚｲｱｳﾄ1
 70
     0
 71
     1
 10
0.0
 20
0.0
 11
12.0
 21
9.0
 12
0.0
 22
0.0
 32
0.0
 14
1.000000000000000E+20
 24
1.000000000000000E+20
 34
1.000000000000000E+20
 15
-1.000000000000000E+20
 25
-1.000000000000000E+20
 35
-1.000000000000000E+20
146
0.0
 13
0.0
 23
0.0
 33
0.0
 16
1.0
 26
0.0
 36
0.0
 17
0.0
 27
1.0
 37
0.0
 76
     0
330
2091B
  0
MLINESTYLE
  5
20918
102
{ACAD_REACTORS
330
20917
102
}
330
20917
100
AcDbMlineStyle
  2
STANDARD
 70
     0
  3

 62
   256
 51
90.0
 52
90.0
 71
     2
 49
0.5
 62
   256
  6
BYLAYER
 49
-0.5
 62
   256
  6
BYLAYER
  0
ACDBPLACEHOLDER
  5
20910
102
{ACAD_REACTORS
330
2090F
102
}
330
2090F
  0
DICTIONARYVAR
  5
2106D
102
{ACAD_REACTORS
330
2106C
102
}
330
2106C
100
DictionaryVariables
280
     0
  1
1
  0
ENDSEC
  0
EOF
