  0
SECTION
  2
HEADER
  9
$ACADVER
  1
AC1015
  9
$ACADMAINTVER
 70
    13
  9
$DWGCODEPAGE
  3
ANSI_932
  9
$INSBASE
 10
267.0
 20
194.8999999999998
 30
0.0
  9
$EXTMIN
 10
325.4974662390304
 20
122.7681178119601
 30
-0.000000000000013
  9
$EXTMAX
 10
12286.99954069103
 20
8431.707478684501
 30
0.0000000000000023
  9
$LIMMIN
 10
0.0
 20
0.0
  9
$LIMMAX
 10
12600.0
 20
8910.0
  9
$ORTHOMODE
 70
     0
  9
$REGENMODE
 70
     1
  9
$FILLMODE
 70
     1
  9
$QTEXTMODE
 70
     0
  9
$MIRRTEXT
 70
     0
  9
$LTSCALE
 40
30.0
  9
$ATTMODE
 70
     1
  9
$TEXTSIZE
 40
0.2
  9
$TRACEWID
 40
0.05
  9
$TEXTSTYLE
  7
00
  9
$CLAYER
  8
SUNPOU
  9
$CELTYPE
  6
ByLayer
  9
$CECOLOR
 62
   256
  9
$CELTSCALE
 40
1.0
  9
$DISPSILH
 70
     0
  9
$DIMSCALE
 40
30.0
  9
$DIMASZ
 40
0.5
  9
$DIMEXO
 40
1.0
  9
$DIMDLI
 40
7.0
  9
$DIMRND
 40
0.0
  9
$DIMDLE
 40
3.0
  9
$DIMEXE
 40
1.5
  9
$DIMTP
 40
0.0
  9
$DIMTM
 40
0.0
  9
$DIMTXT
 40
3.0
  9
$DIMCEN
 40
0.0
  9
$DIMTSZ
 40
0.0
  9
$DIMTOL
 70
     0
  9
$DIMLIM
 70
     0
  9
$DIMTIH
 70
     0
  9
$DIMTOH
 70
     0
  9
$DIMSE1
 70
     0
  9
$DIMSE2
 70
     0
  9
$DIMTAD
 70
     1
  9
$DIMZIN
 70
     8
  9
$DIMBLK
  1
DOT
  9
$DIMASO
 70
     1
  9
$DIMSHO
 70
     0
  9
$DIMPOST
  1

  9
$DIMAPOST
  1

  9
$DIMALT
 70
     0
  9
$DIMALTD
 70
     2
  9
$DIMALTF
 40
25.4
  9
$DIMLFAC
 40
1.0
  9
$DIMTOFL
 70
     1
  9
$DIMTVP
 40
0.0
  9
$DIMTIX
 70
     0
  9
$DIMSOXD
 70
     0
  9
$DIMSAH
 70
     1
  9
$DIMBLK1
  1
DOT
  9
$DIMBLK2
  1
DOT
  9
$DIMSTYLE
  2
SUNPOU
  9
$DIMCLRD
 70
   256
  9
$DIMCLRE
 70
   256
  9
$DIMCLRT
 70
   256
  9
$DIMTFAC
 40
1.0
  9
$DIMGAP
 40
1.5
  9
$DIMJUST
 70
     0
  9
$DIMSD1
 70
     0
  9
$DIMSD2
 70
     0
  9
$DIMTOLJ
 70
     1
  9
$DIMTZIN
 70
     0
  9
$DIMALTZ
 70
     0
  9
$DIMALTTZ
 70
     0
  9
$DIMUPT
 70
     0
  9
$DIMDEC
 70
     4
  9
$DIMTDEC
 70
     4
  9
$DIMALTU
 70
     2
  9
$DIMALTTD
 70
     2
  9
$DIMTXSTY
  7
STANDARD
  9
$DIMAUNIT
 70
     0
  9
$DIMADEC
 70
     0
  9
$DIMALTRND
 40
0.0
  9
$DIMAZIN
 70
     0
  9
$DIMDSEP
 70
    46
  9
$DIMATFIT
 70
     3
  9
$DIMFRAC
 70
     0
  9
$DIMLDRBLK
  1
DOT
  9
$DIMLUNIT
 70
     2
  9
$DIMLWD
 70
    -2
  9
$DIMLWE
 70
    -2
  9
$DIMTMOVE
 70
     0
  9
$LUNITS
 70
     2
  9
$LUPREC
 70
     2
  9
$SKETCHINC
 40
0.1
  9
$FILLETRAD
 40
5.0
  9
$AUNITS
 70
     0
  9
$AUPREC
 70
     0
  9
$MENU
  1
A:\TIGER\MENU\TIGER
  9
$ELEVATION
 40
0.0
  9
$PELEVATION
 40
0.0
  9
$THICKNESS
 40
0.0
  9
$LIMCHECK
 70
     0
  9
$CHAMFERA
 40
0.0
  9
$CHAMFERB
 40
0.0
  9
$CHAMFERC
 40
0.0
  9
$CHAMFERD
 40
0.0
  9
$SKPOLY
 70
     0
  9
$TDCREATE
 40
2450266.571064815
  9
$TDUCREATE
 40
2450266.196064815
  9
$TDUPDATE
 40
2456330.593881828
  9
$TDUUPDATE
 40
2456330.218881829
  9
$TDINDWG
 40
0.2599180556
  9
$TDUSRTIMER
 40
0.2599178704
  9
$USRTIMER
 70
     1
  9
$ANGBASE
 50
0.0
  9
$ANGDIR
 70
     0
  9
$PDMODE
 70
     0
  9
$PDSIZE
 40
0.0
  9
$PLINEWID
 40
0.0
  9
$SPLFRAME
 70
     0
  9
$SPLINETYPE
 70
     6
  9
$SPLINESEGS
 70
     8
  9
$HANDSEED
  5
2A9B8
  9
$SURFTAB1
 70
     6
  9
$SURFTAB2
 70
     6
  9
$SURFTYPE
 70
     6
  9
$SURFU
 70
     6
  9
$SURFV
 70
     6
  9
$UCSBASE
  2

  9
$UCSNAME
  2

  9
$UCSORG
 10
0.0
 20
0.0
 30
0.0
  9
$UCSXDIR
 10
1.0
 20
0.0
 30
0.0
  9
$UCSYDIR
 10
0.0
 20
1.0
 30
0.0
  9
$UCSORTHOREF
  2

  9
$UCSORTHOVIEW
 70
     0
  9
$UCSORGTOP
 10
0.0
 20
0.0
 30
0.0
  9
$UCSORGBOTTOM
 10
0.0
 20
0.0
 30
0.0
  9
$UCSORGLEFT
 10
0.0
 20
0.0
 30
0.0
  9
$UCSORGRIGHT
 10
0.0
 20
0.0
 30
0.0
  9
$UCSORGFRONT
 10
0.0
 20
0.0
 30
0.0
  9
$UCSORGBACK
 10
0.0
 20
0.0
 30
0.0
  9
$PUCSBASE
  2

  9
$PUCSNAME
  2

  9
$PUCSORG
 10
0.0
 20
0.0
 30
0.0
  9
$PUCSXDIR
 10
1.0
 20
0.0
 30
0.0
  9
$PUCSYDIR
 10
0.0
 20
1.0
 30
0.0
  9
$PUCSORTHOREF
  2

  9
$PUCSORTHOVIEW
 70
     0
  9
$PUCSORGTOP
 10
0.0
 20
0.0
 30
0.0
  9
$PUCSORGBOTTOM
 10
0.0
 20
0.0
 30
0.0
  9
$PUCSORGLEFT
 10
0.0
 20
0.0
 30
0.0
  9
$PUCSORGRIGHT
 10
0.0
 20
0.0
 30
0.0
  9
$PUCSORGFRONT
 10
0.0
 20
0.0
 30
0.0
  9
$PUCSORGBACK
 10
0.0
 20
0.0
 30
0.0
  9
$USERI1
 70
     3
  9
$USERI2
 70
     0
  9
$USERI3
 70
     0
  9
$USERI4
 70
     0
  9
$USERI5
 70
  1103
  9
$USERR1
 40
0.0
  9
$USERR2
 40
1.0
  9
$USERR3
 40
0.0
  9
$USERR4
 40
0.0
  9
$USERR5
 40
0.0
  9
$WORLDVIEW
 70
     1
  9
$SHADEDGE
 70
     3
  9
$SHADEDIF
 70
    70
  9
$TILEMODE
 70
     1
  9
$MAXACTVP
 70
    16
  9
$PINSBASE
 10
0.0
 20
0.0
 30
0.0
  9
$PLIMCHECK
 70
     0
  9
$PEXTMIN
 10
1.000000000000000E+20
 20
1.000000000000000E+20
 30
1.000000000000000E+20
  9
$PEXTMAX
 10
-1.000000000000000E+20
 20
-1.000000000000000E+20
 30
-1.000000000000000E+20
  9
$PLIMMIN
 10
0.0
 20
0.0
  9
$PLIMMAX
 10
12.0
 20
9.0
  9
$UNITMODE
 70
     0
  9
$VISRETAIN
 70
     0
  9
$PLINEGEN
 70
     1
  9
$PSLTSCALE
 70
     0
  9
$TREEDEPTH
 70
  3020
  9
$CMLSTYLE
  2
Standard
  9
$CMLJUST
 70
     0
  9
$CMLSCALE
 40
1.0
  9
$PROXYGRAPHICS
 70
     1
  9
$MEASUREMENT
 70
     0
  9
$CELWEIGHT
370
    -1
  9
$ENDCAPS
280
     0
  9
$JOINSTYLE
280
     0
  9
$LWDISPLAY
290
     0
  9
$INSUNITS
 70
     0
  9
$HYPERLINKBASE
  1

  9
$STYLESHEET
  1

  9
$XEDIT
290
     1
  9
$CEPSNTYPE
380
     0
  9
$PSTYLEMODE
290
     1
  9
$FINGERPRINTGUID
  2
{A415DF03-3E8E-4C01-8583-3B6BA854C2C7}
  9
$VERSIONGUID
  2
{51A99990-B433-4A24-81B2-8AA5F462A34F}
  9
$EXTNAMES
290
     1
  9
$PSVPSCALE
 40
0.0
  9
$OLESTARTUP
290
     0
  0
ENDSEC
  0
SECTION
  2
CLASSES
  0
CLASS
  1
ACDBDICTIONARYWDFLT
  2
AcDbDictionaryWithDefault
  3
AutoCAD 2000
 90
        0
280
     0
281
     0
  0
CLASS
  1
ACDBPLACEHOLDER
  2
AcDbPlaceHolder
  3
AutoCAD 2000
 90
        0
280
     0
281
     0
  0
CLASS
  1
LAYOUT
  2
AcDbLayout
  3
AutoCAD 2000
 90
        0
280
     0
281
     0
  0
CLASS
  1
DICTIONARYVAR
  2
AcDbDictionaryVar
  3
AutoCAD 2000
 90
        0
280
     0
281
     0
  0
ENDSEC
  0
SECTION
  2
TABLES
  0
TABLE
  2
VPORT
  5
2A5E4
330
0
100
AcDbSymbolTable
 70
     2
  0
VPORT
  5
2A9B7
330
2A5E4
100
AcDbSymbolTableRecord
100
AcDbViewportTableRecord
  2
*Active
 70
     0
 10
0.0
 20
0.0
 11
1.0
 21
1.0
 12
6306.248503465031
 22
4277.23779824823
 13
0.0
 23
0.0
 14
1.0
 24
1.0
 15
0.0
 25
0.0
 16
0.0
 26
0.0
 36
1.0
 17
0.0
 27
0.0
 37
0.0
 40
8372.629037979738
 41
1.527918781725888
 42
50.0
 43
0.0
 44
0.0
 50
0.0
 51
0.0
 71
     0
 72
 10000
 73
     1
 74
     0
 75
     0
 76
     0
 77
     0
 78
     0
281
     0
 65
     1
110
0.0
120
0.0
130
0.0
111
1.0
121
0.0
131
0.0
112
0.0
122
1.0
132
0.0
 79
     0
146
0.0
  0
ENDTAB
  0
TABLE
  2
LTYPE
  5
2A5E1
330
0
100
AcDbSymbolTable
 70
     4
  0
LTYPE
  5
2A5EF
330
2A5E1
100
AcDbSymbolTableRecord
100
AcDbLinetypeTableRecord
  2
ByBlock
 70
     0
  3

 72
    65
 73
     0
 40
0.0
  0
LTYPE
  5
2A5F0
330
2A5E1
100
AcDbSymbolTableRecord
100
AcDbLinetypeTableRecord
  2
ByLayer
 70
     0
  3

 72
    65
 73
     0
 40
0.0
  0
LTYPE
  5
2A5F1
330
2A5E1
100
AcDbSymbolTableRecord
100
AcDbLinetypeTableRecord
  2
CONTINUOUS
 70
     0
  3
実線
 72
    65
 73
     0
 40
0.0
  0
LTYPE
  5
2A601
330
2A5E1
100
AcDbSymbolTableRecord
100
AcDbLinetypeTableRecord
  2
1PL-M
 70
     0
  3

 72
    65
 73
     4
 40
15.0
 49
12.0
 74
     0
 49
-1.0
 74
     0
 49
1.0
 74
     0
 49
-1.0
 74
     0
  0
LTYPE
  5
2A602
330
2A5E1
100
AcDbSymbolTableRecord
100
AcDbLinetypeTableRecord
  2
1PL-S
 70
     0
  3

 72
    65
 73
     4
 40
4.0
 49
2.5
 74
     0
 49
-0.5
 74
     0
 49
0.5
 74
     0
 49
-0.5
 74
     0
  0
LTYPE
  5
2A603
330
2A5E1
100
AcDbSymbolTableRecord
100
AcDbLinetypeTableRecord
  2
2PL-M
 70
     0
  3

 72
    65
 73
     6
 40
17.0
 49
12.0
 74
     0
 49
-1.0
 74
     0
 49
1.0
 74
     0
 49
-1.0
 74
     0
 49
1.0
 74
     0
 49
-1.0
 74
     0
  0
ENDTAB
  0
TABLE
  2
LAYER
  5
2A5DE
330
0
100
AcDbSymbolTable
 70
    17
  0
LAYER
  5
2A5EC
330
2A5DE
100
AcDbSymbolTableRecord
100
AcDbLayerTableRecord
  2
0
 70
     0
 62
     7
  6
CONTINUOUS
370
    -3
390
2A5EB
  0
LAYER
  5
2A5FE
330
2A5DE
100
AcDbSymbolTableRecord
100
AcDbLayerTableRecord
  2
SUNPOU
 70
     0
 62
     4
  6
CONTINUOUS
370
    -3
390
2A5EB
  0
LAYER
  5
2A604
330
2A5DE
100
AcDbSymbolTableRecord
100
AcDbLayerTableRecord
  2
U2
 70
     0
 62
     4
  6
CONTINUOUS
370
    -3
390
2A5EB
  0
LAYER
  5
2A605
330
2A5DE
100
AcDbSymbolTableRecord
100
AcDbLayerTableRecord
  2
U3
 70
     0
 62
     6
  6
CONTINUOUS
370
    -3
390
2A5EB
  0
LAYER
  5
2A606
330
2A5DE
100
AcDbSymbolTableRecord
100
AcDbLayerTableRecord
  2
HIKIDASHI
 70
     0
 62
     6
  6
CONTINUOUS
370
    -3
390
2A5EB
  0
LAYER
  5
2A607
330
2A5DE
100
AcDbSymbolTableRecord
100
AcDbLayerTableRecord
  2
1PL-S1
 70
     0
 62
     6
  6
1PL-S
370
    -3
390
2A5EB
  0
LAYER
  5
2A608
330
2A5DE
100
AcDbSymbolTableRecord
100
AcDbLayerTableRecord
  2
1PL-M1
 70
     0
 62
     6
  6
1PL-M
370
    -3
390
2A5EB
  0
LAYER
  5
2A609
330
2A5DE
100
AcDbSymbolTableRecord
100
AcDbLayerTableRecord
  2
2PL-M2
 70
     0
 62
     1
  6
2PL-M
370
    -3
390
2A5EB
  0
LAYER
  5
2A60A
330
2A5DE
100
AcDbSymbolTableRecord
100
AcDbLayerTableRecord
  2
KISO
 70
     0
 62
     2
  6
CONTINUOUS
370
    -3
390
2A5EB
  0
LAYER
  5
2A60B
330
2A5DE
100
AcDbSymbolTableRecord
100
AcDbLayerTableRecord
  2
HATCH
 70
     0
 62
     1
  6
CONTINUOUS
370
    -3
390
2A5EB
  0
LAYER
  5
2A60C
330
2A5DE
100
AcDbSymbolTableRecord
100
AcDbLayerTableRecord
  2
NAME
 70
     0
 62
    20
  6
CONTINUOUS
370
    -3
390
2A5EB
  0
LAYER
  5
2A60D
330
2A5DE
100
AcDbSymbolTableRecord
100
AcDbLayerTableRecord
  2
FILENAME
 70
     0
 62
     7
  6
CONTINUOUS
370
    -3
390
2A5EB
  0
LAYER
  5
2A60E
330
2A5DE
100
AcDbSymbolTableRecord
100
AcDbLayerTableRecord
  2
HASHIRA
 70
     0
 62
     3
  6
CONTINUOUS
370
    -3
390
2A5EB
  0
LAYER
  5
2A60F
330
2A5DE
100
AcDbSymbolTableRecord
100
AcDbLayerTableRecord
  2
YODOROGO
 70
     0
 62
   130
  6
CONTINUOUS
370
    -3
390
2A5EB
  0
LAYER
  5
2A610
330
2A5DE
100
AcDbSymbolTableRecord
100
AcDbLayerTableRecord
  2
WAKUSEN-01
 70
     0
 62
    50
  6
CONTINUOUS
370
    -3
390
2A5EB
  0
LAYER
  5
2A611
330
2A5DE
100
AcDbSymbolTableRecord
100
AcDbLayerTableRecord
  2
WAKUSEN-02
 70
     0
 62
   130
  6
CONTINUOUS
370
    -3
390
2A5EB
  0
LAYER
  5
2A612
330
2A5DE
100
AcDbSymbolTableRecord
100
AcDbLayerTableRecord
  2
WAKUMOJI-01
 70
     0
 62
   130
  6
CONTINUOUS
370
    -3
390
2A5EB
  0
ENDTAB
  0
TABLE
  2
STYLE
  5
2A5DF
330
0
100
AcDbSymbolTable
 70
     5
  0
STYLE
  5
2A5ED
330
2A5DF
100
AcDbSymbolTableRecord
100
AcDbTextStyleTableRecord
  2
STANDARD
 70
     0
 40
3.0
 41
1.0
 50
0.0
 71
     0
 42
0.2
  3
ROMANS
  4
EXTFONT
  0
STYLE
  5
2A5FF
330
2A5DF
100
AcDbSymbolTableRecord
100
AcDbTextStyleTableRecord
  2
00
 70
     0
 40
0.0
 41
0.6666666666666666
 50
0.0
 71
     0
 42
0.2
  3
ROMANS
  4
BIGFONT
  0
STYLE
  5
2A613
330
2A5DF
100
AcDbSymbolTableRecord
100
AcDbTextStyleTableRecord
  2
01
 70
     0
 40
3.0
 41
1.0
 50
0.0
 71
     0
 42
0.2
  3
ROMANS
  4
BIGFONT
  0
STYLE
  5
2A614
330
2A5DF
100
AcDbSymbolTableRecord
100
AcDbTextStyleTableRecord
  2
WAKUMOJI
 70
     0
 40
3.0
 41
1.0
 50
0.0
 71
     0
 42
3.0
  3
SIMPLEX
  4
BIGFONT
  0
STYLE
  5
2A615
330
2A5DF
100
AcDbSymbolTableRecord
100
AcDbTextStyleTableRecord
  2
FILENAME
 70
     0
 40
75.0
 41
1.0
 50
0.0
 71
     0
 42
75.0
  3
romans
  4
bigfont
  0
ENDTAB
  0
TABLE
  2
VIEW
  5
2A5E2
330
0
100
AcDbSymbolTable
 70
     0
  0
ENDTAB
  0
TABLE
  2
UCS
  5
2A5E3
330
0
100
AcDbSymbolTable
 70
     0
  0
ENDTAB
  0
TABLE
  2
APPID
  5
2A5E5
330
0
100
AcDbSymbolTable
 70
     5
  0
APPID
  5
2A5EE
330
2A5E5
100
AcDbSymbolTableRecord
100
AcDbRegAppTableRecord
  2
ACAD
 70
     0
  0
APPID
  5
2A616
330
2A5E5
100
AcDbSymbolTableRecord
100
AcDbRegAppTableRecord
  2
AUTOCAD_POSTSCRIPT_FIGURE
 70
     0
  0
APPID
  5
2A617
330
2A5E5
100
AcDbSymbolTableRecord
100
AcDbRegAppTableRecord
  2
ACAD_PSEXT
 70
     0
  0
APPID
  5
2A618
330
2A5E5
100
AcDbSymbolTableRecord
100
AcDbRegAppTableRecord
  2
ACAD_EXEMPT_FROM_CAD_STANDARDS
 70
     0
  0
APPID
  5
2A619
330
2A5E5
100
AcDbSymbolTableRecord
100
AcDbRegAppTableRecord
  2
ACAD_MLEADERVER
 70
     0
  0
ENDTAB
  0
TABLE
  2
DIMSTYLE
  5
2A5E6
330
0
100
AcDbSymbolTable
 70
     1
100
AcDbDimStyleTable
 71
     0
  0
DIMSTYLE
105
2A61A
330
2A5E6
100
AcDbSymbolTableRecord
100
AcDbDimStyleTableRecord
  2
SUNPOU
 70
     0
 40
30.0
 41
0.5
 42
1.0
 43
7.0
 44
1.5
 46
3.0
 73
     0
 74
     0
 77
     1
 78
     8
140
3.0
141
0.0
147
1.5
172
     1
173
     1
176
   256
177
   256
178
   256
271
     2
272
     2
279
     2
284
     8
285
     8
286
     8
340
2A5FF
  0
ENDTAB
  0
TABLE
  2
BLOCK_RECORD
  5
2A5DD
330
0
100
AcDbSymbolTable
 70
    12
  0
BLOCK_RECORD
  5
2A5FA
330
2A5DD
100
AcDbSymbolTableRecord
100
AcDbBlockTableRecord
  2
*Model_Space
340
2A5FD
  0
BLOCK_RECORD
  5
2A5F6
330
2A5DD
100
AcDbSymbolTableRecord
100
AcDbBlockTableRecord
  2
*Paper_Space
340
2A5F9
  0
BLOCK_RECORD
  5
2A61F
330
2A5DD
100
AcDbSymbolTableRecord
100
AcDbBlockTableRecord
  2
$MODEL_SPACE
340
0
  0
BLOCK_RECORD
  5
2A622
330
2A5DD
100
AcDbSymbolTableRecord
100
AcDbBlockTableRecord
  2
$PAPER_SPACE
340
0
  0
BLOCK_RECORD
  5
2A625
330
2A5DD
100
AcDbSymbolTableRecord
100
AcDbBlockTableRecord
  2
DOT
340
0
  0
BLOCK_RECORD
  5
2A62D
330
2A5DD
100
AcDbSymbolTableRecord
100
AcDbBlockTableRecord
  2
*U3
340
0
  0
BLOCK_RECORD
  5
2A631
330
2A5DD
100
AcDbSymbolTableRecord
100
AcDbBlockTableRecord
  2
*U4
340
0
  0
BLOCK_RECORD
  5
2A635
330
2A5DD
100
AcDbSymbolTableRecord
100
AcDbBlockTableRecord
  2
*U5
340
0
  0
BLOCK_RECORD
  5
2A639
330
2A5DD
100
AcDbSymbolTableRecord
100
AcDbBlockTableRecord
  2
*U6
340
0
  0
BLOCK_RECORD
  5
2A63D
330
2A5DD
100
AcDbSymbolTableRecord
100
AcDbBlockTableRecord
  2
*U7
340
0
  0
BLOCK_RECORD
  5
2A641
330
2A5DD
100
AcDbSymbolTableRecord
100
AcDbBlockTableRecord
  2
*U8
340
0
  0
BLOCK_RECORD
  5
2A645
330
2A5DD
100
AcDbSymbolTableRecord
100
AcDbBlockTableRecord
  2
*U9
340
0
  0
BLOCK_RECORD
  5
2A649
330
2A5DD
100
AcDbSymbolTableRecord
100
AcDbBlockTableRecord
  2
*U10
340
0
  0
ENDTAB
  0
ENDSEC
  0
SECTION
  2
BLOCKS
  0
BLOCK
  5
2A5FB
330
2A5FA
100
AcDbEntity
  8
0
100
AcDbBlockBegin
  2
*Model_Space
 70
     0
 10
0.0
 20
0.0
 30
0.0
  3
*Model_Space
  1

  0
ENDBLK
  5
2A5FC
330
2A5FA
100
AcDbEntity
  8
0
100
AcDbBlockEnd
  0
BLOCK
  5
2A5F7
330
2A5F6
100
AcDbEntity
 67
     1
  8
0
100
AcDbBlockBegin
  2
*Paper_Space
 70
     0
 10
0.0
 20
0.0
 30
0.0
  3
*Paper_Space
  1

  0
ENDBLK
  5
2A5F8
330
2A5F6
100
AcDbEntity
 67
     1
  8
0
100
AcDbBlockEnd
  0
BLOCK
  5
2A620
330
2A61F
100
AcDbEntity
  8
0
100
AcDbBlockBegin
  2
$MODEL_SPACE
 70
     0
 10
0.0
 20
0.0
 30
0.0
  3
$MODEL_SPACE
  1

  0
ENDBLK
  5
2A621
330
2A61F
100
AcDbEntity
  8
0
100
AcDbBlockEnd
  0
BLOCK
  5
2A623
330
2A622
100
AcDbEntity
  8
0
100
AcDbBlockBegin
  2
$PAPER_SPACE
 70
     0
 10
0.0
 20
0.0
 30
0.0
  3
$PAPER_SPACE
  1

  0
ENDBLK
  5
2A624
330
2A622
100
AcDbEntity
  8
0
100
AcDbBlockEnd
  0
BLOCK
  5
2A626
330
2A625
100
AcDbEntity
  8
0
100
AcDbBlockBegin
  2
DOT
 70
     0
 10
0.0
 20
0.0
 30
0.0
  3
DOT
  1

  0
LWPOLYLINE
  5
2A627
330
2A625
100
AcDbEntity
  8
0
  6
ByBlock
 62
     0
100
AcDbPolyline
 90
        2
 70
     1
 43
0.75
 10
-0.375
 20
0.0
 42
1.0
 10
0.375
 20
0.0
 42
1.0
  0
LINE
  5
2A62B
330
2A625
100
AcDbEntity
  8
0
  6
ByBlock
 62
     0
100
AcDbLine
 10
-0.75
 20
0.0
 30
0.0
 11
-1.5
 21
0.0
 31
0.0
  0
ENDBLK
  5
2A62C
330
2A625
100
AcDbEntity
  8
0
100
AcDbBlockEnd
  0
BLOCK
  5
2A62E
330
2A62D
100
AcDbEntity
  8
0
100
AcDbBlockBegin
  2
*U3
 70
     1
 10
0.0
 20
0.0
 30
0.0
  3
*U3
  1

  0
TEXT
  5
2A62F
330
2A62D
100
AcDbEntity
  8
SUNPOU
100
AcDbText
 10
4116.813442020471
 20
4661.08385078625
 30
0.0
 40
90.0
  1
350
 41
0.6666666666666666
  7
00
100
AcDbText
  0
ENDBLK
  5
2A630
330
2A62D
100
AcDbEntity
  8
0
100
AcDbBlockEnd
  0
BLOCK
  5
2A632
330
2A631
100
AcDbEntity
  8
0
100
AcDbBlockBegin
  2
*U4
 70
     1
 10
0.0
 20
0.0
 30
0.0
  3
*U4
  1

  0
TEXT
  5
2A633
330
2A631
100
AcDbEntity
  8
SUNPOU
100
AcDbText
 10
6013.242013449044
 20
4451.08385078625
 30
0.0
 40
90.0
  1
4200
 41
0.6666666666666666
  7
00
100
AcDbText
  0
ENDBLK
  5
2A634
330
2A631
100
AcDbEntity
  8
0
100
AcDbBlockEnd
  0
BLOCK
  5
2A636
330
2A635
100
AcDbEntity
  8
0
100
AcDbBlockBegin
  2
*U5
 70
     1
 10
0.0
 20
0.0
 30
0.0
  3
*U5
  1

  0
TEXT
  5
2A637
330
2A635
100
AcDbEntity
  8
SUNPOU
100
AcDbText
 10
6013.242013449044
 20
4661.08385078625
 30
0.0
 40
90.0
  1
3500
 41
0.6666666666666666
  7
00
100
AcDbText
  0
ENDBLK
  5
2A638
330
2A635
100
AcDbEntity
  8
0
100
AcDbBlockEnd
  0
BLOCK
  5
2A63A
330
2A639
100
AcDbEntity
  8
0
100
AcDbBlockBegin
  2
*U6
 70
     1
 10
0.0
 20
0.0
 30
0.0
  3
*U6
  1

  0
TEXT
  5
2A63B
330
2A639
100
AcDbEntity
  8
SUNPOU
100
AcDbText
 10
7966.813442020472
 20
4661.08385078625
 30
0.0
 40
90.0
  1
350
 41
0.6666666666666666
  7
00
100
AcDbText
  0
ENDBLK
  5
2A63C
330
2A639
100
AcDbEntity
  8
0
100
AcDbBlockEnd
  0
BLOCK
  5
2A63E
330
2A63D
100
AcDbEntity
  8
0
100
AcDbBlockBegin
  2
*U7
 70
     1
 10
0.0
 20
0.0
 30
0.0
  3
*U7
  1

  0
TEXT
  5
2A63F
330
2A63D
100
AcDbEntity
  8
SUNPOU
100
AcDbText
 10
5078.075305331611
 20
1859.518566249726
 30
0.0
 40
90.0
  1
500
 50
90.0
 41
0.6666666666666666
  7
00
100
AcDbText
  0
ENDBLK
  5
2A640
330
2A63D
100
AcDbEntity
  8
0
100
AcDbBlockEnd
  0
BLOCK
  5
2A642
330
2A641
100
AcDbEntity
  8
0
100
AcDbBlockBegin
  2
*U8
 70
     1
 10
0.0
 20
0.0
 30
0.0
  3
*U8
  1

  0
TEXT
  5
2A643
330
2A641
100
AcDbEntity
  8
SUNPOU
100
AcDbText
 10
2866.575305331612
 20
1135.23285196401
 30
0.0
 40
90.0
  1
700 □
 41
0.6666666666666666
  7
00
100
AcDbText
  0
ENDBLK
  5
2A644
330
2A641
100
AcDbEntity
  8
0
100
AcDbBlockEnd
  0
BLOCK
  5
2A646
330
2A645
100
AcDbEntity
  8
0
100
AcDbBlockBegin
  2
*U9
 70
     1
 10
0.0
 20
0.0
 30
0.0
  3
*U9
  1

  0
TEXT
  5
2A647
330
2A645
100
AcDbEntity
  8
SUNPOU
100
AcDbText
 10
2866.575305331612
 20
925.2328519640114
 30
0.0
 40
90.0
  1
900 □
 41
0.6666666666666666
  7
00
100
AcDbText
  0
ENDBLK
  5
2A648
330
2A645
100
AcDbEntity
  8
0
100
AcDbBlockEnd
  0
BLOCK
  5
2A64A
330
2A649
100
AcDbEntity
  8
0
100
AcDbBlockBegin
  2
*U10
 70
     1
 10
0.0
 20
0.0
 30
0.0
  3
*U10
  1

  0
TEXT
  5
2A64B
330
2A649
100
AcDbEntity
  8
SUNPOU
100
AcDbText
 10
5078.075305331611
 20
1197.375709106869
 30
0.0
 40
90.0
  1
100
 50
90.0
 41
0.6666666666666666
  7
00
100
AcDbText
  0
ENDBLK
  5
2A64C
330
2A649
100
AcDbEntity
  8
0
100
AcDbBlockEnd
  0
ENDSEC
  0
SECTION
  2
ENTITIES
  0
TEXT
  5
2A64D
330
2A5FA
100
AcDbEntity
  8
NAME
100
AcDbText
 10
9402.694977008243
 20
716.2499999999992
 30
0.0
 40
120.0
  1
YOTC
 41
0.7
  7
01
100
AcDbText
  0
TEXT
  5
2A64E
330
2A5FA
100
AcDbEntity
  8
NAME
100
AcDbText
 10
8327.765992739108
 20
716.2499999999992
 30
0.0
 40
120.0
  1
ヨド自転車置場      型
  7
01
100
AcDbText
  0
LINE
  5
2A64F
330
2A5FA
100
AcDbEntity
  8
HIKIDASHI
100
AcDbLine
 10
2662.761628713823
 20
503.7645299961011
 30
0.0
 11
3358.388981949395
 21
503.7645299961011
 31
0.0
  0
LINE
  5
2A650
330
2A5FA
100
AcDbEntity
  8
HIKIDASHI
100
AcDbLine
 10
2662.761628713823
 20
473.7645299961012
 30
0.0
 11
3358.388981949395
 21
473.7645299961012
 31
0.0
  0
TEXT
  5
2A651
330
2A5FA
100
AcDbEntity
  8
HIKIDASHI
100
AcDbText
 10
2692.761628713823
 20
548.7645299961013
 30
0.0
 40
90.0
  1
A  ~  A'
 41
0.6700000000000001
  7
00
100
AcDbText
  0
TEXT
  5
2A652
330
2A5FA
100
AcDbEntity
  8
HIKIDASHI
100
AcDbText
 10
3086.778908210385
 20
548.7645299961013
 30
0.0
 40
90.0
  1
断 面
  7
01
100
AcDbText
  0
TEXT
  5
2A670
330
2A5FA
100
AcDbEntity
  8
HIKIDASHI
100
AcDbText
 10
5471.872987121663
 20
4008.480853603641
 30
0.0
 40
135.0
  1
基 礎 伏 図
  7
01
 72
     2
 11
6317.872987121663
 21
4008.480853603641
 31
0.0
100
AcDbText
  0
TEXT
  5
2A671
330
2A5FA
100
AcDbEntity
  8
HIKIDASHI
100
AcDbText
 10
6419.122987121664
 20
4035.274350663478
 30
0.0
 40
90.0
  1
(S=
 41
0.6700000000000001
  7
00
100
AcDbText
  0
TEXT
  5
2A672
330
2A5FA
100
AcDbEntity
  8
HIKIDASHI
100
AcDbText
 10
6711.780721756864
 20
4005.835540563169
 30
0.0
 40
90.0
  1
30
 41
0.6700000000000001
  7
00
100
AcDbText
  0
TEXT
  5
2A673
330
2A5FA
100
AcDbEntity
  8
HIKIDASHI
100
AcDbText
 10
6848.385484827101
 20
4035.274350663478
 30
0.0
 40
90.0
  1
)
 41
0.6700000000000001
  7
00
100
AcDbText
  0
TEXT
  5
2A674
330
2A5FA
100
AcDbEntity
  8
HIKIDASHI
100
AcDbText
 10
6659.698672648898
 20
4035.274350663478
 30
0.0
 40
90.0
  1
/
 41
0.6700000000000001
  7
00
100
AcDbText
  0
TEXT
  5
2A675
330
2A5FA
100
AcDbEntity
  8
HIKIDASHI
100
AcDbText
 10
6622.419392551552
 20
4052.781013130203
 30
0.0
 40
90.0
  1
1
 41
0.6700000000000001
  7
00
100
AcDbText
  0
LINE
  5
2A676
330
2A5FA
100
AcDbEntity
  8
2PL-M2
100
AcDbLine
 10
8273.527727734757
 20
5411.08385078625
 30
0.0
 11
3981.527727734757
 21
5411.08385078625
 31
0.0
  0
LINE
  5
2A677
330
2A5FA
100
AcDbEntity
  8
2PL-M2
100
AcDbLine
 10
8273.527727734757
 20
7436.08385078625
 30
0.0
 11
8273.527727734757
 21
5411.08385078625
 31
0.0
  0
LINE
  5
2A678
330
2A5FA
100
AcDbEntity
  8
2PL-M2
100
AcDbLine
 10
8273.527727734757
 20
7436.08385078625
 30
0.0
 11
3981.527727734757
 21
7436.08385078625
 31
0.0
  0
LINE
  5
2A679
330
2A5FA
100
AcDbEntity
  8
2PL-M2
100
AcDbLine
 10
3981.527727734757
 20
7436.08385078625
 30
0.0
 11
3981.527727734757
 21
5411.08385078625
 31
0.0
  0
LINE
  5
2A67A
330
2A5FA
100
AcDbEntity
  8
1PL-M1
100
AcDbLine
 10
3977.65781450465
 20
6416.08385078625
 30
0.0
 11
8359.371046423797
 21
6416.083850786249
 31
0.0
  0
LINE
  5
2A67B
330
2A5FA
100
AcDbEntity
  8
1PL-M1
100
AcDbLine
 10
7877.527727734764
 20
5940.805990360579
 30
0.0
 11
7877.527727734764
 21
6816.083850786251
 31
0.0
  0
LINE
  5
2A67C
330
2A5FA
100
AcDbEntity
  8
U3
100
AcDbLine
 10
8227.527727734758
 20
5016.08385078625
 30
0.0
 11
8227.527727734758
 21
7616.08385078625
 31
0.0
  0
LINE
  5
2A67D
330
2A5FA
100
AcDbEntity
  8
U3
100
AcDbLine
 10
4027.527727734757
 20
5016.083850786249
 30
0.0
 11
4027.527727734757
 21
7616.08385078625
 31
0.0
  0
LINE
  5
2A67E
330
2A5FA
100
AcDbEntity
  8
U3
100
AcDbLine
 10
4027.527727734757
 20
7616.083850786248
 30
0.0
 11
8227.527727734758
 21
7616.08385078625
 31
0.0
  0
LINE
  5
2A67F
330
2A5FA
100
AcDbEntity
  8
U3
100
AcDbLine
 10
4027.527727734757
 20
5016.083850786249
 30
0.0
 11
8227.527727734758
 21
5016.08385078625
 31
0.0
  0
TEXT
  5
2A680
330
2A5FA
100
AcDbEntity
  8
SUNPOU
100
AcDbText
 10
5602.527727734752
 20
5061.083850786249
 30
0.0
 40
90.0
  1
（土間コン前面位置）
  7
01
 72
     4
 11
6127.527727734753
 21
5106.083850786249
 31
0.0
100
AcDbText
  0
TEXT
  5
2A681
330
2A5FA
100
AcDbEntity
  8
SUNPOU
100
AcDbText
 10
5710.527727734753
 20
7481.08385078625
 30
0.0
 40
90.0
  1
（屋根後面位置）
  7
01
 72
     4
 11
6127.527727734753
 21
7526.08385078625
 31
0.0
100
AcDbText
  0
TEXT
  5
2A682
330
2A5FA
100
AcDbEntity
  8
SUNPOU
100
AcDbText
 10
5602.527727734752
 20
7661.083850786249
 30
0.0
 40
90.0
  1
（土間コン後面位置）
  7
01
 72
     4
 11
6127.527727734753
 21
7706.083850786249
 31
0.0
100
AcDbText
  0
LINE
  5
2A683
330
2A5FA
100
AcDbEntity
  8
SUNPOU
100
AcDbLine
 10
8257.527727734759
 20
7616.08385078625
 30
0.0
 11
8977.52772773475
 21
7616.08385078625
 31
0.0
  0
LINE
  5
2A684
330
2A5FA
100
AcDbEntity
  8
SUNPOU
100
AcDbLine
 10
8257.527727734759
 20
5016.08385078625
 30
0.0
 11
8977.52772773475
 21
5016.08385078625
 31
0.0
  0
LINE
  5
2A685
330
2A5FA
100
AcDbEntity
  8
SUNPOU
100
AcDbLine
 10
8947.527727734749
 20
7601.08385078625
 30
0.0
 11
8947.527727734749
 21
5031.08385078625
 31
0.0
  0
TEXT
  5
2A686
330
2A5FA
100
AcDbEntity
  8
SUNPOU
100
AcDbText
 10
8902.527727734751
 20
6201.798136500535
 30
0.0
 40
90.0
  1
2600
 50
90.0
 41
0.6666666666666666
  7
00
 72
     1
 11
8857.527727734751
 21
6316.08385078625
 31
0.0
100
AcDbText
 73
     2
  0
LINE
  5
2A687
330
2A5FA
100
AcDbEntity
  8
SUNPOU
100
AcDbLine
 10
8737.52772773475
 20
7601.08385078625
 30
0.0
 11
8737.52772773475
 21
6431.08385078625
 31
0.0
  0
TEXT
  5
2A688
330
2A5FA
100
AcDbEntity
  8
SUNPOU
100
AcDbText
 10
8692.52772773475
 20
6897.512422214821
 30
0.0
 40
90.0
  1
1200
 50
90.0
 41
0.6666666666666666
  7
00
 72
     1
 11
8647.52772773475
 21
7016.083850786251
 31
0.0
100
AcDbText
 73
     2
  0
LINE
  5
2A689
330
2A5FA
100
AcDbEntity
  8
SUNPOU
100
AcDbLine
 10
8737.52772773475
 20
6401.08385078625
 30
0.0
 11
8737.52772773475
 21
5031.08385078625
 31
0.0
  0
TEXT
  5
2A68A
330
2A5FA
100
AcDbEntity
  8
SUNPOU
100
AcDbText
 10
8692.52772773475
 20
5597.512422214822
 30
0.0
 40
90.0
  1
1400
 50
90.0
 41
0.6666666666666666
  7
00
 72
     1
 11
8647.52772773475
 21
5716.08385078625
 31
0.0
100
AcDbText
 73
     2
  0
LINE
  5
2A68B
330
2A5FA
100
AcDbEntity
  8
SUNPOU
100
AcDbLine
 10
7527.527727734764
 20
6036.08385078625
 30
0.0
 11
7527.527727734764
 21
5736.083850786251
 31
0.0
  0
LINE
  5
2A68C
330
2A5FA
100
AcDbEntity
  8
SUNPOU
100
AcDbLine
 10
7542.527727734754
 20
5766.08385078625
 30
0.0
 11
8212.527727734757
 21
5766.08385078625
 31
0.0
  0
TEXT
  5
2A68D
330
2A5FA
100
AcDbEntity
  8
SUNPOU
100
AcDbText
 10
7791.81344202048
 20
5811.08385078625
 30
0.0
 40
90.0
  1
700
 41
0.6666666666666666
  7
00
 72
     1
 11
7877.527727734764
 21
5856.08385078625
 31
0.0
100
AcDbText
 73
     2
  0
LINE
  5
2A68E
330
2A5FA
100
AcDbEntity
  8
1PL-S1
100
AcDbLine
 10
8561.732827593472
 20
6416.083850786248
 30
0.0
 11
8767.52772773475
 21
6416.083850786249
 31
0.0
  0
LINE
  5
2A68F
330
2A5FA
100
AcDbEntity
  8
SUNPOU
100
AcDbLine
 10
7940.027727734764
 20
6378.58385078625
 30
0.0
 11
8118.233743300249
 21
6378.58385078625
 31
0.0
  0
LINE
  5
2A690
330
2A5FA
100
AcDbEntity
  8
SUNPOU
100
AcDbLine
 10
7940.027727734764
 20
6453.583850786251
 30
0.0
 11
8118.233743300249
 21
6453.583850786251
 31
0.0
  0
LINE
  5
2A691
330
2A5FA
100
AcDbEntity
  8
SUNPOU
100
AcDbLine
 10
8088.233743300246
 20
6393.583850786249
 30
0.0
 11
8088.233743300246
 21
6453.583850786251
 31
0.0
  0
LINE
  5
2A692
330
2A5FA
100
AcDbEntity
  8
SUNPOU
100
AcDbLine
 10
8088.233743300246
 20
6468.58385078625
 30
0.0
 11
8088.233743300246
 21
6483.58385078625
 31
0.0
  0
LINE
  5
2A693
330
2A5FA
100
AcDbEntity
  8
SUNPOU
100
AcDbLine
 10
8088.233743300246
 20
6483.58385078625
 30
0.0
 11
8088.233743300246
 21
6583.426707929106
 31
0.0
  0
TEXT
  5
2A694
330
2A5FA
100
AcDbEntity
  8
SUNPOU
100
AcDbText
 10
8043.233743300246
 20
6477.712422214821
 30
0.0
 40
90.0
  1
75
 50
90.0
 41
0.6666666666666666
  7
00
 72
     1
 11
7998.233743300247
 21
6534.855279357678
 31
0.0
100
AcDbText
 73
     2
  0
LINE
  5
2A695
330
2A5FA
100
AcDbEntity
  8
SUNPOU
100
AcDbLine
 10
7910.027727734756
 20
6348.58385078625
 30
0.0
 11
7910.027727734756
 21
6172.141006900598
 31
0.0
  0
LINE
  5
2A696
330
2A5FA
100
AcDbEntity
  8
SUNPOU
100
AcDbLine
 10
7845.027727734756
 20
6348.58385078625
 30
0.0
 11
7845.027727734756
 21
6172.141006900598
 31
0.0
  0
LINE
  5
2A697
330
2A5FA
100
AcDbEntity
  8
SUNPOU
100
AcDbLine
 10
7895.027727734763
 20
6202.141006900598
 30
0.0
 11
7845.027727734756
 21
6202.141006900598
 31
0.0
  0
LINE
  5
2A698
330
2A5FA
100
AcDbEntity
  8
SUNPOU
100
AcDbLine
 10
7830.027727734758
 20
6202.141006900598
 30
0.0
 11
7815.027727734764
 21
6202.141006900598
 31
0.0
  0
LINE
  5
2A699
330
2A5FA
100
AcDbEntity
  8
SUNPOU
100
AcDbLine
 10
7815.027727734764
 20
6202.141006900598
 30
0.0
 11
7718.04201344905
 21
6202.141006900598
 31
0.0
  0
TEXT
  5
2A69A
330
2A5FA
100
AcDbEntity
  8
SUNPOU
100
AcDbText
 10
7706.613442020476
 20
6247.141006900598
 30
0.0
 40
90.0
  1
65
 41
0.6666666666666666
  7
00
 72
     1
 11
7765.184870591905
 21
6292.141006900598
 31
0.0
100
AcDbText
 73
     2
  0
SOLID
  5
2A69B
330
2A5FA
100
AcDbEntity
  8
HIKIDASHI
100
AcDbTrace
 10
7823.687981772595
 20
6510.545375013314
 30
0.0
 11
7806.367473696905
 21
6500.545375013309
 31
0.0
 12
7845.027727734756
 22
6453.583850786251
 32
0.0
 13
7845.027727734756
 23
6453.583850786251
 33
0.0
  0
LINE
  5
2A69C
330
2A5FA
100
AcDbEntity
  8
HIKIDASHI
100
AcDbLine
 10
7815.02772773475
 20
6505.545375013309
 30
0.0
 11
7602.655250883562
 21
6873.385295048665
 31
0.0
  0
TEXT
  5
2A69D
330
2A5FA
100
AcDbEntity
  8
HIKIDASHI
100
AcDbText
 10
7488.655250883562
 20
6918.385295048667
 30
0.0
 40
90.0
  1
柱
  7
01
 72
     2
 11
7572.655250883562
 21
6963.385295048666
 31
0.0
100
AcDbText
 73
     2
  0
LINE
  5
2A69E
330
2A5FA
100
AcDbEntity
  8
HIKIDASHI
100
AcDbLine
 10
7458.655250883563
 20
6873.385295048665
 30
0.0
 11
7602.655250883562
 21
6873.385295048665
 31
0.0
  0
LINE
  5
2A69F
330
2A5FA
100
AcDbEntity
  8
1PL-M1
100
AcDbLine
 10
4377.527727734757
 20
6016.083850786253
 30
0.0
 11
4377.527727734757
 21
6816.083850786252
 31
0.0
  0
LINE
  5
2A6A0
330
2A5FA
100
AcDbEntity
  8
SUNPOU
100
AcDbLine
 10
4272.527727734757
 20
6976.083850786266
 30
0.0
 11
4377.527727734757
 21
6976.083850786264
 31
0.0
  0
TEXT
  5
2A6A1
330
2A5FA
100
AcDbEntity
  8
SUNPOU
100
AcDbText
 10
4056.634870591899
 20
6922.512422214835
 30
0.0
 40
90.0
  1
A'
 50
0.0000000000000509
 41
0.6700000000000001
  7
00
 72
     4
 11
4092.527727734757
 21
6976.083850786264
 31
0.0
100
AcDbText
  0
LINE
  5
2A6A2
330
2A5FA
100
AcDbEntity
  8
SUNPOU
100
AcDbLine
 10
4377.527727734757
 20
6976.083850786264
 30
0.0
 11
4377.527727734757
 21
6826.083850786266
 31
0.0
  0
LINE
  5
2A6A3
330
2A5FA
100
AcDbEntity
  8
SUNPOU
100
AcDbLine
 10
4272.527727734758
 20
5856.083850786263
 30
0.0
 11
4377.527727734761
 21
5856.083850786263
 31
0.0
  0
TEXT
  5
2A6A4
330
2A5FA
100
AcDbEntity
  8
SUNPOU
100
AcDbText
 10
4066.684870591905
 20
5811.083850786264
 30
0.0
 40
90.0
  1
A
 50
0.0000000000000509
 41
0.6700000000000001
  7
00
 72
     4
 11
4092.527727734763
 21
5856.083850786263
 31
0.0
100
AcDbText
  0
LINE
  5
2A6A5
330
2A5FA
100
AcDbEntity
  8
SUNPOU
100
AcDbLine
 10
4377.527727734761
 20
5856.083850786268
 30
0.0
 11
4377.527727734761
 21
6006.083850786268
 31
0.0
  0
LINE
  5
2A6A6
330
2A5FA
100
AcDbEntity
  8
SUNPOU
100
AcDbLine
 10
4272.527727734758
 20
5841.083850786263
 30
0.0
 11
4182.527727734763
 21
5856.083850786263
 31
0.0
  0
LINE
  5
2A6A7
330
2A5FA
100
AcDbEntity
  8
SUNPOU
100
AcDbLine
 10
4182.527727734763
 20
5856.083850786263
 30
0.0
 11
4272.527727734758
 21
5871.083850786264
 31
0.0
  0
SOLID
  5
2A6A8
330
2A5FA
100
AcDbEntity
  8
SUNPOU
100
AcDbTrace
 10
4272.527727734758
 20
5841.083850786263
 30
0.0
 11
4272.527727734758
 21
5871.083850786264
 31
0.0
 12
4182.527727734763
 22
5856.083850786263
 32
0.0
 13
4182.527727734763
 23
5856.083850786263
 33
0.0
  0
LINE
  5
2A6A9
330
2A5FA
100
AcDbEntity
  8
SUNPOU
100
AcDbLine
 10
4272.527727734758
 20
5871.083850786264
 30
0.0
 11
4272.527727734758
 21
5841.083850786263
 31
0.0
  0
LINE
  5
2A6AA
330
2A5FA
100
AcDbEntity
  8
SUNPOU
100
AcDbLine
 10
4272.527727734757
 20
6991.083850786265
 30
0.0
 11
4182.527727734758
 21
6976.083850786264
 31
0.0
  0
LINE
  5
2A6AB
330
2A5FA
100
AcDbEntity
  8
SUNPOU
100
AcDbLine
 10
4182.527727734758
 20
6976.083850786264
 30
0.0
 11
4272.527727734757
 21
6961.083850786265
 31
0.0
  0
SOLID
  5
2A6AC
330
2A5FA
100
AcDbEntity
  8
SUNPOU
100
AcDbTrace
 10
4272.527727734757
 20
6991.083850786265
 30
0.0
 11
4272.527727734757
 21
6961.083850786265
 31
0.0
 12
4182.527727734758
 22
6976.083850786264
 32
0.0
 13
4182.527727734758
 23
6976.083850786264
 33
0.0
  0
LINE
  5
2A6AD
330
2A5FA
100
AcDbEntity
  8
SUNPOU
100
AcDbLine
 10
4272.527727734757
 20
6961.083850786265
 30
0.0
 11
4272.527727734757
 21
6991.083850786265
 31
0.0
  0
LINE
  5
2A6AE
330
2A5FA
100
AcDbEntity
  8
SUNPOU
100
AcDbLine
 10
7538.777727734757
 20
5766.08385078625
 30
0.0
 11
7550.027727734755
 21
5766.08385078625
 31
0.0
  0
LINE
  5
2A6AF
330
2A5FA
100
AcDbEntity
  8
SUNPOU
100
AcDbLine
 10
8216.277727734757
 20
5766.08385078625
 30
0.0
 11
8205.027727734757
 21
5766.08385078625
 31
0.0
  0
LINE
  5
2A6B0
330
2A5FA
100
AcDbEntity
  8
SUNPOU
100
AcDbLine
 10
8257.527727734759
 20
6766.083850786251
 30
0.0
 11
8557.527727734751
 21
6766.083850786251
 31
0.0
  0
LINE
  5
2A6B1
330
2A5FA
100
AcDbEntity
  8
SUNPOU
100
AcDbLine
 10
8257.527727734759
 20
6066.08385078625
 30
0.0
 11
8557.527727734751
 21
6066.08385078625
 31
0.0
  0
LINE
  5
2A6B2
330
2A5FA
100
AcDbEntity
  8
SUNPOU
100
AcDbLine
 10
8527.527727734751
 20
6751.08385078625
 30
0.0
 11
8527.527727734751
 21
6081.083850786249
 31
0.0
  0
TEXT
  5
2A6B3
330
2A5FA
100
AcDbEntity
  8
SUNPOU
100
AcDbText
 10
8482.527727734751
 20
6330.369565071965
 30
0.0
 40
90.0
  1
700
 50
90.0
 41
0.6666666666666666
  7
00
100
AcDbText
  0
LINE
  5
2A6B4
330
2A5FA
100
AcDbEntity
  8
SUNPOU
100
AcDbLine
 10
7833.777727734759
 20
6202.141006900598
 30
0.0
 11
7822.527727734756
 21
6202.141006900598
 31
0.0
  0
LINE
  5
2A6B5
330
2A5FA
100
AcDbEntity
  8
SUNPOU
100
AcDbLine
 10
7898.777727734755
 20
6202.141006900598
 30
0.0
 11
7887.527727734756
 21
6202.141006900598
 31
0.0
  0
LINE
  5
2A6B6
330
2A5FA
100
AcDbEntity
  8
SUNPOU
100
AcDbLine
 10
8088.233743300246
 20
6389.833850786249
 30
0.0
 11
8088.233743300246
 21
6401.08385078625
 31
0.0
  0
LINE
  5
2A6B7
330
2A5FA
100
AcDbEntity
  8
SUNPOU
100
AcDbLine
 10
8088.233743300246
 20
6464.83385078625
 30
0.0
 11
8088.233743300246
 21
6476.08385078625
 31
0.0
  0
LINE
  5
2A6B8
330
2A5FA
100
AcDbEntity
  8
SUNPOU
100
AcDbLine
 10
8737.52772773475
 20
5027.333850786249
 30
0.0
 11
8737.52772773475
 21
5038.58385078625
 31
0.0
  0
LINE
  5
2A6B9
330
2A5FA
100
AcDbEntity
  8
SUNPOU
100
AcDbLine
 10
8947.527727734749
 20
5027.333850786249
 30
0.0
 11
8947.527727734749
 21
5038.58385078625
 31
0.0
  0
LINE
  5
2A6BA
330
2A5FA
100
AcDbEntity
  8
SUNPOU
100
AcDbLine
 10
8737.52772773475
 20
6404.83385078625
 30
0.0
 11
8737.52772773475
 21
6393.583850786249
 31
0.0
  0
LINE
  5
2A6BB
330
2A5FA
100
AcDbEntity
  8
SUNPOU
100
AcDbLine
 10
8737.52772773475
 20
6427.333850786251
 30
0.0
 11
8737.52772773475
 21
6438.58385078625
 31
0.0
  0
LINE
  5
2A6BC
330
2A5FA
100
AcDbEntity
  8
SUNPOU
100
AcDbLine
 10
8737.52772773475
 20
7604.833850786249
 30
0.0
 11
8737.52772773475
 21
7593.58385078625
 31
0.0
  0
LINE
  5
2A6BD
330
2A5FA
100
AcDbEntity
  8
SUNPOU
100
AcDbLine
 10
8947.527727734749
 20
7604.833850786249
 30
0.0
 11
8947.527727734749
 21
7593.58385078625
 31
0.0
  0
TEXT
  5
2A6BE
330
2A5FA
100
AcDbEntity
  8
SUNPOU
100
AcDbText
 10
5764.527727734752
 20
5276.08385078625
 30
0.0
 40
90.0
  1
（鼻隠し外面）
  7
01
 72
     4
 11
6127.527727734753
 21
5321.08385078625
 31
0.0
100
AcDbText
  0
LINE
  5
2A6BF
330
2A5FA
100
AcDbEntity
  8
KISO
100
AcDbLine
 10
2954.325305331611
 20
2320.23285196401
 30
0.0
 11
2041.489231269243
 21
2320.23285196401
 31
0.0
  0
LINE
  5
2A6C0
330
2A5FA
100
AcDbEntity
  8
KISO
100
AcDbLine
 10
2041.489231269243
 20
2185.23285196401
 30
0.0
 11
2485.575305331611
 21
2185.23285196401
 31
0.0
  0
LINE
  5
2A6C1
330
2A5FA
100
AcDbEntity
  8
KISO
100
AcDbLine
 10
2041.489231269243
 20
2095.232851964007
 30
0.0
 11
2485.575305331611
 21
2095.232851964008
 31
0.0
  0
LINE
  5
2A6C2
330
2A5FA
100
AcDbEntity
  8
HATCH
100
AcDbLine
 10
2255.814847154972
 20
2320.23285196401
 30
0.0
 11
2120.814847154972
 21
2185.23285196401
 31
0.0
  0
LINE
  5
2A6C3
330
2A5FA
100
AcDbEntity
  8
HATCH
100
AcDbLine
 10
2300.362574369715
 20
2320.23285196401
 30
0.0
 11
2165.362574369718
 21
2185.23285196401
 31
0.0
  0
LINE
  5
2A6C4
330
2A5FA
100
AcDbEntity
  8
HATCH
100
AcDbLine
 10
2344.910301584473
 20
2320.23285196401
 30
0.0
 11
2209.910301584478
 21
2185.23285196401
 31
0.0
  0
LINE
  5
2A6C5
330
2A5FA
100
AcDbEntity
  8
HIKIDASHI
100
AcDbLine
 10
3075.414096165838
 20
1623.832241853484
 30
0.0
 11
3586.51430334674
 21
1809.857503994635
 31
0.0
  0
LINE
  5
2A6C6
330
2A5FA
100
AcDbEntity
  8
HATCH
100
AcDbLine
 10
2954.325305331611
 20
1679.43512474926
 30
0.0
 11
2845.123032546363
 21
1570.23285196401
 31
0.0
  0
LINE
  5
2A6C7
330
2A5FA
100
AcDbEntity
  8
HATCH
100
AcDbLine
 10
2954.325305331611
 20
1723.982851964009
 30
0.0
 11
2800.57530533161
 21
1570.23285196401
 31
0.0
  0
LINE
  5
2A6C8
330
2A5FA
100
AcDbEntity
  8
HATCH
100
AcDbLine
 10
2954.325305331611
 20
2128.982851964007
 30
0.0
 11
2485.575305331611
 21
1660.232851964005
 31
0.0
  0
LINE
  5
2A6C9
330
2A5FA
100
AcDbEntity
  8
HATCH
100
AcDbLine
 10
2954.325305331611
 20
2084.435124749258
 30
0.0
 11
2485.575305331611
 21
1615.685124749258
 31
0.0
  0
LINE
  5
2A6CA
330
2A5FA
100
AcDbEntity
  8
HASHIRA
100
AcDbLine
 10
2954.325305331611
 20
1570.23285196401
 30
0.0
 11
2954.325305331611
 21
3256.17721409524
 31
0.0
  0
LINE
  5
2A6CB
330
2A5FA
100
AcDbEntity
  8
HASHIRA
100
AcDbLine
 10
3066.82530533161
 20
1570.23285196401
 30
0.0
 11
3066.82530533161
 21
3256.17721409524
 31
0.0
  0
LINE
  5
2A6CC
330
2A5FA
100
AcDbEntity
  8
1PL-M1
100
AcDbLine
 10
3010.57530533161
 20
1255.23285196401
 30
0.0
 11
3010.57530533161
 21
3436.637672710066
 31
0.0
  0
LINE
  5
2A6CD
330
2A5FA
100
AcDbEntity
  8
KISO
100
AcDbLine
 10
3535.575305331612
 20
2320.232851964012
 30
0.0
 11
3535.575305331612
 21
1570.232851964012
 31
0.0
  0
LINE
  5
2A6CE
330
2A5FA
100
AcDbEntity
  8
KISO
100
AcDbLine
 10
2485.575305331611
 20
2320.23285196401
 30
0.0
 11
2485.575305331611
 21
1570.23285196401
 31
0.0
  0
LINE
  5
2A6CF
330
2A5FA
100
AcDbEntity
  8
HATCH
100
AcDbLine
 10
3535.575305331612
 20
1766.58967031976
 30
0.0
 11
3339.21848697586
 21
1570.23285196401
 31
0.0
  0
LINE
  5
2A6D0
330
2A5FA
100
AcDbEntity
  8
HATCH
100
AcDbLine
 10
3535.575305331612
 20
1811.137397534512
 30
0.0
 11
3294.670759761114
 21
1570.23285196401
 31
0.0
  0
LINE
  5
2A6D1
330
2A5FA
100
AcDbEntity
  8
HATCH
100
AcDbLine
 10
3535.575305331612
 20
1855.685124749268
 30
0.0
 11
3250.123032546348
 21
1570.23285196401
 31
0.0
  0
LINE
  5
2A6D2
330
2A5FA
100
AcDbEntity
  8
HATCH
100
AcDbLine
 10
2954.325305331611
 20
1634.887397534507
 30
0.0
 11
2889.670759761117
 21
1570.23285196401
 31
0.0
  0
SOLID
  5
2A6D3
330
2A5FA
100
AcDbEntity
  8
HIKIDASHI
100
AcDbTrace
 10
3078.834297599096
 20
1614.435315645624
 30
0.0
 11
3071.993894732583
 21
1633.229168061341
 31
0.0
 12
3019.032538918684
 22
1603.311033253941
 32
0.0
 13
3019.032538918684
 23
1603.311033253941
 33
0.0
  0
LINE
  5
2A6D4
330
2A5FA
100
AcDbEntity
  8
HIKIDASHI
100
AcDbLine
 10
2986.029864683841
 20
1600.23285196401
 30
0.0
 11
3035.12074597938
 21
1600.23285196401
 31
0.0
  0
LINE
  5
2A6D5
330
2A5FA
100
AcDbEntity
  8
HIKIDASHI
100
AcDbLine
 10
2986.029864683841
 20
1660.23285196401
 30
0.0
 11
3035.12074597938
 21
1660.23285196401
 31
0.0
  0
CIRCLE
  5
2A6D6
330
2A5FA
100
AcDbEntity
  8
HASHIRA
100
AcDbCircle
 10
3010.57530533161
 20
1660.23285196401
 30
0.0
 40
9.0
  0
CIRCLE
  5
2A6D7
330
2A5FA
100
AcDbEntity
  8
HASHIRA
100
AcDbCircle
 10
3010.57530533161
 20
1600.23285196401
 30
0.0
 40
9.0
  0
TEXT
  5
2A6D8
330
2A5FA
100
AcDbEntity
  8
SUNPOU
100
AcDbText
 10
4354.377899732589
 20
786.2250926600079
 30
0.0
 40
90.0
  1
ベース筋
  7
01
 72
     4
 11
4558.377899732589
 21
831.2250926600079
 31
0.0
100
AcDbText
  0
LINE
  5
2A6D9
330
2A5FA
100
AcDbEntity
  8
HATCH
100
AcDbLine
 10
4407.89825921243
 20
2320.23285196401
 30
0.0
 11
4272.89825921243
 21
2185.232851964012
 31
0.0
  0
LINE
  5
2A6DA
330
2A5FA
100
AcDbEntity
  8
HATCH
100
AcDbLine
 10
4363.350531997672
 20
2320.23285196401
 30
0.0
 11
4228.350531997672
 21
2185.232851964012
 31
0.0
  0
LINE
  5
2A6DB
330
2A5FA
100
AcDbEntity
  8
HIKIDASHI
100
AcDbLine
 10
3586.51430334674
 20
1809.857503994635
 30
0.0
 11
4377.473528378141
 21
1809.857503994635
 31
0.0
  0
TEXT
  5
2A6DC
330
2A5FA
100
AcDbEntity
  8
HIKIDASHI
100
AcDbText
 10
3876.650368489129
 20
1854.857503994636
 30
0.0
 40
90.0
  1
10   x 350
 41
0.6666666666666666
  7
00
 11
3876.650368489129
 21
1899.857503994636
 31
0.0
100
AcDbText
 73
     2
  0
LINE
  5
2A6DD
330
2A5FA
100
AcDbEntity
  8
KISO
100
AcDbLine
 10
3535.575305331612
 20
2095.23285196401
 30
0.0
 11
4923.075305331611
 21
2095.23285196401
 31
0.0
  0
LINE
  5
2A6DE
330
2A5FA
100
AcDbEntity
  8
KISO
100
AcDbLine
 10
3535.575305331612
 20
2185.232851964012
 30
0.0
 11
4923.075305331611
 21
2185.232851964014
 31
0.0
  0
LINE
  5
2A6DF
330
2A5FA
100
AcDbEntity
  8
KISO
100
AcDbLine
 10
4923.075305331611
 20
2320.232851964012
 30
0.0
 11
3066.82530533161
 21
2320.23285196401
 31
0.0
  0
LINE
  5
2A6E0
330
2A5FA
100
AcDbEntity
  8
HATCH
100
AcDbLine
 10
3535.575305331612
 20
2305.232851964011
 30
0.0
 11
3066.82530533161
 21
1836.482851964009
 31
0.0
  0
LINE
  5
2A6E1
330
2A5FA
100
AcDbEntity
  8
HATCH
100
AcDbLine
 10
3535.575305331612
 20
2216.137397534508
 30
0.0
 11
3066.82530533161
 21
1747.387397534507
 31
0.0
  0
LINE
  5
2A6E2
330
2A5FA
100
AcDbEntity
  8
HATCH
100
AcDbLine
 10
3535.575305331612
 20
2260.685124749265
 30
0.0
 11
3066.82530533161
 21
1791.935124749261
 31
0.0
  0
LINE
  5
2A6E3
330
2A5FA
100
AcDbEntity
  8
HATCH
100
AcDbLine
 10
2954.325305331611
 20
2173.530579178763
 30
0.0
 11
2485.575305331611
 21
1704.78057917876
 31
0.0
  0
LINE
  5
2A6E4
330
2A5FA
100
AcDbEntity
  8
HATCH
100
AcDbLine
 10
2651.479850902106
 20
2320.23285196401
 30
0.0
 11
2485.575305331611
 21
2154.328306393519
 31
0.0
  0
LINE
  5
2A6E5
330
2A5FA
100
AcDbEntity
  8
HATCH
100
AcDbLine
 10
2696.027578116864
 20
2320.23285196401
 30
0.0
 11
2485.575305331611
 21
2109.78057917876
 31
0.0
  0
LINE
  5
2A6E6
330
2A5FA
100
AcDbEntity
  8
HATCH
100
AcDbLine
 10
2740.575305331611
 20
2320.23285196401
 30
0.0
 11
2485.575305331611
 21
2065.232851964009
 31
0.0
  0
LINE
  5
2A6E7
330
2A5FA
100
AcDbEntity
  8
HATCH
100
AcDbLine
 10
3145.575305331615
 20
2320.23285196401
 30
0.0
 11
3066.82530533161
 21
2241.482851964005
 31
0.0
  0
LINE
  5
2A6E8
330
2A5FA
100
AcDbEntity
  8
HATCH
100
AcDbLine
 10
3101.027578116859
 20
2320.23285196401
 30
0.0
 11
3066.82530533161
 21
2286.030579178763
 31
0.0
  0
LINE
  5
2A6E9
330
2A5FA
100
AcDbEntity
  8
HATCH
100
AcDbLine
 10
3190.123032546362
 20
2320.23285196401
 30
0.0
 11
3066.82530533161
 21
2196.935124749259
 31
0.0
  0
LINE
  5
2A6EA
330
2A5FA
100
AcDbEntity
  8
HATCH
100
AcDbLine
 10
3913.802804782921
 20
2320.23285196401
 30
0.0
 11
3778.802804782925
 21
2185.23285196401
 31
0.0
  0
LINE
  5
2A6EB
330
2A5FA
100
AcDbEntity
  8
HATCH
100
AcDbLine
 10
3958.350531997679
 20
2320.23285196401
 30
0.0
 11
3823.350531997679
 21
2185.23285196401
 31
0.0
  0
LINE
  5
2A6EC
330
2A5FA
100
AcDbEntity
  8
HATCH
100
AcDbLine
 10
3869.255077568178
 20
2320.23285196401
 30
0.0
 11
3734.255077568183
 21
2185.23285196401
 31
0.0
  0
TEXT
  5
2A6ED
330
2A5FA
100
AcDbEntity
  8
HIKIDASHI
100
AcDbText
 10
3616.51430334674
 20
1854.857503994636
 30
0.0
 40
90.0
  1
鉄筋
  7
01
 11
3616.51430334674
 21
1899.857503994636
 31
0.0
100
AcDbText
 73
     2
  0
TEXT
  5
2A6EE
330
2A5FA
100
AcDbEntity
  8
HIKIDASHI
100
AcDbText
 10
4026.107529385194
 20
1869.857503994635
 30
0.0
 40
90.0
  1
%%c
 41
0.6666666666666666
  7
00
100
AcDbText
  0
LINE
  5
2A6EF
330
2A5FA
100
AcDbEntity
  8
HATCH
100
AcDbLine
 10
4318.802804782928
 20
2320.23285196401
 30
0.0
 11
4183.802804782927
 21
2185.232851964012
 31
0.0
  0
LINE
  5
2A6F0
330
2A5FA
100
AcDbEntity
  8
SUNPOU
100
AcDbLine
 10
4673.69327619941
 20
2410.232851964013
 30
0.0
 11
4725.654800426477
 21
2320.232851964012
 31
0.0
  0
LINE
  5
2A6F1
330
2A5FA
100
AcDbEntity
  8
SUNPOU
100
AcDbLine
 10
4725.654800426477
 20
2320.232851964012
 30
0.0
 11
4777.616324653543
 21
2410.232851964013
 31
0.0
  0
LINE
  5
2A6F2
330
2A5FA
100
AcDbEntity
  8
HATCH
100
AcDbLine
 10
4857.445986427177
 20
2320.23285196401
 30
0.0
 11
4722.445986427177
 21
2185.232851964012
 31
0.0
  0
LINE
  5
2A6F3
330
2A5FA
100
AcDbEntity
  8
HATCH
100
AcDbLine
 10
4812.898259212423
 20
2320.23285196401
 30
0.0
 11
4677.898259212422
 21
2185.232851964012
 31
0.0
  0
LINE
  5
2A6F4
330
2A5FA
100
AcDbEntity
  8
HATCH
100
AcDbLine
 10
4768.350531997676
 20
2320.23285196401
 30
0.0
 11
4633.350531997676
 21
2185.232851964012
 31
0.0
  0
LINE
  5
2A6F5
330
2A5FA
100
AcDbEntity
  8
U3
100
AcDbLine
 10
4923.075305331611
 20
2117.732851964014
 30
0.0
 11
5080.575305331611
 21
2275.23285196401
 31
0.0
  0
LINE
  5
2A6F6
330
2A5FA
100
AcDbEntity
  8
KISO
100
AcDbLine
 10
4923.075305331611
 20
2095.23285196401
 30
0.0
 11
4923.075305331611
 21
2320.23285196401
 31
0.0
  0
LINE
  5
2A6F7
330
2A5FA
100
AcDbEntity
  8
U3
100
AcDbLine
 10
4985.115889871424
 20
2179.773436503827
 30
0.0
 11
5047.156474411244
 21
2117.732851964012
 31
0.0
  0
LINE
  5
2A6F8
330
2A5FA
100
AcDbEntity
  8
U3
100
AcDbLine
 10
4923.075305331614
 20
2213.192267424192
 30
0.0
 11
4985.115889871431
 21
2275.23285196401
 31
0.0
  0
TEXT
  5
2A6F9
330
2A5FA
100
AcDbEntity
  8
SUNPOU
100
AcDbText
 10
4657.083371855048
 20
2455.232851964013
 30
0.0
 40
90.0
  1
F.L
 41
0.6666666666666666
  7
00
 72
     4
 11
4725.654800426477
 21
2500.232851964013
 31
0.0
100
AcDbText
  0
LINE
  5
2A6FA
330
2A5FA
100
AcDbEntity
  8
SUNPOU
100
AcDbLine
 10
4777.616324653543
 20
2410.232851964013
 30
0.0
 11
4673.69327619941
 21
2410.232851964013
 31
0.0
  0
TEXT
  5
2A6FB
330
2A5FA
100
AcDbEntity
  8
SUNPOU
100
AcDbText
 10
4841.197981175234
 20
786.2250926600079
 30
0.0
 40
90.0
  1
5-D13×5-D13
 41
0.6700000000000001
  7
01
 72
     4
 11
5184.620838318092
 21
831.2250926600079
 31
0.0
100
AcDbText
  0
TEXT
  5
2A6FC
330
2A5FA
100
AcDbEntity
  8
SUNPOU
100
AcDbText
 10
5260.207469758484
 20
2410.232851964011
 30
0.0
 40
90.0
  1
G.L
 41
0.6666666666666666
  7
00
 72
     4
 11
5331.636041187056
 21
2455.23285196401
 31
0.0
100
AcDbText
  0
LINE
  5
2A6FD
330
2A5FA
100
AcDbEntity
  8
SUNPOU
100
AcDbLine
 10
5383.597565414122
 20
2365.232851964012
 30
0.0
 11
5279.674516959989
 21
2365.232851964012
 31
0.0
  0
LINE
  5
2A6FE
330
2A5FA
100
AcDbEntity
  8
SUNPOU
100
AcDbLine
 10
5279.674516959989
 20
2365.232851964012
 30
0.0
 11
5331.636041187056
 21
2275.23285196401
 31
0.0
  0
LINE
  5
2A6FF
330
2A5FA
100
AcDbEntity
  8
U3
100
AcDbLine
 10
5300.115889871428
 20
2179.773436503827
 30
0.0
 11
5362.156474411244
 21
2117.732851964012
 31
0.0
  0
LINE
  5
2A700
330
2A5FA
100
AcDbEntity
  8
U3
100
AcDbLine
 10
5615.115889871419
 20
2275.232851964013
 30
0.0
 11
4923.075305331611
 21
2275.23285196401
 31
0.0
  0
LINE
  5
2A701
330
2A5FA
100
AcDbEntity
  8
U3
100
AcDbLine
 10
5238.075305331611
 20
2117.732851964014
 30
0.0
 11
5395.575305331611
 21
2275.23285196401
 31
0.0
  0
LINE
  5
2A702
330
2A5FA
100
AcDbEntity
  8
U3
100
AcDbLine
 10
5032.845597601518
 20
2227.503144233919
 30
0.0
 11
5142.615889871429
 21
2117.73285196401
 31
0.0
  0
LINE
  5
2A703
330
2A5FA
100
AcDbEntity
  8
U3
100
AcDbLine
 10
5080.575305331611
 20
2275.23285196401
 30
0.0
 11
5238.075305331611
 21
2117.732851964014
 31
0.0
  0
LINE
  5
2A704
330
2A5FA
100
AcDbEntity
  8
U3
100
AcDbLine
 10
5190.345597601517
 20
2165.462559694107
 30
0.0
 11
5300.115889871428
 21
2275.23285196401
 31
0.0
  0
LINE
  5
2A705
330
2A5FA
100
AcDbEntity
  8
U3
100
AcDbLine
 10
5142.615889871429
 20
2213.192267424197
 30
0.0
 11
5204.65647441124
 21
2275.23285196401
 31
0.0
  0
LINE
  5
2A706
330
2A5FA
100
AcDbEntity
  8
U3
100
AcDbLine
 10
5505.345597601514
 20
2165.462559694105
 30
0.0
 11
5615.115889871419
 21
2275.232851964013
 31
0.0
  0
LINE
  5
2A707
330
2A5FA
100
AcDbEntity
  8
U3
100
AcDbLine
 10
5395.575305331611
 20
2275.23285196401
 30
0.0
 11
5553.075305331606
 21
2117.732851964015
 31
0.0
  0
LINE
  5
2A708
330
2A5FA
100
AcDbEntity
  8
U3
100
AcDbLine
 10
5347.845597601518
 20
2227.503144233919
 30
0.0
 11
5457.615889871424
 21
2117.73285196401
 31
0.0
  0
LINE
  5
2A709
330
2A5FA
100
AcDbEntity
  8
SUNPOU
100
AcDbLine
 10
5331.636041187056
 20
2275.23285196401
 30
0.0
 11
5383.597565414122
 21
2365.232851964012
 31
0.0
  0
LINE
  5
2A70A
330
2A5FA
100
AcDbEntity
  8
U3
100
AcDbLine
 10
5457.61588987142
 20
2213.192267424199
 30
0.0
 11
5519.656474411236
 21
2275.23285196401
 31
0.0
  0
LINE
  5
2A70B
330
2A5FA
100
AcDbEntity
  8
KISO
100
AcDbLine
 10
2335.575305331609
 20
1420.23285196401
 30
0.0
 11
3685.575305331612
 21
1420.232851964012
 31
0.0
  0
LINE
  5
2A70C
330
2A5FA
100
AcDbEntity
  8
KISO
100
AcDbLine
 10
2335.575305331611
 20
1420.23285196401
 30
0.0
 11
2335.575305331611
 21
1570.232851964008
 31
0.0
  0
LINE
  5
2A70D
330
2A5FA
100
AcDbEntity
  8
KISO
100
AcDbLine
 10
3685.575305331609
 20
1420.232851964012
 30
0.0
 11
3685.575305331612
 21
1570.23285196401
 31
0.0
  0
LINE
  5
2A70E
330
2A5FA
100
AcDbEntity
  8
KISO
100
AcDbLine
 10
2335.575305331609
 20
1570.232851964008
 30
0.0
 11
3685.575305331612
 21
1570.23285196401
 31
0.0
  0
TEXT
  5
2A70F
330
2A5FA
100
AcDbEntity
  8
NAME
100
AcDbText
 10
8647.094109427699
 20
405.7500000000011
 30
0.0
 40
120.0
  1
型（一般地用）トイ付き
 41
0.6666666666666666
  7
01
100
AcDbText
  0
TEXT
  5
2A710
330
2A5FA
100
AcDbEntity
  8
NAME
100
AcDbText
 10
8062.944456912475
 20
405.7500000000011
 30
0.0
 40
120.0
  1
YOTC-350
 41
0.6
  7
01
 72
     2
 11
8611.515885483905
 21
405.7500000000011
 31
0.0
100
AcDbText
  0
TEXT
  5
2A711
330
2A5FA
100
AcDbEntity
  8
NAME
100
AcDbText
 10
9685.26209933479
 20
405.7500000000015
 30
0.0
 40
120.0
  1
<3／3>
 41
0.6
  7
01
 72
     2
 11
10059.66209933478
 21
405.7500000000015
 31
0.0
100
AcDbText
  0
TEXT
  5
2A712
330
2A5FA
100
AcDbEntity
  8
FILENAME
100
AcDbText
 10
10337.21428571428
 20
130.4999999999999
 30
0.0
 40
75.0
  1
＜YOTC-350-T-1_3_JIS_GL.DXF ＞
  7
FILENAME
 72
     2
 11
12286.5
 21
130.4999999999999
 31
0.0
100
AcDbText
  0
LINE
  5
2A713
330
2A5FA
100
AcDbEntity
  8
WAKUSEN-01
100
AcDbLine
 10
325.5000000000006
 20
310.4999999999997
 30
0.0
 11
12286.5
 21
310.4999999999997
 31
0.0
  0
LINE
  5
2A714
330
2A5FA
100
AcDbEntity
  8
WAKUSEN-01
100
AcDbLine
 10
325.5000000000006
 20
8431.500000000003
 30
0.0
 11
12286.5
 21
8431.500000000003
 31
0.0
  0
LINE
  5
2A715
330
2A5FA
100
AcDbEntity
  8
WAKUSEN-01
100
AcDbLine
 10
325.5000000000006
 20
310.4999999999997
 30
0.0
 11
325.5000000000006
 21
8431.500000000003
 31
0.0
  0
LINE
  5
2A716
330
2A5FA
100
AcDbEntity
  8
WAKUSEN-01
100
AcDbLine
 10
12286.5
 20
310.4999999999997
 30
0.0
 11
12286.5
 21
8431.500000000003
 31
0.0
  0
LINE
  5
2A717
330
2A5FA
100
AcDbEntity
  8
WAKUSEN-01
100
AcDbLine
 10
7710.0
 20
931.4999999999999
 30
0.0
 11
12286.5
 21
931.4999999999995
 31
0.0
  0
LINE
  5
2A718
330
2A5FA
100
AcDbEntity
  8
WAKUSEN-02
100
AcDbLine
 10
7710.0
 20
620.9999999999999
 30
0.0
 11
10075.49999999999
 21
620.9999999999999
 31
0.0
  0
TEXT
  5
2A719
330
2A5FA
100
AcDbEntity
  8
WAKUMOJI-01
100
AcDbText
 10
7751.347597486038
 20
797.2136285022457
 30
0.0
 40
90.0
  1
名　称
  7
WAKUMOJI
100
AcDbText
  0
TEXT
  5
2A71A
330
2A5FA
100
AcDbEntity
  8
WAKUMOJI-01
100
AcDbText
 10
7746.18955690947
 20
494.6733656174329
 30
0.0
 40
90.0
  1
機種名
  7
WAKUMOJI
100
AcDbText
  0
LINE
  5
2A71B
330
2A5FA
100
AcDbEntity
  8
WAKUSEN-01
100
AcDbLine
 10
7710.0
 20
310.4999999999989
 30
0.0
 11
7710.0
 21
931.4999999999999
 31
0.0
  0
LINE
  5
2A71C
330
2A5FA
100
AcDbEntity
  8
WAKUSEN-02
100
AcDbLine
 10
10075.49999999999
 20
310.4999999999973
 30
0.0
 11
10075.49999999999
 21
931.4999999999999
 31
0.0
  0
LINE
  5
2A71D
330
2A5FA
100
AcDbEntity
  8
YODOROGO
100
AcDbLine
 10
11241.60162798446
 20
748.4060611609828
 30
0.0
 11
11186.10162798447
 21
748.4060611609828
 31
0.0
1001
AUTOCAD_POSTSCRIPT_FIGURE
1002
{
1000
PSFILL
1000
Grayscale
1000
Grayscale
1070
    25
1002
}
  0
LINE
  5
2A71E
330
2A5FA
100
AcDbEntity
  8
YODOROGO
100
AcDbLine
 10
11186.10162798447
 20
730.4060611609828
 30
0.0
 11
11241.60162798446
 21
730.4060611609828
 31
0.0
1001
AUTOCAD_POSTSCRIPT_FIGURE
1002
{
1000
PSFILL
1000
Grayscale
1000
Grayscale
1070
    25
1002
}
  0
LINE
  5
2A71F
330
2A5FA
100
AcDbEntity
  8
YODOROGO
100
AcDbLine
 10
11241.60162798446
 20
715.4060611609828
 30
0.0
 11
11186.10162798447
 21
715.4060611609828
 31
0.0
1001
AUTOCAD_POSTSCRIPT_FIGURE
1002
{
1000
PSFILL
1000
Grayscale
1000
Grayscale
1070
    25
1002
}
  0
LINE
  5
2A720
330
2A5FA
100
AcDbEntity
  8
YODOROGO
100
AcDbLine
 10
11186.10162798447
 20
697.406061160983
 30
0.0
 11
11241.60162798446
 21
697.406061160983
 31
0.0
1001
AUTOCAD_POSTSCRIPT_FIGURE
1002
{
1000
PSFILL
1000
Grayscale
1000
Grayscale
1070
    25
1002
}
  0
LINE
  5
2A721
330
2A5FA
100
AcDbEntity
  8
YODOROGO
100
AcDbLine
 10
11241.60162798446
 20
682.4060611609829
 30
0.0
 11
11186.10162798447
 21
682.4060611609829
 31
0.0
1001
AUTOCAD_POSTSCRIPT_FIGURE
1002
{
1000
PSFILL
1000
Grayscale
1000
Grayscale
1070
    25
1002
}
  0
LINE
  5
2A722
330
2A5FA
100
AcDbEntity
  8
YODOROGO
100
AcDbLine
 10
11220.60162798447
 20
640.4060611609828
 30
0.0
 11
11241.60162798446
 21
640.4060611609828
 31
0.0
1001
AUTOCAD_POSTSCRIPT_FIGURE
1002
{
1000
PSFILL
1000
Grayscale
1000
Grayscale
1070
    25
1002
}
  0
LINE
  5
2A723
330
2A5FA
100
AcDbEntity
  8
YODOROGO
100
AcDbLine
 10
11151.60162798447
 20
535.4060611609829
 30
0.0
 11
11226.60162798446
 21
555.5022505933164
 31
0.0
  0
LINE
  5
2A724
330
2A5FA
100
AcDbEntity
  8
YODOROGO
100
AcDbLine
 10
11231.10162798446
 20
640.4060611609828
 30
0.0
 11
11207.10162798447
 21
640.4060611609828
 31
0.0
  0
ARC
  5
2A725
330
2A5FA
100
AcDbEntity
  8
YODOROGO
100
AcDbCircle
 10
11345.38040618545
 20
677.9492284624735
 30
0.0
 40
143.2075740771177
100
AcDbArc
 50
213.9611167766784
 51
264.4787207431779
  0
ARC
  5
2A726
330
2A5FA
100
AcDbEntity
  8
YODOROGO
100
AcDbCircle
 10
11345.38040618547
 20
677.9492284624883
 30
0.0
 40
143.2075740771305
100
AcDbArc
 50
208.141144204866
 51
212.9210361185994
  0
LINE
  5
2A727
330
2A5FA
100
AcDbEntity
  8
YODOROGO
100
AcDbLine
 10
11164.27870236948
 20
583.8028730048376
 30
0.0
 11
11225.1690496907
 21
600.1183923964076
 31
0.0
  0
LINE
  5
2A728
330
2A5FA
100
AcDbEntity
  8
YODOROGO
100
AcDbLine
 10
11151.60162798447
 20
535.4060611609829
 30
0.0
 11
11226.60162798446
 21
555.5022505933164
 31
0.0
  0
LINE
  5
2A729
330
2A5FA
100
AcDbEntity
  8
YODOROGO
100
AcDbLine
 10
11231.10162798446
 20
640.4060611609828
 30
0.0
 11
11207.10162798447
 21
640.4060611609828
 31
0.0
  0
ARC
  5
2A72A
330
2A5FA
100
AcDbEntity
  8
YODOROGO
100
AcDbCircle
 10
11345.38040618545
 20
677.9492284624735
 30
0.0
 40
143.2075740771177
100
AcDbArc
 50
213.9611167766784
 51
264.4787207431779
  0
LINE
  5
2A72B
330
2A5FA
100
AcDbEntity
  8
YODOROGO
100
AcDbLine
 10
10797.60162798446
 20
682.4060611609829
 30
0.0
 11
10662.60162798446
 21
682.4060611609829
 31
0.0
  0
LINE
  5
2A72C
330
2A5FA
100
AcDbEntity
  8
YODOROGO
100
AcDbLine
 10
10692.60162798446
 20
535.4060611609829
 30
0.0
 11
10797.60162798446
 21
535.4060611609829
 31
0.0
  0
LINE
  5
2A72D
330
2A5FA
100
AcDbEntity
  8
YODOROGO
100
AcDbLine
 10
10773.60162798447
 20
721.4060611609824
 30
0.0
 11
10686.60162798446
 21
721.4060611609824
 31
0.0
  0
LINE
  5
2A72E
330
2A5FA
100
AcDbEntity
  8
YODOROGO
100
AcDbLine
 10
10719.60162798446
 20
760.4060611609829
 30
0.0
 11
10746.60162798447
 21
760.4060611609829
 31
0.0
  0
LINE
  5
2A72F
330
2A5FA
100
AcDbEntity
  8
YODOROGO
100
AcDbLine
 10
10662.60162798446
 20
640.4060611609828
 30
0.0
 11
10662.60162798446
 21
565.4060611609828
 31
0.0
  0
LINE
  5
2A730
330
2A5FA
100
AcDbEntity
  8
YODOROGO
100
AcDbLine
 10
10686.60162798446
 20
586.4060611609825
 30
0.0
 11
10686.60162798446
 21
640.4060611609828
 31
0.0
  0
LINE
  5
2A731
330
2A5FA
100
AcDbEntity
  8
YODOROGO
100
AcDbLine
 10
10719.60162798446
 20
655.4060611609838
 30
0.0
 11
10719.60162798446
 21
580.406061160983
 31
0.0
  0
LINE
  5
2A732
330
2A5FA
100
AcDbEntity
  8
YODOROGO
100
AcDbLine
 10
10446.60162798447
 20
631.4060611609833
 30
0.0
 11
10416.60162798446
 21
607.4896552667143
 31
0.0
  0
LINE
  5
2A733
330
2A5FA
100
AcDbEntity
  8
YODOROGO
100
AcDbLine
 10
10476.60162798446
 20
607.4896552667143
 30
0.0
 11
10446.60162798447
 21
631.4060611609833
 31
0.0
  0
LINE
  5
2A734
330
2A5FA
100
AcDbEntity
  8
YODOROGO
100
AcDbLine
 10
10446.60162798447
 20
640.4060611609828
 30
0.0
 11
10476.60162798446
 21
616.4896552667137
 31
0.0
  0
LINE
  5
2A735
330
2A5FA
100
AcDbEntity
  8
YODOROGO
100
AcDbLine
 10
10416.60162798446
 20
616.4896552667137
 30
0.0
 11
10446.60162798447
 21
640.4060611609828
 31
0.0
  0
LINE
  5
2A736
330
2A5FA
100
AcDbEntity
  8
YODOROGO
100
AcDbLine
 10
10515.34245150633
 20
622.406061160983
 30
0.0
 11
10515.34245150633
 21
631.4060611609825
 31
0.0
  0
LINE
  5
2A737
330
2A5FA
100
AcDbEntity
  8
YODOROGO
100
AcDbLine
 10
10491.60162798447
 20
631.4060611609825
 30
0.0
 11
10491.60162798447
 21
625.4060611609819
 31
0.0
  0
LINE
  5
2A738
330
2A5FA
100
AcDbEntity
  8
YODOROGO
100
AcDbLine
 10
10536.8008200866
 20
640.4060611609828
 30
0.0
 11
10536.8008200866
 21
620.813863977996
 31
0.0
1001
AUTOCAD_POSTSCRIPT_FIGURE
1002
{
1000
PSFILL
1000
Grayscale
1000
Grayscale
1070
   100
1002
}
  0
LINE
  5
2A739
330
2A5FA
100
AcDbEntity
  8
YODOROGO
100
AcDbLine
 10
10530.80082008658
 20
620.813863977996
 30
0.0
 11
10530.80082008658
 21
640.4060611609828
 31
0.0
1001
AUTOCAD_POSTSCRIPT_FIGURE
1002
{
1000
PSFILL
1000
Grayscale
1000
Grayscale
1070
   100
1002
}
  0
LINE
  5
2A73A
330
2A5FA
100
AcDbEntity
  8
YODOROGO
100
AcDbLine
 10
10428.60162798447
 20
603.2894640162218
 30
0.0
 11
10428.60162798447
 21
612.2894640162221
 31
0.0
  0
LINE
  5
2A73B
330
2A5FA
100
AcDbEntity
  8
YODOROGO
100
AcDbLine
 10
10464.60162798447
 20
603.2894640162218
 30
0.0
 11
10428.60162798447
 21
603.2894640162218
 31
0.0
  0
LINE
  5
2A73C
330
2A5FA
100
AcDbEntity
  8
YODOROGO
100
AcDbLine
 10
10464.60162798447
 20
612.2894640162221
 30
0.0
 11
10464.60162798447
 21
603.2894640162218
 31
0.0
  0
LINE
  5
2A73D
330
2A5FA
100
AcDbEntity
  8
YODOROGO
100
AcDbLine
 10
10428.60162798447
 20
612.2894640162221
 30
0.0
 11
10464.60162798447
 21
612.2894640162221
 31
0.0
  0
LINE
  5
2A73E
330
2A5FA
100
AcDbEntity
  8
YODOROGO
100
AcDbLine
 10
10434.1910958434
 20
588.1885715139279
 30
0.0
 11
10419.60162798446
 21
553.4060611609827
 31
0.0
1001
AUTOCAD_POSTSCRIPT_FIGURE
1002
{
1000
PSFILL
1000
Grayscale
1000
Grayscale
1070
   100
1002
}
  0
LINE
  5
2A73F
330
2A5FA
100
AcDbEntity
  8
YODOROGO
100
AcDbLine
 10
10416.60162798446
 20
588.1885715139279
 30
0.0
 11
10434.1910958434
 21
588.1885715139279
 31
0.0
1001
AUTOCAD_POSTSCRIPT_FIGURE
1002
{
1000
PSFILL
1000
Grayscale
1000
Grayscale
1070
   100
1002
}
  0
LINE
  5
2A740
330
2A5FA
100
AcDbEntity
  8
YODOROGO
100
AcDbLine
 10
10416.60162798446
 20
595.688571513928
 30
0.0
 11
10416.60162798446
 21
588.1885715139279
 31
0.0
1001
AUTOCAD_POSTSCRIPT_FIGURE
1002
{
1000
PSFILL
1000
Grayscale
1000
Grayscale
1070
   100
1002
}
  0
LINE
  5
2A741
330
2A5FA
100
AcDbEntity
  8
YODOROGO
100
AcDbLine
 10
10476.60162798446
 20
595.688571513928
 30
0.0
 11
10416.60162798446
 21
595.688571513928
 31
0.0
1001
AUTOCAD_POSTSCRIPT_FIGURE
1002
{
1000
PSFILL
1000
Grayscale
1000
Grayscale
1070
   100
1002
}
  0
LINE
  5
2A742
330
2A5FA
100
AcDbEntity
  8
YODOROGO
100
AcDbLine
 10
10476.60162798446
 20
588.1885715139279
 30
0.0
 11
10476.60162798446
 21
595.688571513928
 31
0.0
1001
AUTOCAD_POSTSCRIPT_FIGURE
1002
{
1000
PSFILL
1000
Grayscale
1000
Grayscale
1070
   100
1002
}
  0
LINE
  5
2A743
330
2A5FA
100
AcDbEntity
  8
YODOROGO
100
AcDbLine
 10
10441.69109584339
 20
588.1885715139279
 30
0.0
 11
10476.60162798446
 21
588.1885715139279
 31
0.0
1001
AUTOCAD_POSTSCRIPT_FIGURE
1002
{
1000
PSFILL
1000
Grayscale
1000
Grayscale
1070
   100
1002
}
  0
LINE
  5
2A744
330
2A5FA
100
AcDbEntity
  8
YODOROGO
100
AcDbLine
 10
10430.83001935679
 20
560.9060611609827
 30
0.0
 11
10441.69109584339
 21
588.1885715139279
 31
0.0
1001
AUTOCAD_POSTSCRIPT_FIGURE
1002
{
1000
PSFILL
1000
Grayscale
1000
Grayscale
1070
   100
1002
}
  0
LINE
  5
2A745
330
2A5FA
100
AcDbEntity
  8
YODOROGO
100
AcDbLine
 10
10463.27054655324
 20
560.9060611609827
 30
0.0
 11
10430.83001935679
 21
560.9060611609827
 31
0.0
1001
AUTOCAD_POSTSCRIPT_FIGURE
1002
{
1000
PSFILL
1000
Grayscale
1000
Grayscale
1070
   100
1002
}
  0
LINE
  5
2A746
330
2A5FA
100
AcDbEntity
  8
YODOROGO
100
AcDbLine
 10
10456.8993767966
 20
576.0876790116348
 30
0.0
 11
10463.27054655324
 21
560.9060611609827
 31
0.0
1001
AUTOCAD_POSTSCRIPT_FIGURE
1002
{
1000
PSFILL
1000
Grayscale
1000
Grayscale
1070
   100
1002
}
  0
LINE
  5
2A747
330
2A5FA
100
AcDbEntity
  8
YODOROGO
100
AcDbLine
 10
10462.8993767966
 20
576.0876790116348
 30
0.0
 11
10456.8993767966
 21
576.0876790116348
 31
0.0
1001
AUTOCAD_POSTSCRIPT_FIGURE
1002
{
1000
PSFILL
1000
Grayscale
1000
Grayscale
1070
   100
1002
}
  0
LINE
  5
2A748
330
2A5FA
100
AcDbEntity
  8
YODOROGO
100
AcDbLine
 10
10473.60162798447
 20
553.4060611609827
 30
0.0
 11
10462.8993767966
 21
576.0876790116348
 31
0.0
1001
AUTOCAD_POSTSCRIPT_FIGURE
1002
{
1000
PSFILL
1000
Grayscale
1000
Grayscale
1070
   100
1002
}
  0
LINE
  5
2A749
330
2A5FA
100
AcDbEntity
  8
YODOROGO
100
AcDbLine
 10
10419.60162798446
 20
553.4060611609827
 30
0.0
 11
10473.60162798447
 21
553.4060611609827
 31
0.0
1001
AUTOCAD_POSTSCRIPT_FIGURE
1002
{
1000
PSFILL
1000
Grayscale
1000
Grayscale
1070
   100
1002
}
  0
LINE
  5
2A74A
330
2A5FA
100
AcDbEntity
  8
YODOROGO
100
AcDbLine
 10
10416.60162798446
 20
607.4896552667143
 30
0.0
 11
10416.60162798446
 21
616.4896552667137
 31
0.0
  0
LINE
  5
2A74B
330
2A5FA
100
AcDbEntity
  8
YODOROGO
100
AcDbLine
 10
10476.60162798446
 20
616.4896552667137
 30
0.0
 11
10476.60162798446
 21
607.4896552667143
 31
0.0
  0
ARC
  5
2A74C
330
2A5FA
100
AcDbEntity
  8
YODOROGO
100
AcDbCircle
 10
10584.72766580511
 20
600.3291619969972
 30
0.0
 40
65.99999999999997
100
AcDbArc
 50
280.3644312771313
 51
3.541483659218056
  0
ARC
  5
2A74D
330
2A5FA
100
AcDbEntity
  8
YODOROGO
100
AcDbCircle
 10
10588.40851153474
 20
612.5991776107142
 30
0.0
 40
41.99999999999936
100
AcDbArc
 50
281.2490582504155
 51
348.7509417495832
  0
LINE
  5
2A74E
330
2A5FA
100
AcDbEntity
  8
YODOROGO
100
AcDbLine
 10
10596.60162798446
 20
571.4060611609824
 30
0.0
 11
10596.60162798446
 21
535.4060611609829
 31
0.0
  0
LINE
  5
2A74F
330
2A5FA
100
AcDbEntity
  8
YODOROGO
100
AcDbLine
 10
10507.53333890132
 20
603.9939618982182
 30
0.0
 11
10515.34245150633
 21
622.406061160983
 31
0.0
  0
LINE
  5
2A750
330
2A5FA
100
AcDbEntity
  8
YODOROGO
100
AcDbLine
 10
10515.60162798446
 20
593.6701837306505
 30
0.0
 11
10507.53333890132
 21
603.9939618982182
 31
0.0
  0
LINE
  5
2A751
330
2A5FA
100
AcDbEntity
  8
YODOROGO
100
AcDbLine
 10
10515.60162798446
 20
586.1701837306497
 30
0.0
 11
10515.60162798446
 21
593.6701837306505
 31
0.0
  0
LINE
  5
2A752
330
2A5FA
100
AcDbEntity
  8
YODOROGO
100
AcDbLine
 10
10506.60162798447
 20
594.4638989060739
 30
0.0
 11
10515.60162798446
 21
586.1701837306497
 31
0.0
  0
LINE
  5
2A753
330
2A5FA
100
AcDbEntity
  8
YODOROGO
100
AcDbLine
 10
10506.60162798447
 20
553.4060611609827
 30
0.0
 11
10506.60162798447
 21
594.4638989060739
 31
0.0
  0
LINE
  5
2A754
330
2A5FA
100
AcDbEntity
  8
YODOROGO
100
AcDbLine
 10
10500.60162798446
 20
553.4060611609827
 30
0.0
 11
10506.60162798447
 21
553.4060611609827
 31
0.0
  0
LINE
  5
2A755
330
2A5FA
100
AcDbEntity
  8
YODOROGO
100
AcDbLine
 10
10500.60162798446
 20
592.5020061336555
 30
0.0
 11
10500.60162798446
 21
553.4060611609827
 31
0.0
  0
LINE
  5
2A756
330
2A5FA
100
AcDbEntity
  8
YODOROGO
100
AcDbLine
 10
10491.60162798447
 20
574.7880296375358
 30
0.0
 11
10500.60162798446
 21
592.5020061336555
 31
0.0
  0
LINE
  5
2A757
330
2A5FA
100
AcDbEntity
  8
YODOROGO
100
AcDbLine
 10
10491.60162798447
 20
583.788029637536
 30
0.0
 11
10491.60162798447
 21
574.7880296375358
 31
0.0
  0
LINE
  5
2A758
330
2A5FA
100
AcDbEntity
  8
YODOROGO
100
AcDbLine
 10
10509.68579035926
 20
625.4060611609819
 30
0.0
 11
10491.60162798447
 21
583.788029637536
 31
0.0
  0
LINE
  5
2A759
330
2A5FA
100
AcDbEntity
  8
YODOROGO
100
AcDbLine
 10
10491.60162798447
 20
625.4060611609819
 30
0.0
 11
10509.68579035926
 21
625.4060611609819
 31
0.0
  0
LINE
  5
2A75A
330
2A5FA
100
AcDbEntity
  8
YODOROGO
100
AcDbLine
 10
10518.80082008659
 20
620.813863977996
 30
0.0
 11
10530.80082008658
 21
620.813863977996
 31
0.0
1001
AUTOCAD_POSTSCRIPT_FIGURE
1002
{
1000
PSFILL
1000
Grayscale
1000
Grayscale
1070
   100
1002
}
  0
LINE
  5
2A75B
330
2A5FA
100
AcDbEntity
  8
YODOROGO
100
AcDbLine
 10
10518.80082008659
 20
611.8138639779965
 30
0.0
 11
10518.80082008659
 21
620.813863977996
 31
0.0
1001
AUTOCAD_POSTSCRIPT_FIGURE
1002
{
1000
PSFILL
1000
Grayscale
1000
Grayscale
1070
   100
1002
}
  0
LINE
  5
2A75C
330
2A5FA
100
AcDbEntity
  8
YODOROGO
100
AcDbLine
 10
10530.80082008658
 20
611.8138639779965
 30
0.0
 11
10518.80082008659
 21
611.8138639779965
 31
0.0
1001
AUTOCAD_POSTSCRIPT_FIGURE
1002
{
1000
PSFILL
1000
Grayscale
1000
Grayscale
1070
   100
1002
}
  0
LINE
  5
2A75D
330
2A5FA
100
AcDbEntity
  8
YODOROGO
100
AcDbLine
 10
10530.80082008658
 20
562.4060611609831
 30
0.0
 11
10530.80082008658
 21
611.8138639779965
 31
0.0
1001
AUTOCAD_POSTSCRIPT_FIGURE
1002
{
1000
PSFILL
1000
Grayscale
1000
Grayscale
1070
   100
1002
}
  0
LINE
  5
2A75E
330
2A5FA
100
AcDbEntity
  8
YODOROGO
100
AcDbLine
 10
10518.8008200866
 20
562.4060611609831
 30
0.0
 11
10530.80082008658
 21
562.4060611609831
 31
0.0
1001
AUTOCAD_POSTSCRIPT_FIGURE
1002
{
1000
PSFILL
1000
Grayscale
1000
Grayscale
1070
   100
1002
}
  0
LINE
  5
2A75F
330
2A5FA
100
AcDbEntity
  8
YODOROGO
100
AcDbLine
 10
10518.8008200866
 20
553.4060611609827
 30
0.0
 11
10518.8008200866
 21
562.4060611609831
 31
0.0
1001
AUTOCAD_POSTSCRIPT_FIGURE
1002
{
1000
PSFILL
1000
Grayscale
1000
Grayscale
1070
   100
1002
}
  0
LINE
  5
2A760
330
2A5FA
100
AcDbEntity
  8
YODOROGO
100
AcDbLine
 10
10551.60162798447
 20
553.4060611609827
 30
0.0
 11
10518.8008200866
 21
553.4060611609827
 31
0.0
1001
AUTOCAD_POSTSCRIPT_FIGURE
1002
{
1000
PSFILL
1000
Grayscale
1000
Grayscale
1070
   100
1002
}
  0
LINE
  5
2A761
330
2A5FA
100
AcDbEntity
  8
YODOROGO
100
AcDbLine
 10
10551.60162798447
 20
562.4060611609831
 30
0.0
 11
10551.60162798447
 21
553.4060611609827
 31
0.0
1001
AUTOCAD_POSTSCRIPT_FIGURE
1002
{
1000
PSFILL
1000
Grayscale
1000
Grayscale
1070
   100
1002
}
  0
LINE
  5
2A762
330
2A5FA
100
AcDbEntity
  8
YODOROGO
100
AcDbLine
 10
10536.8008200866
 20
562.4060611609831
 30
0.0
 11
10551.60162798447
 21
562.4060611609831
 31
0.0
1001
AUTOCAD_POSTSCRIPT_FIGURE
1002
{
1000
PSFILL
1000
Grayscale
1000
Grayscale
1070
   100
1002
}
  0
LINE
  5
2A763
330
2A5FA
100
AcDbEntity
  8
YODOROGO
100
AcDbLine
 10
10536.8008200866
 20
611.8138639779965
 30
0.0
 11
10536.8008200866
 21
562.4060611609831
 31
0.0
1001
AUTOCAD_POSTSCRIPT_FIGURE
1002
{
1000
PSFILL
1000
Grayscale
1000
Grayscale
1070
   100
1002
}
  0
LINE
  5
2A764
330
2A5FA
100
AcDbEntity
  8
YODOROGO
100
AcDbLine
 10
10551.60162798447
 20
611.8138639779965
 30
0.0
 11
10536.8008200866
 21
611.8138639779965
 31
0.0
1001
AUTOCAD_POSTSCRIPT_FIGURE
1002
{
1000
PSFILL
1000
Grayscale
1000
Grayscale
1070
   100
1002
}
  0
LINE
  5
2A765
330
2A5FA
100
AcDbEntity
  8
YODOROGO
100
AcDbLine
 10
10551.60162798447
 20
620.813863977996
 30
0.0
 11
10551.60162798447
 21
611.8138639779965
 31
0.0
1001
AUTOCAD_POSTSCRIPT_FIGURE
1002
{
1000
PSFILL
1000
Grayscale
1000
Grayscale
1070
   100
1002
}
  0
LINE
  5
2A766
330
2A5FA
100
AcDbEntity
  8
YODOROGO
100
AcDbLine
 10
10536.8008200866
 20
620.813863977996
 30
0.0
 11
10551.60162798447
 21
620.813863977996
 31
0.0
1001
AUTOCAD_POSTSCRIPT_FIGURE
1002
{
1000
PSFILL
1000
Grayscale
1000
Grayscale
1070
   100
1002
}
  0
LINE
  5
2A767
330
2A5FA
100
AcDbEntity
  8
YODOROGO
100
AcDbLine
 10
10650.60162798447
 20
625.406061160983
 30
0.0
 11
10629.60162798447
 21
625.406061160983
 31
0.0
  0
LINE
  5
2A768
330
2A5FA
100
AcDbEntity
  8
YODOROGO
100
AcDbLine
 10
10650.60162798447
 20
604.4060611609832
 30
0.0
 11
10650.60162798447
 21
625.406061160983
 31
0.0
  0
LINE
  5
2A769
330
2A5FA
100
AcDbEntity
  8
YODOROGO
100
AcDbLine
 10
10629.60162798447
 20
625.406061160983
 30
0.0
 11
10629.60162798447
 21
604.4060611609832
 31
0.0
  0
ARC
  5
2A76A
330
2A5FA
100
AcDbEntity
  8
YODOROGO
100
AcDbCircle
 10
10692.60162798446
 20
565.4060611609828
 30
0.0
 40
30.0
100
AcDbArc
 50
180.0
 51
270.0
  0
ARC
  5
2A76B
330
2A5FA
100
AcDbEntity
  8
YODOROGO
100
AcDbCircle
 10
10701.60162798446
 20
586.4060611609825
 30
0.0
 40
15.0
100
AcDbArc
 50
180.0
 51
270.0
  0
LINE
  5
2A76C
330
2A5FA
100
AcDbEntity
  8
YODOROGO
100
AcDbLine
 10
10710.60162798447
 20
571.4060611609824
 30
0.0
 11
10701.60162798446
 21
571.4060611609824
 31
0.0
  0
ARC
  5
2A76D
330
2A5FA
100
AcDbEntity
  8
YODOROGO
100
AcDbCircle
 10
10710.60162798447
 20
580.4060611609819
 30
0.0
 40
8.999999999998637
100
AcDbArc
 50
270.0
 51
0.0000000000054281
  0
LINE
  5
2A76E
330
2A5FA
100
AcDbEntity
  8
YODOROGO
100
AcDbLine
 10
10425.60162798447
 20
709.0449677976399
 30
0.0
 11
10416.60162798446
 21
691.4162804818772
 31
0.0
1001
AUTOCAD_POSTSCRIPT_FIGURE
1002
{
1000
PSFILL
1000
Grayscale
1000
Grayscale
1070
   100
1002
}
  0
LINE
  5
2A76F
330
2A5FA
100
AcDbEntity
  8
YODOROGO
100
AcDbLine
 10
10425.60162798447
 20
655.406061160983
 30
0.0
 11
10425.60162798447
 21
709.0449677976399
 31
0.0
1001
AUTOCAD_POSTSCRIPT_FIGURE
1002
{
1000
PSFILL
1000
Grayscale
1000
Grayscale
1070
   100
1002
}
  0
LINE
  5
2A770
330
2A5FA
100
AcDbEntity
  8
YODOROGO
100
AcDbLine
 10
10431.60162798447
 20
655.406061160983
 30
0.0
 11
10425.60162798447
 21
655.406061160983
 31
0.0
1001
AUTOCAD_POSTSCRIPT_FIGURE
1002
{
1000
PSFILL
1000
Grayscale
1000
Grayscale
1070
   100
1002
}
  0
LINE
  5
2A771
330
2A5FA
100
AcDbEntity
  8
YODOROGO
100
AcDbLine
 10
10431.60162798447
 20
710.1642495319751
 30
0.0
 11
10431.60162798447
 21
655.406061160983
 31
0.0
1001
AUTOCAD_POSTSCRIPT_FIGURE
1002
{
1000
PSFILL
1000
Grayscale
1000
Grayscale
1070
   100
1002
}
  0
LINE
  5
2A772
330
2A5FA
100
AcDbEntity
  8
YODOROGO
100
AcDbLine
 10
10440.60162798446
 20
700.3705343565512
 30
0.0
 11
10431.60162798447
 21
710.1642495319751
 31
0.0
1001
AUTOCAD_POSTSCRIPT_FIGURE
1002
{
1000
PSFILL
1000
Grayscale
1000
Grayscale
1070
   100
1002
}
  0
LINE
  5
2A773
330
2A5FA
100
AcDbEntity
  8
YODOROGO
100
AcDbLine
 10
10440.60162798446
 20
706.3705343565509
 30
0.0
 11
10440.60162798446
 21
700.3705343565512
 31
0.0
1001
AUTOCAD_POSTSCRIPT_FIGURE
1002
{
1000
PSFILL
1000
Grayscale
1000
Grayscale
1070
   100
1002
}
  0
LINE
  5
2A774
330
2A5FA
100
AcDbEntity
  8
YODOROGO
100
AcDbLine
 10
10431.60162798447
 20
719.1642495319745
 30
0.0
 11
10440.60162798446
 21
706.3705343565509
 31
0.0
1001
AUTOCAD_POSTSCRIPT_FIGURE
1002
{
1000
PSFILL
1000
Grayscale
1000
Grayscale
1070
   100
1002
}
  0
LINE
  5
2A775
330
2A5FA
100
AcDbEntity
  8
YODOROGO
100
AcDbLine
 10
10431.60162798447
 20
727.4060611609828
 30
0.0
 11
10431.60162798447
 21
719.1642495319745
 31
0.0
1001
AUTOCAD_POSTSCRIPT_FIGURE
1002
{
1000
PSFILL
1000
Grayscale
1000
Grayscale
1070
   100
1002
}
  0
LINE
  5
2A776
330
2A5FA
100
AcDbEntity
  8
YODOROGO
100
AcDbLine
 10
10458.60162798446
 20
727.4060611609828
 30
0.0
 11
10431.60162798447
 21
727.4060611609828
 31
0.0
1001
AUTOCAD_POSTSCRIPT_FIGURE
1002
{
1000
PSFILL
1000
Grayscale
1000
Grayscale
1070
   100
1002
}
  0
LINE
  5
2A777
330
2A5FA
100
AcDbEntity
  8
YODOROGO
100
AcDbLine
 10
10458.60162798446
 20
712.7131308511124
 30
0.0
 11
10458.60162798446
 21
727.4060611609828
 31
0.0
1001
AUTOCAD_POSTSCRIPT_FIGURE
1002
{
1000
PSFILL
1000
Grayscale
1000
Grayscale
1070
   100
1002
}
  0
LINE
  5
2A778
330
2A5FA
100
AcDbEntity
  8
YODOROGO
100
AcDbLine
 10
10446.60162798447
 20
712.7131308511124
 30
0.0
 11
10458.60162798446
 21
712.7131308511124
 31
0.0
1001
AUTOCAD_POSTSCRIPT_FIGURE
1002
{
1000
PSFILL
1000
Grayscale
1000
Grayscale
1070
   100
1002
}
  0
LINE
  5
2A779
330
2A5FA
100
AcDbEntity
  8
YODOROGO
100
AcDbLine
 10
10446.60162798447
 20
706.7131308511119
 30
0.0
 11
10446.60162798447
 21
712.7131308511124
 31
0.0
1001
AUTOCAD_POSTSCRIPT_FIGURE
1002
{
1000
PSFILL
1000
Grayscale
1000
Grayscale
1070
   100
1002
}
  0
LINE
  5
2A77A
330
2A5FA
100
AcDbEntity
  8
YODOROGO
100
AcDbLine
 10
10458.60162798446
 20
706.7131308511119
 30
0.0
 11
10446.60162798447
 21
706.7131308511119
 31
0.0
1001
AUTOCAD_POSTSCRIPT_FIGURE
1002
{
1000
PSFILL
1000
Grayscale
1000
Grayscale
1070
   100
1002
}
  0
LINE
  5
2A77B
330
2A5FA
100
AcDbEntity
  8
YODOROGO
100
AcDbLine
 10
10458.60162798446
 20
704.8571917366647
 30
0.0
 11
10458.60162798446
 21
706.7131308511119
 31
0.0
1001
AUTOCAD_POSTSCRIPT_FIGURE
1002
{
1000
PSFILL
1000
Grayscale
1000
Grayscale
1070
   100
1002
}
  0
LINE
  5
2A77C
330
2A5FA
100
AcDbEntity
  8
YODOROGO
100
AcDbLine
 10
10443.60162798447
 20
679.8656179355313
 30
0.0
 11
10458.60162798446
 21
704.8571917366647
 31
0.0
1001
AUTOCAD_POSTSCRIPT_FIGURE
1002
{
1000
PSFILL
1000
Grayscale
1000
Grayscale
1070
   100
1002
}
  0
LINE
  5
2A77D
330
2A5FA
100
AcDbEntity
  8
YODOROGO
100
AcDbLine
 10
10443.60162798447
 20
673.8656179355309
 30
0.0
 11
10443.60162798447
 21
679.8656179355313
 31
0.0
1001
AUTOCAD_POSTSCRIPT_FIGURE
1002
{
1000
PSFILL
1000
Grayscale
1000
Grayscale
1070
   100
1002
}
  0
LINE
  5
2A77E
330
2A5FA
100
AcDbEntity
  8
YODOROGO
100
AcDbLine
 10
10458.60162798446
 20
692.8571917366638
 30
0.0
 11
10443.60162798447
 21
673.8656179355309
 31
0.0
1001
AUTOCAD_POSTSCRIPT_FIGURE
1002
{
1000
PSFILL
1000
Grayscale
1000
Grayscale
1070
   100
1002
}
  0
LINE
  5
2A77F
330
2A5FA
100
AcDbEntity
  8
YODOROGO
100
AcDbLine
 10
10458.60162798446
 20
655.406061160983
 30
0.0
 11
10458.60162798446
 21
692.8571917366638
 31
0.0
1001
AUTOCAD_POSTSCRIPT_FIGURE
1002
{
1000
PSFILL
1000
Grayscale
1000
Grayscale
1070
   100
1002
}
  0
LINE
  5
2A780
330
2A5FA
100
AcDbEntity
  8
YODOROGO
100
AcDbLine
 10
10464.60162798447
 20
655.406061160983
 30
0.0
 11
10458.60162798446
 21
655.406061160983
 31
0.0
1001
AUTOCAD_POSTSCRIPT_FIGURE
1002
{
1000
PSFILL
1000
Grayscale
1000
Grayscale
1070
   100
1002
}
  0
LINE
  5
2A781
330
2A5FA
100
AcDbEntity
  8
YODOROGO
100
AcDbLine
 10
10464.60162798447
 20
693.5283795595521
 30
0.0
 11
10464.60162798447
 21
655.406061160983
 31
0.0
1001
AUTOCAD_POSTSCRIPT_FIGURE
1002
{
1000
PSFILL
1000
Grayscale
1000
Grayscale
1070
   100
1002
}
  0
LINE
  5
2A782
330
2A5FA
100
AcDbEntity
  8
YODOROGO
100
AcDbLine
 10
10476.60162798446
 20
673.8656179355309
 30
0.0
 11
10464.60162798447
 21
693.5283795595521
 31
0.0
1001
AUTOCAD_POSTSCRIPT_FIGURE
1002
{
1000
PSFILL
1000
Grayscale
1000
Grayscale
1070
   100
1002
}
  0
LINE
  5
2A783
330
2A5FA
100
AcDbEntity
  8
YODOROGO
100
AcDbLine
 10
10476.60162798446
 20
679.8656179355313
 30
0.0
 11
10476.60162798446
 21
673.8656179355309
 31
0.0
1001
AUTOCAD_POSTSCRIPT_FIGURE
1002
{
1000
PSFILL
1000
Grayscale
1000
Grayscale
1070
   100
1002
}
  0
LINE
  5
2A784
330
2A5FA
100
AcDbEntity
  8
YODOROGO
100
AcDbLine
 10
10464.60162798447
 20
705.5283795595531
 30
0.0
 11
10476.60162798446
 21
679.8656179355313
 31
0.0
1001
AUTOCAD_POSTSCRIPT_FIGURE
1002
{
1000
PSFILL
1000
Grayscale
1000
Grayscale
1070
   100
1002
}
  0
LINE
  5
2A785
330
2A5FA
100
AcDbEntity
  8
YODOROGO
100
AcDbLine
 10
10464.60162798447
 20
706.7131308511128
 30
0.0
 11
10464.60162798447
 21
705.5283795595531
 31
0.0
1001
AUTOCAD_POSTSCRIPT_FIGURE
1002
{
1000
PSFILL
1000
Grayscale
1000
Grayscale
1070
   100
1002
}
  0
LINE
  5
2A786
330
2A5FA
100
AcDbEntity
  8
YODOROGO
100
AcDbLine
 10
10476.60162798446
 20
706.7131308511119
 30
0.0
 11
10464.60162798447
 21
706.7131308511128
 31
0.0
1001
AUTOCAD_POSTSCRIPT_FIGURE
1002
{
1000
PSFILL
1000
Grayscale
1000
Grayscale
1070
   100
1002
}
  0
LINE
  5
2A787
330
2A5FA
100
AcDbEntity
  8
YODOROGO
100
AcDbLine
 10
10476.60162798446
 20
712.7131308511124
 30
0.0
 11
10476.60162798446
 21
706.7131308511119
 31
0.0
1001
AUTOCAD_POSTSCRIPT_FIGURE
1002
{
1000
PSFILL
1000
Grayscale
1000
Grayscale
1070
   100
1002
}
  0
LINE
  5
2A788
330
2A5FA
100
AcDbEntity
  8
YODOROGO
100
AcDbLine
 10
10464.60162798447
 20
712.7131308511124
 30
0.0
 11
10476.60162798446
 21
712.7131308511124
 31
0.0
1001
AUTOCAD_POSTSCRIPT_FIGURE
1002
{
1000
PSFILL
1000
Grayscale
1000
Grayscale
1070
   100
1002
}
  0
LINE
  5
2A789
330
2A5FA
100
AcDbEntity
  8
YODOROGO
100
AcDbLine
 10
10464.60162798447
 20
727.4060611609828
 30
0.0
 11
10464.60162798447
 21
712.7131308511124
 31
0.0
1001
AUTOCAD_POSTSCRIPT_FIGURE
1002
{
1000
PSFILL
1000
Grayscale
1000
Grayscale
1070
   100
1002
}
  0
LINE
  5
2A78A
330
2A5FA
100
AcDbEntity
  8
YODOROGO
100
AcDbLine
 10
10476.60162798446
 20
727.4060611609828
 30
0.0
 11
10464.60162798447
 21
727.4060611609828
 31
0.0
1001
AUTOCAD_POSTSCRIPT_FIGURE
1002
{
1000
PSFILL
1000
Grayscale
1000
Grayscale
1070
   100
1002
}
  0
LINE
  5
2A78B
330
2A5FA
100
AcDbEntity
  8
YODOROGO
100
AcDbLine
 10
10476.60162798446
 20
733.4060611609828
 30
0.0
 11
10476.60162798446
 21
727.4060611609828
 31
0.0
1001
AUTOCAD_POSTSCRIPT_FIGURE
1002
{
1000
PSFILL
1000
Grayscale
1000
Grayscale
1070
   100
1002
}
  0
LINE
  5
2A78C
330
2A5FA
100
AcDbEntity
  8
YODOROGO
100
AcDbLine
 10
10464.60162798447
 20
733.4060611609828
 30
0.0
 11
10476.60162798446
 21
733.4060611609828
 31
0.0
1001
AUTOCAD_POSTSCRIPT_FIGURE
1002
{
1000
PSFILL
1000
Grayscale
1000
Grayscale
1070
   100
1002
}
  0
LINE
  5
2A78D
330
2A5FA
100
AcDbEntity
  8
YODOROGO
100
AcDbLine
 10
10464.60162798447
 20
742.4060611609832
 30
0.0
 11
10464.60162798447
 21
733.4060611609828
 31
0.0
1001
AUTOCAD_POSTSCRIPT_FIGURE
1002
{
1000
PSFILL
1000
Grayscale
1000
Grayscale
1070
   100
1002
}
  0
LINE
  5
2A78E
330
2A5FA
100
AcDbEntity
  8
YODOROGO
100
AcDbLine
 10
10458.60162798446
 20
742.4060611609832
 30
0.0
 11
10464.60162798447
 21
742.4060611609832
 31
0.0
1001
AUTOCAD_POSTSCRIPT_FIGURE
1002
{
1000
PSFILL
1000
Grayscale
1000
Grayscale
1070
   100
1002
}
  0
LINE
  5
2A78F
330
2A5FA
100
AcDbEntity
  8
YODOROGO
100
AcDbLine
 10
10458.60162798446
 20
733.4060611609828
 30
0.0
 11
10458.60162798446
 21
742.4060611609832
 31
0.0
1001
AUTOCAD_POSTSCRIPT_FIGURE
1002
{
1000
PSFILL
1000
Grayscale
1000
Grayscale
1070
   100
1002
}
  0
LINE
  5
2A790
330
2A5FA
100
AcDbEntity
  8
YODOROGO
100
AcDbLine
 10
10449.60162798447
 20
733.4060611609828
 30
0.0
 11
10458.60162798446
 21
733.4060611609828
 31
0.0
1001
AUTOCAD_POSTSCRIPT_FIGURE
1002
{
1000
PSFILL
1000
Grayscale
1000
Grayscale
1070
   100
1002
}
  0
LINE
  5
2A791
330
2A5FA
100
AcDbEntity
  8
YODOROGO
100
AcDbLine
 10
10449.60162798447
 20
742.4060611609832
 30
0.0
 11
10449.60162798447
 21
733.4060611609828
 31
0.0
1001
AUTOCAD_POSTSCRIPT_FIGURE
1002
{
1000
PSFILL
1000
Grayscale
1000
Grayscale
1070
   100
1002
}
  0
LINE
  5
2A792
330
2A5FA
100
AcDbEntity
  8
YODOROGO
100
AcDbLine
 10
10443.60162798447
 20
742.4060611609832
 30
0.0
 11
10449.60162798447
 21
742.4060611609832
 31
0.0
1001
AUTOCAD_POSTSCRIPT_FIGURE
1002
{
1000
PSFILL
1000
Grayscale
1000
Grayscale
1070
   100
1002
}
  0
LINE
  5
2A793
330
2A5FA
100
AcDbEntity
  8
YODOROGO
100
AcDbLine
 10
10443.60162798447
 20
733.4060611609828
 30
0.0
 11
10443.60162798447
 21
742.4060611609832
 31
0.0
1001
AUTOCAD_POSTSCRIPT_FIGURE
1002
{
1000
PSFILL
1000
Grayscale
1000
Grayscale
1070
   100
1002
}
  0
LINE
  5
2A794
330
2A5FA
100
AcDbEntity
  8
YODOROGO
100
AcDbLine
 10
10431.60162798447
 20
733.4060611609828
 30
0.0
 11
10443.60162798447
 21
733.4060611609828
 31
0.0
1001
AUTOCAD_POSTSCRIPT_FIGURE
1002
{
1000
PSFILL
1000
Grayscale
1000
Grayscale
1070
   100
1002
}
  0
LINE
  5
2A795
330
2A5FA
100
AcDbEntity
  8
YODOROGO
100
AcDbLine
 10
10431.60162798447
 20
742.4060611609832
 30
0.0
 11
10431.60162798447
 21
733.4060611609828
 31
0.0
1001
AUTOCAD_POSTSCRIPT_FIGURE
1002
{
1000
PSFILL
1000
Grayscale
1000
Grayscale
1070
   100
1002
}
  0
LINE
  5
2A796
330
2A5FA
100
AcDbEntity
  8
YODOROGO
100
AcDbLine
 10
10425.60162798447
 20
742.4060611609832
 30
0.0
 11
10431.60162798447
 21
742.4060611609832
 31
0.0
1001
AUTOCAD_POSTSCRIPT_FIGURE
1002
{
1000
PSFILL
1000
Grayscale
1000
Grayscale
1070
   100
1002
}
  0
LINE
  5
2A797
330
2A5FA
100
AcDbEntity
  8
YODOROGO
100
AcDbLine
 10
10425.60162798447
 20
733.4060611609828
 30
0.0
 11
10425.60162798447
 21
742.4060611609832
 31
0.0
1001
AUTOCAD_POSTSCRIPT_FIGURE
1002
{
1000
PSFILL
1000
Grayscale
1000
Grayscale
1070
   100
1002
}
  0
LINE
  5
2A798
330
2A5FA
100
AcDbEntity
  8
YODOROGO
100
AcDbLine
 10
10416.60162798446
 20
733.4060611609828
 30
0.0
 11
10425.60162798447
 21
733.4060611609828
 31
0.0
1001
AUTOCAD_POSTSCRIPT_FIGURE
1002
{
1000
PSFILL
1000
Grayscale
1000
Grayscale
1070
   100
1002
}
  0
LINE
  5
2A799
330
2A5FA
100
AcDbEntity
  8
YODOROGO
100
AcDbLine
 10
10416.60162798446
 20
727.4060611609828
 30
0.0
 11
10416.60162798446
 21
733.4060611609828
 31
0.0
1001
AUTOCAD_POSTSCRIPT_FIGURE
1002
{
1000
PSFILL
1000
Grayscale
1000
Grayscale
1070
   100
1002
}
  0
LINE
  5
2A79A
330
2A5FA
100
AcDbEntity
  8
YODOROGO
100
AcDbLine
 10
10425.60162798447
 20
727.4060611609828
 30
0.0
 11
10416.60162798446
 21
727.4060611609828
 31
0.0
1001
AUTOCAD_POSTSCRIPT_FIGURE
1002
{
1000
PSFILL
1000
Grayscale
1000
Grayscale
1070
   100
1002
}
  0
LINE
  5
2A79B
330
2A5FA
100
AcDbEntity
  8
YODOROGO
100
AcDbLine
 10
10425.60162798447
 20
718.0449677976392
 30
0.0
 11
10425.60162798447
 21
727.4060611609828
 31
0.0
1001
AUTOCAD_POSTSCRIPT_FIGURE
1002
{
1000
PSFILL
1000
Grayscale
1000
Grayscale
1070
   100
1002
}
  0
LINE
  5
2A79C
330
2A5FA
100
AcDbEntity
  8
YODOROGO
100
AcDbLine
 10
10416.60162798446
 20
697.4162804818766
 30
0.0
 11
10425.60162798447
 21
718.0449677976392
 31
0.0
1001
AUTOCAD_POSTSCRIPT_FIGURE
1002
{
1000
PSFILL
1000
Grayscale
1000
Grayscale
1070
   100
1002
}
  0
LINE
  5
2A79D
330
2A5FA
100
AcDbEntity
  8
YODOROGO
100
AcDbLine
 10
10416.60162798446
 20
691.4162804818772
 30
0.0
 11
10416.60162798446
 21
697.4162804818766
 31
0.0
1001
AUTOCAD_POSTSCRIPT_FIGURE
1002
{
1000
PSFILL
1000
Grayscale
1000
Grayscale
1070
   100
1002
}
  0
LINE
  5
2A79E
330
2A5FA
100
AcDbEntity
  8
YODOROGO
100
AcDbLine
 10
10596.60162798446
 20
700.406061160983
 30
0.0
 11
10650.60162798447
 21
684.3291096151149
 31
0.0
1001
AUTOCAD_POSTSCRIPT_FIGURE
1002
{
1000
PSFILL
1000
Grayscale
1000
Grayscale
1070
   100
1002
}
  0
LINE
  5
2A79F
330
2A5FA
100
AcDbEntity
  8
YODOROGO
100
AcDbLine
 10
10650.60162798447
 20
657.3291096151146
 30
0.0
 11
10596.60162798446
 21
673.4060611609827
 31
0.0
1001
AUTOCAD_POSTSCRIPT_FIGURE
1002
{
1000
PSFILL
1000
Grayscale
1000
Grayscale
1070
   100
1002
}
  0
LINE
  5
2A7A0
330
2A5FA
100
AcDbEntity
  8
YODOROGO
100
AcDbLine
 10
10650.60162798447
 20
744.329109615115
 30
0.0
 11
10596.60162798446
 21
760.4060611609829
 31
0.0
1001
AUTOCAD_POSTSCRIPT_FIGURE
1002
{
1000
PSFILL
1000
Grayscale
1000
Grayscale
1070
   100
1002
}
  0
LINE
  5
2A7A1
330
2A5FA
100
AcDbEntity
  8
YODOROGO
100
AcDbLine
 10
10596.60162798446
 20
734.9060611609829
 30
0.0
 11
10650.60162798447
 21
718.829109615115
 31
0.0
1001
AUTOCAD_POSTSCRIPT_FIGURE
1002
{
1000
PSFILL
1000
Grayscale
1000
Grayscale
1070
   100
1002
}
  0
LINE
  5
2A7A2
330
2A5FA
100
AcDbEntity
  8
YODOROGO
100
AcDbLine
 10
10596.60162798446
 20
673.4060611609827
 30
0.0
 11
10596.60162798446
 21
700.406061160983
 31
0.0
1001
AUTOCAD_POSTSCRIPT_FIGURE
1002
{
1000
PSFILL
1000
Grayscale
1000
Grayscale
1070
   100
1002
}
  0
LINE
  5
2A7A3
330
2A5FA
100
AcDbEntity
  8
YODOROGO
100
AcDbLine
 10
10596.60162798446
 20
760.4060611609829
 30
0.0
 11
10596.60162798446
 21
734.9060611609829
 31
0.0
1001
AUTOCAD_POSTSCRIPT_FIGURE
1002
{
1000
PSFILL
1000
Grayscale
1000
Grayscale
1070
   100
1002
}
  0
LINE
  5
2A7A4
330
2A5FA
100
AcDbEntity
  8
YODOROGO
100
AcDbLine
 10
10530.08862007752
 20
727.4060611609828
 30
0.0
 11
10548.60162798447
 21
655.406061160983
 31
0.0
1001
AUTOCAD_POSTSCRIPT_FIGURE
1002
{
1000
PSFILL
1000
Grayscale
1000
Grayscale
1070
   100
1002
}
  0
LINE
  5
2A7A5
330
2A5FA
100
AcDbEntity
  8
YODOROGO
100
AcDbLine
 10
10491.60162798447
 20
727.4060611609828
 30
0.0
 11
10530.08862007752
 21
727.4060611609828
 31
0.0
1001
AUTOCAD_POSTSCRIPT_FIGURE
1002
{
1000
PSFILL
1000
Grayscale
1000
Grayscale
1070
   100
1002
}
  0
LINE
  5
2A7A6
330
2A5FA
100
AcDbEntity
  8
YODOROGO
100
AcDbLine
 10
10491.60162798447
 20
733.4060611609828
 30
0.0
 11
10491.60162798447
 21
727.4060611609828
 31
0.0
1001
AUTOCAD_POSTSCRIPT_FIGURE
1002
{
1000
PSFILL
1000
Grayscale
1000
Grayscale
1070
   100
1002
}
  0
LINE
  5
2A7A7
330
2A5FA
100
AcDbEntity
  8
YODOROGO
100
AcDbLine
 10
10528.72757944497
 20
733.4060611609828
 30
0.0
 11
10491.60162798447
 21
733.4060611609828
 31
0.0
1001
AUTOCAD_POSTSCRIPT_FIGURE
1002
{
1000
PSFILL
1000
Grayscale
1000
Grayscale
1070
   100
1002
}
  0
LINE
  5
2A7A8
330
2A5FA
100
AcDbEntity
  8
YODOROGO
100
AcDbLine
 10
10526.68601849614
 20
742.4060611609832
 30
0.0
 11
10528.72757944497
 21
733.4060611609828
 31
0.0
1001
AUTOCAD_POSTSCRIPT_FIGURE
1002
{
1000
PSFILL
1000
Grayscale
1000
Grayscale
1070
   100
1002
}
  0
LINE
  5
2A7A9
330
2A5FA
100
AcDbEntity
  8
YODOROGO
100
AcDbLine
 10
10534.18601849614
 20
742.4060611609832
 30
0.0
 11
10526.68601849614
 21
742.4060611609832
 31
0.0
1001
AUTOCAD_POSTSCRIPT_FIGURE
1002
{
1000
PSFILL
1000
Grayscale
1000
Grayscale
1070
   100
1002
}
  0
LINE
  5
2A7AA
330
2A5FA
100
AcDbEntity
  8
YODOROGO
100
AcDbLine
 10
10535.92757944497
 20
733.4060611609828
 30
0.0
 11
10534.18601849614
 21
742.4060611609832
 31
0.0
1001
AUTOCAD_POSTSCRIPT_FIGURE
1002
{
1000
PSFILL
1000
Grayscale
1000
Grayscale
1070
   100
1002
}
  0
LINE
  5
2A7AB
330
2A5FA
100
AcDbEntity
  8
YODOROGO
100
AcDbLine
 10
10545.60162798447
 20
733.4060611609828
 30
0.0
 11
10535.92757944497
 21
733.4060611609828
 31
0.0
1001
AUTOCAD_POSTSCRIPT_FIGURE
1002
{
1000
PSFILL
1000
Grayscale
1000
Grayscale
1070
   100
1002
}
  0
LINE
  5
2A7AC
330
2A5FA
100
AcDbEntity
  8
YODOROGO
100
AcDbLine
 10
10545.60162798447
 20
742.4060611609832
 30
0.0
 11
10545.60162798447
 21
733.4060611609828
 31
0.0
1001
AUTOCAD_POSTSCRIPT_FIGURE
1002
{
1000
PSFILL
1000
Grayscale
1000
Grayscale
1070
   100
1002
}
  0
LINE
  5
2A7AD
330
2A5FA
100
AcDbEntity
  8
YODOROGO
100
AcDbLine
 10
10551.60162798447
 20
742.4060611609832
 30
0.0
 11
10545.60162798447
 21
742.4060611609832
 31
0.0
1001
AUTOCAD_POSTSCRIPT_FIGURE
1002
{
1000
PSFILL
1000
Grayscale
1000
Grayscale
1070
   100
1002
}
  0
LINE
  5
2A7AE
330
2A5FA
100
AcDbEntity
  8
YODOROGO
100
AcDbLine
 10
10551.60162798447
 20
733.4060611609828
 30
0.0
 11
10551.60162798447
 21
742.4060611609832
 31
0.0
1001
AUTOCAD_POSTSCRIPT_FIGURE
1002
{
1000
PSFILL
1000
Grayscale
1000
Grayscale
1070
   100
1002
}
  0
LINE
  5
2A7AF
330
2A5FA
100
AcDbEntity
  8
YODOROGO
100
AcDbLine
 10
10551.60162798447
 20
727.4060611609828
 30
0.0
 11
10551.60162798447
 21
733.4060611609828
 31
0.0
1001
AUTOCAD_POSTSCRIPT_FIGURE
1002
{
1000
PSFILL
1000
Grayscale
1000
Grayscale
1070
   100
1002
}
  0
LINE
  5
2A7B0
330
2A5FA
100
AcDbEntity
  8
YODOROGO
100
AcDbLine
 10
10537.08862007752
 20
727.4060611609828
 30
0.0
 11
10551.60162798447
 21
727.4060611609828
 31
0.0
1001
AUTOCAD_POSTSCRIPT_FIGURE
1002
{
1000
PSFILL
1000
Grayscale
1000
Grayscale
1070
   100
1002
}
  0
LINE
  5
2A7B1
330
2A5FA
100
AcDbEntity
  8
YODOROGO
100
AcDbLine
 10
10551.60162798447
 20
655.406061160983
 30
0.0
 11
10537.08862007752
 21
727.4060611609828
 31
0.0
1001
AUTOCAD_POSTSCRIPT_FIGURE
1002
{
1000
PSFILL
1000
Grayscale
1000
Grayscale
1070
   100
1002
}
  0
LINE
  5
2A7B2
330
2A5FA
100
AcDbEntity
  8
YODOROGO
100
AcDbLine
 10
10548.60162798447
 20
655.406061160983
 30
0.0
 11
10551.60162798447
 21
655.406061160983
 31
0.0
1001
AUTOCAD_POSTSCRIPT_FIGURE
1002
{
1000
PSFILL
1000
Grayscale
1000
Grayscale
1070
   100
1002
}
  0
LINE
  5
2A7B3
330
2A5FA
100
AcDbEntity
  8
YODOROGO
100
AcDbLine
 10
10529.27595747517
 20
665.902791112048
 30
0.0
 11
10491.60162798447
 21
655.406061160983
 31
0.0
  0
LINE
  5
2A7B4
330
2A5FA
100
AcDbEntity
  8
YODOROGO
100
AcDbLine
 10
10529.27595747517
 20
674.5008673234024
 30
0.0
 11
10529.27595747517
 21
665.902791112048
 31
0.0
  0
LINE
  5
2A7B5
330
2A5FA
100
AcDbEntity
  8
YODOROGO
100
AcDbLine
 10
10512.68879272982
 20
670.0563499251625
 30
0.0
 11
10529.27595747517
 21
674.5008673234024
 31
0.0
  0
LINE
  5
2A7B6
330
2A5FA
100
AcDbEntity
  8
YODOROGO
100
AcDbLine
 10
10512.68879272982
 20
702.2131308511124
 30
0.0
 11
10512.68879272982
 21
670.0563499251625
 31
0.0
  0
LINE
  5
2A7B7
330
2A5FA
100
AcDbEntity
  8
YODOROGO
100
AcDbLine
 10
10529.27595747517
 20
702.2131308511124
 30
0.0
 11
10512.68879272982
 21
702.2131308511124
 31
0.0
  0
LINE
  5
2A7B8
330
2A5FA
100
AcDbEntity
  8
YODOROGO
100
AcDbLine
 10
10529.27595747517
 20
709.7131308511116
 30
0.0
 11
10529.27595747517
 21
702.2131308511124
 31
0.0
  0
LINE
  5
2A7B9
330
2A5FA
100
AcDbEntity
  8
YODOROGO
100
AcDbLine
 10
10491.60162798447
 20
709.7131308511116
 30
0.0
 11
10529.27595747517
 21
709.7131308511116
 31
0.0
  0
LINE
  5
2A7BA
330
2A5FA
100
AcDbEntity
  8
YODOROGO
100
AcDbLine
 10
10491.60162798447
 20
702.2131308511124
 30
0.0
 11
10491.60162798447
 21
709.7131308511116
 31
0.0
  0
LINE
  5
2A7BB
330
2A5FA
100
AcDbEntity
  8
YODOROGO
100
AcDbLine
 10
10508.18879272982
 20
702.2131308511124
 30
0.0
 11
10491.60162798447
 21
702.2131308511124
 31
0.0
  0
LINE
  5
2A7BC
330
2A5FA
100
AcDbEntity
  8
YODOROGO
100
AcDbLine
 10
10508.18879272982
 20
669.252502347869
 30
0.0
 11
10508.18879272982
 21
702.2131308511124
 31
0.0
  0
LINE
  5
2A7BD
330
2A5FA
100
AcDbEntity
  8
YODOROGO
100
AcDbLine
 10
10491.60162798447
 20
664.4060611609823
 30
0.0
 11
10508.18879272982
 21
669.252502347869
 31
0.0
  0
LINE
  5
2A7BE
330
2A5FA
100
AcDbEntity
  8
YODOROGO
100
AcDbLine
 10
10491.60162798447
 20
655.406061160983
 30
0.0
 11
10491.60162798447
 21
664.4060611609823
 31
0.0
  0
LINE
  5
2A7BF
330
2A5FA
100
AcDbEntity
  8
YODOROGO
100
AcDbLine
 10
10500.60162798446
 20
640.4060611609828
 30
0.0
 11
10500.60162798446
 21
631.4060611609825
 31
0.0
  0
LINE
  5
2A7C0
330
2A5FA
100
AcDbEntity
  8
YODOROGO
100
AcDbLine
 10
10500.60162798446
 20
640.4060611609828
 30
0.0
 11
10500.60162798446
 21
640.4060611609828
 31
0.0
  0
LINE
  5
2A7C1
330
2A5FA
100
AcDbEntity
  8
YODOROGO
100
AcDbLine
 10
10506.60162798447
 20
640.4060611609828
 30
0.0
 11
10500.60162798446
 21
640.4060611609828
 31
0.0
  0
LINE
  5
2A7C2
330
2A5FA
100
AcDbEntity
  8
YODOROGO
100
AcDbLine
 10
10506.60162798447
 20
631.4060611609825
 30
0.0
 11
10506.60162798447
 21
640.4060611609828
 31
0.0
  0
LINE
  5
2A7C3
330
2A5FA
100
AcDbEntity
  8
YODOROGO
100
AcDbLine
 10
10515.34245150633
 20
631.4060611609825
 30
0.0
 11
10506.60162798447
 21
631.4060611609825
 31
0.0
  0
LINE
  5
2A7C4
330
2A5FA
100
AcDbEntity
  8
YODOROGO
100
AcDbLine
 10
10500.60162798446
 20
631.4060611609825
 30
0.0
 11
10491.60162798447
 21
631.4060611609825
 31
0.0
  0
LINE
  5
2A7C5
330
2A5FA
100
AcDbEntity
  8
YODOROGO
100
AcDbLine
 10
10530.80082008658
 20
640.4060611609828
 30
0.0
 11
10536.8008200866
 21
640.4060611609828
 31
0.0
1001
AUTOCAD_POSTSCRIPT_FIGURE
1002
{
1000
PSFILL
1000
Grayscale
1000
Grayscale
1070
   100
1002
}
  0
LINE
  5
2A7C6
330
2A5FA
100
AcDbEntity
  8
YODOROGO
100
AcDbLine
 10
10650.60162798447
 20
684.3291096151149
 30
0.0
 11
10650.60162798447
 21
657.3291096151146
 31
0.0
1001
AUTOCAD_POSTSCRIPT_FIGURE
1002
{
1000
PSFILL
1000
Grayscale
1000
Grayscale
1070
   100
1002
}
  0
LINE
  5
2A7C7
330
2A5FA
100
AcDbEntity
  8
YODOROGO
100
AcDbLine
 10
10650.60162798447
 20
718.829109615115
 30
0.0
 11
10650.60162798447
 21
744.329109615115
 31
0.0
1001
AUTOCAD_POSTSCRIPT_FIGURE
1002
{
1000
PSFILL
1000
Grayscale
1000
Grayscale
1070
   100
1002
}
  0
LINE
  5
2A7C8
330
2A5FA
100
AcDbEntity
  8
YODOROGO
100
AcDbLine
 10
10662.60162798446
 20
682.4060611609829
 30
0.0
 11
10662.60162798446
 21
655.4060611609838
 31
0.0
  0
LINE
  5
2A7C9
330
2A5FA
100
AcDbEntity
  8
YODOROGO
100
AcDbLine
 10
10686.60162798446
 20
640.4060611609828
 30
0.0
 11
10662.60162798446
 21
640.4060611609828
 31
0.0
  0
LINE
  5
2A7CA
330
2A5FA
100
AcDbEntity
  8
YODOROGO
100
AcDbLine
 10
10662.60162798446
 20
655.4060611609838
 30
0.0
 11
10719.60162798446
 21
655.4060611609838
 31
0.0
  0
LINE
  5
2A7CB
330
2A5FA
100
AcDbEntity
  8
YODOROGO
100
AcDbLine
 10
10686.60162798446
 20
700.406061160983
 30
0.0
 11
10662.60162798446
 21
700.406061160983
 31
0.0
  0
LINE
  5
2A7CC
330
2A5FA
100
AcDbEntity
  8
YODOROGO
100
AcDbLine
 10
10686.60162798446
 20
721.4060611609824
 30
0.0
 11
10686.60162798446
 21
700.406061160983
 31
0.0
  0
LINE
  5
2A7CD
330
2A5FA
100
AcDbEntity
  8
YODOROGO
100
AcDbLine
 10
10719.60162798446
 20
745.4060611609828
 30
0.0
 11
10719.60162798446
 21
760.4060611609829
 31
0.0
  0
LINE
  5
2A7CE
330
2A5FA
100
AcDbEntity
  8
YODOROGO
100
AcDbLine
 10
10662.60162798446
 20
745.4060611609828
 30
0.0
 11
10719.60162798446
 21
745.4060611609828
 31
0.0
  0
LINE
  5
2A7CF
330
2A5FA
100
AcDbEntity
  8
YODOROGO
100
AcDbLine
 10
10662.60162798446
 20
700.406061160983
 30
0.0
 11
10662.60162798446
 21
745.4060611609828
 31
0.0
  0
LINE
  5
2A7D0
330
2A5FA
100
AcDbEntity
  8
YODOROGO
100
AcDbLine
 10
10875.60162798447
 20
760.4060611609829
 30
0.0
 11
10875.60162798447
 21
607.4060611609829
 31
0.0
  0
LINE
  5
2A7D1
330
2A5FA
100
AcDbEntity
  8
YODOROGO
100
AcDbLine
 10
10902.60162798446
 20
592.4060611609831
 30
0.0
 11
10902.60162798446
 21
760.4060611609829
 31
0.0
  0
LINE
  5
2A7D2
330
2A5FA
100
AcDbEntity
  8
YODOROGO
100
AcDbLine
 10
10973.10162798446
 20
559.4060611609823
 30
0.0
 11
10973.10162798446
 21
752.9060611609828
 31
0.0
  0
LINE
  5
2A7D3
330
2A5FA
100
AcDbEntity
  8
YODOROGO
100
AcDbLine
 10
10949.10162798447
 20
752.9060611609828
 30
0.0
 11
10949.10162798447
 21
559.4060611609823
 31
0.0
  0
LINE
  5
2A7D4
330
2A5FA
100
AcDbEntity
  8
YODOROGO
100
AcDbLine
 10
11019.60162798446
 20
760.4060611609829
 30
0.0
 11
11019.60162798446
 21
535.4060611609829
 31
0.0
  0
LINE
  5
2A7D5
330
2A5FA
100
AcDbEntity
  8
YODOROGO
100
AcDbLine
 10
11046.60162798447
 20
535.4060611609829
 30
0.0
 11
11046.60162798447
 21
760.4060611609829
 31
0.0
  0
LINE
  5
2A7D6
330
2A5FA
100
AcDbEntity
  8
YODOROGO
100
AcDbLine
 10
10746.60162798446
 20
625.406061160983
 30
0.0
 11
10746.60162798446
 21
655.4060611609838
 31
0.0
  0
LINE
  5
2A7D7
330
2A5FA
100
AcDbEntity
  8
YODOROGO
100
AcDbLine
 10
11207.10162798447
 20
640.4060611609828
 30
0.0
 11
11207.10162798447
 21
625.406061160983
 31
0.0
  0
LINE
  5
2A7D8
330
2A5FA
100
AcDbEntity
  8
YODOROGO
100
AcDbLine
 10
11207.10162798447
 20
640.4060611609828
 30
0.0
 11
11207.10162798447
 21
625.406061160983
 31
0.0
  0
ARC
  5
2A7D9
330
2A5FA
100
AcDbEntity
  8
YODOROGO
100
AcDbCircle
 10
10840.09184107006
 20
606.8316991658524
 30
0.0
 40
35.51443169202812
100
AcDbArc
 50
274.052441629071
 51
0.9266642149310715
  0
ARC
  5
2A7DA
330
2A5FA
100
AcDbEntity
  8
YODOROGO
100
AcDbCircle
 10
10840.94481401992
 20
597.229023228915
 30
0.0
 40
61.84515883532068
100
AcDbArc
 50
271.5351210653777
 51
355.5272775058505
  0
LINE
  5
2A7DB
330
2A5FA
100
AcDbEntity
  8
YODOROGO
100
AcDbLine
 10
10842.60162798446
 20
571.4060611609824
 30
0.0
 11
10842.60162798446
 21
535.4060611609829
 31
0.0
  0
LINE
  5
2A7DC
330
2A5FA
100
AcDbEntity
  8
YODOROGO
100
AcDbLine
 10
10797.60162798446
 20
625.406061160983
 30
0.0
 11
10746.60162798446
 21
625.406061160983
 31
0.0
  0
LINE
  5
2A7DD
330
2A5FA
100
AcDbEntity
  8
YODOROGO
100
AcDbLine
 10
10797.60162798446
 20
601.4060611609833
 30
0.0
 11
10797.60162798446
 21
625.406061160983
 31
0.0
  0
LINE
  5
2A7DE
330
2A5FA
100
AcDbEntity
  8
YODOROGO
100
AcDbLine
 10
10746.60162798446
 20
601.4060611609833
 30
0.0
 11
10797.60162798446
 21
601.4060611609833
 31
0.0
  0
LINE
  5
2A7DF
330
2A5FA
100
AcDbEntity
  8
YODOROGO
100
AcDbLine
 10
10746.60162798446
 20
571.4060611609824
 30
0.0
 11
10746.60162798446
 21
601.4060611609833
 31
0.0
  0
LINE
  5
2A7E0
330
2A5FA
100
AcDbEntity
  8
YODOROGO
100
AcDbLine
 10
10797.60162798446
 20
571.4060611609824
 30
0.0
 11
10746.60162798446
 21
571.4060611609824
 31
0.0
  0
LINE
  5
2A7E1
330
2A5FA
100
AcDbEntity
  8
YODOROGO
100
AcDbLine
 10
10797.60162798446
 20
535.4060611609829
 30
0.0
 11
10797.60162798446
 21
571.4060611609824
 31
0.0
  0
LINE
  5
2A7E2
330
2A5FA
100
AcDbEntity
  8
YODOROGO
100
AcDbLine
 10
10949.10162798447
 20
559.4060611609823
 30
0.0
 11
10973.10162798446
 21
559.4060611609823
 31
0.0
  0
LINE
  5
2A7E3
330
2A5FA
100
AcDbEntity
  8
YODOROGO
100
AcDbLine
 10
11019.60162798446
 20
535.4060611609829
 30
0.0
 11
11046.60162798447
 21
535.4060611609829
 31
0.0
  0
LINE
  5
2A7E4
330
2A5FA
100
AcDbEntity
  8
YODOROGO
100
AcDbLine
 10
11151.60162798447
 20
573.1655445639615
 30
0.0
 11
11151.60162798447
 21
535.4060611609829
 31
0.0
  0
LINE
  5
2A7E5
330
2A5FA
100
AcDbEntity
  8
YODOROGO
100
AcDbLine
 10
11106.60162798446
 20
535.4060611609829
 30
0.0
 11
11151.60162798447
 21
573.1655445639615
 31
0.0
  0
LINE
  5
2A7E6
330
2A5FA
100
AcDbEntity
  8
YODOROGO
100
AcDbLine
 10
11106.60162798446
 20
580.406061160983
 30
0.0
 11
11106.60162798446
 21
535.4060611609829
 31
0.0
  0
LINE
  5
2A7E7
330
2A5FA
100
AcDbEntity
  8
YODOROGO
100
AcDbLine
 10
11142.35423576229
 20
610.4060611609829
 30
0.0
 11
11106.60162798446
 21
580.406061160983
 31
0.0
  0
LINE
  5
2A7E8
330
2A5FA
100
AcDbEntity
  8
YODOROGO
100
AcDbLine
 10
11106.60162798446
 20
610.4060611609829
 30
0.0
 11
11142.35423576229
 21
610.4060611609829
 31
0.0
  0
LINE
  5
2A7E9
330
2A5FA
100
AcDbEntity
  8
YODOROGO
100
AcDbLine
 10
11106.60162798446
 20
625.406061160983
 30
0.0
 11
11106.60162798446
 21
610.4060611609829
 31
0.0
  0
LINE
  5
2A7EA
330
2A5FA
100
AcDbEntity
  8
YODOROGO
100
AcDbLine
 10
11207.10162798447
 20
625.406061160983
 30
0.0
 11
11106.60162798446
 21
625.406061160983
 31
0.0
  0
LINE
  5
2A7EB
330
2A5FA
100
AcDbEntity
  8
YODOROGO
100
AcDbLine
 10
11219.10162798447
 20
610.4060611609829
 30
0.0
 11
11166.60162798446
 21
610.4060611609829
 31
0.0
  0
LINE
  5
2A7EC
330
2A5FA
100
AcDbEntity
  8
YODOROGO
100
AcDbLine
 10
11166.60162798446
 20
585.7520390316213
 30
0.0
 11
11164.27870236948
 21
583.8028730048376
 31
0.0
  0
LINE
  5
2A7ED
330
2A5FA
100
AcDbEntity
  8
YODOROGO
100
AcDbLine
 10
11166.60162798446
 20
610.4060611609829
 30
0.0
 11
11166.60162798446
 21
585.7520390316213
 31
0.0
  0
LINE
  5
2A7EE
330
2A5FA
100
AcDbEntity
  8
YODOROGO
100
AcDbLine
 10
11151.60162798447
 20
573.1655445639615
 30
0.0
 11
11151.60162798447
 21
535.4060611609829
 31
0.0
  0
LINE
  5
2A7EF
330
2A5FA
100
AcDbEntity
  8
YODOROGO
100
AcDbLine
 10
11106.60162798446
 20
535.4060611609829
 30
0.0
 11
11151.60162798447
 21
573.1655445639615
 31
0.0
  0
LINE
  5
2A7F0
330
2A5FA
100
AcDbEntity
  8
YODOROGO
100
AcDbLine
 10
11106.60162798446
 20
580.406061160983
 30
0.0
 11
11106.60162798446
 21
535.4060611609829
 31
0.0
  0
LINE
  5
2A7F1
330
2A5FA
100
AcDbEntity
  8
YODOROGO
100
AcDbLine
 10
11142.35423576229
 20
610.4060611609829
 30
0.0
 11
11106.60162798446
 21
580.406061160983
 31
0.0
  0
LINE
  5
2A7F2
330
2A5FA
100
AcDbEntity
  8
YODOROGO
100
AcDbLine
 10
11106.60162798446
 20
610.4060611609829
 30
0.0
 11
11142.35423576229
 21
610.4060611609829
 31
0.0
  0
LINE
  5
2A7F3
330
2A5FA
100
AcDbEntity
  8
YODOROGO
100
AcDbLine
 10
11106.60162798446
 20
625.406061160983
 30
0.0
 11
11106.60162798446
 21
610.4060611609829
 31
0.0
  0
LINE
  5
2A7F4
330
2A5FA
100
AcDbEntity
  8
YODOROGO
100
AcDbLine
 10
11207.10162798447
 20
625.406061160983
 30
0.0
 11
11106.60162798446
 21
625.406061160983
 31
0.0
  0
LINE
  5
2A7F5
330
2A5FA
100
AcDbEntity
  8
YODOROGO
100
AcDbLine
 10
10797.60162798446
 20
655.4060611609838
 30
0.0
 11
10797.60162798446
 21
682.4060611609829
 31
0.0
  0
LINE
  5
2A7F6
330
2A5FA
100
AcDbEntity
  8
YODOROGO
100
AcDbLine
 10
10746.60162798446
 20
655.4060611609838
 30
0.0
 11
10797.60162798446
 21
655.4060611609838
 31
0.0
  0
LINE
  5
2A7F7
330
2A5FA
100
AcDbEntity
  8
YODOROGO
100
AcDbLine
 10
10773.60162798447
 20
700.406061160983
 30
0.0
 11
10773.60162798447
 21
721.4060611609824
 31
0.0
  0
LINE
  5
2A7F8
330
2A5FA
100
AcDbEntity
  8
YODOROGO
100
AcDbLine
 10
10797.60162798446
 20
700.406061160983
 30
0.0
 11
10773.60162798447
 21
700.406061160983
 31
0.0
  0
LINE
  5
2A7F9
330
2A5FA
100
AcDbEntity
  8
YODOROGO
100
AcDbLine
 10
10797.60162798446
 20
730.4060611609828
 30
0.0
 11
10797.60162798446
 21
700.406061160983
 31
0.0
  0
ARC
  5
2A7FA
330
2A5FA
100
AcDbEntity
  8
YODOROGO
100
AcDbCircle
 10
10782.60162798446
 20
730.4060611609828
 30
0.0
 40
15.0
100
AcDbArc
 50
0.0
 51
90.0
  0
LINE
  5
2A7FB
330
2A5FA
100
AcDbEntity
  8
YODOROGO
100
AcDbLine
 10
10746.60162798447
 20
745.4060611609828
 30
0.0
 11
10782.60162798446
 21
745.4060611609828
 31
0.0
  0
LINE
  5
2A7FC
330
2A5FA
100
AcDbEntity
  8
YODOROGO
100
AcDbLine
 10
10746.60162798447
 20
760.4060611609829
 30
0.0
 11
10746.60162798447
 21
745.4060611609828
 31
0.0
  0
LINE
  5
2A7FD
330
2A5FA
100
AcDbEntity
  8
YODOROGO
100
AcDbLine
 10
10902.60162798446
 20
760.4060611609829
 30
0.0
 11
10875.60162798447
 21
760.4060611609829
 31
0.0
  0
LINE
  5
2A7FE
330
2A5FA
100
AcDbEntity
  8
YODOROGO
100
AcDbLine
 10
10973.10162798446
 20
752.9060611609828
 30
0.0
 11
10949.10162798447
 21
752.9060611609828
 31
0.0
  0
LINE
  5
2A7FF
330
2A5FA
100
AcDbEntity
  8
YODOROGO
100
AcDbLine
 10
11046.60162798447
 20
760.4060611609829
 30
0.0
 11
11019.60162798446
 21
760.4060611609829
 31
0.0
  0
LINE
  5
2A800
330
2A5FA
100
AcDbEntity
  8
YODOROGO
100
AcDbLine
 10
11127.60162798447
 20
640.4060611609828
 30
0.0
 11
11127.60162798447
 21
664.4060611609833
 31
0.0
1001
AUTOCAD_POSTSCRIPT_FIGURE
1002
{
1000
PSFILL
1000
Grayscale
1000
Grayscale
1070
    25
1002
}
  0
LINE
  5
2A801
330
2A5FA
100
AcDbEntity
  8
YODOROGO
100
AcDbLine
 10
11106.60162798446
 20
640.4060611609828
 30
0.0
 11
11127.60162798447
 21
640.4060611609828
 31
0.0
1001
AUTOCAD_POSTSCRIPT_FIGURE
1002
{
1000
PSFILL
1000
Grayscale
1000
Grayscale
1070
    25
1002
}
  0
LINE
  5
2A802
330
2A5FA
100
AcDbEntity
  8
YODOROGO
100
AcDbLine
 10
11106.60162798446
 20
682.4060611609829
 30
0.0
 11
11106.60162798446
 21
640.4060611609828
 31
0.0
1001
AUTOCAD_POSTSCRIPT_FIGURE
1002
{
1000
PSFILL
1000
Grayscale
1000
Grayscale
1070
    25
1002
}
  0
LINE
  5
2A803
330
2A5FA
100
AcDbEntity
  8
YODOROGO
100
AcDbLine
 10
11162.10162798447
 20
682.4060611609829
 30
0.0
 11
11106.60162798446
 21
682.4060611609829
 31
0.0
1001
AUTOCAD_POSTSCRIPT_FIGURE
1002
{
1000
PSFILL
1000
Grayscale
1000
Grayscale
1070
    25
1002
}
  0
LINE
  5
2A804
330
2A5FA
100
AcDbEntity
  8
YODOROGO
100
AcDbLine
 10
11162.10162798447
 20
697.406061160983
 30
0.0
 11
11162.10162798447
 21
682.4060611609829
 31
0.0
1001
AUTOCAD_POSTSCRIPT_FIGURE
1002
{
1000
PSFILL
1000
Grayscale
1000
Grayscale
1070
    25
1002
}
  0
LINE
  5
2A805
330
2A5FA
100
AcDbEntity
  8
YODOROGO
100
AcDbLine
 10
11106.60162798446
 20
697.406061160983
 30
0.0
 11
11162.10162798447
 21
697.406061160983
 31
0.0
1001
AUTOCAD_POSTSCRIPT_FIGURE
1002
{
1000
PSFILL
1000
Grayscale
1000
Grayscale
1070
    25
1002
}
  0
LINE
  5
2A806
330
2A5FA
100
AcDbEntity
  8
YODOROGO
100
AcDbLine
 10
11106.60162798446
 20
715.4060611609828
 30
0.0
 11
11106.60162798446
 21
697.406061160983
 31
0.0
1001
AUTOCAD_POSTSCRIPT_FIGURE
1002
{
1000
PSFILL
1000
Grayscale
1000
Grayscale
1070
    25
1002
}
  0
LINE
  5
2A807
330
2A5FA
100
AcDbEntity
  8
YODOROGO
100
AcDbLine
 10
11162.10162798447
 20
715.4060611609828
 30
0.0
 11
11106.60162798446
 21
715.4060611609828
 31
0.0
1001
AUTOCAD_POSTSCRIPT_FIGURE
1002
{
1000
PSFILL
1000
Grayscale
1000
Grayscale
1070
    25
1002
}
  0
LINE
  5
2A808
330
2A5FA
100
AcDbEntity
  8
YODOROGO
100
AcDbLine
 10
11162.10162798447
 20
730.4060611609828
 30
0.0
 11
11162.10162798447
 21
715.4060611609828
 31
0.0
1001
AUTOCAD_POSTSCRIPT_FIGURE
1002
{
1000
PSFILL
1000
Grayscale
1000
Grayscale
1070
    25
1002
}
  0
LINE
  5
2A809
330
2A5FA
100
AcDbEntity
  8
YODOROGO
100
AcDbLine
 10
11106.60162798446
 20
730.4060611609828
 30
0.0
 11
11162.10162798447
 21
730.4060611609828
 31
0.0
1001
AUTOCAD_POSTSCRIPT_FIGURE
1002
{
1000
PSFILL
1000
Grayscale
1000
Grayscale
1070
    25
1002
}
  0
LINE
  5
2A80A
330
2A5FA
100
AcDbEntity
  8
YODOROGO
100
AcDbLine
 10
11106.60162798446
 20
760.4060611609829
 30
0.0
 11
11106.60162798446
 21
730.4060611609828
 31
0.0
1001
AUTOCAD_POSTSCRIPT_FIGURE
1002
{
1000
PSFILL
1000
Grayscale
1000
Grayscale
1070
    25
1002
}
  0
LINE
  5
2A80B
330
2A5FA
100
AcDbEntity
  8
YODOROGO
100
AcDbLine
 10
11124.60162798446
 20
760.4060611609829
 30
0.0
 11
11106.60162798446
 21
760.4060611609829
 31
0.0
1001
AUTOCAD_POSTSCRIPT_FIGURE
1002
{
1000
PSFILL
1000
Grayscale
1000
Grayscale
1070
    25
1002
}
  0
LINE
  5
2A80C
330
2A5FA
100
AcDbEntity
  8
YODOROGO
100
AcDbLine
 10
11124.60162798446
 20
748.4060611609828
 30
0.0
 11
11124.60162798446
 21
760.4060611609829
 31
0.0
1001
AUTOCAD_POSTSCRIPT_FIGURE
1002
{
1000
PSFILL
1000
Grayscale
1000
Grayscale
1070
    25
1002
}
  0
LINE
  5
2A80D
330
2A5FA
100
AcDbEntity
  8
YODOROGO
100
AcDbLine
 10
11162.10162798447
 20
748.4060611609828
 30
0.0
 11
11124.60162798446
 21
748.4060611609828
 31
0.0
1001
AUTOCAD_POSTSCRIPT_FIGURE
1002
{
1000
PSFILL
1000
Grayscale
1000
Grayscale
1070
    25
1002
}
  0
LINE
  5
2A80E
330
2A5FA
100
AcDbEntity
  8
YODOROGO
100
AcDbLine
 10
11162.10162798447
 20
760.4060611609829
 30
0.0
 11
11162.10162798447
 21
748.4060611609828
 31
0.0
1001
AUTOCAD_POSTSCRIPT_FIGURE
1002
{
1000
PSFILL
1000
Grayscale
1000
Grayscale
1070
    25
1002
}
  0
LINE
  5
2A80F
330
2A5FA
100
AcDbEntity
  8
YODOROGO
100
AcDbLine
 10
11186.10162798447
 20
760.4060611609829
 30
0.0
 11
11162.10162798447
 21
760.4060611609829
 31
0.0
1001
AUTOCAD_POSTSCRIPT_FIGURE
1002
{
1000
PSFILL
1000
Grayscale
1000
Grayscale
1070
    25
1002
}
  0
LINE
  5
2A810
330
2A5FA
100
AcDbEntity
  8
YODOROGO
100
AcDbLine
 10
11186.10162798447
 20
748.4060611609828
 30
0.0
 11
11186.10162798447
 21
760.4060611609829
 31
0.0
1001
AUTOCAD_POSTSCRIPT_FIGURE
1002
{
1000
PSFILL
1000
Grayscale
1000
Grayscale
1070
    25
1002
}
  0
LINE
  5
2A811
330
2A5FA
100
AcDbEntity
  8
YODOROGO
100
AcDbLine
 10
11186.10162798447
 20
715.4060611609828
 30
0.0
 11
11186.10162798447
 21
730.4060611609828
 31
0.0
1001
AUTOCAD_POSTSCRIPT_FIGURE
1002
{
1000
PSFILL
1000
Grayscale
1000
Grayscale
1070
    25
1002
}
  0
LINE
  5
2A812
330
2A5FA
100
AcDbEntity
  8
YODOROGO
100
AcDbLine
 10
11186.10162798447
 20
682.4060611609829
 30
0.0
 11
11186.10162798447
 21
697.406061160983
 31
0.0
1001
AUTOCAD_POSTSCRIPT_FIGURE
1002
{
1000
PSFILL
1000
Grayscale
1000
Grayscale
1070
    25
1002
}
  0
LINE
  5
2A813
330
2A5FA
100
AcDbEntity
  8
YODOROGO
100
AcDbLine
 10
11220.60162798447
 20
664.4060611609833
 30
0.0
 11
11220.60162798447
 21
640.4060611609828
 31
0.0
1001
AUTOCAD_POSTSCRIPT_FIGURE
1002
{
1000
PSFILL
1000
Grayscale
1000
Grayscale
1070
    25
1002
}
  0
LINE
  5
2A814
330
2A5FA
100
AcDbEntity
  8
YODOROGO
100
AcDbLine
 10
11186.10162798447
 20
664.4060611609833
 30
0.0
 11
11220.60162798447
 21
664.4060611609833
 31
0.0
1001
AUTOCAD_POSTSCRIPT_FIGURE
1002
{
1000
PSFILL
1000
Grayscale
1000
Grayscale
1070
    25
1002
}
  0
LINE
  5
2A815
330
2A5FA
100
AcDbEntity
  8
YODOROGO
100
AcDbLine
 10
11186.10162798447
 20
640.4060611609828
 30
0.0
 11
11186.10162798447
 21
664.4060611609833
 31
0.0
1001
AUTOCAD_POSTSCRIPT_FIGURE
1002
{
1000
PSFILL
1000
Grayscale
1000
Grayscale
1070
    25
1002
}
  0
LINE
  5
2A816
330
2A5FA
100
AcDbEntity
  8
YODOROGO
100
AcDbLine
 10
11162.10162798447
 20
640.4060611609828
 30
0.0
 11
11186.10162798447
 21
640.4060611609828
 31
0.0
1001
AUTOCAD_POSTSCRIPT_FIGURE
1002
{
1000
PSFILL
1000
Grayscale
1000
Grayscale
1070
    25
1002
}
  0
LINE
  5
2A817
330
2A5FA
100
AcDbEntity
  8
YODOROGO
100
AcDbLine
 10
11162.10162798447
 20
664.4060611609833
 30
0.0
 11
11162.10162798447
 21
640.4060611609828
 31
0.0
1001
AUTOCAD_POSTSCRIPT_FIGURE
1002
{
1000
PSFILL
1000
Grayscale
1000
Grayscale
1070
    25
1002
}
  0
LINE
  5
2A818
330
2A5FA
100
AcDbEntity
  8
YODOROGO
100
AcDbLine
 10
11127.60162798447
 20
664.4060611609833
 30
0.0
 11
11162.10162798447
 21
664.4060611609833
 31
0.0
1001
AUTOCAD_POSTSCRIPT_FIGURE
1002
{
1000
PSFILL
1000
Grayscale
1000
Grayscale
1070
    25
1002
}
  0
ARC
  5
2A819
330
2A5FA
100
AcDbEntity
  8
YODOROGO
100
AcDbCircle
 10
11647.31921000922
 20
601.0052765683409
 30
0.0
 40
66.83298041652057
100
AcDbArc
 50
281.0262749542535
 51
357.771135755738
  0
LINE
  5
2A81A
330
2A5FA
100
AcDbEntity
  8
YODOROGO
100
AcDbLine
 10
11780.10162798446
 20
715.4060611609828
 30
0.0
 11
11687.10162798447
 21
715.4060611609828
 31
0.0
  0
LINE
  5
2A81B
330
2A5FA
100
AcDbEntity
  8
YODOROGO
100
AcDbLine
 10
11780.10162798446
 20
760.4060611609829
 30
0.0
 11
11687.10162798447
 21
760.4060611609829
 31
0.0
  0
LINE
  5
2A81C
330
2A5FA
100
AcDbEntity
  8
YODOROGO
100
AcDbLine
 10
11687.10162798447
 20
736.4060611609825
 30
0.0
 11
11780.10162798446
 21
736.4060611609825
 31
0.0
  0
LINE
  5
2A81D
330
2A5FA
100
AcDbEntity
  8
YODOROGO
100
AcDbLine
 10
11546.85162798447
 20
586.4060611609825
 30
0.0
 11
11546.85162798447
 21
658.4060611609827
 31
0.0
  0
LINE
  5
2A81E
330
2A5FA
100
AcDbEntity
  8
YODOROGO
100
AcDbLine
 10
11536.35162798447
 20
634.4060611609833
 30
0.0
 11
11536.35162798447
 21
586.4060611609825
 31
0.0
  0
LINE
  5
2A81F
330
2A5FA
100
AcDbEntity
  8
YODOROGO
100
AcDbLine
 10
11521.35162798447
 20
559.4060611609831
 30
0.0
 11
11521.35162798447
 21
634.4060611609833
 31
0.0
  0
LINE
  5
2A820
330
2A5FA
100
AcDbEntity
  8
YODOROGO
100
AcDbLine
 10
11587.35162798447
 20
634.4060611609833
 30
0.0
 11
11587.35162798447
 21
559.4060611609831
 31
0.0
  0
LINE
  5
2A821
330
2A5FA
100
AcDbEntity
  8
YODOROGO
100
AcDbLine
 10
11572.35162798446
 20
586.4060611609825
 30
0.0
 11
11572.35162798446
 21
634.4060611609833
 31
0.0
  0
LINE
  5
2A822
330
2A5FA
100
AcDbEntity
  8
YODOROGO
100
AcDbLine
 10
11561.85162798446
 20
658.4060611609827
 30
0.0
 11
11561.85162798446
 21
586.4060611609825
 31
0.0
  0
LINE
  5
2A823
330
2A5FA
100
AcDbEntity
  8
YODOROGO
100
AcDbLine
 10
11615.10162798446
 20
760.4060611609829
 30
0.0
 11
11615.10162798446
 21
550.4060611609828
 31
0.0
  0
LINE
  5
2A824
330
2A5FA
100
AcDbEntity
  8
YODOROGO
100
AcDbLine
 10
11492.10162798447
 20
535.4060611609829
 30
0.0
 11
11492.10162798447
 21
760.4060611609829
 31
0.0
  0
LINE
  5
2A825
330
2A5FA
100
AcDbEntity
  8
YODOROGO
100
AcDbLine
 10
11511.60162798447
 20
736.4060611609825
 30
0.0
 11
11511.60162798447
 21
535.4060611609829
 31
0.0
  0
LINE
  5
2A826
330
2A5FA
100
AcDbEntity
  8
YODOROGO
100
AcDbLine
 10
11597.10162798446
 20
580.406061160983
 30
0.0
 11
11597.10162798446
 21
736.4060611609825
 31
0.0
  0
LINE
  5
2A827
330
2A5FA
100
AcDbEntity
  8
YODOROGO
100
AcDbLine
 10
11393.10162798446
 20
610.4060611609829
 30
0.0
 11
11393.10162798446
 21
629.9060611609831
 31
0.0
  0
LINE
  5
2A828
330
2A5FA
100
AcDbEntity
  8
YODOROGO
100
AcDbLine
 10
11481.60162798447
 20
629.9060611609831
 30
0.0
 11
11481.60162798447
 21
610.4060611609829
 31
0.0
  0
LINE
  5
2A829
330
2A5FA
100
AcDbEntity
  8
YODOROGO
100
AcDbLine
 10
11687.10162798447
 20
715.4060611609828
 30
0.0
 11
11687.10162798447
 21
613.4060611609827
 31
0.0
  0
LINE
  5
2A82A
330
2A5FA
100
AcDbEntity
  8
YODOROGO
100
AcDbLine
 10
11231.10162798446
 20
625.406061160983
 30
0.0
 11
11231.10162798446
 21
640.4060611609828
 31
0.0
  0
LINE
  5
2A82B
330
2A5FA
100
AcDbEntity
  8
YODOROGO
100
AcDbLine
 10
11231.10162798446
 20
625.406061160983
 30
0.0
 11
11231.10162798446
 21
640.4060611609828
 31
0.0
  0
ARC
  5
2A82C
330
2A5FA
100
AcDbEntity
  8
YODOROGO
100
AcDbCircle
 10
11451.60162798447
 20
565.4060611609828
 30
0.0
 40
30.0
100
AcDbArc
 50
270.0
 51
0.0
  0
LINE
  5
2A82D
330
2A5FA
100
AcDbEntity
  8
YODOROGO
100
AcDbLine
 10
11463.60162798446
 20
599.9060611609831
 30
0.0
 11
11481.60162798447
 21
599.9060611609831
 31
0.0
  0
LINE
  5
2A82E
330
2A5FA
100
AcDbEntity
  8
YODOROGO
100
AcDbLine
 10
11481.60162798447
 20
610.4060611609829
 30
0.0
 11
11448.60162798446
 21
610.4060611609829
 31
0.0
  0
LINE
  5
2A82F
330
2A5FA
100
AcDbEntity
  8
YODOROGO
100
AcDbLine
 10
11331.60162798447
 20
625.406061160983
 30
0.0
 11
11231.10162798446
 21
625.406061160983
 31
0.0
  0
LINE
  5
2A830
330
2A5FA
100
AcDbEntity
  8
YODOROGO
100
AcDbLine
 10
11331.60162798447
 20
610.4060611609829
 30
0.0
 11
11331.60162798447
 21
625.406061160983
 31
0.0
  0
LINE
  5
2A831
330
2A5FA
100
AcDbEntity
  8
YODOROGO
100
AcDbLine
 10
11256.60162798447
 20
610.4060611609829
 30
0.0
 11
11331.60162798447
 21
610.4060611609829
 31
0.0
  0
ARC
  5
2A832
330
2A5FA
100
AcDbEntity
  8
YODOROGO
100
AcDbCircle
 10
11336.27206076301
 20
700.8321431073384
 30
0.0
 40
120.5166136069605
100
AcDbArc
 50
228.6181454618993
 51
245.660289248906
  0
LINE
  5
2A833
330
2A5FA
100
AcDbEntity
  8
YODOROGO
100
AcDbLine
 10
11289.60162798447
 20
601.4060611609833
 30
0.0
 11
11286.60162798448
 21
591.0273059512126
 31
0.0
  0
LINE
  5
2A834
330
2A5FA
100
AcDbEntity
  8
YODOROGO
100
AcDbLine
 10
11321.10162798447
 20
601.4060611609833
 30
0.0
 11
11289.60162798447
 21
601.4060611609833
 31
0.0
  0
LINE
  5
2A835
330
2A5FA
100
AcDbEntity
  8
YODOROGO
100
AcDbLine
 10
11316.60162798447
 20
581.9316459275352
 30
0.0
 11
11321.10162798447
 21
601.4060611609833
 31
0.0
  0
ARC
  5
2A836
330
2A5FA
100
AcDbEntity
  8
YODOROGO
100
AcDbCircle
 10
11336.27206076267
 20
700.832143107376
 30
0.0
 40
120.516613606984
100
AcDbArc
 50
260.6062929796992
 51
267.7790355655586
  0
LINE
  5
2A837
330
2A5FA
100
AcDbEntity
  8
YODOROGO
100
AcDbLine
 10
11331.60162798447
 20
535.4060611609821
 30
0.0
 11
11331.60162798447
 21
580.406061160983
 31
0.0
  0
LINE
  5
2A838
330
2A5FA
100
AcDbEntity
  8
YODOROGO
100
AcDbLine
 10
11226.60162798446
 20
555.5022505933164
 30
0.0
 11
11226.60162798446
 21
597.949158949178
 31
0.0
  0
LINE
  5
2A839
330
2A5FA
100
AcDbEntity
  8
YODOROGO
100
AcDbLine
 10
11331.60162798447
 20
625.406061160983
 30
0.0
 11
11231.10162798446
 21
625.406061160983
 31
0.0
  0
LINE
  5
2A83A
330
2A5FA
100
AcDbEntity
  8
YODOROGO
100
AcDbLine
 10
11331.60162798447
 20
610.4060611609829
 30
0.0
 11
11331.60162798447
 21
625.406061160983
 31
0.0
  0
LINE
  5
2A83B
330
2A5FA
100
AcDbEntity
  8
YODOROGO
100
AcDbLine
 10
11256.60162798447
 20
610.4060611609829
 30
0.0
 11
11331.60162798447
 21
610.4060611609829
 31
0.0
  0
ARC
  5
2A83C
330
2A5FA
100
AcDbEntity
  8
YODOROGO
100
AcDbCircle
 10
11336.27206076301
 20
700.8321431073384
 30
0.0
 40
120.5166136069605
100
AcDbArc
 50
228.6181454618993
 51
245.660289248906
  0
LINE
  5
2A83D
330
2A5FA
100
AcDbEntity
  8
YODOROGO
100
AcDbLine
 10
11289.60162798447
 20
601.4060611609833
 30
0.0
 11
11286.60162798448
 21
591.0273059512126
 31
0.0
  0
LINE
  5
2A83E
330
2A5FA
100
AcDbEntity
  8
YODOROGO
100
AcDbLine
 10
11321.10162798447
 20
601.4060611609833
 30
0.0
 11
11289.60162798447
 21
601.4060611609833
 31
0.0
  0
LINE
  5
2A83F
330
2A5FA
100
AcDbEntity
  8
YODOROGO
100
AcDbLine
 10
11316.60162798447
 20
581.9316459275352
 30
0.0
 11
11321.10162798447
 21
601.4060611609833
 31
0.0
  0
ARC
  5
2A840
330
2A5FA
100
AcDbEntity
  8
YODOROGO
100
AcDbCircle
 10
11336.27206076267
 20
700.832143107376
 30
0.0
 40
120.516613606984
100
AcDbArc
 50
260.6062929796992
 51
267.7790355655586
  0
LINE
  5
2A841
330
2A5FA
100
AcDbEntity
  8
YODOROGO
100
AcDbLine
 10
11331.60162798447
 20
535.4060611609821
 30
0.0
 11
11331.60162798447
 21
580.406061160983
 31
0.0
  0
LINE
  5
2A842
330
2A5FA
100
AcDbEntity
  8
YODOROGO
100
AcDbLine
 10
11226.60162798446
 20
555.5022505933164
 30
0.0
 11
11226.60162798446
 21
597.949158949178
 31
0.0
  0
LINE
  5
2A843
330
2A5FA
100
AcDbEntity
  8
YODOROGO
100
AcDbLine
 10
11412.60162798447
 20
590.1560611609832
 30
0.0
 11
11393.10162798446
 21
590.1560611609832
 31
0.0
  0
LINE
  5
2A844
330
2A5FA
100
AcDbEntity
  8
YODOROGO
100
AcDbLine
 10
11412.60162798447
 20
600.6560611609824
 30
0.0
 11
11412.60162798447
 21
590.1560611609832
 31
0.0
  0
LINE
  5
2A845
330
2A5FA
100
AcDbEntity
  8
YODOROGO
100
AcDbLine
 10
11393.10162798446
 20
600.6560611609824
 30
0.0
 11
11412.60162798447
 21
600.6560611609824
 31
0.0
  0
LINE
  5
2A846
330
2A5FA
100
AcDbEntity
  8
YODOROGO
100
AcDbLine
 10
11393.10162798446
 20
590.1560611609832
 30
0.0
 11
11393.10162798446
 21
600.6560611609824
 31
0.0
  0
LINE
  5
2A847
330
2A5FA
100
AcDbEntity
  8
YODOROGO
100
AcDbLine
 10
11411.10162798447
 20
591.6560611609829
 30
0.0
 11
11394.60162798447
 21
591.6560611609829
 31
0.0
  0
LINE
  5
2A848
330
2A5FA
100
AcDbEntity
  8
YODOROGO
100
AcDbLine
 10
11411.10162798447
 20
599.156061160983
 30
0.0
 11
11411.10162798447
 21
591.6560611609829
 31
0.0
  0
LINE
  5
2A849
330
2A5FA
100
AcDbEntity
  8
YODOROGO
100
AcDbLine
 10
11394.60162798447
 20
599.156061160983
 30
0.0
 11
11411.10162798447
 21
599.156061160983
 31
0.0
  0
LINE
  5
2A84A
330
2A5FA
100
AcDbEntity
  8
YODOROGO
100
AcDbLine
 10
11394.60162798447
 20
591.6560611609829
 30
0.0
 11
11394.60162798447
 21
599.156061160983
 31
0.0
  0
LINE
  5
2A84B
330
2A5FA
100
AcDbEntity
  8
YODOROGO
100
AcDbLine
 10
11409.60162798447
 20
593.1560611609824
 30
0.0
 11
11396.10162798446
 21
593.1560611609824
 31
0.0
  0
LINE
  5
2A84C
330
2A5FA
100
AcDbEntity
  8
YODOROGO
100
AcDbLine
 10
11409.60162798447
 20
597.6560611609833
 30
0.0
 11
11409.60162798447
 21
593.1560611609824
 31
0.0
  0
LINE
  5
2A84D
330
2A5FA
100
AcDbEntity
  8
YODOROGO
100
AcDbLine
 10
11396.10162798446
 20
597.6560611609833
 30
0.0
 11
11409.60162798447
 21
597.6560611609833
 31
0.0
  0
LINE
  5
2A84E
330
2A5FA
100
AcDbEntity
  8
YODOROGO
100
AcDbLine
 10
11396.10162798446
 20
593.1560611609824
 30
0.0
 11
11396.10162798446
 21
597.6560611609833
 31
0.0
  0
LINE
  5
2A84F
330
2A5FA
100
AcDbEntity
  8
YODOROGO
100
AcDbLine
 10
11408.10162798447
 20
594.6560611609827
 30
0.0
 11
11397.60162798447
 21
594.6560611609827
 31
0.0
  0
LINE
  5
2A850
330
2A5FA
100
AcDbEntity
  8
YODOROGO
100
AcDbLine
 10
11408.10162798447
 20
596.1560611609829
 30
0.0
 11
11408.10162798447
 21
594.6560611609827
 31
0.0
  0
LINE
  5
2A851
330
2A5FA
100
AcDbEntity
  8
YODOROGO
100
AcDbLine
 10
11397.60162798447
 20
596.1560611609829
 30
0.0
 11
11408.10162798447
 21
596.1560611609829
 31
0.0
  0
LINE
  5
2A852
330
2A5FA
100
AcDbEntity
  8
YODOROGO
100
AcDbLine
 10
11397.60162798447
 20
594.6560611609827
 30
0.0
 11
11397.60162798447
 21
596.1560611609829
 31
0.0
  0
LINE
  5
2A853
330
2A5FA
100
AcDbEntity
  8
YODOROGO
100
AcDbLine
 10
11424.60162798446
 20
610.4060611609829
 30
0.0
 11
11393.10162798446
 21
610.4060611609829
 31
0.0
  0
LINE
  5
2A854
330
2A5FA
100
AcDbEntity
  8
YODOROGO
100
AcDbLine
 10
11424.60162798446
 20
580.406061160983
 30
0.0
 11
11424.60162798446
 21
610.4060611609829
 31
0.0
  0
LINE
  5
2A855
330
2A5FA
100
AcDbEntity
  8
YODOROGO
100
AcDbLine
 10
11393.10162798446
 20
580.406061160983
 30
0.0
 11
11424.60162798446
 21
580.406061160983
 31
0.0
  0
LINE
  5
2A856
330
2A5FA
100
AcDbEntity
  8
YODOROGO
100
AcDbLine
 10
11393.10162798446
 20
535.4060611609829
 30
0.0
 11
11393.10162798446
 21
580.406061160983
 31
0.0
  0
LINE
  5
2A857
330
2A5FA
100
AcDbEntity
  8
YODOROGO
100
AcDbLine
 10
11451.60162798447
 20
535.4060611609829
 30
0.0
 11
11393.10162798446
 21
535.4060611609829
 31
0.0
  0
LINE
  5
2A858
330
2A5FA
100
AcDbEntity
  8
YODOROGO
100
AcDbLine
 10
11463.60162798446
 20
589.4060611609823
 30
0.0
 11
11463.60162798446
 21
599.9060611609831
 31
0.0
  0
ARC
  5
2A859
330
2A5FA
100
AcDbEntity
  8
YODOROGO
100
AcDbCircle
 10
11454.60162798446
 20
589.4060611609843
 30
0.0
 40
9.000000000001408
100
AcDbArc
 50
270.0
 51
359.9999999999877
  0
LINE
  5
2A85A
330
2A5FA
100
AcDbEntity
  8
YODOROGO
100
AcDbLine
 10
11448.60162798446
 20
580.406061160983
 30
0.0
 11
11454.60162798446
 21
580.406061160983
 31
0.0
  0
LINE
  5
2A85B
330
2A5FA
100
AcDbEntity
  8
YODOROGO
100
AcDbLine
 10
11448.60162798446
 20
610.4060611609829
 30
0.0
 11
11448.60162798446
 21
580.406061160983
 31
0.0
  0
LINE
  5
2A85C
330
2A5FA
100
AcDbEntity
  8
YODOROGO
100
AcDbLine
 10
11587.35162798447
 20
580.406061160983
 30
0.0
 11
11597.10162798446
 21
580.406061160983
 31
0.0
  0
LINE
  5
2A85D
330
2A5FA
100
AcDbEntity
  8
YODOROGO
100
AcDbLine
 10
11600.10162798446
 20
535.4060611609829
 30
0.0
 11
11587.35162798447
 21
535.4060611609829
 31
0.0
  0
LINE
  5
2A85E
330
2A5FA
100
AcDbEntity
  8
YODOROGO
100
AcDbLine
 10
11536.35162798447
 20
586.4060611609825
 30
0.0
 11
11546.85162798447
 21
586.4060611609825
 31
0.0
  0
LINE
  5
2A85F
330
2A5FA
100
AcDbEntity
  8
YODOROGO
100
AcDbLine
 10
11587.35162798447
 20
559.4060611609831
 30
0.0
 11
11521.35162798447
 21
559.4060611609831
 31
0.0
  0
LINE
  5
2A860
330
2A5FA
100
AcDbEntity
  8
YODOROGO
100
AcDbLine
 10
11561.85162798446
 20
586.4060611609825
 30
0.0
 11
11572.35162798446
 21
586.4060611609825
 31
0.0
  0
LINE
  5
2A861
330
2A5FA
100
AcDbEntity
  8
YODOROGO
100
AcDbLine
 10
11587.35162798447
 20
535.4060611609829
 30
0.0
 11
11587.35162798447
 21
580.406061160983
 31
0.0
  0
LINE
  5
2A862
330
2A5FA
100
AcDbEntity
  8
YODOROGO
100
AcDbLine
 10
11511.60162798447
 20
535.4060611609829
 30
0.0
 11
11492.10162798447
 21
535.4060611609829
 31
0.0
  0
LINE
  5
2A863
330
2A5FA
100
AcDbEntity
  8
YODOROGO
100
AcDbLine
 10
11481.60162798447
 20
599.9060611609831
 30
0.0
 11
11481.60162798447
 21
565.4060611609828
 31
0.0
  0
ARC
  5
2A864
330
2A5FA
100
AcDbEntity
  8
YODOROGO
100
AcDbCircle
 10
11600.10162798446
 20
550.4060611609828
 30
0.0
 40
15.0
100
AcDbArc
 50
270.0
 51
0.0
  0
LINE
  5
2A865
330
2A5FA
100
AcDbEntity
  8
YODOROGO
100
AcDbLine
 10
11660.10162798446
 20
571.4060611609824
 30
0.0
 11
11660.10162798446
 21
535.4060611609829
 31
0.0
  0
ARC
  5
2A866
330
2A5FA
100
AcDbEntity
  8
YODOROGO
100
AcDbCircle
 10
11639.89552333754
 20
614.0742712911499
 30
0.0
 40
47.21083372187828
100
AcDbArc
 50
295.3405244216011
 51
359.1890230341867
  0
LINE
  5
2A867
330
2A5FA
100
AcDbEntity
  8
YODOROGO
100
AcDbLine
 10
11481.60162798447
 20
697.406061160983
 30
0.0
 11
11436.60162798447
 21
727.4060611609828
 31
0.0
  0
LINE
  5
2A868
330
2A5FA
100
AcDbEntity
  8
YODOROGO
100
AcDbLine
 10
11436.60162798447
 20
760.4060611609829
 30
0.0
 11
11481.60162798447
 21
730.4060611609828
 31
0.0
  0
LINE
  5
2A869
330
2A5FA
100
AcDbEntity
  8
YODOROGO
100
AcDbLine
 10
11448.60162798446
 20
629.9060611609831
 30
0.0
 11
11481.60162798447
 21
629.9060611609831
 31
0.0
  0
LINE
  5
2A86A
330
2A5FA
100
AcDbEntity
  8
YODOROGO
100
AcDbLine
 10
11481.60162798447
 20
650.9060611609827
 30
0.0
 11
11448.60162798446
 21
650.9060611609827
 31
0.0
  0
LINE
  5
2A86B
330
2A5FA
100
AcDbEntity
  8
YODOROGO
100
AcDbLine
 10
11393.10162798446
 20
673.4060611609827
 30
0.0
 11
11481.60162798447
 21
673.4060611609827
 31
0.0
  0
LINE
  5
2A86C
330
2A5FA
100
AcDbEntity
  8
YODOROGO
100
AcDbLine
 10
11280.60162798447
 20
760.4060611609829
 30
0.0
 11
11258.10162798447
 21
760.4060611609829
 31
0.0
  0
LINE
  5
2A86D
330
2A5FA
100
AcDbEntity
  8
YODOROGO
100
AcDbLine
 10
11280.60162798447
 20
685.4060611609829
 30
0.0
 11
11280.60162798447
 21
760.4060611609829
 31
0.0
  0
LINE
  5
2A86E
330
2A5FA
100
AcDbEntity
  8
YODOROGO
100
AcDbLine
 10
11258.10162798447
 20
685.4060611609829
 30
0.0
 11
11280.60162798447
 21
685.4060611609829
 31
0.0
  0
LINE
  5
2A86F
330
2A5FA
100
AcDbEntity
  8
YODOROGO
100
AcDbLine
 10
11258.10162798447
 20
760.4060611609829
 30
0.0
 11
11258.10162798447
 21
685.4060611609829
 31
0.0
  0
LINE
  5
2A870
330
2A5FA
100
AcDbEntity
  8
YODOROGO
100
AcDbLine
 10
11310.60162798447
 20
760.4060611609829
 30
0.0
 11
11331.60162798447
 21
760.4060611609829
 31
0.0
  0
LINE
  5
2A871
330
2A5FA
100
AcDbEntity
  8
YODOROGO
100
AcDbLine
 10
11310.60162798447
 20
679.4060611609832
 30
0.0
 11
11310.60162798447
 21
760.4060611609829
 31
0.0
  0
ARC
  5
2A872
330
2A5FA
100
AcDbEntity
  8
YODOROGO
100
AcDbCircle
 10
11295.60162798447
 20
679.4060611609832
 30
0.0
 40
15.0
100
AcDbArc
 50
270.0
 51
0.0
  0
LINE
  5
2A873
330
2A5FA
100
AcDbEntity
  8
YODOROGO
100
AcDbLine
 10
11258.10162798447
 20
664.4060611609833
 30
0.0
 11
11295.60162798447
 21
664.4060611609833
 31
0.0
  0
LINE
  5
2A874
330
2A5FA
100
AcDbEntity
  8
YODOROGO
100
AcDbLine
 10
11258.10162798447
 20
640.4060611609828
 30
0.0
 11
11258.10162798447
 21
664.4060611609833
 31
0.0
  0
LINE
  5
2A875
330
2A5FA
100
AcDbEntity
  8
YODOROGO
100
AcDbLine
 10
11301.60162798446
 20
640.4060611609828
 30
0.0
 11
11258.10162798447
 21
640.4060611609828
 31
0.0
  0
ARC
  5
2A876
330
2A5FA
100
AcDbEntity
  8
YODOROGO
100
AcDbCircle
 10
11301.60162798446
 20
670.4060611609828
 30
0.0
 40
30.0
100
AcDbArc
 50
270.0
 51
0.0
  0
LINE
  5
2A877
330
2A5FA
100
AcDbEntity
  8
YODOROGO
100
AcDbLine
 10
11331.60162798447
 20
760.4060611609829
 30
0.0
 11
11331.60162798447
 21
670.4060611609828
 31
0.0
  0
LINE
  5
2A878
330
2A5FA
100
AcDbEntity
  8
YODOROGO
100
AcDbLine
 10
11241.60162798446
 20
730.4060611609828
 30
0.0
 11
11241.60162798446
 21
748.4060611609828
 31
0.0
1001
AUTOCAD_POSTSCRIPT_FIGURE
1002
{
1000
PSFILL
1000
Grayscale
1000
Grayscale
1070
    25
1002
}
  0
LINE
  5
2A879
330
2A5FA
100
AcDbEntity
  8
YODOROGO
100
AcDbLine
 10
11241.60162798446
 20
697.406061160983
 30
0.0
 11
11241.60162798446
 21
715.4060611609828
 31
0.0
1001
AUTOCAD_POSTSCRIPT_FIGURE
1002
{
1000
PSFILL
1000
Grayscale
1000
Grayscale
1070
    25
1002
}
  0
LINE
  5
2A87A
330
2A5FA
100
AcDbEntity
  8
YODOROGO
100
AcDbLine
 10
11241.60162798446
 20
640.4060611609828
 30
0.0
 11
11241.60162798446
 21
682.4060611609829
 31
0.0
1001
AUTOCAD_POSTSCRIPT_FIGURE
1002
{
1000
PSFILL
1000
Grayscale
1000
Grayscale
1070
    25
1002
}
  0
LINE
  5
2A87B
330
2A5FA
100
AcDbEntity
  8
YODOROGO
100
AcDbLine
 10
11393.10162798446
 20
715.4060611609828
 30
0.0
 11
11436.60162798447
 21
760.4060611609829
 31
0.0
  0
LINE
  5
2A87C
330
2A5FA
100
AcDbEntity
  8
YODOROGO
100
AcDbLine
 10
11393.10162798446
 20
682.4060611609829
 30
0.0
 11
11393.10162798446
 21
715.4060611609828
 31
0.0
  0
LINE
  5
2A87D
330
2A5FA
100
AcDbEntity
  8
YODOROGO
100
AcDbLine
 10
11436.60162798447
 20
727.4060611609828
 30
0.0
 11
11393.10162798446
 21
682.4060611609829
 31
0.0
  0
LINE
  5
2A87E
330
2A5FA
100
AcDbEntity
  8
YODOROGO
100
AcDbLine
 10
11424.60162798446
 20
629.9060611609831
 30
0.0
 11
11424.60162798446
 21
650.9060611609827
 31
0.0
  0
LINE
  5
2A87F
330
2A5FA
100
AcDbEntity
  8
YODOROGO
100
AcDbLine
 10
11393.10162798446
 20
629.9060611609831
 30
0.0
 11
11424.60162798446
 21
629.9060611609831
 31
0.0
  0
LINE
  5
2A880
330
2A5FA
100
AcDbEntity
  8
YODOROGO
100
AcDbLine
 10
11448.60162798446
 20
650.9060611609827
 30
0.0
 11
11448.60162798446
 21
629.9060611609831
 31
0.0
  0
LINE
  5
2A881
330
2A5FA
100
AcDbEntity
  8
YODOROGO
100
AcDbLine
 10
11393.10162798446
 20
650.9060611609827
 30
0.0
 11
11393.10162798446
 21
673.4060611609827
 31
0.0
  0
LINE
  5
2A882
330
2A5FA
100
AcDbEntity
  8
YODOROGO
100
AcDbLine
 10
11424.60162798446
 20
650.9060611609827
 30
0.0
 11
11393.10162798446
 21
650.9060611609827
 31
0.0
  0
LINE
  5
2A883
330
2A5FA
100
AcDbEntity
  8
YODOROGO
100
AcDbLine
 10
11492.10162798447
 20
760.4060611609829
 30
0.0
 11
11615.10162798446
 21
760.4060611609829
 31
0.0
  0
LINE
  5
2A884
330
2A5FA
100
AcDbEntity
  8
YODOROGO
100
AcDbLine
 10
11597.10162798446
 20
736.4060611609825
 30
0.0
 11
11511.60162798447
 21
736.4060611609825
 31
0.0
  0
LINE
  5
2A885
330
2A5FA
100
AcDbEntity
  8
YODOROGO
100
AcDbLine
 10
11577.60162798447
 20
682.4060611609829
 30
0.0
 11
11587.35162798447
 21
682.4060611609829
 31
0.0
  0
LINE
  5
2A886
330
2A5FA
100
AcDbEntity
  8
YODOROGO
100
AcDbLine
 10
11587.35162798447
 20
727.4060611609828
 30
0.0
 11
11577.60162798447
 21
682.4060611609829
 31
0.0
  0
LINE
  5
2A887
330
2A5FA
100
AcDbEntity
  8
YODOROGO
100
AcDbLine
 10
11569.35162798446
 20
727.4060611609828
 30
0.0
 11
11587.35162798447
 21
727.4060611609828
 31
0.0
  0
LINE
  5
2A888
330
2A5FA
100
AcDbEntity
  8
YODOROGO
100
AcDbLine
 10
11559.60162798447
 20
682.4060611609829
 30
0.0
 11
11569.35162798446
 21
727.4060611609828
 31
0.0
  0
LINE
  5
2A889
330
2A5FA
100
AcDbEntity
  8
YODOROGO
100
AcDbLine
 10
11549.10162798447
 20
682.4060611609829
 30
0.0
 11
11559.60162798447
 21
682.4060611609829
 31
0.0
  0
LINE
  5
2A88A
330
2A5FA
100
AcDbEntity
  8
YODOROGO
100
AcDbLine
 10
11539.35162798447
 20
727.4060611609828
 30
0.0
 11
11549.10162798447
 21
682.4060611609829
 31
0.0
  0
LINE
  5
2A88B
330
2A5FA
100
AcDbEntity
  8
YODOROGO
100
AcDbLine
 10
11521.35162798447
 20
727.4060611609828
 30
0.0
 11
11539.35162798447
 21
727.4060611609828
 31
0.0
  0
LINE
  5
2A88C
330
2A5FA
100
AcDbEntity
  8
YODOROGO
100
AcDbLine
 10
11531.10162798447
 20
682.4060611609829
 30
0.0
 11
11521.35162798447
 21
727.4060611609828
 31
0.0
  0
LINE
  5
2A88D
330
2A5FA
100
AcDbEntity
  8
YODOROGO
100
AcDbLine
 10
11521.35162798447
 20
682.4060611609829
 30
0.0
 11
11531.10162798447
 21
682.4060611609829
 31
0.0
  0
LINE
  5
2A88E
330
2A5FA
100
AcDbEntity
  8
YODOROGO
100
AcDbLine
 10
11521.35162798447
 20
658.4060611609827
 30
0.0
 11
11521.35162798447
 21
682.4060611609829
 31
0.0
  0
LINE
  5
2A88F
330
2A5FA
100
AcDbEntity
  8
YODOROGO
100
AcDbLine
 10
11587.35162798447
 20
658.4060611609827
 30
0.0
 11
11521.35162798447
 21
658.4060611609827
 31
0.0
  0
LINE
  5
2A890
330
2A5FA
100
AcDbEntity
  8
YODOROGO
100
AcDbLine
 10
11587.35162798447
 20
682.4060611609829
 30
0.0
 11
11587.35162798447
 21
658.4060611609827
 31
0.0
  0
LINE
  5
2A891
330
2A5FA
100
AcDbEntity
  8
YODOROGO
100
AcDbLine
 10
11481.60162798447
 20
730.4060611609828
 30
0.0
 11
11481.60162798447
 21
697.406061160983
 31
0.0
  0
LINE
  5
2A892
330
2A5FA
100
AcDbEntity
  8
YODOROGO
100
AcDbLine
 10
11546.85162798447
 20
658.4060611609827
 30
0.0
 11
11561.85162798446
 21
658.4060611609827
 31
0.0
  0
LINE
  5
2A893
330
2A5FA
100
AcDbEntity
  8
YODOROGO
100
AcDbLine
 10
11521.35162798447
 20
634.4060611609833
 30
0.0
 11
11536.35162798447
 21
634.4060611609833
 31
0.0
  0
LINE
  5
2A894
330
2A5FA
100
AcDbEntity
  8
YODOROGO
100
AcDbLine
 10
11572.35162798446
 20
634.4060611609833
 30
0.0
 11
11587.35162798447
 21
634.4060611609833
 31
0.0
  0
LINE
  5
2A895
330
2A5FA
100
AcDbEntity
  8
YODOROGO
100
AcDbLine
 10
11481.60162798447
 20
673.4060611609827
 30
0.0
 11
11481.60162798447
 21
650.9060611609827
 31
0.0
  0
LINE
  5
2A896
330
2A5FA
100
AcDbEntity
  8
YODOROGO
100
AcDbLine
 10
11687.10162798447
 20
760.4060611609829
 30
0.0
 11
11687.10162798447
 21
736.4060611609825
 31
0.0
  0
LINE
  5
2A897
330
2A5FA
100
AcDbEntity
  8
YODOROGO
100
AcDbLine
 10
11825.10162798447
 20
598.4060611609827
 30
0.0
 11
11825.10162798446
 21
679.4060611609832
 31
0.0
  0
LINE
  5
2A898
330
2A5FA
100
AcDbEntity
  8
YODOROGO
100
AcDbLine
 10
11798.10162798446
 20
745.4060611609828
 30
0.0
 11
11798.10162798446
 21
613.4060611609827
 31
0.0
  0
LINE
  5
2A899
330
2A5FA
100
AcDbEntity
  8
YODOROGO
100
AcDbLine
 10
11870.10162798447
 20
535.4060611609829
 30
0.0
 11
11870.10162798446
 21
679.4060611609832
 31
0.0
  0
LINE
  5
2A89A
330
2A5FA
100
AcDbEntity
  8
YODOROGO
100
AcDbLine
 10
11846.10162798447
 20
679.4060611609832
 30
0.0
 11
11846.10162798447
 21
535.4060611609829
 31
0.0
  0
LINE
  5
2A89B
330
2A5FA
100
AcDbEntity
  8
YODOROGO
100
AcDbLine
 10
11714.10162798447
 20
598.4060611609827
 30
0.0
 11
11714.10162798447
 21
640.4060611609828
 31
0.0
  0
ARC
  5
2A89C
330
2A5FA
100
AcDbEntity
  8
YODOROGO
100
AcDbCircle
 10
11757.71807441852
 20
602.921381733209
 30
0.0
 40
67.53466821599572
100
AcDbArc
 50
268.6284910216979
 51
356.1663845733032
  0
LINE
  5
2A89D
330
2A5FA
100
AcDbEntity
  8
YODOROGO
100
AcDbLine
 10
11756.10162798446
 20
572.9060611609829
 30
0.0
 11
11756.10162798446
 21
535.4060611609829
 31
0.0
  0
ARC
  5
2A89E
330
2A5FA
100
AcDbEntity
  8
YODOROGO
100
AcDbCircle
 10
11756.81927839671
 20
614.1896088816206
 30
0.0
 40
41.28978486885457
100
AcDbArc
 50
269.0041020930593
 51
358.9126445549248
  0
LINE
  5
2A89F
330
2A5FA
100
AcDbEntity
  8
YODOROGO
100
AcDbLine
 10
11846.10162798447
 20
535.4060611609829
 30
0.0
 11
11870.10162798447
 21
535.4060611609829
 31
0.0
  0
LINE
  5
2A8A0
330
2A5FA
100
AcDbEntity
  8
YODOROGO
100
AcDbLine
 10
11825.10162798446
 20
679.4060611609832
 30
0.0
 11
11846.10162798447
 21
679.4060611609832
 31
0.0
  0
LINE
  5
2A8A1
330
2A5FA
100
AcDbEntity
  8
YODOROGO
100
AcDbLine
 10
11858.10162798446
 20
745.4060611609828
 30
0.0
 11
11798.10162798446
 21
745.4060611609828
 31
0.0
  0
LINE
  5
2A8A2
330
2A5FA
100
AcDbEntity
  8
YODOROGO
100
AcDbLine
 10
11825.10162798446
 20
718.4060611609829
 30
0.0
 11
11873.10162798447
 21
718.4060611609829
 31
0.0
  0
LINE
  5
2A8A3
330
2A5FA
100
AcDbEntity
  8
YODOROGO
100
AcDbLine
 10
11888.10162798447
 20
703.4060611609828
 30
0.0
 11
11825.10162798446
 21
703.4060611609828
 31
0.0
  0
LINE
  5
2A8A4
330
2A5FA
100
AcDbEntity
  8
YODOROGO
100
AcDbLine
 10
11714.10162798447
 20
667.4060611609831
 30
0.0
 11
11756.10162798446
 21
667.4060611609831
 31
0.0
  0
LINE
  5
2A8A5
330
2A5FA
100
AcDbEntity
  8
YODOROGO
100
AcDbLine
 10
11714.10162798447
 20
688.4060611609828
 30
0.0
 11
11714.10162798447
 21
667.4060611609831
 31
0.0
  0
LINE
  5
2A8A6
330
2A5FA
100
AcDbEntity
  8
YODOROGO
100
AcDbLine
 10
11756.10162798446
 20
688.4060611609828
 30
0.0
 11
11714.10162798447
 21
688.4060611609828
 31
0.0
  0
LINE
  5
2A8A7
330
2A5FA
100
AcDbEntity
  8
YODOROGO
100
AcDbLine
 10
11756.10162798446
 20
667.4060611609831
 30
0.0
 11
11756.10162798446
 21
688.4060611609828
 31
0.0
  0
LINE
  5
2A8A8
330
2A5FA
100
AcDbEntity
  8
YODOROGO
100
AcDbLine
 10
11825.10162798446
 20
703.4060611609828
 30
0.0
 11
11825.10162798446
 21
718.4060611609829
 31
0.0
  0
LINE
  5
2A8A9
330
2A5FA
100
AcDbEntity
  8
YODOROGO
100
AcDbLine
 10
11780.10162798446
 20
640.4060611609828
 30
0.0
 11
11780.10162798446
 21
715.4060611609828
 31
0.0
  0
LINE
  5
2A8AA
330
2A5FA
100
AcDbEntity
  8
YODOROGO
100
AcDbLine
 10
11714.10162798447
 20
640.4060611609828
 30
0.0
 11
11780.10162798446
 21
640.4060611609828
 31
0.0
  0
LINE
  5
2A8AB
330
2A5FA
100
AcDbEntity
  8
YODOROGO
100
AcDbLine
 10
11780.10162798446
 20
736.4060611609825
 30
0.0
 11
11780.10162798446
 21
760.4060611609829
 31
0.0
  0
ARC
  5
2A8AC
330
2A5FA
100
AcDbEntity
  8
YODOROGO
100
AcDbCircle
 10
11858.10162798446
 20
751.4060611609817
 30
0.0
 40
5.999999999997952
100
AcDbArc
 50
270.0
 51
0.0000000000081422
  0
LINE
  5
2A8AD
330
2A5FA
100
AcDbEntity
  8
YODOROGO
100
AcDbLine
 10
11864.10162798447
 20
760.4060611609829
 30
0.0
 11
11864.10162798447
 21
751.4060611609825
 31
0.0
  0
LINE
  5
2A8AE
330
2A5FA
100
AcDbEntity
  8
YODOROGO
100
AcDbLine
 10
11888.10162798447
 20
760.4060611609829
 30
0.0
 11
11864.10162798447
 21
760.4060611609829
 31
0.0
  0
LINE
  5
2A8AF
330
2A5FA
100
AcDbEntity
  8
YODOROGO
100
AcDbLine
 10
11888.10162798447
 20
733.4060611609828
 30
0.0
 11
11888.10162798447
 21
760.4060611609829
 31
0.0
  0
ARC
  5
2A8B0
330
2A5FA
100
AcDbEntity
  8
YODOROGO
100
AcDbCircle
 10
11873.10162798447
 20
733.4060611609828
 30
0.0
 40
15.0
100
AcDbArc
 50
270.0
 51
0.0
  0
LINE
  5
2A8B1
330
2A5FA
100
AcDbEntity
  8
YODOROGO
100
AcDbLine
 10
11888.10162798447
 20
679.4060611609832
 30
0.0
 11
11888.10162798447
 21
703.4060611609828
 31
0.0
  0
LINE
  5
2A8B2
330
2A5FA
100
AcDbEntity
  8
YODOROGO
100
AcDbLine
 10
11870.10162798446
 20
679.4060611609832
 30
0.0
 11
11888.10162798447
 21
679.4060611609832
 31
0.0
  0
LINE
  5
2A8B3
330
2A5FA
100
AcDbEntity
  8
SUNPOU
100
AcDbLine
 10
3715.575305331611
 20
1570.23285196401
 30
0.0
 11
5168.075305331611
 21
1570.23285196401
 31
0.0
  0
LINE
  5
2A8B4
330
2A5FA
100
AcDbEntity
  8
SUNPOU
100
AcDbLine
 10
3715.575305331611
 20
1420.232851964012
 30
0.0
 11
5168.075305331611
 21
1420.232851964012
 31
0.0
  0
LINE
  5
2A8B5
330
2A5FA
100
AcDbEntity
  8
SUNPOU
100
AcDbLine
 10
5123.075305331611
 20
1555.23285196401
 30
0.0
 11
5123.075305331611
 21
1435.232851964012
 31
0.0
  0
LINE
  5
2A8B6
330
2A5FA
100
AcDbEntity
  8
SUNPOU
100
AcDbLine
 10
5123.075305331611
 20
1420.232851964012
 30
0.0
 11
5123.075305331611
 21
1169.518566249726
 31
0.0
  0
LINE
  5
2A8B7
330
2A5FA
100
AcDbEntity
  8
SUNPOU
100
AcDbLine
 10
4953.075305331611
 20
2320.232851964012
 30
0.0
 11
5168.075305331612
 21
2320.232851964012
 31
0.0
  0
LINE
  5
2A8B8
330
2A5FA
100
AcDbEntity
  8
SUNPOU
100
AcDbLine
 10
3715.575305331611
 20
1570.232851964012
 30
0.0
 11
5168.075305331611
 21
1570.232851964012
 31
0.0
  0
LINE
  5
2A8B9
330
2A5FA
100
AcDbEntity
  8
SUNPOU
100
AcDbLine
 10
5123.075305331612
 20
2305.232851964012
 30
0.0
 11
5123.075305331611
 21
1585.232851964013
 31
0.0
  0
LINE
  5
2A8BA
330
2A5FA
100
AcDbEntity
  8
SUNPOU
100
AcDbLine
 10
2485.575305331611
 20
1390.232851964012
 30
0.0
 11
2485.575305331611
 21
1045.23285196401
 31
0.0
  0
LINE
  5
2A8BB
330
2A5FA
100
AcDbEntity
  8
SUNPOU
100
AcDbLine
 10
3535.575305331612
 20
1390.232851964012
 30
0.0
 11
3535.575305331612
 21
1045.23285196401
 31
0.0
  0
LINE
  5
2A8BC
330
2A5FA
100
AcDbEntity
  8
SUNPOU
100
AcDbLine
 10
2500.575305331611
 20
1090.23285196401
 30
0.0
 11
3520.575305331612
 21
1090.23285196401
 31
0.0
  0
LINE
  5
2A8BD
330
2A5FA
100
AcDbEntity
  8
SUNPOU
100
AcDbLine
 10
2335.575305331611
 20
1390.232851964012
 30
0.0
 11
2335.575305331611
 21
835.2328519640115
 31
0.0
  0
LINE
  5
2A8BE
330
2A5FA
100
AcDbEntity
  8
SUNPOU
100
AcDbLine
 10
3685.575305331612
 20
1390.232851964012
 30
0.0
 11
3685.575305331612
 21
835.2328519640115
 31
0.0
  0
LINE
  5
2A8BF
330
2A5FA
100
AcDbEntity
  8
SUNPOU
100
AcDbLine
 10
2350.575305331611
 20
880.2328519640113
 30
0.0
 11
3670.575305331612
 21
880.2328519640113
 31
0.0
  0
LINE
  5
2A8C0
330
2A5FA
100
AcDbEntity
  8
SUNPOU
100
AcDbLine
 10
4027.527727734757
 20
4986.083850786249
 30
0.0
 11
4027.527727734757
 21
4361.08385078625
 31
0.0
  0
LINE
  5
2A8C1
330
2A5FA
100
AcDbEntity
  8
SUNPOU
100
AcDbLine
 10
8227.527727734758
 20
4986.083850786251
 30
0.0
 11
8227.527727734758
 21
4361.08385078625
 31
0.0
  0
LINE
  5
2A8C2
330
2A5FA
100
AcDbEntity
  8
SUNPOU
100
AcDbLine
 10
4042.527727734757
 20
4406.08385078625
 30
0.0
 11
8212.527727734757
 21
4406.08385078625
 31
0.0
  0
LINE
  5
2A8C3
330
2A5FA
100
AcDbEntity
  8
SUNPOU
100
AcDbLine
 10
7877.527727734757
 20
5736.083850786251
 30
0.0
 11
7877.527727734757
 21
4571.08385078625
 31
0.0
  0
LINE
  5
2A8C4
330
2A5FA
100
AcDbEntity
  8
SUNPOU
100
AcDbLine
 10
4377.527727734757
 20
5986.083850786252
 30
0.0
 11
4377.527727734757
 21
4571.08385078625
 31
0.0
  0
LINE
  5
2A8C5
330
2A5FA
100
AcDbEntity
  8
SUNPOU
100
AcDbLine
 10
7862.527727734755
 20
4616.08385078625
 30
0.0
 11
4392.527727734758
 21
4616.08385078625
 31
0.0
  0
LINE
  5
2A8C6
330
2A5FA
100
AcDbEntity
  8
SUNPOU
100
AcDbLine
 10
7877.527727734757
 20
5736.083850786251
 30
0.0
 11
7877.527727734757
 21
4571.08385078625
 31
0.0
  0
LINE
  5
2A8C7
330
2A5FA
100
AcDbEntity
  8
SUNPOU
100
AcDbLine
 10
8227.527727734758
 20
4986.083850786251
 30
0.0
 11
8227.527727734758
 21
4571.08385078625
 31
0.0
  0
LINE
  5
2A8C8
330
2A5FA
100
AcDbEntity
  8
SUNPOU
100
AcDbLine
 10
7892.527727734758
 20
4616.08385078625
 30
0.0
 11
8212.527727734757
 21
4616.08385078625
 31
0.0
  0
LINE
  5
2A8C9
330
2A5FA
100
AcDbEntity
  8
SUNPOU
100
AcDbLine
 10
4027.527727734757
 20
4986.083850786249
 30
0.0
 11
4027.527727734757
 21
4571.08385078625
 31
0.0
  0
LINE
  5
2A8CA
330
2A5FA
100
AcDbEntity
  8
SUNPOU
100
AcDbLine
 10
4377.527727734757
 20
5986.083850786252
 30
0.0
 11
4377.527727734757
 21
4571.08385078625
 31
0.0
  0
LINE
  5
2A8CB
330
2A5FA
100
AcDbEntity
  8
SUNPOU
100
AcDbLine
 10
4042.527727734757
 20
4616.08385078625
 30
0.0
 11
4362.527727734756
 21
4616.08385078625
 31
0.0
  0
ARC
  5
2A8CC
330
2A5FA
100
AcDbEntity
  8
SUNPOU
100
AcDbCircle
 10
8947.527727734749
 20
7616.083850786248
 30
0.0
 40
5.625000000000908
100
AcDbArc
 50
270.0
 51
90.0
  0
ARC
  5
2A8CD
330
2A5FA
100
AcDbEntity
  8
SUNPOU
100
AcDbCircle
 10
8947.527727734749
 20
7616.083850786248
 30
0.0
 40
5.625000000001817
100
AcDbArc
 50
90.0
 51
270.0
  0
ARC
  5
2A8CE
330
2A5FA
100
AcDbEntity
  8
SUNPOU
100
AcDbCircle
 10
8737.52772773475
 20
7616.083850786248
 30
0.0
 40
5.625000000000908
100
AcDbArc
 50
270.0
 51
90.0
  0
ARC
  5
2A8CF
330
2A5FA
100
AcDbEntity
  8
SUNPOU
100
AcDbCircle
 10
8737.52772773475
 20
7616.083850786248
 30
0.0
 40
5.625000000001817
100
AcDbArc
 50
90.0
 51
270.0
  0
ARC
  5
2A8D0
330
2A5FA
100
AcDbEntity
  8
SUNPOU
100
AcDbCircle
 10
8737.52772773475
 20
6416.08385078625
 30
0.0
 40
5.625
100
AcDbArc
 50
90.0
 51
270.0
  0
ARC
  5
2A8D1
330
2A5FA
100
AcDbEntity
  8
SUNPOU
100
AcDbCircle
 10
8737.52772773475
 20
6416.08385078625
 30
0.0
 40
5.625
100
AcDbArc
 50
270.0
 51
90.0
  0
ARC
  5
2A8D2
330
2A5FA
100
AcDbEntity
  8
SUNPOU
100
AcDbCircle
 10
8737.52772773475
 20
6416.08385078625
 30
0.0
 40
5.625
100
AcDbArc
 50
270.0
 51
90.0
  0
ARC
  5
2A8D3
330
2A5FA
100
AcDbEntity
  8
SUNPOU
100
AcDbCircle
 10
8737.52772773475
 20
6416.08385078625
 30
0.0
 40
5.625
100
AcDbArc
 50
90.0
 51
270.0
  0
ARC
  5
2A8D4
330
2A5FA
100
AcDbEntity
  8
SUNPOU
100
AcDbCircle
 10
8947.527727734749
 20
5016.08385078625
 30
0.0
 40
5.625
100
AcDbArc
 50
90.0
 51
270.0
  0
ARC
  5
2A8D5
330
2A5FA
100
AcDbEntity
  8
SUNPOU
100
AcDbCircle
 10
8947.527727734749
 20
5016.08385078625
 30
0.0
 40
5.625
100
AcDbArc
 50
270.0
 51
90.0
  0
ARC
  5
2A8D6
330
2A5FA
100
AcDbEntity
  8
SUNPOU
100
AcDbCircle
 10
8737.52772773475
 20
5016.08385078625
 30
0.0
 40
5.625
100
AcDbArc
 50
90.0
 51
270.0
  0
ARC
  5
2A8D7
330
2A5FA
100
AcDbEntity
  8
SUNPOU
100
AcDbCircle
 10
8737.52772773475
 20
5016.08385078625
 30
0.0
 40
5.625
100
AcDbArc
 50
270.0
 51
90.0
  0
ARC
  5
2A8D8
330
2A5FA
100
AcDbEntity
  8
SUNPOU
100
AcDbCircle
 10
8088.233743300246
 20
6453.583850786251
 30
0.0
 40
5.625
100
AcDbArc
 50
90.0
 51
270.0
  0
ARC
  5
2A8D9
330
2A5FA
100
AcDbEntity
  8
SUNPOU
100
AcDbCircle
 10
8088.233743300246
 20
6453.583850786251
 30
0.0
 40
5.625
100
AcDbArc
 50
270.0
 51
90.0
  0
ARC
  5
2A8DA
330
2A5FA
100
AcDbEntity
  8
SUNPOU
100
AcDbCircle
 10
8088.233743300246
 20
6378.58385078625
 30
0.0
 40
5.625
100
AcDbArc
 50
90.0
 51
270.0
  0
ARC
  5
2A8DB
330
2A5FA
100
AcDbEntity
  8
SUNPOU
100
AcDbCircle
 10
8088.233743300246
 20
6378.58385078625
 30
0.0
 40
5.625
100
AcDbArc
 50
270.0
 51
90.0
  0
ARC
  5
2A8DC
330
2A5FA
100
AcDbEntity
  8
SUNPOU
100
AcDbCircle
 10
7910.027727734756
 20
6202.141006900598
 30
0.0
 40
5.625
100
AcDbArc
 50
180.0
 51
0.0
  0
ARC
  5
2A8DD
330
2A5FA
100
AcDbEntity
  8
SUNPOU
100
AcDbCircle
 10
7910.027727734756
 20
6202.141006900598
 30
0.0
 40
5.625
100
AcDbArc
 50
0.0
 51
180.0
  0
ARC
  5
2A8DE
330
2A5FA
100
AcDbEntity
  8
SUNPOU
100
AcDbCircle
 10
7845.027727734756
 20
6202.141006900598
 30
0.0
 40
5.625
100
AcDbArc
 50
180.0
 51
0.0
  0
ARC
  5
2A8DF
330
2A5FA
100
AcDbEntity
  8
SUNPOU
100
AcDbCircle
 10
7845.027727734756
 20
6202.141006900598
 30
0.0
 40
5.625
100
AcDbArc
 50
0.0
 51
180.0
  0
LINE
  5
2A8E0
330
2A5FA
100
AcDbEntity
  8
SUNPOU
100
AcDbLine
 10
8527.527727734751
 20
6077.333850786249
 30
0.0
 11
8527.527727734751
 21
6088.58385078625
 31
0.0
  0
LINE
  5
2A8E1
330
2A5FA
100
AcDbEntity
  8
SUNPOU
100
AcDbLine
 10
8527.527727734751
 20
6754.833850786249
 30
0.0
 11
8527.527727734751
 21
6743.58385078625
 31
0.0
  0
ARC
  5
2A8E2
330
2A5FA
100
AcDbEntity
  8
SUNPOU
100
AcDbCircle
 10
8227.527727734758
 20
5766.08385078625
 30
0.0
 40
5.625
100
AcDbArc
 50
180.0
 51
0.0
  0
ARC
  5
2A8E3
330
2A5FA
100
AcDbEntity
  8
SUNPOU
100
AcDbCircle
 10
8227.527727734758
 20
5766.08385078625
 30
0.0
 40
5.625
100
AcDbArc
 50
0.0
 51
180.0
  0
ARC
  5
2A8E4
330
2A5FA
100
AcDbEntity
  8
SUNPOU
100
AcDbCircle
 10
7527.527727734756
 20
5766.08385078625
 30
0.0
 40
5.625
100
AcDbArc
 50
0.0
 51
180.0
  0
ARC
  5
2A8E5
330
2A5FA
100
AcDbEntity
  8
SUNPOU
100
AcDbCircle
 10
7527.527727734756
 20
5766.08385078625
 30
0.0
 40
5.625
100
AcDbArc
 50
180.0
 51
0.0
  0
ARC
  5
2A8E6
330
2A5FA
100
AcDbEntity
  8
SUNPOU
100
AcDbCircle
 10
8527.527727734751
 20
6766.083850786251
 30
0.0
 40
5.625
100
AcDbArc
 50
270.0
 51
90.0
  0
ARC
  5
2A8E7
330
2A5FA
100
AcDbEntity
  8
SUNPOU
100
AcDbCircle
 10
8527.527727734751
 20
6766.083850786251
 30
0.0
 40
5.625
100
AcDbArc
 50
90.0
 51
270.0
  0
ARC
  5
2A8E8
330
2A5FA
100
AcDbEntity
  8
SUNPOU
100
AcDbCircle
 10
8527.527727734751
 20
6066.08385078625
 30
0.0
 40
5.625
100
AcDbArc
 50
90.0
 51
270.0
  0
ARC
  5
2A8E9
330
2A5FA
100
AcDbEntity
  8
SUNPOU
100
AcDbCircle
 10
8527.527727734751
 20
6066.08385078625
 30
0.0
 40
5.625
100
AcDbArc
 50
270.0
 51
90.0
  0
TEXT
  5
2A8EA
330
2A5FA
100
AcDbEntity
  8
SUNPOU
100
AcDbText
 10
4116.813442020471
 20
4661.08385078625
 30
0.0
 40
90.0
  1
350
 41
0.6666666666666666
  7
00
100
AcDbText
  0
LINE
  5
2A8EB
330
2A5FA
100
AcDbEntity
  8
SUNPOU
100
AcDbLine
 10
4366.277727734757
 20
4616.08385078625
 30
0.0
 11
4355.027727734756
 21
4616.08385078625
 31
0.0
  0
LINE
  5
2A8EC
330
2A5FA
100
AcDbEntity
  8
SUNPOU
100
AcDbLine
 10
4038.777727734758
 20
4616.08385078625
 30
0.0
 11
4050.027727734756
 21
4616.08385078625
 31
0.0
  0
TEXT
  5
2A8ED
330
2A5FA
100
AcDbEntity
  8
SUNPOU
100
AcDbText
 10
7966.813442020472
 20
4661.08385078625
 30
0.0
 40
90.0
  1
350
 41
0.6666666666666666
  7
00
100
AcDbText
  0
LINE
  5
2A8EE
330
2A5FA
100
AcDbEntity
  8
SUNPOU
100
AcDbLine
 10
8216.277727734757
 20
4616.08385078625
 30
0.0
 11
8205.027727734757
 21
4616.08385078625
 31
0.0
  0
LINE
  5
2A8EF
330
2A5FA
100
AcDbEntity
  8
SUNPOU
100
AcDbLine
 10
7888.777727734757
 20
4616.08385078625
 30
0.0
 11
7900.027727734756
 21
4616.08385078625
 31
0.0
  0
TEXT
  5
2A8F0
330
2A5FA
100
AcDbEntity
  8
SUNPOU
100
AcDbText
 10
6013.242013449044
 20
4661.08385078625
 30
0.0
 40
90.0
  1
3500
 41
0.6666666666666666
  7
00
100
AcDbText
  0
LINE
  5
2A8F1
330
2A5FA
100
AcDbEntity
  8
SUNPOU
100
AcDbLine
 10
4388.777727734757
 20
4616.08385078625
 30
0.0
 11
4400.027727734758
 21
4616.08385078625
 31
0.0
  0
LINE
  5
2A8F2
330
2A5FA
100
AcDbEntity
  8
SUNPOU
100
AcDbLine
 10
7866.277727734756
 20
4616.08385078625
 30
0.0
 11
7855.027727734754
 21
4616.08385078625
 31
0.0
  0
TEXT
  5
2A8F3
330
2A5FA
100
AcDbEntity
  8
SUNPOU
100
AcDbText
 10
6013.242013449044
 20
4451.08385078625
 30
0.0
 40
90.0
  1
4200
 41
0.6666666666666666
  7
00
100
AcDbText
  0
LINE
  5
2A8F4
330
2A5FA
100
AcDbEntity
  8
SUNPOU
100
AcDbLine
 10
8216.277727734757
 20
4406.08385078625
 30
0.0
 11
8205.027727734757
 21
4406.08385078625
 31
0.0
  0
LINE
  5
2A8F5
330
2A5FA
100
AcDbEntity
  8
SUNPOU
100
AcDbLine
 10
4038.777727734758
 20
4406.08385078625
 30
0.0
 11
4050.027727734756
 21
4406.08385078625
 31
0.0
  0
TEXT
  5
2A8F6
330
2A5FA
100
AcDbEntity
  8
SUNPOU
100
AcDbText
 10
2866.575305331612
 20
925.2328519640114
 30
0.0
 40
90.0
  1
900 □
 41
0.6666666666666666
  7
00
100
AcDbText
  0
LINE
  5
2A8F7
330
2A5FA
100
AcDbEntity
  8
SUNPOU
100
AcDbLine
 10
3674.325305331611
 20
880.2328519640113
 30
0.0
 11
3663.075305331612
 21
880.2328519640113
 31
0.0
  0
LINE
  5
2A8F8
330
2A5FA
100
AcDbEntity
  8
SUNPOU
100
AcDbLine
 10
2346.825305331611
 20
880.2328519640113
 30
0.0
 11
2358.075305331611
 21
880.2328519640113
 31
0.0
  0
TEXT
  5
2A8F9
330
2A5FA
100
AcDbEntity
  8
SUNPOU
100
AcDbText
 10
2866.575305331612
 20
1135.23285196401
 30
0.0
 40
90.0
  1
700 □
 41
0.6666666666666666
  7
00
100
AcDbText
  0
LINE
  5
2A8FA
330
2A5FA
100
AcDbEntity
  8
SUNPOU
100
AcDbLine
 10
3524.325305331611
 20
1090.23285196401
 30
0.0
 11
3513.07530533161
 21
1090.23285196401
 31
0.0
  0
LINE
  5
2A8FB
330
2A5FA
100
AcDbEntity
  8
SUNPOU
100
AcDbLine
 10
2496.825305331611
 20
1090.23285196401
 30
0.0
 11
2508.075305331611
 21
1090.23285196401
 31
0.0
  0
TEXT
  5
2A8FC
330
2A5FA
100
AcDbEntity
  8
SUNPOU
100
AcDbText
 10
5078.075305331611
 20
1859.518566249726
 30
0.0
 40
90.0
  1
500
 50
90.0
 41
0.6666666666666666
  7
00
100
AcDbText
  0
LINE
  5
2A8FD
330
2A5FA
100
AcDbEntity
  8
SUNPOU
100
AcDbLine
 10
5123.075305331611
 20
1581.482851964013
 30
0.0
 11
5123.075305331611
 21
1592.732851964012
 31
0.0
  0
LINE
  5
2A8FE
330
2A5FA
100
AcDbEntity
  8
SUNPOU
100
AcDbLine
 10
5123.075305331612
 20
2308.982851964012
 30
0.0
 11
5123.075305331612
 21
2297.732851964012
 31
0.0
  0
TEXT
  5
2A8FF
330
2A5FA
100
AcDbEntity
  8
SUNPOU
100
AcDbText
 10
5078.075305331611
 20
1197.375709106869
 30
0.0
 40
90.0
  1
100
 50
90.0
 41
0.6666666666666666
  7
00
100
AcDbText
  0
LINE
  5
2A900
330
2A5FA
100
AcDbEntity
  8
SUNPOU
100
AcDbLine
 10
5123.075305331611
 20
1431.482851964012
 30
0.0
 11
5123.075305331611
 21
1442.732851964012
 31
0.0
  0
LINE
  5
2A901
330
2A5FA
100
AcDbEntity
  8
SUNPOU
100
AcDbLine
 10
5123.075305331611
 20
1558.98285196401
 30
0.0
 11
5123.075305331611
 21
1547.73285196401
 31
0.0
  0
ARC
  5
2A902
330
2A5FA
100
AcDbEntity
  8
SUNPOU
100
AcDbCircle
 10
5123.075305331611
 20
1570.23285196401
 30
0.0
 40
5.625
100
AcDbArc
 50
270.0
 51
90.0
  0
ARC
  5
2A903
330
2A5FA
100
AcDbEntity
  8
SUNPOU
100
AcDbCircle
 10
5123.075305331611
 20
1570.23285196401
 30
0.0
 40
5.625
100
AcDbArc
 50
90.0
 51
270.0
  0
ARC
  5
2A904
330
2A5FA
100
AcDbEntity
  8
SUNPOU
100
AcDbCircle
 10
5123.075305331611
 20
1420.232851964012
 30
0.0
 40
5.625
100
AcDbArc
 50
90.0
 51
270.0
  0
ARC
  5
2A905
330
2A5FA
100
AcDbEntity
  8
SUNPOU
100
AcDbCircle
 10
5123.075305331611
 20
1420.232851964012
 30
0.0
 40
5.625
100
AcDbArc
 50
270.0
 51
90.0
  0
ARC
  5
2A906
330
2A5FA
100
AcDbEntity
  8
SUNPOU
100
AcDbCircle
 10
5123.075305331612
 20
2320.232851964012
 30
0.0
 40
5.625
100
AcDbArc
 50
270.0
 51
90.0
  0
ARC
  5
2A907
330
2A5FA
100
AcDbEntity
  8
SUNPOU
100
AcDbCircle
 10
5123.075305331612
 20
2320.232851964012
 30
0.0
 40
5.625
100
AcDbArc
 50
90.0
 51
270.0
  0
ARC
  5
2A908
330
2A5FA
100
AcDbEntity
  8
SUNPOU
100
AcDbCircle
 10
5123.075305331611
 20
1570.232851964012
 30
0.0
 40
5.625
100
AcDbArc
 50
90.0
 51
270.0
  0
ARC
  5
2A909
330
2A5FA
100
AcDbEntity
  8
SUNPOU
100
AcDbCircle
 10
5123.075305331611
 20
1570.232851964012
 30
0.0
 40
5.625
100
AcDbArc
 50
270.0
 51
90.0
  0
ARC
  5
2A90A
330
2A5FA
100
AcDbEntity
  8
SUNPOU
100
AcDbCircle
 10
2485.575305331611
 20
1090.23285196401
 30
0.0
 40
5.625
100
AcDbArc
 50
0.0
 51
180.0
  0
ARC
  5
2A90B
330
2A5FA
100
AcDbEntity
  8
SUNPOU
100
AcDbCircle
 10
2485.575305331611
 20
1090.23285196401
 30
0.0
 40
5.625
100
AcDbArc
 50
180.0
 51
0.0
  0
ARC
  5
2A90C
330
2A5FA
100
AcDbEntity
  8
SUNPOU
100
AcDbCircle
 10
3535.575305331612
 20
1090.23285196401
 30
0.0
 40
5.625
100
AcDbArc
 50
180.0
 51
0.0
  0
ARC
  5
2A90D
330
2A5FA
100
AcDbEntity
  8
SUNPOU
100
AcDbCircle
 10
3535.575305331612
 20
1090.23285196401
 30
0.0
 40
5.625
100
AcDbArc
 50
0.0
 51
180.0
  0
ARC
  5
2A90E
330
2A5FA
100
AcDbEntity
  8
SUNPOU
100
AcDbCircle
 10
2335.575305331611
 20
880.2328519640113
 30
0.0
 40
5.625
100
AcDbArc
 50
0.0
 51
180.0
  0
ARC
  5
2A90F
330
2A5FA
100
AcDbEntity
  8
SUNPOU
100
AcDbCircle
 10
2335.575305331611
 20
880.2328519640113
 30
0.0
 40
5.625
100
AcDbArc
 50
180.0
 51
0.0
  0
ARC
  5
2A910
330
2A5FA
100
AcDbEntity
  8
SUNPOU
100
AcDbCircle
 10
3685.575305331612
 20
880.2328519640113
 30
0.0
 40
5.625
100
AcDbArc
 50
180.0
 51
0.0
  0
ARC
  5
2A911
330
2A5FA
100
AcDbEntity
  8
SUNPOU
100
AcDbCircle
 10
3685.575305331612
 20
880.2328519640113
 30
0.0
 40
5.625
100
AcDbArc
 50
0.0
 51
180.0
  0
ARC
  5
2A912
330
2A5FA
100
AcDbEntity
  8
SUNPOU
100
AcDbCircle
 10
4027.527727734757
 20
4406.08385078625
 30
0.0
 40
5.625
100
AcDbArc
 50
0.0
 51
180.0
  0
ARC
  5
2A913
330
2A5FA
100
AcDbEntity
  8
SUNPOU
100
AcDbCircle
 10
4027.527727734757
 20
4406.08385078625
 30
0.0
 40
5.625
100
AcDbArc
 50
180.0
 51
0.0
  0
ARC
  5
2A914
330
2A5FA
100
AcDbEntity
  8
SUNPOU
100
AcDbCircle
 10
8227.527727734758
 20
4406.08385078625
 30
0.0
 40
5.625
100
AcDbArc
 50
180.0
 51
0.0
  0
ARC
  5
2A915
330
2A5FA
100
AcDbEntity
  8
SUNPOU
100
AcDbCircle
 10
8227.527727734758
 20
4406.08385078625
 30
0.0
 40
5.625
100
AcDbArc
 50
0.0
 51
180.0
  0
ARC
  5
2A916
330
2A5FA
100
AcDbEntity
  8
SUNPOU
100
AcDbCircle
 10
7877.527727734757
 20
4616.08385078625
 30
0.0
 40
5.625
100
AcDbArc
 50
180.0
 51
0.0
  0
ARC
  5
2A917
330
2A5FA
100
AcDbEntity
  8
SUNPOU
100
AcDbCircle
 10
7877.527727734757
 20
4616.08385078625
 30
0.0
 40
5.625
100
AcDbArc
 50
0.0
 51
180.0
  0
ARC
  5
2A918
330
2A5FA
100
AcDbEntity
  8
SUNPOU
100
AcDbCircle
 10
4377.527727734757
 20
4616.08385078625
 30
0.0
 40
5.625
100
AcDbArc
 50
0.0
 51
180.0
  0
ARC
  5
2A919
330
2A5FA
100
AcDbEntity
  8
SUNPOU
100
AcDbCircle
 10
4377.527727734757
 20
4616.08385078625
 30
0.0
 40
5.625
100
AcDbArc
 50
180.0
 51
0.0
  0
ARC
  5
2A91A
330
2A5FA
100
AcDbEntity
  8
SUNPOU
100
AcDbCircle
 10
7877.527727734757
 20
4616.08385078625
 30
0.0
 40
5.625
100
AcDbArc
 50
0.0
 51
180.0
  0
ARC
  5
2A91B
330
2A5FA
100
AcDbEntity
  8
SUNPOU
100
AcDbCircle
 10
7877.527727734757
 20
4616.08385078625
 30
0.0
 40
5.625
100
AcDbArc
 50
180.0
 51
0.0
  0
ARC
  5
2A91C
330
2A5FA
100
AcDbEntity
  8
SUNPOU
100
AcDbCircle
 10
8227.527727734758
 20
4616.08385078625
 30
0.0
 40
5.625
100
AcDbArc
 50
180.0
 51
0.0
  0
ARC
  5
2A91D
330
2A5FA
100
AcDbEntity
  8
SUNPOU
100
AcDbCircle
 10
8227.527727734758
 20
4616.08385078625
 30
0.0
 40
5.625
100
AcDbArc
 50
0.0
 51
180.0
  0
ARC
  5
2A91E
330
2A5FA
100
AcDbEntity
  8
SUNPOU
100
AcDbCircle
 10
4027.527727734757
 20
4616.08385078625
 30
0.0
 40
5.625
100
AcDbArc
 50
0.0
 51
180.0
  0
ARC
  5
2A91F
330
2A5FA
100
AcDbEntity
  8
SUNPOU
100
AcDbCircle
 10
4027.527727734757
 20
4616.08385078625
 30
0.0
 40
5.625
100
AcDbArc
 50
180.0
 51
0.0
  0
ARC
  5
2A920
330
2A5FA
100
AcDbEntity
  8
SUNPOU
100
AcDbCircle
 10
4377.527727734757
 20
4616.08385078625
 30
0.0
 40
5.625
100
AcDbArc
 50
180.0
 51
0.0
  0
ARC
  5
2A921
330
2A5FA
100
AcDbEntity
  8
SUNPOU
100
AcDbCircle
 10
4377.527727734757
 20
4616.08385078625
 30
0.0
 40
5.625
100
AcDbArc
 50
0.0
 51
180.0
  0
CIRCLE
  5
2A922
330
2A5FA
100
AcDbEntity
  8
HIKIDASHI
100
AcDbCircle
 10
3010.57530533161
 20
1660.23285196401
 30
0.0
 40
9.0
  0
CIRCLE
  5
2A923
330
2A5FA
100
AcDbEntity
  8
HIKIDASHI
100
AcDbCircle
 10
3010.57530533161
 20
1600.23285196401
 30
0.0
 40
9.0
  0
ARC
  5
2A924
330
2A5FA
100
AcDbEntity
  8
HIKIDASHI
100
AcDbCircle
 10
3010.57530533161
 20
1600.23285196401
 30
0.0
 40
4.5
100
AcDbArc
 50
180.0
 51
0.0
  0
ARC
  5
2A925
330
2A5FA
100
AcDbEntity
  8
HIKIDASHI
100
AcDbCircle
 10
3010.57530533161
 20
1600.23285196401
 30
0.0
 40
4.5
100
AcDbArc
 50
0.0
 51
180.0
  0
ARC
  5
2A926
330
2A5FA
100
AcDbEntity
  8
HIKIDASHI
100
AcDbCircle
 10
3010.57530533161
 20
1660.23285196401
 30
0.0
 40
4.5
100
AcDbArc
 50
180.0
 51
0.0
  0
ARC
  5
2A927
330
2A5FA
100
AcDbEntity
  8
HIKIDASHI
100
AcDbCircle
 10
3010.57530533161
 20
1660.23285196401
 30
0.0
 40
4.5
100
AcDbArc
 50
0.0
 51
180.0
  0
LINE
  5
2A928
330
2A5FA
100
AcDbEntity
  8
HATCH
100
AcDbLine
 10
2404.774035142397
 20
1420.232851964007
 30
0.0
 11
2491.376575520828
 21
1570.232851963984
 31
0.0
  0
LINE
  5
2A929
330
2A5FA
100
AcDbEntity
  8
HATCH
100
AcDbLine
 10
2431.376575520836
 20
1570.232851963981
 30
0.0
 11
2461.376575520832
 21
1518.271327736928
 31
0.0
  0
LINE
  5
2A92A
330
2A5FA
100
AcDbEntity
  8
HATCH
100
AcDbLine
 10
2434.774035142392
 20
1472.194376191065
 30
0.0
 11
2464.774035142388
 21
1420.232851964007
 31
0.0
  0
LINE
  5
2A92B
330
2A5FA
100
AcDbEntity
  8
HATCH
100
AcDbLine
 10
2592.274035142395
 20
1420.232851964007
 30
0.0
 11
2678.876575520826
 21
1570.232851963984
 31
0.0
  0
LINE
  5
2A92C
330
2A5FA
100
AcDbEntity
  8
HATCH
100
AcDbLine
 10
2618.876575520836
 20
1570.232851963982
 30
0.0
 11
2648.876575520831
 21
1518.271327736928
 31
0.0
  0
LINE
  5
2A92D
330
2A5FA
100
AcDbEntity
  8
HATCH
100
AcDbLine
 10
2622.274035142391
 20
1472.194376191066
 30
0.0
 11
2652.274035142387
 21
1420.232851964007
 31
0.0
  0
LINE
  5
2A92E
330
2A5FA
100
AcDbEntity
  8
HATCH
100
AcDbLine
 10
3529.774035142399
 20
1420.232851964009
 30
0.0
 11
3616.376575520831
 21
1570.232851963987
 31
0.0
  0
LINE
  5
2A92F
330
2A5FA
100
AcDbEntity
  8
HATCH
100
AcDbLine
 10
3556.37657552084
 20
1570.232851963985
 30
0.0
 11
3586.376575520835
 21
1518.271327736931
 31
0.0
  0
LINE
  5
2A930
330
2A5FA
100
AcDbEntity
  8
HATCH
100
AcDbLine
 10
3559.774035142395
 20
1472.194376191069
 30
0.0
 11
3589.77403514239
 21
1420.232851964009
 31
0.0
  0
LINE
  5
2A931
330
2A5FA
100
AcDbEntity
  8
HATCH
100
AcDbLine
 10
3342.274035142398
 20
1420.232851964009
 30
0.0
 11
3428.87657552083
 21
1570.232851963987
 31
0.0
  0
LINE
  5
2A932
330
2A5FA
100
AcDbEntity
  8
HATCH
100
AcDbLine
 10
3368.876575520839
 20
1570.232851963985
 30
0.0
 11
3398.876575520834
 21
1518.271327736931
 31
0.0
  0
LINE
  5
2A933
330
2A5FA
100
AcDbEntity
  8
HATCH
100
AcDbLine
 10
3372.274035142393
 20
1472.194376191069
 30
0.0
 11
3402.274035142389
 21
1420.232851964009
 31
0.0
  0
LINE
  5
2A934
330
2A5FA
100
AcDbEntity
  8
HATCH
100
AcDbLine
 10
2967.274035142397
 20
1420.232851964009
 30
0.0
 11
3053.876575520828
 21
1570.232851963987
 31
0.0
  0
LINE
  5
2A935
330
2A5FA
100
AcDbEntity
  8
HATCH
100
AcDbLine
 10
2993.876575520836
 20
1570.232851963985
 30
0.0
 11
3023.876575520832
 21
1518.271327736931
 31
0.0
  0
LINE
  5
2A936
330
2A5FA
100
AcDbEntity
  8
HATCH
100
AcDbLine
 10
2997.274035142392
 20
1472.194376191069
 30
0.0
 11
3027.274035142387
 21
1420.232851964009
 31
0.0
  0
LINE
  5
2A937
330
2A5FA
100
AcDbEntity
  8
HATCH
100
AcDbLine
 10
2779.774035142395
 20
1420.232851964009
 30
0.0
 11
2866.376575520826
 21
1570.232851963987
 31
0.0
  0
LINE
  5
2A938
330
2A5FA
100
AcDbEntity
  8
HATCH
100
AcDbLine
 10
2806.376575520836
 20
1570.232851963985
 30
0.0
 11
2836.376575520831
 21
1518.271327736931
 31
0.0
  0
LINE
  5
2A939
330
2A5FA
100
AcDbEntity
  8
HATCH
100
AcDbLine
 10
2809.774035142391
 20
1472.194376191069
 30
0.0
 11
2839.774035142387
 21
1420.232851964009
 31
0.0
  0
LINE
  5
2A93A
330
2A5FA
100
AcDbEntity
  8
HATCH
100
AcDbLine
 10
3154.774035142397
 20
1420.232851964009
 30
0.0
 11
3241.376575520828
 21
1570.232851963987
 31
0.0
  0
LINE
  5
2A93B
330
2A5FA
100
AcDbEntity
  8
HATCH
100
AcDbLine
 10
3181.376575520837
 20
1570.232851963985
 30
0.0
 11
3211.376575520833
 21
1518.271327736931
 31
0.0
  0
LINE
  5
2A93C
330
2A5FA
100
AcDbEntity
  8
HATCH
100
AcDbLine
 10
3184.774035142393
 20
1472.194376191069
 30
0.0
 11
3214.774035142389
 21
1420.232851964009
 31
0.0
  0
LINE
  5
2A93D
330
2A5FA
100
AcDbEntity
  8
HATCH
100
AcDbLine
 10
4871.113781104652
 20
2095.232851964014
 30
0.0
 11
4923.07530533176
 21
2185.232851964086
 31
0.0
  0
LINE
  5
2A93E
330
2A5FA
100
AcDbEntity
  8
HATCH
100
AcDbLine
 10
4887.075305331731
 20
2185.232851964084
 30
0.0
 11
4905.075305331745
 21
2154.055937427823
 31
0.0
  0
LINE
  5
2A93F
330
2A5FA
100
AcDbEntity
  8
HATCH
100
AcDbLine
 10
4889.113781104667
 20
2126.40976650028
 30
0.0
 11
4907.113781104681
 21
2095.232851964014
 31
0.0
  0
LINE
  5
2A940
330
2A5FA
100
AcDbEntity
  8
HATCH
100
AcDbLine
 10
4736.113781104648
 20
2095.232851964014
 30
0.0
 11
4788.075305331758
 21
2185.232851964086
 31
0.0
  0
LINE
  5
2A941
330
2A5FA
100
AcDbEntity
  8
HATCH
100
AcDbLine
 10
4752.075305331728
 20
2185.232851964084
 30
0.0
 11
4770.075305331742
 21
2154.055937427823
 31
0.0
  0
LINE
  5
2A942
330
2A5FA
100
AcDbEntity
  8
HATCH
100
AcDbLine
 10
4754.113781104662
 20
2126.40976650028
 30
0.0
 11
4772.113781104677
 21
2095.232851964014
 31
0.0
  0
LINE
  5
2A943
330
2A5FA
100
AcDbEntity
  8
HATCH
100
AcDbLine
 10
4601.11378110465
 20
2095.232851964014
 30
0.0
 11
4653.07530533176
 21
2185.232851964086
 31
0.0
  0
LINE
  5
2A944
330
2A5FA
100
AcDbEntity
  8
HATCH
100
AcDbLine
 10
4617.075305331731
 20
2185.232851964084
 30
0.0
 11
4635.075305331746
 21
2154.055937427823
 31
0.0
  0
LINE
  5
2A945
330
2A5FA
100
AcDbEntity
  8
HATCH
100
AcDbLine
 10
4619.113781104666
 20
2126.40976650028
 30
0.0
 11
4637.113781104681
 21
2095.232851964014
 31
0.0
  0
LINE
  5
2A946
330
2A5FA
100
AcDbEntity
  8
HATCH
100
AcDbLine
 10
4466.113781104652
 20
2095.232851964012
 30
0.0
 11
4518.07530533176
 21
2185.232851964083
 31
0.0
  0
LINE
  5
2A947
330
2A5FA
100
AcDbEntity
  8
HATCH
100
AcDbLine
 10
4482.075305331731
 20
2185.232851964083
 30
0.0
 11
4500.075305331746
 21
2154.055937427821
 31
0.0
  0
LINE
  5
2A948
330
2A5FA
100
AcDbEntity
  8
HATCH
100
AcDbLine
 10
4484.113781104666
 20
2126.409766500279
 30
0.0
 11
4502.113781104681
 21
2095.232851964012
 31
0.0
  0
LINE
  5
2A949
330
2A5FA
100
AcDbEntity
  8
HATCH
100
AcDbLine
 10
4196.113781104652
 20
2095.232851964012
 30
0.0
 11
4248.07530533176
 21
2185.232851964083
 31
0.0
  0
LINE
  5
2A94A
330
2A5FA
100
AcDbEntity
  8
HATCH
100
AcDbLine
 10
4212.075305331731
 20
2185.232851964083
 30
0.0
 11
4230.075305331745
 21
2154.055937427821
 31
0.0
  0
LINE
  5
2A94B
330
2A5FA
100
AcDbEntity
  8
HATCH
100
AcDbLine
 10
4214.113781104667
 20
2126.409766500279
 30
0.0
 11
4232.113781104681
 21
2095.232851964012
 31
0.0
  0
LINE
  5
2A94C
330
2A5FA
100
AcDbEntity
  8
HATCH
100
AcDbLine
 10
3926.113781104652
 20
2095.232851964012
 30
0.0
 11
3978.07530533176
 21
2185.232851964083
 31
0.0
  0
LINE
  5
2A94D
330
2A5FA
100
AcDbEntity
  8
HATCH
100
AcDbLine
 10
3942.07530533173
 20
2185.232851964083
 30
0.0
 11
3960.075305331746
 21
2154.055937427821
 31
0.0
  0
LINE
  5
2A94E
330
2A5FA
100
AcDbEntity
  8
HATCH
100
AcDbLine
 10
3944.113781104667
 20
2126.409766500279
 30
0.0
 11
3962.11378110468
 21
2095.232851964012
 31
0.0
  0
LINE
  5
2A94F
330
2A5FA
100
AcDbEntity
  8
HATCH
100
AcDbLine
 10
4061.11378110465
 20
2095.232851964014
 30
0.0
 11
4113.075305331761
 21
2185.232851964086
 31
0.0
  0
LINE
  5
2A950
330
2A5FA
100
AcDbEntity
  8
HATCH
100
AcDbLine
 10
4077.075305331731
 20
2185.232851964084
 30
0.0
 11
4095.075305331746
 21
2154.055937427823
 31
0.0
  0
LINE
  5
2A951
330
2A5FA
100
AcDbEntity
  8
HATCH
100
AcDbLine
 10
4079.113781104665
 20
2126.40976650028
 30
0.0
 11
4097.11378110468
 21
2095.232851964014
 31
0.0
  0
LINE
  5
2A952
330
2A5FA
100
AcDbEntity
  8
HATCH
100
AcDbLine
 10
3656.113781104652
 20
2095.232851964012
 30
0.0
 11
3708.07530533176
 21
2185.232851964083
 31
0.0
  0
LINE
  5
2A953
330
2A5FA
100
AcDbEntity
  8
HATCH
100
AcDbLine
 10
3672.07530533173
 20
2185.232851964083
 30
0.0
 11
3690.075305331745
 21
2154.055937427821
 31
0.0
  0
LINE
  5
2A954
330
2A5FA
100
AcDbEntity
  8
HATCH
100
AcDbLine
 10
3674.113781104666
 20
2126.409766500279
 30
0.0
 11
3692.11378110468
 21
2095.232851964012
 31
0.0
  0
LINE
  5
2A955
330
2A5FA
100
AcDbEntity
  8
HATCH
100
AcDbLine
 10
3535.575305331718
 20
2095.232851964012
 30
0.0
 11
3587.536829558827
 21
2185.232851964083
 31
0.0
  0
LINE
  5
2A956
330
2A5FA
100
AcDbEntity
  8
HATCH
100
AcDbLine
 10
3551.536829558798
 20
2185.232851964083
 30
0.0
 11
3569.536829558813
 21
2154.055937427821
 31
0.0
  0
LINE
  5
2A957
330
2A5FA
100
AcDbEntity
  8
HATCH
100
AcDbLine
 10
3553.575305331733
 20
2126.409766500279
 30
0.0
 11
3571.575305331747
 21
2095.232851964012
 31
0.0
  0
LINE
  5
2A958
330
2A5FA
100
AcDbEntity
  8
HATCH
100
AcDbLine
 10
3791.113781104652
 20
2095.232851964012
 30
0.0
 11
3843.07530533176
 21
2185.232851964083
 31
0.0
  0
LINE
  5
2A959
330
2A5FA
100
AcDbEntity
  8
HATCH
100
AcDbLine
 10
3807.075305331731
 20
2185.232851964083
 30
0.0
 11
3825.075305331746
 21
2154.055937427821
 31
0.0
  0
LINE
  5
2A95A
330
2A5FA
100
AcDbEntity
  8
HATCH
100
AcDbLine
 10
3809.113781104667
 20
2126.409766500279
 30
0.0
 11
3827.11378110468
 21
2095.232851964012
 31
0.0
  0
LINE
  5
2A95B
330
2A5FA
100
AcDbEntity
  8
HATCH
100
AcDbLine
 10
2418.075305331715
 20
2095.232851964008
 30
0.0
 11
2470.036829558822
 21
2185.232851964081
 31
0.0
  0
LINE
  5
2A95C
330
2A5FA
100
AcDbEntity
  8
HATCH
100
AcDbLine
 10
2434.036829558794
 20
2185.23285196408
 30
0.0
 11
2452.036829558808
 21
2154.055937427818
 31
0.0
  0
LINE
  5
2A95D
330
2A5FA
100
AcDbEntity
  8
HATCH
100
AcDbLine
 10
2436.075305331729
 20
2126.409766500274
 30
0.0
 11
2454.075305331743
 21
2095.232851964008
 31
0.0
  0
LINE
  5
2A95E
330
2A5FA
100
AcDbEntity
  8
HATCH
100
AcDbLine
 10
4331.113781104652
 20
2095.232851964014
 30
0.0
 11
4383.07530533176
 21
2185.232851964086
 31
0.0
  0
LINE
  5
2A95F
330
2A5FA
100
AcDbEntity
  8
HATCH
100
AcDbLine
 10
4347.075305331729
 20
2185.232851964084
 30
0.0
 11
4365.075305331745
 21
2154.055937427823
 31
0.0
  0
LINE
  5
2A960
330
2A5FA
100
AcDbEntity
  8
HATCH
100
AcDbLine
 10
4349.113781104665
 20
2126.40976650028
 30
0.0
 11
4367.113781104681
 21
2095.232851964014
 31
0.0
  0
LINE
  5
2A961
330
2A5FA
100
AcDbEntity
  8
HATCH
100
AcDbLine
 10
2283.075305331715
 20
2095.232851964008
 30
0.0
 11
2335.036829558823
 21
2185.232851964081
 31
0.0
  0
LINE
  5
2A962
330
2A5FA
100
AcDbEntity
  8
HATCH
100
AcDbLine
 10
2299.036829558794
 20
2185.23285196408
 30
0.0
 11
2317.036829558808
 21
2154.055937427818
 31
0.0
  0
LINE
  5
2A963
330
2A5FA
100
AcDbEntity
  8
HATCH
100
AcDbLine
 10
2301.075305331729
 20
2126.409766500274
 30
0.0
 11
2319.075305331744
 21
2095.232851964008
 31
0.0
  0
LINE
  5
2A964
330
2A5FA
100
AcDbEntity
  8
HATCH
100
AcDbLine
 10
2148.075305331714
 20
2095.232851964008
 30
0.0
 11
2200.036829558822
 21
2185.232851964081
 31
0.0
  0
LINE
  5
2A965
330
2A5FA
100
AcDbEntity
  8
HATCH
100
AcDbLine
 10
2164.036829558793
 20
2185.23285196408
 30
0.0
 11
2182.036829558808
 21
2154.055937427818
 31
0.0
  0
LINE
  5
2A966
330
2A5FA
100
AcDbEntity
  8
HATCH
100
AcDbLine
 10
2166.075305331728
 20
2126.409766500274
 30
0.0
 11
2184.075305331743
 21
2095.232851964008
 31
0.0
  0
LINE
  5
2A967
330
2A5FA
100
AcDbEntity
  8
HASHIRA
  6
Continuous
100
AcDbLine
 10
4410.027727734758
 20
6378.58385078625
 30
0.0
 11
4345.027727734758
 21
6378.58385078625
 31
0.0
  0
LINE
  5
2A968
330
2A5FA
100
AcDbEntity
  8
HASHIRA
  6
Continuous
100
AcDbLine
 10
4345.027727734758
 20
6378.58385078625
 30
0.0
 11
4345.027727734758
 21
6453.583850786251
 31
0.0
  0
LINE
  5
2A969
330
2A5FA
100
AcDbEntity
  8
HASHIRA
  6
Continuous
100
AcDbLine
 10
4345.027727734758
 20
6453.583850786251
 30
0.0
 11
4410.027727734758
 21
6453.583850786251
 31
0.0
  0
LINE
  5
2A96A
330
2A5FA
100
AcDbEntity
  8
HASHIRA
  6
Continuous
100
AcDbLine
 10
4410.027727734758
 20
6453.583850786251
 30
0.0
 11
4410.027727734758
 21
6378.58385078625
 31
0.0
  0
LINE
  5
2A96B
330
2A5FA
100
AcDbEntity
  8
U2
100
AcDbLine
 10
4027.527727734757
 20
6066.08385078625
 30
0.0
 11
4727.527727734758
 21
6066.08385078625
 31
0.0
  0
LINE
  5
2A96C
330
2A5FA
100
AcDbEntity
  8
U2
100
AcDbLine
 10
4727.527727734758
 20
6066.08385078625
 30
0.0
 11
4727.527727734758
 21
6766.083850786251
 31
0.0
  0
LINE
  5
2A96D
330
2A5FA
100
AcDbEntity
  8
U2
100
AcDbLine
 10
4727.527727734758
 20
6766.083850786251
 30
0.0
 11
4027.527727734757
 21
6766.083850786251
 31
0.0
  0
LINE
  5
2A96E
330
2A5FA
100
AcDbEntity
  8
U2
100
AcDbLine
 10
4027.527727734757
 20
6766.083850786251
 30
0.0
 11
4027.527727734757
 21
6066.08385078625
 31
0.0
  0
LINE
  5
2A96F
330
2A5FA
100
AcDbEntity
  8
U2
100
AcDbLine
 10
7527.527727734764
 20
6066.08385078625
 30
0.0
 11
8227.527727734758
 21
6066.08385078625
 31
0.0
  0
LINE
  5
2A970
330
2A5FA
100
AcDbEntity
  8
U2
100
AcDbLine
 10
8227.527727734758
 20
6066.08385078625
 30
0.0
 11
8227.527727734758
 21
6766.083850786251
 31
0.0
  0
LINE
  5
2A971
330
2A5FA
100
AcDbEntity
  8
U2
100
AcDbLine
 10
8227.527727734758
 20
6766.083850786251
 30
0.0
 11
7527.527727734764
 21
6766.083850786251
 31
0.0
  0
LINE
  5
2A972
330
2A5FA
100
AcDbEntity
  8
U2
100
AcDbLine
 10
7527.527727734764
 20
6766.083850786251
 30
0.0
 11
7527.527727734764
 21
6066.08385078625
 31
0.0
  0
LINE
  5
2A973
330
2A5FA
100
AcDbEntity
  8
HASHIRA
  6
Continuous
100
AcDbLine
 10
7910.027727734756
 20
6378.58385078625
 30
0.0
 11
7845.027727734756
 21
6378.58385078625
 31
0.0
  0
LINE
  5
2A974
330
2A5FA
100
AcDbEntity
  8
HASHIRA
  6
Continuous
100
AcDbLine
 10
7845.027727734756
 20
6378.58385078625
 30
0.0
 11
7845.027727734756
 21
6453.583850786251
 31
0.0
  0
LINE
  5
2A975
330
2A5FA
100
AcDbEntity
  8
HASHIRA
  6
Continuous
100
AcDbLine
 10
7845.027727734756
 20
6453.583850786251
 30
0.0
 11
7910.027727734756
 21
6453.583850786251
 31
0.0
  0
LINE
  5
2A976
330
2A5FA
100
AcDbEntity
  8
HASHIRA
  6
Continuous
100
AcDbLine
 10
7910.027727734756
 20
6453.583850786251
 30
0.0
 11
7910.027727734756
 21
6378.58385078625
 31
0.0
  0
TEXT
  5
2A998
330
2A5FA
100
AcDbEntity
  8
SUNPOU
100
AcDbText
 10
7396.37312571379
 20
2775.173204136345
 30
0.0
 40
89.9993750043402
  1
地耐力   　　　 以上,コンクリート設計基準強度　　　　　以上
  7
01
100
AcDbText
  0
TEXT
  5
2A999
330
2A5FA
100
AcDbEntity
  8
SUNPOU
100
AcDbText
 10
7705.359348605679
 20
2431.634690466108
 30
0.0
 40
90.0
  1
寒冷地の場合、凍結深度等を考慮し、実情に
  7
01
100
AcDbText
  0
TEXT
  5
2A99A
330
2A5FA
100
AcDbEntity
  8
SUNPOU
100
AcDbText
 10
7705.359348605679
 20
2123.063261894678
 30
0.0
 40
90.0
  1
その他現地の実情にあわせて設計して下さい。
  7
01
100
AcDbText
  0
TEXT
  5
2A99B
330
2A5FA
100
AcDbEntity
  8
SUNPOU
100
AcDbText
 10
7396.37312571379
 20
2620.88748985063
 30
0.0
 40
89.9993750043402
  1
基準風速   　　 , 地表面粗度区分
  7
01
100
AcDbText
  0
TEXT
  5
2A99C
330
2A5FA
100
AcDbEntity
  8
SUNPOU
100
AcDbText
 10
7705.359348605679
 20
2277.348976180391
 30
0.0
 40
90.0
  1
あわせて設計して下さい。
  7
01
100
AcDbText
  0
TEXT
  5
2A99D
330
2A5FA
100
AcDbEntity
  8
SUNPOU
100
AcDbText
 10
8409.121636981017
 20
3215.934912544438
 30
0.0
 40
73.84615384615381
  1
/
 41
0.6700000000000001
  7
00
 11
8409.121636981017
 21
3206.088758698285
 31
0.0
100
AcDbText
 73
     1
  0
TEXT
  5
2A99E
330
2A5FA
100
AcDbEntity
  8
SUNPOU
100
AcDbText
 10
8360.715509665645
 20
3234.396451005975
 30
0.0
 40
73.84615384615381
  1
1
 41
0.6700000000000001
  7
00
 11
8360.715509665645
 21
3224.550297159821
 31
0.0
100
AcDbText
 73
     1
  0
TEXT
  5
2A99F
330
2A5FA
100
AcDbEntity
  8
SUNPOU
100
AcDbText
 10
8041.012807812567
 20
3218.396451005977
 30
0.0
 40
92.30769230769228
  1
（ S = 　　  ）
 41
0.6700000000000001
  7
00
 11
8041.012807812567
 21
3206.088758698285
 31
0.0
100
AcDbText
 73
     1
  0
TEXT
  5
2A9A0
330
2A5FA
100
AcDbEntity
  8
SUNPOU
100
AcDbText
 10
7324.162470449595
 20
3206.088758698285
 30
0.0
 40
120.0
  1
基礎断面図
  7
01
 72
     4
 11
7664.162470449594
 21
3266.088758698285
 31
0.0
100
AcDbText
  0
TEXT
  5
2A9A1
330
2A5FA
100
AcDbEntity
  8
SUNPOU
100
AcDbText
 10
7265.809496997555
 20
2964.4272065823
 30
0.0
 40
90.0
  1
<下記条件での参考図>
  7
01
 72
     4
 11
7854.666639854698
 21
3009.4272065823
 31
0.0
100
AcDbText
  0
TEXT
  5
2A9A2
330
2A5FA
100
AcDbEntity
  8
SUNPOU
100
AcDbText
 10
7388.519683303544
 20
2123.063261894678
 30
0.0
 40
90.0
  1
注　）
  7
01
100
AcDbText
  0
TEXT
  5
2A9A3
330
2A5FA
100
AcDbEntity
  8
SUNPOU
100
AcDbText
 10
7499.153603516282
 20
2123.063261894678
 30
0.0
 40
90.0
  1
2
 41
0.6700000000000001
  7
01
100
AcDbText
  0
TEXT
  5
2A9A4
330
2A5FA
100
AcDbEntity
  8
SUNPOU
100
AcDbText
 10
7388.519683303544
 20
2431.634690466108
 30
0.0
 40
90.0
  1
注　）
  7
01
100
AcDbText
  0
TEXT
  5
2A9A5
330
2A5FA
100
AcDbEntity
  8
SUNPOU
100
AcDbText
 10
7499.153603516282
 20
2431.634690466108
 30
0.0
 40
90.0
  1
1
 41
0.6700000000000001
  7
01
100
AcDbText
  0
ARC
  5
2A9A6
330
2A5FA
100
AcDbEntity
  8
SUNPOU
100
AcDbCircle
 10
7549.331399620988
 20
2738.960627578176
 30
0.0
 40
225.0
100
AcDbArc
 50
148.3472725282761
 51
211.6527274717238
  0
TEXT
  5
2A9A7
330
2A5FA
100
AcDbEntity
  8
SUNPOU
100
AcDbText
 10
8174.10814265321
 20
2825.36163049383
 30
0.0
 40
46.28539285937498
  1
2
 41
0.6700000000000001
  7
00
100
AcDbText
  0
TEXT
  5
2A9A8
330
2A5FA
100
AcDbEntity
  8
SUNPOU
100
AcDbText
 10
7880.13655437895
 20
2620.88748985063
 30
0.0
 40
89.9993750043402
  1
34 m/s
 41
0.6700000000000001
  7
01
100
AcDbText
  0
TEXT
  5
2A9A9
330
2A5FA
100
AcDbEntity
  8
SUNPOU
100
AcDbText
 10
7906.46798592481
 20
2775.173204136345
 30
0.0
 40
71.99950000347218
  1
K
 41
0.6700000000000001
  7
01
100
AcDbText
  0
TEXT
  5
2A9AA
330
2A5FA
100
AcDbEntity
  8
SUNPOU
100
AcDbText
 10
7770.63153313886
 20
2775.173204136345
 30
0.0
 40
89.9993750043402
  1
50  N/m
 41
0.6700000000000001
  7
01
100
AcDbText
  0
TEXT
  5
2A9AB
330
2A5FA
100
AcDbEntity
  8
SUNPOU
100
AcDbText
 10
8473.071079935387
 20
3197.473374082897
 30
0.0
 40
73.84615384615381
  1
20
 41
0.6700000000000001
  7
00
 11
8473.071079935387
 21
3187.627220236743
 31
0.0
100
AcDbText
 73
     1
  0
LINE
  5
2A9AC
330
2A5FA
100
AcDbEntity
  8
SUNPOU
100
AcDbLine
 10
9188.188687280391
 20
2704.379853549414
 30
0.0
 11
9244.438687280391
 21
2704.379853549414
 31
0.0
  0
LINE
  5
2A9AD
330
2A5FA
100
AcDbEntity
  8
SUNPOU
100
AcDbLine
 10
9188.188687280391
 20
2620.88748985063
 30
0.0
 11
9244.438687280391
 21
2620.88748985063
 31
0.0
  0
LINE
  5
2A9AE
330
2A5FA
100
AcDbEntity
  8
SUNPOU
100
AcDbLine
 10
9199.438687280391
 20
2620.88748985063
 30
0.0
 11
9199.438687280391
 21
2704.379853549414
 31
0.0
  0
LINE
  5
2A9AF
330
2A5FA
100
AcDbEntity
  8
SUNPOU
100
AcDbLine
 10
9216.313687280392
 20
2620.88748985063
 30
0.0
 11
9216.313687280392
 21
2704.379853549414
 31
0.0
  0
LINE
  5
2A9B0
330
2A5FA
100
AcDbEntity
  8
SUNPOU
100
AcDbLine
 10
9233.188687280392
 20
2620.88748985063
 30
0.0
 11
9233.188687280392
 21
2704.379853549414
 31
0.0
  0
TEXT
  5
2A9B1
330
2A5FA
100
AcDbEntity
  8
SUNPOU
100
AcDbText
 10
9951.22005678645
 20
2775.173204136345
 30
0.0
 40
89.9993750043402
  1
N/mm
 41
0.6700000000000001
  7
01
100
AcDbText
  0
TEXT
  5
2A9B2
330
2A5FA
100
AcDbEntity
  8
SUNPOU
100
AcDbText
 10
9815.383604000501
 20
2775.173204136345
 30
0.0
 40
89.9993750043402
  1
18
 41
0.6700000000000001
  7
01
100
AcDbText
  0
TEXT
  5
2A9B3
330
2A5FA
100
AcDbEntity
  8
SUNPOU
100
AcDbText
 10
10255.68453881785
 20
2825.36163049383
 30
0.0
 40
46.28539285937498
  1
2
 41
0.6700000000000001
  7
00
100
AcDbText
  0
ARC
  5
2A9B4
330
2A5FA
100
AcDbEntity
  8
SUNPOU
100
AcDbCircle
 10
10404.56180335147
 20
2761.444908363966
 30
0.0
 40
225.0
100
AcDbArc
 50
328.3472725282761
 51
31.65272747172387
  0
ENDSEC
  0
SECTION
  2
OBJECTS
  0
DICTIONARY
  5
2A5E8
330
0
100
AcDbDictionary
281
     1
  3
ACAD_GROUP
350
2A5E9
  3
ACAD_LAYOUT
350
2A5F5
  3
ACAD_MLINESTYLE
350
2A5F2
  3
ACAD_PLOTSETTINGS
350
2A5F4
  3
ACAD_PLOTSTYLENAME
350
2A5EA
  3
AcDbVariableDictionary
350
2A9B5
  0
DICTIONARY
  5
2A5E9
102
{ACAD_REACTORS
330
2A5E8
102
}
330
2A5E8
100
AcDbDictionary
281
     1
  0
DICTIONARY
  5
2A5F5
102
{ACAD_REACTORS
330
2A5E8
102
}
330
2A5E8
100
AcDbDictionary
281
     1
  3
Model
350
2A5FD
  3
ﾚｲｱｳﾄ1
350
2A5F9
  0
DICTIONARY
  5
2A5F2
102
{ACAD_REACTORS
330
2A5E8
102
}
330
2A5E8
100
AcDbDictionary
281
     1
  3
Standard
350
2A5F3
  0
DICTIONARY
  5
2A5F4
102
{ACAD_REACTORS
330
2A5E8
102
}
330
2A5E8
100
AcDbDictionary
281
     1
  0
ACDBDICTIONARYWDFLT
  5
2A5EA
102
{ACAD_REACTORS
330
2A5E8
102
}
330
2A5E8
100
AcDbDictionary
281
     1
  3
Normal
350
2A5EB
100
AcDbDictionaryWithDefault
340
2A5EB
  0
DICTIONARY
  5
2A9B5
102
{ACAD_REACTORS
330
2A5E8
102
}
330
2A5E8
100
AcDbDictionary
281
     1
  3
DIMASSOC
350
2A9B6
  0
LAYOUT
  5
2A5FD
102
{ACAD_REACTORS
330
2A5F5
102
}
330
2A5F5
100
AcDbPlotSettings
  1

  2
Muratec V-1200 Is@Web Printer
  4

  6

 40
0.0
 41
0.0
 42
0.0
 43
0.0
 44
0.0
 45
0.0
 46
0.0
 47
0.0
 48
0.0
 49
0.0
140
0.0
141
0.0
142
1.0
143
1.0
 70
  1712
 72
     0
 73
     0
 74
     0
  7

 75
     0
147
1.0
148
0.0
149
0.0
100
AcDbLayout
  1
Model
 70
     1
 71
     0
 10
0.0
 20
0.0
 11
12.0
 21
9.0
 12
0.0
 22
0.0
 32
0.0
 14
0.0
 24
0.0
 34
0.0
 15
0.0
 25
0.0
 35
0.0
146
0.0
 13
0.0
 23
0.0
 33
0.0
 16
1.0
 26
0.0
 36
0.0
 17
0.0
 27
1.0
 37
0.0
 76
     0
330
2A5FA
  0
LAYOUT
  5
2A5F9
102
{ACAD_REACTORS
330
2A5F5
102
}
330
2A5F5
100
AcDbPlotSettings
  1

  2
Muratec V-1200 Is@Web Printer
  4

  6

 40
0.0
 41
0.0
 42
0.0
 43
0.0
 44
0.0
 45
0.0
 46
0.0
 47
0.0
 48
0.0
 49
0.0
140
0.0
141
0.0
142
1.0
143
1.0
 70
   688
 72
     0
 73
     0
 74
     5
  7

 75
    16
147
1.0
148
0.0
149
0.0
100
AcDbLayout
  1
ﾚｲｱｳﾄ1
 70
     0
 71
     1
 10
0.0
 20
0.0
 11
12.0
 21
9.0
 12
0.0
 22
0.0
 32
0.0
 14
1.000000000000000E+20
 24
1.000000000000000E+20
 34
1.000000000000000E+20
 15
-1.000000000000000E+20
 25
-1.000000000000000E+20
 35
-1.000000000000000E+20
146
0.0
 13
0.0
 23
0.0
 33
0.0
 16
1.0
 26
0.0
 36
0.0
 17
0.0
 27
1.0
 37
0.0
 76
     0
330
2A5F6
  0
MLINESTYLE
  5
2A5F3
102
{ACAD_REACTORS
330
2A5F2
102
}
330
2A5F2
100
AcDbMlineStyle
  2
STANDARD
 70
     0
  3

 62
   256
 51
90.0
 52
90.0
 71
     2
 49
0.5
 62
   256
  6
BYLAYER
 49
-0.5
 62
   256
  6
BYLAYER
  0
ACDBPLACEHOLDER
  5
2A5EB
102
{ACAD_REACTORS
330
2A5EA
102
}
330
2A5EA
  0
DICTIONARYVAR
  5
2A9B6
102
{ACAD_REACTORS
330
2A9B5
102
}
330
2A9B5
100
DictionaryVariables
280
     0
  1
1
  0
ENDSEC
  0
EOF
